  0
SECTION
  2
HEADER
  9
$ACADVER
  1
AC1009
  9
$INSBASE
 10
0.0
 20
0.0
 30
0.0
  9
$EXTMIN
 10
0.237099
 20
0.237999
 30
0.0
  9
$EXTMAX
 10
392.237099
 20
262.737999
 30
0.0
  9
$LIMMIN
 10
0.0
 20
0.0
  9
$LIMMAX
 10
12.0
 20
9.0
  9
$ORTHOMODE
 70
     1
  9
$REGENMODE
 70
     1
  9
$FILLMODE
 70
     1
  9
$QTEXTMODE
 70
     0
  9
$MIRRTEXT
 70
     1
  9
$DRAGMODE
 70
     2
  9
$LTSCALE
 40
5.0
  9
$OSMODE
 70
     0
  9
$ATTMODE
 70
     1
  9
$TEXTSIZE
 40
2.0
  9
$TRACEWID
 40
0.05
  9
$TEXTSTYLE
  7
ROMANS
  9
$CLAYER
  8
0
  9
$CELTYPE
  6
CONTINUOUS
  9
$CECOLOR
 62
   256
  9
$DIMSCALE
 40
1.0
  9
$DIMASZ
 40
0.18
  9
$DIMEXO
 40
0.0625
  9
$DIMDLI
 40
0.38
  9
$DIMRND
 40
0.0
  9
$DIMDLE
 40
0.0
  9
$DIMEXE
 40
0.18
  9
$DIMTP
 40
0.0
  9
$DIMTM
 40
0.0
  9
$DIMTXT
 40
0.18
  9
$DIMCEN
 40
0.09
  9
$DIMTSZ
 40
0.0
  9
$DIMTOL
 70
     0
  9
$DIMLIM
 70
     0
  9
$DIMTIH
 70
     1
  9
$DIMTOH
 70
     1
  9
$DIMSE1
 70
     0
  9
$DIMSE2
 70
     0
  9
$DIMTAD
 70
     0
  9
$DIMZIN
 70
     0
  9
$DIMBLK
  1

  9
$DIMASO
 70
     1
  9
$DIMSHO
 70
     1
  9
$DIMPOST
  1

  9
$DIMAPOST
  1

  9
$DIMALT
 70
     0
  9
$DIMALTD
 70
     2
  9
$DIMALTF
 40
25.4
  9
$DIMLFAC
 40
1.0
  9
$DIMTOFL
 70
     0
  9
$DIMTVP
 40
0.0
  9
$DIMTIX
 70
     0
  9
$DIMSOXD
 70
     0
  9
$DIMSAH
 70
     0
  9
$DIMBLK1
  1

  9
$DIMBLK2
  1

  9
$DIMSTYLE
  2
*UNNAMED
  9
$DIMCLRD
 70
     0
  9
$DIMCLRE
 70
     0
  9
$DIMCLRT
 70
     0
  9
$DIMTFAC
 40
1.0
  9
$DIMGAP
 40
0.09
  9
$LUNITS
 70
     2
  9
$LUPREC
 70
     4
  9
$SKETCHINC
 40
0.1
  9
$FILLETRAD
 40
0.0
  9
$AUNITS
 70
     0
  9
$AUPREC
 70
     0
  9
$MENU
  1
acad
  9
$ELEVATION
 40
0.0
  9
$PELEVATION
 40
0.0
  9
$THICKNESS
 40
0.0
  9
$LIMCHECK
 70
     0
  9
$BLIPMODE
 70
     1
  9
$CHAMFERA
 40
0.0
  9
$CHAMFERB
 40
0.0
  9
$SKPOLY
 70
     0
  9
$TDCREATE
 40
2449514.419254398
  9
$TDUPDATE
 40
2449514.545355439
  9
$TDINDWG
 40
0.0023025463
  9
$TDUSRTIMER
 40
0.0023025463
  9
$USRTIMER
 70
     1
  9
$ANGBASE
 50
0.0
  9
$ANGDIR
 70
     0
  9
$PDMODE
 70
     0
  9
$PDSIZE
 40
0.0
  9
$PLINEWID
 40
0.0
  9
$COORDS
 70
     2
  9
$SPLFRAME
 70
     0
  9
$SPLINETYPE
 70
     6
  9
$SPLINESEGS
 70
     8
  9
$ATTDIA
 70
     0
  9
$ATTREQ
 70
     1
  9
$HANDLING
 70
     0
  9
$HANDSEED
  5
0
  9
$SURFTAB1
 70
   250
  9
$SURFTAB2
 70
   250
  9
$SURFTYPE
 70
     6
  9
$SURFU
 70
     6
  9
$SURFV
 70
     6
  9
$UCSNAME
  2

  9
$UCSORG
 10
0.0
 20
0.0
 30
0.0
  9
$UCSXDIR
 10
1.0
 20
0.0
 30
0.0
  9
$UCSYDIR
 10
0.0
 20
1.0
 30
0.0
  9
$PUCSNAME
  2

  9
$PUCSORG
 10
0.0
 20
0.0
 30
0.0
  9
$PUCSXDIR
 10
1.0
 20
0.0
 30
0.0
  9
$PUCSYDIR
 10
0.0
 20
1.0
 30
0.0
  9
$USERI1
 70
     0
  9
$USERI2
 70
     0
  9
$USERI3
 70
     0
  9
$USERI4
 70
     0
  9
$USERI5
 70
     0
  9
$USERR1
 40
0.0
  9
$USERR2
 40
0.0
  9
$USERR3
 40
0.0
  9
$USERR4
 40
0.0
  9
$USERR5
 40
0.0
  9
$WORLDVIEW
 70
     1
  9
$SHADEDGE
 70
     3
  9
$SHADEDIF
 70
    70
  9
$TILEMODE
 70
     1
  9
$MAXACTVP
 70
    16
  9
$PINSBASE
 10
0.0
 20
0.0
 30
0.0
  9
$PLIMCHECK
 70
     0
  9
$PEXTMIN
 10
1.000000E+20
 20
1.000000E+20
 30
1.000000E+20
  9
$PEXTMAX
 10
-1.000000E+20
 20
-1.000000E+20
 30
-1.000000E+20
  9
$PLIMMIN
 10
0.0
 20
0.0
  9
$PLIMMAX
 10
12.0
 20
9.0
  9
$UNITMODE
 70
     0
  9
$VISRETAIN
 70
     0
  9
$PLINEGEN
 70
     0
  9
$PSLTSCALE
 70
     0
  9
$TREEDEPTH
 70
  3020
  9
$DWGCODEPAGE
  3
undefined
  0
ENDSEC
  0
SECTION
  2
TABLES
  0
TABLE
  2
VPORT
 70
     2
  0
VPORT
  2
*ACTIVE
 70
     0
 10
0.0
 20
0.0
 11
1.0
 21
1.0
 12
222.522843
 22
142.040485
 13
0.0
 23
0.0
 14
2.5
 24
2.5
 15
0.0
 25
0.0
 16
0.0
 26
0.0
 36
1.0
 17
0.0
 27
0.0
 37
0.0
 40
284.080971
 41
1.566616
 42
50.0
 43
0.0
 44
0.0
 50
0.0
 51
0.0
 71
     0
 72
   100
 73
     1
 74
     1
 75
     1
 76
     0
 77
     0
 78
     0
  0
ENDTAB
  0
TABLE
  2
LTYPE
 70
     7
  0
LTYPE
  2
CONTINUOUS
 70
    64
  3
Solid line
 72
    65
 73
     0
 40
0.0
  0
LTYPE
  2
DASHED
 70
    64
  3
__ __ __ __ __ __ __ __ __ __ __ __ __ __ __ __
 72
    65
 73
     2
 40
0.75
 49
0.5
 49
-0.25
  0
LTYPE
  2
CENTER
 70
    64
  3
____ _ ____ _ ____ _ ____ _ ____ _ ____ _ ____ 
 72
    65
 73
     4
 40
2.0
 49
1.25
 49
-0.25
 49
0.25
 49
-0.25
  0
LTYPE
  2
HIDDEN
 70
    64
  3
__ __ __ __ __ __ __ __ __ __ __ __ __ __ __ __
 72
    65
 73
     2
 40
0.375
 49
0.25
 49
-0.125
  0
LTYPE
  2
DOT
 70
     0
  3
. . . . . . . . . . . . . . . . . . . . . . . .
 72
    65
 73
     2
 40
0.25
 49
0.0
 49
-0.25
  0
LTYPE
  2
DASHDOT
 70
     0
  3
__ . __ . __ . __ . __ . __ . __ . __ . __ . __
 72
    65
 73
     4
 40
1.0
 49
0.5
 49
-0.25
 49
0.0
 49
-0.25
  0
LTYPE
  2
PHANTOM
 70
     0
  3
______  __  __  ______  __  __  ______  __  __ 
 72
    65
 73
     6
 40
2.5
 49
1.25
 49
-0.25
 49
0.25
 49
-0.25
 49
0.25
 49
-0.25
  0
ENDTAB
  0
TABLE
  2
LAYER
 70
    13
  0
LAYER
  2
0
 70
    64
 62
     7
  6
CONTINUOUS
  0
LAYER
  2
RAAMI
 70
    64
 62
    -4
  6
CONTINUOUS
  0
LAYER
  2
PAKSU
 70
    64
 62
    -3
  6
CONTINUOUS
  0
LAYER
  2
OHUT
 70
    64
 62
    -6
  6
CONTINUOUS
  0
LAYER
  2
SWEDEN
 70
    64
 62
    -7
  6
CONTINUOUS
  0
LAYER
  2
SWEDEN2
 70
    64
 62
    -5
  6
CONTINUOUS
  0
LAYER
  2
BASE
 70
    64
 62
    -7
  6
CONTINUOUS
  0
LAYER
  2
21
 70
    64
 62
    -2
  6
CONTINUOUS
  0
LAYER
  2
HEL035
 70
    64
 62
    -7
  6
CONTINUOUS
  0
LAYER
  2
MUO
 70
    64
 62
    -7
  6
CONTINUOUS
  0
LAYER
  2
1
 70
    64
 62
    -2
  6
CONTINUOUS
  0
LAYER
  2
BASE1
 70
    64
 62
    -1
  6
CONTINUOUS
  0
LAYER
  2
TEKS
 70
    64
 62
    -5
  6
CONTINUOUS
  0
ENDTAB
  0
TABLE
  2
STYLE
 70
     6
  0
STYLE
  2
STANDARD
 70
    64
 40
0.0
 41
1.0
 50
0.0
 71
     0
 42
2.5
  3
txt
  4

  0
STYLE
  2
ROMANS
 70
    64
 40
0.0
 41
1.0
 50
0.0
 71
     0
 42
2.0
  3
romans
  4

  0
STYLE
  2
GREEKC
 70
     0
 40
0.0
 41
1.0
 50
0.0
 71
     0
 42
1.5
  3
GREEKC
  4

  0
STYLE
  2
GREEKS
 70
    64
 40
0.0
 41
1.0
 50
0.0
 71
     0
 42
3.0
  3
TXT
  4

  0
STYLE
  2
MONOTXT
 70
     0
 40
0.0
 41
1.0
 50
0.0
 71
     0
 42
2.0
  3
monotxt
  4

  0
STYLE
  2
ROMANT
 70
     0
 40
0.0
 41
1.0
 50
0.0
 71
     0
 42
2.5
  3
romant
  4

  0
ENDTAB
  0
TABLE
  2
VIEW
 70
     0
  0
ENDTAB
  0
TABLE
  2
UCS
 70
     0
  0
ENDTAB
  0
TABLE
  2
APPID
 70
     1
  0
APPID
  2
ACAD
 70
    64
  0
ENDTAB
  0
TABLE
  2
DIMSTYLE
 70
     0
  0
ENDTAB
  0
ENDSEC
  0
SECTION
  2
BLOCKS
  0
BLOCK
  8
0
  2
1
 70
    64
 10
0.0
 20
0.0
 30
0.0
  3
1
  0
ENDBLK
  8
0
  0
BLOCK
  8
0
  2
BLC16
 70
     0
 10
0.0
 20
0.0
 30
0.0
  3
BLC16
  0
LINE
  8
0
  6
CONTINUOUS
 10
0.007689
 20
38.054928
 30
0.0
 11
19.983683
 21
38.054928
 31
0.0
  0
LINE
  8
0
  6
CONTINUOUS
 10
19.983683
 20
38.054928
 30
0.0
 11
19.983683
 21
-0.003751
 31
0.0
  0
LINE
  8
0
  6
CONTINUOUS
 10
19.983683
 20
-0.003751
 30
0.0
 11
0.007689
 21
-0.003751
 31
0.0
  0
LINE
  8
0
  6
CONTINUOUS
 10
0.007689
 20
-0.003751
 30
0.0
 11
0.007689
 21
38.054928
 31
0.0
  0
LINE
  8
0
  6
CONTINUOUS
 10
14.152643
 20
36.919738
 30
0.0
 11
14.152643
 21
33.528469
 31
0.0
  0
LINE
  8
0
  6
CONTINUOUS
 10
14.152643
 20
33.528469
 30
0.0
 11
11.560435
 21
33.528469
 31
0.0
  0
LINE
  8
0
  6
CONTINUOUS
 10
11.560435
 20
33.528469
 30
0.0
 11
11.560435
 21
30.778433
 31
0.0
  0
LINE
  8
0
  6
CONTINUOUS
 10
11.560435
 20
30.778433
 30
0.0
 11
14.152643
 21
30.778433
 31
0.0
  0
LINE
  8
0
  6
CONTINUOUS
 10
14.152643
 20
30.778433
 30
0.0
 11
14.152643
 21
27.387164
 31
0.0
  0
TEXT
  8
0
  6
CONTINUOUS
 10
6.558569
 20
30.805266
 30
0.0
 40
2.5
  1
2
 11
6.558569
 21
29.971932
 31
0.0
 73
     1
  0
TEXT
  8
0
  6
CONTINUOUS
 10
6.553289
 20
23.854078
 30
0.0
 40
2.5
  1
2 I
 11
6.553289
 21
23.020744
 31
0.0
 73
     1
  0
LINE
  8
0
  6
CONTINUOUS
 10
12.942534
 20
26.359129
 30
0.0
 11
15.288299
 21
25.023775
 31
0.0
  0
LINE
  8
0
  6
CONTINUOUS
 10
15.288299
 20
25.023775
 30
0.0
 11
12.942534
 21
23.833856
 31
0.0
  0
LINE
  8
0
  6
CONTINUOUS
 10
14.169823
 20
26.359129
 30
0.0
 11
16.515589
 21
25.023775
 31
0.0
  0
LINE
  8
0
  6
CONTINUOUS
 10
16.515589
 20
25.023775
 30
0.0
 11
14.169823
 21
23.833856
 31
0.0
  0
TEXT
  8
0
  6
CONTINUOUS
 10
11.566446
 20
19.235679
 30
0.0
 40
2.5
  1
I
 11
11.566446
 21
18.402346
 31
0.0
 73
     1
  0
TEXT
  8
0
  6
CONTINUOUS
 10
13.018181
 20
18.902346
 30
0.0
 40
1.5
  1
2
 11
13.018181
 21
18.402346
 31
0.0
 73
     1
  0
LINE
  8
0
  6
CONTINUOUS
 10
10.65733
 20
12.773825
 30
0.0
 11
13.003095
 21
13.963744
 31
0.0
  0
LINE
  8
0
  6
CONTINUOUS
 10
13.003095
 20
11.438471
 30
0.0
 11
10.65733
 21
12.773825
 31
0.0
  0
LINE
  8
0
  6
CONTINUOUS
 10
6.557002
 20
16.714658
 30
0.0
 11
15.281743
 21
16.714658
 31
0.0
  0
LINE
  8
0
  6
CONTINUOUS
 10
6.557002
 20
17.523984
 30
0.0
 11
6.557002
 21
15.908791
 31
0.0
  0
LINE
  8
0
  6
CONTINUOUS
 10
15.286518
 20
17.523984
 30
0.0
 11
15.286518
 21
15.908791
 31
0.0
  0
ARC
  8
0
  6
CONTINUOUS
 10
12.684846
 20
18.508045
 30
0.0
 40
2.922744
 50
193.105513
 51
283.105513
  0
TEXT
  8
0
  6
CONTINUOUS
 10
6.557002
 20
11.567974
 30
0.0
 40
2.5
  1
2I
 11
6.557002
 21
10.734641
 31
0.0
 73
     1
  0
LINE
  8
0
  6
CONTINUOUS
 10
6.557002
 20
9.441103
 30
0.0
 11
15.281743
 21
9.441103
 31
0.0
  0
LINE
  8
0
  6
CONTINUOUS
 10
15.286518
 20
10.250429
 30
0.0
 11
15.286518
 21
8.635236
 31
0.0
  0
LINE
  8
0
  6
CONTINUOUS
 10
6.557002
 20
10.250429
 30
0.0
 11
6.557002
 21
8.635236
 31
0.0
  0
TEXT
  8
0
  6
CONTINUOUS
 10
6.557002
 20
4.778631
 30
0.0
 40
2.5
  1
I
 11
6.557002
 21
3.945298
 31
0.0
 73
     1
  0
LINE
  8
0
  6
CONTINUOUS
 10
9.509029
 20
6.822462
 30
0.0
 11
9.509029
 21
5.477736
 31
0.0
  0
LINE
  8
0
  6
CONTINUOUS
 10
8.615065
 20
5.477736
 30
0.0
 11
9.52622
 21
5.477736
 31
0.0
  0
LINE
  8
0
  6
CONTINUOUS
 10
9.509029
 20
5.477736
 30
0.0
 11
10.402992
 21
5.477736
 31
0.0
  0
LINE
  8
0
  6
CONTINUOUS
 10
8.901592
 20
5.082328
 30
0.0
 11
9.509029
 21
5.082328
 31
0.0
  0
LINE
  8
0
  6
CONTINUOUS
 10
9.509029
 20
5.082328
 30
0.0
 11
10.150849
 21
5.082328
 31
0.0
  0
LINE
  8
0
  6
CONTINUOUS
 10
9.981861
 20
4.719969
 30
0.0
 11
9.072041
 21
4.719969
 31
0.0
  0
LINE
  8
0
  6
CONTINUOUS
 10
15.286518
 20
2.797924
 30
0.0
 11
15.286518
 21
1.182731
 31
0.0
  0
LINE
  8
0
  6
CONTINUOUS
 10
6.557002
 20
1.988598
 30
0.0
 11
15.281743
 21
1.988598
 31
0.0
  0
LINE
  8
0
  6
CONTINUOUS
 10
6.557002
 20
2.797924
 30
0.0
 11
6.557002
 21
1.182731
 31
0.0
  0
ENDBLK
  8
0
  0
BLOCK
  8
0
  2
BLC27
 70
    64
 10
0.0
 20
0.0
 30
0.0
  3
BLC27
  0
INSERT
  8
SWEDEN2
  6
CENTER
  2
BLC26
 10
0.08063
 20
0.037985
 30
0.0
 41
1.006225
 42
1.006225
 43
1.006225
  0
ENDBLK
  8
0
  0
BLOCK
  8
0
  2
BLC26
 70
    64
 10
0.0
 20
0.0
 30
0.0
  3
BLC26
  0
ARC
  8
0
  6
CONTINUOUS
 10
-0.180576
 20
1.17922
 30
0.0
 40
1.196859
 50
90.0
 51
265.706237
  0
LINE
  8
0
  6
CONTINUOUS
 10
-0.186638
 20
-0.01092
 30
0.0
 11
0.458942
 21
-0.01092
 31
0.0
  0
LINE
  8
0
  6
CONTINUOUS
 10
-0.186638
 20
2.375671
 30
0.0
 11
0.45288
 21
2.375671
 31
0.0
  0
LINE
  8
0
  6
CONTINUOUS
 10
-0.185509
 20
-2.404629
 30
0.0
 11
0.460071
 21
-2.404629
 31
0.0
  0
ARC
  8
0
  6
CONTINUOUS
 10
-0.180576
 20
-1.207779
 30
0.0
 40
1.196859
 50
90.0
 51
270.0
  0
LINE
  8
0
  6
CONTINUOUS
 10
0.451525
 20
-2.404586
 30
0.0
 11
1.401805
 21
-2.404586
 31
0.0
  0
LINE
  8
0
  6
CONTINUOUS
 10
0.446785
 20
2.375674
 30
0.0
 11
1.418544
 21
2.375674
 31
0.0
  0
LINE
  8
0
  6
CONTINUOUS
 10
0.456627
 20
-0.010911
 30
0.0
 11
1.422749
 21
-0.010911
 31
0.0
  0
ENDBLK
  8
0
  0
BLOCK
  8
0
  2
BLC22
 70
     0
 10
0.0
 20
0.0
 30
0.0
  3
BLC22
  0
LINE
  8
HEL035
 10
0.0
 20
-0.00155
 30
0.0
 11
0.0
 21
9.99845
 31
0.0
  0
LINE
  8
21
 10
2.5
 20
10.0
 30
0.0
 11
5.0
 21
10.0
 31
0.0
  0
LINE
  8
HEL035
 10
0.0
 20
9.99845
 30
0.0
 11
2.5
 21
9.99845
 31
0.0
  0
LINE
  8
HEL035
 10
-2.5
 20
5.0
 30
0.0
 11
2.5
 21
5.0
 31
0.0
  0
LINE
  8
21
 10
2.5
 20
5.0
 30
0.0
 11
5.0
 21
5.0
 31
0.0
  0
LINE
  8
21
 10
5.0
 20
5.0
 30
0.0
 11
5.0
 21
7.9
 31
0.0
  0
LINE
  8
HEL035
 10
3.88095
 20
6.944425
 30
0.0
 11
4.560313
 21
6.008681
 31
0.0
  0
LINE
  8
21
 10
10.0
 20
10.0
 30
0.0
 11
4.2
 21
6.5
 31
0.0
  0
LINE
  8
HEL035
 10
2.5
 20
-0.00155
 30
0.0
 11
0.0
 21
-0.00155
 31
0.0
  0
LINE
  8
21
 10
2.5
 20
0.0
 30
0.0
 11
5.0
 21
0.0
 31
0.0
  0
ENDBLK
  8
0
  0
BLOCK
  8
0
  2
BLC18
 70
     0
 10
0.0
 20
0.0
 30
0.0
  3
BLC18
  0
LINE
  8
MUO
 10
-0.056268
 20
0.849555
 30
0.0
 11
8.307242
 21
9.215502
 31
0.0
  0
LINE
  8
MUO
 10
0.928025
 20
-0.107047
 30
0.0
 11
9.268386
 21
8.2307
 31
0.0
  0
LINE
  8
MUO
 10
-0.056268
 20
-0.107047
 30
0.0
 11
-0.056268
 21
9.215502
 31
0.0
  0
LINE
  8
MUO
 10
9.268386
 20
-0.107047
 30
0.0
 11
-0.056268
 21
-0.107047
 31
0.0
  0
LINE
  8
MUO
 10
9.268386
 20
9.215502
 30
0.0
 11
9.268386
 21
-0.107047
 31
0.0
  0
LINE
  8
MUO
 10
-0.056268
 20
9.215502
 30
0.0
 11
9.268386
 21
9.215502
 31
0.0
  0
ENDBLK
  8
0
  0
BLOCK
  8
0
  2
BLC29
 70
    64
 10
0.0
 20
0.0
 30
0.0
  3
BLC29
  0
LINE
  8
0
  6
CONTINUOUS
 10
0.004865
 20
1.206889
 30
0.0
 11
2.350631
 21
-0.128465
 31
0.0
  0
LINE
  8
0
  6
CONTINUOUS
 10
2.350631
 20
-0.128465
 30
0.0
 11
0.004865
 21
-1.318384
 31
0.0
  0
ENDBLK
  8
0
  0
BLOCK
  8
0
  2
WKU130
 70
     0
 10
190.0
 20
250.0
 30
0.0
  3
WKU130
  0
ARC
  8
21
 10
191.083333
 20
249.916667
 30
0.0
 40
1.086534
 50
32.471192
 51
175.601295
  0
ARC
  8
21
 10
192.916667
 20
251.083333
 30
0.0
 40
1.086534
 50
212.471192
 51
355.601295
  0
ENDBLK
  8
0
  0
BLOCK
  8
0
  2
*X8
 70
    65
 10
0.0
 20
0.0
 30
0.0
  3
*X
  0
LINE
  8
0
 62
     0
 10
2.284499
 20
6.52714
 30
0.0
 11
4.8
 21
9.042641
 31
0.0
  0
LINE
  8
0
 62
     0
 10
2.379686
 20
6.799104
 30
0.0
 11
4.8
 21
9.219417
 31
0.0
  0
LINE
  8
0
 62
     0
 10
2.474874
 20
7.071068
 30
0.0
 11
4.8
 21
9.396194
 31
0.0
  0
LINE
  8
0
 62
     0
 10
2.570061
 20
7.343032
 30
0.0
 11
4.8
 21
9.572971
 31
0.0
  0
LINE
  8
0
 62
     0
 10
2.665249
 20
7.614996
 30
0.0
 11
4.8
 21
9.749747
 31
0.0
  0
LINE
  8
0
 62
     0
 10
2.760436
 20
7.88696
 30
0.0
 11
4.8
 21
9.926524
 31
0.0
  0
LINE
  8
0
 62
     0
 10
2.855624
 20
8.158924
 30
0.0
 11
4.696699
 21
10.0
 31
0.0
  0
LINE
  8
0
 62
     0
 10
2.950811
 20
8.430889
 30
0.0
 11
4.519922
 21
10.0
 31
0.0
  0
LINE
  8
0
 62
     0
 10
3.045998
 20
8.702853
 30
0.0
 11
4.343146
 21
10.0
 31
0.0
  0
LINE
  8
0
 62
     0
 10
3.141186
 20
8.974817
 30
0.0
 11
4.166369
 21
10.0
 31
0.0
  0
LINE
  8
0
 62
     0
 10
3.236373
 20
9.246781
 30
0.0
 11
3.989592
 21
10.0
 31
0.0
  0
LINE
  8
0
 62
     0
 10
3.331561
 20
9.518745
 30
0.0
 11
3.812816
 21
10.0
 31
0.0
  0
LINE
  8
0
 62
     0
 10
3.426748
 20
9.790709
 30
0.0
 11
3.636039
 21
10.0
 31
0.0
  0
LINE
  8
0
 62
     0
 10
2.189311
 20
6.255175
 30
0.0
 11
4.8
 21
8.865864
 31
0.0
  0
LINE
  8
0
 62
     0
 10
2.094124
 20
5.983211
 30
0.0
 11
4.8
 21
8.689087
 31
0.0
  0
LINE
  8
0
 62
     0
 10
1.998936
 20
5.711247
 30
0.0
 11
4.8
 21
8.512311
 31
0.0
  0
LINE
  8
0
 62
     0
 10
1.903749
 20
5.439283
 30
0.0
 11
4.8
 21
8.335534
 31
0.0
  0
LINE
  8
0
 62
     0
 10
1.841243
 20
5.2
 30
0.0
 11
4.8
 21
8.158757
 31
0.0
  0
LINE
  8
0
 62
     0
 10
2.018019
 20
5.2
 30
0.0
 11
4.8
 21
7.981981
 31
0.0
  0
LINE
  8
0
 62
     0
 10
2.194796
 20
5.2
 30
0.0
 11
4.8
 21
7.805204
 31
0.0
  0
LINE
  8
0
 62
     0
 10
2.371573
 20
5.2
 30
0.0
 11
4.8
 21
7.628427
 31
0.0
  0
LINE
  8
0
 62
     0
 10
2.54835
 20
5.2
 30
0.0
 11
4.8
 21
7.45165
 31
0.0
  0
LINE
  8
0
 62
     0
 10
2.725126
 20
5.2
 30
0.0
 11
4.8
 21
7.274874
 31
0.0
  0
LINE
  8
0
 62
     0
 10
2.901903
 20
5.2
 30
0.0
 11
4.8
 21
7.098097
 31
0.0
  0
LINE
  8
0
 62
     0
 10
3.07868
 20
5.2
 30
0.0
 11
4.8
 21
6.92132
 31
0.0
  0
LINE
  8
0
 62
     0
 10
3.255456
 20
5.2
 30
0.0
 11
4.8
 21
6.744544
 31
0.0
  0
LINE
  8
0
 62
     0
 10
3.432233
 20
5.2
 30
0.0
 11
4.8
 21
6.567767
 31
0.0
  0
LINE
  8
0
 62
     0
 10
3.60901
 20
5.2
 30
0.0
 11
4.8
 21
6.39099
 31
0.0
  0
LINE
  8
0
 62
     0
 10
3.785786
 20
5.2
 30
0.0
 11
4.8
 21
6.214214
 31
0.0
  0
LINE
  8
0
 62
     0
 10
3.962563
 20
5.2
 30
0.0
 11
4.8
 21
6.037437
 31
0.0
  0
LINE
  8
0
 62
     0
 10
4.13934
 20
5.2
 30
0.0
 11
4.8
 21
5.86066
 31
0.0
  0
LINE
  8
0
 62
     0
 10
4.316117
 20
5.2
 30
0.0
 11
4.8
 21
5.683883
 31
0.0
  0
LINE
  8
0
 62
     0
 10
4.492893
 20
5.2
 30
0.0
 11
4.8
 21
5.507107
 31
0.0
  0
LINE
  8
0
 62
     0
 10
4.66967
 20
5.2
 30
0.0
 11
4.8
 21
5.33033
 31
0.0
  0
ENDBLK
  8
0
  0
BLOCK
  8
0
  2
*X9
 70
    65
 10
0.0
 20
0.0
 30
0.0
  3
*X
  0
LINE
  8
0
 62
     0
 10
5.2
 20
6.083883
 30
0.0
 11
7.178252
 21
8.062136
 31
0.0
  0
LINE
  8
0
 62
     0
 10
5.2
 20
6.26066
 30
0.0
 11
7.132421
 21
8.193082
 31
0.0
  0
LINE
  8
0
 62
     0
 10
5.2
 20
6.437437
 30
0.0
 11
7.08659
 21
8.324027
 31
0.0
  0
LINE
  8
0
 62
     0
 10
5.2
 20
6.614214
 30
0.0
 11
7.040759
 21
8.454973
 31
0.0
  0
LINE
  8
0
 62
     0
 10
5.2
 20
6.79099
 30
0.0
 11
6.994928
 21
8.585919
 31
0.0
  0
LINE
  8
0
 62
     0
 10
5.2
 20
6.967767
 30
0.0
 11
6.949097
 21
8.716864
 31
0.0
  0
LINE
  8
0
 62
     0
 10
5.2
 20
7.144544
 30
0.0
 11
6.903266
 21
8.84781
 31
0.0
  0
LINE
  8
0
 62
     0
 10
5.2
 20
7.32132
 30
0.0
 11
6.857435
 21
8.978756
 31
0.0
  0
LINE
  8
0
 62
     0
 10
5.2
 20
7.498097
 30
0.0
 11
6.811604
 21
9.109702
 31
0.0
  0
LINE
  8
0
 62
     0
 10
5.2
 20
7.674874
 30
0.0
 11
6.765773
 21
9.240647
 31
0.0
  0
LINE
  8
0
 62
     0
 10
5.2
 20
7.85165
 30
0.0
 11
6.719942
 21
9.371593
 31
0.0
  0
LINE
  8
0
 62
     0
 10
5.2
 20
8.028427
 30
0.0
 11
6.674111
 21
9.502539
 31
0.0
  0
LINE
  8
0
 62
     0
 10
5.2
 20
8.205204
 30
0.0
 11
6.62828
 21
9.633484
 31
0.0
  0
LINE
  8
0
 62
     0
 10
5.2
 20
8.381981
 30
0.0
 11
6.582449
 21
9.76443
 31
0.0
  0
LINE
  8
0
 62
     0
 10
5.2
 20
8.558757
 30
0.0
 11
6.536619
 21
9.895376
 31
0.0
  0
LINE
  8
0
 62
     0
 10
5.2
 20
8.735534
 30
0.0
 11
6.464466
 21
10.0
 31
0.0
  0
LINE
  8
0
 62
     0
 10
5.2
 20
8.912311
 30
0.0
 11
6.287689
 21
10.0
 31
0.0
  0
LINE
  8
0
 62
     0
 10
5.2
 20
9.089087
 30
0.0
 11
6.110913
 21
10.0
 31
0.0
  0
LINE
  8
0
 62
     0
 10
5.2
 20
9.265864
 30
0.0
 11
5.934136
 21
10.0
 31
0.0
  0
LINE
  8
0
 62
     0
 10
5.2
 20
9.442641
 30
0.0
 11
5.757359
 21
10.0
 31
0.0
  0
LINE
  8
0
 62
     0
 10
5.2
 20
9.619417
 30
0.0
 11
5.580583
 21
10.0
 31
0.0
  0
LINE
  8
0
 62
     0
 10
5.2
 20
9.796194
 30
0.0
 11
5.403806
 21
10.0
 31
0.0
  0
LINE
  8
0
 62
     0
 10
5.2
 20
9.972971
 30
0.0
 11
5.227029
 21
10.0
 31
0.0
  0
LINE
  8
0
 62
     0
 10
5.2
 20
5.907107
 30
0.0
 11
7.224083
 21
7.93119
 31
0.0
  0
LINE
  8
0
 62
     0
 10
5.2
 20
5.73033
 30
0.0
 11
7.269914
 21
7.800245
 31
0.0
  0
LINE
  8
0
 62
     0
 10
5.2
 20
5.553553
 30
0.0
 11
7.315745
 21
7.669299
 31
0.0
  0
LINE
  8
0
 62
     0
 10
5.2
 20
5.376777
 30
0.0
 11
7.361576
 21
7.538353
 31
0.0
  0
LINE
  8
0
 62
     0
 10
5.2
 20
5.2
 30
0.0
 11
7.407407
 21
7.407407
 31
0.0
  0
LINE
  8
0
 62
     0
 10
5.376777
 20
5.2
 30
0.0
 11
7.453238
 21
7.276462
 31
0.0
  0
LINE
  8
0
 62
     0
 10
5.553553
 20
5.2
 30
0.0
 11
7.499069
 21
7.145516
 31
0.0
  0
LINE
  8
0
 62
     0
 10
5.73033
 20
5.2
 30
0.0
 11
7.5449
 21
7.01457
 31
0.0
  0
LINE
  8
0
 62
     0
 10
5.907107
 20
5.2
 30
0.0
 11
7.590731
 21
6.883625
 31
0.0
  0
LINE
  8
0
 62
     0
 10
6.083883
 20
5.2
 30
0.0
 11
7.636562
 21
6.752679
 31
0.0
  0
LINE
  8
0
 62
     0
 10
6.26066
 20
5.2
 30
0.0
 11
7.682393
 21
6.621733
 31
0.0
  0
LINE
  8
0
 62
     0
 10
6.437437
 20
5.2
 30
0.0
 11
7.728224
 21
6.490788
 31
0.0
  0
LINE
  8
0
 62
     0
 10
6.614214
 20
5.2
 30
0.0
 11
7.774055
 21
6.359842
 31
0.0
  0
LINE
  8
0
 62
     0
 10
6.79099
 20
5.2
 30
0.0
 11
7.819886
 21
6.228896
 31
0.0
  0
LINE
  8
0
 62
     0
 10
6.967767
 20
5.2
 30
0.0
 11
7.865717
 21
6.09795
 31
0.0
  0
LINE
  8
0
 62
     0
 10
7.144544
 20
5.2
 30
0.0
 11
7.911548
 21
5.967005
 31
0.0
  0
LINE
  8
0
 62
     0
 10
7.32132
 20
5.2
 30
0.0
 11
7.957379
 21
5.836059
 31
0.0
  0
LINE
  8
0
 62
     0
 10
7.498097
 20
5.2
 30
0.0
 11
8.00321
 21
5.705113
 31
0.0
  0
LINE
  8
0
 62
     0
 10
7.674874
 20
5.2
 30
0.0
 11
8.049041
 21
5.574168
 31
0.0
  0
LINE
  8
0
 62
     0
 10
7.85165
 20
5.2
 30
0.0
 11
8.094872
 21
5.443222
 31
0.0
  0
LINE
  8
0
 62
     0
 10
8.028427
 20
5.2
 30
0.0
 11
8.140703
 21
5.312276
 31
0.0
  0
ENDBLK
  8
0
  0
BLOCK
  8
0
  2
*X10
 70
    65
 10
0.0
 20
0.0
 30
0.0
  3
*X
  0
LINE
  8
0
 62
     0
 10
0.0
 20
0.0
 30
0.0
 11
4.8
 21
4.8
 31
0.0
  0
LINE
  8
0
 62
     0
 10
0.095187
 20
0.271964
 30
0.0
 11
4.623223
 21
4.8
 31
0.0
  0
LINE
  8
0
 62
     0
 10
0.190375
 20
0.543928
 30
0.0
 11
4.446447
 21
4.8
 31
0.0
  0
LINE
  8
0
 62
     0
 10
0.285562
 20
0.815892
 30
0.0
 11
4.26967
 21
4.8
 31
0.0
  0
LINE
  8
0
 62
     0
 10
0.38075
 20
1.087857
 30
0.0
 11
4.092893
 21
4.8
 31
0.0
  0
LINE
  8
0
 62
     0
 10
0.475937
 20
1.359821
 30
0.0
 11
3.916117
 21
4.8
 31
0.0
  0
LINE
  8
0
 62
     0
 10
0.571125
 20
1.631785
 30
0.0
 11
3.73934
 21
4.8
 31
0.0
  0
LINE
  8
0
 62
     0
 10
0.666312
 20
1.903749
 30
0.0
 11
3.562563
 21
4.8
 31
0.0
  0
LINE
  8
0
 62
     0
 10
0.7615
 20
2.175713
 30
0.0
 11
3.385786
 21
4.8
 31
0.0
  0
LINE
  8
0
 62
     0
 10
0.856687
 20
2.447677
 30
0.0
 11
3.20901
 21
4.8
 31
0.0
  0
LINE
  8
0
 62
     0
 10
0.951875
 20
2.719641
 30
0.0
 11
3.032233
 21
4.8
 31
0.0
  0
LINE
  8
0
 62
     0
 10
1.047062
 20
2.991606
 30
0.0
 11
2.855456
 21
4.8
 31
0.0
  0
LINE
  8
0
 62
     0
 10
1.142249
 20
3.26357
 30
0.0
 11
2.67868
 21
4.8
 31
0.0
  0
LINE
  8
0
 62
     0
 10
1.237437
 20
3.535534
 30
0.0
 11
2.501903
 21
4.8
 31
0.0
  0
LINE
  8
0
 62
     0
 10
1.332624
 20
3.807498
 30
0.0
 11
2.325126
 21
4.8
 31
0.0
  0
LINE
  8
0
 62
     0
 10
1.427812
 20
4.079462
 30
0.0
 11
2.14835
 21
4.8
 31
0.0
  0
LINE
  8
0
 62
     0
 10
1.522999
 20
4.351426
 30
0.0
 11
1.971573
 21
4.8
 31
0.0
  0
LINE
  8
0
 62
     0
 10
1.618187
 20
4.62339
 30
0.0
 11
1.794796
 21
4.8
 31
0.0
  0
LINE
  8
0
 62
     0
 10
0.176777
 20
0.0
 30
0.0
 11
4.8
 21
4.623223
 31
0.0
  0
LINE
  8
0
 62
     0
 10
0.353553
 20
0.0
 30
0.0
 11
4.8
 21
4.446447
 31
0.0
  0
LINE
  8
0
 62
     0
 10
0.53033
 20
0.0
 30
0.0
 11
4.8
 21
4.26967
 31
0.0
  0
LINE
  8
0
 62
     0
 10
0.707107
 20
0.0
 30
0.0
 11
4.8
 21
4.092893
 31
0.0
  0
LINE
  8
0
 62
     0
 10
0.883883
 20
0.0
 30
0.0
 11
4.8
 21
3.916117
 31
0.0
  0
LINE
  8
0
 62
     0
 10
1.06066
 20
0.0
 30
0.0
 11
4.8
 21
3.73934
 31
0.0
  0
LINE
  8
0
 62
     0
 10
1.237437
 20
0.0
 30
0.0
 11
3.179842
 21
1.942405
 31
0.0
  0
LINE
  8
0
 62
     0
 10
3.237437
 20
2.0
 30
0.0
 11
4.8
 21
3.562563
 31
0.0
  0
LINE
  8
0
 62
     0
 10
1.414214
 20
0.0
 30
0.0
 11
3.084654
 21
1.670441
 31
0.0
  0
LINE
  8
0
 62
     0
 10
3.414214
 20
2.0
 30
0.0
 11
4.8
 21
3.385786
 31
0.0
  0
LINE
  8
0
 62
     0
 10
1.59099
 20
0.0
 30
0.0
 11
2.989467
 21
1.398477
 31
0.0
  0
LINE
  8
0
 62
     0
 10
3.59099
 20
2.0
 30
0.0
 11
4.8
 21
3.20901
 31
0.0
  0
LINE
  8
0
 62
     0
 10
1.767767
 20
0.0
 30
0.0
 11
2.894279
 21
1.126512
 31
0.0
  0
LINE
  8
0
 62
     0
 10
3.767767
 20
2.0
 30
0.0
 11
4.8
 21
3.032233
 31
0.0
  0
LINE
  8
0
 62
     0
 10
1.944544
 20
0.0
 30
0.0
 11
2.799092
 21
0.854548
 31
0.0
  0
LINE
  8
0
 62
     0
 10
3.944544
 20
2.0
 30
0.0
 11
4.8
 21
2.855456
 31
0.0
  0
LINE
  8
0
 62
     0
 10
2.12132
 20
0.0
 30
0.0
 11
2.703904
 21
0.582584
 31
0.0
  0
LINE
  8
0
 62
     0
 10
4.12132
 20
2.0
 30
0.0
 11
4.8
 21
2.67868
 31
0.0
  0
LINE
  8
0
 62
     0
 10
2.298097
 20
0.0
 30
0.0
 11
2.608717
 21
0.31062
 31
0.0
  0
LINE
  8
0
 62
     0
 10
4.298097
 20
2.0
 30
0.0
 11
4.8
 21
2.501903
 31
0.0
  0
LINE
  8
0
 62
     0
 10
2.474874
 20
0.0
 30
0.0
 11
2.51353
 21
0.038656
 31
0.0
  0
LINE
  8
0
 62
     0
 10
4.474874
 20
2.0
 30
0.0
 11
4.8
 21
2.325126
 31
0.0
  0
LINE
  8
0
 62
     0
 10
4.65165
 20
2.0
 30
0.0
 11
4.8
 21
2.14835
 31
0.0
  0
ENDBLK
  8
0
  0
BLOCK
  8
0
  2
*X11
 70
    65
 10
0.0
 20
0.0
 30
0.0
  3
*X
  0
LINE
  8
0
 62
     0
 10
6.884654
 20
1.75813
 30
0.0
 11
8.736506
 21
3.609982
 31
0.0
  0
LINE
  8
0
 62
     0
 10
6.838823
 20
1.889076
 30
0.0
 11
8.690675
 21
3.740928
 31
0.0
  0
LINE
  8
0
 62
     0
 10
6.772971
 20
2.0
 30
0.0
 11
8.644844
 21
3.871874
 31
0.0
  0
LINE
  8
0
 62
     0
 10
6.596194
 20
2.0
 30
0.0
 11
8.599013
 21
4.002819
 31
0.0
  0
LINE
  8
0
 62
     0
 10
6.419417
 20
2.0
 30
0.0
 11
8.553182
 21
4.133765
 31
0.0
  0
LINE
  8
0
 62
     0
 10
6.242641
 20
2.0
 30
0.0
 11
8.507351
 21
4.264711
 31
0.0
  0
LINE
  8
0
 62
     0
 10
6.065864
 20
2.0
 30
0.0
 11
8.46152
 21
4.395656
 31
0.0
  0
LINE
  8
0
 62
     0
 10
5.889087
 20
2.0
 30
0.0
 11
8.415689
 21
4.526602
 31
0.0
  0
LINE
  8
0
 62
     0
 10
5.712311
 20
2.0
 30
0.0
 11
8.369858
 21
4.657548
 31
0.0
  0
LINE
  8
0
 62
     0
 10
5.535534
 20
2.0
 30
0.0
 11
8.324027
 21
4.788493
 31
0.0
  0
LINE
  8
0
 62
     0
 10
5.358757
 20
2.0
 30
0.0
 11
8.158757
 21
4.8
 31
0.0
  0
LINE
  8
0
 62
     0
 10
5.2
 20
2.018019
 30
0.0
 11
7.981981
 21
4.8
 31
0.0
  0
LINE
  8
0
 62
     0
 10
5.2
 20
2.194796
 30
0.0
 11
7.805204
 21
4.8
 31
0.0
  0
LINE
  8
0
 62
     0
 10
5.2
 20
2.371573
 30
0.0
 11
7.628427
 21
4.8
 31
0.0
  0
LINE
  8
0
 62
     0
 10
5.2
 20
2.54835
 30
0.0
 11
7.45165
 21
4.8
 31
0.0
  0
LINE
  8
0
 62
     0
 10
5.2
 20
2.725126
 30
0.0
 11
7.274874
 21
4.8
 31
0.0
  0
LINE
  8
0
 62
     0
 10
5.2
 20
2.901903
 30
0.0
 11
7.098097
 21
4.8
 31
0.0
  0
LINE
  8
0
 62
     0
 10
5.2
 20
3.07868
 30
0.0
 11
6.92132
 21
4.8
 31
0.0
  0
LINE
  8
0
 62
     0
 10
5.2
 20
3.255456
 30
0.0
 11
6.744544
 21
4.8
 31
0.0
  0
LINE
  8
0
 62
     0
 10
5.2
 20
3.432233
 30
0.0
 11
6.567767
 21
4.8
 31
0.0
  0
LINE
  8
0
 62
     0
 10
5.2
 20
3.60901
 30
0.0
 11
6.39099
 21
4.8
 31
0.0
  0
LINE
  8
0
 62
     0
 10
5.2
 20
3.785786
 30
0.0
 11
6.214214
 21
4.8
 31
0.0
  0
LINE
  8
0
 62
     0
 10
5.2
 20
3.962563
 30
0.0
 11
6.037437
 21
4.8
 31
0.0
  0
LINE
  8
0
 62
     0
 10
5.2
 20
4.13934
 30
0.0
 11
5.86066
 21
4.8
 31
0.0
  0
LINE
  8
0
 62
     0
 10
5.2
 20
4.316117
 30
0.0
 11
5.683883
 21
4.8
 31
0.0
  0
LINE
  8
0
 62
     0
 10
5.2
 20
4.492893
 30
0.0
 11
5.507107
 21
4.8
 31
0.0
  0
LINE
  8
0
 62
     0
 10
5.2
 20
4.66967
 30
0.0
 11
5.33033
 21
4.8
 31
0.0
  0
LINE
  8
0
 62
     0
 10
6.930485
 20
1.627185
 30
0.0
 11
8.782337
 21
3.479036
 31
0.0
  0
LINE
  8
0
 62
     0
 10
6.976316
 20
1.496239
 30
0.0
 11
8.828168
 21
3.348091
 31
0.0
  0
LINE
  8
0
 62
     0
 10
7.022147
 20
1.365293
 30
0.0
 11
8.873999
 21
3.217145
 31
0.0
  0
LINE
  8
0
 62
     0
 10
7.067978
 20
1.234347
 30
0.0
 11
8.91983
 21
3.086199
 31
0.0
  0
LINE
  8
0
 62
     0
 10
7.113809
 20
1.103402
 30
0.0
 11
8.965661
 21
2.955254
 31
0.0
  0
LINE
  8
0
 62
     0
 10
7.15964
 20
0.972456
 30
0.0
 11
9.011492
 21
2.824308
 31
0.0
  0
LINE
  8
0
 62
     0
 10
7.205471
 20
0.84151
 30
0.0
 11
9.057323
 21
2.693362
 31
0.0
  0
LINE
  8
0
 62
     0
 10
7.251302
 20
0.710565
 30
0.0
 11
9.103154
 21
2.562416
 31
0.0
  0
LINE
  8
0
 62
     0
 10
7.297133
 20
0.579619
 30
0.0
 11
9.148985
 21
2.431471
 31
0.0
  0
LINE
  8
0
 62
     0
 10
7.342964
 20
0.448673
 30
0.0
 11
9.194816
 21
2.300525
 31
0.0
  0
LINE
  8
0
 62
     0
 10
7.388795
 20
0.317728
 30
0.0
 11
9.240647
 21
2.169579
 31
0.0
  0
LINE
  8
0
 62
     0
 10
7.434626
 20
0.186782
 30
0.0
 11
9.286478
 21
2.038634
 31
0.0
  0
LINE
  8
0
 62
     0
 10
7.480457
 20
0.055836
 30
0.0
 11
9.332309
 21
1.907688
 31
0.0
  0
LINE
  8
0
 62
     0
 10
7.601398
 20
0.0
 30
0.0
 11
9.37814
 21
1.776742
 31
0.0
  0
LINE
  8
0
 62
     0
 10
7.778175
 20
0.0
 30
0.0
 11
9.423971
 21
1.645797
 31
0.0
  0
LINE
  8
0
 62
     0
 10
7.954951
 20
0.0
 30
0.0
 11
9.469802
 21
1.514851
 31
0.0
  0
LINE
  8
0
 62
     0
 10
8.131728
 20
0.0
 30
0.0
 11
9.515633
 21
1.383905
 31
0.0
  0
LINE
  8
0
 62
     0
 10
8.308505
 20
0.0
 30
0.0
 11
9.561464
 21
1.252959
 31
0.0
  0
LINE
  8
0
 62
     0
 10
8.485281
 20
0.0
 30
0.0
 11
9.607295
 21
1.122014
 31
0.0
  0
LINE
  8
0
 62
     0
 10
8.662058
 20
0.0
 30
0.0
 11
9.653126
 21
0.991068
 31
0.0
  0
LINE
  8
0
 62
     0
 10
8.838835
 20
0.0
 30
0.0
 11
9.698957
 21
0.860122
 31
0.0
  0
LINE
  8
0
 62
     0
 10
9.015611
 20
0.0
 30
0.0
 11
9.744788
 21
0.729177
 31
0.0
  0
LINE
  8
0
 62
     0
 10
9.192388
 20
0.0
 30
0.0
 11
9.790619
 21
0.598231
 31
0.0
  0
LINE
  8
0
 62
     0
 10
9.369165
 20
0.0
 30
0.0
 11
9.83645
 21
0.467285
 31
0.0
  0
LINE
  8
0
 62
     0
 10
9.545942
 20
0.0
 30
0.0
 11
9.882281
 21
0.33634
 31
0.0
  0
LINE
  8
0
 62
     0
 10
9.722718
 20
0.0
 30
0.0
 11
9.928112
 21
0.205394
 31
0.0
  0
LINE
  8
0
 62
     0
 10
9.899495
 20
0.0
 30
0.0
 11
9.973943
 21
0.074448
 31
0.0
  0
ENDBLK
  8
0
  0
BLOCK
  8
0
  2
*X12
 70
    65
 10
0.0
 20
0.0
 30
0.0
  3
*X
  0
LINE
  8
0
 62
     0
 10
10.7
 20
6.280583
 30
0.0
 11
13.5
 21
9.080583
 31
0.0
  0
LINE
  8
0
 62
     0
 10
10.7
 20
6.457359
 30
0.0
 11
13.5
 21
9.257359
 31
0.0
  0
LINE
  8
0
 62
     0
 10
10.7
 20
6.634136
 30
0.0
 11
13.5
 21
9.434136
 31
0.0
  0
LINE
  8
0
 62
     0
 10
10.7
 20
6.810913
 30
0.0
 11
13.5
 21
9.610913
 31
0.0
  0
LINE
  8
0
 62
     0
 10
10.7
 20
6.987689
 30
0.0
 11
13.5
 21
9.787689
 31
0.0
  0
LINE
  8
0
 62
     0
 10
10.7
 20
7.164466
 30
0.0
 11
13.5
 21
9.964466
 31
0.0
  0
LINE
  8
0
 62
     0
 10
10.7
 20
7.341243
 30
0.0
 11
13.358757
 21
10.0
 31
0.0
  0
LINE
  8
0
 62
     0
 10
10.7
 20
7.518019
 30
0.0
 11
13.181981
 21
10.0
 31
0.0
  0
LINE
  8
0
 62
     0
 10
10.7
 20
7.694796
 30
0.0
 11
13.005204
 21
10.0
 31
0.0
  0
LINE
  8
0
 62
     0
 10
10.7
 20
7.871573
 30
0.0
 11
12.828427
 21
10.0
 31
0.0
  0
LINE
  8
0
 62
     0
 10
10.7
 20
8.04835
 30
0.0
 11
12.65165
 21
10.0
 31
0.0
  0
LINE
  8
0
 62
     0
 10
10.7
 20
8.225126
 30
0.0
 11
12.474874
 21
10.0
 31
0.0
  0
LINE
  8
0
 62
     0
 10
10.7
 20
8.401903
 30
0.0
 11
12.298097
 21
10.0
 31
0.0
  0
LINE
  8
0
 62
     0
 10
10.7
 20
8.57868
 30
0.0
 11
12.12132
 21
10.0
 31
0.0
  0
LINE
  8
0
 62
     0
 10
10.7
 20
8.755456
 30
0.0
 11
11.944544
 21
10.0
 31
0.0
  0
LINE
  8
0
 62
     0
 10
10.7
 20
8.932233
 30
0.0
 11
11.767767
 21
10.0
 31
0.0
  0
LINE
  8
0
 62
     0
 10
10.7
 20
9.10901
 30
0.0
 11
11.59099
 21
10.0
 31
0.0
  0
LINE
  8
0
 62
     0
 10
10.7
 20
9.285786
 30
0.0
 11
11.414214
 21
10.0
 31
0.0
  0
LINE
  8
0
 62
     0
 10
10.7
 20
9.462563
 30
0.0
 11
11.237437
 21
10.0
 31
0.0
  0
LINE
  8
0
 62
     0
 10
10.7
 20
9.63934
 30
0.0
 11
11.06066
 21
10.0
 31
0.0
  0
LINE
  8
0
 62
     0
 10
10.7
 20
9.816117
 30
0.0
 11
10.883883
 21
10.0
 31
0.0
  0
LINE
  8
0
 62
     0
 10
10.7
 20
9.992893
 30
0.0
 11
10.707107
 21
10.0
 31
0.0
  0
LINE
  8
0
 62
     0
 10
10.7
 20
6.103806
 30
0.0
 11
13.5
 21
8.903806
 31
0.0
  0
LINE
  8
0
 62
     0
 10
10.7
 20
5.927029
 30
0.0
 11
13.5
 21
8.727029
 31
0.0
  0
LINE
  8
0
 62
     0
 10
10.7
 20
5.750253
 30
0.0
 11
13.5
 21
8.550253
 31
0.0
  0
LINE
  8
0
 62
     0
 10
10.7
 20
5.573476
 30
0.0
 11
13.5
 21
8.373476
 31
0.0
  0
LINE
  8
0
 62
     0
 10
10.7
 20
5.396699
 30
0.0
 11
13.5
 21
8.196699
 31
0.0
  0
LINE
  8
0
 62
     0
 10
10.7
 20
5.219922
 30
0.0
 11
13.5
 21
8.019922
 31
0.0
  0
LINE
  8
0
 62
     0
 10
10.856854
 20
5.2
 30
0.0
 11
13.5
 21
7.843146
 31
0.0
  0
LINE
  8
0
 62
     0
 10
11.033631
 20
5.2
 30
0.0
 11
13.5
 21
7.666369
 31
0.0
  0
LINE
  8
0
 62
     0
 10
11.210408
 20
5.2
 30
0.0
 11
13.5
 21
7.489592
 31
0.0
  0
LINE
  8
0
 62
     0
 10
11.387184
 20
5.2
 30
0.0
 11
13.5
 21
7.312816
 31
0.0
  0
LINE
  8
0
 62
     0
 10
11.563961
 20
5.2
 30
0.0
 11
13.5
 21
7.136039
 31
0.0
  0
LINE
  8
0
 62
     0
 10
11.740738
 20
5.2
 30
0.0
 11
13.5
 21
6.959262
 31
0.0
  0
LINE
  8
0
 62
     0
 10
11.917514
 20
5.2
 30
0.0
 11
13.5
 21
6.782486
 31
0.0
  0
LINE
  8
0
 62
     0
 10
12.094291
 20
5.2
 30
0.0
 11
13.5
 21
6.605709
 31
0.0
  0
LINE
  8
0
 62
     0
 10
12.271068
 20
5.2
 30
0.0
 11
13.5
 21
6.428932
 31
0.0
  0
LINE
  8
0
 62
     0
 10
12.447845
 20
5.2
 30
0.0
 11
13.5
 21
6.252155
 31
0.0
  0
LINE
  8
0
 62
     0
 10
12.624621
 20
5.2
 30
0.0
 11
13.5
 21
6.075379
 31
0.0
  0
LINE
  8
0
 62
     0
 10
12.801398
 20
5.2
 30
0.0
 11
13.5
 21
5.898602
 31
0.0
  0
LINE
  8
0
 62
     0
 10
12.978175
 20
5.2
 30
0.0
 11
13.5
 21
5.721825
 31
0.0
  0
LINE
  8
0
 62
     0
 10
13.154951
 20
5.2
 30
0.0
 11
13.5
 21
5.545049
 31
0.0
  0
LINE
  8
0
 62
     0
 10
13.331728
 20
5.2
 30
0.0
 11
13.5
 21
5.368272
 31
0.0
  0
ENDBLK
  8
0
  0
BLOCK
  8
0
  2
*X13
 70
    65
 10
0.0
 20
0.0
 30
0.0
  3
*X
  0
LINE
  8
0
 62
     0
 10
10.7
 20
1.154058
 30
0.0
 11
13.5
 21
3.954058
 31
0.0
  0
LINE
  8
0
 62
     0
 10
10.7
 20
1.330835
 30
0.0
 11
13.5
 21
4.130835
 31
0.0
  0
LINE
  8
0
 62
     0
 10
10.7
 20
1.507612
 30
0.0
 11
13.5
 21
4.307612
 31
0.0
  0
LINE
  8
0
 62
     0
 10
10.7
 20
1.684389
 30
0.0
 11
13.5
 21
4.484389
 31
0.0
  0
LINE
  8
0
 62
     0
 10
10.7
 20
1.861165
 30
0.0
 11
13.5
 21
4.661165
 31
0.0
  0
LINE
  8
0
 62
     0
 10
10.7
 20
2.037942
 30
0.0
 11
13.462058
 21
4.8
 31
0.0
  0
LINE
  8
0
 62
     0
 10
10.7
 20
2.214719
 30
0.0
 11
13.285281
 21
4.8
 31
0.0
  0
LINE
  8
0
 62
     0
 10
10.7
 20
2.391495
 30
0.0
 11
13.108505
 21
4.8
 31
0.0
  0
LINE
  8
0
 62
     0
 10
10.7
 20
2.568272
 30
0.0
 11
12.931728
 21
4.8
 31
0.0
  0
LINE
  8
0
 62
     0
 10
10.7
 20
2.745049
 30
0.0
 11
12.754951
 21
4.8
 31
0.0
  0
LINE
  8
0
 62
     0
 10
10.7
 20
2.921825
 30
0.0
 11
12.578175
 21
4.8
 31
0.0
  0
LINE
  8
0
 62
     0
 10
10.7
 20
3.098602
 30
0.0
 11
12.401398
 21
4.8
 31
0.0
  0
LINE
  8
0
 62
     0
 10
10.7
 20
3.275379
 30
0.0
 11
12.224621
 21
4.8
 31
0.0
  0
LINE
  8
0
 62
     0
 10
10.7
 20
3.452155
 30
0.0
 11
12.047845
 21
4.8
 31
0.0
  0
LINE
  8
0
 62
     0
 10
10.7
 20
3.628932
 30
0.0
 11
11.871068
 21
4.8
 31
0.0
  0
LINE
  8
0
 62
     0
 10
10.7
 20
3.805709
 30
0.0
 11
11.694291
 21
4.8
 31
0.0
  0
LINE
  8
0
 62
     0
 10
10.7
 20
3.982486
 30
0.0
 11
11.517514
 21
4.8
 31
0.0
  0
LINE
  8
0
 62
     0
 10
10.7
 20
4.159262
 30
0.0
 11
11.340738
 21
4.8
 31
0.0
  0
LINE
  8
0
 62
     0
 10
10.7
 20
4.336039
 30
0.0
 11
11.163961
 21
4.8
 31
0.0
  0
LINE
  8
0
 62
     0
 10
10.7
 20
4.512816
 30
0.0
 11
10.987184
 21
4.8
 31
0.0
  0
LINE
  8
0
 62
     0
 10
10.7
 20
4.689592
 30
0.0
 11
10.810408
 21
4.8
 31
0.0
  0
LINE
  8
0
 62
     0
 10
10.7
 20
0.977282
 30
0.0
 11
13.5
 21
3.777282
 31
0.0
  0
LINE
  8
0
 62
     0
 10
10.7
 20
0.800505
 30
0.0
 11
13.5
 21
3.600505
 31
0.0
  0
LINE
  8
0
 62
     0
 10
10.7
 20
0.623728
 30
0.0
 11
13.5
 21
3.423728
 31
0.0
  0
LINE
  8
0
 62
     0
 10
10.7
 20
0.446952
 30
0.0
 11
13.5
 21
3.246952
 31
0.0
  0
LINE
  8
0
 62
     0
 10
10.7
 20
0.270175
 30
0.0
 11
13.5
 21
3.070175
 31
0.0
  0
LINE
  8
0
 62
     0
 10
10.7
 20
0.093398
 30
0.0
 11
13.5
 21
2.893398
 31
0.0
  0
LINE
  8
0
 62
     0
 10
10.783378
 20
0.0
 30
0.0
 11
13.5
 21
2.716622
 31
0.0
  0
LINE
  8
0
 62
     0
 10
10.960155
 20
0.0
 30
0.0
 11
13.5
 21
2.539845
 31
0.0
  0
LINE
  8
0
 62
     0
 10
11.136932
 20
0.0
 30
0.0
 11
13.5
 21
2.363068
 31
0.0
  0
LINE
  8
0
 62
     0
 10
11.313708
 20
0.0
 30
0.0
 11
13.5
 21
2.186292
 31
0.0
  0
LINE
  8
0
 62
     0
 10
11.490485
 20
0.0
 30
0.0
 11
13.5
 21
2.009515
 31
0.0
  0
LINE
  8
0
 62
     0
 10
11.667262
 20
0.0
 30
0.0
 11
13.5
 21
1.832738
 31
0.0
  0
LINE
  8
0
 62
     0
 10
11.844039
 20
0.0
 30
0.0
 11
13.5
 21
1.655961
 31
0.0
  0
LINE
  8
0
 62
     0
 10
12.020815
 20
0.0
 30
0.0
 11
13.5
 21
1.479185
 31
0.0
  0
LINE
  8
0
 62
     0
 10
12.197592
 20
0.0
 30
0.0
 11
13.5
 21
1.302408
 31
0.0
  0
LINE
  8
0
 62
     0
 10
12.374369
 20
0.0
 30
0.0
 11
13.5
 21
1.125631
 31
0.0
  0
LINE
  8
0
 62
     0
 10
12.551145
 20
0.0
 30
0.0
 11
13.5
 21
0.948855
 31
0.0
  0
LINE
  8
0
 62
     0
 10
12.727922
 20
0.0
 30
0.0
 11
13.5
 21
0.772078
 31
0.0
  0
LINE
  8
0
 62
     0
 10
12.904699
 20
0.0
 30
0.0
 11
13.5
 21
0.595301
 31
0.0
  0
LINE
  8
0
 62
     0
 10
13.081475
 20
0.0
 30
0.0
 11
13.5
 21
0.418525
 31
0.0
  0
LINE
  8
0
 62
     0
 10
13.258252
 20
0.0
 30
0.0
 11
13.5
 21
0.241748
 31
0.0
  0
LINE
  8
0
 62
     0
 10
13.435029
 20
0.0
 30
0.0
 11
13.5
 21
0.064971
 31
0.0
  0
ENDBLK
  8
0
  0
BLOCK
  8
0
  2
*X14
 70
    65
 10
0.0
 20
0.0
 30
0.0
  3
*X
  0
LINE
  8
0
 62
     0
 10
13.9
 20
6.298602
 30
0.0
 11
16.582995
 21
8.981597
 31
0.0
  0
LINE
  8
0
 62
     0
 10
13.9
 20
6.475379
 30
0.0
 11
16.510503
 21
9.085882
 31
0.0
  0
LINE
  8
0
 62
     0
 10
13.9
 20
6.652155
 30
0.0
 11
16.432927
 21
9.185083
 31
0.0
  0
LINE
  8
0
 62
     0
 10
13.9
 20
6.828932
 30
0.0
 11
16.350372
 21
9.279304
 31
0.0
  0
LINE
  8
0
 62
     0
 10
13.9
 20
7.005709
 30
0.0
 11
16.262892
 21
9.368601
 31
0.0
  0
LINE
  8
0
 62
     0
 10
13.9
 20
7.182486
 30
0.0
 11
16.170495
 21
9.452981
 31
0.0
  0
LINE
  8
0
 62
     0
 10
13.9
 20
7.359262
 30
0.0
 11
16.073145
 21
9.532407
 31
0.0
  0
LINE
  8
0
 62
     0
 10
13.9
 20
7.536039
 30
0.0
 11
15.970755
 21
9.606794
 31
0.0
  0
LINE
  8
0
 62
     0
 10
13.9
 20
7.712816
 30
0.0
 11
15.863189
 21
9.676004
 31
0.0
  0
LINE
  8
0
 62
     0
 10
13.9
 20
7.889592
 30
0.0
 11
15.75025
 21
9.739843
 31
0.0
  0
LINE
  8
0
 62
     0
 10
13.9
 20
8.066369
 30
0.0
 11
15.631675
 21
9.798044
 31
0.0
  0
LINE
  8
0
 62
     0
 10
13.9
 20
8.243146
 30
0.0
 11
15.50711
 21
9.850256
 31
0.0
  0
LINE
  8
0
 62
     0
 10
13.9
 20
8.419922
 30
0.0
 11
15.376096
 21
9.896018
 31
0.0
  0
LINE
  8
0
 62
     0
 10
13.9
 20
8.596699
 30
0.0
 11
15.238027
 21
9.934726
 31
0.0
  0
LINE
  8
0
 62
     0
 10
13.9
 20
8.773476
 30
0.0
 11
15.092096
 21
9.965572
 31
0.0
  0
LINE
  8
0
 62
     0
 10
13.9
 20
8.950253
 30
0.0
 11
14.937209
 21
9.987461
 31
0.0
  0
LINE
  8
0
 62
     0
 10
13.9
 20
9.127029
 30
0.0
 11
14.771824
 21
9.998853
 31
0.0
  0
LINE
  8
0
 62
     0
 10
13.9
 20
9.303806
 30
0.0
 11
14.596193
 21
9.999999
 31
0.0
  0
LINE
  8
0
 62
     0
 10
13.9
 20
9.480583
 30
0.0
 11
14.419417
 21
9.999999
 31
0.0
  0
LINE
  8
0
 62
     0
 10
13.9
 20
9.657359
 30
0.0
 11
14.24264
 21
10.0
 31
0.0
  0
LINE
  8
0
 62
     0
 10
13.9
 20
9.834136
 30
0.0
 11
14.065864
 21
10.0
 31
0.0
  0
LINE
  8
0
 62
     0
 10
13.9
 20
6.121825
 30
0.0
 11
16.650245
 21
8.872071
 31
0.0
  0
LINE
  8
0
 62
     0
 10
13.9
 20
5.945049
 30
0.0
 11
16.712035
 21
8.757083
 31
0.0
  0
LINE
  8
0
 62
     0
 10
13.9
 20
5.768272
 30
0.0
 11
16.768067
 21
8.636339
 31
0.0
  0
LINE
  8
0
 62
     0
 10
13.9
 20
5.591495
 30
0.0
 11
16.817955
 21
8.509451
 31
0.0
  0
LINE
  8
0
 62
     0
 10
13.9
 20
5.414719
 30
0.0
 11
16.861189
 21
8.375908
 31
0.0
  0
LINE
  8
0
 62
     0
 10
13.9
 20
5.237942
 30
0.0
 11
16.897097
 21
8.235039
 31
0.0
  0
LINE
  8
0
 62
     0
 10
14.038835
 20
5.2
 30
0.0
 11
16.924779
 21
8.085944
 31
0.0
  0
LINE
  8
0
 62
     0
 10
14.215611
 20
5.2
 30
0.0
 11
16.942997
 21
7.927385
 31
0.0
  0
LINE
  8
0
 62
     0
 10
14.392388
 20
5.2
 30
0.0
 11
16.949987
 21
7.757599
 31
0.0
  0
LINE
  8
0
 62
     0
 10
14.569165
 20
5.2
 30
0.0
 11
16.943101
 21
7.573936
 31
0.0
  0
LINE
  8
0
 62
     0
 10
14.745942
 20
5.2
 30
0.0
 11
16.918037
 21
7.372095
 31
0.0
  0
LINE
  8
0
 62
     0
 10
14.922718
 20
5.2
 30
0.0
 11
16.866909
 21
7.144191
 31
0.0
  0
LINE
  8
0
 62
     0
 10
15.099495
 20
5.2
 30
0.0
 11
16.771715
 21
6.87222
 31
0.0
  0
LINE
  8
0
 62
     0
 10
15.276272
 20
5.2
 30
0.0
 11
15.847951
 21
5.77168
 31
0.0
  0
LINE
  8
0
 62
     0
 10
15.96673
 20
5.890458
 30
0.0
 11
16.559542
 21
6.48327
 31
0.0
  0
LINE
  8
0
 62
     0
 10
15.453048
 20
5.2
 30
0.0
 11
15.970661
 21
5.717613
 31
0.0
  0
LINE
  8
0
 62
     0
 10
15.629825
 20
5.2
 30
0.0
 11
16.088934
 21
5.659109
 31
0.0
  0
LINE
  8
0
 62
     0
 10
15.806602
 20
5.2
 30
0.0
 11
16.202964
 21
5.596363
 31
0.0
  0
LINE
  8
0
 62
     0
 10
15.983378
 20
5.2
 30
0.0
 11
16.312909
 21
5.529531
 31
0.0
  0
LINE
  8
0
 62
     0
 10
16.160155
 20
5.2
 30
0.0
 11
16.418895
 21
5.45874
 31
0.0
  0
LINE
  8
0
 62
     0
 10
16.336932
 20
5.2
 30
0.0
 11
16.521021
 21
5.384089
 31
0.0
  0
LINE
  8
0
 62
     0
 10
16.513708
 20
5.2
 30
0.0
 11
16.619363
 21
5.305655
 31
0.0
  0
LINE
  8
0
 62
     0
 10
16.690485
 20
5.2
 30
0.0
 11
16.713975
 21
5.22349
 31
0.0
  0
ENDBLK
  8
0
  0
BLOCK
  8
0
  2
*X15
 70
    65
 10
0.0
 20
0.0
 30
0.0
  3
*X
  0
LINE
  8
0
 62
     0
 10
13.9
 20
0.818525
 30
0.0
 11
17.39645
 21
4.314974
 31
0.0
  0
LINE
  8
0
 62
     0
 10
13.9
 20
0.995301
 30
0.0
 11
17.336354
 21
4.431655
 31
0.0
  0
LINE
  8
0
 62
     0
 10
13.9
 20
1.172078
 30
0.0
 11
17.272078
 21
4.544156
 31
0.0
  0
LINE
  8
0
 62
     0
 10
13.9
 20
1.348855
 30
0.0
 11
17.203766
 21
4.652621
 31
0.0
  0
LINE
  8
0
 62
     0
 10
13.9
 20
1.525631
 30
0.0
 11
17.131535
 21
4.757167
 31
0.0
  0
LINE
  8
0
 62
     0
 10
13.9
 20
1.702408
 30
0.0
 11
16.997592
 21
4.8
 31
0.0
  0
LINE
  8
0
 62
     0
 10
13.9
 20
1.879185
 30
0.0
 11
16.820815
 21
4.8
 31
0.0
  0
LINE
  8
0
 62
     0
 10
13.9
 20
2.055961
 30
0.0
 11
16.644039
 21
4.8
 31
0.0
  0
LINE
  8
0
 62
     0
 10
13.9
 20
2.232738
 30
0.0
 11
16.467262
 21
4.8
 31
0.0
  0
LINE
  8
0
 62
     0
 10
13.9
 20
2.409515
 30
0.0
 11
16.290485
 21
4.8
 31
0.0
  0
LINE
  8
0
 62
     0
 10
13.9
 20
2.586292
 30
0.0
 11
16.113708
 21
4.8
 31
0.0
  0
LINE
  8
0
 62
     0
 10
13.9
 20
2.763068
 30
0.0
 11
15.936932
 21
4.8
 31
0.0
  0
LINE
  8
0
 62
     0
 10
13.9
 20
2.939845
 30
0.0
 11
15.760155
 21
4.8
 31
0.0
  0
LINE
  8
0
 62
     0
 10
13.9
 20
3.116622
 30
0.0
 11
15.583378
 21
4.8
 31
0.0
  0
LINE
  8
0
 62
     0
 10
13.9
 20
3.293398
 30
0.0
 11
15.406602
 21
4.8
 31
0.0
  0
LINE
  8
0
 62
     0
 10
13.9
 20
3.470175
 30
0.0
 11
15.229825
 21
4.8
 31
0.0
  0
LINE
  8
0
 62
     0
 10
13.9
 20
3.646952
 30
0.0
 11
15.053048
 21
4.8
 31
0.0
  0
LINE
  8
0
 62
     0
 10
13.9
 20
3.823728
 30
0.0
 11
14.876272
 21
4.8
 31
0.0
  0
LINE
  8
0
 62
     0
 10
13.9
 20
4.000505
 30
0.0
 11
14.699495
 21
4.8
 31
0.0
  0
LINE
  8
0
 62
     0
 10
13.9
 20
4.177282
 30
0.0
 11
14.522718
 21
4.8
 31
0.0
  0
LINE
  8
0
 62
     0
 10
13.9
 20
4.354058
 30
0.0
 11
14.345942
 21
4.8
 31
0.0
  0
LINE
  8
0
 62
     0
 10
13.9
 20
4.530835
 30
0.0
 11
14.169165
 21
4.8
 31
0.0
  0
LINE
  8
0
 62
     0
 10
13.9
 20
4.707612
 30
0.0
 11
13.992388
 21
4.8
 31
0.0
  0
LINE
  8
0
 62
     0
 10
13.9
 20
0.641748
 30
0.0
 11
17.452185
 21
4.193933
 31
0.0
  0
LINE
  8
0
 62
     0
 10
13.9
 20
0.464971
 30
0.0
 11
17.503339
 21
4.068311
 31
0.0
  0
LINE
  8
0
 62
     0
 10
13.9
 20
0.288194
 30
0.0
 11
17.549642
 21
3.937837
 31
0.0
  0
LINE
  8
0
 62
     0
 10
13.9
 20
0.111418
 30
0.0
 11
17.590762
 21
3.80218
 31
0.0
  0
LINE
  8
0
 62
     0
 10
13.965359
 20
0.0
 30
0.0
 11
17.62629
 21
3.660931
 31
0.0
  0
LINE
  8
0
 62
     0
 10
14.142136
 20
0.000001
 30
0.0
 11
17.655713
 21
3.513577
 31
0.0
  0
LINE
  8
0
 62
     0
 10
14.318913
 20
0.000001
 30
0.0
 11
17.678385
 21
3.359473
 31
0.0
  0
LINE
  8
0
 62
     0
 10
14.49569
 20
0.000001
 30
0.0
 11
17.693473
 21
3.197784
 31
0.0
  0
LINE
  8
0
 62
     0
 10
14.672467
 20
0.000002
 30
0.0
 11
17.699875
 21
3.027409
 31
0.0
  0
LINE
  8
0
 62
     0
 10
14.853154
 20
0.003912
 30
0.0
 11
17.696088
 21
2.846846
 31
0.0
  0
LINE
  8
0
 62
     0
 10
15.046044
 20
0.020025
 30
0.0
 11
17.679975
 21
2.653956
 31
0.0
  0
LINE
  8
0
 62
     0
 10
15.254483
 20
0.051687
 30
0.0
 11
17.648313
 21
2.445517
 31
0.0
  0
LINE
  8
0
 62
     0
 10
15.483762
 20
0.10419
 30
0.0
 11
17.59581
 21
2.216238
 31
0.0
  0
LINE
  8
0
 62
     0
 10
15.743786
 20
0.187437
 30
0.0
 11
17.512563
 21
1.956214
 31
0.0
  0
LINE
  8
0
 62
     0
 10
16.058176
 20
0.32505
 30
0.0
 11
17.37495
 21
1.641824
 31
0.0
  0
LINE
  8
0
 62
     0
 10
16.54193
 20
0.632028
 30
0.0
 11
17.067972
 21
1.15807
 31
0.0
  0
ENDBLK
  8
0
  0
BLOCK
  8
0
  2
BLC15
 70
    64
 10
0.0
 20
0.0
 30
0.0
  3
BLC15
  0
LINE
  8
0
  6
CONTINUOUS
 10
0.142084
 20
3.490022
 30
0.0
 11
0.142084
 21
0.844365
 31
0.0
  0
LINE
  8
0
  6
CONTINUOUS
 10
-0.461611
 20
-0.937188
 30
0.0
 11
0.745779
 21
-0.937188
 31
0.0
  0
LINE
  8
0
  6
CONTINUOUS
 10
-0.894108
 20
-0.049675
 30
0.0
 11
1.169267
 21
-0.049675
 31
0.0
  0
LINE
  8
0
  6
CONTINUOUS
 10
-1.389679
 20
0.844365
 30
0.0
 11
1.673848
 21
0.844365
 31
0.0
  0
ENDBLK
  8
0
  0
BLOCK
  8
0
  2
BLC5
 70
     0
 10
0.0
 20
0.0
 30
0.0
  3
BLC5
  0
TEXT
  8
0
 10
-3.043704
 20
-6.645912
 30
0.0
 40
3.2
  1
PE
  0
LINE
  8
0
 10
-2.946392
 20
1.181176
 30
0.0
 11
2.135458
 21
1.181176
 31
0.0
  0
LINE
  8
0
 10
-0.48656
 20
2.238362
 30
0.0
 11
-0.48656
 21
6.930438
 31
0.0
  0
LINE
  8
0
 10
-1.973271
 20
0.065258
 30
0.0
 11
1.225411
 21
0.065258
 31
0.0
  0
LINE
  8
0
 10
2.685091
 20
2.238362
 30
0.0
 11
1.68494
 21
2.238362
 31
0.0
  0
LINE
  8
0
 10
-3.505035
 20
2.238362
 30
0.0
 11
2.649049
 21
2.238362
 31
0.0
  0
CIRCLE
  8
0
 10
-0.47755
 20
1.422632
 30
0.0
 40
3.804563
  0
ENDBLK
  8
0
  0
BLOCK
  8
0
  2
BLC43
 70
    64
 10
0.0
 20
0.0
 30
0.0
  3
BLC43
  0
TEXT
  8
SWEDEN2
  6
CONTINUOUS
 10
-0.646672
 20
-0.986365
 30
0.0
 40
2.0
  1
+
  0
ENDBLK
  8
0
  0
BLOCK
  8
0
  2
BLC42
 70
    64
 10
0.0
 20
0.0
 30
0.0
  3
BLC42
  0
TEXT
  8
SWEDEN2
  6
CONTINUOUS
 10
-0.655237
 20
-0.99442
 30
0.0
 40
2.0
  1
-
  0
ENDBLK
  8
0
  0
BLOCK
  8
0
  2
BLC25
 70
     0
 10
0.0
 20
0.0
 30
0.0
  3
BLC25
  0
TEXT
  8
0
  6
CONTINUOUS
 10
2.0
 20
30.666667
 30
0.0
 40
2.0
  1
1)
 11
2.0
 21
30.0
 31
0.0
 73
     1
  0
TEXT
  8
0
 10
6.0
 20
2.0
 30
0.0
 40
2.0
  1
7B    27     26
 11
6.0
 21
1.333333
 31
0.0
 73
     1
  0
TEXT
  8
0
 10
6.0
 20
5.333333
 30
0.0
 40
2.0
  1
5B     9      8
 11
6.0
 21
4.666667
 31
0.0
 73
     1
  0
TEXT
  8
0
 10
6.0
 20
8.666667
 30
0.0
 40
2.0
  1
3B     3      2
 11
6.0
 21
8.0
 31
0.0
 73
     1
  0
TEXT
  8
0
 10
32.0
 20
12.666667
 30
0.0
 40
2.0
  1
In=5A
 11
32.0
 21
12.0
 31
0.0
 73
     1
  0
TEXT
  8
0
 10
16.0
 20
12.666667
 30
0.0
 40
2.0
  1
In=1A 
 11
16.0
 21
12.0
 31
0.0
 73
     1
  0
TEXT
  8
0
 10
26.0
 20
18.666667
 30
0.0
 40
2.0
  1
108:
 11
26.0
 21
18.0
 31
0.0
 73
     1
  0
TEXT
  8
0
 10
6.0
 20
18.666667
 30
0.0
 40
2.0
  1
101:       
 11
6.0
 21
18.0
 31
0.0
 73
     1
  0
TEXT
  8
0
 10
6.0
 20
24.666667
 30
0.0
 40
2.0
  1
TERMINALS / UTTAG
 11
6.0
 21
24.0
 31
0.0
 73
     1
  0
LINE
  8
0
 10
0.0
 20
12.0
 30
0.0
 11
44.0
 21
12.0
 31
0.0
  0
LINE
  8
0
 10
28.0
 20
18.0
 30
0.0
 11
28.0
 21
0.0
 31
0.0
  0
LINE
  8
0
 10
14.0
 20
18.0
 30
0.0
 11
44.0
 21
18.0
 31
0.0
  0
LINE
  8
0
 10
14.0
 20
24.0
 30
0.0
 11
14.0
 21
0.0
 31
0.0
  0
LINE
  8
0
 10
0.0
 20
24.0
 30
0.0
 11
44.0
 21
24.0
 31
0.0
  0
LINE
  8
0
 10
44.0
 20
0.0
 30
0.0
 11
44.0
 21
30.0
 31
0.0
  0
LINE
  8
0
 10
0.0
 20
0.0
 30
0.0
 11
44.0
 21
0.0
 31
0.0
  0
LINE
  8
0
 10
0.0
 20
30.0
 30
0.0
 11
0.0
 21
0.0
 31
0.0
  0
LINE
  8
0
 10
44.0
 20
30.0
 30
0.0
 11
0.0
 21
30.0
 31
0.0
  0
ENDBLK
  8
0
  0
BLOCK
  8
0
  2
MAA
 70
    64
 10
0.0
 20
0.0
 30
0.0
  3
MAA
  0
LINE
  8
0
  6
CONTINUOUS
 10
-0.500718
 20
-2.587966
 30
0.0
 11
0.386169
 21
-2.587966
 31
0.0
  0
LINE
  8
0
  6
CONTINUOUS
 10
-0.831823
 20
-1.976333
 30
0.0
 11
0.752749
 21
-1.976333
 31
0.0
  0
LINE
  8
0
  6
CONTINUOUS
 10
-0.015887
 20
-1.35427
 30
0.0
 11
1.178454
 21
-1.35427
 31
0.0
  0
LINE
  8
0
  6
CONTINUOUS
 10
-1.210228
 20
-1.35427
 30
0.0
 11
-0.015887
 21
-1.35427
 31
0.0
  0
LINE
  8
0
  6
CONTINUOUS
 10
0.0
 20
0.0
 30
0.0
 11
0.0
 21
-1.35427
 31
0.0
  0
ENDBLK
  8
0
  0
BLOCK
  8
0
  2
B63
 70
     0
 10
0.0
 20
0.0
 30
0.0
  3
B63
  0
LINE
  8
BASE
  6
CONTINUOUS
 10
10.740939
 20
0.0
 30
0.0
 11
15.0
 21
0.0
 31
0.0
  0
LINE
  8
BASE
  6
CONTINUOUS
 10
0.0
 20
0.0
 30
0.0
 11
5.0
 21
0.0
 31
0.0
  0
LINE
  8
BASE
  6
CONTINUOUS
 10
9.353436
 20
-0.361863
 30
0.0
 11
4.256076
 21
-3.214703
 31
0.0
  0
LINE
  8
BASE
  6
CONTINUOUS
 10
5.0
 20
-5.0
 30
0.0
 11
0.0
 21
-5.0
 31
0.0
  0
LINE
  8
BASE
  6
CONTINUOUS
 10
5.0
 20
-5.0
 30
0.0
 11
5.0
 21
-2.5
 31
0.0
  0
CIRCLE
  8
BASE
  6
CONTINUOUS
 10
10.0
 20
0.0
 30
0.0
 40
0.740939
  0
ENDBLK
  8
0
  0
BLOCK
  8
0
  2
B67
 70
     0
 10
0.0
 20
0.0
 30
0.0
  3
B67
  0
LINE
  8
BASE
  6
CONTINUOUS
 10
-1.897097
 20
-3.556254
 30
0.0
 11
-2.963522
 21
-2.489829
 31
0.0
  0
LINE
  8
BASE
  6
CONTINUOUS
 10
-2.963522
 20
-2.489829
 30
0.0
 11
-1.897097
 21
-1.423405
 31
0.0
  0
LINE
  8
BASE
  6
CONTINUOUS
 10
-1.897097
 20
-1.423405
 30
0.0
 11
-0.830672
 21
-2.489829
 31
0.0
  0
LINE
  8
BASE
  6
CONTINUOUS
 10
-0.830672
 20
-2.489829
 30
0.0
 11
-1.897097
 21
-3.556254
 31
0.0
  0
LINE
  8
BASE
  6
DASHED
 10
0.0
 20
0.0
 30
0.0
 11
-5.000117
 21
0.0
 31
0.0
  0
TEXT
  8
BASE
  6
DASHED
 10
-8.422045
 20
-3.481615
 30
0.0
 40
2.0
  1
14B
  0
LINE
  8
BASE
  6
DASHED
 10
-12.5
 20
0.0
 30
0.0
 11
-30.0
 21
0.0
 31
0.0
  0
TEXT
  8
BASE
  6
DASHED
 10
-12.5
 20
3.402046
 30
0.0
 40
2.0
  1
101
  0
TEXT
  8
BASE
  6
DASHED
 10
-18.160336
 20
-3.602839
 30
0.0
 40
2.0
  1
14A 
  0
INSERT
  8
0
  6
CONTINUOUS
  2
B37
 10
-12.5
 20
0.0
 30
0.0
 50
90.0
  0
ENDBLK
  8
0
  0
BLOCK
  8
0
  2
B37
 70
    64
 10
0.0
 20
0.0
 30
0.0
  3
B37
  0
LINE
  8
BASE
  6
CONTINUOUS
 10
-0.006589
 20
-6.018035
 30
0.0
 11
2.434804
 21
0.662841
 31
0.0
  0
LINE
  8
BASE
  6
CONTINUOUS
 10
0.0
 20
0.0
 30
0.0
 11
2.765661
 21
0.0
 31
0.0
  0
LINE
  8
BASE
  6
CONTINUOUS
 10
2.434804
 20
0.662841
 30
0.0
 11
1.549106
 21
1.107734
 31
0.0
  0
CIRCLE
  8
BASE
  6
CONTINUOUS
 10
0.0
 20
-6.758945
 30
0.0
 40
0.740939
  0
ENDBLK
  8
0
  0
BLOCK
  8
0
  2
B231
 70
     0
 10
0.0
 20
0.0
 30
0.0
  3
B231
  0
LINE
  8
BASE
  6
CONTINUOUS
 10
1.735546
 20
-0.013541
 30
0.0
 11
0.068173
 21
-0.013541
 31
0.0
  0
LINE
  8
BASE
  6
CONTINUOUS
 10
1.735546
 20
1.673424
 30
0.0
 11
1.735546
 21
-0.013541
 31
0.0
  0
LINE
  8
BASE
  6
CONTINUOUS
 10
0.068173
 20
1.673424
 30
0.0
 11
1.735546
 21
1.673424
 31
0.0
  0
LINE
  8
BASE
  6
CONTINUOUS
 10
0.068173
 20
-0.013541
 30
0.0
 11
0.068173
 21
1.673424
 31
0.0
  0
ENDBLK
  8
0
  0
BLOCK
  8
0
  2
B81
 70
     0
 10
0.0
 20
0.0
 30
0.0
  3
B81
  0
INSERT
  8
0
  6
CONTINUOUS
  2
BLC29
 10
5.789208
 20
29.263188
 30
0.0
 41
0.53231
 42
0.53231
 50
180.0
 43
0.53231
  0
INSERT
  8
0
  6
CONTINUOUS
  2
BLC29
 10
9.408393
 20
29.413269
 30
0.0
 41
0.53231
 42
0.53231
 43
0.53231
  0
LINE
  8
0
  6
CONTINUOUS
 10
3.788077
 20
29.344886
 30
0.0
 11
11.331663
 21
29.344886
 31
0.0
  0
LINE
  8
0
  6
CONTINUOUS
 10
3.788077
 20
18.744792
 30
0.0
 11
11.331663
 21
18.744792
 31
0.0
  0
INSERT
  8
0
  6
CONTINUOUS
  2
BLC29
 10
9.408393
 20
18.813175
 30
0.0
 41
0.53231
 42
0.53231
 43
0.53231
  0
INSERT
  8
0
  6
CONTINUOUS
  2
BLC29
 10
5.789208
 20
18.663094
 30
0.0
 41
0.53231
 42
0.53231
 50
180.0
 43
0.53231
  0
LINE
  8
0
  6
CONTINUOUS
 10
11.111995
 20
27.277938
 30
0.0
 11
13.457761
 21
25.942584
 31
0.0
  0
LINE
  8
0
  6
CONTINUOUS
 10
13.457761
 20
25.942584
 30
0.0
 11
11.111995
 21
24.752665
 31
0.0
  0
LINE
  8
0
  6
CONTINUOUS
 10
7.354072
 20
24.681318
 30
0.0
 11
6.444252
 21
24.681318
 31
0.0
  0
LINE
  8
0
  6
CONTINUOUS
 10
6.88124
 20
25.043677
 30
0.0
 11
7.52306
 21
25.043677
 31
0.0
  0
LINE
  8
0
  6
CONTINUOUS
 10
6.273803
 20
25.043677
 30
0.0
 11
6.88124
 21
25.043677
 31
0.0
  0
LINE
  8
0
  6
CONTINUOUS
 10
6.88124
 20
25.439085
 30
0.0
 11
7.775203
 21
25.439085
 31
0.0
  0
LINE
  8
0
  6
CONTINUOUS
 10
5.987276
 20
25.439085
 30
0.0
 11
6.898431
 21
25.439085
 31
0.0
  0
LINE
  8
0
  6
CONTINUOUS
 10
6.88124
 20
26.783811
 30
0.0
 11
6.88124
 21
25.439085
 31
0.0
  0
TEXT
  8
0
  6
CONTINUOUS
 10
3.929213
 20
24.739981
 30
0.0
 40
2.5
  1
I
 11
3.929213
 21
23.906647
 31
0.0
 73
     1
  0
TEXT
  8
0
  6
CONTINUOUS
 10
8.903398
 20
25.052483
 30
0.0
 40
2.0
  1
2
  7
GREEKS
  0
TEXT
  8
0
  6
CONTINUOUS
 10
4.321224
 20
35.975391
 30
0.0
 40
2.5
  1
I
 11
4.321224
 21
35.142057
 31
0.0
 73
     1
  0
LINE
  8
0
  6
CONTINUOUS
 10
7.273251
 20
38.019221
 30
0.0
 11
7.273251
 21
36.674495
 31
0.0
  0
LINE
  8
0
  6
CONTINUOUS
 10
6.379287
 20
36.674495
 30
0.0
 11
7.290442
 21
36.674495
 31
0.0
  0
LINE
  8
0
  6
CONTINUOUS
 10
7.273251
 20
36.674495
 30
0.0
 11
8.167214
 21
36.674495
 31
0.0
  0
LINE
  8
0
  6
CONTINUOUS
 10
6.665814
 20
36.279087
 30
0.0
 11
7.273251
 21
36.279087
 31
0.0
  0
LINE
  8
0
  6
CONTINUOUS
 10
7.273251
 20
36.279087
 30
0.0
 11
7.915071
 21
36.279087
 31
0.0
  0
LINE
  8
0
  6
CONTINUOUS
 10
7.746083
 20
35.916728
 30
0.0
 11
6.836263
 21
35.916728
 31
0.0
  0
LINE
  8
0
  6
CONTINUOUS
 10
12.500429
 20
37.177994
 30
0.0
 11
10.154664
 21
35.988075
 31
0.0
  0
LINE
  8
0
  6
CONTINUOUS
 10
10.154664
 20
38.513348
 30
0.0
 11
12.500429
 21
37.177994
 31
0.0
  0
TEXT
  8
0
  6
CONTINUOUS
 10
8.711182
 20
36.312079
 30
0.0
 40
2.0
  1
1
  7
GREEKS
  0
LINE
  8
0
  6
CONTINUOUS
 10
10.178973
 20
2.061414
 30
0.0
 11
8.930299
 21
1.428008
 31
0.0
  0
LINE
  8
0
  6
CONTINUOUS
 10
8.930299
 20
2.772235
 30
0.0
 11
10.178973
 21
2.061414
 31
0.0
  0
LINE
  8
0
  6
CONTINUOUS
 10
5.684607
 20
2.060797
 30
0.0
 11
6.93328
 21
2.694202
 31
0.0
  0
LINE
  8
0
  6
CONTINUOUS
 10
6.93328
 20
1.349975
 30
0.0
 11
5.684607
 21
2.060797
 31
0.0
  0
TEXT
  8
0
  6
CONTINUOUS
 10
7.107778
 20
10.0
 30
0.0
 40
2.5
  1
X
  7
GREEKS
  0
LINE
  8
0
  6
CONTINUOUS
 10
7.941056
 20
15.0
 30
0.0
 11
7.941056
 21
5.0
 31
0.0
  0
LINE
  8
0
  6
CONTINUOUS
 10
0.441056
 20
15.0
 30
0.0
 11
15.441056
 21
15.0
 31
0.0
  0
TEXT
  8
0
  6
DASHED
 10
4.671343
 20
55.768474
 30
0.0
 40
2.5
  1
3I
  0
LINE
  8
0
  6
CONTINUOUS
 10
9.078563
 20
58.316754
 30
0.0
 11
11.424329
 21
56.9814
 31
0.0
  0
LINE
  8
0
  6
CONTINUOUS
 10
11.424329
 20
56.9814
 30
0.0
 11
9.078563
 21
55.791481
 31
0.0
  0
LINE
  8
0
  6
CONTINUOUS
 10
3.82826
 20
52.706143
 30
0.0
 11
3.82826
 21
50.918012
 31
0.0
  0
LINE
  8
0
  6
CONTINUOUS
 10
3.859291
 20
51.860865
 30
0.0
 11
11.647496
 21
51.860865
 31
0.0
  0
LINE
  8
0
  6
CONTINUOUS
 10
8.688843
 20
54.059027
 30
0.0
 11
9.58952
 21
52.935278
 31
0.0
  0
ARC
  8
0
  6
HIDDEN
 10
10.554159
 20
55.789409
 30
0.0
 40
4.998196
 50
206.402922
 51
282.21115
  0
LINE
  8
0
  6
CONTINUOUS
 10
6.243436
 20
50.693262
 30
0.0
 11
9.119546
 21
53.521821
 31
0.0
  0
LINE
  8
0
  6
CONTINUOUS
 10
11.642955
 20
52.706143
 30
0.0
 11
11.642955
 21
50.918012
 31
0.0
  0
TEXT
  8
0
  6
DASHED
 10
4.671343
 20
45.782752
 30
0.0
 40
2.5
  1
3I
  0
LINE
  8
0
  6
CONTINUOUS
 10
11.666854
 20
47.00956
 30
0.0
 11
9.321088
 21
45.819641
 31
0.0
  0
LINE
  8
0
  6
CONTINUOUS
 10
9.321088
 20
48.344914
 30
0.0
 11
11.666854
 21
47.00956
 31
0.0
  0
LINE
  8
0
  6
CONTINUOUS
 10
10.548378
 20
48.344914
 30
0.0
 11
12.894143
 21
47.00956
 31
0.0
  0
LINE
  8
0
  6
CONTINUOUS
 10
12.894143
 20
47.00956
 30
0.0
 11
10.548378
 21
45.819641
 31
0.0
  0
LINE
  8
0
  6
CONTINUOUS
 10
3.82826
 20
22.501609
 30
0.0
 11
3.82826
 21
20.713478
 31
0.0
  0
LINE
  8
0
  6
CONTINUOUS
 10
3.859291
 20
21.656331
 30
0.0
 11
11.647496
 21
21.656331
 31
0.0
  0
LINE
  8
0
  6
CONTINUOUS
 10
6.243436
 20
20.488728
 30
0.0
 11
9.119546
 21
23.317287
 31
0.0
  0
LINE
  8
0
  6
CONTINUOUS
 10
8.688843
 20
23.854494
 30
0.0
 11
9.58952
 21
22.730745
 31
0.0
  0
LINE
  8
0
  6
CONTINUOUS
 10
11.642955
 20
22.501609
 30
0.0
 11
11.642955
 21
20.713478
 31
0.0
  0
LINE
  8
0
  6
CONTINUOUS
 10
11.642955
 20
43.052173
 30
0.0
 11
11.642955
 21
41.264041
 31
0.0
  0
LINE
  8
0
  6
CONTINUOUS
 10
8.688843
 20
44.405057
 30
0.0
 11
9.58952
 21
43.281308
 31
0.0
  0
LINE
  8
0
  6
CONTINUOUS
 10
6.243436
 20
41.039291
 30
0.0
 11
9.119546
 21
43.86785
 31
0.0
  0
LINE
  8
0
  6
CONTINUOUS
 10
3.859291
 20
42.206894
 30
0.0
 11
11.647496
 21
42.206894
 31
0.0
  0
LINE
  8
0
  6
CONTINUOUS
 10
3.82826
 20
43.052173
 30
0.0
 11
3.82826
 21
41.264041
 31
0.0
  0
LINE
  8
0
  6
HIDDEN
 10
-1.772016
 20
40.0
 30
0.0
 11
18.227984
 21
40.0
 31
0.0
  0
LINE
  8
0
  6
CONTINUOUS
 10
-1.772016
 20
60.0
 30
0.0
 11
18.227984
 21
60.0
 31
0.0
  0
LINE
  8
0
  6
CONTINUOUS
 10
18.227984
 20
60.0
 30
0.0
 11
18.227984
 21
17.5
 31
0.0
  0
LINE
  8
0
  6
CONTINUOUS
 10
18.227984
 20
17.5
 30
0.0
 11
-1.772016
 21
17.5
 31
0.0
  0
LINE
  8
0
  6
CONTINUOUS
 10
-1.772016
 20
17.5
 30
0.0
 11
-1.772016
 21
60.0
 31
0.0
  0
LINE
  8
0
  6
CONTINUOUS
 10
3.82826
 20
33.629666
 30
0.0
 11
3.82826
 21
31.841535
 31
0.0
  0
LINE
  8
0
  6
CONTINUOUS
 10
3.859291
 20
32.784387
 30
0.0
 11
11.647496
 21
32.784387
 31
0.0
  0
LINE
  8
0
  6
CONTINUOUS
 10
6.243436
 20
31.616785
 30
0.0
 11
9.119546
 21
34.445343
 31
0.0
  0
LINE
  8
0
  6
CONTINUOUS
 10
8.688843
 20
34.98255
 30
0.0
 11
9.58952
 21
33.858801
 31
0.0
  0
LINE
  8
0
  6
CONTINUOUS
 10
11.642955
 20
33.629666
 30
0.0
 11
11.642955
 21
31.841535
 31
0.0
  0
TEXT
  8
0
  6
CONTINUOUS
 10
10.331775
 20
1.140537
 30
0.0
 40
2.0
  1
I
  0
TEXT
  8
0
  6
CONTINUOUS
 10
3.808659
 20
1.144788
 30
0.0
 40
2.0
  1
O
  0
LINE
  8
0
  6
CONTINUOUS
 10
5.685823
 20
2.061414
 30
0.0
 11
10.178973
 21
2.061414
 31
0.0
  0
LINE
  8
0
  6
CONTINUOUS
 10
-1.772016
 20
17.5
 30
0.0
 11
-1.772016
 21
0.0
 31
0.0
  0
LINE
  8
0
  6
CONTINUOUS
 10
-1.772016
 20
0.0
 30
0.0
 11
18.227984
 21
0.0
 31
0.0
  0
LINE
  8
0
  6
CONTINUOUS
 10
18.227984
 20
0.0
 30
0.0
 11
18.227984
 21
17.5
 31
0.0
  0
ENDBLK
  8
0
  0
BLOCK
  8
0
  2
B70
 70
     0
 10
0.0
 20
0.0
 30
0.0
  3
B70
  0
TEXT
  8
BASE
  6
CONTINUOUS
 10
6.776354
 20
-58.880245
 30
0.0
 40
2.0
  1
9)
  0
TEXT
  8
BASE
  6
CONTINUOUS
 10
6.776354
 20
-38.880245
 30
0.0
 40
2.0
  1
9)
  0
TEXT
  8
BASE
  6
CONTINUOUS
 10
6.776354
 20
-18.880245
 30
0.0
 40
2.0
  1
9)
  0
TEXT
  8
BASE
  6
CONTINUOUS
 10
6.776354
 20
1.119755
 30
0.0
 40
2.0
  1
9)
  0
TEXT
  8
BASE
  6
CONTINUOUS
 10
8.134884
 20
-32.687464
 30
0.0
 40
2.0
  1
SI
  0
TEXT
  8
BASE
  6
CONTINUOUS
 10
8.134884
 20
-22.531619
 30
0.0
 40
2.0
  1
SI
  0
TEXT
  8
BASE
  6
CONTINUOUS
 10
8.173717
 20
-72.731978
 30
0.0
 40
2.0
  1
NI
  0
TEXT
  8
BASE
  6
CONTINUOUS
 10
14.735291
 20
-72.870666
 30
0.0
 40
2.0
  1
10B
  0
TEXT
  8
BASE
  6
CONTINUOUS
 10
14.735291
 20
-63.940088
 30
0.0
 40
2.0
  1
9B
  0
CIRCLE
  8
BASE
  6
CONTINUOUS
 10
23.449551
 20
-65.028782
 30
0.0
 40
1.0
  0
LINE
  8
BASE
 10
22.449552
 20
-65.030442
 30
0.0
 11
16.7
 21
-68.5
 31
0.0
  0
LINE
  8
BASE
 10
17.5
 20
-70.0
 30
0.0
 11
17.5
 21
-67.1
 31
0.0
  0
LINE
  8
BASE
 10
15.0
 20
-70.0
 30
0.0
 11
17.5
 21
-70.0
 31
0.0
  0
LINE
  8
BASE
 10
16.38095
 20
-68.055575
 30
0.0
 11
17.060313
 21
-68.991319
 31
0.0
  0
CIRCLE
  8
BASE
  6
CONTINUOUS
 10
23.449551
 20
-55.028782
 30
0.0
 40
1.0
  0
LINE
  8
BASE
 10
17.5
 20
-60.0
 30
0.0
 11
17.5
 21
-57.1
 31
0.0
  0
LINE
  8
BASE
 10
22.449552
 20
-55.030442
 30
0.0
 11
16.7
 21
-58.5
 31
0.0
  0
LINE
  8
BASE
 10
15.0
 20
-60.0
 30
0.0
 11
17.5
 21
-60.0
 31
0.0
  0
LINE
  8
BASE
 10
16.38095
 20
-58.055575
 30
0.0
 11
17.060313
 21
-58.991319
 31
0.0
  0
LINE
  8
BASE
 10
15.0
 20
-55.0
 30
0.0
 11
17.5
 21
-55.0
 31
0.0
  0
LINE
  8
BASE
 10
12.5
 20
-55.00155
 30
0.0
 11
15.0
 21
-55.00155
 31
0.0
  0
LINE
  8
BASE
 10
15.0
 20
-65.00155
 30
0.0
 11
12.5
 21
-65.00155
 31
0.0
  0
LINE
  8
BASE
 10
15.0
 20
-65.001549
 30
0.0
 11
17.5
 21
-65.001549
 31
0.0
  0
LINE
  8
BASE
 10
12.5
 20
-65.00155
 30
0.0
 11
12.5
 21
-55.00155
 31
0.0
  0
LINE
  8
BASE
 10
10.0
 20
-60.0
 30
0.0
 11
15.0
 21
-60.0
 31
0.0
  0
LINE
  8
BASE
  6
CONTINUOUS
 10
10.0
 20
-60.0
 30
0.0
 11
6.0
 21
-60.0
 31
0.0
  0
TEXT
  8
BASE
  6
CONTINUOUS
 10
8.173717
 20
-62.731978
 30
0.0
 40
2.0
  1
NI
  0
LINE
  8
BASE
  6
CONTINUOUS
 10
6.0
 20
-65.5
 30
0.0
 11
5.0
 21
-66.5
 31
0.0
  0
LINE
  8
BASE
  6
CONTINUOUS
 10
6.0
 20
-58.5
 30
0.0
 11
6.0
 21
-65.5
 31
0.0
  0
LINE
  8
BASE
  6
CONTINUOUS
 10
6.0
 20
-58.5
 30
0.0
 11
5.0
 21
-57.5
 31
0.0
  0
TEXT
  8
BASE
  6
CONTINUOUS
 10
12.887383
 20
9.086709
 30
0.0
 40
2.0
  1
101
  0
TEXT
  8
BASE
  6
CONTINUOUS
 10
8.173717
 20
-12.635823
 30
0.0
 40
2.0
  1
RI
  0
TEXT
  8
BASE
  6
CONTINUOUS
 10
8.173717
 20
-42.744992
 30
0.0
 40
2.0
  1
TI
  0
TEXT
  8
BASE
  6
CONTINUOUS
 10
8.173717
 20
-52.926075
 30
0.0
 40
2.0
  1
TI
  0
TEXT
  8
BASE
  6
CONTINUOUS
 10
8.173717
 20
-2.784001
 30
0.0
 40
2.0
  1
RI
  0
LINE
  8
BASE
  6
CONTINUOUS
 10
6.0
 20
-38.5
 30
0.0
 11
5.0
 21
-37.5
 31
0.0
  0
LINE
  8
BASE
  6
CONTINUOUS
 10
6.0
 20
-38.5
 30
0.0
 11
6.0
 21
-45.5
 31
0.0
  0
LINE
  8
BASE
  6
CONTINUOUS
 10
6.0
 20
-45.5
 30
0.0
 11
5.0
 21
-46.5
 31
0.0
  0
TEXT
  8
BASE
  6
DASHED
 10
14.717817
 20
-53.113746
 30
0.0
 40
2.0
  1
8B
 11
14.717817
 21
-53.780413
 31
0.0
 73
     1
  0
TEXT
  8
BASE
  6
DASHED
 10
14.538363
 20
-43.091225
 30
0.0
 40
2.0
  1
7B
 11
14.538363
 21
-43.757892
 31
0.0
 73
     1
  0
TEXT
  8
BASE
  6
DASHED
 10
14.538363
 20
-33.068703
 30
0.0
 40
2.0
  1
6B
 11
14.538363
 21
-33.73537
 31
0.0
 73
     1
  0
TEXT
  8
BASE
  6
DASHED
 10
14.538363
 20
-23.228142
 30
0.0
 40
2.0
  1
5B
 11
14.538363
 21
-23.894808
 31
0.0
 73
     1
  0
TEXT
  8
BASE
  6
DASHED
 10
14.538363
 20
-13.214285
 30
0.0
 40
2.0
  1
4B
 11
14.538363
 21
-13.880951
 31
0.0
 73
     1
  0
TEXT
  8
BASE
  6
DASHED
 10
14.538363
 20
-3.365058
 30
0.0
 40
2.0
  1
3B
 11
14.538363
 21
-4.031725
 31
0.0
 73
     1
  0
LINE
  8
BASE
  6
CONTINUOUS
 10
10.0
 20
-20.0
 30
0.0
 11
6.0
 21
-20.0
 31
0.0
  0
LINE
  8
BASE
  6
CONTINUOUS
 10
10.0
 20
-40.0
 30
0.0
 11
6.0
 21
-40.0
 31
0.0
  0
LINE
  8
BASE
  6
CONTINUOUS
 10
6.0
 20
-25.5
 30
0.0
 11
5.0
 21
-26.5
 31
0.0
  0
LINE
  8
BASE
  6
CONTINUOUS
 10
6.0
 20
-18.5
 30
0.0
 11
6.0
 21
-25.5
 31
0.0
  0
LINE
  8
BASE
  6
CONTINUOUS
 10
6.0
 20
-18.5
 30
0.0
 11
5.0
 21
-17.5
 31
0.0
  0
LINE
  8
BASE
  6
CONTINUOUS
 10
6.0
 20
1.5
 30
0.0
 11
5.0
 21
2.5
 31
0.0
  0
LINE
  8
BASE
  6
CONTINUOUS
 10
6.0
 20
-5.5
 30
0.0
 11
5.0
 21
-6.5
 31
0.0
  0
LINE
  8
BASE
  6
CONTINUOUS
 10
6.0
 20
1.5
 30
0.0
 11
6.0
 21
-5.5
 31
0.0
  0
LINE
  8
BASE
 10
16.38095
 20
-48.055575
 30
0.0
 11
17.060313
 21
-48.991319
 31
0.0
  0
LINE
  8
BASE
 10
15.0
 20
-50.0
 30
0.0
 11
17.5
 21
-50.0
 31
0.0
  0
CIRCLE
  8
BASE
  6
CONTINUOUS
 10
23.449551
 20
-45.028782
 30
0.0
 40
1.0
  0
LINE
  8
BASE
 10
17.5
 20
-50.0
 30
0.0
 11
17.5
 21
-47.1
 31
0.0
  0
LINE
  8
BASE
 10
22.449552
 20
-45.030442
 30
0.0
 11
16.7
 21
-48.5
 31
0.0
  0
CIRCLE
  8
BASE
  6
CONTINUOUS
 10
23.449551
 20
-35.028782
 30
0.0
 40
1.0
  0
LINE
  8
BASE
 10
15.0
 20
-45.001549
 30
0.0
 11
17.5
 21
-45.001549
 31
0.0
  0
LINE
  8
BASE
 10
15.0
 20
-45.00155
 30
0.0
 11
12.5
 21
-45.00155
 31
0.0
  0
LINE
  8
BASE
 10
12.5
 20
-45.00155
 30
0.0
 11
12.5
 21
-35.00155
 31
0.0
  0
LINE
  8
BASE
 10
22.449552
 20
-35.030442
 30
0.0
 11
16.7
 21
-38.5
 31
0.0
  0
LINE
  8
BASE
 10
16.38095
 20
-38.055575
 30
0.0
 11
17.060313
 21
-38.991319
 31
0.0
  0
LINE
  8
BASE
 10
17.5
 20
-40.0
 30
0.0
 11
17.5
 21
-37.1
 31
0.0
  0
LINE
  8
BASE
 10
15.0
 20
-40.0
 30
0.0
 11
17.5
 21
-40.0
 31
0.0
  0
LINE
  8
BASE
 10
10.0
 20
-40.0
 30
0.0
 11
15.0
 21
-40.0
 31
0.0
  0
LINE
  8
BASE
 10
12.5
 20
-35.00155
 30
0.0
 11
15.0
 21
-35.00155
 31
0.0
  0
LINE
  8
BASE
 10
15.0
 20
-35.0
 30
0.0
 11
17.5
 21
-35.0
 31
0.0
  0
CIRCLE
  8
BASE
  6
CONTINUOUS
 10
23.449551
 20
-25.028782
 30
0.0
 40
1.0
  0
LINE
  8
BASE
 10
15.0
 20
-30.0
 30
0.0
 11
17.5
 21
-30.0
 31
0.0
  0
LINE
  8
BASE
 10
17.5
 20
-30.0
 30
0.0
 11
17.5
 21
-27.1
 31
0.0
  0
LINE
  8
BASE
 10
22.449552
 20
-25.030442
 30
0.0
 11
16.7
 21
-28.5
 31
0.0
  0
LINE
  8
BASE
 10
16.38095
 20
-28.055575
 30
0.0
 11
17.060313
 21
-28.991319
 31
0.0
  0
LINE
  8
BASE
 10
15.0
 20
-25.0
 30
0.0
 11
17.5
 21
-25.0
 31
0.0
  0
LINE
  8
BASE
 10
15.0
 20
-25.00155
 30
0.0
 11
12.5
 21
-25.00155
 31
0.0
  0
LINE
  8
BASE
 10
12.5
 20
-25.00155
 30
0.0
 11
12.5
 21
-15.00155
 31
0.0
  0
CIRCLE
  8
BASE
  6
CONTINUOUS
 10
23.449551
 20
-15.028782
 30
0.0
 40
1.0
  0
LINE
  8
BASE
 10
15.0
 20
-15.0
 30
0.0
 11
17.5
 21
-15.0
 31
0.0
  0
LINE
  8
BASE
 10
12.5
 20
-15.00155
 30
0.0
 11
15.0
 21
-15.00155
 31
0.0
  0
LINE
  8
BASE
 10
10.0
 20
-20.0
 30
0.0
 11
15.0
 21
-20.0
 31
0.0
  0
LINE
  8
BASE
 10
15.0
 20
-20.0
 30
0.0
 11
17.5
 21
-20.0
 31
0.0
  0
LINE
  8
BASE
 10
17.5
 20
-20.0
 30
0.0
 11
17.5
 21
-17.1
 31
0.0
  0
LINE
  8
BASE
 10
16.38095
 20
-18.055575
 30
0.0
 11
17.060313
 21
-18.991319
 31
0.0
  0
LINE
  8
BASE
 10
22.449552
 20
-15.030442
 30
0.0
 11
16.7
 21
-18.5
 31
0.0
  0
CIRCLE
  8
BASE
  6
CONTINUOUS
 10
23.449551
 20
-5.028782
 30
0.0
 40
1.0
  0
LINE
  8
BASE
 10
17.5
 20
-10.0
 30
0.0
 11
17.5
 21
-7.1
 31
0.0
  0
LINE
  8
BASE
 10
15.0
 20
-10.0
 30
0.0
 11
17.5
 21
-10.0
 31
0.0
  0
LINE
  8
BASE
 10
16.38095
 20
-8.055575
 30
0.0
 11
17.060313
 21
-8.991319
 31
0.0
  0
LINE
  8
BASE
 10
22.449552
 20
-5.030442
 30
0.0
 11
16.7
 21
-8.5
 31
0.0
  0
LINE
  8
BASE
  6
CONTINUOUS
 10
10.0
 20
0.0
 30
0.0
 11
6.0
 21
0.0
 31
0.0
  0
LINE
  8
BASE
 10
15.0
 20
-5.0
 30
0.0
 11
17.5
 21
-5.0
 31
0.0
  0
LINE
  8
BASE
 10
15.0
 20
-5.00155
 30
0.0
 11
12.5
 21
-5.00155
 31
0.0
  0
LINE
  8
BASE
 10
22.449552
 20
4.969558
 30
0.0
 11
16.7
 21
1.5
 31
0.0
  0
LINE
  8
BASE
 10
16.38095
 20
1.944425
 30
0.0
 11
17.060313
 21
1.008681
 31
0.0
  0
LINE
  8
BASE
 10
17.5
 20
0.0
 30
0.0
 11
17.5
 21
2.9
 31
0.0
  0
LINE
  8
BASE
 10
15.0
 20
0.0
 30
0.0
 11
17.5
 21
0.0
 31
0.0
  0
LINE
  8
BASE
 10
10.0
 20
0.0
 30
0.0
 11
15.0
 21
0.0
 31
0.0
  0
LINE
  8
BASE
 10
12.5
 20
4.99845
 30
0.0
 11
15.0
 21
4.99845
 31
0.0
  0
LINE
  8
BASE
 10
15.0
 20
5.0
 30
0.0
 11
17.5
 21
5.0
 31
0.0
  0
LINE
  8
BASE
 10
12.5
 20
-5.00155
 30
0.0
 11
12.5
 21
4.99845
 31
0.0
  0
CIRCLE
  8
BASE
  6
CONTINUOUS
 10
23.449551
 20
4.971218
 30
0.0
 40
1.0
  0
LINE
  8
BASE
  6
CONTINUOUS
 10
15.0
 20
-70.0
 30
0.0
 11
0.0
 21
-70.0
 31
0.0
  0
LINE
  8
BASE
  6
CONTINUOUS
 10
0.0
 20
-65.0
 30
0.0
 11
4.266471
 21
-65.0
 31
0.0
  0
LINE
  8
BASE
  6
CONTINUOUS
 10
0.0
 20
-60.0
 30
0.0
 11
4.266471
 21
-60.0
 31
0.0
  0
LINE
  8
BASE
  6
CONTINUOUS
 10
15.0
 20
-50.0
 30
0.0
 11
0.0
 21
-50.0
 31
0.0
  0
LINE
  8
BASE
  6
CONTINUOUS
 10
0.0
 20
-45.0
 30
0.0
 11
4.266471
 21
-45.0
 31
0.0
  0
LINE
  8
BASE
  6
CONTINUOUS
 10
0.0
 20
-40.0
 30
0.0
 11
4.266471
 21
-40.0
 31
0.0
  0
LINE
  8
BASE
  6
CONTINUOUS
 10
15.0
 20
-30.0
 30
0.0
 11
0.0
 21
-30.0
 31
0.0
  0
LINE
  8
BASE
  6
CONTINUOUS
 10
0.0
 20
-25.0
 30
0.0
 11
4.266471
 21
-25.0
 31
0.0
  0
LINE
  8
BASE
  6
CONTINUOUS
 10
0.0
 20
-20.0
 30
0.0
 11
4.266471
 21
-20.0
 31
0.0
  0
LINE
  8
BASE
  6
CONTINUOUS
 10
0.0
 20
-10.0
 30
0.0
 11
15.0
 21
-10.0
 31
0.0
  0
LINE
  8
BASE
  6
CONTINUOUS
 10
0.0
 20
-5.0
 30
0.0
 11
4.266471
 21
-5.0
 31
0.0
  0
LINE
  8
BASE
  6
CONTINUOUS
 10
0.0
 20
0.0
 30
0.0
 11
4.266471
 21
0.0
 31
0.0
  0
TEXT
  8
BASE
  6
DASHED
 10
27.5
 20
2.265533
 30
0.0
 40
2.0
  1
3A
 11
27.5
 21
1.598866
 31
0.0
 73
     1
  0
LINE
  8
BASE
  6
CONTINUOUS
 10
24.449137
 20
5.0
 30
0.0
 11
32.5
 21
5.0
 31
0.0
  0
LINE
  8
BASE
  6
CONTINUOUS
 10
24.449137
 20
-5.0
 30
0.0
 11
32.5
 21
-5.0
 31
0.0
  0
TEXT
  8
BASE
  6
DASHED
 10
27.5
 20
-7.666667
 30
0.0
 40
2.0
  1
4A
 11
27.5
 21
-8.333333
 31
0.0
 73
     1
  0
LINE
  8
BASE
  6
CONTINUOUS
 10
24.449137
 20
-15.0
 30
0.0
 11
32.5
 21
-15.0
 31
0.0
  0
TEXT
  8
BASE
  6
DASHED
 10
27.5
 20
-17.962785
 30
0.0
 40
2.0
  1
5A
 11
27.5
 21
-18.629452
 31
0.0
 73
     1
  0
TEXT
  8
BASE
  6
DASHED
 10
27.5
 20
-27.713025
 30
0.0
 40
2.0
  1
6A
 11
27.5
 21
-28.379691
 31
0.0
 73
     1
  0
LINE
  8
BASE
  6
CONTINUOUS
 10
24.449137
 20
-25.0
 30
0.0
 11
32.5
 21
-25.0
 31
0.0
  0
LINE
  8
BASE
  6
CONTINUOUS
 10
24.449137
 20
-35.0
 30
0.0
 11
32.5
 21
-35.0
 31
0.0
  0
TEXT
  8
BASE
  6
DASHED
 10
27.5
 20
-37.666667
 30
0.0
 40
2.0
  1
7A
 11
27.5
 21
-38.333333
 31
0.0
 73
     1
  0
LINE
  8
BASE
  6
CONTINUOUS
 10
24.449137
 20
-45.0
 30
0.0
 11
32.5
 21
-45.0
 31
0.0
  0
TEXT
  8
BASE
  6
DASHED
 10
27.5
 20
-47.954121
 30
0.0
 40
2.0
  1
8A
 11
27.5
 21
-48.620787
 31
0.0
 73
     1
  0
LINE
  8
BASE
  6
CONTINUOUS
 10
24.449137
 20
-55.0
 30
0.0
 11
32.5
 21
-55.0
 31
0.0
  0
TEXT
  8
BASE
  6
CONTINUOUS
 10
27.5
 20
-57.948605
 30
0.0
 40
2.0
  1
9A
  0
LINE
  8
BASE
  6
CONTINUOUS
 10
24.449137
 20
-65.0
 30
0.0
 11
32.5
 21
-65.0
 31
0.0
  0
TEXT
  8
BASE
  6
CONTINUOUS
 10
27.5
 20
-67.74244
 30
0.0
 40
2.0
  1
10A
  0
ENDBLK
  8
0
  0
BLOCK
  8
0
  2
B90
 70
     0
 10
0.0
 20
0.0
 30
0.0
  3
B90
  0
LINE
  8
0
  6
DASHED
 10
0.0
 20
0.0
 30
0.0
 11
10.0
 21
0.0
 31
0.0
  0
LINE
  8
0
  6
DASHED
 10
0.0
 20
-27.5
 30
0.0
 11
10.0
 21
-27.5
 31
0.0
  0
POLYLINE
  8
0
  6
DASHED
 66
     1
 10
0.0
 20
0.0
 30
0.0
 70
     1
 40
0.25
 41
0.25
 71
     2
 72
   151
  0
VERTEX
  8
0
  6
DASHED
 10
32.12546
 20
-13.692796
 30
0.0
 42
1.0
  0
VERTEX
  8
0
  6
DASHED
 10
32.87546
 20
-13.692796
 30
0.0
 42
1.0
  0
SEQEND
  8
0
  6
DASHED
  0
LINE
  8
0
  6
DASHED
 10
20.518226
 20
-13.69296
 30
0.0
 11
32.5
 21
-13.69296
 31
0.0
  0
LINE
  8
0
  6
DASHED
 10
32.5
 20
7.5
 30
0.0
 11
32.5
 21
-35.0
 31
0.0
  0
LINE
  8
0
  6
DASHED
 10
10.0
 20
-27.5
 30
0.0
 11
10.0
 21
-21.565388
 31
0.0
  0
LINE
  8
0
  6
DASHED
 10
10.0
 20
0.0
 30
0.0
 11
10.0
 21
-5.768014
 31
0.0
  0
LINE
  8
0
  6
CONTINUOUS
 10
16.0154
 20
-13.873694
 30
0.0
 11
18.348802
 21
-11.540292
 31
0.0
  0
LINE
  8
0
  6
CONTINUOUS
 10
14.042353
 20
-11.900647
 30
0.0
 11
16.0154
 21
-13.873694
 31
0.0
  0
LINE
  8
0
  6
CONTINUOUS
 10
16.0154
 20
-13.873694
 30
0.0
 11
16.0154
 21
-16.207095
 31
0.0
  0
LINE
  8
0
  6
CONTINUOUS
 10
12.453342
 20
-18.625161
 30
0.0
 11
10.413608
 21
-14.545694
 31
0.0
  0
LINE
  8
0
  6
CONTINUOUS
 10
7.786539
 20
-18.625161
 30
0.0
 11
12.453342
 21
-18.625161
 31
0.0
  0
LINE
  8
0
  6
CONTINUOUS
 10
9.818403
 20
-14.561433
 30
0.0
 11
7.786539
 21
-18.625161
 31
0.0
  0
LINE
  8
0
  6
CONTINUOUS
 10
10.130803
 20
-10.327727
 30
0.0
 11
10.130803
 21
-12.661129
 31
0.0
  0
LINE
  8
0
  6
CONTINUOUS
 10
10.130803
 20
-10.327727
 30
0.0
 11
12.464205
 21
-7.994325
 31
0.0
  0
LINE
  8
0
  6
CONTINUOUS
 10
7.797401
 20
-7.994325
 30
0.0
 11
10.130803
 21
-10.327727
 31
0.0
  0
CIRCLE
  8
0
  6
CONTINUOUS
 10
16.119675
 20
-13.691658
 30
0.0
 40
4.398585
  0
CIRCLE
  8
0
  6
CONTINUOUS
 10
10.0
 20
-17.166803
 30
0.0
 40
4.398585
  0
CIRCLE
  8
0
  6
CONTINUOUS
 10
10.0
 20
-10.166598
 30
0.0
 40
4.398585
  0
ENDBLK
  8
0
  0
BLOCK
  8
0
  2
B157
 70
     0
 10
0.0
 20
0.0
 30
0.0
  3
B157
  0
TEXT
  8
0
  6
CONTINUOUS
 10
0.825099
 20
-22.5
 30
0.0
 40
1.8
  1
265,9 mm
 50
90.0
  7
GREEKS
  0
TEXT
  8
0
  6
CONTINUOUS
 10
10.0
 20
-1.032192
 30
0.0
 40
1.8
  1
269,2 mm
  7
GREEKS
  0
TEXT
  8
0
  6
CONTINUOUS
 10
7.5
 20
-30.942078
 30
0.0
 40
2.0
  1
SPAC 634 C 
  7
GREEKS
  0
LINE
  8
0
  6
CONTINUOUS
 10
2.5
 20
-27.5
 30
0.0
 11
2.5
 21
-2.5
 31
0.0
  0
LINE
  8
0
  6
CONTINUOUS
 10
32.5
 20
-27.5
 30
0.0
 11
2.5
 21
-27.5
 31
0.0
  0
LINE
  8
0
  6
CONTINUOUS
 10
32.5
 20
-2.5
 30
0.0
 11
32.5
 21
-27.5
 31
0.0
  0
LINE
  8
0
  6
CONTINUOUS
 10
2.5
 20
-2.5
 30
0.0
 11
32.5
 21
-2.5
 31
0.0
  0
ENDBLK
  8
0
  0
BLOCK
  8
0
  2
B142
 70
     0
 10
0.0
 20
0.0
 30
0.0
  3
B142
  0
TEXT
  8
0
  6
CONTINUOUS
 10
5.549479
 20
-59.025296
 30
0.0
 40
2.0
  1
10)
  7
GREEKS
  0
TEXT
  8
0
  6
CONTINUOUS
 10
5.549479
 20
-39.39604
 30
0.0
 40
2.0
  1
10)
  7
GREEKS
  0
TEXT
  8
0
  6
CONTINUOUS
 10
11.148996
 20
-19.261821
 30
0.0
 40
2.0
  1
10)
  7
GREEKS
  0
TEXT
  8
0
  6
CONTINUOUS
 10
5.549479
 20
0.877579
 30
0.0
 40
2.0
  1
10)
  7
GREEKS
  0
LINE
  8
0
  6
DASHED
 10
93.595465
 20
40.0
 30
0.0
 11
7.5
 21
40.0
 31
0.0
  0
LINE
  8
0
  6
DASHED
 10
93.595465
 20
35.0
 30
0.0
 11
7.5
 21
35.0
 31
0.0
  0
LINE
  8
0
  6
DASHED
 10
93.595465
 20
30.0
 30
0.0
 11
7.5
 21
30.0
 31
0.0
  0
LINE
  8
0
  6
CONTINUOUS
 10
57.5
 20
12.68998
 30
0.0
 11
77.5
 21
12.68998
 31
0.0
  0
LINE
  8
0
  6
CONTINUOUS
 10
70.0
 20
0.0
 30
0.0
 11
65.0
 21
7.5
 31
0.0
  0
LINE
  8
0
  6
DASHED
 10
65.0
 20
-12.5
 30
0.0
 11
82.5
 21
-12.5
 31
0.0
  0
LINE
  8
0
  6
DASHED
 10
0.0
 20
-10.0
 30
0.0
 11
10.0
 21
-10.0
 31
0.0
  0
LINE
  8
0
  6
DASHED
 10
0.0
 20
-30.0
 30
0.0
 11
25.0
 21
-30.0
 31
0.0
  0
LINE
  8
0
  6
DASHED
 10
0.0
 20
-50.0
 30
0.0
 11
32.5
 21
-50.0
 31
0.0
  0
LINE
  8
0
  6
DASHED
 10
0.0
 20
-70.0
 30
0.0
 11
57.5
 21
-70.0
 31
0.0
  0
LINE
  8
0
  6
DASHED
 10
30.0
 20
-4.810008
 30
0.0
 11
25.0
 21
-4.810008
 31
0.0
  0
INSERT
  8
0
  6
CONTINUOUS
  2
BLC27
 10
41.491155
 20
-22.381569
 30
0.0
 50
180.0
  0
POLYLINE
  8
0
  6
CONTINUOUS
 66
     1
 10
0.0
 20
0.0
 30
0.0
 70
     1
 40
0.25
 41
0.25
 71
     2
 72
   151
  0
VERTEX
  8
0
  6
CONTINUOUS
 10
29.625
 20
40.0
 30
0.0
 42
1.0
  0
VERTEX
  8
0
  6
CONTINUOUS
 10
30.375
 20
40.0
 30
0.0
 42
1.0
  0
SEQEND
  8
0
  6
CONTINUOUS
  0
POLYLINE
  8
0
  6
CONTINUOUS
 66
     1
 10
0.0
 20
0.0
 30
0.0
 70
     1
 40
0.25
 41
0.25
 71
     2
 72
   151
  0
VERTEX
  8
0
  6
CONTINUOUS
 10
34.625
 20
35.0
 30
0.0
 42
1.0
  0
VERTEX
  8
0
  6
CONTINUOUS
 10
35.375
 20
35.0
 30
0.0
 42
1.0
  0
SEQEND
  8
0
  6
CONTINUOUS
  0
POLYLINE
  8
0
  6
CONTINUOUS
 66
     1
 10
0.0
 20
0.0
 30
0.0
 70
     1
 40
0.25
 41
0.25
 71
     2
 72
   151
  0
VERTEX
  8
0
  6
CONTINUOUS
 10
39.625
 20
30.0
 30
0.0
 42
1.0
  0
VERTEX
  8
0
  6
CONTINUOUS
 10
40.375
 20
30.0
 30
0.0
 42
1.0
  0
SEQEND
  8
0
  6
CONTINUOUS
  0
LINE
  8
0
  6
CONTINUOUS
 10
40.0
 20
12.5
 30
0.0
 11
39.5
 21
12.0
 31
0.0
  0
LINE
  8
0
  6
CONTINUOUS
 10
40.0
 20
12.5
 30
0.0
 11
39.5
 21
13.0
 31
0.0
  0
LINE
  8
0
  6
CONTINUOUS
 10
40.0
 20
12.5
 30
0.0
 11
40.5
 21
13.0
 31
0.0
  0
LINE
  8
0
  6
CONTINUOUS
 10
40.0
 20
12.5
 30
0.0
 11
40.5
 21
12.0
 31
0.0
  0
LINE
  8
0
  6
CONTINUOUS
 10
35.0
 20
12.5
 30
0.0
 11
34.5
 21
13.0
 31
0.0
  0
LINE
  8
0
  6
CONTINUOUS
 10
35.0
 20
12.5
 30
0.0
 11
34.5
 21
12.0
 31
0.0
  0
LINE
  8
0
  6
CONTINUOUS
 10
35.0
 20
12.5
 30
0.0
 11
35.5
 21
12.0
 31
0.0
  0
LINE
  8
0
  6
CONTINUOUS
 10
35.0
 20
12.5
 30
0.0
 11
35.5
 21
13.0
 31
0.0
  0
LINE
  8
0
  6
CONTINUOUS
 10
30.0
 20
12.5
 30
0.0
 11
29.5
 21
12.0
 31
0.0
  0
LINE
  8
0
  6
CONTINUOUS
 10
30.0
 20
12.5
 30
0.0
 11
30.5
 21
13.0
 31
0.0
  0
LINE
  8
0
  6
CONTINUOUS
 10
30.0
 20
12.5
 30
0.0
 11
30.5
 21
12.0
 31
0.0
  0
LINE
  8
0
  6
CONTINUOUS
 10
30.0
 20
12.5
 30
0.0
 11
29.5
 21
13.0
 31
0.0
  0
LINE
  8
0
  6
CONTINUOUS
 10
40.0
 20
5.0
 30
0.0
 11
37.5
 21
12.5
 31
0.0
  0
LINE
  8
0
  6
CONTINUOUS
 10
35.0
 20
5.0
 30
0.0
 11
32.5
 21
12.5
 31
0.0
  0
LINE
  8
0
  6
CONTINUOUS
 10
30.0
 20
5.0
 30
0.0
 11
27.5
 21
12.5
 31
0.0
  0
LINE
  8
0
  6
DASHED
 10
30.0
 20
25.0
 30
0.0
 11
30.0
 21
40.0
 31
0.0
  0
LINE
  8
0
  6
DASHED
 10
35.0
 20
25.0
 30
0.0
 11
35.0
 21
32.5
 31
0.0
  0
LINE
  8
0
  6
DASHED
 10
40.0
 20
5.0
 30
0.0
 11
40.0
 21
-32.5
 31
0.0
  0
LINE
  8
0
  6
DASHED
 10
40.0
 20
30.0
 30
0.0
 11
40.0
 21
12.5
 31
0.0
  0
LINE
  8
0
  6
DASHED
 10
35.0
 20
5.0
 30
0.0
 11
35.0
 21
-32.5
 31
0.0
  0
LINE
  8
0
  6
DASHED
 10
35.0
 20
35.0
 30
0.0
 11
35.0
 21
12.5
 31
0.0
  0
LINE
  8
0
  6
DASHED
 10
30.0
 20
12.5
 30
0.0
 11
30.0
 21
25.0
 31
0.0
  0
LINE
  8
0
  6
DASHED
 10
30.0
 20
5.0
 30
0.0
 11
30.0
 21
-32.5
 31
0.0
  0
INSERT
  8
0
  6
CONTINUOUS
  2
BLC27
 10
31.491154
 20
-2.381567
 30
0.0
 50
180.0
  0
INSERT
  8
0
  6
CONTINUOUS
  2
BLC15
 10
24.857916
 20
-35.0
 30
0.0
  0
LINE
  8
0
  6
DASHED
 10
40.0
 20
-27.5
 30
0.0
 11
40.0
 21
-30.0
 31
0.0
  0
LINE
  8
0
  6
DASHED
 10
35.0
 20
-27.5
 30
0.0
 11
35.0
 21
-30.0
 31
0.0
  0
LINE
  8
0
  6
DASHED
 10
30.0
 20
-27.5
 30
0.0
 11
30.0
 21
-30.0
 31
0.0
  0
POLYLINE
  8
0
  6
DASHED
 66
     1
 10
0.0
 20
0.0
 30
0.0
 70
     1
 40
0.25
 41
0.25
 71
     2
 72
   151
  0
VERTEX
  8
0
  6
DASHED
 10
9.625
 20
-30.0
 30
0.0
 42
1.0
  0
VERTEX
  8
0
  6
DASHED
 10
10.375
 20
-30.0
 30
0.0
 42
1.0
  0
SEQEND
  8
0
  6
DASHED
  0
LINE
  8
0
  6
DASHED
 10
40.006921
 20
-24.810016
 30
0.0
 11
25.0
 21
-24.810016
 31
0.0
  0
LINE
  8
0
  6
DASHED
 10
10.0
 20
-10.0
 30
0.0
 11
10.0
 21
-30.0
 31
0.0
  0
LINE
  8
0
  6
DASHED
 10
5.0
 20
-40.0
 30
0.0
 11
22.5
 21
-40.0
 31
0.0
  0
LINE
  8
0
  6
DASHED
 10
22.5
 20
-40.0
 30
0.0
 11
22.5
 21
-45.189984
 31
0.0
  0
INSERT
  8
0
  6
CONTINUOUS
  2
BLC15
 10
32.357916
 20
-57.5
 30
0.0
  0
POLYLINE
  8
0
  6
DASHED
 66
     1
 10
0.0
 20
0.0
 30
0.0
 70
     1
 40
0.25
 41
0.25
 71
     2
 72
   251
  0
VERTEX
  8
0
  6
DASHED
 10
22.125
 20
-50.0
 30
0.0
 42
1.0
  0
VERTEX
  8
0
  6
DASHED
 10
22.875
 20
-50.0
 30
0.0
 42
1.0
  0
SEQEND
  8
0
  6
DASHED
  0
LINE
  8
0
  6
DASHED
 10
25.0
 20
-4.810008
 30
0.0
 11
25.0
 21
-32.5
 31
0.0
  0
LINE
  8
0
  6
CONTINUOUS
 10
30.0
 20
-32.5
 30
0.0
 11
40.0
 21
-32.5
 31
0.0
  0
LINE
  8
0
  6
CONTINUOUS
 10
32.5
 20
-32.5
 30
0.0
 11
35.0
 21
-37.5
 31
0.0
  0
LINE
  8
0
  6
CONTINUOUS
 10
35.0
 20
-37.5
 30
0.0
 11
37.5
 21
-32.5
 31
0.0
  0
LINE
  8
0
  6
DASHED
 10
32.5
 20
-32.5
 30
0.0
 11
32.5
 21
-55.0
 31
0.0
  0
POLYLINE
  8
0
  6
DASHED
 66
     1
 10
0.0
 20
0.0
 30
0.0
 70
     1
 40
0.25
 41
0.25
 71
     2
 72
   151
  0
VERTEX
  8
0
  6
DASHED
 10
32.125
 20
-32.5
 30
0.0
 42
1.0
  0
VERTEX
  8
0
  6
DASHED
 10
32.875
 20
-32.5
 30
0.0
 42
1.0
  0
SEQEND
  8
0
  6
DASHED
  0
INSERT
  8
0
  6
CONTINUOUS
  2
BLC15
 10
22.357916
 20
-57.5
 30
0.0
  0
LINE
  8
0
  6
DASHED
 10
22.5
 20
-55.0
 30
0.0
 11
22.5
 21
-50.0
 31
0.0
  0
INSERT
  8
0
  6
CONTINUOUS
  2
BLC27
 10
36.49116
 20
-47.571554
 30
0.0
 50
180.0
  0
LINE
  8
0
  6
CONTINUOUS
 10
32.5
 20
-47.59856
 30
0.0
 11
35.0
 21
-47.59856
 31
0.0
  0
LINE
  8
0
  6
DASHED
 10
22.5
 20
-45.189984
 30
0.0
 11
35.0
 21
-45.189984
 31
0.0
  0
LINE
  8
0
  6
DASHED
 10
35.0
 20
-50.0
 30
0.0
 11
35.0
 21
-50.0
 31
0.0
  0
LINE
  8
0
  6
DASHED
 10
32.5
 20
-50.0
 30
0.0
 11
35.0
 21
-50.0
 31
0.0
  0
LINE
  8
0
  6
DASHED
 10
30.0
 20
0.0
 30
0.0
 11
5.0
 21
0.0
 31
0.0
  0
LINE
  8
0
  6
DASHED
 10
40.0
 20
-20.0
 30
0.0
 11
5.0
 21
-20.0
 31
0.0
  0
POLYLINE
  8
0
  6
DASHED
 66
     1
 10
0.0
 20
0.0
 30
0.0
 70
     1
 40
0.25
 41
0.25
 71
     2
 72
   151
  0
VERTEX
  8
0
  6
DASHED
 10
24.624033
 20
-24.810354
 30
0.0
 42
1.0
  0
VERTEX
  8
0
  6
DASHED
 10
25.374033
 20
-24.810354
 30
0.0
 42
1.0
  0
SEQEND
  8
0
  6
DASHED
  0
POLYLINE
  8
0
  6
DASHED
 66
     1
 10
0.0
 20
0.0
 30
0.0
 70
     1
 40
0.25
 41
0.25
 71
     2
 72
   151
  0
VERTEX
  8
0
  6
DASHED
 10
24.623777
 20
-30.00007
 30
0.0
 42
1.0
  0
VERTEX
  8
0
  6
DASHED
 10
25.373777
 20
-30.00007
 30
0.0
 42
1.0
  0
SEQEND
  8
0
  6
DASHED
  0
INSERT
  8
0
  6
CONTINUOUS
  2
BLC27
 10
55.965932
 20
15.071549
 30
0.0
  0
INSERT
  8
0
  6
CONTINUOUS
  2
BLC27
 10
63.465932
 20
15.071549
 30
0.0
  0
LINE
  8
0
  6
DASHED
 10
57.5
 20
17.5
 30
0.0
 11
57.5
 21
40.0
 31
0.0
  0
LINE
  8
0
  6
DASHED
 10
65.0
 20
17.5
 30
0.0
 11
65.0
 21
35.0
 31
0.0
  0
POLYLINE
  8
0
  6
DASHED
 66
     1
 10
0.0
 20
0.0
 30
0.0
 70
     1
 40
0.25
 41
0.25
 71
     2
 72
   151
  0
VERTEX
  8
0
  6
DASHED
 10
57.125
 20
40.0
 30
0.0
 42
1.0
  0
VERTEX
  8
0
  6
DASHED
 10
57.875
 20
40.0
 30
0.0
 42
1.0
  0
SEQEND
  8
0
  6
DASHED
  0
POLYLINE
  8
0
  6
DASHED
 66
     1
 10
0.0
 20
0.0
 30
0.0
 70
     1
 40
0.25
 41
0.25
 71
     2
 72
   151
  0
VERTEX
  8
0
  6
DASHED
 10
64.625
 20
35.0
 30
0.0
 42
1.0
  0
VERTEX
  8
0
  6
DASHED
 10
65.375
 20
35.0
 30
0.0
 42
1.0
  0
SEQEND
  8
0
  6
DASHED
  0
LINE
  8
0
  6
CONTINUOUS
 10
57.5
 20
2.68998
 30
0.0
 11
57.5
 21
0.0
 31
0.0
  0
LINE
  8
0
  6
CONTINUOUS
 10
65.0
 20
2.68998
 30
0.0
 11
65.0
 21
0.0
 31
0.0
  0
ARC
  8
0
  6
CONTINUOUS
 10
63.364862
 20
6.296095
 30
0.0
 40
1.204309
 50
90.0
 51
265.706237
  0
LINE
  8
0
  6
CONTINUOUS
 10
63.358762
 20
5.098547
 30
0.0
 11
64.00836
 21
5.098547
 31
0.0
  0
LINE
  8
0
  6
CONTINUOUS
 10
63.358762
 20
7.499993
 30
0.0
 11
64.002261
 21
7.499993
 31
0.0
  0
LINE
  8
0
  6
CONTINUOUS
 10
63.359898
 20
2.689937
 30
0.0
 11
64.009496
 21
2.689937
 31
0.0
  0
ARC
  8
0
  6
CONTINUOUS
 10
63.364862
 20
3.894238
 30
0.0
 40
1.204309
 50
90.0
 51
270.0
  0
LINE
  8
0
  6
CONTINUOUS
 10
64.000897
 20
2.68998
 30
0.0
 11
65.0
 21
2.68998
 31
0.0
  0
LINE
  8
0
  6
CONTINUOUS
 10
63.996128
 20
7.499996
 30
0.0
 11
64.973936
 21
7.499996
 31
0.0
  0
LINE
  8
0
  6
CONTINUOUS
 10
64.006031
 20
5.098556
 30
0.0
 11
64.978167
 21
5.098556
 31
0.0
  0
ARC
  8
0
  6
CONTINUOUS
 10
55.864862
 20
6.296095
 30
0.0
 40
1.204309
 50
90.0
 51
265.706237
  0
LINE
  8
0
  6
CONTINUOUS
 10
55.858762
 20
5.098547
 30
0.0
 11
56.50836
 21
5.098547
 31
0.0
  0
LINE
  8
0
  6
CONTINUOUS
 10
55.858762
 20
7.499993
 30
0.0
 11
56.502261
 21
7.499993
 31
0.0
  0
LINE
  8
0
  6
CONTINUOUS
 10
55.859898
 20
2.689937
 30
0.0
 11
56.509496
 21
2.689937
 31
0.0
  0
ARC
  8
0
  6
CONTINUOUS
 10
55.864862
 20
3.894238
 30
0.0
 40
1.204309
 50
90.0
 51
270.0
  0
LINE
  8
0
  6
CONTINUOUS
 10
56.500897
 20
2.68998
 30
0.0
 11
57.5
 21
2.68998
 31
0.0
  0
LINE
  8
0
  6
CONTINUOUS
 10
56.496128
 20
7.499996
 30
0.0
 11
57.473936
 21
7.499996
 31
0.0
  0
LINE
  8
0
  6
CONTINUOUS
 10
56.506031
 20
5.098556
 30
0.0
 11
57.478167
 21
5.098556
 31
0.0
  0
LINE
  8
0
  6
CONTINUOUS
 10
65.0
 20
0.0
 30
0.0
 11
62.5
 21
0.0
 31
0.0
  0
LINE
  8
0
  6
CONTINUOUS
 10
62.5
 20
0.0
 30
0.0
 11
57.5
 21
7.5
 31
0.0
  0
LINE
  8
0
  6
DASHED
 10
5.0
 20
-60.0
 30
0.0
 11
65.0
 21
-60.0
 31
0.0
  0
LINE
  8
0
  6
DASHED
 10
65.0
 20
-60.0
 30
0.0
 11
65.0
 21
-12.5
 31
0.0
  0
LINE
  8
0
  6
DASHED
 10
57.5
 20
-70.0
 30
0.0
 11
57.5
 21
0.0
 31
0.0
  0
LINE
  8
0
  6
DASHED
 10
35.0
 20
-37.5
 30
0.0
 11
35.0
 21
-55.0
 31
0.0
  0
TEXT
  8
0
  6
CONTINUOUS
 10
-1.267672
 20
29.006967
 30
0.0
 40
2.0
  1
L3(T)
 11
-1.267672
 21
28.3403
 31
0.0
 73
     1
  0
TEXT
  8
0
  6
CONTINUOUS
 10
-1.267672
 20
33.928359
 30
0.0
 40
2.0
  1
L2(S)
 11
-1.267672
 21
33.261693
 31
0.0
 73
     1
  0
TEXT
  8
0
  6
CONTINUOUS
 10
-1.267672
 20
38.985054
 30
0.0
 40
2.0
  1
L1(R)
 11
-1.267672
 21
38.318387
 31
0.0
 73
     1
  0
INSERT
  8
0
  6
CONTINUOUS
  2
BLC27
 10
70.965932
 20
15.071549
 30
0.0
  0
LINE
  8
0
  6
DASHED
 10
72.5
 20
17.5
 30
0.0
 11
72.5
 21
30.0
 31
0.0
  0
LINE
  8
0
  6
CONTINUOUS
 10
72.5
 20
2.68998
 30
0.0
 11
72.5
 21
0.0
 31
0.0
  0
ARC
  8
0
  6
CONTINUOUS
 10
70.864862
 20
6.296095
 30
0.0
 40
1.204309
 50
90.0
 51
265.706237
  0
LINE
  8
0
  6
CONTINUOUS
 10
70.858762
 20
5.098547
 30
0.0
 11
71.50836
 21
5.098547
 31
0.0
  0
LINE
  8
0
  6
CONTINUOUS
 10
70.858762
 20
7.499993
 30
0.0
 11
71.502261
 21
7.499993
 31
0.0
  0
LINE
  8
0
  6
CONTINUOUS
 10
70.859898
 20
2.689937
 30
0.0
 11
71.509496
 21
2.689937
 31
0.0
  0
ARC
  8
0
  6
CONTINUOUS
 10
70.864862
 20
3.894238
 30
0.0
 40
1.204309
 50
90.0
 51
270.0
  0
LINE
  8
0
  6
CONTINUOUS
 10
71.500897
 20
2.68998
 30
0.0
 11
72.5
 21
2.68998
 31
0.0
  0
LINE
  8
0
  6
CONTINUOUS
 10
71.496128
 20
7.499996
 30
0.0
 11
72.473936
 21
7.499996
 31
0.0
  0
LINE
  8
0
  6
CONTINUOUS
 10
71.506031
 20
5.098556
 30
0.0
 11
72.478167
 21
5.098556
 31
0.0
  0
LINE
  8
0
  6
CONTINUOUS
 10
72.5
 20
0.0
 30
0.0
 11
70.0
 21
0.0
 31
0.0
  0
LINE
  8
0
  6
CONTINUOUS
 10
72.5
 20
7.5
 30
0.0
 11
77.5
 21
7.5
 31
0.0
  0
INSERT
  8
0
  6
CONTINUOUS
  2
BLC15
 10
90.0
 20
7.357916
 30
0.0
 50
90.0
  0
INSERT
  8
0
  6
CONTINUOUS
  2
BLC15
 10
90.0
 20
12.547896
 30
0.0
 50
90.0
  0
LINE
  8
0
  6
DASHED
 10
77.5
 20
7.5
 30
0.0
 11
86.84682
 21
7.5
 31
0.0
  0
LINE
  8
0
  6
DASHED
 10
77.5
 20
12.68998
 30
0.0
 11
86.663362
 21
12.68998
 31
0.0
  0
LINE
  8
0
  6
DASHED
 10
82.5
 20
-12.5
 30
0.0
 11
82.5
 21
7.5
 31
0.0
  0
POLYLINE
  8
0
  6
DASHED
 66
     1
 10
0.0
 20
0.0
 30
0.0
 70
     1
 40
0.25
 41
0.25
 71
     2
 72
   151
  0
VERTEX
  8
0
  6
DASHED
 10
82.125
 20
7.5
 30
0.0
 42
1.0
  0
VERTEX
  8
0
  6
DASHED
 10
82.875
 20
7.5
 30
0.0
 42
1.0
  0
SEQEND
  8
0
  6
DASHED
  0
LINE
  8
0
  6
CONTINUOUS
 10
5.0
 20
-59.6532
 30
0.0
 11
5.0
 21
-65.33813
 31
0.0
  0
LINE
  8
0
  6
CONTINUOUS
 10
0.0
 20
-65.0
 30
0.0
 11
2.5
 21
-65.0
 31
0.0
  0
LINE
  8
0
  6
CONTINUOUS
 10
0.0
 20
-60.0
 30
0.0
 11
2.5
 21
-60.0
 31
0.0
  0
LINE
  8
0
  6
CONTINUOUS
 10
0.0
 20
-45.0
 30
0.0
 11
2.5
 21
-45.0
 31
0.0
  0
LINE
  8
0
  6
CONTINUOUS
 10
0.0
 20
-40.0
 30
0.0
 11
2.5
 21
-40.0
 31
0.0
  0
LINE
  8
0
  6
CONTINUOUS
 10
0.0
 20
-25.0
 30
0.0
 11
2.5
 21
-25.0
 31
0.0
  0
LINE
  8
0
  6
CONTINUOUS
 10
0.0
 20
-20.0
 30
0.0
 11
2.5
 21
-20.0
 31
0.0
  0
LINE
  8
0
  6
CONTINUOUS
 10
0.0
 20
-5.0
 30
0.0
 11
2.5
 21
-5.0
 31
0.0
  0
LINE
  8
0
  6
CONTINUOUS
 10
0.0
 20
0.0
 30
0.0
 11
2.5
 21
0.0
 31
0.0
  0
LINE
  8
0
  6
CONTINUOUS
 10
5.0
 20
0.3468
 30
0.0
 11
4.0
 21
1.3468
 31
0.0
  0
LINE
  8
0
  6
CONTINUOUS
 10
5.0
 20
-5.33813
 30
0.0
 11
4.0
 21
-6.33813
 31
0.0
  0
LINE
  8
0
  6
CONTINUOUS
 10
5.0
 20
0.3468
 30
0.0
 11
5.0
 21
-5.33813
 31
0.0
  0
LINE
  8
0
  6
CONTINUOUS
 10
5.0
 20
-19.6532
 30
0.0
 11
5.0
 21
-25.33813
 31
0.0
  0
LINE
  8
0
  6
CONTINUOUS
 10
5.0
 20
-25.33813
 30
0.0
 11
4.0
 21
-26.33813
 31
0.0
  0
LINE
  8
0
  6
CONTINUOUS
 10
5.0
 20
-19.6532
 30
0.0
 11
4.0
 21
-18.6532
 31
0.0
  0
LINE
  8
0
  6
CONTINUOUS
 10
5.0
 20
-39.6532
 30
0.0
 11
4.0
 21
-38.6532
 31
0.0
  0
LINE
  8
0
  6
CONTINUOUS
 10
5.0
 20
-45.33813
 30
0.0
 11
4.0
 21
-46.33813
 31
0.0
  0
LINE
  8
0
  6
CONTINUOUS
 10
5.0
 20
-39.6532
 30
0.0
 11
5.0
 21
-45.33813
 31
0.0
  0
ENDBLK
  8
0
  0
BLOCK
  8
0
  2
B602
 70
     0
 10
0.0
 20
0.0
 30
0.0
  3
B602
  0
INSERT
  8
0
  6
CONTINUOUS
  2
B507
 10
16.611208
 20
-5.632213
 30
0.0
  0
TEXT
  8
0
  6
CONTINUOUS
 10
13.878553
 20
-3.150942
 30
0.0
 40
2.0
  1
P/Q
  7
ROMANS
  0
POLYLINE
  8
0
  6
CONTINUOUS
 66
     1
 10
0.0
 20
0.0
 30
0.0
 70
     1
 40
0.5
 41
0.5
  0
VERTEX
  8
0
  6
CONTINUOUS
 10
-5.5
 20
-24.810016
 30
0.0
 42
1.0
  0
VERTEX
  8
0
  6
CONTINUOUS
 10
-4.5
 20
-24.810016
 30
0.0
 42
1.0
  0
SEQEND
  8
0
  6
CONTINUOUS
  0
POLYLINE
  8
0
  6
CONTINUOUS
 66
     1
 10
0.0
 20
0.0
 30
0.0
 70
     1
 40
0.5
 41
0.5
  0
VERTEX
  8
0
  6
CONTINUOUS
 10
52.0
 20
-2.5
 30
0.0
 42
1.0
  0
VERTEX
  8
0
  6
CONTINUOUS
 10
53.0
 20
-2.5
 30
0.0
 42
1.0
  0
SEQEND
  8
0
  6
CONTINUOUS
  0
POLYLINE
  8
0
  6
CONTINUOUS
 66
     1
 10
0.0
 20
0.0
 30
0.0
 70
     1
 40
0.5
 41
0.5
  0
VERTEX
  8
0
  6
CONTINUOUS
 10
-20.5
 20
-30.0
 30
0.0
 42
1.0
  0
VERTEX
  8
0
  6
CONTINUOUS
 10
-19.5
 20
-30.0
 30
0.0
 42
1.0
  0
SEQEND
  8
0
  6
CONTINUOUS
  0
POLYLINE
  8
0
  6
CONTINUOUS
 66
     1
 10
0.0
 20
0.0
 30
0.0
 70
     1
 40
0.5
 41
0.5
  0
VERTEX
  8
0
  6
CONTINUOUS
 10
42.0
 20
20.0
 30
0.0
 42
1.0
  0
VERTEX
  8
0
  6
CONTINUOUS
 10
43.0
 20
20.0
 30
0.0
 42
1.0
  0
SEQEND
  8
0
  6
CONTINUOUS
  0
POLYLINE
  8
0
  6
CONTINUOUS
 66
     1
 10
0.0
 20
0.0
 30
0.0
 70
     1
 40
0.5
 41
0.5
  0
VERTEX
  8
0
  6
CONTINUOUS
 10
34.5
 20
25.0
 30
0.0
 42
1.0
  0
VERTEX
  8
0
  6
CONTINUOUS
 10
35.5
 20
25.0
 30
0.0
 42
1.0
  0
SEQEND
  8
0
  6
CONTINUOUS
  0
POLYLINE
  8
0
  6
CONTINUOUS
 66
     1
 10
0.0
 20
0.0
 30
0.0
 70
     1
 40
0.5
 41
0.5
  0
VERTEX
  8
0
  6
CONTINUOUS
 10
27.0
 20
30.0
 30
0.0
 42
1.0
  0
VERTEX
  8
0
  6
CONTINUOUS
 10
28.0
 20
30.0
 30
0.0
 42
1.0
  0
SEQEND
  8
0
  6
CONTINUOUS
  0
POLYLINE
  8
0
  6
CONTINUOUS
 66
     1
 10
0.0
 20
0.0
 30
0.0
 70
     1
 40
0.5
 41
0.5
  0
VERTEX
  8
0
  6
CONTINUOUS
 10
9.5
 20
20.0
 30
0.0
 42
1.0
  0
VERTEX
  8
0
  6
CONTINUOUS
 10
10.5
 20
20.0
 30
0.0
 42
1.0
  0
SEQEND
  8
0
  6
CONTINUOUS
  0
POLYLINE
  8
0
  6
CONTINUOUS
 66
     1
 10
0.0
 20
0.0
 30
0.0
 70
     1
 40
0.5
 41
0.5
  0
VERTEX
  8
0
  6
CONTINUOUS
 10
4.5
 20
25.0
 30
0.0
 42
1.0
  0
VERTEX
  8
0
  6
CONTINUOUS
 10
5.5
 20
25.0
 30
0.0
 42
1.0
  0
SEQEND
  8
0
  6
CONTINUOUS
  0
POLYLINE
  8
0
  6
CONTINUOUS
 66
     1
 10
0.0
 20
0.0
 30
0.0
 70
     1
 40
0.5
 41
0.5
  0
VERTEX
  8
0
  6
CONTINUOUS
 10
-0.5
 20
30.0
 30
0.0
 42
1.0
  0
VERTEX
  8
0
  6
CONTINUOUS
 10
0.5
 20
30.0
 30
0.0
 42
1.0
  0
SEQEND
  8
0
  6
CONTINUOUS
  0
TEXT
  8
0
  6
DASHED
 10
-23.839315
 20
-19.208497
 30
0.0
 40
2.0
  1
1)
  7
ROMANS
  0
TEXT
  8
0
  6
DASHED
 10
-23.839315
 20
0.791503
 30
0.0
 40
2.0
  1
1)
  7
ROMANS
  0
TEXT
  8
0
  6
DASHED
 10
-12.569799
 20
18.948748
 30
0.0
 40
2.0
  1
L3
  7
ROMANS
  0
TEXT
  8
0
  6
DASHED
 10
-12.569799
 20
24.012279
 30
0.0
 40
2.0
  1
L2
  7
ROMANS
  0
TEXT
  8
0
  6
DASHED
 10
-12.569799
 20
29.064791
 30
0.0
 40
2.0
  1
L1
  7
ROMANS
  0
LINE
  8
0
  6
DASHED
 10
55.0
 20
30.0
 30
0.0
 11
-7.5
 21
30.0
 31
0.0
  0
LINE
  8
0
  6
DASHED
 10
55.0
 20
25.0
 30
0.0
 11
-7.5
 21
25.0
 31
0.0
  0
LINE
  8
0
  6
DASHED
 10
55.0
 20
20.0
 30
0.0
 11
-7.5
 21
20.0
 31
0.0
  0
INSERT
  8
0
  6
CONTINUOUS
  2
BLC27
 10
40.965932
 20
5.071549
 30
0.0
  0
LINE
  8
0
  6
DASHED
 10
42.5
 20
7.5
 30
0.0
 11
42.5
 21
20.0
 31
0.0
  0
LINE
  8
0
  6
CONTINUOUS
 10
27.5
 20
2.68998
 30
0.0
 11
47.5
 21
2.68998
 31
0.0
  0
LINE
  8
0
  6
CONTINUOUS
 10
42.5
 20
-7.31002
 30
0.0
 11
42.5
 21
-10.0
 31
0.0
  0
ARC
  8
0
  6
CONTINUOUS
 10
40.864862
 20
-3.703905
 30
0.0
 40
1.204309
 50
90.0
 51
265.706237
  0
LINE
  8
0
  6
CONTINUOUS
 10
40.858762
 20
-4.901453
 30
0.0
 11
41.50836
 21
-4.901453
 31
0.0
  0
LINE
  8
0
  6
CONTINUOUS
 10
40.858762
 20
-2.500007
 30
0.0
 11
41.502261
 21
-2.500007
 31
0.0
  0
LINE
  8
0
  6
CONTINUOUS
 10
40.859898
 20
-7.310063
 30
0.0
 11
41.509496
 21
-7.310063
 31
0.0
  0
ARC
  8
0
  6
CONTINUOUS
 10
40.864862
 20
-6.105762
 30
0.0
 40
1.204309
 50
90.0
 51
270.0
  0
LINE
  8
0
  6
CONTINUOUS
 10
41.500897
 20
-7.31002
 30
0.0
 11
42.5
 21
-7.31002
 31
0.0
  0
LINE
  8
0
  6
CONTINUOUS
 10
41.496128
 20
-2.500004
 30
0.0
 11
42.473936
 21
-2.500004
 31
0.0
  0
LINE
  8
0
  6
CONTINUOUS
 10
41.506031
 20
-4.901444
 30
0.0
 11
42.478167
 21
-4.901444
 31
0.0
  0
LINE
  8
0
  6
CONTINUOUS
 10
42.5
 20
-10.0
 30
0.0
 11
40.0
 21
-10.0
 31
0.0
  0
LINE
  8
0
  6
CONTINUOUS
 10
40.0
 20
-10.0
 30
0.0
 11
35.0
 21
-2.5
 31
0.0
  0
LINE
  8
0
  6
CONTINUOUS
 10
42.5
 20
-2.5
 30
0.0
 11
47.5
 21
-2.5
 31
0.0
  0
INSERT
  8
0
  6
CONTINUOUS
  2
BLC15
 10
60.0
 20
-2.642084
 30
0.0
 50
90.0
  0
INSERT
  8
0
  6
CONTINUOUS
  2
BLC15
 10
60.0
 20
2.547896
 30
0.0
 50
90.0
  0
LINE
  8
0
  6
DASHED
 10
47.5
 20
-2.5
 30
0.0
 11
56.84682
 21
-2.5
 31
0.0
  0
LINE
  8
0
  6
DASHED
 10
47.5
 20
2.68998
 30
0.0
 11
56.663362
 21
2.68998
 31
0.0
  0
LINE
  8
0
  6
DASHED
 10
35.0
 20
-22.5
 30
0.0
 11
52.5
 21
-22.5
 31
0.0
  0
LINE
  8
0
  6
DASHED
 10
52.5
 20
-22.5
 30
0.0
 11
52.5
 21
-2.5
 31
0.0
  0
LINE
  8
0
  6
DASHED
 10
0.0
 20
-4.810008
 30
0.0
 11
-5.0
 21
-4.810008
 31
0.0
  0
LINE
  8
0
  6
CONTINUOUS
 10
10.0
 20
12.5
 30
0.0
 11
9.5
 21
12.0
 31
0.0
  0
LINE
  8
0
  6
CONTINUOUS
 10
10.0
 20
12.5
 30
0.0
 11
9.5
 21
13.0
 31
0.0
  0
LINE
  8
0
  6
CONTINUOUS
 10
10.0
 20
12.5
 30
0.0
 11
10.5
 21
13.0
 31
0.0
  0
LINE
  8
0
  6
CONTINUOUS
 10
10.0
 20
12.5
 30
0.0
 11
10.5
 21
12.0
 31
0.0
  0
LINE
  8
0
  6
CONTINUOUS
 10
5.0
 20
12.5
 30
0.0
 11
4.5
 21
13.0
 31
0.0
  0
LINE
  8
0
  6
CONTINUOUS
 10
5.0
 20
12.5
 30
0.0
 11
4.5
 21
12.0
 31
0.0
  0
LINE
  8
0
  6
CONTINUOUS
 10
5.0
 20
12.5
 30
0.0
 11
5.5
 21
12.0
 31
0.0
  0
LINE
  8
0
  6
CONTINUOUS
 10
5.0
 20
12.5
 30
0.0
 11
5.5
 21
13.0
 31
0.0
  0
LINE
  8
0
  6
CONTINUOUS
 10
0.0
 20
12.5
 30
0.0
 11
-0.5
 21
12.0
 31
0.0
  0
LINE
  8
0
  6
CONTINUOUS
 10
0.0
 20
12.5
 30
0.0
 11
0.5
 21
13.0
 31
0.0
  0
LINE
  8
0
  6
CONTINUOUS
 10
0.0
 20
12.5
 30
0.0
 11
0.5
 21
12.0
 31
0.0
  0
LINE
  8
0
  6
CONTINUOUS
 10
0.0
 20
12.5
 30
0.0
 11
-0.5
 21
13.0
 31
0.0
  0
LINE
  8
0
  6
CONTINUOUS
 10
10.0
 20
5.0
 30
0.0
 11
7.5
 21
12.5
 31
0.0
  0
LINE
  8
0
  6
CONTINUOUS
 10
5.0
 20
5.0
 30
0.0
 11
2.5
 21
12.5
 31
0.0
  0
LINE
  8
0
  6
CONTINUOUS
 10
0.0
 20
5.0
 30
0.0
 11
-2.5
 21
12.5
 31
0.0
  0
INSERT
  8
0
  6
CONTINUOUS
  2
BLC27
 10
6.51227
 20
-22.38157
 30
0.0
 50
180.0
  0
LINE
  8
0
  6
DASHED
 10
0.0
 20
25.0
 30
0.0
 11
0.0
 21
30.0
 31
0.0
  0
LINE
  8
0
  6
DASHED
 10
10.0
 20
5.0
 30
0.0
 11
10.0
 21
-27.5
 31
0.0
  0
LINE
  8
0
  6
DASHED
 10
10.0
 20
20.0
 30
0.0
 11
10.0
 21
12.5
 31
0.0
  0
LINE
  8
0
  6
DASHED
 10
5.0
 20
5.0
 30
0.0
 11
5.0
 21
-27.5
 31
0.0
  0
LINE
  8
0
  6
DASHED
 10
5.0
 20
25.0
 30
0.0
 11
5.0
 21
12.5
 31
0.0
  0
LINE
  8
0
  6
DASHED
 10
0.0
 20
12.5
 30
0.0
 11
0.0
 21
25.0
 31
0.0
  0
LINE
  8
0
  6
DASHED
 10
0.0
 20
5.0
 30
0.0
 11
0.0
 21
-27.5
 31
0.0
  0
INSERT
  8
0
  6
CONTINUOUS
  2
BLC27
 10
1.491154
 20
-2.381567
 30
0.0
 50
180.0
  0
LINE
  8
0
  6
DASHED
 10
5.069797
 20
-24.810016
 30
0.0
 11
-5.0
 21
-24.810016
 31
0.0
  0
LINE
  8
0
  6
DASHED
 10
0.0
 20
0.0
 30
0.0
 11
-25.0
 21
0.0
 31
0.0
  0
LINE
  8
0
  6
DASHED
 10
5.0
 20
-20.0
 30
0.0
 11
-25.0
 21
-20.0
 31
0.0
  0
INSERT
  8
0
  6
CONTINUOUS
  2
BLC27
 10
25.965932
 20
5.071549
 30
0.0
  0
INSERT
  8
0
  6
CONTINUOUS
  2
BLC27
 10
33.465932
 20
5.071549
 30
0.0
  0
LINE
  8
0
  6
DASHED
 10
27.5
 20
7.5
 30
0.0
 11
27.5
 21
30.0
 31
0.0
  0
LINE
  8
0
  6
DASHED
 10
35.0
 20
7.5
 30
0.0
 11
35.0
 21
25.0
 31
0.0
  0
LINE
  8
0
  6
CONTINUOUS
 10
27.5
 20
-7.31002
 30
0.0
 11
27.5
 21
-10.0
 31
0.0
  0
LINE
  8
0
  6
CONTINUOUS
 10
35.0
 20
-7.31002
 30
0.0
 11
35.0
 21
-10.0
 31
0.0
  0
ARC
  8
0
  6
CONTINUOUS
 10
33.364862
 20
-3.703905
 30
0.0
 40
1.204309
 50
90.0
 51
265.706237
  0
LINE
  8
0
  6
CONTINUOUS
 10
33.358762
 20
-4.901453
 30
0.0
 11
34.00836
 21
-4.901453
 31
0.0
  0
LINE
  8
0
  6
CONTINUOUS
 10
33.358762
 20
-2.500007
 30
0.0
 11
34.002261
 21
-2.500007
 31
0.0
  0
LINE
  8
0
  6
CONTINUOUS
 10
33.359898
 20
-7.310063
 30
0.0
 11
34.009496
 21
-7.310063
 31
0.0
  0
ARC
  8
0
  6
CONTINUOUS
 10
33.364862
 20
-6.105762
 30
0.0
 40
1.204309
 50
90.0
 51
270.0
  0
LINE
  8
0
  6
CONTINUOUS
 10
34.000897
 20
-7.31002
 30
0.0
 11
35.0
 21
-7.31002
 31
0.0
  0
LINE
  8
0
  6
CONTINUOUS
 10
33.996128
 20
-2.500004
 30
0.0
 11
34.973936
 21
-2.500004
 31
0.0
  0
LINE
  8
0
  6
CONTINUOUS
 10
34.006031
 20
-4.901444
 30
0.0
 11
34.978167
 21
-4.901444
 31
0.0
  0
ARC
  8
0
  6
CONTINUOUS
 10
25.864862
 20
-3.703905
 30
0.0
 40
1.204309
 50
90.0
 51
265.706237
  0
LINE
  8
0
  6
CONTINUOUS
 10
25.858762
 20
-4.901453
 30
0.0
 11
26.50836
 21
-4.901453
 31
0.0
  0
LINE
  8
0
  6
CONTINUOUS
 10
25.858762
 20
-2.500007
 30
0.0
 11
26.502261
 21
-2.500007
 31
0.0
  0
LINE
  8
0
  6
CONTINUOUS
 10
25.859898
 20
-7.310063
 30
0.0
 11
26.509496
 21
-7.310063
 31
0.0
  0
ARC
  8
0
  6
CONTINUOUS
 10
25.864862
 20
-6.105762
 30
0.0
 40
1.204309
 50
90.0
 51
270.0
  0
LINE
  8
0
  6
CONTINUOUS
 10
26.500897
 20
-7.31002
 30
0.0
 11
27.5
 21
-7.31002
 31
0.0
  0
LINE
  8
0
  6
CONTINUOUS
 10
26.496128
 20
-2.500004
 30
0.0
 11
27.473936
 21
-2.500004
 31
0.0
  0
LINE
  8
0
  6
CONTINUOUS
 10
26.506031
 20
-4.901444
 30
0.0
 11
27.478167
 21
-4.901444
 31
0.0
  0
LINE
  8
0
  6
CONTINUOUS
 10
35.0
 20
-10.0
 30
0.0
 11
32.5
 21
-10.0
 31
0.0
  0
LINE
  8
0
  6
CONTINUOUS
 10
32.5
 20
-10.0
 30
0.0
 11
27.5
 21
-2.5
 31
0.0
  0
LINE
  8
0
  6
CONTINUOUS
 10
-25.0
 20
0.3468
 30
0.0
 11
-26.0
 21
1.3468
 31
0.0
  0
LINE
  8
0
  6
CONTINUOUS
 10
-25.0
 20
-5.33813
 30
0.0
 11
-26.0
 21
-6.33813
 31
0.0
  0
LINE
  8
0
  6
CONTINUOUS
 10
-25.0
 20
0.3468
 30
0.0
 11
-25.0
 21
-5.33813
 31
0.0
  0
LINE
  8
0
  6
CONTINUOUS
 10
-25.0
 20
-19.6532
 30
0.0
 11
-25.0
 21
-25.33813
 31
0.0
  0
LINE
  8
0
  6
CONTINUOUS
 10
-25.0
 20
-25.33813
 30
0.0
 11
-26.0
 21
-26.33813
 31
0.0
  0
LINE
  8
0
  6
CONTINUOUS
 10
-25.0
 20
-19.6532
 30
0.0
 11
-26.0
 21
-18.6532
 31
0.0
  0
POLYLINE
  8
0
  6
CONTINUOUS
 66
     1
 10
0.0
 20
0.0
 30
0.0
 70
     1
 40
0.5
 41
0.5
  0
VERTEX
  8
0
  6
CONTINUOUS
 10
-8.0
 20
-70.0
 30
0.0
 42
1.0
  0
VERTEX
  8
0
  6
CONTINUOUS
 10
-7.0
 20
-70.0
 30
0.0
 42
1.0
  0
SEQEND
  8
0
  6
CONTINUOUS
  0
POLYLINE
  8
0
  6
CONTINUOUS
 66
     1
 10
0.0
 20
0.0
 30
0.0
 70
     1
 40
0.5
 41
0.5
  0
VERTEX
  8
0
  6
CONTINUOUS
 10
-5.5
 20
-44.810016
 30
0.0
 42
1.0
  0
VERTEX
  8
0
  6
CONTINUOUS
 10
-4.5
 20
-44.810016
 30
0.0
 42
1.0
  0
SEQEND
  8
0
  6
CONTINUOUS
  0
POLYLINE
  8
0
  6
CONTINUOUS
 66
     1
 10
0.0
 20
0.0
 30
0.0
 70
     1
 40
0.5
 41
0.5
  0
VERTEX
  8
0
  6
CONTINUOUS
 10
-5.5
 20
-50.0
 30
0.0
 42
1.0
  0
VERTEX
  8
0
  6
CONTINUOUS
 10
-4.5
 20
-50.0
 30
0.0
 42
1.0
  0
SEQEND
  8
0
  6
CONTINUOUS
  0
POLYLINE
  8
0
  6
CONTINUOUS
 66
     1
 10
0.0
 20
0.0
 30
0.0
 70
     1
 40
0.5
 41
0.5
  0
VERTEX
  8
0
  6
CONTINUOUS
 10
-20.5
 20
-50.0
 30
0.0
 42
1.0
  0
VERTEX
  8
0
  6
CONTINUOUS
 10
-19.5
 20
-50.0
 30
0.0
 42
1.0
  0
SEQEND
  8
0
  6
CONTINUOUS
  0
TEXT
  8
0
  6
DASHED
 10
-23.839315
 20
-79.208497
 30
0.0
 40
2.0
  1
1)
  7
ROMANS
  0
TEXT
  8
0
  6
DASHED
 10
-23.839315
 20
-59.208497
 30
0.0
 40
2.0
  1
1)
  7
ROMANS
  0
TEXT
  8
0
  6
DASHED
 10
-23.839315
 20
-39.208497
 30
0.0
 40
2.0
  1
1)
  7
ROMANS
  0
LINE
  8
0
  6
DASHED
 10
27.5
 20
-90.0
 30
0.0
 11
27.5
 21
-10.0
 31
0.0
  0
LINE
  8
0
  6
DASHED
 10
35.0
 20
-80.0
 30
0.0
 11
35.0
 21
-22.5
 31
0.0
  0
LINE
  8
0
  6
CONTINUOUS
 10
-30.0
 20
-5.0
 30
0.0
 11
-27.5
 21
-5.0
 31
0.0
  0
LINE
  8
0
  6
DASHED
 10
-30.0
 20
-10.0
 30
0.0
 11
-20.0
 21
-10.0
 31
0.0
  0
LINE
  8
0
  6
CONTINUOUS
 10
-30.0
 20
-20.0
 30
0.0
 11
-27.5
 21
-20.0
 31
0.0
  0
LINE
  8
0
  6
CONTINUOUS
 10
-30.0
 20
-25.0
 30
0.0
 11
-27.5
 21
-25.0
 31
0.0
  0
LINE
  8
0
  6
DASHED
 10
-30.0
 20
-30.0
 30
0.0
 11
-20.0
 21
-30.0
 31
0.0
  0
LINE
  8
0
  6
CONTINUOUS
 10
-30.0
 20
-40.0
 30
0.0
 11
-27.5
 21
-40.0
 31
0.0
  0
LINE
  8
0
  6
CONTINUOUS
 10
-30.0
 20
-45.0
 30
0.0
 11
-27.5
 21
-45.0
 31
0.0
  0
LINE
  8
0
  6
DASHED
 10
-30.0
 20
-50.0
 30
0.0
 11
-5.0
 21
-50.0
 31
0.0
  0
LINE
  8
0
  6
CONTINUOUS
 10
-30.0
 20
-60.0
 30
0.0
 11
-27.5
 21
-60.0
 31
0.0
  0
LINE
  8
0
  6
CONTINUOUS
 10
-30.0
 20
-65.0
 30
0.0
 11
-27.5
 21
-65.0
 31
0.0
  0
LINE
  8
0
  6
DASHED
 10
-30.0
 20
-70.0
 30
0.0
 11
2.5
 21
-70.0
 31
0.0
  0
LINE
  8
0
  6
CONTINUOUS
 10
-30.0
 20
-80.0
 30
0.0
 11
-27.5
 21
-80.0
 31
0.0
  0
LINE
  8
0
  6
CONTINUOUS
 10
-30.0
 20
-85.0
 30
0.0
 11
-27.5
 21
-85.0
 31
0.0
  0
LINE
  8
0
  6
DASHED
 10
-30.0
 20
-90.0
 30
0.0
 11
27.5
 21
-90.0
 31
0.0
  0
INSERT
  8
0
  6
CONTINUOUS
  2
BLC27
 10
11.491155
 20
-42.381569
 30
0.0
 50
180.0
  0
INSERT
  8
0
  6
CONTINUOUS
  2
BLC15
 10
-5.142084
 20
-55.0
 30
0.0
  0
LINE
  8
0
  6
DASHED
 10
10.0
 20
-27.5
 30
0.0
 11
10.0
 21
-52.5
 31
0.0
  0
LINE
  8
0
  6
DASHED
 10
5.0
 20
-27.5
 30
0.0
 11
5.0
 21
-52.5
 31
0.0
  0
LINE
  8
0
  6
DASHED
 10
0.0
 20
-27.5
 30
0.0
 11
0.0
 21
-52.5
 31
0.0
  0
LINE
  8
0
  6
DASHED
 10
10.006921
 20
-44.810016
 30
0.0
 11
-5.0
 21
-44.810016
 31
0.0
  0
LINE
  8
0
  6
DASHED
 10
-20.0
 20
-10.0
 30
0.0
 11
-20.0
 21
-50.0
 31
0.0
  0
LINE
  8
0
  6
DASHED
 10
-25.0
 20
-60.0
 30
0.0
 11
-7.5
 21
-60.0
 31
0.0
  0
LINE
  8
0
  6
DASHED
 10
-7.5
 20
-60.0
 30
0.0
 11
-7.5
 21
-65.189984
 31
0.0
  0
INSERT
  8
0
  6
CONTINUOUS
  2
BLC15
 10
2.357916
 20
-77.5
 30
0.0
  0
LINE
  8
0
  6
DASHED
 10
-5.0
 20
-4.810008
 30
0.0
 11
-5.0
 21
-52.5
 31
0.0
  0
LINE
  8
0
  6
CONTINUOUS
 10
0.0
 20
-52.5
 30
0.0
 11
10.0
 21
-52.5
 31
0.0
  0
LINE
  8
0
  6
CONTINUOUS
 10
2.5
 20
-52.5
 30
0.0
 11
5.0
 21
-57.5
 31
0.0
  0
LINE
  8
0
  6
CONTINUOUS
 10
5.0
 20
-57.5
 30
0.0
 11
7.5
 21
-52.5
 31
0.0
  0
LINE
  8
0
  6
CONTINUOUS
 10
5.0
 20
-57.5
 30
0.0
 11
5.0
 21
-77.5
 31
0.0
  0
LINE
  8
0
  6
DASHED
 10
2.5
 20
-52.5
 30
0.0
 11
2.5
 21
-75.0
 31
0.0
  0
INSERT
  8
0
  6
CONTINUOUS
  2
BLC15
 10
-7.642084
 20
-77.5
 30
0.0
  0
LINE
  8
0
  6
DASHED
 10
-7.5
 20
-75.0
 30
0.0
 11
-7.5
 21
-70.0
 31
0.0
  0
INSERT
  8
0
  6
CONTINUOUS
  2
BLC27
 10
6.49116
 20
-67.571554
 30
0.0
 50
180.0
  0
LINE
  8
0
  6
CONTINUOUS
 10
2.5
 20
-67.59856
 30
0.0
 11
5.0
 21
-67.59856
 31
0.0
  0
LINE
  8
0
  6
DASHED
 10
-7.5
 20
-65.189984
 30
0.0
 11
5.0
 21
-65.189984
 31
0.0
  0
LINE
  8
0
  6
DASHED
 10
5.0
 20
-70.0
 30
0.0
 11
5.0
 21
-70.0
 31
0.0
  0
LINE
  8
0
  6
DASHED
 10
2.5
 20
-70.0
 30
0.0
 11
5.0
 21
-70.0
 31
0.0
  0
LINE
  8
0
  6
DASHED
 10
10.0
 20
-40.0
 30
0.0
 11
-25.0
 21
-40.0
 31
0.0
  0
LINE
  8
0
  6
DASHED
 10
-25.0
 20
-80.0
 30
0.0
 11
35.0
 21
-80.0
 31
0.0
  0
LINE
  8
0
  6
CONTINUOUS
 10
-25.0
 20
-39.6532
 30
0.0
 11
-26.0
 21
-38.6532
 31
0.0
  0
LINE
  8
0
  6
CONTINUOUS
 10
-25.0
 20
-45.33813
 30
0.0
 11
-26.0
 21
-46.33813
 31
0.0
  0
LINE
  8
0
  6
CONTINUOUS
 10
-25.0
 20
-39.6532
 30
0.0
 11
-25.0
 21
-45.33813
 31
0.0
  0
LINE
  8
0
  6
CONTINUOUS
 10
-25.0
 20
-59.6532
 30
0.0
 11
-25.0
 21
-65.33813
 31
0.0
  0
LINE
  8
0
  6
CONTINUOUS
 10
-25.0
 20
-65.33813
 30
0.0
 11
-26.0
 21
-66.33813
 31
0.0
  0
LINE
  8
0
  6
CONTINUOUS
 10
-25.0
 20
-59.6532
 30
0.0
 11
-26.0
 21
-58.6532
 31
0.0
  0
LINE
  8
0
  6
CONTINUOUS
 10
-25.0
 20
-79.6532
 30
0.0
 11
-26.0
 21
-78.6532
 31
0.0
  0
LINE
  8
0
  6
CONTINUOUS
 10
-25.0
 20
-85.33813
 30
0.0
 11
-26.0
 21
-86.33813
 31
0.0
  0
LINE
  8
0
  6
CONTINUOUS
 10
-25.0
 20
-79.6532
 30
0.0
 11
-25.0
 21
-85.33813
 31
0.0
  0
LINE
  8
BASE
  6
CENTER
 10
-30.0
 20
-10.0
 30
0.0
 11
-30.0
 21
-32.5
 31
0.0
  0
LINE
  8
0
  6
DASHED
 10
5.0
 20
-77.5
 30
0.0
 11
5.0
 21
-102.5
 31
0.0
  0
ENDBLK
  8
0
  0
BLOCK
  8
0
  2
B507
 70
    64
 10
0.0
 20
0.0
 30
0.0
  3
B507
  0
LINE
  8
0
  6
CONTINUOUS
 10
0.079622
 20
0.147754
 30
0.0
 11
0.079622
 21
-9.002074
 31
0.0
  0
INSERT
  8
0
  6
CONTINUOUS
  2
BLC29
 10
0.212369
 20
-6.641509
 30
0.0
 50
270.0
  0
ENDBLK
  8
0
  0
BLOCK
  8
0
  2
B141
 70
     0
 10
0.0
 20
0.0
 30
0.0
  3
B141
  0
TEXT
  8
0
  6
HIDDEN
 10
-29.562839
 20
-0.831121
 30
0.0
 40
2.0
  1
mA
  0
LINE
  8
0
  6
DASHED
 10
-31.25
 20
0.0
 30
0.0
 11
-35.0
 21
0.0
 31
0.0
  0
CIRCLE
  8
0
  6
CONTINUOUS
 10
-27.5
 20
0.0
 30
0.0
 40
3.75
  0
LINE
  8
0
  6
DASHED
 10
-35.0
 20
-5.0
 30
0.0
 11
-2.5
 21
-5.0
 31
0.0
  0
LINE
  8
0
  6
DASHED
 10
-35.0
 20
0.0
 30
0.0
 11
-35.0
 21
-5.0
 31
0.0
  0
LINE
  8
0
  6
DASHED
 10
-2.5
 20
0.0
 30
0.0
 11
-23.75
 21
0.0
 31
0.0
  0
TEXT
  8
0
  6
CONTINUOUS
 10
-17.897022
 20
-3.25618
 30
0.0
 40
1.5
  1
4...20 mA
  0
ENDBLK
  8
0
  0
BLOCK
  8
0
  2
B115
 70
     0
 10
0.0
 20
0.0
 30
0.0
  3
B115
  0
LINE
  8
0
  6
DASHED
 10
122.5
 20
-25.0
 30
0.0
 11
122.5
 21
12.5
 31
0.0
  0
LINE
  8
0
  6
DASHED
 10
115.0
 20
-17.5
 30
0.0
 11
115.0
 21
12.5
 31
0.0
  0
LINE
  8
0
  6
DASHED
 10
107.5
 20
12.5
 30
0.0
 11
107.5
 21
-10.0
 31
0.0
  0
TEXT
  8
0
  6
DASHED
 10
82.5
 20
41.491307
 30
0.0
 40
2.0
  1
L3(T)
  7
GREEKS
  0
TEXT
  8
0
  6
DASHED
 10
82.5
 20
46.510757
 30
0.0
 40
2.0
  1
L2(S)
  7
GREEKS
  0
TEXT
  8
0
  6
DASHED
 10
82.5
 20
51.530207
 30
0.0
 40
2.0
  1
L1(R)
  7
GREEKS
  0
POLYLINE
  8
0
  6
DASHED
 66
     1
 10
0.0
 20
0.0
 30
0.0
 70
     1
 40
0.25
 41
0.25
 71
     2
 72
   151
  0
VERTEX
  8
0
  6
DASHED
 10
107.125
 20
52.5
 30
0.0
 42
1.0
  0
VERTEX
  8
0
  6
DASHED
 10
107.875
 20
52.5
 30
0.0
 42
1.0
  0
SEQEND
  8
0
  6
DASHED
  0
POLYLINE
  8
0
  6
DASHED
 66
     1
 10
0.0
 20
0.0
 30
0.0
 70
     1
 40
0.25
 41
0.25
 71
     2
 72
   151
  0
VERTEX
  8
0
  6
DASHED
 10
114.625
 20
47.5
 30
0.0
 42
1.0
  0
VERTEX
  8
0
  6
DASHED
 10
115.375
 20
47.5
 30
0.0
 42
1.0
  0
SEQEND
  8
0
  6
DASHED
  0
POLYLINE
  8
0
  6
DASHED
 66
     1
 10
0.0
 20
0.0
 30
0.0
 70
     1
 40
0.25
 41
0.25
 71
     2
 72
   151
  0
VERTEX
  8
0
  6
DASHED
 10
122.125
 20
42.5
 30
0.0
 42
1.0
  0
VERTEX
  8
0
  6
DASHED
 10
122.875
 20
42.5
 30
0.0
 42
1.0
  0
SEQEND
  8
0
  6
DASHED
  0
LINE
  8
0
  6
DASHED
 10
130.0
 20
42.5
 30
0.0
 11
92.5
 21
42.5
 31
0.0
  0
LINE
  8
0
  6
DASHED
 10
130.0
 20
47.5
 30
0.0
 11
92.5
 21
47.5
 31
0.0
  0
LINE
  8
0
  6
DASHED
 10
130.0
 20
52.5
 30
0.0
 11
92.5
 21
52.5
 31
0.0
  0
LINE
  8
0
  6
DASHED
 10
107.5
 20
30.0
 30
0.0
 11
107.5
 21
52.5
 31
0.0
  0
LINE
  8
0
  6
DASHED
 10
115.0
 20
30.0
 30
0.0
 11
115.0
 21
47.5
 31
0.0
  0
LINE
  8
0
  6
DASHED
 10
122.5
 20
30.0
 30
0.0
 11
122.5
 21
42.5
 31
0.0
  0
LINE
  8
0
  6
CONTINUOUS
 10
106.506031
 20
17.598556
 30
0.0
 11
107.478167
 21
17.598556
 31
0.0
  0
LINE
  8
0
  6
CONTINUOUS
 10
106.496128
 20
19.999996
 30
0.0
 11
107.473936
 21
19.999996
 31
0.0
  0
LINE
  8
0
  6
CONTINUOUS
 10
106.500897
 20
15.18998
 30
0.0
 11
107.5
 21
15.18998
 31
0.0
  0
ARC
  8
0
  6
CONTINUOUS
 10
105.864862
 20
16.394238
 30
0.0
 40
1.204309
 50
90.0
 51
270.0
  0
LINE
  8
0
  6
CONTINUOUS
 10
105.859898
 20
15.189937
 30
0.0
 11
106.509496
 21
15.189937
 31
0.0
  0
LINE
  8
0
  6
CONTINUOUS
 10
105.858762
 20
19.999993
 30
0.0
 11
106.502261
 21
19.999993
 31
0.0
  0
LINE
  8
0
  6
CONTINUOUS
 10
105.858762
 20
17.598547
 30
0.0
 11
106.50836
 21
17.598547
 31
0.0
  0
ARC
  8
0
  6
CONTINUOUS
 10
105.864862
 20
18.796095
 30
0.0
 40
1.204309
 50
90.0
 51
265.706237
  0
LINE
  8
0
  6
CONTINUOUS
 10
114.006031
 20
17.598556
 30
0.0
 11
114.978167
 21
17.598556
 31
0.0
  0
LINE
  8
0
  6
CONTINUOUS
 10
113.996128
 20
19.999996
 30
0.0
 11
114.973936
 21
19.999996
 31
0.0
  0
LINE
  8
0
  6
CONTINUOUS
 10
114.000897
 20
15.18998
 30
0.0
 11
115.0
 21
15.18998
 31
0.0
  0
ARC
  8
0
  6
CONTINUOUS
 10
113.364862
 20
16.394238
 30
0.0
 40
1.204309
 50
90.0
 51
270.0
  0
LINE
  8
0
  6
CONTINUOUS
 10
113.359898
 20
15.189937
 30
0.0
 11
114.009496
 21
15.189937
 31
0.0
  0
LINE
  8
0
  6
CONTINUOUS
 10
113.358762
 20
19.999993
 30
0.0
 11
114.002261
 21
19.999993
 31
0.0
  0
LINE
  8
0
  6
CONTINUOUS
 10
113.358762
 20
17.598547
 30
0.0
 11
114.00836
 21
17.598547
 31
0.0
  0
ARC
  8
0
  6
CONTINUOUS
 10
113.364862
 20
18.796095
 30
0.0
 40
1.204309
 50
90.0
 51
265.706237
  0
LINE
  8
0
  6
CONTINUOUS
 10
115.0
 20
15.18998
 30
0.0
 11
115.0
 21
12.5
 31
0.0
  0
LINE
  8
0
  6
CONTINUOUS
 10
107.5
 20
15.18998
 30
0.0
 11
107.5
 21
12.5
 31
0.0
  0
INSERT
  8
0
  6
CONTINUOUS
  2
BLC27
 10
113.465932
 20
27.571549
 30
0.0
  0
INSERT
  8
0
  6
CONTINUOUS
  2
BLC27
 10
105.965932
 20
27.571549
 30
0.0
  0
INSERT
  8
0
  6
CONTINUOUS
  2
BLC15
 10
132.5
 20
25.047896
 30
0.0
 50
90.0
  0
INSERT
  8
0
  6
CONTINUOUS
  2
BLC15
 10
132.5
 20
19.857916
 30
0.0
 50
90.0
  0
LINE
  8
0
  6
CONTINUOUS
 10
107.5
 20
20.0
 30
0.0
 11
127.5
 21
20.0
 31
0.0
  0
LINE
  8
0
  6
CONTINUOUS
 10
121.506031
 20
17.598556
 30
0.0
 11
122.478167
 21
17.598556
 31
0.0
  0
LINE
  8
0
  6
CONTINUOUS
 10
121.496128
 20
19.999996
 30
0.0
 11
122.473936
 21
19.999996
 31
0.0
  0
LINE
  8
0
  6
CONTINUOUS
 10
121.500897
 20
15.18998
 30
0.0
 11
122.5
 21
15.18998
 31
0.0
  0
ARC
  8
0
  6
CONTINUOUS
 10
120.864862
 20
16.394238
 30
0.0
 40
1.204309
 50
90.0
 51
270.0
  0
LINE
  8
0
  6
CONTINUOUS
 10
120.859898
 20
15.189937
 30
0.0
 11
121.509496
 21
15.189937
 31
0.0
  0
LINE
  8
0
  6
CONTINUOUS
 10
120.858762
 20
19.999993
 30
0.0
 11
121.502261
 21
19.999993
 31
0.0
  0
LINE
  8
0
  6
CONTINUOUS
 10
120.858762
 20
17.598547
 30
0.0
 11
121.50836
 21
17.598547
 31
0.0
  0
ARC
  8
0
  6
CONTINUOUS
 10
120.864862
 20
18.796095
 30
0.0
 40
1.204309
 50
90.0
 51
265.706237
  0
LINE
  8
0
  6
CONTINUOUS
 10
122.5
 20
15.18998
 30
0.0
 11
122.5
 21
12.5
 31
0.0
  0
LINE
  8
0
  6
CONTINUOUS
 10
107.5
 20
25.18998
 30
0.0
 11
127.5
 21
25.18998
 31
0.0
  0
INSERT
  8
0
  6
CONTINUOUS
  2
BLC27
 10
120.965932
 20
27.571549
 30
0.0
  0
LINE
  8
0
  6
DASHED
 10
32.5
 20
-25.0
 30
0.0
 11
122.5
 21
-25.0
 31
0.0
  0
LINE
  8
0
  6
DASHED
 10
27.5
 20
-17.5
 30
0.0
 11
115.0
 21
-17.5
 31
0.0
  0
LINE
  8
0
  6
DASHED
 10
0.0
 20
-10.0
 30
0.0
 11
107.5
 21
-10.0
 31
0.0
  0
TEXT
  8
0
  6
DASHED
 10
6.160685
 20
-39.208497
 30
0.0
 40
2.0
  1
1)
  7
GREEKS
  0
TEXT
  8
0
  6
DASHED
 10
6.160685
 20
-19.208497
 30
0.0
 40
2.0
  1
1)
  7
GREEKS
  0
TEXT
  8
0
  6
DASHED
 10
6.160685
 20
0.791503
 30
0.0
 40
2.0
  1
1)
  7
GREEKS
  0
LINE
  8
0
  6
DASHED
 10
32.5
 20
-50.0
 30
0.0
 11
32.5
 21
-25.0
 31
0.0
  0
LINE
  8
0
  6
DASHED
 10
27.5
 20
-30.0
 30
0.0
 11
27.5
 21
-17.5
 31
0.0
  0
POLYLINE
  8
0
  6
DASHED
 66
     1
 10
0.0
 20
0.0
 30
0.0
 70
     1
 40
0.25
 41
0.25
 71
     2
 72
   151
  0
VERTEX
  8
0
  6
DASHED
 10
12.125
 20
-50.0
 30
0.0
 42
1.0
  0
VERTEX
  8
0
  6
DASHED
 10
12.875
 20
-50.0
 30
0.0
 42
1.0
  0
SEQEND
  8
0
  6
DASHED
  0
POLYLINE
  8
0
  6
DASHED
 66
     1
 10
0.0
 20
0.0
 30
0.0
 70
     1
 40
0.25
 41
0.25
 71
     2
 72
   151
  0
VERTEX
  8
0
  6
DASHED
 10
17.125
 20
-30.0
 30
0.0
 42
1.0
  0
VERTEX
  8
0
  6
DASHED
 10
17.875
 20
-30.0
 30
0.0
 42
1.0
  0
SEQEND
  8
0
  6
DASHED
  0
POLYLINE
  8
0
  6
DASHED
 66
     1
 10
0.0
 20
0.0
 30
0.0
 70
     1
 40
0.25
 41
0.25
 71
     2
 72
   151
  0
VERTEX
  8
0
  6
DASHED
 10
22.125
 20
-10.0
 30
0.0
 42
1.0
  0
VERTEX
  8
0
  6
DASHED
 10
22.875
 20
-10.0
 30
0.0
 42
1.0
  0
SEQEND
  8
0
  6
DASHED
  0
LINE
  8
0
  6
DASHED
 10
22.5
 20
-40.0
 30
0.0
 11
22.5
 21
-10.0
 31
0.0
  0
LINE
  8
0
  6
DASHED
 10
5.0
 20
-40.0
 30
0.0
 11
22.5
 21
-40.0
 31
0.0
  0
LINE
  8
0
  6
DASHED
 10
17.5
 20
0.0
 30
0.0
 11
17.5
 21
-30.0
 31
0.0
  0
LINE
  8
0
  6
DASHED
 10
5.0
 20
0.0
 30
0.0
 11
17.5
 21
0.0
 31
0.0
  0
LINE
  8
0
  6
DASHED
 10
12.5
 20
-20.0
 30
0.0
 11
12.5
 21
-50.0
 31
0.0
  0
LINE
  8
0
  6
DASHED
 10
5.0
 20
-20.0
 30
0.0
 11
12.5
 21
-20.0
 31
0.0
  0
LINE
  8
0
  6
CONTINUOUS
 10
5.0
 20
-39.6532
 30
0.0
 11
5.0
 21
-45.33813
 31
0.0
  0
LINE
  8
0
  6
CONTINUOUS
 10
5.0
 20
-45.33813
 30
0.0
 11
4.0
 21
-46.33813
 31
0.0
  0
LINE
  8
0
  6
CONTINUOUS
 10
5.0
 20
-39.6532
 30
0.0
 11
4.0
 21
-38.6532
 31
0.0
  0
LINE
  8
0
  6
CONTINUOUS
 10
5.0
 20
-19.6532
 30
0.0
 11
4.0
 21
-18.6532
 31
0.0
  0
LINE
  8
0
  6
CONTINUOUS
 10
5.0
 20
-25.33813
 30
0.0
 11
4.0
 21
-26.33813
 31
0.0
  0
LINE
  8
0
  6
CONTINUOUS
 10
5.0
 20
-19.6532
 30
0.0
 11
5.0
 21
-25.33813
 31
0.0
  0
LINE
  8
0
  6
CONTINUOUS
 10
5.0
 20
0.3468
 30
0.0
 11
5.0
 21
-5.33813
 31
0.0
  0
LINE
  8
0
  6
CONTINUOUS
 10
5.0
 20
-5.33813
 30
0.0
 11
4.0
 21
-6.33813
 31
0.0
  0
LINE
  8
0
  6
CONTINUOUS
 10
5.0
 20
0.3468
 30
0.0
 11
4.0
 21
1.3468
 31
0.0
  0
LINE
  8
0
  6
CONTINUOUS
 10
0.0
 20
0.0
 30
0.0
 11
2.5
 21
0.0
 31
0.0
  0
LINE
  8
0
  6
CONTINUOUS
 10
0.0
 20
-5.0
 30
0.0
 11
2.5
 21
-5.0
 31
0.0
  0
LINE
  8
0
  6
CONTINUOUS
 10
0.0
 20
-20.0
 30
0.0
 11
2.5
 21
-20.0
 31
0.0
  0
LINE
  8
0
  6
CONTINUOUS
 10
0.0
 20
-25.0
 30
0.0
 11
2.5
 21
-25.0
 31
0.0
  0
LINE
  8
0
  6
DASHED
 10
0.0
 20
-30.0
 30
0.0
 11
27.5
 21
-30.0
 31
0.0
  0
LINE
  8
0
  6
CONTINUOUS
 10
0.0
 20
-40.0
 30
0.0
 11
2.5
 21
-40.0
 31
0.0
  0
LINE
  8
0
  6
CONTINUOUS
 10
0.0
 20
-45.0
 30
0.0
 11
2.5
 21
-45.0
 31
0.0
  0
LINE
  8
0
  6
DASHED
 10
0.0
 20
-50.0
 30
0.0
 11
32.5
 21
-50.0
 31
0.0
  0
ENDBLK
  8
0
  0
BLOCK
  8
0
  2
909
 70
     0
 10
0.0
 20
0.0
 30
0.0
  3
909
  0
TEXT
  8
BASE
  6
CONTINUOUS
 10
65.353491
 20
-90.7346
 30
0.0
 40
2.0
  1
SGR
 50
90.0
  7
ROMANS
  0
CIRCLE
  8
BASE
  6
CONTINUOUS
 10
77.5
 20
-94.0
 30
0.0
 40
1.0
  0
INSERT
  8
BASE
  6
CONTINUOUS
  2
MAA
 10
167.209549
 20
-49.500265
 30
0.0
  0
INSERT
  8
BASE
  6
CONTINUOUS
  2
MAA
 10
144.656454
 20
-61.889684
 30
0.0
  0
INSERT
  8
BASE
  6
CONTINUOUS
  2
MAA
 10
144.656454
 20
-46.933947
 30
0.0
  0
INSERT
  8
BASE
  6
CONTINUOUS
  2
MAA
 10
144.656454
 20
-36.772716
 30
0.0
  0
POLYLINE
  8
BASE
  6
CONTINUOUS
 66
     1
 10
0.0
 20
0.0
 30
0.0
 70
     1
 40
0.5
 41
0.5
  0
VERTEX
  8
BASE
  6
CONTINUOUS
 10
124.5
 20
-88.078088
 30
0.0
 42
1.0
  0
VERTEX
  8
BASE
  6
CONTINUOUS
 10
125.5
 20
-88.078088
 30
0.0
 42
1.0
  0
SEQEND
  8
BASE
  6
CONTINUOUS
  0
POLYLINE
  8
BASE
  6
CONTINUOUS
 66
     1
 10
0.0
 20
0.0
 30
0.0
 70
     1
 40
0.5
 41
0.5
  0
VERTEX
  8
BASE
  6
CONTINUOUS
 10
109.5
 20
-63.062726
 30
0.0
 42
1.0
  0
VERTEX
  8
BASE
  6
CONTINUOUS
 10
110.5
 20
-63.062726
 30
0.0
 42
1.0
  0
SEQEND
  8
BASE
  6
CONTINUOUS
  0
POLYLINE
  8
BASE
  6
CONTINUOUS
 66
     1
 10
0.0
 20
0.0
 30
0.0
 70
     1
 40
0.5
 41
0.5
  0
VERTEX
  8
BASE
  6
CONTINUOUS
 10
129.5
 20
-56.999187
 30
0.0
 42
1.0
  0
VERTEX
  8
BASE
  6
CONTINUOUS
 10
130.5
 20
-56.999187
 30
0.0
 42
1.0
  0
SEQEND
  8
BASE
  6
CONTINUOUS
  0
POLYLINE
  8
BASE
  6
CONTINUOUS
 66
     1
 10
0.0
 20
0.0
 30
0.0
 70
     1
 40
0.5
 41
0.5
  0
VERTEX
  8
BASE
  6
CONTINUOUS
 10
129.5
 20
-41.999187
 30
0.0
 42
1.0
  0
VERTEX
  8
BASE
  6
CONTINUOUS
 10
130.5
 20
-41.999187
 30
0.0
 42
1.0
  0
SEQEND
  8
BASE
  6
CONTINUOUS
  0
POLYLINE
  8
BASE
  6
CONTINUOUS
 66
     1
 10
0.0
 20
0.0
 30
0.0
 70
     1
 40
0.5
 41
0.5
  0
VERTEX
  8
BASE
  6
CONTINUOUS
 10
129.5
 20
-11.999187
 30
0.0
 42
1.0
  0
VERTEX
  8
BASE
  6
CONTINUOUS
 10
130.5
 20
-11.999187
 30
0.0
 42
1.0
  0
SEQEND
  8
BASE
  6
CONTINUOUS
  0
POLYLINE
  8
BASE
  6
CONTINUOUS
 66
     1
 10
0.0
 20
0.0
 30
0.0
 70
     1
 40
0.5
 41
0.5
  0
VERTEX
  8
BASE
  6
CONTINUOUS
 10
129.5
 20
-26.999187
 30
0.0
 42
1.0
  0
VERTEX
  8
BASE
  6
CONTINUOUS
 10
130.5
 20
-26.999187
 30
0.0
 42
1.0
  0
SEQEND
  8
BASE
  6
CONTINUOUS
  0
POLYLINE
  8
BASE
  6
CONTINUOUS
 66
     1
 10
0.0
 20
0.0
 30
0.0
 70
     1
 40
0.5
 41
0.5
  0
VERTEX
  8
BASE
  6
CONTINUOUS
 10
117.0
 20
-67.5
 30
0.0
 42
1.0
  0
VERTEX
  8
BASE
  6
CONTINUOUS
 10
118.0
 20
-67.5
 30
0.0
 42
1.0
  0
SEQEND
  8
BASE
  6
CONTINUOUS
  0
POLYLINE
  8
BASE
  6
CONTINUOUS
 66
     1
 10
0.0
 20
0.0
 30
0.0
 70
     1
 40
0.5
 41
0.5
  0
VERTEX
  8
BASE
  6
CONTINUOUS
 10
122.0
 20
-77.5
 30
0.0
 42
1.0
  0
VERTEX
  8
BASE
  6
CONTINUOUS
 10
123.0
 20
-77.5
 30
0.0
 42
1.0
  0
SEQEND
  8
BASE
  6
CONTINUOUS
  0
POLYLINE
  8
BASE
  6
CONTINUOUS
 66
     1
 10
0.0
 20
0.0
 30
0.0
 70
     1
 40
0.5
 41
0.5
  0
VERTEX
  8
BASE
  6
CONTINUOUS
 10
119.5
 20
-72.5
 30
0.0
 42
1.0
  0
VERTEX
  8
BASE
  6
CONTINUOUS
 10
120.5
 20
-72.5
 30
0.0
 42
1.0
  0
SEQEND
  8
BASE
  6
CONTINUOUS
  0
POLYLINE
  8
BASE
  6
CONTINUOUS
 66
     1
 10
0.0
 20
0.0
 30
0.0
 70
     1
 40
0.5
 41
0.5
  0
VERTEX
  8
BASE
  6
CONTINUOUS
 10
132.0
 20
-60.0
 30
0.0
 42
1.0
  0
VERTEX
  8
BASE
  6
CONTINUOUS
 10
133.0
 20
-60.0
 30
0.0
 42
1.0
  0
SEQEND
  8
BASE
  6
CONTINUOUS
  0
POLYLINE
  8
BASE
  6
CONTINUOUS
 66
     1
 10
0.0
 20
0.0
 30
0.0
 70
     1
 40
0.5
 41
0.5
  0
VERTEX
  8
BASE
  6
CONTINUOUS
 10
132.0
 20
-45.0
 30
0.0
 42
1.0
  0
VERTEX
  8
BASE
  6
CONTINUOUS
 10
133.0
 20
-45.0
 30
0.0
 42
1.0
  0
SEQEND
  8
BASE
  6
CONTINUOUS
  0
POLYLINE
  8
BASE
  6
CONTINUOUS
 66
     1
 10
0.0
 20
0.0
 30
0.0
 70
     1
 40
0.5
 41
0.5
  0
VERTEX
  8
BASE
  6
CONTINUOUS
 10
132.0
 20
-30.0
 30
0.0
 42
1.0
  0
VERTEX
  8
BASE
  6
CONTINUOUS
 10
133.0
 20
-30.0
 30
0.0
 42
1.0
  0
SEQEND
  8
BASE
  6
CONTINUOUS
  0
POLYLINE
  8
BASE
  6
CONTINUOUS
 66
     1
 10
0.0
 20
0.0
 30
0.0
 70
     1
 40
0.5
 41
0.5
  0
VERTEX
  8
BASE
  6
CONTINUOUS
 10
132.0
 20
-15.0
 30
0.0
 42
1.0
  0
VERTEX
  8
BASE
  6
CONTINUOUS
 10
133.0
 20
-15.0
 30
0.0
 42
1.0
  0
SEQEND
  8
BASE
  6
CONTINUOUS
  0
POLYLINE
  8
BASE
  6
CONTINUOUS
 66
     1
 10
0.0
 20
0.0
 30
0.0
 70
     1
 40
0.5
 41
0.5
  0
VERTEX
  8
BASE
  6
CONTINUOUS
 10
14.5
 20
-81.355506
 30
0.0
 42
1.0
  0
VERTEX
  8
BASE
  6
CONTINUOUS
 10
15.5
 20
-81.355506
 30
0.0
 42
1.0
  0
SEQEND
  8
BASE
  6
CONTINUOUS
  0
POLYLINE
  8
BASE
  6
CONTINUOUS
 66
     1
 10
0.0
 20
0.0
 30
0.0
 70
     1
 40
0.5
 41
0.5
  0
VERTEX
  8
BASE
  6
CONTINUOUS
 10
9.5
 20
-68.944806
 30
0.0
 42
1.0
  0
VERTEX
  8
BASE
  6
CONTINUOUS
 10
10.5
 20
-68.944806
 30
0.0
 42
1.0
  0
SEQEND
  8
BASE
  6
CONTINUOUS
  0
POLYLINE
  8
BASE
  6
CONTINUOUS
 66
     1
 10
0.0
 20
0.0
 30
0.0
 70
     1
 40
0.5
 41
0.5
  0
VERTEX
  8
BASE
  6
CONTINUOUS
 10
104.5
 20
-48.027581
 30
0.0
 42
1.0
  0
VERTEX
  8
BASE
  6
CONTINUOUS
 10
105.5
 20
-48.027581
 30
0.0
 42
1.0
  0
SEQEND
  8
BASE
  6
CONTINUOUS
  0
POLYLINE
  8
BASE
  6
CONTINUOUS
 66
     1
 10
0.0
 20
0.0
 30
0.0
 70
     1
 40
0.5
 41
0.5
  0
VERTEX
  8
BASE
  6
CONTINUOUS
 10
94.5
 20
-32.984774
 30
0.0
 42
1.0
  0
VERTEX
  8
BASE
  6
CONTINUOUS
 10
95.5
 20
-32.984774
 30
0.0
 42
1.0
  0
SEQEND
  8
BASE
  6
CONTINUOUS
  0
POLYLINE
  8
BASE
  6
CONTINUOUS
 66
     1
 10
0.0
 20
0.0
 30
0.0
 70
     1
 40
0.5
 41
0.5
  0
VERTEX
  8
BASE
  6
CONTINUOUS
 10
89.5
 20
-17.933736
 30
0.0
 42
1.0
  0
VERTEX
  8
BASE
  6
CONTINUOUS
 10
90.5
 20
-17.933736
 30
0.0
 42
1.0
  0
SEQEND
  8
BASE
  6
CONTINUOUS
  0
POLYLINE
  8
BASE
  6
CONTINUOUS
 66
     1
 10
0.0
 20
0.0
 30
0.0
 70
     1
 40
0.5
 41
0.5
  0
VERTEX
  8
BASE
  6
CONTINUOUS
 10
79.5
 20
-48.027581
 30
0.0
 42
1.0
  0
VERTEX
  8
BASE
  6
CONTINUOUS
 10
80.5
 20
-48.027581
 30
0.0
 42
1.0
  0
SEQEND
  8
BASE
  6
CONTINUOUS
  0
POLYLINE
  8
BASE
  6
CONTINUOUS
 66
     1
 10
0.0
 20
0.0
 30
0.0
 70
     1
 40
0.5
 41
0.5
  0
VERTEX
  8
BASE
  6
CONTINUOUS
 10
42.0
 20
-48.027581
 30
0.0
 42
1.0
  0
VERTEX
  8
BASE
  6
CONTINUOUS
 10
43.0
 20
-48.027581
 30
0.0
 42
1.0
  0
SEQEND
  8
BASE
  6
CONTINUOUS
  0
POLYLINE
  8
BASE
  6
CONTINUOUS
 66
     1
 10
0.0
 20
0.0
 30
0.0
 70
     1
 40
0.5
 41
0.5
  0
VERTEX
  8
BASE
  6
CONTINUOUS
 10
32.0
 20
-32.984774
 30
0.0
 42
1.0
  0
VERTEX
  8
BASE
  6
CONTINUOUS
 10
33.0
 20
-32.984774
 30
0.0
 42
1.0
  0
SEQEND
  8
BASE
  6
CONTINUOUS
  0
POLYLINE
  8
BASE
  6
CONTINUOUS
 66
     1
 10
0.0
 20
0.0
 30
0.0
 70
     1
 40
0.5
 41
0.5
  0
VERTEX
  8
BASE
  6
CONTINUOUS
 10
29.5
 20
-17.933736
 30
0.0
 42
1.0
  0
VERTEX
  8
BASE
  6
CONTINUOUS
 10
30.5
 20
-17.933736
 30
0.0
 42
1.0
  0
SEQEND
  8
BASE
  6
CONTINUOUS
  0
POLYLINE
  8
BASE
  6
CONTINUOUS
 66
     1
 10
0.0
 20
0.0
 30
0.0
 70
     1
 40
0.5
 41
0.5
  0
VERTEX
  8
BASE
  6
CONTINUOUS
 10
34.5
 20
-57.5
 30
0.0
 42
1.0
  0
VERTEX
  8
BASE
  6
CONTINUOUS
 10
35.5
 20
-57.5
 30
0.0
 42
1.0
  0
SEQEND
  8
BASE
  6
CONTINUOUS
  0
POLYLINE
  8
BASE
  6
CONTINUOUS
 66
     1
 10
0.0
 20
0.0
 30
0.0
 70
     1
 40
0.5
 41
0.5
  0
VERTEX
  8
BASE
  6
CONTINUOUS
 10
44.5
 20
-55.0
 30
0.0
 42
1.0
  0
VERTEX
  8
BASE
  6
CONTINUOUS
 10
45.5
 20
-55.0
 30
0.0
 42
1.0
  0
SEQEND
  8
BASE
  6
CONTINUOUS
  0
POLYLINE
  8
BASE
  6
CONTINUOUS
 66
     1
 10
0.0
 20
0.0
 30
0.0
 70
     1
 40
0.5
 41
0.5
  0
VERTEX
  8
BASE
  6
CONTINUOUS
 10
102.0
 20
-37.5
 30
0.0
 42
1.0
  0
VERTEX
  8
BASE
  6
CONTINUOUS
 10
103.0
 20
-37.5
 30
0.0
 42
1.0
  0
SEQEND
  8
BASE
  6
CONTINUOUS
  0
POLYLINE
  8
BASE
  6
CONTINUOUS
 66
     1
 10
0.0
 20
0.0
 30
0.0
 70
     1
 40
0.5
 41
0.5
  0
VERTEX
  8
BASE
  6
CONTINUOUS
 10
92.0
 20
-22.5
 30
0.0
 42
1.0
  0
VERTEX
  8
BASE
  6
CONTINUOUS
 10
93.0
 20
-22.5
 30
0.0
 42
1.0
  0
SEQEND
  8
BASE
  6
CONTINUOUS
  0
POLYLINE
  8
BASE
  6
CONTINUOUS
 66
     1
 10
0.0
 20
0.0
 30
0.0
 70
     1
 40
0.5
 41
0.5
  0
VERTEX
  8
BASE
  6
CONTINUOUS
 10
87.0
 20
-7.5
 30
0.0
 42
1.0
  0
VERTEX
  8
BASE
  6
CONTINUOUS
 10
88.0
 20
-7.5
 30
0.0
 42
1.0
  0
SEQEND
  8
BASE
  6
CONTINUOUS
  0
POLYLINE
  8
BASE
  6
CONTINUOUS
 66
     1
 10
0.0
 20
0.0
 30
0.0
 70
     1
 40
0.5
 41
0.5
  0
VERTEX
  8
BASE
  6
CONTINUOUS
 10
7.0
 20
-12.5
 30
0.0
 42
1.0
  0
VERTEX
  8
BASE
  6
CONTINUOUS
 10
8.0
 20
-12.5
 30
0.0
 42
1.0
  0
SEQEND
  8
BASE
  6
CONTINUOUS
  0
INSERT
  8
BASE
  6
CONTINUOUS
  2
BLC29
 10
136.994594
 20
-88.206539
 30
0.0
 50
180.0
  0
INSERT
  8
BASE
  6
CONTINUOUS
  2
BLC29
 10
136.994594
 20
-63.191399
 30
0.0
 50
180.0
  0
INSERT
  8
BASE
  6
CONTINUOUS
  2
BLC29
 10
136.994594
 20
-77.628476
 30
0.0
 50
180.0
  0
INSERT
  8
BASE
  6
CONTINUOUS
  2
BLC29
 10
136.994594
 20
-72.628476
 30
0.0
 50
180.0
  0
INSERT
  8
BASE
  6
CONTINUOUS
  2
BLC29
 10
136.994594
 20
-67.628476
 30
0.0
 50
180.0
  0
LINE
  8
BASE
  6
CONTINUOUS
 10
140.0
 20
-88.078088
 30
0.0
 11
125.0
 21
-88.078088
 31
0.0
  0
LINE
  8
BASE
  6
CONTINUOUS
 10
140.0
 20
-77.5
 30
0.0
 11
122.5
 21
-77.5
 31
0.0
  0
LINE
  8
BASE
  6
CONTINUOUS
 10
140.0
 20
-72.5
 30
0.0
 11
120.0
 21
-72.5
 31
0.0
  0
INSERT
  8
BASE
  6
CONTINUOUS
  2
BLC29
 10
136.994594
 20
-48.15656
 30
0.0
 50
180.0
  0
INSERT
  8
BASE
  6
CONTINUOUS
  2
BLC29
 10
136.994594
 20
-52.628476
 30
0.0
 50
180.0
  0
INSERT
  8
BASE
  6
CONTINUOUS
  2
BLC29
 10
136.994594
 20
-33.113234
 30
0.0
 50
180.0
  0
INSERT
  8
BASE
  6
CONTINUOUS
  2
BLC29
 10
136.994594
 20
-18.061427
 30
0.0
 50
180.0
  0
INSERT
  8
BASE
  6
CONTINUOUS
  2
BLC29
 10
136.994594
 20
-37.628476
 30
0.0
 50
180.0
  0
INSERT
  8
BASE
  6
CONTINUOUS
  2
BLC29
 10
136.994594
 20
-22.628476
 30
0.0
 50
180.0
  0
LINE
  8
BASE
  6
CONTINUOUS
 10
32.5
 20
-40.0
 30
0.0
 11
32.5
 21
-32.984774
 31
0.0
  0
LINE
  8
BASE
  6
CONTINUOUS
 10
30.0
 20
-40.0
 30
0.0
 11
30.0
 21
-17.933736
 31
0.0
  0
LINE
  8
BASE
  6
CONTINUOUS
 10
80.0
 20
-92.5
 30
0.0
 11
80.0
 21
-48.027581
 31
0.0
  0
LINE
  8
BASE
  6
CONTINUOUS
 10
87.5
 20
-95.0
 30
0.0
 11
87.5
 21
-7.5
 31
0.0
  0
LINE
  8
BASE
  6
CONTINUOUS
 10
90.0
 20
-95.0
 30
0.0
 11
90.0
 21
-17.933736
 31
0.0
  0
LINE
  8
BASE
  6
CONTINUOUS
 10
92.5
 20
-92.5
 30
0.0
 11
92.5
 21
-22.5
 31
0.0
  0
LINE
  8
BASE
  6
CONTINUOUS
 10
95.0
 20
-95.0
 30
0.0
 11
95.0
 21
-32.984774
 31
0.0
  0
LINE
  8
BASE
  6
CONTINUOUS
 10
102.5
 20
-95.0
 30
0.0
 11
102.5
 21
-37.5
 31
0.0
  0
LINE
  8
BASE
  6
CONTINUOUS
 10
105.0
 20
-95.0
 30
0.0
 11
105.0
 21
-48.027581
 31
0.0
  0
LINE
  8
BASE
  6
CONTINUOUS
 10
110.0
 20
-95.0
 30
0.0
 11
110.0
 21
-63.062726
 31
0.0
  0
LINE
  8
BASE
  6
CONTINUOUS
 10
117.5
 20
-95.0
 30
0.0
 11
117.5
 21
-67.5
 31
0.0
  0
LINE
  8
BASE
  6
CONTINUOUS
 10
42.5
 20
-72.5
 30
0.0
 11
42.5
 21
-48.027581
 31
0.0
  0
LINE
  8
BASE
  6
CONTINUOUS
 10
45.0
 20
-55.0
 30
0.0
 11
45.0
 21
-72.5
 31
0.0
  0
LINE
  8
BASE
  6
CONTINUOUS
 10
25.0
 20
-81.355506
 30
0.0
 11
15.0
 21
-81.355506
 31
0.0
  0
LINE
  8
BASE
  6
CONTINUOUS
 10
25.0
 20
-57.5
 30
0.0
 11
25.0
 21
-81.355506
 31
0.0
  0
LINE
  8
BASE
  6
CONTINUOUS
 10
47.5
 20
-57.5
 30
0.0
 11
25.0
 21
-57.5
 31
0.0
  0
LINE
  8
BASE
  6
CONTINUOUS
 10
47.5
 20
-60.0
 30
0.0
 11
47.5
 21
-57.5
 31
0.0
  0
LINE
  8
BASE
  6
CONTINUOUS
 10
70.0
 20
-63.062726
 30
0.0
 11
140.0
 21
-63.062726
 31
0.0
  0
LINE
  8
BASE
  6
CONTINUOUS
 10
70.0
 20
-57.5
 30
0.0
 11
70.0
 21
-63.062726
 31
0.0
  0
LINE
  8
BASE
  6
CONTINUOUS
 10
52.5
 20
-57.5
 30
0.0
 11
70.0
 21
-57.5
 31
0.0
  0
LINE
  8
BASE
  6
CONTINUOUS
 10
52.5
 20
-55.0
 30
0.0
 11
52.5
 21
-57.5
 31
0.0
  0
LINE
  8
BASE
  6
CONTINUOUS
 10
20.0
 20
-55.0
 30
0.0
 11
52.5
 21
-55.0
 31
0.0
  0
LINE
  8
BASE
  6
CONTINUOUS
 10
20.0
 20
-72.5
 30
0.0
 11
20.0
 21
-55.0
 31
0.0
  0
LINE
  8
BASE
  6
CONTINUOUS
 10
60.0
 20
-55.0
 30
0.0
 11
60.0
 21
-60.0
 31
0.0
  0
LINE
  8
BASE
  6
CONTINUOUS
 10
122.5
 20
-55.0
 30
0.0
 11
60.0
 21
-55.0
 31
0.0
  0
LINE
  8
BASE
  6
CONTINUOUS
 10
122.5
 20
-92.5
 30
0.0
 11
122.5
 21
-55.0
 31
0.0
  0
LINE
  8
BASE
  6
CONTINUOUS
 10
32.5
 20
-52.5
 30
0.0
 11
32.5
 21
-72.5
 31
0.0
  0
LINE
  8
BASE
  6
CONTINUOUS
 10
37.5
 20
-52.5
 30
0.0
 11
32.5
 21
-52.5
 31
0.0
  0
LINE
  8
BASE
  6
CONTINUOUS
 10
37.5
 20
-40.0
 30
0.0
 11
37.5
 21
-52.5
 31
0.0
  0
LINE
  8
BASE
  6
CONTINUOUS
 10
125.0
 20
-40.0
 30
0.0
 11
37.5
 21
-40.0
 31
0.0
  0
LINE
  8
BASE
  6
CONTINUOUS
 10
125.0
 20
-95.0
 30
0.0
 11
125.0
 21
-40.0
 31
0.0
  0
LINE
  8
BASE
  6
CONTINUOUS
 10
120.0
 20
-50.0
 30
0.0
 11
120.0
 21
-95.0
 31
0.0
  0
LINE
  8
BASE
  6
CONTINUOUS
 10
17.5
 20
-50.0
 30
0.0
 11
120.0
 21
-50.0
 31
0.0
  0
LINE
  8
BASE
  6
CONTINUOUS
 10
17.5
 20
-60.0
 30
0.0
 11
17.5
 21
-50.0
 31
0.0
  0
LINE
  8
BASE
  6
CONTINUOUS
 10
31.205504
 20
-42.27168
 30
0.0
 11
28.859739
 21
-43.461599
 31
0.0
  0
LINE
  8
BASE
  6
CONTINUOUS
 10
28.851697
 20
-44.261613
 30
0.0
 11
31.235157
 21
-43.073421
 31
0.0
  0
LINE
  8
BASE
  6
CONTINUOUS
 10
28.859739
 20
-40.936326
 30
0.0
 11
31.205504
 21
-42.27168
 31
0.0
  0
TEXT
  8
BASE
  6
CONTINUOUS
 10
33.2936
 20
-43.59642
 30
0.0
 40
2.5
  1
1
 11
33.2936
 21
-44.429753
 31
0.0
 73
     1
  0
LINE
  8
BASE
  6
CONTINUOUS
 10
35.0
 20
-45.0
 30
0.0
 11
27.5
 21
-45.0
 31
0.0
  0
LINE
  8
BASE
  6
CONTINUOUS
 10
35.0
 20
-40.0
 30
0.0
 11
35.0
 21
-45.0
 31
0.0
  0
LINE
  8
BASE
  6
CONTINUOUS
 10
27.5
 20
-40.0
 30
0.0
 11
35.0
 21
-40.0
 31
0.0
  0
LINE
  8
BASE
  6
CONTINUOUS
 10
27.5
 20
-45.0
 30
0.0
 11
27.5
 21
-40.0
 31
0.0
  0
LINE
  8
BASE
  6
CONTINUOUS
 10
140.0
 20
-17.933736
 30
0.0
 11
15.0
 21
-17.933736
 31
0.0
  0
LINE
  8
BASE
  6
CONTINUOUS
 10
140.0
 20
-32.984774
 30
0.0
 11
12.5
 21
-32.984774
 31
0.0
  0
LINE
  8
BASE
  6
CONTINUOUS
 10
140.0
 20
-48.027581
 30
0.0
 11
10.0
 21
-48.027581
 31
0.0
  0
LINE
  8
BASE
  6
CONTINUOUS
 10
10.0
 20
-68.944806
 30
0.0
 11
77.5
 21
-68.944806
 31
0.0
  0
LINE
  8
BASE
  6
CONTINUOUS
 10
77.5
 20
-92.5
 30
0.0
 11
77.5
 21
-68.944806
 31
0.0
  0
LINE
  8
BASE
  6
CONTINUOUS
 10
70.0
 20
-67.5
 30
0.0
 11
70.0
 21
-85.0
 31
0.0
  0
LINE
  8
BASE
  6
CONTINUOUS
 10
140.0
 20
-67.5
 30
0.0
 11
70.0
 21
-67.5
 31
0.0
  0
LINE
  8
BASE
  6
CONTINUOUS
 10
107.5
 20
-52.5
 30
0.0
 11
107.5
 21
-92.5
 31
0.0
  0
LINE
  8
BASE
  6
CONTINUOUS
 10
140.0
 20
-52.5
 30
0.0
 11
107.5
 21
-52.5
 31
0.0
  0
LINE
  8
BASE
  6
CONTINUOUS
 10
130.0
 20
-11.999187
 30
0.0
 11
130.0
 21
-81.999187
 31
0.0
  0
LINE
  8
BASE
  6
CONTINUOUS
 10
132.5
 20
-2.5
 30
0.0
 11
132.5
 21
-85.028348
 31
0.0
  0
LINE
  8
BASE
  6
CONTINUOUS
 10
25.0
 20
-2.5
 30
0.0
 11
132.5
 21
-2.5
 31
0.0
  0
LINE
  8
BASE
  6
CONTINUOUS
 10
25.0
 20
-10.0
 30
0.0
 11
25.0
 21
-11.999187
 31
0.0
  0
INSERT
  8
BASE
  6
CONTINUOUS
  2
BLC29
 10
136.994594
 20
-7.628476
 30
0.0
 50
180.0
  0
TEXT
  8
BASE
  6
CONTINUOUS
 10
70.009186
 20
-90.0
 30
0.0
 40
2.0
  1
4
  7
GREEKS
  0
LINE
  8
BASE
  6
CONTINUOUS
 10
70.0
 20
-87.5
 30
0.0
 11
70.0
 21
-85.0
 31
0.0
  0
LINE
  8
BASE
  6
CONTINUOUS
 10
70.0
 20
-92.5
 30
0.0
 11
68.285914
 21
-87.413703
 31
0.0
  0
LINE
  8
BASE
  6
CONTINUOUS
 10
70.0
 20
-95.0
 30
0.0
 11
70.0
 21
-92.5
 31
0.0
  0
LINE
  8
BASE
  6
CONTINUOUS
 10
67.5
 20
-37.5
 30
0.0
 11
140.0
 21
-37.5
 31
0.0
  0
LINE
  8
BASE
  6
CONTINUOUS
 10
67.5
 20
-95.0
 30
0.0
 11
67.5
 21
-37.5
 31
0.0
  0
LINE
  8
BASE
  6
CONTINUOUS
 10
57.5
 20
-22.5
 30
0.0
 11
140.0
 21
-22.5
 31
0.0
  0
LINE
  8
BASE
  6
CONTINUOUS
 10
57.5
 20
-72.5
 30
0.0
 11
57.5
 21
-22.5
 31
0.0
  0
LINE
  8
BASE
  6
CONTINUOUS
 10
55.0
 20
-7.5
 30
0.0
 11
140.0
 21
-7.5
 31
0.0
  0
LINE
  8
BASE
  6
CONTINUOUS
 10
55.0
 20
-60.0
 30
0.0
 11
55.0
 21
-7.5
 31
0.0
  0
LINE
  8
BASE
  6
CONTINUOUS
 10
77.5
 20
-92.5
 30
0.0
 11
77.5
 21
-93.0
 31
0.0
  0
TEXT
  8
BASE
  6
CONTINUOUS
 10
78.25176
 20
-98.544964
 30
0.0
 40
2.5
  1
&
  7
GREEKS
  0
LINE
  8
BASE
  6
CONTINUOUS
 10
122.5
 20
-100.0
 30
0.0
 11
122.5
 21
-162.5
 31
0.0
  0
LINE
  8
BASE
  6
CONTINUOUS
 10
107.5
 20
-100.0
 30
0.0
 11
107.5
 21
-162.5
 31
0.0
  0
LINE
  8
BASE
  6
CONTINUOUS
 10
92.5
 20
-100.0
 30
0.0
 11
92.5
 21
-162.5
 31
0.0
  0
LINE
  8
BASE
  6
CONTINUOUS
 10
80.0
 20
-100.0
 30
0.0
 11
80.0
 21
-162.5
 31
0.0
  0
LINE
  8
BASE
  6
CONTINUOUS
 10
57.5
 20
-85.0
 30
0.0
 11
57.5
 21
-77.5
 31
0.0
  0
LINE
  8
BASE
  6
CONTINUOUS
 10
45.0
 20
-85.0
 30
0.0
 11
45.0
 21
-77.5
 31
0.0
  0
LINE
  8
BASE
  6
CONTINUOUS
 10
32.5
 20
-85.0
 30
0.0
 11
32.5
 21
-77.5
 31
0.0
  0
TEXT
  8
BASE
  6
CONTINUOUS
 10
123.151854
 20
-98.535545
 30
0.0
 40
2.5
  1
1
 11
123.151854
 21
-99.368878
 31
0.0
 73
     1
  0
LINE
  8
BASE
  6
CONTINUOUS
 10
118.717992
 20
-95.875451
 30
0.0
 11
121.063758
 21
-97.210805
 31
0.0
  0
LINE
  8
BASE
  6
CONTINUOUS
 10
118.70995
 20
-99.200738
 30
0.0
 11
121.093411
 21
-98.012546
 31
0.0
  0
LINE
  8
BASE
  6
CONTINUOUS
 10
121.063758
 20
-97.210805
 30
0.0
 11
118.717992
 21
-98.400724
 31
0.0
  0
LINE
  8
BASE
  6
CONTINUOUS
 10
115.0
 20
-100.0
 30
0.0
 11
115.0
 21
-95.0
 31
0.0
  0
LINE
  8
BASE
  6
CONTINUOUS
 10
127.5
 20
-100.0
 30
0.0
 11
115.0
 21
-100.0
 31
0.0
  0
LINE
  8
BASE
  6
CONTINUOUS
 10
127.5
 20
-95.0
 30
0.0
 11
127.5
 21
-100.0
 31
0.0
  0
LINE
  8
BASE
  6
CONTINUOUS
 10
115.0
 20
-95.0
 30
0.0
 11
127.5
 21
-95.0
 31
0.0
  0
LINE
  8
BASE
  6
CONTINUOUS
 10
122.5
 20
-95.0
 30
0.0
 11
122.5
 21
-92.5
 31
0.0
  0
LINE
  8
BASE
  6
CONTINUOUS
 10
107.5
 20
-95.0
 30
0.0
 11
107.5
 21
-92.5
 31
0.0
  0
LINE
  8
BASE
  6
CONTINUOUS
 10
100.0
 20
-95.0
 30
0.0
 11
112.5
 21
-95.0
 31
0.0
  0
LINE
  8
BASE
  6
CONTINUOUS
 10
112.5
 20
-95.0
 30
0.0
 11
112.5
 21
-100.0
 31
0.0
  0
LINE
  8
BASE
  6
CONTINUOUS
 10
112.5
 20
-100.0
 30
0.0
 11
100.0
 21
-100.0
 31
0.0
  0
LINE
  8
BASE
  6
CONTINUOUS
 10
100.0
 20
-100.0
 30
0.0
 11
100.0
 21
-95.0
 31
0.0
  0
LINE
  8
BASE
  6
CONTINUOUS
 10
106.063758
 20
-97.210805
 30
0.0
 11
103.717992
 21
-98.400724
 31
0.0
  0
LINE
  8
BASE
  6
CONTINUOUS
 10
103.70995
 20
-99.200738
 30
0.0
 11
106.093411
 21
-98.012546
 31
0.0
  0
LINE
  8
BASE
  6
CONTINUOUS
 10
103.717992
 20
-95.875451
 30
0.0
 11
106.063758
 21
-97.210805
 31
0.0
  0
TEXT
  8
BASE
  6
CONTINUOUS
 10
108.151854
 20
-98.535545
 30
0.0
 40
2.5
  1
1
 11
108.151854
 21
-99.368878
 31
0.0
 73
     1
  0
TEXT
  8
BASE
  6
CONTINUOUS
 10
93.151854
 20
-98.535545
 30
0.0
 40
2.5
  1
1
 11
93.151854
 21
-99.368878
 31
0.0
 73
     1
  0
LINE
  8
BASE
  6
CONTINUOUS
 10
88.717992
 20
-95.875451
 30
0.0
 11
91.063758
 21
-97.210805
 31
0.0
  0
LINE
  8
BASE
  6
CONTINUOUS
 10
88.70995
 20
-99.200738
 30
0.0
 11
91.093411
 21
-98.012546
 31
0.0
  0
LINE
  8
BASE
  6
CONTINUOUS
 10
91.063758
 20
-97.210805
 30
0.0
 11
88.717992
 21
-98.400724
 31
0.0
  0
LINE
  8
BASE
  6
CONTINUOUS
 10
85.0
 20
-100.0
 30
0.0
 11
85.0
 21
-95.0
 31
0.0
  0
LINE
  8
BASE
  6
CONTINUOUS
 10
97.5
 20
-100.0
 30
0.0
 11
85.0
 21
-100.0
 31
0.0
  0
LINE
  8
BASE
  6
CONTINUOUS
 10
97.5
 20
-95.0
 30
0.0
 11
97.5
 21
-100.0
 31
0.0
  0
LINE
  8
BASE
  6
CONTINUOUS
 10
85.0
 20
-95.0
 30
0.0
 11
97.5
 21
-95.0
 31
0.0
  0
LINE
  8
BASE
  6
CONTINUOUS
 10
92.5
 20
-95.0
 30
0.0
 11
92.5
 21
-92.5
 31
0.0
  0
LINE
  8
BASE
  6
CONTINUOUS
 10
75.0
 20
-95.0
 30
0.0
 11
82.5
 21
-95.0
 31
0.0
  0
LINE
  8
BASE
  6
CONTINUOUS
 10
75.0
 20
-100.0
 30
0.0
 11
75.0
 21
-95.0
 31
0.0
  0
LINE
  8
BASE
  6
CONTINUOUS
 10
82.5
 20
-100.0
 30
0.0
 11
75.0
 21
-100.0
 31
0.0
  0
LINE
  8
BASE
  6
CONTINUOUS
 10
82.5
 20
-95.0
 30
0.0
 11
82.5
 21
-100.0
 31
0.0
  0
LINE
  8
BASE
  6
CONTINUOUS
 10
77.5
 20
-100.0
 30
0.0
 11
77.5
 21
-100.000025
 31
0.0
  0
LINE
  8
BASE
  6
CONTINUOUS
 10
80.0
 20
-92.5
 30
0.0
 11
80.0
 21
-95.0
 31
0.0
  0
LINE
  8
BASE
  6
CONTINUOUS
 10
17.5
 20
-62.5
 30
0.0
 11
17.5
 21
-60.0
 31
0.0
  0
LINE
  8
BASE
  6
CONTINUOUS
 10
17.5
 20
-67.5
 30
0.0
 11
15.785914
 21
-62.413703
 31
0.0
  0
LINE
  8
BASE
  6
CONTINUOUS
 10
17.5
 20
-72.5
 30
0.0
 11
17.5
 21
-67.5
 31
0.0
  0
TEXT
  8
BASE
  6
CONTINUOUS
 10
54.793047
 20
-65.0
 30
0.0
 40
2.0
  1
1
  7
ROMANS
  0
TEXT
  8
BASE
  6
CONTINUOUS
 10
47.11958
 20
-65.0
 30
0.0
 40
2.0
  1
8
  7
ROMANS
  0
TEXT
  8
BASE
  6
CONTINUOUS
 10
34.561751
 20
-65.0
 30
0.0
 40
2.0
  1
7
  7
ROMANS
  0
TEXT
  8
BASE
  6
CONTINUOUS
 10
29.748907
 20
-65.0
 30
0.0
 40
2.0
  1
2
  7
ROMANS
  0
TEXT
  8
BASE
  6
CONTINUOUS
 10
17.130215
 20
-65.0
 30
0.0
 40
2.0
  1
6
  7
ROMANS
  0
TEXT
  8
BASE
  6
CONTINUOUS
 10
9.411099
 20
-65.0
 30
0.0
 40
2.0
  1
3
  7
ROMANS
  0
LINE
  8
BASE
  6
CONTINUOUS
 10
30.0
 20
-62.5
 30
0.0
 11
30.0
 21
-45.0
 31
0.0
  0
LINE
  8
BASE
  6
CONTINUOUS
 10
30.0
 20
-67.5
 30
0.0
 11
28.285914
 21
-62.413703
 31
0.0
  0
LINE
  8
BASE
  6
CONTINUOUS
 10
30.0
 20
-72.5
 30
0.0
 11
30.0
 21
-67.5
 31
0.0
  0
LINE
  8
BASE
  6
CONTINUOUS
 10
35.0
 20
-72.5
 30
0.0
 11
35.0
 21
-67.5
 31
0.0
  0
LINE
  8
BASE
  6
CONTINUOUS
 10
35.0
 20
-67.5
 30
0.0
 11
33.285914
 21
-62.413703
 31
0.0
  0
LINE
  8
BASE
  6
CONTINUOUS
 10
35.0
 20
-62.5
 30
0.0
 11
35.0
 21
-57.5
 31
0.0
  0
LINE
  8
BASE
  6
CONTINUOUS
 10
47.5
 20
-62.5
 30
0.0
 11
47.5
 21
-60.0
 31
0.0
  0
LINE
  8
BASE
  6
CONTINUOUS
 10
47.5
 20
-67.5
 30
0.0
 11
45.785914
 21
-62.413703
 31
0.0
  0
LINE
  8
BASE
  6
CONTINUOUS
 10
47.5
 20
-72.5
 30
0.0
 11
47.5
 21
-67.5
 31
0.0
  0
LINE
  8
BASE
  6
CONTINUOUS
 10
55.0
 20
-62.5
 30
0.0
 11
55.0
 21
-60.0
 31
0.0
  0
LINE
  8
BASE
  6
CONTINUOUS
 10
55.0
 20
-67.5
 30
0.0
 11
53.285914
 21
-62.413703
 31
0.0
  0
LINE
  8
BASE
  6
CONTINUOUS
 10
55.0
 20
-72.5
 30
0.0
 11
55.0
 21
-67.5
 31
0.0
  0
LINE
  8
BASE
  6
CONTINUOUS
 10
60.0
 20
-72.5
 30
0.0
 11
60.0
 21
-67.5
 31
0.0
  0
LINE
  8
BASE
  6
CONTINUOUS
 10
60.0
 20
-67.5
 30
0.0
 11
58.285914
 21
-62.413703
 31
0.0
  0
LINE
  8
BASE
  6
CONTINUOUS
 10
60.0
 20
-62.5
 30
0.0
 11
60.0
 21
-60.0
 31
0.0
  0
TEXT
  8
BASE
  6
CONTINUOUS
 10
59.664066
 20
-65.004104
 30
0.0
 40
2.0
  1
5
  7
ROMANS
  0
TEXT
  8
BASE
  6
CONTINUOUS
 10
58.795492
 20
-76.035545
 30
0.0
 40
2.5
  1
1
 11
58.795492
 21
-76.868878
 31
0.0
 73
     1
  0
LINE
  8
BASE
  6
CONTINUOUS
 10
54.36163
 20
-73.375451
 30
0.0
 11
56.707396
 21
-74.710805
 31
0.0
  0
LINE
  8
BASE
  6
CONTINUOUS
 10
54.353589
 20
-76.700738
 30
0.0
 11
56.737049
 21
-75.512546
 31
0.0
  0
LINE
  8
BASE
  6
CONTINUOUS
 10
56.707396
 20
-74.710805
 30
0.0
 11
54.36163
 21
-75.900724
 31
0.0
  0
LINE
  8
BASE
  6
CONTINUOUS
 10
52.5
 20
-77.5
 30
0.0
 11
52.5
 21
-72.5
 31
0.0
  0
LINE
  8
BASE
  6
CONTINUOUS
 10
62.5
 20
-77.5
 30
0.0
 11
52.5
 21
-77.5
 31
0.0
  0
LINE
  8
BASE
  6
CONTINUOUS
 10
62.5
 20
-72.5
 30
0.0
 11
62.5
 21
-77.5
 31
0.0
  0
LINE
  8
BASE
  6
CONTINUOUS
 10
52.5
 20
-72.5
 30
0.0
 11
62.5
 21
-72.5
 31
0.0
  0
LINE
  8
BASE
  6
CONTINUOUS
 10
40.0
 20
-72.5
 30
0.0
 11
50.0
 21
-72.5
 31
0.0
  0
LINE
  8
BASE
  6
CONTINUOUS
 10
50.0
 20
-72.5
 30
0.0
 11
50.0
 21
-77.5
 31
0.0
  0
LINE
  8
BASE
  6
CONTINUOUS
 10
50.0
 20
-77.5
 30
0.0
 11
40.0
 21
-77.5
 31
0.0
  0
LINE
  8
BASE
  6
CONTINUOUS
 10
40.0
 20
-77.5
 30
0.0
 11
40.0
 21
-72.5
 31
0.0
  0
LINE
  8
BASE
  6
CONTINUOUS
 10
44.207396
 20
-74.710805
 30
0.0
 11
41.86163
 21
-75.900724
 31
0.0
  0
LINE
  8
BASE
  6
CONTINUOUS
 10
41.853589
 20
-76.700738
 30
0.0
 11
44.237049
 21
-75.512546
 31
0.0
  0
LINE
  8
BASE
  6
CONTINUOUS
 10
41.86163
 20
-73.375451
 30
0.0
 11
44.207396
 21
-74.710805
 31
0.0
  0
TEXT
  8
BASE
  6
CONTINUOUS
 10
46.295492
 20
-76.035545
 30
0.0
 40
2.5
  1
1
 11
46.295492
 21
-76.868878
 31
0.0
 73
     1
  0
TEXT
  8
BASE
  6
CONTINUOUS
 10
33.795492
 20
-76.035545
 30
0.0
 40
2.5
  1
1
 11
33.795492
 21
-76.868878
 31
0.0
 73
     1
  0
LINE
  8
BASE
  6
CONTINUOUS
 10
29.36163
 20
-73.375451
 30
0.0
 11
31.707396
 21
-74.710805
 31
0.0
  0
LINE
  8
BASE
  6
CONTINUOUS
 10
29.353589
 20
-76.700738
 30
0.0
 11
31.737049
 21
-75.512546
 31
0.0
  0
LINE
  8
BASE
  6
CONTINUOUS
 10
31.707396
 20
-74.710805
 30
0.0
 11
29.36163
 21
-75.900724
 31
0.0
  0
LINE
  8
BASE
  6
CONTINUOUS
 10
27.5
 20
-77.5
 30
0.0
 11
27.5
 21
-72.5
 31
0.0
  0
LINE
  8
BASE
  6
CONTINUOUS
 10
37.5
 20
-77.5
 30
0.0
 11
27.5
 21
-77.5
 31
0.0
  0
LINE
  8
BASE
  6
CONTINUOUS
 10
37.5
 20
-72.5
 30
0.0
 11
37.5
 21
-77.5
 31
0.0
  0
LINE
  8
BASE
  6
CONTINUOUS
 10
27.5
 20
-72.5
 30
0.0
 11
37.5
 21
-72.5
 31
0.0
  0
LINE
  8
BASE
  6
CONTINUOUS
 10
7.5
 20
-72.5
 30
0.0
 11
7.5
 21
-77.5
 31
0.0
  0
LINE
  8
BASE
  6
CONTINUOUS
 10
7.5
 20
-77.5
 30
0.0
 11
22.5
 21
-77.5
 31
0.0
  0
LINE
  8
BASE
  6
CONTINUOUS
 10
12.5
 20
-72.5
 30
0.0
 11
12.5
 21
-32.984774
 31
0.0
  0
LINE
  8
BASE
  6
CONTINUOUS
 10
22.5
 20
-72.5
 30
0.0
 11
22.5
 21
-77.5
 31
0.0
  0
LINE
  8
BASE
  6
CONTINUOUS
 10
22.5
 20
-72.5
 30
0.0
 11
7.5
 21
-72.5
 31
0.0
  0
LINE
  8
BASE
  6
CONTINUOUS
 10
15.0
 20
-72.5
 30
0.0
 11
15.0
 21
-17.933736
 31
0.0
  0
LINE
  8
BASE
  6
CONTINUOUS
 10
15.0
 20
-77.5
 30
0.0
 11
15.0
 21
-82.5
 31
0.0
  0
LINE
  8
BASE
  6
CONTINUOUS
 10
20.0
 20
-70.0
 30
0.0
 11
20.0
 21
-67.5
 31
0.0
  0
LINE
  8
BASE
  6
CONTINUOUS
 10
14.207396
 20
-74.710805
 30
0.0
 11
11.86163
 21
-75.900724
 31
0.0
  0
LINE
  8
BASE
  6
CONTINUOUS
 10
11.853589
 20
-76.700738
 30
0.0
 11
14.237049
 21
-75.512546
 31
0.0
  0
LINE
  8
BASE
  6
CONTINUOUS
 10
11.86163
 20
-73.375451
 30
0.0
 11
14.207396
 21
-74.710805
 31
0.0
  0
TEXT
  8
BASE
  6
CONTINUOUS
 10
16.295492
 20
-76.035545
 30
0.0
 40
2.5
  1
1
 11
16.295492
 21
-76.868878
 31
0.0
 73
     1
  0
LINE
  8
BASE
  6
CONTINUOUS
 10
10.0
 20
-72.5
 30
0.0
 11
10.0
 21
-67.5
 31
0.0
  0
LINE
  8
BASE
  6
CONTINUOUS
 10
10.0
 20
-67.5
 30
0.0
 11
8.285914
 21
-62.413703
 31
0.0
  0
LINE
  8
BASE
  6
CONTINUOUS
 10
10.0
 20
-62.5
 30
0.0
 11
10.0
 21
-48.027581
 31
0.0
  0
TEXT
  8
BASE
  6
CONTINUOUS
 10
6.636438
 20
-65.7346
 30
0.0
 40
2.0
  1
SGR
 50
90.0
  7
ROMANS
  0
LINE
  8
BASE
  6
HIDDEN
 10
170.450615
 20
-90.0
 30
0.0
 11
170.450615
 21
-162.5
 31
0.0
  0
LINE
  8
BASE
  6
HIDDEN
 10
140.0
 20
-90.0
 30
0.0
 11
140.0
 21
-162.5
 31
0.0
  0
LINE
  8
BASE
  6
CONTINUOUS
 10
169.054496
 20
-81.478395
 30
0.0
 11
167.056619
 21
-80.341081
 31
0.0
  0
LINE
  8
BASE
  6
CONTINUOUS
 10
167.056619
 20
-80.341081
 30
0.0
 11
169.054496
 21
-79.327632
 31
0.0
  0
LINE
  8
BASE
  6
CONTINUOUS
 10
167.073389
 20
-77.345811
 30
0.0
 11
169.071266
 21
-78.483125
 31
0.0
  0
LINE
  8
BASE
  6
CONTINUOUS
 10
169.071266
 20
-78.483125
 30
0.0
 11
167.073389
 21
-79.496574
 31
0.0
  0
TEXT
  8
BASE
  6
CONTINUOUS
 10
162.079411
 20
-80.565769
 30
0.0
 40
2.5
  1
3U
  7
GREEKS
  0
TEXT
  8
BASE
  6
CONTINUOUS
 10
165.001359
 20
-69.341351
 30
0.0
 40
2.5
  1
U3
  7
ROMANS
  0
LINE
  8
BASE
  6
CONTINUOUS
 10
158.834995
 20
-87.570265
 30
0.0
 11
158.834995
 21
-89.358396
 31
0.0
  0
LINE
  8
BASE
  6
CONTINUOUS
 10
153.435476
 20
-89.583146
 30
0.0
 11
156.311586
 21
-86.754587
 31
0.0
  0
LINE
  8
BASE
  6
CONTINUOUS
 10
155.880883
 20
-86.217381
 30
0.0
 11
156.78156
 21
-87.34113
 31
0.0
  0
LINE
  8
BASE
  6
CONTINUOUS
 10
151.051331
 20
-88.415543
 30
0.0
 11
158.839536
 21
-88.415543
 31
0.0
  0
LINE
  8
BASE
  6
CONTINUOUS
 10
151.020299
 20
-87.570265
 30
0.0
 11
151.020299
 21
-89.358396
 31
0.0
  0
TEXT
  8
BASE
  6
CONTINUOUS
 10
141.215896
 20
-89.435324
 30
0.0
 40
2.5
  1
U
  7
GREEKS
  0
LINE
  8
BASE
  6
CONTINUOUS
 10
146.562044
 20
-89.480568
 30
0.0
 11
144.216279
 21
-88.145214
 31
0.0
  0
LINE
  8
BASE
  6
CONTINUOUS
 10
144.216279
 20
-88.145214
 30
0.0
 11
146.562044
 21
-86.955295
 31
0.0
  0
CIRCLE
  8
BASE
  6
CONTINUOUS
 10
139.012659
 20
-85.034651
 30
0.0
 40
1.0
  0
CIRCLE
  8
BASE
  6
CONTINUOUS
 10
139.012659
 20
-82.005491
 30
0.0
 40
1.0
  0
LINE
  8
BASE
  6
CONTINUOUS
 10
138.01273
 20
-81.999187
 30
0.0
 11
130.0
 21
-81.999187
 31
0.0
  0
LINE
  8
BASE
  6
CONTINUOUS
 10
138.01273
 20
-85.028348
 30
0.0
 11
132.5
 21
-85.028348
 31
0.0
  0
LINE
  8
BASE
  6
CONTINUOUS
 10
149.900936
 20
-82.098905
 30
0.0
 11
152.400936
 21
-82.098905
 31
0.0
  0
LINE
  8
BASE
  6
CONTINUOUS
 10
149.900936
 20
-82.098905
 30
0.0
 11
147.676489
 21
-82.659547
 31
0.0
  0
LINE
  8
BASE
  6
CONTINUOUS
 10
144.900936
 20
-82.098905
 30
0.0
 11
147.400936
 21
-82.098905
 31
0.0
  0
TEXT
  8
BASE
  6
HIDDEN
 10
141.080478
 20
-82.832153
 30
0.0
 40
1.5
  1
EN
  0
TEXT
  8
BASE
  6
HIDDEN
 10
141.080478
 20
-85.773193
 30
0.0
 40
1.5
  1
EN
  0
LINE
  8
BASE
  6
CONTINUOUS
 10
144.900936
 20
-85.039945
 30
0.0
 11
147.400936
 21
-85.039945
 31
0.0
  0
LINE
  8
BASE
  6
CONTINUOUS
 10
149.900936
 20
-85.039945
 30
0.0
 11
147.676489
 21
-85.600587
 31
0.0
  0
LINE
  8
BASE
  6
CONTINUOUS
 10
149.900936
 20
-85.039945
 30
0.0
 11
152.400936
 21
-85.039945
 31
0.0
  0
LINE
  8
BASE
  6
CONTINUOUS
 10
144.216279
 20
-77.592719
 30
0.0
 11
146.562044
 21
-76.4028
 31
0.0
  0
LINE
  8
BASE
  6
CONTINUOUS
 10
146.562044
 20
-78.928073
 30
0.0
 11
144.216279
 21
-77.592719
 31
0.0
  0
TEXT
  8
BASE
  6
CONTINUOUS
 10
141.215896
 20
-78.882829
 30
0.0
 40
2.5
  1
U
  7
GREEKS
  0
LINE
  8
BASE
  6
HIDDEN
 10
140.0
 20
-80.0
 30
0.0
 11
160.0
 21
-80.0
 31
0.0
  0
TEXT
  8
BASE
  6
CONTINUOUS
 10
141.215896
 20
-74.157338
 30
0.0
 40
2.5
  1
U
  7
GREEKS
  0
LINE
  8
BASE
  6
CONTINUOUS
 10
144.217066
 20
-71.529803
 30
0.0
 11
146.562832
 21
-72.865157
 31
0.0
  0
LINE
  8
BASE
  6
CONTINUOUS
 10
146.562832
 20
-72.865157
 30
0.0
 11
144.217066
 21
-74.055076
 31
0.0
  0
LINE
  8
BASE
  6
HIDDEN
 10
140.0
 20
-75.0
 30
0.0
 11
160.0
 21
-75.0
 31
0.0
  0
LINE
  8
BASE
  6
CONTINUOUS
 10
146.562832
 20
-67.930378
 30
0.0
 11
144.217066
 21
-69.120297
 31
0.0
  0
LINE
  8
BASE
  6
CONTINUOUS
 10
144.217066
 20
-66.595024
 30
0.0
 11
146.562832
 21
-67.930378
 31
0.0
  0
TEXT
  8
BASE
  6
CONTINUOUS
 10
141.215896
 20
-69.222559
 30
0.0
 40
2.5
  1
U
  7
GREEKS
  0
LINE
  8
BASE
  6
HIDDEN
 10
140.0
 20
-70.0
 30
0.0
 11
160.0
 21
-70.0
 31
0.0
  0
LINE
  8
BASE
  6
CONTINUOUS
 10
158.834541
 20
-72.002042
 30
0.0
 11
158.834541
 21
-73.790173
 31
0.0
  0
LINE
  8
BASE
  6
CONTINUOUS
 10
153.435021
 20
-74.014923
 30
0.0
 11
156.311132
 21
-71.186365
 31
0.0
  0
ARC
  8
BASE
  6
HIDDEN
 10
157.745745
 20
-68.918776
 30
0.0
 40
4.998196
 50
206.402922
 51
282.21115
  0
LINE
  8
BASE
  6
CONTINUOUS
 10
155.880429
 20
-70.649158
 30
0.0
 11
156.781105
 21
-71.772907
 31
0.0
  0
LINE
  8
BASE
  6
CONTINUOUS
 10
151.050877
 20
-72.847321
 30
0.0
 11
158.839082
 21
-72.847321
 31
0.0
  0
LINE
  8
BASE
  6
CONTINUOUS
 10
151.019845
 20
-72.002042
 30
0.0
 11
151.019845
 21
-73.790173
 31
0.0
  0
TEXT
  8
BASE
  6
CONTINUOUS
 10
165.0
 20
-39.224414
 30
0.0
 40
2.5
  1
U2
  7
ROMANS
  0
LINE
  8
BASE
  6
CONTINUOUS
 10
151.020299
 20
-62.510842
 30
0.0
 11
151.020299
 21
-64.298974
 31
0.0
  0
LINE
  8
BASE
  6
CONTINUOUS
 10
151.051331
 20
-63.356121
 30
0.0
 11
158.839536
 21
-63.356121
 31
0.0
  0
LINE
  8
BASE
  6
CONTINUOUS
 10
155.880883
 20
-61.157958
 30
0.0
 11
156.78156
 21
-62.281707
 31
0.0
  0
LINE
  8
BASE
  6
CONTINUOUS
 10
153.435476
 20
-64.523724
 30
0.0
 11
156.311586
 21
-61.695165
 31
0.0
  0
LINE
  8
BASE
  6
CONTINUOUS
 10
158.834995
 20
-62.510842
 30
0.0
 11
158.834995
 21
-64.298974
 31
0.0
  0
TEXT
  8
BASE
  6
CONTINUOUS
 10
141.215896
 20
-64.287781
 30
0.0
 40
2.5
  1
U
  7
GREEKS
  0
LINE
  8
BASE
  6
CONTINUOUS
 10
145.829204
 20
-61.979685
 30
0.0
 11
148.174969
 21
-63.315038
 31
0.0
  0
LINE
  8
BASE
  6
CONTINUOUS
 10
148.174969
 20
-63.315038
 30
0.0
 11
145.829204
 21
-64.504958
 31
0.0
  0
LINE
  8
BASE
  6
CONTINUOUS
 10
147.499415
 20
-61.979685
 30
0.0
 11
149.845181
 21
-63.315038
 31
0.0
  0
LINE
  8
BASE
  6
CONTINUOUS
 10
149.845181
 20
-63.315038
 30
0.0
 11
147.499415
 21
-64.504958
 31
0.0
  0
CIRCLE
  8
BASE
  6
CONTINUOUS
 10
139.012659
 20
-57.005491
 30
0.0
 40
1.0
  0
LINE
  8
BASE
  6
CONTINUOUS
 10
138.01273
 20
-56.999187
 30
0.0
 11
130.0
 21
-56.999187
 31
0.0
  0
LINE
  8
BASE
  6
CONTINUOUS
 10
138.01273
 20
-60.028348
 30
0.0
 11
132.5
 21
-60.028348
 31
0.0
  0
CIRCLE
  8
BASE
  6
CONTINUOUS
 10
139.012659
 20
-60.034651
 30
0.0
 40
1.0
  0
LINE
  8
BASE
  6
CONTINUOUS
 10
149.900936
 20
-60.039945
 30
0.0
 11
152.400936
 21
-60.039945
 31
0.0
  0
LINE
  8
BASE
  6
CONTINUOUS
 10
149.900936
 20
-60.039945
 30
0.0
 11
147.676489
 21
-60.600587
 31
0.0
  0
LINE
  8
BASE
  6
CONTINUOUS
 10
144.900936
 20
-60.039945
 30
0.0
 11
147.400936
 21
-60.039945
 31
0.0
  0
TEXT
  8
BASE
  6
HIDDEN
 10
141.080478
 20
-60.773193
 30
0.0
 40
1.5
  1
EN
  0
TEXT
  8
BASE
  6
HIDDEN
 10
141.080478
 20
-57.832153
 30
0.0
 40
1.5
  1
EN
  0
LINE
  8
BASE
  6
CONTINUOUS
 10
144.900936
 20
-57.098905
 30
0.0
 11
147.400936
 21
-57.098905
 31
0.0
  0
LINE
  8
BASE
  6
CONTINUOUS
 10
149.900936
 20
-57.098905
 30
0.0
 11
147.676489
 21
-57.659547
 31
0.0
  0
LINE
  8
BASE
  6
CONTINUOUS
 10
149.900936
 20
-57.098905
 30
0.0
 11
152.400936
 21
-57.098905
 31
0.0
  0
LINE
  8
BASE
  6
CONTINUOUS
 10
149.845181
 20
-52.773558
 30
0.0
 11
147.499415
 21
-53.963477
 31
0.0
  0
LINE
  8
BASE
  6
CONTINUOUS
 10
147.499415
 20
-51.438205
 30
0.0
 11
149.845181
 21
-52.773558
 31
0.0
  0
LINE
  8
BASE
  6
CONTINUOUS
 10
148.174969
 20
-52.773558
 30
0.0
 11
145.829204
 21
-53.963477
 31
0.0
  0
LINE
  8
BASE
  6
CONTINUOUS
 10
145.829204
 20
-51.438205
 30
0.0
 11
148.174969
 21
-52.773558
 31
0.0
  0
TEXT
  8
BASE
  6
CONTINUOUS
 10
141.215896
 20
-53.746301
 30
0.0
 40
2.5
  1
U
  7
GREEKS
  0
LINE
  8
BASE
  6
CONTINUOUS
 10
158.834995
 20
-47.409098
 30
0.0
 11
158.834995
 21
-49.19723
 31
0.0
  0
LINE
  8
BASE
  6
CONTINUOUS
 10
153.435476
 20
-49.421979
 30
0.0
 11
156.311586
 21
-46.593421
 31
0.0
  0
LINE
  8
BASE
  6
CONTINUOUS
 10
155.880883
 20
-46.056214
 30
0.0
 11
156.78156
 21
-47.179963
 31
0.0
  0
LINE
  8
BASE
  6
CONTINUOUS
 10
151.051331
 20
-48.254377
 30
0.0
 11
158.839536
 21
-48.254377
 31
0.0
  0
LINE
  8
BASE
  6
CONTINUOUS
 10
151.020299
 20
-47.409098
 30
0.0
 11
151.020299
 21
-49.19723
 31
0.0
  0
LINE
  8
BASE
  6
CONTINUOUS
 10
146.180599
 20
-46.731701
 30
0.0
 11
148.526365
 21
-48.067055
 31
0.0
  0
LINE
  8
BASE
  6
CONTINUOUS
 10
148.526365
 20
-48.067055
 30
0.0
 11
146.180599
 21
-49.256974
 31
0.0
  0
TEXT
  8
BASE
  6
CONTINUOUS
 10
141.215896
 20
-49.285173
 30
0.0
 40
2.5
  1
U
  7
GREEKS
  0
CIRCLE
  8
BASE
  6
CONTINUOUS
 10
139.012659
 20
-45.034651
 30
0.0
 40
1.0
  0
CIRCLE
  8
BASE
  6
CONTINUOUS
 10
139.012659
 20
-42.005491
 30
0.0
 40
1.0
  0
LINE
  8
BASE
  6
CONTINUOUS
 10
138.01273
 20
-41.999187
 30
0.0
 11
130.0
 21
-41.999187
 31
0.0
  0
LINE
  8
BASE
  6
CONTINUOUS
 10
138.01273
 20
-45.028348
 30
0.0
 11
132.5
 21
-45.028348
 31
0.0
  0
LINE
  8
BASE
  6
CONTINUOUS
 10
149.900936
 20
-42.098905
 30
0.0
 11
152.400936
 21
-42.098905
 31
0.0
  0
LINE
  8
BASE
  6
CONTINUOUS
 10
149.900936
 20
-42.098905
 30
0.0
 11
147.676489
 21
-42.659547
 31
0.0
  0
LINE
  8
BASE
  6
CONTINUOUS
 10
144.900936
 20
-42.098905
 30
0.0
 11
147.400936
 21
-42.098905
 31
0.0
  0
TEXT
  8
BASE
  6
HIDDEN
 10
141.080478
 20
-42.832153
 30
0.0
 40
1.5
  1
EN
  0
TEXT
  8
BASE
  6
HIDDEN
 10
141.080478
 20
-45.773193
 30
0.0
 40
1.5
  1
EN
  0
LINE
  8
BASE
  6
CONTINUOUS
 10
144.900936
 20
-45.039945
 30
0.0
 11
147.400936
 21
-45.039945
 31
0.0
  0
LINE
  8
BASE
  6
CONTINUOUS
 10
149.900936
 20
-45.039945
 30
0.0
 11
147.676489
 21
-45.600587
 31
0.0
  0
LINE
  8
BASE
  6
CONTINUOUS
 10
149.900936
 20
-45.039945
 30
0.0
 11
152.400936
 21
-45.039945
 31
0.0
  0
LINE
  8
BASE
  6
CONTINUOUS
 10
140.0
 20
-35.0
 30
0.0
 11
170.450615
 21
-35.0
 31
0.0
  0
LINE
  8
BASE
  6
CONTINUOUS
 10
138.01273
 20
-30.028348
 30
0.0
 11
132.5
 21
-30.028348
 31
0.0
  0
LINE
  8
BASE
  6
CONTINUOUS
 10
138.01273
 20
-26.999187
 30
0.0
 11
130.0
 21
-26.999187
 31
0.0
  0
CIRCLE
  8
BASE
  6
CONTINUOUS
 10
139.012659
 20
-27.005491
 30
0.0
 40
1.0
  0
CIRCLE
  8
BASE
  6
CONTINUOUS
 10
139.012659
 20
-30.034651
 30
0.0
 40
1.0
  0
LINE
  8
BASE
  6
CONTINUOUS
 10
149.900936
 20
-30.039945
 30
0.0
 11
152.400936
 21
-30.039945
 31
0.0
  0
LINE
  8
BASE
  6
CONTINUOUS
 10
149.900936
 20
-30.039945
 30
0.0
 11
147.676489
 21
-30.600587
 31
0.0
  0
LINE
  8
BASE
  6
CONTINUOUS
 10
144.900936
 20
-30.039945
 30
0.0
 11
147.400936
 21
-30.039945
 31
0.0
  0
TEXT
  8
BASE
  6
HIDDEN
 10
141.080478
 20
-30.773193
 30
0.0
 40
1.5
  1
EN
  0
TEXT
  8
BASE
  6
HIDDEN
 10
141.080478
 20
-27.832153
 30
0.0
 40
1.5
  1
EN
  0
LINE
  8
BASE
  6
CONTINUOUS
 10
144.900936
 20
-27.098905
 30
0.0
 11
147.400936
 21
-27.098905
 31
0.0
  0
LINE
  8
BASE
  6
CONTINUOUS
 10
149.900936
 20
-27.098905
 30
0.0
 11
147.676489
 21
-27.659547
 31
0.0
  0
LINE
  8
BASE
  6
CONTINUOUS
 10
149.900936
 20
-27.098905
 30
0.0
 11
152.400936
 21
-27.098905
 31
0.0
  0
LINE
  8
BASE
  6
CONTINUOUS
 10
138.01273
 20
-15.028348
 30
0.0
 11
132.5
 21
-15.028348
 31
0.0
  0
CIRCLE
  8
BASE
  6
CONTINUOUS
 10
139.012659
 20
-15.034651
 30
0.0
 40
1.0
  0
LINE
  8
BASE
  6
CONTINUOUS
 10
149.900936
 20
-12.098905
 30
0.0
 11
152.400936
 21
-12.098905
 31
0.0
  0
LINE
  8
BASE
  6
CONTINUOUS
 10
149.900936
 20
-12.098905
 30
0.0
 11
147.676489
 21
-12.659547
 31
0.0
  0
LINE
  8
BASE
  6
CONTINUOUS
 10
144.900936
 20
-12.098905
 30
0.0
 11
147.400936
 21
-12.098905
 31
0.0
  0
TEXT
  8
BASE
  6
HIDDEN
 10
141.080478
 20
-12.832153
 30
0.0
 40
1.5
  1
EN
  0
LINE
  8
BASE
  6
CONTINUOUS
 10
7.5
 20
-5.0
 30
0.0
 11
7.5
 21
-12.5
 31
0.0
  0
LINE
  8
BASE
  6
CONTINUOUS
 10
7.5
 20
-12.5
 30
0.0
 11
0.0
 21
-12.5
 31
0.0
  0
TEXT
  8
BASE
  6
CONTINUOUS
 10
163.537884
 20
-51.357008
 30
0.0
 40
2.5
  1
U
  7
GREEKS
  0
TEXT
  8
BASE
  6
CONTINUOUS
 10
141.215896
 20
-38.875874
 30
0.0
 40
2.5
  1
U
  7
GREEKS
  0
LINE
  8
BASE
  6
CONTINUOUS
 10
67.5
 20
-100.0
 30
0.0
 11
67.5
 21
-100.000025
 31
0.0
  0
LINE
  8
BASE
  6
CONTINUOUS
 10
72.5
 20
-95.0
 30
0.0
 11
72.5
 21
-100.0
 31
0.0
  0
LINE
  8
BASE
  6
CONTINUOUS
 10
72.5
 20
-100.0
 30
0.0
 11
65.0
 21
-100.0
 31
0.0
  0
LINE
  8
BASE
  6
CONTINUOUS
 10
65.0
 20
-100.0
 30
0.0
 11
65.0
 21
-95.0
 31
0.0
  0
LINE
  8
BASE
  6
CONTINUOUS
 10
65.0
 20
-95.0
 30
0.0
 11
72.5
 21
-95.0
 31
0.0
  0
TEXT
  8
BASE
  6
CONTINUOUS
 10
70.590828
 20
-98.535545
 30
0.0
 40
2.5
  1
1
 11
70.590828
 21
-99.368878
 31
0.0
 73
     1
  0
LINE
  8
BASE
  6
CONTINUOUS
 10
66.156967
 20
-95.875451
 30
0.0
 11
68.502732
 21
-97.210805
 31
0.0
  0
LINE
  8
BASE
  6
CONTINUOUS
 10
68.502732
 20
-97.210805
 30
0.0
 11
66.156967
 21
-98.400724
 31
0.0
  0
LINE
  8
BASE
  6
CONTINUOUS
 10
66.148925
 20
-99.200738
 30
0.0
 11
68.532385
 21
-98.012546
 31
0.0
  0
LINE
  8
BASE
 10
20.221556
 20
-13.795788
 30
0.0
 11
12.798812
 21
-13.795788
 31
0.0
  0
LINE
  8
BASE
  6
CONTINUOUS
 10
12.798812
 20
-12.5
 30
0.0
 11
7.5
 21
-12.5
 31
0.0
  0
LINE
  8
BASE
  6
CONTINUOUS
 10
12.798812
 20
-7.5
 30
0.0
 11
0.0
 21
-7.5
 31
0.0
  0
LINE
  8
BASE
 10
12.798812
 20
-5.910075
 30
0.0
 11
12.798812
 21
-13.795788
 31
0.0
  0
LINE
  8
BASE
 10
17.004853
 20
-6.291873
 30
0.0
 11
15.09105
 21
-8.570695
 31
0.0
  0
LINE
  8
BASE
 10
18.496971
 20
-6.291873
 30
0.0
 11
16.642636
 21
-8.570695
 31
0.0
  0
LINE
  8
BASE
 10
20.221556
 20
-6.295788
 30
0.0
 11
12.798812
 21
-6.295788
 31
0.0
  0
LINE
  8
BASE
 10
20.221556
 20
-13.795788
 30
0.0
 11
20.221556
 21
-5.910075
 31
0.0
  0
LINE
  8
BASE
  6
CONTINUOUS
 10
20.221556
 20
-10.0
 30
0.0
 11
25.0
 21
-10.0
 31
0.0
  0
LINE
  8
BASE
  6
CONTINUOUS
 10
20.221556
 20
-2.5
 30
0.0
 11
25.0
 21
-2.5
 31
0.0
  0
LINE
  8
BASE
 10
20.221556
 20
-6.6
 30
0.0
 11
20.221556
 21
1.589925
 31
0.0
  0
LINE
  8
BASE
 10
20.221556
 20
1.589925
 30
0.0
 11
12.798812
 21
1.589925
 31
0.0
  0
LINE
  8
BASE
 10
18.496971
 20
1.59384
 30
0.0
 11
16.642636
 21
-0.684982
 31
0.0
  0
LINE
  8
BASE
 10
17.004853
 20
1.59384
 30
0.0
 11
15.09105
 21
-0.684982
 31
0.0
  0
LINE
  8
BASE
 10
12.798812
 20
1.589925
 30
0.0
 11
12.798812
 21
-6.6
 31
0.0
  0
LINE
  8
BASE
  6
CONTINUOUS
 10
12.798812
 20
0.0
 30
0.0
 11
0.0
 21
0.0
 31
0.0
  0
LINE
  8
BASE
  6
CONTINUOUS
 10
12.798812
 20
-5.0
 30
0.0
 11
7.5
 21
-5.0
 31
0.0
  0
LINE
  8
BASE
  6
CONTINUOUS
 10
168.830425
 20
-19.871937
 30
0.0
 11
166.48466
 21
-21.061856
 31
0.0
  0
LINE
  8
BASE
  6
CONTINUOUS
 10
166.48466
 20
-18.536583
 30
0.0
 11
168.830425
 21
-19.871937
 31
0.0
  0
TEXT
  8
BASE
  6
DASHED
 10
162.077439
 20
-21.084863
 30
0.0
 40
2.5
  1
3I
  0
TEXT
  8
BASE
  6
CONTINUOUS
 10
165.0
 20
-10.0
 30
0.0
 40
2.5
  1
U1
  7
ROMANS
  0
TEXT
  8
BASE
  6
CONTINUOUS
 10
141.270128
 20
-9.258643
 30
0.0
 40
2.5
  1
I
 11
141.270128
 21
-10.091977
 31
0.0
 73
     1
  0
LINE
  8
BASE
  6
CONTINUOUS
 10
146.406117
 20
-8.05604
 30
0.0
 11
144.060351
 21
-9.245959
 31
0.0
  0
LINE
  8
BASE
  6
CONTINUOUS
 10
144.060351
 20
-6.720686
 30
0.0
 11
146.406117
 21
-8.05604
 31
0.0
  0
LINE
  8
BASE
  6
CONTINUOUS
 10
140.0
 20
-5.0
 30
0.0
 11
170.450615
 21
-5.0
 31
0.0
  0
LINE
  8
BASE
  6
CONTINUOUS
 10
138.01273
 20
-11.999187
 30
0.0
 11
25.0
 21
-11.999187
 31
0.0
  0
CIRCLE
  8
BASE
  6
CONTINUOUS
 10
139.012659
 20
-12.005491
 30
0.0
 40
1.0
  0
TEXT
  8
BASE
  6
HIDDEN
 10
141.080478
 20
-15.773193
 30
0.0
 40
1.5
  1
EN
  0
LINE
  8
BASE
  6
CONTINUOUS
 10
144.900936
 20
-15.039945
 30
0.0
 11
147.400936
 21
-15.039945
 31
0.0
  0
LINE
  8
BASE
  6
CONTINUOUS
 10
149.900936
 20
-15.039945
 30
0.0
 11
147.676489
 21
-15.600587
 31
0.0
  0
LINE
  8
BASE
  6
CONTINUOUS
 10
149.900936
 20
-15.039945
 30
0.0
 11
152.400936
 21
-15.039945
 31
0.0
  0
LINE
  8
BASE
  6
CONTINUOUS
 10
144.060351
 20
-16.930408
 30
0.0
 11
146.406117
 21
-18.265762
 31
0.0
  0
LINE
  8
BASE
  6
CONTINUOUS
 10
146.406117
 20
-18.265762
 30
0.0
 11
144.060351
 21
-19.455681
 31
0.0
  0
TEXT
  8
BASE
  6
CONTINUOUS
 10
141.270128
 20
-19.468365
 30
0.0
 40
2.5
  1
I
 11
141.270128
 21
-20.301699
 31
0.0
 73
     1
  0
LINE
  8
BASE
  6
HIDDEN
 10
140.0
 20
-10.0
 30
0.0
 11
160.0
 21
-10.0
 31
0.0
  0
TEXT
  8
BASE
  6
CONTINUOUS
 10
141.270128
 20
-23.807023
 30
0.0
 40
2.5
  1
I
 11
141.270128
 21
-24.640356
 31
0.0
 73
     1
  0
LINE
  8
BASE
  6
CONTINUOUS
 10
146.849039
 20
-22.604419
 30
0.0
 11
144.503273
 21
-23.794338
 31
0.0
  0
LINE
  8
BASE
  6
CONTINUOUS
 10
144.503273
 20
-21.269066
 30
0.0
 11
146.849039
 21
-22.604419
 31
0.0
  0
LINE
  8
BASE
  6
CONTINUOUS
 10
145.178827
 20
-22.604419
 30
0.0
 11
142.833062
 21
-23.794338
 31
0.0
  0
LINE
  8
BASE
  6
CONTINUOUS
 10
142.833062
 20
-21.269066
 30
0.0
 11
145.178827
 21
-22.604419
 31
0.0
  0
LINE
  8
BASE
  6
HIDDEN
 10
140.0
 20
-20.0
 30
0.0
 11
160.0
 21
-20.0
 31
0.0
  0
LINE
  8
BASE
  6
CONTINUOUS
 10
151.020299
 20
-32.36243
 30
0.0
 11
151.020299
 21
-34.150561
 31
0.0
  0
LINE
  8
BASE
  6
CONTINUOUS
 10
151.051331
 20
-33.207708
 30
0.0
 11
158.839536
 21
-33.207708
 31
0.0
  0
LINE
  8
BASE
  6
CONTINUOUS
 10
155.880883
 20
-31.009545
 30
0.0
 11
156.78156
 21
-32.133294
 31
0.0
  0
LINE
  8
BASE
  6
CONTINUOUS
 10
153.435476
 20
-34.375311
 30
0.0
 11
156.311586
 21
-31.546752
 31
0.0
  0
LINE
  8
BASE
  6
CONTINUOUS
 10
158.834995
 20
-32.36243
 30
0.0
 11
158.834995
 21
-34.150561
 31
0.0
  0
LINE
  8
BASE
  6
CONTINUOUS
 10
142.833062
 20
-31.599954
 30
0.0
 11
145.178827
 21
-32.935308
 31
0.0
  0
LINE
  8
BASE
  6
CONTINUOUS
 10
145.178827
 20
-32.935308
 30
0.0
 11
142.833062
 21
-34.125227
 31
0.0
  0
LINE
  8
BASE
  6
CONTINUOUS
 10
144.503273
 20
-31.599954
 30
0.0
 11
146.849039
 21
-32.935308
 31
0.0
  0
LINE
  8
BASE
  6
CONTINUOUS
 10
146.849039
 20
-32.935308
 30
0.0
 11
144.503273
 21
-34.125227
 31
0.0
  0
TEXT
  8
BASE
  6
CONTINUOUS
 10
141.270128
 20
-34.137912
 30
0.0
 40
2.5
  1
I
 11
141.270128
 21
-34.971245
 31
0.0
 73
     1
  0
LINE
  8
BASE
  6
HIDDEN
 10
140.0
 20
-25.0
 30
0.0
 11
160.0
 21
-25.0
 31
0.0
  0
LINE
  8
BASE
  6
CONTINUOUS
 10
148.526365
 20
-37.657756
 30
0.0
 11
146.180599
 21
-38.847675
 31
0.0
  0
LINE
  8
BASE
  6
CONTINUOUS
 10
146.180599
 20
-36.322403
 30
0.0
 11
148.526365
 21
-37.657756
 31
0.0
  0
LINE
  8
BASE
  6
HIDDEN
 10
140.0
 20
-40.0
 30
0.0
 11
160.0
 21
-40.0
 31
0.0
  0
LINE
  8
BASE
  6
HIDDEN
 10
140.0
 20
-55.0
 30
0.0
 11
160.0
 21
-55.0
 31
0.0
  0
LINE
  8
BASE
  6
HIDDEN
 10
140.0
 20
-50.0
 30
0.0
 11
160.0
 21
-50.0
 31
0.0
  0
LINE
  8
BASE
  6
CONTINUOUS
 10
151.019845
 20
-17.51019
 30
0.0
 11
151.019845
 21
-19.298322
 31
0.0
  0
LINE
  8
BASE
  6
CONTINUOUS
 10
151.050877
 20
-18.355469
 30
0.0
 11
158.839082
 21
-18.355469
 31
0.0
  0
LINE
  8
BASE
  6
CONTINUOUS
 10
155.880429
 20
-16.157306
 30
0.0
 11
156.781105
 21
-17.281055
 31
0.0
  0
ARC
  8
BASE
  6
HIDDEN
 10
157.745745
 20
-14.426925
 30
0.0
 40
4.998196
 50
206.402922
 51
282.21115
  0
LINE
  8
BASE
  6
CONTINUOUS
 10
153.435021
 20
-19.523072
 30
0.0
 11
156.311132
 21
-16.694513
 31
0.0
  0
LINE
  8
BASE
  6
CONTINUOUS
 10
158.834541
 20
-17.51019
 30
0.0
 11
158.834541
 21
-19.298322
 31
0.0
  0
LINE
  8
BASE
  6
CONTINUOUS
 10
67.5
 20
-100.0
 30
0.0
 11
67.5
 21
-107.5
 31
0.0
  0
LINE
  8
BASE
  6
CONTINUOUS
 10
140.0
 20
-65.0
 30
0.0
 11
170.450615
 21
-65.0
 31
0.0
  0
LINE
  8
BASE
  6
DASHED
 10
67.5
 20
-107.5
 30
0.0
 11
67.5
 21
-143.899176
 31
0.0
  0
LINE
  8
BASE
  6
DASHED
 10
57.5
 20
-85.0
 30
0.0
 11
57.5
 21
-128.899176
 31
0.0
  0
LINE
  8
BASE
  6
DASHED
 10
45.0
 20
-85.0
 30
0.0
 11
45.0
 21
-113.899176
 31
0.0
  0
LINE
  8
BASE
  6
DASHED
 10
32.5
 20
-85.0
 30
0.0
 11
32.5
 21
-98.899176
 31
0.0
  0
LINE
  8
BASE
  6
DASHED
 10
15.0
 20
-82.5
 30
0.0
 11
15.0
 21
-88.899176
 31
0.0
  0
LINE
  8
BASE
  6
CONTINUOUS
 10
140.0
 20
-35.0
 30
0.0
 11
140.0
 21
-90.0
 31
0.0
  0
LINE
  8
BASE
  6
CONTINUOUS
 10
140.0
 20
-20.0
 30
0.0
 11
140.0
 21
-5.0
 31
0.0
  0
LINE
  8
BASE
  6
CONTINUOUS
 10
140.0
 20
-20.0
 30
0.0
 11
140.0
 21
-35.0
 31
0.0
  0
LINE
  8
BASE
  6
CONTINUOUS
 10
160.0
 20
-90.0
 30
0.0
 11
160.0
 21
-5.0
 31
0.0
  0
LINE
  8
BASE
  6
CONTINUOUS
 10
140.0
 20
-90.0
 30
0.0
 11
170.450615
 21
-90.0
 31
0.0
  0
LINE
  8
BASE
  6
CONTINUOUS
 10
170.450615
 20
-5.0
 30
0.0
 11
170.450615
 21
-32.81168
 31
0.0
  0
LINE
  8
BASE
  6
CONTINUOUS
 10
170.450615
 20
-32.790172
 30
0.0
 11
170.450615
 21
-90.0
 31
0.0
  0
ENDBLK
  8
0
  0
BLOCK
  8
0
  2
908
 70
     0
 10
0.0
 20
0.0
 30
0.0
  3
908
  0
INSERT
  8
0
  6
CONTINUOUS
  2
B507
 10
47.984557
 20
-7.115258
 30
0.0
  0
TEXT
  8
0
  6
CONTINUOUS
 10
45.195347
 20
-4.999779
 30
0.0
 40
2.0
  1
P/Q
  7
ROMANS
  0
POLYLINE
  8
0
  6
CONTINUOUS
 66
     1
 10
0.0
 20
0.0
 30
0.0
 70
     1
 40
0.5
 41
0.5
  0
VERTEX
  8
0
  6
CONTINUOUS
 10
12.0
 20
-115.0
 30
0.0
 42
1.0
  0
VERTEX
  8
0
  6
CONTINUOUS
 10
13.0
 20
-115.0
 30
0.0
 42
1.0
  0
SEQEND
  8
0
  6
CONTINUOUS
  0
POLYLINE
  8
0
  6
CONTINUOUS
 66
     1
 10
0.0
 20
0.0
 30
0.0
 70
     1
 40
0.5
 41
0.5
  0
VERTEX
  8
0
  6
CONTINUOUS
 10
17.0
 20
-95.0
 30
0.0
 42
1.0
  0
VERTEX
  8
0
  6
CONTINUOUS
 10
18.0
 20
-95.0
 30
0.0
 42
1.0
  0
SEQEND
  8
0
  6
CONTINUOUS
  0
LINE
  8
0
  6
DASHED
 10
27.5
 20
-105.0
 30
0.0
 11
95.0
 21
-105.0
 31
0.0
  0
LINE
  8
0
  6
DASHED
 10
27.5
 20
-95.0
 30
0.0
 11
27.5
 21
-105.0
 31
0.0
  0
LINE
  8
0
  6
DASHED
 10
12.5
 20
-105.0
 30
0.0
 11
12.5
 21
-115.0
 31
0.0
  0
INSERT
  8
0
  6
CONTINUOUS
  2
MAA
 10
115.369319
 20
20.308331
 30
0.0
  0
INSERT
  8
0
  6
CONTINUOUS
  2
MAA
 10
115.313209
 20
10.362055
 30
0.0
  0
POLYLINE
  8
0
  6
CONTINUOUS
 66
     1
 10
0.0
 20
0.0
 30
0.0
 70
     1
 40
0.5
 41
0.5
  0
VERTEX
  8
0
  6
CONTINUOUS
 10
109.5
 20
-57.5
 30
0.0
 42
1.0
  0
VERTEX
  8
0
  6
CONTINUOUS
 10
110.5
 20
-57.5
 30
0.0
 42
1.0
  0
SEQEND
  8
0
  6
CONTINUOUS
  0
POLYLINE
  8
0
  6
CONTINUOUS
 66
     1
 10
0.0
 20
0.0
 30
0.0
 70
     1
 40
0.5
 41
0.5
  0
VERTEX
  8
0
  6
CONTINUOUS
 10
102.0
 20
-52.5
 30
0.0
 42
1.0
  0
VERTEX
  8
0
  6
CONTINUOUS
 10
103.0
 20
-52.5
 30
0.0
 42
1.0
  0
SEQEND
  8
0
  6
CONTINUOUS
  0
POLYLINE
  8
0
  6
CONTINUOUS
 66
     1
 10
0.0
 20
0.0
 30
0.0
 70
     1
 40
0.5
 41
0.5
  0
VERTEX
  8
0
  6
CONTINUOUS
 10
94.5
 20
-47.5
 30
0.0
 42
1.0
  0
VERTEX
  8
0
  6
CONTINUOUS
 10
95.5
 20
-47.5
 30
0.0
 42
1.0
  0
SEQEND
  8
0
  6
CONTINUOUS
  0
POLYLINE
  8
0
  6
CONTINUOUS
 66
     1
 10
0.0
 20
0.0
 30
0.0
 70
     1
 40
0.5
 41
0.5
  0
VERTEX
  8
0
  6
CONTINUOUS
 10
82.0
 20
7.5
 30
0.0
 42
1.0
  0
VERTEX
  8
0
  6
CONTINUOUS
 10
83.0
 20
7.5
 30
0.0
 42
1.0
  0
SEQEND
  8
0
  6
CONTINUOUS
  0
POLYLINE
  8
0
  6
CONTINUOUS
 66
     1
 10
0.0
 20
0.0
 30
0.0
 70
     1
 40
0.5
 41
0.5
  0
VERTEX
  8
0
  6
CONTINUOUS
 10
29.5
 20
40.0
 30
0.0
 42
1.0
  0
VERTEX
  8
0
  6
CONTINUOUS
 10
30.5
 20
40.0
 30
0.0
 42
1.0
  0
SEQEND
  8
0
  6
CONTINUOUS
  0
POLYLINE
  8
0
  6
CONTINUOUS
 66
     1
 10
0.0
 20
0.0
 30
0.0
 70
     1
 40
0.5
 41
0.5
  0
VERTEX
  8
0
  6
CONTINUOUS
 10
34.5
 20
35.0
 30
0.0
 42
1.0
  0
VERTEX
  8
0
  6
CONTINUOUS
 10
35.5
 20
35.0
 30
0.0
 42
1.0
  0
SEQEND
  8
0
  6
CONTINUOUS
  0
POLYLINE
  8
0
  6
CONTINUOUS
 66
     1
 10
0.0
 20
0.0
 30
0.0
 70
     1
 40
0.5
 41
0.5
  0
VERTEX
  8
0
  6
CONTINUOUS
 10
39.5
 20
30.0
 30
0.0
 42
1.0
  0
VERTEX
  8
0
  6
CONTINUOUS
 10
40.5
 20
30.0
 30
0.0
 42
1.0
  0
SEQEND
  8
0
  6
CONTINUOUS
  0
POLYLINE
  8
0
  6
CONTINUOUS
 66
     1
 10
0.0
 20
0.0
 30
0.0
 70
     1
 40
0.5
 41
0.5
  0
VERTEX
  8
0
  6
CONTINUOUS
 10
72.0
 20
30.0
 30
0.0
 42
1.0
  0
VERTEX
  8
0
  6
CONTINUOUS
 10
73.0
 20
30.0
 30
0.0
 42
1.0
  0
SEQEND
  8
0
  6
CONTINUOUS
  0
POLYLINE
  8
0
  6
CONTINUOUS
 66
     1
 10
0.0
 20
0.0
 30
0.0
 70
     1
 40
0.5
 41
0.5
  0
VERTEX
  8
0
  6
CONTINUOUS
 10
64.5
 20
35.0
 30
0.0
 42
1.0
  0
VERTEX
  8
0
  6
CONTINUOUS
 10
65.5
 20
35.0
 30
0.0
 42
1.0
  0
SEQEND
  8
0
  6
CONTINUOUS
  0
POLYLINE
  8
0
  6
CONTINUOUS
 66
     1
 10
0.0
 20
0.0
 30
0.0
 70
     1
 40
0.5
 41
0.5
  0
VERTEX
  8
0
  6
CONTINUOUS
 10
57.0
 20
40.0
 30
0.0
 42
1.0
  0
VERTEX
  8
0
  6
CONTINUOUS
 10
58.0
 20
40.0
 30
0.0
 42
1.0
  0
SEQEND
  8
0
  6
CONTINUOUS
  0
POLYLINE
  8
0
  6
CONTINUOUS
 66
     1
 10
0.0
 20
0.0
 30
0.0
 70
     1
 40
0.5
 41
0.5
  0
VERTEX
  8
0
  6
CONTINUOUS
 10
24.5
 20
-44.810016
 30
0.0
 42
1.0
  0
VERTEX
  8
0
  6
CONTINUOUS
 10
25.5
 20
-44.810016
 30
0.0
 42
1.0
  0
SEQEND
  8
0
  6
CONTINUOUS
  0
POLYLINE
  8
0
  6
CONTINUOUS
 66
     1
 10
0.0
 20
0.0
 30
0.0
 70
     1
 40
0.5
 41
0.5
  0
VERTEX
  8
0
  6
CONTINUOUS
 10
24.5
 20
-24.810016
 30
0.0
 42
1.0
  0
VERTEX
  8
0
  6
CONTINUOUS
 10
25.5
 20
-24.810016
 30
0.0
 42
1.0
  0
SEQEND
  8
0
  6
CONTINUOUS
  0
POLYLINE
  8
0
  6
CONTINUOUS
 66
     1
 10
0.0
 20
0.0
 30
0.0
 70
     1
 40
0.5
 41
0.5
  0
VERTEX
  8
0
  6
CONTINUOUS
 10
24.5
 20
-50.0
 30
0.0
 42
1.0
  0
VERTEX
  8
0
  6
CONTINUOUS
 10
25.5
 20
-50.0
 30
0.0
 42
1.0
  0
SEQEND
  8
0
  6
CONTINUOUS
  0
POLYLINE
  8
0
  6
CONTINUOUS
 66
     1
 10
0.0
 20
0.0
 30
0.0
 70
     1
 40
0.5
 41
0.5
  0
VERTEX
  8
0
  6
CONTINUOUS
 10
9.5
 20
-50.0
 30
0.0
 42
1.0
  0
VERTEX
  8
0
  6
CONTINUOUS
 10
10.5
 20
-50.0
 30
0.0
 42
1.0
  0
SEQEND
  8
0
  6
CONTINUOUS
  0
POLYLINE
  8
0
  6
CONTINUOUS
 66
     1
 10
0.0
 20
0.0
 30
0.0
 70
     1
 40
0.5
 41
0.5
  0
VERTEX
  8
0
  6
CONTINUOUS
 10
9.5
 20
-30.0
 30
0.0
 42
1.0
  0
VERTEX
  8
0
  6
CONTINUOUS
 10
10.5
 20
-30.0
 30
0.0
 42
1.0
  0
SEQEND
  8
0
  6
CONTINUOUS
  0
TEXT
  8
0
  6
DASHED
 10
6.456534
 20
-114.210047
 30
0.0
 40
2.0
  1
1)
  7
ROMANS
  0
TEXT
  8
0
  6
DASHED
 10
6.456534
 20
-94.210047
 30
0.0
 40
2.0
  1
1)
  7
GREEKS
  0
TEXT
  8
0
  6
DASHED
 10
6.456534
 20
-66.710047
 30
0.0
 40
2.0
  1
1)
  7
ROMANS
  0
TEXT
  8
0
  6
DASHED
 10
6.456534
 20
-39.210047
 30
0.0
 40
2.0
  1
1)
  7
ROMANS
  0
TEXT
  8
0
  6
DASHED
 10
6.456534
 20
-19.210047
 30
0.0
 40
2.0
  1
1)
  7
ROMANS
  0
TEXT
  8
0
  6
DASHED
 10
6.456534
 20
0.789953
 30
0.0
 40
2.0
  1
1)
  7
ROMANS
  0
LINE
  8
0
  6
DASHED
 10
5.0
 20
-95.0
 30
0.0
 11
27.5
 21
-95.0
 31
0.0
  0
LINE
  8
0
  6
DASHED
 10
5.0
 20
-115.0
 30
0.0
 11
40.0
 21
-115.0
 31
0.0
  0
LINE
  8
0
  6
DASHED
 10
110.0
 20
-120.0
 30
0.0
 11
47.5
 21
-120.0
 31
0.0
  0
LINE
  8
0
  6
DASHED
 10
110.0
 20
-87.5
 30
0.0
 11
110.0
 21
-120.0
 31
0.0
  0
LINE
  8
0
  6
DASHED
 10
40.0
 20
-112.5
 30
0.0
 11
40.0
 21
-115.0
 31
0.0
  0
LINE
  8
0
  6
DASHED
 10
102.5
 20
-112.5
 30
0.0
 11
40.0
 21
-112.5
 31
0.0
  0
LINE
  8
0
  6
DASHED
 10
102.5
 20
-87.5
 30
0.0
 11
102.5
 21
-112.5
 31
0.0
  0
LINE
  8
0
  6
DASHED
 10
95.0
 20
-105.0
 30
0.0
 11
95.0
 21
-87.5
 31
0.0
  0
TEXT
  8
0
  6
DASHED
 10
77.5
 20
-58.541754
 30
0.0
 40
2.0
  1
L3(T)
  7
GREEKS
  0
TEXT
  8
0
  6
DASHED
 10
77.5
 20
-53.489243
 30
0.0
 40
2.0
  1
L2(S)
  7
GREEKS
  0
TEXT
  8
0
  6
DASHED
 10
77.5
 20
-48.480813
 30
0.0
 40
2.0
  1
L1(R)
  7
GREEKS
  0
LINE
  8
0
  6
DASHED
 10
87.5
 20
-57.5
 30
0.0
 11
122.5
 21
-57.5
 31
0.0
  0
LINE
  8
0
  6
DASHED
 10
87.5
 20
-52.5
 30
0.0
 11
122.5
 21
-52.5
 31
0.0
  0
LINE
  8
0
  6
DASHED
 10
87.5
 20
-47.5
 30
0.0
 11
122.5
 21
-47.5
 31
0.0
  0
LINE
  8
0
  6
DASHED
 10
102.5
 20
-70.0
 30
0.0
 11
102.5
 21
-52.5
 31
0.0
  0
LINE
  8
0
  6
DASHED
 10
110.0
 20
-70.0
 30
0.0
 11
110.0
 21
-57.5
 31
0.0
  0
LINE
  8
0
  6
DASHED
 10
95.0
 20
-70.0
 30
0.0
 11
95.0
 21
-47.5
 31
0.0
  0
LINE
  8
0
  6
CONTINUOUS
 10
94.006031
 20
-82.401444
 30
0.0
 11
94.978167
 21
-82.401444
 31
0.0
  0
LINE
  8
0
  6
CONTINUOUS
 10
93.996128
 20
-80.000004
 30
0.0
 11
94.973936
 21
-80.000004
 31
0.0
  0
LINE
  8
0
  6
CONTINUOUS
 10
94.000897
 20
-84.81002
 30
0.0
 11
95.0
 21
-84.81002
 31
0.0
  0
ARC
  8
0
  6
CONTINUOUS
 10
93.364862
 20
-83.605762
 30
0.0
 40
1.204309
 50
90.0
 51
270.0
  0
LINE
  8
0
  6
CONTINUOUS
 10
93.359898
 20
-84.810063
 30
0.0
 11
94.009496
 21
-84.810063
 31
0.0
  0
LINE
  8
0
  6
CONTINUOUS
 10
93.358762
 20
-80.000007
 30
0.0
 11
94.002261
 21
-80.000007
 31
0.0
  0
LINE
  8
0
  6
CONTINUOUS
 10
93.358762
 20
-82.401453
 30
0.0
 11
94.00836
 21
-82.401453
 31
0.0
  0
ARC
  8
0
  6
CONTINUOUS
 10
93.364862
 20
-81.203905
 30
0.0
 40
1.204309
 50
90.0
 51
265.706237
  0
LINE
  8
0
  6
CONTINUOUS
 10
101.506031
 20
-82.401444
 30
0.0
 11
102.478167
 21
-82.401444
 31
0.0
  0
LINE
  8
0
  6
CONTINUOUS
 10
101.496128
 20
-80.000004
 30
0.0
 11
102.473936
 21
-80.000004
 31
0.0
  0
LINE
  8
0
  6
CONTINUOUS
 10
101.500897
 20
-84.81002
 30
0.0
 11
102.5
 21
-84.81002
 31
0.0
  0
ARC
  8
0
  6
CONTINUOUS
 10
100.864862
 20
-83.605762
 30
0.0
 40
1.204309
 50
90.0
 51
270.0
  0
LINE
  8
0
  6
CONTINUOUS
 10
100.859898
 20
-84.810063
 30
0.0
 11
101.509496
 21
-84.810063
 31
0.0
  0
LINE
  8
0
  6
CONTINUOUS
 10
100.858762
 20
-80.000007
 30
0.0
 11
101.502261
 21
-80.000007
 31
0.0
  0
LINE
  8
0
  6
CONTINUOUS
 10
100.858762
 20
-82.401453
 30
0.0
 11
101.50836
 21
-82.401453
 31
0.0
  0
ARC
  8
0
  6
CONTINUOUS
 10
100.864862
 20
-81.203905
 30
0.0
 40
1.204309
 50
90.0
 51
265.706237
  0
LINE
  8
0
  6
CONTINUOUS
 10
102.5
 20
-84.81002
 30
0.0
 11
102.5
 21
-87.5
 31
0.0
  0
LINE
  8
0
  6
CONTINUOUS
 10
95.0
 20
-84.81002
 30
0.0
 11
95.0
 21
-87.5
 31
0.0
  0
INSERT
  8
0
  6
CONTINUOUS
  2
BLC27
 10
100.965932
 20
-72.428451
 30
0.0
  0
INSERT
  8
0
  6
CONTINUOUS
  2
BLC27
 10
93.465932
 20
-72.428451
 30
0.0
  0
LINE
  8
0
  6
DASHED
 10
115.0
 20
-74.81002
 30
0.0
 11
124.163362
 21
-74.81002
 31
0.0
  0
LINE
  8
0
  6
DASHED
 10
115.0
 20
-80.0
 30
0.0
 11
124.34682
 21
-80.0
 31
0.0
  0
INSERT
  8
0
  6
CONTINUOUS
  2
BLC15
 10
127.5
 20
-74.952104
 30
0.0
 50
90.0
  0
INSERT
  8
0
  6
CONTINUOUS
  2
BLC15
 10
127.5
 20
-80.142084
 30
0.0
 50
90.0
  0
LINE
  8
0
  6
CONTINUOUS
 10
95.0
 20
-80.0
 30
0.0
 11
115.0
 21
-80.0
 31
0.0
  0
LINE
  8
0
  6
CONTINUOUS
 10
109.006031
 20
-82.401444
 30
0.0
 11
109.978167
 21
-82.401444
 31
0.0
  0
LINE
  8
0
  6
CONTINUOUS
 10
108.996128
 20
-80.000004
 30
0.0
 11
109.973936
 21
-80.000004
 31
0.0
  0
LINE
  8
0
  6
CONTINUOUS
 10
109.000897
 20
-84.81002
 30
0.0
 11
110.0
 21
-84.81002
 31
0.0
  0
ARC
  8
0
  6
CONTINUOUS
 10
108.364862
 20
-83.605762
 30
0.0
 40
1.204309
 50
90.0
 51
270.0
  0
LINE
  8
0
  6
CONTINUOUS
 10
108.359898
 20
-84.810063
 30
0.0
 11
109.009496
 21
-84.810063
 31
0.0
  0
LINE
  8
0
  6
CONTINUOUS
 10
108.358762
 20
-80.000007
 30
0.0
 11
109.002261
 21
-80.000007
 31
0.0
  0
LINE
  8
0
  6
CONTINUOUS
 10
108.358762
 20
-82.401453
 30
0.0
 11
109.00836
 21
-82.401453
 31
0.0
  0
ARC
  8
0
  6
CONTINUOUS
 10
108.364862
 20
-81.203905
 30
0.0
 40
1.204309
 50
90.0
 51
265.706237
  0
LINE
  8
0
  6
CONTINUOUS
 10
110.0
 20
-84.81002
 30
0.0
 11
110.0
 21
-87.5
 31
0.0
  0
LINE
  8
0
  6
CONTINUOUS
 10
95.0
 20
-74.81002
 30
0.0
 11
115.0
 21
-74.81002
 31
0.0
  0
INSERT
  8
0
  6
CONTINUOUS
  2
BLC27
 10
108.465932
 20
-72.428451
 30
0.0
  0
LINE
  8
0
  6
CONTINUOUS
 10
5.0
 20
-114.6532
 30
0.0
 11
4.0
 21
-113.6532
 31
0.0
  0
LINE
  8
0
  6
CONTINUOUS
 10
5.0
 20
-120.33813
 30
0.0
 11
4.0
 21
-121.33813
 31
0.0
  0
LINE
  8
0
  6
CONTINUOUS
 10
5.0
 20
-114.6532
 30
0.0
 11
5.0
 21
-120.33813
 31
0.0
  0
LINE
  8
0
  6
CONTINUOUS
 10
5.0
 20
-94.6532
 30
0.0
 11
5.0
 21
-100.33813
 31
0.0
  0
LINE
  8
0
  6
CONTINUOUS
 10
5.0
 20
-100.33813
 30
0.0
 11
4.0
 21
-101.33813
 31
0.0
  0
LINE
  8
0
  6
CONTINUOUS
 10
5.0
 20
-94.6532
 30
0.0
 11
4.0
 21
-93.6532
 31
0.0
  0
TEXT
  8
0
  6
CONTINUOUS
 10
16.532452
 20
28.991205
 30
0.0
 40
2.0
  1
L3
  7
GREEKS
  0
TEXT
  8
0
  6
CONTINUOUS
 10
16.532452
 20
34.054737
 30
0.0
 40
2.0
  1
L2
  7
GREEKS
  0
TEXT
  8
0
  6
CONTINUOUS
 10
16.532452
 20
38.975003
 30
0.0
 40
2.0
  1
L1
  7
GREEKS
  0
LINE
  8
0
  6
DASHED
 10
80.0
 20
40.0
 30
0.0
 11
22.5
 21
40.0
 31
0.0
  0
LINE
  8
0
  6
DASHED
 10
80.0
 20
35.0
 30
0.0
 11
22.5
 21
35.0
 31
0.0
  0
LINE
  8
0
  6
DASHED
 10
80.0
 20
30.0
 30
0.0
 11
22.5
 21
30.0
 31
0.0
  0
INSERT
  8
0
  6
CONTINUOUS
  2
BLC27
 10
70.965932
 20
15.071549
 30
0.0
  0
LINE
  8
0
  6
DASHED
 10
72.5
 20
17.5
 30
0.0
 11
72.5
 21
30.0
 31
0.0
  0
LINE
  8
0
  6
CONTINUOUS
 10
57.5
 20
12.68998
 30
0.0
 11
77.5
 21
12.68998
 31
0.0
  0
LINE
  8
0
  6
CONTINUOUS
 10
72.5
 20
2.68998
 30
0.0
 11
72.5
 21
0.0
 31
0.0
  0
ARC
  8
0
  6
CONTINUOUS
 10
70.864862
 20
6.296095
 30
0.0
 40
1.204309
 50
90.0
 51
265.706237
  0
LINE
  8
0
  6
CONTINUOUS
 10
70.858762
 20
5.098547
 30
0.0
 11
71.50836
 21
5.098547
 31
0.0
  0
LINE
  8
0
  6
CONTINUOUS
 10
70.858762
 20
7.499993
 30
0.0
 11
71.502261
 21
7.499993
 31
0.0
  0
LINE
  8
0
  6
CONTINUOUS
 10
70.859898
 20
2.689937
 30
0.0
 11
71.509496
 21
2.689937
 31
0.0
  0
ARC
  8
0
  6
CONTINUOUS
 10
70.864862
 20
3.894238
 30
0.0
 40
1.204309
 50
90.0
 51
270.0
  0
LINE
  8
0
  6
CONTINUOUS
 10
71.500897
 20
2.68998
 30
0.0
 11
72.5
 21
2.68998
 31
0.0
  0
LINE
  8
0
  6
CONTINUOUS
 10
71.496128
 20
7.499996
 30
0.0
 11
72.473936
 21
7.499996
 31
0.0
  0
LINE
  8
0
  6
CONTINUOUS
 10
71.506031
 20
5.098556
 30
0.0
 11
72.478167
 21
5.098556
 31
0.0
  0
LINE
  8
0
  6
CONTINUOUS
 10
72.5
 20
0.0
 30
0.0
 11
70.0
 21
0.0
 31
0.0
  0
LINE
  8
0
  6
CONTINUOUS
 10
70.0
 20
0.0
 30
0.0
 11
65.0
 21
7.5
 31
0.0
  0
LINE
  8
0
  6
CONTINUOUS
 10
72.5
 20
7.5
 30
0.0
 11
77.5
 21
7.5
 31
0.0
  0
INSERT
  8
0
  6
CONTINUOUS
  2
BLC15
 10
90.0
 20
7.357916
 30
0.0
 50
90.0
  0
INSERT
  8
0
  6
CONTINUOUS
  2
BLC15
 10
90.0
 20
12.547896
 30
0.0
 50
90.0
  0
LINE
  8
0
  6
DASHED
 10
77.5
 20
7.5
 30
0.0
 11
86.84682
 21
7.5
 31
0.0
  0
LINE
  8
0
  6
DASHED
 10
77.5
 20
12.68998
 30
0.0
 11
86.663362
 21
12.68998
 31
0.0
  0
LINE
  8
0
  6
DASHED
 10
65.0
 20
-12.5
 30
0.0
 11
82.5
 21
-12.5
 31
0.0
  0
LINE
  8
0
  6
DASHED
 10
82.5
 20
-12.5
 30
0.0
 11
82.5
 21
7.5
 31
0.0
  0
LINE
  8
0
  6
DASHED
 10
30.0
 20
-4.810008
 30
0.0
 11
25.0
 21
-4.810008
 31
0.0
  0
INSERT
  8
0
  6
CONTINUOUS
  2
BLC27
 10
41.491155
 20
-42.381569
 30
0.0
 50
180.0
  0
LINE
  8
0
  6
CONTINUOUS
 10
40.0
 20
12.5
 30
0.0
 11
39.5
 21
12.0
 31
0.0
  0
LINE
  8
0
  6
CONTINUOUS
 10
40.0
 20
12.5
 30
0.0
 11
39.5
 21
13.0
 31
0.0
  0
LINE
  8
0
  6
CONTINUOUS
 10
40.0
 20
12.5
 30
0.0
 11
40.5
 21
13.0
 31
0.0
  0
LINE
  8
0
  6
CONTINUOUS
 10
40.0
 20
12.5
 30
0.0
 11
40.5
 21
12.0
 31
0.0
  0
LINE
  8
0
  6
CONTINUOUS
 10
35.0
 20
12.5
 30
0.0
 11
34.5
 21
13.0
 31
0.0
  0
LINE
  8
0
  6
CONTINUOUS
 10
35.0
 20
12.5
 30
0.0
 11
34.5
 21
12.0
 31
0.0
  0
LINE
  8
0
  6
CONTINUOUS
 10
35.0
 20
12.5
 30
0.0
 11
35.5
 21
12.0
 31
0.0
  0
LINE
  8
0
  6
CONTINUOUS
 10
35.0
 20
12.5
 30
0.0
 11
35.5
 21
13.0
 31
0.0
  0
LINE
  8
0
  6
CONTINUOUS
 10
30.0
 20
12.5
 30
0.0
 11
29.5
 21
12.0
 31
0.0
  0
LINE
  8
0
  6
CONTINUOUS
 10
30.0
 20
12.5
 30
0.0
 11
30.5
 21
13.0
 31
0.0
  0
LINE
  8
0
  6
CONTINUOUS
 10
30.0
 20
12.5
 30
0.0
 11
30.5
 21
12.0
 31
0.0
  0
LINE
  8
0
  6
CONTINUOUS
 10
30.0
 20
12.5
 30
0.0
 11
29.5
 21
13.0
 31
0.0
  0
LINE
  8
0
  6
CONTINUOUS
 10
40.0
 20
5.0
 30
0.0
 11
37.5
 21
12.5
 31
0.0
  0
LINE
  8
0
  6
CONTINUOUS
 10
35.0
 20
5.0
 30
0.0
 11
32.5
 21
12.5
 31
0.0
  0
LINE
  8
0
  6
CONTINUOUS
 10
30.0
 20
5.0
 30
0.0
 11
27.5
 21
12.5
 31
0.0
  0
INSERT
  8
0
  6
CONTINUOUS
  2
BLC27
 10
36.51227
 20
-22.38157
 30
0.0
 50
180.0
  0
LINE
  8
0
  6
DASHED
 10
30.0
 20
25.0
 30
0.0
 11
30.0
 21
40.0
 31
0.0
  0
LINE
  8
0
  6
DASHED
 10
35.0
 20
25.0
 30
0.0
 11
35.0
 21
32.5
 31
0.0
  0
LINE
  8
0
  6
DASHED
 10
40.0
 20
5.0
 30
0.0
 11
40.0
 21
-27.5
 31
0.0
  0
LINE
  8
0
  6
DASHED
 10
40.0
 20
30.0
 30
0.0
 11
40.0
 21
12.5
 31
0.0
  0
LINE
  8
0
  6
DASHED
 10
35.0
 20
5.0
 30
0.0
 11
35.0
 21
-27.5
 31
0.0
  0
LINE
  8
0
  6
DASHED
 10
35.0
 20
35.0
 30
0.0
 11
35.0
 21
12.5
 31
0.0
  0
LINE
  8
0
  6
DASHED
 10
30.0
 20
12.5
 30
0.0
 11
30.0
 21
25.0
 31
0.0
  0
LINE
  8
0
  6
DASHED
 10
30.0
 20
5.0
 30
0.0
 11
30.0
 21
-27.5
 31
0.0
  0
INSERT
  8
0
  6
CONTINUOUS
  2
BLC27
 10
31.491154
 20
-2.381567
 30
0.0
 50
180.0
  0
INSERT
  8
0
  6
CONTINUOUS
  2
BLC15
 10
24.857916
 20
-55.0
 30
0.0
  0
LINE
  8
0
  6
DASHED
 10
40.0
 20
-27.5
 30
0.0
 11
40.0
 21
-52.5
 31
0.0
  0
LINE
  8
0
  6
DASHED
 10
35.0
 20
-27.5
 30
0.0
 11
35.0
 21
-52.5
 31
0.0
  0
LINE
  8
0
  6
DASHED
 10
30.0
 20
-27.5
 30
0.0
 11
30.0
 21
-52.5
 31
0.0
  0
LINE
  8
0
  6
DASHED
 10
35.069797
 20
-24.810016
 30
0.0
 11
25.0
 21
-24.810016
 31
0.0
  0
LINE
  8
0
  6
DASHED
 10
40.006921
 20
-44.810016
 30
0.0
 11
25.0
 21
-44.810016
 31
0.0
  0
LINE
  8
0
  6
DASHED
 10
10.0
 20
-10.0
 30
0.0
 11
10.0
 21
-50.0
 31
0.0
  0
LINE
  8
0
  6
DASHED
 10
25.0
 20
-4.810008
 30
0.0
 11
25.0
 21
-52.5
 31
0.0
  0
LINE
  8
0
  6
DASHED
 10
30.0
 20
0.0
 30
0.0
 11
5.0
 21
0.0
 31
0.0
  0
LINE
  8
0
  6
DASHED
 10
35.0
 20
-20.0
 30
0.0
 11
5.0
 21
-20.0
 31
0.0
  0
LINE
  8
0
  6
DASHED
 10
40.0
 20
-40.0
 30
0.0
 11
5.0
 21
-40.0
 31
0.0
  0
INSERT
  8
0
  6
CONTINUOUS
  2
BLC27
 10
55.965932
 20
15.071549
 30
0.0
  0
INSERT
  8
0
  6
CONTINUOUS
  2
BLC27
 10
63.465932
 20
15.071549
 30
0.0
  0
LINE
  8
0
  6
DASHED
 10
57.5
 20
17.5
 30
0.0
 11
57.5
 21
40.0
 31
0.0
  0
LINE
  8
0
  6
DASHED
 10
65.0
 20
17.5
 30
0.0
 11
65.0
 21
35.0
 31
0.0
  0
LINE
  8
0
  6
CONTINUOUS
 10
57.5
 20
2.68998
 30
0.0
 11
57.5
 21
0.0
 31
0.0
  0
LINE
  8
0
  6
CONTINUOUS
 10
65.0
 20
2.68998
 30
0.0
 11
65.0
 21
0.0
 31
0.0
  0
ARC
  8
0
  6
CONTINUOUS
 10
63.364862
 20
6.296095
 30
0.0
 40
1.204309
 50
90.0
 51
265.706237
  0
LINE
  8
0
  6
CONTINUOUS
 10
63.358762
 20
5.098547
 30
0.0
 11
64.00836
 21
5.098547
 31
0.0
  0
LINE
  8
0
  6
CONTINUOUS
 10
63.358762
 20
7.499993
 30
0.0
 11
64.002261
 21
7.499993
 31
0.0
  0
LINE
  8
0
  6
CONTINUOUS
 10
63.359898
 20
2.689937
 30
0.0
 11
64.009496
 21
2.689937
 31
0.0
  0
ARC
  8
0
  6
CONTINUOUS
 10
63.364862
 20
3.894238
 30
0.0
 40
1.204309
 50
90.0
 51
270.0
  0
LINE
  8
0
  6
CONTINUOUS
 10
64.000897
 20
2.68998
 30
0.0
 11
65.0
 21
2.68998
 31
0.0
  0
LINE
  8
0
  6
CONTINUOUS
 10
63.996128
 20
7.499996
 30
0.0
 11
64.973936
 21
7.499996
 31
0.0
  0
LINE
  8
0
  6
CONTINUOUS
 10
64.006031
 20
5.098556
 30
0.0
 11
64.978167
 21
5.098556
 31
0.0
  0
ARC
  8
0
  6
CONTINUOUS
 10
55.864862
 20
6.296095
 30
0.0
 40
1.204309
 50
90.0
 51
265.706237
  0
LINE
  8
0
  6
CONTINUOUS
 10
55.858762
 20
5.098547
 30
0.0
 11
56.50836
 21
5.098547
 31
0.0
  0
LINE
  8
0
  6
CONTINUOUS
 10
55.858762
 20
7.499993
 30
0.0
 11
56.502261
 21
7.499993
 31
0.0
  0
LINE
  8
0
  6
CONTINUOUS
 10
55.859898
 20
2.689937
 30
0.0
 11
56.509496
 21
2.689937
 31
0.0
  0
ARC
  8
0
  6
CONTINUOUS
 10
55.864862
 20
3.894238
 30
0.0
 40
1.204309
 50
90.0
 51
270.0
  0
LINE
  8
0
  6
CONTINUOUS
 10
56.500897
 20
2.68998
 30
0.0
 11
57.5
 21
2.68998
 31
0.0
  0
LINE
  8
0
  6
CONTINUOUS
 10
56.496128
 20
7.499996
 30
0.0
 11
57.473936
 21
7.499996
 31
0.0
  0
LINE
  8
0
  6
CONTINUOUS
 10
56.506031
 20
5.098556
 30
0.0
 11
57.478167
 21
5.098556
 31
0.0
  0
LINE
  8
0
  6
CONTINUOUS
 10
65.0
 20
0.0
 30
0.0
 11
62.5
 21
0.0
 31
0.0
  0
LINE
  8
0
  6
CONTINUOUS
 10
62.5
 20
0.0
 30
0.0
 11
57.5
 21
7.5
 31
0.0
  0
LINE
  8
0
  6
DASHED
 10
5.0
 20
-67.5
 30
0.0
 11
65.0
 21
-67.5
 31
0.0
  0
LINE
  8
0
  6
DASHED
 10
65.0
 20
-67.5
 30
0.0
 11
65.0
 21
-12.5
 31
0.0
  0
LINE
  8
0
  6
DASHED
 10
57.5
 20
-77.5
 30
0.0
 11
57.5
 21
0.0
 31
0.0
  0
LINE
  8
0
  6
CONTINUOUS
 10
5.0
 20
0.3468
 30
0.0
 11
4.0
 21
1.3468
 31
0.0
  0
LINE
  8
0
  6
CONTINUOUS
 10
5.0
 20
-5.33813
 30
0.0
 11
4.0
 21
-6.33813
 31
0.0
  0
LINE
  8
0
  6
CONTINUOUS
 10
5.0
 20
0.3468
 30
0.0
 11
5.0
 21
-5.33813
 31
0.0
  0
LINE
  8
0
  6
CONTINUOUS
 10
5.0
 20
-19.6532
 30
0.0
 11
5.0
 21
-25.33813
 31
0.0
  0
LINE
  8
0
  6
CONTINUOUS
 10
5.0
 20
-25.33813
 30
0.0
 11
4.0
 21
-26.33813
 31
0.0
  0
LINE
  8
0
  6
CONTINUOUS
 10
5.0
 20
-19.6532
 30
0.0
 11
4.0
 21
-18.6532
 31
0.0
  0
LINE
  8
0
  6
CONTINUOUS
 10
5.0
 20
-39.6532
 30
0.0
 11
4.0
 21
-38.6532
 31
0.0
  0
LINE
  8
0
  6
CONTINUOUS
 10
5.0
 20
-45.33813
 30
0.0
 11
4.0
 21
-46.33813
 31
0.0
  0
LINE
  8
0
  6
CONTINUOUS
 10
5.0
 20
-39.6532
 30
0.0
 11
5.0
 21
-45.33813
 31
0.0
  0
LINE
  8
0
  6
CONTINUOUS
 10
5.0
 20
-67.1532
 30
0.0
 11
4.0
 21
-66.1532
 31
0.0
  0
LINE
  8
0
  6
CONTINUOUS
 10
5.0
 20
-72.83813
 30
0.0
 11
4.0
 21
-73.83813
 31
0.0
  0
LINE
  8
0
  6
CONTINUOUS
 10
5.0
 20
-67.1532
 30
0.0
 11
5.0
 21
-72.83813
 31
0.0
  0
TEXT
  8
0
  6
CONTINUOUS
 10
98.489055
 20
-44.575801
 30
0.0
 40
2.0
  1
ENHET
  7
GREEKS
  0
TEXT
  8
0
  6
CONTINUOUS
 10
98.489055
 20
-41.242468
 30
0.0
 40
2.0
  1
SKYDDS- OCH KONTROLL-
  7
ROMANS
  0
TEXT
  8
0
  6
CONTINUOUS
 10
98.489055
 20
-37.909135
 30
0.0
 40
2.0
  1
AND CONTROL UNIT
  7
ROMANS
  0
TEXT
  8
0
  6
CONTINUOUS
 10
98.489055
 20
-34.575801
 30
0.0
 40
2.0
  1
FEEDER PROTECTION
  7
ROMANS
  0
TEXT
  8
0
  6
CONTINUOUS
 10
111.987037
 20
-25.90956
 30
0.0
 40
2.0
  1
x
  7
GREEKS
  0
TEXT
  8
0
  6
CONTINUOUS
 10
108.595465
 20
-25.887529
 30
0.0
 40
2.5
  1
n
  7
GREEKS
  0
LINE
  8
0
  6
CONTINUOUS
 10
114.704623
 20
-24.397775
 30
0.0
 11
114.704623
 21
-26.185906
 31
0.0
  0
LINE
  8
0
  6
CONTINUOUS
 10
114.735654
 20
-25.243053
 30
0.0
 11
122.523859
 21
-25.243053
 31
0.0
  0
LINE
  8
0
  6
CONTINUOUS
 10
117.119799
 20
-26.410656
 30
0.0
 11
119.99591
 21
-23.582097
 31
0.0
  0
LINE
  8
0
  6
CONTINUOUS
 10
119.565206
 20
-23.04489
 30
0.0
 11
120.465883
 21
-24.168639
 31
0.0
  0
LINE
  8
0
  6
CONTINUOUS
 10
122.519318
 20
-24.397775
 30
0.0
 11
122.519318
 21
-26.185906
 31
0.0
  0
LINE
  8
0
  6
CONTINUOUS
 10
105.727984
 20
-27.5
 30
0.0
 11
125.727984
 21
-27.5
 31
0.0
  0
LINE
  8
0
  6
CONTINUOUS
 10
119.142955
 20
-14.032537
 30
0.0
 11
119.142955
 21
-15.820668
 31
0.0
  0
LINE
  8
0
  6
CONTINUOUS
 10
116.188843
 20
-12.679652
 30
0.0
 11
117.08952
 21
-13.803401
 31
0.0
  0
LINE
  8
0
  6
CONTINUOUS
 10
113.743436
 20
-16.045418
 30
0.0
 11
116.619546
 21
-13.216859
 31
0.0
  0
LINE
  8
0
  6
CONTINUOUS
 10
111.359291
 20
-14.877815
 30
0.0
 11
119.147496
 21
-14.877815
 31
0.0
  0
LINE
  8
0
  6
CONTINUOUS
 10
111.32826
 20
-14.032537
 30
0.0
 11
111.32826
 21
-15.820668
 31
0.0
  0
TEXT
  8
0
  6
HIDDEN
 10
111.545981
 20
-11.270451
 30
0.0
 40
2.5
  1
3U
  7
GREEKS
  0
LINE
  8
0
  6
CONTINUOUS
 10
116.487613
 20
-9.983677
 30
0.0
 11
118.833378
 21
-8.793758
 31
0.0
  0
LINE
  8
0
  6
CONTINUOUS
 10
118.833378
 20
-11.319031
 30
0.0
 11
116.487613
 21
-9.983677
 31
0.0
  0
LINE
  8
0
  6
CONTINUOUS
 10
119.142955
 20
-4.294116
 30
0.0
 11
119.142955
 21
-6.082247
 31
0.0
  0
LINE
  8
0
  6
CONTINUOUS
 10
113.743436
 20
-6.306997
 30
0.0
 11
116.619546
 21
-3.478438
 31
0.0
  0
ARC
  8
0
  6
HIDDEN
 10
118.054159
 20
-1.21085
 30
0.0
 40
4.998196
 50
206.402922
 51
282.21115
  0
LINE
  8
0
  6
CONTINUOUS
 10
116.188843
 20
-2.941231
 30
0.0
 11
117.08952
 21
-4.06498
 31
0.0
  0
LINE
  8
0
  6
CONTINUOUS
 10
111.359291
 20
-5.139394
 30
0.0
 11
119.147496
 21
-5.139394
 31
0.0
  0
LINE
  8
0
  6
CONTINUOUS
 10
111.32826
 20
-4.294116
 30
0.0
 11
111.32826
 21
-6.082247
 31
0.0
  0
LINE
  8
0
  6
CONTINUOUS
 10
116.775462
 20
1.247257
 30
0.0
 11
119.121227
 21
-0.088096
 31
0.0
  0
LINE
  8
0
  6
CONTINUOUS
 10
119.121227
 20
-0.088096
 30
0.0
 11
116.775462
 21
-1.278015
 31
0.0
  0
TEXT
  8
0
  6
HIDDEN
 10
111.545981
 20
-1.356833
 30
0.0
 40
2.5
  1
3U
  7
GREEKS
  0
LINE
  8
0
  6
CONTINUOUS
 10
121.671449
 20
9.517098
 30
0.0
 11
119.325684
 21
8.327179
 31
0.0
  0
LINE
  8
0
  6
CONTINUOUS
 10
119.325684
 20
10.852451
 30
0.0
 11
121.671449
 21
9.517098
 31
0.0
  0
LINE
  8
0
  6
CONTINUOUS
 10
116.990013
 20
10.852451
 30
0.0
 11
119.335779
 21
9.517098
 31
0.0
  0
LINE
  8
0
  6
CONTINUOUS
 10
119.335779
 20
9.517098
 30
0.0
 11
116.990013
 21
8.327179
 31
0.0
  0
TEXT
  8
0
  6
HIDDEN
 10
111.558214
 20
8.379447
 30
0.0
 40
2.5
  1
U
  7
GREEKS
  0
TEXT
  8
0
  6
HIDDEN
 10
111.558214
 20
18.469307
 30
0.0
 40
2.5
  1
U
  7
GREEKS
  0
LINE
  8
0
  6
CONTINUOUS
 10
119.657866
 20
19.5256
 30
0.0
 11
117.3121
 21
18.335681
 31
0.0
  0
LINE
  8
0
  6
CONTINUOUS
 10
117.3121
 20
20.860954
 30
0.0
 11
119.657866
 21
19.5256
 31
0.0
  0
LINE
  8
0
  6
CONTINUOUS
 10
117.678973
 20
-20.703819
 30
0.0
 11
116.430299
 21
-21.337224
 31
0.0
  0
LINE
  8
0
  6
CONTINUOUS
 10
116.430299
 20
-19.992997
 30
0.0
 11
117.678973
 21
-20.703819
 31
0.0
  0
TEXT
  8
0
  6
DASHED
 10
112.171343
 20
38.268474
 30
0.0
 40
2.5
  1
3I
  0
LINE
  8
0
  6
CONTINUOUS
 10
116.578563
 20
40.816754
 30
0.0
 11
118.924329
 21
39.4814
 31
0.0
  0
LINE
  8
0
  6
CONTINUOUS
 10
118.924329
 20
39.4814
 30
0.0
 11
116.578563
 21
38.291481
 31
0.0
  0
LINE
  8
0
  6
CONTINUOUS
 10
111.32826
 20
35.206143
 30
0.0
 11
111.32826
 21
33.418012
 31
0.0
  0
LINE
  8
0
  6
CONTINUOUS
 10
111.359291
 20
34.360865
 30
0.0
 11
119.147496
 21
34.360865
 31
0.0
  0
LINE
  8
0
  6
CONTINUOUS
 10
116.188843
 20
36.559027
 30
0.0
 11
117.08952
 21
35.435278
 31
0.0
  0
ARC
  8
0
  6
HIDDEN
 10
118.054159
 20
38.289409
 30
0.0
 40
4.998196
 50
206.402922
 51
282.21115
  0
LINE
  8
0
  6
CONTINUOUS
 10
113.743436
 20
33.193262
 30
0.0
 11
116.619546
 21
36.021821
 31
0.0
  0
LINE
  8
0
  6
CONTINUOUS
 10
119.142955
 20
35.206143
 30
0.0
 11
119.142955
 21
33.418012
 31
0.0
  0
TEXT
  8
0
  6
DASHED
 10
112.171343
 20
28.282752
 30
0.0
 40
2.5
  1
3I
  0
LINE
  8
0
  6
CONTINUOUS
 10
119.166854
 20
29.50956
 30
0.0
 11
116.821088
 21
28.319641
 31
0.0
  0
LINE
  8
0
  6
CONTINUOUS
 10
116.821088
 20
30.844914
 30
0.0
 11
119.166854
 21
29.50956
 31
0.0
  0
LINE
  8
0
  6
CONTINUOUS
 10
119.045497
 20
30.844914
 30
0.0
 11
121.391263
 21
29.50956
 31
0.0
  0
LINE
  8
0
  6
CONTINUOUS
 10
121.391263
 20
29.50956
 30
0.0
 11
119.045497
 21
28.319641
 31
0.0
  0
LINE
  8
0
  6
CONTINUOUS
 10
111.32826
 20
5.783684
 30
0.0
 11
111.32826
 21
3.995552
 31
0.0
  0
LINE
  8
0
  6
CONTINUOUS
 10
111.359291
 20
4.938405
 30
0.0
 11
119.147496
 21
4.938405
 31
0.0
  0
LINE
  8
0
  6
CONTINUOUS
 10
113.743436
 20
3.770802
 30
0.0
 11
116.619546
 21
6.599361
 31
0.0
  0
LINE
  8
0
  6
CONTINUOUS
 10
116.188843
 20
7.136568
 30
0.0
 11
117.08952
 21
6.012819
 31
0.0
  0
LINE
  8
0
  6
CONTINUOUS
 10
119.142955
 20
5.783684
 30
0.0
 11
119.142955
 21
3.995552
 31
0.0
  0
LINE
  8
0
  6
CONTINUOUS
 10
119.142955
 20
25.552173
 30
0.0
 11
119.142955
 21
23.764041
 31
0.0
  0
LINE
  8
0
  6
CONTINUOUS
 10
116.188843
 20
26.905057
 30
0.0
 11
117.08952
 21
25.781308
 31
0.0
  0
LINE
  8
0
  6
CONTINUOUS
 10
113.743436
 20
23.539291
 30
0.0
 11
116.619546
 21
26.36785
 31
0.0
  0
LINE
  8
0
  6
CONTINUOUS
 10
111.359291
 20
24.706894
 30
0.0
 11
119.147496
 21
24.706894
 31
0.0
  0
LINE
  8
0
  6
CONTINUOUS
 10
111.32826
 20
25.552173
 30
0.0
 11
111.32826
 21
23.764041
 31
0.0
  0
LINE
  8
0
  6
CONTINUOUS
 10
105.727984
 20
22.5
 30
0.0
 11
125.727984
 21
22.5
 31
0.0
  0
LINE
  8
0
  6
CONTINUOUS
 10
105.727984
 20
42.5
 30
0.0
 11
125.727984
 21
42.5
 31
0.0
  0
LINE
  8
0
  6
CONTINUOUS
 10
125.727984
 20
42.5
 30
0.0
 11
125.727984
 21
0.0
 31
0.0
  0
LINE
  8
0
  6
CONTINUOUS
 10
125.727984
 20
2.5
 30
0.0
 11
105.727984
 21
2.5
 31
0.0
  0
LINE
  8
0
  6
CONTINUOUS
 10
105.727984
 20
0.0
 30
0.0
 11
105.727984
 21
42.5
 31
0.0
  0
LINE
  8
0
  6
CONTINUOUS
 10
111.32826
 20
15.072213
 30
0.0
 11
111.32826
 21
13.284082
 31
0.0
  0
LINE
  8
0
  6
CONTINUOUS
 10
111.359291
 20
14.226935
 30
0.0
 11
119.147496
 21
14.226935
 31
0.0
  0
LINE
  8
0
  6
CONTINUOUS
 10
113.743436
 20
13.059332
 30
0.0
 11
116.619546
 21
15.887891
 31
0.0
  0
LINE
  8
0
  6
CONTINUOUS
 10
116.188843
 20
16.425098
 30
0.0
 11
117.08952
 21
15.301349
 31
0.0
  0
LINE
  8
0
  6
CONTINUOUS
 10
119.142955
 20
15.072213
 30
0.0
 11
119.142955
 21
13.284082
 31
0.0
  0
TEXT
  8
0
  6
CONTINUOUS
 10
117.831775
 20
-21.624696
 30
0.0
 40
2.0
  1
I
  0
TEXT
  8
0
  6
CONTINUOUS
 10
111.308659
 20
-21.620445
 30
0.0
 40
2.0
  1
O
  0
LINE
  8
0
  6
CONTINUOUS
 10
113.185823
 20
-20.703819
 30
0.0
 11
117.678973
 21
-20.703819
 31
0.0
  0
LINE
  8
0
  6
CONTINUOUS
 10
105.727984
 20
0.0
 30
0.0
 11
105.727984
 21
-27.5
 31
0.0
  0
LINE
  8
0
  6
CONTINUOUS
 10
105.727984
 20
-17.5
 30
0.0
 11
125.727984
 21
-17.5
 31
0.0
  0
LINE
  8
0
  6
CONTINUOUS
 10
125.727984
 20
-27.5
 30
0.0
 11
125.727984
 21
0.0
 31
0.0
  0
LINE
  8
0
  6
DASHED
 10
0.0
 20
-10.0
 30
0.0
 11
10.0
 21
-10.0
 31
0.0
  0
LINE
  8
0
  6
DASHED
 10
0.0
 20
-50.0
 30
0.0
 11
25.0
 21
-50.0
 31
0.0
  0
LINE
  8
0
  6
DASHED
 10
0.0
 20
-77.5
 30
0.0
 11
57.5
 21
-77.5
 31
0.0
  0
POLYLINE
  8
0
  6
CONTINUOUS
 66
     1
 10
0.0
 20
0.0
 30
0.0
 70
     1
 40
0.5
 41
0.5
  0
VERTEX
  8
0
  6
CONTINUOUS
 10
12.0
 20
-135.0
 30
0.0
 42
1.0
  0
VERTEX
  8
0
  6
CONTINUOUS
 10
13.0
 20
-135.0
 30
0.0
 42
1.0
  0
SEQEND
  8
0
  6
CONTINUOUS
  0
TEXT
  8
0
  6
DASHED
 10
6.456534
 20
-134.210047
 30
0.0
 40
2.0
  1
1)
  7
ROMANS
  0
LINE
  8
0
  6
DASHED
 10
5.0
 20
-135.0
 30
0.0
 11
47.5
 21
-135.0
 31
0.0
  0
LINE
  8
0
  6
DASHED
 10
12.5
 20
-125.0
 30
0.0
 11
12.5
 21
-135.0
 31
0.0
  0
LINE
  8
0
  6
DASHED
 10
47.5
 20
-120.0
 30
0.0
 11
47.5
 21
-135.0
 31
0.0
  0
LINE
  8
0
  6
CONTINUOUS
 10
5.0
 20
-134.6532
 30
0.0
 11
5.0
 21
-140.33813
 31
0.0
  0
LINE
  8
0
  6
CONTINUOUS
 10
5.0
 20
-140.33813
 30
0.0
 11
4.0
 21
-141.33813
 31
0.0
  0
LINE
  8
0
  6
CONTINUOUS
 10
5.0
 20
-134.6532
 30
0.0
 11
4.0
 21
-133.6532
 31
0.0
  0
LINE
  8
0
  6
DASHED
 10
0.0
 20
-145.0
 30
0.0
 11
17.5
 21
-145.0
 31
0.0
  0
LINE
  8
0
  6
DASHED
 10
17.5
 20
-95.0
 30
0.0
 11
17.5
 21
-145.0
 31
0.0
  0
LINE
  8
0
  6
DASHED
 10
0.0
 20
-125.0
 30
0.0
 11
12.5
 21
-125.0
 31
0.0
  0
LINE
  8
0
  6
DASHED
 10
0.0
 20
-105.0
 30
0.0
 11
12.5
 21
-105.0
 31
0.0
  0
ENDBLK
  8
0
  0
BLOCK
  8
0
  2
902
 70
    64
 10
0.0
 20
0.0
 30
0.0
  3
902
  0
TEXT
  8
0
  6
CONTINUOUS
 10
69.68879
 20
-13.915862
 30
0.0
 40
2.0
  1
  SIGNALUTGÅNG
  7
ROMANS
  0
TEXT
  8
0
  6
CONTINUOUS
 10
68.350637
 20
-10.582529
 30
0.0
 40
2.0
  1
5) ALARM OUTPUT /
  7
ROMANS
  0
TEXT
  8
0
  6
CONTINUOUS
 10
0.684733
 20
-22.955674
 30
0.0
 40
2.0
  1
  UTLÖSNING 2 ELLER SIGNALUTGÅNG
  7
ROMANS
  0
TEXT
  8
0
  6
CONTINUOUS
 10
-0.639066
 20
-19.62234
 30
0.0
 40
2.0
  1
4) TRIP 2 OR ALARM OUTPUT /
  7
ROMANS
  0
TEXT
  8
0
  6
CONTINUOUS
 10
0.699949
 20
-13.780885
 30
0.0
 40
2.0
  1
  UTLÖSNING 1
  7
ROMANS
  0
TEXT
  8
0
  6
CONTINUOUS
 10
-0.639066
 20
-10.447552
 30
0.0
 40
2.0
  1
3) TRIP 1 /
  7
ROMANS
  0
TEXT
  8
0
  6
CONTINUOUS
 10
0.699949
 20
-4.614219
 30
0.0
 40
2.0
  1
  BLOCKERING IN
  7
ROMANS
  0
TEXT
  8
0
  6
CONTINUOUS
 10
-0.639066
 20
-1.280885
 30
0.0
 40
2.0
  1
2) BLOCKING INPUT /
  7
ROMANS
  0
TEXT
  8
0
  6
CONTINUOUS
 10
69.689015
 20
-22.972812
 30
0.0
 40
2.0
  1
  START, BLOCKERING MM.
  7
ROMANS
  0
TEXT
  8
0
  6
CONTINUOUS
 10
68.350637
 20
-19.639479
 30
0.0
 40
2.0
  1
6) START, BLOCKING ETC.
  7
ROMANS
  0
ENDBLK
  8
0
  0
BLOCK
  8
0
  2
906
 70
     0
 10
0.0
 20
0.0
 30
0.0
  3
906
  0
TEXT
  8
0
  6
CONTINUOUS
 10
46.02375
 20
1.911123
 30
0.0
 40
2.0
  1
CH 17
 50
90.0
  7
ROMANS
  0
TEXT
  8
0
  6
CONTINUOUS
 10
31.329545
 20
1.911123
 30
0.0
 40
2.0
  1
CH 16
 50
90.0
  7
ROMANS
  0
TEXT
  8
0
  6
CONTINUOUS
 10
16.467748
 20
1.911123
 30
0.0
 40
2.0
  1
CH 15
 50
90.0
  7
ROMANS
  0
TEXT
  8
0
  6
CONTINUOUS
 10
3.796617
 20
1.911123
 30
0.0
 40
2.0
  1
AR INH
 50
90.0
  7
ROMANS
  0
ENDBLK
  8
0
  0
ENDSEC
  0
SECTION
  2
ENTITIES
  0
INSERT
  8
0
  2
1
 10
65.405438
 20
98.713066
 30
0.0
  0
INSERT
  8
0
  2
1
 10
72.541652
 20
49.71056
 30
0.0
  0
INSERT
  8
0
  2
1
 10
85.390443
 20
73.497234
 30
0.0
  0
LINE
  8
0
  6
CONTINUOUS
 62
   249
 10
57.5
 20
130.0
 30
0.0
 11
51.756076
 21
126.785297
 31
0.0
  0
LINE
  8
0
  6
CONTINUOUS
 62
   249
 10
75.0
 20
120.0
 30
0.0
 11
69.256076
 21
116.785297
 31
0.0
  0
LINE
  8
0
  6
CONTINUOUS
 62
   249
 10
75.0
 20
120.0
 30
0.0
 11
77.5
 21
120.0
 31
0.0
  0
LINE
  8
0
  6
CONTINUOUS
 62
   249
 10
70.0
 20
120.0
 30
0.0
 11
40.0
 21
120.0
 31
0.0
  0
TEXT
  8
0
  6
DASHED
 62
   249
 10
50.697373
 20
130.903492
 30
0.0
 40
2.0
  1
A
  7
ROMANS
  0
TEXT
  8
0
  6
DASHED
 62
   249
 10
69.143373
 20
121.274588
 30
0.0
 40
2.0
  1
B
  7
ROMANS
  0
TEXT
  8
0
  6
DASHED
 62
   249
 10
81.055109
 20
105.634364
 30
0.0
 40
2.0
  1
C
  7
ROMANS
  0
TEXT
  8
0
  6
DASHED
 62
   249
 10
93.484014
 20
90.755752
 30
0.0
 40
2.0
  1
D
  7
ROMANS
  0
LINE
  8
0
  6
CONTINUOUS
 62
   249
 10
230.0
 20
157.182252
 30
0.0
 11
231.0
 21
156.182252
 31
0.0
  0
LINE
  8
0
  6
CONTINUOUS
 62
   249
 10
230.0
 20
207.297548
 30
0.0
 11
231.0
 21
208.297548
 31
0.0
  0
LINE
  8
0
  6
CONTINUOUS
 62
   249
 10
230.0
 20
207.297548
 30
0.0
 11
230.0
 21
157.182252
 31
0.0
  0
LINE
  8
0
  6
CONTINUOUS
 62
   249
 10
6.733734
 20
105.0
 30
0.0
 11
6.733734
 21
94.999655
 31
0.0
  0
LINE
  8
0
  6
CONTINUOUS
 62
   249
 10
6.733734
 20
105.0
 30
0.0
 11
7.733734
 21
106.0
 31
0.0
  0
LINE
  8
0
  6
CONTINUOUS
 62
   249
 10
6.733734
 20
94.999655
 30
0.0
 11
7.733734
 21
93.999655
 31
0.0
  0
TEXT
  8
0
  6
CONTINUOUS
 62
   249
 10
2.368396
 20
126.589844
 30
0.0
 40
2.0
  1
3)
  7
ROMANS
  0
LINE
  8
0
  6
CONTINUOUS
 62
   249
 10
222.5
 20
92.5
 30
0.0
 11
230.0
 21
92.5
 31
0.0
  0
LINE
  8
0
  6
CONTINUOUS
 62
   249
 10
217.5
 20
200.0
 30
0.0
 11
217.5
 21
57.5
 31
0.0
  0
LINE
  8
0
  6
CONTINUOUS
 62
   249
 10
230.0
 20
182.5
 30
0.0
 11
217.5
 21
182.5
 31
0.0
  0
LINE
  8
0
  6
CONTINUOUS
 62
   249
 10
40.0
 20
212.5
 30
0.0
 11
17.5
 21
212.5
 31
0.0
  0
LINE
  8
0
  6
CONTINUOUS
 62
   249
 10
40.0
 20
207.5
 30
0.0
 11
17.5
 21
207.5
 31
0.0
  0
LINE
  8
0
  6
CONTINUOUS
 62
   249
 10
6.700619
 20
207.499655
 30
0.0
 11
7.700619
 21
206.499655
 31
0.0
  0
LINE
  8
0
  6
CONTINUOUS
 62
   249
 10
6.700619
 20
220.0
 30
0.0
 11
7.700619
 21
221.0
 31
0.0
  0
LINE
  8
0
  6
CONTINUOUS
 62
   249
 10
6.700619
 20
220.0
 30
0.0
 11
6.700619
 21
207.499655
 31
0.0
  0
LINE
  8
0
  6
CONTINUOUS
 62
   249
 10
6.733734
 20
90.0
 30
0.0
 11
7.733734
 21
91.0
 31
0.0
  0
LINE
  8
0
  6
CONTINUOUS
 62
   249
 10
6.733734
 20
79.519667
 30
0.0
 11
7.733734
 21
78.519667
 31
0.0
  0
LINE
  8
0
  6
CONTINUOUS
 62
   249
 10
6.733734
 20
90.0
 30
0.0
 11
6.733734
 21
79.519667
 31
0.0
  0
LINE
  8
0
 62
   249
 10
0.237099
 20
0.237999
 30
0.0
 11
0.237099
 21
262.737999
 31
0.0
  0
LINE
  8
0
 62
   249
 10
392.237099
 20
262.737999
 30
0.0
 11
392.237099
 21
0.237999
 31
0.0
  0
LINE
  8
0
 62
   249
 10
0.237099
 20
0.237999
 30
0.0
 11
392.237099
 21
0.237999
 31
0.0
  0
TEXT
  8
0
 62
   249
 10
42.237099
 20
5.587508
 30
0.0
 40
2.5
  1
C
  7
ROMANS
  0
TEXT
  8
0
 62
   249
 10
42.237099
 20
1.195292
 30
0.0
 40
2.5
  1
B
  7
ROMANS
  0
TEXT
  8
0
 62
   249
 10
257.407006
 20
1.741783
 30
0.0
 40
3.0
  1
Power
 41
0.8
  7
ROMANS
  0
TEXT
  8
0
 62
   249
 10
273.237099
 20
7.237999
 30
0.0
 40
1.4
  1
VAST.OSASTO RESP.DEPT.
  7
ROMANS
  0
TEXT
  8
0
 62
   249
 10
210.237099
 20
32.237999
 30
0.0
 40
1.4
  1
TEKI  PREPARED
  7
ROMANS
  0
LINE
  8
0
 62
   249
 10
271.237099
 20
9.737999
 30
0.0
 11
271.237099
 21
0.237999
 31
0.0
  0
LINE
  8
0
 62
   249
 10
257.237099
 20
9.737999
 30
0.0
 11
257.237099
 21
35.237999
 31
0.0
  0
LINE
  8
0
 62
   249
 10
40.737099
 20
4.737999
 30
0.0
 11
209.237099
 21
4.737999
 31
0.0
  0
LINE
  8
0
 62
   249
 10
46.737099
 20
0.237999
 30
0.0
 11
46.737099
 21
9.237999
 31
0.0
  0
LINE
  8
0
 62
   249
 10
46.737099
 20
9.237999
 30
0.0
 11
209.237099
 21
9.237999
 31
0.0
  0
TEXT
  8
0
 62
   249
 10
27.737099
 20
2.471333
 30
0.0
 40
1.4
  1
REVISION
  7
ROMANS
  0
TEXT
  8
0
 62
   249
 10
27.737099
 20
4.737999
 30
0.0
 40
1.4
  1
MUUTOS
  7
ROMANS
  0
LINE
  8
0
 62
   249
 10
282.237099
 20
9.737999
 30
0.0
 11
282.237099
 21
18.237999
 31
0.0
  0
TEXT
  8
0
 62
   249
 10
237.737099
 20
1.737999
 30
0.0
 40
3.0
  1
Strömberg
 41
0.8
  7
ROMANS
  0
TEXT
  8
0
 62
   249
 10
229.737099
 20
1.737999
 30
0.0
 40
3.0
  1
ABB 
 41
0.8
  7
ROMANS
  0
LINE
  8
0
 62
   249
 10
223.137099
 20
1.737999
 30
0.0
 11
223.137099
 21
5.097999
 31
0.0
  0
LINE
  8
0
 62
   249
 10
223.137099
 20
8.737999
 30
0.0
 11
225.097099
 21
8.737999
 31
0.0
  0
LINE
  8
0
 62
   249
 10
225.097099
 20
8.737999
 30
0.0
 11
225.097099
 21
5.377999
 31
0.0
  0
LINE
  8
0
 62
   249
 10
225.097099
 20
5.377999
 30
0.0
 11
223.137099
 21
5.377999
 31
0.0
  0
LINE
  8
0
 62
   249
 10
223.137099
 20
5.097999
 30
0.0
 11
225.097099
 21
5.097999
 31
0.0
  0
LINE
  8
0
 62
   249
 10
225.097099
 20
5.097999
 30
0.0
 11
225.097099
 21
1.737999
 31
0.0
  0
LINE
  8
0
 62
   249
 10
225.097099
 20
1.737999
 30
0.0
 11
223.137099
 21
1.737999
 31
0.0
  0
LINE
  8
0
 62
   249
 10
223.137099
 20
5.377999
 30
0.0
 11
223.137099
 21
8.737999
 31
0.0
  0
ARC
  8
0
 62
   249
 10
225.937099
 20
7.162999
 30
0.0
 40
1.575
 50
298.455859
 51
90.052437
  0
LINE
  8
0
 62
   249
 10
225.377099
 20
8.737999
 30
0.0
 11
225.935658
 21
8.737999
 31
0.0
  0
LINE
  8
0
 62
   249
 10
225.377099
 20
8.737999
 30
0.0
 11
225.377099
 21
5.377999
 31
0.0
  0
LINE
  8
0
 62
   249
 10
225.377099
 20
5.377999
 30
0.0
 11
227.361542
 21
5.377999
 31
0.0
  0
LINE
  8
0
 62
   249
 10
227.617099
 20
5.097999
 30
0.0
 11
225.377099
 21
5.097999
 31
0.0
  0
LINE
  8
0
 62
   249
 10
225.377099
 20
5.097999
 30
0.0
 11
225.377099
 21
1.737999
 31
0.0
  0
ARC
  8
0
 62
   249
 10
225.937099
 20
3.837999
 30
0.0
 40
2.1
 50
269.937724
 51
37.056553
  0
LINE
  8
0
 62
   249
 10
225.377099
 20
1.737999
 30
0.0
 11
225.934817
 21
1.738
 31
0.0
  0
ARC
  8
0
 62
   249
 10
225.937099
 20
3.837999
 30
0.0
 40
2.1
 50
47.28622
 51
68.787999
  0
ARC
  8
0
 62
   249
 10
220.477099
 20
3.837999
 30
0.0
 40
2.1
 50
47.28622
 51
68.787999
  0
LINE
  8
0
 62
   249
 10
219.917099
 20
1.737999
 30
0.0
 11
220.474817
 21
1.738
 31
0.0
  0
ARC
  8
0
 62
   249
 10
220.477099
 20
3.837999
 30
0.0
 40
2.1
 50
269.937724
 51
37.056553
  0
LINE
  8
0
 62
   249
 10
219.917099
 20
5.097999
 30
0.0
 11
219.917099
 21
1.737999
 31
0.0
  0
LINE
  8
0
 62
   249
 10
222.157099
 20
5.097999
 30
0.0
 11
219.917099
 21
5.097999
 31
0.0
  0
LINE
  8
0
 62
   249
 10
219.917099
 20
5.377999
 30
0.0
 11
221.901542
 21
5.377999
 31
0.0
  0
LINE
  8
0
 62
   249
 10
219.917099
 20
8.737999
 30
0.0
 11
219.917099
 21
5.377999
 31
0.0
  0
LINE
  8
0
 62
   249
 10
219.917099
 20
8.737999
 30
0.0
 11
220.475658
 21
8.737999
 31
0.0
  0
ARC
  8
0
 62
   249
 10
220.477099
 20
7.162999
 30
0.0
 40
1.575
 50
298.455859
 51
90.052437
  0
LINE
  8
0
 62
   249
 10
217.677099
 20
5.377999
 30
0.0
 11
217.677099
 21
8.737999
 31
0.0
  0
LINE
  8
0
 62
   249
 10
219.637099
 20
1.737999
 30
0.0
 11
217.677099
 21
1.737999
 31
0.0
  0
LINE
  8
0
 62
   249
 10
219.637099
 20
5.097999
 30
0.0
 11
219.637099
 21
1.737999
 31
0.0
  0
LINE
  8
0
 62
   249
 10
217.677099
 20
5.097999
 30
0.0
 11
219.637099
 21
5.097999
 31
0.0
  0
LINE
  8
0
 62
   249
 10
219.637099
 20
5.377999
 30
0.0
 11
217.677099
 21
5.377999
 31
0.0
  0
LINE
  8
0
 62
   249
 10
219.637099
 20
8.737999
 30
0.0
 11
219.637099
 21
5.377999
 31
0.0
  0
LINE
  8
0
 62
   249
 10
217.677099
 20
8.737999
 30
0.0
 11
219.637099
 21
8.737999
 31
0.0
  0
LINE
  8
0
 62
   249
 10
217.677099
 20
1.737999
 30
0.0
 11
217.677099
 21
5.097999
 31
0.0
  0
LINE
  8
0
 62
   249
 10
211.356988
 20
5.080538
 30
0.0
 11
210.187099
 21
1.737999
 31
0.0
  0
LINE
  8
0
 62
   249
 10
213.547099
 20
5.097999
 30
0.0
 11
213.547099
 21
3.137999
 31
0.0
  0
LINE
  8
0
 62
   249
 10
213.827099
 20
5.097999
 30
0.0
 11
213.827099
 21
3.137999
 31
0.0
  0
LINE
  8
0
 62
   249
 10
213.827099
 20
5.097999
 30
0.0
 11
216.010356
 21
5.097999
 31
0.0
  0
LINE
  8
0
 62
   249
 10
213.827099
 20
5.377999
 30
0.0
 11
215.912213
 21
5.377999
 31
0.0
  0
LINE
  8
0
 62
   249
 10
216.011591
 20
5.096594
 30
0.0
 11
217.187099
 21
1.737999
 31
0.0
  0
LINE
  8
0
 62
   249
 10
211.360082
 20
5.097999
 30
0.0
 11
213.547099
 21
5.097999
 31
0.0
  0
LINE
  8
0
 62
   249
 10
211.45904
 20
5.377999
 30
0.0
 11
213.547099
 21
5.377999
 31
0.0
  0
LINE
  8
0
 62
   249
 10
213.547099
 20
8.737999
 30
0.0
 11
212.637099
 21
8.737999
 31
0.0
  0
LINE
  8
0
 62
   249
 10
213.827099
 20
3.137999
 30
0.0
 11
214.946992
 21
3.137999
 31
0.0
  0
LINE
  8
0
 62
   249
 10
213.827099
 20
8.737999
 30
0.0
 11
213.827099
 21
5.377999
 31
0.0
  0
LINE
  8
0
 62
   249
 10
213.547099
 20
8.737999
 30
0.0
 11
213.547099
 21
5.377999
 31
0.0
  0
LINE
  8
0
 62
   249
 10
214.737099
 20
8.737999
 30
0.0
 11
213.827099
 21
8.737999
 31
0.0
  0
LINE
  8
0
 62
   249
 10
214.948197
 20
3.134863
 30
0.0
 11
215.437099
 21
1.737999
 31
0.0
  0
LINE
  8
0
 62
   249
 10
214.737099
 20
8.737999
 30
0.0
 11
215.913452
 21
5.376991
 31
0.0
  0
LINE
  8
0
 62
   249
 10
212.425889
 20
3.134542
 30
0.0
 11
211.937099
 21
1.737999
 31
0.0
  0
LINE
  8
0
 62
   249
 10
212.425886
 20
3.137999
 30
0.0
 11
213.547099
 21
3.137999
 31
0.0
  0
LINE
  8
0
 62
   249
 10
212.637099
 20
8.737999
 30
0.0
 11
211.459571
 21
5.373634
 31
0.0
  0
LINE
  8
0
 62
   249
 10
215.437099
 20
1.737999
 30
0.0
 11
217.187099
 21
1.737999
 31
0.0
  0
LINE
  8
0
 62
   249
 10
210.187099
 20
1.737999
 30
0.0
 11
211.937099
 21
1.737999
 31
0.0
  0
LINE
  8
0
 62
   249
 10
369.737099
 20
9.737999
 30
0.0
 11
369.737099
 21
0.237999
 31
0.0
  0
TEXT
  8
0
 62
   249
 10
371.237099
 20
7.237999
 30
0.0
 40
1.4
  1
PAINOS  REVISION
  7
ROMANS
  0
LINE
  8
0
 62
   249
 10
349.737099
 20
9.737999
 30
0.0
 11
349.737099
 21
18.237999
 31
0.0
  0
TEXT
  8
0
 62
   249
 10
309.237099
 20
7.237999
 30
0.0
 40
1.4
  1
PIIRUSTUS NO  DRAWING NR
  7
ROMANS
  0
TEXT
  8
0
 62
   249
 10
309.237099
 20
15.737999
 30
0.0
 40
1.4
  1
KOODI  CODE
  7
ROMANS
  0
TEXT
  8
0
 62
   249
 10
309.237099
 20
32.737999
 30
0.0
 40
1.4
  1
NIMITYS  NAME
  7
ROMANS
  0
TEXT
  8
0
 62
   249
 10
259.237099
 20
15.737999
 30
0.0
 40
1.4
  1
SUHDE  SCALE
  7
ROMANS
  0
TEXT
  8
0
 62
   249
 10
259.237099
 20
23.737999
 30
0.0
 40
1.4
  1
TOLERANSSIT  TOLERANCES
  7
ROMANS
  0
TEXT
  8
0
 62
   249
 10
259.237099
 20
32.737999
 30
0.0
 40
1.4
  1
LIITTYY  CONCERNING
  7
ROMANS
  0
LINE
  8
0
 62
   249
 10
307.237099
 20
0.237999
 30
0.0
 11
307.237099
 21
35.237999
 31
0.0
  0
TEXT
  8
0
 62
   249
 10
209.979934
 20
15.704666
 30
0.0
 40
1.4
  1
HYVÄKSYI  APPROVED
  7
ROMANS
  0
TEXT
  8
0
 62
   249
 10
210.237099
 20
23.971333
 30
0.0
 40
1.4
  1
TARKASTI  CHECKED
  7
ROMANS
  0
LINE
  8
0
 62
   249
 10
209.237099
 20
35.237999
 30
0.0
 11
392.237099
 21
35.237999
 31
0.0
  0
LINE
  8
0
 62
   249
 10
209.237099
 20
26.737999
 30
0.0
 11
307.237099
 21
26.737999
 31
0.0
  0
LINE
  8
0
 62
   249
 10
209.237099
 20
9.737999
 30
0.0
 11
392.237099
 21
9.737999
 31
0.0
  0
LINE
  8
0
 62
   249
 10
209.237099
 20
18.237999
 30
0.0
 11
392.237099
 21
18.237999
 31
0.0
  0
LINE
  8
0
 62
   249
 10
392.237099
 20
0.237999
 30
0.0
 11
392.237099
 21
35.237999
 31
0.0
  0
LINE
  8
0
 62
   249
 10
209.237099
 20
0.237999
 30
0.0
 11
209.237099
 21
35.237999
 31
0.0
  0
LINE
  8
0
 62
   249
 10
209.237099
 20
0.237999
 30
0.0
 11
392.237099
 21
0.237999
 31
0.0
  0
LINE
  8
0
 62
   249
 10
18.237099
 20
0.237999
 30
0.0
 11
0.237099
 21
0.237999
 31
0.0
  0
LINE
  8
0
 62
   249
 10
0.237099
 20
262.737999
 30
0.0
 11
392.237099
 21
262.737999
 31
0.0
  0
TEXT
  8
0
  6
CONTINUOUS
 62
   249
 10
351.818577
 20
15.736611
 30
0.0
 40
1.4
  1
LEHTI SHEET
  7
GREEKS
  0
TEXT
  8
0
  6
CONTINUOUS
 62
   249
 10
370.336545
 20
11.978665
 30
0.0
 40
2.0
  1
1/2
  7
ROMANS
  0
LINE
  8
0
  6
CONTINUOUS
 62
   249
 10
230.0
 20
118.251247
 30
0.0
 11
230.0
 21
67.719792
 31
0.0
  0
LINE
  8
0
  6
CONTINUOUS
 62
   249
 10
230.0
 20
67.719792
 30
0.0
 11
231.0
 21
66.719792
 31
0.0
  0
LINE
  8
0
  6
CONTINUOUS
 62
   249
 10
230.0
 20
118.251247
 30
0.0
 11
231.0
 21
119.251247
 31
0.0
  0
LINE
  8
0
  6
CONTINUOUS
 62
   249
 10
222.5
 20
92.5
 30
0.0
 11
222.5
 21
57.5
 31
0.0
  0
LINE
  8
0
  6
CONTINUOUS
 62
   249
 10
52.5
 20
130.0
 30
0.0
 11
40.0
 21
130.0
 31
0.0
  0
LINE
  8
0
  6
CONTINUOUS
 62
   249
 10
60.0
 20
130.0
 30
0.0
 11
60.0
 21
125.0
 31
0.0
  0
LINE
  8
0
  6
CONTINUOUS
 62
   249
 10
60.0
 20
125.0
 30
0.0
 11
40.0
 21
125.0
 31
0.0
  0
LINE
  8
0
  6
CONTINUOUS
 62
   249
 10
57.5
 20
130.0
 30
0.0
 11
60.0
 21
130.0
 31
0.0
  0
LINE
  8
0
  6
CONTINUOUS
 62
   249
 10
77.5
 20
120.0
 30
0.0
 11
77.5
 21
115.0
 31
0.0
  0
LINE
  8
0
  6
CONTINUOUS
 62
   249
 10
77.5
 20
115.0
 30
0.0
 11
40.0
 21
115.0
 31
0.0
  0
LINE
  8
0
  6
CONTINUOUS
 62
   249
 10
40.0
 20
105.0
 30
0.0
 11
82.5
 21
105.0
 31
0.0
  0
LINE
  8
0
  6
CONTINUOUS
 62
   249
 10
82.5
 20
100.0
 30
0.0
 11
40.0
 21
100.0
 31
0.0
  0
LINE
  8
0
  6
CONTINUOUS
 62
   249
 10
82.5
 20
100.0
 30
0.0
 11
82.5
 21
102.5
 31
0.0
  0
LINE
  8
0
  6
CONTINUOUS
 62
   249
 10
87.5
 20
105.0
 30
0.0
 11
90.0
 21
105.0
 31
0.0
  0
LINE
  8
0
  6
CONTINUOUS
 62
   249
 10
87.5
 20
105.0
 30
0.0
 11
81.756076
 21
101.785297
 31
0.0
  0
LINE
  8
0
  6
CONTINUOUS
 62
   249
 10
100.0
 20
90.0
 30
0.0
 11
94.256076
 21
86.785297
 31
0.0
  0
LINE
  8
0
  6
CONTINUOUS
 62
   249
 10
100.0
 20
90.0
 30
0.0
 11
102.5
 21
90.0
 31
0.0
  0
LINE
  8
0
  6
CONTINUOUS
 62
   249
 10
95.0
 20
85.0
 30
0.0
 11
95.0
 21
87.5
 31
0.0
  0
LINE
  8
0
  6
CONTINUOUS
 62
   249
 10
95.0
 20
85.0
 30
0.0
 11
40.0
 21
85.0
 31
0.0
  0
LINE
  8
0
  6
CONTINUOUS
 62
   249
 10
40.0
 20
90.0
 30
0.0
 11
95.0
 21
90.0
 31
0.0
  0
LINE
  8
0
  6
CONTINUOUS
 62
   249
 10
90.0
 20
105.0
 30
0.0
 11
90.0
 21
95.0
 31
0.0
  0
LINE
  8
0
  6
CONTINUOUS
 62
   249
 10
90.0
 20
95.0
 30
0.0
 11
40.0
 21
95.0
 31
0.0
  0
LINE
  8
0
  6
CONTINUOUS
 62
   249
 10
102.5
 20
90.0
 30
0.0
 11
102.5
 21
80.0
 31
0.0
  0
LINE
  8
0
  6
CONTINUOUS
 62
   249
 10
102.5
 20
80.0
 30
0.0
 11
40.0
 21
80.0
 31
0.0
  0
TEXT
  8
0
  6
HIDDEN
 62
   249
 10
30.515482
 20
209.949416
 30
0.0
 40
2.0
  1
10
  7
ROMANS
  0
TEXT
  8
0
  6
HIDDEN
 62
   249
 10
30.515482
 20
204.809022
 30
0.0
 40
2.0
  1
11
  7
ROMANS
  0
TEXT
  8
0
  6
HIDDEN
 62
   249
 10
37.472706
 20
97.342565
 30
0.0
 40
2.0
  1
1
  7
ROMANS
  0
TEXT
  8
0
  6
HIDDEN
 62
   249
 10
37.472706
 20
82.418802
 30
0.0
 40
2.0
  1
4
  7
ROMANS
  0
TEXT
  8
0
  6
HIDDEN
 62
   249
 10
37.472706
 20
77.190866
 30
0.0
 40
2.0
  1
5
  7
ROMANS
  0
LINE
  8
0
  6
CONTINUOUS
 62
   249
 10
6.733734
 20
120.0
 30
0.0
 11
7.733734
 21
121.0
 31
0.0
  0
LINE
  8
0
  6
CONTINUOUS
 62
   249
 10
6.733734
 20
114.999655
 30
0.0
 11
7.733734
 21
113.999655
 31
0.0
  0
LINE
  8
0
  6
CONTINUOUS
 62
   249
 10
6.733734
 20
120.0
 30
0.0
 11
6.733734
 21
115.0
 31
0.0
  0
LINE
  8
0
  6
CONTINUOUS
 62
   249
 10
131.503994
 20
50.262229
 30
0.0
 11
222.500345
 21
50.262229
 31
0.0
  0
LINE
  8
0
  6
CONTINUOUS
 62
   249
 10
222.500345
 20
50.262229
 30
0.0
 11
223.500345
 21
51.262229
 31
0.0
  0
LINE
  8
0
  6
CONTINUOUS
 62
   249
 10
131.503994
 20
50.262229
 30
0.0
 11
130.503994
 21
51.262229
 31
0.0
  0
TEXT
  8
0
  6
HIDDEN
 62
   249
 10
168.484926
 20
43.930044
 30
0.0
 40
2.0
  1
SHEET 2
  7
ROMANS
  0
LINE
  8
0
  6
CONTINUOUS
 62
   249
 10
235.0
 20
77.5
 30
0.0
 11
252.5
 21
77.5
 31
0.0
  0
LINE
  8
0
  6
CONTINUOUS
 62
   249
 10
235.0
 20
67.5
 30
0.0
 11
267.5
 21
67.5
 31
0.0
  0
LINE
  8
0
  6
CONTINUOUS
 62
   249
 10
235.0
 20
87.5
 30
0.0
 11
267.5
 21
87.5
 31
0.0
  0
LINE
  8
0
  6
CONTINUOUS
 62
   249
 10
235.0
 20
107.5
 30
0.0
 11
267.5
 21
107.5
 31
0.0
  0
TEXT
  8
0
  6
CONTINUOUS
 62
   249
 10
317.5
 20
27.5
 30
0.0
 40
2.0
  1
TERMINAL DIAGRAM / UTTAGSSCHEMA
  7
ROMANS
  0
TEXT
  8
0
  6
CONTINUOUS
 62
   249
 10
2.359699
 20
213.144527
 30
0.0
 40
2.0
  1
2)
  7
ROMANS
  0
TEXT
  8
0
  6
CONTINUOUS
 62
   249
 10
2.52489
 20
116.607696
 30
0.0
 40
2.0
  1
4)
  7
ROMANS
  0
TEXT
  8
0
  6
CONTINUOUS
 62
   249
 10
2.52489
 20
99.388695
 30
0.0
 40
2.0
  1
5)
  7
ROMANS
  0
TEXT
  8
0
  6
CONTINUOUS
 62
   249
 10
2.52489
 20
84.713619
 30
0.0
 40
2.0
  1
6)
  7
ROMANS
  0
TEXT
  8
0
  6
CONTINUOUS
 62
   249
 10
210.258855
 20
28.046366
 30
0.0
 40
2.0
  1
94-06-10 KM / AD-ELECT.
  7
ROMANS
  0
TEXT
  8
0
  6
CONTINUOUS
 62
   249
 10
317.498807
 20
24.081559
 30
0.0
 40
2.0
  1
SPAC 534 C/E265 WITH TEST SWITCH
  7
ROMANS
  0
TEXT
  8
0
  6
CONTINUOUS
 62
   249
 10
322.5
 20
2.5
 30
0.0
 40
2.5
  1
RS 10208-AAD
  7
ROMANS
  0
TEXT
  8
0
  6
CONTINUOUS
 62
   249
 10
291.326752
 20
11.779881
 30
0.0
 40
3.0
  1
A3
  7
GREEKS
  0
TEXT
  8
0
  6
CONTINUOUS
 62
   249
 10
380.0
 20
2.5
 30
0.0
 40
2.5
  1
A
  7
ROMANS
  0
LINE
  8
0
  6
CENTER
 62
   249
 10
17.5
 20
242.5
 30
0.0
 11
17.5
 21
57.5
 31
0.0
  0
LINE
  8
0
  6
CONTINUOUS
 62
   249
 10
40.0
 20
220.0
 30
0.0
 11
31.000004
 21
220.0
 31
0.0
  0
LINE
  8
0
  6
CONTINUOUS
 62
   249
 10
25.0
 20
220.0
 30
0.0
 11
17.5
 21
220.0
 31
0.0
  0
TEXT
  8
0
  6
DASHED
 62
   249
 10
30.327031
 20
223.402046
 30
0.0
 40
2.0
  1
101:4A
  7
ROMANS
  0
LINE
  8
0
  6
DASHED
 62
   249
 10
17.5
 20
207.5
 30
0.0
 11
12.5
 21
207.5
 31
0.0
  0
LINE
  8
0
  6
DASHED
 62
   249
 10
17.5
 20
212.5
 30
0.0
 11
12.5
 21
212.5
 31
0.0
  0
LINE
  8
0
  6
DASHED
 62
   249
 10
17.5
 20
220.0
 30
0.0
 11
12.5
 21
220.0
 31
0.0
  0
LINE
  8
0
  6
CONTINUOUS
 62
   249
 10
40.0
 20
80.0
 30
0.0
 11
17.5
 21
80.0
 31
0.0
  0
TEXT
  8
0
  6
DASHED
 62
   249
 10
31.081111
 20
91.397161
 30
0.0
 40
2.0
  1
101:6A
  7
ROMANS
  0
LINE
  8
0
  6
CONTINUOUS
 62
   249
 10
40.0
 20
95.0
 30
0.0
 11
31.000004
 21
95.0
 31
0.0
  0
LINE
  8
0
  6
CONTINUOUS
 62
   249
 10
40.0
 20
115.0
 30
0.0
 11
31.000004
 21
115.0
 31
0.0
  0
LINE
  8
0
  6
CONTINUOUS
 62
   249
 10
31.000004
 20
95.0
 30
0.0
 11
24.337159
 21
97.434804
 31
0.0
  0
LINE
  8
0
  6
CONTINUOUS
 62
   249
 10
25.0
 20
95.0
 30
0.0
 11
25.0
 21
97.765661
 31
0.0
  0
LINE
  8
0
  6
CONTINUOUS
 62
   249
 10
31.000004
 20
115.0
 30
0.0
 11
24.337159
 21
117.434804
 31
0.0
  0
LINE
  8
0
  6
CONTINUOUS
 62
   249
 10
25.0
 20
115.0
 30
0.0
 11
25.0
 21
117.765661
 31
0.0
  0
LINE
  8
0
  6
CONTINUOUS
 62
   249
 10
25.0
 20
115.0
 30
0.0
 11
17.5
 21
115.0
 31
0.0
  0
LINE
  8
0
  6
CONTINUOUS
 62
   249
 10
25.0
 20
95.0
 30
0.0
 11
17.5
 21
95.0
 31
0.0
  0
TEXT
  8
0
  6
DASHED
 62
   249
 10
30.292998
 20
111.665931
 30
0.0
 40
2.0
  1
101:3A
  7
ROMANS
  0
LINE
  8
0
  6
CONTINUOUS
 62
   249
 10
31.000004
 20
125.0
 30
0.0
 11
24.337159
 21
127.434804
 31
0.0
  0
LINE
  8
0
  6
CONTINUOUS
 62
   249
 10
25.0
 20
125.0
 30
0.0
 11
25.0
 21
127.765661
 31
0.0
  0
LINE
  8
0
  6
CONTINUOUS
 62
   249
 10
25.0
 20
125.0
 30
0.0
 11
17.5
 21
125.0
 31
0.0
  0
LINE
  8
0
  6
CONTINUOUS
 62
   249
 10
40.0
 20
125.0
 30
0.0
 11
31.000004
 21
125.0
 31
0.0
  0
LINE
  8
0
  6
CONTINUOUS
 62
   249
 10
31.000004
 20
130.0
 30
0.0
 11
24.337159
 21
132.434804
 31
0.0
  0
LINE
  8
0
  6
CONTINUOUS
 62
   249
 10
25.0
 20
130.0
 30
0.0
 11
25.0
 21
132.765661
 31
0.0
  0
LINE
  8
0
  6
CONTINUOUS
 62
   249
 10
25.0
 20
130.0
 30
0.0
 11
17.5
 21
130.0
 31
0.0
  0
LINE
  8
0
  6
CONTINUOUS
 62
   249
 10
40.0
 20
130.0
 30
0.0
 11
31.000004
 21
130.0
 31
0.0
  0
LINE
  8
0
  6
CONTINUOUS
 62
   249
 10
31.000004
 20
142.5
 30
0.0
 11
24.337159
 21
144.934804
 31
0.0
  0
LINE
  8
0
  6
CONTINUOUS
 62
   249
 10
25.0
 20
142.5
 30
0.0
 11
17.5
 21
142.5
 31
0.0
  0
LINE
  8
0
  6
CONTINUOUS
 62
   249
 10
25.0
 20
142.5
 30
0.0
 11
25.0
 21
145.265661
 31
0.0
  0
TEXT
  8
0
  6
DASHED
 62
   249
 10
30.292998
 20
121.665931
 30
0.0
 40
2.0
  1
101:1A
  7
ROMANS
  0
TEXT
  8
0
  6
DASHED
 62
   249
 10
30.089494
 20
126.530581
 30
0.0
 40
2.0
  1
101:2A
  7
ROMANS
  0
TEXT
  8
0
  6
DASHED
 62
   249
 10
30.281027
 20
138.580554
 30
0.0
 40
2.0
  1
101:12A
  7
ROMANS
  0
LINE
  8
0
  6
CONTINUOUS
 62
   249
 10
24.337159
 20
144.934804
 30
0.0
 11
23.892266
 21
144.049106
 31
0.0
  0
LINE
  8
0
  6
CONTINUOUS
 62
   249
 10
24.337159
 20
127.434804
 30
0.0
 11
23.892266
 21
126.549106
 31
0.0
  0
LINE
  8
0
  6
CONTINUOUS
 62
   249
 10
38.253196
 20
142.5
 30
0.0
 11
31.000004
 21
142.5
 31
0.0
  0
LINE
  8
0
  6
CENTER
 62
   249
 10
267.5
 20
242.5
 30
0.0
 11
17.5
 21
242.5
 31
0.0
  0
LINE
  8
0
  6
CENTER
 62
   249
 10
17.5
 20
57.5
 30
0.0
 11
267.5
 21
57.5
 31
0.0
  0
LINE
  8
0
  6
CONTINUOUS
 62
   249
 10
40.0
 20
120.0
 30
0.0
 11
17.5
 21
120.0
 31
0.0
  0
LINE
  8
0
  6
DASHED
 62
   249
 10
17.5
 20
130.0
 30
0.0
 11
12.5
 21
130.0
 31
0.0
  0
LINE
  8
0
  6
CONTINUOUS
 62
   249
 10
40.0
 20
105.0
 30
0.0
 11
17.5
 21
105.0
 31
0.0
  0
LINE
  8
0
  6
CONTINUOUS
 62
   249
 10
40.0
 20
100.0
 30
0.0
 11
17.5
 21
100.0
 31
0.0
  0
LINE
  8
0
  6
CONTINUOUS
 62
   249
 10
40.0
 20
85.0
 30
0.0
 11
17.5
 21
85.0
 31
0.0
  0
LINE
  8
0
  6
DASHED
 62
   249
 10
17.5
 20
125.0
 30
0.0
 11
12.5
 21
125.0
 31
0.0
  0
LINE
  8
0
  6
DASHED
 62
   249
 10
17.5
 20
120.0
 30
0.0
 11
12.5
 21
120.0
 31
0.0
  0
LINE
  8
0
  6
DASHED
 62
   249
 10
17.5
 20
115.0
 30
0.0
 11
12.5
 21
115.0
 31
0.0
  0
LINE
  8
0
  6
DASHED
 62
   249
 10
17.5
 20
105.0
 30
0.0
 11
12.5
 21
105.0
 31
0.0
  0
LINE
  8
0
  6
DASHED
 62
   249
 10
17.5
 20
95.0
 30
0.0
 11
12.5
 21
95.0
 31
0.0
  0
LINE
  8
0
  6
DASHED
 62
   249
 10
17.5
 20
90.0
 30
0.0
 11
12.5
 21
90.0
 31
0.0
  0
LINE
  8
0
  6
CONTINUOUS
 62
   249
 10
40.0
 20
90.0
 30
0.0
 11
17.5
 21
90.0
 31
0.0
  0
TEXT
  8
0
  6
CONTINUOUS
 62
   249
 10
247.887383
 20
216.586709
 30
0.0
 40
2.0
  1
101
  7
ROMANS
  0
LINE
  8
0
  6
CONTINUOUS
 62
   249
 10
245.0
 20
187.5
 30
0.0
 11
235.0
 21
187.5
 31
0.0
  0
LINE
  8
0
  6
CONTINUOUS
 62
   249
 10
245.0
 20
167.5
 30
0.0
 11
235.0
 21
167.5
 31
0.0
  0
LINE
  8
0
 62
   249
 10
251.38095
 20
159.444425
 30
0.0
 11
252.060313
 21
158.508681
 31
0.0
  0
LINE
  8
0
 62
   249
 10
250.0
 20
157.5
 30
0.0
 11
252.5
 21
157.5
 31
0.0
  0
LINE
  8
0
 62
   249
 10
252.5
 20
157.5
 30
0.0
 11
252.5
 21
160.4
 31
0.0
  0
LINE
  8
0
 62
   249
 10
257.5
 20
162.5
 30
0.0
 11
251.7
 21
159.0
 31
0.0
  0
LINE
  8
0
 62
   249
 10
250.0
 20
162.498451
 30
0.0
 11
252.5
 21
162.498451
 31
0.0
  0
LINE
  8
0
 62
   249
 10
250.0
 20
162.49845
 30
0.0
 11
247.5
 21
162.49845
 31
0.0
  0
LINE
  8
0
 62
   249
 10
247.5
 20
162.49845
 30
0.0
 11
247.5
 21
172.49845
 31
0.0
  0
LINE
  8
0
 62
   249
 10
257.5
 20
172.5
 30
0.0
 11
251.7
 21
169.0
 31
0.0
  0
LINE
  8
0
 62
   249
 10
251.38095
 20
169.444425
 30
0.0
 11
252.060313
 21
168.508681
 31
0.0
  0
LINE
  8
0
 62
   249
 10
252.5
 20
167.5
 30
0.0
 11
252.5
 21
170.4
 31
0.0
  0
LINE
  8
0
 62
   249
 10
250.0
 20
167.5
 30
0.0
 11
252.5
 21
167.5
 31
0.0
  0
LINE
  8
0
 62
   249
 10
245.0
 20
167.5
 30
0.0
 11
250.0
 21
167.5
 31
0.0
  0
LINE
  8
0
 62
   249
 10
247.5
 20
172.49845
 30
0.0
 11
250.0
 21
172.49845
 31
0.0
  0
LINE
  8
0
 62
   249
 10
250.0
 20
172.5
 30
0.0
 11
252.5
 21
172.5
 31
0.0
  0
LINE
  8
0
 62
   249
 10
250.0
 20
177.5
 30
0.0
 11
252.5
 21
177.5
 31
0.0
  0
LINE
  8
0
 62
   249
 10
252.5
 20
177.5
 30
0.0
 11
252.5
 21
180.4
 31
0.0
  0
LINE
  8
0
 62
   249
 10
257.5
 20
182.5
 30
0.0
 11
251.7
 21
179.0
 31
0.0
  0
LINE
  8
0
 62
   249
 10
251.38095
 20
179.444425
 30
0.0
 11
252.060313
 21
178.508681
 31
0.0
  0
LINE
  8
0
 62
   249
 10
250.0
 20
182.5
 30
0.0
 11
252.5
 21
182.5
 31
0.0
  0
LINE
  8
0
 62
   249
 10
250.0
 20
182.49845
 30
0.0
 11
247.5
 21
182.49845
 31
0.0
  0
LINE
  8
0
 62
   249
 10
247.5
 20
182.49845
 30
0.0
 11
247.5
 21
192.49845
 31
0.0
  0
LINE
  8
0
 62
   249
 10
250.0
 20
192.5
 30
0.0
 11
252.5
 21
192.5
 31
0.0
  0
LINE
  8
0
 62
   249
 10
247.5
 20
192.49845
 30
0.0
 11
250.0
 21
192.49845
 31
0.0
  0
LINE
  8
0
 62
   249
 10
245.0
 20
187.5
 30
0.0
 11
250.0
 21
187.5
 31
0.0
  0
LINE
  8
0
 62
   249
 10
250.0
 20
187.5
 30
0.0
 11
252.5
 21
187.5
 31
0.0
  0
LINE
  8
0
 62
   249
 10
252.5
 20
187.5
 30
0.0
 11
252.5
 21
190.4
 31
0.0
  0
LINE
  8
0
 62
   249
 10
251.38095
 20
189.444425
 30
0.0
 11
252.060313
 21
188.508681
 31
0.0
  0
LINE
  8
0
 62
   249
 10
257.5
 20
192.5
 30
0.0
 11
251.7
 21
189.0
 31
0.0
  0
LINE
  8
0
 62
   249
 10
252.5
 20
197.5
 30
0.0
 11
252.5
 21
200.4
 31
0.0
  0
LINE
  8
0
 62
   249
 10
250.0
 20
197.5
 30
0.0
 11
252.5
 21
197.5
 31
0.0
  0
LINE
  8
0
 62
   249
 10
251.38095
 20
199.444425
 30
0.0
 11
252.060313
 21
198.508681
 31
0.0
  0
LINE
  8
0
 62
   249
 10
257.5
 20
202.5
 30
0.0
 11
251.7
 21
199.0
 31
0.0
  0
LINE
  8
0
  6
CONTINUOUS
 62
   249
 10
245.0
 20
207.5
 30
0.0
 11
235.0
 21
207.5
 31
0.0
  0
LINE
  8
0
 62
   249
 10
250.0
 20
202.5
 30
0.0
 11
252.5
 21
202.5
 31
0.0
  0
LINE
  8
0
 62
   249
 10
250.0
 20
202.49845
 30
0.0
 11
247.5
 21
202.49845
 31
0.0
  0
LINE
  8
0
 62
   249
 10
257.5
 20
212.5
 30
0.0
 11
251.7
 21
209.0
 31
0.0
  0
LINE
  8
0
 62
   249
 10
251.38095
 20
209.444425
 30
0.0
 11
252.060313
 21
208.508681
 31
0.0
  0
LINE
  8
0
 62
   249
 10
252.5
 20
207.5
 30
0.0
 11
252.5
 21
210.4
 31
0.0
  0
LINE
  8
0
 62
   249
 10
250.0
 20
207.5
 30
0.0
 11
252.5
 21
207.5
 31
0.0
  0
LINE
  8
0
 62
   249
 10
245.0
 20
207.5
 30
0.0
 11
250.0
 21
207.5
 31
0.0
  0
LINE
  8
0
 62
   249
 10
247.5
 20
212.49845
 30
0.0
 11
250.0
 21
212.49845
 31
0.0
  0
LINE
  8
0
 62
   249
 10
250.0
 20
212.5
 30
0.0
 11
252.5
 21
212.5
 31
0.0
  0
LINE
  8
0
 62
   249
 10
247.5
 20
202.49845
 30
0.0
 11
247.5
 21
212.49845
 31
0.0
  0
LINE
  8
0
  6
CONTINUOUS
 62
   249
 10
250.0
 20
157.5
 30
0.0
 11
235.0
 21
157.5
 31
0.0
  0
LINE
  8
0
  6
CONTINUOUS
 62
   249
 10
250.0
 20
177.5
 30
0.0
 11
235.0
 21
177.5
 31
0.0
  0
LINE
  8
0
  6
CONTINUOUS
 62
   249
 10
235.0
 20
197.5
 30
0.0
 11
250.0
 21
197.5
 31
0.0
  0
TEXT
  8
0
  6
DASHED
 62
   249
 10
260.68043
 20
209.765533
 30
0.0
 40
2.0
  1
13A
  7
ROMANS
 11
260.68043
 21
209.098866
 31
0.0
 73
     1
  0
LINE
  8
0
  6
CONTINUOUS
 62
   249
 10
257.5
 20
212.5
 30
0.0
 11
267.5
 21
212.5
 31
0.0
  0
LINE
  8
0
  6
CONTINUOUS
 62
   249
 10
257.5
 20
202.5
 30
0.0
 11
267.5
 21
202.5
 31
0.0
  0
TEXT
  8
0
  6
DASHED
 62
   249
 10
260.68043
 20
199.833333
 30
0.0
 40
2.0
  1
14A
  7
ROMANS
 11
260.68043
 21
199.166667
 31
0.0
 73
     1
  0
LINE
  8
0
  6
CONTINUOUS
 62
   249
 10
257.5
 20
192.5
 30
0.0
 11
267.5
 21
192.5
 31
0.0
  0
TEXT
  8
0
  6
DASHED
 62
   249
 10
260.68043
 20
189.537215
 30
0.0
 40
2.0
  1
15A
  7
ROMANS
 11
260.68043
 21
188.870548
 31
0.0
 73
     1
  0
TEXT
  8
0
  6
DASHED
 62
   249
 10
260.68043
 20
179.786975
 30
0.0
 40
2.0
  1
16A
  7
ROMANS
 11
260.68043
 21
179.120309
 31
0.0
 73
     1
  0
LINE
  8
0
  6
CONTINUOUS
 62
   249
 10
257.5
 20
182.5
 30
0.0
 11
267.5
 21
182.5
 31
0.0
  0
LINE
  8
0
  6
CONTINUOUS
 62
   249
 10
257.5
 20
172.5
 30
0.0
 11
267.5
 21
172.5
 31
0.0
  0
TEXT
  8
0
  6
DASHED
 62
   249
 10
260.68043
 20
169.833333
 30
0.0
 40
2.0
  1
17A
  7
ROMANS
 11
260.68043
 21
169.166667
 31
0.0
 73
     1
  0
LINE
  8
0
  6
CONTINUOUS
 62
   249
 10
257.5
 20
162.5
 30
0.0
 11
267.5
 21
162.5
 31
0.0
  0
TEXT
  8
0
  6
DASHED
 62
   249
 10
260.68043
 20
159.545879
 30
0.0
 40
2.0
  1
18A
  7
ROMANS
 11
260.68043
 21
158.879213
 31
0.0
 73
     1
  0
LINE
  8
0
  6
CENTER
 62
   249
 10
267.5
 20
242.5
 30
0.0
 11
267.5
 21
57.5
 31
0.0
  0
LINE
  8
0
  6
CONTINUOUS
 62
   249
 10
252.5
 20
117.5
 30
0.0
 11
252.5
 21
120.265661
 31
0.0
  0
LINE
  8
0
  6
CONTINUOUS
 62
   249
 10
251.837159
 20
119.934804
 30
0.0
 11
251.392266
 21
119.049106
 31
0.0
  0
LINE
  8
0
  6
CONTINUOUS
 62
   249
 10
258.500004
 20
117.5
 30
0.0
 11
251.837159
 21
119.934804
 31
0.0
  0
LINE
  8
0
  6
CONTINUOUS
 62
   249
 10
258.500004
 20
117.5
 30
0.0
 11
267.5
 21
117.5
 31
0.0
  0
TEXT
  8
0
  6
DASHED
 62
   249
 10
252.3702
 20
113.897161
 30
0.0
 40
2.0
  1
101:21A
  7
ROMANS
  0
LINE
  8
0
  6
CONTINUOUS
 62
   249
 10
235.0
 20
117.5
 30
0.0
 11
252.5
 21
117.5
 31
0.0
  0
LINE
  8
0
  6
CONTINUOUS
 62
   249
 10
258.500004
 20
97.5
 30
0.0
 11
267.5
 21
97.5
 31
0.0
  0
LINE
  8
0
  6
CONTINUOUS
 62
   249
 10
258.500004
 20
97.5
 30
0.0
 11
251.837159
 21
99.934804
 31
0.0
  0
LINE
  8
0
  6
CONTINUOUS
 62
   249
 10
252.5
 20
97.5
 30
0.0
 11
252.5
 21
100.265661
 31
0.0
  0
LINE
  8
0
  6
CONTINUOUS
 62
   249
 10
251.837159
 20
99.934804
 30
0.0
 11
251.392266
 21
99.049106
 31
0.0
  0
LINE
  8
0
  6
CONTINUOUS
 62
   249
 10
235.0
 20
97.5
 30
0.0
 11
252.5
 21
97.5
 31
0.0
  0
TEXT
  8
0
  6
DASHED
 62
   249
 10
252.3702
 20
93.897161
 30
0.0
 40
2.0
  1
101:22A
  7
ROMANS
  0
LINE
  8
0
  6
CONTINUOUS
 62
   249
 10
252.5
 20
77.5
 30
0.0
 11
252.5
 21
80.265661
 31
0.0
  0
LINE
  8
0
  6
CONTINUOUS
 62
   249
 10
251.837159
 20
79.934804
 30
0.0
 11
251.392266
 21
79.049106
 31
0.0
  0
LINE
  8
0
  6
CONTINUOUS
 62
   249
 10
258.500004
 20
77.5
 30
0.0
 11
251.837159
 21
79.934804
 31
0.0
  0
LINE
  8
0
  6
CONTINUOUS
 62
   249
 10
258.500004
 20
77.5
 30
0.0
 11
267.5
 21
77.5
 31
0.0
  0
TEXT
  8
0
  6
DASHED
 62
   249
 10
252.3702
 20
73.592039
 30
0.0
 40
2.0
  1
101:23A
  7
ROMANS
  0
TEXT
  8
0
  6
CONTINUOUS
 62
   249
 10
317.498807
 20
20.605611
 30
0.0
 40
2.0
  1
SPAC 534 C/E265 MED PROVDON
  7
ROMANS
  0
LINE
  8
0
  6
DASHED
 62
   249
 10
17.5
 20
142.5
 30
0.0
 11
12.5
 21
142.5
 31
0.0
  0
TEXT
  8
0
  6
DASHED
 62
   249
 10
30.327031
 20
213.795695
 30
0.0
 40
2.0
  1
108:X2
  7
ROMANS
  0
LINE
  8
0
  6
CONTINUOUS
 62
   249
 10
31.000004
 20
220.0
 30
0.0
 11
24.337159
 21
222.434804
 31
0.0
  0
LINE
  8
0
  6
CONTINUOUS
 62
   249
 10
25.0
 20
220.0
 30
0.0
 11
25.0
 21
222.765661
 31
0.0
  0
LINE
  8
0
  6
CONTINUOUS
 62
   249
 10
24.337159
 20
222.434804
 30
0.0
 11
23.892266
 21
221.549106
 31
0.0
  0
TEXT
  8
0
  6
CONTINUOUS
 62
   249
 10
31.83452
 20
237.28526
 30
0.0
 40
2.0
  1
SPAC 534 C / E265  RS 10208-AA
  7
ROMANS
  0
TEXT
  8
0
  6
DASHED
 62
   249
 10
30.233144
 20
116.793395
 30
0.0
 40
2.0
  1
108:X1:7
  7
ROMANS
  0
TEXT
  8
0
  6
DASHED
 62
   249
 10
30.292998
 20
101.603568
 30
0.0
 40
2.0
  1
108:X2:3
  7
ROMANS
  0
TEXT
  8
0
  6
DASHED
 62
   249
 10
31.081111
 20
86.691181
 30
0.0
 40
2.0
  1
108:X2:6
  7
ROMANS
  0
TEXT
  8
0
  6
DASHED
 62
   249
 10
249.760553
 20
103.659572
 30
0.0
 40
2.0
  1
108:X0:13
  7
ROMANS
  0
TEXT
  8
0
  6
DASHED
 62
   249
 10
249.760553
 20
83.4845
 30
0.0
 40
2.0
  1
108:X0:16
  7
ROMANS
  0
TEXT
  8
0
  6
DASHED
 62
   249
 10
249.760553
 20
62.988638
 30
0.0
 40
2.0
  1
108:X0:19
  7
ROMANS
  0
TEXT
  8
0
  6
CONTINUOUS
 62
   249
 10
17.5
 20
51.863592
 30
0.0
 40
2.0
  1
DIM. 190 X 250
  7
ROMANS
  0
TEXT
  8
0
  6
CONTINUOUS
 62
   249
 10
17.5
 20
48.625497
 30
0.0
 40
2.0
  1
RS 10208-AAD
  7
ROMANS
  0
LINE
  8
0
  6
CONTINUOUS
 62
   249
 10
132.5
 20
57.5
 30
0.0
 11
132.5
 21
52.5
 31
0.0
  0
LINE
  8
0
  6
CONTINUOUS
 62
   249
 10
180.0
 20
57.5
 30
0.0
 11
180.0
 21
52.5
 31
0.0
  0
LINE
  8
0
  6
CONTINUOUS
 62
   249
 10
217.5
 20
57.5
 30
0.0
 11
217.5
 21
52.5
 31
0.0
  0
LINE
  8
0
  6
CONTINUOUS
 62
   249
 10
222.5
 20
57.5
 30
0.0
 11
222.5
 21
52.5
 31
0.0
  0
LINE
  8
0
  6
CONTINUOUS
 62
   249
 10
210.450615
 20
57.5
 30
0.0
 11
210.450615
 21
52.5
 31
0.0
  0
LINE
  8
0
  6
CONTINUOUS
 62
   249
 10
72.5
 20
180.0
 30
0.0
 11
72.5
 21
187.015226
 31
0.0
  0
LINE
  8
0
  6
CONTINUOUS
 62
   249
 10
70.0
 20
180.0
 30
0.0
 11
70.0
 21
202.066264
 31
0.0
  0
LINE
  8
0
  6
CONTINUOUS
 62
   249
 10
127.5
 20
125.0
 30
0.0
 11
127.5
 21
212.5
 31
0.0
  0
LINE
  8
0
  6
CONTINUOUS
 62
   249
 10
130.0
 20
125.0
 30
0.0
 11
130.0
 21
202.066264
 31
0.0
  0
LINE
  8
0
  6
CONTINUOUS
 62
   249
 10
132.5
 20
127.5
 30
0.0
 11
132.5
 21
197.5
 31
0.0
  0
LINE
  8
0
  6
CONTINUOUS
 62
   249
 10
135.0
 20
125.0
 30
0.0
 11
135.0
 21
187.015226
 31
0.0
  0
LINE
  8
0
  6
CONTINUOUS
 62
   249
 10
65.0
 20
138.644494
 30
0.0
 11
55.0
 21
138.644494
 31
0.0
  0
LINE
  8
0
  6
CONTINUOUS
 62
   249
 10
65.0
 20
162.5
 30
0.0
 11
65.0
 21
138.644494
 31
0.0
  0
LINE
  8
0
  6
CONTINUOUS
 62
   249
 10
85.0
 20
162.5
 30
0.0
 11
65.0
 21
162.5
 31
0.0
  0
LINE
  8
0
  6
CONTINUOUS
 62
   249
 10
85.0
 20
160.0
 30
0.0
 11
85.0
 21
162.5
 31
0.0
  0
LINE
  8
0
  6
CONTINUOUS
 62
   249
 10
71.205504
 20
177.72832
 30
0.0
 11
68.859739
 21
176.538401
 31
0.0
  0
LINE
  8
0
  6
CONTINUOUS
 62
   249
 10
68.851697
 20
175.738387
 30
0.0
 11
71.235157
 21
176.926579
 31
0.0
  0
LINE
  8
0
  6
CONTINUOUS
 62
   249
 10
68.859739
 20
179.063674
 30
0.0
 11
71.205504
 21
177.72832
 31
0.0
  0
TEXT
  8
0
  6
CONTINUOUS
 62
   249
 10
73.2936
 20
176.40358
 30
0.0
 40
2.5
  1
1
 11
73.2936
 21
175.570247
 31
0.0
 73
     1
  0
LINE
  8
0
  6
CONTINUOUS
 62
   249
 10
75.0
 20
175.0
 30
0.0
 11
67.5
 21
175.0
 31
0.0
  0
LINE
  8
0
  6
CONTINUOUS
 62
   249
 10
75.0
 20
180.0
 30
0.0
 11
75.0
 21
175.0
 31
0.0
  0
LINE
  8
0
  6
CONTINUOUS
 62
   249
 10
67.5
 20
180.0
 30
0.0
 11
75.0
 21
180.0
 31
0.0
  0
LINE
  8
0
  6
CONTINUOUS
 62
   249
 10
67.5
 20
175.0
 30
0.0
 11
67.5
 21
180.0
 31
0.0
  0
LINE
  8
0
  6
CONTINUOUS
 62
   249
 10
180.0
 20
202.066264
 30
0.0
 11
55.0
 21
202.066264
 31
0.0
  0
LINE
  8
0
  6
CONTINUOUS
 62
   249
 10
180.0
 20
187.015226
 30
0.0
 11
52.5
 21
187.015226
 31
0.0
  0
LINE
  8
0
  6
CONTINUOUS
 62
   249
 10
170.0
 20
208.000813
 30
0.0
 11
170.0
 21
193.000813
 31
0.0
  0
LINE
  8
0
  6
CONTINUOUS
 62
   249
 10
172.5
 20
217.5
 30
0.0
 11
172.5
 21
189.971652
 31
0.0
  0
LINE
  8
0
  6
CONTINUOUS
 62
   249
 10
65.0
 20
217.5
 30
0.0
 11
172.5
 21
217.5
 31
0.0
  0
LINE
  8
0
  6
CONTINUOUS
 62
   249
 10
65.0
 20
210.0
 30
0.0
 11
65.0
 21
208.000813
 31
0.0
  0
LINE
  8
0
  6
CONTINUOUS
 62
   249
 10
100.0
 20
197.5
 30
0.0
 11
180.0
 21
197.5
 31
0.0
  0
LINE
  8
0
  6
CONTINUOUS
 62
   249
 10
100.0
 20
147.5
 30
0.0
 11
100.0
 21
197.5
 31
0.0
  0
LINE
  8
0
  6
CONTINUOUS
 62
   249
 10
95.0
 20
212.5
 30
0.0
 11
180.0
 21
212.5
 31
0.0
  0
LINE
  8
0
  6
CONTINUOUS
 62
   249
 10
95.0
 20
160.0
 30
0.0
 11
95.0
 21
212.5
 31
0.0
  0
LINE
  8
0
  6
CONTINUOUS
 62
   249
 10
132.5
 20
120.0
 30
0.0
 11
132.5
 21
57.5
 31
0.0
  0
LINE
  8
0
  6
CONTINUOUS
 62
   249
 10
97.5
 20
135.0
 30
0.0
 11
97.5
 21
142.5
 31
0.0
  0
LINE
  8
0
  6
CONTINUOUS
 62
   249
 10
85.0
 20
135.0
 30
0.0
 11
85.0
 21
147.5
 31
0.0
  0
LINE
  8
0
  6
CONTINUOUS
 62
   249
 10
72.5
 20
135.0
 30
0.0
 11
72.5
 21
142.5
 31
0.0
  0
TEXT
  8
0
  6
CONTINUOUS
 62
   249
 10
133.151854
 20
121.464455
 30
0.0
 40
2.5
  1
1
 11
133.151854
 21
120.631122
 31
0.0
 73
     1
  0
LINE
  8
0
  6
CONTINUOUS
 62
   249
 10
128.717992
 20
124.124549
 30
0.0
 11
131.063758
 21
122.789195
 31
0.0
  0
LINE
  8
0
  6
CONTINUOUS
 62
   249
 10
128.70995
 20
120.799262
 30
0.0
 11
131.093411
 21
121.987454
 31
0.0
  0
LINE
  8
0
  6
CONTINUOUS
 62
   249
 10
131.063758
 20
122.789195
 30
0.0
 11
128.717992
 21
121.599276
 31
0.0
  0
LINE
  8
0
  6
CONTINUOUS
 62
   249
 10
125.0
 20
120.0
 30
0.0
 11
125.0
 21
125.0
 31
0.0
  0
LINE
  8
0
  6
CONTINUOUS
 62
   249
 10
137.5
 20
120.0
 30
0.0
 11
125.0
 21
120.0
 31
0.0
  0
LINE
  8
0
  6
CONTINUOUS
 62
   249
 10
137.5
 20
125.0
 30
0.0
 11
137.5
 21
120.0
 31
0.0
  0
LINE
  8
0
  6
CONTINUOUS
 62
   249
 10
125.0
 20
125.0
 30
0.0
 11
137.5
 21
125.0
 31
0.0
  0
LINE
  8
0
  6
CONTINUOUS
 62
   249
 10
132.5
 20
125.0
 30
0.0
 11
132.5
 21
127.5
 31
0.0
  0
TEXT
  8
0
  6
CONTINUOUS
 62
   249
 10
94.793047
 20
155.0
 30
0.0
 40
2.0
  1
1
  7
ROMANS
  0
TEXT
  8
0
  6
CONTINUOUS
 62
   249
 10
84.61958
 20
155.0
 30
0.0
 40
2.0
  1
8
  7
ROMANS
  0
TEXT
  8
0
  6
CONTINUOUS
 62
   249
 10
74.561751
 20
155.0
 30
0.0
 40
2.0
  1
7
  7
ROMANS
  0
TEXT
  8
0
  6
CONTINUOUS
 62
   249
 10
69.748907
 20
155.0
 30
0.0
 40
2.0
  1
2
  7
ROMANS
  0
LINE
  8
0
  6
CONTINUOUS
 62
   249
 10
70.0
 20
157.5
 30
0.0
 11
70.0
 21
175.0
 31
0.0
  0
LINE
  8
0
  6
CONTINUOUS
 62
   249
 10
70.0
 20
152.5
 30
0.0
 11
68.285914
 21
157.586297
 31
0.0
  0
LINE
  8
0
  6
CONTINUOUS
 62
   249
 10
70.0
 20
147.5
 30
0.0
 11
70.0
 21
152.5
 31
0.0
  0
LINE
  8
0
  6
CONTINUOUS
 62
   249
 10
75.0
 20
147.5
 30
0.0
 11
75.0
 21
152.5
 31
0.0
  0
LINE
  8
0
  6
CONTINUOUS
 62
   249
 10
75.0
 20
152.5
 30
0.0
 11
73.285914
 21
157.586297
 31
0.0
  0
LINE
  8
0
  6
CONTINUOUS
 62
   249
 10
75.0
 20
157.5
 30
0.0
 11
75.0
 21
162.5
 31
0.0
  0
LINE
  8
0
  6
CONTINUOUS
 62
   249
 10
85.0
 20
157.5
 30
0.0
 11
85.0
 21
162.5
 31
0.0
  0
LINE
  8
0
  6
CONTINUOUS
 62
   249
 10
85.0
 20
152.5
 30
0.0
 11
83.285914
 21
157.586297
 31
0.0
  0
LINE
  8
0
  6
CONTINUOUS
 62
   249
 10
85.0
 20
147.5
 30
0.0
 11
85.0
 21
152.5
 31
0.0
  0
LINE
  8
0
  6
CONTINUOUS
 62
   249
 10
95.0
 20
157.5
 30
0.0
 11
95.0
 21
160.0
 31
0.0
  0
LINE
  8
0
  6
CONTINUOUS
 62
   249
 10
95.0
 20
152.5
 30
0.0
 11
93.285914
 21
157.586297
 31
0.0
  0
LINE
  8
0
  6
CONTINUOUS
 62
   249
 10
95.0
 20
147.5
 30
0.0
 11
95.0
 21
152.5
 31
0.0
  0
TEXT
  8
0
  6
CONTINUOUS
 62
   249
 10
98.795492
 20
143.964455
 30
0.0
 40
2.5
  1
1
 11
98.795492
 21
143.131122
 31
0.0
 73
     1
  0
LINE
  8
0
  6
CONTINUOUS
 62
   249
 10
94.36163
 20
146.624549
 30
0.0
 11
96.707396
 21
145.289195
 31
0.0
  0
LINE
  8
0
  6
CONTINUOUS
 62
   249
 10
94.353589
 20
143.299262
 30
0.0
 11
96.737049
 21
144.487454
 31
0.0
  0
LINE
  8
0
  6
CONTINUOUS
 62
   249
 10
96.707396
 20
145.289195
 30
0.0
 11
94.36163
 21
144.099276
 31
0.0
  0
LINE
  8
0
  6
CONTINUOUS
 62
   249
 10
92.5
 20
142.5
 30
0.0
 11
92.5
 21
147.5
 31
0.0
  0
LINE
  8
0
  6
CONTINUOUS
 62
   249
 10
102.5
 20
142.5
 30
0.0
 11
92.5
 21
142.5
 31
0.0
  0
LINE
  8
0
  6
CONTINUOUS
 62
   249
 10
102.5
 20
147.5
 30
0.0
 11
102.5
 21
142.5
 31
0.0
  0
LINE
  8
0
  6
CONTINUOUS
 62
   249
 10
92.5
 20
147.5
 30
0.0
 11
102.5
 21
147.5
 31
0.0
  0
TEXT
  8
0
  6
CONTINUOUS
 62
   249
 10
73.795492
 20
143.964455
 30
0.0
 40
2.5
  1
1
 11
73.795492
 21
143.131122
 31
0.0
 73
     1
  0
LINE
  8
0
  6
CONTINUOUS
 62
   249
 10
69.36163
 20
146.624549
 30
0.0
 11
71.707396
 21
145.289195
 31
0.0
  0
LINE
  8
0
  6
CONTINUOUS
 62
   249
 10
69.353589
 20
143.299262
 30
0.0
 11
71.737049
 21
144.487454
 31
0.0
  0
LINE
  8
0
  6
CONTINUOUS
 62
   249
 10
71.707396
 20
145.289195
 30
0.0
 11
69.36163
 21
144.099276
 31
0.0
  0
LINE
  8
0
  6
CONTINUOUS
 62
   249
 10
67.5
 20
142.5
 30
0.0
 11
67.5
 21
147.5
 31
0.0
  0
LINE
  8
0
  6
CONTINUOUS
 62
   249
 10
77.5
 20
142.5
 30
0.0
 11
67.5
 21
142.5
 31
0.0
  0
LINE
  8
0
  6
CONTINUOUS
 62
   249
 10
77.5
 20
147.5
 30
0.0
 11
77.5
 21
142.5
 31
0.0
  0
LINE
  8
0
  6
CONTINUOUS
 62
   249
 10
67.5
 20
147.5
 30
0.0
 11
77.5
 21
147.5
 31
0.0
  0
LINE
  8
0
  6
CONTINUOUS
 62
   249
 10
50.0
 20
147.5
 30
0.0
 11
50.0
 21
142.5
 31
0.0
  0
LINE
  8
0
  6
CONTINUOUS
 62
   249
 10
50.0
 20
142.5
 30
0.0
 11
57.5
 21
142.5
 31
0.0
  0
LINE
  8
0
  6
CONTINUOUS
 62
   249
 10
52.5
 20
147.5
 30
0.0
 11
52.5
 21
187.015226
 31
0.0
  0
LINE
  8
0
  6
CONTINUOUS
 62
   249
 10
57.5
 20
147.5
 30
0.0
 11
57.5
 21
142.5
 31
0.0
  0
LINE
  8
0
  6
CONTINUOUS
 62
   249
 10
57.5
 20
147.5
 30
0.0
 11
50.0
 21
147.5
 31
0.0
  0
LINE
  8
0
  6
CONTINUOUS
 62
   249
 10
55.0
 20
147.5
 30
0.0
 11
55.0
 21
202.066264
 31
0.0
  0
LINE
  8
0
  6
CONTINUOUS
 62
   249
 10
55.0
 20
142.5
 30
0.0
 11
55.0
 21
137.5
 31
0.0
  0
LINE
  8
0
  6
CONTINUOUS
 62
   249
 10
53.441261
 20
145.289195
 30
0.0
 11
51.095496
 21
144.099276
 31
0.0
  0
LINE
  8
0
  6
CONTINUOUS
 62
   249
 10
51.087454
 20
143.299262
 30
0.0
 11
53.470914
 21
144.487454
 31
0.0
  0
LINE
  8
0
  6
CONTINUOUS
 62
   249
 10
51.095496
 20
146.624549
 30
0.0
 11
53.441261
 21
145.289195
 31
0.0
  0
TEXT
  8
0
  6
CONTINUOUS
 62
   249
 10
55.529357
 20
143.964455
 30
0.0
 40
2.5
  1
1
 11
55.529357
 21
143.131122
 31
0.0
 73
     1
  0
TEXT
  8
0
  6
CONTINUOUS
 62
   249
 10
63.192133
 20
154.2654
 30
0.0
 40
2.0
  1
SGR
 50
90.0
  7
ROMANS
  0
LINE
  8
0
  6
HIDDEN
 62
   249
 10
210.450615
 20
130.0
 30
0.0
 11
210.450615
 21
57.5
 31
0.0
  0
LINE
  8
0
  6
HIDDEN
 62
   249
 10
180.0
 20
130.0
 30
0.0
 11
180.0
 21
57.5
 31
0.0
  0
TEXT
  8
0
  6
CONTINUOUS
 62
   249
 10
205.001359
 20
150.658649
 30
0.0
 40
2.5
  1
U3
  7
ROMANS
  0
TEXT
  8
0
  6
CONTINUOUS
 62
   249
 10
205.0
 20
180.775586
 30
0.0
 40
2.5
  1
U2
  7
ROMANS
  0
LINE
  8
0
  6
CONTINUOUS
 62
   249
 10
180.0
 20
185.0
 30
0.0
 11
210.450615
 21
185.0
 31
0.0
  0
LINE
  8
0
  6
CONTINUOUS
 62
   249
 10
178.01273
 20
189.971652
 30
0.0
 11
172.5
 21
189.971652
 31
0.0
  0
LINE
  8
0
  6
CONTINUOUS
 62
   249
 10
178.01273
 20
193.000813
 30
0.0
 11
170.0
 21
193.000813
 31
0.0
  0
CIRCLE
  8
0
  6
CONTINUOUS
 62
   249
 10
179.012659
 20
192.994509
 30
0.0
 40
1.0
  0
CIRCLE
  8
0
  6
CONTINUOUS
 62
   249
 10
179.012659
 20
189.965349
 30
0.0
 40
1.0
  0
LINE
  8
0
  6
CONTINUOUS
 62
   249
 10
189.900936
 20
189.960055
 30
0.0
 11
192.400936
 21
189.960055
 31
0.0
  0
LINE
  8
0
  6
CONTINUOUS
 62
   249
 10
189.900936
 20
189.960055
 30
0.0
 11
187.676489
 21
189.399413
 31
0.0
  0
LINE
  8
0
  6
CONTINUOUS
 62
   249
 10
184.900936
 20
189.960055
 30
0.0
 11
187.400936
 21
189.960055
 31
0.0
  0
TEXT
  8
0
  6
HIDDEN
 62
   249
 10
181.080478
 20
189.226807
 30
0.0
 40
1.5
  1
EN
  0
TEXT
  8
0
  6
HIDDEN
 62
   249
 10
181.080478
 20
192.167847
 30
0.0
 40
1.5
  1
EN
  0
LINE
  8
0
  6
CONTINUOUS
 62
   249
 10
184.900936
 20
192.901095
 30
0.0
 11
187.400936
 21
192.901095
 31
0.0
  0
LINE
  8
0
  6
CONTINUOUS
 62
   249
 10
189.900936
 20
192.901095
 30
0.0
 11
187.676489
 21
192.340453
 31
0.0
  0
LINE
  8
0
  6
CONTINUOUS
 62
   249
 10
189.900936
 20
192.901095
 30
0.0
 11
192.400936
 21
192.901095
 31
0.0
  0
LINE
  8
0
  6
CONTINUOUS
 62
   249
 10
178.01273
 20
204.971652
 30
0.0
 11
172.5
 21
204.971652
 31
0.0
  0
CIRCLE
  8
0
  6
CONTINUOUS
 62
   249
 10
179.012659
 20
204.965349
 30
0.0
 40
1.0
  0
LINE
  8
0
  6
CONTINUOUS
 62
   249
 10
189.900936
 20
207.901095
 30
0.0
 11
192.400936
 21
207.901095
 31
0.0
  0
LINE
  8
0
  6
CONTINUOUS
 62
   249
 10
189.900936
 20
207.901095
 30
0.0
 11
187.676489
 21
207.340453
 31
0.0
  0
LINE
  8
0
  6
CONTINUOUS
 62
   249
 10
184.900936
 20
207.901095
 30
0.0
 11
187.400936
 21
207.901095
 31
0.0
  0
TEXT
  8
0
  6
HIDDEN
 62
   249
 10
181.080478
 20
207.167847
 30
0.0
 40
1.5
  1
EN
  0
LINE
  8
0
  6
CONTINUOUS
 62
   249
 10
47.5
 20
215.0
 30
0.0
 11
47.5
 21
207.5
 31
0.0
  0
LINE
  8
0
  6
CONTINUOUS
 62
   249
 10
47.5
 20
207.5
 30
0.0
 11
40.0
 21
207.5
 31
0.0
  0
LINE
  8
0
 62
   249
 10
60.221556
 20
206.204212
 30
0.0
 11
52.798812
 21
206.204212
 31
0.0
  0
LINE
  8
0
  6
CONTINUOUS
 62
   249
 10
52.798812
 20
207.5
 30
0.0
 11
47.5
 21
207.5
 31
0.0
  0
LINE
  8
0
  6
CONTINUOUS
 62
   249
 10
52.798812
 20
212.5
 30
0.0
 11
40.0
 21
212.5
 31
0.0
  0
LINE
  8
0
 62
   249
 10
52.798812
 20
214.089925
 30
0.0
 11
52.798812
 21
206.204212
 31
0.0
  0
LINE
  8
0
 62
   249
 10
57.004853
 20
213.708127
 30
0.0
 11
55.09105
 21
211.429305
 31
0.0
  0
LINE
  8
0
 62
   249
 10
58.496971
 20
213.708127
 30
0.0
 11
56.642636
 21
211.429305
 31
0.0
  0
LINE
  8
0
 62
   249
 10
60.221556
 20
213.704212
 30
0.0
 11
52.798812
 21
213.704212
 31
0.0
  0
LINE
  8
0
 62
   249
 10
60.221556
 20
206.204212
 30
0.0
 11
60.221556
 21
214.089925
 31
0.0
  0
LINE
  8
0
  6
CONTINUOUS
 62
   249
 10
60.221556
 20
210.0
 30
0.0
 11
65.0
 21
210.0
 31
0.0
  0
LINE
  8
0
  6
CONTINUOUS
 62
   249
 10
60.221556
 20
217.5
 30
0.0
 11
65.0
 21
217.5
 31
0.0
  0
LINE
  8
0
 62
   249
 10
60.221556
 20
213.4
 30
0.0
 11
60.221556
 21
221.589925
 31
0.0
  0
LINE
  8
0
 62
   249
 10
60.221556
 20
221.589925
 30
0.0
 11
52.798812
 21
221.589925
 31
0.0
  0
LINE
  8
0
 62
   249
 10
58.496971
 20
221.59384
 30
0.0
 11
56.642636
 21
219.315018
 31
0.0
  0
LINE
  8
0
 62
   249
 10
57.004853
 20
221.59384
 30
0.0
 11
55.09105
 21
219.315018
 31
0.0
  0
LINE
  8
0
 62
   249
 10
52.798812
 20
221.589925
 30
0.0
 11
52.798812
 21
213.4
 31
0.0
  0
LINE
  8
0
  6
CONTINUOUS
 62
   249
 10
52.798812
 20
220.0
 30
0.0
 11
40.0
 21
220.0
 31
0.0
  0
LINE
  8
0
  6
CONTINUOUS
 62
   249
 10
52.798812
 20
215.0
 30
0.0
 11
47.5
 21
215.0
 31
0.0
  0
LINE
  8
0
  6
CONTINUOUS
 62
   249
 10
208.830425
 20
200.128063
 30
0.0
 11
206.48466
 21
198.938144
 31
0.0
  0
LINE
  8
0
  6
CONTINUOUS
 62
   249
 10
206.48466
 20
201.463417
 30
0.0
 11
208.830425
 21
200.128063
 31
0.0
  0
TEXT
  8
0
  6
DASHED
 62
   249
 10
202.077439
 20
198.915137
 30
0.0
 40
2.5
  1
3I
  0
TEXT
  8
0
  6
CONTINUOUS
 62
   249
 10
205.0
 20
210.0
 30
0.0
 40
2.5
  1
U1
  7
ROMANS
  0
TEXT
  8
0
  6
CONTINUOUS
 62
   249
 10
181.270128
 20
210.741357
 30
0.0
 40
2.5
  1
I
 11
181.270128
 21
209.908023
 31
0.0
 73
     1
  0
LINE
  8
0
  6
CONTINUOUS
 62
   249
 10
186.406117
 20
211.94396
 30
0.0
 11
184.060351
 21
210.754041
 31
0.0
  0
LINE
  8
0
  6
CONTINUOUS
 62
   249
 10
184.060351
 20
213.279314
 30
0.0
 11
186.406117
 21
211.94396
 31
0.0
  0
LINE
  8
0
  6
CONTINUOUS
 62
   249
 10
180.0
 20
215.0
 30
0.0
 11
210.450615
 21
215.0
 31
0.0
  0
LINE
  8
0
  6
CONTINUOUS
 62
   249
 10
178.01273
 20
208.000813
 30
0.0
 11
65.0
 21
208.000813
 31
0.0
  0
CIRCLE
  8
0
  6
CONTINUOUS
 62
   249
 10
179.012659
 20
207.994509
 30
0.0
 40
1.0
  0
TEXT
  8
0
  6
HIDDEN
 62
   249
 10
181.080478
 20
204.226807
 30
0.0
 40
1.5
  1
EN
  0
LINE
  8
0
  6
CONTINUOUS
 62
   249
 10
184.900936
 20
204.960055
 30
0.0
 11
187.400936
 21
204.960055
 31
0.0
  0
LINE
  8
0
  6
CONTINUOUS
 62
   249
 10
189.900936
 20
204.960055
 30
0.0
 11
187.676489
 21
204.399413
 31
0.0
  0
LINE
  8
0
  6
CONTINUOUS
 62
   249
 10
189.900936
 20
204.960055
 30
0.0
 11
192.400936
 21
204.960055
 31
0.0
  0
LINE
  8
0
  6
CONTINUOUS
 62
   249
 10
184.060351
 20
203.069592
 30
0.0
 11
186.406117
 21
201.734238
 31
0.0
  0
LINE
  8
0
  6
CONTINUOUS
 62
   249
 10
186.406117
 20
201.734238
 30
0.0
 11
184.060351
 21
200.544319
 31
0.0
  0
TEXT
  8
0
  6
CONTINUOUS
 62
   249
 10
181.270128
 20
200.531635
 30
0.0
 40
2.5
  1
I
 11
181.270128
 21
199.698301
 31
0.0
 73
     1
  0
LINE
  8
0
  6
HIDDEN
 62
   249
 10
180.0
 20
210.0
 30
0.0
 11
200.0
 21
210.0
 31
0.0
  0
TEXT
  8
0
  6
CONTINUOUS
 62
   249
 10
181.270128
 20
196.192977
 30
0.0
 40
2.5
  1
I
 11
181.270128
 21
195.359644
 31
0.0
 73
     1
  0
LINE
  8
0
  6
CONTINUOUS
 62
   249
 10
186.849039
 20
197.395581
 30
0.0
 11
184.503273
 21
196.205662
 31
0.0
  0
LINE
  8
0
  6
CONTINUOUS
 62
   249
 10
184.503273
 20
198.730934
 30
0.0
 11
186.849039
 21
197.395581
 31
0.0
  0
LINE
  8
0
  6
CONTINUOUS
 62
   249
 10
185.178827
 20
197.395581
 30
0.0
 11
182.833062
 21
196.205662
 31
0.0
  0
LINE
  8
0
  6
CONTINUOUS
 62
   249
 10
182.833062
 20
198.730934
 30
0.0
 11
185.178827
 21
197.395581
 31
0.0
  0
LINE
  8
0
  6
HIDDEN
 62
   249
 10
180.0
 20
200.0
 30
0.0
 11
200.0
 21
200.0
 31
0.0
  0
LINE
  8
0
  6
CONTINUOUS
 62
   249
 10
191.020299
 20
187.63757
 30
0.0
 11
191.020299
 21
185.849439
 31
0.0
  0
LINE
  8
0
  6
CONTINUOUS
 62
   249
 10
191.051331
 20
186.792292
 30
0.0
 11
198.839536
 21
186.792292
 31
0.0
  0
LINE
  8
0
  6
CONTINUOUS
 62
   249
 10
195.880883
 20
188.990455
 30
0.0
 11
196.78156
 21
187.866706
 31
0.0
  0
LINE
  8
0
  6
CONTINUOUS
 62
   249
 10
193.435476
 20
185.624689
 30
0.0
 11
196.311586
 21
188.453248
 31
0.0
  0
LINE
  8
0
  6
CONTINUOUS
 62
   249
 10
198.834995
 20
187.63757
 30
0.0
 11
198.834995
 21
185.849439
 31
0.0
  0
LINE
  8
0
  6
CONTINUOUS
 62
   249
 10
182.833062
 20
188.400046
 30
0.0
 11
185.178827
 21
187.064692
 31
0.0
  0
LINE
  8
0
  6
CONTINUOUS
 62
   249
 10
185.178827
 20
187.064692
 30
0.0
 11
182.833062
 21
185.874773
 31
0.0
  0
LINE
  8
0
  6
CONTINUOUS
 62
   249
 10
184.503273
 20
188.400046
 30
0.0
 11
186.849039
 21
187.064692
 31
0.0
  0
LINE
  8
0
  6
CONTINUOUS
 62
   249
 10
186.849039
 20
187.064692
 30
0.0
 11
184.503273
 21
185.874773
 31
0.0
  0
TEXT
  8
0
  6
CONTINUOUS
 62
   249
 10
181.270128
 20
185.862088
 30
0.0
 40
2.5
  1
I
 11
181.270128
 21
185.028755
 31
0.0
 73
     1
  0
LINE
  8
0
  6
HIDDEN
 62
   249
 10
180.0
 20
195.0
 30
0.0
 11
200.0
 21
195.0
 31
0.0
  0
LINE
  8
0
  6
CONTINUOUS
 62
   249
 10
191.019845
 20
202.48981
 30
0.0
 11
191.019845
 21
200.701678
 31
0.0
  0
LINE
  8
0
  6
CONTINUOUS
 62
   249
 10
191.050877
 20
201.644531
 30
0.0
 11
198.839082
 21
201.644531
 31
0.0
  0
LINE
  8
0
  6
CONTINUOUS
 62
   249
 10
195.880429
 20
203.842694
 30
0.0
 11
196.781105
 21
202.718945
 31
0.0
  0
ARC
  8
0
  6
HIDDEN
 62
   249
 10
197.745745
 20
205.573075
 30
0.0
 40
4.998196
 50
206.402922
 51
282.21115
  0
LINE
  8
0
  6
CONTINUOUS
 62
   249
 10
193.435021
 20
200.476928
 30
0.0
 11
196.311132
 21
203.305487
 31
0.0
  0
LINE
  8
0
  6
CONTINUOUS
 62
   249
 10
198.834541
 20
202.48981
 30
0.0
 11
198.834541
 21
200.701678
 31
0.0
  0
LINE
  8
0
  6
CONTINUOUS
 62
   249
 10
180.0
 20
155.0
 30
0.0
 11
210.450615
 21
155.0
 31
0.0
  0
LINE
  8
0
  6
DASHED
 62
   249
 10
97.5
 20
135.0
 30
0.0
 11
97.5
 21
88.600824
 31
0.0
  0
LINE
  8
0
  6
DASHED
 62
   249
 10
85.0
 20
135.0
 30
0.0
 11
85.0
 21
103.600824
 31
0.0
  0
LINE
  8
0
  6
DASHED
 62
   249
 10
72.5
 20
135.0
 30
0.0
 11
72.5
 21
118.600824
 31
0.0
  0
LINE
  8
0
  6
DASHED
 62
   249
 10
55.0
 20
137.5
 30
0.0
 11
55.0
 21
128.600824
 31
0.0
  0
LINE
  8
0
  6
CONTINUOUS
 62
   249
 10
180.0
 20
185.0
 30
0.0
 11
180.0
 21
130.0
 31
0.0
  0
LINE
  8
0
  6
CONTINUOUS
 62
   249
 10
180.0
 20
200.0
 30
0.0
 11
180.0
 21
215.0
 31
0.0
  0
LINE
  8
0
  6
CONTINUOUS
 62
   249
 10
180.0
 20
200.0
 30
0.0
 11
180.0
 21
185.0
 31
0.0
  0
LINE
  8
0
  6
CONTINUOUS
 62
   249
 10
200.0
 20
130.0
 30
0.0
 11
200.0
 21
215.0
 31
0.0
  0
LINE
  8
0
  6
CONTINUOUS
 62
   249
 10
180.0
 20
130.0
 30
0.0
 11
210.450615
 21
130.0
 31
0.0
  0
LINE
  8
0
  6
CONTINUOUS
 62
   249
 10
210.450615
 20
215.0
 30
0.0
 11
210.450615
 21
187.18832
 31
0.0
  0
LINE
  8
0
  6
CONTINUOUS
 62
   249
 10
210.450615
 20
187.209828
 30
0.0
 11
210.450615
 21
130.0
 31
0.0
  0
TEXT
  8
0
  6
CONTINUOUS
 62
   249
 10
307.695347
 20
207.500221
 30
0.0
 40
2.0
  1
P/Q
  7
ROMANS
  0
LINE
  8
0
  6
DASHED
 62
   249
 10
275.0
 20
107.5
 30
0.0
 11
275.0
 21
97.5
 31
0.0
  0
LINE
  8
0
  6
DASHED
 62
   249
 10
267.5
 20
117.5
 30
0.0
 11
352.5
 21
117.5
 31
0.0
  0
LINE
  8
0
  6
DASHED
 62
   249
 10
267.5
 20
97.5
 30
0.0
 11
302.5
 21
97.5
 31
0.0
  0
LINE
  8
0
  6
DASHED
 62
   249
 10
367.5
 20
125.0
 30
0.0
 11
367.5
 21
77.5
 31
0.0
  0
LINE
  8
0
  6
DASHED
 62
   249
 10
360.0
 20
97.5
 30
0.0
 11
302.5
 21
97.5
 31
0.0
  0
LINE
  8
0
  6
DASHED
 62
   249
 10
360.0
 20
125.0
 30
0.0
 11
360.0
 21
97.5
 31
0.0
  0
LINE
  8
0
  6
DASHED
 62
   249
 10
352.5
 20
117.5
 30
0.0
 11
352.5
 21
125.0
 31
0.0
  0
TEXT
  8
0
  6
DASHED
 62
   249
 10
335.0
 20
153.958246
 30
0.0
 40
2.0
  1
L3(T)
  7
GREEKS
  0
TEXT
  8
0
  6
DASHED
 62
   249
 10
335.0
 20
159.010757
 30
0.0
 40
2.0
  1
L2(S)
  7
GREEKS
  0
TEXT
  8
0
  6
DASHED
 62
   249
 10
335.0
 20
164.019187
 30
0.0
 40
2.0
  1
L1(R)
  7
GREEKS
  0
LINE
  8
0
  6
DASHED
 62
   249
 10
345.0
 20
155.0
 30
0.0
 11
380.0
 21
155.0
 31
0.0
  0
LINE
  8
0
  6
DASHED
 62
   249
 10
345.0
 20
160.0
 30
0.0
 11
380.0
 21
160.0
 31
0.0
  0
LINE
  8
0
  6
DASHED
 62
   249
 10
345.0
 20
165.0
 30
0.0
 11
380.0
 21
165.0
 31
0.0
  0
LINE
  8
0
  6
DASHED
 62
   249
 10
360.0
 20
142.5
 30
0.0
 11
360.0
 21
160.0
 31
0.0
  0
LINE
  8
0
  6
DASHED
 62
   249
 10
367.5
 20
142.5
 30
0.0
 11
367.5
 21
155.0
 31
0.0
  0
LINE
  8
0
  6
DASHED
 62
   249
 10
352.5
 20
142.5
 30
0.0
 11
352.5
 21
165.0
 31
0.0
  0
LINE
  8
0
  6
CONTINUOUS
 62
   249
 10
351.506031
 20
130.098556
 30
0.0
 11
352.478167
 21
130.098556
 31
0.0
  0
LINE
  8
0
  6
CONTINUOUS
 62
   249
 10
351.496128
 20
132.499996
 30
0.0
 11
352.473936
 21
132.499996
 31
0.0
  0
LINE
  8
0
  6
CONTINUOUS
 62
   249
 10
351.500897
 20
127.68998
 30
0.0
 11
352.5
 21
127.68998
 31
0.0
  0
ARC
  8
0
  6
CONTINUOUS
 62
   249
 10
350.864862
 20
128.894238
 30
0.0
 40
1.204309
 50
90.0
 51
270.0
  0
LINE
  8
0
  6
CONTINUOUS
 62
   249
 10
350.859898
 20
127.689937
 30
0.0
 11
351.509496
 21
127.689937
 31
0.0
  0
LINE
  8
0
  6
CONTINUOUS
 62
   249
 10
350.858762
 20
132.499993
 30
0.0
 11
351.502261
 21
132.499993
 31
0.0
  0
LINE
  8
0
  6
CONTINUOUS
 62
   249
 10
350.858762
 20
130.098547
 30
0.0
 11
351.50836
 21
130.098547
 31
0.0
  0
ARC
  8
0
  6
CONTINUOUS
 62
   249
 10
350.864862
 20
131.296095
 30
0.0
 40
1.204309
 50
90.0
 51
265.706237
  0
LINE
  8
0
  6
CONTINUOUS
 62
   249
 10
359.006031
 20
130.098556
 30
0.0
 11
359.978167
 21
130.098556
 31
0.0
  0
LINE
  8
0
  6
CONTINUOUS
 62
   249
 10
358.996128
 20
132.499996
 30
0.0
 11
359.973936
 21
132.499996
 31
0.0
  0
LINE
  8
0
  6
CONTINUOUS
 62
   249
 10
359.000897
 20
127.68998
 30
0.0
 11
360.0
 21
127.68998
 31
0.0
  0
ARC
  8
0
  6
CONTINUOUS
 62
   249
 10
358.364862
 20
128.894238
 30
0.0
 40
1.204309
 50
90.0
 51
270.0
  0
LINE
  8
0
  6
CONTINUOUS
 62
   249
 10
358.359898
 20
127.689937
 30
0.0
 11
359.009496
 21
127.689937
 31
0.0
  0
LINE
  8
0
  6
CONTINUOUS
 62
   249
 10
358.358762
 20
132.499993
 30
0.0
 11
359.002261
 21
132.499993
 31
0.0
  0
LINE
  8
0
  6
CONTINUOUS
 62
   249
 10
358.358762
 20
130.098547
 30
0.0
 11
359.00836
 21
130.098547
 31
0.0
  0
ARC
  8
0
  6
CONTINUOUS
 62
   249
 10
358.364862
 20
131.296095
 30
0.0
 40
1.204309
 50
90.0
 51
265.706237
  0
LINE
  8
0
  6
CONTINUOUS
 62
   249
 10
360.0
 20
127.68998
 30
0.0
 11
360.0
 21
125.0
 31
0.0
  0
LINE
  8
0
  6
CONTINUOUS
 62
   249
 10
352.5
 20
127.68998
 30
0.0
 11
352.5
 21
125.0
 31
0.0
  0
LINE
  8
0
  6
DASHED
 62
   249
 10
372.5
 20
137.68998
 30
0.0
 11
381.663362
 21
137.68998
 31
0.0
  0
LINE
  8
0
  6
DASHED
 62
   249
 10
372.5
 20
132.5
 30
0.0
 11
381.84682
 21
132.5
 31
0.0
  0
LINE
  8
0
  6
CONTINUOUS
 62
   249
 10
352.5
 20
132.5
 30
0.0
 11
372.5
 21
132.5
 31
0.0
  0
LINE
  8
0
  6
CONTINUOUS
 62
   249
 10
366.506031
 20
130.098556
 30
0.0
 11
367.478167
 21
130.098556
 31
0.0
  0
LINE
  8
0
  6
CONTINUOUS
 62
   249
 10
366.496128
 20
132.499996
 30
0.0
 11
367.473936
 21
132.499996
 31
0.0
  0
LINE
  8
0
  6
CONTINUOUS
 62
   249
 10
366.500897
 20
127.68998
 30
0.0
 11
367.5
 21
127.68998
 31
0.0
  0
ARC
  8
0
  6
CONTINUOUS
 62
   249
 10
365.864862
 20
128.894238
 30
0.0
 40
1.204309
 50
90.0
 51
270.0
  0
LINE
  8
0
  6
CONTINUOUS
 62
   249
 10
365.859898
 20
127.689937
 30
0.0
 11
366.509496
 21
127.689937
 31
0.0
  0
LINE
  8
0
  6
CONTINUOUS
 62
   249
 10
365.858762
 20
132.499993
 30
0.0
 11
366.502261
 21
132.499993
 31
0.0
  0
LINE
  8
0
  6
CONTINUOUS
 62
   249
 10
365.858762
 20
130.098547
 30
0.0
 11
366.50836
 21
130.098547
 31
0.0
  0
ARC
  8
0
  6
CONTINUOUS
 62
   249
 10
365.864862
 20
131.296095
 30
0.0
 40
1.204309
 50
90.0
 51
265.706237
  0
LINE
  8
0
  6
CONTINUOUS
 62
   249
 10
367.5
 20
127.68998
 30
0.0
 11
367.5
 21
125.0
 31
0.0
  0
LINE
  8
0
  6
CONTINUOUS
 62
   249
 10
352.5
 20
137.68998
 30
0.0
 11
372.5
 21
137.68998
 31
0.0
  0
TEXT
  8
0
  6
CONTINUOUS
 62
   249
 10
279.032452
 20
241.491205
 30
0.0
 40
2.0
  1
L3
  7
GREEKS
  0
TEXT
  8
0
  6
CONTINUOUS
 62
   249
 10
279.032452
 20
246.554737
 30
0.0
 40
2.0
  1
L2
  7
GREEKS
  0
TEXT
  8
0
  6
CONTINUOUS
 62
   249
 10
279.032452
 20
251.475003
 30
0.0
 40
2.0
  1
L1
  7
GREEKS
  0
LINE
  8
0
  6
DASHED
 62
   249
 10
312.5
 20
252.5
 30
0.0
 11
285.0
 21
252.5
 31
0.0
  0
LINE
  8
0
  6
DASHED
 62
   249
 10
312.5
 20
247.5
 30
0.0
 11
285.0
 21
247.5
 31
0.0
  0
LINE
  8
0
  6
DASHED
 62
   249
 10
312.5
 20
242.5
 30
0.0
 11
285.0
 21
242.5
 31
0.0
  0
LINE
  8
0
  6
DASHED
 62
   249
 10
292.5
 20
207.689992
 30
0.0
 11
287.5
 21
207.689992
 31
0.0
  0
LINE
  8
0
  6
CONTINUOUS
 62
   249
 10
302.5
 20
225.0
 30
0.0
 11
302.0
 21
224.5
 31
0.0
  0
LINE
  8
0
  6
CONTINUOUS
 62
   249
 10
302.5
 20
225.0
 30
0.0
 11
302.0
 21
225.5
 31
0.0
  0
LINE
  8
0
  6
CONTINUOUS
 62
   249
 10
302.5
 20
225.0
 30
0.0
 11
303.0
 21
225.5
 31
0.0
  0
LINE
  8
0
  6
CONTINUOUS
 62
   249
 10
302.5
 20
225.0
 30
0.0
 11
303.0
 21
224.5
 31
0.0
  0
LINE
  8
0
  6
CONTINUOUS
 62
   249
 10
297.5
 20
225.0
 30
0.0
 11
297.0
 21
225.5
 31
0.0
  0
LINE
  8
0
  6
CONTINUOUS
 62
   249
 10
297.5
 20
225.0
 30
0.0
 11
297.0
 21
224.5
 31
0.0
  0
LINE
  8
0
  6
CONTINUOUS
 62
   249
 10
297.5
 20
225.0
 30
0.0
 11
298.0
 21
224.5
 31
0.0
  0
LINE
  8
0
  6
CONTINUOUS
 62
   249
 10
297.5
 20
225.0
 30
0.0
 11
298.0
 21
225.5
 31
0.0
  0
LINE
  8
0
  6
CONTINUOUS
 62
   249
 10
292.5
 20
225.0
 30
0.0
 11
292.0
 21
224.5
 31
0.0
  0
LINE
  8
0
  6
CONTINUOUS
 62
   249
 10
292.5
 20
225.0
 30
0.0
 11
293.0
 21
225.5
 31
0.0
  0
LINE
  8
0
  6
CONTINUOUS
 62
   249
 10
292.5
 20
225.0
 30
0.0
 11
293.0
 21
224.5
 31
0.0
  0
LINE
  8
0
  6
CONTINUOUS
 62
   249
 10
292.5
 20
225.0
 30
0.0
 11
292.0
 21
225.5
 31
0.0
  0
LINE
  8
0
  6
CONTINUOUS
 62
   249
 10
302.5
 20
217.5
 30
0.0
 11
300.0
 21
225.0
 31
0.0
  0
LINE
  8
0
  6
CONTINUOUS
 62
   249
 10
297.5
 20
217.5
 30
0.0
 11
295.0
 21
225.0
 31
0.0
  0
LINE
  8
0
  6
CONTINUOUS
 62
   249
 10
292.5
 20
217.5
 30
0.0
 11
290.0
 21
225.0
 31
0.0
  0
LINE
  8
0
  6
DASHED
 62
   249
 10
292.5
 20
237.5
 30
0.0
 11
292.5
 21
252.5
 31
0.0
  0
LINE
  8
0
  6
DASHED
 62
   249
 10
297.5
 20
237.5
 30
0.0
 11
297.5
 21
245.0
 31
0.0
  0
LINE
  8
0
  6
DASHED
 62
   249
 10
302.5
 20
217.5
 30
0.0
 11
302.5
 21
185.0
 31
0.0
  0
LINE
  8
0
  6
DASHED
 62
   249
 10
302.5
 20
242.5
 30
0.0
 11
302.5
 21
225.0
 31
0.0
  0
LINE
  8
0
  6
DASHED
 62
   249
 10
297.5
 20
217.5
 30
0.0
 11
297.5
 21
185.0
 31
0.0
  0
LINE
  8
0
  6
DASHED
 62
   249
 10
297.5
 20
247.5
 30
0.0
 11
297.5
 21
225.0
 31
0.0
  0
LINE
  8
0
  6
DASHED
 62
   249
 10
292.5
 20
225.0
 30
0.0
 11
292.5
 21
237.5
 31
0.0
  0
LINE
  8
0
  6
DASHED
 62
   249
 10
292.5
 20
217.5
 30
0.0
 11
292.5
 21
185.0
 31
0.0
  0
LINE
  8
0
  6
DASHED
 62
   249
 10
302.5
 20
185.0
 30
0.0
 11
302.5
 21
160.0
 31
0.0
  0
LINE
  8
0
  6
DASHED
 62
   249
 10
297.5
 20
185.0
 30
0.0
 11
297.5
 21
160.0
 31
0.0
  0
LINE
  8
0
  6
DASHED
 62
   249
 10
292.5
 20
185.0
 30
0.0
 11
292.5
 21
160.0
 31
0.0
  0
LINE
  8
0
  6
DASHED
 62
   249
 10
297.569797
 20
187.689984
 30
0.0
 11
287.5
 21
187.689984
 31
0.0
  0
LINE
  8
0
  6
DASHED
 62
   249
 10
302.506921
 20
167.689984
 30
0.0
 11
287.5
 21
167.689984
 31
0.0
  0
LINE
  8
0
  6
DASHED
 62
   249
 10
272.5
 20
202.5
 30
0.0
 11
272.5
 21
162.5
 31
0.0
  0
LINE
  8
0
  6
DASHED
 62
   249
 10
287.5
 20
207.689992
 30
0.0
 11
287.5
 21
160.0
 31
0.0
  0
LINE
  8
0
  6
DASHED
 62
   249
 10
292.5
 20
212.5
 30
0.0
 11
267.5
 21
212.5
 31
0.0
  0
LINE
  8
0
  6
DASHED
 62
   249
 10
297.5
 20
192.5
 30
0.0
 11
267.5
 21
192.5
 31
0.0
  0
LINE
  8
0
  6
DASHED
 62
   249
 10
302.5
 20
172.5
 30
0.0
 11
267.5
 21
172.5
 31
0.0
  0
TEXT
  8
0
  6
CONTINUOUS
 62
   249
 10
355.689699
 20
215.927167
 30
0.0
 40
2.0
  1
LEDNINGSTERMINAL
  7
ROMANS
  0
TEXT
  8
0
  6
CONTINUOUS
 62
   249
 10
355.689699
 20
219.260501
 30
0.0
 40
2.0
  1
FEEDER TERMINAL /
  7
ROMANS
  0
TEXT
  8
0
  6
CONTINUOUS
 62
   249
 10
364.040295
 20
226.59044
 30
0.0
 40
2.0
  1
x
  7
GREEKS
  0
TEXT
  8
0
  6
CONTINUOUS
 62
   249
 10
360.648723
 20
226.612471
 30
0.0
 40
2.5
  1
n
  7
GREEKS
  0
LINE
  8
0
  6
CONTINUOUS
 62
   249
 10
366.75788
 20
228.102225
 30
0.0
 11
366.75788
 21
226.314094
 31
0.0
  0
LINE
  8
0
  6
CONTINUOUS
 62
   249
 10
366.788912
 20
227.256947
 30
0.0
 11
374.577117
 21
227.256947
 31
0.0
  0
LINE
  8
0
  6
CONTINUOUS
 62
   249
 10
369.173056
 20
226.089344
 30
0.0
 11
372.049167
 21
228.917903
 31
0.0
  0
LINE
  8
0
  6
CONTINUOUS
 62
   249
 10
371.618463
 20
229.45511
 30
0.0
 11
372.51914
 21
228.331361
 31
0.0
  0
LINE
  8
0
  6
CONTINUOUS
 62
   249
 10
374.572576
 20
228.102225
 30
0.0
 11
374.572576
 21
226.314094
 31
0.0
  0
LINE
  8
0
  6
CONTINUOUS
 62
   249
 10
357.781241
 20
225.0
 30
0.0
 11
377.781241
 21
225.0
 31
0.0
  0
LINE
  8
0
  6
CONTINUOUS
 62
   249
 10
369.73223
 20
231.796181
 30
0.0
 11
368.483557
 21
231.162776
 31
0.0
  0
LINE
  8
0
  6
CONTINUOUS
 62
   249
 10
368.483557
 20
232.507003
 30
0.0
 11
369.73223
 21
231.796181
 31
0.0
  0
TEXT
  8
0
  6
DASHED
 62
   249
 10
364.2246
 20
250.768474
 30
0.0
 40
2.5
  1
3I
  0
LINE
  8
0
  6
CONTINUOUS
 62
   249
 10
368.631821
 20
253.316754
 30
0.0
 11
370.977586
 21
251.9814
 31
0.0
  0
LINE
  8
0
  6
CONTINUOUS
 62
   249
 10
370.977586
 20
251.9814
 30
0.0
 11
368.631821
 21
250.791481
 31
0.0
  0
LINE
  8
0
  6
CONTINUOUS
 62
   249
 10
363.381517
 20
247.706143
 30
0.0
 11
363.381517
 21
245.918012
 31
0.0
  0
LINE
  8
0
  6
CONTINUOUS
 62
   249
 10
363.412549
 20
246.860865
 30
0.0
 11
371.200754
 21
246.860865
 31
0.0
  0
LINE
  8
0
  6
CONTINUOUS
 62
   249
 10
368.2421
 20
249.059027
 30
0.0
 11
369.142777
 21
247.935278
 31
0.0
  0
ARC
  8
0
  6
HIDDEN
 62
   249
 10
370.107416
 20
250.789409
 30
0.0
 40
4.998196
 50
206.402922
 51
282.21115
  0
LINE
  8
0
  6
CONTINUOUS
 62
   249
 10
365.796693
 20
245.693262
 30
0.0
 11
368.672804
 21
248.521821
 31
0.0
  0
LINE
  8
0
  6
CONTINUOUS
 62
   249
 10
371.196212
 20
247.706143
 30
0.0
 11
371.196212
 21
245.918012
 31
0.0
  0
TEXT
  8
0
  6
DASHED
 62
   249
 10
364.2246
 20
240.782752
 30
0.0
 40
2.5
  1
3I
  0
LINE
  8
0
  6
CONTINUOUS
 62
   249
 10
371.220111
 20
242.00956
 30
0.0
 11
368.874345
 21
240.819641
 31
0.0
  0
LINE
  8
0
  6
CONTINUOUS
 62
   249
 10
368.874345
 20
243.344914
 30
0.0
 11
371.220111
 21
242.00956
 31
0.0
  0
LINE
  8
0
  6
CONTINUOUS
 62
   249
 10
371.098755
 20
243.344914
 30
0.0
 11
373.44452
 21
242.00956
 31
0.0
  0
LINE
  8
0
  6
CONTINUOUS
 62
   249
 10
373.44452
 20
242.00956
 30
0.0
 11
371.098755
 21
240.819641
 31
0.0
  0
LINE
  8
0
  6
CONTINUOUS
 62
   249
 10
371.196212
 20
238.052173
 30
0.0
 11
371.196212
 21
236.264041
 31
0.0
  0
LINE
  8
0
  6
CONTINUOUS
 62
   249
 10
368.2421
 20
239.405057
 30
0.0
 11
369.142777
 21
238.281308
 31
0.0
  0
LINE
  8
0
  6
CONTINUOUS
 62
   249
 10
365.796693
 20
236.039291
 30
0.0
 11
368.672804
 21
238.86785
 31
0.0
  0
LINE
  8
0
  6
CONTINUOUS
 62
   249
 10
363.412549
 20
237.206894
 30
0.0
 11
371.200754
 21
237.206894
 31
0.0
  0
LINE
  8
0
  6
CONTINUOUS
 62
   249
 10
363.381517
 20
238.052173
 30
0.0
 11
363.381517
 21
236.264041
 31
0.0
  0
LINE
  8
0
  6
CONTINUOUS
 62
   249
 10
357.781241
 20
235.0
 30
0.0
 11
377.781241
 21
235.0
 31
0.0
  0
LINE
  8
0
  6
CONTINUOUS
 62
   249
 10
357.781241
 20
255.0
 30
0.0
 11
377.781241
 21
255.0
 31
0.0
  0
LINE
  8
0
  6
CONTINUOUS
 62
   249
 10
377.781241
 20
255.0
 30
0.0
 11
377.781241
 21
225.0
 31
0.0
  0
LINE
  8
0
  6
CONTINUOUS
 62
   249
 10
377.781241
 20
235.0
 30
0.0
 11
357.781241
 21
235.0
 31
0.0
  0
LINE
  8
0
  6
CONTINUOUS
 62
   249
 10
357.781241
 20
225.0
 30
0.0
 11
357.781241
 21
255.0
 31
0.0
  0
TEXT
  8
0
  6
CONTINUOUS
 62
   249
 10
369.885032
 20
230.875304
 30
0.0
 40
2.0
  1
I
  0
TEXT
  8
0
  6
CONTINUOUS
 62
   249
 10
363.361917
 20
230.879555
 30
0.0
 40
2.0
  1
O
  0
LINE
  8
0
  6
CONTINUOUS
 62
   249
 10
365.239081
 20
231.796181
 30
0.0
 11
369.73223
 21
231.796181
 31
0.0
  0
LINE
  8
0
  6
CONTINUOUS
 62
   249
 10
357.781241
 20
232.5
 30
0.0
 11
357.781241
 21
225.0
 31
0.0
  0
LINE
  8
0
  6
CONTINUOUS
 62
   249
 10
357.781241
 20
235.0
 30
0.0
 11
377.781241
 21
235.0
 31
0.0
  0
LINE
  8
0
  6
CONTINUOUS
 62
   249
 10
377.781241
 20
225.0
 30
0.0
 11
377.781241
 21
232.5
 31
0.0
  0
LINE
  8
0
  6
DASHED
 62
   249
 10
267.5
 20
202.5
 30
0.0
 11
272.5
 21
202.5
 31
0.0
  0
LINE
  8
0
  6
DASHED
 62
   249
 10
267.5
 20
162.5
 30
0.0
 11
287.5
 21
162.5
 31
0.0
  0
LINE
  8
0
  6
DASHED
 62
   249
 10
267.5
 20
77.5
 30
0.0
 11
367.5
 21
77.5
 31
0.0
  0
LINE
  8
0
  6
DASHED
 62
   249
 10
275.0
 20
87.5
 30
0.0
 11
275.0
 21
77.5
 31
0.0
  0
LINE
  8
0
  6
DASHED
 62
   249
 10
267.5
 20
67.5
 30
0.0
 11
280.0
 21
67.5
 31
0.0
  0
LINE
  8
0
  6
DASHED
 62
   249
 10
280.0
 20
117.5
 30
0.0
 11
280.0
 21
67.5
 31
0.0
  0
LINE
  8
0
  6
DASHED
 62
   249
 10
267.5
 20
87.5
 30
0.0
 11
275.0
 21
87.5
 31
0.0
  0
LINE
  8
0
  6
DASHED
 62
   249
 10
267.5
 20
107.5
 30
0.0
 11
275.0
 21
107.5
 31
0.0
  0
LINE
  8
0
  6
CONTINUOUS
 62
   249
 10
217.5
 20
200.0
 30
0.0
 11
210.450615
 21
200.0
 31
0.0
  0
LINE
  8
0
  6
DASHED
 62
   249
 10
267.5
 20
182.5
 30
0.0
 11
272.5
 21
182.5
 31
0.0
  0
TEXT
  8
0
  6
CONTINUOUS
 62
   249
 10
135.579905
 20
58.630973
 30
0.0
 40
2.0
  1
CH 15
 50
90.0
  7
ROMANS
  0
LINE
  8
0
  6
DASHED
 62
   249
 10
17.5
 20
80.0
 30
0.0
 11
12.5
 21
80.0
 31
0.0
  0
TEXT
  8
0
  6
CONTINUOUS
 62
   249
 10
87.18879
 20
26.084138
 30
0.0
 40
2.0
  1
  SIGNALUTGÅNG
  7
ROMANS
  0
TEXT
  8
0
  6
CONTINUOUS
 62
   249
 10
85.850637
 20
29.417471
 30
0.0
 40
2.0
  1
5) ALARM OUTPUT /
  7
ROMANS
  0
TEXT
  8
0
  6
CONTINUOUS
 62
   249
 10
18.184733
 20
17.044326
 30
0.0
 40
2.0
  1
  UTLÖSNING 2 ELLER SIGNALUTGÅNG
  7
ROMANS
  0
TEXT
  8
0
  6
CONTINUOUS
 62
   249
 10
16.860934
 20
20.37766
 30
0.0
 40
2.0
  1
4) TRIP 2 OR ALARM OUTPUT /
  7
ROMANS
  0
TEXT
  8
0
  6
CONTINUOUS
 62
   249
 10
18.199949
 20
26.219115
 30
0.0
 40
2.0
  1
  UTLÖSNING 1
  7
ROMANS
  0
TEXT
  8
0
  6
CONTINUOUS
 62
   249
 10
16.860934
 20
29.552448
 30
0.0
 40
2.0
  1
3) TRIP 1 /
  7
ROMANS
  0
TEXT
  8
0
  6
CONTINUOUS
 62
   249
 10
18.199949
 20
35.385781
 30
0.0
 40
2.0
  1
  BLOCKERING IN
  7
ROMANS
  0
TEXT
  8
0
  6
CONTINUOUS
 62
   249
 10
16.860934
 20
38.719115
 30
0.0
 40
2.0
  1
2) BLOCKING INPUT /
  7
ROMANS
  0
TEXT
  8
0
  6
CONTINUOUS
 62
   249
 10
87.189015
 20
17.027188
 30
0.0
 40
2.0
  1
  START, BLOCKERING MM.
  7
ROMANS
  0
TEXT
  8
0
  6
CONTINUOUS
 62
   249
 10
85.850637
 20
20.360521
 30
0.0
 40
2.0
  1
6) START, BLOCKING ETC.
  7
ROMANS
  0
TEXT
  8
0
  6
CONTINUOUS
 62
   249
 10
8.547174
 20
93.96848
 30
0.0
 40
2.0
  1
+
  0
TEXT
  8
0
  6
CONTINUOUS
 62
   249
 10
8.547174
 20
113.939106
 30
0.0
 40
2.0
  1
+
  0
TEXT
  8
0
  6
CONTINUOUS
 62
   249
 10
8.547174
 20
124.003948
 30
0.0
 40
2.0
  1
+
  0
TEXT
  8
0
  6
CONTINUOUS
 62
   249
 10
8.610434
 20
141.463062
 30
0.0
 40
2.0
  1
-
  0
TEXT
  8
0
  6
CONTINUOUS
 62
   249
 10
8.69423
 20
206.50558
 30
0.0
 40
2.0
  1
-
  0
TEXT
  8
0
  6
CONTINUOUS
 62
   249
 10
8.702795
 20
211.513635
 30
0.0
 40
2.0
  1
+
  0
ARC
  8
0
  6
CONTINUOUS
 62
   249
 10
55.0
 20
138.644494
 30
0.0
 40
0.5
 50
180.0
 51
0.0
  0
ARC
  8
0
  6
CONTINUOUS
 62
   249
 10
55.0
 20
138.644494
 30
0.0
 40
0.5
 50
0.0
 51
180.0
  0
ARC
  8
0
  6
CONTINUOUS
 62
   249
 10
72.5
 20
187.015226
 30
0.0
 40
0.5
 50
180.0
 51
0.0
  0
ARC
  8
0
  6
CONTINUOUS
 62
   249
 10
72.5
 20
187.015226
 30
0.0
 40
0.5
 50
0.0
 51
180.0
  0
ARC
  8
0
  6
CONTINUOUS
 62
   249
 10
47.5
 20
207.5
 30
0.0
 40
0.5
 50
180.0
 51
0.0
  0
ARC
  8
0
  6
CONTINUOUS
 62
   249
 10
47.5
 20
207.5
 30
0.0
 40
0.5
 50
0.0
 51
180.0
  0
ARC
  8
0
  6
CONTINUOUS
 62
   249
 10
70.0
 20
202.066264
 30
0.0
 40
0.5
 50
180.0
 51
0.0
  0
ARC
  8
0
  6
CONTINUOUS
 62
   249
 10
70.0
 20
202.066264
 30
0.0
 40
0.5
 50
0.0
 51
180.0
  0
TEXT
  8
0
  6
CONTINUOUS
 62
   249
 10
8.702795
 20
219.013635
 30
0.0
 40
2.0
  1
+
  0
LINE
  8
0
  6
CONTINUOUS
 62
   249
 10
176.989729
 20
211.164635
 30
0.0
 11
174.643963
 21
212.499989
 31
0.0
  0
LINE
  8
0
  6
CONTINUOUS
 62
   249
 10
174.643963
 20
212.499989
 30
0.0
 11
176.989729
 21
213.689908
 31
0.0
  0
ARC
  8
0
  6
CONTINUOUS
 62
   249
 10
135.0
 20
187.015226
 30
0.0
 40
0.5
 50
180.0
 51
0.0
  0
ARC
  8
0
  6
CONTINUOUS
 62
   249
 10
135.0
 20
187.015226
 30
0.0
 40
0.5
 50
0.0
 51
180.0
  0
ARC
  8
0
  6
CONTINUOUS
 62
   249
 10
75.0
 20
162.5
 30
0.0
 40
0.5
 50
180.0
 51
0.0
  0
ARC
  8
0
  6
CONTINUOUS
 62
   249
 10
75.0
 20
162.5
 30
0.0
 40
0.5
 50
0.0
 51
180.0
  0
ARC
  8
0
  6
CONTINUOUS
 62
   249
 10
132.5
 20
197.5
 30
0.0
 40
0.5
 50
180.0
 51
0.0
  0
ARC
  8
0
  6
CONTINUOUS
 62
   249
 10
132.5
 20
197.5
 30
0.0
 40
0.5
 50
0.0
 51
180.0
  0
ARC
  8
0
  6
CONTINUOUS
 62
   249
 10
130.0
 20
202.066264
 30
0.0
 40
0.5
 50
180.0
 51
0.0
  0
ARC
  8
0
  6
CONTINUOUS
 62
   249
 10
130.0
 20
202.066264
 30
0.0
 40
0.5
 50
0.0
 51
180.0
  0
ARC
  8
0
  6
CONTINUOUS
 62
   249
 10
127.5
 20
212.5
 30
0.0
 40
0.5
 50
180.0
 51
0.0
  0
ARC
  8
0
  6
CONTINUOUS
 62
   249
 10
127.5
 20
212.5
 30
0.0
 40
0.5
 50
0.0
 51
180.0
  0
LINE
  8
0
  6
CONTINUOUS
 62
   249
 10
176.989729
 20
185.679877
 30
0.0
 11
174.643963
 21
187.015231
 31
0.0
  0
LINE
  8
0
  6
CONTINUOUS
 62
   249
 10
174.643963
 20
187.015231
 30
0.0
 11
176.989729
 21
188.20515
 31
0.0
  0
LINE
  8
0
  6
CONTINUOUS
 62
   249
 10
176.989729
 20
200.731684
 30
0.0
 11
174.643963
 21
202.067038
 31
0.0
  0
LINE
  8
0
  6
CONTINUOUS
 62
   249
 10
174.643963
 20
202.067038
 30
0.0
 11
176.989729
 21
203.256957
 31
0.0
  0
LINE
  8
0
  6
CONTINUOUS
 62
   249
 10
176.989729
 20
196.164635
 30
0.0
 11
174.643963
 21
197.499989
 31
0.0
  0
LINE
  8
0
  6
CONTINUOUS
 62
   249
 10
174.643963
 20
197.499989
 30
0.0
 11
176.989729
 21
198.689908
 31
0.0
  0
ARC
  8
0
  6
CONTINUOUS
 62
   249
 10
172.5
 20
205.0
 30
0.0
 40
0.5
 50
180.0
 51
0.0
  0
ARC
  8
0
  6
CONTINUOUS
 62
   249
 10
172.5
 20
205.0
 30
0.0
 40
0.5
 50
0.0
 51
180.0
  0
ARC
  8
0
  6
CONTINUOUS
 62
   249
 10
170.0
 20
208.000813
 30
0.0
 40
0.5
 50
180.0
 51
0.0
  0
ARC
  8
0
  6
CONTINUOUS
 62
   249
 10
170.0
 20
208.000813
 30
0.0
 40
0.5
 50
0.0
 51
180.0
  0
LINE
  8
0
  6
CONTINUOUS
 62
   249
 10
381.509978
 20
132.5
 30
0.0
 11
384.155635
 21
132.5
 31
0.0
  0
LINE
  8
0
  6
CONTINUOUS
 62
   249
 10
385.937188
 20
131.896305
 30
0.0
 11
385.937188
 21
133.103695
 31
0.0
  0
LINE
  8
0
  6
CONTINUOUS
 62
   249
 10
385.049675
 20
131.463807
 30
0.0
 11
385.049675
 21
133.527182
 31
0.0
  0
LINE
  8
0
  6
CONTINUOUS
 62
   249
 10
384.155635
 20
130.968237
 30
0.0
 11
384.155635
 21
134.031763
 31
0.0
  0
LINE
  8
0
 62
   249
 10
211.786248
 20
6.306997
 30
0.0
 11
213.547099
 21
8.067848
 31
0.0
  0
LINE
  8
0
 62
   249
 10
211.852879
 20
6.497372
 30
0.0
 11
213.547099
 21
8.191591
 31
0.0
  0
LINE
  8
0
 62
   249
 10
211.919511
 20
6.687747
 30
0.0
 11
213.547099
 21
8.315335
 31
0.0
  0
LINE
  8
0
 62
   249
 10
211.986142
 20
6.878122
 30
0.0
 11
213.547099
 21
8.439079
 31
0.0
  0
LINE
  8
0
 62
   249
 10
212.052773
 20
7.068497
 30
0.0
 11
213.547099
 21
8.562822
 31
0.0
  0
LINE
  8
0
 62
   249
 10
212.119404
 20
7.258871
 30
0.0
 11
213.547099
 21
8.686566
 31
0.0
  0
LINE
  8
0
 62
   249
 10
212.186036
 20
7.449246
 30
0.0
 11
213.474788
 21
8.737999
 31
0.0
  0
LINE
  8
0
 62
   249
 10
212.252667
 20
7.639621
 30
0.0
 11
213.351045
 21
8.737999
 31
0.0
  0
LINE
  8
0
 62
   249
 10
212.319298
 20
7.829996
 30
0.0
 11
213.227301
 21
8.737999
 31
0.0
  0
LINE
  8
0
 62
   249
 10
212.385929
 20
8.020371
 30
0.0
 11
213.103557
 21
8.737999
 31
0.0
  0
LINE
  8
0
 62
   249
 10
212.45256
 20
8.210746
 30
0.0
 11
212.979814
 21
8.737999
 31
0.0
  0
LINE
  8
0
 62
   249
 10
212.519192
 20
8.401121
 30
0.0
 11
212.85607
 21
8.737999
 31
0.0
  0
LINE
  8
0
 62
   249
 10
212.585823
 20
8.591496
 30
0.0
 11
212.732326
 21
8.737999
 31
0.0
  0
LINE
  8
0
 62
   249
 10
211.719617
 20
6.116622
 30
0.0
 11
213.547099
 21
7.944104
 31
0.0
  0
LINE
  8
0
 62
   249
 10
211.652986
 20
5.926247
 30
0.0
 11
213.547099
 21
7.82036
 31
0.0
  0
LINE
  8
0
 62
   249
 10
211.586355
 20
5.735872
 30
0.0
 11
213.547099
 21
7.696617
 31
0.0
  0
LINE
  8
0
 62
   249
 10
211.519723
 20
5.545497
 30
0.0
 11
213.547099
 21
7.572873
 31
0.0
  0
LINE
  8
0
 62
   249
 10
211.475969
 20
5.377999
 30
0.0
 11
213.547099
 21
7.449129
 31
0.0
  0
LINE
  8
0
 62
   249
 10
211.599713
 20
5.377999
 30
0.0
 11
213.547099
 21
7.325386
 31
0.0
  0
LINE
  8
0
 62
   249
 10
211.723456
 20
5.377999
 30
0.0
 11
213.547099
 21
7.201642
 31
0.0
  0
LINE
  8
0
 62
   249
 10
211.8472
 20
5.377999
 30
0.0
 11
213.547099
 21
7.077898
 31
0.0
  0
LINE
  8
0
 62
   249
 10
211.970944
 20
5.377999
 30
0.0
 11
213.547099
 21
6.954155
 31
0.0
  0
LINE
  8
0
 62
   249
 10
212.094687
 20
5.377999
 30
0.0
 11
213.547099
 21
6.830411
 31
0.0
  0
LINE
  8
0
 62
   249
 10
212.218431
 20
5.377999
 30
0.0
 11
213.547099
 21
6.706667
 31
0.0
  0
LINE
  8
0
 62
   249
 10
212.342175
 20
5.377999
 30
0.0
 11
213.547099
 21
6.582923
 31
0.0
  0
LINE
  8
0
 62
   249
 10
212.465919
 20
5.377999
 30
0.0
 11
213.547099
 21
6.45918
 31
0.0
  0
LINE
  8
0
 62
   249
 10
212.589662
 20
5.377999
 30
0.0
 11
213.547099
 21
6.335436
 31
0.0
  0
LINE
  8
0
 62
   249
 10
212.713406
 20
5.377999
 30
0.0
 11
213.547099
 21
6.211692
 31
0.0
  0
LINE
  8
0
 62
   249
 10
212.83715
 20
5.377999
 30
0.0
 11
213.547099
 21
6.087949
 31
0.0
  0
LINE
  8
0
 62
   249
 10
212.960893
 20
5.377999
 30
0.0
 11
213.547099
 21
5.964205
 31
0.0
  0
LINE
  8
0
 62
   249
 10
213.084637
 20
5.377999
 30
0.0
 11
213.547099
 21
5.840461
 31
0.0
  0
LINE
  8
0
 62
   249
 10
213.208381
 20
5.377999
 30
0.0
 11
213.547099
 21
5.716718
 31
0.0
  0
LINE
  8
0
 62
   249
 10
213.332124
 20
5.377999
 30
0.0
 11
213.547099
 21
5.592974
 31
0.0
  0
LINE
  8
0
 62
   249
 10
213.455868
 20
5.377999
 30
0.0
 11
213.547099
 21
5.46923
 31
0.0
  0
LINE
  8
0
 62
   249
 10
213.827099
 20
5.996718
 30
0.0
 11
215.211876
 21
7.381494
 31
0.0
  0
LINE
  8
0
 62
   249
 10
213.827099
 20
6.120461
 30
0.0
 11
215.179794
 21
7.473156
 31
0.0
  0
LINE
  8
0
 62
   249
 10
213.827099
 20
6.244205
 30
0.0
 11
215.147712
 21
7.564818
 31
0.0
  0
LINE
  8
0
 62
   249
 10
213.827099
 20
6.367949
 30
0.0
 11
215.115631
 21
7.65648
 31
0.0
  0
LINE
  8
0
 62
   249
 10
213.827099
 20
6.491692
 30
0.0
 11
215.083549
 21
7.748142
 31
0.0
  0
LINE
  8
0
 62
   249
 10
213.827099
 20
6.615436
 30
0.0
 11
215.051467
 21
7.839804
 31
0.0
  0
LINE
  8
0
 62
   249
 10
213.827099
 20
6.73918
 30
0.0
 11
215.019386
 21
7.931466
 31
0.0
  0
LINE
  8
0
 62
   249
 10
213.827099
 20
6.862923
 30
0.0
 11
214.987304
 21
8.023128
 31
0.0
  0
LINE
  8
0
 62
   249
 10
213.827099
 20
6.986667
 30
0.0
 11
214.955222
 21
8.11479
 31
0.0
  0
LINE
  8
0
 62
   249
 10
213.827099
 20
7.110411
 30
0.0
 11
214.923141
 21
8.206452
 31
0.0
  0
LINE
  8
0
 62
   249
 10
213.827099
 20
7.234155
 30
0.0
 11
214.891059
 21
8.298114
 31
0.0
  0
LINE
  8
0
 62
   249
 10
213.827099
 20
7.357898
 30
0.0
 11
214.858977
 21
8.389776
 31
0.0
  0
LINE
  8
0
 62
   249
 10
213.827099
 20
7.481642
 30
0.0
 11
214.826895
 21
8.481438
 31
0.0
  0
LINE
  8
0
 62
   249
 10
213.827099
 20
7.605386
 30
0.0
 11
214.794814
 21
8.5731
 31
0.0
  0
LINE
  8
0
 62
   249
 10
213.827099
 20
7.729129
 30
0.0
 11
214.762732
 21
8.664762
 31
0.0
  0
LINE
  8
0
 62
   249
 10
213.827099
 20
7.852873
 30
0.0
 11
214.712225
 21
8.737999
 31
0.0
  0
LINE
  8
0
 62
   249
 10
213.827099
 20
7.976617
 30
0.0
 11
214.588482
 21
8.737999
 31
0.0
  0
LINE
  8
0
 62
   249
 10
213.827099
 20
8.10036
 30
0.0
 11
214.464738
 21
8.737999
 31
0.0
  0
LINE
  8
0
 62
   249
 10
213.827099
 20
8.224104
 30
0.0
 11
214.340994
 21
8.737999
 31
0.0
  0
LINE
  8
0
 62
   249
 10
213.827099
 20
8.347848
 30
0.0
 11
214.217251
 21
8.737999
 31
0.0
  0
LINE
  8
0
 62
   249
 10
213.827099
 20
8.471591
 30
0.0
 11
214.093507
 21
8.737999
 31
0.0
  0
LINE
  8
0
 62
   249
 10
213.827099
 20
8.595335
 30
0.0
 11
213.969763
 21
8.737999
 31
0.0
  0
LINE
  8
0
 62
   249
 10
213.827099
 20
8.719079
 30
0.0
 11
213.84602
 21
8.737999
 31
0.0
  0
LINE
  8
0
 62
   249
 10
213.827099
 20
5.872974
 30
0.0
 11
215.243957
 21
7.289832
 31
0.0
  0
LINE
  8
0
 62
   249
 10
213.827099
 20
5.74923
 30
0.0
 11
215.276039
 21
7.19817
 31
0.0
  0
LINE
  8
0
 62
   249
 10
213.827099
 20
5.625487
 30
0.0
 11
215.308121
 21
7.106508
 31
0.0
  0
LINE
  8
0
 62
   249
 10
213.827099
 20
5.501743
 30
0.0
 11
215.340203
 21
7.014846
 31
0.0
  0
LINE
  8
0
 62
   249
 10
213.827099
 20
5.377999
 30
0.0
 11
215.372284
 21
6.923184
 31
0.0
  0
LINE
  8
0
 62
   249
 10
213.950843
 20
5.377999
 30
0.0
 11
215.404366
 21
6.831522
 31
0.0
  0
LINE
  8
0
 62
   249
 10
214.074586
 20
5.377999
 30
0.0
 11
215.436448
 21
6.73986
 31
0.0
  0
LINE
  8
0
 62
   249
 10
214.19833
 20
5.377999
 30
0.0
 11
215.468529
 21
6.648198
 31
0.0
  0
LINE
  8
0
 62
   249
 10
214.322074
 20
5.377999
 30
0.0
 11
215.500611
 21
6.556536
 31
0.0
  0
LINE
  8
0
 62
   249
 10
214.445818
 20
5.377999
 30
0.0
 11
215.532693
 21
6.464874
 31
0.0
  0
LINE
  8
0
 62
   249
 10
214.569561
 20
5.377999
 30
0.0
 11
215.564774
 21
6.373212
 31
0.0
  0
LINE
  8
0
 62
   249
 10
214.693305
 20
5.377999
 30
0.0
 11
215.596856
 21
6.281551
 31
0.0
  0
LINE
  8
0
 62
   249
 10
214.817049
 20
5.377999
 30
0.0
 11
215.628938
 21
6.189889
 31
0.0
  0
LINE
  8
0
 62
   249
 10
214.940792
 20
5.377999
 30
0.0
 11
215.66102
 21
6.098227
 31
0.0
  0
LINE
  8
0
 62
   249
 10
215.064536
 20
5.377999
 30
0.0
 11
215.693101
 21
6.006565
 31
0.0
  0
LINE
  8
0
 62
   249
 10
215.18828
 20
5.377999
 30
0.0
 11
215.725183
 21
5.914903
 31
0.0
  0
LINE
  8
0
 62
   249
 10
215.312023
 20
5.377999
 30
0.0
 11
215.757265
 21
5.823241
 31
0.0
  0
LINE
  8
0
 62
   249
 10
215.435767
 20
5.377999
 30
0.0
 11
215.789346
 21
5.731579
 31
0.0
  0
LINE
  8
0
 62
   249
 10
215.559511
 20
5.377999
 30
0.0
 11
215.821428
 21
5.639917
 31
0.0
  0
LINE
  8
0
 62
   249
 10
215.683254
 20
5.377999
 30
0.0
 11
215.85351
 21
5.548255
 31
0.0
  0
LINE
  8
0
 62
   249
 10
215.806998
 20
5.377999
 30
0.0
 11
215.885591
 21
5.456593
 31
0.0
  0
LINE
  8
0
 62
   249
 10
217.677099
 20
6.134407
 30
0.0
 11
219.637099
 21
8.094407
 31
0.0
  0
LINE
  8
0
 62
   249
 10
217.677099
 20
6.258151
 30
0.0
 11
219.637099
 21
8.218151
 31
0.0
  0
LINE
  8
0
 62
   249
 10
217.677099
 20
6.381894
 30
0.0
 11
219.637099
 21
8.341894
 31
0.0
  0
LINE
  8
0
 62
   249
 10
217.677099
 20
6.505638
 30
0.0
 11
219.637099
 21
8.465638
 31
0.0
  0
LINE
  8
0
 62
   249
 10
217.677099
 20
6.629382
 30
0.0
 11
219.637099
 21
8.589382
 31
0.0
  0
LINE
  8
0
 62
   249
 10
217.677099
 20
6.753126
 30
0.0
 11
219.637099
 21
8.713126
 31
0.0
  0
LINE
  8
0
 62
   249
 10
217.677099
 20
6.876869
 30
0.0
 11
219.538229
 21
8.737999
 31
0.0
  0
LINE
  8
0
 62
   249
 10
217.677099
 20
7.000613
 30
0.0
 11
219.414485
 21
8.737999
 31
0.0
  0
LINE
  8
0
 62
   249
 10
217.677099
 20
7.124357
 30
0.0
 11
219.290742
 21
8.737999
 31
0.0
  0
LINE
  8
0
 62
   249
 10
217.677099
 20
7.2481
 30
0.0
 11
219.166998
 21
8.737999
 31
0.0
  0
LINE
  8
0
 62
   249
 10
217.677099
 20
7.371844
 30
0.0
 11
219.043254
 21
8.737999
 31
0.0
  0
LINE
  8
0
 62
   249
 10
217.677099
 20
7.495588
 30
0.0
 11
218.919511
 21
8.737999
 31
0.0
  0
LINE
  8
0
 62
   249
 10
217.677099
 20
7.619331
 30
0.0
 11
218.795767
 21
8.737999
 31
0.0
  0
LINE
  8
0
 62
   249
 10
217.677099
 20
7.743075
 30
0.0
 11
218.672023
 21
8.737999
 31
0.0
  0
LINE
  8
0
 62
   249
 10
217.677099
 20
7.866819
 30
0.0
 11
218.54828
 21
8.737999
 31
0.0
  0
LINE
  8
0
 62
   249
 10
217.677099
 20
7.990562
 30
0.0
 11
218.424536
 21
8.737999
 31
0.0
  0
LINE
  8
0
 62
   249
 10
217.677099
 20
8.114306
 30
0.0
 11
218.300792
 21
8.737999
 31
0.0
  0
LINE
  8
0
 62
   249
 10
217.677099
 20
8.23805
 30
0.0
 11
218.177049
 21
8.737999
 31
0.0
  0
LINE
  8
0
 62
   249
 10
217.677099
 20
8.361793
 30
0.0
 11
218.053305
 21
8.737999
 31
0.0
  0
LINE
  8
0
 62
   249
 10
217.677099
 20
8.485537
 30
0.0
 11
217.929561
 21
8.737999
 31
0.0
  0
LINE
  8
0
 62
   249
 10
217.677099
 20
8.609281
 30
0.0
 11
217.805818
 21
8.737999
 31
0.0
  0
LINE
  8
0
 62
   249
 10
217.677099
 20
8.733025
 30
0.0
 11
217.682074
 21
8.737999
 31
0.0
  0
LINE
  8
0
 62
   249
 10
217.677099
 20
6.010663
 30
0.0
 11
219.637099
 21
7.970663
 31
0.0
  0
LINE
  8
0
 62
   249
 10
217.677099
 20
5.88692
 30
0.0
 11
219.637099
 21
7.84692
 31
0.0
  0
LINE
  8
0
 62
   249
 10
217.677099
 20
5.763176
 30
0.0
 11
219.637099
 21
7.723176
 31
0.0
  0
LINE
  8
0
 62
   249
 10
217.677099
 20
5.639432
 30
0.0
 11
219.637099
 21
7.599432
 31
0.0
  0
LINE
  8
0
 62
   249
 10
217.677099
 20
5.515689
 30
0.0
 11
219.637099
 21
7.475689
 31
0.0
  0
LINE
  8
0
 62
   249
 10
217.677099
 20
5.391945
 30
0.0
 11
219.637099
 21
7.351945
 31
0.0
  0
LINE
  8
0
 62
   249
 10
217.786897
 20
5.377999
 30
0.0
 11
219.637099
 21
7.228201
 31
0.0
  0
LINE
  8
0
 62
   249
 10
217.910641
 20
5.377999
 30
0.0
 11
219.637099
 21
7.104458
 31
0.0
  0
LINE
  8
0
 62
   249
 10
218.034384
 20
5.377999
 30
0.0
 11
219.637099
 21
6.980714
 31
0.0
  0
LINE
  8
0
 62
   249
 10
218.158128
 20
5.377999
 30
0.0
 11
219.637099
 21
6.85697
 31
0.0
  0
LINE
  8
0
 62
   249
 10
218.281872
 20
5.377999
 30
0.0
 11
219.637099
 21
6.733227
 31
0.0
  0
LINE
  8
0
 62
   249
 10
218.405615
 20
5.377999
 30
0.0
 11
219.637099
 21
6.609483
 31
0.0
  0
LINE
  8
0
 62
   249
 10
218.529359
 20
5.377999
 30
0.0
 11
219.637099
 21
6.485739
 31
0.0
  0
LINE
  8
0
 62
   249
 10
218.653103
 20
5.377999
 30
0.0
 11
219.637099
 21
6.361995
 31
0.0
  0
LINE
  8
0
 62
   249
 10
218.776847
 20
5.377999
 30
0.0
 11
219.637099
 21
6.238252
 31
0.0
  0
LINE
  8
0
 62
   249
 10
218.90059
 20
5.377999
 30
0.0
 11
219.637099
 21
6.114508
 31
0.0
  0
LINE
  8
0
 62
   249
 10
219.024334
 20
5.377999
 30
0.0
 11
219.637099
 21
5.990764
 31
0.0
  0
LINE
  8
0
 62
   249
 10
219.148078
 20
5.377999
 30
0.0
 11
219.637099
 21
5.867021
 31
0.0
  0
LINE
  8
0
 62
   249
 10
219.271821
 20
5.377999
 30
0.0
 11
219.637099
 21
5.743277
 31
0.0
  0
LINE
  8
0
 62
   249
 10
219.395565
 20
5.377999
 30
0.0
 11
219.637099
 21
5.619533
 31
0.0
  0
LINE
  8
0
 62
   249
 10
219.519309
 20
5.377999
 30
0.0
 11
219.637099
 21
5.49579
 31
0.0
  0
LINE
  8
0
 62
   249
 10
219.917099
 20
6.147021
 30
0.0
 11
221.795195
 21
8.025117
 31
0.0
  0
LINE
  8
0
 62
   249
 10
219.917099
 20
6.270764
 30
0.0
 11
221.744451
 21
8.098116
 31
0.0
  0
LINE
  8
0
 62
   249
 10
219.917099
 20
6.394508
 30
0.0
 11
221.690148
 21
8.167557
 31
0.0
  0
LINE
  8
0
 62
   249
 10
219.917099
 20
6.518252
 30
0.0
 11
221.63236
 21
8.233512
 31
0.0
  0
LINE
  8
0
 62
   249
 10
219.917099
 20
6.641995
 30
0.0
 11
221.571123
 21
8.29602
 31
0.0
  0
LINE
  8
0
 62
   249
 10
219.917099
 20
6.765739
 30
0.0
 11
221.506446
 21
8.355086
 31
0.0
  0
LINE
  8
0
 62
   249
 10
219.917099
 20
6.889483
 30
0.0
 11
221.4383
 21
8.410684
 31
0.0
  0
LINE
  8
0
 62
   249
 10
219.917099
 20
7.013227
 30
0.0
 11
221.366627
 21
8.462755
 31
0.0
  0
LINE
  8
0
 62
   249
 10
219.917099
 20
7.13697
 30
0.0
 11
221.291331
 21
8.511202
 31
0.0
  0
LINE
  8
0
 62
   249
 10
219.917099
 20
7.260714
 30
0.0
 11
221.212274
 21
8.555889
 31
0.0
  0
LINE
  8
0
 62
   249
 10
219.917099
 20
7.384458
 30
0.0
 11
221.129271
 21
8.59663
 31
0.0
  0
LINE
  8
0
 62
   249
 10
219.917099
 20
7.508201
 30
0.0
 11
221.042076
 21
8.633178
 31
0.0
  0
LINE
  8
0
 62
   249
 10
219.917099
 20
7.631945
 30
0.0
 11
220.950366
 21
8.665212
 31
0.0
  0
LINE
  8
0
 62
   249
 10
219.917099
 20
7.755689
 30
0.0
 11
220.853718
 21
8.692307
 31
0.0
  0
LINE
  8
0
 62
   249
 10
219.917099
 20
7.879432
 30
0.0
 11
220.751567
 21
8.7139
 31
0.0
  0
LINE
  8
0
 62
   249
 10
219.917099
 20
8.003176
 30
0.0
 11
220.643145
 21
8.729222
 31
0.0
  0
LINE
  8
0
 62
   249
 10
219.917099
 20
8.12692
 30
0.0
 11
220.527376
 21
8.737197
 31
0.0
  0
LINE
  8
0
 62
   249
 10
219.917099
 20
8.250663
 30
0.0
 11
220.404434
 21
8.737999
 31
0.0
  0
LINE
  8
0
 62
   249
 10
219.917099
 20
8.374407
 30
0.0
 11
220.280691
 21
8.737999
 31
0.0
  0
LINE
  8
0
 62
   249
 10
219.917099
 20
8.498151
 30
0.0
 11
220.156947
 21
8.737999
 31
0.0
  0
LINE
  8
0
 62
   249
 10
219.917099
 20
8.621894
 30
0.0
 11
220.033204
 21
8.737999
 31
0.0
  0
LINE
  8
0
 62
   249
 10
219.917099
 20
6.023277
 30
0.0
 11
221.842271
 21
7.948449
 31
0.0
  0
LINE
  8
0
 62
   249
 10
219.917099
 20
5.899533
 30
0.0
 11
221.885523
 21
7.867958
 31
0.0
  0
LINE
  8
0
 62
   249
 10
219.917099
 20
5.77579
 30
0.0
 11
221.924746
 21
7.783437
 31
0.0
  0
LINE
  8
0
 62
   249
 10
219.917099
 20
5.652046
 30
0.0
 11
221.959668
 21
7.694615
 31
0.0
  0
LINE
  8
0
 62
   249
 10
219.917099
 20
5.528302
 30
0.0
 11
221.989932
 21
7.601135
 31
0.0
  0
LINE
  8
0
 62
   249
 10
219.917099
 20
5.404559
 30
0.0
 11
222.015067
 21
7.502527
 31
0.0
  0
LINE
  8
0
 62
   249
 10
220.014283
 20
5.377999
 30
0.0
 11
222.034444
 21
7.39816
 31
0.0
  0
LINE
  8
0
 62
   249
 10
220.138027
 20
5.377999
 30
0.0
 11
222.047197
 21
7.287169
 31
0.0
  0
LINE
  8
0
 62
   249
 10
220.261771
 20
5.377999
 30
0.0
 11
222.05209
 21
7.168319
 31
0.0
  0
LINE
  8
0
 62
   249
 10
220.385514
 20
5.377999
 30
0.0
 11
222.04727
 21
7.039754
 31
0.0
  0
LINE
  8
0
 62
   249
 10
220.509258
 20
5.377999
 30
0.0
 11
222.029725
 21
6.898466
 31
0.0
  0
LINE
  8
0
 62
   249
 10
220.633002
 20
5.377999
 30
0.0
 11
221.993936
 21
6.738933
 31
0.0
  0
LINE
  8
0
 62
   249
 10
220.756746
 20
5.377999
 30
0.0
 11
221.927299
 21
6.548553
 31
0.0
  0
LINE
  8
0
 62
   249
 10
220.880489
 20
5.377999
 30
0.0
 11
221.280665
 21
5.778175
 31
0.0
  0
LINE
  8
0
 62
   249
 10
221.36381
 20
5.86132
 30
0.0
 11
221.778778
 21
6.276288
 31
0.0
  0
LINE
  8
0
 62
   249
 10
221.004233
 20
5.377999
 30
0.0
 11
221.366562
 21
5.740328
 31
0.0
  0
LINE
  8
0
 62
   249
 10
221.127977
 20
5.377999
 30
0.0
 11
221.449353
 21
5.699376
 31
0.0
  0
LINE
  8
0
 62
   249
 10
221.25172
 20
5.377999
 30
0.0
 11
221.529174
 21
5.655453
 31
0.0
  0
LINE
  8
0
 62
   249
 10
221.375464
 20
5.377999
 30
0.0
 11
221.606135
 21
5.608671
 31
0.0
  0
LINE
  8
0
 62
   249
 10
221.499208
 20
5.377999
 30
0.0
 11
221.680325
 21
5.559117
 31
0.0
  0
LINE
  8
0
 62
   249
 10
221.622951
 20
5.377999
 30
0.0
 11
221.751814
 21
5.506862
 31
0.0
  0
LINE
  8
0
 62
   249
 10
221.746695
 20
5.377999
 30
0.0
 11
221.820653
 21
5.451958
 31
0.0
  0
LINE
  8
0
 62
   249
 10
221.870439
 20
5.377999
 30
0.0
 11
221.886881
 21
5.394442
 31
0.0
  0
LINE
  8
0
 62
   249
 10
225.377099
 20
6.147021
 30
0.0
 11
227.255195
 21
8.025117
 31
0.0
  0
LINE
  8
0
 62
   249
 10
225.377099
 20
6.270764
 30
0.0
 11
227.204451
 21
8.098116
 31
0.0
  0
LINE
  8
0
 62
   249
 10
225.377099
 20
6.394508
 30
0.0
 11
227.150148
 21
8.167557
 31
0.0
  0
LINE
  8
0
 62
   249
 10
225.377099
 20
6.518252
 30
0.0
 11
227.09236
 21
8.233512
 31
0.0
  0
LINE
  8
0
 62
   249
 10
225.377099
 20
6.641995
 30
0.0
 11
227.031123
 21
8.29602
 31
0.0
  0
LINE
  8
0
 62
   249
 10
225.377099
 20
6.765739
 30
0.0
 11
226.966446
 21
8.355086
 31
0.0
  0
LINE
  8
0
 62
   249
 10
225.377099
 20
6.889483
 30
0.0
 11
226.8983
 21
8.410684
 31
0.0
  0
LINE
  8
0
 62
   249
 10
225.377099
 20
7.013227
 30
0.0
 11
226.826627
 21
8.462755
 31
0.0
  0
LINE
  8
0
 62
   249
 10
225.377099
 20
7.13697
 30
0.0
 11
226.751331
 21
8.511202
 31
0.0
  0
LINE
  8
0
 62
   249
 10
225.377099
 20
7.260714
 30
0.0
 11
226.672274
 21
8.555889
 31
0.0
  0
LINE
  8
0
 62
   249
 10
225.377099
 20
7.384458
 30
0.0
 11
226.589271
 21
8.59663
 31
0.0
  0
LINE
  8
0
 62
   249
 10
225.377099
 20
7.508201
 30
0.0
 11
226.502076
 21
8.633178
 31
0.0
  0
LINE
  8
0
 62
   249
 10
225.377099
 20
7.631945
 30
0.0
 11
226.410366
 21
8.665212
 31
0.0
  0
LINE
  8
0
 62
   249
 10
225.377099
 20
7.755689
 30
0.0
 11
226.313718
 21
8.692307
 31
0.0
  0
LINE
  8
0
 62
   249
 10
225.377099
 20
7.879432
 30
0.0
 11
226.211567
 21
8.7139
 31
0.0
  0
LINE
  8
0
 62
   249
 10
225.377099
 20
8.003176
 30
0.0
 11
226.103145
 21
8.729222
 31
0.0
  0
LINE
  8
0
 62
   249
 10
225.377099
 20
8.12692
 30
0.0
 11
225.987376
 21
8.737197
 31
0.0
  0
LINE
  8
0
 62
   249
 10
225.377099
 20
8.250663
 30
0.0
 11
225.864434
 21
8.737999
 31
0.0
  0
LINE
  8
0
 62
   249
 10
225.377099
 20
8.374407
 30
0.0
 11
225.740691
 21
8.737999
 31
0.0
  0
LINE
  8
0
 62
   249
 10
225.377099
 20
8.498151
 30
0.0
 11
225.616947
 21
8.737999
 31
0.0
  0
LINE
  8
0
 62
   249
 10
225.377099
 20
8.621894
 30
0.0
 11
225.493204
 21
8.737999
 31
0.0
  0
LINE
  8
0
 62
   249
 10
225.377099
 20
6.023277
 30
0.0
 11
227.302271
 21
7.948449
 31
0.0
  0
LINE
  8
0
 62
   249
 10
225.377099
 20
5.899533
 30
0.0
 11
227.345523
 21
7.867958
 31
0.0
  0
LINE
  8
0
 62
   249
 10
225.377099
 20
5.77579
 30
0.0
 11
227.384746
 21
7.783437
 31
0.0
  0
LINE
  8
0
 62
   249
 10
225.377099
 20
5.652046
 30
0.0
 11
227.419668
 21
7.694615
 31
0.0
  0
LINE
  8
0
 62
   249
 10
225.377099
 20
5.528302
 30
0.0
 11
227.449932
 21
7.601135
 31
0.0
  0
LINE
  8
0
 62
   249
 10
225.377099
 20
5.404559
 30
0.0
 11
227.475067
 21
7.502527
 31
0.0
  0
LINE
  8
0
 62
   249
 10
225.474283
 20
5.377999
 30
0.0
 11
227.494444
 21
7.39816
 31
0.0
  0
LINE
  8
0
 62
   249
 10
225.598027
 20
5.377999
 30
0.0
 11
227.507197
 21
7.287169
 31
0.0
  0
LINE
  8
0
 62
   249
 10
225.721771
 20
5.377999
 30
0.0
 11
227.51209
 21
7.168319
 31
0.0
  0
LINE
  8
0
 62
   249
 10
225.845514
 20
5.377999
 30
0.0
 11
227.50727
 21
7.039754
 31
0.0
  0
LINE
  8
0
 62
   249
 10
225.969258
 20
5.377999
 30
0.0
 11
227.489725
 21
6.898466
 31
0.0
  0
LINE
  8
0
 62
   249
 10
226.093002
 20
5.377999
 30
0.0
 11
227.453936
 21
6.738933
 31
0.0
  0
LINE
  8
0
 62
   249
 10
226.216746
 20
5.377999
 30
0.0
 11
227.387299
 21
6.548553
 31
0.0
  0
LINE
  8
0
 62
   249
 10
226.340489
 20
5.377999
 30
0.0
 11
226.740665
 21
5.778175
 31
0.0
  0
LINE
  8
0
 62
   249
 10
226.82381
 20
5.86132
 30
0.0
 11
227.238778
 21
6.276288
 31
0.0
  0
LINE
  8
0
 62
   249
 10
226.464233
 20
5.377999
 30
0.0
 11
226.826562
 21
5.740328
 31
0.0
  0
LINE
  8
0
 62
   249
 10
226.587977
 20
5.377999
 30
0.0
 11
226.909353
 21
5.699376
 31
0.0
  0
LINE
  8
0
 62
   249
 10
226.71172
 20
5.377999
 30
0.0
 11
226.989174
 21
5.655453
 31
0.0
  0
LINE
  8
0
 62
   249
 10
226.835464
 20
5.377999
 30
0.0
 11
227.066135
 21
5.608671
 31
0.0
  0
LINE
  8
0
 62
   249
 10
226.959208
 20
5.377999
 30
0.0
 11
227.140325
 21
5.559117
 31
0.0
  0
LINE
  8
0
 62
   249
 10
227.082951
 20
5.377999
 30
0.0
 11
227.211814
 21
5.506862
 31
0.0
  0
LINE
  8
0
 62
   249
 10
227.206695
 20
5.377999
 30
0.0
 11
227.280653
 21
5.451958
 31
0.0
  0
LINE
  8
0
 62
   249
 10
227.330439
 20
5.377999
 30
0.0
 11
227.346881
 21
5.394442
 31
0.0
  0
LINE
  8
0
 62
   249
 10
223.137099
 20
6.134407
 30
0.0
 11
225.097099
 21
8.094407
 31
0.0
  0
LINE
  8
0
 62
   249
 10
223.137099
 20
6.258151
 30
0.0
 11
225.097099
 21
8.218151
 31
0.0
  0
LINE
  8
0
 62
   249
 10
223.137099
 20
6.381894
 30
0.0
 11
225.097099
 21
8.341894
 31
0.0
  0
LINE
  8
0
 62
   249
 10
223.137099
 20
6.505638
 30
0.0
 11
225.097099
 21
8.465638
 31
0.0
  0
LINE
  8
0
 62
   249
 10
223.137099
 20
6.629382
 30
0.0
 11
225.097099
 21
8.589382
 31
0.0
  0
LINE
  8
0
 62
   249
 10
223.137099
 20
6.753126
 30
0.0
 11
225.097099
 21
8.713126
 31
0.0
  0
LINE
  8
0
 62
   249
 10
223.137099
 20
6.876869
 30
0.0
 11
224.998229
 21
8.737999
 31
0.0
  0
LINE
  8
0
 62
   249
 10
223.137099
 20
7.000613
 30
0.0
 11
224.874485
 21
8.737999
 31
0.0
  0
LINE
  8
0
 62
   249
 10
223.137099
 20
7.124357
 30
0.0
 11
224.750742
 21
8.737999
 31
0.0
  0
LINE
  8
0
 62
   249
 10
223.137099
 20
7.2481
 30
0.0
 11
224.626998
 21
8.737999
 31
0.0
  0
LINE
  8
0
 62
   249
 10
223.137099
 20
7.371844
 30
0.0
 11
224.503254
 21
8.737999
 31
0.0
  0
LINE
  8
0
 62
   249
 10
223.137099
 20
7.495588
 30
0.0
 11
224.379511
 21
8.737999
 31
0.0
  0
LINE
  8
0
 62
   249
 10
223.137099
 20
7.619331
 30
0.0
 11
224.255767
 21
8.737999
 31
0.0
  0
LINE
  8
0
 62
   249
 10
223.137099
 20
7.743075
 30
0.0
 11
224.132023
 21
8.737999
 31
0.0
  0
LINE
  8
0
 62
   249
 10
223.137099
 20
7.866819
 30
0.0
 11
224.00828
 21
8.737999
 31
0.0
  0
LINE
  8
0
 62
   249
 10
223.137099
 20
7.990562
 30
0.0
 11
223.884536
 21
8.737999
 31
0.0
  0
LINE
  8
0
 62
   249
 10
223.137099
 20
8.114306
 30
0.0
 11
223.760792
 21
8.737999
 31
0.0
  0
LINE
  8
0
 62
   249
 10
223.137099
 20
8.23805
 30
0.0
 11
223.637049
 21
8.737999
 31
0.0
  0
LINE
  8
0
 62
   249
 10
223.137099
 20
8.361793
 30
0.0
 11
223.513305
 21
8.737999
 31
0.0
  0
LINE
  8
0
 62
   249
 10
223.137099
 20
8.485537
 30
0.0
 11
223.389561
 21
8.737999
 31
0.0
  0
LINE
  8
0
 62
   249
 10
223.137099
 20
8.609281
 30
0.0
 11
223.265818
 21
8.737999
 31
0.0
  0
LINE
  8
0
 62
   249
 10
223.137099
 20
8.733025
 30
0.0
 11
223.142074
 21
8.737999
 31
0.0
  0
LINE
  8
0
 62
   249
 10
223.137099
 20
6.010663
 30
0.0
 11
225.097099
 21
7.970663
 31
0.0
  0
LINE
  8
0
 62
   249
 10
223.137099
 20
5.88692
 30
0.0
 11
225.097099
 21
7.84692
 31
0.0
  0
LINE
  8
0
 62
   249
 10
223.137099
 20
5.763176
 30
0.0
 11
225.097099
 21
7.723176
 31
0.0
  0
LINE
  8
0
 62
   249
 10
223.137099
 20
5.639432
 30
0.0
 11
225.097099
 21
7.599432
 31
0.0
  0
LINE
  8
0
 62
   249
 10
223.137099
 20
5.515689
 30
0.0
 11
225.097099
 21
7.475689
 31
0.0
  0
LINE
  8
0
 62
   249
 10
223.137099
 20
5.391945
 30
0.0
 11
225.097099
 21
7.351945
 31
0.0
  0
LINE
  8
0
 62
   249
 10
223.246897
 20
5.377999
 30
0.0
 11
225.097099
 21
7.228201
 31
0.0
  0
LINE
  8
0
 62
   249
 10
223.370641
 20
5.377999
 30
0.0
 11
225.097099
 21
7.104458
 31
0.0
  0
LINE
  8
0
 62
   249
 10
223.494384
 20
5.377999
 30
0.0
 11
225.097099
 21
6.980714
 31
0.0
  0
LINE
  8
0
 62
   249
 10
223.618128
 20
5.377999
 30
0.0
 11
225.097099
 21
6.85697
 31
0.0
  0
LINE
  8
0
 62
   249
 10
223.741872
 20
5.377999
 30
0.0
 11
225.097099
 21
6.733227
 31
0.0
  0
LINE
  8
0
 62
   249
 10
223.865615
 20
5.377999
 30
0.0
 11
225.097099
 21
6.609483
 31
0.0
  0
LINE
  8
0
 62
   249
 10
223.989359
 20
5.377999
 30
0.0
 11
225.097099
 21
6.485739
 31
0.0
  0
LINE
  8
0
 62
   249
 10
224.113103
 20
5.377999
 30
0.0
 11
225.097099
 21
6.361995
 31
0.0
  0
LINE
  8
0
 62
   249
 10
224.236847
 20
5.377999
 30
0.0
 11
225.097099
 21
6.238252
 31
0.0
  0
LINE
  8
0
 62
   249
 10
224.36059
 20
5.377999
 30
0.0
 11
225.097099
 21
6.114508
 31
0.0
  0
LINE
  8
0
 62
   249
 10
224.484334
 20
5.377999
 30
0.0
 11
225.097099
 21
5.990764
 31
0.0
  0
LINE
  8
0
 62
   249
 10
224.608078
 20
5.377999
 30
0.0
 11
225.097099
 21
5.867021
 31
0.0
  0
LINE
  8
0
 62
   249
 10
224.731821
 20
5.377999
 30
0.0
 11
225.097099
 21
5.743277
 31
0.0
  0
LINE
  8
0
 62
   249
 10
224.855565
 20
5.377999
 30
0.0
 11
225.097099
 21
5.619533
 31
0.0
  0
LINE
  8
0
 62
   249
 10
224.979309
 20
5.377999
 30
0.0
 11
225.097099
 21
5.49579
 31
0.0
  0
LINE
  8
0
 62
   249
 10
225.377099
 20
2.310966
 30
0.0
 11
227.824614
 21
4.758481
 31
0.0
  0
LINE
  8
0
 62
   249
 10
225.377099
 20
2.43471
 30
0.0
 11
227.782547
 21
4.840158
 31
0.0
  0
LINE
  8
0
 62
   249
 10
225.377099
 20
2.558454
 30
0.0
 11
227.737553
 21
4.918908
 31
0.0
  0
LINE
  8
0
 62
   249
 10
225.377099
 20
2.682197
 30
0.0
 11
227.689735
 21
4.994834
 31
0.0
  0
LINE
  8
0
 62
   249
 10
225.377099
 20
2.805941
 30
0.0
 11
227.639174
 21
5.068016
 31
0.0
  0
LINE
  8
0
 62
   249
 10
225.377099
 20
2.929685
 30
0.0
 11
227.545413
 21
5.097999
 31
0.0
  0
LINE
  8
0
 62
   249
 10
225.377099
 20
3.053429
 30
0.0
 11
227.42167
 21
5.097999
 31
0.0
  0
LINE
  8
0
 62
   249
 10
225.377099
 20
3.177172
 30
0.0
 11
227.297926
 21
5.097999
 31
0.0
  0
LINE
  8
0
 62
   249
 10
225.377099
 20
3.300916
 30
0.0
 11
227.174182
 21
5.097999
 31
0.0
  0
LINE
  8
0
 62
   249
 10
225.377099
 20
3.42466
 30
0.0
 11
227.050439
 21
5.097999
 31
0.0
  0
LINE
  8
0
 62
   249
 10
225.377099
 20
3.548403
 30
0.0
 11
226.926695
 21
5.097999
 31
0.0
  0
LINE
  8
0
 62
   249
 10
225.377099
 20
3.672147
 30
0.0
 11
226.802951
 21
5.097999
 31
0.0
  0
LINE
  8
0
 62
   249
 10
225.377099
 20
3.795891
 30
0.0
 11
226.679208
 21
5.097999
 31
0.0
  0
LINE
  8
0
 62
   249
 10
225.377099
 20
3.919634
 30
0.0
 11
226.555464
 21
5.097999
 31
0.0
  0
LINE
  8
0
 62
   249
 10
225.377099
 20
4.043378
 30
0.0
 11
226.43172
 21
5.097999
 31
0.0
  0
LINE
  8
0
 62
   249
 10
225.377099
 20
4.167122
 30
0.0
 11
226.307977
 21
5.097999
 31
0.0
  0
LINE
  8
0
 62
   249
 10
225.377099
 20
4.290865
 30
0.0
 11
226.184233
 21
5.097999
 31
0.0
  0
LINE
  8
0
 62
   249
 10
225.377099
 20
4.414609
 30
0.0
 11
226.060489
 21
5.097999
 31
0.0
  0
LINE
  8
0
 62
   249
 10
225.377099
 20
4.538353
 30
0.0
 11
225.936746
 21
5.097999
 31
0.0
  0
LINE
  8
0
 62
   249
 10
225.377099
 20
4.662096
 30
0.0
 11
225.813002
 21
5.097999
 31
0.0
  0
LINE
  8
0
 62
   249
 10
225.377099
 20
4.78584
 30
0.0
 11
225.689258
 21
5.097999
 31
0.0
  0
LINE
  8
0
 62
   249
 10
225.377099
 20
4.909584
 30
0.0
 11
225.565514
 21
5.097999
 31
0.0
  0
LINE
  8
0
 62
   249
 10
225.377099
 20
5.033328
 30
0.0
 11
225.441771
 21
5.097999
 31
0.0
  0
LINE
  8
0
 62
   249
 10
225.377099
 20
2.187223
 30
0.0
 11
227.863629
 21
4.673752
 31
0.0
  0
LINE
  8
0
 62
   249
 10
225.377099
 20
2.063479
 30
0.0
 11
227.899437
 21
4.585817
 31
0.0
  0
LINE
  8
0
 62
   249
 10
225.377099
 20
1.939735
 30
0.0
 11
227.931849
 21
4.494485
 31
0.0
  0
LINE
  8
0
 62
   249
 10
225.377099
 20
1.815992
 30
0.0
 11
227.960633
 21
4.399525
 31
0.0
  0
LINE
  8
0
 62
   249
 10
225.42285
 20
1.737999
 30
0.0
 11
227.985502
 21
4.300651
 31
0.0
  0
LINE
  8
0
 62
   249
 10
225.546594
 20
1.738
 30
0.0
 11
228.006098
 21
4.197503
 31
0.0
  0
LINE
  8
0
 62
   249
 10
225.670338
 20
1.738
 30
0.0
 11
228.021969
 21
4.08963
 31
0.0
  0
LINE
  8
0
 62
   249
 10
225.794082
 20
1.738
 30
0.0
 11
228.03253
 21
3.976448
 31
0.0
  0
LINE
  8
0
 62
   249
 10
225.917826
 20
1.738
 30
0.0
 11
228.037011
 21
3.857186
 31
0.0
  0
LINE
  8
0
 62
   249
 10
226.044307
 20
1.740738
 30
0.0
 11
228.034361
 21
3.730791
 31
0.0
  0
LINE
  8
0
 62
   249
 10
226.17933
 20
1.752016
 30
0.0
 11
228.023082
 21
3.595769
 31
0.0
  0
LINE
  8
0
 62
   249
 10
226.325237
 20
1.77418
 30
0.0
 11
228.000918
 21
3.449861
 31
0.0
  0
LINE
  8
0
 62
   249
 10
226.485733
 20
1.810932
 30
0.0
 11
227.964166
 21
3.289366
 31
0.0
  0
LINE
  8
0
 62
   249
 10
226.667749
 20
1.869205
 30
0.0
 11
227.905893
 21
3.107349
 31
0.0
  0
LINE
  8
0
 62
   249
 10
226.887822
 20
1.965534
 30
0.0
 11
227.809564
 21
2.887276
 31
0.0
  0
LINE
  8
0
 62
   249
 10
227.22645
 20
2.180419
 30
0.0
 11
227.59468
 21
2.548648
 31
0.0
  0
LINE
  8
0
 62
   249
 10
210.187099
 20
1.737999
 30
0.0
 11
213.547099
 21
5.097999
 31
0.0
  0
LINE
  8
0
 62
   249
 10
210.25373
 20
1.928374
 30
0.0
 11
213.423355
 21
5.097999
 31
0.0
  0
LINE
  8
0
 62
   249
 10
210.320362
 20
2.118749
 30
0.0
 11
213.299612
 21
5.097999
 31
0.0
  0
LINE
  8
0
 62
   249
 10
210.386993
 20
2.309124
 30
0.0
 11
213.175868
 21
5.097999
 31
0.0
  0
LINE
  8
0
 62
   249
 10
210.453624
 20
2.499499
 30
0.0
 11
213.052124
 21
5.097999
 31
0.0
  0
LINE
  8
0
 62
   249
 10
210.520255
 20
2.689874
 30
0.0
 11
212.928381
 21
5.097999
 31
0.0
  0
LINE
  8
0
 62
   249
 10
210.586886
 20
2.880249
 30
0.0
 11
212.804637
 21
5.097999
 31
0.0
  0
LINE
  8
0
 62
   249
 10
210.653518
 20
3.070624
 30
0.0
 11
212.680893
 21
5.097999
 31
0.0
  0
LINE
  8
0
 62
   249
 10
210.720149
 20
3.260998
 30
0.0
 11
212.55715
 21
5.097999
 31
0.0
  0
LINE
  8
0
 62
   249
 10
210.78678
 20
3.451373
 30
0.0
 11
212.433406
 21
5.097999
 31
0.0
  0
LINE
  8
0
 62
   249
 10
210.853411
 20
3.641748
 30
0.0
 11
212.309662
 21
5.097999
 31
0.0
  0
LINE
  8
0
 62
   249
 10
210.920042
 20
3.832123
 30
0.0
 11
212.185919
 21
5.097999
 31
0.0
  0
LINE
  8
0
 62
   249
 10
210.986674
 20
4.022498
 30
0.0
 11
212.062175
 21
5.097999
 31
0.0
  0
LINE
  8
0
 62
   249
 10
211.053305
 20
4.212873
 30
0.0
 11
211.938431
 21
5.097999
 31
0.0
  0
LINE
  8
0
 62
   249
 10
211.119936
 20
4.403248
 30
0.0
 11
211.814687
 21
5.097999
 31
0.0
  0
LINE
  8
0
 62
   249
 10
211.186567
 20
4.593623
 30
0.0
 11
211.690944
 21
5.097999
 31
0.0
  0
LINE
  8
0
 62
   249
 10
211.253199
 20
4.783998
 30
0.0
 11
211.5672
 21
5.097999
 31
0.0
  0
LINE
  8
0
 62
   249
 10
211.31983
 20
4.974373
 30
0.0
 11
211.443456
 21
5.097999
 31
0.0
  0
LINE
  8
0
 62
   249
 10
210.310843
 20
1.737999
 30
0.0
 11
213.547099
 21
4.974256
 31
0.0
  0
LINE
  8
0
 62
   249
 10
210.434586
 20
1.737999
 30
0.0
 11
213.547099
 21
4.850512
 31
0.0
  0
LINE
  8
0
 62
   249
 10
210.55833
 20
1.737999
 30
0.0
 11
213.547099
 21
4.726768
 31
0.0
  0
LINE
  8
0
 62
   249
 10
210.682074
 20
1.737999
 30
0.0
 11
213.547099
 21
4.603025
 31
0.0
  0
LINE
  8
0
 62
   249
 10
210.805818
 20
1.737999
 30
0.0
 11
213.547099
 21
4.479281
 31
0.0
  0
LINE
  8
0
 62
   249
 10
210.929561
 20
1.737999
 30
0.0
 11
213.547099
 21
4.355537
 31
0.0
  0
LINE
  8
0
 62
   249
 10
211.053305
 20
1.737999
 30
0.0
 11
212.412988
 21
3.097683
 31
0.0
  0
LINE
  8
0
 62
   249
 10
212.453305
 20
3.137999
 30
0.0
 11
213.547099
 21
4.231793
 31
0.0
  0
LINE
  8
0
 62
   249
 10
211.177049
 20
1.737999
 30
0.0
 11
212.346357
 21
2.907308
 31
0.0
  0
LINE
  8
0
 62
   249
 10
212.577049
 20
3.137999
 30
0.0
 11
213.547099
 21
4.10805
 31
0.0
  0
LINE
  8
0
 62
   249
 10
211.300792
 20
1.737999
 30
0.0
 11
212.279726
 21
2.716933
 31
0.0
  0
LINE
  8
0
 62
   249
 10
212.700792
 20
3.137999
 30
0.0
 11
213.547099
 21
3.984306
 31
0.0
  0
LINE
  8
0
 62
   249
 10
211.424536
 20
1.737999
 30
0.0
 11
212.213095
 21
2.526558
 31
0.0
  0
LINE
  8
0
 62
   249
 10
212.824536
 20
3.137999
 30
0.0
 11
213.547099
 21
3.860562
 31
0.0
  0
LINE
  8
0
 62
   249
 10
211.54828
 20
1.737999
 30
0.0
 11
212.146463
 21
2.336183
 31
0.0
  0
LINE
  8
0
 62
   249
 10
212.94828
 20
3.137999
 30
0.0
 11
213.547099
 21
3.736819
 31
0.0
  0
LINE
  8
0
 62
   249
 10
211.672023
 20
1.737999
 30
0.0
 11
212.079832
 21
2.145808
 31
0.0
  0
LINE
  8
0
 62
   249
 10
213.072023
 20
3.137999
 30
0.0
 11
213.547099
 21
3.613075
 31
0.0
  0
LINE
  8
0
 62
   249
 10
211.795767
 20
1.737999
 30
0.0
 11
212.013201
 21
1.955433
 31
0.0
  0
LINE
  8
0
 62
   249
 10
213.195767
 20
3.137999
 30
0.0
 11
213.547099
 21
3.489331
 31
0.0
  0
LINE
  8
0
 62
   249
 10
211.919511
 20
1.737999
 30
0.0
 11
211.94657
 21
1.765058
 31
0.0
  0
LINE
  8
0
 62
   249
 10
213.319511
 20
3.137999
 30
0.0
 11
213.547099
 21
3.365588
 31
0.0
  0
LINE
  8
0
 62
   249
 10
213.443254
 20
3.137999
 30
0.0
 11
213.547099
 21
3.241844
 31
0.0
  0
LINE
  8
0
 62
   249
 10
217.677099
 20
2.54584
 30
0.0
 11
219.637099
 21
4.50584
 31
0.0
  0
LINE
  8
0
 62
   249
 10
217.677099
 20
2.669584
 30
0.0
 11
219.637099
 21
4.629584
 31
0.0
  0
LINE
  8
0
 62
   249
 10
217.677099
 20
2.793328
 30
0.0
 11
219.637099
 21
4.753328
 31
0.0
  0
LINE
  8
0
 62
   249
 10
217.677099
 20
2.917071
 30
0.0
 11
219.637099
 21
4.877071
 31
0.0
  0
LINE
  8
0
 62
   249
 10
217.677099
 20
3.040815
 30
0.0
 11
219.637099
 21
5.000815
 31
0.0
  0
LINE
  8
0
 62
   249
 10
217.677099
 20
3.164559
 30
0.0
 11
219.61054
 21
5.097999
 31
0.0
  0
LINE
  8
0
 62
   249
 10
217.677099
 20
3.288302
 30
0.0
 11
219.486796
 21
5.097999
 31
0.0
  0
LINE
  8
0
 62
   249
 10
217.677099
 20
3.412046
 30
0.0
 11
219.363052
 21
5.097999
 31
0.0
  0
LINE
  8
0
 62
   249
 10
217.677099
 20
3.53579
 30
0.0
 11
219.239309
 21
5.097999
 31
0.0
  0
LINE
  8
0
 62
   249
 10
217.677099
 20
3.659533
 30
0.0
 11
219.115565
 21
5.097999
 31
0.0
  0
LINE
  8
0
 62
   249
 10
217.677099
 20
3.783277
 30
0.0
 11
218.991821
 21
5.097999
 31
0.0
  0
LINE
  8
0
 62
   249
 10
217.677099
 20
3.907021
 30
0.0
 11
218.868078
 21
5.097999
 31
0.0
  0
LINE
  8
0
 62
   249
 10
217.677099
 20
4.030764
 30
0.0
 11
218.744334
 21
5.097999
 31
0.0
  0
LINE
  8
0
 62
   249
 10
217.677099
 20
4.154508
 30
0.0
 11
218.62059
 21
5.097999
 31
0.0
  0
LINE
  8
0
 62
   249
 10
217.677099
 20
4.278252
 30
0.0
 11
218.496847
 21
5.097999
 31
0.0
  0
LINE
  8
0
 62
   249
 10
217.677099
 20
4.401995
 30
0.0
 11
218.373103
 21
5.097999
 31
0.0
  0
LINE
  8
0
 62
   249
 10
217.677099
 20
4.525739
 30
0.0
 11
218.249359
 21
5.097999
 31
0.0
  0
LINE
  8
0
 62
   249
 10
217.677099
 20
4.649483
 30
0.0
 11
218.125615
 21
5.097999
 31
0.0
  0
LINE
  8
0
 62
   249
 10
217.677099
 20
4.773227
 30
0.0
 11
218.001872
 21
5.097999
 31
0.0
  0
LINE
  8
0
 62
   249
 10
217.677099
 20
4.89697
 30
0.0
 11
217.878128
 21
5.097999
 31
0.0
  0
LINE
  8
0
 62
   249
 10
217.677099
 20
5.020714
 30
0.0
 11
217.754384
 21
5.097999
 31
0.0
  0
LINE
  8
0
 62
   249
 10
217.677099
 20
2.422096
 30
0.0
 11
219.637099
 21
4.382096
 31
0.0
  0
LINE
  8
0
 62
   249
 10
217.677099
 20
2.298353
 30
0.0
 11
219.637099
 21
4.258353
 31
0.0
  0
LINE
  8
0
 62
   249
 10
217.677099
 20
2.174609
 30
0.0
 11
219.637099
 21
4.134609
 31
0.0
  0
LINE
  8
0
 62
   249
 10
217.677099
 20
2.050865
 30
0.0
 11
219.637099
 21
4.010865
 31
0.0
  0
LINE
  8
0
 62
   249
 10
217.677099
 20
1.927122
 30
0.0
 11
219.637099
 21
3.887122
 31
0.0
  0
LINE
  8
0
 62
   249
 10
217.677099
 20
1.803378
 30
0.0
 11
219.637099
 21
3.763378
 31
0.0
  0
LINE
  8
0
 62
   249
 10
217.735464
 20
1.737999
 30
0.0
 11
219.637099
 21
3.639634
 31
0.0
  0
LINE
  8
0
 62
   249
 10
217.859208
 20
1.737999
 30
0.0
 11
219.637099
 21
3.515891
 31
0.0
  0
LINE
  8
0
 62
   249
 10
217.982951
 20
1.737999
 30
0.0
 11
219.637099
 21
3.392147
 31
0.0
  0
LINE
  8
0
 62
   249
 10
218.106695
 20
1.737999
 30
0.0
 11
219.637099
 21
3.268403
 31
0.0
  0
LINE
  8
0
 62
   249
 10
218.230439
 20
1.737999
 30
0.0
 11
219.637099
 21
3.14466
 31
0.0
  0
LINE
  8
0
 62
   249
 10
218.354182
 20
1.737999
 30
0.0
 11
219.637099
 21
3.020916
 31
0.0
  0
LINE
  8
0
 62
   249
 10
218.477926
 20
1.737999
 30
0.0
 11
219.637099
 21
2.897172
 31
0.0
  0
LINE
  8
0
 62
   249
 10
218.60167
 20
1.737999
 30
0.0
 11
219.637099
 21
2.773429
 31
0.0
  0
LINE
  8
0
 62
   249
 10
218.725413
 20
1.737999
 30
0.0
 11
219.637099
 21
2.649685
 31
0.0
  0
LINE
  8
0
 62
   249
 10
218.849157
 20
1.737999
 30
0.0
 11
219.637099
 21
2.525941
 31
0.0
  0
LINE
  8
0
 62
   249
 10
218.972901
 20
1.737999
 30
0.0
 11
219.637099
 21
2.402197
 31
0.0
  0
LINE
  8
0
 62
   249
 10
219.096645
 20
1.737999
 30
0.0
 11
219.637099
 21
2.278454
 31
0.0
  0
LINE
  8
0
 62
   249
 10
219.220388
 20
1.737999
 30
0.0
 11
219.637099
 21
2.15471
 31
0.0
  0
LINE
  8
0
 62
   249
 10
219.344132
 20
1.737999
 30
0.0
 11
219.637099
 21
2.030966
 31
0.0
  0
LINE
  8
0
 62
   249
 10
219.467876
 20
1.737999
 30
0.0
 11
219.637099
 21
1.907223
 31
0.0
  0
LINE
  8
0
 62
   249
 10
219.591619
 20
1.737999
 30
0.0
 11
219.637099
 21
1.783479
 31
0.0
  0
LINE
  8
0
 62
   249
 10
215.006357
 20
2.96869
 30
0.0
 11
216.302653
 21
4.264987
 31
0.0
  0
LINE
  8
0
 62
   249
 10
214.974275
 20
3.060352
 30
0.0
 11
216.270572
 21
4.356649
 31
0.0
  0
LINE
  8
0
 62
   249
 10
214.928179
 20
3.137999
 30
0.0
 11
216.23849
 21
4.448311
 31
0.0
  0
LINE
  8
0
 62
   249
 10
214.804435
 20
3.137999
 30
0.0
 11
216.206408
 21
4.539973
 31
0.0
  0
LINE
  8
0
 62
   249
 10
214.680691
 20
3.137999
 30
0.0
 11
216.174327
 21
4.631635
 31
0.0
  0
LINE
  8
0
 62
   249
 10
214.556948
 20
3.137999
 30
0.0
 11
216.142245
 21
4.723297
 31
0.0
  0
LINE
  8
0
 62
   249
 10
214.433204
 20
3.137999
 30
0.0
 11
216.110163
 21
4.814959
 31
0.0
  0
LINE
  8
0
 62
   249
 10
214.30946
 20
3.137999
 30
0.0
 11
216.078082
 21
4.906621
 31
0.0
  0
LINE
  8
0
 62
   249
 10
214.185717
 20
3.137999
 30
0.0
 11
216.046
 21
4.998283
 31
0.0
  0
LINE
  8
0
 62
   249
 10
214.061973
 20
3.137999
 30
0.0
 11
216.013918
 21
5.089945
 31
0.0
  0
LINE
  8
0
 62
   249
 10
213.938229
 20
3.137999
 30
0.0
 11
215.898229
 21
5.097999
 31
0.0
  0
LINE
  8
0
 62
   249
 10
213.827099
 20
3.150613
 30
0.0
 11
215.774485
 21
5.097999
 31
0.0
  0
LINE
  8
0
 62
   249
 10
213.827099
 20
3.274357
 30
0.0
 11
215.650742
 21
5.097999
 31
0.0
  0
LINE
  8
0
 62
   249
 10
213.827099
 20
3.3981
 30
0.0
 11
215.526998
 21
5.097999
 31
0.0
  0
LINE
  8
0
 62
   249
 10
213.827099
 20
3.521844
 30
0.0
 11
215.403254
 21
5.097999
 31
0.0
  0
LINE
  8
0
 62
   249
 10
213.827099
 20
3.645588
 30
0.0
 11
215.279511
 21
5.097999
 31
0.0
  0
LINE
  8
0
 62
   249
 10
213.827099
 20
3.769331
 30
0.0
 11
215.155767
 21
5.097999
 31
0.0
  0
LINE
  8
0
 62
   249
 10
213.827099
 20
3.893075
 30
0.0
 11
215.032023
 21
5.097999
 31
0.0
  0
LINE
  8
0
 62
   249
 10
213.827099
 20
4.016819
 30
0.0
 11
214.90828
 21
5.097999
 31
0.0
  0
LINE
  8
0
 62
   249
 10
213.827099
 20
4.140562
 30
0.0
 11
214.784536
 21
5.097999
 31
0.0
  0
LINE
  8
0
 62
   249
 10
213.827099
 20
4.264306
 30
0.0
 11
214.660792
 21
5.097999
 31
0.0
  0
LINE
  8
0
 62
   249
 10
213.827099
 20
4.38805
 30
0.0
 11
214.537049
 21
5.097999
 31
0.0
  0
LINE
  8
0
 62
   249
 10
213.827099
 20
4.511793
 30
0.0
 11
214.413305
 21
5.097999
 31
0.0
  0
LINE
  8
0
 62
   249
 10
213.827099
 20
4.635537
 30
0.0
 11
214.289561
 21
5.097999
 31
0.0
  0
LINE
  8
0
 62
   249
 10
213.827099
 20
4.759281
 30
0.0
 11
214.165818
 21
5.097999
 31
0.0
  0
LINE
  8
0
 62
   249
 10
213.827099
 20
4.883025
 30
0.0
 11
214.042074
 21
5.097999
 31
0.0
  0
LINE
  8
0
 62
   249
 10
213.827099
 20
5.006768
 30
0.0
 11
213.91833
 21
5.097999
 31
0.0
  0
LINE
  8
0
 62
   249
 10
215.038439
 20
2.877028
 30
0.0
 11
216.334735
 21
4.173325
 31
0.0
  0
LINE
  8
0
 62
   249
 10
215.070521
 20
2.785366
 30
0.0
 11
216.366817
 21
4.081663
 31
0.0
  0
LINE
  8
0
 62
   249
 10
215.102602
 20
2.693704
 30
0.0
 11
216.398899
 21
3.990001
 31
0.0
  0
LINE
  8
0
 62
   249
 10
215.134684
 20
2.602042
 30
0.0
 11
216.43098
 21
3.898339
 31
0.0
  0
LINE
  8
0
 62
   249
 10
215.166766
 20
2.51038
 30
0.0
 11
216.463062
 21
3.806677
 31
0.0
  0
LINE
  8
0
 62
   249
 10
215.198847
 20
2.418718
 30
0.0
 11
216.495144
 21
3.715015
 31
0.0
  0
LINE
  8
0
 62
   249
 10
215.230929
 20
2.327056
 30
0.0
 11
216.527225
 21
3.623353
 31
0.0
  0
LINE
  8
0
 62
   249
 10
215.263011
 20
2.235395
 30
0.0
 11
216.559307
 21
3.531691
 31
0.0
  0
LINE
  8
0
 62
   249
 10
215.295092
 20
2.143733
 30
0.0
 11
216.591389
 21
3.440029
 31
0.0
  0
LINE
  8
0
 62
   249
 10
215.327174
 20
2.052071
 30
0.0
 11
216.62347
 21
3.348367
 31
0.0
  0
LINE
  8
0
 62
   249
 10
215.359256
 20
1.960409
 30
0.0
 11
216.655552
 21
3.256705
 31
0.0
  0
LINE
  8
0
 62
   249
 10
215.391338
 20
1.868747
 30
0.0
 11
216.687634
 21
3.165043
 31
0.0
  0
LINE
  8
0
 62
   249
 10
215.423419
 20
1.777085
 30
0.0
 11
216.719716
 21
3.073381
 31
0.0
  0
LINE
  8
0
 62
   249
 10
215.508078
 20
1.737999
 30
0.0
 11
216.751797
 21
2.981719
 31
0.0
  0
LINE
  8
0
 62
   249
 10
215.631821
 20
1.737999
 30
0.0
 11
216.783879
 21
2.890057
 31
0.0
  0
LINE
  8
0
 62
   249
 10
215.755565
 20
1.737999
 30
0.0
 11
216.815961
 21
2.798395
 31
0.0
  0
LINE
  8
0
 62
   249
 10
215.879309
 20
1.737999
 30
0.0
 11
216.848042
 21
2.706733
 31
0.0
  0
LINE
  8
0
 62
   249
 10
216.003052
 20
1.737999
 30
0.0
 11
216.880124
 21
2.615071
 31
0.0
  0
LINE
  8
0
 62
   249
 10
216.126796
 20
1.737999
 30
0.0
 11
216.912206
 21
2.523409
 31
0.0
  0
LINE
  8
0
 62
   249
 10
216.25054
 20
1.737999
 30
0.0
 11
216.944287
 21
2.431747
 31
0.0
  0
LINE
  8
0
 62
   249
 10
216.374283
 20
1.737999
 30
0.0
 11
216.976369
 21
2.340085
 31
0.0
  0
LINE
  8
0
 62
   249
 10
216.498027
 20
1.737999
 30
0.0
 11
217.008451
 21
2.248423
 31
0.0
  0
LINE
  8
0
 62
   249
 10
216.621771
 20
1.737999
 30
0.0
 11
217.040532
 21
2.156761
 31
0.0
  0
LINE
  8
0
 62
   249
 10
216.745514
 20
1.737999
 30
0.0
 11
217.072614
 21
2.065099
 31
0.0
  0
LINE
  8
0
 62
   249
 10
216.869258
 20
1.737999
 30
0.0
 11
217.104696
 21
1.973437
 31
0.0
  0
LINE
  8
0
 62
   249
 10
216.993002
 20
1.737999
 30
0.0
 11
217.136778
 21
1.881775
 31
0.0
  0
LINE
  8
0
 62
   249
 10
217.116746
 20
1.737999
 30
0.0
 11
217.168859
 21
1.790113
 31
0.0
  0
LINE
  8
0
 62
   249
 10
219.917099
 20
2.310966
 30
0.0
 11
222.364614
 21
4.758481
 31
0.0
  0
LINE
  8
0
 62
   249
 10
219.917099
 20
2.43471
 30
0.0
 11
222.322547
 21
4.840158
 31
0.0
  0
LINE
  8
0
 62
   249
 10
219.917099
 20
2.558454
 30
0.0
 11
222.277553
 21
4.918908
 31
0.0
  0
LINE
  8
0
 62
   249
 10
219.917099
 20
2.682197
 30
0.0
 11
222.229735
 21
4.994834
 31
0.0
  0
LINE
  8
0
 62
   249
 10
219.917099
 20
2.805941
 30
0.0
 11
222.179174
 21
5.068016
 31
0.0
  0
LINE
  8
0
 62
   249
 10
219.917099
 20
2.929685
 30
0.0
 11
222.085413
 21
5.097999
 31
0.0
  0
LINE
  8
0
 62
   249
 10
219.917099
 20
3.053429
 30
0.0
 11
221.96167
 21
5.097999
 31
0.0
  0
LINE
  8
0
 62
   249
 10
219.917099
 20
3.177172
 30
0.0
 11
221.837926
 21
5.097999
 31
0.0
  0
LINE
  8
0
 62
   249
 10
219.917099
 20
3.300916
 30
0.0
 11
221.714182
 21
5.097999
 31
0.0
  0
LINE
  8
0
 62
   249
 10
219.917099
 20
3.42466
 30
0.0
 11
221.590439
 21
5.097999
 31
0.0
  0
LINE
  8
0
 62
   249
 10
219.917099
 20
3.548403
 30
0.0
 11
221.466695
 21
5.097999
 31
0.0
  0
LINE
  8
0
 62
   249
 10
219.917099
 20
3.672147
 30
0.0
 11
221.342951
 21
5.097999
 31
0.0
  0
LINE
  8
0
 62
   249
 10
219.917099
 20
3.795891
 30
0.0
 11
221.219208
 21
5.097999
 31
0.0
  0
LINE
  8
0
 62
   249
 10
219.917099
 20
3.919634
 30
0.0
 11
221.095464
 21
5.097999
 31
0.0
  0
LINE
  8
0
 62
   249
 10
219.917099
 20
4.043378
 30
0.0
 11
220.97172
 21
5.097999
 31
0.0
  0
LINE
  8
0
 62
   249
 10
219.917099
 20
4.167122
 30
0.0
 11
220.847977
 21
5.097999
 31
0.0
  0
LINE
  8
0
 62
   249
 10
219.917099
 20
4.290865
 30
0.0
 11
220.724233
 21
5.097999
 31
0.0
  0
LINE
  8
0
 62
   249
 10
219.917099
 20
4.414609
 30
0.0
 11
220.600489
 21
5.097999
 31
0.0
  0
LINE
  8
0
 62
   249
 10
219.917099
 20
4.538353
 30
0.0
 11
220.476746
 21
5.097999
 31
0.0
  0
LINE
  8
0
 62
   249
 10
219.917099
 20
4.662096
 30
0.0
 11
220.353002
 21
5.097999
 31
0.0
  0
LINE
  8
0
 62
   249
 10
219.917099
 20
4.78584
 30
0.0
 11
220.229258
 21
5.097999
 31
0.0
  0
LINE
  8
0
 62
   249
 10
219.917099
 20
4.909584
 30
0.0
 11
220.105514
 21
5.097999
 31
0.0
  0
LINE
  8
0
 62
   249
 10
219.917099
 20
5.033328
 30
0.0
 11
219.981771
 21
5.097999
 31
0.0
  0
LINE
  8
0
 62
   249
 10
219.917099
 20
2.187223
 30
0.0
 11
222.403629
 21
4.673752
 31
0.0
  0
LINE
  8
0
 62
   249
 10
219.917099
 20
2.063479
 30
0.0
 11
222.439437
 21
4.585817
 31
0.0
  0
LINE
  8
0
 62
   249
 10
219.917099
 20
1.939735
 30
0.0
 11
222.471849
 21
4.494485
 31
0.0
  0
LINE
  8
0
 62
   249
 10
219.917099
 20
1.815992
 30
0.0
 11
222.500633
 21
4.399525
 31
0.0
  0
LINE
  8
0
 62
   249
 10
219.96285
 20
1.737999
 30
0.0
 11
222.525502
 21
4.300651
 31
0.0
  0
LINE
  8
0
 62
   249
 10
220.086594
 20
1.738
 30
0.0
 11
222.546098
 21
4.197503
 31
0.0
  0
LINE
  8
0
 62
   249
 10
220.210338
 20
1.738
 30
0.0
 11
222.561969
 21
4.08963
 31
0.0
  0
LINE
  8
0
 62
   249
 10
220.334082
 20
1.738
 30
0.0
 11
222.57253
 21
3.976448
 31
0.0
  0
LINE
  8
0
 62
   249
 10
220.457826
 20
1.738
 30
0.0
 11
222.577011
 21
3.857186
 31
0.0
  0
LINE
  8
0
 62
   249
 10
220.584307
 20
1.740738
 30
0.0
 11
222.574361
 21
3.730791
 31
0.0
  0
LINE
  8
0
 62
   249
 10
220.71933
 20
1.752016
 30
0.0
 11
222.563082
 21
3.595769
 31
0.0
  0
LINE
  8
0
 62
   249
 10
220.865237
 20
1.77418
 30
0.0
 11
222.540918
 21
3.449861
 31
0.0
  0
LINE
  8
0
 62
   249
 10
221.025733
 20
1.810932
 30
0.0
 11
222.504166
 21
3.289366
 31
0.0
  0
LINE
  8
0
 62
   249
 10
221.207749
 20
1.869205
 30
0.0
 11
222.445893
 21
3.107349
 31
0.0
  0
LINE
  8
0
 62
   249
 10
221.427822
 20
1.965534
 30
0.0
 11
222.349564
 21
2.887276
 31
0.0
  0
LINE
  8
0
 62
   249
 10
221.76645
 20
2.180419
 30
0.0
 11
222.13468
 21
2.548648
 31
0.0
  0
LINE
  8
0
 62
   249
 10
223.137099
 20
2.54584
 30
0.0
 11
225.097099
 21
4.50584
 31
0.0
  0
LINE
  8
0
 62
   249
 10
223.137099
 20
2.669584
 30
0.0
 11
225.097099
 21
4.629584
 31
0.0
  0
LINE
  8
0
 62
   249
 10
223.137099
 20
2.793328
 30
0.0
 11
225.097099
 21
4.753328
 31
0.0
  0
LINE
  8
0
 62
   249
 10
223.137099
 20
2.917071
 30
0.0
 11
225.097099
 21
4.877071
 31
0.0
  0
LINE
  8
0
 62
   249
 10
223.137099
 20
3.040815
 30
0.0
 11
225.097099
 21
5.000815
 31
0.0
  0
LINE
  8
0
 62
   249
 10
223.137099
 20
3.164559
 30
0.0
 11
225.07054
 21
5.097999
 31
0.0
  0
LINE
  8
0
 62
   249
 10
223.137099
 20
3.288302
 30
0.0
 11
224.946796
 21
5.097999
 31
0.0
  0
LINE
  8
0
 62
   249
 10
223.137099
 20
3.412046
 30
0.0
 11
224.823052
 21
5.097999
 31
0.0
  0
LINE
  8
0
 62
   249
 10
223.137099
 20
3.53579
 30
0.0
 11
224.699309
 21
5.097999
 31
0.0
  0
LINE
  8
0
 62
   249
 10
223.137099
 20
3.659533
 30
0.0
 11
224.575565
 21
5.097999
 31
0.0
  0
LINE
  8
0
 62
   249
 10
223.137099
 20
3.783277
 30
0.0
 11
224.451821
 21
5.097999
 31
0.0
  0
LINE
  8
0
 62
   249
 10
223.137099
 20
3.907021
 30
0.0
 11
224.328078
 21
5.097999
 31
0.0
  0
LINE
  8
0
 62
   249
 10
223.137099
 20
4.030764
 30
0.0
 11
224.204334
 21
5.097999
 31
0.0
  0
LINE
  8
0
 62
   249
 10
223.137099
 20
4.154508
 30
0.0
 11
224.08059
 21
5.097999
 31
0.0
  0
LINE
  8
0
 62
   249
 10
223.137099
 20
4.278252
 30
0.0
 11
223.956847
 21
5.097999
 31
0.0
  0
LINE
  8
0
 62
   249
 10
223.137099
 20
4.401995
 30
0.0
 11
223.833103
 21
5.097999
 31
0.0
  0
LINE
  8
0
 62
   249
 10
223.137099
 20
4.525739
 30
0.0
 11
223.709359
 21
5.097999
 31
0.0
  0
LINE
  8
0
 62
   249
 10
223.137099
 20
4.649483
 30
0.0
 11
223.585615
 21
5.097999
 31
0.0
  0
LINE
  8
0
 62
   249
 10
223.137099
 20
4.773227
 30
0.0
 11
223.461872
 21
5.097999
 31
0.0
  0
LINE
  8
0
 62
   249
 10
223.137099
 20
4.89697
 30
0.0
 11
223.338128
 21
5.097999
 31
0.0
  0
LINE
  8
0
 62
   249
 10
223.137099
 20
5.020714
 30
0.0
 11
223.214384
 21
5.097999
 31
0.0
  0
LINE
  8
0
 62
   249
 10
223.137099
 20
2.422096
 30
0.0
 11
225.097099
 21
4.382096
 31
0.0
  0
LINE
  8
0
 62
   249
 10
223.137099
 20
2.298353
 30
0.0
 11
225.097099
 21
4.258353
 31
0.0
  0
LINE
  8
0
 62
   249
 10
223.137099
 20
2.174609
 30
0.0
 11
225.097099
 21
4.134609
 31
0.0
  0
LINE
  8
0
 62
   249
 10
223.137099
 20
2.050865
 30
0.0
 11
225.097099
 21
4.010865
 31
0.0
  0
LINE
  8
0
 62
   249
 10
223.137099
 20
1.927122
 30
0.0
 11
225.097099
 21
3.887122
 31
0.0
  0
LINE
  8
0
 62
   249
 10
223.137099
 20
1.803378
 30
0.0
 11
225.097099
 21
3.763378
 31
0.0
  0
LINE
  8
0
 62
   249
 10
223.195464
 20
1.737999
 30
0.0
 11
225.097099
 21
3.639634
 31
0.0
  0
LINE
  8
0
 62
   249
 10
223.319208
 20
1.737999
 30
0.0
 11
225.097099
 21
3.515891
 31
0.0
  0
LINE
  8
0
 62
   249
 10
223.442951
 20
1.737999
 30
0.0
 11
225.097099
 21
3.392147
 31
0.0
  0
LINE
  8
0
 62
   249
 10
223.566695
 20
1.737999
 30
0.0
 11
225.097099
 21
3.268403
 31
0.0
  0
LINE
  8
0
 62
   249
 10
223.690439
 20
1.737999
 30
0.0
 11
225.097099
 21
3.14466
 31
0.0
  0
LINE
  8
0
 62
   249
 10
223.814182
 20
1.737999
 30
0.0
 11
225.097099
 21
3.020916
 31
0.0
  0
LINE
  8
0
 62
   249
 10
223.937926
 20
1.737999
 30
0.0
 11
225.097099
 21
2.897172
 31
0.0
  0
LINE
  8
0
 62
   249
 10
224.06167
 20
1.737999
 30
0.0
 11
225.097099
 21
2.773429
 31
0.0
  0
LINE
  8
0
 62
   249
 10
224.185413
 20
1.737999
 30
0.0
 11
225.097099
 21
2.649685
 31
0.0
  0
LINE
  8
0
 62
   249
 10
224.309157
 20
1.737999
 30
0.0
 11
225.097099
 21
2.525941
 31
0.0
  0
LINE
  8
0
 62
   249
 10
224.432901
 20
1.737999
 30
0.0
 11
225.097099
 21
2.402197
 31
0.0
  0
LINE
  8
0
 62
   249
 10
224.556645
 20
1.737999
 30
0.0
 11
225.097099
 21
2.278454
 31
0.0
  0
LINE
  8
0
 62
   249
 10
224.680388
 20
1.737999
 30
0.0
 11
225.097099
 21
2.15471
 31
0.0
  0
LINE
  8
0
 62
   249
 10
224.804132
 20
1.737999
 30
0.0
 11
225.097099
 21
2.030966
 31
0.0
  0
LINE
  8
0
 62
   249
 10
224.927876
 20
1.737999
 30
0.0
 11
225.097099
 21
1.907223
 31
0.0
  0
LINE
  8
0
 62
   249
 10
225.051619
 20
1.737999
 30
0.0
 11
225.097099
 21
1.783479
 31
0.0
  0
LINE
  8
0
  6
CONTINUOUS
 62
   249
 10
227.38991
 20
91.166103
 30
0.0
 11
225.044144
 21
92.501457
 31
0.0
  0
LINE
  8
0
  6
CONTINUOUS
 62
   249
 10
225.044144
 20
92.501457
 30
0.0
 11
227.38991
 21
93.691376
 31
0.0
  0
ARC
  8
0
  6
CONTINUOUS
 62
   249
 10
275.0
 20
77.5
 30
0.0
 40
0.5
 50
180.0
 51
0.0
  0
ARC
  8
0
  6
CONTINUOUS
 62
   249
 10
275.0
 20
77.5
 30
0.0
 40
0.5
 50
0.0
 51
180.0
  0
ARC
  8
0
  6
CONTINUOUS
 62
   249
 10
275.0
 20
97.5
 30
0.0
 40
0.5
 50
180.0
 51
0.0
  0
ARC
  8
0
  6
CONTINUOUS
 62
   249
 10
275.0
 20
97.5
 30
0.0
 40
0.5
 50
0.0
 51
180.0
  0
ARC
  8
0
  6
CONTINUOUS
 62
   249
 10
280.0
 20
117.5
 30
0.0
 40
0.5
 50
180.0
 51
0.0
  0
ARC
  8
0
  6
CONTINUOUS
 62
   249
 10
280.0
 20
117.5
 30
0.0
 40
0.5
 50
0.0
 51
180.0
  0
LINE
  8
0
  6
CONTINUOUS
 62
   249
 10
226.989729
 20
181.164635
 30
0.0
 11
224.643963
 21
182.499989
 31
0.0
  0
LINE
  8
0
  6
CONTINUOUS
 62
   249
 10
224.643963
 20
182.499989
 30
0.0
 11
226.989729
 21
183.689908
 31
0.0
  0
ARC
  8
0
  6
CONTINUOUS
 62
   249
 10
217.5
 20
182.5
 30
0.0
 40
0.5
 50
180.0
 51
0.0
  0
ARC
  8
0
  6
CONTINUOUS
 62
   249
 10
217.5
 20
182.5
 30
0.0
 40
0.5
 50
0.0
 51
180.0
  0
INSERT
  8
0
  6
CENTER
 62
   249
  2
BLC26
 10
303.910526
 20
170.080446
 30
0.0
 41
1.006225
 42
1.006225
 50
180.0
 43
1.006225
  0
LINE
  8
0
  6
CONTINUOUS
 62
   249
 10
287.5
 20
160.990022
 30
0.0
 11
287.5
 21
158.344365
 31
0.0
  0
LINE
  8
0
  6
CONTINUOUS
 62
   249
 10
286.896305
 20
156.562812
 30
0.0
 11
288.103695
 21
156.562812
 31
0.0
  0
LINE
  8
0
  6
CONTINUOUS
 62
   249
 10
286.463807
 20
157.450325
 30
0.0
 11
288.527182
 21
157.450325
 31
0.0
  0
LINE
  8
0
  6
CONTINUOUS
 62
   249
 10
285.968237
 20
158.344365
 30
0.0
 11
289.031763
 21
158.344365
 31
0.0
  0
ARC
  8
0
  6
CONTINUOUS
 62
   249
 10
287.5
 20
162.5
 30
0.0
 40
0.5
 50
180.0
 51
0.0
  0
ARC
  8
0
  6
CONTINUOUS
 62
   249
 10
287.5
 20
162.5
 30
0.0
 40
0.5
 50
0.0
 51
180.0
  0
ARC
  8
0
  6
CONTINUOUS
 62
   249
 10
287.5
 20
167.689984
 30
0.0
 40
0.5
 50
180.0
 51
0.0
  0
ARC
  8
0
  6
CONTINUOUS
 62
   249
 10
287.5
 20
167.689984
 30
0.0
 40
0.5
 50
0.0
 51
180.0
  0
ARC
  8
0
  6
CONTINUOUS
 62
   249
 10
272.5
 20
162.5
 30
0.0
 40
0.5
 50
180.0
 51
0.0
  0
ARC
  8
0
  6
CONTINUOUS
 62
   249
 10
272.5
 20
162.5
 30
0.0
 40
0.5
 50
0.0
 51
180.0
  0
ARC
  8
0
  6
CONTINUOUS
 62
   249
 10
287.5
 20
187.689984
 30
0.0
 40
0.5
 50
180.0
 51
0.0
  0
ARC
  8
0
  6
CONTINUOUS
 62
   249
 10
287.5
 20
187.689984
 30
0.0
 40
0.5
 50
0.0
 51
180.0
  0
ARC
  8
0
  6
CONTINUOUS
 62
   249
 10
272.5
 20
182.5
 30
0.0
 40
0.5
 50
180.0
 51
0.0
  0
ARC
  8
0
  6
CONTINUOUS
 62
   249
 10
272.5
 20
182.5
 30
0.0
 40
0.5
 50
0.0
 51
180.0
  0
INSERT
  8
0
  6
CENTER
 62
   249
  2
BLC26
 10
298.93164
 20
190.080445
 30
0.0
 41
1.006225
 42
1.006225
 50
180.0
 43
1.006225
  0
INSERT
  8
0
  6
CENTER
 62
   249
  2
BLC26
 10
293.910524
 20
210.080448
 30
0.0
 41
1.006225
 42
1.006225
 50
180.0
 43
1.006225
  0
LINE
  8
0
  6
CONTINUOUS
 62
   249
 10
310.564179
 20
205.532496
 30
0.0
 11
310.564179
 21
196.382668
 31
0.0
  0
INSERT
  8
0
  6
CONTINUOUS
 62
   249
  2
BLC29
 10
310.696926
 20
198.743233
 30
0.0
 50
270.0
  0
ARC
  8
0
  6
CONTINUOUS
 62
   249
 10
302.5
 20
242.5
 30
0.0
 40
0.5
 50
180.0
 51
0.0
  0
ARC
  8
0
  6
CONTINUOUS
 62
   249
 10
302.5
 20
242.5
 30
0.0
 40
0.5
 50
0.0
 51
180.0
  0
ARC
  8
0
  6
CONTINUOUS
 62
   249
 10
292.5
 20
252.5
 30
0.0
 40
0.5
 50
180.0
 51
0.0
  0
ARC
  8
0
  6
CONTINUOUS
 62
   249
 10
292.5
 20
252.5
 30
0.0
 40
0.5
 50
0.0
 51
180.0
  0
ARC
  8
0
  6
CONTINUOUS
 62
   249
 10
297.5
 20
247.5
 30
0.0
 40
0.5
 50
180.0
 51
0.0
  0
ARC
  8
0
  6
CONTINUOUS
 62
   249
 10
297.5
 20
247.5
 30
0.0
 40
0.5
 50
0.0
 51
180.0
  0
INSERT
  8
0
  6
CENTER
 62
   249
  2
BLC26
 10
366.046562
 20
140.109534
 30
0.0
 41
1.006225
 42
1.006225
 43
1.006225
  0
INSERT
  8
0
  6
CENTER
 62
   249
  2
BLC26
 10
351.046562
 20
140.109534
 30
0.0
 41
1.006225
 42
1.006225
 43
1.006225
  0
INSERT
  8
0
  6
CENTER
 62
   249
  2
BLC26
 10
358.546562
 20
140.109534
 30
0.0
 41
1.006225
 42
1.006225
 43
1.006225
  0
ARC
  8
0
  6
CONTINUOUS
 62
   249
 10
360.0
 20
160.0
 30
0.0
 40
0.5
 50
180.0
 51
0.0
  0
ARC
  8
0
  6
CONTINUOUS
 62
   249
 10
360.0
 20
160.0
 30
0.0
 40
0.5
 50
0.0
 51
180.0
  0
ARC
  8
0
  6
CONTINUOUS
 62
   249
 10
352.5
 20
165.0
 30
0.0
 40
0.5
 50
180.0
 51
0.0
  0
ARC
  8
0
  6
CONTINUOUS
 62
   249
 10
352.5
 20
165.0
 30
0.0
 40
0.5
 50
0.0
 51
180.0
  0
ARC
  8
0
  6
CONTINUOUS
 62
   249
 10
367.5
 20
155.0
 30
0.0
 40
0.5
 50
180.0
 51
0.0
  0
ARC
  8
0
  6
CONTINUOUS
 62
   249
 10
367.5
 20
155.0
 30
0.0
 40
0.5
 50
0.0
 51
180.0
  0
LINE
  8
0
  6
CONTINUOUS
 62
   249
 10
381.509978
 20
137.68998
 30
0.0
 11
384.155635
 21
137.68998
 31
0.0
  0
LINE
  8
0
  6
CONTINUOUS
 62
   249
 10
385.937188
 20
137.086285
 30
0.0
 11
385.937188
 21
138.293675
 31
0.0
  0
LINE
  8
0
  6
CONTINUOUS
 62
   249
 10
385.049675
 20
136.653787
 30
0.0
 11
385.049675
 21
138.717163
 31
0.0
  0
LINE
  8
0
  6
CONTINUOUS
 62
   249
 10
384.155635
 20
136.158217
 30
0.0
 11
384.155635
 21
139.221743
 31
0.0
  0
ENDSEC
  0
EOF
