  0
SECTION
  2
HEADER
  9
$LTSCALE
 40
20.0
  0
ENDSEC
  0
SECTION
  2
TABLES
  0
TABLE
  2
LTYPE
 70
    25
  0
LTYPE
  2
CENTER
 70
    64
  3
____ _ ____ _ ____ _ ____ _ ____ _ ____
 72
    65
 73
     4
 40
2.0
 49
1.25
 49
-0.25
 49
0.25
 49
-0.25
  0
LTYPE
  2
DASHED
 70
    64
  3
_ _ _ _ _ _ _ _ _ _ _ _ _ _ _ _ _
 72
    65
 73
     2
 40
0.75
 49
0.5
 49
-0.25
  0
ENDTAB
  0
ENDSEC
  0
SECTION
  2
ENTITIES
0
LINE
  8
206
  6
CENTER
10
-211.185201
20
0.000000
30
0
11
1196.280812
21
 0.0000
31
0
0
LINE
  8
204
  6
CONTINUOUS
10
135.834063
20
306.000000
30
0
11
120.500000
21
 306.0000
31
0
0
LINE
  8
204
  6
CONTINUOUS
10
377.000001
20
460.000000
30
0
11
385.500001
21
 460.0000
31
0
0
LINE
  8
204
  6
CONTINUOUS
10
38.500001
20
460.000000
30
0
11
47.000001
21
 460.0000
31
0
0
LINE
  8
204
  6
CONTINUOUS
10
385.500001
20
460.000000
30
0
11
377.000001
21
 469.1151
31
0
0
LINE
  8
204
  6
CONTINUOUS
10
372.444790
20
474.000000
30
0
11
311.831310
21
 539.0000
31
0
0
LINE
  8
204
  6
CONTINUOUS
10
38.500001
20
460.000000
30
0
11
47.000001
21
 469.1151
31
0
0
LINE
  8
204
  6
CONTINUOUS
10
51.555213
20
474.000000
30
0
11
112.168693
21
 539.0000
31
0
0
LINE
  8
204
  6
CONTINUOUS
10
38.500001
20
410.000000
30
0
11
38.500001
21
 460.0000
31
0
0
LINE
  8
204
  6
CONTINUOUS
10
385.500001
20
460.000000
30
0
11
385.500001
21
 410.0000
31
0
0
LINE
  8
204
  6
CONTINUOUS
10
164.854379
20
543.000000
30
0
11
177.371386
21
 543.0000
31
0
0
LINE
  8
204
  6
CONTINUOUS
10
177.371386
20
543.000000
30
0
11
181.262335
21
 543.0000
31
0
0
LINE
  8
204
  6
CONTINUOUS
10
181.262335
20
543.000000
30
0
11
191.242334
21
 543.0000
31
0
0
LINE
  8
204
  6
CONTINUOUS
10
139.265119
20
543.000000
30
0
11
148.597622
21
 543.0000
31
0
0
LINE
  8
204
  6
CONTINUOUS
10
148.597622
20
543.000000
30
0
11
152.337372
21
 543.0000
31
0
0
LINE
  8
204
  6
CONTINUOUS
10
152.337372
20
543.000000
30
0
11
164.854379
21
 543.0000
31
0
0
LINE
  8
204
  6
CONTINUOUS
10
216.457073
20
543.000000
30
0
11
222.387443
21
 543.0000
31
0
0
LINE
  8
204
  6
CONTINUOUS
10
237.579813
20
543.000000
30
0
11
222.387443
21
 543.0000
31
0
0
LINE
  8
204
  6
CONTINUOUS
10
201.265073
20
543.000000
30
0
11
216.457073
21
 543.0000
31
0
0
LINE
  8
204
  6
CONTINUOUS
10
262.711073
20
543.000000
30
0
11
268.641443
21
 543.0000
31
0
0
LINE
  8
204
  6
CONTINUOUS
10
283.833813
20
543.000000
30
0
11
268.641443
21
 543.0000
31
0
0
LINE
  8
204
  6
CONTINUOUS
10
247.519073
20
543.000000
30
0
11
262.711073
21
 543.0000
31
0
0
LINE
  8
204
  6
CONTINUOUS
10
198.667443
20
539.000000
30
0
11
201.265073
21
 543.0000
31
0
0
LINE
  8
204
  6
CONTINUOUS
10
244.921443
20
539.000000
30
0
11
247.519073
21
 543.0000
31
0
0
LINE
  8
204
  6
CONTINUOUS
10
112.168693
20
539.000000
30
0
11
311.831310
21
 539.0000
31
0
0
LINE
  8
204
  6
CONTINUOUS
10
70.000000
20
343.000000
30
0
11
353.999944
21
 343.0000
31
0
0
LINE
  8
204
  6
CONTINUOUS
10
70.000161
20
343.000000
30
0
11
354.000000
21
 343.0000
31
0
0
LINE
  8
204
  6
CONTINUOUS
10
377.000001
20
349.000000
30
0
11
47.000001
21
 349.0000
31
0
0
LINE
  8
204
  6
CONTINUOUS
10
47.000001
20
474.000000
30
0
11
377.000001
21
 474.0000
31
0
0
LINE
  8
204
  6
CONTINUOUS
10
47.000001
20
410.000000
30
0
11
38.500001
21
 410.0000
31
0
0
LINE
  8
204
  6
CONTINUOUS
10
385.500001
20
410.000000
30
0
11
377.000001
21
 410.0000
31
0
0
LINE
  8
204
  6
CONTINUOUS
10
47.000001
20
349.000000
30
0
11
47.000001
21
 474.0000
31
0
0
LINE
  8
204
  6
CONTINUOUS
10
377.000001
20
474.000000
30
0
11
377.000001
21
 349.0000
31
0
0
LINE
  8
204
  6
CONTINUOUS
10
422.500000
20
323.000000
30
0
11
422.500000
21
 320.7027
31
0
0
LINE
  8
204
  6
CONTINUOUS
10
490.500000
20
323.000000
30
0
11
490.500000
21
 320.7027
31
0
0
LINE
  8
204
  6
CONTINUOUS
10
-170.000000
20
-38.000000
30
0
11
-170.000000
21
 38.0000
31
0
0
LINE
  8
204
  6
CONTINUOUS
10
-170.000000
20
-38.000000
30
0
11
-170.000000
21
 38.0000
31
0
0
LINE
  8
204
  6
CONTINUOUS
10
-168.000000
20
45.000000
30
0
11
-43.000000
21
 45.0000
31
0
0
LINE
  8
204
  6
CONTINUOUS
10
-168.000000
20
45.000000
30
0
11
-168.000000
21
 38.4578
31
0
0
LINE
  8
204
  6
CONTINUOUS
10
-43.000000
20
38.457769
30
0
11
-43.000000
21
 45.0000
31
0
0
LINE
  8
204
  6
CONTINUOUS
10
120.500000
20
234.704497
30
0
11
120.500000
21
 232.9917
31
0
0
LINE
  8
204
  6
CONTINUOUS
10
120.500000
20
232.991684
30
0
11
120.500000
21
 212.4856
31
0
0
LINE
  8
204
  6
CONTINUOUS
10
120.500000
20
212.485588
30
0
11
120.500000
21
 148.0542
31
0
0
LINE
  8
204
  6
CONTINUOUS
10
120.500000
20
61.271005
30
0
11
120.500000
21
 148.0542
31
0
0
LINE
  8
204
  6
CONTINUOUS
10
120.500000
20
61.271005
30
0
11
120.500000
21
 14.5000
31
0
0
LINE
  8
204
  6
CONTINUOUS
10
120.500000
20
14.500000
30
0
11
120.500000
21
-14.5000
31
0
0
LINE
  8
204
  6
CONTINUOUS
10
120.500000
20
-14.500000
30
0
11
120.500000
21
-61.2710
31
0
0
LINE
  8
204
  6
CONTINUOUS
10
120.500000
20
-148.054210
30
0
11
120.500000
21
-61.2710
31
0
0
LINE
  8
204
  6
CONTINUOUS
10
120.500000
20
-148.054210
30
0
11
120.500000
21
-212.4856
31
0
0
LINE
  8
204
  6
CONTINUOUS
10
120.500000
20
-212.485588
30
0
11
120.500000
21
-232.9917
31
0
0
LINE
  8
204
  6
CONTINUOUS
10
120.500000
20
-232.991685
30
0
11
120.500000
21
-234.7045
31
0
0
LINE
  8
204
  6
CONTINUOUS
10
120.500000
20
-270.651277
30
0
11
120.500000
21
-234.7045
31
0
0
LINE
  8
204
  6
CONTINUOUS
10
120.500000
20
-270.651277
30
0
11
120.500000
21
-315.0000
31
0
0
LINE
  8
204
  6
CONTINUOUS
10
120.500000
20
315.000000
30
0
11
120.500000
21
 270.6513
31
0
0
LINE
  8
204
  6
CONTINUOUS
10
120.500000
20
234.704497
30
0
11
120.500000
21
 270.6513
31
0
0
LINE
  8
204
  6
CONTINUOUS
10
148.881963
20
-19.000000
30
0
11
120.500000
21
-19.0000
31
0
0
LINE
  8
204
  6
CONTINUOUS
10
120.500000
20
19.000000
30
0
11
148.881963
21
 19.0000
31
0
0
LINE
  8
204
  6
CONTINUOUS
10
120.500000
20
-306.000000
30
0
11
148.881962
21
-306.0000
31
0
0
LINE
  8
204
  6
CONTINUOUS
10
-0.000000
20
-329.999999
30
0
11
0.000000
21
 330.0000
31
0
0
LINE
  8
204
  6
CONTINUOUS
10
-6.000000
20
220.939646
30
0
11
-6.000000
21
 272.0093
31
0
0
LINE
  8
204
  6
CONTINUOUS
10
-6.000000
20
40.446506
30
0
11
-6.000000
21
 163.7396
31
0
0
LINE
  8
204
  6
CONTINUOUS
10
-6.000000
20
-163.739649
30
0
11
-6.000000
21
-40.4465
31
0
0
LINE
  8
204
  6
CONTINUOUS
10
-6.000000
20
-272.009338
30
0
11
-6.000000
21
-220.9396
31
0
0
LINE
  8
204
  6
CONTINUOUS
10
-6.000000
20
220.939646
30
0
11
0.000000
21
 220.9396
31
0
0
LINE
  8
204
  6
CONTINUOUS
10
-0.000000
20
-220.939646
30
0
11
-6.000000
21
-220.9396
31
0
0
LINE
  8
204
  6
CONTINUOUS
10
120.500000
20
315.000000
30
0
11
28.000000
21
 315.0000
31
0
0
LINE
  8
204
  6
CONTINUOUS
10
28.000000
20
-315.000000
30
0
11
120.500000
21
-315.0000
31
0
0
LINE
  8
204
  6
CONTINUOUS
10
28.000000
20
-329.999999
30
0
11
28.000000
21
 330.0000
31
0
0
LINE
  8
204
  6
CONTINUOUS
10
668.900000
20
211.424927
30
0
11
668.900000
21
 208.9149
31
0
0
LINE
  8
204
  6
CONTINUOUS
10
668.900000
20
248.194480
30
0
11
668.900000
21
 211.4249
31
0
0
LINE
  8
204
  6
CONTINUOUS
10
720.900000
20
211.424927
30
0
11
720.900000
21
 248.1945
31
0
0
LINE
  8
204
  6
CONTINUOUS
10
720.900000
20
208.914860
30
0
11
720.900000
21
 211.4249
31
0
0
LINE
  8
204
  6
CONTINUOUS
10
668.900000
20
-211.424928
30
0
11
668.900000
21
-248.1945
31
0
0
LINE
  8
204
  6
CONTINUOUS
10
668.900000
20
-208.914861
30
0
11
668.900000
21
-211.4249
31
0
0
LINE
  8
204
  6
CONTINUOUS
10
720.900000
20
-211.424928
30
0
11
720.900000
21
-208.9149
31
0
0
LINE
  8
204
  6
CONTINUOUS
10
720.900000
20
-248.194481
30
0
11
720.900000
21
-211.4249
31
0
0
LINE
  8
204
  6
CONTINUOUS
10
168.100000
20
-211.424928
30
0
11
168.100000
21
-248.1945
31
0
0
LINE
  8
204
  6
CONTINUOUS
10
168.100000
20
-208.914861
30
0
11
168.100000
21
-211.4249
31
0
0
LINE
  8
204
  6
CONTINUOUS
10
220.100000
20
-211.424928
30
0
11
220.100000
21
-208.9149
31
0
0
LINE
  8
204
  6
CONTINUOUS
10
220.100000
20
-248.194480
30
0
11
220.100000
21
-211.4249
31
0
0
LINE
  8
204
  6
CONTINUOUS
10
168.100000
20
211.424927
30
0
11
168.100000
21
 208.9149
31
0
0
LINE
  8
204
  6
CONTINUOUS
10
168.100000
20
248.194480
30
0
11
168.100000
21
 211.4249
31
0
0
LINE
  8
204
  6
CONTINUOUS
10
220.100000
20
211.424927
30
0
11
220.100000
21
 248.1945
31
0
0
LINE
  8
204
  6
CONTINUOUS
10
220.100000
20
208.914861
30
0
11
220.100000
21
 211.4249
31
0
0
ARC
  8
204
  6
CONTINUOUS
10
40.473227
20
-124.186977
30
0
40
2.650000
50
180.000000
51
270.000000
0
ARC
  8
204
  6
CONTINUOUS
10
40.473227
20
-124.186977
30
0
40
2.650000
50
90.000000
51
180.000000
0
LINE
  8
204
  6
CONTINUOUS
10
747.500000
20
-312.000001
30
0
11
747.500000
21
 312.0000
31
0
0
ARC
  8
204
  6
CONTINUOUS
10
848.647200
20
-119.419001
30
0
40
2.650000
50
360.000000
51
450.000000
0
ARC
  8
204
  6
CONTINUOUS
10
848.647200
20
-119.419001
30
0
40
2.650000
50
270.000000
51
360.000000
0
LINE
  8
204
  6
CONTINUOUS
10
1141.500000
20
-249.000001
30
0
11
1141.500000
21
 249.0000
31
0
0
LINE
  8
204
  6
CONTINUOUS
10
1153.000000
20
-241.500001
30
0
11
1153.000000
21
-228.4999
31
0
0
LINE
  8
204
  6
CONTINUOUS
10
1153.000000
20
-6.500001
30
0
11
1153.000000
21
 6.5000
31
0
0
LINE
  8
204
  6
CONTINUOUS
10
1153.000000
20
-6.500001
30
0
11
1153.000000
21
 6.5000
31
0
0
LINE
  8
204
  6
CONTINUOUS
10
1153.000000
20
228.500013
30
0
11
1153.000000
21
 241.5000
31
0
0
LINE
  8
204
  6
CONTINUOUS
10
1017.500000
20
308.000000
30
0
11
1017.500000
21
-308.0000
31
0
0
LINE
  8
204
  6
CONTINUOUS
10
133.500000
20
343.000000
30
0
11
133.500000
21
 305.9999
31
0
0
LINE
  8
204
  6
CONTINUOUS
10
290.500000
20
322.500077
30
0
11
290.500000
21
 343.0000
31
0
0
POLYLINE
  8
204
  6
CONTINUOUS
 10
0.0
 20
0.0
 30
0.0
 66
   1
 70
   8
  0
VERTEX
  8
204
10
290.499844
20
322.500077
30
0.0
 70
  32
  0
VERTEX
  8
204
10
290.255510
20
322.440575
30
0.0
 70
  32
  0
VERTEX
  8
204
10
289.683749
20
322.302458
30
0.0
 70
  32
  0
SEQEND
0
LINE
  8
204
  6
CONTINUOUS
10
135.834063
20
306.000000
30
0
11
135.834063
21
 283.8864
31
0
0
POLYLINE
  8
204
  6
CONTINUOUS
 10
0.0
 20
0.0
 30
0.0
 66
   1
 70
   8
  0
VERTEX
  8
204
10
135.834007
20
283.886433
30
0.0
 70
  32
  0
VERTEX
  8
204
10
137.062778
20
285.644289
30
0.0
 70
  32
  0
VERTEX
  8
204
10
144.573623
20
296.590849
30
0.0
 70
  32
  0
VERTEX
  8
204
10
149.600209
20
304.096740
30
0.0
 70
  32
  0
VERTEX
  8
204
10
158.289433
20
317.377941
30
0.0
 70
  32
  0
SEQEND
0
POLYLINE
  8
204
  6
CONTINUOUS
 10
0.0
 20
0.0
 30
0.0
 66
   1
 70
   8
  0
VERTEX
  8
204
10
266.549630
20
317.520999
30
0.0
 70
  32
  0
VERTEX
  8
204
10
260.400389
20
316.522665
30
0.0
 70
  32
  0
VERTEX
  8
204
10
233.056905
20
313.508203
30
0.0
 70
  32
  0
VERTEX
  8
204
10
223.311138
20
313.004699
30
0.0
 70
  32
  0
VERTEX
  8
204
10
212.000000
20
312.800256
30
0.0
 70
  32
  0
VERTEX
  8
204
10
197.382489
20
313.141616
30
0.0
 70
  32
  0
VERTEX
  8
204
10
187.446338
20
313.762461
30
0.0
 70
  32
  0
VERTEX
  8
204
10
177.816913
20
314.662491
30
0.0
 70
  32
  0
VERTEX
  8
204
10
158.289433
20
317.377941
30
0.0
 70
  32
  0
SEQEND
0
POLYLINE
  8
204
  6
CONTINUOUS
 10
0.0
 20
0.0
 30
0.0
 66
   1
 70
   8
  0
VERTEX
  8
204
10
282.816972
20
320.716512
30
0.0
 70
  32
  0
VERTEX
  8
204
10
280.973112
20
320.314361
30
0.0
 70
  32
  0
VERTEX
  8
204
10
266.549630
20
317.520999
30
0.0
 70
  32
  0
SEQEND
0
POLYLINE
  8
204
  6
CONTINUOUS
 10
0.0
 20
0.0
 30
0.0
 66
   1
 70
   8
  0
VERTEX
  8
204
10
289.683749
20
322.302458
30
0.0
 70
  32
  0
VERTEX
  8
204
10
288.630487
20
322.050045
30
0.0
 70
  32
  0
VERTEX
  8
204
10
285.506288
20
321.320983
30
0.0
 70
  32
  0
VERTEX
  8
204
10
282.816972
20
320.716512
30
0.0
 70
  32
  0
SEQEND
0
LINE
  8
204
  6
CONTINUOUS
10
120.500000
20
274.844047
30
0
11
130.500000
21
 274.8440
31
0
0
POLYLINE
  8
204
  6
CONTINUOUS
 10
0.0
 20
0.0
 30
0.0
 66
   1
 70
   8
  0
VERTEX
  8
204
10
130.499945
20
274.844179
30
0.0
 70
  32
  0
VERTEX
  8
204
10
135.834007
20
283.886433
30
0.0
 70
  32
  0
SEQEND
0
LINE
  8
204
  6
CONTINUOUS
10
148.533530
20
-306.000000
30
0
11
158.289433
21
-322.4999
31
0
0
POLYLINE
  8
204
  6
CONTINUOUS
 10
0.0
 20
0.0
 30
0.0
 66
   1
 70
   8
  0
VERTEX
  8
204
10
148.881881
20
-305.999996
30
0.0
 70
  32
  0
VERTEX
  8
204
10
130.499945
20
-274.843991
30
0.0
 70
  32
  0
SEQEND
0
LINE
  8
204
  6
CONTINUOUS
10
130.500000
20
-274.844047
30
0
11
130.500000
21
-229.8097
31
0
0
POLYLINE
  8
204
  6
CONTINUOUS
 10
0.0
 20
0.0
 30
0.0
 66
   1
 70
   8
  0
VERTEX
  8
204
10
148.881881
20
-229.809710
30
0.0
 70
  32
  0
VERTEX
  8
204
10
148.881881
20
-202.939785
30
0.0
 70
  32
  0
SEQEND
0
POLYLINE
  8
204
  6
CONTINUOUS
 10
0.0
 20
0.0
 30
0.0
 66
   1
 70
   8
  0
VERTEX
  8
204
10
148.881881
20
-202.939785
30
0.0
 70
  32
  0
VERTEX
  8
204
10
130.499945
20
-180.909208
30
0.0
 70
  32
  0
SEQEND
0
LINE
  8
204
  6
CONTINUOUS
10
130.500000
20
-180.909060
30
0
11
130.500000
21
-19.0000
31
0
0
POLYLINE
  8
204
  6
CONTINUOUS
 10
0.0
 20
0.0
 30
0.0
 66
   1
 70
   8
  0
VERTEX
  8
204
10
148.881881
20
-18.999986
30
0.0
 70
  32
  0
VERTEX
  8
204
10
148.881881
20
18.999841
30
0.0
 70
  32
  0
SEQEND
0
LINE
  8
204
  6
CONTINUOUS
10
130.500000
20
19.000000
30
0
11
130.500000
21
 180.9091
31
0
0
POLYLINE
  8
204
  6
CONTINUOUS
 10
0.0
 20
0.0
 30
0.0
 66
   1
 70
   8
  0
VERTEX
  8
204
10
130.499945
20
180.909063
30
0.0
 70
  32
  0
VERTEX
  8
204
10
148.881881
20
202.939640
30
0.0
 70
  32
  0
SEQEND
0
POLYLINE
  8
204
  6
CONTINUOUS
 10
0.0
 20
0.0
 30
0.0
 66
   1
 70
   8
  0
VERTEX
  8
204
10
148.881881
20
202.939640
30
0.0
 70
  32
  0
VERTEX
  8
204
10
148.881881
20
229.809565
30
0.0
 70
  32
  0
SEQEND
0
LINE
  8
204
  6
CONTINUOUS
10
130.500000
20
229.809704
30
0
11
130.500000
21
 274.8440
31
0
0
LINE
  8
204
  6
CONTINUOUS
10
158.289374
20
317.378058
30
0
11
158.289374
21
 312.6668
31
0
0
LINE
  8
204
  6
CONTINUOUS
10
158.289374
20
312.666770
30
0
11
158.289374
21
 306.0746
31
0
0
LINE
  8
204
  6
CONTINUOUS
10
158.289374
20
306.074595
30
0
11
158.289374
21
 297.6291
31
0
0
LINE
  8
204
  6
CONTINUOUS
10
158.289374
20
297.629121
30
0
11
158.289374
21
 287.1669
31
0
0
LINE
  8
204
  6
CONTINUOUS
10
158.289374
20
287.166880
30
0
11
158.289374
21
 274.4573
31
0
0
LINE
  8
204
  6
CONTINUOUS
10
158.289374
20
274.457333
30
0
11
158.289374
21
 259.1701
31
0
0
LINE
  8
204
  6
CONTINUOUS
10
158.289374
20
259.170070
30
0
11
158.289374
21
 228.0419
31
0
0
LINE
  8
204
  6
CONTINUOUS
10
158.289374
20
228.041937
30
0
11
158.289374
21
 191.9300
31
0
0
LINE
  8
204
  6
CONTINUOUS
10
158.289374
20
191.930000
30
0
11
158.289374
21
 169.3500
31
0
0
LINE
  8
204
  6
CONTINUOUS
10
158.289374
20
169.350000
30
0
11
158.289374
21
 146.7700
31
0
0
LINE
  8
204
  6
CONTINUOUS
10
158.289374
20
146.770000
30
0
11
158.289374
21
 124.1900
31
0
0
LINE
  8
204
  6
CONTINUOUS
10
158.289374
20
124.190000
30
0
11
158.289374
21
 101.6100
31
0
0
LINE
  8
204
  6
CONTINUOUS
10
158.289374
20
101.610000
30
0
11
158.289374
21
 79.0300
31
0
0
LINE
  8
204
  6
CONTINUOUS
10
158.289374
20
79.030000
30
0
11
158.289374
21
 56.4500
31
0
0
LINE
  8
204
  6
CONTINUOUS
10
158.289374
20
56.450000
30
0
11
158.289374
21
 33.8700
31
0
0
LINE
  8
204
  6
CONTINUOUS
10
158.289374
20
33.870000
30
0
11
158.289374
21
 11.2900
31
0
0
LINE
  8
204
  6
CONTINUOUS
10
158.289374
20
11.290000
30
0
11
158.289374
21
-11.2900
31
0
0
LINE
  8
204
  6
CONTINUOUS
10
158.289374
20
-11.290000
30
0
11
158.289374
21
-33.8700
31
0
0
LINE
  8
204
  6
CONTINUOUS
10
158.289374
20
-33.870000
30
0
11
158.289374
21
-56.4500
31
0
0
LINE
  8
204
  6
CONTINUOUS
10
158.289374
20
-56.450000
30
0
11
158.289374
21
-79.0300
31
0
0
LINE
  8
204
  6
CONTINUOUS
10
158.289374
20
-79.030000
30
0
11
158.289374
21
-101.6100
31
0
0
LINE
  8
204
  6
CONTINUOUS
10
158.289374
20
-101.610000
30
0
11
158.289374
21
-124.1900
31
0
0
LINE
  8
204
  6
CONTINUOUS
10
158.289374
20
-124.190000
30
0
11
158.289374
21
-146.7700
31
0
0
LINE
  8
204
  6
CONTINUOUS
10
158.289374
20
-146.770000
30
0
11
158.289374
21
-169.3500
31
0
0
LINE
  8
204
  6
CONTINUOUS
10
158.289374
20
-169.350000
30
0
11
158.289374
21
-191.9300
31
0
0
LINE
  8
204
  6
CONTINUOUS
10
158.289374
20
-191.930000
30
0
11
158.289374
21
-228.0419
31
0
0
LINE
  8
204
  6
CONTINUOUS
10
158.289374
20
-228.041937
30
0
11
158.289374
21
-259.1701
31
0
0
LINE
  8
204
  6
CONTINUOUS
10
158.289374
20
-259.170070
30
0
11
158.289374
21
-274.4573
31
0
0
LINE
  8
204
  6
CONTINUOUS
10
158.289374
20
-274.457333
30
0
11
158.289374
21
-287.1669
31
0
0
LINE
  8
204
  6
CONTINUOUS
10
158.289374
20
-287.166880
30
0
11
158.289374
21
-297.6291
31
0
0
LINE
  8
204
  6
CONTINUOUS
10
158.289374
20
-297.629122
30
0
11
158.289374
21
-306.0746
31
0
0
LINE
  8
204
  6
CONTINUOUS
10
158.289374
20
-306.074595
30
0
11
158.289374
21
-312.6668
31
0
0
LINE
  8
204
  6
CONTINUOUS
10
158.289374
20
-312.666770
30
0
11
158.289374
21
-317.5211
31
0
0
LINE
  8
204
  6
CONTINUOUS
10
158.289374
20
-317.521098
30
0
11
158.289374
21
-320.7165
31
0
0
LINE
  8
204
  6
CONTINUOUS
10
158.289374
20
-320.716500
30
0
11
158.289374
21
-322.3023
31
0
0
LINE
  8
204
  6
CONTINUOUS
10
194.927693
20
539.000000
30
0
11
191.242334
21
 543.0000
31
0
0
LINE
  8
204
  6
CONTINUOUS
10
139.265119
20
543.000000
30
0
11
135.627693
21
 539.0000
31
0
0
LINE
  8
204
  6
CONTINUOUS
10
240.177443
20
539.000000
30
0
11
237.579813
21
 543.0000
31
0
0
LINE
  8
204
  6
CONTINUOUS
10
286.431443
20
539.000000
30
0
11
283.833813
21
 543.0000
31
0
0
LINE
  8
204
  6
CONTINUOUS
10
179.431391
20
539.000000
30
0
11
181.262335
21
 543.0000
31
0
0
LINE
  8
204
  6
CONTINUOUS
10
175.540443
20
539.000000
30
0
11
177.371386
21
 543.0000
31
0
0
LINE
  8
204
  6
CONTINUOUS
10
152.337372
20
543.000000
30
0
11
154.192443
21
 539.0000
31
0
0
LINE
  8
204
  6
CONTINUOUS
10
148.597622
20
543.000000
30
0
11
150.452693
21
 539.0000
31
0
0
LINE
  8
226
  6
CONTINUOUS
10
222.387443
20
543.000000
30
0
11
222.387443
21
 539.0000
31
0
0
LINE
  8
226
  6
CONTINUOUS
10
268.641443
20
543.000000
30
0
11
268.641443
21
 539.0000
31
0
0
LINE
  8
204
  6
CONTINUOUS
10
70.000000
20
349.000000
30
0
11
70.000000
21
 343.0000
31
0
0
LINE
  8
204
  6
CONTINUOUS
10
324.737459
20
474.000000
30
0
11
311.831310
21
 539.0000
31
0
0
LINE
  8
204
  6
CONTINUOUS
10
112.168693
20
539.000000
30
0
11
99.262544
21
 474.0000
31
0
0
LINE
  8
204
  6
CONTINUOUS
10
422.500000
20
320.702744
30
0
11
490.500000
21
 320.7027
31
0
0
LINE
  8
204
  6
CONTINUOUS
10
490.500000
20
323.000000
30
0
11
422.500000
21
 323.0000
31
0
0
POLYLINE
  8
204
  6
CONTINUOUS
 10
0.0
 20
0.0
 30
0.0
 66
   1
 70
   8
  0
VERTEX
  8
204
10
433.189742
20
347.999974
30
0.0
 70
  32
  0
VERTEX
  8
204
10
433.586765
20
341.373954
30
0.0
 70
  32
  0
VERTEX
  8
204
10
433.001384
20
335.366056
30
0.0
 70
  32
  0
VERTEX
  8
204
10
431.827691
20
331.387142
30
0.0
 70
  32
  0
VERTEX
  8
204
10
431.503656
20
330.581183
30
0.0
 70
  32
  0
SEQEND
0
ARC
  8
204
  6
CONTINUOUS
10
456.500000
20
368.000000
30
0
40
25.000000
50
306.869898
51
593.130102
0
ARC
  8
204
  6
CONTINUOUS
10
456.500000
20
368.000000
30
0
40
45.000000
50
303.746507
51
596.253492
0
POLYLINE
  8
204
  6
CONTINUOUS
 10
0.0
 20
0.0
 30
0.0
 66
   1
 70
   8
  0
VERTEX
  8
204
10
481.496388
20
330.581183
30
0.0
 70
  32
  0
VERTEX
  8
204
10
481.498175
20
330.582651
30
0.0
 70
  32
  0
VERTEX
  8
204
10
481.172310
20
331.387142
30
0.0
 70
  32
  0
VERTEX
  8
204
10
479.998616
20
335.366056
30
0.0
 70
  32
  0
VERTEX
  8
204
10
479.413235
20
341.373954
30
0.0
 70
  32
  0
VERTEX
  8
204
10
479.810301
20
347.999974
30
0.0
 70
  32
  0
SEQEND
0
LINE
  8
204
  6
CONTINUOUS
10
481.500000
20
323.000115
30
0
11
481.500000
21
 330.5825
31
0
0
LINE
  8
204
  6
CONTINUOUS
10
433.189759
20
348.000000
30
0
11
479.810242
21
 348.0000
31
0
0
LINE
  8
204
  6
CONTINUOUS
10
431.500000
20
330.582514
30
0
11
431.500000
21
 323.0001
31
0
0
LINE
  8
204
  6
CONTINUOUS
10
-170.000069
20
-38.000065
30
0
11
-167.999921
21
-39.9999
31
0
0
LINE
  8
204
  6
CONTINUOUS
10
-168.000000
20
38.457769
30
0
11
-168.000000
21
-39.9999
31
0
0
LINE
  8
204
  6
CONTINUOUS
10
-167.999921
20
40.000069
30
0
11
-170.000069
21
 37.9999
31
0
0
LINE
  8
204
  6
CONTINUOUS
10
0.000000
20
40.000000
30
0
11
-42.999958
21
 40.0000
31
0
0
LINE
  8
204
  6
CONTINUOUS
10
-167.999921
20
-40.000000
30
0
11
-0.000000
21
-40.0000
31
0
0
LINE
  8
204
  6
CONTINUOUS
10
-43.000000
20
38.457769
30
0
11
-168.000000
21
 38.4578
31
0
0
LINE
  8
204
  6
CONTINUOUS
10
120.500000
20
180.909060
30
0
11
130.500000
21
 180.9091
31
0
0
LINE
  8
204
  6
CONTINUOUS
10
148.881963
20
202.939646
30
0
11
120.500000
21
 202.9396
31
0
0
LINE
  8
204
  6
CONTINUOUS
10
120.500000
20
229.809704
30
0
11
148.881963
21
 229.8097
31
0
0
LINE
  8
204
  6
CONTINUOUS
10
148.881962
20
-229.809704
30
0
11
120.500000
21
-229.8097
31
0
0
LINE
  8
204
  6
CONTINUOUS
10
130.500000
20
-180.909060
30
0
11
120.500000
21
-180.9091
31
0
0
LINE
  8
204
  6
CONTINUOUS
10
120.500000
20
-202.939646
30
0
11
148.881962
21
-202.9396
31
0
0
LINE
  8
204
  6
CONTINUOUS
10
130.500000
20
-274.844047
30
0
11
120.500000
21
-274.8440
31
0
0
LINE
  8
204
  6
CONTINUOUS
10
0.000000
20
272.009338
30
0
11
-6.000000
21
 272.0093
31
0
0
LINE
  8
204
  6
CONTINUOUS
10
0.000000
20
163.739649
30
0
11
-6.000000
21
 163.7396
31
0
0
POLYLINE
  8
204
  6
CONTINUOUS
 10
0.0
 20
0.0
 30
0.0
 66
   1
 70
   8
  0
VERTEX
  8
204
10
-0.000093
20
220.176020
30
0.0
 70
  32
  0
VERTEX
  8
204
10
-5.999873
20
220.939646
30
0.0
 70
  32
  0
SEQEND
0
LINE
  8
204
  6
CONTINUOUS
10
-0.000000
20
-40.446506
30
0
11
-6.000000
21
-40.4465
31
0
0
LINE
  8
204
  6
CONTINUOUS
10
-6.000000
20
40.446506
30
0
11
0.000000
21
 40.4465
31
0
0
POLYLINE
  8
204
  6
CONTINUOUS
 10
0.0
 20
0.0
 30
0.0
 66
   1
 70
   8
  0
VERTEX
  8
204
10
-5.999873
20
-220.939790
30
0.0
 70
  32
  0
VERTEX
  8
204
10
-0.000093
20
-220.176165
30
0.0
 70
  32
  0
SEQEND
0
LINE
  8
204
  6
CONTINUOUS
10
-6.000000
20
-163.739649
30
0
11
-0.000000
21
-163.7396
31
0
0
LINE
  8
204
  6
CONTINUOUS
10
-6.000000
20
-272.009338
30
0
11
-0.000000
21
-272.0093
31
0
0
LINE
  8
204
  6
CONTINUOUS
10
120.500000
20
270.651277
30
0
11
91.500000
21
 270.6513
31
0
0
POLYLINE
  8
204
  6
CONTINUOUS
 10
0.0
 20
0.0
 30
0.0
 66
   1
 70
   8
  0
VERTEX
  8
204
10
61.500146
20
250.124779
30
0.0
 70
  32
  0
VERTEX
  8
204
10
27.999989
20
259.258857
30
0.0
 70
  32
  0
SEQEND
0
POLYLINE
  8
204
  6
CONTINUOUS
 10
0.0
 20
0.0
 30
0.0
 66
   1
 70
   8
  0
VERTEX
  8
204
10
91.500044
20
270.651253
30
0.0
 70
  32
  0
VERTEX
  8
204
10
61.500146
20
250.124779
30
0.0
 70
  32
  0
SEQEND
0
LINE
  8
204
  6
CONTINUOUS
10
91.500000
20
-270.651277
30
0
11
120.500000
21
-270.6513
31
0
0
POLYLINE
  8
204
  6
CONTINUOUS
 10
0.0
 20
0.0
 30
0.0
 66
   1
 70
   8
  0
VERTEX
  8
204
10
61.500146
20
-250.124924
30
0.0
 70
  32
  0
VERTEX
  8
204
10
91.500044
20
-270.651397
30
0.0
 70
  32
  0
SEQEND
0
POLYLINE
  8
204
  6
CONTINUOUS
 10
0.0
 20
0.0
 30
0.0
 66
   1
 70
   8
  0
VERTEX
  8
204
10
27.999989
20
-259.258669
30
0.0
 70
  32
  0
VERTEX
  8
204
10
61.500146
20
-250.124924
30
0.0
 70
  32
  0
SEQEND
0
LINE
  8
204
  6
CONTINUOUS
10
120.500000
20
-234.704497
30
0
11
91.500000
21
-234.7045
31
0
0
LINE
  8
204
  6
CONTINUOUS
10
120.500000
20
-232.991685
30
0
11
28.000000
21
-232.9917
31
0
0
POLYLINE
  8
204
  6
CONTINUOUS
 10
0.0
 20
0.0
 30
0.0
 66
   1
 70
   8
  0
VERTEX
  8
204
10
61.500146
20
-235.497424
30
0.0
 70
  32
  0
VERTEX
  8
204
10
27.999989
20
-235.144437
30
0.0
 70
  32
  0
SEQEND
0
POLYLINE
  8
204
  6
CONTINUOUS
 10
0.0
 20
0.0
 30
0.0
 66
   1
 70
   8
  0
VERTEX
  8
204
10
91.500044
20
-234.704618
30
0.0
 70
  32
  0
VERTEX
  8
204
10
61.500146
20
-235.497424
30
0.0
 70
  32
  0
SEQEND
0
LINE
  8
204
  6
CONTINUOUS
10
28.000000
20
-212.485588
30
0
11
120.500000
21
-212.4856
31
0
0
LINE
  8
204
  6
CONTINUOUS
10
120.500000
20
-61.271005
30
0
11
91.500000
21
-61.2710
31
0
0
LINE
  8
204
  6
CONTINUOUS
10
120.500000
20
-14.500000
30
0
11
28.000000
21
-14.5000
31
0
0
POLYLINE
  8
204
  6
CONTINUOUS
 10
0.0
 20
0.0
 30
0.0
 66
   1
 70
   8
  0
VERTEX
  8
204
10
61.500146
20
-82.918568
30
0.0
 70
  32
  0
VERTEX
  8
204
10
27.999989
20
-73.285784
30
0.0
 70
  32
  0
SEQEND
0
POLYLINE
  8
204
  6
CONTINUOUS
 10
0.0
 20
0.0
 30
0.0
 66
   1
 70
   8
  0
VERTEX
  8
204
10
91.500044
20
-61.270921
30
0.0
 70
  32
  0
VERTEX
  8
204
10
61.500146
20
-82.918568
30
0.0
 70
  32
  0
SEQEND
0
LINE
  8
204
  6
CONTINUOUS
10
91.500000
20
61.271005
30
0
11
120.500000
21
 61.2710
31
0
0
POLYLINE
  8
204
  6
CONTINUOUS
 10
0.0
 20
0.0
 30
0.0
 66
   1
 70
   8
  0
VERTEX
  8
204
10
61.500146
20
82.918424
30
0.0
 70
  32
  0
VERTEX
  8
204
10
91.500044
20
61.271109
30
0.0
 70
  32
  0
SEQEND
0
POLYLINE
  8
204
  6
CONTINUOUS
 10
0.0
 20
0.0
 30
0.0
 66
   1
 70
   8
  0
VERTEX
  8
204
10
27.999989
20
73.285640
30
0.0
 70
  32
  0
VERTEX
  8
204
10
61.500146
20
82.918424
30
0.0
 70
  32
  0
SEQEND
0
LINE
  8
204
  6
CONTINUOUS
10
28.000000
20
14.500000
30
0
11
120.500000
21
 14.5000
31
0
0
LINE
  8
204
  6
CONTINUOUS
10
120.500000
20
148.054210
30
0
11
91.500000
21
 148.0542
31
0
0
LINE
  8
204
  6
CONTINUOUS
10
120.500000
20
212.485588
30
0
11
28.000000
21
 212.4856
31
0
0
POLYLINE
  8
204
  6
CONTINUOUS
 10
0.0
 20
0.0
 30
0.0
 66
   1
 70
   8
  0
VERTEX
  8
204
10
61.500146
20
118.232755
30
0.0
 70
  32
  0
VERTEX
  8
204
10
27.999989
20
131.502868
30
0.0
 70
  32
  0
SEQEND
0
POLYLINE
  8
204
  6
CONTINUOUS
 10
0.0
 20
0.0
 30
0.0
 66
   1
 70
   8
  0
VERTEX
  8
204
10
91.500044
20
148.054329
30
0.0
 70
  32
  0
VERTEX
  8
204
10
61.500146
20
118.232755
30
0.0
 70
  32
  0
SEQEND
0
LINE
  8
204
  6
CONTINUOUS
10
91.500000
20
234.704497
30
0
11
120.500000
21
 234.7045
31
0
0
POLYLINE
  8
204
  6
CONTINUOUS
 10
0.0
 20
0.0
 30
0.0
 66
   1
 70
   8
  0
VERTEX
  8
204
10
61.500146
20
235.497280
30
0.0
 70
  32
  0
VERTEX
  8
204
10
91.500044
20
234.704473
30
0.0
 70
  32
  0
SEQEND
0
POLYLINE
  8
204
  6
CONTINUOUS
 10
0.0
 20
0.0
 30
0.0
 66
   1
 70
   8
  0
VERTEX
  8
204
10
27.999989
20
235.144625
30
0.0
 70
  32
  0
VERTEX
  8
204
10
61.500146
20
235.497280
30
0.0
 70
  32
  0
SEQEND
0
LINE
  8
204
  6
CONTINUOUS
10
28.000000
20
232.991684
30
0
11
120.500000
21
 232.9917
31
0
0
LINE
  8
204
  6
CONTINUOUS
10
61.500000
20
235.497258
30
0
11
61.500000
21
 250.1248
31
0
0
LINE
  8
204
  6
CONTINUOUS
10
61.500000
20
82.918575
30
0
11
61.500000
21
 118.2327
31
0
0
LINE
  8
204
  6
CONTINUOUS
10
61.500000
20
-250.124841
30
0
11
61.500000
21
-235.4973
31
0
0
POLYLINE
  8
204
  6
CONTINUOUS
 10
0.0
 20
0.0
 30
0.0
 66
   1
 70
   8
  0
VERTEX
  8
204
10
53.441229
20
-121.536977
30
0.0
 70
  32
  0
VERTEX
  8
204
10
61.500146
20
-118.232567
30
0.0
 70
  32
  0
SEQEND
0
LINE
  8
204
  6
CONTINUOUS
10
61.500000
20
-118.232684
30
0
11
61.500000
21
-82.9186
31
0
0
POLYLINE
  8
204
  6
CONTINUOUS
 10
0.0
 20
0.0
 30
0.0
 66
   1
 70
   8
  0
VERTEX
  8
204
10
27.999989
20
-131.502680
30
0.0
 70
  32
  0
VERTEX
  8
204
10
40.166228
20
-126.819032
30
0.0
 70
  32
  0
SEQEND
0
LINE
  8
204
  6
CONTINUOUS
10
91.500000
20
234.704497
30
0
11
91.500000
21
 270.6513
31
0
0
LINE
  8
204
  6
CONTINUOUS
10
91.500000
20
61.271005
30
0
11
91.500000
21
 148.0542
31
0
0
POLYLINE
  8
204
  6
CONTINUOUS
 10
0.0
 20
0.0
 30
0.0
 66
   1
 70
   8
  0
VERTEX
  8
204
10
61.500146
20
-118.232567
30
0.0
 70
  32
  0
VERTEX
  8
204
10
64.547297
20
-121.536977
30
0.0
 70
  32
  0
SEQEND
0
POLYLINE
  8
204
  6
CONTINUOUS
 10
0.0
 20
0.0
 30
0.0
 66
   1
 70
   8
  0
VERTEX
  8
204
10
69.584345
20
-126.836977
30
0.0
 70
  32
  0
VERTEX
  8
204
10
91.500044
20
-148.054141
30
0.0
 70
  32
  0
SEQEND
0
LINE
  8
204
  6
CONTINUOUS
10
91.500000
20
-148.054210
30
0
11
91.500000
21
-61.2710
31
0
0
LINE
  8
204
  6
CONTINUOUS
10
91.500000
20
-270.651277
30
0
11
91.500000
21
-234.7045
31
0
0
LINE
  8
204
  6
CONTINUOUS
10
91.500000
20
-148.054210
30
0
11
120.500000
21
-148.0542
31
0
0
LINE
  8
204
  6
CONTINUOUS
10
28.000000
20
330.000000
30
0
11
0.000000
21
 330.0000
31
0
0
LINE
  8
204
  6
CONTINUOUS
10
-0.000000
20
-330.000000
30
0
11
28.000000
21
-330.0000
31
0
0
LINE
  8
204
  6
CONTINUOUS
10
720.900000
20
208.914860
30
0
11
668.900000
21
 208.9149
31
0
0
LINE
  8
204
  6
CONTINUOUS
10
720.900000
20
211.424927
30
0
11
668.900000
21
 211.4249
31
0
0
LINE
  8
204
  6
CONTINUOUS
10
720.900000
20
248.194480
30
0
11
668.900000
21
 248.1945
31
0
0
LINE
  8
204
  6
CONTINUOUS
10
720.900000
20
-248.194481
30
0
11
668.900000
21
-248.1945
31
0
0
LINE
  8
204
  6
CONTINUOUS
10
668.900000
20
-208.914861
30
0
11
720.900000
21
-208.9149
31
0
0
LINE
  8
204
  6
CONTINUOUS
10
720.900000
20
-211.424928
30
0
11
668.900000
21
-211.4249
31
0
0
LINE
  8
204
  6
CONTINUOUS
10
168.100000
20
-248.194480
30
0
11
220.100000
21
-248.1945
31
0
0
LINE
  8
204
  6
CONTINUOUS
10
168.100000
20
-211.424928
30
0
11
220.100000
21
-211.4249
31
0
0
LINE
  8
204
  6
CONTINUOUS
10
168.100000
20
211.424927
30
0
11
220.100000
21
 211.4249
31
0
0
LINE
  8
204
  6
CONTINUOUS
10
168.100000
20
248.194480
30
0
11
220.100000
21
 248.1945
31
0
0
LINE
  8
204
  6
CONTINUOUS
10
168.100000
20
-208.914861
30
0
11
220.100000
21
-208.9149
31
0
0
LINE
  8
204
  6
CONTINUOUS
10
220.100000
20
208.914861
30
0
11
168.100000
21
 208.9149
31
0
0
LINE
  8
204
  6
CONTINUOUS
10
158.289433
20
-322.500000
30
0
11
730.710493
21
-322.5000
31
0
0
LINE
  8
219
  6
CONTINUOUS
10
730.710626
20
-322.302321
30
0
11
158.289374
21
-322.3023
31
0
0
LINE
  8
204
  6
CONTINUOUS
10
730.710626
20
-322.302321
30
0
11
730.710626
21
-320.7165
31
0
0
LINE
  8
219
  6
CONTINUOUS
10
730.710626
20
-320.716500
30
0
11
158.289374
21
-320.7165
31
0
0
LINE
  8
204
  6
CONTINUOUS
10
730.710626
20
-320.716500
30
0
11
730.710626
21
-317.5211
31
0
0
LINE
  8
219
  6
CONTINUOUS
10
730.710626
20
-317.521098
30
0
11
158.289374
21
-317.5211
31
0
0
LINE
  8
204
  6
CONTINUOUS
10
730.710626
20
-317.521098
30
0
11
730.710626
21
-312.6668
31
0
0
LINE
  8
219
  6
CONTINUOUS
10
730.710626
20
-312.666771
30
0
11
158.289374
21
-312.6668
31
0
0
LINE
  8
204
  6
CONTINUOUS
10
730.710626
20
-312.666771
30
0
11
730.710626
21
-306.0746
31
0
0
LINE
  8
219
  6
CONTINUOUS
10
730.710626
20
-306.074596
30
0
11
158.289374
21
-306.0746
31
0
0
LINE
  8
204
  6
CONTINUOUS
10
730.710626
20
-306.074596
30
0
11
730.710626
21
-297.6291
31
0
0
LINE
  8
219
  6
CONTINUOUS
10
730.710626
20
-297.629122
30
0
11
158.289374
21
-297.6291
31
0
0
LINE
  8
204
  6
CONTINUOUS
10
730.710626
20
-297.629122
30
0
11
730.710626
21
-287.1669
31
0
0
LINE
  8
219
  6
CONTINUOUS
10
730.710626
20
-287.166881
30
0
11
158.289374
21
-287.1669
31
0
0
LINE
  8
204
  6
CONTINUOUS
10
730.710626
20
-287.166881
30
0
11
730.710626
21
-274.4573
31
0
0
LINE
  8
219
  6
CONTINUOUS
10
730.710626
20
-274.457333
30
0
11
158.289374
21
-274.4573
31
0
0
LINE
  8
204
  6
CONTINUOUS
10
730.710626
20
-274.457333
30
0
11
730.710626
21
-259.1701
31
0
0
LINE
  8
219
  6
CONTINUOUS
10
730.710626
20
-259.170070
30
0
11
158.289374
21
-259.1701
31
0
0
LINE
  8
204
  6
CONTINUOUS
10
730.710626
20
-259.170070
30
0
11
730.710626
21
-228.0419
31
0
0
LINE
  8
219
  6
CONTINUOUS
10
730.710626
20
-228.041938
30
0
11
720.900000
21
-228.0419
31
0
0
LINE
  8
219
  6
CONTINUOUS
10
668.900000
20
-228.041938
30
0
11
220.100000
21
-228.0419
31
0
0
LINE
  8
219
  6
CONTINUOUS
10
168.100000
20
-228.041937
30
0
11
158.289374
21
-228.0419
31
0
0
LINE
  8
204
  6
CONTINUOUS
10
730.710626
20
-228.041938
30
0
11
730.710626
21
-191.9300
31
0
0
LINE
  8
219
  6
CONTINUOUS
10
730.710626
20
-191.930001
30
0
11
158.289374
21
-191.9300
31
0
0
LINE
  8
219
  6
CONTINUOUS
10
158.289374
20
-169.350000
30
0
11
730.710626
21
-169.3500
31
0
0
LINE
  8
204
  6
CONTINUOUS
10
730.710626
20
-169.350001
30
0
11
730.710626
21
-146.7700
31
0
0
LINE
  8
219
  6
CONTINUOUS
10
730.710626
20
-146.770001
30
0
11
158.289374
21
-146.7700
31
0
0
LINE
  8
204
  6
CONTINUOUS
10
730.710626
20
-146.770001
30
0
11
730.710626
21
-124.1900
31
0
0
LINE
  8
219
  6
CONTINUOUS
10
730.710626
20
-124.190001
30
0
11
158.289374
21
-124.1900
31
0
0
LINE
  8
204
  6
CONTINUOUS
10
730.710626
20
-124.190001
30
0
11
730.710626
21
-101.6100
31
0
0
LINE
  8
219
  6
CONTINUOUS
10
730.710626
20
-101.610001
30
0
11
158.289374
21
-101.6100
31
0
0
LINE
  8
204
  6
CONTINUOUS
10
730.710626
20
-101.610001
30
0
11
730.710626
21
-79.0300
31
0
0
LINE
  8
219
  6
CONTINUOUS
10
730.710626
20
-79.030001
30
0
11
158.289374
21
-79.0300
31
0
0
LINE
  8
204
  6
CONTINUOUS
10
730.710626
20
-79.030001
30
0
11
730.710626
21
-56.4500
31
0
0
LINE
  8
219
  6
CONTINUOUS
10
730.710626
20
-56.450001
30
0
11
158.289374
21
-56.4500
31
0
0
LINE
  8
204
  6
CONTINUOUS
10
730.710626
20
-56.450001
30
0
11
730.710626
21
-33.8700
31
0
0
LINE
  8
219
  6
CONTINUOUS
10
730.710626
20
-33.870001
30
0
11
158.289374
21
-33.8700
31
0
0
LINE
  8
204
  6
CONTINUOUS
10
730.710626
20
-33.870001
30
0
11
730.710626
21
-11.2900
31
0
0
LINE
  8
219
  6
CONTINUOUS
10
730.710626
20
-11.290001
30
0
11
158.289374
21
-11.2900
31
0
0
LINE
  8
204
  6
CONTINUOUS
10
730.710626
20
-11.290001
30
0
11
730.710626
21
 11.2900
31
0
0
LINE
  8
219
  6
CONTINUOUS
10
158.289374
20
11.290000
30
0
11
730.710626
21
 11.2900
31
0
0
LINE
  8
204
  6
CONTINUOUS
10
730.710626
20
11.289999
30
0
11
730.710626
21
 33.8700
31
0
0
LINE
  8
219
  6
CONTINUOUS
10
730.710626
20
33.869999
30
0
11
158.289374
21
 33.8700
31
0
0
LINE
  8
204
  6
CONTINUOUS
10
730.710626
20
33.869999
30
0
11
730.710626
21
 56.4500
31
0
0
LINE
  8
219
  6
CONTINUOUS
10
730.710626
20
56.449999
30
0
11
158.289374
21
 56.4500
31
0
0
LINE
  8
204
  6
CONTINUOUS
10
730.710626
20
56.449999
30
0
11
730.710626
21
 79.0300
31
0
0
LINE
  8
219
  6
CONTINUOUS
10
730.710626
20
79.029999
30
0
11
158.289374
21
 79.0300
31
0
0
LINE
  8
204
  6
CONTINUOUS
10
730.710626
20
79.029999
30
0
11
730.710626
21
 101.6100
31
0
0
LINE
  8
219
  6
CONTINUOUS
10
730.710626
20
101.609999
30
0
11
158.289374
21
 101.6100
31
0
0
LINE
  8
204
  6
CONTINUOUS
10
730.710626
20
101.609999
30
0
11
730.710626
21
 124.1900
31
0
0
LINE
  8
219
  6
CONTINUOUS
10
730.710626
20
124.189999
30
0
11
158.289374
21
 124.1900
31
0
0
LINE
  8
204
  6
CONTINUOUS
10
730.710626
20
124.189999
30
0
11
730.710626
21
 146.7700
31
0
0
LINE
  8
219
  6
CONTINUOUS
10
730.710626
20
146.769999
30
0
11
158.289374
21
 146.7700
31
0
0
LINE
  8
204
  6
CONTINUOUS
10
730.710626
20
146.769999
30
0
11
730.710626
21
 169.3500
31
0
0
LINE
  8
219
  6
CONTINUOUS
10
730.710626
20
169.349999
30
0
11
158.289374
21
 169.3500
31
0
0
LINE
  8
204
  6
CONTINUOUS
10
730.710626
20
169.349999
30
0
11
730.710626
21
 191.9300
31
0
0
LINE
  8
219
  6
CONTINUOUS
10
730.710626
20
191.929999
30
0
11
158.289374
21
 191.9300
31
0
0
LINE
  8
204
  6
CONTINUOUS
10
730.710626
20
191.929999
30
0
11
730.710626
21
 228.0419
31
0
0
LINE
  8
219
  6
CONTINUOUS
10
730.710626
20
228.041936
30
0
11
720.900000
21
 228.0419
31
0
0
LINE
  8
219
  6
CONTINUOUS
10
668.900000
20
228.041936
30
0
11
220.100000
21
 228.0419
31
0
0
LINE
  8
219
  6
CONTINUOUS
10
168.100000
20
228.041937
30
0
11
158.289374
21
 228.0419
31
0
0
LINE
  8
204
  6
CONTINUOUS
10
730.710626
20
228.041936
30
0
11
730.710626
21
 259.1701
31
0
0
LINE
  8
219
  6
CONTINUOUS
10
730.710626
20
259.170069
30
0
11
158.289374
21
 259.1701
31
0
0
LINE
  8
219
  6
CONTINUOUS
10
730.710626
20
274.457332
30
0
11
158.289374
21
 274.4573
31
0
0
LINE
  8
204
  6
CONTINUOUS
10
730.710626
20
259.170069
30
0
11
730.710626
21
 274.4573
31
0
0
LINE
  8
219
  6
CONTINUOUS
10
730.710626
20
287.166880
30
0
11
158.289374
21
 287.1669
31
0
0
LINE
  8
204
  6
CONTINUOUS
10
730.710626
20
274.457332
30
0
11
730.710626
21
 287.1669
31
0
0
LINE
  8
219
  6
CONTINUOUS
10
730.710626
20
297.629121
30
0
11
158.289374
21
 297.6291
31
0
0
LINE
  8
204
  6
CONTINUOUS
10
730.710626
20
287.166880
30
0
11
730.710626
21
 297.6291
31
0
0
LINE
  8
219
  6
CONTINUOUS
10
730.710626
20
306.074595
30
0
11
158.289374
21
 306.0746
31
0
0
LINE
  8
204
  6
CONTINUOUS
10
730.710626
20
297.629121
30
0
11
730.710626
21
 306.0746
31
0
0
LINE
  8
219
  6
CONTINUOUS
10
730.710626
20
312.666769
30
0
11
158.289374
21
 312.6668
31
0
0
LINE
  8
204
  6
CONTINUOUS
10
730.710626
20
306.074595
30
0
11
730.710626
21
 312.6668
31
0
0
LINE
  8
204
  6
CONTINUOUS
10
730.710626
20
-191.930001
30
0
11
730.710626
21
-169.3500
31
0
0
LINE
  8
219
  6
CONTINUOUS
10
490.500000
20
320.716499
30
0
11
730.710626
21
 320.7165
31
0
0
LINE
  8
204
  6
CONTINUOUS
10
730.710626
20
320.716499
30
0
11
730.710626
21
 322.3023
31
0
0
LINE
  8
219
  6
CONTINUOUS
10
730.710626
20
322.302320
30
0
11
490.500000
21
 322.3023
31
0
0
LINE
  8
204
  6
CONTINUOUS
10
730.710493
20
322.499999
30
0
11
490.500050
21
 322.5000
31
0
0
LINE
  8
204
  6
CONTINUOUS
10
730.710626
20
312.666769
30
0
11
730.710626
21
 317.5211
31
0
0
LINE
  8
219
  6
CONTINUOUS
10
730.710626
20
317.521097
30
0
11
266.549789
21
 317.5211
31
0
0
LINE
  8
204
  6
CONTINUOUS
10
730.710626
20
317.521097
30
0
11
730.710626
21
 320.7165
31
0
0
LINE
  8
219
  6
CONTINUOUS
10
422.500000
20
320.716499
30
0
11
282.817128
21
 320.7165
31
0
0
LINE
  8
219
  6
CONTINUOUS
10
422.500000
20
322.302320
30
0
11
289.683875
21
 322.3023
31
0
0
LINE
  8
204
  6
CONTINUOUS
10
422.499993
20
322.500000
30
0
11
290.500177
21
 322.5000
31
0
0
LINE
  8
204
  6
CONTINUOUS
10
40.473227
20
-121.536977
30
0
11
45.630797
21
-121.5370
31
0
0
POLYLINE
  8
204
  6
CONTINUOUS
 10
0.0
 20
0.0
 30
0.0
 66
   1
 70
   8
  0
VERTEX
  8
204
10
87.823125
20
-124.187100
30
0.0
 70
  32
  0
VERTEX
  8
204
10
87.592236
20
-121.536870
30
0.0
 70
  32
  0
SEQEND
0
LINE
  8
204
  6
CONTINUOUS
10
45.630797
20
-121.536977
30
0
11
87.592264
21
-121.5370
31
0
0
POLYLINE
  8
204
  6
CONTINUOUS
 10
0.0
 20
0.0
 30
0.0
 66
   1
 70
   8
  0
VERTEX
  8
204
10
87.592236
20
-126.836998
30
0.0
 70
  32
  0
VERTEX
  8
204
10
87.823125
20
-124.187100
30
0.0
 70
  32
  0
SEQEND
0
LINE
  8
204
  6
CONTINUOUS
10
45.630797
20
-126.836977
30
0
11
87.592264
21
-126.8370
31
0
0
LINE
  8
204
  6
CONTINUOUS
10
40.473227
20
-126.836977
30
0
11
45.630797
21
-126.8370
31
0
0
POLYLINE
  8
219
  6
CONTINUOUS
 10
0.0
 20
0.0
 30
0.0
 66
   1
 70
   8
  0
VERTEX
  8
219
10
45.630705
20
-126.836998
30
0.0
 70
  32
  0
VERTEX
  8
219
10
45.399816
20
-124.187100
30
0.0
 70
  32
  0
SEQEND
0
POLYLINE
  8
204
  6
CONTINUOUS
 10
0.0
 20
0.0
 30
0.0
 66
   1
 70
   8
  0
VERTEX
  8
204
10
87.361347
20
-124.187100
30
0.0
 70
  32
  0
VERTEX
  8
204
10
87.592236
20
-126.836998
30
0.0
 70
  32
  0
SEQEND
0
LINE
  8
219
  6
CONTINUOUS
10
87.361301
20
-124.186977
30
0
11
45.399834
21
-124.1870
31
0
0
LINE
  8
219
  6
CONTINUOUS
10
45.399834
20
-124.186977
30
0
11
37.823227
21
-124.1870
31
0
0
POLYLINE
  8
204
  6
CONTINUOUS
 10
0.0
 20
0.0
 30
0.0
 66
   1
 70
   8
  0
VERTEX
  8
204
10
87.592236
20
-121.536870
30
0.0
 70
  32
  0
VERTEX
  8
204
10
87.361347
20
-124.187100
30
0.0
 70
  32
  0
SEQEND
0
POLYLINE
  8
219
  6
CONTINUOUS
 10
0.0
 20
0.0
 30
0.0
 66
   1
 70
   8
  0
VERTEX
  8
219
10
45.399816
20
-124.187100
30
0.0
 70
  32
  0
VERTEX
  8
219
10
45.630705
20
-121.536870
30
0.0
 70
  32
  0
SEQEND
0
LINE
  8
204
  6
CONTINUOUS
10
861.499974
20
311.999963
30
0
11
872.500125
21
 308.6927
31
0
0
LINE
  8
204
  6
CONTINUOUS
10
872.500000
20
-308.692810
30
0
11
872.500000
21
 308.6928
31
0
0
LINE
  8
204
  6
CONTINUOUS
10
861.499974
20
-312.000108
30
0
11
872.500125
21
-308.6928
31
0
0
LINE
  8
204
  6
CONTINUOUS
10
861.500000
20
311.999999
30
0
11
861.500000
21
-312.0001
31
0
0
LINE
  8
204
  6
CONTINUOUS
10
872.500000
20
308.692765
30
0
11
922.500000
21
 308.6928
31
0
0
LINE
  8
204
  6
CONTINUOUS
10
922.500000
20
-308.692810
30
0
11
922.500000
21
 308.6928
31
0
0
LINE
  8
204
  6
CONTINUOUS
10
872.500000
20
-308.692766
30
0
11
922.500000
21
-308.6928
31
0
0
LINE
  8
204
  6
CONTINUOUS
10
922.499844
20
308.692665
30
0
11
1017.499909
21
 264.3936
31
0
0
LINE
  8
204
  6
CONTINUOUS
10
922.499844
20
-308.692810
30
0
11
1017.499909
21
-264.3935
31
0
0
LINE
  8
204
  6
CONTINUOUS
10
747.500162
20
294.104091
30
0
11
730.710493
21
 322.5001
31
0
0
LINE
  8
204
  6
CONTINUOUS
10
747.500162
20
-294.104236
30
0
11
730.710493
21
-322.4999
31
0
0
LINE
  8
204
  6
CONTINUOUS
10
848.647200
20
-122.069001
30
0
11
843.489630
21
-122.0690
31
0
0
POLYLINE
  8
204
  6
CONTINUOUS
 10
0.0
 20
0.0
 30
0.0
 66
   1
 70
   8
  0
VERTEX
  8
204
10
801.297236
20
-119.418949
30
0.0
 70
  32
  0
VERTEX
  8
204
10
801.528124
20
-122.068846
30
0.0
 70
  32
  0
SEQEND
0
LINE
  8
204
  6
CONTINUOUS
10
843.489630
20
-122.069001
30
0
11
801.528163
21
-122.0690
31
0
0
POLYLINE
  8
204
  6
CONTINUOUS
 10
0.0
 20
0.0
 30
0.0
 66
   1
 70
   8
  0
VERTEX
  8
204
10
801.528124
20
-116.769052
30
0.0
 70
  32
  0
VERTEX
  8
204
10
801.297236
20
-119.418949
30
0.0
 70
  32
  0
SEQEND
0
LINE
  8
204
  6
CONTINUOUS
10
843.489630
20
-116.769001
30
0
11
801.528163
21
-116.7690
31
0
0
LINE
  8
204
  6
CONTINUOUS
10
848.647200
20
-116.769001
30
0
11
843.489630
21
-116.7690
31
0
0
POLYLINE
  8
219
  6
CONTINUOUS
 10
0.0
 20
0.0
 30
0.0
 66
   1
 70
   8
  0
VERTEX
  8
219
10
843.489655
20
-116.769052
30
0.0
 70
  32
  0
VERTEX
  8
219
10
843.720544
20
-119.418949
30
0.0
 70
  32
  0
SEQEND
0
POLYLINE
  8
204
  6
CONTINUOUS
 10
0.0
 20
0.0
 30
0.0
 66
   1
 70
   8
  0
VERTEX
  8
204
10
801.759013
20
-119.418949
30
0.0
 70
  32
  0
VERTEX
  8
204
10
801.528124
20
-116.769052
30
0.0
 70
  32
  0
SEQEND
0
LINE
  8
219
  6
CONTINUOUS
10
801.759125
20
-119.419001
30
0
11
843.720593
21
-119.4190
31
0
0
LINE
  8
219
  6
CONTINUOUS
10
843.720593
20
-119.419001
30
0
11
851.297200
21
-119.4190
31
0
0
POLYLINE
  8
204
  6
CONTINUOUS
 10
0.0
 20
0.0
 30
0.0
 66
   1
 70
   8
  0
VERTEX
  8
204
10
801.528124
20
-122.068846
30
0.0
 70
  32
  0
VERTEX
  8
204
10
801.759013
20
-119.418949
30
0.0
 70
  32
  0
SEQEND
0
POLYLINE
  8
219
  6
CONTINUOUS
 10
0.0
 20
0.0
 30
0.0
 66
   1
 70
   8
  0
VERTEX
  8
219
10
843.720544
20
-119.418949
30
0.0
 70
  32
  0
VERTEX
  8
219
10
843.489655
20
-122.068846
30
0.0
 70
  32
  0
SEQEND
0
LINE
  8
204
  6
CONTINUOUS
10
747.500000
20
311.999999
30
0
11
861.500000
21
 312.0000
31
0
0
LINE
  8
204
  6
CONTINUOUS
10
747.500000
20
-312.000001
30
0
11
861.500000
21
-312.0000
31
0
0
LINE
  8
204
  6
CONTINUOUS
10
1153.000000
20
-228.500001
30
0
11
1141.500000
21
-228.5000
31
0
0
LINE
  8
204
  6
CONTINUOUS
10
1153.000000
20
-241.500001
30
0
11
1141.500000
21
-241.5000
31
0
0
LINE
  8
204
  6
CONTINUOUS
10
1153.000000
20
6.499999
30
0
11
1141.500000
21
 6.5000
31
0
0
LINE
  8
204
  6
CONTINUOUS
10
1141.500000
20
-6.500001
30
0
11
1153.000000
21
-6.5000
31
0
0
LINE
  8
204
  6
CONTINUOUS
10
1141.500000
20
228.499999
30
0
11
1153.000000
21
 228.5000
31
0
0
LINE
  8
204
  6
CONTINUOUS
10
1153.000000
20
241.499999
30
0
11
1141.500000
21
 241.5000
31
0
0
ARC
  8
204
  6
CONTINUOUS
10
1134.500000
20
-249.000001
30
0
40
7.000000
50
278.000000
51
360.000000
0
LINE
  8
219
  6
CONTINUOUS
10
1135.474212
20
255.931930
30
0
11
1135.474211
21
-255.9319
31
0
0
ARC
  8
204
  6
CONTINUOUS
10
1134.500000
20
248.999999
30
0
40
7.000000
50
360.000000
51
442.000000
0
LINE
  8
204
  6
CONTINUOUS
10
1017.500000
20
-308.000001
30
0
11
1028.500000
21
-308.0000
31
0
0
LINE
  8
219
  6
CONTINUOUS
10
1028.500000
20
-308.000001
30
0
11
1028.500000
21
 308.0000
31
0
0
LINE
  8
204
  6
CONTINUOUS
10
1028.500000
20
307.999999
30
0
11
1017.500000
21
 308.0000
31
0
0
ARC
  8
204
  6
CONTINUOUS
10
1028.500000
20
-301.000001
30
0
40
7.000000
50
270.000000
51
329.993378
0
LINE
  8
219
  6
CONTINUOUS
10
1034.561773
20
-304.500702
30
0
11
1034.561774
21
 304.5007
31
0
0
ARC
  8
204
  6
CONTINUOUS
10
1028.500000
20
300.999999
30
0
40
7.000000
50
30.006622
51
90.000000
0
ARC
  8
204
  6
CONTINUOUS
10
1043.221449
20
-309.501702
30
0
40
10.000000
50
115.000000
51
149.993378
0
LINE
  8
219
  6
CONTINUOUS
10
1038.995266
20
-300.438625
30
0
11
1038.995267
21
 300.4386
31
0
0
ARC
  8
204
  6
CONTINUOUS
10
1043.221450
20
309.501701
30
0
40
10.000000
50
210.006622
51
245.000000
0
LINE
  8
204
  6
CONTINUOUS
10
1038.995183
20
-300.438705
30
0
11
1132.639858
21
-256.7715
31
0
0
LINE
  8
219
  6
CONTINUOUS
10
1132.639760
20
-256.771480
30
0
11
1132.639760
21
 256.7713
31
0
0
LINE
  8
204
  6
CONTINUOUS
10
1132.639858
20
256.771314
30
0
11
1038.995183
21
 300.4386
31
0
0
ARC
  8
204
  6
CONTINUOUS
10
1136.865942
20
-265.834558
30
0
40
10.000000
50
98.000000
51
115.000000
0
ARC
  8
204
  6
CONTINUOUS
10
1136.865943
20
265.834556
30
0
40
10.000000
50
245.000000
51
262.000000
0
LINE
  8
206
  6
CENTER
10
-856.892595
20
-335.000000
30
0
11
-856.892595
21
 335.0000
31
0
0
LINE
  8
206
  6
CENTER
10
-1191.892595
20
-0.000000
30
0
11
-521.892595
21
-0.0000
31
0
0
LINE
  8
204
  6
CONTINUOUS
10
-646.392594
20
460.000000
30
0
11
-704.375349
21
 460.0000
31
0
0
LINE
  8
204
  6
CONTINUOUS
10
-1027.409838
20
460.000000
30
0
11
-1079.392594
21
 460.0000
31
0
0
LINE
  8
204
  6
CONTINUOUS
10
-646.392594
20
460.000000
30
0
11
-720.061286
21
 539.0000
31
0
0
LINE
  8
204
  6
CONTINUOUS
10
-646.392594
20
460.000000
30
0
11
-646.392594
21
 410.0000
31
0
0
LINE
  8
204
  6
CONTINUOUS
10
-868.300272
20
543.000000
30
0
11
-864.621084
21
 543.0000
31
0
0
LINE
  8
204
  6
CONTINUOUS
10
-864.621084
20
543.000000
30
0
11
-852.585828
21
 543.0000
31
0
0
LINE
  8
204
  6
CONTINUOUS
10
-852.585828
20
543.000000
30
0
11
-841.840958
21
 543.0000
31
0
0
LINE
  8
204
  6
CONTINUOUS
10
-880.751902
20
543.000000
30
0
11
-895.944272
21
 543.0000
31
0
0
LINE
  8
204
  6
CONTINUOUS
10
-880.751902
20
543.000000
30
0
11
-868.300272
21
 543.0000
31
0
0
LINE
  8
204
  6
CONTINUOUS
10
-839.243328
20
539.000000
30
0
11
-841.840958
21
 543.0000
31
0
0
LINE
  8
204
  6
CONTINUOUS
10
-895.944272
20
543.000000
30
0
11
-898.541902
21
 539.0000
31
0
0
LINE
  8
204
  6
CONTINUOUS
10
-1011.723902
20
539.000000
30
0
11
-720.061286
21
 539.0000
31
0
0
LINE
  8
204
  6
CONTINUOUS
10
-998.892595
20
343.000000
30
0
11
-881.892595
21
 343.0000
31
0
0
LINE
  8
204
  6
CONTINUOUS
10
-831.892564
20
343.000000
30
0
11
-714.892610
21
 343.0000
31
0
0
LINE
  8
204
  6
CONTINUOUS
10
-657.892595
20
410.000000
30
0
11
-657.892595
21
 356.0000
31
0
0
LINE
  8
204
  6
CONTINUOUS
10
-1097.392594
20
474.000000
30
0
11
-1097.392594
21
 349.0000
31
0
0
LINE
  8
204
  6
CONTINUOUS
10
-1097.392594
20
349.000000
30
0
11
-1079.392594
21
 349.0000
31
0
0
LINE
  8
204
  6
CONTINUOUS
10
-1079.392594
20
474.000000
30
0
11
-1097.392594
21
 474.0000
31
0
0
LINE
  8
204
  6
CONTINUOUS
10
-1079.392594
20
466.434212
30
0
11
-1011.723902
21
 539.0000
31
0
0
LINE
  8
204
  6
CONTINUOUS
10
-691.892595
20
356.000000
30
0
11
-657.892595
21
 356.0000
31
0
0
LINE
  8
204
  6
CONTINUOUS
10
-1039.892595
20
356.000000
30
0
11
-866.892563
21
 356.0000
31
0
0
LINE
  8
204
  6
CONTINUOUS
10
-846.892626
20
356.000000
30
0
11
-691.892595
21
 356.0000
31
0
0
LINE
  8
204
  6
CONTINUOUS
10
-1045.392593
20
356.000000
30
0
11
-1039.892595
21
 356.0000
31
0
0
LINE
  8
204
  6
CONTINUOUS
10
-1045.392593
20
356.000000
30
0
11
-1079.392594
21
 356.0000
31
0
0
LINE
  8
204
  6
CONTINUOUS
10
-1079.392594
20
410.000000
30
0
11
-864.034023
21
 410.0000
31
0
0
LINE
  8
204
  6
CONTINUOUS
10
-849.874256
20
410.000000
30
0
11
-646.392594
21
 410.0000
31
0
0
LINE
  8
204
  6
CONTINUOUS
10
-1079.392594
20
460.000000
30
0
11
-1079.392594
21
 410.0000
31
0
0
LINE
  8
204
  6
CONTINUOUS
10
-1079.392594
20
349.000000
30
0
11
-1079.392594
21
 410.0000
31
0
0
LINE
  8
204
  6
CONTINUOUS
10
-1079.392594
20
460.000000
30
0
11
-1079.392594
21
 474.0000
31
0
0
LINE
  8
204
  6
CONTINUOUS
10
-890.892595
20
323.000000
30
0
11
-890.892595
21
 320.7027
31
0
0
LINE
  8
204
  6
CONTINUOUS
10
-822.892595
20
323.000000
30
0
11
-822.892595
21
 320.7027
31
0
0
ARC
  8
204
  6
CONTINUOUS
10
-856.892595
20
-0.000000
30
0
40
330.000000
50
201.730534
51
436.238622
0
ARC
  8
204
  6
CONTINUOUS
10
-856.892595
20
-0.000000
30
0
40
330.000000
50
103.761378
51
200.898154
0
LINE
  8
204
  6
CONTINUOUS
10
-1102.577008
20
208.914860
30
0
11
-1105.087075
21
 211.4249
31
0
0
LINE
  8
204
  6
CONTINUOUS
10
-1068.317522
20
248.194480
30
0
11
-1065.807455
21
 245.6844
31
0
0
LINE
  8
204
  6
CONTINUOUS
10
-647.977734
20
245.684413
30
0
11
-645.467667
21
 248.1945
31
0
0
LINE
  8
204
  6
CONTINUOUS
10
-608.698114
20
211.424927
30
0
11
-611.208181
21
 208.9149
31
0
0
LINE
  8
204
  6
CONTINUOUS
10
-611.208181
20
-208.914861
30
0
11
-608.698114
21
-211.4249
31
0
0
LINE
  8
204
  6
CONTINUOUS
10
-645.467667
20
-248.194481
30
0
11
-647.977734
21
-245.6844
31
0
0
LINE
  8
204
  6
CONTINUOUS
10
-1065.807455
20
-245.684414
30
0
11
-1068.317522
21
-248.1945
31
0
0
LINE
  8
204
  6
CONTINUOUS
10
-1105.087075
20
-211.424928
30
0
11
-1102.577008
21
-208.9149
31
0
0
LINE
  8
204
  6
CONTINUOUS
10
-1105.087075
20
211.424927
30
0
11
-1068.317522
21
 248.1945
31
0
0
LINE
  8
204
  6
CONTINUOUS
10
-645.467667
20
248.194480
30
0
11
-608.698114
21
 211.4249
31
0
0
LINE
  8
204
  6
CONTINUOUS
10
-608.698114
20
-211.424928
30
0
11
-645.467667
21
-248.1945
31
0
0
LINE
  8
204
  6
CONTINUOUS
10
-1068.317522
20
-248.194481
30
0
11
-1105.087075
21
-211.4249
31
0
0
ARC
  8
204
  6
CONTINUOUS
10
-856.892595
20
-0.000000
30
0
40
322.500000
50
328.323921
51
332.928589
0
ARC
  8
204
  6
CONTINUOUS
10
-856.892595
20
-0.000000
30
0
40
322.500000
50
314.999993
51
323.477980
0
ARC
  8
204
  6
CONTINUOUS
10
-856.892595
20
-0.000000
30
0
40
322.500000
50
332.928574
51
337.350973
0
ARC
  8
204
  6
CONTINUOUS
10
-856.892595
20
-0.000000
30
0
40
322.500000
50
306.522021
51
315.000007
0
ARC
  8
204
  6
CONTINUOUS
10
-856.892595
20
-0.000000
30
0
40
322.500000
50
301.676066
51
306.522033
0
ARC
  8
204
  6
CONTINUOUS
10
-856.892595
20
-0.000000
30
0
40
322.500000
50
297.071413
51
301.676077
0
ARC
  8
204
  6
CONTINUOUS
10
-856.892595
20
-0.000000
30
0
40
322.500000
50
292.649028
51
297.071424
0
ARC
  8
204
  6
CONTINUOUS
10
-856.892595
20
-0.000000
30
0
40
322.500000
50
288.365019
51
292.649040
0
ARC
  8
204
  6
CONTINUOUS
10
-856.892595
20
-0.000000
30
0
40
322.500000
50
284.185034
51
288.365032
0
ARC
  8
204
  6
CONTINUOUS
10
-856.892595
20
-0.000000
30
0
40
322.500000
50
280.080907
51
284.185047
0
ARC
  8
204
  6
CONTINUOUS
10
-856.892595
20
-0.000000
30
0
40
322.500000
50
276.028499
51
280.080920
0
ARC
  8
204
  6
CONTINUOUS
10
-856.892595
20
-0.000000
30
0
40
322.500000
50
272.006199
51
276.028513
0
ARC
  8
204
  6
CONTINUOUS
10
-856.892595
20
-0.000000
30
0
40
322.500000
50
270.000000
51
272.006213
0
ARC
  8
204
  6
CONTINUOUS
10
-856.892595
20
-0.000000
30
0
40
322.500000
50
267.993786
51
270.000000
0
ARC
  8
204
  6
CONTINUOUS
10
-856.892595
20
-0.000000
30
0
40
322.500000
50
263.971486
51
267.993801
0
ARC
  8
204
  6
CONTINUOUS
10
-856.892595
20
-0.000000
30
0
40
322.500000
50
259.919079
51
263.971501
0
ARC
  8
204
  6
CONTINUOUS
10
-856.892595
20
-0.000000
30
0
40
322.500000
50
255.814952
51
259.919094
0
ARC
  8
204
  6
CONTINUOUS
10
-856.892595
20
-0.000000
30
0
40
322.500000
50
251.634967
51
255.814967
0
ARC
  8
204
  6
CONTINUOUS
10
-856.892595
20
-0.000000
30
0
40
322.500000
50
247.350958
51
251.634982
0
ARC
  8
204
  6
CONTINUOUS
10
-856.892595
20
-0.000000
30
0
40
322.500000
50
242.928574
51
247.350974
0
ARC
  8
204
  6
CONTINUOUS
10
-856.892595
20
-0.000000
30
0
40
322.500000
50
238.323921
51
242.928589
0
ARC
  8
204
  6
CONTINUOUS
10
-856.892595
20
-0.000000
30
0
40
322.500000
50
233.477965
51
238.323936
0
ARC
  8
204
  6
CONTINUOUS
10
-856.892595
20
-0.000000
30
0
40
322.500000
50
224.999992
51
233.477980
0
ARC
  8
204
  6
CONTINUOUS
10
-856.892595
20
-0.000000
30
0
40
322.500000
50
216.522020
51
225.000008
0
ARC
  8
204
  6
CONTINUOUS
10
-856.892595
20
-0.000000
30
0
40
322.500000
50
207.071411
51
211.676079
0
ARC
  8
204
  6
CONTINUOUS
10
-856.892595
20
-0.000000
30
0
40
322.500000
50
202.649027
51
207.071426
0
ARC
  8
204
  6
CONTINUOUS
10
-856.892595
20
-0.000000
30
0
40
322.500000
50
202.241328
51
202.649041
0
ARC
  8
204
  6
CONTINUOUS
10
-856.892595
20
-0.000000
30
0
40
322.500000
50
198.365019
51
201.227648
0
ARC
  8
204
  6
CONTINUOUS
10
-856.892595
20
-0.000000
30
0
40
322.500000
50
194.185034
51
198.365032
0
ARC
  8
204
  6
CONTINUOUS
10
-856.892595
20
-0.000000
30
0
40
322.500000
50
190.080907
51
194.185047
0
ARC
  8
204
  6
CONTINUOUS
10
-856.892595
20
-0.000000
30
0
40
322.500000
50
186.028500
51
190.080920
0
ARC
  8
204
  6
CONTINUOUS
10
-856.892595
20
-0.000000
30
0
40
322.500000
50
182.006200
51
186.028513
0
ARC
  8
204
  6
CONTINUOUS
10
-856.892595
20
-0.000000
30
0
40
322.500000
50
180.000000
51
182.006212
0
ARC
  8
204
  6
CONTINUOUS
10
-856.892595
20
-0.000000
30
0
40
322.500000
50
177.993788
51
180.000000
0
ARC
  8
204
  6
CONTINUOUS
10
-856.892595
20
-0.000000
30
0
40
322.500000
50
173.971487
51
177.993800
0
ARC
  8
204
  6
CONTINUOUS
10
-856.892595
20
-0.000000
30
0
40
322.500000
50
169.919080
51
173.971500
0
ARC
  8
204
  6
CONTINUOUS
10
-856.892595
20
-0.000000
30
0
40
322.500000
50
165.814953
51
169.919093
0
ARC
  8
204
  6
CONTINUOUS
10
-856.892595
20
-0.000000
30
0
40
322.500000
50
161.634968
51
165.814966
0
ARC
  8
204
  6
CONTINUOUS
10
-856.892595
20
-0.000000
30
0
40
322.500000
50
157.350959
51
161.634981
0
ARC
  8
204
  6
CONTINUOUS
10
-856.892595
20
-0.000000
30
0
40
322.500000
50
152.928574
51
157.350973
0
ARC
  8
204
  6
CONTINUOUS
10
-856.892595
20
-0.000000
30
0
40
322.500000
50
148.323921
51
152.928589
0
ARC
  8
204
  6
CONTINUOUS
10
-856.892595
20
-0.000000
30
0
40
322.500000
50
143.477965
51
148.323936
0
ARC
  8
204
  6
CONTINUOUS
10
-856.892595
20
-0.000000
30
0
40
322.500000
50
134.999992
51
143.477980
0
ARC
  8
204
  6
CONTINUOUS
10
-856.892595
20
-0.000000
30
0
40
322.500000
50
126.522020
51
135.000008
0
ARC
  8
204
  6
CONTINUOUS
10
-856.892595
20
-0.000000
30
0
40
322.500000
50
121.676064
51
126.522035
0
ARC
  8
204
  6
CONTINUOUS
10
-856.892595
20
-0.000000
30
0
40
322.500000
50
117.071411
51
121.676079
0
ARC
  8
204
  6
CONTINUOUS
10
-856.892595
20
-0.000000
30
0
40
322.500000
50
112.649026
51
117.071426
0
ARC
  8
204
  6
CONTINUOUS
10
-856.892595
20
-0.000000
30
0
40
322.500000
50
108.365018
51
112.649042
0
ARC
  8
204
  6
CONTINUOUS
10
-856.892595
20
-0.000000
30
0
40
322.500000
50
104.185033
51
108.365033
0
ARC
  8
204
  6
CONTINUOUS
10
-856.892595
20
-0.000000
30
0
40
322.500000
50
71.634968
51
75.814966
0
ARC
  8
204
  6
CONTINUOUS
10
-856.892595
20
-0.000000
30
0
40
322.500000
50
67.350960
51
71.634981
0
ARC
  8
204
  6
CONTINUOUS
10
-856.892595
20
-0.000000
30
0
40
322.500000
50
62.928576
51
67.350972
0
ARC
  8
204
  6
CONTINUOUS
10
-856.892595
20
-0.000000
30
0
40
322.500000
50
58.323923
51
62.928587
0
ARC
  8
204
  6
CONTINUOUS
10
-856.892595
20
-0.000000
30
0
40
322.500000
50
53.477967
51
58.323934
0
ARC
  8
204
  6
CONTINUOUS
10
-856.892595
20
-0.000000
30
0
40
322.500000
50
36.522020
51
45.000007
0
ARC
  8
204
  6
CONTINUOUS
10
-856.892595
20
-0.000000
30
0
40
322.500000
50
31.676064
51
36.522034
0
ARC
  8
204
  6
CONTINUOUS
10
-856.892595
20
-0.000000
30
0
40
322.500000
50
27.071411
51
31.676079
0
ARC
  8
204
  6
CONTINUOUS
10
-856.892595
20
-0.000000
30
0
40
322.500000
50
22.649027
51
27.071426
0
ARC
  8
204
  6
CONTINUOUS
10
-856.892595
20
-0.000000
30
0
40
322.500000
50
18.365018
51
22.649041
0
ARC
  8
204
  6
CONTINUOUS
10
-856.892595
20
-0.000000
30
0
40
322.500000
50
14.185033
51
18.365033
0
ARC
  8
204
  6
CONTINUOUS
10
-856.892595
20
-0.000000
30
0
40
322.500000
50
10.080906
51
14.185048
0
ARC
  8
204
  6
CONTINUOUS
10
-856.892595
20
-0.000000
30
0
40
322.500000
50
6.028499
51
10.080921
0
ARC
  8
204
  6
CONTINUOUS
10
-856.892595
20
-0.000000
30
0
40
322.500000
50
2.006199
51
6.028514
0
ARC
  8
204
  6
CONTINUOUS
10
-856.892595
20
-0.000000
30
0
40
322.500000
50
357.993786
51
362.006214
0
ARC
  8
204
  6
CONTINUOUS
10
-856.892595
20
-0.000000
30
0
40
322.500000
50
353.971486
51
357.993801
0
ARC
  8
204
  6
CONTINUOUS
10
-856.892595
20
-0.000000
30
0
40
322.500000
50
349.919079
51
353.971501
0
ARC
  8
204
  6
CONTINUOUS
10
-856.892595
20
-0.000000
30
0
40
322.500000
50
345.814952
51
349.919094
0
ARC
  8
204
  6
CONTINUOUS
10
-856.892595
20
-0.000000
30
0
40
322.500000
50
341.634967
51
345.814967
0
ARC
  8
204
  6
CONTINUOUS
10
-856.892595
20
-0.000000
30
0
40
322.500000
50
337.350959
51
341.634982
0
ARC
  8
204
  6
CONTINUOUS
10
-856.892595
20
-0.000000
30
0
40
322.500000
50
323.477966
51
328.323936
0
ARC
  8
204
  6
CONTINUOUS
10
-856.892595
20
-0.000000
30
0
40
322.500000
50
211.676064
51
216.522035
0
ARC
  8
204
  6
CONTINUOUS
10
-856.892595
20
-0.000000
30
0
40
322.500000
50
44.999993
51
53.477979
0
ARC
  8
204
  6
CONTINUOUS
10
-856.892595
20
-0.000000
30
0
40
322.500000
50
92.006199
51
96.028514
0
ARC
  8
204
  6
CONTINUOUS
10
-856.892595
20
-0.000000
30
0
40
322.500000
50
87.993787
51
92.006214
0
ARC
  8
204
  6
CONTINUOUS
10
-856.892595
20
-0.000000
30
0
40
322.500000
50
83.971487
51
87.993801
0
POLYLINE
  8
204
  6
CONTINUOUS
 10
0.0
 20
0.0
 30
0.0
 66
   1
 70
   8
  0
VERTEX
  8
204
10
-913.342652
20
317.521010
30
0.0
 70
  32
  0
VERTEX
  8
204
10
-918.695930
20
316.522665
30
0.0
 70
  32
  0
VERTEX
  8
204
10
-932.515718
20
313.508203
30
0.0
 70
  32
  0
VERTEX
  8
204
10
-934.573404
20
313.004699
30
0.0
 70
  32
  0
VERTEX
  8
204
10
-935.392595
20
312.800256
30
0.0
 70
  32
  0
VERTEX
  8
204
10
-935.392511
20
312.800251
30
0.0
 70
  32
  0
SEQEND
0
ARC
  8
204
  6
CONTINUOUS
10
-856.892595
20
-0.000000
30
0
40
322.500000
50
100.080906
51
104.185048
0
ARC
  8
204
  6
CONTINUOUS
10
-856.892595
20
-0.000000
30
0
40
322.500000
50
75.814959
51
79.919093
0
ARC
  8
204
  6
CONTINUOUS
10
-856.892595
20
-0.000000
30
0
40
322.500000
50
96.028499
51
100.080921
0
ARC
  8
204
  6
CONTINUOUS
10
-856.892595
20
-0.000000
30
0
40
322.500000
50
79.919080
51
83.971501
0
ARC
  8
204
  6
CONTINUOUS
10
-856.892595
20
-0.000001
30
0
40
308.692765
50
0.000000
51
359.900000
0
ARC
  8
204
  6
CONTINUOUS
10
-856.892595
20
-0.000001
30
0
40
312.000000
50
0.000000
51
359.900000
0
ARC
  8
204
  6
CONTINUOUS
10
-621.892595
20
-0.000001
30
0
40
6.500000
50
0.000000
51
359.900000
0
ARC
  8
204
  6
CONTINUOUS
10
-856.892595
20
-235.000001
30
0
40
6.500000
50
0.000000
51
359.900000
0
ARC
  8
204
  6
CONTINUOUS
10
-1091.892595
20
-0.000001
30
0
40
6.500000
50
0.000000
51
359.900000
0
ARC
  8
204
  6
CONTINUOUS
10
-856.892595
20
234.999999
30
0
40
6.500000
50
0.000000
51
359.900000
0
ARC
  8
204
  6
CONTINUOUS
10
-856.892595
20
-0.000001
30
0
40
308.000000
50
0.000000
51
359.900000
0
LINE
  8
204
  6
CONTINUOUS
10
-935.392595
20
343.000000
30
0
11
-935.392595
21
 312.8003
31
0
0
LINE
  8
204
  6
CONTINUOUS
10
-778.392595
20
312.800031
30
0
11
-778.392595
21
 343.0000
31
0
0
LINE
  8
204
  6
CONTINUOUS
10
-720.061286
20
539.000000
30
0
11
-704.375349
21
 460.0000
31
0
0
LINE
  8
204
  6
CONTINUOUS
10
-1027.409838
20
460.000000
30
0
11
-1011.723902
21
 539.0000
31
0
0
LINE
  8
204
  6
CONTINUOUS
10
-704.375349
20
460.000000
30
0
11
-1027.409838
21
 460.0000
31
0
0
LINE
  8
204
  6
CONTINUOUS
10
-864.621084
20
543.000000
30
0
11
-864.210912
21
 539.0000
31
0
0
LINE
  8
219
  6
CONTINUOUS
10
-880.751902
20
539.000000
30
0
11
-880.751902
21
 543.0000
31
0
0
LINE
  8
219
  6
CONTINUOUS
10
-852.585828
20
539.000000
30
0
11
-852.585828
21
 543.0000
31
0
0
LINE
  8
204
  6
CONTINUOUS
10
-1039.892595
20
410.000000
30
0
11
-1039.892595
21
 356.0000
31
0
0
LINE
  8
204
  6
CONTINUOUS
10
-691.892595
20
356.000000
30
0
11
-691.892595
21
 410.0000
31
0
0
LINE
  8
204
  6
CONTINUOUS
10
-714.892595
20
343.000000
30
0
11
-714.892595
21
 356.0000
31
0
0
LINE
  8
204
  6
CONTINUOUS
10
-998.892595
20
356.000000
30
0
11
-998.892595
21
 343.0000
31
0
0
LINE
  8
204
  6
CONTINUOUS
10
-1045.392594
20
410.000000
30
0
11
-1045.392593
21
 356.0000
31
0
0
LINE
  8
204
  6
CONTINUOUS
10
-822.892595
20
323.000000
30
0
11
-890.892595
21
 323.0000
31
0
0
ARC
  8
204
  6
CONTINUOUS
10
-856.892595
20
403.000000
30
0
40
10.000000
50
0.000000
51
90.000000
0
LINE
  8
204
  6
CONTINUOUS
10
-846.892626
20
341.542489
30
0
11
-846.899665
21
 402.6152
31
0
0
POLYLINE
  8
204
  6
CONTINUOUS
 10
0.0
 20
0.0
 30
0.0
 66
   1
 70
   8
  0
VERTEX
  8
204
10
-846.892626
20
341.542489
30
0.0
 70
  32
  0
VERTEX
  8
204
10
-846.892595
20
341.542486
30
0.0
 70
  32
  0
VERTEX
  8
204
10
-849.683477
20
333.574445
30
0.0
 70
  32
  0
VERTEX
  8
204
10
-855.367451
20
330.693017
30
0.0
 70
  32
  0
VERTEX
  8
204
10
-856.892598
20
330.582651
30
0.0
 70
  32
  0
VERTEX
  8
204
10
-860.927088
20
331.387142
30
0.0
 70
  32
  0
VERTEX
  8
204
10
-865.425768
20
335.366056
30
0.0
 70
  32
  0
VERTEX
  8
204
10
-866.891778
20
341.373954
30
0.0
 70
  32
  0
VERTEX
  8
204
10
-866.892563
20
341.544689
30
0.0
 70
  32
  0
SEQEND
0
LINE
  8
204
  6
CONTINUOUS
10
-866.885305
20
402.615429
30
0
11
-866.892563
21
 341.5447
31
0
0
ARC
  8
204
  6
CONTINUOUS
10
-856.892595
20
403.000000
30
0
40
10.000000
50
90.000000
51
180.000000
0
LINE
  8
204
  6
CONTINUOUS
10
-831.892595
20
322.900000
30
0
11
-831.892595
21
 348.0000
31
0
0
LINE
  8
204
  6
CONTINUOUS
10
-846.892595
20
348.000000
30
0
11
-831.892595
21
 348.0000
31
0
0
LINE
  8
204
  6
CONTINUOUS
10
-881.892594
20
348.000000
30
0
11
-866.892595
21
 348.0000
31
0
0
LINE
  8
204
  6
CONTINUOUS
10
-881.892595
20
322.900000
30
0
11
-881.892595
21
 348.0000
31
0
0
POLYLINE
  8
204
  6
CONTINUOUS
 10
0.0
 20
0.0
 30
0.0
 66
   1
 70
   8
  0
VERTEX
  8
204
10
-1153.863610
20
-122.068930
30
0.0
 70
  32
  0
VERTEX
  8
204
10
-1159.492097
20
-122.068930
30
0.0
 70
  32
  0
SEQEND
0
LINE
  8
204
  6
CONTINUOUS
10
-1159.492095
20
-122.069001
30
0
11
-1163.163247
21
-122.0690
31
0
0
LINE
  8
204
  6
CONTINUOUS
10
-1159.492095
20
-116.769001
30
0
11
-1163.163247
21
-116.7690
31
0
0
POLYLINE
  8
204
  6
CONTINUOUS
 10
0.0
 20
0.0
 30
0.0
 66
   1
 70
   8
  0
VERTEX
  8
204
10
-1153.863610
20
-116.769046
30
0.0
 70
  32
  0
VERTEX
  8
204
10
-1159.492097
20
-116.769046
30
0.0
 70
  32
  0
SEQEND
0
POLYLINE
  8
219
  6
CONTINUOUS
 10
0.0
 20
0.0
 30
0.0
 66
   1
 70
   8
  0
VERTEX
  8
219
10
-1159.492097
20
-116.769046
30
0.0
 70
  32
  0
VERTEX
  8
219
10
-1162.131922
20
-119.418988
30
0.0
 70
  32
  0
SEQEND
0
POLYLINE
  8
204
  6
CONTINUOUS
 10
0.0
 20
0.0
 30
0.0
 66
   1
 70
   8
  0
VERTEX
  8
204
10
-1165.803086
20
-119.418988
30
0.0
 70
  32
  0
VERTEX
  8
204
10
-1163.163261
20
-116.769046
30
0.0
 70
  32
  0
SEQEND
0
LINE
  8
219
  6
CONTINUOUS
10
-1165.803163
20
-119.419001
30
0
11
-1162.132011
21
-119.4190
31
0
0
LINE
  8
219
  6
CONTINUOUS
10
-1153.863595
20
-116.769001
30
0
11
-1153.863595
21
-119.4190
31
0
0
POLYLINE
  8
219
  6
CONTINUOUS
 10
0.0
 20
0.0
 30
0.0
 66
   1
 70
   8
  0
VERTEX
  8
219
10
-1162.131922
20
-119.418988
30
0.0
 70
  32
  0
VERTEX
  8
219
10
-1153.863610
20
-119.418988
30
0.0
 70
  32
  0
SEQEND
0
POLYLINE
  8
204
  6
CONTINUOUS
 10
0.0
 20
0.0
 30
0.0
 66
   1
 70
   8
  0
VERTEX
  8
204
10
-1163.163261
20
-122.068930
30
0.0
 70
  32
  0
VERTEX
  8
204
10
-1165.803086
20
-119.418988
30
0.0
 70
  32
  0
SEQEND
0
POLYLINE
  8
219
  6
CONTINUOUS
 10
0.0
 20
0.0
 30
0.0
 66
   1
 70
   8
  0
VERTEX
  8
219
10
-1162.131922
20
-119.418988
30
0.0
 70
  32
  0
VERTEX
  8
219
10
-1159.492097
20
-122.068930
30
0.0
 70
  32
  0
SEQEND
0
LINE
  8
219
  6
CONTINUOUS
10
-1153.863595
20
-119.419001
30
0
11
-1153.863595
21
-122.0690
31
0
0
LINE
  8
204
  6
CONTINUOUS
10
-1144.021763
20
-122.069001
30
0
11
-1153.863595
21
-122.0690
31
0
0
LINE
  8
204
  6
CONTINUOUS
10
-1146.217672
20
-116.769001
30
0
11
-1153.863595
21
-116.7690
31
0
0
LINE
  8
219
  6
CONTINUOUS
10
-1153.863595
20
-119.419001
30
0
11
-1145.133991
21
-119.4190
31
0
0
ARC
  8
219
  6
CONTINUOUS
10
-856.892595
20
-0.000001
30
0
40
249.000000
50
0.000000
51
359.900000
0
ARC
  8
219
  6
CONTINUOUS
10
-856.892595
20
-0.000001
30
0
40
255.931876
50
0.000000
51
359.900000
0
ARC
  8
219
  6
CONTINUOUS
10
-856.892595
20
-0.000001
30
0
40
304.500701
50
0.000000
51
359.900000
0
ARC
  8
219
  6
CONTINUOUS
10
-856.892595
20
-0.000001
30
0
40
300.438624
50
0.000000
51
359.900000
0
ARC
  8
219
  6
CONTINUOUS
10
-856.892595
20
-0.000001
30
0
40
256.771479
50
0.000000
51
359.900000
0
LINE
  8
206
  6
CENTER
10
1760.510445
20
-335.000000
30
0
11
1760.510445
21
 335.0000
31
0
0
LINE
  8
206
  6
CENTER
10
1425.510445
20
-0.000000
30
0
11
2095.510445
21
-0.0000
31
0
0
LINE
  8
204
  6
CONTINUOUS
10
1607.993200
20
460.000000
30
0
11
1550.010445
21
 460.0000
31
0
0
LINE
  8
204
  6
CONTINUOUS
10
1983.010445
20
460.000000
30
0
11
1931.027689
21
 460.0000
31
0
0
LINE
  8
204
  6
CONTINUOUS
10
1623.679137
20
539.000000
30
0
11
1550.010445
21
 460.0000
31
0
0
LINE
  8
204
  6
CONTINUOUS
10
1550.010445
20
460.000000
30
0
11
1550.010445
21
 410.0000
31
0
0
LINE
  8
204
  6
CONTINUOUS
10
1745.458809
20
543.000000
30
0
11
1771.918123
21
 543.0000
31
0
0
LINE
  8
204
  6
CONTINUOUS
10
1771.918123
20
543.000000
30
0
11
1799.562123
21
 543.0000
31
0
0
LINE
  8
204
  6
CONTINUOUS
10
1799.562123
20
543.000000
30
0
11
1802.159753
21
 539.0000
31
0
0
LINE
  8
204
  6
CONTINUOUS
10
1742.861179
20
539.000000
30
0
11
1745.458809
21
 543.0000
31
0
0
LINE
  8
204
  6
CONTINUOUS
10
1915.341753
20
539.000000
30
0
11
1623.679137
21
 539.0000
31
0
0
LINE
  8
204
  6
CONTINUOUS
10
1618.510445
20
343.000000
30
0
11
1902.510445
21
 343.0000
31
0
0
LINE
  8
204
  6
CONTINUOUS
10
1561.510443
20
410.000000
30
0
11
1561.510443
21
 356.0000
31
0
0
LINE
  8
204
  6
CONTINUOUS
10
2001.010445
20
349.000000
30
0
11
2001.010445
21
 474.0000
31
0
0
LINE
  8
204
  6
CONTINUOUS
10
1983.010445
20
349.000000
30
0
11
2001.010445
21
 349.0000
31
0
0
LINE
  8
204
  6
CONTINUOUS
10
2001.010445
20
474.000000
30
0
11
1983.010445
21
 474.0000
31
0
0
LINE
  8
204
  6
CONTINUOUS
10
1915.341753
20
539.000000
30
0
11
1983.010445
21
 466.4342
31
0
0
LINE
  8
204
  6
CONTINUOUS
10
1983.010445
20
356.000000
30
0
11
1949.010446
21
 356.0000
31
0
0
LINE
  8
204
  6
CONTINUOUS
10
1943.510443
20
356.000000
30
0
11
1949.010446
21
 356.0000
31
0
0
LINE
  8
204
  6
CONTINUOUS
10
1595.510443
20
356.000000
30
0
11
1943.510443
21
 356.0000
31
0
0
LINE
  8
204
  6
CONTINUOUS
10
1561.510443
20
356.000000
30
0
11
1595.510443
21
 356.0000
31
0
0
LINE
  8
204
  6
CONTINUOUS
10
1550.010445
20
410.000000
30
0
11
1983.010445
21
 410.0000
31
0
0
LINE
  8
204
  6
CONTINUOUS
10
1983.010445
20
410.000000
30
0
11
1983.010445
21
 460.0000
31
0
0
LINE
  8
204
  6
CONTINUOUS
10
1983.010445
20
410.000000
30
0
11
1983.010445
21
 349.0000
31
0
0
LINE
  8
204
  6
CONTINUOUS
10
1983.010445
20
474.000000
30
0
11
1983.010445
21
 460.0000
31
0
0
ARC
  8
204
  6
CONTINUOUS
10
1760.510445
20
-0.000000
30
0
40
47.500000
50
0.000000
51
359.900000
0
LINE
  8
204
  6
CONTINUOUS
10
1749.510445
20
45.000000
30
0
11
1771.510445
21
 45.0000
31
0
0
ARC
  8
204
  6
CONTINUOUS
10
1760.510445
20
-0.000000
30
0
40
40.000000
50
0.000000
51
74.037986
0
ARC
  8
204
  6
CONTINUOUS
10
1760.510445
20
-0.000000
30
0
40
40.000000
50
105.962014
51
359.900000
0
LINE
  8
204
  6
CONTINUOUS
10
1771.510445
20
45.000000
30
0
11
1771.510445
21
 38.4578
31
0
0
LINE
  8
204
  6
CONTINUOUS
10
1749.510445
20
38.457769
30
0
11
1749.510445
21
 45.0000
31
0
0
ARC
  8
204
  6
CONTINUOUS
10
1483.346586
20
114.805029
30
0
40
11.500000
50
0.000000
51
359.900000
0
ARC
  8
204
  6
CONTINUOUS
10
1645.705416
20
277.163859
30
0
40
11.500000
50
0.000000
51
359.900000
0
ARC
  8
204
  6
CONTINUOUS
10
1875.315475
20
277.163859
30
0
40
11.500000
50
0.000000
51
359.900000
0
ARC
  8
204
  6
CONTINUOUS
10
2037.674305
20
114.805029
30
0
40
11.500000
50
0.000000
51
359.900000
0
ARC
  8
204
  6
CONTINUOUS
10
2037.674305
20
-114.805030
30
0
40
11.500000
50
0.000000
51
359.900000
0
ARC
  8
204
  6
CONTINUOUS
10
1875.315475
20
-277.163860
30
0
40
11.500000
50
0.000000
51
359.900000
0
ARC
  8
204
  6
CONTINUOUS
10
1645.705416
20
-277.163860
30
0
40
11.500000
50
0.000000
51
359.900000
0
LINE
  8
204
  6
CONTINUOUS
10
1773.238368
20
299.727922
30
0
11
1800.956951
21
 272.0093
31
0
0
LINE
  8
204
  6
CONTINUOUS
10
1800.956951
20
272.009338
30
0
11
1813.271772
21
 259.6945
31
0
0
LINE
  8
204
  6
CONTINUOUS
10
1813.271772
20
259.694517
30
0
11
1813.271772
21
 250.6917
31
0
0
LINE
  8
204
  6
CONTINUOUS
10
1707.749119
20
250.691654
30
0
11
1707.749119
21
 259.6945
31
0
0
LINE
  8
204
  6
CONTINUOUS
10
1720.063940
20
272.009338
30
0
11
1747.782523
21
 299.7279
31
0
0
LINE
  8
204
  6
CONTINUOUS
10
1707.749119
20
259.694517
30
0
11
1720.063940
21
 272.0093
31
0
0
ARC
  8
204
  6
CONTINUOUS
10
1760.510445
20
287.000000
30
0
40
18.000000
50
45.000000
51
135.000000
0
LINE
  8
204
  6
CONTINUOUS
10
1981.450092
20
202.939646
30
0
11
1981.450092
21
 163.7396
31
0
0
LINE
  8
204
  6
CONTINUOUS
10
1981.450092
20
163.739649
30
0
11
1981.450092
21
 146.3239
31
0
0
LINE
  8
204
  6
CONTINUOUS
10
1981.450092
20
146.323862
30
0
11
1975.084106
21
 139.9579
31
0
0
LINE
  8
204
  6
CONTINUOUS
10
1900.468431
20
214.573575
30
0
11
1906.834407
21
 220.9396
31
0
0
LINE
  8
204
  6
CONTINUOUS
10
1924.250095
20
220.939646
30
0
11
1963.450092
21
 220.9396
31
0
0
LINE
  8
204
  6
CONTINUOUS
10
1906.834308
20
220.939646
30
0
11
1924.250095
21
 220.9396
31
0
0
ARC
  8
204
  6
CONTINUOUS
10
1963.450092
20
202.939646
30
0
40
18.000000
50
0.000000
51
90.000000
0
LINE
  8
204
  6
CONTINUOUS
10
2060.238368
20
-12.727922
30
0
11
2032.519784
21
-40.4465
31
0
0
LINE
  8
204
  6
CONTINUOUS
10
2032.519784
20
-40.446506
30
0
11
2020.204963
21
-52.7613
31
0
0
LINE
  8
204
  6
CONTINUOUS
10
2020.204993
20
-52.761331
30
0
11
2011.202052
21
-52.7613
31
0
0
LINE
  8
204
  6
CONTINUOUS
10
2011.202052
20
52.761264
30
0
11
2020.204993
21
 52.7613
31
0
0
LINE
  8
204
  6
CONTINUOUS
10
2032.519784
20
40.446506
30
0
11
2060.238368
21
 12.7279
31
0
0
LINE
  8
204
  6
CONTINUOUS
10
2020.204963
20
52.761327
30
0
11
2032.519784
21
 40.4465
31
0
0
ARC
  8
204
  6
CONTINUOUS
10
2047.510445
20
-0.000000
30
0
40
18.000000
50
315.000000
51
405.000000
0
LINE
  8
204
  6
CONTINUOUS
10
1963.450092
20
-220.939646
30
0
11
1924.250095
21
-220.9396
31
0
0
LINE
  8
204
  6
CONTINUOUS
10
1924.250095
20
-220.939646
30
0
11
1906.834308
21
-220.9396
31
0
0
LINE
  8
204
  6
CONTINUOUS
10
1906.834308
20
-220.939647
30
0
11
1900.468322
21
-214.5737
31
0
0
LINE
  8
204
  6
CONTINUOUS
10
1975.084106
20
-139.957877
30
0
11
1981.450092
21
-146.3239
31
0
0
LINE
  8
204
  6
CONTINUOUS
10
1981.450092
20
-163.739649
30
0
11
1981.450092
21
-202.9396
31
0
0
LINE
  8
204
  6
CONTINUOUS
10
1981.450092
20
-146.323862
30
0
11
1981.450092
21
-163.7396
31
0
0
ARC
  8
204
  6
CONTINUOUS
10
1963.450092
20
-202.939647
30
0
40
18.000000
50
270.000000
51
359.900000
0
LINE
  8
204
  6
CONTINUOUS
10
1747.782523
20
-299.727922
30
0
11
1720.063940
21
-272.0093
31
0
0
LINE
  8
204
  6
CONTINUOUS
10
1720.063940
20
-272.009338
30
0
11
1707.749119
21
-259.6945
31
0
0
LINE
  8
204
  6
CONTINUOUS
10
1707.749119
20
-259.694518
30
0
11
1707.749119
21
-250.6917
31
0
0
LINE
  8
204
  6
CONTINUOUS
10
1813.271772
20
-250.691654
30
0
11
1813.271772
21
-259.6945
31
0
0
LINE
  8
204
  6
CONTINUOUS
10
1800.956951
20
-272.009338
30
0
11
1773.238368
21
-299.7279
31
0
0
LINE
  8
204
  6
CONTINUOUS
10
1813.271772
20
-259.694517
30
0
11
1800.956951
21
-272.0093
31
0
0
ARC
  8
204
  6
CONTINUOUS
10
1760.510445
20
-287.000000
30
0
40
18.000000
50
225.000000
51
315.000000
0
LINE
  8
204
  6
CONTINUOUS
10
1539.570799
20
-202.939646
30
0
11
1539.570799
21
-163.7396
31
0
0
LINE
  8
204
  6
CONTINUOUS
10
1539.570799
20
-163.739649
30
0
11
1539.570799
21
-146.3239
31
0
0
LINE
  8
204
  6
CONTINUOUS
10
1539.570799
20
-146.323863
30
0
11
1545.936785
21
-139.9579
31
0
0
LINE
  8
204
  6
CONTINUOUS
10
1620.552569
20
-214.573661
30
0
11
1614.186583
21
-220.9396
31
0
0
LINE
  8
204
  6
CONTINUOUS
10
1596.770796
20
-220.939646
30
0
11
1557.570799
21
-220.9396
31
0
0
LINE
  8
204
  6
CONTINUOUS
10
1614.186583
20
-220.939646
30
0
11
1596.770796
21
-220.9396
31
0
0
ARC
  8
204
  6
CONTINUOUS
10
1557.570799
20
-202.939647
30
0
40
18.000000
50
180.000000
51
270.000000
0
LINE
  8
204
  6
CONTINUOUS
10
1460.782523
20
12.727922
30
0
11
1488.501107
21
 40.4465
31
0
0
LINE
  8
204
  6
CONTINUOUS
10
1488.501107
20
40.446506
30
0
11
1500.815928
21
 52.7613
31
0
0
LINE
  8
204
  6
CONTINUOUS
10
1500.815898
20
52.761264
30
0
11
1509.818839
21
 52.7613
31
0
0
LINE
  8
204
  6
CONTINUOUS
10
1509.818839
20
-52.761331
30
0
11
1500.815898
21
-52.7613
31
0
0
LINE
  8
204
  6
CONTINUOUS
10
1488.501107
20
-40.446506
30
0
11
1460.782523
21
-12.7279
31
0
0
LINE
  8
204
  6
CONTINUOUS
10
1500.815928
20
-52.761327
30
0
11
1488.501107
21
-40.4465
31
0
0
ARC
  8
204
  6
CONTINUOUS
10
1473.510445
20
-0.000000
30
0
40
18.000000
50
135.000000
51
225.000000
0
ARC
  8
204
  6
CONTINUOUS
10
1760.510445
20
-0.000000
30
0
40
275.000000
50
188.457642
51
216.542358
0
ARC
  8
204
  6
CONTINUOUS
10
1760.510445
20
-0.000000
30
0
40
275.000000
50
143.457642
51
171.542358
0
ARC
  8
204
  6
CONTINUOUS
10
1760.510445
20
-0.000000
30
0
40
275.000000
50
233.457642
51
261.542358
0
ARC
  8
204
  6
CONTINUOUS
10
1760.510445
20
-0.000000
30
0
40
275.000000
50
278.457642
51
306.542358
0
ARC
  8
204
  6
CONTINUOUS
10
1760.510445
20
-0.000000
30
0
40
275.000000
50
323.457642
51
351.542358
0
ARC
  8
204
  6
CONTINUOUS
10
1760.510445
20
-0.000000
30
0
40
275.000000
50
8.457642
51
36.542358
0
ARC
  8
204
  6
CONTINUOUS
10
1760.510445
20
-0.000000
30
0
40
275.000000
50
53.457642
51
81.542358
0
ARC
  8
204
  6
CONTINUOUS
10
1760.510445
20
-0.000000
30
0
40
275.000000
50
98.457642
51
126.542358
0
ARC
  8
204
  6
CONTINUOUS
10
1760.510445
20
-0.000000
30
0
40
330.000000
50
0.000000
51
359.900000
0
ARC
  8
204
  6
CONTINUOUS
10
1557.570799
20
202.939646
30
0
40
18.000000
50
90.000000
51
180.000000
0
LINE
  8
204
  6
CONTINUOUS
10
1539.570799
20
163.739649
30
0
11
1539.570799
21
 202.9396
31
0
0
LINE
  8
204
  6
CONTINUOUS
10
1539.570799
20
146.323863
30
0
11
1539.570799
21
 163.7396
31
0
0
LINE
  8
204
  6
CONTINUOUS
10
1545.936785
20
139.957876
30
0
11
1539.570799
21
 146.3239
31
0
0
LINE
  8
204
  6
CONTINUOUS
10
1614.186484
20
220.939550
30
0
11
1620.552459
21
 214.5736
31
0
0
LINE
  8
204
  6
CONTINUOUS
10
1596.770796
20
220.939646
30
0
11
1614.186583
21
 220.9396
31
0
0
LINE
  8
204
  6
CONTINUOUS
10
1557.570799
20
220.939646
30
0
11
1596.770796
21
 220.9396
31
0
0
ARC
  8
204
  6
CONTINUOUS
10
1483.346586
20
-114.805030
30
0
40
11.500000
50
0.000000
51
359.900000
0
LINE
  8
204
  6
CONTINUOUS
10
1772.510445
20
95.750979
30
0
11
1772.510445
21
 110.0000
31
0
0
LINE
  8
204
  6
CONTINUOUS
10
1748.510445
20
110.000000
30
0
11
1748.510445
21
 95.7510
31
0
0
LINE
  8
204
  6
CONTINUOUS
10
1772.510445
20
110.000000
30
0
11
1748.510445
21
 110.0000
31
0
0
LINE
  8
204
  6
CONTINUOUS
10
1714.510445
20
-146.026275
30
0
11
1714.510445
21
-155.0000
31
0
0
LINE
  8
204
  6
CONTINUOUS
10
1714.510445
20
-92.781623
30
0
11
1714.510445
21
-146.0263
31
0
0
LINE
  8
204
  6
CONTINUOUS
10
1806.510445
20
-146.026275
30
0
11
1806.510445
21
-92.7816
31
0
0
LINE
  8
204
  6
CONTINUOUS
10
1806.510445
20
-155.000000
30
0
11
1806.510445
21
-146.0263
31
0
0
ARC
  8
204
  6
CONTINUOUS
10
1760.510445
20
-0.000000
30
0
40
112.500000
50
90.000000
51
245.864944
0
ARC
  8
204
  6
CONTINUOUS
10
1760.510445
20
-0.000000
30
0
40
112.500000
50
294.135056
51
450.000000
0
LINE
  8
204
  6
CONTINUOUS
10
1662.222603
20
77.074639
30
0
11
1683.435806
21
 98.2878
31
0
0
LINE
  8
204
  6
CONTINUOUS
10
1683.435806
20
-98.287843
30
0
11
1662.222603
21
-77.0746
31
0
0
LINE
  8
204
  6
CONTINUOUS
10
1858.798288
20
-77.074639
30
0
11
1837.585085
21
-98.2878
31
0
0
LINE
  8
204
  6
CONTINUOUS
10
1837.585085
20
98.287843
30
0
11
1858.798288
21
 77.0746
31
0
0
LINE
  8
204
  6
CONTINUOUS
10
1671.064609
20
68.232633
30
0
11
1662.222603
21
 77.0746
31
0
0
LINE
  8
204
  6
CONTINUOUS
10
1683.435806
20
98.287843
30
0
11
1692.277812
21
 89.4458
31
0
0
LINE
  8
204
  6
CONTINUOUS
10
1692.277812
20
-89.445837
30
0
11
1683.435806
21
-98.2878
31
0
0
LINE
  8
204
  6
CONTINUOUS
10
1662.222603
20
-77.074639
30
0
11
1671.064609
21
-68.2326
31
0
0
LINE
  8
204
  6
CONTINUOUS
10
1849.956282
20
-68.232633
30
0
11
1858.798288
21
-77.0746
31
0
0
LINE
  8
204
  6
CONTINUOUS
10
1837.585085
20
-98.287843
30
0
11
1828.743079
21
-89.4458
31
0
0
LINE
  8
204
  6
CONTINUOUS
10
1828.743079
20
89.445837
30
0
11
1837.585085
21
 98.2878
31
0
0
LINE
  8
204
  6
CONTINUOUS
10
1858.798288
20
77.074639
30
0
11
1849.956282
21
 68.2326
31
0
0
LINE
  8
204
  6
CONTINUOUS
10
1839.010445
20
343.000000
30
0
11
1839.010445
21
 320.5273
31
0
0
LINE
  8
204
  6
CONTINUOUS
10
1682.010445
20
343.000000
30
0
11
1682.010445
21
 320.5273
31
0
0
LINE
  8
204
  6
CONTINUOUS
10
1623.679137
20
539.000000
30
0
11
1607.993200
21
 460.0000
31
0
0
LINE
  8
204
  6
CONTINUOUS
10
1931.027689
20
460.000000
30
0
11
1915.341753
21
 539.0000
31
0
0
LINE
  8
204
  6
CONTINUOUS
10
1931.027689
20
460.000000
30
0
11
1607.993201
21
 460.0000
31
0
0
LINE
  8
204
  6
CONTINUOUS
10
1595.510443
20
410.000000
30
0
11
1595.510443
21
 356.0000
31
0
0
LINE
  8
204
  6
CONTINUOUS
10
1943.510443
20
410.000000
30
0
11
1943.510443
21
 356.0000
31
0
0
LINE
  8
204
  6
CONTINUOUS
10
1618.510445
20
356.000000
30
0
11
1618.510445
21
 343.0000
31
0
0
LINE
  8
204
  6
CONTINUOUS
10
1902.510445
20
356.000000
30
0
11
1902.510445
21
 343.0000
31
0
0
LINE
  8
204
  6
CONTINUOUS
10
1949.010446
20
356.000000
30
0
11
1949.010445
21
 410.0000
31
0
0
ARC
  8
204
  6
CONTINUOUS
10
1760.510445
20
-0.000000
30
0
40
96.500000
50
97.143355
51
442.856645
0
ARC
  8
204
  6
CONTINUOUS
10
1760.510445
20
-0.000000
30
0
40
38.000000
50
0.000000
51
359.900000
0
ARC
  8
204
  6
CONTINUOUS
10
1760.510445
20
-0.000000
30
0
40
40.000000
50
74.037986
51
105.962014
0
LINE
  8
226
  6
CONTINUOUS
10
1613.740445
20
150.195097
30
0
11
1613.740445
21
 101.6100
31
0
0
LINE
  8
226
  6
CONTINUOUS
10
1613.740445
20
101.610000
30
0
11
1636.320445
21
 101.6100
31
0
0
LINE
  8
226
  6
CONTINUOUS
10
1636.320445
20
101.610000
30
0
11
1636.320445
21
 169.3424
31
0
0
ARC
  8
226
  6
CONTINUOUS
10
1760.510445
20
-0.000000
30
0
40
210.000000
50
126.255066
51
134.339199
0
LINE
  8
226
  6
CONTINUOUS
10
1658.900445
20
183.780869
30
0
11
1658.900445
21
 101.6100
31
0
0
LINE
  8
226
  6
CONTINUOUS
10
1658.900445
20
101.610000
30
0
11
1681.480445
21
 101.6100
31
0
0
LINE
  8
226
  6
CONTINUOUS
10
1681.480445
20
101.610000
30
0
11
1681.480445
21
 194.5617
31
0
0
ARC
  8
226
  6
CONTINUOUS
10
1760.510445
20
-0.000000
30
0
40
210.000000
50
112.106745
51
118.937623
0
LINE
  8
226
  6
CONTINUOUS
10
1681.480445
20
101.610000
30
0
11
1704.060445
21
 101.6100
31
0
0
LINE
  8
226
  6
CONTINUOUS
10
1704.060445
20
101.610000
30
0
11
1704.060445
21
 202.2706
31
0
0
ARC
  8
226
  6
CONTINUOUS
10
1760.510445
20
-0.000000
30
0
40
210.000000
50
105.593439
51
112.106745
0
LINE
  8
226
  6
CONTINUOUS
10
1816.960445
20
202.270605
30
0
11
1816.960445
21
 101.6100
31
0
0
LINE
  8
226
  6
CONTINUOUS
10
1816.960445
20
101.610000
30
0
11
1839.540445
21
 101.6100
31
0
0
LINE
  8
226
  6
CONTINUOUS
10
1839.540445
20
101.610000
30
0
11
1839.540445
21
 194.5617
31
0
0
ARC
  8
226
  6
CONTINUOUS
10
1760.510445
20
-0.000000
30
0
40
210.000000
50
67.893255
51
74.406561
0
LINE
  8
226
  6
CONTINUOUS
10
1839.540445
20
101.610000
30
0
11
1862.120445
21
 101.6100
31
0
0
LINE
  8
226
  6
CONTINUOUS
10
1862.120445
20
101.610000
30
0
11
1862.120445
21
 183.7809
31
0
0
ARC
  8
226
  6
CONTINUOUS
10
1760.510445
20
-0.000000
30
0
40
210.000000
50
61.062377
51
67.893255
0
LINE
  8
226
  6
CONTINUOUS
10
1884.700445
20
169.342387
30
0
11
1884.700445
21
 101.6100
31
0
0
LINE
  8
226
  6
CONTINUOUS
10
1884.700445
20
101.610000
30
0
11
1907.280445
21
 101.6100
31
0
0
LINE
  8
226
  6
CONTINUOUS
10
1907.280445
20
101.610000
30
0
11
1907.280445
21
 150.1951
31
0
0
ARC
  8
226
  6
CONTINUOUS
10
1760.510445
20
-0.000000
30
0
40
210.000000
50
45.660801
51
53.744934
0
LINE
  8
226
  6
CONTINUOUS
10
1907.280445
20
101.610000
30
0
11
1944.291315
21
 101.6100
31
0
0
ARC
  8
226
  6
CONTINUOUS
10
1760.510445
20
-0.000000
30
0
40
210.000000
50
28.937623
51
45.660801
0
ARC
  8
226
  6
CONTINUOUS
10
1760.510445
20
-0.000000
30
0
40
210.000000
50
134.339199
51
151.062377
0
LINE
  8
226
  6
CONTINUOUS
10
1576.729576
20
101.610000
30
0
11
1613.740445
21
 101.6100
31
0
0
LINE
  8
226
  6
CONTINUOUS
10
1907.280445
20
-101.610000
30
0
11
1907.280445
21
-121.5370
31
0
0
LINE
  8
226
  6
CONTINUOUS
10
1907.280445
20
-126.836977
30
0
11
1907.280445
21
-150.1951
31
0
0
ARC
  8
226
  6
CONTINUOUS
10
1760.510445
20
-0.000000
30
0
40
210.000000
50
314.339199
51
322.844118
0
ARC
  8
226
  6
CONTINUOUS
10
1760.510445
20
-0.000000
30
0
40
210.000000
50
324.637503
51
331.062377
0
LINE
  8
226
  6
CONTINUOUS
10
1944.291315
20
-101.610000
30
0
11
1907.280445
21
-101.6100
31
0
0
LINE
  8
226
  6
CONTINUOUS
10
1884.700445
20
-101.610000
30
0
11
1884.700445
21
-121.5370
31
0
0
LINE
  8
226
  6
CONTINUOUS
10
1884.700445
20
-126.836977
30
0
11
1884.700445
21
-169.3424
31
0
0
ARC
  8
226
  6
CONTINUOUS
10
1760.510445
20
-0.000000
30
0
40
210.000000
50
306.255066
51
314.339199
0
LINE
  8
226
  6
CONTINUOUS
10
1907.280445
20
-101.610000
30
0
11
1884.700445
21
-101.6100
31
0
0
LINE
  8
226
  6
CONTINUOUS
10
1839.540445
20
-101.610000
30
0
11
1839.540445
21
-121.5370
31
0
0
LINE
  8
226
  6
CONTINUOUS
10
1839.540445
20
-126.836977
30
0
11
1839.540445
21
-194.5617
31
0
0
ARC
  8
226
  6
CONTINUOUS
10
1760.510445
20
-0.000000
30
0
40
210.000000
50
292.106745
51
298.937623
0
LINE
  8
226
  6
CONTINUOUS
10
1862.120445
20
-183.780869
30
0
11
1862.120445
21
-126.8370
31
0
0
LINE
  8
226
  6
CONTINUOUS
10
1862.120445
20
-121.536977
30
0
11
1862.120445
21
-101.6100
31
0
0
LINE
  8
226
  6
CONTINUOUS
10
1862.120445
20
-101.610000
30
0
11
1839.540445
21
-101.6100
31
0
0
LINE
  8
226
  6
CONTINUOUS
10
1816.960445
20
-101.610000
30
0
11
1816.960445
21
-121.5370
31
0
0
LINE
  8
226
  6
CONTINUOUS
10
1816.960445
20
-126.836977
30
0
11
1816.960445
21
-202.2706
31
0
0
ARC
  8
226
  6
CONTINUOUS
10
1760.510445
20
-0.000000
30
0
40
210.000000
50
285.593439
51
292.106745
0
LINE
  8
226
  6
CONTINUOUS
10
1839.540445
20
-101.610000
30
0
11
1816.960445
21
-101.6100
31
0
0
LINE
  8
226
  6
CONTINUOUS
10
1681.480445
20
-101.610000
30
0
11
1681.480445
21
-194.5617
31
0
0
ARC
  8
226
  6
CONTINUOUS
10
1760.510445
20
-0.000000
30
0
40
210.000000
50
247.893255
51
254.406561
0
LINE
  8
226
  6
CONTINUOUS
10
1704.060445
20
-202.270605
30
0
11
1704.060445
21
-101.6100
31
0
0
LINE
  8
226
  6
CONTINUOUS
10
1704.060445
20
-101.610000
30
0
11
1681.480445
21
-101.6100
31
0
0
LINE
  8
226
  6
CONTINUOUS
10
1658.900445
20
-101.610000
30
0
11
1658.900445
21
-183.7809
31
0
0
ARC
  8
226
  6
CONTINUOUS
10
1760.510445
20
-0.000000
30
0
40
210.000000
50
241.062377
51
247.893255
0
LINE
  8
226
  6
CONTINUOUS
10
1681.480445
20
-101.610000
30
0
11
1658.900445
21
-101.6100
31
0
0
LINE
  8
226
  6
CONTINUOUS
10
1613.740445
20
-101.610000
30
0
11
1613.740445
21
-150.1951
31
0
0
ARC
  8
226
  6
CONTINUOUS
10
1760.510445
20
-0.000000
30
0
40
210.000000
50
225.660801
51
233.744934
0
LINE
  8
226
  6
CONTINUOUS
10
1636.320445
20
-169.342387
30
0
11
1636.320445
21
-101.6100
31
0
0
LINE
  8
226
  6
CONTINUOUS
10
1636.320445
20
-101.610000
30
0
11
1613.740445
21
-101.6100
31
0
0
LINE
  8
226
  6
CONTINUOUS
10
1613.740445
20
-101.610000
30
0
11
1576.729576
21
-101.6100
31
0
0
ARC
  8
226
  6
CONTINUOUS
10
1760.510445
20
-0.000000
30
0
40
210.000000
50
208.937623
51
225.660801
0
LINE
  8
226
  6
CONTINUOUS
10
1711.486919
20
-204.197683
30
0
11
1701.014280
21
-247.8194
31
0
0
ARC
  8
204
  6
CONTINUOUS
10
1760.510445
20
-0.000000
30
0
40
254.861199
50
256.500000
51
283.500000
0
LINE
  8
226
  6
CONTINUOUS
10
1820.006611
20
-247.819364
30
0
11
1809.533972
21
-204.1977
31
0
0
ARC
  8
226
  6
CONTINUOUS
10
1760.510445
20
-0.000000
30
0
40
210.000000
50
279.281532
51
283.500000
0
ARC
  8
226
  6
CONTINUOUS
10
1760.510445
20
-0.000000
30
0
40
210.000000
50
260.718468
51
279.281532
0
ARC
  8
226
  6
CONTINUOUS
10
1760.510445
20
-0.000000
30
0
40
210.000000
50
256.500000
51
260.718468
0
LINE
  8
226
  6
CONTINUOUS
10
1870.235144
20
-179.054435
30
0
11
1893.675056
21
-217.3049
31
0
0
ARC
  8
204
  6
CONTINUOUS
10
1760.510445
20
-0.000000
30
0
40
254.861199
50
301.500000
51
330.153979
0
ARC
  8
204
  6
CONTINUOUS
10
1760.510445
20
-0.000000
30
0
40
254.861199
50
331.518488
51
346.500000
0
LINE
  8
226
  6
CONTINUOUS
10
2008.329809
20
-59.496165
30
0
11
1964.708129
21
-49.0235
31
0
0
ARC
  8
226
  6
CONTINUOUS
10
1760.510445
20
-0.000000
30
0
40
210.000000
50
344.406561
51
346.500000
0
ARC
  8
226
  6
CONTINUOUS
10
1760.510445
20
-0.000000
30
0
40
210.000000
50
337.893255
51
344.406561
0
ARC
  8
226
  6
CONTINUOUS
10
1760.510445
20
-0.000000
30
0
40
210.000000
50
331.062377
51
337.893255
0
ARC
  8
226
  6
CONTINUOUS
10
1760.510445
20
-0.000000
30
0
40
210.000000
50
301.500000
51
306.255066
0
ARC
  8
204
  6
CONTINUOUS
10
1760.510445
20
-0.000000
30
0
40
254.861199
50
283.500000
51
301.500000
0
ARC
  8
226
  6
CONTINUOUS
10
1760.510445
20
-0.000000
30
0
40
210.000000
50
298.937623
51
301.500000
0
ARC
  8
226
  6
CONTINUOUS
10
1760.510445
20
-0.000000
30
0
40
210.000000
50
283.500000
51
285.593439
0
LINE
  8
226
  6
CONTINUOUS
10
1650.785747
20
-179.054435
30
0
11
1627.345835
21
-217.3049
31
0
0
ARC
  8
204
  6
CONTINUOUS
10
1760.510445
20
-0.000000
30
0
40
254.861199
50
238.500000
51
256.500000
0
ARC
  8
226
  6
CONTINUOUS
10
1760.510445
20
-0.000000
30
0
40
210.000000
50
254.406561
51
256.500000
0
ARC
  8
226
  6
CONTINUOUS
10
1760.510445
20
-0.000000
30
0
40
210.000000
50
238.500000
51
241.062377
0
LINE
  8
226
  6
CONTINUOUS
10
1556.312762
20
-49.023526
30
0
11
1512.691082
21
-59.4962
31
0
0
ARC
  8
204
  6
CONTINUOUS
10
1760.510445
20
-0.000000
30
0
40
254.861199
50
193.500000
51
238.500000
0
ARC
  8
226
  6
CONTINUOUS
10
1760.510445
20
-0.000000
30
0
40
210.000000
50
233.744934
51
238.500000
0
ARC
  8
226
  6
CONTINUOUS
10
1760.510445
20
-0.000000
30
0
40
210.000000
50
202.106745
51
208.937623
0
ARC
  8
226
  6
CONTINUOUS
10
1760.510445
20
-0.000000
30
0
40
210.000000
50
195.593439
51
202.106745
0
ARC
  8
226
  6
CONTINUOUS
10
1760.510445
20
-0.000000
30
0
40
210.000000
50
193.500000
51
195.593439
0
LINE
  8
226
  6
CONTINUOUS
10
1556.312762
20
49.023526
30
0
11
1512.691082
21
 59.4962
31
0
0
ARC
  8
204
  6
CONTINUOUS
10
1760.510445
20
-0.000000
30
0
40
254.861199
50
166.500000
51
193.500000
0
ARC
  8
226
  6
CONTINUOUS
10
1760.510445
20
-0.000000
30
0
40
210.000000
50
189.281532
51
193.500000
0
ARC
  8
226
  6
CONTINUOUS
10
1760.510445
20
-0.000000
30
0
40
210.000000
50
183.081816
51
189.281532
0
ARC
  8
226
  6
CONTINUOUS
10
1760.510445
20
-0.000000
30
0
40
210.000000
50
176.918184
51
183.081816
0
ARC
  8
226
  6
CONTINUOUS
10
1760.510445
20
-0.000000
30
0
40
210.000000
50
170.718468
51
176.918184
0
ARC
  8
226
  6
CONTINUOUS
10
1760.510445
20
-0.000000
30
0
40
210.000000
50
166.500000
51
170.718468
0
LINE
  8
226
  6
CONTINUOUS
10
1650.785747
20
179.054434
30
0
11
1627.345835
21
 217.3049
31
0
0
ARC
  8
204
  6
CONTINUOUS
10
1760.510445
20
-0.000000
30
0
40
254.861199
50
121.500000
51
166.500000
0
ARC
  8
226
  6
CONTINUOUS
10
1760.510445
20
-0.000000
30
0
40
210.000000
50
164.406561
51
166.500000
0
ARC
  8
226
  6
CONTINUOUS
10
1760.510445
20
-0.000000
30
0
40
210.000000
50
157.893255
51
164.406561
0
ARC
  8
226
  6
CONTINUOUS
10
1760.510445
20
-0.000000
30
0
40
210.000000
50
151.062377
51
157.893255
0
ARC
  8
226
  6
CONTINUOUS
10
1760.510445
20
-0.000000
30
0
40
210.000000
50
121.500000
51
126.255066
0
LINE
  8
226
  6
CONTINUOUS
10
1711.486919
20
204.197683
30
0
11
1701.014280
21
 247.8194
31
0
0
ARC
  8
204
  6
CONTINUOUS
10
1760.510445
20
-0.000000
30
0
40
254.861199
50
103.500000
51
121.500000
0
ARC
  8
226
  6
CONTINUOUS
10
1760.510445
20
-0.000000
30
0
40
210.000000
50
118.937623
51
121.500000
0
ARC
  8
226
  6
CONTINUOUS
10
1760.510445
20
-0.000000
30
0
40
210.000000
50
103.500000
51
105.593439
0
LINE
  8
226
  6
CONTINUOUS
10
1760.510445
20
210.000000
30
0
11
1760.510445
21
 254.8612
31
0
0
ARC
  8
204
  6
CONTINUOUS
10
1760.510445
20
-0.000000
30
0
40
254.861199
50
90.000000
51
103.500000
0
ARC
  8
226
  6
CONTINUOUS
10
1760.510445
20
-0.000000
30
0
40
210.000000
50
99.281532
51
103.500000
0
ARC
  8
226
  6
CONTINUOUS
10
1760.510445
20
-0.000000
30
0
40
210.000000
50
93.081816
51
99.281532
0
ARC
  8
226
  6
CONTINUOUS
10
1760.510445
20
-0.000000
30
0
40
210.000000
50
90.000000
51
93.081816
0
LINE
  8
226
  6
CONTINUOUS
10
1809.533972
20
204.197683
30
0
11
1820.006611
21
 247.8194
31
0
0
ARC
  8
204
  6
CONTINUOUS
10
1760.510445
20
-0.000000
30
0
40
254.861199
50
76.500000
51
90.000000
0
ARC
  8
226
  6
CONTINUOUS
10
1760.510445
20
-0.000000
30
0
40
210.000000
50
86.918184
51
90.000000
0
ARC
  8
226
  6
CONTINUOUS
10
1760.510445
20
-0.000000
30
0
40
210.000000
50
80.718468
51
86.918184
0
ARC
  8
226
  6
CONTINUOUS
10
1760.510445
20
-0.000000
30
0
40
210.000000
50
76.500000
51
80.718468
0
LINE
  8
226
  6
CONTINUOUS
10
1870.235144
20
179.054434
30
0
11
1893.675056
21
 217.3049
31
0
0
ARC
  8
204
  6
CONTINUOUS
10
1760.510445
20
-0.000000
30
0
40
254.861199
50
58.500000
51
76.500000
0
ARC
  8
226
  6
CONTINUOUS
10
1760.510445
20
-0.000000
30
0
40
210.000000
50
74.406561
51
76.500000
0
ARC
  8
226
  6
CONTINUOUS
10
1760.510445
20
-0.000000
30
0
40
210.000000
50
58.500000
51
61.062377
0
LINE
  8
226
  6
CONTINUOUS
10
1964.708129
20
49.023526
30
0
11
2008.329809
21
 59.4962
31
0
0
ARC
  8
204
  6
CONTINUOUS
10
1760.510445
20
-0.000000
30
0
40
254.861199
50
13.500000
51
58.500000
0
ARC
  8
226
  6
CONTINUOUS
10
1760.510445
20
-0.000000
30
0
40
210.000000
50
53.744934
51
58.500000
0
ARC
  8
226
  6
CONTINUOUS
10
1760.510445
20
-0.000000
30
0
40
210.000000
50
22.106745
51
28.937623
0
ARC
  8
226
  6
CONTINUOUS
10
1760.510445
20
-0.000000
30
0
40
210.000000
50
15.593439
51
22.106745
0
ARC
  8
226
  6
CONTINUOUS
10
1760.510445
20
-0.000000
30
0
40
210.000000
50
13.500000
51
15.593439
0
ARC
  8
204
  6
CONTINUOUS
10
1760.510445
20
-0.000000
30
0
40
254.861199
50
346.500000
51
373.500000
0
ARC
  8
226
  6
CONTINUOUS
10
1760.510445
20
-0.000000
30
0
40
210.000000
50
9.281532
51
13.500000
0
ARC
  8
226
  6
CONTINUOUS
10
1760.510445
20
-0.000000
30
0
40
210.000000
50
3.081816
51
9.281532
0
ARC
  8
226
  6
CONTINUOUS
10
1760.510445
20
-0.000000
30
0
40
210.000000
50
356.918184
51
363.081816
0
ARC
  8
226
  6
CONTINUOUS
10
1760.510445
20
-0.000000
30
0
40
210.000000
50
350.718468
51
356.918184
0
ARC
  8
226
  6
CONTINUOUS
10
1760.510445
20
-0.000000
30
0
40
210.000000
50
346.500000
51
350.718468
0
LINE
  8
226
  6
CONTINUOUS
10
1636.320445
20
101.610000
30
0
11
1658.900445
21
 101.6100
31
0
0
LINE
  8
226
  6
CONTINUOUS
10
1862.120445
20
101.610000
30
0
11
1884.700445
21
 101.6100
31
0
0
LINE
  8
226
  6
CONTINUOUS
10
1884.700445
20
-101.610000
30
0
11
1862.120445
21
-101.6100
31
0
0
LINE
  8
226
  6
CONTINUOUS
10
1658.900445
20
-101.610000
30
0
11
1636.320445
21
-101.6100
31
0
0
LINE
  8
226
  6
CONTINUOUS
10
1712.223202
20
101.610000
30
0
11
1704.060445
21
 101.6100
31
0
0
LINE
  8
226
  6
CONTINUOUS
10
1565.948735
20
79.030000
30
0
11
1664.177964
21
 79.0300
31
0
0
LINE
  8
226
  6
CONTINUOUS
10
1856.842927
20
79.030000
30
0
11
1955.072156
21
 79.0300
31
0
0
LINE
  8
226
  6
CONTINUOUS
10
1816.960445
20
101.610000
30
0
11
1808.797689
21
 101.6100
31
0
0
LINE
  8
226
  6
CONTINUOUS
10
1558.239841
20
56.450000
30
0
11
1663.198332
21
 56.4500
31
0
0
LINE
  8
226
  6
CONTINUOUS
10
1653.230097
20
33.870000
30
0
11
1553.259817
21
 33.8700
31
0
0
LINE
  8
226
  6
CONTINUOUS
10
1550.814151
20
11.290000
30
0
11
1648.578386
21
 11.2900
31
0
0
LINE
  8
226
  6
CONTINUOUS
10
1550.814151
20
-11.290000
30
0
11
1648.578386
21
-11.2900
31
0
0
LINE
  8
226
  6
CONTINUOUS
10
1553.259817
20
-33.870000
30
0
11
1653.230097
21
-33.8700
31
0
0
LINE
  8
226
  6
CONTINUOUS
10
1663.198332
20
-56.450000
30
0
11
1558.239841
21
-56.4500
31
0
0
LINE
  8
226
  6
CONTINUOUS
10
1565.948735
20
-79.030000
30
0
11
1664.177964
21
-79.0300
31
0
0
LINE
  8
226
  6
CONTINUOUS
10
1704.060445
20
-101.610000
30
0
11
1712.223202
21
-101.6100
31
0
0
LINE
  8
226
  6
CONTINUOUS
10
1808.797689
20
-101.610000
30
0
11
1816.960445
21
-101.6100
31
0
0
LINE
  8
226
  6
CONTINUOUS
10
1955.072156
20
-79.030000
30
0
11
1856.842927
21
-79.0300
31
0
0
LINE
  8
226
  6
CONTINUOUS
10
1962.781050
20
-56.450000
30
0
11
1857.822559
21
-56.4500
31
0
0
LINE
  8
226
  6
CONTINUOUS
10
1867.790794
20
-33.870000
30
0
11
1967.761074
21
-33.8700
31
0
0
LINE
  8
226
  6
CONTINUOUS
10
1970.206740
20
-11.290000
30
0
11
1872.442505
21
-11.2900
31
0
0
LINE
  8
226
  6
CONTINUOUS
10
1970.206740
20
11.290000
30
0
11
1872.442505
21
 11.2900
31
0
0
LINE
  8
226
  6
CONTINUOUS
10
1967.761074
20
33.870000
30
0
11
1867.790794
21
 33.8700
31
0
0
LINE
  8
226
  6
CONTINUOUS
10
1857.822559
20
56.450000
30
0
11
1962.781050
21
 56.4500
31
0
0
LINE
  8
226
  6
CONTINUOUS
10
1749.220445
20
111.932059
30
0
11
1749.220445
21
 209.6963
31
0
0
LINE
  8
226
  6
CONTINUOUS
10
1726.640445
20
207.250629
30
0
11
1726.640445
21
 107.2803
31
0
0
LINE
  8
226
  6
CONTINUOUS
10
1794.380445
20
107.280348
30
0
11
1794.380445
21
 207.2506
31
0
0
LINE
  8
226
  6
CONTINUOUS
10
1771.800445
20
209.696294
30
0
11
1771.800445
21
 111.9321
31
0
0
LINE
  8
226
  6
CONTINUOUS
10
1726.640445
20
-155.000000
30
0
11
1726.640445
21
-207.2506
31
0
0
LINE
  8
226
  6
CONTINUOUS
10
1794.380445
20
-207.250629
30
0
11
1794.380445
21
-155.0000
31
0
0
ARC
  8
204
  6
CONTINUOUS
10
1760.510445
20
-0.000000
30
0
40
265.000000
50
101.484296
51
123.515704
0
ARC
  8
204
  6
CONTINUOUS
10
1760.510445
20
-0.000000
30
0
40
265.000000
50
56.484296
51
78.515704
0
ARC
  8
204
  6
CONTINUOUS
10
1760.510445
20
-0.000000
30
0
40
265.000000
50
11.484296
51
33.515704
0
ARC
  8
204
  6
CONTINUOUS
10
1760.510445
20
-0.000000
30
0
40
265.000000
50
326.484296
51
348.515704
0
ARC
  8
204
  6
CONTINUOUS
10
1760.510445
20
-0.000000
30
0
40
265.000000
50
281.484296
51
303.515704
0
ARC
  8
204
  6
CONTINUOUS
10
1760.510445
20
-0.000000
30
0
40
265.000000
50
236.484296
51
258.515704
0
ARC
  8
204
  6
CONTINUOUS
10
1760.510445
20
-0.000000
30
0
40
265.000000
50
146.484296
51
168.515704
0
ARC
  8
204
  6
CONTINUOUS
10
1760.510445
20
-0.000000
30
0
40
265.000000
50
191.484296
51
213.515704
0
ARC
  8
204
  6
CONTINUOUS
10
1760.510445
20
-0.000000
30
0
40
256.183651
50
78.114814
51
101.885186
0
ARC
  8
204
  6
CONTINUOUS
10
1760.510445
20
-0.000000
30
0
40
256.183651
50
33.114814
51
56.885186
0
ARC
  8
204
  6
CONTINUOUS
10
1760.510445
20
-0.000000
30
0
40
256.183651
50
348.114814
51
371.885186
0
ARC
  8
204
  6
CONTINUOUS
10
1760.510445
20
-0.000000
30
0
40
256.183651
50
303.114814
51
326.885186
0
ARC
  8
204
  6
CONTINUOUS
10
1760.510445
20
-0.000000
30
0
40
256.183651
50
258.114814
51
281.885186
0
ARC
  8
204
  6
CONTINUOUS
10
1760.510445
20
-0.000000
30
0
40
256.183651
50
213.114814
51
236.885186
0
ARC
  8
204
  6
CONTINUOUS
10
1760.510445
20
-0.000000
30
0
40
256.183651
50
168.114814
51
191.885186
0
ARC
  8
204
  6
CONTINUOUS
10
1760.510445
20
-0.000000
30
0
40
256.183651
50
123.114814
51
146.885186
0
ARC
  8
204
  6
CONTINUOUS
10
1760.510445
20
-0.000000
30
0
40
103.558824
50
243.628346
51
296.371654
0
LINE
  8
204
  6
CONTINUOUS
10
1714.510445
20
-146.026275
30
0
11
1806.510445
21
-146.0263
31
0
0
LINE
  8
204
  6
CONTINUOUS
10
1806.510445
20
-155.000000
30
0
11
1714.510445
21
-155.0000
31
0
0
POLYLINE
  8
204
  6
CONTINUOUS
 10
0.0
 20
0.0
 30
0.0
 66
   1
 70
   8
  0
VERTEX
  8
204
10
1985.825469
20
-124.187036
30
0.0
 70
  32
  0
VERTEX
  8
204
10
1986.651976
20
-122.428544
30
0.0
 70
  32
  0
VERTEX
  8
204
10
1986.829609
20
-121.748560
30
0.0
 70
  32
  0
VERTEX
  8
204
10
1986.735617
20
-121.536874
30
0.0
 70
  32
  0
SEQEND
0
POLYLINE
  8
204
  6
CONTINUOUS
 10
0.0
 20
0.0
 30
0.0
 66
   1
 70
   8
  0
VERTEX
  8
204
10
1983.807219
20
-126.836979
30
0.0
 70
  32
  0
VERTEX
  8
204
10
1984.441374
20
-126.292569
30
0.0
 70
  32
  0
VERTEX
  8
204
10
1985.825469
20
-124.187036
30
0.0
 70
  32
  0
SEQEND
0
LINE
  8
204
  6
CONTINUOUS
10
1806.510445
20
-121.536977
30
0
11
1986.735635
21
-121.5370
31
0
0
LINE
  8
204
  6
CONTINUOUS
10
1806.510445
20
-126.836977
30
0
11
1983.807231
21
-126.8370
31
0
0
LINE
  8
219
  6
CONTINUOUS
10
1985.825513
20
-124.186977
30
0
11
1806.510445
21
-124.1870
31
0
0
POLYLINE
  8
204
  6
CONTINUOUS
 10
0.0
 20
0.0
 30
0.0
 66
   1
 70
   8
  0
VERTEX
  8
204
10
2069.420937
20
-119.418988
30
0.0
 70
  32
  0
VERTEX
  8
204
10
2068.801714
20
-117.713609
30
0.0
 70
  32
  0
SEQEND
0
POLYLINE
  8
204
  6
CONTINUOUS
 10
0.0
 20
0.0
 30
0.0
 66
   1
 70
   8
  0
VERTEX
  8
204
10
2066.781112
20
-122.068930
30
0.0
 70
  32
  0
VERTEX
  8
204
10
2069.420937
20
-119.418988
30
0.0
 70
  32
  0
SEQEND
0
LINE
  8
206
  6
CENTER
10
-213.996541
20
-1021.143300
30
0
11
1208.132722
21
-1021.1433
31
0
0
LINE
  8
204
  6
CONTINUOUS
10
38.500001
20
-1243.643300
30
0
11
38.500001
21
-1191.6605
31
0
0
LINE
  8
204
  6
CONTINUOUS
10
38.500001
20
-1191.660544
30
0
11
38.500001
21
-868.6261
31
0
0
LINE
  8
204
  6
CONTINUOUS
10
38.500001
20
-868.626055
30
0
11
38.500001
21
-810.6433
31
0
0
LINE
  8
204
  6
CONTINUOUS
10
38.500001
20
-810.643300
30
0
11
96.482758
21
-810.6433
31
0
0
LINE
  8
204
  6
CONTINUOUS
10
96.482758
20
-810.643300
30
0
11
327.517245
21
-810.6433
31
0
0
LINE
  8
204
  6
CONTINUOUS
10
327.517245
20
-810.643300
30
0
11
385.500001
21
-810.6433
31
0
0
LINE
  8
204
  6
CONTINUOUS
10
385.500001
20
-810.643300
30
0
11
385.500001
21
-868.6261
31
0
0
LINE
  8
204
  6
CONTINUOUS
10
385.500001
20
-868.626055
30
0
11
385.500001
21
-1191.6605
31
0
0
LINE
  8
204
  6
CONTINUOUS
10
385.500001
20
-1191.660544
30
0
11
385.500001
21
-1243.6433
31
0
0
LINE
  8
204
  6
CONTINUOUS
10
47.000001
20
-1261.643300
30
0
11
377.000001
21
-1261.6433
31
0
0
LINE
  8
204
  6
CONTINUOUS
10
47.000001
20
-1261.643300
30
0
11
47.000001
21
-1243.6433
31
0
0
LINE
  8
204
  6
CONTINUOUS
10
377.000001
20
-1243.643300
30
0
11
377.000001
21
-1261.6433
31
0
0
LINE
  8
204
  6
CONTINUOUS
10
38.500001
20
-1243.643300
30
0
11
47.000001
21
-1243.6433
31
0
0
LINE
  8
204
  6
CONTINUOUS
10
377.000001
20
-1243.643300
30
0
11
385.500001
21
-1243.6433
31
0
0
LINE
  8
204
  6
CONTINUOUS
10
377.000001
20
-1243.643300
30
0
11
47.000001
21
-1243.6433
31
0
0
LINE
  8
204
  6
CONTINUOUS
10
422.500000
20
-1055.143300
30
0
11
422.500000
21
-1031.1434
31
0
0
LINE
  8
204
  6
CONTINUOUS
10
422.500000
20
-1011.143243
30
0
11
422.500000
21
-987.1433
31
0
0
LINE
  8
204
  6
CONTINUOUS
10
490.500000
20
-1055.143300
30
0
11
422.500000
21
-1055.1433
31
0
0
LINE
  8
204
  6
CONTINUOUS
10
490.500000
20
-987.143300
30
0
11
490.500000
21
-1011.1432
31
0
0
LINE
  8
204
  6
CONTINUOUS
10
490.500000
20
-1031.143358
30
0
11
490.500000
21
-1055.1433
31
0
0
LINE
  8
204
  6
CONTINUOUS
10
422.500000
20
-987.143300
30
0
11
490.500000
21
-987.1433
31
0
0
ARC
  8
204
  6
CONTINUOUS
10
456.500000
20
-1021.143300
30
0
40
25.000000
50
203.578178
51
270.000000
0
ARC
  8
204
  6
CONTINUOUS
10
456.500000
20
-1021.143300
30
0
40
25.000000
50
270.000000
51
336.421822
0
ARC
  8
204
  6
CONTINUOUS
10
456.500000
20
-1021.143300
30
0
40
25.000000
50
23.578178
51
156.421822
0
LINE
  8
204
  6
CONTINUOUS
10
-170.000000
20
-1059.143300
30
0
11
-170.000000
21
-983.1433
31
0
0
LINE
  8
204
  6
CONTINUOUS
10
-168.000000
20
-1010.143300
30
0
11
-168.000000
21
-1032.1433
31
0
0
LINE
  8
204
  6
CONTINUOUS
10
-43.000000
20
-1032.143300
30
0
11
-43.000000
21
-1010.1433
31
0
0
LINE
  8
204
  6
CONTINUOUS
10
-168.000000
20
-1032.143300
30
0
11
-43.000000
21
-1032.1433
31
0
0
LINE
  8
204
  6
CONTINUOUS
10
-168.000000
20
-1010.143300
30
0
11
-43.000000
21
-1010.1433
31
0
0
LINE
  8
204
  6
CONTINUOUS
10
120.500000
20
-1291.794578
30
0
11
120.500000
21
-1261.6433
31
0
0
LINE
  8
204
  6
CONTINUOUS
10
120.500000
20
-1291.794578
30
0
11
120.500000
21
-1336.1433
31
0
0
LINE
  8
204
  6
CONTINUOUS
10
120.500000
20
-706.143300
30
0
11
120.500000
21
-750.4920
31
0
0
LINE
  8
204
  6
CONTINUOUS
10
120.500000
20
-786.438803
30
0
11
120.500000
21
-750.4920
31
0
0
LINE
  8
204
  6
CONTINUOUS
10
120.500000
20
-786.438803
30
0
11
120.500000
21
-788.1516
31
0
0
LINE
  8
204
  6
CONTINUOUS
10
120.500000
20
-788.151616
30
0
11
120.500000
21
-808.6577
31
0
0
LINE
  8
204
  6
CONTINUOUS
10
120.500000
20
-808.657712
30
0
11
120.500000
21
-810.6434
31
0
0
LINE
  8
204
  6
CONTINUOUS
10
120.500000
20
-1327.143300
30
0
11
148.881963
21
-1327.1433
31
0
0
LINE
  8
204
  6
CONTINUOUS
10
148.881963
20
-715.143300
30
0
11
120.500000
21
-715.1433
31
0
0
LINE
  8
204
  6
CONTINUOUS
10
0.000000
20
-1351.143300
30
0
11
0.000000
21
-691.1433
31
0
0
LINE
  8
204
  6
CONTINUOUS
10
0.000000
20
-1351.143300
30
0
11
-0.000000
21
-691.1433
31
0
0
LINE
  8
204
  6
CONTINUOUS
10
-6.000000
20
-980.696795
30
0
11
-6.000000
21
-857.4037
31
0
0
LINE
  8
204
  6
CONTINUOUS
10
-6.000000
20
-1184.882949
30
0
11
-6.000000
21
-1061.5898
31
0
0
LINE
  8
204
  6
CONTINUOUS
10
-6.000000
20
-1293.152639
30
0
11
-6.000000
21
-1242.0829
31
0
0
LINE
  8
204
  6
CONTINUOUS
10
-6.000000
20
-800.203654
30
0
11
-6.000000
21
-749.1340
31
0
0
LINE
  8
204
  6
CONTINUOUS
10
0.000000
20
-1242.082946
30
0
11
-6.000000
21
-1242.0829
31
0
0
LINE
  8
204
  6
CONTINUOUS
10
120.500000
20
-706.143300
30
0
11
28.000000
21
-706.1433
31
0
0
LINE
  8
204
  6
CONTINUOUS
10
28.000000
20
-1336.143300
30
0
11
120.500000
21
-1336.1433
31
0
0
LINE
  8
204
  6
CONTINUOUS
10
28.000000
20
-1351.143300
30
0
11
28.000000
21
-691.1433
31
0
0
LINE
  8
204
  6
CONTINUOUS
10
28.000000
20
-1351.143300
30
0
11
28.000000
21
-691.1433
31
0
0
LINE
  8
204
  6
CONTINUOUS
10
-6.000000
20
-800.203654
30
0
11
0.000000
21
-800.2037
31
0
0
LINE
  8
204
  6
CONTINUOUS
10
668.900000
20
-1232.568228
30
0
11
668.900000
21
-1269.3378
31
0
0
LINE
  8
204
  6
CONTINUOUS
10
668.900000
20
-1230.058161
30
0
11
668.900000
21
-1232.5682
31
0
0
LINE
  8
204
  6
CONTINUOUS
10
720.900000
20
-1232.568228
30
0
11
720.900000
21
-1230.0582
31
0
0
LINE
  8
204
  6
CONTINUOUS
10
720.900000
20
-1269.337780
30
0
11
720.900000
21
-1232.5682
31
0
0
LINE
  8
204
  6
CONTINUOUS
10
668.900000
20
-809.718373
30
0
11
668.900000
21
-812.2284
31
0
0
LINE
  8
204
  6
CONTINUOUS
10
668.900000
20
-772.948820
30
0
11
668.900000
21
-809.7184
31
0
0
LINE
  8
204
  6
CONTINUOUS
10
720.900000
20
-809.718373
30
0
11
720.900000
21
-772.9488
31
0
0
LINE
  8
204
  6
CONTINUOUS
10
720.900000
20
-812.228440
30
0
11
720.900000
21
-809.7184
31
0
0
LINE
  8
204
  6
CONTINUOUS
10
168.100000
20
-1261.643349
30
0
11
168.100000
21
-1269.3378
31
0
0
LINE
  8
204
  6
CONTINUOUS
10
220.100000
20
-1269.337780
30
0
11
220.100000
21
-1261.6433
31
0
0
LINE
  8
204
  6
CONTINUOUS
10
168.100000
20
-809.718373
30
0
11
168.100000
21
-810.6434
31
0
0
LINE
  8
204
  6
CONTINUOUS
10
168.100000
20
-772.948820
30
0
11
168.100000
21
-809.7184
31
0
0
LINE
  8
204
  6
CONTINUOUS
10
220.100000
20
-809.718373
30
0
11
220.100000
21
-772.9488
31
0
0
LINE
  8
204
  6
CONTINUOUS
10
220.100000
20
-810.643423
30
0
11
220.100000
21
-809.7184
31
0
0
LINE
  8
204
  6
CONTINUOUS
10
747.500000
20
-1333.143300
30
0
11
747.500000
21
-709.1433
31
0
0
LINE
  8
204
  6
CONTINUOUS
10
747.500000
20
-1333.143300
30
0
11
747.500000
21
-709.1433
31
0
0
LINE
  8
204
  6
CONTINUOUS
10
1141.500000
20
-1270.143300
30
0
11
1141.500000
21
-772.1433
31
0
0
LINE
  8
204
  6
CONTINUOUS
10
1153.000000
20
-792.643287
30
0
11
1153.000000
21
-779.6433
31
0
0
LINE
  8
204
  6
CONTINUOUS
10
1153.000000
20
-1262.643300
30
0
11
1153.000000
21
-1249.6433
31
0
0
LINE
  8
204
  6
CONTINUOUS
10
1153.000000
20
-1027.643300
30
0
11
1153.000000
21
-1014.6433
31
0
0
LINE
  8
204
  6
CONTINUOUS
10
1153.000000
20
-1027.643300
30
0
11
1153.000000
21
-1014.6433
31
0
0
LINE
  8
204
  6
CONTINUOUS
10
1017.500000
20
-713.143300
30
0
11
1017.500000
21
-1329.1433
31
0
0
POLYLINE
  8
204
  6
CONTINUOUS
 10
0.0
 20
0.0
 30
0.0
 66
   1
 70
   8
  0
VERTEX
  8
204
10
148.600203
20
-810.643300
30
0.0
 70
  32
  0
VERTEX
  8
204
10
148.881804
20
-791.333472
30
0.0
 70
  32
  0
SEQEND
0
POLYLINE
  8
204
  6
CONTINUOUS
 10
0.0
 20
0.0
 30
0.0
 66
   1
 70
   8
  0
VERTEX
  8
204
10
130.500000
20
-791.333596
30
0.0
 70
  32
  0
VERTEX
  8
204
10
130.500049
20
-746.299304
30
0.0
 70
  32
  0
SEQEND
0
POLYLINE
  8
204
  6
CONTINUOUS
 10
0.0
 20
0.0
 30
0.0
 66
   1
 70
   8
  0
VERTEX
  8
204
10
130.500049
20
-746.299304
30
0.0
 70
  32
  0
VERTEX
  8
204
10
148.881804
20
-715.143208
30
0.0
 70
  32
  0
SEQEND
0
LINE
  8
204
  6
CONTINUOUS
10
158.289437
20
-698.643446
30
0
11
148.533530
21
-715.1433
31
0
0
POLYLINE
  8
204
  6
CONTINUOUS
 10
0.0
 20
0.0
 30
0.0
 66
   1
 70
   8
  0
VERTEX
  8
204
10
158.289437
20
-698.840921
30
0.0
 70
  32
  0
VERTEX
  8
204
10
158.289437
20
-700.426701
30
0.0
 70
  32
  0
SEQEND
0
POLYLINE
  8
204
  6
CONTINUOUS
 10
0.0
 20
0.0
 30
0.0
 66
   1
 70
   8
  0
VERTEX
  8
204
10
158.289437
20
-700.426701
30
0.0
 70
  32
  0
VERTEX
  8
204
10
158.289437
20
-703.622198
30
0.0
 70
  32
  0
SEQEND
0
POLYLINE
  8
204
  6
CONTINUOUS
 10
0.0
 20
0.0
 30
0.0
 66
   1
 70
   8
  0
VERTEX
  8
204
10
158.289437
20
-703.622198
30
0.0
 70
  32
  0
VERTEX
  8
204
10
158.289437
20
-708.476614
30
0.0
 70
  32
  0
SEQEND
0
POLYLINE
  8
204
  6
CONTINUOUS
 10
0.0
 20
0.0
 30
0.0
 66
   1
 70
   8
  0
VERTEX
  8
204
10
158.289437
20
-708.476614
30
0.0
 70
  32
  0
VERTEX
  8
204
10
158.289437
20
-715.068740
30
0.0
 70
  32
  0
SEQEND
0
POLYLINE
  8
204
  6
CONTINUOUS
 10
0.0
 20
0.0
 30
0.0
 66
   1
 70
   8
  0
VERTEX
  8
204
10
158.289437
20
-715.068740
30
0.0
 70
  32
  0
VERTEX
  8
204
10
158.289437
20
-723.514267
30
0.0
 70
  32
  0
SEQEND
0
POLYLINE
  8
204
  6
CONTINUOUS
 10
0.0
 20
0.0
 30
0.0
 66
   1
 70
   8
  0
VERTEX
  8
204
10
158.289437
20
-723.514267
30
0.0
 70
  32
  0
VERTEX
  8
204
10
158.289437
20
-733.976428
30
0.0
 70
  32
  0
SEQEND
0
POLYLINE
  8
204
  6
CONTINUOUS
 10
0.0
 20
0.0
 30
0.0
 66
   1
 70
   8
  0
VERTEX
  8
204
10
158.289437
20
-733.976428
30
0.0
 70
  32
  0
VERTEX
  8
204
10
158.289437
20
-746.685942
30
0.0
 70
  32
  0
SEQEND
0
POLYLINE
  8
204
  6
CONTINUOUS
 10
0.0
 20
0.0
 30
0.0
 66
   1
 70
   8
  0
VERTEX
  8
204
10
158.289437
20
-746.685942
30
0.0
 70
  32
  0
VERTEX
  8
204
10
158.289437
20
-761.973264
30
0.0
 70
  32
  0
SEQEND
0
POLYLINE
  8
204
  6
CONTINUOUS
 10
0.0
 20
0.0
 30
0.0
 66
   1
 70
   8
  0
VERTEX
  8
204
10
158.289437
20
-761.973264
30
0.0
 70
  32
  0
VERTEX
  8
204
10
158.289437
20
-793.101434
30
0.0
 70
  32
  0
SEQEND
0
POLYLINE
  8
204
  6
CONTINUOUS
 10
0.0
 20
0.0
 30
0.0
 66
   1
 70
   8
  0
VERTEX
  8
204
10
158.289437
20
-793.101434
30
0.0
 70
  32
  0
VERTEX
  8
204
10
158.289374
20
-810.643300
30
0.0
 70
  32
  0
SEQEND
0
POLYLINE
  8
204
  6
CONTINUOUS
 10
0.0
 20
0.0
 30
0.0
 66
   1
 70
   8
  0
VERTEX
  8
204
10
148.881804
20
-1327.143392
30
0.0
 70
  32
  0
VERTEX
  8
204
10
130.500049
20
-1295.987296
30
0.0
 70
  32
  0
SEQEND
0
POLYLINE
  8
204
  6
CONTINUOUS
 10
0.0
 20
0.0
 30
0.0
 66
   1
 70
   8
  0
VERTEX
  8
204
10
130.500049
20
-1295.987296
30
0.0
 70
  32
  0
VERTEX
  8
204
10
130.500000
20
-1261.643300
30
0.0
 70
  32
  0
SEQEND
0
POLYLINE
  8
204
  6
CONTINUOUS
 10
0.0
 20
0.0
 30
0.0
 66
   1
 70
   8
  0
VERTEX
  8
204
10
158.289374
20
-1261.643300
30
0.0
 70
  32
  0
VERTEX
  8
204
10
158.289437
20
-1280.313337
30
0.0
 70
  32
  0
SEQEND
0
POLYLINE
  8
204
  6
CONTINUOUS
 10
0.0
 20
0.0
 30
0.0
 66
   1
 70
   8
  0
VERTEX
  8
204
10
158.289437
20
-1280.313337
30
0.0
 70
  32
  0
VERTEX
  8
204
10
158.289437
20
-1295.600658
30
0.0
 70
  32
  0
SEQEND
0
POLYLINE
  8
204
  6
CONTINUOUS
 10
0.0
 20
0.0
 30
0.0
 66
   1
 70
   8
  0
VERTEX
  8
204
10
158.289437
20
-1295.600658
30
0.0
 70
  32
  0
VERTEX
  8
204
10
158.289437
20
-1308.310173
30
0.0
 70
  32
  0
SEQEND
0
POLYLINE
  8
204
  6
CONTINUOUS
 10
0.0
 20
0.0
 30
0.0
 66
   1
 70
   8
  0
VERTEX
  8
204
10
158.289437
20
-1308.310173
30
0.0
 70
  32
  0
VERTEX
  8
204
10
158.289437
20
-1318.772334
30
0.0
 70
  32
  0
SEQEND
0
POLYLINE
  8
204
  6
CONTINUOUS
 10
0.0
 20
0.0
 30
0.0
 66
   1
 70
   8
  0
VERTEX
  8
204
10
158.289437
20
-1318.772334
30
0.0
 70
  32
  0
VERTEX
  8
204
10
158.289437
20
-1327.217861
30
0.0
 70
  32
  0
SEQEND
0
POLYLINE
  8
204
  6
CONTINUOUS
 10
0.0
 20
0.0
 30
0.0
 66
   1
 70
   8
  0
VERTEX
  8
204
10
158.289437
20
-1327.217861
30
0.0
 70
  32
  0
VERTEX
  8
204
10
158.289437
20
-1333.809986
30
0.0
 70
  32
  0
SEQEND
0
POLYLINE
  8
204
  6
CONTINUOUS
 10
0.0
 20
0.0
 30
0.0
 66
   1
 70
   8
  0
VERTEX
  8
204
10
158.289437
20
-1333.809986
30
0.0
 70
  32
  0
VERTEX
  8
204
10
158.289437
20
-1338.664403
30
0.0
 70
  32
  0
SEQEND
0
POLYLINE
  8
204
  6
CONTINUOUS
 10
0.0
 20
0.0
 30
0.0
 66
   1
 70
   8
  0
VERTEX
  8
204
10
158.289437
20
-1338.664403
30
0.0
 70
  32
  0
VERTEX
  8
204
10
158.289437
20
-1341.859900
30
0.0
 70
  32
  0
SEQEND
0
POLYLINE
  8
204
  6
CONTINUOUS
 10
0.0
 20
0.0
 30
0.0
 66
   1
 70
   8
  0
VERTEX
  8
204
10
158.289437
20
-1341.859900
30
0.0
 70
  32
  0
VERTEX
  8
204
10
158.289437
20
-1343.445680
30
0.0
 70
  32
  0
SEQEND
0
LINE
  8
204
  6
CONTINUOUS
10
327.517245
20
-810.643299
30
0
11
385.500001
21
-868.6261
31
0
0
LINE
  8
204
  6
CONTINUOUS
10
38.500002
20
-868.626055
30
0
11
96.482758
21
-810.6433
31
0
0
LINE
  8
204
  6
CONTINUOUS
10
385.500001
20
-1191.660544
30
0
11
333.517245
21
-1243.6433
31
0
0
LINE
  8
204
  6
CONTINUOUS
10
90.482758
20
-1243.643300
30
0
11
38.500002
21
-1191.6605
31
0
0
LINE
  8
204
  6
CONTINUOUS
10
327.517245
20
-810.643300
30
0
11
311.831310
21
-884.3120
31
0
0
LINE
  8
204
  6
CONTINUOUS
10
311.831310
20
-884.311991
30
0
11
112.168693
21
-884.3120
31
0
0
LINE
  8
204
  6
CONTINUOUS
10
112.168693
20
-884.311991
30
0
11
96.482758
21
-810.6433
31
0
0
LINE
  8
204
  6
CONTINUOUS
10
311.831310
20
-884.311991
30
0
11
385.500001
21
-868.6261
31
0
0
LINE
  8
204
  6
CONTINUOUS
10
385.500001
20
-1191.660544
30
0
11
311.831310
21
-1175.9746
31
0
0
LINE
  8
204
  6
CONTINUOUS
10
311.831310
20
-1175.974608
30
0
11
311.831310
21
-884.3120
31
0
0
LINE
  8
204
  6
CONTINUOUS
10
112.168693
20
-884.311991
30
0
11
38.500001
21
-868.6261
31
0
0
LINE
  8
204
  6
CONTINUOUS
10
38.500001
20
-1191.660544
30
0
11
112.168693
21
-1175.9746
31
0
0
LINE
  8
204
  6
CONTINUOUS
10
112.168693
20
-1175.974608
30
0
11
112.168693
21
-884.3120
31
0
0
LINE
  8
226
  6
CONTINUOUS
10
164.863730
20
-1032.550977
30
0
11
181.374984
21
-1032.5510
31
0
0
LINE
  8
204
  6
CONTINUOUS
10
181.374984
20
-1032.550977
30
0
11
171.930500
21
-1006.0917
31
0
0
LINE
  8
204
  6
CONTINUOUS
10
171.930500
20
-1006.091664
30
0
11
164.878507
21
-1006.0917
31
0
0
LINE
  8
226
  6
CONTINUOUS
10
164.878507
20
-1006.091664
30
0
11
164.863730
21
-1032.5510
31
0
0
LINE
  8
226
  6
CONTINUOUS
10
164.863730
20
-1032.550977
30
0
11
164.854379
21
-1049.2942
31
0
0
LINE
  8
204
  6
CONTINUOUS
10
164.854379
20
-1049.294242
30
0
11
177.371386
21
-1049.2942
31
0
0
LINE
  8
204
  6
CONTINUOUS
10
177.371386
20
-1049.294242
30
0
11
181.262335
21
-1060.1950
31
0
0
LINE
  8
204
  6
CONTINUOUS
10
181.262335
20
-1060.194977
30
0
11
191.242334
21
-1060.1950
31
0
0
LINE
  8
204
  6
CONTINUOUS
10
191.242334
20
-1060.194977
30
0
11
181.374984
21
-1032.5510
31
0
0
LINE
  8
226
  6
CONTINUOUS
10
148.749034
20
-1032.550977
30
0
11
164.863730
21
-1032.5510
31
0
0
LINE
  8
204
  6
CONTINUOUS
10
164.878507
20
-1006.091664
30
0
11
157.826514
21
-1006.0917
31
0
0
LINE
  8
204
  6
CONTINUOUS
10
157.826514
20
-1006.091664
30
0
11
148.749034
21
-1032.5510
31
0
0
LINE
  8
204
  6
CONTINUOUS
10
148.749034
20
-1032.550977
30
0
11
139.265119
21
-1060.1950
31
0
0
LINE
  8
204
  6
CONTINUOUS
10
139.265119
20
-1060.194977
30
0
11
148.597622
21
-1060.1950
31
0
0
LINE
  8
204
  6
CONTINUOUS
10
148.597622
20
-1060.194977
30
0
11
152.337372
21
-1049.2942
31
0
0
LINE
  8
204
  6
CONTINUOUS
10
152.337372
20
-1049.294242
30
0
11
164.854379
21
-1049.2942
31
0
0
LINE
  8
226
  6
CONTINUOUS
10
216.472512
20
-1032.550977
30
0
11
231.349789
21
-1032.5510
31
0
0
ARC
  8
204
  6
CONTINUOUS
10
220.585304
20
-1045.721232
30
0
40
17.009695
50
50.739736
51
82.128915
0
ARC
  8
204
  6
CONTINUOUS
10
219.635612
20
-1015.733060
30
0
40
13.541735
50
284.013245
51
355.325964
0
ARC
  8
204
  6
CONTINUOUS
10
222.387443
20
-1016.836534
30
0
40
10.744870
50
0.000000
51
90.000000
0
LINE
  8
204
  6
CONTINUOUS
10
222.387443
20
-1006.091664
30
0
11
216.487289
21
-1006.0917
31
0
0
LINE
  8
226
  6
CONTINUOUS
10
216.487289
20
-1006.091664
30
0
11
216.472512
21
-1032.5510
31
0
0
LINE
  8
226
  6
CONTINUOUS
10
216.472512
20
-1032.550977
30
0
11
216.457073
21
-1060.1950
31
0
0
LINE
  8
204
  6
CONTINUOUS
10
216.457073
20
-1060.194977
30
0
11
222.387443
21
-1060.1950
31
0
0
ARC
  8
204
  6
CONTINUOUS
10
222.387443
20
-1045.002608
30
0
40
15.192370
50
270.000000
51
360.000000
0
ARC
  8
204
  6
CONTINUOUS
10
220.585304
20
-1045.721232
30
0
40
17.009695
50
2.421348
51
50.739736
0
LINE
  8
226
  6
CONTINUOUS
10
201.265073
20
-1032.550977
30
0
11
216.472512
21
-1032.5510
31
0
0
LINE
  8
204
  6
CONTINUOUS
10
216.487289
20
-1006.091664
30
0
11
201.265073
21
-1006.0917
31
0
0
LINE
  8
204
  6
CONTINUOUS
10
201.265073
20
-1006.091664
30
0
11
201.265073
21
-1032.5510
31
0
0
LINE
  8
204
  6
CONTINUOUS
10
201.265073
20
-1032.550977
30
0
11
201.265073
21
-1060.1950
31
0
0
LINE
  8
204
  6
CONTINUOUS
10
201.265073
20
-1060.194977
30
0
11
216.457073
21
-1060.1950
31
0
0
LINE
  8
226
  6
CONTINUOUS
10
262.726512
20
-1032.550977
30
0
11
277.603789
21
-1032.5510
31
0
0
ARC
  8
204
  6
CONTINUOUS
10
266.839304
20
-1045.721232
30
0
40
17.009695
50
50.739736
51
82.128915
0
ARC
  8
204
  6
CONTINUOUS
10
265.889612
20
-1015.733060
30
0
40
13.541735
50
284.013245
51
355.325964
0
ARC
  8
204
  6
CONTINUOUS
10
268.641443
20
-1016.836534
30
0
40
10.744870
50
0.000000
51
90.000000
0
LINE
  8
204
  6
CONTINUOUS
10
268.641443
20
-1006.091664
30
0
11
262.741289
21
-1006.0917
31
0
0
LINE
  8
226
  6
CONTINUOUS
10
262.741289
20
-1006.091664
30
0
11
262.726512
21
-1032.5510
31
0
0
LINE
  8
226
  6
CONTINUOUS
10
262.726512
20
-1032.550977
30
0
11
262.711073
21
-1060.1950
31
0
0
LINE
  8
204
  6
CONTINUOUS
10
262.711073
20
-1060.194977
30
0
11
268.641443
21
-1060.1950
31
0
0
ARC
  8
204
  6
CONTINUOUS
10
268.641443
20
-1045.002608
30
0
40
15.192370
50
270.000000
51
360.000000
0
ARC
  8
204
  6
CONTINUOUS
10
266.839304
20
-1045.721232
30
0
40
17.009695
50
2.421348
51
50.739736
0
LINE
  8
226
  6
CONTINUOUS
10
247.519073
20
-1032.550977
30
0
11
262.726512
21
-1032.5510
31
0
0
LINE
  8
204
  6
CONTINUOUS
10
262.741289
20
-1006.091664
30
0
11
247.519073
21
-1006.0917
31
0
0
LINE
  8
204
  6
CONTINUOUS
10
247.519073
20
-1006.091664
30
0
11
247.519073
21
-1032.5510
31
0
0
LINE
  8
204
  6
CONTINUOUS
10
247.519073
20
-1032.550977
30
0
11
247.519073
21
-1060.1950
31
0
0
LINE
  8
204
  6
CONTINUOUS
10
247.519073
20
-1060.194977
30
0
11
262.711073
21
-1060.1950
31
0
0
LINE
  8
204
  6
CONTINUOUS
10
173.761443
20
-1003.494034
30
0
11
194.927693
21
-1062.7926
31
0
0
LINE
  8
204
  6
CONTINUOUS
10
171.930500
20
-1006.091664
30
0
11
173.761443
21
-1003.4940
31
0
0
LINE
  8
204
  6
CONTINUOUS
10
194.927693
20
-1062.792608
30
0
11
191.242334
21
-1060.1950
31
0
0
LINE
  8
204
  6
CONTINUOUS
10
135.627693
20
-1062.792608
30
0
11
155.971443
21
-1003.4940
31
0
0
LINE
  8
204
  6
CONTINUOUS
10
139.265119
20
-1060.194977
30
0
11
135.627693
21
-1062.7926
31
0
0
LINE
  8
204
  6
CONTINUOUS
10
155.971443
20
-1003.494034
30
0
11
157.826514
21
-1006.0917
31
0
0
ARC
  8
204
  6
CONTINUOUS
10
222.387443
20
-1045.002608
30
0
40
17.790000
50
0.000000
51
68.402333
0
LINE
  8
204
  6
CONTINUOUS
10
222.914691
20
-1028.871790
30
0
11
228.935705
21
-1028.4616
31
0
0
LINE
  8
219
  6
CONTINUOUS
10
240.177443
20
-1045.002608
30
0
11
237.579813
21
-1045.0026
31
0
0
LINE
  8
204
  6
CONTINUOUS
10
198.667443
20
-1062.792608
30
0
11
198.667443
21
-1003.4940
31
0
0
LINE
  8
204
  6
CONTINUOUS
10
198.667443
20
-1062.792608
30
0
11
201.265073
21
-1060.1950
31
0
0
LINE
  8
204
  6
CONTINUOUS
10
201.265073
20
-1006.091664
30
0
11
198.667443
21
-1003.4940
31
0
0
ARC
  8
204
  6
CONTINUOUS
10
268.641443
20
-1045.002608
30
0
40
17.790000
50
0.000000
51
68.402333
0
LINE
  8
204
  6
CONTINUOUS
10
269.168691
20
-1028.871790
30
0
11
275.189705
21
-1028.4616
31
0
0
LINE
  8
219
  6
CONTINUOUS
10
286.431443
20
-1045.002608
30
0
11
283.833813
21
-1045.0026
31
0
0
LINE
  8
204
  6
CONTINUOUS
10
244.921443
20
-1062.792608
30
0
11
244.921443
21
-1003.4940
31
0
0
LINE
  8
204
  6
CONTINUOUS
10
244.921443
20
-1062.792608
30
0
11
247.519073
21
-1060.1950
31
0
0
LINE
  8
204
  6
CONTINUOUS
10
247.519073
20
-1006.091664
30
0
11
244.921443
21
-1003.4940
31
0
0
LINE
  8
204
  6
CONTINUOUS
10
194.927693
20
-1062.792608
30
0
11
179.431391
21
-1062.7926
31
0
0
LINE
  8
204
  6
CONTINUOUS
10
179.431391
20
-1062.792608
30
0
11
181.262335
21
-1060.1950
31
0
0
LINE
  8
204
  6
CONTINUOUS
10
179.431391
20
-1062.792608
30
0
11
175.540443
21
-1051.8919
31
0
0
LINE
  8
204
  6
CONTINUOUS
10
175.540443
20
-1051.891872
30
0
11
177.371386
21
-1049.2942
31
0
0
LINE
  8
204
  6
CONTINUOUS
10
154.192443
20
-1051.891872
30
0
11
150.452693
21
-1062.7926
31
0
0
LINE
  8
204
  6
CONTINUOUS
10
152.337372
20
-1049.294242
30
0
11
154.192443
21
-1051.8919
31
0
0
LINE
  8
204
  6
CONTINUOUS
10
148.597622
20
-1060.194977
30
0
11
150.452693
21
-1062.7926
31
0
0
LINE
  8
204
  6
CONTINUOUS
10
150.452693
20
-1062.792608
30
0
11
135.627693
21
-1062.7926
31
0
0
ARC
  8
204
  6
CONTINUOUS
10
222.387443
20
-1016.836534
30
0
40
13.342500
50
0.000000
51
90.000000
0
LINE
  8
226
  6
CONTINUOUS
10
222.387443
20
-1003.494034
30
0
11
222.387443
21
-1006.0917
31
0
0
LINE
  8
219
  6
CONTINUOUS
10
235.729943
20
-1016.836534
30
0
11
233.132313
21
-1016.8365
31
0
0
ARC
  8
204
  6
CONTINUOUS
10
222.387443
20
-1016.836534
30
0
40
13.342500
50
299.392010
51
360.000000
0
ARC
  8
204
  6
CONTINUOUS
10
222.387443
20
-1045.002608
30
0
40
17.790000
50
270.000000
51
360.000000
0
LINE
  8
226
  6
CONTINUOUS
10
222.387443
20
-1060.194977
30
0
11
222.387443
21
-1062.7926
31
0
0
ARC
  8
204
  6
CONTINUOUS
10
268.641443
20
-1045.002608
30
0
40
17.790000
50
270.000000
51
360.000000
0
LINE
  8
226
  6
CONTINUOUS
10
268.641443
20
-1060.194977
30
0
11
268.641443
21
-1062.7926
31
0
0
ARC
  8
204
  6
CONTINUOUS
10
268.641443
20
-1016.836534
30
0
40
13.342500
50
299.392010
51
360.000000
0
LINE
  8
219
  6
CONTINUOUS
10
281.983943
20
-1016.836534
30
0
11
279.386313
21
-1016.8365
31
0
0
ARC
  8
204
  6
CONTINUOUS
10
268.641443
20
-1016.836534
30
0
40
13.342500
50
0.000000
51
90.000000
0
LINE
  8
226
  6
CONTINUOUS
10
268.641443
20
-1003.494034
30
0
11
268.641443
21
-1006.0917
31
0
0
LINE
  8
204
  6
CONTINUOUS
10
155.971443
20
-1003.494034
30
0
11
173.761443
21
-1003.4940
31
0
0
LINE
  8
204
  6
CONTINUOUS
10
175.540443
20
-1051.891872
30
0
11
154.192443
21
-1051.8919
31
0
0
LINE
  8
204
  6
CONTINUOUS
10
198.667443
20
-1003.494034
30
0
11
222.387443
21
-1003.4940
31
0
0
LINE
  8
204
  6
CONTINUOUS
10
222.387443
20
-1062.792608
30
0
11
198.667443
21
-1062.7926
31
0
0
LINE
  8
204
  6
CONTINUOUS
10
244.921443
20
-1003.494034
30
0
11
268.641443
21
-1003.4940
31
0
0
LINE
  8
204
  6
CONTINUOUS
10
268.641443
20
-1062.792608
30
0
11
244.921443
21
-1062.7926
31
0
0
LINE
  8
204
  6
CONTINUOUS
10
112.168693
20
-1175.974608
30
0
11
311.831310
21
-1175.9746
31
0
0
LINE
  8
204
  6
CONTINUOUS
10
326.239692
20
-1243.643300
30
0
11
311.831310
21
-1175.9746
31
0
0
LINE
  8
204
  6
CONTINUOUS
10
112.168693
20
-1175.974608
30
0
11
97.760310
21
-1243.6433
31
0
0
ARC
  8
204
  6
CONTINUOUS
10
421.500000
20
-1021.143300
30
0
40
10.000000
50
90.000000
51
180.000000
0
LINE
  8
204
  6
CONTINUOUS
10
491.500000
20
-1011.143300
30
0
11
421.500000
21
-1011.1433
31
0
0
LINE
  8
204
  6
CONTINUOUS
10
421.500000
20
-1031.143300
30
0
11
491.500000
21
-1031.1433
31
0
0
ARC
  8
204
  6
CONTINUOUS
10
421.500000
20
-1021.143300
30
0
40
10.000000
50
180.000000
51
270.000000
0
ARC
  8
204
  6
CONTINUOUS
10
491.500000
20
-1021.143300
30
0
40
10.000000
50
0.000000
51
90.000000
0
ARC
  8
204
  6
CONTINUOUS
10
491.500000
20
-1021.143300
30
0
40
10.000000
50
270.000000
51
359.900000
0
LINE
  8
204
  6
CONTINUOUS
10
-168.000000
20
-1061.143197
30
0
11
-170.000011
21
-1059.1432
31
0
0
LINE
  8
204
  6
CONTINUOUS
10
-168.000000
20
-981.143403
30
0
11
-170.000011
21
-983.1434
31
0
0
POLYLINE
  8
204
  6
CONTINUOUS
 10
0.0
 20
0.0
 30
0.0
 66
   1
 70
   8
  0
VERTEX
  8
204
10
-168.000000
20
-1032.143363
30
0.0
 70
  32
  0
VERTEX
  8
204
10
-168.000000
20
-1061.143197
30
0.0
 70
  32
  0
SEQEND
0
POLYLINE
  8
204
  6
CONTINUOUS
 10
0.0
 20
0.0
 30
0.0
 66
   1
 70
   8
  0
VERTEX
  8
204
10
-168.000000
20
-981.143403
30
0.0
 70
  32
  0
VERTEX
  8
204
10
-168.000000
20
-1010.143237
30
0.0
 70
  32
  0
SEQEND
0
LINE
  8
204
  6
CONTINUOUS
10
-0.000000
20
-1061.143300
30
0
11
-168.000000
21
-1061.1433
31
0
0
LINE
  8
204
  6
CONTINUOUS
10
-0.000000
20
-981.143300
30
0
11
-168.000000
21
-981.1433
31
0
0
LINE
  8
204
  6
CONTINUOUS
10
130.500000
20
-1295.987347
30
0
11
120.500000
21
-1295.9873
31
0
0
LINE
  8
204
  6
CONTINUOUS
10
120.500000
20
-746.299254
30
0
11
130.500000
21
-746.2993
31
0
0
LINE
  8
204
  6
CONTINUOUS
10
120.500000
20
-791.333596
30
0
11
148.881963
21
-791.3336
31
0
0
LINE
  8
204
  6
CONTINUOUS
10
0.000000
20
-1061.589806
30
0
11
-6.000000
21
-1061.5898
31
0
0
LINE
  8
204
  6
CONTINUOUS
10
-6.000000
20
-980.696795
30
0
11
0.000000
21
-980.6968
31
0
0
POLYLINE
  8
204
  6
CONTINUOUS
 10
0.0
 20
0.0
 30
0.0
 66
   1
 70
   8
  0
VERTEX
  8
204
10
-6.000068
20
-1242.083064
30
0.0
 70
  32
  0
VERTEX
  8
204
10
-0.000034
20
-1241.319416
30
0.0
 70
  32
  0
SEQEND
0
LINE
  8
204
  6
CONTINUOUS
10
-6.000000
20
-1184.882949
30
0
11
0.000000
21
-1184.8829
31
0
0
LINE
  8
204
  6
CONTINUOUS
10
-6.000000
20
-1293.152639
30
0
11
0.000000
21
-1293.1526
31
0
0
LINE
  8
204
  6
CONTINUOUS
10
0.000000
20
-749.133962
30
0
11
-6.000000
21
-749.1340
31
0
0
LINE
  8
204
  6
CONTINUOUS
10
0.000000
20
-857.403651
30
0
11
-6.000000
21
-857.4037
31
0
0
LINE
  8
204
  6
CONTINUOUS
10
38.500001
20
-1035.643300
30
0
11
28.000000
21
-1035.6433
31
0
0
POLYLINE
  8
204
  6
CONTINUOUS
 10
0.0
 20
0.0
 30
0.0
 66
   1
 70
   8
  0
VERTEX
  8
204
10
38.500001
20
-1097.357197
30
0.0
 70
  32
  0
VERTEX
  8
204
10
28.000127
20
-1094.428960
30
0.0
 70
  32
  0
SEQEND
0
POLYLINE
  8
204
  6
CONTINUOUS
 10
0.0
 20
0.0
 30
0.0
 66
   1
 70
   8
  0
VERTEX
  8
204
10
28.000127
20
-947.857641
30
0.0
 70
  32
  0
VERTEX
  8
204
10
38.500001
20
-944.929403
30
0.0
 70
  32
  0
SEQEND
0
LINE
  8
204
  6
CONTINUOUS
10
28.000000
20
-1006.643300
30
0
11
38.500001
21
-1006.6433
31
0
0
LINE
  8
204
  6
CONTINUOUS
10
120.500000
20
-808.657712
30
0
11
28.000000
21
-808.6577
31
0
0
POLYLINE
  8
204
  6
CONTINUOUS
 10
0.0
 20
0.0
 30
0.0
 66
   1
 70
   8
  0
VERTEX
  8
204
10
38.500001
20
-893.674303
30
0.0
 70
  32
  0
VERTEX
  8
204
10
28.000127
20
-889.640552
30
0.0
 70
  32
  0
SEQEND
0
LINE
  8
204
  6
CONTINUOUS
10
91.500000
20
-786.438803
30
0
11
120.500000
21
-786.4388
31
0
0
POLYLINE
  8
204
  6
CONTINUOUS
 10
0.0
 20
0.0
 30
0.0
 66
   1
 70
   8
  0
VERTEX
  8
204
10
61.499986
20
-785.645939
30
0.0
 70
  32
  0
VERTEX
  8
204
10
91.500158
20
-786.438830
30
0.0
 70
  32
  0
SEQEND
0
POLYLINE
  8
204
  6
CONTINUOUS
 10
0.0
 20
0.0
 30
0.0
 66
   1
 70
   8
  0
VERTEX
  8
204
10
28.000127
20
-785.998668
30
0.0
 70
  32
  0
VERTEX
  8
204
10
61.499986
20
-785.645939
30
0.0
 70
  32
  0
SEQEND
0
LINE
  8
204
  6
CONTINUOUS
10
28.000000
20
-788.151616
30
0
11
120.500000
21
-788.1516
31
0
0
LINE
  8
204
  6
CONTINUOUS
10
120.500000
20
-750.492023
30
0
11
91.500000
21
-750.4920
31
0
0
POLYLINE
  8
204
  6
CONTINUOUS
 10
0.0
 20
0.0
 30
0.0
 66
   1
 70
   8
  0
VERTEX
  8
204
10
61.499986
20
-771.018528
30
0.0
 70
  32
  0
VERTEX
  8
204
10
28.000127
20
-761.884500
30
0.0
 70
  32
  0
SEQEND
0
POLYLINE
  8
204
  6
CONTINUOUS
 10
0.0
 20
0.0
 30
0.0
 66
   1
 70
   8
  0
VERTEX
  8
204
10
91.500158
20
-750.492147
30
0.0
 70
  32
  0
VERTEX
  8
204
10
61.499986
20
-771.018528
30
0.0
 70
  32
  0
SEQEND
0
LINE
  8
204
  6
CONTINUOUS
10
91.500000
20
-1291.794578
30
0
11
120.500000
21
-1291.7946
31
0
0
POLYLINE
  8
204
  6
CONTINUOUS
 10
0.0
 20
0.0
 30
0.0
 66
   1
 70
   8
  0
VERTEX
  8
204
10
61.499986
20
-1271.268072
30
0.0
 70
  32
  0
VERTEX
  8
204
10
91.500158
20
-1291.794453
30
0.0
 70
  32
  0
SEQEND
0
POLYLINE
  8
204
  6
CONTINUOUS
 10
0.0
 20
0.0
 30
0.0
 66
   1
 70
   8
  0
VERTEX
  8
204
10
28.000127
20
-1280.402100
30
0.0
 70
  32
  0
VERTEX
  8
204
10
61.499986
20
-1271.268072
30
0.0
 70
  32
  0
SEQEND
0
LINE
  8
204
  6
CONTINUOUS
10
47.000001
20
-1254.134985
30
0
11
28.000000
21
-1254.1350
31
0
0
POLYLINE
  8
204
  6
CONTINUOUS
 10
0.0
 20
0.0
 30
0.0
 66
   1
 70
   8
  0
VERTEX
  8
204
10
47.000001
20
-1256.483954
30
0.0
 70
  32
  0
VERTEX
  8
204
10
28.000127
20
-1256.287933
30
0.0
 70
  32
  0
SEQEND
0
POLYLINE
  8
204
  6
CONTINUOUS
 10
0.0
 20
0.0
 30
0.0
 66
   1
 70
   8
  0
VERTEX
  8
204
10
28.000127
20
-1152.646049
30
0.0
 70
  32
  0
VERTEX
  8
204
10
38.500001
20
-1148.612297
30
0.0
 70
  32
  0
SEQEND
0
LINE
  8
204
  6
CONTINUOUS
10
28.000000
20
-1233.628888
30
0
11
38.500001
21
-1233.6289
31
0
0
POLYLINE
  8
204
  6
CONTINUOUS
 10
0.0
 20
0.0
 30
0.0
 66
   1
 70
   8
  0
VERTEX
  8
204
10
61.499986
20
-1271.268072
30
0.0
 70
  32
  0
VERTEX
  8
204
10
61.500000
20
-1261.643300
30
0.0
 70
  32
  0
SEQEND
0
POLYLINE
  8
204
  6
CONTINUOUS
 10
0.0
 20
0.0
 30
0.0
 66
   1
 70
   8
  0
VERTEX
  8
204
10
61.499986
20
-785.645939
30
0.0
 70
  32
  0
VERTEX
  8
204
10
61.499986
20
-771.018528
30
0.0
 70
  32
  0
SEQEND
0
POLYLINE
  8
204
  6
CONTINUOUS
 10
0.0
 20
0.0
 30
0.0
 66
   1
 70
   8
  0
VERTEX
  8
204
10
91.500158
20
-1291.794453
30
0.0
 70
  32
  0
VERTEX
  8
204
10
91.500000
20
-1261.643300
30
0.0
 70
  32
  0
SEQEND
0
POLYLINE
  8
204
  6
CONTINUOUS
 10
0.0
 20
0.0
 30
0.0
 66
   1
 70
   8
  0
VERTEX
  8
204
10
91.500158
20
-786.438830
30
0.0
 70
  32
  0
VERTEX
  8
204
10
91.500158
20
-750.492147
30
0.0
 70
  32
  0
SEQEND
0
LINE
  8
204
  6
CONTINUOUS
10
-0.000000
20
-1351.143300
30
0
11
28.000000
21
-1351.1433
31
0
0
LINE
  8
204
  6
CONTINUOUS
10
28.000000
20
-691.143300
30
0
11
-0.000000
21
-691.1433
31
0
0
POLYLINE
  8
204
  6
CONTINUOUS
 10
0.0
 20
0.0
 30
0.0
 66
   1
 70
   8
  0
VERTEX
  8
204
10
-0.000034
20
-800.967184
30
0.0
 70
  32
  0
VERTEX
  8
204
10
-6.000068
20
-800.203536
30
0.0
 70
  32
  0
SEQEND
0
LINE
  8
204
  6
CONTINUOUS
10
720.900000
20
-1269.337780
30
0
11
668.900000
21
-1269.3378
31
0
0
LINE
  8
204
  6
CONTINUOUS
10
668.900000
20
-1230.058161
30
0
11
720.900000
21
-1230.0582
31
0
0
LINE
  8
204
  6
CONTINUOUS
10
720.900000
20
-1232.568228
30
0
11
668.900000
21
-1232.5682
31
0
0
LINE
  8
204
  6
CONTINUOUS
10
720.900000
20
-812.228440
30
0
11
668.900000
21
-812.2284
31
0
0
LINE
  8
204
  6
CONTINUOUS
10
720.900000
20
-809.718373
30
0
11
668.900000
21
-809.7184
31
0
0
LINE
  8
204
  6
CONTINUOUS
10
720.900000
20
-772.948820
30
0
11
668.900000
21
-772.9488
31
0
0
LINE
  8
204
  6
CONTINUOUS
10
168.100000
20
-1269.337780
30
0
11
220.100000
21
-1269.3378
31
0
0
LINE
  8
204
  6
CONTINUOUS
10
168.100000
20
-809.718373
30
0
11
220.100000
21
-809.7184
31
0
0
LINE
  8
204
  6
CONTINUOUS
10
168.100000
20
-772.948820
30
0
11
220.100000
21
-772.9488
31
0
0
LINE
  8
204
  6
CONTINUOUS
10
158.289437
20
-1343.643300
30
0
11
730.710605
21
-1343.6433
31
0
0
LINE
  8
219
  6
CONTINUOUS
10
158.289374
20
-1343.445621
30
0
11
730.710626
21
-1343.4456
31
0
0
POLYLINE
  8
204
  6
CONTINUOUS
 10
0.0
 20
0.0
 30
0.0
 66
   1
 70
   8
  0
VERTEX
  8
204
10
730.710605
20
-1343.445680
30
0.0
 70
  32
  0
VERTEX
  8
204
10
730.710605
20
-1341.859900
30
0.0
 70
  32
  0
SEQEND
0
LINE
  8
219
  6
CONTINUOUS
10
730.710626
20
-1341.859800
30
0
11
158.289374
21
-1341.8598
31
0
0
POLYLINE
  8
204
  6
CONTINUOUS
 10
0.0
 20
0.0
 30
0.0
 66
   1
 70
   8
  0
VERTEX
  8
204
10
730.710605
20
-1341.859900
30
0.0
 70
  32
  0
VERTEX
  8
204
10
730.710605
20
-1338.664403
30
0.0
 70
  32
  0
SEQEND
0
LINE
  8
219
  6
CONTINUOUS
10
730.710626
20
-1338.664398
30
0
11
158.289374
21
-1338.6644
31
0
0
POLYLINE
  8
204
  6
CONTINUOUS
 10
0.0
 20
0.0
 30
0.0
 66
   1
 70
   8
  0
VERTEX
  8
204
10
730.710605
20
-1338.664403
30
0.0
 70
  32
  0
VERTEX
  8
204
10
730.710605
20
-1333.809986
30
0.0
 70
  32
  0
SEQEND
0
LINE
  8
219
  6
CONTINUOUS
10
730.710626
20
-1333.810070
30
0
11
158.289374
21
-1333.8101
31
0
0
POLYLINE
  8
204
  6
CONTINUOUS
 10
0.0
 20
0.0
 30
0.0
 66
   1
 70
   8
  0
VERTEX
  8
204
10
730.710605
20
-1333.809986
30
0.0
 70
  32
  0
VERTEX
  8
204
10
730.710605
20
-1327.217861
30
0.0
 70
  32
  0
SEQEND
0
LINE
  8
219
  6
CONTINUOUS
10
730.710626
20
-1327.217896
30
0
11
158.289374
21
-1327.2179
31
0
0
POLYLINE
  8
204
  6
CONTINUOUS
 10
0.0
 20
0.0
 30
0.0
 66
   1
 70
   8
  0
VERTEX
  8
204
10
730.710605
20
-1327.217861
30
0.0
 70
  32
  0
VERTEX
  8
204
10
730.710605
20
-1318.772334
30
0.0
 70
  32
  0
SEQEND
0
LINE
  8
219
  6
CONTINUOUS
10
730.710626
20
-1318.772422
30
0
11
158.289374
21
-1318.7724
31
0
0
POLYLINE
  8
204
  6
CONTINUOUS
 10
0.0
 20
0.0
 30
0.0
 66
   1
 70
   8
  0
VERTEX
  8
204
10
730.710605
20
-1318.772334
30
0.0
 70
  32
  0
VERTEX
  8
204
10
730.710605
20
-1308.310173
30
0.0
 70
  32
  0
SEQEND
0
LINE
  8
219
  6
CONTINUOUS
10
730.710626
20
-1308.310180
30
0
11
158.289374
21
-1308.3102
31
0
0
POLYLINE
  8
204
  6
CONTINUOUS
 10
0.0
 20
0.0
 30
0.0
 66
   1
 70
   8
  0
VERTEX
  8
204
10
730.710605
20
-1308.310173
30
0.0
 70
  32
  0
VERTEX
  8
204
10
730.710605
20
-1295.600658
30
0.0
 70
  32
  0
SEQEND
0
LINE
  8
219
  6
CONTINUOUS
10
730.710626
20
-1295.600633
30
0
11
158.289374
21
-1295.6006
31
0
0
POLYLINE
  8
204
  6
CONTINUOUS
 10
0.0
 20
0.0
 30
0.0
 66
   1
 70
   8
  0
VERTEX
  8
204
10
730.710605
20
-1295.600658
30
0.0
 70
  32
  0
VERTEX
  8
204
10
730.710605
20
-1280.313337
30
0.0
 70
  32
  0
SEQEND
0
LINE
  8
219
  6
CONTINUOUS
10
730.710626
20
-1280.313370
30
0
11
158.289374
21
-1280.3134
31
0
0
POLYLINE
  8
204
  6
CONTINUOUS
 10
0.0
 20
0.0
 30
0.0
 66
   1
 70
   8
  0
VERTEX
  8
204
10
730.710605
20
-1280.313337
30
0.0
 70
  32
  0
VERTEX
  8
204
10
730.710605
20
-1249.185166
30
0.0
 70
  32
  0
SEQEND
0
LINE
  8
219
  6
CONTINUOUS
10
730.710626
20
-1249.185237
30
0
11
720.900000
21
-1249.1852
31
0
0
LINE
  8
219
  6
CONTINUOUS
10
668.900000
20
-1249.185237
30
0
11
377.000001
21
-1249.1852
31
0
0
POLYLINE
  8
204
  6
CONTINUOUS
 10
0.0
 20
0.0
 30
0.0
 66
   1
 70
   8
  0
VERTEX
  8
204
10
730.710605
20
-1249.185166
30
0.0
 70
  32
  0
VERTEX
  8
204
10
730.710605
20
-1213.073257
30
0.0
 70
  32
  0
SEQEND
0
LINE
  8
219
  6
CONTINUOUS
10
730.710626
20
-1213.073300
30
0
11
385.500001
21
-1213.0733
31
0
0
LINE
  8
219
  6
CONTINUOUS
10
730.710626
20
-1190.493300
30
0
11
385.500001
21
-1190.4933
31
0
0
POLYLINE
  8
204
  6
CONTINUOUS
 10
0.0
 20
0.0
 30
0.0
 66
   1
 70
   8
  0
VERTEX
  8
204
10
730.710605
20
-1213.073257
30
0.0
 70
  32
  0
VERTEX
  8
204
10
730.710605
20
-1190.493340
30
0.0
 70
  32
  0
SEQEND
0
LINE
  8
219
  6
CONTINUOUS
10
730.710626
20
-1167.913300
30
0
11
385.500001
21
-1167.9133
31
0
0
POLYLINE
  8
204
  6
CONTINUOUS
 10
0.0
 20
0.0
 30
0.0
 66
   1
 70
   8
  0
VERTEX
  8
204
10
730.710605
20
-1190.493340
30
0.0
 70
  32
  0
VERTEX
  8
204
10
730.710605
20
-1167.913424
30
0.0
 70
  32
  0
SEQEND
0
LINE
  8
219
  6
CONTINUOUS
10
730.710626
20
-1145.333300
30
0
11
385.500001
21
-1145.3333
31
0
0
POLYLINE
  8
204
  6
CONTINUOUS
 10
0.0
 20
0.0
 30
0.0
 66
   1
 70
   8
  0
VERTEX
  8
204
10
730.710605
20
-1167.913424
30
0.0
 70
  32
  0
VERTEX
  8
204
10
730.710605
20
-1145.333174
30
0.0
 70
  32
  0
SEQEND
0
LINE
  8
219
  6
CONTINUOUS
10
730.710626
20
-1122.753300
30
0
11
385.500001
21
-1122.7533
31
0
0
POLYLINE
  8
204
  6
CONTINUOUS
 10
0.0
 20
0.0
 30
0.0
 66
   1
 70
   8
  0
VERTEX
  8
204
10
730.710605
20
-1145.333174
30
0.0
 70
  32
  0
VERTEX
  8
204
10
730.710605
20
-1122.753258
30
0.0
 70
  32
  0
SEQEND
0
LINE
  8
219
  6
CONTINUOUS
10
730.710626
20
-1100.173300
30
0
11
385.500001
21
-1100.1733
31
0
0
POLYLINE
  8
204
  6
CONTINUOUS
 10
0.0
 20
0.0
 30
0.0
 66
   1
 70
   8
  0
VERTEX
  8
204
10
730.710605
20
-1122.753258
30
0.0
 70
  32
  0
VERTEX
  8
204
10
730.710605
20
-1100.173341
30
0.0
 70
  32
  0
SEQEND
0
LINE
  8
219
  6
CONTINUOUS
10
730.710626
20
-919.533300
30
0
11
385.500001
21
-919.5333
31
0
0
LINE
  8
219
  6
CONTINUOUS
10
385.500001
20
-942.113300
30
0
11
730.710626
21
-942.1133
31
0
0
POLYLINE
  8
204
  6
CONTINUOUS
 10
0.0
 20
0.0
 30
0.0
 66
   1
 70
   8
  0
VERTEX
  8
204
10
730.710605
20
-942.113259
30
0.0
 70
  32
  0
VERTEX
  8
204
10
730.710605
20
-919.533343
30
0.0
 70
  32
  0
SEQEND
0
LINE
  8
219
  6
CONTINUOUS
10
730.710626
20
-896.953300
30
0
11
385.500001
21
-896.9533
31
0
0
POLYLINE
  8
204
  6
CONTINUOUS
 10
0.0
 20
0.0
 30
0.0
 66
   1
 70
   8
  0
VERTEX
  8
204
10
730.710605
20
-919.533343
30
0.0
 70
  32
  0
VERTEX
  8
204
10
730.710605
20
-896.953426
30
0.0
 70
  32
  0
SEQEND
0
LINE
  8
219
  6
CONTINUOUS
10
730.710626
20
-874.373300
30
0
11
385.500001
21
-874.3733
31
0
0
POLYLINE
  8
204
  6
CONTINUOUS
 10
0.0
 20
0.0
 30
0.0
 66
   1
 70
   8
  0
VERTEX
  8
204
10
730.710605
20
-896.953426
30
0.0
 70
  32
  0
VERTEX
  8
204
10
730.710605
20
-874.373177
30
0.0
 70
  32
  0
SEQEND
0
LINE
  8
219
  6
CONTINUOUS
10
730.710626
20
-851.793300
30
0
11
385.500001
21
-851.7933
31
0
0
POLYLINE
  8
204
  6
CONTINUOUS
 10
0.0
 20
0.0
 30
0.0
 66
   1
 70
   8
  0
VERTEX
  8
204
10
730.710605
20
-874.373177
30
0.0
 70
  32
  0
VERTEX
  8
204
10
730.710626
20
-859.893300
30
0.0
 70
  32
  0
VERTEX
  8
204
10
730.710605
20
-851.793260
30
0.0
 70
  32
  0
SEQEND
0
LINE
  8
219
  6
CONTINUOUS
10
730.710626
20
-829.213300
30
0
11
385.500001
21
-829.2133
31
0
0
POLYLINE
  8
204
  6
CONTINUOUS
 10
0.0
 20
0.0
 30
0.0
 66
   1
 70
   8
  0
VERTEX
  8
204
10
730.710605
20
-851.793260
30
0.0
 70
  32
  0
VERTEX
  8
204
10
730.710605
20
-829.213343
30
0.0
 70
  32
  0
SEQEND
0
LINE
  8
219
  6
CONTINUOUS
10
158.289374
20
-793.101363
30
0
11
168.100000
21
-793.1014
31
0
0
LINE
  8
219
  6
CONTINUOUS
10
220.100000
20
-793.101363
30
0
11
668.900000
21
-793.1014
31
0
0
LINE
  8
219
  6
CONTINUOUS
10
720.900000
20
-793.101363
30
0
11
730.710626
21
-793.1014
31
0
0
POLYLINE
  8
204
  6
CONTINUOUS
 10
0.0
 20
0.0
 30
0.0
 66
   1
 70
   8
  0
VERTEX
  8
204
10
730.710605
20
-793.101434
30
0.0
 70
  32
  0
VERTEX
  8
204
10
730.710605
20
-761.973264
30
0.0
 70
  32
  0
SEQEND
0
LINE
  8
219
  6
CONTINUOUS
10
730.710626
20
-761.973230
30
0
11
158.289374
21
-761.9732
31
0
0
LINE
  8
219
  6
CONTINUOUS
10
730.710626
20
-746.685967
30
0
11
158.289374
21
-746.6860
31
0
0
POLYLINE
  8
204
  6
CONTINUOUS
 10
0.0
 20
0.0
 30
0.0
 66
   1
 70
   8
  0
VERTEX
  8
204
10
730.710605
20
-761.973264
30
0.0
 70
  32
  0
VERTEX
  8
204
10
730.710605
20
-746.685942
30
0.0
 70
  32
  0
SEQEND
0
LINE
  8
219
  6
CONTINUOUS
10
730.710626
20
-733.976420
30
0
11
158.289374
21
-733.9764
31
0
0
POLYLINE
  8
204
  6
CONTINUOUS
 10
0.0
 20
0.0
 30
0.0
 66
   1
 70
   8
  0
VERTEX
  8
204
10
730.710605
20
-746.685942
30
0.0
 70
  32
  0
VERTEX
  8
204
10
730.710605
20
-733.976428
30
0.0
 70
  32
  0
SEQEND
0
LINE
  8
219
  6
CONTINUOUS
10
730.710626
20
-723.514179
30
0
11
158.289374
21
-723.5142
31
0
0
POLYLINE
  8
204
  6
CONTINUOUS
 10
0.0
 20
0.0
 30
0.0
 66
   1
 70
   8
  0
VERTEX
  8
204
10
730.710605
20
-733.976428
30
0.0
 70
  32
  0
VERTEX
  8
204
10
730.710605
20
-723.514267
30
0.0
 70
  32
  0
SEQEND
0
LINE
  8
219
  6
CONTINUOUS
10
730.710626
20
-715.068705
30
0
11
158.289374
21
-715.0687
31
0
0
POLYLINE
  8
204
  6
CONTINUOUS
 10
0.0
 20
0.0
 30
0.0
 66
   1
 70
   8
  0
VERTEX
  8
204
10
730.710605
20
-723.514267
30
0.0
 70
  32
  0
VERTEX
  8
204
10
730.710605
20
-715.068740
30
0.0
 70
  32
  0
SEQEND
0
LINE
  8
219
  6
CONTINUOUS
10
730.710626
20
-708.476530
30
0
11
158.289374
21
-708.4765
31
0
0
POLYLINE
  8
204
  6
CONTINUOUS
 10
0.0
 20
0.0
 30
0.0
 66
   1
 70
   8
  0
VERTEX
  8
204
10
730.710605
20
-715.068740
30
0.0
 70
  32
  0
VERTEX
  8
204
10
730.710605
20
-708.476614
30
0.0
 70
  32
  0
SEQEND
0
LINE
  8
219
  6
CONTINUOUS
10
730.710626
20
-703.622203
30
0
11
158.289374
21
-703.6222
31
0
0
POLYLINE
  8
204
  6
CONTINUOUS
 10
0.0
 20
0.0
 30
0.0
 66
   1
 70
   8
  0
VERTEX
  8
204
10
730.710605
20
-708.476614
30
0.0
 70
  32
  0
VERTEX
  8
204
10
730.710605
20
-703.622198
30
0.0
 70
  32
  0
SEQEND
0
LINE
  8
219
  6
CONTINUOUS
10
730.710626
20
-700.426801
30
0
11
158.289374
21
-700.4268
31
0
0
POLYLINE
  8
204
  6
CONTINUOUS
 10
0.0
 20
0.0
 30
0.0
 66
   1
 70
   8
  0
VERTEX
  8
204
10
730.710605
20
-703.622198
30
0.0
 70
  32
  0
VERTEX
  8
204
10
730.710605
20
-700.426701
30
0.0
 70
  32
  0
SEQEND
0
LINE
  8
219
  6
CONTINUOUS
10
730.710626
20
-698.840980
30
0
11
158.289374
21
-698.8410
31
0
0
POLYLINE
  8
204
  6
CONTINUOUS
 10
0.0
 20
0.0
 30
0.0
 66
   1
 70
   8
  0
VERTEX
  8
204
10
730.710605
20
-700.426701
30
0.0
 70
  32
  0
VERTEX
  8
204
10
730.710605
20
-698.840921
30
0.0
 70
  32
  0
SEQEND
0
LINE
  8
204
  6
CONTINUOUS
10
730.710605
20
-698.643300
30
0
11
158.289437
21
-698.6433
31
0
0
POLYLINE
  8
204
  6
CONTINUOUS
 10
0.0
 20
0.0
 30
0.0
 66
   1
 70
   8
  0
VERTEX
  8
204
10
730.710605
20
-829.213343
30
0.0
 70
  32
  0
VERTEX
  8
204
10
730.710605
20
-793.101434
30
0.0
 70
  32
  0
SEQEND
0
LINE
  8
219
  6
CONTINUOUS
10
490.500000
20
-1055.013300
30
0
11
730.710626
21
-1055.0133
31
0
0
POLYLINE
  8
204
  6
CONTINUOUS
 10
0.0
 20
0.0
 30
0.0
 66
   1
 70
   8
  0
VERTEX
  8
204
10
730.710605
20
-1055.013175
30
0.0
 70
  32
  0
VERTEX
  8
204
10
730.710605
20
-1032.433259
30
0.0
 70
  32
  0
SEQEND
0
LINE
  8
219
  6
CONTINUOUS
10
730.710626
20
-1032.433300
30
0
11
490.500000
21
-1032.4333
31
0
0
POLYLINE
  8
204
  6
CONTINUOUS
 10
0.0
 20
0.0
 30
0.0
 66
   1
 70
   8
  0
VERTEX
  8
204
10
730.710605
20
-1032.433259
30
0.0
 70
  32
  0
VERTEX
  8
204
10
730.710605
20
-1009.853342
30
0.0
 70
  32
  0
SEQEND
0
LINE
  8
219
  6
CONTINUOUS
10
730.710626
20
-1009.853300
30
0
11
490.500000
21
-1009.8533
31
0
0
POLYLINE
  8
204
  6
CONTINUOUS
 10
0.0
 20
0.0
 30
0.0
 66
   1
 70
   8
  0
VERTEX
  8
204
10
730.710605
20
-1009.853342
30
0.0
 70
  32
  0
VERTEX
  8
204
10
730.710605
20
-987.273425
30
0.0
 70
  32
  0
SEQEND
0
LINE
  8
219
  6
CONTINUOUS
10
730.710626
20
-987.273300
30
0
11
490.500000
21
-987.2733
31
0
0
POLYLINE
  8
204
  6
CONTINUOUS
 10
0.0
 20
0.0
 30
0.0
 66
   1
 70
   8
  0
VERTEX
  8
204
10
730.710605
20
-1100.173341
30
0.0
 70
  32
  0
VERTEX
  8
204
10
730.710605
20
-1077.593424
30
0.0
 70
  32
  0
SEQEND
0
LINE
  8
219
  6
CONTINUOUS
10
730.710626
20
-1077.593300
30
0
11
385.500001
21
-1077.5933
31
0
0
LINE
  8
219
  6
CONTINUOUS
10
385.500001
20
-964.693300
30
0
11
730.710626
21
-964.6933
31
0
0
POLYLINE
  8
204
  6
CONTINUOUS
 10
0.0
 20
0.0
 30
0.0
 66
   1
 70
   8
  0
VERTEX
  8
204
10
730.710605
20
-964.693176
30
0.0
 70
  32
  0
VERTEX
  8
204
10
730.710605
20
-942.113259
30
0.0
 70
  32
  0
SEQEND
0
POLYLINE
  8
204
  6
CONTINUOUS
 10
0.0
 20
0.0
 30
0.0
 66
   1
 70
   8
  0
VERTEX
  8
204
10
730.710605
20
-1077.593424
30
0.0
 70
  32
  0
VERTEX
  8
204
10
730.710605
20
-1055.013175
30
0.0
 70
  32
  0
SEQEND
0
LINE
  8
219
  6
CONTINUOUS
10
422.500000
20
-1055.013300
30
0
11
385.500001
21
-1055.0133
31
0
0
LINE
  8
219
  6
CONTINUOUS
10
422.500000
20
-1032.433300
30
0
11
385.500001
21
-1032.4333
31
0
0
LINE
  8
219
  6
CONTINUOUS
10
422.500000
20
-1009.853300
30
0
11
385.500001
21
-1009.8533
31
0
0
LINE
  8
219
  6
CONTINUOUS
10
422.500000
20
-987.273300
30
0
11
385.500001
21
-987.2733
31
0
0
POLYLINE
  8
204
  6
CONTINUOUS
 10
0.0
 20
0.0
 30
0.0
 66
   1
 70
   8
  0
VERTEX
  8
204
10
730.710605
20
-987.273425
30
0.0
 70
  32
  0
VERTEX
  8
204
10
730.710605
20
-964.693176
30
0.0
 70
  32
  0
SEQEND
0
POLYLINE
  8
204
  6
CONTINUOUS
 10
0.0
 20
0.0
 30
0.0
 66
   1
 70
   8
  0
VERTEX
  8
204
10
872.499982
20
-1021.143300
30
0.0
 70
  32
  0
VERTEX
  8
204
10
872.499982
20
-712.450374
30
0.0
 70
  32
  0
SEQEND
0
POLYLINE
  8
204
  6
CONTINUOUS
 10
0.0
 20
0.0
 30
0.0
 66
   1
 70
   8
  0
VERTEX
  8
204
10
872.499982
20
-1329.836227
30
0.0
 70
  32
  0
VERTEX
  8
204
10
872.499982
20
-1021.143300
30
0.0
 70
  32
  0
SEQEND
0
LINE
  8
204
  6
CONTINUOUS
10
872.499982
20
-712.450374
30
0
11
861.499919
21
-709.1432
31
0
0
POLYLINE
  8
204
  6
CONTINUOUS
 10
0.0
 20
0.0
 30
0.0
 66
   1
 70
   8
  0
VERTEX
  8
204
10
861.499919
20
-1021.143300
30
0.0
 70
  32
  0
VERTEX
  8
204
10
861.499919
20
-1333.143427
30
0.0
 70
  32
  0
SEQEND
0
POLYLINE
  8
204
  6
CONTINUOUS
 10
0.0
 20
0.0
 30
0.0
 66
   1
 70
   8
  0
VERTEX
  8
204
10
861.499919
20
-709.143174
30
0.0
 70
  32
  0
VERTEX
  8
204
10
861.499919
20
-1021.143300
30
0.0
 70
  32
  0
SEQEND
0
LINE
  8
204
  6
CONTINUOUS
10
861.499919
20
-1333.143427
30
0
11
872.499982
21
-1329.8362
31
0
0
POLYLINE
  8
204
  6
CONTINUOUS
 10
0.0
 20
0.0
 30
0.0
 66
   1
 70
   8
  0
VERTEX
  8
204
10
922.499936
20
-1021.143300
30
0.0
 70
  32
  0
VERTEX
  8
204
10
922.499936
20
-712.450374
30
0.0
 70
  32
  0
SEQEND
0
POLYLINE
  8
204
  6
CONTINUOUS
 10
0.0
 20
0.0
 30
0.0
 66
   1
 70
   8
  0
VERTEX
  8
204
10
922.499936
20
-1329.836227
30
0.0
 70
  32
  0
VERTEX
  8
204
10
922.499936
20
-1021.143300
30
0.0
 70
  32
  0
SEQEND
0
LINE
  8
204
  6
CONTINUOUS
10
922.500000
20
-712.450535
30
0
11
872.500000
21
-712.4505
31
0
0
LINE
  8
204
  6
CONTINUOUS
10
872.500000
20
-1329.836066
30
0
11
922.500000
21
-1329.8361
31
0
0
LINE
  8
204
  6
CONTINUOUS
10
1017.500148
20
-756.749726
30
0
11
922.499936
21
-712.4504
31
0
0
LINE
  8
204
  6
CONTINUOUS
10
922.499936
20
-1329.836227
30
0
11
1017.500148
21
-1285.5369
31
0
0
LINE
  8
204
  6
CONTINUOUS
10
747.499930
20
-727.039220
30
0
11
730.710605
21
-698.6434
31
0
0
LINE
  8
204
  6
CONTINUOUS
10
730.710605
20
-1343.643154
30
0
11
747.499930
21
-1315.2474
31
0
0
LINE
  8
204
  6
CONTINUOUS
10
861.500000
20
-709.143300
30
0
11
747.500000
21
-709.1433
31
0
0
LINE
  8
204
  6
CONTINUOUS
10
747.500000
20
-1333.143300
30
0
11
861.500000
21
-1333.1433
31
0
0
LINE
  8
204
  6
CONTINUOUS
10
1141.500000
20
-792.643300
30
0
11
1153.000000
21
-792.6433
31
0
0
LINE
  8
204
  6
CONTINUOUS
10
1153.000000
20
-779.643300
30
0
11
1141.500000
21
-779.6433
31
0
0
LINE
  8
204
  6
CONTINUOUS
10
1153.000000
20
-1249.643300
30
0
11
1141.500000
21
-1249.6433
31
0
0
LINE
  8
204
  6
CONTINUOUS
10
1153.000000
20
-1262.643300
30
0
11
1141.500000
21
-1262.6433
31
0
0
LINE
  8
204
  6
CONTINUOUS
10
1153.000000
20
-1014.643300
30
0
11
1141.500000
21
-1014.6433
31
0
0
LINE
  8
204
  6
CONTINUOUS
10
1141.500000
20
-1027.643300
30
0
11
1153.000000
21
-1027.6433
31
0
0
ARC
  8
204
  6
CONTINUOUS
10
1134.500000
20
-1270.143300
30
0
40
7.000000
50
278.000000
51
359.900000
0
LINE
  8
219
  6
CONTINUOUS
10
1135.474212
20
-765.211424
30
0
11
1135.474212
21
-1277.0752
31
0
0
ARC
  8
204
  6
CONTINUOUS
10
1134.500000
20
-772.143300
30
0
40
7.000000
50
0.000000
51
82.000000
0
LINE
  8
219
  6
CONTINUOUS
10
1028.500000
20
-1329.143300
30
0
11
1028.500000
21
-713.1433
31
0
0
LINE
  8
204
  6
CONTINUOUS
10
1017.500000
20
-1329.143300
30
0
11
1028.500000
21
-1329.1433
31
0
0
LINE
  8
204
  6
CONTINUOUS
10
1028.500000
20
-713.143300
30
0
11
1017.500000
21
-713.1433
31
0
0
LINE
  8
219
  6
CONTINUOUS
10
1034.561773
20
-1325.644001
30
0
11
1034.561773
21
-716.6426
31
0
0
ARC
  8
204
  6
CONTINUOUS
10
1028.500000
20
-1322.143300
30
0
40
7.000000
50
270.000000
51
329.993378
0
ARC
  8
204
  6
CONTINUOUS
10
1028.500000
20
-720.143300
30
0
40
7.000000
50
30.006622
51
90.000000
0
LINE
  8
219
  6
CONTINUOUS
10
1038.995267
20
-1321.581924
30
0
11
1038.995267
21
-720.7047
31
0
0
ARC
  8
204
  6
CONTINUOUS
10
1043.221449
20
-1330.645002
30
0
40
10.000000
50
115.000000
51
149.993378
0
ARC
  8
204
  6
CONTINUOUS
10
1043.221449
20
-711.641599
30
0
40
10.000000
50
210.006622
51
245.000000
0
LINE
  8
219
  6
CONTINUOUS
10
1132.639760
20
-1277.914780
30
0
11
1132.639760
21
-764.3718
31
0
0
LINE
  8
204
  6
CONTINUOUS
10
1038.995285
20
-1321.581858
30
0
11
1132.639771
21
-1277.9147
31
0
0
LINE
  8
204
  6
CONTINUOUS
10
1132.639771
20
-764.371881
30
0
11
1038.995285
21
-720.7047
31
0
0
ARC
  8
204
  6
CONTINUOUS
10
1136.865943
20
-1286.977857
30
0
40
10.000000
50
98.000000
51
115.000000
0
ARC
  8
204
  6
CONTINUOUS
10
1136.865943
20
-755.308743
30
0
40
10.000000
50
245.000000
51
262.000000
0
ENDSEC
0
EOF
