  0
SECTION
  2
HEADER
  9
$ACADVER
  1
AC1009
  9
$INSBASE
 10
0.0
 20
0.0
 30
0.0
  9
$EXTMIN
 10
0.237099
 20
0.237999
 30
0.0
  9
$EXTMAX
 10
392.237099
 20
262.737999
 30
0.0
  9
$LIMMIN
 10
0.0
 20
0.0
  9
$LIMMAX
 10
12.0
 20
9.0
  9
$ORTHOMODE
 70
     1
  9
$REGENMODE
 70
     1
  9
$FILLMODE
 70
     1
  9
$QTEXTMODE
 70
     0
  9
$MIRRTEXT
 70
     1
  9
$DRAGMODE
 70
     2
  9
$LTSCALE
 40
5.0
  9
$OSMODE
 70
     0
  9
$ATTMODE
 70
     1
  9
$TEXTSIZE
 40
2.5
  9
$TRACEWID
 40
0.05
  9
$TEXTSTYLE
  7
STANDARD
  9
$CLAYER
  8
0
  9
$CELTYPE
  6
CONTINUOUS
  9
$CECOLOR
 62
   256
  9
$DIMSCALE
 40
1.0
  9
$DIMASZ
 40
0.18
  9
$DIMEXO
 40
0.0625
  9
$DIMDLI
 40
0.38
  9
$DIMRND
 40
0.0
  9
$DIMDLE
 40
0.0
  9
$DIMEXE
 40
0.18
  9
$DIMTP
 40
0.0
  9
$DIMTM
 40
0.0
  9
$DIMTXT
 40
0.18
  9
$DIMCEN
 40
0.09
  9
$DIMTSZ
 40
0.0
  9
$DIMTOL
 70
     0
  9
$DIMLIM
 70
     0
  9
$DIMTIH
 70
     1
  9
$DIMTOH
 70
     1
  9
$DIMSE1
 70
     0
  9
$DIMSE2
 70
     0
  9
$DIMTAD
 70
     0
  9
$DIMZIN
 70
     0
  9
$DIMBLK
  1

  9
$DIMASO
 70
     1
  9
$DIMSHO
 70
     1
  9
$DIMPOST
  1

  9
$DIMAPOST
  1

  9
$DIMALT
 70
     0
  9
$DIMALTD
 70
     2
  9
$DIMALTF
 40
25.4
  9
$DIMLFAC
 40
1.0
  9
$DIMTOFL
 70
     0
  9
$DIMTVP
 40
0.0
  9
$DIMTIX
 70
     0
  9
$DIMSOXD
 70
     0
  9
$DIMSAH
 70
     0
  9
$DIMBLK1
  1

  9
$DIMBLK2
  1

  9
$DIMSTYLE
  2
*UNNAMED
  9
$DIMCLRD
 70
     0
  9
$DIMCLRE
 70
     0
  9
$DIMCLRT
 70
     0
  9
$DIMTFAC
 40
1.0
  9
$DIMGAP
 40
0.09
  9
$LUNITS
 70
     2
  9
$LUPREC
 70
     4
  9
$SKETCHINC
 40
0.1
  9
$FILLETRAD
 40
0.0
  9
$AUNITS
 70
     0
  9
$AUPREC
 70
     0
  9
$MENU
  1
acad
  9
$ELEVATION
 40
0.0
  9
$PELEVATION
 40
0.0
  9
$THICKNESS
 40
0.0
  9
$LIMCHECK
 70
     0
  9
$BLIPMODE
 70
     1
  9
$CHAMFERA
 40
0.0
  9
$CHAMFERB
 40
0.0
  9
$SKPOLY
 70
     0
  9
$TDCREATE
 40
2448889.590896528
  9
$TDUPDATE
 40
2449020.495332523
  9
$TDINDWG
 40
0.1036693287
  9
$TDUSRTIMER
 40
0.1036693287
  9
$USRTIMER
 70
     1
  9
$ANGBASE
 50
0.0
  9
$ANGDIR
 70
     0
  9
$PDMODE
 70
     0
  9
$PDSIZE
 40
0.0
  9
$PLINEWID
 40
0.0
  9
$COORDS
 70
     2
  9
$SPLFRAME
 70
     0
  9
$SPLINETYPE
 70
     6
  9
$SPLINESEGS
 70
     8
  9
$ATTDIA
 70
     0
  9
$ATTREQ
 70
     1
  9
$HANDLING
 70
     0
  9
$HANDSEED
  5
0
  9
$SURFTAB1
 70
   250
  9
$SURFTAB2
 70
   250
  9
$SURFTYPE
 70
     6
  9
$SURFU
 70
     6
  9
$SURFV
 70
     6
  9
$UCSNAME
  2

  9
$UCSORG
 10
0.0
 20
0.0
 30
0.0
  9
$UCSXDIR
 10
1.0
 20
0.0
 30
0.0
  9
$UCSYDIR
 10
0.0
 20
1.0
 30
0.0
  9
$PUCSNAME
  2

  9
$PUCSORG
 10
0.0
 20
0.0
 30
0.0
  9
$PUCSXDIR
 10
1.0
 20
0.0
 30
0.0
  9
$PUCSYDIR
 10
0.0
 20
1.0
 30
0.0
  9
$USERI1
 70
     0
  9
$USERI2
 70
     0
  9
$USERI3
 70
     0
  9
$USERI4
 70
     0
  9
$USERI5
 70
     0
  9
$USERR1
 40
0.0
  9
$USERR2
 40
0.0
  9
$USERR3
 40
0.0
  9
$USERR4
 40
0.0
  9
$USERR5
 40
0.0
  9
$WORLDVIEW
 70
     1
  9
$SHADEDGE
 70
     3
  9
$SHADEDIF
 70
    70
  9
$TILEMODE
 70
     1
  9
$MAXACTVP
 70
    16
  9
$PINSBASE
 10
0.0
 20
0.0
 30
0.0
  9
$PLIMCHECK
 70
     0
  9
$PEXTMIN
 10
1.000000E+20
 20
1.000000E+20
 30
1.000000E+20
  9
$PEXTMAX
 10
-1.000000E+20
 20
-1.000000E+20
 30
-1.000000E+20
  9
$PLIMMIN
 10
0.0
 20
0.0
  9
$PLIMMAX
 10
12.0
 20
9.0
  9
$UNITMODE
 70
     0
  9
$VISRETAIN
 70
     0
  9
$PLINEGEN
 70
     0
  9
$PSLTSCALE
 70
     0
  9
$TREEDEPTH
 70
  3020
  9
$DWGCODEPAGE
  3
undefined
  0
ENDSEC
  0
SECTION
  2
TABLES
  0
TABLE
  2
VPORT
 70
     2
  0
VPORT
  2
*ACTIVE
 70
     0
 10
0.0
 20
0.0
 11
1.0
 21
1.0
 12
222.522843
 22
142.040485
 13
0.0
 23
0.0
 14
2.5
 24
2.5
 15
0.0
 25
0.0
 16
0.0
 26
0.0
 36
1.0
 17
0.0
 27
0.0
 37
0.0
 40
284.080971
 41
1.566616
 42
50.0
 43
0.0
 44
0.0
 50
0.0
 51
0.0
 71
     0
 72
   100
 73
     1
 74
     1
 75
     1
 76
     0
 77
     0
 78
     0
  0
ENDTAB
  0
TABLE
  2
LTYPE
 70
     4
  0
LTYPE
  2
CONTINUOUS
 70
    64
  3
Solid line
 72
    65
 73
     0
 40
0.0
  0
LTYPE
  2
DASHED
 70
    64
  3
__ __ __ __ __ __ __ __ __ __ __ __ __ __ __ __
 72
    65
 73
     2
 40
0.75
 49
0.5
 49
-0.25
  0
LTYPE
  2
CENTER
 70
    64
  3
____ _ ____ _ ____ _ ____ _ ____ _ ____ _ ____ 
 72
    65
 73
     4
 40
2.0
 49
1.25
 49
-0.25
 49
0.25
 49
-0.25
  0
LTYPE
  2
HIDDEN
 70
    64
  3
__ __ __ __ __ __ __ __ __ __ __ __ __ __ __ __
 72
    65
 73
     2
 40
0.375
 49
0.25
 49
-0.125
  0
ENDTAB
  0
TABLE
  2
LAYER
 70
    13
  0
LAYER
  2
0
 70
    64
 62
     7
  6
CONTINUOUS
  0
LAYER
  2
RAAMI
 70
    64
 62
    -4
  6
CONTINUOUS
  0
LAYER
  2
PAKSU
 70
    64
 62
    -3
  6
CONTINUOUS
  0
LAYER
  2
OHUT
 70
    64
 62
    -6
  6
CONTINUOUS
  0
LAYER
  2
SWEDEN
 70
    64
 62
    -7
  6
CONTINUOUS
  0
LAYER
  2
SWEDEN2
 70
    64
 62
    -5
  6
CONTINUOUS
  0
LAYER
  2
BASE
 70
    64
 62
    -7
  6
CONTINUOUS
  0
LAYER
  2
21
 70
    64
 62
    -2
  6
CONTINUOUS
  0
LAYER
  2
HEL035
 70
    64
 62
    -7
  6
CONTINUOUS
  0
LAYER
  2
MUO
 70
    64
 62
    -7
  6
CONTINUOUS
  0
LAYER
  2
1
 70
    64
 62
    -2
  6
CONTINUOUS
  0
LAYER
  2
BASE1
 70
    64
 62
    -1
  6
CONTINUOUS
  0
LAYER
  2
TEKS
 70
    64
 62
    -5
  6
CONTINUOUS
  0
ENDTAB
  0
TABLE
  2
STYLE
 70
     4
  0
STYLE
  2
STANDARD
 70
    64
 40
0.0
 41
1.0
 50
0.0
 71
     0
 42
2.5
  3
txt
  4

  0
STYLE
  2
ROMANS
 70
    64
 40
2.5
 41
1.0
 50
0.0
 71
     0
 42
2.5
  3
romans
  4

  0
STYLE
  2
GREEKS
 70
    64
 40
0.0
 41
1.0
 50
0.0
 71
     0
 42
3.0
  3
TXT
  4

  0
STYLE
  2
TXT
 70
    64
 40
0.0
 41
1.0
 50
0.0
 71
     0
 42
2.0
  3
TXT
  4

  0
ENDTAB
  0
TABLE
  2
VIEW
 70
     0
  0
ENDTAB
  0
TABLE
  2
UCS
 70
     0
  0
ENDTAB
  0
TABLE
  2
APPID
 70
     1
  0
APPID
  2
ACAD
 70
    64
  0
ENDTAB
  0
TABLE
  2
DIMSTYLE
 70
     0
  0
ENDTAB
  0
ENDSEC
  0
SECTION
  2
BLOCKS
  0
BLOCK
  8
0
  2
1
 70
    64
 10
0.0
 20
0.0
 30
0.0
  3
1
  0
ENDBLK
  8
0
  0
BLOCK
  8
0
  2
BLC16
 70
    64
 10
0.0
 20
0.0
 30
0.0
  3
BLC16
  0
LINE
  8
0
  6
CONTINUOUS
 10
0.007689
 20
38.054928
 30
0.0
 11
19.983683
 21
38.054928
 31
0.0
  0
LINE
  8
0
  6
CONTINUOUS
 10
19.983683
 20
38.054928
 30
0.0
 11
19.983683
 21
-0.003751
 31
0.0
  0
LINE
  8
0
  6
CONTINUOUS
 10
19.983683
 20
-0.003751
 30
0.0
 11
0.007689
 21
-0.003751
 31
0.0
  0
LINE
  8
0
  6
CONTINUOUS
 10
0.007689
 20
-0.003751
 30
0.0
 11
0.007689
 21
38.054928
 31
0.0
  0
LINE
  8
0
  6
CONTINUOUS
 10
14.152643
 20
36.919738
 30
0.0
 11
14.152643
 21
33.528469
 31
0.0
  0
LINE
  8
0
  6
CONTINUOUS
 10
14.152643
 20
33.528469
 30
0.0
 11
11.560435
 21
33.528469
 31
0.0
  0
LINE
  8
0
  6
CONTINUOUS
 10
11.560435
 20
33.528469
 30
0.0
 11
11.560435
 21
30.778433
 31
0.0
  0
LINE
  8
0
  6
CONTINUOUS
 10
11.560435
 20
30.778433
 30
0.0
 11
14.152643
 21
30.778433
 31
0.0
  0
LINE
  8
0
  6
CONTINUOUS
 10
14.152643
 20
30.778433
 30
0.0
 11
14.152643
 21
27.387164
 31
0.0
  0
TEXT
  8
0
  6
CONTINUOUS
 10
6.558569
 20
30.805266
 30
0.0
 40
2.5
  1
2
 11
6.558569
 21
29.971932
 31
0.0
 73
     1
  0
TEXT
  8
0
  6
CONTINUOUS
 10
6.553289
 20
23.854078
 30
0.0
 40
2.5
  1
2 I
 11
6.553289
 21
23.020744
 31
0.0
 73
     1
  0
LINE
  8
0
  6
CONTINUOUS
 10
12.942534
 20
26.359129
 30
0.0
 11
15.288299
 21
25.023775
 31
0.0
  0
LINE
  8
0
  6
CONTINUOUS
 10
15.288299
 20
25.023775
 30
0.0
 11
12.942534
 21
23.833856
 31
0.0
  0
LINE
  8
0
  6
CONTINUOUS
 10
14.169823
 20
26.359129
 30
0.0
 11
16.515589
 21
25.023775
 31
0.0
  0
LINE
  8
0
  6
CONTINUOUS
 10
16.515589
 20
25.023775
 30
0.0
 11
14.169823
 21
23.833856
 31
0.0
  0
TEXT
  8
0
  6
CONTINUOUS
 10
11.566446
 20
19.235679
 30
0.0
 40
2.5
  1
I
 11
11.566446
 21
18.402346
 31
0.0
 73
     1
  0
TEXT
  8
0
  6
CONTINUOUS
 10
13.018181
 20
18.902346
 30
0.0
 40
1.5
  1
2
 11
13.018181
 21
18.402346
 31
0.0
 73
     1
  0
LINE
  8
0
  6
CONTINUOUS
 10
10.65733
 20
12.773825
 30
0.0
 11
13.003095
 21
13.963744
 31
0.0
  0
LINE
  8
0
  6
CONTINUOUS
 10
13.003095
 20
11.438471
 30
0.0
 11
10.65733
 21
12.773825
 31
0.0
  0
LINE
  8
0
  6
CONTINUOUS
 10
6.557002
 20
16.714658
 30
0.0
 11
15.281743
 21
16.714658
 31
0.0
  0
LINE
  8
0
  6
CONTINUOUS
 10
6.557002
 20
17.523984
 30
0.0
 11
6.557002
 21
15.908791
 31
0.0
  0
LINE
  8
0
  6
CONTINUOUS
 10
15.286518
 20
17.523984
 30
0.0
 11
15.286518
 21
15.908791
 31
0.0
  0
ARC
  8
0
  6
CONTINUOUS
 10
12.684846
 20
18.508045
 30
0.0
 40
2.922744
 50
193.105513
 51
283.105513
  0
TEXT
  8
0
  6
CONTINUOUS
 10
6.557002
 20
11.567974
 30
0.0
 40
2.5
  1
2I
 11
6.557002
 21
10.734641
 31
0.0
 73
     1
  0
LINE
  8
0
  6
CONTINUOUS
 10
6.557002
 20
9.441103
 30
0.0
 11
15.281743
 21
9.441103
 31
0.0
  0
LINE
  8
0
  6
CONTINUOUS
 10
15.286518
 20
10.250429
 30
0.0
 11
15.286518
 21
8.635236
 31
0.0
  0
LINE
  8
0
  6
CONTINUOUS
 10
6.557002
 20
10.250429
 30
0.0
 11
6.557002
 21
8.635236
 31
0.0
  0
TEXT
  8
0
  6
CONTINUOUS
 10
6.557002
 20
4.778631
 30
0.0
 40
2.5
  1
I
 11
6.557002
 21
3.945298
 31
0.0
 73
     1
  0
LINE
  8
0
  6
CONTINUOUS
 10
9.509029
 20
6.822462
 30
0.0
 11
9.509029
 21
5.477736
 31
0.0
  0
LINE
  8
0
  6
CONTINUOUS
 10
8.615065
 20
5.477736
 30
0.0
 11
9.52622
 21
5.477736
 31
0.0
  0
LINE
  8
0
  6
CONTINUOUS
 10
9.509029
 20
5.477736
 30
0.0
 11
10.402992
 21
5.477736
 31
0.0
  0
LINE
  8
0
  6
CONTINUOUS
 10
8.901592
 20
5.082328
 30
0.0
 11
9.509029
 21
5.082328
 31
0.0
  0
LINE
  8
0
  6
CONTINUOUS
 10
9.509029
 20
5.082328
 30
0.0
 11
10.150849
 21
5.082328
 31
0.0
  0
LINE
  8
0
  6
CONTINUOUS
 10
9.981861
 20
4.719969
 30
0.0
 11
9.072041
 21
4.719969
 31
0.0
  0
LINE
  8
0
  6
CONTINUOUS
 10
15.286518
 20
2.797924
 30
0.0
 11
15.286518
 21
1.182731
 31
0.0
  0
LINE
  8
0
  6
CONTINUOUS
 10
6.557002
 20
1.988598
 30
0.0
 11
15.281743
 21
1.988598
 31
0.0
  0
LINE
  8
0
  6
CONTINUOUS
 10
6.557002
 20
2.797924
 30
0.0
 11
6.557002
 21
1.182731
 31
0.0
  0
ENDBLK
  8
0
  0
BLOCK
  8
0
  2
BLC27
 70
    64
 10
0.0
 20
0.0
 30
0.0
  3
BLC27
  0
INSERT
  8
SWEDEN2
  6
CENTER
  2
BLC26
 10
0.08063
 20
0.037985
 30
0.0
 41
1.006225
 42
1.006225
 43
1.006225
  0
ENDBLK
  8
0
  0
BLOCK
  8
0
  2
BLC26
 70
    64
 10
0.0
 20
0.0
 30
0.0
  3
BLC26
  0
ARC
  8
0
  6
CONTINUOUS
 10
-0.180576
 20
1.17922
 30
0.0
 40
1.196859
 50
90.0
 51
265.706237
  0
LINE
  8
0
  6
CONTINUOUS
 10
-0.186638
 20
-0.01092
 30
0.0
 11
0.458942
 21
-0.01092
 31
0.0
  0
LINE
  8
0
  6
CONTINUOUS
 10
-0.186638
 20
2.375671
 30
0.0
 11
0.45288
 21
2.375671
 31
0.0
  0
LINE
  8
0
  6
CONTINUOUS
 10
-0.185509
 20
-2.404629
 30
0.0
 11
0.460071
 21
-2.404629
 31
0.0
  0
ARC
  8
0
  6
CONTINUOUS
 10
-0.180576
 20
-1.207779
 30
0.0
 40
1.196859
 50
90.0
 51
270.0
  0
LINE
  8
0
  6
CONTINUOUS
 10
0.451525
 20
-2.404586
 30
0.0
 11
1.401805
 21
-2.404586
 31
0.0
  0
LINE
  8
0
  6
CONTINUOUS
 10
0.446785
 20
2.375674
 30
0.0
 11
1.418544
 21
2.375674
 31
0.0
  0
LINE
  8
0
  6
CONTINUOUS
 10
0.456627
 20
-0.010911
 30
0.0
 11
1.422749
 21
-0.010911
 31
0.0
  0
ENDBLK
  8
0
  0
BLOCK
  8
0
  2
BLC28
 70
     0
 10
0.0
 20
0.0
 30
0.0
  3
BLC28
  0
LINE
  8
0
  6
CONTINUOUS
 10
0.484576
 20
2.400948
 30
0.0
 11
1.456712
 21
2.400948
 31
0.0
  0
LINE
  8
0
  6
CONTINUOUS
 10
0.474673
 20
4.802388
 30
0.0
 11
1.452481
 21
4.802388
 31
0.0
  0
LINE
  8
0
  6
CONTINUOUS
 10
0.479442
 20
-0.007627
 30
0.0
 11
1.435637
 21
-0.007627
 31
0.0
  0
ARC
  8
0
  6
CONTINUOUS
 10
-0.156593
 20
1.19663
 30
0.0
 40
1.204309
 50
90.0
 51
270.0
  0
LINE
  8
0
  6
CONTINUOUS
 10
-0.161557
 20
-0.007671
 30
0.0
 11
0.488041
 21
-0.007671
 31
0.0
  0
LINE
  8
0
  6
CONTINUOUS
 10
-0.162693
 20
4.802386
 30
0.0
 11
0.480806
 21
4.802386
 31
0.0
  0
LINE
  8
0
  6
CONTINUOUS
 10
-0.162693
 20
2.400939
 30
0.0
 11
0.486905
 21
2.400939
 31
0.0
  0
ARC
  8
0
  6
CONTINUOUS
 10
-0.156593
 20
3.598487
 30
0.0
 40
1.204309
 50
90.0
 51
265.706237
  0
LINE
  8
0
  6
CONTINUOUS
 10
0.484576
 20
-2.362961
 30
0.0
 11
1.456712
 21
-2.362961
 31
0.0
  0
LINE
  8
0
  6
CONTINUOUS
 10
0.479442
 20
-4.771537
 30
0.0
 11
1.435637
 21
-4.771537
 31
0.0
  0
ARC
  8
0
  6
CONTINUOUS
 10
-0.156593
 20
-3.567279
 30
0.0
 40
1.204309
 50
90.0
 51
270.0
  0
LINE
  8
0
  6
CONTINUOUS
 10
-0.161557
 20
-4.77158
 30
0.0
 11
0.488041
 21
-4.77158
 31
0.0
  0
LINE
  8
0
  6
CONTINUOUS
 10
-0.162693
 20
-2.36297
 30
0.0
 11
0.486905
 21
-2.36297
 31
0.0
  0
ARC
  8
0
  6
CONTINUOUS
 10
-0.156593
 20
-1.165422
 30
0.0
 40
1.204309
 50
101.28465
 51
265.706237
  0
ENDBLK
  8
0
  0
BLOCK
  8
0
  2
BLC22
 70
    64
 10
0.0
 20
0.0
 30
0.0
  3
BLC22
  0
LINE
  8
HEL035
 10
0.0
 20
-0.00155
 30
0.0
 11
0.0
 21
9.99845
 31
0.0
  0
LINE
  8
21
 10
2.5
 20
10.0
 30
0.0
 11
5.0
 21
10.0
 31
0.0
  0
LINE
  8
HEL035
 10
0.0
 20
9.99845
 30
0.0
 11
2.5
 21
9.99845
 31
0.0
  0
LINE
  8
HEL035
 10
-2.5
 20
5.0
 30
0.0
 11
2.5
 21
5.0
 31
0.0
  0
LINE
  8
21
 10
2.5
 20
5.0
 30
0.0
 11
5.0
 21
5.0
 31
0.0
  0
LINE
  8
21
 10
5.0
 20
5.0
 30
0.0
 11
5.0
 21
7.9
 31
0.0
  0
LINE
  8
HEL035
 10
3.88095
 20
6.944425
 30
0.0
 11
4.560313
 21
6.008681
 31
0.0
  0
LINE
  8
21
 10
10.0
 20
10.0
 30
0.0
 11
4.2
 21
6.5
 31
0.0
  0
LINE
  8
HEL035
 10
2.5
 20
-0.00155
 30
0.0
 11
0.0
 21
-0.00155
 31
0.0
  0
LINE
  8
21
 10
2.5
 20
0.0
 30
0.0
 11
5.0
 21
0.0
 31
0.0
  0
ENDBLK
  8
0
  0
BLOCK
  8
0
  2
BLC17
 70
     0
 10
0.0
 20
0.0
 30
0.0
  3
BLC17
  0
LINE
  8
0
  6
CONTINUOUS
 10
30.450615
 20
54.709828
 30
0.0
 11
30.450615
 21
0.0
 31
0.0
  0
LINE
  8
0
  6
CONTINUOUS
 10
30.450615
 20
0.0
 30
0.0
 11
0.012657
 21
0.0
 31
0.0
  0
LINE
  8
0
  6
CONTINUOUS
 10
0.012657
 20
0.0
 30
0.0
 11
0.012657
 21
54.709828
 31
0.0
  0
LINE
  8
0
  6
CONTINUOUS
 10
0.012657
 20
54.709828
 30
0.0
 11
30.450615
 21
54.709828
 31
0.0
  0
LINE
  8
0
  6
CONTINUOUS
 10
18.921474
 20
47.423701
 30
0.0
 11
18.921474
 21
44.032431
 31
0.0
  0
LINE
  8
0
  6
CONTINUOUS
 10
16.329266
 20
47.423701
 30
0.0
 11
18.921474
 21
47.423701
 31
0.0
  0
LINE
  8
0
  6
CONTINUOUS
 10
16.329266
 20
50.173736
 30
0.0
 11
16.329266
 21
47.423701
 31
0.0
  0
LINE
  8
0
  6
CONTINUOUS
 10
18.921474
 20
50.173736
 30
0.0
 11
16.329266
 21
50.173736
 31
0.0
  0
LINE
  8
0
  6
CONTINUOUS
 10
18.921474
 20
53.565006
 30
0.0
 11
18.921474
 21
50.173736
 31
0.0
  0
TEXT
  8
0
  6
CONTINUOUS
 10
11.908766
 20
1.295815
 30
0.0
 40
2.5
  1
IRF
 11
11.908766
 21
0.462481
 31
0.0
 73
     1
  0
LINE
  8
0
  6
CONTINUOUS
 10
0.012657
 20
5.232891
 30
0.0
 11
30.450615
 21
5.232891
 31
0.0
  0
LINE
  8
0
  6
CONTINUOUS
 10
21.416194
 20
54.709828
 30
0.0
 11
21.416194
 21
5.232891
 31
0.0
  0
LINE
  8
0
  6
CONTINUOUS
 10
0.011825
 20
37.58089
 30
0.0
 11
21.415362
 21
37.58089
 31
0.0
  0
TEXT
  8
0
  6
CONTINUOUS
 10
5.510524
 20
38.756802
 30
0.0
 40
2.5
  1
95%
 11
5.510524
 21
37.923468
 31
0.0
 73
     1
  0
LINE
  8
0
  6
CONTINUOUS
 10
4.315318
 20
39.921891
 30
0.0
 11
1.969552
 21
38.731972
 31
0.0
  0
LINE
  8
0
  6
CONTINUOUS
 10
1.969552
 20
41.257245
 30
0.0
 11
4.315318
 21
39.921891
 31
0.0
  0
LINE
  8
0
  6
CONTINUOUS
 10
0.059126
 20
43.413293
 30
0.0
 11
15.254454
 21
43.413293
 31
0.0
  0
LINE
  8
0
  6
CONTINUOUS
 10
15.254454
 20
43.413293
 30
0.0
 11
15.254454
 21
37.555196
 31
0.0
  0
TEXT
  8
0
  6
CONTINUOUS
 10
6.643071
 20
9.801915
 30
0.0
 40
2.5
  1
I
 11
6.643071
 21
8.968581
 31
0.0
 73
     1
  0
LINE
  8
0
  6
CONTINUOUS
 10
9.595097
 20
11.845745
 30
0.0
 11
9.595097
 21
10.491474
 31
0.0
  0
LINE
  8
0
  6
CONTINUOUS
 10
8.384869
 20
10.491474
 30
0.0
 11
9.57921
 21
10.491474
 31
0.0
  0
LINE
  8
0
  6
CONTINUOUS
 10
9.57921
 20
10.491474
 30
0.0
 11
10.773551
 21
10.491474
 31
0.0
  0
LINE
  8
0
  6
CONTINUOUS
 10
8.763274
 20
10.011864
 30
0.0
 11
10.347846
 21
10.011864
 31
0.0
  0
LINE
  8
0
  6
CONTINUOUS
 10
9.094379
 20
9.523689
 30
0.0
 11
9.981266
 21
9.523689
 31
0.0
  0
LINE
  8
0
  6
CONTINUOUS
 10
11.834315
 20
10.199281
 30
0.0
 11
20.559056
 21
10.199281
 31
0.0
  0
LINE
  8
0
  6
CONTINUOUS
 10
20.563831
 20
11.008607
 30
0.0
 11
20.563831
 21
9.393414
 31
0.0
  0
LINE
  8
0
  6
CONTINUOUS
 10
11.834315
 20
11.008607
 30
0.0
 11
11.834315
 21
9.393414
 31
0.0
  0
TEXT
  8
0
  6
CONTINUOUS
 10
1.771105
 20
17.124536
 30
0.0
 40
2.5
  1
I
 11
1.771105
 21
16.291202
 31
0.0
 73
     1
  0
LINE
  8
0
  6
CONTINUOUS
 10
3.269898
 20
18.259589
 30
0.0
 11
5.615664
 21
19.449509
 31
0.0
  0
LINE
  8
0
  6
CONTINUOUS
 10
5.615664
 20
16.924236
 30
0.0
 11
3.269898
 21
18.259589
 31
0.0
  0
LINE
  8
0
  6
CONTINUOUS
 10
11.834315
 20
18.785145
 30
0.0
 11
11.834315
 21
17.169952
 31
0.0
  0
LINE
  8
0
  6
CONTINUOUS
 10
20.563831
 20
18.785145
 30
0.0
 11
20.563831
 21
17.169952
 31
0.0
  0
LINE
  8
0
  6
CONTINUOUS
 10
11.834315
 20
17.975819
 30
0.0
 11
20.559056
 21
17.975819
 31
0.0
  0
LINE
  8
0
  6
CONTINUOUS
 10
10.616324
 20
26.165772
 30
0.0
 11
19.341064
 21
26.165772
 31
0.0
  0
LINE
  8
0
  6
CONTINUOUS
 10
10.616324
 20
26.975098
 30
0.0
 11
10.616324
 21
25.359905
 31
0.0
  0
LINE
  8
0
  6
CONTINUOUS
 10
19.34584
 20
26.975098
 30
0.0
 11
19.34584
 21
25.359905
 31
0.0
  0
ARC
  8
0
  6
CONTINUOUS
 10
16.744168
 20
27.959159
 30
0.0
 40
2.922744
 50
193.105513
 51
283.105513
  0
TEXT
  8
0
  6
CONTINUOUS
 10
1.743031
 20
25.483682
 30
0.0
 40
2.5
  1
I
 11
1.743031
 21
24.650348
 31
0.0
 73
     1
  0
TEXT
  8
0
  6
CONTINUOUS
 10
3.194767
 20
25.150348
 30
0.0
 40
1.5
  1
2
 11
3.194767
 21
24.650348
 31
0.0
 73
     1
  0
TEXT
  8
0
  6
CONTINUOUS
 10
1.924832
 20
33.140093
 30
0.0
 40
2.5
  1
I
 11
1.924832
 21
32.306759
 31
0.0
 73
     1
  0
LINE
  8
0
  6
CONTINUOUS
 10
3.734027
 20
35.656082
 30
0.0
 11
6.079793
 21
34.320728
 31
0.0
  0
LINE
  8
0
  6
CONTINUOUS
 10
6.079793
 20
34.320728
 30
0.0
 11
3.734027
 21
33.130809
 31
0.0
  0
LINE
  8
0
  6
CONTINUOUS
 10
4.961317
 20
35.656082
 30
0.0
 11
7.307083
 21
34.320728
 31
0.0
  0
LINE
  8
0
  6
CONTINUOUS
 10
7.307083
 20
34.320728
 30
0.0
 11
4.961317
 21
33.130809
 31
0.0
  0
TEXT
  8
0
  6
CONTINUOUS
 10
23.718599
 20
44.648458
 30
0.0
 40
2.5
  1
2I
 11
23.718599
 21
43.815125
 31
0.0
 73
     1
  0
TEXT
  8
0
  6
CONTINUOUS
 10
23.730424
 20
9.356562
 30
0.0
 40
2.5
  1
I
 11
23.730424
 21
8.523229
 31
0.0
 73
     1
  0
LINE
  8
0
  6
CONTINUOUS
 10
26.682451
 20
11.400392
 30
0.0
 11
26.682451
 21
10.046122
 31
0.0
  0
LINE
  8
0
  6
CONTINUOUS
 10
25.472223
 20
10.046122
 30
0.0
 11
26.666564
 21
10.046122
 31
0.0
  0
LINE
  8
0
  6
CONTINUOUS
 10
26.666564
 20
10.046122
 30
0.0
 11
27.860905
 21
10.046122
 31
0.0
  0
LINE
  8
0
  6
CONTINUOUS
 10
25.850628
 20
9.566512
 30
0.0
 11
27.435199
 21
9.566512
 31
0.0
  0
LINE
  8
0
  6
CONTINUOUS
 10
26.181732
 20
9.078337
 30
0.0
 11
27.068619
 21
9.078337
 31
0.0
  0
LINE
  8
0
  6
CONTINUOUS
 10
5.557824
 20
10.868311
 30
0.0
 11
3.299219
 21
10.868311
 31
0.0
  0
LINE
  8
0
  6
CONTINUOUS
 10
3.299219
 20
10.868311
 30
0.0
 11
1.194341
 21
9.669285
 31
0.0
  0
LINE
  8
0
  6
CONTINUOUS
 10
1.194341
 20
10.868311
 30
0.0
 11
0.0
 21
10.868311
 31
0.0
  0
LINE
  8
0
  6
CONTINUOUS
 10
1.348068
 20
9.977606
 30
0.0
 11
1.348068
 21
7.725151
 31
0.0
  0
LINE
  8
0
  6
CONTINUOUS
 10
1.348068
 20
7.725151
 30
0.0
 11
-0.011825
 21
7.725151
 31
0.0
  0
LINE
  8
0
  6
CONTINUOUS
 10
0.0
 20
13.728844
 30
0.0
 11
21.474488
 21
13.728844
 31
0.0
  0
LINE
  8
0
  6
CONTINUOUS
 10
0.0
 20
21.839396
 30
0.0
 11
21.474488
 21
21.839396
 31
0.0
  0
LINE
  8
0
  6
CONTINUOUS
 10
0.0
 20
30.095544
 30
0.0
 11
21.474488
 21
30.095544
 31
0.0
  0
ENDBLK
  8
0
  0
BLOCK
  8
0
  2
BLC18
 70
    64
 10
0.0
 20
0.0
 30
0.0
  3
BLC18
  0
LINE
  8
MUO
 10
-0.056268
 20
0.849555
 30
0.0
 11
8.307242
 21
9.215502
 31
0.0
  0
LINE
  8
MUO
 10
0.928025
 20
-0.107047
 30
0.0
 11
9.268386
 21
8.2307
 31
0.0
  0
LINE
  8
MUO
 10
-0.056268
 20
-0.107047
 30
0.0
 11
-0.056268
 21
9.215502
 31
0.0
  0
LINE
  8
MUO
 10
9.268386
 20
-0.107047
 30
0.0
 11
-0.056268
 21
-0.107047
 31
0.0
  0
LINE
  8
MUO
 10
9.268386
 20
9.215502
 30
0.0
 11
9.268386
 21
-0.107047
 31
0.0
  0
LINE
  8
MUO
 10
-0.056268
 20
9.215502
 30
0.0
 11
9.268386
 21
9.215502
 31
0.0
  0
ENDBLK
  8
0
  0
BLOCK
  8
0
  2
BLC11
 70
     0
 10
0.0
 20
0.0
 30
0.0
  3
BLC11
  0
INSERT
  8
BASE
  6
CONTINUOUS
  2
BLC18
 10
0.041067
 20
0.101044
 30
0.0
 41
0.96
 42
0.96
 43
0.96
  0
ENDBLK
  8
0
  0
BLOCK
  8
0
  2
BLC29
 70
    64
 10
0.0
 20
0.0
 30
0.0
  3
BLC29
  0
LINE
  8
0
  6
CONTINUOUS
 10
0.004865
 20
1.206889
 30
0.0
 11
2.350631
 21
-0.128465
 31
0.0
  0
LINE
  8
0
  6
CONTINUOUS
 10
2.350631
 20
-0.128465
 30
0.0
 11
0.004865
 21
-1.318384
 31
0.0
  0
ENDBLK
  8
0
  0
BLOCK
  8
0
  2
BLC8
 70
     0
 10
0.0
 20
0.0
 30
0.0
  3
BLC8
  0
LINE
  8
BASE
  6
CONTINUOUS
 10
4.30938
 20
7.248434
 30
0.0
 11
7.196163
 21
7.248434
 31
0.0
  0
LINE
  8
BASE
  6
CONTINUOUS
 10
2.021582
 20
1.434021
 30
0.0
 11
4.908367
 21
1.434021
 31
0.0
  0
LINE
  8
BASE
  6
CONTINUOUS
 10
4.908367
 20
7.248434
 30
0.0
 11
4.908367
 21
1.434021
 31
0.0
  0
LINE
  8
BASE
  6
CONTINUOUS
 10
4.30938
 20
7.248434
 30
0.0
 11
4.30938
 21
1.434021
 31
0.0
  0
INSERT
  8
BASE
  6
CONTINUOUS
  2
BLC29
 10
5.663756
 20
10.310489
 30
0.0
 41
0.8
 42
0.8
 43
0.8
  0
TEXT
  8
BASE
  6
CONTINUOUS
 10
3.010803
 20
9.256358
 30
0.0
 40
2.0
  1
R
 11
3.010803
 21
8.589691
 31
0.0
 73
     1
  0
LINE
  8
BASE
  6
CONTINUOUS
 10
10.003327
 20
0.005137
 30
0.0
 11
10.003327
 21
12.505137
 31
0.0
  0
LINE
  8
BASE
  6
CONTINUOUS
 10
0.003327
 20
0.005137
 30
0.0
 11
10.003327
 21
0.005137
 31
0.0
  0
LINE
  8
BASE
  6
CONTINUOUS
 10
0.003327
 20
12.505137
 30
0.0
 11
0.003327
 21
0.005137
 31
0.0
  0
LINE
  8
BASE
  6
CONTINUOUS
 10
10.003327
 20
12.505137
 30
0.0
 11
0.003327
 21
12.505137
 31
0.0
  0
ENDBLK
  8
0
  0
BLOCK
  8
0
  2
BLC19
 70
     0
 10
0.0
 20
0.0
 30
0.0
  3
BLC19
  0
CIRCLE
  8
0
  6
CONTINUOUS
 10
5.317218
 20
-0.888558
 30
0.0
 40
0.798019
  0
TEXT
  8
0
  6
CONTINUOUS
 10
7.274197
 20
1.270498
 30
0.0
 40
2.5
  1
1
 11
7.274197
 21
0.437165
 31
0.0
 73
     1
  0
LINE
  8
0
  6
CONTINUOUS
 10
2.832294
 20
0.605305
 30
0.0
 11
5.215754
 21
1.793497
 31
0.0
  0
LINE
  8
0
  6
CONTINUOUS
 10
2.840336
 20
3.930592
 30
0.0
 11
5.186101
 21
2.595238
 31
0.0
  0
LINE
  8
0
  6
CONTINUOUS
 10
5.186101
 20
2.595238
 30
0.0
 11
2.840336
 21
1.405319
 31
0.0
  0
LINE
  8
0
  6
CONTINUOUS
 10
0.170247
 20
-0.089675
 30
0.0
 11
11.344653
 21
-0.089675
 31
0.0
  0
LINE
  8
0
  6
CONTINUOUS
 10
0.170247
 20
4.988164
 30
0.0
 11
0.170247
 21
-0.089675
 31
0.0
  0
LINE
  8
0
  6
CONTINUOUS
 10
11.344653
 20
4.988164
 30
0.0
 11
0.170247
 21
4.988164
 31
0.0
  0
LINE
  8
0
  6
CONTINUOUS
 10
11.344653
 20
-0.089675
 30
0.0
 11
11.344653
 21
4.988164
 31
0.0
  0
ENDBLK
  8
0
  0
BLOCK
  8
0
  2
BLC24
 70
     0
 10
0.0
 20
0.0
 30
0.0
  3
BLC24
  0
LINE
  8
0
  6
CONTINUOUS
 10
4.595433
 20
2.687113
 30
0.0
 11
2.249668
 21
1.497194
 31
0.0
  0
LINE
  8
0
  6
CONTINUOUS
 10
2.249668
 20
4.022467
 30
0.0
 11
4.595433
 21
2.687113
 31
0.0
  0
LINE
  8
0
  6
CONTINUOUS
 10
2.241626
 20
0.69718
 30
0.0
 11
4.625086
 21
1.885372
 31
0.0
  0
TEXT
  8
0
  6
CONTINUOUS
 10
6.68353
 20
1.362373
 30
0.0
 40
2.5
  1
1
 11
6.68353
 21
0.52904
 31
0.0
 73
     1
  0
CIRCLE
  8
0
  6
CONTINUOUS
 10
4.984447
 20
-0.797999
 30
0.0
 40
0.798019
  0
LINE
  8
BASE
  6
CONTINUOUS
 10
10.0
 20
5.0
 30
0.0
 11
10.0
 21
0.0
 31
0.0
  0
LINE
  8
BASE
  6
CONTINUOUS
 10
0.0
 20
5.0
 30
0.0
 11
10.0
 21
5.0
 31
0.0
  0
LINE
  8
BASE
  6
CONTINUOUS
 10
0.0
 20
0.0
 30
0.0
 11
0.0
 21
5.0
 31
0.0
  0
LINE
  8
BASE
  6
CONTINUOUS
 10
10.0
 20
0.0
 30
0.0
 11
0.0
 21
0.0
 31
0.0
  0
ENDBLK
  8
0
  0
BLOCK
  8
0
  2
BLC32
 70
     0
 10
0.0
 20
0.0
 30
0.0
  3
BLC32
  0
LINE
  8
SWEDEN2
  6
CONTINUOUS
 10
2.0
 20
-0.943664
 30
0.0
 11
2.0
 21
-4.0
 31
0.0
  0
LINE
  8
SWEDEN2
  6
CONTINUOUS
 10
6.0
 20
-0.943664
 30
0.0
 11
6.0
 21
-4.0
 31
0.0
  0
LINE
  8
SWEDEN2
  6
CONTINUOUS
 10
6.0
 20
8.378885
 30
0.0
 11
6.0
 21
14.0
 31
0.0
  0
LINE
  8
SWEDEN2
  6
CONTINUOUS
 10
2.0
 20
8.378885
 30
0.0
 11
2.0
 21
14.0
 31
0.0
  0
TEXT
  8
SWEDEN2
  6
CONTINUOUS
 10
5.486983
 20
14.403284
 30
0.0
 40
2.0
  1
-
  0
TEXT
  8
SWEDEN2
  6
CONTINUOUS
 10
1.355281
 20
14.378715
 30
0.0
 40
2.0
  1
+
  0
LINE
  8
MUO
 10
-0.424332
 20
8.378885
 30
0.0
 11
8.900321
 21
8.378885
 31
0.0
  0
LINE
  8
MUO
 10
8.900321
 20
8.378885
 30
0.0
 11
8.900321
 21
-0.943664
 31
0.0
  0
LINE
  8
MUO
 10
8.900321
 20
-0.943664
 30
0.0
 11
-0.424332
 21
-0.943664
 31
0.0
  0
LINE
  8
MUO
 10
-0.424332
 20
-0.943664
 30
0.0
 11
-0.424332
 21
8.378885
 31
0.0
  0
LINE
  8
MUO
 10
0.55996
 20
-0.943664
 30
0.0
 11
8.900321
 21
7.394083
 31
0.0
  0
LINE
  8
MUO
 10
-0.424332
 20
0.012938
 30
0.0
 11
7.939178
 21
8.378885
 31
0.0
  0
LINE
  8
HEL035
 10
0.490466
 20
6.301194
 30
0.0
 11
4.490466
 21
6.301194
 31
0.0
  0
LINE
  8
HEL035
 10
4.246876
 20
1.355171
 30
0.0
 11
8.246876
 21
1.355171
 31
0.0
  0
INSERT
  8
HEL035
  2
WKU130
 10
4.586826
 20
-0.370382
 30
0.0
 41
0.8
 42
0.8
 43
0.8
  0
ENDBLK
  8
0
  0
BLOCK
  8
0
  2
WKU130
 70
    64
 10
190.0
 20
250.0
 30
0.0
  3
WKU130
  0
ARC
  8
21
 10
191.083333
 20
249.916667
 30
0.0
 40
1.086534
 50
32.471192
 51
175.601295
  0
ARC
  8
21
 10
192.916667
 20
251.083333
 30
0.0
 40
1.086534
 50
212.471192
 51
355.601295
  0
ENDBLK
  8
0
  0
BLOCK
  8
0
  2
BLC38
 70
     0
 10
0.0
 20
0.0
 30
0.0
  3
BLC38
  0
LINE
  8
BASE
  6
CONTINUOUS
 10
5.0
 20
0.429605
 30
0.0
 11
5.0
 21
-2.5
 31
0.0
  0
LINE
  8
BASE
  6
CONTINUOUS
 10
0.0
 20
0.429605
 30
0.0
 11
0.0
 21
-2.5
 31
0.0
  0
LINE
  8
BASE
  6
CONTINUOUS
 10
5.0
 20
15.0
 30
0.0
 11
5.0
 21
9.752154
 31
0.0
  0
LINE
  8
BASE
  6
CONTINUOUS
 10
0.0
 20
15.0
 30
0.0
 11
0.0
 21
9.752154
 31
0.0
  0
INSERT
  8
HEL035
  2
WKU130
 10
2.806261
 20
1.002888
 30
0.0
 41
0.8
 42
0.8
 43
0.8
  0
LINE
  8
HEL035
 10
2.466311
 20
2.72844
 30
0.0
 11
6.466311
 21
2.72844
 31
0.0
  0
LINE
  8
HEL035
 10
-1.290099
 20
7.674464
 30
0.0
 11
2.709901
 21
7.674464
 31
0.0
  0
LINE
  8
MUO
 10
-2.204897
 20
1.386207
 30
0.0
 11
6.158613
 21
9.752154
 31
0.0
  0
LINE
  8
MUO
 10
-1.220605
 20
0.429605
 30
0.0
 11
7.119756
 21
8.767352
 31
0.0
  0
LINE
  8
MUO
 10
-2.204897
 20
0.429605
 30
0.0
 11
-2.204897
 21
9.752154
 31
0.0
  0
LINE
  8
MUO
 10
7.119756
 20
0.429605
 30
0.0
 11
-2.204897
 21
0.429605
 31
0.0
  0
LINE
  8
MUO
 10
7.119756
 20
9.752154
 30
0.0
 11
7.119756
 21
0.429605
 31
0.0
  0
LINE
  8
MUO
 10
-2.204897
 20
9.752154
 30
0.0
 11
7.119756
 21
9.752154
 31
0.0
  0
TEXT
  8
SWEDEN2
  6
CONTINUOUS
 10
-0.633266
 20
15.55315
 30
0.0
 40
2.0
  1
+
  0
TEXT
  8
SWEDEN2
  6
CONTINUOUS
 10
4.297086
 20
15.577719
 30
0.0
 40
2.0
  1
-
  0
ENDBLK
  8
0
  0
BLOCK
  8
0
  2
BLC39
 70
     0
 10
0.0
 20
0.0
 30
0.0
  3
BLC39
  0
LINE
  8
BASE
  6
CONTINUOUS
 10
0.032888
 20
8.912306
 30
0.0
 11
0.032888
 21
-1.087694
 31
0.0
  0
LINE
  8
BASE
  6
CONTINUOUS
 10
0.032888
 20
-1.087694
 30
0.0
 11
2.532888
 21
-1.087694
 31
0.0
  0
LINE
  8
BASE
  6
CONTINUOUS
 10
2.334881
 20
-0.78829
 30
0.0
 11
1.595148
 21
-0.416716
 31
0.0
  0
LINE
  8
BASE
  6
CONTINUOUS
 10
0.026299
 20
-7.105729
 30
0.0
 11
2.334881
 21
-0.78829
 31
0.0
  0
CIRCLE
  8
BASE
  6
CONTINUOUS
 10
0.032888
 20
-7.846639
 30
0.0
 40
0.740939
  0
LINE
  8
BASE
  6
CONTINUOUS
 10
0.032888
 20
-8.587694
 30
0.0
 11
0.032888
 21
-18.587694
 31
0.0
  0
ENDBLK
  8
0
  0
BLOCK
  8
0
  2
BLC14
 70
     0
 10
0.0
 20
0.0
 30
0.0
  3
BLC14
  0
LINE
  8
BASE1
  6
CONTINUOUS
 10
12.100556
 20
7.489357
 30
0.0
 11
3.585754
 21
1.146244
 31
0.0
  0
LINE
  8
BASE1
  6
CONTINUOUS
 10
0.0
 20
7.5
 30
0.0
 11
5.0
 21
7.5
 31
0.0
  0
LINE
  8
BASE1
  6
CONTINUOUS
 10
5.0
 20
0.0
 30
0.0
 11
5.0
 21
2.5
 31
0.0
  0
LINE
  8
BASE1
  6
CONTINUOUS
 10
0.0
 20
0.0
 30
0.0
 11
5.0
 21
0.0
 31
0.0
  0
ENDBLK
  8
0
  0
BLOCK
  8
0
  2
ABBA3
 70
     0
 10
0.0
 20
0.0
 30
0.0
  3
ABBA3
  0
LINE
  8
PAKSU
 10
0.0
 20
0.0
 30
0.0
 11
0.0
 21
262.5
 31
0.0
  0
LINE
  8
PAKSU
 10
392.0
 20
262.5
 30
0.0
 11
392.0
 21
0.0
 31
0.0
  0
LINE
  8
PAKSU
 10
0.0
 20
0.0
 30
0.0
 11
392.0
 21
0.0
 31
0.0
  0
TEXT
  8
RAAMI
 10
42.0
 20
0.952381
 30
0.0
 40
2.5
  1
C
  7
ROMANS
  0
TEXT
  8
RAAMI
 10
42.0
 20
5.354421
 30
0.0
 40
2.5
  1
B
  7
ROMANS
  0
TEXT
  8
RAAMI
 10
257.169907
 20
1.503784
 30
0.0
 40
3.0
  1
Power
 41
0.8
  7
ROMANS
  0
TEXT
  8
RAAMI
 10
273.0
 20
7.0
 30
0.0
 40
1.4
  1
VAST.OSASTO RESP.DEPT.
  7
ROMANS
  0
TEXT
  8
RAAMI
 10
210.0
 20
32.0
 30
0.0
 40
1.4
  1
TEKI  PREPARED
  7
ROMANS
  0
LINE
  8
OHUT
 10
271.0
 20
9.5
 30
0.0
 11
271.0
 21
0.0
 31
0.0
  0
LINE
  8
OHUT
 10
257.0
 20
9.5
 30
0.0
 11
257.0
 21
35.0
 31
0.0
  0
LINE
  8
OHUT
 10
40.5
 20
4.5
 30
0.0
 11
209.0
 21
4.5
 31
0.0
  0
LINE
  8
OHUT
 10
46.5
 20
0.0
 30
0.0
 11
46.5
 21
9.0
 31
0.0
  0
LINE
  8
OHUT
 10
46.5
 20
9.0
 30
0.0
 11
209.0
 21
9.0
 31
0.0
  0
TEXT
  8
RAAMI
 10
27.5
 20
2.233333
 30
0.0
 40
1.4
  1
REVISION
  7
ROMANS
  0
TEXT
  8
RAAMI
 10
27.5
 20
4.5
 30
0.0
 40
1.4
  1
MUUTOS
  7
ROMANS
  0
LINE
  8
OHUT
 10
282.0
 20
9.5
 30
0.0
 11
282.0
 21
18.0
 31
0.0
  0
TEXT
  8
RAAMI
 10
237.5
 20
1.5
 30
0.0
 40
3.0
  1
Strömberg
 41
0.8
  7
ROMANS
  0
TEXT
  8
RAAMI
 10
229.5
 20
1.5
 30
0.0
 40
3.0
  1
ABB 
 41
0.8
  7
ROMANS
  0
LINE
  8
RAAMI
 10
222.9
 20
1.5
 30
0.0
 11
222.9
 21
4.86
 31
0.0
  0
LINE
  8
RAAMI
 10
222.9
 20
8.5
 30
0.0
 11
224.86
 21
8.5
 31
0.0
  0
LINE
  8
RAAMI
 10
224.86
 20
8.5
 30
0.0
 11
224.86
 21
5.14
 31
0.0
  0
LINE
  8
RAAMI
 10
224.86
 20
5.14
 30
0.0
 11
222.9
 21
5.14
 31
0.0
  0
LINE
  8
RAAMI
 10
222.9
 20
4.86
 30
0.0
 11
224.86
 21
4.86
 31
0.0
  0
LINE
  8
RAAMI
 10
224.86
 20
4.86
 30
0.0
 11
224.86
 21
1.5
 31
0.0
  0
LINE
  8
RAAMI
 10
224.86
 20
1.5
 30
0.0
 11
222.9
 21
1.5
 31
0.0
  0
LINE
  8
RAAMI
 10
222.9
 20
5.14
 30
0.0
 11
222.9
 21
8.5
 31
0.0
  0
ARC
  8
RAAMI
 10
225.7
 20
6.925
 30
0.0
 40
1.575
 50
298.455859
 51
90.052437
  0
LINE
  8
RAAMI
 10
225.14
 20
8.5
 30
0.0
 11
225.698559
 21
8.499999
 31
0.0
  0
LINE
  8
RAAMI
 10
225.14
 20
8.5
 30
0.0
 11
225.14
 21
5.14
 31
0.0
  0
LINE
  8
RAAMI
 10
225.14
 20
5.14
 30
0.0
 11
227.124443
 21
5.14
 31
0.0
  0
LINE
  8
RAAMI
 10
227.38
 20
4.86
 30
0.0
 11
225.14
 21
4.86
 31
0.0
  0
LINE
  8
RAAMI
 10
225.14
 20
4.86
 30
0.0
 11
225.14
 21
1.5
 31
0.0
  0
ARC
  8
RAAMI
 10
225.7
 20
3.6
 30
0.0
 40
2.1
 50
269.937724
 51
37.056553
  0
LINE
  8
RAAMI
 10
225.14
 20
1.5
 30
0.0
 11
225.697717
 21
1.500001
 31
0.0
  0
ARC
  8
RAAMI
 10
225.7
 20
3.6
 30
0.0
 40
2.1
 50
47.28622
 51
68.787999
  0
INSERT
  8
RAAMI
  2
*X23
 10
215.41
 20
1.5
 30
0.0
 41
0.7
 42
0.7
 43
0.7
  0
INSERT
  8
RAAMI
  2
*X24
 10
215.41
 20
1.5
 30
0.0
 41
0.7
 42
0.7
 43
0.7
  0
INSERT
  8
RAAMI
  2
*X25
 10
215.41
 20
1.5
 30
0.0
 41
0.7
 42
0.7
 43
0.7
  0
INSERT
  8
RAAMI
  2
*X26
 10
215.41
 20
1.5
 30
0.0
 41
0.7
 42
0.7
 43
0.7
  0
INSERT
  8
RAAMI
  2
*X26
 10
209.95
 20
1.5
 30
0.0
 41
0.7
 42
0.7
 43
0.7
  0
INSERT
  8
RAAMI
  2
*X25
 10
209.95
 20
1.5
 30
0.0
 41
0.7
 42
0.7
 43
0.7
  0
INSERT
  8
RAAMI
  2
*X24
 10
209.95
 20
1.5
 30
0.0
 41
0.7
 42
0.7
 43
0.7
  0
INSERT
  8
RAAMI
  2
*X23
 10
209.95
 20
1.5
 30
0.0
 41
0.7
 42
0.7
 43
0.7
  0
ARC
  8
RAAMI
 10
220.24
 20
3.6
 30
0.0
 40
2.1
 50
47.28622
 51
68.787999
  0
LINE
  8
RAAMI
 10
219.68
 20
1.5
 30
0.0
 11
220.237717
 21
1.500001
 31
0.0
  0
ARC
  8
RAAMI
 10
220.24
 20
3.6
 30
0.0
 40
2.1
 50
269.937724
 51
37.056553
  0
LINE
  8
RAAMI
 10
219.68
 20
4.86
 30
0.0
 11
219.68
 21
1.5
 31
0.0
  0
LINE
  8
RAAMI
 10
221.92
 20
4.86
 30
0.0
 11
219.68
 21
4.86
 31
0.0
  0
LINE
  8
RAAMI
 10
219.68
 20
5.14
 30
0.0
 11
221.664443
 21
5.14
 31
0.0
  0
LINE
  8
RAAMI
 10
219.68
 20
8.5
 30
0.0
 11
219.68
 21
5.14
 31
0.0
  0
LINE
  8
RAAMI
 10
219.68
 20
8.5
 30
0.0
 11
220.238559
 21
8.499999
 31
0.0
  0
ARC
  8
RAAMI
 10
220.24
 20
6.925
 30
0.0
 40
1.575
 50
298.455859
 51
90.052437
  0
LINE
  8
RAAMI
 10
217.44
 20
5.14
 30
0.0
 11
217.44
 21
8.5
 31
0.0
  0
LINE
  8
RAAMI
 10
219.4
 20
1.5
 30
0.0
 11
217.44
 21
1.5
 31
0.0
  0
LINE
  8
RAAMI
 10
219.4
 20
4.86
 30
0.0
 11
219.4
 21
1.5
 31
0.0
  0
LINE
  8
RAAMI
 10
217.44
 20
4.86
 30
0.0
 11
219.4
 21
4.86
 31
0.0
  0
LINE
  8
RAAMI
 10
219.4
 20
5.14
 30
0.0
 11
217.44
 21
5.14
 31
0.0
  0
LINE
  8
RAAMI
 10
219.4
 20
8.5
 30
0.0
 11
219.4
 21
5.14
 31
0.0
  0
LINE
  8
RAAMI
 10
217.44
 20
8.5
 30
0.0
 11
219.4
 21
8.5
 31
0.0
  0
LINE
  8
RAAMI
 10
217.44
 20
1.5
 30
0.0
 11
217.44
 21
4.86
 31
0.0
  0
INSERT
  8
RAAMI
  2
*X22
 10
209.95
 20
1.5
 30
0.0
 41
0.7
 42
0.7
 43
0.7
  0
INSERT
  8
RAAMI
  2
*X21
 10
209.95
 20
1.5
 30
0.0
 41
0.7
 42
0.7
 43
0.7
  0
INSERT
  8
RAAMI
  2
*X20
 10
209.95
 20
1.5
 30
0.0
 41
0.7
 42
0.7
 43
0.7
  0
INSERT
  8
RAAMI
  2
*X19
 10
209.95
 20
1.5
 30
0.0
 41
0.7
 42
0.7
 43
0.7
  0
LINE
  8
RAAMI
 10
211.119889
 20
4.842539
 30
0.0
 11
209.95
 21
1.5
 31
0.0
  0
LINE
  8
RAAMI
 10
213.31
 20
4.86
 30
0.0
 11
213.31
 21
2.9
 31
0.0
  0
LINE
  8
RAAMI
 10
213.59
 20
4.86
 30
0.0
 11
213.59
 21
2.9
 31
0.0
  0
LINE
  8
RAAMI
 10
213.59
 20
4.86
 30
0.0
 11
215.773257
 21
4.86
 31
0.0
  0
LINE
  8
RAAMI
 10
213.59
 20
5.14
 30
0.0
 11
215.675114
 21
5.14
 31
0.0
  0
LINE
  8
RAAMI
 10
215.774492
 20
4.858595
 30
0.0
 11
216.95
 21
1.5
 31
0.0
  0
LINE
  8
RAAMI
 10
211.122982
 20
4.86
 30
0.0
 11
213.31
 21
4.86
 31
0.0
  0
LINE
  8
RAAMI
 10
211.221941
 20
5.14
 30
0.0
 11
213.31
 21
5.14
 31
0.0
  0
LINE
  8
RAAMI
 10
213.31
 20
8.5
 30
0.0
 11
212.4
 21
8.5
 31
0.0
  0
LINE
  8
RAAMI
 10
213.59
 20
2.9
 30
0.0
 11
214.709893
 21
2.9
 31
0.0
  0
LINE
  8
RAAMI
 10
213.59
 20
8.5
 30
0.0
 11
213.59
 21
5.14
 31
0.0
  0
LINE
  8
RAAMI
 10
213.31
 20
8.5
 30
0.0
 11
213.31
 21
5.14
 31
0.0
  0
LINE
  8
RAAMI
 10
214.5
 20
8.5
 30
0.0
 11
213.59
 21
8.5
 31
0.0
  0
LINE
  8
RAAMI
 10
214.711098
 20
2.896864
 30
0.0
 11
215.2
 21
1.5
 31
0.0
  0
LINE
  8
RAAMI
 10
214.5
 20
8.5
 30
0.0
 11
215.676353
 21
5.138992
 31
0.0
  0
LINE
  8
RAAMI
 10
212.18879
 20
2.896543
 30
0.0
 11
211.7
 21
1.5
 31
0.0
  0
LINE
  8
RAAMI
 10
212.188787
 20
2.9
 30
0.0
 11
213.31
 21
2.9
 31
0.0
  0
LINE
  8
RAAMI
 10
212.4
 20
8.5
 30
0.0
 11
211.222472
 21
5.135635
 31
0.0
  0
LINE
  8
RAAMI
 10
215.2
 20
1.5
 30
0.0
 11
216.95
 21
1.5
 31
0.0
  0
LINE
  8
RAAMI
 10
209.95
 20
1.5
 30
0.0
 11
211.7
 21
1.5
 31
0.0
  0
LINE
  8
OHUT
 10
369.5
 20
9.5
 30
0.0
 11
369.5
 21
0.0
 31
0.0
  0
TEXT
  8
RAAMI
 10
371.0
 20
7.0
 30
0.0
 40
1.4
  1
PAINOS  REVISION
  7
ROMANS
  0
LINE
  8
OHUT
 10
349.5
 20
9.5
 30
0.0
 11
349.5
 21
18.0
 31
0.0
  0
TEXT
  8
RAAMI
 10
309.0
 20
7.0
 30
0.0
 40
1.4
  1
PIIRUSTUS NO  DRAWING NR
  7
ROMANS
  0
TEXT
  8
RAAMI
 10
351.5
 20
15.5
 30
0.0
 40
1.4
  1
JAKELU  DISTRIBUTION
  7
ROMANS
  0
TEXT
  8
RAAMI
 10
309.0
 20
15.5
 30
0.0
 40
1.4
  1
KOODI  CODE
  7
ROMANS
  0
TEXT
  8
RAAMI
 10
309.0
 20
32.5
 30
0.0
 40
1.4
  1
NIMITYS  NAME
  7
ROMANS
  0
TEXT
  8
RAAMI
 10
283.5
 20
15.0
 30
0.0
 40
1.4
  1
PROJ
  7
ROMANS
  0
TEXT
  8
RAAMI
 10
259.0
 20
15.5
 30
0.0
 40
1.4
  1
SUHDE  SCALE
  7
ROMANS
  0
TEXT
  8
RAAMI
 10
259.0
 20
23.5
 30
0.0
 40
1.4
  1
TOLERANSSIT  TOLERANCES
  7
ROMANS
  0
TEXT
  8
RAAMI
 10
259.0
 20
32.5
 30
0.0
 40
1.4
  1
LIITTYY  CONCERNING
  7
ROMANS
  0
LINE
  8
OHUT
 10
307.0
 20
0.0
 30
0.0
 11
307.0
 21
35.0
 31
0.0
  0
TEXT
  8
RAAMI
 10
209.742835
 20
15.466667
 30
0.0
 40
1.4
  1
HYVÄKSYI  APPROVED
  7
ROMANS
  0
TEXT
  8
RAAMI
 10
210.0
 20
23.733333
 30
0.0
 40
1.4
  1
TARKASTI  CHECKED
  7
ROMANS
  0
LINE
  8
PAKSU
 10
209.0
 20
35.0
 30
0.0
 11
392.0
 21
35.0
 31
0.0
  0
LINE
  8
OHUT
 10
209.0
 20
26.5
 30
0.0
 11
307.0
 21
26.5
 31
0.0
  0
LINE
  8
OHUT
 10
209.0
 20
9.5
 30
0.0
 11
392.0
 21
9.5
 31
0.0
  0
LINE
  8
OHUT
 10
209.0
 20
18.0
 30
0.0
 11
392.0
 21
18.0
 31
0.0
  0
LINE
  8
PAKSU
 10
392.0
 20
0.0
 30
0.0
 11
392.0
 21
35.0
 31
0.0
  0
LINE
  8
PAKSU
 10
209.0
 20
0.0
 30
0.0
 11
209.0
 21
35.0
 31
0.0
  0
LINE
  8
RAAMI
 10
291.043267
 20
12.19521
 30
0.0
 11
296.053761
 21
11.040875
 31
0.0
  0
LINE
  8
RAAMI
 10
296.053761
 20
15.658214
 30
0.0
 11
291.043267
 21
14.388446
 31
0.0
  0
LINE
  8
RAAMI
 10
296.053761
 20
11.040875
 30
0.0
 11
296.053761
 21
15.658214
 31
0.0
  0
LINE
  8
RAAMI
 10
291.043267
 20
14.388446
 30
0.0
 11
291.043267
 21
12.19521
 31
0.0
  0
CIRCLE
  8
RAAMI
 10
301.462194
 20
13.405639
 30
0.0
 40
1.114665
  0
CIRCLE
  8
RAAMI
 10
301.462194
 20
13.405639
 30
0.0
 40
2.343654
  0
LINE
  8
PAKSU
 10
209.0
 20
0.0
 30
0.0
 11
392.0
 21
0.0
 31
0.0
  0
LINE
  8
RAAMI
 10
18.0
 20
0.0
 30
0.0
 11
0.0
 21
0.0
 31
0.0
  0
LINE
  8
PAKSU
 10
0.0
 20
262.5
 30
0.0
 11
392.0
 21
262.5
 31
0.0
  0
ENDBLK
  8
0
  0
BLOCK
  8
0
  2
*X19
 70
    65
 10
0.0
 20
0.0
 30
0.0
  3
*X
  0
LINE
  8
0
 62
     0
 10
2.284499
 20
6.52714
 30
0.0
 11
4.8
 21
9.042641
 31
0.0
  0
LINE
  8
0
 62
     0
 10
2.379686
 20
6.799104
 30
0.0
 11
4.8
 21
9.219417
 31
0.0
  0
LINE
  8
0
 62
     0
 10
2.474874
 20
7.071068
 30
0.0
 11
4.8
 21
9.396194
 31
0.0
  0
LINE
  8
0
 62
     0
 10
2.570061
 20
7.343032
 30
0.0
 11
4.8
 21
9.572971
 31
0.0
  0
LINE
  8
0
 62
     0
 10
2.665249
 20
7.614996
 30
0.0
 11
4.8
 21
9.749747
 31
0.0
  0
LINE
  8
0
 62
     0
 10
2.760436
 20
7.88696
 30
0.0
 11
4.8
 21
9.926524
 31
0.0
  0
LINE
  8
0
 62
     0
 10
2.855624
 20
8.158924
 30
0.0
 11
4.696699
 21
10.0
 31
0.0
  0
LINE
  8
0
 62
     0
 10
2.950811
 20
8.430889
 30
0.0
 11
4.519922
 21
10.0
 31
0.0
  0
LINE
  8
0
 62
     0
 10
3.045998
 20
8.702853
 30
0.0
 11
4.343146
 21
10.0
 31
0.0
  0
LINE
  8
0
 62
     0
 10
3.141186
 20
8.974817
 30
0.0
 11
4.166369
 21
10.0
 31
0.0
  0
LINE
  8
0
 62
     0
 10
3.236373
 20
9.246781
 30
0.0
 11
3.989592
 21
10.0
 31
0.0
  0
LINE
  8
0
 62
     0
 10
3.331561
 20
9.518745
 30
0.0
 11
3.812816
 21
10.0
 31
0.0
  0
LINE
  8
0
 62
     0
 10
3.426748
 20
9.790709
 30
0.0
 11
3.636039
 21
10.0
 31
0.0
  0
LINE
  8
0
 62
     0
 10
2.189311
 20
6.255175
 30
0.0
 11
4.8
 21
8.865864
 31
0.0
  0
LINE
  8
0
 62
     0
 10
2.094124
 20
5.983211
 30
0.0
 11
4.8
 21
8.689087
 31
0.0
  0
LINE
  8
0
 62
     0
 10
1.998936
 20
5.711247
 30
0.0
 11
4.8
 21
8.512311
 31
0.0
  0
LINE
  8
0
 62
     0
 10
1.903749
 20
5.439283
 30
0.0
 11
4.8
 21
8.335534
 31
0.0
  0
LINE
  8
0
 62
     0
 10
1.841243
 20
5.2
 30
0.0
 11
4.8
 21
8.158757
 31
0.0
  0
LINE
  8
0
 62
     0
 10
2.018019
 20
5.2
 30
0.0
 11
4.8
 21
7.981981
 31
0.0
  0
LINE
  8
0
 62
     0
 10
2.194796
 20
5.2
 30
0.0
 11
4.8
 21
7.805204
 31
0.0
  0
LINE
  8
0
 62
     0
 10
2.371573
 20
5.2
 30
0.0
 11
4.8
 21
7.628427
 31
0.0
  0
LINE
  8
0
 62
     0
 10
2.54835
 20
5.2
 30
0.0
 11
4.8
 21
7.45165
 31
0.0
  0
LINE
  8
0
 62
     0
 10
2.725126
 20
5.2
 30
0.0
 11
4.8
 21
7.274874
 31
0.0
  0
LINE
  8
0
 62
     0
 10
2.901903
 20
5.2
 30
0.0
 11
4.8
 21
7.098097
 31
0.0
  0
LINE
  8
0
 62
     0
 10
3.07868
 20
5.2
 30
0.0
 11
4.8
 21
6.92132
 31
0.0
  0
LINE
  8
0
 62
     0
 10
3.255456
 20
5.2
 30
0.0
 11
4.8
 21
6.744544
 31
0.0
  0
LINE
  8
0
 62
     0
 10
3.432233
 20
5.2
 30
0.0
 11
4.8
 21
6.567767
 31
0.0
  0
LINE
  8
0
 62
     0
 10
3.60901
 20
5.2
 30
0.0
 11
4.8
 21
6.39099
 31
0.0
  0
LINE
  8
0
 62
     0
 10
3.785786
 20
5.2
 30
0.0
 11
4.8
 21
6.214214
 31
0.0
  0
LINE
  8
0
 62
     0
 10
3.962563
 20
5.2
 30
0.0
 11
4.8
 21
6.037437
 31
0.0
  0
LINE
  8
0
 62
     0
 10
4.13934
 20
5.2
 30
0.0
 11
4.8
 21
5.86066
 31
0.0
  0
LINE
  8
0
 62
     0
 10
4.316117
 20
5.2
 30
0.0
 11
4.8
 21
5.683883
 31
0.0
  0
LINE
  8
0
 62
     0
 10
4.492893
 20
5.2
 30
0.0
 11
4.8
 21
5.507107
 31
0.0
  0
LINE
  8
0
 62
     0
 10
4.66967
 20
5.2
 30
0.0
 11
4.8
 21
5.33033
 31
0.0
  0
ENDBLK
  8
0
  0
BLOCK
  8
0
  2
*X20
 70
    65
 10
0.0
 20
0.0
 30
0.0
  3
*X
  0
LINE
  8
0
 62
     0
 10
5.2
 20
6.083883
 30
0.0
 11
7.178252
 21
8.062136
 31
0.0
  0
LINE
  8
0
 62
     0
 10
5.2
 20
6.26066
 30
0.0
 11
7.132421
 21
8.193082
 31
0.0
  0
LINE
  8
0
 62
     0
 10
5.2
 20
6.437437
 30
0.0
 11
7.08659
 21
8.324027
 31
0.0
  0
LINE
  8
0
 62
     0
 10
5.2
 20
6.614214
 30
0.0
 11
7.040759
 21
8.454973
 31
0.0
  0
LINE
  8
0
 62
     0
 10
5.2
 20
6.79099
 30
0.0
 11
6.994928
 21
8.585919
 31
0.0
  0
LINE
  8
0
 62
     0
 10
5.2
 20
6.967767
 30
0.0
 11
6.949097
 21
8.716864
 31
0.0
  0
LINE
  8
0
 62
     0
 10
5.2
 20
7.144544
 30
0.0
 11
6.903266
 21
8.84781
 31
0.0
  0
LINE
  8
0
 62
     0
 10
5.2
 20
7.32132
 30
0.0
 11
6.857435
 21
8.978756
 31
0.0
  0
LINE
  8
0
 62
     0
 10
5.2
 20
7.498097
 30
0.0
 11
6.811604
 21
9.109702
 31
0.0
  0
LINE
  8
0
 62
     0
 10
5.2
 20
7.674874
 30
0.0
 11
6.765773
 21
9.240647
 31
0.0
  0
LINE
  8
0
 62
     0
 10
5.2
 20
7.85165
 30
0.0
 11
6.719942
 21
9.371593
 31
0.0
  0
LINE
  8
0
 62
     0
 10
5.2
 20
8.028427
 30
0.0
 11
6.674111
 21
9.502539
 31
0.0
  0
LINE
  8
0
 62
     0
 10
5.2
 20
8.205204
 30
0.0
 11
6.62828
 21
9.633484
 31
0.0
  0
LINE
  8
0
 62
     0
 10
5.2
 20
8.381981
 30
0.0
 11
6.582449
 21
9.76443
 31
0.0
  0
LINE
  8
0
 62
     0
 10
5.2
 20
8.558757
 30
0.0
 11
6.536619
 21
9.895376
 31
0.0
  0
LINE
  8
0
 62
     0
 10
5.2
 20
8.735534
 30
0.0
 11
6.464466
 21
10.0
 31
0.0
  0
LINE
  8
0
 62
     0
 10
5.2
 20
8.912311
 30
0.0
 11
6.287689
 21
10.0
 31
0.0
  0
LINE
  8
0
 62
     0
 10
5.2
 20
9.089087
 30
0.0
 11
6.110913
 21
10.0
 31
0.0
  0
LINE
  8
0
 62
     0
 10
5.2
 20
9.265864
 30
0.0
 11
5.934136
 21
10.0
 31
0.0
  0
LINE
  8
0
 62
     0
 10
5.2
 20
9.442641
 30
0.0
 11
5.757359
 21
10.0
 31
0.0
  0
LINE
  8
0
 62
     0
 10
5.2
 20
9.619417
 30
0.0
 11
5.580583
 21
10.0
 31
0.0
  0
LINE
  8
0
 62
     0
 10
5.2
 20
9.796194
 30
0.0
 11
5.403806
 21
10.0
 31
0.0
  0
LINE
  8
0
 62
     0
 10
5.2
 20
9.972971
 30
0.0
 11
5.227029
 21
10.0
 31
0.0
  0
LINE
  8
0
 62
     0
 10
5.2
 20
5.907107
 30
0.0
 11
7.224083
 21
7.93119
 31
0.0
  0
LINE
  8
0
 62
     0
 10
5.2
 20
5.73033
 30
0.0
 11
7.269914
 21
7.800245
 31
0.0
  0
LINE
  8
0
 62
     0
 10
5.2
 20
5.553553
 30
0.0
 11
7.315745
 21
7.669299
 31
0.0
  0
LINE
  8
0
 62
     0
 10
5.2
 20
5.376777
 30
0.0
 11
7.361576
 21
7.538353
 31
0.0
  0
LINE
  8
0
 62
     0
 10
5.2
 20
5.2
 30
0.0
 11
7.407407
 21
7.407407
 31
0.0
  0
LINE
  8
0
 62
     0
 10
5.376777
 20
5.2
 30
0.0
 11
7.453238
 21
7.276462
 31
0.0
  0
LINE
  8
0
 62
     0
 10
5.553553
 20
5.2
 30
0.0
 11
7.499069
 21
7.145516
 31
0.0
  0
LINE
  8
0
 62
     0
 10
5.73033
 20
5.2
 30
0.0
 11
7.5449
 21
7.01457
 31
0.0
  0
LINE
  8
0
 62
     0
 10
5.907107
 20
5.2
 30
0.0
 11
7.590731
 21
6.883625
 31
0.0
  0
LINE
  8
0
 62
     0
 10
6.083883
 20
5.2
 30
0.0
 11
7.636562
 21
6.752679
 31
0.0
  0
LINE
  8
0
 62
     0
 10
6.26066
 20
5.2
 30
0.0
 11
7.682393
 21
6.621733
 31
0.0
  0
LINE
  8
0
 62
     0
 10
6.437437
 20
5.2
 30
0.0
 11
7.728224
 21
6.490788
 31
0.0
  0
LINE
  8
0
 62
     0
 10
6.614214
 20
5.2
 30
0.0
 11
7.774055
 21
6.359842
 31
0.0
  0
LINE
  8
0
 62
     0
 10
6.79099
 20
5.2
 30
0.0
 11
7.819886
 21
6.228896
 31
0.0
  0
LINE
  8
0
 62
     0
 10
6.967767
 20
5.2
 30
0.0
 11
7.865717
 21
6.09795
 31
0.0
  0
LINE
  8
0
 62
     0
 10
7.144544
 20
5.2
 30
0.0
 11
7.911548
 21
5.967005
 31
0.0
  0
LINE
  8
0
 62
     0
 10
7.32132
 20
5.2
 30
0.0
 11
7.957379
 21
5.836059
 31
0.0
  0
LINE
  8
0
 62
     0
 10
7.498097
 20
5.2
 30
0.0
 11
8.00321
 21
5.705113
 31
0.0
  0
LINE
  8
0
 62
     0
 10
7.674874
 20
5.2
 30
0.0
 11
8.049041
 21
5.574168
 31
0.0
  0
LINE
  8
0
 62
     0
 10
7.85165
 20
5.2
 30
0.0
 11
8.094872
 21
5.443222
 31
0.0
  0
LINE
  8
0
 62
     0
 10
8.028427
 20
5.2
 30
0.0
 11
8.140703
 21
5.312276
 31
0.0
  0
ENDBLK
  8
0
  0
BLOCK
  8
0
  2
*X21
 70
    65
 10
0.0
 20
0.0
 30
0.0
  3
*X
  0
LINE
  8
0
 62
     0
 10
0.0
 20
0.0
 30
0.0
 11
4.8
 21
4.8
 31
0.0
  0
LINE
  8
0
 62
     0
 10
0.095187
 20
0.271964
 30
0.0
 11
4.623223
 21
4.8
 31
0.0
  0
LINE
  8
0
 62
     0
 10
0.190375
 20
0.543928
 30
0.0
 11
4.446447
 21
4.8
 31
0.0
  0
LINE
  8
0
 62
     0
 10
0.285562
 20
0.815892
 30
0.0
 11
4.26967
 21
4.8
 31
0.0
  0
LINE
  8
0
 62
     0
 10
0.38075
 20
1.087857
 30
0.0
 11
4.092893
 21
4.8
 31
0.0
  0
LINE
  8
0
 62
     0
 10
0.475937
 20
1.359821
 30
0.0
 11
3.916117
 21
4.8
 31
0.0
  0
LINE
  8
0
 62
     0
 10
0.571125
 20
1.631785
 30
0.0
 11
3.73934
 21
4.8
 31
0.0
  0
LINE
  8
0
 62
     0
 10
0.666312
 20
1.903749
 30
0.0
 11
3.562563
 21
4.8
 31
0.0
  0
LINE
  8
0
 62
     0
 10
0.7615
 20
2.175713
 30
0.0
 11
3.385786
 21
4.8
 31
0.0
  0
LINE
  8
0
 62
     0
 10
0.856687
 20
2.447677
 30
0.0
 11
3.20901
 21
4.8
 31
0.0
  0
LINE
  8
0
 62
     0
 10
0.951875
 20
2.719641
 30
0.0
 11
3.032233
 21
4.8
 31
0.0
  0
LINE
  8
0
 62
     0
 10
1.047062
 20
2.991606
 30
0.0
 11
2.855456
 21
4.8
 31
0.0
  0
LINE
  8
0
 62
     0
 10
1.142249
 20
3.26357
 30
0.0
 11
2.67868
 21
4.8
 31
0.0
  0
LINE
  8
0
 62
     0
 10
1.237437
 20
3.535534
 30
0.0
 11
2.501903
 21
4.8
 31
0.0
  0
LINE
  8
0
 62
     0
 10
1.332624
 20
3.807498
 30
0.0
 11
2.325126
 21
4.8
 31
0.0
  0
LINE
  8
0
 62
     0
 10
1.427812
 20
4.079462
 30
0.0
 11
2.14835
 21
4.8
 31
0.0
  0
LINE
  8
0
 62
     0
 10
1.522999
 20
4.351426
 30
0.0
 11
1.971573
 21
4.8
 31
0.0
  0
LINE
  8
0
 62
     0
 10
1.618187
 20
4.62339
 30
0.0
 11
1.794796
 21
4.8
 31
0.0
  0
LINE
  8
0
 62
     0
 10
0.176777
 20
0.0
 30
0.0
 11
4.8
 21
4.623223
 31
0.0
  0
LINE
  8
0
 62
     0
 10
0.353553
 20
0.0
 30
0.0
 11
4.8
 21
4.446447
 31
0.0
  0
LINE
  8
0
 62
     0
 10
0.53033
 20
0.0
 30
0.0
 11
4.8
 21
4.26967
 31
0.0
  0
LINE
  8
0
 62
     0
 10
0.707107
 20
0.0
 30
0.0
 11
4.8
 21
4.092893
 31
0.0
  0
LINE
  8
0
 62
     0
 10
0.883883
 20
0.0
 30
0.0
 11
4.8
 21
3.916117
 31
0.0
  0
LINE
  8
0
 62
     0
 10
1.06066
 20
0.0
 30
0.0
 11
4.8
 21
3.73934
 31
0.0
  0
LINE
  8
0
 62
     0
 10
1.237437
 20
0.0
 30
0.0
 11
3.179842
 21
1.942405
 31
0.0
  0
LINE
  8
0
 62
     0
 10
3.237437
 20
2.0
 30
0.0
 11
4.8
 21
3.562563
 31
0.0
  0
LINE
  8
0
 62
     0
 10
1.414214
 20
0.0
 30
0.0
 11
3.084654
 21
1.670441
 31
0.0
  0
LINE
  8
0
 62
     0
 10
3.414214
 20
2.0
 30
0.0
 11
4.8
 21
3.385786
 31
0.0
  0
LINE
  8
0
 62
     0
 10
1.59099
 20
0.0
 30
0.0
 11
2.989467
 21
1.398477
 31
0.0
  0
LINE
  8
0
 62
     0
 10
3.59099
 20
2.0
 30
0.0
 11
4.8
 21
3.20901
 31
0.0
  0
LINE
  8
0
 62
     0
 10
1.767767
 20
0.0
 30
0.0
 11
2.894279
 21
1.126512
 31
0.0
  0
LINE
  8
0
 62
     0
 10
3.767767
 20
2.0
 30
0.0
 11
4.8
 21
3.032233
 31
0.0
  0
LINE
  8
0
 62
     0
 10
1.944544
 20
0.0
 30
0.0
 11
2.799092
 21
0.854548
 31
0.0
  0
LINE
  8
0
 62
     0
 10
3.944544
 20
2.0
 30
0.0
 11
4.8
 21
2.855456
 31
0.0
  0
LINE
  8
0
 62
     0
 10
2.12132
 20
0.0
 30
0.0
 11
2.703904
 21
0.582584
 31
0.0
  0
LINE
  8
0
 62
     0
 10
4.12132
 20
2.0
 30
0.0
 11
4.8
 21
2.67868
 31
0.0
  0
LINE
  8
0
 62
     0
 10
2.298097
 20
0.0
 30
0.0
 11
2.608717
 21
0.31062
 31
0.0
  0
LINE
  8
0
 62
     0
 10
4.298097
 20
2.0
 30
0.0
 11
4.8
 21
2.501903
 31
0.0
  0
LINE
  8
0
 62
     0
 10
2.474874
 20
0.0
 30
0.0
 11
2.51353
 21
0.038656
 31
0.0
  0
LINE
  8
0
 62
     0
 10
4.474874
 20
2.0
 30
0.0
 11
4.8
 21
2.325126
 31
0.0
  0
LINE
  8
0
 62
     0
 10
4.65165
 20
2.0
 30
0.0
 11
4.8
 21
2.14835
 31
0.0
  0
ENDBLK
  8
0
  0
BLOCK
  8
0
  2
*X22
 70
    65
 10
0.0
 20
0.0
 30
0.0
  3
*X
  0
LINE
  8
0
 62
     0
 10
6.884654
 20
1.75813
 30
0.0
 11
8.736506
 21
3.609982
 31
0.0
  0
LINE
  8
0
 62
     0
 10
6.838823
 20
1.889076
 30
0.0
 11
8.690675
 21
3.740928
 31
0.0
  0
LINE
  8
0
 62
     0
 10
6.772971
 20
2.0
 30
0.0
 11
8.644844
 21
3.871874
 31
0.0
  0
LINE
  8
0
 62
     0
 10
6.596194
 20
2.0
 30
0.0
 11
8.599013
 21
4.002819
 31
0.0
  0
LINE
  8
0
 62
     0
 10
6.419417
 20
2.0
 30
0.0
 11
8.553182
 21
4.133765
 31
0.0
  0
LINE
  8
0
 62
     0
 10
6.242641
 20
2.0
 30
0.0
 11
8.507351
 21
4.264711
 31
0.0
  0
LINE
  8
0
 62
     0
 10
6.065864
 20
2.0
 30
0.0
 11
8.46152
 21
4.395656
 31
0.0
  0
LINE
  8
0
 62
     0
 10
5.889087
 20
2.0
 30
0.0
 11
8.415689
 21
4.526602
 31
0.0
  0
LINE
  8
0
 62
     0
 10
5.712311
 20
2.0
 30
0.0
 11
8.369858
 21
4.657548
 31
0.0
  0
LINE
  8
0
 62
     0
 10
5.535534
 20
2.0
 30
0.0
 11
8.324027
 21
4.788493
 31
0.0
  0
LINE
  8
0
 62
     0
 10
5.358757
 20
2.0
 30
0.0
 11
8.158757
 21
4.8
 31
0.0
  0
LINE
  8
0
 62
     0
 10
5.2
 20
2.018019
 30
0.0
 11
7.981981
 21
4.8
 31
0.0
  0
LINE
  8
0
 62
     0
 10
5.2
 20
2.194796
 30
0.0
 11
7.805204
 21
4.8
 31
0.0
  0
LINE
  8
0
 62
     0
 10
5.2
 20
2.371573
 30
0.0
 11
7.628427
 21
4.8
 31
0.0
  0
LINE
  8
0
 62
     0
 10
5.2
 20
2.54835
 30
0.0
 11
7.45165
 21
4.8
 31
0.0
  0
LINE
  8
0
 62
     0
 10
5.2
 20
2.725126
 30
0.0
 11
7.274874
 21
4.8
 31
0.0
  0
LINE
  8
0
 62
     0
 10
5.2
 20
2.901903
 30
0.0
 11
7.098097
 21
4.8
 31
0.0
  0
LINE
  8
0
 62
     0
 10
5.2
 20
3.07868
 30
0.0
 11
6.92132
 21
4.8
 31
0.0
  0
LINE
  8
0
 62
     0
 10
5.2
 20
3.255456
 30
0.0
 11
6.744544
 21
4.8
 31
0.0
  0
LINE
  8
0
 62
     0
 10
5.2
 20
3.432233
 30
0.0
 11
6.567767
 21
4.8
 31
0.0
  0
LINE
  8
0
 62
     0
 10
5.2
 20
3.60901
 30
0.0
 11
6.39099
 21
4.8
 31
0.0
  0
LINE
  8
0
 62
     0
 10
5.2
 20
3.785786
 30
0.0
 11
6.214214
 21
4.8
 31
0.0
  0
LINE
  8
0
 62
     0
 10
5.2
 20
3.962563
 30
0.0
 11
6.037437
 21
4.8
 31
0.0
  0
LINE
  8
0
 62
     0
 10
5.2
 20
4.13934
 30
0.0
 11
5.86066
 21
4.8
 31
0.0
  0
LINE
  8
0
 62
     0
 10
5.2
 20
4.316117
 30
0.0
 11
5.683883
 21
4.8
 31
0.0
  0
LINE
  8
0
 62
     0
 10
5.2
 20
4.492893
 30
0.0
 11
5.507107
 21
4.8
 31
0.0
  0
LINE
  8
0
 62
     0
 10
5.2
 20
4.66967
 30
0.0
 11
5.33033
 21
4.8
 31
0.0
  0
LINE
  8
0
 62
     0
 10
6.930485
 20
1.627185
 30
0.0
 11
8.782337
 21
3.479036
 31
0.0
  0
LINE
  8
0
 62
     0
 10
6.976316
 20
1.496239
 30
0.0
 11
8.828168
 21
3.348091
 31
0.0
  0
LINE
  8
0
 62
     0
 10
7.022147
 20
1.365293
 30
0.0
 11
8.873999
 21
3.217145
 31
0.0
  0
LINE
  8
0
 62
     0
 10
7.067978
 20
1.234347
 30
0.0
 11
8.91983
 21
3.086199
 31
0.0
  0
LINE
  8
0
 62
     0
 10
7.113809
 20
1.103402
 30
0.0
 11
8.965661
 21
2.955254
 31
0.0
  0
LINE
  8
0
 62
     0
 10
7.15964
 20
0.972456
 30
0.0
 11
9.011492
 21
2.824308
 31
0.0
  0
LINE
  8
0
 62
     0
 10
7.205471
 20
0.84151
 30
0.0
 11
9.057323
 21
2.693362
 31
0.0
  0
LINE
  8
0
 62
     0
 10
7.251302
 20
0.710565
 30
0.0
 11
9.103154
 21
2.562416
 31
0.0
  0
LINE
  8
0
 62
     0
 10
7.297133
 20
0.579619
 30
0.0
 11
9.148985
 21
2.431471
 31
0.0
  0
LINE
  8
0
 62
     0
 10
7.342964
 20
0.448673
 30
0.0
 11
9.194816
 21
2.300525
 31
0.0
  0
LINE
  8
0
 62
     0
 10
7.388795
 20
0.317728
 30
0.0
 11
9.240647
 21
2.169579
 31
0.0
  0
LINE
  8
0
 62
     0
 10
7.434626
 20
0.186782
 30
0.0
 11
9.286478
 21
2.038634
 31
0.0
  0
LINE
  8
0
 62
     0
 10
7.480457
 20
0.055836
 30
0.0
 11
9.332309
 21
1.907688
 31
0.0
  0
LINE
  8
0
 62
     0
 10
7.601398
 20
0.0
 30
0.0
 11
9.37814
 21
1.776742
 31
0.0
  0
LINE
  8
0
 62
     0
 10
7.778175
 20
0.0
 30
0.0
 11
9.423971
 21
1.645797
 31
0.0
  0
LINE
  8
0
 62
     0
 10
7.954951
 20
0.0
 30
0.0
 11
9.469802
 21
1.514851
 31
0.0
  0
LINE
  8
0
 62
     0
 10
8.131728
 20
0.0
 30
0.0
 11
9.515633
 21
1.383905
 31
0.0
  0
LINE
  8
0
 62
     0
 10
8.308505
 20
0.0
 30
0.0
 11
9.561464
 21
1.252959
 31
0.0
  0
LINE
  8
0
 62
     0
 10
8.485281
 20
0.0
 30
0.0
 11
9.607295
 21
1.122014
 31
0.0
  0
LINE
  8
0
 62
     0
 10
8.662058
 20
0.0
 30
0.0
 11
9.653126
 21
0.991068
 31
0.0
  0
LINE
  8
0
 62
     0
 10
8.838835
 20
0.0
 30
0.0
 11
9.698957
 21
0.860122
 31
0.0
  0
LINE
  8
0
 62
     0
 10
9.015611
 20
0.0
 30
0.0
 11
9.744788
 21
0.729177
 31
0.0
  0
LINE
  8
0
 62
     0
 10
9.192388
 20
0.0
 30
0.0
 11
9.790619
 21
0.598231
 31
0.0
  0
LINE
  8
0
 62
     0
 10
9.369165
 20
0.0
 30
0.0
 11
9.83645
 21
0.467285
 31
0.0
  0
LINE
  8
0
 62
     0
 10
9.545942
 20
0.0
 30
0.0
 11
9.882281
 21
0.33634
 31
0.0
  0
LINE
  8
0
 62
     0
 10
9.722718
 20
0.0
 30
0.0
 11
9.928112
 21
0.205394
 31
0.0
  0
LINE
  8
0
 62
     0
 10
9.899495
 20
0.0
 30
0.0
 11
9.973943
 21
0.074448
 31
0.0
  0
ENDBLK
  8
0
  0
BLOCK
  8
0
  2
*X23
 70
    65
 10
0.0
 20
0.0
 30
0.0
  3
*X
  0
LINE
  8
0
 62
     0
 10
10.7
 20
6.280583
 30
0.0
 11
13.5
 21
9.080583
 31
0.0
  0
LINE
  8
0
 62
     0
 10
10.7
 20
6.457359
 30
0.0
 11
13.5
 21
9.257359
 31
0.0
  0
LINE
  8
0
 62
     0
 10
10.7
 20
6.634136
 30
0.0
 11
13.5
 21
9.434136
 31
0.0
  0
LINE
  8
0
 62
     0
 10
10.7
 20
6.810913
 30
0.0
 11
13.5
 21
9.610913
 31
0.0
  0
LINE
  8
0
 62
     0
 10
10.7
 20
6.987689
 30
0.0
 11
13.5
 21
9.787689
 31
0.0
  0
LINE
  8
0
 62
     0
 10
10.7
 20
7.164466
 30
0.0
 11
13.5
 21
9.964466
 31
0.0
  0
LINE
  8
0
 62
     0
 10
10.7
 20
7.341243
 30
0.0
 11
13.358757
 21
10.0
 31
0.0
  0
LINE
  8
0
 62
     0
 10
10.7
 20
7.518019
 30
0.0
 11
13.181981
 21
10.0
 31
0.0
  0
LINE
  8
0
 62
     0
 10
10.7
 20
7.694796
 30
0.0
 11
13.005204
 21
10.0
 31
0.0
  0
LINE
  8
0
 62
     0
 10
10.7
 20
7.871573
 30
0.0
 11
12.828427
 21
10.0
 31
0.0
  0
LINE
  8
0
 62
     0
 10
10.7
 20
8.04835
 30
0.0
 11
12.65165
 21
10.0
 31
0.0
  0
LINE
  8
0
 62
     0
 10
10.7
 20
8.225126
 30
0.0
 11
12.474874
 21
10.0
 31
0.0
  0
LINE
  8
0
 62
     0
 10
10.7
 20
8.401903
 30
0.0
 11
12.298097
 21
10.0
 31
0.0
  0
LINE
  8
0
 62
     0
 10
10.7
 20
8.57868
 30
0.0
 11
12.12132
 21
10.0
 31
0.0
  0
LINE
  8
0
 62
     0
 10
10.7
 20
8.755456
 30
0.0
 11
11.944544
 21
10.0
 31
0.0
  0
LINE
  8
0
 62
     0
 10
10.7
 20
8.932233
 30
0.0
 11
11.767767
 21
10.0
 31
0.0
  0
LINE
  8
0
 62
     0
 10
10.7
 20
9.10901
 30
0.0
 11
11.59099
 21
10.0
 31
0.0
  0
LINE
  8
0
 62
     0
 10
10.7
 20
9.285786
 30
0.0
 11
11.414214
 21
10.0
 31
0.0
  0
LINE
  8
0
 62
     0
 10
10.7
 20
9.462563
 30
0.0
 11
11.237437
 21
10.0
 31
0.0
  0
LINE
  8
0
 62
     0
 10
10.7
 20
9.63934
 30
0.0
 11
11.06066
 21
10.0
 31
0.0
  0
LINE
  8
0
 62
     0
 10
10.7
 20
9.816117
 30
0.0
 11
10.883883
 21
10.0
 31
0.0
  0
LINE
  8
0
 62
     0
 10
10.7
 20
9.992893
 30
0.0
 11
10.707107
 21
10.0
 31
0.0
  0
LINE
  8
0
 62
     0
 10
10.7
 20
6.103806
 30
0.0
 11
13.5
 21
8.903806
 31
0.0
  0
LINE
  8
0
 62
     0
 10
10.7
 20
5.927029
 30
0.0
 11
13.5
 21
8.727029
 31
0.0
  0
LINE
  8
0
 62
     0
 10
10.7
 20
5.750253
 30
0.0
 11
13.5
 21
8.550253
 31
0.0
  0
LINE
  8
0
 62
     0
 10
10.7
 20
5.573476
 30
0.0
 11
13.5
 21
8.373476
 31
0.0
  0
LINE
  8
0
 62
     0
 10
10.7
 20
5.396699
 30
0.0
 11
13.5
 21
8.196699
 31
0.0
  0
LINE
  8
0
 62
     0
 10
10.7
 20
5.219922
 30
0.0
 11
13.5
 21
8.019922
 31
0.0
  0
LINE
  8
0
 62
     0
 10
10.856854
 20
5.2
 30
0.0
 11
13.5
 21
7.843146
 31
0.0
  0
LINE
  8
0
 62
     0
 10
11.033631
 20
5.2
 30
0.0
 11
13.5
 21
7.666369
 31
0.0
  0
LINE
  8
0
 62
     0
 10
11.210408
 20
5.2
 30
0.0
 11
13.5
 21
7.489592
 31
0.0
  0
LINE
  8
0
 62
     0
 10
11.387184
 20
5.2
 30
0.0
 11
13.5
 21
7.312816
 31
0.0
  0
LINE
  8
0
 62
     0
 10
11.563961
 20
5.2
 30
0.0
 11
13.5
 21
7.136039
 31
0.0
  0
LINE
  8
0
 62
     0
 10
11.740738
 20
5.2
 30
0.0
 11
13.5
 21
6.959262
 31
0.0
  0
LINE
  8
0
 62
     0
 10
11.917514
 20
5.2
 30
0.0
 11
13.5
 21
6.782486
 31
0.0
  0
LINE
  8
0
 62
     0
 10
12.094291
 20
5.2
 30
0.0
 11
13.5
 21
6.605709
 31
0.0
  0
LINE
  8
0
 62
     0
 10
12.271068
 20
5.2
 30
0.0
 11
13.5
 21
6.428932
 31
0.0
  0
LINE
  8
0
 62
     0
 10
12.447845
 20
5.2
 30
0.0
 11
13.5
 21
6.252155
 31
0.0
  0
LINE
  8
0
 62
     0
 10
12.624621
 20
5.2
 30
0.0
 11
13.5
 21
6.075379
 31
0.0
  0
LINE
  8
0
 62
     0
 10
12.801398
 20
5.2
 30
0.0
 11
13.5
 21
5.898602
 31
0.0
  0
LINE
  8
0
 62
     0
 10
12.978175
 20
5.2
 30
0.0
 11
13.5
 21
5.721825
 31
0.0
  0
LINE
  8
0
 62
     0
 10
13.154951
 20
5.2
 30
0.0
 11
13.5
 21
5.545049
 31
0.0
  0
LINE
  8
0
 62
     0
 10
13.331728
 20
5.2
 30
0.0
 11
13.5
 21
5.368272
 31
0.0
  0
ENDBLK
  8
0
  0
BLOCK
  8
0
  2
*X24
 70
    65
 10
0.0
 20
0.0
 30
0.0
  3
*X
  0
LINE
  8
0
 62
     0
 10
10.7
 20
1.154058
 30
0.0
 11
13.5
 21
3.954058
 31
0.0
  0
LINE
  8
0
 62
     0
 10
10.7
 20
1.330835
 30
0.0
 11
13.5
 21
4.130835
 31
0.0
  0
LINE
  8
0
 62
     0
 10
10.7
 20
1.507612
 30
0.0
 11
13.5
 21
4.307612
 31
0.0
  0
LINE
  8
0
 62
     0
 10
10.7
 20
1.684389
 30
0.0
 11
13.5
 21
4.484389
 31
0.0
  0
LINE
  8
0
 62
     0
 10
10.7
 20
1.861165
 30
0.0
 11
13.5
 21
4.661165
 31
0.0
  0
LINE
  8
0
 62
     0
 10
10.7
 20
2.037942
 30
0.0
 11
13.462058
 21
4.8
 31
0.0
  0
LINE
  8
0
 62
     0
 10
10.7
 20
2.214719
 30
0.0
 11
13.285281
 21
4.8
 31
0.0
  0
LINE
  8
0
 62
     0
 10
10.7
 20
2.391495
 30
0.0
 11
13.108505
 21
4.8
 31
0.0
  0
LINE
  8
0
 62
     0
 10
10.7
 20
2.568272
 30
0.0
 11
12.931728
 21
4.8
 31
0.0
  0
LINE
  8
0
 62
     0
 10
10.7
 20
2.745049
 30
0.0
 11
12.754951
 21
4.8
 31
0.0
  0
LINE
  8
0
 62
     0
 10
10.7
 20
2.921825
 30
0.0
 11
12.578175
 21
4.8
 31
0.0
  0
LINE
  8
0
 62
     0
 10
10.7
 20
3.098602
 30
0.0
 11
12.401398
 21
4.8
 31
0.0
  0
LINE
  8
0
 62
     0
 10
10.7
 20
3.275379
 30
0.0
 11
12.224621
 21
4.8
 31
0.0
  0
LINE
  8
0
 62
     0
 10
10.7
 20
3.452155
 30
0.0
 11
12.047845
 21
4.8
 31
0.0
  0
LINE
  8
0
 62
     0
 10
10.7
 20
3.628932
 30
0.0
 11
11.871068
 21
4.8
 31
0.0
  0
LINE
  8
0
 62
     0
 10
10.7
 20
3.805709
 30
0.0
 11
11.694291
 21
4.8
 31
0.0
  0
LINE
  8
0
 62
     0
 10
10.7
 20
3.982486
 30
0.0
 11
11.517514
 21
4.8
 31
0.0
  0
LINE
  8
0
 62
     0
 10
10.7
 20
4.159262
 30
0.0
 11
11.340738
 21
4.8
 31
0.0
  0
LINE
  8
0
 62
     0
 10
10.7
 20
4.336039
 30
0.0
 11
11.163961
 21
4.8
 31
0.0
  0
LINE
  8
0
 62
     0
 10
10.7
 20
4.512816
 30
0.0
 11
10.987184
 21
4.8
 31
0.0
  0
LINE
  8
0
 62
     0
 10
10.7
 20
4.689592
 30
0.0
 11
10.810408
 21
4.8
 31
0.0
  0
LINE
  8
0
 62
     0
 10
10.7
 20
0.977282
 30
0.0
 11
13.5
 21
3.777282
 31
0.0
  0
LINE
  8
0
 62
     0
 10
10.7
 20
0.800505
 30
0.0
 11
13.5
 21
3.600505
 31
0.0
  0
LINE
  8
0
 62
     0
 10
10.7
 20
0.623728
 30
0.0
 11
13.5
 21
3.423728
 31
0.0
  0
LINE
  8
0
 62
     0
 10
10.7
 20
0.446952
 30
0.0
 11
13.5
 21
3.246952
 31
0.0
  0
LINE
  8
0
 62
     0
 10
10.7
 20
0.270175
 30
0.0
 11
13.5
 21
3.070175
 31
0.0
  0
LINE
  8
0
 62
     0
 10
10.7
 20
0.093398
 30
0.0
 11
13.5
 21
2.893398
 31
0.0
  0
LINE
  8
0
 62
     0
 10
10.783378
 20
0.0
 30
0.0
 11
13.5
 21
2.716622
 31
0.0
  0
LINE
  8
0
 62
     0
 10
10.960155
 20
0.0
 30
0.0
 11
13.5
 21
2.539845
 31
0.0
  0
LINE
  8
0
 62
     0
 10
11.136932
 20
0.0
 30
0.0
 11
13.5
 21
2.363068
 31
0.0
  0
LINE
  8
0
 62
     0
 10
11.313708
 20
0.0
 30
0.0
 11
13.5
 21
2.186292
 31
0.0
  0
LINE
  8
0
 62
     0
 10
11.490485
 20
0.0
 30
0.0
 11
13.5
 21
2.009515
 31
0.0
  0
LINE
  8
0
 62
     0
 10
11.667262
 20
0.0
 30
0.0
 11
13.5
 21
1.832738
 31
0.0
  0
LINE
  8
0
 62
     0
 10
11.844039
 20
0.0
 30
0.0
 11
13.5
 21
1.655961
 31
0.0
  0
LINE
  8
0
 62
     0
 10
12.020815
 20
0.0
 30
0.0
 11
13.5
 21
1.479185
 31
0.0
  0
LINE
  8
0
 62
     0
 10
12.197592
 20
0.0
 30
0.0
 11
13.5
 21
1.302408
 31
0.0
  0
LINE
  8
0
 62
     0
 10
12.374369
 20
0.0
 30
0.0
 11
13.5
 21
1.125631
 31
0.0
  0
LINE
  8
0
 62
     0
 10
12.551145
 20
0.0
 30
0.0
 11
13.5
 21
0.948855
 31
0.0
  0
LINE
  8
0
 62
     0
 10
12.727922
 20
0.0
 30
0.0
 11
13.5
 21
0.772078
 31
0.0
  0
LINE
  8
0
 62
     0
 10
12.904699
 20
0.0
 30
0.0
 11
13.5
 21
0.595301
 31
0.0
  0
LINE
  8
0
 62
     0
 10
13.081475
 20
0.0
 30
0.0
 11
13.5
 21
0.418525
 31
0.0
  0
LINE
  8
0
 62
     0
 10
13.258252
 20
0.0
 30
0.0
 11
13.5
 21
0.241748
 31
0.0
  0
LINE
  8
0
 62
     0
 10
13.435029
 20
0.0
 30
0.0
 11
13.5
 21
0.064971
 31
0.0
  0
ENDBLK
  8
0
  0
BLOCK
  8
0
  2
*X25
 70
    65
 10
0.0
 20
0.0
 30
0.0
  3
*X
  0
LINE
  8
0
 62
     0
 10
13.9
 20
6.298602
 30
0.0
 11
16.582995
 21
8.981597
 31
0.0
  0
LINE
  8
0
 62
     0
 10
13.9
 20
6.475379
 30
0.0
 11
16.510503
 21
9.085882
 31
0.0
  0
LINE
  8
0
 62
     0
 10
13.9
 20
6.652155
 30
0.0
 11
16.432927
 21
9.185083
 31
0.0
  0
LINE
  8
0
 62
     0
 10
13.9
 20
6.828932
 30
0.0
 11
16.350372
 21
9.279304
 31
0.0
  0
LINE
  8
0
 62
     0
 10
13.9
 20
7.005709
 30
0.0
 11
16.262892
 21
9.368601
 31
0.0
  0
LINE
  8
0
 62
     0
 10
13.9
 20
7.182486
 30
0.0
 11
16.170495
 21
9.452981
 31
0.0
  0
LINE
  8
0
 62
     0
 10
13.9
 20
7.359262
 30
0.0
 11
16.073145
 21
9.532407
 31
0.0
  0
LINE
  8
0
 62
     0
 10
13.9
 20
7.536039
 30
0.0
 11
15.970755
 21
9.606794
 31
0.0
  0
LINE
  8
0
 62
     0
 10
13.9
 20
7.712816
 30
0.0
 11
15.863189
 21
9.676004
 31
0.0
  0
LINE
  8
0
 62
     0
 10
13.9
 20
7.889592
 30
0.0
 11
15.75025
 21
9.739843
 31
0.0
  0
LINE
  8
0
 62
     0
 10
13.9
 20
8.066369
 30
0.0
 11
15.631675
 21
9.798044
 31
0.0
  0
LINE
  8
0
 62
     0
 10
13.9
 20
8.243146
 30
0.0
 11
15.50711
 21
9.850256
 31
0.0
  0
LINE
  8
0
 62
     0
 10
13.9
 20
8.419922
 30
0.0
 11
15.376096
 21
9.896018
 31
0.0
  0
LINE
  8
0
 62
     0
 10
13.9
 20
8.596699
 30
0.0
 11
15.238027
 21
9.934726
 31
0.0
  0
LINE
  8
0
 62
     0
 10
13.9
 20
8.773476
 30
0.0
 11
15.092096
 21
9.965572
 31
0.0
  0
LINE
  8
0
 62
     0
 10
13.9
 20
8.950253
 30
0.0
 11
14.937209
 21
9.987461
 31
0.0
  0
LINE
  8
0
 62
     0
 10
13.9
 20
9.127029
 30
0.0
 11
14.771824
 21
9.998853
 31
0.0
  0
LINE
  8
0
 62
     0
 10
13.9
 20
9.303806
 30
0.0
 11
14.596193
 21
9.999999
 31
0.0
  0
LINE
  8
0
 62
     0
 10
13.9
 20
9.480583
 30
0.0
 11
14.419417
 21
9.999999
 31
0.0
  0
LINE
  8
0
 62
     0
 10
13.9
 20
9.657359
 30
0.0
 11
14.24264
 21
10.0
 31
0.0
  0
LINE
  8
0
 62
     0
 10
13.9
 20
9.834136
 30
0.0
 11
14.065864
 21
10.0
 31
0.0
  0
LINE
  8
0
 62
     0
 10
13.9
 20
6.121825
 30
0.0
 11
16.650245
 21
8.872071
 31
0.0
  0
LINE
  8
0
 62
     0
 10
13.9
 20
5.945049
 30
0.0
 11
16.712035
 21
8.757083
 31
0.0
  0
LINE
  8
0
 62
     0
 10
13.9
 20
5.768272
 30
0.0
 11
16.768067
 21
8.636339
 31
0.0
  0
LINE
  8
0
 62
     0
 10
13.9
 20
5.591495
 30
0.0
 11
16.817955
 21
8.509451
 31
0.0
  0
LINE
  8
0
 62
     0
 10
13.9
 20
5.414719
 30
0.0
 11
16.861189
 21
8.375908
 31
0.0
  0
LINE
  8
0
 62
     0
 10
13.9
 20
5.237942
 30
0.0
 11
16.897097
 21
8.235039
 31
0.0
  0
LINE
  8
0
 62
     0
 10
14.038835
 20
5.2
 30
0.0
 11
16.924779
 21
8.085944
 31
0.0
  0
LINE
  8
0
 62
     0
 10
14.215611
 20
5.2
 30
0.0
 11
16.942997
 21
7.927385
 31
0.0
  0
LINE
  8
0
 62
     0
 10
14.392388
 20
5.2
 30
0.0
 11
16.949987
 21
7.757599
 31
0.0
  0
LINE
  8
0
 62
     0
 10
14.569165
 20
5.2
 30
0.0
 11
16.943101
 21
7.573936
 31
0.0
  0
LINE
  8
0
 62
     0
 10
14.745942
 20
5.2
 30
0.0
 11
16.918037
 21
7.372095
 31
0.0
  0
LINE
  8
0
 62
     0
 10
14.922718
 20
5.2
 30
0.0
 11
16.866909
 21
7.144191
 31
0.0
  0
LINE
  8
0
 62
     0
 10
15.099495
 20
5.2
 30
0.0
 11
16.771715
 21
6.87222
 31
0.0
  0
LINE
  8
0
 62
     0
 10
15.276272
 20
5.2
 30
0.0
 11
15.847951
 21
5.77168
 31
0.0
  0
LINE
  8
0
 62
     0
 10
15.96673
 20
5.890458
 30
0.0
 11
16.559542
 21
6.48327
 31
0.0
  0
LINE
  8
0
 62
     0
 10
15.453048
 20
5.2
 30
0.0
 11
15.970661
 21
5.717613
 31
0.0
  0
LINE
  8
0
 62
     0
 10
15.629825
 20
5.2
 30
0.0
 11
16.088934
 21
5.659109
 31
0.0
  0
LINE
  8
0
 62
     0
 10
15.806602
 20
5.2
 30
0.0
 11
16.202964
 21
5.596363
 31
0.0
  0
LINE
  8
0
 62
     0
 10
15.983378
 20
5.2
 30
0.0
 11
16.312909
 21
5.529531
 31
0.0
  0
LINE
  8
0
 62
     0
 10
16.160155
 20
5.2
 30
0.0
 11
16.418895
 21
5.45874
 31
0.0
  0
LINE
  8
0
 62
     0
 10
16.336932
 20
5.2
 30
0.0
 11
16.521021
 21
5.384089
 31
0.0
  0
LINE
  8
0
 62
     0
 10
16.513708
 20
5.2
 30
0.0
 11
16.619363
 21
5.305655
 31
0.0
  0
LINE
  8
0
 62
     0
 10
16.690485
 20
5.2
 30
0.0
 11
16.713975
 21
5.22349
 31
0.0
  0
ENDBLK
  8
0
  0
BLOCK
  8
0
  2
*X26
 70
    65
 10
0.0
 20
0.0
 30
0.0
  3
*X
  0
LINE
  8
0
 62
     0
 10
13.9
 20
0.818525
 30
0.0
 11
17.39645
 21
4.314974
 31
0.0
  0
LINE
  8
0
 62
     0
 10
13.9
 20
0.995301
 30
0.0
 11
17.336354
 21
4.431655
 31
0.0
  0
LINE
  8
0
 62
     0
 10
13.9
 20
1.172078
 30
0.0
 11
17.272078
 21
4.544156
 31
0.0
  0
LINE
  8
0
 62
     0
 10
13.9
 20
1.348855
 30
0.0
 11
17.203766
 21
4.652621
 31
0.0
  0
LINE
  8
0
 62
     0
 10
13.9
 20
1.525631
 30
0.0
 11
17.131535
 21
4.757167
 31
0.0
  0
LINE
  8
0
 62
     0
 10
13.9
 20
1.702408
 30
0.0
 11
16.997592
 21
4.8
 31
0.0
  0
LINE
  8
0
 62
     0
 10
13.9
 20
1.879185
 30
0.0
 11
16.820815
 21
4.8
 31
0.0
  0
LINE
  8
0
 62
     0
 10
13.9
 20
2.055961
 30
0.0
 11
16.644039
 21
4.8
 31
0.0
  0
LINE
  8
0
 62
     0
 10
13.9
 20
2.232738
 30
0.0
 11
16.467262
 21
4.8
 31
0.0
  0
LINE
  8
0
 62
     0
 10
13.9
 20
2.409515
 30
0.0
 11
16.290485
 21
4.8
 31
0.0
  0
LINE
  8
0
 62
     0
 10
13.9
 20
2.586292
 30
0.0
 11
16.113708
 21
4.8
 31
0.0
  0
LINE
  8
0
 62
     0
 10
13.9
 20
2.763068
 30
0.0
 11
15.936932
 21
4.8
 31
0.0
  0
LINE
  8
0
 62
     0
 10
13.9
 20
2.939845
 30
0.0
 11
15.760155
 21
4.8
 31
0.0
  0
LINE
  8
0
 62
     0
 10
13.9
 20
3.116622
 30
0.0
 11
15.583378
 21
4.8
 31
0.0
  0
LINE
  8
0
 62
     0
 10
13.9
 20
3.293398
 30
0.0
 11
15.406602
 21
4.8
 31
0.0
  0
LINE
  8
0
 62
     0
 10
13.9
 20
3.470175
 30
0.0
 11
15.229825
 21
4.8
 31
0.0
  0
LINE
  8
0
 62
     0
 10
13.9
 20
3.646952
 30
0.0
 11
15.053048
 21
4.8
 31
0.0
  0
LINE
  8
0
 62
     0
 10
13.9
 20
3.823728
 30
0.0
 11
14.876272
 21
4.8
 31
0.0
  0
LINE
  8
0
 62
     0
 10
13.9
 20
4.000505
 30
0.0
 11
14.699495
 21
4.8
 31
0.0
  0
LINE
  8
0
 62
     0
 10
13.9
 20
4.177282
 30
0.0
 11
14.522718
 21
4.8
 31
0.0
  0
LINE
  8
0
 62
     0
 10
13.9
 20
4.354058
 30
0.0
 11
14.345942
 21
4.8
 31
0.0
  0
LINE
  8
0
 62
     0
 10
13.9
 20
4.530835
 30
0.0
 11
14.169165
 21
4.8
 31
0.0
  0
LINE
  8
0
 62
     0
 10
13.9
 20
4.707612
 30
0.0
 11
13.992388
 21
4.8
 31
0.0
  0
LINE
  8
0
 62
     0
 10
13.9
 20
0.641748
 30
0.0
 11
17.452185
 21
4.193933
 31
0.0
  0
LINE
  8
0
 62
     0
 10
13.9
 20
0.464971
 30
0.0
 11
17.503339
 21
4.068311
 31
0.0
  0
LINE
  8
0
 62
     0
 10
13.9
 20
0.288194
 30
0.0
 11
17.549642
 21
3.937837
 31
0.0
  0
LINE
  8
0
 62
     0
 10
13.9
 20
0.111418
 30
0.0
 11
17.590762
 21
3.80218
 31
0.0
  0
LINE
  8
0
 62
     0
 10
13.965359
 20
0.0
 30
0.0
 11
17.62629
 21
3.660931
 31
0.0
  0
LINE
  8
0
 62
     0
 10
14.142136
 20
0.000001
 30
0.0
 11
17.655713
 21
3.513577
 31
0.0
  0
LINE
  8
0
 62
     0
 10
14.318913
 20
0.000001
 30
0.0
 11
17.678385
 21
3.359473
 31
0.0
  0
LINE
  8
0
 62
     0
 10
14.49569
 20
0.000001
 30
0.0
 11
17.693473
 21
3.197784
 31
0.0
  0
LINE
  8
0
 62
     0
 10
14.672467
 20
0.000002
 30
0.0
 11
17.699875
 21
3.027409
 31
0.0
  0
LINE
  8
0
 62
     0
 10
14.853154
 20
0.003912
 30
0.0
 11
17.696088
 21
2.846846
 31
0.0
  0
LINE
  8
0
 62
     0
 10
15.046044
 20
0.020025
 30
0.0
 11
17.679975
 21
2.653956
 31
0.0
  0
LINE
  8
0
 62
     0
 10
15.254483
 20
0.051687
 30
0.0
 11
17.648313
 21
2.445517
 31
0.0
  0
LINE
  8
0
 62
     0
 10
15.483762
 20
0.10419
 30
0.0
 11
17.59581
 21
2.216238
 31
0.0
  0
LINE
  8
0
 62
     0
 10
15.743786
 20
0.187437
 30
0.0
 11
17.512563
 21
1.956214
 31
0.0
  0
LINE
  8
0
 62
     0
 10
16.058176
 20
0.32505
 30
0.0
 11
17.37495
 21
1.641824
 31
0.0
  0
LINE
  8
0
 62
     0
 10
16.54193
 20
0.632028
 30
0.0
 11
17.067972
 21
1.15807
 31
0.0
  0
ENDBLK
  8
0
  0
BLOCK
  8
0
  2
BLC15
 70
    64
 10
0.0
 20
0.0
 30
0.0
  3
BLC15
  0
LINE
  8
0
  6
CONTINUOUS
 10
0.142084
 20
3.490022
 30
0.0
 11
0.142084
 21
0.844365
 31
0.0
  0
LINE
  8
0
  6
CONTINUOUS
 10
-0.461611
 20
-0.937188
 30
0.0
 11
0.745779
 21
-0.937188
 31
0.0
  0
LINE
  8
0
  6
CONTINUOUS
 10
-0.894108
 20
-0.049675
 30
0.0
 11
1.169267
 21
-0.049675
 31
0.0
  0
LINE
  8
0
  6
CONTINUOUS
 10
-1.389679
 20
0.844365
 30
0.0
 11
1.673848
 21
0.844365
 31
0.0
  0
ENDBLK
  8
0
  0
BLOCK
  8
0
  2
BLC55
 70
     0
 10
0.0
 20
0.0
 30
0.0
  3
BLC55
  0
INSERT
  8
SWEDEN
  6
CENTER
  2
BLC5
 10
0.087066
 20
-0.756831
 30
0.0
 41
0.6
 42
0.6
 43
0.6
  0
ENDBLK
  8
0
  0
BLOCK
  8
0
  2
BLC5
 70
    64
 10
0.0
 20
0.0
 30
0.0
  3
BLC5
  0
TEXT
  8
0
 10
-3.043704
 20
-6.645912
 30
0.0
 40
3.2
  1
PE
  0
LINE
  8
0
 10
-2.946392
 20
1.181176
 30
0.0
 11
2.135458
 21
1.181176
 31
0.0
  0
LINE
  8
0
 10
-0.48656
 20
2.238362
 30
0.0
 11
-0.48656
 21
6.930438
 31
0.0
  0
LINE
  8
0
 10
-1.973271
 20
0.065258
 30
0.0
 11
1.225411
 21
0.065258
 31
0.0
  0
LINE
  8
0
 10
2.685091
 20
2.238362
 30
0.0
 11
1.68494
 21
2.238362
 31
0.0
  0
LINE
  8
0
 10
-3.505035
 20
2.238362
 30
0.0
 11
2.649049
 21
2.238362
 31
0.0
  0
CIRCLE
  8
0
 10
-0.47755
 20
1.422632
 30
0.0
 40
3.804563
  0
ENDBLK
  8
0
  0
BLOCK
  8
0
  2
BLC43
 70
    64
 10
0.0
 20
0.0
 30
0.0
  3
BLC43
  0
TEXT
  8
SWEDEN2
  6
CONTINUOUS
 10
-0.646672
 20
-0.986365
 30
0.0
 40
2.0
  1
+
  0
ENDBLK
  8
0
  0
BLOCK
  8
0
  2
BLC42
 70
    64
 10
0.0
 20
0.0
 30
0.0
  3
BLC42
  0
TEXT
  8
SWEDEN2
  6
CONTINUOUS
 10
-0.655237
 20
-0.99442
 30
0.0
 40
2.0
  1
-
  0
ENDBLK
  8
0
  0
BLOCK
  8
0
  2
BLC58
 70
     0
 10
0.0
 20
0.0
 30
0.0
  3
BLC58
  0
LINE
  8
BASE
  6
CONTINUOUS
 10
21.388391
 20
13.728844
 30
0.0
 11
30.450615
 21
13.728844
 31
0.0
  0
LINE
  8
0
  6
CONTINUOUS
 10
0.0
 20
30.095544
 30
0.0
 11
21.474488
 21
30.095544
 31
0.0
  0
LINE
  8
0
  6
CONTINUOUS
 10
0.0
 20
21.839396
 30
0.0
 11
21.474488
 21
21.839396
 31
0.0
  0
LINE
  8
0
  6
CONTINUOUS
 10
0.0
 20
13.728844
 30
0.0
 11
21.474488
 21
13.728844
 31
0.0
  0
LINE
  8
0
  6
CONTINUOUS
 10
1.348068
 20
7.725151
 30
0.0
 11
-0.011825
 21
7.725151
 31
0.0
  0
LINE
  8
0
  6
CONTINUOUS
 10
1.348068
 20
9.977606
 30
0.0
 11
1.348068
 21
7.725151
 31
0.0
  0
LINE
  8
0
  6
CONTINUOUS
 10
1.194341
 20
10.868311
 30
0.0
 11
0.0
 21
10.868311
 31
0.0
  0
LINE
  8
0
  6
CONTINUOUS
 10
3.299219
 20
10.868311
 30
0.0
 11
1.194341
 21
9.669285
 31
0.0
  0
LINE
  8
0
  6
CONTINUOUS
 10
5.557824
 20
10.868311
 30
0.0
 11
3.299219
 21
10.868311
 31
0.0
  0
LINE
  8
0
  6
CONTINUOUS
 10
26.181732
 20
9.078337
 30
0.0
 11
27.068619
 21
9.078337
 31
0.0
  0
LINE
  8
0
  6
CONTINUOUS
 10
25.850628
 20
9.566512
 30
0.0
 11
27.435199
 21
9.566512
 31
0.0
  0
LINE
  8
0
  6
CONTINUOUS
 10
26.666564
 20
10.046122
 30
0.0
 11
27.860905
 21
10.046122
 31
0.0
  0
LINE
  8
0
  6
CONTINUOUS
 10
25.472223
 20
10.046122
 30
0.0
 11
26.666564
 21
10.046122
 31
0.0
  0
LINE
  8
0
  6
CONTINUOUS
 10
26.682451
 20
11.400392
 30
0.0
 11
26.682451
 21
10.046122
 31
0.0
  0
TEXT
  8
0
  6
CONTINUOUS
 10
23.730424
 20
9.356562
 30
0.0
 40
2.5
  1
I
 11
23.730424
 21
8.523229
 31
0.0
 73
     1
  0
TEXT
  8
0
  6
CONTINUOUS
 10
23.718599
 20
44.648458
 30
0.0
 40
2.5
  1
2I
 11
23.718599
 21
43.815125
 31
0.0
 73
     1
  0
LINE
  8
0
  6
CONTINUOUS
 10
7.307083
 20
34.320728
 30
0.0
 11
4.961317
 21
33.130809
 31
0.0
  0
LINE
  8
0
  6
CONTINUOUS
 10
4.961317
 20
35.656082
 30
0.0
 11
7.307083
 21
34.320728
 31
0.0
  0
LINE
  8
0
  6
CONTINUOUS
 10
6.079793
 20
34.320728
 30
0.0
 11
3.734027
 21
33.130809
 31
0.0
  0
LINE
  8
0
  6
CONTINUOUS
 10
3.734027
 20
35.656082
 30
0.0
 11
6.079793
 21
34.320728
 31
0.0
  0
TEXT
  8
0
  6
CONTINUOUS
 10
1.924832
 20
33.140093
 30
0.0
 40
2.5
  1
I
 11
1.924832
 21
32.306759
 31
0.0
 73
     1
  0
TEXT
  8
0
  6
CONTINUOUS
 10
3.194767
 20
25.150348
 30
0.0
 40
1.5
  1
2
 11
3.194767
 21
24.650348
 31
0.0
 73
     1
  0
TEXT
  8
0
  6
CONTINUOUS
 10
1.743031
 20
25.483682
 30
0.0
 40
2.5
  1
I
 11
1.743031
 21
24.650348
 31
0.0
 73
     1
  0
ARC
  8
0
  6
CONTINUOUS
 10
16.744168
 20
27.959159
 30
0.0
 40
2.922744
 50
193.105513
 51
283.105513
  0
LINE
  8
0
  6
CONTINUOUS
 10
19.34584
 20
26.975098
 30
0.0
 11
19.34584
 21
25.359905
 31
0.0
  0
LINE
  8
0
  6
CONTINUOUS
 10
10.616324
 20
26.975098
 30
0.0
 11
10.616324
 21
25.359905
 31
0.0
  0
LINE
  8
0
  6
CONTINUOUS
 10
10.616324
 20
26.165772
 30
0.0
 11
19.341064
 21
26.165772
 31
0.0
  0
LINE
  8
0
  6
CONTINUOUS
 10
11.834315
 20
17.975819
 30
0.0
 11
20.559056
 21
17.975819
 31
0.0
  0
LINE
  8
0
  6
CONTINUOUS
 10
20.563831
 20
18.785145
 30
0.0
 11
20.563831
 21
17.169952
 31
0.0
  0
LINE
  8
0
  6
CONTINUOUS
 10
11.834315
 20
18.785145
 30
0.0
 11
11.834315
 21
17.169952
 31
0.0
  0
LINE
  8
0
  6
CONTINUOUS
 10
5.615664
 20
16.924236
 30
0.0
 11
3.269898
 21
18.259589
 31
0.0
  0
LINE
  8
0
  6
CONTINUOUS
 10
3.269898
 20
18.259589
 30
0.0
 11
5.615664
 21
19.449509
 31
0.0
  0
TEXT
  8
0
  6
CONTINUOUS
 10
1.771105
 20
17.124536
 30
0.0
 40
2.5
  1
I
 11
1.771105
 21
16.291202
 31
0.0
 73
     1
  0
LINE
  8
0
  6
CONTINUOUS
 10
11.834315
 20
11.008607
 30
0.0
 11
11.834315
 21
9.393414
 31
0.0
  0
LINE
  8
0
  6
CONTINUOUS
 10
20.563831
 20
11.008607
 30
0.0
 11
20.563831
 21
9.393414
 31
0.0
  0
LINE
  8
0
  6
CONTINUOUS
 10
11.834315
 20
10.199281
 30
0.0
 11
20.559056
 21
10.199281
 31
0.0
  0
LINE
  8
0
  6
CONTINUOUS
 10
9.094379
 20
9.523689
 30
0.0
 11
9.981266
 21
9.523689
 31
0.0
  0
LINE
  8
0
  6
CONTINUOUS
 10
8.763274
 20
10.011864
 30
0.0
 11
10.347846
 21
10.011864
 31
0.0
  0
LINE
  8
0
  6
CONTINUOUS
 10
9.57921
 20
10.491474
 30
0.0
 11
10.773551
 21
10.491474
 31
0.0
  0
LINE
  8
0
  6
CONTINUOUS
 10
8.384869
 20
10.491474
 30
0.0
 11
9.57921
 21
10.491474
 31
0.0
  0
LINE
  8
0
  6
CONTINUOUS
 10
9.595097
 20
11.845745
 30
0.0
 11
9.595097
 21
10.491474
 31
0.0
  0
TEXT
  8
0
  6
CONTINUOUS
 10
6.643071
 20
9.801915
 30
0.0
 40
2.5
  1
I
 11
6.643071
 21
8.968581
 31
0.0
 73
     1
  0
LINE
  8
0
  6
CONTINUOUS
 10
15.254454
 20
43.413293
 30
0.0
 11
15.254454
 21
37.555196
 31
0.0
  0
LINE
  8
0
  6
CONTINUOUS
 10
0.059126
 20
43.413293
 30
0.0
 11
15.254454
 21
43.413293
 31
0.0
  0
LINE
  8
0
  6
CONTINUOUS
 10
1.969552
 20
41.257245
 30
0.0
 11
4.315318
 21
39.921891
 31
0.0
  0
LINE
  8
0
  6
CONTINUOUS
 10
4.315318
 20
39.921891
 30
0.0
 11
1.969552
 21
38.731972
 31
0.0
  0
TEXT
  8
0
  6
CONTINUOUS
 10
5.510524
 20
38.756802
 30
0.0
 40
2.5
  1
95%
 11
5.510524
 21
37.923468
 31
0.0
 73
     1
  0
LINE
  8
0
  6
CONTINUOUS
 10
0.011825
 20
37.58089
 30
0.0
 11
21.415362
 21
37.58089
 31
0.0
  0
LINE
  8
0
  6
CONTINUOUS
 10
21.416194
 20
54.709828
 30
0.0
 11
21.416194
 21
5.232891
 31
0.0
  0
LINE
  8
0
  6
CONTINUOUS
 10
0.012657
 20
5.232891
 30
0.0
 11
30.450615
 21
5.232891
 31
0.0
  0
TEXT
  8
0
  6
CONTINUOUS
 10
11.908766
 20
1.295815
 30
0.0
 40
2.5
  1
IRF
 11
11.908766
 21
0.462481
 31
0.0
 73
     1
  0
LINE
  8
0
  6
CONTINUOUS
 10
18.921474
 20
53.565006
 30
0.0
 11
18.921474
 21
50.173736
 31
0.0
  0
LINE
  8
0
  6
CONTINUOUS
 10
18.921474
 20
50.173736
 30
0.0
 11
16.329266
 21
50.173736
 31
0.0
  0
LINE
  8
0
  6
CONTINUOUS
 10
16.329266
 20
50.173736
 30
0.0
 11
16.329266
 21
47.423701
 31
0.0
  0
LINE
  8
0
  6
CONTINUOUS
 10
16.329266
 20
47.423701
 30
0.0
 11
18.921474
 21
47.423701
 31
0.0
  0
LINE
  8
0
  6
CONTINUOUS
 10
18.921474
 20
47.423701
 30
0.0
 11
18.921474
 21
44.032431
 31
0.0
  0
LINE
  8
0
  6
CONTINUOUS
 10
0.012657
 20
54.709828
 30
0.0
 11
30.450615
 21
54.709828
 31
0.0
  0
LINE
  8
0
  6
CONTINUOUS
 10
0.012657
 20
0.0
 30
0.0
 11
0.012657
 21
54.709828
 31
0.0
  0
LINE
  8
0
  6
CONTINUOUS
 10
30.450615
 20
0.0
 30
0.0
 11
0.012657
 21
0.0
 31
0.0
  0
LINE
  8
0
  6
CONTINUOUS
 10
30.450615
 20
54.709828
 30
0.0
 11
30.450615
 21
0.0
 31
0.0
  0
ENDBLK
  8
0
  0
BLOCK
  8
0
  2
BLC56
 70
     0
 10
0.0
 20
0.0
 30
0.0
  3
BLC56
  0
LINE
  8
BASE
  6
CONTINUOUS
 10
10.0
 20
0.0
 30
0.0
 11
0.0
 21
0.0
 31
0.0
  0
LINE
  8
BASE
  6
CONTINUOUS
 10
0.0
 20
0.0
 30
0.0
 11
0.0
 21
5.0
 31
0.0
  0
LINE
  8
BASE
  6
CONTINUOUS
 10
0.0
 20
5.0
 30
0.0
 11
10.0
 21
5.0
 31
0.0
  0
LINE
  8
BASE
  6
CONTINUOUS
 10
10.0
 20
5.0
 30
0.0
 11
10.0
 21
0.0
 31
0.0
  0
CIRCLE
  8
0
  6
CONTINUOUS
 10
4.984447
 20
-0.797999
 30
0.0
 40
0.798019
  0
TEXT
  8
0
  6
CONTINUOUS
 10
6.68353
 20
1.362373
 30
0.0
 40
2.5
  1
1
 11
6.68353
 21
0.52904
 31
0.0
 73
     1
  0
LINE
  8
0
  6
CONTINUOUS
 10
2.241626
 20
0.69718
 30
0.0
 11
4.625086
 21
1.885372
 31
0.0
  0
LINE
  8
0
  6
CONTINUOUS
 10
2.249668
 20
4.022467
 30
0.0
 11
4.595433
 21
2.687113
 31
0.0
  0
LINE
  8
0
  6
CONTINUOUS
 10
4.595433
 20
2.687113
 30
0.0
 11
2.249668
 21
1.497194
 31
0.0
  0
ENDBLK
  8
0
  0
BLOCK
  8
0
  2
BLC57
 70
     0
 10
0.0
 20
0.0
 30
0.0
  3
BLC57
  0
TEXT
  8
0
  6
CONTINUOUS
 10
5.743694
 20
1.362373
 30
0.0
 40
2.5
  1
1
 11
5.743694
 21
0.52904
 31
0.0
 73
     1
  0
LINE
  8
0
  6
CONTINUOUS
 10
1.301791
 20
0.69718
 30
0.0
 11
3.685251
 21
1.885372
 31
0.0
  0
LINE
  8
0
  6
CONTINUOUS
 10
3.655598
 20
2.687113
 30
0.0
 11
1.309833
 21
1.497194
 31
0.0
  0
LINE
  8
0
  6
CONTINUOUS
 10
1.309833
 20
4.022467
 30
0.0
 11
3.655598
 21
2.687113
 31
0.0
  0
LINE
  8
BASE
  6
CONTINUOUS
 10
7.5
 20
0.0
 30
0.0
 11
7.5
 21
5.0
 31
0.0
  0
LINE
  8
BASE
  6
CONTINUOUS
 10
0.0
 20
0.0
 30
0.0
 11
7.5
 21
0.0
 31
0.0
  0
LINE
  8
BASE
  6
CONTINUOUS
 10
0.0
 20
5.0
 30
0.0
 11
0.0
 21
0.0
 31
0.0
  0
LINE
  8
BASE
  6
CONTINUOUS
 10
7.5
 20
5.0
 30
0.0
 11
0.0
 21
5.0
 31
0.0
  0
ENDBLK
  8
0
  0
BLOCK
  8
0
  2
B14
 70
     0
 10
0.0
 20
0.0
 30
0.0
  3
B14
  0
LINE
  8
BASE1
  6
CONTINUOUS
 10
2.5
 20
5.0
 30
0.0
 11
0.0
 21
5.0
 31
0.0
  0
LINE
  8
BASE1
  6
CONTINUOUS
 10
2.5
 20
5.0
 30
0.0
 11
2.5
 21
6.686532
 31
0.0
  0
LINE
  8
BASE1
  6
CONTINUOUS
 10
7.5
 20
5.0
 30
0.0
 11
2.345956
 21
6.475923
 31
0.0
  0
LINE
  8
BASE1
  6
CONTINUOUS
 10
10.0
 20
5.0
 30
0.0
 11
7.5
 21
5.0
 31
0.0
  0
LINE
  8
BASE1
 10
12.798812
 20
6.589925
 30
0.0
 11
12.798812
 21
-1.6
 31
0.0
  0
LINE
  8
BASE1
  6
CONTINUOUS
 10
12.798812
 20
5.0
 30
0.0
 11
8.098812
 21
5.0
 31
0.0
  0
LINE
  8
BASE1
  6
CONTINUOUS
 10
12.798812
 20
0.0
 30
0.0
 11
8.098812
 21
0.0
 31
0.0
  0
LINE
  8
BASE1
  6
CONTINUOUS
 10
10.0
 20
0.0
 30
0.0
 11
0.0
 21
0.0
 31
0.0
  0
LINE
  8
BASE1
 10
18.496971
 20
6.59384
 30
0.0
 11
16.642636
 21
4.315018
 31
0.0
  0
LINE
  8
BASE1
 10
17.004853
 20
6.59384
 30
0.0
 11
15.09105
 21
4.315018
 31
0.0
  0
LINE
  8
BASE1
 10
20.221556
 20
6.589925
 30
0.0
 11
12.798812
 21
6.589925
 31
0.0
  0
LINE
  8
BASE1
 10
20.221556
 20
-1.6
 30
0.0
 11
20.221556
 21
6.589925
 31
0.0
  0
LINE
  8
BASE1
 10
12.798812
 20
-1.6
 30
0.0
 11
20.221556
 21
-1.6
 31
0.0
  0
LINE
  8
BASE1
  6
CONTINUOUS
 10
20.221556
 20
2.5
 30
0.0
 11
23.098812
 21
2.5
 31
0.0
  0
TEXT
  8
BASE1
  6
CONTINUOUS
 10
0.988929
 20
-2.458581
 30
0.0
 40
2.0
  1
108:11
  0
TEXT
  8
BASE1
  6
CONTINUOUS
 10
0.988929
 20
2.654891
 30
0.0
 40
2.0
  1
14A
  0
TEXT
  8
BASE1
  6
CONTINUOUS
 10
2.505198
 20
7.263196
 30
0.0
 40
2.0
  1
101
  0
ENDBLK
  8
0
  0
BLOCK
  8
0
  2
B15
 70
     0
 10
0.0
 20
0.0
 30
0.0
  3
B15
  0
CIRCLE
  8
BASE1
  6
CONTINUOUS
 10
0.025538
 20
-0.001676
 30
0.0
 40
1.0
  0
ENDBLK
  8
0
  0
BLOCK
  8
0
  2
BLC44
 70
    64
 10
0.0
 20
0.0
 30
0.0
  3
BLC44
  0
LINE
  8
HEL035
 10
-2.520993
 20
1.697877
 30
0.0
 11
1.479007
 21
1.697877
 31
0.0
  0
INSERT
  8
HEL035
  2
WKU130
 10
-2.181043
 20
-0.027675
 30
0.0
 41
0.8
 42
0.8
 43
0.8
  0
ENDBLK
  8
0
  0
BLOCK
  8
0
  2
BLC13
 70
     0
 10
0.0
 20
0.0
 30
0.0
  3
BLC13
  0
LINE
  8
0
 10
-0.113126
 20
0.204294
 30
0.0
 11
16.227899
 21
0.204294
 31
0.0
  0
LINE
  8
0
  6
HIDDEN
 10
7.278095
 20
2.980501
 30
0.0
 11
6.770992
 21
3.671196
 31
0.0
  0
LINE
  8
0
  6
HIDDEN
 10
8.466383
 20
2.52552
 30
0.0
 11
7.48245
 21
2.865385
 31
0.0
  0
LINE
  8
0
  6
HIDDEN
 10
9.843889
 20
2.202099
 30
0.0
 11
8.769132
 21
2.432331
 31
0.0
  0
LINE
  8
0
  6
HIDDEN
 10
11.039745
 20
2.04313
 30
0.0
 11
10.260168
 21
2.10891
 31
0.0
  0
LINE
  8
0
  6
CONTINUOUS
 10
8.443677
 20
5.343115
 30
0.0
 11
9.344354
 21
4.219366
 31
0.0
  0
LINE
  8
0
  6
CONTINUOUS
 10
6.021689
 20
1.977349
 30
0.0
 11
8.8978
 21
4.805908
 31
0.0
  0
LINE
  8
0
  6
CONTINUOUS
 10
3.637545
 20
3.144952
 30
0.0
 11
11.42575
 21
3.144952
 31
0.0
  0
LINE
  8
0
  6
CONTINUOUS
 10
11.421208
 20
3.990231
 30
0.0
 11
11.421208
 21
2.202099
 31
0.0
  0
LINE
  8
0
  6
CONTINUOUS
 10
3.606513
 20
3.990231
 30
0.0
 11
3.606513
 21
2.202099
 31
0.0
  0
LINE
  8
0
  6
CONTINUOUS
 10
8.069666
 20
14.830198
 30
0.0
 11
10.415431
 21
13.494844
 31
0.0
  0
LINE
  8
0
  6
CONTINUOUS
 10
10.415431
 20
13.494844
 30
0.0
 11
8.069666
 21
12.304925
 31
0.0
  0
LINE
  8
0
 10
-0.113126
 20
28.866096
 30
0.0
 11
-0.113126
 21
0.204294
 31
0.0
  0
LINE
  8
0
  6
CONTINUOUS
 10
7.939274
 20
7.188094
 30
0.0
 11
7.029453
 21
7.188094
 31
0.0
  0
LINE
  8
0
  6
CONTINUOUS
 10
7.466441
 20
7.550453
 30
0.0
 11
8.108261
 21
7.550453
 31
0.0
  0
LINE
  8
0
  6
CONTINUOUS
 10
6.859004
 20
7.550453
 30
0.0
 11
7.466441
 21
7.550453
 31
0.0
  0
LINE
  8
0
  6
CONTINUOUS
 10
7.466441
 20
7.945861
 30
0.0
 11
8.360405
 21
7.945861
 31
0.0
  0
LINE
  8
0
  6
CONTINUOUS
 10
6.572478
 20
7.945861
 30
0.0
 11
7.483633
 21
7.945861
 31
0.0
  0
LINE
  8
0
  6
CONTINUOUS
 10
7.466441
 20
9.290587
 30
0.0
 11
7.466441
 21
7.945861
 31
0.0
  0
TEXT
  8
0
  6
CONTINUOUS
 10
4.514415
 20
7.246756
 30
0.0
 40
2.5
  1
I
 11
4.514415
 21
6.413423
 31
0.0
 73
     1
  0
LINE
  8
0
  6
CONTINUOUS
 10
8.582011
 20
13.494844
 30
0.0
 11
6.236245
 21
12.304925
 31
0.0
  0
LINE
  8
0
  6
CONTINUOUS
 10
6.236245
 20
14.830198
 30
0.0
 11
8.582011
 21
13.494844
 31
0.0
  0
LINE
  8
0
  6
CONTINUOUS
 10
12.885039
 20
24.912349
 30
0.0
 11
10.539273
 21
23.72243
 31
0.0
  0
LINE
  8
0
  6
CONTINUOUS
 10
10.539273
 20
26.247703
 30
0.0
 11
12.885039
 21
24.912349
 31
0.0
  0
TEXT
  8
0
  6
CONTINUOUS
 10
3.037954
 20
23.742652
 30
0.0
 40
2.5
  1
2 I
 11
3.037954
 21
22.909319
 31
0.0
 73
     1
  0
TEXT
  8
0
  6
CONTINUOUS
 10
3.403907
 20
12.419301
 30
0.0
 40
2.5
  1
2
 11
3.403907
 21
11.585968
 31
0.0
 73
     1
  0
LINE
  8
0
  6
CONTINUOUS
 10
16.227899
 20
28.866096
 30
0.0
 11
16.227899
 21
0.204294
 31
0.0
  0
LINE
  8
0
  6
CONTINUOUS
 10
-0.113126
 20
28.866096
 30
0.0
 11
16.227899
 21
28.866096
 31
0.0
  0
LINE
  8
0
  6
HIDDEN
 10
7.278095
 20
19.087963
 30
0.0
 11
6.770992
 21
19.778657
 31
0.0
  0
LINE
  8
0
  6
HIDDEN
 10
8.466383
 20
18.632981
 30
0.0
 11
7.48245
 21
18.972847
 31
0.0
  0
LINE
  8
0
  6
HIDDEN
 10
9.843889
 20
18.309561
 30
0.0
 11
8.769132
 21
18.539792
 31
0.0
  0
LINE
  8
0
  6
HIDDEN
 10
11.039745
 20
18.150591
 30
0.0
 11
10.260168
 21
18.216372
 31
0.0
  0
LINE
  8
0
  6
CONTINUOUS
 10
8.443677
 20
21.450576
 30
0.0
 11
9.344354
 21
20.326827
 31
0.0
  0
LINE
  8
0
  6
CONTINUOUS
 10
6.021689
 20
18.084811
 30
0.0
 11
8.8978
 21
20.91337
 31
0.0
  0
LINE
  8
0
  6
CONTINUOUS
 10
3.637545
 20
19.252414
 30
0.0
 11
11.42575
 21
19.252414
 31
0.0
  0
LINE
  8
0
  6
CONTINUOUS
 10
11.421208
 20
20.097692
 30
0.0
 11
11.421208
 21
18.309561
 31
0.0
  0
LINE
  8
0
  6
CONTINUOUS
 10
3.606513
 20
20.097692
 30
0.0
 11
3.606513
 21
18.309561
 31
0.0
  0
TEXT
  8
TEKS
 10
-8.041988
 20
-4.723508
 30
0.0
 40
2.0
  1
OVERCURRENT RELAY
 11
-8.041988
 21
-5.390175
 31
0.0
 73
     1
  0
ENDBLK
  8
0
  0
BLOCK
  8
0
  2
BLC6
 70
     0
 10
0.0
 20
0.0
 30
0.0
  3
BLC6
  0
LINE
  8
0
  6
CENTER
 10
13.663378
 20
7.674384
 30
0.0
 11
13.663378
 21
11.133077
 31
0.0
  0
LINE
  8
0
  6
CENTER
 10
10.212405
 20
7.674384
 30
0.0
 11
10.212405
 21
11.133077
 31
0.0
  0
LINE
  8
0
  6
CENTER
 10
6.806485
 20
7.674384
 30
0.0
 11
6.806485
 21
11.133077
 31
0.0
  0
LINE
  8
0
  6
CENTER
 10
3.400564
 20
7.674384
 30
0.0
 11
3.400564
 21
11.133077
 31
0.0
  0
LINE
  8
0
  6
CONTINUOUS
 10
0.027989
 20
7.679384
 30
0.0
 11
17.15534
 21
7.679384
 31
0.0
  0
LINE
  8
0
  6
CONTINUOUS
 10
17.15534
 20
7.633703
 30
0.0
 11
17.15534
 21
0.023085
 31
0.0
  0
LINE
  8
0
  6
CONTINUOUS
 10
17.15534
 20
0.023085
 30
0.0
 11
0.027989
 21
0.023085
 31
0.0
  0
LINE
  8
0
  6
CONTINUOUS
 10
0.027989
 20
0.023085
 30
0.0
 11
0.027989
 21
7.633703
 31
0.0
  0
LINE
  8
0
  6
CONTINUOUS
 10
0.027989
 20
7.607478
 30
0.0
 11
0.027989
 21
3.836262
 31
0.0
  0
LINE
  8
0
  6
CONTINUOUS
 10
4.279049
 20
6.133609
 30
0.0
 11
10.174044
 21
4.271604
 31
0.0
  0
LINE
  8
0
  6
CONTINUOUS
 10
10.174044
 20
4.271604
 30
0.0
 11
10.23198
 21
4.271604
 31
0.0
  0
LINE
  8
0
  6
CONTINUOUS
 10
0.027989
 20
5.698267
 30
0.0
 11
0.027989
 21
3.836262
 31
0.0
  0
LINE
  8
0
  6
CONTINUOUS
 10
0.027989
 20
3.836262
 30
0.0
 11
0.027989
 21
3.836262
 31
0.0
  0
LINE
  8
0
  6
CONTINUOUS
 10
10.23198
 20
4.271604
 30
0.0
 11
4.279049
 21
2.409599
 31
0.0
  0
LINE
  8
0
  6
CONTINUOUS
 10
4.279049
 20
1.187494
 30
0.0
 11
10.123349
 21
3.049499
 31
0.0
  0
TEXT
  8
0
  6
CONTINUOUS
 10
11.803495
 20
1.769698
 30
0.0
 40
4.8
  1
1
  0
LINE
  8
0
  6
CONTINUOUS
 10
8.57537
 20
0.013998
 30
0.0
 11
8.57537
 21
-2.405298
 31
0.0
  0
ENDBLK
  8
0
  0
BLOCK
  8
0
  2
BLC46
 70
     0
 10
0.0
 20
0.0
 30
0.0
  3
BLC46
  0
LINE
  8
BASE
  6
CONTINUOUS
 10
0.0
 20
0.0
 30
0.0
 11
5.0
 21
0.0
 31
0.0
  0
LINE
  8
BASE
  6
CONTINUOUS
 10
5.0
 20
-5.0
 30
0.0
 11
0.0
 21
-5.0
 31
0.0
  0
LINE
  8
BASE
  6
CONTINUOUS
 10
5.0
 20
-5.0
 30
0.0
 11
5.0
 21
-2.5
 31
0.0
  0
LINE
  8
BASE
  6
CONTINUOUS
 10
10.0
 20
0.0
 30
0.0
 11
15.0
 21
0.0
 31
0.0
  0
LINE
  8
BASE
  6
CONTINUOUS
 10
10.0
 20
0.0
 30
0.0
 11
4.256076
 21
-3.214703
 31
0.0
  0
ENDBLK
  8
0
  0
BLOCK
  8
0
  2
B25
 70
     0
 10
0.0
 20
0.0
 30
0.0
  3
B25
  0
LINE
  8
BASE
  6
CONTINUOUS
 10
7.993665
 20
0.0
 30
0.0
 11
0.0
 21
0.0
 31
0.0
  0
LINE
  8
BASE
  6
CONTINUOUS
 10
7.993665
 20
2.572693
 30
0.0
 11
7.993665
 21
0.0
 31
0.0
  0
LINE
  8
BASE
  6
CONTINUOUS
 10
17.5
 20
0.0
 30
0.0
 11
7.5
 21
2.5
 31
0.0
  0
LINE
  8
BASE
  6
CONTINUOUS
 10
22.5
 20
0.0
 30
0.0
 11
17.5
 21
0.0
 31
0.0
  0
TEXT
  8
BASE
  6
CONTINUOUS
 10
2.685974
 20
1.915936
 30
0.0
 40
1.5
  1
101
  0
TEXT
  8
BASE
  6
CONTINUOUS
 10
2.685974
 20
-2.144616
 30
0.0
 40
1.5
  1
17A
  0
ENDBLK
  8
0
  0
BLOCK
  8
0
  2
B24
 70
     0
 10
0.0
 20
0.0
 30
0.0
  3
B24
  0
LINE
  8
BASE
  6
CONTINUOUS
 10
10.0
 20
0.0
 30
0.0
 11
0.0
 21
0.0
 31
0.0
  0
LINE
  8
BASE
  6
CONTINUOUS
 10
12.798812
 20
0.0
 30
0.0
 11
8.098812
 21
0.0
 31
0.0
  0
LINE
  8
BASE
  6
CONTINUOUS
 10
2.5
 20
5.0
 30
0.0
 11
0.0
 21
5.0
 31
0.0
  0
LINE
  8
BASE
  6
CONTINUOUS
 10
2.5
 20
5.0
 30
0.0
 11
2.5
 21
6.686532
 31
0.0
  0
LINE
  8
BASE
  6
CONTINUOUS
 10
2.347355
 20
6.475523
 30
0.0
 11
1.954974
 21
5.510233
 31
0.0
  0
LINE
  8
BASE
  6
CONTINUOUS
 10
7.5
 20
5.0
 30
0.0
 11
2.347355
 21
6.475523
 31
0.0
  0
LINE
  8
BASE
  6
CONTINUOUS
 10
10.0
 20
5.0
 30
0.0
 11
7.5
 21
5.0
 31
0.0
  0
LINE
  8
BASE
  6
CONTINUOUS
 10
12.798812
 20
5.0
 30
0.0
 11
8.098812
 21
5.0
 31
0.0
  0
TEXT
  8
BASE
  6
CONTINUOUS
 10
0.988929
 20
-2.458581
 30
0.0
 40
2.0
  1
108:11
  0
TEXT
  8
BASE
  6
CONTINUOUS
 10
0.988929
 20
2.654891
 30
0.0
 40
2.0
  1
14A
  0
TEXT
  8
BASE
  6
CONTINUOUS
 10
2.505198
 20
7.263196
 30
0.0
 40
2.0
  1
101
  0
LINE
  8
BASE
 10
12.798812
 20
6.589925
 30
0.0
 11
12.798812
 21
-1.6
 31
0.0
  0
LINE
  8
BASE
 10
17.004853
 20
6.59384
 30
0.0
 11
15.09105
 21
4.315018
 31
0.0
  0
LINE
  8
BASE
 10
18.496971
 20
6.59384
 30
0.0
 11
16.642636
 21
4.315018
 31
0.0
  0
LINE
  8
BASE
 10
20.221556
 20
6.589925
 30
0.0
 11
12.798812
 21
6.589925
 31
0.0
  0
LINE
  8
BASE
 10
12.798812
 20
-1.6
 30
0.0
 11
20.221556
 21
-1.6
 31
0.0
  0
LINE
  8
BASE
 10
20.221556
 20
-1.6
 30
0.0
 11
20.221556
 21
6.589925
 31
0.0
  0
LINE
  8
BASE
  6
CONTINUOUS
 10
20.221556
 20
2.5
 30
0.0
 11
23.098812
 21
2.5
 31
0.0
  0
ENDBLK
  8
0
  0
BLOCK
  8
0
  2
BLC3
 70
     0
 10
0.0
 20
0.0
 30
0.0
  3
BLC3
  0
LINE
  8
0
 10
6.154084
 20
-0.026103
 30
0.0
 11
6.154084
 21
-4.333155
 31
0.0
  0
LINE
  8
0
 10
6.154084
 20
12.36646
 30
0.0
 11
6.154084
 21
17.052011
 31
0.0
  0
LINE
  8
0
 10
-0.036041
 20
12.36646
 30
0.0
 11
6.154084
 21
12.36646
 31
0.0
  0
TEXT
  8
0
 10
1.68494
 20
5.272876
 30
0.0
 40
2.0
  1
150ms
  0
LINE
  8
0
 10
9.68615
 20
10.872044
 30
0.0
 11
9.68615
 21
8.888189
 31
0.0
  0
LINE
  8
0
 10
2.342697
 20
10.872044
 30
0.0
 11
2.342697
 21
8.888189
 31
0.0
  0
LINE
  8
0
 10
2.342697
 20
9.880116
 30
0.0
 11
9.69516
 21
9.880116
 31
0.0
  0
LINE
  8
0
 10
0.0
 20
0.0
 30
0.0
 11
0.0
 21
12.372986
 31
0.0
  0
LINE
  8
0
 10
12.371241
 20
0.0
 30
0.0
 11
0.0
 21
0.0
 31
0.0
  0
LINE
  8
0
 10
12.371241
 20
12.372986
 30
0.0
 11
12.371241
 21
0.0
 31
0.0
  0
LINE
  8
0
 10
0.0
 20
12.372986
 30
0.0
 11
12.371241
 21
12.372986
 31
0.0
  0
ENDBLK
  8
0
  0
BLOCK
  8
0
  2
B26
 70
     0
 10
0.0
 20
0.0
 30
0.0
  3
B26
  0
LINE
  8
BASE
  6
CONTINUOUS
 10
0.0
 20
3.648475
 30
0.0
 11
0.0
 21
0.0
 31
0.0
  0
LINE
  8
BASE
  6
CONTINUOUS
 10
0.0
 20
11.8384
 30
0.0
 11
0.0
 21
15.0
 31
0.0
  0
LINE
  8
0
 10
-2.557808
 20
9.826555
 30
0.0
 11
2.76563
 21
9.826555
 31
0.0
  0
LINE
  8
0
 10
-2.557808
 20
10.544745
 30
0.0
 11
-2.557808
 21
9.108365
 31
0.0
  0
LINE
  8
0
 10
2.759106
 20
10.544745
 30
0.0
 11
2.759106
 21
9.108365
 31
0.0
  0
TEXT
  8
BASE
  6
CONTINUOUS
 10
-3.396424
 20
6.398368
 30
0.0
 40
1.5
  1
150ms
  0
LINE
  8
BASE
 10
4.135737
 20
3.648475
 30
0.0
 11
4.135737
 21
11.8384
 31
0.0
  0
LINE
  8
BASE
 10
-3.942086
 20
3.648475
 30
0.0
 11
4.135737
 21
3.648475
 31
0.0
  0
LINE
  8
BASE
 10
4.135737
 20
11.8384
 30
0.0
 11
-3.942086
 21
11.8384
 31
0.0
  0
LINE
  8
BASE
 10
-3.942086
 20
11.8384
 30
0.0
 11
-3.942086
 21
3.648475
 31
0.0
  0
ENDBLK
  8
0
  0
BLOCK
  8
0
  2
B11
 70
     0
 10
0.0
 20
0.0
 30
0.0
  3
B11
  0
TEXT
  8
BASE
  6
CONTINUOUS
 10
-4.579696
 20
-2.847581
 30
0.0
 40
2.0
  1
8A
  0
TEXT
  8
BASE
  6
CONTINUOUS
 10
-4.579696
 20
6.962947
 30
0.0
 40
2.0
  1
7A
  0
TEXT
  8
BASE
  6
CONTINUOUS
 10
-4.579696
 20
17.07474
 30
0.0
 40
2.0
  1
6A
  0
TEXT
  8
BASE
  6
CONTINUOUS
 10
-4.579696
 20
27.186533
 30
0.0
 40
2.0
  1
5A
  0
TEXT
  8
BASE
  6
CONTINUOUS
 10
-4.579696
 20
37.448958
 30
0.0
 40
2.0
  1
4A
  0
TEXT
  8
BASE
  6
CONTINUOUS
 10
-4.579696
 20
46.958222
 30
0.0
 40
2.0
  1
3A
  0
TEXT
  8
BASE
  6
CONTINUOUS
 10
-20.369738
 20
48.419138
 30
0.0
 40
1.5
  1
101
  0
INSERT
  8
BASE
  6
CONTINUOUS
  2
BLC29
 10
-27.142151
 20
29.871732
 30
0.0
 50
180.0
  0
INSERT
  8
BASE
  6
CONTINUOUS
  2
BLC29
 10
-27.142151
 20
-0.128536
 30
0.0
 50
180.0
  0
LINE
  8
BASE
  6
CONTINUOUS
 10
-20.0
 20
-5.0
 30
0.0
 11
-17.5
 21
-5.0
 31
0.0
  0
LINE
  8
BASE
  6
CONTINUOUS
 10
-20.0
 20
5.0
 30
0.0
 11
-17.5
 21
5.0
 31
0.0
  0
LINE
  8
BASE
  6
CONTINUOUS
 10
-20.0
 20
15.0
 30
0.0
 11
-17.5
 21
15.0
 31
0.0
  0
LINE
  8
BASE
  6
CONTINUOUS
 10
-20.0
 20
25.0
 30
0.0
 11
-17.5
 21
25.0
 31
0.0
  0
LINE
  8
BASE
  6
CONTINUOUS
 10
-20.0
 20
35.0
 30
0.0
 11
-17.5
 21
35.0
 31
0.0
  0
LINE
  8
BASE
  6
CONTINUOUS
 10
-20.0
 20
45.0
 30
0.0
 11
-17.5
 21
45.0
 31
0.0
  0
LINE
  8
BASE
  6
CONTINUOUS
 10
-22.5
 20
5.0
 30
0.0
 11
-21.5
 21
6.0
 31
0.0
  0
LINE
  8
BASE
  6
CONTINUOUS
 10
-22.5
 20
-5.0
 30
0.0
 11
-21.5
 21
-6.0
 31
0.0
  0
LINE
  8
BASE
  6
CONTINUOUS
 10
-22.5
 20
5.0
 30
0.0
 11
-22.5
 21
-5.0
 31
0.0
  0
LINE
  8
BASE
  6
CONTINUOUS
 10
-22.5
 20
15.0
 30
0.0
 11
-21.5
 21
14.0
 31
0.0
  0
LINE
  8
BASE
  6
CONTINUOUS
 10
-22.5
 20
45.0
 30
0.0
 11
-21.5
 21
46.0
 31
0.0
  0
LINE
  8
BASE
  6
CONTINUOUS
 10
-22.5
 20
45.0
 30
0.0
 11
-22.5
 21
15.0
 31
0.0
  0
LINE
  8
21
 10
-5.0
 20
0.0
 30
0.0
 11
-10.8
 21
-3.5
 31
0.0
  0
LINE
  8
HEL035
 10
-11.11905
 20
-3.055575
 30
0.0
 11
-10.439687
 21
-3.991319
 31
0.0
  0
LINE
  8
21
 10
-10.0
 20
-5.0
 30
0.0
 11
-10.0
 21
-2.1
 31
0.0
  0
LINE
  8
21
 10
-12.5
 20
-5.0
 30
0.0
 11
-10.0
 21
-5.0
 31
0.0
  0
LINE
  8
HEL035
 10
-17.5
 20
-5.0
 30
0.0
 11
-12.5
 21
-5.0
 31
0.0
  0
INSERT
  8
BASE
  6
CENTER
  2
BLC22
 10
-15.0
 20
0.0
 30
0.0
  0
LINE
  8
HEL035
 10
-17.5
 20
15.0
 30
0.0
 11
-12.5
 21
15.0
 31
0.0
  0
LINE
  8
21
 10
-12.5
 20
15.0
 30
0.0
 11
-10.0
 21
15.0
 31
0.0
  0
LINE
  8
21
 10
-10.0
 20
15.0
 30
0.0
 11
-10.0
 21
17.9
 31
0.0
  0
LINE
  8
HEL035
 10
-11.11905
 20
16.944425
 30
0.0
 11
-10.439687
 21
16.008681
 31
0.0
  0
LINE
  8
21
 10
-5.0
 20
20.0
 30
0.0
 11
-10.8
 21
16.5
 31
0.0
  0
INSERT
  8
BASE
  6
CENTER
  2
BLC22
 10
-15.0
 20
20.0
 30
0.0
  0
LINE
  8
21
 10
-5.0
 20
40.0
 30
0.0
 11
-10.8
 21
36.5
 31
0.0
  0
LINE
  8
HEL035
 10
-11.11905
 20
36.944425
 30
0.0
 11
-10.439687
 21
36.008681
 31
0.0
  0
LINE
  8
21
 10
-10.0
 20
35.0
 30
0.0
 11
-10.0
 21
37.9
 31
0.0
  0
LINE
  8
21
 10
-12.5
 20
35.0
 30
0.0
 11
-10.0
 21
35.0
 31
0.0
  0
LINE
  8
HEL035
 10
-17.5
 20
35.0
 30
0.0
 11
-12.5
 21
35.0
 31
0.0
  0
INSERT
  8
BASE
  6
CENTER
  2
BLC22
 10
-15.0
 20
40.0
 30
0.0
  0
LINE
  8
BASE
  6
CONTINUOUS
 10
-22.5
 20
0.0
 30
0.0
 11
-32.049385
 21
0.0
 31
0.0
  0
LINE
  8
BASE
  6
CONTINUOUS
 10
-22.5
 20
30.0
 30
0.0
 11
-32.049385
 21
30.0
 31
0.0
  0
LINE
  8
BASE
  6
CONTINUOUS
 10
-5.0
 20
50.0
 30
0.0
 11
0.0
 21
50.0
 31
0.0
  0
LINE
  8
BASE
  6
CONTINUOUS
 10
-5.0
 20
40.0
 30
0.0
 11
0.0
 21
40.0
 31
0.0
  0
LINE
  8
BASE
  6
CONTINUOUS
 10
-5.0
 20
30.0
 30
0.0
 11
0.0
 21
30.0
 31
0.0
  0
LINE
  8
BASE
  6
CONTINUOUS
 10
-5.0
 20
20.0
 30
0.0
 11
0.0
 21
20.0
 31
0.0
  0
LINE
  8
BASE
  6
CONTINUOUS
 10
-5.0
 20
10.0
 30
0.0
 11
0.0
 21
10.0
 31
0.0
  0
LINE
  8
BASE
  6
CONTINUOUS
 10
-5.0
 20
0.0
 30
0.0
 11
0.0
 21
0.0
 31
0.0
  0
ENDBLK
  8
0
  0
BLOCK
  8
0
  2
B8
 70
     0
 10
0.0
 20
0.0
 30
0.0
  3
B8
  0
POLYLINE
  8
0
  6
DASHED
 66
     1
 10
0.0
 20
0.0
 30
0.0
 70
     1
 40
0.25
 41
0.25
 71
     2
 72
   151
  0
VERTEX
  8
0
  6
DASHED
 10
42.125
 20
0.0
 30
0.0
 42
1.0
  0
VERTEX
  8
0
  6
DASHED
 10
42.875
 20
0.0
 30
0.0
 42
1.0
  0
SEQEND
  8
0
  6
DASHED
  0
TEXT
  8
0
  6
CONTINUOUS
 10
13.732328
 20
74.006967
 30
0.0
 40
2.0
  1
L3(T)
 11
13.732328
 21
73.3403
 31
0.0
 73
     1
  0
TEXT
  8
0
  6
CONTINUOUS
 10
13.732328
 20
81.428359
 30
0.0
 40
2.0
  1
L2(S)
 11
13.732328
 21
80.761693
 31
0.0
 73
     1
  0
TEXT
  8
0
  6
CONTINUOUS
 10
13.732328
 20
88.985054
 30
0.0
 40
2.0
  1
L1(R)
 11
13.732328
 21
88.318387
 31
0.0
 73
     1
  0
LINE
  8
0
  6
CONTINUOUS
 10
52.5
 20
22.5
 30
0.0
 11
52.5
 21
0.0
 31
0.0
  0
INSERT
  8
0
  6
DASHED
  2
BLC15
 10
42.357914
 20
-3.489387
 30
0.0
  0
LINE
  8
0
  6
DASHED
 10
57.483152
 20
5.189984
 30
0.0
 11
47.5
 21
5.189984
 31
0.0
  0
LINE
  8
0
  6
DASHED
 10
47.5
 20
0.0
 30
0.0
 11
47.5
 21
5.189984
 31
0.0
  0
INSERT
  8
0
  6
DASHED
  2
BLC15
 10
52.357914
 20
-3.489387
 30
0.0
  0
LINE
  8
0
  6
CONTINUOUS
 10
57.5
 20
7.591425
 30
0.0
 11
52.5
 21
7.591425
 31
0.0
  0
POLYLINE
  8
0
  6
DASHED
 66
     1
 10
0.0
 20
0.0
 30
0.0
 70
     1
 40
0.25
 41
0.25
 71
     2
 72
   151
  0
VERTEX
  8
0
  6
DASHED
 10
42.125
 20
20.0
 30
0.0
 42
1.0
  0
VERTEX
  8
0
  6
DASHED
 10
42.875
 20
20.0
 30
0.0
 42
1.0
  0
SEQEND
  8
0
  6
DASHED
  0
INSERT
  8
0
  6
DASHED
  2
BLC15
 10
42.357916
 20
16.509978
 30
0.0
  0
POLYLINE
  8
0
  6
DASHED
 66
     1
 10
0.0
 20
0.0
 30
0.0
 70
     1
 40
0.25
 41
0.25
 71
     2
 72
   151
  0
VERTEX
  8
0
  6
DASHED
 10
42.117941
 20
25.19257
 30
0.0
 42
1.0
  0
VERTEX
  8
0
  6
DASHED
 10
42.867941
 20
25.19257
 30
0.0
 42
1.0
  0
SEQEND
  8
0
  6
DASHED
  0
LINE
  8
0
  6
DASHED
 10
65.066785
 20
25.189984
 30
0.0
 11
42.5
 21
25.189984
 31
0.0
  0
LINE
  8
0
  6
DASHED
 10
42.5
 20
45.189992
 30
0.0
 11
42.5
 21
20.0
 31
0.0
  0
LINE
  8
0
  6
DASHED
 10
50.0
 20
45.189992
 30
0.0
 11
42.5
 21
45.189992
 31
0.0
  0
POLYLINE
  8
0
  6
DASHED
 66
     1
 10
0.0
 20
0.0
 30
0.0
 70
     1
 40
0.25
 41
0.25
 71
     2
 72
   151
  0
VERTEX
  8
0
  6
DASHED
 10
9.625
 20
20.0
 30
0.0
 42
1.0
  0
VERTEX
  8
0
  6
DASHED
 10
10.375
 20
20.0
 30
0.0
 42
1.0
  0
SEQEND
  8
0
  6
DASHED
  0
LINE
  8
0
  6
DASHED
 10
10.0
 20
40.0
 30
0.0
 11
10.0
 21
20.0
 31
0.0
  0
LINE
  8
0
  6
DASHED
 10
57.5
 20
12.5
 30
0.0
 11
57.5
 21
-7.5
 31
0.0
  0
POLYLINE
  8
0
  6
CONTINUOUS
 66
     1
 10
0.0
 20
0.0
 30
0.0
 70
     1
 40
0.25
 41
0.25
 71
     2
 72
   151
  0
VERTEX
  8
0
  6
CONTINUOUS
 10
52.125
 20
22.5
 30
0.0
 42
1.0
  0
VERTEX
  8
0
  6
CONTINUOUS
 10
52.875
 20
22.5
 30
0.0
 42
1.0
  0
SEQEND
  8
0
  6
CONTINUOUS
  0
INSERT
  8
0
  6
CONTINUOUS
  2
BLC27
 10
58.991155
 20
7.618431
 30
0.0
 50
180.0
  0
POLYLINE
  8
0
  6
CONTINUOUS
 66
     1
 10
0.0
 20
0.0
 30
0.0
 70
     1
 40
0.25
 41
0.25
 71
     2
 72
   151
  0
VERTEX
  8
0
  6
CONTINUOUS
 10
49.625
 20
90.0
 30
0.0
 42
1.0
  0
VERTEX
  8
0
  6
CONTINUOUS
 10
50.375
 20
90.0
 30
0.0
 42
1.0
  0
SEQEND
  8
0
  6
CONTINUOUS
  0
POLYLINE
  8
0
  6
CONTINUOUS
 66
     1
 10
0.0
 20
0.0
 30
0.0
 70
     1
 40
0.25
 41
0.25
 71
     2
 72
   151
  0
VERTEX
  8
0
  6
CONTINUOUS
 10
57.125
 20
82.5
 30
0.0
 42
1.0
  0
VERTEX
  8
0
  6
CONTINUOUS
 10
57.875
 20
82.5
 30
0.0
 42
1.0
  0
SEQEND
  8
0
  6
CONTINUOUS
  0
POLYLINE
  8
0
  6
CONTINUOUS
 66
     1
 10
0.0
 20
0.0
 30
0.0
 70
     1
 40
0.25
 41
0.25
 71
     2
 72
   151
  0
VERTEX
  8
0
  6
CONTINUOUS
 10
64.625
 20
75.0
 30
0.0
 42
1.0
  0
VERTEX
  8
0
  6
CONTINUOUS
 10
65.375
 20
75.0
 30
0.0
 42
1.0
  0
SEQEND
  8
0
  6
CONTINUOUS
  0
LINE
  8
0
  6
CONTINUOUS
 10
65.0
 20
62.5
 30
0.0
 11
64.5
 21
62.0
 31
0.0
  0
LINE
  8
0
  6
CONTINUOUS
 10
65.0
 20
62.5
 30
0.0
 11
64.5
 21
63.0
 31
0.0
  0
LINE
  8
0
  6
CONTINUOUS
 10
65.0
 20
62.5
 30
0.0
 11
65.5
 21
63.0
 31
0.0
  0
LINE
  8
0
  6
CONTINUOUS
 10
65.0
 20
62.5
 30
0.0
 11
65.5
 21
62.0
 31
0.0
  0
LINE
  8
0
  6
CONTINUOUS
 10
57.5
 20
62.5
 30
0.0
 11
57.0
 21
63.0
 31
0.0
  0
LINE
  8
0
  6
CONTINUOUS
 10
57.5
 20
62.5
 30
0.0
 11
57.0
 21
62.0
 31
0.0
  0
LINE
  8
0
  6
CONTINUOUS
 10
57.5
 20
62.5
 30
0.0
 11
58.0
 21
62.0
 31
0.0
  0
LINE
  8
0
  6
CONTINUOUS
 10
57.5
 20
62.5
 30
0.0
 11
58.0
 21
63.0
 31
0.0
  0
LINE
  8
0
  6
CONTINUOUS
 10
50.0
 20
62.5
 30
0.0
 11
49.5
 21
62.0
 31
0.0
  0
LINE
  8
0
  6
CONTINUOUS
 10
50.0
 20
62.5
 30
0.0
 11
50.5
 21
63.0
 31
0.0
  0
LINE
  8
0
  6
CONTINUOUS
 10
50.0
 20
62.5
 30
0.0
 11
50.5
 21
62.0
 31
0.0
  0
LINE
  8
0
  6
CONTINUOUS
 10
50.0
 20
62.5
 30
0.0
 11
49.5
 21
63.0
 31
0.0
  0
LINE
  8
0
  6
CONTINUOUS
 10
65.0
 20
55.0
 30
0.0
 11
62.5
 21
62.5
 31
0.0
  0
LINE
  8
0
  6
CONTINUOUS
 10
57.5
 20
55.0
 30
0.0
 11
55.0
 21
62.5
 31
0.0
  0
LINE
  8
0
  6
CONTINUOUS
 10
50.0
 20
55.0
 30
0.0
 11
47.5
 21
62.5
 31
0.0
  0
LINE
  8
0
  6
CONTINUOUS
 10
57.5
 20
12.5
 30
0.0
 11
62.5
 21
22.5
 31
0.0
  0
LINE
  8
0
  6
CONTINUOUS
 10
57.5
 20
12.5
 30
0.0
 11
52.5
 21
22.5
 31
0.0
  0
LINE
  8
0
  6
CONTINUOUS
 10
50.0
 20
22.5
 30
0.0
 11
65.0
 21
22.5
 31
0.0
  0
INSERT
  8
0
  6
CONTINUOUS
  2
BLC27
 10
66.491158
 20
27.61843
 30
0.0
 50
180.0
  0
LINE
  8
0
  6
DASHED
 10
50.0
 20
75.0
 30
0.0
 11
50.0
 21
90.0
 31
0.0
  0
LINE
  8
0
  6
DASHED
 10
57.5
 20
75.0
 30
0.0
 11
57.5
 21
82.5
 31
0.0
  0
LINE
  8
0
  6
DASHED
 10
80.0
 20
90.0
 30
0.0
 11
22.5
 21
90.0
 31
0.0
  0
LINE
  8
0
  6
DASHED
 10
80.0
 20
82.5
 30
0.0
 11
22.5
 21
82.5
 31
0.0
  0
LINE
  8
0
  6
DASHED
 10
80.0
 20
75.0
 30
0.0
 11
22.5
 21
75.0
 31
0.0
  0
LINE
  8
0
  6
DASHED
 10
65.0
 20
55.0
 30
0.0
 11
65.0
 21
22.5
 31
0.0
  0
LINE
  8
0
  6
DASHED
 10
65.0
 20
75.0
 30
0.0
 11
65.0
 21
62.5
 31
0.0
  0
LINE
  8
0
  6
DASHED
 10
57.5
 20
55.0
 30
0.0
 11
57.5
 21
22.5
 31
0.0
  0
LINE
  8
0
  6
DASHED
 10
57.5
 20
75.0
 30
0.0
 11
57.5
 21
62.5
 31
0.0
  0
LINE
  8
0
  6
DASHED
 10
50.0
 20
62.5
 30
0.0
 11
50.0
 21
75.0
 31
0.0
  0
LINE
  8
0
  6
DASHED
 10
50.0
 20
55.0
 30
0.0
 11
50.0
 21
22.5
 31
0.0
  0
INSERT
  8
0
  6
CONTINUOUS
  2
BLC27
 10
51.491154
 20
47.618433
 30
0.0
 50
180.0
  0
LINE
  8
0
  6
DASHED
 10
0.0
 20
0.0
 30
0.0
 11
47.5
 21
0.0
 31
0.0
  0
LINE
  8
0
  6
DASHED
 10
0.0
 20
10.0
 30
0.0
 11
57.5
 21
10.0
 31
0.0
  0
LINE
  8
0
  6
DASHED
 10
0.0
 20
20.0
 30
0.0
 11
42.5
 21
20.0
 31
0.0
  0
LINE
  8
0
  6
DASHED
 10
0.0
 20
30.0
 30
0.0
 11
65.0
 21
30.0
 31
0.0
  0
LINE
  8
0
  6
DASHED
 10
0.0
 20
40.0
 30
0.0
 11
10.0
 21
40.0
 31
0.0
  0
LINE
  8
0
  6
DASHED
 10
0.0
 20
50.0
 30
0.0
 11
50.0
 21
50.0
 31
0.0
  0
ENDBLK
  8
0
  0
BLOCK
  8
0
  2
B6
 70
     0
 10
0.0
 20
0.0
 30
0.0
  3
B6
  0
TEXT
  8
0
  6
DASHED
 10
0.813324
 20
-6.94985
 30
0.0
 40
2.0
  1
108 SPAJ 122
  0
TEXT
  8
0
  6
DASHED
 10
0.813324
 20
-3.616516
 30
0.0
 40
2.0
  1
101 RTXP 18
  0
TEXT
  8
0
  6
DASHED
 10
22.211341
 20
7.140379
 30
0.0
 40
2.0
  1
4S
  0
TEXT
  8
0
  6
DASHED
 10
9.617517
 20
15.041706
 30
0.0
 40
2.0
  1
30C
  0
TEXT
  8
0
  6
DASHED
 10
9.249881
 20
11.800442
 30
0.0
 40
2.0
  1
108
  0
TEXT
  8
0
  6
DASHED
 10
1.364387
 20
11.816142
 30
0.0
 40
2.0
  1
101  
  0
LINE
  8
0
  6
CONTINUOUS
 10
0.374793
 20
14.318353
 30
0.0
 11
21.053957
 21
14.318353
 31
0.0
  0
LINE
  8
0
  6
CONTINUOUS
 10
21.053957
 20
14.318353
 30
0.0
 11
21.053957
 21
0.172845
 31
0.0
  0
LINE
  8
0
  6
CONTINUOUS
 10
21.053957
 20
0.172845
 30
0.0
 11
0.374793
 21
0.172845
 31
0.0
  0
LINE
  8
0
  6
CONTINUOUS
 10
0.374793
 20
0.172845
 30
0.0
 11
0.374793
 21
14.318353
 31
0.0
  0
LINE
  8
0
  6
CONTINUOUS
 10
6.902051
 20
14.318353
 30
0.0
 11
6.902051
 21
0.172845
 31
0.0
  0
LINE
  8
0
  6
CONTINUOUS
 10
8.716235
 20
14.318353
 30
0.0
 11
8.716235
 21
0.172845
 31
0.0
  0
ENDBLK
  8
0
  0
BLOCK
  8
0
  2
B12
 70
     0
 10
0.0
 20
0.0
 30
0.0
  3
B12
  0
TEXT
  8
0
  6
CONTINUOUS
 10
6.847207
 20
12.309463
 30
0.0
 40
2.5
  1
I
 11
6.847207
 21
11.47613
 31
0.0
 73
     1
  0
LINE
  8
0
  6
CONTINUOUS
 10
4.034791
 20
20.097692
 30
0.0
 11
4.034791
 21
18.309561
 31
0.0
  0
LINE
  8
0
  6
CONTINUOUS
 10
11.849486
 20
20.097692
 30
0.0
 11
11.849486
 21
18.309561
 31
0.0
  0
LINE
  8
0
  6
CONTINUOUS
 10
4.065822
 20
19.252414
 30
0.0
 11
11.854027
 21
19.252414
 31
0.0
  0
LINE
  8
0
  6
CONTINUOUS
 10
6.449967
 20
18.084811
 30
0.0
 11
9.326077
 21
20.91337
 31
0.0
  0
LINE
  8
0
  6
CONTINUOUS
 10
8.871955
 20
21.450576
 30
0.0
 11
9.772631
 21
20.326827
 31
0.0
  0
LINE
  8
0
  6
HIDDEN
 10
11.468023
 20
18.150591
 30
0.0
 11
10.688446
 21
18.216372
 31
0.0
  0
LINE
  8
0
  6
HIDDEN
 10
10.272166
 20
18.309561
 30
0.0
 11
9.197409
 21
18.539792
 31
0.0
  0
LINE
  8
0
  6
HIDDEN
 10
8.894661
 20
18.632981
 30
0.0
 11
7.910728
 21
18.972847
 31
0.0
  0
LINE
  8
0
  6
HIDDEN
 10
7.706373
 20
19.087963
 30
0.0
 11
7.199269
 21
19.778657
 31
0.0
  0
LINE
  8
0
  6
CONTINUOUS
 10
0.315152
 20
28.866096
 30
0.0
 11
16.656177
 21
28.866096
 31
0.0
  0
LINE
  8
0
  6
CONTINUOUS
 10
16.656177
 20
28.866096
 30
0.0
 11
16.656177
 21
0.204294
 31
0.0
  0
TEXT
  8
0
  6
CONTINUOUS
 10
3.832185
 20
12.419301
 30
0.0
 40
2.5
  1
2
 11
3.832185
 21
11.585968
 31
0.0
 73
     1
  0
TEXT
  8
0
  6
CONTINUOUS
 10
3.466231
 20
23.742652
 30
0.0
 40
2.5
  1
2 I
 11
3.466231
 21
22.909319
 31
0.0
 73
     1
  0
LINE
  8
0
  6
CONTINUOUS
 10
10.967551
 20
26.247703
 30
0.0
 11
13.313316
 21
24.912349
 31
0.0
  0
LINE
  8
0
  6
CONTINUOUS
 10
13.313316
 20
24.912349
 30
0.0
 11
10.967551
 21
23.72243
 31
0.0
  0
LINE
  8
0
  6
CONTINUOUS
 10
8.328357
 20
14.830198
 30
0.0
 11
10.674122
 21
13.494844
 31
0.0
  0
LINE
  8
0
  6
CONTINUOUS
 10
10.674122
 20
13.494844
 30
0.0
 11
8.328357
 21
12.304925
 31
0.0
  0
TEXT
  8
0
  6
CONTINUOUS
 10
4.942692
 20
7.246756
 30
0.0
 40
2.5
  1
I
 11
4.942692
 21
6.413423
 31
0.0
 73
     1
  0
LINE
  8
0
  6
CONTINUOUS
 10
7.894719
 20
9.290587
 30
0.0
 11
7.894719
 21
7.945861
 31
0.0
  0
LINE
  8
0
  6
CONTINUOUS
 10
7.000755
 20
7.945861
 30
0.0
 11
7.91191
 21
7.945861
 31
0.0
  0
LINE
  8
0
  6
CONTINUOUS
 10
7.894719
 20
7.945861
 30
0.0
 11
8.788682
 21
7.945861
 31
0.0
  0
LINE
  8
0
  6
CONTINUOUS
 10
7.287282
 20
7.550453
 30
0.0
 11
7.894719
 21
7.550453
 31
0.0
  0
LINE
  8
0
  6
CONTINUOUS
 10
7.894719
 20
7.550453
 30
0.0
 11
8.536539
 21
7.550453
 31
0.0
  0
LINE
  8
0
  6
CONTINUOUS
 10
8.367551
 20
7.188094
 30
0.0
 11
7.457731
 21
7.188094
 31
0.0
  0
LINE
  8
0
 10
0.315152
 20
28.866096
 30
0.0
 11
0.315152
 21
0.204294
 31
0.0
  0
LINE
  8
0
  6
CONTINUOUS
 10
12.507543
 20
13.494844
 30
0.0
 11
10.161777
 21
12.304925
 31
0.0
  0
LINE
  8
0
  6
CONTINUOUS
 10
10.161777
 20
14.830198
 30
0.0
 11
12.507543
 21
13.494844
 31
0.0
  0
LINE
  8
0
  6
CONTINUOUS
 10
4.034791
 20
3.990231
 30
0.0
 11
4.034791
 21
2.202099
 31
0.0
  0
LINE
  8
0
  6
CONTINUOUS
 10
11.849486
 20
3.990231
 30
0.0
 11
11.849486
 21
2.202099
 31
0.0
  0
LINE
  8
0
  6
CONTINUOUS
 10
4.065822
 20
3.144952
 30
0.0
 11
11.854027
 21
3.144952
 31
0.0
  0
LINE
  8
0
  6
CONTINUOUS
 10
6.449967
 20
1.977349
 30
0.0
 11
9.326077
 21
4.805908
 31
0.0
  0
LINE
  8
0
  6
CONTINUOUS
 10
8.871955
 20
5.343115
 30
0.0
 11
9.772631
 21
4.219366
 31
0.0
  0
LINE
  8
0
  6
HIDDEN
 10
11.468023
 20
2.04313
 30
0.0
 11
10.688446
 21
2.10891
 31
0.0
  0
LINE
  8
0
  6
HIDDEN
 10
10.272166
 20
2.202099
 30
0.0
 11
9.197409
 21
2.432331
 31
0.0
  0
LINE
  8
0
  6
HIDDEN
 10
8.894661
 20
2.52552
 30
0.0
 11
7.910728
 21
2.865385
 31
0.0
  0
LINE
  8
0
  6
HIDDEN
 10
7.706373
 20
2.980501
 30
0.0
 11
7.199269
 21
3.671196
 31
0.0
  0
LINE
  8
0
 10
0.315152
 20
0.204294
 30
0.0
 11
16.656177
 21
0.204294
 31
0.0
  0
TEXT
  8
0
  6
DASHED
 10
-6.425168
 20
-8.885769
 30
0.0
 40
2.0
  1
ÖVERSTRÖMSRELÄ
  0
TEXT
  8
0
  6
DASHED
 10
-6.425168
 20
-5.552435
 30
0.0
 40
2.0
  1
OVERCURRENT RELAY
  0
ENDBLK
  8
0
  0
BLOCK
  8
0
  2
B17
 70
     0
 10
0.0
 20
0.0
 30
0.0
  3
B17
  0
TEXT
  8
0
 10
-5.0
 20
-13.107802
 30
0.0
 40
2.0
  1
MOTORSKYDDSRELÄ
 11
-5.0
 21
-13.774469
 31
0.0
 73
     1
  0
TEXT
  8
0
 10
-5.0
 20
-9.774469
 30
0.0
 40
2.0
  1
RELAY
 11
-5.0
 21
-10.441136
 31
0.0
 73
     1
  0
TEXT
  8
0
 10
-5.0
 20
-6.441136
 30
0.0
 40
2.0
  1
MOTOR PROTECTION
 11
-5.0
 21
-7.107802
 31
0.0
 73
     1
  0
INSERT
  8
0
  2
BLC16
 10
0.0
 20
0.0
 30
0.0
  0
ENDBLK
  8
0
  0
BLOCK
  8
0
  2
B20
 70
     0
 10
0.0
 20
0.0
 30
0.0
  3
B20
  0
INSERT
  8
0
  6
CONTINUOUS
  2
BLC25
 10
-0.49118
 20
1.171798
 30
0.0
  0
ENDBLK
  8
0
  0
BLOCK
  8
0
  2
BLC25
 70
    64
 10
0.0
 20
0.0
 30
0.0
  3
BLC25
  0
TEXT
  8
0
  6
CONTINUOUS
 10
2.0
 20
30.666667
 30
0.0
 40
2.0
  1
1)
 11
2.0
 21
30.0
 31
0.0
 73
     1
  0
TEXT
  8
0
 10
6.0
 20
2.0
 30
0.0
 40
2.0
  1
7B    27     26
 11
6.0
 21
1.333333
 31
0.0
 73
     1
  0
TEXT
  8
0
 10
6.0
 20
5.333333
 30
0.0
 40
2.0
  1
5B     9      8
 11
6.0
 21
4.666667
 31
0.0
 73
     1
  0
TEXT
  8
0
 10
6.0
 20
8.666667
 30
0.0
 40
2.0
  1
3B     3      2
 11
6.0
 21
8.0
 31
0.0
 73
     1
  0
TEXT
  8
0
 10
32.0
 20
12.666667
 30
0.0
 40
2.0
  1
In=5A
 11
32.0
 21
12.0
 31
0.0
 73
     1
  0
TEXT
  8
0
 10
16.0
 20
12.666667
 30
0.0
 40
2.0
  1
In=1A 
 11
16.0
 21
12.0
 31
0.0
 73
     1
  0
TEXT
  8
0
 10
26.0
 20
18.666667
 30
0.0
 40
2.0
  1
108:
 11
26.0
 21
18.0
 31
0.0
 73
     1
  0
TEXT
  8
0
 10
6.0
 20
18.666667
 30
0.0
 40
2.0
  1
101:       
 11
6.0
 21
18.0
 31
0.0
 73
     1
  0
TEXT
  8
0
 10
6.0
 20
24.666667
 30
0.0
 40
2.0
  1
TERMINALS / UTTAG
 11
6.0
 21
24.0
 31
0.0
 73
     1
  0
LINE
  8
0
 10
0.0
 20
12.0
 30
0.0
 11
44.0
 21
12.0
 31
0.0
  0
LINE
  8
0
 10
28.0
 20
18.0
 30
0.0
 11
28.0
 21
0.0
 31
0.0
  0
LINE
  8
0
 10
14.0
 20
18.0
 30
0.0
 11
44.0
 21
18.0
 31
0.0
  0
LINE
  8
0
 10
14.0
 20
24.0
 30
0.0
 11
14.0
 21
0.0
 31
0.0
  0
LINE
  8
0
 10
0.0
 20
24.0
 30
0.0
 11
44.0
 21
24.0
 31
0.0
  0
LINE
  8
0
 10
44.0
 20
0.0
 30
0.0
 11
44.0
 21
30.0
 31
0.0
  0
LINE
  8
0
 10
0.0
 20
0.0
 30
0.0
 11
44.0
 21
0.0
 31
0.0
  0
LINE
  8
0
 10
0.0
 20
30.0
 30
0.0
 11
0.0
 21
0.0
 31
0.0
  0
LINE
  8
0
 10
44.0
 20
30.0
 30
0.0
 11
0.0
 21
30.0
 31
0.0
  0
ENDBLK
  8
0
  0
BLOCK
  8
0
  2
B27
 70
     0
 10
0.0
 20
0.0
 30
0.0
  3
B27
  0
LINE
  8
BASE
  6
CONTINUOUS
 10
-5.0
 20
0.0
 30
0.0
 11
7.5
 21
0.0
 31
0.0
  0
LINE
  8
BASE
  6
CONTINUOUS
 10
-5.0
 20
5.0
 30
0.0
 11
-5.0
 21
0.0
 31
0.0
  0
LINE
  8
BASE
  6
CONTINUOUS
 10
-2.5
 20
5.0
 30
0.0
 11
-2.5
 21
13.652485
 31
0.0
  0
LINE
  8
BASE
  6
CONTINUOUS
 10
7.5
 20
5.0
 30
0.0
 11
7.5
 21
0.0
 31
0.0
  0
LINE
  8
BASE
  6
CONTINUOUS
 10
7.5
 20
5.0
 30
0.0
 11
-5.0
 21
5.0
 31
0.0
  0
LINE
  8
BASE
  6
CONTINUOUS
 10
5.0
 20
7.5
 30
0.0
 11
5.0
 21
10.0
 31
0.0
  0
LINE
  8
BASE
  6
CONTINUOUS
 10
2.5
 20
7.5
 30
0.0
 11
2.5
 21
10.0
 31
0.0
  0
LINE
  8
BASE
  6
CONTINUOUS
 10
0.0
 20
5.0
 30
0.0
 11
0.0
 21
13.652485
 31
0.0
  0
LINE
  8
BASE
  6
CONTINUOUS
 10
0.0
 20
-2.5
 30
0.0
 11
0.0
 21
-7.5
 31
0.0
  0
LINE
  8
BASE
  6
CONTINUOUS
 10
2.5
 20
5.0
 30
0.0
 11
2.5
 21
7.5
 31
0.0
  0
LINE
  8
BASE
  6
CONTINUOUS
 10
5.0
 20
5.0
 30
0.0
 11
5.0
 21
7.5
 31
0.0
  0
LINE
  8
BASE
  6
CONTINUOUS
 10
0.0
 20
0.0
 30
0.0
 11
0.0
 21
-2.5
 31
0.0
  0
LINE
  8
BASE
  6
CONTINUOUS
 10
1.24635
 20
2.789195
 30
0.0
 11
-1.099415
 21
1.599276
 31
0.0
  0
LINE
  8
BASE
  6
CONTINUOUS
 10
-1.107457
 20
0.799262
 30
0.0
 11
1.276004
 21
1.987454
 31
0.0
  0
LINE
  8
BASE
  6
CONTINUOUS
 10
-1.099415
 20
4.124549
 30
0.0
 11
1.24635
 21
2.789195
 31
0.0
  0
TEXT
  8
BASE
  6
CONTINUOUS
 10
3.334447
 20
1.464455
 30
0.0
 40
2.5
  1
1
 11
3.334447
 21
0.631122
 31
0.0
 73
     1
  0
ENDBLK
  8
0
  0
BLOCK
  8
0
  2
B28
 70
     0
 10
0.0
 20
0.0
 30
0.0
  3
B28
  0
TEXT
  8
BASE
  6
CENTER
 10
-5.533251
 20
-72.779029
 30
0.0
 40
2.0
  1
10A
  0
TEXT
  8
BASE
  6
CENTER
 10
-4.498916
 20
-62.62865
 30
0.0
 40
2.0
  1
9A
  0
LINE
  8
BASE
  6
CONTINUOUS
 10
-22.5
 20
-35.0
 30
0.0
 11
-22.5
 21
-55.0
 31
0.0
  0
LINE
  8
BASE
  6
CONTINUOUS
 10
-5.0
 20
-70.0
 30
0.0
 11
0.0
 21
-70.0
 31
0.0
  0
LINE
  8
BASE
  6
CONTINUOUS
 10
-5.0
 20
-60.0
 30
0.0
 11
0.0
 21
-60.0
 31
0.0
  0
LINE
  8
BASE
 10
-11.11905
 20
-73.055575
 30
0.0
 11
-10.439687
 21
-73.991319
 31
0.0
  0
LINE
  8
BASE
 10
-5.0
 20
-70.0
 30
0.0
 11
-10.8
 21
-73.5
 31
0.0
  0
LINE
  8
BASE
 10
-10.0
 20
-75.0
 30
0.0
 11
-10.0
 21
-72.1
 31
0.0
  0
LINE
  8
BASE
 10
-12.5
 20
-75.0
 30
0.0
 11
-10.0
 21
-75.0
 31
0.0
  0
INSERT
  8
BASE
  6
CENTER
  2
BLC22
 10
-15.0
 20
-70.0
 30
0.0
  0
LINE
  8
BASE
  6
CONTINUOUS
 10
-20.0
 20
-65.0
 30
0.0
 11
-17.5
 21
-65.0
 31
0.0
  0
LINE
  8
BASE
  6
CONTINUOUS
 10
-20.0
 20
-75.0
 30
0.0
 11
-17.5
 21
-75.0
 31
0.0
  0
LINE
  8
BASE
 10
-17.5
 20
-75.0
 30
0.0
 11
-12.5
 21
-75.0
 31
0.0
  0
LINE
  8
BASE
  6
CONTINUOUS
 10
-5.0
 20
-50.0
 30
0.0
 11
0.0
 21
-50.0
 31
0.0
  0
LINE
  8
BASE
  6
CONTINUOUS
 10
-5.0
 20
-40.0
 30
0.0
 11
0.0
 21
-40.0
 31
0.0
  0
LINE
  8
BASE
  6
CONTINUOUS
 10
-5.0
 20
-30.0
 30
0.0
 11
0.0
 21
-30.0
 31
0.0
  0
LINE
  8
BASE
  6
CONTINUOUS
 10
-5.0
 20
-20.0
 30
0.0
 11
0.0
 21
-20.0
 31
0.0
  0
LINE
  8
BASE
  6
CONTINUOUS
 10
-5.0
 20
-10.0
 30
0.0
 11
0.0
 21
-10.0
 31
0.0
  0
LINE
  8
BASE
  6
CONTINUOUS
 10
-5.0
 20
0.0
 30
0.0
 11
0.0
 21
0.0
 31
0.0
  0
INSERT
  8
BASE
  6
CENTER
  2
BLC22
 10
-15.0
 20
-10.0
 30
0.0
  0
LINE
  8
BASE
 10
-17.5
 20
-15.0
 30
0.0
 11
-12.5
 21
-15.0
 31
0.0
  0
LINE
  8
BASE
 10
-12.5
 20
-15.0
 30
0.0
 11
-10.0
 21
-15.0
 31
0.0
  0
LINE
  8
BASE
 10
-10.0
 20
-15.0
 30
0.0
 11
-10.0
 21
-12.1
 31
0.0
  0
LINE
  8
BASE
 10
-11.11905
 20
-13.055575
 30
0.0
 11
-10.439687
 21
-13.991319
 31
0.0
  0
LINE
  8
BASE
 10
-5.0
 20
-10.0
 30
0.0
 11
-10.8
 21
-13.5
 31
0.0
  0
INSERT
  8
BASE
  6
CENTER
  2
BLC22
 10
-15.0
 20
-30.0
 30
0.0
  0
LINE
  8
BASE
 10
-5.0
 20
-30.0
 30
0.0
 11
-10.8
 21
-33.5
 31
0.0
  0
LINE
  8
BASE
 10
-11.11905
 20
-33.055575
 30
0.0
 11
-10.439687
 21
-33.991319
 31
0.0
  0
LINE
  8
BASE
 10
-10.0
 20
-35.0
 30
0.0
 11
-10.0
 21
-32.1
 31
0.0
  0
LINE
  8
BASE
 10
-12.5
 20
-35.0
 30
0.0
 11
-10.0
 21
-35.0
 31
0.0
  0
LINE
  8
BASE
 10
-17.5
 20
-35.0
 30
0.0
 11
-12.5
 21
-35.0
 31
0.0
  0
INSERT
  8
BASE
  6
CENTER
  2
BLC22
 10
-15.0
 20
-50.0
 30
0.0
  0
LINE
  8
BASE
 10
-17.5
 20
-55.0
 30
0.0
 11
-12.5
 21
-55.0
 31
0.0
  0
LINE
  8
BASE
 10
-12.5
 20
-55.0
 30
0.0
 11
-10.0
 21
-55.0
 31
0.0
  0
LINE
  8
BASE
 10
-10.0
 20
-55.0
 30
0.0
 11
-10.0
 21
-52.1
 31
0.0
  0
LINE
  8
BASE
 10
-11.11905
 20
-53.055575
 30
0.0
 11
-10.439687
 21
-53.991319
 31
0.0
  0
LINE
  8
BASE
 10
-5.0
 20
-50.0
 30
0.0
 11
-10.8
 21
-53.5
 31
0.0
  0
LINE
  8
BASE
  6
CONTINUOUS
 10
-22.5
 20
-5.0
 30
0.0
 11
-22.5
 21
-35.0
 31
0.0
  0
LINE
  8
BASE
  6
CONTINUOUS
 10
-22.5
 20
-5.0
 30
0.0
 11
-21.5
 21
-4.0
 31
0.0
  0
LINE
  8
BASE
  6
CONTINUOUS
 10
-22.5
 20
-55.0
 30
0.0
 11
-21.5
 21
-56.0
 31
0.0
  0
LINE
  8
BASE
  6
CONTINUOUS
 10
-22.5
 20
-65.0
 30
0.0
 11
-22.5
 21
-75.0
 31
0.0
  0
LINE
  8
BASE
  6
CONTINUOUS
 10
-22.5
 20
-75.0
 30
0.0
 11
-21.5
 21
-76.0
 31
0.0
  0
LINE
  8
BASE
  6
CONTINUOUS
 10
-22.5
 20
-65.0
 30
0.0
 11
-21.5
 21
-64.0
 31
0.0
  0
LINE
  8
BASE
  6
CONTINUOUS
 10
-20.0
 20
-5.0
 30
0.0
 11
-17.5
 21
-5.0
 31
0.0
  0
LINE
  8
BASE
  6
CONTINUOUS
 10
-20.0
 20
-15.0
 30
0.0
 11
-17.5
 21
-15.0
 31
0.0
  0
LINE
  8
BASE
  6
CONTINUOUS
 10
-20.0
 20
-25.0
 30
0.0
 11
-17.5
 21
-25.0
 31
0.0
  0
LINE
  8
BASE
  6
CONTINUOUS
 10
-20.0
 20
-35.0
 30
0.0
 11
-17.5
 21
-35.0
 31
0.0
  0
LINE
  8
BASE
  6
CONTINUOUS
 10
-20.0
 20
-45.0
 30
0.0
 11
-17.5
 21
-45.0
 31
0.0
  0
LINE
  8
BASE
  6
CONTINUOUS
 10
-20.0
 20
-55.0
 30
0.0
 11
-17.5
 21
-55.0
 31
0.0
  0
TEXT
  8
BASE
  6
CONTINUOUS
 10
-20.369738
 20
-1.580862
 30
0.0
 40
1.5
  1
101
  0
TEXT
  8
BASE
  6
CONTINUOUS
 10
-4.579696
 20
-3.041778
 30
0.0
 40
2.0
  1
3A
  0
TEXT
  8
BASE
  6
CONTINUOUS
 10
-4.579696
 20
-12.551042
 30
0.0
 40
2.0
  1
4A
  0
TEXT
  8
BASE
  6
CONTINUOUS
 10
-4.579696
 20
-22.813467
 30
0.0
 40
2.0
  1
5A
  0
TEXT
  8
BASE
  6
CONTINUOUS
 10
-4.579696
 20
-32.92526
 30
0.0
 40
2.0
  1
6A
  0
TEXT
  8
BASE
  6
CONTINUOUS
 10
-4.579696
 20
-43.037053
 30
0.0
 40
2.0
  1
7A
  0
TEXT
  8
BASE
  6
CONTINUOUS
 10
-4.579696
 20
-52.847581
 30
0.0
 40
2.0
  1
8A
  0
LINE
  8
BASE
  6
CENTER
 10
0.0
 20
-2.5
 30
0.0
 11
0.0
 21
-25.0
 31
0.0
  0
LINE
  8
BASE
  6
CONTINUOUS
 10
0.0
 20
-37.5
 30
0.0
 11
0.0
 21
-37.5
 31
0.0
  0
LINE
  8
BASE
  6
CONTINUOUS
 10
-22.5
 20
-70.0
 30
0.0
 11
-30.0
 21
-70.0
 31
0.0
  0
INSERT
  8
BASE
  6
CONTINUOUS
  2
BLC29
 10
-25.505406
 20
-70.128467
 30
0.0
 50
180.0
  0
LINE
  8
BASE
  6
CONTINUOUS
 10
-22.5
 20
-30.0
 30
0.0
 11
-32.049385
 21
-30.0
 31
0.0
  0
INSERT
  8
BASE
  6
CONTINUOUS
  2
BLC29
 10
-25.505406
 20
-30.128476
 30
0.0
 50
180.0
  0
ENDBLK
  8
0
  0
BLOCK
  8
0
  2
B29
 70
     0
 10
0.0
 20
0.0
 30
0.0
  3
B29
  0
LINE
  8
0
  6
CONTINUOUS
 10
0.0
 20
0.0
 30
0.0
 11
0.0
 21
-0.672626
 31
0.0
  0
ARC
  8
0
  6
CONTINUOUS
 10
0.0
 20
-1.421276
 30
0.0
 40
0.74865
 50
270.0
 51
90.0
  0
ARC
  8
0
  6
CONTINUOUS
 10
0.0
 20
-2.918575
 30
0.0
 40
0.74865
 50
270.0
 51
90.0
  0
ARC
  8
0
  6
CONTINUOUS
 10
0.0
 20
-4.415875
 30
0.0
 40
0.74865
 50
270.0
 51
90.0
  0
ARC
  8
0
  6
CONTINUOUS
 10
0.0
 20
-5.913174
 30
0.0
 40
0.74865
 50
270.0
 51
90.0
  0
LINE
  8
0
  6
CONTINUOUS
 10
0.0
 20
-6.661823
 30
0.0
 11
0.0
 21
-7.334452
 31
0.0
  0
ENDBLK
  8
0
  0
BLOCK
  8
0
  2
ABBA3V
 70
    64
 10
0.0
 20
0.0
 30
0.0
  3
ABBA3V
  0
TEXT
  8
RAAMI
  6
DASHED
 10
292.217194
 20
11.813359
 30
0.0
 40
3.0
  1
A3
  7
GREEKS
  0
TEXT
  8
RAAMI
  6
DASHED
 10
351.818577
 20
15.69253
 30
0.0
 40
1.4
  1
LEHTI SHEET
  7
GREEKS
  0
LINE
  8
PAKSU
 10
0.237099
 20
262.737999
 30
0.0
 11
392.237099
 21
262.737999
 31
0.0
  0
LINE
  8
RAAMI
 10
18.237099
 20
0.237999
 30
0.0
 11
0.237099
 21
0.237999
 31
0.0
  0
LINE
  8
PAKSU
 10
209.237099
 20
0.237999
 30
0.0
 11
392.237099
 21
0.237999
 31
0.0
  0
LINE
  8
PAKSU
 10
209.237099
 20
0.237999
 30
0.0
 11
209.237099
 21
35.237999
 31
0.0
  0
LINE
  8
PAKSU
 10
392.237099
 20
0.237999
 30
0.0
 11
392.237099
 21
35.237999
 31
0.0
  0
LINE
  8
OHUT
 10
209.237099
 20
18.237999
 30
0.0
 11
392.237099
 21
18.237999
 31
0.0
  0
LINE
  8
OHUT
 10
209.237099
 20
9.737999
 30
0.0
 11
392.237099
 21
9.737999
 31
0.0
  0
LINE
  8
OHUT
 10
209.237099
 20
26.737999
 30
0.0
 11
307.237099
 21
26.737999
 31
0.0
  0
LINE
  8
PAKSU
 10
209.237099
 20
35.237999
 30
0.0
 11
392.237099
 21
35.237999
 31
0.0
  0
TEXT
  8
RAAMI
 10
210.237099
 20
23.971333
 30
0.0
 40
1.4
  1
TARKASTI  CHECKED
  7
ROMANS
  0
TEXT
  8
RAAMI
 10
209.979934
 20
15.704666
 30
0.0
 40
1.4
  1
HYVÄKSYI  APPROVED
  7
ROMANS
  0
LINE
  8
OHUT
 10
307.237099
 20
0.237999
 30
0.0
 11
307.237099
 21
35.237999
 31
0.0
  0
TEXT
  8
RAAMI
 10
259.237099
 20
32.737999
 30
0.0
 40
1.4
  1
LIITTYY  CONCERNING
  7
ROMANS
  0
TEXT
  8
RAAMI
 10
259.237099
 20
23.737999
 30
0.0
 40
1.4
  1
TOLERANSSIT  TOLERANCES
  7
ROMANS
  0
TEXT
  8
RAAMI
 10
259.237099
 20
15.737999
 30
0.0
 40
1.4
  1
SUHDE  SCALE
  7
ROMANS
  0
TEXT
  8
RAAMI
 10
309.237099
 20
32.737999
 30
0.0
 40
1.4
  1
NIMITYS  NAME
  7
ROMANS
  0
TEXT
  8
RAAMI
 10
309.237099
 20
15.737999
 30
0.0
 40
1.4
  1
KOODI  CODE
  7
ROMANS
  0
TEXT
  8
RAAMI
 10
309.237099
 20
7.237999
 30
0.0
 40
1.4
  1
PIIRUSTUS NO  DRAWING NR
  7
ROMANS
  0
LINE
  8
OHUT
 10
349.737099
 20
9.737999
 30
0.0
 11
349.737099
 21
18.237999
 31
0.0
  0
TEXT
  8
RAAMI
 10
371.237099
 20
7.237999
 30
0.0
 40
1.4
  1
PAINOS  REVISION
  7
ROMANS
  0
LINE
  8
OHUT
 10
369.737099
 20
9.737999
 30
0.0
 11
369.737099
 21
0.237999
 31
0.0
  0
LINE
  8
RAAMI
 10
210.187099
 20
1.737999
 30
0.0
 11
211.937099
 21
1.737999
 31
0.0
  0
LINE
  8
RAAMI
 10
215.437099
 20
1.737999
 30
0.0
 11
217.187099
 21
1.737999
 31
0.0
  0
LINE
  8
RAAMI
 10
212.637099
 20
8.737999
 30
0.0
 11
211.459571
 21
5.373634
 31
0.0
  0
LINE
  8
RAAMI
 10
212.425886
 20
3.137999
 30
0.0
 11
213.547099
 21
3.137999
 31
0.0
  0
LINE
  8
RAAMI
 10
212.425889
 20
3.134542
 30
0.0
 11
211.937099
 21
1.737999
 31
0.0
  0
LINE
  8
RAAMI
 10
214.737099
 20
8.737999
 30
0.0
 11
215.913452
 21
5.376991
 31
0.0
  0
LINE
  8
RAAMI
 10
214.948197
 20
3.134863
 30
0.0
 11
215.437099
 21
1.737999
 31
0.0
  0
LINE
  8
RAAMI
 10
214.737099
 20
8.737999
 30
0.0
 11
213.827099
 21
8.737999
 31
0.0
  0
LINE
  8
RAAMI
 10
213.547099
 20
8.737999
 30
0.0
 11
213.547099
 21
5.377999
 31
0.0
  0
LINE
  8
RAAMI
 10
213.827099
 20
8.737999
 30
0.0
 11
213.827099
 21
5.377999
 31
0.0
  0
LINE
  8
RAAMI
 10
213.827099
 20
3.137999
 30
0.0
 11
214.946992
 21
3.137999
 31
0.0
  0
LINE
  8
RAAMI
 10
213.547099
 20
8.737999
 30
0.0
 11
212.637099
 21
8.737999
 31
0.0
  0
LINE
  8
RAAMI
 10
211.45904
 20
5.377999
 30
0.0
 11
213.547099
 21
5.377999
 31
0.0
  0
LINE
  8
RAAMI
 10
211.360082
 20
5.097999
 30
0.0
 11
213.547099
 21
5.097999
 31
0.0
  0
LINE
  8
RAAMI
 10
216.011591
 20
5.096594
 30
0.0
 11
217.187099
 21
1.737999
 31
0.0
  0
LINE
  8
RAAMI
 10
213.827099
 20
5.377999
 30
0.0
 11
215.912213
 21
5.377999
 31
0.0
  0
LINE
  8
RAAMI
 10
213.827099
 20
5.097999
 30
0.0
 11
216.010356
 21
5.097999
 31
0.0
  0
LINE
  8
RAAMI
 10
213.827099
 20
5.097999
 30
0.0
 11
213.827099
 21
3.137999
 31
0.0
  0
LINE
  8
RAAMI
 10
213.547099
 20
5.097999
 30
0.0
 11
213.547099
 21
3.137999
 31
0.0
  0
LINE
  8
RAAMI
 10
211.356988
 20
5.080538
 30
0.0
 11
210.187099
 21
1.737999
 31
0.0
  0
INSERT
  8
RAAMI
  2
*X56
 10
210.187099
 20
1.737999
 30
0.0
 41
0.7
 42
0.7
 43
0.7
  0
INSERT
  8
RAAMI
  2
*X57
 10
210.187099
 20
1.737999
 30
0.0
 41
0.7
 42
0.7
 43
0.7
  0
INSERT
  8
RAAMI
  2
*X58
 10
210.187099
 20
1.737999
 30
0.0
 41
0.7
 42
0.7
 43
0.7
  0
INSERT
  8
RAAMI
  2
*X59
 10
210.187099
 20
1.737999
 30
0.0
 41
0.7
 42
0.7
 43
0.7
  0
LINE
  8
RAAMI
 10
217.677099
 20
1.737999
 30
0.0
 11
217.677099
 21
5.097999
 31
0.0
  0
LINE
  8
RAAMI
 10
217.677099
 20
8.737999
 30
0.0
 11
219.637099
 21
8.737999
 31
0.0
  0
LINE
  8
RAAMI
 10
219.637099
 20
8.737999
 30
0.0
 11
219.637099
 21
5.377999
 31
0.0
  0
LINE
  8
RAAMI
 10
219.637099
 20
5.377999
 30
0.0
 11
217.677099
 21
5.377999
 31
0.0
  0
LINE
  8
RAAMI
 10
217.677099
 20
5.097999
 30
0.0
 11
219.637099
 21
5.097999
 31
0.0
  0
LINE
  8
RAAMI
 10
219.637099
 20
5.097999
 30
0.0
 11
219.637099
 21
1.737999
 31
0.0
  0
LINE
  8
RAAMI
 10
219.637099
 20
1.737999
 30
0.0
 11
217.677099
 21
1.737999
 31
0.0
  0
LINE
  8
RAAMI
 10
217.677099
 20
5.377999
 30
0.0
 11
217.677099
 21
8.737999
 31
0.0
  0
ARC
  8
RAAMI
 10
220.477099
 20
7.162999
 30
0.0
 40
1.575
 50
298.455859
 51
90.052437
  0
LINE
  8
RAAMI
 10
219.917099
 20
8.737999
 30
0.0
 11
220.475658
 21
8.737999
 31
0.0
  0
LINE
  8
RAAMI
 10
219.917099
 20
8.737999
 30
0.0
 11
219.917099
 21
5.377999
 31
0.0
  0
LINE
  8
RAAMI
 10
219.917099
 20
5.377999
 30
0.0
 11
221.901542
 21
5.377999
 31
0.0
  0
LINE
  8
RAAMI
 10
222.157099
 20
5.097999
 30
0.0
 11
219.917099
 21
5.097999
 31
0.0
  0
LINE
  8
RAAMI
 10
219.917099
 20
5.097999
 30
0.0
 11
219.917099
 21
1.737999
 31
0.0
  0
ARC
  8
RAAMI
 10
220.477099
 20
3.837999
 30
0.0
 40
2.1
 50
269.937724
 51
37.056553
  0
LINE
  8
RAAMI
 10
219.917099
 20
1.737999
 30
0.0
 11
220.474817
 21
1.738
 31
0.0
  0
ARC
  8
RAAMI
 10
220.477099
 20
3.837999
 30
0.0
 40
2.1
 50
47.28622
 51
68.787999
  0
INSERT
  8
RAAMI
  2
*X60
 10
210.187099
 20
1.737999
 30
0.0
 41
0.7
 42
0.7
 43
0.7
  0
INSERT
  8
RAAMI
  2
*X61
 10
210.187099
 20
1.737999
 30
0.0
 41
0.7
 42
0.7
 43
0.7
  0
INSERT
  8
RAAMI
  2
*X62
 10
210.187099
 20
1.737999
 30
0.0
 41
0.7
 42
0.7
 43
0.7
  0
INSERT
  8
RAAMI
  2
*X63
 10
210.187099
 20
1.737999
 30
0.0
 41
0.7
 42
0.7
 43
0.7
  0
INSERT
  8
RAAMI
  2
*X63
 10
215.647099
 20
1.737999
 30
0.0
 41
0.7
 42
0.7
 43
0.7
  0
INSERT
  8
RAAMI
  2
*X62
 10
215.647099
 20
1.737999
 30
0.0
 41
0.7
 42
0.7
 43
0.7
  0
INSERT
  8
RAAMI
  2
*X61
 10
215.647099
 20
1.737999
 30
0.0
 41
0.7
 42
0.7
 43
0.7
  0
INSERT
  8
RAAMI
  2
*X60
 10
215.647099
 20
1.737999
 30
0.0
 41
0.7
 42
0.7
 43
0.7
  0
ARC
  8
RAAMI
 10
225.937099
 20
3.837999
 30
0.0
 40
2.1
 50
47.28622
 51
68.787999
  0
LINE
  8
RAAMI
 10
225.377099
 20
1.737999
 30
0.0
 11
225.934817
 21
1.738
 31
0.0
  0
ARC
  8
RAAMI
 10
225.937099
 20
3.837999
 30
0.0
 40
2.1
 50
269.937724
 51
37.056553
  0
LINE
  8
RAAMI
 10
225.377099
 20
5.097999
 30
0.0
 11
225.377099
 21
1.737999
 31
0.0
  0
LINE
  8
RAAMI
 10
227.617099
 20
5.097999
 30
0.0
 11
225.377099
 21
5.097999
 31
0.0
  0
LINE
  8
RAAMI
 10
225.377099
 20
5.377999
 30
0.0
 11
227.361542
 21
5.377999
 31
0.0
  0
LINE
  8
RAAMI
 10
225.377099
 20
8.737999
 30
0.0
 11
225.377099
 21
5.377999
 31
0.0
  0
LINE
  8
RAAMI
 10
225.377099
 20
8.737999
 30
0.0
 11
225.935658
 21
8.737999
 31
0.0
  0
ARC
  8
RAAMI
 10
225.937099
 20
7.162999
 30
0.0
 40
1.575
 50
298.455859
 51
90.052437
  0
LINE
  8
RAAMI
 10
223.137099
 20
5.377999
 30
0.0
 11
223.137099
 21
8.737999
 31
0.0
  0
LINE
  8
RAAMI
 10
225.097099
 20
1.737999
 30
0.0
 11
223.137099
 21
1.737999
 31
0.0
  0
LINE
  8
RAAMI
 10
225.097099
 20
5.097999
 30
0.0
 11
225.097099
 21
1.737999
 31
0.0
  0
LINE
  8
RAAMI
 10
223.137099
 20
5.097999
 30
0.0
 11
225.097099
 21
5.097999
 31
0.0
  0
LINE
  8
RAAMI
 10
225.097099
 20
5.377999
 30
0.0
 11
223.137099
 21
5.377999
 31
0.0
  0
LINE
  8
RAAMI
 10
225.097099
 20
8.737999
 30
0.0
 11
225.097099
 21
5.377999
 31
0.0
  0
LINE
  8
RAAMI
 10
223.137099
 20
8.737999
 30
0.0
 11
225.097099
 21
8.737999
 31
0.0
  0
LINE
  8
RAAMI
 10
223.137099
 20
1.737999
 30
0.0
 11
223.137099
 21
5.097999
 31
0.0
  0
TEXT
  8
RAAMI
 10
229.737099
 20
1.737999
 30
0.0
 40
3.0
  1
ABB 
 41
0.8
  7
ROMANS
  0
TEXT
  8
RAAMI
 10
237.737099
 20
1.737999
 30
0.0
 40
3.0
  1
Strömberg
 41
0.8
  7
ROMANS
  0
LINE
  8
OHUT
 10
282.237099
 20
9.737999
 30
0.0
 11
282.237099
 21
18.237999
 31
0.0
  0
TEXT
  8
RAAMI
 10
27.737099
 20
4.737999
 30
0.0
 40
1.4
  1
MUUTOS
  7
ROMANS
  0
TEXT
  8
RAAMI
 10
27.737099
 20
2.471333
 30
0.0
 40
1.4
  1
REVISION
  7
ROMANS
  0
LINE
  8
OHUT
 10
46.737099
 20
9.237999
 30
0.0
 11
209.237099
 21
9.237999
 31
0.0
  0
LINE
  8
OHUT
 10
46.737099
 20
0.237999
 30
0.0
 11
46.737099
 21
9.237999
 31
0.0
  0
LINE
  8
OHUT
 10
40.737099
 20
4.737999
 30
0.0
 11
209.237099
 21
4.737999
 31
0.0
  0
LINE
  8
OHUT
 10
257.237099
 20
9.737999
 30
0.0
 11
257.237099
 21
35.237999
 31
0.0
  0
LINE
  8
OHUT
 10
271.237099
 20
9.737999
 30
0.0
 11
271.237099
 21
0.237999
 31
0.0
  0
TEXT
  8
RAAMI
 10
210.237099
 20
32.237999
 30
0.0
 40
1.4
  1
TEKI  PREPARED
  7
ROMANS
  0
TEXT
  8
RAAMI
 10
273.237099
 20
7.237999
 30
0.0
 40
1.4
  1
VAST.OSASTO RESP.DEPT.
  7
ROMANS
  0
TEXT
  8
RAAMI
 10
257.407006
 20
1.741783
 30
0.0
 40
3.0
  1
Power
 41
0.8
  7
ROMANS
  0
TEXT
  8
RAAMI
 10
42.237099
 20
1.195292
 30
0.0
 40
2.5
  1
B
  7
ROMANS
  0
TEXT
  8
RAAMI
 10
42.237099
 20
5.587508
 30
0.0
 40
2.5
  1
C
  7
ROMANS
  0
LINE
  8
PAKSU
 10
0.237099
 20
0.237999
 30
0.0
 11
392.237099
 21
0.237999
 31
0.0
  0
LINE
  8
PAKSU
 10
392.237099
 20
262.737999
 30
0.0
 11
392.237099
 21
0.237999
 31
0.0
  0
LINE
  8
PAKSU
 10
0.237099
 20
0.237999
 30
0.0
 11
0.237099
 21
262.737999
 31
0.0
  0
ENDBLK
  8
0
  0
BLOCK
  8
0
  2
*X56
 70
    65
 10
0.0
 20
0.0
 30
0.0
  3
*X
  0
LINE
  8
0
 62
     0
 10
2.284499
 20
6.52714
 30
0.0
 11
4.8
 21
9.042641
 31
0.0
  0
LINE
  8
0
 62
     0
 10
2.379686
 20
6.799104
 30
0.0
 11
4.8
 21
9.219417
 31
0.0
  0
LINE
  8
0
 62
     0
 10
2.474874
 20
7.071068
 30
0.0
 11
4.8
 21
9.396194
 31
0.0
  0
LINE
  8
0
 62
     0
 10
2.570061
 20
7.343032
 30
0.0
 11
4.8
 21
9.572971
 31
0.0
  0
LINE
  8
0
 62
     0
 10
2.665249
 20
7.614996
 30
0.0
 11
4.8
 21
9.749747
 31
0.0
  0
LINE
  8
0
 62
     0
 10
2.760436
 20
7.88696
 30
0.0
 11
4.8
 21
9.926524
 31
0.0
  0
LINE
  8
0
 62
     0
 10
2.855624
 20
8.158924
 30
0.0
 11
4.696699
 21
10.0
 31
0.0
  0
LINE
  8
0
 62
     0
 10
2.950811
 20
8.430889
 30
0.0
 11
4.519922
 21
10.0
 31
0.0
  0
LINE
  8
0
 62
     0
 10
3.045998
 20
8.702853
 30
0.0
 11
4.343146
 21
10.0
 31
0.0
  0
LINE
  8
0
 62
     0
 10
3.141186
 20
8.974817
 30
0.0
 11
4.166369
 21
10.0
 31
0.0
  0
LINE
  8
0
 62
     0
 10
3.236373
 20
9.246781
 30
0.0
 11
3.989592
 21
10.0
 31
0.0
  0
LINE
  8
0
 62
     0
 10
3.331561
 20
9.518745
 30
0.0
 11
3.812816
 21
10.0
 31
0.0
  0
LINE
  8
0
 62
     0
 10
3.426748
 20
9.790709
 30
0.0
 11
3.636039
 21
10.0
 31
0.0
  0
LINE
  8
0
 62
     0
 10
2.189311
 20
6.255175
 30
0.0
 11
4.8
 21
8.865864
 31
0.0
  0
LINE
  8
0
 62
     0
 10
2.094124
 20
5.983211
 30
0.0
 11
4.8
 21
8.689087
 31
0.0
  0
LINE
  8
0
 62
     0
 10
1.998936
 20
5.711247
 30
0.0
 11
4.8
 21
8.512311
 31
0.0
  0
LINE
  8
0
 62
     0
 10
1.903749
 20
5.439283
 30
0.0
 11
4.8
 21
8.335534
 31
0.0
  0
LINE
  8
0
 62
     0
 10
1.841243
 20
5.2
 30
0.0
 11
4.8
 21
8.158757
 31
0.0
  0
LINE
  8
0
 62
     0
 10
2.018019
 20
5.2
 30
0.0
 11
4.8
 21
7.981981
 31
0.0
  0
LINE
  8
0
 62
     0
 10
2.194796
 20
5.2
 30
0.0
 11
4.8
 21
7.805204
 31
0.0
  0
LINE
  8
0
 62
     0
 10
2.371573
 20
5.2
 30
0.0
 11
4.8
 21
7.628427
 31
0.0
  0
LINE
  8
0
 62
     0
 10
2.54835
 20
5.2
 30
0.0
 11
4.8
 21
7.45165
 31
0.0
  0
LINE
  8
0
 62
     0
 10
2.725126
 20
5.2
 30
0.0
 11
4.8
 21
7.274874
 31
0.0
  0
LINE
  8
0
 62
     0
 10
2.901903
 20
5.2
 30
0.0
 11
4.8
 21
7.098097
 31
0.0
  0
LINE
  8
0
 62
     0
 10
3.07868
 20
5.2
 30
0.0
 11
4.8
 21
6.92132
 31
0.0
  0
LINE
  8
0
 62
     0
 10
3.255456
 20
5.2
 30
0.0
 11
4.8
 21
6.744544
 31
0.0
  0
LINE
  8
0
 62
     0
 10
3.432233
 20
5.2
 30
0.0
 11
4.8
 21
6.567767
 31
0.0
  0
LINE
  8
0
 62
     0
 10
3.60901
 20
5.2
 30
0.0
 11
4.8
 21
6.39099
 31
0.0
  0
LINE
  8
0
 62
     0
 10
3.785786
 20
5.2
 30
0.0
 11
4.8
 21
6.214214
 31
0.0
  0
LINE
  8
0
 62
     0
 10
3.962563
 20
5.2
 30
0.0
 11
4.8
 21
6.037437
 31
0.0
  0
LINE
  8
0
 62
     0
 10
4.13934
 20
5.2
 30
0.0
 11
4.8
 21
5.86066
 31
0.0
  0
LINE
  8
0
 62
     0
 10
4.316117
 20
5.2
 30
0.0
 11
4.8
 21
5.683883
 31
0.0
  0
LINE
  8
0
 62
     0
 10
4.492893
 20
5.2
 30
0.0
 11
4.8
 21
5.507107
 31
0.0
  0
LINE
  8
0
 62
     0
 10
4.66967
 20
5.2
 30
0.0
 11
4.8
 21
5.33033
 31
0.0
  0
ENDBLK
  8
0
  0
BLOCK
  8
0
  2
*X57
 70
    65
 10
0.0
 20
0.0
 30
0.0
  3
*X
  0
LINE
  8
0
 62
     0
 10
5.2
 20
6.083883
 30
0.0
 11
7.178252
 21
8.062136
 31
0.0
  0
LINE
  8
0
 62
     0
 10
5.2
 20
6.26066
 30
0.0
 11
7.132421
 21
8.193082
 31
0.0
  0
LINE
  8
0
 62
     0
 10
5.2
 20
6.437437
 30
0.0
 11
7.08659
 21
8.324027
 31
0.0
  0
LINE
  8
0
 62
     0
 10
5.2
 20
6.614214
 30
0.0
 11
7.040759
 21
8.454973
 31
0.0
  0
LINE
  8
0
 62
     0
 10
5.2
 20
6.79099
 30
0.0
 11
6.994928
 21
8.585919
 31
0.0
  0
LINE
  8
0
 62
     0
 10
5.2
 20
6.967767
 30
0.0
 11
6.949097
 21
8.716864
 31
0.0
  0
LINE
  8
0
 62
     0
 10
5.2
 20
7.144544
 30
0.0
 11
6.903266
 21
8.84781
 31
0.0
  0
LINE
  8
0
 62
     0
 10
5.2
 20
7.32132
 30
0.0
 11
6.857435
 21
8.978756
 31
0.0
  0
LINE
  8
0
 62
     0
 10
5.2
 20
7.498097
 30
0.0
 11
6.811604
 21
9.109702
 31
0.0
  0
LINE
  8
0
 62
     0
 10
5.2
 20
7.674874
 30
0.0
 11
6.765773
 21
9.240647
 31
0.0
  0
LINE
  8
0
 62
     0
 10
5.2
 20
7.85165
 30
0.0
 11
6.719942
 21
9.371593
 31
0.0
  0
LINE
  8
0
 62
     0
 10
5.2
 20
8.028427
 30
0.0
 11
6.674111
 21
9.502539
 31
0.0
  0
LINE
  8
0
 62
     0
 10
5.2
 20
8.205204
 30
0.0
 11
6.62828
 21
9.633484
 31
0.0
  0
LINE
  8
0
 62
     0
 10
5.2
 20
8.381981
 30
0.0
 11
6.582449
 21
9.76443
 31
0.0
  0
LINE
  8
0
 62
     0
 10
5.2
 20
8.558757
 30
0.0
 11
6.536619
 21
9.895376
 31
0.0
  0
LINE
  8
0
 62
     0
 10
5.2
 20
8.735534
 30
0.0
 11
6.464466
 21
10.0
 31
0.0
  0
LINE
  8
0
 62
     0
 10
5.2
 20
8.912311
 30
0.0
 11
6.287689
 21
10.0
 31
0.0
  0
LINE
  8
0
 62
     0
 10
5.2
 20
9.089087
 30
0.0
 11
6.110913
 21
10.0
 31
0.0
  0
LINE
  8
0
 62
     0
 10
5.2
 20
9.265864
 30
0.0
 11
5.934136
 21
10.0
 31
0.0
  0
LINE
  8
0
 62
     0
 10
5.2
 20
9.442641
 30
0.0
 11
5.757359
 21
10.0
 31
0.0
  0
LINE
  8
0
 62
     0
 10
5.2
 20
9.619417
 30
0.0
 11
5.580583
 21
10.0
 31
0.0
  0
LINE
  8
0
 62
     0
 10
5.2
 20
9.796194
 30
0.0
 11
5.403806
 21
10.0
 31
0.0
  0
LINE
  8
0
 62
     0
 10
5.2
 20
9.972971
 30
0.0
 11
5.227029
 21
10.0
 31
0.0
  0
LINE
  8
0
 62
     0
 10
5.2
 20
5.907107
 30
0.0
 11
7.224083
 21
7.93119
 31
0.0
  0
LINE
  8
0
 62
     0
 10
5.2
 20
5.73033
 30
0.0
 11
7.269914
 21
7.800245
 31
0.0
  0
LINE
  8
0
 62
     0
 10
5.2
 20
5.553553
 30
0.0
 11
7.315745
 21
7.669299
 31
0.0
  0
LINE
  8
0
 62
     0
 10
5.2
 20
5.376777
 30
0.0
 11
7.361576
 21
7.538353
 31
0.0
  0
LINE
  8
0
 62
     0
 10
5.2
 20
5.2
 30
0.0
 11
7.407407
 21
7.407407
 31
0.0
  0
LINE
  8
0
 62
     0
 10
5.376777
 20
5.2
 30
0.0
 11
7.453238
 21
7.276462
 31
0.0
  0
LINE
  8
0
 62
     0
 10
5.553553
 20
5.2
 30
0.0
 11
7.499069
 21
7.145516
 31
0.0
  0
LINE
  8
0
 62
     0
 10
5.73033
 20
5.2
 30
0.0
 11
7.5449
 21
7.01457
 31
0.0
  0
LINE
  8
0
 62
     0
 10
5.907107
 20
5.2
 30
0.0
 11
7.590731
 21
6.883625
 31
0.0
  0
LINE
  8
0
 62
     0
 10
6.083883
 20
5.2
 30
0.0
 11
7.636562
 21
6.752679
 31
0.0
  0
LINE
  8
0
 62
     0
 10
6.26066
 20
5.2
 30
0.0
 11
7.682393
 21
6.621733
 31
0.0
  0
LINE
  8
0
 62
     0
 10
6.437437
 20
5.2
 30
0.0
 11
7.728224
 21
6.490788
 31
0.0
  0
LINE
  8
0
 62
     0
 10
6.614214
 20
5.2
 30
0.0
 11
7.774055
 21
6.359842
 31
0.0
  0
LINE
  8
0
 62
     0
 10
6.79099
 20
5.2
 30
0.0
 11
7.819886
 21
6.228896
 31
0.0
  0
LINE
  8
0
 62
     0
 10
6.967767
 20
5.2
 30
0.0
 11
7.865717
 21
6.09795
 31
0.0
  0
LINE
  8
0
 62
     0
 10
7.144544
 20
5.2
 30
0.0
 11
7.911548
 21
5.967005
 31
0.0
  0
LINE
  8
0
 62
     0
 10
7.32132
 20
5.2
 30
0.0
 11
7.957379
 21
5.836059
 31
0.0
  0
LINE
  8
0
 62
     0
 10
7.498097
 20
5.2
 30
0.0
 11
8.00321
 21
5.705113
 31
0.0
  0
LINE
  8
0
 62
     0
 10
7.674874
 20
5.2
 30
0.0
 11
8.049041
 21
5.574168
 31
0.0
  0
LINE
  8
0
 62
     0
 10
7.85165
 20
5.2
 30
0.0
 11
8.094872
 21
5.443222
 31
0.0
  0
LINE
  8
0
 62
     0
 10
8.028427
 20
5.2
 30
0.0
 11
8.140703
 21
5.312276
 31
0.0
  0
ENDBLK
  8
0
  0
BLOCK
  8
0
  2
*X58
 70
    65
 10
0.0
 20
0.0
 30
0.0
  3
*X
  0
LINE
  8
0
 62
     0
 10
0.0
 20
0.0
 30
0.0
 11
4.8
 21
4.8
 31
0.0
  0
LINE
  8
0
 62
     0
 10
0.095187
 20
0.271964
 30
0.0
 11
4.623223
 21
4.8
 31
0.0
  0
LINE
  8
0
 62
     0
 10
0.190375
 20
0.543928
 30
0.0
 11
4.446447
 21
4.8
 31
0.0
  0
LINE
  8
0
 62
     0
 10
0.285562
 20
0.815892
 30
0.0
 11
4.26967
 21
4.8
 31
0.0
  0
LINE
  8
0
 62
     0
 10
0.38075
 20
1.087857
 30
0.0
 11
4.092893
 21
4.8
 31
0.0
  0
LINE
  8
0
 62
     0
 10
0.475937
 20
1.359821
 30
0.0
 11
3.916117
 21
4.8
 31
0.0
  0
LINE
  8
0
 62
     0
 10
0.571125
 20
1.631785
 30
0.0
 11
3.73934
 21
4.8
 31
0.0
  0
LINE
  8
0
 62
     0
 10
0.666312
 20
1.903749
 30
0.0
 11
3.562563
 21
4.8
 31
0.0
  0
LINE
  8
0
 62
     0
 10
0.7615
 20
2.175713
 30
0.0
 11
3.385786
 21
4.8
 31
0.0
  0
LINE
  8
0
 62
     0
 10
0.856687
 20
2.447677
 30
0.0
 11
3.20901
 21
4.8
 31
0.0
  0
LINE
  8
0
 62
     0
 10
0.951875
 20
2.719641
 30
0.0
 11
3.032233
 21
4.8
 31
0.0
  0
LINE
  8
0
 62
     0
 10
1.047062
 20
2.991606
 30
0.0
 11
2.855456
 21
4.8
 31
0.0
  0
LINE
  8
0
 62
     0
 10
1.142249
 20
3.26357
 30
0.0
 11
2.67868
 21
4.8
 31
0.0
  0
LINE
  8
0
 62
     0
 10
1.237437
 20
3.535534
 30
0.0
 11
2.501903
 21
4.8
 31
0.0
  0
LINE
  8
0
 62
     0
 10
1.332624
 20
3.807498
 30
0.0
 11
2.325126
 21
4.8
 31
0.0
  0
LINE
  8
0
 62
     0
 10
1.427812
 20
4.079462
 30
0.0
 11
2.14835
 21
4.8
 31
0.0
  0
LINE
  8
0
 62
     0
 10
1.522999
 20
4.351426
 30
0.0
 11
1.971573
 21
4.8
 31
0.0
  0
LINE
  8
0
 62
     0
 10
1.618187
 20
4.62339
 30
0.0
 11
1.794796
 21
4.8
 31
0.0
  0
LINE
  8
0
 62
     0
 10
0.176777
 20
0.0
 30
0.0
 11
4.8
 21
4.623223
 31
0.0
  0
LINE
  8
0
 62
     0
 10
0.353553
 20
0.0
 30
0.0
 11
4.8
 21
4.446447
 31
0.0
  0
LINE
  8
0
 62
     0
 10
0.53033
 20
0.0
 30
0.0
 11
4.8
 21
4.26967
 31
0.0
  0
LINE
  8
0
 62
     0
 10
0.707107
 20
0.0
 30
0.0
 11
4.8
 21
4.092893
 31
0.0
  0
LINE
  8
0
 62
     0
 10
0.883883
 20
0.0
 30
0.0
 11
4.8
 21
3.916117
 31
0.0
  0
LINE
  8
0
 62
     0
 10
1.06066
 20
0.0
 30
0.0
 11
4.8
 21
3.73934
 31
0.0
  0
LINE
  8
0
 62
     0
 10
1.237437
 20
0.0
 30
0.0
 11
3.179842
 21
1.942405
 31
0.0
  0
LINE
  8
0
 62
     0
 10
3.237437
 20
2.0
 30
0.0
 11
4.8
 21
3.562563
 31
0.0
  0
LINE
  8
0
 62
     0
 10
1.414214
 20
0.0
 30
0.0
 11
3.084654
 21
1.670441
 31
0.0
  0
LINE
  8
0
 62
     0
 10
3.414214
 20
2.0
 30
0.0
 11
4.8
 21
3.385786
 31
0.0
  0
LINE
  8
0
 62
     0
 10
1.59099
 20
0.0
 30
0.0
 11
2.989467
 21
1.398477
 31
0.0
  0
LINE
  8
0
 62
     0
 10
3.59099
 20
2.0
 30
0.0
 11
4.8
 21
3.20901
 31
0.0
  0
LINE
  8
0
 62
     0
 10
1.767767
 20
0.0
 30
0.0
 11
2.894279
 21
1.126512
 31
0.0
  0
LINE
  8
0
 62
     0
 10
3.767767
 20
2.0
 30
0.0
 11
4.8
 21
3.032233
 31
0.0
  0
LINE
  8
0
 62
     0
 10
1.944544
 20
0.0
 30
0.0
 11
2.799092
 21
0.854548
 31
0.0
  0
LINE
  8
0
 62
     0
 10
3.944544
 20
2.0
 30
0.0
 11
4.8
 21
2.855456
 31
0.0
  0
LINE
  8
0
 62
     0
 10
2.12132
 20
0.0
 30
0.0
 11
2.703904
 21
0.582584
 31
0.0
  0
LINE
  8
0
 62
     0
 10
4.12132
 20
2.0
 30
0.0
 11
4.8
 21
2.67868
 31
0.0
  0
LINE
  8
0
 62
     0
 10
2.298097
 20
0.0
 30
0.0
 11
2.608717
 21
0.31062
 31
0.0
  0
LINE
  8
0
 62
     0
 10
4.298097
 20
2.0
 30
0.0
 11
4.8
 21
2.501903
 31
0.0
  0
LINE
  8
0
 62
     0
 10
2.474874
 20
0.0
 30
0.0
 11
2.51353
 21
0.038656
 31
0.0
  0
LINE
  8
0
 62
     0
 10
4.474874
 20
2.0
 30
0.0
 11
4.8
 21
2.325126
 31
0.0
  0
LINE
  8
0
 62
     0
 10
4.65165
 20
2.0
 30
0.0
 11
4.8
 21
2.14835
 31
0.0
  0
ENDBLK
  8
0
  0
BLOCK
  8
0
  2
*X59
 70
    65
 10
0.0
 20
0.0
 30
0.0
  3
*X
  0
LINE
  8
0
 62
     0
 10
6.884654
 20
1.75813
 30
0.0
 11
8.736506
 21
3.609982
 31
0.0
  0
LINE
  8
0
 62
     0
 10
6.838823
 20
1.889076
 30
0.0
 11
8.690675
 21
3.740928
 31
0.0
  0
LINE
  8
0
 62
     0
 10
6.772971
 20
2.0
 30
0.0
 11
8.644844
 21
3.871874
 31
0.0
  0
LINE
  8
0
 62
     0
 10
6.596194
 20
2.0
 30
0.0
 11
8.599013
 21
4.002819
 31
0.0
  0
LINE
  8
0
 62
     0
 10
6.419417
 20
2.0
 30
0.0
 11
8.553182
 21
4.133765
 31
0.0
  0
LINE
  8
0
 62
     0
 10
6.242641
 20
2.0
 30
0.0
 11
8.507351
 21
4.264711
 31
0.0
  0
LINE
  8
0
 62
     0
 10
6.065864
 20
2.0
 30
0.0
 11
8.46152
 21
4.395656
 31
0.0
  0
LINE
  8
0
 62
     0
 10
5.889087
 20
2.0
 30
0.0
 11
8.415689
 21
4.526602
 31
0.0
  0
LINE
  8
0
 62
     0
 10
5.712311
 20
2.0
 30
0.0
 11
8.369858
 21
4.657548
 31
0.0
  0
LINE
  8
0
 62
     0
 10
5.535534
 20
2.0
 30
0.0
 11
8.324027
 21
4.788493
 31
0.0
  0
LINE
  8
0
 62
     0
 10
5.358757
 20
2.0
 30
0.0
 11
8.158757
 21
4.8
 31
0.0
  0
LINE
  8
0
 62
     0
 10
5.2
 20
2.018019
 30
0.0
 11
7.981981
 21
4.8
 31
0.0
  0
LINE
  8
0
 62
     0
 10
5.2
 20
2.194796
 30
0.0
 11
7.805204
 21
4.8
 31
0.0
  0
LINE
  8
0
 62
     0
 10
5.2
 20
2.371573
 30
0.0
 11
7.628427
 21
4.8
 31
0.0
  0
LINE
  8
0
 62
     0
 10
5.2
 20
2.54835
 30
0.0
 11
7.45165
 21
4.8
 31
0.0
  0
LINE
  8
0
 62
     0
 10
5.2
 20
2.725126
 30
0.0
 11
7.274874
 21
4.8
 31
0.0
  0
LINE
  8
0
 62
     0
 10
5.2
 20
2.901903
 30
0.0
 11
7.098097
 21
4.8
 31
0.0
  0
LINE
  8
0
 62
     0
 10
5.2
 20
3.07868
 30
0.0
 11
6.92132
 21
4.8
 31
0.0
  0
LINE
  8
0
 62
     0
 10
5.2
 20
3.255456
 30
0.0
 11
6.744544
 21
4.8
 31
0.0
  0
LINE
  8
0
 62
     0
 10
5.2
 20
3.432233
 30
0.0
 11
6.567767
 21
4.8
 31
0.0
  0
LINE
  8
0
 62
     0
 10
5.2
 20
3.60901
 30
0.0
 11
6.39099
 21
4.8
 31
0.0
  0
LINE
  8
0
 62
     0
 10
5.2
 20
3.785786
 30
0.0
 11
6.214214
 21
4.8
 31
0.0
  0
LINE
  8
0
 62
     0
 10
5.2
 20
3.962563
 30
0.0
 11
6.037437
 21
4.8
 31
0.0
  0
LINE
  8
0
 62
     0
 10
5.2
 20
4.13934
 30
0.0
 11
5.86066
 21
4.8
 31
0.0
  0
LINE
  8
0
 62
     0
 10
5.2
 20
4.316117
 30
0.0
 11
5.683883
 21
4.8
 31
0.0
  0
LINE
  8
0
 62
     0
 10
5.2
 20
4.492893
 30
0.0
 11
5.507107
 21
4.8
 31
0.0
  0
LINE
  8
0
 62
     0
 10
5.2
 20
4.66967
 30
0.0
 11
5.33033
 21
4.8
 31
0.0
  0
LINE
  8
0
 62
     0
 10
6.930485
 20
1.627185
 30
0.0
 11
8.782337
 21
3.479036
 31
0.0
  0
LINE
  8
0
 62
     0
 10
6.976316
 20
1.496239
 30
0.0
 11
8.828168
 21
3.348091
 31
0.0
  0
LINE
  8
0
 62
     0
 10
7.022147
 20
1.365293
 30
0.0
 11
8.873999
 21
3.217145
 31
0.0
  0
LINE
  8
0
 62
     0
 10
7.067978
 20
1.234347
 30
0.0
 11
8.91983
 21
3.086199
 31
0.0
  0
LINE
  8
0
 62
     0
 10
7.113809
 20
1.103402
 30
0.0
 11
8.965661
 21
2.955254
 31
0.0
  0
LINE
  8
0
 62
     0
 10
7.15964
 20
0.972456
 30
0.0
 11
9.011492
 21
2.824308
 31
0.0
  0
LINE
  8
0
 62
     0
 10
7.205471
 20
0.84151
 30
0.0
 11
9.057323
 21
2.693362
 31
0.0
  0
LINE
  8
0
 62
     0
 10
7.251302
 20
0.710565
 30
0.0
 11
9.103154
 21
2.562416
 31
0.0
  0
LINE
  8
0
 62
     0
 10
7.297133
 20
0.579619
 30
0.0
 11
9.148985
 21
2.431471
 31
0.0
  0
LINE
  8
0
 62
     0
 10
7.342964
 20
0.448673
 30
0.0
 11
9.194816
 21
2.300525
 31
0.0
  0
LINE
  8
0
 62
     0
 10
7.388795
 20
0.317728
 30
0.0
 11
9.240647
 21
2.169579
 31
0.0
  0
LINE
  8
0
 62
     0
 10
7.434626
 20
0.186782
 30
0.0
 11
9.286478
 21
2.038634
 31
0.0
  0
LINE
  8
0
 62
     0
 10
7.480457
 20
0.055836
 30
0.0
 11
9.332309
 21
1.907688
 31
0.0
  0
LINE
  8
0
 62
     0
 10
7.601398
 20
0.0
 30
0.0
 11
9.37814
 21
1.776742
 31
0.0
  0
LINE
  8
0
 62
     0
 10
7.778175
 20
0.0
 30
0.0
 11
9.423971
 21
1.645797
 31
0.0
  0
LINE
  8
0
 62
     0
 10
7.954951
 20
0.0
 30
0.0
 11
9.469802
 21
1.514851
 31
0.0
  0
LINE
  8
0
 62
     0
 10
8.131728
 20
0.0
 30
0.0
 11
9.515633
 21
1.383905
 31
0.0
  0
LINE
  8
0
 62
     0
 10
8.308505
 20
0.0
 30
0.0
 11
9.561464
 21
1.252959
 31
0.0
  0
LINE
  8
0
 62
     0
 10
8.485281
 20
0.0
 30
0.0
 11
9.607295
 21
1.122014
 31
0.0
  0
LINE
  8
0
 62
     0
 10
8.662058
 20
0.0
 30
0.0
 11
9.653126
 21
0.991068
 31
0.0
  0
LINE
  8
0
 62
     0
 10
8.838835
 20
0.0
 30
0.0
 11
9.698957
 21
0.860122
 31
0.0
  0
LINE
  8
0
 62
     0
 10
9.015611
 20
0.0
 30
0.0
 11
9.744788
 21
0.729177
 31
0.0
  0
LINE
  8
0
 62
     0
 10
9.192388
 20
0.0
 30
0.0
 11
9.790619
 21
0.598231
 31
0.0
  0
LINE
  8
0
 62
     0
 10
9.369165
 20
0.0
 30
0.0
 11
9.83645
 21
0.467285
 31
0.0
  0
LINE
  8
0
 62
     0
 10
9.545942
 20
0.0
 30
0.0
 11
9.882281
 21
0.33634
 31
0.0
  0
LINE
  8
0
 62
     0
 10
9.722718
 20
0.0
 30
0.0
 11
9.928112
 21
0.205394
 31
0.0
  0
LINE
  8
0
 62
     0
 10
9.899495
 20
0.0
 30
0.0
 11
9.973943
 21
0.074448
 31
0.0
  0
ENDBLK
  8
0
  0
BLOCK
  8
0
  2
*X60
 70
    65
 10
0.0
 20
0.0
 30
0.0
  3
*X
  0
LINE
  8
0
 62
     0
 10
10.7
 20
6.280583
 30
0.0
 11
13.5
 21
9.080583
 31
0.0
  0
LINE
  8
0
 62
     0
 10
10.7
 20
6.457359
 30
0.0
 11
13.5
 21
9.257359
 31
0.0
  0
LINE
  8
0
 62
     0
 10
10.7
 20
6.634136
 30
0.0
 11
13.5
 21
9.434136
 31
0.0
  0
LINE
  8
0
 62
     0
 10
10.7
 20
6.810913
 30
0.0
 11
13.5
 21
9.610913
 31
0.0
  0
LINE
  8
0
 62
     0
 10
10.7
 20
6.987689
 30
0.0
 11
13.5
 21
9.787689
 31
0.0
  0
LINE
  8
0
 62
     0
 10
10.7
 20
7.164466
 30
0.0
 11
13.5
 21
9.964466
 31
0.0
  0
LINE
  8
0
 62
     0
 10
10.7
 20
7.341243
 30
0.0
 11
13.358757
 21
10.0
 31
0.0
  0
LINE
  8
0
 62
     0
 10
10.7
 20
7.518019
 30
0.0
 11
13.181981
 21
10.0
 31
0.0
  0
LINE
  8
0
 62
     0
 10
10.7
 20
7.694796
 30
0.0
 11
13.005204
 21
10.0
 31
0.0
  0
LINE
  8
0
 62
     0
 10
10.7
 20
7.871573
 30
0.0
 11
12.828427
 21
10.0
 31
0.0
  0
LINE
  8
0
 62
     0
 10
10.7
 20
8.04835
 30
0.0
 11
12.65165
 21
10.0
 31
0.0
  0
LINE
  8
0
 62
     0
 10
10.7
 20
8.225126
 30
0.0
 11
12.474874
 21
10.0
 31
0.0
  0
LINE
  8
0
 62
     0
 10
10.7
 20
8.401903
 30
0.0
 11
12.298097
 21
10.0
 31
0.0
  0
LINE
  8
0
 62
     0
 10
10.7
 20
8.57868
 30
0.0
 11
12.12132
 21
10.0
 31
0.0
  0
LINE
  8
0
 62
     0
 10
10.7
 20
8.755456
 30
0.0
 11
11.944544
 21
10.0
 31
0.0
  0
LINE
  8
0
 62
     0
 10
10.7
 20
8.932233
 30
0.0
 11
11.767767
 21
10.0
 31
0.0
  0
LINE
  8
0
 62
     0
 10
10.7
 20
9.10901
 30
0.0
 11
11.59099
 21
10.0
 31
0.0
  0
LINE
  8
0
 62
     0
 10
10.7
 20
9.285786
 30
0.0
 11
11.414214
 21
10.0
 31
0.0
  0
LINE
  8
0
 62
     0
 10
10.7
 20
9.462563
 30
0.0
 11
11.237437
 21
10.0
 31
0.0
  0
LINE
  8
0
 62
     0
 10
10.7
 20
9.63934
 30
0.0
 11
11.06066
 21
10.0
 31
0.0
  0
LINE
  8
0
 62
     0
 10
10.7
 20
9.816117
 30
0.0
 11
10.883883
 21
10.0
 31
0.0
  0
LINE
  8
0
 62
     0
 10
10.7
 20
9.992893
 30
0.0
 11
10.707107
 21
10.0
 31
0.0
  0
LINE
  8
0
 62
     0
 10
10.7
 20
6.103806
 30
0.0
 11
13.5
 21
8.903806
 31
0.0
  0
LINE
  8
0
 62
     0
 10
10.7
 20
5.927029
 30
0.0
 11
13.5
 21
8.727029
 31
0.0
  0
LINE
  8
0
 62
     0
 10
10.7
 20
5.750253
 30
0.0
 11
13.5
 21
8.550253
 31
0.0
  0
LINE
  8
0
 62
     0
 10
10.7
 20
5.573476
 30
0.0
 11
13.5
 21
8.373476
 31
0.0
  0
LINE
  8
0
 62
     0
 10
10.7
 20
5.396699
 30
0.0
 11
13.5
 21
8.196699
 31
0.0
  0
LINE
  8
0
 62
     0
 10
10.7
 20
5.219922
 30
0.0
 11
13.5
 21
8.019922
 31
0.0
  0
LINE
  8
0
 62
     0
 10
10.856854
 20
5.2
 30
0.0
 11
13.5
 21
7.843146
 31
0.0
  0
LINE
  8
0
 62
     0
 10
11.033631
 20
5.2
 30
0.0
 11
13.5
 21
7.666369
 31
0.0
  0
LINE
  8
0
 62
     0
 10
11.210408
 20
5.2
 30
0.0
 11
13.5
 21
7.489592
 31
0.0
  0
LINE
  8
0
 62
     0
 10
11.387184
 20
5.2
 30
0.0
 11
13.5
 21
7.312816
 31
0.0
  0
LINE
  8
0
 62
     0
 10
11.563961
 20
5.2
 30
0.0
 11
13.5
 21
7.136039
 31
0.0
  0
LINE
  8
0
 62
     0
 10
11.740738
 20
5.2
 30
0.0
 11
13.5
 21
6.959262
 31
0.0
  0
LINE
  8
0
 62
     0
 10
11.917514
 20
5.2
 30
0.0
 11
13.5
 21
6.782486
 31
0.0
  0
LINE
  8
0
 62
     0
 10
12.094291
 20
5.2
 30
0.0
 11
13.5
 21
6.605709
 31
0.0
  0
LINE
  8
0
 62
     0
 10
12.271068
 20
5.2
 30
0.0
 11
13.5
 21
6.428932
 31
0.0
  0
LINE
  8
0
 62
     0
 10
12.447845
 20
5.2
 30
0.0
 11
13.5
 21
6.252155
 31
0.0
  0
LINE
  8
0
 62
     0
 10
12.624621
 20
5.2
 30
0.0
 11
13.5
 21
6.075379
 31
0.0
  0
LINE
  8
0
 62
     0
 10
12.801398
 20
5.2
 30
0.0
 11
13.5
 21
5.898602
 31
0.0
  0
LINE
  8
0
 62
     0
 10
12.978175
 20
5.2
 30
0.0
 11
13.5
 21
5.721825
 31
0.0
  0
LINE
  8
0
 62
     0
 10
13.154951
 20
5.2
 30
0.0
 11
13.5
 21
5.545049
 31
0.0
  0
LINE
  8
0
 62
     0
 10
13.331728
 20
5.2
 30
0.0
 11
13.5
 21
5.368272
 31
0.0
  0
ENDBLK
  8
0
  0
BLOCK
  8
0
  2
*X61
 70
    65
 10
0.0
 20
0.0
 30
0.0
  3
*X
  0
LINE
  8
0
 62
     0
 10
10.7
 20
1.154058
 30
0.0
 11
13.5
 21
3.954058
 31
0.0
  0
LINE
  8
0
 62
     0
 10
10.7
 20
1.330835
 30
0.0
 11
13.5
 21
4.130835
 31
0.0
  0
LINE
  8
0
 62
     0
 10
10.7
 20
1.507612
 30
0.0
 11
13.5
 21
4.307612
 31
0.0
  0
LINE
  8
0
 62
     0
 10
10.7
 20
1.684389
 30
0.0
 11
13.5
 21
4.484389
 31
0.0
  0
LINE
  8
0
 62
     0
 10
10.7
 20
1.861165
 30
0.0
 11
13.5
 21
4.661165
 31
0.0
  0
LINE
  8
0
 62
     0
 10
10.7
 20
2.037942
 30
0.0
 11
13.462058
 21
4.8
 31
0.0
  0
LINE
  8
0
 62
     0
 10
10.7
 20
2.214719
 30
0.0
 11
13.285281
 21
4.8
 31
0.0
  0
LINE
  8
0
 62
     0
 10
10.7
 20
2.391495
 30
0.0
 11
13.108505
 21
4.8
 31
0.0
  0
LINE
  8
0
 62
     0
 10
10.7
 20
2.568272
 30
0.0
 11
12.931728
 21
4.8
 31
0.0
  0
LINE
  8
0
 62
     0
 10
10.7
 20
2.745049
 30
0.0
 11
12.754951
 21
4.8
 31
0.0
  0
LINE
  8
0
 62
     0
 10
10.7
 20
2.921825
 30
0.0
 11
12.578175
 21
4.8
 31
0.0
  0
LINE
  8
0
 62
     0
 10
10.7
 20
3.098602
 30
0.0
 11
12.401398
 21
4.8
 31
0.0
  0
LINE
  8
0
 62
     0
 10
10.7
 20
3.275379
 30
0.0
 11
12.224621
 21
4.8
 31
0.0
  0
LINE
  8
0
 62
     0
 10
10.7
 20
3.452155
 30
0.0
 11
12.047845
 21
4.8
 31
0.0
  0
LINE
  8
0
 62
     0
 10
10.7
 20
3.628932
 30
0.0
 11
11.871068
 21
4.8
 31
0.0
  0
LINE
  8
0
 62
     0
 10
10.7
 20
3.805709
 30
0.0
 11
11.694291
 21
4.8
 31
0.0
  0
LINE
  8
0
 62
     0
 10
10.7
 20
3.982486
 30
0.0
 11
11.517514
 21
4.8
 31
0.0
  0
LINE
  8
0
 62
     0
 10
10.7
 20
4.159262
 30
0.0
 11
11.340738
 21
4.8
 31
0.0
  0
LINE
  8
0
 62
     0
 10
10.7
 20
4.336039
 30
0.0
 11
11.163961
 21
4.8
 31
0.0
  0
LINE
  8
0
 62
     0
 10
10.7
 20
4.512816
 30
0.0
 11
10.987184
 21
4.8
 31
0.0
  0
LINE
  8
0
 62
     0
 10
10.7
 20
4.689592
 30
0.0
 11
10.810408
 21
4.8
 31
0.0
  0
LINE
  8
0
 62
     0
 10
10.7
 20
0.977282
 30
0.0
 11
13.5
 21
3.777282
 31
0.0
  0
LINE
  8
0
 62
     0
 10
10.7
 20
0.800505
 30
0.0
 11
13.5
 21
3.600505
 31
0.0
  0
LINE
  8
0
 62
     0
 10
10.7
 20
0.623728
 30
0.0
 11
13.5
 21
3.423728
 31
0.0
  0
LINE
  8
0
 62
     0
 10
10.7
 20
0.446952
 30
0.0
 11
13.5
 21
3.246952
 31
0.0
  0
LINE
  8
0
 62
     0
 10
10.7
 20
0.270175
 30
0.0
 11
13.5
 21
3.070175
 31
0.0
  0
LINE
  8
0
 62
     0
 10
10.7
 20
0.093398
 30
0.0
 11
13.5
 21
2.893398
 31
0.0
  0
LINE
  8
0
 62
     0
 10
10.783378
 20
0.0
 30
0.0
 11
13.5
 21
2.716622
 31
0.0
  0
LINE
  8
0
 62
     0
 10
10.960155
 20
0.0
 30
0.0
 11
13.5
 21
2.539845
 31
0.0
  0
LINE
  8
0
 62
     0
 10
11.136932
 20
0.0
 30
0.0
 11
13.5
 21
2.363068
 31
0.0
  0
LINE
  8
0
 62
     0
 10
11.313708
 20
0.0
 30
0.0
 11
13.5
 21
2.186292
 31
0.0
  0
LINE
  8
0
 62
     0
 10
11.490485
 20
0.0
 30
0.0
 11
13.5
 21
2.009515
 31
0.0
  0
LINE
  8
0
 62
     0
 10
11.667262
 20
0.0
 30
0.0
 11
13.5
 21
1.832738
 31
0.0
  0
LINE
  8
0
 62
     0
 10
11.844039
 20
0.0
 30
0.0
 11
13.5
 21
1.655961
 31
0.0
  0
LINE
  8
0
 62
     0
 10
12.020815
 20
0.0
 30
0.0
 11
13.5
 21
1.479185
 31
0.0
  0
LINE
  8
0
 62
     0
 10
12.197592
 20
0.0
 30
0.0
 11
13.5
 21
1.302408
 31
0.0
  0
LINE
  8
0
 62
     0
 10
12.374369
 20
0.0
 30
0.0
 11
13.5
 21
1.125631
 31
0.0
  0
LINE
  8
0
 62
     0
 10
12.551145
 20
0.0
 30
0.0
 11
13.5
 21
0.948855
 31
0.0
  0
LINE
  8
0
 62
     0
 10
12.727922
 20
0.0
 30
0.0
 11
13.5
 21
0.772078
 31
0.0
  0
LINE
  8
0
 62
     0
 10
12.904699
 20
0.0
 30
0.0
 11
13.5
 21
0.595301
 31
0.0
  0
LINE
  8
0
 62
     0
 10
13.081475
 20
0.0
 30
0.0
 11
13.5
 21
0.418525
 31
0.0
  0
LINE
  8
0
 62
     0
 10
13.258252
 20
0.0
 30
0.0
 11
13.5
 21
0.241748
 31
0.0
  0
LINE
  8
0
 62
     0
 10
13.435029
 20
0.0
 30
0.0
 11
13.5
 21
0.064971
 31
0.0
  0
ENDBLK
  8
0
  0
BLOCK
  8
0
  2
*X62
 70
    65
 10
0.0
 20
0.0
 30
0.0
  3
*X
  0
LINE
  8
0
 62
     0
 10
13.9
 20
6.298602
 30
0.0
 11
16.582995
 21
8.981597
 31
0.0
  0
LINE
  8
0
 62
     0
 10
13.9
 20
6.475379
 30
0.0
 11
16.510503
 21
9.085882
 31
0.0
  0
LINE
  8
0
 62
     0
 10
13.9
 20
6.652155
 30
0.0
 11
16.432927
 21
9.185083
 31
0.0
  0
LINE
  8
0
 62
     0
 10
13.9
 20
6.828932
 30
0.0
 11
16.350372
 21
9.279304
 31
0.0
  0
LINE
  8
0
 62
     0
 10
13.9
 20
7.005709
 30
0.0
 11
16.262892
 21
9.368601
 31
0.0
  0
LINE
  8
0
 62
     0
 10
13.9
 20
7.182486
 30
0.0
 11
16.170495
 21
9.452981
 31
0.0
  0
LINE
  8
0
 62
     0
 10
13.9
 20
7.359262
 30
0.0
 11
16.073145
 21
9.532407
 31
0.0
  0
LINE
  8
0
 62
     0
 10
13.9
 20
7.536039
 30
0.0
 11
15.970755
 21
9.606794
 31
0.0
  0
LINE
  8
0
 62
     0
 10
13.9
 20
7.712816
 30
0.0
 11
15.863189
 21
9.676004
 31
0.0
  0
LINE
  8
0
 62
     0
 10
13.9
 20
7.889592
 30
0.0
 11
15.75025
 21
9.739843
 31
0.0
  0
LINE
  8
0
 62
     0
 10
13.9
 20
8.066369
 30
0.0
 11
15.631675
 21
9.798044
 31
0.0
  0
LINE
  8
0
 62
     0
 10
13.9
 20
8.243146
 30
0.0
 11
15.50711
 21
9.850256
 31
0.0
  0
LINE
  8
0
 62
     0
 10
13.9
 20
8.419922
 30
0.0
 11
15.376096
 21
9.896018
 31
0.0
  0
LINE
  8
0
 62
     0
 10
13.9
 20
8.596699
 30
0.0
 11
15.238027
 21
9.934726
 31
0.0
  0
LINE
  8
0
 62
     0
 10
13.9
 20
8.773476
 30
0.0
 11
15.092096
 21
9.965572
 31
0.0
  0
LINE
  8
0
 62
     0
 10
13.9
 20
8.950253
 30
0.0
 11
14.937209
 21
9.987461
 31
0.0
  0
LINE
  8
0
 62
     0
 10
13.9
 20
9.127029
 30
0.0
 11
14.771824
 21
9.998853
 31
0.0
  0
LINE
  8
0
 62
     0
 10
13.9
 20
9.303806
 30
0.0
 11
14.596193
 21
9.999999
 31
0.0
  0
LINE
  8
0
 62
     0
 10
13.9
 20
9.480583
 30
0.0
 11
14.419417
 21
9.999999
 31
0.0
  0
LINE
  8
0
 62
     0
 10
13.9
 20
9.657359
 30
0.0
 11
14.24264
 21
10.0
 31
0.0
  0
LINE
  8
0
 62
     0
 10
13.9
 20
9.834136
 30
0.0
 11
14.065864
 21
10.0
 31
0.0
  0
LINE
  8
0
 62
     0
 10
13.9
 20
6.121825
 30
0.0
 11
16.650245
 21
8.872071
 31
0.0
  0
LINE
  8
0
 62
     0
 10
13.9
 20
5.945049
 30
0.0
 11
16.712035
 21
8.757083
 31
0.0
  0
LINE
  8
0
 62
     0
 10
13.9
 20
5.768272
 30
0.0
 11
16.768067
 21
8.636339
 31
0.0
  0
LINE
  8
0
 62
     0
 10
13.9
 20
5.591495
 30
0.0
 11
16.817955
 21
8.509451
 31
0.0
  0
LINE
  8
0
 62
     0
 10
13.9
 20
5.414719
 30
0.0
 11
16.861189
 21
8.375908
 31
0.0
  0
LINE
  8
0
 62
     0
 10
13.9
 20
5.237942
 30
0.0
 11
16.897097
 21
8.235039
 31
0.0
  0
LINE
  8
0
 62
     0
 10
14.038835
 20
5.2
 30
0.0
 11
16.924779
 21
8.085944
 31
0.0
  0
LINE
  8
0
 62
     0
 10
14.215611
 20
5.2
 30
0.0
 11
16.942997
 21
7.927385
 31
0.0
  0
LINE
  8
0
 62
     0
 10
14.392388
 20
5.2
 30
0.0
 11
16.949987
 21
7.757599
 31
0.0
  0
LINE
  8
0
 62
     0
 10
14.569165
 20
5.2
 30
0.0
 11
16.943101
 21
7.573936
 31
0.0
  0
LINE
  8
0
 62
     0
 10
14.745942
 20
5.2
 30
0.0
 11
16.918037
 21
7.372095
 31
0.0
  0
LINE
  8
0
 62
     0
 10
14.922718
 20
5.2
 30
0.0
 11
16.866909
 21
7.144191
 31
0.0
  0
LINE
  8
0
 62
     0
 10
15.099495
 20
5.2
 30
0.0
 11
16.771715
 21
6.87222
 31
0.0
  0
LINE
  8
0
 62
     0
 10
15.276272
 20
5.2
 30
0.0
 11
15.847951
 21
5.77168
 31
0.0
  0
LINE
  8
0
 62
     0
 10
15.96673
 20
5.890458
 30
0.0
 11
16.559542
 21
6.48327
 31
0.0
  0
LINE
  8
0
 62
     0
 10
15.453048
 20
5.2
 30
0.0
 11
15.970661
 21
5.717613
 31
0.0
  0
LINE
  8
0
 62
     0
 10
15.629825
 20
5.2
 30
0.0
 11
16.088934
 21
5.659109
 31
0.0
  0
LINE
  8
0
 62
     0
 10
15.806602
 20
5.2
 30
0.0
 11
16.202964
 21
5.596363
 31
0.0
  0
LINE
  8
0
 62
     0
 10
15.983378
 20
5.2
 30
0.0
 11
16.312909
 21
5.529531
 31
0.0
  0
LINE
  8
0
 62
     0
 10
16.160155
 20
5.2
 30
0.0
 11
16.418895
 21
5.45874
 31
0.0
  0
LINE
  8
0
 62
     0
 10
16.336932
 20
5.2
 30
0.0
 11
16.521021
 21
5.384089
 31
0.0
  0
LINE
  8
0
 62
     0
 10
16.513708
 20
5.2
 30
0.0
 11
16.619363
 21
5.305655
 31
0.0
  0
LINE
  8
0
 62
     0
 10
16.690485
 20
5.2
 30
0.0
 11
16.713975
 21
5.22349
 31
0.0
  0
ENDBLK
  8
0
  0
BLOCK
  8
0
  2
*X63
 70
    65
 10
0.0
 20
0.0
 30
0.0
  3
*X
  0
LINE
  8
0
 62
     0
 10
13.9
 20
0.818525
 30
0.0
 11
17.39645
 21
4.314974
 31
0.0
  0
LINE
  8
0
 62
     0
 10
13.9
 20
0.995301
 30
0.0
 11
17.336354
 21
4.431655
 31
0.0
  0
LINE
  8
0
 62
     0
 10
13.9
 20
1.172078
 30
0.0
 11
17.272078
 21
4.544156
 31
0.0
  0
LINE
  8
0
 62
     0
 10
13.9
 20
1.348855
 30
0.0
 11
17.203766
 21
4.652621
 31
0.0
  0
LINE
  8
0
 62
     0
 10
13.9
 20
1.525631
 30
0.0
 11
17.131535
 21
4.757167
 31
0.0
  0
LINE
  8
0
 62
     0
 10
13.9
 20
1.702408
 30
0.0
 11
16.997592
 21
4.8
 31
0.0
  0
LINE
  8
0
 62
     0
 10
13.9
 20
1.879185
 30
0.0
 11
16.820815
 21
4.8
 31
0.0
  0
LINE
  8
0
 62
     0
 10
13.9
 20
2.055961
 30
0.0
 11
16.644039
 21
4.8
 31
0.0
  0
LINE
  8
0
 62
     0
 10
13.9
 20
2.232738
 30
0.0
 11
16.467262
 21
4.8
 31
0.0
  0
LINE
  8
0
 62
     0
 10
13.9
 20
2.409515
 30
0.0
 11
16.290485
 21
4.8
 31
0.0
  0
LINE
  8
0
 62
     0
 10
13.9
 20
2.586292
 30
0.0
 11
16.113708
 21
4.8
 31
0.0
  0
LINE
  8
0
 62
     0
 10
13.9
 20
2.763068
 30
0.0
 11
15.936932
 21
4.8
 31
0.0
  0
LINE
  8
0
 62
     0
 10
13.9
 20
2.939845
 30
0.0
 11
15.760155
 21
4.8
 31
0.0
  0
LINE
  8
0
 62
     0
 10
13.9
 20
3.116622
 30
0.0
 11
15.583378
 21
4.8
 31
0.0
  0
LINE
  8
0
 62
     0
 10
13.9
 20
3.293398
 30
0.0
 11
15.406602
 21
4.8
 31
0.0
  0
LINE
  8
0
 62
     0
 10
13.9
 20
3.470175
 30
0.0
 11
15.229825
 21
4.8
 31
0.0
  0
LINE
  8
0
 62
     0
 10
13.9
 20
3.646952
 30
0.0
 11
15.053048
 21
4.8
 31
0.0
  0
LINE
  8
0
 62
     0
 10
13.9
 20
3.823728
 30
0.0
 11
14.876272
 21
4.8
 31
0.0
  0
LINE
  8
0
 62
     0
 10
13.9
 20
4.000505
 30
0.0
 11
14.699495
 21
4.8
 31
0.0
  0
LINE
  8
0
 62
     0
 10
13.9
 20
4.177282
 30
0.0
 11
14.522718
 21
4.8
 31
0.0
  0
LINE
  8
0
 62
     0
 10
13.9
 20
4.354058
 30
0.0
 11
14.345942
 21
4.8
 31
0.0
  0
LINE
  8
0
 62
     0
 10
13.9
 20
4.530835
 30
0.0
 11
14.169165
 21
4.8
 31
0.0
  0
LINE
  8
0
 62
     0
 10
13.9
 20
4.707612
 30
0.0
 11
13.992388
 21
4.8
 31
0.0
  0
LINE
  8
0
 62
     0
 10
13.9
 20
0.641748
 30
0.0
 11
17.452185
 21
4.193933
 31
0.0
  0
LINE
  8
0
 62
     0
 10
13.9
 20
0.464971
 30
0.0
 11
17.503339
 21
4.068311
 31
0.0
  0
LINE
  8
0
 62
     0
 10
13.9
 20
0.288194
 30
0.0
 11
17.549642
 21
3.937837
 31
0.0
  0
LINE
  8
0
 62
     0
 10
13.9
 20
0.111418
 30
0.0
 11
17.590762
 21
3.80218
 31
0.0
  0
LINE
  8
0
 62
     0
 10
13.965359
 20
0.0
 30
0.0
 11
17.62629
 21
3.660931
 31
0.0
  0
LINE
  8
0
 62
     0
 10
14.142136
 20
0.000001
 30
0.0
 11
17.655713
 21
3.513577
 31
0.0
  0
LINE
  8
0
 62
     0
 10
14.318913
 20
0.000001
 30
0.0
 11
17.678385
 21
3.359473
 31
0.0
  0
LINE
  8
0
 62
     0
 10
14.49569
 20
0.000001
 30
0.0
 11
17.693473
 21
3.197784
 31
0.0
  0
LINE
  8
0
 62
     0
 10
14.672467
 20
0.000002
 30
0.0
 11
17.699875
 21
3.027409
 31
0.0
  0
LINE
  8
0
 62
     0
 10
14.853154
 20
0.003912
 30
0.0
 11
17.696088
 21
2.846846
 31
0.0
  0
LINE
  8
0
 62
     0
 10
15.046044
 20
0.020025
 30
0.0
 11
17.679975
 21
2.653956
 31
0.0
  0
LINE
  8
0
 62
     0
 10
15.254483
 20
0.051687
 30
0.0
 11
17.648313
 21
2.445517
 31
0.0
  0
LINE
  8
0
 62
     0
 10
15.483762
 20
0.10419
 30
0.0
 11
17.59581
 21
2.216238
 31
0.0
  0
LINE
  8
0
 62
     0
 10
15.743786
 20
0.187437
 30
0.0
 11
17.512563
 21
1.956214
 31
0.0
  0
LINE
  8
0
 62
     0
 10
16.058176
 20
0.32505
 30
0.0
 11
17.37495
 21
1.641824
 31
0.0
  0
LINE
  8
0
 62
     0
 10
16.54193
 20
0.632028
 30
0.0
 11
17.067972
 21
1.15807
 31
0.0
  0
ENDBLK
  8
0
  0
BLOCK
  8
0
  2
B39
 70
     0
 10
0.0
 20
0.0
 30
0.0
  3
B39
  0
LINE
  8
0
 10
-10.0
 20
2.5
 30
0.0
 11
-11.519867
 21
2.5
 31
0.0
  0
ARC
  8
0
 10
-9.934151
 20
3.75
 30
0.0
 40
1.251733
 50
266.984476
 51
93.015524
  0
LINE
  8
0
 10
-10.0
 20
5.0
 30
0.0
 11
-11.519867
 21
5.0
 31
0.0
  0
LINE
  8
0
 10
-10.0
 20
7.5
 30
0.0
 11
-11.519867
 21
7.5
 31
0.0
  0
ARC
  8
0
 10
-9.934151
 20
6.25
 30
0.0
 40
1.251733
 50
266.984476
 51
93.015524
  0
LINE
  8
0
 10
-5.0
 20
0.0
 30
0.0
 11
-2.5
 21
0.0
 31
0.0
  0
ARC
  8
0
 10
-5.065849
 20
1.25
 30
0.0
 40
1.251733
 50
86.984476
 51
273.015524
  0
ARC
  8
0
 10
-5.065849
 20
3.75
 30
0.0
 40
1.251733
 50
86.984476
 51
273.015524
  0
LINE
  8
0
 10
-5.0
 20
2.5
 30
0.0
 11
-2.5
 21
2.5
 31
0.0
  0
LINE
  8
0
 10
-5.0
 20
5.0
 30
0.0
 11
-2.5
 21
5.0
 31
0.0
  0
LINE
  8
0
 10
-2.5
 20
5.0
 30
0.0
 11
0.0
 21
5.0
 31
0.0
  0
LINE
  8
0
 10
-2.5
 20
0.0
 30
0.0
 11
0.0
 21
0.0
 31
0.0
  0
LINE
  8
0
 10
-2.5
 20
5.0
 30
0.0
 11
0.0
 21
5.0
 31
0.0
  0
LINE
  8
0
 10
-2.5
 20
10.0
 30
0.0
 11
0.0
 21
10.0
 31
0.0
  0
LINE
  8
0
 10
-5.0
 20
10.0
 30
0.0
 11
-2.5
 21
10.0
 31
0.0
  0
LINE
  8
0
 10
-5.0
 20
7.5
 30
0.0
 11
-2.5
 21
7.5
 31
0.0
  0
ARC
  8
0
 10
-5.065849
 20
8.75
 30
0.0
 40
1.251733
 50
86.984476
 51
273.015524
  0
ARC
  8
0
 10
-5.065849
 20
6.25
 30
0.0
 40
1.251733
 50
86.984476
 51
273.015524
  0
LINE
  8
0
 10
-5.0
 20
5.0
 30
0.0
 11
-2.5
 21
5.0
 31
0.0
  0
ENDBLK
  8
0
  0
BLOCK
  8
0
  2
B146
 70
     0
 10
0.0
 20
0.0
 30
0.0
  3
B146
  0
LINE
  8
0
 10
17.5
 20
-4.828202
 30
0.0
 11
62.5
 21
-4.828202
 31
0.0
  0
LINE
  8
0
  6
CONTINUOUS
 10
17.5
 20
-10.0
 30
0.0
 11
62.5
 21
-10.0
 31
0.0
  0
LINE
  8
0
  6
CONTINUOUS
 10
5.0
 20
0.0
 30
0.0
 11
62.5
 21
0.0
 31
0.0
  0
LINE
  8
0
  6
CONTINUOUS
 10
5.0
 20
-25.0
 30
0.0
 11
62.5
 21
-25.0
 31
0.0
  0
TEXT
  8
0
  6
CENTER
 10
20.0
 20
-21.666667
 30
0.0
 40
2.0
  1
25-28
  0
TEXT
  8
0
  6
CENTER
 10
19.998602
 20
-8.389298
 30
0.0
 40
2.0
  1
In=0,2A
  0
LINE
  8
0
  6
CONTINUOUS
 10
17.5
 20
-25.0
 30
0.0
 11
17.5
 21
0.0
 31
0.0
  0
LINE
  8
0
  6
CONTINUOUS
 10
12.616787
 20
-20.534894
 30
0.0
 11
12.616787
 21
-21.889164
 31
0.0
  0
LINE
  8
0
  6
CONTINUOUS
 10
11.406559
 20
-21.889164
 30
0.0
 11
12.6009
 21
-21.889164
 31
0.0
  0
LINE
  8
0
  6
CONTINUOUS
 10
12.6009
 20
-21.889164
 30
0.0
 11
13.795241
 21
-21.889164
 31
0.0
  0
LINE
  8
0
  6
CONTINUOUS
 10
11.784965
 20
-22.368774
 30
0.0
 11
13.369536
 21
-22.368774
 31
0.0
  0
LINE
  8
0
  6
CONTINUOUS
 10
12.116069
 20
-22.856949
 30
0.0
 11
13.002956
 21
-22.856949
 31
0.0
  0
TEXT
  8
0
  6
CENTER
 10
10.0
 20
-21.666667
 30
0.0
 40
2.0
  1
I
  0
TEXT
  8
0
  6
CENTER
 10
10.0
 20
-18.333333
 30
0.0
 40
2.0
  1
L3
  0
TEXT
  8
0
  6
CENTER
 10
10.0
 20
-15.0
 30
0.0
 40
2.0
  1
L1
  0
TEXT
  8
0
  6
CENTER
 10
50.0
 20
-21.666667
 30
0.0
 40
2.0
  1
25-26
  0
TEXT
  8
0
  6
CENTER
 10
50.0
 20
-18.333333
 30
0.0
 40
2.0
  1
7-8
  0
TEXT
  8
0
  6
CENTER
 10
50.0
 20
-15.0
 30
0.0
 40
2.0
  1
1-2
  0
TEXT
  8
0
  6
CENTER
 10
35.0
 20
-21.666667
 30
0.0
 40
2.0
  1
25-27
  0
TEXT
  8
0
  6
CENTER
 10
35.0
 20
-18.333333
 30
0.0
 40
2.0
  1
7-9
  0
TEXT
  8
0
  6
CENTER
 10
35.0
 20
-15.0
 30
0.0
 40
2.0
  1
1-3
  0
LINE
  8
0
 10
5.0
 20
0.0
 30
0.0
 11
5.0
 21
-25.0
 31
0.0
  0
LINE
  8
0
 10
62.5
 20
-25.0
 30
0.0
 11
62.5
 21
0.0
 31
0.0
  0
LINE
  8
0
 10
32.5
 20
-4.828202
 30
0.0
 11
32.5
 21
-25.0
 31
0.0
  0
LINE
  8
0
 10
47.5
 20
-4.828202
 30
0.0
 11
47.5
 21
-25.0
 31
0.0
  0
TEXT
  8
0
 10
23.041221
 20
-4.161535
 30
0.0
 40
2.0
  1
TERMINALS / UTTAG
 11
23.041221
 21
-4.828202
 31
0.0
 73
     1
  0
TEXT
  8
0
 10
35.120167
 20
-8.449983
 30
0.0
 40
2.0
  1
In=1A 
 11
35.120167
 21
-9.11665
 31
0.0
 73
     1
  0
TEXT
  8
0
 10
49.969965
 20
-8.449983
 30
0.0
 40
2.0
  1
In=5A
 11
49.969965
 21
-9.11665
 31
0.0
 73
     1
  0
TEXT
  8
0
  6
CONTINUOUS
 10
1.50882
 20
1.838465
 30
0.0
 40
2.0
  1
1)
 11
1.50882
 21
1.171798
 31
0.0
 73
     1
  0
ENDBLK
  8
0
  0
BLOCK
  8
0
  2
B147
 70
     0
 10
0.0
 20
0.0
 30
0.0
  3
B147
  0
TEXT
  8
0
  6
CONTINUOUS
 10
0.0
 20
0.0
 30
0.0
 40
2.0
  1
1)
  0
LINE
  8
BASE
  6
CONTINUOUS
 10
10.383131
 20
-27.812413
 30
0.0
 11
10.383131
 21
-29.166683
 31
0.0
  0
LINE
  8
BASE
  6
CONTINUOUS
 10
9.172903
 20
-29.166683
 30
0.0
 11
10.367244
 21
-29.166683
 31
0.0
  0
LINE
  8
BASE
  6
CONTINUOUS
 10
10.367244
 20
-29.166683
 30
0.0
 11
11.561585
 21
-29.166683
 31
0.0
  0
LINE
  8
BASE
  6
CONTINUOUS
 10
9.551308
 20
-29.646294
 30
0.0
 11
11.135879
 21
-29.646294
 31
0.0
  0
LINE
  8
BASE
  6
CONTINUOUS
 10
9.882412
 20
-30.134468
 30
0.0
 11
10.769299
 21
-30.134468
 31
0.0
  0
LINE
  8
0
  6
CONTINUOUS
 10
52.5
 20
-2.5
 30
0.0
 11
52.5
 21
-32.5
 31
0.0
  0
TEXT
  8
0
  6
CONTINUOUS
 10
37.5
 20
-29.166667
 30
0.0
 40
2.0
  1
25-26
  0
TEXT
  8
0
  6
CONTINUOUS
 10
37.5
 20
-25.833333
 30
0.0
 40
2.0
  1
7-8
  0
TEXT
  8
0
  6
CONTINUOUS
 10
37.5
 20
-22.5
 30
0.0
 40
2.0
  1
1-2
  0
TEXT
  8
0
  6
CONTINUOUS
 10
20.0
 20
-29.166667
 30
0.0
 40
2.0
  1
25-27
  0
TEXT
  8
0
  6
CONTINUOUS
 10
20.0
 20
-25.833333
 30
0.0
 40
2.0
  1
7-9
  0
TEXT
  8
0
  6
CONTINUOUS
 10
20.0
 20
-22.5
 30
0.0
 40
2.0
  1
1-3
  0
TEXT
  8
0
  6
CONTINUOUS
 10
7.5
 20
-29.166667
 30
0.0
 40
2.0
  1
I
  0
TEXT
  8
0
  6
CONTINUOUS
 10
7.5
 20
-25.833333
 30
0.0
 40
2.0
  1
L3
  0
TEXT
  8
0
  6
CONTINUOUS
 10
7.5
 20
-22.5
 30
0.0
 40
2.0
  1
L1
  0
TEXT
  8
0
  6
CONTINUOUS
 10
37.5
 20
-15.0
 30
0.0
 40
2.0
  1
In=5A
  0
TEXT
  8
0
  6
CONTINUOUS
 10
20.0
 20
-15.0
 30
0.0
 40
2.0
  1
In=1A
  0
TEXT
  8
0
  6
CONTINUOUS
 10
20.0
 20
-7.5
 30
0.0
 40
2.0
  1
TERMINALS/UTTAG
  0
LINE
  8
0
  6
CONTINUOUS
 10
32.5
 20
-10.0
 30
0.0
 11
32.5
 21
-32.5
 31
0.0
  0
LINE
  8
0
  6
CONTINUOUS
 10
15.0
 20
-17.5
 30
0.0
 11
52.5
 21
-17.5
 31
0.0
  0
LINE
  8
0
  6
CONTINUOUS
 10
15.0
 20
-10.0
 30
0.0
 11
52.5
 21
-10.0
 31
0.0
  0
LINE
  8
0
  6
CONTINUOUS
 10
2.5
 20
-32.5
 30
0.0
 11
52.5
 21
-32.5
 31
0.0
  0
LINE
  8
0
  6
CONTINUOUS
 10
2.5
 20
-2.5
 30
0.0
 11
52.5
 21
-2.5
 31
0.0
  0
LINE
  8
0
  6
CONTINUOUS
 10
15.0
 20
-2.5
 30
0.0
 11
15.0
 21
-32.5
 31
0.0
  0
LINE
  8
0
  6
CONTINUOUS
 10
2.5
 20
-2.5
 30
0.0
 11
2.5
 21
-32.5
 31
0.0
  0
ENDBLK
  8
0
  0
BLOCK
  8
0
  2
B91
 70
     0
 10
0.0
 20
0.0
 30
0.0
  3
B91
  0
LINE
  8
0
  6
DASHED
 10
0.0
 20
0.0
 30
0.0
 11
17.5
 21
0.0
 31
0.0
  0
LINE
  8
0
  6
DASHED
 10
0.0
 20
5.0
 30
0.0
 11
4.266471
 21
5.0
 31
0.0
  0
LINE
  8
0
  6
DASHED
 10
0.0
 20
10.0
 30
0.0
 11
4.266471
 21
10.0
 31
0.0
  0
LINE
  8
0
  6
CONTINUOUS
 10
6.0
 20
11.5
 30
0.0
 11
5.0
 21
12.5
 31
0.0
  0
LINE
  8
0
  6
DASHED
 10
6.0
 20
10.0
 30
0.0
 11
17.5
 21
10.0
 31
0.0
  0
LINE
  8
0
  6
CONTINUOUS
 10
6.0
 20
11.5
 30
0.0
 11
6.0
 21
4.5
 31
0.0
  0
LINE
  8
0
  6
CONTINUOUS
 10
6.0
 20
4.5
 30
0.0
 11
5.0
 21
3.5
 31
0.0
  0
ENDBLK
  8
0
  0
BLOCK
  8
0
  2
B69
 70
     0
 10
0.0
 20
0.0
 30
0.0
  3
B69
  0
LINE
  8
0
  6
CONTINUOUS
 10
0.0
 20
0.0
 30
0.0
 11
5.0
 21
0.0
 31
0.0
  0
LINE
  8
0
  6
CONTINUOUS
 10
0.0
 20
-10.0
 30
0.0
 11
5.0
 21
-10.0
 31
0.0
  0
LINE
  8
0
  6
CONTINUOUS
 10
0.0
 20
-20.0
 30
0.0
 11
5.0
 21
-20.0
 31
0.0
  0
LINE
  8
0
  6
CONTINUOUS
 10
0.0
 20
-30.0
 30
0.0
 11
5.0
 21
-30.0
 31
0.0
  0
LINE
  8
0
  6
CONTINUOUS
 10
0.0
 20
-40.0
 30
0.0
 11
5.0
 21
-40.0
 31
0.0
  0
LINE
  8
0
  6
CONTINUOUS
 10
0.0
 20
-50.0
 30
0.0
 11
5.0
 21
-50.0
 31
0.0
  0
LINE
  8
0
  6
CONTINUOUS
 10
0.0
 20
-60.0
 30
0.0
 11
5.0
 21
-60.0
 31
0.0
  0
LINE
  8
0
  6
CONTINUOUS
 10
0.0
 20
-70.0
 30
0.0
 11
5.0
 21
-70.0
 31
0.0
  0
LINE
  8
0
  6
CONTINUOUS
 10
7.5
 20
-70.0
 30
0.0
 11
6.5
 21
-71.0
 31
0.0
  0
LINE
  8
0
  6
CONTINUOUS
 10
7.5
 20
-60.0
 30
0.0
 11
7.5
 21
-70.0
 31
0.0
  0
LINE
  8
0
  6
CONTINUOUS
 10
7.5
 20
-60.0
 30
0.0
 11
6.5
 21
-59.0
 31
0.0
  0
LINE
  8
0
  6
CONTINUOUS
 10
7.5
 20
-50.0
 30
0.0
 11
6.5
 21
-51.0
 31
0.0
  0
LINE
  8
0
  6
CONTINUOUS
 10
7.5
 20
-50.0
 30
0.0
 11
7.5
 21
-20.0
 31
0.0
  0
LINE
  8
0
  6
CONTINUOUS
 10
7.5
 20
-20.0
 30
0.0
 11
7.5
 21
0.0
 31
0.0
  0
LINE
  8
0
  6
CONTINUOUS
 10
7.5
 20
0.0
 30
0.0
 11
6.5
 21
1.0
 31
0.0
  0
LINE
  8
0
  6
DASHED
 10
7.5
 20
-25.0
 30
0.0
 11
20.0
 21
-25.0
 31
0.0
  0
LINE
  8
0
  6
DASHED
 10
7.5
 20
-65.0
 30
0.0
 11
20.0
 21
-65.0
 31
0.0
  0
CIRCLE
  8
0
  6
CONTINUOUS
 10
22.5
 20
-65.0
 30
0.0
 40
2.5
  0
CIRCLE
  8
0
  6
CONTINUOUS
 10
22.5
 20
-25.0
 30
0.0
 40
2.5
  0
LINE
  8
0
  6
DASHED
 10
22.5
 20
-15.0
 30
0.0
 11
22.5
 21
-75.0
 31
0.0
  0
ENDBLK
  8
0
  0
BLOCK
  8
0
  2
B117
 70
     0
 10
0.0
 20
0.0
 30
0.0
  3
B117
  0
LINE
  8
0
  6
DASHED
 10
0.0
 20
37.5
 30
0.0
 11
0.0
 21
5.132058
 31
0.0
  0
CIRCLE
  8
0
  6
CONTINUOUS
 10
0.0
 20
22.440007
 30
0.0
 40
4.398585
  0
CIRCLE
  8
0
  6
CONTINUOUS
 10
0.0
 20
-6.055075
 30
0.0
 40
4.398585
  0
CIRCLE
  8
0
  6
CONTINUOUS
 10
0.0
 20
0.733473
 30
0.0
 40
4.398585
  0
LINE
  8
0
  6
CONTINUOUS
 10
2.330189
 20
-1.600047
 30
0.0
 11
-0.003212
 21
0.733355
 31
0.0
  0
LINE
  8
0
  6
CONTINUOUS
 10
-0.003212
 20
0.733355
 30
0.0
 11
-2.336614
 21
-1.600047
 31
0.0
  0
LINE
  8
0
  6
CONTINUOUS
 10
-0.003212
 20
0.733355
 30
0.0
 11
-0.003212
 21
3.066756
 31
0.0
  0
LINE
  8
0
  6
DASHED
 10
0.0
 20
0.733473
 30
0.0
 11
12.5
 21
0.733473
 31
0.0
  0
INSERT
  8
0
  6
DASHED
  2
B97
 10
14.158425
 20
0.733484
 30
0.0
 50
90.0
  0
ENDBLK
  8
0
  0
BLOCK
  8
0
  2
B97
 70
    64
 10
0.0
 20
0.0
 30
0.0
  3
B97
  0
INSERT
  8
0
  6
DASHED
  2
BLC15
 10
-0.142087
 20
-2.191142
 30
0.0
  0
ENDBLK
  8
0
  0
BLOCK
  8
0
  2
B74
 70
     0
 10
0.0
 20
0.0
 30
0.0
  3
B74
  0
TEXT
  8
0
  6
CONTINUOUS
 10
2.329422
 20
9.526264
 30
0.0
 40
1.8
  1
162 mm
  7
GREEKS
  0
TEXT
  8
0
  6
CONTINUOUS
 10
-12.590453
 20
20.563425
 30
0.0
 40
1.8
  1
142 mm
  7
GREEKS
  0
ARC
  8
0
  6
CONTINUOUS
 10
-0.685275
 20
1.784081
 30
0.0
 40
2.0
 50
270.0
 51
0.0
  0
ARC
  8
0
  6
CONTINUOUS
 10
-14.031047
 20
1.784081
 30
0.0
 40
2.0
 50
180.0
 51
270.0
  0
ARC
  8
0
  6
CONTINUOUS
 10
-14.031047
 20
17.282894
 30
0.0
 40
2.0
 50
90.0
 51
180.0
  0
ARC
  8
0
  6
CONTINUOUS
 10
-0.685275
 20
17.282894
 30
0.0
 40
2.0
 50
0.0
 51
90.0
  0
LINE
  8
0
  6
CONTINUOUS
 10
-16.031047
 20
17.282894
 30
0.0
 11
-16.031047
 21
1.784081
 31
0.0
  0
LINE
  8
0
  6
CONTINUOUS
 10
-0.685275
 20
19.282894
 30
0.0
 11
-14.031047
 21
19.282894
 31
0.0
  0
LINE
  8
0
  6
CONTINUOUS
 10
1.314725
 20
1.784081
 30
0.0
 11
1.314725
 21
17.282894
 31
0.0
  0
LINE
  8
0
  6
CONTINUOUS
 10
-14.031047
 20
-0.215919
 30
0.0
 11
-0.685275
 21
-0.215919
 31
0.0
  0
TEXT
  8
0
  6
CONTINUOUS
 10
-16.318348
 20
-4.949735
 30
0.0
 40
2.0
  1
SPAJ 160 C 
  7
GREEKS
  0
ENDBLK
  8
0
  0
BLOCK
  8
0
  2
B63
 70
     0
 10
0.0
 20
0.0
 30
0.0
  3
B63
  0
LINE
  8
BASE
  6
CONTINUOUS
 10
-5.0
 20
-5.0
 30
0.0
 11
-5.0
 21
-2.5
 31
0.0
  0
LINE
  8
BASE
  6
CONTINUOUS
 10
-5.0
 20
-5.0
 30
0.0
 11
-10.0
 21
-5.0
 31
0.0
  0
LINE
  8
BASE
  6
CONTINUOUS
 10
-0.373205
 20
-0.208872
 30
0.0
 11
-5.743924
 21
-3.214703
 31
0.0
  0
LINE
  8
BASE
  6
CONTINUOUS
 10
-10.0
 20
0.0
 30
0.0
 11
-5.0
 21
0.0
 31
0.0
  0
CIRCLE
  8
BASE
  6
CONTINUOUS
 10
0.0
 20
0.0
 30
0.0
 40
0.427679
  0
LINE
  8
BASE
  6
CONTINUOUS
 10
0.427679
 20
0.0
 30
0.0
 11
5.0
 21
0.0
 31
0.0
  0
ENDBLK
  8
0
  0
BLOCK
  8
0
  2
B31
 70
     0
 10
0.0
 20
0.0
 30
0.0
  3
B31
  0
LINE
  8
0
  6
DASHED
 10
65.0
 20
-52.5
 30
0.0
 11
65.0
 21
-67.5
 31
0.0
  0
LINE
  8
0
  6
DASHED
 10
57.5
 20
-52.5
 30
0.0
 11
57.5
 21
-67.5
 31
0.0
  0
LINE
  8
0
  6
DASHED
 10
50.0
 20
-52.5
 30
0.0
 11
50.0
 21
-67.5
 31
0.0
  0
POLYLINE
  8
0
  6
DASHED
 66
     1
 10
0.0
 20
0.0
 30
0.0
 70
     1
 40
0.25
 41
0.25
 71
     2
 72
   251
  0
VERTEX
  8
0
  6
DASHED
 10
42.125
 20
-50.0
 30
0.0
 42
1.0
  0
VERTEX
  8
0
  6
DASHED
 10
42.875
 20
-50.0
 30
0.0
 42
1.0
  0
SEQEND
  8
0
  6
DASHED
  0
LINE
  8
0
  6
DASHED
 10
10.0
 20
-10.0
 30
0.0
 11
10.0
 21
-50.0
 31
0.0
  0
LINE
  8
0
  6
DASHED
 10
10.0
 20
-50.0
 30
0.0
 11
42.5
 21
-50.0
 31
0.0
  0
POLYLINE
  8
0
  6
DASHED
 66
     1
 10
0.0
 20
0.0
 30
0.0
 70
     1
 40
0.25
 41
0.25
 71
     2
 72
   151
  0
VERTEX
  8
0
  6
DASHED
 10
42.124304
 20
-44.809877
 30
0.0
 42
1.0
  0
VERTEX
  8
0
  6
DASHED
 10
42.874304
 20
-44.809877
 30
0.0
 42
1.0
  0
SEQEND
  8
0
  6
DASHED
  0
POLYLINE
  8
0
  6
DASHED
 66
     1
 10
0.0
 20
0.0
 30
0.0
 70
     1
 40
0.25
 41
0.25
 71
     2
 72
   151
  0
VERTEX
  8
0
  6
DASHED
 10
42.124944
 20
-24.809955
 30
0.0
 42
1.0
  0
VERTEX
  8
0
  6
DASHED
 10
42.874944
 20
-24.809955
 30
0.0
 42
1.0
  0
SEQEND
  8
0
  6
DASHED
  0
LINE
  8
0
  6
DASHED
 10
65.006921
 20
-44.810016
 30
0.0
 11
42.923681
 21
-44.810016
 31
0.0
  0
LINE
  8
0
  6
DASHED
 10
57.569797
 20
-24.810016
 30
0.0
 11
42.695548
 21
-24.810016
 31
0.0
  0
POLYLINE
  8
0
  6
DASHED
 66
     1
 10
0.0
 20
0.0
 30
0.0
 70
     1
 40
0.25
 41
0.25
 71
     2
 72
   151
  0
VERTEX
  8
0
  6
DASHED
 10
9.625
 20
-50.0
 30
0.0
 42
1.0
  0
VERTEX
  8
0
  6
DASHED
 10
10.375
 20
-50.0
 30
0.0
 42
1.0
  0
SEQEND
  8
0
  6
DASHED
  0
POLYLINE
  8
0
  6
DASHED
 66
     1
 10
0.0
 20
0.0
 30
0.0
 70
     1
 40
0.25
 41
0.25
 71
     2
 72
   151
  0
VERTEX
  8
0
  6
DASHED
 10
9.625
 20
-30.0
 30
0.0
 42
1.0
  0
VERTEX
  8
0
  6
DASHED
 10
10.375
 20
-30.0
 30
0.0
 42
1.0
  0
SEQEND
  8
0
  6
DASHED
  0
LINE
  8
0
  6
DASHED
 10
42.5
 20
-4.810008
 30
0.0
 11
42.5
 21
-52.5
 31
0.0
  0
LINE
  8
0
  6
DASHED
 10
50.0
 20
-27.5
 30
0.0
 11
50.0
 21
-52.5
 31
0.0
  0
LINE
  8
0
  6
DASHED
 10
57.5
 20
-27.5
 30
0.0
 11
57.5
 21
-52.5
 31
0.0
  0
LINE
  8
0
  6
DASHED
 10
65.0
 20
-27.5
 30
0.0
 11
65.0
 21
-52.5
 31
0.0
  0
INSERT
  8
0
  6
CONTINUOUS
  2
BLC15
 10
42.357916
 20
-55.0
 30
0.0
  0
INSERT
  8
0
  6
CONTINUOUS
  2
BLC27
 10
51.491154
 20
-2.381567
 30
0.0
 50
180.0
  0
LINE
  8
0
  6
DASHED
 10
50.0
 20
5.0
 30
0.0
 11
50.0
 21
-27.5
 31
0.0
  0
LINE
  8
0
  6
DASHED
 10
50.0
 20
12.5
 30
0.0
 11
50.0
 21
25.0
 31
0.0
  0
LINE
  8
0
  6
DASHED
 10
57.5
 20
25.0
 30
0.0
 11
57.5
 21
12.5
 31
0.0
  0
LINE
  8
0
  6
DASHED
 10
57.5
 20
5.0
 30
0.0
 11
57.5
 21
-27.5
 31
0.0
  0
LINE
  8
0
  6
DASHED
 10
65.0
 20
25.0
 30
0.0
 11
65.0
 21
12.5
 31
0.0
  0
LINE
  8
0
  6
DASHED
 10
65.0
 20
5.0
 30
0.0
 11
65.0
 21
-27.5
 31
0.0
  0
LINE
  8
0
  6
DASHED
 10
80.0
 20
25.0
 30
0.0
 11
22.5
 21
25.0
 31
0.0
  0
LINE
  8
0
  6
DASHED
 10
80.0
 20
32.5
 30
0.0
 11
22.5
 21
32.5
 31
0.0
  0
LINE
  8
0
  6
DASHED
 10
80.0
 20
40.0
 30
0.0
 11
22.5
 21
40.0
 31
0.0
  0
LINE
  8
0
  6
DASHED
 10
57.5
 20
25.0
 30
0.0
 11
57.5
 21
32.5
 31
0.0
  0
LINE
  8
0
  6
DASHED
 10
50.0
 20
25.0
 30
0.0
 11
50.0
 21
40.0
 31
0.0
  0
INSERT
  8
0
  6
CONTINUOUS
  2
BLC27
 10
59.01227
 20
-22.38157
 30
0.0
 50
180.0
  0
LINE
  8
0
  6
CONTINUOUS
 10
50.0
 20
5.0
 30
0.0
 11
47.5
 21
12.5
 31
0.0
  0
LINE
  8
0
  6
CONTINUOUS
 10
57.5
 20
5.0
 30
0.0
 11
55.0
 21
12.5
 31
0.0
  0
LINE
  8
0
  6
CONTINUOUS
 10
65.0
 20
5.0
 30
0.0
 11
62.5
 21
12.5
 31
0.0
  0
LINE
  8
0
  6
CONTINUOUS
 10
50.0
 20
12.5
 30
0.0
 11
49.5
 21
13.0
 31
0.0
  0
LINE
  8
0
  6
CONTINUOUS
 10
50.0
 20
12.5
 30
0.0
 11
50.5
 21
12.0
 31
0.0
  0
LINE
  8
0
  6
CONTINUOUS
 10
50.0
 20
12.5
 30
0.0
 11
50.5
 21
13.0
 31
0.0
  0
LINE
  8
0
  6
CONTINUOUS
 10
50.0
 20
12.5
 30
0.0
 11
49.5
 21
12.0
 31
0.0
  0
LINE
  8
0
  6
CONTINUOUS
 10
57.5
 20
12.5
 30
0.0
 11
58.0
 21
13.0
 31
0.0
  0
LINE
  8
0
  6
CONTINUOUS
 10
57.5
 20
12.5
 30
0.0
 11
58.0
 21
12.0
 31
0.0
  0
LINE
  8
0
  6
CONTINUOUS
 10
57.5
 20
12.5
 30
0.0
 11
57.0
 21
12.0
 31
0.0
  0
LINE
  8
0
  6
CONTINUOUS
 10
57.5
 20
12.5
 30
0.0
 11
57.0
 21
13.0
 31
0.0
  0
LINE
  8
0
  6
CONTINUOUS
 10
65.0
 20
12.5
 30
0.0
 11
65.5
 21
12.0
 31
0.0
  0
LINE
  8
0
  6
CONTINUOUS
 10
65.0
 20
12.5
 30
0.0
 11
65.5
 21
13.0
 31
0.0
  0
LINE
  8
0
  6
CONTINUOUS
 10
65.0
 20
12.5
 30
0.0
 11
64.5
 21
13.0
 31
0.0
  0
LINE
  8
0
  6
CONTINUOUS
 10
65.0
 20
12.5
 30
0.0
 11
64.5
 21
12.0
 31
0.0
  0
POLYLINE
  8
0
  6
CONTINUOUS
 66
     1
 10
0.0
 20
0.0
 30
0.0
 70
     1
 40
0.25
 41
0.25
 71
     2
 72
   151
  0
VERTEX
  8
0
  6
CONTINUOUS
 10
64.625
 20
25.0
 30
0.0
 42
1.0
  0
VERTEX
  8
0
  6
CONTINUOUS
 10
65.375
 20
25.0
 30
0.0
 42
1.0
  0
SEQEND
  8
0
  6
CONTINUOUS
  0
POLYLINE
  8
0
  6
CONTINUOUS
 66
     1
 10
0.0
 20
0.0
 30
0.0
 70
     1
 40
0.25
 41
0.25
 71
     2
 72
   151
  0
VERTEX
  8
0
  6
CONTINUOUS
 10
57.125
 20
32.5
 30
0.0
 42
1.0
  0
VERTEX
  8
0
  6
CONTINUOUS
 10
57.875
 20
32.5
 30
0.0
 42
1.0
  0
SEQEND
  8
0
  6
CONTINUOUS
  0
POLYLINE
  8
0
  6
CONTINUOUS
 66
     1
 10
0.0
 20
0.0
 30
0.0
 70
     1
 40
0.25
 41
0.25
 71
     2
 72
   151
  0
VERTEX
  8
0
  6
CONTINUOUS
 10
49.625
 20
40.0
 30
0.0
 42
1.0
  0
VERTEX
  8
0
  6
CONTINUOUS
 10
50.375
 20
40.0
 30
0.0
 42
1.0
  0
SEQEND
  8
0
  6
CONTINUOUS
  0
INSERT
  8
0
  6
CONTINUOUS
  2
BLC27
 10
66.491155
 20
-42.381569
 30
0.0
 50
180.0
  0
LINE
  8
0
  6
DASHED
 10
50.0
 20
-4.810008
 30
0.0
 11
42.5
 21
-4.810008
 31
0.0
  0
TEXT
  8
0
  6
CONTINUOUS
 10
13.732328
 20
38.985054
 30
0.0
 40
2.0
  1
L1(R)
 11
13.732328
 21
38.318387
 31
0.0
 73
     1
  0
TEXT
  8
0
  6
CONTINUOUS
 10
13.732328
 20
31.428359
 30
0.0
 40
2.0
  1
L2(S)
 11
13.732328
 21
30.761693
 31
0.0
 73
     1
  0
TEXT
  8
0
  6
CONTINUOUS
 10
13.732328
 20
24.006967
 30
0.0
 40
2.0
  1
L3(T)
 11
13.732328
 21
23.3403
 31
0.0
 73
     1
  0
LINE
  8
0
  6
DASHED
 10
0.0
 20
-40.0
 30
0.0
 11
65.0
 21
-40.0
 31
0.0
  0
LINE
  8
0
  6
DASHED
 10
0.0
 20
-50.0
 30
0.0
 11
10.0
 21
-50.0
 31
0.0
  0
LINE
  8
0
  6
DASHED
 10
0.0
 20
-30.0
 30
0.0
 11
10.0
 21
-30.0
 31
0.0
  0
LINE
  8
0
  6
DASHED
 10
0.0
 20
-20.0
 30
0.0
 11
57.5
 21
-20.0
 31
0.0
  0
LINE
  8
0
  6
DASHED
 10
0.0
 20
-10.0
 30
0.0
 11
10.0
 21
-10.0
 31
0.0
  0
LINE
  8
0
  6
DASHED
 10
0.0
 20
0.0
 30
0.0
 11
50.0
 21
0.0
 31
0.0
  0
ENDBLK
  8
0
  0
BLOCK
  8
0
  2
B71
 70
     0
 10
0.0
 20
0.0
 30
0.0
  3
B71
  0
LINE
  8
0
  6
DASHED
 10
25.0
 20
-67.5
 30
0.0
 11
36.243055
 21
-67.5
 31
0.0
  0
LINE
  8
0
  6
DASHED
 10
25.0
 20
-60.0
 30
0.0
 11
25.0
 21
-67.5
 31
0.0
  0
LINE
  8
0
  6
CONTINUOUS
 10
43.928175
 20
-62.082319
 30
0.0
 11
44.178175
 21
-62.332319
 31
0.0
  0
LINE
  8
0
  6
CONTINUOUS
 10
44.178175
 20
-62.332319
 30
0.0
 11
45.678175
 21
-62.332319
 31
0.0
  0
LINE
  8
0
  6
CONTINUOUS
 10
45.678175
 20
-62.332319
 30
0.0
 11
45.928175
 21
-62.082319
 31
0.0
  0
LINE
  8
0
  6
CONTINUOUS
 10
34.178175
 20
-62.332319
 30
0.0
 11
35.678175
 21
-62.332319
 31
0.0
  0
LINE
  8
0
  6
CONTINUOUS
 10
35.678175
 20
-62.332319
 30
0.0
 11
35.928175
 21
-62.082319
 31
0.0
  0
LINE
  8
0
  6
CONTINUOUS
 10
33.928175
 20
-62.082319
 30
0.0
 11
34.178175
 21
-62.332319
 31
0.0
  0
LINE
  8
0
  6
CONTINUOUS
 10
45.0
 20
-61.22468
 30
0.0
 11
45.0
 21
-65.0
 31
0.0
  0
LINE
  8
0
  6
CONTINUOUS
 10
44.134275
 20
-61.22468
 30
0.0
 11
45.798224
 21
-61.22468
 31
0.0
  0
LINE
  8
0
  6
CONTINUOUS
 10
44.134275
 20
-60.8432
 30
0.0
 11
45.798224
 21
-60.8432
 31
0.0
  0
LINE
  8
0
  6
CONTINUOUS
 10
35.0
 20
-60.8432
 30
0.0
 11
35.0
 21
-60.0
 31
0.0
  0
LINE
  8
0
  6
CONTINUOUS
 10
34.134275
 20
-61.22468
 30
0.0
 11
35.798224
 21
-61.22468
 31
0.0
  0
LINE
  8
0
  6
CONTINUOUS
 10
34.134275
 20
-60.8432
 30
0.0
 11
35.798224
 21
-60.8432
 31
0.0
  0
ARC
  8
0
 10
37.493055
 20
-64.907684
 30
0.0
 40
1.251733
 50
356.984476
 51
183.015524
  0
LINE
  8
0
 10
36.243055
 20
-64.973533
 30
0.0
 11
36.243055
 21
-67.5
 31
0.0
  0
LINE
  8
0
 10
38.743055
 20
-64.973533
 30
0.0
 11
38.743055
 21
-67.473533
 31
0.0
  0
LINE
  8
0
 10
38.743055
 20
-67.473533
 30
0.0
 11
38.743055
 21
-67.5
 31
0.0
  0
LINE
  8
0
 10
38.743055
 20
-67.473533
 30
0.0
 11
38.743055
 21
-67.5
 31
0.0
  0
LINE
  8
0
 10
43.743055
 20
-67.473533
 30
0.0
 11
43.743055
 21
-70.0
 31
0.0
  0
LINE
  8
0
 10
43.743055
 20
-64.973533
 30
0.0
 11
43.743055
 21
-67.473533
 31
0.0
  0
LINE
  8
0
 10
41.243055
 20
-64.973533
 30
0.0
 11
41.243055
 21
-67.473533
 31
0.0
  0
ARC
  8
0
 10
42.493055
 20
-64.907684
 30
0.0
 40
1.251733
 50
356.984476
 51
183.015524
  0
ARC
  8
0
 10
39.993055
 20
-64.907684
 30
0.0
 40
1.251733
 50
356.984476
 51
183.015524
  0
LINE
  8
0
 10
38.743055
 20
-64.973533
 30
0.0
 11
38.743055
 21
-67.473533
 31
0.0
  0
LINE
  8
0
  6
CONTINUOUS
 10
35.0
 20
-65.0
 30
0.0
 11
35.0
 21
-61.22468
 31
0.0
  0
LINE
  8
0
  6
CONTINUOUS
 10
45.0
 20
-65.0
 30
0.0
 11
35.0
 21
-65.0
 31
0.0
  0
LINE
  8
0
  6
CONTINUOUS
 10
45.0
 20
-60.0
 30
0.0
 11
45.0
 21
-60.8432
 31
0.0
  0
LINE
  8
0
  6
CONTINUOUS
 10
35.0
 20
-60.0
 30
0.0
 11
45.0
 21
-60.0
 31
0.0
  0
POLYLINE
  8
0
  6
CONTINUOUS
 66
     1
 10
0.0
 20
0.0
 30
0.0
 70
     1
 40
0.25
 41
0.25
 71
     2
 72
   151
  0
VERTEX
  8
0
  6
CONTINUOUS
 10
22.125
 20
-70.0
 30
0.0
 42
1.0
  0
VERTEX
  8
0
  6
CONTINUOUS
 10
22.875
 20
-70.0
 30
0.0
 42
1.0
  0
SEQEND
  8
0
  6
CONTINUOUS
  0
INSERT
  8
0
  6
DASHED
  2
BLC15
 10
22.357913
 20
-73.479912
 30
0.0
  0
INSERT
  8
0
  6
DASHED
  2
BLC15
 10
29.857913
 20
-55.979912
 30
0.0
  0
POLYLINE
  8
0
  6
DASHED
 66
     1
 10
0.0
 20
0.0
 30
0.0
 70
     1
 40
0.25
 41
0.25
 71
     2
 72
   151
  0
VERTEX
  8
0
  6
DASHED
 10
9.625295
 20
-29.999694
 30
0.0
 42
1.0
  0
VERTEX
  8
0
  6
DASHED
 10
10.375295
 20
-29.999694
 30
0.0
 42
1.0
  0
SEQEND
  8
0
  6
DASHED
  0
POLYLINE
  8
0
  6
DASHED
 66
     1
 10
0.0
 20
0.0
 30
0.0
 70
     1
 40
0.25
 41
0.25
 71
     2
 72
   151
  0
VERTEX
  8
0
  6
DASHED
 10
29.625
 20
-50.0
 30
0.0
 42
1.0
  0
VERTEX
  8
0
  6
DASHED
 10
30.375
 20
-50.0
 30
0.0
 42
1.0
  0
SEQEND
  8
0
  6
DASHED
  0
POLYLINE
  8
0
  6
DASHED
 66
     1
 10
0.0
 20
0.0
 30
0.0
 70
     1
 40
0.25
 41
0.25
 71
     2
 72
   151
  0
VERTEX
  8
0
  6
DASHED
 10
9.625
 20
-50.0
 30
0.0
 42
1.0
  0
VERTEX
  8
0
  6
DASHED
 10
10.375
 20
-50.0
 30
0.0
 42
1.0
  0
SEQEND
  8
0
  6
DASHED
  0
POLYLINE
  8
0
  6
DASHED
 66
     1
 10
0.0
 20
0.0
 30
0.0
 70
     1
 40
0.25
 41
0.25
 71
     2
 72
   151
  0
VERTEX
  8
0
  6
DASHED
 10
29.624825
 20
-44.809602
 30
0.0
 42
1.0
  0
VERTEX
  8
0
  6
DASHED
 10
30.374825
 20
-44.809602
 30
0.0
 42
1.0
  0
SEQEND
  8
0
  6
DASHED
  0
POLYLINE
  8
0
  6
DASHED
 66
     1
 10
0.0
 20
0.0
 30
0.0
 70
     1
 40
0.25
 41
0.25
 71
     2
 72
   151
  0
VERTEX
  8
0
  6
DASHED
 10
29.625159
 20
-24.809933
 30
0.0
 42
1.0
  0
VERTEX
  8
0
  6
DASHED
 10
30.375159
 20
-24.809933
 30
0.0
 42
1.0
  0
SEQEND
  8
0
  6
DASHED
  0
LINE
  8
0
  6
DASHED
 10
30.0
 20
-4.810008
 30
0.0
 11
30.0
 21
-52.5
 31
0.0
  0
LINE
  8
0
  6
DASHED
 10
10.0
 20
-10.0
 30
0.0
 11
10.0
 21
-50.0
 31
0.0
  0
POLYLINE
  8
0
  6
CONTINUOUS
 66
     1
 10
0.0
 20
0.0
 30
0.0
 70
     1
 40
0.25
 41
0.25
 71
     2
 72
   151
  0
VERTEX
  8
0
  6
CONTINUOUS
 10
34.625
 20
40.0
 30
0.0
 42
1.0
  0
VERTEX
  8
0
  6
CONTINUOUS
 10
35.375
 20
40.0
 30
0.0
 42
1.0
  0
SEQEND
  8
0
  6
CONTINUOUS
  0
POLYLINE
  8
0
  6
CONTINUOUS
 66
     1
 10
0.0
 20
0.0
 30
0.0
 70
     1
 40
0.25
 41
0.25
 71
     2
 72
   151
  0
VERTEX
  8
0
  6
CONTINUOUS
 10
39.625
 20
35.0
 30
0.0
 42
1.0
  0
VERTEX
  8
0
  6
CONTINUOUS
 10
40.375
 20
35.0
 30
0.0
 42
1.0
  0
SEQEND
  8
0
  6
CONTINUOUS
  0
POLYLINE
  8
0
  6
CONTINUOUS
 66
     1
 10
0.0
 20
0.0
 30
0.0
 70
     1
 40
0.25
 41
0.25
 71
     2
 72
   151
  0
VERTEX
  8
0
  6
CONTINUOUS
 10
44.625
 20
30.0
 30
0.0
 42
1.0
  0
VERTEX
  8
0
  6
CONTINUOUS
 10
45.375
 20
30.0
 30
0.0
 42
1.0
  0
SEQEND
  8
0
  6
CONTINUOUS
  0
LINE
  8
0
  6
DASHED
 10
45.006921
 20
-44.810016
 30
0.0
 11
30.0
 21
-44.810016
 31
0.0
  0
LINE
  8
0
  6
DASHED
 10
40.069797
 20
-24.810016
 30
0.0
 11
30.0
 21
-24.810016
 31
0.0
  0
LINE
  8
0
  6
DASHED
 10
35.0
 20
-27.5
 30
0.0
 11
35.0
 21
-52.5
 31
0.0
  0
LINE
  8
0
  6
DASHED
 10
40.0
 20
-27.5
 30
0.0
 11
40.0
 21
-60.0
 31
0.0
  0
LINE
  8
0
  6
DASHED
 10
45.0
 20
-27.5
 30
0.0
 11
45.0
 21
-52.5
 31
0.0
  0
INSERT
  8
0
  6
CONTINUOUS
  2
BLC27
 10
36.491154
 20
-2.381567
 30
0.0
 50
180.0
  0
LINE
  8
0
  6
DASHED
 10
35.0
 20
5.0
 30
0.0
 11
35.0
 21
-27.5
 31
0.0
  0
LINE
  8
0
  6
DASHED
 10
35.0
 20
12.5
 30
0.0
 11
35.0
 21
25.0
 31
0.0
  0
LINE
  8
0
  6
DASHED
 10
40.0
 20
25.0
 30
0.0
 11
40.0
 21
12.5
 31
0.0
  0
LINE
  8
0
  6
DASHED
 10
40.0
 20
5.0
 30
0.0
 11
40.0
 21
-27.5
 31
0.0
  0
LINE
  8
0
  6
DASHED
 10
45.0
 20
30.0
 30
0.0
 11
45.0
 21
12.5
 31
0.0
  0
LINE
  8
0
  6
DASHED
 10
45.0
 20
5.0
 30
0.0
 11
45.0
 21
-27.5
 31
0.0
  0
LINE
  8
0
  6
DASHED
 10
40.0
 20
25.0
 30
0.0
 11
40.0
 21
35.0
 31
0.0
  0
LINE
  8
0
  6
DASHED
 10
35.0
 20
25.0
 30
0.0
 11
35.0
 21
40.0
 31
0.0
  0
INSERT
  8
0
  6
CONTINUOUS
  2
BLC27
 10
41.491158
 20
-22.38157
 30
0.0
 50
180.0
  0
LINE
  8
0
  6
CONTINUOUS
 10
35.0
 20
5.0
 30
0.0
 11
32.5
 21
12.5
 31
0.0
  0
LINE
  8
0
  6
CONTINUOUS
 10
40.0
 20
5.0
 30
0.0
 11
37.5
 21
12.5
 31
0.0
  0
LINE
  8
0
  6
CONTINUOUS
 10
45.0
 20
5.0
 30
0.0
 11
42.5
 21
12.5
 31
0.0
  0
LINE
  8
0
  6
CONTINUOUS
 10
35.0
 20
12.5
 30
0.0
 11
34.5
 21
13.0
 31
0.0
  0
LINE
  8
0
  6
CONTINUOUS
 10
35.0
 20
12.5
 30
0.0
 11
35.5
 21
12.0
 31
0.0
  0
LINE
  8
0
  6
CONTINUOUS
 10
35.0
 20
12.5
 30
0.0
 11
35.5
 21
13.0
 31
0.0
  0
LINE
  8
0
  6
CONTINUOUS
 10
35.0
 20
12.5
 30
0.0
 11
34.5
 21
12.0
 31
0.0
  0
LINE
  8
0
  6
CONTINUOUS
 10
40.0
 20
12.5
 30
0.0
 11
40.5
 21
13.0
 31
0.0
  0
LINE
  8
0
  6
CONTINUOUS
 10
40.0
 20
12.5
 30
0.0
 11
40.5
 21
12.0
 31
0.0
  0
LINE
  8
0
  6
CONTINUOUS
 10
40.0
 20
12.5
 30
0.0
 11
39.5
 21
12.0
 31
0.0
  0
LINE
  8
0
  6
CONTINUOUS
 10
40.0
 20
12.5
 30
0.0
 11
39.5
 21
13.0
 31
0.0
  0
LINE
  8
0
  6
CONTINUOUS
 10
45.0
 20
12.5
 30
0.0
 11
45.5
 21
12.0
 31
0.0
  0
LINE
  8
0
  6
CONTINUOUS
 10
45.0
 20
12.5
 30
0.0
 11
45.5
 21
13.0
 31
0.0
  0
LINE
  8
0
  6
CONTINUOUS
 10
45.0
 20
12.5
 30
0.0
 11
44.5
 21
13.0
 31
0.0
  0
LINE
  8
0
  6
CONTINUOUS
 10
45.0
 20
12.5
 30
0.0
 11
44.5
 21
12.0
 31
0.0
  0
INSERT
  8
0
  6
CONTINUOUS
  2
BLC27
 10
46.491155
 20
-42.381569
 30
0.0
 50
180.0
  0
LINE
  8
0
  6
DASHED
 10
35.0
 20
-4.810008
 30
0.0
 11
30.0
 21
-4.810008
 31
0.0
  0
TEXT
  8
0
  6
CONTINUOUS
 10
13.732328
 20
38.985054
 30
0.0
 40
2.0
  1
L1(R)
 11
13.732328
 21
38.318387
 31
0.0
 73
     1
  0
TEXT
  8
0
  6
CONTINUOUS
 10
13.732328
 20
33.928359
 30
0.0
 40
2.0
  1
L2(S)
 11
13.732328
 21
33.261693
 31
0.0
 73
     1
  0
TEXT
  8
0
  6
CONTINUOUS
 10
13.732328
 20
29.006967
 30
0.0
 40
2.0
  1
L3(T)
 11
13.732328
 21
28.3403
 31
0.0
 73
     1
  0
LINE
  8
0
  6
DASHED
 10
0.0
 20
-70.0
 30
0.0
 11
43.743055
 21
-70.0
 31
0.0
  0
LINE
  8
0
  6
DASHED
 10
0.0
 20
-60.0
 30
0.0
 11
25.0
 21
-60.0
 31
0.0
  0
LINE
  8
0
  6
DASHED
 10
0.0
 20
-50.0
 30
0.0
 11
30.0
 21
-50.0
 31
0.0
  0
LINE
  8
0
  6
DASHED
 10
0.0
 20
-40.0
 30
0.0
 11
45.0
 21
-40.0
 31
0.0
  0
LINE
  8
0
  6
DASHED
 10
0.0
 20
-30.0
 30
0.0
 11
10.0
 21
-30.0
 31
0.0
  0
LINE
  8
0
  6
DASHED
 10
0.0
 20
-20.0
 30
0.0
 11
40.0
 21
-20.0
 31
0.0
  0
LINE
  8
0
  6
DASHED
 10
0.0
 20
-10.0
 30
0.0
 11
10.0
 21
-10.0
 31
0.0
  0
LINE
  8
0
  6
DASHED
 10
0.0
 20
0.0
 30
0.0
 11
35.0
 21
0.0
 31
0.0
  0
LINE
  8
0
  6
DASHED
 10
80.0
 20
30.0
 30
0.0
 11
22.5
 21
30.0
 31
0.0
  0
LINE
  8
0
  6
DASHED
 10
80.0
 20
35.0
 30
0.0
 11
22.5
 21
35.0
 31
0.0
  0
LINE
  8
0
  6
DASHED
 10
80.0
 20
40.0
 30
0.0
 11
22.5
 21
40.0
 31
0.0
  0
ENDBLK
  8
0
  0
BLOCK
  8
0
  2
B37
 70
    64
 10
0.0
 20
0.0
 30
0.0
  3
B37
  0
CIRCLE
  8
BASE
  6
CONTINUOUS
 10
0.0
 20
0.741055
 30
0.0
 40
0.740939
  0
LINE
  8
BASE
  6
CONTINUOUS
 10
-0.006589
 20
1.481965
 30
0.0
 11
2.301993
 21
7.799404
 31
0.0
  0
LINE
  8
BASE
  6
CONTINUOUS
 10
2.301993
 20
7.799404
 30
0.0
 11
1.56226
 21
8.170978
 31
0.0
  0
LINE
  8
BASE
  6
CONTINUOUS
 10
0.0
 20
7.5
 30
0.0
 11
2.5
 21
7.5
 31
0.0
  0
ENDBLK
  8
0
  0
BLOCK
  8
0
  2
B148
 70
     0
 10
0.0
 20
0.0
 30
0.0
  3
B148
  0
TEXT
  8
0
  6
CENTER
 10
5.941562
 20
-39.004661
 30
0.0
 40
2.0
  1
1)
  0
TEXT
  8
0
  6
CENTER
 10
5.941562
 20
-19.08857
 30
0.0
 40
2.0
  1
1)
  0
TEXT
  8
0
  6
CENTER
 10
5.941562
 20
1.009749
 30
0.0
 40
2.0
  1
1)
  0
LINE
  8
0
  6
CONTINUOUS
 10
5.0
 20
-39.6532
 30
0.0
 11
5.0
 21
-45.33813
 31
0.0
  0
LINE
  8
0
  6
CONTINUOUS
 10
5.0
 20
-45.33813
 30
0.0
 11
4.0
 21
-46.33813
 31
0.0
  0
LINE
  8
0
  6
CONTINUOUS
 10
5.0
 20
-39.6532
 30
0.0
 11
4.0
 21
-38.6532
 31
0.0
  0
LINE
  8
0
  6
CONTINUOUS
 10
5.0
 20
-19.6532
 30
0.0
 11
4.0
 21
-18.6532
 31
0.0
  0
LINE
  8
0
  6
CONTINUOUS
 10
5.0
 20
-25.33813
 30
0.0
 11
4.0
 21
-26.33813
 31
0.0
  0
LINE
  8
0
  6
CONTINUOUS
 10
5.0
 20
-19.6532
 30
0.0
 11
5.0
 21
-25.33813
 31
0.0
  0
LINE
  8
0
  6
CONTINUOUS
 10
5.0
 20
0.3468
 30
0.0
 11
5.0
 21
-5.33813
 31
0.0
  0
LINE
  8
0
  6
CONTINUOUS
 10
5.0
 20
-5.33813
 30
0.0
 11
4.0
 21
-6.33813
 31
0.0
  0
LINE
  8
0
  6
CONTINUOUS
 10
5.0
 20
0.3468
 30
0.0
 11
4.0
 21
1.3468
 31
0.0
  0
LINE
  8
0
  6
CONTINUOUS
 10
0.0
 20
0.0
 30
0.0
 11
2.5
 21
0.0
 31
0.0
  0
LINE
  8
0
  6
CONTINUOUS
 10
0.0
 20
-5.0
 30
0.0
 11
2.5
 21
-5.0
 31
0.0
  0
LINE
  8
0
  6
CONTINUOUS
 10
0.0
 20
-20.0
 30
0.0
 11
2.5
 21
-20.0
 31
0.0
  0
LINE
  8
0
  6
CONTINUOUS
 10
0.0
 20
-25.0
 30
0.0
 11
2.5
 21
-25.0
 31
0.0
  0
LINE
  8
0
  6
CONTINUOUS
 10
0.0
 20
-40.0
 30
0.0
 11
2.5
 21
-40.0
 31
0.0
  0
LINE
  8
0
  6
CONTINUOUS
 10
0.0
 20
-45.0
 30
0.0
 11
2.5
 21
-45.0
 31
0.0
  0
TEXT
  8
0
  6
CONTINUOUS
 10
-1.267672
 20
38.985054
 30
0.0
 40
2.0
  1
L1(R)
 11
-1.267672
 21
38.318387
 31
0.0
 73
     1
  0
TEXT
  8
0
  6
CONTINUOUS
 10
-1.267672
 20
33.928359
 30
0.0
 40
2.0
  1
L2(S)
 11
-1.267672
 21
33.261693
 31
0.0
 73
     1
  0
TEXT
  8
0
  6
CONTINUOUS
 10
-1.267672
 20
29.006967
 30
0.0
 40
2.0
  1
L3(T)
 11
-1.267672
 21
28.3403
 31
0.0
 73
     1
  0
LINE
  8
0
  6
DASHED
 10
35.0
 20
-37.5
 30
0.0
 11
35.0
 21
-55.0
 31
0.0
  0
POLYLINE
  8
0
  6
DASHED
 66
     1
 10
0.0
 20
0.0
 30
0.0
 70
     1
 40
0.25
 41
0.25
 71
     2
 72
   151
  0
VERTEX
  8
0
  6
DASHED
 10
24.623777
 20
-30.00007
 30
0.0
 42
1.0
  0
VERTEX
  8
0
  6
DASHED
 10
25.373777
 20
-30.00007
 30
0.0
 42
1.0
  0
SEQEND
  8
0
  6
DASHED
  0
POLYLINE
  8
0
  6
DASHED
 66
     1
 10
0.0
 20
0.0
 30
0.0
 70
     1
 40
0.25
 41
0.25
 71
     2
 72
   151
  0
VERTEX
  8
0
  6
DASHED
 10
24.624033
 20
-24.810354
 30
0.0
 42
1.0
  0
VERTEX
  8
0
  6
DASHED
 10
25.374033
 20
-24.810354
 30
0.0
 42
1.0
  0
SEQEND
  8
0
  6
DASHED
  0
LINE
  8
0
  6
DASHED
 10
40.0
 20
-20.0
 30
0.0
 11
5.0
 21
-20.0
 31
0.0
  0
LINE
  8
0
  6
DASHED
 10
30.0
 20
0.0
 30
0.0
 11
5.0
 21
0.0
 31
0.0
  0
LINE
  8
0
  6
DASHED
 10
32.5
 20
-50.0
 30
0.0
 11
35.0
 21
-50.0
 31
0.0
  0
LINE
  8
0
  6
DASHED
 10
35.0
 20
-50.0
 30
0.0
 11
35.0
 21
-50.0
 31
0.0
  0
LINE
  8
0
  6
DASHED
 10
22.5
 20
-45.189984
 30
0.0
 11
35.0
 21
-45.189984
 31
0.0
  0
LINE
  8
0
  6
CONTINUOUS
 10
32.5
 20
-47.59856
 30
0.0
 11
35.0
 21
-47.59856
 31
0.0
  0
INSERT
  8
0
  6
CONTINUOUS
  2
BLC27
 10
36.49116
 20
-47.571554
 30
0.0
 50
180.0
  0
LINE
  8
0
  6
DASHED
 10
22.5
 20
-55.0
 30
0.0
 11
22.5
 21
-50.0
 31
0.0
  0
INSERT
  8
0
  6
CONTINUOUS
  2
BLC15
 10
22.357916
 20
-57.5
 30
0.0
  0
POLYLINE
  8
0
  6
DASHED
 66
     1
 10
0.0
 20
0.0
 30
0.0
 70
     1
 40
0.25
 41
0.25
 71
     2
 72
   151
  0
VERTEX
  8
0
  6
DASHED
 10
32.125
 20
-32.5
 30
0.0
 42
1.0
  0
VERTEX
  8
0
  6
DASHED
 10
32.875
 20
-32.5
 30
0.0
 42
1.0
  0
SEQEND
  8
0
  6
DASHED
  0
LINE
  8
0
  6
DASHED
 10
32.5
 20
-32.5
 30
0.0
 11
32.5
 21
-55.0
 31
0.0
  0
LINE
  8
0
  6
CONTINUOUS
 10
35.0
 20
-37.5
 30
0.0
 11
37.5
 21
-32.5
 31
0.0
  0
LINE
  8
0
  6
CONTINUOUS
 10
32.5
 20
-32.5
 30
0.0
 11
35.0
 21
-37.5
 31
0.0
  0
LINE
  8
0
  6
CONTINUOUS
 10
30.0
 20
-32.5
 30
0.0
 11
40.0
 21
-32.5
 31
0.0
  0
LINE
  8
0
  6
DASHED
 10
25.0
 20
-4.810008
 30
0.0
 11
25.0
 21
-32.5
 31
0.0
  0
POLYLINE
  8
0
  6
DASHED
 66
     1
 10
0.0
 20
0.0
 30
0.0
 70
     1
 40
0.25
 41
0.25
 71
     2
 72
   251
  0
VERTEX
  8
0
  6
DASHED
 10
22.125
 20
-50.0
 30
0.0
 42
1.0
  0
VERTEX
  8
0
  6
DASHED
 10
22.875
 20
-50.0
 30
0.0
 42
1.0
  0
SEQEND
  8
0
  6
DASHED
  0
INSERT
  8
0
  6
CONTINUOUS
  2
BLC15
 10
32.357916
 20
-57.5
 30
0.0
  0
LINE
  8
0
  6
DASHED
 10
22.5
 20
-40.0
 30
0.0
 11
22.5
 21
-45.189984
 31
0.0
  0
LINE
  8
0
  6
DASHED
 10
5.0
 20
-40.0
 30
0.0
 11
22.5
 21
-40.0
 31
0.0
  0
LINE
  8
0
  6
DASHED
 10
10.0
 20
-10.0
 30
0.0
 11
10.0
 21
-30.0
 31
0.0
  0
LINE
  8
0
  6
DASHED
 10
40.006921
 20
-24.810016
 30
0.0
 11
25.0
 21
-24.810016
 31
0.0
  0
POLYLINE
  8
0
  6
DASHED
 66
     1
 10
0.0
 20
0.0
 30
0.0
 70
     1
 40
0.25
 41
0.25
 71
     2
 72
   151
  0
VERTEX
  8
0
  6
DASHED
 10
9.625
 20
-30.0
 30
0.0
 42
1.0
  0
VERTEX
  8
0
  6
DASHED
 10
10.375
 20
-30.0
 30
0.0
 42
1.0
  0
SEQEND
  8
0
  6
DASHED
  0
LINE
  8
0
  6
DASHED
 10
30.0
 20
-27.5
 30
0.0
 11
30.0
 21
-30.0
 31
0.0
  0
LINE
  8
0
  6
DASHED
 10
35.0
 20
-27.5
 30
0.0
 11
35.0
 21
-30.0
 31
0.0
  0
LINE
  8
0
  6
DASHED
 10
40.0
 20
-27.5
 30
0.0
 11
40.0
 21
-30.0
 31
0.0
  0
INSERT
  8
0
  6
CONTINUOUS
  2
BLC15
 10
24.857916
 20
-35.0
 30
0.0
  0
INSERT
  8
0
  6
CONTINUOUS
  2
BLC27
 10
31.491154
 20
-2.381567
 30
0.0
 50
180.0
  0
LINE
  8
0
  6
DASHED
 10
30.0
 20
5.0
 30
0.0
 11
30.0
 21
-32.5
 31
0.0
  0
LINE
  8
0
  6
DASHED
 10
30.0
 20
12.5
 30
0.0
 11
30.0
 21
25.0
 31
0.0
  0
LINE
  8
0
  6
DASHED
 10
35.0
 20
35.0
 30
0.0
 11
35.0
 21
12.5
 31
0.0
  0
LINE
  8
0
  6
DASHED
 10
35.0
 20
5.0
 30
0.0
 11
35.0
 21
-32.5
 31
0.0
  0
LINE
  8
0
  6
DASHED
 10
40.0
 20
30.0
 30
0.0
 11
40.0
 21
12.5
 31
0.0
  0
LINE
  8
0
  6
DASHED
 10
40.0
 20
5.0
 30
0.0
 11
40.0
 21
-32.5
 31
0.0
  0
LINE
  8
0
  6
DASHED
 10
35.0
 20
25.0
 30
0.0
 11
35.0
 21
32.5
 31
0.0
  0
LINE
  8
0
  6
DASHED
 10
30.0
 20
25.0
 30
0.0
 11
30.0
 21
40.0
 31
0.0
  0
LINE
  8
0
  6
CONTINUOUS
 10
30.0
 20
5.0
 30
0.0
 11
27.5
 21
12.5
 31
0.0
  0
LINE
  8
0
  6
CONTINUOUS
 10
35.0
 20
5.0
 30
0.0
 11
32.5
 21
12.5
 31
0.0
  0
LINE
  8
0
  6
CONTINUOUS
 10
40.0
 20
5.0
 30
0.0
 11
37.5
 21
12.5
 31
0.0
  0
LINE
  8
0
  6
CONTINUOUS
 10
30.0
 20
12.5
 30
0.0
 11
29.5
 21
13.0
 31
0.0
  0
LINE
  8
0
  6
CONTINUOUS
 10
30.0
 20
12.5
 30
0.0
 11
30.5
 21
12.0
 31
0.0
  0
LINE
  8
0
  6
CONTINUOUS
 10
30.0
 20
12.5
 30
0.0
 11
30.5
 21
13.0
 31
0.0
  0
LINE
  8
0
  6
CONTINUOUS
 10
30.0
 20
12.5
 30
0.0
 11
29.5
 21
12.0
 31
0.0
  0
LINE
  8
0
  6
CONTINUOUS
 10
35.0
 20
12.5
 30
0.0
 11
35.5
 21
13.0
 31
0.0
  0
LINE
  8
0
  6
CONTINUOUS
 10
35.0
 20
12.5
 30
0.0
 11
35.5
 21
12.0
 31
0.0
  0
LINE
  8
0
  6
CONTINUOUS
 10
35.0
 20
12.5
 30
0.0
 11
34.5
 21
12.0
 31
0.0
  0
LINE
  8
0
  6
CONTINUOUS
 10
35.0
 20
12.5
 30
0.0
 11
34.5
 21
13.0
 31
0.0
  0
LINE
  8
0
  6
CONTINUOUS
 10
40.0
 20
12.5
 30
0.0
 11
40.5
 21
12.0
 31
0.0
  0
LINE
  8
0
  6
CONTINUOUS
 10
40.0
 20
12.5
 30
0.0
 11
40.5
 21
13.0
 31
0.0
  0
LINE
  8
0
  6
CONTINUOUS
 10
40.0
 20
12.5
 30
0.0
 11
39.5
 21
13.0
 31
0.0
  0
LINE
  8
0
  6
CONTINUOUS
 10
40.0
 20
12.5
 30
0.0
 11
39.5
 21
12.0
 31
0.0
  0
POLYLINE
  8
0
  6
CONTINUOUS
 66
     1
 10
0.0
 20
0.0
 30
0.0
 70
     1
 40
0.25
 41
0.25
 71
     2
 72
   151
  0
VERTEX
  8
0
  6
CONTINUOUS
 10
39.625
 20
30.0
 30
0.0
 42
1.0
  0
VERTEX
  8
0
  6
CONTINUOUS
 10
40.375
 20
30.0
 30
0.0
 42
1.0
  0
SEQEND
  8
0
  6
CONTINUOUS
  0
POLYLINE
  8
0
  6
CONTINUOUS
 66
     1
 10
0.0
 20
0.0
 30
0.0
 70
     1
 40
0.25
 41
0.25
 71
     2
 72
   151
  0
VERTEX
  8
0
  6
CONTINUOUS
 10
34.625
 20
35.0
 30
0.0
 42
1.0
  0
VERTEX
  8
0
  6
CONTINUOUS
 10
35.375
 20
35.0
 30
0.0
 42
1.0
  0
SEQEND
  8
0
  6
CONTINUOUS
  0
POLYLINE
  8
0
  6
CONTINUOUS
 66
     1
 10
0.0
 20
0.0
 30
0.0
 70
     1
 40
0.25
 41
0.25
 71
     2
 72
   151
  0
VERTEX
  8
0
  6
CONTINUOUS
 10
29.625
 20
40.0
 30
0.0
 42
1.0
  0
VERTEX
  8
0
  6
CONTINUOUS
 10
30.375
 20
40.0
 30
0.0
 42
1.0
  0
SEQEND
  8
0
  6
CONTINUOUS
  0
INSERT
  8
0
  6
CONTINUOUS
  2
BLC27
 10
41.491155
 20
-22.381569
 30
0.0
 50
180.0
  0
LINE
  8
0
  6
DASHED
 10
30.0
 20
-4.810008
 30
0.0
 11
25.0
 21
-4.810008
 31
0.0
  0
LINE
  8
0
  6
DASHED
 10
0.0
 20
-50.0
 30
0.0
 11
32.5
 21
-50.0
 31
0.0
  0
LINE
  8
0
  6
DASHED
 10
0.0
 20
-30.0
 30
0.0
 11
25.0
 21
-30.0
 31
0.0
  0
LINE
  8
0
  6
DASHED
 10
0.0
 20
-10.0
 30
0.0
 11
10.0
 21
-10.0
 31
0.0
  0
LINE
  8
0
  6
DASHED
 10
55.0
 20
30.0
 30
0.0
 11
7.5
 21
30.0
 31
0.0
  0
LINE
  8
0
  6
DASHED
 10
55.0
 20
35.0
 30
0.0
 11
7.5
 21
35.0
 31
0.0
  0
LINE
  8
0
  6
DASHED
 10
55.0
 20
40.0
 30
0.0
 11
7.5
 21
40.0
 31
0.0
  0
ENDBLK
  8
0
  0
BLOCK
  8
0
  2
B155
 70
    64
 10
0.0
 20
0.0
 30
0.0
  3
B155
  0
LINE
  8
0
  6
CONTINUOUS
 10
0.0
 20
0.0
 30
0.0
 11
0.0
 21
-1.35427
 31
0.0
  0
LINE
  8
0
  6
CONTINUOUS
 10
-1.210228
 20
-1.35427
 30
0.0
 11
-0.015887
 21
-1.35427
 31
0.0
  0
LINE
  8
0
  6
CONTINUOUS
 10
-0.015887
 20
-1.35427
 30
0.0
 11
1.178454
 21
-1.35427
 31
0.0
  0
LINE
  8
0
  6
CONTINUOUS
 10
-0.831823
 20
-1.833881
 30
0.0
 11
0.752749
 21
-1.833881
 31
0.0
  0
LINE
  8
0
  6
CONTINUOUS
 10
-0.500718
 20
-2.322055
 30
0.0
 11
0.386169
 21
-2.322055
 31
0.0
  0
ENDBLK
  8
0
  0
BLOCK
  8
0
  2
POISTA
 70
     0
 10
0.0
 20
0.0
 30
0.0
  3
POISTA
  0
TEXT
  8
0
  6
CONTINUOUS
 10
6.096827
 20
0.996008
 30
0.0
 40
2.0
  1
7)
  0
LINE
  8
0
  6
DASHED
 10
55.0
 20
47.5
 30
0.0
 11
7.5
 21
47.5
 31
0.0
  0
LINE
  8
0
  6
DASHED
 10
55.0
 20
42.5
 30
0.0
 11
7.5
 21
42.5
 31
0.0
  0
LINE
  8
0
  6
DASHED
 10
55.0
 20
37.5
 30
0.0
 11
7.5
 21
37.5
 31
0.0
  0
LINE
  8
0
  6
DASHED
 10
0.0
 20
-10.0
 30
0.0
 11
32.5
 21
-10.0
 31
0.0
  0
POLYLINE
  8
0
  6
CONTINUOUS
 66
     1
 10
0.0
 20
0.0
 30
0.0
 70
     1
 40
0.25
 41
0.25
 71
     2
 72
   151
  0
VERTEX
  8
0
  6
CONTINUOUS
 10
29.625
 20
47.5
 30
0.0
 42
1.0
  0
VERTEX
  8
0
  6
CONTINUOUS
 10
30.375
 20
47.5
 30
0.0
 42
1.0
  0
SEQEND
  8
0
  6
CONTINUOUS
  0
POLYLINE
  8
0
  6
CONTINUOUS
 66
     1
 10
0.0
 20
0.0
 30
0.0
 70
     1
 40
0.25
 41
0.25
 71
     2
 72
   151
  0
VERTEX
  8
0
  6
CONTINUOUS
 10
34.625
 20
42.5
 30
0.0
 42
1.0
  0
VERTEX
  8
0
  6
CONTINUOUS
 10
35.375
 20
42.5
 30
0.0
 42
1.0
  0
SEQEND
  8
0
  6
CONTINUOUS
  0
POLYLINE
  8
0
  6
CONTINUOUS
 66
     1
 10
0.0
 20
0.0
 30
0.0
 70
     1
 40
0.25
 41
0.25
 71
     2
 72
   151
  0
VERTEX
  8
0
  6
CONTINUOUS
 10
39.625
 20
37.5
 30
0.0
 42
1.0
  0
VERTEX
  8
0
  6
CONTINUOUS
 10
40.375
 20
37.5
 30
0.0
 42
1.0
  0
SEQEND
  8
0
  6
CONTINUOUS
  0
LINE
  8
0
  6
CONTINUOUS
 10
40.0
 20
32.5
 30
0.0
 11
39.5
 21
32.0
 31
0.0
  0
LINE
  8
0
  6
CONTINUOUS
 10
40.0
 20
32.5
 30
0.0
 11
39.5
 21
33.0
 31
0.0
  0
LINE
  8
0
  6
CONTINUOUS
 10
40.0
 20
32.5
 30
0.0
 11
40.5
 21
33.0
 31
0.0
  0
LINE
  8
0
  6
CONTINUOUS
 10
40.0
 20
32.5
 30
0.0
 11
40.5
 21
32.0
 31
0.0
  0
LINE
  8
0
  6
CONTINUOUS
 10
35.0
 20
32.5
 30
0.0
 11
34.5
 21
33.0
 31
0.0
  0
LINE
  8
0
  6
CONTINUOUS
 10
35.0
 20
32.5
 30
0.0
 11
34.5
 21
32.0
 31
0.0
  0
LINE
  8
0
  6
CONTINUOUS
 10
35.0
 20
32.5
 30
0.0
 11
35.5
 21
32.0
 31
0.0
  0
LINE
  8
0
  6
CONTINUOUS
 10
35.0
 20
32.5
 30
0.0
 11
35.5
 21
33.0
 31
0.0
  0
LINE
  8
0
  6
CONTINUOUS
 10
30.0
 20
32.5
 30
0.0
 11
29.5
 21
32.0
 31
0.0
  0
LINE
  8
0
  6
CONTINUOUS
 10
30.0
 20
32.5
 30
0.0
 11
30.5
 21
33.0
 31
0.0
  0
LINE
  8
0
  6
CONTINUOUS
 10
30.0
 20
32.5
 30
0.0
 11
30.5
 21
32.0
 31
0.0
  0
LINE
  8
0
  6
CONTINUOUS
 10
30.0
 20
32.5
 30
0.0
 11
29.5
 21
33.0
 31
0.0
  0
LINE
  8
0
  6
CONTINUOUS
 10
40.0
 20
25.0
 30
0.0
 11
37.5
 21
32.5
 31
0.0
  0
LINE
  8
0
  6
CONTINUOUS
 10
35.0
 20
25.0
 30
0.0
 11
32.5
 21
32.5
 31
0.0
  0
LINE
  8
0
  6
CONTINUOUS
 10
30.0
 20
25.0
 30
0.0
 11
27.5
 21
32.5
 31
0.0
  0
LINE
  8
0
  6
DASHED
 10
30.0
 20
45.0
 30
0.0
 11
30.0
 21
47.5
 31
0.0
  0
LINE
  8
0
  6
DASHED
 10
40.0
 20
25.0
 30
0.0
 11
40.0
 21
7.5
 31
0.0
  0
LINE
  8
0
  6
DASHED
 10
40.0
 20
37.5
 30
0.0
 11
40.0
 21
32.5
 31
0.0
  0
LINE
  8
0
  6
DASHED
 10
35.0
 20
25.0
 30
0.0
 11
35.0
 21
7.5
 31
0.0
  0
LINE
  8
0
  6
DASHED
 10
35.0
 20
42.5
 30
0.0
 11
35.0
 21
32.5
 31
0.0
  0
LINE
  8
0
  6
DASHED
 10
30.0
 20
32.5
 30
0.0
 11
30.0
 21
45.0
 31
0.0
  0
LINE
  8
0
  6
DASHED
 10
30.0
 20
25.0
 30
0.0
 11
30.0
 21
7.5
 31
0.0
  0
LINE
  8
0
  6
DASHED
 10
40.0
 20
12.5
 30
0.0
 11
40.0
 21
10.0
 31
0.0
  0
LINE
  8
0
  6
DASHED
 10
35.0
 20
12.5
 30
0.0
 11
35.0
 21
10.0
 31
0.0
  0
LINE
  8
0
  6
DASHED
 10
30.0
 20
12.5
 30
0.0
 11
30.0
 21
10.0
 31
0.0
  0
LINE
  8
0
  6
DASHED
 10
5.0
 20
0.0
 30
0.0
 11
22.5
 21
0.0
 31
0.0
  0
LINE
  8
0
  6
DASHED
 10
22.5
 20
0.0
 30
0.0
 11
22.5
 21
-5.189984
 31
0.0
  0
INSERT
  8
0
  6
CONTINUOUS
  2
BLC15
 10
32.357916
 20
-17.5
 30
0.0
  0
POLYLINE
  8
0
  6
DASHED
 66
     1
 10
0.0
 20
0.0
 30
0.0
 70
     1
 40
0.25
 41
0.25
 71
     2
 72
   251
  0
VERTEX
  8
0
  6
DASHED
 10
22.125
 20
-10.0
 30
0.0
 42
1.0
  0
VERTEX
  8
0
  6
DASHED
 10
22.875
 20
-10.0
 30
0.0
 42
1.0
  0
SEQEND
  8
0
  6
DASHED
  0
LINE
  8
0
  6
CONTINUOUS
 10
30.0
 20
7.5
 30
0.0
 11
40.0
 21
7.5
 31
0.0
  0
LINE
  8
0
  6
CONTINUOUS
 10
32.5
 20
7.5
 30
0.0
 11
35.0
 21
2.5
 31
0.0
  0
LINE
  8
0
  6
CONTINUOUS
 10
35.0
 20
2.5
 30
0.0
 11
37.5
 21
7.5
 31
0.0
  0
LINE
  8
0
  6
DASHED
 10
32.5
 20
7.5
 30
0.0
 11
32.5
 21
-15.0
 31
0.0
  0
POLYLINE
  8
0
  6
DASHED
 66
     1
 10
0.0
 20
0.0
 30
0.0
 70
     1
 40
0.25
 41
0.25
 71
     2
 72
   151
  0
VERTEX
  8
0
  6
DASHED
 10
32.125
 20
7.5
 30
0.0
 42
1.0
  0
VERTEX
  8
0
  6
DASHED
 10
32.875
 20
7.5
 30
0.0
 42
1.0
  0
SEQEND
  8
0
  6
DASHED
  0
INSERT
  8
0
  6
CONTINUOUS
  2
BLC15
 10
22.357916
 20
-17.5
 30
0.0
  0
LINE
  8
0
  6
DASHED
 10
22.5
 20
-15.0
 30
0.0
 11
22.5
 21
-10.0
 31
0.0
  0
INSERT
  8
0
  6
CONTINUOUS
  2
BLC27
 10
36.49116
 20
-7.571554
 30
0.0
 50
180.0
  0
LINE
  8
0
  6
CONTINUOUS
 10
32.5
 20
-7.59856
 30
0.0
 11
35.0
 21
-7.59856
 31
0.0
  0
LINE
  8
0
  6
DASHED
 10
22.5
 20
-5.189984
 30
0.0
 11
35.0
 21
-5.189984
 31
0.0
  0
LINE
  8
0
  6
DASHED
 10
35.0
 20
-10.0
 30
0.0
 11
35.0
 21
-10.0
 31
0.0
  0
LINE
  8
0
  6
DASHED
 10
32.5
 20
-10.0
 30
0.0
 11
35.0
 21
-10.0
 31
0.0
  0
LINE
  8
0
  6
DASHED
 10
35.0
 20
2.5
 30
0.0
 11
35.0
 21
-15.0
 31
0.0
  0
TEXT
  8
0
  6
CONTINUOUS
 10
-1.267672
 20
36.506967
 30
0.0
 40
2.0
  1
L3(T)
 11
-1.267672
 21
35.8403
 31
0.0
 73
     1
  0
TEXT
  8
0
  6
CONTINUOUS
 10
-1.267672
 20
41.428359
 30
0.0
 40
2.0
  1
L2(S)
 11
-1.267672
 21
40.761693
 31
0.0
 73
     1
  0
TEXT
  8
0
  6
CONTINUOUS
 10
-1.267672
 20
46.485054
 30
0.0
 40
2.0
  1
L1(R)
 11
-1.267672
 21
45.818387
 31
0.0
 73
     1
  0
LINE
  8
0
  6
CONTINUOUS
 10
0.0
 20
-5.0
 30
0.0
 11
2.5
 21
-5.0
 31
0.0
  0
LINE
  8
0
  6
CONTINUOUS
 10
0.0
 20
0.0
 30
0.0
 11
2.5
 21
0.0
 31
0.0
  0
LINE
  8
0
  6
CONTINUOUS
 10
5.0
 20
0.3468
 30
0.0
 11
4.0
 21
1.3468
 31
0.0
  0
LINE
  8
0
  6
CONTINUOUS
 10
5.0
 20
-5.33813
 30
0.0
 11
4.0
 21
-6.33813
 31
0.0
  0
LINE
  8
0
  6
CONTINUOUS
 10
5.0
 20
0.3468
 30
0.0
 11
5.0
 21
-5.33813
 31
0.0
  0
ENDBLK
  8
0
  0
BLOCK
  8
0
  2
B102
 70
     0
 10
0.0
 20
0.0
 30
0.0
  3
B102
  0
TEXT
  8
BASE
  6
CONTINUOUS
 10
18.519596
 20
-15.712155
 30
0.0
 40
2.0
  1
101
 50
90.0
  0
TEXT
  8
BASE
  6
CONTINUOUS
 10
-1.480404
 20
-15.712155
 30
0.0
 40
2.0
  1
101
 50
90.0
  0
TEXT
  8
BASE
  6
CONTINUOUS
 10
30.710796
 20
-24.069736
 30
0.0
 40
2.0
  1
18A
 50
90.0
  0
TEXT
  8
BASE
  6
CONTINUOUS
 10
23.042942
 20
-24.069736
 30
0.0
 40
2.0
  1
1A
 50
90.0
  0
TEXT
  8
BASE
  6
CONTINUOUS
 10
13.078553
 20
-24.069736
 30
0.0
 40
2.0
  1
2A
 50
90.0
  0
TEXT
  8
BASE
  6
CONTINUOUS
 10
2.77957
 20
-24.069736
 30
0.0
 40
2.0
  1
13A
 50
90.0
  0
LINE
  8
BASE
  6
CONTINUOUS
 10
27.5
 20
-17.5
 30
0.0
 11
27.5
 21
-25.0
 31
0.0
  0
LINE
  8
BASE
  6
CONTINUOUS
 10
27.5
 20
-5.0
 30
0.0
 11
27.5
 21
-10.0
 31
0.0
  0
LINE
  8
BASE
  6
CONTINUOUS
 10
11.365905
 20
-4.186459
 30
0.0
 11
11.365905
 21
-2.499494
 31
0.0
  0
LINE
  8
BASE
  6
CONTINUOUS
 10
11.365905
 20
-2.499494
 30
0.0
 11
13.033279
 21
-2.499494
 31
0.0
  0
LINE
  8
BASE
  6
CONTINUOUS
 10
13.033279
 20
-2.499494
 30
0.0
 11
13.033279
 21
-4.186459
 31
0.0
  0
LINE
  8
BASE
  6
CONTINUOUS
 10
13.033279
 20
-4.186459
 30
0.0
 11
11.365905
 21
-4.186459
 31
0.0
  0
LINE
  8
BASE
  6
CONTINUOUS
 10
2.615221
 20
-2.655356
 30
0.0
 11
0.947848
 21
-2.655356
 31
0.0
  0
LINE
  8
BASE
  6
CONTINUOUS
 10
2.615221
 20
-0.968391
 30
0.0
 11
2.615221
 21
-2.655356
 31
0.0
  0
LINE
  8
BASE
  6
CONTINUOUS
 10
0.947848
 20
-0.968391
 30
0.0
 11
2.615221
 21
-0.968391
 31
0.0
  0
LINE
  8
BASE
  6
CONTINUOUS
 10
0.947848
 20
-2.655356
 30
0.0
 11
0.947848
 21
-0.968391
 31
0.0
  0
TEXT
  8
BASE
  6
DASHED
 10
30.718527
 20
-8.15218
 30
0.0
 40
2.0
  1
18B-
 50
90.0
  0
TEXT
  8
BASE
  6
DASHED
 10
23.045377
 20
-8.15218
 30
0.0
 40
2.0
  1
1B+
 50
90.0
  0
TEXT
  8
BASE
  6
DASHED
 10
13.214777
 20
-8.15218
 30
0.0
 40
2.0
  1
2B
 50
90.0
  0
TEXT
  8
BASE
  6
DASHED
 10
2.775535
 20
-8.15218
 30
0.0
 40
2.0
  1
13B
 50
90.0
  0
LINE
  8
BASE
  6
DASHED
 10
15.0
 20
0.0
 30
0.0
 11
15.0
 21
-25.0
 31
0.0
  0
POLYLINE
  8
BASE
  6
CONTINUOUS
 66
     1
 10
0.0
 20
0.0
 30
0.0
 70
     1
 40
0.25
 41
0.25
 71
     2
 72
   151
  0
VERTEX
  8
BASE
  6
CONTINUOUS
 10
9.625
 20
-5.0
 30
0.0
 42
1.0
  0
VERTEX
  8
BASE
  6
CONTINUOUS
 10
10.375
 20
-5.0
 30
0.0
 42
1.0
  0
SEQEND
  8
BASE
  6
CONTINUOUS
  0
LINE
  8
BASE
  6
CONTINUOUS
 10
5.0
 20
-5.0
 30
0.0
 11
10.0
 21
-5.0
 31
0.0
  0
LINE
  8
BASE
  6
CONTINUOUS
 10
5.0
 20
0.0
 30
0.0
 11
5.0
 21
-5.0
 31
0.0
  0
LINE
  8
BASE
  6
CONTINUOUS
 10
20.0
 20
0.0
 30
0.0
 11
20.0
 21
-10.0
 31
0.0
  0
CIRCLE
  8
BASE
  6
CONTINUOUS
 10
20.0
 20
-16.758945
 30
0.0
 40
0.740939
  0
LINE
  8
BASE
  6
CONTINUOUS
 10
20.0
 20
-17.5
 30
0.0
 11
20.0
 21
-25.0
 31
0.0
  0
LINE
  8
BASE
  6
CONTINUOUS
 10
0.0
 20
-17.5
 30
0.0
 11
0.0
 21
-25.0
 31
0.0
  0
CIRCLE
  8
BASE
  6
CONTINUOUS
 10
0.0
 20
-16.758945
 30
0.0
 40
0.740939
  0
LINE
  8
BASE
  6
CONTINUOUS
 10
-0.006589
 20
-16.018035
 30
0.0
 11
2.434804
 21
-9.337159
 31
0.0
  0
LINE
  8
BASE
  6
CONTINUOUS
 10
0.0
 20
-10.0
 30
0.0
 11
2.765661
 21
-10.0
 31
0.0
  0
LINE
  8
BASE
  6
CONTINUOUS
 10
2.434804
 20
-9.337159
 30
0.0
 11
1.549106
 21
-8.892266
 31
0.0
  0
LINE
  8
BASE
  6
CONTINUOUS
 10
0.0
 20
0.0
 30
0.0
 11
0.0
 21
-10.0
 31
0.0
  0
LINE
  8
BASE
  6
CONTINUOUS
 10
10.0
 20
-17.5
 30
0.0
 11
10.0
 21
-25.0
 31
0.0
  0
CIRCLE
  8
BASE
  6
CONTINUOUS
 10
10.0
 20
-16.758945
 30
0.0
 40
0.740939
  0
LINE
  8
BASE
  6
CONTINUOUS
 10
10.0
 20
0.0
 30
0.0
 11
10.0
 21
-10.0
 31
0.0
  0
LINE
  8
BASE
  6
CONTINUOUS
 10
9.993411
 20
-16.018035
 30
0.0
 11
12.434804
 21
-9.337159
 31
0.0
  0
LINE
  8
BASE
  6
CONTINUOUS
 10
10.0
 20
-10.0
 30
0.0
 11
12.765661
 21
-10.0
 31
0.0
  0
LINE
  8
BASE
  6
CONTINUOUS
 10
22.434804
 20
-9.337159
 30
0.0
 11
21.549106
 21
-8.892266
 31
0.0
  0
LINE
  8
BASE
  6
CONTINUOUS
 10
20.0
 20
-10.0
 30
0.0
 11
22.765661
 21
-10.0
 31
0.0
  0
LINE
  8
BASE
  6
CONTINUOUS
 10
19.993411
 20
-16.018035
 30
0.0
 11
22.434804
 21
-9.337159
 31
0.0
  0
LINE
  8
BASE
  6
CONTINUOUS
 10
27.493411
 20
-16.018035
 30
0.0
 11
29.934804
 21
-9.337159
 31
0.0
  0
LINE
  8
BASE
  6
CONTINUOUS
 10
27.5
 20
-10.0
 30
0.0
 11
30.265661
 21
-10.0
 31
0.0
  0
LINE
  8
BASE
  6
CONTINUOUS
 10
29.934804
 20
-9.337159
 30
0.0
 11
29.049106
 21
-8.892266
 31
0.0
  0
CIRCLE
  8
BASE
  6
CONTINUOUS
 10
27.5
 20
-16.758945
 30
0.0
 40
0.740939
  0
ENDBLK
  8
0
  0
BLOCK
  8
0
  2
B67
 70
     0
 10
0.0
 20
0.0
 30
0.0
  3
B67
  0
LINE
  8
BASE
  6
CONTINUOUS
 10
-1.897097
 20
-3.556254
 30
0.0
 11
-2.963522
 21
-2.489829
 31
0.0
  0
LINE
  8
BASE
  6
CONTINUOUS
 10
-2.963522
 20
-2.489829
 30
0.0
 11
-1.897097
 21
-1.423405
 31
0.0
  0
LINE
  8
BASE
  6
CONTINUOUS
 10
-1.897097
 20
-1.423405
 30
0.0
 11
-0.830672
 21
-2.489829
 31
0.0
  0
LINE
  8
BASE
  6
CONTINUOUS
 10
-0.830672
 20
-2.489829
 30
0.0
 11
-1.897097
 21
-3.556254
 31
0.0
  0
LINE
  8
BASE
  6
DASHED
 10
0.0
 20
0.0
 30
0.0
 11
-5.000117
 21
0.0
 31
0.0
  0
TEXT
  8
BASE
  6
DASHED
 10
-8.422045
 20
-3.481615
 30
0.0
 40
2.0
  1
14B
  0
LINE
  8
BASE
  6
DASHED
 10
-12.5
 20
0.0
 30
0.0
 11
-30.0
 21
0.0
 31
0.0
  0
TEXT
  8
BASE
  6
DASHED
 10
-12.5
 20
3.402046
 30
0.0
 40
2.0
  1
101
  0
TEXT
  8
BASE
  6
DASHED
 10
-18.160336
 20
-3.602839
 30
0.0
 40
2.0
  1
14A 
  0
INSERT
  8
0
  6
CONTINUOUS
  2
B37
 10
-12.5
 20
0.0
 30
0.0
 50
90.0
  0
ENDBLK
  8
0
  0
BLOCK
  8
0
  2
B23
 70
     0
 10
0.0
 20
0.0
 30
0.0
  3
B23
  0
LINE
  8
BASE
  6
CONTINUOUS
 10
-10.000117
 20
0.000025
 30
0.0
 11
0.011081
 21
0.000025
 31
0.0
  0
LINE
  8
BASE
  6
CONTINUOUS
 10
-1.699434
 20
-1.629748
 30
0.0
 11
-2.676073
 21
-2.79366
 31
0.0
  0
LINE
  8
BASE
  6
CONTINUOUS
 10
-0.531219
 20
-2.609996
 30
0.0
 11
-1.699434
 21
-1.629748
 31
0.0
  0
LINE
  8
BASE
  6
CONTINUOUS
 10
-1.507858
 20
-3.773909
 30
0.0
 11
-0.531219
 21
-2.609996
 31
0.0
  0
LINE
  8
BASE
  6
CONTINUOUS
 10
-2.676073
 20
-2.79366
 30
0.0
 11
-1.507858
 21
-3.773909
 31
0.0
  0
LINE
  8
BASE
  6
CONTINUOUS
 10
-27.5
 20
-0.008493
 30
0.0
 11
-17.5
 21
-0.008493
 31
0.0
  0
LINE
  8
BASE
  6
CONTINUOUS
 10
-11.481965
 20
-0.006589
 30
0.0
 11
-18.162841
 21
2.434804
 31
0.0
  0
LINE
  8
BASE
  6
CONTINUOUS
 10
-17.5
 20
-0.008493
 30
0.0
 11
-17.5
 21
2.765661
 31
0.0
  0
LINE
  8
BASE
  6
CONTINUOUS
 10
-18.162841
 20
2.434804
 30
0.0
 11
-18.607734
 21
1.549106
 31
0.0
  0
CIRCLE
  8
BASE
  6
CONTINUOUS
 10
-10.741055
 20
0.0
 30
0.0
 40
0.740939
  0
ENDBLK
  8
0
  0
BLOCK
  8
0
  2
B22
 70
     0
 10
0.0
 20
0.0
 30
0.0
  3
B22
  0
CIRCLE
  8
BASE
  6
CONTINUOUS
 10
-2.949561
 20
-1.638589
 30
0.0
 40
0.705054
  0
CIRCLE
  8
BASE
  6
CONTINUOUS
 10
-2.949561
 20
-1.638589
 30
0.0
 40
1.252595
  0
LINE
  8
BASE
  6
CONTINUOUS
 10
-10.000117
 20
0.000025
 30
0.0
 11
0.011081
 21
0.000025
 31
0.0
  0
LINE
  8
BASE
  6
CONTINUOUS
 10
-27.5
 20
-0.008493
 30
0.0
 11
-17.5
 21
-0.008493
 31
0.0
  0
LINE
  8
BASE
  6
CONTINUOUS
 10
-11.481965
 20
-0.006589
 30
0.0
 11
-18.162841
 21
2.434804
 31
0.0
  0
LINE
  8
BASE
  6
CONTINUOUS
 10
-17.5
 20
-0.008493
 30
0.0
 11
-17.5
 21
2.765661
 31
0.0
  0
LINE
  8
BASE
  6
CONTINUOUS
 10
-18.162841
 20
2.434804
 30
0.0
 11
-18.607734
 21
1.549106
 31
0.0
  0
CIRCLE
  8
BASE
  6
CONTINUOUS
 10
-10.741055
 20
0.0
 30
0.0
 40
0.740939
  0
ENDBLK
  8
0
  0
BLOCK
  8
0
  2
B124
 70
     0
 10
0.0
 20
0.0
 30
0.0
  3
B124
  0
TEXT
  8
0
  6
DASHED
 10
37.336826
 20
2.486642
 30
0.0
 40
2.0
  1
26
  7
TXT
  0
TEXT
  8
0
  6
DASHED
 10
37.336826
 20
5.819976
 30
0.0
 40
2.0
  1
8
  7
TXT
  0
TEXT
  8
0
  6
DASHED
 10
37.336826
 20
9.153309
 30
0.0
 40
2.0
  1
5
  7
TXT
  0
TEXT
  8
0
  6
DASHED
 10
37.336826
 20
12.486642
 30
0.0
 40
2.0
  1
2
  7
TXT
  0
TEXT
  8
0
  6
DASHED
 10
21.399666
 20
2.486642
 30
0.0
 40
2.0
  1
27
  7
TXT
  0
TEXT
  8
0
  6
DASHED
 10
21.399666
 20
5.819976
 30
0.0
 40
2.0
  1
9
  7
TXT
  0
TEXT
  8
0
  6
DASHED
 10
21.399666
 20
9.153309
 30
0.0
 40
2.0
  1
6
  7
TXT
  0
TEXT
  8
0
  6
DASHED
 10
21.399666
 20
12.486642
 30
0.0
 40
2.0
  1
3
  7
TXT
  0
TEXT
  8
0
  6
DASHED
 10
8.267142
 20
2.486642
 30
0.0
 40
2.0
  1
9B
  7
TXT
  0
TEXT
  8
0
  6
DASHED
 10
8.267142
 20
5.819976
 30
0.0
 40
2.0
  1
7B
  7
TXT
  0
TEXT
  8
0
  6
DASHED
 10
8.267142
 20
9.153309
 30
0.0
 40
2.0
  1
5B
  7
TXT
  0
TEXT
  8
0
  6
DASHED
 10
8.267142
 20
12.486642
 30
0.0
 40
2.0
  1
3B
  7
TXT
  0
LINE
  8
0
 10
46.00882
 20
33.671798
 30
0.0
 11
2.00882
 21
33.671798
 31
0.0
  0
LINE
  8
0
 10
2.00882
 20
33.671798
 30
0.0
 11
2.00882
 21
1.171798
 31
0.0
  0
LINE
  8
0
 10
2.00882
 20
1.171798
 30
0.0
 11
46.00882
 21
1.171798
 31
0.0
  0
LINE
  8
0
 10
46.00882
 20
1.171798
 30
0.0
 11
46.00882
 21
33.671798
 31
0.0
  0
LINE
  8
0
 10
2.00882
 20
27.671798
 30
0.0
 11
46.00882
 21
27.671798
 31
0.0
  0
LINE
  8
0
 10
16.00882
 20
27.671798
 30
0.0
 11
16.00882
 21
1.171798
 31
0.0
  0
LINE
  8
0
 10
16.00882
 20
21.671798
 30
0.0
 11
46.00882
 21
21.671798
 31
0.0
  0
LINE
  8
0
 10
30.00882
 20
21.671798
 30
0.0
 11
30.00882
 21
1.171798
 31
0.0
  0
LINE
  8
0
 10
2.00882
 20
15.671798
 30
0.0
 11
46.00882
 21
15.671798
 31
0.0
  0
TEXT
  8
0
 10
8.00882
 20
28.338465
 30
0.0
 40
2.0
  1
TERMINALS / UTTAG
 11
8.00882
 21
27.671798
 31
0.0
 73
     1
  0
TEXT
  8
0
 10
8.00882
 20
22.338465
 30
0.0
 40
2.0
  1
101:       
 11
8.00882
 21
21.671798
 31
0.0
 73
     1
  0
TEXT
  8
0
 10
28.00882
 20
22.338465
 30
0.0
 40
2.0
  1
108:
 11
28.00882
 21
21.671798
 31
0.0
 73
     1
  0
TEXT
  8
0
 10
18.00882
 20
16.338465
 30
0.0
 40
2.0
  1
In=1A 
 11
18.00882
 21
15.671798
 31
0.0
 73
     1
  0
TEXT
  8
0
 10
34.00882
 20
16.338465
 30
0.0
 40
2.0
  1
In=5A
 11
34.00882
 21
15.671798
 31
0.0
 73
     1
  0
ENDBLK
  8
0
  0
BLOCK
  8
0
  2
B136
 70
     0
 10
0.0
 20
0.0
 30
0.0
  3
B136
  0
POLYLINE
  8
0
  6
DASHED
 66
     1
 10
0.0
 20
0.0
 30
0.0
 70
     1
 40
0.5
 41
0.5
  0
VERTEX
  8
0
  6
DASHED
 10
32.0
 20
-12.5
 30
0.0
 42
1.0
  0
VERTEX
  8
0
  6
DASHED
 10
33.0
 20
-12.5
 30
0.0
 42
1.0
  0
SEQEND
  8
0
  6
DASHED
  0
LINE
  8
0
  6
DASHED
 10
17.5
 20
-12.5
 30
0.0
 11
45.0
 21
-12.5
 31
0.0
  0
LINE
  8
0
  6
DASHED
 10
-5.0
 20
-70.0
 30
0.0
 11
10.0
 21
-70.0
 31
0.0
  0
LINE
  8
0
  6
DASHED
 10
-5.0
 20
-60.0
 30
0.0
 11
10.0
 21
-60.0
 31
0.0
  0
LINE
  8
0
  6
CONTINUOUS
 10
12.5
 20
0.5
 30
0.0
 11
12.5
 21
-70.5
 31
0.0
  0
LINE
  8
0
  6
CONTINUOUS
 10
12.5
 20
0.5
 30
0.0
 11
11.5
 21
1.5
 31
0.0
  0
LINE
  8
0
  6
CONTINUOUS
 10
12.5
 20
-70.5
 30
0.0
 11
11.5
 21
-71.5
 31
0.0
  0
CIRCLE
  8
0
  6
CONTINUOUS
 10
32.5
 20
-35.0
 30
0.0
 40
3.605551
  0
LINE
  8
0
  6
DASHED
 10
32.5
 20
-12.5
 30
0.0
 11
32.5
 21
-55.0
 31
0.0
  0
LINE
  8
0
  6
DASHED
 10
12.5
 20
-35.0
 30
0.0
 11
28.894449
 21
-35.0
 31
0.0
  0
LINE
  8
0
  6
DASHED
 10
-5.0
 20
0.0
 30
0.0
 11
10.0
 21
0.0
 31
0.0
  0
LINE
  8
0
  6
DASHED
 10
-5.0
 20
-10.0
 30
0.0
 11
10.0
 21
-10.0
 31
0.0
  0
LINE
  8
0
  6
DASHED
 10
-5.0
 20
-20.0
 30
0.0
 11
10.0
 21
-20.0
 31
0.0
  0
LINE
  8
0
  6
DASHED
 10
-5.0
 20
-30.0
 30
0.0
 11
10.0
 21
-30.0
 31
0.0
  0
LINE
  8
0
  6
DASHED
 10
-5.0
 20
-40.0
 30
0.0
 11
10.0
 21
-40.0
 31
0.0
  0
LINE
  8
0
  6
DASHED
 10
-5.0
 20
-50.0
 30
0.0
 11
10.0
 21
-50.0
 31
0.0
  0
ENDBLK
  8
0
  0
ENDSEC
  0
SECTION
  2
ENTITIES
  0
INSERT
  8
0
  2
1
 10
65.405438
 20
98.713066
 30
0.0
  0
INSERT
  8
0
  2
1
 10
72.541652
 20
49.71056
 30
0.0
  0
INSERT
  8
0
  2
1
 10
85.390443
 20
73.497234
 30
0.0
  0
LINE
  8
0
  6
CENTER
 62
     7
 10
255.0
 20
247.5
 30
0.0
 11
255.0
 21
110.0
 31
0.0
  0
LINE
  8
0
  6
CENTER
 62
     7
 10
255.0
 20
110.0
 30
0.0
 11
255.0
 21
80.0
 31
0.0
  0
LINE
  8
0
  6
CONTINUOUS
 62
     7
 10
237.5
 20
95.0
 30
0.0
 11
247.5
 21
95.0
 31
0.0
  0
LINE
  8
0
  6
CONTINUOUS
 62
     7
 10
237.5
 20
95.0
 30
0.0
 11
240.0
 21
97.5
 31
0.0
  0
LINE
  8
0
  6
CONTINUOUS
 62
     7
 10
242.5
 20
95.0
 30
0.0
 11
245.0
 21
97.5
 31
0.0
  0
LINE
  8
0
  6
CONTINUOUS
 62
     7
 10
247.5
 20
95.0
 30
0.0
 11
250.0
 21
97.5
 31
0.0
  0
LINE
  8
0
  6
CONTINUOUS
 62
     7
 10
242.5
 20
95.0
 30
0.0
 11
242.5
 21
80.0
 31
0.0
  0
LINE
  8
0
  6
CONTINUOUS
 62
     7
 10
230.0
 20
97.5
 30
0.0
 11
230.0
 21
80.0
 31
0.0
  0
LINE
  8
0
  6
CONTINUOUS
 62
     7
 10
225.0
 20
97.5
 30
0.0
 11
225.0
 21
80.0
 31
0.0
  0
LINE
  8
0
  6
DASHED
 62
     7
 10
230.0
 20
55.0
 30
0.0
 11
230.0
 21
47.5
 31
0.0
  0
LINE
  8
0
  6
DASHED
 62
     7
 10
242.5
 20
55.0
 30
0.0
 11
242.5
 21
47.5
 31
0.0
  0
LINE
  8
0
  6
DASHED
 62
     7
 10
225.0
 20
55.0
 30
0.0
 11
225.0
 21
47.5
 31
0.0
  0
LINE
  8
0
  6
DASHED
 62
     7
 10
210.0
 20
55.0
 30
0.0
 11
210.0
 21
47.5
 31
0.0
  0
LINE
  8
0
  6
DASHED
 62
     7
 10
180.0
 20
55.0
 30
0.0
 11
180.0
 21
47.5
 31
0.0
  0
LINE
  8
0
  6
CONTINUOUS
 62
     7
 10
192.5
 20
202.732891
 30
0.0
 11
222.950615
 21
202.732891
 31
0.0
  0
TEXT
  8
0
  6
CONTINUOUS
 62
     7
 10
204.408766
 20
198.795815
 30
0.0
 40
2.5
  1
IRF
 11
204.408766
 21
197.962481
 31
0.0
 73
     1
  0
LINE
  8
0
  6
CONTINUOUS
 62
     7
 10
222.950615
 20
197.5
 30
0.0
 11
192.5
 21
197.5
 31
0.0
  0
LINE
  8
0
  6
CONTINUOUS
 62
     7
 10
222.950615
 20
209.709828
 30
0.0
 11
222.950615
 21
197.5
 31
0.0
  0
LINE
  8
0
  6
CONTINUOUS
 62
     7
 10
222.950615
 20
232.5
 30
0.0
 11
222.950615
 21
209.68832
 31
0.0
  0
LINE
  8
0
  6
CONTINUOUS
 62
     7
 10
192.5
 20
207.5
 30
0.0
 11
222.950615
 21
207.5
 31
0.0
  0
LINE
  8
0
  6
CONTINUOUS
 62
     7
 10
203.926606
 20
222.820238
 30
0.0
 11
203.926606
 21
221.032107
 31
0.0
  0
LINE
  8
0
  6
CONTINUOUS
 62
     7
 10
203.957637
 20
221.97496
 30
0.0
 11
211.745842
 21
221.97496
 31
0.0
  0
LINE
  8
0
  6
CONTINUOUS
 62
     7
 10
206.341782
 20
220.807357
 30
0.0
 11
209.217892
 21
223.635916
 31
0.0
  0
LINE
  8
0
  6
CONTINUOUS
 62
     7
 10
208.787189
 20
224.173123
 30
0.0
 11
209.687866
 21
223.049374
 31
0.0
  0
LINE
  8
0
  6
CONTINUOUS
 62
     7
 10
211.741301
 20
222.820238
 30
0.0
 11
211.741301
 21
221.032107
 31
0.0
  0
ARC
  8
0
  6
HIDDEN
 62
     7
 10
210.652505
 20
225.903504
 30
0.0
 40
4.998196
 50
206.402922
 51
282.21115
  0
TEXT
  8
0
  6
CONTINUOUS
 62
     7
 10
194.300457
 20
216.065833
 30
0.0
 40
2.5
  1
I
 11
194.300457
 21
215.2325
 31
0.0
 73
     1
  0
LINE
  8
0
  6
CONTINUOUS
 62
     7
 10
200.550318
 20
217.246469
 30
0.0
 11
198.204552
 21
216.05655
 31
0.0
  0
LINE
  8
0
  6
CONTINUOUS
 62
     7
 10
202.531772
 20
217.246469
 30
0.0
 11
200.186006
 21
216.05655
 31
0.0
  0
LINE
  8
0
  6
CONTINUOUS
 62
     7
 10
198.204552
 20
218.581823
 30
0.0
 11
200.550318
 21
217.246469
 31
0.0
  0
LINE
  8
0
  6
CONTINUOUS
 62
     7
 10
200.186006
 20
218.581823
 30
0.0
 11
202.531772
 21
217.246469
 31
0.0
  0
TEXT
  8
0
  6
CONTINUOUS
 62
     7
 10
194.300457
 20
220.746654
 30
0.0
 40
2.5
  1
I
 11
194.300457
 21
219.913321
 31
0.0
 73
     1
  0
LINE
  8
0
  6
CONTINUOUS
 62
     7
 10
200.550318
 20
221.92729
 30
0.0
 11
198.204552
 21
220.737371
 31
0.0
  0
LINE
  8
0
  6
CONTINUOUS
 62
     7
 10
198.204552
 20
223.262644
 30
0.0
 11
200.550318
 21
221.92729
 31
0.0
  0
LINE
  8
0
  6
CONTINUOUS
 62
     7
 10
192.5
 20
222.5
 30
0.0
 11
192.5
 21
207.5
 31
0.0
  0
LINE
  8
0
  6
CONTINUOUS
 62
     7
 10
192.5
 20
222.5
 30
0.0
 11
192.5
 21
227.5
 31
0.0
  0
LINE
  8
0
  6
CONTINUOUS
 62
     7
 10
192.5
 20
207.5
 30
0.0
 11
192.5
 21
197.5
 31
0.0
  0
LINE
  8
0
  6
CENTER
 62
     7
 10
62.5
 20
247.5
 30
0.0
 11
62.5
 21
80.0
 31
0.0
  0
TEXT
  8
0
  6
DASHED
 62
     7
 10
85.697373
 20
150.903492
 30
0.0
 40
2.0
  1
A
  0
TEXT
  8
0
  6
DASHED
 62
     7
 10
104.143373
 20
141.274588
 30
0.0
 40
2.0
  1
B
  0
TEXT
  8
0
  6
DASHED
 62
     7
 10
121.055109
 20
130.634364
 30
0.0
 40
2.0
  1
C
  0
TEXT
  8
0
  6
DASHED
 62
     7
 10
138.484014
 20
120.755752
 30
0.0
 40
2.0
  1
D
  0
LINE
  8
0
  6
CENTER
 62
     7
 10
62.5
 20
80.0
 30
0.0
 11
255.0
 21
80.0
 31
0.0
  0
LINE
  8
0
  6
CENTER
 62
     7
 10
255.0
 20
247.5
 30
0.0
 11
62.5
 21
247.5
 31
0.0
  0
LINE
  8
0
  6
DASHED
 62
     7
 10
190.0
 20
55.0
 30
0.0
 11
190.0
 21
47.5
 31
0.0
  0
LINE
  8
0
  6
DASHED
 62
     7
 10
195.0
 20
55.0
 30
0.0
 11
195.0
 21
47.5
 31
0.0
  0
ARC
  8
0
  6
CONTINUOUS
 62
     7
 10
257.5
 20
162.5
 30
0.0
 40
2.5
 50
90.0
 51
270.0
  0
LINE
  8
0
  6
CONTINUOUS
 62
     7
 10
353.350579
 20
238.316754
 30
0.0
 11
355.696345
 21
236.9814
 31
0.0
  0
LINE
  8
0
  6
CONTINUOUS
 62
     7
 10
355.696345
 20
236.9814
 30
0.0
 11
353.350579
 21
235.791481
 31
0.0
  0
LINE
  8
0
  6
CONTINUOUS
 62
     7
 10
348.100275
 20
232.706143
 30
0.0
 11
348.100275
 21
230.918012
 31
0.0
  0
LINE
  8
0
  6
CONTINUOUS
 62
     7
 10
348.131307
 20
231.860865
 30
0.0
 11
355.919512
 21
231.860865
 31
0.0
  0
LINE
  8
0
  6
CONTINUOUS
 62
     7
 10
352.960859
 20
234.059027
 30
0.0
 11
353.861536
 21
232.935278
 31
0.0
  0
ARC
  8
0
  6
HIDDEN
 62
     7
 10
354.826175
 20
235.789409
 30
0.0
 40
4.998196
 50
206.402922
 51
282.21115
  0
LINE
  8
0
  6
CONTINUOUS
 62
     7
 10
350.515452
 20
230.693262
 30
0.0
 11
353.391562
 21
233.521821
 31
0.0
  0
LINE
  8
0
  6
CONTINUOUS
 62
     7
 10
355.914971
 20
232.706143
 30
0.0
 11
355.914971
 21
230.918012
 31
0.0
  0
LINE
  8
0
  6
CONTINUOUS
 62
     7
 10
355.938869
 20
227.00956
 30
0.0
 11
353.593104
 21
225.819641
 31
0.0
  0
LINE
  8
0
  6
CONTINUOUS
 62
     7
 10
353.593104
 20
228.344914
 30
0.0
 11
355.938869
 21
227.00956
 31
0.0
  0
LINE
  8
0
  6
CONTINUOUS
 62
     7
 10
355.706237
 20
228.344914
 30
0.0
 11
358.052003
 21
227.00956
 31
0.0
  0
LINE
  8
0
  6
CONTINUOUS
 62
     7
 10
358.052003
 20
227.00956
 30
0.0
 11
355.706237
 21
225.819641
 31
0.0
  0
LINE
  8
0
  6
CONTINUOUS
 62
     7
 10
355.914971
 20
223.052173
 30
0.0
 11
355.914971
 21
221.264041
 31
0.0
  0
LINE
  8
0
  6
CONTINUOUS
 62
     7
 10
352.960859
 20
224.405057
 30
0.0
 11
353.861536
 21
223.281308
 31
0.0
  0
LINE
  8
0
  6
CONTINUOUS
 62
     7
 10
350.515452
 20
221.039291
 30
0.0
 11
353.391562
 21
223.86785
 31
0.0
  0
LINE
  8
0
  6
CONTINUOUS
 62
     7
 10
348.131307
 20
222.206894
 30
0.0
 11
355.919512
 21
222.206894
 31
0.0
  0
LINE
  8
0
  6
CONTINUOUS
 62
     7
 10
348.100275
 20
223.052173
 30
0.0
 11
348.100275
 21
221.264041
 31
0.0
  0
TEXT
  8
0
  6
DASHED
 62
     7
 10
9.369019
 20
235.0
 30
0.0
 40
2.0
  1
1)
  0
LINE
  8
0
  6
CONTINUOUS
 62
     7
 10
192.5
 20
215.0
 30
0.0
 11
212.5
 21
215.0
 31
0.0
  0
LINE
  8
0
  6
CONTINUOUS
 62
     7
 10
202.5
 20
225.521206
 30
0.0
 11
205.0
 21
225.521206
 31
0.0
  0
LINE
  8
0
  6
CONTINUOUS
 62
     7
 10
202.5
 20
225.521206
 30
0.0
 11
200.275553
 21
224.960564
 31
0.0
  0
LINE
  8
0
  6
CONTINUOUS
 62
     7
 10
197.5
 20
225.521206
 30
0.0
 11
200.0
 21
225.521206
 31
0.0
  0
TEXT
  8
0
  6
CONTINUOUS
 62
     7
 10
193.406909
 20
224.763189
 30
0.0
 40
1.5
  1
EN
  0
TEXT
  8
0
  6
CONTINUOUS
 62
     7
 10
194.320715
 20
208.550653
 30
0.0
 40
2.5
  1
I
 11
194.320715
 21
207.71732
 31
0.0
 73
     1
  0
LINE
  8
0
  6
CONTINUOUS
 62
     7
 10
202.634483
 20
209.74318
 30
0.0
 11
200.288717
 21
208.55326
 31
0.0
  0
LINE
  8
0
  6
CONTINUOUS
 62
     7
 10
200.288717
 20
211.078533
 30
0.0
 11
202.634483
 21
209.74318
 31
0.0
  0
LINE
  8
0
  6
CONTINUOUS
 62
     7
 10
198.307264
 20
211.078533
 30
0.0
 11
200.653029
 21
209.74318
 31
0.0
  0
LINE
  8
0
  6
CONTINUOUS
 62
     7
 10
200.653029
 20
209.74318
 30
0.0
 11
198.307264
 21
208.55326
 31
0.0
  0
CIRCLE
  8
0
  6
CONTINUOUS
 62
     7
 10
191.512659
 20
225.516691
 30
0.0
 40
1.0
  0
LINE
  8
0
  6
CONTINUOUS
 62
     7
 10
203.653232
 20
210.590004
 30
0.0
 11
203.653232
 21
208.801873
 31
0.0
  0
LINE
  8
0
  6
CONTINUOUS
 62
     7
 10
203.684263
 20
209.744726
 30
0.0
 11
211.472468
 21
209.744726
 31
0.0
  0
LINE
  8
0
  6
CONTINUOUS
 62
     7
 10
206.068408
 20
208.577123
 30
0.0
 11
208.944519
 21
211.405682
 31
0.0
  0
LINE
  8
0
  6
CONTINUOUS
 62
     7
 10
208.490396
 20
211.942889
 30
0.0
 11
209.391073
 21
210.819139
 31
0.0
  0
LINE
  8
0
  6
CONTINUOUS
 62
     7
 10
211.467927
 20
210.590004
 30
0.0
 11
211.467927
 21
208.801873
 31
0.0
  0
LINE
  8
0
  6
CONTINUOUS
 62
     7
 10
192.5
 20
220.0
 30
0.0
 11
212.5
 21
220.0
 31
0.0
  0
LINE
  8
0
  6
CONTINUOUS
 62
     7
 10
192.5
 20
227.5
 30
0.0
 11
212.5
 21
227.5
 31
0.0
  0
LINE
  8
0
  6
CONTINUOUS
 62
     7
 10
192.5
 20
227.5
 30
0.0
 11
192.5
 21
232.5
 31
0.0
  0
LINE
  8
0
  6
CONTINUOUS
 62
     7
 10
192.5
 20
232.5
 30
0.0
 11
222.950615
 21
232.5
 31
0.0
  0
LINE
  8
0
  6
CONTINUOUS
 62
     7
 10
212.5
 20
207.5
 30
0.0
 11
212.5
 21
232.5
 31
0.0
  0
CIRCLE
  8
0
  6
CONTINUOUS
 62
     7
 10
191.512659
 20
213.284079
 30
0.0
 40
1.0
  0
TEXT
  8
0
  6
CONTINUOUS
 62
     7
 10
193.406909
 20
212.530577
 30
0.0
 40
1.5
  1
EN
  0
LINE
  8
0
  6
CONTINUOUS
 62
     7
 10
197.5
 20
213.288594
 30
0.0
 11
200.0
 21
213.288594
 31
0.0
  0
LINE
  8
0
  6
CONTINUOUS
 62
     7
 10
202.5
 20
213.288594
 30
0.0
 11
200.275553
 21
212.727951
 31
0.0
  0
LINE
  8
0
  6
CONTINUOUS
 62
     7
 10
202.5
 20
213.288594
 30
0.0
 11
205.0
 21
213.288594
 31
0.0
  0
TEXT
  8
0
  6
CONTINUOUS
 62
     7
 10
194.300457
 20
228.765669
 30
0.0
 40
2.5
  1
I
 11
194.300457
 21
227.932336
 31
0.0
 73
     1
  0
LINE
  8
0
  6
CONTINUOUS
 62
     7
 10
200.550318
 20
229.946305
 30
0.0
 11
198.204552
 21
228.756386
 31
0.0
  0
LINE
  8
0
  6
CONTINUOUS
 62
     7
 10
198.204552
 20
231.281659
 30
0.0
 11
200.550318
 21
229.946305
 31
0.0
  0
LINE
  8
0
  6
CONTINUOUS
 62
     7
 10
175.0
 20
165.0
 30
0.0
 11
175.0
 21
160.0
 31
0.0
  0
LINE
  8
0
  6
CONTINUOUS
 62
     7
 10
175.0
 20
200.825312
 30
0.0
 11
175.0
 21
165.0
 31
0.0
  0
LINE
  8
0
  6
CONTINUOUS
 62
     7
 10
137.5
 20
167.5
 30
0.0
 11
152.5
 21
167.5
 31
0.0
  0
LINE
  8
0
  6
CONTINUOUS
 62
     7
 10
137.5
 20
172.5
 30
0.0
 11
137.5
 21
167.5
 31
0.0
  0
LINE
  8
0
  6
CONTINUOUS
 62
     7
 10
152.5
 20
172.5
 30
0.0
 11
137.5
 21
172.5
 31
0.0
  0
LINE
  8
0
  6
CONTINUOUS
 62
     7
 10
145.0
 20
165.0
 30
0.0
 11
145.0
 21
160.0
 31
0.0
  0
LINE
  8
0
  6
CONTINUOUS
 62
     7
 10
145.0
 20
167.5
 30
0.0
 11
145.0
 21
165.0
 31
0.0
  0
LINE
  8
0
  6
CONTINUOUS
 62
     7
 10
144.724743
 20
170.289195
 30
0.0
 11
142.378977
 21
169.099276
 31
0.0
  0
LINE
  8
0
  6
CONTINUOUS
 62
     7
 10
142.370935
 20
168.299262
 30
0.0
 11
144.754396
 21
169.487454
 31
0.0
  0
LINE
  8
0
  6
CONTINUOUS
 62
     7
 10
142.378977
 20
171.624549
 30
0.0
 11
144.724743
 21
170.289195
 31
0.0
  0
TEXT
  8
0
  6
CONTINUOUS
 62
     7
 10
146.812839
 20
168.964455
 30
0.0
 40
2.5
  1
1
 11
146.812839
 21
168.131122
 31
0.0
 73
     1
  0
LINE
  8
0
  6
CONTINUOUS
 62
     7
 10
152.5
 20
172.5
 30
0.0
 11
152.5
 21
167.5
 31
0.0
  0
LINE
  8
0
  6
CONTINUOUS
 62
     7
 10
140.0
 20
172.5
 30
0.0
 11
140.0
 21
175.0
 31
0.0
  0
LINE
  8
0
  6
CONTINUOUS
 62
     7
 10
145.0
 20
172.5
 30
0.0
 11
145.0
 21
175.0
 31
0.0
  0
LINE
  8
0
  6
CONTINUOUS
 62
     7
 10
150.0
 20
172.5
 30
0.0
 11
150.0
 21
175.0
 31
0.0
  0
LINE
  8
0
  6
CONTINUOUS
 62
     7
 10
132.5
 20
172.5
 30
0.0
 11
132.5
 21
167.5
 31
0.0
  0
TEXT
  8
0
  6
CONTINUOUS
 62
     7
 10
129.312839
 20
168.964455
 30
0.0
 40
2.5
  1
1
 11
129.312839
 21
168.131122
 31
0.0
 73
     1
  0
LINE
  8
0
  6
CONTINUOUS
 62
     7
 10
124.878977
 20
171.624549
 30
0.0
 11
127.224743
 21
170.289195
 31
0.0
  0
LINE
  8
0
  6
CONTINUOUS
 62
     7
 10
124.870935
 20
168.299262
 30
0.0
 11
127.254396
 21
169.487454
 31
0.0
  0
LINE
  8
0
  6
CONTINUOUS
 62
     7
 10
127.224743
 20
170.289195
 30
0.0
 11
124.878977
 21
169.099276
 31
0.0
  0
LINE
  8
0
  6
CONTINUOUS
 62
     7
 10
127.5
 20
167.5
 30
0.0
 11
127.5
 21
165.0
 31
0.0
  0
LINE
  8
0
  6
CONTINUOUS
 62
     7
 10
127.5
 20
165.0
 30
0.0
 11
127.5
 21
160.0
 31
0.0
  0
LINE
  8
0
  6
CONTINUOUS
 62
     7
 10
132.5
 20
172.5
 30
0.0
 11
122.5
 21
172.5
 31
0.0
  0
LINE
  8
0
  6
CONTINUOUS
 62
     7
 10
122.5
 20
172.5
 30
0.0
 11
122.5
 21
167.5
 31
0.0
  0
LINE
  8
0
  6
CONTINUOUS
 62
     7
 10
122.5
 20
167.5
 30
0.0
 11
132.5
 21
167.5
 31
0.0
  0
LINE
  8
0
  6
CONTINUOUS
 62
     7
 10
112.5
 20
172.5
 30
0.0
 11
112.5
 21
175.0
 31
0.0
  0
LINE
  8
0
  6
CONTINUOUS
 62
     7
 10
107.5
 20
172.5
 30
0.0
 11
107.5
 21
175.0
 31
0.0
  0
LINE
  8
0
  6
CONTINUOUS
 62
     7
 10
115.0
 20
172.5
 30
0.0
 11
115.0
 21
167.5
 31
0.0
  0
TEXT
  8
0
  6
CONTINUOUS
 62
     7
 10
111.855307
 20
168.964455
 30
0.0
 40
2.5
  1
1
 11
111.855307
 21
168.131122
 31
0.0
 73
     1
  0
LINE
  8
0
  6
CONTINUOUS
 62
     7
 10
107.421446
 20
171.624549
 30
0.0
 11
109.767211
 21
170.289195
 31
0.0
  0
LINE
  8
0
  6
CONTINUOUS
 62
     7
 10
107.413404
 20
168.299262
 30
0.0
 11
109.796864
 21
169.487454
 31
0.0
  0
LINE
  8
0
  6
CONTINUOUS
 62
     7
 10
109.767211
 20
170.289195
 30
0.0
 11
107.421446
 21
169.099276
 31
0.0
  0
LINE
  8
0
  6
CONTINUOUS
 62
     7
 10
110.0
 20
167.5
 30
0.0
 11
110.0
 21
165.0
 31
0.0
  0
LINE
  8
0
  6
CONTINUOUS
 62
     7
 10
110.0
 20
165.0
 30
0.0
 11
110.0
 21
160.0
 31
0.0
  0
LINE
  8
0
  6
CONTINUOUS
 62
     7
 10
115.0
 20
172.5
 30
0.0
 11
105.0
 21
172.5
 31
0.0
  0
LINE
  8
0
  6
CONTINUOUS
 62
     7
 10
105.0
 20
172.5
 30
0.0
 11
105.0
 21
167.5
 31
0.0
  0
LINE
  8
0
  6
CONTINUOUS
 62
     7
 10
105.0
 20
167.5
 30
0.0
 11
115.0
 21
167.5
 31
0.0
  0
LINE
  8
0
  6
CONTINUOUS
 62
     7
 10
152.5
 20
120.0
 30
0.0
 11
190.0
 21
120.0
 31
0.0
  0
LINE
  8
0
  6
CONTINUOUS
 62
     7
 10
122.5
 20
140.0
 30
0.0
 11
200.0
 21
140.0
 31
0.0
  0
LINE
  8
0
  6
CONTINUOUS
 62
     7
 10
135.0
 20
130.0
 30
0.0
 11
195.0
 21
130.0
 31
0.0
  0
LINE
  8
0
  6
CONTINUOUS
 62
     7
 10
107.5
 20
140.0
 30
0.0
 11
62.5
 21
140.0
 31
0.0
  0
LINE
  8
0
  6
CONTINUOUS
 62
     7
 10
120.0
 20
130.0
 30
0.0
 11
62.5
 21
130.0
 31
0.0
  0
LINE
  8
0
  6
CONTINUOUS
 62
     7
 10
135.0
 20
120.0
 30
0.0
 11
62.5
 21
120.0
 31
0.0
  0
LINE
  8
0
  6
CONTINUOUS
 62
     7
 10
150.0
 20
110.0
 30
0.0
 11
62.5
 21
110.0
 31
0.0
  0
LINE
  8
0
  6
CONTINUOUS
 62
     7
 10
150.0
 20
105.0
 30
0.0
 11
62.5
 21
105.0
 31
0.0
  0
LINE
  8
0
  6
DASHED
 62
     7
 10
175.0
 20
160.0
 30
0.0
 11
175.0
 21
95.0
 31
0.0
  0
LINE
  8
0
  6
DASHED
 62
     7
 10
145.0
 20
160.0
 30
0.0
 11
145.0
 21
117.5
 31
0.0
  0
LINE
  8
0
  6
DASHED
 62
     7
 10
127.5
 20
160.0
 30
0.0
 11
127.5
 21
127.5
 31
0.0
  0
LINE
  8
0
  6
DASHED
 62
     7
 10
110.0
 20
160.0
 30
0.0
 11
110.0
 21
137.5
 31
0.0
  0
LINE
  8
0
  6
DASHED
 62
     7
 10
92.5
 20
160.0
 30
0.0
 11
92.5
 21
147.5
 31
0.0
  0
LINE
  8
0
  6
CONTINUOUS
 62
     7
 10
145.0
 20
217.5
 30
0.0
 11
192.5
 21
217.5
 31
0.0
  0
LINE
  8
0
  6
CONTINUOUS
 62
     7
 10
140.0
 20
230.0
 30
0.0
 11
192.5
 21
230.0
 31
0.0
  0
LINE
  8
0
  6
CONTINUOUS
 62
     7
 10
150.0
 20
180.0
 30
0.0
 11
150.0
 21
209.493304
 31
0.0
  0
LINE
  8
0
  6
CONTINUOUS
 62
     7
 10
100.221556
 20
235.0
 30
0.0
 11
110.0
 21
235.0
 31
0.0
  0
LINE
  8
0
  6
CONTINUOUS
 62
     7
 10
115.0
 20
235.0
 30
0.0
 11
172.5
 21
235.0
 31
0.0
  0
LINE
  8
0
  6
CONTINUOUS
 62
     7
 10
172.5
 20
235.0
 30
0.0
 11
172.5
 21
213.325312
 31
0.0
  0
LINE
  8
0
  6
CONTINUOUS
 62
     7
 10
115.0
 20
235.0
 30
0.0
 11
109.835918
 21
233.718969
 31
0.0
  0
LINE
  8
0
  6
CONTINUOUS
 62
     7
 10
145.0
 20
180.0
 30
0.0
 11
145.0
 21
217.5
 31
0.0
  0
LINE
  8
0
  6
CONTINUOUS
 62
     7
 10
145.0
 20
175.0
 30
0.0
 11
143.285914
 21
180.086297
 31
0.0
  0
LINE
  8
0
  6
CONTINUOUS
 62
     7
 10
150.0
 20
175.0
 30
0.0
 11
148.285914
 21
180.086297
 31
0.0
  0
LINE
  8
0
  6
CONTINUOUS
 62
     7
 10
140.0
 20
175.0
 30
0.0
 11
138.285914
 21
180.086297
 31
0.0
  0
LINE
  8
0
  6
CONTINUOUS
 62
     7
 10
90.0
 20
180.0
 30
0.0
 11
90.0
 21
221.993304
 31
0.0
  0
LINE
  8
0
  6
CONTINUOUS
 62
     7
 10
90.0
 20
221.993304
 30
0.0
 11
192.5
 21
221.993304
 31
0.0
  0
LINE
  8
0
  6
CONTINUOUS
 62
     7
 10
95.0
 20
209.493304
 30
0.0
 11
192.5
 21
209.493304
 31
0.0
  0
LINE
  8
0
  6
CONTINUOUS
 62
     7
 10
112.5
 20
175.0
 30
0.0
 11
112.5
 21
209.493304
 31
0.0
  0
LINE
  8
0
  6
CONTINUOUS
 62
     7
 10
140.0
 20
180.0
 30
0.0
 11
140.0
 21
230.0
 31
0.0
  0
LINE
  8
0
  6
CONTINUOUS
 62
     7
 10
190.513814
 20
225.468636
 30
0.0
 11
172.5
 21
225.468636
 31
0.0
  0
LINE
  8
0
  6
CONTINUOUS
 62
     7
 10
190.513509
 20
213.325312
 30
0.0
 11
172.5
 21
213.325312
 31
0.0
  0
LINE
  8
0
  6
CONTINUOUS
 62
     7
 10
222.950615
 20
205.0
 30
0.0
 11
227.5
 21
205.0
 31
0.0
  0
LINE
  8
0
  6
CONTINUOUS
 62
     7
 10
227.5
 20
205.0
 30
0.0
 11
227.5
 21
162.5
 31
0.0
  0
LINE
  8
0
  6
CONTINUOUS
 62
     7
 10
342.5
 20
220.0
 30
0.0
 11
362.5
 21
220.0
 31
0.0
  0
LINE
  8
0
  6
CONTINUOUS
 62
     7
 10
342.5
 20
240.0
 30
0.0
 11
362.5
 21
240.0
 31
0.0
  0
LINE
  8
0
  6
CONTINUOUS
 62
     7
 10
362.5
 20
240.0
 30
0.0
 11
362.5
 21
220.0
 31
0.0
  0
LINE
  8
0
  6
CONTINUOUS
 62
     7
 10
342.5
 20
220.0
 30
0.0
 11
342.5
 21
240.0
 31
0.0
  0
TEXT
  8
0
  6
CONTINUOUS
 62
     7
 10
342.5
 20
147.5
 30
0.0
 40
2.0
  1
EXTERNAL BLOCKING
  0
TEXT
  8
0
  6
CONTINUOUS
 62
     7
 10
342.5
 20
144.166667
 30
0.0
 40
2.0
  1
EXTERN BLOCKERING
  0
TEXT
  8
0
  6
CONTINUOUS
 62
     7
 10
342.5
 20
124.166667
 30
0.0
 40
2.0
  1
TRIP
  0
TEXT
  8
0
  6
CONTINUOUS
 62
     7
 10
342.5
 20
120.833333
 30
0.0
 40
2.0
  1
UTLÖSNING
  0
TEXT
  8
0
  6
CONTINUOUS
 62
     7
 10
342.5
 20
112.5
 30
0.0
 40
2.0
  1
ALARM ETC.
  0
TEXT
  8
0
  6
CONTINUOUS
 62
     7
 10
342.5
 20
109.166667
 30
0.0
 40
2.0
  1
SIGNAL MM.
  0
TEXT
  8
0
  6
CONTINUOUS
 62
     7
 10
342.5
 20
100.833333
 30
0.0
 40
2.0
  1
START, BLOCKING ETC.
  0
TEXT
  8
0
  6
CONTINUOUS
 62
     7
 10
342.5
 20
97.5
 30
0.0
 40
2.0
  1
START, BLOCKERING MM.
  0
TEXT
  8
0
  6
CONTINUOUS
 62
     7
 10
335.0
 20
147.701531
 30
0.0
 40
2.0
  1
1)
  0
TEXT
  8
0
  6
CONTINUOUS
 62
     7
 10
335.0
 20
135.827468
 30
0.0
 40
2.0
  1
2)
  0
TEXT
  8
0
  6
CONTINUOUS
 62
     7
 10
335.0
 20
124.172532
 30
0.0
 40
2.0
  1
3)
  0
TEXT
  8
0
  6
CONTINUOUS
 62
     7
 10
335.0
 20
112.5
 30
0.0
 40
2.0
  1
4)
  0
TEXT
  8
0
  6
CONTINUOUS
 62
     7
 10
335.0
 20
100.815972
 30
0.0
 40
2.0
  1
5)
  0
TEXT
  8
0
  6
CONTINUOUS
 62
     7
 10
335.0
 20
89.184028
 30
0.0
 40
2.0
  1
6)
  0
LINE
  8
0
  6
DASHED
 62
     7
 10
35.0
 20
237.5
 30
0.0
 11
25.0
 21
237.5
 31
0.0
  0
LINE
  8
0
  6
DASHED
 62
     7
 10
35.0
 20
232.5
 30
0.0
 11
25.0
 21
232.5
 31
0.0
  0
LINE
  8
0
  6
DASHED
 62
     7
 10
260.0
 20
162.5
 30
0.0
 11
290.0
 21
162.5
 31
0.0
  0
LINE
  8
0
  6
CONTINUOUS
 62
     7
 10
251.063198
 20
161.75712
 30
0.0
 11
252.279906
 21
163.167057
 31
0.0
  0
TEXT
  8
0
  6
CONTINUOUS
 62
     7
 10
252.036564
 20
164.070297
 30
0.0
 40
2.0
  1
9
  0
LINE
  8
0
  6
DASHED
 62
     7
 10
35.0
 20
150.0
 30
0.0
 11
25.0
 21
150.0
 31
0.0
  0
LINE
  8
0
  6
DASHED
 62
     7
 10
35.0
 20
140.0
 30
0.0
 11
25.0
 21
140.0
 31
0.0
  0
LINE
  8
0
  6
DASHED
 62
     7
 10
35.0
 20
130.0
 30
0.0
 11
25.0
 21
130.0
 31
0.0
  0
LINE
  8
0
  6
DASHED
 62
     7
 10
35.0
 20
120.0
 30
0.0
 11
25.0
 21
120.0
 31
0.0
  0
LINE
  8
0
  6
DASHED
 62
     7
 10
35.0
 20
92.5
 30
0.0
 11
25.0
 21
92.5
 31
0.0
  0
LINE
  8
0
  6
CONTINUOUS
 62
     7
 10
22.5
 20
120.5
 30
0.0
 11
22.5
 21
104.5
 31
0.0
  0
LINE
  8
0
  6
CONTINUOUS
 62
     7
 10
22.5
 20
120.5
 30
0.0
 11
23.5
 21
121.5
 31
0.0
  0
LINE
  8
0
  6
CONTINUOUS
 62
     7
 10
22.5
 20
104.5
 30
0.0
 11
23.5
 21
103.5
 31
0.0
  0
TEXT
  8
0
  6
CONTINUOUS
 62
     7
 10
15.0
 20
144.032746
 30
0.0
 40
2.0
  1
3)
  0
TEXT
  8
0
  6
CONTINUOUS
 62
     7
 10
15.0
 20
128.900841
 30
0.0
 40
2.0
  1
4)
  0
TEXT
  8
0
  6
CONTINUOUS
 62
     7
 10
15.0
 20
112.139939
 30
0.0
 40
2.0
  1
5)
  0
TEXT
  8
0
  6
CONTINUOUS
 62
     7
 10
15.0
 20
91.491877
 30
0.0
 40
2.0
  1
6)
  0
LINE
  8
0
  6
CONTINUOUS
 62
     7
 10
85.0
 20
150.0
 30
0.0
 11
62.5
 21
150.0
 31
0.0
  0
LINE
  8
0
  6
CONTINUOUS
 62
     7
 10
72.5
 20
232.5
 30
0.0
 11
62.5
 21
232.5
 31
0.0
  0
LINE
  8
0
  6
CONTINUOUS
 62
     7
 10
92.798812
 20
232.5
 30
0.0
 11
70.598812
 21
232.5
 31
0.0
  0
LINE
  8
0
 62
     7
 10
92.798812
 20
239.089925
 30
0.0
 11
92.798812
 21
230.9
 31
0.0
  0
LINE
  8
0
 62
     7
 10
97.004853
 20
239.09384
 30
0.0
 11
95.09105
 21
236.815018
 31
0.0
  0
LINE
  8
0
 62
     7
 10
98.496971
 20
239.09384
 30
0.0
 11
96.642636
 21
236.815018
 31
0.0
  0
LINE
  8
0
 62
     7
 10
100.221556
 20
239.089925
 30
0.0
 11
92.798812
 21
239.089925
 31
0.0
  0
LINE
  8
0
 62
     7
 10
92.798812
 20
230.9
 30
0.0
 11
100.221556
 21
230.9
 31
0.0
  0
LINE
  8
0
 62
     7
 10
100.221556
 20
230.9
 30
0.0
 11
100.221556
 21
239.089925
 31
0.0
  0
INSERT
  8
0
  6
CONTINUOUS
 62
     7
  2
BLC29
 10
236.529446
 20
162.371533
 30
0.0
 41
-1.0
 50
180.0
  0
LINE
  8
0
  6
CONTINUOUS
 62
     7
 10
255.0
 20
162.5
 30
0.0
 11
227.5
 21
162.5
 31
0.0
  0
LINE
  8
0
  6
DASHED
 62
     7
 10
205.0
 20
55.0
 30
0.0
 11
205.0
 21
47.5
 31
0.0
  0
LINE
  8
0
  6
CONTINUOUS
 62
     7
 10
180.0
 20
80.0
 30
0.0
 11
180.0
 21
97.5
 31
0.0
  0
LINE
  8
0
  6
CONTINUOUS
 62
     7
 10
200.0
 20
80.0
 30
0.0
 11
200.0
 21
140.0
 31
0.0
  0
LINE
  8
0
  6
CONTINUOUS
 62
     7
 10
150.0
 20
110.0
 30
0.0
 11
155.0
 21
110.0
 31
0.0
  0
LINE
  8
0
  6
CONTINUOUS
 62
     7
 10
157.5
 20
105.0
 30
0.0
 11
150.0
 21
105.0
 31
0.0
  0
LINE
  8
0
  6
CONTINUOUS
 62
     7
 10
157.5
 20
105.0
 30
0.0
 11
157.5
 21
107.5
 31
0.0
  0
LINE
  8
0
  6
CONTINUOUS
 62
     7
 10
162.5
 20
110.0
 30
0.0
 11
185.0
 21
110.0
 31
0.0
  0
TEXT
  8
0
  6
CONTINUOUS
 62
     7
 10
342.5
 20
135.83101
 30
0.0
 40
2.0
  1
BUS CONNECTION MODULE
  0
TEXT
  8
0
  6
CONTINUOUS
 62
     7
 10
342.5
 20
132.497677
 30
0.0
 40
2.0
  1
BUSSANSLUTNINGSMODUL
  0
TEXT
  8
0
  6
CONTINUOUS
 62
     7
 10
342.5
 20
89.179249
 30
0.0
 40
2.0
  1
INTERNAL RELAY FAULT
  0
TEXT
  8
0
  6
CONTINUOUS
 62
     7
 10
342.5
 20
85.845916
 30
0.0
 40
2.0
  1
INTERNT RELÄFEL
  0
LINE
  8
0
  6
CONTINUOUS
 62
     7
 10
95.0
 20
150.0
 30
0.0
 11
89.256076
 21
146.785297
 31
0.0
  0
LINE
  8
0
  6
CONTINUOUS
 62
     7
 10
85.0
 20
150.0
 30
0.0
 11
90.0
 21
150.0
 31
0.0
  0
LINE
  8
0
  6
CONTINUOUS
 62
     7
 10
95.0
 20
150.0
 30
0.0
 11
100.0
 21
150.0
 31
0.0
  0
LINE
  8
0
  6
CONTINUOUS
 62
     7
 10
112.5
 20
140.0
 30
0.0
 11
122.5
 21
140.0
 31
0.0
  0
LINE
  8
0
  6
CONTINUOUS
 62
     7
 10
120.0
 20
130.0
 30
0.0
 11
125.0
 21
130.0
 31
0.0
  0
LINE
  8
0
  6
CONTINUOUS
 62
     7
 10
130.0
 20
130.0
 30
0.0
 11
135.0
 21
130.0
 31
0.0
  0
LINE
  8
0
  6
CONTINUOUS
 62
     7
 10
135.0
 20
120.0
 30
0.0
 11
142.5
 21
120.0
 31
0.0
  0
LINE
  8
0
  6
CONTINUOUS
 62
     7
 10
147.5
 20
120.0
 30
0.0
 11
152.5
 21
120.0
 31
0.0
  0
LINE
  8
0
  6
CONTINUOUS
 62
     7
 10
112.5
 20
140.0
 30
0.0
 11
106.756076
 21
136.785297
 31
0.0
  0
LINE
  8
0
  6
CONTINUOUS
 62
     7
 10
130.0
 20
130.0
 30
0.0
 11
124.256076
 21
126.785297
 31
0.0
  0
LINE
  8
0
  6
CONTINUOUS
 62
     7
 10
147.5
 20
120.0
 30
0.0
 11
141.756076
 21
116.785297
 31
0.0
  0
LINE
  8
0
  6
CONTINUOUS
 62
     7
 10
162.5
 20
110.0
 30
0.0
 11
156.756076
 21
106.785297
 31
0.0
  0
TEXT
  8
0
  6
DASHED
 62
     7
 10
196.426232
 20
203.582908
 30
0.0
 40
2.5
  1
SERIAL I/O
  0
TEXT
  8
0
  6
DASHED
 62
     7
 10
372.5
 20
12.5
 30
0.0
 40
2.0
  1
1
  0
LINE
  8
0
  6
CONTINUOUS
 62
     7
 10
87.5
 20
167.5
 30
0.0
 11
97.5
 21
167.5
 31
0.0
  0
LINE
  8
0
  6
CONTINUOUS
 62
     7
 10
87.5
 20
172.5
 30
0.0
 11
87.5
 21
167.5
 31
0.0
  0
LINE
  8
0
  6
CONTINUOUS
 62
     7
 10
90.0
 20
172.5
 30
0.0
 11
90.0
 21
181.152485
 31
0.0
  0
LINE
  8
0
  6
CONTINUOUS
 62
     7
 10
97.5
 20
172.5
 30
0.0
 11
97.5
 21
167.5
 31
0.0
  0
LINE
  8
0
  6
CONTINUOUS
 62
     7
 10
97.5
 20
172.5
 30
0.0
 11
87.5
 21
172.5
 31
0.0
  0
LINE
  8
0
  6
CONTINUOUS
 62
     7
 10
92.5
 20
165.0
 30
0.0
 11
92.5
 21
160.0
 31
0.0
  0
LINE
  8
0
  6
CONTINUOUS
 62
     7
 10
95.0
 20
172.5
 30
0.0
 11
95.0
 21
175.0
 31
0.0
  0
LINE
  8
0
  6
CONTINUOUS
 62
     7
 10
92.5
 20
167.5
 30
0.0
 11
92.5
 21
165.0
 31
0.0
  0
LINE
  8
0
  6
CONTINUOUS
 62
     7
 10
92.251902
 20
170.289195
 30
0.0
 11
89.906137
 21
169.099276
 31
0.0
  0
LINE
  8
0
  6
CONTINUOUS
 62
     7
 10
89.898095
 20
168.299262
 30
0.0
 11
92.281556
 21
169.487454
 31
0.0
  0
LINE
  8
0
  6
CONTINUOUS
 62
     7
 10
89.906137
 20
171.624549
 30
0.0
 11
92.251902
 21
170.289195
 31
0.0
  0
TEXT
  8
0
  6
CONTINUOUS
 62
     7
 10
94.339999
 20
168.964455
 30
0.0
 40
2.5
  1
1
 11
94.339999
 21
168.131122
 31
0.0
 73
     1
  0
LINE
  8
0
  6
CONTINUOUS
 62
     7
 10
95.0
 20
175.0
 30
0.0
 11
93.285914
 21
180.086297
 31
0.0
  0
LINE
  8
0
  6
CONTINUOUS
 62
     7
 10
95.0
 20
180.0
 30
0.0
 11
95.0
 21
209.493304
 31
0.0
  0
LINE
  8
0
  6
CONTINUOUS
 62
     7
 10
100.0
 20
150.0
 30
0.0
 11
205.0
 21
150.0
 31
0.0
  0
LINE
  8
0
  6
CONTINUOUS
 62
     7
 10
107.5
 20
175.0
 30
0.0
 11
105.785914
 21
180.086297
 31
0.0
  0
LINE
  8
0
  6
CONTINUOUS
 62
     7
 10
107.5
 20
180.0
 30
0.0
 11
107.5
 21
221.993304
 31
0.0
  0
LINE
  8
0
  6
CONTINUOUS
 62
     7
 10
125.0
 20
175.0
 30
0.0
 11
123.285914
 21
180.086297
 31
0.0
  0
LINE
  8
0
  6
CONTINUOUS
 62
     7
 10
125.0
 20
180.0
 30
0.0
 11
125.0
 21
221.993304
 31
0.0
  0
LINE
  8
0
  6
CONTINUOUS
 62
     7
 10
125.0
 20
172.5
 30
0.0
 11
125.0
 21
175.0
 31
0.0
  0
LINE
  8
0
  6
CONTINUOUS
 62
     7
 10
130.0
 20
175.0
 30
0.0
 11
128.285914
 21
180.086297
 31
0.0
  0
LINE
  8
0
  6
CONTINUOUS
 62
     7
 10
130.0
 20
180.0
 30
0.0
 11
130.0
 21
209.493304
 31
0.0
  0
LINE
  8
0
  6
CONTINUOUS
 62
     7
 10
130.0
 20
172.5
 30
0.0
 11
130.0
 21
175.0
 31
0.0
  0
CIRCLE
  8
0
  6
CONTINUOUS
 62
     7
 10
191.512659
 20
200.784079
 30
0.0
 40
1.0
  0
LINE
  8
0
  6
CONTINUOUS
 62
     7
 10
190.513509
 20
200.825312
 30
0.0
 11
175.0
 21
200.825312
 31
0.0
  0
TEXT
  8
0
  6
DASHED
 62
     7
 10
93.895842
 20
182.281039
 30
0.0
 40
2.0
  1
SGR/6
 50
90.0
  0
TEXT
  8
0
  6
DASHED
 62
     7
 10
106.535158
 20
182.281039
 30
0.0
 40
2.0
  1
SGR/8
 50
90.0
  0
TEXT
  8
0
  6
DASHED
 62
     7
 10
124.094496
 20
182.281039
 30
0.0
 40
2.0
  1
SGR/7
 50
90.0
  0
TEXT
  8
0
  6
DASHED
 62
     7
 10
129.096405
 20
182.281039
 30
0.0
 40
2.0
  1
SGR/5
 50
90.0
  0
TEXT
  8
0
  6
DASHED
 62
     7
 10
138.792799
 20
182.281039
 30
0.0
 40
2.0
  1
SGR/3
 50
90.0
  0
TEXT
  8
0
  6
DASHED
 62
     7
 10
143.924478
 20
182.281039
 30
0.0
 40
2.0
  1
SGR/2
 50
90.0
  0
TEXT
  8
0
  6
DASHED
 62
     7
 10
149.056158
 20
182.281039
 30
0.0
 40
2.0
  1
SGR/4
 50
90.0
  0
TEXT
  8
0
 62
     7
 10
240.965704
 20
39.354458
 30
0.0
 40
1.92
  1
PE
  0
LINE
  8
0
 62
     7
 10
241.024091
 20
44.050711
 30
0.0
 11
244.073201
 21
44.050711
 31
0.0
  0
LINE
  8
0
 62
     7
 10
242.49999
 20
44.685023
 30
0.0
 11
242.49999
 21
47.500268
 31
0.0
  0
LINE
  8
0
 62
     7
 10
241.607964
 20
43.38116
 30
0.0
 11
243.527173
 21
43.38116
 31
0.0
  0
LINE
  8
0
 62
     7
 10
244.402981
 20
44.685023
 30
0.0
 11
243.80289
 21
44.685023
 31
0.0
  0
LINE
  8
0
 62
     7
 10
240.688906
 20
44.685023
 30
0.0
 11
244.381356
 21
44.685023
 31
0.0
  0
CIRCLE
  8
0
 62
     7
 10
242.505397
 20
44.195585
 30
0.0
 40
2.282738
  0
TEXT
  8
0
  6
DASHED
 62
     7
 10
107.710211
 20
236.806621
 30
0.0
 40
2.0
  1
SGR/1
  0
TEXT
  8
0
  6
DASHED
 62
     7
 10
297.5
 20
161.395869
 30
0.0
 40
2.0
  1
2)
  0
LINE
  8
0
  6
CONTINUOUS
 62
     7
 10
255.0
 20
215.0
 30
0.0
 11
272.5
 21
215.0
 31
0.0
  0
LINE
  8
0
  6
CONTINUOUS
 62
     7
 10
260.0
 20
225.0
 30
0.0
 11
272.5
 21
225.0
 31
0.0
  0
LINE
  8
0
 62
     7
 10
284.365618
 20
219.617183
 30
0.0
 11
279.2
 21
216.5
 31
0.0
  0
LINE
  8
0
 62
     7
 10
280.0
 20
215.0
 30
0.0
 11
280.0
 21
217.9
 31
0.0
  0
LINE
  8
0
 62
     7
 10
277.5
 20
215.0
 30
0.0
 11
280.0
 21
215.0
 31
0.0
  0
LINE
  8
0
 62
     7
 10
272.5
 20
215.0
 30
0.0
 11
277.5
 21
215.0
 31
0.0
  0
LINE
  8
0
  6
CONTINUOUS
 62
     7
 10
237.5
 20
220.0
 30
0.0
 11
222.950615
 21
220.0
 31
0.0
  0
LINE
  8
0
  6
CONTINUOUS
 62
     7
 10
285.740939
 20
230.0
 30
0.0
 11
290.0
 21
230.0
 31
0.0
  0
LINE
  8
0
  6
CONTINUOUS
 62
     7
 10
285.740939
 20
220.0
 30
0.0
 11
290.0
 21
220.0
 31
0.0
  0
LINE
  8
0
 62
     7
 10
275.0
 20
219.99845
 30
0.0
 11
275.0
 21
229.99845
 31
0.0
  0
LINE
  8
0
 62
     7
 10
277.5
 20
230.0
 30
0.0
 11
280.0
 21
230.0
 31
0.0
  0
LINE
  8
0
 62
     7
 10
275.0
 20
229.99845
 30
0.0
 11
277.5
 21
229.99845
 31
0.0
  0
LINE
  8
0
 62
     7
 10
272.5
 20
225.0
 30
0.0
 11
277.5
 21
225.0
 31
0.0
  0
LINE
  8
0
 62
     7
 10
277.5
 20
225.0
 30
0.0
 11
280.0
 21
225.0
 31
0.0
  0
LINE
  8
0
 62
     7
 10
280.0
 20
225.0
 30
0.0
 11
280.0
 21
227.9
 31
0.0
  0
LINE
  8
0
 62
     7
 10
278.803665
 20
227.050877
 30
0.0
 11
279.6477
 21
225.888317
 31
0.0
  0
LINE
  8
0
 62
     7
 10
284.365618
 20
229.617183
 30
0.0
 11
279.2
 21
226.5
 31
0.0
  0
LINE
  8
0
 62
     7
 10
277.5
 20
219.99845
 30
0.0
 11
275.0
 21
219.99845
 31
0.0
  0
LINE
  8
0
 62
     7
 10
277.5
 20
220.0
 30
0.0
 11
280.0
 21
220.0
 31
0.0
  0
TEXT
  8
0
  6
DASHED
 62
     7
 10
237.5
 20
157.5
 30
0.0
 40
2.0
  1
108:RX/TX
  0
TEXT
  8
0
  6
DASHED
 62
     7
 10
65.0
 20
240.228005
 30
0.0
 40
2.0
  1
101
  0
LINE
  8
0
  6
CONTINUOUS
 62
     7
 10
62.5
 20
237.5
 30
0.0
 11
92.798812
 21
237.5
 31
0.0
  0
LINE
  8
0
  6
CONTINUOUS
 62
     7
 10
190.0
 20
80.0
 30
0.0
 11
190.0
 21
120.0
 31
0.0
  0
LINE
  8
0
  6
CONTINUOUS
 62
     7
 10
195.0
 20
80.0
 30
0.0
 11
195.0
 21
130.0
 31
0.0
  0
LINE
  8
0
  6
CONTINUOUS
 62
     7
 10
205.0
 20
80.0
 30
0.0
 11
205.0
 21
150.0
 31
0.0
  0
CIRCLE
  8
0
 62
     7
 10
245.094798
 20
82.982533
 30
0.0
 40
2.032177
  0
LINE
  8
0
 62
     7
 10
244.659082
 20
81.365425
 30
0.0
 11
244.659082
 21
84.652581
 31
0.0
  0
LINE
  8
0
 62
     7
 10
244.659082
 20
84.671832
 30
0.0
 11
244.659082
 21
84.13761
 31
0.0
  0
LINE
  8
0
 62
     7
 10
245.819828
 20
82.183605
 30
0.0
 11
245.819828
 21
83.892156
 31
0.0
  0
LINE
  8
0
 62
     7
 10
244.659082
 20
82.97772
 30
0.0
 11
243.287521
 21
82.97772
 31
0.0
  0
LINE
  8
0
 62
     7
 10
245.22377
 20
81.66382
 30
0.0
 11
245.22377
 21
84.378251
 31
0.0
  0
LINE
  8
0
 62
     7
 10
278.803665
 20
217.050877
 30
0.0
 11
279.6477
 21
215.888317
 31
0.0
  0
LINE
  8
0
  6
CONTINUOUS
 62
     7
 10
237.5
 20
214.5
 30
0.0
 11
238.5
 21
213.5
 31
0.0
  0
LINE
  8
0
  6
CONTINUOUS
 62
     7
 10
237.5
 20
225.5
 30
0.0
 11
238.5
 21
226.5
 31
0.0
  0
LINE
  8
0
  6
CONTINUOUS
 62
     7
 10
237.5
 20
225.5
 30
0.0
 11
237.5
 21
214.5
 31
0.0
  0
TEXT
  8
0
  6
CONTINUOUS
 62
     7
 10
285.0
 20
226.314325
 30
0.0
 40
2.0
  1
9A
  0
TEXT
  8
0
  6
CONTINUOUS
 62
     7
 10
285.0
 20
216.666667
 30
0.0
 40
2.0
  1
10A
  0
TEXT
  8
0
  6
CONTINUOUS
 62
     7
 10
215.723253
 20
218.920427
 30
0.0
 40
2.5
  1
I
  0
LINE
  8
0
  6
CONTINUOUS
 62
     7
 10
150.0
 20
92.5
 30
0.0
 11
62.5
 21
92.5
 31
0.0
  0
LINE
  8
0
  6
CONTINUOUS
 62
     7
 10
150.0
 20
97.5
 30
0.0
 11
62.5
 21
97.5
 31
0.0
  0
LINE
  8
0
  6
CONTINUOUS
 62
     7
 10
172.5
 20
92.5
 30
0.0
 11
150.0
 21
92.5
 31
0.0
  0
LINE
  8
0
  6
CONTINUOUS
 62
     7
 10
150.0
 20
97.5
 30
0.0
 11
170.0
 21
97.5
 31
0.0
  0
TEXT
  8
0
  6
DASHED
 62
     7
 10
168.171573
 20
98.364654
 30
0.0
 40
2.0
  1
E
  0
LINE
  8
0
  6
CONTINUOUS
 62
     7
 10
177.5
 20
97.5
 30
0.0
 11
171.756076
 21
94.285297
 31
0.0
  0
LINE
  8
0
  6
CONTINUOUS
 62
     7
 10
172.5
 20
92.5
 30
0.0
 11
172.5
 21
95.0
 31
0.0
  0
LINE
  8
0
  6
DASHED
 62
     7
 10
35.0
 20
110.0
 30
0.0
 11
25.0
 21
110.0
 31
0.0
  0
LINE
  8
0
  6
DASHED
 62
     7
 10
35.0
 20
105.0
 30
0.0
 11
25.0
 21
105.0
 31
0.0
  0
LINE
  8
0
  6
CONTINUOUS
 62
     7
 10
180.0
 20
97.5
 30
0.0
 11
177.5
 21
97.5
 31
0.0
  0
LINE
  8
0
  6
CONTINUOUS
 62
     7
 10
185.0
 20
80.0
 30
0.0
 11
185.0
 21
110.0
 31
0.0
  0
TEXT
  8
0
  6
CONTINUOUS
 62
     7
 10
152.169974
 20
110.935215
 30
0.0
 40
2.0
  1
F
  0
LINE
  8
0
  6
DASHED
 62
     7
 10
160.0
 20
160.0
 30
0.0
 11
160.0
 21
107.5
 31
0.0
  0
LINE
  8
0
  6
CONTINUOUS
 62
     7
 10
160.0
 20
230.0
 30
0.0
 11
160.0
 21
165.0
 31
0.0
  0
LINE
  8
0
  6
CONTINUOUS
 62
     7
 10
160.0
 20
165.0
 30
0.0
 11
160.0
 21
160.0
 31
0.0
  0
LINE
  8
0
  6
CONTINUOUS
 62
     7
 10
22.5
 20
150.5
 30
0.0
 11
23.5
 21
151.5
 31
0.0
  0
LINE
  8
0
  6
CONTINUOUS
 62
     7
 10
22.5
 20
150.5
 30
0.0
 11
22.5
 21
139.5
 31
0.0
  0
LINE
  8
0
  6
CONTINUOUS
 62
     7
 10
22.5
 20
139.5
 30
0.0
 11
23.5
 21
138.5
 31
0.0
  0
TEXT
  8
0
  6
CONTINUOUS
 62
     7
 10
380.0
 20
2.5
 30
0.0
 40
2.5
  1
B
  0
TEXT
  8
0
  6
CONTINUOUS
 62
     7
 10
213.206948
 20
28.31186
 30
0.0
 40
2.0
  1
1992-09-07 HJ / RITU
  0
TEXT
  8
0
  6
CONTINUOUS
 62
     7
 10
49.323691
 20
1.183965
 30
0.0
 40
2.0
  1
REDRAWN WITH AUTOCAD 1992-09-07 HJ / RITU
  0
TEXT
  8
0
  6
CONTINUOUS
 62
     7
 10
348.082593
 20
235.817785
 30
0.0
 40
2.5
  1
I
  0
TEXT
  8
0
  6
CONTINUOUS
 62
     7
 10
348.082593
 20
225.772864
 30
0.0
 40
2.5
  1
I
  0
TEXT
  8
0
  6
CONTINUOUS
 62
     7
 10
261.096827
 20
225.996008
 30
0.0
 40
2.0
  1
7)
  0
LINE
  8
0
  6
CONTINUOUS
 62
     7
 10
255.0
 20
220.0
 30
0.0
 11
257.5
 21
220.0
 31
0.0
  0
LINE
  8
0
  6
CONTINUOUS
 62
     7
 10
255.0
 20
225.0
 30
0.0
 11
257.5
 21
225.0
 31
0.0
  0
LINE
  8
0
  6
CONTINUOUS
 62
     7
 10
260.0
 20
225.3468
 30
0.0
 11
259.0
 21
226.3468
 31
0.0
  0
LINE
  8
0
  6
CONTINUOUS
 62
     7
 10
260.0
 20
219.66187
 30
0.0
 11
259.0
 21
218.66187
 31
0.0
  0
LINE
  8
0
  6
CONTINUOUS
 62
     7
 10
260.0
 20
225.3468
 30
0.0
 11
260.0
 21
219.66187
 31
0.0
  0
LINE
  8
0
  6
CONTINUOUS
 62
     7
 10
230.0
 20
100.429605
 30
0.0
 11
230.0
 21
97.5
 31
0.0
  0
LINE
  8
0
  6
CONTINUOUS
 62
     7
 10
225.0
 20
100.429605
 30
0.0
 11
225.0
 21
97.5
 31
0.0
  0
LINE
  8
0
  6
CONTINUOUS
 62
     7
 10
230.0
 20
115.0
 30
0.0
 11
230.0
 21
109.752154
 31
0.0
  0
LINE
  8
0
  6
CONTINUOUS
 62
     7
 10
225.0
 20
115.0
 30
0.0
 11
225.0
 21
109.752154
 31
0.0
  0
LINE
  8
0
 62
     7
 10
227.466311
 20
102.72844
 30
0.0
 11
231.466311
 21
102.72844
 31
0.0
  0
LINE
  8
0
 62
     7
 10
223.709901
 20
107.674464
 30
0.0
 11
227.709901
 21
107.674464
 31
0.0
  0
LINE
  8
0
 62
     7
 10
222.795103
 20
101.386207
 30
0.0
 11
231.158613
 21
109.752154
 31
0.0
  0
LINE
  8
0
 62
     7
 10
223.779395
 20
100.429605
 30
0.0
 11
232.119756
 21
108.767352
 31
0.0
  0
LINE
  8
0
 62
     7
 10
222.795103
 20
100.429605
 30
0.0
 11
222.795103
 21
109.752154
 31
0.0
  0
LINE
  8
0
 62
     7
 10
232.119756
 20
100.429605
 30
0.0
 11
222.795103
 21
100.429605
 31
0.0
  0
LINE
  8
0
 62
     7
 10
232.119756
 20
109.752154
 30
0.0
 11
232.119756
 21
100.429605
 31
0.0
  0
LINE
  8
0
 62
     7
 10
222.795103
 20
109.752154
 30
0.0
 11
232.119756
 21
109.752154
 31
0.0
  0
TEXT
  8
0
  6
CONTINUOUS
 62
     7
 10
224.366734
 20
115.55315
 30
0.0
 40
2.0
  1
+
  0
TEXT
  8
0
  6
CONTINUOUS
 62
     7
 10
229.297086
 20
115.577719
 30
0.0
 40
2.0
  1
-
  0
ARC
  8
0
 62
     7
 10
228.672927
 20
100.936221
 30
0.0
 40
0.869227
 50
32.471192
 51
175.601295
  0
ARC
  8
0
 62
     7
 10
230.139595
 20
101.869554
 30
0.0
 40
0.869227
 50
212.471192
 51
355.601295
  0
TEXT
  8
0
  6
CONTINUOUS
 62
     7
 10
178.519596
 20
64.287845
 30
0.0
 40
2.0
  1
101
 50
90.0
  0
TEXT
  8
0
  6
CONTINUOUS
 62
     7
 10
213.210796
 20
55.930264
 30
0.0
 40
2.0
  1
18A
 50
90.0
  0
TEXT
  8
0
  6
CONTINUOUS
 62
     7
 10
208.23436
 20
55.930264
 30
0.0
 40
2.0
  1
1A
 50
90.0
  0
TEXT
  8
0
  6
CONTINUOUS
 62
     7
 10
198.36568
 20
55.930264
 30
0.0
 40
2.0
  1
2A
 50
90.0
  0
TEXT
  8
0
  6
CONTINUOUS
 62
     7
 10
193.545241
 20
55.930264
 30
0.0
 40
2.0
  1
13A
 50
90.0
  0
LINE
  8
0
  6
CONTINUOUS
 62
     7
 10
210.0
 20
62.5
 30
0.0
 11
210.0
 21
55.0
 31
0.0
  0
LINE
  8
0
  6
CONTINUOUS
 62
     7
 10
210.0
 20
75.0
 30
0.0
 11
210.0
 21
70.0
 31
0.0
  0
LINE
  8
0
  6
CONTINUOUS
 62
     7
 10
196.653032
 20
75.813541
 30
0.0
 11
196.653032
 21
77.500506
 31
0.0
  0
LINE
  8
0
  6
CONTINUOUS
 62
     7
 10
196.653032
 20
77.500506
 30
0.0
 11
198.320406
 21
77.500506
 31
0.0
  0
LINE
  8
0
  6
CONTINUOUS
 62
     7
 10
198.320406
 20
77.500506
 30
0.0
 11
198.320406
 21
75.813541
 31
0.0
  0
LINE
  8
0
  6
CONTINUOUS
 62
     7
 10
198.320406
 20
75.813541
 30
0.0
 11
196.653032
 21
75.813541
 31
0.0
  0
LINE
  8
0
  6
CONTINUOUS
 62
     7
 10
193.380893
 20
77.344644
 30
0.0
 11
191.713519
 21
77.344644
 31
0.0
  0
LINE
  8
0
  6
CONTINUOUS
 62
     7
 10
193.380893
 20
79.031609
 30
0.0
 11
193.380893
 21
77.344644
 31
0.0
  0
LINE
  8
0
  6
CONTINUOUS
 62
     7
 10
191.713519
 20
79.031609
 30
0.0
 11
193.380893
 21
79.031609
 31
0.0
  0
LINE
  8
0
  6
CONTINUOUS
 62
     7
 10
191.713519
 20
77.344644
 30
0.0
 11
191.713519
 21
79.031609
 31
0.0
  0
TEXT
  8
0
  6
DASHED
 62
     7
 10
213.218527
 20
71.84782
 30
0.0
 40
2.0
  1
18B-
 50
90.0
  0
TEXT
  8
0
  6
DASHED
 62
     7
 10
208.236794
 20
71.84782
 30
0.0
 40
2.0
  1
1B+
 50
90.0
  0
TEXT
  8
0
  6
DASHED
 62
     7
 10
198.501904
 20
71.84782
 30
0.0
 40
2.0
  1
2B
 50
90.0
  0
TEXT
  8
0
  6
DASHED
 62
     7
 10
193.541207
 20
71.84782
 30
0.0
 40
2.0
  1
13B
 50
90.0
  0
LINE
  8
0
  6
DASHED
 62
     7
 10
225.0
 20
80.0
 30
0.0
 11
225.0
 21
55.0
 31
0.0
  0
LINE
  8
0
  6
CONTINUOUS
 62
     7
 10
185.0
 20
75.0
 30
0.0
 11
190.0
 21
75.0
 31
0.0
  0
LINE
  8
0
  6
CONTINUOUS
 62
     7
 10
185.0
 20
80.0
 30
0.0
 11
185.0
 21
75.0
 31
0.0
  0
LINE
  8
0
  6
CONTINUOUS
 62
     7
 10
205.0
 20
80.0
 30
0.0
 11
205.0
 21
70.0
 31
0.0
  0
CIRCLE
  8
0
  6
CONTINUOUS
 62
     7
 10
205.0
 20
63.241055
 30
0.0
 40
0.740939
  0
LINE
  8
0
  6
CONTINUOUS
 62
     7
 10
205.0
 20
62.5
 30
0.0
 11
205.0
 21
55.0
 31
0.0
  0
LINE
  8
0
  6
CONTINUOUS
 62
     7
 10
190.0
 20
62.5
 30
0.0
 11
190.0
 21
55.0
 31
0.0
  0
CIRCLE
  8
0
  6
CONTINUOUS
 62
     7
 10
190.0
 20
63.241055
 30
0.0
 40
0.740939
  0
LINE
  8
0
  6
CONTINUOUS
 62
     7
 10
189.993411
 20
63.981965
 30
0.0
 11
192.434804
 21
70.662841
 31
0.0
  0
LINE
  8
0
  6
CONTINUOUS
 62
     7
 10
190.0
 20
70.0
 30
0.0
 11
192.765661
 21
70.0
 31
0.0
  0
LINE
  8
0
  6
CONTINUOUS
 62
     7
 10
192.434804
 20
70.662841
 30
0.0
 11
191.549106
 21
71.107734
 31
0.0
  0
LINE
  8
0
  6
CONTINUOUS
 62
     7
 10
190.0
 20
80.0
 30
0.0
 11
190.0
 21
70.0
 31
0.0
  0
LINE
  8
0
  6
CONTINUOUS
 62
     7
 10
195.0
 20
62.5
 30
0.0
 11
195.0
 21
55.0
 31
0.0
  0
CIRCLE
  8
0
  6
CONTINUOUS
 62
     7
 10
195.0
 20
63.241055
 30
0.0
 40
0.740939
  0
LINE
  8
0
  6
CONTINUOUS
 62
     7
 10
195.0
 20
80.0
 30
0.0
 11
195.0
 21
70.0
 31
0.0
  0
LINE
  8
0
  6
CONTINUOUS
 62
     7
 10
194.993411
 20
63.981965
 30
0.0
 11
197.434804
 21
70.662841
 31
0.0
  0
LINE
  8
0
  6
CONTINUOUS
 62
     7
 10
195.0
 20
70.0
 30
0.0
 11
197.765661
 21
70.0
 31
0.0
  0
LINE
  8
0
  6
CONTINUOUS
 62
     7
 10
207.434804
 20
70.662841
 30
0.0
 11
206.549106
 21
71.107734
 31
0.0
  0
LINE
  8
0
  6
CONTINUOUS
 62
     7
 10
205.0
 20
70.0
 30
0.0
 11
207.765661
 21
70.0
 31
0.0
  0
LINE
  8
0
  6
CONTINUOUS
 62
     7
 10
204.993411
 20
63.981965
 30
0.0
 11
207.434804
 21
70.662841
 31
0.0
  0
LINE
  8
0
  6
CONTINUOUS
 62
     7
 10
209.993411
 20
63.981965
 30
0.0
 11
212.434804
 21
70.662841
 31
0.0
  0
LINE
  8
0
  6
CONTINUOUS
 62
     7
 10
210.0
 20
70.0
 30
0.0
 11
212.765661
 21
70.0
 31
0.0
  0
LINE
  8
0
  6
CONTINUOUS
 62
     7
 10
212.434804
 20
70.662841
 30
0.0
 11
211.549106
 21
71.107734
 31
0.0
  0
CIRCLE
  8
0
  6
CONTINUOUS
 62
     7
 10
210.0
 20
63.241055
 30
0.0
 40
0.740939
  0
LINE
  8
0
  6
DASHED
 62
     7
 10
230.0
 20
80.0
 30
0.0
 11
230.0
 21
55.0
 31
0.0
  0
TEXT
  8
0
  6
CONTINUOUS
 62
     7
 10
65.0
 20
234.063641
 30
0.0
 40
2.0
  1
10
  0
TEXT
  8
0
  6
CONTINUOUS
 62
     7
 10
65.0
 20
229.135029
 30
0.0
 40
2.0
  1
11
  0
TEXT
  8
0
  6
CONTINUOUS
 62
     7
 10
65.0
 20
145.951066
 30
0.0
 40
2.0
  1
65
  0
TEXT
  8
0
  6
CONTINUOUS
 62
     7
 10
65.0
 20
136.184598
 30
0.0
 40
2.0
  1
68
  0
TEXT
  8
0
  6
CONTINUOUS
 62
     7
 10
65.0
 20
126.27074
 30
0.0
 40
2.0
  1
80
  0
TEXT
  8
0
  6
CONTINUOUS
 62
     7
 10
65.0
 20
116.053433
 30
0.0
 40
2.0
  1
77
  0
TEXT
  8
0
  6
CONTINUOUS
 62
     7
 10
65.0
 20
106.451695
 30
0.0
 40
2.0
  1
74
  0
TEXT
  8
0
  6
CONTINUOUS
 62
     7
 10
65.0
 20
101.236974
 30
0.0
 40
2.0
  1
73
  0
TEXT
  8
0
  6
CONTINUOUS
 62
     7
 10
65.0
 20
93.984804
 30
0.0
 40
2.0
  1
70
  0
TEXT
  8
0
  6
CONTINUOUS
 62
     7
 10
65.0
 20
88.777603
 30
0.0
 40
2.0
  1
71
  0
TEXT
  8
0
  6
CONTINUOUS
 62
     7
 10
183.71024
 20
81.192729
 30
0.0
 40
2.0
  1
72
 50
90.0
  0
TEXT
  8
0
  6
CONTINUOUS
 62
     7
 10
188.551901
 20
81.192729
 30
0.0
 40
2.0
  1
75
 50
90.0
  0
TEXT
  8
0
  6
CONTINUOUS
 62
     7
 10
193.848455
 20
81.192729
 30
0.0
 40
2.0
  1
78
 50
90.0
  0
TEXT
  8
0
  6
CONTINUOUS
 62
     7
 10
198.570408
 20
81.192729
 30
0.0
 40
2.0
  1
81
 50
90.0
  0
TEXT
  8
0
  6
CONTINUOUS
 62
     7
 10
203.400098
 20
81.192729
 30
0.0
 40
2.0
  1
69
 50
90.0
  0
TEXT
  8
0
  6
CONTINUOUS
 62
     7
 10
208.122051
 20
81.192729
 30
0.0
 40
2.0
  1
66
 50
90.0
  0
TEXT
  8
0
  6
CONTINUOUS
 62
     7
 10
228.454001
 20
81.192729
 30
0.0
 40
2.0
  1
61
 50
90.0
  0
TEXT
  8
0
  6
CONTINUOUS
 62
     7
 10
233.523109
 20
81.192729
 30
0.0
 40
2.0
  1
62
 50
90.0
  0
LINE
  8
0
 62
     7
 10
240.0
 20
217.5
 30
0.0
 11
238.480133
 21
217.5
 31
0.0
  0
ARC
  8
0
 62
     7
 10
240.065849
 20
218.75
 30
0.0
 40
1.251733
 50
266.984476
 51
93.015524
  0
LINE
  8
0
 62
     7
 10
240.0
 20
220.0
 30
0.0
 11
238.480133
 21
220.0
 31
0.0
  0
LINE
  8
0
 62
     7
 10
240.0
 20
222.5
 30
0.0
 11
238.480133
 21
222.5
 31
0.0
  0
ARC
  8
0
 62
     7
 10
240.065849
 20
221.25
 30
0.0
 40
1.251733
 50
266.984476
 51
93.015524
  0
LINE
  8
0
 62
     7
 10
245.0
 20
215.0
 30
0.0
 11
247.5
 21
215.0
 31
0.0
  0
ARC
  8
0
 62
     7
 10
244.934151
 20
216.25
 30
0.0
 40
1.251733
 50
86.984476
 51
273.015524
  0
ARC
  8
0
 62
     7
 10
244.934151
 20
218.75
 30
0.0
 40
1.251733
 50
86.984476
 51
273.015524
  0
LINE
  8
0
 62
     7
 10
245.0
 20
217.5
 30
0.0
 11
247.5
 21
217.5
 31
0.0
  0
LINE
  8
0
 62
     7
 10
245.0
 20
220.0
 30
0.0
 11
247.5
 21
220.0
 31
0.0
  0
LINE
  8
0
 62
     7
 10
247.5
 20
220.0
 30
0.0
 11
250.0
 21
220.0
 31
0.0
  0
LINE
  8
0
 62
     7
 10
247.5
 20
215.0
 30
0.0
 11
255.0
 21
215.0
 31
0.0
  0
LINE
  8
0
 62
     7
 10
247.5
 20
220.0
 30
0.0
 11
255.0
 21
220.0
 31
0.0
  0
LINE
  8
0
 62
     7
 10
247.5
 20
225.0
 30
0.0
 11
255.0
 21
225.0
 31
0.0
  0
LINE
  8
0
 62
     7
 10
245.0
 20
225.0
 30
0.0
 11
247.5
 21
225.0
 31
0.0
  0
LINE
  8
0
 62
     7
 10
245.0
 20
222.5
 30
0.0
 11
247.5
 21
222.5
 31
0.0
  0
ARC
  8
0
 62
     7
 10
244.934151
 20
223.75
 30
0.0
 40
1.251733
 50
86.984476
 51
273.015524
  0
ARC
  8
0
 62
     7
 10
244.934151
 20
221.25
 30
0.0
 40
1.251733
 50
86.984476
 51
273.015524
  0
LINE
  8
0
 62
     7
 10
245.0
 20
220.0
 30
0.0
 11
247.5
 21
220.0
 31
0.0
  0
TEXT
  8
0
  6
CONTINUOUS
 62
     7
 10
250.0
 20
221.667681
 30
0.0
 40
2.0
  1
27
  0
TEXT
  8
0
  6
CONTINUOUS
 62
     7
 10
250.0
 20
216.678379
 30
0.0
 40
2.0
  1
26
  0
TEXT
  8
0
  6
CONTINUOUS
 62
     7
 10
250.0
 20
212.087897
 30
0.0
 40
2.0
  1
25
  0
TEXT
  8
0
  6
CONTINUOUS
 62
     7
 10
266.391712
 20
220.851014
 30
0.0
 40
2.5
  1
I
  0
TEXT
  8
0
  6
CONTINUOUS
 62
     7
 10
266.391712
 20
210.880522
 30
0.0
 40
2.5
  1
I
  0
TEXT
  8
0
  6
CONTINUOUS
 62
     7
 10
276.256935
 20
221.689956
 30
0.0
 40
2.0
  1
9B
  0
TEXT
  8
0
  6
CONTINUOUS
 62
     7
 10
276.256935
 20
212.122898
 30
0.0
 40
2.0
  1
10B
  0
TEXT
  8
0
  6
CONTINUOUS
 62
     7
 10
278.327893
 20
232.085277
 30
0.0
 40
2.0
  1
101
  0
CIRCLE
  8
0
  6
CONTINUOUS
 62
     7
 10
285.0
 20
230.0
 30
0.0
 40
0.740939
  0
LINE
  8
0
  6
DASHED
 62
     7
 10
242.5
 20
80.0
 30
0.0
 11
242.5
 21
55.0
 31
0.0
  0
LINE
  8
0
  6
CONTINUOUS
 62
     7
 10
200.0
 20
75.0
 30
0.0
 11
205.0
 21
75.0
 31
0.0
  0
LINE
  8
0
  6
CONTINUOUS
 62
     7
 10
200.0
 20
80.0
 30
0.0
 11
200.0
 21
75.0
 31
0.0
  0
LINE
  8
0
  6
DASHED
 62
     7
 10
180.0
 20
80.0
 30
0.0
 11
180.0
 21
55.0
 31
0.0
  0
LINE
  8
0
  6
CONTINUOUS
 62
     7
 10
60.602903
 20
233.943746
 30
0.0
 11
59.536478
 21
235.010171
 31
0.0
  0
LINE
  8
0
  6
CONTINUOUS
 62
     7
 10
59.536478
 20
235.010171
 30
0.0
 11
60.602903
 21
236.076595
 31
0.0
  0
LINE
  8
0
  6
CONTINUOUS
 62
     7
 10
60.602903
 20
236.076595
 30
0.0
 11
61.669328
 21
235.010171
 31
0.0
  0
LINE
  8
0
  6
CONTINUOUS
 62
     7
 10
61.669328
 20
235.010171
 30
0.0
 11
60.602903
 21
233.943746
 31
0.0
  0
TEXT
  8
0
  6
DASHED
 62
     7
 10
54.077955
 20
234.018385
 30
0.0
 40
2.0
  1
14B
  0
TEXT
  8
0
  6
DASHED
 62
     7
 10
45.0
 20
243.402046
 30
0.0
 40
2.0
  1
101
  0
TEXT
  8
0
  6
DASHED
 62
     7
 10
36.839664
 20
233.897161
 30
0.0
 40
2.0
  1
14A 
  0
LINE
  8
0
  6
DASHED
 62
     7
 10
52.499883
 20
237.500025
 30
0.0
 11
62.511081
 21
237.500025
 31
0.0
  0
LINE
  8
0
  6
DASHED
 62
     7
 10
35.0
 20
237.491507
 30
0.0
 11
45.0
 21
237.491507
 31
0.0
  0
LINE
  8
0
  6
CONTINUOUS
 62
     7
 10
51.018035
 20
237.493411
 30
0.0
 11
44.337159
 21
239.934804
 31
0.0
  0
LINE
  8
0
  6
CONTINUOUS
 62
     7
 10
45.0
 20
237.491507
 30
0.0
 11
45.0
 21
240.265661
 31
0.0
  0
LINE
  8
0
  6
CONTINUOUS
 62
     7
 10
44.337159
 20
239.934804
 30
0.0
 11
43.892266
 21
239.049106
 31
0.0
  0
CIRCLE
  8
0
  6
CONTINUOUS
 62
     7
 10
51.758945
 20
237.5
 30
0.0
 40
0.740939
  0
LINE
  8
0
  6
DASHED
 62
     7
 10
62.5
 20
232.5
 30
0.0
 11
35.0
 21
232.5
 31
0.0
  0
CIRCLE
  8
0
  6
CONTINUOUS
 62
     7
 10
59.550439
 20
147.086922
 30
0.0
 40
0.596352
  0
CIRCLE
  8
0
  6
CONTINUOUS
 62
     7
 10
59.550439
 20
147.086922
 30
0.0
 40
1.252595
  0
LINE
  8
0
  6
CONTINUOUS
 62
     7
 10
52.499883
 20
150.000025
 30
0.0
 11
62.511081
 21
150.000025
 31
0.0
  0
LINE
  8
0
  6
CONTINUOUS
 62
     7
 10
35.0
 20
149.991507
 30
0.0
 11
45.0
 21
149.991507
 31
0.0
  0
LINE
  8
0
  6
CONTINUOUS
 62
     7
 10
51.018035
 20
149.993411
 30
0.0
 11
44.337159
 21
152.434804
 31
0.0
  0
LINE
  8
0
  6
CONTINUOUS
 62
     7
 10
45.0
 20
149.991507
 30
0.0
 11
45.0
 21
152.765661
 31
0.0
  0
CIRCLE
  8
0
  6
CONTINUOUS
 62
     7
 10
51.758945
 20
150.0
 30
0.0
 40
0.740939
  0
LINE
  8
0
  6
CONTINUOUS
 62
     7
 10
52.499883
 20
140.000025
 30
0.0
 11
62.511081
 21
140.000025
 31
0.0
  0
LINE
  8
0
  6
CONTINUOUS
 62
     7
 10
35.0
 20
139.991507
 30
0.0
 11
45.0
 21
139.991507
 31
0.0
  0
LINE
  8
0
  6
CONTINUOUS
 62
     7
 10
51.018035
 20
139.993411
 30
0.0
 11
44.337159
 21
142.434804
 31
0.0
  0
LINE
  8
0
  6
CONTINUOUS
 62
     7
 10
45.0
 20
139.991507
 30
0.0
 11
45.0
 21
142.765661
 31
0.0
  0
CIRCLE
  8
0
  6
CONTINUOUS
 62
     7
 10
51.758945
 20
140.0
 30
0.0
 40
0.740939
  0
LINE
  8
0
  6
DASHED
 62
     7
 10
62.5
 20
130.0
 30
0.0
 11
35.0
 21
130.0
 31
0.0
  0
LINE
  8
0
  6
DASHED
 62
     7
 10
62.5
 20
120.0
 30
0.0
 11
35.0
 21
120.0
 31
0.0
  0
LINE
  8
0
  6
DASHED
 62
     7
 10
62.5
 20
110.0
 30
0.0
 11
35.0
 21
110.0
 31
0.0
  0
LINE
  8
0
  6
DASHED
 62
     7
 10
62.5
 20
105.0
 30
0.0
 11
35.0
 21
105.0
 31
0.0
  0
LINE
  8
0
  6
DASHED
 62
     7
 10
62.5
 20
92.5
 30
0.0
 11
35.0
 21
92.5
 31
0.0
  0
TEXT
  8
0
  6
DASHED
 62
     7
 10
45.0
 20
155.0
 30
0.0
 40
2.0
  1
101
  0
TEXT
  8
0
  6
DASHED
 62
     7
 10
37.5
 20
145.948071
 30
0.0
 40
2.0
  1
17A
  0
TEXT
  8
0
  6
DASHED
 62
     7
 10
37.5
 20
136.138254
 30
0.0
 40
2.0
  1
16A
  0
TEXT
  8
0
  6
DASHED
 62
     7
 10
52.5
 20
145.948071
 30
0.0
 40
2.0
  1
17B
  0
TEXT
  8
0
  6
DASHED
 62
     7
 10
52.5
 20
136.164264
 30
0.0
 40
2.0
  1
16B
  0
LINE
  8
0
  6
CENTER
 62
     7
 10
290.0
 20
252.5
 30
0.0
 11
290.0
 21
55.0
 31
0.0
  0
LINE
  8
0
  6
CENTER
 62
     7
 10
290.0
 20
55.0
 30
0.0
 11
35.0
 21
55.0
 31
0.0
  0
LINE
  8
0
  6
CENTER
 62
     7
 10
35.0
 20
55.0
 30
0.0
 11
35.0
 21
252.5
 31
0.0
  0
LINE
  8
0
  6
CENTER
 62
     7
 10
35.0
 20
252.5
 30
0.0
 11
290.0
 21
252.5
 31
0.0
  0
TEXT
  8
0
  6
CENTER
 62
     7
 10
62.900352
 20
248.460307
 30
0.0
 40
2.0
  1
108
  0
TEXT
  8
0
  6
CENTER
 62
     7
 10
35.870157
 20
253.592942
 30
0.0
 40
2.0
  1
101
  0
TEXT
  8
0
  6
CENTER
 62
     7
 10
335.0
 20
215.0
 30
0.0
 40
2.0
  1
NEUTRAL CURRENT RELAY
  0
TEXT
  8
0
  6
CENTER
 62
     7
 10
335.0
 20
211.666667
 30
0.0
 40
2.0
  1
JORDSTRÖMSRELÖ
  0
TEXT
  8
0
  6
DASHED
 62
     7
 10
364.711341
 20
192.140379
 30
0.0
 40
2.0
  1
4S
  0
TEXT
  8
0
  6
DASHED
 62
     7
 10
352.117517
 20
200.041706
 30
0.0
 40
2.0
  1
30C
  0
TEXT
  8
0
  6
DASHED
 62
     7
 10
351.749881
 20
196.800442
 30
0.0
 40
2.0
  1
108
  0
TEXT
  8
0
  6
DASHED
 62
     7
 10
343.864387
 20
196.816142
 30
0.0
 40
2.0
  1
101  
  0
LINE
  8
0
  6
CONTINUOUS
 62
     7
 10
342.874793
 20
199.318353
 30
0.0
 11
363.553957
 21
199.318353
 31
0.0
  0
LINE
  8
0
  6
CONTINUOUS
 62
     7
 10
363.553957
 20
199.318353
 30
0.0
 11
363.553957
 21
185.172845
 31
0.0
  0
LINE
  8
0
  6
CONTINUOUS
 62
     7
 10
363.553957
 20
185.172845
 30
0.0
 11
342.874793
 21
185.172845
 31
0.0
  0
LINE
  8
0
  6
CONTINUOUS
 62
     7
 10
342.874793
 20
185.172845
 30
0.0
 11
342.874793
 21
199.318353
 31
0.0
  0
LINE
  8
0
  6
CONTINUOUS
 62
     7
 10
349.402051
 20
199.318353
 30
0.0
 11
349.402051
 21
185.172845
 31
0.0
  0
LINE
  8
0
  6
CONTINUOUS
 62
     7
 10
351.216235
 20
199.318353
 30
0.0
 11
351.216235
 21
185.172845
 31
0.0
  0
TEXT
  8
0
  6
CENTER
 62
     7
 10
342.981827
 20
182.5
 30
0.0
 40
2.0
  1
101 RTXP 18
  0
TEXT
  8
0
  6
CENTER
 62
     7
 10
342.981827
 20
179.166667
 30
0.0
 40
2.0
  1
RK 926 115-AD
  0
TEXT
  8
0
  6
CENTER
 62
     7
 10
342.981827
 20
175.833333
 30
0.0
 40
2.0
  1
108 SPAJ 110C
  0
TEXT
  8
0
  6
DASHED
 62
     7
 10
377.336826
 20
54.986642
 30
0.0
 40
2.0
  1
26
  7
TXT
  0
TEXT
  8
0
  6
DASHED
 62
     7
 10
361.399666
 20
54.986642
 30
0.0
 40
2.0
  1
27
  7
TXT
  0
TEXT
  8
0
  6
DASHED
 62
     7
 10
348.267142
 20
54.986642
 30
0.0
 40
2.0
  1
9B
  7
TXT
  0
LINE
  8
0
 62
     7
 10
386.00882
 20
76.171798
 30
0.0
 11
342.00882
 21
76.171798
 31
0.0
  0
LINE
  8
0
 62
     7
 10
342.00882
 20
76.171798
 30
0.0
 11
342.00882
 21
53.671798
 31
0.0
  0
LINE
  8
0
 62
     7
 10
342.00882
 20
53.671798
 30
0.0
 11
386.00882
 21
53.671798
 31
0.0
  0
LINE
  8
0
 62
     7
 10
386.00882
 20
53.671798
 30
0.0
 11
386.00882
 21
76.171798
 31
0.0
  0
LINE
  8
0
 62
     7
 10
342.00882
 20
70.171798
 30
0.0
 11
386.00882
 21
70.171798
 31
0.0
  0
LINE
  8
0
 62
     7
 10
356.00882
 20
70.171798
 30
0.0
 11
356.00882
 21
53.671798
 31
0.0
  0
LINE
  8
0
 62
     7
 10
356.00882
 20
64.171798
 30
0.0
 11
386.00882
 21
64.171798
 31
0.0
  0
LINE
  8
0
 62
     7
 10
370.00882
 20
64.171798
 30
0.0
 11
370.00882
 21
53.671798
 31
0.0
  0
LINE
  8
0
 62
     7
 10
342.00882
 20
58.171798
 30
0.0
 11
386.00882
 21
58.171798
 31
0.0
  0
TEXT
  8
0
 62
     7
 10
348.00882
 20
70.838465
 30
0.0
 40
2.0
  1
TERMINALS / UTTAG
 11
348.00882
 21
70.171798
 31
0.0
 73
     1
  0
TEXT
  8
0
 62
     7
 10
348.00882
 20
64.838465
 30
0.0
 40
2.0
  1
101:       
 11
348.00882
 21
64.171798
 31
0.0
 73
     1
  0
TEXT
  8
0
 62
     7
 10
368.00882
 20
64.838465
 30
0.0
 40
2.0
  1
108:
 11
368.00882
 21
64.171798
 31
0.0
 73
     1
  0
TEXT
  8
0
 62
     7
 10
358.00882
 20
60.190984
 30
0.0
 40
2.0
  1
In=1A 
 11
358.00882
 21
59.524317
 31
0.0
 73
     1
  0
TEXT
  8
0
 62
     7
 10
374.00882
 20
60.190984
 30
0.0
 40
2.0
  1
In=5A
 11
374.00882
 21
59.524317
 31
0.0
 73
     1
  0
TEXT
  8
0
  6
CENTER
 62
     7
 10
335.0
 20
77.5
 30
0.0
 40
2.0
  1
7)
  0
LINE
  8
0
  6
CONTINUOUS
 62
     7
 10
302.5
 20
230.5
 30
0.0
 11
302.5
 21
219.5
 31
0.0
  0
LINE
  8
0
  6
CONTINUOUS
 62
     7
 10
302.5
 20
230.5
 30
0.0
 11
301.5
 21
231.5
 31
0.0
  0
LINE
  8
0
  6
CONTINUOUS
 62
     7
 10
302.5
 20
219.5
 30
0.0
 11
301.5
 21
218.5
 31
0.0
  0
CIRCLE
  8
0
  6
CONTINUOUS
 62
     7
 10
322.5
 20
225.0
 30
0.0
 40
3.605551
  0
LINE
  8
0
  6
DASHED
 62
     7
 10
322.5
 20
245.0
 30
0.0
 11
322.5
 21
202.5
 31
0.0
  0
LINE
  8
0
  6
DASHED
 62
     7
 10
302.5
 20
225.0
 30
0.0
 11
318.894449
 21
225.0
 31
0.0
  0
LINE
  8
0
  6
DASHED
 62
     7
 10
290.0
 20
230.0
 30
0.0
 11
300.0
 21
230.0
 31
0.0
  0
LINE
  8
0
  6
DASHED
 62
     7
 10
290.0
 20
220.0
 30
0.0
 11
300.0
 21
220.0
 31
0.0
  0
TEXT
  8
0
  6
CENTER
 62
     7
 10
325.0
 20
27.5
 30
0.0
 40
2.0
  1
CIRCUIT DIAGRAM / KRETSSCHEMA
  0
TEXT
  8
0
  6
CENTER
 62
     7
 10
325.0
 20
24.166667
 30
0.0
 40
2.0
  1
SPAJ 110 C WITH TEST SWITCH
  0
TEXT
  8
0
  6
CENTER
 62
     7
 10
325.0
 20
20.833333
 30
0.0
 40
2.0
  1
SPAJ 110 C MED PROVDON
  0
TEXT
  8
0
  6
CENTER
 62
     7
 10
325.0
 20
2.5
 30
0.0
 40
2.5
  1
RS 10093-AA
  0
LINE
  8
0
  6
CENTER
 62
     7
 10
290.0
 20
162.5
 30
0.0
 11
295.0
 21
162.5
 31
0.0
  0
CIRCLE
  8
0
  6
CONTINUOUS
 62
     7
 10
285.0
 20
220.0
 30
0.0
 40
0.740939
  0
CIRCLE
  8
0
  6
CONTINUOUS
 62
     7
 10
59.550439
 20
137.086922
 30
0.0
 40
0.596352
  0
CIRCLE
  8
0
  6
CONTINUOUS
 62
     7
 10
59.550439
 20
137.086922
 30
0.0
 40
1.252595
  0
LINE
  8
0
  6
CONTINUOUS
 62
     7
 10
196.761416
 20
210.900684
 30
0.0
 11
196.761416
 21
209.546414
 31
0.0
  0
LINE
  8
0
  6
CONTINUOUS
 62
     7
 10
195.551188
 20
209.546414
 30
0.0
 11
196.745529
 21
209.546414
 31
0.0
  0
LINE
  8
0
  6
CONTINUOUS
 62
     7
 10
196.745529
 20
209.546414
 30
0.0
 11
197.93987
 21
209.546414
 31
0.0
  0
LINE
  8
0
  6
CONTINUOUS
 62
     7
 10
195.929593
 20
209.066803
 30
0.0
 11
197.514164
 21
209.066803
 31
0.0
  0
LINE
  8
0
  6
CONTINUOUS
 62
     7
 10
196.260698
 20
208.578629
 30
0.0
 11
197.147584
 21
208.578629
 31
0.0
  0
LINE
  8
0
  6
CONTINUOUS
 62
     7
 10
196.761416
 20
218.408897
 30
0.0
 11
196.761416
 21
217.054627
 31
0.0
  0
LINE
  8
0
  6
CONTINUOUS
 62
     7
 10
195.551188
 20
217.054627
 30
0.0
 11
196.745529
 21
217.054627
 31
0.0
  0
LINE
  8
0
  6
CONTINUOUS
 62
     7
 10
196.745529
 20
217.054627
 30
0.0
 11
197.93987
 21
217.054627
 31
0.0
  0
LINE
  8
0
  6
CONTINUOUS
 62
     7
 10
195.929593
 20
216.575017
 30
0.0
 11
197.514164
 21
216.575017
 31
0.0
  0
LINE
  8
0
  6
CONTINUOUS
 62
     7
 10
196.260698
 20
216.086842
 30
0.0
 11
197.147584
 21
216.086842
 31
0.0
  0
LINE
  8
0
  6
CONTINUOUS
 62
     7
 10
196.761416
 20
222.951973
 30
0.0
 11
196.761416
 21
221.597703
 31
0.0
  0
LINE
  8
0
  6
CONTINUOUS
 62
     7
 10
195.551188
 20
221.597703
 30
0.0
 11
196.745529
 21
221.597703
 31
0.0
  0
LINE
  8
0
  6
CONTINUOUS
 62
     7
 10
196.745529
 20
221.597703
 30
0.0
 11
197.93987
 21
221.597703
 31
0.0
  0
LINE
  8
0
  6
CONTINUOUS
 62
     7
 10
195.929593
 20
221.118093
 30
0.0
 11
197.514164
 21
221.118093
 31
0.0
  0
LINE
  8
0
  6
CONTINUOUS
 62
     7
 10
196.260698
 20
220.629918
 30
0.0
 11
197.147584
 21
220.629918
 31
0.0
  0
LINE
  8
0
  6
CONTINUOUS
 62
     7
 10
196.761416
 20
230.989056
 30
0.0
 11
196.761416
 21
229.634786
 31
0.0
  0
LINE
  8
0
  6
CONTINUOUS
 62
     7
 10
195.551188
 20
229.634786
 30
0.0
 11
196.745529
 21
229.634786
 31
0.0
  0
LINE
  8
0
  6
CONTINUOUS
 62
     7
 10
196.745529
 20
229.634786
 30
0.0
 11
197.93987
 21
229.634786
 31
0.0
  0
LINE
  8
0
  6
CONTINUOUS
 62
     7
 10
195.929593
 20
229.155176
 30
0.0
 11
197.514164
 21
229.155176
 31
0.0
  0
LINE
  8
0
  6
CONTINUOUS
 62
     7
 10
196.260698
 20
228.667001
 30
0.0
 11
197.147584
 21
228.667001
 31
0.0
  0
TEXT
  8
0
  6
DASHED
 62
     7
 10
292.217194
 20
11.813359
 30
0.0
 40
3.0
  1
A3
  7
GREEKS
  0
TEXT
  8
0
  6
DASHED
 62
     7
 10
351.818577
 20
15.69253
 30
0.0
 40
1.4
  1
LEHTI SHEET
  7
GREEKS
  0
LINE
  8
0
 62
     7
 10
0.237099
 20
262.737999
 30
0.0
 11
392.237099
 21
262.737999
 31
0.0
  0
LINE
  8
0
 62
     7
 10
18.237099
 20
0.237999
 30
0.0
 11
0.237099
 21
0.237999
 31
0.0
  0
LINE
  8
0
 62
     7
 10
209.237099
 20
0.237999
 30
0.0
 11
392.237099
 21
0.237999
 31
0.0
  0
LINE
  8
0
 62
     7
 10
209.237099
 20
0.237999
 30
0.0
 11
209.237099
 21
35.237999
 31
0.0
  0
LINE
  8
0
 62
     7
 10
392.237099
 20
0.237999
 30
0.0
 11
392.237099
 21
35.237999
 31
0.0
  0
LINE
  8
0
 62
     7
 10
209.237099
 20
18.237999
 30
0.0
 11
392.237099
 21
18.237999
 31
0.0
  0
LINE
  8
0
 62
     7
 10
209.237099
 20
9.737999
 30
0.0
 11
392.237099
 21
9.737999
 31
0.0
  0
LINE
  8
0
 62
     7
 10
209.237099
 20
26.737999
 30
0.0
 11
307.237099
 21
26.737999
 31
0.0
  0
LINE
  8
0
 62
     7
 10
209.237099
 20
35.237999
 30
0.0
 11
392.237099
 21
35.237999
 31
0.0
  0
TEXT
  8
0
 62
     7
 10
210.237099
 20
23.971333
 30
0.0
 40
1.4
  1
TARKASTI  CHECKED
  7
ROMANS
  0
TEXT
  8
0
 62
     7
 10
209.979934
 20
15.704666
 30
0.0
 40
1.4
  1
HYVÄKSYI  APPROVED
  7
ROMANS
  0
LINE
  8
0
 62
     7
 10
307.237099
 20
0.237999
 30
0.0
 11
307.237099
 21
35.237999
 31
0.0
  0
TEXT
  8
0
 62
     7
 10
259.237099
 20
32.737999
 30
0.0
 40
1.4
  1
LIITTYY  CONCERNING
  7
ROMANS
  0
TEXT
  8
0
 62
     7
 10
259.237099
 20
23.737999
 30
0.0
 40
1.4
  1
TOLERANSSIT  TOLERANCES
  7
ROMANS
  0
TEXT
  8
0
 62
     7
 10
259.237099
 20
15.737999
 30
0.0
 40
1.4
  1
SUHDE  SCALE
  7
ROMANS
  0
TEXT
  8
0
 62
     7
 10
309.237099
 20
32.737999
 30
0.0
 40
1.4
  1
NIMITYS  NAME
  7
ROMANS
  0
TEXT
  8
0
 62
     7
 10
309.237099
 20
15.737999
 30
0.0
 40
1.4
  1
KOODI  CODE
  7
ROMANS
  0
TEXT
  8
0
 62
     7
 10
309.237099
 20
7.237999
 30
0.0
 40
1.4
  1
PIIRUSTUS NO  DRAWING NR
  7
ROMANS
  0
LINE
  8
0
 62
     7
 10
349.737099
 20
9.737999
 30
0.0
 11
349.737099
 21
18.237999
 31
0.0
  0
TEXT
  8
0
 62
     7
 10
371.237099
 20
7.237999
 30
0.0
 40
1.4
  1
PAINOS  REVISION
  7
ROMANS
  0
LINE
  8
0
 62
     7
 10
369.737099
 20
9.737999
 30
0.0
 11
369.737099
 21
0.237999
 31
0.0
  0
LINE
  8
0
 62
     7
 10
210.187099
 20
1.737999
 30
0.0
 11
211.937099
 21
1.737999
 31
0.0
  0
LINE
  8
0
 62
     7
 10
215.437099
 20
1.737999
 30
0.0
 11
217.187099
 21
1.737999
 31
0.0
  0
LINE
  8
0
 62
     7
 10
212.637099
 20
8.737999
 30
0.0
 11
211.459571
 21
5.373634
 31
0.0
  0
LINE
  8
0
 62
     7
 10
212.425886
 20
3.137999
 30
0.0
 11
213.547099
 21
3.137999
 31
0.0
  0
LINE
  8
0
 62
     7
 10
212.425889
 20
3.134542
 30
0.0
 11
211.937099
 21
1.737999
 31
0.0
  0
LINE
  8
0
 62
     7
 10
214.737099
 20
8.737999
 30
0.0
 11
215.913452
 21
5.376991
 31
0.0
  0
LINE
  8
0
 62
     7
 10
214.948197
 20
3.134863
 30
0.0
 11
215.437099
 21
1.737999
 31
0.0
  0
LINE
  8
0
 62
     7
 10
214.737099
 20
8.737999
 30
0.0
 11
213.827099
 21
8.737999
 31
0.0
  0
LINE
  8
0
 62
     7
 10
213.547099
 20
8.737999
 30
0.0
 11
213.547099
 21
5.377999
 31
0.0
  0
LINE
  8
0
 62
     7
 10
213.827099
 20
8.737999
 30
0.0
 11
213.827099
 21
5.377999
 31
0.0
  0
LINE
  8
0
 62
     7
 10
213.827099
 20
3.137999
 30
0.0
 11
214.946992
 21
3.137999
 31
0.0
  0
LINE
  8
0
 62
     7
 10
213.547099
 20
8.737999
 30
0.0
 11
212.637099
 21
8.737999
 31
0.0
  0
LINE
  8
0
 62
     7
 10
211.45904
 20
5.377999
 30
0.0
 11
213.547099
 21
5.377999
 31
0.0
  0
LINE
  8
0
 62
     7
 10
211.360082
 20
5.097999
 30
0.0
 11
213.547099
 21
5.097999
 31
0.0
  0
LINE
  8
0
 62
     7
 10
216.011591
 20
5.096594
 30
0.0
 11
217.187099
 21
1.737999
 31
0.0
  0
LINE
  8
0
 62
     7
 10
213.827099
 20
5.377999
 30
0.0
 11
215.912213
 21
5.377999
 31
0.0
  0
LINE
  8
0
 62
     7
 10
213.827099
 20
5.097999
 30
0.0
 11
216.010356
 21
5.097999
 31
0.0
  0
LINE
  8
0
 62
     7
 10
213.827099
 20
5.097999
 30
0.0
 11
213.827099
 21
3.137999
 31
0.0
  0
LINE
  8
0
 62
     7
 10
213.547099
 20
5.097999
 30
0.0
 11
213.547099
 21
3.137999
 31
0.0
  0
LINE
  8
0
 62
     7
 10
211.356988
 20
5.080538
 30
0.0
 11
210.187099
 21
1.737999
 31
0.0
  0
INSERT
  8
0
 62
     7
  2
*X56
 10
210.187099
 20
1.737999
 30
0.0
 41
0.7
 42
0.7
 43
0.7
  0
INSERT
  8
0
 62
     7
  2
*X57
 10
210.187099
 20
1.737999
 30
0.0
 41
0.7
 42
0.7
 43
0.7
  0
INSERT
  8
0
 62
     7
  2
*X58
 10
210.187099
 20
1.737999
 30
0.0
 41
0.7
 42
0.7
 43
0.7
  0
INSERT
  8
0
 62
     7
  2
*X59
 10
210.187099
 20
1.737999
 30
0.0
 41
0.7
 42
0.7
 43
0.7
  0
LINE
  8
0
 62
     7
 10
217.677099
 20
1.737999
 30
0.0
 11
217.677099
 21
5.097999
 31
0.0
  0
LINE
  8
0
 62
     7
 10
217.677099
 20
8.737999
 30
0.0
 11
219.637099
 21
8.737999
 31
0.0
  0
LINE
  8
0
 62
     7
 10
219.637099
 20
8.737999
 30
0.0
 11
219.637099
 21
5.377999
 31
0.0
  0
LINE
  8
0
 62
     7
 10
219.637099
 20
5.377999
 30
0.0
 11
217.677099
 21
5.377999
 31
0.0
  0
LINE
  8
0
 62
     7
 10
217.677099
 20
5.097999
 30
0.0
 11
219.637099
 21
5.097999
 31
0.0
  0
LINE
  8
0
 62
     7
 10
219.637099
 20
5.097999
 30
0.0
 11
219.637099
 21
1.737999
 31
0.0
  0
LINE
  8
0
 62
     7
 10
219.637099
 20
1.737999
 30
0.0
 11
217.677099
 21
1.737999
 31
0.0
  0
LINE
  8
0
 62
     7
 10
217.677099
 20
5.377999
 30
0.0
 11
217.677099
 21
8.737999
 31
0.0
  0
ARC
  8
0
 62
     7
 10
220.477099
 20
7.162999
 30
0.0
 40
1.575
 50
298.455859
 51
90.052437
  0
LINE
  8
0
 62
     7
 10
219.917099
 20
8.737999
 30
0.0
 11
220.475658
 21
8.737999
 31
0.0
  0
LINE
  8
0
 62
     7
 10
219.917099
 20
8.737999
 30
0.0
 11
219.917099
 21
5.377999
 31
0.0
  0
LINE
  8
0
 62
     7
 10
219.917099
 20
5.377999
 30
0.0
 11
221.901542
 21
5.377999
 31
0.0
  0
LINE
  8
0
 62
     7
 10
222.157099
 20
5.097999
 30
0.0
 11
219.917099
 21
5.097999
 31
0.0
  0
LINE
  8
0
 62
     7
 10
219.917099
 20
5.097999
 30
0.0
 11
219.917099
 21
1.737999
 31
0.0
  0
ARC
  8
0
 62
     7
 10
220.477099
 20
3.837999
 30
0.0
 40
2.1
 50
269.937724
 51
37.056553
  0
LINE
  8
0
 62
     7
 10
219.917099
 20
1.737999
 30
0.0
 11
220.474817
 21
1.738
 31
0.0
  0
ARC
  8
0
 62
     7
 10
220.477099
 20
3.837999
 30
0.0
 40
2.1
 50
47.28622
 51
68.787999
  0
INSERT
  8
0
 62
     7
  2
*X60
 10
210.187099
 20
1.737999
 30
0.0
 41
0.7
 42
0.7
 43
0.7
  0
INSERT
  8
0
 62
     7
  2
*X61
 10
210.187099
 20
1.737999
 30
0.0
 41
0.7
 42
0.7
 43
0.7
  0
INSERT
  8
0
 62
     7
  2
*X62
 10
210.187099
 20
1.737999
 30
0.0
 41
0.7
 42
0.7
 43
0.7
  0
INSERT
  8
0
 62
     7
  2
*X63
 10
210.187099
 20
1.737999
 30
0.0
 41
0.7
 42
0.7
 43
0.7
  0
INSERT
  8
0
 62
     7
  2
*X63
 10
215.647099
 20
1.737999
 30
0.0
 41
0.7
 42
0.7
 43
0.7
  0
INSERT
  8
0
 62
     7
  2
*X62
 10
215.647099
 20
1.737999
 30
0.0
 41
0.7
 42
0.7
 43
0.7
  0
INSERT
  8
0
 62
     7
  2
*X61
 10
215.647099
 20
1.737999
 30
0.0
 41
0.7
 42
0.7
 43
0.7
  0
INSERT
  8
0
 62
     7
  2
*X60
 10
215.647099
 20
1.737999
 30
0.0
 41
0.7
 42
0.7
 43
0.7
  0
ARC
  8
0
 62
     7
 10
225.937099
 20
3.837999
 30
0.0
 40
2.1
 50
47.28622
 51
68.787999
  0
LINE
  8
0
 62
     7
 10
225.377099
 20
1.737999
 30
0.0
 11
225.934817
 21
1.738
 31
0.0
  0
ARC
  8
0
 62
     7
 10
225.937099
 20
3.837999
 30
0.0
 40
2.1
 50
269.937724
 51
37.056553
  0
LINE
  8
0
 62
     7
 10
225.377099
 20
5.097999
 30
0.0
 11
225.377099
 21
1.737999
 31
0.0
  0
LINE
  8
0
 62
     7
 10
227.617099
 20
5.097999
 30
0.0
 11
225.377099
 21
5.097999
 31
0.0
  0
LINE
  8
0
 62
     7
 10
225.377099
 20
5.377999
 30
0.0
 11
227.361542
 21
5.377999
 31
0.0
  0
LINE
  8
0
 62
     7
 10
225.377099
 20
8.737999
 30
0.0
 11
225.377099
 21
5.377999
 31
0.0
  0
LINE
  8
0
 62
     7
 10
225.377099
 20
8.737999
 30
0.0
 11
225.935658
 21
8.737999
 31
0.0
  0
ARC
  8
0
 62
     7
 10
225.937099
 20
7.162999
 30
0.0
 40
1.575
 50
298.455859
 51
90.052437
  0
LINE
  8
0
 62
     7
 10
223.137099
 20
5.377999
 30
0.0
 11
223.137099
 21
8.737999
 31
0.0
  0
LINE
  8
0
 62
     7
 10
225.097099
 20
1.737999
 30
0.0
 11
223.137099
 21
1.737999
 31
0.0
  0
LINE
  8
0
 62
     7
 10
225.097099
 20
5.097999
 30
0.0
 11
225.097099
 21
1.737999
 31
0.0
  0
LINE
  8
0
 62
     7
 10
223.137099
 20
5.097999
 30
0.0
 11
225.097099
 21
5.097999
 31
0.0
  0
LINE
  8
0
 62
     7
 10
225.097099
 20
5.377999
 30
0.0
 11
223.137099
 21
5.377999
 31
0.0
  0
LINE
  8
0
 62
     7
 10
225.097099
 20
8.737999
 30
0.0
 11
225.097099
 21
5.377999
 31
0.0
  0
LINE
  8
0
 62
     7
 10
223.137099
 20
8.737999
 30
0.0
 11
225.097099
 21
8.737999
 31
0.0
  0
LINE
  8
0
 62
     7
 10
223.137099
 20
1.737999
 30
0.0
 11
223.137099
 21
5.097999
 31
0.0
  0
TEXT
  8
0
 62
     7
 10
229.737099
 20
1.737999
 30
0.0
 40
3.0
  1
ABB 
 41
0.8
  7
ROMANS
  0
TEXT
  8
0
 62
     7
 10
237.737099
 20
1.737999
 30
0.0
 40
3.0
  1
Strömberg
 41
0.8
  7
ROMANS
  0
LINE
  8
0
 62
     7
 10
282.237099
 20
9.737999
 30
0.0
 11
282.237099
 21
18.237999
 31
0.0
  0
TEXT
  8
0
 62
     7
 10
27.737099
 20
4.737999
 30
0.0
 40
1.4
  1
MUUTOS
  7
ROMANS
  0
TEXT
  8
0
 62
     7
 10
27.737099
 20
2.471333
 30
0.0
 40
1.4
  1
REVISION
  7
ROMANS
  0
LINE
  8
0
 62
     7
 10
46.737099
 20
9.237999
 30
0.0
 11
209.237099
 21
9.237999
 31
0.0
  0
LINE
  8
0
 62
     7
 10
46.737099
 20
0.237999
 30
0.0
 11
46.737099
 21
9.237999
 31
0.0
  0
LINE
  8
0
 62
     7
 10
40.737099
 20
4.737999
 30
0.0
 11
209.237099
 21
4.737999
 31
0.0
  0
LINE
  8
0
 62
     7
 10
257.237099
 20
9.737999
 30
0.0
 11
257.237099
 21
35.237999
 31
0.0
  0
LINE
  8
0
 62
     7
 10
271.237099
 20
9.737999
 30
0.0
 11
271.237099
 21
0.237999
 31
0.0
  0
TEXT
  8
0
 62
     7
 10
210.237099
 20
32.237999
 30
0.0
 40
1.4
  1
TEKI  PREPARED
  7
ROMANS
  0
TEXT
  8
0
 62
     7
 10
273.237099
 20
7.237999
 30
0.0
 40
1.4
  1
VAST.OSASTO RESP.DEPT.
  7
ROMANS
  0
TEXT
  8
0
 62
     7
 10
257.407006
 20
1.741783
 30
0.0
 40
3.0
  1
Power
 41
0.8
  7
ROMANS
  0
TEXT
  8
0
 62
     7
 10
42.237099
 20
1.195292
 30
0.0
 40
2.5
  1
B
  7
ROMANS
  0
TEXT
  8
0
 62
     7
 10
42.237099
 20
5.587508
 30
0.0
 40
2.5
  1
C
  7
ROMANS
  0
LINE
  8
0
 62
     7
 10
0.237099
 20
0.237999
 30
0.0
 11
392.237099
 21
0.237999
 31
0.0
  0
LINE
  8
0
 62
     7
 10
392.237099
 20
262.737999
 30
0.0
 11
392.237099
 21
0.237999
 31
0.0
  0
LINE
  8
PAKSU
 10
0.237099
 20
0.237999
 30
0.0
 11
0.237099
 21
262.737999
 31
0.0
  0
TEXT
  8
0
  6
CONTINUOUS
 62
     7
 10
179.353328
 20
41.513635
 30
0.0
 40
2.0
  1
+
  0
TEXT
  8
0
  6
CONTINUOUS
 62
     7
 10
189.353328
 20
41.513635
 30
0.0
 40
2.0
  1
+
  0
TEXT
  8
0
  6
CONTINUOUS
 62
     7
 10
194.353328
 20
41.513635
 30
0.0
 40
2.0
  1
+
  0
ARC
  8
0
  6
CONTINUOUS
 62
     7
 10
190.0
 20
75.0
 30
0.0
 40
0.5
 50
180.0
 51
0.0
  0
ARC
  8
0
  6
CONTINUOUS
 62
     7
 10
190.0
 20
75.0
 30
0.0
 40
0.5
 50
0.0
 51
180.0
  0
LINE
  8
0
 62
     7
 10
13.502721
 20
235.635937
 30
0.0
 11
17.502721
 21
235.635937
 31
0.0
  0
INSERT
  8
0
 62
     7
  2
WKU130
 10
13.84267
 20
233.910384
 30
0.0
 41
0.8
 42
0.8
 43
0.8
  0
TEXT
  8
0
  6
CONTINUOUS
 62
     7
 10
18.856411
 20
231.50558
 30
0.0
 40
2.0
  1
-
  0
TEXT
  8
0
  6
CONTINUOUS
 62
     7
 10
18.864976
 20
236.513635
 30
0.0
 40
2.0
  1
+
  0
ARC
  8
0
  6
DASHED
 62
     7
 10
112.5
 20
209.493304
 30
0.0
 40
0.5
 50
180.0
 51
0.0
  0
ARC
  8
0
  6
DASHED
 62
     7
 10
112.5
 20
209.493304
 30
0.0
 40
0.5
 50
0.0
 51
180.0
  0
ARC
  8
0
  6
DASHED
 62
     7
 10
130.0
 20
209.493304
 30
0.0
 40
0.5
 50
180.0
 51
0.0
  0
ARC
  8
0
  6
DASHED
 62
     7
 10
130.0
 20
209.493304
 30
0.0
 40
0.5
 50
0.0
 51
180.0
  0
ARC
  8
0
  6
DASHED
 62
     7
 10
150.0
 20
209.493304
 30
0.0
 40
0.5
 50
180.0
 51
0.0
  0
ARC
  8
0
  6
DASHED
 62
     7
 10
150.0
 20
209.493304
 30
0.0
 40
0.5
 50
0.0
 51
180.0
  0
LINE
  8
0
  6
CONTINUOUS
 62
     7
 10
183.904193
 20
199.489958
 30
0.0
 11
181.558427
 21
200.825312
 31
0.0
  0
LINE
  8
0
  6
CONTINUOUS
 62
     7
 10
181.558427
 20
200.825312
 30
0.0
 11
183.904193
 21
202.015231
 31
0.0
  0
LINE
  8
0
  6
CONTINUOUS
 62
     7
 10
183.898107
 20
208.15795
 30
0.0
 11
181.552341
 21
209.493304
 31
0.0
  0
LINE
  8
0
  6
CONTINUOUS
 62
     7
 10
181.552341
 20
209.493304
 30
0.0
 11
183.898107
 21
210.683223
 31
0.0
  0
ARC
  8
0
  6
DASHED
 62
     7
 10
107.5
 20
221.993304
 30
0.0
 40
0.5
 50
180.0
 51
0.0
  0
ARC
  8
0
  6
DASHED
 62
     7
 10
107.5
 20
221.993304
 30
0.0
 40
0.5
 50
0.0
 51
180.0
  0
ARC
  8
0
  6
DASHED
 62
     7
 10
125.0
 20
221.993304
 30
0.0
 40
0.5
 50
180.0
 51
0.0
  0
ARC
  8
0
  6
DASHED
 62
     7
 10
125.0
 20
221.993304
 30
0.0
 40
0.5
 50
0.0
 51
180.0
  0
ARC
  8
0
  6
CONTINUOUS
 62
     7
 10
160.0
 20
230.0
 30
0.0
 40
0.5
 50
180.0
 51
0.0
  0
ARC
  8
0
  6
CONTINUOUS
 62
     7
 10
160.0
 20
230.0
 30
0.0
 40
0.5
 50
0.0
 51
180.0
  0
ARC
  8
0
  6
DASHED
 62
     7
 10
172.5
 20
225.468636
 30
0.0
 40
0.5
 50
180.0
 51
0.0
  0
ARC
  8
0
  6
DASHED
 62
     7
 10
172.5
 20
225.468636
 30
0.0
 40
0.5
 50
0.0
 51
180.0
  0
LINE
  8
0
  6
CONTINUOUS
 62
     7
 10
183.898107
 20
216.164636
 30
0.0
 11
181.552341
 21
217.49999
 31
0.0
  0
LINE
  8
0
  6
CONTINUOUS
 62
     7
 10
181.552341
 20
217.49999
 30
0.0
 11
183.898107
 21
218.689909
 31
0.0
  0
LINE
  8
0
  6
CONTINUOUS
 62
     7
 10
183.898107
 20
220.65795
 30
0.0
 11
181.552341
 21
221.993304
 31
0.0
  0
LINE
  8
0
  6
CONTINUOUS
 62
     7
 10
181.552341
 20
221.993304
 30
0.0
 11
183.898107
 21
223.183223
 31
0.0
  0
LINE
  8
0
  6
CONTINUOUS
 62
     7
 10
183.898107
 20
228.664646
 30
0.0
 11
181.552341
 21
230.0
 31
0.0
  0
LINE
  8
0
  6
CONTINUOUS
 62
     7
 10
181.552341
 20
230.0
 30
0.0
 11
183.898107
 21
231.189919
 31
0.0
  0
LINE
  8
0
 62
     7
 10
225.565579
 20
40.783527
 30
0.0
 11
229.565579
 21
40.783527
 31
0.0
  0
INSERT
  8
0
 62
     7
  2
WKU130
 10
225.905529
 20
39.057974
 30
0.0
 41
0.8
 42
0.8
 43
0.8
  0
TEXT
  8
0
  6
CONTINUOUS
 62
     7
 10
204.353328
 20
41.513635
 30
0.0
 40
2.0
  1
+
  0
TEXT
  8
0
  6
CONTINUOUS
 62
     7
 10
209.344763
 20
41.50558
 30
0.0
 40
2.0
  1
-
  0
TEXT
  8
0
  6
CONTINUOUS
 62
     7
 10
224.353328
 20
41.513635
 30
0.0
 40
2.0
  1
+
  0
TEXT
  8
0
  6
CONTINUOUS
 62
     7
 10
229.344763
 20
41.50558
 30
0.0
 40
2.0
  1
-
  0
ARC
  8
0
  6
CONTINUOUS
 62
     7
 10
205.0
 20
75.0
 30
0.0
 40
0.5
 50
180.0
 51
0.0
  0
ARC
  8
0
  6
CONTINUOUS
 62
     7
 10
205.0
 20
75.0
 30
0.0
 40
0.5
 50
0.0
 51
180.0
  0
3DFACE
  8
0
  6
CONTINUOUS
 62
     7
 10
256.634024
 20
163.06
 30
0.0
 11
256.649704
 21
163.06
 31
0.0
 12
256.649704
 22
161.94
 32
0.0
 13
256.634024
 23
161.94
 33
0.0
  0
3DFACE
  8
0
  6
CONTINUOUS
 62
     7
 10
256.649704
 20
163.06
 30
0.0
 11
256.665384
 21
163.06
 31
0.0
 12
256.665384
 22
161.94
 32
0.0
 13
256.649704
 23
161.94
 33
0.0
  0
3DFACE
  8
0
  6
CONTINUOUS
 62
     7
 10
256.665384
 20
163.06
 30
0.0
 11
256.681064
 21
163.06
 31
0.0
 12
256.681064
 22
161.94
 32
0.0
 13
256.665384
 23
161.94
 33
0.0
  0
3DFACE
  8
0
  6
CONTINUOUS
 62
     7
 10
256.681064
 20
163.06
 30
0.0
 11
256.696744
 21
163.06
 31
0.0
 12
256.696744
 22
161.94
 32
0.0
 13
256.681064
 23
161.94
 33
0.0
  0
3DFACE
  8
0
  6
CONTINUOUS
 62
     7
 10
256.696744
 20
163.06
 30
0.0
 11
256.712424
 21
163.06
 31
0.0
 12
256.712424
 22
161.94
 32
0.0
 13
256.696744
 23
161.94
 33
0.0
  0
3DFACE
  8
0
  6
CONTINUOUS
 62
     7
 10
256.712424
 20
163.06
 30
0.0
 11
256.728104
 21
163.06
 31
0.0
 12
256.728104
 22
161.94
 32
0.0
 13
256.712424
 23
161.94
 33
0.0
  0
3DFACE
  8
0
  6
CONTINUOUS
 62
     7
 10
256.728104
 20
163.06
 30
0.0
 11
256.743784
 21
163.06
 31
0.0
 12
256.743784
 22
161.94
 32
0.0
 13
256.728104
 23
161.94
 33
0.0
  0
3DFACE
  8
0
  6
CONTINUOUS
 62
     7
 10
256.743784
 20
163.06
 30
0.0
 11
256.759464
 21
163.06
 31
0.0
 12
256.759464
 22
161.94
 32
0.0
 13
256.743784
 23
161.94
 33
0.0
  0
3DFACE
  8
0
  6
CONTINUOUS
 62
     7
 10
256.759464
 20
163.06
 30
0.0
 11
256.775144
 21
163.06
 31
0.0
 12
256.775144
 22
161.94
 32
0.0
 13
256.759464
 23
161.94
 33
0.0
  0
3DFACE
  8
0
  6
CONTINUOUS
 62
     7
 10
256.775144
 20
163.06
 30
0.0
 11
256.790824
 21
163.06
 31
0.0
 12
256.790824
 22
161.94
 32
0.0
 13
256.775144
 23
161.94
 33
0.0
  0
3DFACE
  8
0
  6
CONTINUOUS
 62
     7
 10
256.790824
 20
163.06
 30
0.0
 11
256.806504
 21
163.06
 31
0.0
 12
256.806504
 22
161.94
 32
0.0
 13
256.790824
 23
161.94
 33
0.0
  0
3DFACE
  8
0
  6
CONTINUOUS
 62
     7
 10
256.806504
 20
163.06
 30
0.0
 11
256.822184
 21
163.06
 31
0.0
 12
256.822184
 22
161.94
 32
0.0
 13
256.806504
 23
161.94
 33
0.0
  0
3DFACE
  8
0
  6
CONTINUOUS
 62
     7
 10
256.822184
 20
163.06
 30
0.0
 11
256.837864
 21
163.06
 31
0.0
 12
256.837864
 22
161.94
 32
0.0
 13
256.822184
 23
161.94
 33
0.0
  0
3DFACE
  8
0
  6
CONTINUOUS
 62
     7
 10
256.837864
 20
163.06
 30
0.0
 11
256.853544
 21
163.06
 31
0.0
 12
256.853544
 22
161.94
 32
0.0
 13
256.837864
 23
161.94
 33
0.0
  0
3DFACE
  8
0
  6
CONTINUOUS
 62
     7
 10
256.853544
 20
163.06
 30
0.0
 11
256.869224
 21
163.06
 31
0.0
 12
256.869224
 22
161.94
 32
0.0
 13
256.853544
 23
161.94
 33
0.0
  0
3DFACE
  8
0
  6
CONTINUOUS
 62
     7
 10
256.869224
 20
163.06
 30
0.0
 11
256.884904
 21
163.06
 31
0.0
 12
256.884904
 22
161.94
 32
0.0
 13
256.869224
 23
161.94
 33
0.0
  0
3DFACE
  8
0
  6
CONTINUOUS
 62
     7
 10
256.884904
 20
163.06
 30
0.0
 11
256.900584
 21
163.06
 31
0.0
 12
256.900584
 22
161.94
 32
0.0
 13
256.884904
 23
161.94
 33
0.0
  0
3DFACE
  8
0
  6
CONTINUOUS
 62
     7
 10
256.900584
 20
163.06
 30
0.0
 11
256.916264
 21
163.06
 31
0.0
 12
256.916264
 22
161.94
 32
0.0
 13
256.900584
 23
161.94
 33
0.0
  0
3DFACE
  8
0
  6
CONTINUOUS
 62
     7
 10
256.916264
 20
163.06
 30
0.0
 11
256.931944
 21
163.06
 31
0.0
 12
256.931944
 22
161.94
 32
0.0
 13
256.916264
 23
161.94
 33
0.0
  0
3DFACE
  8
0
  6
CONTINUOUS
 62
     7
 10
256.931944
 20
163.06
 30
0.0
 11
256.947624
 21
163.06
 31
0.0
 12
256.947624
 22
161.94
 32
0.0
 13
256.931944
 23
161.94
 33
0.0
  0
3DFACE
  8
0
  6
CONTINUOUS
 62
     7
 10
256.947624
 20
163.06
 30
0.0
 11
256.963304
 21
163.06
 31
0.0
 12
256.963304
 22
161.94
 32
0.0
 13
256.947624
 23
161.94
 33
0.0
  0
3DFACE
  8
0
  6
CONTINUOUS
 62
     7
 10
256.963304
 20
163.06
 30
0.0
 11
256.978984
 21
163.06
 31
0.0
 12
256.978984
 22
161.94
 32
0.0
 13
256.963304
 23
161.94
 33
0.0
  0
3DFACE
  8
0
  6
CONTINUOUS
 62
     7
 10
256.978984
 20
163.06
 30
0.0
 11
256.994664
 21
163.06
 31
0.0
 12
256.994664
 22
161.94
 32
0.0
 13
256.978984
 23
161.94
 33
0.0
  0
3DFACE
  8
0
  6
CONTINUOUS
 62
     7
 10
256.994664
 20
163.06
 30
0.0
 11
257.010344
 21
163.06
 31
0.0
 12
257.010344
 22
161.94
 32
0.0
 13
256.994664
 23
161.94
 33
0.0
  0
3DFACE
  8
0
  6
CONTINUOUS
 62
     7
 10
257.010344
 20
163.06
 30
0.0
 11
257.026024
 21
163.06
 31
0.0
 12
257.026024
 22
161.94
 32
0.0
 13
257.010344
 23
161.94
 33
0.0
  0
3DFACE
  8
0
  6
CONTINUOUS
 62
     7
 10
257.026024
 20
163.06
 30
0.0
 11
257.041704
 21
163.06
 31
0.0
 12
257.041704
 22
161.94
 32
0.0
 13
257.026024
 23
161.94
 33
0.0
  0
3DFACE
  8
0
  6
CONTINUOUS
 62
     7
 10
257.041704
 20
163.06
 30
0.0
 11
257.057384
 21
163.06
 31
0.0
 12
257.057384
 22
161.94
 32
0.0
 13
257.041704
 23
161.94
 33
0.0
  0
3DFACE
  8
0
  6
CONTINUOUS
 62
     7
 10
257.057384
 20
163.06
 30
0.0
 11
257.073064
 21
163.06
 31
0.0
 12
257.073064
 22
161.94
 32
0.0
 13
257.057384
 23
161.94
 33
0.0
  0
3DFACE
  8
0
  6
CONTINUOUS
 62
     7
 10
257.073064
 20
163.06
 30
0.0
 11
257.088744
 21
163.06
 31
0.0
 12
257.088744
 22
161.94
 32
0.0
 13
257.073064
 23
161.94
 33
0.0
  0
3DFACE
  8
0
  6
CONTINUOUS
 62
     7
 10
257.088744
 20
163.06
 30
0.0
 11
257.104424
 21
163.06
 31
0.0
 12
257.104424
 22
161.94
 32
0.0
 13
257.088744
 23
161.94
 33
0.0
  0
3DFACE
  8
0
  6
CONTINUOUS
 62
     7
 10
257.104424
 20
163.06
 30
0.0
 11
257.120104
 21
163.06
 31
0.0
 12
257.120104
 22
161.94
 32
0.0
 13
257.104424
 23
161.94
 33
0.0
  0
3DFACE
  8
0
  6
CONTINUOUS
 62
     7
 10
257.120104
 20
163.06
 30
0.0
 11
257.135784
 21
163.06
 31
0.0
 12
257.135784
 22
161.94
 32
0.0
 13
257.120104
 23
161.94
 33
0.0
  0
3DFACE
  8
0
  6
CONTINUOUS
 62
     7
 10
257.135784
 20
163.06
 30
0.0
 11
257.151464
 21
163.06
 31
0.0
 12
257.151464
 22
161.94
 32
0.0
 13
257.135784
 23
161.94
 33
0.0
  0
3DFACE
  8
0
  6
CONTINUOUS
 62
     7
 10
257.151464
 20
163.06
 30
0.0
 11
257.167144
 21
163.06
 31
0.0
 12
257.167144
 22
161.94
 32
0.0
 13
257.151464
 23
161.94
 33
0.0
  0
3DFACE
  8
0
  6
CONTINUOUS
 62
     7
 10
257.167144
 20
163.06
 30
0.0
 11
257.182824
 21
163.06
 31
0.0
 12
257.182824
 22
161.94
 32
0.0
 13
257.167144
 23
161.94
 33
0.0
  0
3DFACE
  8
0
  6
CONTINUOUS
 62
     7
 10
257.182824
 20
163.06
 30
0.0
 11
257.198504
 21
163.06
 31
0.0
 12
257.198504
 22
161.94
 32
0.0
 13
257.182824
 23
161.94
 33
0.0
  0
3DFACE
  8
0
  6
CONTINUOUS
 62
     7
 10
257.198504
 20
163.06
 30
0.0
 11
257.214184
 21
163.06
 31
0.0
 12
257.214184
 22
161.94
 32
0.0
 13
257.198504
 23
161.94
 33
0.0
  0
3DFACE
  8
0
  6
CONTINUOUS
 62
     7
 10
257.214184
 20
163.06
 30
0.0
 11
257.229864
 21
163.06
 31
0.0
 12
257.229864
 22
161.94
 32
0.0
 13
257.214184
 23
161.94
 33
0.0
  0
3DFACE
  8
0
  6
CONTINUOUS
 62
     7
 10
257.229864
 20
163.06
 30
0.0
 11
257.245544
 21
163.06
 31
0.0
 12
257.245544
 22
161.94
 32
0.0
 13
257.229864
 23
161.94
 33
0.0
  0
3DFACE
  8
0
  6
CONTINUOUS
 62
     7
 10
257.245544
 20
163.06
 30
0.0
 11
257.261224
 21
163.06
 31
0.0
 12
257.261224
 22
161.94
 32
0.0
 13
257.245544
 23
161.94
 33
0.0
  0
3DFACE
  8
0
  6
CONTINUOUS
 62
     7
 10
257.261224
 20
163.06
 30
0.0
 11
257.276904
 21
163.06
 31
0.0
 12
257.276904
 22
161.94
 32
0.0
 13
257.261224
 23
161.94
 33
0.0
  0
3DFACE
  8
0
  6
CONTINUOUS
 62
     7
 10
257.276904
 20
163.06
 30
0.0
 11
257.292584
 21
163.06
 31
0.0
 12
257.292584
 22
161.94
 32
0.0
 13
257.276904
 23
161.94
 33
0.0
  0
3DFACE
  8
0
  6
CONTINUOUS
 62
     7
 10
257.292584
 20
163.06
 30
0.0
 11
257.308264
 21
163.06
 31
0.0
 12
257.308264
 22
161.94
 32
0.0
 13
257.292584
 23
161.94
 33
0.0
  0
3DFACE
  8
0
  6
CONTINUOUS
 62
     7
 10
257.308264
 20
163.06
 30
0.0
 11
257.323944
 21
163.06
 31
0.0
 12
257.323944
 22
161.94
 32
0.0
 13
257.308264
 23
161.94
 33
0.0
  0
3DFACE
  8
0
  6
CONTINUOUS
 62
     7
 10
257.323944
 20
163.06
 30
0.0
 11
257.339624
 21
163.06
 31
0.0
 12
257.339624
 22
161.94
 32
0.0
 13
257.323944
 23
161.94
 33
0.0
  0
3DFACE
  8
0
  6
CONTINUOUS
 62
     7
 10
257.339624
 20
163.06
 30
0.0
 11
257.355304
 21
163.06
 31
0.0
 12
257.355304
 22
161.94
 32
0.0
 13
257.339624
 23
161.94
 33
0.0
  0
3DFACE
  8
0
  6
CONTINUOUS
 62
     7
 10
257.355304
 20
163.06
 30
0.0
 11
257.370984
 21
163.06
 31
0.0
 12
257.370984
 22
161.94
 32
0.0
 13
257.355304
 23
161.94
 33
0.0
  0
3DFACE
  8
0
  6
CONTINUOUS
 62
     7
 10
257.370984
 20
163.06
 30
0.0
 11
257.386664
 21
163.06
 31
0.0
 12
257.386664
 22
161.94
 32
0.0
 13
257.370984
 23
161.94
 33
0.0
  0
3DFACE
  8
0
  6
CONTINUOUS
 62
     7
 10
257.386664
 20
163.06
 30
0.0
 11
257.402344
 21
163.06
 31
0.0
 12
257.402344
 22
161.94
 32
0.0
 13
257.386664
 23
161.94
 33
0.0
  0
3DFACE
  8
0
  6
CONTINUOUS
 62
     7
 10
257.402344
 20
163.06
 30
0.0
 11
257.418024
 21
163.06
 31
0.0
 12
257.418024
 22
161.94
 32
0.0
 13
257.402344
 23
161.94
 33
0.0
  0
3DFACE
  8
0
  6
CONTINUOUS
 62
     7
 10
257.418024
 20
163.06
 30
0.0
 11
257.433704
 21
163.06
 31
0.0
 12
257.433704
 22
161.94
 32
0.0
 13
257.418024
 23
161.94
 33
0.0
  0
3DFACE
  8
0
  6
CONTINUOUS
 62
     7
 10
257.433704
 20
163.06
 30
0.0
 11
257.449384
 21
163.06
 31
0.0
 12
257.449384
 22
161.94
 32
0.0
 13
257.433704
 23
161.94
 33
0.0
  0
3DFACE
  8
0
  6
CONTINUOUS
 62
     7
 10
257.449384
 20
163.06
 30
0.0
 11
257.465064
 21
163.06
 31
0.0
 12
257.465064
 22
161.94
 32
0.0
 13
257.449384
 23
161.94
 33
0.0
  0
3DFACE
  8
0
  6
CONTINUOUS
 62
     7
 10
257.465064
 20
163.06
 30
0.0
 11
257.480744
 21
163.06
 31
0.0
 12
257.480744
 22
161.94
 32
0.0
 13
257.465064
 23
161.94
 33
0.0
  0
3DFACE
  8
0
  6
CONTINUOUS
 62
     7
 10
257.480744
 20
163.06
 30
0.0
 11
257.496424
 21
163.06
 31
0.0
 12
257.496424
 22
161.94
 32
0.0
 13
257.480744
 23
161.94
 33
0.0
  0
3DFACE
  8
0
  6
CONTINUOUS
 62
     7
 10
257.496424
 20
163.06
 30
0.0
 11
257.512104
 21
163.06
 31
0.0
 12
257.512104
 22
161.94
 32
0.0
 13
257.496424
 23
161.94
 33
0.0
  0
3DFACE
  8
0
  6
CONTINUOUS
 62
     7
 10
257.512104
 20
163.06
 30
0.0
 11
257.527784
 21
163.06
 31
0.0
 12
257.527784
 22
161.94
 32
0.0
 13
257.512104
 23
161.94
 33
0.0
  0
3DFACE
  8
0
  6
CONTINUOUS
 62
     7
 10
257.527784
 20
163.06
 30
0.0
 11
257.543464
 21
163.06
 31
0.0
 12
257.543464
 22
161.94
 32
0.0
 13
257.527784
 23
161.94
 33
0.0
  0
3DFACE
  8
0
  6
CONTINUOUS
 62
     7
 10
257.543464
 20
163.06
 30
0.0
 11
257.559144
 21
163.06
 31
0.0
 12
257.559144
 22
161.94
 32
0.0
 13
257.543464
 23
161.94
 33
0.0
  0
3DFACE
  8
0
  6
CONTINUOUS
 62
     7
 10
257.559144
 20
163.06
 30
0.0
 11
257.574824
 21
163.06
 31
0.0
 12
257.574824
 22
161.94
 32
0.0
 13
257.559144
 23
161.94
 33
0.0
  0
3DFACE
  8
0
  6
CONTINUOUS
 62
     7
 10
257.574824
 20
163.06
 30
0.0
 11
257.590504
 21
163.06
 31
0.0
 12
257.590504
 22
161.94
 32
0.0
 13
257.574824
 23
161.94
 33
0.0
  0
3DFACE
  8
0
  6
CONTINUOUS
 62
     7
 10
257.590504
 20
163.06
 30
0.0
 11
257.606184
 21
163.06
 31
0.0
 12
257.606184
 22
161.94
 32
0.0
 13
257.590504
 23
161.94
 33
0.0
  0
3DFACE
  8
0
  6
CONTINUOUS
 62
     7
 10
257.606184
 20
163.06
 30
0.0
 11
257.621864
 21
163.06
 31
0.0
 12
257.621864
 22
161.94
 32
0.0
 13
257.606184
 23
161.94
 33
0.0
  0
3DFACE
  8
0
  6
CONTINUOUS
 62
     7
 10
257.621864
 20
163.06
 30
0.0
 11
257.637544
 21
163.06
 31
0.0
 12
257.637544
 22
161.94
 32
0.0
 13
257.621864
 23
161.94
 33
0.0
  0
3DFACE
  8
0
  6
CONTINUOUS
 62
     7
 10
257.637544
 20
163.06
 30
0.0
 11
257.653224
 21
163.06
 31
0.0
 12
257.653224
 22
161.94
 32
0.0
 13
257.637544
 23
161.94
 33
0.0
  0
3DFACE
  8
0
  6
CONTINUOUS
 62
     7
 10
257.653224
 20
163.06
 30
0.0
 11
257.668904
 21
163.06
 31
0.0
 12
257.668904
 22
161.94
 32
0.0
 13
257.653224
 23
161.94
 33
0.0
  0
3DFACE
  8
0
  6
CONTINUOUS
 62
     7
 10
257.668904
 20
163.06
 30
0.0
 11
257.684584
 21
163.06
 31
0.0
 12
257.684584
 22
161.94
 32
0.0
 13
257.668904
 23
161.94
 33
0.0
  0
3DFACE
  8
0
  6
CONTINUOUS
 62
     7
 10
257.684584
 20
163.06
 30
0.0
 11
257.700264
 21
163.06
 31
0.0
 12
257.700264
 22
161.94
 32
0.0
 13
257.684584
 23
161.94
 33
0.0
  0
3DFACE
  8
0
  6
CONTINUOUS
 62
     7
 10
257.700264
 20
163.06
 30
0.0
 11
257.715944
 21
163.06
 31
0.0
 12
257.715944
 22
161.94
 32
0.0
 13
257.700264
 23
161.94
 33
0.0
  0
3DFACE
  8
0
  6
CONTINUOUS
 62
     7
 10
257.715944
 20
163.06
 30
0.0
 11
257.731624
 21
163.06
 31
0.0
 12
257.731624
 22
161.94
 32
0.0
 13
257.715944
 23
161.94
 33
0.0
  0
3DFACE
  8
0
  6
CONTINUOUS
 62
     7
 10
257.731624
 20
163.06
 30
0.0
 11
257.747304
 21
163.06
 31
0.0
 12
257.747304
 22
161.94
 32
0.0
 13
257.731624
 23
161.94
 33
0.0
  0
3DFACE
  8
0
  6
CONTINUOUS
 62
     7
 10
257.747304
 20
163.06
 30
0.0
 11
257.762984
 21
163.06
 31
0.0
 12
257.762984
 22
161.94
 32
0.0
 13
257.747304
 23
161.94
 33
0.0
  0
3DFACE
  8
0
  6
CONTINUOUS
 62
     7
 10
257.762984
 20
163.06
 30
0.0
 11
257.778664
 21
163.06
 31
0.0
 12
257.778664
 22
161.94
 32
0.0
 13
257.762984
 23
161.94
 33
0.0
  0
3DFACE
  8
0
  6
CONTINUOUS
 62
     7
 10
257.778664
 20
163.06
 30
0.0
 11
257.794344
 21
163.06
 31
0.0
 12
257.794344
 22
161.94
 32
0.0
 13
257.778664
 23
161.94
 33
0.0
  0
3DFACE
  8
0
  6
CONTINUOUS
 62
     7
 10
257.794344
 20
163.06
 30
0.0
 11
257.810024
 21
163.06
 31
0.0
 12
257.810024
 22
161.94
 32
0.0
 13
257.794344
 23
161.94
 33
0.0
  0
3DFACE
  8
0
  6
CONTINUOUS
 62
     7
 10
257.810024
 20
163.06
 30
0.0
 11
257.825704
 21
163.06
 31
0.0
 12
257.825704
 22
161.94
 32
0.0
 13
257.810024
 23
161.94
 33
0.0
  0
3DFACE
  8
0
  6
CONTINUOUS
 62
     7
 10
257.825704
 20
163.06
 30
0.0
 11
257.841384
 21
163.06
 31
0.0
 12
257.841384
 22
161.94
 32
0.0
 13
257.825704
 23
161.94
 33
0.0
  0
3DFACE
  8
0
  6
CONTINUOUS
 62
     7
 10
257.841384
 20
163.06
 30
0.0
 11
257.857064
 21
163.06
 31
0.0
 12
257.857064
 22
161.94
 32
0.0
 13
257.841384
 23
161.94
 33
0.0
  0
3DFACE
  8
0
  6
CONTINUOUS
 62
     7
 10
257.857064
 20
163.06
 30
0.0
 11
257.872744
 21
163.06
 31
0.0
 12
257.872744
 22
161.94
 32
0.0
 13
257.857064
 23
161.94
 33
0.0
  0
3DFACE
  8
0
  6
CONTINUOUS
 62
     7
 10
257.872744
 20
163.06
 30
0.0
 11
257.888424
 21
163.06
 31
0.0
 12
257.888424
 22
161.94
 32
0.0
 13
257.872744
 23
161.94
 33
0.0
  0
3DFACE
  8
0
  6
CONTINUOUS
 62
     7
 10
257.888424
 20
163.06
 30
0.0
 11
257.904104
 21
163.06
 31
0.0
 12
257.904104
 22
161.94
 32
0.0
 13
257.888424
 23
161.94
 33
0.0
  0
3DFACE
  8
0
  6
CONTINUOUS
 62
     7
 10
257.904104
 20
163.06
 30
0.0
 11
257.919784
 21
163.06
 31
0.0
 12
257.919784
 22
161.94
 32
0.0
 13
257.904104
 23
161.94
 33
0.0
  0
3DFACE
  8
0
  6
CONTINUOUS
 62
     7
 10
257.919784
 20
163.06
 30
0.0
 11
257.935464
 21
163.06
 31
0.0
 12
257.935464
 22
161.94
 32
0.0
 13
257.919784
 23
161.94
 33
0.0
  0
3DFACE
  8
0
  6
CONTINUOUS
 62
     7
 10
257.935464
 20
163.06
 30
0.0
 11
257.951144
 21
163.06
 31
0.0
 12
257.951144
 22
161.94
 32
0.0
 13
257.935464
 23
161.94
 33
0.0
  0
3DFACE
  8
0
  6
CONTINUOUS
 62
     7
 10
257.951144
 20
163.06
 30
0.0
 11
257.966824
 21
163.06
 31
0.0
 12
257.966824
 22
161.94
 32
0.0
 13
257.951144
 23
161.94
 33
0.0
  0
3DFACE
  8
0
  6
CONTINUOUS
 62
     7
 10
257.966824
 20
163.06
 30
0.0
 11
257.982504
 21
163.06
 31
0.0
 12
257.982504
 22
161.94
 32
0.0
 13
257.966824
 23
161.94
 33
0.0
  0
3DFACE
  8
0
  6
CONTINUOUS
 62
     7
 10
257.982504
 20
163.06
 30
0.0
 11
257.998184
 21
163.06
 31
0.0
 12
257.998184
 22
161.94
 32
0.0
 13
257.982504
 23
161.94
 33
0.0
  0
3DFACE
  8
0
  6
CONTINUOUS
 62
     7
 10
257.998184
 20
163.06
 30
0.0
 11
258.013864
 21
163.06
 31
0.0
 12
258.013864
 22
161.94
 32
0.0
 13
257.998184
 23
161.94
 33
0.0
  0
3DFACE
  8
0
  6
CONTINUOUS
 62
     7
 10
258.013864
 20
163.06
 30
0.0
 11
258.029544
 21
163.06
 31
0.0
 12
258.029544
 22
161.94
 32
0.0
 13
258.013864
 23
161.94
 33
0.0
  0
3DFACE
  8
0
  6
CONTINUOUS
 62
     7
 10
258.029544
 20
163.06
 30
0.0
 11
258.045224
 21
163.06
 31
0.0
 12
258.045224
 22
161.94
 32
0.0
 13
258.029544
 23
161.94
 33
0.0
  0
3DFACE
  8
0
  6
CONTINUOUS
 62
     7
 10
258.045224
 20
163.06
 30
0.0
 11
258.060904
 21
163.06
 31
0.0
 12
258.060904
 22
161.94
 32
0.0
 13
258.045224
 23
161.94
 33
0.0
  0
3DFACE
  8
0
  6
CONTINUOUS
 62
     7
 10
258.060904
 20
163.06
 30
0.0
 11
258.076584
 21
163.06
 31
0.0
 12
258.076584
 22
161.94
 32
0.0
 13
258.060904
 23
161.94
 33
0.0
  0
3DFACE
  8
0
  6
CONTINUOUS
 62
     7
 10
258.076584
 20
163.06
 30
0.0
 11
258.092264
 21
163.06
 31
0.0
 12
258.092264
 22
161.94
 32
0.0
 13
258.076584
 23
161.94
 33
0.0
  0
3DFACE
  8
0
  6
CONTINUOUS
 62
     7
 10
258.092264
 20
163.06
 30
0.0
 11
258.107944
 21
163.06
 31
0.0
 12
258.107944
 22
161.94
 32
0.0
 13
258.092264
 23
161.94
 33
0.0
  0
3DFACE
  8
0
  6
CONTINUOUS
 62
     7
 10
258.107944
 20
163.06
 30
0.0
 11
258.123624
 21
163.06
 31
0.0
 12
258.123624
 22
161.94
 32
0.0
 13
258.107944
 23
161.94
 33
0.0
  0
3DFACE
  8
0
  6
CONTINUOUS
 62
     7
 10
258.123624
 20
163.06
 30
0.0
 11
258.139304
 21
163.06
 31
0.0
 12
258.139304
 22
161.94
 32
0.0
 13
258.123624
 23
161.94
 33
0.0
  0
3DFACE
  8
0
  6
CONTINUOUS
 62
     7
 10
258.139304
 20
163.06
 30
0.0
 11
258.154984
 21
163.06
 31
0.0
 12
258.154984
 22
161.94
 32
0.0
 13
258.139304
 23
161.94
 33
0.0
  0
3DFACE
  8
0
  6
CONTINUOUS
 62
     7
 10
258.154984
 20
163.06
 30
0.0
 11
258.170664
 21
163.06
 31
0.0
 12
258.170664
 22
161.94
 32
0.0
 13
258.154984
 23
161.94
 33
0.0
  0
3DFACE
  8
0
  6
CONTINUOUS
 62
     7
 10
258.170664
 20
163.06
 30
0.0
 11
258.186344
 21
163.06
 31
0.0
 12
258.186344
 22
161.94
 32
0.0
 13
258.170664
 23
161.94
 33
0.0
  0
3DFACE
  8
0
  6
CONTINUOUS
 62
     7
 10
258.186344
 20
163.06
 30
0.0
 11
258.202024
 21
163.06
 31
0.0
 12
258.202024
 22
161.94
 32
0.0
 13
258.186344
 23
161.94
 33
0.0
  0
3DFACE
  8
0
  6
CONTINUOUS
 62
     7
 10
258.202024
 20
163.06
 30
0.0
 11
258.217704
 21
163.06
 31
0.0
 12
258.217704
 22
161.94
 32
0.0
 13
258.202024
 23
161.94
 33
0.0
  0
3DFACE
  8
0
  6
CONTINUOUS
 62
     7
 10
258.217704
 20
163.06
 30
0.0
 11
258.233384
 21
163.06
 31
0.0
 12
258.233384
 22
161.94
 32
0.0
 13
258.217704
 23
161.94
 33
0.0
  0
3DFACE
  8
0
  6
CONTINUOUS
 62
     7
 10
258.233384
 20
163.06
 30
0.0
 11
258.249064
 21
163.06
 31
0.0
 12
258.249064
 22
161.94
 32
0.0
 13
258.233384
 23
161.94
 33
0.0
  0
3DFACE
  8
0
  6
CONTINUOUS
 62
     7
 10
258.249064
 20
163.06
 30
0.0
 11
258.264744
 21
163.06
 31
0.0
 12
258.264744
 22
161.94
 32
0.0
 13
258.249064
 23
161.94
 33
0.0
  0
3DFACE
  8
0
  6
CONTINUOUS
 62
     7
 10
258.264744
 20
163.06
 30
0.0
 11
258.280424
 21
163.06
 31
0.0
 12
258.280424
 22
161.94
 32
0.0
 13
258.264744
 23
161.94
 33
0.0
  0
3DFACE
  8
0
  6
CONTINUOUS
 62
     7
 10
258.280424
 20
163.06
 30
0.0
 11
258.296104
 21
163.06
 31
0.0
 12
258.296104
 22
161.94
 32
0.0
 13
258.280424
 23
161.94
 33
0.0
  0
3DFACE
  8
0
  6
CONTINUOUS
 62
     7
 10
258.296104
 20
163.06
 30
0.0
 11
258.311784
 21
163.06
 31
0.0
 12
258.311784
 22
161.94
 32
0.0
 13
258.296104
 23
161.94
 33
0.0
  0
3DFACE
  8
0
  6
CONTINUOUS
 62
     7
 10
258.311784
 20
163.06
 30
0.0
 11
258.327464
 21
163.06
 31
0.0
 12
258.327464
 22
161.94
 32
0.0
 13
258.311784
 23
161.94
 33
0.0
  0
3DFACE
  8
0
  6
CONTINUOUS
 62
     7
 10
258.327464
 20
163.06
 30
0.0
 11
258.343144
 21
163.06
 31
0.0
 12
258.343144
 22
161.94
 32
0.0
 13
258.327464
 23
161.94
 33
0.0
  0
3DFACE
  8
0
  6
CONTINUOUS
 62
     7
 10
258.343144
 20
163.06
 30
0.0
 11
258.358824
 21
163.06
 31
0.0
 12
258.358824
 22
161.94
 32
0.0
 13
258.343144
 23
161.94
 33
0.0
  0
3DFACE
  8
0
  6
CONTINUOUS
 62
     7
 10
258.358824
 20
163.06
 30
0.0
 11
258.374504
 21
163.06
 31
0.0
 12
258.374504
 22
161.94
 32
0.0
 13
258.358824
 23
161.94
 33
0.0
  0
3DFACE
  8
0
  6
CONTINUOUS
 62
     7
 10
258.374504
 20
163.06
 30
0.0
 11
258.390184
 21
163.06
 31
0.0
 12
258.390184
 22
161.94
 32
0.0
 13
258.374504
 23
161.94
 33
0.0
  0
3DFACE
  8
0
  6
CONTINUOUS
 62
     7
 10
258.390184
 20
163.06
 30
0.0
 11
258.405864
 21
163.06
 31
0.0
 12
258.405864
 22
161.94
 32
0.0
 13
258.390184
 23
161.94
 33
0.0
  0
3DFACE
  8
0
  6
CONTINUOUS
 62
     7
 10
258.405864
 20
163.06
 30
0.0
 11
258.421544
 21
163.06
 31
0.0
 12
258.421544
 22
161.94
 32
0.0
 13
258.405864
 23
161.94
 33
0.0
  0
3DFACE
  8
0
  6
CONTINUOUS
 62
     7
 10
258.421544
 20
163.06
 30
0.0
 11
258.437224
 21
163.06
 31
0.0
 12
258.437224
 22
161.94
 32
0.0
 13
258.421544
 23
161.94
 33
0.0
  0
3DFACE
  8
0
  6
CONTINUOUS
 62
     7
 10
258.437224
 20
163.06
 30
0.0
 11
258.452904
 21
163.06
 31
0.0
 12
258.452904
 22
161.94
 32
0.0
 13
258.437224
 23
161.94
 33
0.0
  0
3DFACE
  8
0
  6
CONTINUOUS
 62
     7
 10
258.452904
 20
163.06
 30
0.0
 11
258.468584
 21
163.06
 31
0.0
 12
258.468584
 22
161.94
 32
0.0
 13
258.452904
 23
161.94
 33
0.0
  0
3DFACE
  8
0
  6
CONTINUOUS
 62
     7
 10
258.468584
 20
163.06
 30
0.0
 11
258.484264
 21
163.06
 31
0.0
 12
258.484264
 22
161.94
 32
0.0
 13
258.468584
 23
161.94
 33
0.0
  0
3DFACE
  8
0
  6
CONTINUOUS
 62
     7
 10
258.484264
 20
163.06
 30
0.0
 11
258.499944
 21
163.06
 31
0.0
 12
258.499944
 22
161.94
 32
0.0
 13
258.484264
 23
161.94
 33
0.0
  0
3DFACE
  8
0
  6
CONTINUOUS
 62
     7
 10
258.499944
 20
163.06
 30
0.0
 11
258.515624
 21
163.06
 31
0.0
 12
258.515624
 22
161.94
 32
0.0
 13
258.499944
 23
161.94
 33
0.0
  0
3DFACE
  8
0
  6
CONTINUOUS
 62
     7
 10
258.515624
 20
163.06
 30
0.0
 11
258.531304
 21
163.06
 31
0.0
 12
258.531304
 22
161.94
 32
0.0
 13
258.515624
 23
161.94
 33
0.0
  0
3DFACE
  8
0
  6
CONTINUOUS
 62
     7
 10
258.531304
 20
163.06
 30
0.0
 11
258.546984
 21
163.06
 31
0.0
 12
258.546984
 22
161.94
 32
0.0
 13
258.531304
 23
161.94
 33
0.0
  0
3DFACE
  8
0
  6
CONTINUOUS
 62
     7
 10
258.546984
 20
163.06
 30
0.0
 11
258.562664
 21
163.06
 31
0.0
 12
258.562664
 22
161.94
 32
0.0
 13
258.546984
 23
161.94
 33
0.0
  0
3DFACE
  8
0
  6
CONTINUOUS
 62
     7
 10
258.562664
 20
163.06
 30
0.0
 11
258.578344
 21
163.06
 31
0.0
 12
258.578344
 22
161.94
 32
0.0
 13
258.562664
 23
161.94
 33
0.0
  0
3DFACE
  8
0
  6
CONTINUOUS
 62
     7
 10
258.578344
 20
163.06
 30
0.0
 11
258.594024
 21
163.06
 31
0.0
 12
258.594024
 22
161.94
 32
0.0
 13
258.578344
 23
161.94
 33
0.0
  0
3DFACE
  8
0
  6
CONTINUOUS
 62
     7
 10
258.594024
 20
163.06
 30
0.0
 11
258.609704
 21
163.06
 31
0.0
 12
258.609704
 22
161.94
 32
0.0
 13
258.594024
 23
161.94
 33
0.0
  0
3DFACE
  8
0
  6
CONTINUOUS
 62
     7
 10
258.609704
 20
163.06
 30
0.0
 11
258.625384
 21
163.06
 31
0.0
 12
258.625384
 22
161.94
 32
0.0
 13
258.609704
 23
161.94
 33
0.0
  0
3DFACE
  8
0
  6
CONTINUOUS
 62
     7
 10
258.625384
 20
163.06
 30
0.0
 11
258.641064
 21
163.06
 31
0.0
 12
258.641064
 22
161.94
 32
0.0
 13
258.625384
 23
161.94
 33
0.0
  0
3DFACE
  8
0
  6
CONTINUOUS
 62
     7
 10
258.641064
 20
163.06
 30
0.0
 11
258.656744
 21
163.06
 31
0.0
 12
258.656744
 22
161.94
 32
0.0
 13
258.641064
 23
161.94
 33
0.0
  0
3DFACE
  8
0
  6
CONTINUOUS
 62
     7
 10
258.656744
 20
163.06
 30
0.0
 11
258.672424
 21
163.06
 31
0.0
 12
258.672424
 22
161.94
 32
0.0
 13
258.656744
 23
161.94
 33
0.0
  0
3DFACE
  8
0
  6
CONTINUOUS
 62
     7
 10
258.672424
 20
163.06
 30
0.0
 11
258.688104
 21
163.06
 31
0.0
 12
258.688104
 22
161.94
 32
0.0
 13
258.672424
 23
161.94
 33
0.0
  0
3DFACE
  8
0
  6
CONTINUOUS
 62
     7
 10
258.688104
 20
163.06
 30
0.0
 11
258.703784
 21
163.06
 31
0.0
 12
258.703784
 22
161.94
 32
0.0
 13
258.688104
 23
161.94
 33
0.0
  0
3DFACE
  8
0
  6
CONTINUOUS
 62
     7
 10
258.703784
 20
163.06
 30
0.0
 11
258.719464
 21
163.06
 31
0.0
 12
258.719464
 22
161.94
 32
0.0
 13
258.703784
 23
161.94
 33
0.0
  0
3DFACE
  8
0
  6
CONTINUOUS
 62
     7
 10
258.719464
 20
163.06
 30
0.0
 11
258.735144
 21
163.06
 31
0.0
 12
258.735144
 22
161.94
 32
0.0
 13
258.719464
 23
161.94
 33
0.0
  0
3DFACE
  8
0
  6
CONTINUOUS
 62
     7
 10
258.735144
 20
163.06
 30
0.0
 11
258.750824
 21
163.06
 31
0.0
 12
258.750824
 22
161.94
 32
0.0
 13
258.735144
 23
161.94
 33
0.0
  0
3DFACE
  8
0
  6
CONTINUOUS
 62
     7
 10
258.750824
 20
163.06
 30
0.0
 11
258.766504
 21
163.06
 31
0.0
 12
258.766504
 22
161.94
 32
0.0
 13
258.750824
 23
161.94
 33
0.0
  0
3DFACE
  8
0
  6
CONTINUOUS
 62
     7
 10
258.766504
 20
163.06
 30
0.0
 11
258.782184
 21
163.06
 31
0.0
 12
258.782184
 22
161.94
 32
0.0
 13
258.766504
 23
161.94
 33
0.0
  0
3DFACE
  8
0
  6
CONTINUOUS
 62
     7
 10
258.782184
 20
163.06
 30
0.0
 11
258.797864
 21
163.06
 31
0.0
 12
258.797864
 22
161.94
 32
0.0
 13
258.782184
 23
161.94
 33
0.0
  0
3DFACE
  8
0
  6
CONTINUOUS
 62
     7
 10
258.797864
 20
163.06
 30
0.0
 11
258.813544
 21
163.06
 31
0.0
 12
258.813544
 22
161.94
 32
0.0
 13
258.797864
 23
161.94
 33
0.0
  0
3DFACE
  8
0
  6
CONTINUOUS
 62
     7
 10
258.813544
 20
163.06
 30
0.0
 11
258.829224
 21
163.06
 31
0.0
 12
258.829224
 22
161.94
 32
0.0
 13
258.813544
 23
161.94
 33
0.0
  0
3DFACE
  8
0
  6
CONTINUOUS
 62
     7
 10
258.829224
 20
163.06
 30
0.0
 11
258.844904
 21
163.06
 31
0.0
 12
258.844904
 22
161.94
 32
0.0
 13
258.829224
 23
161.94
 33
0.0
  0
3DFACE
  8
0
  6
CONTINUOUS
 62
     7
 10
258.844904
 20
163.06
 30
0.0
 11
258.860584
 21
163.06
 31
0.0
 12
258.860584
 22
161.94
 32
0.0
 13
258.844904
 23
161.94
 33
0.0
  0
3DFACE
  8
0
  6
CONTINUOUS
 62
     7
 10
258.860584
 20
163.06
 30
0.0
 11
258.876264
 21
163.06
 31
0.0
 12
258.876264
 22
161.94
 32
0.0
 13
258.860584
 23
161.94
 33
0.0
  0
3DFACE
  8
0
  6
CONTINUOUS
 62
     7
 10
258.876264
 20
163.06
 30
0.0
 11
258.891944
 21
163.06
 31
0.0
 12
258.891944
 22
161.94
 32
0.0
 13
258.876264
 23
161.94
 33
0.0
  0
3DFACE
  8
0
  6
CONTINUOUS
 62
     7
 10
258.891944
 20
163.06
 30
0.0
 11
258.907624
 21
163.06
 31
0.0
 12
258.907624
 22
161.94
 32
0.0
 13
258.891944
 23
161.94
 33
0.0
  0
3DFACE
  8
0
  6
CONTINUOUS
 62
     7
 10
258.907624
 20
163.06
 30
0.0
 11
258.923304
 21
163.06
 31
0.0
 12
258.923304
 22
161.94
 32
0.0
 13
258.907624
 23
161.94
 33
0.0
  0
3DFACE
  8
0
  6
CONTINUOUS
 62
     7
 10
258.923304
 20
163.06
 30
0.0
 11
258.938984
 21
163.06
 31
0.0
 12
258.938984
 22
161.94
 32
0.0
 13
258.923304
 23
161.94
 33
0.0
  0
3DFACE
  8
0
  6
CONTINUOUS
 62
     7
 10
258.938984
 20
163.06
 30
0.0
 11
258.954664
 21
163.06
 31
0.0
 12
258.954664
 22
161.94
 32
0.0
 13
258.938984
 23
161.94
 33
0.0
  0
3DFACE
  8
0
  6
CONTINUOUS
 62
     7
 10
258.954664
 20
163.06
 30
0.0
 11
258.970344
 21
163.06
 31
0.0
 12
258.970344
 22
161.94
 32
0.0
 13
258.954664
 23
161.94
 33
0.0
  0
3DFACE
  8
0
  6
CONTINUOUS
 62
     7
 10
258.970344
 20
163.06
 30
0.0
 11
258.986024
 21
163.06
 31
0.0
 12
258.986024
 22
161.94
 32
0.0
 13
258.970344
 23
161.94
 33
0.0
  0
3DFACE
  8
0
  6
CONTINUOUS
 62
     7
 10
258.986024
 20
163.06
 30
0.0
 11
259.001704
 21
163.06
 31
0.0
 12
259.001704
 22
161.94
 32
0.0
 13
258.986024
 23
161.94
 33
0.0
  0
3DFACE
  8
0
  6
CONTINUOUS
 62
     7
 10
259.001704
 20
163.06
 30
0.0
 11
259.017384
 21
163.06
 31
0.0
 12
259.017384
 22
161.94
 32
0.0
 13
259.001704
 23
161.94
 33
0.0
  0
3DFACE
  8
0
  6
CONTINUOUS
 62
     7
 10
259.017384
 20
163.06
 30
0.0
 11
259.033064
 21
163.06
 31
0.0
 12
259.033064
 22
161.94
 32
0.0
 13
259.017384
 23
161.94
 33
0.0
  0
3DFACE
  8
0
  6
CONTINUOUS
 62
     7
 10
259.033064
 20
163.06
 30
0.0
 11
259.048744
 21
163.06
 31
0.0
 12
259.048744
 22
161.94
 32
0.0
 13
259.033064
 23
161.94
 33
0.0
  0
3DFACE
  8
0
  6
CONTINUOUS
 62
     7
 10
259.048744
 20
163.06
 30
0.0
 11
259.064424
 21
163.06
 31
0.0
 12
259.064424
 22
161.94
 32
0.0
 13
259.048744
 23
161.94
 33
0.0
  0
3DFACE
  8
0
  6
CONTINUOUS
 62
     7
 10
259.064424
 20
163.06
 30
0.0
 11
259.080104
 21
163.06
 31
0.0
 12
259.080104
 22
161.94
 32
0.0
 13
259.064424
 23
161.94
 33
0.0
  0
3DFACE
  8
0
  6
CONTINUOUS
 62
     7
 10
259.080104
 20
163.06
 30
0.0
 11
259.095784
 21
163.06
 31
0.0
 12
259.095784
 22
161.94
 32
0.0
 13
259.080104
 23
161.94
 33
0.0
  0
3DFACE
  8
0
  6
CONTINUOUS
 62
     7
 10
259.095784
 20
163.06
 30
0.0
 11
259.111464
 21
163.06
 31
0.0
 12
259.111464
 22
161.94
 32
0.0
 13
259.095784
 23
161.94
 33
0.0
  0
3DFACE
  8
0
  6
CONTINUOUS
 62
     7
 10
259.111464
 20
163.06
 30
0.0
 11
259.127144
 21
163.06
 31
0.0
 12
259.127144
 22
161.94
 32
0.0
 13
259.111464
 23
161.94
 33
0.0
  0
3DFACE
  8
0
  6
CONTINUOUS
 62
     7
 10
259.127144
 20
163.06
 30
0.0
 11
259.142824
 21
163.06
 31
0.0
 12
259.142824
 22
161.94
 32
0.0
 13
259.127144
 23
161.94
 33
0.0
  0
3DFACE
  8
0
  6
CONTINUOUS
 62
     7
 10
259.142824
 20
163.06
 30
0.0
 11
259.158504
 21
163.06
 31
0.0
 12
259.158504
 22
161.94
 32
0.0
 13
259.142824
 23
161.94
 33
0.0
  0
3DFACE
  8
0
  6
CONTINUOUS
 62
     7
 10
259.158504
 20
163.06
 30
0.0
 11
259.174184
 21
163.06
 31
0.0
 12
259.174184
 22
161.94
 32
0.0
 13
259.158504
 23
161.94
 33
0.0
  0
3DFACE
  8
0
  6
CONTINUOUS
 62
     7
 10
259.174184
 20
163.06
 30
0.0
 11
259.189864
 21
163.06
 31
0.0
 12
259.189864
 22
161.94
 32
0.0
 13
259.174184
 23
161.94
 33
0.0
  0
3DFACE
  8
0
  6
CONTINUOUS
 62
     7
 10
259.189864
 20
163.06
 30
0.0
 11
259.205544
 21
163.06
 31
0.0
 12
259.205544
 22
161.94
 32
0.0
 13
259.189864
 23
161.94
 33
0.0
  0
3DFACE
  8
0
  6
CONTINUOUS
 62
     7
 10
259.205544
 20
163.06
 30
0.0
 11
259.221224
 21
163.06
 31
0.0
 12
259.221224
 22
161.94
 32
0.0
 13
259.205544
 23
161.94
 33
0.0
  0
3DFACE
  8
0
  6
CONTINUOUS
 62
     7
 10
259.221224
 20
163.06
 30
0.0
 11
259.236904
 21
163.06
 31
0.0
 12
259.236904
 22
161.94
 32
0.0
 13
259.221224
 23
161.94
 33
0.0
  0
3DFACE
  8
0
  6
CONTINUOUS
 62
     7
 10
259.236904
 20
163.06
 30
0.0
 11
259.252584
 21
163.06
 31
0.0
 12
259.252584
 22
161.94
 32
0.0
 13
259.236904
 23
161.94
 33
0.0
  0
3DFACE
  8
0
  6
CONTINUOUS
 62
     7
 10
259.252584
 20
163.06
 30
0.0
 11
259.268264
 21
163.06
 31
0.0
 12
259.268264
 22
161.94
 32
0.0
 13
259.252584
 23
161.94
 33
0.0
  0
3DFACE
  8
0
  6
CONTINUOUS
 62
     7
 10
259.268264
 20
163.06
 30
0.0
 11
259.283944
 21
163.06
 31
0.0
 12
259.283944
 22
161.94
 32
0.0
 13
259.268264
 23
161.94
 33
0.0
  0
3DFACE
  8
0
  6
CONTINUOUS
 62
     7
 10
259.283944
 20
163.06
 30
0.0
 11
259.299624
 21
163.06
 31
0.0
 12
259.299624
 22
161.94
 32
0.0
 13
259.283944
 23
161.94
 33
0.0
  0
3DFACE
  8
0
  6
CONTINUOUS
 62
     7
 10
259.299624
 20
163.06
 30
0.0
 11
259.315304
 21
163.06
 31
0.0
 12
259.315304
 22
161.94
 32
0.0
 13
259.299624
 23
161.94
 33
0.0
  0
3DFACE
  8
0
  6
CONTINUOUS
 62
     7
 10
259.315304
 20
163.06
 30
0.0
 11
259.330984
 21
163.06
 31
0.0
 12
259.330984
 22
161.94
 32
0.0
 13
259.315304
 23
161.94
 33
0.0
  0
3DFACE
  8
0
  6
CONTINUOUS
 62
     7
 10
259.330984
 20
163.06
 30
0.0
 11
259.346664
 21
163.06
 31
0.0
 12
259.346664
 22
161.94
 32
0.0
 13
259.330984
 23
161.94
 33
0.0
  0
3DFACE
  8
0
  6
CONTINUOUS
 62
     7
 10
259.346664
 20
163.06
 30
0.0
 11
259.362344
 21
163.06
 31
0.0
 12
259.362344
 22
161.94
 32
0.0
 13
259.346664
 23
161.94
 33
0.0
  0
3DFACE
  8
0
  6
CONTINUOUS
 62
     7
 10
259.362344
 20
163.06
 30
0.0
 11
259.378024
 21
163.06
 31
0.0
 12
259.378024
 22
161.94
 32
0.0
 13
259.362344
 23
161.94
 33
0.0
  0
3DFACE
  8
0
  6
CONTINUOUS
 62
     7
 10
259.378024
 20
163.06
 30
0.0
 11
259.393704
 21
163.06
 31
0.0
 12
259.393704
 22
161.94
 32
0.0
 13
259.378024
 23
161.94
 33
0.0
  0
3DFACE
  8
0
  6
CONTINUOUS
 62
     7
 10
259.393704
 20
163.06
 30
0.0
 11
259.409384
 21
163.06
 31
0.0
 12
259.409384
 22
161.94
 32
0.0
 13
259.393704
 23
161.94
 33
0.0
  0
3DFACE
  8
0
  6
CONTINUOUS
 62
     7
 10
259.409384
 20
163.06
 30
0.0
 11
259.425064
 21
163.06
 31
0.0
 12
259.425064
 22
161.94
 32
0.0
 13
259.409384
 23
161.94
 33
0.0
  0
3DFACE
  8
0
  6
CONTINUOUS
 62
     7
 10
259.425064
 20
163.06
 30
0.0
 11
259.440744
 21
163.06
 31
0.0
 12
259.440744
 22
161.94
 32
0.0
 13
259.425064
 23
161.94
 33
0.0
  0
3DFACE
  8
0
  6
CONTINUOUS
 62
     7
 10
259.440744
 20
163.06
 30
0.0
 11
259.456424
 21
163.06
 31
0.0
 12
259.456424
 22
161.94
 32
0.0
 13
259.440744
 23
161.94
 33
0.0
  0
3DFACE
  8
0
  6
CONTINUOUS
 62
     7
 10
259.456424
 20
163.06
 30
0.0
 11
259.472104
 21
163.06
 31
0.0
 12
259.472104
 22
161.94
 32
0.0
 13
259.456424
 23
161.94
 33
0.0
  0
3DFACE
  8
0
  6
CONTINUOUS
 62
     7
 10
259.472104
 20
163.06
 30
0.0
 11
259.487784
 21
163.06
 31
0.0
 12
259.487784
 22
161.94
 32
0.0
 13
259.472104
 23
161.94
 33
0.0
  0
3DFACE
  8
0
  6
CONTINUOUS
 62
     7
 10
259.487784
 20
163.06
 30
0.0
 11
259.503464
 21
163.06
 31
0.0
 12
259.503464
 22
161.94
 32
0.0
 13
259.487784
 23
161.94
 33
0.0
  0
3DFACE
  8
0
  6
CONTINUOUS
 62
     7
 10
259.503464
 20
163.06
 30
0.0
 11
259.519144
 21
163.06
 31
0.0
 12
259.519144
 22
161.94
 32
0.0
 13
259.503464
 23
161.94
 33
0.0
  0
3DFACE
  8
0
  6
CONTINUOUS
 62
     7
 10
259.519144
 20
163.06
 30
0.0
 11
259.534824
 21
163.06
 31
0.0
 12
259.534824
 22
161.94
 32
0.0
 13
259.519144
 23
161.94
 33
0.0
  0
3DFACE
  8
0
  6
CONTINUOUS
 62
     7
 10
259.534824
 20
163.06
 30
0.0
 11
259.550504
 21
163.06
 31
0.0
 12
259.550504
 22
161.94
 32
0.0
 13
259.534824
 23
161.94
 33
0.0
  0
3DFACE
  8
0
  6
CONTINUOUS
 62
     7
 10
259.550504
 20
163.06
 30
0.0
 11
259.566184
 21
163.06
 31
0.0
 12
259.566184
 22
161.94
 32
0.0
 13
259.550504
 23
161.94
 33
0.0
  0
3DFACE
  8
0
  6
CONTINUOUS
 62
     7
 10
259.566184
 20
163.06
 30
0.0
 11
259.581864
 21
163.06
 31
0.0
 12
259.581864
 22
161.94
 32
0.0
 13
259.566184
 23
161.94
 33
0.0
  0
3DFACE
  8
0
  6
CONTINUOUS
 62
     7
 10
259.581864
 20
163.06
 30
0.0
 11
259.597544
 21
163.06
 31
0.0
 12
259.597544
 22
161.94
 32
0.0
 13
259.581864
 23
161.94
 33
0.0
  0
3DFACE
  8
0
  6
CONTINUOUS
 62
     7
 10
259.597544
 20
163.06
 30
0.0
 11
259.613224
 21
163.06
 31
0.0
 12
259.613224
 22
161.94
 32
0.0
 13
259.597544
 23
161.94
 33
0.0
  0
3DFACE
  8
0
  6
CONTINUOUS
 62
     7
 10
259.613224
 20
163.06
 30
0.0
 11
259.628904
 21
163.06
 31
0.0
 12
259.628904
 22
161.94
 32
0.0
 13
259.613224
 23
161.94
 33
0.0
  0
3DFACE
  8
0
  6
CONTINUOUS
 62
     7
 10
259.628904
 20
163.06
 30
0.0
 11
259.644584
 21
163.06
 31
0.0
 12
259.644584
 22
161.94
 32
0.0
 13
259.628904
 23
161.94
 33
0.0
  0
3DFACE
  8
0
  6
CONTINUOUS
 62
     7
 10
259.644584
 20
163.06
 30
0.0
 11
259.660264
 21
163.06
 31
0.0
 12
259.660264
 22
161.94
 32
0.0
 13
259.644584
 23
161.94
 33
0.0
  0
3DFACE
  8
0
  6
CONTINUOUS
 62
     7
 10
259.660264
 20
163.06
 30
0.0
 11
259.675944
 21
163.06
 31
0.0
 12
259.675944
 22
161.94
 32
0.0
 13
259.660264
 23
161.94
 33
0.0
  0
3DFACE
  8
0
  6
CONTINUOUS
 62
     7
 10
259.675944
 20
163.06
 30
0.0
 11
259.691624
 21
163.06
 31
0.0
 12
259.691624
 22
161.94
 32
0.0
 13
259.675944
 23
161.94
 33
0.0
  0
3DFACE
  8
0
  6
CONTINUOUS
 62
     7
 10
259.691624
 20
163.06
 30
0.0
 11
259.707304
 21
163.06
 31
0.0
 12
259.707304
 22
161.94
 32
0.0
 13
259.691624
 23
161.94
 33
0.0
  0
3DFACE
  8
0
  6
CONTINUOUS
 62
     7
 10
259.707304
 20
163.06
 30
0.0
 11
259.722984
 21
163.06
 31
0.0
 12
259.722984
 22
161.94
 32
0.0
 13
259.707304
 23
161.94
 33
0.0
  0
3DFACE
  8
0
  6
CONTINUOUS
 62
     7
 10
259.722984
 20
163.06
 30
0.0
 11
259.738664
 21
163.06
 31
0.0
 12
259.738664
 22
161.94
 32
0.0
 13
259.722984
 23
161.94
 33
0.0
  0
3DFACE
  8
0
  6
CONTINUOUS
 62
     7
 10
259.738664
 20
163.06
 30
0.0
 11
259.754344
 21
163.06
 31
0.0
 12
259.754344
 22
161.94
 32
0.0
 13
259.738664
 23
161.94
 33
0.0
  0
3DFACE
  8
0
  6
CONTINUOUS
 62
     7
 10
259.754344
 20
163.06
 30
0.0
 11
259.770024
 21
163.06
 31
0.0
 12
259.770024
 22
161.94
 32
0.0
 13
259.754344
 23
161.94
 33
0.0
  0
3DFACE
  8
0
  6
CONTINUOUS
 62
     7
 10
259.770024
 20
163.06
 30
0.0
 11
259.785704
 21
163.06
 31
0.0
 12
259.785704
 22
161.94
 32
0.0
 13
259.770024
 23
161.94
 33
0.0
  0
3DFACE
  8
0
  6
CONTINUOUS
 62
     7
 10
259.785704
 20
163.06
 30
0.0
 11
259.801384
 21
163.06
 31
0.0
 12
259.801384
 22
161.94
 32
0.0
 13
259.785704
 23
161.94
 33
0.0
  0
3DFACE
  8
0
  6
CONTINUOUS
 62
     7
 10
259.801384
 20
163.06
 30
0.0
 11
259.817064
 21
163.06
 31
0.0
 12
259.817064
 22
161.94
 32
0.0
 13
259.801384
 23
161.94
 33
0.0
  0
3DFACE
  8
0
  6
CONTINUOUS
 62
     7
 10
259.817064
 20
163.06
 30
0.0
 11
259.832744
 21
163.06
 31
0.0
 12
259.832744
 22
161.94
 32
0.0
 13
259.817064
 23
161.94
 33
0.0
  0
3DFACE
  8
0
  6
CONTINUOUS
 62
     7
 10
259.832744
 20
163.06
 30
0.0
 11
259.848424
 21
163.06
 31
0.0
 12
259.848424
 22
161.94
 32
0.0
 13
259.832744
 23
161.94
 33
0.0
  0
3DFACE
  8
0
  6
CONTINUOUS
 62
     7
 10
259.848424
 20
163.06
 30
0.0
 11
259.864104
 21
163.06
 31
0.0
 12
259.864104
 22
161.94
 32
0.0
 13
259.848424
 23
161.94
 33
0.0
  0
3DFACE
  8
0
  6
CONTINUOUS
 62
     7
 10
259.864104
 20
163.06
 30
0.0
 11
259.879784
 21
163.06
 31
0.0
 12
259.879784
 22
161.94
 32
0.0
 13
259.864104
 23
161.94
 33
0.0
  0
3DFACE
  8
0
  6
CONTINUOUS
 62
     7
 10
259.879784
 20
163.06
 30
0.0
 11
259.895464
 21
163.06
 31
0.0
 12
259.895464
 22
161.94
 32
0.0
 13
259.879784
 23
161.94
 33
0.0
  0
3DFACE
  8
0
  6
CONTINUOUS
 62
     7
 10
259.895464
 20
163.06
 30
0.0
 11
259.911144
 21
163.06
 31
0.0
 12
259.911144
 22
161.94
 32
0.0
 13
259.895464
 23
161.94
 33
0.0
  0
3DFACE
  8
0
  6
CONTINUOUS
 62
     7
 10
259.911144
 20
163.06
 30
0.0
 11
259.926824
 21
163.06
 31
0.0
 12
259.926824
 22
161.94
 32
0.0
 13
259.911144
 23
161.94
 33
0.0
  0
3DFACE
  8
0
  6
CONTINUOUS
 62
     7
 10
259.926824
 20
163.06
 30
0.0
 11
259.942504
 21
163.06
 31
0.0
 12
259.942504
 22
161.94
 32
0.0
 13
259.926824
 23
161.94
 33
0.0
  0
3DFACE
  8
0
  6
CONTINUOUS
 62
     7
 10
259.942504
 20
163.06
 30
0.0
 11
259.958184
 21
163.06
 31
0.0
 12
259.958184
 22
161.94
 32
0.0
 13
259.942504
 23
161.94
 33
0.0
  0
3DFACE
  8
0
  6
CONTINUOUS
 62
     7
 10
259.958184
 20
163.06
 30
0.0
 11
259.973864
 21
163.06
 31
0.0
 12
259.973864
 22
161.94
 32
0.0
 13
259.958184
 23
161.94
 33
0.0
  0
3DFACE
  8
0
  6
CONTINUOUS
 62
     7
 10
259.973864
 20
163.06
 30
0.0
 11
259.989544
 21
163.06
 31
0.0
 12
259.989544
 22
161.94
 32
0.0
 13
259.973864
 23
161.94
 33
0.0
  0
3DFACE
  8
0
  6
CONTINUOUS
 62
     7
 10
259.989544
 20
163.06
 30
0.0
 11
260.005224
 21
163.06
 31
0.0
 12
260.005224
 22
161.94
 32
0.0
 13
259.989544
 23
161.94
 33
0.0
  0
3DFACE
  8
0
  6
CONTINUOUS
 62
     7
 10
260.005224
 20
163.06
 30
0.0
 11
260.020904
 21
163.06
 31
0.0
 12
260.020904
 22
161.94
 32
0.0
 13
260.005224
 23
161.94
 33
0.0
  0
3DFACE
  8
0
  6
CONTINUOUS
 62
     7
 10
260.020904
 20
163.06
 30
0.0
 11
260.036584
 21
163.06
 31
0.0
 12
260.036584
 22
161.94
 32
0.0
 13
260.020904
 23
161.94
 33
0.0
  0
3DFACE
  8
0
  6
CONTINUOUS
 62
     7
 10
260.036584
 20
163.06
 30
0.0
 11
260.052264
 21
163.06
 31
0.0
 12
260.052264
 22
161.94
 32
0.0
 13
260.036584
 23
161.94
 33
0.0
  0
3DFACE
  8
0
  6
CONTINUOUS
 62
     7
 10
260.052264
 20
163.06
 30
0.0
 11
260.067944
 21
163.06
 31
0.0
 12
260.067944
 22
161.94
 32
0.0
 13
260.052264
 23
161.94
 33
0.0
  0
3DFACE
  8
0
  6
CONTINUOUS
 62
     7
 10
260.067944
 20
163.06
 30
0.0
 11
260.083624
 21
163.06
 31
0.0
 12
260.083624
 22
161.94
 32
0.0
 13
260.067944
 23
161.94
 33
0.0
  0
3DFACE
  8
0
  6
CONTINUOUS
 62
     7
 10
260.083624
 20
163.06
 30
0.0
 11
260.099304
 21
163.06
 31
0.0
 12
260.099304
 22
161.94
 32
0.0
 13
260.083624
 23
161.94
 33
0.0
  0
3DFACE
  8
0
  6
CONTINUOUS
 62
     7
 10
260.099304
 20
163.06
 30
0.0
 11
260.114984
 21
163.06
 31
0.0
 12
260.114984
 22
161.94
 32
0.0
 13
260.099304
 23
161.94
 33
0.0
  0
3DFACE
  8
0
  6
CONTINUOUS
 62
     7
 10
260.114984
 20
163.06
 30
0.0
 11
260.130664
 21
163.06
 31
0.0
 12
260.130664
 22
161.94
 32
0.0
 13
260.114984
 23
161.94
 33
0.0
  0
3DFACE
  8
0
  6
CONTINUOUS
 62
     7
 10
260.130664
 20
163.06
 30
0.0
 11
260.146344
 21
163.06
 31
0.0
 12
260.146344
 22
161.94
 32
0.0
 13
260.130664
 23
161.94
 33
0.0
  0
3DFACE
  8
0
  6
CONTINUOUS
 62
     7
 10
260.146344
 20
163.06
 30
0.0
 11
260.162024
 21
163.06
 31
0.0
 12
260.162024
 22
161.94
 32
0.0
 13
260.146344
 23
161.94
 33
0.0
  0
3DFACE
  8
0
  6
CONTINUOUS
 62
     7
 10
260.162024
 20
163.06
 30
0.0
 11
260.177704
 21
163.06
 31
0.0
 12
260.177704
 22
161.94
 32
0.0
 13
260.162024
 23
161.94
 33
0.0
  0
3DFACE
  8
0
  6
CONTINUOUS
 62
     7
 10
260.177704
 20
163.06
 30
0.0
 11
260.193384
 21
163.06
 31
0.0
 12
260.193384
 22
161.94
 32
0.0
 13
260.177704
 23
161.94
 33
0.0
  0
3DFACE
  8
0
  6
CONTINUOUS
 62
     7
 10
260.193384
 20
163.06
 30
0.0
 11
260.209064
 21
163.06
 31
0.0
 12
260.209064
 22
161.94
 32
0.0
 13
260.193384
 23
161.94
 33
0.0
  0
3DFACE
  8
0
  6
CONTINUOUS
 62
     7
 10
260.209064
 20
163.06
 30
0.0
 11
260.224744
 21
163.06
 31
0.0
 12
260.224744
 22
161.94
 32
0.0
 13
260.209064
 23
161.94
 33
0.0
  0
3DFACE
  8
0
  6
CONTINUOUS
 62
     7
 10
260.224744
 20
163.06
 30
0.0
 11
260.240424
 21
163.06
 31
0.0
 12
260.240424
 22
161.94
 32
0.0
 13
260.224744
 23
161.94
 33
0.0
  0
3DFACE
  8
0
  6
CONTINUOUS
 62
     7
 10
260.240424
 20
163.06
 30
0.0
 11
260.256104
 21
163.06
 31
0.0
 12
260.256104
 22
161.94
 32
0.0
 13
260.240424
 23
161.94
 33
0.0
  0
3DFACE
  8
0
  6
CONTINUOUS
 62
     7
 10
260.256104
 20
163.06
 30
0.0
 11
260.271784
 21
163.06
 31
0.0
 12
260.271784
 22
161.94
 32
0.0
 13
260.256104
 23
161.94
 33
0.0
  0
3DFACE
  8
0
  6
CONTINUOUS
 62
     7
 10
260.271784
 20
163.06
 30
0.0
 11
260.287464
 21
163.06
 31
0.0
 12
260.287464
 22
161.94
 32
0.0
 13
260.271784
 23
161.94
 33
0.0
  0
3DFACE
  8
0
  6
CONTINUOUS
 62
     7
 10
260.287464
 20
163.06
 30
0.0
 11
260.303144
 21
163.06
 31
0.0
 12
260.303144
 22
161.94
 32
0.0
 13
260.287464
 23
161.94
 33
0.0
  0
3DFACE
  8
0
  6
CONTINUOUS
 62
     7
 10
260.303144
 20
163.06
 30
0.0
 11
260.318824
 21
163.06
 31
0.0
 12
260.318824
 22
161.94
 32
0.0
 13
260.303144
 23
161.94
 33
0.0
  0
3DFACE
  8
0
  6
CONTINUOUS
 62
     7
 10
260.318824
 20
163.06
 30
0.0
 11
260.334504
 21
163.06
 31
0.0
 12
260.334504
 22
161.94
 32
0.0
 13
260.318824
 23
161.94
 33
0.0
  0
3DFACE
  8
0
  6
CONTINUOUS
 62
     7
 10
260.334504
 20
163.06
 30
0.0
 11
260.350184
 21
163.06
 31
0.0
 12
260.350184
 22
161.94
 32
0.0
 13
260.334504
 23
161.94
 33
0.0
  0
3DFACE
  8
0
  6
CONTINUOUS
 62
     7
 10
260.350184
 20
163.06
 30
0.0
 11
260.365864
 21
163.06
 31
0.0
 12
260.365864
 22
161.94
 32
0.0
 13
260.350184
 23
161.94
 33
0.0
  0
3DFACE
  8
0
  6
CONTINUOUS
 62
     7
 10
260.365864
 20
163.06
 30
0.0
 11
260.381544
 21
163.06
 31
0.0
 12
260.381544
 22
161.94
 32
0.0
 13
260.365864
 23
161.94
 33
0.0
  0
3DFACE
  8
0
  6
CONTINUOUS
 62
     7
 10
260.381544
 20
163.06
 30
0.0
 11
260.397224
 21
163.06
 31
0.0
 12
260.397224
 22
161.94
 32
0.0
 13
260.381544
 23
161.94
 33
0.0
  0
3DFACE
  8
0
  6
CONTINUOUS
 62
     7
 10
260.397224
 20
163.06
 30
0.0
 11
260.412904
 21
163.06
 31
0.0
 12
260.412904
 22
161.94
 32
0.0
 13
260.397224
 23
161.94
 33
0.0
  0
3DFACE
  8
0
  6
CONTINUOUS
 62
     7
 10
260.412904
 20
163.06
 30
0.0
 11
260.428584
 21
163.06
 31
0.0
 12
260.428584
 22
161.94
 32
0.0
 13
260.412904
 23
161.94
 33
0.0
  0
3DFACE
  8
0
  6
CONTINUOUS
 62
     7
 10
260.428584
 20
163.06
 30
0.0
 11
260.444264
 21
163.06
 31
0.0
 12
260.444264
 22
161.94
 32
0.0
 13
260.428584
 23
161.94
 33
0.0
  0
3DFACE
  8
0
  6
CONTINUOUS
 62
     7
 10
260.444264
 20
163.06
 30
0.0
 11
260.459944
 21
163.06
 31
0.0
 12
260.459944
 22
161.94
 32
0.0
 13
260.444264
 23
161.94
 33
0.0
  0
3DFACE
  8
0
  6
CONTINUOUS
 62
     7
 10
260.459944
 20
163.06
 30
0.0
 11
260.475624
 21
163.06
 31
0.0
 12
260.475624
 22
161.94
 32
0.0
 13
260.459944
 23
161.94
 33
0.0
  0
3DFACE
  8
0
  6
CONTINUOUS
 62
     7
 10
260.475624
 20
163.06
 30
0.0
 11
260.491304
 21
163.06
 31
0.0
 12
260.491304
 22
161.94
 32
0.0
 13
260.475624
 23
161.94
 33
0.0
  0
3DFACE
  8
0
  6
CONTINUOUS
 62
     7
 10
260.491304
 20
163.06
 30
0.0
 11
260.506984
 21
163.06
 31
0.0
 12
260.506984
 22
161.94
 32
0.0
 13
260.491304
 23
161.94
 33
0.0
  0
3DFACE
  8
0
  6
CONTINUOUS
 62
     7
 10
260.506984
 20
163.06
 30
0.0
 11
260.522664
 21
163.06
 31
0.0
 12
260.522664
 22
161.94
 32
0.0
 13
260.506984
 23
161.94
 33
0.0
  0
3DFACE
  8
0
  6
CONTINUOUS
 62
     7
 10
260.522664
 20
163.06
 30
0.0
 11
260.538344
 21
163.06
 31
0.0
 12
260.538344
 22
161.94
 32
0.0
 13
260.522664
 23
161.94
 33
0.0
  0
3DFACE
  8
0
  6
CONTINUOUS
 62
     7
 10
260.538344
 20
163.06
 30
0.0
 11
260.554024
 21
163.06
 31
0.0
 12
260.554024
 22
161.94
 32
0.0
 13
260.538344
 23
161.94
 33
0.0
  0
LINE
  8
0
  6
CONTINUOUS
 62
     7
 10
233.465688
 20
161.164644
 30
0.0
 11
231.119923
 21
162.499998
 31
0.0
  0
LINE
  8
0
  6
CONTINUOUS
 62
     7
 10
231.119923
 20
162.499998
 30
0.0
 11
233.465688
 21
163.689917
 31
0.0
  0
LINE
  8
0
  6
CONTINUOUS
 62
     7
 10
269.180922
 20
213.16073
 30
0.0
 11
269.180922
 21
211.80646
 31
0.0
  0
LINE
  8
0
  6
CONTINUOUS
 62
     7
 10
267.970694
 20
211.80646
 30
0.0
 11
269.165035
 21
211.80646
 31
0.0
  0
LINE
  8
0
  6
CONTINUOUS
 62
     7
 10
269.165035
 20
211.80646
 30
0.0
 11
270.359376
 21
211.80646
 31
0.0
  0
LINE
  8
0
  6
CONTINUOUS
 62
     7
 10
268.349099
 20
211.32685
 30
0.0
 11
269.93367
 21
211.32685
 31
0.0
  0
LINE
  8
0
  6
CONTINUOUS
 62
     7
 10
268.680204
 20
210.838675
 30
0.0
 11
269.56709
 21
210.838675
 31
0.0
  0
LINE
  8
0
  6
CONTINUOUS
 62
     7
 10
218.512463
 20
221.200635
 30
0.0
 11
218.512463
 21
219.846365
 31
0.0
  0
LINE
  8
0
  6
CONTINUOUS
 62
     7
 10
217.302235
 20
219.846365
 30
0.0
 11
218.496576
 21
219.846365
 31
0.0
  0
LINE
  8
0
  6
CONTINUOUS
 62
     7
 10
218.496576
 20
219.846365
 30
0.0
 11
219.690917
 21
219.846365
 31
0.0
  0
LINE
  8
0
  6
CONTINUOUS
 62
     7
 10
217.68064
 20
219.366754
 30
0.0
 11
219.265211
 21
219.366754
 31
0.0
  0
LINE
  8
0
  6
CONTINUOUS
 62
     7
 10
218.011745
 20
218.87858
 30
0.0
 11
218.898632
 21
218.87858
 31
0.0
  0
LINE
  8
0
  6
CONTINUOUS
 62
     7
 10
232.852984
 20
218.664843
 30
0.0
 11
230.507219
 21
220.000196
 31
0.0
  0
LINE
  8
0
  6
CONTINUOUS
 62
     7
 10
230.507219
 20
220.000196
 30
0.0
 11
232.852984
 21
221.190116
 31
0.0
  0
LINE
  8
0
  6
CONTINUOUS
 62
     7
 10
269.180922
 20
223.131222
 30
0.0
 11
269.180922
 21
221.776951
 31
0.0
  0
LINE
  8
0
  6
CONTINUOUS
 62
     7
 10
267.970694
 20
221.776951
 30
0.0
 11
269.165035
 21
221.776951
 31
0.0
  0
LINE
  8
0
  6
CONTINUOUS
 62
     7
 10
269.165035
 20
221.776951
 30
0.0
 11
270.359376
 21
221.776951
 31
0.0
  0
LINE
  8
0
  6
CONTINUOUS
 62
     7
 10
268.349099
 20
221.297341
 30
0.0
 11
269.93367
 21
221.297341
 31
0.0
  0
LINE
  8
0
  6
CONTINUOUS
 62
     7
 10
268.680204
 20
220.809166
 30
0.0
 11
269.56709
 21
220.809166
 31
0.0
  0
LINE
  8
0
  6
CONTINUOUS
 62
     7
 10
351.027424
 20
228.196862
 30
0.0
 11
351.027424
 21
226.842592
 31
0.0
  0
LINE
  8
0
  6
CONTINUOUS
 62
     7
 10
349.817196
 20
226.842592
 30
0.0
 11
351.011537
 21
226.842592
 31
0.0
  0
LINE
  8
0
  6
CONTINUOUS
 62
     7
 10
351.011537
 20
226.842592
 30
0.0
 11
352.205878
 21
226.842592
 31
0.0
  0
LINE
  8
0
  6
CONTINUOUS
 62
     7
 10
350.195601
 20
226.362982
 30
0.0
 11
351.780173
 21
226.362982
 31
0.0
  0
LINE
  8
0
  6
CONTINUOUS
 62
     7
 10
350.526706
 20
225.874807
 30
0.0
 11
351.413593
 21
225.874807
 31
0.0
  0
LINE
  8
0
  6
CONTINUOUS
 62
     7
 10
351.027424
 20
238.219373
 30
0.0
 11
351.027424
 21
236.865103
 31
0.0
  0
LINE
  8
0
  6
CONTINUOUS
 62
     7
 10
349.817196
 20
236.865103
 30
0.0
 11
351.011537
 21
236.865103
 31
0.0
  0
LINE
  8
0
  6
CONTINUOUS
 62
     7
 10
351.011537
 20
236.865103
 30
0.0
 11
352.205878
 21
236.865103
 31
0.0
  0
LINE
  8
0
  6
CONTINUOUS
 62
     7
 10
350.195601
 20
236.385493
 30
0.0
 11
351.780173
 21
236.385493
 31
0.0
  0
LINE
  8
0
  6
CONTINUOUS
 62
     7
 10
350.526706
 20
235.897318
 30
0.0
 11
351.413593
 21
235.897318
 31
0.0
  0
ENDSEC
  0
EOF
