  0
SECTION
  2
HEADER
  9
$ACADVER
  1
AC1009
999
I-DEAS Drafting Master Series 7m3 Not Encoded
  9
$EXTMIN
 10
0.0
 20
0.0
  9
$EXTMAX
 10
2.585E+002
 20
1.9605E+002
  9
$TEXTSIZE
 40
1.25E-001
  9
$LTSCALE
 40
1.0
  9
$CLAYER
  8
V1L0
  9
$CECOLOR
 62
2
  9
$DIMASZ
 40
1.25E-001
  9
$DIMEXO
 40
6.25E-002
  9
$DIMDLI
 40
2.5E-001
  9
$DIMEXE
 40
1.25E-001
  9
$DIMTP
 40
5.0E-003
  9
$DIMTM
 40
-5.0E-003
  9
$DIMTXT
 40
3.0
  9
$DIMLIM
 70
0
  9
$DIMTIH
 70
1
  9
$DIMTOH
 70
1
  9
$DIMSE1
 70
0
  9
$DIMSE2
 70
0
  9
$DIMTAD
 70
0
  9
$DIMASO
 70
1
  9
$DIMALT
 70
0
  9
$DIMALTD
 70
0
  9
$DIMTOFL
 70
1
  9
$DIMTIX
 70
0
  9
$DIMSAH
 70
0
  9
$DIMTFAC
 40
1.0
  9
$DIMGAP
 40
6.25E-002
  9
$LUNITS
 70
2
  9
$LUPREC
 70
3
  9
$FILLETRAD
 40
1.0E+001
  9
$AUNITS
 70
0
  9
$AUPREC
 70
1
  9
$CHAMFERA
 40
6.0
  9
$CHAMFERB
 40
6.0
  9
$ANGBASE
 50
0.0
  9
$ANGDIR
 70
0
  9
$PDMODE
 70
2
  9
$PDSIZE
 40
-1.0E-002
  9
$SPLINETYPE
 70
6
  0
ENDSEC
  0
SECTION
  2
TABLES
  0
TABLE
  2
LTYPE
 70
9
  0
LTYPE
  2
HIDDENNEW00
  3
_ 
 70
64
 72
65
 73
2
 40
4.5
 49
3.0
 49
-1.5
  0
LTYPE
  2
HIDDENNEW01
  3
_ 
 70
64
 72
65
 73
2
 40
4.5
 49
3.0
 49
-1.5
  0
LTYPE
  2
HIDDEN
  3
_ 
 70
64
 72
65
 73
2
 40
4.5
 49
3.0
 49
-1.5
  0
LTYPE
  2
CENTERLINE
  3
_ 
 70
64
 72
65
 73
4
 40
3.0E+001
 49
2.4E+001
 49
-1.5
 49
3.0
 49
-1.5
  0
LTYPE
  2
PHANTOM
  3
_ 
 70
64
 72
65
 73
6
 40
2.95E+001
 49
1.9E+001
 49
-1.5
 49
3.0
 49
-1.5
 49
3.0
 49
-1.5
  0
LTYPE
  2
SHORT_DASH
  3
_ 
 70
64
 72
65
 73
2
 40
3.0
 49
1.5
 49
-1.5
  0
LTYPE
  2
LONG_DASH
  3
_ 
 70
64
 72
65
 73
2
 40
9.0
 49
4.5
 49
-4.5
  0
LTYPE
  2
DASHED
  3
_ 
 70
64
 72
65
 73
2
 40
1.375
 49
1.125
 49
-2.5E-001
  0
LTYPE
  2
CENTER
  3
_ 
 70
64
 72
65
 73
4
 40
3.5625
 49
2.8125
 49
-2.5E-001
 49
2.5E-001
 49
-2.5E-001
  0
ENDTAB
  0
TABLE
  2
LAYER
 70
258
  0
LAYER
  2
V1L0
 70
0
 62
7
  6
HIDDENNEW00
  0
LAYER
  2
Drafting_Hidden_Entities
 70
1
 62
7
  6
CONTINUOUS
  0
ENDTAB
  0
TABLE
  2
STYLE
 70
1
  0
STYLE
  2
STANDARD
 70
64
 40
0.0
 41
1.0
 50
0.0
 71
0
 42
1.0
  3
monotxt.shx
  4

  0
ENDTAB
  0
TABLE
  2
VIEW
 70
0
  0
ENDTAB
  0
TABLE
  2
DIMSTYLE
 70
0
  0
ENDTAB
  0
ENDSEC
  0
SECTION
  2
BLOCKS
  0
ENDSEC
  0
SECTION
  2
ENTITIES
  0
LINE
  8
V1L0
  6
CONTINUOUS
 62
40
 10
1.105E+002
 20
2.25E+001
 11
1.105E+002
 21
7.35E+001
  0
LINE
  8
V1L0
  6
CONTINUOUS
 62
40
 10
1.105E+002
 20
2.45E+001
 11
1.215E+002
 21
2.45E+001
  0
LINE
  8
V1L0
  6
CONTINUOUS
 62
40
 10
1.105E+002
 20
7.15E+001
 11
1.215E+002
 21
7.15E+001
  0
LINE
  8
V1L0
  6
CONTINUOUS
 62
40
 10
1.215E+002
 20
2.45E+001
 11
1.215E+002
 21
7.15E+001
  0
LINE
  8
V1L0
  6
CONTINUOUS
 62
40
 10
1.105E+002
 20
7.35E+001
 11
1.12E+002
 21
7.35E+001
  0
LINE
  8
V1L0
  6
CONTINUOUS
 62
40
 10
1.105E+002
 20
2.25E+001
 11
1.12E+002
 21
2.25E+001
  0
LINE
  8
V1L0
  6
CONTINUOUS
 62
40
 10
1.12E+002
 20
2.25E+001
 11
1.12E+002
 21
2.45E+001
  0
LINE
  8
V1L0
  6
CONTINUOUS
 62
40
 10
1.12E+002
 20
7.15E+001
 11
1.12E+002
 21
7.35E+001
  0
LINE
  8
V1L0
  6
CONTINUOUS
 62
40
 10
1.34E+002
 20
9.5E+001
 11
1.345E+002
 21
9.5E+001
  0
LINE
  8
V1L0
  6
CONTINUOUS
 62
40
 10
1.12E+002
 20
1.0
 11
1.14E+002
 21
1.0
  0
LINE
  8
V1L0
  6
CONTINUOUS
 62
40
 10
1.345E+002
 20
1.0
 11
1.345E+002
 21
9.5E+001
  0
LINE
  8
V1L0
  6
CONTINUOUS
 62
40
 10
1.34E+002
 20
7.35E+001
 11
1.34E+002
 21
9.5E+001
  0
LINE
  8
V1L0
  6
CONTINUOUS
 62
40
 10
1.12E+002
 20
1.0
 11
1.12E+002
 21
2.25E+001
  0
CIRCLE
  8
V1L0
  6
CONTINUOUS
 62
40
 10
1.1650237E+002
 20
6.54984E+001
 40
1.25
  0
CIRCLE
  8
V1L0
  6
CONTINUOUS
 62
40
 10
1.1650237E+002
 20
3.04984E+001
 40
1.25
  0
LINE
  8
V1L0
  6
CONTINUOUS
 62
40
 10
1.06E+002
 20
2.45E+001
 11
1.06E+002
 21
2.9E+001
  0
LINE
  8
V1L0
  6
CONTINUOUS
 62
40
 10
1.04E+002
 20
2.45E+001
 11
1.04E+002
 21
2.95E+001
  0
LINE
  8
V1L0
  6
CONTINUOUS
 62
40
 10
1.04E+002
 20
6.65E+001
 11
1.04E+002
 21
7.15E+001
  0
LINE
  8
V1L0
  6
CONTINUOUS
 62
40
 10
1.04E+002
 20
2.45E+001
 11
1.105E+002
 21
2.45E+001
  0
LINE
  8
V1L0
  6
CONTINUOUS
 62
40
 10
1.04E+002
 20
7.15E+001
 11
1.105E+002
 21
7.15E+001
  0
LINE
  8
V1L0
  6
CONTINUOUS
 62
40
 10
1.04E+002
 20
6.65E+001
 11
1.05E+002
 21
6.65E+001
  0
LINE
  8
V1L0
  6
CONTINUOUS
 62
40
 10
1.04E+002
 20
2.95E+001
 11
1.05E+002
 21
2.95E+001
  0
LINE
  8
V1L0
  6
CONTINUOUS
 62
40
 10
1.14E+002
 20
2.25E+001
 11
1.34E+002
 21
2.25E+001
  0
LINE
  8
V1L0
  6
CONTINUOUS
 62
40
 10
1.14E+002
 20
7.35E+001
 11
1.34E+002
 21
7.35E+001
  0
LINE
  8
V1L0
  6
CONTINUOUS
 62
40
 10
1.34E+002
 20
2.25E+001
 11
1.34E+002
 21
7.35E+001
  0
LINE
  8
V1L0
  6
CONTINUOUS
 62
40
 10
1.05E+002
 20
6.4E+001
 11
1.05E+002
 21
6.7E+001
  0
LINE
  8
V1L0
  6
CONTINUOUS
 62
40
 10
1.05E+002
 20
6.4E+001
 11
1.105E+002
 21
6.4E+001
  0
LINE
  8
V1L0
  6
CONTINUOUS
 62
40
 10
1.05E+002
 20
6.7E+001
 11
1.105E+002
 21
6.7E+001
  0
LINE
  8
V1L0
  6
CONTINUOUS
 62
40
 10
1.05E+002
 20
3.2E+001
 11
1.105E+002
 21
3.2E+001
  0
LINE
  8
V1L0
  6
CONTINUOUS
 62
40
 10
1.05E+002
 20
2.9E+001
 11
1.05E+002
 21
3.2E+001
  0
LINE
  8
V1L0
  6
CONTINUOUS
 62
40
 10
1.05E+002
 20
2.9E+001
 11
1.105E+002
 21
2.9E+001
  0
LINE
  8
V1L0
  6
CONTINUOUS
 62
40
 10
1.06E+002
 20
6.7E+001
 11
1.06E+002
 21
7.15E+001
  0
LINE
  8
V1L0
  6
CONTINUOUS
 62
40
 10
1.06E+002
 20
3.2E+001
 11
1.06E+002
 21
6.4E+001
  0
LINE
  8
V1L0
  6
CONTINUOUS
 62
40
 10
1.245E+002
 20
7.6E+001
 11
1.245E+002
 21
7.775E+001
  0
LINE
  8
V1L0
  6
CONTINUOUS
 62
40
 10
1.245E+002
 20
7.6E+001
 11
1.32E+002
 21
7.6E+001
  0
LINE
  8
V1L0
  6
CONTINUOUS
 62
40
 10
1.24E+002
 20
7.564E+001
 11
1.245E+002
 21
7.6E+001
  0
LINE
  8
V1L0
  6
CONTINUOUS
 62
40
 10
1.28E+002
 20
7.35E+001
 11
1.28E+002
 21
7.6E+001
  0
LINE
  8
V1L0
  6
CONTINUOUS
 62
40
 10
1.245E+002
 20
8.45E+001
 11
1.32E+002
 21
8.45E+001
  0
LINE
  8
V1L0
  6
CONTINUOUS
 62
40
 10
1.32E+002
 20
7.6E+001
 11
1.32E+002
 21
8.45E+001
  0
ARC
  8
V1L0
  6
CONTINUOUS
 62
40
 10
1.2825237E+002
 20
8.02484E+001
 40
3.5
 50
2.0179E+002
 51
5.1821E+002
  0
LINE
  8
V1L0
  6
CONTINUOUS
 62
40
 10
1.2592E+002
 20
7.764E+001
 11
1.2819E+002
 21
7.955E+001
  0
LINE
  8
V1L0
  6
CONTINUOUS
 62
40
 10
1.2527E+002
 20
7.841E+001
 11
1.2755E+002
 21
8.031E+001
  0
LINE
  8
V1L0
  6
CONTINUOUS
 62
40
 10
1.2626E+002
 20
8.184E+001
 11
1.2755E+002
 21
8.031E+001
  0
LINE
  8
V1L0
  6
CONTINUOUS
 62
40
 10
1.2703E+002
 20
8.249E+001
 11
1.2831E+002
 21
8.095E+001
  0
LINE
  8
V1L0
  6
CONTINUOUS
 62
40
 10
1.2947E+002
 20
7.801E+001
 11
1.3024E+002
 21
7.866E+001
  0
LINE
  8
V1L0
  6
CONTINUOUS
 62
40
 10
1.2626E+002
 20
8.184E+001
 11
1.2703E+002
 21
8.249E+001
  0
LINE
  8
V1L0
  6
CONTINUOUS
 62
40
 10
1.2831E+002
 20
8.095E+001
 11
1.3058E+002
 21
8.286E+001
  0
LINE
  8
V1L0
  6
CONTINUOUS
 62
40
 10
1.2895E+002
 20
8.019E+001
 11
1.3123E+002
 21
8.209E+001
  0
LINE
  8
V1L0
  6
CONTINUOUS
 62
40
 10
1.2819E+002
 20
7.955E+001
 11
1.2947E+002
 21
7.801E+001
  0
LINE
  8
V1L0
  6
CONTINUOUS
 62
40
 10
1.2895E+002
 20
8.019E+001
 11
1.3024E+002
 21
7.866E+001
  0
LINE
  8
V1L0
  6
CONTINUOUS
 62
40
 10
1.235E+002
 20
7.6E+001
 11
1.235E+002
 21
8.45E+001
  0
LINE
  8
V1L0
  6
CONTINUOUS
 62
40
 10
1.16E+002
 20
7.6E+001
 11
1.235E+002
 21
7.6E+001
  0
LINE
  8
V1L0
  6
CONTINUOUS
 62
40
 10
1.235E+002
 20
7.6E+001
 11
1.27E+002
 21
7.35E+001
  0
LINE
  8
V1L0
  6
CONTINUOUS
 62
40
 10
1.2E+002
 20
7.35E+001
 11
1.2E+002
 21
7.6E+001
  0
LINE
  8
V1L0
  6
CONTINUOUS
 62
40
 10
1.16E+002
 20
8.45E+001
 11
1.235E+002
 21
8.45E+001
  0
LINE
  8
V1L0
  6
CONTINUOUS
 62
40
 10
1.16E+002
 20
7.6E+001
 11
1.16E+002
 21
8.45E+001
  0
LINE
  8
V1L0
  6
CONTINUOUS
 62
40
 10
1.25E+002
 20
7.775E+001
 11
1.25E+002
 21
8.275E+001
  0
LINE
  8
V1L0
  6
CONTINUOUS
 62
40
 10
1.235E+002
 20
7.775E+001
 11
1.25E+002
 21
7.775E+001
  0
LINE
  8
V1L0
  6
CONTINUOUS
 62
40
 10
1.235E+002
 20
8.275E+001
 11
1.25E+002
 21
8.275E+001
  0
CIRCLE
  8
V1L0
  6
CONTINUOUS
 62
40
 10
1.1975237E+002
 20
8.02484E+001
 40
3.5
  0
LINE
  8
V1L0
  6
CONTINUOUS
 62
40
 10
1.1981E+002
 20
7.955E+001
 11
1.2208E+002
 21
7.764E+001
  0
LINE
  8
V1L0
  6
CONTINUOUS
 62
40
 10
1.2045E+002
 20
8.031E+001
 11
1.2273E+002
 21
7.841E+001
  0
LINE
  8
V1L0
  6
CONTINUOUS
 62
40
 10
1.2045E+002
 20
8.031E+001
 11
1.2174E+002
 21
8.184E+001
  0
LINE
  8
V1L0
  6
CONTINUOUS
 62
40
 10
1.1969E+002
 20
8.095E+001
 11
1.2097E+002
 21
8.249E+001
  0
LINE
  8
V1L0
  6
CONTINUOUS
 62
40
 10
1.1776E+002
 20
7.866E+001
 11
1.1853E+002
 21
7.801E+001
  0
LINE
  8
V1L0
  6
CONTINUOUS
 62
40
 10
1.2097E+002
 20
8.249E+001
 11
1.2174E+002
 21
8.184E+001
  0
LINE
  8
V1L0
  6
CONTINUOUS
 62
40
 10
1.1742E+002
 20
8.286E+001
 11
1.1969E+002
 21
8.095E+001
  0
LINE
  8
V1L0
  6
CONTINUOUS
 62
40
 10
1.1677E+002
 20
8.209E+001
 11
1.1905E+002
 21
8.019E+001
  0
LINE
  8
V1L0
  6
CONTINUOUS
 62
40
 10
1.1853E+002
 20
7.801E+001
 11
1.1981E+002
 21
7.955E+001
  0
LINE
  8
V1L0
  6
CONTINUOUS
 62
40
 10
1.1776E+002
 20
7.866E+001
 11
1.1905E+002
 21
8.019E+001
  0
LINE
  8
V1L0
  6
CONTINUOUS
 62
40
 10
1.245E+002
 20
8.275E+001
 11
1.245E+002
 21
8.45E+001
  0
LINE
  8
V1L0
  6
CONTINUOUS
 62
40
 10
1.235E+002
 20
1.825E+001
 11
1.235E+002
 21
2.0E+001
  0
LINE
  8
V1L0
  6
CONTINUOUS
 62
40
 10
1.16E+002
 20
2.0E+001
 11
1.235E+002
 21
2.0E+001
  0
LINE
  8
V1L0
  6
CONTINUOUS
 62
40
 10
1.235E+002
 20
2.0E+001
 11
1.24E+002
 21
2.036E+001
  0
LINE
  8
V1L0
  6
CONTINUOUS
 62
40
 10
1.2E+002
 20
2.0E+001
 11
1.2E+002
 21
2.25E+001
  0
LINE
  8
V1L0
  6
CONTINUOUS
 62
40
 10
1.16E+002
 20
1.15E+001
 11
1.235E+002
 21
1.15E+001
  0
LINE
  8
V1L0
  6
CONTINUOUS
 62
40
 10
1.16E+002
 20
1.15E+001
 11
1.16E+002
 21
2.0E+001
  0
ARC
  8
V1L0
  6
CONTINUOUS
 62
40
 10
1.1975237E+002
 20
1.57484E+001
 40
3.5
 50
2.179E+001
 51
3.3821E+002
  0
LINE
  8
V1L0
  6
CONTINUOUS
 62
40
 10
1.1981E+002
 20
1.645E+001
 11
1.2208E+002
 21
1.836E+001
  0
LINE
  8
V1L0
  6
CONTINUOUS
 62
40
 10
1.2045E+002
 20
1.569E+001
 11
1.2273E+002
 21
1.759E+001
  0
LINE
  8
V1L0
  6
CONTINUOUS
 62
40
 10
1.2045E+002
 20
1.569E+001
 11
1.2174E+002
 21
1.416E+001
  0
LINE
  8
V1L0
  6
CONTINUOUS
 62
40
 10
1.1969E+002
 20
1.505E+001
 11
1.2097E+002
 21
1.351E+001
  0
LINE
  8
V1L0
  6
CONTINUOUS
 62
40
 10
1.1776E+002
 20
1.734E+001
 11
1.1853E+002
 21
1.799E+001
  0
LINE
  8
V1L0
  6
CONTINUOUS
 62
40
 10
1.2097E+002
 20
1.351E+001
 11
1.2174E+002
 21
1.416E+001
  0
LINE
  8
V1L0
  6
CONTINUOUS
 62
40
 10
1.1742E+002
 20
1.314E+001
 11
1.1969E+002
 21
1.505E+001
  0
LINE
  8
V1L0
  6
CONTINUOUS
 62
40
 10
1.1677E+002
 20
1.391E+001
 11
1.1905E+002
 21
1.581E+001
  0
LINE
  8
V1L0
  6
CONTINUOUS
 62
40
 10
1.1853E+002
 20
1.799E+001
 11
1.1981E+002
 21
1.645E+001
  0
LINE
  8
V1L0
  6
CONTINUOUS
 62
40
 10
1.1776E+002
 20
1.734E+001
 11
1.1905E+002
 21
1.581E+001
  0
LINE
  8
V1L0
  6
CONTINUOUS
 62
40
 10
1.245E+002
 20
1.15E+001
 11
1.245E+002
 21
2.0E+001
  0
LINE
  8
V1L0
  6
CONTINUOUS
 62
40
 10
1.245E+002
 20
2.0E+001
 11
1.32E+002
 21
2.0E+001
  0
LINE
  8
V1L0
  6
CONTINUOUS
 62
40
 10
1.21E+002
 20
2.25E+001
 11
1.245E+002
 21
2.0E+001
  0
LINE
  8
V1L0
  6
CONTINUOUS
 62
40
 10
1.28E+002
 20
2.0E+001
 11
1.28E+002
 21
2.25E+001
  0
LINE
  8
V1L0
  6
CONTINUOUS
 62
40
 10
1.245E+002
 20
1.15E+001
 11
1.32E+002
 21
1.15E+001
  0
LINE
  8
V1L0
  6
CONTINUOUS
 62
40
 10
1.32E+002
 20
1.15E+001
 11
1.32E+002
 21
2.0E+001
  0
LINE
  8
V1L0
  6
CONTINUOUS
 62
40
 10
1.23E+002
 20
1.325E+001
 11
1.23E+002
 21
1.825E+001
  0
LINE
  8
V1L0
  6
CONTINUOUS
 62
40
 10
1.23E+002
 20
1.825E+001
 11
1.245E+002
 21
1.825E+001
  0
LINE
  8
V1L0
  6
CONTINUOUS
 62
40
 10
1.23E+002
 20
1.325E+001
 11
1.245E+002
 21
1.325E+001
  0
CIRCLE
  8
V1L0
  6
CONTINUOUS
 62
40
 10
1.2825237E+002
 20
1.57484E+001
 40
3.5
  0
LINE
  8
V1L0
  6
CONTINUOUS
 62
40
 10
1.2592E+002
 20
1.836E+001
 11
1.2819E+002
 21
1.645E+001
  0
LINE
  8
V1L0
  6
CONTINUOUS
 62
40
 10
1.2527E+002
 20
1.759E+001
 11
1.2755E+002
 21
1.569E+001
  0
LINE
  8
V1L0
  6
CONTINUOUS
 62
40
 10
1.2626E+002
 20
1.416E+001
 11
1.2755E+002
 21
1.569E+001
  0
LINE
  8
V1L0
  6
CONTINUOUS
 62
40
 10
1.2703E+002
 20
1.351E+001
 11
1.2831E+002
 21
1.505E+001
  0
LINE
  8
V1L0
  6
CONTINUOUS
 62
40
 10
1.2947E+002
 20
1.799E+001
 11
1.3024E+002
 21
1.734E+001
  0
LINE
  8
V1L0
  6
CONTINUOUS
 62
40
 10
1.2626E+002
 20
1.416E+001
 11
1.2703E+002
 21
1.351E+001
  0
LINE
  8
V1L0
  6
CONTINUOUS
 62
40
 10
1.2831E+002
 20
1.505E+001
 11
1.3058E+002
 21
1.314E+001
  0
LINE
  8
V1L0
  6
CONTINUOUS
 62
40
 10
1.2895E+002
 20
1.581E+001
 11
1.3123E+002
 21
1.391E+001
  0
LINE
  8
V1L0
  6
CONTINUOUS
 62
40
 10
1.2819E+002
 20
1.645E+001
 11
1.2947E+002
 21
1.799E+001
  0
LINE
  8
V1L0
  6
CONTINUOUS
 62
40
 10
1.2895E+002
 20
1.581E+001
 11
1.3024E+002
 21
1.734E+001
  0
LINE
  8
V1L0
  6
CONTINUOUS
 62
40
 10
1.235E+002
 20
1.15E+001
 11
1.235E+002
 21
1.325E+001
  0
LINE
  8
V1L0
  6
CONTINUOUS
 62
40
 10
3.55E+001
 20
2.25E+001
 11
3.55E+001
 21
7.35E+001
  0
LINE
  8
V1L0
  6
CONTINUOUS
 62
40
 10
6.05E+001
 20
4.8E+001
 11
6.05E+001
 21
7.35E+001
  0
LINE
  8
V1L0
  6
CONTINUOUS
 62
40
 10
7.35E+001
 20
3.05E+001
 11
7.35E+001
 21
3.313E+001
  0
LINE
  8
V1L0
  6
CONTINUOUS
 62
40
 10
8.1E+001
 20
6.65E+001
 11
8.1E+001
 21
7.15E+001
  0
LINE
  8
V1L0
  6
CONTINUOUS
 62
40
 10
1.0
 20
2.45E+001
 11
1.0
 21
7.15E+001
  0
LINE
  8
V1L0
  6
CONTINUOUS
 62
40
 10
2.5
 20
1.0
 11
2.5
 21
9.5E+001
  0
LINE
  8
V1L0
  6
CONTINUOUS
 62
40
 10
5.9E+001
 20
7.35E+001
 11
5.9E+001
 21
7.783E+001
  0
LINE
  8
V1L0
  6
CONTINUOUS
 62
40
 10
3.55E+001
 20
7.35E+001
 11
6.05E+001
 21
7.35E+001
  0
LINE
  8
V1L0
  6
CONTINUOUS
 62
40
 10
3.55E+001
 20
2.25E+001
 11
6.05E+001
 21
2.25E+001
  0
LINE
  8
V1L0
  6
CONTINUOUS
 62
40
 10
7.45E+001
 20
6.65E+001
 11
8.1E+001
 21
6.65E+001
  0
LINE
  8
V1L0
  6
CONTINUOUS
 62
40
 10
7.45E+001
 20
2.95E+001
 11
8.1E+001
 21
2.95E+001
  0
LINE
  8
V1L0
  6
CONTINUOUS
 62
40
 10
2.5
 20
9.5E+001
 11
6.15E+001
 21
9.5E+001
  0
LINE
  8
V1L0
  6
CONTINUOUS
 62
40
 10
2.5
 20
1.0
 11
6.15E+001
 21
1.0
  0
LINE
  8
V1L0
  6
CONTINUOUS
 62
40
 10
1.0
 20
7.15E+001
 11
2.5
 21
7.15E+001
  0
LINE
  8
V1L0
  6
CONTINUOUS
 62
40
 10
1.0
 20
2.45E+001
 11
2.5
 21
2.45E+001
  0
LINE
  8
V1L0
  6
CONTINUOUS
 62
40
 10
6.15E+001
 20
7.15E+001
 11
8.1E+001
 21
7.15E+001
  0
LINE
  8
V1L0
  6
CONTINUOUS
 62
40
 10
6.15E+001
 20
2.45E+001
 11
8.1E+001
 21
2.45E+001
  0
LINE
  8
V1L0
  6
CONTINUOUS
 62
40
 10
5.9E+001
 20
1.0
 11
5.9E+001
 21
1.506E+001
  0
LINE
  8
V1L0
  6
CONTINUOUS
 62
40
 10
8.1E+001
 20
2.45E+001
 11
8.1E+001
 21
2.95E+001
  0
LINE
  8
V1L0
  6
CONTINUOUS
 62
40
 10
6.05E+001
 20
2.25E+001
 11
6.05E+001
 21
4.8E+001
  0
CIRCLE
  8
V1L0
  6
CONTINUOUS
 62
40
 10
4.8002371E+001
 20
3.04984E+001
 40
2.75
  0
LINE
  8
V1L0
  6
CONTINUOUS
 62
40
 10
4.588E+001
 20
3.225E+001
 11
4.936E+001
 21
2.811E+001
  0
LINE
  8
V1L0
  6
CONTINUOUS
 62
40
 10
4.665E+001
 20
3.289E+001
 11
5.012E+001
 21
2.875E+001
  0
CIRCLE
  8
V1L0
  6
CONTINUOUS
 62
40
 10
4.8002371E+001
 20
6.54984E+001
 40
2.75
  0
LINE
  8
V1L0
  6
CONTINUOUS
 62
40
 10
4.665E+001
 20
6.789E+001
 11
5.012E+001
 21
6.375E+001
  0
LINE
  8
V1L0
  6
CONTINUOUS
 62
40
 10
4.588E+001
 20
6.725E+001
 11
4.936E+001
 21
6.311E+001
  0
LINE
  8
V1L0
  6
CONTINUOUS
 62
40
 10
7.35E+001
 20
6.287E+001
 11
7.35E+001
 21
6.55E+001
  0
ARC
  8
V1L0
  6
CONTINUOUS
 62
40
 10
7.4502371E+001
 20
6.54984E+001
 40
1.0
 50
9.0E+001
 51
1.8E+002
  0
ARC
  8
V1L0
  6
CONTINUOUS
 62
40
 10
7.4502371E+001
 20
3.04984E+001
 40
1.0
 50
1.8E+002
 51
2.7E+002
  0
LINE
  8
V1L0
  6
CONTINUOUS
 62
40
 10
5.4E+001
 20
7.35E+001
 11
5.495E+001
 21
7.696E+001
  0
LINE
  8
V1L0
  6
CONTINUOUS
 62
40
 10
5.7E+001
 20
8.45E+001
 11
5.845E+001
 21
8.411E+001
  0
LINE
  8
V1L0
  6
CONTINUOUS
 62
40
 10
5.556E+001
 20
7.35E+001
 11
5.845E+001
 21
8.411E+001
  0
LINE
  8
V1L0
  6
CONTINUOUS
 62
40
 10
5.179E+001
 20
7.679E+001
 11
5.411E+001
 21
8.529E+001
  0
LINE
  8
V1L0
  6
CONTINUOUS
 62
40
 10
4.972E+001
 20
7.868E+001
 11
5.136E+001
 21
8.471E+001
  0
LINE
  8
V1L0
  6
CONTINUOUS
 62
40
 10
5.179E+001
 20
7.679E+001
 11
5.44E+001
 21
7.608E+001
  0
LINE
  8
V1L0
  6
CONTINUOUS
 62
40
 10
5.198E+001
 20
8.507E+001
 11
5.39E+001
 21
8.454E+001
  0
LINE
  8
V1L0
  6
CONTINUOUS
 62
40
 10
5.007E+001
 20
7.807E+001
 11
5.2E+001
 21
7.754E+001
  0
ARC
  8
V1L0
  6
CONTINUOUS
 62
40
 10
5.1842371E+001
 20
8.45784E+001
 40
5.0E-001
 50
7.474E+001
 51
1.6474E+002
  0
ARC
  8
V1L0
  6
CONTINUOUS
 62
40
 10
5.0202371E+001
 20
7.85484E+001
 40
5.0E-001
 50
1.6474E+002
 51
2.5474E+002
  0
LINE
  8
V1L0
  6
CONTINUOUS
 62
40
 10
5.671E+001
 20
8.458E+001
 11
5.674E+001
 21
8.354E+001
  0
LINE
  8
V1L0
  6
CONTINUOUS
 62
40
 10
5.411E+001
 20
8.529E+001
 11
5.671E+001
 21
8.458E+001
  0
LINE
  8
V1L0
  6
CONTINUOUS
 62
40
 10
5.44E+001
 20
7.608E+001
 11
5.495E+001
 21
7.696E+001
  0
LINE
  8
V1L0
  6
CONTINUOUS
 62
40
 10
5.495E+001
 20
7.696E+001
 11
5.7E+001
 21
8.45E+001
  0
LINE
  8
V1L0
  6
CONTINUOUS
 62
40
 10
5.69E+001
 20
7.841E+001
 11
5.979E+001
 21
7.762E+001
  0
LINE
  8
V1L0
  6
CONTINUOUS
 62
40
 10
5.769E+001
 20
8.13E+001
 11
6.058E+001
 21
8.051E+001
  0
LINE
  8
V1L0
  6
CONTINUOUS
 62
40
 10
5.979E+001
 20
7.762E+001
 11
6.058E+001
 21
8.051E+001
  0
LINE
  8
V1L0
  6
CONTINUOUS
 62
40
 10
4.044E+001
 20
7.35E+001
 11
4.139E+001
 21
7.696E+001
  0
LINE
  8
V1L0
  6
CONTINUOUS
 62
40
 10
4.344E+001
 20
8.45E+001
 11
4.489E+001
 21
8.411E+001
  0
LINE
  8
V1L0
  6
CONTINUOUS
 62
40
 10
4.2E+001
 20
7.35E+001
 11
4.489E+001
 21
8.411E+001
  0
LINE
  8
V1L0
  6
CONTINUOUS
 62
40
 10
3.823E+001
 20
7.679E+001
 11
4.055E+001
 21
8.529E+001
  0
LINE
  8
V1L0
  6
CONTINUOUS
 62
40
 10
3.616E+001
 20
7.868E+001
 11
3.78E+001
 21
8.471E+001
  0
LINE
  8
V1L0
  6
CONTINUOUS
 62
40
 10
3.823E+001
 20
7.679E+001
 11
4.084E+001
 21
7.608E+001
  0
LINE
  8
V1L0
  6
CONTINUOUS
 62
40
 10
3.842E+001
 20
8.507E+001
 11
4.034E+001
 21
8.454E+001
  0
LINE
  8
V1L0
  6
CONTINUOUS
 62
40
 10
3.651E+001
 20
7.807E+001
 11
3.844E+001
 21
7.754E+001
  0
ARC
  8
V1L0
  6
CONTINUOUS
 62
40
 10
3.8282371E+001
 20
8.45784E+001
 40
5.0E-001
 50
7.474E+001
 51
1.6474E+002
  0
ARC
  8
V1L0
  6
CONTINUOUS
 62
40
 10
3.6642371E+001
 20
7.85484E+001
 40
5.0E-001
 50
1.6474E+002
 51
2.5474E+002
  0
LINE
  8
V1L0
  6
CONTINUOUS
 62
40
 10
4.315E+001
 20
8.458E+001
 11
4.318E+001
 21
8.354E+001
  0
LINE
  8
V1L0
  6
CONTINUOUS
 62
40
 10
4.055E+001
 20
8.529E+001
 11
4.315E+001
 21
8.458E+001
  0
LINE
  8
V1L0
  6
CONTINUOUS
 62
40
 10
4.084E+001
 20
7.608E+001
 11
4.139E+001
 21
7.696E+001
  0
LINE
  8
V1L0
  6
CONTINUOUS
 62
40
 10
4.139E+001
 20
7.696E+001
 11
4.163E+001
 21
7.784E+001
  0
LINE
  8
V1L0
  6
CONTINUOUS
 62
40
 10
3.921E+001
 20
7.85E+001
 11
4.053E+001
 21
8.332E+001
  0
LINE
  8
V1L0
  6
CONTINUOUS
 62
40
 10
3.921E+001
 20
7.85E+001
 11
4.307E+001
 21
7.744E+001
  0
LINE
  8
V1L0
  6
CONTINUOUS
 62
40
 10
4.053E+001
 20
8.332E+001
 11
4.439E+001
 21
8.227E+001
  0
LINE
  8
V1L0
  6
CONTINUOUS
 62
40
 10
4.334E+001
 20
7.841E+001
 11
4.623E+001
 21
7.762E+001
  0
LINE
  8
V1L0
  6
CONTINUOUS
 62
40
 10
4.413E+001
 20
8.13E+001
 11
4.702E+001
 21
8.051E+001
  0
LINE
  8
V1L0
  6
CONTINUOUS
 62
40
 10
4.623E+001
 20
7.762E+001
 11
4.702E+001
 21
8.051E+001
  0
LINE
  8
V1L0
  6
CONTINUOUS
 62
40
 10
4.294E+001
 20
8.266E+001
 11
4.344E+001
 21
8.45E+001
  0
LINE
  8
V1L0
  6
CONTINUOUS
 62
40
 10
5.9E+001
 20
8.094E+001
 11
5.9E+001
 21
9.5E+001
  0
LINE
  8
V1L0
  6
CONTINUOUS
 62
40
 10
5.4E+001
 20
2.25E+001
 11
5.495E+001
 21
1.904E+001
  0
LINE
  8
V1L0
  6
CONTINUOUS
 62
40
 10
5.7E+001
 20
1.15E+001
 11
5.845E+001
 21
1.189E+001
  0
LINE
  8
V1L0
  6
CONTINUOUS
 62
40
 10
5.556E+001
 20
2.25E+001
 11
5.845E+001
 21
1.189E+001
  0
LINE
  8
V1L0
  6
CONTINUOUS
 62
40
 10
5.179E+001
 20
1.921E+001
 11
5.411E+001
 21
1.071E+001
  0
LINE
  8
V1L0
  6
CONTINUOUS
 62
40
 10
4.972E+001
 20
1.732E+001
 11
5.136E+001
 21
1.129E+001
  0
LINE
  8
V1L0
  6
CONTINUOUS
 62
40
 10
5.179E+001
 20
1.921E+001
 11
5.44E+001
 21
1.992E+001
  0
LINE
  8
V1L0
  6
CONTINUOUS
 62
40
 10
5.198E+001
 20
1.093E+001
 11
5.39E+001
 21
1.146E+001
  0
LINE
  8
V1L0
  6
CONTINUOUS
 62
40
 10
5.007E+001
 20
1.793E+001
 11
5.2E+001
 21
1.846E+001
  0
ARC
  8
V1L0
  6
CONTINUOUS
 62
40
 10
5.1842371E+001
 20
1.14184E+001
 40
5.0E-001
 50
1.9526E+002
 51
2.8526E+002
  0
ARC
  8
V1L0
  6
CONTINUOUS
 62
40
 10
5.0202371E+001
 20
1.74484E+001
 40
5.0E-001
 50
1.0526E+002
 51
1.9526E+002
  0
LINE
  8
V1L0
  6
CONTINUOUS
 62
40
 10
5.671E+001
 20
1.142E+001
 11
5.674E+001
 21
1.246E+001
  0
LINE
  8
V1L0
  6
CONTINUOUS
 62
40
 10
5.411E+001
 20
1.071E+001
 11
5.671E+001
 21
1.142E+001
  0
LINE
  8
V1L0
  6
CONTINUOUS
 62
40
 10
5.44E+001
 20
1.992E+001
 11
5.495E+001
 21
1.904E+001
  0
LINE
  8
V1L0
  6
CONTINUOUS
 62
40
 10
5.65E+001
 20
1.334E+001
 11
5.7E+001
 21
1.15E+001
  0
LINE
  8
V1L0
  6
CONTINUOUS
 62
40
 10
5.69E+001
 20
1.759E+001
 11
5.979E+001
 21
1.838E+001
  0
LINE
  8
V1L0
  6
CONTINUOUS
 62
40
 10
5.769E+001
 20
1.47E+001
 11
6.058E+001
 21
1.549E+001
  0
LINE
  8
V1L0
  6
CONTINUOUS
 62
40
 10
4.044E+001
 20
2.25E+001
 11
4.139E+001
 21
1.904E+001
  0
LINE
  8
V1L0
  6
CONTINUOUS
 62
40
 10
4.344E+001
 20
1.15E+001
 11
4.489E+001
 21
1.189E+001
  0
LINE
  8
V1L0
  6
CONTINUOUS
 62
40
 10
4.2E+001
 20
2.25E+001
 11
4.489E+001
 21
1.189E+001
  0
LINE
  8
V1L0
  6
CONTINUOUS
 62
40
 10
3.823E+001
 20
1.921E+001
 11
4.055E+001
 21
1.071E+001
  0
LINE
  8
V1L0
  6
CONTINUOUS
 62
40
 10
3.616E+001
 20
1.732E+001
 11
3.78E+001
 21
1.129E+001
  0
LINE
  8
V1L0
  6
CONTINUOUS
 62
40
 10
3.823E+001
 20
1.921E+001
 11
4.084E+001
 21
1.992E+001
  0
LINE
  8
V1L0
  6
CONTINUOUS
 62
40
 10
3.842E+001
 20
1.093E+001
 11
4.034E+001
 21
1.146E+001
  0
LINE
  8
V1L0
  6
CONTINUOUS
 62
40
 10
3.651E+001
 20
1.793E+001
 11
3.844E+001
 21
1.846E+001
  0
ARC
  8
V1L0
  6
CONTINUOUS
 62
40
 10
3.8282371E+001
 20
1.14184E+001
 40
5.0E-001
 50
1.9526E+002
 51
2.8526E+002
  0
ARC
  8
V1L0
  6
CONTINUOUS
 62
40
 10
3.6642371E+001
 20
1.74484E+001
 40
5.0E-001
 50
1.0526E+002
 51
1.9526E+002
  0
LINE
  8
V1L0
  6
CONTINUOUS
 62
40
 10
4.315E+001
 20
1.142E+001
 11
4.318E+001
 21
1.246E+001
  0
LINE
  8
V1L0
  6
CONTINUOUS
 62
40
 10
4.055E+001
 20
1.071E+001
 11
4.315E+001
 21
1.142E+001
  0
LINE
  8
V1L0
  6
CONTINUOUS
 62
40
 10
4.084E+001
 20
1.992E+001
 11
4.139E+001
 21
1.904E+001
  0
LINE
  8
V1L0
  6
CONTINUOUS
 62
40
 10
4.139E+001
 20
1.904E+001
 11
4.344E+001
 21
1.15E+001
  0
LINE
  8
V1L0
  6
CONTINUOUS
 62
40
 10
5.277E+001
 20
1.75E+001
 11
5.409E+001
 21
1.268E+001
  0
LINE
  8
V1L0
  6
CONTINUOUS
 62
40
 10
5.277E+001
 20
1.75E+001
 11
5.663E+001
 21
1.856E+001
  0
LINE
  8
V1L0
  6
CONTINUOUS
 62
40
 10
5.409E+001
 20
1.268E+001
 11
5.795E+001
 21
1.373E+001
  0
LINE
  8
V1L0
  6
CONTINUOUS
 62
40
 10
4.334E+001
 20
1.759E+001
 11
4.623E+001
 21
1.838E+001
  0
LINE
  8
V1L0
  6
CONTINUOUS
 62
40
 10
4.413E+001
 20
1.47E+001
 11
4.702E+001
 21
1.549E+001
  0
LINE
  8
V1L0
  6
CONTINUOUS
 62
40
 10
4.623E+001
 20
1.838E+001
 11
4.702E+001
 21
1.549E+001
  0
LINE
  8
V1L0
  6
CONTINUOUS
 62
40
 10
5.979E+001
 20
1.838E+001
 11
6.058E+001
 21
1.549E+001
  0
LINE
  8
V1L0
  6
CONTINUOUS
 62
40
 10
5.9E+001
 20
1.817E+001
 11
5.9E+001
 21
2.25E+001
  0
LINE
  8
V1L0
  6
CONTINUOUS
 62
40
 10
5.495E+001
 20
1.904E+001
 11
5.519E+001
 21
1.816E+001
  0
LINE
  8
V1L0
  6
CONTINUOUS
 62
40
 10
1.545E+002
 20
1.3555E+002
 11
1.545E+002
 21
1.6055E+002
  0
LINE
  8
V1L0
  6
CONTINUOUS
 62
40
 10
1.345E+002
 20
1.3555E+002
 11
1.345E+002
 21
1.6055E+002
  0
LINE
  8
V1L0
  6
CONTINUOUS
 62
40
 10
1.345E+002
 20
1.6055E+002
 11
1.545E+002
 21
1.6055E+002
  0
LINE
  8
V1L0
  6
CONTINUOUS
 62
40
 10
1.345E+002
 20
1.3555E+002
 11
1.3932E+002
 21
1.3555E+002
  0
LINE
  8
V1L0
  6
CONTINUOUS
 62
40
 10
1.345E+002
 20
1.3705E+002
 11
1.345E+002
 21
1.9355E+002
  0
LINE
  8
V1L0
  6
CONTINUOUS
 62
40
 10
1.34E+002
 20
1.3705E+002
 11
1.345E+002
 21
1.3705E+002
  0
LINE
  8
V1L0
  6
CONTINUOUS
 62
40
 10
1.45E+002
 20
1.5261E+002
 11
1.45E+002
 21
1.5684E+002
  0
LINE
  8
V1L0
  6
CONTINUOUS
 62
40
 10
1.525E+002
 20
1.5117E+002
 11
1.525E+002
 21
1.5663E+002
  0
LINE
  8
V1L0
  6
CONTINUOUS
 62
40
 10
1.435E+002
 20
1.5117E+002
 11
1.435E+002
 21
1.5684E+002
  0
LINE
  8
V1L0
  6
CONTINUOUS
 62
40
 10
1.435E+002
 20
1.5117E+002
 11
1.525E+002
 21
1.5117E+002
  0
LINE
  8
V1L0
  6
CONTINUOUS
 62
40
 10
1.45E+002
 20
1.5261E+002
 11
1.525E+002
 21
1.5261E+002
  0
LINE
  8
V1L0
  6
CONTINUOUS
 62
40
 10
1.435E+002
 20
1.5553E+002
 11
1.45E+002
 21
1.5553E+002
  0
LINE
  8
V1L0
  6
CONTINUOUS
 62
40
 10
1.435E+002
 20
1.5684E+002
 11
1.45E+002
 21
1.5684E+002
  0
LINE
  8
V1L0
  6
CONTINUOUS
 62
40
 10
1.498E+002
 20
1.5362E+002
 11
1.5201E+002
 21
1.528E+002
  0
LINE
  8
V1L0
  6
CONTINUOUS
 62
40
 10
1.4549E+002
 20
1.528E+002
 11
1.477E+002
 21
1.5362E+002
  0
ARC
  8
V1L0
  6
CONTINUOUS
 62
40
 10
1.4875237E+002
 20
1.508084E+002
 40
3.0
 50
6.96E+001
 51
1.104E+002
  0
ARC
  8
V1L0
  6
CONTINUOUS
 62
40
 10
1.4875237E+002
 20
1.523084E+002
 40
3.0
 50
6.96E+001
 51
1.104E+002
  0
LINE
  8
V1L0
  6
CONTINUOUS
 62
40
 10
1.498E+002
 20
1.5512E+002
 11
1.525E+002
 21
1.5411E+002
  0
LINE
  8
V1L0
  6
CONTINUOUS
 62
40
 10
1.45E+002
 20
1.5411E+002
 11
1.477E+002
 21
1.5512E+002
  0
LINE
  8
V1L0
  6
CONTINUOUS
 62
40
 10
1.5216E+002
 20
1.5676E+002
 11
1.525E+002
 21
1.5663E+002
  0
LINE
  8
V1L0
  6
CONTINUOUS
 62
40
 10
1.45E+002
 20
1.5663E+002
 11
1.4534E+002
 21
1.5676E+002
  0
LINE
  8
V1L0
  6
CONTINUOUS
 62
40
 10
1.5201E+002
 20
1.528E+002
 11
1.525E+002
 21
1.5411E+002
  0
LINE
  8
V1L0
  6
CONTINUOUS
 62
40
 10
1.45E+002
 20
1.5411E+002
 11
1.4549E+002
 21
1.528E+002
  0
LINE
  8
V1L0
  6
CONTINUOUS
 62
40
 10
1.5191E+002
 20
1.5908E+002
 11
1.5216E+002
 21
1.5676E+002
  0
LINE
  8
V1L0
  6
CONTINUOUS
 62
40
 10
1.4534E+002
 20
1.5676E+002
 11
1.4559E+002
 21
1.5908E+002
  0
LINE
  8
V1L0
  6
CONTINUOUS
 62
40
 10
1.4891E+002
 20
1.5853E+002
 11
1.4932E+002
 21
1.5894E+002
  0
LINE
  8
V1L0
  6
CONTINUOUS
 62
40
 10
1.4754E+002
 20
1.5857E+002
 11
1.479E+002
 21
1.5894E+002
  0
LINE
  8
V1L0
  6
CONTINUOUS
 62
40
 10
1.4754E+002
 20
1.5811E+002
 11
1.4754E+002
 21
1.5857E+002
  0
LINE
  8
V1L0
  6
CONTINUOUS
 62
40
 10
1.4891E+002
 20
1.5806E+002
 11
1.4891E+002
 21
1.5853E+002
  0
LINE
  8
V1L0
  6
CONTINUOUS
 62
40
 10
1.4859E+002
 20
1.5916E+002
 11
1.4859E+002
 21
1.5963E+002
  0
LINE
  8
V1L0
  6
CONTINUOUS
 62
40
 10
1.4754E+002
 20
1.5811E+002
 11
1.4859E+002
 21
1.5916E+002
  0
LINE
  8
V1L0
  6
CONTINUOUS
 62
40
 10
1.4675E+002
 20
1.592E+002
 11
1.4816E+002
 21
1.592E+002
  0
LINE
  8
V1L0
  6
CONTINUOUS
 62
40
 10
1.5073E+002
 20
1.5894E+002
 11
1.5099E+002
 21
1.592E+002
  0
LINE
  8
V1L0
  6
CONTINUOUS
 62
40
 10
1.4649E+002
 20
1.5894E+002
 11
1.4675E+002
 21
1.592E+002
  0
LINE
  8
V1L0
  6
CONTINUOUS
 62
40
 10
1.4649E+002
 20
1.5894E+002
 11
1.479E+002
 21
1.5894E+002
  0
LINE
  8
V1L0
  6
CONTINUOUS
 62
40
 10
1.479E+002
 20
1.5847E+002
 11
1.479E+002
 21
1.5894E+002
  0
LINE
  8
V1L0
  6
CONTINUOUS
 62
40
 10
1.4816E+002
 20
1.5873E+002
 11
1.4816E+002
 21
1.592E+002
  0
LINE
  8
V1L0
  6
CONTINUOUS
 62
40
 10
1.4932E+002
 20
1.5894E+002
 11
1.5073E+002
 21
1.5894E+002
  0
LINE
  8
V1L0
  6
CONTINUOUS
 62
40
 10
1.4958E+002
 20
1.592E+002
 11
1.5099E+002
 21
1.592E+002
  0
LINE
  8
V1L0
  6
CONTINUOUS
 62
40
 10
1.4816E+002
 20
1.592E+002
 11
1.4859E+002
 21
1.5963E+002
  0
LINE
  8
V1L0
  6
CONTINUOUS
 62
40
 10
1.4958E+002
 20
1.592E+002
 11
1.4996E+002
 21
1.5959E+002
  0
LINE
  8
V1L0
  6
CONTINUOUS
 62
40
 10
1.479E+002
 20
1.5873E+002
 11
1.4816E+002
 21
1.5873E+002
  0
LINE
  8
V1L0
  6
CONTINUOUS
 62
40
 10
1.4958E+002
 20
1.5894E+002
 11
1.4958E+002
 21
1.592E+002
  0
LINE
  8
V1L0
  6
CONTINUOUS
 62
40
 10
1.3675E+002
 20
1.3761E+002
 11
1.4375E+002
 21
1.3761E+002
  0
LINE
  8
V1L0
  6
CONTINUOUS
 62
40
 10
1.44E+002
 20
1.3905E+002
 11
1.44E+002
 21
1.4328E+002
  0
LINE
  8
V1L0
  6
CONTINUOUS
 62
40
 10
1.365E+002
 20
1.3761E+002
 11
1.365E+002
 21
1.4307E+002
  0
LINE
  8
V1L0
  6
CONTINUOUS
 62
40
 10
1.455E+002
 20
1.3761E+002
 11
1.455E+002
 21
1.4328E+002
  0
LINE
  8
V1L0
  6
CONTINUOUS
 62
40
 10
1.365E+002
 20
1.3761E+002
 11
1.455E+002
 21
1.3761E+002
  0
LINE
  8
V1L0
  6
CONTINUOUS
 62
40
 10
1.365E+002
 20
1.3905E+002
 11
1.44E+002
 21
1.3905E+002
  0
LINE
  8
V1L0
  6
CONTINUOUS
 62
40
 10
1.44E+002
 20
1.4197E+002
 11
1.455E+002
 21
1.4197E+002
  0
LINE
  8
V1L0
  6
CONTINUOUS
 62
40
 10
1.44E+002
 20
1.4328E+002
 11
1.455E+002
 21
1.4328E+002
  0
LINE
  8
V1L0
  6
CONTINUOUS
 62
40
 10
1.3699E+002
 20
1.3924E+002
 11
1.392E+002
 21
1.4006E+002
  0
LINE
  8
V1L0
  6
CONTINUOUS
 62
40
 10
1.413E+002
 20
1.4006E+002
 11
1.4351E+002
 21
1.3924E+002
  0
ARC
  8
V1L0
  6
CONTINUOUS
 62
40
 10
1.4025237E+002
 20
1.372484E+002
 40
3.0
 50
6.96E+001
 51
1.104E+002
  0
ARC
  8
V1L0
  6
CONTINUOUS
 62
40
 10
1.4025237E+002
 20
1.387484E+002
 40
3.0
 50
6.96E+001
 51
1.104E+002
  0
LINE
  8
V1L0
  6
CONTINUOUS
 62
40
 10
1.365E+002
 20
1.4055E+002
 11
1.392E+002
 21
1.4156E+002
  0
LINE
  8
V1L0
  6
CONTINUOUS
 62
40
 10
1.413E+002
 20
1.4156E+002
 11
1.44E+002
 21
1.4055E+002
  0
LINE
  8
V1L0
  6
CONTINUOUS
 62
40
 10
1.365E+002
 20
1.4307E+002
 11
1.3684E+002
 21
1.432E+002
  0
LINE
  8
V1L0
  6
CONTINUOUS
 62
40
 10
1.4366E+002
 20
1.432E+002
 11
1.44E+002
 21
1.4307E+002
  0
LINE
  8
V1L0
  6
CONTINUOUS
 62
40
 10
1.365E+002
 20
1.4055E+002
 11
1.3699E+002
 21
1.3924E+002
  0
LINE
  8
V1L0
  6
CONTINUOUS
 62
40
 10
1.4351E+002
 20
1.3924E+002
 11
1.44E+002
 21
1.4055E+002
  0
LINE
  8
V1L0
  6
CONTINUOUS
 62
40
 10
1.3684E+002
 20
1.432E+002
 11
1.3709E+002
 21
1.4552E+002
  0
LINE
  8
V1L0
  6
CONTINUOUS
 62
40
 10
1.4341E+002
 20
1.4552E+002
 11
1.4366E+002
 21
1.432E+002
  0
LINE
  8
V1L0
  6
CONTINUOUS
 62
40
 10
1.3968E+002
 20
1.4538E+002
 11
1.4009E+002
 21
1.4497E+002
  0
LINE
  8
V1L0
  6
CONTINUOUS
 62
40
 10
1.411E+002
 20
1.4538E+002
 11
1.4146E+002
 21
1.4501E+002
  0
LINE
  8
V1L0
  6
CONTINUOUS
 62
40
 10
1.4146E+002
 20
1.4455E+002
 11
1.4146E+002
 21
1.4501E+002
  0
LINE
  8
V1L0
  6
CONTINUOUS
 62
40
 10
1.4009E+002
 20
1.445E+002
 11
1.4009E+002
 21
1.4497E+002
  0
LINE
  8
V1L0
  6
CONTINUOUS
 62
40
 10
1.4041E+002
 20
1.456E+002
 11
1.4041E+002
 21
1.4607E+002
  0
LINE
  8
V1L0
  6
CONTINUOUS
 62
40
 10
1.4041E+002
 20
1.456E+002
 11
1.4146E+002
 21
1.4455E+002
  0
LINE
  8
V1L0
  6
CONTINUOUS
 62
40
 10
1.4084E+002
 20
1.4564E+002
 11
1.4225E+002
 21
1.4564E+002
  0
LINE
  8
V1L0
  6
CONTINUOUS
 62
40
 10
1.3801E+002
 20
1.4564E+002
 11
1.3827E+002
 21
1.4538E+002
  0
LINE
  8
V1L0
  6
CONTINUOUS
 62
40
 10
1.4225E+002
 20
1.4564E+002
 11
1.4251E+002
 21
1.4538E+002
  0
LINE
  8
V1L0
  6
CONTINUOUS
 62
40
 10
1.411E+002
 20
1.4538E+002
 11
1.4251E+002
 21
1.4538E+002
  0
LINE
  8
V1L0
  6
CONTINUOUS
 62
40
 10
1.411E+002
 20
1.4491E+002
 11
1.411E+002
 21
1.4538E+002
  0
LINE
  8
V1L0
  6
CONTINUOUS
 62
40
 10
1.4084E+002
 20
1.4517E+002
 11
1.4084E+002
 21
1.4564E+002
  0
LINE
  8
V1L0
  6
CONTINUOUS
 62
40
 10
1.3827E+002
 20
1.4538E+002
 11
1.3968E+002
 21
1.4538E+002
  0
LINE
  8
V1L0
  6
CONTINUOUS
 62
40
 10
1.3801E+002
 20
1.4564E+002
 11
1.3942E+002
 21
1.4564E+002
  0
LINE
  8
V1L0
  6
CONTINUOUS
 62
40
 10
1.4041E+002
 20
1.4607E+002
 11
1.4084E+002
 21
1.4564E+002
  0
LINE
  8
V1L0
  6
CONTINUOUS
 62
40
 10
1.3904E+002
 20
1.4603E+002
 11
1.3942E+002
 21
1.4564E+002
  0
LINE
  8
V1L0
  6
CONTINUOUS
 62
40
 10
1.4084E+002
 20
1.4517E+002
 11
1.411E+002
 21
1.4517E+002
  0
LINE
  8
V1L0
  6
CONTINUOUS
 62
40
 10
1.3942E+002
 20
1.4538E+002
 11
1.3942E+002
 21
1.4564E+002
  0
LINE
  8
V1L0
  6
CONTINUOUS
 62
40
 10
1.3875E+002
 20
1.3568E+002
 11
1.3875E+002
 21
1.3761E+002
  0
LINE
  8
V1L0
  6
CONTINUOUS
 62
40
 10
1.4175E+002
 20
1.3568E+002
 11
1.4175E+002
 21
1.3761E+002
  0
LINE
  8
V1L0
  6
CONTINUOUS
 62
40
 10
1.4118E+002
 20
1.3555E+002
 11
1.545E+002
 21
1.3555E+002
  0
LINE
  8
V1L0
  6
CONTINUOUS
 62
40
 10
1.4725E+002
 20
1.4924E+002
 11
1.4725E+002
 21
1.5117E+002
  0
LINE
  8
V1L0
  6
CONTINUOUS
 62
40
 10
1.5025E+002
 20
1.4924E+002
 11
1.5025E+002
 21
1.5117E+002
  0
LINE
  8
V1L0
  6
CONTINUOUS
 62
40
 10
1.075E+002
 20
1.229E+002
 11
1.075E+002
 21
1.4189E+002
  0
LINE
  8
V1L0
  6
CONTINUOUS
 62
40
 10
1.105E+002
 20
1.4648E+002
 11
1.105E+002
 21
1.9205E+002
  0
LINE
  8
V1L0
  6
CONTINUOUS
 62
40
 10
1.12E+002
 20
1.3455E+002
 11
1.12E+002
 21
1.4648E+002
  0
LINE
  8
V1L0
  6
CONTINUOUS
 62
40
 10
1.215E+002
 20
1.9355E+002
 11
1.215E+002
 21
1.9505E+002
  0
LINE
  8
V1L0
  6
CONTINUOUS
 62
40
 10
1.135E+002
 20
1.9505E+002
 11
1.215E+002
 21
1.9505E+002
  0
LINE
  8
V1L0
  6
CONTINUOUS
 62
40
 10
1.135E+002
 20
1.9355E+002
 11
1.215E+002
 21
1.9355E+002
  0
LINE
  8
V1L0
  6
CONTINUOUS
 62
40
 10
1.06E+002
 20
1.2295E+002
 11
1.06E+002
 21
1.4189E+002
  0
LINE
  8
V1L0
  6
CONTINUOUS
 62
40
 10
1.0401E+002
 20
1.1515E+002
 11
1.055E+002
 21
1.1505E+002
  0
ARC
  8
V1L0
  6
CONTINUOUS
 62
40
 10
1.0900237E+002
 20
1.418884E+002
 40
3.0
 50
9.3E+001
 51
1.8E+002
  0
ARC
  8
V1L0
  6
CONTINUOUS
 62
40
 10
1.0900237E+002
 20
1.418884E+002
 40
1.5
 50
9.3E+001
 51
1.8E+002
  0
ARC
  8
V1L0
  6
CONTINUOUS
 62
40
 10
1.0900237E+002
 20
1.464784E+002
 40
1.5
 50
2.73E+002
 51
3.6E+002
  0
ARC
  8
V1L0
  6
CONTINUOUS
 62
40
 10
1.0900237E+002
 20
1.464784E+002
 40
3.0
 50
2.73E+002
 51
3.6E+002
  0
ARC
  8
V1L0
  6
CONTINUOUS
 62
40
 10
1.1350237E+002
 20
1.920484E+002
 40
3.0
 50
9.0E+001
 51
1.8E+002
  0
ARC
  8
V1L0
  6
CONTINUOUS
 62
40
 10
1.1350237E+002
 20
1.920484E+002
 40
1.5
 50
9.0E+001
 51
1.8E+002
  0
LINE
  8
V1L0
  6
CONTINUOUS
 62
40
 10
1.05E+002
 20
1.468E+002
 11
1.05E+002
 21
1.493E+002
  0
LINE
  8
V1L0
  6
CONTINUOUS
 62
40
 10
1.05E+002
 20
1.468E+002
 11
1.105E+002
 21
1.468E+002
  0
LINE
  8
V1L0
  6
CONTINUOUS
 62
40
 10
1.05E+002
 20
1.493E+002
 11
1.105E+002
 21
1.493E+002
  0
CIRCLE
  8
V1L0
  6
CONTINUOUS
 62
40
 10
7.6002371E+001
 20
4.79984E+001
 40
1.5E+001
  0
CIRCLE
  8
V1L0
  6
LONG_DASH
 62
40
 10
8.3002371E+001
 20
4.79984E+001
 40
4.0
  0
TEXT
  8
V1L0
  6
CONTINUOUS
 62
40
 10
1.4675E+002
 20
3.01E+001
 40
4.0
  1
OESA ZX33
 50
9.0E+001
  0
LINE
  8
V1L0
  6
CONTINUOUS
 62
40
 10
1.055E+002
 20
1.1505E+002
 11
1.074E+002
 21
1.2212E+002
  0
LINE
  8
V1L0
  6
CONTINUOUS
 62
40
 10
1.0401E+002
 20
1.1515E+002
 11
1.059E+002
 21
1.2217E+002
  0
LINE
  8
V1L0
  6
CONTINUOUS
 62
40
 10
1.0884E+002
 20
1.4489E+002
 11
1.0908E+002
 21
1.4498E+002
  0
LINE
  8
V1L0
  6
CONTINUOUS
 62
40
 10
1.0892E+002
 20
1.4339E+002
 11
1.0916E+002
 21
1.4348E+002
  0
LINE
  8
V1L0
  6
CONTINUOUS
 62
40
 10
1.185E+002
 20
1.0505E+002
 11
1.535E+002
 21
1.0505E+002
  0
LINE
  8
V1L0
  6
CONTINUOUS
 62
40
 10
1.185E+002
 20
1.0505E+002
 11
1.185E+002
 21
1.3505E+002
  0
LINE
  8
V1L0
  6
LONG_DASH
 62
40
 10
1.185E+002
 20
1.0905E+002
 11
1.285E+002
 21
1.0905E+002
  0
LINE
  8
V1L0
  6
LONG_DASH
 62
40
 10
1.185E+002
 20
1.1705E+002
 11
1.285E+002
 21
1.1705E+002
  0
LINE
  8
V1L0
  6
CONTINUOUS
 62
40
 10
1.12E+002
 20
1.4648E+002
 11
1.12E+002
 21
1.9205E+002
  0
ARC
  8
V1L0
  6
CONTINUOUS
 62
40
 10
1.0300237E+002
 20
1.229484E+002
 40
3.0
 50
3.4492E+002
 51
3.6E+002
  0
ARC
  8
V1L0
  6
CONTINUOUS
 62
40
 10
1.0450237E+002
 20
1.228984E+002
 40
3.0
 50
3.45E+002
 51
3.6E+002
  0
LINE
  8
V1L0
  6
CONTINUOUS
 62
40
 10
1.205E+002
 20
1.0205E+002
 11
1.245E+002
 21
1.0205E+002
  0
LINE
  8
V1L0
  6
CONTINUOUS
 62
40
 10
1.255E+002
 20
1.0305E+002
 11
1.255E+002
 21
1.0505E+002
  0
LINE
  8
V1L0
  6
CONTINUOUS
 62
40
 10
1.195E+002
 20
1.0305E+002
 11
1.195E+002
 21
1.0505E+002
  0
ARC
  8
V1L0
  6
CONTINUOUS
 62
40
 10
1.2050237E+002
 20
1.030484E+002
 40
1.0
 50
1.8E+002
 51
2.7E+002
  0
ARC
  8
V1L0
  6
CONTINUOUS
 62
40
 10
1.2450237E+002
 20
1.030484E+002
 40
1.0
 50
2.7E+002
 51
3.6E+002
  0
LINE
  8
V1L0
  6
CONTINUOUS
 62
40
 10
9.07E+001
 20
4.5E+001
 11
9.3E+001
 21
4.5E+001
  0
LINE
  8
V1L0
  6
CONTINUOUS
 62
40
 10
9.07E+001
 20
5.1E+001
 11
9.3E+001
 21
5.1E+001
  0
LINE
  8
V1L0
  6
CONTINUOUS
 62
40
 10
9.4E+001
 20
4.6E+001
 11
9.4E+001
 21
5.0E+001
  0
ARC
  8
V1L0
  6
CONTINUOUS
 62
40
 10
9.3002371E+001
 20
4.99984E+001
 40
1.0
 50
0.0
 51
9.0E+001
  0
ARC
  8
V1L0
  6
CONTINUOUS
 62
40
 10
9.3002371E+001
 20
4.59984E+001
 40
1.0
 50
2.7E+002
 51
3.6E+002
  0
LINE
  8
V1L0
  6
CONTINUOUS
 62
40
 10
1.185E+002
 20
1.3505E+002
 11
1.535E+002
 21
1.3505E+002
  0
LINE
  8
V1L0
  6
CONTINUOUS
 62
40
 10
1.775E+002
 20
6.65E+001
 11
1.775E+002
 21
7.15E+001
  0
LINE
  8
V1L0
  6
CONTINUOUS
 62
40
 10
2.575E+002
 20
2.45E+001
 11
2.575E+002
 21
7.15E+001
  0
LINE
  8
V1L0
  6
CONTINUOUS
 62
40
 10
2.56E+002
 20
1.0
 11
2.56E+002
 21
2.45E+001
  0
LINE
  8
V1L0
  6
CONTINUOUS
 62
40
 10
1.775E+002
 20
6.65E+001
 11
1.84E+002
 21
6.65E+001
  0
LINE
  8
V1L0
  6
CONTINUOUS
 62
40
 10
1.775E+002
 20
2.95E+001
 11
1.84E+002
 21
2.95E+001
  0
LINE
  8
V1L0
  6
CONTINUOUS
 62
40
 10
1.97E+002
 20
9.5E+001
 11
2.56E+002
 21
9.5E+001
  0
LINE
  8
V1L0
  6
CONTINUOUS
 62
40
 10
1.97E+002
 20
1.0
 11
2.56E+002
 21
1.0
  0
LINE
  8
V1L0
  6
CONTINUOUS
 62
40
 10
2.545E+002
 20
7.15E+001
 11
2.575E+002
 21
7.15E+001
  0
LINE
  8
V1L0
  6
CONTINUOUS
 62
40
 10
2.545E+002
 20
2.45E+001
 11
2.575E+002
 21
2.45E+001
  0
LINE
  8
V1L0
  6
CONTINUOUS
 62
40
 10
1.775E+002
 20
7.15E+001
 11
2.105E+002
 21
7.15E+001
  0
LINE
  8
V1L0
  6
CONTINUOUS
 62
40
 10
1.775E+002
 20
2.45E+001
 11
2.105E+002
 21
2.45E+001
  0
LINE
  8
V1L0
  6
CONTINUOUS
 62
40
 10
1.995E+002
 20
1.0
 11
1.995E+002
 21
2.45E+001
  0
LINE
  8
V1L0
  6
CONTINUOUS
 62
40
 10
1.775E+002
 20
2.45E+001
 11
1.775E+002
 21
2.95E+001
  0
LINE
  8
V1L0
  6
CONTINUOUS
 62
40
 10
1.85E+002
 20
3.05E+001
 11
1.85E+002
 21
4.525E+001
  0
ARC
  8
V1L0
  6
CONTINUOUS
 62
40
 10
1.8400237E+002
 20
6.54984E+001
 40
1.0
 50
0.0
 51
9.0E+001
  0
ARC
  8
V1L0
  6
CONTINUOUS
 62
40
 10
1.8400237E+002
 20
3.04984E+001
 40
1.0
 50
2.7E+002
 51
3.6E+002
  0
LINE
  8
V1L0
  6
CONTINUOUS
 62
40
 10
1.995E+002
 20
7.15E+001
 11
1.995E+002
 21
9.5E+001
  0
ARC
  8
V1L0
  6
CONTINUOUS
 62
40
 10
1.8250237E+002
 20
4.79984E+001
 40
1.5E+001
 50
8.041E+001
 51
2.7959E+002
  0
CIRCLE
  8
V1L0
  6
CONTINUOUS
 62
40
 10
1.7550237E+002
 20
4.79984E+001
 40
4.0
  0
LINE
  8
V1L0
  6
CONTINUOUS
 62
40
 10
1.655E+002
 20
4.5E+001
 11
1.678E+002
 21
4.5E+001
  0
LINE
  8
V1L0
  6
CONTINUOUS
 62
40
 10
1.655E+002
 20
5.1E+001
 11
1.678E+002
 21
5.1E+001
  0
LINE
  8
V1L0
  6
CONTINUOUS
 62
40
 10
1.645E+002
 20
4.6E+001
 11
1.645E+002
 21
5.0E+001
  0
ARC
  8
V1L0
  6
CONTINUOUS
 62
40
 10
1.6550237E+002
 20
4.99984E+001
 40
1.0
 50
9.0E+001
 51
1.8E+002
  0
ARC
  8
V1L0
  6
CONTINUOUS
 62
40
 10
1.6550237E+002
 20
4.59984E+001
 40
1.0
 50
1.8E+002
 51
2.7E+002
  0
LINE
  8
V1L0
  6
CONTINUOUS
 62
40
 10
2.115E+002
 20
7.35E+001
 11
2.535E+002
 21
7.35E+001
  0
LINE
  8
V1L0
  6
CONTINUOUS
 62
40
 10
1.85E+002
 20
4.525E+001
 11
1.9875E+002
 21
4.525E+001
  0
LINE
  8
V1L0
  6
CONTINUOUS
 62
40
 10
1.85E+002
 20
5.075E+001
 11
1.9875E+002
 21
5.075E+001
  0
ARC
  8
V1L0
  6
CONTINUOUS
 62
40
 10
1.9875237E+002
 20
4.79984E+001
 40
2.75
 50
2.7E+002
 51
4.5E+002
  0
LINE
  8
V1L0
  6
CONTINUOUS
 62
40
 10
1.85E+002
 20
5.075E+001
 11
1.85E+002
 21
6.55E+001
  0
LINE
  8
V1L0
  6
CONTINUOUS
 62
40
 10
2.535E+002
 20
7.25E+001
 11
2.535E+002
 21
7.35E+001
  0
LINE
  8
V1L0
  6
CONTINUOUS
 62
40
 10
2.115E+002
 20
7.25E+001
 11
2.115E+002
 21
7.35E+001
  0
ARC
  8
V1L0
  6
CONTINUOUS
 62
40
 10
2.1050237E+002
 20
7.24984E+001
 40
1.0
 50
2.7E+002
 51
3.6E+002
  0
ARC
  8
V1L0
  6
CONTINUOUS
 62
40
 10
2.5450237E+002
 20
7.24984E+001
 40
1.0
 50
1.8E+002
 51
2.7E+002
  0
LINE
  8
V1L0
  6
CONTINUOUS
 62
40
 10
2.085E+002
 20
2.45E+001
 11
2.085E+002
 21
7.15E+001
  0
CIRCLE
  8
V1L0
  6
CONTINUOUS
 62
40
 10
2.1050237E+002
 20
3.04984E+001
 40
1.5
  0
CIRCLE
  8
V1L0
  6
CONTINUOUS
 62
40
 10
2.1050237E+002
 20
6.54984E+001
 40
1.5
  0
LINE
  8
V1L0
  6
CONTINUOUS
 62
40
 10
2.115E+002
 20
2.25E+001
 11
2.535E+002
 21
2.25E+001
  0
ARC
  8
V1L0
  6
CONTINUOUS
 62
40
 10
2.1050237E+002
 20
2.34984E+001
 40
1.0
 50
0.0
 51
9.0E+001
  0
ARC
  8
V1L0
  6
CONTINUOUS
 62
40
 10
2.5450237E+002
 20
2.34984E+001
 40
1.0
 50
9.0E+001
 51
1.8E+002
  0
LINE
  8
V1L0
  6
CONTINUOUS
 62
40
 10
2.535E+002
 20
2.25E+001
 11
2.535E+002
 21
2.35E+001
  0
LINE
  8
V1L0
  6
CONTINUOUS
 62
40
 10
2.115E+002
 20
2.25E+001
 11
2.115E+002
 21
2.35E+001
  0
LINE
  8
V1L0
  6
CONTINUOUS
 62
40
 10
2.56E+002
 20
7.15E+001
 11
2.56E+002
 21
9.5E+001
  0
LINE
  8
V1L0
  6
LONG_DASH
 62
40
 10
1.06E+002
 20
1.3905E+002
 11
1.075E+002
 21
1.3905E+002
  0
LINE
  8
V1L0
  6
CENTERLINE
 62
40
 10
1.0298E+002
 20
1.363E+002
 11
1.1014E+002
 21
1.363E+002
  0
LINE
  8
V1L0
  6
CONTINUOUS
 62
40
 10
8.0
 20
2.25E+001
 11
8.0
 21
7.35E+001
  0
LINE
  8
V1L0
  6
CONTINUOUS
 62
40
 10
8.0
 20
7.35E+001
 11
3.3E+001
 21
7.35E+001
  0
LINE
  8
V1L0
  6
CONTINUOUS
 62
40
 10
8.0
 20
2.25E+001
 11
3.3E+001
 21
2.25E+001
  0
CIRCLE
  8
V1L0
  6
CONTINUOUS
 62
40
 10
2.0502371E+001
 20
3.04984E+001
 40
2.75
  0
LINE
  8
V1L0
  6
CONTINUOUS
 62
40
 10
1.838E+001
 20
3.225E+001
 11
2.186E+001
 21
2.811E+001
  0
LINE
  8
V1L0
  6
CONTINUOUS
 62
40
 10
1.915E+001
 20
3.289E+001
 11
2.262E+001
 21
2.875E+001
  0
CIRCLE
  8
V1L0
  6
CONTINUOUS
 62
40
 10
2.0502371E+001
 20
6.54984E+001
 40
2.75
  0
LINE
  8
V1L0
  6
CONTINUOUS
 62
40
 10
1.915E+001
 20
6.789E+001
 11
2.262E+001
 21
6.375E+001
  0
LINE
  8
V1L0
  6
CONTINUOUS
 62
40
 10
1.838E+001
 20
6.725E+001
 11
2.186E+001
 21
6.311E+001
  0
LINE
  8
V1L0
  6
CONTINUOUS
 62
40
 10
2.65E+001
 20
7.35E+001
 11
2.745E+001
 21
7.696E+001
  0
LINE
  8
V1L0
  6
CONTINUOUS
 62
40
 10
2.95E+001
 20
8.45E+001
 11
3.095E+001
 21
8.411E+001
  0
LINE
  8
V1L0
  6
CONTINUOUS
 62
40
 10
2.806E+001
 20
7.35E+001
 11
3.095E+001
 21
8.411E+001
  0
LINE
  8
V1L0
  6
CONTINUOUS
 62
40
 10
2.429E+001
 20
7.679E+001
 11
2.661E+001
 21
8.529E+001
  0
LINE
  8
V1L0
  6
CONTINUOUS
 62
40
 10
2.222E+001
 20
7.868E+001
 11
2.386E+001
 21
8.471E+001
  0
LINE
  8
V1L0
  6
CONTINUOUS
 62
40
 10
2.429E+001
 20
7.679E+001
 11
2.69E+001
 21
7.608E+001
  0
LINE
  8
V1L0
  6
CONTINUOUS
 62
40
 10
2.448E+001
 20
8.507E+001
 11
2.64E+001
 21
8.454E+001
  0
LINE
  8
V1L0
  6
CONTINUOUS
 62
40
 10
2.257E+001
 20
7.807E+001
 11
2.45E+001
 21
7.754E+001
  0
ARC
  8
V1L0
  6
CONTINUOUS
 62
40
 10
2.4342371E+001
 20
8.45784E+001
 40
5.0E-001
 50
7.474E+001
 51
1.6474E+002
  0
ARC
  8
V1L0
  6
CONTINUOUS
 62
40
 10
2.2702371E+001
 20
7.85484E+001
 40
5.0E-001
 50
1.6474E+002
 51
2.5474E+002
  0
LINE
  8
V1L0
  6
CONTINUOUS
 62
40
 10
2.921E+001
 20
8.458E+001
 11
2.924E+001
 21
8.354E+001
  0
LINE
  8
V1L0
  6
CONTINUOUS
 62
40
 10
2.661E+001
 20
8.529E+001
 11
2.921E+001
 21
8.458E+001
  0
LINE
  8
V1L0
  6
CONTINUOUS
 62
40
 10
2.69E+001
 20
7.608E+001
 11
2.745E+001
 21
7.696E+001
  0
LINE
  8
V1L0
  6
CONTINUOUS
 62
40
 10
2.745E+001
 20
7.696E+001
 11
2.95E+001
 21
8.45E+001
  0
LINE
  8
V1L0
  6
CONTINUOUS
 62
40
 10
2.94E+001
 20
7.841E+001
 11
3.229E+001
 21
7.762E+001
  0
LINE
  8
V1L0
  6
CONTINUOUS
 62
40
 10
3.019E+001
 20
8.13E+001
 11
3.308E+001
 21
8.051E+001
  0
LINE
  8
V1L0
  6
CONTINUOUS
 62
40
 10
1.294E+001
 20
7.35E+001
 11
1.389E+001
 21
7.696E+001
  0
LINE
  8
V1L0
  6
CONTINUOUS
 62
40
 10
1.594E+001
 20
8.45E+001
 11
1.739E+001
 21
8.411E+001
  0
LINE
  8
V1L0
  6
CONTINUOUS
 62
40
 10
1.45E+001
 20
7.35E+001
 11
1.739E+001
 21
8.411E+001
  0
LINE
  8
V1L0
  6
CONTINUOUS
 62
40
 10
1.073E+001
 20
7.679E+001
 11
1.305E+001
 21
8.529E+001
  0
LINE
  8
V1L0
  6
CONTINUOUS
 62
40
 10
8.66
 20
7.868E+001
 11
1.03E+001
 21
8.471E+001
  0
LINE
  8
V1L0
  6
CONTINUOUS
 62
40
 10
1.073E+001
 20
7.679E+001
 11
1.334E+001
 21
7.608E+001
  0
LINE
  8
V1L0
  6
CONTINUOUS
 62
40
 10
1.092E+001
 20
8.507E+001
 11
1.284E+001
 21
8.454E+001
  0
LINE
  8
V1L0
  6
CONTINUOUS
 62
40
 10
9.01
 20
7.807E+001
 11
1.094E+001
 21
7.754E+001
  0
ARC
  8
V1L0
  6
CONTINUOUS
 62
40
 10
1.0782371E+001
 20
8.45784E+001
 40
5.0E-001
 50
7.474E+001
 51
1.6474E+002
  0
ARC
  8
V1L0
  6
CONTINUOUS
 62
40
 10
9.1423707
 20
7.85484E+001
 40
5.0E-001
 50
1.6474E+002
 51
2.5474E+002
  0
LINE
  8
V1L0
  6
CONTINUOUS
 62
40
 10
1.565E+001
 20
8.458E+001
 11
1.568E+001
 21
8.354E+001
  0
LINE
  8
V1L0
  6
CONTINUOUS
 62
40
 10
1.305E+001
 20
8.529E+001
 11
1.565E+001
 21
8.458E+001
  0
LINE
  8
V1L0
  6
CONTINUOUS
 62
40
 10
1.334E+001
 20
7.608E+001
 11
1.389E+001
 21
7.696E+001
  0
LINE
  8
V1L0
  6
CONTINUOUS
 62
40
 10
1.389E+001
 20
7.696E+001
 11
1.413E+001
 21
7.784E+001
  0
LINE
  8
V1L0
  6
CONTINUOUS
 62
40
 10
1.171E+001
 20
7.85E+001
 11
1.303E+001
 21
8.332E+001
  0
LINE
  8
V1L0
  6
CONTINUOUS
 62
40
 10
1.171E+001
 20
7.85E+001
 11
1.557E+001
 21
7.744E+001
  0
LINE
  8
V1L0
  6
CONTINUOUS
 62
40
 10
1.303E+001
 20
8.332E+001
 11
1.689E+001
 21
8.227E+001
  0
LINE
  8
V1L0
  6
CONTINUOUS
 62
40
 10
1.584E+001
 20
7.841E+001
 11
1.873E+001
 21
7.762E+001
  0
LINE
  8
V1L0
  6
CONTINUOUS
 62
40
 10
1.663E+001
 20
8.13E+001
 11
1.952E+001
 21
8.051E+001
  0
LINE
  8
V1L0
  6
CONTINUOUS
 62
40
 10
1.873E+001
 20
7.762E+001
 11
1.952E+001
 21
8.051E+001
  0
LINE
  8
V1L0
  6
CONTINUOUS
 62
40
 10
1.544E+001
 20
8.266E+001
 11
1.594E+001
 21
8.45E+001
  0
LINE
  8
V1L0
  6
CONTINUOUS
 62
40
 10
2.65E+001
 20
2.25E+001
 11
2.745E+001
 21
1.904E+001
  0
LINE
  8
V1L0
  6
CONTINUOUS
 62
40
 10
2.95E+001
 20
1.15E+001
 11
3.095E+001
 21
1.189E+001
  0
LINE
  8
V1L0
  6
CONTINUOUS
 62
40
 10
2.806E+001
 20
2.25E+001
 11
3.095E+001
 21
1.189E+001
  0
LINE
  8
V1L0
  6
CONTINUOUS
 62
40
 10
2.429E+001
 20
1.921E+001
 11
2.661E+001
 21
1.071E+001
  0
LINE
  8
V1L0
  6
CONTINUOUS
 62
40
 10
2.222E+001
 20
1.732E+001
 11
2.386E+001
 21
1.129E+001
  0
LINE
  8
V1L0
  6
CONTINUOUS
 62
40
 10
2.429E+001
 20
1.921E+001
 11
2.69E+001
 21
1.992E+001
  0
LINE
  8
V1L0
  6
CONTINUOUS
 62
40
 10
2.448E+001
 20
1.093E+001
 11
2.64E+001
 21
1.146E+001
  0
LINE
  8
V1L0
  6
CONTINUOUS
 62
40
 10
2.257E+001
 20
1.793E+001
 11
2.45E+001
 21
1.846E+001
  0
ARC
  8
V1L0
  6
CONTINUOUS
 62
40
 10
2.4342371E+001
 20
1.14184E+001
 40
5.0E-001
 50
1.9526E+002
 51
2.8526E+002
  0
ARC
  8
V1L0
  6
CONTINUOUS
 62
40
 10
2.2702371E+001
 20
1.74484E+001
 40
5.0E-001
 50
1.0526E+002
 51
1.9526E+002
  0
LINE
  8
V1L0
  6
CONTINUOUS
 62
40
 10
2.921E+001
 20
1.142E+001
 11
2.924E+001
 21
1.246E+001
  0
LINE
  8
V1L0
  6
CONTINUOUS
 62
40
 10
2.661E+001
 20
1.071E+001
 11
2.921E+001
 21
1.142E+001
  0
LINE
  8
V1L0
  6
CONTINUOUS
 62
40
 10
2.69E+001
 20
1.992E+001
 11
2.745E+001
 21
1.904E+001
  0
LINE
  8
V1L0
  6
CONTINUOUS
 62
40
 10
2.9E+001
 20
1.334E+001
 11
2.95E+001
 21
1.15E+001
  0
LINE
  8
V1L0
  6
CONTINUOUS
 62
40
 10
2.94E+001
 20
1.759E+001
 11
3.229E+001
 21
1.838E+001
  0
LINE
  8
V1L0
  6
CONTINUOUS
 62
40
 10
3.019E+001
 20
1.47E+001
 11
3.308E+001
 21
1.549E+001
  0
LINE
  8
V1L0
  6
CONTINUOUS
 62
40
 10
1.294E+001
 20
2.25E+001
 11
1.389E+001
 21
1.904E+001
  0
LINE
  8
V1L0
  6
CONTINUOUS
 62
40
 10
1.594E+001
 20
1.15E+001
 11
1.739E+001
 21
1.189E+001
  0
LINE
  8
V1L0
  6
CONTINUOUS
 62
40
 10
1.45E+001
 20
2.25E+001
 11
1.739E+001
 21
1.189E+001
  0
LINE
  8
V1L0
  6
CONTINUOUS
 62
40
 10
1.073E+001
 20
1.921E+001
 11
1.305E+001
 21
1.071E+001
  0
LINE
  8
V1L0
  6
CONTINUOUS
 62
40
 10
8.66
 20
1.732E+001
 11
1.03E+001
 21
1.129E+001
  0
LINE
  8
V1L0
  6
CONTINUOUS
 62
40
 10
1.073E+001
 20
1.921E+001
 11
1.334E+001
 21
1.992E+001
  0
LINE
  8
V1L0
  6
CONTINUOUS
 62
40
 10
1.092E+001
 20
1.093E+001
 11
1.284E+001
 21
1.146E+001
  0
LINE
  8
V1L0
  6
CONTINUOUS
 62
40
 10
9.01
 20
1.793E+001
 11
1.094E+001
 21
1.846E+001
  0
ARC
  8
V1L0
  6
CONTINUOUS
 62
40
 10
1.0782371E+001
 20
1.14184E+001
 40
5.0E-001
 50
1.9526E+002
 51
2.8526E+002
  0
ARC
  8
V1L0
  6
CONTINUOUS
 62
40
 10
9.1423707
 20
1.74484E+001
 40
5.0E-001
 50
1.0526E+002
 51
1.9526E+002
  0
LINE
  8
V1L0
  6
CONTINUOUS
 62
40
 10
1.565E+001
 20
1.142E+001
 11
1.568E+001
 21
1.246E+001
  0
LINE
  8
V1L0
  6
CONTINUOUS
 62
40
 10
1.305E+001
 20
1.071E+001
 11
1.565E+001
 21
1.142E+001
  0
LINE
  8
V1L0
  6
CONTINUOUS
 62
40
 10
1.334E+001
 20
1.992E+001
 11
1.389E+001
 21
1.904E+001
  0
LINE
  8
V1L0
  6
CONTINUOUS
 62
40
 10
1.389E+001
 20
1.904E+001
 11
1.594E+001
 21
1.15E+001
  0
LINE
  8
V1L0
  6
CONTINUOUS
 62
40
 10
2.527E+001
 20
1.75E+001
 11
2.659E+001
 21
1.268E+001
  0
LINE
  8
V1L0
  6
CONTINUOUS
 62
40
 10
2.527E+001
 20
1.75E+001
 11
2.913E+001
 21
1.856E+001
  0
LINE
  8
V1L0
  6
CONTINUOUS
 62
40
 10
2.659E+001
 20
1.268E+001
 11
3.045E+001
 21
1.373E+001
  0
LINE
  8
V1L0
  6
CONTINUOUS
 62
40
 10
1.584E+001
 20
1.759E+001
 11
1.873E+001
 21
1.838E+001
  0
LINE
  8
V1L0
  6
CONTINUOUS
 62
40
 10
1.663E+001
 20
1.47E+001
 11
1.952E+001
 21
1.549E+001
  0
LINE
  8
V1L0
  6
CONTINUOUS
 62
40
 10
1.873E+001
 20
1.838E+001
 11
1.952E+001
 21
1.549E+001
  0
LINE
  8
V1L0
  6
CONTINUOUS
 62
40
 10
2.745E+001
 20
1.904E+001
 11
2.769E+001
 21
1.816E+001
  0
LINE
  8
V1L0
  6
CONTINUOUS
 62
40
 10
3.3E+001
 20
2.25E+001
 11
3.3E+001
 21
7.35E+001
  0
LINE
  8
V1L0
  6
CONTINUOUS
 62
40
 10
3.229E+001
 20
7.762E+001
 11
3.308E+001
 21
8.051E+001
  0
LINE
  8
V1L0
  6
CONTINUOUS
 62
40
 10
3.229E+001
 20
1.838E+001
 11
3.308E+001
 21
1.549E+001
  0
LINE
  8
V1L0
  6
CONTINUOUS
 62
40
 10
1.545E+002
 20
1.6305E+002
 11
1.545E+002
 21
1.8805E+002
  0
LINE
  8
V1L0
  6
CONTINUOUS
 62
40
 10
1.345E+002
 20
1.8805E+002
 11
1.545E+002
 21
1.8805E+002
  0
LINE
  8
V1L0
  6
CONTINUOUS
 62
40
 10
1.345E+002
 20
1.6305E+002
 11
1.3932E+002
 21
1.6305E+002
  0
LINE
  8
V1L0
  6
CONTINUOUS
 62
40
 10
1.45E+002
 20
1.8011E+002
 11
1.45E+002
 21
1.8434E+002
  0
LINE
  8
V1L0
  6
CONTINUOUS
 62
40
 10
1.525E+002
 20
1.7867E+002
 11
1.525E+002
 21
1.8413E+002
  0
LINE
  8
V1L0
  6
CONTINUOUS
 62
40
 10
1.435E+002
 20
1.7867E+002
 11
1.435E+002
 21
1.8434E+002
  0
LINE
  8
V1L0
  6
CONTINUOUS
 62
40
 10
1.435E+002
 20
1.7867E+002
 11
1.525E+002
 21
1.7867E+002
  0
LINE
  8
V1L0
  6
CONTINUOUS
 62
40
 10
1.45E+002
 20
1.8011E+002
 11
1.525E+002
 21
1.8011E+002
  0
LINE
  8
V1L0
  6
CONTINUOUS
 62
40
 10
1.435E+002
 20
1.8303E+002
 11
1.45E+002
 21
1.8303E+002
  0
LINE
  8
V1L0
  6
CONTINUOUS
 62
40
 10
1.435E+002
 20
1.8434E+002
 11
1.45E+002
 21
1.8434E+002
  0
LINE
  8
V1L0
  6
CONTINUOUS
 62
40
 10
1.498E+002
 20
1.8112E+002
 11
1.5201E+002
 21
1.803E+002
  0
LINE
  8
V1L0
  6
CONTINUOUS
 62
40
 10
1.4549E+002
 20
1.803E+002
 11
1.477E+002
 21
1.8112E+002
  0
ARC
  8
V1L0
  6
CONTINUOUS
 62
40
 10
1.4875237E+002
 20
1.783084E+002
 40
3.0
 50
6.96E+001
 51
1.104E+002
  0
ARC
  8
V1L0
  6
CONTINUOUS
 62
40
 10
1.4875237E+002
 20
1.798084E+002
 40
3.0
 50
6.96E+001
 51
1.104E+002
  0
LINE
  8
V1L0
  6
CONTINUOUS
 62
40
 10
1.498E+002
 20
1.8262E+002
 11
1.525E+002
 21
1.8161E+002
  0
LINE
  8
V1L0
  6
CONTINUOUS
 62
40
 10
1.45E+002
 20
1.8161E+002
 11
1.477E+002
 21
1.8262E+002
  0
LINE
  8
V1L0
  6
CONTINUOUS
 62
40
 10
1.5216E+002
 20
1.8426E+002
 11
1.525E+002
 21
1.8413E+002
  0
LINE
  8
V1L0
  6
CONTINUOUS
 62
40
 10
1.45E+002
 20
1.8413E+002
 11
1.4534E+002
 21
1.8426E+002
  0
LINE
  8
V1L0
  6
CONTINUOUS
 62
40
 10
1.5201E+002
 20
1.803E+002
 11
1.525E+002
 21
1.8161E+002
  0
LINE
  8
V1L0
  6
CONTINUOUS
 62
40
 10
1.45E+002
 20
1.8161E+002
 11
1.4549E+002
 21
1.803E+002
  0
LINE
  8
V1L0
  6
CONTINUOUS
 62
40
 10
1.5191E+002
 20
1.8658E+002
 11
1.5216E+002
 21
1.8426E+002
  0
LINE
  8
V1L0
  6
CONTINUOUS
 62
40
 10
1.4534E+002
 20
1.8426E+002
 11
1.4559E+002
 21
1.8658E+002
  0
LINE
  8
V1L0
  6
CONTINUOUS
 62
40
 10
1.4891E+002
 20
1.8603E+002
 11
1.4932E+002
 21
1.8644E+002
  0
LINE
  8
V1L0
  6
CONTINUOUS
 62
40
 10
1.4754E+002
 20
1.8607E+002
 11
1.479E+002
 21
1.8644E+002
  0
LINE
  8
V1L0
  6
CONTINUOUS
 62
40
 10
1.4754E+002
 20
1.8561E+002
 11
1.4754E+002
 21
1.8607E+002
  0
LINE
  8
V1L0
  6
CONTINUOUS
 62
40
 10
1.4891E+002
 20
1.8556E+002
 11
1.4891E+002
 21
1.8603E+002
  0
LINE
  8
V1L0
  6
CONTINUOUS
 62
40
 10
1.4859E+002
 20
1.8666E+002
 11
1.4859E+002
 21
1.8713E+002
  0
LINE
  8
V1L0
  6
CONTINUOUS
 62
40
 10
1.4754E+002
 20
1.8561E+002
 11
1.4859E+002
 21
1.8666E+002
  0
LINE
  8
V1L0
  6
CONTINUOUS
 62
40
 10
1.4675E+002
 20
1.867E+002
 11
1.4816E+002
 21
1.867E+002
  0
LINE
  8
V1L0
  6
CONTINUOUS
 62
40
 10
1.5073E+002
 20
1.8644E+002
 11
1.5099E+002
 21
1.867E+002
  0
LINE
  8
V1L0
  6
CONTINUOUS
 62
40
 10
1.4649E+002
 20
1.8644E+002
 11
1.4675E+002
 21
1.867E+002
  0
LINE
  8
V1L0
  6
CONTINUOUS
 62
40
 10
1.4649E+002
 20
1.8644E+002
 11
1.479E+002
 21
1.8644E+002
  0
LINE
  8
V1L0
  6
CONTINUOUS
 62
40
 10
1.479E+002
 20
1.8597E+002
 11
1.479E+002
 21
1.8644E+002
  0
LINE
  8
V1L0
  6
CONTINUOUS
 62
40
 10
1.4816E+002
 20
1.8623E+002
 11
1.4816E+002
 21
1.867E+002
  0
LINE
  8
V1L0
  6
CONTINUOUS
 62
40
 10
1.4932E+002
 20
1.8644E+002
 11
1.5073E+002
 21
1.8644E+002
  0
LINE
  8
V1L0
  6
CONTINUOUS
 62
40
 10
1.4958E+002
 20
1.867E+002
 11
1.5099E+002
 21
1.867E+002
  0
LINE
  8
V1L0
  6
CONTINUOUS
 62
40
 10
1.4816E+002
 20
1.867E+002
 11
1.4859E+002
 21
1.8713E+002
  0
LINE
  8
V1L0
  6
CONTINUOUS
 62
40
 10
1.4958E+002
 20
1.867E+002
 11
1.4996E+002
 21
1.8709E+002
  0
LINE
  8
V1L0
  6
CONTINUOUS
 62
40
 10
1.479E+002
 20
1.8623E+002
 11
1.4816E+002
 21
1.8623E+002
  0
LINE
  8
V1L0
  6
CONTINUOUS
 62
40
 10
1.4958E+002
 20
1.8644E+002
 11
1.4958E+002
 21
1.867E+002
  0
LINE
  8
V1L0
  6
CONTINUOUS
 62
40
 10
1.3675E+002
 20
1.6511E+002
 11
1.4375E+002
 21
1.6511E+002
  0
LINE
  8
V1L0
  6
CONTINUOUS
 62
40
 10
1.44E+002
 20
1.6655E+002
 11
1.44E+002
 21
1.7078E+002
  0
LINE
  8
V1L0
  6
CONTINUOUS
 62
40
 10
1.365E+002
 20
1.6511E+002
 11
1.365E+002
 21
1.7057E+002
  0
LINE
  8
V1L0
  6
CONTINUOUS
 62
40
 10
1.455E+002
 20
1.6511E+002
 11
1.455E+002
 21
1.7078E+002
  0
LINE
  8
V1L0
  6
CONTINUOUS
 62
40
 10
1.365E+002
 20
1.6511E+002
 11
1.455E+002
 21
1.6511E+002
  0
LINE
  8
V1L0
  6
CONTINUOUS
 62
40
 10
1.365E+002
 20
1.6655E+002
 11
1.44E+002
 21
1.6655E+002
  0
LINE
  8
V1L0
  6
CONTINUOUS
 62
40
 10
1.44E+002
 20
1.6947E+002
 11
1.455E+002
 21
1.6947E+002
  0
LINE
  8
V1L0
  6
CONTINUOUS
 62
40
 10
1.44E+002
 20
1.7078E+002
 11
1.455E+002
 21
1.7078E+002
  0
LINE
  8
V1L0
  6
CONTINUOUS
 62
40
 10
1.3699E+002
 20
1.6674E+002
 11
1.392E+002
 21
1.6756E+002
  0
LINE
  8
V1L0
  6
CONTINUOUS
 62
40
 10
1.413E+002
 20
1.6756E+002
 11
1.4351E+002
 21
1.6674E+002
  0
ARC
  8
V1L0
  6
CONTINUOUS
 62
40
 10
1.4025237E+002
 20
1.647484E+002
 40
3.0
 50
6.96E+001
 51
1.104E+002
  0
ARC
  8
V1L0
  6
CONTINUOUS
 62
40
 10
1.4025237E+002
 20
1.662484E+002
 40
3.0
 50
6.96E+001
 51
1.104E+002
  0
LINE
  8
V1L0
  6
CONTINUOUS
 62
40
 10
1.365E+002
 20
1.6805E+002
 11
1.392E+002
 21
1.6906E+002
  0
LINE
  8
V1L0
  6
CONTINUOUS
 62
40
 10
1.413E+002
 20
1.6906E+002
 11
1.44E+002
 21
1.6805E+002
  0
LINE
  8
V1L0
  6
CONTINUOUS
 62
40
 10
1.365E+002
 20
1.7057E+002
 11
1.3684E+002
 21
1.707E+002
  0
LINE
  8
V1L0
  6
CONTINUOUS
 62
40
 10
1.4366E+002
 20
1.707E+002
 11
1.44E+002
 21
1.7057E+002
  0
LINE
  8
V1L0
  6
CONTINUOUS
 62
40
 10
1.365E+002
 20
1.6805E+002
 11
1.3699E+002
 21
1.6674E+002
  0
LINE
  8
V1L0
  6
CONTINUOUS
 62
40
 10
1.4351E+002
 20
1.6674E+002
 11
1.44E+002
 21
1.6805E+002
  0
LINE
  8
V1L0
  6
CONTINUOUS
 62
40
 10
1.3684E+002
 20
1.707E+002
 11
1.3709E+002
 21
1.7302E+002
  0
LINE
  8
V1L0
  6
CONTINUOUS
 62
40
 10
1.4341E+002
 20
1.7302E+002
 11
1.4366E+002
 21
1.707E+002
  0
LINE
  8
V1L0
  6
CONTINUOUS
 62
40
 10
1.3968E+002
 20
1.7288E+002
 11
1.4009E+002
 21
1.7247E+002
  0
LINE
  8
V1L0
  6
CONTINUOUS
 62
40
 10
1.411E+002
 20
1.7288E+002
 11
1.4146E+002
 21
1.7251E+002
  0
LINE
  8
V1L0
  6
CONTINUOUS
 62
40
 10
1.4146E+002
 20
1.7205E+002
 11
1.4146E+002
 21
1.7251E+002
  0
LINE
  8
V1L0
  6
CONTINUOUS
 62
40
 10
1.4009E+002
 20
1.72E+002
 11
1.4009E+002
 21
1.7247E+002
  0
LINE
  8
V1L0
  6
CONTINUOUS
 62
40
 10
1.4041E+002
 20
1.731E+002
 11
1.4041E+002
 21
1.7357E+002
  0
LINE
  8
V1L0
  6
CONTINUOUS
 62
40
 10
1.4041E+002
 20
1.731E+002
 11
1.4146E+002
 21
1.7205E+002
  0
LINE
  8
V1L0
  6
CONTINUOUS
 62
40
 10
1.4084E+002
 20
1.7314E+002
 11
1.4225E+002
 21
1.7314E+002
  0
LINE
  8
V1L0
  6
CONTINUOUS
 62
40
 10
1.3801E+002
 20
1.7314E+002
 11
1.3827E+002
 21
1.7288E+002
  0
LINE
  8
V1L0
  6
CONTINUOUS
 62
40
 10
1.4225E+002
 20
1.7314E+002
 11
1.4251E+002
 21
1.7288E+002
  0
LINE
  8
V1L0
  6
CONTINUOUS
 62
40
 10
1.411E+002
 20
1.7288E+002
 11
1.4251E+002
 21
1.7288E+002
  0
LINE
  8
V1L0
  6
CONTINUOUS
 62
40
 10
1.411E+002
 20
1.7241E+002
 11
1.411E+002
 21
1.7288E+002
  0
LINE
  8
V1L0
  6
CONTINUOUS
 62
40
 10
1.4084E+002
 20
1.7267E+002
 11
1.4084E+002
 21
1.7314E+002
  0
LINE
  8
V1L0
  6
CONTINUOUS
 62
40
 10
1.3827E+002
 20
1.7288E+002
 11
1.3968E+002
 21
1.7288E+002
  0
LINE
  8
V1L0
  6
CONTINUOUS
 62
40
 10
1.3801E+002
 20
1.7314E+002
 11
1.3942E+002
 21
1.7314E+002
  0
LINE
  8
V1L0
  6
CONTINUOUS
 62
40
 10
1.4041E+002
 20
1.7357E+002
 11
1.4084E+002
 21
1.7314E+002
  0
LINE
  8
V1L0
  6
CONTINUOUS
 62
40
 10
1.3904E+002
 20
1.7353E+002
 11
1.3942E+002
 21
1.7314E+002
  0
LINE
  8
V1L0
  6
CONTINUOUS
 62
40
 10
1.4084E+002
 20
1.7267E+002
 11
1.411E+002
 21
1.7267E+002
  0
LINE
  8
V1L0
  6
CONTINUOUS
 62
40
 10
1.3942E+002
 20
1.7288E+002
 11
1.3942E+002
 21
1.7314E+002
  0
LINE
  8
V1L0
  6
CONTINUOUS
 62
40
 10
1.3875E+002
 20
1.6318E+002
 11
1.3875E+002
 21
1.6511E+002
  0
LINE
  8
V1L0
  6
CONTINUOUS
 62
40
 10
1.4175E+002
 20
1.6318E+002
 11
1.4175E+002
 21
1.6511E+002
  0
LINE
  8
V1L0
  6
CONTINUOUS
 62
40
 10
1.4118E+002
 20
1.6305E+002
 11
1.545E+002
 21
1.6305E+002
  0
LINE
  8
V1L0
  6
CONTINUOUS
 62
40
 10
1.4725E+002
 20
1.7674E+002
 11
1.4725E+002
 21
1.7867E+002
  0
LINE
  8
V1L0
  6
CONTINUOUS
 62
40
 10
1.5025E+002
 20
1.7674E+002
 11
1.5025E+002
 21
1.7867E+002
  0
LINE
  8
V1L0
  6
CONTINUOUS
 62
40
 10
1.05E+002
 20
1.768E+002
 11
1.105E+002
 21
1.768E+002
  0
LINE
  8
V1L0
  6
CONTINUOUS
 62
40
 10
1.05E+002
 20
1.743E+002
 11
1.05E+002
 21
1.768E+002
  0
LINE
  8
V1L0
  6
CONTINUOUS
 62
40
 10
1.05E+002
 20
1.743E+002
 11
1.105E+002
 21
1.743E+002
  0
LINE
  8
V1L0
  6
CONTINUOUS
 62
40
 10
1.47E+002
 20
1.6055E+002
 11
1.47E+002
 21
1.6305E+002
  0
LINE
  8
V1L0
  6
CONTINUOUS
 62
40
 10
1.42E+002
 20
1.6055E+002
 11
1.42E+002
 21
1.6305E+002
  0
LINE
  8
V1L0
  6
CONTINUOUS
 62
40
 10
3.3E+001
 20
4.55E+001
 11
3.55E+001
 21
4.55E+001
  0
LINE
  8
V1L0
  6
CONTINUOUS
 62
40
 10
3.3E+001
 20
5.05E+001
 11
3.55E+001
 21
5.05E+001
  0
CIRCLE
  8
V1L0
  6
CONTINUOUS
 62
40
 10
2.3800237E+002
 20
6.54984E+001
 40
1.5
  0
CIRCLE
  8
V1L0
  6
CONTINUOUS
 62
40
 10
2.3800237E+002
 20
3.04984E+001
 40
1.5
  0
LINE
  8
V1L0
  6
CONTINUOUS
 62
40
 10
6.15E+001
 20
1.0
 11
6.15E+001
 21
4.416E+001
  0
LINE
  8
V1L0
  6
CONTINUOUS
 62
40
 10
6.15E+001
 20
5.184E+001
 11
6.15E+001
 21
9.5E+001
  0
LINE
  8
V1L0
  6
CONTINUOUS
 62
40
 10
1.97E+002
 20
7.15E+001
 11
1.97E+002
 21
9.5E+001
  0
LINE
  8
V1L0
  6
CONTINUOUS
 62
40
 10
1.97E+002
 20
1.0
 11
1.97E+002
 21
2.45E+001
  0
LINE
  8
V1L0
  6
CONTINUOUS
 62
40
 10
1.97E+002
 20
4.525E+001
 11
1.97E+002
 21
5.075E+001
  0
LINE
  8
V1L0
  6
CONTINUOUS
 62
40
 10
1.34E+002
 20
1.0
 11
1.34E+002
 21
2.25E+001
  0
LINE
  8
V1L0
  6
CONTINUOUS
 62
40
 10
1.34E+002
 20
1.0
 11
1.345E+002
 21
1.0
  0
LINE
  8
V1L0
  6
CONTINUOUS
 62
40
 10
1.345E+002
 20
7.35E+001
 11
1.545E+002
 21
7.35E+001
  0
LINE
  8
V1L0
  6
CONTINUOUS
 62
40
 10
1.545E+002
 20
2.25E+001
 11
1.545E+002
 21
7.35E+001
  0
LINE
  8
V1L0
  6
CONTINUOUS
 62
40
 10
1.345E+002
 20
2.25E+001
 11
1.545E+002
 21
2.25E+001
  0
LINE
  8
V1L0
  6
CONTINUOUS
 62
40
 10
1.44E+002
 20
1.825E+001
 11
1.44E+002
 21
2.0E+001
  0
LINE
  8
V1L0
  6
CONTINUOUS
 62
40
 10
1.365E+002
 20
2.0E+001
 11
1.44E+002
 21
2.0E+001
  0
LINE
  8
V1L0
  6
CONTINUOUS
 62
40
 10
1.44E+002
 20
2.0E+001
 11
1.445E+002
 21
2.036E+001
  0
LINE
  8
V1L0
  6
CONTINUOUS
 62
40
 10
1.405E+002
 20
2.0E+001
 11
1.405E+002
 21
2.25E+001
  0
LINE
  8
V1L0
  6
CONTINUOUS
 62
40
 10
1.365E+002
 20
1.15E+001
 11
1.44E+002
 21
1.15E+001
  0
LINE
  8
V1L0
  6
CONTINUOUS
 62
40
 10
1.365E+002
 20
1.15E+001
 11
1.365E+002
 21
2.0E+001
  0
ARC
  8
V1L0
  6
CONTINUOUS
 62
40
 10
1.4025237E+002
 20
1.57484E+001
 40
3.5
 50
2.179E+001
 51
3.3821E+002
  0
LINE
  8
V1L0
  6
CONTINUOUS
 62
40
 10
1.4031E+002
 20
1.645E+001
 11
1.4258E+002
 21
1.836E+001
  0
LINE
  8
V1L0
  6
CONTINUOUS
 62
40
 10
1.4095E+002
 20
1.569E+001
 11
1.4323E+002
 21
1.759E+001
  0
LINE
  8
V1L0
  6
CONTINUOUS
 62
40
 10
1.4095E+002
 20
1.569E+001
 11
1.4224E+002
 21
1.416E+001
  0
LINE
  8
V1L0
  6
CONTINUOUS
 62
40
 10
1.4019E+002
 20
1.505E+001
 11
1.4147E+002
 21
1.351E+001
  0
LINE
  8
V1L0
  6
CONTINUOUS
 62
40
 10
1.3826E+002
 20
1.734E+001
 11
1.3903E+002
 21
1.799E+001
  0
LINE
  8
V1L0
  6
CONTINUOUS
 62
40
 10
1.4147E+002
 20
1.351E+001
 11
1.4224E+002
 21
1.416E+001
  0
LINE
  8
V1L0
  6
CONTINUOUS
 62
40
 10
1.3792E+002
 20
1.314E+001
 11
1.4019E+002
 21
1.505E+001
  0
LINE
  8
V1L0
  6
CONTINUOUS
 62
40
 10
1.3727E+002
 20
1.391E+001
 11
1.3955E+002
 21
1.581E+001
  0
LINE
  8
V1L0
  6
CONTINUOUS
 62
40
 10
1.3903E+002
 20
1.799E+001
 11
1.4031E+002
 21
1.645E+001
  0
LINE
  8
V1L0
  6
CONTINUOUS
 62
40
 10
1.3826E+002
 20
1.734E+001
 11
1.3955E+002
 21
1.581E+001
  0
LINE
  8
V1L0
  6
CONTINUOUS
 62
40
 10
1.45E+002
 20
1.15E+001
 11
1.45E+002
 21
2.0E+001
  0
LINE
  8
V1L0
  6
CONTINUOUS
 62
40
 10
1.45E+002
 20
2.0E+001
 11
1.525E+002
 21
2.0E+001
  0
LINE
  8
V1L0
  6
CONTINUOUS
 62
40
 10
1.415E+002
 20
2.25E+001
 11
1.45E+002
 21
2.0E+001
  0
LINE
  8
V1L0
  6
CONTINUOUS
 62
40
 10
1.485E+002
 20
2.0E+001
 11
1.485E+002
 21
2.25E+001
  0
LINE
  8
V1L0
  6
CONTINUOUS
 62
40
 10
1.45E+002
 20
1.15E+001
 11
1.525E+002
 21
1.15E+001
  0
LINE
  8
V1L0
  6
CONTINUOUS
 62
40
 10
1.525E+002
 20
1.15E+001
 11
1.525E+002
 21
2.0E+001
  0
LINE
  8
V1L0
  6
CONTINUOUS
 62
40
 10
1.435E+002
 20
1.325E+001
 11
1.435E+002
 21
1.825E+001
  0
LINE
  8
V1L0
  6
CONTINUOUS
 62
40
 10
1.435E+002
 20
1.825E+001
 11
1.45E+002
 21
1.825E+001
  0
LINE
  8
V1L0
  6
CONTINUOUS
 62
40
 10
1.435E+002
 20
1.325E+001
 11
1.45E+002
 21
1.325E+001
  0
CIRCLE
  8
V1L0
  6
CONTINUOUS
 62
40
 10
1.4875237E+002
 20
1.57484E+001
 40
3.5
  0
LINE
  8
V1L0
  6
CONTINUOUS
 62
40
 10
1.4642E+002
 20
1.836E+001
 11
1.4869E+002
 21
1.645E+001
  0
LINE
  8
V1L0
  6
CONTINUOUS
 62
40
 10
1.4577E+002
 20
1.759E+001
 11
1.4805E+002
 21
1.569E+001
  0
LINE
  8
V1L0
  6
CONTINUOUS
 62
40
 10
1.4676E+002
 20
1.416E+001
 11
1.4805E+002
 21
1.569E+001
  0
LINE
  8
V1L0
  6
CONTINUOUS
 62
40
 10
1.4753E+002
 20
1.351E+001
 11
1.4881E+002
 21
1.505E+001
  0
LINE
  8
V1L0
  6
CONTINUOUS
 62
40
 10
1.4997E+002
 20
1.799E+001
 11
1.5074E+002
 21
1.734E+001
  0
LINE
  8
V1L0
  6
CONTINUOUS
 62
40
 10
1.4676E+002
 20
1.416E+001
 11
1.4753E+002
 21
1.351E+001
  0
LINE
  8
V1L0
  6
CONTINUOUS
 62
40
 10
1.4881E+002
 20
1.505E+001
 11
1.5108E+002
 21
1.314E+001
  0
LINE
  8
V1L0
  6
CONTINUOUS
 62
40
 10
1.4945E+002
 20
1.581E+001
 11
1.5173E+002
 21
1.391E+001
  0
LINE
  8
V1L0
  6
CONTINUOUS
 62
40
 10
1.4869E+002
 20
1.645E+001
 11
1.4997E+002
 21
1.799E+001
  0
LINE
  8
V1L0
  6
CONTINUOUS
 62
40
 10
1.4945E+002
 20
1.581E+001
 11
1.5074E+002
 21
1.734E+001
  0
LINE
  8
V1L0
  6
CONTINUOUS
 62
40
 10
1.44E+002
 20
1.15E+001
 11
1.44E+002
 21
1.325E+001
  0
LINE
  8
V1L0
  6
CONTINUOUS
 62
40
 10
1.45E+002
 20
7.6E+001
 11
1.45E+002
 21
7.775E+001
  0
LINE
  8
V1L0
  6
CONTINUOUS
 62
40
 10
1.45E+002
 20
7.6E+001
 11
1.525E+002
 21
7.6E+001
  0
LINE
  8
V1L0
  6
CONTINUOUS
 62
40
 10
1.445E+002
 20
7.564E+001
 11
1.45E+002
 21
7.6E+001
  0
LINE
  8
V1L0
  6
CONTINUOUS
 62
40
 10
1.485E+002
 20
7.35E+001
 11
1.485E+002
 21
7.6E+001
  0
LINE
  8
V1L0
  6
CONTINUOUS
 62
40
 10
1.45E+002
 20
8.45E+001
 11
1.525E+002
 21
8.45E+001
  0
LINE
  8
V1L0
  6
CONTINUOUS
 62
40
 10
1.525E+002
 20
7.6E+001
 11
1.525E+002
 21
8.45E+001
  0
ARC
  8
V1L0
  6
CONTINUOUS
 62
40
 10
1.4875237E+002
 20
8.02484E+001
 40
3.5
 50
2.0179E+002
 51
5.1821E+002
  0
LINE
  8
V1L0
  6
CONTINUOUS
 62
40
 10
1.4642E+002
 20
7.764E+001
 11
1.4869E+002
 21
7.955E+001
  0
LINE
  8
V1L0
  6
CONTINUOUS
 62
40
 10
1.4577E+002
 20
7.841E+001
 11
1.4805E+002
 21
8.031E+001
  0
LINE
  8
V1L0
  6
CONTINUOUS
 62
40
 10
1.4676E+002
 20
8.184E+001
 11
1.4805E+002
 21
8.031E+001
  0
LINE
  8
V1L0
  6
CONTINUOUS
 62
40
 10
1.4753E+002
 20
8.249E+001
 11
1.4881E+002
 21
8.095E+001
  0
LINE
  8
V1L0
  6
CONTINUOUS
 62
40
 10
1.4997E+002
 20
7.801E+001
 11
1.5074E+002
 21
7.866E+001
  0
LINE
  8
V1L0
  6
CONTINUOUS
 62
40
 10
1.4676E+002
 20
8.184E+001
 11
1.4753E+002
 21
8.249E+001
  0
LINE
  8
V1L0
  6
CONTINUOUS
 62
40
 10
1.4881E+002
 20
8.095E+001
 11
1.5108E+002
 21
8.286E+001
  0
LINE
  8
V1L0
  6
CONTINUOUS
 62
40
 10
1.4945E+002
 20
8.019E+001
 11
1.5173E+002
 21
8.209E+001
  0
LINE
  8
V1L0
  6
CONTINUOUS
 62
40
 10
1.4869E+002
 20
7.955E+001
 11
1.4997E+002
 21
7.801E+001
  0
LINE
  8
V1L0
  6
CONTINUOUS
 62
40
 10
1.4945E+002
 20
8.019E+001
 11
1.5074E+002
 21
7.866E+001
  0
LINE
  8
V1L0
  6
CONTINUOUS
 62
40
 10
1.44E+002
 20
7.6E+001
 11
1.44E+002
 21
8.45E+001
  0
LINE
  8
V1L0
  6
CONTINUOUS
 62
40
 10
1.365E+002
 20
7.6E+001
 11
1.44E+002
 21
7.6E+001
  0
LINE
  8
V1L0
  6
CONTINUOUS
 62
40
 10
1.44E+002
 20
7.6E+001
 11
1.475E+002
 21
7.35E+001
  0
LINE
  8
V1L0
  6
CONTINUOUS
 62
40
 10
1.405E+002
 20
7.35E+001
 11
1.405E+002
 21
7.6E+001
  0
LINE
  8
V1L0
  6
CONTINUOUS
 62
40
 10
1.365E+002
 20
8.45E+001
 11
1.44E+002
 21
8.45E+001
  0
LINE
  8
V1L0
  6
CONTINUOUS
 62
40
 10
1.365E+002
 20
7.6E+001
 11
1.365E+002
 21
8.45E+001
  0
LINE
  8
V1L0
  6
CONTINUOUS
 62
40
 10
1.455E+002
 20
7.775E+001
 11
1.455E+002
 21
8.275E+001
  0
LINE
  8
V1L0
  6
CONTINUOUS
 62
40
 10
1.44E+002
 20
7.775E+001
 11
1.455E+002
 21
7.775E+001
  0
LINE
  8
V1L0
  6
CONTINUOUS
 62
40
 10
1.44E+002
 20
8.275E+001
 11
1.455E+002
 21
8.275E+001
  0
CIRCLE
  8
V1L0
  6
CONTINUOUS
 62
40
 10
1.4025237E+002
 20
8.02484E+001
 40
3.5
  0
LINE
  8
V1L0
  6
CONTINUOUS
 62
40
 10
1.4031E+002
 20
7.955E+001
 11
1.4258E+002
 21
7.764E+001
  0
LINE
  8
V1L0
  6
CONTINUOUS
 62
40
 10
1.4095E+002
 20
8.031E+001
 11
1.4323E+002
 21
7.841E+001
  0
LINE
  8
V1L0
  6
CONTINUOUS
 62
40
 10
1.4095E+002
 20
8.031E+001
 11
1.4224E+002
 21
8.184E+001
  0
LINE
  8
V1L0
  6
CONTINUOUS
 62
40
 10
1.4019E+002
 20
8.095E+001
 11
1.4147E+002
 21
8.249E+001
  0
LINE
  8
V1L0
  6
CONTINUOUS
 62
40
 10
1.3826E+002
 20
7.866E+001
 11
1.3903E+002
 21
7.801E+001
  0
LINE
  8
V1L0
  6
CONTINUOUS
 62
40
 10
1.4147E+002
 20
8.249E+001
 11
1.4224E+002
 21
8.184E+001
  0
LINE
  8
V1L0
  6
CONTINUOUS
 62
40
 10
1.3792E+002
 20
8.286E+001
 11
1.4019E+002
 21
8.095E+001
  0
LINE
  8
V1L0
  6
CONTINUOUS
 62
40
 10
1.3727E+002
 20
8.209E+001
 11
1.3955E+002
 21
8.019E+001
  0
LINE
  8
V1L0
  6
CONTINUOUS
 62
40
 10
1.3903E+002
 20
7.801E+001
 11
1.4031E+002
 21
7.955E+001
  0
LINE
  8
V1L0
  6
CONTINUOUS
 62
40
 10
1.3826E+002
 20
7.866E+001
 11
1.3955E+002
 21
8.019E+001
  0
LINE
  8
V1L0
  6
CONTINUOUS
 62
40
 10
1.45E+002
 20
8.275E+001
 11
1.45E+002
 21
8.45E+001
  0
LINE
  8
V1L0
  6
CONTINUOUS
 62
40
 10
1.14E+002
 20
1.0
 11
1.14E+002
 21
2.45E+001
  0
LINE
  8
V1L0
  6
CONTINUOUS
 62
40
 10
1.14E+002
 20
7.15E+001
 11
1.14E+002
 21
9.5E+001
  0
LINE
  8
V1L0
  6
CONTINUOUS
 62
40
 10
1.12E+002
 20
7.15E+001
 11
1.12E+002
 21
9.5E+001
  0
LINE
  8
V1L0
  6
CONTINUOUS
 62
40
 10
1.12E+002
 20
9.5E+001
 11
1.14E+002
 21
9.5E+001
  0
LINE
  8
V1L0
  6
CONTINUOUS
 62
40
 10
1.535E+002
 20
1.0505E+002
 11
1.535E+002
 21
1.3505E+002
  0
LINE
  8
V1L0
  6
LONG_DASH
 62
40
 10
1.285E+002
 20
1.0905E+002
 11
1.285E+002
 21
1.1705E+002
  0
LINE
  8
V1L0
  6
CONTINUOUS
 62
40
 10
1.34E+002
 20
1.3705E+002
 11
1.34E+002
 21
1.9355E+002
  0
LINE
  8
V1L0
  6
CONTINUOUS
 62
40
 10
1.34E+002
 20
1.9355E+002
 11
1.345E+002
 21
1.9355E+002
  0
LINE
  8
V1L0
  6
CONTINUOUS
 62
40
 10
1.12E+002
 20
1.3455E+002
 11
1.14E+002
 21
1.3455E+002
  0
LINE
  8
V1L0
  6
CONTINUOUS
 62
40
 10
1.14E+002
 20
1.3455E+002
 11
1.14E+002
 21
1.9355E+002
  0
LINE
  8
V1L0
  6
CONTINUOUS
 62
40
 10
1.34E+002
 20
1.3555E+002
 11
1.34E+002
 21
1.6055E+002
  0
LINE
  8
V1L0
  6
CONTINUOUS
 62
40
 10
1.14E+002
 20
1.6055E+002
 11
1.34E+002
 21
1.6055E+002
  0
LINE
  8
V1L0
  6
CONTINUOUS
 62
40
 10
1.14E+002
 20
1.3555E+002
 11
1.1882E+002
 21
1.3555E+002
  0
LINE
  8
V1L0
  6
CONTINUOUS
 62
40
 10
1.245E+002
 20
1.5261E+002
 11
1.245E+002
 21
1.5684E+002
  0
LINE
  8
V1L0
  6
CONTINUOUS
 62
40
 10
1.32E+002
 20
1.5117E+002
 11
1.32E+002
 21
1.5663E+002
  0
LINE
  8
V1L0
  6
CONTINUOUS
 62
40
 10
1.23E+002
 20
1.5117E+002
 11
1.23E+002
 21
1.5684E+002
  0
LINE
  8
V1L0
  6
CONTINUOUS
 62
40
 10
1.23E+002
 20
1.5117E+002
 11
1.32E+002
 21
1.5117E+002
  0
LINE
  8
V1L0
  6
CONTINUOUS
 62
40
 10
1.245E+002
 20
1.5261E+002
 11
1.32E+002
 21
1.5261E+002
  0
LINE
  8
V1L0
  6
CONTINUOUS
 62
40
 10
1.23E+002
 20
1.5553E+002
 11
1.245E+002
 21
1.5553E+002
  0
LINE
  8
V1L0
  6
CONTINUOUS
 62
40
 10
1.23E+002
 20
1.5684E+002
 11
1.245E+002
 21
1.5684E+002
  0
LINE
  8
V1L0
  6
CONTINUOUS
 62
40
 10
1.293E+002
 20
1.5362E+002
 11
1.3151E+002
 21
1.528E+002
  0
LINE
  8
V1L0
  6
CONTINUOUS
 62
40
 10
1.2499E+002
 20
1.528E+002
 11
1.272E+002
 21
1.5362E+002
  0
ARC
  8
V1L0
  6
CONTINUOUS
 62
40
 10
1.2825237E+002
 20
1.508084E+002
 40
3.0
 50
6.96E+001
 51
1.104E+002
  0
ARC
  8
V1L0
  6
CONTINUOUS
 62
40
 10
1.2825237E+002
 20
1.523084E+002
 40
3.0
 50
6.96E+001
 51
1.104E+002
  0
LINE
  8
V1L0
  6
CONTINUOUS
 62
40
 10
1.293E+002
 20
1.5512E+002
 11
1.32E+002
 21
1.5411E+002
  0
LINE
  8
V1L0
  6
CONTINUOUS
 62
40
 10
1.245E+002
 20
1.5411E+002
 11
1.272E+002
 21
1.5512E+002
  0
LINE
  8
V1L0
  6
CONTINUOUS
 62
40
 10
1.3166E+002
 20
1.5676E+002
 11
1.32E+002
 21
1.5663E+002
  0
LINE
  8
V1L0
  6
CONTINUOUS
 62
40
 10
1.245E+002
 20
1.5663E+002
 11
1.2484E+002
 21
1.5676E+002
  0
LINE
  8
V1L0
  6
CONTINUOUS
 62
40
 10
1.3151E+002
 20
1.528E+002
 11
1.32E+002
 21
1.5411E+002
  0
LINE
  8
V1L0
  6
CONTINUOUS
 62
40
 10
1.245E+002
 20
1.5411E+002
 11
1.2499E+002
 21
1.528E+002
  0
LINE
  8
V1L0
  6
CONTINUOUS
 62
40
 10
1.3141E+002
 20
1.5908E+002
 11
1.3166E+002
 21
1.5676E+002
  0
LINE
  8
V1L0
  6
CONTINUOUS
 62
40
 10
1.2484E+002
 20
1.5676E+002
 11
1.2509E+002
 21
1.5908E+002
  0
LINE
  8
V1L0
  6
CONTINUOUS
 62
40
 10
1.2841E+002
 20
1.5853E+002
 11
1.2882E+002
 21
1.5894E+002
  0
LINE
  8
V1L0
  6
CONTINUOUS
 62
40
 10
1.2704E+002
 20
1.5857E+002
 11
1.274E+002
 21
1.5894E+002
  0
LINE
  8
V1L0
  6
CONTINUOUS
 62
40
 10
1.2704E+002
 20
1.5811E+002
 11
1.2704E+002
 21
1.5857E+002
  0
LINE
  8
V1L0
  6
CONTINUOUS
 62
40
 10
1.2841E+002
 20
1.5806E+002
 11
1.2841E+002
 21
1.5853E+002
  0
LINE
  8
V1L0
  6
CONTINUOUS
 62
40
 10
1.2809E+002
 20
1.5916E+002
 11
1.2809E+002
 21
1.5963E+002
  0
LINE
  8
V1L0
  6
CONTINUOUS
 62
40
 10
1.2704E+002
 20
1.5811E+002
 11
1.2809E+002
 21
1.5916E+002
  0
LINE
  8
V1L0
  6
CONTINUOUS
 62
40
 10
1.2625E+002
 20
1.592E+002
 11
1.2766E+002
 21
1.592E+002
  0
LINE
  8
V1L0
  6
CONTINUOUS
 62
40
 10
1.3023E+002
 20
1.5894E+002
 11
1.3049E+002
 21
1.592E+002
  0
LINE
  8
V1L0
  6
CONTINUOUS
 62
40
 10
1.2599E+002
 20
1.5894E+002
 11
1.2625E+002
 21
1.592E+002
  0
LINE
  8
V1L0
  6
CONTINUOUS
 62
40
 10
1.2599E+002
 20
1.5894E+002
 11
1.274E+002
 21
1.5894E+002
  0
LINE
  8
V1L0
  6
CONTINUOUS
 62
40
 10
1.274E+002
 20
1.5847E+002
 11
1.274E+002
 21
1.5894E+002
  0
LINE
  8
V1L0
  6
CONTINUOUS
 62
40
 10
1.2766E+002
 20
1.5873E+002
 11
1.2766E+002
 21
1.592E+002
  0
LINE
  8
V1L0
  6
CONTINUOUS
 62
40
 10
1.2882E+002
 20
1.5894E+002
 11
1.3023E+002
 21
1.5894E+002
  0
LINE
  8
V1L0
  6
CONTINUOUS
 62
40
 10
1.2908E+002
 20
1.592E+002
 11
1.3049E+002
 21
1.592E+002
  0
LINE
  8
V1L0
  6
CONTINUOUS
 62
40
 10
1.2766E+002
 20
1.592E+002
 11
1.2809E+002
 21
1.5963E+002
  0
LINE
  8
V1L0
  6
CONTINUOUS
 62
40
 10
1.2908E+002
 20
1.592E+002
 11
1.2946E+002
 21
1.5959E+002
  0
LINE
  8
V1L0
  6
CONTINUOUS
 62
40
 10
1.274E+002
 20
1.5873E+002
 11
1.2766E+002
 21
1.5873E+002
  0
LINE
  8
V1L0
  6
CONTINUOUS
 62
40
 10
1.2908E+002
 20
1.5894E+002
 11
1.2908E+002
 21
1.592E+002
  0
LINE
  8
V1L0
  6
CONTINUOUS
 62
40
 10
1.1625E+002
 20
1.3761E+002
 11
1.2325E+002
 21
1.3761E+002
  0
LINE
  8
V1L0
  6
CONTINUOUS
 62
40
 10
1.235E+002
 20
1.3905E+002
 11
1.235E+002
 21
1.4328E+002
  0
LINE
  8
V1L0
  6
CONTINUOUS
 62
40
 10
1.16E+002
 20
1.3761E+002
 11
1.16E+002
 21
1.4307E+002
  0
LINE
  8
V1L0
  6
CONTINUOUS
 62
40
 10
1.25E+002
 20
1.3761E+002
 11
1.25E+002
 21
1.4328E+002
  0
LINE
  8
V1L0
  6
CONTINUOUS
 62
40
 10
1.16E+002
 20
1.3761E+002
 11
1.25E+002
 21
1.3761E+002
  0
LINE
  8
V1L0
  6
CONTINUOUS
 62
40
 10
1.16E+002
 20
1.3905E+002
 11
1.235E+002
 21
1.3905E+002
  0
LINE
  8
V1L0
  6
CONTINUOUS
 62
40
 10
1.235E+002
 20
1.4197E+002
 11
1.25E+002
 21
1.4197E+002
  0
LINE
  8
V1L0
  6
CONTINUOUS
 62
40
 10
1.235E+002
 20
1.4328E+002
 11
1.25E+002
 21
1.4328E+002
  0
LINE
  8
V1L0
  6
CONTINUOUS
 62
40
 10
1.1649E+002
 20
1.3924E+002
 11
1.187E+002
 21
1.4006E+002
  0
LINE
  8
V1L0
  6
CONTINUOUS
 62
40
 10
1.208E+002
 20
1.4006E+002
 11
1.2301E+002
 21
1.3924E+002
  0
ARC
  8
V1L0
  6
CONTINUOUS
 62
40
 10
1.1975237E+002
 20
1.372484E+002
 40
3.0
 50
6.96E+001
 51
1.104E+002
  0
ARC
  8
V1L0
  6
CONTINUOUS
 62
40
 10
1.1975237E+002
 20
1.387484E+002
 40
3.0
 50
6.96E+001
 51
1.104E+002
  0
LINE
  8
V1L0
  6
CONTINUOUS
 62
40
 10
1.16E+002
 20
1.4055E+002
 11
1.187E+002
 21
1.4156E+002
  0
LINE
  8
V1L0
  6
CONTINUOUS
 62
40
 10
1.208E+002
 20
1.4156E+002
 11
1.235E+002
 21
1.4055E+002
  0
LINE
  8
V1L0
  6
CONTINUOUS
 62
40
 10
1.16E+002
 20
1.4307E+002
 11
1.1634E+002
 21
1.432E+002
  0
LINE
  8
V1L0
  6
CONTINUOUS
 62
40
 10
1.2316E+002
 20
1.432E+002
 11
1.235E+002
 21
1.4307E+002
  0
LINE
  8
V1L0
  6
CONTINUOUS
 62
40
 10
1.16E+002
 20
1.4055E+002
 11
1.1649E+002
 21
1.3924E+002
  0
LINE
  8
V1L0
  6
CONTINUOUS
 62
40
 10
1.2301E+002
 20
1.3924E+002
 11
1.235E+002
 21
1.4055E+002
  0
LINE
  8
V1L0
  6
CONTINUOUS
 62
40
 10
1.1634E+002
 20
1.432E+002
 11
1.1659E+002
 21
1.4552E+002
  0
LINE
  8
V1L0
  6
CONTINUOUS
 62
40
 10
1.2291E+002
 20
1.4552E+002
 11
1.2316E+002
 21
1.432E+002
  0
LINE
  8
V1L0
  6
CONTINUOUS
 62
40
 10
1.1918E+002
 20
1.4538E+002
 11
1.1959E+002
 21
1.4497E+002
  0
LINE
  8
V1L0
  6
CONTINUOUS
 62
40
 10
1.206E+002
 20
1.4538E+002
 11
1.2096E+002
 21
1.4501E+002
  0
LINE
  8
V1L0
  6
CONTINUOUS
 62
40
 10
1.2096E+002
 20
1.4455E+002
 11
1.2096E+002
 21
1.4501E+002
  0
LINE
  8
V1L0
  6
CONTINUOUS
 62
40
 10
1.1959E+002
 20
1.445E+002
 11
1.1959E+002
 21
1.4497E+002
  0
LINE
  8
V1L0
  6
CONTINUOUS
 62
40
 10
1.1991E+002
 20
1.456E+002
 11
1.1991E+002
 21
1.4607E+002
  0
LINE
  8
V1L0
  6
CONTINUOUS
 62
40
 10
1.1991E+002
 20
1.456E+002
 11
1.2096E+002
 21
1.4455E+002
  0
LINE
  8
V1L0
  6
CONTINUOUS
 62
40
 10
1.2034E+002
 20
1.4564E+002
 11
1.2175E+002
 21
1.4564E+002
  0
LINE
  8
V1L0
  6
CONTINUOUS
 62
40
 10
1.1751E+002
 20
1.4564E+002
 11
1.1777E+002
 21
1.4538E+002
  0
LINE
  8
V1L0
  6
CONTINUOUS
 62
40
 10
1.2175E+002
 20
1.4564E+002
 11
1.2201E+002
 21
1.4538E+002
  0
LINE
  8
V1L0
  6
CONTINUOUS
 62
40
 10
1.206E+002
 20
1.4538E+002
 11
1.2201E+002
 21
1.4538E+002
  0
LINE
  8
V1L0
  6
CONTINUOUS
 62
40
 10
1.206E+002
 20
1.4491E+002
 11
1.206E+002
 21
1.4538E+002
  0
LINE
  8
V1L0
  6
CONTINUOUS
 62
40
 10
1.2034E+002
 20
1.4517E+002
 11
1.2034E+002
 21
1.4564E+002
  0
LINE
  8
V1L0
  6
CONTINUOUS
 62
40
 10
1.1777E+002
 20
1.4538E+002
 11
1.1918E+002
 21
1.4538E+002
  0
LINE
  8
V1L0
  6
CONTINUOUS
 62
40
 10
1.1751E+002
 20
1.4564E+002
 11
1.1892E+002
 21
1.4564E+002
  0
LINE
  8
V1L0
  6
CONTINUOUS
 62
40
 10
1.1991E+002
 20
1.4607E+002
 11
1.2034E+002
 21
1.4564E+002
  0
LINE
  8
V1L0
  6
CONTINUOUS
 62
40
 10
1.1854E+002
 20
1.4603E+002
 11
1.1892E+002
 21
1.4564E+002
  0
LINE
  8
V1L0
  6
CONTINUOUS
 62
40
 10
1.2034E+002
 20
1.4517E+002
 11
1.206E+002
 21
1.4517E+002
  0
LINE
  8
V1L0
  6
CONTINUOUS
 62
40
 10
1.1892E+002
 20
1.4538E+002
 11
1.1892E+002
 21
1.4564E+002
  0
LINE
  8
V1L0
  6
CONTINUOUS
 62
40
 10
1.1825E+002
 20
1.3568E+002
 11
1.1825E+002
 21
1.3761E+002
  0
LINE
  8
V1L0
  6
CONTINUOUS
 62
40
 10
1.2125E+002
 20
1.3568E+002
 11
1.2125E+002
 21
1.3761E+002
  0
LINE
  8
V1L0
  6
CONTINUOUS
 62
40
 10
1.2068E+002
 20
1.3555E+002
 11
1.34E+002
 21
1.3555E+002
  0
LINE
  8
V1L0
  6
CONTINUOUS
 62
40
 10
1.2675E+002
 20
1.4924E+002
 11
1.2675E+002
 21
1.5117E+002
  0
LINE
  8
V1L0
  6
CONTINUOUS
 62
40
 10
1.2975E+002
 20
1.4924E+002
 11
1.2975E+002
 21
1.5117E+002
  0
LINE
  8
V1L0
  6
CONTINUOUS
 62
40
 10
1.34E+002
 20
1.6305E+002
 11
1.34E+002
 21
1.8805E+002
  0
LINE
  8
V1L0
  6
CONTINUOUS
 62
40
 10
1.14E+002
 20
1.8805E+002
 11
1.34E+002
 21
1.8805E+002
  0
LINE
  8
V1L0
  6
CONTINUOUS
 62
40
 10
1.14E+002
 20
1.6305E+002
 11
1.1882E+002
 21
1.6305E+002
  0
LINE
  8
V1L0
  6
CONTINUOUS
 62
40
 10
1.245E+002
 20
1.8011E+002
 11
1.245E+002
 21
1.8434E+002
  0
LINE
  8
V1L0
  6
CONTINUOUS
 62
40
 10
1.32E+002
 20
1.7867E+002
 11
1.32E+002
 21
1.8413E+002
  0
LINE
  8
V1L0
  6
CONTINUOUS
 62
40
 10
1.23E+002
 20
1.7867E+002
 11
1.23E+002
 21
1.8434E+002
  0
LINE
  8
V1L0
  6
CONTINUOUS
 62
40
 10
1.23E+002
 20
1.7867E+002
 11
1.32E+002
 21
1.7867E+002
  0
LINE
  8
V1L0
  6
CONTINUOUS
 62
40
 10
1.245E+002
 20
1.8011E+002
 11
1.32E+002
 21
1.8011E+002
  0
LINE
  8
V1L0
  6
CONTINUOUS
 62
40
 10
1.23E+002
 20
1.8303E+002
 11
1.245E+002
 21
1.8303E+002
  0
LINE
  8
V1L0
  6
CONTINUOUS
 62
40
 10
1.23E+002
 20
1.8434E+002
 11
1.245E+002
 21
1.8434E+002
  0
LINE
  8
V1L0
  6
CONTINUOUS
 62
40
 10
1.293E+002
 20
1.8112E+002
 11
1.3151E+002
 21
1.803E+002
  0
LINE
  8
V1L0
  6
CONTINUOUS
 62
40
 10
1.2499E+002
 20
1.803E+002
 11
1.272E+002
 21
1.8112E+002
  0
ARC
  8
V1L0
  6
CONTINUOUS
 62
40
 10
1.2825237E+002
 20
1.783084E+002
 40
3.0
 50
6.96E+001
 51
1.104E+002
  0
ARC
  8
V1L0
  6
CONTINUOUS
 62
40
 10
1.2825237E+002
 20
1.798084E+002
 40
3.0
 50
6.96E+001
 51
1.104E+002
  0
LINE
  8
V1L0
  6
CONTINUOUS
 62
40
 10
1.293E+002
 20
1.8262E+002
 11
1.32E+002
 21
1.8161E+002
  0
LINE
  8
V1L0
  6
CONTINUOUS
 62
40
 10
1.245E+002
 20
1.8161E+002
 11
1.272E+002
 21
1.8262E+002
  0
LINE
  8
V1L0
  6
CONTINUOUS
 62
40
 10
1.3166E+002
 20
1.8426E+002
 11
1.32E+002
 21
1.8413E+002
  0
LINE
  8
V1L0
  6
CONTINUOUS
 62
40
 10
1.245E+002
 20
1.8413E+002
 11
1.2484E+002
 21
1.8426E+002
  0
LINE
  8
V1L0
  6
CONTINUOUS
 62
40
 10
1.3151E+002
 20
1.803E+002
 11
1.32E+002
 21
1.8161E+002
  0
LINE
  8
V1L0
  6
CONTINUOUS
 62
40
 10
1.245E+002
 20
1.8161E+002
 11
1.2499E+002
 21
1.803E+002
  0
LINE
  8
V1L0
  6
CONTINUOUS
 62
40
 10
1.3141E+002
 20
1.8658E+002
 11
1.3166E+002
 21
1.8426E+002
  0
LINE
  8
V1L0
  6
CONTINUOUS
 62
40
 10
1.2484E+002
 20
1.8426E+002
 11
1.2509E+002
 21
1.8658E+002
  0
LINE
  8
V1L0
  6
CONTINUOUS
 62
40
 10
1.2841E+002
 20
1.8603E+002
 11
1.2882E+002
 21
1.8644E+002
  0
LINE
  8
V1L0
  6
CONTINUOUS
 62
40
 10
1.2704E+002
 20
1.8607E+002
 11
1.274E+002
 21
1.8644E+002
  0
LINE
  8
V1L0
  6
CONTINUOUS
 62
40
 10
1.2704E+002
 20
1.8561E+002
 11
1.2704E+002
 21
1.8607E+002
  0
LINE
  8
V1L0
  6
CONTINUOUS
 62
40
 10
1.2841E+002
 20
1.8556E+002
 11
1.2841E+002
 21
1.8603E+002
  0
LINE
  8
V1L0
  6
CONTINUOUS
 62
40
 10
1.2809E+002
 20
1.8666E+002
 11
1.2809E+002
 21
1.8713E+002
  0
LINE
  8
V1L0
  6
CONTINUOUS
 62
40
 10
1.2704E+002
 20
1.8561E+002
 11
1.2809E+002
 21
1.8666E+002
  0
LINE
  8
V1L0
  6
CONTINUOUS
 62
40
 10
1.2625E+002
 20
1.867E+002
 11
1.2766E+002
 21
1.867E+002
  0
LINE
  8
V1L0
  6
CONTINUOUS
 62
40
 10
1.3023E+002
 20
1.8644E+002
 11
1.3049E+002
 21
1.867E+002
  0
LINE
  8
V1L0
  6
CONTINUOUS
 62
40
 10
1.2599E+002
 20
1.8644E+002
 11
1.2625E+002
 21
1.867E+002
  0
LINE
  8
V1L0
  6
CONTINUOUS
 62
40
 10
1.2599E+002
 20
1.8644E+002
 11
1.274E+002
 21
1.8644E+002
  0
LINE
  8
V1L0
  6
CONTINUOUS
 62
40
 10
1.274E+002
 20
1.8597E+002
 11
1.274E+002
 21
1.8644E+002
  0
LINE
  8
V1L0
  6
CONTINUOUS
 62
40
 10
1.2766E+002
 20
1.8623E+002
 11
1.2766E+002
 21
1.867E+002
  0
LINE
  8
V1L0
  6
CONTINUOUS
 62
40
 10
1.2882E+002
 20
1.8644E+002
 11
1.3023E+002
 21
1.8644E+002
  0
LINE
  8
V1L0
  6
CONTINUOUS
 62
40
 10
1.2908E+002
 20
1.867E+002
 11
1.3049E+002
 21
1.867E+002
  0
LINE
  8
V1L0
  6
CONTINUOUS
 62
40
 10
1.2766E+002
 20
1.867E+002
 11
1.2809E+002
 21
1.8713E+002
  0
LINE
  8
V1L0
  6
CONTINUOUS
 62
40
 10
1.2908E+002
 20
1.867E+002
 11
1.2946E+002
 21
1.8709E+002
  0
LINE
  8
V1L0
  6
CONTINUOUS
 62
40
 10
1.274E+002
 20
1.8623E+002
 11
1.2766E+002
 21
1.8623E+002
  0
LINE
  8
V1L0
  6
CONTINUOUS
 62
40
 10
1.2908E+002
 20
1.8644E+002
 11
1.2908E+002
 21
1.867E+002
  0
LINE
  8
V1L0
  6
CONTINUOUS
 62
40
 10
1.1625E+002
 20
1.6511E+002
 11
1.2325E+002
 21
1.6511E+002
  0
LINE
  8
V1L0
  6
CONTINUOUS
 62
40
 10
1.235E+002
 20
1.6655E+002
 11
1.235E+002
 21
1.7078E+002
  0
LINE
  8
V1L0
  6
CONTINUOUS
 62
40
 10
1.16E+002
 20
1.6511E+002
 11
1.16E+002
 21
1.7057E+002
  0
LINE
  8
V1L0
  6
CONTINUOUS
 62
40
 10
1.25E+002
 20
1.6511E+002
 11
1.25E+002
 21
1.7078E+002
  0
LINE
  8
V1L0
  6
CONTINUOUS
 62
40
 10
1.16E+002
 20
1.6511E+002
 11
1.25E+002
 21
1.6511E+002
  0
LINE
  8
V1L0
  6
CONTINUOUS
 62
40
 10
1.16E+002
 20
1.6655E+002
 11
1.235E+002
 21
1.6655E+002
  0
LINE
  8
V1L0
  6
CONTINUOUS
 62
40
 10
1.235E+002
 20
1.6947E+002
 11
1.25E+002
 21
1.6947E+002
  0
LINE
  8
V1L0
  6
CONTINUOUS
 62
40
 10
1.235E+002
 20
1.7078E+002
 11
1.25E+002
 21
1.7078E+002
  0
LINE
  8
V1L0
  6
CONTINUOUS
 62
40
 10
1.1649E+002
 20
1.6674E+002
 11
1.187E+002
 21
1.6756E+002
  0
LINE
  8
V1L0
  6
CONTINUOUS
 62
40
 10
1.208E+002
 20
1.6756E+002
 11
1.2301E+002
 21
1.6674E+002
  0
ARC
  8
V1L0
  6
CONTINUOUS
 62
40
 10
1.1975237E+002
 20
1.647484E+002
 40
3.0
 50
6.96E+001
 51
1.104E+002
  0
ARC
  8
V1L0
  6
CONTINUOUS
 62
40
 10
1.1975237E+002
 20
1.662484E+002
 40
3.0
 50
6.96E+001
 51
1.104E+002
  0
LINE
  8
V1L0
  6
CONTINUOUS
 62
40
 10
1.16E+002
 20
1.6805E+002
 11
1.187E+002
 21
1.6906E+002
  0
LINE
  8
V1L0
  6
CONTINUOUS
 62
40
 10
1.208E+002
 20
1.6906E+002
 11
1.235E+002
 21
1.6805E+002
  0
LINE
  8
V1L0
  6
CONTINUOUS
 62
40
 10
1.16E+002
 20
1.7057E+002
 11
1.1634E+002
 21
1.707E+002
  0
LINE
  8
V1L0
  6
CONTINUOUS
 62
40
 10
1.2316E+002
 20
1.707E+002
 11
1.235E+002
 21
1.7057E+002
  0
LINE
  8
V1L0
  6
CONTINUOUS
 62
40
 10
1.16E+002
 20
1.6805E+002
 11
1.1649E+002
 21
1.6674E+002
  0
LINE
  8
V1L0
  6
CONTINUOUS
 62
40
 10
1.2301E+002
 20
1.6674E+002
 11
1.235E+002
 21
1.6805E+002
  0
LINE
  8
V1L0
  6
CONTINUOUS
 62
40
 10
1.1634E+002
 20
1.707E+002
 11
1.1659E+002
 21
1.7302E+002
  0
LINE
  8
V1L0
  6
CONTINUOUS
 62
40
 10
1.2291E+002
 20
1.7302E+002
 11
1.2316E+002
 21
1.707E+002
  0
LINE
  8
V1L0
  6
CONTINUOUS
 62
40
 10
1.1918E+002
 20
1.7288E+002
 11
1.1959E+002
 21
1.7247E+002
  0
LINE
  8
V1L0
  6
CONTINUOUS
 62
40
 10
1.206E+002
 20
1.7288E+002
 11
1.2096E+002
 21
1.7251E+002
  0
LINE
  8
V1L0
  6
CONTINUOUS
 62
40
 10
1.2096E+002
 20
1.7205E+002
 11
1.2096E+002
 21
1.7251E+002
  0
LINE
  8
V1L0
  6
CONTINUOUS
 62
40
 10
1.1959E+002
 20
1.72E+002
 11
1.1959E+002
 21
1.7247E+002
  0
LINE
  8
V1L0
  6
CONTINUOUS
 62
40
 10
1.1991E+002
 20
1.731E+002
 11
1.1991E+002
 21
1.7357E+002
  0
LINE
  8
V1L0
  6
CONTINUOUS
 62
40
 10
1.1991E+002
 20
1.731E+002
 11
1.2096E+002
 21
1.7205E+002
  0
LINE
  8
V1L0
  6
CONTINUOUS
 62
40
 10
1.2034E+002
 20
1.7314E+002
 11
1.2175E+002
 21
1.7314E+002
  0
LINE
  8
V1L0
  6
CONTINUOUS
 62
40
 10
1.1751E+002
 20
1.7314E+002
 11
1.1777E+002
 21
1.7288E+002
  0
LINE
  8
V1L0
  6
CONTINUOUS
 62
40
 10
1.2175E+002
 20
1.7314E+002
 11
1.2201E+002
 21
1.7288E+002
  0
LINE
  8
V1L0
  6
CONTINUOUS
 62
40
 10
1.206E+002
 20
1.7288E+002
 11
1.2201E+002
 21
1.7288E+002
  0
LINE
  8
V1L0
  6
CONTINUOUS
 62
40
 10
1.206E+002
 20
1.7241E+002
 11
1.206E+002
 21
1.7288E+002
  0
LINE
  8
V1L0
  6
CONTINUOUS
 62
40
 10
1.2034E+002
 20
1.7267E+002
 11
1.2034E+002
 21
1.7314E+002
  0
LINE
  8
V1L0
  6
CONTINUOUS
 62
40
 10
1.1777E+002
 20
1.7288E+002
 11
1.1918E+002
 21
1.7288E+002
  0
LINE
  8
V1L0
  6
CONTINUOUS
 62
40
 10
1.1751E+002
 20
1.7314E+002
 11
1.1892E+002
 21
1.7314E+002
  0
LINE
  8
V1L0
  6
CONTINUOUS
 62
40
 10
1.1991E+002
 20
1.7357E+002
 11
1.2034E+002
 21
1.7314E+002
  0
LINE
  8
V1L0
  6
CONTINUOUS
 62
40
 10
1.1854E+002
 20
1.7353E+002
 11
1.1892E+002
 21
1.7314E+002
  0
LINE
  8
V1L0
  6
CONTINUOUS
 62
40
 10
1.2034E+002
 20
1.7267E+002
 11
1.206E+002
 21
1.7267E+002
  0
LINE
  8
V1L0
  6
CONTINUOUS
 62
40
 10
1.1892E+002
 20
1.7288E+002
 11
1.1892E+002
 21
1.7314E+002
  0
LINE
  8
V1L0
  6
CONTINUOUS
 62
40
 10
1.1825E+002
 20
1.6318E+002
 11
1.1825E+002
 21
1.6511E+002
  0
LINE
  8
V1L0
  6
CONTINUOUS
 62
40
 10
1.2125E+002
 20
1.6318E+002
 11
1.2125E+002
 21
1.6511E+002
  0
LINE
  8
V1L0
  6
CONTINUOUS
 62
40
 10
1.2068E+002
 20
1.6305E+002
 11
1.34E+002
 21
1.6305E+002
  0
LINE
  8
V1L0
  6
CONTINUOUS
 62
40
 10
1.2675E+002
 20
1.7674E+002
 11
1.2675E+002
 21
1.7867E+002
  0
LINE
  8
V1L0
  6
CONTINUOUS
 62
40
 10
1.2975E+002
 20
1.7674E+002
 11
1.2975E+002
 21
1.7867E+002
  0
LINE
  8
V1L0
  6
CONTINUOUS
 62
40
 10
1.265E+002
 20
1.6055E+002
 11
1.265E+002
 21
1.6305E+002
  0
LINE
  8
V1L0
  6
CONTINUOUS
 62
40
 10
1.215E+002
 20
1.6055E+002
 11
1.215E+002
 21
1.6305E+002
  0
ENDSEC
  0
EOF
