  0
SECTION
  2
HEADER
  9
$ACADVER
  1
AC1009
  9
$DWGCODEPAGE
  3
iso8859-1
  9
$INSBASE
 10
0.0
 20
0.0
 30
0.0
  9
$EXTMIN
 10
1.0E20
 20
1.0E20
  9
$EXTMAX
 10
-1.0E20
 20
-1.0E20
  9
$LIMMIN
 10
0.0
 20
0.0
  9
$LIMMAX
 10
12.0
 20
9.0
  9
$ORTHOMODE
 70
     0
  9
$REGENMODE
 70
     1
  9
$FILLMODE
 70
     1
  9
$QTEXTMODE
 70
     0
  9
$MIRRTEXT
 70
     1
  9
$DRAGMODE
 70
     2
  9
$LTSCALE
 40
15.0
  9
$OSMODE
 70
     0
  9
$ATTMODE
 70
     1
  9
$TEXTSIZE
 40
0.2
  9
$TRACEWID
 40
0.05
  9
$TEXTSTYLE
  7
STANDARD
  9
$CLAYER
  8
0
  9
$CELTYPE
  6
DASHED
  9
$CECOLOR
 62
   256
  9
$DIMSCALE
 40
1.0
  9
$DIMASZ
 40
0.18
  9
$DIMEXO
 40
0.0625
  9
$DIMDLI
 40
0.38
  9
$DIMRND
 40
0.0
  9
$DIMDLE
 40
0.0
  9
$DIMEXE
 40
0.18
  9
$DIMTP
 40
0.0
  9
$DIMTM
 40
0.0
  9
$DIMTXT
 40
0.18
  9
$DIMCEN
 40
0.09
  9
$DIMTSZ
 40
0.0
  9
$DIMTOL
 70
     0
  9
$DIMLIM
 70
     0
  9
$DIMTIH
 70
     1
  9
$DIMTOH
 70
     1
  9
$DIMSE1
 70
     0
  9
$DIMSE2
 70
     0
  9
$DIMTAD
 70
     0
  9
$DIMZIN
 70
     0
  9
$DIMBLK
  1

  9
$DIMASO
 70
     1
  9
$DIMSHO
 70
     1
  9
$DIMPOST
  1

  9
$DIMAPOST
  1

  9
$DIMALT
 70
     0
  9
$DIMALTD
 70
     2
  9
$DIMALTF
 40
25.4
  9
$DIMLFAC
 40
1.0
  9
$DIMTOFL
 70
     0
  9
$DIMTVP
 40
0.0
  9
$DIMTIX
 70
     0
  9
$DIMSOXD
 70
     0
  9
$DIMSAH
 70
     0
  9
$DIMBLK1
  1

  9
$DIMBLK2
  1

  9
$DIMSTYLE
  2
STANDARD
  9
$DIMCLRD
 70
     0
  9
$DIMCLRE
 70
     0
  9
$DIMCLRT
 70
     0
  9
$DIMTFAC
 40
1.0
  9
$DIMGAP
 40
0.09
  9
$LUNITS
 70
     2
  9
$LUPREC
 70
     4
  9
$AXISMODE
 70
     0
  9
$AXISUNIT
 10
0.0
 20
0.0
  9
$SKETCHINC
 40
0.1
  9
$FILLETRAD
 40
0.0
  9
$AUNITS
 70
     0
  9
$AUPREC
 70
     0
  9
$MENU
  1
acad
  9
$ELEVATION
 40
0.0
  9
$PELEVATION
 40
0.0
  9
$THICKNESS
 40
0.0
  9
$LIMCHECK
 70
     0
  9
$BLIPMODE
 70
     1
  9
$CHAMFERA
 40
0.0
  9
$CHAMFERB
 40
0.0
  9
$SKPOLY
 70
     0
  9
$TDCREATE
 40
0.000000000
  9
$TDUPDATE
 40
0.000000000
  9
$TDINDWG
 40
0.0
  9
$TDUSRTIMER
 40
0.0
  9
$USRTIMER
 70
     1
  9
$ANGBASE
 50
0.0
  9
$ANGDIR
 70
     0
  9
$PDMODE
 70
     0
  9
$PDSIZE
 40
0.0
  9
$PLINEWID
 40
0.0
  9
$COORDS
 70
     1
  9
$SPLFRAME
 70
     0
  9
$SPLINETYPE
 70
     6
  9
$SPLINESEGS
 70
     8
  9
$ATTDIA
 70
     0
  9
$ATTREQ
 70
     1
  9
$HANDLING
 70
     1
  9
$HANDSEED
  5
   449
  9
$SURFTAB1
 70
     6
  9
$SURFTAB2
 70
     6
  9
$SURFTYPE
 70
     6
  9
$SURFU
 70
     6
  9
$SURFV
 70
     6
  9
$UCSNAME
  2

  9
$UCSORG
 10
0.0
 20
0.0
 30
0.0
  9
$UCSXDIR
 10
1.0
 20
0.0
 30
0.0
  9
$UCSYDIR
 10
0.0
 20
1.0
 30
0.0
  9
$PUCSNAME
  2

  9
$PUCSORG
 10
0.0
 20
0.0
 30
0.0
  9
$PUCSXDIR
 10
1.0
 20
0.0
 30
0.0
  9
$PUCSYDIR
 10
0.0
 20
1.0
 30
0.0
  9
$USERI1
 70
     0
  9
$USERI2
 70
     0
  9
$USERI3
 70
     0
  9
$USERI4
 70
     0
  9
$USERI5
 70
     0
  9
$USERR1
 40
0.0
  9
$USERR2
 40
0.0
  9
$USERR3
 40
0.0
  9
$USERR4
 40
0.0
  9
$USERR5
 40
0.0
  9
$WORLDVIEW
 70
     1
  9
$SHADEDGE
 70
     3
  9
$SHADEDIF
 70
    70
  9
$TILEMODE
 70
     1
  9
$MAXACTVP
 70
    16
  9
$PINSBASE
 10
0.0
 20
0.0
 30
0.0
  9
$PLIMCHECK
 70
     0
  9
$PEXTMIN
 10
1.0E20
 20
1.0E20
 30
1.0E20
  9
$PEXTMAX
 10
-1.0E20
 20
-1.0E20
 30
-1.0E20
  9
$PLIMMIN
 10
0.0
 20
0.0
  9
$PLIMMAX
 10
12.0
 20
9.0
  9
$UNITMODE
 70
     0
  9
$VISRETAIN
 70
     0
  0
ENDSEC
  0
SECTION
  2
TABLES
  0
TABLE
  2
VPORT
 70
     1
  0
VPORT
  2
*ACTIVE
 70
     0
 10
0.0
 20
0.0
 11
1.0
 21
1.0
 12
6.801242
 22
4.5
 13
0.0
 23
0.0
 14
1.0
 24
1.0
 15
0.0
 25
0.0
 16
0.0
 26
0.0
 36
1.0
 17
0.0
 27
0.0
 37
0.0
 40
9.0
 41
1.511387
 42
50.0
 43
0.0
 44
0.0
 50
0.0
 51
0.0
 71
     0
 72
   100
 73
     1
 74
     1
 75
     0
 76
     0
 77
     0
 78
     0
  0
ENDTAB
  0
TABLE
  2
LTYPE
 70
    41
  0
LTYPE
  2
BYBLOCK
 70
     0
  3

 72
    65
 73
     0
 40
0.0
  0
LTYPE
  2
BYLAYER
 70
     0
  3

 72
    65
 73
     0
 40
0.0
  0
LTYPE
  2
CONTINUOUS
 70
     0
  3
Solid line
 72
    65
 73
     0
 40
0.0
  0
LTYPE
  2
BORDER
 70
    64
  3
__ __ . __ __ . __ __ . __ __ . __ __ . __ __ .
 72
    65
 73
     6
 40
1.75
 49
0.5
 49
-0.25
 49
0.5
 49
-0.25
 49
0.0
 49
-0.25
  0
LTYPE
  2
BORDER2
 70
    64
  3
__.__.__.__.__.__.__.__.__.__.__.__.__.__.__.__
 72
    65
 73
     6
 40
0.875
 49
0.25
 49
-0.125
 49
0.25
 49
-0.125
 49
0.0
 49
-0.125
  0
LTYPE
  2
BORDERX2
 70
    64
  3
____  ____  .  ____  ____  .  ____  ____  .  __
 72
    65
 73
     6
 40
3.5
 49
1.0
 49
-0.5
 49
1.0
 49
-0.5
 49
0.0
 49
-0.5
  0
LTYPE
  2
CENTER
 70
    64
  3
____ _ ____ _ ____ _ ____ _ ____ _ ____ _ ____
 72
    65
 73
     4
 40
2.0
 49
1.25
 49
-0.25
 49
0.25
 49
-0.25
  0
LTYPE
  2
CENTER2
 70
    64
  3
___ _ ___ _ ___ _ ___ _ ___ _ ___ _ ___ _ ___ _
 72
    65
 73
     4
 40
1.125
 49
0.75
 49
-0.125
 49
0.125
 49
-0.125
  0
LTYPE
  2
CENTERX2
 70
    64
  3
________  __  ________  __  ________  __  _____
 72
    65
 73
     4
 40
4.0
 49
2.5
 49
-0.5
 49
0.5
 49
-0.5
  0
LTYPE
  2
DASHDOT
 70
    64
  3
__ . __ . __ . __ . __ . __ . __ . __ . __ . __
 72
    65
 73
     4
 40
1.0
 49
0.5
 49
-0.25
 49
0.0
 49
-0.25
  0
LTYPE
  2
DASHDOT2
 70
    64
  3
_._._._._._._._._._._._._._._._._._._._._._._._
 72
    65
 73
     4
 40
0.5
 49
0.25
 49
-0.125
 49
0.0
 49
-0.125
  0
LTYPE
  2
DASHDOTX2
 70
    64
  3
____  .  ____  .  ____  .  ____  .  ____  .  __
 72
    65
 73
     4
 40
2.0
 49
1.0
 49
-0.5
 49
0.0
 49
-0.5
  0
LTYPE
  2
DASHED
 70
    64
  3
__ __ __ __ __ __ __ __ __ __ __ __ __ __ __ __
 72
    65
 73
     2
 40
0.75
 49
0.5
 49
-0.25
  0
LTYPE
  2
DASHED2
 70
    64
  3
_ _ _ _ _ _ _ _ _ _ _ _ _ _ _ _ _ _ _ _ _ _ _ _
 72
    65
 73
     2
 40
0.375
 49
0.25
 49
-0.125
  0
LTYPE
  2
DASHEDX2
 70
    64
  3
____  ____  ____  ____  ____  ____  ____  ____
 72
    65
 73
     2
 40
1.5
 49
1.0
 49
-0.5
  0
LTYPE
  2
DIVIDE
 70
    64
  3
____ . . ____ . . ____ . . ____ . . ____ . . __
 72
    65
 73
     6
 40
1.25
 49
0.5
 49
-0.25
 49
0.0
 49
-0.25
 49
0.0
 49
-0.25
  0
LTYPE
  2
DIVIDE2
 70
    64
  3
__..__..__..__..__..__..__..__..__..__..__..__.
 72
    65
 73
     6
 40
0.625
 49
0.25
 49
-0.125
 49
0.0
 49
-0.125
 49
0.0
 49
-0.125
  0
LTYPE
  2
DIVIDEX2
 70
    64
  3
________  .  .  ________  .  .  ________  .  .
 72
    65
 73
     6
 40
2.5
 49
1.0
 49
-0.5
 49
0.0
 49
-0.5
 49
0.0
 49
-0.5
  0
LTYPE
  2
DOT
 70
    64
  3
. . . . . . . . . . . . . . . . . . . . . . . .
 72
    65
 73
     2
 40
0.25
 49
0.0
 49
-0.25
  0
LTYPE
  2
DOT2
 70
    64
  3
...............................................
 72
    65
 73
     2
 40
0.125
 49
0.0
 49
-0.125
  0
LTYPE
  2
DOTX2
 70
    64
  3
.  .  .  .  .  .  .  .  .  .  .  .  .  .  .  .
 72
    65
 73
     2
 40
0.5
 49
0.0
 49
-0.5
  0
LTYPE
  2
HIDDEN
 70
    64
  3
__ __ __ __ __ __ __ __ __ __ __ __ __ __ __ __
 72
    65
 73
     2
 40
0.375
 49
0.25
 49
-0.125
  0
LTYPE
  2
HIDDEN2
 70
    64
  3
_ _ _ _ _ _ _ _ _ _ _ _ _ _ _ _ _ _ _ _ _ _ _ _
 72
    65
 73
     2
 40
0.1875
 49
0.125
 49
-0.0625
  0
LTYPE
  2
HIDDENX2
 70
    64
  3
____ ____ ____ ____ ____ ____ ____ ____ ____ __
 72
    65
 73
     2
 40
0.75
 49
0.5
 49
-0.25
  0
LTYPE
  2
PHANTOM
 70
    64
  3
______  __  __  ______  __  __  ______  __  __
 72
    65
 73
     6
 40
2.5
 49
1.25
 49
-0.25
 49
0.25
 49
-0.25
 49
0.25
 49
-0.25
  0
LTYPE
  2
PHANTOM2
 70
    64
  3
___ _ _ ___ _ _ ___ _ _ ___ _ _ ___ _ _ ___ _ _
 72
    65
 73
     6
 40
1.25
 49
0.625
 49
-0.125
 49
0.125
 49
-0.125
 49
0.125
 49
-0.125
  0
LTYPE
  2
PHANTOMX2
 70
    64
  3
____________    ____    ____    ____________
 72
    65
 73
     6
 40
5.0
 49
2.5
 49
-0.5
 49
0.5
 49
-0.5
 49
0.5
 49
-0.5
  0
LTYPE
  2
ACAD_ISO02W100
 70
    64
  3
__ __ __ __ __ __ __ __ __ __ __ __ __ __ __ __
 72
    65
 73
     2
 40
15.0
 49
12.0
 49
-3.0
  0
LTYPE
  2
ACAD_ISO03W100
 70
    64
  3
__    __    __    __    __    __    __    __
 72
    65
 73
     2
 40
30.0
 49
12.0
 49
-18.0
  0
LTYPE
  2
ACAD_ISO04W100
 70
    64
  3
____ . ____ . ____ . ____ . ____ . ____ . ____
 72
    65
 73
     4
 40
30.5
 49
24.0
 49
-3.0
 49
0.5
 49
-3.0
  0
LTYPE
  2
ACAD_ISO05W100
 70
    64
  3
____ .. ____ .. ____ .. ____ .. ____ .. ____ ..
 72
    65
 73
     6
 40
34.0
 49
24.0
 49
-3.0
 49
0.5
 49
-3.0
 49
0.5
 49
-3.0
  0
LTYPE
  2
ACAD_ISO06W100
 70
    64
  3
____ ... ____ ... ____ ... ____ ... ____ ... __
 72
    65
 73
     8
 40
37.5
 49
24.0
 49
-3.0
 49
0.5
 49
-3.0
 49
0.5
 49
-3.0
 49
0.5
 49
-3.0
  0
LTYPE
  2
ACAD_ISO07W100
 70
    64
  3
. . . . . . . . . . . . . . . . . . . . . . . .
 72
    65
 73
     2
 40
3.5
 49
0.5
 49
-3.0
  0
LTYPE
  2
ACAD_ISO08W100
 70
    64
  3
____ __ ____ __ ____ __ ____ ____ __ __ ____ __
 72
    65
 73
     4
 40
36.0
 49
24.0
 49
-3.0
 49
6.0
 49
-3.0
  0
LTYPE
  2
ACAD_ISO09W100
 70
    64
  3
____ __ __ ____ __ __ ____ __ __ ____ __ __ ___
 72
    65
 73
     6
 40
45.0
 49
24.0
 49
-3.0
 49
6.0
 49
-3.0
 49
6.0
 49
-3.0
  0
LTYPE
  2
ACAD_ISO10W100
 70
    64
  3
__ . __ . __ . __ . __ . __ . __ . __ . __ . __
 72
    65
 73
     4
 40
18.5
 49
12.0
 49
-3.0
 49
0.5
 49
-3.0
  0
LTYPE
  2
ACAD_ISO11W100
 70
    64
  3
__ __ . __ __ . __ __ . __ __ . __ __ . __ __ .
 72
    65
 73
     6
 40
33.5
 49
12.0
 49
-3.0
 49
12.0
 49
-3.0
 49
0.5
 49
-3.0
  0
LTYPE
  2
ACAD_ISO12W100
 70
    64
  3
__ . . __ . . __ . . __ . . __ . . __ . . __ .
 72
    65
 73
     6
 40
22.0
 49
12.0
 49
-3.0
 49
0.5
 49
-3.0
 49
0.5
 49
-3.0
  0
LTYPE
  2
ACAD_ISO13W100
 70
    64
  3
__ __ . . __ __ . . __ __ . . __ __ . . __ __ .
 72
    65
 73
     8
 40
37.0
 49
12.0
 49
-3.0
 49
12.0
 49
-3.0
 49
0.5
 49
-3.0
 49
0.5
 49
-3.0
  0
LTYPE
  2
ACAD_ISO14W100
 70
    64
  3
__ . . . __ . . . __ . . . __ . . . __ . . . __
 72
    65
 73
     8
 40
25.5
 49
12.0
 49
-3.0
 49
0.5
 49
-3.0
 49
0.5
 49
-3.0
 49
0.5
 49
-3.0
  0
LTYPE
  2
ACAD_ISO15W100
 70
    64
  3
__ __ . . . __ __ . . . __ __ . . . __ __ . . .
 72
    65
 73
    10
 40
40.5
 49
12.0
 49
-3.0
 49
12.0
 49
-3.0
 49
0.5
 49
-3.0
 49
0.5
 49
-3.0
 49
0.5
 49
-3.0
  0
ENDTAB
  0
TABLE
  2
STYLE
 70
     4
  0
STYLE
  2
STANDARD
 70
    64
 40
0.0
 41
1.0
 50
0.0
 71
     0
 42
0.2
  3
txt
  4

  0
STYLE
  2
TOLERANCE
 70
    64
 40
0.0
 41
1.0
 50
0.0
 71
     0
 42
0.2
  3
../igesfont/iges1003.shx
  4

  0
STYLE
  2
ROMANS
 70
    64
 40
0.0
 41
1.0
 50
0.0
 71
     0
 42
0.2
  3
romans.shx
  4

  0
STYLE
  2
ROMANC
 70
    64
 40
0.0
 41
1.0
 50
0.0
 71
     0
 42
0.2
  3
romanc.shx
  4

  0
ENDTAB
  0
TABLE
  2
DIMSTYLE
 70
     2
  0
DIMSTYLE
  2
UNNAMED
 70
     0
  3

  4

  5

  6

  7

 40
1.0
 41
0.18
 42
0.0625
 43
0.38
 44
0.18
 45
0.0
 46
0.0
 47
0.0
 48
0.0
140
0.18
141
0.09
142
0.0
143
25.4
144
1.0
145
0.0
146
1.0
147
0.09
 71
     0
 72
     0
 73
     1
 74
     1
 75
     0
 76
     0
 77
     0
 78
     0
170
     0
171
     2
172
     0
173
     0
174
     0
175
     0
176
     0
177
     0
178
     0
  0
DIMSTYLE
  2
STANDARD
 70
     0
  3

  4

  5

  6

  7

 40
1.0
 41
0.18
 42
0.0625
 43
0.38
 44
0.18
 45
0.0
 46
0.0
 47
0.0
 48
0.0
140
0.18
141
0.09
142
0.0
143
25.4
144
1.0
145
0.0
146
1.0
147
0.09
 71
     0
 72
     0
 73
     1
 74
     1
 75
     0
 76
     0
 77
     0
 78
     0
170
     0
171
     2
172
     0
173
     0
174
     0
175
     0
176
     0
177
     0
178
     0
  0
ENDTAB
  0
TABLE
  2
LAYER
 70
     2
  0
LAYER
  2
0
 70
     0
 62
     7
  6
CONTINUOUS
  0
LAYER
  2
255
 70
     0
 62
     7
  6
CONTINUOUS
  0
ENDTAB
  0
ENDSEC
  0
SECTION
  2
BLOCKS
  0
BLOCK
  5
     B
  8
0
  6
CONTINUOUS
 62
     0
  2
$1ABB
 70
    64
 10
0.0
 20
0.0
 30
0.0
  3
$1ABB
  0
LINE
  5
     C
  8
0
  6
CONTINUOUS
 62
     0
 10
1.13686837721616E-13
 20
0.0
 30
0.0
 11
0.735000000000127
 21
0.0
 31
0.0
  0
LINE
  5
     D
  8
0
  6
CONTINUOUS
 62
     0
 10
0.997500000000116
 20
0.735000000000014
 30
0.0
 11
1.6065000000001
 21
0.735000000000014
 31
0.0
  0
LINE
  5
     E
  8
0
  6
CONTINUOUS
 62
     0
 10
1.22500000000008
 20
3.43000000000001
 30
0.0
 11
1.6065000000001
 21
3.43000000000001
 31
0.0
  0
LINE
  5
     F
  8
0
  6
CONTINUOUS
 62
     0
 10
2.27373675443232E-13
 20
9.74661560288007E-13
 30
0.0
 11
0.560625000000186
 21
1.56975000000086
 31
0.0
  0
LINE
  5
    10
  8
0
  6
CONTINUOUS
 62
     0
 10
0.735000000000184
 20
1.06564757018646E-12
 30
0.0
 11
0.997500000000229
 21
0.735000000001193
 31
0.0
  0
LINE
  5
    11
  8
0
  6
CONTINUOUS
 62
     0
 10
0.664375000000177
 20
1.86025000000083
 30
0.0
 11
1.22500000000025
 21
3.43000000000104
 31
0.0
  0
LINE
  5
    12
  8
0
  6
CONTINUOUS
 62
     0
 10
3.67500000000007
 20
0.0
 30
0.0
 11
3.67500000000007
 21
1.56975
 31
0.0
  0
LINE
  5
    13
  8
0
  6
CONTINUOUS
 62
     0
 10
3.67500000000007
 20
3.43000000000001
 30
0.0
 11
4.50975000000011
 21
3.43000000000001
 31
0.0
  0
LINE
  5
    14
  8
0
  6
CONTINUOUS
 62
     0
 10
3.67500000000007
 20
0.0
 30
0.0
 11
4.50975000000011
 21
0.0
 31
0.0
  0
ARC
  5
    15
  8
0
  6
CONTINUOUS
 62
     0
 10
5.02250000000009
 20
2.69499999999999
 30
0.0
 40
0.735
 50
293.43554822424
 51
450.0
  0
ARC
  5
    16
  8
0
  6
CONTINUOUS
 62
     0
 10
4.96125000000012
 20
1.04124999999999
 30
0.0
 40
1.04125
 50
270.0
 51
390.501639980144
  0
LINE
  5
    17
  8
0
  6
CONTINUOUS
 62
     0
 10
4.80025000000012
 20
3.43000000000001
 30
0.0
 11
5.02250000000009
 21
3.43000000000001
 31
0.0
  0
LINE
  5
    18
  8
0
  6
CONTINUOUS
 62
     0
 10
3.67500000000007
 20
1.86025000000001
 30
0.0
 11
3.67500000000007
 21
3.43000000000001
 31
0.0
  0
ARC
  5
    19
  8
0
  6
CONTINUOUS
 62
     0
 10
4.96125000000012
 20
1.04124999999999
 30
0.0
 40
1.04125
 50
51.8646912574804
 51
70.1496203833141
  0
LINE
  5
    1A
  8
0
  6
CONTINUOUS
 62
     0
 10
4.80025000000012
 20
0.0
 30
0.0
 11
4.96125000000012
 21
0.0
 31
0.0
  0
LINE
  5
    1B
  8
0
  6
CONTINUOUS
 62
     0
 10
2.73175000000009
 20
0.0
 30
0.0
 11
3.4667500000001
 21
0.0
 31
0.0
  0
LINE
  5
    1C
  8
0
  6
CONTINUOUS
 62
     0
 10
1.86025000000012
 20
0.735000000000014
 30
0.0
 11
2.4692500000001
 21
0.735000000000014
 31
0.0
  0
LINE
  5
    1D
  8
0
  6
CONTINUOUS
 62
     0
 10
1.86025000000012
 20
3.43000000000001
 30
0.0
 11
2.24175000000014
 21
3.43000000000001
 31
0.0
  0
LINE
  5
    1E
  8
0
  6
CONTINUOUS
 62
     0
 10
2.90612499999986
 20
1.56975000000094
 30
0.0
 11
3.46674999999982
 21
1.0538236949742E-12
 31
0.0
  0
LINE
  5
    1F
  8
0
  6
CONTINUOUS
 62
     0
 10
2.46924999999976
 20
0.735000000001262
 30
0.0
 11
2.73174999999975
 21
1.29396493520062E-12
 31
0.0
  0
LINE
  5
    20
  8
0
  6
CONTINUOUS
 62
     0
 10
2.2417499999998
 20
3.43000000000112
 30
0.0
 11
2.80237499999987
 21
1.86025000000091
 31
0.0
  0
LINE
  5
    21
  8
0
  6
CONTINUOUS
 62
     0
 10
6.32100000000014
 20
0.0
 30
0.0
 11
6.32100000000014
 21
1.56975
 31
0.0
  0
LINE
  5
    22
  8
0
  6
CONTINUOUS
 62
     0
 10
6.32100000000014
 20
3.43000000000001
 30
0.0
 11
7.15575000000013
 21
3.43000000000001
 31
0.0
  0
LINE
  5
    23
  8
0
  6
CONTINUOUS
 62
     0
 10
6.32100000000014
 20
0.0
 30
0.0
 11
7.15575000000013
 21
0.0
 31
0.0
  0
ARC
  5
    24
  8
0
  6
CONTINUOUS
 62
     0
 10
7.66850000000011
 20
2.69499999999999
 30
0.0
 40
0.735
 50
293.43554822424
 51
450.0
  0
ARC
  5
    25
  8
0
  6
CONTINUOUS
 62
     0
 10
7.60725000000008
 20
1.04124999999999
 30
0.0
 40
1.04125
 50
270.0
 51
390.501639980144
  0
LINE
  5
    26
  8
0
  6
CONTINUOUS
 62
     0
 10
7.44625000000008
 20
3.43000000000001
 30
0.0
 11
7.66850000000011
 21
3.43000000000001
 31
0.0
  0
LINE
  5
    27
  8
0
  6
CONTINUOUS
 62
     0
 10
6.32100000000014
 20
1.86025000000001
 30
0.0
 11
6.32100000000014
 21
3.43000000000001
 31
0.0
  0
ARC
  5
    28
  8
0
  6
CONTINUOUS
 62
     0
 10
7.60725000000008
 20
1.04124999999999
 30
0.0
 40
1.04125
 50
51.8646912574804
 51
70.1496203833141
  0
LINE
  5
    29
  8
0
  6
CONTINUOUS
 62
     0
 10
7.44625000000008
 20
0.0
 30
0.0
 11
7.60725000000008
 21
0.0
 31
0.0
  0
LINE
  5
    2A
  8
0
  6
CONTINUOUS
 62
     0
 10
1.6065000000001
 20
1.86025000000001
 30
0.0
 11
1.6065000000001
 21
3.43000000000001
 31
0.0
  0
LINE
  5
    2B
  8
0
  6
CONTINUOUS
 62
     0
 10
1.86025000000012
 20
1.86025000000001
 30
0.0
 11
1.86025000000012
 21
3.43000000000001
 31
0.0
  0
LINE
  5
    2C
  8
0
  6
CONTINUOUS
 62
     0
 10
1.6065000000001
 20
0.735000000000014
 30
0.0
 11
1.6065000000001
 21
1.56975
 31
0.0
  0
LINE
  5
    2D
  8
0
  6
CONTINUOUS
 62
     0
 10
1.86025000000012
 20
0.735000000000014
 30
0.0
 11
1.86025000000012
 21
1.56975
 31
0.0
  0
LINE
  5
    2E
  8
0
  6
CONTINUOUS
 62
     0
 10
1.86025000000012
 20
1.56975
 30
0.0
 11
2.90612500000015
 21
1.56975
 31
0.0
  0
LINE
  5
    2F
  8
0
  6
CONTINUOUS
 62
     0
 10
1.86025000000012
 20
1.86025000000001
 30
0.0
 11
2.80237500000015
 21
1.86025000000001
 31
0.0
  0
LINE
  5
    30
  8
0
  6
CONTINUOUS
 62
     0
 10
0.664375000000121
 20
1.86025000000001
 30
0.0
 11
1.6065000000001
 21
1.86025000000001
 31
0.0
  0
LINE
  5
    31
  8
0
  6
CONTINUOUS
 62
     0
 10
0.560625000000073
 20
1.56975
 30
0.0
 11
1.6065000000001
 21
1.56975
 31
0.0
  0
LINE
  5
    32
  8
0
  6
CONTINUOUS
 62
     0
 10
3.67500000000007
 20
1.86025000000001
 30
0.0
 11
4.50975000000011
 21
1.86025000000001
 31
0.0
  0
LINE
  5
    33
  8
0
  6
CONTINUOUS
 62
     0
 10
3.67500000000007
 20
1.56975
 30
0.0
 11
4.50975000000011
 21
1.56975
 31
0.0
  0
LINE
  5
    34
  8
0
  6
CONTINUOUS
 62
     0
 10
4.80025000000012
 20
1.56975
 30
0.0
 11
5.85840623639376
 21
1.56975
 31
0.0
  0
LINE
  5
    35
  8
0
  6
CONTINUOUS
 62
     0
 10
4.80025000000012
 20
1.86025000000001
 30
0.0
 11
5.6042434389247
 21
1.86025000000001
 31
0.0
  0
LINE
  5
    36
  8
0
  6
CONTINUOUS
 62
     0
 10
4.80025000000012
 20
1.86025000000001
 30
0.0
 11
4.80025000000012
 21
3.43000000000001
 31
0.0
  0
LINE
  5
    37
  8
0
  6
CONTINUOUS
 62
     0
 10
4.50975000000011
 20
1.86025000000001
 30
0.0
 11
4.50975000000011
 21
3.43000000000001
 31
0.0
  0
LINE
  5
    38
  8
0
  6
CONTINUOUS
 62
     0
 10
4.50975000000011
 20
0.0
 30
0.0
 11
4.50975000000011
 21
1.56975
 31
0.0
  0
LINE
  5
    39
  8
0
  6
CONTINUOUS
 62
     0
 10
4.80025000000012
 20
0.0
 30
0.0
 11
4.80025000000012
 21
1.56975
 31
0.0
  0
LINE
  5
    3A
  8
0
  6
CONTINUOUS
 62
     0
 10
7.15575000000013
 20
1.86025000000001
 30
0.0
 11
7.15575000000013
 21
3.43000000000001
 31
0.0
  0
LINE
  5
    3B
  8
0
  6
CONTINUOUS
 62
     0
 10
7.44625000000008
 20
1.86025000000001
 30
0.0
 11
7.44625000000008
 21
3.43000000000001
 31
0.0
  0
LINE
  5
    3C
  8
0
  6
CONTINUOUS
 62
     0
 10
7.44625000000008
 20
0.0
 30
0.0
 11
7.44625000000008
 21
1.56975
 31
0.0
  0
LINE
  5
    3D
  8
0
  6
CONTINUOUS
 62
     0
 10
7.15575000000013
 20
0.0
 30
0.0
 11
7.15575000000013
 21
1.56975
 31
0.0
  0
LINE
  5
    3E
  8
0
  6
CONTINUOUS
 62
     0
 10
6.32100000000014
 20
1.56975
 30
0.0
 11
7.15575000000013
 21
1.56975
 31
0.0
  0
LINE
  5
    3F
  8
0
  6
CONTINUOUS
 62
     0
 10
6.32100000000014
 20
1.86025000000001
 30
0.0
 11
7.15575000000013
 21
1.86025000000001
 31
0.0
  0
LINE
  5
    40
  8
0
  6
CONTINUOUS
 62
     0
 10
7.44625000000008
 20
1.86025000000001
 30
0.0
 11
8.25024343892466
 21
1.86025000000001
 31
0.0
  0
LINE
  5
    41
  8
0
  6
CONTINUOUS
 62
     0
 10
7.44625000000008
 20
1.56975
 30
0.0
 11
8.50440623639372
 21
1.56975
 31
0.0
  0
ENDBLK
  5
    42
  8
0
  6
CONTINUOUS
 62
     0
  0
BLOCK
  5
    43
  8
0
  6
CONTINUOUS
 62
     0
  2
$2SACE
 70
    64
 10
0.0
 20
0.0
 30
0.0
  3
$2SACE
  0
LINE
  5
    44
  8
0
  6
CONTINUOUS
 62
     0
 10
8.73000000000093E-2
 20
0.0
 30
0.0
 11
1.1931
 21
0.0
 31
0.0
  0
LINE
  5
    45
  8
0
  6
CONTINUOUS
 62
     0
 10
0.9021
 20
2.91000000000003
 30
0.0
 11
1.94969999999999
 21
2.91000000000003
 31
0.0
  0
LINE
  5
    46
  8
0
  6
CONTINUOUS
 62
     0
 10
9.57390000000002
 20
2.21160000000009
 30
0.0
 11
9.57390000000002
 21
2.91000000000003
 31
0.0
  0
LINE
  5
    47
  8
0
  6
CONTINUOUS
 62
     0
 10
1.94969999999999
 20
2.21160000000003
 30
0.0
 11
1.94969999999999
 21
2.91000000000003
 31
0.0
  0
LINE
  5
    48
  8
0
  6
CONTINUOUS
 62
     0
 10
0.9021
 20
2.21160000000003
 30
0.0
 11
1.94969999999999
 21
2.21160000000003
 31
0.0
  0
LINE
  5
    49
  8
0
  6
CONTINUOUS
 62
     0
 10
0.9021
 20
1.80420000000004
 30
0.0
 11
1.1931
 21
1.80420000000004
 31
0.0
  0
LINE
  5
    4A
  8
0
  6
CONTINUOUS
 62
     0
 10
8.73000000000093E-2
 20
0.698400000000049
 30
0.0
 11
1.1931
 21
0.698400000000049
 31
0.0
  0
LINE
  5
    4B
  8
0
  6
CONTINUOUS
 62
     0
 10
0.9021
 20
1.1058000000001
 30
0.0
 11
1.1931
 21
1.1058000000001
 31
0.0
  0
ARC
  5
    4C
  8
0
  6
CONTINUOUS
 62
     0
 10
1.1931
 20
0.902100000000075
 30
0.0
 40
0.9021
 50
270.0
 51
450.0
  0
ARC
  5
    4D
  8
0
  6
CONTINUOUS
 62
     0
 10
0.9021
 20
2.00790000000006
 30
0.0
 40
0.9021
 50
90.0
 51
270.0
  0
ARC
  5
    4E
  8
0
  6
CONTINUOUS
 62
     0
 10
0.9021
 20
2.00790000000006
 30
0.0
 40
0.203699999999969
 50
90.0
 51
270.0
  0
ARC
  5
    4F
  8
0
  6
CONTINUOUS
 62
     0
 10
1.1931
 20
0.902100000000075
 30
0.0
 40
0.203700000000026
 50
270.0
 51
450.0
  0
LINE
  5
    50
  8
0
  6
CONTINUOUS
 62
     0
 10
8.73000000000093E-2
 20
0.0
 30
0.0
 11
8.73000000000093E-2
 21
0.698400000000049
 31
0.0
  0
LINE
  5
    51
  8
0
  6
CONTINUOUS
 62
     0
 10
3.98798992437711
 20
0.0
 30
0.0
 11
4.71419999999987
 21
0.0
 31
0.0
  0
LINE
  5
    52
  8
0
  6
CONTINUOUS
 62
     0
 10
2.92454999999982
 20
2.91000000000003
 30
0.0
 11
3.88484999999984
 21
2.91000000000003
 31
0.0
  0
LINE
  5
    53
  8
0
  6
CONTINUOUS
 62
     0
 10
3.88484999999973
 20
2.91000000000055
 30
0.0
 11
4.71419999999976
 21
5.29798427351125E-13
 31
0.0
  0
LINE
  5
    54
  8
0
  6
CONTINUOUS
 62
     0
 10
2.09520000000002
 20
8.92619311798626E-13
 30
0.0
 11
2.92454999999994
 21
2.91000000000092
 31
0.0
  0
LINE
  5
    55
  8
0
  6
CONTINUOUS
 62
     0
 10
3.18632407562272
 20
1.2804000000003
 30
0.0
 11
3.40469999999992
 21
2.04663131360459
 31
0.0
  0
LINE
  5
    56
  8
0
  6
CONTINUOUS
 62
     0
 10
3.8221199243769
 20
0.582000000000798
 30
0.0
 11
3.987989924377
 21
5.94413407384309E-13
 31
0.0
  0
LINE
  5
    57
  8
0
  6
CONTINUOUS
 62
     0
 10
2.98728007562242
 20
0.582000000000221
 30
0.0
 11
3.8221199243769
 21
0.582000000000221
 31
0.0
  0
LINE
  5
    58
  8
0
  6
CONTINUOUS
 62
     0
 10
3.18632407562255
 20
1.28040000000033
 30
0.0
 11
3.62307592437689
 21
1.28040000000033
 31
0.0
  0
LINE
  5
    59
  8
0
  6
CONTINUOUS
 62
     0
 10
2.82141007562272
 20
1.55653268052447E-13
 30
0.0
 11
2.98728007562276
 21
0.582000000000364
 31
0.0
  0
LINE
  5
    5A
  8
0
  6
CONTINUOUS
 62
     0
 10
3.40469999999957
 20
2.0466313136051
 30
0.0
 11
3.62307592437683
 21
1.28040000000088
 31
0.0
  0
LINE
  5
    5B
  8
0
  6
CONTINUOUS
 62
     0
 10
2.0951999999999
 20
0.0
 30
0.0
 11
2.82141007562249
 21
0.0
 31
0.0
  0
LINE
  5
    5C
  8
0
  6
CONTINUOUS
 62
     0
 10
7.68240000000001
 20
2.91000000000003
 30
0.0
 11
9.57390000000002
 21
2.91000000000003
 31
0.0
  0
LINE
  5
    5D
  8
0
  6
CONTINUOUS
 62
     0
 10
7.68240000000001
 20
0.0
 30
0.0
 11
9.57390000000002
 21
0.0
 31
0.0
  0
ARC
  5
    5E
  8
0
  6
CONTINUOUS
 62
     0
 10
6.16919999999997
 20
1.45500000000004
 30
0.0
 40
1.455
 50
30.6834171109628
 51
329.31658288887
  0
ARC
  5
    5F
  8
0
  6
CONTINUOUS
 62
     0
 10
6.16919999999997
 20
1.45500000000004
 30
0.0
 40
0.7566
 50
27.7250342261244
 51
332.274965773011
  0
LINE
  5
    60
  8
0
  6
CONTINUOUS
 62
     0
 10
6.83893508535236
 20
1.80699215250978
 30
0.0
 11
7.42050000000004
 21
2.197477817912
 31
0.0
  0
LINE
  5
    61
  8
0
  6
CONTINUOUS
 62
     0
 10
6.83893508544063
 20
1.10300784743089
 30
0.0
 11
7.42049999999987
 21
0.712522182088086
 31
0.0
  0
LINE
  5
    62
  8
0
  6
CONTINUOUS
 62
     0
 10
7.68240000000001
 20
0.0
 30
0.0
 11
7.68240000000001
 21
2.91000000000003
 31
0.0
  0
LINE
  5
    63
  8
0
  6
CONTINUOUS
 62
     0
 10
8.3808
 20
1.80420000000032
 30
0.0
 11
8.3808
 21
2.21160000000009
 31
0.0
  0
LINE
  5
    64
  8
0
  6
CONTINUOUS
 62
     0
 10
8.38079999999989
 20
2.21160000000009
 30
0.0
 11
9.5738999999999
 21
2.21160000000009
 31
0.0
  0
LINE
  5
    65
  8
0
  6
CONTINUOUS
 62
     0
 10
8.38079999999989
 20
0.698400000000106
 30
0.0
 11
9.5738999999999
 21
0.698400000000106
 31
0.0
  0
LINE
  5
    66
  8
0
  6
CONTINUOUS
 62
     0
 10
8.38079999999989
 20
1.10580000000022
 30
0.0
 11
9.39930000000002
 21
1.10580000000022
 31
0.0
  0
LINE
  5
    67
  8
0
  6
CONTINUOUS
 62
     0
 10
8.38079999999978
 20
1.80420000000032
 30
0.0
 11
9.39930000000002
 21
1.80420000000032
 31
0.0
  0
LINE
  5
    68
  8
0
  6
CONTINUOUS
 62
     0
 10
9.39930000000002
 20
1.10580000000022
 30
0.0
 11
9.39930000000002
 21
1.80420000000032
 31
0.0
  0
LINE
  5
    69
  8
0
  6
CONTINUOUS
 62
     0
 10
8.3808
 20
0.698400000000106
 30
0.0
 11
8.3808
 21
1.10580000000022
 31
0.0
  0
LINE
  5
    6A
  8
0
  6
CONTINUOUS
 62
     0
 10
9.57390000000002
 20
0.0
 30
0.0
 11
9.57390000000002
 21
0.698400000000106
 31
0.0
  0
ENDBLK
  5
    6B
  8
0
  6
CONTINUOUS
 62
     0
  0
BLOCK
  5
    6C
  8
0
  6
CONTINUOUS
 62
     7
  2
*HATCH82
 70
    65
 10
0.0
 20
0.0
 30
0.0
  3
*HATCH82
  0
LINE
  5
    6D
  8
0
  6
CONTINUOUS
 62
   210
 10
-16.1543254852295
 20
39.0
 30
0.0
 11
-19.0
 21
36.1543312072754
 31
0.0
  0
LINE
  5
    6E
  8
0
  6
CONTINUOUS
 62
   210
 10
-16.1000003814697
 20
34.8116874694824
 30
0.0
 11
-18.4116859436035
 21
32.5
 31
0.0
  0
ENDBLK
  5
    6F
  8
0
  6
CONTINUOUS
 62
     7
  0
BLOCK
  5
    70
  8
0
  6
CONTINUOUS
 62
     7
  2
*HATCH83
 70
    65
 10
0.0
 20
0.0
 30
0.0
  3
*HATCH83
  0
LINE
  5
    71
  8
0
  6
CONTINUOUS
 62
   210
 10
-6.0
 20
38.5477256774902
 30
0.0
 11
-8.89999961853027
 21
35.6477279663086
 31
0.0
  0
LINE
  5
    72
  8
0
  6
CONTINUOUS
 62
   210
 10
-6.0
 20
34.3050842285156
 30
0.0
 11
-7.80508375167847
 21
32.5000038146973
 31
0.0
  0
ENDBLK
  5
    73
  8
0
  6
CONTINUOUS
 62
     7
  0
BLOCK
  5
    74
  8
0
  6
CONTINUOUS
 62
     7
  2
*HATCH84
 70
    65
 10
0.0
 20
0.0
 30
0.0
  3
*HATCH84
  0
LINE
  5
    75
  8
0
  6
CONTINUOUS
 62
    92
 10
-19.0
 20
36.1543273925781
 30
0.0
 11
-22.5
 21
32.6543273925781
 31
0.0
  0
ENDBLK
  5
    76
  8
0
  6
CONTINUOUS
 62
     7
  0
BLOCK
  5
    77
  8
0
  6
CONTINUOUS
 62
     7
  2
*HATCH85
 70
    65
 10
0.0
 20
0.0
 30
0.0
  3
*HATCH85
  0
LINE
  5
    78
  8
0
  6
CONTINUOUS
 62
    92
 10
-2.5
 20
35.683765411377
 30
0.0
 11
-7.18376350402832
 21
31.0000019073486
 31
0.0
  0
ENDBLK
  5
    79
  8
0
  6
CONTINUOUS
 62
     7
  0
BLOCK
  5
    7A
  8
0
  6
CONTINUOUS
 62
     7
  2
*HATCH86
 70
    65
 10
0.0
 20
0.0
 30
0.0
  3
*HATCH86
  0
LINE
  5
    7B
  8
0
  6
CONTINUOUS
 62
   210
 10
-144.999984741211
 20
13.4782247543335
 30
0.0
 11
-142.521759033203
 21
11.0000019073486
 31
0.0
  0
LINE
  5
    7C
  8
0
  6
CONTINUOUS
 62
   210
 10
-142.279113769531
 20
15.0000019073486
 30
0.0
 11
-140.934432983398
 21
13.6553087234497
 31
0.0
  0
ENDBLK
  5
    7D
  8
0
  6
CONTINUOUS
 62
     7
  0
BLOCK
  5
    7E
  8
0
  6
CONTINUOUS
 62
     7
  2
*HATCH87
 70
    65
 10
0.0
 20
0.0
 30
0.0
  3
*HATCH87
  0
LINE
  5
    7F
  8
0
  6
CONTINUOUS
 62
   210
 10
-151.069595336914
 20
25.0000019073486
 30
0.0
 11
-153.299987792969
 21
22.7696056365967
 31
0.0
  0
LINE
  5
    80
  8
0
  6
CONTINUOUS
 62
   210
 10
-146.906158447266
 20
24.9207954406738
 30
0.0
 11
-151.826950073242
 21
20.0000019073486
 31
0.0
  0
LINE
  5
    81
  8
0
  6
CONTINUOUS
 62
   210
 10
-144.016418457031
 20
23.5678882598877
 30
0.0
 11
-147.58430480957
 21
20.0000019073486
 31
0.0
  0
LINE
  5
    82
  8
0
  6
CONTINUOUS
 62
   210
 10
-141.906326293945
 20
21.4353427886963
 30
0.0
 11
-145.442047119141
 21
17.8996238708496
 31
0.0
  0
LINE
  5
    83
  8
0
  6
CONTINUOUS
 62
   210
 10
-139.934432983398
 20
19.1645965576172
 30
0.0
 11
-143.244247436523
 21
15.8547763824463
 31
0.0
  0
ENDBLK
  5
    84
  8
0
  6
CONTINUOUS
 62
     7
  0
BLOCK
  5
    85
  8
0
  6
CONTINUOUS
 62
     7
  2
*HATCH88
 70
    65
 10
0.0
 20
0.0
 30
0.0
  3
*HATCH88
  0
LINE
  5
    86
  8
0
  6
CONTINUOUS
 62
   210
 10
-147.499984741211
 20
28.7061576843262
 30
0.0
 11
-144.999984741211
 21
26.2061538696289
 31
0.0
  0
LINE
  5
    87
  8
0
  6
CONTINUOUS
 62
   210
 10
-147.499984741211
 20
32.9488029479981
 30
0.0
 11
-144.999984741211
 21
30.4487991333008
 31
0.0
  0
LINE
  5
    88
  8
0
  6
CONTINUOUS
 62
   210
 10
-147.167922973633
 20
36.8593826293945
 30
0.0
 11
-144.999984741211
 21
34.6914405822754
 31
0.0
  0
ENDBLK
  5
    89
  8
0
  6
CONTINUOUS
 62
     7
  0
BLOCK
  5
    8A
  8
0
  6
CONTINUOUS
 62
     7
  2
*HATCH89
 70
    65
 10
0.0
 20
0.0
 30
0.0
  3
*HATCH89
  0
LINE
  5
    8B
  8
0
  6
CONTINUOUS
 62
   210
 10
-5.15432548522949
 20
50.0000038146973
 30
0.0
 11
-8.30000019073486
 21
46.8543281555176
 31
0.0
  0
LINE
  5
    8C
  8
0
  6
CONTINUOUS
 62
   210
 10
-3.5
 20
47.4116897583008
 30
0.0
 11
-5.9116849899292
 21
45.0000038146973
 31
0.0
  0
ENDBLK
  5
    8D
  8
0
  6
CONTINUOUS
 62
     7
  0
BLOCK
  5
    8E
  8
0
  6
CONTINUOUS
 62
     7
  2
*HATCH90
 70
    65
 10
0.0
 20
0.0
 30
0.0
  3
*HATCH90
  0
LINE
  5
    8F
  8
0
  6
CONTINUOUS
 62
   210
 10
-5.15432548522949
 20
50.0000038146973
 30
0.0
 11
-8.30000019073486
 21
46.8543281555176
 31
0.0
  0
LINE
  5
    90
  8
0
  6
CONTINUOUS
 62
   210
 10
-3.5
 20
47.4116897583008
 30
0.0
 11
-5.9116849899292
 21
45.0000038146973
 31
0.0
  0
ENDBLK
  5
    91
  8
0
  6
CONTINUOUS
 62
     7
  0
BLOCK
  5
    92
  8
0
  6
CONTINUOUS
 62
     7
  2
*HATCH91
 70
    65
 10
0.0
 20
0.0
 30
0.0
  3
*HATCH91
  0
LINE
  5
    93
  8
0
  6
CONTINUOUS
 62
   210
 10
-26.3675289154053
 20
50.0000038146973
 30
0.0
 11
-29.0655555725098
 21
47.3019790649414
 31
0.0
  0
LINE
  5
    94
  8
0
  6
CONTINUOUS
 62
   210
 10
-22.1248893737793
 20
50.0000038146973
 30
0.0
 11
-27.1248893737793
 21
45.0
 31
0.0
  0
LINE
  5
    95
  8
0
  6
CONTINUOUS
 62
   210
 10
-17.8822479248047
 20
50.0000038146973
 30
0.0
 11
-22.8822479248047
 21
45.0
 31
0.0
  0
LINE
  5
    96
  8
0
  6
CONTINUOUS
 62
   210
 10
-16.7000007629395
 20
46.9396095275879
 30
0.0
 11
-18.6396064758301
 21
45.0
 31
0.0
  0
ENDBLK
  5
    97
  8
0
  6
CONTINUOUS
 62
     7
  0
BLOCK
  5
    98
  8
0
  6
CONTINUOUS
 62
     7
  2
*HATCH92
 70
    65
 10
0.0
 20
0.0
 30
0.0
  3
*HATCH92
  0
LINE
  5
    99
  8
0
  6
CONTINUOUS
 62
   210
 10
-163.797515869141
 20
25.0000019073486
 30
0.0
 11
-166.499984741211
 21
22.2975273132324
 31
0.0
  0
LINE
  5
    9A
  8
0
  6
CONTINUOUS
 62
   210
 10
-160.599990844727
 20
23.9548873901367
 30
0.0
 11
-164.554870605469
 21
20.0000019073486
 31
0.0
  0
ENDBLK
  5
    9B
  8
0
  6
CONTINUOUS
 62
     7
  0
BLOCK
  5
    9C
  8
0
  6
CONTINUOUS
 62
     7
  2
*UDIM605
 70
    65
 10
0.0
 20
0.0
 30
0.0
  3
*UDIM605
  0
TEXT
  5
    9D
  8
0
  6
CONTINUOUS
 62
     7
 10
-330.881663874596
 20
93.8424279195184
 30
0.0
 40
3.5
  1
25
 50
359.999999844103
 41
0.933333333333333
 72
     1
 11
-327.964997203176
 21
95.592427911597
 31
0.0
 73
     2
  0
LINE
  5
    9E
  8
0
  6
CONTINUOUS
 62
     7
 10
-333.20706182922
 20
78.4524552822113
 30
0.0
 11
-333.20706182922
 21
93.842427911597
 31
0.0
  0
LINE
  5
    9F
  8
0
  6
CONTINUOUS
 62
     7
 10
-338.20706182922
 20
91.842427911597
 30
0.0
 11
-315.707060813904
 21
91.842427911597
 31
0.0
  0
LINE
  5
    A0
  8
0
  6
CONTINUOUS
 62
     7
 10
-336.10483930243
 20
91.0659707551785
 30
0.0
 11
-333.20706182922
 21
91.842427911597
 31
0.0
  0
LINE
  5
    A1
  8
0
  6
CONTINUOUS
 62
     7
 10
-333.20706182922
 20
91.842427911597
 30
0.0
 11
-336.10483930243
 21
92.6188850680156
 31
0.0
  0
LINE
  5
    A2
  8
0
  6
CONTINUOUS
 62
     7
 10
-317.809283340693
 20
92.6188850680156
 30
0.0
 11
-320.707060813904
 21
91.842427911597
 31
0.0
  0
LINE
  5
    A3
  8
0
  6
CONTINUOUS
 62
     7
 10
-320.707060813904
 20
91.842427911597
 30
0.0
 11
-317.809283340693
 21
91.0659707551785
 31
0.0
  0
ENDBLK
  5
    A4
  8
0
  6
CONTINUOUS
 62
     7
  0
BLOCK
  5
    A5
  8
0
  6
CONTINUOUS
 62
     7
  2
*UDIM606
 70
    65
 10
0.0
 20
0.0
 30
0.0
  3
*UDIM606
  0
TEXT
  5
    A6
  8
0
  6
CONTINUOUS
 62
     7
 10
-324.861241885334
 20
-37.1184597209217
 30
0.0
 40
3.5
  1
45
 50
359.999999844103
 41
0.933333333333333
 72
     1
 11
-321.944575213914
 21
-35.368459728843
 31
0.0
 73
     2
  0
LINE
  5
    A7
  8
0
  6
CONTINUOUS
 62
     7
 10
-333.20706182922
 20
9.9524552822113
 30
0.0
 11
-333.20706182922
 21
-41.118459728843
 31
0.0
  0
LINE
  5
    A8
  8
0
  6
CONTINUOUS
 62
     7
 10
-310.707060813904
 20
-21.0475447177887
 30
0.0
 11
-310.707060813904
 21
-41.118459728843
 31
0.0
  0
LINE
  5
    A9
  8
0
  6
CONTINUOUS
 62
     7
 10
-333.20706182922
 20
-39.118459728843
 30
0.0
 11
-310.707060813904
 21
-39.118459728843
 31
0.0
  0
LINE
  5
    AA
  8
0
  6
CONTINUOUS
 62
     7
 10
-330.309284356009
 20
-38.3420025724244
 30
0.0
 11
-333.20706182922
 21
-39.118459728843
 31
0.0
  0
LINE
  5
    AB
  8
0
  6
CONTINUOUS
 62
     7
 10
-333.20706182922
 20
-39.118459728843
 30
0.0
 11
-330.309284356009
 21
-39.8949168852615
 31
0.0
  0
LINE
  5
    AC
  8
0
  6
CONTINUOUS
 62
     7
 10
-313.604838287114
 20
-39.8949168852615
 30
0.0
 11
-310.707060813904
 21
-39.118459728843
 31
0.0
  0
LINE
  5
    AD
  8
0
  6
CONTINUOUS
 62
     7
 10
-310.707060813904
 20
-39.118459728843
 30
0.0
 11
-313.604838287114
 21
-38.3420025724244
 31
0.0
  0
ENDBLK
  5
    AE
  8
0
  6
CONTINUOUS
 62
     7
  0
BLOCK
  5
    AF
  8
0
  6
CONTINUOUS
 62
     7
  2
*UDIM607
 70
    65
 10
0.0
 20
0.0
 30
0.0
  3
*UDIM607
  0
TEXT
  5
    B0
  8
0
  6
CONTINUOUS
 62
     7
 10
-346.257061519351
 20
-46.9404169390588
 30
0.0
 40
3.00000002980232
  1
3,5
 50
359.999999844103
 41
0.933333333333333
 72
     1
 11
-342.357061476534
 21
-45.4404169347496
 31
0.0
 73
     2
  0
LINE
  5
    B1
  8
0
  6
CONTINUOUS
 62
     7
 10
-334.957061886787
 20
12.9524552822113
 30
0.0
 11
-334.957061886787
 21
-49.9404169496507
 31
0.0
  0
LINE
  5
    B2
  8
0
  6
CONTINUOUS
 62
     7
 10
-333.20706182922
 20
-4.75447177886963E-2
 30
0.0
 11
-333.20706182922
 21
-49.9404169496507
 31
0.0
  0
LINE
  5
    B3
  8
0
  6
CONTINUOUS
 62
     7
 10
-346.257061515277
 20
-47.9404169496507
 30
0.0
 11
-333.20706182922
 21
-47.9404169496507
 31
0.0
  0
LINE
  5
    B4
  8
0
  6
CONTINUOUS
 62
     7
 10
-337.911485163994
 20
-48.4613613796024
 30
0.0
 11
-334.957061886787
 21
-47.9404169496507
 31
0.0
  0
LINE
  5
    B5
  8
0
  6
CONTINUOUS
 62
     7
 10
-334.957061886787
 20
-47.9404169496507
 30
0.0
 11
-337.911485163994
 21
-47.4194725196991
 31
0.0
  0
LINE
  5
    B6
  8
0
  6
CONTINUOUS
 62
     7
 10
-330.252638552013
 20
-47.4194725196991
 30
0.0
 11
-333.20706182922
 21
-47.9404169496507
 31
0.0
  0
LINE
  5
    B7
  8
0
  6
CONTINUOUS
 62
     7
 10
-333.20706182922
 20
-47.9404169496507
 30
0.0
 11
-330.252638552013
 21
-48.4613613796024
 31
0.0
  0
ENDBLK
  5
    B8
  8
0
  6
CONTINUOUS
 62
     7
  0
BLOCK
  5
    B9
  8
0
  6
CONTINUOUS
 62
     7
  2
*UDIM608
 70
    65
 10
0.0
 20
0.0
 30
0.0
  3
*UDIM608
  0
TEXT
  5
    BA
  8
0
  6
CONTINUOUS
 62
     7
 10
-310.382061817374
 20
-46.9404169390588
 30
0.0
 40
3.00000002980232
  1
108
 50
359.999999844103
 41
0.933333333333333
 72
     1
 11
-306.482061774557
 21
-45.4404169347496
 31
0.0
 73
     2
  0
LINE
  5
    BB
  8
0
  6
CONTINUOUS
 62
     7
 10
-279.207061767578
 20
10.8274490731847
 30
0.0
 11
-279.207061767578
 21
-49.9404169496507
 31
0.0
  0
LINE
  5
    BC
  8
0
  6
CONTINUOUS
 62
     7
 10
-333.20706182922
 20
-47.9404169496507
 30
0.0
 11
-279.207061767578
 21
-47.9404169496507
 31
0.0
  0
LINE
  5
    BD
  8
0
  6
CONTINUOUS
 62
     7
 10
-330.252638552013
 20
-47.4194725196991
 30
0.0
 11
-333.20706182922
 21
-47.9404169496507
 31
0.0
  0
LINE
  5
    BE
  8
0
  6
CONTINUOUS
 62
     7
 10
-333.20706182922
 20
-47.9404169496507
 30
0.0
 11
-330.252638552013
 21
-48.4613613796024
 31
0.0
  0
LINE
  5
    BF
  8
0
  6
CONTINUOUS
 62
     7
 10
-282.161485044785
 20
-48.4613613796024
 30
0.0
 11
-279.207061767578
 21
-47.9404169496507
 31
0.0
  0
LINE
  5
    C0
  8
0
  6
CONTINUOUS
 62
     7
 10
-279.207061767578
 20
-47.9404169496507
 30
0.0
 11
-282.161485044785
 21
-47.4194725196991
 31
0.0
  0
ENDBLK
  5
    C1
  8
0
  6
CONTINUOUS
 62
     7
  0
ENDSEC
  0
SECTION
  2
ENTITIES
  0
LINE
  5
    C2
  8
0
  6
CONTINUOUS
 62
     7
 10
-521.074704296666
 20
81.7024552822114
 30
0.0
 11
-536.824704296666
 21
81.7024552822114
 31
0.0
  0
LINE
  5
    C3
  8
0
  6
CONTINUOUS
 62
     7
 10
-553.949701409181
 20
80.3024537563326
 30
0.0
 11
-553.949701409181
 21
81.2024552822115
 31
0.0
  0
LINE
  5
    C4
  8
0
  6
CONTINUOUS
 62
     7
 10
-553.949701409181
 20
80.3024537563326
 30
0.0
 11
-555.199701409181
 21
80.3024537563326
 31
0.0
  0
LINE
  5
    C5
  8
0
  6
CONTINUOUS
 62
     7
 10
-555.19970703125
 20
-1.89754474163034
 30
0.0
 11
-555.19970703125
 21
80.3024537563327
 31
0.0
  0
LINE
  5
    C6
  8
0
  6
CONTINUOUS
 62
     7
 10
-489.824709038576
 20
69.7024552822115
 30
0.0
 11
-500.841445703251
 21
69.7024552822115
 31
0.0
  0
LINE
  5
    C7
  8
0
  6
CONTINUOUS
 62
     7
 10
-550.574701409181
 20
69.7024552822115
 30
0.0
 11
-550.574701409181
 21
71.7024552822114
 31
0.0
  0
LINE
  5
    C8
  8
0
  6
CONTINUOUS
 62
     7
 10
-552.449701170763
 20
73.5774552822114
 30
0.0
 11
-553.9497016476
 21
73.5774552822114
 31
0.0
  0
LINE
  5
    C9
  8
0
  6
CONTINUOUS
 62
     7
 10
-553.949704373017
 20
73.5774552822116
 30
0.0
 11
-553.949704373017
 21
80.3024537563327
 31
0.0
  0
LINE
  5
    CA
  8
0
  6
CONTINUOUS
 62
     7
 10
-489.824701409181
 20
8.70245528221146
 30
0.0
 11
-550.574701409181
 21
8.70245528221146
 31
0.0
  0
LINE
  5
    CB
  8
0
  6
CONTINUOUS
 62
     7
 10
-494.199701409181
 20
8.70245528221147
 30
0.0
 11
-494.199701409181
 21
9.95245528221147
 31
0.0
  0
LINE
  5
    CC
  8
0
  6
CONTINUOUS
 62
     7
 10
-494.449701409181
 20
8.70245528221147
 30
0.0
 11
-494.449701409181
 21
9.95245528221147
 31
0.0
  0
LINE
  5
    CD
  8
0
  6
CONTINUOUS
 62
     7
 10
-498.949701409181
 20
8.70245528221147
 30
0.0
 11
-498.949701409181
 21
9.95245528221147
 31
0.0
  0
LINE
  5
    CE
  8
0
  6
CONTINUOUS
 62
     7
 10
-494.199701409181
 20
9.95245528221146
 30
0.0
 11
-499.199701409181
 21
9.95245528221146
 31
0.0
  0
CIRCLE
  5
    CF
  8
0
  6
CONTINUOUS
 62
     7
 10
-552.449698404005
 20
71.7024585163372
 30
0.0
 40
0.875002904842779
  0
ARC
  5
    D0
  8
0
  6
CONTINUOUS
 62
     7
 10
-552.449687362298
 20
71.7024118197978
 30
0.0
 40
1.87496000544276
 50
269.999551104867
 51
450.000408982336
  0
ARC
  5
    D1
  8
0
  6
CONTINUOUS
 62
     7
 10
-553.449700133713
 20
81.2024558483765
 30
0.0
 40
0.500001995564727
 50
90.0000472185487
 51
180.000478784316
  0
LINE
  5
    D2
  8
0
  6
DASHDOT
 62
     7
 10
-552.449687362298
 20
68.327451814355
 30
0.0
 11
-552.449687362298
 21
75.0773718252405
 31
0.0
  0
LINE
  5
    D3
  8
0
  6
DASHDOT
 62
     7
 10
-549.074727356855
 20
71.7024118197978
 30
0.0
 11
-555.824647367741
 21
71.7024118197978
 31
0.0
  0
LINE
  5
    D4
  8
0
  6
CONTINUOUS
 62
     7
 10
-485.199687502521
 20
69.5774552822115
 30
0.0
 11
-500.862586989578
 21
69.5774552822115
 31
0.0
  0
LINE
  5
    D5
  8
0
  6
CONTINUOUS
 62
     7
 10
-537.199686739583
 20
9.57746720313849
 30
0.0
 11
-537.699686739583
 21
9.57746720313849
 31
0.0
  0
LINE
  5
    D6
  8
0
  6
CONTINUOUS
 62
     7
 10
-485.199694368978
 20
9.57746720313849
 30
0.0
 11
-485.699694368978
 21
9.57746720313849
 31
0.0
  0
LINE
  5
    D7
  8
0
  6
CONTINUOUS
 62
     7
 10
-485.699694242756
 20
9.57746573055385
 30
0.0
 11
-494.199694242756
 21
9.57746573055385
 31
0.0
  0
LINE
  5
    D8
  8
0
  6
CONTINUOUS
 62
     7
 10
-499.199694368978
 20
9.57746672630133
 30
0.0
 11
-511.074686739583
 21
9.57746672630133
 31
0.0
  0
LINE
  5
    D9
  8
0
  6
CONTINUOUS
 62
     7
 10
-511.824686739583
 20
9.57746676298115
 30
0.0
 11
-555.19970703125
 21
9.57746676298115
 31
0.0
  0
LINE
  5
    DA
  8
0
  6
CONTINUOUS
 62
     7
 10
-485.949693892141
 20
64.3274590969068
 30
0.0
 11
-485.949693892141
 21
69.5774667263013
 31
0.0
  0
LINE
  5
    DB
  8
0
  6
CONTINUOUS
 62
     7
 10
-494.199694368978
 20
10.3274667263013
 30
0.0
 11
-499.199694368978
 21
10.3274667263013
 31
0.0
  0
LINE
  5
    DC
  8
0
  6
CONTINUOUS
 62
     7
 10
-494.199694368978
 20
9.07746672630133
 30
0.0
 11
-494.199694368978
 21
10.3274667263013
 31
0.0
  0
ARC
  5
    DD
  8
0
  6
CONTINUOUS
 62
     3
 10
-485.449694368978
 20
64.0774590969068
 30
0.0
 40
0.25
 50
359.999999948034
 51
449.999999948034
  0
LINE
  5
    DE
  8
0
  6
DASHDOT
 62
     7
 10
-511.449686739583
 20
-7.45774642914582
 30
0.0
 11
-511.449686739583
 21
85.8188934411356
 31
0.0
  0
LINE
  5
    DF
  8
0
  6
CONTINUOUS
 62
     7
 10
-511.074686739583
 20
9.45246672630133
 30
0.0
 11
-511.074686739583
 21
9.57746672630133
 31
0.0
  0
LINE
  5
    E0
  8
0
  6
CONTINUOUS
 62
     7
 10
-511.824686739583
 20
9.45246672630133
 30
0.0
 11
-511.824686739583
 21
9.57746672630133
 31
0.0
  0
ARC
  5
    E1
  8
0
  6
CONTINUOUS
 62
     7
 10
-511.449729591417
 20
11.2025655958118
 30
0.0
 40
1.37489930370096
 50
152.967149289834
 51
387.032850606235
  0
ARC
  5
    E2
  8
0
  6
CONTINUOUS
 62
     7
 10
-511.449706058055
 20
9.45245226983414
 30
0.0
 40
0.37497169829528
 50
179.998288849771
 51
360.003191354729
  0
LINE
  5
    E3
  8
0
  6
DASHDOT
 62
     7
 10
-509.442757002919
 20
11.2025655958118
 30
0.0
 11
-513.270595951104
 21
11.2025655958118
 31
0.0
  0
LINE
  5
    E4
  8
0
  6
DASHDOT
 62
     7
 10
-510.678105027106
 20
9.45245226983414
 30
0.0
 11
-512.139643534595
 21
9.45245226983414
 31
0.0
  0
LINE
  5
    E5
  8
0
  6
CONTINUOUS
 62
     7
 10
-506.074686739583
 20
22.9524514675123
 30
0.0
 11
-506.074686739583
 21
42.9524438381177
 31
0.0
  0
LINE
  5
    E6
  8
0
  6
CONTINUOUS
 62
     7
 10
-516.824686739583
 20
22.9524514675123
 30
0.0
 11
-516.824686739583
 21
42.9524438381177
 31
0.0
  0
LINE
  5
    E7
  8
0
  6
CONTINUOUS
 62
     7
 10
-506.074686739583
 20
42.8202111721021
 30
0.0
 11
-516.824686739583
 21
42.8202111721021
 31
0.0
  0
LINE
  5
    E8
  8
0
  6
CONTINUOUS
 62
     7
 10
-506.074686739583
 20
42.9524438381177
 30
0.0
 11
-516.824686739583
 21
42.9524438381177
 31
0.0
  0
LINE
  5
    E9
  8
0
  6
CONTINUOUS
 62
     7
 10
-506.074686739583
 20
22.9524514675123
 30
0.0
 11
-516.824686739583
 21
22.9524514675123
 31
0.0
  0
LINE
  5
    EA
  8
0
  6
CONTINUOUS
 62
     7
 10
-506.074686739583
 20
23.084699392317
 30
0.0
 11
-516.824686739583
 21
23.084699392317
 31
0.0
  0
LINE
  5
    EB
  8
0
  6
CONTINUOUS
 62
     7
 10
-485.199694368978
 20
9.57746573055385
 30
0.0
 11
-485.199694368978
 21
80.3024537563326
 31
0.0
  0
ARC
  5
    EC
  8
0
  6
CONTINUOUS
 62
     7
 10
-485.449686739583
 20
64.0774590969068
 30
0.0
 40
0.25
 50
359.999999948034
 51
449.999999948034
  0
LINE
  5
    ED
  8
0
  6
CONTINUOUS
 62
     7
 10
-499.199694368978
 20
8.70245528221146
 30
0.0
 11
-499.199694368978
 21
10.3274667263013
 31
0.0
  0
LINE
  5
    EE
  8
0
  6
CONTINUOUS
 62
     7
 10
-506.074686739583
 20
30.015111822222
 30
0.0
 11
-516.824686739583
 21
30.015111822222
 31
0.0
  0
LINE
  5
    EF
  8
0
  6
CONTINUOUS
 62
     7
 10
-506.074686739583
 20
26.9568790694135
 30
0.0
 11
-516.824686739583
 21
26.9568790694135
 31
0.0
  0
LINE
  5
    F0
  8
0
  6
CONTINUOUS
 62
     7
 10
-506.074686739583
 20
23.9829697563077
 30
0.0
 11
-516.824686739583
 21
23.9829697563077
 31
0.0
  0
LINE
  5
    F1
  8
0
  6
CONTINUOUS
 62
     7
 10
-506.074686739583
 20
23.5815961924485
 30
0.0
 11
-516.824686739583
 21
23.5815961924485
 31
0.0
  0
ARC
  5
    F2
  8
0
  6
CONTINUOUS
 62
     7
 10
-552.449654526648
 20
71.7024267099015
 30
0.0
 40
1.87505277579048
 50
90.0014244293144
 51
269.998569947076
  0
LINE
  5
    F3
  8
0
  6
CONTINUOUS
 62
     7
 10
-538.574704296666
 20
81.7024552822114
 30
0.0
 11
-553.449701409181
 21
81.7024552822114
 31
0.0
  0
LINE
  5
    F4
  8
0
  6
CONTINUOUS
 62
     7
 10
-536.449704296666
 20
78.4524552822115
 30
0.0
 11
-538.949704296666
 21
78.4524552822115
 31
0.0
  0
CIRCLE
  5
    F5
  8
0
  6
CONTINUOUS
 62
     7
 10
-546.449704101961
 20
79.7024599405796
 30
0.0
 40
0.700002264523652
  0
LINE
  5
    F6
  8
0
  6
CONTINUOUS
 62
     7
 10
-538.574704296666
 20
80.2024552822114
 30
0.0
 11
-538.574704296666
 21
81.7024552822114
 31
0.0
  0
LINE
  5
    F7
  8
0
  6
CONTINUOUS
 62
     7
 10
-536.824704296666
 20
80.2024552822114
 30
0.0
 11
-536.824704296666
 21
81.7024552822114
 31
0.0
  0
LINE
  5
    F8
  8
0
  6
CONTINUOUS
 62
     7
 10
-538.949704296666
 20
78.4524552822115
 30
0.0
 11
-538.949704296666
 21
80.2024552822114
 31
0.0
  0
LINE
  5
    F9
  8
0
  6
CONTINUOUS
 62
     7
 10
-536.449704296666
 20
78.4524552822115
 30
0.0
 11
-536.449704296666
 21
80.2024552822114
 31
0.0
  0
LINE
  5
    FA
  8
0
  6
CONTINUOUS
 62
     7
 10
-536.449704296666
 20
80.2024552822114
 30
0.0
 11
-536.824704296666
 21
80.2024552822114
 31
0.0
  0
LINE
  5
    FB
  8
0
  6
CONTINUOUS
 62
     7
 10
-538.574704296666
 20
80.2024552822114
 30
0.0
 11
-538.949704296666
 21
80.2024552822114
 31
0.0
  0
LINE
  5
    FC
  8
0
  6
DASHDOT
 62
     7
 10
-540.749701837437
 20
79.7024599405796
 30
0.0
 11
-552.149706366485
 21
79.7024599405796
 31
0.0
  0
LINE
  5
    FD
  8
0
  6
DASHDOT
 62
     7
 10
-546.449701714771
 20
67.7024500402761
 30
0.0
 11
-546.449701714771
 21
83.2024514225785
 31
0.0
  0
LINE
  5
    FE
  8
0
  6
DASHDOT
 62
     7
 10
-537.699704296666
 20
66.7024606284736
 30
0.0
 11
-537.699704296666
 21
81.2024537663207
 31
0.0
  0
LINE
  5
    FF
  8
0
  6
DASHDOT
 62
     7
 10
-520.199704296666
 20
66.7024606284736
 30
0.0
 11
-520.199704296666
 21
81.2024537663207
 31
0.0
  0
LINE
  5
   100
  8
0
  6
DASHDOT
 62
     7
 10
-502.699704296666
 20
66.7024606284736
 30
0.0
 11
-502.699704296666
 21
81.2024537663207
 31
0.0
  0
LINE
  5
   101
  8
0
  6
CONTINUOUS
 62
     7
 10
-521.074704296666
 20
80.2024552822114
 30
0.0
 11
-521.074704296666
 21
81.7024552822114
 31
0.0
  0
LINE
  5
   102
  8
0
  6
CONTINUOUS
 62
     7
 10
-521.074704296666
 20
80.2024552822114
 30
0.0
 11
-521.449704296666
 21
80.2024552822114
 31
0.0
  0
LINE
  5
   103
  8
0
  6
CONTINUOUS
 62
     7
 10
-521.449704296666
 20
78.4524552822115
 30
0.0
 11
-521.449704296666
 21
80.2024552822114
 31
0.0
  0
LINE
  5
   104
  8
0
  6
CONTINUOUS
 62
     7
 10
-518.949704296666
 20
78.4524552822115
 30
0.0
 11
-518.949704296666
 21
80.2024552822114
 31
0.0
  0
LINE
  5
   105
  8
0
  6
CONTINUOUS
 62
     7
 10
-518.949704296666
 20
78.4524552822115
 30
0.0
 11
-518.949704296666
 21
80.2024552822114
 31
0.0
  0
LINE
  5
   106
  8
0
  6
CONTINUOUS
 62
     7
 10
-518.949704296666
 20
78.4524552822115
 30
0.0
 11
-518.949704296666
 21
80.2024552822114
 31
0.0
  0
LINE
  5
   107
  8
0
  6
CONTINUOUS
 62
     7
 10
-518.949704296666
 20
78.4524552822115
 30
0.0
 11
-518.949704296666
 21
80.2024552822114
 31
0.0
  0
LINE
  5
   108
  8
0
  6
CONTINUOUS
 62
     7
 10
-518.949704296666
 20
80.2024552822114
 30
0.0
 11
-519.324704296666
 21
80.2024552822114
 31
0.0
  0
LINE
  5
   109
  8
0
  6
CONTINUOUS
 62
     7
 10
-519.324704296666
 20
80.2024552822114
 30
0.0
 11
-519.324704296666
 21
81.7024552822114
 31
0.0
  0
LINE
  5
   10A
  8
0
  6
CONTINUOUS
 62
     7
 10
-501.824704296666
 20
80.2024552822114
 30
0.0
 11
-501.824704296666
 21
81.7024552822114
 31
0.0
  0
LINE
  5
   10B
  8
0
  6
CONTINUOUS
 62
     7
 10
-501.824704296666
 20
80.2024552822114
 30
0.0
 11
-501.824704296666
 21
81.7024552822114
 31
0.0
  0
LINE
  5
   10C
  8
0
  6
CONTINUOUS
 62
     7
 10
-501.449704296666
 20
80.2024552822114
 30
0.0
 11
-501.824704296666
 21
80.2024552822114
 31
0.0
  0
LINE
  5
   10D
  8
0
  6
CONTINUOUS
 62
     7
 10
-501.449704296666
 20
78.4524552822115
 30
0.0
 11
-501.449704296666
 21
80.2024552822114
 31
0.0
  0
LINE
  5
   10E
  8
0
  6
CONTINUOUS
 62
     7
 10
-503.949704296666
 20
78.4524552822115
 30
0.0
 11
-503.949704296666
 21
80.2024552822114
 31
0.0
  0
LINE
  5
   10F
  8
0
  6
CONTINUOUS
 62
     7
 10
-503.949704296666
 20
78.4524552822115
 30
0.0
 11
-503.949704296666
 21
80.2024552822114
 31
0.0
  0
LINE
  5
   110
  8
0
  6
CONTINUOUS
 62
     7
 10
-503.949704296666
 20
78.4524552822115
 30
0.0
 11
-503.949704296666
 21
80.2024552822114
 31
0.0
  0
LINE
  5
   111
  8
0
  6
CONTINUOUS
 62
     7
 10
-503.949704296666
 20
78.4524552822115
 30
0.0
 11
-503.949704296666
 21
80.2024552822114
 31
0.0
  0
LINE
  5
   112
  8
0
  6
CONTINUOUS
 62
     7
 10
-503.949704296666
 20
78.4524552822115
 30
0.0
 11
-503.949704296666
 21
80.2024552822114
 31
0.0
  0
LINE
  5
   113
  8
0
  6
CONTINUOUS
 62
     7
 10
-503.949704296666
 20
78.4524552822115
 30
0.0
 11
-503.949704296666
 21
80.2024552822114
 31
0.0
  0
LINE
  5
   114
  8
0
  6
CONTINUOUS
 62
     7
 10
-503.574704296666
 20
80.2024552822114
 30
0.0
 11
-503.574704296666
 21
81.7024552822114
 31
0.0
  0
LINE
  5
   115
  8
0
  6
CONTINUOUS
 62
     7
 10
-503.574704296666
 20
80.2024552822114
 30
0.0
 11
-503.949704296666
 21
80.2024552822114
 31
0.0
  0
LINE
  5
   116
  8
0
  6
CONTINUOUS
 62
     7
 10
-503.574704296666
 20
81.7024552822114
 30
0.0
 11
-519.324704296666
 21
81.7024552822114
 31
0.0
  0
LINE
  5
   117
  8
0
  6
CONTINUOUS
 62
     7
 10
-518.949704296666
 20
78.4524552822115
 30
0.0
 11
-521.449704296666
 21
78.4524552822115
 31
0.0
  0
LINE
  5
   118
  8
0
  6
CONTINUOUS
 62
     7
 10
-501.449704296666
 20
78.4524552822115
 30
0.0
 11
-503.949704296666
 21
78.4524552822115
 31
0.0
  0
ARC
  5
   119
  8
0
  6
CONTINUOUS
 62
     7
 10
-486.949708459619
 20
81.2024558483765
 30
0.0
 40
0.500001995564727
 50
359.999521111753
 51
449.99995267752
  0
LINE
  5
   11A
  8
0
  6
CONTINUOUS
 62
     7
 10
-486.449704220315
 20
73.5774552822116
 30
0.0
 11
-486.449704220315
 21
80.3024537563327
 31
0.0
  0
LINE
  5
   11B
  8
0
  6
CONTINUOUS
 62
     7
 10
-485.19970718415
 20
80.3024537563326
 30
0.0
 11
-486.44970718415
 21
80.3024537563326
 31
0.0
  0
LINE
  5
   11C
  8
0
  6
CONTINUOUS
 62
     7
 10
-486.449704220315
 20
73.5774552822116
 30
0.0
 11
-486.449704220315
 21
80.3024537563327
 31
0.0
  0
ARC
  5
   11D
  8
0
  6
CONTINUOUS
 62
     7
 10
-486.949708459619
 20
81.2024558483765
 30
0.0
 40
0.500001995564727
 50
359.999521111753
 51
449.99995267752
  0
LINE
  5
   11E
  8
0
  6
CONTINUOUS
 62
     7
 10
-486.449704220315
 20
73.5774552822116
 30
0.0
 11
-486.449704220315
 21
80.3024537563327
 31
0.0
  0
LINE
  5
   11F
  8
0
  6
DASHDOT
 62
     7
 10
-493.949706878561
 20
67.7024500402761
 30
0.0
 11
-493.949706878561
 21
83.2024514225785
 31
0.0
  0
CIRCLE
  5
   120
  8
0
  6
CONTINUOUS
 62
     7
 10
-493.949704491371
 20
79.7024599405796
 30
0.0
 40
0.700002264523652
  0
LINE
  5
   121
  8
0
  6
DASHDOT
 62
     7
 10
-488.249702226847
 20
79.7024599405796
 30
0.0
 11
-499.649706755894
 21
79.7024599405796
 31
0.0
  0
LINE
  5
   122
  8
0
  6
CONTINUOUS
 62
     7
 10
-486.449704220315
 20
73.5774552822116
 30
0.0
 11
-486.449704220315
 21
80.3024537563327
 31
0.0
  0
ARC
  5
   123
  8
0
  6
CONTINUOUS
 62
     7
 10
-487.949754066684
 20
71.7024267099015
 30
0.0
 40
1.87505277579048
 50
270.001429948993
 51
449.998575466754
  0
LINE
  5
   124
  8
0
  6
DASHDOT
 62
     7
 10
-487.949721231034
 20
68.327451814355
 30
0.0
 11
-487.949721231034
 21
75.0773718252405
 31
0.0
  0
ARC
  5
   125
  8
0
  6
CONTINUOUS
 62
     7
 10
-487.949754066684
 20
71.7024267099015
 30
0.0
 40
1.87505277579048
 50
270.001429948993
 51
449.998575466754
  0
LINE
  5
   126
  8
0
  6
DASHDOT
 62
     7
 10
-484.574761225591
 20
71.7024118197978
 30
0.0
 11
-491.324681236476
 21
71.7024118197978
 31
0.0
  0
LINE
  5
   127
  8
0
  6
DASHDOT
 62
     7
 10
-484.574761225591
 20
71.7024118197978
 30
0.0
 11
-491.324681236476
 21
71.7024118197978
 31
0.0
  0
ARC
  5
   128
  8
0
  6
CONTINUOUS
 62
     7
 10
-487.949721231034
 20
71.7024118197978
 30
0.0
 40
1.87496000544276
 50
449.999590913733
 51
630.000448791202
  0
LINE
  5
   129
  8
0
  6
DASHDOT
 62
     7
 10
-484.574761225591
 20
71.7024118197978
 30
0.0
 11
-491.324681236476
 21
71.7024118197978
 31
0.0
  0
CIRCLE
  5
   12A
  8
0
  6
CONTINUOUS
 62
     7
 10
-487.949710189327
 20
71.7024585163372
 30
0.0
 40
0.875002904842779
  0
LINE
  5
   12B
  8
0
  6
CONTINUOUS
 62
     7
 10
-486.449704220315
 20
73.5774552822116
 30
0.0
 11
-486.449704220315
 21
80.3024537563327
 31
0.0
  0
ARC
  5
   12C
  8
0
  6
CONTINUOUS
 62
     7
 10
-487.949754066684
 20
71.7024267099015
 30
0.0
 40
1.87505277579048
 50
270.001429948993
 51
449.998575466754
  0
LINE
  5
   12D
  8
0
  6
CONTINUOUS
 62
     7
 10
-486.449706945732
 20
73.5774552822114
 30
0.0
 11
-487.949707422569
 21
73.5774552822114
 31
0.0
  0
LINE
  5
   12E
  8
0
  6
CONTINUOUS
 62
     7
 10
-489.82470718415
 20
69.7024552822115
 30
0.0
 11
-489.82470718415
 21
71.7024552822114
 31
0.0
  0
LINE
  5
   12F
  8
0
  6
CONTINUOUS
 62
     7
 10
-486.94970718415
 20
81.7024552822114
 30
0.0
 11
-501.824704296666
 21
81.7024552822114
 31
0.0
  0
LINE
  5
   130
  8
0
  6
DASHDOT
 62
     7
 10
-528.949701714771
 20
67.7024500402761
 30
0.0
 11
-528.949701714771
 21
83.2024514225785
 31
0.0
  0
CIRCLE
  5
   131
  8
0
  6
CONTINUOUS
 62
     7
 10
-528.949704101961
 20
79.7024599405796
 30
0.0
 40
0.700002264523652
  0
CIRCLE
  5
   132
  8
0
  6
CONTINUOUS
 62
     7
 10
-511.449704101961
 20
79.7024599405796
 30
0.0
 40
0.700002264523652
  0
LINE
  5
   133
  8
0
  6
DASHDOT
 62
     7
 10
-523.249701837437
 20
79.7024599405796
 30
0.0
 11
-534.649706366485
 21
79.7024599405796
 31
0.0
  0
LINE
  5
   134
  8
0
  6
DASHDOT
 62
     7
 10
-505.749701837437
 20
79.7024599405796
 30
0.0
 11
-517.149706366484
 21
79.7024599405796
 31
0.0
  0
LINE
  5
   135
  8
0
  6
CONTINUOUS
 62
     7
 10
-486.449704220315
 20
80.3024537563327
 30
0.0
 11
-486.449706464071
 21
81.2024516697249
 31
0.0
  0
LINE
  5
   136
  8
0
  6
DASHDOT
 62
     7
 10
-489.067725938713
 20
75.4524552822114
 30
0.0
 11
-499.577074588763
 21
75.4524552822114
 31
0.0
  0
CIRCLE
  5
   137
  8
0
  6
CONTINUOUS
 62
     7
 10
-493.949706878561
 20
75.4524552822114
 30
0.0
 40
2.75
  0
CIRCLE
  5
   138
  8
0
  6
CONTINUOUS
 62
     7
 10
-511.449686739583
 20
75.4524552822114
 30
0.0
 40
2.75
  0
LINE
  5
   139
  8
0
  6
DASHDOT
 62
     7
 10
-506.567705799735
 20
75.4524552822114
 30
0.0
 11
-517.077054449786
 21
75.4524552822114
 31
0.0
  0
CIRCLE
  5
   13A
  8
0
  6
CONTINUOUS
 62
     7
 10
-528.949666600606
 20
75.4524552822114
 30
0.0
 40
2.75
  0
LINE
  5
   13B
  8
0
  6
DASHDOT
 62
     7
 10
-524.067685660758
 20
75.4524552822114
 30
0.0
 11
-534.577034310809
 21
75.4524552822114
 31
0.0
  0
LINE
  5
   13C
  8
0
  6
DASHDOT
 62
     7
 10
-541.56766552178
 20
75.4524552822114
 30
0.0
 11
-552.077014171831
 21
75.4524552822114
 31
0.0
  0
CIRCLE
  5
   13D
  8
0
  6
CONTINUOUS
 62
     7
 10
-546.449646461628
 20
75.4524552822114
 30
0.0
 40
2.75
  0
LINE
  5
   13E
  8
0
  6
DASHDOT
 62
     7
 10
-499.109553439544
 20
73.9524552822115
 30
0.0
 11
-506.082861848319
 21
73.9524552822115
 31
0.0
  0
CIRCLE
  5
   13F
  8
0
  6
CONTINUOUS
 62
     3
 10
-520.199704296666
 20
73.9524552822115
 30
0.0
 40
2.25
  0
CIRCLE
  5
   140
  8
0
  6
CONTINUOUS
 62
     3
 10
-537.699704296666
 20
73.9524552822115
 30
0.0
 40
2.25
  0
LINE
  5
   141
  8
0
  6
DASHDOT
 62
     7
 10
-516.609553439544
 20
73.9524552822115
 30
0.0
 11
-523.582861848319
 21
73.9524552822115
 31
0.0
  0
LINE
  5
   142
  8
0
  6
DASHDOT
 62
     7
 10
-534.109553439544
 20
73.9524552822115
 30
0.0
 11
-541.082861848319
 21
73.9524552822115
 31
0.0
  0
CIRCLE
  5
   143
  8
0
  6
CONTINUOUS
 62
     3
 10
-502.699704296666
 20
73.9524552822115
 30
0.0
 40
2.25
  0
LINE
  5
   144
  8
0
  6
DASHDOT
 62
     7
 10
-500.110443787168
 20
69.9524552822114
 30
0.0
 11
-506.247481971283
 21
69.9524552822114
 31
0.0
  0
CIRCLE
  5
   145
  8
0
  6
CONTINUOUS
 62
     7
 10
-502.699704296666
 20
69.9524552822114
 30
0.0
 40
1.0
  0
ARC
  5
   146
  8
0
  6
CONTINUOUS
 62
     7
 10
-502.699704296666
 20
69.9524552822114
 30
0.0
 40
1.875
 50
179.999999948034
 51
359.999999948034
  0
LINE
  5
   147
  8
0
  6
CONTINUOUS
 62
     7
 10
-500.824704296666
 20
69.9524552822114
 30
0.0
 11
-500.824704296666
 21
72.7087209858281
 31
0.0
  0
LINE
  5
   148
  8
0
  6
CONTINUOUS
 62
     7
 10
-504.574704296666
 20
69.9524552822114
 30
0.0
 11
-504.574704296666
 21
72.7087209858281
 31
0.0
  0
CIRCLE
  5
   149
  8
0
  6
CONTINUOUS
 62
     7
 10
-520.199704296666
 20
73.9524552822115
 30
0.0
 40
2.25
  0
LINE
  5
   14A
  8
0
  6
CONTINUOUS
 62
     7
 10
-518.324704296666
 20
69.9524552822114
 30
0.0
 11
-518.324704296666
 21
72.7087209858281
 31
0.0
  0
CIRCLE
  5
   14B
  8
0
  6
CONTINUOUS
 62
     7
 10
-520.199704296666
 20
69.9524552822114
 30
0.0
 40
1.0
  0
ARC
  5
   14C
  8
0
  6
CONTINUOUS
 62
     7
 10
-520.199704296666
 20
69.9524552822114
 30
0.0
 40
1.875
 50
179.999999948034
 51
359.999999948034
  0
LINE
  5
   14D
  8
0
  6
CONTINUOUS
 62
     7
 10
-522.074704296666
 20
69.9524552822114
 30
0.0
 11
-522.074704296666
 21
72.7087209858281
 31
0.0
  0
LINE
  5
   14E
  8
0
  6
DASHDOT
 62
     7
 10
-517.610443787168
 20
69.9524552822114
 30
0.0
 11
-523.747481971283
 21
69.9524552822114
 31
0.0
  0
LINE
  5
   14F
  8
0
  6
CONTINUOUS
 62
     7
 10
-535.824704296666
 20
69.9524552822114
 30
0.0
 11
-535.824704296666
 21
72.7087209858281
 31
0.0
  0
LINE
  5
   150
  8
0
  6
DASHDOT
 62
     7
 10
-535.110443787168
 20
69.9524552822114
 30
0.0
 11
-541.247481971283
 21
69.9524552822114
 31
0.0
  0
ARC
  5
   151
  8
0
  6
CONTINUOUS
 62
     7
 10
-537.699704296666
 20
69.9524552822114
 30
0.0
 40
1.875
 50
179.999999948034
 51
359.999999948034
  0
CIRCLE
  5
   152
  8
0
  6
CONTINUOUS
 62
     7
 10
-537.699704296666
 20
69.9524552822114
 30
0.0
 40
1.0
  0
LINE
  5
   153
  8
0
  6
CONTINUOUS
 62
     7
 10
-539.574704296666
 20
69.9524552822114
 30
0.0
 11
-539.574704296666
 21
72.7087209858281
 31
0.0
  0
LINE
  5
   154
  8
0
  6
CONTINUOUS
 62
     7
 10
-468.338152678412
 20
-3.29754471778855
 30
0.0
 11
-483.449694368978
 21
-3.29754471778855
 31
0.0
  0
LINE
  5
   155
  8
0
  6
CONTINUOUS
 62
     7
 10
-485.199694368978
 20
-1.89754319190965
 30
0.0
 11
-485.199694368978
 21
59.5373917727504
 31
0.0
  0
LINE
  5
   156
  8
0
  6
CONTINUOUS
 62
     7
 10
-450.199694368978
 20
21.7024552822114
 30
0.0
 11
-485.199694368978
 21
21.7024552822114
 31
0.0
  0
LINE
  5
   157
  8
0
  6
CONTINUOUS
 62
     7
 10
-450.199694368978
 20
44.2024552822114
 30
0.0
 11
-485.199694368978
 21
44.2024552822114
 31
0.0
  0
CIRCLE
  5
   158
  8
0
  6
CONTINUOUS
 62
     7
 10
-457.699694368978
 20
26.6524552822115
 30
0.0
 40
2.5
  0
LINE
  5
   159
  8
0
  6
CONTINUOUS
 62
     7
 10
-463.199694368978
 20
21.7024552822114
 30
0.0
 11
-463.199694368978
 21
33.1524552822115
 31
0.0
  0
LINE
  5
   15A
  8
0
  6
CONTINUOUS
 62
     7
 10
-450.199694368978
 20
33.1524552822115
 30
0.0
 11
-463.199694368978
 21
33.1524552822115
 31
0.0
  0
CIRCLE
  5
   15B
  8
0
  6
CONTINUOUS
 62
     7
 10
-476.449694368978
 20
3.07745528221145
 30
0.0
 40
3.375
  0
CIRCLE
  5
   15C
  8
0
  6
CONTINUOUS
 62
     7
 10
-458.949694368978
 20
3.07745528221145
 30
0.0
 40
3.375
  0
LINE
  5
   15D
  8
0
  6
DASHDOT
 62
     7
 10
-458.949694368978
 20
-1.79754471778855
 30
0.0
 11
-458.949694368978
 21
7.95245528221145
 31
0.0
  0
LINE
  5
   15E
  8
0
  6
DASHDOT
 62
     7
 10
-454.074694368978
 20
3.07745528221145
 30
0.0
 11
-463.824694368978
 21
3.07745528221145
 31
0.0
  0
LINE
  5
   15F
  8
0
  6
DASHDOT
 62
     7
 10
-476.449694368978
 20
-1.79754471778855
 30
0.0
 11
-476.449694368978
 21
7.95245528221145
 31
0.0
  0
LINE
  5
   160
  8
0
  6
DASHDOT
 62
     7
 10
-471.574694368978
 20
3.07745528221145
 30
0.0
 11
-481.324694368978
 21
3.07745528221145
 31
0.0
  0
LINE
  5
   161
  8
0
  6
DASHDOT
 62
     7
 10
-457.699694368978
 20
22.6524552822114
 30
0.0
 11
-457.699694368978
 21
30.6524552822115
 31
0.0
  0
LINE
  5
   162
  8
0
  6
DASHDOT
 62
     7
 10
-453.699694368978
 20
26.6524552822115
 30
0.0
 11
-461.699694368978
 21
26.6524552822115
 31
0.0
  0
CIRCLE
  5
   163
  8
0
  6
CONTINUOUS
 62
     7
 10
-467.699694368978
 20
56.5774552822115
 30
0.0
 40
1.875
  0
CIRCLE
  5
   164
  8
0
  6
CONTINUOUS
 62
     7
 10
-467.699694368978
 20
56.5774552822115
 30
0.0
 40
1.05
  0
CIRCLE
  5
   165
  8
0
  6
CONTINUOUS
 62
     7
 10
-467.699694368978
 20
4.57745528221145
 30
0.0
 40
2.25
  0
CIRCLE
  5
   166
  8
0
  6
CONTINUOUS
 62
     7
 10
-467.699694368978
 20
8.57745528221145
 30
0.0
 40
1.05
  0
ARC
  5
   167
  8
0
  6
CONTINUOUS
 62
     7
 10
-467.699694368978
 20
8.57745528221145
 30
0.0
 40
1.875
 50
359.999999948034
 51
539.999999948034
  0
LINE
  5
   168
  8
0
  6
DASHDOT
 62
     7
 10
-464.324694368978
 20
56.5774552822115
 30
0.0
 11
-471.074694368978
 21
56.5774552822115
 31
0.0
  0
LINE
  5
   169
  8
0
  6
DASHDOT
 62
     7
 10
-467.699694368978
 20
5.20245528221145
 30
0.0
 11
-467.699694368978
 21
11.9524552822114
 31
0.0
  0
LINE
  5
   16A
  8
0
  6
CONTINUOUS
 62
     7
 10
-464.324694368978
 20
8.57745528221145
 30
0.0
 11
-471.074694368978
 21
8.57745528221145
 31
0.0
  0
LINE
  5
   16B
  8
0
  6
DASHDOT
 62
     7
 10
-467.699694368978
 20
-5.35043525363855
 30
0.0
 11
-467.699694368978
 21
8.20245528221145
 31
0.0
  0
LINE
  5
   16C
  8
0
  6
DASHDOT
 62
     7
 10
-463.949694368978
 20
4.57745528221145
 30
0.0
 11
-471.449694368978
 21
4.57745528221145
 31
0.0
  0
LINE
  5
   16D
  8
0
  6
CONTINUOUS
 62
     7
 10
-465.824694368978
 20
5.82118957859472
 30
0.0
 11
-465.824694368978
 21
8.57745528221145
 31
0.0
  0
LINE
  5
   16E
  8
0
  6
CONTINUOUS
 62
     7
 10
-469.574694368978
 20
5.82118957859472
 30
0.0
 11
-469.574694368978
 21
8.57745528221145
 31
0.0
  0
LINE
  5
   16F
  8
0
  6
CONTINUOUS
 62
     7
 10
-450.199694368978
 20
11.8274552822114
 30
0.0
 11
-485.199694368978
 21
11.8274552822114
 31
0.0
  0
LINE
  5
   170
  8
0
  6
CONTINUOUS
 62
     7
 10
-469.557952962392
 20
8.82745528221145
 30
0.0
 11
-485.199694368978
 21
8.82745528221145
 31
0.0
  0
LINE
  5
   171
  8
0
  6
CONTINUOUS
 62
     7
 10
-450.199694368978
 20
8.82745528221145
 30
0.0
 11
-465.841435775563
 21
8.82745528221145
 31
0.0
  0
LINE
  5
   172
  8
0
  6
CONTINUOUS
 62
     7
 10
-478.949694368978
 20
8.82745528221145
 30
0.0
 11
-478.949694368978
 21
11.0774552822114
 31
0.0
  0
LINE
  5
   173
  8
0
  6
CONTINUOUS
 62
     7
 10
-473.949694368978
 20
8.82745528221145
 30
0.0
 11
-473.949694368978
 21
11.0774552822114
 31
0.0
  0
LINE
  5
   174
  8
0
  6
CONTINUOUS
 62
     7
 10
-473.949694368978
 20
11.0774552822114
 30
0.0
 11
-478.949694368978
 21
11.0774552822114
 31
0.0
  0
LINE
  5
   175
  8
0
  6
CONTINUOUS
 62
     7
 10
-466.449694368978
 20
-4.75447177885542E-2
 30
0.0
 11
-468.949694368978
 21
-4.75447177885542E-2
 31
0.0
  0
LINE
  5
   176
  8
0
  6
CONTINUOUS
 62
     7
 10
-468.338152678412
 20
-1.79754471778855
 30
0.0
 11
-468.949694368978
 21
-1.79754471778855
 31
0.0
  0
LINE
  5
   177
  8
0
  6
CONTINUOUS
 62
     7
 10
-466.949694368978
 20
-3.29754471778855
 30
0.0
 11
-466.949694368978
 21
-1.79754471778855
 31
0.0
  0
LINE
  5
   178
  8
0
  6
CONTINUOUS
 62
     7
 10
-468.338152678412
 20
-3.29754471778855
 30
0.0
 11
-468.338152678412
 21
-1.79754471778855
 31
0.0
  0
LINE
  5
   179
  8
0
  6
CONTINUOUS
 62
     7
 10
-466.449694368978
 20
-1.79754471778855
 30
0.0
 11
-466.449694368978
 21
-4.75447177885542E-2
 31
0.0
  0
LINE
  5
   17A
  8
0
  6
CONTINUOUS
 62
     7
 10
-468.949694368978
 20
-1.79754471778855
 30
0.0
 11
-468.949694368978
 21
-4.75447177885542E-2
 31
0.0
  0
LINE
  5
   17B
  8
0
  6
CONTINUOUS
 62
     7
 10
-451.074694368978
 20
-3.29754471778855
 30
0.0
 11
-466.949694368978
 21
-3.29754471778855
 31
0.0
  0
LINE
  5
   17C
  8
0
  6
CONTINUOUS
 62
     7
 10
-466.449694368978
 20
-1.79754471778855
 30
0.0
 11
-466.949694368978
 21
-1.79754471778855
 31
0.0
  0
LINE
  5
   17D
  8
0
  6
CONTINUOUS
 62
     7
 10
-450.199694368978
 20
-4.75447177885542E-2
 30
0.0
 11
-451.449694368978
 21
-4.75447177885542E-2
 31
0.0
  0
LINE
  5
   17E
  8
0
  6
CONTINUOUS
 62
     7
 10
-451.074694368978
 20
-1.44273459763632
 30
0.0
 11
-451.449694368978
 21
-1.44273459763632
 31
0.0
  0
LINE
  5
   17F
  8
0
  6
CONTINUOUS
 62
     7
 10
-451.074694368978
 20
-3.29754471778855
 30
0.0
 11
-451.074694368978
 21
-1.44273459763632
 31
0.0
  0
LINE
  5
   180
  8
0
  6
CONTINUOUS
 62
     7
 10
-451.449694368978
 20
-1.44273459763632
 30
0.0
 11
-451.449694368978
 21
-4.75447177885542E-2
 31
0.0
  0
LINE
  5
   181
  8
0
  6
CONTINUOUS
 62
     7
 10
-450.199694368978
 20
25.9024552822115
 30
0.0
 11
-451.574694368978
 21
25.9024552822115
 31
0.0
  0
LINE
  5
   182
  8
0
  6
CONTINUOUS
 62
     7
 10
-450.199694368978
 20
24.9024552822115
 30
0.0
 11
-451.574694368978
 21
24.9024552822115
 31
0.0
  0
LINE
  5
   183
  8
0
  6
CONTINUOUS
 62
     7
 10
-451.574694368978
 20
24.9024552822115
 30
0.0
 11
-451.574694368978
 21
25.9024552822115
 31
0.0
  0
LINE
  5
   184
  8
0
  6
CONTINUOUS
 62
     7
 10
-450.199694368978
 20
59.2024552822114
 30
0.0
 11
-485.199694368978
 21
59.2024552822114
 31
0.0
  0
LINE
  5
   185
  8
0
  6
CONTINUOUS
 62
     7
 10
-483.949694368978
 20
-2.79754471778855
 30
0.0
 11
-483.949694368978
 21
-1.89754319190965
 31
0.0
  0
ARC
  5
   186
  8
0
  6
CONTINUOUS
 62
     7
 10
-483.449694368978
 20
-2.79754471778855
 30
0.0
 40
0.5
 50
179.999999948034
 51
269.999999948034
  0
ARC
  5
   187
  8
0
  6
CONTINUOUS
 62
     7
 10
-463.199694368978
 20
23.4524552822114
 30
0.0
 40
0.5
 50
269.999999948034
 51
449.999999948034
  0
LINE
  5
   188
  8
0
  6
CONTINUOUS
 62
     7
 10
-416.949694368978
 20
-3.29754471778855
 30
0.0
 11
-432.061236059543
 21
-3.29754471778855
 31
0.0
  0
LINE
  5
   189
  8
0
  6
CONTINUOUS
 62
     7
 10
-415.199694368978
 20
8.82745528221145
 30
0.0
 11
-415.199694368978
 21
59.5373917727504
 31
0.0
  0
LINE
  5
   18A
  8
0
  6
CONTINUOUS
 62
     7
 10
-415.199694368978
 20
21.7024552822114
 30
0.0
 11
-450.199694368978
 21
21.7024552822114
 31
0.0
  0
LINE
  5
   18B
  8
0
  6
CONTINUOUS
 62
     7
 10
-415.199694368978
 20
44.2024552822114
 30
0.0
 11
-450.199694368978
 21
44.2024552822114
 31
0.0
  0
CIRCLE
  5
   18C
  8
0
  6
CONTINUOUS
 62
     7
 10
-442.699694368978
 20
26.6524552822115
 30
0.0
 40
2.5
  0
LINE
  5
   18D
  8
0
  6
CONTINUOUS
 62
     7
 10
-437.199694368978
 20
21.7024552822114
 30
0.0
 11
-437.199694368978
 21
33.1524552822115
 31
0.0
  0
LINE
  5
   18E
  8
0
  6
CONTINUOUS
 62
     7
 10
-437.199694368978
 20
33.1524552822115
 30
0.0
 11
-450.199694368978
 21
33.1524552822115
 31
0.0
  0
CIRCLE
  5
   18F
  8
0
  6
CONTINUOUS
 62
     7
 10
-423.949694368978
 20
3.07745528221145
 30
0.0
 40
3.375
  0
CIRCLE
  5
   190
  8
0
  6
CONTINUOUS
 62
     7
 10
-441.449694368978
 20
3.07745528221145
 30
0.0
 40
3.375
  0
LINE
  5
   191
  8
0
  6
DASHDOT
 62
     7
 10
-441.449694368978
 20
-1.79754471778855
 30
0.0
 11
-441.449694368978
 21
7.95245528221145
 31
0.0
  0
LINE
  5
   192
  8
0
  6
DASHDOT
 62
     7
 10
-436.574694368978
 20
3.07745528221145
 30
0.0
 11
-446.324694368978
 21
3.07745528221145
 31
0.0
  0
LINE
  5
   193
  8
0
  6
DASHDOT
 62
     7
 10
-423.949694368978
 20
-1.79754471778855
 30
0.0
 11
-423.949694368978
 21
7.95245528221145
 31
0.0
  0
LINE
  5
   194
  8
0
  6
DASHDOT
 62
     7
 10
-419.074694368978
 20
3.07745528221145
 30
0.0
 11
-428.824694368978
 21
3.07745528221145
 31
0.0
  0
LINE
  5
   195
  8
0
  6
DASHDOT
 62
     7
 10
-442.699694368978
 20
22.6524552822114
 30
0.0
 11
-442.699694368978
 21
30.6524552822115
 31
0.0
  0
LINE
  5
   196
  8
0
  6
DASHDOT
 62
     7
 10
-423.954066173414
 20
26.6524552822115
 30
0.0
 11
-446.699694368978
 21
26.6524552822115
 31
0.0
  0
CIRCLE
  5
   197
  8
0
  6
CONTINUOUS
 62
     7
 10
-432.699694368978
 20
56.5774552822115
 30
0.0
 40
1.875
  0
CIRCLE
  5
   198
  8
0
  6
CONTINUOUS
 62
     7
 10
-432.699694368978
 20
56.5774552822115
 30
0.0
 40
1.05
  0
CIRCLE
  5
   199
  8
0
  6
CONTINUOUS
 62
     7
 10
-432.699694368978
 20
4.57745528221145
 30
0.0
 40
2.25
  0
CIRCLE
  5
   19A
  8
0
  6
CONTINUOUS
 62
     7
 10
-432.699694368978
 20
8.57745528221145
 30
0.0
 40
1.05
  0
ARC
  5
   19B
  8
0
  6
CONTINUOUS
 62
     7
 10
-432.699694368978
 20
8.57745528221145
 30
0.0
 40
1.875
 50
359.999999948034
 51
539.999999948034
  0
LINE
  5
   19C
  8
0
  6
DASHDOT
 62
     7
 10
-432.699694368978
 20
53.2024552822114
 30
0.0
 11
-432.699694368978
 21
62.701667591013
 31
0.0
  0
LINE
  5
   19D
  8
0
  6
DASHDOT
 62
     7
 10
-429.324694368978
 20
56.5774552822115
 30
0.0
 11
-436.074694368978
 21
56.5774552822115
 31
0.0
  0
LINE
  5
   19E
  8
0
  6
DASHDOT
 62
     7
 10
-432.699694368978
 20
5.20245528221145
 30
0.0
 11
-432.699694368978
 21
11.9524552822114
 31
0.0
  0
LINE
  5
   19F
  8
0
  6
DASHDOT
 62
     7
 10
-429.324694368978
 20
8.57745528221145
 30
0.0
 11
-436.074694368978
 21
8.57745528221145
 31
0.0
  0
LINE
  5
   1A0
  8
0
  6
DASHDOT
 62
     7
 10
-432.699694368978
 20
-5.35043525363855
 30
0.0
 11
-432.699694368978
 21
8.20245528221145
 31
0.0
  0
LINE
  5
   1A1
  8
0
  6
DASHDOT
 62
     7
 10
-428.949694368978
 20
4.57745528221145
 30
0.0
 11
-436.449694368978
 21
4.57745528221145
 31
0.0
  0
LINE
  5
   1A2
  8
0
  6
CONTINUOUS
 62
     7
 10
-434.574694368978
 20
5.82118957859472
 30
0.0
 11
-434.574694368978
 21
8.57745528221145
 31
0.0
  0
LINE
  5
   1A3
  8
0
  6
CONTINUOUS
 62
     7
 10
-430.824694368978
 20
5.82118957859472
 30
0.0
 11
-430.824694368978
 21
8.57745528221145
 31
0.0
  0
LINE
  5
   1A4
  8
0
  6
CONTINUOUS
 62
     7
 10
-415.199694368978
 20
11.8274552822114
 30
0.0
 11
-450.199694368978
 21
11.8274552822114
 31
0.0
  0
LINE
  5
   1A5
  8
0
  6
CONTINUOUS
 62
     7
 10
-415.199694368978
 20
8.82745528221145
 30
0.0
 11
-430.841435775563
 21
8.82745528221145
 31
0.0
  0
LINE
  5
   1A6
  8
0
  6
CONTINUOUS
 62
     7
 10
-434.557952962393
 20
8.82745528221145
 30
0.0
 11
-450.199694368978
 21
8.82745528221145
 31
0.0
  0
LINE
  5
   1A7
  8
0
  6
CONTINUOUS
 62
     7
 10
-421.449694368978
 20
8.82745528221145
 30
0.0
 11
-421.449694368978
 21
11.0774552822114
 31
0.0
  0
LINE
  5
   1A8
  8
0
  6
CONTINUOUS
 62
     7
 10
-426.449694368978
 20
8.82745528221145
 30
0.0
 11
-426.449694368978
 21
11.0774552822114
 31
0.0
  0
LINE
  5
   1A9
  8
0
  6
CONTINUOUS
 62
     7
 10
-421.449694368978
 20
11.0774552822114
 30
0.0
 11
-426.449694368978
 21
11.0774552822114
 31
0.0
  0
LINE
  5
   1AA
  8
0
  6
CONTINUOUS
 62
     7
 10
-431.449694368978
 20
-4.75447177885542E-2
 30
0.0
 11
-433.949694368978
 21
-4.75447177885542E-2
 31
0.0
  0
LINE
  5
   1AB
  8
0
  6
CONTINUOUS
 62
     7
 10
-431.449694368978
 20
-1.79754471778855
 30
0.0
 11
-432.061236059543
 21
-1.79754471778855
 31
0.0
  0
LINE
  5
   1AC
  8
0
  6
CONTINUOUS
 62
     7
 10
-433.449694368978
 20
-3.29754471778855
 30
0.0
 11
-433.449694368978
 21
-1.79754471778855
 31
0.0
  0
LINE
  5
   1AD
  8
0
  6
CONTINUOUS
 62
     7
 10
-432.061236059543
 20
-3.29754471778855
 30
0.0
 11
-432.061236059543
 21
-1.79754471778855
 31
0.0
  0
LINE
  5
   1AE
  8
0
  6
CONTINUOUS
 62
     7
 10
-433.949694368978
 20
-1.79754471778855
 30
0.0
 11
-433.949694368978
 21
-4.75447177885542E-2
 31
0.0
  0
LINE
  5
   1AF
  8
0
  6
CONTINUOUS
 62
     7
 10
-431.449694368978
 20
-1.79754471778855
 30
0.0
 11
-431.449694368978
 21
-4.75447177885542E-2
 31
0.0
  0
LINE
  5
   1B0
  8
0
  6
CONTINUOUS
 62
     7
 10
-433.449694368978
 20
-3.29754471778855
 30
0.0
 11
-449.324694368978
 21
-3.29754471778855
 31
0.0
  0
LINE
  5
   1B1
  8
0
  6
CONTINUOUS
 62
     7
 10
-433.449694368978
 20
-1.79754471778855
 30
0.0
 11
-433.949694368978
 21
-1.79754471778855
 31
0.0
  0
LINE
  5
   1B2
  8
0
  6
CONTINUOUS
 62
     7
 10
-448.949694368978
 20
-4.75447177885542E-2
 30
0.0
 11
-450.199694368978
 21
-4.75447177885542E-2
 31
0.0
  0
LINE
  5
   1B3
  8
0
  6
CONTINUOUS
 62
     7
 10
-448.949694368978
 20
-1.44273459763632
 30
0.0
 11
-449.324694368978
 21
-1.44273459763632
 31
0.0
  0
LINE
  5
   1B4
  8
0
  6
CONTINUOUS
 62
     7
 10
-449.324694368978
 20
-3.29754471778855
 30
0.0
 11
-449.324694368978
 21
-1.44273459763632
 31
0.0
  0
LINE
  5
   1B5
  8
0
  6
CONTINUOUS
 62
     7
 10
-448.949694368978
 20
-1.44273459763632
 30
0.0
 11
-448.949694368978
 21
-4.75447177885542E-2
 31
0.0
  0
LINE
  5
   1B6
  8
0
  6
CONTINUOUS
 62
     7
 10
-448.824694368978
 20
25.9024552822115
 30
0.0
 11
-450.199694368978
 21
25.9024552822115
 31
0.0
  0
LINE
  5
   1B7
  8
0
  6
CONTINUOUS
 62
     7
 10
-448.824694368978
 20
24.9024552822115
 30
0.0
 11
-450.199694368978
 21
24.9024552822115
 31
0.0
  0
LINE
  5
   1B8
  8
0
  6
CONTINUOUS
 62
     7
 10
-448.824694368978
 20
24.9024552822115
 30
0.0
 11
-448.824694368978
 21
25.9024552822115
 31
0.0
  0
LINE
  5
   1B9
  8
0
  6
CONTINUOUS
 62
     7
 10
-415.199694368978
 20
59.2024552822114
 30
0.0
 11
-450.199694368978
 21
59.2024552822114
 31
0.0
  0
LINE
  5
   1BA
  8
0
  6
CONTINUOUS
 62
     7
 10
-416.449694368978
 20
-2.79754471778855
 30
0.0
 11
-416.449694368978
 21
-1.89754319190965
 31
0.0
  0
ARC
  5
   1BB
  8
0
  6
CONTINUOUS
 62
     7
 10
-416.949694368978
 20
-2.79754471778855
 30
0.0
 40
0.5
 50
269.999999948034
 51
359.999999948034
  0
ARC
  5
   1BC
  8
0
  6
CONTINUOUS
 62
     7
 10
-437.199694368978
 20
23.4524552822114
 30
0.0
 40
0.5
 50
89.9999999480344
 51
269.999999948034
  0
CIRCLE
  5
   1BD
  8
0
  6
CONTINUOUS
 62
     7
 10
-427.699694368978
 20
34.7524552822115
 30
0.0
 40
2.25
  0
CIRCLE
  5
   1BE
  8
0
  6
CONTINUOUS
 62
     7
 10
-434.699694368978
 20
34.7524552822115
 30
0.0
 40
1.0
  0
LINE
  5
   1BF
  8
0
  6
DASHDOT
 62
     7
 10
-427.699694368978
 20
24.1703309424143
 30
0.0
 11
-427.699694368978
 21
38.5024552822115
 31
0.0
  0
LINE
  5
   1C0
  8
0
  6
DASHDOT
 62
     7
 10
-423.949694368978
 20
34.7524552822115
 30
0.0
 11
-431.449694368978
 21
34.7524552822115
 31
0.0
  0
LINE
  5
   1C1
  8
0
  6
CONTINUOUS
 62
     7
 10
-425.074694368978
 20
25.2774552822114
 30
0.0
 11
-425.074694368978
 21
28.0274552822114
 31
0.0
  0
LINE
  5
   1C2
  8
0
  6
CONTINUOUS
 62
     7
 10
-430.324694368978
 20
25.2774552822114
 30
0.0
 11
-430.324694368978
 21
28.0274552822114
 31
0.0
  0
LINE
  5
   1C3
  8
0
  6
CONTINUOUS
 62
     7
 10
-425.074694368978
 20
28.0274552822114
 30
0.0
 11
-430.324694368978
 21
28.0274552822114
 31
0.0
  0
LINE
  5
   1C4
  8
0
  6
CONTINUOUS
 62
     7
 10
-425.074694368978
 20
25.2774552822114
 30
0.0
 11
-430.324694368978
 21
25.2774552822114
 31
0.0
  0
LINE
  5
   1C5
  8
0
  6
DASHDOT
 62
     7
 10
-434.699694368978
 20
32.2524552822115
 30
0.0
 11
-434.699694368978
 21
37.2524552822115
 31
0.0
  0
LINE
  5
   1C6
  8
0
  6
DASHDOT
 62
     7
 10
-432.199694368978
 20
34.7524552822115
 30
0.0
 11
-437.199694368978
 21
34.7524552822115
 31
0.0
  0
LINE
  5
   1C7
  8
0
  6
CONTINUOUS
 62
     7
 10
-415.699694368978
 20
21.7024552822114
 30
0.0
 11
-415.699694368978
 21
44.2024552822114
 31
0.0
  0
LINE
  5
   1C8
  8
0
  6
CONTINUOUS
 62
     7
 10
-467.624694368978
 20
10.450954681731
 30
0.0
 11
-467.624694368978
 21
54.7039558826919
 31
0.0
  0
LINE
  5
   1C9
  8
0
  6
CONTINUOUS
 62
     7
 10
-468.524694368978
 20
10.2612011062597
 30
0.0
 11
-468.524694368978
 21
54.8937094581632
 31
0.0
  0
LINE
  5
   1CA
  8
0
  6
CONTINUOUS
 62
     7
 10
-469.424694368978
 20
9.31230220504637
 30
0.0
 11
-469.424694368978
 21
55.8426083593765
 31
0.0
  0
LINE
  5
   1CB
  8
0
  6
CONTINUOUS
 62
     7
 10
-470.324694368978
 20
8.82745528221145
 30
0.0
 11
-470.324694368978
 21
64.3274552822114
 31
0.0
  0
LINE
  5
   1CC
  8
0
  6
CONTINUOUS
 62
     7
 10
-471.224694368978
 20
8.82745528221145
 30
0.0
 11
-471.224694368978
 21
64.3274552822114
 31
0.0
  0
LINE
  5
   1CD
  8
0
  6
CONTINUOUS
 62
     7
 10
-472.124694368978
 20
8.82745528221145
 30
0.0
 11
-472.124694368978
 21
64.3274552822114
 31
0.0
  0
LINE
  5
   1CE
  8
0
  6
CONTINUOUS
 62
     7
 10
-473.024694368978
 20
8.82745528221145
 30
0.0
 11
-473.024694368978
 21
64.3274552822114
 31
0.0
  0
LINE
  5
   1CF
  8
0
  6
CONTINUOUS
 62
     7
 10
-473.924694368978
 20
11.0774552822114
 30
0.0
 11
-473.924694368978
 21
64.3274552822114
 31
0.0
  0
LINE
  5
   1D0
  8
0
  6
CONTINUOUS
 62
     7
 10
-474.824694368978
 20
11.0774552822114
 30
0.0
 11
-474.824694368978
 21
64.3274552822114
 31
0.0
  0
LINE
  5
   1D1
  8
0
  6
CONTINUOUS
 62
     7
 10
-475.724694368978
 20
11.0774552822114
 30
0.0
 11
-475.724694368978
 21
64.3274552822114
 31
0.0
  0
LINE
  5
   1D2
  8
0
  6
CONTINUOUS
 62
     7
 10
-476.624694368978
 20
11.0774552822114
 30
0.0
 11
-476.624694368978
 21
60.5313416863856
 31
0.0
  0
LINE
  5
   1D3
  8
0
  6
CONTINUOUS
 62
     7
 10
-477.524694368978
 20
11.0774552822114
 30
0.0
 11
-477.524694368978
 21
60.087699756895
 31
0.0
  0
LINE
  5
   1D4
  8
0
  6
CONTINUOUS
 62
     7
 10
-478.424694368978
 20
11.0774552822114
 30
0.0
 11
-478.424694368978
 21
60.2642952024614
 31
0.0
  0
LINE
  5
   1D5
  8
0
  6
CONTINUOUS
 62
     7
 10
-479.324694368978
 20
8.82745528221145
 30
0.0
 11
-479.324694368978
 21
64.3274552822114
 31
0.0
  0
LINE
  5
   1D6
  8
0
  6
CONTINUOUS
 62
     7
 10
-480.224694368978
 20
8.82745528221145
 30
0.0
 11
-480.224694368978
 21
64.3274552822114
 31
0.0
  0
LINE
  5
   1D7
  8
0
  6
CONTINUOUS
 62
     7
 10
-481.124694368978
 20
8.82745528221145
 30
0.0
 11
-481.124694368978
 21
64.3274552822114
 31
0.0
  0
LINE
  5
   1D8
  8
0
  6
CONTINUOUS
 62
     7
 10
-482.024694368978
 20
8.82745528221145
 30
0.0
 11
-482.024694368978
 21
64.3274552822114
 31
0.0
  0
LINE
  5
   1D9
  8
0
  6
CONTINUOUS
 62
     7
 10
-482.924694368978
 20
8.82745528221145
 30
0.0
 11
-482.924694368978
 21
64.3274552822114
 31
0.0
  0
LINE
  5
   1DA
  8
0
  6
CONTINUOUS
 62
     7
 10
-483.824694368978
 20
8.82745528221145
 30
0.0
 11
-483.824694368978
 21
64.3274552822114
 31
0.0
  0
LINE
  5
   1DB
  8
0
  6
CONTINUOUS
 62
     7
 10
-468.524694368978
 20
58.2612011062597
 30
0.0
 11
-468.524694368978
 21
64.3274552822114
 31
0.0
  0
LINE
  5
   1DC
  8
0
  6
CONTINUOUS
 62
     7
 10
-469.424694368978
 20
57.3123022050464
 30
0.0
 11
-469.424694368978
 21
64.3274552822114
 31
0.0
  0
LINE
  5
   1DD
  8
0
  6
CONTINUOUS
 62
     7
 10
-467.624694368978
 20
58.450954681731
 30
0.0
 11
-467.624694368978
 21
64.3274552822114
 31
0.0
  0
LINE
  5
   1DE
  8
0
  6
CONTINUOUS
 62
     7
 10
-434.60445696532
 20
3.37979946705585
 30
0.0
 11
-431.502038553822
 21
6.48221787855357
 31
0.0
  0
LINE
  5
   1DF
  8
0
  6
CONTINUOUS
 62
     7
 10
-433.897350184133
 20
2.67269268586931
 30
0.0
 11
-430.794931772636
 21
5.77511109736704
 31
0.0
  0
LINE
  5
   1E0
  8
0
  6
CONTINUOUS
 62
     7
 10
-434.60445696532
 20
3.37979946705578
 30
0.0
 11
-431.502038553822
 21
6.48221787855351
 31
0.0
  0
LINE
  5
   1E1
  8
0
  6
CONTINUOUS
 62
     7
 10
-434.60445696532
 20
3.37979946705575
 30
0.0
 11
-431.502038553822
 21
6.48221787855348
 31
0.0
  0
LINE
  5
   1E2
  8
0
  6
CONTINUOUS
 62
     7
 10
-434.60445696532
 20
3.37979946705573
 30
0.0
 11
-431.502038553822
 21
6.48221787855345
 31
0.0
  0
LINE
  5
   1E3
  8
0
  6
DASHDOT
 62
     7
 10
-463.949694368978
 20
4.57745528221145
 30
0.0
 11
-471.449694368978
 21
4.57745528221145
 31
0.0
  0
LINE
  5
   1E4
  8
0
  6
CONTINUOUS
 62
     7
 10
-469.60445696532
 20
3.37979946705572
 30
0.0
 11
-466.502038553822
 21
6.48221787855344
 31
0.0
  0
LINE
  5
   1E5
  8
0
  6
CONTINUOUS
 62
     7
 10
-468.897350184133
 20
2.67269268586929
 30
0.0
 11
-465.794931772635
 21
5.77511109736702
 31
0.0
  0
LINE
  5
   1E6
  8
0
  6
CONTINUOUS
 62
     7
 10
-504.604466893008
 20
72.7547994670557
 30
0.0
 11
-501.50204848151
 21
75.8572178785535
 31
0.0
  0
LINE
  5
   1E7
  8
0
  6
CONTINUOUS
 62
     7
 10
-503.897360111821
 20
72.0476926858693
 30
0.0
 11
-500.794941700324
 21
75.150111097367
 31
0.0
  0
LINE
  5
   1E8
  8
0
  6
CONTINUOUS
 62
     7
 10
-538.897360111821
 20
72.0476926858693
 30
0.0
 11
-535.794941700324
 21
75.150111097367
 31
0.0
  0
LINE
  5
   1E9
  8
0
  6
CONTINUOUS
 62
     7
 10
-539.604466893008
 20
72.7547994670557
 30
0.0
 11
-536.50204848151
 21
75.8572178785534
 31
0.0
  0
LINE
  5
   1EA
  8
0
  6
CONTINUOUS
 62
     7
 10
-485.199694368978
 20
64.3274552822114
 30
0.0
 11
-555.19970703125
 21
64.3274552822114
 31
0.0
  0
LINE
  5
   1EB
  8
0
  6
CONTINUOUS
 62
     7
 10
-485.199694368978
 20
11.8274552822114
 30
0.0
 11
-555.19970703125
 21
11.8274552822114
 31
0.0
  0
LINE
  5
   1EC
  8
0
  6
CONTINUOUS
 62
     7
 10
-537.624686739583
 20
11.8274552822114
 30
0.0
 11
-537.624686739583
 21
64.3274552822114
 31
0.0
  0
LINE
  5
   1ED
  8
0
  6
CONTINUOUS
 62
     7
 10
-538.524686739583
 20
11.8274552822114
 30
0.0
 11
-538.524686739583
 21
64.3274552822114
 31
0.0
  0
LINE
  5
   1EE
  8
0
  6
CONTINUOUS
 62
     7
 10
-539.424686739583
 20
11.8274552822114
 30
0.0
 11
-539.424686739583
 21
64.3274552822114
 31
0.0
  0
LINE
  5
   1EF
  8
0
  6
CONTINUOUS
 62
     7
 10
-540.324686739583
 20
11.8274552822114
 30
0.0
 11
-540.324686739583
 21
64.3274552822114
 31
0.0
  0
LINE
  5
   1F0
  8
0
  6
CONTINUOUS
 62
     7
 10
-541.224686739583
 20
11.8274552822114
 30
0.0
 11
-541.224686739583
 21
64.3274552822114
 31
0.0
  0
LINE
  5
   1F1
  8
0
  6
CONTINUOUS
 62
     7
 10
-542.124686739583
 20
11.8274552822114
 30
0.0
 11
-542.124686739583
 21
64.3274552822114
 31
0.0
  0
LINE
  5
   1F2
  8
0
  6
CONTINUOUS
 62
     7
 10
-543.024686739583
 20
11.8274552822114
 30
0.0
 11
-543.024686739583
 21
64.3274552822114
 31
0.0
  0
LINE
  5
   1F3
  8
0
  6
CONTINUOUS
 62
     7
 10
-543.924686739583
 20
11.8274552822114
 30
0.0
 11
-543.924686739583
 21
64.3274552822114
 31
0.0
  0
LINE
  5
   1F4
  8
0
  6
CONTINUOUS
 62
     7
 10
-544.824686739583
 20
11.8274552822114
 30
0.0
 11
-544.824686739583
 21
64.3274552822114
 31
0.0
  0
LINE
  5
   1F5
  8
0
  6
CONTINUOUS
 62
     7
 10
-545.724686739583
 20
11.8274552822114
 30
0.0
 11
-545.724686739583
 21
64.3274552822114
 31
0.0
  0
LINE
  5
   1F6
  8
0
  6
CONTINUOUS
 62
     7
 10
-546.624686739583
 20
11.8274552822114
 30
0.0
 11
-546.624686739583
 21
64.3274552822114
 31
0.0
  0
LINE
  5
   1F7
  8
0
  6
CONTINUOUS
 62
     7
 10
-547.524686739583
 20
11.8274552822114
 30
0.0
 11
-547.524686739583
 21
64.3274552822114
 31
0.0
  0
LINE
  5
   1F8
  8
0
  6
CONTINUOUS
 62
     7
 10
-548.424686739583
 20
11.8274552822114
 30
0.0
 11
-548.424686739583
 21
64.3274552822114
 31
0.0
  0
LINE
  5
   1F9
  8
0
  6
CONTINUOUS
 62
     7
 10
-549.324686739583
 20
11.8274552822114
 30
0.0
 11
-549.324686739583
 21
64.3274552822114
 31
0.0
  0
LINE
  5
   1FA
  8
0
  6
CONTINUOUS
 62
     7
 10
-550.224686739583
 20
11.8274552822114
 30
0.0
 11
-550.224686739583
 21
64.3274552822114
 31
0.0
  0
LINE
  5
   1FB
  8
0
  6
CONTINUOUS
 62
     7
 10
-551.124686739583
 20
11.8274552822114
 30
0.0
 11
-551.124686739583
 21
64.3274552822114
 31
0.0
  0
LINE
  5
   1FC
  8
0
  6
CONTINUOUS
 62
     7
 10
-552.024686739583
 20
11.8274552822114
 30
0.0
 11
-552.024686739583
 21
64.3274552822114
 31
0.0
  0
LINE
  5
   1FD
  8
0
  6
CONTINUOUS
 62
     7
 10
-552.924686739583
 20
11.8274552822114
 30
0.0
 11
-552.924686739583
 21
64.3274552822114
 31
0.0
  0
LINE
  5
   1FE
  8
0
  6
CONTINUOUS
 62
     7
 10
-553.824686739583
 20
11.8274552822114
 30
0.0
 11
-553.824686739583
 21
64.3274552822114
 31
0.0
  0
LINE
  5
   1FF
  8
0
  6
CONTINUOUS
 62
     7
 10
-485.199694368978
 20
44.2024552822114
 30
0.0
 11
-555.19970703125
 21
44.2024552822114
 31
0.0
  0
LINE
  5
   200
  8
0
  6
CONTINUOUS
 62
     7
 10
-485.199694368978
 20
21.7024552822114
 30
0.0
 11
-555.19970703125
 21
21.7024552822114
 31
0.0
  0
LINE
  5
   201
  8
0
  6
CONTINUOUS
 62
     7
 10
-516.824686739583
 20
25.2024552822114
 30
0.0
 11
-537.624686739583
 21
25.2024552822114
 31
0.0
  0
LINE
  5
   202
  8
0
  6
CONTINUOUS
 62
     7
 10
-485.199694368978
 20
25.2024552822114
 30
0.0
 11
-506.074686739583
 21
25.2024552822114
 31
0.0
  0
LINE
  5
   203
  8
0
  6
CONTINUOUS
 62
     7
 10
-485.199694368978
 20
25.7024552822114
 30
0.0
 11
-506.074686739583
 21
25.7024552822114
 31
0.0
  0
LINE
  5
   204
  8
0
  6
CONTINUOUS
 62
     7
 10
-516.824686739583
 20
25.7024552822114
 30
0.0
 11
-537.624686739583
 21
25.7024552822114
 31
0.0
  0
LINE
  5
   205
  8
0
  6
CONTINUOUS
 62
     7
 10
-516.824686739583
 20
40.7024552822114
 30
0.0
 11
-537.624686739583
 21
40.7024552822114
 31
0.0
  0
LINE
  5
   206
  8
0
  6
CONTINUOUS
 62
     7
 10
-485.199694368978
 20
40.7024552822114
 30
0.0
 11
-506.074686739583
 21
40.7024552822114
 31
0.0
  0
LINE
  5
   207
  8
0
  6
CONTINUOUS
 62
     7
 10
-485.199694368978
 20
40.2024552822115
 30
0.0
 11
-506.074686739583
 21
40.2024552822115
 31
0.0
  0
LINE
  5
   208
  8
0
  6
CONTINUOUS
 62
     7
 10
-516.824686739583
 20
40.2831498484367
 30
0.0
 11
-537.624686739583
 21
40.2831498484367
 31
0.0
  0
LINE
  5
   209
  8
0
  6
CONTINUOUS
 62
     7
 10
-487.699686739583
 20
22.2024552822114
 30
0.0
 11
-493.699686739583
 21
22.2024552822114
 31
0.0
  0
LINE
  5
   20A
  8
0
  6
CONTINUOUS
 62
     7
 10
-487.699686739583
 20
24.7024552822114
 30
0.0
 11
-493.699686739583
 21
24.7024552822114
 31
0.0
  0
LINE
  5
   20B
  8
0
  6
CONTINUOUS
 62
     7
 10
-487.699686739583
 20
22.2024552822114
 30
0.0
 11
-487.699686739583
 21
24.7024552822114
 31
0.0
  0
LINE
  5
   20C
  8
0
  6
CONTINUOUS
 62
     7
 10
-493.699686739583
 20
22.2024552822114
 30
0.0
 11
-493.699686739583
 21
24.7024552822114
 31
0.0
  0
LINE
  5
   20D
  8
0
  6
CONTINUOUS
 62
     7
 10
-485.199694368978
 20
41.2024552822114
 30
0.0
 11
-506.074686739583
 21
41.2024552822114
 31
0.0
  0
LINE
  5
   20E
  8
0
  6
CONTINUOUS
 62
     7
 10
-516.824686739583
 20
41.2024552822114
 30
0.0
 11
-537.624686739583
 21
41.2024552822114
 31
0.0
  0
INSERT
  5
   20F
  8
255
  6
CONTINUOUS
 62
     7
  2
$1ABB
 10
-535.356925964918
 20
41.871490117376
 30
0.0
 41
0.5
 42
0.5
 50
4.03638109323081E-14
 43
0.5
  0
INSERT
  5
   210
  8
255
  6
CONTINUOUS
 62
     7
  2
$2SACE
 10
-494.624451679788
 20
41.9749552822114
 30
0.0
 41
0.5
 42
0.5
 50
359.999999792138
 43
0.5
  0
LINE
  5
   211
  8
0
  6
CONTINUOUS
 62
     7
 10
-486.889550835817
 20
43.4749552822114
 30
0.0
 11
-487.774451938577
 21
43.4749552822114
 31
0.0
  0
ARC
  5
   212
  8
0
  6
CONTINUOUS
 62
     7
 10
-487.339550835817
 20
42.4249552822115
 30
0.0
 40
0.450000000000017
 50
189.594068174905
 51
359.999999948034
  0
ARC
  5
   213
  8
0
  6
CONTINUOUS
 62
     7
 10
-487.339550835817
 20
42.4249552822115
 30
0.0
 40
0.200000000000017
 50
202.024312785051
 51
359.999999948034
  0
LINE
  5
   214
  8
0
  6
CONTINUOUS
 62
     7
 10
-487.524955797995
 20
42.3499552822114
 30
0.0
 11
-487.78325681955
 21
42.3499552822114
 31
0.0
  0
ARC
  5
   215
  8
0
  6
CONTINUOUS
 62
     7
 10
-487.339550835817
 20
42.5249552822115
 30
0.0
 40
0.45
 50
359.999999948034
 51
422.885249942103
  0
LINE
  5
   216
  8
0
  6
CONTINUOUS
 62
     7
 10
-486.889550835817
 20
42.4249552822118
 30
0.0
 11
-486.889550835817
 21
42.5249552822115
 31
0.0
  0
ARC
  5
   217
  8
0
  6
CONTINUOUS
 62
     7
 10
-487.339550835817
 20
42.5249552822115
 30
0.0
 40
0.2
 50
359.999999948034
 51
511.402200695798
  0
LINE
  5
   218
  8
0
  6
CONTINUOUS
 62
     7
 10
-487.139550835817
 20
42.4249552822118
 30
0.0
 11
-487.139550835817
 21
42.5249552822118
 31
0.0
  0
LINE
  5
   219
  8
0
  6
CONTINUOUS
 62
     7
 10
-488.326951938577
 20
41.9749552822114
 30
0.0
 11
-488.551951938577
 21
41.9749552822114
 31
0.0
  0
LINE
  5
   21A
  8
0
  6
CONTINUOUS
 62
     7
 10
-488.326951938577
 20
43.4749552822114
 30
0.0
 11
-488.551951938577
 21
43.4749552822114
 31
0.0
  0
LINE
  5
   21B
  8
0
  6
CONTINUOUS
 62
     7
 10
-488.326951938577
 20
43.2249552822114
 30
0.0
 11
-488.551951938577
 21
43.2249552822114
 31
0.0
  0
LINE
  5
   21C
  8
0
  6
CONTINUOUS
 62
     7
 10
-488.326951938577
 20
42.2249552822114
 30
0.0
 11
-488.551951938577
 21
42.2249552822114
 31
0.0
  0
LINE
  5
   21D
  8
0
  6
CONTINUOUS
 62
     7
 10
-488.326951938577
 20
42.8499552822114
 30
0.0
 11
-488.551951938577
 21
42.8499552822114
 31
0.0
  0
LINE
  5
   21E
  8
0
  6
CONTINUOUS
 62
     7
 10
-488.326951938577
 20
42.5999552822114
 30
0.0
 11
-488.551951938577
 21
42.5999552822114
 31
0.0
  0
ARC
  5
   21F
  8
0
  6
CONTINUOUS
 62
     7
 10
-488.326951938577
 20
42.4124552822114
 30
0.0
 40
0.1875
 50
269.999999948034
 51
449.999999948034
  0
ARC
  5
   220
  8
0
  6
CONTINUOUS
 62
     7
 10
-488.551951938577
 20
43.0374552822114
 30
0.0
 40
0.187499999999977
 50
449.999999948034
 51
629.999999948034
  0
ARC
  5
   221
  8
0
  6
CONTINUOUS
 62
     7
 10
-488.326951938577
 20
42.4124552822114
 30
0.0
 40
0.4375
 50
269.999999948034
 51
449.999999948034
  0
ARC
  5
   222
  8
0
  6
CONTINUOUS
 62
     7
 10
-488.551951938577
 20
43.0374552822114
 30
0.0
 40
0.437499999999977
 50
449.999999948034
 51
629.999999948034
  0
ARC
  5
   223
  8
0
  6
CONTINUOUS
 62
     7
 10
-488.326951938577
 20
43.0374552822114
 30
0.0
 40
0.1875
 50
359.999999948034
 51
449.999999948034
  0
ARC
  5
   224
  8
0
  6
CONTINUOUS
 62
     7
 10
-488.326951938577
 20
43.0374552822114
 30
0.0
 40
0.4375
 50
359.999999948034
 51
449.999999948034
  0
LINE
  5
   225
  8
0
  6
CONTINUOUS
 62
     7
 10
-487.889451938577
 20
43.0374552822114
 30
0.0
 11
-488.139451938577
 21
43.0374552822114
 31
0.0
  0
ARC
  5
   226
  8
0
  6
CONTINUOUS
 62
     7
 10
-488.551951938577
 20
42.4124552822114
 30
0.0
 40
0.4375
 50
179.999999948034
 51
269.999999948034
  0
ARC
  5
   227
  8
0
  6
CONTINUOUS
 62
     7
 10
-488.551951938577
 20
42.4124552822114
 30
0.0
 40
0.1875
 50
179.999999948034
 51
269.999999948034
  0
LINE
  5
   228
  8
0
  6
CONTINUOUS
 62
     7
 10
-488.739451938577
 20
42.4124552822114
 30
0.0
 11
-488.989451938577
 21
42.4124552822114
 31
0.0
  0
LINE
  5
   229
  8
0
  6
CONTINUOUS
 62
     7
 10
-487.139550835817
 20
43.2249552822114
 30
0.0
 11
-487.774451938577
 21
43.2249552822114
 31
0.0
  0
LINE
  5
   22A
  8
0
  6
CONTINUOUS
 62
     7
 10
-487.700365262822
 20
42.8411252962796
 30
0.0
 11
-487.139550835817
 21
43.2249552822114
 31
0.0
  0
LINE
  5
   22B
  8
0
  6
CONTINUOUS
 62
     7
 10
-487.134452506517
 20
42.9254982578344
 30
0.0
 11
-486.889550835817
 21
43.093112713335
 31
0.0
  0
LINE
  5
   22C
  8
0
  6
CONTINUOUS
 62
     7
 10
-487.774451938577
 20
43.2249552822114
 30
0.0
 11
-487.774451938577
 21
43.4749552822114
 31
0.0
  0
LINE
  5
   22D
  8
0
  6
CONTINUOUS
 62
     7
 10
-486.889550835817
 20
43.093112713335
 30
0.0
 11
-486.889550835817
 21
43.4749552822114
 31
0.0
  0
LINE
  5
   22E
  8
0
  6
CONTINUOUS
 62
     7
 10
-487.515151108111
 20
42.6206869090113
 30
0.0
 11
-487.700365262822
 21
42.6206869090113
 31
0.0
  0
LINE
  5
   22F
  8
0
  6
CONTINUOUS
 62
     7
 10
-487.700365262822
 20
42.6206869090113
 30
0.0
 11
-487.700365262822
 21
42.8411252962795
 31
0.0
  0
LINE
  5
   230
  8
0
  6
CONTINUOUS
 62
     7
 10
-415.699694368978
 20
41.2024552822114
 30
0.0
 11
-467.624694368978
 21
41.2024552822114
 31
0.0
  0
INSERT
  5
   231
  8
255
  6
CONTINUOUS
 62
     7
  2
$1ABB
 10
-465.356933594312
 20
41.871490117376
 30
0.0
 41
0.5
 42
0.5
 50
4.03638109323081E-14
 43
0.5
  0
LINE
  5
   232
  8
0
  6
DASHDOT
 62
     7
 10
-397.864911866881
 20
32.9524552822114
 30
0.0
 11
-563.207040040197
 21
32.9524552822114
 31
0.0
  0
LINE
  5
   233
  8
0
  6
CONTINUOUS
 62
     7
 10
-451.074704296666
 20
81.7024552822114
 30
0.0
 11
-466.824704296666
 21
81.7024552822114
 31
0.0
  0
LINE
  5
   234
  8
0
  6
CONTINUOUS
 62
     7
 10
-483.949701409181
 20
80.3024537563326
 30
0.0
 11
-483.949701409181
 21
81.2024552822115
 31
0.0
  0
LINE
  5
   235
  8
0
  6
CONTINUOUS
 62
     7
 10
-483.949701409181
 20
80.3024537563326
 30
0.0
 11
-485.199701409181
 21
80.3024537563326
 31
0.0
  0
ARC
  5
   236
  8
0
  6
CONTINUOUS
 62
     7
 10
-483.449700133713
 20
81.2024558483765
 30
0.0
 40
0.500001995564727
 50
90.0000472185487
 51
180.000478784316
  0
LINE
  5
   237
  8
0
  6
CONTINUOUS
 62
     7
 10
-415.199694368978
 20
-1.89754319190965
 30
0.0
 11
-415.199694368978
 21
80.3024537563326
 31
0.0
  0
LINE
  5
   238
  8
0
  6
CONTINUOUS
 62
     7
 10
-468.574704296666
 20
81.7024552822114
 30
0.0
 11
-483.449701409181
 21
81.7024552822114
 31
0.0
  0
LINE
  5
   239
  8
0
  6
CONTINUOUS
 62
     7
 10
-466.449704296666
 20
78.4524552822115
 30
0.0
 11
-468.949704296666
 21
78.4524552822115
 31
0.0
  0
LINE
  5
   23A
  8
0
  6
CONTINUOUS
 62
     7
 10
-468.574704296666
 20
80.2024552822114
 30
0.0
 11
-468.574704296666
 21
81.7024552822114
 31
0.0
  0
LINE
  5
   23B
  8
0
  6
CONTINUOUS
 62
     7
 10
-466.824704296666
 20
80.2024552822114
 30
0.0
 11
-466.824704296666
 21
81.7024552822114
 31
0.0
  0
LINE
  5
   23C
  8
0
  6
CONTINUOUS
 62
     7
 10
-468.949704296666
 20
78.4524552822115
 30
0.0
 11
-468.949704296666
 21
81.7024552822114
 31
0.0
  0
LINE
  5
   23D
  8
0
  6
CONTINUOUS
 62
     7
 10
-466.449704296666
 20
78.4524552822115
 30
0.0
 11
-466.449704296666
 21
81.7024552822114
 31
0.0
  0
LINE
  5
   23E
  8
0
  6
CONTINUOUS
 62
     7
 10
-466.449704296666
 20
80.2024552822114
 30
0.0
 11
-466.824704296666
 21
80.2024552822114
 31
0.0
  0
LINE
  5
   23F
  8
0
  6
CONTINUOUS
 62
     7
 10
-468.574704296666
 20
80.2024552822114
 30
0.0
 11
-468.949704296666
 21
80.2024552822114
 31
0.0
  0
LINE
  5
   240
  8
0
  6
CONTINUOUS
 62
     7
 10
-451.074704296666
 20
80.2024552822114
 30
0.0
 11
-451.074704296666
 21
81.7024552822114
 31
0.0
  0
LINE
  5
   241
  8
0
  6
CONTINUOUS
 62
     7
 10
-451.074704296666
 20
80.2024552822114
 30
0.0
 11
-451.449704296666
 21
80.2024552822114
 31
0.0
  0
LINE
  5
   242
  8
0
  6
CONTINUOUS
 62
     7
 10
-451.449704296666
 20
78.4524552822115
 30
0.0
 11
-451.449704296666
 21
81.7024552822114
 31
0.0
  0
LINE
  5
   243
  8
0
  6
CONTINUOUS
 62
     7
 10
-448.949704296666
 20
78.4524552822115
 30
0.0
 11
-448.949704296666
 21
80.2024552822114
 31
0.0
  0
LINE
  5
   244
  8
0
  6
CONTINUOUS
 62
     7
 10
-448.949704296666
 20
78.4524552822115
 30
0.0
 11
-448.949704296666
 21
80.2024552822114
 31
0.0
  0
LINE
  5
   245
  8
0
  6
CONTINUOUS
 62
     7
 10
-448.949704296666
 20
78.4524552822115
 30
0.0
 11
-448.949704296666
 21
80.2024552822114
 31
0.0
  0
LINE
  5
   246
  8
0
  6
CONTINUOUS
 62
     7
 10
-448.949704296666
 20
78.4524552822115
 30
0.0
 11
-448.949704296666
 21
81.7024552822114
 31
0.0
  0
LINE
  5
   247
  8
0
  6
CONTINUOUS
 62
     7
 10
-448.949704296666
 20
80.2024552822114
 30
0.0
 11
-449.324704296666
 21
80.2024552822114
 31
0.0
  0
LINE
  5
   248
  8
0
  6
CONTINUOUS
 62
     7
 10
-449.324704296666
 20
80.2024552822114
 30
0.0
 11
-449.324704296666
 21
81.7024552822114
 31
0.0
  0
LINE
  5
   249
  8
0
  6
CONTINUOUS
 62
     7
 10
-431.824704296666
 20
80.2024552822114
 30
0.0
 11
-431.824704296666
 21
81.7024552822114
 31
0.0
  0
LINE
  5
   24A
  8
0
  6
CONTINUOUS
 62
     7
 10
-431.824704296666
 20
80.2024552822114
 30
0.0
 11
-431.824704296666
 21
81.7024552822114
 31
0.0
  0
LINE
  5
   24B
  8
0
  6
CONTINUOUS
 62
     7
 10
-431.449704296666
 20
80.2024552822114
 30
0.0
 11
-431.824704296666
 21
80.2024552822114
 31
0.0
  0
LINE
  5
   24C
  8
0
  6
CONTINUOUS
 62
     7
 10
-431.449704296666
 20
78.4524552822115
 30
0.0
 11
-431.449704296666
 21
81.7024552822114
 31
0.0
  0
LINE
  5
   24D
  8
0
  6
CONTINUOUS
 62
     7
 10
-433.949704296666
 20
78.4524552822115
 30
0.0
 11
-433.949704296666
 21
80.2024552822114
 31
0.0
  0
LINE
  5
   24E
  8
0
  6
CONTINUOUS
 62
     7
 10
-433.949704296666
 20
78.4524552822115
 30
0.0
 11
-433.949704296666
 21
80.2024552822114
 31
0.0
  0
LINE
  5
   24F
  8
0
  6
CONTINUOUS
 62
     7
 10
-433.949704296666
 20
78.4524552822115
 30
0.0
 11
-433.949704296666
 21
80.2024552822114
 31
0.0
  0
LINE
  5
   250
  8
0
  6
CONTINUOUS
 62
     7
 10
-433.949704296666
 20
78.4524552822115
 30
0.0
 11
-433.949704296666
 21
80.2024552822114
 31
0.0
  0
LINE
  5
   251
  8
0
  6
CONTINUOUS
 62
     7
 10
-433.949704296666
 20
78.4524552822115
 30
0.0
 11
-433.949704296666
 21
80.2024552822114
 31
0.0
  0
LINE
  5
   252
  8
0
  6
CONTINUOUS
 62
     7
 10
-433.949704296666
 20
78.4524552822115
 30
0.0
 11
-433.949704296666
 21
81.7024552822114
 31
0.0
  0
LINE
  5
   253
  8
0
  6
CONTINUOUS
 62
     7
 10
-433.574704296666
 20
80.2024552822114
 30
0.0
 11
-433.574704296666
 21
81.7024552822114
 31
0.0
  0
LINE
  5
   254
  8
0
  6
CONTINUOUS
 62
     7
 10
-433.574704296666
 20
80.2024552822114
 30
0.0
 11
-433.949704296666
 21
80.2024552822114
 31
0.0
  0
LINE
  5
   255
  8
0
  6
CONTINUOUS
 62
     7
 10
-433.574704296666
 20
81.7024552822114
 30
0.0
 11
-449.324704296666
 21
81.7024552822114
 31
0.0
  0
LINE
  5
   256
  8
0
  6
CONTINUOUS
 62
     7
 10
-448.949704296666
 20
78.4524552822115
 30
0.0
 11
-451.449704296666
 21
78.4524552822115
 31
0.0
  0
LINE
  5
   257
  8
0
  6
CONTINUOUS
 62
     7
 10
-431.449704296666
 20
78.4524552822115
 30
0.0
 11
-433.949704296666
 21
78.4524552822115
 31
0.0
  0
ARC
  5
   258
  8
0
  6
CONTINUOUS
 62
     7
 10
-416.949708459618
 20
81.2024558483765
 30
0.0
 40
0.500001995564727
 50
359.999521111753
 51
449.99995267752
  0
LINE
  5
   259
  8
0
  6
CONTINUOUS
 62
     7
 10
-416.449704220314
 20
73.5774552822116
 30
0.0
 11
-416.449704220314
 21
80.3024537563327
 31
0.0
  0
LINE
  5
   25A
  8
0
  6
CONTINUOUS
 62
     7
 10
-415.19970718415
 20
80.3024537563326
 30
0.0
 11
-416.44970718415
 21
80.3024537563326
 31
0.0
  0
LINE
  5
   25B
  8
0
  6
CONTINUOUS
 62
     7
 10
-416.449704220314
 20
73.5774552822116
 30
0.0
 11
-416.449704220314
 21
80.3024537563327
 31
0.0
  0
ARC
  5
   25C
  8
0
  6
CONTINUOUS
 62
     7
 10
-416.949708459618
 20
81.2024558483765
 30
0.0
 40
0.500001995564727
 50
359.999521111753
 51
449.99995267752
  0
LINE
  5
   25D
  8
0
  6
CONTINUOUS
 62
     7
 10
-416.449704220314
 20
73.5774552822116
 30
0.0
 11
-416.449704220314
 21
80.3024537563327
 31
0.0
  0
LINE
  5
   25E
  8
0
  6
CONTINUOUS
 62
     7
 10
-416.449704220314
 20
73.5774552822116
 30
0.0
 11
-416.449704220314
 21
80.3024537563327
 31
0.0
  0
LINE
  5
   25F
  8
0
  6
CONTINUOUS
 62
     7
 10
-416.449704220314
 20
69.4524552822114
 30
0.0
 11
-416.449704220314
 21
80.3024537563327
 31
0.0
  0
LINE
  5
   260
  8
0
  6
CONTINUOUS
 62
     7
 10
-416.94970718415
 20
81.7024552822114
 30
0.0
 11
-431.824704296666
 21
81.7024552822114
 31
0.0
  0
LINE
  5
   261
  8
0
  6
CONTINUOUS
 62
     7
 10
-416.449704220314
 20
80.3024537563327
 30
0.0
 11
-416.449706464071
 21
81.2024516697249
 31
0.0
  0
LINE
  5
   262
  8
0
  6
DASHDOT
 62
     7
 10
-467.699704296666
 20
71.4524552822115
 30
0.0
 11
-467.699704296666
 21
76.4524552822115
 31
0.0
  0
LINE
  5
   263
  8
0
  6
DASHDOT
 62
     7
 10
-465.199704296666
 20
73.9524552822115
 30
0.0
 11
-470.199704296666
 21
73.9524552822115
 31
0.0
  0
LINE
  5
   264
  8
0
  6
DASHDOT
 62
     7
 10
-477.699704296666
 20
59.0774552822115
 30
0.0
 11
-477.699704296666
 21
64.0774552822115
 31
0.0
  0
LINE
  5
   265
  8
0
  6
DASHDOT
 62
     7
 10
-475.199704296666
 20
61.5774552822115
 30
0.0
 11
-480.199704296666
 21
61.5774552822115
 31
0.0
  0
LINE
  5
   266
  8
0
  6
CONTINUOUS
 62
     7
 10
-415.199694368978
 20
69.4524552822114
 30
0.0
 11
-485.199694368978
 21
69.4524552822114
 31
0.0
  0
LINE
  5
   267
  8
0
  6
CONTINUOUS
 62
     7
 10
-415.199694368978
 20
64.3274552822114
 30
0.0
 11
-485.199694368978
 21
64.3274552822114
 31
0.0
  0
CIRCLE
  5
   268
  8
0
  6
CONTINUOUS
 62
     7
 10
-477.699704296666
 20
61.5774552822115
 30
0.0
 40
1.5
  0
CIRCLE
  5
   269
  8
0
  6
CONTINUOUS
 62
     7
 10
-477.699704296666
 20
61.5774552822115
 30
0.0
 40
0.875
  0
CIRCLE
  5
   26A
  8
0
  6
CONTINUOUS
 62
     7
 10
-467.699704296666
 20
73.9524552822115
 30
0.0
 40
2.25
  0
CIRCLE
  5
   26B
  8
0
  6
CONTINUOUS
 62
     7
 10
-432.699704296666
 20
73.9524552822115
 30
0.0
 40
2.25
  0
LINE
  5
   26C
  8
0
  6
DASHDOT
 62
     7
 10
-430.199704296666
 20
73.9524552822115
 30
0.0
 11
-435.199704296666
 21
73.9524552822115
 31
0.0
  0
LINE
  5
   26D
  8
0
  6
DASHDOT
 62
     7
 10
-432.699704296666
 20
71.4524552822115
 30
0.0
 11
-432.699704296666
 21
76.4524552822115
 31
0.0
  0
CIRCLE
  5
   26E
  8
0
  6
CONTINUOUS
 62
     7
 10
-422.699704296666
 20
61.5774552822115
 30
0.0
 40
1.5
  0
CIRCLE
  5
   26F
  8
0
  6
CONTINUOUS
 62
     7
 10
-422.699704296666
 20
61.5774552822115
 30
0.0
 40
0.875
  0
LINE
  5
   270
  8
0
  6
DASHDOT
 62
     7
 10
-420.199704296666
 20
61.5774552822115
 30
0.0
 11
-425.199704296666
 21
61.5774552822115
 31
0.0
  0
LINE
  5
   271
  8
0
  6
DASHDOT
 62
     7
 10
-422.699704296666
 20
59.0774552822115
 30
0.0
 11
-422.699704296666
 21
64.0774552822115
 31
0.0
  0
LINE
  5
   272
  8
0
  6
CONTINUOUS
 62
     7
 10
-483.949704373017
 20
69.4524552822114
 30
0.0
 11
-483.949704373017
 21
80.3024537563327
 31
0.0
  0
LINE
  5
   273
  8
0
  6
CONTINUOUS
 62
     7
 10
-476.624694368978
 20
62.6235688780372
 30
0.0
 11
-476.624694368978
 21
64.3274552822114
 31
0.0
  0
LINE
  5
   274
  8
0
  6
CONTINUOUS
 62
     7
 10
-477.524694368978
 20
63.0672108075279
 30
0.0
 11
-477.524694368978
 21
64.3274552822114
 31
0.0
  0
LINE
  5
   275
  8
0
  6
CONTINUOUS
 62
     7
 10
-478.424694368978
 20
62.8301957258852
 30
0.0
 11
-478.424694368978
 21
64.3274552822114
 31
0.0
  0
LINE
  5
   276
  8
0
  6
CONTINUOUS
 62
     7
 10
-521.074704296666
 20
-3.29754471778855
 30
0.0
 11
-522.63453703824
 21
-3.29754471778855
 31
0.0
  0
LINE
  5
   277
  8
0
  6
CONTINUOUS
 62
     7
 10
-553.949701409181
 20
-2.79754471778855
 30
0.0
 11
-553.949701409181
 21
-1.89754319190965
 31
0.0
  0
LINE
  5
   278
  8
0
  6
CONTINUOUS
 62
     7
 10
-553.949701409181
 20
-1.89754319190965
 30
0.0
 11
-555.199701409181
 21
-1.89754319190965
 31
0.0
  0
LINE
  5
   279
  8
0
  6
CONTINUOUS
 62
     7
 10
-555.19970703125
 20
-1.89754319190979
 30
0.0
 11
-555.19970703125
 21
80.3024553060532
 31
0.0
  0
LINE
  5
   27A
  8
0
  6
CONTINUOUS
 62
     7
 10
-550.574701409181
 20
6.70245528221145
 30
0.0
 11
-550.574701409181
 21
8.70245528221145
 31
0.0
  0
LINE
  5
   27B
  8
0
  6
CONTINUOUS
 62
     7
 10
-552.449701170763
 20
4.82745528221145
 30
0.0
 11
-553.9497016476
 21
4.82745528221145
 31
0.0
  0
LINE
  5
   27C
  8
0
  6
CONTINUOUS
 62
     7
 10
-553.949704373017
 20
-1.89754319190976
 30
0.0
 11
-553.949704373017
 21
4.82745528221133
 31
0.0
  0
CIRCLE
  5
   27D
  8
0
  6
CONTINUOUS
 62
     7
 10
-552.449698404005
 20
6.70245204808572
 30
0.0
 40
0.875002904842779
  0
ARC
  5
   27E
  8
0
  6
CONTINUOUS
 62
     7
 10
-552.449687362298
 20
6.70249874462513
 30
0.0
 40
1.87496000544276
 50
269.999590913733
 51
450.000448791202
  0
ARC
  5
   27F
  8
0
  6
CONTINUOUS
 62
     7
 10
-553.449700133713
 20
-2.79754528395355
 30
0.0
 40
0.500001995564727
 50
179.999521111753
 51
269.99995267752
  0
LINE
  5
   280
  8
0
  6
DASHDOT
 62
     7
 10
-552.449687362298
 20
3.32753873918239
 30
0.0
 11
-552.449687362298
 21
10.0774587500679
 31
0.0
  0
LINE
  5
   281
  8
0
  6
DASHDOT
 62
     7
 10
-549.074727356855
 20
6.70249874462513
 30
0.0
 11
-555.824647367741
 21
6.70249874462513
 31
0.0
  0
LINE
  5
   282
  8
0
  6
CONTINUOUS
 62
     7
 10
-485.199687502521
 20
8.82745528221142
 30
0.0
 11
-555.19970703125
 21
8.82745528221142
 31
0.0
  0
ARC
  5
   283
  8
0
  6
CONTINUOUS
 62
     7
 10
-552.449654526648
 20
6.70248385452143
 30
0.0
 40
1.87505277579048
 50
90.0014299489927
 51
269.998575466754
  0
LINE
  5
   284
  8
0
  6
CONTINUOUS
 62
     7
 10
-538.574704296666
 20
-3.29754471778855
 30
0.0
 11
-553.449701409181
 21
-3.29754471778855
 31
0.0
  0
LINE
  5
   285
  8
0
  6
CONTINUOUS
 62
     7
 10
-536.449704296666
 20
-4.75447177885542E-2
 30
0.0
 11
-538.949704296666
 21
-4.75447177885542E-2
 31
0.0
  0
CIRCLE
  5
   286
  8
0
  6
CONTINUOUS
 62
     7
 10
-546.449704101961
 20
-1.29754937615672
 30
0.0
 40
0.700002264523652
  0
LINE
  5
   287
  8
0
  6
CONTINUOUS
 62
     7
 10
-538.574704296666
 20
-3.29754471778855
 30
0.0
 11
-538.574704296666
 21
-1.79754471778855
 31
0.0
  0
LINE
  5
   288
  8
0
  6
CONTINUOUS
 62
     7
 10
-536.824704296666
 20
-3.29754471778855
 30
0.0
 11
-536.824704296666
 21
-1.79754471778855
 31
0.0
  0
LINE
  5
   289
  8
0
  6
CONTINUOUS
 62
     7
 10
-538.949704296666
 20
-1.79754471778855
 30
0.0
 11
-538.949704296666
 21
-4.75447177885542E-2
 31
0.0
  0
LINE
  5
   28A
  8
0
  6
CONTINUOUS
 62
     7
 10
-536.449704296666
 20
-1.79754471778855
 30
0.0
 11
-536.449704296666
 21
-4.75447177885542E-2
 31
0.0
  0
LINE
  5
   28B
  8
0
  6
CONTINUOUS
 62
     7
 10
-536.449704296666
 20
-1.79754471778855
 30
0.0
 11
-536.824704296666
 21
-1.79754471778855
 31
0.0
  0
LINE
  5
   28C
  8
0
  6
CONTINUOUS
 62
     7
 10
-538.574704296666
 20
-1.79754471778855
 30
0.0
 11
-538.949704296666
 21
-1.79754471778855
 31
0.0
  0
LINE
  5
   28D
  8
0
  6
DASHDOT
 62
     7
 10
-540.749701837437
 20
-1.29754937615672
 30
0.0
 11
-552.149706366485
 21
-1.29754937615672
 31
0.0
  0
LINE
  5
   28E
  8
0
  6
DASHDOT
 62
     7
 10
-546.449701714771
 20
-4.79754085815563
 30
0.0
 11
-546.449701714771
 21
10.7024605241468
 31
0.0
  0
LINE
  5
   28F
  8
0
  6
DASHDOT
 62
     7
 10
-537.699704296666
 20
-2.79754320189784
 30
0.0
 11
-537.699704296666
 21
11.7024499359493
 31
0.0
  0
LINE
  5
   290
  8
0
  6
DASHDOT
 62
     7
 10
-520.199704296666
 20
-2.79754320189784
 30
0.0
 11
-520.199704296666
 21
11.7024499359493
 31
0.0
  0
LINE
  5
   291
  8
0
  6
DASHDOT
 62
     7
 10
-502.699704296666
 20
-2.79754320189784
 30
0.0
 11
-502.699704296666
 21
11.7024499359493
 31
0.0
  0
LINE
  5
   292
  8
0
  6
CONTINUOUS
 62
     7
 10
-521.074704296666
 20
-3.29754471778855
 30
0.0
 11
-521.074704296666
 21
-1.79754471778855
 31
0.0
  0
LINE
  5
   293
  8
0
  6
CONTINUOUS
 62
     7
 10
-521.074704296666
 20
-1.79754471778855
 30
0.0
 11
-521.449704296666
 21
-1.79754471778855
 31
0.0
  0
LINE
  5
   294
  8
0
  6
CONTINUOUS
 62
     7
 10
-521.449704296666
 20
-1.79754471778855
 30
0.0
 11
-521.449704296666
 21
-4.75447177885542E-2
 31
0.0
  0
LINE
  5
   295
  8
0
  6
CONTINUOUS
 62
     7
 10
-518.949704296666
 20
-1.79754471778855
 30
0.0
 11
-518.949704296666
 21
-4.75447177885542E-2
 31
0.0
  0
LINE
  5
   296
  8
0
  6
CONTINUOUS
 62
     7
 10
-518.949704296666
 20
-1.79754471778855
 30
0.0
 11
-518.949704296666
 21
-4.75447177885542E-2
 31
0.0
  0
LINE
  5
   297
  8
0
  6
CONTINUOUS
 62
     7
 10
-518.949704296666
 20
-1.79754471778855
 30
0.0
 11
-518.949704296666
 21
-4.75447177885542E-2
 31
0.0
  0
LINE
  5
   298
  8
0
  6
CONTINUOUS
 62
     7
 10
-518.949704296666
 20
-1.79754471778855
 30
0.0
 11
-518.949704296666
 21
-4.75447177885542E-2
 31
0.0
  0
LINE
  5
   299
  8
0
  6
CONTINUOUS
 62
     7
 10
-518.949704296666
 20
-1.79754471778855
 30
0.0
 11
-519.324704296666
 21
-1.79754471778855
 31
0.0
  0
LINE
  5
   29A
  8
0
  6
CONTINUOUS
 62
     7
 10
-519.324704296666
 20
-3.29754471778855
 30
0.0
 11
-519.324704296666
 21
-1.79754471778855
 31
0.0
  0
LINE
  5
   29B
  8
0
  6
CONTINUOUS
 62
     7
 10
-501.824704296666
 20
-3.29754471778855
 30
0.0
 11
-501.824704296666
 21
-1.79754471778855
 31
0.0
  0
LINE
  5
   29C
  8
0
  6
CONTINUOUS
 62
     7
 10
-501.824704296666
 20
-3.29754471778855
 30
0.0
 11
-501.824704296666
 21
-1.79754471778855
 31
0.0
  0
LINE
  5
   29D
  8
0
  6
CONTINUOUS
 62
     7
 10
-501.449704296666
 20
-1.79754471778855
 30
0.0
 11
-501.824704296666
 21
-1.79754471778855
 31
0.0
  0
LINE
  5
   29E
  8
0
  6
CONTINUOUS
 62
     7
 10
-501.449704296666
 20
-1.79754471778855
 30
0.0
 11
-501.449704296666
 21
-4.75447177885542E-2
 31
0.0
  0
LINE
  5
   29F
  8
0
  6
CONTINUOUS
 62
     7
 10
-503.949704296666
 20
-1.79754471778855
 30
0.0
 11
-503.949704296666
 21
-4.75447177885542E-2
 31
0.0
  0
LINE
  5
   2A0
  8
0
  6
CONTINUOUS
 62
     7
 10
-503.949704296666
 20
-1.79754471778855
 30
0.0
 11
-503.949704296666
 21
-4.75447177885542E-2
 31
0.0
  0
LINE
  5
   2A1
  8
0
  6
CONTINUOUS
 62
     7
 10
-503.949704296666
 20
-1.79754471778855
 30
0.0
 11
-503.949704296666
 21
-4.75447177885542E-2
 31
0.0
  0
LINE
  5
   2A2
  8
0
  6
CONTINUOUS
 62
     7
 10
-503.949704296666
 20
-1.79754471778855
 30
0.0
 11
-503.949704296666
 21
-4.75447177885542E-2
 31
0.0
  0
LINE
  5
   2A3
  8
0
  6
CONTINUOUS
 62
     7
 10
-503.949704296666
 20
-1.79754471778855
 30
0.0
 11
-503.949704296666
 21
-4.75447177885542E-2
 31
0.0
  0
LINE
  5
   2A4
  8
0
  6
CONTINUOUS
 62
     7
 10
-503.949704296666
 20
-1.79754471778855
 30
0.0
 11
-503.949704296666
 21
-4.75447177885542E-2
 31
0.0
  0
LINE
  5
   2A5
  8
0
  6
CONTINUOUS
 62
     7
 10
-503.574704296666
 20
-3.29754471778855
 30
0.0
 11
-503.574704296666
 21
-1.79754471778855
 31
0.0
  0
LINE
  5
   2A6
  8
0
  6
CONTINUOUS
 62
     7
 10
-503.574704296666
 20
-1.79754471778855
 30
0.0
 11
-503.949704296666
 21
-1.79754471778855
 31
0.0
  0
LINE
  5
   2A7
  8
0
  6
CONTINUOUS
 62
     7
 10
-503.574704296666
 20
-3.29754471778855
 30
0.0
 11
-519.324704296666
 21
-3.29754471778855
 31
0.0
  0
LINE
  5
   2A8
  8
0
  6
CONTINUOUS
 62
     7
 10
-518.949704296666
 20
-4.75447177885542E-2
 30
0.0
 11
-521.449704296666
 21
-4.75447177885542E-2
 31
0.0
  0
LINE
  5
   2A9
  8
0
  6
CONTINUOUS
 62
     7
 10
-501.449704296666
 20
-4.75447177885542E-2
 30
0.0
 11
-503.949704296666
 21
-4.75447177885542E-2
 31
0.0
  0
ARC
  5
   2AA
  8
0
  6
CONTINUOUS
 62
     7
 10
-486.949708459619
 20
-2.79754528395355
 30
0.0
 40
0.500001995564727
 50
270.000047218549
 51
360.000478784316
  0
LINE
  5
   2AB
  8
0
  6
CONTINUOUS
 62
     7
 10
-486.449704220315
 20
-1.89754319190976
 30
0.0
 11
-486.449704220315
 21
4.82745528221133
 31
0.0
  0
LINE
  5
   2AC
  8
0
  6
CONTINUOUS
 62
     7
 10
-483.949694368978
 20
-1.89754319190965
 30
0.0
 11
-486.44970718415
 21
-1.89754319190965
 31
0.0
  0
LINE
  5
   2AD
  8
0
  6
CONTINUOUS
 62
     7
 10
-486.449704220315
 20
-1.89754319190976
 30
0.0
 11
-486.449704220315
 21
4.82745528221133
 31
0.0
  0
ARC
  5
   2AE
  8
0
  6
CONTINUOUS
 62
     7
 10
-486.949708459619
 20
-2.79754528395355
 30
0.0
 40
0.500001995564727
 50
270.000047218549
 51
360.000478784316
  0
LINE
  5
   2AF
  8
0
  6
CONTINUOUS
 62
     7
 10
-486.449704220315
 20
-1.89754319190976
 30
0.0
 11
-486.449704220315
 21
4.82745528221133
 31
0.0
  0
LINE
  5
   2B0
  8
0
  6
DASHDOT
 62
     7
 10
-493.949706878561
 20
-4.79754085815563
 30
0.0
 11
-493.949706878561
 21
10.7024605241468
 31
0.0
  0
CIRCLE
  5
   2B1
  8
0
  6
CONTINUOUS
 62
     7
 10
-493.949704491371
 20
-1.29754937615672
 30
0.0
 40
0.700002264523652
  0
LINE
  5
   2B2
  8
0
  6
DASHDOT
 62
     7
 10
-488.249702226847
 20
-1.29754937615672
 30
0.0
 11
-499.649706755894
 21
-1.29754937615672
 31
0.0
  0
LINE
  5
   2B3
  8
0
  6
CONTINUOUS
 62
     7
 10
-486.449704220315
 20
-1.89754319190976
 30
0.0
 11
-486.449704220315
 21
4.82745528221133
 31
0.0
  0
ARC
  5
   2B4
  8
0
  6
CONTINUOUS
 62
     7
 10
-487.949754066684
 20
6.70248385452143
 30
0.0
 40
1.87505277579048
 50
270.001424429314
 51
449.998569947076
  0
LINE
  5
   2B5
  8
0
  6
DASHDOT
 62
     7
 10
-487.949721231034
 20
3.32753873918239
 30
0.0
 11
-487.949721231034
 21
10.0774587500679
 31
0.0
  0
ARC
  5
   2B6
  8
0
  6
CONTINUOUS
 62
     7
 10
-487.949754066684
 20
6.70248385452143
 30
0.0
 40
1.87505277579048
 50
270.001424429314
 51
449.998569947076
  0
LINE
  5
   2B7
  8
0
  6
DASHDOT
 62
     7
 10
-484.574761225591
 20
6.70249874462513
 30
0.0
 11
-491.324681236476
 21
6.70249874462513
 31
0.0
  0
LINE
  5
   2B8
  8
0
  6
DASHDOT
 62
     7
 10
-484.574761225591
 20
6.70249874462513
 30
0.0
 11
-491.324681236476
 21
6.70249874462513
 31
0.0
  0
ARC
  5
   2B9
  8
0
  6
CONTINUOUS
 62
     7
 10
-487.949721231034
 20
6.70249874462513
 30
0.0
 40
1.87496000544276
 50
449.999551104867
 51
630.000408982336
  0
LINE
  5
   2BA
  8
0
  6
DASHDOT
 62
     7
 10
-484.574761225591
 20
6.70249874462513
 30
0.0
 11
-491.324681236476
 21
6.70249874462513
 31
0.0
  0
CIRCLE
  5
   2BB
  8
0
  6
CONTINUOUS
 62
     7
 10
-487.949710189327
 20
6.70245204808572
 30
0.0
 40
0.875002904842779
  0
LINE
  5
   2BC
  8
0
  6
CONTINUOUS
 62
     7
 10
-486.449704220315
 20
-1.89754319190976
 30
0.0
 11
-486.449704220315
 21
4.82745528221133
 31
0.0
  0
ARC
  5
   2BD
  8
0
  6
CONTINUOUS
 62
     7
 10
-487.949754066684
 20
6.70248385452143
 30
0.0
 40
1.87505277579048
 50
270.001424429314
 51
449.998569947076
  0
LINE
  5
   2BE
  8
0
  6
CONTINUOUS
 62
     7
 10
-486.449706945732
 20
4.82745528221145
 30
0.0
 11
-487.949707422569
 21
4.82745528221145
 31
0.0
  0
LINE
  5
   2BF
  8
0
  6
CONTINUOUS
 62
     7
 10
-489.82470718415
 20
6.70245528221145
 30
0.0
 11
-489.82470718415
 21
8.70245528221145
 31
0.0
  0
LINE
  5
   2C0
  8
0
  6
CONTINUOUS
 62
     7
 10
-486.94970718415
 20
-3.29754471778855
 30
0.0
 11
-501.824704296666
 21
-3.29754471778855
 31
0.0
  0
LINE
  5
   2C1
  8
0
  6
DASHDOT
 62
     7
 10
-528.949701714771
 20
-4.79754085815563
 30
0.0
 11
-528.949701714771
 21
10.7024605241468
 31
0.0
  0
CIRCLE
  5
   2C2
  8
0
  6
CONTINUOUS
 62
     7
 10
-528.949704101961
 20
-1.29754937615672
 30
0.0
 40
0.700002264523652
  0
CIRCLE
  5
   2C3
  8
0
  6
CONTINUOUS
 62
     7
 10
-511.449704101961
 20
-1.29754937615672
 30
0.0
 40
0.700002264523652
  0
LINE
  5
   2C4
  8
0
  6
DASHDOT
 62
     7
 10
-523.249701837437
 20
-1.29754937615672
 30
0.0
 11
-534.649706366485
 21
-1.29754937615672
 31
0.0
  0
LINE
  5
   2C5
  8
0
  6
DASHDOT
 62
     7
 10
-505.749701837437
 20
-1.29754937615672
 30
0.0
 11
-517.149706366484
 21
-1.29754937615672
 31
0.0
  0
LINE
  5
   2C6
  8
0
  6
CONTINUOUS
 62
     7
 10
-486.449706464071
 20
-2.79754110530203
 30
0.0
 11
-486.449704220315
 21
-1.89754319190976
 31
0.0
  0
LINE
  5
   2C7
  8
0
  6
DASHDOT
 62
     7
 10
-489.067725938713
 20
2.95245528221145
 30
0.0
 11
-499.577074588763
 21
2.95245528221145
 31
0.0
  0
CIRCLE
  5
   2C8
  8
0
  6
CONTINUOUS
 62
     7
 10
-493.949706878561
 20
2.95245528221145
 30
0.0
 40
2.75
  0
CIRCLE
  5
   2C9
  8
0
  6
CONTINUOUS
 62
     7
 10
-511.449686739583
 20
2.95245528221145
 30
0.0
 40
2.75
  0
LINE
  5
   2CA
  8
0
  6
DASHDOT
 62
     7
 10
-506.567705799735
 20
2.95245528221145
 30
0.0
 11
-517.077054449786
 21
2.95245528221145
 31
0.0
  0
CIRCLE
  5
   2CB
  8
0
  6
CONTINUOUS
 62
     7
 10
-528.949666600606
 20
2.95245528221145
 30
0.0
 40
2.75
  0
LINE
  5
   2CC
  8
0
  6
DASHDOT
 62
     7
 10
-524.067685660758
 20
2.95245528221145
 30
0.0
 11
-534.577034310809
 21
2.95245528221145
 31
0.0
  0
LINE
  5
   2CD
  8
0
  6
DASHDOT
 62
     7
 10
-541.56766552178
 20
2.95245528221145
 30
0.0
 11
-552.077014171831
 21
2.95245528221145
 31
0.0
  0
CIRCLE
  5
   2CE
  8
0
  6
CONTINUOUS
 62
     7
 10
-546.449646461628
 20
2.95245528221145
 30
0.0
 40
2.75
  0
LINE
  5
   2CF
  8
0
  6
DASHDOT
 62
     7
 10
-499.109553439544
 20
4.45245528221145
 30
0.0
 11
-506.082861848319
 21
4.45245528221145
 31
0.0
  0
CIRCLE
  5
   2D0
  8
0
  6
CONTINUOUS
 62
     3
 10
-520.199704296666
 20
4.45245528221145
 30
0.0
 40
2.25
  0
CIRCLE
  5
   2D1
  8
0
  6
CONTINUOUS
 62
     3
 10
-537.699704296666
 20
4.45245528221145
 30
0.0
 40
2.25
  0
LINE
  5
   2D2
  8
0
  6
DASHDOT
 62
     7
 10
-516.609553439544
 20
4.45245528221145
 30
0.0
 11
-523.582861848319
 21
4.45245528221145
 31
0.0
  0
LINE
  5
   2D3
  8
0
  6
DASHDOT
 62
     7
 10
-534.109553439544
 20
4.45245528221145
 30
0.0
 11
-541.082861848319
 21
4.45245528221145
 31
0.0
  0
CIRCLE
  5
   2D4
  8
0
  6
CONTINUOUS
 62
     3
 10
-502.699704296666
 20
4.45245528221145
 30
0.0
 40
2.25
  0
CIRCLE
  5
   2D5
  8
0
  6
CONTINUOUS
 62
     7
 10
-520.199704296666
 20
4.45245528221145
 30
0.0
 40
2.25
  0
LINE
  5
   2D6
  8
0
  6
CONTINUOUS
 62
     7
 10
-501.50204848151
 20
2.54769268586944
 30
0.0
 11
-504.604466893008
 21
5.65011109736716
 31
0.0
  0
LINE
  5
   2D7
  8
0
  6
CONTINUOUS
 62
     7
 10
-500.794941700324
 20
3.25479946705584
 30
0.0
 11
-503.897360111821
 21
6.35721787855356
 31
0.0
  0
LINE
  5
   2D8
  8
0
  6
CONTINUOUS
 62
     7
 10
-535.794941700324
 20
3.25479946705587
 30
0.0
 11
-538.897360111821
 21
6.3572178785536
 31
0.0
  0
LINE
  5
   2D9
  8
0
  6
CONTINUOUS
 62
     7
 10
-536.50204848151
 20
2.54769268586946
 30
0.0
 11
-539.604466893008
 21
5.65011109736717
 31
0.0
  0
LINE
  5
   2DA
  8
0
  6
CONTINUOUS
 62
     7
 10
-415.199694368978
 20
-1.89754319190965
 30
0.0
 11
-416.449694368978
 21
-1.89754319190965
 31
0.0
  0
LINE
  5
   2DB
  8
0
  6
CONTINUOUS
 62
     7
 10
-416.449694368978
 20
-1.89754319190965
 30
0.0
 11
-416.449694368978
 21
8.70245528221145
 31
0.0
  0
LINE
  5
   2DC
  8
0
  6
CONTINUOUS
 62
     7
 10
-483.949694368978
 20
-1.89754319190965
 30
0.0
 11
-483.949694368978
 21
8.70245528221145
 31
0.0
  0
LINE
  5
   2DD
  8
0
  6
CONTINUOUS
 62
     7
 10
-539.557962890081
 20
69.7024552822115
 30
0.0
 11
-550.574701409181
 21
69.7024552822115
 31
0.0
  0
LINE
  5
   2DE
  8
0
  6
CONTINUOUS
 62
     7
 10
-539.536821603753
 20
69.5774552822115
 30
0.0
 11
-555.19970703125
 21
69.5774552822115
 31
0.0
  0
LINE
  5
   2DF
  8
0
  6
CONTINUOUS
 62
     7
 10
-522.057962890081
 20
69.7024552822115
 30
0.0
 11
-535.841445703251
 21
69.7024552822115
 31
0.0
  0
LINE
  5
   2E0
  8
0
  6
CONTINUOUS
 62
     7
 10
-522.036821603753
 20
69.5774552822115
 30
0.0
 11
-535.862586989578
 21
69.5774552822115
 31
0.0
  0
LINE
  5
   2E1
  8
0
  6
CONTINUOUS
 62
     7
 10
-504.557962890081
 20
69.7024552822115
 30
0.0
 11
-518.341445703251
 21
69.7024552822115
 31
0.0
  0
LINE
  5
   2E2
  8
0
  6
CONTINUOUS
 62
     7
 10
-504.536821603753
 20
69.5774552822115
 30
0.0
 11
-518.362586989578
 21
69.5774552822115
 31
0.0
  0
ARC
  5
   2E3
  8
0
  6
CONTINUOUS
 62
     7
 10
-526.449701714771
 20
-3.29754471778855
 30
0.0
 40
25.0
 50
179.999999948034
 51
269.999999948034
  0
ARC
  5
   2E4
  8
0
  6
CONTINUOUS
 62
     7
 10
-526.449701714771
 20
-3.29754471778855
 30
0.0
 40
15.0
 50
179.999999948034
 51
259.713439336559
  0
ARC
  5
   2E5
  8
0
  6
CONTINUOUS
 62
     7
 10
-496.449694368978
 20
-3.29754471778855
 30
0.0
 40
15.0
 50
318.590356628261
 51
337.158315558213
  0
ARC
  5
   2E6
  8
0
  6
CONTINUOUS
 62
     7
 10
-508.949701714771
 20
-3.29754471778855
 30
0.0
 40
25.0
 50
179.999999948034
 51
269.999999948034
  0
ARC
  5
   2E7
  8
0
  6
CONTINUOUS
 62
     7
 10
-508.949701714771
 20
-3.29754471778855
 30
0.0
 40
15.0
 50
184.553834127901
 51
259.713439336559
  0
ARC
  5
   2E8
  8
0
  6
CONTINUOUS
 62
     7
 10
-461.449694368978
 20
-3.29754471778855
 30
0.0
 40
25.0
 50
323.13010230219
 51
359.999999948034
  0
ARC
  5
   2E9
  8
0
  6
CONTINUOUS
 62
     7
 10
-491.449701714771
 20
-3.29754471778855
 30
0.0
 40
25.0
 50
179.999999948034
 51
188.472267731345
  0
ARC
  5
   2EA
  8
0
  6
CONTINUOUS
 62
     7
 10
-491.449701714771
 20
-3.29754471778855
 30
0.0
 40
15.0
 50
179.999999948034
 51
194.214407442353
  0
ARC
  5
   2EB
  8
0
  6
CONTINUOUS
 62
     7
 10
-461.449694368978
 20
-3.29754471778855
 30
0.0
 40
15.0
 50
280.286560559509
 51
359.999999948034
  0
LINE
  5
   2EC
  8
0
  6
CONTINUOUS
 62
     7
 10
-443.949694368978
 20
-28.2975447177886
 30
0.0
 11
-526.449701714771
 21
-28.2975447177886
 31
0.0
  0
ARC
  5
   2ED
  8
0
  6
CONTINUOUS
 62
     7
 10
-443.949694368978
 20
-3.29754471778855
 30
0.0
 40
25.0
 50
269.999999948034
 51
359.999999948034
  0
ARC
  5
   2EE
  8
0
  6
CONTINUOUS
 62
     7
 10
-473.949701714771
 20
-3.29754471778855
 30
0.0
 40
25.0
 50
179.999999948034
 51
188.472267731345
  0
LINE
  5
   2EF
  8
0
  6
CONTINUOUS
 62
     7
 10
-443.949694368978
 20
-18.2975447177886
 30
0.0
 11
-473.949701714771
 21
-18.2975447177886
 31
0.0
  0
ARC
  5
   2F0
  8
0
  6
CONTINUOUS
 62
     7
 10
-473.949701714771
 20
-3.29754471778855
 30
0.0
 40
15.0
 50
179.999999948034
 51
194.214407442353
  0
ARC
  5
   2F1
  8
0
  6
CONTINUOUS
 62
     7
 10
-443.949694368978
 20
-3.29754471778855
 30
0.0
 40
15.0
 50
269.999999948034
 51
359.999999948034
  0
LINE
  5
   2F2
  8
0
  6
CONTINUOUS
 62
     7
 10
-479.498400967925
 20
-4.23081201452559
 30
0.0
 11
-479.498400967925
 21
-3.23087304968184
 31
0.0
  0
LINE
  5
   2F3
  8
0
  6
CONTINUOUS
 62
     7
 10
-479.498400967925
 20
-4.23081201452559
 30
0.0
 11
-481.998400967925
 21
-4.23081201452559
 31
0.0
  0
LINE
  5
   2F4
  8
0
  6
CONTINUOUS
 62
     7
 10
-481.998400967925
 20
-4.23081201452559
 30
0.0
 11
-481.998400967925
 21
-3.23087304968184
 31
0.0
  0
LINE
  5
   2F5
  8
0
  6
CONTINUOUS
 62
     7
 10
-479.998400967925
 20
-5.73081201452559
 30
0.0
 11
-479.998400967925
 21
-4.23081201452559
 31
0.0
  0
LINE
  5
   2F6
  8
0
  6
CONTINUOUS
 62
     7
 10
-480.998400967925
 20
-5.73081201452559
 30
0.0
 11
-480.998400967925
 21
-4.23081201452559
 31
0.0
  0
LINE
  5
   2F7
  8
0
  6
CONTINUOUS
 62
     7
 10
-482.498400967925
 20
-8.23081201452559
 30
0.0
 11
-483.138430903709
 21
-8.23081201452559
 31
0.0
  0
LINE
  5
   2F8
  8
0
  6
CONTINUOUS
 62
     7
 10
-482.498400967925
 20
-7.23081201452559
 30
0.0
 11
-483.138430903709
 21
-7.23081201452559
 31
0.0
  0
ARC
  5
   2F9
  8
0
  6
CONTINUOUS
 62
     7
 10
-482.498400967925
 20
-5.73081201452559
 30
0.0
 40
1.5
 50
269.999999948034
 51
359.999999948034
  0
ARC
  5
   2FA
  8
0
  6
CONTINUOUS
 62
     7
 10
-482.498400967925
 20
-5.73081201452559
 30
0.0
 40
2.5
 50
269.999999948034
 51
359.999999948034
  0
ARC
  5
   2FB
  8
0
  6
CONTINUOUS
 62
     7
 10
-483.498400967925
 20
-5.73081201452559
 30
0.0
 40
3.5
 50
275.903228660141
 51
359.999999948034
  0
LINE
  5
   2FC
  8
0
  6
CONTINUOUS
 62
     7
 10
-516.51394059664
 20
-9.48081201452559
 30
0.0
 11
-516.51394059664
 21
-6.98081201452559
 31
0.0
  0
LINE
  5
   2FD
  8
0
  6
CONTINUOUS
 62
     7
 10
-483.138430903709
 20
-6.98081201452559
 30
0.0
 11
-516.51394059664
 21
-6.98081201452559
 31
0.0
  0
LINE
  5
   2FE
  8
0
  6
CONTINUOUS
 62
     7
 10
-483.138430903709
 20
-9.48081201452559
 30
0.0
 11
-516.51394059664
 21
-9.48081201452559
 31
0.0
  0
LINE
  5
   2FF
  8
0
  6
CONTINUOUS
 62
     7
 10
-516.51394059664
 20
-9.10581201452559
 30
0.0
 11
-517.408617280705
 21
-9.10581201452559
 31
0.0
  0
ARC
  5
   300
  8
0
  6
CONTINUOUS
 62
     7
 10
-517.408617280705
 20
-2.23081201452559
 30
0.0
 40
6.875
 50
179.999999948034
 51
269.999999948034
  0
ARC
  5
   301
  8
0
  6
CONTINUOUS
 62
     7
 10
-517.451318977221
 20
-2.23081201452559
 30
0.0
 40
6.125
 50
179.999999948034
 51
269.999999948034
  0
LINE
  5
   302
  8
0
  6
CONTINUOUS
 62
     7
 10
-516.51394059664
 20
-8.35581201452559
 30
0.0
 11
-517.451318977221
 21
-8.35581201452559
 31
0.0
  0
ARC
  5
   303
  8
0
  6
CONTINUOUS
 62
     7
 10
-517.494052494952
 20
-2.23081201452559
 30
0.0
 40
5.25
 50
179.999999948034
 51
269.999999948034
  0
LINE
  5
   304
  8
0
  6
CONTINUOUS
 62
     7
 10
-516.51394059664
 20
-7.48081201452559
 30
0.0
 11
-517.494052494952
 21
-7.48081201452559
 31
0.0
  0
ARC
  5
   305
  8
0
  6
CONTINUOUS
 62
     7
 10
-491.449701714771
 20
-3.29754471778855
 30
0.0
 40
25.0
 50
194.319612266084
 51
269.999999948034
  0
ARC
  5
   306
  8
0
  6
CONTINUOUS
 62
     7
 10
-491.449701714771
 20
-3.29754471778855
 30
0.0
 40
15.0
 50
204.344231066386
 51
259.713439336559
  0
ARC
  5
   307
  8
0
  6
CONTINUOUS
 62
     7
 10
-473.949701714771
 20
-3.29754471778855
 30
0.0
 40
25.0
 50
194.319612266084
 51
269.999999948034
  0
ARC
  5
   308
  8
0
  6
CONTINUOUS
 62
     7
 10
-473.949701714771
 20
-3.29754471778855
 30
0.0
 40
15.0
 50
204.344231066386
 51
269.999999948034
  0
ARC
  5
   309
  8
0
  6
CONTINUOUS
 62
     7
 10
-496.449694368978
 20
-3.29754471778855
 30
0.0
 40
15.0
 50
345.785592453716
 51
356.432877512322
  0
ARC
  5
   30A
  8
0
  6
CONTINUOUS
 62
     7
 10
-496.449694368978
 20
-3.29754471778855
 30
0.0
 40
25.0
 50
323.663939451806
 51
359.999999948034
  0
ARC
  5
   30B
  8
0
  6
CONTINUOUS
 62
     7
 10
-478.949694368978
 20
-3.29754471778855
 30
0.0
 40
15.0
 50
280.286560559509
 51
359.999999948034
  0
ARC
  5
   30C
  8
0
  6
CONTINUOUS
 62
     7
 10
-478.949694368978
 20
-3.29754471778855
 30
0.0
 40
25.0
 50
323.13010230219
 51
359.999999948034
  0
LINE
  5
   30D
  8
0
  6
CONTINUOUS
 62
     7
 10
-524.283617280705
 20
-2.23081201452559
 30
0.0
 11
-524.283617280705
 21
8.70245528221146
 31
0.0
  0
LINE
  5
   30E
  8
0
  6
CONTINUOUS
 62
     7
 10
-523.576318977221
 20
-2.23081201452559
 30
0.0
 11
-523.576318977221
 21
8.70245528221146
 31
0.0
  0
LINE
  5
   30F
  8
0
  6
CONTINUOUS
 62
     7
 10
-522.744052494952
 20
-2.23081201452559
 30
0.0
 11
-522.744052494952
 21
8.70245528221146
 31
0.0
  0
LINE
  5
   310
  8
0
  6
CONTINUOUS
 62
     7
 10
-524.200355374874
 20
-3.29754471778855
 30
0.0
 11
-536.824704296666
 21
-3.29754471778855
 31
0.0
  0
LINE
  5
   311
  8
0
  6
CONTINUOUS
 62
     7
 10
-469.604466893008
 20
72.7547994670559
 30
0.0
 11
-466.50204848151
 21
75.8572178785535
 31
0.0
  0
LINE
  5
   312
  8
0
  6
CONTINUOUS
 62
     7
 10
-468.897360111821
 20
72.0476926858694
 30
0.0
 11
-465.794941700324
 21
75.1501110973669
 31
0.0
  0
LINE
  5
   313
  8
0
  6
CONTINUOUS
 62
     7
 10
-433.897360111821
 20
72.0476926858694
 30
0.0
 11
-430.794941700324
 21
75.1501110973669
 31
0.0
  0
LINE
  5
   314
  8
0
  6
CONTINUOUS
 62
     7
 10
-434.604466893008
 20
72.7547994670559
 30
0.0
 11
-431.50204848151
 21
75.8572178785535
 31
0.0
  0
LINE
  5
   315
  8
0
  6
CONTINUOUS
 62
     7
 10
-483.138430903709
 20
-9.48081201452559
 30
0.0
 11
-483.138430903709
 21
-6.98081201452559
 31
0.0
  0
LINE
  5
   316
  8
0
  6
DASHDOT
 62
     7
 10
-317.8413704995
 20
-13.7975447177887
 30
0.0
 11
-305.41401260751
 21
-13.7975447177887
 31
0.0
  0
LINE
  5
   317
  8
0
  6
DASHED
 62
     7
 10
-313.707060813904
 20
-20.0475447177887
 30
0.0
 11
-310.707060813904
 21
-20.0475447177887
 31
0.0
  0
LINE
  5
   318
  8
0
  6
DASHED
 62
     7
 10
-313.707060813904
 20
-11.6725447177887
 30
0.0
 11
-310.707060813904
 21
-11.6725447177887
 31
0.0
  0
LINE
  5
   319
  8
0
  6
DASHED
 62
     7
 10
-313.707060813904
 20
-15.9225447177887
 30
0.0
 11
-310.707060813904
 21
-15.9225447177887
 31
0.0
  0
LINE
  5
   31A
  8
0
  6
DASHED
 62
     7
 10
-320.707060813904
 20
98.7024490731847
 30
0.0
 11
-320.707060813904
 21
77.0024490731847
 31
0.0
  0
LINE
  5
   31B
  8
0
  6
CONTINUOUS
 62
     7
 10
-323.207060813904
 20
81.4524490731847
 30
0.0
 11
-323.207060813904
 21
70.2024490731847
 31
0.0
  0
LINE
  5
   31C
  8
0
  6
DASHED
 62
     7
 10
-320.707060813904
 20
70.7024490731847
 30
0.0
 11
-317.707060813904
 21
70.7024490731847
 31
0.0
  0
LINE
  5
   31D
  8
0
  6
DASHED
 62
     7
 10
-317.707060813904
 20
98.7024490731847
 30
0.0
 11
-317.707060813904
 21
70.7024490731847
 31
0.0
  0
LINE
  5
   31E
  8
0
  6
CONTINUOUS
 62
     7
 10
-317.457060813904
 20
78.3024490731847
 30
0.0
 11
-317.457060813904
 21
72.1024490731847
 31
0.0
  0
LINE
  5
   31F
  8
0
  6
CONTINUOUS
 62
     7
 10
-317.707060813904
 20
78.3024490731847
 30
0.0
 11
-317.457060813904
 21
78.3024490731847
 31
0.0
  0
LINE
  5
   320
  8
0
  6
CONTINUOUS
 62
     7
 10
-317.707060813904
 20
72.1024490731847
 30
0.0
 11
-317.457060813904
 21
72.1024490731847
 31
0.0
  0
LINE
  5
   321
  8
0
  6
CONTINUOUS
 62
     1
 10
-314.257060813904
 20
77.8024490731847
 30
0.0
 11
-314.257060813904
 21
72.6024490731847
 31
0.0
  0
LINE
  5
   322
  8
0
  6
CONTINUOUS
 62
     1
 10
-318.957060813904
 20
77.0024490731847
 30
0.0
 11
-318.957060813904
 21
73.4024490731847
 31
0.0
  0
LINE
  5
   323
  8
0
  6
CONTINUOUS
 62
     1
 10
-323.207060813904
 20
73.4024490731847
 30
0.0
 11
-317.707060813904
 21
73.4024490731847
 31
0.0
  0
LINE
  5
   324
  8
0
  6
CONTINUOUS
 62
     1
 10
-323.207060813904
 20
77.0024490731847
 30
0.0
 11
-317.707060813904
 21
77.0024490731847
 31
0.0
  0
LINE
  5
   325
  8
0
  6
CONTINUOUS
 62
     1
 10
-317.457060813904
 20
72.6024490731847
 30
0.0
 11
-314.257060813904
 21
72.6024490731847
 31
0.0
  0
LINE
  5
   326
  8
0
  6
CONTINUOUS
 62
     1
 10
-317.457060813904
 20
77.8024490731847
 30
0.0
 11
-314.257060813904
 21
77.8024490731847
 31
0.0
  0
LINE
  5
   327
  8
0
  6
CONTINUOUS
 62
     7
 10
-323.207060813904
 20
73.7091640731847
 30
0.0
 11
-318.957060749715
 21
73.7091640731847
 31
0.0
  0
LINE
  5
   328
  8
0
  6
CONTINUOUS
 62
     7
 10
-323.207060813904
 20
76.6957340731847
 30
0.0
 11
-318.957060749715
 21
76.6957340731847
 31
0.0
  0
LINE
  5
   329
  8
0
  6
DASHDOT
 62
     7
 10
-325.344169540181
 20
75.2024490731847
 30
0.0
 11
-312.585265788941
 21
75.2024490731847
 31
0.0
  0
LINE
  5
   32A
  8
0
  6
CONTINUOUS
 62
     7
 10
-332.207060813904
 20
81.4524490731847
 30
0.0
 11
-323.207060813904
 21
81.4524490731847
 31
0.0
  0
LINE
  5
   32B
  8
0
  6
CONTINUOUS
 62
     7
 10
-332.207060813904
 20
69.9524490731847
 30
0.0
 11
-330.707060813904
 21
69.9524490731847
 31
0.0
  0
LINE
  5
   32C
  8
0
  6
CONTINUOUS
 62
     7
 10
-330.380973857382
 20
70.4524490731847
 30
0.0
 11
-323.207060813904
 21
70.4524490731847
 31
0.0
  0
LINE
  5
   32D
  8
0
  6
CONTINUOUS
 62
     7
 10
-323.207060813904
 20
81.4524490731847
 30
0.0
 11
-330.707060813904
 21
69.9524490731847
 31
0.0
  0
LINE
  5
   32E
  8
0
  6
DASHED
 62
     7
 10
-313.707060813904
 20
7.95245528221129
 30
0.0
 11
-310.707060813904
 21
7.95245528221129
 31
0.0
  0
LINE
  5
   32F
  8
0
  6
DASHED
 62
     7
 10
-310.707060813904
 20
1.15245528221129
 30
0.0
 11
-310.707060813904
 21
-20.0475447177887
 31
0.0
  0
LINE
  5
   330
  8
0
  6
CONTINUOUS
 62
     7
 10
-313.707060813904
 20
7.95245528221129
 30
0.0
 11
-313.707060813904
 21
4.75245528221129
 31
0.0
  0
LINE
  5
   331
  8
0
  6
CONTINUOUS
 62
     7
 10
-308.207060813904
 20
6.05245528221129
 30
0.0
 11
-307.957060813904
 21
6.05245528221129
 31
0.0
  0
LINE
  5
   332
  8
0
  6
CONTINUOUS
 62
     7
 10
-308.207060813904
 20
-0.147544717788719
 30
0.0
 11
-307.957060813904
 21
-0.147544717788719
 31
0.0
  0
LINE
  5
   333
  8
0
  6
CONTINUOUS
 62
     7
 10
-307.957060813904
 20
6.05245528221129
 30
0.0
 11
-307.957060813904
 21
-0.147544717788719
 31
0.0
  0
LINE
  5
   334
  8
0
  6
DASHED
 62
     7
 10
-313.707060813904
 20
1.15245528221129
 30
0.0
 11
-313.707060813904
 21
-20.0475447177887
 31
0.0
  0
LINE
  5
   335
  8
0
  6
CONTINUOUS
 62
     7
 10
-317.707060813904
 20
7.95245528221129
 30
0.0
 11
-317.707060813904
 21
-2.04754471778871
 31
0.0
  0
LINE
  5
   336
  8
0
  6
CONTINUOUS
 62
     7
 10
-317.707060813904
 20
7.95245528221129
 30
0.0
 11
-313.707060813904
 21
7.95245528221129
 31
0.0
  0
LINE
  5
   337
  8
0
  6
CONTINUOUS
 62
     7
 10
-317.707060813904
 20
-2.04754471778871
 30
0.0
 11
-313.707060813904
 21
-2.04754471778871
 31
0.0
  0
LINE
  5
   338
  8
0
  6
CONTINUOUS
 62
     7
 10
-316.957060813904
 20
6.20245528221129
 30
0.0
 11
-313.707060813904
 21
6.20245528221129
 31
0.0
  0
LINE
  5
   339
  8
0
  6
CONTINUOUS
 62
     7
 10
-316.957060813904
 20
-0.29754471778871
 30
0.0
 11
-313.707060813904
 21
-0.29754471778871
 31
0.0
  0
LINE
  5
   33A
  8
0
  6
CONTINUOUS
 62
     7
 10
-316.957060813904
 20
6.20245528221129
 30
0.0
 11
-316.957060813904
 21
-0.29754471778871
 31
0.0
  0
LINE
  5
   33B
  8
0
  6
CONTINUOUS
 62
     1
 10
-304.757060813904
 20
5.5524552822113
 30
0.0
 11
-304.757060813904
 21
0.352455282211295
 31
0.0
  0
LINE
  5
   33C
  8
0
  6
CONTINUOUS
 62
     1
 10
-307.957060813904
 20
5.5524552822113
 30
0.0
 11
-307.957060813904
 21
0.352455282211295
 31
0.0
  0
LINE
  5
   33D
  8
0
  6
CONTINUOUS
 62
     1
 10
-309.457060813904
 20
4.75245528221129
 30
0.0
 11
-309.457060813904
 21
1.1524552822113
 31
0.0
  0
LINE
  5
   33E
  8
0
  6
CONTINUOUS
 62
     1
 10
-316.957060813904
 20
1.15245528221129
 30
0.0
 11
-307.957060813904
 21
1.15245528221129
 31
0.0
  0
LINE
  5
   33F
  8
0
  6
CONTINUOUS
 62
     1
 10
-316.957060813904
 20
4.75245528221129
 30
0.0
 11
-307.957060813904
 21
4.75245528221129
 31
0.0
  0
LINE
  5
   340
  8
0
  6
CONTINUOUS
 62
     1
 10
-307.957060813904
 20
0.352455282211288
 30
0.0
 11
-304.757060813904
 21
0.352455282211288
 31
0.0
  0
LINE
  5
   341
  8
0
  6
CONTINUOUS
 62
     1
 10
-307.957060813904
 20
5.55245528221129
 30
0.0
 11
-304.757060813904
 21
5.55245528221129
 31
0.0
  0
LINE
  5
   342
  8
0
  6
CONTINUOUS
 62
     7
 10
-316.957060813904
 20
1.45917028221129
 30
0.0
 11
-309.457060749715
 21
1.45917028221129
 31
0.0
  0
LINE
  5
   343
  8
0
  6
CONTINUOUS
 62
     7
 10
-316.957060813904
 20
4.44574028221129
 30
0.0
 11
-309.457060749715
 21
4.44574028221129
 31
0.0
  0
LINE
  5
   344
  8
0
  6
CONTINUOUS
 62
     7
 10
-317.707060813904
 20
5.45245528221129
 30
0.0
 11
-316.957060813904
 21
5.45245528221129
 31
0.0
  0
LINE
  5
   345
  8
0
  6
CONTINUOUS
 62
     7
 10
-317.707060813904
 20
0.45245528221129
 30
0.0
 11
-316.957060813904
 21
0.45245528221129
 31
0.0
  0
INSERT
  5
   346
  8
0
  6
CONTINUOUS
 62
     7
  2
*HATCH82
 10
-333.207061767578
 20
-3.2975447177887
 30
0.0
 41
0.5
 42
0.5
 50
269.999999844103
 43
0.5
  0
INSERT
  5
   347
  8
0
  6
CONTINUOUS
 62
     7
  2
*HATCH83
 10
-333.207061767578
 20
-3.2975447177887
 30
0.0
 41
0.5
 42
0.5
 50
269.999999844103
 43
0.5
  0
INSERT
  5
   348
  8
0
  6
CONTINUOUS
 62
     7
  2
*HATCH84
 10
-333.207061767578
 20
-3.2975447177887
 30
0.0
 41
0.5
 42
0.5
 50
269.999999844103
 43
0.5
  0
INSERT
  5
   349
  8
0
  6
CONTINUOUS
 62
     7
  2
*HATCH85
 10
-333.207061767578
 20
-3.2975447177887
 30
0.0
 41
0.5
 42
0.5
 50
269.999999844103
 43
0.5
  0
LINE
  5
   34A
  8
0
  6
CONTINUOUS
 62
     7
 10
-296.207061767578
 20
24.9524490731847
 30
0.0
 11
-296.207061767578
 21
-3.2975447177887
 31
0.0
  0
LINE
  5
   34B
  8
0
  6
CONTINUOUS
 62
     7
 10
-332.957061767578
 20
-1.89754471778869
 30
0.0
 11
-284.957061767578
 21
-1.89754471778869
 31
0.0
  0
LINE
  5
   34C
  8
0
  6
CONTINUOUS
 62
     7
 10
-332.207060813904
 20
16.8495652675633
 30
0.0
 11
-332.207060813904
 21
-3.29754471778826
 31
0.0
  0
LINE
  5
   34D
  8
0
  6
CONTINUOUS
 62
     7
 10
-332.207060813904
 20
81.7024414325704
 30
0.0
 11
-332.207060813904
 21
16.8495514291417
 31
0.0
  0
LINE
  5
   34E
  8
0
  6
CONTINUOUS
 62
     7
 10
-333.207060813904
 20
76.4524338143956
 30
0.0
 11
-333.207060813904
 21
76.3672516244542
 31
0.0
  0
LINE
  5
   34F
  8
0
  6
CONTINUOUS
 62
     7
 10
-297.95707225787
 20
50.3274479041433
 30
0.0
 11
-297.957062574381
 21
46.2024360515066
 31
0.0
  0
LINE
  5
   350
  8
0
  6
CONTINUOUS
 62
     7
 10
-296.353529032647
 20
73.5988917945603
 30
0.0
 11
-296.707090425072
 21
73.452445589147
 31
0.0
  0
LINE
  5
   351
  8
0
  6
CONTINUOUS
 62
     7
 10
-296.207076444212
 20
73.9524349807459
 30
0.0
 11
-296.35352266109
 21
73.598881231521
 31
0.0
  0
LINE
  5
   352
  8
0
  6
CONTINUOUS
 62
     7
 10
-297.957061358805
 20
73.4524485191729
 30
0.0
 11
-297.957068988199
 21
69.9524485188929
 31
0.0
  0
LINE
  5
   353
  8
0
  6
CONTINUOUS
 62
     7
 10
-297.957060813904
 20
73.4524490731847
 30
0.0
 11
-296.707076072693
 21
73.4524490731847
 31
0.0
  0
LINE
  5
   354
  8
0
  6
CONTINUOUS
 62
     7
 10
-297.957068443298
 20
69.9524490731847
 30
0.0
 11
-297.957068443298
 21
50.3274490731847
 31
0.0
  0
LINE
  5
   355
  8
0
  6
CONTINUOUS
 62
     7
 10
-300.207060813904
 20
45.2024490731847
 30
0.0
 11
-300.207060813904
 21
24.9524490731847
 31
0.0
  0
LINE
  5
   356
  8
0
  6
CONTINUOUS
 62
     7
 10
-300.073073675535
 20
45.7024765980633
 30
0.0
 11
-300.207045832799
 21
45.2024766117571
 31
0.0
  0
LINE
  5
   357
  8
0
  6
CONTINUOUS
 62
     7
 10
-299.707036457781
 20
46.068523430422
 30
0.0
 11
-300.073056641788
 21
45.7024956256006
 31
0.0
  0
LINE
  5
   358
  8
0
  6
CONTINUOUS
 62
     7
 10
-299.207080603825
 20
46.2024360476411
 30
0.0
 11
-299.707088206404
 21
46.0684638904357
 31
0.0
  0
LINE
  5
   359
  8
0
  6
CONTINUOUS
 62
     7
 10
-300.207060813904
 20
24.9524490731847
 30
0.0
 11
-296.207060813904
 21
24.9524490731847
 31
0.0
  0
LINE
  5
   35A
  8
0
  6
CONTINUOUS
 62
     7
 10
-296.707120283987
 20
17.9524426793604
 30
0.0
 11
-296.207082157477
 21
17.4524426972037
 31
0.0
  0
LINE
  5
   35B
  8
0
  6
CONTINUOUS
 62
     7
 10
-296.20706276772
 20
23.9524543581501
 30
0.0
 11
-296.70710852313
 21
23.4524543763042
 31
0.0
  0
LINE
  5
   35C
  8
0
  6
CONTINUOUS
 62
     7
 10
-328.0910183311
 20
23.452433814392
 30
0.0
 11
-296.707114827682
 21
23.452433814392
 31
0.0
  0
LINE
  5
   35D
  8
0
  6
CONTINUOUS
 62
     7
 10
-328.091041564941
 20
17.9524490731847
 30
0.0
 11
-296.707107543945
 21
17.9524490731847
 31
0.0
  0
LINE
  5
   35E
  8
0
  6
CONTINUOUS
 62
     7
 10
-329.957063073965
 20
23.952434750841
 30
0.0
 11
-328.091020565661
 21
23.4524271222596
 31
0.0
  0
LINE
  5
   35F
  8
0
  6
CONTINUOUS
 62
     7
 10
-332.207060813904
 20
24.5553218124422
 30
0.0
 11
-329.957046902224
 21
23.9524293595314
 31
0.0
  0
LINE
  5
   360
  8
0
  6
CONTINUOUS
 62
     7
 10
-328.091040556232
 20
17.9524493781208
 30
0.0
 11
-332.207060258225
 21
16.8495670098507
 31
0.0
  0
LINE
  5
   361
  8
0
  6
CONTINUOUS
 62
     7
 10
-329.957072578535
 20
18.2024433765592
 30
0.0
 11
-328.55755414075
 21
17.8274434055783
 31
0.0
  0
LINE
  5
   362
  8
0
  6
CONTINUOUS
 62
     7
 10
-329.957077503204
 20
23.2024481433571
 30
0.0
 11
-329.957077503204
 21
18.2024481433571
 31
0.0
  0
LINE
  5
   363
  8
0
  6
CONTINUOUS
 62
     7
 10
-328.557547001399
 20
23.5774414528822
 30
0.0
 11
-329.957077356938
 21
23.2024414562309
 31
0.0
  0
LINE
  5
   364
  8
0
  6
CONTINUOUS
 62
     3
 10
-332.207060813904
 20
81.7024490731847
 30
0.0
 11
-320.707060813904
 21
81.7024490731847
 31
0.0
  0
LINE
  5
   365
  8
0
  6
CONTINUOUS
 62
     3
 10
-296.207060813904
 20
80.3024551767003
 30
0.0
 11
-285.107062339186
 21
80.3024551767003
 31
0.0
  0
LINE
  5
   366
  8
0
  6
CONTINUOUS
 62
     3
 10
-296.207060813308
 20
-1.89754367889054
 30
0.0
 11
-285.107062339186
 21
-1.89754367889054
 31
0.0
  0
LINE
  5
   367
  8
0
  6
CONTINUOUS
 62
     3
 10
-296.207060813308
 20
17.8274490731846
 30
0.0
 11
-296.207060813308
 21
8.31341242392115
 31
0.0
  0
LINE
  5
   368
  8
0
  6
CONTINUOUS
 62
     3
 10
-296.207060813306
 20
24.9524795907628
 30
0.0
 11
-296.207060813306
 21
23.5774414437901
 31
0.0
  0
LINE
  5
   369
  8
0
  6
CONTINUOUS
 62
     3
 10
-296.207060813904
 20
81.7024490731847
 30
0.0
 11
-296.207060813904
 21
73.9524727157869
 31
0.0
  0
LINE
  5
   36A
  8
0
  6
CONTINUOUS
 62
     3
 10
-283.707060813308
 20
81.7024490731847
 30
0.0
 11
-283.707060813308
 21
69.5774490731847
 31
0.0
  0
LINE
  5
   36B
  8
0
  6
CONTINUOUS
 62
     3
 10
-285.107062339186
 20
73.5774567025792
 30
0.0
 11
-283.707060813308
 21
73.5774567025792
 31
0.0
  0
LINE
  5
   36C
  8
0
  6
CONTINUOUS
 62
     3
 10
-283.707060813308
 20
9.07745758813379
 30
0.0
 11
-283.707060813308
 21
-3.2975447177887
 31
0.0
  0
LINE
  5
   36D
  8
0
  6
CONTINUOUS
 62
     3
 10
-285.107062339186
 20
4.82745670257918
 30
0.0
 11
-283.707060813308
 21
4.82745670257918
 31
0.0
  0
LINE
  5
   36E
  8
0
  6
CONTINUOUS
 62
     3
 10
-296.207062342714
 20
23.5774490731847
 30
0.0
 11
-285.107063868593
 21
23.5774490731847
 31
0.0
  0
LINE
  5
   36F
  8
0
  6
CONTINUOUS
 62
     3
 10
-296.20706199751
 20
17.8274490731847
 30
0.0
 11
-285.107063523389
 21
17.8274490731847
 31
0.0
  0
LINE
  5
   370
  8
0
  6
CONTINUOUS
 62
     1
 10
-283.707060813308
 20
69.5774490731847
 30
0.0
 11
-282.457061290145
 21
69.5774490731847
 31
0.0
  0
LINE
  5
   371
  8
0
  6
CONTINUOUS
 62
     1
 10
-283.957060813308
 20
9.07745717941634
 30
0.0
 11
-283.707060813308
 21
9.07745717941634
 31
0.0
  0
LINE
  5
   372
  8
0
  6
CONTINUOUS
 62
     1
 10
-283.707060813308
 20
9.07747107581475
 30
0.0
 11
-282.457061290145
 21
9.07747107581475
 31
0.0
  0
LINE
  5
   373
  8
0
  6
CONTINUOUS
 62
     7
 10
-299.207080603825
 20
46.2024360476411
 30
0.0
 11
-297.957064628476
 21
46.2024360476411
 31
0.0
  0
LINE
  5
   374
  8
0
  6
CONTINUOUS
 62
     7
 10
-282.457061290145
 20
69.5774490731847
 30
0.0
 11
-282.457061290145
 21
64.3274490731847
 31
0.0
  0
LINE
  5
   375
  8
0
  6
CONTINUOUS
 62
     7
 10
-282.457061290145
 20
11.8274490743647
 30
0.0
 11
-282.457061290145
 21
9.07745724753591
 31
0.0
  0
LINE
  5
   376
  8
0
  6
CONTINUOUS
 62
     3
 10
-285.107062339186
 20
80.3024551767003
 30
0.0
 11
-285.107062339186
 21
-1.89754177154191
 31
0.0
  0
ARC
  5
   377
  8
0
  6
CONTINUOUS
 62
     7
 10
-266.619040909231
 20
27.0555082478986
 30
0.0
 40
0.499999897877905
 50
348.623601612745
 51
436.688816950645
  0
ARC
  5
   378
  8
0
  6
CONTINUOUS
 62
     7
 10
-267.217411637778
 20
24.0815989678497
 30
0.0
 40
0.50000037262337
 50
620.59402043972
 51
708.623601612745
  0
LINE
  5
   379
  8
0
  6
CONTINUOUS
 62
     7
 10
-276.956501276783
 20
30.0151142249998
 30
0.0
 11
-266.503921177617
 21
27.542074774554
 31
0.0
  0
LINE
  5
   37A
  8
0
  6
CONTINUOUS
 62
     7
 10
-266.128864579847
 20
26.9568814721912
 30
0.0
 11
-266.727235144101
 21
23.9829721590853
 31
0.0
  0
LINE
  5
   37B
  8
0
  6
CONTINUOUS
 62
     7
 10
-276.956476213113
 20
25.1881206261989
 30
0.0
 11
-267.299126132318
 21
23.5883212045492
 31
0.0
  0
LINE
  5
   37C
  8
0
  6
CONTINUOUS
 62
     7
 10
-332.207060813904
 20
-3.2975447177887
 30
0.0
 11
-331.457060813906
 21
-3.2975447177887
 31
0.0
  0
LINE
  5
   37D
  8
0
  6
CONTINUOUS
 62
     2
 10
-323.707060813906
 20
-3.29755024965272
 30
0.0
 11
-322.207060813906
 21
-3.29755024965272
 31
0.0
  0
LINE
  5
   37E
  8
0
  6
CONTINUOUS
 62
     7
 10
-332.207060813904
 20
-3.2975447177887
 30
0.0
 11
-283.707060813308
 21
-3.2975447177887
 31
0.0
  0
LINE
  5
   37F
  8
0
  6
DASHDOT
 62
     7
 10
-338.342959224271
 20
73.9524490731847
 30
0.0
 11
-329.036019989377
 21
73.9524490731847
 31
0.0
  0
LINE
  5
   380
  8
0
  6
DASHDOT
 62
     7
 10
-338.342959224271
 20
4.45244907318465
 30
0.0
 11
-329.036019989377
 21
4.45244907318465
 31
0.0
  0
LINE
  5
   381
  8
0
  6
CONTINUOUS
 62
     2
 10
-333.207060813904
 20
76.4524490731847
 30
0.0
 11
-332.207060813904
 21
76.4524490731847
 31
0.0
  0
LINE
  5
   382
  8
0
  6
CONTINUOUS
 62
     2
 10
-333.207060813904
 20
71.4524490731847
 30
0.0
 11
-332.207060813904
 21
71.4524490731847
 31
0.0
  0
LINE
  5
   383
  8
0
  6
CONTINUOUS
 62
     2
 10
-333.207060813904
 20
6.95244907318465
 30
0.0
 11
-332.207060813904
 21
6.95244907318465
 31
0.0
  0
LINE
  5
   384
  8
0
  6
CONTINUOUS
 62
     2
 10
-333.207060813904
 20
1.95244907318465
 30
0.0
 11
-332.207060813904
 21
1.95244907318465
 31
0.0
  0
LINE
  5
   385
  8
0
  6
CONTINUOUS
 62
     7
 10
-279.207061767578
 20
64.3274490731847
 30
0.0
 11
-279.207061767578
 21
44.2024490731847
 31
0.0
  0
LINE
  5
   386
  8
0
  6
CONTINUOUS
 62
     7
 10
-282.457061290145
 20
64.3274490731847
 30
0.0
 11
-279.207061767578
 21
64.3274490731847
 31
0.0
  0
LINE
  5
   387
  8
0
  6
CONTINUOUS
 62
     7
 10
-282.457061290145
 20
11.8274490731847
 30
0.0
 11
-279.207061767578
 21
11.8274490731847
 31
0.0
  0
LINE
  5
   388
  8
0
  6
CONTINUOUS
 62
     7
 10
-279.207061767578
 20
44.2024490731847
 30
0.0
 11
-276.957061767578
 21
44.2024490731847
 31
0.0
  0
LINE
  5
   389
  8
0
  6
CONTINUOUS
 62
     7
 10
-279.207061767578
 20
21.7024490731847
 30
0.0
 11
-276.957061767578
 21
21.7024490731847
 31
0.0
  0
LINE
  5
   38A
  8
0
  6
CONTINUOUS
 62
     7
 10
-282.457061290145
 20
11.8274490731847
 30
0.0
 11
-282.457061290145
 21
9.07747107581475
 31
0.0
  0
LINE
  5
   38B
  8
0
  6
CONTINUOUS
 62
     7
 10
-320.75757088602
 20
70.4524490731847
 30
0.0
 11
-314.757414572704
 21
70.4524490731847
 31
0.0
  0
LINE
  5
   38C
  8
0
  6
CONTINUOUS
 62
     7
 10
-321.0419967809
 20
69.2024490731847
 30
0.0
 11
-314.907662404179
 21
69.2024490731847
 31
0.0
  0
LINE
  5
   38D
  8
0
  6
CONTINUOUS
 62
     7
 10
-327.707060813904
 20
69.2024490731847
 30
0.0
 11
-327.707060813904
 21
67.1696716919811
 31
0.0
  0
LINE
  5
   38E
  8
0
  6
CONTINUOUS
 62
     7
 10
-325.707060813904
 20
69.2024490731847
 30
0.0
 11
-325.707060813904
 21
67.1696716919811
 31
0.0
  0
LINE
  5
   38F
  8
0
  6
CONTINUOUS
 62
     7
 10
-320.707060813904
 20
73.3524490731846
 30
0.0
 11
-320.707060813904
 21
69.2024490731847
 31
0.0
  0
LINE
  5
   390
  8
0
  6
CONTINUOUS
 62
     7
 10
-327.707060813904
 20
69.2024490731847
 30
0.0
 11
-324.48283739745
 21
69.2024490731847
 31
0.0
  0
LINE
  5
   391
  8
0
  6
CONTINUOUS
 62
     3
 10
-330.945156968265
 20
67.1696716919811
 30
0.0
 11
-314.588089911407
 21
67.1696716919811
 31
0.0
  0
LINE
  5
   392
  8
0
  6
CONTINUOUS
 62
     7
 10
-323.207060813904
 20
79.9524490731847
 30
0.0
 11
-320.707060813904
 21
79.9524490731847
 31
0.0
  0
LINE
  5
   393
  8
0
  6
CONTINUOUS
 62
     7
 10
-320.707060813904
 20
79.9524490731847
 30
0.0
 11
-320.707060813904
 21
77.0024490731847
 31
0.0
  0
LINE
  5
   394
  8
0
  6
CONTINUOUS
 62
     7
 10
-321.457425777996
 20
68.6667333960099
 30
0.0
 11
-323.495669473989
 21
66.669671691981
 31
0.0
  0
LINE
  5
   395
  8
0
  6
CONTINUOUS
 62
     7
 10
-323.207060893361
 20
70.4524491756357
 30
0.0
 11
-324.956696310412
 21
68.7381642334412
 31
0.0
  0
LINE
  5
   396
  8
0
  6
CONTINUOUS
 62
     7
 10
-323.207060813904
 20
73.3524490731846
 30
0.0
 11
-323.207060813904
 21
70.4524490731847
 31
0.0
  0
ARC
  5
   397
  8
0
  6
CONTINUOUS
 62
     7
 10
-323.207061216137
 20
66.9524498718204
 30
0.0
 40
2.49999952145068
 50
494.415297399511
 51
539.999999844103
  0
ARC
  5
   398
  8
0
  6
CONTINUOUS
 62
     7
 10
-323.207060813904
 20
70.4524481663815
 30
0.0
 40
2.5
 50
314.41529257009
 51
359.999999844103
  0
INSERT
  5
   399
  8
0
  6
CONTINUOUS
 62
     7
  2
*HATCH86
 10
-333.207061767578
 20
-3.2975447177887
 30
0.0
 41
0.5
 42
0.5
 50
269.999999844103
 43
0.5
  0
LINE
  5
   39A
  8
0
  6
CONTINUOUS
 62
     7
 10
-323.207060813904
 20
73.3524490731846
 30
0.0
 11
-320.707060813904
 21
73.3524490731846
 31
0.0
  0
INSERT
  5
   39B
  8
0
  6
CONTINUOUS
 62
     7
  2
*HATCH87
 10
-333.207061767578
 20
-3.2975447177887
 30
0.0
 41
0.5
 42
0.5
 50
269.999999844103
 43
0.5
  0
INSERT
  5
   39C
  8
0
  6
CONTINUOUS
 62
     7
  2
*HATCH88
 10
-333.207061767578
 20
-3.2975447177887
 30
0.0
 41
0.5
 42
0.5
 50
269.999999844103
 43
0.5
  0
LINE
  5
   39D
  8
0
  6
CONTINUOUS
 62
     3
 10
-299.339815660538
 20
81.7024490731847
 30
0.0
 11
-300.617635282483
 21
70.0914919314748
 31
0.0
  0
LINE
  5
   39E
  8
0
  6
CONTINUOUS
 62
     3
 10
-314.822460518853
 20
70.0914919314748
 30
0.0
 11
-314.588089911407
 21
67.1696716919811
 31
0.0
  0
LINE
  5
   39F
  8
0
  6
CONTINUOUS
 62
     3
 10
-314.822460518853
 20
70.0914919314748
 30
0.0
 11
-300.617635282483
 21
70.0914919314748
 31
0.0
  0
LINE
  5
   3A0
  8
0
  6
CONTINUOUS
 62
     7
 10
-323.207060813904
 20
79.9524490731847
 30
0.0
 11
-323.207060813904
 21
77.5524490731847
 31
0.0
  0
LINE
  5
   3A1
  8
0
  6
CONTINUOUS
 62
     3
 10
-323.207060813904
 20
73.4524490731847
 30
0.0
 11
-323.207060813904
 21
70.4524490731847
 31
0.0
  0
LINE
  5
   3A2
  8
0
  6
CONTINUOUS
 62
     3
 10
-324.457060813904
 20
70.4524490731847
 30
0.0
 11
-323.207060813904
 21
70.4524490731847
 31
0.0
  0
LINE
  5
   3A3
  8
0
  6
CONTINUOUS
 62
     3
 10
-323.207060813904
 20
80.4524490731847
 30
0.0
 11
-323.207060813904
 21
77.4524490731847
 31
0.0
  0
LINE
  5
   3A4
  8
0
  6
DOT
 62
     3
 10
-323.207060813904
 20
70.4524490731847
 30
0.0
 11
-320.707060813904
 21
70.4524490731847
 31
0.0
  0
LINE
  5
   3A5
  8
0
  6
CONTINUOUS
 62
     3
 10
-317.707060813904
 20
81.7024490731847
 30
0.0
 11
-283.707060813308
 21
81.7024490731847
 31
0.0
  0
LINE
  5
   3A6
  8
0
  6
CONTINUOUS
 62
     7
 10
-308.207060813904
 20
7.45760602663508
 30
0.0
 11
-308.207060813904
 21
0.177276049046796
 31
0.0
  0
LINE
  5
   3A7
  8
0
  6
CONTINUOUS
 62
     7
 10
-308.207060813904
 20
11.2352326634149
 30
0.0
 11
-308.207060813904
 21
7.95245528221132
 31
0.0
  0
LINE
  5
   3A8
  8
0
  6
CONTINUOUS
 62
     3
 10
-323.321481376885
 20
11.2352326634149
 30
0.0
 11
-302.088089911407
 21
11.2352326634149
 31
0.0
  0
LINE
  5
   3A9
  8
0
  6
CONTINUOUS
 62
     7
 10
-310.707060813904
 20
-1.54754471778871
 30
0.0
 11
-308.207060813904
 21
-1.54754471778871
 31
0.0
  0
LINE
  5
   3AA
  8
0
  6
CONTINUOUS
 62
     7
 10
-308.207060813904
 20
7.95245618901443
 30
0.0
 11
-308.207060813904
 21
-1.54754471778868
 31
0.0
  0
LINE
  5
   3AB
  8
0
  6
CONTINUOUS
 62
     7
 10
-310.707060813904
 20
11.2352326634149
 30
0.0
 11
-310.707060813904
 21
5.05245528221134
 31
0.0
  0
LINE
  5
   3AC
  8
0
  6
DASHDOT
 62
     7
 10
-313.370574926888
 20
2.95245528221129
 30
0.0
 11
-305.04075136259
 21
2.95245528221129
 31
0.0
  0
LINE
  5
   3AD
  8
0
  6
CONTINUOUS
 62
     7
 10
-310.707060813904
 20
0.852455282211295
 30
0.0
 11
-308.207060813904
 21
0.852455282211295
 31
0.0
  0
LINE
  5
   3AE
  8
0
  6
CONTINUOUS
 62
     7
 10
-310.707060813904
 20
5.05245528221131
 30
0.0
 11
-308.207060813904
 21
5.05245528221131
 31
0.0
  0
INSERT
  5
   3AF
  8
0
  6
CONTINUOUS
 62
     7
  2
*HATCH89
 10
-333.207061767578
 20
-3.2975447177887
 30
0.0
 41
0.5
 42
0.5
 50
269.999999844103
 43
0.5
  0
LINE
  5
   3B0
  8
0
  6
CONTINUOUS
 62
     3
 10
-288.117635282483
 20
8.31341242392119
 30
0.0
 11
-286.839815660538
 21
-3.2975447177887
 31
0.0
  0
LINE
  5
   3B1
  8
0
  6
CONTINUOUS
 62
     3
 10
-302.088089911407
 20
11.2352326634149
 30
0.0
 11
-302.322460518853
 21
8.31341242392116
 31
0.0
  0
LINE
  5
   3B2
  8
0
  6
CONTINUOUS
 62
     3
 10
-302.322460518853
 20
8.31341242392115
 30
0.0
 11
-288.117635282483
 21
8.31341242392115
 31
0.0
  0
LINE
  5
   3B3
  8
0
  6
CONTINUOUS
 62
     7
 10
-310.707060813904
 20
0.852455282211324
 30
0.0
 11
-310.707060813904
 21
-1.54754471778868
 31
0.0
  0
LINE
  5
   3B4
  8
0
  6
DOT
 62
     3
 10
-296.207060813904
 20
5.95245528221132
 30
0.0
 11
-296.207060813904
 21
-4.75447177886821E-2
 31
0.0
  0
INSERT
  5
   3B5
  8
0
  6
CONTINUOUS
 62
     7
  2
*HATCH90
 10
-333.207061767578
 20
-3.2975447177887
 30
0.0
 41
0.5
 42
0.5
 50
269.999999844103
 43
0.5
  0
INSERT
  5
   3B6
  8
0
  6
CONTINUOUS
 62
     7
  2
*HATCH91
 10
-333.207061767578
 20
-3.2975447177887
 30
0.0
 41
0.5
 42
0.5
 50
269.999999844103
 43
0.5
  0
LINE
  5
   3B7
  8
0
  6
CONTINUOUS
 62
     7
 10
-276.957061767578
 20
44.2024490731847
 30
0.0
 11
-276.957061767578
 21
21.7024490731847
 31
0.0
  0
LINE
  5
   3B8
  8
0
  6
CONTINUOUS
 62
     7
 10
-322.607060813904
 20
-3.2975447177887
 30
0.0
 11
-322.607060813904
 21
-23.2975447177886
 31
0.0
  0
LINE
  5
   3B9
  8
0
  6
CONTINUOUS
 62
     7
 10
-330.707060813904
 20
-3.29754471778869
 30
0.0
 11
-330.707060813904
 21
-15.1975447177885
 31
0.0
  0
ARC
  5
   3BA
  8
0
  6
CONTINUOUS
 62
     7
 10
-317.607060813904
 20
-23.2975447177886
 30
0.0
 40
5.0
 50
539.999999844103
 51
719.999999844103
  0
LINE
  5
   3BB
  8
0
  6
CONTINUOUS
 62
     7
 10
-329.242594719837
 20
-18.7330786237213
 30
0.0
 11
-321.142594719837
 21
-26.8330786237213
 31
0.0
  0
ARC
  5
   3BC
  8
0
  6
CONTINUOUS
 62
     7
 10
-325.707060813904
 20
-15.1975447177885
 30
0.0
 40
5.0
 50
539.999999844103
 51
584.999999844103
  0
LINE
  5
   3BD
  8
0
  6
CONTINUOUS
 62
     2
 10
-345.45706258314
 20
43.9524552822113
 30
0.0
 11
-336.957061767578
 21
43.9524552822113
 31
0.0
  0
LINE
  5
   3BE
  8
0
  6
CONTINUOUS
 62
     2
 10
-345.957061767578
 20
43.4524552822113
 30
0.0
 11
-345.957061767578
 21
22.4524545620659
 31
0.0
  0
LINE
  5
   3BF
  8
0
  6
CONTINUOUS
 62
     2
 10
-345.457061604312
 20
21.9524552822113
 30
0.0
 11
-336.957061767578
 21
21.9524552822113
 31
0.0
  0
LINE
  5
   3C0
  8
0
  6
CONTINUOUS
 62
     2
 10
-336.457061767578
 20
14.2024552822113
 30
0.0
 11
-334.957061767578
 21
14.2024552822113
 31
0.0
  0
LINE
  5
   3C1
  8
0
  6
CONTINUOUS
 62
     2
 10
-336.457061767578
 20
19.9524552822113
 30
0.0
 11
-336.457061767578
 21
14.2024552822113
 31
0.0
  0
LINE
  5
   3C2
  8
0
  6
CONTINUOUS
 62
     2
 10
-336.603507972597
 20
20.3060070195011
 30
0.0
 11
-336.45706126531
 21
19.9524532372079
 31
0.0
  0
LINE
  5
   3C3
  8
0
  6
CONTINUOUS
 62
     2
 10
-336.95706079789
 20
20.4524531926354
 30
0.0
 11
-336.603507502567
 21
20.3060069643518
 31
0.0
  0
LINE
  5
   3C4
  8
0
  6
CONTINUOUS
 62
     2
 10
-345.457064157176
 20
20.4524552822113
 30
0.0
 11
-336.957061767578
 21
20.4524552822113
 31
0.0
  0
LINE
  5
   3C5
  8
0
  6
CONTINUOUS
 62
     2
 10
-347.457061767578
 20
43.4524552822113
 30
0.0
 11
-347.457061767578
 21
22.4524548997481
 31
0.0
  0
LINE
  5
   3C6
  8
0
  6
CONTINUOUS
 62
     2
 10
-345.457051532273
 20
45.4524552822113
 30
0.0
 11
-336.957061767578
 21
45.4524552822113
 31
0.0
  0
LINE
  5
   3C7
  8
0
  6
CONTINUOUS
 62
     2
 10
-336.457061767578
 20
51.7024552822113
 30
0.0
 11
-336.457061767578
 21
45.9524520715481
 31
0.0
  0
LINE
  5
   3C8
  8
0
  6
CONTINUOUS
 62
     2
 10
-336.457061767578
 20
51.7024552822113
 30
0.0
 11
-334.957061767578
 21
51.7024552822113
 31
0.0
  0
LINE
  5
   3C9
  8
0
  6
CONTINUOUS
 62
   210
 10
-333.957061827183
 20
0.952455282211304
 30
0.0
 11
-333.207061827183
 21
0.952455282211304
 31
0.0
  0
LINE
  5
   3CA
  8
0
  6
CONTINUOUS
 62
   210
 10
-333.957061827183
 20
77.4524552822113
 30
0.0
 11
-333.207061827183
 21
77.4524552822113
 31
0.0
  0
LINE
  5
   3CB
  8
0
  6
CONTINUOUS
 62
   210
 10
-333.20706182922
 20
77.4524552822113
 30
0.0
 11
-333.20706182922
 21
54.7024552822113
 31
0.0
  0
LINE
  5
   3CC
  8
0
  6
CONTINUOUS
 62
   210
 10
-333.20706182922
 20
10.952454328537
 30
0.0
 11
-333.20706182922
 21
0.952455282211304
 31
0.0
  0
LINE
  5
   3CD
  8
0
  6
CONTINUOUS
 62
   210
 10
-333.957061827183
 20
10.9524562358856
 30
0.0
 11
-333.957061827183
 21
0.952455282211304
 31
0.0
  0
LINE
  5
   3CE
  8
0
  6
CONTINUOUS
 62
   210
 10
-333.957061827183
 20
77.4524552822113
 30
0.0
 11
-333.957061827183
 21
54.7024552822113
 31
0.0
  0
LINE
  5
   3CF
  8
0
  6
CONTINUOUS
 62
   210
 10
-334.707061886787
 20
75.3899552822113
 30
0.0
 11
-334.707061886787
 21
72.5149552822113
 31
0.0
  0
LINE
  5
   3D0
  8
0
  6
CONTINUOUS
 62
   210
 10
-334.707061886787
 20
5.8899552822113
 30
0.0
 11
-334.707061886787
 21
3.0149552822113
 31
0.0
  0
LINE
  5
   3D1
  8
0
  6
CONTINUOUS
 62
   210
 10
-338.457061767578
 20
52.2024552822113
 30
0.0
 11
-338.457061767578
 21
49.2024552822113
 31
0.0
  0
LINE
  5
   3D2
  8
0
  6
CONTINUOUS
 62
   210
 10
-333.20706182922
 20
54.7024552822113
 30
0.0
 11
-333.20706182922
 21
10.9524552822113
 31
0.0
  0
LINE
  5
   3D3
  8
0
  6
CONTINUOUS
 62
   210
 10
-335.957061767578
 20
54.7024552822113
 30
0.0
 11
-333.207061767578
 21
54.7024552822113
 31
0.0
  0
LINE
  5
   3D4
  8
0
  6
CONTINUOUS
 62
   210
 10
-336.45706182922
 20
10.9524552822113
 30
0.0
 11
-333.20706182922
 21
10.9524552822113
 31
0.0
  0
LINE
  5
   3D5
  8
0
  6
CONTINUOUS
 62
   210
 10
-336.766078556089
 20
11.0013985477298
 30
0.0
 11
-336.457061609958
 21
10.9524550289594
 31
0.0
  0
LINE
  5
   3D6
  8
0
  6
CONTINUOUS
 62
   210
 10
-337.04484694487
 20
11.1434380013956
 30
0.0
 11
-336.766078651564
 21
11.001398699541
 31
0.0
  0
LINE
  5
   3D7
  8
0
  6
CONTINUOUS
 62
   210
 10
-337.266078719315
 20
11.3646701039413
 30
0.0
 11
-337.04484678595
 21
11.1434376857158
 31
0.0
  0
LINE
  5
   3D8
  8
0
  6
CONTINUOUS
 62
   210
 10
-337.40811797903
 20
11.6434374108704
 30
0.0
 11
-337.266078681578
 21
11.3646698243869
 31
0.0
  0
LINE
  5
   3D9
  8
0
  6
CONTINUOUS
 62
   210
 10
-337.457062335987
 20
11.9524578898017
 30
0.0
 11
-337.408118817217
 21
11.6434407003255
 31
0.0
  0
LINE
  5
   3DA
  8
0
  6
CONTINUOUS
 62
   210
 10
-337.457061767578
 20
12.9524552822113
 30
0.0
 11
-337.457061767578
 21
11.9524552822113
 31
0.0
  0
LINE
  5
   3DB
  8
0
  6
CONTINUOUS
 62
   210
 10
-337.40811839583
 20
13.2614751796441
 30
0.0
 11
-337.457061914601
 21
12.952457990168
 31
0.0
  0
LINE
  5
   3DC
  8
0
  6
CONTINUOUS
 62
   210
 10
-337.266078912995
 20
13.5402415395705
 30
0.0
 11
-337.408118216318
 21
13.2614730044404
 31
0.0
  0
LINE
  5
   3DD
  8
0
  6
CONTINUOUS
 62
   210
 10
-337.044846957102
 20
13.7614730518102
 30
0.0
 11
-337.266078890638
 21
13.5402415844849
 31
0.0
  0
LINE
  5
   3DE
  8
0
  6
CONTINUOUS
 62
   210
 10
-336.766078718801
 20
13.9035135194842
 30
0.0
 11
-337.044847010895
 21
13.7614732636232
 31
0.0
  0
LINE
  5
   3DF
  8
0
  6
CONTINUOUS
 62
   210
 10
-336.457061720317
 20
13.9524551196559
 30
0.0
 11
-336.766078668458
 21
13.9035125519554
 31
0.0
  0
LINE
  5
   3E0
  8
0
  6
CONTINUOUS
 62
   210
 10
-336.457061767578
 20
13.9524552822113
 30
0.0
 11
-334.957061886787
 21
13.9524552822113
 31
0.0
  0
LINE
  5
   3E1
  8
0
  6
CONTINUOUS
 62
   210
 10
-334.957061886787
 20
51.7024552822113
 30
0.0
 11
-334.957061886787
 21
31.7024552822113
 31
0.0
  0
LINE
  5
   3E2
  8
0
  6
CONTINUOUS
 62
   210
 10
-334.957061886787
 20
29.7024552822113
 30
0.0
 11
-334.957061886787
 21
13.9524552822113
 31
0.0
  0
LINE
  5
   3E3
  8
0
  6
CONTINUOUS
 62
   210
 10
-336.457061906235
 20
51.7024538595024
 30
0.0
 11
-337.126934910577
 21
49.2024537936335
 31
0.0
  0
LINE
  5
   3E4
  8
0
  6
CONTINUOUS
 62
   210
 10
-337.957061767578
 20
-0.797544479370117
 30
0.0
 11
-334.457061767578
 21
-0.797544479370117
 31
0.0
  0
LINE
  5
   3E5
  8
0
  6
CONTINUOUS
 62
   210
 10
-334.265720089079
 20
-0.759484344991428
 30
0.0
 11
-334.457061841956
 21
-0.797544532874405
 31
0.0
  0
LINE
  5
   3E6
  8
0
  6
CONTINUOUS
 62
   210
 10
-334.103508447407
 20
-0.651097845676718
 30
0.0
 11
-334.265720164905
 21
-0.759484126607974
 31
0.0
  0
LINE
  5
   3E7
  8
0
  6
CONTINUOUS
 62
   210
 10
-333.995122059508
 20
-0.488886099681118
 30
0.0
 11
-334.10350840193
 21
-0.651097758276554
 31
0.0
  0
LINE
  5
   3E8
  8
0
  6
CONTINUOUS
 62
   210
 10
-333.957061817717
 20
-0.297544745150659
 30
0.0
 11
-333.995122066648
 21
-0.488886617932924
 31
0.0
  0
LINE
  5
   3E9
  8
0
  6
CONTINUOUS
 62
   210
 10
-333.957061827183
 20
0.952455282211304
 30
0.0
 11
-333.957061827183
 21
-0.297544479370117
 31
0.0
  0
LINE
  5
   3EA
  8
0
  6
CONTINUOUS
 62
   210
 10
-333.207061829223
 20
0.952455282211304
 30
0.0
 11
-333.207061829223
 21
-0.547544479370117
 31
0.0
  0
LINE
  5
   3EB
  8
0
  6
CONTINUOUS
 62
   210
 10
-333.207061801152
 20
-0.547544120490858
 30
0.0
 11
-333.256005282626
 21
-0.85656130996702
 31
0.0
  0
LINE
  5
   3EC
  8
0
  6
CONTINUOUS
 62
   210
 10
-333.256005298977
 20
-0.856561593762748
 30
0.0
 11
-333.398044817114
 21
-1.13532965031374
 31
0.0
  0
LINE
  5
   3ED
  8
0
  6
CONTINUOUS
 62
   210
 10
-333.398044853101
 20
-1.13532977723095
 30
0.0
 11
-333.619276591204
 21
-1.35656158992812
 31
0.0
  0
LINE
  5
   3EE
  8
0
  6
CONTINUOUS
 62
   210
 10
-333.61927657665
 20
-1.35656159452101
 30
0.0
 11
-333.898044811174
 21
-1.49860112856839
 31
0.0
  0
LINE
  5
   3EF
  8
0
  6
CONTINUOUS
 62
   210
 10
-333.898044862824
 20
-1.49860101794062
 30
0.0
 11
-334.20706191591
 21
-1.54754453671109
 31
0.0
  0
LINE
  5
   3F0
  8
0
  6
CONTINUOUS
 62
   210
 10
-337.957061886787
 20
-1.54754459857941
 30
0.0
 11
-334.207061886787
 21
-1.54754459857941
 31
0.0
  0
LINE
  5
   3F1
  8
0
  6
CONTINUOUS
 62
   210
 10
-337.957061767578
 20
-0.797544479370117
 30
0.0
 11
-337.957061767578
 21
-1.54754459857941
 31
0.0
  0
LINE
  5
   3F2
  8
0
  6
CONTINUOUS
 62
   210
 10
-334.607046723366
 20
0.452455520629883
 30
0.0
 11
-333.957061827183
 21
0.452455520629883
 31
0.0
  0
LINE
  5
   3F3
  8
0
  6
CONTINUOUS
 62
   210
 10
-334.694799780846
 20
60.9524552822113
 30
0.0
 11
-334.694799780846
 21
54.7024552822113
 31
0.0
  0
LINE
  5
   3F4
  8
0
  6
CONTINUOUS
 62
   210
 10
-334.678567409515
 20
60.9524552822113
 30
0.0
 11
-334.622189164162
 21
60.9524552822113
 31
0.0
  0
LINE
  5
   3F5
  8
0
  6
CONTINUOUS
 62
   210
 10
-333.995122238005
 20
10.6437979678913
 30
0.0
 11
-333.957061989074
 21
10.4524565627838
 31
0.0
  0
LINE
  5
   3F6
  8
0
  6
CONTINUOUS
 62
   210
 10
-334.103508083414
 20
10.8060080143344
 30
0.0
 11
-333.995121750417
 21
10.6437956384447
 31
0.0
  0
LINE
  5
   3F7
  8
0
  6
CONTINUOUS
 62
   210
 10
-334.265719776613
 20
10.9143942888933
 30
0.0
 11
-334.103508065207
 21
10.8060082486154
 31
0.0
  0
LINE
  5
   3F8
  8
0
  6
CONTINUOUS
 62
   210
 10
-334.457061769171
 20
10.9524549408444
 30
0.0
 11
-334.265720016294
 21
10.9143947529614
 31
0.0
  0
LINE
  5
   3F9
  8
0
  6
CONTINUOUS
 62
   210
 10
-337.957061767578
 20
10.9524552822113
 30
0.0
 11
-336.457061767578
 21
10.9524552822113
 31
0.0
  0
LINE
  5
   3FA
  8
0
  6
CONTINUOUS
 62
   210
 10
-337.957061767578
 20
11.7024552822113
 30
0.0
 11
-337.957061767578
 21
10.9524552822113
 31
0.0
  0
LINE
  5
   3FB
  8
0
  6
CONTINUOUS
 62
   210
 10
-337.957061767578
 20
11.7024552822113
 30
0.0
 11
-337.417465686798
 21
11.7024552822113
 31
0.0
  0
LINE
  5
   3FC
  8
0
  6
CONTINUOUS
 62
   130
 10
-336.457061427878
 20
14.6364746525087
 30
0.0
 11
-336.964015857939
 21
14.2110901285757
 31
0.0
  0
LINE
  5
   3FD
  8
0
  6
CONTINUOUS
 62
   130
 10
-335.977714016939
 20
14.2024551628455
 30
0.0
 11
-335.767939127955
 21
13.9524552822113
 31
0.0
  0
LINE
  5
   3FE
  8
0
  6
CONTINUOUS
 62
   130
 10
-336.964015190599
 20
14.2110910825428
 30
0.0
 11
-336.723942437583
 21
13.9249831354158
 31
0.0
  0
LINE
  5
   3FF
  8
0
  6
CONTINUOUS
 62
   210
 10
-333.990554743105
 20
72.3899499232827
 30
0.0
 11
-333.957061106001
 21
72.2649499257466
 31
0.0
  0
LINE
  5
   400
  8
0
  6
CONTINUOUS
 62
   210
 10
-334.082059517257
 20
72.481455489666
 30
0.0
 11
-333.990553153118
 21
72.3899485315925
 31
0.0
  0
LINE
  5
   401
  8
0
  6
CONTINUOUS
 62
   210
 10
-334.207062681695
 20
72.5149584097165
 30
0.0
 11
-334.082062622931
 21
72.4814653665442
 31
0.0
  0
LINE
  5
   402
  8
0
  6
CONTINUOUS
 62
   210
 10
-333.957062520649
 20
75.6399497005412
 30
0.0
 11
-333.990556157753
 21
75.5149497030051
 31
0.0
  0
LINE
  5
   403
  8
0
  6
CONTINUOUS
 62
   210
 10
-333.990557730633
 20
75.5149483002567
 30
0.0
 11
-334.082064094772
 21
75.4234413421831
 31
0.0
  0
LINE
  5
   404
  8
0
  6
CONTINUOUS
 62
   210
 10
-334.082061133518
 20
75.4234515547047
 30
0.0
 11
-334.207061192282
 21
75.3899585115324
 31
0.0
  0
LINE
  5
   405
  8
0
  6
CONTINUOUS
 62
   210
 10
-334.707061886787
 20
72.5149552822113
 30
0.0
 11
-334.207061886787
 21
72.5149552822113
 31
0.0
  0
LINE
  5
   406
  8
0
  6
CONTINUOUS
 62
   210
 10
-334.707061886787
 20
75.3899552822113
 30
0.0
 11
-334.207061886787
 21
75.3899552822113
 31
0.0
  0
LINE
  5
   407
  8
0
  6
CONTINUOUS
 62
   210
 10
-333.990555379468
 20
2.88995484367341
 30
0.0
 11
-333.957061742364
 21
2.76495484613733
 31
0.0
  0
LINE
  5
   408
  8
0
  6
CONTINUOUS
 62
   210
 10
-334.082061753073
 20
2.98146160099311
 30
0.0
 11
-333.990555392162
 21
2.88995511666714
 31
0.0
  0
LINE
  5
   409
  8
0
  6
CONTINUOUS
 62
   210
 10
-334.207061685846
 20
3.01495485979064
 30
0.0
 11
-334.08206162867
 21
2.98146134224421
 31
0.0
  0
LINE
  5
   40A
  8
0
  6
CONTINUOUS
 62
   210
 10
-333.957061884286
 20
6.13995462093194
 30
0.0
 11
-333.990555521391
 21
6.01495462339587
 31
0.0
  0
LINE
  5
   40B
  8
0
  6
CONTINUOUS
 62
   210
 10
-333.990555378076
 20
6.01495562210486
 30
0.0
 11
-334.082061743472
 21
5.92344961923866
 31
0.0
  0
LINE
  5
   40C
  8
0
  6
CONTINUOUS
 62
   210
 10
-334.082061845427
 20
5.92344899197738
 30
0.0
 11
-334.20706190205
 21
5.88995499619923
 31
0.0
  0
LINE
  5
   40D
  8
0
  6
CONTINUOUS
 62
   210
 10
-334.707061886787
 20
3.0149552822113
 30
0.0
 11
-334.207061886787
 21
3.0149552822113
 31
0.0
  0
LINE
  5
   40E
  8
0
  6
CONTINUOUS
 62
   210
 10
-334.707061886787
 20
5.8899552822113
 30
0.0
 11
-334.207061886787
 21
5.8899552822113
 31
0.0
  0
LINE
  5
   40F
  8
0
  6
CONTINUOUS
 62
   210
 10
-334.457061886787
 20
54.7024552822113
 30
0.0
 11
-334.457061886787
 21
10.9524552822113
 31
0.0
  0
LINE
  5
   410
  8
0
  6
CONTINUOUS
 62
   210
 10
-337.457061767578
 20
-0.797544479370117
 30
0.0
 11
-337.457061767578
 21
-1.54754459857941
 31
0.0
  0
LINE
  5
   411
  8
0
  6
CONTINUOUS
 62
   210
 10
-333.957061853518
 20
7.96242641824754
 30
0.0
 11
-333.988869215891
 21
7.78693984968514
 31
0.0
  0
LINE
  5
   412
  8
0
  6
CONTINUOUS
 62
   210
 10
-333.988869096026
 20
7.78694079422478
 30
0.0
 11
-334.080244269896
 21
7.63378069522469
 31
0.0
  0
LINE
  5
   413
  8
0
  6
CONTINUOUS
 62
   210
 10
-334.080244525204
 20
7.63377962838452
 30
0.0
 11
-334.219561980741
 21
7.52243338885943
 31
0.0
  0
LINE
  5
   414
  8
0
  6
CONTINUOUS
 62
   210
 10
-334.219562043283
 20
7.52243307174214
 30
0.0
 11
-334.544700611771
 21
7.285647191149
 31
0.0
  0
LINE
  5
   415
  8
0
  6
CONTINUOUS
 62
   210
 10
-334.544700503884
 20
7.28564751220061
 30
0.0
 11
-334.607047082221
 21
7.20733845463507
 31
0.0
  0
LINE
  5
   416
  8
0
  6
CONTINUOUS
 62
   210
 10
-334.54470038414
 20
6.2024552822113
 30
0.0
 11
-334.219561815262
 21
6.2024552822113
 31
0.0
  0
LINE
  5
   417
  8
0
  6
CONTINUOUS
 62
   210
 10
-334.607046604157
 20
6.2024552822113
 30
0.0
 11
-334.54470038414
 21
6.2024552822113
 31
0.0
  0
LINE
  5
   418
  8
0
  6
CONTINUOUS
 62
   210
 10
-333.988869190216
 20
6.2024552822113
 30
0.0
 11
-333.957061827183
 21
6.2024552822113
 31
0.0
  0
LINE
  5
   419
  8
0
  6
CONTINUOUS
 62
   210
 10
-334.080244362354
 20
6.2024552822113
 30
0.0
 11
-333.988869190216
 21
6.2024552822113
 31
0.0
  0
LINE
  5
   41A
  8
0
  6
CONTINUOUS
 62
   210
 10
-334.219561815262
 20
6.2024552822113
 30
0.0
 11
-334.080244362354
 21
6.2024552822113
 31
0.0
  0
LINE
  5
   41B
  8
0
  6
CONTINUOUS
 62
   210
 10
-334.622189164162
 20
60.9524552822113
 30
0.0
 11
-334.59790289402
 21
60.9524552822113
 31
0.0
  0
LINE
  5
   41C
  8
0
  6
CONTINUOUS
 62
   210
 10
-334.59790289402
 20
60.9524552822113
 30
0.0
 11
-334.576455593109
 21
60.9524552822113
 31
0.0
  0
LINE
  5
   41D
  8
0
  6
CONTINUOUS
 62
   210
 10
-334.694799780846
 20
60.9524552822113
 30
0.0
 11
-334.678567409515
 21
60.9524552822113
 31
0.0
  0
LINE
  5
   41E
  8
0
  6
CONTINUOUS
 62
   210
 10
-334.694799780846
 20
60.9524552822113
 30
0.0
 11
-334.678567409515
 21
60.9524552822113
 31
0.0
  0
LINE
  5
   41F
  8
0
  6
CONTINUOUS
 62
   210
 10
-334.669614929198
 20
61.285528656063
 30
0.0
 11
-334.707062023136
 21
60.9524521851548
 31
0.0
  0
LINE
  5
   420
  8
0
  6
CONTINUOUS
 62
   210
 10
-334.559142969592
 20
61.6019799375479
 30
0.0
 11
-334.669614218055
 21
61.285535538913
 31
0.0
  0
LINE
  5
   421
  8
0
  6
CONTINUOUS
 62
   210
 10
-334.381164611578
 20
61.8859843979342
 30
0.0
 11
-334.559144434129
 21
61.60197255977
 31
0.0
  0
LINE
  5
   422
  8
0
  6
CONTINUOUS
 62
   210
 10
-334.144561103222
 20
62.1233941310712
 30
0.0
 11
-334.381162997763
 21
61.8859902646085
 31
0.0
  0
LINE
  5
   423
  8
0
  6
CONTINUOUS
 62
   210
 10
-334.006368252684
 20
62.2971959886851
 30
0.0
 11
-334.144562152905
 21
62.1233907473708
 31
0.0
  0
LINE
  5
   424
  8
0
  6
CONTINUOUS
 62
   210
 10
-333.957061553534
 20
62.5137066780636
 30
0.0
 11
-334.006367648489
 21
62.2971997172978
 31
0.0
  0
LINE
  5
   425
  8
0
  6
CONTINUOUS
 62
   210
 10
-334.707061886787
 20
60.9524552822113
 30
0.0
 11
-334.694799780846
 21
60.9524552822113
 31
0.0
  0
LINE
  5
   426
  8
0
  6
CONTINUOUS
 62
   210
 10
-337.457061767578
 20
11.7024552822113
 30
0.0
 11
-337.457061767578
 21
10.9524552822113
 31
0.0
  0
LINE
  5
   427
  8
0
  6
CONTINUOUS
 62
   130
 10
-336.196446070191
 20
14.2024547787355
 30
0.0
 11
-336.494383983646
 21
13.9524552822113
 31
0.0
  0
ARC
  5
   428
  8
0
  6
CONTINUOUS
 62
     2
 10
-336.957061941461
 20
45.9524520715481
 30
0.0
 40
0.499999716139347
 50
629.999953614211
 51
720.000028527564
  0
ARC
  5
   429
  8
0
  6
CONTINUOUS
 62
     2
 10
-336.957059558806
 20
45.9524490350381
 30
0.0
 40
1.9999953582048
 50
629.999931836413
 51
720.000071777798
  0
ARC
  5
   42A
  8
0
  6
CONTINUOUS
 62
     2
 10
-345.457051532273
 20
43.452449071895
 30
0.0
 40
2.00001042653241
 50
450.000293994217
 51
539.999923987393
  0
ARC
  5
   42B
  8
0
  6
CONTINUOUS
 62
     2
 10
-345.457064157176
 20
22.4524490766951
 30
0.0
 40
1.9999949767674
 50
539.999900027659
 51
630.000086289821
  0
ARC
  5
   42C
  8
0
  6
CONTINUOUS
 62
     2
 10
-345.457061604312
 20
22.4524526239485
 30
0.0
 40
0.499999558009481
 50
539.999945195577
 51
630.000115167256
  0
ARC
  5
   42D
  8
0
  6
CONTINUOUS
 62
     2
 10
-336.957057397794
 20
19.9524606113664
 30
0.0
 40
1.99999345760394
 50
359.999774195337
 51
450.000110840963
  0
ARC
  5
   42E
  8
0
  6
CONTINUOUS
 62
     2
 10
-345.45706258314
 20
43.452452942911
 30
0.0
 40
0.499999539193838
 50
449.999949629003
 51
540.000055385666
  0
ARC
  5
   42F
  8
0
  6
CONTINUOUS
 62
   210
 10
-335.957062309644
 20
52.2024610040527
 30
0.0
 40
2.49999608186847
 50
449.999986856325
 51
540.000035154074
  0
LINE
  5
   430
  8
0
  6
CONTINUOUS
 62
     7
 10
-338.457061767578
 20
49.2024552822113
 30
0.0
 11
-337.126934910577
 21
49.2024537936335
 31
0.0
  0
LINE
  5
   431
  8
0
  6
CONTINUOUS
 62
   130
 10
-335.357046604157
 20
-1.54754459857941
 30
0.0
 11
-335.357046604157
 21
-8.45402205540905
 31
0.0
  0
LINE
  5
   432
  8
0
  6
CONTINUOUS
 62
   130
 10
-334.607046604157
 20
-1.54754459857941
 30
0.0
 11
-334.607046604157
 21
-8.45402205540905
 31
0.0
  0
LINE
  5
   433
  8
0
  6
CONTINUOUS
 62
   130
 10
-335.357046604157
 20
10.9524552822113
 30
0.0
 11
-335.357046604157
 21
-0.797544479370117
 31
0.0
  0
LINE
  5
   434
  8
0
  6
CONTINUOUS
 62
   130
 10
-334.607046604157
 20
10.9524552822113
 30
0.0
 11
-334.607046604157
 21
-0.797544479370117
 31
0.0
  0
LINE
  5
   435
  8
0
  6
DASHDOT
 62
     5
 10
-368.727129418936
 20
32.9524552822114
 30
0.0
 11
-260.943555188952
 21
32.9524552822114
 31
0.0
  0
LINE
  5
   436
  8
0
  6
CONTINUOUS
 62
     7
 10
-279.207061767578
 20
21.7024490731847
 30
0.0
 11
-279.207061767578
 21
11.8274490731847
 31
0.0
  0
TEXT
  5
   437
  8
0
  6
CONTINUOUS
 62
     1
 10
-392.887252810333
 20
-108.740440421802
 30
0.0
 40
2.00000008940697
  1
97-11-11 MAZZOLENI
 50
359.999999844103
 41
0.749999861419206
 72
     2
 11
-366.187256557975
 21
-108.740440494316
 31
0.0
  0
LINE
  5
   438
  8
0
  6
DASHED
 62
     7
 10
-341.467440556784
 20
101.702449073185
 30
0.0
 11
-323.707060813904
 21
101.702449073185
 31
0.0
  0
LINE
  5
   439
  8
0
  6
DASHED
 62
     7
 10
-341.209731305683
 20
104.702449073185
 30
0.0
 11
-323.707060813904
 21
104.702449073185
 31
0.0
  0
ARC
  5
   43A
  8
0
  6
DASHED
 62
     7
 10
-323.707060813904
 20
98.7024490731847
 30
0.0
 40
6.0
 50
359.999999844103
 51
449.999999844103
  0
ARC
  5
   43B
  8
0
  6
DASHED
 62
     7
 10
-323.707060813904
 20
98.7024490731847
 30
0.0
 40
3.0
 50
359.999999844103
 51
449.999999844103
  0
LINE
  5
   43C
  8
0
  6
CONTINUOUS
 62
     7
 10
-340.928803536173
 20
107.972736441327
 30
0.0
 11
-341.77026365944
 21
98.1772775704774
 31
0.0
  0
LINE
  5
   43D
  8
0
  6
CONTINUOUS
 62
     7
 10
-317.707060813904
 20
78.3024490731847
 30
0.0
 11
-317.707060813904
 21
72.1024490731847
 31
0.0
  0
INSERT
  5
   43E
  8
0
  6
CONTINUOUS
 62
     7
  2
*HATCH92
 10
-333.207061767578
 20
-3.2975447177887
 30
0.0
 41
0.5
 42
0.5
 50
269.999999844103
 43
0.5
  0
TEXT
  5
   43F
  8
0
  6
CONTINUOUS
 62
     1
 10
-291.892700200744
 20
-134.813537726566
 30
0.0
 40
4.00000017881393
  1
605032/421
 50
359.999999844103
 41
0.937499973922969
 72
     2
 11
-255.142699600973
 21
-134.813537826375
 31
0.0
  0
TEXT
  5
   440
  8
0
  6
CONTINUOUS
 62
     1
 10
-386.949882477258
 20
-123.76877404715
 30
0.0
 40
2.00000008940697
  1
M 4375 97-09-15
 50
359.999999844103
 41
0.749999861419206
 72
     1
 11
-375.849884033203
 21
-122.768774032593
 31
0.0
 73
     2
  0
INSERT
  5
   441
  8
0
  6
CONTINUOUS
 62
     7
  2
*UDIM605
 10
0.0
 20
0.0
 30
0.0
  0
INSERT
  5
   442
  8
0
  6
CONTINUOUS
 62
     7
  2
*UDIM606
 10
0.0
 20
0.0
 30
0.0
  0
INSERT
  5
   443
  8
0
  6
CONTINUOUS
 62
     7
  2
*UDIM607
 10
0.0
 20
0.0
 30
0.0
  0
INSERT
  5
   444
  8
0
  6
CONTINUOUS
 62
     7
  2
*UDIM608
 10
0.0
 20
0.0
 30
0.0
  0
TEXT
  5
   445
  8
0
  6
CONTINUOUS
 62
     1
 10
-308.263814072047
 20
-116.177253684742
 30
0.0
 40
2.00000008940697
  1
INTERR.AUTOMATICO SERIE ISOMAX ESEC.FISSA
 50
359.999999844103
 41
0.749999861419206
 72
     1
 11
-277.663818359375
 21
-115.177253723145
 31
0.0
 73
     2
  0
TEXT
  5
   446
  8
0
  6
CONTINUOUS
 62
     1
 10
-308.263814072047
 20
-119.177253684742
 30
0.0
 40
2.00000008940697
  1
TERM.ANTERIORI + DIFFERENZIALE AFFIANCATO
 50
359.999999844103
 41
0.749999861419206
 72
     1
 11
-277.663818359375
 21
-118.177253723145
 31
0.0
 73
     2
  0
LINE
  5
   447
  8
0
  6
CONTINUOUS
 62
     7
 10
-335.357046604157
 20
-8.45402205540905
 30
0.0
 11
-334.607046604157
 21
-8.45402205540905
 31
0.0
  0
LINE
  5
   448
  8
0
  6
CONTINUOUS
 62
     7
 10
-312.607060813904
 20
-20.0475447177887
 30
0.0
 11
-312.607060813904
 21
-23.2975447177886
 31
0.0
  0
ENDSEC
  0
EOF
