  0
SECTION
  2
HEADER
  9
$ACADVER
  1
AC1009
  9
$DWGCODEPAGE
  3
iso8859-1
  9
$INSBASE
 10
0.0
 20
0.0
 30
0.0
  9
$EXTMIN
 10
1.0E20
 20
1.0E20
  9
$EXTMAX
 10
-1.0E20
 20
-1.0E20
  9
$LIMMIN
 10
0.0
 20
0.0
  9
$LIMMAX
 10
12.0
 20
9.0
  9
$ORTHOMODE
 70
     0
  9
$REGENMODE
 70
     1
  9
$FILLMODE
 70
     1
  9
$QTEXTMODE
 70
     0
  9
$MIRRTEXT
 70
     1
  9
$DRAGMODE
 70
     2
  9
$LTSCALE
 40
15.0
  9
$OSMODE
 70
     0
  9
$ATTMODE
 70
     1
  9
$TEXTSIZE
 40
0.2
  9
$TRACEWID
 40
0.05
  9
$TEXTSTYLE
  7
STANDARD
  9
$CLAYER
  8
0
  9
$CELTYPE
  6
DASHED
  9
$CECOLOR
 62
   256
  9
$DIMSCALE
 40
1.0
  9
$DIMASZ
 40
0.18
  9
$DIMEXO
 40
0.0625
  9
$DIMDLI
 40
0.38
  9
$DIMRND
 40
0.0
  9
$DIMDLE
 40
0.0
  9
$DIMEXE
 40
0.18
  9
$DIMTP
 40
0.0
  9
$DIMTM
 40
0.0
  9
$DIMTXT
 40
0.18
  9
$DIMCEN
 40
0.09
  9
$DIMTSZ
 40
0.0
  9
$DIMTOL
 70
     0
  9
$DIMLIM
 70
     0
  9
$DIMTIH
 70
     1
  9
$DIMTOH
 70
     1
  9
$DIMSE1
 70
     0
  9
$DIMSE2
 70
     0
  9
$DIMTAD
 70
     0
  9
$DIMZIN
 70
     0
  9
$DIMBLK
  1

  9
$DIMASO
 70
     1
  9
$DIMSHO
 70
     1
  9
$DIMPOST
  1

  9
$DIMAPOST
  1

  9
$DIMALT
 70
     0
  9
$DIMALTD
 70
     2
  9
$DIMALTF
 40
25.4
  9
$DIMLFAC
 40
1.0
  9
$DIMTOFL
 70
     0
  9
$DIMTVP
 40
0.0
  9
$DIMTIX
 70
     0
  9
$DIMSOXD
 70
     0
  9
$DIMSAH
 70
     0
  9
$DIMBLK1
  1

  9
$DIMBLK2
  1

  9
$DIMSTYLE
  2
STANDARD
  9
$DIMCLRD
 70
     0
  9
$DIMCLRE
 70
     0
  9
$DIMCLRT
 70
     0
  9
$DIMTFAC
 40
1.0
  9
$DIMGAP
 40
0.09
  9
$LUNITS
 70
     2
  9
$LUPREC
 70
     4
  9
$AXISMODE
 70
     0
  9
$AXISUNIT
 10
0.0
 20
0.0
  9
$SKETCHINC
 40
0.1
  9
$FILLETRAD
 40
0.0
  9
$AUNITS
 70
     0
  9
$AUPREC
 70
     0
  9
$MENU
  1
acad
  9
$ELEVATION
 40
0.0
  9
$PELEVATION
 40
0.0
  9
$THICKNESS
 40
0.0
  9
$LIMCHECK
 70
     0
  9
$BLIPMODE
 70
     1
  9
$CHAMFERA
 40
0.0
  9
$CHAMFERB
 40
0.0
  9
$SKPOLY
 70
     0
  9
$TDCREATE
 40
0.000000000
  9
$TDUPDATE
 40
0.000000000
  9
$TDINDWG
 40
0.0
  9
$TDUSRTIMER
 40
0.0
  9
$USRTIMER
 70
     1
  9
$ANGBASE
 50
0.0
  9
$ANGDIR
 70
     0
  9
$PDMODE
 70
     0
  9
$PDSIZE
 40
0.0
  9
$PLINEWID
 40
0.0
  9
$COORDS
 70
     1
  9
$SPLFRAME
 70
     0
  9
$SPLINETYPE
 70
     6
  9
$SPLINESEGS
 70
     8
  9
$ATTDIA
 70
     0
  9
$ATTREQ
 70
     1
  9
$HANDLING
 70
     1
  9
$HANDSEED
  5
   4C5
  9
$SURFTAB1
 70
     6
  9
$SURFTAB2
 70
     6
  9
$SURFTYPE
 70
     6
  9
$SURFU
 70
     6
  9
$SURFV
 70
     6
  9
$UCSNAME
  2

  9
$UCSORG
 10
0.0
 20
0.0
 30
0.0
  9
$UCSXDIR
 10
1.0
 20
0.0
 30
0.0
  9
$UCSYDIR
 10
0.0
 20
1.0
 30
0.0
  9
$PUCSNAME
  2

  9
$PUCSORG
 10
0.0
 20
0.0
 30
0.0
  9
$PUCSXDIR
 10
1.0
 20
0.0
 30
0.0
  9
$PUCSYDIR
 10
0.0
 20
1.0
 30
0.0
  9
$USERI1
 70
     0
  9
$USERI2
 70
     0
  9
$USERI3
 70
     0
  9
$USERI4
 70
     0
  9
$USERI5
 70
     0
  9
$USERR1
 40
0.0
  9
$USERR2
 40
0.0
  9
$USERR3
 40
0.0
  9
$USERR4
 40
0.0
  9
$USERR5
 40
0.0
  9
$WORLDVIEW
 70
     1
  9
$SHADEDGE
 70
     3
  9
$SHADEDIF
 70
    70
  9
$TILEMODE
 70
     1
  9
$MAXACTVP
 70
    16
  9
$PINSBASE
 10
0.0
 20
0.0
 30
0.0
  9
$PLIMCHECK
 70
     0
  9
$PEXTMIN
 10
1.0E20
 20
1.0E20
 30
1.0E20
  9
$PEXTMAX
 10
-1.0E20
 20
-1.0E20
 30
-1.0E20
  9
$PLIMMIN
 10
0.0
 20
0.0
  9
$PLIMMAX
 10
12.0
 20
9.0
  9
$UNITMODE
 70
     0
  9
$VISRETAIN
 70
     0
  0
ENDSEC
  0
SECTION
  2
TABLES
  0
TABLE
  2
VPORT
 70
     1
  0
VPORT
  2
*ACTIVE
 70
     0
 10
0.0
 20
0.0
 11
1.0
 21
1.0
 12
6.801242
 22
4.5
 13
0.0
 23
0.0
 14
1.0
 24
1.0
 15
0.0
 25
0.0
 16
0.0
 26
0.0
 36
1.0
 17
0.0
 27
0.0
 37
0.0
 40
9.0
 41
1.511387
 42
50.0
 43
0.0
 44
0.0
 50
0.0
 51
0.0
 71
     0
 72
   100
 73
     1
 74
     1
 75
     0
 76
     0
 77
     0
 78
     0
  0
ENDTAB
  0
TABLE
  2
LTYPE
 70
    41
  0
LTYPE
  2
BYBLOCK
 70
     0
  3

 72
    65
 73
     0
 40
0.0
  0
LTYPE
  2
BYLAYER
 70
     0
  3

 72
    65
 73
     0
 40
0.0
  0
LTYPE
  2
CONTINUOUS
 70
     0
  3
Solid line
 72
    65
 73
     0
 40
0.0
  0
LTYPE
  2
BORDER
 70
    64
  3
__ __ . __ __ . __ __ . __ __ . __ __ . __ __ .
 72
    65
 73
     6
 40
1.75
 49
0.5
 49
-0.25
 49
0.5
 49
-0.25
 49
0.0
 49
-0.25
  0
LTYPE
  2
BORDER2
 70
    64
  3
__.__.__.__.__.__.__.__.__.__.__.__.__.__.__.__
 72
    65
 73
     6
 40
0.875
 49
0.25
 49
-0.125
 49
0.25
 49
-0.125
 49
0.0
 49
-0.125
  0
LTYPE
  2
BORDERX2
 70
    64
  3
____  ____  .  ____  ____  .  ____  ____  .  __
 72
    65
 73
     6
 40
3.5
 49
1.0
 49
-0.5
 49
1.0
 49
-0.5
 49
0.0
 49
-0.5
  0
LTYPE
  2
CENTER
 70
    64
  3
____ _ ____ _ ____ _ ____ _ ____ _ ____ _ ____
 72
    65
 73
     4
 40
2.0
 49
1.25
 49
-0.25
 49
0.25
 49
-0.25
  0
LTYPE
  2
CENTER2
 70
    64
  3
___ _ ___ _ ___ _ ___ _ ___ _ ___ _ ___ _ ___ _
 72
    65
 73
     4
 40
1.125
 49
0.75
 49
-0.125
 49
0.125
 49
-0.125
  0
LTYPE
  2
CENTERX2
 70
    64
  3
________  __  ________  __  ________  __  _____
 72
    65
 73
     4
 40
4.0
 49
2.5
 49
-0.5
 49
0.5
 49
-0.5
  0
LTYPE
  2
DASHDOT
 70
    64
  3
__ . __ . __ . __ . __ . __ . __ . __ . __ . __
 72
    65
 73
     4
 40
1.0
 49
0.5
 49
-0.25
 49
0.0
 49
-0.25
  0
LTYPE
  2
DASHDOT2
 70
    64
  3
_._._._._._._._._._._._._._._._._._._._._._._._
 72
    65
 73
     4
 40
0.5
 49
0.25
 49
-0.125
 49
0.0
 49
-0.125
  0
LTYPE
  2
DASHDOTX2
 70
    64
  3
____  .  ____  .  ____  .  ____  .  ____  .  __
 72
    65
 73
     4
 40
2.0
 49
1.0
 49
-0.5
 49
0.0
 49
-0.5
  0
LTYPE
  2
DASHED
 70
    64
  3
__ __ __ __ __ __ __ __ __ __ __ __ __ __ __ __
 72
    65
 73
     2
 40
0.75
 49
0.5
 49
-0.25
  0
LTYPE
  2
DASHED2
 70
    64
  3
_ _ _ _ _ _ _ _ _ _ _ _ _ _ _ _ _ _ _ _ _ _ _ _
 72
    65
 73
     2
 40
0.375
 49
0.25
 49
-0.125
  0
LTYPE
  2
DASHEDX2
 70
    64
  3
____  ____  ____  ____  ____  ____  ____  ____
 72
    65
 73
     2
 40
1.5
 49
1.0
 49
-0.5
  0
LTYPE
  2
DIVIDE
 70
    64
  3
____ . . ____ . . ____ . . ____ . . ____ . . __
 72
    65
 73
     6
 40
1.25
 49
0.5
 49
-0.25
 49
0.0
 49
-0.25
 49
0.0
 49
-0.25
  0
LTYPE
  2
DIVIDE2
 70
    64
  3
__..__..__..__..__..__..__..__..__..__..__..__.
 72
    65
 73
     6
 40
0.625
 49
0.25
 49
-0.125
 49
0.0
 49
-0.125
 49
0.0
 49
-0.125
  0
LTYPE
  2
DIVIDEX2
 70
    64
  3
________  .  .  ________  .  .  ________  .  .
 72
    65
 73
     6
 40
2.5
 49
1.0
 49
-0.5
 49
0.0
 49
-0.5
 49
0.0
 49
-0.5
  0
LTYPE
  2
DOT
 70
    64
  3
. . . . . . . . . . . . . . . . . . . . . . . .
 72
    65
 73
     2
 40
0.25
 49
0.0
 49
-0.25
  0
LTYPE
  2
DOT2
 70
    64
  3
...............................................
 72
    65
 73
     2
 40
0.125
 49
0.0
 49
-0.125
  0
LTYPE
  2
DOTX2
 70
    64
  3
.  .  .  .  .  .  .  .  .  .  .  .  .  .  .  .
 72
    65
 73
     2
 40
0.5
 49
0.0
 49
-0.5
  0
LTYPE
  2
HIDDEN
 70
    64
  3
__ __ __ __ __ __ __ __ __ __ __ __ __ __ __ __
 72
    65
 73
     2
 40
0.375
 49
0.25
 49
-0.125
  0
LTYPE
  2
HIDDEN2
 70
    64
  3
_ _ _ _ _ _ _ _ _ _ _ _ _ _ _ _ _ _ _ _ _ _ _ _
 72
    65
 73
     2
 40
0.1875
 49
0.125
 49
-0.0625
  0
LTYPE
  2
HIDDENX2
 70
    64
  3
____ ____ ____ ____ ____ ____ ____ ____ ____ __
 72
    65
 73
     2
 40
0.75
 49
0.5
 49
-0.25
  0
LTYPE
  2
PHANTOM
 70
    64
  3
______  __  __  ______  __  __  ______  __  __
 72
    65
 73
     6
 40
2.5
 49
1.25
 49
-0.25
 49
0.25
 49
-0.25
 49
0.25
 49
-0.25
  0
LTYPE
  2
PHANTOM2
 70
    64
  3
___ _ _ ___ _ _ ___ _ _ ___ _ _ ___ _ _ ___ _ _
 72
    65
 73
     6
 40
1.25
 49
0.625
 49
-0.125
 49
0.125
 49
-0.125
 49
0.125
 49
-0.125
  0
LTYPE
  2
PHANTOMX2
 70
    64
  3
____________    ____    ____    ____________
 72
    65
 73
     6
 40
5.0
 49
2.5
 49
-0.5
 49
0.5
 49
-0.5
 49
0.5
 49
-0.5
  0
LTYPE
  2
ACAD_ISO02W100
 70
    64
  3
__ __ __ __ __ __ __ __ __ __ __ __ __ __ __ __
 72
    65
 73
     2
 40
15.0
 49
12.0
 49
-3.0
  0
LTYPE
  2
ACAD_ISO03W100
 70
    64
  3
__    __    __    __    __    __    __    __
 72
    65
 73
     2
 40
30.0
 49
12.0
 49
-18.0
  0
LTYPE
  2
ACAD_ISO04W100
 70
    64
  3
____ . ____ . ____ . ____ . ____ . ____ . ____
 72
    65
 73
     4
 40
30.5
 49
24.0
 49
-3.0
 49
0.5
 49
-3.0
  0
LTYPE
  2
ACAD_ISO05W100
 70
    64
  3
____ .. ____ .. ____ .. ____ .. ____ .. ____ ..
 72
    65
 73
     6
 40
34.0
 49
24.0
 49
-3.0
 49
0.5
 49
-3.0
 49
0.5
 49
-3.0
  0
LTYPE
  2
ACAD_ISO06W100
 70
    64
  3
____ ... ____ ... ____ ... ____ ... ____ ... __
 72
    65
 73
     8
 40
37.5
 49
24.0
 49
-3.0
 49
0.5
 49
-3.0
 49
0.5
 49
-3.0
 49
0.5
 49
-3.0
  0
LTYPE
  2
ACAD_ISO07W100
 70
    64
  3
. . . . . . . . . . . . . . . . . . . . . . . .
 72
    65
 73
     2
 40
3.5
 49
0.5
 49
-3.0
  0
LTYPE
  2
ACAD_ISO08W100
 70
    64
  3
____ __ ____ __ ____ __ ____ ____ __ __ ____ __
 72
    65
 73
     4
 40
36.0
 49
24.0
 49
-3.0
 49
6.0
 49
-3.0
  0
LTYPE
  2
ACAD_ISO09W100
 70
    64
  3
____ __ __ ____ __ __ ____ __ __ ____ __ __ ___
 72
    65
 73
     6
 40
45.0
 49
24.0
 49
-3.0
 49
6.0
 49
-3.0
 49
6.0
 49
-3.0
  0
LTYPE
  2
ACAD_ISO10W100
 70
    64
  3
__ . __ . __ . __ . __ . __ . __ . __ . __ . __
 72
    65
 73
     4
 40
18.5
 49
12.0
 49
-3.0
 49
0.5
 49
-3.0
  0
LTYPE
  2
ACAD_ISO11W100
 70
    64
  3
__ __ . __ __ . __ __ . __ __ . __ __ . __ __ .
 72
    65
 73
     6
 40
33.5
 49
12.0
 49
-3.0
 49
12.0
 49
-3.0
 49
0.5
 49
-3.0
  0
LTYPE
  2
ACAD_ISO12W100
 70
    64
  3
__ . . __ . . __ . . __ . . __ . . __ . . __ .
 72
    65
 73
     6
 40
22.0
 49
12.0
 49
-3.0
 49
0.5
 49
-3.0
 49
0.5
 49
-3.0
  0
LTYPE
  2
ACAD_ISO13W100
 70
    64
  3
__ __ . . __ __ . . __ __ . . __ __ . . __ __ .
 72
    65
 73
     8
 40
37.0
 49
12.0
 49
-3.0
 49
12.0
 49
-3.0
 49
0.5
 49
-3.0
 49
0.5
 49
-3.0
  0
LTYPE
  2
ACAD_ISO14W100
 70
    64
  3
__ . . . __ . . . __ . . . __ . . . __ . . . __
 72
    65
 73
     8
 40
25.5
 49
12.0
 49
-3.0
 49
0.5
 49
-3.0
 49
0.5
 49
-3.0
 49
0.5
 49
-3.0
  0
LTYPE
  2
ACAD_ISO15W100
 70
    64
  3
__ __ . . . __ __ . . . __ __ . . . __ __ . . .
 72
    65
 73
    10
 40
40.5
 49
12.0
 49
-3.0
 49
12.0
 49
-3.0
 49
0.5
 49
-3.0
 49
0.5
 49
-3.0
 49
0.5
 49
-3.0
  0
ENDTAB
  0
TABLE
  2
STYLE
 70
     4
  0
STYLE
  2
STANDARD
 70
    64
 40
0.0
 41
1.0
 50
0.0
 71
     0
 42
0.2
  3
txt
  4

  0
STYLE
  2
TOLERANCE
 70
    64
 40
0.0
 41
1.0
 50
0.0
 71
     0
 42
0.2
  3
../igesfont/iges1003.shx
  4

  0
STYLE
  2
ROMANS
 70
    64
 40
0.0
 41
1.0
 50
0.0
 71
     0
 42
0.2
  3
romans.shx
  4

  0
STYLE
  2
ROMANC
 70
    64
 40
0.0
 41
1.0
 50
0.0
 71
     0
 42
0.2
  3
romanc.shx
  4

  0
ENDTAB
  0
TABLE
  2
DIMSTYLE
 70
     2
  0
DIMSTYLE
  2
UNNAMED
 70
     0
  3

  4

  5

  6

  7

 40
1.0
 41
0.18
 42
0.0625
 43
0.38
 44
0.18
 45
0.0
 46
0.0
 47
0.0
 48
0.0
140
0.18
141
0.09
142
0.0
143
25.4
144
1.0
145
0.0
146
1.0
147
0.09
 71
     0
 72
     0
 73
     1
 74
     1
 75
     0
 76
     0
 77
     0
 78
     0
170
     0
171
     2
172
     0
173
     0
174
     0
175
     0
176
     0
177
     0
178
     0
  0
DIMSTYLE
  2
STANDARD
 70
     0
  3

  4

  5

  6

  7

 40
1.0
 41
0.18
 42
0.0625
 43
0.38
 44
0.18
 45
0.0
 46
0.0
 47
0.0
 48
0.0
140
0.18
141
0.09
142
0.0
143
25.4
144
1.0
145
0.0
146
1.0
147
0.09
 71
     0
 72
     0
 73
     1
 74
     1
 75
     0
 76
     0
 77
     0
 78
     0
170
     0
171
     2
172
     0
173
     0
174
     0
175
     0
176
     0
177
     0
178
     0
  0
ENDTAB
  0
TABLE
  2
LAYER
 70
     2
  0
LAYER
  2
0
 70
     0
 62
     7
  6
CONTINUOUS
  0
LAYER
  2
255
 70
     0
 62
     7
  6
CONTINUOUS
  0
ENDTAB
  0
ENDSEC
  0
SECTION
  2
BLOCKS
  0
BLOCK
  5
     B
  8
0
  6
CONTINUOUS
 62
     7
  2
*UDIM2240
 70
    65
 10
0.0
 20
0.0
 30
0.0
  3
*UDIM2240
  0
TEXT
  5
     C
  8
0
  6
CONTINUOUS
 62
     7
 10
-508.130078172417
 20
-103.059566490748
 30
0.0
 40
3.00000002980232
  1
117
 50
359.999999896069
 41
0.933333333333333
 72
     1
 11
-504.230078130961
 21
-101.559566482902
 31
0.0
 73
     2
  0
LINE
  5
     D
  8
0
  6
CONTINUOUS
 62
     7
 10
-489.330078125
 20
-104.58818066462
 30
0.0
 11
-489.330078125
 21
-102.059566497803
 31
0.0
  0
LINE
  5
     E
  8
0
  6
CONTINUOUS
 62
     7
 10
-518.580078125
 20
-104.280522723952
 30
0.0
 11
-518.580078125
 21
-102.059566497803
 31
0.0
  0
LINE
  5
     F
  8
0
  6
CONTINUOUS
 62
     7
 10
-489.330078125
 20
-104.059566497803
 30
0.0
 11
-518.580078125
 21
-104.059566497803
 31
0.0
  0
LINE
  5
    10
  8
0
  6
CONTINUOUS
 62
     7
 10
-492.284501402207
 20
-104.580510927754
 30
0.0
 11
-489.330078125
 21
-104.059566497803
 31
0.0
  0
LINE
  5
    11
  8
0
  6
CONTINUOUS
 62
     7
 10
-489.330078125
 20
-104.059566497803
 30
0.0
 11
-492.284501402207
 21
-103.538622067851
 31
0.0
  0
LINE
  5
    12
  8
0
  6
CONTINUOUS
 62
     7
 10
-515.625654847793
 20
-103.538622067851
 30
0.0
 11
-518.580078125
 21
-104.059566497803
 31
0.0
  0
LINE
  5
    13
  8
0
  6
CONTINUOUS
 62
     7
 10
-518.580078125
 20
-104.059566497803
 30
0.0
 11
-515.625654847793
 21
-104.580510927754
 31
0.0
  0
ENDBLK
  5
    14
  8
0
  6
CONTINUOUS
 62
     7
  0
BLOCK
  5
    15
  8
0
  6
CONTINUOUS
 62
     7
  2
*UDIM2241
 70
    65
 10
0.0
 20
0.0
 30
0.0
  3
*UDIM2241
  0
TEXT
  5
    16
  8
0
  6
CONTINUOUS
 62
     7
 10
-497.021172931027
 20
-115.695165629633
 30
0.0
 40
3.00000002980232
  1
41
 50
359.999999896069
 41
0.933333333333333
 72
     1
 11
-494.521172903478
 21
-114.195165619254
 31
0.0
 73
     2
  0
LINE
  5
    17
  8
0
  6
CONTINUOUS
 62
     7
 10
-489.330078125
 20
-116.695165634155
 30
0.0
 11
-499.580078125
 21
-116.695165634155
 31
0.0
  0
LINE
  5
    18
  8
0
  6
CONTINUOUS
 62
     7
 10
-492.284501402207
 20
-117.216110064107
 30
0.0
 11
-489.330078125
 21
-116.695165634155
 31
0.0
  0
LINE
  5
    19
  8
0
  6
CONTINUOUS
 62
     7
 10
-489.330078125
 20
-116.695165634155
 30
0.0
 11
-492.284501402207
 21
-116.174221204204
 31
0.0
  0
LINE
  5
    1A
  8
0
  6
CONTINUOUS
 62
     7
 10
-496.625654847793
 20
-116.174221204204
 30
0.0
 11
-499.580078125
 21
-116.695165634155
 31
0.0
  0
LINE
  5
    1B
  8
0
  6
CONTINUOUS
 62
     7
 10
-499.580078125
 20
-116.695165634155
 30
0.0
 11
-496.625654847793
 21
-117.216110064107
 31
0.0
  0
ENDBLK
  5
    1C
  8
0
  6
CONTINUOUS
 62
     7
  0
BLOCK
  5
    1D
  8
0
  6
CONTINUOUS
 62
     7
  2
*UDIM2242
 70
    65
 10
0.0
 20
0.0
 30
0.0
  3
*UDIM2242
  0
TEXT
  5
    1E
  8
0
  6
CONTINUOUS
 62
     7
 10
-532.971733105373
 20
-124.681464837099
 30
0.0
 40
3.00000002980232
  1
65,75
 50
449.999999896069
 41
0.933333333333333
 72
     1
 11
-534.471733108163
 21
-117.981464767829
 31
0.0
 73
     2
  0
LINE
  5
    1F
  8
0
  6
CONTINUOUS
 62
     7
 10
-520.001619644138
 20
-109.73356628418
 30
0.0
 11
-533.971733093262
 21
-109.73356628418
 31
0.0
  0
LINE
  5
    20
  8
0
  6
CONTINUOUS
 62
     7
 10
-531.971733093262
 20
-109.73356628418
 30
0.0
 11
-531.971733093262
 21
-126.17106628418
 31
0.0
  0
LINE
  5
    21
  8
0
  6
CONTINUOUS
 62
     7
 10
-531.45078866331
 20
-112.687989561387
 30
0.0
 11
-531.971733093262
 21
-109.73356628418
 31
0.0
  0
LINE
  5
    22
  8
0
  6
CONTINUOUS
 62
     7
 10
-531.971733093262
 20
-109.73356628418
 30
0.0
 11
-532.492677523213
 21
-112.687989561387
 31
0.0
  0
LINE
  5
    23
  8
0
  6
CONTINUOUS
 62
     7
 10
-532.492677523213
 20
-123.216643006973
 30
0.0
 11
-531.971733093262
 21
-126.17106628418
 31
0.0
  0
LINE
  5
    24
  8
0
  6
CONTINUOUS
 62
     7
 10
-531.971733093262
 20
-126.17106628418
 30
0.0
 11
-531.45078866331
 21
-123.216643006973
 31
0.0
  0
ENDBLK
  5
    25
  8
0
  6
CONTINUOUS
 62
     7
  0
BLOCK
  5
    26
  8
0
  6
CONTINUOUS
 62
     7
  2
*UDIM2243
 70
    65
 10
0.0
 20
0.0
 30
0.0
  3
*UDIM2243
  0
TEXT
  5
    27
  8
0
  6
CONTINUOUS
 62
     7
 10
-545.383396155732
 20
-130.783565856137
 30
0.0
 40
3.00000002980232
  1
135
 50
449.999999896069
 41
0.933333333333333
 72
     1
 11
-546.883396163583
 21
-126.883565814682
 31
0.0
 73
     2
  0
LINE
  5
    28
  8
0
  6
CONTINUOUS
 62
     7
 10
-520.001619644137
 20
-109.733565503416
 30
0.0
 11
-546.383396148681
 21
-109.733544905488
 31
0.0
  0
LINE
  5
    29
  8
0
  6
CONTINUOUS
 62
     7
 10
-519.386303762802
 20
-143.483565521896
 30
0.0
 11
-546.383396148681
 21
-143.483544942447
 31
0.0
  0
LINE
  5
    2A
  8
0
  6
CONTINUOUS
 62
     7
 10
-544.383396148682
 20
-109.733546467015
 30
0.0
 11
-544.383396148682
 21
-143.483546467015
 31
0.0
  0
LINE
  5
    2B
  8
0
  6
CONTINUOUS
 62
     7
 10
-543.86245171873
 20
-112.687969744222
 30
0.0
 11
-544.383396148682
 21
-109.733546467015
 31
0.0
  0
LINE
  5
    2C
  8
0
  6
CONTINUOUS
 62
     7
 10
-544.383396148682
 20
-109.733546467015
 30
0.0
 11
-544.904340578633
 21
-112.687969744222
 31
0.0
  0
LINE
  5
    2D
  8
0
  6
CONTINUOUS
 62
     7
 10
-544.904340578633
 20
-140.529123189808
 30
0.0
 11
-544.383396148682
 21
-143.483546467015
 31
0.0
  0
LINE
  5
    2E
  8
0
  6
CONTINUOUS
 62
     7
 10
-544.383396148682
 20
-143.483546467015
 30
0.0
 11
-543.86245171873
 21
-140.529123189808
 31
0.0
  0
ENDBLK
  5
    2F
  8
0
  6
CONTINUOUS
 62
     7
  0
BLOCK
  5
    30
  8
0
  6
CONTINUOUS
 62
     7
  2
*UDIM2244
 70
    65
 10
0.0
 20
0.0
 30
0.0
  3
*UDIM2244
  0
TEXT
  5
    31
  8
0
  6
CONTINUOUS
 62
     7
 10
-549.790101206218
 20
-151.364880043229
 30
0.0
 40
3.00000002980232
  1
5
 50
375.952553124937
 41
0.933333333333334
 72
     1
 11
-549.144724469614
 21
-149.620320231531
 31
0.0
 73
     2
  0
TEXT
  5
    32
  8
0
  6
CONTINUOUS
 62
     7
 10
-552.818793525911
 20
-152.230629946618
 30
0.0
 40
3.00000002980232
  1
Ø
 50
375.952553124937
 41
0.933333333333334
 72
     1
 11
-552.173416789307
 21
-150.486070134919
 31
0.0
 73
     2
  0
TEXT
  5
    33
  8
0
  6
CONTINUOUS
 62
     7
 10
-547.146004715292
 20
-150.609066618871
 30
0.0
 40
3.00000002980232
  1
 (M4)
 50
375.952553124937
 41
0.933333333333333
 72
     1
 11
-541.11628603772
 21
-147.325395867117
 31
0.0
 73
     2
  0
LINE
  5
    34
  8
0
  6
CONTINUOUS
 62
     7
 10
-517.979147111083
 20
-143.31179051024
 30
0.0
 11
-552.543952284451
 21
-153.192119570052
 31
0.0
  0
LINE
  5
    35
  8
0
  6
CONTINUOUS
 62
     7
 10
-515.28167680248
 20
-141.998910495081
 30
0.0
 11
-517.979147111083
 21
-143.31179051024
 31
0.0
  0
LINE
  5
    36
  8
0
  6
CONTINUOUS
 62
     7
 10
-517.979147111083
 20
-143.31179051024
 30
0.0
 11
-514.995322778048
 21
-143.000675821433
 31
0.0
  0
LINE
  5
    37
  8
0
  6
CONTINUOUS
 62
     7
 10
-521.87847944752
 20
-144.968222073279
 30
0.0
 11
-519.181009138917
 21
-143.65534205812
 31
0.0
  0
LINE
  5
    38
  8
0
  6
CONTINUOUS
 62
     7
 10
-519.181009138917
 20
-143.65534205812
 30
0.0
 11
-522.164833471952
 21
-143.966456746926
 31
0.0
  0
ENDBLK
  5
    39
  8
0
  6
CONTINUOUS
 62
     7
  0
BLOCK
  5
    3A
  8
0
  6
CONTINUOUS
 62
     7
  2
*HATCH1300
 70
    65
 10
0.0
 20
0.0
 30
0.0
  3
*HATCH1300
  0
LINE
  5
    3B
  8
0
  6
CONTINUOUS
 62
    52
 10
186.918792724609
 20
-4.00005149841309
 30
0.0
 11
184.918792724609
 21
-6.00005149841309
 31
0.0
  0
LINE
  5
    3C
  8
0
  6
CONTINUOUS
 62
    52
 10
191.161437988281
 20
-4.00005149841309
 30
0.0
 11
189.161437988281
 21
-6.00005149841309
 31
0.0
  0
LINE
  5
    3D
  8
0
  6
CONTINUOUS
 62
    52
 10
195.404083251953
 20
-4.00005149841309
 30
0.0
 11
193.404083251953
 21
-6.00005149841309
 31
0.0
  0
LINE
  5
    3E
  8
0
  6
CONTINUOUS
 62
    52
 10
199.646728515625
 20
-4.00005149841309
 30
0.0
 11
197.646728515625
 21
-6.00005149841309
 31
0.0
  0
LINE
  5
    3F
  8
0
  6
CONTINUOUS
 62
    52
 10
203.889373779297
 20
-4.00005149841309
 30
0.0
 11
201.889373779297
 21
-6.00005149841309
 31
0.0
  0
LINE
  5
    40
  8
0
  6
CONTINUOUS
 62
    52
 10
208.132019042969
 20
-4.00005149841309
 30
0.0
 11
206.132019042969
 21
-6.00005149841309
 31
0.0
  0
LINE
  5
    41
  8
0
  6
CONTINUOUS
 62
    52
 10
212.374664306641
 20
-4.00005149841309
 30
0.0
 11
210.374664306641
 21
-6.00005149841309
 31
0.0
  0
LINE
  5
    42
  8
0
  6
CONTINUOUS
 62
    52
 10
216.617309570313
 20
-4.00005149841309
 30
0.0
 11
214.617309570313
 21
-6.00005149841309
 31
0.0
  0
LINE
  5
    43
  8
0
  6
CONTINUOUS
 62
    52
 10
220.859954833984
 20
-4.00005149841309
 30
0.0
 11
218.859954833984
 21
-6.00005149841309
 31
0.0
  0
LINE
  5
    44
  8
0
  6
CONTINUOUS
 62
    52
 10
225.102600097656
 20
-4.00005149841309
 30
0.0
 11
223.102600097656
 21
-6.00005149841309
 31
0.0
  0
LINE
  5
    45
  8
0
  6
CONTINUOUS
 62
    52
 10
229.345245361328
 20
-4.00005149841309
 30
0.0
 11
227.345245361328
 21
-6.00005149841309
 31
0.0
  0
LINE
  5
    46
  8
0
  6
CONTINUOUS
 62
    52
 10
233.587890625
 20
-4.00005149841309
 30
0.0
 11
231.587890625
 21
-6.00005149841309
 31
0.0
  0
LINE
  5
    47
  8
0
  6
CONTINUOUS
 62
    52
 10
237.830535888672
 20
-4.00005149841309
 30
0.0
 11
235.830535888672
 21
-6.00005149841309
 31
0.0
  0
LINE
  5
    48
  8
0
  6
CONTINUOUS
 62
    52
 10
242.073181152344
 20
-4.00005149841309
 30
0.0
 11
240.073181152344
 21
-6.00005149841309
 31
0.0
  0
LINE
  5
    49
  8
0
  6
CONTINUOUS
 62
    52
 10
246.315826416016
 20
-4.00005149841309
 30
0.0
 11
244.315826416016
 21
-6.00005149841309
 31
0.0
  0
LINE
  5
    4A
  8
0
  6
CONTINUOUS
 62
    52
 10
250.558471679688
 20
-4.00005149841309
 30
0.0
 11
248.558471679688
 21
-6.00005149841309
 31
0.0
  0
ENDBLK
  5
    4B
  8
0
  6
CONTINUOUS
 62
     7
  0
BLOCK
  5
    4C
  8
0
  6
CONTINUOUS
 62
     7
  2
*HATCH1301
 70
    65
 10
0.0
 20
0.0
 30
0.0
  3
*HATCH1301
  0
LINE
  5
    4D
  8
0
  6
CONTINUOUS
 62
    52
 10
169.948226928711
 20
-4.00005149841309
 30
0.0
 11
167.948226928711
 21
-6.00005149841309
 31
0.0
  0
LINE
  5
    4E
  8
0
  6
CONTINUOUS
 62
    52
 10
174.190872192383
 20
-4.00005149841309
 30
0.0
 11
172.190872192383
 21
-6.00005149841309
 31
0.0
  0
LINE
  5
    4F
  8
0
  6
CONTINUOUS
 62
    52
 10
177.480621337891
 20
-4.95293474197388
 30
0.0
 11
176.433502197266
 21
-6.00005149841309
 31
0.0
  0
ENDBLK
  5
    50
  8
0
  6
CONTINUOUS
 62
     7
  0
BLOCK
  5
    51
  8
0
  6
CONTINUOUS
 62
     7
  2
*HATCH1302
 70
    65
 10
0.0
 20
0.0
 30
0.0
  3
*HATCH1302
  0
LINE
  5
    52
  8
0
  6
CONTINUOUS
 62
    52
 10
44.7903175354004
 20
-4.00005149841309
 30
0.0
 11
42.7903175354004
 21
-6.00005149841309
 31
0.0
  0
LINE
  5
    53
  8
0
  6
CONTINUOUS
 62
    52
 10
49.0329551696777
 20
-4.00005149841309
 30
0.0
 11
47.0329551696777
 21
-6.00005149841309
 31
0.0
  0
LINE
  5
    54
  8
0
  6
CONTINUOUS
 62
    52
 10
53.2755928039551
 20
-4.00005149841309
 30
0.0
 11
51.2755928039551
 21
-6.00005149841309
 31
0.0
  0
ENDBLK
  5
    55
  8
0
  6
CONTINUOUS
 62
     7
  0
BLOCK
  5
    56
  8
0
  6
CONTINUOUS
 62
     7
  2
*HATCH1303
 70
    65
 10
0.0
 20
0.0
 30
0.0
  3
*HATCH1303
  0
LINE
  5
    57
  8
0
  6
CONTINUOUS
 62
    52
 10
-71.8823089599609
 20
-4.00005149841309
 30
0.0
 11
-73.8823089599609
 21
-6.00005149841309
 31
0.0
  0
LINE
  5
    58
  8
0
  6
CONTINUOUS
 62
    52
 10
-67.6396636962891
 20
-4.00005149841309
 30
0.0
 11
-69.6396636962891
 21
-6.00005149841309
 31
0.0
  0
LINE
  5
    59
  8
0
  6
CONTINUOUS
 62
    52
 10
-63.3970222473145
 20
-4.00005149841309
 30
0.0
 11
-65.3970184326172
 21
-6.00005149841309
 31
0.0
  0
LINE
  5
    5A
  8
0
  6
CONTINUOUS
 62
    52
 10
-59.1543846130371
 20
-4.00005149841309
 30
0.0
 11
-61.1543807983398
 21
-6.00005149841309
 31
0.0
  0
LINE
  5
    5B
  8
0
  6
CONTINUOUS
 62
    52
 10
-54.9117469787598
 20
-4.00005149841309
 30
0.0
 11
-56.9117431640625
 21
-6.00005149841309
 31
0.0
  0
LINE
  5
    5C
  8
0
  6
CONTINUOUS
 62
    52
 10
-50.6691093444824
 20
-4.00005149841309
 30
0.0
 11
-52.6691055297852
 21
-6.00005149841309
 31
0.0
  0
LINE
  5
    5D
  8
0
  6
CONTINUOUS
 62
    52
 10
-46.4264717102051
 20
-4.00005149841309
 30
0.0
 11
-48.4264678955078
 21
-6.00005149841309
 31
0.0
  0
LINE
  5
    5E
  8
0
  6
CONTINUOUS
 62
    52
 10
-42.1838340759277
 20
-4.00005149841309
 30
0.0
 11
-44.1838302612305
 21
-6.00005149841309
 31
0.0
  0
LINE
  5
    5F
  8
0
  6
CONTINUOUS
 62
    52
 10
-37.9411964416504
 20
-4.00005149841309
 30
0.0
 11
-39.9411926269531
 21
-6.00005149841309
 31
0.0
  0
LINE
  5
    60
  8
0
  6
CONTINUOUS
 62
    52
 10
-33.698558807373
 20
-4.00005149841309
 30
0.0
 11
-35.6985549926758
 21
-6.00005149841309
 31
0.0
  0
LINE
  5
    61
  8
0
  6
CONTINUOUS
 62
    52
 10
-29.4559173583984
 20
-4.00005149841309
 30
0.0
 11
-31.4559154510498
 21
-6.00005149841309
 31
0.0
  0
LINE
  5
    62
  8
0
  6
CONTINUOUS
 62
    52
 10
-25.2132759094238
 20
-4.00005149841309
 30
0.0
 11
-27.2132740020752
 21
-6.00005149841309
 31
0.0
  0
LINE
  5
    63
  8
0
  6
CONTINUOUS
 62
    52
 10
-20.9706344604492
 20
-4.00005149841309
 30
0.0
 11
-22.9706325531006
 21
-6.00005149841309
 31
0.0
  0
LINE
  5
    64
  8
0
  6
CONTINUOUS
 62
    52
 10
-16.7279930114746
 20
-4.00005149841309
 30
0.0
 11
-18.727991104126
 21
-6.00005149841309
 31
0.0
  0
LINE
  5
    65
  8
0
  6
CONTINUOUS
 62
    52
 10
-12.4853515625
 20
-4.00005149841309
 30
0.0
 11
-14.4853496551514
 21
-6.00005149841309
 31
0.0
  0
LINE
  5
    66
  8
0
  6
CONTINUOUS
 62
    52
 10
-8.24271011352539
 20
-4.00005149841309
 30
0.0
 11
-10.2427082061768
 21
-6.00005149841309
 31
0.0
  0
LINE
  5
    67
  8
0
  6
CONTINUOUS
 62
    52
 10
-4.0000696182251
 20
-4.00005149841309
 30
0.0
 11
-6.00006675720215
 21
-6.00005149841309
 31
0.0
  0
LINE
  5
    68
  8
0
  6
CONTINUOUS
 62
    52
 10
0.242570877075195
 20
-4.00005149841309
 30
0.0
 11
-1.7574257850647
 21
-6.00005149841309
 31
0.0
  0
LINE
  5
    69
  8
0
  6
CONTINUOUS
 62
    52
 10
4.48521137237549
 20
-4.00005149841309
 30
0.0
 11
2.48521518707275
 21
-6.00005149841309
 31
0.0
  0
LINE
  5
    6A
  8
0
  6
CONTINUOUS
 62
    52
 10
8.72785186767578
 20
-4.00005149841309
 30
0.0
 11
6.72785663604736
 21
-6.00005149841309
 31
0.0
  0
LINE
  5
    6B
  8
0
  6
CONTINUOUS
 62
    52
 10
12.9704933166504
 20
-4.00005149841309
 30
0.0
 11
10.970498085022
 21
-6.00005149841309
 31
0.0
  0
LINE
  5
    6C
  8
0
  6
CONTINUOUS
 62
    52
 10
17.213134765625
 20
-4.00005149841309
 30
0.0
 11
15.2131395339966
 21
-6.00005149841309
 31
0.0
  0
LINE
  5
    6D
  8
0
  6
CONTINUOUS
 62
    52
 10
21.4557762145996
 20
-4.00005149841309
 30
0.0
 11
19.4557800292969
 21
-6.00005149841309
 31
0.0
  0
LINE
  5
    6E
  8
0
  6
CONTINUOUS
 62
    52
 10
25.6984176635742
 20
-4.00005149841309
 30
0.0
 11
23.6984214782715
 21
-6.00005149841309
 31
0.0
  0
LINE
  5
    6F
  8
0
  6
CONTINUOUS
 62
    52
 10
29.9410591125488
 20
-4.00005149841309
 30
0.0
 11
27.9410629272461
 21
-6.00005149841309
 31
0.0
  0
LINE
  5
    70
  8
0
  6
CONTINUOUS
 62
    52
 10
34.1836967468262
 20
-4.00005149841309
 30
0.0
 11
32.1837043762207
 21
-6.00005149841309
 31
0.0
  0
ENDBLK
  5
    71
  8
0
  6
CONTINUOUS
 62
     7
  0
BLOCK
  5
    72
  8
0
  6
CONTINUOUS
 62
     7
  2
*UDIM2245
 70
    65
 10
0.0
 20
0.0
 30
0.0
  3
*UDIM2245
  0
TEXT
  5
    73
  8
0
  6
CONTINUOUS
 62
     7
 10
-337.279759514691
 20
-83.224166869125
 30
0.0
 40
3.00000002980232
  1
2
 50
359.999999948034
 41
0.933333333333334
 72
     1
 11
-336.179759502411
 21
-81.724166855216
 31
0.0
 73
     2
  0
LINE
  5
    74
  8
0
  6
CONTINUOUS
 62
     7
 10
-340.279759407043
 20
-80.0995165769184
 30
0.0
 11
-340.279759407043
 21
-86.2241668701172
 31
0.0
  0
LINE
  5
    75
  8
0
  6
CONTINUOUS
 62
     7
 10
-341.279759407043
 20
-79.8871271963874
 30
0.0
 11
-341.279759407043
 21
-86.2241668701172
 31
0.0
  0
LINE
  5
    76
  8
0
  6
CONTINUOUS
 62
     7
 10
-335.079759491483
 20
-84.2241668701172
 30
0.0
 11
-341.279759407043
 21
-84.2241668701172
 31
0.0
  0
LINE
  5
    77
  8
0
  6
CONTINUOUS
 62
     7
 10
-337.325336129837
 20
-83.7032224401655
 30
0.0
 11
-340.279759407043
 21
-84.2241668701172
 31
0.0
  0
LINE
  5
    78
  8
0
  6
CONTINUOUS
 62
     7
 10
-340.279759407043
 20
-84.2241668701172
 30
0.0
 11
-337.325336129837
 21
-84.7451113000689
 31
0.0
  0
LINE
  5
    79
  8
0
  6
CONTINUOUS
 62
     7
 10
-344.23418268425
 20
-84.7451113000689
 30
0.0
 11
-341.279759407043
 21
-84.2241668701172
 31
0.0
  0
LINE
  5
    7A
  8
0
  6
CONTINUOUS
 62
     7
 10
-341.279759407043
 20
-84.2241668701172
 30
0.0
 11
-344.23418268425
 21
-83.7032224401655
 31
0.0
  0
ENDBLK
  5
    7B
  8
0
  6
CONTINUOUS
 62
     7
  0
BLOCK
  5
    7C
  8
0
  6
CONTINUOUS
 62
     7
  2
*UDIM2246
 70
    65
 10
0.0
 20
0.0
 30
0.0
  3
*UDIM2246
  0
TEXT
  5
    7D
  8
0
  6
CONTINUOUS
 62
     7
 10
-387.379766156636
 20
-83.2241668640741
 30
0.0
 40
3.00000002980232
  1
156,5
 50
359.999999948034
 41
0.933333333333333
 72
     1
 11
-380.679766088724
 21
-81.724166855216
 31
0.0
 73
     2
  0
LINE
  5
    7E
  8
0
  6
CONTINUOUS
 62
     7
 10
-419.529777526856
 20
-63.9933633278596
 30
0.0
 11
-419.529777526856
 21
-86.2241668701172
 31
0.0
  0
LINE
  5
    7F
  8
0
  6
CONTINUOUS
 62
     7
 10
-341.279759407043
 20
-84.2241668701172
 30
0.0
 11
-419.529777526856
 21
-84.2241668701172
 31
0.0
  0
LINE
  5
    80
  8
0
  6
CONTINUOUS
 62
     7
 10
-344.23418268425
 20
-84.7451113000689
 30
0.0
 11
-341.279759407043
 21
-84.2241668701172
 31
0.0
  0
LINE
  5
    81
  8
0
  6
CONTINUOUS
 62
     7
 10
-341.279759407043
 20
-84.2241668701172
 30
0.0
 11
-344.23418268425
 21
-83.7032224401655
 31
0.0
  0
LINE
  5
    82
  8
0
  6
CONTINUOUS
 62
     7
 10
-416.575354249649
 20
-83.7032224401655
 30
0.0
 11
-419.529777526856
 21
-84.2241668701172
 31
0.0
  0
LINE
  5
    83
  8
0
  6
CONTINUOUS
 62
     7
 10
-419.529777526856
 20
-84.2241668701172
 30
0.0
 11
-416.575354249649
 21
-84.7451113000689
 31
0.0
  0
ENDBLK
  5
    84
  8
0
  6
CONTINUOUS
 62
     7
  0
BLOCK
  5
    85
  8
0
  6
CONTINUOUS
 62
     7
  2
*UDIM2247
 70
    65
 10
0.0
 20
0.0
 30
0.0
  3
*UDIM2247
  0
TEXT
  5
    86
  8
0
  6
CONTINUOUS
 62
     7
 10
-385.454762305071
 20
-70.7335205042949
 30
0.0
 40
3.00000002980232
  1
153
 50
359.999999948034
 41
0.933333333333333
 72
     1
 11
-381.554762264975
 21
-69.2335204929113
 31
0.0
 73
     2
  0
LINE
  5
    87
  8
0
  6
CONTINUOUS
 62
     7
 10
-343.029762581983
 20
-14.0097599792657
 30
0.0
 11
-343.029781330256
 21
-73.7335205078124
 31
0.0
  0
LINE
  5
    88
  8
0
  6
CONTINUOUS
 62
     7
 10
-419.529779200523
 20
-63.9933633278582
 30
0.0
 11
-419.529795502309
 21
-73.7335205078097
 31
0.0
  0
LINE
  5
    89
  8
0
  6
CONTINUOUS
 62
     7
 10
-343.029780702423
 20
-71.7335205078125
 30
0.0
 11
-419.529792154974
 21
-71.7335205078125
 31
0.0
  0
LINE
  5
    8A
  8
0
  6
CONTINUOUS
 62
     7
 10
-345.98420397963
 20
-72.2544649377642
 30
0.0
 11
-343.029780702423
 21
-71.7335205078125
 31
0.0
  0
LINE
  5
    8B
  8
0
  6
CONTINUOUS
 62
     7
 10
-343.029780702423
 20
-71.7335205078125
 30
0.0
 11
-345.98420397963
 21
-71.2125760778608
 31
0.0
  0
LINE
  5
    8C
  8
0
  6
CONTINUOUS
 62
     7
 10
-416.575368877766
 20
-71.2125760778608
 30
0.0
 11
-419.529792154974
 21
-71.7335205078125
 31
0.0
  0
LINE
  5
    8D
  8
0
  6
CONTINUOUS
 62
     7
 10
-419.529792154974
 20
-71.7335205078125
 30
0.0
 11
-416.575368877766
 21
-72.2544649377642
 31
0.0
  0
ENDBLK
  5
    8E
  8
0
  6
CONTINUOUS
 62
     7
  0
BLOCK
  5
    8F
  8
0
  6
CONTINUOUS
 62
     7
  2
*UDIM2248
 70
    65
 10
0.0
 20
0.0
 30
0.0
  3
*UDIM2248
  0
TEXT
  5
    90
  8
0
  6
CONTINUOUS
 62
     7
 10
-380.368753120484
 20
-91.2831954895624
 30
0.0
 40
3.00000002980232
  1
184,5
 50
359.999999948034
 41
0.933333333333333
 72
     1
 11
-373.668753052572
 21
-89.7831954807043
 31
0.0
 73
     2
  0
LINE
  5
    91
  8
0
  6
CONTINUOUS
 62
     7
 10
-327.257721344742
 20
7.11524002073435
 30
0.0
 11
-327.257760047179
 21
-94.2831954956053
 31
0.0
  0
LINE
  5
    92
  8
0
  6
CONTINUOUS
 62
     7
 10
-419.529778246525
 20
-63.9933633278594
 30
0.0
 11
-419.529800045194
 21
-94.283195495605
 31
0.0
  0
LINE
  5
    93
  8
0
  6
CONTINUOUS
 62
     7
 10
-327.257759283805
 20
-92.2831954956055
 30
0.0
 11
-419.529798605855
 21
-92.2831954956055
 31
0.0
  0
LINE
  5
    94
  8
0
  6
CONTINUOUS
 62
     7
 10
-330.212182561012
 20
-92.8041399255571
 30
0.0
 11
-327.257759283805
 21
-92.2831954956055
 31
0.0
  0
LINE
  5
    95
  8
0
  6
CONTINUOUS
 62
     7
 10
-327.257759283805
 20
-92.2831954956055
 30
0.0
 11
-330.212182561012
 21
-91.7622510656538
 31
0.0
  0
LINE
  5
    96
  8
0
  6
CONTINUOUS
 62
     7
 10
-416.575375328648
 20
-91.7622510656538
 30
0.0
 11
-419.529798605855
 21
-92.2831954956055
 31
0.0
  0
LINE
  5
    97
  8
0
  6
CONTINUOUS
 62
     7
 10
-419.529798605855
 20
-92.2831954956055
 30
0.0
 11
-416.575375328648
 21
-92.8041399255571
 31
0.0
  0
ENDBLK
  5
    98
  8
0
  6
CONTINUOUS
 62
     7
  0
BLOCK
  5
    99
  8
0
  6
CONTINUOUS
 62
     7
  2
*UDIM2249
 70
    65
 10
0.0
 20
0.0
 30
0.0
  3
*UDIM2249
  0
TEXT
  5
    9A
  8
0
  6
CONTINUOUS
 62
     7
 10
-398.529754844518
 20
98.4163627634433
 30
0.0
 40
3.00000002980232
  1
5
 50
359.999999948034
 41
0.933333333333334
 72
     1
 11
-397.429754832237
 21
99.9163627773523
 31
0.0
 73
     2
  0
LINE
  5
    9B
  8
0
  6
CONTINUOUS
 62
     7
 10
-401.529754324755
 20
89.6152153015136
 30
0.0
 11
-401.529751248014
 21
99.4163627624511
 31
0.0
  0
LINE
  5
    9C
  8
0
  6
CONTINUOUS
 62
     7
 10
-404.029754324755
 20
89.6152153015136
 30
0.0
 11
-404.029751248014
 21
99.4163627624511
 31
0.0
  0
LINE
  5
    9D
  8
0
  6
CONTINUOUS
 62
     7
 10
-396.32975482131
 20
97.4163627624512
 30
0.0
 11
-404.029751875847
 21
97.4163627624512
 31
0.0
  0
LINE
  5
    9E
  8
0
  6
CONTINUOUS
 62
     7
 10
-398.57532859864
 20
97.9373071924029
 30
0.0
 11
-401.529751875847
 21
97.4163627624512
 31
0.0
  0
LINE
  5
    9F
  8
0
  6
CONTINUOUS
 62
     7
 10
-401.529751875847
 20
97.4163627624512
 30
0.0
 11
-398.57532859864
 21
96.8954183324995
 31
0.0
  0
LINE
  5
    A0
  8
0
  6
CONTINUOUS
 62
     7
 10
-406.984175153054
 20
96.8954183324995
 30
0.0
 11
-404.029751875847
 21
97.4163627624512
 31
0.0
  0
LINE
  5
    A1
  8
0
  6
CONTINUOUS
 62
     7
 10
-404.029751875847
 20
97.4163627624512
 30
0.0
 11
-406.984175153054
 21
97.9373071924029
 31
0.0
  0
ENDBLK
  5
    A2
  8
0
  6
CONTINUOUS
 62
     7
  0
BLOCK
  5
    A3
  8
0
  6
CONTINUOUS
 62
     7
  2
*UDIM2250
 70
    65
 10
0.0
 20
0.0
 30
0.0
  3
*UDIM2250
  0
TEXT
  5
    A4
  8
0
  6
CONTINUOUS
 62
     7
 10
-414.554762284737
 20
98.416362764706
 30
0.0
 40
3.00000002980232
  1
31
 50
359.999999948034
 41
0.933333333333333
 72
     1
 11
-412.054762258549
 21
99.9163627773523
 31
0.0
 73
     2
  0
LINE
  5
    A5
  8
0
  6
CONTINUOUS
 62
     7
 10
-419.529777212939
 20
95.1568247630959
 30
0.0
 11
-419.5297758758
 21
99.4163627624511
 31
0.0
  0
LINE
  5
    A6
  8
0
  6
CONTINUOUS
 62
     7
 10
-404.029751875847
 20
97.4163627624512
 30
0.0
 11
-419.529776503633
 21
97.4163627624512
 31
0.0
  0
LINE
  5
    A7
  8
0
  6
CONTINUOUS
 62
     7
 10
-406.984175153054
 20
96.8954183324995
 30
0.0
 11
-404.029751875847
 21
97.4163627624512
 31
0.0
  0
LINE
  5
    A8
  8
0
  6
CONTINUOUS
 62
     7
 10
-404.029751875847
 20
97.4163627624512
 30
0.0
 11
-406.984175153054
 21
97.9373071924029
 31
0.0
  0
LINE
  5
    A9
  8
0
  6
CONTINUOUS
 62
     7
 10
-416.575353226426
 20
97.9373071924029
 30
0.0
 11
-419.529776503633
 21
97.4163627624512
 31
0.0
  0
LINE
  5
    AA
  8
0
  6
CONTINUOUS
 62
     7
 10
-419.529776503633
 20
97.4163627624512
 30
0.0
 11
-416.575353226426
 21
96.8954183324995
 31
0.0
  0
ENDBLK
  5
    AB
  8
0
  6
CONTINUOUS
 62
     7
  0
BLOCK
  5
    AC
  8
0
  6
CONTINUOUS
 62
     7
  2
*UDIM2251
 70
    65
 10
0.0
 20
0.0
 30
0.0
  3
*UDIM2251
  0
TEXT
  5
    AD
  8
0
  6
CONTINUOUS
 62
     7
 10
-426.779777694471
 20
98.4163627634433
 30
0.0
 40
3.00000002980232
  1
3
 50
359.999999948034
 41
0.933333333333334
 72
     1
 11
-425.67977768219
 21
99.9163627773523
 31
0.0
 73
     2
  0
TEXT
  5
    AE
  8
0
  6
CONTINUOUS
 62
     7
 10
-429.529777728247
 20
98.4163627634433
 30
0.0
 40
3.00000002980232
  1
_
 50
359.999999948034
 41
0.933333333333334
 72
     1
 11
-428.429777715966
 21
99.9163627773523
 31
0.0
 73
     2
  0
LINE
  5
    AF
  8
0
  6
CONTINUOUS
 62
     7
 10
-421.029761389129
 20
95.2960189065361
 30
0.0
 11
-421.029694896147
 21
99.4163627621908
 31
0.0
  0
LINE
  5
    B0
  8
0
  6
CONTINUOUS
 62
     7
 10
-419.529776503633
 20
97.4163627624512
 30
0.0
 11
-429.529777726894
 21
97.4163627624512
 31
0.0
  0
LINE
  5
    B1
  8
0
  6
CONTINUOUS
 62
     7
 10
-416.575353226426
 20
97.9373071924029
 30
0.0
 11
-419.529776503633
 21
97.4163627624512
 31
0.0
  0
LINE
  5
    B2
  8
0
  6
CONTINUOUS
 62
     7
 10
-419.529776503633
 20
97.4163627624512
 30
0.0
 11
-416.575353226426
 21
96.8954183324995
 31
0.0
  0
LINE
  5
    B3
  8
0
  6
CONTINUOUS
 62
     7
 10
-423.984150448807
 20
96.8954183324995
 30
0.0
 11
-421.0297271716
 21
97.4163627624512
 31
0.0
  0
LINE
  5
    B4
  8
0
  6
CONTINUOUS
 62
     7
 10
-421.0297271716
 20
97.4163627624512
 30
0.0
 11
-423.984150448807
 21
97.9373071924029
 31
0.0
  0
ENDBLK
  5
    B5
  8
0
  6
CONTINUOUS
 62
     7
  0
BLOCK
  5
    B6
  8
0
  6
CONTINUOUS
 62
     7
  2
*UDIM2252
 70
    65
 10
0.0
 20
0.0
 30
0.0
  3
*UDIM2252
  0
TEXT
  5
    B7
  8
0
  6
CONTINUOUS
 62
     7
 10
-310.695083621696
 20
9.06523052733604
 30
0.0
 40
3.00000002980232
  1
105
 50
89.9999999480344
 41
0.933333333333333
 72
     1
 11
-312.195083633065
 21
12.9652305674376
 31
0.0
 73
     2
  0
LINE
  5
    B8
  8
0
  6
CONTINUOUS
 62
     7
 10
-340.279759407043
 20
-13.0097599792657
 30
0.0
 11
-307.695083618164
 21
-13.0097599792657
 31
0.0
  0
LINE
  5
    B9
  8
0
  6
CONTINUOUS
 62
     7
 10
-340.279759407043
 20
39.4902247619452
 30
0.0
 11
-307.695083618164
 21
39.4902247619452
 31
0.0
  0
LINE
  5
    BA
  8
0
  6
CONTINUOUS
 62
     7
 10
-309.695083618164
 20
-13.0097599792657
 30
0.0
 11
-309.695083618164
 21
39.4902247619452
 31
0.0
  0
LINE
  5
    BB
  8
0
  6
CONTINUOUS
 62
     7
 10
-310.216028048116
 20
-10.0553367020587
 30
0.0
 11
-309.695083618164
 21
-13.0097599792657
 31
0.0
  0
LINE
  5
    BC
  8
0
  6
CONTINUOUS
 62
     7
 10
-309.695083618164
 20
-13.0097599792657
 30
0.0
 11
-309.174139188212
 21
-10.0553367020587
 31
0.0
  0
LINE
  5
    BD
  8
0
  6
CONTINUOUS
 62
     7
 10
-309.174139188212
 20
36.5358014847383
 30
0.0
 11
-309.695083618164
 21
39.4902247619452
 31
0.0
  0
LINE
  5
    BE
  8
0
  6
CONTINUOUS
 62
     7
 10
-309.695083618164
 20
39.4902247619452
 30
0.0
 11
-310.216028048116
 21
36.5358014847383
 31
0.0
  0
ENDBLK
  5
    BF
  8
0
  6
CONTINUOUS
 62
     7
  0
BLOCK
  5
    C0
  8
0
  6
CONTINUOUS
 62
     0
  2
ON-OFF
 70
    64
 10
0.0
 20
0.0
 30
0.0
  3
ON-OFF
  0
LINE
  5
    C1
  8
0
  6
CONTINUOUS
 62
     0
 10
5.09999999999999
 20
-29.65
 30
0.0
 11
5.54999999999999
 21
-29.65
 31
0.0
  0
LINE
  5
    C2
  8
0
  6
CONTINUOUS
 62
     0
 10
3.79999999999999
 20
-37.35
 30
0.0
 11
4.59999999999999
 21
-37.35
 31
0.0
  0
LINE
  5
    C3
  8
0
  6
CONTINUOUS
 62
     0
 10
-2.6
 20
-34.75
 30
0.0
 11
-2.6
 21
-34.25
 31
0.0
  0
LINE
  5
    C4
  8
0
  6
CONTINUOUS
 62
     0
 10
2.6
 20
-34.75
 30
0.0
 11
2.6
 21
-34.25
 31
0.0
  0
ARC
  5
    C5
  8
0
  6
CONTINUOUS
 62
     0
 10
-3.5527136788005E-15
 20
-34.25
 30
0.0
 40
2.6
 50
0.0
 51
180.0
  0
ARC
  5
    C6
  8
0
  6
CONTINUOUS
 62
     0
 10
-3.5527136788005E-15
 20
-34.75
 30
0.0
 40
2.6
 50
180.0
 51
360.0
  0
ARC
  5
    C7
  8
0
  6
CONTINUOUS
 62
     0
 10
-3.5527136788005E-15
 20
-34.25
 30
0.0
 40
1.8
 50
0.0
 51
180.0
  0
ARC
  5
    C8
  8
0
  6
CONTINUOUS
 62
     0
 10
-3.5527136788005E-15
 20
-34.75
 30
0.0
 40
1.8
 50
180.0
 51
360.0
  0
LINE
  5
    C9
  8
0
  6
CONTINUOUS
 62
     0
 10
-1.8
 20
-34.75
 30
0.0
 11
-1.8
 21
-34.25
 31
0.0
  0
LINE
  5
    CA
  8
0
  6
CONTINUOUS
 62
     0
 10
1.8
 20
-34.75
 30
0.0
 11
1.8
 21
-34.25
 31
0.0
  0
LINE
  5
    CB
  8
0
  6
CONTINUOUS
 62
     0
 10
2.84999999999999
 20
-32.85
 30
0.0
 11
2.84999999999999
 21
-32.05
 31
0.0
  0
LINE
  5
    CC
  8
0
  6
CONTINUOUS
 62
     0
 10
2.84999999999999
 20
-32.85
 30
0.0
 11
3.79999999999999
 21
-32.85
 31
0.0
  0
LINE
  5
    CD
  8
0
  6
CONTINUOUS
 62
     0
 10
5.54999999999999
 20
-32.85
 30
0.0
 11
5.54999999999999
 21
-32.05
 31
0.0
  0
LINE
  5
    CE
  8
0
  6
CONTINUOUS
 62
     0
 10
2.84999999999999
 20
-32.05
 30
0.0
 11
3.79999999999999
 21
-32.05
 31
0.0
  0
LINE
  5
    CF
  8
0
  6
CONTINUOUS
 62
     0
 10
3.79999999999999
 20
-37.35
 30
0.0
 11
3.79999999999999
 21
-32.85
 31
0.0
  0
LINE
  5
    D0
  8
0
  6
CONTINUOUS
 62
     0
 10
4.59999999999999
 20
-37.35
 30
0.0
 11
4.59999999999999
 21
-32.85
 31
0.0
  0
LINE
  5
    D1
  8
0
  6
CONTINUOUS
 62
     0
 10
4.59999999999999
 20
-32.85
 30
0.0
 11
5.54999999999999
 21
-32.85
 31
0.0
  0
LINE
  5
    D2
  8
0
  6
CONTINUOUS
 62
     0
 10
4.59999999999999
 20
-32.05
 30
0.0
 11
5.54999999999999
 21
-32.05
 31
0.0
  0
LINE
  5
    D3
  8
0
  6
CONTINUOUS
 62
     0
 10
3.79999999999999
 20
-32.05
 30
0.0
 11
3.79999999999999
 21
-30.95
 31
0.0
  0
LINE
  5
    D4
  8
0
  6
CONTINUOUS
 62
     0
 10
4.59999999999999
 20
-32.05
 30
0.0
 11
4.59999999999999
 21
-30.95
 31
0.0
  0
ARC
  5
    D5
  8
0
  6
CONTINUOUS
 62
     0
 10
5.09999999999999
 20
-30.95
 30
0.0
 40
1.3
 50
89.9999999999999
 51
180.0
  0
ARC
  5
    D6
  8
0
  6
CONTINUOUS
 62
     0
 10
5.09999999999999
 20
-30.95
 30
0.0
 40
0.5
 50
89.9999999999999
 51
180.0
  0
LINE
  5
    D7
  8
0
  6
CONTINUOUS
 62
     0
 10
5.54999999999999
 20
-30.45
 30
0.0
 11
5.54999999999999
 21
-29.65
 31
0.0
  0
LINE
  5
    D8
  8
0
  6
CONTINUOUS
 62
     0
 10
5.09999999999999
 20
-30.45
 30
0.0
 11
5.54999999999999
 21
-30.45
 31
0.0
  0
LINE
  5
    D9
  8
0
  6
CONTINUOUS
 62
     0
 10
8.29999999999998
 20
-29.65
 30
0.0
 11
8.74999999999999
 21
-29.65
 31
0.0
  0
LINE
  5
    DA
  8
0
  6
CONTINUOUS
 62
     0
 10
6.99999999999999
 20
-37.35
 30
0.0
 11
7.79999999999999
 21
-37.35
 31
0.0
  0
LINE
  5
    DB
  8
0
  6
CONTINUOUS
 62
     0
 10
6.04999999999999
 20
-32.85
 30
0.0
 11
6.04999999999999
 21
-32.05
 31
0.0
  0
LINE
  5
    DC
  8
0
  6
CONTINUOUS
 62
     0
 10
6.04999999999999
 20
-32.85
 30
0.0
 11
6.99999999999999
 21
-32.85
 31
0.0
  0
LINE
  5
    DD
  8
0
  6
CONTINUOUS
 62
     0
 10
8.74999999999999
 20
-32.85
 30
0.0
 11
8.74999999999999
 21
-32.05
 31
0.0
  0
LINE
  5
    DE
  8
0
  6
CONTINUOUS
 62
     0
 10
6.04999999999999
 20
-32.05
 30
0.0
 11
6.99999999999999
 21
-32.05
 31
0.0
  0
LINE
  5
    DF
  8
0
  6
CONTINUOUS
 62
     0
 10
6.99999999999999
 20
-37.35
 30
0.0
 11
6.99999999999999
 21
-32.85
 31
0.0
  0
LINE
  5
    E0
  8
0
  6
CONTINUOUS
 62
     0
 10
7.79999999999999
 20
-37.35
 30
0.0
 11
7.79999999999999
 21
-32.85
 31
0.0
  0
LINE
  5
    E1
  8
0
  6
CONTINUOUS
 62
     0
 10
7.79999999999999
 20
-32.85
 30
0.0
 11
8.74999999999999
 21
-32.85
 31
0.0
  0
LINE
  5
    E2
  8
0
  6
CONTINUOUS
 62
     0
 10
7.79999999999999
 20
-32.05
 30
0.0
 11
8.74999999999999
 21
-32.05
 31
0.0
  0
LINE
  5
    E3
  8
0
  6
CONTINUOUS
 62
     0
 10
6.99999999999999
 20
-32.05
 30
0.0
 11
6.99999999999999
 21
-30.95
 31
0.0
  0
LINE
  5
    E4
  8
0
  6
CONTINUOUS
 62
     0
 10
7.79999999999999
 20
-32.05
 30
0.0
 11
7.79999999999999
 21
-30.95
 31
0.0
  0
ARC
  5
    E5
  8
0
  6
CONTINUOUS
 62
     0
 10
8.29999999999998
 20
-30.95
 30
0.0
 40
1.3
 50
89.9999999999999
 51
180.0
  0
ARC
  5
    E6
  8
0
  6
CONTINUOUS
 62
     0
 10
8.29999999999998
 20
-30.95
 30
0.0
 40
0.5
 50
89.9999999999999
 51
180.0
  0
LINE
  5
    E7
  8
0
  6
CONTINUOUS
 62
     0
 10
8.74999999999999
 20
-30.45
 30
0.0
 11
8.74999999999999
 21
-29.65
 31
0.0
  0
LINE
  5
    E8
  8
0
  6
CONTINUOUS
 62
     0
 10
8.29999999999998
 20
-30.45
 30
0.0
 11
8.74999999999999
 21
-30.45
 31
0.0
  0
LINE
  5
    E9
  8
0
  6
CONTINUOUS
 62
     0
 10
3.4
 20
-2.85000000000002
 30
0.0
 11
4.19999999999999
 21
-2.85000000000002
 31
0.0
  0
ARC
  5
    EA
  8
0
  6
CONTINUOUS
 62
     0
 10
-3.5527136788005E-15
 20
0.249999999999979
 30
0.0
 40
2.6
 50
0.0
 51
180.0
  0
ARC
  5
    EB
  8
0
  6
CONTINUOUS
 62
     0
 10
-3.5527136788005E-15
 20
0.249999999999979
 30
0.0
 40
1.8
 50
0.0
 51
180.0
  0
ARC
  5
    EC
  8
0
  6
CONTINUOUS
 62
     0
 10
-3.5527136788005E-15
 20
-0.250000000000018
 30
0.0
 40
2.6
 50
180.0
 51
360.0
  0
ARC
  5
    ED
  8
0
  6
CONTINUOUS
 62
     0
 10
-3.5527136788005E-15
 20
-0.250000000000018
 30
0.0
 40
1.8
 50
180.0
 51
360.0
  0
LINE
  5
    EE
  8
0
  6
CONTINUOUS
 62
     0
 10
1.8
 20
-0.250000000000018
 30
0.0
 11
1.8
 21
0.249999999999979
 31
0.0
  0
LINE
  5
    EF
  8
0
  6
CONTINUOUS
 62
     0
 10
2.6
 20
-0.250000000000018
 30
0.0
 11
2.6
 21
0.249999999999979
 31
0.0
  0
LINE
  5
    F0
  8
0
  6
CONTINUOUS
 62
     0
 10
-1.8
 20
-0.250000000000032
 30
0.0
 11
-1.8
 21
0.249999999999964
 31
0.0
  0
LINE
  5
    F1
  8
0
  6
CONTINUOUS
 62
     0
 10
-2.6
 20
-0.250000000000018
 30
0.0
 11
-2.6
 21
0.249999999999979
 31
0.0
  0
LINE
  5
    F2
  8
0
  6
CONTINUOUS
 62
     0
 10
3.4
 20
-2.85000000000002
 30
0.0
 11
3.4
 21
2.84999999999998
 31
0.0
  0
LINE
  5
    F3
  8
0
  6
CONTINUOUS
 62
     0
 10
4.19999999999999
 20
-2.85000000000002
 30
0.0
 11
4.19999999999999
 21
0.649999999999981
 31
0.0
  0
LINE
  5
    F4
  8
0
  6
CONTINUOUS
 62
     0
 10
6.99999999999999
 20
-2.85000000000002
 30
0.0
 11
6.99999999999999
 21
0.649999999999981
 31
0.0
  0
LINE
  5
    F5
  8
0
  6
CONTINUOUS
 62
     0
 10
7.79999999999999
 20
-2.85000000000002
 30
0.0
 11
7.79999999999999
 21
0.84999999999998
 31
0.0
  0
LINE
  5
    F6
  8
0
  6
CONTINUOUS
 62
     0
 10
3.4
 20
2.84999999999998
 30
0.0
 11
4.19999999999999
 21
2.84999999999998
 31
0.0
  0
ARC
  5
    F7
  8
0
  6
CONTINUOUS
 62
     0
 10
5.59999999999999
 20
0.649999999999981
 30
0.0
 40
1.4
 50
0.0
 51
180.0
  0
LINE
  5
    F8
  8
0
  6
CONTINUOUS
 62
     0
 10
4.19999999999999
 20
2.05
 30
0.0
 11
4.19999999999999
 21
2.84999999999998
 31
0.0
  0
ARC
  5
    F9
  8
0
  6
CONTINUOUS
 62
     0
 10
5.79999999999999
 20
0.84999999999998
 30
0.0
 40
2.0
 50
0.0
 51
143.130102354155
  0
LINE
  5
    FA
  8
0
  6
CONTINUOUS
 62
     0
 10
6.99999999999999
 20
-2.85000000000002
 30
0.0
 11
7.79999999999999
 21
-2.85000000000002
 31
0.0
  0
ENDBLK
  5
    FB
  8
0
  6
CONTINUOUS
 62
     0
  0
BLOCK
  5
    FC
  8
0
  6
CONTINUOUS
 62
     7
  2
MOSTRINA
 70
    64
 10
0.0
 20
0.0
 30
0.0
  3
MOSTRINA
  0
LINE
  5
    FD
  8
0
  6
CONTINUOUS
 62
     3
 10
173.338256835938
 20
30.7306251525879
 30
0.0
 11
173.338256835938
 21
189.230621337891
 31
0.0
  0
LINE
  5
    FE
  8
0
  6
CONTINUOUS
 62
     3
 10
57.5882568359375
 20
29.4806251525879
 30
0.0
 11
172.088256835938
 21
29.4806251525879
 31
0.0
  0
LINE
  5
    FF
  8
0
  6
CONTINUOUS
 62
     3
 10
56.3382568359375
 20
30.7306251525879
 30
0.0
 11
56.3382568359375
 21
189.230621337891
 31
0.0
  0
LINE
  5
   100
  8
0
  6
CONTINUOUS
 62
     3
 10
57.5882568359375
 20
190.480621337891
 30
0.0
 11
172.088256835938
 21
190.480621337891
 31
0.0
  0
LINE
  5
   101
  8
0
  6
CONTINUOUS
 62
     3
 10
167.838256835938
 20
56.9806251525879
 30
0.0
 11
167.838256835938
 21
162.980625152588
 31
0.0
  0
LINE
  5
   102
  8
0
  6
CONTINUOUS
 62
     3
 10
61.8382568359375
 20
56.9806251525879
 30
0.0
 11
167.838256835938
 21
56.9806251525879
 31
0.0
  0
LINE
  5
   103
  8
0
  6
CONTINUOUS
 62
     3
 10
61.8382568359375
 20
56.9806251525879
 30
0.0
 11
61.8382568359375
 21
162.980625152588
 31
0.0
  0
LINE
  5
   104
  8
0
  6
CONTINUOUS
 62
     3
 10
61.8382568359375
 20
162.980621337891
 30
0.0
 11
167.838256835938
 21
162.980621337891
 31
0.0
  0
LINE
  5
   105
  8
0
  6
CONTINUOUS
 62
     3
 10
168.838256835938
 20
48.4806251525879
 30
0.0
 11
168.838256835938
 21
49.4806251525879
 31
0.0
  0
LINE
  5
   106
  8
0
  6
CONTINUOUS
 62
     3
 10
61.8382568359375
 20
50.4806251525879
 30
0.0
 11
167.838256835938
 21
50.4806251525879
 31
0.0
  0
LINE
  5
   107
  8
0
  6
CONTINUOUS
 62
     3
 10
60.8382568359375
 20
48.4806251525879
 30
0.0
 11
60.8382568359375
 21
49.4806251525879
 31
0.0
  0
LINE
  5
   108
  8
0
  6
CONTINUOUS
 62
     3
 10
61.8382568359375
 20
49.4806251525879
 30
0.0
 11
167.838256835938
 21
49.4806251525879
 31
0.0
  0
LINE
  5
   109
  8
0
  6
CONTINUOUS
 62
     3
 10
60.8382568359375
 20
29.4806251525879
 30
0.0
 11
60.8382568359375
 21
48.4806251525879
 31
0.0
  0
LINE
  5
   10A
  8
0
  6
CONTINUOUS
 62
     3
 10
60.8382568359375
 20
49.4806213378906
 30
0.0
 11
60.8382568359375
 21
190.480621337891
 31
0.0
  0
LINE
  5
   10B
  8
0
  6
CONTINUOUS
 62
     3
 10
61.8382568359375
 20
29.4806251525879
 30
0.0
 11
61.8382568359375
 21
49.4806251525879
 31
0.0
  0
LINE
  5
   10C
  8
0
  6
CONTINUOUS
 62
     3
 10
61.8382568359375
 20
162.980621337891
 30
0.0
 11
61.8382568359375
 21
169.480621337891
 31
0.0
  0
LINE
  5
   10D
  8
0
  6
CONTINUOUS
 62
     3
 10
61.8382568359375
 20
50.4806251525879
 30
0.0
 11
61.8382568359375
 21
56.9806251525879
 31
0.0
  0
LINE
  5
   10E
  8
0
  6
CONTINUOUS
 62
     3
 10
168.838256835938
 20
29.4806251525879
 30
0.0
 11
168.838256835938
 21
48.4806251525879
 31
0.0
  0
LINE
  5
   10F
  8
0
  6
CONTINUOUS
 62
     3
 10
168.838256835938
 20
49.4806251525879
 30
0.0
 11
168.838256835938
 21
190.480621337891
 31
0.0
  0
LINE
  5
   110
  8
0
  6
CONTINUOUS
 62
     3
 10
167.838256835938
 20
50.4806251525879
 30
0.0
 11
167.838256835938
 21
56.9806251525879
 31
0.0
  0
LINE
  5
   111
  8
0
  6
CONTINUOUS
 62
     3
 10
167.838256835938
 20
162.980621337891
 30
0.0
 11
167.838256835938
 21
169.480621337891
 31
0.0
  0
LINE
  5
   112
  8
0
  6
CONTINUOUS
 62
     3
 10
167.838256835938
 20
29.4806251525879
 30
0.0
 11
167.838256835938
 21
49.4806251525879
 31
0.0
  0
LINE
  5
   113
  8
0
  6
CONTINUOUS
 62
     3
 10
60.8382568359375
 20
170.480621337891
 30
0.0
 11
168.838256835938
 21
170.480621337891
 31
0.0
  0
LINE
  5
   114
  8
0
  6
CONTINUOUS
 62
     3
 10
61.8382568359375
 20
169.480621337891
 30
0.0
 11
167.838256835938
 21
169.480621337891
 31
0.0
  0
ARC
  5
   115
  8
0
  6
CONTINUOUS
 62
     3
 10
57.5882568359375
 20
30.7306251525879
 30
0.0
 40
1.25
 50
180.0
 51
270.0
  0
ARC
  5
   116
  8
0
  6
CONTINUOUS
 62
     3
 10
172.088256835938
 20
30.7306251525879
 30
0.0
 40
1.25
 50
270.0
 51
360.0
  0
ARC
  5
   117
  8
0
  6
CONTINUOUS
 62
     3
 10
172.088256835938
 20
189.230621337891
 30
0.0
 40
1.25
 50
0.0
 51
90.0
  0
ARC
  5
   118
  8
0
  6
CONTINUOUS
 62
     3
 10
57.5882568359375
 20
189.230621337891
 30
0.0
 40
1.25
 50
90.0
 51
180.0
  0
LINE
  5
   119
  8
0
  6
DOT
 62
     3
 10
60.3382577409677
 20
179.7306252571
 30
0.0
 11
60.8382568359375
 21
179.7306252571
 31
0.0
  0
LINE
  5
   11A
  8
0
  6
DOT
 62
     3
 10
60.3382577409676
 20
181.2306252571
 30
0.0
 11
60.8382568359375
 21
181.2306252571
 31
0.0
  0
LINE
  5
   11B
  8
0
  6
CONTINUOUS
 62
     3
 10
168.338257745313
 20
179.730625257273
 30
0.0
 11
168.838256835938
 21
179.730625257273
 31
0.0
  0
LINE
  5
   11C
  8
0
  6
CONTINUOUS
 62
     3
 10
168.338257745314
 20
181.230625257273
 30
0.0
 11
168.838256835938
 21
181.230625257273
 31
0.0
  0
ARC
  5
   11D
  8
0
  6
DOT
 62
     3
 10
60.3382577401871
 20
180.480625257147
 30
0.0
 40
0.749999999345164
 50
90.0
 51
270.0
  0
ARC
  5
   11E
  8
0
  6
CONTINUOUS
 62
     3
 10
61.338257740822
 20
180.480625256974
 30
0.0
 40
0.750000000009701
 50
270.0
 51
450.0
  0
LINE
  5
   11F
  8
0
  6
CONTINUOUS
 62
     3
 10
60.8382568359375
 20
181.2306252571
 30
0.0
 11
61.3382577409688
 21
181.2306252571
 31
0.0
  0
LINE
  5
   120
  8
0
  6
CONTINUOUS
 62
     3
 10
60.8382568359375
 20
179.7306252571
 30
0.0
 11
61.3382577409689
 21
179.7306252571
 31
0.0
  0
ARC
  5
   121
  8
0
  6
CONTINUOUS
 62
     3
 10
168.338257745503
 20
180.480625256952
 30
0.0
 40
0.750000000048506
 50
90.0000000038822
 51
269.999999996024
  0
ARC
  5
   122
  8
0
  6
DOT
 62
     3
 10
169.338257745421
 20
180.480625256965
 30
0.0
 40
0.750000000029104
 50
270.000000002449
 51
449.999999997486
  0
LINE
  5
   123
  8
0
  6
DOT
 62
     3
 10
168.838256835938
 20
181.230625257273
 30
0.0
 11
169.338257745315
 21
181.230625257273
 31
0.0
  0
LINE
  5
   124
  8
0
  6
DOT
 62
     3
 10
168.838256835938
 20
179.730625257273
 30
0.0
 11
169.338257745315
 21
179.730625257273
 31
0.0
  0
POINT
  5
   125
  8
0
  6
CONTINUOUS
 62
     3
 10
114.838256835938
 20
109.980621337891
 30
0.0
  0
ENDBLK
  5
   126
  8
0
  6
CONTINUOUS
 62
     7
  0
BLOCK
  5
   127
  8
0
  6
CONTINUOUS
 62
     7
  2
*UDIM2253
 70
    65
 10
0.0
 20
0.0
 30
0.0
  3
*UDIM2253
  0
TEXT
  5
   128
  8
0
  6
CONTINUOUS
 62
     7
 10
-503.755139188168
 20
102.363132480324
 30
0.0
 40
3.00000002980232
  1
117
 50
359.999999948034
 41
0.933333333333333
 72
     1
 11
-499.855139148073
 21
103.863132491708
 31
0.0
 73
     2
  0
LINE
  5
   129
  8
0
  6
CONTINUOUS
 62
     7
 10
-470.330142330961
 20
53.8652038574199
 30
0.0
 11
-470.330142330961
 21
103.363132476807
 31
0.0
  0
LINE
  5
   12A
  8
0
  6
CONTINUOUS
 62
     7
 10
-528.830142330961
 20
53.8652038574199
 30
0.0
 11
-528.830142330961
 21
103.363132476807
 31
0.0
  0
LINE
  5
   12B
  8
0
  6
CONTINUOUS
 62
     7
 10
-470.330142330961
 20
101.363132476807
 30
0.0
 11
-528.830142330961
 21
101.363132476807
 31
0.0
  0
LINE
  5
   12C
  8
0
  6
CONTINUOUS
 62
     7
 10
-473.284565608168
 20
100.842188046855
 30
0.0
 11
-470.330142330961
 21
101.363132476807
 31
0.0
  0
LINE
  5
   12D
  8
0
  6
CONTINUOUS
 62
     7
 10
-470.330142330961
 20
101.363132476807
 30
0.0
 11
-473.284565608168
 21
101.884076906758
 31
0.0
  0
LINE
  5
   12E
  8
0
  6
CONTINUOUS
 62
     7
 10
-525.875719053754
 20
101.884076906758
 30
0.0
 11
-528.830142330961
 21
101.363132476807
 31
0.0
  0
LINE
  5
   12F
  8
0
  6
CONTINUOUS
 62
     7
 10
-528.830142330961
 20
101.363132476807
 30
0.0
 11
-525.875719053754
 21
100.842188046855
 31
0.0
  0
ENDBLK
  5
   130
  8
0
  6
CONTINUOUS
 62
     7
  0
BLOCK
  5
   131
  8
0
  6
CONTINUOUS
 62
     7
  2
*UDIM2254
 70
    65
 10
0.0
 20
0.0
 30
0.0
  3
*UDIM2254
  0
TEXT
  5
   132
  8
0
  6
CONTINUOUS
 62
     7
 10
-456.481384280876
 20
9.06520762605515
 30
0.0
 40
3.00000002980232
  1
161
 50
89.9999999480344
 41
0.933333333333333
 72
     1
 11
-457.981384292245
 21
12.9652076661567
 31
0.0
 73
     2
  0
LINE
  5
   133
  8
0
  6
CONTINUOUS
 62
     7
 10
-469.955142330961
 20
-27.0097942352314
 30
0.0
 11
-453.481384277344
 21
-27.0097942352314
 31
0.0
  0
LINE
  5
   134
  8
0
  6
CONTINUOUS
 62
     7
 10
-469.955142330961
 20
53.4902038574199
 30
0.0
 11
-453.481384277344
 21
53.4902038574199
 31
0.0
  0
LINE
  5
   135
  8
0
  6
CONTINUOUS
 62
     7
 10
-455.481384277344
 20
-27.0097942352314
 30
0.0
 11
-455.481384277344
 21
53.4902038574199
 31
0.0
  0
LINE
  5
   136
  8
0
  6
CONTINUOUS
 62
     7
 10
-456.002328707295
 20
-24.0553709580245
 30
0.0
 11
-455.481384277344
 21
-27.0097942352314
 31
0.0
  0
LINE
  5
   137
  8
0
  6
CONTINUOUS
 62
     7
 10
-455.481384277344
 20
-27.0097942352314
 30
0.0
 11
-454.960439847392
 21
-24.0553709580245
 31
0.0
  0
LINE
  5
   138
  8
0
  6
CONTINUOUS
 62
     7
 10
-454.960439847392
 20
50.535780580213
 30
0.0
 11
-455.481384277344
 21
53.4902038574199
 31
0.0
  0
LINE
  5
   139
  8
0
  6
CONTINUOUS
 62
     7
 10
-455.481384277344
 20
53.4902038574199
 30
0.0
 11
-456.002328707295
 21
50.535780580213
 31
0.0
  0
ENDBLK
  5
   13A
  8
0
  6
CONTINUOUS
 62
     7
  0
BLOCK
  5
   13B
  8
0
  6
CONTINUOUS
 62
     7
  2
*UDIM2255
 70
    65
 10
0.0
 20
0.0
 30
0.0
  3
*UDIM2255
  0
TEXT
  5
   13C
  8
0
  6
CONTINUOUS
 62
     7
 10
-571.720930106824
 20
40.0527075884899
 30
0.0
 40
3.00000002980232
  1
140,75
 50
89.9999999480344
 41
0.933333333333333
 72
     1
 11
-573.220930114389
 21
48.1527076703147
 31
0.0
 73
     2
  0
LINE
  5
   13D
  8
0
  6
CONTINUOUS
 62
     7
 10
-559.143951245109
 20
13.2402229309082
 30
0.0
 11
-572.720930099487
 21
13.2402229309082
 31
0.0
  0
LINE
  5
   13E
  8
0
  6
CONTINUOUS
 62
     7
 10
-538.630142420729
 20
83.615192123619
 30
0.0
 11
-572.720930099487
 21
83.615192123619
 31
0.0
  0
LINE
  5
   13F
  8
0
  6
CONTINUOUS
 62
     7
 10
-570.720930099487
 20
13.2402229309082
 30
0.0
 11
-570.720930099487
 21
83.615192123619
 31
0.0
  0
LINE
  5
   140
  8
0
  6
CONTINUOUS
 62
     7
 10
-571.241874529439
 20
16.1946462081152
 30
0.0
 11
-570.720930099487
 21
13.2402229309082
 31
0.0
  0
LINE
  5
   141
  8
0
  6
CONTINUOUS
 62
     7
 10
-570.720930099487
 20
13.2402229309082
 30
0.0
 11
-570.199985669536
 21
16.1946462081152
 31
0.0
  0
LINE
  5
   142
  8
0
  6
CONTINUOUS
 62
     7
 10
-570.199985669536
 20
80.660768846412
 30
0.0
 11
-570.720930099487
 21
83.615192123619
 31
0.0
  0
LINE
  5
   143
  8
0
  6
CONTINUOUS
 62
     7
 10
-570.720930099487
 20
83.615192123619
 30
0.0
 11
-571.241874529439
 21
80.660768846412
 31
0.0
  0
ENDBLK
  5
   144
  8
0
  6
CONTINUOUS
 62
     7
  0
BLOCK
  5
   145
  8
0
  6
CONTINUOUS
 62
     7
  2
*UDIM2256
 70
    65
 10
0.0
 20
0.0
 30
0.0
  3
*UDIM2256
  0
TEXT
  5
   146
  8
0
  6
CONTINUOUS
 62
     7
 10
-553.325585849469
 20
36.8026923255446
 30
0.0
 40
3.00000002980232
  1
127,75
 50
89.9999999480344
 41
0.933333333333333
 72
     1
 11
-554.825585857034
 21
44.9026924073694
 31
0.0
 73
     2
  0
LINE
  5
   147
  8
0
  6
CONTINUOUS
 62
     7
 10
-543.705118837139
 20
77.1151618957516
 30
0.0
 11
-554.325585842133
 21
77.1151618957516
 31
0.0
  0
LINE
  5
   148
  8
0
  6
CONTINUOUS
 62
     7
 10
-552.325585842133
 20
13.2402229309082
 30
0.0
 11
-552.325585842133
 21
77.1151618957516
 31
0.0
  0
LINE
  5
   149
  8
0
  6
CONTINUOUS
 62
     7
 10
-552.846530272084
 20
16.1946462081152
 30
0.0
 11
-552.325585842133
 21
13.2402229309082
 31
0.0
  0
LINE
  5
   14A
  8
0
  6
CONTINUOUS
 62
     7
 10
-552.325585842133
 20
13.2402229309082
 30
0.0
 11
-551.804641412181
 21
16.1946462081152
 31
0.0
  0
LINE
  5
   14B
  8
0
  6
CONTINUOUS
 62
     7
 10
-551.804641412181
 20
74.1607386185447
 30
0.0
 11
-552.325585842133
 21
77.1151618957516
 31
0.0
  0
LINE
  5
   14C
  8
0
  6
CONTINUOUS
 62
     7
 10
-552.325585842133
 20
77.1151618957516
 30
0.0
 11
-552.846530272084
 21
74.1607386185447
 31
0.0
  0
ENDBLK
  5
   14D
  8
0
  6
CONTINUOUS
 62
     7
  0
BLOCK
  5
   14E
  8
0
  6
CONTINUOUS
 62
     7
  2
*UDIM2257
 70
    65
 10
0.0
 20
0.0
 30
0.0
  3
*UDIM2257
  0
TEXT
  5
   14F
  8
0
  6
CONTINUOUS
 62
     7
 10
-503.755104877383
 20
94.9389381443867
 30
0.0
 40
3.00000002980232
  1
105
 50
359.999999948034
 41
0.933333333333333
 72
     1
 11
-499.855104837287
 21
96.4389381557703
 31
0.0
 73
     2
  0
LINE
  5
   150
  8
0
  6
CONTINUOUS
 62
     7
 10
-473.330105010147
 20
40.2402229309082
 30
0.0
 11
-473.330105010147
 21
95.9389381408691
 31
0.0
  0
LINE
  5
   151
  8
0
  6
CONTINUOUS
 62
     7
 10
-525.830097380739
 20
40.2402229309082
 30
0.0
 11
-525.830097380739
 21
95.9389381408691
 31
0.0
  0
LINE
  5
   152
  8
0
  6
CONTINUOUS
 62
     7
 10
-473.330105010147
 20
93.9389381408691
 30
0.0
 11
-525.830097380739
 21
93.9389381408691
 31
0.0
  0
LINE
  5
   153
  8
0
  6
CONTINUOUS
 62
     7
 10
-476.284528287354
 20
93.4179937109175
 30
0.0
 11
-473.330105010147
 21
93.9389381408691
 31
0.0
  0
LINE
  5
   154
  8
0
  6
CONTINUOUS
 62
     7
 10
-473.330105010147
 20
93.9389381408691
 30
0.0
 11
-476.284528287354
 21
94.4598825708208
 31
0.0
  0
LINE
  5
   155
  8
0
  6
CONTINUOUS
 62
     7
 10
-522.875674103532
 20
94.4598825708208
 30
0.0
 11
-525.830097380739
 21
93.9389381408691
 31
0.0
  0
LINE
  5
   156
  8
0
  6
CONTINUOUS
 62
     7
 10
-525.830097380739
 20
93.9389381408691
 30
0.0
 11
-522.875674103532
 21
93.4179937109175
 31
0.0
  0
ENDBLK
  5
   157
  8
0
  6
CONTINUOUS
 62
     7
  0
BLOCK
  5
   158
  8
0
  6
CONTINUOUS
 62
     7
  2
*UDIM2258
 70
    65
 10
0.0
 20
0.0
 30
0.0
  3
*UDIM2258
  0
TEXT
  5
   159
  8
0
  6
CONTINUOUS
 62
     7
 10
-579.992935182928
 20
-63.2047485439181
 30
0.0
 40
3.00000002980232
  1
10
 50
89.9999999480344
 41
0.933333333333333
 72
     1
 11
-581.492935195565
 21
-60.7047485177242
 31
0.0
 73
     2
  0
LINE
  5
   15A
  8
0
  6
CONTINUOUS
 62
     7
 10
-504.955146789551
 20
-63.8847999572754
 30
0.0
 11
-580.992935180664
 21
-63.8847999572754
 31
0.0
  0
LINE
  5
   15B
  8
0
  6
CONTINUOUS
 62
     7
 10
-503.630145079692
 20
-58.8848153480934
 30
0.0
 11
-580.992935180664
 21
-58.8848153480934
 31
0.0
  0
LINE
  5
   15C
  8
0
  6
CONTINUOUS
 62
     7
 10
-578.992935180664
 20
-63.8847999572754
 30
0.0
 11
-578.992935180664
 21
-58.204748492889
 31
0.0
  0
LINE
  5
   15D
  8
0
  6
CONTINUOUS
 62
     7
 10
-578.471990750712
 20
-66.8392232344824
 30
0.0
 11
-578.992935180664
 21
-63.8847999572754
 31
0.0
  0
LINE
  5
   15E
  8
0
  6
CONTINUOUS
 62
     7
 10
-578.992935180664
 20
-63.8847999572754
 30
0.0
 11
-579.513879610616
 21
-66.8392232344824
 31
0.0
  0
LINE
  5
   15F
  8
0
  6
CONTINUOUS
 62
     7
 10
-579.513879610616
 20
-55.9303920708864
 30
0.0
 11
-578.992935180664
 21
-58.8848153480934
 31
0.0
  0
LINE
  5
   160
  8
0
  6
CONTINUOUS
 62
     7
 10
-578.992935180664
 20
-58.8848153480934
 30
0.0
 11
-578.471990750712
 21
-55.9303920708864
 31
0.0
  0
ENDBLK
  5
   161
  8
0
  6
CONTINUOUS
 62
     7
  0
BLOCK
  5
   162
  8
0
  6
CONTINUOUS
 62
     7
  2
*UDIM2259
 70
    65
 10
0.0
 20
0.0
 30
0.0
  3
*UDIM2259
  0
TEXT
  5
   163
  8
0
  6
CONTINUOUS
 62
     7
 10
-579.992935184196
 20
8.19012370889107
 30
0.0
 40
3.00000002980232
  1
285
 50
89.9999999480344
 41
0.933333333333333
 72
     1
 11
-581.492935195565
 21
12.0901237489927
 31
0.0
 73
     2
  0
LINE
  5
   164
  8
0
  6
CONTINUOUS
 62
     7
 10
-503.630181669531
 20
83.6151728285693
 30
0.0
 11
-580.992935180664
 21
83.6151728285693
 31
0.0
  0
LINE
  5
   165
  8
0
  6
CONTINUOUS
 62
     7
 10
-578.992935180664
 20
-58.8848153480934
 30
0.0
 11
-578.992935180664
 21
83.6151728285693
 31
0.0
  0
LINE
  5
   166
  8
0
  6
CONTINUOUS
 62
     7
 10
-579.513879610616
 20
-55.9303920708864
 30
0.0
 11
-578.992935180664
 21
-58.8848153480934
 31
0.0
  0
LINE
  5
   167
  8
0
  6
CONTINUOUS
 62
     7
 10
-578.992935180664
 20
-58.8848153480934
 30
0.0
 11
-578.471990750712
 21
-55.9303920708864
 31
0.0
  0
LINE
  5
   168
  8
0
  6
CONTINUOUS
 62
     7
 10
-578.471990750712
 20
80.6607495513623
 30
0.0
 11
-578.992935180664
 21
83.6151728285693
 31
0.0
  0
LINE
  5
   169
  8
0
  6
CONTINUOUS
 62
     7
 10
-578.992935180664
 20
83.6151728285693
 30
0.0
 11
-579.513879610616
 21
80.6607495513623
 31
0.0
  0
ENDBLK
  5
   16A
  8
0
  6
CONTINUOUS
 62
     7
  0
BLOCK
  5
   16B
  8
0
  6
CONTINUOUS
 62
     7
  2
*UDIM2260
 70
    65
 10
0.0
 20
0.0
 30
0.0
  3
*UDIM2260
  0
TEXT
  5
   16C
  8
0
  6
CONTINUOUS
 62
     7
 10
-579.992935182928
 20
83.0888572497165
 30
0.0
 40
3.00000002980232
  1
10
 50
89.9999999480344
 41
0.933333333333333
 72
     1
 11
-581.492935195565
 21
85.5888572759103
 31
0.0
 73
     2
  0
LINE
  5
   16D
  8
0
  6
CONTINUOUS
 62
     7
 10
-504.955146789551
 20
88.6152076721191
 30
0.0
 11
-580.992935180664
 21
88.6152076721191
 31
0.0
  0
LINE
  5
   16E
  8
0
  6
CONTINUOUS
 62
     7
 10
-578.992935180664
 20
83.088857251075
 30
0.0
 11
-578.992935180664
 21
88.6152076721191
 31
0.0
  0
LINE
  5
   16F
  8
0
  6
CONTINUOUS
 62
     7
 10
-578.471990750712
 20
80.6607495513623
 30
0.0
 11
-578.992935180664
 21
83.6151728285693
 31
0.0
  0
LINE
  5
   170
  8
0
  6
CONTINUOUS
 62
     7
 10
-578.992935180664
 20
83.6151728285693
 30
0.0
 11
-579.513879610616
 21
80.6607495513623
 31
0.0
  0
LINE
  5
   171
  8
0
  6
CONTINUOUS
 62
     7
 10
-579.513879610616
 20
91.5696309493261
 30
0.0
 11
-578.992935180664
 21
88.6152076721191
 31
0.0
  0
LINE
  5
   172
  8
0
  6
CONTINUOUS
 62
     7
 10
-578.992935180664
 20
88.6152076721191
 30
0.0
 11
-578.471990750712
 21
91.5696309493261
 31
0.0
  0
ENDBLK
  5
   173
  8
0
  6
CONTINUOUS
 62
     7
  0
BLOCK
  5
   174
  8
0
  6
CONTINUOUS
 62
     7
  2
*UDIM2261
 70
    65
 10
0.0
 20
0.0
 30
0.0
  3
*UDIM2261
  0
TEXT
  5
   175
  8
0
  6
CONTINUOUS
 62
     7
 10
-563.947593692497
 20
2.08707719607394
 30
0.0
 40
3.00000002980232
  1
259
 50
89.9999999480344
 41
0.933333333333333
 72
     1
 11
-565.447593703866
 21
5.98707723617553
 31
0.0
 73
     2
  0
LINE
  5
   176
  8
0
  6
CONTINUOUS
 62
     7
 10
-543.705118171784
 20
-52.3847770690915
 30
0.0
 11
-564.947593688965
 21
-52.3847770690915
 31
0.0
  0
LINE
  5
   177
  8
0
  6
CONTINUOUS
 62
     7
 10
-543.705118837139
 20
77.1151618957516
 30
0.0
 11
-564.947593688965
 21
77.1151618957516
 31
0.0
  0
LINE
  5
   178
  8
0
  6
CONTINUOUS
 62
     7
 10
-562.947593688965
 20
-52.3847770690915
 30
0.0
 11
-562.947593688965
 21
77.1151618957516
 31
0.0
  0
LINE
  5
   179
  8
0
  6
CONTINUOUS
 62
     7
 10
-563.468538118917
 20
-49.4303537918845
 30
0.0
 11
-562.947593688965
 21
-52.3847770690915
 31
0.0
  0
LINE
  5
   17A
  8
0
  6
CONTINUOUS
 62
     7
 10
-562.947593688965
 20
-52.3847770690915
 30
0.0
 11
-562.426649259013
 21
-49.4303537918845
 31
0.0
  0
LINE
  5
   17B
  8
0
  6
CONTINUOUS
 62
     7
 10
-562.426649259013
 20
74.1607386185447
 30
0.0
 11
-562.947593688965
 21
77.1151618957516
 31
0.0
  0
LINE
  5
   17C
  8
0
  6
CONTINUOUS
 62
     7
 10
-562.947593688965
 20
77.1151618957516
 30
0.0
 11
-563.468538118917
 21
74.1607386185447
 31
0.0
  0
ENDBLK
  5
   17D
  8
0
  6
CONTINUOUS
 62
     7
  0
BLOCK
  5
   17E
  8
0
  6
CONTINUOUS
 62
     7
  2
*UDIM2262
 70
    65
 10
0.0
 20
0.0
 30
0.0
  3
*UDIM2262
  0
TEXT
  5
   17F
  8
0
  6
CONTINUOUS
 62
     7
 10
-462.839190981133
 20
-61.5141358768643
 30
0.0
 40
3.00000002980232
  1
8,2
 50
349.266886537134
 41
0.933333333333333
 72
     1
 11
-458.728068447398
 21
-60.7666923274794
 31
0.0
 73
     2
  0
TEXT
  5
   180
  8
0
  6
CONTINUOUS
 62
     7
 10
-465.934082776599
 20
-60.9274972854453
 30
0.0
 40
3.00000002980232
  1
Ø
 50
349.266886537134
 41
0.933333333333334
 72
     1
 11
-464.573975189932
 21
-59.6585972021312
 31
0.0
 73
     2
  0
LINE
  5
   181
  8
0
  6
CONTINUOUS
 62
     7
 10
-455.361883814556
 20
-63.9492701182512
 30
0.0
 11
-484.094258930959
 21
-58.5030312012817
 31
0.0
  0
LINE
  5
   182
  8
0
  6
CONTINUOUS
 62
     7
 10
-477.0662389121
 20
-59.3049761436736
 30
0.0
 11
-480.065993336754
 21
-59.2665913580098
 31
0.0
  0
LINE
  5
   183
  8
0
  6
CONTINUOUS
 62
     7
 10
-480.065993336754
 20
-59.2665913580098
 30
0.0
 11
-477.260274535543
 21
-60.3286375003856
 31
0.0
  0
LINE
  5
   184
  8
0
  6
CONTINUOUS
 62
     7
 10
-487.094013355613
 20
-58.464646415618
 30
0.0
 11
-484.094258930959
 21
-58.5030312012817
 31
0.0
  0
LINE
  5
   185
  8
0
  6
CONTINUOUS
 62
     7
 10
-484.094258930959
 20
-58.5030312012817
 30
0.0
 11
-486.899977732169
 21
-57.4409850589059
 31
0.0
  0
ENDBLK
  5
   186
  8
0
  6
CONTINUOUS
 62
     7
  0
BLOCK
  5
   187
  8
0
  6
CONTINUOUS
 62
     7
  2
*UDIM2263
 70
    65
 10
0.0
 20
0.0
 30
0.0
  3
*UDIM2263
  0
TEXT
  5
   188
  8
0
  6
CONTINUOUS
 62
     7
 10
-549.783391966446
 20
-69.5736560798985
 30
0.0
 40
3.00000002980232
  1
20
 50
359.999999948034
 41
0.933333333333333
 72
     1
 11
-547.283391940258
 21
-68.0736560672522
 31
0.0
 73
     2
  0
LINE
  5
   189
  8
0
  6
CONTINUOUS
 62
     7
 10
-529.580147131683
 20
-54.8847999572753
 30
0.0
 11
-529.580153183603
 21
-72.5736560821532
 31
0.0
  0
LINE
  5
   18A
  8
0
  6
CONTINUOUS
 62
     7
 10
-539.580147131683
 20
-54.8847999572753
 30
0.0
 11
-539.580153183603
 21
-72.5736560821532
 31
0.0
  0
LINE
  5
   18B
  8
0
  6
CONTINUOUS
 62
     7
 10
-529.58015249934
 20
-70.5736560821533
 30
0.0
 11
-549.783391965093
 21
-70.5736560821533
 31
0.0
  0
LINE
  5
   18C
  8
0
  6
CONTINUOUS
 62
     7
 10
-532.534575776547
 20
-71.094600512105
 30
0.0
 11
-529.58015249934
 21
-70.5736560821533
 31
0.0
  0
LINE
  5
   18D
  8
0
  6
CONTINUOUS
 62
     7
 10
-529.58015249934
 20
-70.5736560821533
 30
0.0
 11
-532.534575776547
 21
-70.0527116522017
 31
0.0
  0
LINE
  5
   18E
  8
0
  6
CONTINUOUS
 62
     7
 10
-536.625729222133
 20
-70.0527116522017
 30
0.0
 11
-539.58015249934
 21
-70.5736560821533
 31
0.0
  0
LINE
  5
   18F
  8
0
  6
CONTINUOUS
 62
     7
 10
-539.58015249934
 20
-70.5736560821533
 30
0.0
 11
-536.625729222133
 21
-71.094600512105
 31
0.0
  0
ENDBLK
  5
   190
  8
0
  6
CONTINUOUS
 62
     7
  0
BLOCK
  5
   191
  8
0
  6
CONTINUOUS
 62
     7
  2
*UDIM2264
 70
    65
 10
0.0
 20
0.0
 30
0.0
  3
*UDIM2264
  0
TEXT
  5
   192
  8
0
  6
CONTINUOUS
 62
     7
 10
-493.605139198805
 20
-77.8119468666416
 30
0.0
 40
3.00000002980232
  1
35
 50
359.999999948034
 41
0.933333333333333
 72
     1
 11
-491.105139172617
 21
-76.3119468539953
 31
0.0
 73
     2
  0
LINE
  5
   193
  8
0
  6
CONTINUOUS
 62
     7
 10
-482.080126561233
 20
-62.9348080973506
 30
0.0
 11
-482.080134201511
 21
-80.8119468688963
 31
0.0
  0
LINE
  5
   194
  8
0
  6
CONTINUOUS
 62
     7
 10
-499.58014892987
 20
-62.9348119252919
 30
0.0
 11
-499.580156570146
 21
-80.8119468688963
 31
0.0
  0
LINE
  5
   195
  8
0
  6
CONTINUOUS
 62
     7
 10
-482.080133346757
 20
-78.8119468688965
 30
0.0
 11
-499.580155715392
 21
-78.8119468688965
 31
0.0
  0
LINE
  5
   196
  8
0
  6
CONTINUOUS
 62
     7
 10
-485.034556623964
 20
-79.3328912988482
 30
0.0
 11
-482.080133346757
 21
-78.8119468688965
 31
0.0
  0
LINE
  5
   197
  8
0
  6
CONTINUOUS
 62
     7
 10
-482.080133346757
 20
-78.8119468688965
 30
0.0
 11
-485.034556623964
 21
-78.2910024389448
 31
0.0
  0
LINE
  5
   198
  8
0
  6
CONTINUOUS
 62
     7
 10
-496.625732438185
 20
-78.2910024389448
 30
0.0
 11
-499.580155715392
 21
-78.8119468688965
 31
0.0
  0
LINE
  5
   199
  8
0
  6
CONTINUOUS
 62
     7
 10
-499.580155715392
 20
-78.8119468688965
 30
0.0
 11
-496.625732438185
 21
-79.3328912988482
 31
0.0
  0
ENDBLK
  5
   19A
  8
0
  6
CONTINUOUS
 62
     7
  0
BLOCK
  5
   19B
  8
0
  6
CONTINUOUS
 62
     7
  2
*UDIM2265
 70
    65
 10
0.0
 20
0.0
 30
0.0
  3
*UDIM2265
  0
TEXT
  5
   19C
  8
0
  6
CONTINUOUS
 62
     7
 10
-511.105146826822
 20
-77.8119468666416
 30
0.0
 40
3.00000002980232
  1
35
 50
359.999999948034
 41
0.933333333333333
 72
     1
 11
-508.605146800633
 21
-76.3119468539953
 31
0.0
 73
     2
  0
LINE
  5
   19D
  8
0
  6
CONTINUOUS
 62
     7
 10
-517.080150868435
 20
-62.9347961794969
 30
0.0
 11
-517.080161270177
 21
-80.8119468688962
 31
0.0
  0
LINE
  5
   19E
  8
0
  6
CONTINUOUS
 62
     7
 10
-499.580155715392
 20
-78.8119468688965
 30
0.0
 11
-517.080160106486
 21
-78.8119468688965
 31
0.0
  0
LINE
  5
   19F
  8
0
  6
CONTINUOUS
 62
     7
 10
-502.534578992599
 20
-79.3328912988482
 30
0.0
 11
-499.580155715392
 21
-78.8119468688965
 31
0.0
  0
LINE
  5
   1A0
  8
0
  6
CONTINUOUS
 62
     7
 10
-499.580155715392
 20
-78.8119468688965
 30
0.0
 11
-502.534578992599
 21
-78.2910024389448
 31
0.0
  0
LINE
  5
   1A1
  8
0
  6
CONTINUOUS
 62
     7
 10
-514.125736829279
 20
-78.2910024389448
 30
0.0
 11
-517.080160106486
 21
-78.8119468688965
 31
0.0
  0
LINE
  5
   1A2
  8
0
  6
CONTINUOUS
 62
     7
 10
-517.080160106486
 20
-78.8119468688965
 30
0.0
 11
-514.125736829279
 21
-79.3328912988482
 31
0.0
  0
ENDBLK
  5
   1A3
  8
0
  6
CONTINUOUS
 62
     7
  0
BLOCK
  5
   1A4
  8
0
  6
CONTINUOUS
 62
     7
  2
*UDIM2266
 70
    65
 10
0.0
 20
0.0
 30
0.0
  3
*UDIM2266
  0
TEXT
  5
   1A5
  8
0
  6
CONTINUOUS
 62
     7
 10
-528.605143005556
 20
-77.8119468666416
 30
0.0
 40
3.00000002980232
  1
35
 50
359.999999948034
 41
0.933333333333333
 72
     1
 11
-526.105142979367
 21
-76.3119468539953
 31
0.0
 73
     2
  0
LINE
  5
   1A6
  8
0
  6
CONTINUOUS
 62
     7
 10
-534.580143909937
 20
-62.9347969609417
 30
0.0
 11
-534.580151550219
 21
-80.8119468688963
 31
0.0
  0
LINE
  5
   1A7
  8
0
  6
CONTINUOUS
 62
     7
 10
-517.080160106486
 20
-78.8119468688965
 30
0.0
 11
-534.580150695465
 21
-78.8119468688965
 31
0.0
  0
LINE
  5
   1A8
  8
0
  6
CONTINUOUS
 62
     7
 10
-520.034583383693
 20
-79.3328912988482
 30
0.0
 11
-517.080160106486
 21
-78.8119468688965
 31
0.0
  0
LINE
  5
   1A9
  8
0
  6
CONTINUOUS
 62
     7
 10
-517.080160106486
 20
-78.8119468688965
 30
0.0
 11
-520.034583383693
 21
-78.2910024389448
 31
0.0
  0
LINE
  5
   1AA
  8
0
  6
CONTINUOUS
 62
     7
 10
-531.625727418258
 20
-78.2910024389448
 30
0.0
 11
-534.580150695465
 21
-78.8119468688965
 31
0.0
  0
LINE
  5
   1AB
  8
0
  6
CONTINUOUS
 62
     7
 10
-534.580150695465
 20
-78.8119468688965
 30
0.0
 11
-531.625727418258
 21
-79.3328912988482
 31
0.0
  0
ENDBLK
  5
   1AC
  8
0
  6
CONTINUOUS
 62
     7
  0
BLOCK
  5
   1AD
  8
0
  6
CONTINUOUS
 62
     7
  2
*UDIM2267
 70
    65
 10
0.0
 20
0.0
 30
0.0
  3
*UDIM2267
  0
TEXT
  5
   1AE
  8
0
  6
CONTINUOUS
 62
     7
 10
-492.03010105472
 20
-86.1475601148486
 30
0.0
 40
3.00000002980232
  1
52,5
 50
359.999999948034
 41
0.933333333333333
 72
     1
 11
-486.730101000716
 21
-84.6475601047277
 31
0.0
 73
     2
  0
LINE
  5
   1AF
  8
0
  6
CONTINUOUS
 62
     7
 10
-473.330105380467
 20
18.9902153015137
 30
0.0
 11
-473.330145425994
 21
-89.1475601196288
 31
0.0
  0
LINE
  5
   1B0
  8
0
  6
CONTINUOUS
 62
     7
 10
-499.580093565269
 20
-70.3172061091108
 30
0.0
 11
-499.580099476427
 21
-89.1475601196288
 31
0.0
  0
LINE
  5
   1B1
  8
0
  6
CONTINUOUS
 62
     7
 10
-473.330144685355
 20
-87.1475601196289
 30
0.0
 11
-499.580098848594
 21
-87.1475601196289
 31
0.0
  0
LINE
  5
   1B2
  8
0
  6
CONTINUOUS
 62
     7
 10
-476.284567962562
 20
-87.6685045495806
 30
0.0
 11
-473.330144685355
 21
-87.1475601196289
 31
0.0
  0
LINE
  5
   1B3
  8
0
  6
CONTINUOUS
 62
     7
 10
-473.330144685355
 20
-87.1475601196289
 30
0.0
 11
-476.284567962562
 21
-86.6266156896772
 31
0.0
  0
LINE
  5
   1B4
  8
0
  6
CONTINUOUS
 62
     7
 10
-496.625675571387
 20
-86.6266156896772
 30
0.0
 11
-499.580098848594
 21
-87.1475601196289
 31
0.0
  0
LINE
  5
   1B5
  8
0
  6
CONTINUOUS
 62
     7
 10
-499.580098848594
 20
-87.1475601196289
 30
0.0
 11
-496.625675571387
 21
-87.6685045495806
 31
0.0
  0
ENDBLK
  5
   1B6
  8
0
  6
CONTINUOUS
 62
     7
  0
BLOCK
  5
   1B7
  8
0
  6
CONTINUOUS
 62
     7
  2
*UDIM2268
 70
    65
 10
0.0
 20
0.0
 30
0.0
  3
*UDIM2268
  0
TEXT
  5
   1B8
  8
0
  6
CONTINUOUS
 62
     7
 10
-512.505120131624
 20
108.504230502785
 30
0.0
 40
3.00000002980232
  1
140
 50
359.999999948034
 41
0.933333333333333
 72
     1
 11
-508.605120091528
 21
110.004230514169
 31
0.0
 73
     2
  0
LINE
  5
   1B9
  8
0
  6
CONTINUOUS
 62
     7
 10
-473.330127584415
 20
75.4651985168456
 30
0.0
 11
-473.330116899002
 21
109.504230499267
 31
0.0
  0
LINE
  5
   1BA
  8
0
  6
CONTINUOUS
 62
     7
 10
-543.330104593141
 20
75.4651908874511
 30
0.0
 11
-543.33009039864
 21
109.504230499267
 31
0.0
  0
LINE
  5
   1BB
  8
0
  6
CONTINUOUS
 62
     7
 10
-473.330117526835
 20
107.504230499268
 30
0.0
 11
-543.330091232653
 21
107.504230499268
 31
0.0
  0
LINE
  5
   1BC
  8
0
  6
CONTINUOUS
 62
     7
 10
-476.284540804042
 20
106.983286069316
 30
0.0
 11
-473.330117526835
 21
107.504230499268
 31
0.0
  0
LINE
  5
   1BD
  8
0
  6
CONTINUOUS
 62
     7
 10
-473.330117526835
 20
107.504230499268
 30
0.0
 11
-476.284540804042
 21
108.025174929219
 31
0.0
  0
LINE
  5
   1BE
  8
0
  6
CONTINUOUS
 62
     7
 10
-540.375667955446
 20
108.025174929219
 30
0.0
 11
-543.330091232653
 21
107.504230499268
 31
0.0
  0
LINE
  5
   1BF
  8
0
  6
CONTINUOUS
 62
     7
 10
-543.330091232653
 20
107.504230499268
 30
0.0
 11
-540.375667955446
 21
106.983286069316
 31
0.0
  0
ENDBLK
  5
   1C0
  8
0
  6
CONTINUOUS
 62
     7
  0
BLOCK
  5
   1C1
  8
0
  6
CONTINUOUS
 62
     7
  2
*UDIM2269
 70
    65
 10
0.0
 20
0.0
 30
0.0
  3
*UDIM2269
  0
TEXT
  5
   1C2
  8
0
  6
CONTINUOUS
 62
     7
 10
-275.639376464004
 20
20.5607017248142
 30
0.0
 40
3.00000002980232
  1
7
 50
404.893139787217
 41
0.933333333333334
 72
     1
 11
-275.918789813542
 21
22.399703695679
 31
0.0
 73
     2
  0
TEXT
  5
   1C3
  8
0
  6
CONTINUOUS
 62
     7
 10
-277.870913164279
 20
18.3374734374105
 30
0.0
 40
3.00000002980232
  1
Ø
 50
404.893139787217
 41
0.933333333333334
 72
     1
 11
-278.150326513816
 21
20.1764754082752
 31
0.0
 73
     2
  0
LINE
  5
   1C4
  8
0
  6
CONTINUOUS
 62
     7
 10
-261.166978671909
 20
33.5676328387103
 30
0.0
 11
-277.165126403606
 21
17.6290490911097
 31
0.0
  0
LINE
  5
   1C5
  8
0
  6
CONTINUOUS
 62
     7
 10
-259.441668969922
 20
36.0218753760788
 30
0.0
 11
-261.166978671909
 21
33.5676328387103
 31
0.0
  0
LINE
  5
   1C6
  8
0
  6
CONTINUOUS
 62
     7
 10
-261.166978671909
 20
33.5676328387103
 30
0.0
 11
-258.706317611711
 21
35.2837759407933
 31
0.0
  0
LINE
  5
   1C7
  8
0
  6
CONTINUOUS
 62
     7
 10
-264.13203098125
 20
29.8782634789017
 30
0.0
 11
-262.406721279263
 21
32.3325060162701
 31
0.0
  0
LINE
  5
   1C8
  8
0
  6
CONTINUOUS
 62
     7
 10
-262.406721279263
 20
32.3325060162701
 30
0.0
 11
-264.867382339461
 21
30.6163629141871
 31
0.0
  0
ENDBLK
  5
   1C9
  8
0
  6
CONTINUOUS
 62
     7
  0
BLOCK
  5
   1CA
  8
0
  6
CONTINUOUS
 62
     7
  2
*UDIM2270
 70
    65
 10
0.0
 20
0.0
 30
0.0
  3
*UDIM2270
  0
TEXT
  5
   1CB
  8
0
  6
CONTINUOUS
 62
     7
 10
-254.561850010456
 20
81.2362480231471
 30
0.0
 40
3.00000002980232
  1
80
 50
359.999999844103
 41
0.933333333333333
 72
     1
 11
-252.061849981546
 21
82.7362480312586
 31
0.0
 73
     2
  0
LINE
  5
   1CC
  8
0
  6
CONTINUOUS
 62
     7
 10
-261.786849975586
 20
71.0750694274902
 30
0.0
 11
-261.786849975586
 21
82.2362480163574
 31
0.0
  0
LINE
  5
   1CD
  8
0
  6
CONTINUOUS
 62
     7
 10
-241.786849975586
 20
71.0750694274902
 30
0.0
 11
-241.786849975586
 21
82.2362480163574
 31
0.0
  0
LINE
  5
   1CE
  8
0
  6
CONTINUOUS
 62
     7
 10
-261.786849975586
 20
80.2362480163574
 30
0.0
 11
-241.786849975586
 21
80.2362480163574
 31
0.0
  0
LINE
  5
   1CF
  8
0
  6
CONTINUOUS
 62
     7
 10
-258.832426698379
 20
80.7571924463091
 30
0.0
 11
-261.786849975586
 21
80.2362480163574
 31
0.0
  0
LINE
  5
   1D0
  8
0
  6
CONTINUOUS
 62
     7
 10
-261.786849975586
 20
80.2362480163574
 30
0.0
 11
-258.832426698379
 21
79.7153035864058
 31
0.0
  0
LINE
  5
   1D1
  8
0
  6
CONTINUOUS
 62
     7
 10
-244.741273252793
 20
79.7153035864058
 30
0.0
 11
-241.786849975586
 21
80.2362480163574
 31
0.0
  0
LINE
  5
   1D2
  8
0
  6
CONTINUOUS
 62
     7
 10
-241.786849975586
 20
80.2362480163574
 30
0.0
 11
-244.741273252793
 21
80.7571924463091
 31
0.0
  0
ENDBLK
  5
   1D3
  8
0
  6
CONTINUOUS
 62
     7
  0
BLOCK
  5
   1D4
  8
0
  6
CONTINUOUS
 62
     7
  2
*UDIM2271
 70
    65
 10
0.0
 20
0.0
 30
0.0
  3
*UDIM2271
  0
TEXT
  5
   1D5
  8
0
  6
CONTINUOUS
 62
     7
 10
-255.961850024363
 20
87.6759071456017
 30
0.0
 40
3.00000002980232
  1
112
 50
359.999999844103
 41
0.933333333333333
 72
     1
 11
-252.061849981546
 21
89.1759071499109
 31
0.0
 73
     2
  0
LINE
  5
   1D6
  8
0
  6
CONTINUOUS
 62
     7
 10
-265.786849975586
 20
65.7000694274902
 30
0.0
 11
-265.786849975586
 21
88.6759071350098
 31
0.0
  0
LINE
  5
   1D7
  8
0
  6
CONTINUOUS
 62
     7
 10
-237.786849975586
 20
65.7000694274902
 30
0.0
 11
-237.786849975586
 21
88.6759071350098
 31
0.0
  0
LINE
  5
   1D8
  8
0
  6
CONTINUOUS
 62
     7
 10
-265.786849975586
 20
86.6759071350098
 30
0.0
 11
-237.786849975586
 21
86.6759071350098
 31
0.0
  0
LINE
  5
   1D9
  8
0
  6
CONTINUOUS
 62
     7
 10
-262.832426698379
 20
87.1968515649614
 30
0.0
 11
-265.786849975586
 21
86.6759071350098
 31
0.0
  0
LINE
  5
   1DA
  8
0
  6
CONTINUOUS
 62
     7
 10
-265.786849975586
 20
86.6759071350098
 30
0.0
 11
-262.832426698379
 21
86.1549627050581
 31
0.0
  0
LINE
  5
   1DB
  8
0
  6
CONTINUOUS
 62
     7
 10
-240.741273252793
 20
86.1549627050581
 30
0.0
 11
-237.786849975586
 21
86.6759071350098
 31
0.0
  0
LINE
  5
   1DC
  8
0
  6
CONTINUOUS
 62
     7
 10
-237.786849975586
 20
86.6759071350098
 30
0.0
 11
-240.741273252793
 21
87.1968515649614
 31
0.0
  0
ENDBLK
  5
   1DD
  8
0
  6
CONTINUOUS
 62
     7
  0
BLOCK
  5
   1DE
  8
0
  6
CONTINUOUS
 62
     7
  2
*UDIM2272
 70
    65
 10
0.0
 20
0.0
 30
0.0
  3
*UDIM2272
  0
TEXT
  5
   1DF
  8
0
  6
CONTINUOUS
 62
     7
 10
-278.194225321866
 20
46.5250693787148
 30
0.0
 40
3.00000002980232
  1
112
 50
449.999999844103
 41
0.933333333333333
 72
     1
 11
-279.69422532618
 21
50.4250694215298
 31
0.0
 73
     2
  0
LINE
  5
   1E0
  8
0
  6
CONTINUOUS
 62
     7
 10
-266.786849975586
 20
64.7000694274902
 30
0.0
 11
-279.194225311279
 21
64.7000694274902
 31
0.0
  0
LINE
  5
   1E1
  8
0
  6
CONTINUOUS
 62
     7
 10
-266.786849975586
 20
36.7000694274902
 30
0.0
 11
-279.194225311279
 21
36.7000694274902
 31
0.0
  0
LINE
  5
   1E2
  8
0
  6
CONTINUOUS
 62
     7
 10
-277.194225311279
 20
64.7000694274902
 30
0.0
 11
-277.194225311279
 21
36.7000694274902
 31
0.0
  0
LINE
  5
   1E3
  8
0
  6
CONTINUOUS
 62
     7
 10
-276.673280881328
 20
61.7456461502833
 30
0.0
 11
-277.194225311279
 21
64.7000694274902
 31
0.0
  0
LINE
  5
   1E4
  8
0
  6
CONTINUOUS
 62
     7
 10
-277.194225311279
 20
64.7000694274902
 30
0.0
 11
-277.715169741231
 21
61.7456461502833
 31
0.0
  0
LINE
  5
   1E5
  8
0
  6
CONTINUOUS
 62
     7
 10
-277.715169741231
 20
39.6544927046972
 30
0.0
 11
-277.194225311279
 21
36.7000694274902
 31
0.0
  0
LINE
  5
   1E6
  8
0
  6
CONTINUOUS
 62
     7
 10
-277.194225311279
 20
36.7000694274902
 30
0.0
 11
-276.673280881328
 21
39.6544927046972
 31
0.0
  0
ENDBLK
  5
   1E7
  8
0
  6
CONTINUOUS
 62
     7
  0
BLOCK
  5
   1E8
  8
0
  6
CONTINUOUS
 62
     7
  2
*UDIM2273
 70
    65
 10
0.0
 20
0.0
 30
0.0
  3
*UDIM2273
  0
TEXT
  5
   1E9
  8
0
  6
CONTINUOUS
 62
     7
 10
-285.570560465909
 20
46.5250693787148
 30
0.0
 40
3.00000002980232
  1
142
 50
449.999999844103
 41
0.933333333333333
 72
     1
 11
-287.070560470223
 21
50.4250694215298
 31
0.0
 73
     2
  0
LINE
  5
   1EA
  8
0
  6
CONTINUOUS
 62
     7
 10
-264.411849975586
 20
68.4500694274902
 30
0.0
 11
-286.570560455322
 21
68.4500694274902
 31
0.0
  0
LINE
  5
   1EB
  8
0
  6
CONTINUOUS
 62
     7
 10
-264.411849975586
 20
32.9500694274902
 30
0.0
 11
-286.570560455322
 21
32.9500694274902
 31
0.0
  0
LINE
  5
   1EC
  8
0
  6
CONTINUOUS
 62
     7
 10
-284.570560455322
 20
68.4500694274902
 30
0.0
 11
-284.570560455322
 21
32.9500694274902
 31
0.0
  0
LINE
  5
   1ED
  8
0
  6
CONTINUOUS
 62
     7
 10
-284.049616025371
 20
65.4956461502833
 30
0.0
 11
-284.570560455322
 21
68.4500694274902
 31
0.0
  0
LINE
  5
   1EE
  8
0
  6
CONTINUOUS
 62
     7
 10
-284.570560455322
 20
68.4500694274902
 30
0.0
 11
-285.091504885274
 21
65.4956461502833
 31
0.0
  0
LINE
  5
   1EF
  8
0
  6
CONTINUOUS
 62
     7
 10
-285.091504885274
 20
35.9044927046972
 30
0.0
 11
-284.570560455322
 21
32.9500694274902
 31
0.0
  0
LINE
  5
   1F0
  8
0
  6
CONTINUOUS
 62
     7
 10
-284.570560455322
 20
32.9500694274902
 30
0.0
 11
-284.049616025371
 21
35.9044927046972
 31
0.0
  0
ENDBLK
  5
   1F1
  8
0
  6
CONTINUOUS
 62
     7
  0
ENDSEC
  0
SECTION
  2
ENTITIES
  0
LINE
  5
   1F2
  8
0
  6
DASHDOT
 62
     3
 10
-499.580078125
 20
-93.0439196744884
 30
0.0
 11
-499.580078125
 21
-153.489872235779
 31
0.0
  0
LINE
  5
   1F3
  8
0
  6
CONTINUOUS
 62
     7
 10
-478.330078125
 20
-96.4839803906632
 30
0.0
 11
-478.330078125
 21
-151.036179703439
 31
0.0
  0
LINE
  5
   1F4
  8
0
  6
CONTINUOUS
 62
     7
 10
-477.00631074297
 20
-97.598936021048
 30
0.0
 11
-525.360785695075
 21
-97.598936021048
 31
0.0
  0
LINE
  5
   1F5
  8
0
  6
CONTINUOUS
 62
     7
 10
-523.894143955993
 20
-96.3689452859409
 30
0.0
 11
-523.894143955993
 21
-150.013807814964
 31
0.0
  0
CIRCLE
  5
   1F6
  8
0
  6
CONTINUOUS
 62
     7
 10
-517.414063374516
 20
-97.2931725038723
 30
0.0
 40
0.05
  0
LINE
  5
   1F7
  8
0
  6
DASHDOT
 62
     3
 10
-518.580078125
 20
-105.280522723952
 30
0.0
 11
-518.580078125
 21
-148.352634417457
 31
0.0
  0
LINE
  5
   1F8
  8
0
  6
DASHDOT
 62
     3
 10
-489.330078125
 20
-105.58818066462
 30
0.0
 11
-489.330078125
 21
-148.814121328459
 31
0.0
  0
LINE
  5
   1F9
  8
0
  6
DASHDOT
 62
     3
 10
-481.254612414328
 20
-109.73356628418
 30
0.0
 11
-519.001619644138
 21
-109.73356628418
 31
0.0
  0
LINE
  5
   1FA
  8
0
  6
DASHDOT
 62
     3
 10
-481.254612414328
 20
-143.48356628418
 30
0.0
 11
-518.386303762802
 21
-143.48356628418
 31
0.0
  0
CIRCLE
  5
   1FB
  8
0
  6
CONTINUOUS
 62
     7
 10
-518.580078125
 20
-109.73356628418
 30
0.0
 40
0.625
  0
CIRCLE
  5
   1FC
  8
0
  6
CONTINUOUS
 62
     7
 10
-489.330078125
 20
-109.73356628418
 30
0.0
 40
0.625
  0
CIRCLE
  5
   1FD
  8
0
  6
CONTINUOUS
 62
     7
 10
-518.580078125
 20
-143.48356628418
 30
0.0
 40
0.625
  0
CIRCLE
  5
   1FE
  8
0
  6
CONTINUOUS
 62
     7
 10
-489.330078125
 20
-143.48356628418
 30
0.0
 40
0.625
  0
LINE
  5
   1FF
  8
0
  6
CONTINUOUS
 62
     7
 10
-474.766173725565
 20
-150.123122450146
 30
0.0
 11
-522.204229350809
 21
-150.123122450146
 31
0.0
  0
LINE
  5
   200
  8
0
  6
DASHDOT
 62
     3
 10
-466.738636991792
 20
-126.17106628418
 30
0.0
 11
-536.862242017348
 21
-126.17106628418
 31
0.0
  0
INSERT
  5
   201
  8
0
  6
CONTINUOUS
 62
     7
  2
*UDIM2240
 10
0.0
 20
0.0
 30
0.0
  0
INSERT
  5
   202
  8
0
  6
CONTINUOUS
 62
     7
  2
*UDIM2241
 10
0.0
 20
0.0
 30
0.0
  0
TEXT
  5
   203
  8
0
  6
CONTINUOUS
 62
     7
 10
-281.504562827574
 20
32.153413057598
 30
0.0
 40
3.00000002980232
  1
=     =
 50
449.999999896069
 41
0.916666604744064
 72
     2
 11
-281.504562793771
 21
50.8534119757737
 31
0.0
  0
TEXT
  5
   204
  8
0
  6
CONTINUOUS
 62
     7
 10
-273.080826255308
 20
32.9055340292777
 30
0.0
 40
3.00000002980232
  1
=     =
 50
449.999999896069
 41
0.916666604744064
 72
     2
 11
-273.080826221505
 21
51.6055329474534
 31
0.0
  0
INSERT
  5
   205
  8
0
  6
CONTINUOUS
 62
     7
  2
*UDIM2242
 10
0.0
 20
0.0
 30
0.0
  0
TEXT
  5
   206
  8
0
  6
CONTINUOUS
 62
     7
 10
-540.230011710154
 20
-136.683013260093
 30
0.0
 40
3.00000002980232
  1
=     =
 50
449.999999896069
 41
0.916666604744064
 72
     2
 11
-540.230011676351
 21
-117.983014341918
 31
0.0
  0
INSERT
  5
   207
  8
0
  6
CONTINUOUS
 62
     7
  2
*UDIM2243
 10
0.0
 20
0.0
 30
0.0
  0
INSERT
  5
   208
  8
0
  6
CONTINUOUS
 62
     7
  2
*UDIM2244
 10
0.0
 20
0.0
 30
0.0
  0
TEXT
  5
   209
  8
0
  6
CONTINUOUS
 62
     7
 10
-501.041131260724
 20
-91.8830452243457
 30
0.0
 40
3.00000002980232
  1
Y
 50
359.999999896069
 41
0.916666604744064
 72
     2
 11
-498.841131391854
 21
-91.8830452283253
 31
0.0
  0
TEXT
  5
   20A
  8
0
  6
CONTINUOUS
 62
     7
 10
-554.975303652616
 20
-127.287735490001
 30
0.0
 40
3.00000002980232
  1
X
 50
359.999999896069
 41
0.916666604744064
 72
     2
 11
-552.775303783746
 21
-127.287735493981
 31
0.0
  0
TEXT
  5
   20B
  8
0
  6
CONTINUOUS
 62
     7
 10
-463.161705019803
 20
-128.432117966808
 30
0.0
 40
3.00000002980232
  1
X
 50
359.999999896069
 41
0.916666604744064
 72
     2
 11
-460.961705150933
 21
-128.432117970788
 31
0.0
  0
TEXT
  5
   20C
  8
0
  6
CONTINUOUS
 62
     7
 10
-501.756791594358
 20
-158.943565396465
 30
0.0
 40
3.00000002980232
  1
Y
 50
359.999999896069
 41
0.916666604744064
 72
     2
 11
-499.556791725488
 21
-158.943565400444
 31
0.0
  0
LINE
  5
   20D
  8
0
  6
CONTINUOUS
 62
     7
 10
-393.779769897461
 20
27.1152153015137
 30
0.0
 11
-393.779769897461
 21
27.3652000427246
 31
0.0
  0
LINE
  5
   20E
  8
0
  6
CONTINUOUS
 62
     7
 10
-393.779769897461
 20
34.8652000427246
 30
0.0
 11
-393.779769897461
 21
44.8651847839356
 31
0.0
  0
LINE
  5
   20F
  8
0
  6
CONTINUOUS
 62
     7
 10
-392.529754638672
 20
27.3652000427246
 30
0.0
 11
-392.529754638672
 21
34.8652000427246
 31
0.0
  0
LINE
  5
   210
  8
0
  6
CONTINUOUS
 62
     7
 10
-392.529754638672
 20
27.3652000427246
 30
0.0
 11
-393.779769897461
 21
27.3652000427246
 31
0.0
  0
LINE
  5
   211
  8
0
  6
CONTINUOUS
 62
     7
 10
-392.529754638672
 20
34.8652000427246
 30
0.0
 11
-393.779769897461
 21
34.8652000427246
 31
0.0
  0
LINE
  5
   212
  8
0
  6
CONTINUOUS
 62
     7
 10
-392.529754638672
 20
44.8651847839356
 30
0.0
 11
-392.529754638672
 21
52.3651847839356
 31
0.0
  0
LINE
  5
   213
  8
0
  6
CONTINUOUS
 62
     7
 10
-392.529754638672
 20
44.8651847839356
 30
0.0
 11
-393.779769897461
 21
44.8651847839356
 31
0.0
  0
LINE
  5
   214
  8
0
  6
CONTINUOUS
 62
     7
 10
-392.529754638672
 20
52.3651847839356
 30
0.0
 11
-393.779769897461
 21
52.3651847839356
 31
0.0
  0
LINE
  5
   215
  8
0
  6
CONTINUOUS
 62
     2
 10
-393.779766486737
 20
54.3651847839355
 30
0.0
 11
-393.77975908547
 21
64.6724967956543
 31
0.0
  0
LINE
  5
   216
  8
0
  6
CONTINUOUS
 62
     7
 10
-391.779769897461
 20
55.6151847839356
 30
0.0
 11
-393.779769897461
 21
55.6151847839356
 31
0.0
  0
LINE
  5
   217
  8
0
  6
CONTINUOUS
 62
     7
 10
-391.779768626078
 20
55.615178426406
 30
0.0
 11
-391.779720687986
 21
74.4652079772772
 31
0.0
  0
LINE
  5
   218
  8
0
  6
CONTINUOUS
 62
     7
 10
-393.7797647978
 20
-8.13477960881527
 30
0.0
 11
-393.779749539011
 21
-7.98766205367383
 31
0.0
  0
LINE
  5
   219
  8
0
  6
CONTINUOUS
 62
     7
 10
-393.779750518861
 20
-0.281898948722535
 30
0.0
 11
-393.779765777649
 21
27.115211036629
 31
0.0
  0
LINE
  5
   21A
  8
0
  6
CONTINUOUS
 62
     7
 10
-358.279769897461
 20
-1.38478469848633
 30
0.0
 11
-392.27978668213
 21
-1.38478469848633
 31
0.0
  0
LINE
  5
   21B
  8
0
  6
CONTINUOUS
 62
     7
 10
-358.279769897461
 20
-6.88478469848633
 30
0.0
 11
-392.27978668213
 21
-6.88478469848633
 31
0.0
  0
LINE
  5
   21C
  8
0
  6
CONTINUOUS
 62
     7
 10
-389.663740399336
 20
-1.38477961387496
 30
0.0
 11
-393.779752796341
 21
-0.281893900806537
 31
0.0
  0
LINE
  5
   21D
  8
0
  6
CONTINUOUS
 62
     7
 10
-393.77975048935
 20
-7.98766632852269
 30
0.0
 11
-389.663737997572
 21
-6.88478416412649
 31
0.0
  0
LINE
  5
   21E
  8
0
  6
CONTINUOUS
 62
     7
 10
-357.779777526856
 20
0.115215301513672
 30
0.0
 11
-361.779777526856
 21
0.115215301513672
 31
0.0
  0
LINE
  5
   21F
  8
0
  6
CONTINUOUS
 62
     7
 10
-361.779777526856
 20
0.115215301513672
 30
0.0
 11
-361.779777526856
 21
21.3652076721191
 31
0.0
  0
LINE
  5
   220
  8
0
  6
CONTINUOUS
 62
     7
 10
-393.279754638672
 20
-3.88478469848633
 30
0.0
 11
-393.279754638672
 21
-0.415874481201172
 31
0.0
  0
LINE
  5
   221
  8
0
  6
CONTINUOUS
 62
     7
 10
-393.279761681172
 20
-7.85368994509199
 30
0.0
 11
-393.279754051784
 21
-7.38477972780684
 31
0.0
  0
LINE
  5
   222
  8
0
  6
CONTINUOUS
 62
     2
 10
-393.779754638672
 20
0.115215301513672
 30
0.0
 11
-394.779754638672
 21
0.115215301513672
 31
0.0
  0
LINE
  5
   223
  8
0
  6
CONTINUOUS
 62
     2
 10
-393.779754638672
 20
2.86521530151367
 30
0.0
 11
-394.779754638672
 21
2.86521530151367
 31
0.0
  0
LINE
  5
   224
  8
0
  6
CONTINUOUS
 62
     7
 10
-357.779788331854
 20
-7.38476518538963
 30
0.0
 11
-358.279780686162
 21
-6.88477283108207
 31
0.0
  0
LINE
  5
   225
  8
0
  6
CONTINUOUS
 62
     7
 10
-358.279776215723
 20
-1.38478399750799
 30
0.0
 11
-357.779776232838
 21
-0.884784014622291
 31
0.0
  0
LINE
  5
   226
  8
0
  6
CONTINUOUS
 62
     2
 10
-392.779754638672
 20
-17.1347694396967
 30
0.0
 11
-394.779754638672
 21
-17.1347694396967
 31
0.0
  0
LINE
  5
   227
  8
0
  6
CONTINUOUS
 62
     7
 10
-393.779769897461
 20
-10.1347846984863
 30
0.0
 11
-393.779769897461
 21
-8.13478469848633
 31
0.0
  0
LINE
  5
   228
  8
0
  6
CONTINUOUS
 62
     7
 10
-357.779777526856
 20
-14.6347694396973
 30
0.0
 11
-362.779769897461
 21
-14.6347694396973
 31
0.0
  0
LINE
  5
   229
  8
0
  6
CONTINUOUS
 62
     7
 10
-362.779769897461
 20
-17.1347694396973
 30
0.0
 11
-362.779769897461
 21
-14.6347694396973
 31
0.0
  0
LINE
  5
   22A
  8
0
  6
CONTINUOUS
 62
     7
 10
-393.779769897461
 20
-15.8847599792659
 30
0.0
 11
-393.779769897461
 21
-10.1347846984863
 31
0.0
  0
LINE
  5
   22B
  8
0
  6
CONTINUOUS
 62
     2
 10
-393.779769897461
 20
54.3651847839356
 30
0.0
 11
-394.029754638672
 21
54.3651847839356
 31
0.0
  0
LINE
  5
   22C
  8
0
  6
CONTINUOUS
 62
     7
 10
-393.779762268066
 20
19.1152153015137
 30
0.0
 11
-394.029754638672
 21
19.1152153015137
 31
0.0
  0
LINE
  5
   22D
  8
0
  6
CONTINUOUS
 62
     7
 10
-393.779754638672
 20
3.1152172088623
 30
0.0
 11
-394.029754638672
 21
3.1152172088623
 31
0.0
  0
LINE
  5
   22E
  8
0
  6
CONTINUOUS
 62
     7
 10
-393.279754638672
 20
-0.63478422164917
 30
0.0
 11
-394.029754638672
 21
-0.63478422164917
 31
0.0
  0
LINE
  5
   22F
  8
0
  6
CONTINUOUS
 62
     7
 10
-393.779769897461
 20
-8.6347770690918
 30
0.0
 11
-394.029754638672
 21
-8.6347770690918
 31
0.0
  0
LINE
  5
   230
  8
0
  6
CONTINUOUS
 62
     2
 10
-394.029754638672
 20
-15.434764664241
 30
0.0
 11
-394.029754638672
 21
0.115207672119141
 31
0.0
  0
LINE
  5
   231
  8
0
  6
CONTINUOUS
 62
     2
 10
-394.029754638672
 20
2.86520767211914
 30
0.0
 11
-394.029754638672
 21
54.365177154541
 31
0.0
  0
LINE
  5
   232
  8
0
  6
CONTINUOUS
 62
     7
 10
-393.279754638672
 20
44.8652076721191
 30
0.0
 11
-393.279754638672
 21
52.3651847839356
 31
0.0
  0
LINE
  5
   233
  8
0
  6
CONTINUOUS
 62
     7
 10
-393.279754638672
 20
27.3652305603027
 30
0.0
 11
-393.279754638672
 21
34.8652229309082
 31
0.0
  0
LINE
  5
   234
  8
0
  6
CONTINUOUS
 62
     7
 10
-393.279754638672
 20
-7.38474655151367
 30
0.0
 11
-393.279754638672
 21
-3.88474655151367
 31
0.0
  0
LINE
  5
   235
  8
0
  6
CONTINUOUS
 62
     2
 10
-393.829758543188
 20
-15.634760759725
 30
0.0
 11
-394.029755489125
 21
-15.434763813788
 31
0.0
  0
LINE
  5
   236
  8
0
  6
CONTINUOUS
 62
     2
 10
-393.779754638672
 20
62.3651847839356
 30
0.0
 11
-394.779754638672
 21
62.3651847839356
 31
0.0
  0
LINE
  5
   237
  8
0
  6
CONTINUOUS
 62
     2
 10
-393.779754638672
 20
67.8651847839356
 30
0.0
 11
-394.779754638672
 21
67.8651847839356
 31
0.0
  0
LINE
  5
   238
  8
0
  6
CONTINUOUS
 62
     2
 10
-393.779754638672
 20
66.5210075378418
 30
0.0
 11
-394.779754638672
 21
66.5210075378418
 31
0.0
  0
LINE
  5
   239
  8
0
  6
CONTINUOUS
 62
     2
 10
-393.779754638672
 20
64.6724967956543
 30
0.0
 11
-394.779754638672
 21
64.6724967956543
 31
0.0
  0
LINE
  5
   23A
  8
0
  6
CONTINUOUS
 62
     7
 10
-359.279785156251
 20
28.6151826952934
 30
0.0
 11
-359.279785156251
 21
55.865205583477
 31
0.0
  0
LINE
  5
   23B
  8
0
  6
CONTINUOUS
 62
     7
 10
-357.779769897461
 20
63.1151942443671
 30
0.0
 11
-357.779769897461
 21
63.6152018737616
 31
0.0
  0
LINE
  5
   23C
  8
0
  6
CONTINUOUS
 62
     7
 10
-346.529769897461
 20
63.6152018737616
 30
0.0
 11
-346.67977142334
 21
63.6152018737616
 31
0.0
  0
LINE
  5
   23D
  8
0
  6
CONTINUOUS
 62
     7
 10
-357.779769897461
 20
63.1152095031562
 30
0.0
 11
-359.279769897461
 21
63.1152095031562
 31
0.0
  0
LINE
  5
   23E
  8
0
  6
CONTINUOUS
 62
     7
 10
-359.279769897461
 20
55.8652095031562
 30
0.0
 11
-359.279769897461
 21
63.1152095031562
 31
0.0
  0
LINE
  5
   23F
  8
0
  6
CONTINUOUS
 62
     7
 10
-357.779792785645
 20
-14.1347828674493
 30
0.0
 11
-357.779792785645
 21
-10.4964772033868
 31
0.0
  0
LINE
  5
   240
  8
0
  6
CONTINUOUS
 62
     7
 10
-359.279777526856
 20
22.6152018737616
 30
0.0
 11
-359.279777526856
 21
28.6151866149726
 31
0.0
  0
LINE
  5
   241
  8
0
  6
CONTINUOUS
 62
     7
 10
-359.279777526856
 20
21.3651866149726
 30
0.0
 11
-359.779777526856
 21
21.3651866149726
 31
0.0
  0
LINE
  5
   242
  8
0
  6
CONTINUOUS
 62
     7
 10
-346.679787060147
 20
-15.6347676086496
 30
0.0
 11
-357.779793163663
 21
-15.6347676086496
 31
0.0
  0
LINE
  5
   243
  8
0
  6
CONTINUOUS
 62
     7
 10
-357.779792785645
 20
-15.6347828674493
 30
0.0
 11
-357.779792785645
 21
-14.1347828674493
 31
0.0
  0
LINE
  5
   244
  8
0
  6
CONTINUOUS
 62
     7
 10
-357.77978515625
 20
-10.4964772033868
 30
0.0
 11
-357.77978515625
 21
-7.00977826230755
 31
0.0
  0
LINE
  5
   245
  8
0
  6
CONTINUOUS
 62
     7
 10
-346.529792785645
 20
-17.1347904968438
 30
0.0
 11
-346.529792785645
 21
-15.6347904968438
 31
0.0
  0
LINE
  5
   246
  8
0
  6
CONTINUOUS
 62
     7
 10
-346.529792785645
 20
-15.6347904968438
 30
0.0
 11
-346.679786652327
 21
-15.6347904968438
 31
0.0
  0
LINE
  5
   247
  8
0
  6
CONTINUOUS
 62
     7
 10
-359.779777526856
 20
21.3651866149726
 30
0.0
 11
-361.779777526856
 21
21.3651866149726
 31
0.0
  0
LINE
  5
   248
  8
0
  6
CONTINUOUS
 62
     7
 10
-359.279777526856
 20
21.3651866149726
 30
0.0
 11
-359.279777526856
 21
22.6152018737616
 31
0.0
  0
LINE
  5
   249
  8
0
  6
CONTINUOUS
 62
     7
 10
-346.679788761306
 20
-7.00976760865164
 30
0.0
 11
-357.779787235427
 21
-7.00976760865164
 31
0.0
  0
LINE
  5
   24A
  8
0
  6
CONTINUOUS
 62
     7
 10
-346.679792438537
 20
-1.259767608653
 30
0.0
 11
-357.779790912658
 21
-1.259767608653
 31
0.0
  0
LINE
  5
   24B
  8
0
  6
CONTINUOUS
 62
     7
 10
-357.130272432589
 20
-13.7597743091197
 30
0.0
 11
-357.029793322354
 21
-13.3847743142969
 31
0.0
  0
LINE
  5
   24C
  8
0
  6
CONTINUOUS
 62
     7
 10
-357.404788114704
 20
-14.0342988418493
 30
0.0
 11
-357.130274888204
 21
-13.7597779791302
 31
0.0
  0
LINE
  5
   24D
  8
0
  6
CONTINUOUS
 62
     7
 10
-357.779801428343
 20
-14.1347711496093
 30
0.0
 11
-357.404793814069
 21
-14.0342920317279
 31
0.0
  0
LINE
  5
   24E
  8
0
  6
CONTINUOUS
 62
     7
 10
-357.404789636186
 20
-8.23526090520232
 30
0.0
 11
-357.779789633437
 21
-8.13477415867505
 31
0.0
  0
LINE
  5
   24F
  8
0
  6
CONTINUOUS
 62
     7
 10
-357.130277045845
 20
-8.50977833391131
 30
0.0
 11
-357.404790276165
 21
-8.23526510359131
 31
0.0
  0
LINE
  5
   250
  8
0
  6
CONTINUOUS
 62
     7
 10
-357.029798512276
 20
-8.88477763874514
 30
0.0
 11
-357.130285258803
 21
-8.50977764149481
 31
0.0
  0
LINE
  5
   251
  8
0
  6
CONTINUOUS
 62
     7
 10
-357.02979702418
 20
-13.384779898084
 30
0.0
 11
-357.029789394786
 21
-8.88477989808403
 31
0.0
  0
LINE
  5
   252
  8
0
  6
CONTINUOUS
 62
     7
 10
-346.67978668213
 20
-15.6347904968438
 30
0.0
 11
-346.67978668213
 21
63.615195617369
 31
0.0
  0
LINE
  5
   253
  8
0
  6
CONTINUOUS
 62
     7
 10
-346.679763793945
 20
74.4652079772773
 30
0.0
 11
-393.779752053717
 21
74.4652079772773
 31
0.0
  0
LINE
  5
   254
  8
0
  6
CONTINUOUS
 62
     7
 10
-346.679817199714
 20
63.6151984282786
 30
0.0
 11
-346.679817199714
 21
74.4652045317942
 31
0.0
  0
LINE
  5
   255
  8
0
  6
CONTINUOUS
 62
     7
 10
-357.779769897461
 20
63.6152095031562
 30
0.0
 11
-357.779769897461
 21
74.4652079772773
 31
0.0
  0
LINE
  5
   256
  8
0
  6
CONTINUOUS
 62
     7
 10
-338.529762268066
 20
38.3652247619452
 30
0.0
 11
-338.529762268066
 21
38.4902247619452
 31
0.0
  0
LINE
  5
   257
  8
0
  6
CONTINUOUS
 62
     7
 10
-341.279759407043
 20
39.4902247619452
 30
0.0
 11
-343.029762268066
 21
39.4902247619452
 31
0.0
  0
LINE
  5
   258
  8
0
  6
CONTINUOUS
 62
     7
 10
-341.279759407043
 20
-13.0097599792657
 30
0.0
 11
-343.029762268066
 21
-13.0097599792657
 31
0.0
  0
LINE
  5
   259
  8
0
  6
CONTINUOUS
 62
     7
 10
-346.529762268066
 20
-21.1347599792657
 30
0.0
 11
-346.529762268066
 21
-15.6347904968438
 31
0.0
  0
LINE
  5
   25A
  8
0
  6
CONTINUOUS
 62
     7
 10
-344.029762268066
 20
-21.1347599792657
 30
0.0
 11
-344.029762268066
 21
-13.0097599792657
 31
0.0
  0
LINE
  5
   25B
  8
0
  6
CONTINUOUS
 62
     7
 10
-344.029762268066
 20
39.4902247619452
 30
0.0
 11
-344.029762268066
 21
63.6152247619452
 31
0.0
  0
LINE
  5
   25C
  8
0
  6
CONTINUOUS
 62
     7
 10
-344.029762268066
 20
63.6152247619452
 30
0.0
 11
-346.529762268066
 21
63.6152247619452
 31
0.0
  0
LINE
  5
   25D
  8
0
  6
CONTINUOUS
 62
     7
 10
-344.029762268066
 20
-21.1347599792657
 30
0.0
 11
-346.529762268066
 21
-21.1347599792657
 31
0.0
  0
LINE
  5
   25E
  8
0
  6
CONTINUOUS
 62
     7
 10
-343.029762268066
 20
-13.0097599792657
 30
0.0
 11
-343.029762268066
 21
39.4902247619452
 31
0.0
  0
LINE
  5
   25F
  8
0
  6
CONTINUOUS
 62
     7
 10
-343.029762268066
 20
-13.0097599792657
 30
0.0
 11
-344.029762268066
 21
-13.0097599792657
 31
0.0
  0
LINE
  5
   260
  8
0
  6
CONTINUOUS
 62
     7
 10
-343.029762268066
 20
39.4902247619452
 30
0.0
 11
-344.029762268066
 21
39.4902247619452
 31
0.0
  0
LINE
  5
   261
  8
0
  6
CONTINUOUS
 62
     7
 10
-346.679798262244
 20
-0.984798174635181
 30
0.0
 11
-346.529796743321
 21
-0.971675617647783
 31
0.0
  0
LINE
  5
   262
  8
0
  6
CONTINUOUS
 62
     7
 10
-346.529770957285
 20
-7.29791089019058
 30
0.0
 11
-346.679772480403
 21
-7.28478070378421
 31
0.0
  0
LINE
  5
   263
  8
0
  6
CONTINUOUS
 62
     7
 10
-357.77978515625
 20
-1.25977826230619
 30
0.0
 11
-357.77978515625
 21
0.115201873761642
 31
0.0
  0
LINE
  5
   264
  8
0
  6
CONTINUOUS
 62
   218
 10
-346.679764270783
 20
-49.7347603607357
 30
0.0
 11
-393.779755115509
 21
-49.7347603607357
 31
0.0
  0
LINE
  5
   265
  8
0
  6
CONTINUOUS
 62
     2
 10
-392.779754638672
 20
-15.8847599792659
 30
0.0
 11
-394.779754638672
 21
-15.8847599792659
 31
0.0
  0
LINE
  5
   266
  8
0
  6
CONTINUOUS
 62
     7
 10
-346.679756164551
 20
-15.8847599792659
 30
0.0
 11
-355.279762268066
 21
-15.8847599792659
 31
0.0
  0
LINE
  5
   267
  8
0
  6
CONTINUOUS
 62
     2
 10
-392.779754638672
 20
-17.1347599792659
 30
0.0
 11
-392.779754638672
 21
-15.8847599792659
 31
0.0
  0
LINE
  5
   268
  8
0
  6
CONTINUOUS
 62
   218
 10
-346.679760265664
 20
-37.1347676091082
 30
0.0
 11
-346.529762268201
 21
-37.1347658485064
 31
0.0
  0
LINE
  5
   269
  8
0
  6
CONTINUOUS
 62
   218
 10
-344.529762268066
 20
-39.1347676086605
 30
0.0
 11
-346.679756164551
 21
-39.1347676086605
 31
0.0
  0
LINE
  5
   26A
  8
0
  6
CONTINUOUS
 62
   218
 10
-346.679756164551
 20
-49.734758453387
 30
0.0
 11
-346.679756164551
 21
-37.1347599792659
 31
0.0
  0
LINE
  5
   26B
  8
0
  6
CONTINUOUS
 62
   218
 10
-346.679756164551
 20
-37.1347599792659
 30
0.0
 11
-346.679756164551
 21
-15.8847599792659
 31
0.0
  0
LINE
  5
   26C
  8
0
  6
CONTINUOUS
 62
     7
 10
-346.529762268066
 20
-21.6347599792659
 30
0.0
 11
-346.679756164551
 21
-21.6347599792659
 31
0.0
  0
LINE
  5
   26D
  8
0
  6
CONTINUOUS
 62
   218
 10
-394.779754638714
 20
-34.1347676081657
 30
0.0
 11
-393.779755115574
 21
-34.1347599787712
 31
0.0
  0
LINE
  5
   26E
  8
0
  6
CONTINUOUS
 62
   218
 10
-393.779755115509
 20
-52.3847599792657
 30
0.0
 11
-393.779755115509
 21
-34.1347676086602
 31
0.0
  0
LINE
  5
   26F
  8
0
  6
CONTINUOUS
 62
   218
 10
-393.779754638672
 20
-39.5097676086605
 30
0.0
 11
-394.779754638672
 21
-39.5097676086605
 31
0.0
  0
LINE
  5
   270
  8
0
  6
CONTINUOUS
 62
     7
 10
-357.779767989036
 20
-15.8847599770107
 30
0.0
 11
-357.779760359641
 21
-14.8847599769878
 31
0.0
  0
LINE
  5
   271
  8
0
  6
CONTINUOUS
 62
     7
 10
-357.779754638672
 20
-14.8847599792659
 30
0.0
 11
-362.779754638672
 21
-14.8847599792659
 31
0.0
  0
LINE
  5
   272
  8
0
  6
CONTINUOUS
 62
     7
 10
-355.279762268066
 20
-15.8847599792659
 30
0.0
 11
-357.779762268066
 21
-15.8847599792659
 31
0.0
  0
LINE
  5
   273
  8
0
  6
CONTINUOUS
 62
   218
 10
-393.779754638672
 20
-43.8685632515133
 30
0.0
 11
-394.779754638672
 21
-43.8685632515133
 31
0.0
  0
LINE
  5
   274
  8
0
  6
CONTINUOUS
 62
   218
 10
-393.779754638672
 20
-42.6420689392269
 30
0.0
 11
-394.779754638672
 21
-42.6420689392269
 31
0.0
  0
LINE
  5
   275
  8
0
  6
CONTINUOUS
 62
     7
 10
-344.029762268066
 20
-21.3847599792657
 30
0.0
 11
-346.529762268066
 21
-21.3847599792657
 31
0.0
  0
LINE
  5
   276
  8
0
  6
CONTINUOUS
 62
     7
 10
-344.029762268066
 20
-38.8847599792657
 30
0.0
 11
-346.529762268066
 21
-38.8847599792657
 31
0.0
  0
LINE
  5
   277
  8
0
  6
CONTINUOUS
 62
     7
 10
-344.029762268066
 20
-38.8847599792657
 30
0.0
 11
-344.029762268066
 21
-21.3847599792657
 31
0.0
  0
LINE
  5
   278
  8
0
  6
CONTINUOUS
 62
     7
 10
-345.029762268066
 20
-38.8847599792657
 30
0.0
 11
-345.029762268066
 21
-21.3847599792657
 31
0.0
  0
LINE
  5
   279
  8
0
  6
CONTINUOUS
 62
     7
 10
-346.529762268066
 20
-38.8847599792657
 30
0.0
 11
-346.529762268066
 21
-21.3847599792657
 31
0.0
  0
ARC
  5
   27A
  8
0
  6
CONTINUOUS
 62
     7
 10
-328.19223588281
 20
2.21829928820283
 30
0.0
 40
0.499999897877905
 50
348.623573369035
 51
436.688788706936
  0
ARC
  5
   27B
  8
0
  6
CONTINUOUS
 62
     7
 10
-328.790608082728
 20
-0.755609695796025
 30
0.0
 40
0.50000037262337
 50
260.593992196011
 51
348.623573369035
  0
LINE
  5
   27C
  8
0
  6
DASHDOT
 62
     7
 10
-320.791943557036
 20
-0.836031349694437
 30
0.0
 11
-345.85028679149
 21
4.20588881820382
 31
0.0
  0
LINE
  5
   27D
  8
0
  6
CONTINUOUS
 62
     7
 10
-328.077115910463
 20
2.70486575790152
 30
0.0
 11
-338.529762268067
 21
5.17792634587336
 31
0.0
  0
LINE
  5
   27E
  8
0
  6
CONTINUOUS
 62
     7
 10
-328.300431637848
 20
-0.854236747079796
 30
0.0
 11
-327.702059602223
 21
2.11967226997604
 31
0.0
  0
LINE
  5
   27F
  8
0
  6
CONTINUOUS
 62
     7
 10
-328.872322821322
 20
-1.24888741866742
 30
0.0
 11
-338.529762268066
 21
0.350931716233866
 31
0.0
  0
LINE
  5
   280
  8
0
  6
CONTINUOUS
 62
     7
 10
-392.27978668213
 20
-6.88478469848633
 30
0.0
 11
-392.27978668213
 21
-1.38478469848633
 31
0.0
  0
LINE
  5
   281
  8
0
  6
CONTINUOUS
 62
     2
 10
-393.779757758128
 20
66.5210075378418
 30
0.0
 11
-393.779750150858
 21
77.1152076721191
 31
0.0
  0
ARC
  5
   282
  8
0
  6
CONTINUOUS
 62
     7
 10
-365.279762268066
 20
8.1152400207343
 30
0.0
 40
38.0220413050115
 50
333.082565820193
 51
379.93594827737
  0
LINE
  5
   283
  8
0
  6
CONTINUOUS
 62
     7
 10
-327.257720963055
 20
8.11524002073428
 30
0.0
 11
-327.257720963055
 21
29.7898795361666
 31
0.0
  0
LINE
  5
   284
  8
0
  6
CONTINUOUS
 62
     7
 10
-362.779769897461
 20
-17.1347694396967
 30
0.0
 11
-392.779754638672
 21
-17.1347694396967
 31
0.0
  0
LINE
  5
   285
  8
0
  6
CONTINUOUS
 62
     7
 10
-394.779754638731
 20
-34.1347676082836
 30
0.0
 11
-394.779754638731
 21
-15.8847599793839
 31
0.0
  0
LINE
  5
   286
  8
0
  6
CONTINUOUS
 62
     7
 10
-394.779754638672
 20
-43.8685632515139
 30
0.0
 11
-394.779754638672
 21
-39.5097676086611
 31
0.0
  0
LINE
  5
   287
  8
0
  6
CONTINUOUS
 62
     7
 10
-394.779754638672
 20
0.115215301513665
 30
0.0
 11
-394.779754638672
 21
2.86521530151366
 31
0.0
  0
LINE
  5
   288
  8
0
  6
CONTINUOUS
 62
     7
 10
-394.779754638672
 20
62.3651847839356
 30
0.0
 11
-394.779754638672
 21
67.8651847839356
 31
0.0
  0
LINE
  5
   289
  8
0
  6
CONTINUOUS
 62
   130
 10
-401.529754638672
 20
-53.8847923278809
 30
0.0
 11
-404.029754638672
 21
-53.8847923278809
 31
0.0
  0
LINE
  5
   28A
  8
0
  6
CONTINUOUS
 62
   130
 10
-401.529754638672
 20
-63.8847923278809
 30
0.0
 11
-404.029754638672
 21
-63.8847923278809
 31
0.0
  0
LINE
  5
   28B
  8
0
  6
CONTINUOUS
 62
   130
 10
-401.529754638672
 20
-63.8847923278809
 30
0.0
 11
-401.529754638672
 21
-51.1347999572754
 31
0.0
  0
LINE
  5
   28C
  8
0
  6
CONTINUOUS
 62
   130
 10
-404.029754638672
 20
-63.8847923278809
 30
0.0
 11
-404.029754638672
 21
-51.1347966578878
 31
0.0
  0
LINE
  5
   28D
  8
0
  6
CONTINUOUS
 62
   130
 10
-401.529754638672
 20
78.6152229309082
 30
0.0
 11
-404.029754638672
 21
78.6152229309082
 31
0.0
  0
LINE
  5
   28E
  8
0
  6
CONTINUOUS
 62
   130
 10
-401.529754638672
 20
88.6152153015137
 30
0.0
 11
-404.029754638672
 21
88.6152153015137
 31
0.0
  0
LINE
  5
   28F
  8
0
  6
CONTINUOUS
 62
   130
 10
-401.529754638672
 20
75.8652076721191
 30
0.0
 11
-401.529754638672
 21
88.6152153015137
 31
0.0
  0
LINE
  5
   290
  8
0
  6
CONTINUOUS
 62
   130
 10
-404.029754638672
 20
75.8652076721191
 30
0.0
 11
-404.029754638672
 21
88.6152153015137
 31
0.0
  0
LINE
  5
   291
  8
0
  6
CONTINUOUS
 62
     7
 10
-418.779777526856
 20
60.6152076721191
 30
0.0
 11
-418.779777526856
 21
73.1152076721191
 31
0.0
  0
LINE
  5
   292
  8
0
  6
CONTINUOUS
 62
     7
 10
-418.779777526856
 20
-48.3847842216492
 30
0.0
 11
-418.779777526856
 21
-35.8847918510437
 31
0.0
  0
LINE
  5
   293
  8
0
  6
CONTINUOUS
 62
     7
 10
-394.779754638672
 20
-51.1347999572754
 30
0.0
 11
-401.529747009277
 21
-51.1347999572754
 31
0.0
  0
LINE
  5
   294
  8
0
  6
CONTINUOUS
 62
     7
 10
-413.279777418477
 20
-51.1348042872755
 30
0.0
 11
-401.529754638672
 21
-51.1347945958962
 31
0.0
  0
LINE
  5
   295
  8
0
  6
CONTINUOUS
 62
     7
 10
-394.779754638672
 20
75.8652076721191
 30
0.0
 11
-413.279777526856
 21
75.8652076721191
 31
0.0
  0
LINE
  5
   296
  8
0
  6
CONTINUOUS
 62
     7
 10
-394.779754638672
 20
-42.1347999572754
 30
0.0
 11
-394.779754638672
 21
-30.6347923278809
 31
0.0
  0
LINE
  5
   297
  8
0
  6
CONTINUOUS
 62
     7
 10
-394.779754638672
 20
-51.1347999572754
 30
0.0
 11
-394.779754638672
 21
-49.7347755432129
 31
0.0
  0
LINE
  5
   298
  8
0
  6
CONTINUOUS
 62
     7
 10
-394.779754638672
 20
74.4652214050293
 30
0.0
 11
-394.779754638672
 21
75.8652076721191
 31
0.0
  0
LINE
  5
   299
  8
0
  6
CONTINUOUS
 62
     7
 10
-394.779754638672
 20
55.3652076721191
 30
0.0
 11
-394.779754638672
 21
66.8652229309082
 31
0.0
  0
LINE
  5
   29A
  8
0
  6
CONTINUOUS
 62
     7
 10
-394.779754638672
 20
22.3652076721191
 30
0.0
 11
-394.779754638672
 21
55.3652076721191
 31
0.0
  0
LINE
  5
   29B
  8
0
  6
CONTINUOUS
 62
     7
 10
-394.779754638672
 20
2.36521530151367
 30
0.0
 11
-394.779754638672
 21
22.3652076721191
 31
0.0
  0
LINE
  5
   29C
  8
0
  6
CONTINUOUS
 62
     7
 10
-394.779754638672
 20
-30.6347846984863
 30
0.0
 11
-394.779754638672
 21
2.36521530151367
 31
0.0
  0
LINE
  5
   29D
  8
0
  6
CONTINUOUS
 62
     7
 10
-413.279777526856
 20
30.3652076721191
 30
0.0
 11
-413.279777526856
 21
42.3652076721191
 31
0.0
  0
LINE
  5
   29E
  8
0
  6
CONTINUOUS
 62
     7
 10
-413.279777526856
 20
74.4651985168457
 30
0.0
 11
-413.279777526856
 21
75.8652076721191
 31
0.0
  0
LINE
  5
   29F
  8
0
  6
CONTINUOUS
 62
     7
 10
-413.279777526856
 20
30.3652076721191
 30
0.0
 11
-416.529777526855
 21
30.3652076721191
 31
0.0
  0
LINE
  5
   2A0
  8
0
  6
CONTINUOUS
 62
     7
 10
-416.529785131143
 20
-5.63481495116256
 30
0.0
 11
-416.529784813252
 21
-4.13481521606445
 31
0.0
  0
LINE
  5
   2A1
  8
0
  6
CONTINUOUS
 62
     7
 10
-413.279777526856
 20
-51.1348075866699
 30
0.0
 11
-413.279777526856
 21
-49.7347865104675
 31
0.0
  0
LINE
  5
   2A2
  8
0
  6
CONTINUOUS
 62
     7
 10
-413.279777526856
 20
-48.3847842216492
 30
0.0
 11
-413.279777526856
 21
-35.8847846984863
 31
0.0
  0
LINE
  5
   2A3
  8
0
  6
CONTINUOUS
 62
     7
 10
-419.529777526856
 20
42.3652076721191
 30
0.0
 11
-419.529777526856
 21
49.8652076721191
 31
0.0
  0
LINE
  5
   2A4
  8
0
  6
CONTINUOUS
 62
     7
 10
-419.529777526856
 20
-25.1347618103027
 30
0.0
 11
-419.529777526856
 21
-17.6347618103027
 31
0.0
  0
LINE
  5
   2A5
  8
0
  6
CONTINUOUS
 62
     7
 10
-413.27978515625
 20
-9.13481521606445
 30
0.0
 11
-416.52978515625
 21
-9.13481521606445
 31
0.0
  0
LINE
  5
   2A6
  8
0
  6
CONTINUOUS
 62
     7
 10
-416.52978515625
 20
-9.13481521606445
 30
0.0
 11
-416.52978515625
 21
-5.63481521606445
 31
0.0
  0
LINE
  5
   2A7
  8
0
  6
CONTINUOUS
 62
     7
 10
-416.529777526855
 20
-4.13481521606445
 30
0.0
 11
-418.529777526855
 21
-4.13481521606445
 31
0.0
  0
LINE
  5
   2A8
  8
0
  6
CONTINUOUS
 62
     7
 10
-416.529777526855
 20
-0.634822845458984
 30
0.0
 11
-418.529777526855
 21
-0.634822845458984
 31
0.0
  0
LINE
  5
   2A9
  8
0
  6
CONTINUOUS
 62
     7
 10
-395.279732515797
 20
-1.38480417594057
 30
0.0
 11
-416.529778292164
 21
-1.38479654654697
 31
0.0
  0
LINE
  5
   2AA
  8
0
  6
CONTINUOUS
 62
     7
 10
-395.279734866537
 20
-1.38480515904053
 30
0.0
 11
-394.779750140722
 21
-0.88479754766329
 31
0.0
  0
LINE
  5
   2AB
  8
0
  6
CONTINUOUS
 62
     7
 10
-395.279739379883
 20
-6.88478469848633
 30
0.0
 11
-416.52978515625
 21
-6.88478469848633
 31
0.0
  0
LINE
  5
   2AC
  8
0
  6
CONTINUOUS
 62
     7
 10
-394.779745794089
 20
-7.38479925403283
 30
0.0
 11
-395.279730519904
 21
-6.88479164265559
 31
0.0
  0
LINE
  5
   2AD
  8
0
  6
CONTINUOUS
 62
     7
 10
-394.779754638672
 20
74.4652137756348
 30
0.0
 11
-413.279777526856
 21
74.4652137756348
 31
0.0
  0
LINE
  5
   2AE
  8
0
  6
CONTINUOUS
 62
     7
 10
-394.779754638672
 20
66.8652076721191
 30
0.0
 11
-394.779754638672
 21
74.4652137756348
 31
0.0
  0
LINE
  5
   2AF
  8
0
  6
CONTINUOUS
 62
     7
 10
-413.279777526856
 20
66.8652153015137
 30
0.0
 11
-413.279777526856
 21
73.1152076721191
 31
0.0
  0
LINE
  5
   2B0
  8
0
  6
CONTINUOUS
 62
     7
 10
-394.779754638672
 20
-49.7347846031189
 30
0.0
 11
-413.279777526856
 21
-49.7347846031189
 31
0.0
  0
LINE
  5
   2B1
  8
0
  6
CONTINUOUS
 62
     7
 10
-394.779754638672
 20
-49.7347846031189
 30
0.0
 11
-394.779754638672
 21
-42.1348075866699
 31
0.0
  0
LINE
  5
   2B2
  8
0
  6
CONTINUOUS
 62
     7
 10
-413.279777526856
 20
-49.7347846031189
 30
0.0
 11
-413.279777526856
 21
-48.3847842216492
 31
0.0
  0
LINE
  5
   2B3
  8
0
  6
CONTINUOUS
 62
     3
 10
-418.529777526855
 20
-17.1347999572754
 30
0.0
 11
-419.279777526855
 21
-17.1347999572754
 31
0.0
  0
LINE
  5
   2B4
  8
0
  6
CONTINUOUS
 62
     3
 10
-418.529777526855
 20
-25.6347999572754
 30
0.0
 11
-419.279777526855
 21
-25.6347999572754
 31
0.0
  0
LINE
  5
   2B5
  8
0
  6
CONTINUOUS
 62
     3
 10
-418.529777526855
 20
-31.1347999572754
 30
0.0
 11
-419.279777526855
 21
-31.1347999572754
 31
0.0
  0
LINE
  5
   2B6
  8
0
  6
CONTINUOUS
 62
     3
 10
-418.529777526855
 20
55.8652000427246
 30
0.0
 11
-419.279777526855
 21
55.8652000427246
 31
0.0
  0
LINE
  5
   2B7
  8
0
  6
CONTINUOUS
 62
     3
 10
-418.529777526855
 20
50.3652000427246
 30
0.0
 11
-419.279777526855
 21
50.3652000427246
 31
0.0
  0
LINE
  5
   2B8
  8
0
  6
CONTINUOUS
 62
     3
 10
-418.529777526855
 20
41.8652000427246
 30
0.0
 11
-419.279777526855
 21
41.8652000427246
 31
0.0
  0
LINE
  5
   2B9
  8
0
  6
CONTINUOUS
 62
     3
 10
-418.529777526855
 20
49.8652076721191
 30
0.0
 11
-418.529777526855
 21
55.8652000427246
 31
0.0
  0
LINE
  5
   2BA
  8
0
  6
CONTINUOUS
 62
     3
 10
-418.529777526855
 20
-17.6347236633301
 30
0.0
 11
-418.529777526855
 21
42.3652229309082
 31
0.0
  0
LINE
  5
   2BB
  8
0
  6
CONTINUOUS
 62
     3
 10
-418.529777526855
 20
-31.1347999572754
 30
0.0
 11
-418.529777526855
 21
-25.1347236633301
 31
0.0
  0
LINE
  5
   2BC
  8
0
  6
CONTINUOUS
 62
     3
 10
-419.279777526855
 20
-31.1347999572754
 30
0.0
 11
-419.279777526855
 21
-25.1347694396973
 31
0.0
  0
LINE
  5
   2BD
  8
0
  6
CONTINUOUS
 62
     3
 10
-419.279777526855
 20
-17.6347770690918
 30
0.0
 11
-419.279777526855
 21
42.3651542663574
 31
0.0
  0
LINE
  5
   2BE
  8
0
  6
CONTINUOUS
 62
     3
 10
-419.279777526855
 20
49.8651695251465
 30
0.0
 11
-419.279777526855
 21
55.8652000427246
 31
0.0
  0
LINE
  5
   2BF
  8
0
  6
CONTINUOUS
 62
     3
 10
-419.279777526855
 20
60.365177154541
 30
0.0
 11
-419.279777526855
 21
73.365177154541
 31
0.0
  0
LINE
  5
   2C0
  8
0
  6
CONTINUOUS
 62
     3
 10
-415.279769897461
 20
73.1152076721191
 30
0.0
 11
-415.279769897461
 21
73.865177154541
 31
0.0
  0
LINE
  5
   2C1
  8
0
  6
CONTINUOUS
 62
     3
 10
-415.279769897461
 20
59.865177154541
 30
0.0
 11
-415.279769897461
 21
60.6152229309082
 31
0.0
  0
LINE
  5
   2C2
  8
0
  6
CONTINUOUS
 62
   130
 10
-419.279777526855
 20
-48.6347479820251
 30
0.0
 11
-419.279777526855
 21
-35.6347556114197
 31
0.0
  0
LINE
  5
   2C3
  8
0
  6
CONTINUOUS
 62
   130
 10
-415.279769897461
 20
-35.8847842216492
 30
0.0
 11
-415.279769897461
 21
-35.1347484588623
 31
0.0
  0
LINE
  5
   2C4
  8
0
  6
CONTINUOUS
 62
   130
 10
-415.279769897461
 20
-49.1347408294678
 30
0.0
 11
-415.279769897461
 21
-48.3847713470459
 31
0.0
  0
LINE
  5
   2C5
  8
0
  6
CONTINUOUS
 62
     7
 10
-413.279777526856
 20
73.1152076721191
 30
0.0
 11
-415.279769897461
 21
73.1152076721191
 31
0.0
  0
LINE
  5
   2C6
  8
0
  6
CONTINUOUS
 62
     7
 10
-413.279777526856
 20
60.6152076721191
 30
0.0
 11
-413.779754638672
 21
60.6152076721191
 31
0.0
  0
LINE
  5
   2C7
  8
0
  6
CONTINUOUS
 62
     7
 10
-413.779754638672
 20
60.6152076721191
 30
0.0
 11
-415.279769897461
 21
60.6152076721191
 31
0.0
  0
LINE
  5
   2C8
  8
0
  6
CONTINUOUS
 62
     7
 10
-413.279777526856
 20
-48.3847842216492
 30
0.0
 11
-415.279769897461
 21
-48.3847842216492
 31
0.0
  0
LINE
  5
   2C9
  8
0
  6
CONTINUOUS
 62
     7
 10
-413.779754638672
 20
-35.8847846984863
 30
0.0
 11
-415.279769897461
 21
-35.8847846984863
 31
0.0
  0
LINE
  5
   2CA
  8
0
  6
CONTINUOUS
 62
     7
 10
-413.279777526856
 20
-35.8847846984863
 30
0.0
 11
-413.779754638672
 21
-35.8847846984863
 31
0.0
  0
LINE
  5
   2CB
  8
0
  6
CONTINUOUS
 62
     7
 10
-413.279777526856
 20
49.8652076721191
 30
0.0
 11
-419.529777526856
 21
49.8652076721191
 31
0.0
  0
LINE
  5
   2CC
  8
0
  6
CONTINUOUS
 62
     7
 10
-413.279777526856
 20
42.3652076721191
 30
0.0
 11
-419.529777526856
 21
42.3652076721191
 31
0.0
  0
LINE
  5
   2CD
  8
0
  6
CONTINUOUS
 62
     7
 10
-413.279777526856
 20
-17.6347618103027
 30
0.0
 11
-419.529777526856
 21
-17.6347618103027
 31
0.0
  0
LINE
  5
   2CE
  8
0
  6
CONTINUOUS
 62
     7
 10
-413.279777526856
 20
-25.1347618103027
 30
0.0
 11
-419.529777526856
 21
-25.1347618103027
 31
0.0
  0
LINE
  5
   2CF
  8
0
  6
CONTINUOUS
 62
     3
 10
-419.279722261603
 20
73.3651431592661
 30
0.0
 11
-418.779722278717
 21
73.8651431421518
 31
0.0
  0
LINE
  5
   2D0
  8
0
  6
CONTINUOUS
 62
     3
 10
-418.779812624919
 20
59.8652210661788
 30
0.0
 11
-419.279812607804
 21
60.3652210490645
 31
0.0
  0
LINE
  5
   2D1
  8
0
  6
CONTINUOUS
 62
     3
 10
-415.279769897461
 20
73.865177154541
 30
0.0
 11
-418.779777526856
 21
73.865177154541
 31
0.0
  0
LINE
  5
   2D2
  8
0
  6
CONTINUOUS
 62
     3
 10
-415.279769897461
 20
59.865177154541
 30
0.0
 11
-418.779777526856
 21
59.865177154541
 31
0.0
  0
LINE
  5
   2D3
  8
0
  6
CONTINUOUS
 62
   130
 10
-418.779794380835
 20
-49.134742123126
 30
0.0
 11
-419.279794363721
 21
-48.6347421402403
 31
0.0
  0
LINE
  5
   2D4
  8
0
  6
CONTINUOUS
 62
   130
 10
-419.279794453651
 20
-35.6347552924781
 30
0.0
 11
-418.779794470765
 21
-35.1347553095924
 31
0.0
  0
LINE
  5
   2D5
  8
0
  6
CONTINUOUS
 62
   130
 10
-415.279769897461
 20
-49.1347479820251
 30
0.0
 11
-418.779777526856
 21
-49.1347479820251
 31
0.0
  0
LINE
  5
   2D6
  8
0
  6
CONTINUOUS
 62
   130
 10
-415.279769897461
 20
-35.1347484588623
 30
0.0
 11
-418.779777526856
 21
-35.1347484588623
 31
0.0
  0
LINE
  5
   2D7
  8
0
  6
CONTINUOUS
 62
     7
 10
-415.279769897461
 20
73.1152076721191
 30
0.0
 11
-418.779777526856
 21
73.1152076721191
 31
0.0
  0
LINE
  5
   2D8
  8
0
  6
CONTINUOUS
 62
     7
 10
-413.279777526856
 20
73.1152076721191
 30
0.0
 11
-413.279777526856
 21
74.4652137756348
 31
0.0
  0
LINE
  5
   2D9
  8
0
  6
CONTINUOUS
 62
     7
 10
-413.279777526856
 20
60.6152076721191
 30
0.0
 11
-413.279777526856
 21
66.865177154541
 31
0.0
  0
LINE
  5
   2DA
  8
0
  6
CONTINUOUS
 62
     7
 10
-415.279769897461
 20
60.6152076721191
 30
0.0
 11
-418.779777526856
 21
60.6152076721191
 31
0.0
  0
LINE
  5
   2DB
  8
0
  6
CONTINUOUS
 62
     7
 10
-413.279777526856
 20
49.8652076721191
 30
0.0
 11
-413.279777526856
 21
60.6152076721191
 31
0.0
  0
LINE
  5
   2DC
  8
0
  6
CONTINUOUS
 62
     7
 10
-413.279777526856
 20
42.3652076721191
 30
0.0
 11
-413.279777526856
 21
49.8652076721191
 31
0.0
  0
LINE
  5
   2DD
  8
0
  6
CONTINUOUS
 62
     7
 10
-416.529784071507
 20
-0.634822845458984
 30
0.0
 11
-416.52977750175
 21
30.3652003076265
 31
0.0
  0
LINE
  5
   2DE
  8
0
  6
CONTINUOUS
 62
     7
 10
-416.529784813252
 20
-4.13481521606445
 30
0.0
 11
-416.529784071507
 21
-0.634822845458984
 31
0.0
  0
LINE
  5
   2DF
  8
0
  6
CONTINUOUS
 62
     7
 10
-413.279777526856
 20
-9.13481521606445
 30
0.0
 11
-413.279777526856
 21
-7.38479995727539
 31
0.0
  0
LINE
  5
   2E0
  8
0
  6
CONTINUOUS
 62
     7
 10
-413.279777526856
 20
-17.6347618103027
 30
0.0
 11
-413.279777526856
 21
-9.13481521606445
 31
0.0
  0
LINE
  5
   2E1
  8
0
  6
CONTINUOUS
 62
     7
 10
-413.279777526856
 20
-25.1347618103027
 30
0.0
 11
-413.279777526856
 21
-17.6347618103027
 31
0.0
  0
LINE
  5
   2E2
  8
0
  6
CONTINUOUS
 62
     7
 10
-413.279777526856
 20
-35.8847846984863
 30
0.0
 11
-413.279777526856
 21
-25.1347618103027
 31
0.0
  0
LINE
  5
   2E3
  8
0
  6
CONTINUOUS
 62
     7
 10
-415.279769897461
 20
-48.3847842216492
 30
0.0
 11
-418.779777526856
 21
-48.3847842216492
 31
0.0
  0
LINE
  5
   2E4
  8
0
  6
CONTINUOUS
 62
     7
 10
-415.279769897461
 20
-35.8847846984863
 30
0.0
 11
-418.779777526856
 21
-35.8847846984863
 31
0.0
  0
LINE
  5
   2E5
  8
0
  6
DASHDOT
 62
     7
 10
-406.906338808257
 20
46.1152076721191
 30
0.0
 11
-433.49198129305
 21
46.1152076721191
 31
0.0
  0
LINE
  5
   2E6
  8
0
  6
DASHDOT
 62
     7
 10
-406.488756377546
 20
-21.3847923278809
 30
0.0
 11
-430.563010549738
 21
-21.3847923278809
 31
0.0
  0
LINE
  5
   2E7
  8
0
  6
DASHDOT
 62
     7
 10
-419.529777526856
 20
49.8652076721191
 30
0.0
 11
-419.529777526856
 21
94.156824763096
 31
0.0
  0
LINE
  5
   2E8
  8
0
  6
DASHDOT
 62
     7
 10
-419.529777526856
 20
-17.6347618103027
 30
0.0
 11
-419.529777526856
 21
42.3652076721191
 31
0.0
  0
LINE
  5
   2E9
  8
0
  6
DASHDOT
 62
     7
 10
-419.529777526856
 20
-62.9933633278596
 30
0.0
 11
-419.529777526856
 21
-25.1347618103027
 31
0.0
  0
LINE
  5
   2EA
  8
0
  6
DASHDOT
 62
     7
 10
-421.029777526855
 20
-62.9933633278596
 30
0.0
 11
-421.029777526855
 21
94.2960189066663
 31
0.0
  0
LINE
  5
   2EB
  8
0
  6
DASHDOT
 62
     7
 10
-395.476218881362
 20
-58.8847923278809
 30
0.0
 11
-408.593478167136
 21
-58.8847923278809
 31
0.0
  0
LINE
  5
   2EC
  8
0
  6
DASHDOT
 62
     7
 10
-396.322493673993
 20
83.6152153015137
 30
0.0
 11
-409.439752959766
 21
83.6152153015137
 31
0.0
  0
LINE
  5
   2ED
  8
0
  6
DASHDOT
 62
     7
 10
-416.20995130081
 20
93.0617773679613
 30
0.0
 11
-424.249561830801
 21
93.0617773679613
 31
0.0
  0
LINE
  5
   2EE
  8
0
  6
DASHDOT
 62
     7
 10
-414.728970413707
 20
-62.6527844760584
 30
0.0
 11
-423.826424434485
 21
-61.5949409852703
 31
0.0
  0
CIRCLE
  5
   2EF
  8
0
  6
CONTINUOUS
 62
     7
 10
-411.246815880558
 20
61.4821778425817
 30
0.0
 40
0.1
  0
CIRCLE
  5
   2F0
  8
0
  6
CONTINUOUS
 62
     7
 10
-402.926430492538
 20
81.5241997782243
 30
0.0
 40
0.1
  0
CIRCLE
  5
   2F1
  8
0
  6
CONTINUOUS
 62
     7
 10
-351.651948160079
 20
66.6320998778053
 30
0.0
 40
0.1
  0
LINE
  5
   2F2
  8
0
  6
CONTINUOUS
 62
     1
 10
-340.279759407043
 20
-14.2630023956299
 30
0.0
 11
-341.279759407043
 21
-14.2630023956299
 31
0.0
  0
LINE
  5
   2F3
  8
0
  6
CONTINUOUS
 62
     1
 10
-341.279759407043
 20
39.7369956970215
 30
0.0
 11
-341.279759407043
 21
40.7369956970215
 31
0.0
  0
LINE
  5
   2F4
  8
0
  6
CONTINUOUS
 62
     1
 10
-340.279759407043
 20
40.7369956970215
 30
0.0
 11
-341.279759407043
 21
40.7369956970215
 31
0.0
  0
LINE
  5
   2F5
  8
0
  6
CONTINUOUS
 62
     1
 10
-341.279759407043
 20
-14.2630023956299
 30
0.0
 11
-341.279759407043
 21
39.7369976043701
 31
0.0
  0
LINE
  5
   2F6
  8
0
  6
CONTINUOUS
 62
     1
 10
-343.529759317637
 20
47.5256690979004
 30
0.0
 11
-343.529759317637
 21
49.9483222961426
 31
0.0
  0
LINE
  5
   2F7
  8
0
  6
CONTINUOUS
 62
     1
 10
-343.529759317637
 20
-23.4743270874023
 30
0.0
 11
-343.529759317637
 21
-21.0516777038574
 31
0.0
  0
LINE
  5
   2F8
  8
0
  6
CONTINUOUS
 62
     1
 10
-340.279759407043
 20
-27.5130023956299
 30
0.0
 11
-340.279759407043
 21
53.9869976043701
 31
0.0
  0
LINE
  5
   2F9
  8
0
  6
CONTINUOUS
 62
     1
 10
-338.529759407044
 20
-27.5130023956299
 30
0.0
 11
-340.279759407043
 21
-27.5130023956299
 31
0.0
  0
LINE
  5
   2FA
  8
0
  6
CONTINUOUS
 62
     1
 10
-338.529759407044
 20
-27.5130043029785
 30
0.0
 11
-338.529759407044
 21
53.9869956970215
 31
0.0
  0
LINE
  5
   2FB
  8
0
  6
CONTINUOUS
 62
     1
 10
-338.529759407044
 20
53.9869956970215
 30
0.0
 11
-339.029759407043
 21
53.9869956970215
 31
0.0
  0
LINE
  5
   2FC
  8
0
  6
CONTINUOUS
 62
     1
 10
-339.529759407043
 20
53.9869956970215
 30
0.0
 11
-340.279759407043
 21
53.9869956970215
 31
0.0
  0
LINE
  5
   2FD
  8
0
  6
CONTINUOUS
 62
     1
 10
-340.279759407043
 20
47.2369956970215
 30
0.0
 11
-343.029760915951
 21
47.2369956970215
 31
0.0
  0
LINE
  5
   2FE
  8
0
  6
CONTINUOUS
 62
     1
 10
-340.279759407043
 20
50.2369956970215
 30
0.0
 11
-343.029757679373
 21
50.2369956970215
 31
0.0
  0
LINE
  5
   2FF
  8
0
  6
CONTINUOUS
 62
     1
 10
-343.029759324487
 20
47.2369956970215
 30
0.0
 11
-343.029759324487
 21
47.3511772155762
 31
0.0
  0
LINE
  5
   300
  8
0
  6
CONTINUOUS
 62
     1
 10
-343.029758926625
 20
47.2369945484907
 30
0.0
 11
-343.529758943088
 21
47.525667952989
 31
0.0
  0
LINE
  5
   301
  8
0
  6
CONTINUOUS
 62
     1
 10
-343.029759324487
 20
47.3511772155762
 30
0.0
 11
-343.029759324487
 21
47.6763343811035
 31
0.0
  0
LINE
  5
   302
  8
0
  6
CONTINUOUS
 62
     1
 10
-343.029759324487
 20
47.6763343811035
 30
0.0
 11
-343.029759324487
 21
48.1629753112793
 31
0.0
  0
LINE
  5
   303
  8
0
  6
CONTINUOUS
 62
     1
 10
-343.029759324487
 20
48.1629753112793
 30
0.0
 11
-343.029759324487
 21
48.7369956970215
 31
0.0
  0
LINE
  5
   304
  8
0
  6
CONTINUOUS
 62
     1
 10
-343.029759324487
 20
48.7369956970215
 30
0.0
 11
-343.029759324487
 21
49.3110237121582
 31
0.0
  0
LINE
  5
   305
  8
0
  6
CONTINUOUS
 62
     1
 10
-343.029759324487
 20
49.3110237121582
 30
0.0
 11
-343.029759324487
 21
49.7976570129395
 31
0.0
  0
LINE
  5
   306
  8
0
  6
CONTINUOUS
 62
     1
 10
-343.029759324487
 20
49.7976570129395
 30
0.0
 11
-343.029759324487
 21
50.1228141784668
 31
0.0
  0
LINE
  5
   307
  8
0
  6
CONTINUOUS
 62
     1
 10
-343.029759324487
 20
50.1228141784668
 30
0.0
 11
-343.029759324487
 21
50.2369956970215
 31
0.0
  0
LINE
  5
   308
  8
0
  6
CONTINUOUS
 62
     1
 10
-343.529759752226
 20
49.9483211052735
 30
0.0
 11
-343.029759735762
 21
50.2369945097718
 31
0.0
  0
LINE
  5
   309
  8
0
  6
CONTINUOUS
 62
     1
 10
-340.279759407043
 20
-20.7630023956299
 30
0.0
 11
-343.029758321931
 21
-20.7630023956299
 31
0.0
  0
LINE
  5
   30A
  8
0
  6
CONTINUOUS
 62
     1
 10
-340.279759407043
 20
-23.7630023956299
 30
0.0
 11
-343.029760163711
 21
-23.7630023956299
 31
0.0
  0
LINE
  5
   30B
  8
0
  6
CONTINUOUS
 62
     1
 10
-343.529759578711
 20
-21.0516784039833
 30
0.0
 11
-343.029759562247
 21
-20.7630031117267
 31
0.0
  0
LINE
  5
   30C
  8
0
  6
CONTINUOUS
 62
     1
 10
-343.029759307829
 20
-20.8771839141846
 30
0.0
 11
-343.029759307829
 21
-20.7630023956299
 31
0.0
  0
LINE
  5
   30D
  8
0
  6
CONTINUOUS
 62
     1
 10
-343.029759307841
 20
-21.2023429870606
 30
0.0
 11
-343.029759307841
 21
-20.8771839141846
 31
0.0
  0
LINE
  5
   30E
  8
0
  6
CONTINUOUS
 62
     1
 10
-343.029759307827
 20
-21.6889762878418
 30
0.0
 11
-343.029759307827
 21
-21.2023429870606
 31
0.0
  0
LINE
  5
   30F
  8
0
  6
CONTINUOUS
 62
     1
 10
-343.029759307862
 20
-22.2630023956299
 30
0.0
 11
-343.029759307862
 21
-21.6889762878418
 31
0.0
  0
LINE
  5
   310
  8
0
  6
CONTINUOUS
 62
     1
 10
-343.0297593078
 20
-22.8370265960693
 30
0.0
 11
-343.0297593078
 21
-22.2630023956299
 31
0.0
  0
LINE
  5
   311
  8
0
  6
CONTINUOUS
 62
     1
 10
-343.029759307827
 20
-23.3236618041992
 30
0.0
 11
-343.029759307827
 21
-22.8370265960693
 31
0.0
  0
LINE
  5
   312
  8
0
  6
CONTINUOUS
 62
     1
 10
-343.02975930784
 20
-23.6488208770752
 30
0.0
 11
-343.02975930784
 21
-23.3236618041992
 31
0.0
  0
LINE
  5
   313
  8
0
  6
CONTINUOUS
 62
     1
 10
-343.029759100667
 20
-23.7630030093794
 30
0.0
 11
-343.529759117131
 21
-23.4743277171229
 31
0.0
  0
LINE
  5
   314
  8
0
  6
CONTINUOUS
 62
     1
 10
-343.029759307829
 20
-23.7630023956299
 30
0.0
 11
-343.029759307829
 21
-23.6488208770752
 31
0.0
  0
LINE
  5
   315
  8
0
  6
CONTINUOUS
 62
     1
 10
-339.029759407043
 20
53.9869956970215
 30
0.0
 11
-339.529759407043
 21
53.9869956970215
 31
0.0
  0
LINE
  5
   316
  8
0
  6
CONTINUOUS
 62
     7
 10
-340.279759407043
 20
53.9869956970215
 30
0.0
 11
-340.279759407043
 21
83.9706012758638
 31
0.0
  0
LINE
  5
   317
  8
0
  6
CONTINUOUS
 62
     7
 10
-341.279759407043
 20
40.7369956970215
 30
0.0
 11
-341.279759407043
 21
47.2369956970215
 31
0.0
  0
LINE
  5
   318
  8
0
  6
CONTINUOUS
 62
     7
 10
-340.279759407043
 20
-79.0995165769184
 30
0.0
 11
-340.279759407043
 21
-27.5130023956299
 31
0.0
  0
LINE
  5
   319
  8
0
  6
CONTINUOUS
 62
     7
 10
-341.279759407043
 20
-78.8871271963874
 30
0.0
 11
-341.279759407043
 21
-23.7630023956299
 31
0.0
  0
LINE
  5
   31A
  8
0
  6
CONTINUOUS
 62
     7
 10
-335.519107375228
 20
82.5424056663192
 30
0.0
 11
-345.742826259978
 21
85.6095213317444
 31
0.0
  0
LINE
  5
   31B
  8
0
  6
CONTINUOUS
 62
     7
 10
-335.00792143099
 20
-80.219198978912
 30
0.0
 11
-346.560723770759
 21
-77.7655064465718
 31
0.0
  0
LINE
  5
   31C
  8
0
  6
CONTINUOUS
 62
     7
 10
-340.279759407043
 20
-20.5130023956299
 30
0.0
 11
-341.279759407043
 21
-20.5130023956299
 31
0.0
  0
LINE
  5
   31D
  8
0
  6
CONTINUOUS
 62
     7
 10
-340.279759407043
 20
-24.0130023956299
 30
0.0
 11
-341.279759407043
 21
-24.0130023956299
 31
0.0
  0
LINE
  5
   31E
  8
0
  6
CONTINUOUS
 62
     7
 10
-340.279759407043
 20
-14.7630023956299
 30
0.0
 11
-341.279759407043
 21
-14.7630023956299
 31
0.0
  0
LINE
  5
   31F
  8
0
  6
CONTINUOUS
 62
     7
 10
-340.279759407043
 20
41.2369956970215
 30
0.0
 11
-341.279759407043
 21
41.2369956970215
 31
0.0
  0
LINE
  5
   320
  8
0
  6
CONTINUOUS
 62
     7
 10
-340.279759407043
 20
46.9869956970215
 30
0.0
 11
-341.279759407043
 21
46.9869956970215
 31
0.0
  0
LINE
  5
   321
  8
0
  6
CONTINUOUS
 62
     7
 10
-340.279759407043
 20
50.4869956970215
 30
0.0
 11
-341.279759407043
 21
50.4869956970215
 31
0.0
  0
LINE
  5
   322
  8
0
  6
CONTINUOUS
 62
     7
 10
-341.279759407043
 20
50.2369956970215
 30
0.0
 11
-341.279759407043
 21
84.2706012758638
 31
0.0
  0
LINE
  5
   323
  8
0
  6
CONTINUOUS
 62
     7
 10
-341.279759407043
 20
-20.7630023956299
 30
0.0
 11
-341.279759407043
 21
-14.2630023956299
 31
0.0
  0
INSERT
  5
   324
  8
0
  6
CONTINUOUS
 62
     7
  2
*HATCH1300
 10
-343.27978515625
 20
-41.7533149719238
 30
0.0
 41
0.5
 42
0.5
 50
89.9999999480344
 43
0.5
  0
INSERT
  5
   325
  8
0
  6
CONTINUOUS
 62
     7
  2
*HATCH1301
 10
-343.27978515625
 20
-41.7533149719238
 30
0.0
 41
0.5
 42
0.5
 50
89.9999999480344
 43
0.5
  0
INSERT
  5
   326
  8
0
  6
CONTINUOUS
 62
     7
  2
*HATCH1302
 10
-343.27978515625
 20
-41.7533149719238
 30
0.0
 41
0.5
 42
0.5
 50
89.9999999480344
 43
0.5
  0
INSERT
  5
   327
  8
0
  6
CONTINUOUS
 62
     7
  2
*HATCH1303
 10
-343.27978515625
 20
-41.7533149719238
 30
0.0
 41
0.5
 42
0.5
 50
89.9999999480344
 43
0.5
  0
LINE
  5
   328
  8
0
  6
CONTINUOUS
 62
     7
 10
-344.529762268066
 20
77.1152076721191
 30
0.0
 11
-393.779750150858
 21
77.1152076721191
 31
0.0
  0
LINE
  5
   329
  8
0
  6
CONTINUOUS
 62
     7
 10
-344.529762268066
 20
-52.3847599792657
 30
0.0
 11
-393.779755115509
 21
-52.3847599792657
 31
0.0
  0
LINE
  5
   32A
  8
0
  6
CONTINUOUS
 62
     7
 10
-344.029762268066
 20
-51.8847599792657
 30
0.0
 11
-344.029762268066
 21
-39.6347676086605
 31
0.0
  0
LINE
  5
   32B
  8
0
  6
CONTINUOUS
 62
     7
 10
-344.029762268066
 20
64.1152247619452
 30
0.0
 11
-344.029762268066
 21
76.6152076721191
 31
0.0
  0
ARC
  5
   32C
  8
0
  6
CONTINUOUS
 62
     7
 10
-344.529762268066
 20
76.6152076721191
 30
0.0
 40
0.5
 50
359.999999948034
 51
449.999999948034
  0
ARC
  5
   32D
  8
0
  6
CONTINUOUS
 62
     7
 10
-344.529762268066
 20
-51.8847599792657
 30
0.0
 40
0.5
 50
269.999999948034
 51
359.999999948034
  0
LINE
  5
   32E
  8
0
  6
CONTINUOUS
 62
     7
 10
-344.529762268066
 20
63.6152247619452
 30
0.0
 11
-344.529762268066
 21
64.1152247619452
 31
0.0
  0
LINE
  5
   32F
  8
0
  6
CONTINUOUS
 62
     7
 10
-344.029762268066
 20
64.1152247619452
 30
0.0
 11
-344.529762268066
 21
64.1152247619452
 31
0.0
  0
LINE
  5
   330
  8
0
  6
CONTINUOUS
 62
     7
 10
-344.529762268066
 20
-39.6347676086605
 30
0.0
 11
-344.529762268066
 21
-39.1347676086605
 31
0.0
  0
LINE
  5
   331
  8
0
  6
CONTINUOUS
 62
     7
 10
-344.029762268066
 20
-39.6347676086605
 30
0.0
 11
-344.529762268066
 21
-39.6347676086605
 31
0.0
  0
LINE
  5
   332
  8
0
  6
DASHDOT
 62
     7
 10
-315.559996527444
 20
13.2402247619452
 30
0.0
 11
-440.951565391577
 21
13.2402247619452
 31
0.0
  0
LINE
  5
   333
  8
0
  6
CONTINUOUS
 62
     7
 10
-422.629777526855
 20
-23.3347923278809
 30
0.0
 11
-422.629777526855
 21
-19.4347923278809
 31
0.0
  0
LINE
  5
   334
  8
0
  6
CONTINUOUS
 62
     7
 10
-424.229777526855
 20
-22.3847923278809
 30
0.0
 11
-424.229777526855
 21
-20.3847923278809
 31
0.0
  0
LINE
  5
   335
  8
0
  6
CONTINUOUS
 62
     7
 10
-421.029777526855
 20
-19.4347923278809
 30
0.0
 11
-422.629777526855
 21
-19.4347923278809
 31
0.0
  0
LINE
  5
   336
  8
0
  6
CONTINUOUS
 62
     7
 10
-421.029777526855
 20
-23.3347923278809
 30
0.0
 11
-422.629777526855
 21
-23.3347923278809
 31
0.0
  0
LINE
  5
   337
  8
0
  6
CONTINUOUS
 62
     7
 10
-421.029777526855
 20
-20.3847923278809
 30
0.0
 11
-424.229777526855
 21
-20.3847923278809
 31
0.0
  0
LINE
  5
   338
  8
0
  6
CONTINUOUS
 62
     7
 10
-421.029777526855
 20
-22.3847923278809
 30
0.0
 11
-424.229777526855
 21
-22.3847923278809
 31
0.0
  0
LINE
  5
   339
  8
0
  6
CONTINUOUS
 62
     7
 10
-421.029777526855
 20
48.0652076721191
 30
0.0
 11
-422.629777526855
 21
48.0652076721191
 31
0.0
  0
LINE
  5
   33A
  8
0
  6
CONTINUOUS
 62
     7
 10
-421.029777526855
 20
47.1152076721191
 30
0.0
 11
-424.229777526855
 21
47.1152076721191
 31
0.0
  0
LINE
  5
   33B
  8
0
  6
CONTINUOUS
 62
     7
 10
-421.029777526855
 20
45.1152076721191
 30
0.0
 11
-424.229777526855
 21
45.1152076721191
 31
0.0
  0
LINE
  5
   33C
  8
0
  6
CONTINUOUS
 62
     7
 10
-421.029777526855
 20
44.1652076721191
 30
0.0
 11
-422.629777526855
 21
44.1652076721191
 31
0.0
  0
LINE
  5
   33D
  8
0
  6
CONTINUOUS
 62
     7
 10
-422.629777526855
 20
44.1652076721191
 30
0.0
 11
-422.629777526855
 21
48.0652076721191
 31
0.0
  0
LINE
  5
   33E
  8
0
  6
CONTINUOUS
 62
     7
 10
-424.229777526855
 20
45.1152076721191
 30
0.0
 11
-424.229777526855
 21
47.1152076721191
 31
0.0
  0
CIRCLE
  5
   33F
  8
0
  6
CONTINUOUS
 62
     7
 10
-471.860613145023
 20
46.0144339948391
 30
0.0
 40
0.1
  0
CIRCLE
  5
   340
  8
0
  6
CONTINUOUS
 62
     7
 10
-422.236238738689
 20
-21.3784396639761
 30
0.0
 40
0.1
  0
TEXT
  5
   341
  8
0
  6
CONTINUOUS
 62
     7
 10
-305.263816848191
 20
-3.95878790504493
 30
0.0
 40
3.00000002980232
  1
=          =
 50
89.9999999480344
 41
0.916666604744064
 72
     2
 11
-305.263816818801
 21
28.4912102208857
 31
0.0
  0
INSERT
  5
   342
  8
0
  6
CONTINUOUS
 62
     7
  2
*UDIM2245
 10
0.0
 20
0.0
 30
0.0
  0
INSERT
  5
   343
  8
0
  6
CONTINUOUS
 62
     7
  2
*UDIM2246
 10
0.0
 20
0.0
 30
0.0
  0
INSERT
  5
   344
  8
0
  6
CONTINUOUS
 62
     7
  2
*UDIM2247
 10
0.0
 20
0.0
 30
0.0
  0
INSERT
  5
   345
  8
0
  6
CONTINUOUS
 62
     7
  2
*UDIM2248
 10
0.0
 20
0.0
 30
0.0
  0
INSERT
  5
   346
  8
0
  6
CONTINUOUS
 62
     7
  2
*UDIM2249
 10
0.0
 20
0.0
 30
0.0
  0
INSERT
  5
   347
  8
0
  6
CONTINUOUS
 62
     7
  2
*UDIM2250
 10
0.0
 20
0.0
 30
0.0
  0
INSERT
  5
   348
  8
0
  6
CONTINUOUS
 62
     7
  2
*UDIM2251
 10
0.0
 20
0.0
 30
0.0
  0
INSERT
  5
   349
  8
0
  6
CONTINUOUS
 62
     7
  2
*UDIM2252
 10
0.0
 20
0.0
 30
0.0
  0
TEXT
  5
   34A
  8
0
  6
CONTINUOUS
 62
     7
 10
-305.372741611164
 20
11.8642010993735
 30
0.0
 40
3.00000002980232
  1
X
 50
359.999999948034
 41
0.916666604744064
 72
     1
 11
-304.272741675376
 21
13.3642011132825
 31
0.0
 73
     2
  0
LINE
  5
   34B
  8
0
  6
CONTINUOUS
 62
     7
 10
-513.330097380753
 20
-13.0097770690918
 30
0.0
 11
-518.330097380753
 21
-13.0097770690918
 31
0.0
  0
LINE
  5
   34C
  8
0
  6
CONTINUOUS
 62
     7
 10
-499.580112639542
 20
-13.0097770690918
 30
0.0
 11
-513.330097380753
 21
-13.0097770690918
 31
0.0
  0
LINE
  5
   34D
  8
0
  6
CONTINUOUS
 62
    52
 10
-480.830127898331
 20
-13.0097770690918
 30
0.0
 11
-485.830127898331
 21
-13.0097770690918
 31
0.0
  0
LINE
  5
   34E
  8
0
  6
CONTINUOUS
 62
    52
 10
-485.830127898331
 20
-13.0097770690918
 30
0.0
 11
-499.580112639542
 21
-13.0097770690918
 31
0.0
  0
LINE
  5
   34F
  8
0
  6
CONTINUOUS
 62
     7
 10
-473.330127898331
 20
63.6152000427246
 30
0.0
 11
-473.330127898331
 21
74.4651985168457
 31
0.0
  0
LINE
  5
   350
  8
0
  6
CONTINUOUS
 62
     7
 10
-543.330105010148
 20
63.6151847839355
 30
0.0
 11
-543.330105010148
 21
74.4651908874512
 31
0.0
  0
LINE
  5
   351
  8
0
  6
CONTINUOUS
 62
     7
 10
-543.330097380753
 20
39.4901924133301
 30
0.0
 11
-543.330097380753
 21
63.6152076721191
 31
0.0
  0
LINE
  5
   352
  8
0
  6
CONTINUOUS
 62
     7
 10
-473.330127898331
 20
53.4902038574199
 30
0.0
 11
-473.330127898331
 21
63.6152076721191
 31
0.0
  0
LINE
  5
   353
  8
0
  6
CONTINUOUS
 62
     7
 10
-473.330127898331
 20
-38.3847846984861
 30
0.0
 11
-473.330127898331
 21
-27.0097942352314
 31
0.0
  0
LINE
  5
   354
  8
0
  6
DASHDOT
 62
     7
 10
-499.580093251352
 20
-69.3172061091108
 30
0.0
 11
-499.580137532588
 21
97.064875388297
 31
0.0
  0
LINE
  5
   355
  8
0
  6
DASHDOT
 62
     3
 10
-505.455103468042
 20
-12.8847685346237
 30
0.0
 11
-511.205090832544
 21
-12.8847685346237
 31
0.0
  0
LINE
  5
   356
  8
0
  6
DASHDOT
 62
     3
 10
-487.954900381287
 20
-12.8849896576356
 30
0.0
 11
-493.705257958566
 21
-12.8849896576356
 31
0.0
  0
LINE
  5
   357
  8
0
  6
CONTINUOUS
 62
     7
 10
-513.330105010148
 20
-13.0097770690918
 30
0.0
 11
-518.330097380753
 21
-13.0097770690918
 31
0.0
  0
LINE
  5
   358
  8
0
  6
CONTINUOUS
 62
     7
 10
-480.830112639542
 20
-13.0097770690918
 30
0.0
 11
-485.830112639542
 21
-13.0097770690918
 31
0.0
  0
LINE
  5
   359
  8
0
  6
CONTINUOUS
 62
     7
 10
-473.330097380753
 20
-12.7597770690918
 30
0.0
 11
-473.330097380753
 21
-3.75978469848633
 31
0.0
  0
LINE
  5
   35A
  8
0
  6
CONTINUOUS
 62
     7
 10
-525.830097380753
 20
-12.7597770690918
 30
0.0
 11
-525.830097380753
 21
-3.75978469848633
 31
0.0
  0
LINE
  5
   35B
  8
0
  6
CONTINUOUS
 62
     7
 10
-473.580097380753
 20
39.4902229309082
 30
0.0
 11
-525.580097380739
 21
39.4902229309082
 31
0.0
  0
LINE
  5
   35C
  8
0
  6
CONTINUOUS
 62
     7
 10
-518.330097380753
 20
-13.0097770690918
 30
0.0
 11
-525.580097380753
 21
-13.0097770690918
 31
0.0
  0
LINE
  5
   35D
  8
0
  6
CONTINUOUS
 62
     7
 10
-485.830112639542
 20
-13.0097770690918
 30
0.0
 11
-513.330105010148
 21
-13.0097770690918
 31
0.0
  0
LINE
  5
   35E
  8
0
  6
CONTINUOUS
 62
     7
 10
-473.580097380753
 20
-13.0097770690918
 30
0.0
 11
-480.830112639542
 21
-13.0097770690918
 31
0.0
  0
LINE
  5
   35F
  8
0
  6
CONTINUOUS
 62
     7
 10
-494.205097380753
 20
-1.88478469848633
 30
0.0
 11
-494.205097380753
 21
18.1152076721191
 31
0.0
  0
LINE
  5
   360
  8
0
  6
CONTINUOUS
 62
     7
 10
-504.955097380753
 20
-1.88478469848633
 30
0.0
 11
-504.955097380753
 21
18.1152076721191
 31
0.0
  0
LINE
  5
   361
  8
0
  6
CONTINUOUS
 62
     7
 10
-473.330097380753
 20
33.4902076721191
 30
0.0
 11
-525.830097380753
 21
33.4902076721191
 31
0.0
  0
LINE
  5
   362
  8
0
  6
CONTINUOUS
 62
     7
 10
-473.330097380753
 20
38.4902076721191
 30
0.0
 11
-525.830097380753
 21
38.4902076721191
 31
0.0
  0
LINE
  5
   363
  8
0
  6
CONTINUOUS
 62
     7
 10
-494.205097380753
 20
17.9829750061035
 30
0.0
 11
-504.955097380753
 21
17.9829750061035
 31
0.0
  0
LINE
  5
   364
  8
0
  6
CONTINUOUS
 62
     7
 10
-494.205097380753
 20
18.1152076721191
 30
0.0
 11
-504.955097380753
 21
18.1152076721191
 31
0.0
  0
LINE
  5
   365
  8
0
  6
CONTINUOUS
 62
     7
 10
-494.205097380753
 20
-1.88478469848634
 30
0.0
 11
-504.955097380753
 21
-1.88478469848634
 31
0.0
  0
LINE
  5
   366
  8
0
  6
CONTINUOUS
 62
     7
 10
-494.205097380753
 20
-1.75253677368165
 30
0.0
 11
-504.955097380753
 21
-1.75253677368165
 31
0.0
  0
LINE
  5
   367
  8
0
  6
DASHDOT
 62
     7
 10
-499.580097380753
 20
-14.6364180087712
 30
0.0
 11
-499.580097380753
 21
28.5914250747532
 31
0.0
  0
LINE
  5
   368
  8
0
  6
CONTINUOUS
 62
     7
 10
-473.330105010147
 20
-3.25978469848633
 30
0.0
 11
-473.330105010147
 21
2.74021132489442
 31
0.0
  0
LINE
  5
   369
  8
0
  6
CONTINUOUS
 62
     7
 10
-473.330105010147
 20
19.9902153015137
 30
0.0
 11
-473.330105010147
 21
39.2402229309082
 31
0.0
  0
LINE
  5
   36A
  8
0
  6
CONTINUOUS
 62
     7
 10
-473.330105010147
 20
3.24021132489445
 30
0.0
 11
-473.330105010147
 21
12.9902153015137
 31
0.0
  0
LINE
  5
   36B
  8
0
  6
CONTINUOUS
 62
     7
 10
-473.330105010147
 20
13.4902153015137
 30
0.0
 11
-473.330105010147
 21
19.4902153015137
 31
0.0
  0
LINE
  5
   36C
  8
0
  6
CONTINUOUS
 62
     7
 10
-525.830097380755
 20
-3.25978469848633
 30
0.0
 11
-525.830097380755
 21
2.74021530151476
 31
0.0
  0
LINE
  5
   36D
  8
0
  6
CONTINUOUS
 62
     7
 10
-525.830097380764
 20
3.24021530151479
 30
0.0
 11
-525.830097380764
 21
12.9902153015137
 31
0.0
  0
LINE
  5
   36E
  8
0
  6
CONTINUOUS
 62
     7
 10
-525.83009738075
 20
13.4902153015137
 30
0.0
 11
-525.83009738075
 21
19.4902153015137
 31
0.0
  0
LINE
  5
   36F
  8
0
  6
CONTINUOUS
 62
     7
 10
-525.830097380739
 20
19.9902153015137
 30
0.0
 11
-525.830097380739
 21
39.2402229309082
 31
0.0
  0
LINE
  5
   370
  8
0
  6
CONTINUOUS
 62
     7
 10
-504.955101367615
 20
2.74021530151264
 30
0.0
 11
-525.330097410555
 21
2.74021530151264
 31
0.0
  0
LINE
  5
   371
  8
0
  6
CONTINUOUS
 62
     7
 10
-473.330105010147
 20
2.7402305603017
 30
0.0
 11
-473.830105010148
 21
2.7402305603017
 31
0.0
  0
LINE
  5
   372
  8
0
  6
CONTINUOUS
 62
     7
 10
-504.955111147159
 20
3.24021530151261
 30
0.0
 11
-525.330097410555
 21
3.24021530151261
 31
0.0
  0
LINE
  5
   373
  8
0
  6
CONTINUOUS
 62
     7
 10
-473.330105010147
 20
3.24023056030167
 30
0.0
 11
-473.830105010148
 21
3.24023056030167
 31
0.0
  0
LINE
  5
   374
  8
0
  6
CONTINUOUS
 62
     7
 10
-525.330097410555
 20
2.74021530151367
 30
0.0
 11
-525.330097410555
 21
3.24021530151367
 31
0.0
  0
LINE
  5
   375
  8
0
  6
CONTINUOUS
 62
     7
 10
-473.830105010148
 20
2.74021530151367
 30
0.0
 11
-473.830105010148
 21
3.24021530151367
 31
0.0
  0
LINE
  5
   376
  8
0
  6
CONTINUOUS
 62
     7
 10
-473.330097380753
 20
-3.75978469848634
 30
0.0
 11
-473.830105010148
 21
-3.75978469848634
 31
0.0
  0
LINE
  5
   377
  8
0
  6
CONTINUOUS
 62
     7
 10
-473.330105010147
 20
-3.25978469848634
 30
0.0
 11
-473.830105010148
 21
-3.25978469848634
 31
0.0
  0
LINE
  5
   378
  8
0
  6
CONTINUOUS
 62
     7
 10
-525.330097410555
 20
-3.75978469848633
 30
0.0
 11
-525.330097410555
 21
-3.25978469848633
 31
0.0
  0
LINE
  5
   379
  8
0
  6
CONTINUOUS
 62
     7
 10
-473.830105010148
 20
-3.75978469848633
 30
0.0
 11
-473.830105010148
 21
-3.25978469848633
 31
0.0
  0
LINE
  5
   37A
  8
0
  6
CONTINUOUS
 62
     7
 10
-473.330105010147
 20
19.4902153015137
 30
0.0
 11
-473.830105010148
 21
19.4902153015137
 31
0.0
  0
LINE
  5
   37B
  8
0
  6
CONTINUOUS
 62
     7
 10
-473.330105010147
 20
19.9902153015137
 30
0.0
 11
-473.830105010148
 21
19.9902153015137
 31
0.0
  0
LINE
  5
   37C
  8
0
  6
CONTINUOUS
 62
     7
 10
-525.330097410555
 20
19.4902153015137
 30
0.0
 11
-525.330097410555
 21
19.9902153015137
 31
0.0
  0
LINE
  5
   37D
  8
0
  6
CONTINUOUS
 62
     7
 10
-473.830105010148
 20
19.4902153015137
 30
0.0
 11
-473.830105010148
 21
19.9902153015137
 31
0.0
  0
LINE
  5
   37E
  8
0
  6
CONTINUOUS
 62
     7
 10
-504.955101344462
 20
12.9902153015137
 30
0.0
 11
-525.330097410555
 21
12.9902153015137
 31
0.0
  0
LINE
  5
   37F
  8
0
  6
CONTINUOUS
 62
     7
 10
-473.330105010147
 20
12.9902153015137
 30
0.0
 11
-473.830105010148
 21
12.9902153015137
 31
0.0
  0
LINE
  5
   380
  8
0
  6
CONTINUOUS
 62
     7
 10
-504.955097380753
 20
13.4902153015137
 30
0.0
 11
-525.330097410555
 21
13.4902153015137
 31
0.0
  0
LINE
  5
   381
  8
0
  6
CONTINUOUS
 62
     7
 10
-473.330105010147
 20
13.4902153015137
 30
0.0
 11
-473.830105010148
 21
13.4902153015137
 31
0.0
  0
LINE
  5
   382
  8
0
  6
CONTINUOUS
 62
     7
 10
-525.330097410555
 20
12.9902153015137
 30
0.0
 11
-525.330097410555
 21
13.4902153015137
 31
0.0
  0
LINE
  5
   383
  8
0
  6
CONTINUOUS
 62
     7
 10
-473.830105010148
 20
12.9902153015137
 30
0.0
 11
-473.830105010148
 21
13.4902153015137
 31
0.0
  0
ARC
  5
   384
  8
0
  6
CONTINUOUS
 62
     7
 10
-525.580097380753
 20
-12.7597770690918
 30
0.0
 40
0.25
 50
179.999999948034
 51
269.999999948034
  0
ARC
  5
   385
  8
0
  6
CONTINUOUS
 62
     7
 10
-473.580097380753
 20
-12.7597770690918
 30
0.0
 40
0.25
 50
269.999999948034
 51
359.999999948034
  0
ARC
  5
   386
  8
0
  6
CONTINUOUS
 62
     7
 10
-473.580097380753
 20
39.2402229309082
 30
0.0
 40
0.25
 50
359.999999948034
 51
449.999999948034
  0
ARC
  5
   387
  8
0
  6
CONTINUOUS
 62
     7
 10
-525.580097380739
 20
39.2402229309082
 30
0.0
 40
0.25
 50
449.999999948034
 51
539.999999948034
  0
INSERT
  5
   388
  8
255
  6
CONTINUOUS
 62
     7
  2
ON-OFF
 10
-489.580102263566
 20
16.4902153015137
 30
0.0
 41
0.5
 42
0.5
 50
359.999999792137
 43
0.5
  0
LINE
  5
   389
  8
0
  6
CONTINUOUS
 62
     7
 10
-510.830097380753
 20
18.7402153015137
 30
0.0
 11
-511.580097380753
 21
18.7402153015137
 31
0.0
  0
LINE
  5
   38A
  8
0
  6
CONTINUOUS
 62
     7
 10
-510.830097380753
 20
14.2402153015137
 30
0.0
 11
-511.580097380753
 21
14.2402153015137
 31
0.0
  0
CIRCLE
  5
   38B
  8
0
  6
CONTINUOUS
 62
     7
 10
-511.205097380753
 20
-0.259784698486314
 30
0.0
 40
2.25
  0
CIRCLE
  5
   38C
  8
0
  6
CONTINUOUS
 62
     7
 10
-511.205097380753
 20
-0.259784698486314
 30
0.0
 40
1.5
  0
LINE
  5
   38D
  8
0
  6
CONTINUOUS
 62
     7
 10
-511.580097380753
 20
14.2402153015137
 30
0.0
 11
-511.580097380753
 21
18.7402153015137
 31
0.0
  0
LINE
  5
   38E
  8
0
  6
CONTINUOUS
 62
     7
 10
-510.830097380753
 20
14.2402153015137
 30
0.0
 11
-510.830097380753
 21
18.7402153015137
 31
0.0
  0
LINE
  5
   38F
  8
0
  6
CONTINUOUS
 62
     7
 10
-506.330097380753
 20
-3.25978469848633
 30
0.0
 11
-506.330097380753
 21
2.74022244609643
 31
0.0
  0
LINE
  5
   390
  8
0
  6
CONTINUOUS
 62
     7
 10
-492.830097380753
 20
-3.25978469848633
 30
0.0
 11
-492.830097380753
 21
2.7402184694733
 31
0.0
  0
LINE
  5
   391
  8
0
  6
CONTINUOUS
 62
     7
 10
-492.830097380753
 20
13.4902153015137
 30
0.0
 11
-492.830097380753
 21
19.4902153015137
 31
0.0
  0
LINE
  5
   392
  8
0
  6
CONTINUOUS
 62
     7
 10
-506.330097380753
 20
13.4902153015137
 30
0.0
 11
-506.330097380753
 21
19.4902153015137
 31
0.0
  0
LINE
  5
   393
  8
0
  6
CONTINUOUS
 62
     7
 10
-494.205097380753
 20
2.70485847923405
 30
0.0
 11
-504.955097380753
 21
2.70485847923405
 31
0.0
  0
LINE
  5
   394
  8
0
  6
CONTINUOUS
 62
     7
 10
-494.205097380753
 20
-1.25561769781392
 30
0.0
 11
-504.955097380753
 21
-1.25561769781392
 31
0.0
  0
LINE
  5
   395
  8
0
  6
CONTINUOUS
 62
     7
 10
-494.205097380753
 20
2.70485812850698
 30
0.0
 11
-504.955097380753
 21
2.70485812850698
 31
0.0
  0
LINE
  5
   396
  8
0
  6
CONTINUOUS
 62
     7
 10
-494.205097380753
 20
5.17791871647882
 30
0.0
 11
-504.955097380753
 21
5.17791871647882
 31
0.0
  0
LINE
  5
   397
  8
0
  6
CONTINUOUS
 62
     7
 10
-474.080127964876
 20
61.1152076721191
 30
0.0
 11
-525.080127964877
 21
61.1152076721191
 31
0.0
  0
LINE
  5
   398
  8
0
  6
CONTINUOUS
 62
     7
 10
-525.080125935545
 20
53.4902038574199
 30
0.0
 11
-525.080127964877
 21
61.1152076721191
 31
0.0
  0
LINE
  5
   399
  8
0
  6
CONTINUOUS
 62
     7
 10
-474.080125935543
 20
53.4902038574199
 30
0.0
 11
-474.080127964876
 21
61.1152076721191
 31
0.0
  0
LINE
  5
   39A
  8
0
  6
CONTINUOUS
 62
     7
 10
-525.330097410555
 20
19.9902153015137
 30
0.0
 11
-525.830097380739
 21
19.9902153015137
 31
0.0
  0
LINE
  5
   39B
  8
0
  6
CONTINUOUS
 62
     7
 10
-525.330097410555
 20
19.4902153015137
 30
0.0
 11
-525.83009738075
 21
19.4902153015137
 31
0.0
  0
LINE
  5
   39C
  8
0
  6
CONTINUOUS
 62
     7
 10
-525.330097410555
 20
13.4902153015137
 30
0.0
 11
-525.83009738075
 21
13.4902153015137
 31
0.0
  0
LINE
  5
   39D
  8
0
  6
CONTINUOUS
 62
     7
 10
-525.330097410555
 20
12.9902153015137
 30
0.0
 11
-525.830097380764
 21
12.9902153015137
 31
0.0
  0
LINE
  5
   39E
  8
0
  6
CONTINUOUS
 62
     7
 10
-525.330097410555
 20
3.24021530151261
 30
0.0
 11
-525.830097380764
 21
3.24021530151261
 31
0.0
  0
LINE
  5
   39F
  8
0
  6
CONTINUOUS
 62
     7
 10
-525.330097410555
 20
2.74021530151264
 30
0.0
 11
-525.830097380755
 21
2.74021530151264
 31
0.0
  0
LINE
  5
   3A0
  8
0
  6
CONTINUOUS
 62
     7
 10
-525.330097410555
 20
-3.25978469848634
 30
0.0
 11
-525.830097380755
 21
-3.25978469848634
 31
0.0
  0
LINE
  5
   3A1
  8
0
  6
CONTINUOUS
 62
     7
 10
-525.330097410555
 20
-3.75978469848634
 30
0.0
 11
-525.830097380753
 21
-3.75978469848634
 31
0.0
  0
LINE
  5
   3A2
  8
0
  6
CONTINUOUS
 62
     7
 10
-473.830105010148
 20
-3.25978469848634
 30
0.0
 11
-525.330097410555
 21
-3.25978469848634
 31
0.0
  0
LINE
  5
   3A3
  8
0
  6
CONTINUOUS
 62
     7
 10
-473.830105010148
 20
-3.75978469848634
 30
0.0
 11
-525.330097410555
 21
-3.75978469848634
 31
0.0
  0
LINE
  5
   3A4
  8
0
  6
CONTINUOUS
 62
     7
 10
-473.830105010148
 20
3.24023056030167
 30
0.0
 11
-494.205098873132
 21
3.24023056030167
 31
0.0
  0
LINE
  5
   3A5
  8
0
  6
CONTINUOUS
 62
     7
 10
-473.830105010148
 20
2.7402305603017
 30
0.0
 11
-494.205099056327
 21
2.7402305603017
 31
0.0
  0
LINE
  5
   3A6
  8
0
  6
CONTINUOUS
 62
     7
 10
-473.830105010148
 20
13.4902153015137
 30
0.0
 11
-494.205097380753
 21
13.4902153015137
 31
0.0
  0
LINE
  5
   3A7
  8
0
  6
CONTINUOUS
 62
     7
 10
-473.830105010148
 20
12.9902153015137
 30
0.0
 11
-494.205097380753
 21
12.9902153015137
 31
0.0
  0
LINE
  5
   3A8
  8
0
  6
CONTINUOUS
 62
     7
 10
-473.830105010148
 20
19.9902153015137
 30
0.0
 11
-525.330097410555
 21
19.9902153015137
 31
0.0
  0
LINE
  5
   3A9
  8
0
  6
CONTINUOUS
 62
     7
 10
-473.830105010148
 20
19.4902153015137
 30
0.0
 11
-525.330097410555
 21
19.4902153015137
 31
0.0
  0
LINE
  5
   3AA
  8
0
  6
CONTINUOUS
 62
     7
 10
-533.830120413106
 20
32.7402214449445
 30
0.0
 11
-533.830121078461
 21
35.2402214449444
 31
0.0
  0
LINE
  5
   3AB
  8
0
  6
CONTINUOUS
 62
     7
 10
-532.580120413106
 20
32.740230560303
 30
0.0
 11
-533.830120413106
 21
32.740230560303
 31
0.0
  0
LINE
  5
   3AC
  8
0
  6
CONTINUOUS
 62
     7
 10
-532.580120413106
 20
32.7402217776218
 30
0.0
 11
-532.580121078461
 21
35.2402217776217
 31
0.0
  0
LINE
  5
   3AD
  8
0
  6
CONTINUOUS
 62
     7
 10
-532.580121078461
 20
35.2402305603029
 30
0.0
 11
-533.830121078461
 21
35.2402305603029
 31
0.0
  0
LINE
  5
   3AE
  8
0
  6
CONTINUOUS
 62
     7
 10
-533.830107970975
 20
-14.0097785550539
 30
0.0
 11
-533.830109168613
 21
-9.50977855505403
 31
0.0
  0
LINE
  5
   3AF
  8
0
  6
CONTINUOUS
 62
     7
 10
-532.580107970975
 20
-14.0097694396954
 30
0.0
 11
-533.830107970975
 21
-14.0097694396954
 31
0.0
  0
LINE
  5
   3B0
  8
0
  6
CONTINUOUS
 62
     7
 10
-532.580112421438
 20
-14.0097785907924
 30
0.0
 11
-532.58012124847
 21
-9.50977859079461
 31
0.0
  0
LINE
  5
   3B1
  8
0
  6
CONTINUOUS
 62
     7
 10
-532.580116798007
 20
-9.50976943969554
 30
0.0
 11
-533.830109168613
 21
-9.50976943969554
 31
0.0
  0
LINE
  5
   3B2
  8
0
  6
CONTINUOUS
 62
     7
 10
-533.830108237114
 20
-13.0097770690899
 30
0.0
 11
-543.080108237114
 21
-13.0097770690899
 31
0.0
  0
LINE
  5
   3B3
  8
0
  6
CONTINUOUS
 62
     2
 10
-543.330101483766
 20
-38.3847846984861
 30
0.0
 11
-543.330122209561
 21
39.4902112872021
 31
0.0
  0
LINE
  5
   3B4
  8
0
  6
CONTINUOUS
 62
     2
 10
-543.330122209561
 20
39.4902112872021
 30
0.0
 11
-543.330128630236
 21
63.6152189165958
 31
0.0
  0
LINE
  5
   3B5
  8
0
  6
CONTINUOUS
 62
     7
 10
-533.080107970975
 20
-14.0097783554475
 30
0.0
 11
-533.080109168613
 21
-9.50977835544764
 31
0.0
  0
LINE
  5
   3B6
  8
0
  6
CONTINUOUS
 62
     7
 10
-533.080120413106
 20
32.7402216445509
 30
0.0
 11
-533.080121078461
 21
35.2402216445508
 31
0.0
  0
LINE
  5
   3B7
  8
0
  6
CONTINUOUS
 62
     7
 10
-534.105109762995
 20
-13.0097786282433
 30
0.0
 11
-534.105123735441
 21
39.4902137423603
 31
0.0
  0
LINE
  5
   3B8
  8
0
  6
CONTINUOUS
 62
     7
 10
-535.905108523219
 20
-13.0097791072983
 30
0.0
 11
-535.905122495664
 21
39.4902132633053
 31
0.0
  0
LINE
  5
   3B9
  8
0
  6
CONTINUOUS
 62
     7
 10
-537.705108713953
 20
-13.0097795863537
 30
0.0
 11
-537.705122686399
 21
39.4902127842499
 31
0.0
  0
LINE
  5
   3BA
  8
0
  6
CONTINUOUS
 62
     7
 10
-539.505101541431
 20
-38.8847770690918
 30
0.0
 11
-539.505122400296
 21
39.4902123051946
 31
0.0
  0
LINE
  5
   3BB
  8
0
  6
CONTINUOUS
 62
     7
 10
-530.505111288874
 20
-13.009777670133
 30
0.0
 11
-530.50512526132
 21
39.4902147004706
 31
0.0
  0
LINE
  5
   3BC
  8
0
  6
CONTINUOUS
 62
     7
 10
-532.305114340632
 20
-13.0097781491892
 30
0.0
 11
-532.305128313077
 21
39.4902142214144
 31
0.0
  0
LINE
  5
   3BD
  8
0
  6
CONTINUOUS
 62
     7
 10
-526.905105928333
 20
-38.8847770690918
 30
0.0
 11
-526.905109088763
 21
-27.0097942352314
 31
0.0
  0
LINE
  5
   3BE
  8
0
  6
CONTINUOUS
 62
     7
 10
-528.705108980091
 20
-38.8847770690918
 30
0.0
 11
-528.705112207046
 21
-26.7598343970911
 31
0.0
  0
LINE
  5
   3BF
  8
0
  6
CONTINUOUS
 62
     7
 10
-537.705101760998
 20
-39.1347770690918
 30
0.0
 11
-537.705108713954
 21
-13.0097791393189
 31
0.0
  0
LINE
  5
   3C0
  8
0
  6
CONTINUOUS
 62
     7
 10
-534.105102876575
 20
-38.8847770690918
 30
0.0
 11
-534.105109762996
 21
-13.0097781812085
 31
0.0
  0
LINE
  5
   3C1
  8
0
  6
CONTINUOUS
 62
     7
 10
-535.905101636799
 20
-38.8847770690918
 30
0.0
 11
-535.905108523219
 21
-13.0097786602635
 31
0.0
  0
LINE
  5
   3C2
  8
0
  6
CONTINUOUS
 62
     7
 10
-530.505104402454
 20
-38.8847770690918
 30
0.0
 11
-530.505111288875
 21
-13.0097772230982
 31
0.0
  0
LINE
  5
   3C3
  8
0
  6
CONTINUOUS
 62
     7
 10
-532.305107454212
 20
-38.8847770690918
 30
0.0
 11
-532.305114340632
 21
-13.0097777021544
 31
0.0
  0
LINE
  5
   3C4
  8
0
  6
CONTINUOUS
 62
     7
 10
-526.905130513182
 20
53.49020385742
 30
0.0
 11
-526.905133207871
 21
63.6152156585799
 31
0.0
  0
LINE
  5
   3C5
  8
0
  6
CONTINUOUS
 62
     7
 10
-528.705133498407
 20
53.2402156338695
 30
0.0
 11
-528.705136259629
 21
63.6152151795238
 31
0.0
  0
LINE
  5
   3C6
  8
0
  6
CONTINUOUS
 62
     7
 10
-530.50512526132
 20
39.4902147004706
 30
0.0
 11
-530.505131681992
 21
63.6152147004697
 31
0.0
  0
LINE
  5
   3C7
  8
0
  6
CONTINUOUS
 62
     7
 10
-532.305128313077
 20
39.4902142214144
 30
0.0
 11
-532.30513473375
 21
63.6152142214135
 31
0.0
  0
LINE
  5
   3C8
  8
0
  6
CONTINUOUS
 62
     7
 10
-534.105123735441
 20
39.4902137423603
 30
0.0
 11
-534.105130156113
 21
63.6152137423594
 31
0.0
  0
LINE
  5
   3C9
  8
0
  6
CONTINUOUS
 62
     7
 10
-535.905122495664
 20
39.4902132633053
 30
0.0
 11
-535.905128916336
 21
63.6152132633044
 31
0.0
  0
LINE
  5
   3CA
  8
0
  6
CONTINUOUS
 62
     7
 10
-537.705122686399
 20
39.4902127842499
 30
0.0
 11
-537.705129107071
 21
63.615212784249
 31
0.0
  0
LINE
  5
   3CB
  8
0
  6
CONTINUOUS
 62
     7
 10
-539.505122400296
 20
39.4902123051946
 30
0.0
 11
-539.505128820969
 21
63.6152123051938
 31
0.0
  0
ARC
  5
   3CC
  8
0
  6
CONTINUOUS
 62
     7
 10
-543.080122143026
 20
39.2402113537376
 30
0.0
 40
0.25
 50
90.0000151968393
 51
180.000015196839
  0
ARC
  5
   3CD
  8
0
  6
CONTINUOUS
 62
     2
 10
-473.580129772423
 20
39.2402298505944
 30
0.0
 40
0.25
 50
360.000015196839
 51
450.000015196839
  0
ARC
  5
   3CE
  8
0
  6
CONTINUOUS
 62
     7
 10
-543.08010830365
 20
-12.7597886462606
 30
0.0
 40
0.25
 50
180.000015196839
 51
270.000015196839
  0
LINE
  5
   3CF
  8
0
  6
CONTINUOUS
 62
     7
 10
-528.830142330961
 20
39.4902113537376
 30
0.0
 11
-543.080122143026
 21
39.4902113537376
 31
0.0
  0
LINE
  5
   3D0
  8
0
  6
CONTINUOUS
 62
     7
 10
-528.830142330961
 20
-13.0097770690918
 30
0.0
 11
-532.580114383004
 21
-13.0097770690918
 31
0.0
  0
LINE
  5
   3D1
  8
0
  6
CONTINUOUS
 62
     7
 10
-528.830142330961
 20
-21.1347770690918
 30
0.0
 11
-543.330097380753
 21
-21.1347770690918
 31
0.0
  0
LINE
  5
   3D2
  8
0
  6
CONTINUOUS
 62
   130
 10
-487.080146789551
 20
77.1151618957516
 30
0.0
 11
-487.080146789551
 21
78.6152153015137
 31
0.0
  0
LINE
  5
   3D3
  8
0
  6
CONTINUOUS
 62
   130
 10
-486.455146789551
 20
78.6152153015137
 30
0.0
 11
-487.080146789551
 21
78.6152153015137
 31
0.0
  0
LINE
  5
   3D4
  8
0
  6
CONTINUOUS
 62
   130
 10
-486.455146789551
 20
78.6152153015137
 30
0.0
 11
-486.455146789551
 21
88.6152076721191
 31
0.0
  0
LINE
  5
   3D5
  8
0
  6
CONTINUOUS
 62
   130
 10
-477.705146789551
 20
88.6152076721191
 30
0.0
 11
-486.455146789551
 21
88.6152076721191
 31
0.0
  0
LINE
  5
   3D6
  8
0
  6
CONTINUOUS
 62
   130
 10
-477.705146789551
 20
78.6152153015137
 30
0.0
 11
-477.705146789551
 21
88.6152076721191
 31
0.0
  0
LINE
  5
   3D7
  8
0
  6
CONTINUOUS
 62
   130
 10
-477.080146789551
 20
78.6152153015137
 30
0.0
 11
-477.705146789551
 21
78.6152153015137
 31
0.0
  0
LINE
  5
   3D8
  8
0
  6
CONTINUOUS
 62
   130
 10
-477.080146789551
 20
77.1151618957516
 30
0.0
 11
-477.080146789551
 21
78.6152153015137
 31
0.0
  0
LINE
  5
   3D9
  8
0
  6
CONTINUOUS
 62
   130
 10
-504.580146789551
 20
77.1151618957516
 30
0.0
 11
-504.580146789551
 21
78.6152153015137
 31
0.0
  0
LINE
  5
   3DA
  8
0
  6
CONTINUOUS
 62
   130
 10
-503.955146789551
 20
78.6152153015137
 30
0.0
 11
-504.580146789551
 21
78.6152153015137
 31
0.0
  0
LINE
  5
   3DB
  8
0
  6
CONTINUOUS
 62
   130
 10
-503.955146789551
 20
78.6152153015137
 30
0.0
 11
-503.955146789551
 21
88.6152076721191
 31
0.0
  0
LINE
  5
   3DC
  8
0
  6
CONTINUOUS
 62
   130
 10
-495.205146789551
 20
88.6152076721191
 30
0.0
 11
-503.955146789551
 21
88.6152076721191
 31
0.0
  0
LINE
  5
   3DD
  8
0
  6
CONTINUOUS
 62
   130
 10
-495.205146789551
 20
78.6152153015137
 30
0.0
 11
-495.205146789551
 21
88.6152076721191
 31
0.0
  0
LINE
  5
   3DE
  8
0
  6
CONTINUOUS
 62
   130
 10
-494.580146789551
 20
78.6152153015137
 30
0.0
 11
-495.205146789551
 21
78.6152153015137
 31
0.0
  0
LINE
  5
   3DF
  8
0
  6
CONTINUOUS
 62
   130
 10
-494.580146789551
 20
77.1151618957516
 30
0.0
 11
-494.580146789551
 21
78.6152153015137
 31
0.0
  0
LINE
  5
   3E0
  8
0
  6
CONTINUOUS
 62
   130
 10
-522.080146789551
 20
77.1151618957516
 30
0.0
 11
-522.080146789551
 21
78.6152153015137
 31
0.0
  0
LINE
  5
   3E1
  8
0
  6
CONTINUOUS
 62
   130
 10
-521.455146789551
 20
78.6152153015137
 30
0.0
 11
-522.080146789551
 21
78.6152153015137
 31
0.0
  0
LINE
  5
   3E2
  8
0
  6
CONTINUOUS
 62
   130
 10
-521.455146789551
 20
78.6152153015137
 30
0.0
 11
-521.455146789551
 21
88.6152076721191
 31
0.0
  0
LINE
  5
   3E3
  8
0
  6
CONTINUOUS
 62
   130
 10
-512.705146789551
 20
88.6152076721191
 30
0.0
 11
-521.455146789551
 21
88.6152076721191
 31
0.0
  0
LINE
  5
   3E4
  8
0
  6
CONTINUOUS
 62
   130
 10
-512.705146789551
 20
78.6152153015137
 30
0.0
 11
-512.705146789551
 21
88.6152076721191
 31
0.0
  0
LINE
  5
   3E5
  8
0
  6
CONTINUOUS
 62
   130
 10
-512.080146789551
 20
78.6152153015137
 30
0.0
 11
-512.705146789551
 21
78.6152153015137
 31
0.0
  0
LINE
  5
   3E6
  8
0
  6
CONTINUOUS
 62
   130
 10
-512.080146789551
 20
77.1151618957516
 30
0.0
 11
-512.080146789551
 21
78.6152153015137
 31
0.0
  0
LINE
  5
   3E7
  8
0
  6
CONTINUOUS
 62
   130
 10
-539.580146789551
 20
77.1151618957516
 30
0.0
 11
-539.580146789551
 21
78.6152153015137
 31
0.0
  0
LINE
  5
   3E8
  8
0
  6
CONTINUOUS
 62
   130
 10
-538.955146789551
 20
78.6152153015137
 30
0.0
 11
-539.580146789551
 21
78.6152153015137
 31
0.0
  0
LINE
  5
   3E9
  8
0
  6
CONTINUOUS
 62
   130
 10
-538.955146789551
 20
78.6152153015137
 30
0.0
 11
-538.955146789551
 21
88.6152076721191
 31
0.0
  0
LINE
  5
   3EA
  8
0
  6
CONTINUOUS
 62
   130
 10
-530.205146789551
 20
88.6152076721191
 30
0.0
 11
-538.955146789551
 21
88.6152076721191
 31
0.0
  0
LINE
  5
   3EB
  8
0
  6
CONTINUOUS
 62
   130
 10
-530.205146789551
 20
78.6152153015137
 30
0.0
 11
-530.205146789551
 21
88.6152076721191
 31
0.0
  0
LINE
  5
   3EC
  8
0
  6
CONTINUOUS
 62
   130
 10
-529.580146789551
 20
78.6152153015137
 30
0.0
 11
-530.205146789551
 21
78.6152153015137
 31
0.0
  0
LINE
  5
   3ED
  8
0
  6
CONTINUOUS
 62
   130
 10
-529.580146789551
 20
77.1151618957516
 30
0.0
 11
-529.580146789551
 21
78.6152153015137
 31
0.0
  0
LINE
  5
   3EE
  8
0
  6
CONTINUOUS
 62
   130
 10
-539.580146789551
 20
-53.8847999572754
 30
0.0
 11
-539.580146789551
 21
-52.3847770690915
 31
0.0
  0
LINE
  5
   3EF
  8
0
  6
CONTINUOUS
 62
   130
 10
-538.955146789551
 20
-53.8847999572754
 30
0.0
 11
-539.580146789551
 21
-53.8847999572754
 31
0.0
  0
LINE
  5
   3F0
  8
0
  6
CONTINUOUS
 62
   130
 10
-538.955146789551
 20
-63.8847999572754
 30
0.0
 11
-538.955146789551
 21
-53.8847999572754
 31
0.0
  0
LINE
  5
   3F1
  8
0
  6
CONTINUOUS
 62
   130
 10
-530.205146789551
 20
-63.8847999572754
 30
0.0
 11
-538.955146789551
 21
-63.8847999572754
 31
0.0
  0
LINE
  5
   3F2
  8
0
  6
CONTINUOUS
 62
   130
 10
-530.205146789551
 20
-63.8847999572754
 30
0.0
 11
-530.205146789551
 21
-53.8847999572754
 31
0.0
  0
LINE
  5
   3F3
  8
0
  6
CONTINUOUS
 62
   130
 10
-529.580146789551
 20
-53.8847999572754
 30
0.0
 11
-530.205146789551
 21
-53.8847999572754
 31
0.0
  0
LINE
  5
   3F4
  8
0
  6
CONTINUOUS
 62
   130
 10
-529.580146789551
 20
-53.8847999572754
 30
0.0
 11
-529.580146789551
 21
-52.3847770690915
 31
0.0
  0
LINE
  5
   3F5
  8
0
  6
CONTINUOUS
 62
   130
 10
-522.080146789551
 20
-53.8847999572754
 30
0.0
 11
-522.080146789551
 21
-52.3847770690915
 31
0.0
  0
LINE
  5
   3F6
  8
0
  6
CONTINUOUS
 62
   130
 10
-521.455146789551
 20
-53.8847999572754
 30
0.0
 11
-522.080146789551
 21
-53.8847999572754
 31
0.0
  0
LINE
  5
   3F7
  8
0
  6
CONTINUOUS
 62
   130
 10
-521.455146789551
 20
-63.8847999572754
 30
0.0
 11
-521.455146789551
 21
-53.8847999572754
 31
0.0
  0
LINE
  5
   3F8
  8
0
  6
CONTINUOUS
 62
   130
 10
-512.705146789551
 20
-63.8847999572754
 30
0.0
 11
-521.455146789551
 21
-63.8847999572754
 31
0.0
  0
LINE
  5
   3F9
  8
0
  6
CONTINUOUS
 62
   130
 10
-512.705146789551
 20
-63.8847999572754
 30
0.0
 11
-512.705146789551
 21
-53.8847999572754
 31
0.0
  0
LINE
  5
   3FA
  8
0
  6
CONTINUOUS
 62
   130
 10
-512.080146789551
 20
-53.8847999572754
 30
0.0
 11
-512.705146789551
 21
-53.8847999572754
 31
0.0
  0
LINE
  5
   3FB
  8
0
  6
CONTINUOUS
 62
   130
 10
-512.080146789551
 20
-53.8847999572754
 30
0.0
 11
-512.080146789551
 21
-52.3847770690915
 31
0.0
  0
LINE
  5
   3FC
  8
0
  6
CONTINUOUS
 62
   130
 10
-504.580146789551
 20
-53.8847999572754
 30
0.0
 11
-504.580146789551
 21
-52.3847770690915
 31
0.0
  0
LINE
  5
   3FD
  8
0
  6
CONTINUOUS
 62
   130
 10
-503.955146789551
 20
-53.8847999572754
 30
0.0
 11
-504.580146789551
 21
-53.8847999572754
 31
0.0
  0
LINE
  5
   3FE
  8
0
  6
CONTINUOUS
 62
   130
 10
-503.955146789551
 20
-63.8847999572754
 30
0.0
 11
-503.955146789551
 21
-53.8847999572754
 31
0.0
  0
LINE
  5
   3FF
  8
0
  6
CONTINUOUS
 62
   130
 10
-495.205146789551
 20
-63.8847999572754
 30
0.0
 11
-503.955146789551
 21
-63.8847999572754
 31
0.0
  0
LINE
  5
   400
  8
0
  6
CONTINUOUS
 62
   130
 10
-495.205146789551
 20
-63.8847999572754
 30
0.0
 11
-495.205146789551
 21
-53.8847999572754
 31
0.0
  0
LINE
  5
   401
  8
0
  6
CONTINUOUS
 62
   130
 10
-494.580146789551
 20
-53.8847999572754
 30
0.0
 11
-495.205146789551
 21
-53.8847999572754
 31
0.0
  0
LINE
  5
   402
  8
0
  6
CONTINUOUS
 62
   130
 10
-494.580146789551
 20
-53.8847999572754
 30
0.0
 11
-494.580146789551
 21
-52.3847770690915
 31
0.0
  0
LINE
  5
   403
  8
0
  6
CONTINUOUS
 62
     3
 10
-487.080146789551
 20
-53.8847999572754
 30
0.0
 11
-487.080146789551
 21
-52.3847770690915
 31
0.0
  0
LINE
  5
   404
  8
0
  6
CONTINUOUS
 62
     3
 10
-486.455146789551
 20
-53.8847999572754
 30
0.0
 11
-487.080146789551
 21
-53.8847999572754
 31
0.0
  0
LINE
  5
   405
  8
0
  6
CONTINUOUS
 62
     3
 10
-486.455146789551
 20
-63.8847999572754
 30
0.0
 11
-486.455146789551
 21
-53.8847999572754
 31
0.0
  0
LINE
  5
   406
  8
0
  6
CONTINUOUS
 62
     3
 10
-477.705146789551
 20
-63.8847999572754
 30
0.0
 11
-486.455146789551
 21
-63.8847999572754
 31
0.0
  0
LINE
  5
   407
  8
0
  6
CONTINUOUS
 62
     3
 10
-477.705146789551
 20
-63.8847999572754
 30
0.0
 11
-477.705146789551
 21
-53.8847999572754
 31
0.0
  0
LINE
  5
   408
  8
0
  6
CONTINUOUS
 62
     3
 10
-477.080146789551
 20
-53.8847999572754
 30
0.0
 11
-477.705146789551
 21
-53.8847999572754
 31
0.0
  0
LINE
  5
   409
  8
0
  6
CONTINUOUS
 62
     3
 10
-477.080146789551
 20
-53.8847999572754
 30
0.0
 11
-477.080146789551
 21
-52.3847770690915
 31
0.0
  0
CIRCLE
  5
   40A
  8
0
  6
CONTINUOUS
 62
   130
 10
-534.580123233185
 20
83.615192123619
 30
0.0
 40
2.05001918754419
  0
CIRCLE
  5
   40B
  8
0
  6
CONTINUOUS
 62
   130
 10
-517.080167396443
 20
83.6151789230014
 30
0.0
 40
2.0499262201634
  0
CIRCLE
  5
   40C
  8
0
  6
CONTINUOUS
 62
   130
 10
-499.580183870555
 20
83.6151728285693
 30
0.0
 40
2.04999779897625
  0
CIRCLE
  5
   40D
  8
0
  6
CONTINUOUS
 62
   130
 10
-482.080299094851
 20
83.6153187482767
 30
0.0
 40
2.05018689334453
  0
CIRCLE
  5
   40E
  8
0
  6
CONTINUOUS
 62
   130
 10
-534.58014348256
 20
-58.8847957454955
 30
0.0
 40
2.05000121544625
  0
CIRCLE
  5
   40F
  8
0
  6
CONTINUOUS
 62
   130
 10
-517.080150286589
 20
-58.8848056955993
 30
0.0
 40
2.04999048389783
  0
CIRCLE
  5
   410
  8
0
  6
CONTINUOUS
 62
   130
 10
-499.580148502493
 20
-58.8848153480934
 30
0.0
 40
2.04999657719858
  0
CIRCLE
  5
   411
  8
0
  6
CONTINUOUS
 62
     3
 10
-482.080126133856
 20
-58.8848112796458
 30
0.0
 40
2.04999681770493
  0
LINE
  5
   412
  8
0
  6
DASHDOT
 62
     7
 10
-482.080126133856
 20
-61.9348080973507
 30
0.0
 11
-482.080126133856
 21
-55.8348144619409
 31
0.0
  0
LINE
  5
   413
  8
0
  6
DASHDOT
 62
     7
 10
-479.030129316151
 20
-58.8848112796458
 30
0.0
 11
-485.130122951561
 21
-58.8848112796458
 31
0.0
  0
LINE
  5
   414
  8
0
  6
CONTINUOUS
 62
     7
 10
-473.95512611578
 20
-52.3847770690915
 30
0.0
 11
-542.705118171784
 21
-52.3847770690915
 31
0.0
  0
LINE
  5
   415
  8
0
  6
CONTINUOUS
 62
     7
 10
-473.830118504462
 20
-37.8847846984911
 30
0.0
 11
-542.830118504462
 21
-37.8847846984911
 31
0.0
  0
LINE
  5
   416
  8
0
  6
CONTINUOUS
 62
     7
 10
-473.330118504476
 20
-51.7597770690915
 30
0.0
 11
-473.330118504476
 21
-38.3847847264715
 31
0.0
  0
LINE
  5
   417
  8
0
  6
CONTINUOUS
 62
     7
 10
-543.330118504462
 20
-51.7597770690915
 30
0.0
 11
-543.330118504462
 21
-38.3847846984861
 31
0.0
  0
LINE
  5
   418
  8
0
  6
CONTINUOUS
 62
     7
 10
-473.455118504462
 20
-38.3847846984861
 30
0.0
 11
-543.205118504462
 21
-38.3847846984861
 31
0.0
  0
LINE
  5
   419
  8
0
  6
CONTINUOUS
 62
     7
 10
-473.830118504462
 20
-38.3847846984927
 30
0.0
 11
-473.830118504462
 21
-37.8847846984927
 31
0.0
  0
LINE
  5
   41A
  8
0
  6
CONTINUOUS
 62
     7
 10
-473.330118504462
 20
-38.3847846984861
 30
0.0
 11
-473.455118504462
 21
-38.3847846984861
 31
0.0
  0
LINE
  5
   41B
  8
0
  6
CONTINUOUS
 62
     7
 10
-542.830118504462
 20
-38.3847846984911
 30
0.0
 11
-542.830118504462
 21
-37.8847846984911
 31
0.0
  0
LINE
  5
   41C
  8
0
  6
CONTINUOUS
 62
     7
 10
-543.205118534264
 20
-38.3847846984861
 30
0.0
 11
-543.330118504462
 21
-38.3847846984861
 31
0.0
  0
LINE
  5
   41D
  8
0
  6
CONTINUOUS
 62
     7
 10
-539.50511821836
 20
-52.3847770690915
 30
0.0
 11
-539.50511821836
 21
-38.3847846984861
 31
0.0
  0
LINE
  5
   41E
  8
0
  6
CONTINUOUS
 62
     7
 10
-537.705118504462
 20
-52.3847770690915
 30
0.0
 11
-537.705118504462
 21
-38.3847846984861
 31
0.0
  0
LINE
  5
   41F
  8
0
  6
CONTINUOUS
 62
     7
 10
-535.905118313727
 20
-52.3847770690915
 30
0.0
 11
-535.905118313727
 21
-38.3847846984861
 31
0.0
  0
LINE
  5
   420
  8
0
  6
CONTINUOUS
 62
     7
 10
-534.105120030341
 20
-52.3847770690915
 30
0.0
 11
-534.105120030341
 21
-38.3847846984861
 31
0.0
  0
LINE
  5
   421
  8
0
  6
CONTINUOUS
 62
     7
 10
-532.305124607977
 20
-52.3847770690915
 30
0.0
 11
-532.305124607977
 21
-38.3847846984861
 31
0.0
  0
LINE
  5
   422
  8
0
  6
CONTINUOUS
 62
     7
 10
-530.50512155622
 20
-52.3847770690915
 30
0.0
 11
-530.50512155622
 21
-38.3847846984861
 31
0.0
  0
LINE
  5
   423
  8
0
  6
CONTINUOUS
 62
     7
 10
-528.705118504462
 20
-52.3847770690915
 30
0.0
 11
-528.705118504462
 21
-38.3847846984861
 31
0.0
  0
LINE
  5
   424
  8
0
  6
CONTINUOUS
 62
     7
 10
-526.905123082099
 20
-52.3847770690915
 30
0.0
 11
-526.905123082099
 21
-38.3847846984861
 31
0.0
  0
LINE
  5
   425
  8
0
  6
CONTINUOUS
 62
     7
 10
-525.105120030341
 20
-52.3847770690915
 30
0.0
 11
-525.105120030341
 21
-38.3847846984861
 31
0.0
  0
LINE
  5
   426
  8
0
  6
CONTINUOUS
 62
     7
 10
-523.305124607977
 20
-52.3847770690915
 30
0.0
 11
-523.305124607977
 21
-38.3847846984861
 31
0.0
  0
LINE
  5
   427
  8
0
  6
CONTINUOUS
 62
     7
 10
-521.50512155622
 20
-52.3847770690915
 30
0.0
 11
-521.50512155622
 21
-38.3847846984861
 31
0.0
  0
LINE
  5
   428
  8
0
  6
CONTINUOUS
 62
     7
 10
-519.705118504462
 20
-52.3847770690915
 30
0.0
 11
-519.705118504462
 21
-38.3847846984861
 31
0.0
  0
LINE
  5
   429
  8
0
  6
CONTINUOUS
 62
     7
 10
-517.905123082099
 20
-52.3847770690915
 30
0.0
 11
-517.905123082099
 21
-38.3847846984861
 31
0.0
  0
LINE
  5
   42A
  8
0
  6
CONTINUOUS
 62
     7
 10
-516.105120030341
 20
-52.3847770690915
 30
0.0
 11
-516.105120030341
 21
-38.3847846984861
 31
0.0
  0
LINE
  5
   42B
  8
0
  6
CONTINUOUS
 62
     7
 10
-514.305124607978
 20
-52.3847770690915
 30
0.0
 11
-514.305124607978
 21
-38.3847846984861
 31
0.0
  0
LINE
  5
   42C
  8
0
  6
CONTINUOUS
 62
     7
 10
-512.50512155622
 20
-52.3847770690915
 30
0.0
 11
-512.50512155622
 21
-38.3847846984861
 31
0.0
  0
LINE
  5
   42D
  8
0
  6
CONTINUOUS
 62
     7
 10
-510.705118504462
 20
-52.3847770690915
 30
0.0
 11
-510.705118504462
 21
-38.3847846984861
 31
0.0
  0
LINE
  5
   42E
  8
0
  6
CONTINUOUS
 62
     7
 10
-508.905123082098
 20
-52.3847770690915
 30
0.0
 11
-508.905123082098
 21
-38.3847846984861
 31
0.0
  0
LINE
  5
   42F
  8
0
  6
CONTINUOUS
 62
     7
 10
-507.105120030341
 20
-52.3847770690915
 30
0.0
 11
-507.105120030341
 21
-38.3847846984861
 31
0.0
  0
LINE
  5
   430
  8
0
  6
CONTINUOUS
 62
     7
 10
-505.305124607978
 20
-52.3847770690915
 30
0.0
 11
-505.305124607978
 21
-38.3847846984861
 31
0.0
  0
LINE
  5
   431
  8
0
  6
CONTINUOUS
 62
     7
 10
-503.50512155622
 20
-52.3847770690915
 30
0.0
 11
-503.50512155622
 21
-38.3847846984861
 31
0.0
  0
LINE
  5
   432
  8
0
  6
CONTINUOUS
 62
     7
 10
-501.705118504462
 20
-52.3847770690915
 30
0.0
 11
-501.705118504462
 21
-38.3847846984861
 31
0.0
  0
LINE
  5
   433
  8
0
  6
CONTINUOUS
 62
     7
 10
-499.905123082099
 20
-52.3847770690915
 30
0.0
 11
-499.905123082099
 21
-38.3847846984861
 31
0.0
  0
LINE
  5
   434
  8
0
  6
CONTINUOUS
 62
     7
 10
-498.105120030341
 20
-52.3847770690915
 30
0.0
 11
-498.105120030341
 21
-38.3847846984861
 31
0.0
  0
LINE
  5
   435
  8
0
  6
CONTINUOUS
 62
     7
 10
-496.305124607978
 20
-52.3847770690915
 30
0.0
 11
-496.305124607978
 21
-38.3847846984861
 31
0.0
  0
LINE
  5
   436
  8
0
  6
CONTINUOUS
 62
     7
 10
-494.50512155622
 20
-52.3847770690915
 30
0.0
 11
-494.50512155622
 21
-38.3847846984861
 31
0.0
  0
LINE
  5
   437
  8
0
  6
CONTINUOUS
 62
     7
 10
-492.705118504462
 20
-52.3847770690915
 30
0.0
 11
-492.705118504462
 21
-38.3847846984861
 31
0.0
  0
LINE
  5
   438
  8
0
  6
CONTINUOUS
 62
     7
 10
-490.905123082099
 20
-52.3847770690915
 30
0.0
 11
-490.905123082099
 21
-38.3847846984861
 31
0.0
  0
LINE
  5
   439
  8
0
  6
CONTINUOUS
 62
     7
 10
-489.105120030341
 20
-52.3847770690915
 30
0.0
 11
-489.105120030341
 21
-38.3847846984861
 31
0.0
  0
LINE
  5
   43A
  8
0
  6
CONTINUOUS
 62
     7
 10
-487.305124607977
 20
-52.3847770690915
 30
0.0
 11
-487.305124607977
 21
-38.3847846984861
 31
0.0
  0
LINE
  5
   43B
  8
0
  6
CONTINUOUS
 62
     7
 10
-485.50512155622
 20
-52.3847770690915
 30
0.0
 11
-485.50512155622
 21
-38.3847846984861
 31
0.0
  0
LINE
  5
   43C
  8
0
  6
CONTINUOUS
 62
     7
 10
-483.705118504462
 20
-52.3847770690915
 30
0.0
 11
-483.705118504462
 21
-38.3847846984861
 31
0.0
  0
LINE
  5
   43D
  8
0
  6
CONTINUOUS
 62
     7
 10
-481.905123082099
 20
-52.3847770690915
 30
0.0
 11
-481.905123082099
 21
-38.3847846984861
 31
0.0
  0
LINE
  5
   43E
  8
0
  6
CONTINUOUS
 62
     7
 10
-480.105120030341
 20
-52.3847770690915
 30
0.0
 11
-480.105120030341
 21
-38.3847846984861
 31
0.0
  0
LINE
  5
   43F
  8
0
  6
CONTINUOUS
 62
     7
 10
-478.305124607977
 20
-52.3847770690915
 30
0.0
 11
-478.305124607977
 21
-38.3847846984861
 31
0.0
  0
LINE
  5
   440
  8
0
  6
CONTINUOUS
 62
     7
 10
-476.50512155622
 20
-52.3847770690915
 30
0.0
 11
-476.50512155622
 21
-38.3847846984861
 31
0.0
  0
LINE
  5
   441
  8
0
  6
CONTINUOUS
 62
     7
 10
-474.705118504462
 20
-52.3847770690915
 30
0.0
 11
-474.705118504462
 21
-38.3847846984861
 31
0.0
  0
ARC
  5
   442
  8
0
  6
CONTINUOUS
 62
     7
 10
-542.705118171784
 20
-51.7597770690915
 30
0.0
 40
0.625
 50
179.999999948034
 51
269.999999948034
  0
ARC
  5
   443
  8
0
  6
CONTINUOUS
 62
     7
 10
-473.95512611578
 20
-51.7597770690915
 30
0.0
 40
0.625
 50
269.999999948034
 51
359.99996389588
  0
LINE
  5
   444
  8
0
  6
CONTINUOUS
 62
     7
 10
-473.955126781134
 20
77.1151618957516
 30
0.0
 11
-542.705118837139
 21
77.1151618957516
 31
0.0
  0
LINE
  5
   445
  8
0
  6
CONTINUOUS
 62
     7
 10
-473.830118504462
 20
62.6151695251512
 30
0.0
 11
-542.830118504462
 21
62.6151695251512
 31
0.0
  0
LINE
  5
   446
  8
0
  6
CONTINUOUS
 62
     7
 10
-473.330118504476
 20
63.1151695531316
 30
0.0
 11
-473.330118504476
 21
76.4901618957516
 31
0.0
  0
LINE
  5
   447
  8
0
  6
CONTINUOUS
 62
     7
 10
-543.330118504462
 20
63.1151695251463
 30
0.0
 11
-543.330118504462
 21
76.4901618957517
 31
0.0
  0
LINE
  5
   448
  8
0
  6
CONTINUOUS
 62
     7
 10
-473.455118504462
 20
63.1151695251462
 30
0.0
 11
-543.205118504462
 21
63.1151695251462
 31
0.0
  0
LINE
  5
   449
  8
0
  6
CONTINUOUS
 62
     7
 10
-473.830118504462
 20
62.6151695251529
 30
0.0
 11
-473.830118504462
 21
63.1151695251529
 31
0.0
  0
LINE
  5
   44A
  8
0
  6
CONTINUOUS
 62
     7
 10
-473.330118504462
 20
63.1151695251462
 30
0.0
 11
-473.455118504462
 21
63.1151695251462
 31
0.0
  0
LINE
  5
   44B
  8
0
  6
CONTINUOUS
 62
     7
 10
-542.830118504462
 20
62.6151695251513
 30
0.0
 11
-542.830118504462
 21
63.1151695251513
 31
0.0
  0
LINE
  5
   44C
  8
0
  6
CONTINUOUS
 62
     7
 10
-543.205118534264
 20
63.1151695251462
 30
0.0
 11
-543.330118504462
 21
63.1151695251462
 31
0.0
  0
LINE
  5
   44D
  8
0
  6
CONTINUOUS
 62
     7
 10
-541.305118409095
 20
-52.3847770690915
 30
0.0
 11
-541.305118409095
 21
77.1151618957516
 31
0.0
  0
LINE
  5
   44E
  8
0
  6
CONTINUOUS
 62
     7
 10
-539.50511821836
 20
63.1151695251463
 30
0.0
 11
-539.50511821836
 21
77.1151618957516
 31
0.0
  0
LINE
  5
   44F
  8
0
  6
CONTINUOUS
 62
     7
 10
-537.705118504462
 20
63.1151695251463
 30
0.0
 11
-537.705118504462
 21
77.1151618957516
 31
0.0
  0
LINE
  5
   450
  8
0
  6
CONTINUOUS
 62
     7
 10
-535.905118313727
 20
63.1151695251463
 30
0.0
 11
-535.905118313727
 21
77.1151618957516
 31
0.0
  0
LINE
  5
   451
  8
0
  6
CONTINUOUS
 62
     7
 10
-534.105120030341
 20
63.1151695251463
 30
0.0
 11
-534.105120030341
 21
77.1151618957516
 31
0.0
  0
LINE
  5
   452
  8
0
  6
CONTINUOUS
 62
     7
 10
-532.305124607978
 20
63.1151695251463
 30
0.0
 11
-532.305124607978
 21
77.1151618957516
 31
0.0
  0
LINE
  5
   453
  8
0
  6
CONTINUOUS
 62
     7
 10
-530.50512155622
 20
63.1151695251463
 30
0.0
 11
-530.50512155622
 21
77.1151618957516
 31
0.0
  0
LINE
  5
   454
  8
0
  6
CONTINUOUS
 62
     7
 10
-528.705118504462
 20
63.1151695251463
 30
0.0
 11
-528.705118504462
 21
77.1151618957516
 31
0.0
  0
LINE
  5
   455
  8
0
  6
CONTINUOUS
 62
     7
 10
-526.905123082099
 20
63.1151695251463
 30
0.0
 11
-526.905123082099
 21
77.1151618957516
 31
0.0
  0
LINE
  5
   456
  8
0
  6
CONTINUOUS
 62
     7
 10
-525.105120030341
 20
63.1151695251463
 30
0.0
 11
-525.105120030341
 21
77.1151618957516
 31
0.0
  0
LINE
  5
   457
  8
0
  6
CONTINUOUS
 62
     7
 10
-523.305124607978
 20
63.1151695251463
 30
0.0
 11
-523.305124607978
 21
77.1151618957516
 31
0.0
  0
LINE
  5
   458
  8
0
  6
CONTINUOUS
 62
     7
 10
-521.50512155622
 20
63.1151695251463
 30
0.0
 11
-521.50512155622
 21
77.1151618957516
 31
0.0
  0
LINE
  5
   459
  8
0
  6
CONTINUOUS
 62
     7
 10
-519.705118504462
 20
63.1151695251463
 30
0.0
 11
-519.705118504462
 21
77.1151618957516
 31
0.0
  0
LINE
  5
   45A
  8
0
  6
CONTINUOUS
 62
     7
 10
-517.905123082099
 20
63.1151695251463
 30
0.0
 11
-517.905123082099
 21
77.1151618957516
 31
0.0
  0
LINE
  5
   45B
  8
0
  6
CONTINUOUS
 62
     7
 10
-516.105120030341
 20
63.1151695251463
 30
0.0
 11
-516.105120030341
 21
77.1151618957516
 31
0.0
  0
LINE
  5
   45C
  8
0
  6
CONTINUOUS
 62
     7
 10
-514.305124607978
 20
63.1151695251463
 30
0.0
 11
-514.305124607978
 21
77.1151618957516
 31
0.0
  0
LINE
  5
   45D
  8
0
  6
CONTINUOUS
 62
     7
 10
-512.50512155622
 20
63.1151695251463
 30
0.0
 11
-512.50512155622
 21
77.1151618957516
 31
0.0
  0
LINE
  5
   45E
  8
0
  6
CONTINUOUS
 62
     7
 10
-510.705118504462
 20
63.1151695251463
 30
0.0
 11
-510.705118504462
 21
77.1151618957516
 31
0.0
  0
LINE
  5
   45F
  8
0
  6
CONTINUOUS
 62
     7
 10
-508.905123082099
 20
63.1151695251463
 30
0.0
 11
-508.905123082099
 21
77.1151618957516
 31
0.0
  0
LINE
  5
   460
  8
0
  6
CONTINUOUS
 62
     7
 10
-507.105120030341
 20
63.1151695251463
 30
0.0
 11
-507.105120030341
 21
77.1151618957516
 31
0.0
  0
LINE
  5
   461
  8
0
  6
CONTINUOUS
 62
     7
 10
-505.305124607978
 20
63.1151695251463
 30
0.0
 11
-505.305124607978
 21
77.1151618957516
 31
0.0
  0
LINE
  5
   462
  8
0
  6
CONTINUOUS
 62
     7
 10
-503.50512155622
 20
63.1151695251463
 30
0.0
 11
-503.50512155622
 21
77.1151618957516
 31
0.0
  0
LINE
  5
   463
  8
0
  6
CONTINUOUS
 62
     7
 10
-501.705118504462
 20
63.1151695251463
 30
0.0
 11
-501.705118504462
 21
77.1151618957516
 31
0.0
  0
LINE
  5
   464
  8
0
  6
CONTINUOUS
 62
     7
 10
-499.905123082099
 20
63.1151695251463
 30
0.0
 11
-499.905123082099
 21
77.1151618957516
 31
0.0
  0
LINE
  5
   465
  8
0
  6
CONTINUOUS
 62
     7
 10
-498.105120030341
 20
63.1151695251463
 30
0.0
 11
-498.105120030341
 21
77.1151618957516
 31
0.0
  0
LINE
  5
   466
  8
0
  6
CONTINUOUS
 62
     7
 10
-496.305124607978
 20
63.1151695251463
 30
0.0
 11
-496.305124607978
 21
77.1151618957516
 31
0.0
  0
LINE
  5
   467
  8
0
  6
CONTINUOUS
 62
     7
 10
-494.50512155622
 20
63.1151695251463
 30
0.0
 11
-494.50512155622
 21
77.1151618957516
 31
0.0
  0
LINE
  5
   468
  8
0
  6
CONTINUOUS
 62
     7
 10
-492.705118504462
 20
63.1151695251463
 30
0.0
 11
-492.705118504462
 21
77.1151618957516
 31
0.0
  0
LINE
  5
   469
  8
0
  6
CONTINUOUS
 62
     7
 10
-490.905123082099
 20
63.1151695251463
 30
0.0
 11
-490.905123082099
 21
77.1151618957516
 31
0.0
  0
LINE
  5
   46A
  8
0
  6
CONTINUOUS
 62
     7
 10
-489.105120030341
 20
63.1151695251463
 30
0.0
 11
-489.105120030341
 21
77.1151618957516
 31
0.0
  0
LINE
  5
   46B
  8
0
  6
CONTINUOUS
 62
     7
 10
-487.305124607978
 20
63.1151695251463
 30
0.0
 11
-487.305124607978
 21
77.1151618957516
 31
0.0
  0
LINE
  5
   46C
  8
0
  6
CONTINUOUS
 62
     7
 10
-485.50512155622
 20
63.1151695251463
 30
0.0
 11
-485.50512155622
 21
77.1151618957516
 31
0.0
  0
LINE
  5
   46D
  8
0
  6
CONTINUOUS
 62
     7
 10
-483.705118504462
 20
63.1151695251463
 30
0.0
 11
-483.705118504462
 21
77.1151618957516
 31
0.0
  0
LINE
  5
   46E
  8
0
  6
CONTINUOUS
 62
     7
 10
-481.905123082099
 20
63.1151695251463
 30
0.0
 11
-481.905123082099
 21
77.1151618957516
 31
0.0
  0
LINE
  5
   46F
  8
0
  6
CONTINUOUS
 62
     7
 10
-480.105120030341
 20
63.1151695251463
 30
0.0
 11
-480.105120030341
 21
77.1151618957516
 31
0.0
  0
LINE
  5
   470
  8
0
  6
CONTINUOUS
 62
     7
 10
-478.305124607978
 20
63.1151695251463
 30
0.0
 11
-478.305124607978
 21
77.1151618957516
 31
0.0
  0
LINE
  5
   471
  8
0
  6
CONTINUOUS
 62
     7
 10
-476.50512155622
 20
63.1151695251463
 30
0.0
 11
-476.50512155622
 21
77.1151618957516
 31
0.0
  0
LINE
  5
   472
  8
0
  6
CONTINUOUS
 62
     7
 10
-474.705118504462
 20
63.1151695251463
 30
0.0
 11
-474.705118504462
 21
77.1151618957516
 31
0.0
  0
ARC
  5
   473
  8
0
  6
CONTINUOUS
 62
     7
 10
-542.705118837139
 20
76.4901618957517
 30
0.0
 40
0.625
 50
449.999999948034
 51
539.999999948034
  0
ARC
  5
   474
  8
0
  6
CONTINUOUS
 62
     7
 10
-473.955126781134
 20
76.4901618957516
 30
0.0
 40
0.625
 50
360.000036000188
 51
449.999999948034
  0
LINE
  5
   475
  8
0
  6
DASHDOT
 62
     7
 10
-534.580123233185
 20
80.5651729360748
 30
0.0
 11
-534.580123233185
 21
86.6652113111631
 31
0.0
  0
LINE
  5
   476
  8
0
  6
DASHDOT
 62
     7
 10
-531.530104045641
 20
83.615192123619
 30
0.0
 11
-537.630142420729
 21
83.615192123619
 31
0.0
  0
LINE
  5
   477
  8
0
  6
DASHDOT
 62
     7
 10
-517.080167396443
 20
80.5652527028379
 30
0.0
 11
-517.080167396443
 21
86.6651051431647
 31
0.0
  0
LINE
  5
   478
  8
0
  6
DASHDOT
 62
     7
 10
-514.030241176279
 20
83.6151789230014
 30
0.0
 11
-520.130093616606
 21
83.6151789230014
 31
0.0
  0
LINE
  5
   479
  8
0
  6
DASHDOT
 62
     7
 10
-499.580183870555
 20
80.565175029593
 30
0.0
 11
-499.580183870555
 21
86.6651706275454
 31
0.0
  0
LINE
  5
   47A
  8
0
  6
DASHDOT
 62
     7
 10
-496.530186071579
 20
83.6151728285693
 30
0.0
 11
-502.630181669531
 21
83.6151728285693
 31
0.0
  0
LINE
  5
   47B
  8
0
  6
DASHDOT
 62
     7
 10
-482.080299094851
 20
80.5651318549321
 30
0.0
 11
-482.080299094851
 21
86.6655056416211
 31
0.0
  0
LINE
  5
   47C
  8
0
  6
DASHDOT
 62
     7
 10
-479.030112201506
 20
83.6153187482767
 30
0.0
 11
-485.130485988195
 21
83.6153187482767
 31
0.0
  0
LINE
  5
   47D
  8
0
  6
DASHDOT
 62
     7
 10
-499.580148502493
 20
-61.934811925292
 30
0.0
 11
-499.580148502493
 21
-55.8348187708948
 31
0.0
  0
LINE
  5
   47E
  8
0
  6
DASHDOT
 62
     7
 10
-496.530151925295
 20
-58.8848153480934
 30
0.0
 11
-502.630145079692
 21
-58.8848153480934
 31
0.0
  0
LINE
  5
   47F
  8
0
  6
DASHDOT
 62
     7
 10
-517.080150286589
 20
-61.9347961794971
 30
0.0
 11
-517.080150286589
 21
-55.8348152117015
 31
0.0
  0
LINE
  5
   480
  8
0
  6
DASHDOT
 62
     7
 10
-514.030159802691
 20
-58.8848056955993
 30
0.0
 11
-520.130140770487
 21
-58.8848056955993
 31
0.0
  0
LINE
  5
   481
  8
0
  6
DASHDOT
 62
     7
 10
-534.58014348256
 20
-61.9347969609418
 30
0.0
 11
-534.58014348256
 21
-55.8347945300493
 31
0.0
  0
LINE
  5
   482
  8
0
  6
DASHDOT
 62
     7
 10
-531.530142267114
 20
-58.8847957454955
 30
0.0
 11
-537.630144698006
 21
-58.8847957454955
 31
0.0
  0
LINE
  5
   483
  8
0
  6
DASHDOT
 62
     7
 10
-461.52515142844
 20
13.2402229309082
 30
0.0
 11
-558.143951245109
 21
13.2402229309082
 31
0.0
  0
INSERT
  5
   484
  8
255
  6
CONTINUOUS
 62
     7
  2
MOSTRINA
 10
-556.999270748929
 20
-41.7501068115254
 30
0.0
 41
0.5
 42
0.5
 50
3.50835464724173E-15
 43
0.5
  0
TEXT
  5
   485
  8
0
  6
CONTINUOUS
 62
     7
 10
-451.813415527138
 20
-2.61664485347031
 30
0.0
 40
3.00000002980232
  1
=          =
 50
89.9999999480344
 41
0.916666604744064
 72
     1
 11
-453.313415527344
 21
13.6083542108536
 31
0.0
 73
     2
  0
TEXT
  5
   486
  8
0
  6
CONTINUOUS
 62
     7
 10
-515.977885240428
 20
98.5181007502789
 30
0.0
 40
3.00000002980232
  1
=          =
 50
359.999999948034
 41
0.916666604744064
 72
     1
 11
-499.752886176109
 21
100.018100750546
 31
0.0
 73
     2
  0
INSERT
  5
   487
  8
0
  6
CONTINUOUS
 62
     7
  2
*UDIM2253
 10
0.0
 20
0.0
 30
0.0
  0
INSERT
  5
   488
  8
0
  6
CONTINUOUS
 62
     7
  2
*UDIM2254
 10
0.0
 20
0.0
 30
0.0
  0
INSERT
  5
   489
  8
0
  6
CONTINUOUS
 62
     7
  2
*UDIM2255
 10
0.0
 20
0.0
 30
0.0
  0
INSERT
  5
   48A
  8
0
  6
CONTINUOUS
 62
     7
  2
*UDIM2256
 10
0.0
 20
0.0
 30
0.0
  0
TEXT
  5
   48B
  8
0
  6
CONTINUOUS
 62
     7
 10
-516.275632779658
 20
91.3285262911055
 30
0.0
 40
3.00000002980232
  1
=          =
 50
359.999999948034
 41
0.916666604744064
 72
     2
 11
-483.825634653727
 21
91.3285262618374
 31
0.0
  0
INSERT
  5
   48C
  8
0
  6
CONTINUOUS
 62
     7
  2
*UDIM2257
 10
0.0
 20
0.0
 30
0.0
  0
INSERT
  5
   48D
  8
0
  6
CONTINUOUS
 62
     7
  2
*UDIM2258
 10
0.0
 20
0.0
 30
0.0
  0
INSERT
  5
   48E
  8
0
  6
CONTINUOUS
 62
     7
  2
*UDIM2259
 10
0.0
 20
0.0
 30
0.0
  0
INSERT
  5
   48F
  8
0
  6
CONTINUOUS
 62
     7
  2
*UDIM2260
 10
0.0
 20
0.0
 30
0.0
  0
INSERT
  5
   490
  8
0
  6
CONTINUOUS
 62
     7
  2
*UDIM2261
 10
0.0
 20
0.0
 30
0.0
  0
INSERT
  5
   491
  8
0
  6
CONTINUOUS
 62
     7
  2
*UDIM2262
 10
0.0
 20
0.0
 30
0.0
  0
INSERT
  5
   492
  8
0
  6
CONTINUOUS
 62
     7
  2
*UDIM2263
 10
0.0
 20
0.0
 30
0.0
  0
INSERT
  5
   493
  8
0
  6
CONTINUOUS
 62
     7
  2
*UDIM2264
 10
0.0
 20
0.0
 30
0.0
  0
INSERT
  5
   494
  8
0
  6
CONTINUOUS
 62
     7
  2
*UDIM2265
 10
0.0
 20
0.0
 30
0.0
  0
INSERT
  5
   495
  8
0
  6
CONTINUOUS
 62
     7
  2
*UDIM2266
 10
0.0
 20
0.0
 30
0.0
  0
INSERT
  5
   496
  8
0
  6
CONTINUOUS
 62
     7
  2
*UDIM2267
 10
0.0
 20
0.0
 30
0.0
  0
TEXT
  5
   497
  8
0
  6
CONTINUOUS
 62
     7
 10
-588.144979794192
 20
11.4654671005322
 30
0.0
 40
3.00000002980232
  1
X
 50
359.999999948034
 41
0.916666604744064
 72
     2
 11
-585.944979925322
 21
11.465467098548
 31
0.0
  0
INSERT
  5
   498
  8
0
  6
CONTINUOUS
 62
     7
  2
*UDIM2268
 10
0.0
 20
0.0
 30
0.0
  0
TEXT
  5
   499
  8
0
  6
CONTINUOUS
 62
     7
 10
-448.945510776204
 20
11.7196886605994
 30
0.0
 40
3.00000002980232
  1
X
 50
359.999999948034
 41
0.916666604744064
 72
     1
 11
-447.845510840416
 21
13.2196886745084
 31
0.0
 73
     2
  0
TEXT
  5
   49A
  8
0
  6
CONTINUOUS
 62
     7
 10
-500.702457339924
 20
111.773685700394
 30
0.0
 40
3.00000002980232
  1
Y
 50
359.999999948034
 41
0.916666604744064
 72
     1
 11
-499.602457404137
 21
113.273685714303
 31
0.0
 73
     2
  0
LINE
  5
   49B
  8
0
  6
CONTINUOUS
 62
     7
 10
-265.786849975586
 20
36.7000694274902
 30
0.0
 11
-237.786849975586
 21
36.7000694274902
 31
0.0
  0
LINE
  5
   49C
  8
0
  6
CONTINUOUS
 62
     7
 10
-265.786849975586
 20
64.7000694274902
 30
0.0
 11
-237.786849975586
 21
64.7000694274902
 31
0.0
  0
LINE
  5
   49D
  8
0
  6
CONTINUOUS
 62
     7
 10
-265.786849975586
 20
64.7000694274902
 30
0.0
 11
-265.786849975586
 21
36.7000694274902
 31
0.0
  0
LINE
  5
   49E
  8
0
  6
CONTINUOUS
 62
     7
 10
-237.786849975586
 20
64.7000694274902
 30
0.0
 11
-237.786849975586
 21
36.7000694274902
 31
0.0
  0
CIRCLE
  5
   49F
  8
0
  6
CONTINUOUS
 62
     7
 10
-261.786849975586
 20
68.4500694274902
 30
0.0
 40
0.875
  0
CIRCLE
  5
   4A0
  8
0
  6
CONTINUOUS
 62
     7
 10
-241.786849975586
 20
68.4500694274902
 30
0.0
 40
0.875
  0
CIRCLE
  5
   4A1
  8
0
  6
CONTINUOUS
 62
     7
 10
-261.786849975586
 20
32.9500694274902
 30
0.0
 40
0.875
  0
CIRCLE
  5
   4A2
  8
0
  6
CONTINUOUS
 62
     7
 10
-241.786849975586
 20
32.9500694274902
 30
0.0
 40
0.875
  0
LINE
  5
   4A3
  8
0
  6
DASHDOT
 62
     7
 10
-261.786849975586
 20
70.0750694274902
 30
0.0
 11
-261.786849975586
 21
66.8250694274902
 31
0.0
  0
LINE
  5
   4A4
  8
0
  6
DASHDOT
 62
     7
 10
-263.411849975586
 20
68.4500694274902
 30
0.0
 11
-260.161849975586
 21
68.4500694274902
 31
0.0
  0
LINE
  5
   4A5
  8
0
  6
DASHDOT
 62
     7
 10
-241.786849975586
 20
70.0750694274902
 30
0.0
 11
-241.786849975586
 21
66.8250694274902
 31
0.0
  0
LINE
  5
   4A6
  8
0
  6
DASHDOT
 62
     7
 10
-243.411849975586
 20
68.4500694274902
 30
0.0
 11
-240.161849975586
 21
68.4500694274902
 31
0.0
  0
LINE
  5
   4A7
  8
0
  6
DASHDOT
 62
     7
 10
-241.786849975586
 20
34.5750694274902
 30
0.0
 11
-241.786849975586
 21
31.3250694274902
 31
0.0
  0
LINE
  5
   4A8
  8
0
  6
DASHDOT
 62
     7
 10
-243.411849975586
 20
32.9500694274902
 30
0.0
 11
-240.161849975586
 21
32.9500694274902
 31
0.0
  0
LINE
  5
   4A9
  8
0
  6
DASHDOT
 62
     7
 10
-261.786849975586
 20
34.5750694274902
 30
0.0
 11
-261.786849975586
 21
31.3250694274902
 31
0.0
  0
LINE
  5
   4AA
  8
0
  6
DASHDOT
 62
     7
 10
-263.411849975586
 20
32.9500694274902
 30
0.0
 11
-260.161849975586
 21
32.9500694274902
 31
0.0
  0
LINE
  5
   4AB
  8
0
  6
DASHDOT
 62
     7
 10
-251.786849975586
 20
78.0701817128273
 30
0.0
 11
-251.786849975586
 21
21.5768185826692
 31
0.0
  0
LINE
  5
   4AC
  8
0
  6
CONTINUOUS
 62
     7
 10
-268.607426519252
 20
71.1012550826963
 30
0.0
 11
-234.652866295944
 21
71.1012550826963
 31
0.0
  0
LINE
  5
   4AD
  8
0
  6
CONTINUOUS
 62
     7
 10
-268.607426519252
 20
29.536189981751
 30
0.0
 11
-234.652866295944
 21
29.536189981751
 31
0.0
  0
LINE
  5
   4AE
  8
0
  6
CONTINUOUS
 62
     7
 10
-234.652866295944
 20
71.1012550826963
 30
0.0
 11
-234.652866295944
 21
29.536189981751
 31
0.0
  0
LINE
  5
   4AF
  8
0
  6
CONTINUOUS
 62
     7
 10
-268.607426519252
 20
71.1012550826963
 30
0.0
 11
-268.607426519252
 21
29.536189981751
 31
0.0
  0
CIRCLE
  5
   4B0
  8
0
  6
CONTINUOUS
 62
     7
 10
-266.734071472449
 20
69.2864423811057
 30
0.0
 40
0.0625
  0
LINE
  5
   4B1
  8
0
  6
DASHDOT
 62
     7
 10
-276.590910855169
 20
50.7000694274902
 30
0.0
 11
-227.744567682109
 21
50.7000694274902
 31
0.0
  0
TEXT
  5
   4B2
  8
0
  6
CONTINUOUS
 62
     1
 10
-360.146452277634
 20
-146.094226853504
 30
0.0
 40
2.00000008940697
  1
M 3076 95-01-16
 50
359.999999844103
 41
0.749999861419206
 72
     1
 11
-349.04645383358
 21
-145.094226838947
 31
0.0
 73
     2
  0
TEXT
  5
   4B3
  8
0
  6
CONTINUOUS
 62
     1
 10
-372.36053465876
 20
-131.782031895912
 30
0.0
 40
2.00000008940697
  1
93-04-05 FERRARI M.
 50
359.999999844103
 41
0.749999861419206
 72
     2
 11
-344.160538616508
 21
-131.7820319725
 31
0.0
  0
INSERT
  5
   4B4
  8
0
  6
CONTINUOUS
 62
     7
  2
*UDIM2269
 10
0.0
 20
0.0
 30
0.0
  0
TEXT
  5
   4B5
  8
0
  6
CONTINUOUS
 62
     7
 10
-258.68739196867
 20
83.9244152937673
 30
0.0
 40
3.00000002980232
  1
=   =
 50
359.999999844103
 41
0.916666604744064
 72
     2
 11
-245.487392733597
 21
83.9244152579176
 31
0.0
  0
TEXT
  5
   4B6
  8
0
  6
CONTINUOUS
 62
     7
 10
-258.745934220257
 20
77.3676735792898
 30
0.0
 40
3.00000002980232
  1
=   =
 50
359.999999844103
 41
0.916666604744064
 72
     2
 11
-245.545934985184
 21
77.3676735434401
 31
0.0
  0
INSERT
  5
   4B7
  8
0
  6
CONTINUOUS
 62
     7
  2
*UDIM2270
 10
0.0
 20
0.0
 30
0.0
  0
INSERT
  5
   4B8
  8
0
  6
CONTINUOUS
 62
     7
  2
*UDIM2271
 10
0.0
 20
0.0
 30
0.0
  0
INSERT
  5
   4B9
  8
0
  6
CONTINUOUS
 62
     7
  2
*UDIM2272
 10
0.0
 20
0.0
 30
0.0
  0
INSERT
  5
   4BA
  8
0
  6
CONTINUOUS
 62
     7
  2
*UDIM2273
 10
0.0
 20
0.0
 30
0.0
  0
TEXT
  5
   4BB
  8
0
  6
CONTINUOUS
 62
     7
 10
-254.109183768534
 20
17.8497504496625
 30
0.0
 40
3.00000002980232
  1
Y
 50
359.999999844103
 41
0.916666604744064
 72
     2
 11
-251.909183899664
 21
17.8497504436876
 31
0.0
  0
TEXT
  5
   4BC
  8
0
  6
CONTINUOUS
 62
     7
 10
-252.038452516102
 20
93.464431693559
 30
0.0
 40
3.00000002980232
  1
Y
 50
359.999999844103
 41
0.916666604744064
 72
     2
 11
-249.838452647232
 21
93.4644316875841
 31
0.0
  0
TEXT
  5
   4BD
  8
0
  6
CONTINUOUS
 62
     7
 10
-226.091228375934
 20
48.9640856289914
 30
0.0
 40
3.00000002980232
  1
X
 50
359.999999844103
 41
0.916666604744064
 72
     2
 11
-223.891228507065
 21
48.9640856230165
 31
0.0
  0
TEXT
  5
   4BE
  8
0
  6
CONTINUOUS
 62
     7
 10
-293.954772840046
 20
48.7966214919141
 30
0.0
 40
3.00000002980232
  1
X
 50
359.999999844103
 41
0.916666604744064
 72
     2
 11
-291.754772971176
 21
48.7966214859392
 31
0.0
  0
TEXT
  5
   4BF
  8
0
  6
CONTINUOUS
 62
     1
 10
-265.271728497207
 20
-157.171070008667
 30
0.0
 40
4.00000017881393
  1
601812/211
 50
359.999999844103
 41
0.937499973922969
 72
     2
 11
-228.521727897435
 21
-157.171070108476
 31
0.0
  0
TEXT
  5
   4C0
  8
0
  6
CONTINUOUS
 62
     1
 10
-254.186035142437
 20
-148.189487450842
 30
0.0
 40
3.00000002980232
  1
S4
 50
359.999999844103
 41
0.916666604744064
 72
     2
 11
-249.236035432016
 21
-148.189487464285
 31
0.0
  0
TEXT
  5
   4C1
  8
0
  6
CONTINUOUS
 62
     1
 10
-275.720454901198
 20
-129.879215207939
 30
0.0
 40
2.00000008940697
  1
4POLE LOW VOLTAGE M.C.C.B SERIES ISOMAX
 50
359.999999844103
 41
0.749999861419206
 72
     1
 11
-246.62045897842
 21
-128.879215242267
 31
0.0
 73
     2
  0
TEXT
  5
   4C2
  8
0
  6
CONTINUOUS
 62
     1
 10
-269.720455705849
 20
-132.879215224234
 30
0.0
 40
2.00000008940697
  1
PLUG-IN VERSION FRONT TERMINALS
 50
359.999999844103
 41
0.749999861419206
 72
     1
 11
-246.620458942646
 21
-131.879215242267
 31
0.0
 73
     2
  0
TEXT
  5
   4C3
  8
0
  6
CONTINUOUS
 62
     1
 10
-272.518063268552
 20
-137.949481949904
 30
0.0
 40
2.00000008940697
  1
INTERR.AUTOMATICO SERIE ISOMAX
 50
359.999999844103
 41
0.749999861419206
 72
     1
 11
-250.168066400295
 21
-136.9494819659
 31
0.0
 73
     2
  0
TEXT
  5
   4C4
  8
0
  6
CONTINUOUS
 62
     1
 10
-283.76806165698
 20
-140.94948191935
 30
0.0
 40
2.00000008940697
  1
TETRAP.ESECUZIONE RIMOVIBILE TERMIN.ANTERIORI
 50
359.999999844103
 41
0.749999861419206
 72
     1
 11
-250.168066364521
 21
-139.9494819659
 31
0.0
 73
     2
  0
ENDSEC
  0
EOF
