  0
SECTION
  2
HEADER
  9
$ACADVER
  1
AC1009
  9
$DWGCODEPAGE
  3
iso8859-1
  9
$INSBASE
 10
0.0
 20
0.0
 30
0.0
  9
$EXTMIN
 10
1.0E20
 20
1.0E20
  9
$EXTMAX
 10
-1.0E20
 20
-1.0E20
  9
$LIMMIN
 10
0.0
 20
0.0
  9
$LIMMAX
 10
12.0
 20
9.0
  9
$ORTHOMODE
 70
     0
  9
$REGENMODE
 70
     1
  9
$FILLMODE
 70
     1
  9
$QTEXTMODE
 70
     0
  9
$MIRRTEXT
 70
     1
  9
$DRAGMODE
 70
     2
  9
$LTSCALE
 40
15.0
  9
$OSMODE
 70
     0
  9
$ATTMODE
 70
     1
  9
$TEXTSIZE
 40
0.2
  9
$TRACEWID
 40
0.05
  9
$TEXTSTYLE
  7
STANDARD
  9
$CLAYER
  8
0
  9
$CELTYPE
  6
DASHED
  9
$CECOLOR
 62
   256
  9
$DIMSCALE
 40
1.0
  9
$DIMASZ
 40
0.18
  9
$DIMEXO
 40
0.0625
  9
$DIMDLI
 40
0.38
  9
$DIMRND
 40
0.0
  9
$DIMDLE
 40
0.0
  9
$DIMEXE
 40
0.18
  9
$DIMTP
 40
0.0
  9
$DIMTM
 40
0.0
  9
$DIMTXT
 40
0.18
  9
$DIMCEN
 40
0.09
  9
$DIMTSZ
 40
0.0
  9
$DIMTOL
 70
     0
  9
$DIMLIM
 70
     0
  9
$DIMTIH
 70
     1
  9
$DIMTOH
 70
     1
  9
$DIMSE1
 70
     0
  9
$DIMSE2
 70
     0
  9
$DIMTAD
 70
     0
  9
$DIMZIN
 70
     0
  9
$DIMBLK
  1

  9
$DIMASO
 70
     1
  9
$DIMSHO
 70
     1
  9
$DIMPOST
  1

  9
$DIMAPOST
  1

  9
$DIMALT
 70
     0
  9
$DIMALTD
 70
     2
  9
$DIMALTF
 40
25.4
  9
$DIMLFAC
 40
1.0
  9
$DIMTOFL
 70
     0
  9
$DIMTVP
 40
0.0
  9
$DIMTIX
 70
     0
  9
$DIMSOXD
 70
     0
  9
$DIMSAH
 70
     0
  9
$DIMBLK1
  1

  9
$DIMBLK2
  1

  9
$DIMSTYLE
  2
STANDARD
  9
$DIMCLRD
 70
     0
  9
$DIMCLRE
 70
     0
  9
$DIMCLRT
 70
     0
  9
$DIMTFAC
 40
1.0
  9
$DIMGAP
 40
0.09
  9
$LUNITS
 70
     2
  9
$LUPREC
 70
     4
  9
$AXISMODE
 70
     0
  9
$AXISUNIT
 10
0.0
 20
0.0
  9
$SKETCHINC
 40
0.1
  9
$FILLETRAD
 40
0.0
  9
$AUNITS
 70
     0
  9
$AUPREC
 70
     0
  9
$MENU
  1
acad
  9
$ELEVATION
 40
0.0
  9
$PELEVATION
 40
0.0
  9
$THICKNESS
 40
0.0
  9
$LIMCHECK
 70
     0
  9
$BLIPMODE
 70
     1
  9
$CHAMFERA
 40
0.0
  9
$CHAMFERB
 40
0.0
  9
$SKPOLY
 70
     0
  9
$TDCREATE
 40
0.000000000
  9
$TDUPDATE
 40
0.000000000
  9
$TDINDWG
 40
0.0
  9
$TDUSRTIMER
 40
0.0
  9
$USRTIMER
 70
     1
  9
$ANGBASE
 50
0.0
  9
$ANGDIR
 70
     0
  9
$PDMODE
 70
     0
  9
$PDSIZE
 40
0.0
  9
$PLINEWID
 40
0.0
  9
$COORDS
 70
     1
  9
$SPLFRAME
 70
     0
  9
$SPLINETYPE
 70
     6
  9
$SPLINESEGS
 70
     8
  9
$ATTDIA
 70
     0
  9
$ATTREQ
 70
     1
  9
$HANDLING
 70
     1
  9
$HANDSEED
  5
   64C
  9
$SURFTAB1
 70
     6
  9
$SURFTAB2
 70
     6
  9
$SURFTYPE
 70
     6
  9
$SURFU
 70
     6
  9
$SURFV
 70
     6
  9
$UCSNAME
  2

  9
$UCSORG
 10
0.0
 20
0.0
 30
0.0
  9
$UCSXDIR
 10
1.0
 20
0.0
 30
0.0
  9
$UCSYDIR
 10
0.0
 20
1.0
 30
0.0
  9
$PUCSNAME
  2

  9
$PUCSORG
 10
0.0
 20
0.0
 30
0.0
  9
$PUCSXDIR
 10
1.0
 20
0.0
 30
0.0
  9
$PUCSYDIR
 10
0.0
 20
1.0
 30
0.0
  9
$USERI1
 70
     0
  9
$USERI2
 70
     0
  9
$USERI3
 70
     0
  9
$USERI4
 70
     0
  9
$USERI5
 70
     0
  9
$USERR1
 40
0.0
  9
$USERR2
 40
0.0
  9
$USERR3
 40
0.0
  9
$USERR4
 40
0.0
  9
$USERR5
 40
0.0
  9
$WORLDVIEW
 70
     1
  9
$SHADEDGE
 70
     3
  9
$SHADEDIF
 70
    70
  9
$TILEMODE
 70
     1
  9
$MAXACTVP
 70
    16
  9
$PINSBASE
 10
0.0
 20
0.0
 30
0.0
  9
$PLIMCHECK
 70
     0
  9
$PEXTMIN
 10
1.0E20
 20
1.0E20
 30
1.0E20
  9
$PEXTMAX
 10
-1.0E20
 20
-1.0E20
 30
-1.0E20
  9
$PLIMMIN
 10
0.0
 20
0.0
  9
$PLIMMAX
 10
12.0
 20
9.0
  9
$UNITMODE
 70
     0
  9
$VISRETAIN
 70
     0
  0
ENDSEC
  0
SECTION
  2
TABLES
  0
TABLE
  2
VPORT
 70
     1
  0
VPORT
  2
*ACTIVE
 70
     0
 10
0.0
 20
0.0
 11
1.0
 21
1.0
 12
6.801242
 22
4.5
 13
0.0
 23
0.0
 14
1.0
 24
1.0
 15
0.0
 25
0.0
 16
0.0
 26
0.0
 36
1.0
 17
0.0
 27
0.0
 37
0.0
 40
9.0
 41
1.511387
 42
50.0
 43
0.0
 44
0.0
 50
0.0
 51
0.0
 71
     0
 72
   100
 73
     1
 74
     1
 75
     0
 76
     0
 77
     0
 78
     0
  0
ENDTAB
  0
TABLE
  2
LTYPE
 70
    41
  0
LTYPE
  2
BYBLOCK
 70
     0
  3

 72
    65
 73
     0
 40
0.0
  0
LTYPE
  2
BYLAYER
 70
     0
  3

 72
    65
 73
     0
 40
0.0
  0
LTYPE
  2
CONTINUOUS
 70
     0
  3
Solid line
 72
    65
 73
     0
 40
0.0
  0
LTYPE
  2
BORDER
 70
    64
  3
__ __ . __ __ . __ __ . __ __ . __ __ . __ __ .
 72
    65
 73
     6
 40
1.75
 49
0.5
 49
-0.25
 49
0.5
 49
-0.25
 49
0.0
 49
-0.25
  0
LTYPE
  2
BORDER2
 70
    64
  3
__.__.__.__.__.__.__.__.__.__.__.__.__.__.__.__
 72
    65
 73
     6
 40
0.875
 49
0.25
 49
-0.125
 49
0.25
 49
-0.125
 49
0.0
 49
-0.125
  0
LTYPE
  2
BORDERX2
 70
    64
  3
____  ____  .  ____  ____  .  ____  ____  .  __
 72
    65
 73
     6
 40
3.5
 49
1.0
 49
-0.5
 49
1.0
 49
-0.5
 49
0.0
 49
-0.5
  0
LTYPE
  2
CENTER
 70
    64
  3
____ _ ____ _ ____ _ ____ _ ____ _ ____ _ ____
 72
    65
 73
     4
 40
2.0
 49
1.25
 49
-0.25
 49
0.25
 49
-0.25
  0
LTYPE
  2
CENTER2
 70
    64
  3
___ _ ___ _ ___ _ ___ _ ___ _ ___ _ ___ _ ___ _
 72
    65
 73
     4
 40
1.125
 49
0.75
 49
-0.125
 49
0.125
 49
-0.125
  0
LTYPE
  2
CENTERX2
 70
    64
  3
________  __  ________  __  ________  __  _____
 72
    65
 73
     4
 40
4.0
 49
2.5
 49
-0.5
 49
0.5
 49
-0.5
  0
LTYPE
  2
DASHDOT
 70
    64
  3
__ . __ . __ . __ . __ . __ . __ . __ . __ . __
 72
    65
 73
     4
 40
1.0
 49
0.5
 49
-0.25
 49
0.0
 49
-0.25
  0
LTYPE
  2
DASHDOT2
 70
    64
  3
_._._._._._._._._._._._._._._._._._._._._._._._
 72
    65
 73
     4
 40
0.5
 49
0.25
 49
-0.125
 49
0.0
 49
-0.125
  0
LTYPE
  2
DASHDOTX2
 70
    64
  3
____  .  ____  .  ____  .  ____  .  ____  .  __
 72
    65
 73
     4
 40
2.0
 49
1.0
 49
-0.5
 49
0.0
 49
-0.5
  0
LTYPE
  2
DASHED
 70
    64
  3
__ __ __ __ __ __ __ __ __ __ __ __ __ __ __ __
 72
    65
 73
     2
 40
0.75
 49
0.5
 49
-0.25
  0
LTYPE
  2
DASHED2
 70
    64
  3
_ _ _ _ _ _ _ _ _ _ _ _ _ _ _ _ _ _ _ _ _ _ _ _
 72
    65
 73
     2
 40
0.375
 49
0.25
 49
-0.125
  0
LTYPE
  2
DASHEDX2
 70
    64
  3
____  ____  ____  ____  ____  ____  ____  ____
 72
    65
 73
     2
 40
1.5
 49
1.0
 49
-0.5
  0
LTYPE
  2
DIVIDE
 70
    64
  3
____ . . ____ . . ____ . . ____ . . ____ . . __
 72
    65
 73
     6
 40
1.25
 49
0.5
 49
-0.25
 49
0.0
 49
-0.25
 49
0.0
 49
-0.25
  0
LTYPE
  2
DIVIDE2
 70
    64
  3
__..__..__..__..__..__..__..__..__..__..__..__.
 72
    65
 73
     6
 40
0.625
 49
0.25
 49
-0.125
 49
0.0
 49
-0.125
 49
0.0
 49
-0.125
  0
LTYPE
  2
DIVIDEX2
 70
    64
  3
________  .  .  ________  .  .  ________  .  .
 72
    65
 73
     6
 40
2.5
 49
1.0
 49
-0.5
 49
0.0
 49
-0.5
 49
0.0
 49
-0.5
  0
LTYPE
  2
DOT
 70
    64
  3
. . . . . . . . . . . . . . . . . . . . . . . .
 72
    65
 73
     2
 40
0.25
 49
0.0
 49
-0.25
  0
LTYPE
  2
DOT2
 70
    64
  3
...............................................
 72
    65
 73
     2
 40
0.125
 49
0.0
 49
-0.125
  0
LTYPE
  2
DOTX2
 70
    64
  3
.  .  .  .  .  .  .  .  .  .  .  .  .  .  .  .
 72
    65
 73
     2
 40
0.5
 49
0.0
 49
-0.5
  0
LTYPE
  2
HIDDEN
 70
    64
  3
__ __ __ __ __ __ __ __ __ __ __ __ __ __ __ __
 72
    65
 73
     2
 40
0.375
 49
0.25
 49
-0.125
  0
LTYPE
  2
HIDDEN2
 70
    64
  3
_ _ _ _ _ _ _ _ _ _ _ _ _ _ _ _ _ _ _ _ _ _ _ _
 72
    65
 73
     2
 40
0.1875
 49
0.125
 49
-0.0625
  0
LTYPE
  2
HIDDENX2
 70
    64
  3
____ ____ ____ ____ ____ ____ ____ ____ ____ __
 72
    65
 73
     2
 40
0.75
 49
0.5
 49
-0.25
  0
LTYPE
  2
PHANTOM
 70
    64
  3
______  __  __  ______  __  __  ______  __  __
 72
    65
 73
     6
 40
2.5
 49
1.25
 49
-0.25
 49
0.25
 49
-0.25
 49
0.25
 49
-0.25
  0
LTYPE
  2
PHANTOM2
 70
    64
  3
___ _ _ ___ _ _ ___ _ _ ___ _ _ ___ _ _ ___ _ _
 72
    65
 73
     6
 40
1.25
 49
0.625
 49
-0.125
 49
0.125
 49
-0.125
 49
0.125
 49
-0.125
  0
LTYPE
  2
PHANTOMX2
 70
    64
  3
____________    ____    ____    ____________
 72
    65
 73
     6
 40
5.0
 49
2.5
 49
-0.5
 49
0.5
 49
-0.5
 49
0.5
 49
-0.5
  0
LTYPE
  2
ACAD_ISO02W100
 70
    64
  3
__ __ __ __ __ __ __ __ __ __ __ __ __ __ __ __
 72
    65
 73
     2
 40
15.0
 49
12.0
 49
-3.0
  0
LTYPE
  2
ACAD_ISO03W100
 70
    64
  3
__    __    __    __    __    __    __    __
 72
    65
 73
     2
 40
30.0
 49
12.0
 49
-18.0
  0
LTYPE
  2
ACAD_ISO04W100
 70
    64
  3
____ . ____ . ____ . ____ . ____ . ____ . ____
 72
    65
 73
     4
 40
30.5
 49
24.0
 49
-3.0
 49
0.5
 49
-3.0
  0
LTYPE
  2
ACAD_ISO05W100
 70
    64
  3
____ .. ____ .. ____ .. ____ .. ____ .. ____ ..
 72
    65
 73
     6
 40
34.0
 49
24.0
 49
-3.0
 49
0.5
 49
-3.0
 49
0.5
 49
-3.0
  0
LTYPE
  2
ACAD_ISO06W100
 70
    64
  3
____ ... ____ ... ____ ... ____ ... ____ ... __
 72
    65
 73
     8
 40
37.5
 49
24.0
 49
-3.0
 49
0.5
 49
-3.0
 49
0.5
 49
-3.0
 49
0.5
 49
-3.0
  0
LTYPE
  2
ACAD_ISO07W100
 70
    64
  3
. . . . . . . . . . . . . . . . . . . . . . . .
 72
    65
 73
     2
 40
3.5
 49
0.5
 49
-3.0
  0
LTYPE
  2
ACAD_ISO08W100
 70
    64
  3
____ __ ____ __ ____ __ ____ ____ __ __ ____ __
 72
    65
 73
     4
 40
36.0
 49
24.0
 49
-3.0
 49
6.0
 49
-3.0
  0
LTYPE
  2
ACAD_ISO09W100
 70
    64
  3
____ __ __ ____ __ __ ____ __ __ ____ __ __ ___
 72
    65
 73
     6
 40
45.0
 49
24.0
 49
-3.0
 49
6.0
 49
-3.0
 49
6.0
 49
-3.0
  0
LTYPE
  2
ACAD_ISO10W100
 70
    64
  3
__ . __ . __ . __ . __ . __ . __ . __ . __ . __
 72
    65
 73
     4
 40
18.5
 49
12.0
 49
-3.0
 49
0.5
 49
-3.0
  0
LTYPE
  2
ACAD_ISO11W100
 70
    64
  3
__ __ . __ __ . __ __ . __ __ . __ __ . __ __ .
 72
    65
 73
     6
 40
33.5
 49
12.0
 49
-3.0
 49
12.0
 49
-3.0
 49
0.5
 49
-3.0
  0
LTYPE
  2
ACAD_ISO12W100
 70
    64
  3
__ . . __ . . __ . . __ . . __ . . __ . . __ .
 72
    65
 73
     6
 40
22.0
 49
12.0
 49
-3.0
 49
0.5
 49
-3.0
 49
0.5
 49
-3.0
  0
LTYPE
  2
ACAD_ISO13W100
 70
    64
  3
__ __ . . __ __ . . __ __ . . __ __ . . __ __ .
 72
    65
 73
     8
 40
37.0
 49
12.0
 49
-3.0
 49
12.0
 49
-3.0
 49
0.5
 49
-3.0
 49
0.5
 49
-3.0
  0
LTYPE
  2
ACAD_ISO14W100
 70
    64
  3
__ . . . __ . . . __ . . . __ . . . __ . . . __
 72
    65
 73
     8
 40
25.5
 49
12.0
 49
-3.0
 49
0.5
 49
-3.0
 49
0.5
 49
-3.0
 49
0.5
 49
-3.0
  0
LTYPE
  2
ACAD_ISO15W100
 70
    64
  3
__ __ . . . __ __ . . . __ __ . . . __ __ . . .
 72
    65
 73
    10
 40
40.5
 49
12.0
 49
-3.0
 49
12.0
 49
-3.0
 49
0.5
 49
-3.0
 49
0.5
 49
-3.0
 49
0.5
 49
-3.0
  0
ENDTAB
  0
TABLE
  2
STYLE
 70
     4
  0
STYLE
  2
STANDARD
 70
    64
 40
0.0
 41
1.0
 50
0.0
 71
     0
 42
0.2
  3
txt
  4

  0
STYLE
  2
TOLERANCE
 70
    64
 40
0.0
 41
1.0
 50
0.0
 71
     0
 42
0.2
  3
../igesfont/iges1003.shx
  4

  0
STYLE
  2
ROMANS
 70
    64
 40
0.0
 41
1.0
 50
0.0
 71
     0
 42
0.2
  3
romans.shx
  4

  0
STYLE
  2
ROMANC
 70
    64
 40
0.0
 41
1.0
 50
0.0
 71
     0
 42
0.2
  3
romanc.shx
  4

  0
ENDTAB
  0
TABLE
  2
DIMSTYLE
 70
     2
  0
DIMSTYLE
  2
UNNAMED
 70
     0
  3

  4

  5

  6

  7

 40
1.0
 41
0.18
 42
0.0625
 43
0.38
 44
0.18
 45
0.0
 46
0.0
 47
0.0
 48
0.0
140
0.18
141
0.09
142
0.0
143
25.4
144
1.0
145
0.0
146
1.0
147
0.09
 71
     0
 72
     0
 73
     1
 74
     1
 75
     0
 76
     0
 77
     0
 78
     0
170
     0
171
     2
172
     0
173
     0
174
     0
175
     0
176
     0
177
     0
178
     0
  0
DIMSTYLE
  2
STANDARD
 70
     0
  3

  4

  5

  6

  7

 40
1.0
 41
0.18
 42
0.0625
 43
0.38
 44
0.18
 45
0.0
 46
0.0
 47
0.0
 48
0.0
140
0.18
141
0.09
142
0.0
143
25.4
144
1.0
145
0.0
146
1.0
147
0.09
 71
     0
 72
     0
 73
     1
 74
     1
 75
     0
 76
     0
 77
     0
 78
     0
170
     0
171
     2
172
     0
173
     0
174
     0
175
     0
176
     0
177
     0
178
     0
  0
ENDTAB
  0
TABLE
  2
LAYER
 70
     2
  0
LAYER
  2
0
 70
     0
 62
     7
  6
CONTINUOUS
  0
LAYER
  2
255
 70
     0
 62
     7
  6
CONTINUOUS
  0
ENDTAB
  0
ENDSEC
  0
SECTION
  2
BLOCKS
  0
BLOCK
  5
     B
  8
0
  6
CONTINUOUS
 62
     7
  2
*HATCH64
 70
    65
 10
0.0
 20
0.0
 30
0.0
  3
*HATCH64
  0
LINE
  5
     C
  8
0
  6
CONTINUOUS
 62
     3
 10
204.218536376953
 20
77.9999618530274
 30
0.0
 11
202.237045288086
 21
76.0184707641602
 31
0.0
  0
LINE
  5
     D
  8
0
  6
CONTINUOUS
 62
     3
 10
206.237045288086
 20
77.8971557617188
 30
0.0
 11
202.237045288086
 21
73.8971557617188
 31
0.0
  0
LINE
  5
     E
  8
0
  6
CONTINUOUS
 62
     3
 10
206.237045288086
 20
75.7758331298828
 30
0.0
 11
202.237045288086
 21
71.7758331298828
 31
0.0
  0
LINE
  5
     F
  8
0
  6
CONTINUOUS
 62
     3
 10
206.237045288086
 20
73.6545104980469
 30
0.0
 11
202.237045288086
 21
69.6545104980469
 31
0.0
  0
LINE
  5
    10
  8
0
  6
CONTINUOUS
 62
     3
 10
206.237045288086
 20
71.5331878662109
 30
0.0
 11
202.237045288086
 21
67.5331878662109
 31
0.0
  0
LINE
  5
    11
  8
0
  6
CONTINUOUS
 62
     3
 10
206.237045288086
 20
69.4118728637695
 30
0.0
 11
202.819671630859
 21
65.994499206543
 31
0.0
  0
LINE
  5
    12
  8
0
  6
CONTINUOUS
 62
     3
 10
206.237045288086
 20
67.2905502319336
 30
0.0
 11
204.279418945313
 21
65.3329238891602
 31
0.0
  0
LINE
  5
    13
  8
0
  6
CONTINUOUS
 62
     3
 10
206.237045288086
 20
65.1692276000977
 30
0.0
 11
205.739166259766
 21
64.6713485717773
 31
0.0
  0
ENDBLK
  5
    14
  8
0
  6
CONTINUOUS
 62
     7
  0
BLOCK
  5
    15
  8
0
  6
CONTINUOUS
 62
     7
  2
*HATCH65
 70
    65
 10
0.0
 20
0.0
 30
0.0
  3
*HATCH65
  0
LINE
  5
    16
  8
0
  6
CONTINUOUS
 62
     3
 10
197.431854248047
 20
90.3051605224609
 30
0.0
 11
196.745819091797
 21
89.6191329956055
 31
0.0
  0
LINE
  5
    17
  8
0
  6
CONTINUOUS
 62
     3
 10
198.492523193359
 20
89.2445068359375
 30
0.0
 11
196.745819091797
 21
87.4978103637695
 31
0.0
  0
LINE
  5
    18
  8
0
  6
CONTINUOUS
 62
     3
 10
199.553192138672
 20
88.1838531494141
 30
0.0
 11
196.745819091797
 21
85.3764877319336
 31
0.0
  0
LINE
  5
    19
  8
0
  6
CONTINUOUS
 62
     3
 10
199.737045288086
 20
86.2463912963867
 30
0.0
 11
196.745819091797
 21
83.2551727294922
 31
0.0
  0
LINE
  5
    1A
  8
0
  6
CONTINUOUS
 62
     3
 10
199.737045288086
 20
84.1250762939453
 30
0.0
 11
198.611923217773
 21
82.9999618530274
 31
0.0
  0
ENDBLK
  5
    1B
  8
0
  6
CONTINUOUS
 62
     7
  0
BLOCK
  5
    1C
  8
0
  6
CONTINUOUS
 62
     7
  2
*HATCH66
 70
    65
 10
0.0
 20
0.0
 30
0.0
  3
*HATCH66
  0
LINE
  5
    1D
  8
0
  6
CONTINUOUS
 62
   210
 10
-10.7629547119141
 20
80.7665863037109
 30
0.0
 11
-7.99633836746216
 21
77.9999618530274
 31
0.0
  0
LINE
  5
    1E
  8
0
  6
CONTINUOUS
 62
   210
 10
-8.75369358062744
 20
82.9999618530274
 30
0.0
 11
-4.76300573348999
 21
79.0092697143555
 31
0.0
  0
ENDBLK
  5
    1F
  8
0
  6
CONTINUOUS
 62
     7
  0
BLOCK
  5
    20
  8
0
  6
CONTINUOUS
 62
     7
  2
*HATCH67
 70
    65
 10
0.0
 20
0.0
 30
0.0
  3
*HATCH67
  0
LINE
  5
    21
  8
0
  6
CONTINUOUS
 62
   210
 10
3.23699402809143
 20
81.6158676147461
 30
0.0
 11
6.8528938293457
 21
77.9999618530274
 31
0.0
  0
LINE
  5
    22
  8
0
  6
CONTINUOUS
 62
   210
 10
6.09554004669189
 20
82.9999618530274
 30
0.0
 11
11.095531463623
 21
77.9999618530274
 31
0.0
  0
LINE
  5
    23
  8
0
  6
CONTINUOUS
 62
   210
 10
10.3381776809692
 20
82.9999618530274
 30
0.0
 11
15.3381690979004
 21
77.9999618530274
 31
0.0
  0
LINE
  5
    24
  8
0
  6
CONTINUOUS
 62
   210
 10
14.5808153152466
 20
82.9999618530274
 30
0.0
 11
19.5808067321777
 21
77.9999618530274
 31
0.0
  0
LINE
  5
    25
  8
0
  6
CONTINUOUS
 62
   210
 10
18.8234539031982
 20
82.9999618530274
 30
0.0
 11
19.7282676696777
 21
82.0951461791992
 31
0.0
  0
ENDBLK
  5
    26
  8
0
  6
CONTINUOUS
 62
     7
  0
BLOCK
  5
    27
  8
0
  6
CONTINUOUS
 62
     7
  2
*HATCH68
 70
    65
 10
0.0
 20
0.0
 30
0.0
  3
*HATCH68
  0
LINE
  5
    28
  8
0
  6
CONTINUOUS
 62
     3
 10
17.0864696502686
 20
102.999938964844
 30
0.0
 11
15.2370948791504
 21
101.150566101074
 31
0.0
  0
LINE
  5
    29
  8
0
  6
CONTINUOUS
 62
     3
 10
18.1471290588379
 20
102.999938964844
 30
0.0
 11
14.2369937896729
 21
99.0898056030274
 31
0.0
  0
LINE
  5
    2A
  8
0
  6
CONTINUOUS
 62
     3
 10
18.2369937896729
 20
100.968482971191
 30
0.0
 11
14.2369937896729
 21
96.9684829711914
 31
0.0
  0
LINE
  5
    2B
  8
0
  6
CONTINUOUS
 62
     3
 10
18.2369937896729
 20
98.8471603393555
 30
0.0
 11
14.2369937896729
 21
94.8471603393555
 31
0.0
  0
LINE
  5
    2C
  8
0
  6
CONTINUOUS
 62
     3
 10
18.2369937896729
 20
96.7258377075195
 30
0.0
 11
14.2369937896729
 21
92.7258377075195
 31
0.0
  0
LINE
  5
    2D
  8
0
  6
CONTINUOUS
 62
     3
 10
18.2369937896729
 20
94.6045150756836
 30
0.0
 11
14.2369937896729
 21
90.6045150756836
 31
0.0
  0
LINE
  5
    2E
  8
0
  6
CONTINUOUS
 62
     3
 10
18.2369937896729
 20
92.4831924438477
 30
0.0
 11
14.2369937896729
 21
88.4831924438477
 31
0.0
  0
LINE
  5
    2F
  8
0
  6
CONTINUOUS
 62
     3
 10
18.2369937896729
 20
90.3618698120117
 30
0.0
 11
14.2369937896729
 21
86.3618698120117
 31
0.0
  0
LINE
  5
    30
  8
0
  6
CONTINUOUS
 62
     3
 10
18.2369937896729
 20
88.2405471801758
 30
0.0
 11
14.2369937896729
 21
84.2405471801758
 31
0.0
  0
LINE
  5
    31
  8
0
  6
CONTINUOUS
 62
     3
 10
18.2369937896729
 20
86.1192398071289
 30
0.0
 11
15.117714881897
 21
82.9999618530274
 31
0.0
  0
LINE
  5
    32
  8
0
  6
CONTINUOUS
 62
     3
 10
18.2369937896729
 20
83.997917175293
 30
0.0
 11
17.23903465271
 21
82.9999618530274
 31
0.0
  0
ENDBLK
  5
    33
  8
0
  6
CONTINUOUS
 62
     7
  0
BLOCK
  5
    34
  8
0
  6
CONTINUOUS
 62
     7
  2
*HATCH69
 70
    65
 10
0.0
 20
0.0
 30
0.0
  3
*HATCH69
  0
LINE
  5
    35
  8
0
  6
CONTINUOUS
 62
     3
 10
12.2390375137329
 20
77.9999618530274
 30
0.0
 11
10.2369937896729
 21
75.997917175293
 31
0.0
  0
LINE
  5
    36
  8
0
  6
CONTINUOUS
 62
     3
 10
14.2369937896729
 20
77.8766021728516
 30
0.0
 11
10.2369937896729
 21
73.8766021728516
 31
0.0
  0
LINE
  5
    37
  8
0
  6
CONTINUOUS
 62
     3
 10
14.2369937896729
 20
75.7552795410156
 30
0.0
 11
10.2369937896729
 21
71.7552795410156
 31
0.0
  0
LINE
  5
    38
  8
0
  6
CONTINUOUS
 62
     3
 10
14.2369937896729
 20
73.6339569091797
 30
0.0
 11
10.2369937896729
 21
69.6339569091797
 31
0.0
  0
LINE
  5
    39
  8
0
  6
CONTINUOUS
 62
     3
 10
14.2369937896729
 20
71.5126342773438
 30
0.0
 11
10.2369937896729
 21
67.5126342773438
 31
0.0
  0
LINE
  5
    3A
  8
0
  6
CONTINUOUS
 62
     3
 10
14.2369937896729
 20
69.3913116455078
 30
0.0
 11
10.2369937896729
 21
65.3913116455078
 31
0.0
  0
LINE
  5
    3B
  8
0
  6
CONTINUOUS
 62
     3
 10
14.2369937896729
 20
67.2699890136719
 30
0.0
 11
10.2369937896729
 21
63.2699890136719
 31
0.0
  0
LINE
  5
    3C
  8
0
  6
CONTINUOUS
 62
     3
 10
14.2369937896729
 20
65.148681640625
 30
0.0
 11
10.8553380966187
 21
61.7670249938965
 31
0.0
  0
LINE
  5
    3D
  8
0
  6
CONTINUOUS
 62
     3
 10
14.2369937896729
 20
63.0273590087891
 30
0.0
 11
13.7800302505493
 21
62.5703964233398
 31
0.0
  0
ENDBLK
  5
    3E
  8
0
  6
CONTINUOUS
 62
     7
  0
BLOCK
  5
    3F
  8
0
  6
CONTINUOUS
 62
     7
  2
*HATCH70
 70
    65
 10
0.0
 20
0.0
 30
0.0
  3
*HATCH70
  0
LINE
  5
    40
  8
0
  6
CONTINUOUS
 62
     3
 10
185.858123779297
 20
-4.00005149841309
 30
0.0
 11
184.480621337891
 21
-5.37755584716797
 31
0.0
  0
LINE
  5
    41
  8
0
  6
CONTINUOUS
 62
     3
 10
187.979446411133
 20
-4.00005149841309
 30
0.0
 11
185.979446411133
 21
-6.00005149841309
 31
0.0
  0
LINE
  5
    42
  8
0
  6
CONTINUOUS
 62
     3
 10
190.10075378418
 20
-4.00005149841309
 30
0.0
 11
188.10075378418
 21
-6.00005149841309
 31
0.0
  0
LINE
  5
    43
  8
0
  6
CONTINUOUS
 62
     3
 10
192.222061157227
 20
-4.00005149841309
 30
0.0
 11
190.222061157227
 21
-6.00005149841309
 31
0.0
  0
LINE
  5
    44
  8
0
  6
CONTINUOUS
 62
     3
 10
194.343368530273
 20
-4.00005149841309
 30
0.0
 11
192.343368530273
 21
-6.00005149841309
 31
0.0
  0
LINE
  5
    45
  8
0
  6
CONTINUOUS
 62
     3
 10
196.46467590332
 20
-4.00005149841309
 30
0.0
 11
194.46467590332
 21
-6.00005149841309
 31
0.0
  0
LINE
  5
    46
  8
0
  6
CONTINUOUS
 62
     3
 10
198.585983276367
 20
-4.00005149841309
 30
0.0
 11
196.585983276367
 21
-6.00005149841309
 31
0.0
  0
LINE
  5
    47
  8
0
  6
CONTINUOUS
 62
     3
 10
200.707290649414
 20
-4.00005149841309
 30
0.0
 11
198.707290649414
 21
-6.00005149841309
 31
0.0
  0
LINE
  5
    48
  8
0
  6
CONTINUOUS
 62
     3
 10
202.828598022461
 20
-4.00005149841309
 30
0.0
 11
200.828598022461
 21
-6.00005149841309
 31
0.0
  0
LINE
  5
    49
  8
0
  6
CONTINUOUS
 62
     3
 10
204.949905395508
 20
-4.00005149841309
 30
0.0
 11
202.949905395508
 21
-6.00005149841309
 31
0.0
  0
LINE
  5
    4A
  8
0
  6
CONTINUOUS
 62
     3
 10
207.071212768555
 20
-4.00005149841309
 30
0.0
 11
205.071212768555
 21
-6.00005149841309
 31
0.0
  0
LINE
  5
    4B
  8
0
  6
CONTINUOUS
 62
     3
 10
209.192520141602
 20
-4.00005149841309
 30
0.0
 11
207.192520141602
 21
-6.00005149841309
 31
0.0
  0
LINE
  5
    4C
  8
0
  6
CONTINUOUS
 62
     3
 10
211.313827514648
 20
-4.00005149841309
 30
0.0
 11
209.313827514648
 21
-6.00005149841309
 31
0.0
  0
LINE
  5
    4D
  8
0
  6
CONTINUOUS
 62
     3
 10
213.435134887695
 20
-4.00005149841309
 30
0.0
 11
211.435134887695
 21
-6.00005149841309
 31
0.0
  0
LINE
  5
    4E
  8
0
  6
CONTINUOUS
 62
     3
 10
215.556442260742
 20
-4.00005149841309
 30
0.0
 11
213.556442260742
 21
-6.00005149841309
 31
0.0
  0
LINE
  5
    4F
  8
0
  6
CONTINUOUS
 62
     3
 10
217.677749633789
 20
-4.00005149841309
 30
0.0
 11
215.677749633789
 21
-6.00005149841309
 31
0.0
  0
LINE
  5
    50
  8
0
  6
CONTINUOUS
 62
     3
 10
219.799057006836
 20
-4.00005149841309
 30
0.0
 11
217.799057006836
 21
-6.00005149841309
 31
0.0
  0
LINE
  5
    51
  8
0
  6
CONTINUOUS
 62
     3
 10
221.920364379883
 20
-4.00005149841309
 30
0.0
 11
219.920364379883
 21
-6.00005149841309
 31
0.0
  0
LINE
  5
    52
  8
0
  6
CONTINUOUS
 62
     3
 10
224.04167175293
 20
-4.00005149841309
 30
0.0
 11
222.04167175293
 21
-6.00005149841309
 31
0.0
  0
LINE
  5
    53
  8
0
  6
CONTINUOUS
 62
     3
 10
226.162979125977
 20
-4.00005149841309
 30
0.0
 11
224.162979125977
 21
-6.00005149841309
 31
0.0
  0
LINE
  5
    54
  8
0
  6
CONTINUOUS
 62
     3
 10
228.284286499023
 20
-4.00005149841309
 30
0.0
 11
226.284286499023
 21
-6.00005149841309
 31
0.0
  0
LINE
  5
    55
  8
0
  6
CONTINUOUS
 62
     3
 10
230.40559387207
 20
-4.00005149841309
 30
0.0
 11
228.40559387207
 21
-6.00005149841309
 31
0.0
  0
LINE
  5
    56
  8
0
  6
CONTINUOUS
 62
     3
 10
232.526901245117
 20
-4.00005149841309
 30
0.0
 11
230.526901245117
 21
-6.00005149841309
 31
0.0
  0
LINE
  5
    57
  8
0
  6
CONTINUOUS
 62
     3
 10
234.648208618164
 20
-4.00005149841309
 30
0.0
 11
232.648208618164
 21
-6.00005149841309
 31
0.0
  0
LINE
  5
    58
  8
0
  6
CONTINUOUS
 62
     3
 10
236.769515991211
 20
-4.00005149841309
 30
0.0
 11
234.769515991211
 21
-6.00005149841309
 31
0.0
  0
LINE
  5
    59
  8
0
  6
CONTINUOUS
 62
     3
 10
238.890823364258
 20
-4.00005149841309
 30
0.0
 11
236.890823364258
 21
-6.00005149841309
 31
0.0
  0
LINE
  5
    5A
  8
0
  6
CONTINUOUS
 62
     3
 10
241.012130737305
 20
-4.00005149841309
 30
0.0
 11
239.012130737305
 21
-6.00005149841309
 31
0.0
  0
LINE
  5
    5B
  8
0
  6
CONTINUOUS
 62
     3
 10
243.133438110352
 20
-4.00005149841309
 30
0.0
 11
241.133438110352
 21
-6.00005149841309
 31
0.0
  0
LINE
  5
    5C
  8
0
  6
CONTINUOUS
 62
     3
 10
245.254745483398
 20
-4.00005149841309
 30
0.0
 11
243.254745483398
 21
-6.00005149841309
 31
0.0
  0
LINE
  5
    5D
  8
0
  6
CONTINUOUS
 62
     3
 10
247.376052856445
 20
-4.00005149841309
 30
0.0
 11
245.376052856445
 21
-6.00005149841309
 31
0.0
  0
LINE
  5
    5E
  8
0
  6
CONTINUOUS
 62
     3
 10
248.910140991211
 20
-4.58765363693237
 30
0.0
 11
247.497741699219
 21
-6.00005149841309
 31
0.0
  0
LINE
  5
    5F
  8
0
  6
CONTINUOUS
 62
     3
 10
249.653274536133
 20
-5.96583604812622
 30
0.0
 11
249.619049072266
 21
-6.00005149841309
 31
0.0
  0
ENDBLK
  5
    60
  8
0
  6
CONTINUOUS
 62
     7
  0
BLOCK
  5
    61
  8
0
  6
CONTINUOUS
 62
     7
  2
*HATCH71
 70
    65
 10
0.0
 20
0.0
 30
0.0
  3
*HATCH71
  0
LINE
  5
    62
  8
0
  6
CONTINUOUS
 62
     3
 10
167.826889038086
 20
-4.00005149841309
 30
0.0
 11
165.980621337891
 21
-5.84633255004883
 31
0.0
  0
LINE
  5
    63
  8
0
  6
CONTINUOUS
 62
     3
 10
169.948211669922
 20
-4.00005149841309
 30
0.0
 11
167.948211669922
 21
-6.00005149841309
 31
0.0
  0
LINE
  5
    64
  8
0
  6
CONTINUOUS
 62
     3
 10
172.069519042969
 20
-4.00005149841309
 30
0.0
 11
170.069519042969
 21
-6.00005149841309
 31
0.0
  0
LINE
  5
    65
  8
0
  6
CONTINUOUS
 62
     3
 10
174.190826416016
 20
-4.00005149841309
 30
0.0
 11
172.190826416016
 21
-6.00005149841309
 31
0.0
  0
LINE
  5
    66
  8
0
  6
CONTINUOUS
 62
     3
 10
176.312133789062
 20
-4.00005149841309
 30
0.0
 11
174.312133789063
 21
-6.00005149841309
 31
0.0
  0
LINE
  5
    67
  8
0
  6
CONTINUOUS
 62
     3
 10
177.480621337891
 20
-4.95293474197388
 30
0.0
 11
176.433502197266
 21
-6.00005149841309
 31
0.0
  0
ENDBLK
  5
    68
  8
0
  6
CONTINUOUS
 62
     7
  0
BLOCK
  5
    69
  8
0
  6
CONTINUOUS
 62
     7
  2
*HATCH72
 70
    65
 10
0.0
 20
0.0
 30
0.0
  3
*HATCH72
  0
LINE
  5
    6A
  8
0
  6
CONTINUOUS
 62
     3
 10
43.7296600341797
 20
-4.00005149841309
 30
0.0
 11
42.4806251525879
 21
-5.24908351898193
 31
0.0
  0
LINE
  5
    6B
  8
0
  6
CONTINUOUS
 62
     3
 10
45.8509788513184
 20
-4.00005149841309
 30
0.0
 11
43.8509788513184
 21
-6.00005149841309
 31
0.0
  0
LINE
  5
    6C
  8
0
  6
CONTINUOUS
 62
     3
 10
47.9723014831543
 20
-4.00005149841309
 30
0.0
 11
45.9723014831543
 21
-6.00005149841309
 31
0.0
  0
LINE
  5
    6D
  8
0
  6
CONTINUOUS
 62
     3
 10
50.0936241149902
 20
-4.00005149841309
 30
0.0
 11
48.0936241149902
 21
-6.00005149841309
 31
0.0
  0
LINE
  5
    6E
  8
0
  6
CONTINUOUS
 62
     3
 10
52.2149467468262
 20
-4.00005149841309
 30
0.0
 11
50.2149467468262
 21
-6.00005149841309
 31
0.0
  0
LINE
  5
    6F
  8
0
  6
CONTINUOUS
 62
     3
 10
53.9806251525879
 20
-4.35568618774414
 30
0.0
 11
52.3362579345703
 21
-6.00005149841309
 31
0.0
  0
ENDBLK
  5
    70
  8
0
  6
CONTINUOUS
 62
     7
  0
BLOCK
  5
    71
  8
0
  6
CONTINUOUS
 62
     7
  2
*HATCH73
 70
    65
 10
0.0
 20
0.0
 30
0.0
  3
*HATCH73
  0
LINE
  5
    72
  8
0
  6
CONTINUOUS
 62
     3
 10
-24.1525974273682
 20
-4.00005149841309
 30
0.0
 11
-25.3908443450928
 21
-5.23830080032349
 31
0.0
  0
LINE
  5
    73
  8
0
  6
CONTINUOUS
 62
     3
 10
-22.0312747955322
 20
-4.00005149841309
 30
0.0
 11
-24.0312747955322
 21
-6.00005149841309
 31
0.0
  0
LINE
  5
    74
  8
0
  6
CONTINUOUS
 62
     3
 10
-19.9099559783936
 20
-4.00005149841309
 30
0.0
 11
-21.9099559783936
 21
-6.00005149841309
 31
0.0
  0
LINE
  5
    75
  8
0
  6
CONTINUOUS
 62
     3
 10
-17.7886371612549
 20
-4.00005149841309
 30
0.0
 11
-19.7886371612549
 21
-6.00005149841309
 31
0.0
  0
LINE
  5
    76
  8
0
  6
CONTINUOUS
 62
     3
 10
-15.6673173904419
 20
-4.00005149841309
 30
0.0
 11
-17.6673183441162
 21
-6.00005149841309
 31
0.0
  0
LINE
  5
    77
  8
0
  6
CONTINUOUS
 62
     3
 10
-13.5459966659546
 20
-4.00005149841309
 30
0.0
 11
-15.5459985733032
 21
-6.00005149841309
 31
0.0
  0
LINE
  5
    78
  8
0
  6
CONTINUOUS
 62
     3
 10
-11.4246759414673
 20
-4.00005149841309
 30
0.0
 11
-13.4246778488159
 21
-6.00005149841309
 31
0.0
  0
LINE
  5
    79
  8
0
  6
CONTINUOUS
 62
     3
 10
-9.30335521697998
 20
-4.00005149841309
 30
0.0
 11
-11.3033571243286
 21
-6.00005149841309
 31
0.0
  0
LINE
  5
    7A
  8
0
  6
CONTINUOUS
 62
     3
 10
-7.18203449249268
 20
-4.00005149841309
 30
0.0
 11
-9.18203639984131
 21
-6.00005149841309
 31
0.0
  0
LINE
  5
    7B
  8
0
  6
CONTINUOUS
 62
     3
 10
-5.06071376800537
 20
-4.00005149841309
 30
0.0
 11
-7.060715675354
 21
-6.00005149841309
 31
0.0
  0
LINE
  5
    7C
  8
0
  6
CONTINUOUS
 62
     3
 10
-2.93939328193665
 20
-4.00005149841309
 30
0.0
 11
-4.9393949508667
 21
-6.00005149841309
 31
0.0
  0
LINE
  5
    7D
  8
0
  6
CONTINUOUS
 62
     3
 10
-0.818073034286499
 20
-4.00005149841309
 30
0.0
 11
-2.81807422637939
 21
-6.00005149841309
 31
0.0
  0
LINE
  5
    7E
  8
0
  6
CONTINUOUS
 62
     3
 10
1.30324721336365
 20
-4.00005149841309
 30
0.0
 11
-0.696753740310669
 21
-6.00005149841309
 31
0.0
  0
LINE
  5
    7F
  8
0
  6
CONTINUOUS
 62
     3
 10
3.42456746101379
 20
-4.00005149841309
 30
0.0
 11
1.42456674575806
 21
-6.00005149841309
 31
0.0
  0
LINE
  5
    80
  8
0
  6
CONTINUOUS
 62
     3
 10
5.54588794708252
 20
-4.00005149841309
 30
0.0
 11
3.54588747024536
 21
-6.00005149841309
 31
0.0
  0
LINE
  5
    81
  8
0
  6
CONTINUOUS
 62
     3
 10
7.66720867156982
 20
-4.00005149841309
 30
0.0
 11
5.66720819473267
 21
-6.00005149841309
 31
0.0
  0
LINE
  5
    82
  8
0
  6
CONTINUOUS
 62
     3
 10
9.78852939605713
 20
-4.00005149841309
 30
0.0
 11
7.78852891921997
 21
-6.00005149841309
 31
0.0
  0
LINE
  5
    83
  8
0
  6
CONTINUOUS
 62
     3
 10
11.9098501205444
 20
-4.00005149841309
 30
0.0
 11
9.90984916687012
 21
-6.00005149841309
 31
0.0
  0
LINE
  5
    84
  8
0
  6
CONTINUOUS
 62
     3
 10
14.0311708450317
 20
-4.00005149841309
 30
0.0
 11
12.0311698913574
 21
-6.00005149841309
 31
0.0
  0
LINE
  5
    85
  8
0
  6
CONTINUOUS
 62
     3
 10
16.1524906158447
 20
-4.00005149841309
 30
0.0
 11
14.1524906158447
 21
-6.00005149841309
 31
0.0
  0
LINE
  5
    86
  8
0
  6
CONTINUOUS
 62
     3
 10
18.2738094329834
 20
-4.00005149841309
 30
0.0
 11
16.273811340332
 21
-6.00005149841309
 31
0.0
  0
LINE
  5
    87
  8
0
  6
CONTINUOUS
 62
     3
 10
20.3951282501221
 20
-4.00005149841309
 30
0.0
 11
18.3951301574707
 21
-6.00005149841309
 31
0.0
  0
LINE
  5
    88
  8
0
  6
CONTINUOUS
 62
     3
 10
22.5164470672607
 20
-4.00005149841309
 30
0.0
 11
20.5164489746094
 21
-6.00005149841309
 31
0.0
  0
LINE
  5
    89
  8
0
  6
CONTINUOUS
 62
     3
 10
24.6377658843994
 20
-4.00005149841309
 30
0.0
 11
22.637767791748
 21
-6.00005149841309
 31
0.0
  0
LINE
  5
    8A
  8
0
  6
CONTINUOUS
 62
     3
 10
26.7590847015381
 20
-4.00005149841309
 30
0.0
 11
24.7590866088867
 21
-6.00005149841309
 31
0.0
  0
LINE
  5
    8B
  8
0
  6
CONTINUOUS
 62
     3
 10
28.8804035186768
 20
-4.00005149841309
 30
0.0
 11
26.8804054260254
 21
-6.00005149841309
 31
0.0
  0
LINE
  5
    8C
  8
0
  6
CONTINUOUS
 62
     3
 10
31.0017223358154
 20
-4.00005149841309
 30
0.0
 11
29.0017242431641
 21
-6.00005149841309
 31
0.0
  0
LINE
  5
    8D
  8
0
  6
CONTINUOUS
 62
     3
 10
33.1230430603027
 20
-4.00005149841309
 30
0.0
 11
31.1230430603027
 21
-6.00005149841309
 31
0.0
  0
LINE
  5
    8E
  8
0
  6
CONTINUOUS
 62
     3
 10
35.2443656921387
 20
-4.00005149841309
 30
0.0
 11
33.2443656921387
 21
-6.00005149841309
 31
0.0
  0
LINE
  5
    8F
  8
0
  6
CONTINUOUS
 62
     3
 10
35.4806251525879
 20
-5.88512229919434
 30
0.0
 11
35.3656959533691
 21
-6.00005149841309
 31
0.0
  0
ENDBLK
  5
    90
  8
0
  6
CONTINUOUS
 62
     7
  0
BLOCK
  5
    91
  8
0
  6
CONTINUOUS
 62
     2
  2
*HATCH74
 70
    65
 10
0.0
 20
0.0
 30
0.0
  3
*HATCH74
  0
LINE
  5
    92
  8
0
  6
CONTINUOUS
 62
   210
 10
225.128433227539
 20
82.9999618530274
 30
0.0
 11
221.237091064453
 21
79.1086196899414
 31
0.0
  0
LINE
  5
    93
  8
0
  6
CONTINUOUS
 62
   210
 10
227.237045288086
 20
80.8659286499024
 30
0.0
 11
225.371078491211
 21
78.9999618530273
 31
0.0
  0
ENDBLK
  5
    94
  8
0
  6
CONTINUOUS
 62
     2
  0
BLOCK
  5
    95
  8
0
  6
CONTINUOUS
 62
     2
  2
*HATCH75
 70
    65
 10
0.0
 20
0.0
 30
0.0
  3
*HATCH75
  0
LINE
  5
    96
  8
0
  6
CONTINUOUS
 62
   210
 10
199.672592163086
 20
82.9999618530274
 30
0.0
 11
196.745819091797
 21
80.0731887817383
 31
0.0
  0
LINE
  5
    97
  8
0
  6
CONTINUOUS
 62
   210
 10
203.915237426758
 20
82.9999618530274
 30
0.0
 11
198.915237426758
 21
77.9999618530274
 31
0.0
  0
LINE
  5
    98
  8
0
  6
CONTINUOUS
 62
   210
 10
208.15788269043
 20
82.9999618530274
 30
0.0
 11
203.15788269043
 21
77.9999618530274
 31
0.0
  0
LINE
  5
    99
  8
0
  6
CONTINUOUS
 62
   210
 10
212.400512695313
 20
82.9999618530274
 30
0.0
 11
208.400512695313
 21
78.9999618530273
 31
0.0
  0
LINE
  5
    9A
  8
0
  6
CONTINUOUS
 62
   210
 10
213.237091064453
 20
79.5939025878906
 30
0.0
 11
212.643157958984
 21
78.9999618530273
 31
0.0
  0
ENDBLK
  5
    9B
  8
0
  6
CONTINUOUS
 62
     2
  0
BLOCK
  5
    9C
  8
0
  6
CONTINUOUS
 62
     7
  2
PROLUNGATI
 70
    64
 10
0.0
 20
0.0
 30
0.0
  3
PROLUNGATI
  0
LINE
  5
    9D
  8
0
  6
CONTINUOUS
 62
     3
 10
-0.999999995575894
 20
20.5000305395807
 30
0.0
 11
4.42410552636829E-9
 21
20.5000457983697
 31
0.0
  0
LINE
  5
    9E
  8
0
  6
CONTINUOUS
 62
     3
 10
1.10387083651631E-6
 20
20.500041095613
 30
0.0
 11
1.0000010696423
 21
19.5000411298415
 31
0.0
  0
LINE
  5
    9F
  8
0
  6
CONTINUOUS
 62
     3
 10
1.0
 20
18.0000457763672
 30
0.0
 11
1.0
 21
19.5000457763672
 31
0.0
  0
LINE
  5
    A0
  8
0
  6
CONTINUOUS
 62
     3
 10
-0.999999998894022
 20
18.000030523006
 30
0.0
 11
1.00000000110598
 21
18.0000457817951
 31
0.0
  0
LINE
  5
    A1
  8
0
  6
CONTINUOUS
 62
     3
 10
-1.00000000000001
 20
18.0
 30
0.0
 11
0.99999999999999
 21
18.0
 31
0.0
  0
LINE
  5
    A2
  8
0
  6
CONTINUOUS
 62
     3
 10
-0.5
 20
-8.5
 30
0.0
 11
-0.5
 21
8.5
 31
0.0
  0
LINE
  5
    A3
  8
0
  6
CONTINUOUS
 62
     3
 10
-4.25000286102296
 20
11.5
 30
0.0
 11
-1.00000000000001
 21
11.5
 31
0.0
  0
LINE
  5
    A4
  8
0
  6
CONTINUOUS
 62
     3
 10
-1.0
 20
11.5
 30
0.0
 11
-1.0
 21
18.0
 31
0.0
  0
LINE
  5
    A5
  8
0
  6
CONTINUOUS
 62
     3
 10
-16.5
 20
-10.0
 30
0.0
 11
-15.0
 21
-10.0
 31
0.0
  0
LINE
  5
    A6
  8
0
  6
CONTINUOUS
 62
     3
 10
-16.5
 20
-10.0000152587891
 30
0.0
 11
-15.0
 21
-10.0000152587891
 31
0.0
  0
LINE
  5
    A7
  8
0
  6
CONTINUOUS
 62
     3
 10
-16.5
 20
20.5000152587891
 30
0.0
 11
-1.00000000000001
 21
20.5000152587891
 31
0.0
  0
LINE
  5
    A8
  8
0
  6
CONTINUOUS
 62
     3
 10
-16.5
 20
-10.0
 30
0.0
 11
-16.5
 21
20.5000152587891
 31
0.0
  0
LINE
  5
    A9
  8
0
  6
CONTINUOUS
 62
     3
 10
-1.0
 20
18.0000152587891
 30
0.0
 11
-1.0
 21
20.5000152587891
 31
0.0
  0
LINE
  5
    AA
  8
0
  6
CONTINUOUS
 62
     3
 10
-2.00000000000001
 20
14.8000183105469
 30
0.0
 11
-1.00000000000001
 21
14.8000183105469
 31
0.0
  0
LINE
  5
    AB
  8
0
  6
CONTINUOUS
 62
     3
 10
-2.39999850008332
 20
15.2000076486687
 30
0.0
 11
-1.99999886783133
 21
14.8000137483419
 31
0.0
  0
LINE
  5
    AC
  8
0
  6
CONTINUOUS
 62
     3
 10
-14.9999995594845
 20
-10.0000004523688
 30
0.0
 11
-0.999999868097963
 21
18.0000157236966
 31
0.0
  0
LINE
  5
    AD
  8
0
  6
CONTINUOUS
 62
   210
 10
0.0
 20
-6.5
 30
0.0
 11
0.0
 21
6.5
 31
0.0
  0
LINE
  5
    AE
  8
0
  6
CONTINUOUS
 62
     3
 10
-14.2500057220459
 20
-8.5
 30
0.0
 11
-0.500000000000011
 21
-8.5
 31
0.0
  0
LINE
  5
    AF
  8
0
  6
CONTINUOUS
 62
     3
 10
-5.75000476837159
 20
8.5
 30
0.0
 11
-0.50000000000001
 21
8.5
 31
0.0
  0
LINE
  5
    B0
  8
0
  6
CONTINUOUS
 62
     3
 10
-16.5
 20
19.5000152587891
 30
0.0
 11
-1.00000000000001
 21
19.5000152587891
 31
0.0
  0
LINE
  5
    B1
  8
0
  6
CONTINUOUS
 62
     3
 10
-16.5
 20
-8.99998474121094
 30
0.0
 11
-14.5
 21
-8.99998474121094
 31
0.0
  0
LINE
  5
    B2
  8
0
  6
CONTINUOUS
 62
   210
 10
-0.500000000000011
 20
6.5
 30
0.0
 11
-1.05356783140903E-14
 21
6.5
 31
0.0
  0
LINE
  5
    B3
  8
0
  6
CONTINUOUS
 62
   210
 10
-0.500000000000011
 20
-6.5
 30
0.0
 11
-1.13316987335361E-14
 21
-6.5
 31
0.0
  0
POINT
  5
    B4
  8
0
  6
CONTINUOUS
 62
     7
 10
-1.0
 20
20.5000305395806
 30
0.0
  0
POINT
  5
    B5
  8
0
  6
CONTINUOUS
 62
     7
 10
-1.0
 20
20.5000305395806
 30
0.0
  0
POINT
  5
    B6
  8
0
  6
CONTINUOUS
 62
     7
 10
0.0
 20
0.0
 30
0.0
  0
ENDBLK
  5
    B7
  8
0
  6
CONTINUOUS
 62
     7
  0
BLOCK
  5
    B8
  8
0
  6
CONTINUOUS
 62
     7
  2
*UDIM154
 70
    65
 10
0.0
 20
0.0
 30
0.0
  3
*UDIM154
  0
TEXT
  5
    B9
  8
0
  6
CONTINUOUS
 62
     7
 10
-557.750219960349
 20
86.4625356963216
 30
0.0
 40
3.00000002980232
  1
25
 50
359.999999948034
 41
0.933333333333333
 72
     1
 11
-555.250219934161
 21
87.9625357089679
 31
0.0
 73
     2
  0
LINE
  5
    BA
  8
0
  6
CONTINUOUS
 62
     7
 10
-549.000226245274
 20
58.4748600223834
 30
0.0
 11
-549.000226245274
 21
87.4625356940667
 31
0.0
  0
LINE
  5
    BB
  8
0
  6
CONTINUOUS
 62
     7
 10
-561.500213623047
 20
62.4748344421387
 30
0.0
 11
-561.500213623047
 21
87.4625356940667
 31
0.0
  0
LINE
  5
    BC
  8
0
  6
CONTINUOUS
 62
     7
 10
-549.000226245274
 20
85.4625356940667
 30
0.0
 11
-566.500213623047
 21
85.4625356940667
 31
0.0
  0
CIRCLE
  5
    BD
  8
0
  6
CONTINUOUS
 62
     7
 10
-549.000226245274
 20
85.4625356940667
 30
0.0
 40
0.5
  0
LINE
  5
    BE
  8
0
  6
CONTINUOUS
 62
     7
 10
-564.397991096257
 20
84.6860785376482
 30
0.0
 11
-561.500213623047
 21
85.4625356940667
 31
0.0
  0
LINE
  5
    BF
  8
0
  6
CONTINUOUS
 62
     7
 10
-561.500213623047
 20
85.4625356940667
 30
0.0
 11
-564.397991096257
 21
86.2389928504852
 31
0.0
  0
ENDBLK
  5
    C0
  8
0
  6
CONTINUOUS
 62
     7
  0
BLOCK
  5
    C1
  8
0
  6
CONTINUOUS
 62
     7
  2
*UDIM155
 70
    65
 10
0.0
 20
0.0
 30
0.0
  3
*UDIM155
  0
TEXT
  5
    C2
  8
0
  6
CONTINUOUS
 62
     7
 10
-540.118037706923
 20
86.4625357001098
 30
0.0
 40
3.00000002980232
  1
5 min
 50
359.999999948034
 41
0.933333333333333
 72
     1
 11
-533.418037639012
 21
87.9625357089679
 31
0.0
 73
     2
  0
LINE
  5
    C3
  8
0
  6
CONTINUOUS
 62
     7
 10
-546.000226245274
 20
57.9748600223834
 30
0.0
 11
-546.000226245274
 21
87.4625356940667
 31
0.0
  0
LINE
  5
    C4
  8
0
  6
CONTINUOUS
 62
     7
 10
-526.718037572453
 20
85.4625356940667
 30
0.0
 11
-549.000226245274
 21
85.4625356940667
 31
0.0
  0
LINE
  5
    C5
  8
0
  6
CONTINUOUS
 62
     7
 10
-543.102448772063
 20
86.2389928504852
 30
0.0
 11
-546.000226245274
 21
85.4625356940667
 31
0.0
  0
LINE
  5
    C6
  8
0
  6
CONTINUOUS
 62
     7
 10
-546.000226245274
 20
85.4625356940667
 30
0.0
 11
-543.102448772063
 21
84.6860785376482
 31
0.0
  0
CIRCLE
  5
    C7
  8
0
  6
CONTINUOUS
 62
     7
 10
-549.000226245274
 20
85.4625356940667
 30
0.0
 40
0.5
  0
ENDBLK
  5
    C8
  8
0
  6
CONTINUOUS
 62
     7
  0
BLOCK
  5
    C9
  8
0
  6
CONTINUOUS
 62
     7
  2
*UDIM156
 70
    65
 10
0.0
 20
0.0
 30
0.0
  3
*UDIM156
  0
TEXT
  5
    CA
  8
0
  6
CONTINUOUS
 62
     7
 10
-570.118649113538
 20
-83.5381757265029
 30
0.0
 40
3.00000002980232
  1
3
 50
359.999999948034
 41
0.933333333333334
 72
     1
 11
-569.018649101257
 21
-82.0381757125939
 31
0.0
 73
     2
  0
TEXT
  5
    CB
  8
0
  6
CONTINUOUS
 62
     7
 10
-573.68531578043
 20
-83.7881757114364
 30
0.0
 40
3.5
  1
_
 50
359.999999948034
 41
0.933333333333334
 72
     1
 11
-572.401982445518
 21
-82.0381757125939
 31
0.0
 73
     2
  0
LINE
  5
    CC
  8
0
  6
CONTINUOUS
 62
     7
 10
-562.000213623047
 20
-76.1164914085939
 30
0.0
 11
-562.000213623047
 21
-86.5381757274951
 31
0.0
  0
LINE
  5
    CD
  8
0
  6
CONTINUOUS
 62
     7
 10
-563.500213623047
 20
-76.1164914085939
 30
0.0
 11
-563.500213623047
 21
-86.5381757274951
 31
0.0
  0
LINE
  5
    CE
  8
0
  6
CONTINUOUS
 62
     7
 10
-562.000213623047
 20
-84.5381757274951
 30
0.0
 11
-573.685315778852
 21
-84.5381757274951
 31
0.0
  0
CIRCLE
  5
    CF
  8
0
  6
CONTINUOUS
 62
     7
 10
-562.000213623047
 20
-84.5381757274951
 30
0.0
 40
0.5
  0
LINE
  5
    D0
  8
0
  6
CONTINUOUS
 62
     7
 10
-566.397991096258
 20
-85.3146328839136
 30
0.0
 11
-563.500213623047
 21
-84.5381757274951
 31
0.0
  0
LINE
  5
    D1
  8
0
  6
CONTINUOUS
 62
     7
 10
-563.500213623047
 20
-84.5381757274951
 30
0.0
 11
-566.397991096258
 21
-83.7617185710766
 31
0.0
  0
ENDBLK
  5
    D2
  8
0
  6
CONTINUOUS
 62
     7
  0
BLOCK
  5
    D3
  8
0
  6
CONTINUOUS
 62
     7
  2
*UDIM157
 70
    65
 10
0.0
 20
0.0
 30
0.0
  3
*UDIM157
  0
TEXT
  5
    D4
  8
0
  6
CONTINUOUS
 62
     7
 10
-556.770469296338
 20
-83.5381757265029
 30
0.0
 40
3.00000002980232
  1
1
 50
359.999999948034
 41
0.933333333333334
 72
     1
 11
-555.670469284058
 21
-82.0381757125939
 31
0.0
 73
     2
  0
LINE
  5
    D5
  8
0
  6
CONTINUOUS
 62
     7
 10
-561.500213623047
 20
-66.5251332092462
 30
0.0
 11
-561.500213623047
 21
-86.5381757274951
 31
0.0
  0
LINE
  5
    D6
  8
0
  6
CONTINUOUS
 62
     7
 10
-554.57046927313
 20
-84.5381757274951
 30
0.0
 11
-562.000213623047
 21
-84.5381757274951
 31
0.0
  0
LINE
  5
    D7
  8
0
  6
CONTINUOUS
 62
     7
 10
-558.602436149836
 20
-83.7617185710766
 30
0.0
 11
-561.500213623047
 21
-84.5381757274951
 31
0.0
  0
LINE
  5
    D8
  8
0
  6
CONTINUOUS
 62
     7
 10
-561.500213623047
 20
-84.5381757274951
 30
0.0
 11
-558.602436149836
 21
-85.3146328839136
 31
0.0
  0
CIRCLE
  5
    D9
  8
0
  6
CONTINUOUS
 62
     7
 10
-562.000213623047
 20
-84.5381757274951
 30
0.0
 40
0.5
  0
ENDBLK
  5
    DA
  8
0
  6
CONTINUOUS
 62
     7
  0
BLOCK
  5
    DB
  8
0
  6
CONTINUOUS
 62
     7
  2
*UDIM158
 70
    65
 10
0.0
 20
0.0
 30
0.0
  3
*UDIM158
  0
TEXT
  5
    DC
  8
0
  6
CONTINUOUS
 62
     7
 10
-559.000219483512
 20
-91.9504806311205
 30
0.0
 40
3.00000002980232
  1
20
 50
359.999999948034
 41
0.933333333333333
 72
     1
 11
-556.500219457323
 21
-90.4504806184742
 31
0.0
 73
     2
  0
LINE
  5
    DD
  8
0
  6
CONTINUOUS
 62
     7
 10
-551.5002252916
 20
-62.5251655578613
 30
0.0
 11
-551.5002252916
 21
-94.9504806333754
 31
0.0
  0
LINE
  5
    DE
  8
0
  6
CONTINUOUS
 62
     7
 10
-561.500213623047
 20
-66.5251332092462
 30
0.0
 11
-561.500213623047
 21
-94.9504806333754
 31
0.0
  0
LINE
  5
    DF
  8
0
  6
CONTINUOUS
 62
     7
 10
-546.5002252916
 20
-92.9504806333754
 30
0.0
 11
-566.500213623047
 21
-92.9504806333754
 31
0.0
  0
LINE
  5
    E0
  8
0
  6
CONTINUOUS
 62
     7
 10
-548.602447818389
 20
-92.1740234769569
 30
0.0
 11
-551.5002252916
 21
-92.9504806333754
 31
0.0
  0
LINE
  5
    E1
  8
0
  6
CONTINUOUS
 62
     7
 10
-551.5002252916
 20
-92.9504806333754
 30
0.0
 11
-548.602447818389
 21
-93.7269377897939
 31
0.0
  0
LINE
  5
    E2
  8
0
  6
CONTINUOUS
 62
     7
 10
-564.397991096257
 20
-93.7269377897939
 30
0.0
 11
-561.500213623047
 21
-92.9504806333754
 31
0.0
  0
LINE
  5
    E3
  8
0
  6
CONTINUOUS
 62
     7
 10
-561.500213623047
 20
-92.9504806333754
 30
0.0
 11
-564.397991096257
 21
-92.1740234769569
 31
0.0
  0
ENDBLK
  5
    E4
  8
0
  6
CONTINUOUS
 62
     7
  0
BLOCK
  5
    E5
  8
0
  6
CONTINUOUS
 62
     7
  2
*UDIM159
 70
    65
 10
0.0
 20
0.0
 30
0.0
  3
*UDIM159
  0
TEXT
  5
    E6
  8
0
  6
CONTINUOUS
 62
     7
 10
-558.787454937212
 20
-100.051218689898
 30
0.0
 40
3.00000002980232
  1
5
 50
359.999999948034
 41
0.933333333333334
 72
     1
 11
-557.687454924931
 21
-98.5512186759886
 31
0.0
 73
     2
  0
LINE
  5
    E7
  8
0
  6
CONTINUOUS
 62
     7
 10
-549.0002252916
 20
-62.5251655578613
 30
0.0
 11
-549.0002252916
 21
-103.05121869089
 31
0.0
  0
LINE
  5
    E8
  8
0
  6
CONTINUOUS
 62
     7
 10
-551.5002252916
 20
-62.5251655578613
 30
0.0
 11
-551.5002252916
 21
-103.05121869089
 31
0.0
  0
LINE
  5
    E9
  8
0
  6
CONTINUOUS
 62
     7
 10
-549.0002252916
 20
-101.05121869089
 30
0.0
 11
-558.787454935859
 21
-101.05121869089
 31
0.0
  0
CIRCLE
  5
    EA
  8
0
  6
CONTINUOUS
 62
     7
 10
-549.0002252916
 20
-101.05121869089
 30
0.0
 40
0.5
  0
LINE
  5
    EB
  8
0
  6
CONTINUOUS
 62
     7
 10
-554.39800276481
 20
-101.827675847308
 30
0.0
 11
-551.5002252916
 21
-101.05121869089
 31
0.0
  0
LINE
  5
    EC
  8
0
  6
CONTINUOUS
 62
     7
 10
-551.5002252916
 20
-101.05121869089
 30
0.0
 11
-554.39800276481
 21
-100.274761534471
 31
0.0
  0
ENDBLK
  5
    ED
  8
0
  6
CONTINUOUS
 62
     7
  0
BLOCK
  5
    EE
  8
0
  6
CONTINUOUS
 62
     7
  2
*UDIM160
 70
    65
 10
0.0
 20
0.0
 30
0.0
  3
*UDIM160
  0
TEXT
  5
    EF
  8
0
  6
CONTINUOUS
 62
     7
 10
-542.569580410234
 20
-100.051218689898
 30
0.0
 40
3.00000002980232
  1
5
 50
359.999999948034
 41
0.933333333333334
 72
     1
 11
-541.469580397954
 21
-98.5512186759886
 31
0.0
 73
     2
  0
TEXT
  5
    F0
  8
0
  6
CONTINUOUS
 62
     7
 10
-539.369580388604
 20
-100.301218670412
 30
0.0
 40
3.5
  1
 min
 50
359.999999948034
 41
0.933333333333333
 72
     1
 11
-533.186247053693
 21
-98.5512186759886
 31
0.0
 73
     2
  0
LINE
  5
    F1
  8
0
  6
CONTINUOUS
 62
     7
 10
-546.500226245274
 20
-62.0251399776167
 30
0.0
 11
-546.500226245274
 21
-103.05121869089
 31
0.0
  0
LINE
  5
    F2
  8
0
  6
CONTINUOUS
 62
     7
 10
-527.002913720359
 20
-101.05121869089
 30
0.0
 11
-549.0002252916
 21
-101.05121869089
 31
0.0
  0
LINE
  5
    F3
  8
0
  6
CONTINUOUS
 62
     7
 10
-543.602448772064
 20
-100.274761534471
 30
0.0
 11
-546.500226245274
 21
-101.05121869089
 31
0.0
  0
LINE
  5
    F4
  8
0
  6
CONTINUOUS
 62
     7
 10
-546.500226245274
 20
-101.05121869089
 30
0.0
 11
-543.602448772064
 21
-101.827675847308
 31
0.0
  0
CIRCLE
  5
    F5
  8
0
  6
CONTINUOUS
 62
     7
 10
-549.0002252916
 20
-101.05121869089
 30
0.0
 40
0.5
  0
ENDBLK
  5
    F6
  8
0
  6
CONTINUOUS
 62
     7
  0
BLOCK
  5
    F7
  8
0
  6
CONTINUOUS
 62
     7
  2
*UDIM161
 70
    65
 10
0.0
 20
0.0
 30
0.0
  3
*UDIM161
  0
TEXT
  5
    F8
  8
0
  6
CONTINUOUS
 62
     7
 10
-542.825240393842
 20
99.5647415866563
 30
0.0
 40
3.00000002980232
  1
101,5
 50
359.999999948034
 41
0.933333333333333
 72
     1
 11
-536.125240325931
 21
101.064741595514
 31
0.0
 73
     2
  0
LINE
  5
    F9
  8
0
  6
CONTINUOUS
 62
     7
 10
-510.750267028814
 20
63.0998344421387
 30
0.0
 11
-510.750267028814
 21
100.564741580613
 31
0.0
  0
LINE
  5
    FA
  8
0
  6
CONTINUOUS
 62
     7
 10
-561.500213623047
 20
62.4748344421387
 30
0.0
 11
-561.500213623047
 21
100.564741580613
 31
0.0
  0
LINE
  5
    FB
  8
0
  6
CONTINUOUS
 62
     7
 10
-510.750267028814
 20
98.5647415806132
 30
0.0
 11
-561.500213623047
 21
98.5647415806132
 31
0.0
  0
LINE
  5
    FC
  8
0
  6
CONTINUOUS
 62
     7
 10
-513.648044502025
 20
97.7882844241947
 30
0.0
 11
-510.750267028814
 21
98.5647415806132
 31
0.0
  0
LINE
  5
    FD
  8
0
  6
CONTINUOUS
 62
     7
 10
-510.750267028814
 20
98.5647415806132
 30
0.0
 11
-513.648044502025
 21
99.3411987370318
 31
0.0
  0
LINE
  5
    FE
  8
0
  6
CONTINUOUS
 62
     7
 10
-558.602436149836
 20
99.3411987370318
 30
0.0
 11
-561.500213623047
 21
98.5647415806132
 31
0.0
  0
LINE
  5
    FF
  8
0
  6
CONTINUOUS
 62
     7
 10
-561.500213623047
 20
98.5647415806132
 30
0.0
 11
-558.602436149836
 21
97.7882844241947
 31
0.0
  0
ENDBLK
  5
   100
  8
0
  6
CONTINUOUS
 62
     7
  0
BLOCK
  5
   101
  8
0
  6
CONTINUOUS
 62
     7
  2
*UDIM162
 70
    65
 10
0.0
 20
0.0
 30
0.0
  3
*UDIM162
  0
TEXT
  5
   102
  8
0
  6
CONTINUOUS
 62
     7
 10
-542.325217505656
 20
-109.053860777105
 30
0.0
 40
3.00000002980232
  1
103,5
 50
359.999999948034
 41
0.933333333333333
 72
     1
 11
-535.625217437744
 21
-107.553860768246
 31
0.0
 73
     2
  0
LINE
  5
   103
  8
0
  6
CONTINUOUS
 62
     7
 10
-509.750221252441
 20
-28.4001332092462
 30
0.0
 11
-509.750221252441
 21
-112.053860783148
 31
0.0
  0
LINE
  5
   104
  8
0
  6
CONTINUOUS
 62
     7
 10
-561.500213623047
 20
-66.5251332092462
 30
0.0
 11
-561.500213623047
 21
-112.053860783148
 31
0.0
  0
LINE
  5
   105
  8
0
  6
CONTINUOUS
 62
     7
 10
-509.750221252441
 20
-110.053860783148
 30
0.0
 11
-561.500213623047
 21
-110.053860783148
 31
0.0
  0
LINE
  5
   106
  8
0
  6
CONTINUOUS
 62
     7
 10
-512.647998725652
 20
-110.830317939566
 30
0.0
 11
-509.750221252441
 21
-110.053860783148
 31
0.0
  0
LINE
  5
   107
  8
0
  6
CONTINUOUS
 62
     7
 10
-509.750221252441
 20
-110.053860783148
 30
0.0
 11
-512.647998725652
 21
-109.277403626729
 31
0.0
  0
LINE
  5
   108
  8
0
  6
CONTINUOUS
 62
     7
 10
-558.602436149836
 20
-109.277403626729
 30
0.0
 11
-561.500213623047
 21
-110.053860783148
 31
0.0
  0
LINE
  5
   109
  8
0
  6
CONTINUOUS
 62
     7
 10
-561.500213623047
 20
-110.053860783148
 30
0.0
 11
-558.602436149836
 21
-110.830317939566
 31
0.0
  0
ENDBLK
  5
   10A
  8
0
  6
CONTINUOUS
 62
     7
  0
BLOCK
  5
   10B
  8
0
  6
CONTINUOUS
 62
     7
  2
*UDIM163
 70
    65
 10
0.0
 20
0.0
 30
0.0
  3
*UDIM163
  0
TEXT
  5
   10C
  8
0
  6
CONTINUOUS
 62
     7
 10
-538.650216047329
 20
-115.924729698858
 30
0.0
 40
3.00000002980232
  1
107
 50
359.999999948034
 41
0.933333333333333
 72
     1
 11
-534.750216007233
 21
-114.424729687474
 31
0.0
 73
     2
  0
LINE
  5
   10D
  8
0
  6
CONTINUOUS
 62
     7
 10
-508.000218391419
 20
-70.2191251828167
 30
0.0
 11
-508.000218391419
 21
-118.924729702375
 31
0.0
  0
LINE
  5
   10E
  8
0
  6
CONTINUOUS
 62
     7
 10
-561.500213623047
 20
-66.5251332092462
 30
0.0
 11
-561.500213623047
 21
-118.924729702375
 31
0.0
  0
LINE
  5
   10F
  8
0
  6
CONTINUOUS
 62
     7
 10
-508.000218391419
 20
-116.924729702375
 30
0.0
 11
-561.500213623047
 21
-116.924729702375
 31
0.0
  0
LINE
  5
   110
  8
0
  6
CONTINUOUS
 62
     7
 10
-510.897995864629
 20
-117.701186858794
 30
0.0
 11
-508.000218391419
 21
-116.924729702375
 31
0.0
  0
LINE
  5
   111
  8
0
  6
CONTINUOUS
 62
     7
 10
-508.000218391419
 20
-116.924729702375
 30
0.0
 11
-510.897995864629
 21
-116.148272545957
 31
0.0
  0
LINE
  5
   112
  8
0
  6
CONTINUOUS
 62
     7
 10
-558.602436149836
 20
-116.148272545957
 30
0.0
 11
-561.500213623047
 21
-116.924729702375
 31
0.0
  0
LINE
  5
   113
  8
0
  6
CONTINUOUS
 62
     7
 10
-561.500213623047
 20
-116.924729702375
 30
0.0
 11
-558.602436149836
 21
-117.701186858794
 31
0.0
  0
ENDBLK
  5
   114
  8
0
  6
CONTINUOUS
 62
     7
  0
BLOCK
  5
   115
  8
0
  6
CONTINUOUS
 62
     7
  2
*UDIM164
 70
    65
 10
0.0
 20
0.0
 30
0.0
  3
*UDIM164
  0
TEXT
  5
   116
  8
0
  6
CONTINUOUS
 62
     7
 10
-501.541145909192
 20
-115.924729701383
 30
0.0
 40
3.00000002980232
  1
2
 50
359.999999948034
 41
0.933333333333334
 72
     1
 11
-500.441145896912
 21
-114.424729687474
 31
0.0
 73
     2
  0
LINE
  5
   117
  8
0
  6
CONTINUOUS
 62
     7
 10
-507.000218391418
 20
-69.6053320793685
 30
0.0
 11
-507.000218391418
 21
-118.924729702375
 31
0.0
  0
LINE
  5
   118
  8
0
  6
CONTINUOUS
 62
     7
 10
-499.341145885984
 20
-116.924729702375
 30
0.0
 11
-508.000218391419
 21
-116.924729702375
 31
0.0
  0
LINE
  5
   119
  8
0
  6
CONTINUOUS
 62
     7
 10
-504.102440918208
 20
-116.148272545957
 30
0.0
 11
-507.000218391418
 21
-116.924729702375
 31
0.0
  0
LINE
  5
   11A
  8
0
  6
CONTINUOUS
 62
     7
 10
-507.000218391418
 20
-116.924729702375
 30
0.0
 11
-504.102440918208
 21
-117.701186858794
 31
0.0
  0
LINE
  5
   11B
  8
0
  6
CONTINUOUS
 62
     7
 10
-510.897995864629
 20
-117.701186858794
 30
0.0
 11
-508.000218391419
 21
-116.924729702375
 31
0.0
  0
LINE
  5
   11C
  8
0
  6
CONTINUOUS
 62
     7
 10
-508.000218391419
 20
-116.924729702375
 30
0.0
 11
-510.897995864629
 21
-116.148272545957
 31
0.0
  0
ENDBLK
  5
   11D
  8
0
  6
CONTINUOUS
 62
     7
  0
BLOCK
  5
   11E
  8
0
  6
CONTINUOUS
 62
     7
  2
*UDIM165
 70
    65
 10
0.0
 20
0.0
 30
0.0
  3
*UDIM165
  0
TEXT
  5
   11F
  8
0
  6
CONTINUOUS
 62
     7
 10
-531.639196825334
 20
-122.500430024897
 30
0.0
 40
3.00000002980232
  1
135
 50
359.999999948034
 41
0.933333333333333
 72
     1
 11
-527.739196785238
 21
-121.000430013513
 31
0.0
 73
     2
  0
LINE
  5
   120
  8
0
  6
CONTINUOUS
 62
     7
 10
-493.97817994743
 20
-7.27513320924619
 30
0.0
 11
-493.97817994743
 21
-125.500430028414
 31
0.0
  0
LINE
  5
   121
  8
0
  6
CONTINUOUS
 62
     7
 10
-561.500213623047
 20
-66.5251332092462
 30
0.0
 11
-561.500213623047
 21
-125.500430028414
 31
0.0
  0
LINE
  5
   122
  8
0
  6
CONTINUOUS
 62
     7
 10
-493.97817994743
 20
-123.500430028414
 30
0.0
 11
-561.500213623047
 21
-123.500430028414
 31
0.0
  0
LINE
  5
   123
  8
0
  6
CONTINUOUS
 62
     7
 10
-496.875957420641
 20
-124.276887184833
 30
0.0
 11
-493.97817994743
 21
-123.500430028414
 31
0.0
  0
LINE
  5
   124
  8
0
  6
CONTINUOUS
 62
     7
 10
-493.97817994743
 20
-123.500430028414
 30
0.0
 11
-496.875957420641
 21
-122.723972871996
 31
0.0
  0
LINE
  5
   125
  8
0
  6
CONTINUOUS
 62
     7
 10
-558.602436149836
 20
-122.723972871996
 30
0.0
 11
-561.500213623047
 21
-123.500430028414
 31
0.0
  0
LINE
  5
   126
  8
0
  6
CONTINUOUS
 62
     7
 10
-561.500213623047
 20
-123.500430028414
 30
0.0
 11
-558.602436149836
 21
-124.276887184833
 31
0.0
  0
ENDBLK
  5
   127
  8
0
  6
CONTINUOUS
 62
     7
  0
BLOCK
  5
   128
  8
0
  6
CONTINUOUS
 62
     7
  2
*UDIM166
 70
    65
 10
0.0
 20
0.0
 30
0.0
  3
*UDIM166
  0
TEXT
  5
   129
  8
0
  6
CONTINUOUS
 62
     7
 10
-576.35459900002
 20
-64.275139608433
 30
0.0
 40
3.00000002980232
  1
8
 50
89.9999999480344
 41
0.933333333333334
 72
     1
 11
-577.854599013925
 21
-63.1751395961469
 31
0.0
 73
     2
  0
TEXT
  5
   12A
  8
0
  6
CONTINUOUS
 62
     7
 10
-576.35459900002
 20
-67.025139642209
 30
0.0
 40
3.00000002980232
  1
M
 50
89.9999999480344
 41
0.933333333333334
 72
     1
 11
-577.854599013925
 21
-65.9251396299229
 31
0.0
 73
     2
  0
LINE
  5
   12B
  8
0
  6
CONTINUOUS
 62
     7
 10
-550.500226245274
 20
-58.5251399776167
 30
0.0
 11
-577.354598999024
 21
-58.5251399776167
 31
0.0
  0
LINE
  5
   12C
  8
0
  6
CONTINUOUS
 62
     7
 10
-550.500226245274
 20
-54.5251399776167
 30
0.0
 11
-577.354598999024
 21
-54.5251399776167
 31
0.0
  0
LINE
  5
   12D
  8
0
  6
CONTINUOUS
 62
     7
 10
-575.354598999024
 20
-67.0251396408504
 30
0.0
 11
-575.354598999024
 21
-54.5251399776167
 31
0.0
  0
LINE
  5
   12E
  8
0
  6
CONTINUOUS
 62
     7
 10
-574.833654569072
 20
-61.4795632548236
 30
0.0
 11
-575.354598999024
 21
-58.5251399776167
 31
0.0
  0
LINE
  5
   12F
  8
0
  6
CONTINUOUS
 62
     7
 10
-575.354598999024
 20
-58.5251399776167
 30
0.0
 11
-575.875543428975
 21
-61.4795632548236
 31
0.0
  0
LINE
  5
   130
  8
0
  6
CONTINUOUS
 62
     7
 10
-575.875543428975
 20
-51.5707167004097
 30
0.0
 11
-575.354598999024
 21
-54.5251399776167
 31
0.0
  0
LINE
  5
   131
  8
0
  6
CONTINUOUS
 62
     7
 10
-575.354598999024
 20
-54.5251399776167
 30
0.0
 11
-574.833654569072
 21
-51.5707167004097
 31
0.0
  0
ENDBLK
  5
   132
  8
0
  6
CONTINUOUS
 62
     7
  0
BLOCK
  5
   133
  8
0
  6
CONTINUOUS
 62
     5
  2
*UDIM167
 70
    65
 10
0.0
 20
0.0
 30
0.0
  3
*UDIM167
  0
TEXT
  5
   134
  8
0
  6
CONTINUOUS
 62
     5
 10
-576.206489570325
 20
17.2873572391095
 30
0.0
 40
3.00000002980232
  1
107,25
 50
89.9999999480344
 41
0.933333333333333
 72
     1
 11
-577.70648957789
 21
25.3873573209344
 31
0.0
 73
     2
  0
LINE
  5
   135
  8
0
  6
CONTINUOUS
 62
     5
 10
-570.379350796083
 20
-1.15014846803524
 30
0.0
 11
-577.206489562988
 21
-1.15014846803524
 31
0.0
  0
LINE
  5
   136
  8
0
  6
CONTINUOUS
 62
     5
 10
-556.214896822562
 20
52.4748600223834
 30
0.0
 11
-577.206489562988
 21
52.4748600223834
 31
0.0
  0
LINE
  5
   137
  8
0
  6
CONTINUOUS
 62
     5
 10
-575.206489562988
 20
-1.15014846803524
 30
0.0
 11
-575.206489562988
 21
52.4748600223834
 31
0.0
  0
LINE
  5
   138
  8
0
  6
CONTINUOUS
 62
     5
 10
-575.72743399294
 20
1.80427480917172
 30
0.0
 11
-575.206489562988
 21
-1.15014846803524
 31
0.0
  0
LINE
  5
   139
  8
0
  6
CONTINUOUS
 62
     5
 10
-575.206489562988
 20
-1.15014846803524
 30
0.0
 11
-574.685545133037
 21
1.80427480917172
 31
0.0
  0
LINE
  5
   13A
  8
0
  6
CONTINUOUS
 62
     5
 10
-574.685545133037
 20
49.5204367451764
 30
0.0
 11
-575.206489562988
 21
52.4748600223834
 31
0.0
  0
LINE
  5
   13B
  8
0
  6
CONTINUOUS
 62
     5
 10
-575.206489562988
 20
52.4748600223834
 30
0.0
 11
-575.72743399294
 21
49.5204367451764
 31
0.0
  0
ENDBLK
  5
   13C
  8
0
  6
CONTINUOUS
 62
     5
  0
BLOCK
  5
   13D
  8
0
  6
CONTINUOUS
 62
     7
  2
*UDIM168
 70
    65
 10
0.0
 20
0.0
 30
0.0
  3
*UDIM168
  0
TEXT
  5
   13E
  8
0
  6
CONTINUOUS
 62
     7
 10
-502.424827577948
 20
-56.5596572819203
 30
0.0
 40
3.00000002980232
  1
11
 50
89.9999999480344
 41
0.933333333333333
 72
     1
 11
-503.924827590585
 21
-54.0596572557265
 31
0.0
 73
     2
  0
LINE
  5
   13F
  8
0
  6
CONTINUOUS
 62
     7
 10
-540.148254805124
 20
-56.525191138106
 30
0.0
 11
-499.424827575684
 21
-56.525191138106
 31
0.0
  0
LINE
  5
   140
  8
0
  6
CONTINUOUS
 62
     7
 10
-539.798830792918
 20
-51.025191138106
 30
0.0
 11
-499.424827575684
 21
-51.025191138106
 31
0.0
  0
LINE
  5
   141
  8
0
  6
CONTINUOUS
 62
     7
 10
-501.424827575684
 20
-56.5596572805618
 30
0.0
 11
-501.424827575684
 21
-51.025191138106
 31
0.0
  0
LINE
  5
   142
  8
0
  6
CONTINUOUS
 62
     7
 10
-500.903883145732
 20
-59.479614415313
 30
0.0
 11
-501.424827575684
 21
-56.525191138106
 31
0.0
  0
LINE
  5
   143
  8
0
  6
CONTINUOUS
 62
     7
 10
-501.424827575684
 20
-56.525191138106
 30
0.0
 11
-501.945772005635
 21
-59.479614415313
 31
0.0
  0
LINE
  5
   144
  8
0
  6
CONTINUOUS
 62
     7
 10
-501.945772005635
 20
-48.070767860899
 30
0.0
 11
-501.424827575684
 21
-51.025191138106
 31
0.0
  0
LINE
  5
   145
  8
0
  6
CONTINUOUS
 62
     7
 10
-501.424827575684
 20
-51.025191138106
 30
0.0
 11
-500.903883145732
 21
-48.070767860899
 31
0.0
  0
ENDBLK
  5
   146
  8
0
  6
CONTINUOUS
 62
     7
  0
BLOCK
  5
   147
  8
0
  6
CONTINUOUS
 62
     7
  2
*UDIM169
 70
    65
 10
0.0
 20
0.0
 30
0.0
  3
*UDIM169
  0
TEXT
  5
   148
  8
0
  6
CONTINUOUS
 62
     7
 10
-584.986282350897
 20
-65.0501917365045
 30
0.0
 40
3.00000002980232
  1
15
 50
89.9999999480344
 41
0.933333333333333
 72
     1
 11
-586.486282363534
 21
-62.5501917103106
 31
0.0
 73
     2
  0
LINE
  5
   149
  8
0
  6
CONTINUOUS
 62
     7
 10
-556.214896822562
 20
-56.525191138106
 30
0.0
 11
-585.986282348633
 21
-56.525191138106
 31
0.0
  0
LINE
  5
   14A
  8
0
  6
CONTINUOUS
 62
     7
 10
-561.500214099884
 20
-49.025191138106
 30
0.0
 11
-585.986282348633
 21
-49.025191138106
 31
0.0
  0
LINE
  5
   14B
  8
0
  6
CONTINUOUS
 62
     7
 10
-583.986282348633
 20
-65.0501917351459
 30
0.0
 11
-583.986282348633
 21
-49.025191138106
 31
0.0
  0
LINE
  5
   14C
  8
0
  6
CONTINUOUS
 62
     7
 10
-583.465337918681
 20
-59.479614415313
 30
0.0
 11
-583.986282348633
 21
-56.525191138106
 31
0.0
  0
LINE
  5
   14D
  8
0
  6
CONTINUOUS
 62
     7
 10
-583.986282348633
 20
-56.525191138106
 30
0.0
 11
-584.507226778585
 21
-59.479614415313
 31
0.0
  0
LINE
  5
   14E
  8
0
  6
CONTINUOUS
 62
     7
 10
-584.507226778585
 20
-46.0707678608991
 30
0.0
 11
-583.986282348633
 21
-49.025191138106
 31
0.0
  0
LINE
  5
   14F
  8
0
  6
CONTINUOUS
 62
     7
 10
-583.986282348633
 20
-49.025191138106
 30
0.0
 11
-583.465337918681
 21
-46.0707678608991
 31
0.0
  0
ENDBLK
  5
   150
  8
0
  6
CONTINUOUS
 62
     7
  0
BLOCK
  5
   151
  8
0
  6
CONTINUOUS
 62
     7
  2
*UDIM170
 70
    65
 10
0.0
 20
0.0
 30
0.0
  3
*UDIM170
  0
TEXT
  5
   152
  8
0
  6
CONTINUOUS
 62
     7
 10
-480.804222109198
 20
47.291539737176
 30
0.0
 40
3.00000002980232
  1
11
 50
89.9999999480344
 41
0.933333333333333
 72
     1
 11
-482.304222121835
 21
49.7915397633699
 31
0.0
 73
     2
  0
LINE
  5
   153
  8
0
  6
CONTINUOUS
 62
     7
 10
-541.223089829915
 20
46.9748344421387
 30
0.0
 11
-477.804222106934
 21
46.9748344421387
 31
0.0
  0
LINE
  5
   154
  8
0
  6
CONTINUOUS
 62
     7
 10
-540.148254805124
 20
52.4748600223834
 30
0.0
 11
-477.804222106934
 21
52.4748600223834
 31
0.0
  0
LINE
  5
   155
  8
0
  6
CONTINUOUS
 62
     7
 10
-479.804222106934
 20
46.9748344421387
 30
0.0
 11
-479.804222106934
 21
52.4748600223834
 31
0.0
  0
LINE
  5
   156
  8
0
  6
CONTINUOUS
 62
     7
 10
-479.283277676982
 20
44.0204111649317
 30
0.0
 11
-479.804222106934
 21
46.9748344421387
 31
0.0
  0
LINE
  5
   157
  8
0
  6
CONTINUOUS
 62
     7
 10
-479.804222106934
 20
46.9748344421387
 30
0.0
 11
-480.325166536885
 21
44.0204111649317
 31
0.0
  0
LINE
  5
   158
  8
0
  6
CONTINUOUS
 62
     7
 10
-480.325166536885
 20
55.4292832995903
 30
0.0
 11
-479.804222106934
 21
52.4748600223834
 31
0.0
  0
LINE
  5
   159
  8
0
  6
CONTINUOUS
 62
     7
 10
-479.804222106934
 20
52.4748600223834
 30
0.0
 11
-479.283277676982
 21
55.4292832995903
 31
0.0
  0
ENDBLK
  5
   15A
  8
0
  6
CONTINUOUS
 62
     7
  0
BLOCK
  5
   15B
  8
0
  6
CONTINUOUS
 62
     7
  2
*UDIM171
 70
    65
 10
0.0
 20
0.0
 30
0.0
  3
*UDIM171
  0
TEXT
  5
   15C
  8
0
  6
CONTINUOUS
 62
     7
 10
-587.271293643669
 20
-6.20016941862065
 30
0.0
 40
3.00000002980232
  1
218
 50
89.9999999480344
 41
0.933333333333333
 72
     1
 11
-588.771293655038
 21
-2.30016937851906
 31
0.0
 73
     2
  0
LINE
  5
   15D
  8
0
  6
CONTINUOUS
 62
     7
 10
-556.214896822562
 20
-56.525191138106
 30
0.0
 11
-588.271293640137
 21
-56.525191138106
 31
0.0
  0
LINE
  5
   15E
  8
0
  6
CONTINUOUS
 62
     7
 10
-556.214896822562
 20
52.4748600223834
 30
0.0
 11
-588.271293640137
 21
52.4748600223834
 31
0.0
  0
LINE
  5
   15F
  8
0
  6
CONTINUOUS
 62
     7
 10
-586.271293640137
 20
-56.525191138106
 30
0.0
 11
-586.271293640137
 21
52.4748600223834
 31
0.0
  0
LINE
  5
   160
  8
0
  6
CONTINUOUS
 62
     7
 10
-586.792238070088
 20
-53.5707678608991
 30
0.0
 11
-586.271293640137
 21
-56.525191138106
 31
0.0
  0
LINE
  5
   161
  8
0
  6
CONTINUOUS
 62
     7
 10
-586.271293640137
 20
-56.525191138106
 30
0.0
 11
-585.750349210185
 21
-53.5707678608991
 31
0.0
  0
LINE
  5
   162
  8
0
  6
CONTINUOUS
 62
     7
 10
-585.750349210185
 20
49.5204367451764
 30
0.0
 11
-586.271293640137
 21
52.4748600223834
 31
0.0
  0
LINE
  5
   163
  8
0
  6
CONTINUOUS
 62
     7
 10
-586.271293640137
 20
52.4748600223834
 30
0.0
 11
-586.792238070088
 21
49.5204367451764
 31
0.0
  0
ENDBLK
  5
   164
  8
0
  6
CONTINUOUS
 62
     7
  0
BLOCK
  5
   165
  8
0
  6
CONTINUOUS
 62
     7
  2
*UDIM172
 70
    65
 10
0.0
 20
0.0
 30
0.0
  3
*UDIM172
  0
TEXT
  5
   166
  8
0
  6
CONTINUOUS
 62
     7
 10
-476.811084750847
 20
-5.32514270264442
 30
0.0
 40
3.00000002980232
  1
105
 50
89.9999999480344
 41
0.933333333333333
 72
     1
 11
-478.311084762216
 21
-1.42514266254283
 31
0.0
 73
     2
  0
LINE
  5
   167
  8
0
  6
CONTINUOUS
 62
     7
 10
-507.000218391418
 20
-27.4001332092462
 30
0.0
 11
-473.811084747314
 21
-27.4001332092462
 31
0.0
  0
LINE
  5
   168
  8
0
  6
CONTINUOUS
 62
     7
 10
-507.000218391418
 20
25.0998515319648
 30
0.0
 11
-473.811084747314
 21
25.0998515319648
 31
0.0
  0
LINE
  5
   169
  8
0
  6
CONTINUOUS
 62
     7
 10
-475.811084747315
 20
-27.4001332092462
 30
0.0
 11
-475.811084747315
 21
25.0998515319648
 31
0.0
  0
LINE
  5
   16A
  8
0
  6
CONTINUOUS
 62
     7
 10
-476.332029177266
 20
-24.4457099320392
 30
0.0
 11
-475.811084747315
 21
-27.4001332092462
 31
0.0
  0
LINE
  5
   16B
  8
0
  6
CONTINUOUS
 62
     7
 10
-475.811084747315
 20
-27.4001332092462
 30
0.0
 11
-475.290140317363
 21
-24.4457099320392
 31
0.0
  0
LINE
  5
   16C
  8
0
  6
CONTINUOUS
 62
     7
 10
-475.290140317363
 20
22.1454282547578
 30
0.0
 11
-475.811084747315
 21
25.0998515319648
 31
0.0
  0
LINE
  5
   16D
  8
0
  6
CONTINUOUS
 62
     7
 10
-475.811084747315
 20
25.0998515319648
 30
0.0
 11
-476.332029177266
 21
22.1454282547578
 31
0.0
  0
ENDBLK
  5
   16E
  8
0
  6
CONTINUOUS
 62
     7
  0
BLOCK
  5
   16F
  8
0
  6
CONTINUOUS
 62
     0
  2
ON-OFF
 70
    64
 10
0.0
 20
0.0
 30
0.0
  3
ON-OFF
  0
LINE
  5
   170
  8
0
  6
CONTINUOUS
 62
     0
 10
5.09999999999999
 20
-29.65
 30
0.0
 11
5.54999999999999
 21
-29.65
 31
0.0
  0
LINE
  5
   171
  8
0
  6
CONTINUOUS
 62
     0
 10
3.79999999999999
 20
-37.35
 30
0.0
 11
4.59999999999999
 21
-37.35
 31
0.0
  0
LINE
  5
   172
  8
0
  6
CONTINUOUS
 62
     0
 10
-2.6
 20
-34.75
 30
0.0
 11
-2.6
 21
-34.25
 31
0.0
  0
LINE
  5
   173
  8
0
  6
CONTINUOUS
 62
     0
 10
2.6
 20
-34.75
 30
0.0
 11
2.6
 21
-34.25
 31
0.0
  0
ARC
  5
   174
  8
0
  6
CONTINUOUS
 62
     0
 10
-3.5527136788005E-15
 20
-34.25
 30
0.0
 40
2.6
 50
0.0
 51
180.0
  0
ARC
  5
   175
  8
0
  6
CONTINUOUS
 62
     0
 10
-3.5527136788005E-15
 20
-34.75
 30
0.0
 40
2.6
 50
180.0
 51
360.0
  0
ARC
  5
   176
  8
0
  6
CONTINUOUS
 62
     0
 10
-3.5527136788005E-15
 20
-34.25
 30
0.0
 40
1.8
 50
0.0
 51
180.0
  0
ARC
  5
   177
  8
0
  6
CONTINUOUS
 62
     0
 10
-3.5527136788005E-15
 20
-34.75
 30
0.0
 40
1.8
 50
180.0
 51
360.0
  0
LINE
  5
   178
  8
0
  6
CONTINUOUS
 62
     0
 10
-1.8
 20
-34.75
 30
0.0
 11
-1.8
 21
-34.25
 31
0.0
  0
LINE
  5
   179
  8
0
  6
CONTINUOUS
 62
     0
 10
1.8
 20
-34.75
 30
0.0
 11
1.8
 21
-34.25
 31
0.0
  0
LINE
  5
   17A
  8
0
  6
CONTINUOUS
 62
     0
 10
2.84999999999999
 20
-32.85
 30
0.0
 11
2.84999999999999
 21
-32.05
 31
0.0
  0
LINE
  5
   17B
  8
0
  6
CONTINUOUS
 62
     0
 10
2.84999999999999
 20
-32.85
 30
0.0
 11
3.79999999999999
 21
-32.85
 31
0.0
  0
LINE
  5
   17C
  8
0
  6
CONTINUOUS
 62
     0
 10
5.54999999999999
 20
-32.85
 30
0.0
 11
5.54999999999999
 21
-32.05
 31
0.0
  0
LINE
  5
   17D
  8
0
  6
CONTINUOUS
 62
     0
 10
2.84999999999999
 20
-32.05
 30
0.0
 11
3.79999999999999
 21
-32.05
 31
0.0
  0
LINE
  5
   17E
  8
0
  6
CONTINUOUS
 62
     0
 10
3.79999999999999
 20
-37.35
 30
0.0
 11
3.79999999999999
 21
-32.85
 31
0.0
  0
LINE
  5
   17F
  8
0
  6
CONTINUOUS
 62
     0
 10
4.59999999999999
 20
-37.35
 30
0.0
 11
4.59999999999999
 21
-32.85
 31
0.0
  0
LINE
  5
   180
  8
0
  6
CONTINUOUS
 62
     0
 10
4.59999999999999
 20
-32.85
 30
0.0
 11
5.54999999999999
 21
-32.85
 31
0.0
  0
LINE
  5
   181
  8
0
  6
CONTINUOUS
 62
     0
 10
4.59999999999999
 20
-32.05
 30
0.0
 11
5.54999999999999
 21
-32.05
 31
0.0
  0
LINE
  5
   182
  8
0
  6
CONTINUOUS
 62
     0
 10
3.79999999999999
 20
-32.05
 30
0.0
 11
3.79999999999999
 21
-30.95
 31
0.0
  0
LINE
  5
   183
  8
0
  6
CONTINUOUS
 62
     0
 10
4.59999999999999
 20
-32.05
 30
0.0
 11
4.59999999999999
 21
-30.95
 31
0.0
  0
ARC
  5
   184
  8
0
  6
CONTINUOUS
 62
     0
 10
5.09999999999999
 20
-30.95
 30
0.0
 40
1.3
 50
89.9999999999999
 51
180.0
  0
ARC
  5
   185
  8
0
  6
CONTINUOUS
 62
     0
 10
5.09999999999999
 20
-30.95
 30
0.0
 40
0.5
 50
89.9999999999999
 51
180.0
  0
LINE
  5
   186
  8
0
  6
CONTINUOUS
 62
     0
 10
5.54999999999999
 20
-30.45
 30
0.0
 11
5.54999999999999
 21
-29.65
 31
0.0
  0
LINE
  5
   187
  8
0
  6
CONTINUOUS
 62
     0
 10
5.09999999999999
 20
-30.45
 30
0.0
 11
5.54999999999999
 21
-30.45
 31
0.0
  0
LINE
  5
   188
  8
0
  6
CONTINUOUS
 62
     0
 10
8.29999999999998
 20
-29.65
 30
0.0
 11
8.74999999999999
 21
-29.65
 31
0.0
  0
LINE
  5
   189
  8
0
  6
CONTINUOUS
 62
     0
 10
6.99999999999999
 20
-37.35
 30
0.0
 11
7.79999999999999
 21
-37.35
 31
0.0
  0
LINE
  5
   18A
  8
0
  6
CONTINUOUS
 62
     0
 10
6.04999999999999
 20
-32.85
 30
0.0
 11
6.04999999999999
 21
-32.05
 31
0.0
  0
LINE
  5
   18B
  8
0
  6
CONTINUOUS
 62
     0
 10
6.04999999999999
 20
-32.85
 30
0.0
 11
6.99999999999999
 21
-32.85
 31
0.0
  0
LINE
  5
   18C
  8
0
  6
CONTINUOUS
 62
     0
 10
8.74999999999999
 20
-32.85
 30
0.0
 11
8.74999999999999
 21
-32.05
 31
0.0
  0
LINE
  5
   18D
  8
0
  6
CONTINUOUS
 62
     0
 10
6.04999999999999
 20
-32.05
 30
0.0
 11
6.99999999999999
 21
-32.05
 31
0.0
  0
LINE
  5
   18E
  8
0
  6
CONTINUOUS
 62
     0
 10
6.99999999999999
 20
-37.35
 30
0.0
 11
6.99999999999999
 21
-32.85
 31
0.0
  0
LINE
  5
   18F
  8
0
  6
CONTINUOUS
 62
     0
 10
7.79999999999999
 20
-37.35
 30
0.0
 11
7.79999999999999
 21
-32.85
 31
0.0
  0
LINE
  5
   190
  8
0
  6
CONTINUOUS
 62
     0
 10
7.79999999999999
 20
-32.85
 30
0.0
 11
8.74999999999999
 21
-32.85
 31
0.0
  0
LINE
  5
   191
  8
0
  6
CONTINUOUS
 62
     0
 10
7.79999999999999
 20
-32.05
 30
0.0
 11
8.74999999999999
 21
-32.05
 31
0.0
  0
LINE
  5
   192
  8
0
  6
CONTINUOUS
 62
     0
 10
6.99999999999999
 20
-32.05
 30
0.0
 11
6.99999999999999
 21
-30.95
 31
0.0
  0
LINE
  5
   193
  8
0
  6
CONTINUOUS
 62
     0
 10
7.79999999999999
 20
-32.05
 30
0.0
 11
7.79999999999999
 21
-30.95
 31
0.0
  0
ARC
  5
   194
  8
0
  6
CONTINUOUS
 62
     0
 10
8.29999999999998
 20
-30.95
 30
0.0
 40
1.3
 50
89.9999999999999
 51
180.0
  0
ARC
  5
   195
  8
0
  6
CONTINUOUS
 62
     0
 10
8.29999999999998
 20
-30.95
 30
0.0
 40
0.5
 50
89.9999999999999
 51
180.0
  0
LINE
  5
   196
  8
0
  6
CONTINUOUS
 62
     0
 10
8.74999999999999
 20
-30.45
 30
0.0
 11
8.74999999999999
 21
-29.65
 31
0.0
  0
LINE
  5
   197
  8
0
  6
CONTINUOUS
 62
     0
 10
8.29999999999998
 20
-30.45
 30
0.0
 11
8.74999999999999
 21
-30.45
 31
0.0
  0
LINE
  5
   198
  8
0
  6
CONTINUOUS
 62
     0
 10
3.4
 20
-2.85000000000002
 30
0.0
 11
4.19999999999999
 21
-2.85000000000002
 31
0.0
  0
ARC
  5
   199
  8
0
  6
CONTINUOUS
 62
     0
 10
-3.5527136788005E-15
 20
0.249999999999979
 30
0.0
 40
2.6
 50
0.0
 51
180.0
  0
ARC
  5
   19A
  8
0
  6
CONTINUOUS
 62
     0
 10
-3.5527136788005E-15
 20
0.249999999999979
 30
0.0
 40
1.8
 50
0.0
 51
180.0
  0
ARC
  5
   19B
  8
0
  6
CONTINUOUS
 62
     0
 10
-3.5527136788005E-15
 20
-0.250000000000018
 30
0.0
 40
2.6
 50
180.0
 51
360.0
  0
ARC
  5
   19C
  8
0
  6
CONTINUOUS
 62
     0
 10
-3.5527136788005E-15
 20
-0.250000000000018
 30
0.0
 40
1.8
 50
180.0
 51
360.0
  0
LINE
  5
   19D
  8
0
  6
CONTINUOUS
 62
     0
 10
1.8
 20
-0.250000000000018
 30
0.0
 11
1.8
 21
0.249999999999979
 31
0.0
  0
LINE
  5
   19E
  8
0
  6
CONTINUOUS
 62
     0
 10
2.6
 20
-0.250000000000018
 30
0.0
 11
2.6
 21
0.249999999999979
 31
0.0
  0
LINE
  5
   19F
  8
0
  6
CONTINUOUS
 62
     0
 10
-1.8
 20
-0.250000000000032
 30
0.0
 11
-1.8
 21
0.249999999999964
 31
0.0
  0
LINE
  5
   1A0
  8
0
  6
CONTINUOUS
 62
     0
 10
-2.6
 20
-0.250000000000018
 30
0.0
 11
-2.6
 21
0.249999999999979
 31
0.0
  0
LINE
  5
   1A1
  8
0
  6
CONTINUOUS
 62
     0
 10
3.4
 20
-2.85000000000002
 30
0.0
 11
3.4
 21
2.84999999999998
 31
0.0
  0
LINE
  5
   1A2
  8
0
  6
CONTINUOUS
 62
     0
 10
4.19999999999999
 20
-2.85000000000002
 30
0.0
 11
4.19999999999999
 21
0.649999999999981
 31
0.0
  0
LINE
  5
   1A3
  8
0
  6
CONTINUOUS
 62
     0
 10
6.99999999999999
 20
-2.85000000000002
 30
0.0
 11
6.99999999999999
 21
0.649999999999981
 31
0.0
  0
LINE
  5
   1A4
  8
0
  6
CONTINUOUS
 62
     0
 10
7.79999999999999
 20
-2.85000000000002
 30
0.0
 11
7.79999999999999
 21
0.84999999999998
 31
0.0
  0
LINE
  5
   1A5
  8
0
  6
CONTINUOUS
 62
     0
 10
3.4
 20
2.84999999999998
 30
0.0
 11
4.19999999999999
 21
2.84999999999998
 31
0.0
  0
ARC
  5
   1A6
  8
0
  6
CONTINUOUS
 62
     0
 10
5.59999999999999
 20
0.649999999999981
 30
0.0
 40
1.4
 50
0.0
 51
180.0
  0
LINE
  5
   1A7
  8
0
  6
CONTINUOUS
 62
     0
 10
4.19999999999999
 20
2.05
 30
0.0
 11
4.19999999999999
 21
2.84999999999998
 31
0.0
  0
ARC
  5
   1A8
  8
0
  6
CONTINUOUS
 62
     0
 10
5.79999999999999
 20
0.84999999999998
 30
0.0
 40
2.0
 50
0.0
 51
143.130102354155
  0
LINE
  5
   1A9
  8
0
  6
CONTINUOUS
 62
     0
 10
6.99999999999999
 20
-2.85000000000002
 30
0.0
 11
7.79999999999999
 21
-2.85000000000002
 31
0.0
  0
ENDBLK
  5
   1AA
  8
0
  6
CONTINUOUS
 62
     0
  0
BLOCK
  5
   1AB
  8
0
  6
CONTINUOUS
 62
     7
  2
COPRITERMINALI
 70
    64
 10
0.0
 20
0.0
 30
0.0
  3
COPRITERMINALI
  0
LINE
  5
   1AC
  8
0
  6
CONTINUOUS
 62
     3
 10
-26.9653228477592
 20
-26.4999963653409
 30
0.0
 11
51.499997307872
 21
-26.4999847412093
 31
0.0
  0
LINE
  5
   1AD
  8
0
  6
CONTINUOUS
 62
     3
 10
-11.8807223165952
 20
-3.2146989469386E-15
 30
0.0
 11
51.2499820490807
 21
-3.2146989469386E-15
 31
0.0
  0
LINE
  5
   1AE
  8
0
  6
CONTINUOUS
 62
     3
 10
52.5000359267571
 20
-25.4999999999854
 30
0.0
 11
52.5000359267571
 21
-1.24999999998545
 31
0.0
  0
LINE
  5
   1AF
  8
0
  6
CONTINUOUS
 62
     3
 10
51.2499875325437
 20
6.62021609443286E-6
 30
0.0
 11
52.1338681534683
 21
-0.366112771113006
 31
0.0
  0
LINE
  5
   1B0
  8
0
  6
CONTINUOUS
 62
     3
 10
52.1338651254927
 20
-0.366107818105295
 30
0.0
 11
52.4999845168218
 21
-1.24998843902992
 31
0.0
  0
LINE
  5
   1B1
  8
0
  6
CONTINUOUS
 62
     3
 10
50.1499835749595
 20
-25.4999847412109
 30
0.0
 11
50.1499835749595
 21
-0.310653686523438
 31
0.0
  0
LINE
  5
   1B2
  8
0
  6
CONTINUOUS
 62
     3
 10
46.5499851008385
 20
-25.5
 30
0.0
 11
46.5499851008385
 21
-0.310653686523438
 31
0.0
  0
LINE
  5
   1B3
  8
0
  6
CONTINUOUS
 62
     3
 10
42.9499866267174
 20
-25.5
 30
0.0
 11
42.9499866267174
 21
-0.310653686523438
 31
0.0
  0
LINE
  5
   1B4
  8
0
  6
CONTINUOUS
 62
     3
 10
39.3499881525963
 20
-25.5
 30
0.0
 11
39.3499881525963
 21
-0.310653686523438
 31
0.0
  0
LINE
  5
   1B5
  8
0
  6
CONTINUOUS
 62
     3
 10
35.7499820490806
 20
-25.5
 30
0.0
 11
35.7499820490806
 21
-0.310653686523438
 31
0.0
  0
LINE
  5
   1B6
  8
0
  6
CONTINUOUS
 62
     3
 10
32.1499835749596
 20
-25.5
 30
0.0
 11
32.1499835749596
 21
-0.310653686523438
 31
0.0
  0
LINE
  5
   1B7
  8
0
  6
CONTINUOUS
 62
     3
 10
28.5499851008385
 20
-25.5
 30
0.0
 11
28.5499851008385
 21
-0.310653686523438
 31
0.0
  0
LINE
  5
   1B8
  8
0
  6
CONTINUOUS
 62
     3
 10
24.9499866267174
 20
-25.5
 30
0.0
 11
24.9499866267174
 21
-0.310653686523438
 31
0.0
  0
LINE
  5
   1B9
  8
0
  6
CONTINUOUS
 62
     3
 10
21.3499881525963
 20
-25.5
 30
0.0
 11
21.3499881525963
 21
-0.310653686523438
 31
0.0
  0
LINE
  5
   1BA
  8
0
  6
CONTINUOUS
 62
     3
 10
17.7499820490806
 20
-25.5
 30
0.0
 11
17.7499820490806
 21
-0.310653686523438
 31
0.0
  0
LINE
  5
   1BB
  8
0
  6
CONTINUOUS
 62
     3
 10
14.1499835749596
 20
-25.5
 30
0.0
 11
14.1499835749596
 21
-0.310653686523438
 31
0.0
  0
LINE
  5
   1BC
  8
0
  6
CONTINUOUS
 62
     3
 10
10.5499851008385
 20
-25.5
 30
0.0
 11
10.5499851008385
 21
-0.310653686523438
 31
0.0
  0
LINE
  5
   1BD
  8
0
  6
CONTINUOUS
 62
     3
 10
6.94998662671736
 20
-25.5
 30
0.0
 11
6.94998662671736
 21
-0.310653686523438
 31
0.0
  0
LINE
  5
   1BE
  8
0
  6
CONTINUOUS
 62
     3
 10
3.349984337899
 20
-25.5
 30
0.0
 11
3.349984337899
 21
-0.310653686523438
 31
0.0
  0
LINE
  5
   1BF
  8
0
  6
CONTINUOUS
 62
     3
 10
-0.250014136222092
 20
-25.5
 30
0.0
 11
-0.250014136222092
 21
-0.310653686523438
 31
0.0
  0
LINE
  5
   1C0
  8
0
  6
CONTINUOUS
 62
     3
 10
-3.85001261034319
 20
-25.5
 30
0.0
 11
-3.85001261034319
 21
-0.310653686523438
 31
0.0
  0
LINE
  5
   1C1
  8
0
  6
CONTINUOUS
 62
     3
 10
-7.45001489916154
 20
-25.5
 30
0.0
 11
-7.45001489916154
 21
-0.310653686523438
 31
0.0
  0
LINE
  5
   1C2
  8
0
  6
CONTINUOUS
 62
     3
 10
-11.0500133732826
 20
-25.5
 30
0.0
 11
-11.0500133732826
 21
-0.310653686523438
 31
0.0
  0
LINE
  5
   1C3
  8
0
  6
CONTINUOUS
 62
     3
 10
-14.650015662101
 20
-25.5
 30
0.0
 11
-14.650015662101
 21
-9.57938879857687
 31
0.0
  0
LINE
  5
   1C4
  8
0
  6
CONTINUOUS
 62
     3
 10
-18.2500141362221
 20
-25.5
 30
0.0
 11
-18.2500141362221
 21
-13.5387104077297
 31
0.0
  0
LINE
  5
   1C5
  8
0
  6
CONTINUOUS
 62
     3
 10
-21.8500145176918
 20
-25.5
 30
0.0
 11
-21.8500145176918
 21
-21.696898268415
 31
0.0
  0
LINE
  5
   1C6
  8
0
  6
CONTINUOUS
 62
     3
 10
-25.4500148991615
 20
-25.5
 30
0.0
 11
-25.4500148991615
 21
-23.7334800633219
 31
0.0
  0
LINE
  5
   1C7
  8
0
  6
CONTINUOUS
 62
     3
 10
51.4999973078697
 20
-26.4999847412109
 30
0.0
 11
51.4999973078697
 21
-25.4999847412109
 31
0.0
  0
LINE
  5
   1C8
  8
0
  6
CONTINUOUS
 62
     3
 10
51.4999973323171
 20
-25.4999847240978
 30
0.0
 11
52.4999897029225
 21
-25.4999999828869
 31
0.0
  0
LINE
  5
   1C9
  8
0
  6
CONTINUOUS
 62
     3
 10
-26.7252113460517
 20
-25.4999962297817
 30
0.0
 11
51.499997307872
 21
-25.4999847412093
 31
0.0
  0
POLYLINE
  5
   1CA
  8
0
  6
CONTINUOUS
 62
     3
 66
     1
 10
0.0
 20
0.0
 30
0.0
  0
VERTEX
  5
   1CB
  8
0
  6
CONTINUOUS
 10
-11.8807223165952
 20
-7.17635511806862E-7
 30
0.0
 40
0.0
 41
0.0
  0
VERTEX
  5
   1CC
  8
0
  6
CONTINUOUS
 10
-12.0380882028879
 20
-0.124695022286736
 30
0.0
 40
0.0
 41
0.0
  0
VERTEX
  5
   1CD
  8
0
  6
CONTINUOUS
 10
-12.1870378355997
 20
-0.252159435912545
 30
0.0
 40
0.0
 41
0.0
  0
VERTEX
  5
   1CE
  8
0
  6
CONTINUOUS
 10
-12.3275980880227
 20
-0.382387323729221
 30
0.0
 40
0.0
 41
0.0
  0
VERTEX
  5
   1CF
  8
0
  6
CONTINUOUS
 10
-12.4598050795586
 20
-0.515369768168507
 30
0.0
 40
0.0
 41
0.0
  0
VERTEX
  5
   1D0
  8
0
  6
CONTINUOUS
 10
-12.5837055478119
 20
-0.651095230119601
 30
0.0
 40
0.0
 41
0.0
  0
VERTEX
  5
   1D1
  8
0
  6
CONTINUOUS
 10
-12.6425586822873
 20
-0.719982186495683
 30
0.0
 40
0.0
 41
0.0
  0
VERTEX
  5
   1D2
  8
0
  6
CONTINUOUS
 10
-12.6993582206831
 20
-0.789549210171149
 30
0.0
 40
0.0
 41
0.0
  0
VERTEX
  5
   1D3
  8
0
  6
CONTINUOUS
 10
-12.7541136025796
 20
-0.859793970595136
 30
0.0
 40
0.0
 41
0.0
  0
VERTEX
  5
   1D4
  8
0
  6
CONTINUOUS
 10
-12.8068351884624
 20
-0.93071390985324
 30
0.0
 40
0.0
 41
0.0
  0
VERTEX
  5
   1D5
  8
0
  6
CONTINUOUS
 10
-12.8575343026004
 20
-1.00230623208134
 30
0.0
 40
0.0
 41
0.0
  0
VERTEX
  5
   1D6
  8
0
  6
CONTINUOUS
 10
-12.9062232759231
 20
-1.0745678928794
 30
0.0
 40
0.0
 41
0.0
  0
VERTEX
  5
   1D7
  8
0
  6
CONTINUOUS
 10
-12.9529154888994
 20
-1.14749558872529
 30
0.0
 40
0.0
 41
0.0
  0
VERTEX
  5
   1D8
  8
0
  6
CONTINUOUS
 10
-12.9976254144146
 20
-1.22108574638858
 30
0.0
 40
0.0
 41
0.0
  0
VERTEX
  5
   1D9
  8
0
  6
CONTINUOUS
 10
-13.0403686606493
 20
-1.29533451234439
 30
0.0
 40
0.0
 41
0.0
  0
VERTEX
  5
   1DA
  8
0
  6
CONTINUOUS
 10
-13.0811620139563
 20
-1.37023774218716
 30
0.0
 40
0.0
 41
0.0
  0
VERTEX
  5
   1DB
  8
0
  6
CONTINUOUS
 10
-13.1200234817393
 20
-1.4457909900445
 30
0.0
 40
0.0
 41
0.0
  0
VERTEX
  5
   1DC
  8
0
  6
CONTINUOUS
 10
-13.1569723353304
 20
-1.52198949799095
 30
0.0
 40
0.0
 41
0.0
  0
VERTEX
  5
   1DD
  8
0
  6
CONTINUOUS
 10
-13.225215862176
 20
-1.67630163866714
 30
0.0
 40
0.0
 41
0.0
  0
VERTEX
  5
   1DE
  8
0
  6
CONTINUOUS
 10
-13.286073673082
 20
-1.83312945747635
 30
0.0
 40
0.0
 41
0.0
  0
VERTEX
  5
   1DF
  8
0
  6
CONTINUOUS
 10
-13.3397498136806
 20
-1.9924225773146
 30
0.0
 40
0.0
 41
0.0
  0
VERTEX
  5
   1E0
  8
0
  6
CONTINUOUS
 10
-13.3864726687407
 20
-2.15412461195529
 30
0.0
 40
0.0
 41
0.0
  0
VERTEX
  5
   1E1
  8
0
  6
CONTINUOUS
 10
-13.4264963342613
 20
-2.31817282729122
 30
0.0
 40
0.0
 41
0.0
  0
VERTEX
  5
   1E2
  8
0
  6
CONTINUOUS
 10
-13.460101989565
 20
-2.48449780257656
 30
0.0
 40
0.0
 41
0.0
  0
VERTEX
  5
   1E3
  8
0
  6
CONTINUOUS
 10
-13.4875992693913
 20
-2.65302309166887
 30
0.0
 40
0.0
 41
0.0
  0
VERTEX
  5
   1E4
  8
0
  6
CONTINUOUS
 10
-13.5093276359897
 20
-2.82366488427106
 30
0.0
 40
0.0
 41
0.0
  0
VERTEX
  5
   1E5
  8
0
  6
CONTINUOUS
 10
-13.5256577512138
 20
-2.99633166717342
 30
0.0
 40
0.0
 41
0.0
  0
VERTEX
  5
   1E6
  8
0
  6
CONTINUOUS
 10
-13.5392744625448
 20
-3.21887433710571
 30
0.0
 40
0.0
 41
0.0
  0
VERTEX
  5
   1E7
  8
0
  6
CONTINUOUS
 10
-13.5457089984619
 20
-3.44431131298729
 30
0.0
 40
0.0
 41
0.0
  0
VERTEX
  5
   1E8
  8
0
  6
CONTINUOUS
 10
-13.5459448045399
 20
-3.67239820678813
 30
0.0
 40
0.0
 41
0.0
  0
VERTEX
  5
   1E9
  8
0
  6
CONTINUOUS
 10
-13.5410289084444
 20
-3.90287239850856
 30
0.0
 40
0.0
 41
0.0
  0
VERTEX
  5
   1EA
  8
0
  6
CONTINUOUS
 10
-13.5320591677427
 20
-4.13545491753417
 30
0.0
 40
0.0
 41
0.0
  0
VERTEX
  5
   1EB
  8
0
  6
CONTINUOUS
 10
-13.5201715177152
 20
-4.36985232399089
 30
0.0
 40
0.0
 41
0.0
  0
VERTEX
  5
   1EC
  8
0
  6
CONTINUOUS
 10
-13.4923001062319
 20
-4.84285698153295
 30
0.0
 40
0.0
 41
0.0
  0
VERTEX
  5
   1ED
  8
0
  6
CONTINUOUS
 10
-13.4667791273031
 20
-5.31932095843851
 30
0.0
 40
0.0
 41
0.0
  0
VERTEX
  5
   1EE
  8
0
  6
CONTINUOUS
 10
-13.4577810265544
 20
-5.55801647470083
 30
0.0
 40
0.0
 41
0.0
  0
VERTEX
  5
   1EF
  8
0
  6
CONTINUOUS
 10
-13.4527661375365
 20
-5.79656774057655
 30
0.0
 40
0.0
 41
0.0
  0
VERTEX
  5
   1F0
  8
0
  6
CONTINUOUS
 10
-13.4527798782228
 20
-6.03463270931388
 30
0.0
 40
0.0
 41
0.0
  0
VERTEX
  5
   1F1
  8
0
  6
CONTINUOUS
 10
-13.4588037267864
 20
-6.27186991574137
 30
0.0
 40
0.0
 41
0.0
  0
VERTEX
  5
   1F2
  8
0
  6
CONTINUOUS
 10
-13.471742469411
 20
-6.50794035762288
 30
0.0
 40
0.0
 41
0.0
  0
VERTEX
  5
   1F3
  8
0
  6
CONTINUOUS
 10
-13.4810635629787
 20
-6.6254332401087
 30
0.0
 40
0.0
 41
0.0
  0
VERTEX
  5
   1F4
  8
0
  6
CONTINUOUS
 10
-13.4924114481018
 20
-6.74250937701265
 30
0.0
 40
0.0
 41
0.0
  0
VERTEX
  5
   1F5
  8
0
  6
CONTINUOUS
 10
-13.5058719747218
 20
-6.85912792354668
 30
0.0
 40
0.0
 41
0.0
  0
VERTEX
  5
   1F6
  8
0
  6
CONTINUOUS
 10
-13.5215238084959
 20
-6.97524854161025
 30
0.0
 40
0.0
 41
0.0
  0
VERTEX
  5
   1F7
  8
0
  6
CONTINUOUS
 10
-13.53943803229
 20
-7.09083145858272
 30
0.0
 40
0.0
 41
0.0
  0
VERTEX
  5
   1F8
  8
0
  6
CONTINUOUS
 10
-13.5596777476739
 20
-7.20583752611561
 30
0.0
 40
0.0
 41
0.0
  0
VERTEX
  5
   1F9
  8
0
  6
CONTINUOUS
 10
-13.5822976764144
 20
-7.32022827892504
 30
0.0
 40
0.0
 41
0.0
  0
VERTEX
  5
   1FA
  8
0
  6
CONTINUOUS
 10
-13.6073437619702
 20
-7.43396599358399
 30
0.0
 40
0.0
 41
0.0
  0
VERTEX
  5
   1FB
  8
0
  6
CONTINUOUS
 10
-13.6348527709855
 20
-7.54701374731472
 30
0.0
 40
0.0
 41
0.0
  0
VERTEX
  5
   1FC
  8
0
  6
CONTINUOUS
 10
-13.6648518947842
 20
-7.65933547678105
 30
0.0
 40
0.0
 41
0.0
  0
VERTEX
  5
   1FD
  8
0
  6
CONTINUOUS
 10
-13.7102052147405
 20
-7.81255594844713
 30
0.0
 40
0.0
 41
0.0
  0
VERTEX
  5
   1FE
  8
0
  6
CONTINUOUS
 10
-13.7603128733319
 20
-7.96424869821502
 30
0.0
 40
0.0
 41
0.0
  0
VERTEX
  5
   1FF
  8
0
  6
CONTINUOUS
 10
-13.8151539241413
 20
-8.11432972818013
 30
0.0
 40
0.0
 41
0.0
  0
VERTEX
  5
   200
  8
0
  6
CONTINUOUS
 10
-13.8746753653185
 20
-8.26272004112415
 30
0.0
 40
0.0
 41
0.0
  0
VERTEX
  5
   201
  8
0
  6
CONTINUOUS
 10
-13.9387946632176
 20
-8.4093463934055
 30
0.0
 40
0.0
 41
0.0
  0
VERTEX
  5
   202
  8
0
  6
CONTINUOUS
 10
-14.0074022760342
 20
-8.55414204784972
 30
0.0
 40
0.0
 41
0.0
  0
VERTEX
  5
   203
  8
0
  6
CONTINUOUS
 10
-14.0803641774427
 20
-8.69704752663992
 30
0.0
 40
0.0
 41
0.0
  0
VERTEX
  5
   204
  8
0
  6
CONTINUOUS
 10
-14.1575243802331
 20
-8.83801136420718
 30
0.0
 40
0.0
 41
0.0
  0
VERTEX
  5
   205
  8
0
  6
CONTINUOUS
 10
-14.2387074599486
 20
-8.976990860121
 30
0.0
 40
0.0
 41
0.0
  0
VERTEX
  5
   206
  8
0
  6
CONTINUOUS
 10
-14.3237210785229
 20
-9.11395283197969
 30
0.0
 40
0.0
 41
0.0
  0
VERTEX
  5
   207
  8
0
  6
CONTINUOUS
 10
-14.4123585079169
 20
-9.24887436830084
 30
0.0
 40
0.0
 41
0.0
  0
VERTEX
  5
   208
  8
0
  6
CONTINUOUS
 10
-14.5044011537565
 20
-9.38174358141167
 30
0.0
 40
0.0
 41
0.0
  0
VERTEX
  5
   209
  8
0
  6
CONTINUOUS
 10
-14.5996210789693
 20
-9.51256036033953
 30
0.0
 40
0.0
 41
0.0
  0
VERTEX
  5
   20A
  8
0
  6
CONTINUOUS
 10
-14.6977835274221
 20
-9.64133712370228
 30
0.0
 40
0.0
 41
0.0
  0
VERTEX
  5
   20B
  8
0
  6
CONTINUOUS
 10
-14.7986494475581
 20
-9.76809957259872
 30
0.0
 40
0.0
 41
0.0
  0
VERTEX
  5
   20C
  8
0
  6
CONTINUOUS
 10
-14.9019780160339
 20
-9.89288744349901
 30
0.0
 40
0.0
 41
0.0
  0
VERTEX
  5
   20D
  8
0
  6
CONTINUOUS
 10
-15.0075291613572
 20
-10.0157552611351
 30
0.0
 40
0.0
 41
0.0
  0
VERTEX
  5
   20E
  8
0
  6
CONTINUOUS
 10
-15.1150660875233
 20
-10.1367730913912
 30
0.0
 40
0.0
 41
0.0
  0
VERTEX
  5
   20F
  8
0
  6
CONTINUOUS
 10
-15.2243577976528
 20
-10.256027294194
 30
0.0
 40
0.0
 41
0.0
  0
VERTEX
  5
   210
  8
0
  6
CONTINUOUS
 10
-15.3351816176287
 20
-10.3736212764034
 30
0.0
 40
0.0
 41
0.0
  0
VERTEX
  5
   211
  8
0
  6
CONTINUOUS
 10
-15.4727327398165
 20
-10.5156039225108
 30
0.0
 40
0.0
 41
0.0
  0
VERTEX
  5
   212
  8
0
  6
CONTINUOUS
 10
-15.6119019776945
 20
-10.6555369357352
 30
0.0
 40
0.0
 41
0.0
  0
VERTEX
  5
   213
  8
0
  6
CONTINUOUS
 10
-15.8937631365907
 20
-10.930467143671
 30
0.0
 40
0.0
 41
0.0
  0
VERTEX
  5
   214
  8
0
  6
CONTINUOUS
 10
-16.46324532334
 20
-11.4705085657159
 30
0.0
 40
0.0
 41
0.0
  0
VERTEX
  5
   215
  8
0
  6
CONTINUOUS
 10
-16.7464445499341
 20
-11.7418227858257
 30
0.0
 40
0.0
 41
0.0
  0
VERTEX
  5
   216
  8
0
  6
CONTINUOUS
 10
-16.8867002763727
 20
-11.8791914496362
 30
0.0
 40
0.0
 41
0.0
  0
VERTEX
  5
   217
  8
0
  6
CONTINUOUS
 10
-17.025675870363
 20
-12.0182117486832
 30
0.0
 40
0.0
 41
0.0
  0
VERTEX
  5
   218
  8
0
  6
CONTINUOUS
 10
-17.1630649050046
 20
-12.1592459296682
 30
0.0
 40
0.0
 41
0.0
  0
VERTEX
  5
   219
  8
0
  6
CONTINUOUS
 10
-17.2985413659313
 20
-12.302633192929
 30
0.0
 40
0.0
 41
0.0
  0
VERTEX
  5
   21A
  8
0
  6
CONTINUOUS
 10
-17.4317555090847
 20
-12.4486842890361
 30
0.0
 40
0.0
 41
0.0
  0
VERTEX
  5
   21B
  8
0
  6
CONTINUOUS
 10
-17.562329718488
 20
-12.5976761153882
 30
0.0
 40
0.0
 41
0.0
  0
VERTEX
  5
   21C
  8
0
  6
CONTINUOUS
 10
-17.6898543640196
 20
-12.7498463128088
 30
0.0
 40
0.0
 41
0.0
  0
VERTEX
  5
   21D
  8
0
  6
CONTINUOUS
 10
-17.8138836591874
 20
-12.9053878621415
 30
0.0
 40
0.0
 41
0.0
  0
VERTEX
  5
   21E
  8
0
  6
CONTINUOUS
 10
-17.933931518902
 20
-13.0644436808464
 30
0.0
 40
0.0
 41
0.0
  0
VERTEX
  5
   21F
  8
0
  6
CONTINUOUS
 10
-18.0494674172511
 20
-13.2271012195961
 30
0.0
 40
0.0
 41
0.0
  0
VERTEX
  5
   220
  8
0
  6
CONTINUOUS
 10
-18.1251608148491
 20
-13.3397812332793
 30
0.0
 40
0.0
 41
0.0
  0
VERTEX
  5
   221
  8
0
  6
CONTINUOUS
 10
-18.1983064339121
 20
-13.4541318798404
 30
0.0
 40
0.0
 41
0.0
  0
VERTEX
  5
   222
  8
0
  6
CONTINUOUS
 10
-18.2687018186097
 20
-13.5701316400191
 30
0.0
 40
0.0
 41
0.0
  0
VERTEX
  5
   223
  8
0
  6
CONTINUOUS
 10
-18.3361404474715
 20
-13.6877470203599
 30
0.0
 40
0.0
 41
0.0
  0
VERTEX
  5
   224
  8
0
  6
CONTINUOUS
 10
-18.4004153371355
 20
-13.8069336510575
 30
0.0
 40
0.0
 41
0.0
  0
VERTEX
  5
   225
  8
0
  6
CONTINUOUS
 10
-18.4613226460948
 20
-13.9276373838021
 30
0.0
 40
0.0
 41
0.0
  0
VERTEX
  5
   226
  8
0
  6
CONTINUOUS
 10
-18.5186652784458
 20
-14.0497953896251
 30
0.0
 40
0.0
 41
0.0
  0
VERTEX
  5
   227
  8
0
  6
CONTINUOUS
 10
-18.5722564876352
 20
-14.1733372567445
 30
0.0
 40
0.0
 41
0.0
  0
VERTEX
  5
   228
  8
0
  6
CONTINUOUS
 10
-18.6219234802078
 20
-14.2981860884109
 30
0.0
 40
0.0
 41
0.0
  0
VERTEX
  5
   229
  8
0
  6
CONTINUOUS
 10
-18.6675110195543
 20
-14.4242596007524
 30
0.0
 40
0.0
 41
0.0
  0
VERTEX
  5
   22A
  8
0
  6
CONTINUOUS
 10
-18.7088850296582
 20
-14.5514712206204
 30
0.0
 40
0.0
 41
0.0
  0
VERTEX
  5
   22B
  8
0
  6
CONTINUOUS
 10
-18.7459361988438
 20
-14.6797311834354
 30
0.0
 40
0.0
 41
0.0
  0
VERTEX
  5
   22C
  8
0
  6
CONTINUOUS
 10
-18.7785835835239
 20
-14.8089476310319
 30
0.0
 40
0.0
 41
0.0
  0
VERTEX
  5
   22D
  8
0
  6
CONTINUOUS
 10
-18.8067782119466
 20
-14.9390277095047
 30
0.0
 40
0.0
 41
0.0
  0
VERTEX
  5
   22E
  8
0
  6
CONTINUOUS
 10
-18.8305066879437
 20
-15.0698786670537
 30
0.0
 40
0.0
 41
0.0
  0
VERTEX
  5
   22F
  8
0
  6
CONTINUOUS
 10
-18.8497947946776
 20
-15.2014089518301
 30
0.0
 40
0.0
 41
0.0
  0
VERTEX
  5
   230
  8
0
  6
CONTINUOUS
 10
-18.8647110983892
 20
-15.3335293097812
 30
0.0
 40
0.0
 41
0.0
  0
VERTEX
  5
   231
  8
0
  6
CONTINUOUS
 10
-18.8753705521454
 20
-15.4661538824968
 30
0.0
 40
0.0
 41
0.0
  0
VERTEX
  5
   232
  8
0
  6
CONTINUOUS
 10
-18.8819380995863
 20
-15.599201305054
 30
0.0
 40
0.0
 41
0.0
  0
VERTEX
  5
   233
  8
0
  6
CONTINUOUS
 10
-18.8846322786733
 20
-15.7325958038629
 30
0.0
 40
0.0
 41
0.0
  0
VERTEX
  5
   234
  8
0
  6
CONTINUOUS
 10
-18.8842190005345
 20
-15.8369168510388
 30
0.0
 40
0.0
 41
0.0
  0
VERTEX
  5
   235
  8
0
  6
CONTINUOUS
 10
-18.8817683995859
 20
-15.9413773544323
 30
0.0
 40
0.0
 41
0.0
  0
VERTEX
  5
   236
  8
0
  6
CONTINUOUS
 10
-18.8714788565952
 20
-16.1506101986441
 30
0.0
 40
0.0
 41
0.0
  0
VERTEX
  5
   237
  8
0
  6
CONTINUOUS
 10
-18.85538066569
 20
-16.3601019191307
 30
0.0
 40
0.0
 41
0.0
  0
VERTEX
  5
   238
  8
0
  6
CONTINUOUS
 10
-18.8353142465831
 20
-16.5696860109618
 30
0.0
 40
0.0
 41
0.0
  0
VERTEX
  5
   239
  8
0
  6
CONTINUOUS
 10
-18.7913421550987
 20
-16.9885338250813
 30
0.0
 40
0.0
 41
0.0
  0
VERTEX
  5
   23A
  8
0
  6
CONTINUOUS
 10
-18.7716144415617
 20
-17.1975025606325
 30
0.0
 40
0.0
 41
0.0
  0
VERTEX
  5
   23B
  8
0
  6
CONTINUOUS
 10
-18.7561366621251
 20
-17.4059533520397
 30
0.0
 40
0.0
 41
0.0
  0
VERTEX
  5
   23C
  8
0
  6
CONTINUOUS
 10
-18.7468330897795
 20
-17.6136966914533
 30
0.0
 40
0.0
 41
0.0
  0
VERTEX
  5
   23D
  8
0
  6
CONTINUOUS
 10
-18.7450479344463
 20
-17.7172345221966
 30
0.0
 40
0.0
 41
0.0
  0
VERTEX
  5
   23E
  8
0
  6
CONTINUOUS
 10
-18.7454381351029
 20
-17.8205079574186
 30
0.0
 40
0.0
 41
0.0
  0
VERTEX
  5
   23F
  8
0
  6
CONTINUOUS
 10
-18.7477872405867
 20
-17.9129842949241
 30
0.0
 40
0.0
 41
0.0
  0
VERTEX
  5
   240
  8
0
  6
CONTINUOUS
 10
-18.7521459809002
 20
-18.005191315638
 30
0.0
 40
0.0
 41
0.0
  0
VERTEX
  5
   241
  8
0
  6
CONTINUOUS
 10
-18.7586152097789
 20
-18.0970991504369
 30
0.0
 40
0.0
 41
0.0
  0
VERTEX
  5
   242
  8
0
  6
CONTINUOUS
 10
-18.7672833462021
 20
-18.1886760194679
 30
0.0
 40
0.0
 41
0.0
  0
VERTEX
  5
   243
  8
0
  6
CONTINUOUS
 10
-18.7782268121109
 20
-18.2798884032864
 30
0.0
 40
0.0
 41
0.0
  0
VERTEX
  5
   244
  8
0
  6
CONTINUOUS
 10
-18.7915104701262
 20
-18.3707012139947
 30
0.0
 40
0.0
 41
0.0
  0
VERTEX
  5
   245
  8
0
  6
CONTINUOUS
 10
-18.8071880612666
 20
-18.4610779663801
 30
0.0
 40
0.0
 41
0.0
  0
VERTEX
  5
   246
  8
0
  6
CONTINUOUS
 10
-18.8253026426664
 20
-18.5509809490533
 30
0.0
 40
0.0
 41
0.0
  0
VERTEX
  5
   247
  8
0
  6
CONTINUOUS
 10
-18.8458870252939
 20
-18.6403713955868
 30
0.0
 40
0.0
 41
0.0
  0
VERTEX
  5
   248
  8
0
  6
CONTINUOUS
 10
-18.8689642116689
 20
-18.7292096556529
 30
0.0
 40
0.0
 41
0.0
  0
VERTEX
  5
   249
  8
0
  6
CONTINUOUS
 10
-18.8945478335812
 20
-18.8174553661621
 30
0.0
 40
0.0
 41
0.0
  0
VERTEX
  5
   24A
  8
0
  6
CONTINUOUS
 10
-18.9226425898082
 20
-18.9050676224014
 30
0.0
 40
0.0
 41
0.0
  0
VERTEX
  5
   24B
  8
0
  6
CONTINUOUS
 10
-18.9532446838331
 20
-18.9920051491727
 30
0.0
 40
0.0
 41
0.0
  0
VERTEX
  5
   24C
  8
0
  6
CONTINUOUS
 10
-18.9863422615628
 20
-19.0782264719308
 30
0.0
 40
0.0
 41
0.0
  0
VERTEX
  5
   24D
  8
0
  6
CONTINUOUS
 10
-19.021915849046
 20
-19.1636900879219
 30
0.0
 40
0.0
 41
0.0
  0
VERTEX
  5
   24E
  8
0
  6
CONTINUOUS
 10
-19.0599387901913
 20
-19.2483546373218
 30
0.0
 40
0.0
 41
0.0
  0
VERTEX
  5
   24F
  8
0
  6
CONTINUOUS
 10
-19.1003776844846
 20
-19.3321790743743
 30
0.0
 40
0.0
 41
0.0
  0
VERTEX
  5
   250
  8
0
  6
CONTINUOUS
 10
-19.1431928247081
 20
-19.4151228385293
 30
0.0
 40
0.0
 41
0.0
  0
VERTEX
  5
   251
  8
0
  6
CONTINUOUS
 10
-19.1883386346573
 20
-19.497146025581
 30
0.0
 40
0.0
 41
0.0
  0
VERTEX
  5
   252
  8
0
  6
CONTINUOUS
 10
-19.2357641068597
 20
-19.5782095588067
 30
0.0
 40
0.0
 41
0.0
  0
VERTEX
  5
   253
  8
0
  6
CONTINUOUS
 10
-19.2854132402923
 20
-19.6582753601044
 30
0.0
 40
0.0
 41
0.0
  0
VERTEX
  5
   254
  8
0
  6
CONTINUOUS
 10
-19.3372254781001
 20
-19.7373065211315
 30
0.0
 40
0.0
 41
0.0
  0
VERTEX
  5
   255
  8
0
  6
CONTINUOUS
 10
-19.3911361453136
 20
-19.8152674744432
 30
0.0
 40
0.0
 41
0.0
  0
VERTEX
  5
   256
  8
0
  6
CONTINUOUS
 10
-19.447076886567
 20
-19.8921241646302
 30
0.0
 40
0.0
 41
0.0
  0
VERTEX
  5
   257
  8
0
  6
CONTINUOUS
 10
-19.5049761038166
 20
-19.9678442194575
 30
0.0
 40
0.0
 41
0.0
  0
VERTEX
  5
   258
  8
0
  6
CONTINUOUS
 10
-19.5647593940579
 20
-20.0423971210028
 30
0.0
 40
0.0
 41
0.0
  0
VERTEX
  5
   259
  8
0
  6
CONTINUOUS
 10
-19.6263499870445
 20
-20.115754376794
 30
0.0
 40
0.0
 41
0.0
  0
VERTEX
  5
   25A
  8
0
  6
CONTINUOUS
 10
-19.6896691830055
 20
-20.1878896909484
 30
0.0
 40
0.0
 41
0.0
  0
VERTEX
  5
   25B
  8
0
  6
CONTINUOUS
 10
-19.7546367903638
 20
-20.2587791353103
 30
0.0
 40
0.0
 41
0.0
  0
VERTEX
  5
   25C
  8
0
  6
CONTINUOUS
 10
-19.821171563454
 20
-20.3284013205899
 30
0.0
 40
0.0
 41
0.0
  0
VERTEX
  5
   25D
  8
0
  6
CONTINUOUS
 10
-19.9586149800348
 20
-20.4637720778989
 30
0.0
 40
0.0
 41
0.0
  0
VERTEX
  5
   25E
  8
0
  6
CONTINUOUS
 10
-20.1013450189428
 20
-20.5938881291209
 30
0.0
 40
0.0
 41
0.0
  0
VERTEX
  5
   25F
  8
0
  6
CONTINUOUS
 10
-20.2487184149115
 20
-20.7186872152003
 30
0.0
 40
0.0
 41
0.0
  0
VERTEX
  5
   260
  8
0
  6
CONTINUOUS
 10
-20.40011705819
 20
-20.8381641282051
 30
0.0
 40
0.0
 41
0.0
  0
VERTEX
  5
   261
  8
0
  6
CONTINUOUS
 10
-20.5549620015178
 20
-20.9523761877521
 30
0.0
 40
0.0
 41
0.0
  0
VERTEX
  5
   262
  8
0
  6
CONTINUOUS
 10
-20.68953110085
 20
-21.0458383770463
 30
0.0
 40
0.0
 41
0.0
  0
VERTEX
  5
   263
  8
0
  6
CONTINUOUS
 10
-20.8259375855763
 20
-21.135669762206
 30
0.0
 40
0.0
 41
0.0
  0
VERTEX
  5
   264
  8
0
  6
CONTINUOUS
 10
-20.9639230601744
 20
-21.2220249204068
 30
0.0
 40
0.0
 41
0.0
  0
VERTEX
  5
   265
  8
0
  6
CONTINUOUS
 10
-21.1032596572597
 20
-21.3050908905824
 30
0.0
 40
0.0
 41
0.0
  0
VERTEX
  5
   266
  8
0
  6
CONTINUOUS
 10
-21.2437474354693
 20
-21.3850838615248
 30
0.0
 40
0.0
 41
0.0
  0
VERTEX
  5
   267
  8
0
  6
CONTINUOUS
 10
-21.3852117773469
 20
-21.4622458599852
 30
0.0
 40
0.0
 41
0.0
  0
VERTEX
  5
   268
  8
0
  6
CONTINUOUS
 10
-21.527500787227
 20
-21.5368414387739
 30
0.0
 40
0.0
 41
0.0
  0
VERTEX
  5
   269
  8
0
  6
CONTINUOUS
 10
-21.6704826891197
 20
-21.6091543648612
 30
0.0
 40
0.0
 41
0.0
  0
VERTEX
  5
   26A
  8
0
  6
CONTINUOUS
 10
-21.9580830506661
 20
-21.7481435262139
 30
0.0
 40
0.0
 41
0.0
  0
VERTEX
  5
   26B
  8
0
  6
CONTINUOUS
 10
-22.2472621671836
 20
-21.8817419108181
 30
0.0
 40
0.0
 41
0.0
  0
VERTEX
  5
   26C
  8
0
  6
CONTINUOUS
 10
-22.8280475152863
 20
-22.1432519610222
 30
0.0
 40
0.0
 41
0.0
  0
VERTEX
  5
   26D
  8
0
  6
CONTINUOUS
 10
-23.1185961835407
 20
-22.2762741619568
 30
0.0
 40
0.0
 41
0.0
  0
VERTEX
  5
   26E
  8
0
  6
CONTINUOUS
 10
-23.4084419447107
 20
-22.413914695241
 30
0.0
 40
0.0
 41
0.0
  0
VERTEX
  5
   26F
  8
0
  6
CONTINUOUS
 10
-23.5729221847255
 20
-22.4951397272573
 30
0.0
 40
0.0
 41
0.0
  0
VERTEX
  5
   270
  8
0
  6
CONTINUOUS
 10
-23.7367350650165
 20
-22.5788045741134
 30
0.0
 40
0.0
 41
0.0
  0
VERTEX
  5
   271
  8
0
  6
CONTINUOUS
 10
-23.8996730794607
 20
-22.665168264236
 30
0.0
 40
0.0
 41
0.0
  0
VERTEX
  5
   272
  8
0
  6
CONTINUOUS
 10
-24.0615060419566
 20
-22.7544492820306
 30
0.0
 40
0.0
 41
0.0
  0
VERTEX
  5
   273
  8
0
  6
CONTINUOUS
 10
-24.2219834803203
 20
-22.8468281597424
 30
0.0
 40
0.0
 41
0.0
  0
VERTEX
  5
   274
  8
0
  6
CONTINUOUS
 10
-24.3808370301816
 20
-22.9424500693175
 30
0.0
 40
0.0
 41
0.0
  0
VERTEX
  5
   275
  8
0
  6
CONTINUOUS
 10
-24.5377828288802
 20
-23.0414274142638
 30
0.0
 40
0.0
 41
0.0
  0
VERTEX
  5
   276
  8
0
  6
CONTINUOUS
 10
-24.6925239093621
 20
-23.1438424215123
 30
0.0
 40
0.0
 41
0.0
  0
VERTEX
  5
   277
  8
0
  6
CONTINUOUS
 10
-24.8447525940758
 20
-23.249749733278
 30
0.0
 40
0.0
 41
0.0
  0
VERTEX
  5
   278
  8
0
  6
CONTINUOUS
 10
-24.9941528888687
 20
-23.3591789989207
 30
0.0
 40
0.0
 41
0.0
  0
VERTEX
  5
   279
  8
0
  6
CONTINUOUS
 10
-25.1404028768827
 20
-23.4721374668068
 30
0.0
 40
0.0
 41
0.0
  0
VERTEX
  5
   27A
  8
0
  6
CONTINUOUS
 10
-25.2831771124515
 20
-23.5886125761695
 30
0.0
 40
0.0
 41
0.0
  0
VERTEX
  5
   27B
  8
0
  6
CONTINUOUS
 10
-25.4221490149957
 20
-23.7085745489704
 30
0.0
 40
0.0
 41
0.0
  0
VERTEX
  5
   27C
  8
0
  6
CONTINUOUS
 10
-25.5569932629201
 20
-23.8319789817604
 30
0.0
 40
0.0
 41
0.0
  0
VERTEX
  5
   27D
  8
0
  6
CONTINUOUS
 10
-25.687388187509
 20
-23.958769437541
 30
0.0
 40
0.0
 41
0.0
  0
VERTEX
  5
   27E
  8
0
  6
CONTINUOUS
 10
-25.8130181668233
 20
-24.0888800376248
 30
0.0
 40
0.0
 41
0.0
  0
VERTEX
  5
   27F
  8
0
  6
CONTINUOUS
 10
-25.933576019596
 20
-24.222238053497
 30
0.0
 40
0.0
 41
0.0
  0
VERTEX
  5
   280
  8
0
  6
CONTINUOUS
 10
-26.0487653991288
 20
-24.3587664986766
 30
0.0
 40
0.0
 41
0.0
  0
VERTEX
  5
   281
  8
0
  6
CONTINUOUS
 10
-26.1583031871886
 20
-24.4983867205769
 30
0.0
 40
0.0
 41
0.0
  0
VERTEX
  5
   282
  8
0
  6
CONTINUOUS
 10
-26.2619218879033
 20
-24.641020992367
 30
0.0
 40
0.0
 41
0.0
  0
VERTEX
  5
   283
  8
0
  6
CONTINUOUS
 10
-26.3193202928071
 20
-24.7252670939351
 30
0.0
 40
0.0
 41
0.0
  0
VERTEX
  5
   284
  8
0
  6
CONTINUOUS
 10
-26.3745890952435
 20
-24.8104921971462
 30
0.0
 40
0.0
 41
0.0
  0
VERTEX
  5
   285
  8
0
  6
CONTINUOUS
 10
-26.4276846358967
 20
-24.8966832332298
 30
0.0
 40
0.0
 41
0.0
  0
VERTEX
  5
   286
  8
0
  6
CONTINUOUS
 10
-26.478565468312
 20
-24.9838277958021
 30
0.0
 40
0.0
 41
0.0
  0
VERTEX
  5
   287
  8
0
  6
CONTINUOUS
 10
-26.5271923013383
 20
-25.0719141236378
 30
0.0
 40
0.0
 41
0.0
  0
VERTEX
  5
   288
  8
0
  6
CONTINUOUS
 10
-26.5735279415717
 20
-25.1609310834414
 30
0.0
 40
0.0
 41
0.0
  0
VERTEX
  5
   289
  8
0
  6
CONTINUOUS
 10
-26.6175372357988
 20
-25.2508681526179
 30
0.0
 40
0.0
 41
0.0
  0
VERTEX
  5
   28A
  8
0
  6
CONTINUOUS
 10
-26.6591870134399
 20
-25.3417154020446
 30
0.0
 40
0.0
 41
0.0
  0
VERTEX
  5
   28B
  8
0
  6
CONTINUOUS
 10
-26.6984460289924
 20
-25.4334634788421
 30
0.0
 40
0.0
 41
0.0
  0
VERTEX
  5
   28C
  8
0
  6
CONTINUOUS
 10
-26.7352849044739
 20
-25.5261035891458
 30
0.0
 40
0.0
 41
0.0
  0
VERTEX
  5
   28D
  8
0
  6
CONTINUOUS
 10
-26.7696760718657
 20
-25.6196274808766
 30
0.0
 40
0.0
 41
0.0
  0
VERTEX
  5
   28E
  8
0
  6
CONTINUOUS
 10
-26.8015937155559
 20
-25.7140274265128
 30
0.0
 40
0.0
 41
0.0
  0
VERTEX
  5
   28F
  8
0
  6
CONTINUOUS
 10
-26.831013714783
 20
-25.8092962058608
 30
0.0
 40
0.0
 41
0.0
  0
VERTEX
  5
   290
  8
0
  6
CONTINUOUS
 10
-26.8579135860787
 20
-25.9054270888269
 30
0.0
 40
0.0
 41
0.0
  0
VERTEX
  5
   291
  8
0
  6
CONTINUOUS
 10
-26.8822724257115
 20
-26.002413818188
 30
0.0
 40
0.0
 41
0.0
  0
VERTEX
  5
   292
  8
0
  6
CONTINUOUS
 10
-26.90407085213
 20
-26.1002505923631
 30
0.0
 40
0.0
 41
0.0
  0
VERTEX
  5
   293
  8
0
  6
CONTINUOUS
 10
-26.9232909484063
 20
-26.1989320481847
 30
0.0
 40
0.0
 41
0.0
  0
VERTEX
  5
   294
  8
0
  6
CONTINUOUS
 10
-26.9399162046787
 20
-26.2984532436699
 30
0.0
 40
0.0
 41
0.0
  0
VERTEX
  5
   295
  8
0
  6
CONTINUOUS
 10
-26.9539314605958
 20
-26.3988096407913
 30
0.0
 40
0.0
 41
0.0
  0
VERTEX
  5
   296
  8
0
  6
CONTINUOUS
 10
-26.9653228477591
 20
-26.499997088249
 30
0.0
 40
0.0
 41
0.0
  0
SEQEND
  5
   297
  8
0
  6
CONTINUOUS
 62
     3
  0
ENDBLK
  5
   298
  8
0
  6
CONTINUOUS
 62
     7
  0
BLOCK
  5
   299
  8
0
  6
CONTINUOUS
 62
     7
  2
$2MOSTRINA
 70
    64
 10
0.0
 20
0.0
 30
0.0
  3
$2MOSTRINA
  0
LINE
  5
   29A
  8
0
  6
CONTINUOUS
 62
     3
 10
173.338256835938
 20
30.7306251525879
 30
0.0
 11
173.338256835938
 21
189.230621337891
 31
0.0
  0
LINE
  5
   29B
  8
0
  6
CONTINUOUS
 62
     3
 10
57.5882568359375
 20
29.4806251525879
 30
0.0
 11
172.088256835938
 21
29.4806251525879
 31
0.0
  0
LINE
  5
   29C
  8
0
  6
CONTINUOUS
 62
     3
 10
56.3382568359375
 20
30.7306251525879
 30
0.0
 11
56.3382568359375
 21
189.230621337891
 31
0.0
  0
LINE
  5
   29D
  8
0
  6
CONTINUOUS
 62
     3
 10
57.5882568359375
 20
190.480621337891
 30
0.0
 11
172.088256835938
 21
190.480621337891
 31
0.0
  0
LINE
  5
   29E
  8
0
  6
CONTINUOUS
 62
     3
 10
167.838256835938
 20
56.9806251525879
 30
0.0
 11
167.838256835938
 21
162.980625152588
 31
0.0
  0
LINE
  5
   29F
  8
0
  6
CONTINUOUS
 62
     3
 10
61.8382568359375
 20
56.9806251525879
 30
0.0
 11
167.838256835938
 21
56.9806251525879
 31
0.0
  0
LINE
  5
   2A0
  8
0
  6
CONTINUOUS
 62
     3
 10
61.8382568359375
 20
56.9806251525879
 30
0.0
 11
61.8382568359375
 21
162.980625152588
 31
0.0
  0
LINE
  5
   2A1
  8
0
  6
CONTINUOUS
 62
     3
 10
61.8382568359375
 20
162.980621337891
 30
0.0
 11
167.838256835938
 21
162.980621337891
 31
0.0
  0
LINE
  5
   2A2
  8
0
  6
CONTINUOUS
 62
     3
 10
168.838256835938
 20
48.4806251525879
 30
0.0
 11
168.838256835938
 21
49.4806251525879
 31
0.0
  0
LINE
  5
   2A3
  8
0
  6
CONTINUOUS
 62
     3
 10
61.8382568359375
 20
50.4806251525879
 30
0.0
 11
167.838256835938
 21
50.4806251525879
 31
0.0
  0
LINE
  5
   2A4
  8
0
  6
CONTINUOUS
 62
     3
 10
60.8382568359375
 20
48.4806251525879
 30
0.0
 11
60.8382568359375
 21
49.4806251525879
 31
0.0
  0
LINE
  5
   2A5
  8
0
  6
CONTINUOUS
 62
     3
 10
61.8382568359375
 20
49.4806251525879
 30
0.0
 11
167.838256835938
 21
49.4806251525879
 31
0.0
  0
LINE
  5
   2A6
  8
0
  6
CONTINUOUS
 62
     3
 10
60.8382568359375
 20
29.4806251525879
 30
0.0
 11
60.8382568359375
 21
48.4806251525879
 31
0.0
  0
LINE
  5
   2A7
  8
0
  6
CONTINUOUS
 62
     3
 10
60.8382568359375
 20
49.4806213378906
 30
0.0
 11
60.8382568359375
 21
190.480621337891
 31
0.0
  0
LINE
  5
   2A8
  8
0
  6
CONTINUOUS
 62
     3
 10
61.8382568359375
 20
29.4806251525879
 30
0.0
 11
61.8382568359375
 21
49.4806251525879
 31
0.0
  0
LINE
  5
   2A9
  8
0
  6
CONTINUOUS
 62
     3
 10
61.8382568359375
 20
162.980621337891
 30
0.0
 11
61.8382568359375
 21
169.480621337891
 31
0.0
  0
LINE
  5
   2AA
  8
0
  6
CONTINUOUS
 62
     3
 10
61.8382568359375
 20
50.4806251525879
 30
0.0
 11
61.8382568359375
 21
56.9806251525879
 31
0.0
  0
LINE
  5
   2AB
  8
0
  6
CONTINUOUS
 62
     3
 10
168.838256835938
 20
29.4806251525879
 30
0.0
 11
168.838256835938
 21
48.4806251525879
 31
0.0
  0
LINE
  5
   2AC
  8
0
  6
CONTINUOUS
 62
     3
 10
168.838256835938
 20
49.4806251525879
 30
0.0
 11
168.838256835938
 21
190.480621337891
 31
0.0
  0
LINE
  5
   2AD
  8
0
  6
CONTINUOUS
 62
     3
 10
167.838256835938
 20
50.4806251525879
 30
0.0
 11
167.838256835938
 21
56.9806251525879
 31
0.0
  0
LINE
  5
   2AE
  8
0
  6
CONTINUOUS
 62
     3
 10
167.838256835938
 20
162.980621337891
 30
0.0
 11
167.838256835938
 21
169.480621337891
 31
0.0
  0
LINE
  5
   2AF
  8
0
  6
CONTINUOUS
 62
     3
 10
167.838256835938
 20
29.4806251525879
 30
0.0
 11
167.838256835938
 21
49.4806251525879
 31
0.0
  0
LINE
  5
   2B0
  8
0
  6
CONTINUOUS
 62
     3
 10
60.8382568359375
 20
170.480621337891
 30
0.0
 11
168.838256835938
 21
170.480621337891
 31
0.0
  0
LINE
  5
   2B1
  8
0
  6
CONTINUOUS
 62
     3
 10
61.8382568359375
 20
169.480621337891
 30
0.0
 11
167.838256835938
 21
169.480621337891
 31
0.0
  0
ARC
  5
   2B2
  8
0
  6
CONTINUOUS
 62
     3
 10
57.5882568359375
 20
30.7306251525879
 30
0.0
 40
1.25
 50
180.0
 51
270.0
  0
ARC
  5
   2B3
  8
0
  6
CONTINUOUS
 62
     3
 10
172.088256835938
 20
30.7306251525879
 30
0.0
 40
1.25
 50
270.0
 51
360.0
  0
ARC
  5
   2B4
  8
0
  6
CONTINUOUS
 62
     3
 10
172.088256835938
 20
189.230621337891
 30
0.0
 40
1.25
 50
0.0
 51
90.0
  0
ARC
  5
   2B5
  8
0
  6
CONTINUOUS
 62
     3
 10
57.5882568359375
 20
189.230621337891
 30
0.0
 40
1.25
 50
90.0
 51
180.0
  0
LINE
  5
   2B6
  8
0
  6
DOT
 62
     3
 10
60.3382577409677
 20
179.7306252571
 30
0.0
 11
60.8382568359375
 21
179.7306252571
 31
0.0
  0
LINE
  5
   2B7
  8
0
  6
DOT
 62
     3
 10
60.3382577409676
 20
181.2306252571
 30
0.0
 11
60.8382568359375
 21
181.2306252571
 31
0.0
  0
LINE
  5
   2B8
  8
0
  6
CONTINUOUS
 62
     3
 10
168.338257745313
 20
179.730625257273
 30
0.0
 11
168.838256835938
 21
179.730625257273
 31
0.0
  0
LINE
  5
   2B9
  8
0
  6
CONTINUOUS
 62
     3
 10
168.338257745314
 20
181.230625257273
 30
0.0
 11
168.838256835938
 21
181.230625257273
 31
0.0
  0
ARC
  5
   2BA
  8
0
  6
DOT
 62
     3
 10
60.3382577401871
 20
180.480625257147
 30
0.0
 40
0.749999999345164
 50
90.0
 51
270.0
  0
ARC
  5
   2BB
  8
0
  6
CONTINUOUS
 62
     3
 10
61.338257740822
 20
180.480625256974
 30
0.0
 40
0.750000000009701
 50
270.0
 51
450.0
  0
LINE
  5
   2BC
  8
0
  6
CONTINUOUS
 62
     3
 10
60.8382568359375
 20
181.2306252571
 30
0.0
 11
61.3382577409688
 21
181.2306252571
 31
0.0
  0
LINE
  5
   2BD
  8
0
  6
CONTINUOUS
 62
     3
 10
60.8382568359375
 20
179.7306252571
 30
0.0
 11
61.3382577409689
 21
179.7306252571
 31
0.0
  0
ARC
  5
   2BE
  8
0
  6
CONTINUOUS
 62
     3
 10
168.338257745503
 20
180.480625256952
 30
0.0
 40
0.750000000048506
 50
90.0000000038822
 51
269.999999996024
  0
ARC
  5
   2BF
  8
0
  6
DOT
 62
     3
 10
169.338257745421
 20
180.480625256965
 30
0.0
 40
0.750000000029104
 50
270.000000002449
 51
449.999999997486
  0
LINE
  5
   2C0
  8
0
  6
DOT
 62
     3
 10
168.838256835938
 20
181.230625257273
 30
0.0
 11
169.338257745315
 21
181.230625257273
 31
0.0
  0
LINE
  5
   2C1
  8
0
  6
DOT
 62
     3
 10
168.838256835938
 20
179.730625257273
 30
0.0
 11
169.338257745315
 21
179.730625257273
 31
0.0
  0
POINT
  5
   2C2
  8
0
  6
CONTINUOUS
 62
     3
 10
114.838256835938
 20
109.980621337891
 30
0.0
  0
ENDBLK
  5
   2C3
  8
0
  6
CONTINUOUS
 62
     7
  0
BLOCK
  5
   2C4
  8
0
  6
CONTINUOUS
 62
     7
  2
*UDIM173
 70
    65
 10
0.0
 20
0.0
 30
0.0
  3
*UDIM173
  0
TEXT
  5
   2C5
  8
0
  6
CONTINUOUS
 62
     7
 10
-665.346531726755
 20
118.466002978338
 30
0.0
 40
3.00000002980232
  1
117
 50
359.999999948034
 41
0.933333333333333
 72
     1
 11
-661.446531686659
 21
119.966002989721
 31
0.0
 73
     2
  0
LINE
  5
   2C6
  8
0
  6
CONTINUOUS
 62
     7
 10
-631.921528044816
 20
39.4748497009277
 30
0.0
 11
-631.921528044816
 21
119.46600297482
 31
0.0
  0
LINE
  5
   2C7
  8
0
  6
CONTINUOUS
 62
     7
 10
-690.421528044816
 20
39.4748497009277
 30
0.0
 11
-690.421528044816
 21
119.46600297482
 31
0.0
  0
LINE
  5
   2C8
  8
0
  6
CONTINUOUS
 62
     7
 10
-631.921528044816
 20
117.46600297482
 30
0.0
 11
-690.421528044816
 21
117.46600297482
 31
0.0
  0
LINE
  5
   2C9
  8
0
  6
CONTINUOUS
 62
     7
 10
-634.875951322022
 20
116.945058544869
 30
0.0
 11
-631.921528044816
 21
117.46600297482
 31
0.0
  0
LINE
  5
   2CA
  8
0
  6
CONTINUOUS
 62
     7
 10
-631.921528044816
 20
117.46600297482
 30
0.0
 11
-634.875951322022
 21
117.986947404772
 31
0.0
  0
LINE
  5
   2CB
  8
0
  6
CONTINUOUS
 62
     7
 10
-687.467104767609
 20
117.986947404772
 30
0.0
 11
-690.421528044816
 21
117.46600297482
 31
0.0
  0
LINE
  5
   2CC
  8
0
  6
CONTINUOUS
 62
     7
 10
-690.421528044816
 20
117.46600297482
 30
0.0
 11
-687.467104767609
 21
116.945058544869
 31
0.0
  0
ENDBLK
  5
   2CD
  8
0
  6
CONTINUOUS
 62
     7
  0
BLOCK
  5
   2CE
  8
0
  6
CONTINUOUS
 62
     7
  2
*UDIM174
 70
    65
 10
0.0
 20
0.0
 30
0.0
  3
*UDIM174
  0
TEXT
  5
   2CF
  8
0
  6
CONTINUOUS
 62
     7
 10
-624.756024969089
 20
-95.6752307959207
 30
0.0
 40
3.00000002980232
  1
100
 50
89.9999999480344
 41
0.933333333333333
 72
     1
 11
-626.256024980458
 21
-91.7752307558191
 31
0.0
 73
     2
  0
LINE
  5
   2D0
  8
0
  6
CONTINUOUS
 62
     7
 10
-650.974670043087
 20
-116.775255114743
 30
0.0
 11
-621.756024965557
 21
-116.775255114743
 31
0.0
  0
LINE
  5
   2D1
  8
0
  6
CONTINUOUS
 62
     7
 10
-634.546589375785
 20
-66.7752063968951
 30
0.0
 11
-621.756024965557
 21
-66.7752063968951
 31
0.0
  0
LINE
  5
   2D2
  8
0
  6
CONTINUOUS
 62
     7
 10
-623.756024965556
 20
-116.775255114743
 30
0.0
 11
-623.756024965556
 21
-66.7752063968951
 31
0.0
  0
LINE
  5
   2D3
  8
0
  6
CONTINUOUS
 62
     7
 10
-624.532482121975
 20
-113.877477641533
 30
0.0
 11
-623.756024965556
 21
-116.775255114743
 31
0.0
  0
LINE
  5
   2D4
  8
0
  6
CONTINUOUS
 62
     7
 10
-623.756024965556
 20
-116.775255114743
 30
0.0
 11
-622.979567809138
 21
-113.877477641533
 31
0.0
  0
LINE
  5
   2D5
  8
0
  6
CONTINUOUS
 62
     7
 10
-622.979567809138
 20
-69.6729838701056
 30
0.0
 11
-623.756024965556
 21
-66.7752063968951
 31
0.0
  0
LINE
  5
   2D6
  8
0
  6
CONTINUOUS
 62
     7
 10
-623.756024965556
 20
-66.7752063968951
 30
0.0
 11
-624.532482121975
 21
-69.6729838701056
 31
0.0
  0
ENDBLK
  5
   2D7
  8
0
  6
CONTINUOUS
 62
     7
  0
BLOCK
  5
   2D8
  8
0
  6
CONTINUOUS
 62
     7
  2
*UDIM175
 70
    65
 10
0.0
 20
0.0
 30
0.0
  3
*UDIM175
  0
TEXT
  5
   2D9
  8
0
  6
CONTINUOUS
 62
     7
 10
-686.191648047449
 20
-80.3077194553408
 30
0.0
 40
3.00000002980232
  1
35
 50
359.999999948034
 41
0.933333333333333
 72
     1
 11
-683.691648021261
 21
-78.8077194426945
 31
0.0
 73
     2
  0
LINE
  5
   2DA
  8
0
  6
CONTINUOUS
 62
     7
 10
-661.17152994408
 20
-72.9038061208263
 30
0.0
 11
-661.17152994408
 21
-83.3077194575956
 31
0.0
  0
LINE
  5
   2DB
  8
0
  6
CONTINUOUS
 62
     7
 10
-678.671528671684
 20
-66.2251523383803
 30
0.0
 11
-678.671528671684
 21
-83.3077194575956
 31
0.0
  0
LINE
  5
   2DC
  8
0
  6
CONTINUOUS
 62
     7
 10
-661.17152994408
 20
-81.3077194575956
 30
0.0
 11
-686.191648046096
 21
-81.3077194575956
 31
0.0
  0
LINE
  5
   2DD
  8
0
  6
CONTINUOUS
 62
     7
 10
-658.273752470869
 20
-80.5312623011771
 30
0.0
 11
-661.17152994408
 21
-81.3077194575956
 31
0.0
  0
LINE
  5
   2DE
  8
0
  6
CONTINUOUS
 62
     7
 10
-661.17152994408
 20
-81.3077194575956
 30
0.0
 11
-658.273752470869
 21
-82.0841766140142
 31
0.0
  0
LINE
  5
   2DF
  8
0
  6
CONTINUOUS
 62
     7
 10
-681.569306144894
 20
-82.0841766140142
 30
0.0
 11
-678.671528671684
 21
-81.3077194575956
 31
0.0
  0
LINE
  5
   2E0
  8
0
  6
CONTINUOUS
 62
     7
 10
-678.671528671684
 20
-81.3077194575956
 30
0.0
 11
-681.569306144894
 21
-80.5312623011771
 31
0.0
  0
ENDBLK
  5
   2E1
  8
0
  6
CONTINUOUS
 62
     7
  0
BLOCK
  5
   2E2
  8
0
  6
CONTINUOUS
 62
     7
  2
*UDIM176
 70
    65
 10
0.0
 20
0.0
 30
0.0
  3
*UDIM176
  0
TEXT
  5
   2E3
  8
0
  6
CONTINUOUS
 62
     7
 10
-640.161745389714
 20
-80.3077194553408
 30
0.0
 40
3.00000002980232
  1
35
 50
359.999999948034
 41
0.933333333333333
 72
     1
 11
-637.661745363526
 21
-78.8077194426945
 31
0.0
 73
     2
  0
LINE
  5
   2E4
  8
0
  6
CONTINUOUS
 62
     7
 10
-643.671528272596
 20
-66.2251478003073
 30
0.0
 11
-643.671528272596
 21
-83.3077194575956
 31
0.0
  0
LINE
  5
   2E5
  8
0
  6
CONTINUOUS
 62
     7
 10
-635.161745338691
 20
-81.3077194575956
 30
0.0
 11
-661.17152994408
 21
-81.3077194575956
 31
0.0
  0
LINE
  5
   2E6
  8
0
  6
CONTINUOUS
 62
     7
 10
-640.773750799386
 20
-80.5312623011771
 30
0.0
 11
-643.671528272596
 21
-81.3077194575956
 31
0.0
  0
LINE
  5
   2E7
  8
0
  6
CONTINUOUS
 62
     7
 10
-643.671528272596
 20
-81.3077194575956
 30
0.0
 11
-640.773750799386
 21
-82.0841766140142
 31
0.0
  0
CIRCLE
  5
   2E8
  8
0
  6
CONTINUOUS
 62
     7
 10
-661.17152994408
 20
-81.3077194575956
 30
0.0
 40
0.5
  0
ENDBLK
  5
   2E9
  8
0
  6
CONTINUOUS
 62
     7
  0
BLOCK
  5
   2EA
  8
0
  6
CONTINUOUS
 62
     7
  2
*UDIM177
 70
    65
 10
0.0
 20
0.0
 30
0.0
  3
*UDIM177
  0
TEXT
  5
   2EB
  8
0
  6
CONTINUOUS
 62
     7
 10
-665.071545280977
 20
-94.1314485684194
 30
0.0
 40
3.00000002980232
  1
105
 50
359.999999948034
 41
0.933333333333333
 72
     1
 11
-661.171545240881
 21
-92.6314485570358
 31
0.0
 73
     2
  0
LINE
  5
   2EC
  8
0
  6
CONTINUOUS
 62
     7
 10
-634.921562436947
 20
-67.1502063969024
 30
0.0
 11
-634.921562436947
 21
-97.131448571937
 31
0.0
  0
LINE
  5
   2ED
  8
0
  6
CONTINUOUS
 62
     7
 10
-687.421528044815
 20
-65.1251503229141
 30
0.0
 11
-687.421528044815
 21
-97.131448571937
 31
0.0
  0
LINE
  5
   2EE
  8
0
  6
CONTINUOUS
 62
     7
 10
-634.921562436947
 20
-95.131448571937
 30
0.0
 11
-687.421528044815
 21
-95.131448571937
 31
0.0
  0
LINE
  5
   2EF
  8
0
  6
CONTINUOUS
 62
     7
 10
-637.819339910158
 20
-95.9079057283555
 30
0.0
 11
-634.921562436947
 21
-95.131448571937
 31
0.0
  0
LINE
  5
   2F0
  8
0
  6
CONTINUOUS
 62
     7
 10
-634.921562436947
 20
-95.131448571937
 30
0.0
 11
-637.819339910158
 21
-94.3549914155184
 31
0.0
  0
LINE
  5
   2F1
  8
0
  6
CONTINUOUS
 62
     7
 10
-684.523750571605
 20
-94.3549914155184
 30
0.0
 11
-687.421528044815
 21
-95.131448571937
 31
0.0
  0
LINE
  5
   2F2
  8
0
  6
CONTINUOUS
 62
     7
 10
-687.421528044815
 20
-95.131448571937
 30
0.0
 11
-684.523750571605
 21
-95.9079057283555
 31
0.0
  0
ENDBLK
  5
   2F3
  8
0
  6
CONTINUOUS
 62
     7
  0
BLOCK
  5
   2F4
  8
0
  6
CONTINUOUS
 62
     7
  2
*UDIM178
 70
    65
 10
0.0
 20
0.0
 30
0.0
  3
*UDIM178
  0
TEXT
  5
   2F5
  8
0
  6
CONTINUOUS
 62
     7
 10
-615.869560245232
 20
-5.32515034513435
 30
0.0
 40
3.00000002980232
  1
161
 50
89.9999999480344
 41
0.933333333333333
 72
     1
 11
-617.3695602566
 21
-1.42515030503276
 31
0.0
 73
     2
  0
LINE
  5
   2F6
  8
0
  6
CONTINUOUS
 62
     7
 10
-631.546528044816
 20
-41.4001483917237
 30
0.0
 11
-612.869560241699
 21
-41.4001483917237
 31
0.0
  0
LINE
  5
   2F7
  8
0
  6
CONTINUOUS
 62
     7
 10
-631.546528044816
 20
39.0998497009277
 30
0.0
 11
-612.869560241699
 21
39.0998497009277
 31
0.0
  0
LINE
  5
   2F8
  8
0
  6
CONTINUOUS
 62
     7
 10
-614.869560241699
 20
-41.4001483917237
 30
0.0
 11
-614.869560241699
 21
39.0998497009277
 31
0.0
  0
LINE
  5
   2F9
  8
0
  6
CONTINUOUS
 62
     7
 10
-615.390504671651
 20
-38.4457251145167
 30
0.0
 11
-614.869560241699
 21
-41.4001483917237
 31
0.0
  0
LINE
  5
   2FA
  8
0
  6
CONTINUOUS
 62
     7
 10
-614.869560241699
 20
-41.4001483917237
 30
0.0
 11
-614.348615811748
 21
-38.4457251145167
 31
0.0
  0
LINE
  5
   2FB
  8
0
  6
CONTINUOUS
 62
     7
 10
-614.348615811748
 20
36.1454264237207
 30
0.0
 11
-614.869560241699
 21
39.0998497009277
 31
0.0
  0
LINE
  5
   2FC
  8
0
  6
CONTINUOUS
 62
     7
 10
-614.869560241699
 20
39.0998497009277
 30
0.0
 11
-615.390504671651
 21
36.1454264237207
 31
0.0
  0
ENDBLK
  5
   2FD
  8
0
  6
CONTINUOUS
 62
     7
  0
BLOCK
  5
   2FE
  8
0
  6
CONTINUOUS
 62
     7
  2
*UDIM179
 70
    65
 10
0.0
 20
0.0
 30
0.0
  3
*UDIM179
  0
TEXT
  5
   2FF
  8
0
  6
CONTINUOUS
 62
     7
 10
-624.651695254997
 20
83.5498496652923
 30
0.0
 40
3.00000002980232
  1
100
 50
89.9999999480344
 41
0.933333333333333
 72
     1
 11
-626.151695266366
 21
87.4498497053939
 31
0.0
 73
     2
  0
LINE
  5
   300
  8
0
  6
CONTINUOUS
 62
     7
 10
-634.546589375785
 20
62.7248191833496
 30
0.0
 11
-621.651695251465
 21
62.7248191833496
 31
0.0
  0
LINE
  5
   301
  8
0
  6
CONTINUOUS
 62
     7
 10
-650.974670043087
 20
112.724867901198
 30
0.0
 11
-621.651695251465
 21
112.724867901198
 31
0.0
  0
LINE
  5
   302
  8
0
  6
CONTINUOUS
 62
     7
 10
-623.651695251465
 20
62.7248191833496
 30
0.0
 11
-623.651695251465
 21
112.724867901198
 31
0.0
  0
LINE
  5
   303
  8
0
  6
CONTINUOUS
 62
     7
 10
-624.172639681417
 20
65.6792424605566
 30
0.0
 11
-623.651695251465
 21
62.7248191833496
 31
0.0
  0
LINE
  5
   304
  8
0
  6
CONTINUOUS
 62
     7
 10
-623.651695251465
 20
62.7248191833496
 30
0.0
 11
-623.130750821513
 21
65.6792424605566
 31
0.0
  0
LINE
  5
   305
  8
0
  6
CONTINUOUS
 62
     7
 10
-623.130750821513
 20
109.770444623991
 30
0.0
 11
-623.651695251465
 21
112.724867901198
 31
0.0
  0
LINE
  5
   306
  8
0
  6
CONTINUOUS
 62
     7
 10
-623.651695251465
 20
112.724867901198
 30
0.0
 11
-624.172639681417
 21
109.770444623991
 31
0.0
  0
ENDBLK
  5
   307
  8
0
  6
CONTINUOUS
 62
     7
  0
BLOCK
  5
   308
  8
0
  6
CONTINUOUS
 62
     7
  2
*UDIM180
 70
    65
 10
0.0
 20
0.0
 30
0.0
  3
*UDIM180
  0
TEXT
  5
   309
  8
0
  6
CONTINUOUS
 62
     7
 10
-624.651695258801
 20
22.4123343543533
 30
0.0
 40
3.00000002980232
  1
127,75
 50
89.9999999480344
 41
0.933333333333333
 72
     1
 11
-626.151695266366
 21
30.5123344361782
 31
0.0
 73
     2
  0
LINE
  5
   30A
  8
0
  6
CONTINUOUS
 62
     7
 10
-628.936447998826
 20
-1.15015029907228
 30
0.0
 11
-621.651695251465
 21
-1.15015029907228
 31
0.0
  0
LINE
  5
   30B
  8
0
  6
CONTINUOUS
 62
     7
 10
-634.546589375785
 20
62.7248191833496
 30
0.0
 11
-621.651695251465
 21
62.7248191833496
 31
0.0
  0
LINE
  5
   30C
  8
0
  6
CONTINUOUS
 62
     7
 10
-623.651695251465
 20
-1.15015029907228
 30
0.0
 11
-623.651695251465
 21
62.7248191833496
 31
0.0
  0
LINE
  5
   30D
  8
0
  6
CONTINUOUS
 62
     7
 10
-624.172639681417
 20
1.80427297813468
 30
0.0
 11
-623.651695251465
 21
-1.15015029907228
 31
0.0
  0
LINE
  5
   30E
  8
0
  6
CONTINUOUS
 62
     7
 10
-623.651695251465
 20
-1.15015029907228
 30
0.0
 11
-623.130750821513
 21
1.80427297813468
 31
0.0
  0
LINE
  5
   30F
  8
0
  6
CONTINUOUS
 62
     7
 10
-623.130750821513
 20
59.7703959061426
 30
0.0
 11
-623.651695251465
 21
62.7248191833496
 31
0.0
  0
LINE
  5
   310
  8
0
  6
CONTINUOUS
 62
     7
 10
-623.651695251465
 20
62.7248191833496
 30
0.0
 11
-624.172639681417
 21
59.7703959061426
 31
0.0
  0
ENDBLK
  5
   311
  8
0
  6
CONTINUOUS
 62
     7
  0
BLOCK
  5
   312
  8
0
  6
CONTINUOUS
 62
     7
  2
*UDIM181
 70
    65
 10
0.0
 20
0.0
 30
0.0
  3
*UDIM181
  0
TEXT
  5
   313
  8
0
  6
CONTINUOUS
 62
     7
 10
-606.847488406853
 20
-6.20019231173029
 30
0.0
 40
3.00000002980232
  1
259
 50
89.9999999480344
 41
0.933333333333333
 72
     1
 11
-608.347488418222
 21
-2.3001922716287
 31
0.0
 73
     2
  0
LINE
  5
   314
  8
0
  6
CONTINUOUS
 62
     7
 10
-636.92152994408
 20
-66.7752063968951
 30
0.0
 11
-603.84748840332
 21
-66.7752063968951
 31
0.0
  0
LINE
  5
   315
  8
0
  6
CONTINUOUS
 62
     7
 10
-634.546589375785
 20
62.7248191833496
 30
0.0
 11
-603.84748840332
 21
62.7248191833496
 31
0.0
  0
LINE
  5
   316
  8
0
  6
CONTINUOUS
 62
     7
 10
-605.84748840332
 20
-66.7752063968951
 30
0.0
 11
-605.84748840332
 21
62.7248191833496
 31
0.0
  0
LINE
  5
   317
  8
0
  6
CONTINUOUS
 62
     7
 10
-606.368432833272
 20
-63.8207831196881
 30
0.0
 11
-605.84748840332
 21
-66.7752063968951
 31
0.0
  0
LINE
  5
   318
  8
0
  6
CONTINUOUS
 62
     7
 10
-605.84748840332
 20
-66.7752063968951
 30
0.0
 11
-605.326543973369
 21
-63.8207831196881
 31
0.0
  0
LINE
  5
   319
  8
0
  6
CONTINUOUS
 62
     7
 10
-605.326543973369
 20
59.7703959061426
 30
0.0
 11
-605.84748840332
 21
62.7248191833496
 31
0.0
  0
LINE
  5
   31A
  8
0
  6
CONTINUOUS
 62
     7
 10
-605.84748840332
 20
62.7248191833496
 30
0.0
 11
-606.368432833272
 21
59.7703959061426
 31
0.0
  0
ENDBLK
  5
   31B
  8
0
  6
CONTINUOUS
 62
     7
  0
BLOCK
  5
   31C
  8
0
  6
CONTINUOUS
 62
     5
  2
*UDIM182
 70
    65
 10
0.0
 20
0.0
 30
0.0
  3
*UDIM182
  0
TEXT
  5
   31D
  8
0
  6
CONTINUOUS
 62
     5
 10
-707.033617980664
 20
21.7873343543484
 30
0.0
 40
3.00000002980232
  1
125,25
 50
89.9999999480344
 41
0.933333333333333
 72
     1
 11
-708.533617988229
 21
29.8873344361733
 31
0.0
 73
     2
  0
LINE
  5
   31E
  8
0
  6
CONTINUOUS
 62
     5
 10
-705.745981541747
 20
-1.15015029907228
 30
0.0
 11
-708.033617973328
 21
-1.15015029907228
 31
0.0
  0
LINE
  5
   31F
  8
0
  6
CONTINUOUS
 62
     5
 10
-686.671541965102
 20
61.4748191833398
 30
0.0
 11
-708.033617973328
 21
61.4748191833398
 31
0.0
  0
LINE
  5
   320
  8
0
  6
CONTINUOUS
 62
     5
 10
-706.033617973328
 20
-1.15015029907228
 30
0.0
 11
-706.033617973328
 21
61.4748191833398
 31
0.0
  0
LINE
  5
   321
  8
0
  6
CONTINUOUS
 62
     5
 10
-706.554562403279
 20
1.80427297813468
 30
0.0
 11
-706.033617973328
 21
-1.15015029907228
 31
0.0
  0
LINE
  5
   322
  8
0
  6
CONTINUOUS
 62
     5
 10
-706.033617973328
 20
-1.15015029907228
 30
0.0
 11
-705.512673543376
 21
1.80427297813468
 31
0.0
  0
LINE
  5
   323
  8
0
  6
CONTINUOUS
 62
     5
 10
-705.512673543376
 20
58.5203959061328
 30
0.0
 11
-706.033617973328
 21
61.4748191833398
 31
0.0
  0
LINE
  5
   324
  8
0
  6
CONTINUOUS
 62
     5
 10
-706.033617973328
 20
61.4748191833398
 30
0.0
 11
-706.554562403279
 21
58.5203959061328
 31
0.0
  0
ENDBLK
  5
   325
  8
0
  6
CONTINUOUS
 62
     5
  0
BLOCK
  5
   326
  8
0
  6
CONTINUOUS
 62
     7
  2
*UDIM183
 70
    65
 10
0.0
 20
0.0
 30
0.0
  3
*UDIM183
  0
TEXT
  5
   327
  8
0
  6
CONTINUOUS
 62
     7
 10
-715.886044267372
 20
-6.20016560392805
 30
0.0
 40
3.00000002980232
  1
254
 50
89.9999999480344
 41
0.933333333333333
 72
     1
 11
-717.386044278741
 21
-2.30016556382646
 31
0.0
 73
     2
  0
LINE
  5
   328
  8
0
  6
CONTINUOUS
 62
     7
 10
-686.671527905586
 20
-65.5251502990718
 30
0.0
 11
-716.88604426384
 21
-65.5251502990718
 31
0.0
  0
LINE
  5
   329
  8
0
  6
CONTINUOUS
 62
     7
 10
-686.671541965102
 20
61.4748191833398
 30
0.0
 11
-716.88604426384
 21
61.4748191833398
 31
0.0
  0
LINE
  5
   32A
  8
0
  6
CONTINUOUS
 62
     7
 10
-714.88604426384
 20
-65.5251502990718
 30
0.0
 11
-714.88604426384
 21
61.4748191833398
 31
0.0
  0
LINE
  5
   32B
  8
0
  6
CONTINUOUS
 62
     7
 10
-715.406988693791
 20
-62.5707270218648
 30
0.0
 11
-714.88604426384
 21
-65.5251502990718
 31
0.0
  0
LINE
  5
   32C
  8
0
  6
CONTINUOUS
 62
     7
 10
-714.88604426384
 20
-65.5251502990718
 30
0.0
 11
-714.365099833888
 21
-62.5707270218648
 31
0.0
  0
LINE
  5
   32D
  8
0
  6
CONTINUOUS
 62
     7
 10
-714.365099833888
 20
58.5203959061328
 30
0.0
 11
-714.88604426384
 21
61.4748191833398
 31
0.0
  0
LINE
  5
   32E
  8
0
  6
CONTINUOUS
 62
     7
 10
-714.88604426384
 20
61.4748191833398
 30
0.0
 11
-715.406988693791
 21
58.5203959061328
 31
0.0
  0
ENDBLK
  5
   32F
  8
0
  6
CONTINUOUS
 62
     7
  0
BLOCK
  5
   330
  8
0
  6
CONTINUOUS
 62
     5
  2
*UDIM184
 70
    65
 10
0.0
 20
0.0
 30
0.0
  3
*UDIM184
  0
TEXT
  5
   331
  8
0
  6
CONTINUOUS
 62
     5
 10
-611.050861373285
 20
-145.36862191531
 30
0.0
 40
3.00000002980232
  1
105,25
 50
449.999999896069
 41
0.933333333333333
 72
     1
 11
-612.550861373544
 21
-137.268621832132
 31
0.0
 73
     2
  0
LINE
  5
   332
  8
0
  6
CONTINUOUS
 62
     5
 10
-603.720870062592
 20
-123.837371826172
 30
0.0
 11
-612.050861358643
 21
-123.837371826172
 31
0.0
  0
LINE
  5
   333
  8
0
  6
CONTINUOUS
 62
     5
 10
-610.050861358643
 20
-123.837371826172
 30
0.0
 11
-610.050861358643
 21
-150.149871826172
 31
0.0
  0
LINE
  5
   334
  8
0
  6
CONTINUOUS
 62
     5
 10
-609.529916928691
 20
-126.791795103379
 30
0.0
 11
-610.050861358643
 21
-123.837371826172
 31
0.0
  0
LINE
  5
   335
  8
0
  6
CONTINUOUS
 62
     5
 10
-610.050861358643
 20
-123.837371826172
 30
0.0
 11
-610.571805788594
 21
-126.791795103379
 31
0.0
  0
LINE
  5
   336
  8
0
  6
CONTINUOUS
 62
     5
 10
-610.571805788594
 20
-147.195448548965
 30
0.0
 11
-610.050861358643
 21
-150.149871826172
 31
0.0
  0
LINE
  5
   337
  8
0
  6
CONTINUOUS
 62
     5
 10
-610.050861358643
 20
-150.149871826172
 30
0.0
 11
-609.529916928691
 21
-147.195448548965
 31
0.0
  0
ENDBLK
  5
   338
  8
0
  6
CONTINUOUS
 62
     5
  0
BLOCK
  5
   339
  8
0
  6
CONTINUOUS
 62
     7
  2
*UDIM185
 70
    65
 10
0.0
 20
0.0
 30
0.0
  3
*UDIM185
  0
TEXT
  5
   33A
  8
0
  6
CONTINUOUS
 62
     7
 10
-573.308210400473
 20
-141.975482936152
 30
0.0
 40
3.00000002980232
  1
35
 50
359.999999896069
 41
0.933333333333333
 72
     1
 11
-570.808210372925
 21
-140.475482925773
 31
0.0
 73
     2
  0
LINE
  5
   33B
  8
0
  6
CONTINUOUS
 62
     7
 10
-568.30821034809
 20
-142.975482940674
 30
0.0
 11
-594.744201660156
 21
-142.975482940674
 31
0.0
  0
LINE
  5
   33C
  8
0
  6
CONTINUOUS
 62
     7
 10
-583.039778382949
 20
-142.454538510722
 30
0.0
 11
-585.994201660156
 21
-142.975482940674
 31
0.0
  0
LINE
  5
   33D
  8
0
  6
CONTINUOUS
 62
     7
 10
-585.994201660156
 20
-142.975482940674
 30
0.0
 11
-583.039778382949
 21
-143.496427370626
 31
0.0
  0
LINE
  5
   33E
  8
0
  6
CONTINUOUS
 62
     7
 10
-597.698624937363
 20
-143.496427370626
 30
0.0
 11
-594.744201660156
 21
-142.975482940674
 31
0.0
  0
LINE
  5
   33F
  8
0
  6
CONTINUOUS
 62
     7
 10
-594.744201660156
 20
-142.975482940674
 30
0.0
 11
-597.698624937363
 21
-142.454538510722
 31
0.0
  0
ENDBLK
  5
   340
  8
0
  6
CONTINUOUS
 62
     7
  0
BLOCK
  5
   341
  8
0
  6
CONTINUOUS
 62
     7
  2
*UDIM186
 70
    65
 10
0.0
 20
0.0
 30
0.0
  3
*UDIM186
  0
TEXT
  5
   342
  8
0
  6
CONTINUOUS
 62
     7
 10
-574.174871533735
 20
-127.432045997811
 30
0.0
 40
3.00000002980232
  1
5,5
 50
338.440679311644
 41
0.933333333333333
 72
     1
 11
-569.996528296912
 21
-127.47010046143
 31
0.0
 73
     2
  0
TEXT
  5
   343
  8
0
  6
CONTINUOUS
 62
     7
 10
-577.104490035796
 20
-126.274533365067
 30
0.0
 40
3.00000002980232
  1
Ø
 50
338.440679311644
 41
0.933333333333334
 72
     1
 11
-575.530252148281
 21
-125.283687694816
 31
0.0
 73
     2
  0
TEXT
  5
   344
  8
0
  6
CONTINUOUS
 62
     7
 10
-566.409057353633
 20
-130.500373166356
 30
0.0
 40
3.00000002980232
  1
 - M5
 50
338.440679311644
 41
0.933333333333333
 72
     1
 11
-559.626608767504
 21
-131.567327763845
 31
0.0
 73
     2
  0
LINE
  5
   345
  8
0
  6
CONTINUOUS
 62
     7
 10
-554.314017503164
 20
-136.354432841493
 30
0.0
 11
-586.633602521279
 21
-123.58474010054
 31
0.0
  0
LINE
  5
   346
  8
0
  6
CONTINUOUS
 62
     7
 10
-582.415647522141
 20
-124.691150800764
 30
0.0
 11
-585.354800799034
 21
-124.090003551804
 31
0.0
  0
LINE
  5
   347
  8
0
  6
CONTINUOUS
 62
     7
 10
-585.354800799034
 20
-124.090003551804
 30
0.0
 11
-582.798504512096
 21
-125.660146632351
 31
0.0
  0
LINE
  5
   348
  8
0
  6
CONTINUOUS
 62
     7
 10
-589.572755798171
 20
-122.98359285158
 30
0.0
 11
-586.633602521279
 21
-123.58474010054
 31
0.0
  0
LINE
  5
   349
  8
0
  6
CONTINUOUS
 62
     7
 10
-586.633602521279
 20
-123.58474010054
 30
0.0
 11
-589.189898808216
 21
-122.014597019993
 31
0.0
  0
ENDBLK
  5
   34A
  8
0
  6
CONTINUOUS
 62
     7
  0
BLOCK
  5
   34B
  8
0
  6
CONTINUOUS
 62
     7
  2
*UDIM187
 70
    65
 10
0.0
 20
0.0
 30
0.0
  3
*UDIM187
  0
TEXT
  5
   34C
  8
0
  6
CONTINUOUS
 62
     7
 10
-618.744632727997
 20
-154.762373312771
 30
0.0
 40
3.00000002980232
  1
214
 50
449.999999896069
 41
0.933333333333333
 72
     1
 11
-620.244632735848
 21
-150.862373271317
 31
0.0
 73
     2
  0
LINE
  5
   34D
  8
0
  6
CONTINUOUS
 62
     7
 10
-603.720870062592
 20
-123.837371512255
 30
0.0
 11
-619.744632720947
 21
-123.837366482132
 31
0.0
  0
LINE
  5
   34E
  8
0
  6
CONTINUOUS
 62
     7
 10
-602.874155108303
 20
-177.337371512255
 30
0.0
 11
-619.744632720947
 21
-177.337366216335
 31
0.0
  0
LINE
  5
   34F
  8
0
  6
CONTINUOUS
 62
     7
 10
-617.744632720947
 20
-123.837367109965
 30
0.0
 11
-617.744632720947
 21
-177.337366844168
 31
0.0
  0
LINE
  5
   350
  8
0
  6
CONTINUOUS
 62
     7
 10
-617.223688290996
 20
-126.791790387172
 30
0.0
 11
-617.744632720947
 21
-123.837367109965
 31
0.0
  0
LINE
  5
   351
  8
0
  6
CONTINUOUS
 62
     7
 10
-617.744632720947
 20
-123.837367109965
 30
0.0
 11
-618.265577150899
 21
-126.791790387172
 31
0.0
  0
LINE
  5
   352
  8
0
  6
CONTINUOUS
 62
     7
 10
-618.265577150899
 20
-174.382943566961
 30
0.0
 11
-617.744632720947
 21
-177.337366844168
 31
0.0
  0
LINE
  5
   353
  8
0
  6
CONTINUOUS
 62
     7
 10
-617.744632720947
 20
-177.337366844168
 30
0.0
 11
-617.223688290996
 21
-174.382943566961
 31
0.0
  0
ENDBLK
  5
   354
  8
0
  6
CONTINUOUS
 62
     7
  0
BLOCK
  5
   355
  8
0
  6
CONTINUOUS
 62
     7
  2
*UDIM188
 70
    65
 10
0.0
 20
0.0
 30
0.0
  3
*UDIM188
  0
TEXT
  5
   356
  8
0
  6
CONTINUOUS
 62
     7
 10
-665.071508831879
 20
-124.025467749298
 30
0.0
 40
3.00000002980232
  1
112
 50
359.999999844103
 41
0.933333333333333
 72
     1
 11
-661.171508789063
 21
-122.525467744989
 31
0.0
 73
     2
  0
TEXT
  5
   357
  8
0
  6
CONTINUOUS
 62
     7
 10
-665.721508793815
 20
-128.525467747533
 30
0.0
 40
3.5
  1
= =
 50
359.999999844103
 41
0.933333333333333
 72
     1
 11
-661.171508789063
 21
-126.77546775989
 31
0.0
 73
     2
  0
LINE
  5
   358
  8
0
  6
CONTINUOUS
 62
     7
 10
-675.171508789063
 20
-135.149871826172
 30
0.0
 11
-675.171508789063
 21
-123.02546775989
 31
0.0
  0
LINE
  5
   359
  8
0
  6
CONTINUOUS
 62
     7
 10
-647.171508789063
 20
-135.149871826172
 30
0.0
 11
-647.171508789063
 21
-123.02546775989
 31
0.0
  0
LINE
  5
   35A
  8
0
  6
CONTINUOUS
 62
     7
 10
-675.171508789063
 20
-125.02546775989
 30
0.0
 11
-647.171508789063
 21
-125.02546775989
 31
0.0
  0
LINE
  5
   35B
  8
0
  6
CONTINUOUS
 62
     7
 10
-672.273731315852
 20
-124.249010603471
 30
0.0
 11
-675.171508789063
 21
-125.02546775989
 31
0.0
  0
LINE
  5
   35C
  8
0
  6
CONTINUOUS
 62
     7
 10
-675.171508789063
 20
-125.02546775989
 30
0.0
 11
-672.273731315852
 21
-125.801924916308
 31
0.0
  0
LINE
  5
   35D
  8
0
  6
CONTINUOUS
 62
     7
 10
-650.069286262273
 20
-125.801924916308
 30
0.0
 11
-647.171508789063
 21
-125.02546775989
 31
0.0
  0
LINE
  5
   35E
  8
0
  6
CONTINUOUS
 62
     7
 10
-647.171508789063
 20
-125.02546775989
 30
0.0
 11
-650.069286262273
 21
-124.249010603471
 31
0.0
  0
ENDBLK
  5
   35F
  8
0
  6
CONTINUOUS
 62
     7
  0
BLOCK
  5
   360
  8
0
  6
CONTINUOUS
 62
     7
  2
*UDIM189
 70
    65
 10
0.0
 20
0.0
 30
0.0
  3
*UDIM189
  0
TEXT
  5
   361
  8
0
  6
CONTINUOUS
 62
     7
 10
-663.671508817972
 20
-179.418773741528
 30
0.0
 40
3.00000002980232
  1
80
 50
359.999999844103
 41
0.933333333333333
 72
     1
 11
-661.171508789063
 21
-177.918773733417
 31
0.0
 73
     2
  0
TEXT
  5
   362
  8
0
  6
CONTINUOUS
 62
     7
 10
-665.721508793815
 20
-183.918773735961
 30
0.0
 40
3.5
  1
= =
 50
359.999999844103
 41
0.933333333333333
 72
     1
 11
-661.171508789063
 21
-182.168773748318
 31
0.0
 73
     2
  0
LINE
  5
   363
  8
0
  6
CONTINUOUS
 62
     7
 10
-671.171508789063
 20
-170.524871826172
 30
0.0
 11
-671.171508789063
 21
-182.418773748318
 31
0.0
  0
LINE
  5
   364
  8
0
  6
CONTINUOUS
 62
     7
 10
-651.171508789063
 20
-170.524871826172
 30
0.0
 11
-651.171508789063
 21
-182.418773748318
 31
0.0
  0
LINE
  5
   365
  8
0
  6
CONTINUOUS
 62
     7
 10
-671.171508789063
 20
-180.418773748318
 30
0.0
 11
-651.171508789063
 21
-180.418773748318
 31
0.0
  0
LINE
  5
   366
  8
0
  6
CONTINUOUS
 62
     7
 10
-668.273731315852
 20
-179.6423165919
 30
0.0
 11
-671.171508789063
 21
-180.418773748318
 31
0.0
  0
LINE
  5
   367
  8
0
  6
CONTINUOUS
 62
     7
 10
-671.171508789063
 20
-180.418773748318
 30
0.0
 11
-668.273731315852
 21
-181.195230904737
 31
0.0
  0
LINE
  5
   368
  8
0
  6
CONTINUOUS
 62
     7
 10
-654.069286262273
 20
-181.195230904737
 30
0.0
 11
-651.171508789063
 21
-180.418773748318
 31
0.0
  0
LINE
  5
   369
  8
0
  6
CONTINUOUS
 62
     7
 10
-651.171508789063
 20
-180.418773748318
 30
0.0
 11
-654.069286262273
 21
-179.6423165919
 31
0.0
  0
ENDBLK
  5
   36A
  8
0
  6
CONTINUOUS
 62
     7
  0
BLOCK
  5
   36B
  8
0
  6
CONTINUOUS
 62
     7
  2
*UDIM190
 70
    65
 10
0.0
 20
0.0
 30
0.0
  3
*UDIM190
  0
TEXT
  5
   36C
  8
0
  6
CONTINUOUS
 62
     7
 10
-685.024035277481
 20
-180.289239528848
 30
0.0
 40
3.00000002980232
  1
7
 50
404.893139787217
 41
0.933333333333334
 72
     1
 11
-685.303448627018
 21
-178.450237557983
 31
0.0
 73
     2
  0
TEXT
  5
   36D
  8
0
  6
CONTINUOUS
 62
     7
 10
-687.255571977756
 20
-182.512467816252
 30
0.0
 40
3.00000002980232
  1
Ø
 50
404.893139787217
 41
0.933333333333334
 72
     1
 11
-687.534985327293
 21
-180.673465845387
 31
0.0
 73
     2
  0
LINE
  5
   36E
  8
0
  6
CONTINUOUS
 62
     7
 10
-670.551637485386
 20
-167.282308414952
 30
0.0
 11
-686.549785217082
 21
-183.220892162552
 31
0.0
  0
LINE
  5
   36F
  8
0
  6
CONTINUOUS
 62
     7
 10
-668.826327783398
 20
-164.828065877583
 30
0.0
 11
-670.551637485386
 21
-167.282308414952
 31
0.0
  0
LINE
  5
   370
  8
0
  6
CONTINUOUS
 62
     7
 10
-670.551637485386
 20
-167.282308414952
 30
0.0
 11
-668.090976425188
 21
-165.566165312869
 31
0.0
  0
LINE
  5
   371
  8
0
  6
CONTINUOUS
 62
     7
 10
-673.516689794727
 20
-170.97167777476
 30
0.0
 11
-671.79138009274
 21
-168.517435237392
 31
0.0
  0
LINE
  5
   372
  8
0
  6
CONTINUOUS
 62
     7
 10
-671.79138009274
 20
-168.517435237392
 30
0.0
 11
-674.252041152937
 21
-170.233578339475
 31
0.0
  0
ENDBLK
  5
   373
  8
0
  6
CONTINUOUS
 62
     7
  0
BLOCK
  5
   374
  8
0
  6
CONTINUOUS
 62
     7
  2
*UDIM191
 70
    65
 10
0.0
 20
0.0
 30
0.0
  3
*UDIM191
  0
TEXT
  5
   375
  8
0
  6
CONTINUOUS
 62
     7
 10
-691.14466668234
 20
-154.324871874947
 30
0.0
 40
3.00000002980232
  1
112
 50
449.999999844103
 41
0.933333333333333
 72
     1
 11
-692.644666686654
 21
-150.424871832132
 31
0.0
 73
     2
  0
LINE
  5
   376
  8
0
  6
CONTINUOUS
 62
     7
 10
-676.171508789063
 20
-136.149871826172
 30
0.0
 11
-692.144666671753
 21
-136.149871826172
 31
0.0
  0
LINE
  5
   377
  8
0
  6
CONTINUOUS
 62
     7
 10
-676.171508789063
 20
-164.149871826172
 30
0.0
 11
-692.144666671753
 21
-164.149871826172
 31
0.0
  0
LINE
  5
   378
  8
0
  6
CONTINUOUS
 62
     7
 10
-690.144666671753
 20
-136.149871826172
 30
0.0
 11
-690.144666671753
 21
-164.149871826172
 31
0.0
  0
LINE
  5
   379
  8
0
  6
CONTINUOUS
 62
     7
 10
-689.623722241801
 20
-139.104295103379
 30
0.0
 11
-690.144666671753
 21
-136.149871826172
 31
0.0
  0
LINE
  5
   37A
  8
0
  6
CONTINUOUS
 62
     7
 10
-690.144666671753
 20
-136.149871826172
 30
0.0
 11
-690.665611101705
 21
-139.104295103379
 31
0.0
  0
LINE
  5
   37B
  8
0
  6
CONTINUOUS
 62
     7
 10
-690.665611101705
 20
-161.195448548965
 30
0.0
 11
-690.144666671753
 21
-164.149871826172
 31
0.0
  0
LINE
  5
   37C
  8
0
  6
CONTINUOUS
 62
     7
 10
-690.144666671753
 20
-164.149871826172
 30
0.0
 11
-689.623722241801
 21
-161.195448548965
 31
0.0
  0
ENDBLK
  5
   37D
  8
0
  6
CONTINUOUS
 62
     7
  0
BLOCK
  5
   37E
  8
0
  6
CONTINUOUS
 62
     7
  2
*UDIM192
 70
    65
 10
0.0
 20
0.0
 30
0.0
  3
*UDIM192
  0
TEXT
  5
   37F
  8
0
  6
CONTINUOUS
 62
     7
 10
-700.158123026945
 20
-154.324871874947
 30
0.0
 40
3.00000002980232
  1
142
 50
449.999999844103
 41
0.933333333333333
 72
     1
 11
-701.658123031259
 21
-150.424871832132
 31
0.0
 73
     2
  0
LINE
  5
   380
  8
0
  6
CONTINUOUS
 62
     7
 10
-673.796508789063
 20
-132.399871826172
 30
0.0
 11
-701.158123016357
 21
-132.399871826172
 31
0.0
  0
LINE
  5
   381
  8
0
  6
CONTINUOUS
 62
     7
 10
-673.796508789063
 20
-167.899871826172
 30
0.0
 11
-701.158123016357
 21
-167.899871826172
 31
0.0
  0
LINE
  5
   382
  8
0
  6
CONTINUOUS
 62
     7
 10
-699.158123016357
 20
-132.399871826172
 30
0.0
 11
-699.158123016357
 21
-167.899871826172
 31
0.0
  0
LINE
  5
   383
  8
0
  6
CONTINUOUS
 62
     7
 10
-698.637178586406
 20
-135.354295103379
 30
0.0
 11
-699.158123016357
 21
-132.399871826172
 31
0.0
  0
LINE
  5
   384
  8
0
  6
CONTINUOUS
 62
     7
 10
-699.158123016357
 20
-132.399871826172
 30
0.0
 11
-699.679067446309
 21
-135.354295103379
 31
0.0
  0
LINE
  5
   385
  8
0
  6
CONTINUOUS
 62
     7
 10
-699.679067446309
 20
-164.945448548965
 30
0.0
 11
-699.158123016357
 21
-167.899871826172
 31
0.0
  0
LINE
  5
   386
  8
0
  6
CONTINUOUS
 62
     7
 10
-699.158123016357
 20
-167.899871826172
 30
0.0
 11
-698.637178586406
 21
-164.945448548965
 31
0.0
  0
ENDBLK
  5
   387
  8
0
  6
CONTINUOUS
 62
     7
  0
ENDSEC
  0
SECTION
  2
ENTITIES
  0
LINE
  5
   388
  8
0
  6
CONTINUOUS
 62
     7
 10
-560.500228881836
 20
12.7248420715332
 30
0.0
 11
-560.500228881836
 21
12.9748268127441
 31
0.0
  0
LINE
  5
   389
  8
0
  6
CONTINUOUS
 62
     7
 10
-560.500228881836
 20
20.4748268127441
 30
0.0
 11
-560.500228881836
 21
30.4748115539551
 31
0.0
  0
LINE
  5
   38A
  8
0
  6
CONTINUOUS
 62
     7
 10
-559.250213623047
 20
12.9748268127441
 30
0.0
 11
-559.250213623047
 21
20.4748268127441
 31
0.0
  0
LINE
  5
   38B
  8
0
  6
CONTINUOUS
 62
     7
 10
-559.250213623047
 20
12.9748268127441
 30
0.0
 11
-560.500228881836
 21
12.9748268127441
 31
0.0
  0
LINE
  5
   38C
  8
0
  6
CONTINUOUS
 62
     7
 10
-559.250213623047
 20
20.4748268127441
 30
0.0
 11
-560.500228881836
 21
20.4748268127441
 31
0.0
  0
LINE
  5
   38D
  8
0
  6
CONTINUOUS
 62
     7
 10
-559.250213623047
 20
30.4748115539551
 30
0.0
 11
-559.250213623047
 21
37.9748115539551
 31
0.0
  0
LINE
  5
   38E
  8
0
  6
CONTINUOUS
 62
     7
 10
-559.250213623047
 20
30.4748115539551
 30
0.0
 11
-560.500228881836
 21
30.4748115539551
 31
0.0
  0
LINE
  5
   38F
  8
0
  6
CONTINUOUS
 62
     7
 10
-559.250213623047
 20
37.9748115539551
 30
0.0
 11
-560.500228881836
 21
37.9748115539551
 31
0.0
  0
LINE
  5
   390
  8
0
  6
CONTINUOUS
 62
     7
 10
-526.250236511231
 20
12.7248268127441
 30
0.0
 11
-526.250236511231
 21
40.2248115539551
 31
0.0
  0
LINE
  5
   391
  8
0
  6
CONTINUOUS
 62
     2
 10
-559.7502252916
 20
61.4748344421387
 30
0.0
 11
-560.500213623047
 21
61.4748344421387
 31
0.0
  0
LINE
  5
   392
  8
0
  6
CONTINUOUS
 62
     2
 10
-560.500259399646
 20
39.9748115539551
 30
0.0
 11
-560.500259399646
 21
50.2821235656738
 31
0.0
  0
LINE
  5
   393
  8
0
  6
CONTINUOUS
 62
     7
 10
-524.500228881836
 20
48.9748115539551
 30
0.0
 11
-526.250228881836
 21
48.9748115539551
 31
0.0
  0
LINE
  5
   394
  8
0
  6
CONTINUOUS
 62
     7
 10
-526.250282287953
 20
40.2248071943483
 30
0.0
 11
-526.250282287953
 21
48.9748071943483
 31
0.0
  0
LINE
  5
   395
  8
0
  6
CONTINUOUS
 62
     7
 10
-558.500228881836
 20
41.2248115539551
 30
0.0
 11
-560.500228881836
 21
41.2248115539551
 31
0.0
  0
LINE
  5
   396
  8
0
  6
CONTINUOUS
 62
     7
 10
-558.500227610453
 20
41.2248052057187
 30
0.0
 11
-558.500225056086
 21
42.2292234979236
 31
0.0
  0
LINE
  5
   397
  8
0
  6
CONTINUOUS
 62
     7
 10
-526.250236511231
 20
7.97483444213867
 30
0.0
 11
-526.250236511231
 21
12.7248420715332
 31
0.0
  0
LINE
  5
   398
  8
0
  6
CONTINUOUS
 62
     7
 10
-560.500223782175
 20
-22.5251528392368
 30
0.0
 11
-560.500208523386
 21
-22.3780352840682
 31
0.0
  0
LINE
  5
   399
  8
0
  6
CONTINUOUS
 62
     7
 10
-560.500213623187
 20
-14.672272178703
 30
0.0
 11
-560.500213623187
 21
12.7248378066486
 31
0.0
  0
LINE
  5
   39A
  8
0
  6
CONTINUOUS
 62
     7
 10
-525.000228881836
 20
-15.7751579284668
 30
0.0
 11
-559.000245666505
 21
-15.7751579284668
 31
0.0
  0
LINE
  5
   39B
  8
0
  6
CONTINUOUS
 62
     7
 10
-525.000228881836
 20
-21.2751579284668
 30
0.0
 11
-559.000245666505
 21
-21.2751579284668
 31
0.0
  0
LINE
  5
   39C
  8
0
  6
CONTINUOUS
 62
     7
 10
-556.384199383711
 20
-15.7751528438554
 30
0.0
 11
-560.500211780716
 21
-14.672267130787
 31
0.0
  0
LINE
  5
   39D
  8
0
  6
CONTINUOUS
 62
     7
 10
-560.500209473725
 20
-22.3780395585032
 30
0.0
 11
-556.384196981947
 21
-21.275157394107
 31
0.0
  0
LINE
  5
   39E
  8
0
  6
CONTINUOUS
 62
     7
 10
-524.500236511231
 20
-14.2751579284668
 30
0.0
 11
-528.500236511231
 21
-14.2751579284668
 31
0.0
  0
LINE
  5
   39F
  8
0
  6
CONTINUOUS
 62
     7
 10
-528.500236511231
 20
-14.2751579284668
 30
0.0
 11
-528.500236511231
 21
6.97483444213867
 31
0.0
  0
LINE
  5
   3A0
  8
0
  6
CONTINUOUS
 62
     7
 10
-560.000213623047
 20
-18.2751579284668
 30
0.0
 11
-560.000213623047
 21
-14.8062477111816
 31
0.0
  0
LINE
  5
   3A1
  8
0
  6
CONTINUOUS
 62
     7
 10
-560.000220665547
 20
-22.2440631750861
 30
0.0
 11
-560.000213036159
 21
-21.7751529560132
 31
0.0
  0
LINE
  5
   3A2
  8
0
  6
CONTINUOUS
 62
     2
 10
-560.500213623047
 20
-14.2751579284668
 30
0.0
 11
-561.500213623047
 21
-14.2751579284668
 31
0.0
  0
LINE
  5
   3A3
  8
0
  6
CONTINUOUS
 62
     2
 10
-560.500213623047
 20
-11.5251579284668
 30
0.0
 11
-561.500213623047
 21
-11.5251579284668
 31
0.0
  0
LINE
  5
   3A4
  8
0
  6
CONTINUOUS
 62
     7
 10
-524.500247316229
 20
-21.7751384153701
 30
0.0
 11
-525.000239670537
 21
-21.2751460610626
 31
0.0
  0
LINE
  5
   3A5
  8
0
  6
CONTINUOUS
 62
     7
 10
-525.000235200099
 20
-15.7751572274885
 30
0.0
 11
-524.500235217213
 21
-15.2751572446028
 31
0.0
  0
LINE
  5
   3A6
  8
0
  6
CONTINUOUS
 62
     7
 10
-526.250236511231
 20
6.97483444213867
 30
0.0
 11
-526.250236511231
 21
7.97483444213867
 31
0.0
  0
LINE
  5
   3A7
  8
0
  6
CONTINUOUS
 62
     2
 10
-559.500213623047
 20
-31.5251426696771
 30
0.0
 11
-561.500213623047
 21
-31.5251426696771
 31
0.0
  0
LINE
  5
   3A8
  8
0
  6
CONTINUOUS
 62
     7
 10
-560.500228881836
 20
-24.5251579284668
 30
0.0
 11
-560.500228881836
 21
-22.5251579284668
 31
0.0
  0
LINE
  5
   3A9
  8
0
  6
CONTINUOUS
 62
     7
 10
-524.500236511231
 20
-29.0251426696777
 30
0.0
 11
-529.500228881836
 21
-29.0251426696777
 31
0.0
  0
LINE
  5
   3AA
  8
0
  6
CONTINUOUS
 62
     7
 10
-529.500228881836
 20
-31.5251426696777
 30
0.0
 11
-529.500228881836
 21
-29.0251426696777
 31
0.0
  0
LINE
  5
   3AB
  8
0
  6
CONTINUOUS
 62
     7
 10
-560.500228881836
 20
-30.2751332092464
 30
0.0
 11
-560.500228881836
 21
-24.5251579284668
 31
0.0
  0
LINE
  5
   3AC
  8
0
  6
CONTINUOUS
 62
     2
 10
-560.500228881836
 20
39.9748115539551
 30
0.0
 11
-560.750213623047
 21
39.9748115539551
 31
0.0
  0
LINE
  5
   3AD
  8
0
  6
CONTINUOUS
 62
     7
 10
-560.500221252441
 20
4.7248420715332
 30
0.0
 11
-560.750213623047
 21
4.7248420715332
 31
0.0
  0
LINE
  5
   3AE
  8
0
  6
CONTINUOUS
 62
     7
 10
-560.500213623047
 20
-11.2751560211182
 30
0.0
 11
-560.750213623047
 21
-11.2751560211182
 31
0.0
  0
LINE
  5
   3AF
  8
0
  6
CONTINUOUS
 62
     7
 10
-560.000213623047
 20
-15.0251574516296
 30
0.0
 11
-560.750213623047
 21
-15.0251574516296
 31
0.0
  0
LINE
  5
   3B0
  8
0
  6
CONTINUOUS
 62
     7
 10
-560.500228881836
 20
-23.0251502990723
 30
0.0
 11
-560.750213623047
 21
-23.0251502990723
 31
0.0
  0
LINE
  5
   3B1
  8
0
  6
CONTINUOUS
 62
     2
 10
-560.750213623047
 20
-29.8251378942215
 30
0.0
 11
-560.750213623047
 21
-14.2751655578613
 31
0.0
  0
LINE
  5
   3B2
  8
0
  6
CONTINUOUS
 62
     2
 10
-560.750213623047
 20
-11.5251655578613
 30
0.0
 11
-560.750213623047
 21
39.9748039245605
 31
0.0
  0
LINE
  5
   3B3
  8
0
  6
CONTINUOUS
 62
     7
 10
-560.000213623047
 20
30.4748344421387
 30
0.0
 11
-560.000213623047
 21
37.9748115539551
 31
0.0
  0
LINE
  5
   3B4
  8
0
  6
CONTINUOUS
 62
     7
 10
-560.000213623047
 20
12.9748573303223
 30
0.0
 11
-560.000213623047
 21
20.4748497009277
 31
0.0
  0
LINE
  5
   3B5
  8
0
  6
CONTINUOUS
 62
     7
 10
-560.000213623047
 20
-21.7751197814941
 30
0.0
 11
-560.000213623047
 21
-18.2751197814941
 31
0.0
  0
LINE
  5
   3B6
  8
0
  6
CONTINUOUS
 62
     2
 10
-560.550217527563
 20
-30.0251339897054
 30
0.0
 11
-560.7502144735
 21
-29.8251370437685
 31
0.0
  0
LINE
  5
   3B7
  8
0
  6
CONTINUOUS
 62
     2
 10
-560.500213623047
 20
47.9748115539551
 30
0.0
 11
-561.500213623047
 21
47.9748115539551
 31
0.0
  0
LINE
  5
   3B8
  8
0
  6
CONTINUOUS
 62
     2
 10
-560.500213623047
 20
53.4748115539551
 30
0.0
 11
-561.500213623047
 21
53.4748115539551
 31
0.0
  0
LINE
  5
   3B9
  8
0
  6
CONTINUOUS
 62
     2
 10
-560.500213623047
 20
52.1306343078613
 30
0.0
 11
-561.500213623047
 21
52.1306343078613
 31
0.0
  0
LINE
  5
   3BA
  8
0
  6
CONTINUOUS
 62
     2
 10
-560.500213623047
 20
50.2821235656738
 30
0.0
 11
-561.500213623047
 21
50.2821235656738
 31
0.0
  0
LINE
  5
   3BB
  8
0
  6
CONTINUOUS
 62
     7
 10
-526.000244140626
 20
14.2248094653129
 30
0.0
 11
-526.000244140626
 21
41.4748323534965
 31
0.0
  0
LINE
  5
   3BC
  8
0
  6
CONTINUOUS
 62
     7
 10
-512.000267028814
 20
49.4748261006798
 30
0.0
 11
-512.000267028814
 21
61.4748261006798
 31
0.0
  0
LINE
  5
   3BD
  8
0
  6
CONTINUOUS
 62
     7
 10
-512.000228881836
 20
49.4748286437812
 30
0.0
 11
-512.250228881836
 21
49.4748286437812
 31
0.0
  0
LINE
  5
   3BE
  8
0
  6
CONTINUOUS
 62
     7
 10
-512.250228881836
 20
49.2248286437812
 30
0.0
 11
-512.250228881836
 21
49.4748286437812
 31
0.0
  0
LINE
  5
   3BF
  8
0
  6
CONTINUOUS
 62
     7
 10
-524.500228881836
 20
48.7248210143866
 30
0.0
 11
-524.500228881836
 21
49.2248286437812
 31
0.0
  0
LINE
  5
   3C0
  8
0
  6
CONTINUOUS
 62
     7
 10
-512.000225067144
 20
61.4748439025621
 30
0.0
 11
-524.500225067144
 21
61.4748439025621
 31
0.0
  0
LINE
  5
   3C1
  8
0
  6
CONTINUOUS
 62
     7
 10
-513.250228881836
 20
49.2248286437812
 30
0.0
 11
-513.400230407715
 21
49.2248286437812
 31
0.0
  0
LINE
  5
   3C2
  8
0
  6
CONTINUOUS
 62
     7
 10
-524.500228881836
 20
48.7248362731757
 30
0.0
 11
-526.000228881836
 21
48.7248362731757
 31
0.0
  0
LINE
  5
   3C3
  8
0
  6
CONTINUOUS
 62
     7
 10
-526.000228881836
 20
41.4748362731757
 30
0.0
 11
-526.000228881836
 21
48.7248362731757
 31
0.0
  0
LINE
  5
   3C4
  8
0
  6
CONTINUOUS
 62
     7
 10
-524.50025177002
 20
-28.5251560974298
 30
0.0
 11
-524.50025177002
 21
-24.8868504333673
 31
0.0
  0
LINE
  5
   3C5
  8
0
  6
CONTINUOUS
 62
     7
 10
-526.000236511231
 20
8.22482864378117
 30
0.0
 11
-526.000236511231
 21
14.2248133849921
 31
0.0
  0
LINE
  5
   3C6
  8
0
  6
CONTINUOUS
 62
     7
 10
-526.000236511231
 20
6.97481338499211
 30
0.0
 11
-526.500236511231
 21
6.97481338499211
 31
0.0
  0
LINE
  5
   3C7
  8
0
  6
CONTINUOUS
 62
     7
 10
-513.400246044522
 20
-30.0251408386301
 30
0.0
 11
-524.500252148038
 21
-30.0251408386301
 31
0.0
  0
LINE
  5
   3C8
  8
0
  6
CONTINUOUS
 62
     7
 10
-524.50025177002
 20
-30.0251560974298
 30
0.0
 11
-524.50025177002
 21
-28.5251560974298
 31
0.0
  0
LINE
  5
   3C9
  8
0
  6
CONTINUOUS
 62
     7
 10
-524.500244140625
 20
-24.8868504333673
 30
0.0
 11
-524.500244140625
 21
-21.400151492288
 31
0.0
  0
LINE
  5
   3CA
  8
0
  6
CONTINUOUS
 62
     7
 10
-513.25025177002
 20
-31.5251637268243
 30
0.0
 11
-513.25025177002
 21
-30.0251637268243
 31
0.0
  0
LINE
  5
   3CB
  8
0
  6
CONTINUOUS
 62
     7
 10
-513.25025177002
 20
-30.0251637268243
 30
0.0
 11
-513.400245636702
 21
-30.0251637268243
 31
0.0
  0
LINE
  5
   3CC
  8
0
  6
CONTINUOUS
 62
     7
 10
-526.500236511231
 20
6.97481338499211
 30
0.0
 11
-528.500236511231
 21
6.97481338499211
 31
0.0
  0
LINE
  5
   3CD
  8
0
  6
CONTINUOUS
 62
     7
 10
-526.000236511231
 20
6.97481338499211
 30
0.0
 11
-526.000236511231
 21
8.22482864378117
 31
0.0
  0
LINE
  5
   3CE
  8
0
  6
CONTINUOUS
 62
     7
 10
-513.400247745681
 20
-21.4001408386321
 30
0.0
 11
-524.500246219802
 21
-21.4001408386321
 31
0.0
  0
LINE
  5
   3CF
  8
0
  6
CONTINUOUS
 62
     7
 10
-513.400251422912
 20
-15.6501408386335
 30
0.0
 11
-524.500249897033
 21
-15.6501408386335
 31
0.0
  0
LINE
  5
   3D0
  8
0
  6
CONTINUOUS
 62
     7
 10
-523.850731416964
 20
-28.1501475391002
 30
0.0
 11
-523.75025230673
 21
-27.7751475442773
 31
0.0
  0
LINE
  5
   3D1
  8
0
  6
CONTINUOUS
 62
     7
 10
-524.125247099079
 20
-28.4246720718297
 30
0.0
 11
-523.850733872579
 21
-28.1501512091106
 31
0.0
  0
LINE
  5
   3D2
  8
0
  6
CONTINUOUS
 62
     7
 10
-524.500260412718
 20
-28.5251443795898
 30
0.0
 11
-524.125252798445
 21
-28.4246652617084
 31
0.0
  0
LINE
  5
   3D3
  8
0
  6
CONTINUOUS
 62
     7
 10
-524.125248620561
 20
-22.6256341351828
 30
0.0
 11
-524.500248617812
 21
-22.5251473886555
 31
0.0
  0
LINE
  5
   3D4
  8
0
  6
CONTINUOUS
 62
     7
 10
-523.85073603022
 20
-22.9001515638918
 30
0.0
 11
-524.12524926054
 21
-22.6256383335718
 31
0.0
  0
LINE
  5
   3D5
  8
0
  6
CONTINUOUS
 62
     7
 10
-523.750257496651
 20
-23.2751508687257
 30
0.0
 11
-523.850744243179
 21
-22.9001508714753
 31
0.0
  0
LINE
  5
   3D6
  8
0
  6
CONTINUOUS
 62
     7
 10
-523.750256008555
 20
-27.7751531291122
 30
0.0
 11
-523.750248379161
 21
-23.2751531291122
 31
0.0
  0
LINE
  5
   3D7
  8
0
  6
CONTINUOUS
 62
     7
 10
-513.400245666505
 20
-30.0251637268243
 30
0.0
 11
-513.400245666505
 21
49.2248223873885
 31
0.0
  0
LINE
  5
   3D8
  8
0
  6
CONTINUOUS
 62
     7
 10
-513.40022277832
 20
60.0748347472968
 30
0.0
 11
-524.208951631904
 21
60.0748347472968
 31
0.0
  0
LINE
  5
   3D9
  8
0
  6
CONTINUOUS
 62
     7
 10
-513.400276184089
 20
49.2248251982981
 30
0.0
 11
-513.400276184089
 21
60.0748313018138
 31
0.0
  0
LINE
  5
   3DA
  8
0
  6
CONTINUOUS
 62
     7
 10
-524.500228881836
 20
49.2248362731757
 30
0.0
 11
-524.500228881836
 21
59.4321455893824
 31
0.0
  0
LINE
  5
   3DB
  8
0
  6
CONTINUOUS
 62
     7
 10
-505.250221252441
 20
-27.4001332092462
 30
0.0
 11
-505.250221252441
 21
-18.1501502990723
 31
0.0
  0
LINE
  5
   3DC
  8
0
  6
CONTINUOUS
 62
     7
 10
-505.250221252441
 20
23.9748515319648
 30
0.0
 11
-505.250221252441
 21
24.0998515319648
 31
0.0
  0
LINE
  5
   3DD
  8
0
  6
CONTINUOUS
 62
     7
 10
-508.000218391419
 20
25.0998515319648
 30
0.0
 11
-509.750221252441
 21
25.0998515319648
 31
0.0
  0
LINE
  5
   3DE
  8
0
  6
CONTINUOUS
 62
     7
 10
-508.000218391419
 20
-27.4001332092462
 30
0.0
 11
-509.750221252441
 21
-27.4001332092462
 31
0.0
  0
LINE
  5
   3DF
  8
0
  6
CONTINUOUS
 62
     7
 10
-513.250221252441
 20
-35.5251332092462
 30
0.0
 11
-513.250221252441
 21
-30.0251637268243
 31
0.0
  0
LINE
  5
   3E0
  8
0
  6
CONTINUOUS
 62
     7
 10
-510.750221252442
 20
-35.5251332092462
 30
0.0
 11
-510.750221252442
 21
-27.4001332092462
 31
0.0
  0
LINE
  5
   3E1
  8
0
  6
CONTINUOUS
 62
     7
 10
-510.750221252442
 20
25.0998515319648
 30
0.0
 11
-510.750221252442
 21
49.2248515319648
 31
0.0
  0
LINE
  5
   3E2
  8
0
  6
CONTINUOUS
 62
     7
 10
-510.750221252442
 20
49.2248515319648
 30
0.0
 11
-513.250221252441
 21
49.2248515319648
 31
0.0
  0
LINE
  5
   3E3
  8
0
  6
CONTINUOUS
 62
     7
 10
-510.750221252442
 20
-35.5251332092462
 30
0.0
 11
-513.250221252441
 21
-35.5251332092462
 31
0.0
  0
LINE
  5
   3E4
  8
0
  6
CONTINUOUS
 62
     7
 10
-509.750221252441
 20
-27.4001332092462
 30
0.0
 11
-509.750221252441
 21
25.0998515319648
 31
0.0
  0
LINE
  5
   3E5
  8
0
  6
CONTINUOUS
 62
     7
 10
-509.750221252441
 20
-27.4001332092462
 30
0.0
 11
-510.750221252442
 21
-27.4001332092462
 31
0.0
  0
LINE
  5
   3E6
  8
0
  6
CONTINUOUS
 62
     7
 10
-509.750221252441
 20
25.0998515319648
 30
0.0
 11
-510.750221252442
 21
25.0998515319648
 31
0.0
  0
LINE
  5
   3E7
  8
0
  6
CONTINUOUS
 62
     7
 10
-513.400257246619
 20
-15.3751714046157
 30
0.0
 11
-513.250255727696
 21
-15.3620488476283
 31
0.0
  0
LINE
  5
   3E8
  8
0
  6
CONTINUOUS
 62
     7
 10
-513.25022994166
 20
-21.688284120171
 30
0.0
 11
-513.400231464778
 21
-21.6751539337647
 31
0.0
  0
LINE
  5
   3E9
  8
0
  6
CONTINUOUS
 62
     7
 10
-524.500244140625
 20
-15.6501514922867
 30
0.0
 11
-524.500244140625
 21
-14.2751713562188
 31
0.0
  0
LINE
  5
   3EA
  8
0
  6
CONTINUOUS
 62
   218
 10
-513.400223255158
 20
-64.1251335907161
 30
0.0
 11
-537.200462399293
 21
-64.1251335907161
 31
0.0
  0
LINE
  5
   3EB
  8
0
  6
CONTINUOUS
 62
     2
 10
-559.500213623047
 20
-30.2751332092464
 30
0.0
 11
-561.500213623047
 21
-30.2751332092464
 31
0.0
  0
LINE
  5
   3EC
  8
0
  6
CONTINUOUS
 62
     7
 10
-513.400215148926
 20
-30.2751332092464
 30
0.0
 11
-522.000221252441
 21
-30.2751332092464
 31
0.0
  0
LINE
  5
   3ED
  8
0
  6
CONTINUOUS
 62
   218
 10
-512.000213623047
 20
-65.5251332092464
 30
0.0
 11
-512.000213623047
 21
-53.5251408386409
 31
0.0
  0
LINE
  5
   3EE
  8
0
  6
CONTINUOUS
 62
     2
 10
-559.500213623047
 20
-31.5251332092464
 30
0.0
 11
-559.500213623047
 21
-30.2751332092464
 31
0.0
  0
LINE
  5
   3EF
  8
0
  6
CONTINUOUS
 62
   218
 10
-513.400219250295
 20
-51.5251408390887
 30
0.0
 11
-513.250221252831
 21
-51.5251390784869
 31
0.0
  0
LINE
  5
   3F0
  8
0
  6
CONTINUOUS
 62
   218
 10
-512.000213623047
 20
-53.5251408386409
 30
0.0
 11
-513.400215148926
 21
-53.5251408386409
 31
0.0
  0
LINE
  5
   3F1
  8
0
  6
CONTINUOUS
 62
   218
 10
-513.400215148926
 20
-64.1251316833675
 30
0.0
 11
-513.400215148926
 21
-51.5251332092464
 31
0.0
  0
LINE
  5
   3F2
  8
0
  6
CONTINUOUS
 62
   218
 10
-513.400215148926
 20
-51.5251332092464
 30
0.0
 11
-513.400215148926
 21
-30.2751332092464
 31
0.0
  0
LINE
  5
   3F3
  8
0
  6
CONTINUOUS
 62
     7
 10
-513.250221252441
 20
-36.0251332092464
 30
0.0
 11
-513.400215148926
 21
-36.0251332092464
 31
0.0
  0
LINE
  5
   3F4
  8
0
  6
CONTINUOUS
 62
   218
 10
-561.500213623089
 20
-48.5251408381462
 30
0.0
 11
-560.500214099949
 21
-48.5251332087516
 31
0.0
  0
LINE
  5
   3F5
  8
0
  6
CONTINUOUS
 62
   218
 10
-560.500214099884
 20
-65.5251332092462
 30
0.0
 11
-560.500214099884
 21
-48.5251408386407
 31
0.0
  0
LINE
  5
   3F6
  8
0
  6
CONTINUOUS
 62
   218
 10
-560.500213623047
 20
-53.9001408386409
 30
0.0
 11
-561.500213623047
 21
-53.9001408386409
 31
0.0
  0
LINE
  5
   3F7
  8
0
  6
CONTINUOUS
 62
     7
 10
-524.500226973411
 20
-30.2751332065255
 30
0.0
 11
-524.500219344016
 21
-29.2751332065026
 31
0.0
  0
LINE
  5
   3F8
  8
0
  6
CONTINUOUS
 62
     7
 10
-524.500213623047
 20
-29.2751332092464
 30
0.0
 11
-529.500213623047
 21
-29.2751332092464
 31
0.0
  0
LINE
  5
   3F9
  8
0
  6
CONTINUOUS
 62
     7
 10
-522.000221252441
 20
-30.2751332092464
 30
0.0
 11
-524.500221252442
 21
-30.2751332092464
 31
0.0
  0
LINE
  5
   3FA
  8
0
  6
CONTINUOUS
 62
   218
 10
-560.500213623047
 20
-58.2589364814937
 30
0.0
 11
-561.500213623047
 21
-58.2589364814937
 31
0.0
  0
LINE
  5
   3FB
  8
0
  6
CONTINUOUS
 62
   218
 10
-560.500213623047
 20
-57.0324421692073
 30
0.0
 11
-561.500213623047
 21
-57.0324421692073
 31
0.0
  0
LINE
  5
   3FC
  8
0
  6
CONTINUOUS
 62
   218
 10
-560.500213623047
 20
-53.9640293884456
 30
0.0
 11
-561.500213623047
 21
-53.9640293884456
 31
0.0
  0
LINE
  5
   3FD
  8
0
  6
CONTINUOUS
 62
     7
 10
-510.750221252442
 20
-35.7751332092462
 30
0.0
 11
-513.250221252441
 21
-35.7751332092462
 31
0.0
  0
LINE
  5
   3FE
  8
0
  6
CONTINUOUS
 62
     7
 10
-510.750221252442
 20
-53.2751332092462
 30
0.0
 11
-513.250221252441
 21
-53.2751332092462
 31
0.0
  0
LINE
  5
   3FF
  8
0
  6
CONTINUOUS
 62
     7
 10
-510.750221252442
 20
-53.2751332092462
 30
0.0
 11
-510.750221252442
 21
-35.7751332092462
 31
0.0
  0
LINE
  5
   400
  8
0
  6
CONTINUOUS
 62
     7
 10
-511.750221252441
 20
-53.2751332092462
 30
0.0
 11
-511.750221252441
 21
-35.7751332092462
 31
0.0
  0
LINE
  5
   401
  8
0
  6
CONTINUOUS
 62
     7
 10
-513.250221252441
 20
-53.2751332092462
 30
0.0
 11
-513.250221252441
 21
-35.7751332092462
 31
0.0
  0
ARC
  5
   402
  8
0
  6
CONTINUOUS
 62
     7
 10
-494.912694867185
 20
-12.1720739417776
 30
0.0
 40
0.499999897877905
 50
348.623573369035
 51
436.688788706936
  0
ARC
  5
   403
  8
0
  6
CONTINUOUS
 62
     7
 10
-495.511067067103
 20
-15.1459829257765
 30
0.0
 40
0.50000037262337
 50
260.593992196011
 51
348.623573369035
  0
LINE
  5
   404
  8
0
  6
DASHDOT
 62
     7
 10
-487.512402541411
 20
-15.2264045796749
 30
0.0
 11
-512.570745775865
 21
-10.1844844117766
 31
0.0
  0
LINE
  5
   405
  8
0
  6
CONTINUOUS
 62
     7
 10
-494.797574894838
 20
-11.6855074720789
 30
0.0
 11
-505.250221252442
 21
-9.2124468841071
 31
0.0
  0
LINE
  5
   406
  8
0
  6
CONTINUOUS
 62
     7
 10
-495.020890622223
 20
-15.24460997706
 30
0.0
 11
-494.422518586598
 21
-12.2707009600043
 31
0.0
  0
LINE
  5
   407
  8
0
  6
CONTINUOUS
 62
     7
 10
-495.592781805697
 20
-15.6392606486479
 30
0.0
 11
-505.250221252442
 21
-14.0394415137466
 31
0.0
  0
LINE
  5
   408
  8
0
  6
CONTINUOUS
 62
     7
 10
-559.000245666505
 20
-21.2751579284668
 30
0.0
 11
-559.000245666505
 21
-15.7751579284668
 31
0.0
  0
LINE
  5
   409
  8
0
  6
CONTINUOUS
 62
     7
 10
-549.500226245274
 20
57.4748344421387
 30
0.0
 11
-551.5002252916
 21
57.4748344421387
 31
0.0
  0
LINE
  5
   40A
  8
0
  6
DASHDOT
 62
     7
 10
-541.148254805124
 20
52.4748600223834
 30
0.0
 11
-555.214896822562
 21
52.4748600223834
 31
0.0
  0
LINE
  5
   40B
  8
0
  6
CONTINUOUS
 62
     7
 10
-544.373878418086
 20
42.2292234927537
 30
0.0
 11
-542.102450354376
 21
47.2410196075197
 31
0.0
  0
LINE
  5
   40C
  8
0
  6
CONTINUOUS
 62
     7
 10
-549.000226245274
 20
42.2292234927538
 30
0.0
 11
-549.000226245274
 21
50.4748600223834
 31
0.0
  0
LINE
  5
   40D
  8
0
  6
CONTINUOUS
 62
     7
 10
-551.5002252916
 20
42.2292234927538
 30
0.0
 11
-551.5002252916
 21
50.4748600223833
 31
0.0
  0
LINE
  5
   40E
  8
0
  6
CONTINUOUS
 62
     2
 10
-560.500259399646
 20
52.1306343078613
 30
0.0
 11
-560.500259399646
 21
61.4748339035991
 31
0.0
  0
LINE
  5
   40F
  8
0
  6
CONTINUOUS
 62
     7
 10
-542.223089829915
 20
46.9748344421387
 30
0.0
 11
-549.000226245274
 21
46.9748344421387
 31
0.0
  0
LINE
  5
   410
  8
0
  6
CONTINUOUS
 62
     7
 10
-543.129522578452
 20
44.9748344421387
 30
0.0
 11
-549.000226245274
 21
44.9748344421387
 31
0.0
  0
INSERT
  5
   411
  8
0
  6
CONTINUOUS
 62
     7
  2
*HATCH64
 10
-510.000244140625
 20
-56.1436882019043
 30
0.0
 41
0.5
 42
0.5
 50
89.9999999480344
 43
0.5
  0
LINE
  5
   412
  8
0
  6
CONTINUOUS
 62
     2
 10
-524.500244140625
 20
61.4748344421387
 30
0.0
 11
-551.0002252916
 21
61.4748344421387
 31
0.0
  0
LINE
  5
   413
  8
0
  6
DASHDOT
 62
     7
 10
-562.000213623047
 20
-75.1164914085939
 30
0.0
 11
-562.000213623047
 21
-65.5251332092462
 31
0.0
  0
LINE
  5
   414
  8
0
  6
DASHDOT
 62
     7
 10
-563.500213623047
 20
-75.1164914085939
 30
0.0
 11
-563.500213623047
 21
70.0309395935955
 31
0.0
  0
LINE
  5
   415
  8
0
  6
CONTINUOUS
 62
     7
 10
-559.93535299748
 20
70.0309395935955
 30
0.0
 11
-565.004248869508
 21
70.0309395935955
 31
0.0
  0
LINE
  5
   416
  8
0
  6
CONTINUOUS
 62
     7
 10
-507.885953883782
 20
-75.1164914085939
 30
0.0
 11
-565.345440024532
 21
-75.1164914085939
 31
0.0
  0
ARC
  5
   417
  8
0
  6
CONTINUOUS
 62
     7
 10
-532.000221252441
 20
-6.27513320924617
 30
0.0
 40
38.0220413050115
 50
333.082565820193
 51
379.93594827737
  0
LINE
  5
   418
  8
0
  6
CONTINUOUS
 62
     7
 10
-493.97817994743
 20
-6.27513320924619
 30
0.0
 11
-493.97817994743
 21
15.3995063061861
 31
0.0
  0
LINE
  5
   419
  8
0
  6
CONTINUOUS
 62
     7
 10
-544.373878418086
 20
42.2292234927538
 30
0.0
 11
-562.704298504161
 21
42.2292234927538
 31
0.0
  0
LINE
  5
   41A
  8
0
  6
CONTINUOUS
 62
     7
 10
-551.5002252916
 20
43.7248344421387
 30
0.0
 11
-554.0002252916
 21
43.7248344421387
 31
0.0
  0
LINE
  5
   41B
  8
0
  6
CONTINUOUS
 62
     7
 10
-555.495836240985
 20
42.2292234927538
 30
0.0
 11
-554.0002252916
 21
43.7248344421386
 31
0.0
  0
INSERT
  5
   41C
  8
0
  6
CONTINUOUS
 62
     7
  2
*HATCH65
 10
-510.000244140625
 20
-56.1436882019043
 30
0.0
 41
0.5
 42
0.5
 50
89.9999999480344
 43
0.5
  0
LINE
  5
   41D
  8
0
  6
DASHDOT
 62
     7
 10
-541.148254805124
 20
-56.525191138106
 30
0.0
 11
-555.214896822562
 21
-56.525191138106
 31
0.0
  0
LINE
  5
   41E
  8
0
  6
CONTINUOUS
 62
     7
 10
-549.0002252916
 20
-61.5251655578613
 30
0.0
 11
-551.5002252916
 21
-61.5251655578613
 31
0.0
  0
LINE
  5
   41F
  8
0
  6
CONTINUOUS
 62
     7
 10
-551.5002252916
 20
-61.5251655578613
 30
0.0
 11
-551.5002252916
 21
-46.2795546084765
 31
0.0
  0
LINE
  5
   420
  8
0
  6
CONTINUOUS
 62
     7
 10
-549.000226245274
 20
-54.525191138106
 30
0.0
 11
-551.5002252916
 21
-54.525191138106
 31
0.0
  0
LINE
  5
   421
  8
0
  6
CONTINUOUS
 62
     7
 10
-549.000226245274
 20
-58.525191138106
 30
0.0
 11
-551.5002252916
 21
-58.525191138106
 31
0.0
  0
LINE
  5
   422
  8
0
  6
CONTINUOUS
 62
     7
 10
-549.000226245274
 20
-54.5251399776167
 30
0.0
 11
-549.000226245274
 21
-46.2795546084765
 31
0.0
  0
LINE
  5
   423
  8
0
  6
CONTINUOUS
 62
     7
 10
-541.068597933169
 20
-46.2795546084765
 30
0.0
 11
-566.054498040371
 21
-46.2795546084765
 31
0.0
  0
LINE
  5
   424
  8
0
  6
CONTINUOUS
 62
     7
 10
-536.388576396062
 20
-67.0808231580351
 30
0.0
 11
-542.306289579346
 21
-45.5372529417634
 31
0.0
  0
LINE
  5
   425
  8
0
  6
CONTINUOUS
 62
   218
 10
-512.000214099884
 20
-65.5251332092462
 30
0.0
 11
-551.0002252916
 21
-65.5251332092462
 31
0.0
  0
INSERT
  5
   426
  8
0
  6
CONTINUOUS
 62
     7
  2
*HATCH66
 10
-510.000244140625
 20
-56.1436882019043
 30
0.0
 41
0.5
 42
0.5
 50
89.9999999480344
 43
0.5
  0
INSERT
  5
   427
  8
0
  6
CONTINUOUS
 62
     7
  2
*HATCH67
 10
-510.000244140625
 20
-56.1436882019043
 30
0.0
 41
0.5
 42
0.5
 50
89.9999999480344
 43
0.5
  0
LINE
  5
   428
  8
0
  6
CONTINUOUS
 62
     7
 10
-551.5002252916
 20
-49.025191138106
 30
0.0
 11
-560.500214099884
 21
-49.025191138106
 31
0.0
  0
LINE
  5
   429
  8
0
  6
CONTINUOUS
 62
     7
 10
-551.5002252916
 20
-47.025191138106
 30
0.0
 11
-561.500213623047
 21
-47.025191138106
 31
0.0
  0
LINE
  5
   42A
  8
0
  6
CONTINUOUS
 62
     7
 10
-540.798830792918
 20
-51.025191138106
 30
0.0
 11
-549.000226245274
 21
-51.025191138106
 31
0.0
  0
INSERT
  5
   42B
  8
0
  6
CONTINUOUS
 62
     7
  2
*HATCH68
 10
-510.000244140625
 20
-56.1436882019043
 30
0.0
 41
0.5
 42
0.5
 50
89.9999999480344
 43
0.5
  0
LINE
  5
   42C
  8
0
  6
CONTINUOUS
 62
     7
 10
-541.348202426671
 20
-49.025191138106
 30
0.0
 11
-549.000226245274
 21
-49.025191138106
 31
0.0
  0
INSERT
  5
   42D
  8
0
  6
CONTINUOUS
 62
     7
  2
*HATCH69
 10
-510.000244140625
 20
-56.1436882019043
 30
0.0
 41
0.5
 42
0.5
 50
89.9999999480344
 43
0.5
  0
LINE
  5
   42E
  8
0
  6
CONTINUOUS
 62
     7
 10
-529.500228881836
 20
-31.5251426696771
 30
0.0
 11
-559.500213623047
 21
-31.5251426696771
 31
0.0
  0
LINE
  5
   42F
  8
0
  6
CONTINUOUS
 62
     7
 10
-505.250221252441
 20
5.59984970092773
 30
0.0
 11
-505.250221252441
 21
25.0998515319648
 31
0.0
  0
LINE
  5
   430
  8
0
  6
CONTINUOUS
 62
     7
 10
-505.250221252441
 20
-0.900150299072266
 30
0.0
 11
-505.250221252441
 21
5.09984970092773
 31
0.0
  0
LINE
  5
   431
  8
0
  6
CONTINUOUS
 62
     7
 10
-505.250221252441
 20
-11.1501350402843
 30
0.0
 11
-505.250221252441
 21
-1.40015029907227
 31
0.0
  0
LINE
  5
   432
  8
0
  6
CONTINUOUS
 62
     7
 10
-505.250221252441
 20
-17.6501502990723
 30
0.0
 11
-505.250221252441
 21
-11.6501350402842
 31
0.0
  0
LINE
  5
   433
  8
0
  6
CONTINUOUS
 62
     1
 10
-508.000218391419
 20
-28.6533756256104
 30
0.0
 11
-508.000218391419
 21
-27.6533756256104
 31
0.0
  0
LINE
  5
   434
  8
0
  6
CONTINUOUS
 62
     1
 10
-507.000218391418
 20
-28.6533756256104
 30
0.0
 11
-508.000218391419
 21
-28.6533756256104
 31
0.0
  0
LINE
  5
   435
  8
0
  6
CONTINUOUS
 62
     1
 10
-508.000218391419
 20
25.346622467041
 30
0.0
 11
-508.000218391419
 21
26.346622467041
 31
0.0
  0
LINE
  5
   436
  8
0
  6
CONTINUOUS
 62
     1
 10
-507.000218391418
 20
26.346622467041
 30
0.0
 11
-508.000218391419
 21
26.346622467041
 31
0.0
  0
LINE
  5
   437
  8
0
  6
CONTINUOUS
 62
     1
 10
-508.000218391419
 20
-27.6533756256104
 30
0.0
 11
-508.000218391419
 21
25.3466243743897
 31
0.0
  0
LINE
  5
   438
  8
0
  6
CONTINUOUS
 62
     1
 10
-510.250218391419
 20
33.1352958679199
 30
0.0
 11
-510.250218391419
 21
35.5579490661621
 31
0.0
  0
LINE
  5
   439
  8
0
  6
CONTINUOUS
 62
     1
 10
-507.000218391418
 20
-41.9033756256104
 30
0.0
 11
-507.000218391418
 21
39.5966243743896
 31
0.0
  0
LINE
  5
   43A
  8
0
  6
CONTINUOUS
 62
     1
 10
-505.250218391419
 20
-41.9033756256104
 30
0.0
 11
-507.000218391418
 21
-41.9033756256104
 31
0.0
  0
LINE
  5
   43B
  8
0
  6
CONTINUOUS
 62
     1
 10
-505.250218391419
 20
-41.903377532959
 30
0.0
 11
-505.250218391419
 21
39.596622467041
 31
0.0
  0
LINE
  5
   43C
  8
0
  6
CONTINUOUS
 62
     1
 10
-505.250218391419
 20
39.596622467041
 30
0.0
 11
-505.750218391418
 21
39.596622467041
 31
0.0
  0
LINE
  5
   43D
  8
0
  6
CONTINUOUS
 62
     1
 10
-506.250218391419
 20
39.596622467041
 30
0.0
 11
-507.000218391418
 21
39.596622467041
 31
0.0
  0
LINE
  5
   43E
  8
0
  6
CONTINUOUS
 62
     1
 10
-507.000218391418
 20
32.846622467041
 30
0.0
 11
-509.750219989733
 21
32.846622467041
 31
0.0
  0
LINE
  5
   43F
  8
0
  6
CONTINUOUS
 62
     1
 10
-507.000218391418
 20
35.846622467041
 30
0.0
 11
-509.750216753155
 21
35.846622467041
 31
0.0
  0
LINE
  5
   440
  8
0
  6
CONTINUOUS
 62
     1
 10
-509.750218398269
 20
32.846622467041
 30
0.0
 11
-509.750218398269
 21
32.9608039855957
 31
0.0
  0
LINE
  5
   441
  8
0
  6
CONTINUOUS
 62
     1
 10
-509.750218000407
 20
32.8466213185103
 30
0.0
 11
-510.250218016871
 21
33.1352947230085
 31
0.0
  0
LINE
  5
   442
  8
0
  6
CONTINUOUS
 62
     1
 10
-509.750218398269
 20
32.9608039855957
 30
0.0
 11
-509.750218398269
 21
33.285961151123
 31
0.0
  0
LINE
  5
   443
  8
0
  6
CONTINUOUS
 62
     1
 10
-509.750218398269
 20
33.285961151123
 30
0.0
 11
-509.750218398269
 21
33.7726020812988
 31
0.0
  0
LINE
  5
   444
  8
0
  6
CONTINUOUS
 62
     1
 10
-509.750218398269
 20
33.7726020812988
 30
0.0
 11
-509.750218398269
 21
34.346622467041
 31
0.0
  0
LINE
  5
   445
  8
0
  6
CONTINUOUS
 62
     1
 10
-509.750218398269
 20
34.346622467041
 30
0.0
 11
-509.750218398269
 21
34.9206504821777
 31
0.0
  0
LINE
  5
   446
  8
0
  6
CONTINUOUS
 62
     1
 10
-509.750218398269
 20
34.9206504821777
 30
0.0
 11
-509.750218398269
 21
35.407283782959
 31
0.0
  0
LINE
  5
   447
  8
0
  6
CONTINUOUS
 62
     1
 10
-509.750218398269
 20
35.407283782959
 30
0.0
 11
-509.750218398269
 21
35.7324409484863
 31
0.0
  0
LINE
  5
   448
  8
0
  6
CONTINUOUS
 62
     1
 10
-509.750218398269
 20
35.7324409484863
 30
0.0
 11
-509.750218398269
 21
35.846622467041
 31
0.0
  0
LINE
  5
   449
  8
0
  6
CONTINUOUS
 62
     1
 10
-510.250218826008
 20
35.5579478752931
 30
0.0
 11
-509.750218809544
 21
35.8466212797913
 31
0.0
  0
LINE
  5
   44A
  8
0
  6
CONTINUOUS
 62
     1
 10
-507.000218391418
 20
-35.1533756256104
 30
0.0
 11
-509.750217395713
 21
-35.1533756256104
 31
0.0
  0
LINE
  5
   44B
  8
0
  6
CONTINUOUS
 62
     1
 10
-507.000218391418
 20
-38.1533756256104
 30
0.0
 11
-509.750218381611
 21
-38.1533756256104
 31
0.0
  0
LINE
  5
   44C
  8
0
  6
CONTINUOUS
 62
     1
 10
-509.750218381611
 20
-35.267557144165
 30
0.0
 11
-509.750218381611
 21
-35.1533756256104
 31
0.0
  0
LINE
  5
   44D
  8
0
  6
CONTINUOUS
 62
     1
 10
-509.750218381623
 20
-35.592716217041
 30
0.0
 11
-509.750218381623
 21
-35.267557144165
 31
0.0
  0
LINE
  5
   44E
  8
0
  6
CONTINUOUS
 62
     1
 10
-509.750218381609
 20
-36.0793495178223
 30
0.0
 11
-509.750218381609
 21
-35.592716217041
 31
0.0
  0
LINE
  5
   44F
  8
0
  6
CONTINUOUS
 62
     1
 10
-509.750218381644
 20
-36.6533756256104
 30
0.0
 11
-509.750218381644
 21
-36.0793495178223
 31
0.0
  0
LINE
  5
   450
  8
0
  6
CONTINUOUS
 62
     1
 10
-509.750218381582
 20
-37.2273998260498
 30
0.0
 11
-509.750218381582
 21
-36.6533756256104
 31
0.0
  0
LINE
  5
   451
  8
0
  6
CONTINUOUS
 62
     1
 10
-509.750218381609
 20
-37.7140350341797
 30
0.0
 11
-509.750218381609
 21
-37.2273998260498
 31
0.0
  0
LINE
  5
   452
  8
0
  6
CONTINUOUS
 62
     1
 10
-509.750218381622
 20
-38.1533756256104
 30
0.0
 11
-509.750218381622
 21
-37.7140350341797
 31
0.0
  0
LINE
  5
   453
  8
0
  6
CONTINUOUS
 62
     1
 10
-509.750218381611
 20
-38.1533756256104
 30
0.0
 11
-509.750218381611
 21
-38.0391941070557
 31
0.0
  0
LINE
  5
   454
  8
0
  6
CONTINUOUS
 62
     1
 10
-505.750218391418
 20
39.596622467041
 30
0.0
 11
-506.250218391419
 21
39.596622467041
 31
0.0
  0
LINE
  5
   455
  8
0
  6
CONTINUOUS
 62
     7
 10
-510.250218652493
 20
-35.4420516339638
 30
0.0
 11
-509.750218636029
 21
-35.1533763417072
 31
0.0
  0
LINE
  5
   456
  8
0
  6
CONTINUOUS
 62
     7
 10
-509.750218174449
 20
-38.1533762393599
 30
0.0
 11
-510.250218190913
 21
-37.8647009471033
 31
0.0
  0
LINE
  5
   457
  8
0
  6
CONTINUOUS
 62
     7
 10
-508.000218391419
 20
-69.2191251828167
 30
0.0
 11
-508.000218391419
 21
-38.1533756256104
 31
0.0
  0
LINE
  5
   458
  8
0
  6
CONTINUOUS
 62
     7
 10
-507.000218391418
 20
-68.6053320793685
 30
0.0
 11
-507.000218391418
 21
-41.9033756256104
 31
0.0
  0
LINE
  5
   459
  8
0
  6
CONTINUOUS
 62
     7
 10
-507.000218391418
 20
36.096622467041
 30
0.0
 11
-507.000218391418
 21
68.6921738373864
 31
0.0
  0
LINE
  5
   45A
  8
0
  6
CONTINUOUS
 62
     7
 10
-507.000218391418
 20
-29.1533756256104
 30
0.0
 11
-508.000218391419
 21
-29.1533756256104
 31
0.0
  0
LINE
  5
   45B
  8
0
  6
CONTINUOUS
 62
     7
 10
-507.000218391418
 20
26.846622467041
 30
0.0
 11
-508.000218391419
 21
26.846622467041
 31
0.0
  0
LINE
  5
   45C
  8
0
  6
CONTINUOUS
 62
     7
 10
-507.000218391418
 20
36.096622467041
 30
0.0
 11
-508.000218391419
 21
36.096622467041
 31
0.0
  0
LINE
  5
   45D
  8
0
  6
CONTINUOUS
 62
     7
 10
-507.000218391418
 20
32.596622467041
 30
0.0
 11
-508.000218391419
 21
32.596622467041
 31
0.0
  0
LINE
  5
   45E
  8
0
  6
CONTINUOUS
 62
     7
 10
-507.000218391418
 20
-34.9033756256104
 30
0.0
 11
-508.000218391419
 21
-34.9033756256104
 31
0.0
  0
LINE
  5
   45F
  8
0
  6
CONTINUOUS
 62
     7
 10
-507.000218391418
 20
-38.4033756256104
 30
0.0
 11
-508.000218391419
 21
-38.4033756256104
 31
0.0
  0
LINE
  5
   460
  8
0
  6
CONTINUOUS
 62
     7
 10
-508.000218391419
 20
-35.1533756256104
 30
0.0
 11
-508.000218391419
 21
32.846622467041
 31
0.0
  0
LINE
  5
   461
  8
0
  6
CONTINUOUS
 62
     7
 10
-508.000218391419
 20
35.846622467041
 30
0.0
 11
-508.000218391419
 21
68.1529581511119
 31
0.0
  0
LINE
  5
   462
  8
0
  6
CONTINUOUS
 62
     7
 10
-509.197113155086
 20
67.5075737197228
 30
0.0
 11
-505.542961069716
 21
69.477949844187
 31
0.0
  0
LINE
  5
   463
  8
0
  6
CONTINUOUS
 62
     7
 10
-509.662838420868
 20
-70.2396298905478
 30
0.0
 11
-504.468210456372
 21
-67.0512030709603
 31
0.0
  0
INSERT
  5
   464
  8
0
  6
CONTINUOUS
 62
     7
  2
*HATCH70
 10
-510.000244140625
 20
-56.1436882019043
 30
0.0
 41
0.5
 42
0.5
 50
89.9999999480344
 43
0.5
  0
INSERT
  5
   465
  8
0
  6
CONTINUOUS
 62
     7
  2
*HATCH71
 10
-510.000244140625
 20
-56.1436882019043
 30
0.0
 41
0.5
 42
0.5
 50
89.9999999480344
 43
0.5
  0
INSERT
  5
   466
  8
0
  6
CONTINUOUS
 62
     7
  2
*HATCH72
 10
-510.000244140625
 20
-56.1436882019043
 30
0.0
 41
0.5
 42
0.5
 50
89.9999999480344
 43
0.5
  0
INSERT
  5
   467
  8
0
  6
CONTINUOUS
 62
     7
  2
*HATCH73
 10
-510.000244140625
 20
-56.1436882019043
 30
0.0
 41
0.5
 42
0.5
 50
89.9999999480344
 43
0.5
  0
LINE
  5
   468
  8
0
  6
CONTINUOUS
 62
     7
 10
-510.250218190913
 20
-37.8647009471033
 30
0.0
 11
-510.250218652493
 21
-35.4420516339638
 31
0.0
  0
LINE
  5
   469
  8
0
  6
DASHDOT
 62
     7
 10
-482.106198198254
 20
-1.15014846803524
 30
0.0
 11
-569.379350796083
 21
-1.15014846803524
 31
0.0
  0
LINE
  5
   46A
  8
0
  6
CONTINUOUS
 62
     7
 10
-551.5002252916
 20
54.4748600223833
 30
0.0
 11
-551.5002252916
 21
57.4748344421387
 31
0.0
  0
LINE
  5
   46B
  8
0
  6
CONTINUOUS
 62
     7
 10
-530.025446797592
 20
47.2410196075197
 30
0.0
 11
-542.102450354376
 21
47.2410196075197
 31
0.0
  0
LINE
  5
   46C
  8
0
  6
CONTINUOUS
 62
     7
 10
-530.025446797592
 20
47.2410196075197
 30
0.0
 11
-522.56716485974
 21
63.6973578187818
 31
0.0
  0
LINE
  5
   46D
  8
0
  6
CONTINUOUS
 62
     2
 10
-546.000226245274
 20
47.9748600223834
 30
0.0
 11
-546.000226245274
 21
56.9748600223834
 31
0.0
  0
LINE
  5
   46E
  8
0
  6
CONTINUOUS
 62
     2
 10
-549.000226245274
 20
54.5998600223834
 30
0.0
 11
-551.5002252916
 21
54.5998600223834
 31
0.0
  0
LINE
  5
   46F
  8
0
  6
CONTINUOUS
 62
     2
 10
-549.000226245274
 20
50.3498600223834
 30
0.0
 11
-551.5002252916
 21
50.3498600223834
 31
0.0
  0
LINE
  5
   470
  8
0
  6
CONTINUOUS
 62
     1
 10
-510.750267028814
 20
63.2248755305922
 30
0.0
 11
-510.750267028814
 21
64.2248755305922
 31
0.0
  0
LINE
  5
   471
  8
0
  6
CONTINUOUS
 62
     1
 10
-510.750266566878
 20
64.2248755305922
 30
0.0
 11
-561.250224829664
 21
64.2248755305922
 31
0.0
  0
LINE
  5
   472
  8
0
  6
CONTINUOUS
 62
     1
 10
-561.250224829664
 20
63.2248755305922
 30
0.0
 11
-561.250224829664
 21
64.2248755305922
 31
0.0
  0
LINE
  5
   473
  8
0
  6
CONTINUOUS
 62
     1
 10
-559.7502252916
 20
62.7248755305922
 30
0.0
 11
-560.750224814763
 21
62.7248755305922
 31
0.0
  0
LINE
  5
   474
  8
0
  6
CONTINUOUS
 62
     1
 10
-561.250224829664
 20
64.2248755305922
 30
0.0
 11
-561.250224829664
 21
112.724875530592
 31
0.0
  0
LINE
  5
   475
  8
0
  6
CONTINUOUS
 62
     1
 10
-510.750267028814
 20
64.2248755305922
 30
0.0
 11
-510.750267028814
 21
112.724875530592
 31
0.0
  0
LINE
  5
   476
  8
0
  6
CONTINUOUS
 62
     1
 10
-511.250267662042
 20
62.7248752909924
 30
0.0
 11
-510.750267679157
 21
63.2248752738782
 31
0.0
  0
LINE
  5
   477
  8
0
  6
CONTINUOUS
 62
     1
 10
-560.750224825385
 20
62.7248755006423
 30
0.0
 11
-561.250224808271
 21
63.224875483528
 31
0.0
  0
LINE
  5
   478
  8
0
  6
CONTINUOUS
 62
     1
 10
-510.750267028814
 20
112.724875530592
 30
0.0
 11
-561.250224829664
 21
112.724875530592
 31
0.0
  0
LINE
  5
   479
  8
0
  6
CONTINUOUS
 62
     3
 10
-552.000225289874
 20
62.7248752921737
 30
0.0
 11
-551.500225289878
 21
62.7248829215682
 31
0.0
  0
LINE
  5
   47A
  8
0
  6
CONTINUOUS
 62
     3
 10
-551.000224756779
 20
62.2248805873041
 30
0.0
 11
-551.500224739664
 21
62.7248805701898
 31
0.0
  0
LINE
  5
   47B
  8
0
  6
CONTINUOUS
 62
     3
 10
-551.0002252916
 20
61.474882910567
 30
0.0
 11
-551.0002252916
 21
62.224882910567
 31
0.0
  0
LINE
  5
   47C
  8
0
  6
CONTINUOUS
 62
     3
 10
-552.000225290865
 20
61.4748752838863
 30
0.0
 11
-551.000225290881
 21
61.4748829132809
 31
0.0
  0
LINE
  5
   47D
  8
0
  6
CONTINUOUS
 62
     3
 10
-551.0002252916
 20
61.4748600223834
 30
0.0
 11
-552.0002252916
 21
61.4748600223834
 31
0.0
  0
LINE
  5
   47E
  8
0
  6
CONTINUOUS
 62
     3
 10
-551.7502252916
 20
48.2248600223834
 30
0.0
 11
-551.7502252916
 21
56.7248600223834
 31
0.0
  0
LINE
  5
   47F
  8
0
  6
CONTINUOUS
 62
     3
 10
-552.0002252916
 20
58.2248600223834
 30
0.0
 11
-553.625226722111
 21
58.2248600223834
 31
0.0
  0
LINE
  5
   480
  8
0
  6
CONTINUOUS
 62
     3
 10
-552.0002252916
 20
58.2248600223834
 30
0.0
 11
-552.0002252916
 21
61.4748600223834
 31
0.0
  0
LINE
  5
   481
  8
0
  6
CONTINUOUS
 62
     3
 10
-559.0002252916
 20
47.4748600223834
 30
0.0
 11
-559.7502252916
 21
47.4748600223834
 31
0.0
  0
LINE
  5
   482
  8
0
  6
CONTINUOUS
 62
     3
 10
-559.0002252916
 20
47.4748523929888
 30
0.0
 11
-559.7502252916
 21
47.4748523929888
 31
0.0
  0
LINE
  5
   483
  8
0
  6
CONTINUOUS
 62
     3
 10
-552.0002252916
 20
62.7248676517779
 30
0.0
 11
-559.7502252916
 21
62.7248676517779
 31
0.0
  0
LINE
  5
   484
  8
0
  6
CONTINUOUS
 62
     3
 10
-559.7502252916
 20
47.4748600223834
 30
0.0
 11
-559.7502252916
 21
62.7248676517779
 31
0.0
  0
LINE
  5
   485
  8
0
  6
CONTINUOUS
 62
     3
 10
-552.0002252916
 20
61.4748676517779
 30
0.0
 11
-552.0002252916
 21
62.7248676517779
 31
0.0
  0
LINE
  5
   486
  8
0
  6
CONTINUOUS
 62
     3
 10
-552.0002252916
 20
59.8748691776568
 30
0.0
 11
-552.5002252916
 21
59.8748691776568
 31
0.0
  0
LINE
  5
   487
  8
0
  6
CONTINUOUS
 62
     3
 10
-552.500224725515
 20
59.8748668965543
 30
0.0
 11
-552.700224541641
 21
60.0748638467177
 31
0.0
  0
LINE
  5
   488
  8
0
  6
CONTINUOUS
 62
     3
 10
-559.000225071342
 20
47.474859796199
 30
0.0
 11
-552.000225225649
 21
61.4748678842317
 31
0.0
  0
LINE
  5
   489
  8
0
  6
CONTINUOUS
 62
   210
 10
-551.5002252916
 20
49.2248600223834
 30
0.0
 11
-551.5002252916
 21
55.7248600223834
 31
0.0
  0
LINE
  5
   48A
  8
0
  6
CONTINUOUS
 62
     3
 10
-551.7502252916
 20
48.2248600223834
 30
0.0
 11
-558.625228152623
 21
48.2248600223834
 31
0.0
  0
LINE
  5
   48B
  8
0
  6
CONTINUOUS
 62
     3
 10
-551.7502252916
 20
56.7248600223834
 30
0.0
 11
-554.375227675786
 21
56.7248600223834
 31
0.0
  0
LINE
  5
   48C
  8
0
  6
CONTINUOUS
 62
     3
 10
-552.0002252916
 20
62.2248676517779
 30
0.0
 11
-559.7502252916
 21
62.2248676517779
 31
0.0
  0
LINE
  5
   48D
  8
0
  6
CONTINUOUS
 62
     3
 10
-558.7502252916
 20
47.9748676517779
 30
0.0
 11
-559.7502252916
 21
47.9748676517779
 31
0.0
  0
LINE
  5
   48E
  8
0
  6
CONTINUOUS
 62
   210
 10
-551.5002252916
 20
55.7248600223834
 30
0.0
 11
-551.7502252916
 21
55.7248600223834
 31
0.0
  0
LINE
  5
   48F
  8
0
  6
CONTINUOUS
 62
   210
 10
-551.5002252916
 20
49.2248600223834
 30
0.0
 11
-551.7502252916
 21
49.2248600223834
 31
0.0
  0
LINE
  5
   490
  8
0
  6
CONTINUOUS
 62
     2
 10
-511.375267028814
 20
62.7248344421387
 30
0.0
 11
-551.500178611613
 21
62.7248344421387
 31
0.0
  0
LINE
  5
   491
  8
0
  6
CONTINUOUS
 62
     2
 10
-510.750267028814
 20
49.7248515319648
 30
0.0
 11
-510.750267028814
 21
62.0998344421387
 31
0.0
  0
ARC
  5
   492
  8
0
  6
CONTINUOUS
 62
     2
 10
-511.375267028814
 20
62.0998344421387
 30
0.0
 40
0.625
 50
359.999999948034
 51
449.999999948034
  0
LINE
  5
   493
  8
0
  6
CONTINUOUS
 62
     2
 10
-510.750221252442
 20
49.7248515319648
 30
0.0
 11
-511.250267028814
 21
49.7248515319648
 31
0.0
  0
LINE
  5
   494
  8
0
  6
CONTINUOUS
 62
     2
 10
-511.250267028814
 20
49.2248515319648
 30
0.0
 11
-511.250267028814
 21
49.7248515319648
 31
0.0
  0
INSERT
  5
   495
  8
0
  6
CONTINUOUS
 62
     2
  2
*HATCH74
 10
-510.000244140625
 20
-56.1436882019043
 30
0.0
 41
0.5
 42
0.5
 50
89.9999999480344
 43
0.5
  0
INSERT
  5
   496
  8
0
  6
CONTINUOUS
 62
     2
  2
*HATCH75
 10
-510.000244140625
 20
-56.1436882019043
 30
0.0
 41
0.5
 42
0.5
 50
89.9999999480344
 43
0.5
  0
LINE
  5
   497
  8
0
  6
CONTINUOUS
 62
     7
 10
-545.500226245274
 20
47.9748600223834
 30
0.0
 11
-545.500226245274
 21
56.9748600223834
 31
0.0
  0
LINE
  5
   498
  8
0
  6
CONTINUOUS
 62
     7
 10
-545.500226245274
 20
56.9748600223834
 30
0.0
 11
-546.000226245274
 21
56.9748600223834
 31
0.0
  0
LINE
  5
   499
  8
0
  6
CONTINUOUS
 62
     7
 10
-545.500226245274
 20
47.9748600223834
 30
0.0
 11
-546.000226245274
 21
47.9748600223834
 31
0.0
  0
LINE
  5
   49A
  8
0
  6
CONTINUOUS
 62
     2
 10
-549.000226245274
 20
54.4748600223834
 30
0.0
 11
-549.000226245274
 21
57.4748600223834
 31
0.0
  0
INSERT
  5
   49B
  8
255
  6
CONTINUOUS
 62
     7
  2
PROLUNGATI
 10
-551.5002252916
 20
-56.525191138106
 30
0.0
 41
0.5
 42
-0.5
 50
1.03931142803049E-7
 43
0.5
  0
LINE
  5
   49C
  8
0
  6
CONTINUOUS
 62
     7
 10
-559.7502252916
 20
-65.5251332092462
 30
0.0
 11
-560.500214099884
 21
-65.5251332092462
 31
0.0
  0
LINE
  5
   49D
  8
0
  6
CONTINUOUS
 62
     7
 10
-546.000226245274
 20
-61.0251399776167
 30
0.0
 11
-546.000226245274
 21
-52.0251399776167
 31
0.0
  0
LINE
  5
   49E
  8
0
  6
CONTINUOUS
 62
     7
 10
-546.000226245274
 20
-61.0251399776167
 30
0.0
 11
-546.500226245274
 21
-61.0251399776167
 31
0.0
  0
LINE
  5
   49F
  8
0
  6
CONTINUOUS
 62
     7
 10
-546.000226245274
 20
-52.0251399776167
 30
0.0
 11
-546.500226245274
 21
-52.0251399776167
 31
0.0
  0
LINE
  5
   4A0
  8
0
  6
CONTINUOUS
 62
     7
 10
-546.500226245274
 20
-58.5251399776167
 30
0.0
 11
-549.500226245274
 21
-58.5251399776167
 31
0.0
  0
LINE
  5
   4A1
  8
0
  6
CONTINUOUS
 62
     7
 10
-546.500226245274
 20
-58.1251399776166
 30
0.0
 11
-551.5002252916
 21
-58.1251399776166
 31
0.0
  0
LINE
  5
   4A2
  8
0
  6
CONTINUOUS
 62
     7
 10
-546.500226245274
 20
-54.9251399776167
 30
0.0
 11
-551.5002252916
 21
-54.9251399776167
 31
0.0
  0
LINE
  5
   4A3
  8
0
  6
CONTINUOUS
 62
     7
 10
-546.500226245274
 20
-54.5251399776167
 30
0.0
 11
-549.500226245274
 21
-54.5251399776167
 31
0.0
  0
LINE
  5
   4A4
  8
0
  6
CONTINUOUS
 62
     7
 10
-546.500226245274
 20
-61.0251399776167
 30
0.0
 11
-546.500226245274
 21
-52.0251399776167
 31
0.0
  0
LINE
  5
   4A5
  8
0
  6
CONTINUOUS
 62
     7
 10
-549.0002252916
 20
-61.5251655578613
 30
0.0
 11
-549.0002252916
 21
-58.5251399776167
 31
0.0
  0
LINE
  5
   4A6
  8
0
  6
CONTINUOUS
 62
     1
 10
-545.800226245274
 20
-60.1201399776167
 30
0.0
 11
-545.800226245274
 21
-52.9301399776167
 31
0.0
  0
ARC
  5
   4A7
  8
0
  6
CONTINUOUS
 62
     1
 10
-544.623394055718
 20
-59.2213899776166
 30
0.0
 40
1.37316781044413
 50
319.117607838934
 51
400.882392057134
  0
ARC
  5
   4A8
  8
0
  6
CONTINUOUS
 62
     1
 10
-544.623394055718
 20
-53.8288899776166
 30
0.0
 40
1.37316781044413
 50
319.117607838934
 51
400.882392057134
  0
LINE
  5
   4A9
  8
0
  6
CONTINUOUS
 62
     1
 10
-543.558628488543
 20
-58.3226399776166
 30
0.0
 11
-545.800226245274
 21
-58.3226399776166
 31
0.0
  0
ARC
  5
   4AA
  8
0
  6
CONTINUOUS
 62
     1
 10
-548.642726245274
 20
-56.5251399776167
 30
0.0
 40
5.3925
 50
340.528779313544
 51
379.471220582525
  0
LINE
  5
   4AB
  8
0
  6
CONTINUOUS
 62
     1
 10
-543.558628488543
 20
-54.7276399776166
 30
0.0
 11
-545.800226245274
 21
-54.7276399776166
 31
0.0
  0
LINE
  5
   4AC
  8
0
  6
CONTINUOUS
 62
     1
 10
-543.585204153465
 20
-60.1201399776166
 30
0.0
 11
-545.800226245274
 21
-60.1201399776166
 31
0.0
  0
LINE
  5
   4AD
  8
0
  6
CONTINUOUS
 62
     1
 10
-543.585204153465
 20
-52.9301399776167
 30
0.0
 11
-545.800226245274
 21
-52.9301399776167
 31
0.0
  0
LINE
  5
   4AE
  8
0
  6
CONTINUOUS
 62
     1
 10
-545.800226245274
 20
-59.5751399776166
 30
0.0
 11
-546.000226245274
 21
-59.5751399776166
 31
0.0
  0
LINE
  5
   4AF
  8
0
  6
CONTINUOUS
 62
     1
 10
-545.800226245274
 20
-53.4751399776167
 30
0.0
 11
-546.000226245274
 21
-53.4751399776167
 31
0.0
  0
LINE
  5
   4B0
  8
0
  6
CONTINUOUS
 62
     7
 10
-547.250226245274
 20
-54.9085337276167
 30
0.0
 11
-551.000226245274
 21
-54.9085337276167
 31
0.0
  0
LINE
  5
   4B1
  8
0
  6
CONTINUOUS
 62
     1
 10
-546.500226245274
 20
-54.5251399776167
 30
0.0
 11
-551.000226245274
 21
-54.5251399776167
 31
0.0
  0
LINE
  5
   4B2
  8
0
  6
CONTINUOUS
 62
     1
 10
-546.500226245274
 20
-58.5251399776167
 30
0.0
 11
-551.000226245274
 21
-58.5251399776167
 31
0.0
  0
LINE
  5
   4B3
  8
0
  6
CONTINUOUS
 62
     1
 10
-547.250226245274
 20
-58.5251399776167
 30
0.0
 11
-547.250226245274
 21
-54.5251399776167
 31
0.0
  0
LINE
  5
   4B4
  8
0
  6
CONTINUOUS
 62
     1
 10
-543.250226245274
 20
-59.2213899776167
 30
0.0
 11
-543.250226245274
 21
-53.8288899776167
 31
0.0
  0
LINE
  5
   4B5
  8
0
  6
DASHDOT
 62
     7
 10
-541.250226245274
 20
-56.5251399776167
 30
0.0
 11
-553.000226245274
 21
-56.5251399776167
 31
0.0
  0
LINE
  5
   4B6
  8
0
  6
CONTINUOUS
 62
     1
 10
-545.300226245274
 20
48.8798600223833
 30
0.0
 11
-545.300226245274
 21
56.0698600223833
 31
0.0
  0
ARC
  5
   4B7
  8
0
  6
CONTINUOUS
 62
     1
 10
-544.123394055718
 20
55.1711100223833
 30
0.0
 40
1.37316781044413
 50
319.117607838934
 51
400.882392057134
  0
ARC
  5
   4B8
  8
0
  6
CONTINUOUS
 62
     1
 10
-544.123394055718
 20
49.7786100223833
 30
0.0
 40
1.37316781044413
 50
319.117607838934
 51
400.882392057134
  0
LINE
  5
   4B9
  8
0
  6
CONTINUOUS
 62
     1
 10
-543.058628488543
 20
54.2723600223834
 30
0.0
 11
-545.300226245274
 21
54.2723600223834
 31
0.0
  0
ARC
  5
   4BA
  8
0
  6
CONTINUOUS
 62
     1
 10
-548.142726245274
 20
52.4748600223834
 30
0.0
 40
5.3925
 50
340.528779313544
 51
379.471220582525
  0
LINE
  5
   4BB
  8
0
  6
CONTINUOUS
 62
     1
 10
-543.058628488543
 20
50.6773600223834
 30
0.0
 11
-545.300226245274
 21
50.6773600223834
 31
0.0
  0
LINE
  5
   4BC
  8
0
  6
CONTINUOUS
 62
     1
 10
-543.085204153465
 20
56.0698600223834
 30
0.0
 11
-545.300226245274
 21
56.0698600223834
 31
0.0
  0
LINE
  5
   4BD
  8
0
  6
CONTINUOUS
 62
     1
 10
-543.085204153465
 20
48.8798600223834
 30
0.0
 11
-545.300226245274
 21
48.8798600223834
 31
0.0
  0
LINE
  5
   4BE
  8
0
  6
CONTINUOUS
 62
     1
 10
-545.300226245274
 20
55.5248600223834
 30
0.0
 11
-545.500226245274
 21
55.5248600223834
 31
0.0
  0
LINE
  5
   4BF
  8
0
  6
CONTINUOUS
 62
     1
 10
-545.300226245274
 20
49.4248600223834
 30
0.0
 11
-545.500226245274
 21
49.4248600223834
 31
0.0
  0
LINE
  5
   4C0
  8
0
  6
CONTINUOUS
 62
     7
 10
-547.250226245274
 20
54.0914662723834
 30
0.0
 11
-551.5002252916
 21
54.0914662723834
 31
0.0
  0
LINE
  5
   4C1
  8
0
  6
CONTINUOUS
 62
     7
 10
-547.250226245274
 20
50.8582537723834
 30
0.0
 11
-551.5002252916
 21
50.8582537723834
 31
0.0
  0
LINE
  5
   4C2
  8
0
  6
CONTINUOUS
 62
     1
 10
-546.000226245274
 20
50.4748600223834
 30
0.0
 11
-551.5002252916
 21
50.4748600223834
 31
0.0
  0
LINE
  5
   4C3
  8
0
  6
CONTINUOUS
 62
     1
 10
-546.000226245274
 20
54.4748600223834
 30
0.0
 11
-551.5002252916
 21
54.4748600223834
 31
0.0
  0
LINE
  5
   4C4
  8
0
  6
CONTINUOUS
 62
     1
 10
-547.250226245274
 20
50.4748600223833
 30
0.0
 11
-547.250226245274
 21
54.4748600223833
 31
0.0
  0
LINE
  5
   4C5
  8
0
  6
CONTINUOUS
 62
     1
 10
-542.750226245274
 20
49.7786100223833
 30
0.0
 11
-542.750226245274
 21
55.1711100223833
 31
0.0
  0
LINE
  5
   4C6
  8
0
  6
DASHDOT
 62
     7
 10
-541.250226245274
 20
52.4748600223834
 30
0.0
 11
-553.000226245274
 21
52.4748600223834
 31
0.0
  0
LINE
  5
   4C7
  8
0
  6
CONTINUOUS
 62
     7
 10
-549.000226245274
 20
57.4748600223834
 30
0.0
 11
-549.500226245274
 21
57.4748600223834
 31
0.0
  0
LINE
  5
   4C8
  8
0
  6
DASHDOT
 62
     7
 10
-558.937067257847
 20
51.4748515319648
 30
0.0
 11
-570.313098815544
 21
51.4748515319648
 31
0.0
  0
LINE
  5
   4C9
  8
0
  6
CONTINUOUS
 62
     7
 10
-563.500213623047
 20
53.4748515319648
 30
0.0
 11
-565.500213623047
 21
53.4748515319648
 31
0.0
  0
LINE
  5
   4CA
  8
0
  6
CONTINUOUS
 62
     7
 10
-563.500213623047
 20
49.4748515319648
 30
0.0
 11
-565.500213623047
 21
49.4748515319648
 31
0.0
  0
LINE
  5
   4CB
  8
0
  6
CONTINUOUS
 62
     7
 10
-565.500213623047
 20
49.4748515319648
 30
0.0
 11
-565.500213623047
 21
53.4748515319648
 31
0.0
  0
LINE
  5
   4CC
  8
0
  6
CONTINUOUS
 62
     7
 10
-563.500213623047
 20
52.7248515319648
 30
0.0
 11
-567.500213623047
 21
52.7248515319648
 31
0.0
  0
LINE
  5
   4CD
  8
0
  6
CONTINUOUS
 62
     7
 10
-563.500213623047
 20
50.2248515319648
 30
0.0
 11
-567.500213623047
 21
50.2248515319648
 31
0.0
  0
LINE
  5
   4CE
  8
0
  6
CONTINUOUS
 62
     7
 10
-567.500213623047
 20
50.2248515319648
 30
0.0
 11
-567.500213623047
 21
52.7248515319648
 31
0.0
  0
LINE
  5
   4CF
  8
0
  6
CONTINUOUS
 62
     7
 10
-563.500213623047
 20
-53.5251484680352
 30
0.0
 11
-565.500213623047
 21
-53.5251484680352
 31
0.0
  0
LINE
  5
   4D0
  8
0
  6
CONTINUOUS
 62
     7
 10
-563.500213623047
 20
-54.2751484680352
 30
0.0
 11
-567.500213623047
 21
-54.2751484680352
 31
0.0
  0
LINE
  5
   4D1
  8
0
  6
DASHDOT
 62
     7
 10
-558.937067257847
 20
-55.5251484680352
 30
0.0
 11
-570.313098815544
 21
-55.5251484680352
 31
0.0
  0
LINE
  5
   4D2
  8
0
  6
CONTINUOUS
 62
     7
 10
-563.500213623047
 20
-56.7751484680352
 30
0.0
 11
-567.500213623047
 21
-56.7751484680352
 31
0.0
  0
LINE
  5
   4D3
  8
0
  6
CONTINUOUS
 62
     7
 10
-563.500213623047
 20
-57.5251484680352
 30
0.0
 11
-565.500213623047
 21
-57.5251484680352
 31
0.0
  0
LINE
  5
   4D4
  8
0
  6
CONTINUOUS
 62
     7
 10
-565.500213623047
 20
-57.5251484680352
 30
0.0
 11
-565.500213623047
 21
-53.5251484680352
 31
0.0
  0
LINE
  5
   4D5
  8
0
  6
CONTINUOUS
 62
     7
 10
-567.500213623047
 20
-56.7751484680352
 30
0.0
 11
-567.500213623047
 21
-54.2751484680352
 31
0.0
  0
TEXT
  5
   4D6
  8
0
  6
CONTINUOUS
 62
     7
 10
-471.827507588138
 20
-1.99711795848677
 30
0.0
 40
3.00000002980232
  1
X
 50
359.999999948034
 41
0.916666604744064
 72
     1
 11
-470.72750765235
 21
-0.497117944577745
 31
0.0
 73
     2
  0
LINE
  5
   4D7
  8
0
  6
CONTINUOUS
 62
     1
 10
-559.7502252916
 20
-66.7751742976997
 30
0.0
 11
-560.750224814763
 21
-66.7751742976997
 31
0.0
  0
LINE
  5
   4D8
  8
0
  6
CONTINUOUS
 62
     1
 10
-561.250224808271
 20
-67.2751742506355
 30
0.0
 11
-560.750224825385
 21
-66.7751742677498
 31
0.0
  0
LINE
  5
   4D9
  8
0
  6
CONTINUOUS
 62
     1
 10
-561.250224829664
 20
-75.1164914085939
 30
0.0
 11
-561.250224829664
 21
-67.2751742976997
 31
0.0
  0
LINE
  5
   4DA
  8
0
  6
CONTINUOUS
 62
     1
 10
-510.750266566878
 20
-68.2751742976997
 30
0.0
 11
-561.250224829664
 21
-68.2751742976997
 31
0.0
  0
LINE
  5
   4DB
  8
0
  6
CONTINUOUS
 62
     1
 10
-510.750267679157
 20
-67.2751740409857
 30
0.0
 11
-511.250267662042
 21
-66.7751740580999
 31
0.0
  0
LINE
  5
   4DC
  8
0
  6
CONTINUOUS
 62
     1
 10
-510.750267028814
 20
-75.1164914085939
 30
0.0
 11
-510.750267028814
 21
-67.2751742976997
 31
0.0
  0
LINE
  5
   4DD
  8
0
  6
CONTINUOUS
 62
     2
 10
-511.375267028814
 20
-66.7751332092462
 30
0.0
 11
-551.500178611613
 21
-66.7751332092462
 31
0.0
  0
ARC
  5
   4DE
  8
0
  6
CONTINUOUS
 62
     2
 10
-511.375267028814
 20
-66.1501332092462
 30
0.0
 40
0.625
 50
269.999999948034
 51
359.999999948034
  0
LINE
  5
   4DF
  8
0
  6
CONTINUOUS
 62
     2
 10
-510.750267028814
 20
-66.1501332092462
 30
0.0
 11
-510.750267028814
 21
-53.7751502990723
 31
0.0
  0
LINE
  5
   4E0
  8
0
  6
CONTINUOUS
 62
     2
 10
-510.750221252442
 20
-53.7751502990723
 30
0.0
 11
-511.250267028814
 21
-53.7751502990723
 31
0.0
  0
LINE
  5
   4E1
  8
0
  6
CONTINUOUS
 62
     2
 10
-511.250267028814
 20
-53.7751502990723
 30
0.0
 11
-511.250267028814
 21
-53.2751502990723
 31
0.0
  0
LINE
  5
   4E2
  8
0
  6
CONTINUOUS
 62
     2
 10
-561.500213623047
 20
-65.5251332092462
 30
0.0
 11
-561.500213623047
 21
61.4748344421387
 31
0.0
  0
LINE
  5
   4E3
  8
0
  6
CONTINUOUS
 62
     2
 10
-561.500213623047
 20
61.4748344421387
 30
0.0
 11
-562.000213623047
 21
61.4748344421387
 31
0.0
  0
LINE
  5
   4E4
  8
0
  6
CONTINUOUS
 62
     2
 10
-561.500213623047
 20
-65.5251332092462
 30
0.0
 11
-562.000213623047
 21
-65.5251332092462
 31
0.0
  0
LINE
  5
   4E5
  8
0
  6
CONTINUOUS
 62
     2
 10
-562.000213623047
 20
-65.5251332092462
 30
0.0
 11
-562.000213623047
 21
61.4748344421387
 31
0.0
  0
LINE
  5
   4E6
  8
0
  6
DASHDOT
 62
     7
 10
-562.000213623047
 20
61.4748344421387
 30
0.0
 11
-562.000213623047
 21
70.0309395935955
 31
0.0
  0
INSERT
  5
   4E7
  8
0
  6
CONTINUOUS
 62
     7
  2
*UDIM154
 10
0.0
 20
0.0
 30
0.0
  0
INSERT
  5
   4E8
  8
0
  6
CONTINUOUS
 62
     7
  2
*UDIM155
 10
0.0
 20
0.0
 30
0.0
  0
INSERT
  5
   4E9
  8
0
  6
CONTINUOUS
 62
     7
  2
*UDIM156
 10
0.0
 20
0.0
 30
0.0
  0
INSERT
  5
   4EA
  8
0
  6
CONTINUOUS
 62
     7
  2
*UDIM157
 10
0.0
 20
0.0
 30
0.0
  0
INSERT
  5
   4EB
  8
0
  6
CONTINUOUS
 62
     7
  2
*UDIM158
 10
0.0
 20
0.0
 30
0.0
  0
INSERT
  5
   4EC
  8
0
  6
CONTINUOUS
 62
     7
  2
*UDIM159
 10
0.0
 20
0.0
 30
0.0
  0
INSERT
  5
   4ED
  8
0
  6
CONTINUOUS
 62
     7
  2
*UDIM160
 10
0.0
 20
0.0
 30
0.0
  0
INSERT
  5
   4EE
  8
0
  6
CONTINUOUS
 62
     7
  2
*UDIM161
 10
0.0
 20
0.0
 30
0.0
  0
INSERT
  5
   4EF
  8
0
  6
CONTINUOUS
 62
     7
  2
*UDIM162
 10
0.0
 20
0.0
 30
0.0
  0
INSERT
  5
   4F0
  8
0
  6
CONTINUOUS
 62
     7
  2
*UDIM163
 10
0.0
 20
0.0
 30
0.0
  0
INSERT
  5
   4F1
  8
0
  6
CONTINUOUS
 62
     7
  2
*UDIM164
 10
0.0
 20
0.0
 30
0.0
  0
INSERT
  5
   4F2
  8
0
  6
CONTINUOUS
 62
     7
  2
*UDIM165
 10
0.0
 20
0.0
 30
0.0
  0
INSERT
  5
   4F3
  8
0
  6
CONTINUOUS
 62
     7
  2
*UDIM166
 10
0.0
 20
0.0
 30
0.0
  0
INSERT
  5
   4F4
  8
0
  6
CONTINUOUS
 62
     5
  2
*UDIM167
 10
0.0
 20
0.0
 30
0.0
  0
TEXT
  5
   4F5
  8
0
  6
CONTINUOUS
 62
     5
 10
-470.803607952878
 20
-15.3586524187203
 30
0.0
 40
3.00000002980232
  1
=        =
 50
89.9999999480344
 41
0.916666604744064
 72
     2
 11
-470.803607928469
 21
11.5913460241084
 31
0.0
  0
INSERT
  5
   4F6
  8
0
  6
CONTINUOUS
 62
     7
  2
*UDIM168
 10
0.0
 20
0.0
 30
0.0
  0
INSERT
  5
   4F7
  8
0
  6
CONTINUOUS
 62
     7
  2
*UDIM169
 10
0.0
 20
0.0
 30
0.0
  0
INSERT
  5
   4F8
  8
0
  6
CONTINUOUS
 62
     7
  2
*UDIM170
 10
0.0
 20
0.0
 30
0.0
  0
INSERT
  5
   4F9
  8
0
  6
CONTINUOUS
 62
     7
  2
*UDIM171
 10
0.0
 20
0.0
 30
0.0
  0
INSERT
  5
   4FA
  8
0
  6
CONTINUOUS
 62
     7
  2
*UDIM172
 10
0.0
 20
0.0
 30
0.0
  0
LINE
  5
   4FB
  8
0
  6
CONTINUOUS
 62
     7
 10
-674.921528044815
 20
-27.4001502990723
 30
0.0
 11
-679.921528044816
 21
-27.4001502990723
 31
0.0
  0
LINE
  5
   4FC
  8
0
  6
CONTINUOUS
 62
     7
 10
-687.421528044815
 20
24.0998344421387
 30
0.0
 11
-687.421528044815
 21
25.0998344421387
 31
0.0
  0
LINE
  5
   4FD
  8
0
  6
CONTINUOUS
 62
     7
 10
-679.921528044816
 20
-27.4001502990723
 30
0.0
 11
-687.421528044815
 21
-27.4001502990723
 31
0.0
  0
LINE
  5
   4FE
  8
0
  6
CONTINUOUS
 62
     7
 10
-661.171543303605
 20
-27.4001502990723
 30
0.0
 11
-674.921528044815
 21
-27.4001502990723
 31
0.0
  0
LINE
  5
   4FF
  8
0
  6
CONTINUOUS
 62
    52
 10
-642.421558562394
 20
-27.4001502990723
 30
0.0
 11
-647.421558562394
 21
-27.4001502990723
 31
0.0
  0
LINE
  5
   500
  8
0
  6
CONTINUOUS
 62
    52
 10
-634.921558562394
 20
-27.4001502990723
 30
0.0
 11
-642.421558562394
 21
-27.4001502990723
 31
0.0
  0
LINE
  5
   501
  8
0
  6
CONTINUOUS
 62
    52
 10
-647.421558562394
 20
-27.4001502990723
 30
0.0
 11
-661.171543303605
 21
-27.4001502990723
 31
0.0
  0
LINE
  5
   502
  8
0
  6
CONTINUOUS
 62
     7
 10
-672.546536934116
 20
49.4748191833407
 30
0.0
 11
-686.171529304722
 21
49.4748191833407
 31
0.0
  0
LINE
  5
   503
  8
0
  6
CONTINUOUS
 62
     7
 10
-655.046552363511
 20
49.4748191833496
 30
0.0
 11
-667.296544734116
 21
49.4748191833496
 31
0.0
  0
LINE
  5
   504
  8
0
  6
CONTINUOUS
 62
     7
 10
-636.171558562394
 20
49.4748268127441
 30
0.0
 11
-649.796558562394
 21
49.4748268127441
 31
0.0
  0
LINE
  5
   505
  8
0
  6
CONTINUOUS
 62
     7
 10
-670.796528044815
 20
61.4748191833398
 30
0.0
 11
-685.671541965102
 21
61.4748191833398
 31
0.0
  0
LINE
  5
   506
  8
0
  6
CONTINUOUS
 62
     7
 10
-686.025086804779
 20
61.328358478313
 30
0.0
 11
-685.67154067118
 21
61.4748046951519
 31
0.0
  0
LINE
  5
   507
  8
0
  6
CONTINUOUS
 62
     7
 10
-686.17153375673
 20
60.9748057465278
 30
0.0
 11
-686.025079921359
 21
61.3283595024943
 31
0.0
  0
LINE
  5
   508
  8
0
  6
CONTINUOUS
 62
     7
 10
-686.171534213251
 20
49.2248105800201
 30
0.0
 11
-686.17154125827
 21
60.0748176574707
 31
0.0
  0
LINE
  5
   509
  8
0
  6
CONTINUOUS
 62
     7
 10
-636.171563269845
 20
49.2248211313456
 30
0.0
 11
-636.17157735988
 21
60.0748252868652
 31
0.0
  0
LINE
  5
   50A
  8
0
  6
CONTINUOUS
 62
     7
 10
-634.921558562394
 20
49.2248268127441
 30
0.0
 11
-634.921558562394
 21
60.0748252868652
 31
0.0
  0
LINE
  5
   50B
  8
0
  6
CONTINUOUS
 62
     7
 10
-687.42153567421
 20
49.2248115539551
 30
0.0
 11
-687.42153567421
 21
60.0748176574707
 31
0.0
  0
LINE
  5
   50C
  8
0
  6
CONTINUOUS
 62
     7
 10
-686.17153567421
 20
60.0748176574707
 30
0.0
 11
-687.42153567421
 21
60.0748176574707
 31
0.0
  0
LINE
  5
   50D
  8
0
  6
CONTINUOUS
 62
     7
 10
-687.421528044815
 20
39.0998497009277
 30
0.0
 11
-687.421528044815
 21
49.2248344421387
 31
0.0
  0
LINE
  5
   50E
  8
0
  6
CONTINUOUS
 62
     7
 10
-661.171543303605
 20
49.2248344421387
 30
0.0
 11
-687.421528044815
 21
49.2248344421387
 31
0.0
  0
LINE
  5
   50F
  8
0
  6
CONTINUOUS
 62
     7
 10
-634.921558562394
 20
39.0998497009277
 30
0.0
 11
-634.921558562394
 21
49.2248344421387
 31
0.0
  0
LINE
  5
   510
  8
0
  6
CONTINUOUS
 62
     7
 10
-634.921558562394
 20
49.2248344421387
 30
0.0
 11
-661.171543303605
 21
49.2248344421387
 31
0.0
  0
LINE
  5
   511
  8
0
  6
DASHDOT
 62
     7
 10
-661.171535264716
 20
-41.0637756221401
 30
0.0
 11
-661.171568283394
 21
83.000432014828
 31
0.0
  0
LINE
  5
   512
  8
0
  6
CONTINUOUS
 62
     3
 10
-687.421528044815
 20
-64.1251503229141
 30
0.0
 11
-687.421528044815
 21
-41.4001483917237
 31
0.0
  0
LINE
  5
   513
  8
0
  6
CONTINUOUS
 62
     3
 10
-686.171528044816
 20
-64.1251503229141
 30
0.0
 11
-687.421528044815
 21
-64.1251503229141
 31
0.0
  0
LINE
  5
   514
  8
0
  6
CONTINUOUS
 62
     3
 10
-686.171528044816
 20
-65.0251502990723
 30
0.0
 11
-686.171528044816
 21
-64.1251503229141
 31
0.0
  0
LINE
  5
   515
  8
0
  6
CONTINUOUS
 62
     3
 10
-670.796528044815
 20
-65.5251502990718
 30
0.0
 11
-685.671527905586
 21
-65.5251502990718
 31
0.0
  0
LINE
  5
   516
  8
0
  6
CONTINUOUS
 62
     7
 10
-686.171528044816
 20
-64.1251503229141
 30
0.0
 11
-686.171528044816
 21
-54.0251502990723
 31
0.0
  0
LINE
  5
   517
  8
0
  6
CONTINUOUS
 62
     7
 10
-655.046528044816
 20
-53.5251502990723
 30
0.0
 11
-667.296528044815
 21
-53.5251502990723
 31
0.0
  0
LINE
  5
   518
  8
0
  6
DOT
 62
     7
 10
-655.046528044816
 20
-55.5251502990723
 30
0.0
 11
-655.046528044816
 21
-53.5251502990723
 31
0.0
  0
LINE
  5
   519
  8
0
  6
DOT
 62
     7
 10
-649.796528044816
 20
-55.5251502990723
 30
0.0
 11
-649.796528044816
 21
-53.5251502990723
 31
0.0
  0
LINE
  5
   51A
  8
0
  6
CONTINUOUS
 62
     7
 10
-638.171528044816
 20
-53.5251502990723
 30
0.0
 11
-649.796528044816
 21
-53.5251502990723
 31
0.0
  0
LINE
  5
   51B
  8
0
  6
DOT
 62
     7
 10
-668.671528044815
 20
-58.7751502990723
 30
0.0
 11
-668.671528044815
 21
-57.8334053915489
 31
0.0
  0
LINE
  5
   51C
  8
0
  6
CONTINUOUS
 62
     7
 10
-671.171528044816
 20
-58.7751502990723
 30
0.0
 11
-671.171528044816
 21
-57.8334046621653
 31
0.0
  0
LINE
  5
   51D
  8
0
  6
DOT
 62
     7
 10
-668.671528044815
 20
-58.7751502990723
 30
0.0
 11
-670.611361055079
 21
-58.7751502990723
 31
0.0
  0
LINE
  5
   51E
  8
0
  6
DOT
 62
     7
 10
-653.671528044816
 20
-58.7751502990723
 30
0.0
 11
-653.671528044816
 21
-57.7863254547119
 31
0.0
  0
LINE
  5
   51F
  8
0
  6
CONTINUOUS
 62
     7
 10
-686.546528044815
 20
-54.0251502990723
 30
0.0
 11
-686.546528044815
 21
-53.2751502990723
 31
0.0
  0
LINE
  5
   520
  8
0
  6
CONTINUOUS
 62
     3
 10
-668.671528044815
 20
-64.0251502990723
 30
0.0
 11
-668.671528044815
 21
-62.2751502990723
 31
0.0
  0
LINE
  5
   521
  8
0
  6
CONTINUOUS
 62
     3
 10
-671.171528044816
 20
-64.0251504182816
 30
0.0
 11
-671.171528044816
 21
-62.2751502990723
 31
0.0
  0
LINE
  5
   522
  8
0
  6
CONTINUOUS
 62
     3
 10
-669.046528044816
 20
-65.525150299072
 30
0.0
 11
-669.046528044816
 21
-64.025150299072
 31
0.0
  0
LINE
  5
   523
  8
0
  6
CONTINUOUS
 62
     3
 10
-668.671528044815
 20
-64.0251502990723
 30
0.0
 11
-669.046528044816
 21
-64.0251502990723
 31
0.0
  0
LINE
  5
   524
  8
0
  6
CONTINUOUS
 62
     3
 10
-670.796528044815
 20
-65.525150299072
 30
0.0
 11
-670.796528044815
 21
-64.025150299072
 31
0.0
  0
LINE
  5
   525
  8
0
  6
CONTINUOUS
 62
     3
 10
-670.796528044815
 20
-64.0251502990723
 30
0.0
 11
-671.171528044816
 21
-64.0251502990723
 31
0.0
  0
CIRCLE
  5
   526
  8
0
  6
CONTINUOUS
 62
     7
 10
-678.671527977547
 20
-56.5251523374205
 30
0.0
 40
2.74999793642075
  0
CIRCLE
  5
   527
  8
0
  6
DOT
 62
     7
 10
-669.92152717574
 20
-55.5251476214477
 30
0.0
 40
1.37499758123315
  0
ARC
  5
   528
  8
0
  6
DOT
 62
     7
 10
-669.921527371372
 20
-55.5251415373816
 30
0.0
 40
2.62499149271879
 50
298.436973936778
 51
418.997218532549
  0
CIRCLE
  5
   529
  8
0
  6
DOT
 62
     7
 10
-661.171527818925
 20
-56.5251486254787
 30
0.0
 40
2.74999836975995
  0
ARC
  5
   52A
  8
0
  6
DOT
 62
     7
 10
-652.421526686917
 20
-55.5251426843761
 30
0.0
 40
2.6249925524032
 50
298.436944421718
 51
418.99722864746
  0
CIRCLE
  5
   52B
  8
0
  6
DOT
 62
     7
 10
-643.671527660304
 20
-56.5251488912943
 30
0.0
 40
2.74999861534155
  0
CIRCLE
  5
   52C
  8
0
  6
DOT
 62
     7
 10
-643.671528272596
 20
-63.5251490692059
 30
0.0
 40
0.699998731101407
  0
CIRCLE
  5
   52D
  8
0
  6
DOT
 62
     7
 10
-661.17152994408
 20
-63.525149728814
 30
0.0
 40
0.699999655882045
  0
CIRCLE
  5
   52E
  8
0
  6
CONTINUOUS
 62
     7
 10
-678.671528671684
 20
-63.5251513116889
 30
0.0
 40
0.700001026691361
  0
ARC
  5
   52F
  8
0
  6
CONTINUOUS
 62
     3
 10
-685.671527905586
 20
-65.0251500933594
 30
0.0
 40
0.50000021494898
 50
180.000023420064
 51
269.999992853049
  0
LINE
  5
   530
  8
0
  6
DASHDOT
 62
     3
 10
-678.671527977547
 20
-60.2751502738412
 30
0.0
 11
-678.671527977547
 21
-52.7751544009997
 31
0.0
  0
LINE
  5
   531
  8
0
  6
DASHDOT
 62
     3
 10
-674.921530041127
 20
-56.5251523374205
 30
0.0
 11
-682.421525913968
 21
-56.5251523374205
 31
0.0
  0
LINE
  5
   532
  8
0
  6
DASHDOT
 62
     3
 10
-669.921527371372
 20
-67.1195193895054
 30
0.0
 11
-669.921527371372
 21
-44.4038388709651
 31
0.0
  0
LINE
  5
   533
  8
0
  6
DASHDOT
 62
     3
 10
-666.296535878653
 20
-55.5251415373816
 30
0.0
 11
-673.546518864091
 21
-55.5251415373816
 31
0.0
  0
LINE
  5
   534
  8
0
  6
DASHDOT
 62
     3
 10
-661.171527818925
 20
-60.2751469952386
 30
0.0
 11
-661.171527818925
 21
-24.7379623102893
 31
0.0
  0
LINE
  5
   535
  8
0
  6
DASHDOT
 62
     3
 10
-657.421529449165
 20
-56.5251486254787
 30
0.0
 11
-664.921526188685
 21
-56.5251486254787
 31
0.0
  0
LINE
  5
   536
  8
0
  6
DASHDOT
 62
     3
 10
-652.421526686917
 20
-65.7423378164643
 30
0.0
 11
-652.421526686917
 21
-45.4386432544853
 31
0.0
  0
LINE
  5
   537
  8
0
  6
DASHDOT
 62
     3
 10
-648.796534134513
 20
-55.5251426843762
 30
0.0
 11
-656.04651923932
 21
-55.5251426843762
 31
0.0
  0
LINE
  5
   538
  8
0
  6
DASHDOT
 62
     3
 10
-643.671527660304
 20
-60.2751475066359
 30
0.0
 11
-643.671527660304
 21
-52.7751502759528
 31
0.0
  0
LINE
  5
   539
  8
0
  6
DASHDOT
 62
     3
 10
-639.921529044962
 20
-56.5251488912943
 30
0.0
 11
-647.421526275645
 21
-56.5251488912943
 31
0.0
  0
LINE
  5
   53A
  8
0
  6
DASHDOT
 62
     3
 10
-643.671528272596
 20
-65.2251478003073
 30
0.0
 11
-643.671528272596
 21
-61.8251503381045
 31
0.0
  0
LINE
  5
   53B
  8
0
  6
DASHDOT
 62
     3
 10
-641.971529541495
 20
-63.5251490692059
 30
0.0
 11
-645.371527003697
 21
-63.5251490692059
 31
0.0
  0
LINE
  5
   53C
  8
0
  6
DASHDOT
 62
     3
 10
-661.17152994408
 20
-71.9038061208263
 30
0.0
 11
-661.17152994408
 21
-61.825150072932
 31
0.0
  0
LINE
  5
   53D
  8
0
  6
DASHDOT
 62
     3
 10
-659.471530288198
 20
-63.525149728814
 30
0.0
 11
-662.871529599962
 21
-63.525149728814
 31
0.0
  0
LINE
  5
   53E
  8
0
  6
DASHDOT
 62
     3
 10
-678.671528671684
 20
-65.2251523383803
 30
0.0
 11
-678.671528671684
 21
-61.8251502849976
 31
0.0
  0
LINE
  5
   53F
  8
0
  6
DASHDOT
 62
     3
 10
-676.971527644993
 20
-63.5251513116889
 30
0.0
 11
-680.371529698375
 21
-63.5251513116889
 31
0.0
  0
LINE
  5
   540
  8
0
  6
DASHDOT
 62
     3
 10
-667.046534132104
 20
-27.2751417646042
 30
0.0
 11
-672.796521496607
 21
-27.2751417646042
 31
0.0
  0
LINE
  5
   541
  8
0
  6
DASHDOT
 62
     3
 10
-649.546331045349
 20
-27.2753628876161
 30
0.0
 11
-655.296688622628
 21
-27.2753628876161
 31
0.0
  0
LINE
  5
   542
  8
0
  6
CONTINUOUS
 62
     3
 10
-686.171528044816
 20
-65.0251502990723
 30
0.0
 11
-686.171528044816
 21
-64.1251503229141
 31
0.0
  0
LINE
  5
   543
  8
0
  6
CONTINUOUS
 62
     3
 10
-634.921528044816
 20
-64.1251487731934
 30
0.0
 11
-634.921528044816
 21
-41.4001483917237
 31
0.0
  0
LINE
  5
   544
  8
0
  6
CONTINUOUS
 62
     7
 10
-684.171528044816
 20
-54.0251502990723
 30
0.0
 11
-686.546528044815
 21
-54.0251502990723
 31
0.0
  0
LINE
  5
   545
  8
0
  6
DOT
 62
     7
 10
-672.546528044816
 20
-55.5251502990723
 30
0.0
 11
-672.546528044816
 21
-53.5251502990723
 31
0.0
  0
LINE
  5
   546
  8
0
  6
DOT
 62
     7
 10
-667.296528044815
 20
-55.5251502990723
 30
0.0
 11
-667.296528044815
 21
-53.5251502990723
 31
0.0
  0
LINE
  5
   547
  8
0
  6
DOT
 62
     7
 10
-651.171528044816
 20
-58.7751502990723
 30
0.0
 11
-651.171528044816
 21
-57.8334081142862
 31
0.0
  0
LINE
  5
   548
  8
0
  6
DOT
 62
     7
 10
-651.171528044816
 20
-58.7751502990723
 30
0.0
 11
-653.671528044816
 21
-58.7751502990723
 31
0.0
  0
LINE
  5
   549
  8
0
  6
CONTINUOUS
 62
     7
 10
-680.421528044815
 20
-53.5251502990723
 30
0.0
 11
-680.421528044815
 21
-53.2751502990723
 31
0.0
  0
LINE
  5
   54A
  8
0
  6
CONTINUOUS
 62
     7
 10
-684.171528044816
 20
-54.0251502990723
 30
0.0
 11
-684.171528044816
 21
-53.2751502990723
 31
0.0
  0
CIRCLE
  5
   54B
  8
0
  6
DOT
 62
     7
 10
-652.421526300317
 20
-55.5251487104892
 30
0.0
 40
1.37499852437043
  0
ARC
  5
   54C
  8
0
  6
CONTINUOUS
 62
     3
 10
-685.671527905586
 20
-65.0251500933594
 30
0.0
 40
0.50000021494898
 50
180.000023420064
 51
269.999992853049
  0
LINE
  5
   54D
  8
0
  6
DASHDOT
 62
     3
 10
-666.296535878653
 20
-55.5251415373816
 30
0.0
 11
-673.546518864091
 21
-55.5251415373816
 31
0.0
  0
LINE
  5
   54E
  8
0
  6
DASHDOT
 62
     3
 10
-657.421529449165
 20
-56.5251486254787
 30
0.0
 11
-664.921526188685
 21
-56.5251486254787
 31
0.0
  0
LINE
  5
   54F
  8
0
  6
DASHDOT
 62
     3
 10
-652.421526686917
 20
-65.7423378164643
 30
0.0
 11
-652.421526686917
 21
-44.6321774592742
 31
0.0
  0
LINE
  5
   550
  8
0
  6
DASHDOT
 62
     3
 10
-648.796534134513
 20
-55.5251426843762
 30
0.0
 11
-656.04651923932
 21
-55.5251426843762
 31
0.0
  0
LINE
  5
   551
  8
0
  6
CONTINUOUS
 62
     7
 10
-672.546528044816
 20
-53.5251502990723
 30
0.0
 11
-684.171528044816
 21
-53.5251502990723
 31
0.0
  0
LINE
  5
   552
  8
0
  6
CONTINUOUS
 62
     7
 10
-635.796528044816
 20
-54.0251502990723
 30
0.0
 11
-638.171528044816
 21
-54.0251502990723
 31
0.0
  0
LINE
  5
   553
  8
0
  6
CONTINUOUS
 62
     7
 10
-634.921558562394
 20
-53.2751502990723
 30
0.0
 11
-687.421528044815
 21
-53.2751502990723
 31
0.0
  0
ARC
  5
   554
  8
0
  6
DOT
 62
     7
 10
-669.921527371372
 20
-55.5251415373816
 30
0.0
 40
2.62499149271879
 50
121.002781363519
 51
184.358529759913
  0
ARC
  5
   555
  8
0
  6
DOT
 62
     7
 10
-652.421526686917
 20
-55.5251426843761
 30
0.0
 40
2.6249925524032
 50
121.002771248608
 51
241.562988062779
  0
CIRCLE
  5
   556
  8
0
  6
CONTINUOUS
 62
     7
 10
-678.671591124722
 20
52.4744705555122
 30
0.0
 40
2.75032955665546
  0
CIRCLE
  5
   557
  8
0
  6
CONTINUOUS
 62
     7
 10
-678.671539260686
 20
59.474818303191
 30
0.0
 40
0.699999862369895
  0
ARC
  5
   558
  8
0
  6
CONTINUOUS
 62
     7
 10
-669.921545160763
 20
51.4748365144354
 30
0.0
 40
2.62498079731739
 50
103.846340220761
 51
175.64338747478
  0
LINE
  5
   559
  8
0
  6
CONTINUOUS
 62
     7
 10
-674.92153567421
 20
-27.4001502990723
 30
0.0
 11
-679.921528044816
 21
-27.4001502990723
 31
0.0
  0
LINE
  5
   55A
  8
0
  6
CONTINUOUS
 62
     7
 10
-642.421543303605
 20
-27.4001502990723
 30
0.0
 11
-647.421543303605
 21
-27.4001502990723
 31
0.0
  0
LINE
  5
   55B
  8
0
  6
CONTINUOUS
 62
     7
 10
-634.921528044816
 20
-27.1501502990723
 30
0.0
 11
-634.921528044816
 21
-18.1501579284668
 31
0.0
  0
LINE
  5
   55C
  8
0
  6
CONTINUOUS
 62
     7
 10
-687.421528044815
 20
-27.1501502990723
 30
0.0
 11
-687.421528044815
 21
-18.1501579284668
 31
0.0
  0
LINE
  5
   55D
  8
0
  6
CONTINUOUS
 62
     7
 10
-635.171528044815
 20
25.0998497009277
 30
0.0
 11
-687.171528044802
 21
25.0998497009277
 31
0.0
  0
LINE
  5
   55E
  8
0
  6
CONTINUOUS
 62
     7
 10
-679.921528044816
 20
-27.4001502990723
 30
0.0
 11
-687.171528044815
 21
-27.4001502990723
 31
0.0
  0
LINE
  5
   55F
  8
0
  6
CONTINUOUS
 62
     7
 10
-647.421543303605
 20
-27.4001502990723
 30
0.0
 11
-674.92153567421
 21
-27.4001502990723
 31
0.0
  0
LINE
  5
   560
  8
0
  6
CONTINUOUS
 62
     7
 10
-635.171528044815
 20
-27.4001502990723
 30
0.0
 11
-642.421543303605
 21
-27.4001502990723
 31
0.0
  0
LINE
  5
   561
  8
0
  6
CONTINUOUS
 62
     7
 10
-655.796528044815
 20
-16.2751579284668
 30
0.0
 11
-655.796528044815
 21
3.72483444213867
 31
0.0
  0
LINE
  5
   562
  8
0
  6
CONTINUOUS
 62
     7
 10
-666.546528044815
 20
-16.2751579284668
 30
0.0
 11
-666.546528044815
 21
3.72483444213867
 31
0.0
  0
LINE
  5
   563
  8
0
  6
CONTINUOUS
 62
     7
 10
-634.921528044816
 20
19.0998344421387
 30
0.0
 11
-687.421528044815
 21
19.0998344421387
 31
0.0
  0
LINE
  5
   564
  8
0
  6
CONTINUOUS
 62
     7
 10
-634.921528044816
 20
24.0998344421387
 30
0.0
 11
-687.421528044815
 21
24.0998344421387
 31
0.0
  0
LINE
  5
   565
  8
0
  6
CONTINUOUS
 62
     7
 10
-655.796528044815
 20
3.59260177612304
 30
0.0
 11
-666.546528044815
 21
3.59260177612304
 31
0.0
  0
LINE
  5
   566
  8
0
  6
CONTINUOUS
 62
     7
 10
-655.796528044815
 20
3.72483444213866
 30
0.0
 11
-666.546528044815
 21
3.72483444213866
 31
0.0
  0
LINE
  5
   567
  8
0
  6
CONTINUOUS
 62
     7
 10
-655.796528044815
 20
-16.2751579284668
 30
0.0
 11
-666.546528044815
 21
-16.2751579284668
 31
0.0
  0
LINE
  5
   568
  8
0
  6
CONTINUOUS
 62
     7
 10
-655.796528044815
 20
-16.1429100036621
 30
0.0
 11
-666.546528044815
 21
-16.1429100036621
 31
0.0
  0
LINE
  5
   569
  8
0
  6
DASHDOT
 62
     7
 10
-661.171528044816
 20
-29.0267912387517
 30
0.0
 11
-661.171528044816
 21
14.2010518447727
 31
0.0
  0
LINE
  5
   56A
  8
0
  6
CONTINUOUS
 62
     7
 10
-634.92153567421
 20
-17.6501579284668
 30
0.0
 11
-634.92153567421
 21
-11.6501619050861
 31
0.0
  0
LINE
  5
   56B
  8
0
  6
CONTINUOUS
 62
     7
 10
-634.92153567421
 20
5.5998420715332
 30
0.0
 11
-634.92153567421
 21
24.8498497009277
 31
0.0
  0
LINE
  5
   56C
  8
0
  6
CONTINUOUS
 62
     7
 10
-634.92153567421
 20
-11.150161905086
 30
0.0
 11
-634.92153567421
 21
-1.4001579284668
 31
0.0
  0
LINE
  5
   56D
  8
0
  6
CONTINUOUS
 62
     7
 10
-634.92153567421
 20
-0.900157928466797
 30
0.0
 11
-634.92153567421
 21
5.0998420715332
 31
0.0
  0
LINE
  5
   56E
  8
0
  6
CONTINUOUS
 62
     7
 10
-687.421528044818
 20
-17.6501579284668
 30
0.0
 11
-687.421528044818
 21
-11.6501579284657
 31
0.0
  0
LINE
  5
   56F
  8
0
  6
CONTINUOUS
 62
     7
 10
-687.421528044827
 20
-11.1501579284657
 30
0.0
 11
-687.421528044827
 21
-1.4001579284668
 31
0.0
  0
LINE
  5
   570
  8
0
  6
CONTINUOUS
 62
     7
 10
-687.421528044813
 20
-0.900157928466797
 30
0.0
 11
-687.421528044813
 21
5.0998420715332
 31
0.0
  0
LINE
  5
   571
  8
0
  6
CONTINUOUS
 62
     7
 10
-687.421528044802
 20
5.5998420715332
 30
0.0
 11
-687.421528044802
 21
24.8498497009277
 31
0.0
  0
LINE
  5
   572
  8
0
  6
CONTINUOUS
 62
     7
 10
-666.546532031677
 20
-11.6501579284678
 30
0.0
 11
-686.921528074618
 21
-11.6501579284678
 31
0.0
  0
LINE
  5
   573
  8
0
  6
CONTINUOUS
 62
     7
 10
-634.92153567421
 20
-11.6501426696788
 30
0.0
 11
-635.42153567421
 21
-11.6501426696788
 31
0.0
  0
LINE
  5
   574
  8
0
  6
CONTINUOUS
 62
     7
 10
-666.546541811222
 20
-11.1501579284679
 30
0.0
 11
-686.921528074618
 21
-11.1501579284679
 31
0.0
  0
LINE
  5
   575
  8
0
  6
CONTINUOUS
 62
     7
 10
-634.92153567421
 20
-11.1501426696788
 30
0.0
 11
-635.42153567421
 21
-11.1501426696788
 31
0.0
  0
LINE
  5
   576
  8
0
  6
CONTINUOUS
 62
     7
 10
-686.921528074618
 20
-11.6501579284668
 30
0.0
 11
-686.921528074618
 21
-11.1501579284668
 31
0.0
  0
LINE
  5
   577
  8
0
  6
CONTINUOUS
 62
     7
 10
-635.42153567421
 20
-11.6501579284668
 30
0.0
 11
-635.42153567421
 21
-11.1501579284668
 31
0.0
  0
LINE
  5
   578
  8
0
  6
CONTINUOUS
 62
     7
 10
-634.921528044816
 20
-18.1501579284668
 30
0.0
 11
-635.42153567421
 21
-18.1501579284668
 31
0.0
  0
LINE
  5
   579
  8
0
  6
CONTINUOUS
 62
     7
 10
-634.92153567421
 20
-17.6501579284668
 30
0.0
 11
-635.42153567421
 21
-17.6501579284668
 31
0.0
  0
LINE
  5
   57A
  8
0
  6
CONTINUOUS
 62
     7
 10
-686.921528074618
 20
-18.1501579284668
 30
0.0
 11
-686.921528074618
 21
-17.6501579284668
 31
0.0
  0
LINE
  5
   57B
  8
0
  6
CONTINUOUS
 62
     7
 10
-635.42153567421
 20
-18.1501579284668
 30
0.0
 11
-635.42153567421
 21
-17.6501579284668
 31
0.0
  0
LINE
  5
   57C
  8
0
  6
CONTINUOUS
 62
     7
 10
-634.92153567421
 20
5.0998420715332
 30
0.0
 11
-635.42153567421
 21
5.0998420715332
 31
0.0
  0
LINE
  5
   57D
  8
0
  6
CONTINUOUS
 62
     7
 10
-634.92153567421
 20
5.5998420715332
 30
0.0
 11
-635.42153567421
 21
5.5998420715332
 31
0.0
  0
LINE
  5
   57E
  8
0
  6
CONTINUOUS
 62
     7
 10
-686.921528074618
 20
5.0998420715332
 30
0.0
 11
-686.921528074618
 21
5.5998420715332
 31
0.0
  0
LINE
  5
   57F
  8
0
  6
CONTINUOUS
 62
     7
 10
-635.42153567421
 20
5.0998420715332
 30
0.0
 11
-635.42153567421
 21
5.5998420715332
 31
0.0
  0
LINE
  5
   580
  8
0
  6
CONTINUOUS
 62
     7
 10
-666.546532008524
 20
-1.4001579284668
 30
0.0
 11
-686.921528074618
 21
-1.4001579284668
 31
0.0
  0
LINE
  5
   581
  8
0
  6
CONTINUOUS
 62
     7
 10
-634.92153567421
 20
-1.4001579284668
 30
0.0
 11
-635.42153567421
 21
-1.4001579284668
 31
0.0
  0
LINE
  5
   582
  8
0
  6
CONTINUOUS
 62
     7
 10
-666.546528044815
 20
-0.900157928466804
 30
0.0
 11
-686.921528074618
 21
-0.900157928466804
 31
0.0
  0
LINE
  5
   583
  8
0
  6
CONTINUOUS
 62
     7
 10
-634.92153567421
 20
-0.900157928466804
 30
0.0
 11
-635.42153567421
 21
-0.900157928466804
 31
0.0
  0
LINE
  5
   584
  8
0
  6
CONTINUOUS
 62
     7
 10
-686.921528074618
 20
-1.4001579284668
 30
0.0
 11
-686.921528074618
 21
-0.900157928466797
 31
0.0
  0
LINE
  5
   585
  8
0
  6
CONTINUOUS
 62
     7
 10
-635.42153567421
 20
-1.4001579284668
 30
0.0
 11
-635.42153567421
 21
-0.900157928466797
 31
0.0
  0
ARC
  5
   586
  8
0
  6
CONTINUOUS
 62
     7
 10
-687.171528044815
 20
-27.1501502990723
 30
0.0
 40
0.25
 50
179.999999948034
 51
269.999999948034
  0
ARC
  5
   587
  8
0
  6
CONTINUOUS
 62
     7
 10
-635.171528044815
 20
-27.1501502990723
 30
0.0
 40
0.25
 50
269.999999948034
 51
359.999999948034
  0
ARC
  5
   588
  8
0
  6
CONTINUOUS
 62
     7
 10
-635.171528044815
 20
24.8498497009277
 30
0.0
 40
0.25
 50
359.999999948034
 51
449.999999948034
  0
ARC
  5
   589
  8
0
  6
CONTINUOUS
 62
     7
 10
-687.171528044802
 20
24.8498497009277
 30
0.0
 40
0.25
 50
449.999999948034
 51
539.999999948034
  0
INSERT
  5
   58A
  8
255
  6
CONTINUOUS
 62
     7
  2
ON-OFF
 10
-651.171532927628
 20
2.09984207153321
 30
0.0
 41
0.5
 42
0.5
 50
359.999999792137
 43
0.5
  0
LINE
  5
   58B
  8
0
  6
CONTINUOUS
 62
     7
 10
-672.421528044816
 20
4.3498420715332
 30
0.0
 11
-673.171528044816
 21
4.3498420715332
 31
0.0
  0
LINE
  5
   58C
  8
0
  6
CONTINUOUS
 62
     7
 10
-672.421528044816
 20
-0.150157928466804
 30
0.0
 11
-673.171528044816
 21
-0.150157928466804
 31
0.0
  0
CIRCLE
  5
   58D
  8
0
  6
CONTINUOUS
 62
     7
 10
-672.796528044815
 20
-14.6501579284668
 30
0.0
 40
2.25
  0
CIRCLE
  5
   58E
  8
0
  6
CONTINUOUS
 62
     7
 10
-672.796528044815
 20
-14.6501579284668
 30
0.0
 40
1.5
  0
LINE
  5
   58F
  8
0
  6
CONTINUOUS
 62
     7
 10
-673.171528044816
 20
-0.150157928466797
 30
0.0
 11
-673.171528044816
 21
4.3498420715332
 31
0.0
  0
LINE
  5
   590
  8
0
  6
CONTINUOUS
 62
     7
 10
-672.421528044816
 20
-0.150157928466797
 30
0.0
 11
-672.421528044816
 21
4.3498420715332
 31
0.0
  0
LINE
  5
   591
  8
0
  6
CONTINUOUS
 62
     7
 10
-667.921528044815
 20
-17.6501579284668
 30
0.0
 11
-667.921528044815
 21
-11.650150783884
 31
0.0
  0
LINE
  5
   592
  8
0
  6
CONTINUOUS
 62
     7
 10
-654.421528044816
 20
-17.6501579284668
 30
0.0
 11
-654.421528044816
 21
-11.6501547605072
 31
0.0
  0
LINE
  5
   593
  8
0
  6
CONTINUOUS
 62
     7
 10
-654.421528044816
 20
-0.900157928466797
 30
0.0
 11
-654.421528044816
 21
5.0998420715332
 31
0.0
  0
LINE
  5
   594
  8
0
  6
CONTINUOUS
 62
     7
 10
-667.921528044815
 20
-0.900157928466797
 30
0.0
 11
-667.921528044815
 21
5.0998420715332
 31
0.0
  0
LINE
  5
   595
  8
0
  6
DASHDOT
 62
     7
 10
-661.171562490582
 20
44.7242978642501
 30
0.0
 11
-661.171562490582
 21
60.2248105836527
 31
0.0
  0
LINE
  5
   596
  8
0
  6
DASHDOT
 62
     7
 10
-669.921545160763
 20
43.849855717118
 30
0.0
 11
-669.921545160763
 21
59.0998173117528
 31
0.0
  0
LINE
  5
   597
  8
0
  6
DASHDOT
 62
     7
 10
-678.671591124722
 20
44.7241409988567
 30
0.0
 11
-678.671591124722
 21
60.2248001121676
 31
0.0
  0
LINE
  5
   598
  8
0
  6
DASHDOT
 62
     7
 10
-670.921261568066
 20
52.4744705555122
 30
0.0
 11
-686.421920681377
 21
52.4744705555122
 31
0.0
  0
LINE
  5
   599
  8
0
  6
DASHDOT
 62
     7
 10
-678.671539260686
 20
53.7748184408211
 30
0.0
 11
-678.671539260686
 21
65.1748181655609
 31
0.0
  0
LINE
  5
   59A
  8
0
  6
DASHDOT
 62
     7
 10
-672.971539398316
 20
59.474818303191
 30
0.0
 11
-684.371539123056
 21
59.474818303191
 31
0.0
  0
LINE
  5
   59B
  8
0
  6
CONTINUOUS
 62
     7
 10
-655.796528044815
 20
-11.6855147507464
 30
0.0
 11
-666.546528044815
 21
-11.6855147507464
 31
0.0
  0
LINE
  5
   59C
  8
0
  6
CONTINUOUS
 62
     7
 10
-655.796528044815
 20
-15.6459909277944
 30
0.0
 11
-666.546528044815
 21
-15.6459909277944
 31
0.0
  0
LINE
  5
   59D
  8
0
  6
CONTINUOUS
 62
     7
 10
-655.796528044815
 20
-11.6855151014735
 30
0.0
 11
-666.546528044815
 21
-11.6855151014735
 31
0.0
  0
LINE
  5
   59E
  8
0
  6
CONTINUOUS
 62
     7
 10
-655.796528044815
 20
-9.21245451350165
 30
0.0
 11
-666.546528044815
 21
-9.21245451350165
 31
0.0
  0
LINE
  5
   59F
  8
0
  6
CONTINUOUS
 62
     7
 10
-686.671556599612
 20
39.0998497009277
 30
0.0
 11
-686.67155862894
 21
46.7248344421386
 31
0.0
  0
LINE
  5
   5A0
  8
0
  6
CONTINUOUS
 62
     3
 10
-668.671528044815
 20
-62.2751502990723
 30
0.0
 11
-671.171528044816
 21
-62.2751502990723
 31
0.0
  0
LINE
  5
   5A1
  8
0
  6
CONTINUOUS
 62
     7
 10
-686.921528074618
 20
5.5998420715332
 30
0.0
 11
-687.421528044802
 21
5.5998420715332
 31
0.0
  0
LINE
  5
   5A2
  8
0
  6
CONTINUOUS
 62
     7
 10
-686.921528074618
 20
5.0998420715332
 30
0.0
 11
-687.421528044813
 21
5.0998420715332
 31
0.0
  0
LINE
  5
   5A3
  8
0
  6
CONTINUOUS
 62
     7
 10
-686.921528074618
 20
-0.900157928466804
 30
0.0
 11
-687.421528044813
 21
-0.900157928466804
 31
0.0
  0
LINE
  5
   5A4
  8
0
  6
CONTINUOUS
 62
     7
 10
-686.921528074618
 20
-1.4001579284668
 30
0.0
 11
-687.421528044827
 21
-1.4001579284668
 31
0.0
  0
LINE
  5
   5A5
  8
0
  6
CONTINUOUS
 62
     7
 10
-686.921528074618
 20
-11.1501579284679
 30
0.0
 11
-687.421528044827
 21
-11.1501579284679
 31
0.0
  0
LINE
  5
   5A6
  8
0
  6
CONTINUOUS
 62
     7
 10
-686.921528074618
 20
-11.6501579284678
 30
0.0
 11
-687.421528044818
 21
-11.6501579284678
 31
0.0
  0
LINE
  5
   5A7
  8
0
  6
CONTINUOUS
 62
     7
 10
-686.921528074618
 20
-17.6501579284668
 30
0.0
 11
-687.421528044818
 21
-17.6501579284668
 31
0.0
  0
LINE
  5
   5A8
  8
0
  6
CONTINUOUS
 62
     7
 10
-686.921528074618
 20
-18.1501579284668
 30
0.0
 11
-687.421528044815
 21
-18.1501579284668
 31
0.0
  0
LINE
  5
   5A9
  8
0
  6
CONTINUOUS
 62
     7
 10
-635.42153567421
 20
-17.6501579284668
 30
0.0
 11
-686.921528074618
 21
-17.6501579284668
 31
0.0
  0
LINE
  5
   5AA
  8
0
  6
CONTINUOUS
 62
     7
 10
-635.42153567421
 20
-18.1501579284668
 30
0.0
 11
-686.921528074618
 21
-18.1501579284668
 31
0.0
  0
LINE
  5
   5AB
  8
0
  6
CONTINUOUS
 62
     7
 10
-635.42153567421
 20
-11.1501426696788
 30
0.0
 11
-655.796529537195
 21
-11.1501426696788
 31
0.0
  0
LINE
  5
   5AC
  8
0
  6
CONTINUOUS
 62
     7
 10
-635.42153567421
 20
-11.6501426696788
 30
0.0
 11
-655.796529720389
 21
-11.6501426696788
 31
0.0
  0
LINE
  5
   5AD
  8
0
  6
CONTINUOUS
 62
     7
 10
-635.42153567421
 20
-0.900157928466804
 30
0.0
 11
-655.796528044815
 21
-0.900157928466804
 31
0.0
  0
LINE
  5
   5AE
  8
0
  6
CONTINUOUS
 62
     7
 10
-635.42153567421
 20
-1.4001579284668
 30
0.0
 11
-655.796528044815
 21
-1.4001579284668
 31
0.0
  0
LINE
  5
   5AF
  8
0
  6
CONTINUOUS
 62
     7
 10
-635.42153567421
 20
5.5998420715332
 30
0.0
 11
-686.921528074618
 21
5.5998420715332
 31
0.0
  0
LINE
  5
   5B0
  8
0
  6
CONTINUOUS
 62
     7
 10
-635.42153567421
 20
5.0998420715332
 30
0.0
 11
-686.921528074618
 21
5.0998420715332
 31
0.0
  0
LINE
  5
   5B1
  8
0
  6
CONTINUOUS
 62
     7
 10
-686.17154125827
 20
60.0748176574707
 30
0.0
 11
-686.171541842645
 21
60.97481058002
 31
0.0
  0
LINE
  5
   5B2
  8
0
  6
CONTINUOUS
 62
     7
 10
-668.671528044815
 20
58.2247886657715
 30
0.0
 11
-671.171528044816
 21
58.2247886657715
 31
0.0
  0
LINE
  5
   5B3
  8
0
  6
CONTINUOUS
 62
     7
 10
-671.171528044816
 20
58.2247886657715
 30
0.0
 11
-671.171528044816
 21
59.9747887849808
 31
0.0
  0
LINE
  5
   5B4
  8
0
  6
CONTINUOUS
 62
     7
 10
-670.796528044815
 20
59.9747886657715
 30
0.0
 11
-671.171528044816
 21
59.9747886657715
 31
0.0
  0
LINE
  5
   5B5
  8
0
  6
CONTINUOUS
 62
     7
 10
-670.796528044815
 20
59.9747886657712
 30
0.0
 11
-670.796528044815
 21
61.4747886657712
 31
0.0
  0
LINE
  5
   5B6
  8
0
  6
CONTINUOUS
 62
     7
 10
-669.046528044816
 20
59.9747886657712
 30
0.0
 11
-669.046528044816
 21
61.4747886657712
 31
0.0
  0
LINE
  5
   5B7
  8
0
  6
CONTINUOUS
 62
     7
 10
-668.671528044815
 20
59.9747886657715
 30
0.0
 11
-669.046528044816
 21
59.9747886657715
 31
0.0
  0
LINE
  5
   5B8
  8
0
  6
CONTINUOUS
 62
     7
 10
-668.671528044815
 20
58.2247886657715
 30
0.0
 11
-668.671528044815
 21
59.9747886657715
 31
0.0
  0
LINE
  5
   5B9
  8
0
  6
DASHDOT
 62
     7
 10
-629.936447998826
 20
-1.15015029907228
 30
0.0
 11
-704.745981541747
 21
-1.15015029907228
 31
0.0
  0
LINE
  5
   5BA
  8
0
  6
DASHDOT
 62
     7
 10
-723.345177997022
 20
-1.15015029907228
 30
0.0
 11
-730.069502869314
 21
-1.15015029907228
 31
0.0
  0
INSERT
  5
   5BB
  8
255
  6
CONTINUOUS
 62
     7
  2
COPRITERMINALI
 10
-661.171580400326
 20
62.7248191833496
 30
0.0
 41
0.5
 42
0.5
 50
3.50835464724173E-15
 43
0.5
  0
LINE
  5
   5BC
  8
0
  6
CONTINUOUS
 62
     7
 10
-667.903102456861
 20
61.4747886657712
 30
0.0
 11
-669.046528044816
 21
61.4747886657712
 31
0.0
  0
LINE
  5
   5BD
  8
0
  6
CONTINUOUS
 62
     1
 10
-669.474670043087
 20
112.724867901198
 30
0.0
 11
-670.368420253556
 21
112.724867901198
 31
0.0
  0
LINE
  5
   5BE
  8
0
  6
CONTINUOUS
 62
     1
 10
-667.171545160763
 20
61.4747886657712
 30
0.0
 11
-667.171545160763
 21
64.2247886657712
 31
0.0
  0
LINE
  5
   5BF
  8
0
  6
CONTINUOUS
 62
     1
 10
-670.671545160763
 20
64.2247886657712
 30
0.0
 11
-672.671545160763
 21
64.2247886657712
 31
0.0
  0
LINE
  5
   5C0
  8
0
  6
CONTINUOUS
 62
     1
 10
-667.171545160763
 20
64.2247886657712
 30
0.0
 11
-669.171545160763
 21
64.2247886657712
 31
0.0
  0
LINE
  5
   5C1
  8
0
  6
CONTINUOUS
 62
     1
 10
-672.671545160763
 20
61.4747886657712
 30
0.0
 11
-672.671545160763
 21
64.2247886657712
 31
0.0
  0
LINE
  5
   5C2
  8
0
  6
CONTINUOUS
 62
     1
 10
-667.171545160763
 20
62.7247886657712
 30
0.0
 11
-672.671545160763
 21
62.7247886657712
 31
0.0
  0
LINE
  5
   5C3
  8
0
  6
CONTINUOUS
 62
     1
 10
-670.671545160763
 20
60.0747884511945
 30
0.0
 11
-671.046545160763
 21
60.0747884511945
 31
0.0
  0
LINE
  5
   5C4
  8
0
  6
CONTINUOUS
 62
     1
 10
-671.046545160763
 20
58.4747884273526
 30
0.0
 11
-671.046545160763
 21
60.0747884511945
 31
0.0
  0
LINE
  5
   5C5
  8
0
  6
CONTINUOUS
 62
     1
 10
-668.796545160763
 20
58.4747884273526
 30
0.0
 11
-671.046545160763
 21
58.4747884273526
 31
0.0
  0
LINE
  5
   5C6
  8
0
  6
CONTINUOUS
 62
     1
 10
-668.796545160763
 20
58.4747884273526
 30
0.0
 11
-668.796545160763
 21
60.0747884511945
 31
0.0
  0
LINE
  5
   5C7
  8
0
  6
CONTINUOUS
 62
     1
 10
-668.796545160763
 20
60.0747884511945
 30
0.0
 11
-669.171545160763
 21
60.0747884511945
 31
0.0
  0
LINE
  5
   5C8
  8
0
  6
CONTINUOUS
 62
     1
 10
-669.171545160763
 20
60.0747883319852
 30
0.0
 11
-669.171545160763
 21
62.7247884273526
 31
0.0
  0
LINE
  5
   5C9
  8
0
  6
CONTINUOUS
 62
     1
 10
-670.671545160763
 20
60.0747884511945
 30
0.0
 11
-670.671545160763
 21
62.7247884273526
 31
0.0
  0
LINE
  5
   5CA
  8
0
  6
CONTINUOUS
 62
     1
 10
-670.671545160763
 20
59.5747884511945
 30
0.0
 11
-670.671545160763
 21
60.0747884511945
 31
0.0
  0
LINE
  5
   5CB
  8
0
  6
CONTINUOUS
 62
     1
 10
-669.171545160763
 20
59.5747884511945
 30
0.0
 11
-669.171545160763
 21
60.0747884511945
 31
0.0
  0
LINE
  5
   5CC
  8
0
  6
CONTINUOUS
 62
     1
 10
-670.671545160763
 20
59.5747884511945
 30
0.0
 11
-671.046545160763
 21
59.5747884511945
 31
0.0
  0
LINE
  5
   5CD
  8
0
  6
CONTINUOUS
 62
     1
 10
-668.796545160763
 20
59.5747884511945
 30
0.0
 11
-669.171545160763
 21
59.5747884511945
 31
0.0
  0
LINE
  5
   5CE
  8
0
  6
CONTINUOUS
 62
     1
 10
-667.171545160763
 20
63.2247886657712
 30
0.0
 11
-672.671545160763
 21
63.2247886657712
 31
0.0
  0
LINE
  5
   5CF
  8
0
  6
CONTINUOUS
 62
     1
 10
-667.171545160763
 20
61.4747886657712
 30
0.0
 11
-669.171545160763
 21
61.4747886657712
 31
0.0
  0
LINE
  5
   5D0
  8
0
  6
CONTINUOUS
 62
     1
 10
-670.671545160763
 20
61.4747886657712
 30
0.0
 11
-672.671545160763
 21
61.4747886657712
 31
0.0
  0
LINE
  5
   5D1
  8
0
  6
CONTINUOUS
 62
     1
 10
-669.171545160763
 20
64.2247886657712
 30
0.0
 11
-669.474670043087
 21
112.724867901198
 31
0.0
  0
LINE
  5
   5D2
  8
0
  6
CONTINUOUS
 62
     1
 10
-670.671545160763
 20
64.2247886657712
 30
0.0
 11
-670.368420253556
 21
112.724867901198
 31
0.0
  0
LINE
  5
   5D3
  8
0
  6
CONTINUOUS
 62
     1
 10
-651.671545160763
 20
64.2247886657712
 30
0.0
 11
-651.974670043087
 21
112.724867901198
 31
0.0
  0
LINE
  5
   5D4
  8
0
  6
CONTINUOUS
 62
     1
 10
-653.171545160763
 20
64.2247886657712
 30
0.0
 11
-652.868420253556
 21
112.724867901198
 31
0.0
  0
LINE
  5
   5D5
  8
0
  6
CONTINUOUS
 62
     1
 10
-651.974670043087
 20
112.724867901198
 30
0.0
 11
-652.868420253556
 21
112.724867901198
 31
0.0
  0
LINE
  5
   5D6
  8
0
  6
CONTINUOUS
 62
     1
 10
-649.671545160763
 20
64.2247886657712
 30
0.0
 11
-651.671545160763
 21
64.2247886657712
 31
0.0
  0
LINE
  5
   5D7
  8
0
  6
CONTINUOUS
 62
     1
 10
-653.171545160763
 20
64.2247886657712
 30
0.0
 11
-655.171545160763
 21
64.2247886657712
 31
0.0
  0
LINE
  5
   5D8
  8
0
  6
CONTINUOUS
 62
     1
 10
-649.671545160763
 20
63.2247886657712
 30
0.0
 11
-655.171545160763
 21
63.2247886657712
 31
0.0
  0
LINE
  5
   5D9
  8
0
  6
CONTINUOUS
 62
     1
 10
-649.671545160763
 20
62.7248191833496
 30
0.0
 11
-649.671545160763
 21
64.2247886657712
 31
0.0
  0
LINE
  5
   5DA
  8
0
  6
CONTINUOUS
 62
     1
 10
-655.171545160763
 20
62.7248191833496
 30
0.0
 11
-655.171545160763
 21
64.2247886657712
 31
0.0
  0
LINE
  5
   5DB
  8
0
  6
DASHDOT
 62
     7
 10
-661.171570685702
 20
92.0268539869526
 30
0.0
 11
-661.171574868463
 21
107.743138494724
 31
0.0
  0
LINE
  5
   5DC
  8
0
  6
CONTINUOUS
 62
     3
 10
-637.92152994408
 20
-66.7752063968951
 30
0.0
 11
-684.42152994408
 21
-66.7752063968951
 31
0.0
  0
LINE
  5
   5DD
  8
0
  6
CONTINUOUS
 62
     7
 10
-684.42152994408
 20
-66.7752063968951
 30
0.0
 11
-684.42152994408
 21
-65.5251502990718
 31
0.0
  0
INSERT
  5
   5DE
  8
255
  6
CONTINUOUS
 62
     7
  2
$2MOSTRINA
 10
-718.590656462784
 20
-56.1404609680176
 30
0.0
 41
0.5
 42
0.5
 50
3.50835464724173E-15
 43
0.5
  0
INSERT
  5
   5DF
  8
0
  6
CONTINUOUS
 62
     7
  2
*UDIM173
 10
0.0
 20
0.0
 30
0.0
  0
LINE
  5
   5E0
  8
0
  6
CONTINUOUS
 62
     1
 10
-670.368420253556
 20
-116.775255114743
 30
0.0
 11
-670.671545160763
 21
-68.2751758793167
 31
0.0
  0
LINE
  5
   5E1
  8
0
  6
CONTINUOUS
 62
     1
 10
-669.474670043087
 20
-116.775255114743
 30
0.0
 11
-670.368420253556
 21
-116.775255114743
 31
0.0
  0
LINE
  5
   5E2
  8
0
  6
CONTINUOUS
 62
     1
 10
-669.474670043087
 20
-116.775255114743
 30
0.0
 11
-669.171545160763
 21
-68.2751758793167
 31
0.0
  0
LINE
  5
   5E3
  8
0
  6
CONTINUOUS
 62
     1
 10
-652.868420253556
 20
-116.775255114743
 30
0.0
 11
-653.171545160763
 21
-68.2751758793167
 31
0.0
  0
LINE
  5
   5E4
  8
0
  6
CONTINUOUS
 62
     1
 10
-651.974670043087
 20
-116.775255114743
 30
0.0
 11
-652.868420253556
 21
-116.775255114743
 31
0.0
  0
LINE
  5
   5E5
  8
0
  6
CONTINUOUS
 62
     1
 10
-651.974670043087
 20
-116.775255114743
 30
0.0
 11
-651.671545160763
 21
-68.2751758793167
 31
0.0
  0
LINE
  5
   5E6
  8
0
  6
CONTINUOUS
 62
     1
 10
-670.671545160763
 20
-68.2751758793167
 30
0.0
 11
-672.671545160763
 21
-68.2751758793167
 31
0.0
  0
LINE
  5
   5E7
  8
0
  6
CONTINUOUS
 62
     1
 10
-667.171545160763
 20
-68.2751758793167
 30
0.0
 11
-669.171545160763
 21
-68.2751758793167
 31
0.0
  0
LINE
  5
   5E8
  8
0
  6
CONTINUOUS
 62
     1
 10
-667.171545160763
 20
-68.2751758793167
 30
0.0
 11
-667.171545160763
 21
-65.5251758793167
 31
0.0
  0
LINE
  5
   5E9
  8
0
  6
CONTINUOUS
 62
     1
 10
-672.671545160763
 20
-68.2751758793167
 30
0.0
 11
-672.671545160763
 21
-65.5251758793167
 31
0.0
  0
LINE
  5
   5EA
  8
0
  6
CONTINUOUS
 62
     1
 10
-667.171545160763
 20
-67.2751758793167
 30
0.0
 11
-672.671545160763
 21
-67.2751758793167
 31
0.0
  0
LINE
  5
   5EB
  8
0
  6
CONTINUOUS
 62
     1
 10
-667.171545160763
 20
-66.7751758793167
 30
0.0
 11
-672.671545160763
 21
-66.7751758793167
 31
0.0
  0
LINE
  5
   5EC
  8
0
  6
CONTINUOUS
 62
     1
 10
-672.671545160763
 20
-68.2751758793167
 30
0.0
 11
-672.671545160763
 21
-65.5251758793167
 31
0.0
  0
LINE
  5
   5ED
  8
0
  6
CONTINUOUS
 62
     1
 10
-670.671545160763
 20
-65.5251758793167
 30
0.0
 11
-672.671545160763
 21
-65.5251758793167
 31
0.0
  0
LINE
  5
   5EE
  8
0
  6
CONTINUOUS
 62
     1
 10
-667.903102456861
 20
-65.5251758793167
 30
0.0
 11
-669.171545160763
 21
-65.5251758793167
 31
0.0
  0
LINE
  5
   5EF
  8
0
  6
CONTINUOUS
 62
     1
 10
-667.171545160763
 20
-68.2751758793167
 30
0.0
 11
-667.171545160763
 21
-66.7752063968951
 31
0.0
  0
LINE
  5
   5F0
  8
0
  6
CONTINUOUS
 62
     1
 10
-669.171545160763
 20
-66.7751756408981
 30
0.0
 11
-669.171545160763
 21
-63.62517566474
 31
0.0
  0
LINE
  5
   5F1
  8
0
  6
CONTINUOUS
 62
     1
 10
-670.671545160763
 20
-66.7751756408981
 30
0.0
 11
-670.671545160763
 21
-63.62517566474
 31
0.0
  0
LINE
  5
   5F2
  8
0
  6
CONTINUOUS
 62
     1
 10
-670.671545160763
 20
-63.62517566474
 30
0.0
 11
-671.046545160763
 21
-63.62517566474
 31
0.0
  0
LINE
  5
   5F3
  8
0
  6
CONTINUOUS
 62
     1
 10
-668.796545160763
 20
-63.62517566474
 30
0.0
 11
-669.171545160763
 21
-63.62517566474
 31
0.0
  0
LINE
  5
   5F4
  8
0
  6
CONTINUOUS
 62
     1
 10
-668.796545160763
 20
-64.0251502990723
 30
0.0
 11
-668.796545160763
 21
-62.5251756408981
 31
0.0
  0
LINE
  5
   5F5
  8
0
  6
CONTINUOUS
 62
     1
 10
-668.796545160763
 20
-62.5251756408981
 30
0.0
 11
-671.046545160763
 21
-62.5251756408981
 31
0.0
  0
LINE
  5
   5F6
  8
0
  6
CONTINUOUS
 62
     1
 10
-671.046545160763
 20
-64.0251502990723
 30
0.0
 11
-671.046545160763
 21
-62.5251756408981
 31
0.0
  0
LINE
  5
   5F7
  8
0
  6
CONTINUOUS
 62
     1
 10
-653.171545160763
 20
-68.2751758793167
 30
0.0
 11
-655.171545160763
 21
-68.2751758793167
 31
0.0
  0
LINE
  5
   5F8
  8
0
  6
CONTINUOUS
 62
     1
 10
-655.171545160763
 20
-68.2751758793167
 30
0.0
 11
-655.171545160763
 21
-66.7752063968951
 31
0.0
  0
LINE
  5
   5F9
  8
0
  6
CONTINUOUS
 62
     1
 10
-649.671545160763
 20
-67.2751758793167
 30
0.0
 11
-655.171545160763
 21
-67.2751758793167
 31
0.0
  0
LINE
  5
   5FA
  8
0
  6
CONTINUOUS
 62
     1
 10
-649.671545160763
 20
-68.2751758793167
 30
0.0
 11
-649.671545160763
 21
-66.7752063968951
 31
0.0
  0
LINE
  5
   5FB
  8
0
  6
CONTINUOUS
 62
     1
 10
-649.671545160763
 20
-68.2751758793167
 30
0.0
 11
-651.671545160763
 21
-68.2751758793167
 31
0.0
  0
INSERT
  5
   5FC
  8
255
  6
CONTINUOUS
 62
     7
  2
COPRITERMINALI
 10
-661.171580400326
 20
-66.7752063968951
 30
0.0
 41
0.5
 42
-0.5
 50
1.03931142803049E-7
 43
0.5
  0
ARC
  5
   5FD
  8
0
  6
CONTINUOUS
 62
     7
 10
-669.921527371372
 20
-55.5251415373816
 30
0.0
 40
2.62499149271879
 50
184.358529759913
 51
241.56299252681
  0
LINE
  5
   5FE
  8
0
  6
CONTINUOUS
 62
     7
 10
-670.611361055079
 20
-58.7751502990723
 30
0.0
 11
-671.171528044816
 21
-58.7751502990723
 31
0.0
  0
INSERT
  5
   5FF
  8
0
  6
CONTINUOUS
 62
     7
  2
*UDIM174
 10
0.0
 20
0.0
 30
0.0
  0
INSERT
  5
   600
  8
0
  6
CONTINUOUS
 62
     7
  2
*UDIM175
 10
0.0
 20
0.0
 30
0.0
  0
INSERT
  5
   601
  8
0
  6
CONTINUOUS
 62
     7
  2
*UDIM176
 10
0.0
 20
0.0
 30
0.0
  0
INSERT
  5
   602
  8
0
  6
CONTINUOUS
 62
     7
  2
*UDIM177
 10
0.0
 20
0.0
 30
0.0
  0
TEXT
  5
   603
  8
0
  6
CONTINUOUS
 62
     7
 10
-662.19357672469
 20
-102.520545714401
 30
0.0
 40
3.00000002980232
  1
Y
 50
359.999999948034
 41
0.916666604744064
 72
     1
 11
-661.093576788902
 21
-101.020545700492
 31
0.0
 73
     2
  0
TEXT
  5
   604
  8
0
  6
CONTINUOUS
 62
     7
 10
-611.762405407712
 20
-14.8992789445992
 30
0.0
 40
3.00000002980232
  1
=        =
 50
89.9999999480344
 41
0.916666604744064
 72
     2
 11
-611.762405383303
 21
12.0507194982294
 31
0.0
  0
INSERT
  5
   605
  8
0
  6
CONTINUOUS
 62
     7
  2
*UDIM178
 10
0.0
 20
0.0
 30
0.0
  0
INSERT
  5
   606
  8
0
  6
CONTINUOUS
 62
     7
  2
*UDIM179
 10
0.0
 20
0.0
 30
0.0
  0
INSERT
  5
   607
  8
0
  6
CONTINUOUS
 62
     7
  2
*UDIM180
 10
0.0
 20
0.0
 30
0.0
  0
INSERT
  5
   608
  8
0
  6
CONTINUOUS
 62
     7
  2
*UDIM181
 10
0.0
 20
0.0
 30
0.0
  0
INSERT
  5
   609
  8
0
  6
CONTINUOUS
 62
     5
  2
*UDIM182
 10
0.0
 20
0.0
 30
0.0
  0
TEXT
  5
   60A
  8
0
  6
CONTINUOUS
 62
     7
 10
-598.200416476887
 20
-2.30969595243771
 30
0.0
 40
3.00000002980232
  1
X
 50
359.999999948034
 41
0.916666604744064
 72
     1
 11
-597.100416541099
 21
-0.809695938528691
 31
0.0
 73
     2
  0
TEXT
  5
   60B
  8
0
  6
CONTINUOUS
 62
     7
 10
-732.883758456868
 20
-2.97618459989865
 30
0.0
 40
3.00000002980232
  1
X
 50
359.999999948034
 41
0.916666604744064
 72
     1
 11
-731.78375852108
 21
-1.47618458598963
 31
0.0
 73
     2
  0
TEXT
  5
   60C
  8
0
  6
CONTINUOUS
 62
     7
 10
-662.783912570637
 20
86.0757868356482
 30
0.0
 40
3.00000002980232
  1
Y
 50
359.999999948034
 41
0.916666604744064
 72
     1
 11
-661.683912634849
 21
87.5757868495572
 31
0.0
 73
     2
  0
INSERT
  5
   60D
  8
0
  6
CONTINUOUS
 62
     7
  2
*UDIM183
 10
0.0
 20
0.0
 30
0.0
  0
LINE
  5
   60E
  8
0
  6
DASHDOT
 62
     3
 10
-590.369201660156
 20
-117.022725216481
 30
0.0
 11
-590.369201660156
 21
-184.369130042286
 31
0.0
  0
LINE
  5
   60F
  8
0
  6
DASHDOT
 62
     3
 10
-578.426664066437
 20
-123.837371826172
 30
0.0
 11
-602.720870062593
 21
-123.837371826172
 31
0.0
  0
LINE
  5
   610
  8
0
  6
DASHDOT
 62
     3
 10
-577.927319349804
 20
-177.337371826172
 30
0.0
 11
-601.874155108303
 21
-177.337371826172
 31
0.0
  0
LINE
  5
   611
  8
0
  6
CONTINUOUS
 62
     7
 10
-576.619201660156
 20
-117.804320339991
 30
0.0
 11
-576.619201660156
 21
-183.934929333996
 31
0.0
  0
LINE
  5
   612
  8
0
  6
CONTINUOUS
 62
     7
 10
-604.119201660156
 20
-117.522082021895
 30
0.0
 11
-604.119201660156
 21
-183.370452697803
 31
0.0
  0
LINE
  5
   613
  8
0
  6
CONTINUOUS
 62
     7
 10
-575.604280885471
 20
-182.337371826172
 30
0.0
 11
-606.28141499858
 21
-182.337371826172
 31
0.0
  0
LINE
  5
   614
  8
0
  6
CONTINUOUS
 62
     7
 10
-574.757565931182
 20
-118.837371826172
 30
0.0
 11
-605.847202201508
 21
-118.837371826172
 31
0.0
  0
CIRCLE
  5
   615
  8
0
  6
CONTINUOUS
 62
     7
 10
-594.744201660156
 20
-123.837371826172
 30
0.0
 40
0.6875
  0
CIRCLE
  5
   616
  8
0
  6
CONTINUOUS
 62
     7
 10
-585.994201660156
 20
-123.837371826172
 30
0.0
 40
0.6875
  0
CIRCLE
  5
   617
  8
0
  6
CONTINUOUS
 62
     7
 10
-594.744201660156
 20
-177.337371826172
 30
0.0
 40
0.6875
  0
CIRCLE
  5
   618
  8
0
  6
CONTINUOUS
 62
     7
 10
-585.994201660156
 20
-177.337371826172
 30
0.0
 40
0.6875
  0
LINE
  5
   619
  8
0
  6
DASHDOT
 62
     3
 10
-594.744201660156
 20
-117.022725216481
 30
0.0
 11
-594.744201660156
 21
-180.438895674987
 31
0.0
  0
LINE
  5
   61A
  8
0
  6
DASHDOT
 62
     3
 10
-585.994201660156
 20
-117.022725216481
 30
0.0
 11
-585.994201660156
 21
-180.166434483326
 31
0.0
  0
LINE
  5
   61B
  8
0
  6
DASHDOT
 62
     3
 10
-569.70491127116
 20
-150.149871826172
 30
0.0
 11
-615.91676092542
 21
-150.149871826172
 31
0.0
  0
TEXT
  5
   61C
  8
0
  6
CONTINUOUS
 62
     1
 10
-535.37975978343
 20
-246.413681033304
 30
0.0
 40
2.00000008940697
  1
3POLE LOW VOLTAGE M.C.C.B SERIES ISOMAX
 50
359.999999896069
 41
0.593749948963525
 72
     1
 11
-512.342260740697
 21
-245.413681030273
 31
0.0
 73
     2
  0
TEXT
  5
   61D
  8
0
  6
CONTINUOUS
 62
     1
 10
-529.442260028368
 20
-249.413681044044
 30
0.0
 40
2.00000008940697
  1
FIXED VERSION FRONT TERMINALS
 50
359.999999896069
 41
0.593749948963525
 72
     1
 11
-512.342260740697
 21
-248.413681030273
 31
0.0
 73
     2
  0
TEXT
  5
   61E
  8
0
  6
CONTINUOUS
 62
     1
 10
-536.396119014679
 20
-254.48394776155
 30
0.0
 40
2.00000008940697
  1
INTERR.AUTOMATICO SERIE ISOMAX
 50
359.999999896069
 41
0.687499997764826
 72
     1
 11
-515.908618167043
 21
-253.483947753906
 31
0.0
 73
     2
  0
TEXT
  5
   61F
  8
0
  6
CONTINUOUS
 62
     1
 10
-541.896119242667
 20
-257.483947751601
 30
0.0
 40
2.00000008940697
  1
TRIPOL.ESECUZIONE FISSA TERMINALI ANT.
 50
359.999999896069
 41
0.687499997764826
 72
     1
 11
-515.908618167043
 21
-256.483947753906
 31
0.0
 73
     2
  0
TEXT
  5
   620
  8
0
  6
CONTINUOUS
 62
     1
 10
-512.939086916776
 20
-264.723953257472
 30
0.0
 40
3.00000002980232
  1
S4 1000V
 50
359.999999896069
 41
0.916666604744064
 72
     2
 11
-491.489088157049
 21
-264.723953296273
 31
0.0
  0
TEXT
  5
   621
  8
0
  6
CONTINUOUS
 62
     1
 10
-531.024780277055
 20
-273.705536034247
 30
0.0
 40
4.00000017881393
  1
RH0035/031
 50
359.999999896069
 41
0.937499973922969
 72
     2
 11
-494.274779677284
 21
-273.705536100725
 31
0.0
  0
INSERT
  5
   622
  8
0
  6
CONTINUOUS
 62
     5
  2
*UDIM184
 10
0.0
 20
0.0
 30
0.0
  0
TEXT
  5
   623
  8
0
  6
CONTINUOUS
 62
     7
 10
-581.502342226835
 20
-149.097396878398
 30
0.0
 40
3.00000002980232
  1
=
 50
359.999999896069
 41
0.916666604744064
 72
     2
 11
-579.302342357965
 21
-149.097396882378
 31
0.0
  0
TEXT
  5
   624
  8
0
  6
CONTINUOUS
 62
     7
 10
-598.398845675321
 20
-149.097396878398
 30
0.0
 40
3.00000002980232
  1
=
 50
359.999999896069
 41
0.916666604744064
 72
     2
 11
-596.198845806451
 21
-149.097396882378
 31
0.0
  0
TEXT
  5
   625
  8
0
  6
CONTINUOUS
 62
     7
 10
-591.536357238625
 20
-116.247500335377
 30
0.0
 40
3.00000002980232
  1
Y
 50
359.999999896069
 41
0.916666604744064
 72
     2
 11
-589.336357369756
 21
-116.247500339357
 31
0.0
  0
INSERT
  5
   626
  8
0
  6
CONTINUOUS
 62
     7
  2
*UDIM185
 10
0.0
 20
0.0
 30
0.0
  0
INSERT
  5
   627
  8
0
  6
CONTINUOUS
 62
     7
  2
*UDIM186
 10
0.0
 20
0.0
 30
0.0
  0
INSERT
  5
   628
  8
0
  6
CONTINUOUS
 62
     7
  2
*UDIM187
 10
0.0
 20
0.0
 30
0.0
  0
TEXT
  5
   629
  8
0
  6
CONTINUOUS
 62
     7
 10
-628.339424136014
 20
-152.024208573497
 30
0.0
 40
3.00000002980232
  1
X
 50
359.999999896069
 41
0.916666604744064
 72
     2
 11
-626.139424267144
 21
-152.024208577477
 31
0.0
  0
TEXT
  5
   62A
  8
0
  6
CONTINUOUS
 62
     7
 10
-568.37464142117
 20
-152.19789364735
 30
0.0
 40
3.00000002980232
  1
X
 50
359.999999896069
 41
0.916666604744064
 72
     2
 11
-566.174641552301
 21
-152.197893651329
 31
0.0
  0
TEXT
  5
   62B
  8
0
  6
CONTINUOUS
 62
     7
 10
-591.366205218168
 20
-189.952693967022
 30
0.0
 40
3.00000002980232
  1
Y
 50
359.999999896069
 41
0.916666604744064
 72
     2
 11
-589.166205349298
 21
-189.952693971001
 31
0.0
  0
LINE
  5
   62C
  8
0
  6
CONTINUOUS
 62
     7
 10
-675.171508789063
 20
-164.149871826172
 30
0.0
 11
-647.171508789063
 21
-164.149871826172
 31
0.0
  0
LINE
  5
   62D
  8
0
  6
CONTINUOUS
 62
     7
 10
-675.171508789063
 20
-136.149871826172
 30
0.0
 11
-647.171508789063
 21
-136.149871826172
 31
0.0
  0
LINE
  5
   62E
  8
0
  6
CONTINUOUS
 62
     7
 10
-675.171508789063
 20
-136.149871826172
 30
0.0
 11
-675.171508789063
 21
-164.149871826172
 31
0.0
  0
LINE
  5
   62F
  8
0
  6
CONTINUOUS
 62
     7
 10
-647.171508789063
 20
-136.149871826172
 30
0.0
 11
-647.171508789063
 21
-164.149871826172
 31
0.0
  0
CIRCLE
  5
   630
  8
0
  6
CONTINUOUS
 62
     7
 10
-671.171508789063
 20
-132.399871826172
 30
0.0
 40
0.875
  0
CIRCLE
  5
   631
  8
0
  6
CONTINUOUS
 62
     7
 10
-651.171508789063
 20
-132.399871826172
 30
0.0
 40
0.875
  0
CIRCLE
  5
   632
  8
0
  6
CONTINUOUS
 62
     7
 10
-671.171508789063
 20
-167.899871826172
 30
0.0
 40
0.875
  0
CIRCLE
  5
   633
  8
0
  6
CONTINUOUS
 62
     7
 10
-651.171508789063
 20
-167.899871826172
 30
0.0
 40
0.875
  0
LINE
  5
   634
  8
0
  6
DASHDOT
 62
     7
 10
-671.171508789063
 20
-130.774871826172
 30
0.0
 11
-671.171508789063
 21
-134.024871826172
 31
0.0
  0
LINE
  5
   635
  8
0
  6
DASHDOT
 62
     7
 10
-672.796508789063
 20
-132.399871826172
 30
0.0
 11
-669.546508789063
 21
-132.399871826172
 31
0.0
  0
LINE
  5
   636
  8
0
  6
DASHDOT
 62
     7
 10
-651.171508789063
 20
-130.774871826172
 30
0.0
 11
-651.171508789063
 21
-134.024871826172
 31
0.0
  0
LINE
  5
   637
  8
0
  6
DASHDOT
 62
     7
 10
-652.796508789063
 20
-132.399871826172
 30
0.0
 11
-649.546508789063
 21
-132.399871826172
 31
0.0
  0
LINE
  5
   638
  8
0
  6
DASHDOT
 62
     7
 10
-651.171508789063
 20
-166.274871826172
 30
0.0
 11
-651.171508789063
 21
-169.524871826172
 31
0.0
  0
LINE
  5
   639
  8
0
  6
DASHDOT
 62
     7
 10
-652.796508789063
 20
-167.899871826172
 30
0.0
 11
-649.546508789063
 21
-167.899871826172
 31
0.0
  0
LINE
  5
   63A
  8
0
  6
DASHDOT
 62
     7
 10
-671.171508789063
 20
-166.274871826172
 30
0.0
 11
-671.171508789063
 21
-169.524871826172
 31
0.0
  0
LINE
  5
   63B
  8
0
  6
DASHDOT
 62
     7
 10
-672.796508789063
 20
-167.899871826172
 30
0.0
 11
-669.546508789063
 21
-167.899871826172
 31
0.0
  0
LINE
  5
   63C
  8
0
  6
DASHDOT
 62
     7
 10
-661.171508789063
 20
-104.658834829864
 30
0.0
 11
-661.171508789063
 21
-118.908918578811
 31
0.0
  0
LINE
  5
   63D
  8
0
  6
CONTINUOUS
 62
     7
 10
-677.992085332728
 20
-129.748686170966
 30
0.0
 11
-644.037525109421
 21
-129.748686170966
 31
0.0
  0
LINE
  5
   63E
  8
0
  6
CONTINUOUS
 62
     7
 10
-677.992085332728
 20
-171.313751271911
 30
0.0
 11
-644.037525109421
 21
-171.313751271911
 31
0.0
  0
LINE
  5
   63F
  8
0
  6
CONTINUOUS
 62
     7
 10
-644.037525109421
 20
-129.748686170966
 30
0.0
 11
-644.037525109421
 21
-171.313751271911
 31
0.0
  0
LINE
  5
   640
  8
0
  6
CONTINUOUS
 62
     7
 10
-677.992085332728
 20
-129.748686170966
 30
0.0
 11
-677.992085332728
 21
-171.313751271911
 31
0.0
  0
LINE
  5
   641
  8
0
  6
DASHDOT
 62
     7
 10
-684.421837551118
 20
-150.149871826172
 30
0.0
 11
-630.954858988327
 21
-150.149871826172
 31
0.0
  0
INSERT
  5
   642
  8
0
  6
CONTINUOUS
 62
     7
  2
*UDIM188
 10
0.0
 20
0.0
 30
0.0
  0
INSERT
  5
   643
  8
0
  6
CONTINUOUS
 62
     7
  2
*UDIM189
 10
0.0
 20
0.0
 30
0.0
  0
LINE
  5
   644
  8
0
  6
DASHDOT
 62
     7
 10
-661.171508789063
 20
-127.747578119297
 30
0.0
 11
-661.171508789063
 21
-179.273122670993
 31
0.0
  0
TEXT
  5
   645
  8
0
  6
CONTINUOUS
 62
     7
 10
-695.724427284338
 20
-161.077451244588
 30
0.0
 40
3.00000002980232
  1
=      =
 50
449.999999844103
 41
0.916666604744064
 72
     2
 11
-695.724427226109
 21
-139.627452484861
 31
0.0
  0
TEXT
  5
   646
  8
0
  6
CONTINUOUS
 62
     7
 10
-686.854041036742
 20
-160.187370951071
 30
0.0
 40
3.00000002980232
  1
=     =
 50
449.999999844103
 41
0.916666604744064
 72
     2
 11
-686.854040985978
 21
-141.487372032896
 31
0.0
  0
INSERT
  5
   647
  8
0
  6
CONTINUOUS
 62
     7
  2
*UDIM190
 10
0.0
 20
0.0
 30
0.0
  0
INSERT
  5
   648
  8
0
  6
CONTINUOUS
 62
     7
  2
*UDIM191
 10
0.0
 20
0.0
 30
0.0
  0
INSERT
  5
   649
  8
0
  6
CONTINUOUS
 62
     7
  2
*UDIM192
 10
0.0
 20
0.0
 30
0.0
  0
TEXT
  5
   64A
  8
0
  6
CONTINUOUS
 62
     7
 10
-662.35978878548
 20
-186.124965736861
 30
0.0
 40
3.00000002980232
  1
Y
 50
359.999999844103
 41
0.916666604744064
 72
     2
 11
-660.159788916611
 21
-186.124965742836
 31
0.0
  0
TEXT
  5
   64B
  8
0
  6
CONTINUOUS
 62
     7
 10
-708.346305737995
 20
-151.381536552901
 30
0.0
 40
3.00000002980232
  1
X
 50
359.999999844103
 41
0.916666604744064
 72
     2
 11
-706.146305869125
 21
-151.381536558876
 31
0.0
  0
ENDSEC
  0
EOF
