  0
SECTION
  2
HEADER
  9
$ACADVER
  1
AC1015
  9
$ACADMAINTVER
 70
    13
  9
$DWGCODEPAGE
  3
ANSI_1252
  9
$INSBASE
 10
0.0
 20
0.0
 30
0.0
  9
$EXTMIN
 10
0.2370990874900258
 20
0.2379992524221779
 30
0.0
  9
$EXTMAX
 10
392.23709908749
 20
262.7379992524221
 30
0.0
  9
$LIMMIN
 10
0.0
 20
0.0
  9
$LIMMAX
 10
12.0
 20
9.0
  9
$ORTHOMODE
 70
     1
  9
$REGENMODE
 70
     1
  9
$FILLMODE
 70
     1
  9
$QTEXTMODE
 70
     0
  9
$MIRRTEXT
 70
     1
  9
$LTSCALE
 40
5.0
  9
$ATTMODE
 70
     1
  9
$TEXTSIZE
 40
2.0
  9
$TRACEWID
 40
0.05
  9
$TEXTSTYLE
  7
ROMANS
  9
$CLAYER
  8
SWEDEN2
  9
$CELTYPE
  6
DASHED
  9
$CECOLOR
 62
   256
  9
$CELTSCALE
 40
1.0
  9
$DISPSILH
 70
     0
  9
$DIMSCALE
 40
1.0
  9
$DIMASZ
 40
0.18
  9
$DIMEXO
 40
0.0625
  9
$DIMDLI
 40
0.38
  9
$DIMRND
 40
0.0
  9
$DIMDLE
 40
0.0
  9
$DIMEXE
 40
0.18
  9
$DIMTP
 40
0.0
  9
$DIMTM
 40
0.0
  9
$DIMTXT
 40
0.18
  9
$DIMCEN
 40
0.09
  9
$DIMTSZ
 40
0.0
  9
$DIMTOL
 70
     0
  9
$DIMLIM
 70
     0
  9
$DIMTIH
 70
     1
  9
$DIMTOH
 70
     1
  9
$DIMSE1
 70
     0
  9
$DIMSE2
 70
     0
  9
$DIMTAD
 70
     0
  9
$DIMZIN
 70
     0
  9
$DIMBLK
  1

  9
$DIMASO
 70
     1
  9
$DIMSHO
 70
     1
  9
$DIMPOST
  1

  9
$DIMAPOST
  1

  9
$DIMALT
 70
     0
  9
$DIMALTD
 70
     2
  9
$DIMALTF
 40
25.4
  9
$DIMLFAC
 40
1.0
  9
$DIMTOFL
 70
     0
  9
$DIMTVP
 40
0.0
  9
$DIMTIX
 70
     0
  9
$DIMSOXD
 70
     0
  9
$DIMSAH
 70
     0
  9
$DIMBLK1
  1

  9
$DIMBLK2
  1

  9
$DIMSTYLE
  2
STANDARD
  9
$DIMCLRD
 70
     0
  9
$DIMCLRE
 70
     0
  9
$DIMCLRT
 70
     0
  9
$DIMTFAC
 40
1.0
  9
$DIMGAP
 40
0.09
  9
$DIMJUST
 70
     0
  9
$DIMSD1
 70
     0
  9
$DIMSD2
 70
     0
  9
$DIMTOLJ
 70
     1
  9
$DIMTZIN
 70
     0
  9
$DIMALTZ
 70
     0
  9
$DIMALTTZ
 70
     0
  9
$DIMUPT
 70
     0
  9
$DIMDEC
 70
     4
  9
$DIMTDEC
 70
     4
  9
$DIMALTU
 70
     2
  9
$DIMALTTD
 70
     2
  9
$DIMTXSTY
  7
STANDARD
  9
$DIMAUNIT
 70
     0
  9
$DIMADEC
 70
     0
  9
$DIMALTRND
 40
0.0
  9
$DIMAZIN
 70
     0
  9
$DIMDSEP
 70
    46
  9
$DIMATFIT
 70
     3
  9
$DIMFRAC
 70
     0
  9
$DIMLDRBLK
  1

  9
$DIMLUNIT
 70
     2
  9
$DIMLWD
 70
    -2
  9
$DIMLWE
 70
    -2
  9
$DIMTMOVE
 70
     0
  9
$LUNITS
 70
     2
  9
$LUPREC
 70
     4
  9
$SKETCHINC
 40
0.1
  9
$FILLETRAD
 40
0.0
  9
$AUNITS
 70
     0
  9
$AUPREC
 70
     0
  9
$MENU
  1
acad
  9
$ELEVATION
 40
0.0
  9
$PELEVATION
 40
0.0
  9
$THICKNESS
 40
0.0
  9
$LIMCHECK
 70
     0
  9
$CHAMFERA
 40
0.0
  9
$CHAMFERB
 40
0.0
  9
$CHAMFERC
 40
0.0
  9
$CHAMFERD
 40
0.0
  9
$SKPOLY
 70
     0
  9
$TDCREATE
 40
2448785.342573495
  9
$TDUCREATE
 40
2448785.217573495
  9
$TDUPDATE
 40
2453201.620816087
  9
$TDUUPDATE
 40
2453201.495816088
  9
$TDINDWG
 40
0.0948143634
  9
$TDUSRTIMER
 40
0.0948143634
  9
$USRTIMER
 70
     1
  9
$ANGBASE
 50
0.0
  9
$ANGDIR
 70
     0
  9
$PDMODE
 70
     0
  9
$PDSIZE
 40
0.0
  9
$PLINEWID
 40
0.0
  9
$SPLFRAME
 70
     0
  9
$SPLINETYPE
 70
     6
  9
$SPLINESEGS
 70
     8
  9
$HANDSEED
  5
890
  9
$SURFTAB1
 70
   250
  9
$SURFTAB2
 70
   250
  9
$SURFTYPE
 70
     6
  9
$SURFU
 70
     6
  9
$SURFV
 70
     6
  9
$UCSBASE
  2

  9
$UCSNAME
  2

  9
$UCSORG
 10
0.0
 20
0.0
 30
0.0
  9
$UCSXDIR
 10
1.0
 20
0.0
 30
0.0
  9
$UCSYDIR
 10
0.0
 20
1.0
 30
0.0
  9
$UCSORTHOREF
  2

  9
$UCSORTHOVIEW
 70
     0
  9
$UCSORGTOP
 10
0.0
 20
0.0
 30
0.0
  9
$UCSORGBOTTOM
 10
0.0
 20
0.0
 30
0.0
  9
$UCSORGLEFT
 10
0.0
 20
0.0
 30
0.0
  9
$UCSORGRIGHT
 10
0.0
 20
0.0
 30
0.0
  9
$UCSORGFRONT
 10
0.0
 20
0.0
 30
0.0
  9
$UCSORGBACK
 10
0.0
 20
0.0
 30
0.0
  9
$PUCSBASE
  2

  9
$PUCSNAME
  2

  9
$PUCSORG
 10
0.0
 20
0.0
 30
0.0
  9
$PUCSXDIR
 10
1.0
 20
0.0
 30
0.0
  9
$PUCSYDIR
 10
0.0
 20
1.0
 30
0.0
  9
$PUCSORTHOREF
  2

  9
$PUCSORTHOVIEW
 70
     0
  9
$PUCSORGTOP
 10
0.0
 20
0.0
 30
0.0
  9
$PUCSORGBOTTOM
 10
0.0
 20
0.0
 30
0.0
  9
$PUCSORGLEFT
 10
0.0
 20
0.0
 30
0.0
  9
$PUCSORGRIGHT
 10
0.0
 20
0.0
 30
0.0
  9
$PUCSORGFRONT
 10
0.0
 20
0.0
 30
0.0
  9
$PUCSORGBACK
 10
0.0
 20
0.0
 30
0.0
  9
$USERI1
 70
     0
  9
$USERI2
 70
     0
  9
$USERI3
 70
     0
  9
$USERI4
 70
     0
  9
$USERI5
 70
     0
  9
$USERR1
 40
0.0
  9
$USERR2
 40
0.0
  9
$USERR3
 40
0.0
  9
$USERR4
 40
0.0
  9
$USERR5
 40
0.0
  9
$WORLDVIEW
 70
     1
  9
$SHADEDGE
 70
     3
  9
$SHADEDIF
 70
    70
  9
$TILEMODE
 70
     1
  9
$MAXACTVP
 70
    16
  9
$PINSBASE
 10
0.0
 20
0.0
 30
0.0
  9
$PLIMCHECK
 70
     0
  9
$PEXTMIN
 10
1.000000000000000E+20
 20
1.000000000000000E+20
 30
1.000000000000000E+20
  9
$PEXTMAX
 10
-1.000000000000000E+20
 20
-1.000000000000000E+20
 30
-1.000000000000000E+20
  9
$PLIMMIN
 10
0.0
 20
0.0
  9
$PLIMMAX
 10
12.0
 20
9.0
  9
$UNITMODE
 70
     0
  9
$VISRETAIN
 70
     0
  9
$PLINEGEN
 70
     0
  9
$PSLTSCALE
 70
     0
  9
$TREEDEPTH
 70
  3020
  9
$CMLSTYLE
  2
STANDARD
  9
$CMLJUST
 70
     0
  9
$CMLSCALE
 40
1.0
  9
$PROXYGRAPHICS
 70
     1
  9
$MEASUREMENT
 70
     0
  9
$CELWEIGHT
370
    -1
  9
$ENDCAPS
280
     0
  9
$JOINSTYLE
280
     0
  9
$LWDISPLAY
290
     0
  9
$INSUNITS
 70
     0
  9
$HYPERLINKBASE
  1

  9
$STYLESHEET
  1

  9
$XEDIT
290
     1
  9
$CEPSNTYPE
380
     0
  9
$PSTYLEMODE
290
     1
  9
$FINGERPRINTGUID
  2
{1EB0F235-3A5B-4A0D-907A-01DC5AAA982D}
  9
$VERSIONGUID
  2
{4D4DA26D-1D00-4F1D-9F67-D21676065263}
  9
$EXTNAMES
290
     1
  9
$PSVPSCALE
 40
0.0
  9
$OLESTARTUP
290
     0
  0
ENDSEC
  0
SECTION
  2
CLASSES
  0
CLASS
  1
ACDBDICTIONARYWDFLT
  2
AcDbDictionaryWithDefault
  3
AutoCAD 2000
 90
        0
280
     0
281
     0
  0
CLASS
  1
ACDBPLACEHOLDER
  2
AcDbPlaceHolder
  3
AutoCAD 2000
 90
        0
280
     0
281
     0
  0
CLASS
  1
LAYOUT
  2
AcDbLayout
  3
AutoCAD 2000
 90
        0
280
     0
281
     0
  0
CLASS
  1
DICTIONARYVAR
  2
AcDbDictionaryVar
  3
AutoCAD 2000
 90
        0
280
     0
281
     0
  0
ENDSEC
  0
SECTION
  2
TABLES
  0
TABLE
  2
VPORT
  5
8
330
0
100
AcDbSymbolTable
 70
     2
  0
VPORT
  5
88F
330
8
100
AcDbSymbolTableRecord
100
AcDbViewportTableRecord
  2
*Active
 70
     0
 10
0.0
 20
0.0
 11
1.0
 21
1.0
 12
220.1375089582993
 22
131.368999626211
 13
0.0
 23
0.0
 14
2.5
 24
2.5
 15
0.0
 25
0.0
 16
0.0
 26
0.0
 36
1.0
 17
0.0
 27
0.0
 37
0.0
 40
262.7379992524221
 41
1.675718849840255
 42
50.0
 43
0.0
 44
0.0
 50
0.0
 51
0.0
 71
     0
 72
   100
 73
     1
 74
     0
 75
     0
 76
     0
 77
     0
 78
     0
281
     0
 65
     1
110
0.0
120
0.0
130
0.0
111
1.0
121
0.0
131
0.0
112
0.0
122
1.0
132
0.0
 79
     0
146
0.0
  0
ENDTAB
  0
TABLE
  2
LTYPE
  5
5
330
0
100
AcDbSymbolTable
 70
     7
  0
LTYPE
  5
12
330
5
100
AcDbSymbolTableRecord
100
AcDbLinetypeTableRecord
  2
BYBLOCK
 70
     0
  3

 72
    65
 73
     0
 40
0.0
  0
LTYPE
  5
13
330
5
100
AcDbSymbolTableRecord
100
AcDbLinetypeTableRecord
  2
BYLAYER
 70
     0
  3

 72
    65
 73
     0
 40
0.0
  0
LTYPE
  5
14
330
5
100
AcDbSymbolTableRecord
100
AcDbLinetypeTableRecord
  2
CONTINUOUS
 70
     0
  3
Solid line
 72
    65
 73
     0
 40
0.0
  0
LTYPE
  5
39
330
5
100
AcDbSymbolTableRecord
100
AcDbLinetypeTableRecord
  2
DASHED
 70
     0
  3
__ __ __ __ __ __ __ __ __ __ __ __ __ __ __ __
 72
    65
 73
     2
 40
0.75
 49
0.5
 74
     0
 49
-0.25
 74
     0
  0
LTYPE
  5
3A
330
5
100
AcDbSymbolTableRecord
100
AcDbLinetypeTableRecord
  2
CENTER
 70
     0
  3
____ _ ____ _ ____ _ ____ _ ____ _ ____ _ ____ 
 72
    65
 73
     4
 40
2.0
 49
1.25
 74
     0
 49
-0.25
 74
     0
 49
0.25
 74
     0
 49
-0.25
 74
     0
  0
LTYPE
  5
3B
330
5
100
AcDbSymbolTableRecord
100
AcDbLinetypeTableRecord
  2
HIDDEN
 70
     0
  3
__ __ __ __ __ __ __ __ __ __ __ __ __ __ __ __
 72
    65
 73
     2
 40
0.375
 49
0.25
 74
     0
 49
-0.125
 74
     0
  0
LTYPE
  5
3C
330
5
100
AcDbSymbolTableRecord
100
AcDbLinetypeTableRecord
  2
DOT
 70
     0
  3
. . . . . . . . . . . . . . . . . . . . . . . .
 72
    65
 73
     2
 40
0.25
 49
0.0
 74
     0
 49
-0.25
 74
     0
  0
LTYPE
  5
3D
330
5
100
AcDbSymbolTableRecord
100
AcDbLinetypeTableRecord
  2
DASHDOT
 70
     0
  3
__ . __ . __ . __ . __ . __ . __ . __ . __ . __
 72
    65
 73
     4
 40
1.0
 49
0.5
 74
     0
 49
-0.25
 74
     0
 49
0.0
 74
     0
 49
-0.25
 74
     0
  0
LTYPE
  5
3E
330
5
100
AcDbSymbolTableRecord
100
AcDbLinetypeTableRecord
  2
PHANTOM
 70
     0
  3
______  __  __  ______  __  __  ______  __  __ 
 72
    65
 73
     6
 40
2.5
 49
1.25
 74
     0
 49
-0.25
 74
     0
 49
0.25
 74
     0
 49
-0.25
 74
     0
 49
0.25
 74
     0
 49
-0.25
 74
     0
  0
ENDTAB
  0
TABLE
  2
LAYER
  5
2
330
0
100
AcDbSymbolTable
 70
    13
  0
LAYER
  5
F
330
2
100
AcDbSymbolTableRecord
100
AcDbLayerTableRecord
  2
0
 70
     0
 62
     7
  6
CONTINUOUS
370
    -3
390
882
  0
LAYER
  5
42
330
2
100
AcDbSymbolTableRecord
100
AcDbLayerTableRecord
  2
RAAMI
 70
     0
 62
     4
  6
CONTINUOUS
370
    -3
390
882
  0
LAYER
  5
43
330
2
100
AcDbSymbolTableRecord
100
AcDbLayerTableRecord
  2
PAKSU
 70
     0
 62
     3
  6
CONTINUOUS
370
    -3
390
882
  0
LAYER
  5
44
330
2
100
AcDbSymbolTableRecord
100
AcDbLayerTableRecord
  2
OHUT
 70
     0
 62
     6
  6
CONTINUOUS
370
    -3
390
882
  0
LAYER
  5
45
330
2
100
AcDbSymbolTableRecord
100
AcDbLayerTableRecord
  2
SWEDEN
 70
     0
 62
     7
  6
CONTINUOUS
370
    -3
390
882
  0
LAYER
  5
46
330
2
100
AcDbSymbolTableRecord
100
AcDbLayerTableRecord
  2
SWEDEN2
 70
     0
 62
     5
  6
CONTINUOUS
370
    -3
390
882
  0
LAYER
  5
47
330
2
100
AcDbSymbolTableRecord
100
AcDbLayerTableRecord
  2
BASE
 70
     0
 62
     7
  6
CONTINUOUS
370
    -3
390
882
  0
LAYER
  5
48
330
2
100
AcDbSymbolTableRecord
100
AcDbLayerTableRecord
  2
21
 70
     0
 62
     2
  6
CONTINUOUS
370
    -3
390
882
  0
LAYER
  5
49
330
2
100
AcDbSymbolTableRecord
100
AcDbLayerTableRecord
  2
HEL035
 70
     0
 62
     7
  6
CONTINUOUS
370
    -3
390
882
  0
LAYER
  5
4A
330
2
100
AcDbSymbolTableRecord
100
AcDbLayerTableRecord
  2
MUO
 70
     0
 62
     7
  6
CONTINUOUS
370
    -3
390
882
  0
LAYER
  5
4B
330
2
100
AcDbSymbolTableRecord
100
AcDbLayerTableRecord
  2
1
 70
     0
 62
     2
  6
CONTINUOUS
370
    -3
390
882
  0
LAYER
  5
4C
330
2
100
AcDbSymbolTableRecord
100
AcDbLayerTableRecord
  2
BASE1
 70
     0
 62
     1
  6
CONTINUOUS
370
    -3
390
882
  0
LAYER
  5
4D
330
2
100
AcDbSymbolTableRecord
100
AcDbLayerTableRecord
  2
TEKS
 70
     0
 62
     5
  6
CONTINUOUS
370
    -3
390
882
  0
ENDTAB
  0
TABLE
  2
STYLE
  5
3
330
0
100
AcDbSymbolTable
 70
     6
  0
STYLE
  5
10
330
3
100
AcDbSymbolTableRecord
100
AcDbTextStyleTableRecord
  2
STANDARD
 70
     0
 40
0.0
 41
1.0
 50
0.0
 71
     0
 42
2.5
  3
txt
  4

  0
STYLE
  5
34
330
3
100
AcDbSymbolTableRecord
100
AcDbTextStyleTableRecord
  2
ROMANS
 70
     0
 40
0.0
 41
1.0
 50
0.0
 71
     0
 42
2.0
  3
romans
  4

  0
STYLE
  5
35
330
3
100
AcDbSymbolTableRecord
100
AcDbTextStyleTableRecord
  2
GREEKC
 70
     0
 40
0.0
 41
1.0
 50
0.0
 71
     0
 42
1.5
  3
GREEKC
  4

  0
STYLE
  5
36
330
3
100
AcDbSymbolTableRecord
100
AcDbTextStyleTableRecord
  2
GREEKS
 70
     0
 40
0.0
 41
1.0
 50
0.0
 71
     0
 42
2.5
  3
TXT
  4

  0
STYLE
  5
37
330
3
100
AcDbSymbolTableRecord
100
AcDbTextStyleTableRecord
  2
MONOTXT
 70
     0
 40
0.0
 41
1.0
 50
0.0
 71
     0
 42
2.0
  3
monotxt
  4

  0
STYLE
  5
38
330
3
100
AcDbSymbolTableRecord
100
AcDbTextStyleTableRecord
  2
ROMANT
 70
     0
 40
0.0
 41
1.0
 50
0.0
 71
     0
 42
2.5
  3
romant
  4

  0
ENDTAB
  0
TABLE
  2
VIEW
  5
6
330
0
100
AcDbSymbolTable
 70
     0
  0
ENDTAB
  0
TABLE
  2
UCS
  5
7
330
0
100
AcDbSymbolTable
 70
     0
  0
ENDTAB
  0
TABLE
  2
APPID
  5
9
330
0
100
AcDbSymbolTable
 70
     1
  0
APPID
  5
11
330
9
100
AcDbSymbolTableRecord
100
AcDbRegAppTableRecord
  2
ACAD
 70
     0
  0
ENDTAB
  0
TABLE
  2
DIMSTYLE
  5
A
330
0
100
AcDbSymbolTable
 70
     1
100
AcDbDimStyleTable
 71
     0
  0
DIMSTYLE
105
774
330
A
100
AcDbSymbolTableRecord
100
AcDbDimStyleTableRecord
  2
STANDARD
 70
     0
340
10
  0
ENDTAB
  0
TABLE
  2
BLOCK_RECORD
  5
1
330
0
100
AcDbSymbolTable
 70
    24
  0
BLOCK_RECORD
  5
18
330
1
100
AcDbSymbolTableRecord
100
AcDbBlockTableRecord
  2
*MODEL_SPACE
340
885
  0
BLOCK_RECORD
  5
15
330
1
100
AcDbSymbolTableRecord
100
AcDbBlockTableRecord
  2
*PAPER_SPACE
340
886
  0
BLOCK_RECORD
  5
1C
330
1
100
AcDbSymbolTableRecord
100
AcDbBlockTableRecord
  2
1
340
0
102
{BLKREFS
331
2AB
331
2AC
331
2AD
102
}
  0
BLOCK_RECORD
  5
1D
330
1
100
AcDbSymbolTableRecord
100
AcDbBlockTableRecord
  2
BLC16
340
0
  0
BLOCK_RECORD
  5
1E
330
1
100
AcDbSymbolTableRecord
100
AcDbBlockTableRecord
  2
BLC27
340
0
102
{BLKREFS
331
60A
331
613
331
623
331
65D
331
66D
331
66E
331
86A
102
}
  0
BLOCK_RECORD
  5
1F
330
1
100
AcDbSymbolTableRecord
100
AcDbBlockTableRecord
  2
BLC26
340
0
102
{BLKREFS
331
7C
102
}
  0
BLOCK_RECORD
  5
20
330
1
100
AcDbSymbolTableRecord
100
AcDbBlockTableRecord
  2
BLC22
340
0
  0
BLOCK_RECORD
  5
21
330
1
100
AcDbSymbolTableRecord
100
AcDbBlockTableRecord
  2
BLC18
340
0
  0
BLOCK_RECORD
  5
22
330
1
100
AcDbSymbolTableRecord
100
AcDbBlockTableRecord
  2
BLC29
340
0
102
{BLKREFS
331
2A9
102
}
  0
BLOCK_RECORD
  5
23
330
1
100
AcDbSymbolTableRecord
100
AcDbBlockTableRecord
  2
WKU130
340
0
  0
BLOCK_RECORD
  5
24
330
1
100
AcDbSymbolTableRecord
100
AcDbBlockTableRecord
  2
BLC15
340
0
  0
BLOCK_RECORD
  5
25
330
1
100
AcDbSymbolTableRecord
100
AcDbBlockTableRecord
  2
BLC5
340
0
  0
BLOCK_RECORD
  5
26
330
1
100
AcDbSymbolTableRecord
100
AcDbBlockTableRecord
  2
BLC43
340
0
102
{BLKREFS
331
389
331
38A
102
}
  0
BLOCK_RECORD
  5
27
330
1
100
AcDbSymbolTableRecord
100
AcDbBlockTableRecord
  2
BLC42
340
0
102
{BLKREFS
331
38B
102
}
  0
BLOCK_RECORD
  5
28
330
1
100
AcDbSymbolTableRecord
100
AcDbBlockTableRecord
  2
BLC25
340
0
  0
BLOCK_RECORD
  5
29
330
1
100
AcDbSymbolTableRecord
100
AcDbBlockTableRecord
  2
ABBA3V
340
0
  0
BLOCK_RECORD
  5
2A
330
1
100
AcDbSymbolTableRecord
100
AcDbBlockTableRecord
  2
*X14
340
0
102
{BLKREFS
331
7FF
331
F9
102
}
  0
BLOCK_RECORD
  5
2B
330
1
100
AcDbSymbolTableRecord
100
AcDbBlockTableRecord
  2
*X15
340
0
102
{BLKREFS
331
800
331
FA
102
}
  0
BLOCK_RECORD
  5
2C
330
1
100
AcDbSymbolTableRecord
100
AcDbBlockTableRecord
  2
*X16
340
0
102
{BLKREFS
331
801
331
FB
102
}
  0
BLOCK_RECORD
  5
2D
330
1
100
AcDbSymbolTableRecord
100
AcDbBlockTableRecord
  2
*X17
340
0
102
{BLKREFS
331
802
331
FC
102
}
  0
BLOCK_RECORD
  5
2E
330
1
100
AcDbSymbolTableRecord
100
AcDbBlockTableRecord
  2
*X18
340
0
102
{BLKREFS
331
814
331
81B
331
10E
331
115
102
}
  0
BLOCK_RECORD
  5
2F
330
1
100
AcDbSymbolTableRecord
100
AcDbBlockTableRecord
  2
*X19
340
0
102
{BLKREFS
331
815
331
81A
331
10F
331
114
102
}
  0
BLOCK_RECORD
  5
30
330
1
100
AcDbSymbolTableRecord
100
AcDbBlockTableRecord
  2
*X20
340
0
102
{BLKREFS
331
816
331
819
331
110
331
113
102
}
  0
BLOCK_RECORD
  5
31
330
1
100
AcDbSymbolTableRecord
100
AcDbBlockTableRecord
  2
*X21
340
0
102
{BLKREFS
331
817
331
818
331
111
331
112
102
}
  0
BLOCK_RECORD
  5
32
330
1
100
AcDbSymbolTableRecord
100
AcDbBlockTableRecord
  2
MAA
340
0
  0
BLOCK_RECORD
  5
33
330
1
100
AcDbSymbolTableRecord
100
AcDbBlockTableRecord
  2
B507
340
0
  0
ENDTAB
  0
ENDSEC
  0
SECTION
  2
BLOCKS
  0
BLOCK
  5
50
330
18
100
AcDbEntity
  8
0
100
AcDbBlockBegin
  2
*MODEL_SPACE
 70
     0
 10
0.0
 20
0.0
 30
0.0
  3
*MODEL_SPACE
  1

  0
ENDBLK
  5
51
330
18
100
AcDbEntity
  8
0
100
AcDbBlockEnd
  0
BLOCK
  5
4E
330
15
100
AcDbEntity
 67
     1
  8
0
100
AcDbBlockBegin
  2
*PAPER_SPACE
 70
     0
 10
0.0
 20
0.0
 30
0.0
  3
*PAPER_SPACE
  1

  0
ENDBLK
  5
4F
330
15
100
AcDbEntity
 67
     1
  8
0
100
AcDbBlockEnd
  0
BLOCK
  5
52
330
1C
100
AcDbEntity
  8
0
100
AcDbBlockBegin
  2
1
 70
     0
 10
0.0
 20
0.0
 30
0.0
  3
1
  1

  0
ENDBLK
  5
53
330
1C
100
AcDbEntity
  8
0
100
AcDbBlockEnd
  0
BLOCK
  5
54
330
1D
100
AcDbEntity
  8
0
100
AcDbBlockBegin
  2
BLC16
 70
     0
 10
0.0
 20
0.0
 30
0.0
  3
BLC16
  1

  0
LINE
  5
55
330
1D
100
AcDbEntity
  8
0
  6
Continuous
100
AcDbLine
 10
0.007688543809266
 20
38.05492790713048
 30
0.0
 11
19.98368297262045
 21
38.05492790713048
 31
0.0
  0
LINE
  5
56
330
1D
100
AcDbEntity
  8
0
  6
Continuous
100
AcDbLine
 10
19.98368297262045
 20
38.05492790713048
 30
0.0
 11
19.98368297262045
 21
-0.0037506651295445
 31
0.0
  0
LINE
  5
57
330
1D
100
AcDbEntity
  8
0
  6
Continuous
100
AcDbLine
 10
19.98368297262045
 20
-0.0037506651295445
 30
0.0
 11
0.007688543809266
 21
-0.0037506651295445
 31
0.0
  0
LINE
  5
58
330
1D
100
AcDbEntity
  8
0
  6
Continuous
100
AcDbLine
 10
0.007688543809266
 20
-0.0037506651295445
 30
0.0
 11
0.007688543809266
 21
38.05492790713048
 31
0.0
  0
LINE
  5
59
330
1D
100
AcDbEntity
  8
0
  6
Continuous
100
AcDbLine
 10
14.15264305765733
 20
36.91973811995545
 30
0.0
 11
14.15264305765733
 21
33.52846854603386
 31
0.0
  0
LINE
  5
5A
330
1D
100
AcDbEntity
  8
0
  6
Continuous
100
AcDbLine
 10
14.15264305765733
 20
33.52846854603386
 30
0.0
 11
11.56043525426407
 21
33.52846854603386
 31
0.0
  0
LINE
  5
5B
330
1D
100
AcDbEntity
  8
0
  6
Continuous
100
AcDbLine
 10
11.56043525426407
 20
33.52846854603386
 30
0.0
 11
11.56043525426407
 21
30.77843318004674
 31
0.0
  0
LINE
  5
5C
330
1D
100
AcDbEntity
  8
0
  6
Continuous
100
AcDbLine
 10
11.56043525426407
 20
30.77843318004674
 30
0.0
 11
14.15264305765733
 21
30.77843318004674
 31
0.0
  0
LINE
  5
5D
330
1D
100
AcDbEntity
  8
0
  6
Continuous
100
AcDbLine
 10
14.15264305765733
 20
30.77843318004674
 30
0.0
 11
14.15264305765733
 21
27.3871636061251
 31
0.0
  0
TEXT
  5
5E
330
1D
100
AcDbEntity
  8
0
  6
Continuous
100
AcDbText
 10
6.558569492786901
 20
30.80526575700882
 30
0.0
 40
2.5
  1
2
 11
6.558569492786901
 21
29.97193242367551
 31
0.0
100
AcDbText
 73
     1
  0
TEXT
  5
5F
330
1D
100
AcDbEntity
  8
0
  6
Continuous
100
AcDbText
 10
6.553289092987213
 20
23.85407765705547
 30
0.0
 40
2.5
  1
2 I
 11
6.553289092987213
 21
23.02074432372215
 31
0.0
100
AcDbText
 73
     1
  0
LINE
  5
60
330
1D
100
AcDbEntity
  8
0
  6
Continuous
100
AcDbLine
 10
12.94253367881567
 20
26.35912860214402
 30
0.0
 11
15.2882991910413
 21
25.02377489077527
 31
0.0
  0
LINE
  5
61
330
1D
100
AcDbEntity
  8
0
  6
Continuous
100
AcDbLine
 10
15.2882991910413
 20
25.02377489077527
 30
0.0
 11
12.94253367881567
 21
23.83385574203085
 31
0.0
  0
LINE
  5
62
330
1D
100
AcDbEntity
  8
0
  6
Continuous
100
AcDbLine
 10
14.16982338783971
 20
26.35912860214402
 30
0.0
 11
16.51558890006533
 21
25.02377489077527
 31
0.0
  0
LINE
  5
63
330
1D
100
AcDbEntity
  8
0
  6
Continuous
100
AcDbLine
 10
16.51558890006533
 20
25.02377489077527
 30
0.0
 11
14.16982338783971
 21
23.83385574203085
 31
0.0
  0
TEXT
  5
64
330
1D
100
AcDbEntity
  8
0
  6
Continuous
100
AcDbText
 10
11.56644561204224
 20
19.23567938080348
 30
0.0
 40
2.5
  1
I
 11
11.56644561204224
 21
18.40234604747017
 31
0.0
100
AcDbText
 73
     1
  0
TEXT
  5
65
330
1D
100
AcDbEntity
  8
0
  6
Continuous
100
AcDbText
 10
13.01818129898113
 20
18.90234604747017
 30
0.0
 40
1.5
  1
2
 11
13.01818129898113
 21
18.40234604747017
 31
0.0
100
AcDbText
 73
     1
  0
LINE
  5
66
330
1D
100
AcDbEntity
  8
0
  6
Continuous
100
AcDbLine
 10
10.65732992648723
 20
12.77382488441155
 30
0.0
 11
13.00309543871283
 21
13.96374403315597
 31
0.0
  0
LINE
  5
67
330
1D
100
AcDbEntity
  8
0
  6
Continuous
100
AcDbLine
 10
13.00309543871283
 20
11.43847117304277
 30
0.0
 11
10.65732992648723
 21
12.77382488441155
 31
0.0
  0
LINE
  5
68
330
1D
100
AcDbEntity
  8
0
  6
Continuous
100
AcDbLine
 10
6.557002402835379
 20
16.71465824609843
 30
0.0
 11
15.28174286348452
 21
16.71465824609843
 31
0.0
  0
LINE
  5
69
330
1D
100
AcDbEntity
  8
0
  6
Continuous
100
AcDbLine
 10
6.557002402835379
 20
17.52398388997782
 30
0.0
 11
6.557002402835379
 21
15.90879125881686
 31
0.0
  0
LINE
  5
6A
330
1D
100
AcDbEntity
  8
0
  6
Continuous
100
AcDbLine
 10
15.28651830982313
 20
17.52398388997782
 30
0.0
 11
15.28651830982313
 21
15.90879125881686
 31
0.0
  0
ARC
  5
6B
330
1D
100
AcDbEntity
  8
0
  6
Continuous
100
AcDbCircle
 10
12.68484626207323
 20
18.50804481635963
 30
0.0
 40
2.922744400799075
100
AcDbArc
 50
193.1055130667446
 51
283.1055130667446
  0
TEXT
  5
6C
330
1D
100
AcDbEntity
  8
0
  6
Continuous
100
AcDbText
 10
6.557002402835379
 20
11.56797432187868
 30
0.0
 40
2.5
  1
2I
 11
6.557002402835379
 21
10.73464098854536
 31
0.0
100
AcDbText
 73
     1
  0
LINE
  5
6D
330
1D
100
AcDbEntity
  8
0
  6
Continuous
100
AcDbLine
 10
6.557002402835379
 20
9.441103420977455
 30
0.0
 11
15.28174286348452
 21
9.441103420977455
 31
0.0
  0
LINE
  5
6E
330
1D
100
AcDbEntity
  8
0
  6
Continuous
100
AcDbLine
 10
15.28651830982313
 20
10.25042906485684
 30
0.0
 11
15.28651830982313
 21
8.63523643369588
 31
0.0
  0
LINE
  5
6F
330
1D
100
AcDbEntity
  8
0
  6
Continuous
100
AcDbLine
 10
6.557002402835379
 20
10.25042906485684
 30
0.0
 11
6.557002402835379
 21
8.63523643369588
 31
0.0
  0
TEXT
  5
70
330
1D
100
AcDbEntity
  8
0
  6
Continuous
100
AcDbText
 10
6.557002402835379
 20
4.778631420446188
 30
0.0
 40
2.5
  1
I
 11
6.557002402835379
 21
3.945298087112846
 31
0.0
100
AcDbText
 73
     1
  0
LINE
  5
71
330
1D
100
AcDbEntity
  8
0
  6
Continuous
100
AcDbLine
 10
9.509028761221046
 20
6.822461571955827
 30
0.0
 11
9.509028761221046
 21
5.477735886740859
 31
0.0
  0
LINE
  5
72
330
1D
100
AcDbEntity
  8
0
  6
Continuous
100
AcDbLine
 10
8.615065206632394
 20
5.477735886740859
 30
0.0
 11
9.526220368040085
 21
5.477735886740859
 31
0.0
  0
LINE
  5
73
330
1D
100
AcDbEntity
  8
0
  6
Continuous
100
AcDbLine
 10
9.509028761221046
 20
5.477735886740859
 30
0.0
 11
10.40299231580975
 21
5.477735886740859
 31
0.0
  0
LINE
  5
74
330
1D
100
AcDbEntity
  8
0
  6
Continuous
100
AcDbLine
 10
8.90159198694927
 20
5.082327781630496
 30
0.0
 11
9.509028761221046
 21
5.082327781630496
 31
0.0
  0
LINE
  5
75
330
1D
100
AcDbEntity
  8
0
  6
Continuous
100
AcDbLine
 10
9.509028761221046
 20
5.082327781630525
 30
0.0
 11
10.15084874913087
 21
5.082327781630496
 31
0.0
  0
LINE
  5
76
330
1D
100
AcDbEntity
  8
0
  6
Continuous
100
AcDbLine
 10
9.981861134137275
 20
4.719969133827802
 30
0.0
 11
9.072041111215057
 21
4.719969133827802
 31
0.0
  0
LINE
  5
77
330
1D
100
AcDbEntity
  8
0
  6
Continuous
100
AcDbLine
 10
15.28651830982313
 20
2.79792376144114
 30
0.0
 11
15.28651830982313
 21
1.182731130280146
 31
0.0
  0
LINE
  5
78
330
1D
100
AcDbEntity
  8
0
  6
Continuous
100
AcDbLine
 10
6.557002402835379
 20
1.98859811756175
 30
0.0
 11
15.28174286348452
 21
1.98859811756175
 31
0.0
  0
LINE
  5
79
330
1D
100
AcDbEntity
  8
0
  6
Continuous
100
AcDbLine
 10
6.557002402835379
 20
2.79792376144114
 30
0.0
 11
6.557002402835379
 21
1.182731130280146
 31
0.0
  0
ENDBLK
  5
7A
330
1D
100
AcDbEntity
  8
0
100
AcDbBlockEnd
  0
BLOCK
  5
7B
330
1E
100
AcDbEntity
  8
0
100
AcDbBlockBegin
  2
BLC27
 70
     0
 10
0.0
 20
0.0
 30
0.0
  3
BLC27
  1

  0
INSERT
  5
7C
330
1E
100
AcDbEntity
  8
SWEDEN2
  6
CENTER
100
AcDbBlockReference
  2
BLC26
 10
0.0806298676206154
 20
0.0379850207146433
 30
0.0
 41
1.006224687463202
 42
1.006224687463202
 43
1.006224687463202
  0
ENDBLK
  5
7D
330
1E
100
AcDbEntity
  8
0
100
AcDbBlockEnd
  0
BLOCK
  5
7E
330
1F
100
AcDbEntity
  8
0
100
AcDbBlockBegin
  2
BLC26
 70
     0
 10
0.0
 20
0.0
 30
0.0
  3
BLC26
  1

  0
ARC
  5
7F
330
1F
100
AcDbEntity
  8
0
  6
Continuous
100
AcDbCircle
 10
-0.1805760986685527
 20
1.179220254965343
 30
0.0
 40
1.196858692389954
100
AcDbArc
 50
90.0
 51
265.7062371869478
  0
LINE
  5
80
330
1F
100
AcDbEntity
  8
0
  6
Continuous
100
AcDbLine
 10
-0.1866378806934961
 20
-0.0109199663277195
 30
0.0
 11
0.4589419049629271
 21
-0.0109199663277195
 31
0.0
  0
LINE
  5
81
330
1F
100
AcDbEntity
  8
0
  6
Continuous
100
AcDbLine
 10
-0.1866378806934961
 20
2.375670901630712
 30
0.0
 11
0.4528801229380406
 21
2.375670901630712
 31
0.0
  0
LINE
  5
82
330
1F
100
AcDbEntity
  8
0
  6
Continuous
100
AcDbLine
 10
-0.1855088671185854
 20
-2.40462935692193
 30
0.0
 11
0.4600709185378947
 21
-2.40462935692193
 31
0.0
  0
ARC
  5
83
330
1F
100
AcDbEntity
  8
0
  6
Continuous
100
AcDbCircle
 10
-0.1805760986685527
 20
-1.207778658717671
 30
0.0
 40
1.196858692389954
100
AcDbArc
 50
90.0
 51
270.0
  0
LINE
  5
84
330
1F
100
AcDbEntity
  8
0
  6
Continuous
100
AcDbLine
 10
0.4515250165858618
 20
-2.404586463428898
 30
0.0
 11
1.401804627155996
 21
-2.404586463428898
 31
0.0
  0
LINE
  5
85
330
1F
100
AcDbEntity
  8
0
  6
Continuous
100
AcDbLine
 10
0.4467851751237788
 20
2.375673621606836
 30
0.0
 11
1.418543909567034
 21
2.375673621606836
 31
0.0
  0
LINE
  5
86
330
1F
100
AcDbEntity
  8
0
  6
Continuous
100
AcDbLine
 10
0.4566268661492927
 20
-0.0109105363144124
 30
0.0
 11
1.422748890188501
 21
-0.0109105363144124
 31
0.0
  0
ENDBLK
  5
87
330
1F
100
AcDbEntity
  8
0
100
AcDbBlockEnd
  0
BLOCK
  5
88
330
20
100
AcDbEntity
  8
0
100
AcDbBlockBegin
  2
BLC22
 70
     0
 10
0.0
 20
0.0
 30
0.0
  3
BLC22
  1

  0
LINE
  5
89
330
20
100
AcDbEntity
  8
HEL035
100
AcDbLine
 10
0.0
 20
-0.0015500000000088
 30
0.0
 11
0.0
 21
9.998450000000048
 31
0.0
  0
LINE
  5
8A
330
20
100
AcDbEntity
  8
21
100
AcDbLine
 10
2.5
 20
10.0
 30
0.0
 11
5.0
 21
10.0
 31
0.0
  0
LINE
  5
8B
330
20
100
AcDbEntity
  8
HEL035
100
AcDbLine
 10
0.0
 20
9.998450000000048
 30
0.0
 11
2.5
 21
9.998450000000048
 31
0.0
  0
LINE
  5
8C
330
20
100
AcDbEntity
  8
HEL035
100
AcDbLine
 10
-2.5
 20
5.0
 30
0.0
 11
2.5
 21
5.0
 31
0.0
  0
LINE
  5
8D
330
20
100
AcDbEntity
  8
21
100
AcDbLine
 10
2.5
 20
5.0
 30
0.0
 11
5.0
 21
5.0
 31
0.0
  0
LINE
  5
8E
330
20
100
AcDbEntity
  8
21
100
AcDbLine
 10
5.0
 20
5.0
 30
0.0
 11
5.0
 21
7.900000000000005
 31
0.0
  0
LINE
  5
8F
330
20
100
AcDbEntity
  8
HEL035
100
AcDbLine
 10
3.880950475618021
 20
6.944424757063899
 30
0.0
 11
4.560313229692326
 21
6.008681430563825
 31
0.0
  0
LINE
  5
90
330
20
100
AcDbEntity
  8
21
100
AcDbLine
 10
10.0
 20
10.0
 30
0.0
 11
4.199999999999988
 21
6.5
 31
0.0
  0
LINE
  5
91
330
20
100
AcDbEntity
  8
HEL035
100
AcDbLine
 10
2.5
 20
-0.0015500000000088
 30
0.0
 11
0.0
 21
-0.0015500000000088
 31
0.0
  0
LINE
  5
92
330
20
100
AcDbEntity
  8
21
100
AcDbLine
 10
2.5
 20
0.0
 30
0.0
 11
5.0
 21
0.0
 31
0.0
  0
ENDBLK
  5
93
330
20
100
AcDbEntity
  8
0
100
AcDbBlockEnd
  0
BLOCK
  5
94
330
21
100
AcDbEntity
  8
0
100
AcDbBlockBegin
  2
BLC18
 70
     0
 10
0.0
 20
0.0
 30
0.0
  3
BLC18
  1

  0
LINE
  5
95
330
21
100
AcDbEntity
  8
MUO
100
AcDbLine
 10
-0.0562679883412756
 20
0.8495546738177921
 30
0.0
 11
8.307242059683858
 21
9.215501804109429
 31
0.0
  0
LINE
  5
96
330
21
100
AcDbEntity
  8
MUO
100
AcDbLine
 10
0.9280248765246881
 20
-0.107047211869272
 30
0.0
 11
9.268385649226672
 21
8.230699888388677
 31
0.0
  0
LINE
  5
97
330
21
100
AcDbEntity
  8
MUO
100
AcDbLine
 10
-0.0562679883412756
 20
-0.107047211869272
 30
0.0
 11
-0.0562679883412756
 21
9.215501804109429
 31
0.0
  0
LINE
  5
98
330
21
100
AcDbEntity
  8
MUO
100
AcDbLine
 10
9.268385649226672
 20
-0.107047211869272
 30
0.0
 11
-0.0562679883412756
 21
-0.107047211869272
 31
0.0
  0
LINE
  5
99
330
21
100
AcDbEntity
  8
MUO
100
AcDbLine
 10
9.268385649226672
 20
9.215501804109429
 30
0.0
 11
9.268385649226672
 21
-0.107047211869272
 31
0.0
  0
LINE
  5
9A
330
21
100
AcDbEntity
  8
MUO
100
AcDbLine
 10
-0.0562679883412756
 20
9.215501804109429
 30
0.0
 11
9.268385649226672
 21
9.215501804109429
 31
0.0
  0
ENDBLK
  5
9B
330
21
100
AcDbEntity
  8
0
100
AcDbBlockEnd
  0
BLOCK
  5
9C
330
22
100
AcDbEntity
  8
0
100
AcDbBlockBegin
  2
BLC29
 70
     0
 10
0.0
 20
0.0
 30
0.0
  3
BLC29
  1

  0
LINE
  5
9D
330
22
100
AcDbEntity
  8
0
  6
Continuous
100
AcDbLine
 10
0.0048653824876794
 20
1.206889041390212
 30
0.0
 11
2.350630894713304
 21
-0.1284646699785696
 31
0.0
  0
LINE
  5
9E
330
22
100
AcDbEntity
  8
0
  6
Continuous
100
AcDbLine
 10
2.350630894713304
 20
-0.1284646699785696
 30
0.0
 11
0.0048653824876794
 21
-1.318383818722992
 31
0.0
  0
ENDBLK
  5
9F
330
22
100
AcDbEntity
  8
0
100
AcDbBlockEnd
  0
BLOCK
  5
A0
330
23
100
AcDbEntity
  8
0
100
AcDbBlockBegin
  2
WKU130
 70
     0
 10
190.0
 20
250.0
 30
0.0
  3
WKU130
  1

  0
ARC
  5
A1
330
23
100
AcDbEntity
  8
21
100
AcDbCircle
 10
191.083333
 20
249.916667
 30
0.0
 40
1.086534
100
AcDbArc
 50
32.47119199999999
 51
175.6012949999999
  0
ARC
  5
A2
330
23
100
AcDbEntity
  8
21
100
AcDbCircle
 10
192.9166669999999
 20
251.083333
 30
0.0
 40
1.086534
100
AcDbArc
 50
212.471192
 51
355.6012949999999
  0
ENDBLK
  5
A3
330
23
100
AcDbEntity
  8
0
100
AcDbBlockEnd
  0
BLOCK
  5
A4
330
24
100
AcDbEntity
  8
0
100
AcDbBlockBegin
  2
BLC15
 70
     0
 10
0.0
 20
0.0
 30
0.0
  3
BLC15
  1

  0
LINE
  5
A5
330
24
100
AcDbEntity
  8
0
  6
Continuous
100
AcDbLine
 10
0.1420843676212655
 20
3.490022375113255
 30
0.0
 11
0.1420843676212655
 21
0.8443648832166417
 31
0.0
  0
LINE
  5
A6
330
24
100
AcDbEntity
  8
0
  6
Continuous
100
AcDbLine
 10
-0.4616105474578376
 20
-0.9371884861638335
 30
0.0
 11
0.7457792827003687
 21
-0.9371884861638335
 31
0.0
  0
LINE
  5
A7
330
24
100
AcDbEntity
  8
0
  6
Continuous
100
AcDbLine
 10
-0.8941083970667307
 20
-0.0496747197325362
 30
0.0
 11
1.169266760442411
 21
-0.0496747197325362
 31
0.0
  0
LINE
  5
A8
330
24
100
AcDbEntity
  8
0
  6
Continuous
100
AcDbLine
 10
-1.389678849743603
 20
0.8443648832166417
 30
0.0
 11
1.673847584986134
 21
0.8443648832166417
 31
0.0
  0
ENDBLK
  5
A9
330
24
100
AcDbEntity
  8
0
100
AcDbBlockEnd
  0
BLOCK
  5
AA
330
25
100
AcDbEntity
  8
0
100
AcDbBlockBegin
  2
BLC5
 70
     0
 10
0.0
 20
0.0
 30
0.0
  3
BLC5
  1

  0
TEXT
  5
AB
330
25
100
AcDbEntity
  8
0
100
AcDbText
 10
-3.043703616622593
 20
-6.645911909806137
 30
0.0
 40
3.2
  1
PE
100
AcDbText
  0
LINE
  5
AC
330
25
100
AcDbEntity
  8
0
100
AcDbLine
 10
-2.946391600460657
 20
1.181176409735783
 30
0.0
 11
2.135458132443943
 21
1.181176409735783
 31
0.0
  0
LINE
  5
AD
330
25
100
AcDbEntity
  8
0
100
AcDbLine
 10
-0.4865600808100226
 20
2.238361925631892
 30
0.0
 11
-0.4865600808100226
 21
6.930438381985624
 31
0.0
  0
LINE
  5
AE
330
25
100
AcDbEntity
  8
0
100
AcDbLine
 10
-1.973271438840612
 20
0.0652583651787779
 30
0.0
 11
1.225410573891878
 21
0.0652583651787779
 31
0.0
  0
LINE
  5
AF
330
25
100
AcDbEntity
  8
0
100
AcDbLine
 10
2.685090816321945
 20
2.238361925631892
 30
0.0
 11
1.68493953910135
 21
2.238361925631892
 31
0.0
  0
LINE
  5
B0
330
25
100
AcDbEntity
  8
0
100
AcDbLine
 10
-3.505034656205481
 20
2.238361925631892
 30
0.0
 11
2.649049328854516
 21
2.238361925631892
 31
0.0
  0
CIRCLE
  5
B1
330
25
100
AcDbEntity
  8
0
100
AcDbCircle
 10
-0.4775497089431724
 20
1.422632360897239
 30
0.0
 40
3.80456268992242
  0
ENDBLK
  5
B2
330
25
100
AcDbEntity
  8
0
100
AcDbBlockEnd
  0
BLOCK
  5
B3
330
26
100
AcDbEntity
  8
0
100
AcDbBlockBegin
  2
BLC43
 70
     0
 10
0.0
 20
0.0
 30
0.0
  3
BLC43
  1

  0
TEXT
  5
B4
330
26
100
AcDbEntity
  8
SWEDEN2
  6
Continuous
100
AcDbText
 10
-0.6466721562502756
 20
-0.9863647580152061
 30
0.0
 40
2.0
  1
+
100
AcDbText
  0
ENDBLK
  5
B5
330
26
100
AcDbEntity
  8
0
100
AcDbBlockEnd
  0
BLOCK
  5
B6
330
27
100
AcDbEntity
  8
0
100
AcDbBlockBegin
  2
BLC42
 70
     0
 10
0.0
 20
0.0
 30
0.0
  3
BLC42
  1

  0
TEXT
  5
B7
330
27
100
AcDbEntity
  8
SWEDEN2
  6
Continuous
100
AcDbText
 10
-0.6552371134230981
 20
-0.9944195846351995
 30
0.0
 40
2.0
  1
-
100
AcDbText
  0
ENDBLK
  5
B8
330
27
100
AcDbEntity
  8
0
100
AcDbBlockEnd
  0
BLOCK
  5
B9
330
28
100
AcDbEntity
  8
0
100
AcDbBlockBegin
  2
BLC25
 70
     0
 10
0.0
 20
0.0
 30
0.0
  3
BLC25
  1

  0
TEXT
  5
BA
330
28
100
AcDbEntity
  8
0
  6
Continuous
100
AcDbText
 10
2.0
 20
30.66666666666667
 30
0.0
 40
2.0
  1
1)
 11
2.0
 21
30.0
 31
0.0
100
AcDbText
 73
     1
  0
TEXT
  5
BB
330
28
100
AcDbEntity
  8
0
100
AcDbText
 10
6.0
 20
1.999999999999992
 30
0.0
 40
2.0
  1
7B    27     26
 11
6.0
 21
1.333333333333328
 31
0.0
100
AcDbText
 73
     1
  0
TEXT
  5
BC
330
28
100
AcDbEntity
  8
0
100
AcDbText
 10
6.0
 20
5.333333333333328
 30
0.0
 40
2.0
  1
5B     9      8
 11
6.0
 21
4.666666666666664
 31
0.0
100
AcDbText
 73
     1
  0
TEXT
  5
BD
330
28
100
AcDbEntity
  8
0
100
AcDbText
 10
6.0
 20
8.666666666666671
 30
0.0
 40
2.0
  1
3B     3      2
 11
6.0
 21
8.0
 31
0.0
100
AcDbText
 73
     1
  0
TEXT
  5
BE
330
28
100
AcDbEntity
  8
0
100
AcDbText
 10
32.0
 20
12.66666666666667
 30
0.0
 40
2.0
  1
In=5A
 11
32.0
 21
12.0
 31
0.0
100
AcDbText
 73
     1
  0
TEXT
  5
BF
330
28
100
AcDbEntity
  8
0
100
AcDbText
 10
16.0
 20
12.66666666666667
 30
0.0
 40
2.0
  1
In=1A 
 11
16.0
 21
12.0
 31
0.0
100
AcDbText
 73
     1
  0
TEXT
  5
C0
330
28
100
AcDbEntity
  8
0
100
AcDbText
 10
26.0
 20
18.66666666666667
 30
0.0
 40
2.0
  1
108:
 11
26.0
 21
18.0
 31
0.0
100
AcDbText
 73
     1
  0
TEXT
  5
C1
330
28
100
AcDbEntity
  8
0
100
AcDbText
 10
6.0
 20
18.66666666666667
 30
0.0
 40
2.0
  1
101:       
 11
6.0
 21
18.0
 31
0.0
100
AcDbText
 73
     1
  0
TEXT
  5
C2
330
28
100
AcDbEntity
  8
0
100
AcDbText
 10
6.0
 20
24.66666666666667
 30
0.0
 40
2.0
  1
TERMINALS / UTTAG
 11
6.0
 21
24.0
 31
0.0
100
AcDbText
 73
     1
  0
LINE
  5
C3
330
28
100
AcDbEntity
  8
0
100
AcDbLine
 10
0.0
 20
12.0
 30
0.0
 11
44.0
 21
12.0
 31
0.0
  0
LINE
  5
C4
330
28
100
AcDbEntity
  8
0
100
AcDbLine
 10
28.0
 20
18.0
 30
0.0
 11
28.0
 21
0.0
 31
0.0
  0
LINE
  5
C5
330
28
100
AcDbEntity
  8
0
100
AcDbLine
 10
14.0
 20
18.0
 30
0.0
 11
44.0
 21
18.0
 31
0.0
  0
LINE
  5
C6
330
28
100
AcDbEntity
  8
0
100
AcDbLine
 10
14.0
 20
24.0
 30
0.0
 11
14.0
 21
0.0
 31
0.0
  0
LINE
  5
C7
330
28
100
AcDbEntity
  8
0
100
AcDbLine
 10
0.0
 20
24.0
 30
0.0
 11
44.0
 21
24.0
 31
0.0
  0
LINE
  5
C8
330
28
100
AcDbEntity
  8
0
100
AcDbLine
 10
44.0
 20
0.0
 30
0.0
 11
44.0
 21
30.0
 31
0.0
  0
LINE
  5
C9
330
28
100
AcDbEntity
  8
0
100
AcDbLine
 10
0.0
 20
0.0
 30
0.0
 11
44.0
 21
0.0
 31
0.0
  0
LINE
  5
CA
330
28
100
AcDbEntity
  8
0
100
AcDbLine
 10
0.0
 20
30.0
 30
0.0
 11
0.0
 21
0.0
 31
0.0
  0
LINE
  5
CB
330
28
100
AcDbEntity
  8
0
100
AcDbLine
 10
44.0
 20
30.0
 30
0.0
 11
0.0
 21
30.0
 31
0.0
  0
ENDBLK
  5
CC
330
28
100
AcDbEntity
  8
0
100
AcDbBlockEnd
  0
BLOCK
  5
CD
330
29
100
AcDbEntity
  8
0
100
AcDbBlockBegin
  2
ABBA3V
 70
     0
 10
0.0
 20
0.0
 30
0.0
  3
ABBA3V
  1

  0
TEXT
  5
CE
330
29
100
AcDbEntity
  8
RAAMI
  6
DASHED
100
AcDbText
 10
292.217194262135
 20
11.81335905974098
 30
0.0
 40
3.0
  1
A3
  7
GREEKS
100
AcDbText
  0
TEXT
  5
CF
330
29
100
AcDbEntity
  8
RAAMI
  6
DASHED
100
AcDbText
 10
351.8185767466981
 20
15.69252984362215
 30
0.0
 40
1.399999999999999
  1
LEHTI SHEET
  7
GREEKS
100
AcDbText
  0
LINE
  5
D0
330
29
100
AcDbEntity
  8
PAKSU
100
AcDbLine
 10
0.2370990874900258
 20
262.7379992524221
 30
0.0
 11
392.23709908749
 21
262.7379992524221
 31
0.0
  0
LINE
  5
D1
330
29
100
AcDbEntity
  8
RAAMI
100
AcDbLine
 10
18.23709908749002
 20
0.2379992524221779
 30
0.0
 11
0.2370990874900258
 21
0.2379992524221779
 31
0.0
  0
LINE
  5
D2
330
29
100
AcDbEntity
  8
PAKSU
100
AcDbLine
 10
209.23709908749
 20
0.2379992524221779
 30
0.0
 11
392.23709908749
 21
0.2379992524221779
 31
0.0
  0
LINE
  5
D3
330
29
100
AcDbEntity
  8
PAKSU
100
AcDbLine
 10
209.23709908749
 20
0.2379992524221779
 30
0.0
 11
209.23709908749
 21
35.23799925242217
 31
0.0
  0
LINE
  5
D4
330
29
100
AcDbEntity
  8
PAKSU
100
AcDbLine
 10
392.23709908749
 20
0.2379992524221779
 30
0.0
 11
392.23709908749
 21
35.23799925242217
 31
0.0
  0
LINE
  5
D5
330
29
100
AcDbEntity
  8
OHUT
100
AcDbLine
 10
209.23709908749
 20
18.23799925242217
 30
0.0
 11
392.23709908749
 21
18.23799925242217
 31
0.0
  0
LINE
  5
D6
330
29
100
AcDbEntity
  8
OHUT
100
AcDbLine
 10
209.23709908749
 20
9.737999252422177
 30
0.0
 11
392.23709908749
 21
9.737999252422177
 31
0.0
  0
LINE
  5
D7
330
29
100
AcDbEntity
  8
OHUT
100
AcDbLine
 10
209.23709908749
 20
26.73799925242217
 30
0.0
 11
307.23709908749
 21
26.73799925242217
 31
0.0
  0
LINE
  5
D8
330
29
100
AcDbEntity
  8
PAKSU
100
AcDbLine
 10
209.23709908749
 20
35.23799925242217
 30
0.0
 11
392.23709908749
 21
35.23799925242217
 31
0.0
  0
TEXT
  5
D9
330
29
100
AcDbEntity
  8
RAAMI
100
AcDbText
 10
210.23709908749
 20
23.97133258575551
 30
0.0
 40
1.399999999999999
  1
TARKASTI  CHECKED
  7
ROMANS
100
AcDbText
  0
TEXT
  5
DA
330
29
100
AcDbEntity
  8
RAAMI
100
AcDbText
 10
209.9799338133564
 20
15.70466591908884
 30
0.0
 40
1.399999999999999
  1
HYVŽKSYI  APPROVED
  7
ROMANS
100
AcDbText
  0
LINE
  5
DB
330
29
100
AcDbEntity
  8
OHUT
100
AcDbLine
 10
307.23709908749
 20
0.2379992524221779
 30
0.0
 11
307.23709908749
 21
35.23799925242217
 31
0.0
  0
TEXT
  5
DC
330
29
100
AcDbEntity
  8
RAAMI
100
AcDbText
 10
259.23709908749
 20
32.73799925242217
 30
0.0
 40
1.399999999999999
  1
LIITTYY  CONCERNING
  7
ROMANS
100
AcDbText
  0
TEXT
  5
DD
330
29
100
AcDbEntity
  8
RAAMI
100
AcDbText
 10
259.23709908749
 20
23.73799925242217
 30
0.0
 40
1.399999999999999
  1
TOLERANSSIT  TOLERANCES
  7
ROMANS
100
AcDbText
  0
TEXT
  5
DE
330
29
100
AcDbEntity
  8
RAAMI
100
AcDbText
 10
259.23709908749
 20
15.73799925242217
 30
0.0
 40
1.399999999999999
  1
SUHDE  SCALE
  7
ROMANS
100
AcDbText
  0
TEXT
  5
DF
330
29
100
AcDbEntity
  8
RAAMI
100
AcDbText
 10
309.23709908749
 20
32.73799925242217
 30
0.0
 40
1.399999999999999
  1
NIMITYS  NAME
  7
ROMANS
100
AcDbText
  0
TEXT
  5
E0
330
29
100
AcDbEntity
  8
RAAMI
100
AcDbText
 10
309.23709908749
 20
15.73799925242217
 30
0.0
 40
1.399999999999999
  1
KOODI  CODE
  7
ROMANS
100
AcDbText
  0
TEXT
  5
E1
330
29
100
AcDbEntity
  8
RAAMI
100
AcDbText
 10
309.23709908749
 20
7.237999252422177
 30
0.0
 40
1.399999999999999
  1
PIIRUSTUS NO  DRAWING NR
  7
ROMANS
100
AcDbText
  0
LINE
  5
E2
330
29
100
AcDbEntity
  8
OHUT
100
AcDbLine
 10
349.73709908749
 20
9.737999252422177
 30
0.0
 11
349.73709908749
 21
18.23799925242217
 31
0.0
  0
TEXT
  5
E3
330
29
100
AcDbEntity
  8
RAAMI
100
AcDbText
 10
371.23709908749
 20
7.237999252422177
 30
0.0
 40
1.399999999999999
  1
PAINOS  REVISION
  7
ROMANS
100
AcDbText
  0
LINE
  5
E4
330
29
100
AcDbEntity
  8
OHUT
100
AcDbLine
 10
369.73709908749
 20
9.737999252422177
 30
0.0
 11
369.73709908749
 21
0.2379992524221779
 31
0.0
  0
LINE
  5
E5
330
29
100
AcDbEntity
  8
RAAMI
100
AcDbLine
 10
210.18709908749
 20
1.737999252422177
 30
0.0
 11
211.93709908749
 21
1.737999252422177
 31
0.0
  0
LINE
  5
E6
330
29
100
AcDbEntity
  8
RAAMI
100
AcDbLine
 10
215.43709908749
 20
1.737999252422177
 30
0.0
 11
217.18709908749
 21
1.737999252422177
 31
0.0
  0
LINE
  5
E7
330
29
100
AcDbEntity
  8
RAAMI
100
AcDbLine
 10
212.63709908749
 20
8.737999252422177
 30
0.0
 11
211.4595712478463
 21
5.373633996297456
 31
0.0
  0
LINE
  5
E8
330
29
100
AcDbEntity
  8
RAAMI
100
AcDbLine
 10
212.4258857855872
 20
3.137999252422176
 30
0.0
 11
213.54709908749
 21
3.137999252422176
 31
0.0
  0
LINE
  5
E9
330
29
100
AcDbEntity
  8
RAAMI
100
AcDbLine
 10
212.4258889824527
 20
3.134541809458486
 30
0.0
 11
211.93709908749
 21
1.737999252422177
 31
0.0
  0
LINE
  5
EA
330
29
100
AcDbEntity
  8
RAAMI
100
AcDbLine
 10
214.73709908749
 20
8.737999252422177
 30
0.0
 11
215.9134520127146
 21
5.376990894637707
 31
0.0
  0
LINE
  5
EB
330
29
100
AcDbEntity
  8
RAAMI
100
AcDbLine
 10
214.9481967907755
 20
3.134862957320585
 30
0.0
 11
215.43709908749
 21
1.737999252422177
 31
0.0
  0
LINE
  5
EC
330
29
100
AcDbEntity
  8
RAAMI
100
AcDbLine
 10
214.73709908749
 20
8.737999252422177
 30
0.0
 11
213.82709908749
 21
8.737999252422177
 31
0.0
  0
LINE
  5
ED
330
29
100
AcDbEntity
  8
RAAMI
100
AcDbLine
 10
213.54709908749
 20
8.737999252422177
 30
0.0
 11
213.54709908749
 21
5.377999252422178
 31
0.0
  0
LINE
  5
EE
330
29
100
AcDbEntity
  8
RAAMI
100
AcDbLine
 10
213.82709908749
 20
8.737999252422177
 30
0.0
 11
213.82709908749
 21
5.377999252422178
 31
0.0
  0
LINE
  5
EF
330
29
100
AcDbEntity
  8
RAAMI
100
AcDbLine
 10
213.82709908749
 20
3.137999252422176
 30
0.0
 11
214.9469924809167
 21
3.137999252422176
 31
0.0
  0
LINE
  5
F0
330
29
100
AcDbEntity
  8
RAAMI
100
AcDbLine
 10
213.54709908749
 20
8.737999252422177
 30
0.0
 11
212.63709908749
 21
8.737999252422177
 31
0.0
  0
LINE
  5
F1
330
29
100
AcDbEntity
  8
RAAMI
100
AcDbLine
 10
211.4590398011296
 20
5.377999252422178
 30
0.0
 11
213.54709908749
 21
5.377999252422178
 31
0.0
  0
LINE
  5
F2
330
29
100
AcDbEntity
  8
RAAMI
100
AcDbLine
 10
211.3600815769602
 20
5.097999252422177
 30
0.0
 11
213.54709908749
 21
5.097999252422177
 31
0.0
  0
LINE
  5
F3
330
29
100
AcDbEntity
  8
RAAMI
100
AcDbLine
 10
216.0115910012183
 20
5.096593784627025
 30
0.0
 11
217.18709908749
 21
1.737999252422177
 31
0.0
  0
LINE
  5
F4
330
29
100
AcDbEntity
  8
RAAMI
100
AcDbLine
 10
213.82709908749
 20
5.377999252422178
 30
0.0
 11
215.9122127349171
 21
5.377999252422178
 31
0.0
  0
LINE
  5
F5
330
29
100
AcDbEntity
  8
RAAMI
100
AcDbLine
 10
213.82709908749
 20
5.097999252422177
 30
0.0
 11
216.0103556182099
 21
5.097999252422177
 31
0.0
  0
LINE
  5
F6
330
29
100
AcDbEntity
  8
RAAMI
100
AcDbLine
 10
213.82709908749
 20
5.097999252422177
 30
0.0
 11
213.82709908749
 21
3.137999252422176
 31
0.0
  0
LINE
  5
F7
330
29
100
AcDbEntity
  8
RAAMI
100
AcDbLine
 10
213.54709908749
 20
5.097999252422177
 30
0.0
 11
213.54709908749
 21
3.137999252422176
 31
0.0
  0
LINE
  5
F8
330
29
100
AcDbEntity
  8
RAAMI
100
AcDbLine
 10
211.3569877289154
 20
5.080538227923291
 30
0.0
 11
210.18709908749
 21
1.737999252422177
 31
0.0
  0
INSERT
  5
F9
330
29
100
AcDbEntity
  8
RAAMI
100
AcDbBlockReference
  2
*X14
 10
210.18709908749
 20
1.737999252422177
 30
0.0
 41
0.7
 42
0.7
 43
0.7
  0
INSERT
  5
FA
330
29
100
AcDbEntity
  8
RAAMI
100
AcDbBlockReference
  2
*X15
 10
210.18709908749
 20
1.737999252422177
 30
0.0
 41
0.7
 42
0.7
 43
0.7
  0
INSERT
  5
FB
330
29
100
AcDbEntity
  8
RAAMI
100
AcDbBlockReference
  2
*X16
 10
210.18709908749
 20
1.737999252422177
 30
0.0
 41
0.7
 42
0.7
 43
0.7
  0
INSERT
  5
FC
330
29
100
AcDbEntity
  8
RAAMI
100
AcDbBlockReference
  2
*X17
 10
210.18709908749
 20
1.737999252422177
 30
0.0
 41
0.7
 42
0.7
 43
0.7
  0
LINE
  5
FD
330
29
100
AcDbEntity
  8
RAAMI
100
AcDbLine
 10
217.67709908749
 20
1.737999252422177
 30
0.0
 11
217.67709908749
 21
5.097999252422177
 31
0.0
  0
LINE
  5
FE
330
29
100
AcDbEntity
  8
RAAMI
100
AcDbLine
 10
217.67709908749
 20
8.737999252422177
 30
0.0
 11
219.63709908749
 21
8.737999252422177
 31
0.0
  0
LINE
  5
FF
330
29
100
AcDbEntity
  8
RAAMI
100
AcDbLine
 10
219.63709908749
 20
8.737999252422177
 30
0.0
 11
219.63709908749
 21
5.377999252422178
 31
0.0
  0
LINE
  5
100
330
29
100
AcDbEntity
  8
RAAMI
100
AcDbLine
 10
219.63709908749
 20
5.377999252422178
 30
0.0
 11
217.67709908749
 21
5.377999252422178
 31
0.0
  0
LINE
  5
101
330
29
100
AcDbEntity
  8
RAAMI
100
AcDbLine
 10
217.67709908749
 20
5.097999252422177
 30
0.0
 11
219.63709908749
 21
5.097999252422177
 31
0.0
  0
LINE
  5
102
330
29
100
AcDbEntity
  8
RAAMI
100
AcDbLine
 10
219.63709908749
 20
5.097999252422177
 30
0.0
 11
219.63709908749
 21
1.737999252422177
 31
0.0
  0
LINE
  5
103
330
29
100
AcDbEntity
  8
RAAMI
100
AcDbLine
 10
219.63709908749
 20
1.737999252422177
 30
0.0
 11
217.67709908749
 21
1.737999252422177
 31
0.0
  0
LINE
  5
104
330
29
100
AcDbEntity
  8
RAAMI
100
AcDbLine
 10
217.67709908749
 20
5.377999252422178
 30
0.0
 11
217.67709908749
 21
8.737999252422177
 31
0.0
  0
ARC
  5
105
330
29
100
AcDbEntity
  8
RAAMI
100
AcDbCircle
 10
220.47709908749
 20
7.162999252422174
 30
0.0
 40
1.574999999999998
100
AcDbArc
 50
298.4558593394117
 51
90.0524369955635
  0
LINE
  5
106
330
29
100
AcDbEntity
  8
RAAMI
100
AcDbLine
 10
219.91709908749
 20
8.737999252422177
 30
0.0
 11
220.4756576504909
 21
8.737998592821838
 31
0.0
  0
LINE
  5
107
330
29
100
AcDbEntity
  8
RAAMI
100
AcDbLine
 10
219.91709908749
 20
8.737999252422177
 30
0.0
 11
219.91709908749
 21
5.377999252422178
 31
0.0
  0
LINE
  5
108
330
29
100
AcDbEntity
  8
RAAMI
100
AcDbLine
 10
219.91709908749
 20
5.377999252422178
 30
0.0
 11
221.9015418540271
 21
5.377999252422178
 31
0.0
  0
LINE
  5
109
330
29
100
AcDbEntity
  8
RAAMI
100
AcDbLine
 10
222.15709908749
 20
5.097999252422177
 30
0.0
 11
219.91709908749
 21
5.097999252422177
 31
0.0
  0
LINE
  5
10A
330
29
100
AcDbEntity
  8
RAAMI
100
AcDbLine
 10
219.91709908749
 20
5.097999252422177
 30
0.0
 11
219.91709908749
 21
1.737999252422177
 31
0.0
  0
ARC
  5
10B
330
29
100
AcDbEntity
  8
RAAMI
100
AcDbCircle
 10
220.47709908749
 20
3.837999252422179
 30
0.0
 40
2.099999999999998
100
AcDbArc
 50
269.9377244294032
 51
37.05655321680703
  0
LINE
  5
10C
330
29
100
AcDbEntity
  8
RAAMI
100
AcDbLine
 10
219.91709908749
 20
1.737999252422177
 30
0.0
 11
220.4748165690634
 21
1.738000492872633
 31
0.0
  0
ARC
  5
10D
330
29
100
AcDbEntity
  8
RAAMI
100
AcDbCircle
 10
220.47709908749
 20
3.837999252422179
 30
0.0
 40
2.099999999999998
100
AcDbArc
 50
47.28621969132301
 51
68.78799932186918
  0
INSERT
  5
10E
330
29
100
AcDbEntity
  8
RAAMI
100
AcDbBlockReference
  2
*X18
 10
210.18709908749
 20
1.737999252422177
 30
0.0
 41
0.7
 42
0.7
 43
0.7
  0
INSERT
  5
10F
330
29
100
AcDbEntity
  8
RAAMI
100
AcDbBlockReference
  2
*X19
 10
210.18709908749
 20
1.737999252422177
 30
0.0
 41
0.7
 42
0.7
 43
0.7
  0
INSERT
  5
110
330
29
100
AcDbEntity
  8
RAAMI
100
AcDbBlockReference
  2
*X20
 10
210.18709908749
 20
1.737999252422177
 30
0.0
 41
0.7
 42
0.7
 43
0.7
  0
INSERT
  5
111
330
29
100
AcDbEntity
  8
RAAMI
100
AcDbBlockReference
  2
*X21
 10
210.18709908749
 20
1.737999252422177
 30
0.0
 41
0.7
 42
0.7
 43
0.7
  0
INSERT
  5
112
330
29
100
AcDbEntity
  8
RAAMI
100
AcDbBlockReference
  2
*X21
 10
215.64709908749
 20
1.737999252422177
 30
0.0
 41
0.7
 42
0.7
 43
0.7
  0
INSERT
  5
113
330
29
100
AcDbEntity
  8
RAAMI
100
AcDbBlockReference
  2
*X20
 10
215.64709908749
 20
1.737999252422177
 30
0.0
 41
0.7
 42
0.7
 43
0.7
  0
INSERT
  5
114
330
29
100
AcDbEntity
  8
RAAMI
100
AcDbBlockReference
  2
*X19
 10
215.64709908749
 20
1.737999252422177
 30
0.0
 41
0.7
 42
0.7
 43
0.7
  0
INSERT
  5
115
330
29
100
AcDbEntity
  8
RAAMI
100
AcDbBlockReference
  2
*X18
 10
215.64709908749
 20
1.737999252422177
 30
0.0
 41
0.7
 42
0.7
 43
0.7
  0
ARC
  5
116
330
29
100
AcDbEntity
  8
RAAMI
100
AcDbCircle
 10
225.93709908749
 20
3.837999252422179
 30
0.0
 40
2.099999999999998
100
AcDbArc
 50
47.28621969132301
 51
68.78799932186918
  0
LINE
  5
117
330
29
100
AcDbEntity
  8
RAAMI
100
AcDbLine
 10
225.37709908749
 20
1.737999252422177
 30
0.0
 11
225.9348165690634
 21
1.738000492872633
 31
0.0
  0
ARC
  5
118
330
29
100
AcDbEntity
  8
RAAMI
100
AcDbCircle
 10
225.93709908749
 20
3.837999252422179
 30
0.0
 40
2.099999999999998
100
AcDbArc
 50
269.9377244294032
 51
37.05655321680703
  0
LINE
  5
119
330
29
100
AcDbEntity
  8
RAAMI
100
AcDbLine
 10
225.37709908749
 20
5.097999252422177
 30
0.0
 11
225.37709908749
 21
1.737999252422177
 31
0.0
  0
LINE
  5
11A
330
29
100
AcDbEntity
  8
RAAMI
100
AcDbLine
 10
227.61709908749
 20
5.097999252422177
 30
0.0
 11
225.37709908749
 21
5.097999252422177
 31
0.0
  0
LINE
  5
11B
330
29
100
AcDbEntity
  8
RAAMI
100
AcDbLine
 10
225.37709908749
 20
5.377999252422178
 30
0.0
 11
227.3615418540271
 21
5.377999252422178
 31
0.0
  0
LINE
  5
11C
330
29
100
AcDbEntity
  8
RAAMI
100
AcDbLine
 10
225.37709908749
 20
8.737999252422177
 30
0.0
 11
225.37709908749
 21
5.377999252422178
 31
0.0
  0
LINE
  5
11D
330
29
100
AcDbEntity
  8
RAAMI
100
AcDbLine
 10
225.37709908749
 20
8.737999252422177
 30
0.0
 11
225.9356576504909
 21
8.737998592821838
 31
0.0
  0
ARC
  5
11E
330
29
100
AcDbEntity
  8
RAAMI
100
AcDbCircle
 10
225.93709908749
 20
7.162999252422174
 30
0.0
 40
1.574999999999998
100
AcDbArc
 50
298.4558593394117
 51
90.0524369955635
  0
LINE
  5
11F
330
29
100
AcDbEntity
  8
RAAMI
100
AcDbLine
 10
223.13709908749
 20
5.377999252422178
 30
0.0
 11
223.13709908749
 21
8.737999252422177
 31
0.0
  0
LINE
  5
120
330
29
100
AcDbEntity
  8
RAAMI
100
AcDbLine
 10
225.09709908749
 20
1.737999252422177
 30
0.0
 11
223.13709908749
 21
1.737999252422177
 31
0.0
  0
LINE
  5
121
330
29
100
AcDbEntity
  8
RAAMI
100
AcDbLine
 10
225.09709908749
 20
5.097999252422177
 30
0.0
 11
225.09709908749
 21
1.737999252422177
 31
0.0
  0
LINE
  5
122
330
29
100
AcDbEntity
  8
RAAMI
100
AcDbLine
 10
223.13709908749
 20
5.097999252422177
 30
0.0
 11
225.09709908749
 21
5.097999252422177
 31
0.0
  0
LINE
  5
123
330
29
100
AcDbEntity
  8
RAAMI
100
AcDbLine
 10
225.09709908749
 20
5.377999252422178
 30
0.0
 11
223.13709908749
 21
5.377999252422178
 31
0.0
  0
LINE
  5
124
330
29
100
AcDbEntity
  8
RAAMI
100
AcDbLine
 10
225.09709908749
 20
8.737999252422177
 30
0.0
 11
225.09709908749
 21
5.377999252422178
 31
0.0
  0
LINE
  5
125
330
29
100
AcDbEntity
  8
RAAMI
100
AcDbLine
 10
223.13709908749
 20
8.737999252422177
 30
0.0
 11
225.09709908749
 21
8.737999252422177
 31
0.0
  0
LINE
  5
126
330
29
100
AcDbEntity
  8
RAAMI
100
AcDbLine
 10
223.13709908749
 20
1.737999252422177
 30
0.0
 11
223.13709908749
 21
5.097999252422177
 31
0.0
  0
TEXT
  5
127
330
29
100
AcDbEntity
  8
RAAMI
100
AcDbText
 10
229.73709908749
 20
1.737999252422177
 30
0.0
 40
3.0
  1
ABB 
 41
0.8
  7
ROMANS
100
AcDbText
  0
TEXT
  5
128
330
29
100
AcDbEntity
  8
RAAMI
100
AcDbText
 10
237.73709908749
 20
1.737999252422177
 30
0.0
 40
3.0
  1
Str”mberg
 41
0.8
  7
ROMANS
100
AcDbText
  0
LINE
  5
129
330
29
100
AcDbEntity
  8
OHUT
100
AcDbLine
 10
282.23709908749
 20
9.737999252422177
 30
0.0
 11
282.23709908749
 21
18.23799925242217
 31
0.0
  0
TEXT
  5
12A
330
29
100
AcDbEntity
  8
RAAMI
100
AcDbText
 10
27.73709908749002
 20
4.737999252422177
 30
0.0
 40
1.399999999999999
  1
MUUTOS
  7
ROMANS
100
AcDbText
  0
TEXT
  5
12B
330
29
100
AcDbEntity
  8
RAAMI
100
AcDbText
 10
27.73709908749002
 20
2.471332585755512
 30
0.0
 40
1.399999999999999
  1
REVISION
  7
ROMANS
100
AcDbText
  0
LINE
  5
12C
330
29
100
AcDbEntity
  8
OHUT
100
AcDbLine
 10
46.73709908749002
 20
9.237999252422177
 30
0.0
 11
209.23709908749
 21
9.237999252422177
 31
0.0
  0
LINE
  5
12D
330
29
100
AcDbEntity
  8
OHUT
100
AcDbLine
 10
46.73709908749002
 20
0.2379992524221779
 30
0.0
 11
46.73709908749002
 21
9.237999252422177
 31
0.0
  0
LINE
  5
12E
330
29
100
AcDbEntity
  8
OHUT
100
AcDbLine
 10
40.73709908749002
 20
4.737999252422177
 30
0.0
 11
209.23709908749
 21
4.737999252422177
 31
0.0
  0
LINE
  5
12F
330
29
100
AcDbEntity
  8
OHUT
100
AcDbLine
 10
257.23709908749
 20
9.737999252422177
 30
0.0
 11
257.23709908749
 21
35.23799925242217
 31
0.0
  0
LINE
  5
130
330
29
100
AcDbEntity
  8
OHUT
100
AcDbLine
 10
271.23709908749
 20
9.737999252422177
 30
0.0
 11
271.23709908749
 21
0.2379992524221779
 31
0.0
  0
TEXT
  5
131
330
29
100
AcDbEntity
  8
RAAMI
100
AcDbText
 10
210.23709908749
 20
32.23799925242218
 30
0.0
 40
1.399999999999999
  1
TEKI  PREPARED
  7
ROMANS
100
AcDbText
  0
TEXT
  5
132
330
29
100
AcDbEntity
  8
RAAMI
100
AcDbText
 10
273.23709908749
 20
7.237999252422177
 30
0.0
 40
1.399999999999999
  1
VAST.OSASTO RESP.DEPT.
  7
ROMANS
100
AcDbText
  0
TEXT
  5
133
330
29
100
AcDbEntity
  8
RAAMI
100
AcDbText
 10
257.4070059842234
 20
1.741782898647898
 30
0.0
 40
3.0
  1
Power
 41
0.8
  7
ROMANS
100
AcDbText
  0
TEXT
  5
134
330
29
100
AcDbEntity
  8
RAAMI
100
AcDbText
 10
42.23709908749002
 20
1.195292064563767
 30
0.0
 40
2.5
  1
B
  7
ROMANS
100
AcDbText
  0
TEXT
  5
135
330
29
100
AcDbEntity
  8
RAAMI
100
AcDbText
 10
42.23709908749002
 20
5.587508451304787
 30
0.0
 40
2.5
  1
C
  7
ROMANS
100
AcDbText
  0
LINE
  5
136
330
29
100
AcDbEntity
  8
PAKSU
100
AcDbLine
 10
0.2370990874900258
 20
0.2379992524221779
 30
0.0
 11
392.23709908749
 21
0.2379992524221779
 31
0.0
  0
LINE
  5
137
330
29
100
AcDbEntity
  8
PAKSU
100
AcDbLine
 10
392.23709908749
 20
262.7379992524221
 30
0.0
 11
392.23709908749
 21
0.2379992524221779
 31
0.0
  0
LINE
  5
138
330
29
100
AcDbEntity
  8
PAKSU
100
AcDbLine
 10
0.2370990874900258
 20
0.2379992524221779
 30
0.0
 11
0.2370990874900258
 21
262.7379992524221
 31
0.0
  0
ENDBLK
  5
139
330
29
100
AcDbEntity
  8
0
100
AcDbBlockEnd
  0
BLOCK
  5
13A
330
2A
100
AcDbEntity
  8
0
100
AcDbBlockBegin
  2
*X14
 70
     1
 10
0.0
 20
0.0
 30
0.0
  3
*X14
  1

  0
LINE
  5
13B
330
2A
100
AcDbEntity
  8
0
 62
     0
100
AcDbLine
 10
2.284498831525768
 20
6.527139518645053
 30
0.0
 11
4.8
 21
9.042640687119284
 31
0.0
  0
LINE
  5
13C
330
2A
100
AcDbEntity
  8
0
 62
     0
100
AcDbLine
 10
2.379686282839342
 20
6.799103665255263
 30
0.0
 11
4.8
 21
9.219417382415922
 31
0.0
  0
LINE
  5
13D
330
2A
100
AcDbEntity
  8
0
 62
     0
100
AcDbLine
 10
2.474873734152915
 20
7.071067811865474
 30
0.0
 11
4.8
 21
9.396194077712559
 31
0.0
  0
LINE
  5
13E
330
2A
100
AcDbEntity
  8
0
 62
     0
100
AcDbLine
 10
2.570061185466489
 20
7.343031958475685
 30
0.0
 11
4.8
 21
9.572970773009195
 31
0.0
  0
LINE
  5
13F
330
2A
100
AcDbEntity
  8
0
 62
     0
100
AcDbLine
 10
2.665248636780063
 20
7.614996105085896
 30
0.0
 11
4.8
 21
9.749747468305832
 31
0.0
  0
LINE
  5
140
330
2A
100
AcDbEntity
  8
0
 62
     0
100
AcDbLine
 10
2.760436088093637
 20
7.886960251696106
 30
0.0
 11
4.8
 21
9.926524163602469
 31
0.0
  0
LINE
  5
141
330
2A
100
AcDbEntity
  8
0
 62
     0
100
AcDbLine
 10
2.85562353940721
 20
8.158924398306316
 30
0.0
 11
4.696699141100895
 21
10.0
 31
0.0
  0
LINE
  5
142
330
2A
100
AcDbEntity
  8
0
 62
     0
100
AcDbLine
 10
2.950810990720784
 20
8.430888544916527
 30
0.0
 11
4.519922445804257
 21
10.0
 31
0.0
  0
LINE
  5
143
330
2A
100
AcDbEntity
  8
0
 62
     0
100
AcDbLine
 10
3.045998442034358
 20
8.702852691526738
 30
0.0
 11
4.343145750507621
 21
10.0
 31
0.0
  0
LINE
  5
144
330
2A
100
AcDbEntity
  8
0
 62
     0
100
AcDbLine
 10
3.141185893347932
 20
8.974816838136948
 30
0.0
 11
4.166369055210983
 21
10.0
 31
0.0
  0
LINE
  5
145
330
2A
100
AcDbEntity
  8
0
 62
     0
100
AcDbLine
 10
3.236373344661505
 20
9.246780984747159
 30
0.0
 11
3.989592359914347
 21
10.0
 31
0.0
  0
LINE
  5
146
330
2A
100
AcDbEntity
  8
0
 62
     0
100
AcDbLine
 10
3.331560795975079
 20
9.51874513135737
 30
0.0
 11
3.81281566461771
 21
10.0
 31
0.0
  0
LINE
  5
147
330
2A
100
AcDbEntity
  8
0
 62
     0
100
AcDbLine
 10
3.426748247288653
 20
9.790709277967581
 30
0.0
 11
3.636038969321073
 21
10.0
 31
0.0
  0
LINE
  5
148
330
2A
100
AcDbEntity
  8
0
 62
     0
100
AcDbLine
 10
2.189311380212195
 20
6.255175372034843
 30
0.0
 11
4.8
 21
8.865863991822648
 31
0.0
  0
LINE
  5
149
330
2A
100
AcDbEntity
  8
0
 62
     0
100
AcDbLine
 10
2.094123928898621
 20
5.983211225424632
 30
0.0
 11
4.8
 21
8.689087296526011
 31
0.0
  0
LINE
  5
14A
330
2A
100
AcDbEntity
  8
0
 62
     0
100
AcDbLine
 10
1.998936477585047
 20
5.711247078814421
 30
0.0
 11
4.8
 21
8.512310601229374
 31
0.0
  0
LINE
  5
14B
330
2A
100
AcDbEntity
  8
0
 62
     0
100
AcDbLine
 10
1.903749026271473
 20
5.439282932204211
 30
0.0
 11
4.8
 21
8.335533905932738
 31
0.0
  0
LINE
  5
14C
330
2A
100
AcDbEntity
  8
0
 62
     0
100
AcDbLine
 10
1.841242789363899
 20
5.2
 30
0.0
 11
4.8
 21
8.1587572106361
 31
0.0
  0
LINE
  5
14D
330
2A
100
AcDbEntity
  8
0
 62
     0
100
AcDbLine
 10
2.018019484660536
 20
5.2
 30
0.0
 11
4.8
 21
7.981980515339463
 31
0.0
  0
LINE
  5
14E
330
2A
100
AcDbEntity
  8
0
 62
     0
100
AcDbLine
 10
2.194796179957173
 20
5.2
 30
0.0
 11
4.8
 21
7.805203820042827
 31
0.0
  0
LINE
  5
14F
330
2A
100
AcDbEntity
  8
0
 62
     0
100
AcDbLine
 10
2.37157287525381
 20
5.2
 30
0.0
 11
4.8
 21
7.62842712474619
 31
0.0
  0
LINE
  5
150
330
2A
100
AcDbEntity
  8
0
 62
     0
100
AcDbLine
 10
2.548349570550447
 20
5.2
 30
0.0
 11
4.8
 21
7.451650429449553
 31
0.0
  0
LINE
  5
151
330
2A
100
AcDbEntity
  8
0
 62
     0
100
AcDbLine
 10
2.725126265847084
 20
5.2
 30
0.0
 11
4.8
 21
7.274873734152916
 31
0.0
  0
LINE
  5
152
330
2A
100
AcDbEntity
  8
0
 62
     0
100
AcDbLine
 10
2.901902961143721
 20
5.2
 30
0.0
 11
4.8
 21
7.098097038856279
 31
0.0
  0
LINE
  5
153
330
2A
100
AcDbEntity
  8
0
 62
     0
100
AcDbLine
 10
3.078679656440358
 20
5.2
 30
0.0
 11
4.8
 21
6.921320343559642
 31
0.0
  0
LINE
  5
154
330
2A
100
AcDbEntity
  8
0
 62
     0
100
AcDbLine
 10
3.255456351736994
 20
5.2
 30
0.0
 11
4.8
 21
6.744543648263006
 31
0.0
  0
LINE
  5
155
330
2A
100
AcDbEntity
  8
0
 62
     0
100
AcDbLine
 10
3.432233047033631
 20
5.2
 30
0.0
 11
4.8
 21
6.567766952966368
 31
0.0
  0
LINE
  5
156
330
2A
100
AcDbEntity
  8
0
 62
     0
100
AcDbLine
 10
3.609009742330268
 20
5.2
 30
0.0
 11
4.8
 21
6.390990257669732
 31
0.0
  0
LINE
  5
157
330
2A
100
AcDbEntity
  8
0
 62
     0
100
AcDbLine
 10
3.785786437626905
 20
5.2
 30
0.0
 11
4.8
 21
6.214213562373095
 31
0.0
  0
LINE
  5
158
330
2A
100
AcDbEntity
  8
0
 62
     0
100
AcDbLine
 10
3.962563132923542
 20
5.2
 30
0.0
 11
4.8
 21
6.037436867076458
 31
0.0
  0
LINE
  5
159
330
2A
100
AcDbEntity
  8
0
 62
     0
100
AcDbLine
 10
4.139339828220179
 20
5.2
 30
0.0
 11
4.8
 21
5.860660171779821
 31
0.0
  0
LINE
  5
15A
330
2A
100
AcDbEntity
  8
0
 62
     0
100
AcDbLine
 10
4.316116523516816
 20
5.2
 30
0.0
 11
4.8
 21
5.683883476483184
 31
0.0
  0
LINE
  5
15B
330
2A
100
AcDbEntity
  8
0
 62
     0
100
AcDbLine
 10
4.492893218813453
 20
5.2
 30
0.0
 11
4.8
 21
5.507106781186547
 31
0.0
  0
LINE
  5
15C
330
2A
100
AcDbEntity
  8
0
 62
     0
100
AcDbLine
 10
4.669669914110089
 20
5.2
 30
0.0
 11
4.8
 21
5.330330085889911
 31
0.0
  0
ENDBLK
  5
15D
330
2A
100
AcDbEntity
  8
0
100
AcDbBlockEnd
  0
BLOCK
  5
15E
330
2B
100
AcDbEntity
  8
0
100
AcDbBlockBegin
  2
*X15
 70
     1
 10
0.0
 20
0.0
 30
0.0
  3
*X15
  1

  0
LINE
  5
15F
330
2B
100
AcDbEntity
  8
0
 62
     0
100
AcDbLine
 10
5.2
 20
6.083883476483183
 30
0.0
 11
7.178252432022877
 21
8.062135908506061
 31
0.0
  0
LINE
  5
160
330
2B
100
AcDbEntity
  8
0
 62
     0
100
AcDbLine
 10
5.2
 20
6.260660171779821
 30
0.0
 11
7.132421436945971
 21
8.19308160872579
 31
0.0
  0
LINE
  5
161
330
2B
100
AcDbEntity
  8
0
 62
     0
100
AcDbLine
 10
5.2
 20
6.437436867076457
 30
0.0
 11
7.086590441869065
 21
8.324027308945522
 31
0.0
  0
LINE
  5
162
330
2B
100
AcDbEntity
  8
0
 62
     0
100
AcDbLine
 10
5.2
 20
6.614213562373095
 30
0.0
 11
7.04075944679216
 21
8.454973009165254
 31
0.0
  0
LINE
  5
163
330
2B
100
AcDbEntity
  8
0
 62
     0
100
AcDbLine
 10
5.2
 20
6.790990257669731
 30
0.0
 11
6.994928451715254
 21
8.585918709384984
 31
0.0
  0
LINE
  5
164
330
2B
100
AcDbEntity
  8
0
 62
     0
100
AcDbLine
 10
5.2
 20
6.967766952966368
 30
0.0
 11
6.949097456638348
 21
8.716864409604715
 31
0.0
  0
LINE
  5
165
330
2B
100
AcDbEntity
  8
0
 62
     0
100
AcDbLine
 10
5.2
 20
7.144543648263005
 30
0.0
 11
6.903266461561442
 21
8.847810109824447
 31
0.0
  0
LINE
  5
166
330
2B
100
AcDbEntity
  8
0
 62
     0
100
AcDbLine
 10
5.2
 20
7.321320343559642
 30
0.0
 11
6.857435466484536
 21
8.978755810044177
 31
0.0
  0
LINE
  5
167
330
2B
100
AcDbEntity
  8
0
 62
     0
100
AcDbLine
 10
5.2
 20
7.498097038856279
 30
0.0
 11
6.81160447140763
 21
9.109701510263908
 31
0.0
  0
LINE
  5
168
330
2B
100
AcDbEntity
  8
0
 62
     0
100
AcDbLine
 10
5.2
 20
7.674873734152916
 30
0.0
 11
6.765773476330724
 21
9.24064721048364
 31
0.0
  0
LINE
  5
169
330
2B
100
AcDbEntity
  8
0
 62
     0
100
AcDbLine
 10
5.2
 20
7.851650429449552
 30
0.0
 11
6.719942481253818
 21
9.37159291070337
 31
0.0
  0
LINE
  5
16A
330
2B
100
AcDbEntity
  8
0
 62
     0
100
AcDbLine
 10
5.2
 20
8.028427124746189
 30
0.0
 11
6.674111486176912
 21
9.502538610923101
 31
0.0
  0
LINE
  5
16B
330
2B
100
AcDbEntity
  8
0
 62
     0
100
AcDbLine
 10
5.2
 20
8.205203820042827
 30
0.0
 11
6.628280491100007
 21
9.633484311142833
 31
0.0
  0
LINE
  5
16C
330
2B
100
AcDbEntity
  8
0
 62
     0
100
AcDbLine
 10
5.2
 20
8.381980515339463
 30
0.0
 11
6.582449496023101
 21
9.764430011362563
 31
0.0
  0
LINE
  5
16D
330
2B
100
AcDbEntity
  8
0
 62
     0
100
AcDbLine
 10
5.2
 20
8.5587572106361
 30
0.0
 11
6.536618500946195
 21
9.895375711582294
 31
0.0
  0
LINE
  5
16E
330
2B
100
AcDbEntity
  8
0
 62
     0
100
AcDbLine
 10
5.2
 20
8.735533905932737
 30
0.0
 11
6.464466094067264
 21
10.0
 31
0.0
  0
LINE
  5
16F
330
2B
100
AcDbEntity
  8
0
 62
     0
100
AcDbLine
 10
5.2
 20
8.912310601229373
 30
0.0
 11
6.287689398770627
 21
10.0
 31
0.0
  0
LINE
  5
170
330
2B
100
AcDbEntity
  8
0
 62
     0
100
AcDbLine
 10
5.2
 20
9.089087296526011
 30
0.0
 11
6.11091270347399
 21
10.0
 31
0.0
  0
LINE
  5
171
330
2B
100
AcDbEntity
  8
0
 62
     0
100
AcDbLine
 10
5.2
 20
9.265863991822648
 30
0.0
 11
5.934136008177353
 21
10.0
 31
0.0
  0
LINE
  5
172
330
2B
100
AcDbEntity
  8
0
 62
     0
100
AcDbLine
 10
5.2
 20
9.442640687119284
 30
0.0
 11
5.757359312880716
 21
10.0
 31
0.0
  0
LINE
  5
173
330
2B
100
AcDbEntity
  8
0
 62
     0
100
AcDbLine
 10
5.2
 20
9.619417382415921
 30
0.0
 11
5.580582617584079
 21
10.0
 31
0.0
  0
LINE
  5
174
330
2B
100
AcDbEntity
  8
0
 62
     0
100
AcDbLine
 10
5.2
 20
9.796194077712558
 30
0.0
 11
5.403805922287442
 21
10.0
 31
0.0
  0
LINE
  5
175
330
2B
100
AcDbEntity
  8
0
 62
     0
100
AcDbLine
 10
5.2
 20
9.972970773009194
 30
0.0
 11
5.227029226990805
 21
10.0
 31
0.0
  0
LINE
  5
176
330
2B
100
AcDbEntity
  8
0
 62
     0
100
AcDbLine
 10
5.2
 20
5.907106781186547
 30
0.0
 11
7.224083427099783
 21
7.931190208286329
 31
0.0
  0
LINE
  5
177
330
2B
100
AcDbEntity
  8
0
 62
     0
100
AcDbLine
 10
5.2
 20
5.73033008588991
 30
0.0
 11
7.269914422176689
 21
7.800244508066598
 31
0.0
  0
LINE
  5
178
330
2B
100
AcDbEntity
  8
0
 62
     0
100
AcDbLine
 10
5.2
 20
5.553553390593273
 30
0.0
 11
7.315745417253594
 21
7.669298807846868
 31
0.0
  0
LINE
  5
179
330
2B
100
AcDbEntity
  8
0
 62
     0
100
AcDbLine
 10
5.2
 20
5.376776695296636
 30
0.0
 11
7.3615764123305
 21
7.538353107627136
 31
0.0
  0
LINE
  5
17A
330
2B
100
AcDbEntity
  8
0
 62
     0
100
AcDbLine
 10
5.2
 20
5.2
 30
0.0
 11
7.407407407407406
 21
7.407407407407405
 31
0.0
  0
LINE
  5
17B
330
2B
100
AcDbEntity
  8
0
 62
     0
100
AcDbLine
 10
5.376776695296637
 20
5.2
 30
0.0
 11
7.453238402484312
 21
7.276461707187674
 31
0.0
  0
LINE
  5
17C
330
2B
100
AcDbEntity
  8
0
 62
     0
100
AcDbLine
 10
5.553553390593274
 20
5.2
 30
0.0
 11
7.499069397561219
 21
7.145516006967943
 31
0.0
  0
LINE
  5
17D
330
2B
100
AcDbEntity
  8
0
 62
     0
100
AcDbLine
 10
5.730330085889911
 20
5.2
 30
0.0
 11
7.544900392638124
 21
7.014570306748212
 31
0.0
  0
LINE
  5
17E
330
2B
100
AcDbEntity
  8
0
 62
     0
100
AcDbLine
 10
5.907106781186548
 20
5.2
 30
0.0
 11
7.59073138771503
 21
6.883624606528481
 31
0.0
  0
LINE
  5
17F
330
2B
100
AcDbEntity
  8
0
 62
     0
100
AcDbLine
 10
6.083883476483184
 20
5.2
 30
0.0
 11
7.636562382791936
 21
6.752678906308751
 31
0.0
  0
LINE
  5
180
330
2B
100
AcDbEntity
  8
0
 62
     0
100
AcDbLine
 10
6.260660171779822
 20
5.2
 30
0.0
 11
7.682393377868842
 21
6.621733206089019
 31
0.0
  0
LINE
  5
181
330
2B
100
AcDbEntity
  8
0
 62
     0
100
AcDbLine
 10
6.437436867076458
 20
5.2
 30
0.0
 11
7.728224372945748
 21
6.490787505869288
 31
0.0
  0
LINE
  5
182
330
2B
100
AcDbEntity
  8
0
 62
     0
100
AcDbLine
 10
6.614213562373095
 20
5.2
 30
0.0
 11
7.774055368022653
 21
6.359841805649558
 31
0.0
  0
LINE
  5
183
330
2B
100
AcDbEntity
  8
0
 62
     0
100
AcDbLine
 10
6.790990257669732
 20
5.2
 30
0.0
 11
7.819886363099559
 21
6.228896105429826
 31
0.0
  0
LINE
  5
184
330
2B
100
AcDbEntity
  8
0
 62
     0
100
AcDbLine
 10
6.967766952966369
 20
5.2
 30
0.0
 11
7.865717358176465
 21
6.097950405210095
 31
0.0
  0
LINE
  5
185
330
2B
100
AcDbEntity
  8
0
 62
     0
100
AcDbLine
 10
7.144543648263006
 20
5.2
 30
0.0
 11
7.911548353253371
 21
5.967004704990364
 31
0.0
  0
LINE
  5
186
330
2B
100
AcDbEntity
  8
0
 62
     0
100
AcDbLine
 10
7.321320343559643
 20
5.2
 30
0.0
 11
7.957379348330277
 21
5.836059004770634
 31
0.0
  0
LINE
  5
187
330
2B
100
AcDbEntity
  8
0
 62
     0
100
AcDbLine
 10
7.49809703885628
 20
5.2
 30
0.0
 11
8.003210343407182
 21
5.705113304550902
 31
0.0
  0
LINE
  5
188
330
2B
100
AcDbEntity
  8
0
 62
     0
100
AcDbLine
 10
7.674873734152916
 20
5.2
 30
0.0
 11
8.049041338484089
 21
5.574167604331171
 31
0.0
  0
LINE
  5
189
330
2B
100
AcDbEntity
  8
0
 62
     0
100
AcDbLine
 10
7.851650429449553
 20
5.2
 30
0.0
 11
8.094872333560994
 21
5.443221904111441
 31
0.0
  0
LINE
  5
18A
330
2B
100
AcDbEntity
  8
0
 62
     0
100
AcDbLine
 10
8.02842712474619
 20
5.2
 30
0.0
 11
8.140703328637901
 21
5.312276203891709
 31
0.0
  0
ENDBLK
  5
18B
330
2B
100
AcDbEntity
  8
0
100
AcDbBlockEnd
  0
BLOCK
  5
18C
330
2C
100
AcDbEntity
  8
0
100
AcDbBlockBegin
  2
*X16
 70
     1
 10
0.0
 20
0.0
 30
0.0
  3
*X16
  1

  0
LINE
  5
18D
330
2C
100
AcDbEntity
  8
0
 62
     0
100
AcDbLine
 10
0.0
 20
0.0
 30
0.0
 11
4.8
 21
4.799999999999999
 31
0.0
  0
LINE
  5
18E
330
2C
100
AcDbEntity
  8
0
 62
     0
100
AcDbLine
 10
0.0951874513135737
 20
0.2719641466102105
 30
0.0
 11
4.623223304703364
 21
4.8
 31
0.0
  0
LINE
  5
18F
330
2C
100
AcDbEntity
  8
0
 62
     0
100
AcDbLine
 10
0.1903749026271474
 20
0.5439282932204211
 30
0.0
 11
4.446446609406727
 21
4.8
 31
0.0
  0
LINE
  5
190
330
2C
100
AcDbEntity
  8
0
 62
     0
100
AcDbLine
 10
0.2855623539407211
 20
0.8158924398306318
 30
0.0
 11
4.269669914110091
 21
4.8
 31
0.0
  0
LINE
  5
191
330
2C
100
AcDbEntity
  8
0
 62
     0
100
AcDbLine
 10
0.3807498052542948
 20
1.087856586440842
 30
0.0
 11
4.092893218813453
 21
4.8
 31
0.0
  0
LINE
  5
192
330
2C
100
AcDbEntity
  8
0
 62
     0
100
AcDbLine
 10
0.4759372565678686
 20
1.359820733051052
 30
0.0
 11
3.916116523516816
 21
4.8
 31
0.0
  0
LINE
  5
193
330
2C
100
AcDbEntity
  8
0
 62
     0
100
AcDbLine
 10
0.5711247078814422
 20
1.631784879661263
 30
0.0
 11
3.73933982822018
 21
4.8
 31
0.0
  0
LINE
  5
194
330
2C
100
AcDbEntity
  8
0
 62
     0
100
AcDbLine
 10
0.6663121591950159
 20
1.903749026271474
 30
0.0
 11
3.562563132923543
 21
4.8
 31
0.0
  0
LINE
  5
195
330
2C
100
AcDbEntity
  8
0
 62
     0
100
AcDbLine
 10
0.7614996105085896
 20
2.175713172881684
 30
0.0
 11
3.385786437626906
 21
4.8
 31
0.0
  0
LINE
  5
196
330
2C
100
AcDbEntity
  8
0
 62
     0
100
AcDbLine
 10
0.8566870618221631
 20
2.447677319491895
 30
0.0
 11
3.209009742330269
 21
4.8
 31
0.0
  0
LINE
  5
197
330
2C
100
AcDbEntity
  8
0
 62
     0
100
AcDbLine
 10
0.951874513135737
 20
2.719641466102105
 30
0.0
 11
3.032233047033632
 21
4.8
 31
0.0
  0
LINE
  5
198
330
2C
100
AcDbEntity
  8
0
 62
     0
100
AcDbLine
 10
1.04706196444931
 20
2.991605612712316
 30
0.0
 11
2.855456351736995
 21
4.8
 31
0.0
  0
LINE
  5
199
330
2C
100
AcDbEntity
  8
0
 62
     0
100
AcDbLine
 10
1.142249415762884
 20
3.263569759322527
 30
0.0
 11
2.678679656440358
 21
4.8
 31
0.0
  0
LINE
  5
19A
330
2C
100
AcDbEntity
  8
0
 62
     0
100
AcDbLine
 10
1.237436867076458
 20
3.535533905932737
 30
0.0
 11
2.501902961143721
 21
4.8
 31
0.0
  0
LINE
  5
19B
330
2C
100
AcDbEntity
  8
0
 62
     0
100
AcDbLine
 10
1.332624318390031
 20
3.807498052542948
 30
0.0
 11
2.325126265847084
 21
4.8
 31
0.0
  0
LINE
  5
19C
330
2C
100
AcDbEntity
  8
0
 62
     0
100
AcDbLine
 10
1.427811769703605
 20
4.079462199153158
 30
0.0
 11
2.148349570550447
 21
4.8
 31
0.0
  0
LINE
  5
19D
330
2C
100
AcDbEntity
  8
0
 62
     0
100
AcDbLine
 10
1.522999221017179
 20
4.351426345763369
 30
0.0
 11
1.971572875253811
 21
4.8
 31
0.0
  0
LINE
  5
19E
330
2C
100
AcDbEntity
  8
0
 62
     0
100
AcDbLine
 10
1.618186672330752
 20
4.623390492373579
 30
0.0
 11
1.794796179957174
 21
4.8
 31
0.0
  0
LINE
  5
19F
330
2C
100
AcDbEntity
  8
0
 62
     0
100
AcDbLine
 10
0.1767766952966369
 20
0.0
 30
0.0
 11
4.8
 21
4.623223304703363
 31
0.0
  0
LINE
  5
1A0
330
2C
100
AcDbEntity
  8
0
 62
     0
100
AcDbLine
 10
0.3535533905932738
 20
0.0
 30
0.0
 11
4.8
 21
4.446446609406725
 31
0.0
  0
LINE
  5
1A1
330
2C
100
AcDbEntity
  8
0
 62
     0
100
AcDbLine
 10
0.5303300858899107
 20
0.0
 30
0.0
 11
4.8
 21
4.269669914110089
 31
0.0
  0
LINE
  5
1A2
330
2C
100
AcDbEntity
  8
0
 62
     0
100
AcDbLine
 10
0.7071067811865476
 20
0.0
 30
0.0
 11
4.8
 21
4.092893218813452
 31
0.0
  0
LINE
  5
1A3
330
2C
100
AcDbEntity
  8
0
 62
     0
100
AcDbLine
 10
0.8838834764831844
 20
0.0
 30
0.0
 11
4.8
 21
3.916116523516815
 31
0.0
  0
LINE
  5
1A4
330
2C
100
AcDbEntity
  8
0
 62
     0
100
AcDbLine
 10
1.060660171779821
 20
0.0
 30
0.0
 11
4.8
 21
3.739339828220178
 31
0.0
  0
LINE
  5
1A5
330
2C
100
AcDbEntity
  8
0
 62
     0
100
AcDbLine
 10
1.237436867076458
 20
0.0
 30
0.0
 11
3.17984168695883
 21
1.942404819882371
 31
0.0
  0
LINE
  5
1A6
330
2C
100
AcDbEntity
  8
0
 62
     0
100
AcDbLine
 10
3.237436867076458
 20
2.0
 30
0.0
 11
4.8
 21
3.562563132923541
 31
0.0
  0
LINE
  5
1A7
330
2C
100
AcDbEntity
  8
0
 62
     0
100
AcDbLine
 10
1.414213562373095
 20
0.0
 30
0.0
 11
3.084654235645256
 21
1.670440673272161
 31
0.0
  0
LINE
  5
1A8
330
2C
100
AcDbEntity
  8
0
 62
     0
100
AcDbLine
 10
3.414213562373095
 20
2.0
 30
0.0
 11
4.8
 21
3.385786437626904
 31
0.0
  0
LINE
  5
1A9
330
2C
100
AcDbEntity
  8
0
 62
     0
100
AcDbLine
 10
1.590990257669732
 20
0.0
 30
0.0
 11
2.989466784331682
 21
1.39847652666195
 31
0.0
  0
LINE
  5
1AA
330
2C
100
AcDbEntity
  8
0
 62
     0
100
AcDbLine
 10
3.590990257669732
 20
2.0
 30
0.0
 11
4.8
 21
3.209009742330267
 31
0.0
  0
LINE
  5
1AB
330
2C
100
AcDbEntity
  8
0
 62
     0
100
AcDbLine
 10
1.767766952966368
 20
0.0
 30
0.0
 11
2.894279333018109
 21
1.12651238005174
 31
0.0
  0
LINE
  5
1AC
330
2C
100
AcDbEntity
  8
0
 62
     0
100
AcDbLine
 10
3.767766952966369
 20
2.0
 30
0.0
 11
4.8
 21
3.032233047033631
 31
0.0
  0
LINE
  5
1AD
330
2C
100
AcDbEntity
  8
0
 62
     0
100
AcDbLine
 10
1.944543648263005
 20
0.0
 30
0.0
 11
2.799091881704535
 21
0.8545482334415293
 31
0.0
  0
LINE
  5
1AE
330
2C
100
AcDbEntity
  8
0
 62
     0
100
AcDbLine
 10
3.944543648263006
 20
2.0
 30
0.0
 11
4.8
 21
2.855456351736994
 31
0.0
  0
LINE
  5
1AF
330
2C
100
AcDbEntity
  8
0
 62
     0
100
AcDbLine
 10
2.121320343559642
 20
0.0
 30
0.0
 11
2.703904430390961
 21
0.5825840868313189
 31
0.0
  0
LINE
  5
1B0
330
2C
100
AcDbEntity
  8
0
 62
     0
100
AcDbLine
 10
4.121320343559642
 20
2.0
 30
0.0
 11
4.8
 21
2.678679656440357
 31
0.0
  0
LINE
  5
1B1
330
2C
100
AcDbEntity
  8
0
 62
     0
100
AcDbLine
 10
2.298097038856279
 20
0.0
 30
0.0
 11
2.608716979077388
 21
0.3106199402211083
 31
0.0
  0
LINE
  5
1B2
330
2C
100
AcDbEntity
  8
0
 62
     0
100
AcDbLine
 10
4.29809703885628
 20
2.0
 30
0.0
 11
4.8
 21
2.50190296114372
 31
0.0
  0
LINE
  5
1B3
330
2C
100
AcDbEntity
  8
0
 62
     0
100
AcDbLine
 10
2.474873734152916
 20
0.0
 30
0.0
 11
2.513529527763814
 21
0.0386557936108977
 31
0.0
  0
LINE
  5
1B4
330
2C
100
AcDbEntity
  8
0
 62
     0
100
AcDbLine
 10
4.474873734152916
 20
2.0
 30
0.0
 11
4.8
 21
2.325126265847083
 31
0.0
  0
LINE
  5
1B5
330
2C
100
AcDbEntity
  8
0
 62
     0
100
AcDbLine
 10
4.651650429449554
 20
2.0
 30
0.0
 11
4.8
 21
2.148349570550446
 31
0.0
  0
ENDBLK
  5
1B6
330
2C
100
AcDbEntity
  8
0
100
AcDbBlockEnd
  0
BLOCK
  5
1B7
330
2D
100
AcDbEntity
  8
0
100
AcDbBlockBegin
  2
*X17
 70
     1
 10
0.0
 20
0.0
 30
0.0
  3
*X17
  1

  0
LINE
  5
1B8
330
2D
100
AcDbEntity
  8
0
 62
     0
100
AcDbLine
 10
6.884654412785825
 20
1.758130249183355
 30
0.0
 11
8.736506264637677
 21
3.609982101035206
 31
0.0
  0
LINE
  5
1B9
330
2D
100
AcDbEntity
  8
0
 62
     0
100
AcDbLine
 10
6.838823417708919
 20
1.889075949403086
 30
0.0
 11
8.690675269560772
 21
3.740927801254938
 31
0.0
  0
LINE
  5
1BA
330
2D
100
AcDbEntity
  8
0
 62
     0
100
AcDbLine
 10
6.772970773009196
 20
2.0
 30
0.0
 11
8.644844274483865
 21
3.871873501474668
 31
0.0
  0
LINE
  5
1BB
330
2D
100
AcDbEntity
  8
0
 62
     0
100
AcDbLine
 10
6.596194077712559
 20
2.0
 30
0.0
 11
8.59901327940696
 21
4.0028192016944
 31
0.0
  0
LINE
  5
1BC
330
2D
100
AcDbEntity
  8
0
 62
     0
100
AcDbLine
 10
6.419417382415922
 20
2.0
 30
0.0
 11
8.553182284330054
 21
4.133764901914131
 31
0.0
  0
LINE
  5
1BD
330
2D
100
AcDbEntity
  8
0
 62
     0
100
AcDbLine
 10
6.242640687119285
 20
2.0
 30
0.0
 11
8.507351289253149
 21
4.264710602133861
 31
0.0
  0
LINE
  5
1BE
330
2D
100
AcDbEntity
  8
0
 62
     0
100
AcDbLine
 10
6.065863991822649
 20
2.0
 30
0.0
 11
8.461520294176242
 21
4.395656302353593
 31
0.0
  0
LINE
  5
1BF
330
2D
100
AcDbEntity
  8
0
 62
     0
100
AcDbLine
 10
5.889087296526011
 20
2.0
 30
0.0
 11
8.415689299099337
 21
4.526602002573324
 31
0.0
  0
LINE
  5
1C0
330
2D
100
AcDbEntity
  8
0
 62
     0
100
AcDbLine
 10
5.712310601229375
 20
2.0
 30
0.0
 11
8.369858304022431
 21
4.657547702793054
 31
0.0
  0
LINE
  5
1C1
330
2D
100
AcDbEntity
  8
0
 62
     0
100
AcDbLine
 10
5.535533905932737
 20
2.0
 30
0.0
 11
8.324027308945524
 21
4.788493403012786
 31
0.0
  0
LINE
  5
1C2
330
2D
100
AcDbEntity
  8
0
 62
     0
100
AcDbLine
 10
5.358757210636101
 20
2.0
 30
0.0
 11
8.158757210636101
 21
4.8
 31
0.0
  0
LINE
  5
1C3
330
2D
100
AcDbEntity
  8
0
 62
     0
100
AcDbLine
 10
5.2
 20
2.018019484660535
 30
0.0
 11
7.981980515339465
 21
4.8
 31
0.0
  0
LINE
  5
1C4
330
2D
100
AcDbEntity
  8
0
 62
     0
100
AcDbLine
 10
5.2
 20
2.194796179957172
 30
0.0
 11
7.805203820042828
 21
4.8
 31
0.0
  0
LINE
  5
1C5
330
2D
100
AcDbEntity
  8
0
 62
     0
100
AcDbLine
 10
5.2
 20
2.371572875253809
 30
0.0
 11
7.628427124746191
 21
4.8
 31
0.0
  0
LINE
  5
1C6
330
2D
100
AcDbEntity
  8
0
 62
     0
100
AcDbLine
 10
5.2
 20
2.548349570550446
 30
0.0
 11
7.451650429449554
 21
4.8
 31
0.0
  0
LINE
  5
1C7
330
2D
100
AcDbEntity
  8
0
 62
     0
100
AcDbLine
 10
5.2
 20
2.725126265847083
 30
0.0
 11
7.274873734152918
 21
4.8
 31
0.0
  0
LINE
  5
1C8
330
2D
100
AcDbEntity
  8
0
 62
     0
100
AcDbLine
 10
5.2
 20
2.90190296114372
 30
0.0
 11
7.09809703885628
 21
4.8
 31
0.0
  0
LINE
  5
1C9
330
2D
100
AcDbEntity
  8
0
 62
     0
100
AcDbLine
 10
5.2
 20
3.078679656440356
 30
0.0
 11
6.921320343559644
 21
4.8
 31
0.0
  0
LINE
  5
1CA
330
2D
100
AcDbEntity
  8
0
 62
     0
100
AcDbLine
 10
5.2
 20
3.255456351736993
 30
0.0
 11
6.744543648263007
 21
4.8
 31
0.0
  0
LINE
  5
1CB
330
2D
100
AcDbEntity
  8
0
 62
     0
100
AcDbLine
 10
5.2
 20
3.43223304703363
 30
0.0
 11
6.56776695296637
 21
4.8
 31
0.0
  0
LINE
  5
1CC
330
2D
100
AcDbEntity
  8
0
 62
     0
100
AcDbLine
 10
5.2
 20
3.609009742330267
 30
0.0
 11
6.390990257669733
 21
4.8
 31
0.0
  0
LINE
  5
1CD
330
2D
100
AcDbEntity
  8
0
 62
     0
100
AcDbLine
 10
5.2
 20
3.785786437626904
 30
0.0
 11
6.214213562373096
 21
4.8
 31
0.0
  0
LINE
  5
1CE
330
2D
100
AcDbEntity
  8
0
 62
     0
100
AcDbLine
 10
5.2
 20
3.962563132923541
 30
0.0
 11
6.037436867076459
 21
4.8
 31
0.0
  0
LINE
  5
1CF
330
2D
100
AcDbEntity
  8
0
 62
     0
100
AcDbLine
 10
5.2
 20
4.139339828220178
 30
0.0
 11
5.860660171779822
 21
4.8
 31
0.0
  0
LINE
  5
1D0
330
2D
100
AcDbEntity
  8
0
 62
     0
100
AcDbLine
 10
5.2
 20
4.316116523516814
 30
0.0
 11
5.683883476483186
 21
4.8
 31
0.0
  0
LINE
  5
1D1
330
2D
100
AcDbEntity
  8
0
 62
     0
100
AcDbLine
 10
5.2
 20
4.492893218813452
 30
0.0
 11
5.507106781186549
 21
4.8
 31
0.0
  0
LINE
  5
1D2
330
2D
100
AcDbEntity
  8
0
 62
     0
100
AcDbLine
 10
5.2
 20
4.669669914110088
 30
0.0
 11
5.330330085889912
 21
4.8
 31
0.0
  0
LINE
  5
1D3
330
2D
100
AcDbEntity
  8
0
 62
     0
100
AcDbLine
 10
6.930485407862731
 20
1.627184548963624
 30
0.0
 11
8.782337259714584
 21
3.479036400815475
 31
0.0
  0
LINE
  5
1D4
330
2D
100
AcDbEntity
  8
0
 62
     0
100
AcDbLine
 10
6.976316402939636
 20
1.496238848743893
 30
0.0
 11
8.828168254791489
 21
3.348090700595744
 31
0.0
  0
LINE
  5
1D5
330
2D
100
AcDbEntity
  8
0
 62
     0
100
AcDbLine
 10
7.022147398016543
 20
1.365293148524162
 30
0.0
 11
8.873999249868395
 21
3.217145000376013
 31
0.0
  0
LINE
  5
1D6
330
2D
100
AcDbEntity
  8
0
 62
     0
100
AcDbLine
 10
7.067978393093449
 20
1.234347448304431
 30
0.0
 11
8.9198302449453
 21
3.086199300156282
 31
0.0
  0
LINE
  5
1D7
330
2D
100
AcDbEntity
  8
0
 62
     0
100
AcDbLine
 10
7.113809388170355
 20
1.1034017480847
 30
0.0
 11
8.965661240022207
 21
2.955253599936551
 31
0.0
  0
LINE
  5
1D8
330
2D
100
AcDbEntity
  8
0
 62
     0
100
AcDbLine
 10
7.159640383247261
 20
0.9724560478649696
 30
0.0
 11
9.011492235099112
 21
2.82430789971682
 31
0.0
  0
LINE
  5
1D9
330
2D
100
AcDbEntity
  8
0
 62
     0
100
AcDbLine
 10
7.205471378324166
 20
0.8415103476452385
 30
0.0
 11
9.057323230176018
 21
2.693362199497089
 31
0.0
  0
LINE
  5
1DA
330
2D
100
AcDbEntity
  8
0
 62
     0
100
AcDbLine
 10
7.251302373401072
 20
0.7105646474255075
 30
0.0
 11
9.103154225252923
 21
2.562416499277358
 31
0.0
  0
LINE
  5
1DB
330
2D
100
AcDbEntity
  8
0
 62
     0
100
AcDbLine
 10
7.297133368477978
 20
0.5796189472057765
 30
0.0
 11
9.14898522032983
 21
2.431470799057627
 31
0.0
  0
LINE
  5
1DC
330
2D
100
AcDbEntity
  8
0
 62
     0
100
AcDbLine
 10
7.342964363554884
 20
0.4486732469860454
 30
0.0
 11
9.194816215406737
 21
2.300525098837896
 31
0.0
  0
LINE
  5
1DD
330
2D
100
AcDbEntity
  8
0
 62
     0
100
AcDbLine
 10
7.38879535863179
 20
0.3177275467663144
 30
0.0
 11
9.240647210483642
 21
2.169579398618165
 31
0.0
  0
LINE
  5
1DE
330
2D
100
AcDbEntity
  8
0
 62
     0
100
AcDbLine
 10
7.434626353708695
 20
0.1867818465465834
 30
0.0
 11
9.286478205560548
 21
2.038633698398434
 31
0.0
  0
LINE
  5
1DF
330
2D
100
AcDbEntity
  8
0
 62
     0
100
AcDbLine
 10
7.480457348785601
 20
0.0558361463268524
 30
0.0
 11
9.332309200637453
 21
1.907687998178703
 31
0.0
  0
LINE
  5
1E0
330
2D
100
AcDbEntity
  8
0
 62
     0
100
AcDbLine
 10
7.601397897755386
 20
0.0
 30
0.0
 11
9.37814019571436
 21
1.776742297958972
 31
0.0
  0
LINE
  5
1E1
330
2D
100
AcDbEntity
  8
0
 62
     0
100
AcDbLine
 10
7.778174593052023
 20
0.0
 30
0.0
 11
9.423971190791265
 21
1.645796597739241
 31
0.0
  0
LINE
  5
1E2
330
2D
100
AcDbEntity
  8
0
 62
     0
100
AcDbLine
 10
7.954951288348659
 20
0.0
 30
0.0
 11
9.469802185868172
 21
1.51485089751951
 31
0.0
  0
LINE
  5
1E3
330
2D
100
AcDbEntity
  8
0
 62
     0
100
AcDbLine
 10
8.131727983645296
 20
0.0
 30
0.0
 11
9.515633180945076
 21
1.383905197299779
 31
0.0
  0
LINE
  5
1E4
330
2D
100
AcDbEntity
  8
0
 62
     0
100
AcDbLine
 10
8.308504678941934
 20
0.0
 30
0.0
 11
9.561464176021983
 21
1.252959497080048
 31
0.0
  0
LINE
  5
1E5
330
2D
100
AcDbEntity
  8
0
 62
     0
100
AcDbLine
 10
8.485281374238571
 20
0.0
 30
0.0
 11
9.607295171098888
 21
1.122013796860317
 31
0.0
  0
LINE
  5
1E6
330
2D
100
AcDbEntity
  8
0
 62
     0
100
AcDbLine
 10
8.662058069535207
 20
0.0
 30
0.0
 11
9.653126166175795
 21
0.9910680966405861
 31
0.0
  0
LINE
  5
1E7
330
2D
100
AcDbEntity
  8
0
 62
     0
100
AcDbLine
 10
8.838834764831844
 20
0.0
 30
0.0
 11
9.6989571612527
 21
0.860122396420855
 31
0.0
  0
LINE
  5
1E8
330
2D
100
AcDbEntity
  8
0
 62
     0
100
AcDbLine
 10
9.01561146012848
 20
0.0
 30
0.0
 11
9.744788156329606
 21
0.7291766962011242
 31
0.0
  0
LINE
  5
1E9
330
2D
100
AcDbEntity
  8
0
 62
     0
100
AcDbLine
 10
9.192388155425119
 20
0.0
 30
0.0
 11
9.790619151406511
 21
0.5982309959813931
 31
0.0
  0
LINE
  5
1EA
330
2D
100
AcDbEntity
  8
0
 62
     0
100
AcDbLine
 10
9.369164850721755
 20
0.0
 30
0.0
 11
9.836450146483418
 21
0.467285295761662
 31
0.0
  0
LINE
  5
1EB
330
2D
100
AcDbEntity
  8
0
 62
     0
100
AcDbLine
 10
9.545941546018392
 20
0.0
 30
0.0
 11
9.882281141560325
 21
0.336339595541931
 31
0.0
  0
LINE
  5
1EC
330
2D
100
AcDbEntity
  8
0
 62
     0
100
AcDbLine
 10
9.722718241315028
 20
0.0
 30
0.0
 11
9.92811213663723
 21
0.2053938953222
 31
0.0
  0
LINE
  5
1ED
330
2D
100
AcDbEntity
  8
0
 62
     0
100
AcDbLine
 10
9.899494936611665
 20
0.0
 30
0.0
 11
9.973943131714136
 21
0.0744481951024689
 31
0.0
  0
ENDBLK
  5
1EE
330
2D
100
AcDbEntity
  8
0
100
AcDbBlockEnd
  0
BLOCK
  5
1EF
330
2E
100
AcDbEntity
  8
0
100
AcDbBlockBegin
  2
*X18
 70
     1
 10
0.0
 20
0.0
 30
0.0
  3
*X18
  1

  0
LINE
  5
1F0
330
2E
100
AcDbEntity
  8
0
 62
     0
100
AcDbLine
 10
10.7
 20
6.280582617584078
 30
0.0
 11
13.5
 21
9.080582617584076
 31
0.0
  0
LINE
  5
1F1
330
2E
100
AcDbEntity
  8
0
 62
     0
100
AcDbLine
 10
10.7
 20
6.457359312880715
 30
0.0
 11
13.5
 21
9.257359312880712
 31
0.0
  0
LINE
  5
1F2
330
2E
100
AcDbEntity
  8
0
 62
     0
100
AcDbLine
 10
10.7
 20
6.634136008177351
 30
0.0
 11
13.5
 21
9.43413600817735
 31
0.0
  0
LINE
  5
1F3
330
2E
100
AcDbEntity
  8
0
 62
     0
100
AcDbLine
 10
10.7
 20
6.810912703473989
 30
0.0
 11
13.5
 21
9.610912703473987
 31
0.0
  0
LINE
  5
1F4
330
2E
100
AcDbEntity
  8
0
 62
     0
100
AcDbLine
 10
10.7
 20
6.987689398770625
 30
0.0
 11
13.5
 21
9.787689398770623
 31
0.0
  0
LINE
  5
1F5
330
2E
100
AcDbEntity
  8
0
 62
     0
100
AcDbLine
 10
10.7
 20
7.164466094067263
 30
0.0
 11
13.5
 21
9.96446609406726
 31
0.0
  0
LINE
  5
1F6
330
2E
100
AcDbEntity
  8
0
 62
     0
100
AcDbLine
 10
10.7
 20
7.341242789363899
 30
0.0
 11
13.3587572106361
 21
10.0
 31
0.0
  0
LINE
  5
1F7
330
2E
100
AcDbEntity
  8
0
 62
     0
100
AcDbLine
 10
10.7
 20
7.518019484660536
 30
0.0
 11
13.18198051533946
 21
10.0
 31
0.0
  0
LINE
  5
1F8
330
2E
100
AcDbEntity
  8
0
 62
     0
100
AcDbLine
 10
10.7
 20
7.694796179957173
 30
0.0
 11
13.00520382004282
 21
10.0
 31
0.0
  0
LINE
  5
1F9
330
2E
100
AcDbEntity
  8
0
 62
     0
100
AcDbLine
 10
10.7
 20
7.87157287525381
 30
0.0
 11
12.82842712474619
 21
10.0
 31
0.0
  0
LINE
  5
1FA
330
2E
100
AcDbEntity
  8
0
 62
     0
100
AcDbLine
 10
10.7
 20
8.048349570550447
 30
0.0
 11
12.65165042944955
 21
10.0
 31
0.0
  0
LINE
  5
1FB
330
2E
100
AcDbEntity
  8
0
 62
     0
100
AcDbLine
 10
10.7
 20
8.225126265847084
 30
0.0
 11
12.47487373415292
 21
10.0
 31
0.0
  0
LINE
  5
1FC
330
2E
100
AcDbEntity
  8
0
 62
     0
100
AcDbLine
 10
10.7
 20
8.40190296114372
 30
0.0
 11
12.29809703885628
 21
10.0
 31
0.0
  0
LINE
  5
1FD
330
2E
100
AcDbEntity
  8
0
 62
     0
100
AcDbLine
 10
10.7
 20
8.578679656440357
 30
0.0
 11
12.12132034355964
 21
10.0
 31
0.0
  0
LINE
  5
1FE
330
2E
100
AcDbEntity
  8
0
 62
     0
100
AcDbLine
 10
10.7
 20
8.755456351736995
 30
0.0
 11
11.944543648263
 21
10.0
 31
0.0
  0
LINE
  5
1FF
330
2E
100
AcDbEntity
  8
0
 62
     0
100
AcDbLine
 10
10.7
 20
8.932233047033632
 30
0.0
 11
11.76776695296637
 21
10.0
 31
0.0
  0
LINE
  5
200
330
2E
100
AcDbEntity
  8
0
 62
     0
100
AcDbLine
 10
10.7
 20
9.109009742330268
 30
0.0
 11
11.59099025766973
 21
10.0
 31
0.0
  0
LINE
  5
201
330
2E
100
AcDbEntity
  8
0
 62
     0
100
AcDbLine
 10
10.7
 20
9.285786437626905
 30
0.0
 11
11.41421356237309
 21
10.0
 31
0.0
  0
LINE
  5
202
330
2E
100
AcDbEntity
  8
0
 62
     0
100
AcDbLine
 10
10.7
 20
9.462563132923541
 30
0.0
 11
11.23743686707646
 21
10.0
 31
0.0
  0
LINE
  5
203
330
2E
100
AcDbEntity
  8
0
 62
     0
100
AcDbLine
 10
10.7
 20
9.63933982822018
 30
0.0
 11
11.06066017177982
 21
10.0
 31
0.0
  0
LINE
  5
204
330
2E
100
AcDbEntity
  8
0
 62
     0
100
AcDbLine
 10
10.7
 20
9.816116523516816
 30
0.0
 11
10.88388347648318
 21
10.0
 31
0.0
  0
LINE
  5
205
330
2E
100
AcDbEntity
  8
0
 62
     0
100
AcDbLine
 10
10.7
 20
9.992893218813453
 30
0.0
 11
10.70710678118655
 21
10.0
 31
0.0
  0
LINE
  5
206
330
2E
100
AcDbEntity
  8
0
 62
     0
100
AcDbLine
 10
10.7
 20
6.103805922287441
 30
0.0
 11
13.5
 21
8.903805922287439
 31
0.0
  0
LINE
  5
207
330
2E
100
AcDbEntity
  8
0
 62
     0
100
AcDbLine
 10
10.7
 20
5.927029226990804
 30
0.0
 11
13.5
 21
8.727029226990802
 31
0.0
  0
LINE
  5
208
330
2E
100
AcDbEntity
  8
0
 62
     0
100
AcDbLine
 10
10.7
 20
5.750252531694168
 30
0.0
 11
13.5
 21
8.550252531694166
 31
0.0
  0
LINE
  5
209
330
2E
100
AcDbEntity
  8
0
 62
     0
100
AcDbLine
 10
10.7
 20
5.57347583639753
 30
0.0
 11
13.5
 21
8.373475836397528
 31
0.0
  0
LINE
  5
20A
330
2E
100
AcDbEntity
  8
0
 62
     0
100
AcDbLine
 10
10.7
 20
5.396699141100894
 30
0.0
 11
13.5
 21
8.196699141100891
 31
0.0
  0
LINE
  5
20B
330
2E
100
AcDbEntity
  8
0
 62
     0
100
AcDbLine
 10
10.7
 20
5.219922445804257
 30
0.0
 11
13.5
 21
8.019922445804255
 31
0.0
  0
LINE
  5
20C
330
2E
100
AcDbEntity
  8
0
 62
     0
100
AcDbLine
 10
10.85685424949238
 20
5.2
 30
0.0
 11
13.5
 21
7.843145750507618
 31
0.0
  0
LINE
  5
20D
330
2E
100
AcDbEntity
  8
0
 62
     0
100
AcDbLine
 10
11.03363094478901
 20
5.2
 30
0.0
 11
13.5
 21
7.666369055210981
 31
0.0
  0
LINE
  5
20E
330
2E
100
AcDbEntity
  8
0
 62
     0
100
AcDbLine
 10
11.21040764008565
 20
5.2
 30
0.0
 11
13.5
 21
7.489592359914344
 31
0.0
  0
LINE
  5
20F
330
2E
100
AcDbEntity
  8
0
 62
     0
100
AcDbLine
 10
11.38718433538229
 20
5.2
 30
0.0
 11
13.5
 21
7.312815664617708
 31
0.0
  0
LINE
  5
210
330
2E
100
AcDbEntity
  8
0
 62
     0
100
AcDbLine
 10
11.56396103067893
 20
5.2
 30
0.0
 11
13.5
 21
7.13603896932107
 31
0.0
  0
LINE
  5
211
330
2E
100
AcDbEntity
  8
0
 62
     0
100
AcDbLine
 10
11.74073772597556
 20
5.2
 30
0.0
 11
13.5
 21
6.959262274024434
 31
0.0
  0
LINE
  5
212
330
2E
100
AcDbEntity
  8
0
 62
     0
100
AcDbLine
 10
11.9175144212722
 20
5.2
 30
0.0
 11
13.5
 21
6.782485578727796
 31
0.0
  0
LINE
  5
213
330
2E
100
AcDbEntity
  8
0
 62
     0
100
AcDbLine
 10
12.09429111656884
 20
5.2
 30
0.0
 11
13.5
 21
6.60570888343116
 31
0.0
  0
LINE
  5
214
330
2E
100
AcDbEntity
  8
0
 62
     0
100
AcDbLine
 10
12.27106781186547
 20
5.2
 30
0.0
 11
13.5
 21
6.428932188134523
 31
0.0
  0
LINE
  5
215
330
2E
100
AcDbEntity
  8
0
 62
     0
100
AcDbLine
 10
12.44784450716211
 20
5.2
 30
0.0
 11
13.5
 21
6.252155492837886
 31
0.0
  0
LINE
  5
216
330
2E
100
AcDbEntity
  8
0
 62
     0
100
AcDbLine
 10
12.62462120245875
 20
5.2
 30
0.0
 11
13.5
 21
6.075378797541249
 31
0.0
  0
LINE
  5
217
330
2E
100
AcDbEntity
  8
0
 62
     0
100
AcDbLine
 10
12.80139789775538
 20
5.2
 30
0.0
 11
13.5
 21
5.898602102244612
 31
0.0
  0
LINE
  5
218
330
2E
100
AcDbEntity
  8
0
 62
     0
100
AcDbLine
 10
12.97817459305202
 20
5.2
 30
0.0
 11
13.5
 21
5.721825406947975
 31
0.0
  0
LINE
  5
219
330
2E
100
AcDbEntity
  8
0
 62
     0
100
AcDbLine
 10
13.15495128834866
 20
5.2
 30
0.0
 11
13.5
 21
5.545048711651339
 31
0.0
  0
LINE
  5
21A
330
2E
100
AcDbEntity
  8
0
 62
     0
100
AcDbLine
 10
13.3317279836453
 20
5.2
 30
0.0
 11
13.5
 21
5.368272016354701
 31
0.0
  0
ENDBLK
  5
21B
330
2E
100
AcDbEntity
  8
0
100
AcDbBlockEnd
  0
BLOCK
  5
21C
330
2F
100
AcDbEntity
  8
0
100
AcDbBlockBegin
  2
*X19
 70
     1
 10
0.0
 20
0.0
 30
0.0
  3
*X19
  1

  0
LINE
  5
21D
330
2F
100
AcDbEntity
  8
0
 62
     0
100
AcDbLine
 10
10.7
 20
1.154058453981608
 30
0.0
 11
13.5
 21
3.954058453981607
 31
0.0
  0
LINE
  5
21E
330
2F
100
AcDbEntity
  8
0
 62
     0
100
AcDbLine
 10
10.7
 20
1.330835149278245
 30
0.0
 11
13.5
 21
4.130835149278244
 31
0.0
  0
LINE
  5
21F
330
2F
100
AcDbEntity
  8
0
 62
     0
100
AcDbLine
 10
10.7
 20
1.507611844574882
 30
0.0
 11
13.5
 21
4.30761184457488
 31
0.0
  0
LINE
  5
220
330
2F
100
AcDbEntity
  8
0
 62
     0
100
AcDbLine
 10
10.7
 20
1.684388539871519
 30
0.0
 11
13.5
 21
4.484388539871518
 31
0.0
  0
LINE
  5
221
330
2F
100
AcDbEntity
  8
0
 62
     0
100
AcDbLine
 10
10.7
 20
1.861165235168155
 30
0.0
 11
13.5
 21
4.661165235168154
 31
0.0
  0
LINE
  5
222
330
2F
100
AcDbEntity
  8
0
 62
     0
100
AcDbLine
 10
10.7
 20
2.037941930464792
 30
0.0
 11
13.46205806953521
 21
4.800000000000001
 31
0.0
  0
LINE
  5
223
330
2F
100
AcDbEntity
  8
0
 62
     0
100
AcDbLine
 10
10.7
 20
2.214718625761429
 30
0.0
 11
13.28528137423857
 21
4.800000000000001
 31
0.0
  0
LINE
  5
224
330
2F
100
AcDbEntity
  8
0
 62
     0
100
AcDbLine
 10
10.7
 20
2.391495321058066
 30
0.0
 11
13.10850467894193
 21
4.800000000000001
 31
0.0
  0
LINE
  5
225
330
2F
100
AcDbEntity
  8
0
 62
     0
100
AcDbLine
 10
10.7
 20
2.568272016354703
 30
0.0
 11
12.9317279836453
 21
4.800000000000001
 31
0.0
  0
LINE
  5
226
330
2F
100
AcDbEntity
  8
0
 62
     0
100
AcDbLine
 10
10.7
 20
2.74504871165134
 30
0.0
 11
12.75495128834866
 21
4.800000000000001
 31
0.0
  0
LINE
  5
227
330
2F
100
AcDbEntity
  8
0
 62
     0
100
AcDbLine
 10
10.7
 20
2.921825406947977
 30
0.0
 11
12.57817459305202
 21
4.800000000000001
 31
0.0
  0
LINE
  5
228
330
2F
100
AcDbEntity
  8
0
 62
     0
100
AcDbLine
 10
10.7
 20
3.098602102244614
 30
0.0
 11
12.40139789775539
 21
4.800000000000001
 31
0.0
  0
LINE
  5
229
330
2F
100
AcDbEntity
  8
0
 62
     0
100
AcDbLine
 10
10.7
 20
3.275378797541251
 30
0.0
 11
12.22462120245875
 21
4.800000000000001
 31
0.0
  0
LINE
  5
22A
330
2F
100
AcDbEntity
  8
0
 62
     0
100
AcDbLine
 10
10.7
 20
3.452155492837887
 30
0.0
 11
12.04784450716211
 21
4.800000000000001
 31
0.0
  0
LINE
  5
22B
330
2F
100
AcDbEntity
  8
0
 62
     0
100
AcDbLine
 10
10.7
 20
3.628932188134524
 30
0.0
 11
11.87106781186547
 21
4.800000000000001
 31
0.0
  0
LINE
  5
22C
330
2F
100
AcDbEntity
  8
0
 62
     0
100
AcDbLine
 10
10.7
 20
3.805708883431161
 30
0.0
 11
11.69429111656884
 21
4.800000000000001
 31
0.0
  0
LINE
  5
22D
330
2F
100
AcDbEntity
  8
0
 62
     0
100
AcDbLine
 10
10.7
 20
3.982485578727798
 30
0.0
 11
11.5175144212722
 21
4.800000000000001
 31
0.0
  0
LINE
  5
22E
330
2F
100
AcDbEntity
  8
0
 62
     0
100
AcDbLine
 10
10.7
 20
4.159262274024435
 30
0.0
 11
11.34073772597556
 21
4.800000000000001
 31
0.0
  0
LINE
  5
22F
330
2F
100
AcDbEntity
  8
0
 62
     0
100
AcDbLine
 10
10.7
 20
4.336038969321072
 30
0.0
 11
11.16396103067893
 21
4.800000000000001
 31
0.0
  0
LINE
  5
230
330
2F
100
AcDbEntity
  8
0
 62
     0
100
AcDbLine
 10
10.7
 20
4.512815664617709
 30
0.0
 11
10.98718433538229
 21
4.800000000000001
 31
0.0
  0
LINE
  5
231
330
2F
100
AcDbEntity
  8
0
 62
     0
100
AcDbLine
 10
10.7
 20
4.689592359914345
 30
0.0
 11
10.81040764008565
 21
4.800000000000001
 31
0.0
  0
LINE
  5
232
330
2F
100
AcDbEntity
  8
0
 62
     0
100
AcDbLine
 10
10.7
 20
0.9772817586849718
 30
0.0
 11
13.5
 21
3.77728175868497
 31
0.0
  0
LINE
  5
233
330
2F
100
AcDbEntity
  8
0
 62
     0
100
AcDbLine
 10
10.7
 20
0.800505063388335
 30
0.0
 11
13.5
 21
3.600505063388333
 31
0.0
  0
LINE
  5
234
330
2F
100
AcDbEntity
  8
0
 62
     0
100
AcDbLine
 10
10.7
 20
0.6237283680916982
 30
0.0
 11
13.5
 21
3.423728368091696
 31
0.0
  0
LINE
  5
235
330
2F
100
AcDbEntity
  8
0
 62
     0
100
AcDbLine
 10
10.7
 20
0.4469516727950612
 30
0.0
 11
13.5
 21
3.246951672795059
 31
0.0
  0
LINE
  5
236
330
2F
100
AcDbEntity
  8
0
 62
     0
100
AcDbLine
 10
10.7
 20
0.2701749774984243
 30
0.0
 11
13.5
 21
3.070174977498422
 31
0.0
  0
LINE
  5
237
330
2F
100
AcDbEntity
  8
0
 62
     0
100
AcDbLine
 10
10.7
 20
0.0933982822017875
 30
0.0
 11
13.5
 21
2.893398282201785
 31
0.0
  0
LINE
  5
238
330
2F
100
AcDbEntity
  8
0
 62
     0
100
AcDbLine
 10
10.78337841309485
 20
0.0
 30
0.0
 11
13.5
 21
2.716621586905149
 31
0.0
  0
LINE
  5
239
330
2F
100
AcDbEntity
  8
0
 62
     0
100
AcDbLine
 10
10.96015510839148
 20
0.0
 30
0.0
 11
13.5
 21
2.539844891608512
 31
0.0
  0
LINE
  5
23A
330
2F
100
AcDbEntity
  8
0
 62
     0
100
AcDbLine
 10
11.13693180368812
 20
0.0
 30
0.0
 11
13.5
 21
2.363068196311875
 31
0.0
  0
LINE
  5
23B
330
2F
100
AcDbEntity
  8
0
 62
     0
100
AcDbLine
 10
11.31370849898476
 20
0.0
 30
0.0
 11
13.5
 21
2.186291501015238
 31
0.0
  0
LINE
  5
23C
330
2F
100
AcDbEntity
  8
0
 62
     0
100
AcDbLine
 10
11.49048519428139
 20
0.0
 30
0.0
 11
13.5
 21
2.009514805718601
 31
0.0
  0
LINE
  5
23D
330
2F
100
AcDbEntity
  8
0
 62
     0
100
AcDbLine
 10
11.66726188957803
 20
0.0
 30
0.0
 11
13.5
 21
1.832738110421964
 31
0.0
  0
LINE
  5
23E
330
2F
100
AcDbEntity
  8
0
 62
     0
100
AcDbLine
 10
11.84403858487467
 20
0.0
 30
0.0
 11
13.5
 21
1.655961415125327
 31
0.0
  0
LINE
  5
23F
330
2F
100
AcDbEntity
  8
0
 62
     0
100
AcDbLine
 10
12.02081528017131
 20
0.0
 30
0.0
 11
13.5
 21
1.479184719828691
 31
0.0
  0
LINE
  5
240
330
2F
100
AcDbEntity
  8
0
 62
     0
100
AcDbLine
 10
12.19759197546794
 20
0.0
 30
0.0
 11
13.5
 21
1.302408024532054
 31
0.0
  0
LINE
  5
241
330
2F
100
AcDbEntity
  8
0
 62
     0
100
AcDbLine
 10
12.37436867076458
 20
0.0
 30
0.0
 11
13.5
 21
1.125631329235417
 31
0.0
  0
LINE
  5
242
330
2F
100
AcDbEntity
  8
0
 62
     0
100
AcDbLine
 10
12.55114536606122
 20
0.0
 30
0.0
 11
13.5
 21
0.9488546339387806
 31
0.0
  0
LINE
  5
243
330
2F
100
AcDbEntity
  8
0
 62
     0
100
AcDbLine
 10
12.72792206135785
 20
0.0
 30
0.0
 11
13.5
 21
0.7720779386421438
 31
0.0
  0
LINE
  5
244
330
2F
100
AcDbEntity
  8
0
 62
     0
100
AcDbLine
 10
12.90469875665449
 20
0.0
 30
0.0
 11
13.5
 21
0.5953012433455069
 31
0.0
  0
LINE
  5
245
330
2F
100
AcDbEntity
  8
0
 62
     0
100
AcDbLine
 10
13.08147545195113
 20
0.0
 30
0.0
 11
13.5
 21
0.4185245480488699
 31
0.0
  0
LINE
  5
246
330
2F
100
AcDbEntity
  8
0
 62
     0
100
AcDbLine
 10
13.25825214724776
 20
0.0
 30
0.0
 11
13.5
 21
0.2417478527522331
 31
0.0
  0
LINE
  5
247
330
2F
100
AcDbEntity
  8
0
 62
     0
100
AcDbLine
 10
13.4350288425444
 20
0.0
 30
0.0
 11
13.5
 21
0.0649711574555962
 31
0.0
  0
ENDBLK
  5
248
330
2F
100
AcDbEntity
  8
0
100
AcDbBlockEnd
  0
BLOCK
  5
249
330
30
100
AcDbEntity
  8
0
100
AcDbBlockBegin
  2
*X20
 70
     1
 10
0.0
 20
0.0
 30
0.0
  3
*X20
  1

  0
LINE
  5
24A
330
30
100
AcDbEntity
  8
0
 62
     0
100
AcDbLine
 10
13.9
 20
6.298602102244612
 30
0.0
 11
16.58299474438346
 21
8.981596846628077
 31
0.0
  0
LINE
  5
24B
330
30
100
AcDbEntity
  8
0
 62
     0
100
AcDbLine
 10
13.9
 20
6.47537879754125
 30
0.0
 11
16.51050279500106
 21
9.085881592542312
 31
0.0
  0
LINE
  5
24C
330
30
100
AcDbEntity
  8
0
 62
     0
100
AcDbLine
 10
13.9
 20
6.652155492837886
 30
0.0
 11
16.43292735533684
 21
9.185082848174726
 31
0.0
  0
LINE
  5
24D
330
30
100
AcDbEntity
  8
0
 62
     0
100
AcDbLine
 10
13.9
 20
6.828932188134523
 30
0.0
 11
16.35037215123712
 21
9.279304339371643
 31
0.0
  0
LINE
  5
24E
330
30
100
AcDbEntity
  8
0
 62
     0
100
AcDbLine
 10
13.9
 20
7.00570888343116
 30
0.0
 11
16.26289196487371
 21
9.368600848304868
 31
0.0
  0
LINE
  5
24F
330
30
100
AcDbEntity
  8
0
 62
     0
100
AcDbLine
 10
13.9
 20
7.182485578727797
 30
0.0
 11
16.17049525263323
 21
9.452980831361033
 31
0.0
  0
LINE
  5
250
330
30
100
AcDbEntity
  8
0
 62
     0
100
AcDbLine
 10
13.9
 20
7.359262274024434
 30
0.0
 11
16.07314454342055
 21
9.532406817444991
 31
0.0
  0
LINE
  5
251
330
30
100
AcDbEntity
  8
0
 62
     0
100
AcDbLine
 10
13.9
 20
7.53603896932107
 30
0.0
 11
15.97075466195056
 21
9.606793631271633
 31
0.0
  0
LINE
  5
252
330
30
100
AcDbEntity
  8
0
 62
     0
100
AcDbLine
 10
13.9
 20
7.712815664617708
 30
0.0
 11
15.86318857628903
 21
9.67600424090674
 31
0.0
  0
LINE
  5
253
330
30
100
AcDbEntity
  8
0
 62
     0
100
AcDbLine
 10
13.9
 20
7.889592359914344
 30
0.0
 11
15.75025038159864
 21
9.739842741512989
 31
0.0
  0
LINE
  5
254
330
30
100
AcDbEntity
  8
0
 62
     0
100
AcDbLine
 10
13.9
 20
8.066369055210982
 30
0.0
 11
15.63167453725327
 21
9.798043592464253
 31
0.0
  0
LINE
  5
255
330
30
100
AcDbEntity
  8
0
 62
     0
100
AcDbLine
 10
13.9
 20
8.243145750507618
 30
0.0
 11
15.50710986763958
 21
9.850255618147199
 31
0.0
  0
LINE
  5
256
330
30
100
AcDbEntity
  8
0
 62
     0
100
AcDbLine
 10
13.9
 20
8.419922445804255
 30
0.0
 11
15.37609582797506
 21
9.896018273779313
 31
0.0
  0
LINE
  5
257
330
30
100
AcDbEntity
  8
0
 62
     0
100
AcDbLine
 10
13.9
 20
8.596699141100891
 30
0.0
 11
15.23802674945604
 21
9.934725890556936
 31
0.0
  0
LINE
  5
258
330
30
100
AcDbEntity
  8
0
 62
     0
100
AcDbLine
 10
13.9
 20
8.773475836397528
 30
0.0
 11
15.09209641503479
 21
9.965572251432316
 31
0.0
  0
LINE
  5
259
330
30
100
AcDbEntity
  8
0
 62
     0
100
AcDbLine
 10
13.9
 20
8.950252531694166
 30
0.0
 11
14.93720855236614
 21
9.987461084060305
 31
0.0
  0
LINE
  5
25A
330
30
100
AcDbEntity
  8
0
 62
     0
100
AcDbLine
 10
13.9
 20
9.127029226990803
 30
0.0
 11
14.77182410265905
 21
9.998853329649859
 31
0.0
  0
LINE
  5
25B
330
30
100
AcDbEntity
  8
0
 62
     0
100
AcDbLine
 10
13.9
 20
9.303805922287439
 30
0.0
 11
14.59619325557977
 21
9.999999177867216
 31
0.0
  0
LINE
  5
25C
330
30
100
AcDbEntity
  8
0
 62
     0
100
AcDbLine
 10
13.9
 20
9.480582617584076
 30
0.0
 11
14.41941676903803
 21
9.999999386622105
 31
0.0
  0
LINE
  5
25D
330
30
100
AcDbEntity
  8
0
 62
     0
100
AcDbLine
 10
13.9
 20
9.657359312880712
 30
0.0
 11
14.24264028249628
 21
9.999999595376992
 31
0.0
  0
LINE
  5
25E
330
30
100
AcDbEntity
  8
0
 62
     0
100
AcDbLine
 10
13.9
 20
9.834136008177351
 30
0.0
 11
14.06586379595453
 21
9.99999980413188
 31
0.0
  0
LINE
  5
25F
330
30
100
AcDbEntity
  8
0
 62
     0
100
AcDbLine
 10
13.9
 20
6.121825406947976
 30
0.0
 11
16.65024539739187
 21
8.872070804339848
 31
0.0
  0
LINE
  5
260
330
30
100
AcDbEntity
  8
0
 62
     0
100
AcDbLine
 10
13.9
 20
5.945048711651339
 30
0.0
 11
16.71203459532913
 21
8.75708330698047
 31
0.0
  0
LINE
  5
261
330
30
100
AcDbEntity
  8
0
 62
     0
100
AcDbLine
 10
13.9
 20
5.768272016354702
 30
0.0
 11
16.76806734382514
 21
8.636339360179849
 31
0.0
  0
LINE
  5
262
330
30
100
AcDbEntity
  8
0
 62
     0
100
AcDbLine
 10
13.9
 20
5.591495321058065
 30
0.0
 11
16.81795531761595
 21
8.509450638674019
 31
0.0
  0
LINE
  5
263
330
30
100
AcDbEntity
  8
0
 62
     0
100
AcDbLine
 10
13.9
 20
5.414718625761429
 30
0.0
 11
16.86118931399924
 21
8.375907939760674
 31
0.0
  0
LINE
  5
264
330
30
100
AcDbEntity
  8
0
 62
     0
100
AcDbLine
 10
13.9
 20
5.237941930464791
 30
0.0
 11
16.89709737442627
 21
8.235039304891063
 31
0.0
  0
LINE
  5
265
330
30
100
AcDbEntity
  8
0
 62
     0
100
AcDbLine
 10
14.03883476483184
 20
5.2
 30
0.0
 11
16.92477897501023
 21
8.085944210178388
 31
0.0
  0
LINE
  5
266
330
30
100
AcDbEntity
  8
0
 62
     0
100
AcDbLine
 10
14.21561146012848
 20
5.2
 30
0.0
 11
16.94299675793814
 21
7.927385297809664
 31
0.0
  0
LINE
  5
267
330
30
100
AcDbEntity
  8
0
 62
     0
100
AcDbLine
 10
14.39238815542512
 20
5.2
 30
0.0
 11
16.9499871677438
 21
7.757599012318679
 31
0.0
  0
LINE
  5
268
330
30
100
AcDbEntity
  8
0
 62
     0
100
AcDbLine
 10
14.56916485072175
 20
5.2
 30
0.0
 11
16.94310086073496
 21
7.573936010013212
 31
0.0
  0
LINE
  5
269
330
30
100
AcDbEntity
  8
0
 62
     0
100
AcDbLine
 10
14.74594154601839
 20
5.2
 30
0.0
 11
16.91803700563266
 21
7.372095459614269
 31
0.0
  0
LINE
  5
26A
330
30
100
AcDbEntity
  8
0
 62
     0
100
AcDbLine
 10
14.92271824131503
 20
5.2
 30
0.0
 11
16.86690917579153
 21
7.144190934476499
 31
0.0
  0
LINE
  5
26B
330
30
100
AcDbEntity
  8
0
 62
     0
100
AcDbLine
 10
15.09949493661166
 20
5.2
 30
0.0
 11
16.77171472429693
 21
6.872219787685267
 31
0.0
  0
LINE
  5
26C
330
30
100
AcDbEntity
  8
0
 62
     0
100
AcDbLine
 10
15.2762716319083
 20
5.2
 30
0.0
 11
15.84795125284192
 21
5.771679620933618
 31
0.0
  0
LINE
  5
26D
330
30
100
AcDbEntity
  8
0
 62
     0
100
AcDbLine
 10
15.96672997781769
 20
5.89045834590939
 30
0.0
 11
16.55954165409061
 21
6.483270022182311
 31
0.0
  0
LINE
  5
26E
330
30
100
AcDbEntity
  8
0
 62
     0
100
AcDbLine
 10
15.45304832720494
 20
5.2
 30
0.0
 11
15.97066124869689
 21
5.717612921491952
 31
0.0
  0
LINE
  5
26F
330
30
100
AcDbEntity
  8
0
 62
     0
100
AcDbLine
 10
15.62982502250157
 20
5.2
 30
0.0
 11
16.08893422102424
 21
5.659109198522661
 31
0.0
  0
LINE
  5
270
330
30
100
AcDbEntity
  8
0
 62
     0
100
AcDbLine
 10
15.80660171779821
 20
5.2
 30
0.0
 11
16.20296425787942
 21
5.59636254008121
 31
0.0
  0
LINE
  5
271
330
30
100
AcDbEntity
  8
0
 62
     0
100
AcDbLine
 10
15.98337841309485
 20
5.2
 30
0.0
 11
16.31290894781219
 21
5.529530534717341
 31
0.0
  0
LINE
  5
272
330
30
100
AcDbEntity
  8
0
 62
     0
100
AcDbLine
 10
16.16015510839148
 20
5.2
 30
0.0
 11
16.41889477551746
 21
5.458739667125973
 31
0.0
  0
LINE
  5
273
330
30
100
AcDbEntity
  8
0
 62
     0
100
AcDbLine
 10
16.33693180368812
 20
5.2
 30
0.0
 11
16.52102114525041
 21
5.384089341562286
 31
0.0
  0
LINE
  5
274
330
30
100
AcDbEntity
  8
0
 62
     0
100
AcDbLine
 10
16.51370849898476
 20
5.2
 30
0.0
 11
16.61936335457592
 21
5.305654855591162
 31
0.0
  0
LINE
  5
275
330
30
100
AcDbEntity
  8
0
 62
     0
100
AcDbLine
 10
16.69048519428139
 20
5.2
 30
0.0
 11
16.71397473843326
 21
5.223489544151862
 31
0.0
  0
ENDBLK
  5
276
330
30
100
AcDbEntity
  8
0
100
AcDbBlockEnd
  0
BLOCK
  5
277
330
31
100
AcDbEntity
  8
0
100
AcDbBlockBegin
  2
*X21
 70
     1
 10
0.0
 20
0.0
 30
0.0
  3
*X21
  1

  0
LINE
  5
278
330
31
100
AcDbEntity
  8
0
 62
     0
100
AcDbLine
 10
13.9
 20
0.8185245480488701
 30
0.0
 11
17.39644991717202
 21
4.314974465220889
 31
0.0
  0
LINE
  5
279
330
31
100
AcDbEntity
  8
0
 62
     0
100
AcDbLine
 10
13.9
 20
0.995301243345507
 30
0.0
 11
17.33635410458252
 21
4.431655347928027
 31
0.0
  0
LINE
  5
27A
330
31
100
AcDbEntity
  8
0
 62
     0
100
AcDbLine
 10
13.9
 20
1.172077938642143
 30
0.0
 11
17.27207765977055
 21
4.544155598412691
 31
0.0
  0
LINE
  5
27B
330
31
100
AcDbEntity
  8
0
 62
     0
100
AcDbLine
 10
13.9
 20
1.34885463393878
 30
0.0
 11
17.20376610315736
 21
4.652620737096146
 31
0.0
  0
LINE
  5
27C
330
31
100
AcDbEntity
  8
0
 62
     0
100
AcDbLine
 10
13.9
 20
1.525631329235417
 30
0.0
 11
17.13153548167385
 21
4.757166810909273
 31
0.0
  0
LINE
  5
27D
330
31
100
AcDbEntity
  8
0
 62
     0
100
AcDbLine
 10
13.9
 20
1.702408024532054
 30
0.0
 11
16.99759197546794
 21
4.8
 31
0.0
  0
LINE
  5
27E
330
31
100
AcDbEntity
  8
0
 62
     0
100
AcDbLine
 10
13.9
 20
1.879184719828691
 30
0.0
 11
16.82081528017131
 21
4.8
 31
0.0
  0
LINE
  5
27F
330
31
100
AcDbEntity
  8
0
 62
     0
100
AcDbLine
 10
13.9
 20
2.055961415125328
 30
0.0
 11
16.64403858487467
 21
4.8
 31
0.0
  0
LINE
  5
280
330
31
100
AcDbEntity
  8
0
 62
     0
100
AcDbLine
 10
13.9
 20
2.232738110421965
 30
0.0
 11
16.46726188957803
 21
4.8
 31
0.0
  0
LINE
  5
281
330
31
100
AcDbEntity
  8
0
 62
     0
100
AcDbLine
 10
13.9
 20
2.409514805718601
 30
0.0
 11
16.2904851942814
 21
4.8
 31
0.0
  0
LINE
  5
282
330
31
100
AcDbEntity
  8
0
 62
     0
100
AcDbLine
 10
13.9
 20
2.586291501015238
 30
0.0
 11
16.11370849898476
 21
4.8
 31
0.0
  0
LINE
  5
283
330
31
100
AcDbEntity
  8
0
 62
     0
100
AcDbLine
 10
13.9
 20
2.763068196311875
 30
0.0
 11
15.93693180368812
 21
4.8
 31
0.0
  0
LINE
  5
284
330
31
100
AcDbEntity
  8
0
 62
     0
100
AcDbLine
 10
13.9
 20
2.939844891608512
 30
0.0
 11
15.76015510839149
 21
4.8
 31
0.0
  0
LINE
  5
285
330
31
100
AcDbEntity
  8
0
 62
     0
100
AcDbLine
 10
13.9
 20
3.116621586905149
 30
0.0
 11
15.58337841309485
 21
4.8
 31
0.0
  0
LINE
  5
286
330
31
100
AcDbEntity
  8
0
 62
     0
100
AcDbLine
 10
13.9
 20
3.293398282201786
 30
0.0
 11
15.40660171779821
 21
4.8
 31
0.0
  0
LINE
  5
287
330
31
100
AcDbEntity
  8
0
 62
     0
100
AcDbLine
 10
13.9
 20
3.470174977498423
 30
0.0
 11
15.22982502250157
 21
4.8
 31
0.0
  0
LINE
  5
288
330
31
100
AcDbEntity
  8
0
 62
     0
100
AcDbLine
 10
13.9
 20
3.64695167279506
 30
0.0
 11
15.05304832720494
 21
4.8
 31
0.0
  0
LINE
  5
289
330
31
100
AcDbEntity
  8
0
 62
     0
100
AcDbLine
 10
13.9
 20
3.823728368091696
 30
0.0
 11
14.8762716319083
 21
4.8
 31
0.0
  0
LINE
  5
28A
330
31
100
AcDbEntity
  8
0
 62
     0
100
AcDbLine
 10
13.9
 20
4.000505063388334
 30
0.0
 11
14.69949493661166
 21
4.8
 31
0.0
  0
LINE
  5
28B
330
31
100
AcDbEntity
  8
0
 62
     0
100
AcDbLine
 10
13.9
 20
4.17728175868497
 30
0.0
 11
14.52271824131503
 21
4.8
 31
0.0
  0
LINE
  5
28C
330
31
100
AcDbEntity
  8
0
 62
     0
100
AcDbLine
 10
13.9
 20
4.354058453981607
 30
0.0
 11
14.34594154601839
 21
4.8
 31
0.0
  0
LINE
  5
28D
330
31
100
AcDbEntity
  8
0
 62
     0
100
AcDbLine
 10
13.9
 20
4.530835149278244
 30
0.0
 11
14.16916485072175
 21
4.8
 31
0.0
  0
LINE
  5
28E
330
31
100
AcDbEntity
  8
0
 62
     0
100
AcDbLine
 10
13.9
 20
4.707611844574881
 30
0.0
 11
13.99238815542512
 21
4.8
 31
0.0
  0
LINE
  5
28F
330
31
100
AcDbEntity
  8
0
 62
     0
100
AcDbLine
 10
13.9
 20
0.6417478527522334
 30
0.0
 11
17.45218526214292
 21
4.193933114895161
 31
0.0
  0
LINE
  5
290
330
31
100
AcDbEntity
  8
0
 62
     0
100
AcDbLine
 10
13.9
 20
0.4649711574555965
 30
0.0
 11
17.50333949830906
 21
4.068310655764662
 31
0.0
  0
LINE
  5
291
330
31
100
AcDbEntity
  8
0
 62
     0
100
AcDbLine
 10
13.9
 20
0.2881944621589596
 30
0.0
 11
17.54964242799989
 21
3.937836890158853
 31
0.0
  0
LINE
  5
292
330
31
100
AcDbEntity
  8
0
 62
     0
100
AcDbLine
 10
13.9
 20
0.1114177668623227
 30
0.0
 11
17.59076236298873
 21
3.802180129851055
 31
0.0
  0
LINE
  5
293
330
31
100
AcDbEntity
  8
0
 62
     0
100
AcDbLine
 10
13.96535907380306
 20
0.0000001453687495
 30
0.0
 11
17.62628957551245
 21
3.660930647078139
 31
0.0
  0
LINE
  5
294
330
31
100
AcDbEntity
  8
0
 62
     0
100
AcDbLine
 10
14.14213616227945
 20
0.0000005385484993
 30
0.0
 11
17.65571284726207
 21
3.513577223531124
 31
0.0
  0
LINE
  5
295
330
31
100
AcDbEntity
  8
0
 62
     0
100
AcDbLine
 10
14.31891325075583
 20
0.0000009317282491
 30
0.0
 11
17.67838532706747
 21
3.359473008039884
 31
0.0
  0
LINE
  5
296
330
31
100
AcDbEntity
  8
0
 62
     0
100
AcDbLine
 10
14.49569033923222
 20
0.0000013249079989
 30
0.0
 11
17.6934731399576
 21
3.197784125633374
 31
0.0
  0
LINE
  5
297
330
31
100
AcDbEntity
  8
0
 62
     0
100
AcDbLine
 10
14.67246742770861
 20
0.0000017180877487
 30
0.0
 11
17.6998747877926
 21
3.027409078171735
 31
0.0
  0
LINE
  5
298
330
31
100
AcDbEntity
  8
0
 62
     0
100
AcDbLine
 10
14.85315433025688
 20
0.0039119253393838
 30
0.0
 11
17.69608807466061
 21
2.846845669743118
 31
0.0
  0
LINE
  5
299
330
31
100
AcDbEntity
  8
0
 62
     0
100
AcDbLine
 10
15.04604362941941
 20
0.0200245292052809
 30
0.0
 11
17.67997547079472
 21
2.653956370580586
 31
0.0
  0
LINE
  5
29A
330
31
100
AcDbEntity
  8
0
 62
     0
100
AcDbLine
 10
15.25448294516349
 20
0.051687149652724
 30
0.0
 11
17.64831285034728
 21
2.445517054836507
 31
0.0
  0
LINE
  5
29B
330
31
100
AcDbEntity
  8
0
 62
     0
100
AcDbLine
 10
15.48376230096711
 20
0.104189810159703
 30
0.0
 11
17.5958101898403
 21
2.216237699032893
 31
0.0
  0
LINE
  5
29C
330
31
100
AcDbEntity
  8
0
 62
     0
100
AcDbLine
 10
15.74378625147994
 20
0.1874370653758922
 30
0.0
 11
17.51256293462411
 21
1.956213748520063
 31
0.0
  0
LINE
  5
29D
330
31
100
AcDbEntity
  8
0
 62
     0
100
AcDbLine
 10
16.05817558800134
 20
0.3250497066006601
 30
0.0
 11
17.37495029339934
 21
1.641824411998659
 31
0.0
  0
LINE
  5
29E
330
31
100
AcDbEntity
  8
0
 62
     0
100
AcDbLine
 10
16.54193023656893
 20
0.6320276598716133
 30
0.0
 11
17.06797234012839
 21
1.158069763431071
 31
0.0
  0
ENDBLK
  5
29F
330
31
100
AcDbEntity
  8
0
100
AcDbBlockEnd
  0
BLOCK
  5
2A0
330
32
100
AcDbEntity
  8
0
100
AcDbBlockBegin
  2
MAA
 70
     0
 10
0.0
 20
0.0
 30
0.0
  3
MAA
  1

  0
LINE
  5
2A1
330
32
100
AcDbEntity
  8
0
  6
Continuous
100
AcDbLine
 10
-0.5007181785718445
 20
-2.587965694815835
 30
0.0
 11
0.3861686956486778
 21
-2.587965694815835
 31
0.0
  0
LINE
  5
2A2
330
32
100
AcDbEntity
  8
0
  6
Continuous
100
AcDbLine
 10
-0.8318226116142
 20
-1.976332608015752
 30
0.0
 11
0.7527486036598248
 21
-1.976332608015752
 31
0.0
  0
LINE
  5
2A3
330
32
100
AcDbEntity
  8
0
  6
Continuous
100
AcDbLine
 10
-0.0158866873312604
 20
-1.35427039676108
 30
0.0
 11
1.178454303285661
 21
-1.35427039676108
 31
0.0
  0
LINE
  5
2A4
330
32
100
AcDbEntity
  8
0
  6
Continuous
100
AcDbLine
 10
-1.210227677948239
 20
-1.35427039676108
 30
0.0
 11
-0.0158866873312604
 21
-1.35427039676108
 31
0.0
  0
LINE
  5
2A5
330
32
100
AcDbEntity
  8
0
  6
Continuous
100
AcDbLine
 10
0.0
 20
0.0
 30
0.0
 11
0.0
 21
-1.35427039676108
 31
0.0
  0
ENDBLK
  5
2A6
330
32
100
AcDbEntity
  8
0
100
AcDbBlockEnd
  0
BLOCK
  5
2A7
330
33
100
AcDbEntity
  8
0
100
AcDbBlockBegin
  2
B507
 70
     0
 10
0.0
 20
0.0
 30
0.0
  3
B507
  1

  0
LINE
  5
2A8
330
33
100
AcDbEntity
  8
0
  6
Continuous
100
AcDbLine
 10
0.0796223344630107
 20
0.1477539241558645
 30
0.0
 11
0.0796223344630107
 21
-9.002074349055391
 31
0.0
  0
INSERT
  5
2A9
330
33
100
AcDbEntity
  8
0
  6
Continuous
100
AcDbBlockReference
  2
BLC29
 10
0.2123686720277078
 20
-6.641508964427885
 30
0.0
 50
270.0
  0
ENDBLK
  5
2AA
330
33
100
AcDbEntity
  8
0
100
AcDbBlockEnd
  0
ENDSEC
  0
SECTION
  2
ENTITIES
  0
INSERT
  5
2AB
330
18
100
AcDbEntity
  8
0
100
AcDbBlockReference
  2
1
 10
65.40543794728922
 20
98.7130660876682
 30
0.0
  0
INSERT
  5
2AC
330
18
100
AcDbEntity
  8
0
100
AcDbBlockReference
  2
1
 10
72.5416524658361
 20
49.71055967492806
 30
0.0
  0
INSERT
  5
2AD
330
18
100
AcDbEntity
  8
0
100
AcDbBlockReference
  2
1
 10
85.39044274796726
 20
73.49723378259056
 30
0.0
  0
LINE
  5
2AE
330
18
100
AcDbEntity
  8
BASE
  6
CENTER
 62
     5
100
AcDbLine
 10
250.0
 20
195.0
 30
0.0
 11
250.0
 21
87.5
 31
0.0
  0
LINE
  5
2AF
330
18
100
AcDbEntity
  8
BASE
  6
CENTER
 62
     5
100
AcDbLine
 10
250.0
 20
87.5
 30
0.0
 11
250.0
 21
57.5
 31
0.0
  0
LINE
  5
2B0
330
18
100
AcDbEntity
  8
BASE
  6
Continuous
 62
     5
100
AcDbLine
 10
210.4506146543173
 20
187.2098276043298
 30
0.0
 11
210.4506146543173
 21
130.0
 31
0.0
  0
LINE
  5
2B1
330
18
100
AcDbEntity
  8
BASE
  6
Continuous
 62
     5
100
AcDbLine
 10
210.4506146522573
 20
215.0
 30
0.0
 11
210.4506146522573
 21
187.1883195992091
 31
0.0
  0
LINE
  5
2B2
330
18
100
AcDbEntity
  8
BASE
  6
CENTER
 62
     5
100
AcDbLine
 10
250.0
 20
217.5
 30
0.0
 11
250.0
 21
195.0
 31
0.0
  0
LINE
  5
2B3
330
18
100
AcDbEntity
  8
BASE
  6
Continuous
 62
     5
100
AcDbLine
 10
180.0
 20
130.0
 30
0.0
 11
210.4506146543173
 21
130.0
 31
0.0
  0
LINE
  5
2B4
330
18
100
AcDbEntity
  8
BASE
  6
Continuous
 62
     5
100
AcDbLine
 10
200.0
 20
130.0
 30
0.0
 11
200.0
 21
215.0
 31
0.0
  0
LINE
  5
2B5
330
18
100
AcDbEntity
  8
BASE
  6
Continuous
 62
     5
100
AcDbLine
 10
180.0
 20
200.0
 30
0.0
 11
180.0
 21
185.0
 31
0.0
  0
LINE
  5
2B6
330
18
100
AcDbEntity
  8
BASE
  6
Continuous
 62
     5
100
AcDbLine
 10
180.0
 20
200.0
 30
0.0
 11
180.0
 21
215.0
 31
0.0
  0
LINE
  5
2B7
330
18
100
AcDbEntity
  8
BASE
  6
Continuous
 62
     5
100
AcDbLine
 10
180.0
 20
185.0
 30
0.0
 11
180.0
 21
130.0
 31
0.0
  0
LINE
  5
2B8
330
18
100
AcDbEntity
  8
BASE
  6
CENTER
 62
     5
100
AcDbLine
 10
40.0
 20
242.5
 30
0.0
 11
40.0
 21
57.5
 31
0.0
  0
LINE
  5
2B9
330
18
100
AcDbEntity
  8
BASE
  6
Continuous
 62
     5
100
AcDbLine
 10
57.49999999999995
 20
132.4999999999999
 30
0.0
 11
51.75607594821684
 21
129.2852966948171
 31
0.0
  0
LINE
  5
2BA
330
18
100
AcDbEntity
  8
BASE
  6
Continuous
 62
     5
100
AcDbLine
 10
75.0
 20
122.5
 30
0.0
 11
69.25607594821684
 21
119.2852966948171
 31
0.0
  0
LINE
  5
2BB
330
18
100
AcDbEntity
  8
BASE
  6
Continuous
 62
     5
100
AcDbLine
 10
75.0
 20
122.5
 30
0.0
 11
77.5
 21
122.5
 31
0.0
  0
LINE
  5
2BC
330
18
100
AcDbEntity
  8
BASE
  6
Continuous
 62
     5
100
AcDbLine
 10
70.0
 20
122.5
 30
0.0
 11
40.0
 21
122.5
 31
0.0
  0
LINE
  5
2BD
330
18
100
AcDbEntity
  8
BASE
  6
DASHED
 62
     5
100
AcDbLine
 10
55.0
 20
137.5
 30
0.0
 11
55.0
 21
131.1008244206393
 31
0.0
  0
LINE
  5
2BE
330
18
100
AcDbEntity
  8
BASE
  6
DASHED
 62
     5
100
AcDbLine
 10
72.5
 20
135.0
 30
0.0
 11
72.5
 21
121.1008244206393
 31
0.0
  0
LINE
  5
2BF
330
18
100
AcDbEntity
  8
BASE
  6
DASHED
 62
     5
100
AcDbLine
 10
85.0
 20
135.0
 30
0.0
 11
85.00000000000001
 21
106.1008244206393
 31
0.0
  0
LINE
  5
2C0
330
18
100
AcDbEntity
  8
BASE
  6
DASHED
 62
     5
100
AcDbLine
 10
97.50000000000001
 20
135.0
 30
0.0
 11
97.5
 21
91.10082442063939
 31
0.0
  0
LINE
  5
2C1
330
18
100
AcDbEntity
  8
BASE
  6
DASHED
 62
     5
100
AcDbLine
 10
107.4999999999999
 20
112.5
 30
0.0
 11
107.5
 21
76.1008244206394
 31
0.0
  0
TEXT
  5
2C2
330
18
100
AcDbEntity
  8
BASE
  6
DASHED
 62
     5
100
AcDbText
 10
50.69737272514714
 20
133.4034924824313
 30
0.0
 40
2.0
  1
A
  7
ROMANS
100
AcDbText
  0
TEXT
  5
2C3
330
18
100
AcDbEntity
  8
BASE
  6
DASHED
 62
     5
100
AcDbText
 10
69.14337301197369
 20
123.7745883813304
 30
0.0
 40
2.0
  1
B
  7
ROMANS
100
AcDbText
  0
TEXT
  5
2C4
330
18
100
AcDbEntity
  8
BASE
  6
DASHED
 62
     5
100
AcDbText
 10
81.05510948741914
 20
108.1343644375018
 30
0.0
 40
2.0
  1
C
  7
ROMANS
100
AcDbText
  0
TEXT
  5
2C5
330
18
100
AcDbEntity
  8
BASE
  6
DASHED
 62
     5
100
AcDbText
 10
93.48401353973461
 20
93.25575173325827
 30
0.0
 40
2.0
  1
D
  7
ROMANS
100
AcDbText
  0
TEXT
  5
2C6
330
18
100
AcDbEntity
  8
BASE
  6
DASHED
 62
     5
100
AcDbText
 10
103.171572722844
 20
78.36465359885756
 30
0.0
 40
2.0
  1
E
  7
ROMANS
100
AcDbText
  0
LINE
  5
2C7
330
18
100
AcDbEntity
  8
BASE
  6
CENTER
 62
     5
100
AcDbLine
 10
40.0
 20
57.5
 30
0.0
 11
250.0
 21
57.5
 31
0.0
  0
LINE
  5
2CA
330
18
100
AcDbEntity
  8
BASE
  6
Continuous
 62
     5
100
AcDbLine
 10
230.0
 20
167.5
 30
0.0
 11
231.0
 21
166.5
 31
0.0
  0
LINE
  5
2CB
330
18
100
AcDbEntity
  8
BASE
  6
Continuous
 62
     5
100
AcDbLine
 10
230.0
 20
212.5
 30
0.0
 11
231.0
 21
213.5
 31
0.0
  0
LINE
  5
2CC
330
18
100
AcDbEntity
  8
BASE
  6
Continuous
 62
     5
100
AcDbLine
 10
230.0
 20
212.5
 30
0.0
 11
230.0
 21
167.5
 31
0.0
  0
LINE
  5
2CD
330
18
100
AcDbEntity
  8
BASE
  6
CENTER
 62
     5
100
AcDbLine
 10
250.0
 20
217.5
 30
0.0
 11
250.0
 21
242.5
 31
0.0
  0
LINE
  5
2CE
330
18
100
AcDbEntity
  8
BASE
  6
CENTER
 62
     5
100
AcDbLine
 10
250.0
 20
242.5
 30
0.0
 11
40.0
 21
242.5
 31
0.0
  0
LINE
  5
2CF
330
18
100
AcDbEntity
  8
0
  6
Continuous
 62
     5
100
AcDbLine
 10
25.0
 20
107.4999999999999
 30
0.0
 11
25.0
 21
97.49965536440647
 31
0.0
  0
LINE
  5
2D0
330
18
100
AcDbEntity
  8
0
  6
Continuous
 62
     5
100
AcDbLine
 10
25.0
 20
107.4999999999999
 30
0.0
 11
26.0
 21
108.4999999999999
 31
0.0
  0
LINE
  5
2D1
330
18
100
AcDbEntity
  8
0
  6
Continuous
 62
     5
100
AcDbLine
 10
25.0
 20
97.49965536440647
 30
0.0
 11
26.0
 21
96.49965536440646
 31
0.0
  0
TEXT
  5
2D2
330
18
100
AcDbEntity
  8
0
  6
Continuous
 62
     5
100
AcDbText
 10
20.0
 20
131.5343737974445
 30
0.0
 40
2.0
  1
3)
  7
ROMANS
100
AcDbText
  0
TEXT
  5
2D3
330
18
100
AcDbEntity
  8
0
  6
Continuous
 62
     5
100
AcDbText
 10
20.0
 20
118.8298782886936
 30
0.0
 40
2.0
  1
4)
  7
ROMANS
100
AcDbText
  0
TEXT
  5
2D4
330
18
100
AcDbEntity
  8
0
  6
Continuous
 62
     5
100
AcDbText
 10
20.0
 20
101.2381180416163
 30
0.0
 40
2.0
  1
5)
  7
ROMANS
100
AcDbText
  0
TEXT
  5
2D5
330
18
100
AcDbEntity
  8
0
  6
Continuous
 62
     5
100
AcDbText
 10
20.0
 20
79.30065248656484
 30
0.0
 40
2.0
  1
6)
  7
ROMANS
100
AcDbText
  0
LINE
  5
2D6
330
18
100
AcDbEntity
  8
BASE
  6
Continuous
 62
     5
100
AcDbLine
 10
180.0
 20
155.0
 30
0.0
 11
210.4506146543173
 21
155.0
 31
0.0
  0
LINE
  5
2D7
330
18
100
AcDbEntity
  8
BASE
  6
Continuous
 62
     5
100
AcDbLine
 10
107.4999999999999
 20
120.0
 30
0.0
 11
107.4999999999999
 21
112.5
 31
0.0
  0
TEXT
  5
2D8
330
18
100
AcDbEntity
  8
0
 62
     5
100
AcDbText
 10
348.87615487046
 20
84.01665587178669
 30
0.0
 40
2.0
  1
TERMINALS / UTTAG
  7
ROMANS
 11
348.87615487046
 21
83.34998920512003
 31
0.0
100
AcDbText
 73
     1
  0
LINE
  5
2D9
330
18
100
AcDbEntity
  8
0
 62
     5
100
AcDbLine
 10
356.9370191875236
 20
55.17836263878866
 30
0.0
 11
386.9370191875237
 21
55.17836263878866
 31
0.0
  0
LINE
  5
2DA
330
18
100
AcDbEntity
  8
0
 62
     5
100
AcDbLine
 10
372.0098729470427
 20
83.34998920512004
 30
0.0
 11
372.0098729470427
 21
40.4573677535828
 31
0.0
  0
LINE
  5
2DB
330
18
100
AcDbEntity
  8
0
 62
     5
100
AcDbLine
 10
356.9370191875237
 20
83.34998920512004
 30
0.0
 11
356.9370191875236
 21
40.4573677535828
 31
0.0
  0
LINE
  5
2DC
330
18
100
AcDbEntity
  8
0
 62
     5
100
AcDbLine
 10
342.9370191875236
 20
83.34998920512003
 30
0.0
 11
386.9370191875237
 21
83.34998920512003
 31
0.0
  0
LINE
  5
2DD
330
18
100
AcDbEntity
  8
0
 62
     5
100
AcDbLine
 10
386.9370191875237
 20
40.45736775358281
 30
0.0
 11
386.9370191875237
 21
89.34998920512002
 31
0.0
  0
LINE
  5
2DE
330
18
100
AcDbEntity
  8
0
 62
     5
100
AcDbLine
 10
342.9370191875236
 20
89.34998920512002
 30
0.0
 11
342.9370191875236
 21
40.45736775358281
 31
0.0
  0
LINE
  5
2DF
330
18
100
AcDbEntity
  8
0
  6
Continuous
 62
     5
100
AcDbLine
 10
342.9370191875237
 20
40.4573677535828
 30
0.0
 11
386.9370191875237
 21
40.4573677535828
 31
0.0
  0
LINE
  5
2E0
330
18
100
AcDbEntity
  8
BASE
  6
Continuous
 62
     5
100
AcDbLine
 10
198.8345408562025
 20
202.4898097083459
 30
0.0
 11
198.8345408562025
 21
200.7016782957554
 31
0.0
  0
LINE
  5
2E1
330
18
100
AcDbEntity
  8
BASE
  6
Continuous
 62
     5
100
AcDbLine
 10
193.4350214527601
 20
200.4769284860797
 30
0.0
 11
196.3111321526593
 21
203.3054870663884
 31
0.0
  0
ARC
  5
2E2
330
18
100
AcDbEntity
  8
BASE
  6
HIDDEN
 62
     5
100
AcDbCircle
 10
197.7457449120744
 20
205.5730753549346
 30
0.0
 40
4.998195985283786
100
AcDbArc
 50
206.402921519098
 51
282.2111496748031
  0
LINE
  5
2E3
330
18
100
AcDbEntity
  8
BASE
  6
Continuous
 62
     5
100
AcDbLine
 10
195.8804286937068
 20
203.84269392854
 30
0.0
 11
196.7811054655173
 21
202.7189448801616
 31
0.0
  0
LINE
  5
2E4
330
18
100
AcDbEntity
  8
BASE
  6
Continuous
 62
     5
100
AcDbLine
 10
191.0508770567911
 20
201.6445311558582
 30
0.0
 11
198.8390820836234
 21
201.6445311558582
 31
0.0
  0
LINE
  5
2E5
330
18
100
AcDbEntity
  8
BASE
  6
Continuous
 62
     5
100
AcDbLine
 10
191.0198453360816
 20
202.4898097083459
 30
0.0
 11
191.0198453360816
 21
200.7016782957554
 31
0.0
  0
LINE
  5
2E6
330
18
100
AcDbEntity
  8
BASE
  6
HIDDEN
 62
     5
100
AcDbLine
 10
180.0
 20
170.0
 30
0.0
 11
200.0
 21
170.0
 31
0.0
  0
LINE
  5
2E7
330
18
100
AcDbEntity
  8
BASE
  6
HIDDEN
 62
     5
100
AcDbLine
 10
180.0
 20
165.0
 30
0.0
 11
200.0
 21
165.0
 31
0.0
  0
LINE
  5
2E8
330
18
100
AcDbEntity
  8
BASE
  6
HIDDEN
 62
     5
100
AcDbLine
 10
180.0
 20
180.0
 30
0.0
 11
199.9999999999999
 21
180.0
 31
0.0
  0
LINE
  5
2E9
330
18
100
AcDbEntity
  8
BASE
  6
Continuous
 62
     5
100
AcDbLine
 10
186.180599182766
 20
183.6775974940783
 30
0.0
 11
188.5263646949916
 21
182.3422437827095
 31
0.0
  0
LINE
  5
2EA
330
18
100
AcDbEntity
  8
BASE
  6
Continuous
 62
     5
100
AcDbLine
 10
188.5263646949916
 20
182.3422437827095
 30
0.0
 11
186.180599182766
 21
181.1523246339651
 31
0.0
  0
LINE
  5
2EB
330
18
100
AcDbEntity
  8
BASE
  6
HIDDEN
 62
     5
100
AcDbLine
 10
180.0
 20
195.0
 30
0.0
 11
200.0
 21
195.0
 31
0.0
  0
TEXT
  5
2EC
330
18
100
AcDbEntity
  8
BASE
  6
Continuous
 62
     5
100
AcDbText
 10
181.2701280291658
 20
185.8620884803616
 30
0.0
 40
2.5
  1
I
 11
181.2701280291658
 21
185.0287551470282
 31
0.0
100
AcDbText
 73
     1
  0
LINE
  5
2ED
330
18
100
AcDbEntity
  8
BASE
  6
Continuous
 62
     5
100
AcDbLine
 10
186.8011552451315
 20
187.0646921511849
 30
0.0
 11
184.4553897329059
 21
185.8747730024405
 31
0.0
  0
LINE
  5
2EE
330
18
100
AcDbEntity
  8
BASE
  6
Continuous
 62
     5
100
AcDbLine
 10
184.4553897329059
 20
188.4000458625537
 30
0.0
 11
186.8011552451315
 21
187.0646921511849
 31
0.0
  0
LINE
  5
2EF
330
18
100
AcDbEntity
  8
BASE
  6
Continuous
 62
     5
100
AcDbLine
 10
185.1788272564918
 20
187.0646921511849
 30
0.0
 11
182.8330617442662
 21
185.8747730024405
 31
0.0
  0
LINE
  5
2F0
330
18
100
AcDbEntity
  8
BASE
  6
Continuous
 62
     5
100
AcDbLine
 10
182.8330617442662
 20
188.4000458625537
 30
0.0
 11
185.1788272564918
 21
187.0646921511849
 31
0.0
  0
LINE
  5
2F1
330
18
100
AcDbEntity
  8
BASE
  6
Continuous
 62
     5
100
AcDbLine
 10
198.8349949280191
 20
187.6375703410823
 30
0.0
 11
198.8349949280191
 21
185.8494389284918
 31
0.0
  0
LINE
  5
2F2
330
18
100
AcDbEntity
  8
BASE
  6
Continuous
 62
     5
100
AcDbLine
 10
193.4354755245767
 20
185.6246891188161
 30
0.0
 11
196.3115862244759
 21
188.4532476991248
 31
0.0
  0
LINE
  5
2F3
330
18
100
AcDbEntity
  8
BASE
  6
Continuous
 62
     5
100
AcDbLine
 10
195.8808827655234
 20
188.9904545612765
 30
0.0
 11
196.7815595373338
 21
187.866705512898
 31
0.0
  0
LINE
  5
2F4
330
18
100
AcDbEntity
  8
BASE
  6
Continuous
 62
     5
100
AcDbLine
 10
191.0513311286076
 20
186.7922917885947
 30
0.0
 11
198.83953615544
 21
186.7922917885947
 31
0.0
  0
LINE
  5
2F5
330
18
100
AcDbEntity
  8
BASE
  6
Continuous
 62
     5
100
AcDbLine
 10
191.0202994078982
 20
187.6375703410823
 30
0.0
 11
191.0202994078982
 21
185.8494389284918
 31
0.0
  0
LINE
  5
2F6
330
18
100
AcDbEntity
  8
BASE
  6
HIDDEN
 62
     5
100
AcDbLine
 10
180.0
 20
200.0
 30
0.0
 11
200.0
 21
200.0
 31
0.0
  0
LINE
  5
2F7
330
18
100
AcDbEntity
  8
BASE
  6
Continuous
 62
     5
100
AcDbLine
 10
182.8330617442662
 20
198.7309344567794
 30
0.0
 11
185.1788272564918
 21
197.3955807454106
 31
0.0
  0
LINE
  5
2F8
330
18
100
AcDbEntity
  8
BASE
  6
Continuous
 62
     5
100
AcDbLine
 10
185.1788272564918
 20
197.3955807454106
 30
0.0
 11
182.8330617442662
 21
196.2056615966662
 31
0.0
  0
LINE
  5
2F9
330
18
100
AcDbEntity
  8
BASE
  6
Continuous
 62
     5
100
AcDbLine
 10
184.4553897329059
 20
198.7309344567794
 30
0.0
 11
186.8011552451315
 21
197.3955807454106
 31
0.0
  0
LINE
  5
2FA
330
18
100
AcDbEntity
  8
BASE
  6
Continuous
 62
     5
100
AcDbLine
 10
186.8011552451315
 20
197.3955807454106
 30
0.0
 11
184.4553897329059
 21
196.2056615966662
 31
0.0
  0
TEXT
  5
2FB
330
18
100
AcDbEntity
  8
BASE
  6
Continuous
 62
     5
100
AcDbText
 10
181.2701280291658
 20
196.1929770745873
 30
0.0
 40
2.5
  1
I
 11
181.2701280291658
 21
195.3596437412539
 31
0.0
100
AcDbText
 73
     1
  0
LINE
  5
2FC
330
18
100
AcDbEntity
  8
BASE
  6
HIDDEN
 62
     5
100
AcDbLine
 10
180.0
 20
210.0
 30
0.0
 11
200.0
 21
210.0
 31
0.0
  0
TEXT
  5
2FD
330
18
100
AcDbEntity
  8
BASE
  6
Continuous
 62
     5
100
AcDbText
 10
181.2701280291658
 20
200.5316345588567
 30
0.0
 40
2.5
  1
I
 11
181.2701280291658
 21
199.6983012255233
 31
0.0
100
AcDbText
 73
     1
  0
LINE
  5
2FE
330
18
100
AcDbEntity
  8
BASE
  6
Continuous
 62
     5
100
AcDbLine
 10
186.4061169655158
 20
201.73423822968
 30
0.0
 11
184.0603514532902
 21
200.5443190809355
 31
0.0
  0
LINE
  5
2FF
330
18
100
AcDbEntity
  8
BASE
  6
Continuous
 62
     5
100
AcDbLine
 10
184.0603514532902
 20
203.0695919410487
 30
0.0
 11
186.4061169655158
 21
201.73423822968
 31
0.0
  0
LINE
  5
300
330
18
100
AcDbEntity
  8
BASE
  6
Continuous
 62
     5
100
AcDbLine
 10
189.9009358416169
 20
204.9600552776674
 30
0.0
 11
192.4009358416169
 21
204.9600552776674
 31
0.0
  0
LINE
  5
301
330
18
100
AcDbEntity
  8
BASE
  6
Continuous
 62
     5
100
AcDbLine
 10
189.9009358416169
 20
204.9600552776674
 30
0.0
 11
187.6764891006496
 21
204.3994128879575
 31
0.0
  0
LINE
  5
302
330
18
100
AcDbEntity
  8
BASE
  6
Continuous
 62
     5
100
AcDbLine
 10
184.9009358416169
 20
204.9600552776674
 30
0.0
 11
187.4009358416169
 21
204.9600552776674
 31
0.0
  0
TEXT
  5
303
330
18
100
AcDbEntity
  8
BASE
  6
HIDDEN
 62
     5
100
AcDbText
 10
181.080478382033
 20
204.2268074994583
 30
0.0
 40
1.5
  1
EN
100
AcDbText
  0
CIRCLE
  5
304
330
18
100
AcDbEntity
  8
BASE
  6
Continuous
 62
     5
100
AcDbCircle
 10
179.0126585353903
 20
207.9945094989803
 30
0.0
 40
1.0
  0
LINE
  5
305
330
18
100
AcDbEntity
  8
BASE
  6
Continuous
 62
     5
100
AcDbLine
 10
178.0127296591571
 20
208.0008126094277
 30
0.0
 11
65.0
 21
208.0008126094277
 31
0.0
  0
LINE
  5
306
330
18
100
AcDbEntity
  8
BASE
  6
Continuous
 62
     5
100
AcDbLine
 10
180.0
 20
215.0
 30
0.0
 11
210.4506146522573
 21
215.0
 31
0.0
  0
LINE
  5
307
330
18
100
AcDbEntity
  8
BASE
  6
Continuous
 62
     5
100
AcDbLine
 10
184.0603514532902
 20
213.2793140973893
 30
0.0
 11
186.4061169655158
 21
211.9439603860205
 31
0.0
  0
LINE
  5
308
330
18
100
AcDbEntity
  8
BASE
  6
Continuous
 62
     5
100
AcDbLine
 10
186.4061169655158
 20
211.9439603860205
 30
0.0
 11
184.0603514532902
 21
210.7540412372761
 31
0.0
  0
TEXT
  5
309
330
18
100
AcDbEntity
  8
BASE
  6
Continuous
 62
     5
100
AcDbText
 10
181.2701280291658
 20
210.7413567151972
 30
0.0
 40
2.5
  1
I
 11
181.2701280291658
 21
209.9080233818638
 31
0.0
100
AcDbText
 73
     1
  0
TEXT
  5
30A
330
18
100
AcDbEntity
  8
BASE
  6
Continuous
 62
     5
100
AcDbText
 10
204.3894862951393
 20
210.0
 30
0.0
 40
2.5
  1
U1
  7
ROMANS
100
AcDbText
  0
TEXT
  5
30B
330
18
100
AcDbEntity
  8
BASE
  6
DASHED
 62
     5
100
AcDbText
 10
202.0774394160846
 20
198.9151371418708
 30
0.0
 40
2.5
  1
3I
100
AcDbText
  0
LINE
  5
30C
330
18
100
AcDbEntity
  8
BASE
  6
Continuous
 62
     5
100
AcDbLine
 10
206.4846595919444
 20
201.4634169625468
 30
0.0
 11
208.83042510417
 21
200.128063251178
 31
0.0
  0
LINE
  5
30D
330
18
100
AcDbEntity
  8
BASE
  6
Continuous
 62
     5
100
AcDbLine
 10
208.83042510417
 20
200.128063251178
 30
0.0
 11
206.4846595919444
 21
198.9381441024336
 31
0.0
  0
LINE
  5
30E
330
18
100
AcDbEntity
  8
BASE
  6
Continuous
 62
     5
100
AcDbLine
 10
52.7988115360942
 20
215.0
 30
0.0
 11
47.5
 21
215.0
 31
0.0
  0
LINE
  5
30F
330
18
100
AcDbEntity
  8
BASE
  6
Continuous
 62
     5
100
AcDbLine
 10
52.7988115360942
 20
220.0
 30
0.0
 11
40.0
 21
220.0
 31
0.0
  0
LINE
  5
310
330
18
100
AcDbEntity
  8
BASE
 62
     5
100
AcDbLine
 10
52.7988115360942
 20
221.5899248299359
 30
0.0
 11
52.7988115360942
 21
213.3999999999999
 31
0.0
  0
LINE
  5
311
330
18
100
AcDbEntity
  8
BASE
 62
     5
100
AcDbLine
 10
57.00485312354079
 20
221.5938403318466
 30
0.0
 11
55.09105013902138
 21
219.3150182198039
 31
0.0
  0
LINE
  5
312
330
18
100
AcDbEntity
  8
BASE
 62
     5
100
AcDbLine
 10
58.49697070469147
 20
221.5938403318466
 30
0.0
 11
56.6426361744933
 21
219.3150182198039
 31
0.0
  0
LINE
  5
313
330
18
100
AcDbEntity
  8
BASE
 62
     5
100
AcDbLine
 10
60.221555880007
 20
221.5899248299359
 30
0.0
 11
52.7988115360942
 21
221.5899248299359
 31
0.0
  0
LINE
  5
314
330
18
100
AcDbEntity
  8
BASE
 62
     5
100
AcDbLine
 10
60.22155588000697
 20
213.3999999999999
 30
0.0
 11
60.221555880007
 21
221.5899248299359
 31
0.0
  0
LINE
  5
315
330
18
100
AcDbEntity
  8
BASE
  6
Continuous
 62
     5
100
AcDbLine
 10
60.22155588000697
 20
217.5
 30
0.0
 11
65.0
 21
217.5
 31
0.0
  0
LINE
  5
316
330
18
100
AcDbEntity
  8
BASE
  6
Continuous
 62
     5
100
AcDbLine
 10
60.22155588000697
 20
210.0
 30
0.0
 11
65.0
 21
210.0
 31
0.0
  0
LINE
  5
317
330
18
100
AcDbEntity
  8
BASE
 62
     5
100
AcDbLine
 10
60.22155588000697
 20
206.2042118258568
 30
0.0
 11
60.221555880007
 21
214.0899248299359
 31
0.0
  0
LINE
  5
318
330
18
100
AcDbEntity
  8
BASE
 62
     5
100
AcDbLine
 10
60.221555880007
 20
213.7042118258568
 30
0.0
 11
52.7988115360942
 21
213.7042118258568
 31
0.0
  0
LINE
  5
319
330
18
100
AcDbEntity
  8
BASE
 62
     5
100
AcDbLine
 10
58.49697070469147
 20
213.7081273277675
 30
0.0
 11
56.6426361744933
 21
211.4293052157248
 31
0.0
  0
LINE
  5
31A
330
18
100
AcDbEntity
  8
BASE
 62
     5
100
AcDbLine
 10
57.00485312354079
 20
213.7081273277675
 30
0.0
 11
55.09105013902138
 21
211.4293052157248
 31
0.0
  0
LINE
  5
31B
330
18
100
AcDbEntity
  8
BASE
 62
     5
100
AcDbLine
 10
52.7988115360942
 20
214.0899248299359
 30
0.0
 11
52.7988115360942
 21
206.2042118258568
 31
0.0
  0
LINE
  5
31C
330
18
100
AcDbEntity
  8
BASE
  6
Continuous
 62
     5
100
AcDbLine
 10
52.7988115360942
 20
212.5
 30
0.0
 11
40.0
 21
212.5
 31
0.0
  0
LINE
  5
31D
330
18
100
AcDbEntity
  8
BASE
  6
Continuous
 62
     5
100
AcDbLine
 10
52.7988115360942
 20
207.5
 30
0.0
 11
47.5
 21
207.5
 31
0.0
  0
LINE
  5
31E
330
18
100
AcDbEntity
  8
BASE
 62
     5
100
AcDbLine
 10
60.22155588000697
 20
206.2042118258568
 30
0.0
 11
52.7988115360942
 21
206.2042118258568
 31
0.0
  0
LINE
  5
31F
330
18
100
AcDbEntity
  8
BASE
  6
Continuous
 62
     5
100
AcDbLine
 10
222.9506146543173
 20
95.0
 30
0.0
 11
230.0
 21
95.0
 31
0.0
  0
LINE
  5
320
330
18
100
AcDbEntity
  8
BASE
  6
Continuous
 62
     5
100
AcDbLine
 10
106.1489247890714
 20
120.7992621767828
 30
0.0
 11
108.532385222152
 21
121.9874540179833
 31
0.0
  0
LINE
  5
321
330
18
100
AcDbEntity
  8
BASE
  6
Continuous
 62
     5
100
AcDbLine
 10
108.5027320453169
 20
122.7891950622866
 30
0.0
 11
106.1569665330913
 21
121.5992759135421
 31
0.0
  0
LINE
  5
322
330
18
100
AcDbEntity
  8
BASE
  6
Continuous
 62
     5
100
AcDbLine
 10
106.1569665330913
 20
124.1245487736553
 30
0.0
 11
108.5027320453169
 21
122.7891950622866
 31
0.0
  0
TEXT
  5
323
330
18
100
AcDbEntity
  8
BASE
  6
Continuous
 62
     5
100
AcDbText
 10
110.5908283234489
 20
121.4644551552293
 30
0.0
 40
2.5
  1
1
 11
110.5908283234489
 21
120.6311218218959
 31
0.0
100
AcDbText
 73
     1
  0
LINE
  5
324
330
18
100
AcDbEntity
  8
BASE
  6
Continuous
 62
     5
100
AcDbLine
 10
105.0
 20
125.0
 30
0.0
 11
112.5
 21
125.0
 31
0.0
  0
LINE
  5
325
330
18
100
AcDbEntity
  8
BASE
  6
Continuous
 62
     5
100
AcDbLine
 10
105.0
 20
120.0
 30
0.0
 11
105.0
 21
125.0
 31
0.0
  0
LINE
  5
326
330
18
100
AcDbEntity
  8
BASE
  6
Continuous
 62
     5
100
AcDbLine
 10
112.5
 20
120.0
 30
0.0
 11
105.0
 21
120.0
 31
0.0
  0
LINE
  5
327
330
18
100
AcDbEntity
  8
BASE
  6
Continuous
 62
     5
100
AcDbLine
 10
112.5
 20
125.0
 30
0.0
 11
112.5
 21
120.0
 31
0.0
  0
LINE
  5
328
330
18
100
AcDbEntity
  8
BASE
  6
Continuous
 62
     5
100
AcDbLine
 10
107.4999999999999
 20
120.0
 30
0.0
 11
107.4999999999999
 21
119.9999745635626
 31
0.0
  0
LINE
  5
329
330
18
100
AcDbEntity
  8
BASE
 62
     5
100
AcDbLine
 10
235.0
 20
146.127657763261
 30
0.0
 11
233.4801328078124
 21
146.127657763261
 31
0.0
  0
ARC
  5
32A
330
18
100
AcDbEntity
  8
BASE
 62
     5
100
AcDbCircle
 10
235.0658493466662
 20
147.377657763261
 30
0.0
 40
1.251733252916278
100
AcDbArc
 50
266.9844757085052
 51
93.0155242914955
  0
LINE
  5
32B
330
18
100
AcDbEntity
  8
BASE
 62
     5
100
AcDbLine
 10
235.0
 20
148.627657763261
 30
0.0
 11
233.4801328078124
 21
148.627657763261
 31
0.0
  0
LINE
  5
32C
330
18
100
AcDbEntity
  8
BASE
 62
     5
100
AcDbLine
 10
235.0
 20
151.127657763261
 30
0.0
 11
233.4801328078124
 21
151.127657763261
 31
0.0
  0
ARC
  5
32D
330
18
100
AcDbEntity
  8
BASE
 62
     5
100
AcDbCircle
 10
235.0658493466662
 20
149.877657763261
 30
0.0
 40
1.251733252916278
100
AcDbArc
 50
266.9844757085052
 51
93.0155242914955
  0
LINE
  5
32E
330
18
100
AcDbEntity
  8
BASE
 62
     5
100
AcDbLine
 10
240.0
 20
143.627657763261
 30
0.0
 11
242.5
 21
143.627657763261
 31
0.0
  0
ARC
  5
32F
330
18
100
AcDbEntity
  8
BASE
 62
     5
100
AcDbCircle
 10
239.9341506533337
 20
144.877657763261
 30
0.0
 40
1.251733252916278
100
AcDbArc
 50
86.98447570850529
 51
273.0155242914954
  0
ARC
  5
330
330
18
100
AcDbEntity
  8
BASE
 62
     5
100
AcDbCircle
 10
239.9341506533337
 20
147.377657763261
 30
0.0
 40
1.251733252916278
100
AcDbArc
 50
86.98447570850529
 51
273.0155242914954
  0
LINE
  5
331
330
18
100
AcDbEntity
  8
BASE
 62
     5
100
AcDbLine
 10
240.0
 20
146.127657763261
 30
0.0
 11
242.5
 21
146.127657763261
 31
0.0
  0
LINE
  5
332
330
18
100
AcDbEntity
  8
BASE
 62
     5
100
AcDbLine
 10
240.0
 20
148.627657763261
 30
0.0
 11
242.5
 21
148.627657763261
 31
0.0
  0
LINE
  5
333
330
18
100
AcDbEntity
  8
BASE
 62
     5
100
AcDbLine
 10
242.5
 20
148.627657763261
 30
0.0
 11
245.0
 21
148.627657763261
 31
0.0
  0
LINE
  5
334
330
18
100
AcDbEntity
  8
BASE
 62
     5
100
AcDbLine
 10
242.5
 20
143.627657763261
 30
0.0
 11
250.0
 21
143.627657763261
 31
0.0
  0
LINE
  5
335
330
18
100
AcDbEntity
  8
BASE
 62
     5
100
AcDbLine
 10
242.5
 20
148.627657763261
 30
0.0
 11
250.0
 21
148.627657763261
 31
0.0
  0
LINE
  5
336
330
18
100
AcDbEntity
  8
BASE
 62
     5
100
AcDbLine
 10
242.5
 20
153.627657763261
 30
0.0
 11
250.0
 21
153.627657763261
 31
0.0
  0
LINE
  5
337
330
18
100
AcDbEntity
  8
BASE
 62
     5
100
AcDbLine
 10
240.0
 20
153.627657763261
 30
0.0
 11
242.5
 21
153.627657763261
 31
0.0
  0
LINE
  5
338
330
18
100
AcDbEntity
  8
BASE
 62
     5
100
AcDbLine
 10
240.0
 20
151.127657763261
 30
0.0
 11
242.5
 21
151.127657763261
 31
0.0
  0
ARC
  5
339
330
18
100
AcDbEntity
  8
BASE
 62
     5
100
AcDbCircle
 10
239.9341506533337
 20
152.377657763261
 30
0.0
 40
1.251733252916278
100
AcDbArc
 50
86.98447570850529
 51
273.0155242914954
  0
ARC
  5
33A
330
18
100
AcDbEntity
  8
BASE
 62
     5
100
AcDbCircle
 10
239.9341506533337
 20
149.877657763261
 30
0.0
 40
1.251733252916278
100
AcDbArc
 50
86.98447570850529
 51
273.0155242914954
  0
LINE
  5
33B
330
18
100
AcDbEntity
  8
BASE
 62
     5
100
AcDbLine
 10
240.0
 20
148.627657763261
 30
0.0
 11
242.5
 21
148.627657763261
 31
0.0
  0
LINE
  5
33C
330
18
100
AcDbEntity
  8
BASE
 62
     5
100
AcDbLine
 10
235.0
 20
167.5
 30
0.0
 11
233.4801328078124
 21
167.5
 31
0.0
  0
ARC
  5
33D
330
18
100
AcDbEntity
  8
BASE
 62
     5
100
AcDbCircle
 10
235.0658493466662
 20
168.75
 30
0.0
 40
1.251733252916278
100
AcDbArc
 50
266.9844757085052
 51
93.0155242914955
  0
LINE
  5
33E
330
18
100
AcDbEntity
  8
BASE
 62
     5
100
AcDbLine
 10
235.0
 20
170.0
 30
0.0
 11
233.4801328078124
 21
170.0
 31
0.0
  0
LINE
  5
33F
330
18
100
AcDbEntity
  8
BASE
 62
     5
100
AcDbLine
 10
235.0
 20
172.5
 30
0.0
 11
233.4801328078124
 21
172.5
 31
0.0
  0
ARC
  5
340
330
18
100
AcDbEntity
  8
BASE
 62
     5
100
AcDbCircle
 10
235.0658493466662
 20
171.25
 30
0.0
 40
1.251733252916278
100
AcDbArc
 50
266.9844757085052
 51
93.0155242914955
  0
LINE
  5
341
330
18
100
AcDbEntity
  8
BASE
 62
     5
100
AcDbLine
 10
240.0
 20
165.0
 30
0.0
 11
242.5
 21
165.0
 31
0.0
  0
ARC
  5
342
330
18
100
AcDbEntity
  8
BASE
 62
     5
100
AcDbCircle
 10
239.9341506533337
 20
166.25
 30
0.0
 40
1.251733252916278
100
AcDbArc
 50
86.98447570850529
 51
273.0155242914954
  0
ARC
  5
343
330
18
100
AcDbEntity
  8
BASE
 62
     5
100
AcDbCircle
 10
239.9341506533337
 20
168.75
 30
0.0
 40
1.251733252916278
100
AcDbArc
 50
86.98447570850529
 51
273.0155242914954
  0
LINE
  5
344
330
18
100
AcDbEntity
  8
BASE
 62
     5
100
AcDbLine
 10
240.0
 20
167.5
 30
0.0
 11
242.5
 21
167.5
 31
0.0
  0
LINE
  5
345
330
18
100
AcDbEntity
  8
BASE
 62
     5
100
AcDbLine
 10
240.0
 20
170.0
 30
0.0
 11
242.5
 21
170.0
 31
0.0
  0
LINE
  5
346
330
18
100
AcDbEntity
  8
BASE
 62
     5
100
AcDbLine
 10
242.5
 20
170.0
 30
0.0
 11
245.0
 21
170.0
 31
0.0
  0
LINE
  5
347
330
18
100
AcDbEntity
  8
BASE
 62
     5
100
AcDbLine
 10
242.5
 20
165.0
 30
0.0
 11
250.0
 21
165.0
 31
0.0
  0
LINE
  5
348
330
18
100
AcDbEntity
  8
BASE
 62
     5
100
AcDbLine
 10
242.5
 20
170.0
 30
0.0
 11
250.0
 21
170.0
 31
0.0
  0
LINE
  5
349
330
18
100
AcDbEntity
  8
BASE
 62
     5
100
AcDbLine
 10
242.5
 20
175.0
 30
0.0
 11
250.0
 21
175.0
 31
0.0
  0
LINE
  5
34A
330
18
100
AcDbEntity
  8
BASE
 62
     5
100
AcDbLine
 10
240.0
 20
175.0
 30
0.0
 11
242.5
 21
175.0
 31
0.0
  0
LINE
  5
34B
330
18
100
AcDbEntity
  8
BASE
 62
     5
100
AcDbLine
 10
240.0
 20
172.5
 30
0.0
 11
242.5
 21
172.5
 31
0.0
  0
ARC
  5
34C
330
18
100
AcDbEntity
  8
BASE
 62
     5
100
AcDbCircle
 10
239.9341506533337
 20
173.75
 30
0.0
 40
1.251733252916278
100
AcDbArc
 50
86.98447570850529
 51
273.0155242914954
  0
ARC
  5
34D
330
18
100
AcDbEntity
  8
BASE
 62
     5
100
AcDbCircle
 10
239.9341506533337
 20
171.25
 30
0.0
 40
1.251733252916278
100
AcDbArc
 50
86.98447570850529
 51
273.0155242914954
  0
LINE
  5
34E
330
18
100
AcDbEntity
  8
BASE
 62
     5
100
AcDbLine
 10
240.0
 20
170.0
 30
0.0
 11
242.5
 21
170.0
 31
0.0
  0
LINE
  5
34F
330
18
100
AcDbEntity
  8
BASE
 62
     5
100
AcDbLine
 10
235.0
 20
187.5
 30
0.0
 11
233.4801328078124
 21
187.5
 31
0.0
  0
ARC
  5
350
330
18
100
AcDbEntity
  8
BASE
 62
     5
100
AcDbCircle
 10
235.0658493466662
 20
188.75
 30
0.0
 40
1.251733252916278
100
AcDbArc
 50
266.9844757085052
 51
93.0155242914955
  0
LINE
  5
351
330
18
100
AcDbEntity
  8
BASE
 62
     5
100
AcDbLine
 10
235.0
 20
190.0
 30
0.0
 11
233.4801328078124
 21
190.0
 31
0.0
  0
LINE
  5
352
330
18
100
AcDbEntity
  8
BASE
 62
     5
100
AcDbLine
 10
235.0
 20
192.5
 30
0.0
 11
233.4801328078124
 21
192.5
 31
0.0
  0
ARC
  5
353
330
18
100
AcDbEntity
  8
BASE
 62
     5
100
AcDbCircle
 10
235.0658493466662
 20
191.25
 30
0.0
 40
1.251733252916278
100
AcDbArc
 50
266.9844757085052
 51
93.0155242914955
  0
LINE
  5
354
330
18
100
AcDbEntity
  8
BASE
 62
     5
100
AcDbLine
 10
240.0
 20
185.0
 30
0.0
 11
242.5
 21
185.0
 31
0.0
  0
ARC
  5
355
330
18
100
AcDbEntity
  8
BASE
 62
     5
100
AcDbCircle
 10
239.9341506533337
 20
186.25
 30
0.0
 40
1.251733252916278
100
AcDbArc
 50
86.98447570850529
 51
273.0155242914954
  0
ARC
  5
356
330
18
100
AcDbEntity
  8
BASE
 62
     5
100
AcDbCircle
 10
239.9341506533337
 20
188.75
 30
0.0
 40
1.251733252916278
100
AcDbArc
 50
86.98447570850529
 51
273.0155242914954
  0
LINE
  5
357
330
18
100
AcDbEntity
  8
BASE
 62
     5
100
AcDbLine
 10
240.0
 20
187.5
 30
0.0
 11
242.5
 21
187.5
 31
0.0
  0
LINE
  5
358
330
18
100
AcDbEntity
  8
BASE
 62
     5
100
AcDbLine
 10
240.0
 20
190.0
 30
0.0
 11
242.5
 21
190.0
 31
0.0
  0
LINE
  5
359
330
18
100
AcDbEntity
  8
BASE
 62
     5
100
AcDbLine
 10
242.5
 20
190.0
 30
0.0
 11
245.0
 21
190.0
 31
0.0
  0
LINE
  5
35A
330
18
100
AcDbEntity
  8
BASE
 62
     5
100
AcDbLine
 10
242.5
 20
185.0
 30
0.0
 11
250.0
 21
185.0
 31
0.0
  0
LINE
  5
35B
330
18
100
AcDbEntity
  8
BASE
 62
     5
100
AcDbLine
 10
242.5
 20
190.0
 30
0.0
 11
250.0
 21
190.0
 31
0.0
  0
LINE
  5
35C
330
18
100
AcDbEntity
  8
BASE
 62
     5
100
AcDbLine
 10
242.5
 20
195.0
 30
0.0
 11
250.0
 21
195.0
 31
0.0
  0
LINE
  5
35D
330
18
100
AcDbEntity
  8
BASE
 62
     5
100
AcDbLine
 10
240.0
 20
195.0
 30
0.0
 11
242.5
 21
195.0
 31
0.0
  0
LINE
  5
35E
330
18
100
AcDbEntity
  8
BASE
 62
     5
100
AcDbLine
 10
240.0
 20
192.5
 30
0.0
 11
242.5
 21
192.5
 31
0.0
  0
ARC
  5
35F
330
18
100
AcDbEntity
  8
BASE
 62
     5
100
AcDbCircle
 10
239.9341506533337
 20
193.75
 30
0.0
 40
1.251733252916278
100
AcDbArc
 50
86.98447570850529
 51
273.0155242914954
  0
ARC
  5
360
330
18
100
AcDbEntity
  8
BASE
 62
     5
100
AcDbCircle
 10
239.9341506533337
 20
191.25
 30
0.0
 40
1.251733252916278
100
AcDbArc
 50
86.98447570850529
 51
273.0155242914954
  0
LINE
  5
361
330
18
100
AcDbEntity
  8
BASE
 62
     5
100
AcDbLine
 10
240.0
 20
190.0
 30
0.0
 11
242.5
 21
190.0
 31
0.0
  0
LINE
  5
362
330
18
100
AcDbEntity
  8
BASE
 62
     5
100
AcDbLine
 10
235.0
 20
207.5
 30
0.0
 11
233.4801328078124
 21
207.5
 31
0.0
  0
ARC
  5
363
330
18
100
AcDbEntity
  8
BASE
 62
     5
100
AcDbCircle
 10
235.0658493466662
 20
208.7499999999999
 30
0.0
 40
1.251733252916278
100
AcDbArc
 50
266.9844757085052
 51
93.0155242914955
  0
LINE
  5
364
330
18
100
AcDbEntity
  8
BASE
 62
     5
100
AcDbLine
 10
235.0
 20
210.0
 30
0.0
 11
233.4801328078124
 21
210.0
 31
0.0
  0
LINE
  5
365
330
18
100
AcDbEntity
  8
BASE
 62
     5
100
AcDbLine
 10
235.0
 20
212.5
 30
0.0
 11
233.4801328078124
 21
212.5
 31
0.0
  0
ARC
  5
366
330
18
100
AcDbEntity
  8
BASE
 62
     5
100
AcDbCircle
 10
235.0658493466662
 20
211.2499999999999
 30
0.0
 40
1.251733252916278
100
AcDbArc
 50
266.9844757085052
 51
93.0155242914955
  0
LINE
  5
367
330
18
100
AcDbEntity
  8
BASE
 62
     5
100
AcDbLine
 10
240.0
 20
205.0
 30
0.0
 11
242.5
 21
205.0
 31
0.0
  0
ARC
  5
368
330
18
100
AcDbEntity
  8
BASE
 62
     5
100
AcDbCircle
 10
239.9341506533337
 20
206.25
 30
0.0
 40
1.251733252916278
100
AcDbArc
 50
86.98447570850529
 51
273.0155242914954
  0
ARC
  5
369
330
18
100
AcDbEntity
  8
BASE
 62
     5
100
AcDbCircle
 10
239.9341506533337
 20
208.7499999999999
 30
0.0
 40
1.251733252916278
100
AcDbArc
 50
86.98447570850529
 51
273.0155242914954
  0
LINE
  5
36A
330
18
100
AcDbEntity
  8
BASE
 62
     5
100
AcDbLine
 10
240.0
 20
207.5
 30
0.0
 11
242.5
 21
207.5
 31
0.0
  0
LINE
  5
36B
330
18
100
AcDbEntity
  8
BASE
 62
     5
100
AcDbLine
 10
240.0
 20
210.0
 30
0.0
 11
242.5
 21
210.0
 31
0.0
  0
LINE
  5
36C
330
18
100
AcDbEntity
  8
BASE
 62
     5
100
AcDbLine
 10
242.5
 20
210.0
 30
0.0
 11
245.0
 21
210.0
 31
0.0
  0
LINE
  5
36D
330
18
100
AcDbEntity
  8
BASE
 62
     5
100
AcDbLine
 10
242.5
 20
205.0
 30
0.0
 11
250.0
 21
205.0
 31
0.0
  0
LINE
  5
36E
330
18
100
AcDbEntity
  8
BASE
 62
     5
100
AcDbLine
 10
242.5
 20
210.0
 30
0.0
 11
245.0
 21
210.0
 31
0.0
  0
LINE
  5
36F
330
18
100
AcDbEntity
  8
BASE
 62
     5
100
AcDbLine
 10
242.5
 20
215.0
 30
0.0
 11
245.0
 21
215.0
 31
0.0
  0
LINE
  5
370
330
18
100
AcDbEntity
  8
BASE
 62
     5
100
AcDbLine
 10
240.0
 20
215.0
 30
0.0
 11
250.0
 21
215.0
 31
0.0
  0
LINE
  5
371
330
18
100
AcDbEntity
  8
BASE
 62
     5
100
AcDbLine
 10
240.0
 20
212.5
 30
0.0
 11
242.5
 21
212.5
 31
0.0
  0
ARC
  5
372
330
18
100
AcDbEntity
  8
BASE
 62
     5
100
AcDbCircle
 10
239.9341506533337
 20
213.75
 30
0.0
 40
1.251733252916278
100
AcDbArc
 50
86.98447570850529
 51
273.0155242914954
  0
ARC
  5
373
330
18
100
AcDbEntity
  8
BASE
 62
     5
100
AcDbCircle
 10
239.9341506533337
 20
211.2499999999999
 30
0.0
 40
1.251733252916278
100
AcDbArc
 50
86.98447570850529
 51
273.0155242914954
  0
LINE
  5
374
330
18
100
AcDbEntity
  8
BASE
 62
     5
100
AcDbLine
 10
240.0
 20
210.0
 30
0.0
 11
250.0
 21
210.0
 31
0.0
  0
TEXT
  5
375
330
18
100
AcDbEntity
  8
BASE
  6
Continuous
 62
     5
100
AcDbText
 10
246.6563623412343
 20
212.1637137499668
 30
0.0
 40
2.0
  1
3
  7
ROMANS
100
AcDbText
  0
TEXT
  5
376
330
18
100
AcDbEntity
  8
BASE
  6
Continuous
 62
     5
100
AcDbText
 10
246.6563623412343
 20
207.1993654279562
 30
0.0
 40
2.0
  1
2
  7
ROMANS
100
AcDbText
  0
TEXT
  5
377
330
18
100
AcDbEntity
  8
BASE
  6
Continuous
 62
     5
100
AcDbText
 10
246.6563623412343
 20
202.2460374774906
 30
0.0
 40
2.0
  1
1
  7
ROMANS
100
AcDbText
  0
TEXT
  5
378
330
18
100
AcDbEntity
  8
BASE
  6
Continuous
 62
     5
100
AcDbText
 10
246.6563623412343
 20
172.1066375378539
 30
0.0
 40
2.0
  1
9
  7
ROMANS
100
AcDbText
  0
TEXT
  5
379
330
18
100
AcDbEntity
  8
BASE
  6
Continuous
 62
     5
100
AcDbText
 10
246.6563623412343
 20
167.5059614768321
 30
0.0
 40
2.0
  1
8
  7
ROMANS
100
AcDbText
  0
TEXT
  5
37A
330
18
100
AcDbEntity
  8
BASE
  6
Continuous
 62
     5
100
AcDbText
 10
246.6563623412343
 20
162.0016149491108
 30
0.0
 40
2.0
  1
7
  7
ROMANS
100
AcDbText
  0
LINE
  5
37B
330
18
100
AcDbEntity
  8
BASE
  6
HIDDEN
 62
     5
100
AcDbLine
 10
250.0
 20
220.0
 30
0.0
 11
245.0
 21
220.0
 31
0.0
  0
LINE
  5
37C
330
18
100
AcDbEntity
  8
BASE
  6
HIDDEN
 62
     5
100
AcDbLine
 10
245.0
 20
220.0
 30
0.0
 11
245.0
 21
65.0
 31
0.0
  0
LINE
  5
37D
330
18
100
AcDbEntity
  8
BASE
  6
HIDDEN
 62
     5
100
AcDbLine
 10
245.0
 20
65.0
 30
0.0
 11
250.0
 21
65.0
 31
0.0
  0
TEXT
  5
37E
330
18
100
AcDbEntity
  8
BASE
  6
HIDDEN
 62
     5
100
AcDbText
 10
245.9298811352417
 20
216.1861493639345
 30
0.0
 40
2.0
  1
X0
  7
ROMANS
100
AcDbText
  0
LINE
  5
381
330
18
100
AcDbEntity
  8
BASE
  6
Continuous
 62
     5
100
AcDbLine
 10
222.4999999999999
 20
170.5702784042931
 30
0.0
 11
210.4506146543173
 21
170.5702784042931
 31
0.0
  0
LINE
  5
382
330
18
100
AcDbEntity
  8
BASE
  6
Continuous
 62
     5
100
AcDbLine
 10
210.4506146522573
 20
200.0
 30
0.0
 11
222.5
 21
200.0
 31
0.0
  0
LINE
  5
383
330
18
100
AcDbEntity
  8
BASE
  6
Continuous
 62
     5
100
AcDbLine
 10
215.0
 20
200.0
 30
0.0
 11
215.0
 21
57.5
 31
0.0
  0
LINE
  5
384
330
18
100
AcDbEntity
  8
BASE
  6
Continuous
 62
     5
100
AcDbLine
 10
230.0
 20
190.0
 30
0.0
 11
222.5
 21
190.0
 31
0.0
  0
LINE
  5
386
330
18
100
AcDbEntity
  8
0
  6
DASHED
 62
     5
100
AcDbLine
 10
40.0
 20
220.0
 30
0.0
 11
32.5
 21
220.0
 31
0.0
  0
LINE
  5
387
330
18
100
AcDbEntity
  8
0
  6
DASHED
 62
     5
100
AcDbLine
 10
40.0
 20
212.5
 30
0.0
 11
32.5
 21
212.5
 31
0.0
  0
LINE
  5
388
330
18
100
AcDbEntity
  8
0
  6
DASHED
 62
     5
100
AcDbLine
 10
40.0
 20
207.5
 30
0.0
 11
32.5
 21
207.5
 31
0.0
  0
INSERT
  5
389
330
18
100
AcDbEntity
  8
0
  6
DASHED
 62
     5
100
AcDbBlockReference
  2
BLC43
 10
30.0
 20
220.0
 30
0.0
  0
INSERT
  5
38A
330
18
100
AcDbEntity
  8
0
  6
DASHED
 62
     5
100
AcDbBlockReference
  2
BLC43
 10
30.0
 20
212.5
 30
0.0
  0
INSERT
  5
38B
330
18
100
AcDbEntity
  8
0
  6
DASHED
 62
     5
100
AcDbBlockReference
  2
BLC42
 10
30.0
 20
207.5
 30
0.0
  0
LINE
  5
38C
330
18
100
AcDbEntity
  8
0
  6
Continuous
 62
     5
100
AcDbLine
 10
25.0
 20
207.4996553644064
 30
0.0
 11
26.0
 21
206.4996553644064
 31
0.0
  0
LINE
  5
38D
330
18
100
AcDbEntity
  8
0
  6
Continuous
 62
     5
100
AcDbLine
 10
25.0
 20
220.0
 30
0.0
 11
26.0
 21
221.0
 31
0.0
  0
LINE
  5
38E
330
18
100
AcDbEntity
  8
0
  6
Continuous
 62
     5
100
AcDbLine
 10
25.0
 20
220.0
 30
0.0
 11
25.0
 21
207.4996553644064
 31
0.0
  0
LINE
  5
38F
330
18
100
AcDbEntity
  8
0
  6
DASHED
 62
     5
100
AcDbLine
 10
40.0
 20
107.4999999999999
 30
0.0
 11
27.5
 21
107.4999999999999
 31
0.0
  0
LINE
  5
390
330
18
100
AcDbEntity
  8
0
  6
DASHED
 62
     5
100
AcDbLine
 10
40.0
 20
97.5
 30
0.0
 11
27.5
 21
97.5
 31
0.0
  0
LINE
  5
391
330
18
100
AcDbEntity
  8
0
  6
DASHED
 62
     5
100
AcDbLine
 10
40.0
 20
92.5
 30
0.0
 11
27.5
 21
92.5
 31
0.0
  0
LINE
  5
392
330
18
100
AcDbEntity
  8
0
  6
DASHED
 62
     5
100
AcDbLine
 10
40.0
 20
82.5
 30
0.0
 11
27.5
 21
82.5
 31
0.0
  0
LINE
  5
393
330
18
100
AcDbEntity
  8
0
  6
DASHED
 62
     5
100
AcDbLine
 10
40.0
 20
77.5
 30
0.0
 11
27.5
 21
77.5
 31
0.0
  0
LINE
  5
394
330
18
100
AcDbEntity
  8
0
  6
Continuous
 62
     5
100
AcDbLine
 10
25.0
 20
92.5
 30
0.0
 11
26.0
 21
93.49999999999999
 31
0.0
  0
LINE
  5
395
330
18
100
AcDbEntity
  8
0
  6
Continuous
 62
     5
100
AcDbLine
 10
25.0
 20
67.49965536440647
 30
0.0
 11
26.0
 21
66.49965536440646
 31
0.0
  0
LINE
  5
396
330
18
100
AcDbEntity
  8
0
  6
Continuous
 62
     5
100
AcDbLine
 10
25.0
 20
92.5
 30
0.0
 11
25.0
 21
67.49965536440647
 31
0.0
  0
LINE
  5
397
330
18
100
AcDbEntity
  8
0
  6
Continuous
 62
     5
100
AcDbLine
 10
375.7279841356692
 20
187.5
 30
0.0
 11
375.7279841356692
 21
215.0
 31
0.0
  0
LINE
  5
398
330
18
100
AcDbEntity
  8
0
  6
Continuous
 62
     5
100
AcDbLine
 10
355.7279841356692
 20
197.5
 30
0.0
 11
375.7279841356692
 21
197.5
 31
0.0
  0
LINE
  5
399
330
18
100
AcDbEntity
  8
0
  6
Continuous
 62
     5
100
AcDbLine
 10
355.7279841356692
 20
215.0
 30
0.0
 11
355.7279841356692
 21
187.5
 31
0.0
  0
LINE
  5
39A
330
18
100
AcDbEntity
  8
0
  6
Continuous
 62
     5
100
AcDbLine
 10
363.1858234033143
 20
194.2961811125461
 30
0.0
 11
367.6789726486699
 21
194.2961811125461
 31
0.0
  0
TEXT
  5
39B
330
18
100
AcDbEntity
  8
0
  6
Continuous
 62
     5
100
AcDbText
 10
361.3086594256458
 20
193.3795553427301
 30
0.0
 40
2.0
  1
O
100
AcDbText
  0
TEXT
  5
39C
330
18
100
AcDbEntity
  8
0
  6
Continuous
 62
     5
100
AcDbText
 10
367.8317748093491
 20
193.3753040688634
 30
0.0
 40
2.0
  1
I
100
AcDbText
  0
LINE
  5
3A2
330
18
100
AcDbEntity
  8
0
  6
Continuous
 62
     5
100
AcDbLine
 10
355.7279841356692
 20
215.0
 30
0.0
 11
355.7279841356692
 21
257.5
 31
0.0
  0
LINE
  5
3A3
330
18
100
AcDbEntity
  8
0
  6
Continuous
 62
     5
100
AcDbLine
 10
375.7279841356692
 20
217.5
 30
0.0
 11
355.7279841356692
 21
217.5
 31
0.0
  0
LINE
  5
3A4
330
18
100
AcDbEntity
  8
0
  6
Continuous
 62
     5
100
AcDbLine
 10
375.7279841356692
 20
257.5
 30
0.0
 11
375.7279841356692
 21
215.0
 31
0.0
  0
LINE
  5
3A5
330
18
100
AcDbEntity
  8
0
  6
Continuous
 62
     5
100
AcDbLine
 10
355.7279841356692
 20
257.5
 30
0.0
 11
375.7279841356692
 21
257.5
 31
0.0
  0
LINE
  5
3A6
330
18
100
AcDbEntity
  8
0
  6
Continuous
 62
     5
100
AcDbLine
 10
355.7279841356692
 20
237.5
 30
0.0
 11
375.7279841356692
 21
237.5
 31
0.0
  0
LINE
  5
3A7
330
18
100
AcDbEntity
  8
0
  6
Continuous
 62
     5
100
AcDbLine
 10
361.3282595718541
 20
240.5521727005849
 30
0.0
 11
361.3282595718541
 21
238.7640412879943
 31
0.0
  0
LINE
  5
3A8
330
18
100
AcDbEntity
  8
0
  6
Continuous
 62
     5
100
AcDbLine
 10
361.3592912925636
 20
239.7068941480972
 30
0.0
 11
369.1474963193959
 21
239.7068941480972
 31
0.0
  0
LINE
  5
3A9
330
18
100
AcDbEntity
  8
0
  6
Continuous
 62
     5
100
AcDbLine
 10
363.7434356885327
 20
238.5392914783187
 30
0.0
 11
366.6195463884319
 21
241.3678500586273
 31
0.0
  0
LINE
  5
3AA
330
18
100
AcDbEntity
  8
0
  6
Continuous
 62
     5
100
AcDbLine
 10
366.1888429294793
 20
241.905056920779
 30
0.0
 11
367.0895197012898
 21
240.7813078724005
 31
0.0
  0
LINE
  5
3AB
330
18
100
AcDbEntity
  8
0
  6
Continuous
 62
     5
100
AcDbLine
 10
369.142955091975
 20
240.5521727005849
 30
0.0
 11
369.142955091975
 21
238.7640412879943
 31
0.0
  0
LINE
  5
3AC
330
18
100
AcDbEntity
  8
0
  6
Continuous
 62
     5
100
AcDbLine
 10
369.142955091975
 20
220.7836836138398
 30
0.0
 11
369.142955091975
 21
218.9955522012493
 31
0.0
  0
LINE
  5
3AD
330
18
100
AcDbEntity
  8
0
  6
Continuous
 62
     5
100
AcDbLine
 10
366.1888429294793
 20
222.1365678340339
 30
0.0
 11
367.0895197012898
 21
221.0128187856555
 31
0.0
  0
LINE
  5
3AE
330
18
100
AcDbEntity
  8
0
  6
Continuous
 62
     5
100
AcDbLine
 10
363.7434356885327
 20
218.7708023915736
 30
0.0
 11
366.6195463884319
 21
221.5993609718823
 31
0.0
  0
LINE
  5
3AF
330
18
100
AcDbEntity
  8
0
  6
Continuous
 62
     5
100
AcDbLine
 10
361.3592912925636
 20
219.9384050613522
 30
0.0
 11
369.1474963193959
 21
219.9384050613522
 31
0.0
  0
LINE
  5
3B0
330
18
100
AcDbEntity
  8
0
  6
Continuous
 62
     5
100
AcDbLine
 10
361.3282595718541
 20
220.7836836138398
 30
0.0
 11
361.3282595718541
 21
218.9955522012493
 31
0.0
  0
LINE
  5
3B1
330
18
100
AcDbEntity
  8
0
  6
Continuous
 62
     5
100
AcDbLine
 10
370.9833038139878
 20
244.5095599658757
 30
0.0
 11
368.6375383017622
 21
243.3196408171312
 31
0.0
  0
LINE
  5
3B2
330
18
100
AcDbEntity
  8
0
  6
Continuous
 62
     5
100
AcDbLine
 10
368.6375383017622
 20
245.8449136772445
 30
0.0
 11
370.9833038139878
 21
244.5095599658757
 31
0.0
  0
LINE
  5
3B3
330
18
100
AcDbEntity
  8
0
  6
Continuous
 62
     5
100
AcDbLine
 10
366.8210880919706
 20
245.8449136772445
 30
0.0
 11
369.1668536041962
 21
244.5095599658757
 31
0.0
  0
LINE
  5
3B4
330
18
100
AcDbEntity
  8
0
  6
Continuous
 62
     5
100
AcDbLine
 10
369.1668536041962
 20
244.5095599658757
 30
0.0
 11
366.8210880919706
 21
243.3196408171312
 31
0.0
  0
TEXT
  5
3B5
330
18
100
AcDbEntity
  8
0
  6
DASHED
 62
     5
100
AcDbText
 10
362.171343153835
 20
243.2827521026731
 30
0.0
 40
2.5
  1
3I
100
AcDbText
  0
LINE
  5
3B6
330
18
100
AcDbEntity
  8
0
  6
Continuous
 62
     5
100
AcDbLine
 10
369.142955091975
 20
250.2061432261182
 30
0.0
 11
369.142955091975
 21
248.4180118135277
 31
0.0
  0
LINE
  5
3B7
330
18
100
AcDbEntity
  8
0
  6
Continuous
 62
     5
100
AcDbLine
 10
363.7434356885327
 20
248.193262003852
 30
0.0
 11
366.6195463884319
 21
251.0218205841607
 31
0.0
  0
ARC
  5
3B8
330
18
100
AcDbEntity
  8
0
  6
HIDDEN
 62
     5
100
AcDbCircle
 10
368.0541591478469
 20
253.289408872707
 30
0.0
 40
4.998195985283786
100
AcDbArc
 50
206.402921519098
 51
282.2111496748031
  0
LINE
  5
3B9
330
18
100
AcDbEntity
  8
0
  6
Continuous
 62
     5
100
AcDbLine
 10
366.1888429294793
 20
251.5590274463124
 30
0.0
 11
367.0895197012898
 21
250.4352783979339
 31
0.0
  0
LINE
  5
3BA
330
18
100
AcDbEntity
  8
0
  6
Continuous
 62
     5
100
AcDbLine
 10
361.3592912925636
 20
249.3608646736306
 30
0.0
 11
369.1474963193959
 21
249.3608646736306
 31
0.0
  0
LINE
  5
3BB
330
18
100
AcDbEntity
  8
0
  6
Continuous
 62
     5
100
AcDbLine
 10
361.3282595718541
 20
250.2061432261182
 30
0.0
 11
361.3282595718541
 21
248.4180118135277
 31
0.0
  0
LINE
  5
3BC
330
18
100
AcDbEntity
  8
0
  6
Continuous
 62
     5
100
AcDbLine
 10
368.9243288419205
 20
254.481400301965
 30
0.0
 11
366.5785633296948
 21
253.2914811532206
 31
0.0
  0
LINE
  5
3BD
330
18
100
AcDbEntity
  8
0
  6
Continuous
 62
     5
100
AcDbLine
 10
366.5785633296948
 20
255.8167540133338
 30
0.0
 11
368.9243288419205
 21
254.481400301965
 31
0.0
  0
TEXT
  5
3BE
330
18
100
AcDbEntity
  8
0
  6
DASHED
 62
     5
100
AcDbText
 10
362.171343153835
 20
253.2684741926578
 30
0.0
 40
2.5
  1
3I
100
AcDbText
  0
LINE
  5
3BF
330
18
100
AcDbEntity
  8
0
  6
Continuous
 62
     5
100
AcDbLine
 10
366.4302993589841
 20
195.0070025919233
 30
0.0
 11
367.6789726486712
 21
194.2961811125467
 31
0.0
  0
LINE
  5
3C0
330
18
100
AcDbEntity
  8
0
  6
Continuous
 62
     5
100
AcDbLine
 10
367.6789726486712
 20
194.2961811125467
 30
0.0
 11
366.4302993589841
 21
193.6627758338944
 31
0.0
  0
TEXT
  5
3C1
330
18
100
AcDbEntity
  8
0
  6
Continuous
 62
     5
100
AcDbText
 10
359.5026967759819
 20
79.4983078664266
 30
0.0
 40
2.0
  1
In=1A
  7
ROMANS
100
AcDbText
  0
TEXT
  5
3C2
330
18
100
AcDbEntity
  8
0
  6
Continuous
 62
     5
100
AcDbText
 10
347.3378984344889
 20
65.31574780599017
 30
0.0
 40
2.0
  1
L3
  7
ROMANS
100
AcDbText
  0
TEXT
  5
3C3
330
18
100
AcDbEntity
  8
0
  6
Continuous
 62
     5
100
AcDbText
 10
360.6591188001908
 20
65.24378633188239
 30
0.0
 40
2.0
  1
7-9
  7
ROMANS
100
AcDbText
  0
TEXT
  5
3C4
330
18
100
AcDbEntity
  8
0
  6
Continuous
 62
     5
100
AcDbText
 10
375.7991176697698
 20
65.24378633188239
 30
0.0
 40
2.0
  1
7-8
  7
ROMANS
100
AcDbText
  0
TEXT
  5
3C5
330
18
100
AcDbEntity
  8
0
  6
Continuous
 62
     5
100
AcDbText
 10
370.3365452133086
 20
11.97866463291774
 30
0.0
 40
2.0
  1
1/2
  7
ROMANS
100
AcDbText
  0
TEXT
  5
3C6
330
18
100
AcDbEntity
  8
BASE
  6
Continuous
 62
     5
100
AcDbText
 10
181.2158960173333
 20
181.1241258099203
 30
0.0
 40
2.5
  1
I
  7
GREEKS
100
AcDbText
  0
TEXT
  5
3C7
330
18
100
AcDbEntity
  8
BASE
  6
Continuous
 62
     5
100
AcDbText
 10
203.5378843004209
 20
168.6429921912042
 30
0.0
 40
2.5
  1
I
  7
GREEKS
100
AcDbText
  0
TEXT
  5
3C8
330
18
100
AcDbEntity
  8
BASE
  6
Continuous
 62
     5
100
AcDbText
 10
245.6425569410541
 20
150.9220965211264
 30
0.0
 40
2.0
  1
27
  7
ROMANS
100
AcDbText
  0
TEXT
  5
3C9
330
18
100
AcDbEntity
  8
BASE
  6
Continuous
 62
     5
100
AcDbText
 10
245.6425569410541
 20
145.8736148545145
 30
0.0
 40
2.0
  1
26
  7
ROMANS
100
AcDbText
  0
TEXT
  5
3CA
330
18
100
AcDbEntity
  8
BASE
  6
Continuous
 62
     5
100
AcDbText
 10
245.6425569410541
 20
140.8251331879026
 30
0.0
 40
2.0
  1
25
  7
ROMANS
100
AcDbText
  0
LINE
  5
3CB
330
18
100
AcDbEntity
  8
0
  6
Continuous
 62
     5
100
AcDbLine
 10
367.3121002531974
 20
235.8609535644012
 30
0.0
 11
369.657865765423
 21
234.5255998530324
 31
0.0
  0
LINE
  5
3CC
330
18
100
AcDbEntity
  8
0
  6
Continuous
 62
     5
100
AcDbLine
 10
369.657865765423
 20
234.5255998530324
 30
0.0
 11
367.3121002531974
 21
233.3356807042879
 31
0.0
  0
LINE
  5
3CD
330
18
100
AcDbEntity
  8
0
 62
     5
100
AcDbLine
 10
356.9370191875236
 20
78.84998920512003
 30
0.0
 11
386.9370191875237
 21
78.84998920512003
 31
0.0
  0
TEXT
  5
3CE
330
18
100
AcDbEntity
  8
0
  6
DASHED
 62
     5
100
AcDbText
 10
374.5057509321676
 20
79.4983078664266
 30
0.0
 40
2.0
  1
In=5A
  7
ROMANS
100
AcDbText
  0
TEXT
  5
3CF
330
18
100
AcDbEntity
  8
0
  6
DASHED
 62
     5
100
AcDbText
 10
347.3378984344889
 20
73.54730723206346
 30
0.0
 40
2.0
  1
L1            
  7
ROMANS
100
AcDbText
  0
TEXT
  5
3D0
330
18
100
AcDbEntity
  8
0
  6
DASHED
 62
     5
100
AcDbText
 10
360.5938131748012
 20
73.54730723206346
 30
0.0
 40
2.0
  1
1-3
  7
ROMANS
100
AcDbText
  0
TEXT
  5
3D1
330
18
100
AcDbEntity
  8
0
  6
DASHED
 62
     5
100
AcDbText
 10
375.749028123646
 20
73.54730723206346
 30
0.0
 40
2.0
  1
1-2
  7
ROMANS
100
AcDbText
  0
TEXT
  5
3D2
330
18
100
AcDbEntity
  8
0
  6
Continuous
 62
     5
100
AcDbText
 10
357.6344298476218
 20
56.20821260489174
 30
0.0
 40
2.0
  1
Un=100V
  7
ROMANS
100
AcDbText
  0
TEXT
  5
3D3
330
18
100
AcDbEntity
  8
0
  6
Continuous
 62
     5
100
AcDbText
 10
372.5847226486623
 20
56.20821260489174
 30
0.0
 40
2.0
  1
Un=110V
  7
ROMANS
100
AcDbText
  0
LINE
  5
3D6
330
18
100
AcDbEntity
  8
BASE
  6
Continuous
 62
     5
100
AcDbLine
 10
47.5
 20
207.5
 30
0.0
 11
40.0
 21
207.5
 31
0.0
  0
LINE
  5
3D7
330
18
100
AcDbEntity
  8
BASE
  6
Continuous
 62
     5
100
AcDbLine
 10
47.5
 20
215.0
 30
0.0
 11
47.5
 21
207.5
 31
0.0
  0
TEXT
  5
3D8
330
18
100
AcDbEntity
  8
BASE
  6
HIDDEN
 62
     5
100
AcDbText
 10
181.080478382033
 20
207.1678474008523
 30
0.0
 40
1.5
  1
EN
100
AcDbText
  0
LINE
  5
3D9
330
18
100
AcDbEntity
  8
BASE
  6
Continuous
 62
     5
100
AcDbLine
 10
184.9009358416169
 20
207.9010951790614
 30
0.0
 11
187.4009358416169
 21
207.9010951790614
 31
0.0
  0
LINE
  5
3DA
330
18
100
AcDbEntity
  8
BASE
  6
Continuous
 62
     5
100
AcDbLine
 10
189.9009358416169
 20
207.9010951790614
 30
0.0
 11
187.6764891006496
 21
207.3404527893515
 31
0.0
  0
LINE
  5
3DB
330
18
100
AcDbEntity
  8
BASE
  6
Continuous
 62
     5
100
AcDbLine
 10
189.9009358416169
 20
207.9010951790614
 30
0.0
 11
192.4009358416169
 21
207.9010951790614
 31
0.0
  0
CIRCLE
  5
3DC
330
18
100
AcDbEntity
  8
BASE
  6
Continuous
 62
     5
100
AcDbCircle
 10
179.0126585353903
 20
204.9653485518516
 30
0.0
 40
1.0
  0
LINE
  5
3DD
330
18
100
AcDbEntity
  8
BASE
  6
Continuous
 62
     5
100
AcDbLine
 10
178.0127296591571
 20
204.9716516622991
 30
0.0
 11
172.5
 21
204.9716516622991
 31
0.0
  0
LINE
  5
3DE
330
18
100
AcDbEntity
  8
BASE
  6
Continuous
 62
     5
100
AcDbLine
 10
189.9009358416169
 20
192.9010951790614
 30
0.0
 11
192.4009358416169
 21
192.9010951790614
 31
0.0
  0
LINE
  5
3DF
330
18
100
AcDbEntity
  8
BASE
  6
Continuous
 62
     5
100
AcDbLine
 10
189.9009358416169
 20
192.9010951790614
 30
0.0
 11
187.6764891006496
 21
192.3404527893515
 31
0.0
  0
LINE
  5
3E0
330
18
100
AcDbEntity
  8
BASE
  6
Continuous
 62
     5
100
AcDbLine
 10
184.9009358416169
 20
192.9010951790614
 30
0.0
 11
187.4009358416169
 21
192.9010951790614
 31
0.0
  0
TEXT
  5
3E1
330
18
100
AcDbEntity
  8
BASE
  6
HIDDEN
 62
     5
100
AcDbText
 10
181.080478382033
 20
192.1678474008523
 30
0.0
 40
1.5
  1
EN
100
AcDbText
  0
TEXT
  5
3E2
330
18
100
AcDbEntity
  8
BASE
  6
HIDDEN
 62
     5
100
AcDbText
 10
181.080478382033
 20
189.2268074994583
 30
0.0
 40
1.5
  1
EN
100
AcDbText
  0
LINE
  5
3E3
330
18
100
AcDbEntity
  8
BASE
  6
Continuous
 62
     5
100
AcDbLine
 10
184.9009358416169
 20
189.9600552776674
 30
0.0
 11
187.4009358416169
 21
189.9600552776674
 31
0.0
  0
LINE
  5
3E4
330
18
100
AcDbEntity
  8
BASE
  6
Continuous
 62
     5
100
AcDbLine
 10
189.9009358416169
 20
189.9600552776674
 30
0.0
 11
187.6764891006496
 21
189.3994128879575
 31
0.0
  0
LINE
  5
3E5
330
18
100
AcDbEntity
  8
BASE
  6
Continuous
 62
     5
100
AcDbLine
 10
189.9009358416169
 20
189.9600552776674
 30
0.0
 11
192.4009358416169
 21
189.9600552776674
 31
0.0
  0
CIRCLE
  5
3E6
330
18
100
AcDbEntity
  8
BASE
  6
Continuous
 62
     5
100
AcDbCircle
 10
179.0126585353903
 20
189.9653485518516
 30
0.0
 40
1.0
  0
CIRCLE
  5
3E7
330
18
100
AcDbEntity
  8
BASE
  6
Continuous
 62
     5
100
AcDbCircle
 10
179.0126585353903
 20
192.9945094989803
 30
0.0
 40
1.0
  0
LINE
  5
3E8
330
18
100
AcDbEntity
  8
BASE
  6
Continuous
 62
     5
100
AcDbLine
 10
178.0127296591571
 20
193.0008126094277
 30
0.0
 11
170.0
 21
193.0008126094277
 31
0.0
  0
LINE
  5
3E9
330
18
100
AcDbEntity
  8
BASE
  6
Continuous
 62
     5
100
AcDbLine
 10
178.0127296591571
 20
189.9716516622991
 30
0.0
 11
172.5
 21
189.9716516622991
 31
0.0
  0
LINE
  5
3EA
330
18
100
AcDbEntity
  8
BASE
  6
Continuous
 62
     5
100
AcDbLine
 10
180.0
 20
185.0
 30
0.0
 11
210.4506146543173
 21
185.0
 31
0.0
  0
LINE
  5
3EB
330
18
100
AcDbEntity
  8
BASE
  6
Continuous
 62
     5
100
AcDbLine
 10
189.9009358416169
 20
174.9600552776674
 30
0.0
 11
192.4009358416169
 21
174.9600552776674
 31
0.0
  0
LINE
  5
3EC
330
18
100
AcDbEntity
  8
BASE
  6
Continuous
 62
     5
100
AcDbLine
 10
189.9009358416169
 20
174.9600552776674
 30
0.0
 11
187.6764891006496
 21
174.3994128879575
 31
0.0
  0
LINE
  5
3ED
330
18
100
AcDbEntity
  8
BASE
  6
Continuous
 62
     5
100
AcDbLine
 10
184.9009358416169
 20
174.9600552776674
 30
0.0
 11
187.4009358416169
 21
174.9600552776674
 31
0.0
  0
TEXT
  5
3EE
330
18
100
AcDbEntity
  8
BASE
  6
HIDDEN
 62
     5
100
AcDbText
 10
181.080478382033
 20
174.2268074994583
 30
0.0
 40
1.5
  1
EN
100
AcDbText
  0
TEXT
  5
3EF
330
18
100
AcDbEntity
  8
BASE
  6
HIDDEN
 62
     5
100
AcDbText
 10
181.080478382033
 20
177.1678474008523
 30
0.0
 40
1.5
  1
EN
100
AcDbText
  0
LINE
  5
3F0
330
18
100
AcDbEntity
  8
BASE
  6
Continuous
 62
     5
100
AcDbLine
 10
184.9009358416169
 20
177.9010951790614
 30
0.0
 11
187.4009358416169
 21
177.9010951790614
 31
0.0
  0
LINE
  5
3F1
330
18
100
AcDbEntity
  8
BASE
  6
Continuous
 62
     5
100
AcDbLine
 10
189.9009358416169
 20
177.9010951790614
 30
0.0
 11
187.6764891006496
 21
177.3404527893515
 31
0.0
  0
LINE
  5
3F2
330
18
100
AcDbEntity
  8
BASE
  6
Continuous
 62
     5
100
AcDbLine
 10
189.9009358416169
 20
177.9010951790614
 30
0.0
 11
192.4009358416169
 21
177.9010951790614
 31
0.0
  0
LINE
  5
3F3
330
18
100
AcDbEntity
  8
BASE
  6
Continuous
 62
     5
100
AcDbLine
 10
178.0127296591571
 20
174.9716516622991
 30
0.0
 11
172.5
 21
174.9716516622991
 31
0.0
  0
LINE
  5
3F4
330
18
100
AcDbEntity
  8
BASE
  6
Continuous
 62
     5
100
AcDbLine
 10
178.0127296591571
 20
178.0008126094277
 30
0.0
 11
170.0
 21
178.0008126094277
 31
0.0
  0
CIRCLE
  5
3F5
330
18
100
AcDbEntity
  8
BASE
  6
Continuous
 62
     5
100
AcDbCircle
 10
179.0126585353903
 20
177.9945094989803
 30
0.0
 40
1.0
  0
CIRCLE
  5
3F6
330
18
100
AcDbEntity
  8
BASE
  6
Continuous
 62
     5
100
AcDbCircle
 10
179.0126585353903
 20
174.9653485518516
 30
0.0
 40
1.0
  0
TEXT
  5
3F7
330
18
100
AcDbEntity
  8
BASE
  6
Continuous
 62
     5
100
AcDbText
 10
181.2158960173333
 20
170.7148272825145
 30
0.0
 40
2.5
  1
I
  7
GREEKS
100
AcDbText
  0
LINE
  5
3F8
330
18
100
AcDbEntity
  8
BASE
  6
Continuous
 62
     5
100
AcDbLine
 10
188.5263646949916
 20
171.9329452553037
 30
0.0
 11
186.180599182766
 21
170.7430261065593
 31
0.0
  0
LINE
  5
3F9
330
18
100
AcDbEntity
  8
BASE
  6
Continuous
 62
     5
100
AcDbLine
 10
186.180599182766
 20
173.2682989666725
 30
0.0
 11
188.5263646949916
 21
171.9329452553037
 31
0.0
  0
TEXT
  5
3FF
330
18
100
AcDbEntity
  8
BASE
  6
Continuous
 62
     5
100
AcDbText
 10
181.2158960173333
 20
166.2536993421977
 30
0.0
 40
2.5
  1
I
  7
GREEKS
100
AcDbText
  0
LINE
  5
400
330
18
100
AcDbEntity
  8
BASE
  6
Continuous
 62
     5
100
AcDbLine
 10
185.829203841728
 20
168.5617954415401
 30
0.0
 11
188.1749693539536
 21
167.2264417301713
 31
0.0
  0
LINE
  5
401
330
18
100
AcDbEntity
  8
BASE
  6
Continuous
 62
     5
100
AcDbLine
 10
188.1749693539536
 20
167.2264417301713
 30
0.0
 11
185.829203841728
 21
166.0365225814269
 31
0.0
  0
LINE
  5
402
330
18
100
AcDbEntity
  8
BASE
  6
Continuous
 62
     5
100
AcDbLine
 10
187.523356972116
 20
168.5617954415401
 30
0.0
 11
189.8691224843416
 21
167.2264417301713
 31
0.0
  0
LINE
  5
403
330
18
100
AcDbEntity
  8
BASE
  6
Continuous
 62
     5
100
AcDbLine
 10
189.8691224843416
 20
167.2264417301713
 30
0.0
 11
187.523356972116
 21
166.0365225814269
 31
0.0
  0
LINE
  5
404
330
18
100
AcDbEntity
  8
BASE
  6
Continuous
 62
     5
100
AcDbLine
 10
189.9009358416169
 20
162.9010951790614
 30
0.0
 11
192.4009358416169
 21
162.9010951790614
 31
0.0
  0
LINE
  5
405
330
18
100
AcDbEntity
  8
BASE
  6
Continuous
 62
     5
100
AcDbLine
 10
189.9009358416169
 20
162.9010951790614
 30
0.0
 11
187.6764891006496
 21
162.3404527893514
 31
0.0
  0
LINE
  5
406
330
18
100
AcDbEntity
  8
BASE
  6
Continuous
 62
     5
100
AcDbLine
 10
184.9009358416169
 20
162.9010951790614
 30
0.0
 11
187.4009358416169
 21
162.9010951790614
 31
0.0
  0
TEXT
  5
407
330
18
100
AcDbEntity
  8
BASE
  6
HIDDEN
 62
     5
100
AcDbText
 10
181.080478382033
 20
162.1678474008523
 30
0.0
 40
1.5
  1
EN
100
AcDbText
  0
TEXT
  5
408
330
18
100
AcDbEntity
  8
BASE
  6
HIDDEN
 62
     5
100
AcDbText
 10
181.080478382033
 20
159.2268074994583
 30
0.0
 40
1.5
  1
EN
100
AcDbText
  0
LINE
  5
409
330
18
100
AcDbEntity
  8
BASE
  6
Continuous
 62
     5
100
AcDbLine
 10
184.9009358416169
 20
159.9600552776674
 30
0.0
 11
187.4009358416169
 21
159.9600552776674
 31
0.0
  0
LINE
  5
40A
330
18
100
AcDbEntity
  8
BASE
  6
Continuous
 62
     5
100
AcDbLine
 10
189.9009358416169
 20
159.9600552776674
 30
0.0
 11
187.6764891006496
 21
159.3994128879575
 31
0.0
  0
LINE
  5
40B
330
18
100
AcDbEntity
  8
BASE
  6
Continuous
 62
     5
100
AcDbLine
 10
189.9009358416169
 20
159.9600552776674
 30
0.0
 11
192.4009358416169
 21
159.9600552776674
 31
0.0
  0
CIRCLE
  5
40C
330
18
100
AcDbEntity
  8
BASE
  6
Continuous
 62
     5
100
AcDbCircle
 10
179.0126585353903
 20
159.9653485518516
 30
0.0
 40
1.0
  0
LINE
  5
40D
330
18
100
AcDbEntity
  8
BASE
  6
Continuous
 62
     5
100
AcDbLine
 10
178.0127296591571
 20
159.9716516622991
 30
0.0
 11
172.5
 21
159.9716516622991
 31
0.0
  0
LINE
  5
40E
330
18
100
AcDbEntity
  8
BASE
  6
Continuous
 62
     5
100
AcDbLine
 10
178.0127296591571
 20
163.0008126094277
 30
0.0
 11
170.0
 21
163.0008126094277
 31
0.0
  0
CIRCLE
  5
40F
330
18
100
AcDbEntity
  8
BASE
  6
Continuous
 62
     5
100
AcDbCircle
 10
179.0126585353903
 20
162.9945094989803
 30
0.0
 40
1.0
  0
LINE
  5
410
330
18
100
AcDbEntity
  8
BASE
  6
Continuous
 62
     5
100
AcDbLine
 10
189.8691224843416
 20
156.6849616341636
 30
0.0
 11
187.523356972116
 21
155.4950424854191
 31
0.0
  0
LINE
  5
411
330
18
100
AcDbEntity
  8
BASE
  6
Continuous
 62
     5
100
AcDbLine
 10
187.523356972116
 20
158.0203153455324
 30
0.0
 11
189.8691224843416
 21
156.6849616341636
 31
0.0
  0
LINE
  5
412
330
18
100
AcDbEntity
  8
BASE
  6
Continuous
 62
     5
100
AcDbLine
 10
188.1749693539536
 20
156.6849616341636
 30
0.0
 11
185.829203841728
 21
155.4950424854191
 31
0.0
  0
LINE
  5
413
330
18
100
AcDbEntity
  8
BASE
  6
Continuous
 62
     5
100
AcDbLine
 10
185.829203841728
 20
158.0203153455324
 30
0.0
 11
188.1749693539536
 21
156.6849616341636
 31
0.0
  0
TEXT
  5
414
330
18
100
AcDbEntity
  8
BASE
  6
Continuous
 62
     5
100
AcDbText
 10
181.2158960173333
 20
155.7122192461899
 30
0.0
 40
2.5
  1
I
  7
GREEKS
100
AcDbText
  0
LINE
  5
415
330
18
100
AcDbEntity
  8
BASE
  6
Continuous
 62
     5
100
AcDbLine
 10
198.8349949280191
 20
157.4891575691144
 30
0.0
 11
198.8349949280191
 21
155.7010261565239
 31
0.0
  0
LINE
  5
416
330
18
100
AcDbEntity
  8
BASE
  6
Continuous
 62
     5
100
AcDbLine
 10
193.4354755245767
 20
155.4762763468483
 30
0.0
 11
196.3115862244759
 21
158.3048349271569
 31
0.0
  0
LINE
  5
417
330
18
100
AcDbEntity
  8
BASE
  6
Continuous
 62
     5
100
AcDbLine
 10
195.8808827655234
 20
158.8420417893086
 30
0.0
 11
196.7815595373338
 21
157.7182927409301
 31
0.0
  0
LINE
  5
418
330
18
100
AcDbEntity
  8
BASE
  6
Continuous
 62
     5
100
AcDbLine
 10
191.0513311286076
 20
156.6438790166268
 30
0.0
 11
198.83953615544
 21
156.6438790166268
 31
0.0
  0
LINE
  5
419
330
18
100
AcDbEntity
  8
BASE
  6
Continuous
 62
     5
100
AcDbLine
 10
191.0202994078982
 20
157.4891575691144
 30
0.0
 11
191.0202994078982
 21
155.7010261565239
 31
0.0
  0
TEXT
  5
41A
330
18
100
AcDbEntity
  8
BASE
  6
Continuous
 62
     5
100
AcDbText
 10
204.3894862951393
 20
180.7755858800325
 30
0.0
 40
2.5
  1
U2
  7
ROMANS
100
AcDbText
  0
LINE
  5
41B
330
18
100
AcDbEntity
  8
BASE
  6
Continuous
 62
     5
100
AcDbLine
 10
191.0198453360816
 20
147.9979580521803
 30
0.0
 11
191.0198453360816
 21
146.2098266395898
 31
0.0
  0
LINE
  5
41C
330
18
100
AcDbEntity
  8
BASE
  6
Continuous
 62
     5
100
AcDbLine
 10
191.0508770567911
 20
147.1526794996927
 30
0.0
 11
198.8390820836234
 21
147.1526794996927
 31
0.0
  0
LINE
  5
41D
330
18
100
AcDbEntity
  8
BASE
  6
Continuous
 62
     5
100
AcDbLine
 10
195.8804286937068
 20
149.3508422723744
 30
0.0
 11
196.7811054655173
 21
148.227093223996
 31
0.0
  0
ARC
  5
41E
330
18
100
AcDbEntity
  8
BASE
  6
HIDDEN
 62
     5
100
AcDbCircle
 10
197.7457449120744
 20
151.0812236987691
 30
0.0
 40
4.998195985283786
100
AcDbArc
 50
206.402921519098
 51
282.2111496748031
  0
LINE
  5
41F
330
18
100
AcDbEntity
  8
BASE
  6
Continuous
 62
     5
100
AcDbLine
 10
193.4350214527601
 20
145.9850768299141
 30
0.0
 11
196.3111321526593
 21
148.8136354102228
 31
0.0
  0
LINE
  5
420
330
18
100
AcDbEntity
  8
BASE
  6
Continuous
 62
     5
100
AcDbLine
 10
198.8345408562025
 20
147.9979580521803
 30
0.0
 11
198.8345408562025
 21
146.2098266395898
 31
0.0
  0
LINE
  5
421
330
18
100
AcDbEntity
  8
BASE
  6
HIDDEN
 62
     5
100
AcDbLine
 10
180.0
 20
150.0
 30
0.0
 11
200.0
 21
150.0
 31
0.0
  0
TEXT
  5
422
330
18
100
AcDbEntity
  8
BASE
  6
Continuous
 62
     5
100
AcDbText
 10
181.2158960173333
 20
150.7774406850494
 30
0.0
 40
2.5
  1
U
  7
GREEKS
100
AcDbText
  0
LINE
  5
423
330
18
100
AcDbEntity
  8
BASE
  6
Continuous
 62
     5
100
AcDbLine
 10
184.2170664694896
 20
153.40497557518
 30
0.0
 11
186.5628319817153
 21
152.0696218638112
 31
0.0
  0
LINE
  5
424
330
18
100
AcDbEntity
  8
BASE
  6
Continuous
 62
     5
100
AcDbLine
 10
186.5628319817153
 20
152.0696218638112
 30
0.0
 11
184.2170664694896
 21
150.8797027150668
 31
0.0
  0
LINE
  5
425
330
18
100
AcDbEntity
  8
BASE
  6
HIDDEN
 62
     5
100
AcDbLine
 10
180.0
 20
145.0
 30
0.0
 11
200.0
 21
145.0
 31
0.0
  0
LINE
  5
426
330
18
100
AcDbEntity
  8
BASE
  6
Continuous
 62
     5
100
AcDbLine
 10
186.5628319817153
 20
147.1348433026706
 30
0.0
 11
184.2170664694896
 21
145.9449241539262
 31
0.0
  0
LINE
  5
427
330
18
100
AcDbEntity
  8
BASE
  6
Continuous
 62
     5
100
AcDbLine
 10
184.2170664694896
 20
148.4701970140394
 30
0.0
 11
186.5628319817153
 21
147.1348433026706
 31
0.0
  0
TEXT
  5
428
330
18
100
AcDbEntity
  8
BASE
  6
Continuous
 62
     5
100
AcDbText
 10
181.2158960173333
 20
145.8426621239089
 30
0.0
 40
2.5
  1
U
  7
GREEKS
100
AcDbText
  0
LINE
  5
429
330
18
100
AcDbEntity
  8
BASE
  6
HIDDEN
 62
     5
100
AcDbLine
 10
180.0
 20
140.0
 30
0.0
 11
200.0
 21
140.0
 31
0.0
  0
TEXT
  5
42A
330
18
100
AcDbEntity
  8
BASE
  6
Continuous
 62
     5
100
AcDbText
 10
181.2158960173333
 20
141.1171710463882
 30
0.0
 40
2.5
  1
U
  7
GREEKS
100
AcDbText
  0
LINE
  5
42B
330
18
100
AcDbEntity
  8
BASE
  6
Continuous
 62
     5
100
AcDbLine
 10
186.56204434001
 20
141.0719270877116
 30
0.0
 11
184.2162788277843
 21
142.4072807990804
 31
0.0
  0
LINE
  5
42C
330
18
100
AcDbEntity
  8
BASE
  6
Continuous
 62
     5
100
AcDbLine
 10
184.2162788277843
 20
142.4072807990804
 30
0.0
 11
186.56204434001
 21
143.5971999478248
 31
0.0
  0
LINE
  5
42D
330
18
100
AcDbEntity
  8
BASE
  6
Continuous
 62
     5
100
AcDbLine
 10
189.9009358416169
 20
134.9600552776674
 30
0.0
 11
192.4009358416169
 21
134.9600552776674
 31
0.0
  0
LINE
  5
42E
330
18
100
AcDbEntity
  8
BASE
  6
Continuous
 62
     5
100
AcDbLine
 10
189.9009358416169
 20
134.9600552776674
 30
0.0
 11
187.6764891006496
 21
134.3994128879575
 31
0.0
  0
LINE
  5
42F
330
18
100
AcDbEntity
  8
BASE
  6
Continuous
 62
     5
100
AcDbLine
 10
184.9009358416169
 20
134.9600552776674
 30
0.0
 11
187.4009358416169
 21
134.9600552776674
 31
0.0
  0
TEXT
  5
430
330
18
100
AcDbEntity
  8
BASE
  6
HIDDEN
 62
     5
100
AcDbText
 10
181.080478382033
 20
134.2268074994583
 30
0.0
 40
1.5
  1
EN
100
AcDbText
  0
TEXT
  5
431
330
18
100
AcDbEntity
  8
BASE
  6
HIDDEN
 62
     5
100
AcDbText
 10
181.080478382033
 20
137.1678474008523
 30
0.0
 40
1.5
  1
EN
100
AcDbText
  0
LINE
  5
432
330
18
100
AcDbEntity
  8
BASE
  6
Continuous
 62
     5
100
AcDbLine
 10
184.9009358416169
 20
137.9010951790614
 30
0.0
 11
187.4009358416169
 21
137.9010951790614
 31
0.0
  0
LINE
  5
433
330
18
100
AcDbEntity
  8
BASE
  6
Continuous
 62
     5
100
AcDbLine
 10
189.9009358416169
 20
137.9010951790614
 30
0.0
 11
187.6764891006496
 21
137.3404527893514
 31
0.0
  0
LINE
  5
434
330
18
100
AcDbEntity
  8
BASE
  6
Continuous
 62
     5
100
AcDbLine
 10
189.9009358416169
 20
137.9010951790614
 30
0.0
 11
192.4009358416169
 21
137.9010951790614
 31
0.0
  0
LINE
  5
435
330
18
100
AcDbEntity
  8
BASE
  6
Continuous
 62
     5
100
AcDbLine
 10
178.0127296591571
 20
134.9716516622991
 30
0.0
 11
172.5
 21
134.9716516622991
 31
0.0
  0
LINE
  5
436
330
18
100
AcDbEntity
  8
BASE
  6
Continuous
 62
     5
100
AcDbLine
 10
178.0127296591571
 20
138.0008126094277
 30
0.0
 11
170.0
 21
138.0008126094277
 31
0.0
  0
CIRCLE
  5
437
330
18
100
AcDbEntity
  8
BASE
  6
Continuous
 62
     5
100
AcDbCircle
 10
179.0126585353903
 20
137.9945094989803
 30
0.0
 40
1.0
  0
CIRCLE
  5
438
330
18
100
AcDbEntity
  8
BASE
  6
Continuous
 62
     5
100
AcDbCircle
 10
179.0126585353903
 20
134.9653485518516
 30
0.0
 40
1.0
  0
LINE
  5
439
330
18
100
AcDbEntity
  8
BASE
  6
Continuous
 62
     5
100
AcDbLine
 10
184.2162788277843
 20
131.8547855723558
 30
0.0
 11
186.56204434001
 21
133.0447047211002
 31
0.0
  0
LINE
  5
43A
330
18
100
AcDbEntity
  8
BASE
  6
Continuous
 62
     5
100
AcDbLine
 10
186.56204434001
 20
130.519431860987
 30
0.0
 11
184.2162788277843
 21
131.8547855723558
 31
0.0
  0
TEXT
  5
43B
330
18
100
AcDbEntity
  8
BASE
  6
Continuous
 62
     5
100
AcDbText
 10
181.2158960173333
 20
130.5646758196636
 30
0.0
 40
2.5
  1
U
  7
GREEKS
100
AcDbText
  0
LINE
  5
43C
330
18
100
AcDbEntity
  8
BASE
  6
Continuous
 62
     5
100
AcDbLine
 10
191.0202994078982
 20
132.4297351883227
 30
0.0
 11
191.0202994078982
 21
130.6416037757322
 31
0.0
  0
LINE
  5
43D
330
18
100
AcDbEntity
  8
BASE
  6
Continuous
 62
     5
100
AcDbLine
 10
191.0513311286076
 20
131.584456635835
 30
0.0
 11
198.83953615544
 21
131.584456635835
 31
0.0
  0
LINE
  5
43E
330
18
100
AcDbEntity
  8
BASE
  6
Continuous
 62
     5
100
AcDbLine
 10
195.8808827655234
 20
133.7826194085168
 30
0.0
 11
196.7815595373338
 21
132.6588703601384
 31
0.0
  0
LINE
  5
43F
330
18
100
AcDbEntity
  8
BASE
  6
Continuous
 62
     5
100
AcDbLine
 10
193.4354755245767
 20
130.4168539660565
 30
0.0
 11
196.3115862244759
 21
133.2454125463651
 31
0.0
  0
LINE
  5
440
330
18
100
AcDbEntity
  8
BASE
  6
Continuous
 62
     5
100
AcDbLine
 10
198.8349949280191
 20
132.4297351883227
 30
0.0
 11
198.8349949280191
 21
130.6416037757322
 31
0.0
  0
TEXT
  5
441
330
18
100
AcDbEntity
  8
BASE
  6
Continuous
 62
     5
100
AcDbText
 10
204.378874064642
 20
150.658649419022
 30
0.0
 40
2.5
  1
U3
  7
ROMANS
100
AcDbText
  0
TEXT
  5
442
330
18
100
AcDbEntity
  8
BASE
  6
Continuous
 62
     5
100
AcDbText
 10
202.0794109627556
 20
139.4342312185706
 30
0.0
 40
2.5
  1
3U
  7
GREEKS
100
AcDbText
  0
LINE
  5
443
330
18
100
AcDbEntity
  8
BASE
  6
Continuous
 62
     5
100
AcDbLine
 10
209.0712663814579
 20
141.5168745701535
 30
0.0
 11
207.0733891179584
 21
140.5034261243097
 31
0.0
  0
LINE
  5
444
330
18
100
AcDbEntity
  8
BASE
  6
Continuous
 62
     5
100
AcDbLine
 10
207.0733891179584
 20
142.654188937156
 30
0.0
 11
209.0712663814579
 21
141.5168745701535
 31
0.0
  0
LINE
  5
445
330
18
100
AcDbEntity
  8
BASE
  6
Continuous
 62
     5
100
AcDbLine
 10
207.0566192115284
 20
139.8496589097318
 30
0.0
 11
209.0544964750279
 21
140.8631073555756
 31
0.0
  0
LINE
  5
446
330
18
100
AcDbEntity
  8
BASE
  6
Continuous
 62
     5
100
AcDbLine
 10
209.0544964750279
 20
138.7123445427293
 30
0.0
 11
207.0566192115284
 21
139.8496589097318
 31
0.0
  0
LINE
  5
447
330
18
100
AcDbEntity
  8
BASE
  6
HIDDEN
 62
     5
100
AcDbLine
 10
180.0
 20
130.0
 30
0.0
 11
180.0
 21
57.5
 31
0.0
  0
LINE
  5
448
330
18
100
AcDbEntity
  8
BASE
  6
HIDDEN
 62
     5
100
AcDbLine
 10
210.4506146543173
 20
130.0
 30
0.0
 11
210.4506146543173
 21
57.5
 31
0.0
  0
ARC
  5
449
330
18
100
AcDbEntity
  8
BASE
 62
     5
100
AcDbCircle
 10
239.9341506533337
 20
116.25
 30
0.0
 40
1.251733252916278
100
AcDbArc
 50
86.98447570850529
 51
273.0155242914954
  0
ARC
  5
44A
330
18
100
AcDbEntity
  8
BASE
 62
     5
100
AcDbCircle
 10
239.9341506533337
 20
118.75
 30
0.0
 40
1.251733252916278
100
AcDbArc
 50
86.98447570850529
 51
273.0155242914954
  0
LINE
  5
44B
330
18
100
AcDbEntity
  8
BASE
 62
     5
100
AcDbLine
 10
240.0
 20
117.5
 30
0.0
 11
242.5
 21
117.5
 31
0.0
  0
LINE
  5
44C
330
18
100
AcDbEntity
  8
BASE
 62
     5
100
AcDbLine
 10
242.5
 20
120.0
 30
0.0
 11
245.0
 21
120.0
 31
0.0
  0
LINE
  5
44D
330
18
100
AcDbEntity
  8
BASE
 62
     5
100
AcDbLine
 10
242.5
 20
115.0
 30
0.0
 11
245.0
 21
115.0
 31
0.0
  0
LINE
  5
44E
330
18
100
AcDbEntity
  8
BASE
 62
     5
100
AcDbLine
 10
242.5
 20
115.0
 30
0.0
 11
245.0
 21
115.0
 31
0.0
  0
LINE
  5
44F
330
18
100
AcDbEntity
  8
BASE
 62
     5
100
AcDbLine
 10
240.0
 20
115.0
 30
0.0
 11
250.0
 21
115.0
 31
0.0
  0
LINE
  5
450
330
18
100
AcDbEntity
  8
BASE
 62
     5
100
AcDbLine
 10
240.0
 20
112.5
 30
0.0
 11
242.5
 21
112.5
 31
0.0
  0
ARC
  5
451
330
18
100
AcDbEntity
  8
BASE
 62
     5
100
AcDbCircle
 10
239.9341506533337
 20
113.7499999999999
 30
0.0
 40
1.251733252916278
100
AcDbArc
 50
86.98447570850529
 51
273.0155242914954
  0
ARC
  5
452
330
18
100
AcDbEntity
  8
BASE
 62
     5
100
AcDbCircle
 10
239.9341506533337
 20
111.25
 30
0.0
 40
1.251733252916278
100
AcDbArc
 50
86.98447570850529
 51
273.0155242914954
  0
LINE
  5
453
330
18
100
AcDbEntity
  8
BASE
 62
     5
100
AcDbLine
 10
240.0
 20
110.0
 30
0.0
 11
242.5
 21
110.0
 31
0.0
  0
ARC
  5
454
330
18
100
AcDbEntity
  8
BASE
 62
     5
100
AcDbCircle
 10
235.0658493466662
 20
116.25
 30
0.0
 40
1.251733252916278
100
AcDbArc
 50
266.9844757085052
 51
93.0155242914955
  0
LINE
  5
455
330
18
100
AcDbEntity
  8
BASE
 62
     5
100
AcDbLine
 10
235.0
 20
117.5
 30
0.0
 11
233.4801328078124
 21
117.5
 31
0.0
  0
LINE
  5
456
330
18
100
AcDbEntity
  8
BASE
 62
     5
100
AcDbLine
 10
235.0
 20
115.0
 30
0.0
 11
233.4801328078124
 21
115.0
 31
0.0
  0
ARC
  5
457
330
18
100
AcDbEntity
  8
BASE
 62
     5
100
AcDbCircle
 10
235.0658493466662
 20
113.7499999999999
 30
0.0
 40
1.251733252916278
100
AcDbArc
 50
266.9844757085052
 51
93.0155242914955
  0
LINE
  5
458
330
18
100
AcDbEntity
  8
BASE
 62
     5
100
AcDbLine
 10
235.0
 20
112.5
 30
0.0
 11
233.4801328078124
 21
112.5
 31
0.0
  0
LINE
  5
459
330
18
100
AcDbEntity
  8
BASE
 62
     5
100
AcDbLine
 10
240.0
 20
95.0
 30
0.0
 11
242.5
 21
95.0
 31
0.0
  0
ARC
  5
45A
330
18
100
AcDbEntity
  8
BASE
 62
     5
100
AcDbCircle
 10
239.9341506533337
 20
96.25
 30
0.0
 40
1.251733252916278
100
AcDbArc
 50
86.98447570850529
 51
273.0155242914954
  0
ARC
  5
45B
330
18
100
AcDbEntity
  8
BASE
 62
     5
100
AcDbCircle
 10
239.9341506533337
 20
98.75
 30
0.0
 40
1.251733252916278
100
AcDbArc
 50
86.98447570850529
 51
273.0155242914954
  0
LINE
  5
45C
330
18
100
AcDbEntity
  8
BASE
 62
     5
100
AcDbLine
 10
240.0
 20
97.5
 30
0.0
 11
242.5
 21
97.5
 31
0.0
  0
LINE
  5
45D
330
18
100
AcDbEntity
  8
BASE
 62
     5
100
AcDbLine
 10
242.5
 20
95.0
 30
0.0
 11
245.0
 21
95.0
 31
0.0
  0
LINE
  5
45E
330
18
100
AcDbEntity
  8
BASE
 62
     5
100
AcDbLine
 10
240.0
 20
95.0
 30
0.0
 11
250.0
 21
95.0
 31
0.0
  0
LINE
  5
45F
330
18
100
AcDbEntity
  8
BASE
 62
     5
100
AcDbLine
 10
240.0
 20
92.5
 30
0.0
 11
242.5
 21
92.5
 31
0.0
  0
ARC
  5
460
330
18
100
AcDbEntity
  8
BASE
 62
     5
100
AcDbCircle
 10
239.9341506533337
 20
93.75
 30
0.0
 40
1.251733252916278
100
AcDbArc
 50
86.98447570850529
 51
273.0155242914954
  0
ARC
  5
461
330
18
100
AcDbEntity
  8
BASE
 62
     5
100
AcDbCircle
 10
239.9341506533337
 20
91.25
 30
0.0
 40
1.251733252916278
100
AcDbArc
 50
86.98447570850529
 51
273.0155242914954
  0
LINE
  5
462
330
18
100
AcDbEntity
  8
BASE
 62
     5
100
AcDbLine
 10
240.0
 20
90.0
 30
0.0
 11
242.5
 21
90.0
 31
0.0
  0
ARC
  5
463
330
18
100
AcDbEntity
  8
BASE
 62
     5
100
AcDbCircle
 10
235.0658493466662
 20
96.25
 30
0.0
 40
1.251733252916278
100
AcDbArc
 50
266.9844757085052
 51
93.0155242914955
  0
LINE
  5
464
330
18
100
AcDbEntity
  8
BASE
 62
     5
100
AcDbLine
 10
235.0
 20
97.5
 30
0.0
 11
233.4801328078124
 21
97.5
 31
0.0
  0
LINE
  5
465
330
18
100
AcDbEntity
  8
BASE
 62
     5
100
AcDbLine
 10
235.0
 20
95.0
 30
0.0
 11
233.4801328078124
 21
95.0
 31
0.0
  0
ARC
  5
466
330
18
100
AcDbEntity
  8
BASE
 62
     5
100
AcDbCircle
 10
235.0658493466662
 20
93.75
 30
0.0
 40
1.251733252916278
100
AcDbArc
 50
266.9844757085052
 51
93.0155242914955
  0
LINE
  5
467
330
18
100
AcDbEntity
  8
BASE
 62
     5
100
AcDbLine
 10
235.0
 20
92.5
 30
0.0
 11
233.4801328078124
 21
92.5
 31
0.0
  0
LINE
  5
468
330
18
100
AcDbEntity
  8
BASE
 62
     5
100
AcDbLine
 10
240.0
 20
75.0
 30
0.0
 11
242.5
 21
75.0
 31
0.0
  0
ARC
  5
469
330
18
100
AcDbEntity
  8
BASE
 62
     5
100
AcDbCircle
 10
239.9341506533337
 20
76.25
 30
0.0
 40
1.251733252916278
100
AcDbArc
 50
86.98447570850529
 51
273.0155242914954
  0
ARC
  5
46A
330
18
100
AcDbEntity
  8
BASE
 62
     5
100
AcDbCircle
 10
239.9341506533337
 20
78.75
 30
0.0
 40
1.251733252916278
100
AcDbArc
 50
86.98447570850529
 51
273.0155242914954
  0
LINE
  5
46B
330
18
100
AcDbEntity
  8
BASE
 62
     5
100
AcDbLine
 10
240.0
 20
77.5
 30
0.0
 11
242.5
 21
77.5
 31
0.0
  0
LINE
  5
46C
330
18
100
AcDbEntity
  8
BASE
 62
     5
100
AcDbLine
 10
242.5
 20
75.0
 30
0.0
 11
245.0
 21
75.0
 31
0.0
  0
LINE
  5
46D
330
18
100
AcDbEntity
  8
BASE
 62
     5
100
AcDbLine
 10
240.0
 20
75.0
 30
0.0
 11
250.0
 21
75.0
 31
0.0
  0
LINE
  5
46E
330
18
100
AcDbEntity
  8
BASE
 62
     5
100
AcDbLine
 10
240.0
 20
72.5
 30
0.0
 11
242.5
 21
72.5
 31
0.0
  0
ARC
  5
46F
330
18
100
AcDbEntity
  8
BASE
 62
     5
100
AcDbCircle
 10
239.9341506533337
 20
73.75
 30
0.0
 40
1.251733252916278
100
AcDbArc
 50
86.98447570850529
 51
273.0155242914954
  0
ARC
  5
470
330
18
100
AcDbEntity
  8
BASE
 62
     5
100
AcDbCircle
 10
239.9341506533337
 20
71.25
 30
0.0
 40
1.251733252916278
100
AcDbArc
 50
86.98447570850529
 51
273.0155242914954
  0
LINE
  5
471
330
18
100
AcDbEntity
  8
BASE
 62
     5
100
AcDbLine
 10
240.0
 20
70.0
 30
0.0
 11
242.5
 21
70.0
 31
0.0
  0
ARC
  5
472
330
18
100
AcDbEntity
  8
BASE
 62
     5
100
AcDbCircle
 10
235.0658493466662
 20
76.25
 30
0.0
 40
1.251733252916278
100
AcDbArc
 50
266.9844757085052
 51
93.0155242914955
  0
LINE
  5
473
330
18
100
AcDbEntity
  8
BASE
 62
     5
100
AcDbLine
 10
235.0
 20
77.5
 30
0.0
 11
233.4801328078124
 21
77.5
 31
0.0
  0
LINE
  5
474
330
18
100
AcDbEntity
  8
BASE
 62
     5
100
AcDbLine
 10
235.0
 20
75.0
 30
0.0
 11
233.4801328078124
 21
75.0
 31
0.0
  0
ARC
  5
475
330
18
100
AcDbEntity
  8
BASE
 62
     5
100
AcDbCircle
 10
235.0658493466662
 20
73.75
 30
0.0
 40
1.251733252916278
100
AcDbArc
 50
266.9844757085052
 51
93.0155242914955
  0
LINE
  5
476
330
18
100
AcDbEntity
  8
BASE
 62
     5
100
AcDbLine
 10
235.0
 20
72.5
 30
0.0
 11
233.4801328078124
 21
72.5
 31
0.0
  0
LINE
  5
477
330
18
100
AcDbEntity
  8
BASE
 62
     5
100
AcDbLine
 10
240.0
 20
120.0
 30
0.0
 11
250.0
 21
120.0
 31
0.0
  0
LINE
  5
478
330
18
100
AcDbEntity
  8
BASE
 62
     5
100
AcDbLine
 10
242.5
 20
110.0
 30
0.0
 11
250.0
 21
110.0
 31
0.0
  0
LINE
  5
479
330
18
100
AcDbEntity
  8
BASE
 62
     5
100
AcDbLine
 10
240.0
 20
80.0
 30
0.0
 11
250.0
 21
80.0
 31
0.0
  0
LINE
  5
47A
330
18
100
AcDbEntity
  8
BASE
 62
     5
100
AcDbLine
 10
242.5
 20
70.0
 30
0.0
 11
250.0
 21
70.0
 31
0.0
  0
LINE
  5
47B
330
18
100
AcDbEntity
  8
BASE
 62
     5
100
AcDbLine
 10
242.5
 20
90.0
 30
0.0
 11
250.0
 21
90.0
 31
0.0
  0
LINE
  5
47C
330
18
100
AcDbEntity
  8
BASE
 62
     5
100
AcDbLine
 10
240.0
 20
100.0
 30
0.0
 11
250.0
 21
100.0
 31
0.0
  0
LINE
  5
47D
330
18
100
AcDbEntity
  8
BASE
  6
Continuous
 62
     5
100
AcDbLine
 10
230.0
 20
117.5
 30
0.0
 11
230.0
 21
72.5
 31
0.0
  0
LINE
  5
47E
330
18
100
AcDbEntity
  8
BASE
  6
Continuous
 62
     5
100
AcDbLine
 10
230.0
 20
72.5
 30
0.0
 11
231.0
 21
71.5
 31
0.0
  0
LINE
  5
47F
330
18
100
AcDbEntity
  8
BASE
  6
Continuous
 62
     5
100
AcDbLine
 10
230.0
 20
117.5
 30
0.0
 11
231.0
 21
118.5
 31
0.0
  0
TEXT
  5
480
330
18
100
AcDbEntity
  8
BASE
  6
HIDDEN
 62
     5
100
AcDbText
 10
246.639048973258
 20
192.505131012265
 30
0.0
 40
2.0
  1
6
  7
ROMANS
100
AcDbText
  0
TEXT
  5
481
330
18
100
AcDbEntity
  8
BASE
  6
HIDDEN
 62
     5
100
AcDbText
 10
246.639048973258
 20
187.4534372871059
 30
0.0
 40
2.0
  1
5
  7
ROMANS
100
AcDbText
  0
TEXT
  5
482
330
18
100
AcDbEntity
  8
BASE
  6
HIDDEN
 62
     5
100
AcDbText
 10
246.639048973258
 20
182.3907284312301
 30
0.0
 40
2.0
  1
4
  7
ROMANS
100
AcDbText
  0
TEXT
  5
483
330
18
100
AcDbEntity
  8
BASE
  6
HIDDEN
 62
     5
100
AcDbText
 10
245.1971521387383
 20
117.4590454384916
 30
0.0
 40
2.0
  1
15
  7
ROMANS
100
AcDbText
  0
TEXT
  5
484
330
18
100
AcDbEntity
  8
BASE
  6
HIDDEN
 62
     5
100
AcDbText
 10
245.1971521387383
 20
112.3522760597484
 30
0.0
 40
2.0
  1
14
  7
ROMANS
100
AcDbText
  0
TEXT
  5
485
330
18
100
AcDbEntity
  8
BASE
  6
HIDDEN
 62
     5
100
AcDbText
 10
245.1971521387383
 20
107.3446428574567
 30
0.0
 40
2.0
  1
13
  7
ROMANS
100
AcDbText
  0
TEXT
  5
486
330
18
100
AcDbEntity
  8
BASE
  6
HIDDEN
 62
     5
100
AcDbText
 10
245.1971521387383
 20
97.32512517900666
 30
0.0
 40
2.0
  1
18
  7
ROMANS
100
AcDbText
  0
TEXT
  5
487
330
18
100
AcDbEntity
  8
BASE
  6
HIDDEN
 62
     5
100
AcDbText
 10
245.1971521387383
 20
92.32850710743177
 30
0.0
 40
2.0
  1
17
  7
ROMANS
100
AcDbText
  0
TEXT
  5
488
330
18
100
AcDbEntity
  8
BASE
  6
HIDDEN
 62
     5
100
AcDbText
 10
245.1971521387383
 20
87.32087390514005
 30
0.0
 40
2.0
  1
16
  7
ROMANS
100
AcDbText
  0
TEXT
  5
489
330
18
100
AcDbEntity
  8
BASE
  6
HIDDEN
 62
     5
100
AcDbText
 10
245.1971521387383
 20
77.45556805672561
 30
0.0
 40
2.0
  1
21
  7
ROMANS
100
AcDbText
  0
TEXT
  5
48A
330
18
100
AcDbEntity
  8
BASE
  6
HIDDEN
 62
     5
100
AcDbText
 10
245.1971521387383
 20
72.29372302439824
 30
0.0
 40
2.0
  1
20
  7
ROMANS
100
AcDbText
  0
TEXT
  5
48B
330
18
100
AcDbEntity
  8
BASE
  6
HIDDEN
 62
     5
100
AcDbText
 10
245.1971521387383
 20
67.29710495282336
 30
0.0
 40
2.0
  1
19
  7
ROMANS
100
AcDbText
  0
LINE
  5
48C
330
18
100
AcDbEntity
  8
BASE
  6
Continuous
 62
     5
100
AcDbLine
 10
230.0
 20
146.127657763261
 30
0.0
 11
231.0
 21
145.127657763261
 31
0.0
  0
LINE
  5
48D
330
18
100
AcDbEntity
  8
BASE
  6
Continuous
 62
     5
100
AcDbLine
 10
230.0
 20
151.127657763261
 30
0.0
 11
231.0
 21
152.127657763261
 31
0.0
  0
LINE
  5
48E
330
18
100
AcDbEntity
  8
BASE
  6
Continuous
 62
     5
100
AcDbLine
 10
230.0
 20
151.127657763261
 30
0.0
 11
230.0
 21
146.127657763261
 31
0.0
  0
LINE
  5
48F
330
18
100
AcDbEntity
  8
BASE
  6
Continuous
 62
     5
100
AcDbLine
 10
222.5
 20
190.0
 30
0.0
 11
222.5
 21
200.0
 31
0.0
  0
LINE
  5
490
330
18
100
AcDbEntity
  8
BASE
  6
Continuous
 62
     5
100
AcDbLine
 10
210.4506146543173
 20
140.0
 30
0.0
 11
222.5
 21
140.0
 31
0.0
  0
LINE
  5
491
330
18
100
AcDbEntity
  8
BASE
  6
Continuous
 62
     5
100
AcDbLine
 10
222.5
 20
140.0
 30
0.0
 11
222.5
 21
57.5
 31
0.0
  0
TEXT
  5
492
330
18
100
AcDbEntity
  8
BASE
  6
Continuous
 62
     5
100
AcDbText
 10
46.6364376103657
 20
154.2654004870835
 30
0.0
 40
2.0
  1
SGR
 50
90.0
  7
ROMANS
100
AcDbText
  0
LINE
  5
493
330
18
100
AcDbEntity
  8
BASE
  6
Continuous
 62
     5
100
AcDbLine
 10
50.0
 20
157.5
 30
0.0
 11
50.0
 21
171.9724187249253
 31
0.0
  0
LINE
  5
494
330
18
100
AcDbEntity
  8
BASE
  6
Continuous
 62
     5
100
AcDbLine
 10
50.0
 20
152.5
 30
0.0
 11
48.28591352215198
 21
157.5862972944675
 31
0.0
  0
LINE
  5
495
330
18
100
AcDbEntity
  8
BASE
  6
Continuous
 62
     5
100
AcDbLine
 10
50.0
 20
147.5
 30
0.0
 11
50.0
 21
152.5
 31
0.0
  0
TEXT
  5
496
330
18
100
AcDbEntity
  8
BASE
  6
Continuous
 62
     5
100
AcDbText
 10
56.29549215135035
 20
143.9644551552293
 30
0.0
 40
2.5
  1
1
 11
56.29549215135035
 21
143.131121821896
 31
0.0
100
AcDbText
 73
     1
  0
LINE
  5
497
330
18
100
AcDbEntity
  8
BASE
  6
Continuous
 62
     5
100
AcDbLine
 10
51.86163036099276
 20
146.6245487736553
 30
0.0
 11
54.20739587321839
 21
145.2891950622866
 31
0.0
  0
LINE
  5
498
330
18
100
AcDbEntity
  8
BASE
  6
Continuous
 62
     5
100
AcDbLine
 10
51.85358861697284
 20
143.2992621767828
 30
0.0
 11
54.23704905005343
 21
144.4874540179833
 31
0.0
  0
LINE
  5
499
330
18
100
AcDbEntity
  8
BASE
  6
Continuous
 62
     5
100
AcDbLine
 10
54.20739587321839
 20
145.2891950622866
 30
0.0
 11
51.86163036099276
 21
144.0992759135421
 31
0.0
  0
LINE
  5
49A
330
18
100
AcDbEntity
  8
BASE
  6
Continuous
 62
     5
100
AcDbLine
 10
60.0
 20
150.0
 30
0.0
 11
60.0
 21
152.5
 31
0.0
  0
LINE
  5
49B
330
18
100
AcDbEntity
  8
BASE
  6
Continuous
 62
     5
100
AcDbLine
 10
55.0
 20
142.5
 30
0.0
 11
55.0
 21
137.5
 31
0.0
  0
LINE
  5
49C
330
18
100
AcDbEntity
  8
BASE
  6
Continuous
 62
     5
100
AcDbLine
 10
55.0
 20
147.5
 30
0.0
 11
55.0
 21
202.0662644744748
 31
0.0
  0
LINE
  5
49D
330
18
100
AcDbEntity
  8
BASE
  6
Continuous
 62
     5
100
AcDbLine
 10
62.5
 20
147.5
 30
0.0
 11
47.5
 21
147.5
 31
0.0
  0
LINE
  5
49E
330
18
100
AcDbEntity
  8
BASE
  6
Continuous
 62
     5
100
AcDbLine
 10
62.5
 20
147.5
 30
0.0
 11
62.5
 21
142.5
 31
0.0
  0
LINE
  5
49F
330
18
100
AcDbEntity
  8
BASE
  6
Continuous
 62
     5
100
AcDbLine
 10
52.5
 20
147.5
 30
0.0
 11
52.5
 21
187.01522588401
 31
0.0
  0
LINE
  5
4A0
330
18
100
AcDbEntity
  8
BASE
  6
Continuous
 62
     5
100
AcDbLine
 10
47.5
 20
142.5
 30
0.0
 11
62.5
 21
142.5
 31
0.0
  0
LINE
  5
4A1
330
18
100
AcDbEntity
  8
BASE
  6
Continuous
 62
     5
100
AcDbLine
 10
47.5
 20
147.5
 30
0.0
 11
47.5
 21
142.5
 31
0.0
  0
LINE
  5
4A2
330
18
100
AcDbEntity
  8
BASE
  6
Continuous
 62
     5
100
AcDbLine
 10
67.5
 20
147.5
 30
0.0
 11
77.5
 21
147.5
 31
0.0
  0
LINE
  5
4A3
330
18
100
AcDbEntity
  8
BASE
  6
Continuous
 62
     5
100
AcDbLine
 10
77.5
 20
147.5
 30
0.0
 11
77.5
 21
142.5
 31
0.0
  0
LINE
  5
4A4
330
18
100
AcDbEntity
  8
BASE
  6
Continuous
 62
     5
100
AcDbLine
 10
77.5
 20
142.5
 30
0.0
 11
67.5
 21
142.5
 31
0.0
  0
LINE
  5
4A5
330
18
100
AcDbEntity
  8
BASE
  6
Continuous
 62
     5
100
AcDbLine
 10
67.5
 20
142.5
 30
0.0
 11
67.5
 21
147.5
 31
0.0
  0
LINE
  5
4A6
330
18
100
AcDbEntity
  8
BASE
  6
Continuous
 62
     5
100
AcDbLine
 10
71.70739587321839
 20
145.2891950622866
 30
0.0
 11
69.36163036099276
 21
144.0992759135421
 31
0.0
  0
LINE
  5
4A7
330
18
100
AcDbEntity
  8
BASE
  6
Continuous
 62
     5
100
AcDbLine
 10
69.35358861697284
 20
143.2992621767828
 30
0.0
 11
71.73704905005343
 21
144.4874540179833
 31
0.0
  0
LINE
  5
4A8
330
18
100
AcDbEntity
  8
BASE
  6
Continuous
 62
     5
100
AcDbLine
 10
69.36163036099276
 20
146.6245487736553
 30
0.0
 11
71.70739587321839
 21
145.2891950622866
 31
0.0
  0
TEXT
  5
4A9
330
18
100
AcDbEntity
  8
BASE
  6
Continuous
 62
     5
100
AcDbText
 10
73.79549215135035
 20
143.9644551552293
 30
0.0
 40
2.5
  1
1
 11
73.79549215135035
 21
143.131121821896
 31
0.0
100
AcDbText
 73
     1
  0
TEXT
  5
4AA
330
18
100
AcDbEntity
  8
BASE
  6
Continuous
 62
     5
100
AcDbText
 10
86.29549215135034
 20
143.9644551552293
 30
0.0
 40
2.5
  1
1
 11
86.29549215135034
 21
143.131121821896
 31
0.0
100
AcDbText
 73
     1
  0
LINE
  5
4AB
330
18
100
AcDbEntity
  8
BASE
  6
Continuous
 62
     5
100
AcDbLine
 10
81.86163036099276
 20
146.6245487736553
 30
0.0
 11
84.20739587321838
 21
145.2891950622866
 31
0.0
  0
LINE
  5
4AC
330
18
100
AcDbEntity
  8
BASE
  6
Continuous
 62
     5
100
AcDbLine
 10
81.85358861697284
 20
143.2992621767828
 30
0.0
 11
84.23704905005342
 21
144.4874540179833
 31
0.0
  0
LINE
  5
4AD
330
18
100
AcDbEntity
  8
BASE
  6
Continuous
 62
     5
100
AcDbLine
 10
84.20739587321838
 20
145.2891950622866
 30
0.0
 11
81.86163036099276
 21
144.0992759135421
 31
0.0
  0
LINE
  5
4AE
330
18
100
AcDbEntity
  8
BASE
  6
Continuous
 62
     5
100
AcDbLine
 10
80.0
 20
142.5
 30
0.0
 11
80.0
 21
147.5
 31
0.0
  0
LINE
  5
4AF
330
18
100
AcDbEntity
  8
BASE
  6
Continuous
 62
     5
100
AcDbLine
 10
90.0
 20
142.5
 30
0.0
 11
80.0
 21
142.5
 31
0.0
  0
LINE
  5
4B0
330
18
100
AcDbEntity
  8
BASE
  6
Continuous
 62
     5
100
AcDbLine
 10
90.0
 20
147.5
 30
0.0
 11
90.0
 21
142.5
 31
0.0
  0
LINE
  5
4B1
330
18
100
AcDbEntity
  8
BASE
  6
Continuous
 62
     5
100
AcDbLine
 10
80.0
 20
147.5
 30
0.0
 11
90.0
 21
147.5
 31
0.0
  0
LINE
  5
4B2
330
18
100
AcDbEntity
  8
BASE
  6
Continuous
 62
     5
100
AcDbLine
 10
92.5
 20
147.5
 30
0.0
 11
102.4999999999999
 21
147.5
 31
0.0
  0
LINE
  5
4B3
330
18
100
AcDbEntity
  8
BASE
  6
Continuous
 62
     5
100
AcDbLine
 10
102.4999999999999
 20
147.5
 30
0.0
 11
102.4999999999999
 21
142.5
 31
0.0
  0
LINE
  5
4B4
330
18
100
AcDbEntity
  8
BASE
  6
Continuous
 62
     5
100
AcDbLine
 10
102.4999999999999
 20
142.5
 30
0.0
 11
92.5
 21
142.5
 31
0.0
  0
LINE
  5
4B5
330
18
100
AcDbEntity
  8
BASE
  6
Continuous
 62
     5
100
AcDbLine
 10
92.5
 20
142.5
 30
0.0
 11
92.5
 21
147.5
 31
0.0
  0
LINE
  5
4B6
330
18
100
AcDbEntity
  8
BASE
  6
Continuous
 62
     5
100
AcDbLine
 10
96.7073958732184
 20
145.2891950622866
 30
0.0
 11
94.36163036099276
 21
144.0992759135421
 31
0.0
  0
LINE
  5
4B7
330
18
100
AcDbEntity
  8
BASE
  6
Continuous
 62
     5
100
AcDbLine
 10
94.35358861697284
 20
143.2992621767828
 30
0.0
 11
96.73704905005344
 21
144.4874540179833
 31
0.0
  0
LINE
  5
4B8
330
18
100
AcDbEntity
  8
BASE
  6
Continuous
 62
     5
100
AcDbLine
 10
94.36163036099276
 20
146.6245487736553
 30
0.0
 11
96.7073958732184
 21
145.2891950622866
 31
0.0
  0
TEXT
  5
4B9
330
18
100
AcDbEntity
  8
BASE
  6
Continuous
 62
     5
100
AcDbText
 10
98.79549215135035
 20
143.9644551552293
 30
0.0
 40
2.5
  1
1
 11
98.79549215135035
 21
143.131121821896
 31
0.0
100
AcDbText
 73
     1
  0
TEXT
  5
4BA
330
18
100
AcDbEntity
  8
BASE
  6
Continuous
 62
     5
100
AcDbText
 10
99.66406626248129
 20
154.9958961847631
 30
0.0
 40
2.0
  1
5
  7
ROMANS
100
AcDbText
  0
LINE
  5
4BB
330
18
100
AcDbEntity
  8
BASE
  6
Continuous
 62
     5
100
AcDbLine
 10
100.0
 20
157.5
 30
0.0
 11
100.0
 21
160.0
 31
0.0
  0
LINE
  5
4BC
330
18
100
AcDbEntity
  8
BASE
  6
Continuous
 62
     5
100
AcDbLine
 10
100.0
 20
152.5
 30
0.0
 11
98.28591352215198
 21
157.5862972944675
 31
0.0
  0
LINE
  5
4BD
330
18
100
AcDbEntity
  8
BASE
  6
Continuous
 62
     5
100
AcDbLine
 10
100.0
 20
147.5
 30
0.0
 11
100.0
 21
152.5
 31
0.0
  0
LINE
  5
4BE
330
18
100
AcDbEntity
  8
BASE
  6
Continuous
 62
     5
100
AcDbLine
 10
95.0
 20
147.5
 30
0.0
 11
95.0
 21
152.5
 31
0.0
  0
LINE
  5
4BF
330
18
100
AcDbEntity
  8
BASE
  6
Continuous
 62
     5
100
AcDbLine
 10
95.0
 20
152.5
 30
0.0
 11
93.28591352215198
 21
157.5862972944675
 31
0.0
  0
LINE
  5
4C0
330
18
100
AcDbEntity
  8
BASE
  6
Continuous
 62
     5
100
AcDbLine
 10
95.0
 20
157.5
 30
0.0
 11
95.0
 21
160.0
 31
0.0
  0
LINE
  5
4C1
330
18
100
AcDbEntity
  8
BASE
  6
Continuous
 62
     5
100
AcDbLine
 10
87.5
 20
147.5
 30
0.0
 11
87.5
 21
152.5
 31
0.0
  0
LINE
  5
4C2
330
18
100
AcDbEntity
  8
BASE
  6
Continuous
 62
     5
100
AcDbLine
 10
87.5
 20
152.5
 30
0.0
 11
85.78591352215198
 21
157.5862972944675
 31
0.0
  0
LINE
  5
4C3
330
18
100
AcDbEntity
  8
BASE
  6
Continuous
 62
     5
100
AcDbLine
 10
87.5
 20
157.5
 30
0.0
 11
87.5
 21
160.0
 31
0.0
  0
LINE
  5
4C4
330
18
100
AcDbEntity
  8
BASE
  6
Continuous
 62
     5
100
AcDbLine
 10
75.0
 20
157.5
 30
0.0
 11
75.0
 21
162.5
 31
0.0
  0
LINE
  5
4C5
330
18
100
AcDbEntity
  8
BASE
  6
Continuous
 62
     5
100
AcDbLine
 10
75.0
 20
152.5
 30
0.0
 11
73.28591352215198
 21
157.5862972944675
 31
0.0
  0
LINE
  5
4C6
330
18
100
AcDbEntity
  8
BASE
  6
Continuous
 62
     5
100
AcDbLine
 10
75.0
 20
147.5
 30
0.0
 11
75.0
 21
152.5
 31
0.0
  0
LINE
  5
4C7
330
18
100
AcDbEntity
  8
BASE
  6
Continuous
 62
     5
100
AcDbLine
 10
70.0
 20
147.5
 30
0.0
 11
70.0
 21
152.5
 31
0.0
  0
LINE
  5
4C8
330
18
100
AcDbEntity
  8
BASE
  6
Continuous
 62
     5
100
AcDbLine
 10
70.0
 20
152.5
 30
0.0
 11
68.28591352215198
 21
157.5862972944675
 31
0.0
  0
LINE
  5
4C9
330
18
100
AcDbEntity
  8
BASE
  6
Continuous
 62
     5
100
AcDbLine
 10
70.0
 20
157.5
 30
0.0
 11
70.0
 21
175.0
 31
0.0
  0
TEXT
  5
4CA
330
18
100
AcDbEntity
  8
BASE
  6
Continuous
 62
     5
100
AcDbText
 10
49.41109944124565
 20
155.0
 30
0.0
 40
2.0
  1
3
  7
ROMANS
100
AcDbText
  0
TEXT
  5
4CB
330
18
100
AcDbEntity
  8
BASE
  6
Continuous
 62
     5
100
AcDbText
 10
57.13021462945222
 20
155.0
 30
0.0
 40
2.0
  1
6
  7
ROMANS
100
AcDbText
  0
TEXT
  5
4CC
330
18
100
AcDbEntity
  8
BASE
  6
Continuous
 62
     5
100
AcDbText
 10
69.7489073412813
 20
155.0
 30
0.0
 40
2.0
  1
2
  7
ROMANS
100
AcDbText
  0
TEXT
  5
4CD
330
18
100
AcDbEntity
  8
BASE
  6
Continuous
 62
     5
100
AcDbText
 10
74.56175138969936
 20
155.0
 30
0.0
 40
2.0
  1
7
  7
ROMANS
100
AcDbText
  0
TEXT
  5
4CE
330
18
100
AcDbEntity
  8
BASE
  6
Continuous
 62
     5
100
AcDbText
 10
87.11957978446482
 20
155.0
 30
0.0
 40
2.0
  1
8
  7
ROMANS
100
AcDbText
  0
TEXT
  5
4CF
330
18
100
AcDbEntity
  8
BASE
  6
Continuous
 62
     5
100
AcDbText
 10
94.79304673487368
 20
155.0
 30
0.0
 40
2.0
  1
1
  7
ROMANS
100
AcDbText
  0
LINE
  5
4D0
330
18
100
AcDbEntity
  8
BASE
  6
Continuous
 62
     5
100
AcDbLine
 10
57.5
 20
147.5
 30
0.0
 11
57.5
 21
152.5
 31
0.0
  0
LINE
  5
4D1
330
18
100
AcDbEntity
  8
BASE
  6
Continuous
 62
     5
100
AcDbLine
 10
57.5
 20
152.5
 30
0.0
 11
55.78591352215198
 21
157.5862972944675
 31
0.0
  0
LINE
  5
4D2
330
18
100
AcDbEntity
  8
BASE
  6
Continuous
 62
     5
100
AcDbLine
 10
57.5
 20
157.5
 30
0.0
 11
57.5
 21
160.0
 31
0.0
  0
LINE
  5
4D3
330
18
100
AcDbEntity
  8
BASE
  6
Continuous
 62
     5
100
AcDbLine
 10
52.5
 20
132.4999999999999
 30
0.0
 11
40.0
 21
132.4999999999999
 31
0.0
  0
LINE
  5
4D4
330
18
100
AcDbEntity
  8
BASE
  6
Continuous
 62
     5
100
AcDbLine
 10
60.0
 20
132.4999999999999
 30
0.0
 11
60.0
 21
127.5
 31
0.0
  0
LINE
  5
4D5
330
18
100
AcDbEntity
  8
BASE
  6
Continuous
 62
     5
100
AcDbLine
 10
60.0
 20
127.5
 30
0.0
 11
40.0
 21
127.5
 31
0.0
  0
LINE
  5
4D6
330
18
100
AcDbEntity
  8
BASE
  6
Continuous
 62
     5
100
AcDbLine
 10
57.49999999999995
 20
132.4999999999999
 30
0.0
 11
60.0
 21
132.4999999999999
 31
0.0
  0
LINE
  5
4D7
330
18
100
AcDbEntity
  8
BASE
  6
Continuous
 62
     5
100
AcDbLine
 10
77.5
 20
122.5
 30
0.0
 11
77.5
 21
117.5
 31
0.0
  0
LINE
  5
4D8
330
18
100
AcDbEntity
  8
BASE
  6
Continuous
 62
     5
100
AcDbLine
 10
77.5
 20
117.5
 30
0.0
 11
40.0
 21
117.5
 31
0.0
  0
LINE
  5
4D9
330
18
100
AcDbEntity
  8
BASE
  6
Continuous
 62
     5
100
AcDbLine
 10
120.0
 20
127.5
 30
0.0
 11
120.0
 21
125.0
 31
0.0
  0
LINE
  5
4DA
330
18
100
AcDbEntity
  8
BASE
  6
Continuous
 62
     5
100
AcDbLine
 10
117.5
 20
120.0
 30
0.0
 11
117.5
 21
119.9999745635626
 31
0.0
  0
LINE
  5
4DB
330
18
100
AcDbEntity
  8
BASE
  6
Continuous
 62
     5
100
AcDbLine
 10
122.5
 20
125.0
 30
0.0
 11
122.5
 21
120.0
 31
0.0
  0
LINE
  5
4DC
330
18
100
AcDbEntity
  8
BASE
  6
Continuous
 62
     5
100
AcDbLine
 10
122.5
 20
120.0
 30
0.0
 11
115.0
 21
120.0
 31
0.0
  0
LINE
  5
4DD
330
18
100
AcDbEntity
  8
BASE
  6
Continuous
 62
     5
100
AcDbLine
 10
115.0
 20
120.0
 30
0.0
 11
115.0
 21
125.0
 31
0.0
  0
LINE
  5
4DE
330
18
100
AcDbEntity
  8
BASE
  6
Continuous
 62
     5
100
AcDbLine
 10
115.0
 20
125.0
 30
0.0
 11
122.5
 21
125.0
 31
0.0
  0
LINE
  5
4DF
330
18
100
AcDbEntity
  8
BASE
  6
Continuous
 62
     5
100
AcDbLine
 10
132.4999999999999
 20
125.0
 30
0.0
 11
132.4999999999999
 21
127.5
 31
0.0
  0
LINE
  5
4E0
330
18
100
AcDbEntity
  8
BASE
  6
Continuous
 62
     5
100
AcDbLine
 10
125.0
 20
125.0
 30
0.0
 11
137.5
 21
125.0
 31
0.0
  0
LINE
  5
4E1
330
18
100
AcDbEntity
  8
BASE
  6
Continuous
 62
     5
100
AcDbLine
 10
137.5
 20
125.0
 30
0.0
 11
137.5
 21
120.0
 31
0.0
  0
LINE
  5
4E2
330
18
100
AcDbEntity
  8
BASE
  6
Continuous
 62
     5
100
AcDbLine
 10
137.5
 20
120.0
 30
0.0
 11
125.0
 21
120.0
 31
0.0
  0
LINE
  5
4E3
330
18
100
AcDbEntity
  8
BASE
  6
Continuous
 62
     5
100
AcDbLine
 10
125.0
 20
120.0
 30
0.0
 11
125.0
 21
125.0
 31
0.0
  0
LINE
  5
4E4
330
18
100
AcDbEntity
  8
BASE
  6
Continuous
 62
     5
100
AcDbLine
 10
131.0637575436592
 20
122.7891950622866
 30
0.0
 11
128.7179920314335
 21
121.5992759135421
 31
0.0
  0
LINE
  5
4E5
330
18
100
AcDbEntity
  8
BASE
  6
Continuous
 62
     5
100
AcDbLine
 10
128.7099502874136
 20
120.7992621767828
 30
0.0
 11
131.0934107204942
 21
121.9874540179833
 31
0.0
  0
LINE
  5
4E6
330
18
100
AcDbEntity
  8
BASE
  6
Continuous
 62
     5
100
AcDbLine
 10
128.7179920314335
 20
124.1245487736553
 30
0.0
 11
131.0637575436592
 21
122.7891950622866
 31
0.0
  0
TEXT
  5
4E7
330
18
100
AcDbEntity
  8
BASE
  6
Continuous
 62
     5
100
AcDbText
 10
133.1518538217911
 20
121.4644551552293
 30
0.0
 40
2.5
  1
1
 11
133.1518538217911
 21
120.6311218218959
 31
0.0
100
AcDbText
 73
     1
  0
TEXT
  5
4E8
330
18
100
AcDbEntity
  8
BASE
  6
Continuous
 62
     5
100
AcDbText
 10
148.1518538217911
 20
121.4644551552293
 30
0.0
 40
2.5
  1
1
 11
148.1518538217911
 21
120.6311218218959
 31
0.0
100
AcDbText
 73
     1
  0
LINE
  5
4E9
330
18
100
AcDbEntity
  8
BASE
  6
Continuous
 62
     5
100
AcDbLine
 10
143.7179920314336
 20
124.1245487736553
 30
0.0
 11
146.0637575436592
 21
122.7891950622866
 31
0.0
  0
LINE
  5
4EA
330
18
100
AcDbEntity
  8
BASE
  6
Continuous
 62
     5
100
AcDbLine
 10
143.7099502874136
 20
120.7992621767828
 30
0.0
 11
146.0934107204942
 21
121.9874540179833
 31
0.0
  0
LINE
  5
4EB
330
18
100
AcDbEntity
  8
BASE
  6
Continuous
 62
     5
100
AcDbLine
 10
146.0637575436592
 20
122.7891950622866
 30
0.0
 11
143.7179920314336
 21
121.5992759135421
 31
0.0
  0
LINE
  5
4EC
330
18
100
AcDbEntity
  8
BASE
  6
Continuous
 62
     5
100
AcDbLine
 10
140.0
 20
120.0
 30
0.0
 11
140.0
 21
125.0
 31
0.0
  0
LINE
  5
4ED
330
18
100
AcDbEntity
  8
BASE
  6
Continuous
 62
     5
100
AcDbLine
 10
152.5
 20
120.0
 30
0.0
 11
140.0
 21
120.0
 31
0.0
  0
LINE
  5
4EE
330
18
100
AcDbEntity
  8
BASE
  6
Continuous
 62
     5
100
AcDbLine
 10
152.5
 20
125.0
 30
0.0
 11
152.5
 21
120.0
 31
0.0
  0
LINE
  5
4EF
330
18
100
AcDbEntity
  8
BASE
  6
Continuous
 62
     5
100
AcDbLine
 10
140.0
 20
125.0
 30
0.0
 11
152.5
 21
125.0
 31
0.0
  0
LINE
  5
4F0
330
18
100
AcDbEntity
  8
BASE
  6
Continuous
 62
     5
100
AcDbLine
 10
147.5
 20
125.0
 30
0.0
 11
147.5
 21
127.5
 31
0.0
  0
LINE
  5
4F1
330
18
100
AcDbEntity
  8
BASE
  6
Continuous
 62
     5
100
AcDbLine
 10
162.5
 20
125.0
 30
0.0
 11
162.5
 21
127.5
 31
0.0
  0
LINE
  5
4F2
330
18
100
AcDbEntity
  8
BASE
  6
Continuous
 62
     5
100
AcDbLine
 10
155.0
 20
125.0
 30
0.0
 11
167.5
 21
125.0
 31
0.0
  0
LINE
  5
4F3
330
18
100
AcDbEntity
  8
BASE
  6
Continuous
 62
     5
100
AcDbLine
 10
167.5
 20
125.0
 30
0.0
 11
167.5
 21
120.0
 31
0.0
  0
LINE
  5
4F4
330
18
100
AcDbEntity
  8
BASE
  6
Continuous
 62
     5
100
AcDbLine
 10
167.5
 20
120.0
 30
0.0
 11
155.0
 21
120.0
 31
0.0
  0
LINE
  5
4F5
330
18
100
AcDbEntity
  8
BASE
  6
Continuous
 62
     5
100
AcDbLine
 10
155.0
 20
120.0
 30
0.0
 11
155.0
 21
125.0
 31
0.0
  0
LINE
  5
4F6
330
18
100
AcDbEntity
  8
BASE
  6
Continuous
 62
     5
100
AcDbLine
 10
161.0637575436592
 20
122.7891950622866
 30
0.0
 11
158.7179920314335
 21
121.5992759135421
 31
0.0
  0
LINE
  5
4F7
330
18
100
AcDbEntity
  8
BASE
  6
Continuous
 62
     5
100
AcDbLine
 10
158.7099502874136
 20
120.7992621767828
 30
0.0
 11
161.0934107204942
 21
121.9874540179833
 31
0.0
  0
LINE
  5
4F8
330
18
100
AcDbEntity
  8
BASE
  6
Continuous
 62
     5
100
AcDbLine
 10
158.7179920314335
 20
124.1245487736553
 30
0.0
 11
161.0637575436592
 21
122.7891950622866
 31
0.0
  0
TEXT
  5
4F9
330
18
100
AcDbEntity
  8
BASE
  6
Continuous
 62
     5
100
AcDbText
 10
163.1518538217911
 20
121.4644551552293
 30
0.0
 40
2.5
  1
1
 11
163.1518538217911
 21
120.6311218218959
 31
0.0
100
AcDbText
 73
     1
  0
LINE
  5
4FA
330
18
100
AcDbEntity
  8
BASE
  6
Continuous
 62
     5
100
AcDbLine
 10
72.5
 20
135.0
 30
0.0
 11
72.5
 21
142.5
 31
0.0
  0
LINE
  5
4FB
330
18
100
AcDbEntity
  8
BASE
  6
Continuous
 62
     5
100
AcDbLine
 10
85.0
 20
135.0
 30
0.0
 11
85.0
 21
142.5
 31
0.0
  0
LINE
  5
4FC
330
18
100
AcDbEntity
  8
BASE
  6
Continuous
 62
     5
100
AcDbLine
 10
97.5
 20
135.0
 30
0.0
 11
97.5
 21
142.5
 31
0.0
  0
LINE
  5
4FD
330
18
100
AcDbEntity
  8
BASE
  6
Continuous
 62
     5
100
AcDbLine
 10
120.0
 20
120.0
 30
0.0
 11
120.0
 21
57.5
 31
0.0
  0
LINE
  5
4FE
330
18
100
AcDbEntity
  8
BASE
  6
Continuous
 62
     5
100
AcDbLine
 10
132.4999999999999
 20
120.0
 30
0.0
 11
132.4999999999999
 21
57.5
 31
0.0
  0
LINE
  5
4FF
330
18
100
AcDbEntity
  8
BASE
  6
Continuous
 62
     5
100
AcDbLine
 10
147.5
 20
120.0
 30
0.0
 11
147.5
 21
57.5
 31
0.0
  0
LINE
  5
500
330
18
100
AcDbEntity
  8
BASE
  6
Continuous
 62
     5
100
AcDbLine
 10
162.5
 20
120.0
 30
0.0
 11
162.5
 21
57.5
 31
0.0
  0
TEXT
  5
501
330
18
100
AcDbEntity
  8
BASE
  6
Continuous
 62
     5
100
AcDbText
 10
118.2517600150045
 20
121.4550355621093
 30
0.0
 40
2.5
  1
&
  7
GREEKS
100
AcDbText
  0
LINE
  5
502
330
18
100
AcDbEntity
  8
BASE
  6
Continuous
 62
     5
100
AcDbLine
 10
117.5
 20
127.5
 30
0.0
 11
117.5
 21
126.4147935861719
 31
0.0
  0
CIRCLE
  5
503
330
18
100
AcDbEntity
  8
BASE
  6
Continuous
 62
     5
100
AcDbCircle
 10
117.4995067963093
 20
125.7073849300391
 30
0.0
 40
0.7074088280630378
  0
LINE
  5
504
330
18
100
AcDbEntity
  8
BASE
  6
Continuous
 62
     5
100
AcDbLine
 10
95.0
 20
160.0
 30
0.0
 11
95.0
 21
212.5
 31
0.0
  0
LINE
  5
505
330
18
100
AcDbEntity
  8
BASE
  6
Continuous
 62
     5
100
AcDbLine
 10
95.0
 20
212.5
 30
0.0
 11
180.0
 21
212.5
 31
0.0
  0
LINE
  5
506
330
18
100
AcDbEntity
  8
BASE
  6
Continuous
 62
     5
100
AcDbLine
 10
97.5
 20
147.5
 30
0.0
 11
97.5
 21
197.5
 31
0.0
  0
LINE
  5
507
330
18
100
AcDbEntity
  8
BASE
  6
Continuous
 62
     5
100
AcDbLine
 10
97.5
 20
197.5
 30
0.0
 11
180.0
 21
197.5
 31
0.0
  0
LINE
  5
508
330
18
100
AcDbEntity
  8
BASE
  6
Continuous
 62
     5
100
AcDbLine
 10
107.4999999999999
 20
125.0
 30
0.0
 11
107.4999999999999
 21
182.5
 31
0.0
  0
LINE
  5
509
330
18
100
AcDbEntity
  8
BASE
  6
Continuous
 62
     5
100
AcDbLine
 10
107.4999999999999
 20
182.5
 30
0.0
 11
180.0
 21
182.5
 31
0.0
  0
LINE
  5
50A
330
18
100
AcDbEntity
  8
BASE
  6
Continuous
 62
     5
100
AcDbLine
 10
110.0
 20
125.0
 30
0.0
 11
110.0
 21
127.5
 31
0.0
  0
LINE
  5
50B
330
18
100
AcDbEntity
  8
BASE
  6
Continuous
 62
     5
100
AcDbLine
 10
110.0
 20
127.5
 30
0.0
 11
108.285913522152
 21
132.5862972944675
 31
0.0
  0
LINE
  5
50C
330
18
100
AcDbEntity
  8
BASE
  6
Continuous
 62
     5
100
AcDbLine
 10
110.0
 20
132.4999999999999
 30
0.0
 11
110.0
 21
135.0
 31
0.0
  0
TEXT
  5
50D
330
18
100
AcDbEntity
  8
BASE
  6
Continuous
 62
     5
100
AcDbText
 10
109.626118093483
 20
130.0
 30
0.0
 40
2.0
  1
4
  7
ROMANS
100
AcDbText
  0
LINE
  5
50F
330
18
100
AcDbEntity
  8
BASE
  6
Continuous
 62
     5
100
AcDbLine
 10
65.0
 20
210.0
 30
0.0
 11
65.0
 21
208.0008126094277
 31
0.0
  0
LINE
  5
510
330
18
100
AcDbEntity
  8
BASE
  6
Continuous
 62
     5
100
AcDbLine
 10
65.0
 20
217.5
 30
0.0
 11
172.5
 21
217.5
 31
0.0
  0
LINE
  5
511
330
18
100
AcDbEntity
  8
BASE
  6
Continuous
 62
     5
100
AcDbLine
 10
172.5
 20
217.5
 30
0.0
 11
172.5
 21
134.9716516622991
 31
0.0
  0
LINE
  5
512
330
18
100
AcDbEntity
  8
BASE
  6
Continuous
 62
     5
100
AcDbLine
 10
170.0
 20
208.0008126094277
 30
0.0
 11
170.0
 21
138.0008126094277
 31
0.0
  0
LINE
  5
513
330
18
100
AcDbEntity
  8
BASE
  6
Continuous
 62
     5
100
AcDbLine
 10
180.0
 20
167.5
 30
0.0
 11
147.5
 21
167.5
 31
0.0
  0
LINE
  5
514
330
18
100
AcDbEntity
  8
BASE
  6
Continuous
 62
     5
100
AcDbLine
 10
147.5
 20
167.5
 30
0.0
 11
147.5
 21
127.5
 31
0.0
  0
LINE
  5
515
330
18
100
AcDbEntity
  8
BASE
  6
Continuous
 62
     5
100
AcDbLine
 10
180.0
 20
152.5
 30
0.0
 11
110.0
 21
152.5
 31
0.0
  0
LINE
  5
516
330
18
100
AcDbEntity
  8
BASE
  6
Continuous
 62
     5
100
AcDbLine
 10
110.0
 20
152.5
 30
0.0
 11
110.0
 21
135.0
 31
0.0
  0
LINE
  5
517
330
18
100
AcDbEntity
  8
BASE
  6
Continuous
 62
     5
100
AcDbLine
 10
117.5
 20
127.5
 30
0.0
 11
117.5
 21
151.0551941248279
 31
0.0
  0
LINE
  5
518
330
18
100
AcDbEntity
  8
BASE
  6
Continuous
 62
     5
100
AcDbLine
 10
50.0
 20
151.0551941248279
 30
0.0
 11
117.5
 21
151.0551941248279
 31
0.0
  0
LINE
  5
519
330
18
100
AcDbEntity
  8
BASE
  6
Continuous
 62
     5
100
AcDbLine
 10
40.0
 20
107.4999999999999
 30
0.0
 11
82.5
 21
107.4999999999999
 31
0.0
  0
LINE
  5
51A
330
18
100
AcDbEntity
  8
BASE
  6
Continuous
 62
     5
100
AcDbLine
 10
82.5
 20
102.4999999999999
 30
0.0
 11
40.0
 21
102.4999999999999
 31
0.0
  0
LINE
  5
51B
330
18
100
AcDbEntity
  8
BASE
  6
Continuous
 62
     5
100
AcDbLine
 10
82.5
 20
102.4999999999999
 30
0.0
 11
82.5
 21
105.0
 31
0.0
  0
LINE
  5
51C
330
18
100
AcDbEntity
  8
BASE
  6
Continuous
 62
     5
100
AcDbLine
 10
87.50000000000001
 20
107.4999999999999
 30
0.0
 11
90.0
 21
107.4999999999999
 31
0.0
  0
LINE
  5
51D
330
18
100
AcDbEntity
  8
BASE
  6
Continuous
 62
     5
100
AcDbLine
 10
87.50000000000001
 20
107.4999999999999
 30
0.0
 11
81.75607594821684
 21
104.2852966948171
 31
0.0
  0
LINE
  5
51E
330
18
100
AcDbEntity
  8
BASE
  6
Continuous
 62
     5
100
AcDbLine
 10
100.0
 20
92.5
 30
0.0
 11
94.25607594821684
 21
89.28529669481719
 31
0.0
  0
LINE
  5
51F
330
18
100
AcDbEntity
  8
BASE
  6
Continuous
 62
     5
100
AcDbLine
 10
100.0
 20
92.5
 30
0.0
 11
102.4999999999999
 21
92.5
 31
0.0
  0
LINE
  5
520
330
18
100
AcDbEntity
  8
BASE
  6
Continuous
 62
     5
100
AcDbLine
 10
95.0
 20
87.5
 30
0.0
 11
95.0
 21
90.0
 31
0.0
  0
LINE
  5
521
330
18
100
AcDbEntity
  8
BASE
  6
Continuous
 62
     5
100
AcDbLine
 10
95.0
 20
87.5
 30
0.0
 11
40.0
 21
87.5
 31
0.0
  0
LINE
  5
522
330
18
100
AcDbEntity
  8
BASE
  6
Continuous
 62
     5
100
AcDbLine
 10
40.0
 20
92.5
 30
0.0
 11
95.0
 21
92.5
 31
0.0
  0
LINE
  5
523
330
18
100
AcDbEntity
  8
BASE
  6
Continuous
 62
     5
100
AcDbLine
 10
40.0
 20
77.5
 30
0.0
 11
105.0
 21
77.5
 31
0.0
  0
LINE
  5
524
330
18
100
AcDbEntity
  8
BASE
  6
Continuous
 62
     5
100
AcDbLine
 10
105.0
 20
72.5
 30
0.0
 11
40.0
 21
72.5
 31
0.0
  0
LINE
  5
525
330
18
100
AcDbEntity
  8
BASE
  6
Continuous
 62
     5
100
AcDbLine
 10
105.0
 20
72.5
 30
0.0
 11
105.0
 21
75.0
 31
0.0
  0
LINE
  5
526
330
18
100
AcDbEntity
  8
BASE
  6
Continuous
 62
     5
100
AcDbLine
 10
110.0
 20
77.5
 30
0.0
 11
112.5
 21
77.5
 31
0.0
  0
LINE
  5
527
330
18
100
AcDbEntity
  8
BASE
  6
Continuous
 62
     5
100
AcDbLine
 10
110.0
 20
77.5
 30
0.0
 11
104.2560759482168
 21
74.28529669481719
 31
0.0
  0
LINE
  5
528
330
18
100
AcDbEntity
  8
BASE
  6
Continuous
 62
     5
100
AcDbLine
 10
90.0
 20
107.4999999999999
 30
0.0
 11
90.0
 21
97.5
 31
0.0
  0
LINE
  5
529
330
18
100
AcDbEntity
  8
BASE
  6
Continuous
 62
     5
100
AcDbLine
 10
90.0
 20
97.5
 30
0.0
 11
40.0
 21
97.5
 31
0.0
  0
LINE
  5
52A
330
18
100
AcDbEntity
  8
BASE
  6
Continuous
 62
     5
100
AcDbLine
 10
102.4999999999999
 20
92.5
 30
0.0
 11
102.4999999999999
 21
82.5
 31
0.0
  0
LINE
  5
52B
330
18
100
AcDbEntity
  8
BASE
  6
Continuous
 62
     5
100
AcDbLine
 10
102.4999999999999
 20
82.5
 30
0.0
 11
40.0
 21
82.5
 31
0.0
  0
LINE
  5
52C
330
18
100
AcDbEntity
  8
BASE
  6
Continuous
 62
     5
100
AcDbLine
 10
112.5
 20
77.5
 30
0.0
 11
112.5
 21
67.5
 31
0.0
  0
LINE
  5
52D
330
18
100
AcDbEntity
  8
BASE
  6
Continuous
 62
     5
100
AcDbLine
 10
112.5
 20
67.5
 30
0.0
 11
40.0
 21
67.5
 31
0.0
  0
LINE
  5
52E
330
18
100
AcDbEntity
  8
BASE
  6
Continuous
 62
     5
100
AcDbLine
 10
180.0
 20
171.9724187249254
 30
0.0
 11
50.0
 21
171.9724187249253
 31
0.0
  0
LINE
  5
52F
330
18
100
AcDbEntity
  8
BASE
  6
Continuous
 62
     5
100
AcDbLine
 10
180.0
 20
187.01522588401
 30
0.0
 11
52.5
 21
187.01522588401
 31
0.0
  0
LINE
  5
530
330
18
100
AcDbEntity
  8
BASE
  6
Continuous
 62
     5
100
AcDbLine
 10
180.0
 20
202.0662644744748
 30
0.0
 11
55.0
 21
202.0662644744748
 31
0.0
  0
LINE
  5
531
330
18
100
AcDbEntity
  8
BASE
  6
Continuous
 62
     5
100
AcDbLine
 10
67.5
 20
175.0
 30
0.0
 11
67.5
 21
180.0
 31
0.0
  0
LINE
  5
532
330
18
100
AcDbEntity
  8
BASE
  6
Continuous
 62
     5
100
AcDbLine
 10
67.5
 20
180.0
 30
0.0
 11
75.0
 21
180.0
 31
0.0
  0
LINE
  5
533
330
18
100
AcDbEntity
  8
BASE
  6
Continuous
 62
     5
100
AcDbLine
 10
75.0
 20
180.0
 30
0.0
 11
75.0
 21
175.0
 31
0.0
  0
LINE
  5
534
330
18
100
AcDbEntity
  8
BASE
  6
Continuous
 62
     5
100
AcDbLine
 10
75.0
 20
175.0
 30
0.0
 11
67.5
 21
175.0
 31
0.0
  0
TEXT
  5
535
330
18
100
AcDbEntity
  8
BASE
  6
Continuous
 62
     5
100
AcDbText
 10
73.29360032791766
 20
176.4035804435775
 30
0.0
 40
2.5
  1
1
 11
73.29360032791766
 21
175.5702471102441
 31
0.0
100
AcDbText
 73
     1
  0
LINE
  5
536
330
18
100
AcDbEntity
  8
BASE
  6
Continuous
 62
     5
100
AcDbLine
 10
68.85973853756008
 20
179.0636740620035
 30
0.0
 11
71.2055040497857
 21
177.7283203506347
 31
0.0
  0
LINE
  5
537
330
18
100
AcDbEntity
  8
BASE
  6
Continuous
 62
     5
100
AcDbLine
 10
68.85169679354016
 20
175.738387465131
 30
0.0
 11
71.23515722662074
 21
176.9265793063315
 31
0.0
  0
LINE
  5
538
330
18
100
AcDbEntity
  8
BASE
  6
Continuous
 62
     5
100
AcDbLine
 10
71.2055040497857
 20
177.7283203506347
 30
0.0
 11
68.85973853756008
 21
176.5384012018903
 31
0.0
  0
LINE
  5
539
330
18
100
AcDbEntity
  8
BASE
  6
Continuous
 62
     5
100
AcDbLine
 10
57.5
 20
160.0
 30
0.0
 11
57.5
 21
170.0
 31
0.0
  0
LINE
  5
53A
330
18
100
AcDbEntity
  8
BASE
  6
Continuous
 62
     5
100
AcDbLine
 10
57.5
 20
170.0
 30
0.0
 11
160.0
 21
170.0
 31
0.0
  0
LINE
  5
53B
330
18
100
AcDbEntity
  8
BASE
  6
Continuous
 62
     5
100
AcDbLine
 10
160.0
 20
170.0
 30
0.0
 11
160.0
 21
125.0
 31
0.0
  0
LINE
  5
53C
330
18
100
AcDbEntity
  8
BASE
  6
Continuous
 62
     5
100
AcDbLine
 10
165.0
 20
125.0
 30
0.0
 11
165.0
 21
180.0
 31
0.0
  0
LINE
  5
53D
330
18
100
AcDbEntity
  8
BASE
  6
Continuous
 62
     5
100
AcDbLine
 10
165.0
 20
180.0
 30
0.0
 11
77.5
 21
180.0
 31
0.0
  0
LINE
  5
53E
330
18
100
AcDbEntity
  8
BASE
  6
Continuous
 62
     5
100
AcDbLine
 10
77.5
 20
180.0
 30
0.0
 11
77.5
 21
167.5
 31
0.0
  0
LINE
  5
53F
330
18
100
AcDbEntity
  8
BASE
  6
Continuous
 62
     5
100
AcDbLine
 10
77.5
 20
167.5
 30
0.0
 11
72.5
 21
167.5
 31
0.0
  0
LINE
  5
540
330
18
100
AcDbEntity
  8
BASE
  6
Continuous
 62
     5
100
AcDbLine
 10
72.5
 20
167.5
 30
0.0
 11
72.5
 21
147.5
 31
0.0
  0
LINE
  5
541
330
18
100
AcDbEntity
  8
BASE
  6
Continuous
 62
     5
100
AcDbLine
 10
162.5
 20
127.5
 30
0.0
 11
162.5
 21
165.0
 31
0.0
  0
LINE
  5
542
330
18
100
AcDbEntity
  8
BASE
  6
Continuous
 62
     5
100
AcDbLine
 10
162.5
 20
165.0
 30
0.0
 11
100.0
 21
165.0
 31
0.0
  0
LINE
  5
543
330
18
100
AcDbEntity
  8
BASE
  6
Continuous
 62
     5
100
AcDbLine
 10
100.0
 20
165.0
 30
0.0
 11
100.0
 21
160.0
 31
0.0
  0
LINE
  5
544
330
18
100
AcDbEntity
  8
BASE
  6
Continuous
 62
     5
100
AcDbLine
 10
60.0
 20
147.5
 30
0.0
 11
60.0
 21
165.0
 31
0.0
  0
LINE
  5
545
330
18
100
AcDbEntity
  8
BASE
  6
Continuous
 62
     5
100
AcDbLine
 10
60.0
 20
165.0
 30
0.0
 11
92.5
 21
165.0
 31
0.0
  0
LINE
  5
546
330
18
100
AcDbEntity
  8
BASE
  6
Continuous
 62
     5
100
AcDbLine
 10
92.5
 20
165.0
 30
0.0
 11
92.5
 21
162.5
 31
0.0
  0
LINE
  5
547
330
18
100
AcDbEntity
  8
BASE
  6
Continuous
 62
     5
100
AcDbLine
 10
92.5
 20
162.5
 30
0.0
 11
110.0
 21
162.5
 31
0.0
  0
LINE
  5
548
330
18
100
AcDbEntity
  8
BASE
  6
Continuous
 62
     5
100
AcDbLine
 10
110.0
 20
162.5
 30
0.0
 11
110.0
 21
156.9372739276159
 31
0.0
  0
LINE
  5
549
330
18
100
AcDbEntity
  8
BASE
  6
Continuous
 62
     5
100
AcDbLine
 10
110.0
 20
156.9372739276159
 30
0.0
 11
180.0
 21
156.9372739276159
 31
0.0
  0
LINE
  5
54A
330
18
100
AcDbEntity
  8
BASE
  6
Continuous
 62
     5
100
AcDbLine
 10
87.5
 20
160.0
 30
0.0
 11
87.5
 21
162.5
 31
0.0
  0
LINE
  5
54B
330
18
100
AcDbEntity
  8
BASE
  6
Continuous
 62
     5
100
AcDbLine
 10
87.5
 20
162.5
 30
0.0
 11
65.0
 21
162.5
 31
0.0
  0
LINE
  5
54C
330
18
100
AcDbEntity
  8
BASE
  6
Continuous
 62
     5
100
AcDbLine
 10
65.0
 20
162.5
 30
0.0
 11
65.0
 21
138.6444942999506
 31
0.0
  0
LINE
  5
54D
330
18
100
AcDbEntity
  8
BASE
  6
Continuous
 62
     5
100
AcDbLine
 10
65.0
 20
138.6444942999506
 30
0.0
 11
55.0
 21
138.6444942999506
 31
0.0
  0
LINE
  5
54E
330
18
100
AcDbEntity
  8
BASE
  6
Continuous
 62
     5
100
AcDbLine
 10
85.0
 20
165.0
 30
0.0
 11
85.0
 21
147.5
 31
0.0
  0
LINE
  5
54F
330
18
100
AcDbEntity
  8
BASE
  6
Continuous
 62
     5
100
AcDbLine
 10
82.5
 20
147.5
 30
0.0
 11
82.5
 21
171.9724187249253
 31
0.0
  0
LINE
  5
550
330
18
100
AcDbEntity
  8
BASE
  6
Continuous
 62
     5
100
AcDbLine
 10
157.5
 20
125.0
 30
0.0
 11
157.5
 21
152.5
 31
0.0
  0
LINE
  5
551
330
18
100
AcDbEntity
  8
BASE
  6
Continuous
 62
     5
100
AcDbLine
 10
150.0
 20
125.0
 30
0.0
 11
150.0
 21
156.9372739276159
 31
0.0
  0
LINE
  5
552
330
18
100
AcDbEntity
  8
BASE
  6
Continuous
 62
     5
100
AcDbLine
 10
145.0
 20
125.0
 30
0.0
 11
145.0
 21
171.9724187249254
 31
0.0
  0
LINE
  5
553
330
18
100
AcDbEntity
  8
BASE
  6
Continuous
 62
     5
100
AcDbLine
 10
142.5
 20
125.0
 30
0.0
 11
142.5
 21
182.5
 31
0.0
  0
LINE
  5
554
330
18
100
AcDbEntity
  8
BASE
  6
Continuous
 62
     5
100
AcDbLine
 10
135.0
 20
125.0
 30
0.0
 11
135.0
 21
187.01522588401
 31
0.0
  0
LINE
  5
555
330
18
100
AcDbEntity
  8
BASE
  6
Continuous
 62
     5
100
AcDbLine
 10
132.4999999999999
 20
127.5
 30
0.0
 11
132.4999999999999
 21
197.5
 31
0.0
  0
LINE
  5
556
330
18
100
AcDbEntity
  8
BASE
  6
Continuous
 62
     5
100
AcDbLine
 10
130.0
 20
125.0
 30
0.0
 11
130.0
 21
202.0662644744748
 31
0.0
  0
LINE
  5
557
330
18
100
AcDbEntity
  8
BASE
  6
Continuous
 62
     5
100
AcDbLine
 10
127.5
 20
125.0
 30
0.0
 11
127.5
 21
212.5
 31
0.0
  0
LINE
  5
558
330
18
100
AcDbEntity
  8
BASE
  6
Continuous
 62
     5
100
AcDbLine
 10
120.0
 20
127.5
 30
0.0
 11
120.0
 21
171.9724187249254
 31
0.0
  0
LINE
  5
559
330
18
100
AcDbEntity
  8
BASE
  6
Continuous
 62
     5
100
AcDbLine
 10
70.0
 20
180.0
 30
0.0
 11
70.0
 21
202.0662644744748
 31
0.0
  0
LINE
  5
55A
330
18
100
AcDbEntity
  8
BASE
  6
Continuous
 62
     5
100
AcDbLine
 10
72.5
 20
180.0
 30
0.0
 11
72.5
 21
187.01522588401
 31
0.0
  0
LINE
  5
561
330
18
100
AcDbEntity
  8
BASE
  6
Continuous
 62
     5
100
AcDbLine
 10
180.0
 20
147.5
 30
0.0
 11
160.0
 21
147.5
 31
0.0
  0
LINE
  5
562
330
18
100
AcDbEntity
  8
BASE
  6
Continuous
 62
     5
100
AcDbLine
 10
180.0
 20
142.5
 30
0.0
 11
162.5
 21
142.5
 31
0.0
  0
LINE
  5
563
330
18
100
AcDbEntity
  8
BASE
  6
Continuous
 62
     5
100
AcDbLine
 10
180.0
 20
131.9219120696915
 30
0.0
 11
165.0
 21
131.9219120696915
 31
0.0
  0
LINE
  5
569
330
18
100
AcDbEntity
  8
BASE
  6
HIDDEN
 62
     5
100
AcDbLine
 10
40.0
 20
225.0
 30
0.0
 11
45.0
 21
225.0
 31
0.0
  0
LINE
  5
56A
330
18
100
AcDbEntity
  8
BASE
  6
HIDDEN
 62
     5
100
AcDbLine
 10
45.0
 20
225.0
 30
0.0
 11
45.0
 21
202.4999999999999
 31
0.0
  0
LINE
  5
56B
330
18
100
AcDbEntity
  8
BASE
  6
HIDDEN
 62
     5
100
AcDbLine
 10
45.0
 20
202.4999999999999
 30
0.0
 11
40.0
 21
202.4999999999999
 31
0.0
  0
TEXT
  5
56C
330
18
100
AcDbEntity
  8
BASE
  6
HIDDEN
 62
     5
100
AcDbText
 10
40.8791569310641
 20
221.7464733573758
 30
0.0
 40
2.0
  1
X2
  7
ROMANS
100
AcDbText
  0
TEXT
  5
56D
330
18
100
AcDbEntity
  8
BASE
  6
HIDDEN
 62
     5
100
AcDbText
 10
40.46405861944744
 20
217.3330577748844
 30
0.0
 40
2.0
  1
12
  7
ROMANS
100
AcDbText
  0
TEXT
  5
56E
330
18
100
AcDbEntity
  8
BASE
  6
HIDDEN
 62
     5
100
AcDbText
 10
40.46405861944744
 20
209.9494160072082
 30
0.0
 40
2.0
  1
10
  7
ROMANS
100
AcDbText
  0
TEXT
  5
56F
330
18
100
AcDbEntity
  8
BASE
  6
HIDDEN
 62
     5
100
AcDbText
 10
40.46405861944744
 20
204.8090219877834
 30
0.0
 40
2.0
  1
11
  7
ROMANS
100
AcDbText
  0
LINE
  5
570
330
18
100
AcDbEntity
  8
BASE
  6
HIDDEN
 62
     5
100
AcDbLine
 10
40.0
 20
137.5
 30
0.0
 11
45.0
 21
137.5
 31
0.0
  0
LINE
  5
571
330
18
100
AcDbEntity
  8
BASE
  6
HIDDEN
 62
     5
100
AcDbLine
 10
45.0
 20
137.5
 30
0.0
 11
45.0
 21
113.2117976463619
 31
0.0
  0
LINE
  5
572
330
18
100
AcDbEntity
  8
BASE
  6
HIDDEN
 62
     5
100
AcDbLine
 10
45.0
 20
113.2117976463619
 30
0.0
 11
40.0
 21
113.2117976463619
 31
0.0
  0
LINE
  5
573
330
18
100
AcDbEntity
  8
BASE
  6
HIDDEN
 62
     5
100
AcDbLine
 10
40.0
 20
62.5
 30
0.0
 11
45.0
 21
62.5
 31
0.0
  0
LINE
  5
574
330
18
100
AcDbEntity
  8
BASE
  6
HIDDEN
 62
     5
100
AcDbLine
 10
45.0
 20
62.5
 30
0.0
 11
45.0
 21
111.9735103415096
 31
0.0
  0
LINE
  5
575
330
18
100
AcDbEntity
  8
BASE
  6
HIDDEN
 62
     5
100
AcDbLine
 10
45.0
 20
111.9735103415096
 30
0.0
 11
40.0
 21
111.9735103415096
 31
0.0
  0
TEXT
  5
576
330
18
100
AcDbEntity
  8
BASE
  6
HIDDEN
 62
     5
100
AcDbText
 10
41.17170038352234
 20
133.6292573308004
 30
0.0
 40
2.0
  1
X1
  7
ROMANS
100
AcDbText
  0
TEXT
  5
577
330
18
100
AcDbEntity
  8
BASE
  6
HIDDEN
 62
     5
100
AcDbText
 10
41.17170038352234
 20
129.910394422378
 30
0.0
 40
2.0
  1
4
  7
ROMANS
100
AcDbText
  0
TEXT
  5
578
330
18
100
AcDbEntity
  8
BASE
  6
HIDDEN
 62
     5
100
AcDbText
 10
41.17170038352234
 20
124.9027612200862
 30
0.0
 40
2.0
  1
3
  7
ROMANS
100
AcDbText
  0
TEXT
  5
579
330
18
100
AcDbEntity
  8
BASE
  6
HIDDEN
 62
     5
100
AcDbText
 10
41.17170038352234
 20
119.6197497498737
 30
0.0
 40
2.0
  1
7
  7
ROMANS
100
AcDbText
  0
TEXT
  5
57A
330
18
100
AcDbEntity
  8
BASE
  6
HIDDEN
 62
     5
100
AcDbText
 10
41.17170038352234
 20
114.810388900485
 30
0.0
 40
2.0
  1
6
  7
ROMANS
100
AcDbText
  0
TEXT
  5
57B
330
18
100
AcDbEntity
  8
BASE
  6
HIDDEN
 62
     5
100
AcDbText
 10
40.74585277576128
 20
108.9766208944309
 30
0.0
 40
2.0
  1
X2
  7
ROMANS
100
AcDbText
  0
TEXT
  5
57C
330
18
100
AcDbEntity
  8
BASE
  6
HIDDEN
 62
     5
100
AcDbText
 10
41.17170038352234
 20
104.7730922344679
 30
0.0
 40
2.0
  1
3
  7
ROMANS
100
AcDbText
  0
TEXT
  5
57D
330
18
100
AcDbEntity
  8
BASE
  6
HIDDEN
 62
     5
100
AcDbText
 10
41.17170038352234
 20
99.84256494719399
 30
0.0
 40
2.0
  1
1
  7
ROMANS
100
AcDbText
  0
TEXT
  5
57E
330
18
100
AcDbEntity
  8
BASE
  6
HIDDEN
 62
     5
100
AcDbText
 10
41.17170038352234
 20
94.62564426128247
 30
0.0
 40
2.0
  1
2
  7
ROMANS
100
AcDbText
  0
TEXT
  5
57F
330
18
100
AcDbEntity
  8
BASE
  6
HIDDEN
 62
     5
100
AcDbText
 10
41.17170038352234
 20
89.69511697400859
 30
0.0
 40
2.0
  1
6
  7
ROMANS
100
AcDbText
  0
TEXT
  5
580
330
18
100
AcDbEntity
  8
BASE
  6
HIDDEN
 62
     5
100
AcDbText
 10
41.17170038352234
 20
84.91880151677031
 30
0.0
 40
2.0
  1
4
  7
ROMANS
100
AcDbText
  0
TEXT
  5
581
330
18
100
AcDbEntity
  8
BASE
  6
HIDDEN
 62
     5
100
AcDbText
 10
41.17170038352234
 20
79.69086570014195
 30
0.0
 40
2.0
  1
5
  7
ROMANS
100
AcDbText
  0
TEXT
  5
582
330
18
100
AcDbEntity
  8
BASE
  6
HIDDEN
 62
     5
100
AcDbText
 10
41.17170038352234
 20
74.76033841286805
 30
0.0
 40
2.0
  1
9
  7
ROMANS
100
AcDbText
  0
TEXT
  5
583
330
18
100
AcDbEntity
  8
BASE
  6
HIDDEN
 62
     5
100
AcDbText
 10
41.17170038352234
 20
69.68661442627534
 30
0.0
 40
2.0
  1
7
  7
ROMANS
100
AcDbText
  0
TEXT
  5
584
330
18
100
AcDbEntity
  8
BASE
  6
HIDDEN
 62
     5
100
AcDbText
 10
41.17170038352234
 20
64.75608713900145
 30
0.0
 40
2.0
  1
8
  7
ROMANS
100
AcDbText
  0
TEXT
  5
585
330
18
100
AcDbEntity
  8
0
  6
HIDDEN
 62
     5
100
AcDbText
 10
19.95588795723631
 20
212.5273860109557
 30
0.0
 40
2.0
  1
2)
  7
ROMANS
100
AcDbText
  0
LINE
  5
586
330
18
100
AcDbEntity
  8
0
  6
DASHED
 62
     5
100
AcDbLine
 10
40.0
 20
132.4999999999999
 30
0.0
 11
27.5
 21
132.4999999999999
 31
0.0
  0
LINE
  5
587
330
18
100
AcDbEntity
  8
0
  6
DASHED
 62
     5
100
AcDbLine
 10
40.0
 20
127.5
 30
0.0
 11
27.5
 21
127.5
 31
0.0
  0
LINE
  5
588
330
18
100
AcDbEntity
  8
0
  6
DASHED
 62
     5
100
AcDbLine
 10
40.0
 20
117.5
 30
0.0
 11
27.5
 21
117.5
 31
0.0
  0
LINE
  5
589
330
18
100
AcDbEntity
  8
0
  6
DASHED
 62
     5
100
AcDbLine
 10
40.0
 20
122.5
 30
0.0
 11
27.5
 21
122.5
 31
0.0
  0
LINE
  5
58A
330
18
100
AcDbEntity
  8
0
  6
Continuous
 62
     5
100
AcDbLine
 10
25.0
 20
122.5
 30
0.0
 11
26.0
 21
123.5
 31
0.0
  0
LINE
  5
58B
330
18
100
AcDbEntity
  8
0
  6
Continuous
 62
     5
100
AcDbLine
 10
25.0
 20
117.4996553644064
 30
0.0
 11
26.0
 21
116.4996553644064
 31
0.0
  0
LINE
  5
58C
330
18
100
AcDbEntity
  8
0
  6
Continuous
 62
     5
100
AcDbLine
 10
25.0
 20
122.5
 30
0.0
 11
25.0
 21
117.5
 31
0.0
  0
LINE
  5
58D
330
18
100
AcDbEntity
  8
0
  6
DASHED
 62
     5
100
AcDbLine
 10
40.0
 20
67.5
 30
0.0
 11
27.5
 21
67.5
 31
0.0
  0
LINE
  5
58E
330
18
100
AcDbEntity
  8
0
  6
Continuous
 62
     5
100
AcDbLine
 10
120.0
 20
45.0
 30
0.0
 11
222.5003446355935
 21
45.0
 31
0.0
  0
LINE
  5
58F
330
18
100
AcDbEntity
  8
0
  6
Continuous
 62
     5
100
AcDbLine
 10
222.5003446355935
 20
45.0
 30
0.0
 11
223.5003446355935
 21
46.0
 31
0.0
  0
LINE
  5
590
330
18
100
AcDbEntity
  8
0
  6
Continuous
 62
     5
100
AcDbLine
 10
120.0
 20
45.0
 30
0.0
 11
119.0
 21
46.0
 31
0.0
  0
LINE
  5
591
330
18
100
AcDbEntity
  8
0
  6
Continuous
 62
     5
100
AcDbLine
 10
120.0
 20
57.5
 30
0.0
 11
120.0
 21
50.0
 31
0.0
  0
LINE
  5
592
330
18
100
AcDbEntity
  8
0
  6
Continuous
 62
     5
100
AcDbLine
 10
132.4999999999999
 20
57.5
 30
0.0
 11
132.4999999999999
 21
50.0
 31
0.0
  0
LINE
  5
593
330
18
100
AcDbEntity
  8
0
  6
Continuous
 62
     5
100
AcDbLine
 10
147.5
 20
57.5
 30
0.0
 11
147.5
 21
50.0
 31
0.0
  0
LINE
  5
594
330
18
100
AcDbEntity
  8
0
  6
Continuous
 62
     5
100
AcDbLine
 10
162.5
 20
57.5
 30
0.0
 11
162.5
 21
50.0
 31
0.0
  0
LINE
  5
595
330
18
100
AcDbEntity
  8
0
  6
Continuous
 62
     5
100
AcDbLine
 10
215.0
 20
57.5
 30
0.0
 11
215.0
 21
50.0
 31
0.0
  0
LINE
  5
596
330
18
100
AcDbEntity
  8
0
  6
Continuous
 62
     5
100
AcDbLine
 10
222.5
 20
57.5
 30
0.0
 11
222.5
 21
50.0
 31
0.0
  0
LINE
  5
597
330
18
100
AcDbEntity
  8
0
  6
HIDDEN
 62
     5
100
AcDbLine
 10
180.0
 20
57.5
 30
0.0
 11
180.0
 21
50.0
 31
0.0
  0
LINE
  5
598
330
18
100
AcDbEntity
  8
0
  6
HIDDEN
 62
     5
100
AcDbLine
 10
210.4506146543173
 20
57.5
 30
0.0
 11
210.4506146543173
 21
50.0
 31
0.0
  0
TEXT
  5
599
330
18
100
AcDbEntity
  8
0
  6
HIDDEN
 62
     5
100
AcDbText
 10
168.4849262609486
 20
38.6678154209957
 30
0.0
 40
2.0
  1
SHEET 2
  7
ROMANS
100
AcDbText
  0
TEXT
  5
59A
330
18
100
AcDbEntity
  8
0
  6
HIDDEN
 62
     5
100
AcDbText
 10
361.558214003346
 20
233.4693065133459
 30
0.0
 40
2.5
  1
I
  7
GREEKS
100
AcDbText
  0
TEXT
  5
59B
330
18
100
AcDbEntity
  8
0
  6
HIDDEN
 62
     5
100
AcDbText
 10
361.558214003346
 20
223.3794467767282
 30
0.0
 40
2.5
  1
I
  7
GREEKS
100
AcDbText
  0
LINE
  5
59C
330
18
100
AcDbEntity
  8
0
  6
Continuous
 62
     5
100
AcDbLine
 10
369.3357787280343
 20
224.5170977148264
 30
0.0
 11
366.9900132158086
 21
223.327178566082
 31
0.0
  0
LINE
  5
59D
330
18
100
AcDbEntity
  8
0
  6
Continuous
 62
     5
100
AcDbLine
 10
366.9900132158086
 20
225.8524514261952
 30
0.0
 11
369.3357787280343
 21
224.5170977148264
 31
0.0
  0
LINE
  5
59E
330
18
100
AcDbEntity
  8
0
  6
Continuous
 62
     5
100
AcDbLine
 10
368.8064634256002
 20
225.8524514261952
 30
0.0
 11
371.1522289378259
 21
224.5170977148264
 31
0.0
  0
LINE
  5
59F
330
18
100
AcDbEntity
  8
0
  6
Continuous
 62
     5
100
AcDbLine
 10
371.1522289378259
 20
224.5170977148264
 30
0.0
 11
368.8064634256002
 21
223.327178566082
 31
0.0
  0
TEXT
  5
5A0
330
18
100
AcDbEntity
  8
0
  6
HIDDEN
 62
     5
100
AcDbText
 10
361.5459810080577
 20
213.6431668578647
 30
0.0
 40
2.5
  1
3U
  7
GREEKS
100
AcDbText
  0
LINE
  5
5A1
330
18
100
AcDbEntity
  8
0
  6
Continuous
 62
     5
100
AcDbLine
 10
369.1212270747933
 20
214.9119037297493
 30
0.0
 11
366.7754615625676
 21
213.7219845810049
 31
0.0
  0
LINE
  5
5A2
330
18
100
AcDbEntity
  8
0
  6
Continuous
 62
     5
100
AcDbLine
 10
366.7754615625676
 20
216.2472574411181
 30
0.0
 11
369.1212270747933
 21
214.9119037297493
 31
0.0
  0
LINE
  5
5A3
330
18
100
AcDbEntity
  8
0
  6
Continuous
 62
     5
100
AcDbLine
 10
361.3282595718541
 20
210.7058844755603
 30
0.0
 11
361.3282595718541
 21
208.9177530629698
 31
0.0
  0
LINE
  5
5A4
330
18
100
AcDbEntity
  8
0
  6
Continuous
 62
     5
100
AcDbLine
 10
361.3592912925636
 20
209.8606059230727
 30
0.0
 11
369.1474963193959
 21
209.8606059230727
 31
0.0
  0
LINE
  5
5A5
330
18
100
AcDbEntity
  8
0
  6
Continuous
 62
     5
100
AcDbLine
 10
366.1888429294793
 20
212.0587686957545
 30
0.0
 11
367.0895197012898
 21
210.935019647376
 31
0.0
  0
ARC
  5
5A6
330
18
100
AcDbEntity
  8
0
  6
HIDDEN
 62
     5
100
AcDbCircle
 10
368.0541591478469
 20
213.7891501221491
 30
0.0
 40
4.998195985283786
100
AcDbArc
 50
206.402921519098
 51
282.2111496748031
  0
LINE
  5
5A7
330
18
100
AcDbEntity
  8
0
  6
Continuous
 62
     5
100
AcDbLine
 10
363.7434356885327
 20
208.6930032532941
 30
0.0
 11
366.6195463884319
 21
211.5215618336028
 31
0.0
  0
LINE
  5
5A8
330
18
100
AcDbEntity
  8
0
  6
Continuous
 62
     5
100
AcDbLine
 10
369.142955091975
 20
210.7058844755603
 30
0.0
 11
369.142955091975
 21
208.9177530629698
 31
0.0
  0
LINE
  5
5A9
330
18
100
AcDbEntity
  8
0
  6
Continuous
 62
     5
100
AcDbLine
 10
368.8333783530962
 20
203.6809689557678
 30
0.0
 11
366.4876128408706
 21
205.0163226671366
 31
0.0
  0
LINE
  5
5AA
330
18
100
AcDbEntity
  8
0
  6
Continuous
 62
     5
100
AcDbLine
 10
366.4876128408706
 20
205.0163226671366
 30
0.0
 11
368.8333783530962
 21
206.2062418158811
 31
0.0
  0
TEXT
  5
5AB
330
18
100
AcDbEntity
  8
0
  6
HIDDEN
 62
     5
100
AcDbText
 10
361.5459810080577
 20
203.7295492127163
 30
0.0
 40
2.5
  1
3U
  7
GREEKS
100
AcDbText
  0
LINE
  5
5AC
330
18
100
AcDbEntity
  8
0
  6
Continuous
 62
     5
100
AcDbLine
 10
361.3282595718541
 20
200.9674634542598
 30
0.0
 11
361.3282595718541
 21
199.1793320416693
 31
0.0
  0
LINE
  5
5AD
330
18
100
AcDbEntity
  8
0
  6
Continuous
 62
     5
100
AcDbLine
 10
361.3592912925636
 20
200.1221849017722
 30
0.0
 11
369.1474963193959
 21
200.1221849017722
 31
0.0
  0
LINE
  5
5AE
330
18
100
AcDbEntity
  8
0
  6
Continuous
 62
     5
100
AcDbLine
 10
363.7434356885327
 20
198.9545822319936
 30
0.0
 11
366.6195463884319
 21
201.7831408123023
 31
0.0
  0
LINE
  5
5AF
330
18
100
AcDbEntity
  8
0
  6
Continuous
 62
     5
100
AcDbLine
 10
366.1888429294793
 20
202.320347674454
 30
0.0
 11
367.0895197012898
 21
201.1965986260755
 31
0.0
  0
LINE
  5
5B0
330
18
100
AcDbEntity
  8
0
  6
Continuous
 62
     5
100
AcDbLine
 10
369.142955091975
 20
200.9674634542598
 30
0.0
 11
369.142955091975
 21
199.1793320416693
 31
0.0
  0
LINE
  5
5B1
330
18
100
AcDbEntity
  8
0
  6
Continuous
 62
     5
100
AcDbLine
 10
355.7279841356692
 20
187.5
 30
0.0
 11
375.7279841356692
 21
187.5
 31
0.0
  0
LINE
  5
5B2
330
18
100
AcDbEntity
  8
0
  6
Continuous
 62
     5
100
AcDbLine
 10
372.5193182677949
 20
190.6022254497213
 30
0.0
 11
372.5193182677949
 21
188.8140940371308
 31
0.0
  0
LINE
  5
5B3
330
18
100
AcDbEntity
  8
0
  6
Continuous
 62
     5
100
AcDbLine
 10
369.5652061052992
 20
191.9551096699155
 30
0.0
 11
370.4658828771097
 21
190.831360621537
 31
0.0
  0
LINE
  5
5B4
330
18
100
AcDbEntity
  8
0
  6
Continuous
 62
     5
100
AcDbLine
 10
367.1197988643526
 20
188.5893442274552
 30
0.0
 11
369.9959095642518
 21
191.4179028077638
 31
0.0
  0
LINE
  5
5B5
330
18
100
AcDbEntity
  8
0
  6
Continuous
 62
     5
100
AcDbLine
 10
364.7356544683835
 20
189.7569468972337
 30
0.0
 11
372.5238594952158
 21
189.7569468972337
 31
0.0
  0
LINE
  5
5B6
330
18
100
AcDbEntity
  8
0
  6
Continuous
 62
     5
100
AcDbLine
 10
364.7046227476741
 20
190.6022254497213
 30
0.0
 11
364.7046227476741
 21
188.8140940371308
 31
0.0
  0
TEXT
  5
5B7
330
18
100
AcDbEntity
  8
0
  6
Continuous
 62
     5
100
AcDbText
 10
358.5954654399988
 20
189.1124707514809
 30
0.0
 40
2.5
  1
n
  7
GREEKS
100
AcDbText
  0
TEXT
  5
5B8
330
18
100
AcDbEntity
  8
0
  6
Continuous
 62
     5
100
AcDbText
 10
361.987037458953
 20
189.0904404900472
 30
0.0
 40
2.0
  1
x
  7
GREEKS
100
AcDbText
  0
TEXT
  5
5B9
330
18
100
AcDbEntity
  8
0
  6
Continuous
 62
     5
100
AcDbText
 10
348.4890545618835
 20
180.4241988068687
 30
0.0
 40
2.0
  1
FEEDER PROTECTION
  7
ROMANS
100
AcDbText
  0
TEXT
  5
5BA
330
18
100
AcDbEntity
  8
0
  6
Continuous
 62
     5
100
AcDbText
 10
348.4890545618835
 20
177.0908654735354
 30
0.0
 40
2.0
  1
AND CONTROL UNIT
  7
ROMANS
100
AcDbText
  0
TEXT
  5
5BB
330
18
100
AcDbEntity
  8
0
  6
Continuous
 62
     5
100
AcDbText
 10
348.4890545618835
 20
173.757532140202
 30
0.0
 40
2.0
  1
SKYDDS- OCH KONTROLL-
  7
ROMANS
100
AcDbText
  0
TEXT
  5
5BC
330
18
100
AcDbEntity
  8
0
  6
Continuous
 62
     5
100
AcDbText
 10
348.4890545618835
 20
170.4241988068687
 30
0.0
 40
2.0
  1
ENHET
  7
GREEKS
100
AcDbText
  0
TEXT
  5
5BD
330
18
100
AcDbEntity
  8
0
  6
Continuous
 62
     5
100
AcDbText
 10
347.3378984344889
 20
69.49181050346043
 30
0.0
 40
2.0
  1
L2
  7
ROMANS
100
AcDbText
  0
TEXT
  5
5BE
330
18
100
AcDbEntity
  8
0
  6
Continuous
 62
     5
100
AcDbText
 10
360.6743348794568
 20
69.50283087500555
 30
0.0
 40
2.0
  1
4-6
  7
ROMANS
100
AcDbText
  0
TEXT
  5
5BF
330
18
100
AcDbEntity
  8
0
  6
Continuous
 62
     5
100
AcDbText
 10
375.768685511238
 20
69.50283087500555
 30
0.0
 40
2.0
  1
4-5
  7
ROMANS
100
AcDbText
  0
LINE
  5
5C0
330
18
100
AcDbEntity
  8
0
 62
     5
100
AcDbLine
 10
386.9370191875237
 20
89.34998920512002
 30
0.0
 11
342.9370191875236
 21
89.34998920512002
 31
0.0
  0
TEXT
  5
5C2
330
18
100
AcDbEntity
  8
0
  6
HIDDEN
 62
     5
100
AcDbText
 10
347.3747284468359
 20
50.4391428790943
 30
0.0
 40
2.0
  1
U12
  7
ROMANS
100
AcDbText
  0
TEXT
  5
5C3
330
18
100
AcDbEntity
  8
0
  6
HIDDEN
 62
     5
100
AcDbText
 10
347.3747284468359
 20
46.36658880441193
 30
0.0
 40
2.0
  1
U23
  7
ROMANS
100
AcDbText
  0
TEXT
  5
5C4
330
18
100
AcDbEntity
  8
0
  6
HIDDEN
 62
     5
100
AcDbText
 10
347.3747284468359
 20
42.45702982989337
 30
0.0
 40
2.0
  1
U31
  7
ROMANS
100
AcDbText
  0
LINE
  5
5C5
330
18
100
AcDbEntity
  8
0
  6
Continuous
 62
     5
100
AcDbLine
 10
356.9370191875236
 20
59.67448266653814
 30
0.0
 11
386.9220716131488
 21
59.67448266653814
 31
0.0
  0
TEXT
  5
5C6
330
18
100
AcDbEntity
  8
0
  6
Continuous
 62
     5
100
AcDbText
 10
359.2440234284615
 20
50.43728408456235
 30
0.0
 40
2.0
  1
13-14
  7
ROMANS
100
AcDbText
  0
TEXT
  5
5C7
330
18
100
AcDbEntity
  8
0
  6
Continuous
 62
     5
100
AcDbText
 10
359.2440234284614
 20
46.35456548616107
 30
0.0
 40
2.0
  1
16-17
  7
ROMANS
100
AcDbText
  0
TEXT
  5
5C8
330
18
100
AcDbEntity
  8
0
  6
Continuous
 62
     5
100
AcDbText
 10
359.2440234284614
 20
42.481233947117
 30
0.0
 40
2.0
  1
19-20
  7
ROMANS
100
AcDbText
  0
TEXT
  5
5C9
330
18
100
AcDbEntity
  8
0
  6
Continuous
 62
     5
100
AcDbText
 10
374.7187760418903
 20
50.41524334147212
 30
0.0
 40
2.0
  1
13-15
  7
ROMANS
100
AcDbText
  0
TEXT
  5
5CA
330
18
100
AcDbEntity
  8
0
  6
Continuous
 62
     5
100
AcDbText
 10
374.7187760418903
 20
46.34354511461595
 30
0.0
 40
2.0
  1
16-18
  7
ROMANS
100
AcDbText
  0
TEXT
  5
5CB
330
18
100
AcDbEntity
  8
0
  6
Continuous
 62
     5
100
AcDbText
 10
374.7187760418903
 20
42.49225431866213
 30
0.0
 40
2.0
  1
19-21
  7
ROMANS
100
AcDbText
  0
TEXT
  5
5CC
330
18
100
AcDbEntity
  8
0
  6
Continuous
 62
     5
100
AcDbText
 10
337.9299201398314
 20
87.9623032267221
 30
0.0
 40
2.0
  1
1)
  7
ROMANS
100
AcDbText
  0
TEXT
  5
5CD
330
18
100
AcDbEntity
  8
0
  6
Continuous
 62
     5
100
AcDbText
 10
11.86093378777305
 20
39.81457592547214
 30
0.0
 40
2.0
  1
2) BLOCKING INPUT /
  7
ROMANS
100
AcDbText
  0
TEXT
  5
5CE
330
18
100
AcDbEntity
  8
0
  6
Continuous
 62
     5
100
AcDbText
 10
13.19994876317299
 20
36.4812425921388
 30
0.0
 40
2.0
  1
  BLOCKERING IN
  7
ROMANS
100
AcDbText
  0
TEXT
  5
5CF
330
18
100
AcDbEntity
  8
0
  6
Continuous
 62
     5
100
AcDbText
 10
11.86093378777305
 20
30.64790925880547
 30
0.0
 40
2.0
  1
3) TRIP 1 /
  7
ROMANS
100
AcDbText
  0
TEXT
  5
5D0
330
18
100
AcDbEntity
  8
0
  6
Continuous
 62
     5
100
AcDbText
 10
13.19994876317299
 20
27.31457592547214
 30
0.0
 40
2.0
  1
  UTLÖSNING 1
  7
ROMANS
100
AcDbText
  0
TEXT
  5
5D1
330
18
100
AcDbEntity
  8
0
  6
Continuous
 62
     5
100
AcDbText
 10
11.86093378777305
 20
21.47312088843108
 30
0.0
 40
2.0
  1
4) TRIP 2 OR ALARM OUTPUT /
  7
ROMANS
100
AcDbText
  0
TEXT
  5
5D2
330
18
100
AcDbEntity
  8
0
  6
Continuous
 62
     5
100
AcDbText
 10
13.18473268390708
 20
18.13978755509775
 30
0.0
 40
2.0
  1
  UTLÖSNING 2 ELLER SIGNALUTGÅNG
  7
ROMANS
100
AcDbText
  0
TEXT
  5
5D3
330
18
100
AcDbEntity
  8
0
  6
Continuous
 62
     5
100
AcDbText
 10
80.85063717940167
 20
30.5129325782417
 30
0.0
 40
2.0
  1
5) ALARM OUTPUT /
  7
ROMANS
100
AcDbText
  0
TEXT
  5
5D4
330
18
100
AcDbEntity
  8
0
  6
Continuous
 62
     5
100
AcDbText
 10
82.18878970156248
 20
27.17959924490837
 30
0.0
 40
2.0
  1
  SIGNALUTGÅNG
  7
ROMANS
100
AcDbText
  0
TEXT
  5
5D5
330
18
100
AcDbEntity
  8
0
  6
Continuous
 62
     5
100
AcDbText
 10
80.85063717940167
 20
21.45598254602259
 30
0.0
 40
2.0
  1
6) START, BLOCKING ETC.
  7
ROMANS
100
AcDbText
  0
TEXT
  5
5D6
330
18
100
AcDbEntity
  8
0
  6
Continuous
 62
     5
100
AcDbText
 10
82.18901537522219
 20
18.12264921268926
 30
0.0
 40
2.0
  1
  START, BLOCKERING MM.
  7
ROMANS
100
AcDbText
  0
TEXT
  5
5D7
330
18
100
AcDbEntity
  8
BASE
  6
Continuous
 62
     5
100
AcDbText
 10
45.0
 20
237.5
 30
0.0
 40
2.0
  1
1MRS10240-AA  SPAC 534 C /E221
  7
ROMANS
100
AcDbText
  0
LINE
  5
5D8
330
18
100
AcDbEntity
  8
0
  6
Continuous
 62
     5
100
AcDbLine
 10
255.0000000000004
 20
153.9744574587293
 30
0.0
 11
255.0
 21
148.2895280601789
 31
0.0
  0
LINE
  5
5D9
330
18
100
AcDbEntity
  8
0
  6
Continuous
 62
     5
100
AcDbLine
 10
255.0
 20
148.2895280601789
 30
0.0
 11
254.0
 21
147.2895280601789
 31
0.0
  0
LINE
  5
5DA
330
18
100
AcDbEntity
  8
0
  6
Continuous
 62
     5
100
AcDbLine
 10
255.0
 20
153.9744574587298
 30
0.0
 11
254.0
 21
154.9744574587298
 31
0.0
  0
LINE
  5
5DB
330
18
100
AcDbEntity
  8
0
  6
Continuous
 62
     5
100
AcDbLine
 10
255.0000000000004
 20
175.3467996954683
 30
0.0
 11
255.0
 21
169.6618702969179
 31
0.0
  0
LINE
  5
5DC
330
18
100
AcDbEntity
  8
0
  6
Continuous
 62
     5
100
AcDbLine
 10
255.0
 20
169.6618702969179
 30
0.0
 11
254.0
 21
168.6618702969179
 31
0.0
  0
LINE
  5
5DD
330
18
100
AcDbEntity
  8
0
  6
Continuous
 62
     5
100
AcDbLine
 10
255.0
 20
175.3467996954688
 30
0.0
 11
254.0
 21
176.3467996954688
 31
0.0
  0
LINE
  5
5DE
330
18
100
AcDbEntity
  8
0
  6
Continuous
 62
     5
100
AcDbLine
 10
255.0
 20
195.3467996954688
 30
0.0
 11
254.0
 21
196.3467996954688
 31
0.0
  0
LINE
  5
5DF
330
18
100
AcDbEntity
  8
0
  6
Continuous
 62
     5
100
AcDbLine
 10
255.0
 20
189.6618702969179
 30
0.0
 11
254.0
 21
188.6618702969179
 31
0.0
  0
LINE
  5
5E0
330
18
100
AcDbEntity
  8
0
  6
Continuous
 62
     5
100
AcDbLine
 10
255.0000000000004
 20
195.3467996954683
 30
0.0
 11
255.0
 21
189.6618702969179
 31
0.0
  0
LINE
  5
5E1
330
18
100
AcDbEntity
  8
0
  6
Continuous
 62
     5
100
AcDbLine
 10
255.0000000000004
 20
215.3467996954683
 30
0.0
 11
255.0
 21
209.6618702969179
 31
0.0
  0
LINE
  5
5E2
330
18
100
AcDbEntity
  8
0
  6
Continuous
 62
     5
100
AcDbLine
 10
255.0
 20
209.6618702969179
 30
0.0
 11
254.0
 21
208.6618702969178
 31
0.0
  0
LINE
  5
5E3
330
18
100
AcDbEntity
  8
0
  6
Continuous
 62
     5
100
AcDbLine
 10
255.0
 20
215.3467996954688
 30
0.0
 11
254.0
 21
216.3467996954688
 31
0.0
  0
LINE
  5
5E6
330
18
100
AcDbEntity
  8
0
  6
DASHED
 62
     5
100
AcDbLine
 10
255.0
 20
153.627657763261
 30
0.0
 11
268.905155759662
 21
153.627657763261
 31
0.0
  0
LINE
  5
5FF
330
18
100
AcDbEntity
  8
0
  6
DASHED
 62
     5
100
AcDbLine
 10
290.0
 20
175.0
 30
0.0
 11
255.0
 21
175.0
 31
0.0
  0
LINE
  5
600
330
18
100
AcDbEntity
  8
0
  6
DASHED
 62
     5
100
AcDbLine
 10
285.0
 20
195.0
 30
0.0
 11
255.0
 21
195.0
 31
0.0
  0
LINE
  5
601
330
18
100
AcDbEntity
  8
0
  6
DASHED
 62
     5
100
AcDbLine
 10
280.0
 20
215.0
 30
0.0
 11
255.0
 21
215.0
 31
0.0
  0
LINE
  5
602
330
18
100
AcDbEntity
  8
0
  6
DASHED
 62
     5
100
AcDbLine
 10
275.0
 20
210.1899924594467
 30
0.0
 11
275.0
 21
162.5
 31
0.0
  0
LINE
  5
603
330
18
100
AcDbEntity
  8
0
  6
DASHED
 62
     5
100
AcDbLine
 10
260.0
 20
205.0
 30
0.0
 11
260.0
 21
165.0
 31
0.0
  0
LINE
  5
604
330
18
100
AcDbEntity
  8
0
  6
DASHED
 62
     5
100
AcDbLine
 10
290.0069210170263
 20
170.1899842626011
 30
0.0
 11
275.0
 21
170.1899842626011
 31
0.0
  0
LINE
  5
605
330
18
100
AcDbEntity
  8
0
  6
DASHED
 62
     5
100
AcDbLine
 10
285.0697967243418
 20
190.1899838838781
 30
0.0
 11
275.0
 21
190.1899838838781
 31
0.0
  0
LINE
  5
606
330
18
100
AcDbEntity
  8
0
  6
DASHED
 62
     5
100
AcDbLine
 10
280.0
 20
187.5
 30
0.0
 11
280.0
 21
162.5
 31
0.0
  0
LINE
  5
607
330
18
100
AcDbEntity
  8
0
  6
DASHED
 62
     5
100
AcDbLine
 10
285.0
 20
187.5
 30
0.0
 11
285.0
 21
162.5
 31
0.0
  0
LINE
  5
608
330
18
100
AcDbEntity
  8
0
  6
DASHED
 62
     5
100
AcDbLine
 10
290.0
 20
187.5
 30
0.0
 11
290.0
 21
162.5
 31
0.0
  0
INSERT
  5
60A
330
18
100
AcDbEntity
  8
0
  6
Continuous
 62
     5
100
AcDbBlockReference
  2
BLC27
 10
281.4911539812379
 20
212.6184330913903
 30
0.0
 50
180.0
  0
LINE
  5
60B
330
18
100
AcDbEntity
  8
0
  6
DASHED
 62
     5
100
AcDbLine
 10
280.0
 20
220.0
 30
0.0
 11
280.0
 21
187.5
 31
0.0
  0
LINE
  5
60C
330
18
100
AcDbEntity
  8
0
  6
DASHED
 62
     5
100
AcDbLine
 10
280.0
 20
227.4999999999999
 30
0.0
 11
280.0
 21
240.0
 31
0.0
  0
LINE
  5
60D
330
18
100
AcDbEntity
  8
0
  6
DASHED
 62
     5
100
AcDbLine
 10
285.0
 20
250.0
 30
0.0
 11
285.0
 21
227.4999999999999
 31
0.0
  0
LINE
  5
60E
330
18
100
AcDbEntity
  8
0
  6
DASHED
 62
     5
100
AcDbLine
 10
285.0
 20
220.0
 30
0.0
 11
285.0
 21
187.5
 31
0.0
  0
LINE
  5
60F
330
18
100
AcDbEntity
  8
0
  6
DASHED
 62
     5
100
AcDbLine
 10
290.0
 20
245.0
 30
0.0
 11
290.0
 21
227.4999999999999
 31
0.0
  0
LINE
  5
610
330
18
100
AcDbEntity
  8
0
  6
DASHED
 62
     5
100
AcDbLine
 10
290.0
 20
220.0
 30
0.0
 11
290.0
 21
187.5
 31
0.0
  0
LINE
  5
611
330
18
100
AcDbEntity
  8
0
  6
DASHED
 62
     5
100
AcDbLine
 10
285.0
 20
240.0
 30
0.0
 11
285.0
 21
247.5
 31
0.0
  0
LINE
  5
612
330
18
100
AcDbEntity
  8
0
  6
DASHED
 62
     5
100
AcDbLine
 10
280.0
 20
240.0
 30
0.0
 11
280.0
 21
255.0
 31
0.0
  0
INSERT
  5
613
330
18
100
AcDbEntity
  8
0
  6
Continuous
 62
     5
100
AcDbBlockReference
  2
BLC27
 10
286.5122703094795
 20
192.6184303520074
 30
0.0
 50
180.0
  0
LINE
  5
614
330
18
100
AcDbEntity
  8
0
  6
Continuous
 62
     5
100
AcDbLine
 10
280.0
 20
220.0
 30
0.0
 11
277.4999999999999
 21
227.4999999999999
 31
0.0
  0
LINE
  5
615
330
18
100
AcDbEntity
  8
0
  6
Continuous
 62
     5
100
AcDbLine
 10
285.0
 20
220.0
 30
0.0
 11
282.5
 21
227.4999999999999
 31
0.0
  0
LINE
  5
616
330
18
100
AcDbEntity
  8
0
  6
Continuous
 62
     5
100
AcDbLine
 10
290.0
 20
220.0
 30
0.0
 11
287.5
 21
227.4999999999999
 31
0.0
  0
LINE
  5
617
330
18
100
AcDbEntity
  8
0
  6
Continuous
 62
     5
100
AcDbLine
 10
280.0
 20
227.4999999999999
 30
0.0
 11
279.4999999999999
 21
228.0
 31
0.0
  0
LINE
  5
618
330
18
100
AcDbEntity
  8
0
  6
Continuous
 62
     5
100
AcDbLine
 10
280.0
 20
227.4999999999999
 30
0.0
 11
280.5
 21
227.0
 31
0.0
  0
LINE
  5
619
330
18
100
AcDbEntity
  8
0
  6
Continuous
 62
     5
100
AcDbLine
 10
280.0
 20
227.4999999999999
 30
0.0
 11
280.5
 21
228.0
 31
0.0
  0
LINE
  5
61A
330
18
100
AcDbEntity
  8
0
  6
Continuous
 62
     5
100
AcDbLine
 10
280.0
 20
227.4999999999999
 30
0.0
 11
279.4999999999999
 21
227.0
 31
0.0
  0
LINE
  5
61B
330
18
100
AcDbEntity
  8
0
  6
Continuous
 62
     5
100
AcDbLine
 10
285.0
 20
227.4999999999999
 30
0.0
 11
285.5
 21
228.0
 31
0.0
  0
LINE
  5
61C
330
18
100
AcDbEntity
  8
0
  6
Continuous
 62
     5
100
AcDbLine
 10
285.0
 20
227.4999999999999
 30
0.0
 11
285.5
 21
227.0
 31
0.0
  0
LINE
  5
61D
330
18
100
AcDbEntity
  8
0
  6
Continuous
 62
     5
100
AcDbLine
 10
285.0
 20
227.4999999999999
 30
0.0
 11
284.5
 21
227.0
 31
0.0
  0
LINE
  5
61E
330
18
100
AcDbEntity
  8
0
  6
Continuous
 62
     5
100
AcDbLine
 10
285.0
 20
227.4999999999999
 30
0.0
 11
284.5
 21
228.0
 31
0.0
  0
LINE
  5
61F
330
18
100
AcDbEntity
  8
0
  6
Continuous
 62
     5
100
AcDbLine
 10
290.0
 20
227.4999999999999
 30
0.0
 11
290.5
 21
227.0
 31
0.0
  0
LINE
  5
620
330
18
100
AcDbEntity
  8
0
  6
Continuous
 62
     5
100
AcDbLine
 10
290.0
 20
227.4999999999999
 30
0.0
 11
290.5
 21
228.0
 31
0.0
  0
LINE
  5
621
330
18
100
AcDbEntity
  8
0
  6
Continuous
 62
     5
100
AcDbLine
 10
290.0
 20
227.4999999999999
 30
0.0
 11
289.4999999999999
 21
228.0
 31
0.0
  0
LINE
  5
622
330
18
100
AcDbEntity
  8
0
  6
Continuous
 62
     5
100
AcDbLine
 10
290.0
 20
227.4999999999999
 30
0.0
 11
289.4999999999999
 21
227.0
 31
0.0
  0
INSERT
  5
623
330
18
100
AcDbEntity
  8
0
  6
Continuous
 62
     5
100
AcDbBlockReference
  2
BLC27
 10
291.4911554828492
 20
172.6184307307302
 30
0.0
 50
180.0
  0
LINE
  5
624
330
18
100
AcDbEntity
  8
0
  6
DASHED
 62
     5
100
AcDbLine
 10
280.0
 20
210.1899924594467
 30
0.0
 11
275.0
 21
210.1899924594467
 31
0.0
  0
LINE
  5
625
330
18
100
AcDbEntity
  8
0
  6
DASHED
 62
     5
100
AcDbLine
 10
250.0
 20
143.627657763261
 30
0.0
 11
284.9746227680178
 21
143.627657763261
 31
0.0
  0
LINE
  5
626
330
18
100
AcDbEntity
  8
0
  6
Continuous
 62
     5
100
AcDbLine
 10
250.0
 20
148.627657763261
 30
0.0
 11
252.4999999999999
 21
148.627657763261
 31
0.0
  0
LINE
  5
627
330
18
100
AcDbEntity
  8
0
  6
Continuous
 62
     5
100
AcDbLine
 10
250.0
 20
153.627657763261
 30
0.0
 11
252.4999999999999
 21
153.627657763261
 31
0.0
  0
LINE
  5
628
330
18
100
AcDbEntity
  8
0
  6
DASHED
 62
     5
100
AcDbLine
 10
250.0
 20
165.0
 30
0.0
 11
275.0
 21
165.0
 31
0.0
  0
LINE
  5
629
330
18
100
AcDbEntity
  8
0
  6
Continuous
 62
     5
100
AcDbLine
 10
250.0
 20
170.0
 30
0.0
 11
252.4999999999999
 21
170.0
 31
0.0
  0
LINE
  5
62A
330
18
100
AcDbEntity
  8
0
  6
Continuous
 62
     5
100
AcDbLine
 10
250.0
 20
175.0
 30
0.0
 11
252.4999999999999
 21
175.0
 31
0.0
  0
LINE
  5
62B
330
18
100
AcDbEntity
  8
0
  6
DASHED
 62
     5
100
AcDbLine
 10
250.0
 20
185.0
 30
0.0
 11
260.0
 21
185.0
 31
0.0
  0
LINE
  5
62C
330
18
100
AcDbEntity
  8
0
  6
Continuous
 62
     5
100
AcDbLine
 10
250.0
 20
190.0
 30
0.0
 11
252.4999999999999
 21
190.0
 31
0.0
  0
LINE
  5
62D
330
18
100
AcDbEntity
  8
0
  6
Continuous
 62
     5
100
AcDbLine
 10
250.0
 20
195.0
 30
0.0
 11
252.4999999999999
 21
195.0
 31
0.0
  0
LINE
  5
62E
330
18
100
AcDbEntity
  8
0
  6
DASHED
 62
     5
100
AcDbLine
 10
250.0
 20
205.0
 30
0.0
 11
260.0
 21
205.0
 31
0.0
  0
LINE
  5
62F
330
18
100
AcDbEntity
  8
0
  6
Continuous
 62
     5
100
AcDbLine
 10
250.0
 20
210.0
 30
0.0
 11
252.4999999999999
 21
210.0
 31
0.0
  0
LINE
  5
630
330
18
100
AcDbEntity
  8
0
  6
Continuous
 62
     5
100
AcDbLine
 10
250.0
 20
215.0
 30
0.0
 11
252.4999999999999
 21
215.0
 31
0.0
  0
LINE
  5
646
330
18
100
AcDbEntity
  8
0
  6
DASHED
 62
     5
100
AcDbLine
 10
330.0
 20
245.0
 30
0.0
 11
272.5
 21
245.0
 31
0.0
  0
LINE
  5
647
330
18
100
AcDbEntity
  8
0
  6
DASHED
 62
     5
100
AcDbLine
 10
330.0
 20
249.9999999999999
 30
0.0
 11
272.5
 21
250.0
 31
0.0
  0
LINE
  5
648
330
18
100
AcDbEntity
  8
0
  6
DASHED
 62
     5
100
AcDbLine
 10
330.0
 20
255.0
 30
0.0
 11
272.5
 21
255.0
 31
0.0
  0
TEXT
  5
649
330
18
100
AcDbEntity
  8
0
  6
Continuous
 62
     5
100
AcDbText
 10
266.5324524612817
 20
253.9750033921404
 30
0.0
 40
2.0
  1
L1
  7
GREEKS
100
AcDbText
  0
TEXT
  5
64A
330
18
100
AcDbEntity
  8
0
  6
Continuous
 62
     5
100
AcDbText
 10
266.5324524612817
 20
249.0547365563103
 30
0.0
 40
2.0
  1
L2
  7
GREEKS
100
AcDbText
  0
TEXT
  5
64B
330
18
100
AcDbEntity
  8
0
  6
Continuous
 62
     5
100
AcDbText
 10
266.5324524612817
 20
243.9912048903936
 30
0.0
 40
2.0
  1
L3
  7
GREEKS
100
AcDbText
  0
LINE
  5
64C
330
18
100
AcDbEntity
  8
0
  6
Continuous
 62
     5
100
AcDbLine
 10
255.0
 20
120.3467996954688
 30
0.0
 11
254.0
 21
121.3467996954688
 31
0.0
  0
LINE
  5
64D
330
18
100
AcDbEntity
  8
0
  6
Continuous
 62
     5
100
AcDbLine
 10
255.0
 20
114.6618702969179
 30
0.0
 11
254.0
 21
113.6618702969178
 31
0.0
  0
LINE
  5
64E
330
18
100
AcDbEntity
  8
0
  6
Continuous
 62
     5
100
AcDbLine
 10
255.0000000000004
 20
120.3467996954683
 30
0.0
 11
255.0
 21
114.6618702969179
 31
0.0
  0
LINE
  5
64F
330
18
100
AcDbEntity
  8
0
  6
Continuous
 62
     5
100
AcDbLine
 10
250.0
 20
115.0
 30
0.0
 11
252.4999999999999
 21
115.0
 31
0.0
  0
LINE
  5
650
330
18
100
AcDbEntity
  8
0
  6
Continuous
 62
     5
100
AcDbLine
 10
250.0
 20
120.0
 30
0.0
 11
252.4999999999999
 21
120.0
 31
0.0
  0
LINE
  5
651
330
18
100
AcDbEntity
  8
0
  6
Continuous
 62
     5
100
AcDbLine
 10
255.0000000000004
 20
100.3467996954683
 30
0.0
 11
255.0
 21
94.6618702969179
 31
0.0
  0
LINE
  5
652
330
18
100
AcDbEntity
  8
0
  6
Continuous
 62
     5
100
AcDbLine
 10
255.0
 20
94.6618702969179
 30
0.0
 11
254.0
 21
93.6618702969179
 31
0.0
  0
LINE
  5
653
330
18
100
AcDbEntity
  8
0
  6
Continuous
 62
     5
100
AcDbLine
 10
255.0
 20
100.3467996954688
 30
0.0
 11
254.0
 21
101.3467996954688
 31
0.0
  0
LINE
  5
654
330
18
100
AcDbEntity
  8
0
  6
Continuous
 62
     5
100
AcDbLine
 10
250.0
 20
95.0
 30
0.0
 11
252.4999999999999
 21
95.0
 31
0.0
  0
LINE
  5
655
330
18
100
AcDbEntity
  8
0
  6
Continuous
 62
     5
100
AcDbLine
 10
250.0
 20
100.0
 30
0.0
 11
252.4999999999999
 21
100.0
 31
0.0
  0
LINE
  5
656
330
18
100
AcDbEntity
  8
0
  6
DASHED
 62
     5
100
AcDbLine
 10
250.0
 20
90.0
 30
0.0
 11
262.5
 21
90.0
 31
0.0
  0
LINE
  5
657
330
18
100
AcDbEntity
  8
0
  6
Continuous
 62
     5
100
AcDbLine
 10
255.0
 20
80.34679969546884
 30
0.0
 11
254.0
 21
81.34679969546883
 31
0.0
  0
LINE
  5
658
330
18
100
AcDbEntity
  8
0
  6
Continuous
 62
     5
100
AcDbLine
 10
255.0
 20
74.6618702969179
 30
0.0
 11
254.0
 21
73.6618702969179
 31
0.0
  0
LINE
  5
659
330
18
100
AcDbEntity
  8
0
  6
Continuous
 62
     5
100
AcDbLine
 10
255.0000000000004
 20
80.34679969546832
 30
0.0
 11
255.0
 21
74.6618702969179
 31
0.0
  0
LINE
  5
65A
330
18
100
AcDbEntity
  8
0
  6
DASHED
 62
     5
100
AcDbLine
 10
250.0
 20
70.0
 30
0.0
 11
267.5
 21
70.0
 31
0.0
  0
LINE
  5
65B
330
18
100
AcDbEntity
  8
0
  6
Continuous
 62
     5
100
AcDbLine
 10
250.0
 20
75.0
 30
0.0
 11
252.4999999999999
 21
75.0
 31
0.0
  0
LINE
  5
65C
330
18
100
AcDbEntity
  8
0
  6
Continuous
 62
     5
100
AcDbLine
 10
250.0
 20
80.0
 30
0.0
 11
252.4999999999999
 21
80.0
 31
0.0
  0
INSERT
  5
65D
330
18
100
AcDbEntity
  8
0
  6
Continuous
 62
     5
100
AcDbBlockReference
  2
BLC27
 10
358.4659318482223
 20
142.5715494616068
 30
0.0
  0
LINE
  5
65E
330
18
100
AcDbEntity
  8
0
  6
Continuous
 62
     5
100
AcDbLine
 10
345.0
 20
140.1899802196788
 30
0.0
 11
365.0
 21
140.1899802196788
 31
0.0
  0
LINE
  5
65F
330
18
100
AcDbEntity
  8
0
  6
Continuous
 62
     5
100
AcDbLine
 10
360.0
 20
130.1899802196795
 30
0.0
 11
360.0
 21
127.5
 31
0.0
  0
ARC
  5
660
330
18
100
AcDbEntity
  8
0
  6
Continuous
 62
     5
100
AcDbCircle
 10
358.3648615873968
 20
133.7960950148242
 30
0.0
 40
1.204308763687699
100
AcDbArc
 50
90.0
 51
265.7062371869478
  0
LINE
  5
661
330
18
100
AcDbEntity
  8
0
  6
Continuous
 62
     5
100
AcDbLine
 10
358.3587620726733
 20
132.5985465426162
 30
0.0
 11
359.008360390728
 21
132.5985465426162
 31
0.0
  0
LINE
  5
662
330
18
100
AcDbEntity
  8
0
  6
Continuous
 62
     5
100
AcDbLine
 10
358.3587620726733
 20
134.9999931928302
 30
0.0
 11
359.0022608760045
 21
134.9999931928302
 31
0.0
  0
LINE
  5
663
330
18
100
AcDbEntity
  8
0
  6
Continuous
 62
     5
100
AcDbLine
 10
358.3598981140048
 20
130.1899370591878
 30
0.0
 11
359.0094964320596
 21
130.1899370591878
 31
0.0
  0
ARC
  5
664
330
18
100
AcDbEntity
  8
0
  6
Continuous
 62
     5
100
AcDbCircle
 10
358.3648615873968
 20
131.3942377789285
 30
0.0
 40
1.204308763687699
100
AcDbArc
 50
90.0
 51
270.0
  0
LINE
  5
665
330
18
100
AcDbEntity
  8
0
  6
Continuous
 62
     5
100
AcDbLine
 10
359.0008973345388
 20
130.1899802196795
 30
0.0
 11
360.0
 21
130.1899802196795
 31
0.0
  0
LINE
  5
666
330
18
100
AcDbEntity
  8
0
  6
Continuous
 62
     5
100
AcDbLine
 10
358.996127989045
 20
134.9999959297373
 30
0.0
 11
359.9739356178998
 21
134.9999959297373
 31
0.0
  0
LINE
  5
667
330
18
100
AcDbEntity
  8
0
  6
Continuous
 62
     5
100
AcDbLine
 10
359.0060309415213
 20
132.5985560313284
 30
0.0
 11
359.9781667732114
 21
132.5985560313284
 31
0.0
  0
LINE
  5
668
330
18
100
AcDbEntity
  8
0
  6
Continuous
 62
     5
100
AcDbLine
 10
345.0
 20
135.0
 30
0.0
 11
365.0
 21
135.0
 31
0.0
  0
LINE
  5
66B
330
18
100
AcDbEntity
  8
0
  6
DASHED
 62
     5
100
AcDbLine
 10
365.0
 20
135.0
 30
0.0
 11
374.3468197579161
 21
135.0
 31
0.0
  0
LINE
  5
66C
330
18
100
AcDbEntity
  8
0
  6
DASHED
 62
     5
100
AcDbLine
 10
365.0
 20
140.1899802196786
 30
0.0
 11
374.1633617978537
 21
140.1899802196786
 31
0.0
  0
INSERT
  5
66D
330
18
100
AcDbEntity
  8
0
  6
Continuous
 62
     5
100
AcDbBlockReference
  2
BLC27
 10
343.4659318482223
 20
142.5715494616068
 30
0.0
  0
INSERT
  5
66E
330
18
100
AcDbEntity
  8
0
  6
Continuous
 62
     5
100
AcDbBlockReference
  2
BLC27
 10
350.9659318482223
 20
142.5715494616068
 30
0.0
  0
LINE
  5
66F
330
18
100
AcDbEntity
  8
0
  6
Continuous
 62
     5
100
AcDbLine
 10
345.0
 20
130.1899802196795
 30
0.0
 11
345.0
 21
127.5
 31
0.0
  0
LINE
  5
670
330
18
100
AcDbEntity
  8
0
  6
Continuous
 62
     5
100
AcDbLine
 10
352.4999999999999
 20
130.1899802196795
 30
0.0
 11
352.4999999999999
 21
127.5
 31
0.0
  0
ARC
  5
671
330
18
100
AcDbEntity
  8
0
  6
Continuous
 62
     5
100
AcDbCircle
 10
350.8648615873968
 20
133.7960950148242
 30
0.0
 40
1.204308763687699
100
AcDbArc
 50
90.0
 51
265.7062371869478
  0
LINE
  5
672
330
18
100
AcDbEntity
  8
0
  6
Continuous
 62
     5
100
AcDbLine
 10
350.8587620726733
 20
132.5985465426162
 30
0.0
 11
351.5083603907279
 21
132.5985465426162
 31
0.0
  0
LINE
  5
673
330
18
100
AcDbEntity
  8
0
  6
Continuous
 62
     5
100
AcDbLine
 10
350.8587620726733
 20
134.9999931928302
 30
0.0
 11
351.5022608760045
 21
134.9999931928302
 31
0.0
  0
LINE
  5
674
330
18
100
AcDbEntity
  8
0
  6
Continuous
 62
     5
100
AcDbLine
 10
350.8598981140048
 20
130.1899370591878
 30
0.0
 11
351.5094964320596
 21
130.1899370591878
 31
0.0
  0
ARC
  5
675
330
18
100
AcDbEntity
  8
0
  6
Continuous
 62
     5
100
AcDbCircle
 10
350.8648615873968
 20
131.3942377789285
 30
0.0
 40
1.204308763687699
100
AcDbArc
 50
90.0
 51
270.0
  0
LINE
  5
676
330
18
100
AcDbEntity
  8
0
  6
Continuous
 62
     5
100
AcDbLine
 10
351.5008973345388
 20
130.1899802196795
 30
0.0
 11
352.4999999999999
 21
130.1899802196795
 31
0.0
  0
LINE
  5
677
330
18
100
AcDbEntity
  8
0
  6
Continuous
 62
     5
100
AcDbLine
 10
351.496127989045
 20
134.9999959297373
 30
0.0
 11
352.4739356178998
 21
134.9999959297373
 31
0.0
  0
LINE
  5
678
330
18
100
AcDbEntity
  8
0
  6
Continuous
 62
     5
100
AcDbLine
 10
351.5060309415213
 20
132.5985560313284
 30
0.0
 11
352.4781667732114
 21
132.5985560313284
 31
0.0
  0
ARC
  5
679
330
18
100
AcDbEntity
  8
0
  6
Continuous
 62
     5
100
AcDbCircle
 10
343.3648615873968
 20
133.7960950148242
 30
0.0
 40
1.204308763687699
100
AcDbArc
 50
90.0
 51
265.7062371869478
  0
LINE
  5
67A
330
18
100
AcDbEntity
  8
0
  6
Continuous
 62
     5
100
AcDbLine
 10
343.3587620726733
 20
132.5985465426162
 30
0.0
 11
344.008360390728
 21
132.5985465426162
 31
0.0
  0
LINE
  5
67B
330
18
100
AcDbEntity
  8
0
  6
Continuous
 62
     5
100
AcDbLine
 10
343.3587620726733
 20
134.9999931928302
 30
0.0
 11
344.0022608760045
 21
134.9999931928302
 31
0.0
  0
LINE
  5
67C
330
18
100
AcDbEntity
  8
0
  6
Continuous
 62
     5
100
AcDbLine
 10
343.3598981140048
 20
130.1899370591878
 30
0.0
 11
344.0094964320596
 21
130.1899370591878
 31
0.0
  0
ARC
  5
67D
330
18
100
AcDbEntity
  8
0
  6
Continuous
 62
     5
100
AcDbCircle
 10
343.3648615873968
 20
131.3942377789285
 30
0.0
 40
1.204308763687699
100
AcDbArc
 50
90.0
 51
270.0
  0
LINE
  5
67E
330
18
100
AcDbEntity
  8
0
  6
Continuous
 62
     5
100
AcDbLine
 10
344.0008973345388
 20
130.1899802196795
 30
0.0
 11
345.0
 21
130.1899802196795
 31
0.0
  0
LINE
  5
67F
330
18
100
AcDbEntity
  8
0
  6
Continuous
 62
     5
100
AcDbLine
 10
343.996127989045
 20
134.9999959297373
 30
0.0
 11
344.9739356178998
 21
134.9999959297373
 31
0.0
  0
LINE
  5
680
330
18
100
AcDbEntity
  8
0
  6
Continuous
 62
     5
100
AcDbLine
 10
344.0060309415213
 20
132.5985560313284
 30
0.0
 11
344.9781667732114
 21
132.5985560313284
 31
0.0
  0
LINE
  5
681
330
18
100
AcDbEntity
  8
0
  6
DASHED
 62
     5
100
AcDbLine
 10
345.0
 20
145.0
 30
0.0
 11
345.0
 21
167.5
 31
0.0
  0
LINE
  5
682
330
18
100
AcDbEntity
  8
0
  6
DASHED
 62
     5
100
AcDbLine
 10
360.0
 20
145.0
 30
0.0
 11
360.0
 21
157.5
 31
0.0
  0
LINE
  5
683
330
18
100
AcDbEntity
  8
0
  6
DASHED
 62
     5
100
AcDbLine
 10
352.4999999999999
 20
145.0
 30
0.0
 11
352.4999999999999
 21
162.5
 31
0.0
  0
LINE
  5
684
330
18
100
AcDbEntity
  8
0
  6
DASHED
 62
     5
100
AcDbLine
 10
337.5
 20
167.5
 30
0.0
 11
372.5
 21
167.5
 31
0.0
  0
LINE
  5
685
330
18
100
AcDbEntity
  8
0
  6
DASHED
 62
     5
100
AcDbLine
 10
337.5
 20
162.5
 30
0.0
 11
372.5
 21
162.5
 31
0.0
  0
LINE
  5
686
330
18
100
AcDbEntity
  8
0
  6
DASHED
 62
     5
100
AcDbLine
 10
337.5
 20
157.5
 30
0.0
 11
372.5
 21
157.5
 31
0.0
  0
TEXT
  5
687
330
18
100
AcDbEntity
  8
0
  6
DASHED
 62
     5
100
AcDbText
 10
327.4999999999999
 20
166.5191869324845
 30
0.0
 40
2.0
  1
L1(R)
  7
GREEKS
100
AcDbText
  0
TEXT
  5
688
330
18
100
AcDbEntity
  8
0
  6
DASHED
 62
     5
100
AcDbText
 10
327.4999999999999
 20
161.5107571242934
 30
0.0
 40
2.0
  1
L2(S)
  7
GREEKS
100
AcDbText
  0
TEXT
  5
689
330
18
100
AcDbEntity
  8
0
  6
DASHED
 62
     5
100
AcDbText
 10
327.4999999999999
 20
156.4582458299218
 30
0.0
 40
2.0
  1
L3(T)
  7
GREEKS
100
AcDbText
  0
LINE
  5
68A
330
18
100
AcDbEntity
  8
0
  6
DASHED
 62
     5
100
AcDbLine
 10
250.0
 20
110.0
 30
0.0
 11
262.5
 21
110.0
 31
0.0
  0
LINE
  5
68B
330
18
100
AcDbEntity
  8
0
  6
DASHED
 62
     5
100
AcDbLine
 10
345.0
 20
110.0
 30
0.0
 11
345.0
 21
127.5
 31
0.0
  0
LINE
  5
68C
330
18
100
AcDbEntity
  8
0
  6
DASHED
 62
     5
100
AcDbLine
 10
352.4999999999999
 20
127.5
 30
0.0
 11
352.4999999999999
 21
102.4999999999999
 31
0.0
  0
LINE
  5
68D
330
18
100
AcDbEntity
  8
0
  6
DASHED
 62
     5
100
AcDbLine
 10
352.4999999999999
 20
102.4999999999999
 30
0.0
 11
290.0
 21
102.4999999999999
 31
0.0
  0
LINE
  5
68E
330
18
100
AcDbEntity
  8
0
  6
DASHED
 62
     5
100
AcDbLine
 10
290.0
 20
102.4999999999999
 30
0.0
 11
290.0
 21
100.0
 31
0.0
  0
LINE
  5
68F
330
18
100
AcDbEntity
  8
0
  6
DASHED
 62
     5
100
AcDbLine
 10
360.0
 20
127.5
 30
0.0
 11
360.0
 21
95.0
 31
0.0
  0
LINE
  5
690
330
18
100
AcDbEntity
  8
0
  6
DASHED
 62
     5
100
AcDbLine
 10
360.0
 20
95.0
 30
0.0
 11
297.5
 21
95.0
 31
0.0
  0
LINE
  5
691
330
18
100
AcDbEntity
  8
0
  6
DASHED
 62
     5
100
AcDbLine
 10
297.5
 20
95.0
 30
0.0
 11
297.5
 21
80.0
 31
0.0
  0
LINE
  5
692
330
18
100
AcDbEntity
  8
0
  6
DASHED
 62
     5
100
AcDbLine
 10
255.0
 20
100.0
 30
0.0
 11
290.0
 21
100.0
 31
0.0
  0
LINE
  5
693
330
18
100
AcDbEntity
  8
0
  6
DASHED
 62
     5
100
AcDbLine
 10
262.5
 20
90.0
 30
0.0
 11
262.5
 21
80.0
 31
0.0
  0
LINE
  5
694
330
18
100
AcDbEntity
  8
0
  6
DASHED
 62
     5
100
AcDbLine
 10
255.0
 20
120.0
 30
0.0
 11
277.4999999999999
 21
120.0
 31
0.0
  0
LINE
  5
695
330
18
100
AcDbEntity
  8
0
  6
DASHED
 62
     5
100
AcDbLine
 10
267.5
 20
120.0
 30
0.0
 11
267.5
 21
70.0
 31
0.0
  0
LINE
  5
696
330
18
100
AcDbEntity
  8
0
  6
DASHED
 62
     5
100
AcDbLine
 10
255.0
 20
80.0
 30
0.0
 11
297.5
 21
80.0
 31
0.0
  0
TEXT
  5
697
330
18
100
AcDbEntity
  8
0
  6
DASHED
 62
     5
100
AcDbText
 10
256.4565337899228
 20
215.7899534110099
 30
0.0
 40
2.0
  1
1)
  7
ROMANS
100
AcDbText
  0
TEXT
  5
698
330
18
100
AcDbEntity
  8
0
  6
DASHED
 62
     5
100
AcDbText
 10
256.4565337899228
 20
195.7899534110099
 30
0.0
 40
2.0
  1
1)
  7
ROMANS
100
AcDbText
  0
TEXT
  5
699
330
18
100
AcDbEntity
  8
0
  6
DASHED
 62
     5
100
AcDbText
 10
256.4565337899228
 20
175.7899534110099
 30
0.0
 40
2.0
  1
1)
  7
ROMANS
100
AcDbText
  0
TEXT
  5
69A
330
18
100
AcDbEntity
  8
0
  6
DASHED
 62
     5
100
AcDbText
 10
256.4565337899228
 20
154.4176111742709
 30
0.0
 40
2.0
  1
1)
  7
ROMANS
100
AcDbText
  0
TEXT
  5
69B
330
18
100
AcDbEntity
  8
0
  6
DASHED
 62
     5
100
AcDbText
 10
256.4565337899228
 20
120.7899534110099
 30
0.0
 40
2.0
  1
1)
  7
GREEKS
100
AcDbText
  0
TEXT
  5
69C
330
18
100
AcDbEntity
  8
0
  6
DASHED
 62
     5
100
AcDbText
 10
256.4565337899228
 20
100.7899534110099
 30
0.0
 40
2.0
  1
1)
  7
ROMANS
100
AcDbText
  0
TEXT
  5
69D
330
18
100
AcDbEntity
  8
0
  6
DASHED
 62
     5
100
AcDbText
 10
256.4565337899228
 20
80.78995341100997
 30
0.0
 40
2.0
  1
1)
  7
ROMANS
100
AcDbText
  0
TEXT
  5
69E
330
18
100
AcDbEntity
  8
0
  6
DASHED
 62
     5
100
AcDbText
 10
39.71079032877414
 20
52.5
 30
0.0
 40
2.0
  1
DIM. 185 X 210
  7
ROMANS
100
AcDbText
  0
TEXT
  5
69F
330
18
100
AcDbEntity
  8
0
  6
DASHED
 62
     5
100
AcDbText
 10
39.71079032877414
 20
49.16666666666666
 30
0.0
 40
2.0
  1
1MRS10240-AAA
  7
ROMANS
100
AcDbText
  0
TEXT
  5
6A0
330
18
100
AcDbEntity
  8
0
  6
DASHED
 62
     5
100
AcDbText
 10
212.6979640184978
 20
28.0904478318787
 30
0.0
 40
2.0
  1
97/02/15 Marko Rännäli
  7
ROMANS
100
AcDbText
  0
TEXT
  5
6A1
330
18
100
AcDbEntity
  8
0
  6
DASHED
 62
     5
100
AcDbText
 10
317.5
 20
27.5
 30
0.0
 40
2.0
  1
TERMINAL DIAGRAM / UTTAGSSCHEMA
  7
ROMANS
100
AcDbText
  0
TEXT
  5
6A2
330
18
100
AcDbEntity
  8
0
  6
DASHED
 62
     5
100
AcDbText
 10
317.5
 20
24.16666666666666
 30
0.0
 40
2.0
  1
SPAC 534 C /E221
  7
ROMANS
100
AcDbText
  0
TEXT
  5
6A3
330
18
100
AcDbEntity
  8
0
  6
DASHED
 62
     5
100
AcDbText
 10
322.5
 20
2.5
 30
0.0
 40
2.5
  1
1MRS10240-AAA
  7
ROMANS
100
AcDbText
  0
LWPOLYLINE
  5
6A5
330
18
100
AcDbEntity
  8
BASE
  6
Continuous
 62
     5
100
AcDbPolyline
 90
        2
 70
     1
 43
0.5
 10
84.50000000000001
 20
165.0
 42
1.0
 10
85.5
 20
165.0
 42
1.0
  0
LWPOLYLINE
  5
6A9
330
18
100
AcDbEntity
  8
BASE
  6
Continuous
 62
     5
100
AcDbPolyline
 90
        2
 70
     1
 43
0.5
 10
74.5
 20
162.5
 42
1.0
 10
75.5
 20
162.5
 42
1.0
  0
LWPOLYLINE
  5
6AD
330
18
100
AcDbEntity
  8
BASE
  6
Continuous
 62
     5
100
AcDbPolyline
 90
        2
 70
     1
 43
0.5
 10
54.5
 20
138.6444942999506
 42
1.0
 10
55.5
 20
138.6444942999506
 42
1.0
  0
LWPOLYLINE
  5
6B1
330
18
100
AcDbEntity
  8
BASE
  6
Continuous
 62
     5
100
AcDbPolyline
 90
        2
 70
     1
 43
0.5
 10
49.5
 20
151.0551941248279
 42
1.0
 10
50.5
 20
151.0551941248279
 42
1.0
  0
LWPOLYLINE
  5
6B5
330
18
100
AcDbEntity
  8
BASE
  6
Continuous
 62
     5
100
AcDbPolyline
 90
        2
 70
     1
 43
0.5
 10
82.0
 20
171.9724187249253
 42
1.0
 10
83.0
 20
171.9724187249253
 42
1.0
  0
LWPOLYLINE
  5
6B9
330
18
100
AcDbEntity
  8
0
  6
Continuous
 62
     5
100
AcDbPolyline
 90
        2
 70
     1
 43
0.5
 10
259.5
 20
185.0
 42
1.0
 10
260.4999999999999
 20
185.0
 42
1.0
  0
LWPOLYLINE
  5
6BD
330
18
100
AcDbEntity
  8
0
  6
Continuous
 62
     5
100
AcDbPolyline
 90
        2
 70
     1
 43
0.5
 10
259.5
 20
165.0
 42
1.0
 10
260.4999999999999
 20
165.0
 42
1.0
  0
LWPOLYLINE
  5
6C1
330
18
100
AcDbEntity
  8
0
  6
Continuous
 62
     5
100
AcDbPolyline
 90
        2
 70
     1
 43
0.5
 10
274.5
 20
165.0
 42
1.0
 10
275.4999999999999
 20
165.0
 42
1.0
  0
LWPOLYLINE
  5
6C5
330
18
100
AcDbEntity
  8
0
  6
Continuous
 62
     5
100
AcDbPolyline
 90
        2
 70
     1
 43
0.5
 10
274.5
 20
190.1899838838781
 42
1.0
 10
275.4999999999999
 20
190.1899838838781
 42
1.0
  0
LWPOLYLINE
  5
6C9
330
18
100
AcDbEntity
  8
0
  6
Continuous
 62
     5
100
AcDbPolyline
 90
        2
 70
     1
 43
0.5
 10
274.5
 20
170.1899842626011
 42
1.0
 10
275.4999999999999
 20
170.1899842626011
 42
1.0
  0
LWPOLYLINE
  5
6D9
330
18
100
AcDbEntity
  8
0
  6
Continuous
 62
     5
100
AcDbPolyline
 90
        2
 70
     1
 43
0.5
 10
289.4999999999999
 20
245.0
 42
1.0
 10
290.5
 20
245.0
 42
1.0
  0
LWPOLYLINE
  5
6DD
330
18
100
AcDbEntity
  8
0
  6
Continuous
 62
     5
100
AcDbPolyline
 90
        2
 70
     1
 43
0.5
 10
284.5
 20
250.0
 42
1.0
 10
285.5
 20
250.0
 42
1.0
  0
LWPOLYLINE
  5
6E1
330
18
100
AcDbEntity
  8
0
  6
Continuous
 62
     5
100
AcDbPolyline
 90
        2
 70
     1
 43
0.5
 10
279.4999999999999
 20
255.0
 42
1.0
 10
280.5
 20
255.0
 42
1.0
  0
LWPOLYLINE
  5
6E9
330
18
100
AcDbEntity
  8
0
  6
Continuous
 62
     5
100
AcDbPolyline
 90
        2
 70
     1
 43
0.5
 10
344.5
 20
167.5
 42
1.0
 10
345.5
 20
167.5
 42
1.0
  0
LWPOLYLINE
  5
6ED
330
18
100
AcDbEntity
  8
0
  6
Continuous
 62
     5
100
AcDbPolyline
 90
        2
 70
     1
 43
0.5
 10
352.0
 20
162.5
 42
1.0
 10
353.0
 20
162.5
 42
1.0
  0
LWPOLYLINE
  5
6F1
330
18
100
AcDbEntity
  8
0
  6
Continuous
 62
     5
100
AcDbPolyline
 90
        2
 70
     1
 43
0.5
 10
359.5
 20
157.5
 42
1.0
 10
360.4999999999999
 20
157.5
 42
1.0
  0
TEXT
  5
6F7
330
18
100
AcDbEntity
  8
0
  6
Continuous
 62
     5
100
AcDbText
 10
380.0
 20
2.5
 30
0.0
 40
2.5
  1
A
  7
ROMANS
100
AcDbText
  0
LWPOLYLINE
  5
6F9
330
18
100
AcDbEntity
  8
BASE
  6
Continuous
 62
     5
100
AcDbPolyline
 90
        2
 70
     1
 43
0.5
 10
127.0
 20
212.5
 42
1.0
 10
128.0
 20
212.5
 42
1.0
  0
LWPOLYLINE
  5
6FD
330
18
100
AcDbEntity
  8
BASE
  6
Continuous
 62
     5
100
AcDbPolyline
 90
        2
 70
     1
 43
0.5
 10
132.0
 20
197.5
 42
1.0
 10
133.0
 20
197.5
 42
1.0
  0
LWPOLYLINE
  5
701
330
18
100
AcDbEntity
  8
BASE
  6
Continuous
 62
     5
100
AcDbPolyline
 90
        2
 70
     1
 43
0.5
 10
142.0
 20
182.5
 42
1.0
 10
143.0
 20
182.5
 42
1.0
  0
LWPOLYLINE
  5
705
330
18
100
AcDbEntity
  8
BASE
  6
Continuous
 62
     5
100
AcDbPolyline
 90
        2
 70
     1
 43
0.5
 10
47.0
 20
207.5
 42
1.0
 10
48.0
 20
207.5
 42
1.0
  0
LWPOLYLINE
  5
709
330
18
100
AcDbEntity
  8
BASE
  6
Continuous
 62
     5
100
AcDbPolyline
 90
        2
 70
     1
 43
0.5
 10
157.0
 20
152.5
 42
1.0
 10
158.0
 20
152.5
 42
1.0
  0
LWPOLYLINE
  5
70D
330
18
100
AcDbEntity
  8
BASE
  6
Continuous
 62
     5
100
AcDbPolyline
 90
        2
 70
     1
 43
0.5
 10
159.4999999999999
 20
147.5
 42
1.0
 10
160.4999999999999
 20
147.5
 42
1.0
  0
LWPOLYLINE
  5
711
330
18
100
AcDbEntity
  8
BASE
  6
Continuous
 62
     5
100
AcDbPolyline
 90
        2
 70
     1
 43
0.5
 10
162.0
 20
142.5
 42
1.0
 10
163.0
 20
142.5
 42
1.0
  0
LWPOLYLINE
  5
715
330
18
100
AcDbEntity
  8
BASE
  6
Continuous
 62
     5
100
AcDbPolyline
 90
        2
 70
     1
 43
0.5
 10
172.0
 20
160.0
 42
1.0
 10
173.0
 20
160.0
 42
1.0
  0
LWPOLYLINE
  5
719
330
18
100
AcDbEntity
  8
BASE
  6
Continuous
 62
     5
100
AcDbPolyline
 90
        2
 70
     1
 43
0.5
 10
172.0
 20
175.0
 42
1.0
 10
173.0
 20
175.0
 42
1.0
  0
LWPOLYLINE
  5
71D
330
18
100
AcDbEntity
  8
BASE
  6
Continuous
 62
     5
100
AcDbPolyline
 90
        2
 70
     1
 43
0.5
 10
172.0
 20
190.0
 42
1.0
 10
173.0
 20
190.0
 42
1.0
  0
LWPOLYLINE
  5
721
330
18
100
AcDbEntity
  8
BASE
  6
Continuous
 62
     5
100
AcDbPolyline
 90
        2
 70
     1
 43
0.5
 10
172.0
 20
205.0
 42
1.0
 10
173.0
 20
205.0
 42
1.0
  0
LWPOLYLINE
  5
725
330
18
100
AcDbEntity
  8
BASE
  6
Continuous
 62
     5
100
AcDbPolyline
 90
        2
 70
     1
 43
0.5
 10
69.5
 20
202.0662644744748
 42
1.0
 10
70.5
 20
202.0662644744748
 42
1.0
  0
LWPOLYLINE
  5
729
330
18
100
AcDbEntity
  8
BASE
  6
Continuous
 62
     5
100
AcDbPolyline
 90
        2
 70
     1
 43
0.5
 10
72.0
 20
187.01522588401
 42
1.0
 10
73.0
 20
187.01522588401
 42
1.0
  0
LWPOLYLINE
  5
72D
330
18
100
AcDbEntity
  8
BASE
  6
Continuous
 62
     5
100
AcDbPolyline
 90
        2
 70
     1
 43
0.5
 10
119.5
 20
171.9724187249253
 42
1.0
 10
120.5
 20
171.9724187249253
 42
1.0
  0
LWPOLYLINE
  5
731
330
18
100
AcDbEntity
  8
BASE
  6
Continuous
 62
     5
100
AcDbPolyline
 90
        2
 70
     1
 43
0.5
 10
129.4999999999999
 20
202.0662644744748
 42
1.0
 10
130.4999999999999
 20
202.0662644744748
 42
1.0
  0
LWPOLYLINE
  5
735
330
18
100
AcDbEntity
  8
BASE
  6
Continuous
 62
     5
100
AcDbPolyline
 90
        2
 70
     1
 43
0.5
 10
134.4999999999999
 20
187.01522588401
 42
1.0
 10
135.4999999999999
 20
187.01522588401
 42
1.0
  0
LWPOLYLINE
  5
739
330
18
100
AcDbEntity
  8
BASE
  6
Continuous
 62
     5
100
AcDbPolyline
 90
        2
 70
     1
 43
0.5
 10
144.5
 20
171.9724187249254
 42
1.0
 10
145.5
 20
171.9724187249254
 42
1.0
  0
LWPOLYLINE
  5
73D
330
18
100
AcDbEntity
  8
BASE
  6
Continuous
 62
     5
100
AcDbPolyline
 90
        2
 70
     1
 43
0.5
 10
149.5
 20
156.9372739276159
 42
1.0
 10
150.5
 20
156.9372739276159
 42
1.0
  0
LWPOLYLINE
  5
741
330
18
100
AcDbEntity
  8
BASE
  6
Continuous
 62
     5
100
AcDbPolyline
 90
        2
 70
     1
 43
0.5
 10
169.5
 20
193.0008126094277
 42
1.0
 10
170.5
 20
193.0008126094277
 42
1.0
  0
LWPOLYLINE
  5
745
330
18
100
AcDbEntity
  8
BASE
  6
Continuous
 62
     5
100
AcDbPolyline
 90
        2
 70
     1
 43
0.5
 10
169.5
 20
208.0008126094277
 42
1.0
 10
170.5
 20
208.0008126094277
 42
1.0
  0
LWPOLYLINE
  5
749
330
18
100
AcDbEntity
  8
BASE
  6
Continuous
 62
     5
100
AcDbPolyline
 90
        2
 70
     1
 43
0.5
 10
169.5
 20
178.0008126094277
 42
1.0
 10
170.5
 20
178.0008126094277
 42
1.0
  0
LWPOLYLINE
  5
74D
330
18
100
AcDbEntity
  8
BASE
  6
Continuous
 62
     5
100
AcDbPolyline
 90
        2
 70
     1
 43
0.5
 10
169.5
 20
163.0008126094277
 42
1.0
 10
170.5
 20
163.0008126094277
 42
1.0
  0
LWPOLYLINE
  5
751
330
18
100
AcDbEntity
  8
BASE
  6
Continuous
 62
     5
100
AcDbPolyline
 90
        2
 70
     1
 43
0.5
 10
214.5
 20
200.0
 42
1.0
 10
215.5
 20
200.0
 42
1.0
  0
LWPOLYLINE
  5
75A
330
18
100
AcDbEntity
  8
BASE
  6
Continuous
 62
     5
100
AcDbPolyline
 90
        2
 70
     1
 43
0.5
 10
164.5
 20
131.9219120696915
 42
1.0
 10
165.5
 20
131.9219120696915
 42
1.0
  0
LINE
  5
75E
330
18
100
AcDbEntity
  8
0
  6
DASHED
 62
     5
100
AcDbLine
 10
262.5
 20
110.0
 30
0.0
 11
262.5
 21
100.0
 31
0.0
  0
LINE
  5
75F
330
18
100
AcDbEntity
  8
0
  6
DASHED
 62
     5
100
AcDbLine
 10
277.4999999999999
 20
120.0
 30
0.0
 11
277.4999999999999
 21
110.0
 31
0.0
  0
LINE
  5
760
330
18
100
AcDbEntity
  8
0
  6
DASHED
 62
     5
100
AcDbLine
 10
277.4999999999999
 20
110.0
 30
0.0
 11
345.0
 21
110.0
 31
0.0
  0
LWPOLYLINE
  5
761
330
18
100
AcDbEntity
  8
0
  6
Continuous
 62
     5
100
AcDbPolyline
 90
        2
 70
     1
 43
0.5
 10
267.0
 20
120.0
 42
1.0
 10
268.0
 20
120.0
 42
1.0
  0
LWPOLYLINE
  5
765
330
18
100
AcDbEntity
  8
0
  6
Continuous
 62
     5
100
AcDbPolyline
 90
        2
 70
     1
 43
0.5
 10
262.0
 20
100.0
 42
1.0
 10
263.0
 20
100.0
 42
1.0
  0
LWPOLYLINE
  5
769
330
18
100
AcDbEntity
  8
0
  6
Continuous
 62
     5
100
AcDbPolyline
 90
        2
 70
     1
 43
0.5
 10
262.0
 20
80.0
 42
1.0
 10
263.0
 20
80.0
 42
1.0
  0
LWPOLYLINE
  5
76D
330
18
100
AcDbEntity
  8
0
  6
Continuous
 62
     5
100
AcDbPolyline
 90
        2
 70
     1
 43
0.5
 10
222.0
 20
95.0
 42
1.0
 10
223.0
 20
95.0
 42
1.0
  0
TEXT
  5
771
330
18
100
AcDbEntity
  8
0
  6
Continuous
 62
     5
100
AcDbText
 10
295.1953471570531
 20
210.0002205949603
 30
0.0
 40
2.0
  1
P/Q
  7
ROMANS
100
AcDbText
  0
LINE
  5
77A
330
18
100
AcDbEntity
  8
0
  6
Continuous
 62
     5
100
AcDbLine
 10
374.0099776248867
 20
140.1899802196788
 30
0.0
 11
376.6556351167833
 21
140.1899802196788
 31
0.0
  0
LINE
  5
77B
330
18
100
AcDbEntity
  8
0
  6
Continuous
 62
     5
100
AcDbLine
 10
378.4371884861638
 20
139.5862853045997
 30
0.0
 11
378.4371884861638
 21
140.7936751347579
 31
0.0
  0
LINE
  5
77C
330
18
100
AcDbEntity
  8
0
  6
Continuous
 62
     5
100
AcDbLine
 10
377.5496747197325
 20
139.1537874549908
 30
0.0
 11
377.5496747197325
 21
141.2171626125
 31
0.0
  0
LINE
  5
77D
330
18
100
AcDbEntity
  8
0
  6
Continuous
 62
     5
100
AcDbLine
 10
376.6556351167833
 20
138.658217002314
 30
0.0
 11
376.6556351167833
 21
141.7217434370437
 31
0.0
  0
LINE
  5
77E
330
18
100
AcDbEntity
  8
0
  6
Continuous
 62
     5
100
AcDbLine
 10
374.0099776248867
 20
134.9999999999992
 30
0.0
 11
376.6556351167833
 21
134.9999999999992
 31
0.0
  0
LINE
  5
77F
330
18
100
AcDbEntity
  8
0
  6
Continuous
 62
     5
100
AcDbLine
 10
378.4371884861638
 20
134.3963050849201
 30
0.0
 11
378.4371884861638
 21
135.6036949150783
 31
0.0
  0
LINE
  5
780
330
18
100
AcDbEntity
  8
0
  6
Continuous
 62
     5
100
AcDbLine
 10
377.5496747197325
 20
133.9638072353112
 30
0.0
 11
377.5496747197325
 21
136.0271823928203
 31
0.0
  0
LINE
  5
781
330
18
100
AcDbEntity
  8
0
  6
Continuous
 62
     5
100
AcDbLine
 10
376.6556351167833
 20
133.4682367826343
 30
0.0
 11
376.6556351167833
 21
136.5317632173641
 31
0.0
  0
LINE
  5
782
330
18
100
AcDbEntity
  8
0
  6
Continuous
 62
     5
100
AcDbLine
 10
364.8124907357241
 20
222.7740894500053
 30
0.0
 11
365.6993776099446
 21
222.7740894500053
 31
0.0
  0
LINE
  5
783
330
18
100
AcDbEntity
  8
0
  6
Continuous
 62
     5
100
AcDbLine
 10
364.4813863026818
 20
223.3857225368054
 30
0.0
 11
366.0659575179558
 21
223.3857225368054
 31
0.0
  0
LINE
  5
784
330
18
100
AcDbEntity
  8
0
  6
Continuous
 62
     5
100
AcDbLine
 10
365.2973222269647
 20
224.0077847480601
 30
0.0
 11
366.4916632175816
 21
224.0077847480601
 31
0.0
  0
LINE
  5
785
330
18
100
AcDbEntity
  8
0
  6
Continuous
 62
     5
100
AcDbLine
 10
364.1029812363477
 20
224.0077847480601
 30
0.0
 11
365.2973222269647
 21
224.0077847480601
 31
0.0
  0
LINE
  5
786
330
18
100
AcDbEntity
  8
0
  6
Continuous
 62
     5
100
AcDbLine
 10
365.313208914296
 20
225.3620551448211
 30
0.0
 11
365.313208914296
 21
224.0077847480601
 31
0.0
  0
LINE
  5
787
330
18
100
AcDbEntity
  8
0
  6
Continuous
 62
     5
100
AcDbLine
 10
364.8686012596068
 20
232.7203652770786
 30
0.0
 11
365.7554881338273
 21
232.7203652770786
 31
0.0
  0
LINE
  5
788
330
18
100
AcDbEntity
  8
0
  6
Continuous
 62
     5
100
AcDbLine
 10
364.5374968265644
 20
233.3319983638786
 30
0.0
 11
366.1220680418384
 21
233.3319983638786
 31
0.0
  0
LINE
  5
789
330
18
100
AcDbEntity
  8
0
  6
Continuous
 62
     5
100
AcDbLine
 10
365.3534327508474
 20
233.9540605751333
 30
0.0
 11
366.5477737414643
 21
233.9540605751333
 31
0.0
  0
LINE
  5
78A
330
18
100
AcDbEntity
  8
0
  6
Continuous
 62
     5
100
AcDbLine
 10
364.1590917602304
 20
233.9540605751333
 30
0.0
 11
365.3534327508474
 21
233.9540605751333
 31
0.0
  0
LINE
  5
78B
330
18
100
AcDbEntity
  8
0
  6
Continuous
 62
     5
100
AcDbLine
 10
365.3693194381786
 20
235.3083309718944
 30
0.0
 11
365.3693194381786
 21
233.9540605751333
 31
0.0
  0
LINE
  5
794
330
18
100
AcDbEntity
  8
0
  6
Continuous
 62
     5
100
AcDbLine
 10
298.0641791627419
 20
208.0324963767563
 30
0.0
 11
298.0641791627419
 21
198.882668103545
 31
0.0
  0
LINE
  5
796
330
18
100
AcDbEntity
  8
0
  6
Continuous
 62
     5
100
AcDbLine
 10
274.9999999999992
 20
163.4900223751132
 30
0.0
 11
274.9999999999992
 21
160.8443648832166
 31
0.0
  0
LINE
  5
797
330
18
100
AcDbEntity
  8
0
  6
Continuous
 62
     5
100
AcDbLine
 10
274.3963050849201
 20
159.0628115138361
 30
0.0
 11
275.6036949150783
 21
159.0628115138361
 31
0.0
  0
LINE
  5
798
330
18
100
AcDbEntity
  8
0
  6
Continuous
 62
     5
100
AcDbLine
 10
273.9638072353112
 20
159.9503252802674
 30
0.0
 11
276.0271823928203
 21
159.9503252802674
 31
0.0
  0
LINE
  5
799
330
18
100
AcDbEntity
  8
0
  6
Continuous
 62
     5
100
AcDbLine
 10
273.4682367826343
 20
160.8443648832166
 30
0.0
 11
276.531763217364
 21
160.8443648832166
 31
0.0
  0
LINE
  5
79A
330
18
100
AcDbEntity
  8
0
  6
Continuous
 62
     5
100
AcDbLine
 10
227.3899096931446
 20
93.66610286555298
 30
0.0
 11
225.044144180919
 21
95.00145657692176
 31
0.0
  0
LINE
  5
79B
330
18
100
AcDbEntity
  8
0
  6
Continuous
 62
     5
100
AcDbLine
 10
225.044144180919
 20
95.00145657692176
 30
0.0
 11
227.3899096931446
 21
96.19137572566618
 31
0.0
  0
LINE
  5
79C
330
18
100
AcDbEntity
  8
0
  6
Continuous
 62
     5
100
AcDbLine
 10
228.3065228972255
 20
147.2923021821053
 30
0.0
 11
225.9607573849999
 21
148.6276558934741
 31
0.0
  0
LINE
  5
79D
330
18
100
AcDbEntity
  8
0
  6
Continuous
 62
     5
100
AcDbLine
 10
225.9607573849999
 20
148.6276558934741
 30
0.0
 11
228.3065228972255
 21
149.8175750422185
 31
0.0
  0
LINE
  5
79E
330
18
100
AcDbEntity
  8
0
  6
Continuous
 62
     5
100
AcDbLine
 10
226.9897286318399
 20
188.6646349448485
 30
0.0
 11
224.6439631196143
 21
189.9999886562173
 31
0.0
  0
LINE
  5
79F
330
18
100
AcDbEntity
  8
0
  6
Continuous
 62
     5
100
AcDbLine
 10
224.6439631196143
 20
189.9999886562173
 30
0.0
 11
226.9897286318399
 21
191.1899078049617
 31
0.0
  0
LINE
  5
7A0
330
18
100
AcDbEntity
  8
0
  6
Continuous
 62
     5
100
AcDbLine
 10
206.6010926241848
 20
167.7557097232826
 30
0.0
 11
207.4879794984053
 21
167.7557097232826
 31
0.0
  0
LINE
  5
7A1
330
18
100
AcDbEntity
  8
0
  6
Continuous
 62
     5
100
AcDbLine
 10
206.2699881911425
 20
168.3673428100827
 30
0.0
 11
207.8545594064165
 21
168.3673428100827
 31
0.0
  0
LINE
  5
7A2
330
18
100
AcDbEntity
  8
0
  6
Continuous
 62
     5
100
AcDbLine
 10
207.0859241154254
 20
168.9894050213374
 30
0.0
 11
208.2802651060423
 21
168.9894050213374
 31
0.0
  0
LINE
  5
7A3
330
18
100
AcDbEntity
  8
0
  6
Continuous
 62
     5
100
AcDbLine
 10
205.8915831248084
 20
168.9894050213374
 30
0.0
 11
207.0859241154254
 21
168.9894050213374
 31
0.0
  0
LINE
  5
7A4
330
18
100
AcDbEntity
  8
0
  6
Continuous
 62
     5
100
AcDbLine
 10
207.1018108027566
 20
170.3436754180984
 30
0.0
 11
207.1018108027566
 21
168.9894050213374
 31
0.0
  0
LINE
  5
7A5
330
18
100
AcDbEntity
  8
0
  6
Continuous
 62
     5
100
AcDbLine
 10
176.9897286318399
 20
130.5865721211135
 30
0.0
 11
174.6439631196143
 21
131.9219258324823
 31
0.0
  0
LINE
  5
7A6
330
18
100
AcDbEntity
  8
0
  6
Continuous
 62
     5
100
AcDbLine
 10
174.6439631196143
 20
131.9219258324823
 30
0.0
 11
176.9897286318399
 21
133.1118449812267
 31
0.0
  0
LINE
  5
7A7
330
18
100
AcDbEntity
  8
0
  6
Continuous
 62
     5
100
AcDbLine
 10
176.9897286318399
 20
211.1646349448485
 30
0.0
 11
174.6439631196143
 21
212.4999886562173
 31
0.0
  0
LINE
  5
7A8
330
18
100
AcDbEntity
  8
0
  6
Continuous
 62
     5
100
AcDbLine
 10
174.6439631196143
 20
212.4999886562173
 30
0.0
 11
176.9897286318399
 21
213.6899078049617
 31
0.0
  0
LINE
  5
7A9
330
18
100
AcDbEntity
  8
0
  6
Continuous
 62
     5
100
AcDbLine
 10
176.9897286318399
 20
170.6365507443898
 30
0.0
 11
174.6439631196143
 21
171.9719044557585
 31
0.0
  0
LINE
  5
7AA
330
18
100
AcDbEntity
  8
0
  6
Continuous
 62
     5
100
AcDbLine
 10
174.6439631196143
 20
171.9719044557585
 30
0.0
 11
176.9897286318399
 21
173.161823604503
 31
0.0
  0
LINE
  5
7AB
330
18
100
AcDbEntity
  8
0
  6
Continuous
 62
     5
100
AcDbLine
 10
183.9761729734686
 20
170.3827174164591
 30
0.0
 11
184.8630598476892
 21
170.3827174164591
 31
0.0
  0
LINE
  5
7AC
330
18
100
AcDbEntity
  8
0
  6
Continuous
 62
     5
100
AcDbLine
 10
183.6450685404263
 20
170.9943505032591
 30
0.0
 11
185.2296397557003
 21
170.9943505032591
 31
0.0
  0
LINE
  5
7AD
330
18
100
AcDbEntity
  8
0
  6
Continuous
 62
     5
100
AcDbLine
 10
184.4610044647092
 20
171.6164127145138
 30
0.0
 11
185.6553454553262
 21
171.6164127145138
 31
0.0
  0
LINE
  5
7AE
330
18
100
AcDbEntity
  8
0
  6
Continuous
 62
     5
100
AcDbLine
 10
183.2666634740922
 20
171.6164127145138
 30
0.0
 11
184.4610044647092
 21
171.6164127145138
 31
0.0
  0
LINE
  5
7AF
330
18
100
AcDbEntity
  8
0
  6
Continuous
 62
     5
100
AcDbLine
 10
184.4768911520405
 20
172.9706831112749
 30
0.0
 11
184.4768911520405
 21
171.6164127145138
 31
0.0
  0
LINE
  5
7B0
330
18
100
AcDbEntity
  8
0
  6
Continuous
 62
     5
100
AcDbLine
 10
176.9897286318399
 20
151.1646349448485
 30
0.0
 11
174.6439631196143
 21
152.4999886562173
 31
0.0
  0
LINE
  5
7B1
330
18
100
AcDbEntity
  8
0
  6
Continuous
 62
     5
100
AcDbLine
 10
174.6439631196143
 20
152.4999886562173
 30
0.0
 11
176.9897286318399
 21
153.6899078049617
 31
0.0
  0
LINE
  5
7B2
330
18
100
AcDbEntity
  8
0
  6
Continuous
 62
     5
100
AcDbLine
 10
176.9897286318399
 20
141.1646349448485
 30
0.0
 11
174.6439631196143
 21
142.4999886562173
 31
0.0
  0
LINE
  5
7B3
330
18
100
AcDbEntity
  8
0
  6
Continuous
 62
     5
100
AcDbLine
 10
174.6439631196143
 20
142.4999886562173
 30
0.0
 11
176.9897286318399
 21
143.6899078049617
 31
0.0
  0
LINE
  5
7B4
330
18
100
AcDbEntity
  8
0
  6
Continuous
 62
     5
100
AcDbLine
 10
176.9897286318399
 20
146.1646349448485
 30
0.0
 11
174.6439631196143
 21
147.4999886562173
 31
0.0
  0
LINE
  5
7B5
330
18
100
AcDbEntity
  8
0
  6
Continuous
 62
     5
100
AcDbLine
 10
174.6439631196143
 20
147.4999886562173
 30
0.0
 11
176.9897286318399
 21
148.6899078049617
 31
0.0
  0
LINE
  5
7B6
330
18
100
AcDbEntity
  8
0
  6
Continuous
 62
     5
100
AcDbLine
 10
176.9897286318399
 20
155.6017116425238
 30
0.0
 11
174.6439631196143
 21
156.9370653538926
 31
0.0
  0
LINE
  5
7B7
330
18
100
AcDbEntity
  8
0
  6
Continuous
 62
     5
100
AcDbLine
 10
174.6439631196143
 20
156.9370653538926
 30
0.0
 11
176.9897286318399
 21
158.126984502637
 31
0.0
  0
LINE
  5
7B8
330
18
100
AcDbEntity
  8
0
  6
Continuous
 62
     5
100
AcDbLine
 10
176.9897286318399
 20
166.1646349448485
 30
0.0
 11
174.6439631196143
 21
167.4999886562173
 31
0.0
  0
LINE
  5
7B9
330
18
100
AcDbEntity
  8
0
  6
Continuous
 62
     5
100
AcDbLine
 10
174.6439631196143
 20
167.4999886562173
 30
0.0
 11
176.9897286318399
 21
168.6899078049617
 31
0.0
  0
LINE
  5
7BA
330
18
100
AcDbEntity
  8
0
  6
Continuous
 62
     5
100
AcDbLine
 10
183.9761729734686
 20
155.5223504656193
 30
0.0
 11
184.8630598476892
 21
155.5223504656193
 31
0.0
  0
LINE
  5
7BB
330
18
100
AcDbEntity
  8
0
  6
Continuous
 62
     5
100
AcDbLine
 10
183.6450685404263
 20
156.1339835524193
 30
0.0
 11
185.2296397557003
 21
156.1339835524193
 31
0.0
  0
LINE
  5
7BC
330
18
100
AcDbEntity
  8
0
  6
Continuous
 62
     5
100
AcDbLine
 10
184.4610044647092
 20
156.756045763674
 30
0.0
 11
185.6553454553262
 21
156.756045763674
 31
0.0
  0
LINE
  5
7BD
330
18
100
AcDbEntity
  8
0
  6
Continuous
 62
     5
100
AcDbLine
 10
183.2666634740922
 20
156.756045763674
 30
0.0
 11
184.4610044647092
 21
156.756045763674
 31
0.0
  0
LINE
  5
7BE
330
18
100
AcDbEntity
  8
0
  6
Continuous
 62
     5
100
AcDbLine
 10
184.4768911520405
 20
158.1103161604351
 30
0.0
 11
184.4768911520405
 21
156.756045763674
 31
0.0
  0
LINE
  5
7BF
330
18
100
AcDbEntity
  8
0
  6
Continuous
 62
     5
100
AcDbLine
 10
183.9761729734686
 20
165.4841717179617
 30
0.0
 11
184.8630598476892
 21
165.4841717179617
 31
0.0
  0
LINE
  5
7C0
330
18
100
AcDbEntity
  8
0
  6
Continuous
 62
     5
100
AcDbLine
 10
183.6450685404263
 20
166.0958048047618
 30
0.0
 11
185.2296397557003
 21
166.0958048047618
 31
0.0
  0
LINE
  5
7C1
330
18
100
AcDbEntity
  8
0
  6
Continuous
 62
     5
100
AcDbLine
 10
184.4610044647092
 20
166.7178670160164
 30
0.0
 11
185.6553454553262
 21
166.7178670160164
 31
0.0
  0
LINE
  5
7C2
330
18
100
AcDbEntity
  8
0
  6
Continuous
 62
     5
100
AcDbLine
 10
183.2666634740922
 20
166.7178670160164
 30
0.0
 11
184.4610044647092
 21
166.7178670160164
 31
0.0
  0
LINE
  5
7C3
330
18
100
AcDbEntity
  8
0
  6
Continuous
 62
     5
100
AcDbLine
 10
184.4768911520405
 20
168.0721374127775
 30
0.0
 11
184.4768911520405
 21
166.7178670160164
 31
0.0
  0
LINE
  5
7C4
330
18
100
AcDbEntity
  8
0
  6
Continuous
 62
     5
100
AcDbLine
 10
176.9897286318399
 20
181.1646349448485
 30
0.0
 11
174.6439631196143
 21
182.4999886562173
 31
0.0
  0
LINE
  5
7C5
330
18
100
AcDbEntity
  8
0
  6
Continuous
 62
     5
100
AcDbLine
 10
174.6439631196143
 20
182.4999886562173
 30
0.0
 11
176.9897286318399
 21
183.6899078049617
 31
0.0
  0
LINE
  5
7C6
330
18
100
AcDbEntity
  8
0
  6
Continuous
 62
     5
100
AcDbLine
 10
176.9897286318399
 20
185.6798768980012
 30
0.0
 11
174.6439631196143
 21
187.01523060937
 31
0.0
  0
LINE
  5
7C7
330
18
100
AcDbEntity
  8
0
  6
Continuous
 62
     5
100
AcDbLine
 10
174.6439631196143
 20
187.01523060937
 30
0.0
 11
176.9897286318399
 21
188.2051497581144
 31
0.0
  0
LINE
  5
7C8
330
18
100
AcDbEntity
  8
0
  6
Continuous
 62
     5
100
AcDbLine
 10
184.071939829133
 20
180.5005985317625
 30
0.0
 11
184.9588267033536
 21
180.5005985317625
 31
0.0
  0
LINE
  5
7C9
330
18
100
AcDbEntity
  8
0
  6
Continuous
 62
     5
100
AcDbLine
 10
183.7408353960907
 20
181.1122316185626
 30
0.0
 11
185.3254066113647
 21
181.1122316185626
 31
0.0
  0
LINE
  5
7CA
330
18
100
AcDbEntity
  8
0
  6
Continuous
 62
     5
100
AcDbLine
 10
184.5567713203736
 20
181.7342938298173
 30
0.0
 11
185.7511123109906
 21
181.7342938298173
 31
0.0
  0
LINE
  5
7CB
330
18
100
AcDbEntity
  8
0
  6
Continuous
 62
     5
100
AcDbLine
 10
183.3624303297566
 20
181.7342938298173
 30
0.0
 11
184.5567713203736
 21
181.7342938298173
 31
0.0
  0
LINE
  5
7CC
330
18
100
AcDbEntity
  8
0
  6
Continuous
 62
     5
100
AcDbLine
 10
184.5726580077049
 20
183.0885642265783
 30
0.0
 11
184.5726580077049
 21
181.7342938298173
 31
0.0
  0
LINE
  5
7CD
330
18
100
AcDbEntity
  8
0
  6
Continuous
 62
     5
100
AcDbLine
 10
176.9897286318399
 20
200.7316840174749
 30
0.0
 11
174.6439631196143
 21
202.0670377288437
 31
0.0
  0
LINE
  5
7CE
330
18
100
AcDbEntity
  8
0
  6
Continuous
 62
     5
100
AcDbLine
 10
174.6439631196143
 20
202.0670377288437
 30
0.0
 11
176.9897286318399
 21
203.2569568775882
 31
0.0
  0
LINE
  5
7CF
330
18
100
AcDbEntity
  8
0
  6
Continuous
 62
     5
100
AcDbLine
 10
176.9897286318399
 20
196.1646349448485
 30
0.0
 11
174.6439631196143
 21
197.4999886562173
 31
0.0
  0
LINE
  5
7D0
330
18
100
AcDbEntity
  8
0
  6
Continuous
 62
     5
100
AcDbLine
 10
174.6439631196143
 20
197.4999886562173
 30
0.0
 11
176.9897286318399
 21
198.6899078049617
 31
0.0
  0
LINE
  5
7D1
330
18
100
AcDbEntity
  8
0
  6
Continuous
 62
     5
100
AcDbLine
 10
299.4038145416968
 20
201.2383681056848
 30
0.0
 11
298.0684608303281
 21
198.8926025934592
 31
0.0
  0
LINE
  5
7D2
330
18
100
AcDbEntity
  8
0
  6
Continuous
 62
     5
100
AcDbLine
 10
298.0684608303281
 20
198.8926025934592
 30
0.0
 11
296.8785416815837
 21
201.2383681056848
 31
0.0
  0
TEXT
  5
7D4
330
18
100
AcDbEntity
  8
RAAMI
  6
DASHED
100
AcDbText
 10
292.217194262135
 20
11.81335905974098
 30
0.0
 40
3.0
  1
A3
  7
GREEKS
100
AcDbText
  0
TEXT
  5
7D5
330
18
100
AcDbEntity
  8
RAAMI
  6
DASHED
100
AcDbText
 10
351.8185767466981
 20
15.69252984362215
 30
0.0
 40
1.399999999999999
  1
LEHTI SHEET
  7
GREEKS
100
AcDbText
  0
LINE
  5
7D6
330
18
100
AcDbEntity
  8
PAKSU
100
AcDbLine
 10
0.2370990874900258
 20
262.7379992524221
 30
0.0
 11
392.23709908749
 21
262.7379992524221
 31
0.0
  0
LINE
  5
7D7
330
18
100
AcDbEntity
  8
RAAMI
100
AcDbLine
 10
18.23709908749002
 20
0.2379992524221779
 30
0.0
 11
0.2370990874900258
 21
0.2379992524221779
 31
0.0
  0
LINE
  5
7D8
330
18
100
AcDbEntity
  8
PAKSU
100
AcDbLine
 10
209.23709908749
 20
0.2379992524221779
 30
0.0
 11
392.23709908749
 21
0.2379992524221779
 31
0.0
  0
LINE
  5
7D9
330
18
100
AcDbEntity
  8
PAKSU
100
AcDbLine
 10
209.23709908749
 20
0.2379992524221779
 30
0.0
 11
209.23709908749
 21
35.23799925242217
 31
0.0
  0
LINE
  5
7DA
330
18
100
AcDbEntity
  8
PAKSU
100
AcDbLine
 10
392.23709908749
 20
0.2379992524221779
 30
0.0
 11
392.23709908749
 21
35.23799925242217
 31
0.0
  0
LINE
  5
7DB
330
18
100
AcDbEntity
  8
OHUT
100
AcDbLine
 10
209.23709908749
 20
18.23799925242217
 30
0.0
 11
392.23709908749
 21
18.23799925242217
 31
0.0
  0
LINE
  5
7DC
330
18
100
AcDbEntity
  8
OHUT
100
AcDbLine
 10
209.23709908749
 20
9.737999252422177
 30
0.0
 11
392.23709908749
 21
9.737999252422177
 31
0.0
  0
LINE
  5
7DD
330
18
100
AcDbEntity
  8
OHUT
100
AcDbLine
 10
209.23709908749
 20
26.73799925242217
 30
0.0
 11
307.23709908749
 21
26.73799925242217
 31
0.0
  0
LINE
  5
7DE
330
18
100
AcDbEntity
  8
PAKSU
100
AcDbLine
 10
209.23709908749
 20
35.23799925242217
 30
0.0
 11
392.23709908749
 21
35.23799925242217
 31
0.0
  0
TEXT
  5
7DF
330
18
100
AcDbEntity
  8
RAAMI
100
AcDbText
 10
210.23709908749
 20
23.97133258575551
 30
0.0
 40
1.399999999999999
  1
TARKASTI  CHECKED
  7
ROMANS
100
AcDbText
  0
TEXT
  5
7E0
330
18
100
AcDbEntity
  8
RAAMI
100
AcDbText
 10
209.9799338133564
 20
15.70466591908884
 30
0.0
 40
1.399999999999999
  1
HYVÄKSYI  APPROVED
  7
ROMANS
100
AcDbText
  0
LINE
  5
7E1
330
18
100
AcDbEntity
  8
OHUT
100
AcDbLine
 10
307.23709908749
 20
0.2379992524221779
 30
0.0
 11
307.23709908749
 21
35.23799925242217
 31
0.0
  0
TEXT
  5
7E2
330
18
100
AcDbEntity
  8
RAAMI
100
AcDbText
 10
259.23709908749
 20
32.73799925242217
 30
0.0
 40
1.399999999999999
  1
LIITTYY  CONCERNING
  7
ROMANS
100
AcDbText
  0
TEXT
  5
7E3
330
18
100
AcDbEntity
  8
RAAMI
100
AcDbText
 10
259.23709908749
 20
23.73799925242217
 30
0.0
 40
1.399999999999999
  1
TOLERANSSIT  TOLERANCES
  7
ROMANS
100
AcDbText
  0
TEXT
  5
7E4
330
18
100
AcDbEntity
  8
RAAMI
100
AcDbText
 10
259.23709908749
 20
15.73799925242217
 30
0.0
 40
1.399999999999999
  1
SUHDE  SCALE
  7
ROMANS
100
AcDbText
  0
TEXT
  5
7E5
330
18
100
AcDbEntity
  8
RAAMI
100
AcDbText
 10
309.23709908749
 20
32.73799925242217
 30
0.0
 40
1.399999999999999
  1
NIMITYS  NAME
  7
ROMANS
100
AcDbText
  0
TEXT
  5
7E6
330
18
100
AcDbEntity
  8
RAAMI
100
AcDbText
 10
309.23709908749
 20
15.73799925242217
 30
0.0
 40
1.399999999999999
  1
KOODI  CODE
  7
ROMANS
100
AcDbText
  0
TEXT
  5
7E7
330
18
100
AcDbEntity
  8
RAAMI
100
AcDbText
 10
309.23709908749
 20
7.237999252422177
 30
0.0
 40
1.399999999999999
  1
PIIRUSTUS NO  DRAWING NR
  7
ROMANS
100
AcDbText
  0
LINE
  5
7E8
330
18
100
AcDbEntity
  8
OHUT
100
AcDbLine
 10
349.73709908749
 20
9.737999252422177
 30
0.0
 11
349.73709908749
 21
18.23799925242217
 31
0.0
  0
TEXT
  5
7E9
330
18
100
AcDbEntity
  8
RAAMI
100
AcDbText
 10
371.23709908749
 20
7.237999252422177
 30
0.0
 40
1.399999999999999
  1
PAINOS  REVISION
  7
ROMANS
100
AcDbText
  0
LINE
  5
7EA
330
18
100
AcDbEntity
  8
OHUT
100
AcDbLine
 10
369.73709908749
 20
9.737999252422177
 30
0.0
 11
369.73709908749
 21
0.2379992524221779
 31
0.0
  0
LINE
  5
7EB
330
18
100
AcDbEntity
  8
RAAMI
100
AcDbLine
 10
210.18709908749
 20
1.737999252422177
 30
0.0
 11
211.93709908749
 21
1.737999252422177
 31
0.0
  0
LINE
  5
7EC
330
18
100
AcDbEntity
  8
RAAMI
100
AcDbLine
 10
215.43709908749
 20
1.737999252422177
 30
0.0
 11
217.18709908749
 21
1.737999252422177
 31
0.0
  0
LINE
  5
7ED
330
18
100
AcDbEntity
  8
RAAMI
100
AcDbLine
 10
212.63709908749
 20
8.737999252422177
 30
0.0
 11
211.4595712478463
 21
5.373633996297456
 31
0.0
  0
LINE
  5
7EE
330
18
100
AcDbEntity
  8
RAAMI
100
AcDbLine
 10
212.4258857855872
 20
3.137999252422176
 30
0.0
 11
213.54709908749
 21
3.137999252422176
 31
0.0
  0
LINE
  5
7EF
330
18
100
AcDbEntity
  8
RAAMI
100
AcDbLine
 10
212.4258889824527
 20
3.134541809458486
 30
0.0
 11
211.93709908749
 21
1.737999252422177
 31
0.0
  0
LINE
  5
7F0
330
18
100
AcDbEntity
  8
RAAMI
100
AcDbLine
 10
214.73709908749
 20
8.737999252422177
 30
0.0
 11
215.9134520127146
 21
5.376990894637707
 31
0.0
  0
LINE
  5
7F1
330
18
100
AcDbEntity
  8
RAAMI
100
AcDbLine
 10
214.9481967907755
 20
3.134862957320585
 30
0.0
 11
215.43709908749
 21
1.737999252422177
 31
0.0
  0
LINE
  5
7F2
330
18
100
AcDbEntity
  8
RAAMI
100
AcDbLine
 10
214.73709908749
 20
8.737999252422177
 30
0.0
 11
213.82709908749
 21
8.737999252422177
 31
0.0
  0
LINE
  5
7F3
330
18
100
AcDbEntity
  8
RAAMI
100
AcDbLine
 10
213.54709908749
 20
8.737999252422177
 30
0.0
 11
213.54709908749
 21
5.377999252422178
 31
0.0
  0
LINE
  5
7F4
330
18
100
AcDbEntity
  8
RAAMI
100
AcDbLine
 10
213.82709908749
 20
8.737999252422177
 30
0.0
 11
213.82709908749
 21
5.377999252422178
 31
0.0
  0
LINE
  5
7F5
330
18
100
AcDbEntity
  8
RAAMI
100
AcDbLine
 10
213.82709908749
 20
3.137999252422176
 30
0.0
 11
214.9469924809167
 21
3.137999252422176
 31
0.0
  0
LINE
  5
7F6
330
18
100
AcDbEntity
  8
RAAMI
100
AcDbLine
 10
213.54709908749
 20
8.737999252422177
 30
0.0
 11
212.63709908749
 21
8.737999252422177
 31
0.0
  0
LINE
  5
7F7
330
18
100
AcDbEntity
  8
RAAMI
100
AcDbLine
 10
211.4590398011296
 20
5.377999252422178
 30
0.0
 11
213.54709908749
 21
5.377999252422178
 31
0.0
  0
LINE
  5
7F8
330
18
100
AcDbEntity
  8
RAAMI
100
AcDbLine
 10
211.3600815769602
 20
5.097999252422177
 30
0.0
 11
213.54709908749
 21
5.097999252422177
 31
0.0
  0
LINE
  5
7F9
330
18
100
AcDbEntity
  8
RAAMI
100
AcDbLine
 10
216.0115910012183
 20
5.096593784627025
 30
0.0
 11
217.18709908749
 21
1.737999252422177
 31
0.0
  0
LINE
  5
7FA
330
18
100
AcDbEntity
  8
RAAMI
100
AcDbLine
 10
213.82709908749
 20
5.377999252422178
 30
0.0
 11
215.9122127349171
 21
5.377999252422178
 31
0.0
  0
LINE
  5
7FB
330
18
100
AcDbEntity
  8
RAAMI
100
AcDbLine
 10
213.82709908749
 20
5.097999252422177
 30
0.0
 11
216.0103556182099
 21
5.097999252422177
 31
0.0
  0
LINE
  5
7FC
330
18
100
AcDbEntity
  8
RAAMI
100
AcDbLine
 10
213.82709908749
 20
5.097999252422177
 30
0.0
 11
213.82709908749
 21
3.137999252422176
 31
0.0
  0
LINE
  5
7FD
330
18
100
AcDbEntity
  8
RAAMI
100
AcDbLine
 10
213.54709908749
 20
5.097999252422177
 30
0.0
 11
213.54709908749
 21
3.137999252422176
 31
0.0
  0
LINE
  5
7FE
330
18
100
AcDbEntity
  8
RAAMI
100
AcDbLine
 10
211.3569877289154
 20
5.080538227923291
 30
0.0
 11
210.18709908749
 21
1.737999252422177
 31
0.0
  0
INSERT
  5
7FF
330
18
100
AcDbEntity
  8
RAAMI
100
AcDbBlockReference
  2
*X14
 10
210.18709908749
 20
1.737999252422177
 30
0.0
 41
0.7
 42
0.7
 43
0.7
  0
INSERT
  5
800
330
18
100
AcDbEntity
  8
RAAMI
100
AcDbBlockReference
  2
*X15
 10
210.18709908749
 20
1.737999252422177
 30
0.0
 41
0.7
 42
0.7
 43
0.7
  0
INSERT
  5
801
330
18
100
AcDbEntity
  8
RAAMI
100
AcDbBlockReference
  2
*X16
 10
210.18709908749
 20
1.737999252422177
 30
0.0
 41
0.7
 42
0.7
 43
0.7
  0
INSERT
  5
802
330
18
100
AcDbEntity
  8
RAAMI
100
AcDbBlockReference
  2
*X17
 10
210.18709908749
 20
1.737999252422177
 30
0.0
 41
0.7
 42
0.7
 43
0.7
  0
LINE
  5
803
330
18
100
AcDbEntity
  8
RAAMI
100
AcDbLine
 10
217.67709908749
 20
1.737999252422177
 30
0.0
 11
217.67709908749
 21
5.097999252422177
 31
0.0
  0
LINE
  5
804
330
18
100
AcDbEntity
  8
RAAMI
100
AcDbLine
 10
217.67709908749
 20
8.737999252422177
 30
0.0
 11
219.63709908749
 21
8.737999252422177
 31
0.0
  0
LINE
  5
805
330
18
100
AcDbEntity
  8
RAAMI
100
AcDbLine
 10
219.63709908749
 20
8.737999252422177
 30
0.0
 11
219.63709908749
 21
5.377999252422178
 31
0.0
  0
LINE
  5
806
330
18
100
AcDbEntity
  8
RAAMI
100
AcDbLine
 10
219.63709908749
 20
5.377999252422178
 30
0.0
 11
217.67709908749
 21
5.377999252422178
 31
0.0
  0
LINE
  5
807
330
18
100
AcDbEntity
  8
RAAMI
100
AcDbLine
 10
217.67709908749
 20
5.097999252422177
 30
0.0
 11
219.63709908749
 21
5.097999252422177
 31
0.0
  0
LINE
  5
808
330
18
100
AcDbEntity
  8
RAAMI
100
AcDbLine
 10
219.63709908749
 20
5.097999252422177
 30
0.0
 11
219.63709908749
 21
1.737999252422177
 31
0.0
  0
LINE
  5
809
330
18
100
AcDbEntity
  8
RAAMI
100
AcDbLine
 10
219.63709908749
 20
1.737999252422177
 30
0.0
 11
217.67709908749
 21
1.737999252422177
 31
0.0
  0
LINE
  5
80A
330
18
100
AcDbEntity
  8
RAAMI
100
AcDbLine
 10
217.67709908749
 20
5.377999252422178
 30
0.0
 11
217.67709908749
 21
8.737999252422177
 31
0.0
  0
ARC
  5
80B
330
18
100
AcDbEntity
  8
RAAMI
100
AcDbCircle
 10
220.47709908749
 20
7.162999252422174
 30
0.0
 40
1.574999999999998
100
AcDbArc
 50
298.4558593394117
 51
90.0524369955635
  0
LINE
  5
80C
330
18
100
AcDbEntity
  8
RAAMI
100
AcDbLine
 10
219.91709908749
 20
8.737999252422177
 30
0.0
 11
220.4756576504909
 21
8.737998592821838
 31
0.0
  0
LINE
  5
80D
330
18
100
AcDbEntity
  8
RAAMI
100
AcDbLine
 10
219.91709908749
 20
8.737999252422177
 30
0.0
 11
219.91709908749
 21
5.377999252422178
 31
0.0
  0
LINE
  5
80E
330
18
100
AcDbEntity
  8
RAAMI
100
AcDbLine
 10
219.91709908749
 20
5.377999252422178
 30
0.0
 11
221.9015418540271
 21
5.377999252422178
 31
0.0
  0
LINE
  5
80F
330
18
100
AcDbEntity
  8
RAAMI
100
AcDbLine
 10
222.15709908749
 20
5.097999252422177
 30
0.0
 11
219.91709908749
 21
5.097999252422177
 31
0.0
  0
LINE
  5
810
330
18
100
AcDbEntity
  8
RAAMI
100
AcDbLine
 10
219.91709908749
 20
5.097999252422177
 30
0.0
 11
219.91709908749
 21
1.737999252422177
 31
0.0
  0
ARC
  5
811
330
18
100
AcDbEntity
  8
RAAMI
100
AcDbCircle
 10
220.47709908749
 20
3.837999252422179
 30
0.0
 40
2.099999999999998
100
AcDbArc
 50
269.9377244294032
 51
37.05655321680703
  0
LINE
  5
812
330
18
100
AcDbEntity
  8
RAAMI
100
AcDbLine
 10
219.91709908749
 20
1.737999252422177
 30
0.0
 11
220.4748165690634
 21
1.738000492872633
 31
0.0
  0
ARC
  5
813
330
18
100
AcDbEntity
  8
RAAMI
100
AcDbCircle
 10
220.47709908749
 20
3.837999252422179
 30
0.0
 40
2.099999999999998
100
AcDbArc
 50
47.28621969132301
 51
68.78799932186918
  0
INSERT
  5
814
330
18
100
AcDbEntity
  8
RAAMI
100
AcDbBlockReference
  2
*X18
 10
210.18709908749
 20
1.737999252422177
 30
0.0
 41
0.7
 42
0.7
 43
0.7
  0
INSERT
  5
815
330
18
100
AcDbEntity
  8
RAAMI
100
AcDbBlockReference
  2
*X19
 10
210.18709908749
 20
1.737999252422177
 30
0.0
 41
0.7
 42
0.7
 43
0.7
  0
INSERT
  5
816
330
18
100
AcDbEntity
  8
RAAMI
100
AcDbBlockReference
  2
*X20
 10
210.18709908749
 20
1.737999252422177
 30
0.0
 41
0.7
 42
0.7
 43
0.7
  0
INSERT
  5
817
330
18
100
AcDbEntity
  8
RAAMI
100
AcDbBlockReference
  2
*X21
 10
210.18709908749
 20
1.737999252422177
 30
0.0
 41
0.7
 42
0.7
 43
0.7
  0
INSERT
  5
818
330
18
100
AcDbEntity
  8
RAAMI
100
AcDbBlockReference
  2
*X21
 10
215.64709908749
 20
1.737999252422177
 30
0.0
 41
0.7
 42
0.7
 43
0.7
  0
INSERT
  5
819
330
18
100
AcDbEntity
  8
RAAMI
100
AcDbBlockReference
  2
*X20
 10
215.64709908749
 20
1.737999252422177
 30
0.0
 41
0.7
 42
0.7
 43
0.7
  0
INSERT
  5
81A
330
18
100
AcDbEntity
  8
RAAMI
100
AcDbBlockReference
  2
*X19
 10
215.64709908749
 20
1.737999252422177
 30
0.0
 41
0.7
 42
0.7
 43
0.7
  0
INSERT
  5
81B
330
18
100
AcDbEntity
  8
RAAMI
100
AcDbBlockReference
  2
*X18
 10
215.64709908749
 20
1.737999252422177
 30
0.0
 41
0.7
 42
0.7
 43
0.7
  0
ARC
  5
81C
330
18
100
AcDbEntity
  8
RAAMI
100
AcDbCircle
 10
225.93709908749
 20
3.837999252422179
 30
0.0
 40
2.099999999999998
100
AcDbArc
 50
47.28621969132301
 51
68.78799932186918
  0
LINE
  5
81D
330
18
100
AcDbEntity
  8
RAAMI
100
AcDbLine
 10
225.37709908749
 20
1.737999252422177
 30
0.0
 11
225.9348165690634
 21
1.738000492872633
 31
0.0
  0
ARC
  5
81E
330
18
100
AcDbEntity
  8
RAAMI
100
AcDbCircle
 10
225.93709908749
 20
3.837999252422179
 30
0.0
 40
2.099999999999998
100
AcDbArc
 50
269.9377244294032
 51
37.05655321680703
  0
LINE
  5
81F
330
18
100
AcDbEntity
  8
RAAMI
100
AcDbLine
 10
225.37709908749
 20
5.097999252422177
 30
0.0
 11
225.37709908749
 21
1.737999252422177
 31
0.0
  0
LINE
  5
820
330
18
100
AcDbEntity
  8
RAAMI
100
AcDbLine
 10
227.61709908749
 20
5.097999252422177
 30
0.0
 11
225.37709908749
 21
5.097999252422177
 31
0.0
  0
LINE
  5
821
330
18
100
AcDbEntity
  8
RAAMI
100
AcDbLine
 10
225.37709908749
 20
5.377999252422178
 30
0.0
 11
227.3615418540271
 21
5.377999252422178
 31
0.0
  0
LINE
  5
822
330
18
100
AcDbEntity
  8
RAAMI
100
AcDbLine
 10
225.37709908749
 20
8.737999252422177
 30
0.0
 11
225.37709908749
 21
5.377999252422178
 31
0.0
  0
LINE
  5
823
330
18
100
AcDbEntity
  8
RAAMI
100
AcDbLine
 10
225.37709908749
 20
8.737999252422177
 30
0.0
 11
225.9356576504909
 21
8.737998592821838
 31
0.0
  0
ARC
  5
824
330
18
100
AcDbEntity
  8
RAAMI
100
AcDbCircle
 10
225.93709908749
 20
7.162999252422174
 30
0.0
 40
1.574999999999998
100
AcDbArc
 50
298.4558593394117
 51
90.0524369955635
  0
LINE
  5
825
330
18
100
AcDbEntity
  8
RAAMI
100
AcDbLine
 10
223.13709908749
 20
5.377999252422178
 30
0.0
 11
223.13709908749
 21
8.737999252422177
 31
0.0
  0
LINE
  5
826
330
18
100
AcDbEntity
  8
RAAMI
100
AcDbLine
 10
225.09709908749
 20
1.737999252422177
 30
0.0
 11
223.13709908749
 21
1.737999252422177
 31
0.0
  0
LINE
  5
827
330
18
100
AcDbEntity
  8
RAAMI
100
AcDbLine
 10
225.09709908749
 20
5.097999252422177
 30
0.0
 11
225.09709908749
 21
1.737999252422177
 31
0.0
  0
LINE
  5
828
330
18
100
AcDbEntity
  8
RAAMI
100
AcDbLine
 10
223.13709908749
 20
5.097999252422177
 30
0.0
 11
225.09709908749
 21
5.097999252422177
 31
0.0
  0
LINE
  5
829
330
18
100
AcDbEntity
  8
RAAMI
100
AcDbLine
 10
225.09709908749
 20
5.377999252422178
 30
0.0
 11
223.13709908749
 21
5.377999252422178
 31
0.0
  0
LINE
  5
82A
330
18
100
AcDbEntity
  8
RAAMI
100
AcDbLine
 10
225.09709908749
 20
8.737999252422177
 30
0.0
 11
225.09709908749
 21
5.377999252422178
 31
0.0
  0
LINE
  5
82B
330
18
100
AcDbEntity
  8
RAAMI
100
AcDbLine
 10
223.13709908749
 20
8.737999252422177
 30
0.0
 11
225.09709908749
 21
8.737999252422177
 31
0.0
  0
LINE
  5
82C
330
18
100
AcDbEntity
  8
RAAMI
100
AcDbLine
 10
223.13709908749
 20
1.737999252422177
 30
0.0
 11
223.13709908749
 21
5.097999252422177
 31
0.0
  0
TEXT
  5
82D
330
18
100
AcDbEntity
  8
RAAMI
100
AcDbText
 10
229.73709908749
 20
1.737999252422177
 30
0.0
 40
3.0
  1
ABB Transmit Oy
 41
0.8
  7
ROMANS
100
AcDbText
  0
LINE
  5
82F
330
18
100
AcDbEntity
  8
OHUT
100
AcDbLine
 10
282.23709908749
 20
9.737999252422177
 30
0.0
 11
282.23709908749
 21
18.23799925242217
 31
0.0
  0
TEXT
  5
830
330
18
100
AcDbEntity
  8
RAAMI
100
AcDbText
 10
27.73709908749002
 20
4.737999252422177
 30
0.0
 40
1.399999999999999
  1
MUUTOS
  7
ROMANS
100
AcDbText
  0
TEXT
  5
831
330
18
100
AcDbEntity
  8
RAAMI
100
AcDbText
 10
27.73709908749002
 20
2.471332585755512
 30
0.0
 40
1.399999999999999
  1
REVISION
  7
ROMANS
100
AcDbText
  0
LINE
  5
832
330
18
100
AcDbEntity
  8
OHUT
100
AcDbLine
 10
46.73709908749002
 20
9.237999252422177
 30
0.0
 11
209.23709908749
 21
9.237999252422177
 31
0.0
  0
LINE
  5
833
330
18
100
AcDbEntity
  8
OHUT
100
AcDbLine
 10
46.73709908749002
 20
0.2379992524221779
 30
0.0
 11
46.73709908749002
 21
9.237999252422177
 31
0.0
  0
LINE
  5
834
330
18
100
AcDbEntity
  8
OHUT
100
AcDbLine
 10
40.73709908749002
 20
4.737999252422177
 30
0.0
 11
209.23709908749
 21
4.737999252422177
 31
0.0
  0
LINE
  5
835
330
18
100
AcDbEntity
  8
OHUT
100
AcDbLine
 10
257.23709908749
 20
9.737999252422177
 30
0.0
 11
257.23709908749
 21
35.23799925242217
 31
0.0
  0
LINE
  5
836
330
18
100
AcDbEntity
  8
OHUT
100
AcDbLine
 10
271.23709908749
 20
9.737999252422177
 30
0.0
 11
271.23709908749
 21
0.2379992524221779
 31
0.0
  0
TEXT
  5
837
330
18
100
AcDbEntity
  8
RAAMI
100
AcDbText
 10
210.23709908749
 20
32.23799925242218
 30
0.0
 40
1.399999999999999
  1
TEKI  PREPARED
  7
ROMANS
100
AcDbText
  0
TEXT
  5
838
330
18
100
AcDbEntity
  8
RAAMI
100
AcDbText
 10
273.23709908749
 20
7.237999252422177
 30
0.0
 40
1.399999999999999
  1
VAST.OSASTO RESP.DEPT.
  7
ROMANS
100
AcDbText
  0
TEXT
  5
83A
330
18
100
AcDbEntity
  8
RAAMI
100
AcDbText
 10
42.23709908749002
 20
1.195292064563767
 30
0.0
 40
2.5
  1
B
  7
ROMANS
100
AcDbText
  0
TEXT
  5
83B
330
18
100
AcDbEntity
  8
RAAMI
100
AcDbText
 10
42.23709908749002
 20
5.587508451304787
 30
0.0
 40
2.5
  1
C
  7
ROMANS
100
AcDbText
  0
LINE
  5
83C
330
18
100
AcDbEntity
  8
PAKSU
100
AcDbLine
 10
0.2370990874900258
 20
0.2379992524221779
 30
0.0
 11
392.23709908749
 21
0.2379992524221779
 31
0.0
  0
LINE
  5
83D
330
18
100
AcDbEntity
  8
PAKSU
100
AcDbLine
 10
392.23709908749
 20
262.7379992524221
 30
0.0
 11
392.23709908749
 21
0.2379992524221779
 31
0.0
  0
LINE
  5
83E
330
18
100
AcDbEntity
  8
PAKSU
100
AcDbLine
 10
0.2370990874900258
 20
0.2379992524221779
 30
0.0
 11
0.2370990874900258
 21
262.7379992524221
 31
0.0
  0
TEXT
  5
83F
330
18
100
AcDbEntity
  8
0
  6
DASHED
 62
     5
100
AcDbText
 10
282.6392619895027
 20
2.5
 30
0.0
 40
2.5
  1
RSG
  7
ROMANS
100
AcDbText
  0
TEXT
  5
840
330
18
100
AcDbEntity
  8
0
  6
DASHED
 62
     5
100
AcDbText
 10
212.6979640184978
 20
19.55459033138516
 30
0.0
 40
2.0
  1
Markku Niemi
  7
ROMANS
100
AcDbText
  0
TEXT
  5
841
330
18
100
AcDbEntity
  8
0
  6
DASHED
 62
     5
100
AcDbText
 10
212.6979640184978
 20
11.01873283089174
 30
0.0
 40
2.0
  1
Timo Kasi
  7
ROMANS
100
AcDbText
  0
TEXT
  5
842
330
18
100
AcDbEntity
  8
0
  6
Continuous
 62
     5
100
AcDbText
 10
347.3378984344889
 20
61.25105391561892
 30
0.0
 40
2.0
  1

  7
ROMANS
100
AcDbText
  0
TEXT
  5
843
330
18
100
AcDbEntity
  8
0
  6
Continuous
 62
     5
100
AcDbText
 10
360.6591188001908
 20
61.17909244151114
 30
0.0
 40
2.0
  1
25-27
  7
ROMANS
100
AcDbText
  0
TEXT
  5
844
330
18
100
AcDbEntity
  8
0
  6
Continuous
 62
     5
100
AcDbText
 10
375.7991176697698
 20
61.17909244151114
 30
0.0
 40
2.0
  1
25-26
  7
ROMANS
100
AcDbText
  0
LINE
  5
845
330
18
100
AcDbEntity
  8
BASE
  6
Continuous
 62
     5
100
AcDbLine
 10
191.0508770567911
 20
171.7975938091855
 30
0.0
 11
198.8390820836234
 21
171.7975938091855
 31
0.0
  0
LINE
  5
846
330
18
100
AcDbEntity
  8
BASE
  6
Continuous
 62
     5
100
AcDbLine
 10
195.8804286937068
 20
173.9957565818673
 30
0.0
 11
196.7811054655173
 21
172.8720075334889
 31
0.0
  0
ARC
  5
847
330
18
100
AcDbEntity
  8
BASE
  6
HIDDEN
 62
     5
100
AcDbCircle
 10
197.7457449120744
 20
175.7261380082619
 30
0.0
 40
4.998195985283786
100
AcDbArc
 50
206.402921519098
 51
282.2111496748031
  0
LINE
  5
848
330
18
100
AcDbEntity
  8
BASE
  6
Continuous
 62
     5
100
AcDbLine
 10
193.4350214527601
 20
170.629991139407
 30
0.0
 11
196.3111321526593
 21
173.4585497197157
 31
0.0
  0
LINE
  5
849
330
18
100
AcDbEntity
  8
BASE
  6
Continuous
 62
     5
100
AcDbLine
 10
191.0198453360816
 20
172.6428723616732
 30
0.0
 11
191.0198453360816
 21
170.8547409490827
 31
0.0
  0
LINE
  5
84A
330
18
100
AcDbEntity
  8
BASE
  6
Continuous
 62
     5
100
AcDbLine
 10
198.8345408562025
 20
172.6428723616732
 30
0.0
 11
198.8345408562025
 21
170.8547409490827
 31
0.0
  0
TEXT
  5
84B
330
18
100
AcDbEntity
  8
BASE
  6
Continuous
 62
     5
100
AcDbText
 10
347.7717314544481
 20
61.11147554050202
 30
0.0
 40
2.5
  1
I
  7
GREEKS
100
AcDbText
  0
LINE
  5
84C
330
18
100
AcDbEntity
  8
0
  6
Continuous
 62
     5
100
AcDbLine
 10
350.5038353451697
 20
60.83582615938053
 30
0.0
 11
352.0884065604437
 21
60.83582615938053
 31
0.0
  0
LINE
  5
84D
330
18
100
AcDbEntity
  8
0
  6
Continuous
 62
     5
100
AcDbLine
 10
351.3197712694526
 20
61.4578883706352
 30
0.0
 11
352.5141122600695
 21
61.4578883706352
 31
0.0
  0
LINE
  5
84E
330
18
100
AcDbEntity
  8
0
  6
Continuous
 62
     5
100
AcDbLine
 10
350.834939778212
 20
60.22419307258044
 30
0.0
 11
351.7218266524325
 21
60.22419307258044
 31
0.0
  0
LINE
  5
84F
330
18
100
AcDbEntity
  8
0
  6
Continuous
 62
     5
100
AcDbLine
 10
350.1254302788356
 20
61.4578883706352
 30
0.0
 11
351.3197712694526
 21
61.4578883706352
 31
0.0
  0
LINE
  5
850
330
18
100
AcDbEntity
  8
0
  6
Continuous
 62
     5
100
AcDbLine
 10
351.3356579567838
 20
62.81215876739628
 30
0.0
 11
351.3356579567838
 21
61.4578883706352
 31
0.0
  0
LINE
  5
851
330
18
100
AcDbEntity
  8
0
  6
Continuous
 62
     5
100
AcDbLine
 10
361.3592912925636
 20
229.5321246175397
 30
0.0
 11
369.1474963193959
 21
229.5321246175397
 31
0.0
  0
ARC
  5
852
330
18
100
AcDbEntity
  8
0
  6
HIDDEN
 62
     5
100
AcDbCircle
 10
368.0541591478469
 20
233.4606688166161
 30
0.0
 40
4.998195985283786
100
AcDbArc
 50
206.402921519098
 51
282.2111496748031
  0
LINE
  5
853
330
18
100
AcDbEntity
  8
0
  6
Continuous
 62
     5
100
AcDbLine
 10
363.7434356885327
 20
228.3645219477612
 30
0.0
 11
366.6195463884319
 21
231.1930805280698
 31
0.0
  0
LINE
  5
854
330
18
100
AcDbEntity
  8
0
  6
Continuous
 62
     5
100
AcDbLine
 10
361.3282595718541
 20
230.3774031700274
 30
0.0
 11
361.3282595718541
 21
228.5892717574369
 31
0.0
  0
LINE
  5
855
330
18
100
AcDbEntity
  8
0
  6
Continuous
 62
     5
100
AcDbLine
 10
369.142955091975
 20
230.3774031700274
 30
0.0
 11
369.142955091975
 21
228.5892717574369
 31
0.0
  0
LINE
  5
856
330
18
100
AcDbEntity
  8
0
  6
Continuous
 62
     5
100
AcDbLine
 10
366.1888429294793
 20
231.7302873902215
 30
0.0
 11
367.0895197012898
 21
230.6065383418431
 31
0.0
  0
LWPOLYLINE
  5
860
330
18
100
AcDbEntity
  8
0
  6
Continuous
 62
     5
100
AcDbPolyline
 90
        2
 70
     1
 43
0.5
 10
268.3682297074858
 20
143.658847142555
 42
1.0
 10
269.3682297074858
 20
143.658847142555
 42
1.0
  0
LINE
  5
864
330
18
100
AcDbEntity
  8
0
  6
Continuous
 62
     5
100
AcDbLine
 10
268.868229707485
 20
142.1488695176682
 30
0.0
 11
268.868229707485
 21
139.5032120257716
 31
0.0
  0
LINE
  5
865
330
18
100
AcDbEntity
  8
0
  6
Continuous
 62
     5
100
AcDbLine
 10
267.3364664901201
 20
139.5032120257716
 30
0.0
 11
270.3999929248499
 21
139.5032120257716
 31
0.0
  0
LINE
  5
866
330
18
100
AcDbEntity
  8
0
  6
Continuous
 62
     5
100
AcDbLine
 10
267.8320369427971
 20
138.6091724228224
 30
0.0
 11
269.8954121003061
 21
138.6091724228224
 31
0.0
  0
LINE
  5
867
330
18
100
AcDbEntity
  8
0
  6
Continuous
 62
     5
100
AcDbLine
 10
268.2645347924059
 20
137.7216586563911
 30
0.0
 11
269.4719246225641
 21
137.7216586563911
 31
0.0
  0
INSERT
  5
86A
330
18
100
AcDbEntity
  8
0
  6
Continuous
 62
     5
100
AcDbBlockReference
  2
BLC27
 10
286.465783058483
 20
145.9948140100413
 30
0.0
 50
180.0
  0
LINE
  5
86B
330
18
100
AcDbEntity
  8
SWEDEN2
  6
DASHED
100
AcDbLine
 10
268.905155759662
 20
153.627657763261
 30
0.0
 11
268.905155759662
 21
148.3080991623302
 31
0.0
  0
LINE
  5
86C
330
18
100
AcDbEntity
  8
SWEDEN2
  6
DASHED
100
AcDbLine
 10
268.905155759662
 20
148.3080991623302
 30
0.0
 11
284.9746227680178
 21
148.3080991623302
 31
0.0
  0
LINE
  5
86D
330
18
100
AcDbEntity
  8
SWEDEN2
100
AcDbLine
 10
280.0
 20
162.5
 30
0.0
 11
290.0491916695324
 21
162.5
 31
0.0
  0
LINE
  5
86E
330
18
100
AcDbEntity
  8
SWEDEN2
100
AcDbLine
 10
282.4373388228778
 20
162.465101728559
 30
0.0
 11
284.9746227680178
 21
158.8730262770836
 31
0.0
  0
LINE
  5
86F
330
18
100
AcDbEntity
  8
SWEDEN2
100
AcDbLine
 10
287.5119067131578
 20
162.465101728559
 30
0.0
 11
284.9746227680178
 21
158.8730262770836
 31
0.0
  0
LINE
  5
870
330
18
100
AcDbEntity
  8
SWEDEN2
100
AcDbLine
 10
284.9746227680178
 20
158.8730262770836
 30
0.0
 11
284.9746227680178
 21
137.7431720475766
 31
0.0
  0
LINE
  5
871
330
18
100
AcDbEntity
  8
SWEDEN2
  6
DASHED
100
AcDbLine
 10
282.4373388228778
 20
162.465101728559
 30
0.0
 11
282.4373388228778
 21
139.4335604593453
 31
0.0
  0
LINE
  5
872
330
18
100
AcDbEntity
  8
0
  6
Continuous
 62
     5
100
AcDbLine
 10
280.868649553336
 20
139.5032120257716
 30
0.0
 11
283.9321759880657
 21
139.5032120257716
 31
0.0
  0
LINE
  5
873
330
18
100
AcDbEntity
  8
0
  6
Continuous
 62
     5
100
AcDbLine
 10
281.3642200060129
 20
138.6091724228224
 30
0.0
 11
283.427595163522
 21
138.6091724228224
 31
0.0
  0
LINE
  5
874
330
18
100
AcDbEntity
  8
0
  6
Continuous
 62
     5
100
AcDbLine
 10
281.7967178556218
 20
137.7216586563911
 30
0.0
 11
283.00410768578
 21
137.7216586563911
 31
0.0
  0
LWPOLYLINE
  5
875
330
18
100
AcDbEntity
  8
0
  6
Continuous
 62
     5
100
AcDbPolyline
 90
        2
 70
     1
 43
0.5
 10
281.9403907292211
 20
162.4925453650785
 42
1.0
 10
282.9403907292211
 20
162.4925453650785
 42
1.0
  0
LINE
  5
879
330
18
100
AcDbEntity
  8
SWEDEN2
100
AcDbLine
 10
284.9535481334939
 20
145.9678074403197
 30
0.0
 11
282.4373388228778
 21
145.9678074403197
 31
0.0
  0
LINE
  5
87B
330
18
100
AcDbEntity
  8
SWEDEN2
100
AcDbLine
 10
222.4999999999999
 20
170.5702784042931
 30
0.0
 11
222.4999999999999
 21
148.7306964182059
 31
0.0
  0
LINE
  5
87C
330
18
100
AcDbEntity
  8
SWEDEN2
100
AcDbLine
 10
222.4999999999999
 20
148.7306964182059
 30
0.0
 11
230.0001281888729
 21
148.7306964182059
 31
0.0
  0
LINE
  5
87D
330
18
100
AcDbEntity
  8
SWEDEN2
  6
DASHED
100
AcDbLine
 10
284.9746227680178
 20
137.7431720475766
 30
0.0
 11
284.9746227680178
 21
130.1364245004848
 31
0.0
  0
ENDSEC
  0
SECTION
  2
OBJECTS
  0
DICTIONARY
  5
C
330
0
100
AcDbDictionary
281
     1
  3
ACAD_GROUP
350
D
  3
ACAD_LAYOUT
350
883
  3
ACAD_MLINESTYLE
350
E
  3
ACAD_PLOTSETTINGS
350
884
  3
ACAD_PLOTSTYLENAME
350
881
  3
AcDbVariableDictionary
350
88D
  0
DICTIONARY
  5
D
102
{ACAD_REACTORS
330
C
102
}
330
C
100
AcDbDictionary
281
     1
  0
DICTIONARY
  5
883
102
{ACAD_REACTORS
330
C
102
}
330
C
100
AcDbDictionary
281
     1
  3
Layout1
350
886
  3
Model
350
885
  0
DICTIONARY
  5
E
102
{ACAD_REACTORS
330
C
102
}
330
C
100
AcDbDictionary
281
     1
  3
STANDARD
350
1B
  0
DICTIONARY
  5
884
102
{ACAD_REACTORS
330
C
102
}
330
C
100
AcDbDictionary
281
     1
  0
ACDBDICTIONARYWDFLT
  5
881
102
{ACAD_REACTORS
330
C
102
}
330
C
100
AcDbDictionary
281
     1
  3
Normal
350
882
100
AcDbDictionaryWithDefault
340
882
  0
DICTIONARY
  5
88D
102
{ACAD_REACTORS
330
C
102
}
330
C
100
AcDbDictionary
281
     1
  3
DIMASSOC
350
88E
  0
LAYOUT
  5
886
102
{ACAD_REACTORS
330
883
102
}
330
883
100
AcDbPlotSettings
  1

  2
\\FIVAA-S-IGS2002\FIVAA-P-234
  4

  6

 40
0.0
 41
0.0
 42
0.0
 43
0.0
 44
0.0
 45
0.0
 46
0.0
 47
0.0
 48
0.0
 49
0.0
140
0.0
141
0.0
142
1.0
143
1.0
 70
   688
 72
     0
 73
     0
 74
     5
  7

 75
    16
147
1.0
148
0.0
149
0.0
100
AcDbLayout
  1
Layout1
 70
     0
 71
     1
 10
0.0
 20
0.0
 11
12.0
 21
9.0
 12
0.0
 22
0.0
 32
0.0
 14
1.000000000000000E+20
 24
1.000000000000000E+20
 34
1.000000000000000E+20
 15
-1.000000000000000E+20
 25
-1.000000000000000E+20
 35
-1.000000000000000E+20
146
0.0
 13
0.0
 23
0.0
 33
0.0
 16
1.0
 26
0.0
 36
0.0
 17
0.0
 27
1.0
 37
0.0
 76
     0
330
15
  0
LAYOUT
  5
885
102
{ACAD_REACTORS
330
883
102
}
330
883
100
AcDbPlotSettings
  1

  2
\\FIVAA-S-IGS2002\FIVAA-P-234
  4

  6

 40
0.0
 41
0.0
 42
0.0
 43
0.0
 44
0.0
 45
0.0
 46
0.0
 47
0.0
 48
0.0
 49
0.0
140
0.0
141
0.0
142
1.0
143
1.0
 70
  1712
 72
     0
 73
     0
 74
     0
  7

 75
     0
147
1.0
148
0.0
149
0.0
100
AcDbLayout
  1
Model
 70
     1
 71
     0
 10
0.0
 20
0.0
 11
12.0
 21
9.0
 12
0.0
 22
0.0
 32
0.0
 14
0.0
 24
0.0
 34
0.0
 15
0.0
 25
0.0
 35
0.0
146
0.0
 13
0.0
 23
0.0
 33
0.0
 16
1.0
 26
0.0
 36
0.0
 17
0.0
 27
1.0
 37
0.0
 76
     0
330
18
  0
MLINESTYLE
  5
1B
102
{ACAD_REACTORS
330
E
102
}
330
E
100
AcDbMlineStyle
  2
STANDARD
 70
     0
  3

 62
     0
 51
90.0
 52
90.0
 71
     2
 49
0.5
 62
   256
  6
BYLAYER
 49
-0.5
 62
   256
  6
BYLAYER
  0
ACDBPLACEHOLDER
  5
882
102
{ACAD_REACTORS
330
881
102
}
330
881
  0
DICTIONARYVAR
  5
88E
102
{ACAD_REACTORS
330
88D
102
}
330
88D
100
DictionaryVariables
280
     0
  1
1
  0
ENDSEC
  0
EOF
