  0
SECTION
  2
HEADER
  9
$ACADVER
  1
AC1009
  9
$INSBASE
 10
0.0
 20
0.0
 30
0.0
  9
$EXTMIN
 10
0.237099
 20
0.237999
 30
0.0
  9
$EXTMAX
 10
392.237099
 20
262.737999
 30
0.0
  9
$LIMMIN
 10
0.0
 20
0.0
  9
$LIMMAX
 10
12.0
 20
9.0
  9
$ORTHOMODE
 70
     1
  9
$REGENMODE
 70
     1
  9
$FILLMODE
 70
     1
  9
$QTEXTMODE
 70
     0
  9
$MIRRTEXT
 70
     1
  9
$DRAGMODE
 70
     2
  9
$LTSCALE
 40
5.0
  9
$OSMODE
 70
     0
  9
$ATTMODE
 70
     1
  9
$TEXTSIZE
 40
2.0
  9
$TRACEWID
 40
0.05
  9
$TEXTSTYLE
  7
STANDARD
  9
$CLAYER
  8
0
  9
$CELTYPE
  6
CONTINUOUS
  9
$CECOLOR
 62
   256
  9
$DIMSCALE
 40
1.0
  9
$DIMASZ
 40
0.18
  9
$DIMEXO
 40
0.0625
  9
$DIMDLI
 40
0.38
  9
$DIMRND
 40
0.0
  9
$DIMDLE
 40
0.0
  9
$DIMEXE
 40
0.18
  9
$DIMTP
 40
0.0
  9
$DIMTM
 40
0.0
  9
$DIMTXT
 40
0.18
  9
$DIMCEN
 40
0.09
  9
$DIMTSZ
 40
0.0
  9
$DIMTOL
 70
     0
  9
$DIMLIM
 70
     0
  9
$DIMTIH
 70
     1
  9
$DIMTOH
 70
     1
  9
$DIMSE1
 70
     0
  9
$DIMSE2
 70
     0
  9
$DIMTAD
 70
     0
  9
$DIMZIN
 70
     0
  9
$DIMBLK
  1

  9
$DIMASO
 70
     1
  9
$DIMSHO
 70
     1
  9
$DIMPOST
  1

  9
$DIMAPOST
  1

  9
$DIMALT
 70
     0
  9
$DIMALTD
 70
     2
  9
$DIMALTF
 40
25.4
  9
$DIMLFAC
 40
1.0
  9
$DIMTOFL
 70
     0
  9
$DIMTVP
 40
0.0
  9
$DIMTIX
 70
     0
  9
$DIMSOXD
 70
     0
  9
$DIMSAH
 70
     0
  9
$DIMBLK1
  1

  9
$DIMBLK2
  1

  9
$DIMSTYLE
  2
*UNNAMED
  9
$DIMCLRD
 70
     0
  9
$DIMCLRE
 70
     0
  9
$DIMCLRT
 70
     0
  9
$DIMTFAC
 40
1.0
  9
$DIMGAP
 40
0.09
  9
$LUNITS
 70
     2
  9
$LUPREC
 70
     4
  9
$SKETCHINC
 40
0.1
  9
$FILLETRAD
 40
0.0
  9
$AUNITS
 70
     0
  9
$AUPREC
 70
     0
  9
$MENU
  1
acad
  9
$ELEVATION
 40
0.0
  9
$PELEVATION
 40
0.0
  9
$THICKNESS
 40
0.0
  9
$LIMCHECK
 70
     0
  9
$BLIPMODE
 70
     1
  9
$CHAMFERA
 40
0.0
  9
$CHAMFERB
 40
0.0
  9
$SKPOLY
 70
     0
  9
$TDCREATE
 40
2448849.589970949
  9
$TDUPDATE
 40
2449018.734548264
  9
$TDINDWG
 40
0.0177790509
  9
$TDUSRTIMER
 40
0.0177790509
  9
$USRTIMER
 70
     1
  9
$ANGBASE
 50
0.0
  9
$ANGDIR
 70
     0
  9
$PDMODE
 70
     0
  9
$PDSIZE
 40
0.0
  9
$PLINEWID
 40
0.0
  9
$COORDS
 70
     2
  9
$SPLFRAME
 70
     0
  9
$SPLINETYPE
 70
     6
  9
$SPLINESEGS
 70
     8
  9
$ATTDIA
 70
     0
  9
$ATTREQ
 70
     1
  9
$HANDLING
 70
     0
  9
$HANDSEED
  5
0
  9
$SURFTAB1
 70
   250
  9
$SURFTAB2
 70
   250
  9
$SURFTYPE
 70
     6
  9
$SURFU
 70
     6
  9
$SURFV
 70
     6
  9
$UCSNAME
  2

  9
$UCSORG
 10
0.0
 20
0.0
 30
0.0
  9
$UCSXDIR
 10
1.0
 20
0.0
 30
0.0
  9
$UCSYDIR
 10
0.0
 20
1.0
 30
0.0
  9
$PUCSNAME
  2

  9
$PUCSORG
 10
0.0
 20
0.0
 30
0.0
  9
$PUCSXDIR
 10
1.0
 20
0.0
 30
0.0
  9
$PUCSYDIR
 10
0.0
 20
1.0
 30
0.0
  9
$USERI1
 70
     0
  9
$USERI2
 70
     0
  9
$USERI3
 70
     0
  9
$USERI4
 70
     0
  9
$USERI5
 70
     0
  9
$USERR1
 40
0.0
  9
$USERR2
 40
0.0
  9
$USERR3
 40
0.0
  9
$USERR4
 40
0.0
  9
$USERR5
 40
0.0
  9
$WORLDVIEW
 70
     1
  9
$SHADEDGE
 70
     3
  9
$SHADEDIF
 70
    70
  9
$TILEMODE
 70
     1
  9
$MAXACTVP
 70
    16
  9
$PINSBASE
 10
0.0
 20
0.0
 30
0.0
  9
$PLIMCHECK
 70
     0
  9
$PEXTMIN
 10
1.000000E+20
 20
1.000000E+20
 30
1.000000E+20
  9
$PEXTMAX
 10
-1.000000E+20
 20
-1.000000E+20
 30
-1.000000E+20
  9
$PLIMMIN
 10
0.0
 20
0.0
  9
$PLIMMAX
 10
12.0
 20
9.0
  9
$UNITMODE
 70
     0
  9
$VISRETAIN
 70
     0
  9
$PLINEGEN
 70
     0
  9
$PSLTSCALE
 70
     0
  9
$TREEDEPTH
 70
  3020
  9
$DWGCODEPAGE
  3
undefined
  0
ENDSEC
  0
SECTION
  2
TABLES
  0
TABLE
  2
VPORT
 70
     2
  0
VPORT
  2
*ACTIVE
 70
     0
 10
0.0
 20
0.0
 11
1.0
 21
1.0
 12
222.522843
 22
142.040485
 13
0.0
 23
0.0
 14
2.5
 24
2.5
 15
0.0
 25
0.0
 16
0.0
 26
0.0
 36
1.0
 17
0.0
 27
0.0
 37
0.0
 40
284.080971
 41
1.566616
 42
50.0
 43
0.0
 44
0.0
 50
0.0
 51
0.0
 71
     0
 72
   100
 73
     1
 74
     1
 75
     1
 76
     0
 77
     0
 78
     0
  0
ENDTAB
  0
TABLE
  2
LTYPE
 70
     4
  0
LTYPE
  2
CONTINUOUS
 70
    64
  3
Solid line
 72
    65
 73
     0
 40
0.0
  0
LTYPE
  2
DASHED
 70
    64
  3
__ __ __ __ __ __ __ __ __ __ __ __ __ __ __ __
 72
    65
 73
     2
 40
0.75
 49
0.5
 49
-0.25
  0
LTYPE
  2
CENTER
 70
    64
  3
____ _ ____ _ ____ _ ____ _ ____ _ ____ _ ____ 
 72
    65
 73
     4
 40
2.0
 49
1.25
 49
-0.25
 49
0.25
 49
-0.25
  0
LTYPE
  2
HIDDEN
 70
    64
  3
__ __ __ __ __ __ __ __ __ __ __ __ __ __ __ __
 72
    65
 73
     2
 40
0.375
 49
0.25
 49
-0.125
  0
ENDTAB
  0
TABLE
  2
LAYER
 70
    13
  0
LAYER
  2
0
 70
    64
 62
     7
  6
CONTINUOUS
  0
LAYER
  2
RAAMI
 70
    64
 62
    -4
  6
CONTINUOUS
  0
LAYER
  2
PAKSU
 70
    64
 62
    -3
  6
CONTINUOUS
  0
LAYER
  2
OHUT
 70
    64
 62
    -6
  6
CONTINUOUS
  0
LAYER
  2
SWEDEN
 70
    64
 62
    -7
  6
CONTINUOUS
  0
LAYER
  2
SWEDEN2
 70
    64
 62
    -5
  6
CONTINUOUS
  0
LAYER
  2
BASE
 70
    64
 62
    -7
  6
CONTINUOUS
  0
LAYER
  2
21
 70
    64
 62
    -2
  6
CONTINUOUS
  0
LAYER
  2
HEL035
 70
    64
 62
    -7
  6
CONTINUOUS
  0
LAYER
  2
MUO
 70
    64
 62
    -7
  6
CONTINUOUS
  0
LAYER
  2
1
 70
    64
 62
    -2
  6
CONTINUOUS
  0
LAYER
  2
BASE1
 70
    64
 62
    -1
  6
CONTINUOUS
  0
LAYER
  2
TEKS
 70
    64
 62
    -5
  6
CONTINUOUS
  0
ENDTAB
  0
TABLE
  2
STYLE
 70
     3
  0
STYLE
  2
STANDARD
 70
    64
 40
0.0
 41
1.0
 50
0.0
 71
     0
 42
2.0
  3
txt
  4

  0
STYLE
  2
ROMANS
 70
    64
 40
2.5
 41
1.0
 50
0.0
 71
     0
 42
2.5
  3
romans
  4

  0
STYLE
  2
GREEKS
 70
    64
 40
0.0
 41
1.0
 50
0.0
 71
     0
 42
3.0
  3
TXT
  4

  0
ENDTAB
  0
TABLE
  2
VIEW
 70
     0
  0
ENDTAB
  0
TABLE
  2
UCS
 70
     0
  0
ENDTAB
  0
TABLE
  2
APPID
 70
     1
  0
APPID
  2
ACAD
 70
    64
  0
ENDTAB
  0
TABLE
  2
DIMSTYLE
 70
     0
  0
ENDTAB
  0
ENDSEC
  0
SECTION
  2
BLOCKS
  0
BLOCK
  8
0
  2
1
 70
    64
 10
0.0
 20
0.0
 30
0.0
  3
1
  0
ENDBLK
  8
0
  0
BLOCK
  8
0
  2
BLC16
 70
    64
 10
0.0
 20
0.0
 30
0.0
  3
BLC16
  0
LINE
  8
0
  6
CONTINUOUS
 10
0.007689
 20
38.054928
 30
0.0
 11
19.983683
 21
38.054928
 31
0.0
  0
LINE
  8
0
  6
CONTINUOUS
 10
19.983683
 20
38.054928
 30
0.0
 11
19.983683
 21
-0.003751
 31
0.0
  0
LINE
  8
0
  6
CONTINUOUS
 10
19.983683
 20
-0.003751
 30
0.0
 11
0.007689
 21
-0.003751
 31
0.0
  0
LINE
  8
0
  6
CONTINUOUS
 10
0.007689
 20
-0.003751
 30
0.0
 11
0.007689
 21
38.054928
 31
0.0
  0
LINE
  8
0
  6
CONTINUOUS
 10
14.152643
 20
36.919738
 30
0.0
 11
14.152643
 21
33.528469
 31
0.0
  0
LINE
  8
0
  6
CONTINUOUS
 10
14.152643
 20
33.528469
 30
0.0
 11
11.560435
 21
33.528469
 31
0.0
  0
LINE
  8
0
  6
CONTINUOUS
 10
11.560435
 20
33.528469
 30
0.0
 11
11.560435
 21
30.778433
 31
0.0
  0
LINE
  8
0
  6
CONTINUOUS
 10
11.560435
 20
30.778433
 30
0.0
 11
14.152643
 21
30.778433
 31
0.0
  0
LINE
  8
0
  6
CONTINUOUS
 10
14.152643
 20
30.778433
 30
0.0
 11
14.152643
 21
27.387164
 31
0.0
  0
TEXT
  8
0
  6
CONTINUOUS
 10
6.558569
 20
30.805266
 30
0.0
 40
2.5
  1
2
 11
6.558569
 21
29.971932
 31
0.0
 73
     1
  0
TEXT
  8
0
  6
CONTINUOUS
 10
6.553289
 20
23.854078
 30
0.0
 40
2.5
  1
2 I
 11
6.553289
 21
23.020744
 31
0.0
 73
     1
  0
LINE
  8
0
  6
CONTINUOUS
 10
12.942534
 20
26.359129
 30
0.0
 11
15.288299
 21
25.023775
 31
0.0
  0
LINE
  8
0
  6
CONTINUOUS
 10
15.288299
 20
25.023775
 30
0.0
 11
12.942534
 21
23.833856
 31
0.0
  0
LINE
  8
0
  6
CONTINUOUS
 10
14.169823
 20
26.359129
 30
0.0
 11
16.515589
 21
25.023775
 31
0.0
  0
LINE
  8
0
  6
CONTINUOUS
 10
16.515589
 20
25.023775
 30
0.0
 11
14.169823
 21
23.833856
 31
0.0
  0
TEXT
  8
0
  6
CONTINUOUS
 10
11.566446
 20
19.235679
 30
0.0
 40
2.5
  1
I
 11
11.566446
 21
18.402346
 31
0.0
 73
     1
  0
TEXT
  8
0
  6
CONTINUOUS
 10
13.018181
 20
18.902346
 30
0.0
 40
1.5
  1
2
 11
13.018181
 21
18.402346
 31
0.0
 73
     1
  0
LINE
  8
0
  6
CONTINUOUS
 10
10.65733
 20
12.773825
 30
0.0
 11
13.003095
 21
13.963744
 31
0.0
  0
LINE
  8
0
  6
CONTINUOUS
 10
13.003095
 20
11.438471
 30
0.0
 11
10.65733
 21
12.773825
 31
0.0
  0
LINE
  8
0
  6
CONTINUOUS
 10
6.557002
 20
16.714658
 30
0.0
 11
15.281743
 21
16.714658
 31
0.0
  0
LINE
  8
0
  6
CONTINUOUS
 10
6.557002
 20
17.523984
 30
0.0
 11
6.557002
 21
15.908791
 31
0.0
  0
LINE
  8
0
  6
CONTINUOUS
 10
15.286518
 20
17.523984
 30
0.0
 11
15.286518
 21
15.908791
 31
0.0
  0
ARC
  8
0
  6
CONTINUOUS
 10
12.684846
 20
18.508045
 30
0.0
 40
2.922744
 50
193.105513
 51
283.105513
  0
TEXT
  8
0
  6
CONTINUOUS
 10
6.557002
 20
11.567974
 30
0.0
 40
2.5
  1
2I
 11
6.557002
 21
10.734641
 31
0.0
 73
     1
  0
LINE
  8
0
  6
CONTINUOUS
 10
6.557002
 20
9.441103
 30
0.0
 11
15.281743
 21
9.441103
 31
0.0
  0
LINE
  8
0
  6
CONTINUOUS
 10
15.286518
 20
10.250429
 30
0.0
 11
15.286518
 21
8.635236
 31
0.0
  0
LINE
  8
0
  6
CONTINUOUS
 10
6.557002
 20
10.250429
 30
0.0
 11
6.557002
 21
8.635236
 31
0.0
  0
TEXT
  8
0
  6
CONTINUOUS
 10
6.557002
 20
4.778631
 30
0.0
 40
2.5
  1
I
 11
6.557002
 21
3.945298
 31
0.0
 73
     1
  0
LINE
  8
0
  6
CONTINUOUS
 10
9.509029
 20
6.822462
 30
0.0
 11
9.509029
 21
5.477736
 31
0.0
  0
LINE
  8
0
  6
CONTINUOUS
 10
8.615065
 20
5.477736
 30
0.0
 11
9.52622
 21
5.477736
 31
0.0
  0
LINE
  8
0
  6
CONTINUOUS
 10
9.509029
 20
5.477736
 30
0.0
 11
10.402992
 21
5.477736
 31
0.0
  0
LINE
  8
0
  6
CONTINUOUS
 10
8.901592
 20
5.082328
 30
0.0
 11
9.509029
 21
5.082328
 31
0.0
  0
LINE
  8
0
  6
CONTINUOUS
 10
9.509029
 20
5.082328
 30
0.0
 11
10.150849
 21
5.082328
 31
0.0
  0
LINE
  8
0
  6
CONTINUOUS
 10
9.981861
 20
4.719969
 30
0.0
 11
9.072041
 21
4.719969
 31
0.0
  0
LINE
  8
0
  6
CONTINUOUS
 10
15.286518
 20
2.797924
 30
0.0
 11
15.286518
 21
1.182731
 31
0.0
  0
LINE
  8
0
  6
CONTINUOUS
 10
6.557002
 20
1.988598
 30
0.0
 11
15.281743
 21
1.988598
 31
0.0
  0
LINE
  8
0
  6
CONTINUOUS
 10
6.557002
 20
2.797924
 30
0.0
 11
6.557002
 21
1.182731
 31
0.0
  0
ENDBLK
  8
0
  0
BLOCK
  8
0
  2
BLC27
 70
    64
 10
0.0
 20
0.0
 30
0.0
  3
BLC27
  0
INSERT
  8
SWEDEN2
  6
CENTER
  2
BLC26
 10
0.08063
 20
0.037985
 30
0.0
 41
1.006225
 42
1.006225
 43
1.006225
  0
ENDBLK
  8
0
  0
BLOCK
  8
0
  2
BLC26
 70
    64
 10
0.0
 20
0.0
 30
0.0
  3
BLC26
  0
ARC
  8
0
  6
CONTINUOUS
 10
-0.180576
 20
1.17922
 30
0.0
 40
1.196859
 50
90.0
 51
265.706237
  0
LINE
  8
0
  6
CONTINUOUS
 10
-0.186638
 20
-0.01092
 30
0.0
 11
0.458942
 21
-0.01092
 31
0.0
  0
LINE
  8
0
  6
CONTINUOUS
 10
-0.186638
 20
2.375671
 30
0.0
 11
0.45288
 21
2.375671
 31
0.0
  0
LINE
  8
0
  6
CONTINUOUS
 10
-0.185509
 20
-2.404629
 30
0.0
 11
0.460071
 21
-2.404629
 31
0.0
  0
ARC
  8
0
  6
CONTINUOUS
 10
-0.180576
 20
-1.207779
 30
0.0
 40
1.196859
 50
90.0
 51
270.0
  0
LINE
  8
0
  6
CONTINUOUS
 10
0.451525
 20
-2.404586
 30
0.0
 11
1.401805
 21
-2.404586
 31
0.0
  0
LINE
  8
0
  6
CONTINUOUS
 10
0.446785
 20
2.375674
 30
0.0
 11
1.418544
 21
2.375674
 31
0.0
  0
LINE
  8
0
  6
CONTINUOUS
 10
0.456627
 20
-0.010911
 30
0.0
 11
1.422749
 21
-0.010911
 31
0.0
  0
ENDBLK
  8
0
  0
BLOCK
  8
0
  2
BLC28
 70
     0
 10
0.0
 20
0.0
 30
0.0
  3
BLC28
  0
LINE
  8
0
  6
CONTINUOUS
 10
0.484576
 20
2.400948
 30
0.0
 11
1.456712
 21
2.400948
 31
0.0
  0
LINE
  8
0
  6
CONTINUOUS
 10
0.474673
 20
4.802388
 30
0.0
 11
1.452481
 21
4.802388
 31
0.0
  0
LINE
  8
0
  6
CONTINUOUS
 10
0.479442
 20
-0.007627
 30
0.0
 11
1.435637
 21
-0.007627
 31
0.0
  0
ARC
  8
0
  6
CONTINUOUS
 10
-0.156593
 20
1.19663
 30
0.0
 40
1.204309
 50
90.0
 51
270.0
  0
LINE
  8
0
  6
CONTINUOUS
 10
-0.161557
 20
-0.007671
 30
0.0
 11
0.488041
 21
-0.007671
 31
0.0
  0
LINE
  8
0
  6
CONTINUOUS
 10
-0.162693
 20
4.802386
 30
0.0
 11
0.480806
 21
4.802386
 31
0.0
  0
LINE
  8
0
  6
CONTINUOUS
 10
-0.162693
 20
2.400939
 30
0.0
 11
0.486905
 21
2.400939
 31
0.0
  0
ARC
  8
0
  6
CONTINUOUS
 10
-0.156593
 20
3.598487
 30
0.0
 40
1.204309
 50
90.0
 51
265.706237
  0
LINE
  8
0
  6
CONTINUOUS
 10
0.484576
 20
-2.362961
 30
0.0
 11
1.456712
 21
-2.362961
 31
0.0
  0
LINE
  8
0
  6
CONTINUOUS
 10
0.479442
 20
-4.771537
 30
0.0
 11
1.435637
 21
-4.771537
 31
0.0
  0
ARC
  8
0
  6
CONTINUOUS
 10
-0.156593
 20
-3.567279
 30
0.0
 40
1.204309
 50
90.0
 51
270.0
  0
LINE
  8
0
  6
CONTINUOUS
 10
-0.161557
 20
-4.77158
 30
0.0
 11
0.488041
 21
-4.77158
 31
0.0
  0
LINE
  8
0
  6
CONTINUOUS
 10
-0.162693
 20
-2.36297
 30
0.0
 11
0.486905
 21
-2.36297
 31
0.0
  0
ARC
  8
0
  6
CONTINUOUS
 10
-0.156593
 20
-1.165422
 30
0.0
 40
1.204309
 50
101.28465
 51
265.706237
  0
ENDBLK
  8
0
  0
BLOCK
  8
0
  2
BLC22
 70
    64
 10
0.0
 20
0.0
 30
0.0
  3
BLC22
  0
LINE
  8
HEL035
 10
0.0
 20
-0.00155
 30
0.0
 11
0.0
 21
9.99845
 31
0.0
  0
LINE
  8
21
 10
2.5
 20
10.0
 30
0.0
 11
5.0
 21
10.0
 31
0.0
  0
LINE
  8
HEL035
 10
0.0
 20
9.99845
 30
0.0
 11
2.5
 21
9.99845
 31
0.0
  0
LINE
  8
HEL035
 10
-2.5
 20
5.0
 30
0.0
 11
2.5
 21
5.0
 31
0.0
  0
LINE
  8
21
 10
2.5
 20
5.0
 30
0.0
 11
5.0
 21
5.0
 31
0.0
  0
LINE
  8
21
 10
5.0
 20
5.0
 30
0.0
 11
5.0
 21
7.9
 31
0.0
  0
LINE
  8
HEL035
 10
3.88095
 20
6.944425
 30
0.0
 11
4.560313
 21
6.008681
 31
0.0
  0
LINE
  8
21
 10
10.0
 20
10.0
 30
0.0
 11
4.2
 21
6.5
 31
0.0
  0
LINE
  8
HEL035
 10
2.5
 20
-0.00155
 30
0.0
 11
0.0
 21
-0.00155
 31
0.0
  0
LINE
  8
21
 10
2.5
 20
0.0
 30
0.0
 11
5.0
 21
0.0
 31
0.0
  0
ENDBLK
  8
0
  0
BLOCK
  8
0
  2
BLC17
 70
     0
 10
0.0
 20
0.0
 30
0.0
  3
BLC17
  0
LINE
  8
0
  6
CONTINUOUS
 10
30.450615
 20
54.709828
 30
0.0
 11
30.450615
 21
0.0
 31
0.0
  0
LINE
  8
0
  6
CONTINUOUS
 10
30.450615
 20
0.0
 30
0.0
 11
0.012657
 21
0.0
 31
0.0
  0
LINE
  8
0
  6
CONTINUOUS
 10
0.012657
 20
0.0
 30
0.0
 11
0.012657
 21
54.709828
 31
0.0
  0
LINE
  8
0
  6
CONTINUOUS
 10
0.012657
 20
54.709828
 30
0.0
 11
30.450615
 21
54.709828
 31
0.0
  0
LINE
  8
0
  6
CONTINUOUS
 10
18.921474
 20
47.423701
 30
0.0
 11
18.921474
 21
44.032431
 31
0.0
  0
LINE
  8
0
  6
CONTINUOUS
 10
16.329266
 20
47.423701
 30
0.0
 11
18.921474
 21
47.423701
 31
0.0
  0
LINE
  8
0
  6
CONTINUOUS
 10
16.329266
 20
50.173736
 30
0.0
 11
16.329266
 21
47.423701
 31
0.0
  0
LINE
  8
0
  6
CONTINUOUS
 10
18.921474
 20
50.173736
 30
0.0
 11
16.329266
 21
50.173736
 31
0.0
  0
LINE
  8
0
  6
CONTINUOUS
 10
18.921474
 20
53.565006
 30
0.0
 11
18.921474
 21
50.173736
 31
0.0
  0
TEXT
  8
0
  6
CONTINUOUS
 10
11.908766
 20
1.295815
 30
0.0
 40
2.5
  1
IRF
 11
11.908766
 21
0.462481
 31
0.0
 73
     1
  0
LINE
  8
0
  6
CONTINUOUS
 10
0.012657
 20
5.232891
 30
0.0
 11
30.450615
 21
5.232891
 31
0.0
  0
LINE
  8
0
  6
CONTINUOUS
 10
21.416194
 20
54.709828
 30
0.0
 11
21.416194
 21
5.232891
 31
0.0
  0
LINE
  8
0
  6
CONTINUOUS
 10
0.011825
 20
37.58089
 30
0.0
 11
21.415362
 21
37.58089
 31
0.0
  0
TEXT
  8
0
  6
CONTINUOUS
 10
5.510524
 20
38.756802
 30
0.0
 40
2.5
  1
95%
 11
5.510524
 21
37.923468
 31
0.0
 73
     1
  0
LINE
  8
0
  6
CONTINUOUS
 10
4.315318
 20
39.921891
 30
0.0
 11
1.969552
 21
38.731972
 31
0.0
  0
LINE
  8
0
  6
CONTINUOUS
 10
1.969552
 20
41.257245
 30
0.0
 11
4.315318
 21
39.921891
 31
0.0
  0
LINE
  8
0
  6
CONTINUOUS
 10
0.059126
 20
43.413293
 30
0.0
 11
15.254454
 21
43.413293
 31
0.0
  0
LINE
  8
0
  6
CONTINUOUS
 10
15.254454
 20
43.413293
 30
0.0
 11
15.254454
 21
37.555196
 31
0.0
  0
TEXT
  8
0
  6
CONTINUOUS
 10
6.643071
 20
9.801915
 30
0.0
 40
2.5
  1
I
 11
6.643071
 21
8.968581
 31
0.0
 73
     1
  0
LINE
  8
0
  6
CONTINUOUS
 10
9.595097
 20
11.845745
 30
0.0
 11
9.595097
 21
10.491474
 31
0.0
  0
LINE
  8
0
  6
CONTINUOUS
 10
8.384869
 20
10.491474
 30
0.0
 11
9.57921
 21
10.491474
 31
0.0
  0
LINE
  8
0
  6
CONTINUOUS
 10
9.57921
 20
10.491474
 30
0.0
 11
10.773551
 21
10.491474
 31
0.0
  0
LINE
  8
0
  6
CONTINUOUS
 10
8.763274
 20
10.011864
 30
0.0
 11
10.347846
 21
10.011864
 31
0.0
  0
LINE
  8
0
  6
CONTINUOUS
 10
9.094379
 20
9.523689
 30
0.0
 11
9.981266
 21
9.523689
 31
0.0
  0
LINE
  8
0
  6
CONTINUOUS
 10
11.834315
 20
10.199281
 30
0.0
 11
20.559056
 21
10.199281
 31
0.0
  0
LINE
  8
0
  6
CONTINUOUS
 10
20.563831
 20
11.008607
 30
0.0
 11
20.563831
 21
9.393414
 31
0.0
  0
LINE
  8
0
  6
CONTINUOUS
 10
11.834315
 20
11.008607
 30
0.0
 11
11.834315
 21
9.393414
 31
0.0
  0
TEXT
  8
0
  6
CONTINUOUS
 10
1.771105
 20
17.124536
 30
0.0
 40
2.5
  1
I
 11
1.771105
 21
16.291202
 31
0.0
 73
     1
  0
LINE
  8
0
  6
CONTINUOUS
 10
3.269898
 20
18.259589
 30
0.0
 11
5.615664
 21
19.449509
 31
0.0
  0
LINE
  8
0
  6
CONTINUOUS
 10
5.615664
 20
16.924236
 30
0.0
 11
3.269898
 21
18.259589
 31
0.0
  0
LINE
  8
0
  6
CONTINUOUS
 10
11.834315
 20
18.785145
 30
0.0
 11
11.834315
 21
17.169952
 31
0.0
  0
LINE
  8
0
  6
CONTINUOUS
 10
20.563831
 20
18.785145
 30
0.0
 11
20.563831
 21
17.169952
 31
0.0
  0
LINE
  8
0
  6
CONTINUOUS
 10
11.834315
 20
17.975819
 30
0.0
 11
20.559056
 21
17.975819
 31
0.0
  0
LINE
  8
0
  6
CONTINUOUS
 10
10.616324
 20
26.165772
 30
0.0
 11
19.341064
 21
26.165772
 31
0.0
  0
LINE
  8
0
  6
CONTINUOUS
 10
10.616324
 20
26.975098
 30
0.0
 11
10.616324
 21
25.359905
 31
0.0
  0
LINE
  8
0
  6
CONTINUOUS
 10
19.34584
 20
26.975098
 30
0.0
 11
19.34584
 21
25.359905
 31
0.0
  0
ARC
  8
0
  6
CONTINUOUS
 10
16.744168
 20
27.959159
 30
0.0
 40
2.922744
 50
193.105513
 51
283.105513
  0
TEXT
  8
0
  6
CONTINUOUS
 10
1.743031
 20
25.483682
 30
0.0
 40
2.5
  1
I
 11
1.743031
 21
24.650348
 31
0.0
 73
     1
  0
TEXT
  8
0
  6
CONTINUOUS
 10
3.194767
 20
25.150348
 30
0.0
 40
1.5
  1
2
 11
3.194767
 21
24.650348
 31
0.0
 73
     1
  0
TEXT
  8
0
  6
CONTINUOUS
 10
1.924832
 20
33.140093
 30
0.0
 40
2.5
  1
I
 11
1.924832
 21
32.306759
 31
0.0
 73
     1
  0
LINE
  8
0
  6
CONTINUOUS
 10
3.734027
 20
35.656082
 30
0.0
 11
6.079793
 21
34.320728
 31
0.0
  0
LINE
  8
0
  6
CONTINUOUS
 10
6.079793
 20
34.320728
 30
0.0
 11
3.734027
 21
33.130809
 31
0.0
  0
LINE
  8
0
  6
CONTINUOUS
 10
4.961317
 20
35.656082
 30
0.0
 11
7.307083
 21
34.320728
 31
0.0
  0
LINE
  8
0
  6
CONTINUOUS
 10
7.307083
 20
34.320728
 30
0.0
 11
4.961317
 21
33.130809
 31
0.0
  0
TEXT
  8
0
  6
CONTINUOUS
 10
23.718599
 20
44.648458
 30
0.0
 40
2.5
  1
2I
 11
23.718599
 21
43.815125
 31
0.0
 73
     1
  0
TEXT
  8
0
  6
CONTINUOUS
 10
23.730424
 20
9.356562
 30
0.0
 40
2.5
  1
I
 11
23.730424
 21
8.523229
 31
0.0
 73
     1
  0
LINE
  8
0
  6
CONTINUOUS
 10
26.682451
 20
11.400392
 30
0.0
 11
26.682451
 21
10.046122
 31
0.0
  0
LINE
  8
0
  6
CONTINUOUS
 10
25.472223
 20
10.046122
 30
0.0
 11
26.666564
 21
10.046122
 31
0.0
  0
LINE
  8
0
  6
CONTINUOUS
 10
26.666564
 20
10.046122
 30
0.0
 11
27.860905
 21
10.046122
 31
0.0
  0
LINE
  8
0
  6
CONTINUOUS
 10
25.850628
 20
9.566512
 30
0.0
 11
27.435199
 21
9.566512
 31
0.0
  0
LINE
  8
0
  6
CONTINUOUS
 10
26.181732
 20
9.078337
 30
0.0
 11
27.068619
 21
9.078337
 31
0.0
  0
LINE
  8
0
  6
CONTINUOUS
 10
5.557824
 20
10.868311
 30
0.0
 11
3.299219
 21
10.868311
 31
0.0
  0
LINE
  8
0
  6
CONTINUOUS
 10
3.299219
 20
10.868311
 30
0.0
 11
1.194341
 21
9.669285
 31
0.0
  0
LINE
  8
0
  6
CONTINUOUS
 10
1.194341
 20
10.868311
 30
0.0
 11
0.0
 21
10.868311
 31
0.0
  0
LINE
  8
0
  6
CONTINUOUS
 10
1.348068
 20
9.977606
 30
0.0
 11
1.348068
 21
7.725151
 31
0.0
  0
LINE
  8
0
  6
CONTINUOUS
 10
1.348068
 20
7.725151
 30
0.0
 11
-0.011825
 21
7.725151
 31
0.0
  0
LINE
  8
0
  6
CONTINUOUS
 10
0.0
 20
13.728844
 30
0.0
 11
21.474488
 21
13.728844
 31
0.0
  0
LINE
  8
0
  6
CONTINUOUS
 10
0.0
 20
21.839396
 30
0.0
 11
21.474488
 21
21.839396
 31
0.0
  0
LINE
  8
0
  6
CONTINUOUS
 10
0.0
 20
30.095544
 30
0.0
 11
21.474488
 21
30.095544
 31
0.0
  0
ENDBLK
  8
0
  0
BLOCK
  8
0
  2
BLC18
 70
    64
 10
0.0
 20
0.0
 30
0.0
  3
BLC18
  0
LINE
  8
MUO
 10
-0.056268
 20
0.849555
 30
0.0
 11
8.307242
 21
9.215502
 31
0.0
  0
LINE
  8
MUO
 10
0.928025
 20
-0.107047
 30
0.0
 11
9.268386
 21
8.2307
 31
0.0
  0
LINE
  8
MUO
 10
-0.056268
 20
-0.107047
 30
0.0
 11
-0.056268
 21
9.215502
 31
0.0
  0
LINE
  8
MUO
 10
9.268386
 20
-0.107047
 30
0.0
 11
-0.056268
 21
-0.107047
 31
0.0
  0
LINE
  8
MUO
 10
9.268386
 20
9.215502
 30
0.0
 11
9.268386
 21
-0.107047
 31
0.0
  0
LINE
  8
MUO
 10
-0.056268
 20
9.215502
 30
0.0
 11
9.268386
 21
9.215502
 31
0.0
  0
ENDBLK
  8
0
  0
BLOCK
  8
0
  2
BLC11
 70
     0
 10
0.0
 20
0.0
 30
0.0
  3
BLC11
  0
INSERT
  8
BASE
  6
CONTINUOUS
  2
BLC18
 10
0.041067
 20
0.101044
 30
0.0
 41
0.96
 42
0.96
 43
0.96
  0
ENDBLK
  8
0
  0
BLOCK
  8
0
  2
BLC29
 70
    64
 10
0.0
 20
0.0
 30
0.0
  3
BLC29
  0
LINE
  8
0
  6
CONTINUOUS
 10
0.004865
 20
1.206889
 30
0.0
 11
2.350631
 21
-0.128465
 31
0.0
  0
LINE
  8
0
  6
CONTINUOUS
 10
2.350631
 20
-0.128465
 30
0.0
 11
0.004865
 21
-1.318384
 31
0.0
  0
ENDBLK
  8
0
  0
BLOCK
  8
0
  2
BLC8
 70
     0
 10
0.0
 20
0.0
 30
0.0
  3
BLC8
  0
LINE
  8
BASE
  6
CONTINUOUS
 10
4.30938
 20
7.248434
 30
0.0
 11
7.196163
 21
7.248434
 31
0.0
  0
LINE
  8
BASE
  6
CONTINUOUS
 10
2.021582
 20
1.434021
 30
0.0
 11
4.908367
 21
1.434021
 31
0.0
  0
LINE
  8
BASE
  6
CONTINUOUS
 10
4.908367
 20
7.248434
 30
0.0
 11
4.908367
 21
1.434021
 31
0.0
  0
LINE
  8
BASE
  6
CONTINUOUS
 10
4.30938
 20
7.248434
 30
0.0
 11
4.30938
 21
1.434021
 31
0.0
  0
INSERT
  8
BASE
  6
CONTINUOUS
  2
BLC29
 10
5.663756
 20
10.310489
 30
0.0
 41
0.8
 42
0.8
 43
0.8
  0
TEXT
  8
BASE
  6
CONTINUOUS
 10
3.010803
 20
9.256358
 30
0.0
 40
2.0
  1
R
 11
3.010803
 21
8.589691
 31
0.0
 73
     1
  0
LINE
  8
BASE
  6
CONTINUOUS
 10
10.003327
 20
0.005137
 30
0.0
 11
10.003327
 21
12.505137
 31
0.0
  0
LINE
  8
BASE
  6
CONTINUOUS
 10
0.003327
 20
0.005137
 30
0.0
 11
10.003327
 21
0.005137
 31
0.0
  0
LINE
  8
BASE
  6
CONTINUOUS
 10
0.003327
 20
12.505137
 30
0.0
 11
0.003327
 21
0.005137
 31
0.0
  0
LINE
  8
BASE
  6
CONTINUOUS
 10
10.003327
 20
12.505137
 30
0.0
 11
0.003327
 21
12.505137
 31
0.0
  0
ENDBLK
  8
0
  0
BLOCK
  8
0
  2
BLC19
 70
     0
 10
0.0
 20
0.0
 30
0.0
  3
BLC19
  0
CIRCLE
  8
0
  6
CONTINUOUS
 10
5.317218
 20
-0.888558
 30
0.0
 40
0.798019
  0
TEXT
  8
0
  6
CONTINUOUS
 10
7.274197
 20
1.270498
 30
0.0
 40
2.5
  1
1
 11
7.274197
 21
0.437165
 31
0.0
 73
     1
  0
LINE
  8
0
  6
CONTINUOUS
 10
2.832294
 20
0.605305
 30
0.0
 11
5.215754
 21
1.793497
 31
0.0
  0
LINE
  8
0
  6
CONTINUOUS
 10
2.840336
 20
3.930592
 30
0.0
 11
5.186101
 21
2.595238
 31
0.0
  0
LINE
  8
0
  6
CONTINUOUS
 10
5.186101
 20
2.595238
 30
0.0
 11
2.840336
 21
1.405319
 31
0.0
  0
LINE
  8
0
  6
CONTINUOUS
 10
0.170247
 20
-0.089675
 30
0.0
 11
11.344653
 21
-0.089675
 31
0.0
  0
LINE
  8
0
  6
CONTINUOUS
 10
0.170247
 20
4.988164
 30
0.0
 11
0.170247
 21
-0.089675
 31
0.0
  0
LINE
  8
0
  6
CONTINUOUS
 10
11.344653
 20
4.988164
 30
0.0
 11
0.170247
 21
4.988164
 31
0.0
  0
LINE
  8
0
  6
CONTINUOUS
 10
11.344653
 20
-0.089675
 30
0.0
 11
11.344653
 21
4.988164
 31
0.0
  0
ENDBLK
  8
0
  0
BLOCK
  8
0
  2
BLC24
 70
     0
 10
0.0
 20
0.0
 30
0.0
  3
BLC24
  0
LINE
  8
0
  6
CONTINUOUS
 10
4.595433
 20
2.687113
 30
0.0
 11
2.249668
 21
1.497194
 31
0.0
  0
LINE
  8
0
  6
CONTINUOUS
 10
2.249668
 20
4.022467
 30
0.0
 11
4.595433
 21
2.687113
 31
0.0
  0
LINE
  8
0
  6
CONTINUOUS
 10
2.241626
 20
0.69718
 30
0.0
 11
4.625086
 21
1.885372
 31
0.0
  0
TEXT
  8
0
  6
CONTINUOUS
 10
6.68353
 20
1.362373
 30
0.0
 40
2.5
  1
1
 11
6.68353
 21
0.52904
 31
0.0
 73
     1
  0
CIRCLE
  8
0
  6
CONTINUOUS
 10
4.984447
 20
-0.797999
 30
0.0
 40
0.798019
  0
LINE
  8
BASE
  6
CONTINUOUS
 10
10.0
 20
5.0
 30
0.0
 11
10.0
 21
0.0
 31
0.0
  0
LINE
  8
BASE
  6
CONTINUOUS
 10
0.0
 20
5.0
 30
0.0
 11
10.0
 21
5.0
 31
0.0
  0
LINE
  8
BASE
  6
CONTINUOUS
 10
0.0
 20
0.0
 30
0.0
 11
0.0
 21
5.0
 31
0.0
  0
LINE
  8
BASE
  6
CONTINUOUS
 10
10.0
 20
0.0
 30
0.0
 11
0.0
 21
0.0
 31
0.0
  0
ENDBLK
  8
0
  0
BLOCK
  8
0
  2
BLC32
 70
     0
 10
0.0
 20
0.0
 30
0.0
  3
BLC32
  0
LINE
  8
SWEDEN2
  6
CONTINUOUS
 10
2.0
 20
-0.943664
 30
0.0
 11
2.0
 21
-4.0
 31
0.0
  0
LINE
  8
SWEDEN2
  6
CONTINUOUS
 10
6.0
 20
-0.943664
 30
0.0
 11
6.0
 21
-4.0
 31
0.0
  0
LINE
  8
SWEDEN2
  6
CONTINUOUS
 10
6.0
 20
8.378885
 30
0.0
 11
6.0
 21
14.0
 31
0.0
  0
LINE
  8
SWEDEN2
  6
CONTINUOUS
 10
2.0
 20
8.378885
 30
0.0
 11
2.0
 21
14.0
 31
0.0
  0
TEXT
  8
SWEDEN2
  6
CONTINUOUS
 10
5.486983
 20
14.403284
 30
0.0
 40
2.0
  1
-
  0
TEXT
  8
SWEDEN2
  6
CONTINUOUS
 10
1.355281
 20
14.378715
 30
0.0
 40
2.0
  1
+
  0
LINE
  8
MUO
 10
-0.424332
 20
8.378885
 30
0.0
 11
8.900321
 21
8.378885
 31
0.0
  0
LINE
  8
MUO
 10
8.900321
 20
8.378885
 30
0.0
 11
8.900321
 21
-0.943664
 31
0.0
  0
LINE
  8
MUO
 10
8.900321
 20
-0.943664
 30
0.0
 11
-0.424332
 21
-0.943664
 31
0.0
  0
LINE
  8
MUO
 10
-0.424332
 20
-0.943664
 30
0.0
 11
-0.424332
 21
8.378885
 31
0.0
  0
LINE
  8
MUO
 10
0.55996
 20
-0.943664
 30
0.0
 11
8.900321
 21
7.394083
 31
0.0
  0
LINE
  8
MUO
 10
-0.424332
 20
0.012938
 30
0.0
 11
7.939178
 21
8.378885
 31
0.0
  0
LINE
  8
HEL035
 10
0.490466
 20
6.301194
 30
0.0
 11
4.490466
 21
6.301194
 31
0.0
  0
LINE
  8
HEL035
 10
4.246876
 20
1.355171
 30
0.0
 11
8.246876
 21
1.355171
 31
0.0
  0
INSERT
  8
HEL035
  2
WKU130
 10
4.586826
 20
-0.370382
 30
0.0
 41
0.8
 42
0.8
 43
0.8
  0
ENDBLK
  8
0
  0
BLOCK
  8
0
  2
WKU130
 70
    64
 10
190.0
 20
250.0
 30
0.0
  3
WKU130
  0
ARC
  8
21
 10
191.083333
 20
249.916667
 30
0.0
 40
1.086534
 50
32.471192
 51
175.601295
  0
ARC
  8
21
 10
192.916667
 20
251.083333
 30
0.0
 40
1.086534
 50
212.471192
 51
355.601295
  0
ENDBLK
  8
0
  0
BLOCK
  8
0
  2
BLC38
 70
    64
 10
0.0
 20
0.0
 30
0.0
  3
BLC38
  0
LINE
  8
BASE
  6
CONTINUOUS
 10
5.0
 20
0.429605
 30
0.0
 11
5.0
 21
-2.5
 31
0.0
  0
LINE
  8
BASE
  6
CONTINUOUS
 10
0.0
 20
0.429605
 30
0.0
 11
0.0
 21
-2.5
 31
0.0
  0
LINE
  8
BASE
  6
CONTINUOUS
 10
5.0
 20
15.0
 30
0.0
 11
5.0
 21
9.752154
 31
0.0
  0
LINE
  8
BASE
  6
CONTINUOUS
 10
0.0
 20
15.0
 30
0.0
 11
0.0
 21
9.752154
 31
0.0
  0
INSERT
  8
HEL035
  2
WKU130
 10
2.806261
 20
1.002888
 30
0.0
 41
0.8
 42
0.8
 43
0.8
  0
LINE
  8
HEL035
 10
2.466311
 20
2.72844
 30
0.0
 11
6.466311
 21
2.72844
 31
0.0
  0
LINE
  8
HEL035
 10
-1.290099
 20
7.674464
 30
0.0
 11
2.709901
 21
7.674464
 31
0.0
  0
LINE
  8
MUO
 10
-2.204897
 20
1.386207
 30
0.0
 11
6.158613
 21
9.752154
 31
0.0
  0
LINE
  8
MUO
 10
-1.220605
 20
0.429605
 30
0.0
 11
7.119756
 21
8.767352
 31
0.0
  0
LINE
  8
MUO
 10
-2.204897
 20
0.429605
 30
0.0
 11
-2.204897
 21
9.752154
 31
0.0
  0
LINE
  8
MUO
 10
7.119756
 20
0.429605
 30
0.0
 11
-2.204897
 21
0.429605
 31
0.0
  0
LINE
  8
MUO
 10
7.119756
 20
9.752154
 30
0.0
 11
7.119756
 21
0.429605
 31
0.0
  0
LINE
  8
MUO
 10
-2.204897
 20
9.752154
 30
0.0
 11
7.119756
 21
9.752154
 31
0.0
  0
TEXT
  8
SWEDEN2
  6
CONTINUOUS
 10
-0.633266
 20
15.55315
 30
0.0
 40
2.0
  1
+
  0
TEXT
  8
SWEDEN2
  6
CONTINUOUS
 10
4.297086
 20
15.577719
 30
0.0
 40
2.0
  1
-
  0
ENDBLK
  8
0
  0
BLOCK
  8
0
  2
BLC39
 70
     0
 10
0.0
 20
0.0
 30
0.0
  3
BLC39
  0
LINE
  8
BASE
  6
CONTINUOUS
 10
0.032888
 20
8.912306
 30
0.0
 11
0.032888
 21
-1.087694
 31
0.0
  0
LINE
  8
BASE
  6
CONTINUOUS
 10
0.032888
 20
-1.087694
 30
0.0
 11
2.532888
 21
-1.087694
 31
0.0
  0
LINE
  8
BASE
  6
CONTINUOUS
 10
2.334881
 20
-0.78829
 30
0.0
 11
1.595148
 21
-0.416716
 31
0.0
  0
LINE
  8
BASE
  6
CONTINUOUS
 10
0.026299
 20
-7.105729
 30
0.0
 11
2.334881
 21
-0.78829
 31
0.0
  0
CIRCLE
  8
BASE
  6
CONTINUOUS
 10
0.032888
 20
-7.846639
 30
0.0
 40
0.740939
  0
LINE
  8
BASE
  6
CONTINUOUS
 10
0.032888
 20
-8.587694
 30
0.0
 11
0.032888
 21
-18.587694
 31
0.0
  0
ENDBLK
  8
0
  0
BLOCK
  8
0
  2
BLC14
 70
     0
 10
0.0
 20
0.0
 30
0.0
  3
BLC14
  0
LINE
  8
BASE1
  6
CONTINUOUS
 10
12.100556
 20
7.489357
 30
0.0
 11
3.585754
 21
1.146244
 31
0.0
  0
LINE
  8
BASE1
  6
CONTINUOUS
 10
0.0
 20
7.5
 30
0.0
 11
5.0
 21
7.5
 31
0.0
  0
LINE
  8
BASE1
  6
CONTINUOUS
 10
5.0
 20
0.0
 30
0.0
 11
5.0
 21
2.5
 31
0.0
  0
LINE
  8
BASE1
  6
CONTINUOUS
 10
0.0
 20
0.0
 30
0.0
 11
5.0
 21
0.0
 31
0.0
  0
ENDBLK
  8
0
  0
BLOCK
  8
0
  2
ABBA3
 70
     0
 10
0.0
 20
0.0
 30
0.0
  3
ABBA3
  0
LINE
  8
PAKSU
 10
0.0
 20
0.0
 30
0.0
 11
0.0
 21
262.5
 31
0.0
  0
LINE
  8
PAKSU
 10
392.0
 20
262.5
 30
0.0
 11
392.0
 21
0.0
 31
0.0
  0
LINE
  8
PAKSU
 10
0.0
 20
0.0
 30
0.0
 11
392.0
 21
0.0
 31
0.0
  0
TEXT
  8
RAAMI
 10
42.0
 20
0.952381
 30
0.0
 40
2.5
  1
C
  7
ROMANS
  0
TEXT
  8
RAAMI
 10
42.0
 20
5.354421
 30
0.0
 40
2.5
  1
B
  7
ROMANS
  0
TEXT
  8
RAAMI
 10
257.169907
 20
1.503784
 30
0.0
 40
3.0
  1
Power
 41
0.8
  7
ROMANS
  0
TEXT
  8
RAAMI
 10
273.0
 20
7.0
 30
0.0
 40
1.4
  1
VAST.OSASTO RESP.DEPT.
  7
ROMANS
  0
TEXT
  8
RAAMI
 10
210.0
 20
32.0
 30
0.0
 40
1.4
  1
TEKI  PREPARED
  7
ROMANS
  0
LINE
  8
OHUT
 10
271.0
 20
9.5
 30
0.0
 11
271.0
 21
0.0
 31
0.0
  0
LINE
  8
OHUT
 10
257.0
 20
9.5
 30
0.0
 11
257.0
 21
35.0
 31
0.0
  0
LINE
  8
OHUT
 10
40.5
 20
4.5
 30
0.0
 11
209.0
 21
4.5
 31
0.0
  0
LINE
  8
OHUT
 10
46.5
 20
0.0
 30
0.0
 11
46.5
 21
9.0
 31
0.0
  0
LINE
  8
OHUT
 10
46.5
 20
9.0
 30
0.0
 11
209.0
 21
9.0
 31
0.0
  0
TEXT
  8
RAAMI
 10
27.5
 20
2.233333
 30
0.0
 40
1.4
  1
REVISION
  7
ROMANS
  0
TEXT
  8
RAAMI
 10
27.5
 20
4.5
 30
0.0
 40
1.4
  1
MUUTOS
  7
ROMANS
  0
LINE
  8
OHUT
 10
282.0
 20
9.5
 30
0.0
 11
282.0
 21
18.0
 31
0.0
  0
TEXT
  8
RAAMI
 10
237.5
 20
1.5
 30
0.0
 40
3.0
  1
Strömberg
 41
0.8
  7
ROMANS
  0
TEXT
  8
RAAMI
 10
229.5
 20
1.5
 30
0.0
 40
3.0
  1
ABB 
 41
0.8
  7
ROMANS
  0
LINE
  8
RAAMI
 10
222.9
 20
1.5
 30
0.0
 11
222.9
 21
4.86
 31
0.0
  0
LINE
  8
RAAMI
 10
222.9
 20
8.5
 30
0.0
 11
224.86
 21
8.5
 31
0.0
  0
LINE
  8
RAAMI
 10
224.86
 20
8.5
 30
0.0
 11
224.86
 21
5.14
 31
0.0
  0
LINE
  8
RAAMI
 10
224.86
 20
5.14
 30
0.0
 11
222.9
 21
5.14
 31
0.0
  0
LINE
  8
RAAMI
 10
222.9
 20
4.86
 30
0.0
 11
224.86
 21
4.86
 31
0.0
  0
LINE
  8
RAAMI
 10
224.86
 20
4.86
 30
0.0
 11
224.86
 21
1.5
 31
0.0
  0
LINE
  8
RAAMI
 10
224.86
 20
1.5
 30
0.0
 11
222.9
 21
1.5
 31
0.0
  0
LINE
  8
RAAMI
 10
222.9
 20
5.14
 30
0.0
 11
222.9
 21
8.5
 31
0.0
  0
ARC
  8
RAAMI
 10
225.7
 20
6.925
 30
0.0
 40
1.575
 50
298.455859
 51
90.052437
  0
LINE
  8
RAAMI
 10
225.14
 20
8.5
 30
0.0
 11
225.698559
 21
8.499999
 31
0.0
  0
LINE
  8
RAAMI
 10
225.14
 20
8.5
 30
0.0
 11
225.14
 21
5.14
 31
0.0
  0
LINE
  8
RAAMI
 10
225.14
 20
5.14
 30
0.0
 11
227.124443
 21
5.14
 31
0.0
  0
LINE
  8
RAAMI
 10
227.38
 20
4.86
 30
0.0
 11
225.14
 21
4.86
 31
0.0
  0
LINE
  8
RAAMI
 10
225.14
 20
4.86
 30
0.0
 11
225.14
 21
1.5
 31
0.0
  0
ARC
  8
RAAMI
 10
225.7
 20
3.6
 30
0.0
 40
2.1
 50
269.937724
 51
37.056553
  0
LINE
  8
RAAMI
 10
225.14
 20
1.5
 30
0.0
 11
225.697717
 21
1.500001
 31
0.0
  0
ARC
  8
RAAMI
 10
225.7
 20
3.6
 30
0.0
 40
2.1
 50
47.28622
 51
68.787999
  0
INSERT
  8
RAAMI
  2
*X23
 10
215.41
 20
1.5
 30
0.0
 41
0.7
 42
0.7
 43
0.7
  0
INSERT
  8
RAAMI
  2
*X24
 10
215.41
 20
1.5
 30
0.0
 41
0.7
 42
0.7
 43
0.7
  0
INSERT
  8
RAAMI
  2
*X25
 10
215.41
 20
1.5
 30
0.0
 41
0.7
 42
0.7
 43
0.7
  0
INSERT
  8
RAAMI
  2
*X26
 10
215.41
 20
1.5
 30
0.0
 41
0.7
 42
0.7
 43
0.7
  0
INSERT
  8
RAAMI
  2
*X26
 10
209.95
 20
1.5
 30
0.0
 41
0.7
 42
0.7
 43
0.7
  0
INSERT
  8
RAAMI
  2
*X25
 10
209.95
 20
1.5
 30
0.0
 41
0.7
 42
0.7
 43
0.7
  0
INSERT
  8
RAAMI
  2
*X24
 10
209.95
 20
1.5
 30
0.0
 41
0.7
 42
0.7
 43
0.7
  0
INSERT
  8
RAAMI
  2
*X23
 10
209.95
 20
1.5
 30
0.0
 41
0.7
 42
0.7
 43
0.7
  0
ARC
  8
RAAMI
 10
220.24
 20
3.6
 30
0.0
 40
2.1
 50
47.28622
 51
68.787999
  0
LINE
  8
RAAMI
 10
219.68
 20
1.5
 30
0.0
 11
220.237717
 21
1.500001
 31
0.0
  0
ARC
  8
RAAMI
 10
220.24
 20
3.6
 30
0.0
 40
2.1
 50
269.937724
 51
37.056553
  0
LINE
  8
RAAMI
 10
219.68
 20
4.86
 30
0.0
 11
219.68
 21
1.5
 31
0.0
  0
LINE
  8
RAAMI
 10
221.92
 20
4.86
 30
0.0
 11
219.68
 21
4.86
 31
0.0
  0
LINE
  8
RAAMI
 10
219.68
 20
5.14
 30
0.0
 11
221.664443
 21
5.14
 31
0.0
  0
LINE
  8
RAAMI
 10
219.68
 20
8.5
 30
0.0
 11
219.68
 21
5.14
 31
0.0
  0
LINE
  8
RAAMI
 10
219.68
 20
8.5
 30
0.0
 11
220.238559
 21
8.499999
 31
0.0
  0
ARC
  8
RAAMI
 10
220.24
 20
6.925
 30
0.0
 40
1.575
 50
298.455859
 51
90.052437
  0
LINE
  8
RAAMI
 10
217.44
 20
5.14
 30
0.0
 11
217.44
 21
8.5
 31
0.0
  0
LINE
  8
RAAMI
 10
219.4
 20
1.5
 30
0.0
 11
217.44
 21
1.5
 31
0.0
  0
LINE
  8
RAAMI
 10
219.4
 20
4.86
 30
0.0
 11
219.4
 21
1.5
 31
0.0
  0
LINE
  8
RAAMI
 10
217.44
 20
4.86
 30
0.0
 11
219.4
 21
4.86
 31
0.0
  0
LINE
  8
RAAMI
 10
219.4
 20
5.14
 30
0.0
 11
217.44
 21
5.14
 31
0.0
  0
LINE
  8
RAAMI
 10
219.4
 20
8.5
 30
0.0
 11
219.4
 21
5.14
 31
0.0
  0
LINE
  8
RAAMI
 10
217.44
 20
8.5
 30
0.0
 11
219.4
 21
8.5
 31
0.0
  0
LINE
  8
RAAMI
 10
217.44
 20
1.5
 30
0.0
 11
217.44
 21
4.86
 31
0.0
  0
INSERT
  8
RAAMI
  2
*X22
 10
209.95
 20
1.5
 30
0.0
 41
0.7
 42
0.7
 43
0.7
  0
INSERT
  8
RAAMI
  2
*X21
 10
209.95
 20
1.5
 30
0.0
 41
0.7
 42
0.7
 43
0.7
  0
INSERT
  8
RAAMI
  2
*X20
 10
209.95
 20
1.5
 30
0.0
 41
0.7
 42
0.7
 43
0.7
  0
INSERT
  8
RAAMI
  2
*X19
 10
209.95
 20
1.5
 30
0.0
 41
0.7
 42
0.7
 43
0.7
  0
LINE
  8
RAAMI
 10
211.119889
 20
4.842539
 30
0.0
 11
209.95
 21
1.5
 31
0.0
  0
LINE
  8
RAAMI
 10
213.31
 20
4.86
 30
0.0
 11
213.31
 21
2.9
 31
0.0
  0
LINE
  8
RAAMI
 10
213.59
 20
4.86
 30
0.0
 11
213.59
 21
2.9
 31
0.0
  0
LINE
  8
RAAMI
 10
213.59
 20
4.86
 30
0.0
 11
215.773257
 21
4.86
 31
0.0
  0
LINE
  8
RAAMI
 10
213.59
 20
5.14
 30
0.0
 11
215.675114
 21
5.14
 31
0.0
  0
LINE
  8
RAAMI
 10
215.774492
 20
4.858595
 30
0.0
 11
216.95
 21
1.5
 31
0.0
  0
LINE
  8
RAAMI
 10
211.122982
 20
4.86
 30
0.0
 11
213.31
 21
4.86
 31
0.0
  0
LINE
  8
RAAMI
 10
211.221941
 20
5.14
 30
0.0
 11
213.31
 21
5.14
 31
0.0
  0
LINE
  8
RAAMI
 10
213.31
 20
8.5
 30
0.0
 11
212.4
 21
8.5
 31
0.0
  0
LINE
  8
RAAMI
 10
213.59
 20
2.9
 30
0.0
 11
214.709893
 21
2.9
 31
0.0
  0
LINE
  8
RAAMI
 10
213.59
 20
8.5
 30
0.0
 11
213.59
 21
5.14
 31
0.0
  0
LINE
  8
RAAMI
 10
213.31
 20
8.5
 30
0.0
 11
213.31
 21
5.14
 31
0.0
  0
LINE
  8
RAAMI
 10
214.5
 20
8.5
 30
0.0
 11
213.59
 21
8.5
 31
0.0
  0
LINE
  8
RAAMI
 10
214.711098
 20
2.896864
 30
0.0
 11
215.2
 21
1.5
 31
0.0
  0
LINE
  8
RAAMI
 10
214.5
 20
8.5
 30
0.0
 11
215.676353
 21
5.138992
 31
0.0
  0
LINE
  8
RAAMI
 10
212.18879
 20
2.896543
 30
0.0
 11
211.7
 21
1.5
 31
0.0
  0
LINE
  8
RAAMI
 10
212.188787
 20
2.9
 30
0.0
 11
213.31
 21
2.9
 31
0.0
  0
LINE
  8
RAAMI
 10
212.4
 20
8.5
 30
0.0
 11
211.222472
 21
5.135635
 31
0.0
  0
LINE
  8
RAAMI
 10
215.2
 20
1.5
 30
0.0
 11
216.95
 21
1.5
 31
0.0
  0
LINE
  8
RAAMI
 10
209.95
 20
1.5
 30
0.0
 11
211.7
 21
1.5
 31
0.0
  0
LINE
  8
OHUT
 10
369.5
 20
9.5
 30
0.0
 11
369.5
 21
0.0
 31
0.0
  0
TEXT
  8
RAAMI
 10
371.0
 20
7.0
 30
0.0
 40
1.4
  1
PAINOS  REVISION
  7
ROMANS
  0
LINE
  8
OHUT
 10
349.5
 20
9.5
 30
0.0
 11
349.5
 21
18.0
 31
0.0
  0
TEXT
  8
RAAMI
 10
309.0
 20
7.0
 30
0.0
 40
1.4
  1
PIIRUSTUS NO  DRAWING NR
  7
ROMANS
  0
TEXT
  8
RAAMI
 10
351.5
 20
15.5
 30
0.0
 40
1.4
  1
JAKELU  DISTRIBUTION
  7
ROMANS
  0
TEXT
  8
RAAMI
 10
309.0
 20
15.5
 30
0.0
 40
1.4
  1
KOODI  CODE
  7
ROMANS
  0
TEXT
  8
RAAMI
 10
309.0
 20
32.5
 30
0.0
 40
1.4
  1
NIMITYS  NAME
  7
ROMANS
  0
TEXT
  8
RAAMI
 10
283.5
 20
15.0
 30
0.0
 40
1.4
  1
PROJ
  7
ROMANS
  0
TEXT
  8
RAAMI
 10
259.0
 20
15.5
 30
0.0
 40
1.4
  1
SUHDE  SCALE
  7
ROMANS
  0
TEXT
  8
RAAMI
 10
259.0
 20
23.5
 30
0.0
 40
1.4
  1
TOLERANSSIT  TOLERANCES
  7
ROMANS
  0
TEXT
  8
RAAMI
 10
259.0
 20
32.5
 30
0.0
 40
1.4
  1
LIITTYY  CONCERNING
  7
ROMANS
  0
LINE
  8
OHUT
 10
307.0
 20
0.0
 30
0.0
 11
307.0
 21
35.0
 31
0.0
  0
TEXT
  8
RAAMI
 10
209.742835
 20
15.466667
 30
0.0
 40
1.4
  1
HYVÄKSYI  APPROVED
  7
ROMANS
  0
TEXT
  8
RAAMI
 10
210.0
 20
23.733333
 30
0.0
 40
1.4
  1
TARKASTI  CHECKED
  7
ROMANS
  0
LINE
  8
PAKSU
 10
209.0
 20
35.0
 30
0.0
 11
392.0
 21
35.0
 31
0.0
  0
LINE
  8
OHUT
 10
209.0
 20
26.5
 30
0.0
 11
307.0
 21
26.5
 31
0.0
  0
LINE
  8
OHUT
 10
209.0
 20
9.5
 30
0.0
 11
392.0
 21
9.5
 31
0.0
  0
LINE
  8
OHUT
 10
209.0
 20
18.0
 30
0.0
 11
392.0
 21
18.0
 31
0.0
  0
LINE
  8
PAKSU
 10
392.0
 20
0.0
 30
0.0
 11
392.0
 21
35.0
 31
0.0
  0
LINE
  8
PAKSU
 10
209.0
 20
0.0
 30
0.0
 11
209.0
 21
35.0
 31
0.0
  0
LINE
  8
RAAMI
 10
291.043267
 20
12.19521
 30
0.0
 11
296.053761
 21
11.040875
 31
0.0
  0
LINE
  8
RAAMI
 10
296.053761
 20
15.658214
 30
0.0
 11
291.043267
 21
14.388446
 31
0.0
  0
LINE
  8
RAAMI
 10
296.053761
 20
11.040875
 30
0.0
 11
296.053761
 21
15.658214
 31
0.0
  0
LINE
  8
RAAMI
 10
291.043267
 20
14.388446
 30
0.0
 11
291.043267
 21
12.19521
 31
0.0
  0
CIRCLE
  8
RAAMI
 10
301.462194
 20
13.405639
 30
0.0
 40
1.114665
  0
CIRCLE
  8
RAAMI
 10
301.462194
 20
13.405639
 30
0.0
 40
2.343654
  0
LINE
  8
PAKSU
 10
209.0
 20
0.0
 30
0.0
 11
392.0
 21
0.0
 31
0.0
  0
LINE
  8
RAAMI
 10
18.0
 20
0.0
 30
0.0
 11
0.0
 21
0.0
 31
0.0
  0
LINE
  8
PAKSU
 10
0.0
 20
262.5
 30
0.0
 11
392.0
 21
262.5
 31
0.0
  0
ENDBLK
  8
0
  0
BLOCK
  8
0
  2
*X19
 70
    65
 10
0.0
 20
0.0
 30
0.0
  3
*X
  0
LINE
  8
0
 62
     0
 10
2.284499
 20
6.52714
 30
0.0
 11
4.8
 21
9.042641
 31
0.0
  0
LINE
  8
0
 62
     0
 10
2.379686
 20
6.799104
 30
0.0
 11
4.8
 21
9.219417
 31
0.0
  0
LINE
  8
0
 62
     0
 10
2.474874
 20
7.071068
 30
0.0
 11
4.8
 21
9.396194
 31
0.0
  0
LINE
  8
0
 62
     0
 10
2.570061
 20
7.343032
 30
0.0
 11
4.8
 21
9.572971
 31
0.0
  0
LINE
  8
0
 62
     0
 10
2.665249
 20
7.614996
 30
0.0
 11
4.8
 21
9.749747
 31
0.0
  0
LINE
  8
0
 62
     0
 10
2.760436
 20
7.88696
 30
0.0
 11
4.8
 21
9.926524
 31
0.0
  0
LINE
  8
0
 62
     0
 10
2.855624
 20
8.158924
 30
0.0
 11
4.696699
 21
10.0
 31
0.0
  0
LINE
  8
0
 62
     0
 10
2.950811
 20
8.430889
 30
0.0
 11
4.519922
 21
10.0
 31
0.0
  0
LINE
  8
0
 62
     0
 10
3.045998
 20
8.702853
 30
0.0
 11
4.343146
 21
10.0
 31
0.0
  0
LINE
  8
0
 62
     0
 10
3.141186
 20
8.974817
 30
0.0
 11
4.166369
 21
10.0
 31
0.0
  0
LINE
  8
0
 62
     0
 10
3.236373
 20
9.246781
 30
0.0
 11
3.989592
 21
10.0
 31
0.0
  0
LINE
  8
0
 62
     0
 10
3.331561
 20
9.518745
 30
0.0
 11
3.812816
 21
10.0
 31
0.0
  0
LINE
  8
0
 62
     0
 10
3.426748
 20
9.790709
 30
0.0
 11
3.636039
 21
10.0
 31
0.0
  0
LINE
  8
0
 62
     0
 10
2.189311
 20
6.255175
 30
0.0
 11
4.8
 21
8.865864
 31
0.0
  0
LINE
  8
0
 62
     0
 10
2.094124
 20
5.983211
 30
0.0
 11
4.8
 21
8.689087
 31
0.0
  0
LINE
  8
0
 62
     0
 10
1.998936
 20
5.711247
 30
0.0
 11
4.8
 21
8.512311
 31
0.0
  0
LINE
  8
0
 62
     0
 10
1.903749
 20
5.439283
 30
0.0
 11
4.8
 21
8.335534
 31
0.0
  0
LINE
  8
0
 62
     0
 10
1.841243
 20
5.2
 30
0.0
 11
4.8
 21
8.158757
 31
0.0
  0
LINE
  8
0
 62
     0
 10
2.018019
 20
5.2
 30
0.0
 11
4.8
 21
7.981981
 31
0.0
  0
LINE
  8
0
 62
     0
 10
2.194796
 20
5.2
 30
0.0
 11
4.8
 21
7.805204
 31
0.0
  0
LINE
  8
0
 62
     0
 10
2.371573
 20
5.2
 30
0.0
 11
4.8
 21
7.628427
 31
0.0
  0
LINE
  8
0
 62
     0
 10
2.54835
 20
5.2
 30
0.0
 11
4.8
 21
7.45165
 31
0.0
  0
LINE
  8
0
 62
     0
 10
2.725126
 20
5.2
 30
0.0
 11
4.8
 21
7.274874
 31
0.0
  0
LINE
  8
0
 62
     0
 10
2.901903
 20
5.2
 30
0.0
 11
4.8
 21
7.098097
 31
0.0
  0
LINE
  8
0
 62
     0
 10
3.07868
 20
5.2
 30
0.0
 11
4.8
 21
6.92132
 31
0.0
  0
LINE
  8
0
 62
     0
 10
3.255456
 20
5.2
 30
0.0
 11
4.8
 21
6.744544
 31
0.0
  0
LINE
  8
0
 62
     0
 10
3.432233
 20
5.2
 30
0.0
 11
4.8
 21
6.567767
 31
0.0
  0
LINE
  8
0
 62
     0
 10
3.60901
 20
5.2
 30
0.0
 11
4.8
 21
6.39099
 31
0.0
  0
LINE
  8
0
 62
     0
 10
3.785786
 20
5.2
 30
0.0
 11
4.8
 21
6.214214
 31
0.0
  0
LINE
  8
0
 62
     0
 10
3.962563
 20
5.2
 30
0.0
 11
4.8
 21
6.037437
 31
0.0
  0
LINE
  8
0
 62
     0
 10
4.13934
 20
5.2
 30
0.0
 11
4.8
 21
5.86066
 31
0.0
  0
LINE
  8
0
 62
     0
 10
4.316117
 20
5.2
 30
0.0
 11
4.8
 21
5.683883
 31
0.0
  0
LINE
  8
0
 62
     0
 10
4.492893
 20
5.2
 30
0.0
 11
4.8
 21
5.507107
 31
0.0
  0
LINE
  8
0
 62
     0
 10
4.66967
 20
5.2
 30
0.0
 11
4.8
 21
5.33033
 31
0.0
  0
ENDBLK
  8
0
  0
BLOCK
  8
0
  2
*X20
 70
    65
 10
0.0
 20
0.0
 30
0.0
  3
*X
  0
LINE
  8
0
 62
     0
 10
5.2
 20
6.083883
 30
0.0
 11
7.178252
 21
8.062136
 31
0.0
  0
LINE
  8
0
 62
     0
 10
5.2
 20
6.26066
 30
0.0
 11
7.132421
 21
8.193082
 31
0.0
  0
LINE
  8
0
 62
     0
 10
5.2
 20
6.437437
 30
0.0
 11
7.08659
 21
8.324027
 31
0.0
  0
LINE
  8
0
 62
     0
 10
5.2
 20
6.614214
 30
0.0
 11
7.040759
 21
8.454973
 31
0.0
  0
LINE
  8
0
 62
     0
 10
5.2
 20
6.79099
 30
0.0
 11
6.994928
 21
8.585919
 31
0.0
  0
LINE
  8
0
 62
     0
 10
5.2
 20
6.967767
 30
0.0
 11
6.949097
 21
8.716864
 31
0.0
  0
LINE
  8
0
 62
     0
 10
5.2
 20
7.144544
 30
0.0
 11
6.903266
 21
8.84781
 31
0.0
  0
LINE
  8
0
 62
     0
 10
5.2
 20
7.32132
 30
0.0
 11
6.857435
 21
8.978756
 31
0.0
  0
LINE
  8
0
 62
     0
 10
5.2
 20
7.498097
 30
0.0
 11
6.811604
 21
9.109702
 31
0.0
  0
LINE
  8
0
 62
     0
 10
5.2
 20
7.674874
 30
0.0
 11
6.765773
 21
9.240647
 31
0.0
  0
LINE
  8
0
 62
     0
 10
5.2
 20
7.85165
 30
0.0
 11
6.719942
 21
9.371593
 31
0.0
  0
LINE
  8
0
 62
     0
 10
5.2
 20
8.028427
 30
0.0
 11
6.674111
 21
9.502539
 31
0.0
  0
LINE
  8
0
 62
     0
 10
5.2
 20
8.205204
 30
0.0
 11
6.62828
 21
9.633484
 31
0.0
  0
LINE
  8
0
 62
     0
 10
5.2
 20
8.381981
 30
0.0
 11
6.582449
 21
9.76443
 31
0.0
  0
LINE
  8
0
 62
     0
 10
5.2
 20
8.558757
 30
0.0
 11
6.536619
 21
9.895376
 31
0.0
  0
LINE
  8
0
 62
     0
 10
5.2
 20
8.735534
 30
0.0
 11
6.464466
 21
10.0
 31
0.0
  0
LINE
  8
0
 62
     0
 10
5.2
 20
8.912311
 30
0.0
 11
6.287689
 21
10.0
 31
0.0
  0
LINE
  8
0
 62
     0
 10
5.2
 20
9.089087
 30
0.0
 11
6.110913
 21
10.0
 31
0.0
  0
LINE
  8
0
 62
     0
 10
5.2
 20
9.265864
 30
0.0
 11
5.934136
 21
10.0
 31
0.0
  0
LINE
  8
0
 62
     0
 10
5.2
 20
9.442641
 30
0.0
 11
5.757359
 21
10.0
 31
0.0
  0
LINE
  8
0
 62
     0
 10
5.2
 20
9.619417
 30
0.0
 11
5.580583
 21
10.0
 31
0.0
  0
LINE
  8
0
 62
     0
 10
5.2
 20
9.796194
 30
0.0
 11
5.403806
 21
10.0
 31
0.0
  0
LINE
  8
0
 62
     0
 10
5.2
 20
9.972971
 30
0.0
 11
5.227029
 21
10.0
 31
0.0
  0
LINE
  8
0
 62
     0
 10
5.2
 20
5.907107
 30
0.0
 11
7.224083
 21
7.93119
 31
0.0
  0
LINE
  8
0
 62
     0
 10
5.2
 20
5.73033
 30
0.0
 11
7.269914
 21
7.800245
 31
0.0
  0
LINE
  8
0
 62
     0
 10
5.2
 20
5.553553
 30
0.0
 11
7.315745
 21
7.669299
 31
0.0
  0
LINE
  8
0
 62
     0
 10
5.2
 20
5.376777
 30
0.0
 11
7.361576
 21
7.538353
 31
0.0
  0
LINE
  8
0
 62
     0
 10
5.2
 20
5.2
 30
0.0
 11
7.407407
 21
7.407407
 31
0.0
  0
LINE
  8
0
 62
     0
 10
5.376777
 20
5.2
 30
0.0
 11
7.453238
 21
7.276462
 31
0.0
  0
LINE
  8
0
 62
     0
 10
5.553553
 20
5.2
 30
0.0
 11
7.499069
 21
7.145516
 31
0.0
  0
LINE
  8
0
 62
     0
 10
5.73033
 20
5.2
 30
0.0
 11
7.5449
 21
7.01457
 31
0.0
  0
LINE
  8
0
 62
     0
 10
5.907107
 20
5.2
 30
0.0
 11
7.590731
 21
6.883625
 31
0.0
  0
LINE
  8
0
 62
     0
 10
6.083883
 20
5.2
 30
0.0
 11
7.636562
 21
6.752679
 31
0.0
  0
LINE
  8
0
 62
     0
 10
6.26066
 20
5.2
 30
0.0
 11
7.682393
 21
6.621733
 31
0.0
  0
LINE
  8
0
 62
     0
 10
6.437437
 20
5.2
 30
0.0
 11
7.728224
 21
6.490788
 31
0.0
  0
LINE
  8
0
 62
     0
 10
6.614214
 20
5.2
 30
0.0
 11
7.774055
 21
6.359842
 31
0.0
  0
LINE
  8
0
 62
     0
 10
6.79099
 20
5.2
 30
0.0
 11
7.819886
 21
6.228896
 31
0.0
  0
LINE
  8
0
 62
     0
 10
6.967767
 20
5.2
 30
0.0
 11
7.865717
 21
6.09795
 31
0.0
  0
LINE
  8
0
 62
     0
 10
7.144544
 20
5.2
 30
0.0
 11
7.911548
 21
5.967005
 31
0.0
  0
LINE
  8
0
 62
     0
 10
7.32132
 20
5.2
 30
0.0
 11
7.957379
 21
5.836059
 31
0.0
  0
LINE
  8
0
 62
     0
 10
7.498097
 20
5.2
 30
0.0
 11
8.00321
 21
5.705113
 31
0.0
  0
LINE
  8
0
 62
     0
 10
7.674874
 20
5.2
 30
0.0
 11
8.049041
 21
5.574168
 31
0.0
  0
LINE
  8
0
 62
     0
 10
7.85165
 20
5.2
 30
0.0
 11
8.094872
 21
5.443222
 31
0.0
  0
LINE
  8
0
 62
     0
 10
8.028427
 20
5.2
 30
0.0
 11
8.140703
 21
5.312276
 31
0.0
  0
ENDBLK
  8
0
  0
BLOCK
  8
0
  2
*X21
 70
    65
 10
0.0
 20
0.0
 30
0.0
  3
*X
  0
LINE
  8
0
 62
     0
 10
0.0
 20
0.0
 30
0.0
 11
4.8
 21
4.8
 31
0.0
  0
LINE
  8
0
 62
     0
 10
0.095187
 20
0.271964
 30
0.0
 11
4.623223
 21
4.8
 31
0.0
  0
LINE
  8
0
 62
     0
 10
0.190375
 20
0.543928
 30
0.0
 11
4.446447
 21
4.8
 31
0.0
  0
LINE
  8
0
 62
     0
 10
0.285562
 20
0.815892
 30
0.0
 11
4.26967
 21
4.8
 31
0.0
  0
LINE
  8
0
 62
     0
 10
0.38075
 20
1.087857
 30
0.0
 11
4.092893
 21
4.8
 31
0.0
  0
LINE
  8
0
 62
     0
 10
0.475937
 20
1.359821
 30
0.0
 11
3.916117
 21
4.8
 31
0.0
  0
LINE
  8
0
 62
     0
 10
0.571125
 20
1.631785
 30
0.0
 11
3.73934
 21
4.8
 31
0.0
  0
LINE
  8
0
 62
     0
 10
0.666312
 20
1.903749
 30
0.0
 11
3.562563
 21
4.8
 31
0.0
  0
LINE
  8
0
 62
     0
 10
0.7615
 20
2.175713
 30
0.0
 11
3.385786
 21
4.8
 31
0.0
  0
LINE
  8
0
 62
     0
 10
0.856687
 20
2.447677
 30
0.0
 11
3.20901
 21
4.8
 31
0.0
  0
LINE
  8
0
 62
     0
 10
0.951875
 20
2.719641
 30
0.0
 11
3.032233
 21
4.8
 31
0.0
  0
LINE
  8
0
 62
     0
 10
1.047062
 20
2.991606
 30
0.0
 11
2.855456
 21
4.8
 31
0.0
  0
LINE
  8
0
 62
     0
 10
1.142249
 20
3.26357
 30
0.0
 11
2.67868
 21
4.8
 31
0.0
  0
LINE
  8
0
 62
     0
 10
1.237437
 20
3.535534
 30
0.0
 11
2.501903
 21
4.8
 31
0.0
  0
LINE
  8
0
 62
     0
 10
1.332624
 20
3.807498
 30
0.0
 11
2.325126
 21
4.8
 31
0.0
  0
LINE
  8
0
 62
     0
 10
1.427812
 20
4.079462
 30
0.0
 11
2.14835
 21
4.8
 31
0.0
  0
LINE
  8
0
 62
     0
 10
1.522999
 20
4.351426
 30
0.0
 11
1.971573
 21
4.8
 31
0.0
  0
LINE
  8
0
 62
     0
 10
1.618187
 20
4.62339
 30
0.0
 11
1.794796
 21
4.8
 31
0.0
  0
LINE
  8
0
 62
     0
 10
0.176777
 20
0.0
 30
0.0
 11
4.8
 21
4.623223
 31
0.0
  0
LINE
  8
0
 62
     0
 10
0.353553
 20
0.0
 30
0.0
 11
4.8
 21
4.446447
 31
0.0
  0
LINE
  8
0
 62
     0
 10
0.53033
 20
0.0
 30
0.0
 11
4.8
 21
4.26967
 31
0.0
  0
LINE
  8
0
 62
     0
 10
0.707107
 20
0.0
 30
0.0
 11
4.8
 21
4.092893
 31
0.0
  0
LINE
  8
0
 62
     0
 10
0.883883
 20
0.0
 30
0.0
 11
4.8
 21
3.916117
 31
0.0
  0
LINE
  8
0
 62
     0
 10
1.06066
 20
0.0
 30
0.0
 11
4.8
 21
3.73934
 31
0.0
  0
LINE
  8
0
 62
     0
 10
1.237437
 20
0.0
 30
0.0
 11
3.179842
 21
1.942405
 31
0.0
  0
LINE
  8
0
 62
     0
 10
3.237437
 20
2.0
 30
0.0
 11
4.8
 21
3.562563
 31
0.0
  0
LINE
  8
0
 62
     0
 10
1.414214
 20
0.0
 30
0.0
 11
3.084654
 21
1.670441
 31
0.0
  0
LINE
  8
0
 62
     0
 10
3.414214
 20
2.0
 30
0.0
 11
4.8
 21
3.385786
 31
0.0
  0
LINE
  8
0
 62
     0
 10
1.59099
 20
0.0
 30
0.0
 11
2.989467
 21
1.398477
 31
0.0
  0
LINE
  8
0
 62
     0
 10
3.59099
 20
2.0
 30
0.0
 11
4.8
 21
3.20901
 31
0.0
  0
LINE
  8
0
 62
     0
 10
1.767767
 20
0.0
 30
0.0
 11
2.894279
 21
1.126512
 31
0.0
  0
LINE
  8
0
 62
     0
 10
3.767767
 20
2.0
 30
0.0
 11
4.8
 21
3.032233
 31
0.0
  0
LINE
  8
0
 62
     0
 10
1.944544
 20
0.0
 30
0.0
 11
2.799092
 21
0.854548
 31
0.0
  0
LINE
  8
0
 62
     0
 10
3.944544
 20
2.0
 30
0.0
 11
4.8
 21
2.855456
 31
0.0
  0
LINE
  8
0
 62
     0
 10
2.12132
 20
0.0
 30
0.0
 11
2.703904
 21
0.582584
 31
0.0
  0
LINE
  8
0
 62
     0
 10
4.12132
 20
2.0
 30
0.0
 11
4.8
 21
2.67868
 31
0.0
  0
LINE
  8
0
 62
     0
 10
2.298097
 20
0.0
 30
0.0
 11
2.608717
 21
0.31062
 31
0.0
  0
LINE
  8
0
 62
     0
 10
4.298097
 20
2.0
 30
0.0
 11
4.8
 21
2.501903
 31
0.0
  0
LINE
  8
0
 62
     0
 10
2.474874
 20
0.0
 30
0.0
 11
2.51353
 21
0.038656
 31
0.0
  0
LINE
  8
0
 62
     0
 10
4.474874
 20
2.0
 30
0.0
 11
4.8
 21
2.325126
 31
0.0
  0
LINE
  8
0
 62
     0
 10
4.65165
 20
2.0
 30
0.0
 11
4.8
 21
2.14835
 31
0.0
  0
ENDBLK
  8
0
  0
BLOCK
  8
0
  2
*X22
 70
    65
 10
0.0
 20
0.0
 30
0.0
  3
*X
  0
LINE
  8
0
 62
     0
 10
6.884654
 20
1.75813
 30
0.0
 11
8.736506
 21
3.609982
 31
0.0
  0
LINE
  8
0
 62
     0
 10
6.838823
 20
1.889076
 30
0.0
 11
8.690675
 21
3.740928
 31
0.0
  0
LINE
  8
0
 62
     0
 10
6.772971
 20
2.0
 30
0.0
 11
8.644844
 21
3.871874
 31
0.0
  0
LINE
  8
0
 62
     0
 10
6.596194
 20
2.0
 30
0.0
 11
8.599013
 21
4.002819
 31
0.0
  0
LINE
  8
0
 62
     0
 10
6.419417
 20
2.0
 30
0.0
 11
8.553182
 21
4.133765
 31
0.0
  0
LINE
  8
0
 62
     0
 10
6.242641
 20
2.0
 30
0.0
 11
8.507351
 21
4.264711
 31
0.0
  0
LINE
  8
0
 62
     0
 10
6.065864
 20
2.0
 30
0.0
 11
8.46152
 21
4.395656
 31
0.0
  0
LINE
  8
0
 62
     0
 10
5.889087
 20
2.0
 30
0.0
 11
8.415689
 21
4.526602
 31
0.0
  0
LINE
  8
0
 62
     0
 10
5.712311
 20
2.0
 30
0.0
 11
8.369858
 21
4.657548
 31
0.0
  0
LINE
  8
0
 62
     0
 10
5.535534
 20
2.0
 30
0.0
 11
8.324027
 21
4.788493
 31
0.0
  0
LINE
  8
0
 62
     0
 10
5.358757
 20
2.0
 30
0.0
 11
8.158757
 21
4.8
 31
0.0
  0
LINE
  8
0
 62
     0
 10
5.2
 20
2.018019
 30
0.0
 11
7.981981
 21
4.8
 31
0.0
  0
LINE
  8
0
 62
     0
 10
5.2
 20
2.194796
 30
0.0
 11
7.805204
 21
4.8
 31
0.0
  0
LINE
  8
0
 62
     0
 10
5.2
 20
2.371573
 30
0.0
 11
7.628427
 21
4.8
 31
0.0
  0
LINE
  8
0
 62
     0
 10
5.2
 20
2.54835
 30
0.0
 11
7.45165
 21
4.8
 31
0.0
  0
LINE
  8
0
 62
     0
 10
5.2
 20
2.725126
 30
0.0
 11
7.274874
 21
4.8
 31
0.0
  0
LINE
  8
0
 62
     0
 10
5.2
 20
2.901903
 30
0.0
 11
7.098097
 21
4.8
 31
0.0
  0
LINE
  8
0
 62
     0
 10
5.2
 20
3.07868
 30
0.0
 11
6.92132
 21
4.8
 31
0.0
  0
LINE
  8
0
 62
     0
 10
5.2
 20
3.255456
 30
0.0
 11
6.744544
 21
4.8
 31
0.0
  0
LINE
  8
0
 62
     0
 10
5.2
 20
3.432233
 30
0.0
 11
6.567767
 21
4.8
 31
0.0
  0
LINE
  8
0
 62
     0
 10
5.2
 20
3.60901
 30
0.0
 11
6.39099
 21
4.8
 31
0.0
  0
LINE
  8
0
 62
     0
 10
5.2
 20
3.785786
 30
0.0
 11
6.214214
 21
4.8
 31
0.0
  0
LINE
  8
0
 62
     0
 10
5.2
 20
3.962563
 30
0.0
 11
6.037437
 21
4.8
 31
0.0
  0
LINE
  8
0
 62
     0
 10
5.2
 20
4.13934
 30
0.0
 11
5.86066
 21
4.8
 31
0.0
  0
LINE
  8
0
 62
     0
 10
5.2
 20
4.316117
 30
0.0
 11
5.683883
 21
4.8
 31
0.0
  0
LINE
  8
0
 62
     0
 10
5.2
 20
4.492893
 30
0.0
 11
5.507107
 21
4.8
 31
0.0
  0
LINE
  8
0
 62
     0
 10
5.2
 20
4.66967
 30
0.0
 11
5.33033
 21
4.8
 31
0.0
  0
LINE
  8
0
 62
     0
 10
6.930485
 20
1.627185
 30
0.0
 11
8.782337
 21
3.479036
 31
0.0
  0
LINE
  8
0
 62
     0
 10
6.976316
 20
1.496239
 30
0.0
 11
8.828168
 21
3.348091
 31
0.0
  0
LINE
  8
0
 62
     0
 10
7.022147
 20
1.365293
 30
0.0
 11
8.873999
 21
3.217145
 31
0.0
  0
LINE
  8
0
 62
     0
 10
7.067978
 20
1.234347
 30
0.0
 11
8.91983
 21
3.086199
 31
0.0
  0
LINE
  8
0
 62
     0
 10
7.113809
 20
1.103402
 30
0.0
 11
8.965661
 21
2.955254
 31
0.0
  0
LINE
  8
0
 62
     0
 10
7.15964
 20
0.972456
 30
0.0
 11
9.011492
 21
2.824308
 31
0.0
  0
LINE
  8
0
 62
     0
 10
7.205471
 20
0.84151
 30
0.0
 11
9.057323
 21
2.693362
 31
0.0
  0
LINE
  8
0
 62
     0
 10
7.251302
 20
0.710565
 30
0.0
 11
9.103154
 21
2.562416
 31
0.0
  0
LINE
  8
0
 62
     0
 10
7.297133
 20
0.579619
 30
0.0
 11
9.148985
 21
2.431471
 31
0.0
  0
LINE
  8
0
 62
     0
 10
7.342964
 20
0.448673
 30
0.0
 11
9.194816
 21
2.300525
 31
0.0
  0
LINE
  8
0
 62
     0
 10
7.388795
 20
0.317728
 30
0.0
 11
9.240647
 21
2.169579
 31
0.0
  0
LINE
  8
0
 62
     0
 10
7.434626
 20
0.186782
 30
0.0
 11
9.286478
 21
2.038634
 31
0.0
  0
LINE
  8
0
 62
     0
 10
7.480457
 20
0.055836
 30
0.0
 11
9.332309
 21
1.907688
 31
0.0
  0
LINE
  8
0
 62
     0
 10
7.601398
 20
0.0
 30
0.0
 11
9.37814
 21
1.776742
 31
0.0
  0
LINE
  8
0
 62
     0
 10
7.778175
 20
0.0
 30
0.0
 11
9.423971
 21
1.645797
 31
0.0
  0
LINE
  8
0
 62
     0
 10
7.954951
 20
0.0
 30
0.0
 11
9.469802
 21
1.514851
 31
0.0
  0
LINE
  8
0
 62
     0
 10
8.131728
 20
0.0
 30
0.0
 11
9.515633
 21
1.383905
 31
0.0
  0
LINE
  8
0
 62
     0
 10
8.308505
 20
0.0
 30
0.0
 11
9.561464
 21
1.252959
 31
0.0
  0
LINE
  8
0
 62
     0
 10
8.485281
 20
0.0
 30
0.0
 11
9.607295
 21
1.122014
 31
0.0
  0
LINE
  8
0
 62
     0
 10
8.662058
 20
0.0
 30
0.0
 11
9.653126
 21
0.991068
 31
0.0
  0
LINE
  8
0
 62
     0
 10
8.838835
 20
0.0
 30
0.0
 11
9.698957
 21
0.860122
 31
0.0
  0
LINE
  8
0
 62
     0
 10
9.015611
 20
0.0
 30
0.0
 11
9.744788
 21
0.729177
 31
0.0
  0
LINE
  8
0
 62
     0
 10
9.192388
 20
0.0
 30
0.0
 11
9.790619
 21
0.598231
 31
0.0
  0
LINE
  8
0
 62
     0
 10
9.369165
 20
0.0
 30
0.0
 11
9.83645
 21
0.467285
 31
0.0
  0
LINE
  8
0
 62
     0
 10
9.545942
 20
0.0
 30
0.0
 11
9.882281
 21
0.33634
 31
0.0
  0
LINE
  8
0
 62
     0
 10
9.722718
 20
0.0
 30
0.0
 11
9.928112
 21
0.205394
 31
0.0
  0
LINE
  8
0
 62
     0
 10
9.899495
 20
0.0
 30
0.0
 11
9.973943
 21
0.074448
 31
0.0
  0
ENDBLK
  8
0
  0
BLOCK
  8
0
  2
*X23
 70
    65
 10
0.0
 20
0.0
 30
0.0
  3
*X
  0
LINE
  8
0
 62
     0
 10
10.7
 20
6.280583
 30
0.0
 11
13.5
 21
9.080583
 31
0.0
  0
LINE
  8
0
 62
     0
 10
10.7
 20
6.457359
 30
0.0
 11
13.5
 21
9.257359
 31
0.0
  0
LINE
  8
0
 62
     0
 10
10.7
 20
6.634136
 30
0.0
 11
13.5
 21
9.434136
 31
0.0
  0
LINE
  8
0
 62
     0
 10
10.7
 20
6.810913
 30
0.0
 11
13.5
 21
9.610913
 31
0.0
  0
LINE
  8
0
 62
     0
 10
10.7
 20
6.987689
 30
0.0
 11
13.5
 21
9.787689
 31
0.0
  0
LINE
  8
0
 62
     0
 10
10.7
 20
7.164466
 30
0.0
 11
13.5
 21
9.964466
 31
0.0
  0
LINE
  8
0
 62
     0
 10
10.7
 20
7.341243
 30
0.0
 11
13.358757
 21
10.0
 31
0.0
  0
LINE
  8
0
 62
     0
 10
10.7
 20
7.518019
 30
0.0
 11
13.181981
 21
10.0
 31
0.0
  0
LINE
  8
0
 62
     0
 10
10.7
 20
7.694796
 30
0.0
 11
13.005204
 21
10.0
 31
0.0
  0
LINE
  8
0
 62
     0
 10
10.7
 20
7.871573
 30
0.0
 11
12.828427
 21
10.0
 31
0.0
  0
LINE
  8
0
 62
     0
 10
10.7
 20
8.04835
 30
0.0
 11
12.65165
 21
10.0
 31
0.0
  0
LINE
  8
0
 62
     0
 10
10.7
 20
8.225126
 30
0.0
 11
12.474874
 21
10.0
 31
0.0
  0
LINE
  8
0
 62
     0
 10
10.7
 20
8.401903
 30
0.0
 11
12.298097
 21
10.0
 31
0.0
  0
LINE
  8
0
 62
     0
 10
10.7
 20
8.57868
 30
0.0
 11
12.12132
 21
10.0
 31
0.0
  0
LINE
  8
0
 62
     0
 10
10.7
 20
8.755456
 30
0.0
 11
11.944544
 21
10.0
 31
0.0
  0
LINE
  8
0
 62
     0
 10
10.7
 20
8.932233
 30
0.0
 11
11.767767
 21
10.0
 31
0.0
  0
LINE
  8
0
 62
     0
 10
10.7
 20
9.10901
 30
0.0
 11
11.59099
 21
10.0
 31
0.0
  0
LINE
  8
0
 62
     0
 10
10.7
 20
9.285786
 30
0.0
 11
11.414214
 21
10.0
 31
0.0
  0
LINE
  8
0
 62
     0
 10
10.7
 20
9.462563
 30
0.0
 11
11.237437
 21
10.0
 31
0.0
  0
LINE
  8
0
 62
     0
 10
10.7
 20
9.63934
 30
0.0
 11
11.06066
 21
10.0
 31
0.0
  0
LINE
  8
0
 62
     0
 10
10.7
 20
9.816117
 30
0.0
 11
10.883883
 21
10.0
 31
0.0
  0
LINE
  8
0
 62
     0
 10
10.7
 20
9.992893
 30
0.0
 11
10.707107
 21
10.0
 31
0.0
  0
LINE
  8
0
 62
     0
 10
10.7
 20
6.103806
 30
0.0
 11
13.5
 21
8.903806
 31
0.0
  0
LINE
  8
0
 62
     0
 10
10.7
 20
5.927029
 30
0.0
 11
13.5
 21
8.727029
 31
0.0
  0
LINE
  8
0
 62
     0
 10
10.7
 20
5.750253
 30
0.0
 11
13.5
 21
8.550253
 31
0.0
  0
LINE
  8
0
 62
     0
 10
10.7
 20
5.573476
 30
0.0
 11
13.5
 21
8.373476
 31
0.0
  0
LINE
  8
0
 62
     0
 10
10.7
 20
5.396699
 30
0.0
 11
13.5
 21
8.196699
 31
0.0
  0
LINE
  8
0
 62
     0
 10
10.7
 20
5.219922
 30
0.0
 11
13.5
 21
8.019922
 31
0.0
  0
LINE
  8
0
 62
     0
 10
10.856854
 20
5.2
 30
0.0
 11
13.5
 21
7.843146
 31
0.0
  0
LINE
  8
0
 62
     0
 10
11.033631
 20
5.2
 30
0.0
 11
13.5
 21
7.666369
 31
0.0
  0
LINE
  8
0
 62
     0
 10
11.210408
 20
5.2
 30
0.0
 11
13.5
 21
7.489592
 31
0.0
  0
LINE
  8
0
 62
     0
 10
11.387184
 20
5.2
 30
0.0
 11
13.5
 21
7.312816
 31
0.0
  0
LINE
  8
0
 62
     0
 10
11.563961
 20
5.2
 30
0.0
 11
13.5
 21
7.136039
 31
0.0
  0
LINE
  8
0
 62
     0
 10
11.740738
 20
5.2
 30
0.0
 11
13.5
 21
6.959262
 31
0.0
  0
LINE
  8
0
 62
     0
 10
11.917514
 20
5.2
 30
0.0
 11
13.5
 21
6.782486
 31
0.0
  0
LINE
  8
0
 62
     0
 10
12.094291
 20
5.2
 30
0.0
 11
13.5
 21
6.605709
 31
0.0
  0
LINE
  8
0
 62
     0
 10
12.271068
 20
5.2
 30
0.0
 11
13.5
 21
6.428932
 31
0.0
  0
LINE
  8
0
 62
     0
 10
12.447845
 20
5.2
 30
0.0
 11
13.5
 21
6.252155
 31
0.0
  0
LINE
  8
0
 62
     0
 10
12.624621
 20
5.2
 30
0.0
 11
13.5
 21
6.075379
 31
0.0
  0
LINE
  8
0
 62
     0
 10
12.801398
 20
5.2
 30
0.0
 11
13.5
 21
5.898602
 31
0.0
  0
LINE
  8
0
 62
     0
 10
12.978175
 20
5.2
 30
0.0
 11
13.5
 21
5.721825
 31
0.0
  0
LINE
  8
0
 62
     0
 10
13.154951
 20
5.2
 30
0.0
 11
13.5
 21
5.545049
 31
0.0
  0
LINE
  8
0
 62
     0
 10
13.331728
 20
5.2
 30
0.0
 11
13.5
 21
5.368272
 31
0.0
  0
ENDBLK
  8
0
  0
BLOCK
  8
0
  2
*X24
 70
    65
 10
0.0
 20
0.0
 30
0.0
  3
*X
  0
LINE
  8
0
 62
     0
 10
10.7
 20
1.154058
 30
0.0
 11
13.5
 21
3.954058
 31
0.0
  0
LINE
  8
0
 62
     0
 10
10.7
 20
1.330835
 30
0.0
 11
13.5
 21
4.130835
 31
0.0
  0
LINE
  8
0
 62
     0
 10
10.7
 20
1.507612
 30
0.0
 11
13.5
 21
4.307612
 31
0.0
  0
LINE
  8
0
 62
     0
 10
10.7
 20
1.684389
 30
0.0
 11
13.5
 21
4.484389
 31
0.0
  0
LINE
  8
0
 62
     0
 10
10.7
 20
1.861165
 30
0.0
 11
13.5
 21
4.661165
 31
0.0
  0
LINE
  8
0
 62
     0
 10
10.7
 20
2.037942
 30
0.0
 11
13.462058
 21
4.8
 31
0.0
  0
LINE
  8
0
 62
     0
 10
10.7
 20
2.214719
 30
0.0
 11
13.285281
 21
4.8
 31
0.0
  0
LINE
  8
0
 62
     0
 10
10.7
 20
2.391495
 30
0.0
 11
13.108505
 21
4.8
 31
0.0
  0
LINE
  8
0
 62
     0
 10
10.7
 20
2.568272
 30
0.0
 11
12.931728
 21
4.8
 31
0.0
  0
LINE
  8
0
 62
     0
 10
10.7
 20
2.745049
 30
0.0
 11
12.754951
 21
4.8
 31
0.0
  0
LINE
  8
0
 62
     0
 10
10.7
 20
2.921825
 30
0.0
 11
12.578175
 21
4.8
 31
0.0
  0
LINE
  8
0
 62
     0
 10
10.7
 20
3.098602
 30
0.0
 11
12.401398
 21
4.8
 31
0.0
  0
LINE
  8
0
 62
     0
 10
10.7
 20
3.275379
 30
0.0
 11
12.224621
 21
4.8
 31
0.0
  0
LINE
  8
0
 62
     0
 10
10.7
 20
3.452155
 30
0.0
 11
12.047845
 21
4.8
 31
0.0
  0
LINE
  8
0
 62
     0
 10
10.7
 20
3.628932
 30
0.0
 11
11.871068
 21
4.8
 31
0.0
  0
LINE
  8
0
 62
     0
 10
10.7
 20
3.805709
 30
0.0
 11
11.694291
 21
4.8
 31
0.0
  0
LINE
  8
0
 62
     0
 10
10.7
 20
3.982486
 30
0.0
 11
11.517514
 21
4.8
 31
0.0
  0
LINE
  8
0
 62
     0
 10
10.7
 20
4.159262
 30
0.0
 11
11.340738
 21
4.8
 31
0.0
  0
LINE
  8
0
 62
     0
 10
10.7
 20
4.336039
 30
0.0
 11
11.163961
 21
4.8
 31
0.0
  0
LINE
  8
0
 62
     0
 10
10.7
 20
4.512816
 30
0.0
 11
10.987184
 21
4.8
 31
0.0
  0
LINE
  8
0
 62
     0
 10
10.7
 20
4.689592
 30
0.0
 11
10.810408
 21
4.8
 31
0.0
  0
LINE
  8
0
 62
     0
 10
10.7
 20
0.977282
 30
0.0
 11
13.5
 21
3.777282
 31
0.0
  0
LINE
  8
0
 62
     0
 10
10.7
 20
0.800505
 30
0.0
 11
13.5
 21
3.600505
 31
0.0
  0
LINE
  8
0
 62
     0
 10
10.7
 20
0.623728
 30
0.0
 11
13.5
 21
3.423728
 31
0.0
  0
LINE
  8
0
 62
     0
 10
10.7
 20
0.446952
 30
0.0
 11
13.5
 21
3.246952
 31
0.0
  0
LINE
  8
0
 62
     0
 10
10.7
 20
0.270175
 30
0.0
 11
13.5
 21
3.070175
 31
0.0
  0
LINE
  8
0
 62
     0
 10
10.7
 20
0.093398
 30
0.0
 11
13.5
 21
2.893398
 31
0.0
  0
LINE
  8
0
 62
     0
 10
10.783378
 20
0.0
 30
0.0
 11
13.5
 21
2.716622
 31
0.0
  0
LINE
  8
0
 62
     0
 10
10.960155
 20
0.0
 30
0.0
 11
13.5
 21
2.539845
 31
0.0
  0
LINE
  8
0
 62
     0
 10
11.136932
 20
0.0
 30
0.0
 11
13.5
 21
2.363068
 31
0.0
  0
LINE
  8
0
 62
     0
 10
11.313708
 20
0.0
 30
0.0
 11
13.5
 21
2.186292
 31
0.0
  0
LINE
  8
0
 62
     0
 10
11.490485
 20
0.0
 30
0.0
 11
13.5
 21
2.009515
 31
0.0
  0
LINE
  8
0
 62
     0
 10
11.667262
 20
0.0
 30
0.0
 11
13.5
 21
1.832738
 31
0.0
  0
LINE
  8
0
 62
     0
 10
11.844039
 20
0.0
 30
0.0
 11
13.5
 21
1.655961
 31
0.0
  0
LINE
  8
0
 62
     0
 10
12.020815
 20
0.0
 30
0.0
 11
13.5
 21
1.479185
 31
0.0
  0
LINE
  8
0
 62
     0
 10
12.197592
 20
0.0
 30
0.0
 11
13.5
 21
1.302408
 31
0.0
  0
LINE
  8
0
 62
     0
 10
12.374369
 20
0.0
 30
0.0
 11
13.5
 21
1.125631
 31
0.0
  0
LINE
  8
0
 62
     0
 10
12.551145
 20
0.0
 30
0.0
 11
13.5
 21
0.948855
 31
0.0
  0
LINE
  8
0
 62
     0
 10
12.727922
 20
0.0
 30
0.0
 11
13.5
 21
0.772078
 31
0.0
  0
LINE
  8
0
 62
     0
 10
12.904699
 20
0.0
 30
0.0
 11
13.5
 21
0.595301
 31
0.0
  0
LINE
  8
0
 62
     0
 10
13.081475
 20
0.0
 30
0.0
 11
13.5
 21
0.418525
 31
0.0
  0
LINE
  8
0
 62
     0
 10
13.258252
 20
0.0
 30
0.0
 11
13.5
 21
0.241748
 31
0.0
  0
LINE
  8
0
 62
     0
 10
13.435029
 20
0.0
 30
0.0
 11
13.5
 21
0.064971
 31
0.0
  0
ENDBLK
  8
0
  0
BLOCK
  8
0
  2
*X25
 70
    65
 10
0.0
 20
0.0
 30
0.0
  3
*X
  0
LINE
  8
0
 62
     0
 10
13.9
 20
6.298602
 30
0.0
 11
16.582995
 21
8.981597
 31
0.0
  0
LINE
  8
0
 62
     0
 10
13.9
 20
6.475379
 30
0.0
 11
16.510503
 21
9.085882
 31
0.0
  0
LINE
  8
0
 62
     0
 10
13.9
 20
6.652155
 30
0.0
 11
16.432927
 21
9.185083
 31
0.0
  0
LINE
  8
0
 62
     0
 10
13.9
 20
6.828932
 30
0.0
 11
16.350372
 21
9.279304
 31
0.0
  0
LINE
  8
0
 62
     0
 10
13.9
 20
7.005709
 30
0.0
 11
16.262892
 21
9.368601
 31
0.0
  0
LINE
  8
0
 62
     0
 10
13.9
 20
7.182486
 30
0.0
 11
16.170495
 21
9.452981
 31
0.0
  0
LINE
  8
0
 62
     0
 10
13.9
 20
7.359262
 30
0.0
 11
16.073145
 21
9.532407
 31
0.0
  0
LINE
  8
0
 62
     0
 10
13.9
 20
7.536039
 30
0.0
 11
15.970755
 21
9.606794
 31
0.0
  0
LINE
  8
0
 62
     0
 10
13.9
 20
7.712816
 30
0.0
 11
15.863189
 21
9.676004
 31
0.0
  0
LINE
  8
0
 62
     0
 10
13.9
 20
7.889592
 30
0.0
 11
15.75025
 21
9.739843
 31
0.0
  0
LINE
  8
0
 62
     0
 10
13.9
 20
8.066369
 30
0.0
 11
15.631675
 21
9.798044
 31
0.0
  0
LINE
  8
0
 62
     0
 10
13.9
 20
8.243146
 30
0.0
 11
15.50711
 21
9.850256
 31
0.0
  0
LINE
  8
0
 62
     0
 10
13.9
 20
8.419922
 30
0.0
 11
15.376096
 21
9.896018
 31
0.0
  0
LINE
  8
0
 62
     0
 10
13.9
 20
8.596699
 30
0.0
 11
15.238027
 21
9.934726
 31
0.0
  0
LINE
  8
0
 62
     0
 10
13.9
 20
8.773476
 30
0.0
 11
15.092096
 21
9.965572
 31
0.0
  0
LINE
  8
0
 62
     0
 10
13.9
 20
8.950253
 30
0.0
 11
14.937209
 21
9.987461
 31
0.0
  0
LINE
  8
0
 62
     0
 10
13.9
 20
9.127029
 30
0.0
 11
14.771824
 21
9.998853
 31
0.0
  0
LINE
  8
0
 62
     0
 10
13.9
 20
9.303806
 30
0.0
 11
14.596193
 21
9.999999
 31
0.0
  0
LINE
  8
0
 62
     0
 10
13.9
 20
9.480583
 30
0.0
 11
14.419417
 21
9.999999
 31
0.0
  0
LINE
  8
0
 62
     0
 10
13.9
 20
9.657359
 30
0.0
 11
14.24264
 21
10.0
 31
0.0
  0
LINE
  8
0
 62
     0
 10
13.9
 20
9.834136
 30
0.0
 11
14.065864
 21
10.0
 31
0.0
  0
LINE
  8
0
 62
     0
 10
13.9
 20
6.121825
 30
0.0
 11
16.650245
 21
8.872071
 31
0.0
  0
LINE
  8
0
 62
     0
 10
13.9
 20
5.945049
 30
0.0
 11
16.712035
 21
8.757083
 31
0.0
  0
LINE
  8
0
 62
     0
 10
13.9
 20
5.768272
 30
0.0
 11
16.768067
 21
8.636339
 31
0.0
  0
LINE
  8
0
 62
     0
 10
13.9
 20
5.591495
 30
0.0
 11
16.817955
 21
8.509451
 31
0.0
  0
LINE
  8
0
 62
     0
 10
13.9
 20
5.414719
 30
0.0
 11
16.861189
 21
8.375908
 31
0.0
  0
LINE
  8
0
 62
     0
 10
13.9
 20
5.237942
 30
0.0
 11
16.897097
 21
8.235039
 31
0.0
  0
LINE
  8
0
 62
     0
 10
14.038835
 20
5.2
 30
0.0
 11
16.924779
 21
8.085944
 31
0.0
  0
LINE
  8
0
 62
     0
 10
14.215611
 20
5.2
 30
0.0
 11
16.942997
 21
7.927385
 31
0.0
  0
LINE
  8
0
 62
     0
 10
14.392388
 20
5.2
 30
0.0
 11
16.949987
 21
7.757599
 31
0.0
  0
LINE
  8
0
 62
     0
 10
14.569165
 20
5.2
 30
0.0
 11
16.943101
 21
7.573936
 31
0.0
  0
LINE
  8
0
 62
     0
 10
14.745942
 20
5.2
 30
0.0
 11
16.918037
 21
7.372095
 31
0.0
  0
LINE
  8
0
 62
     0
 10
14.922718
 20
5.2
 30
0.0
 11
16.866909
 21
7.144191
 31
0.0
  0
LINE
  8
0
 62
     0
 10
15.099495
 20
5.2
 30
0.0
 11
16.771715
 21
6.87222
 31
0.0
  0
LINE
  8
0
 62
     0
 10
15.276272
 20
5.2
 30
0.0
 11
15.847951
 21
5.77168
 31
0.0
  0
LINE
  8
0
 62
     0
 10
15.96673
 20
5.890458
 30
0.0
 11
16.559542
 21
6.48327
 31
0.0
  0
LINE
  8
0
 62
     0
 10
15.453048
 20
5.2
 30
0.0
 11
15.970661
 21
5.717613
 31
0.0
  0
LINE
  8
0
 62
     0
 10
15.629825
 20
5.2
 30
0.0
 11
16.088934
 21
5.659109
 31
0.0
  0
LINE
  8
0
 62
     0
 10
15.806602
 20
5.2
 30
0.0
 11
16.202964
 21
5.596363
 31
0.0
  0
LINE
  8
0
 62
     0
 10
15.983378
 20
5.2
 30
0.0
 11
16.312909
 21
5.529531
 31
0.0
  0
LINE
  8
0
 62
     0
 10
16.160155
 20
5.2
 30
0.0
 11
16.418895
 21
5.45874
 31
0.0
  0
LINE
  8
0
 62
     0
 10
16.336932
 20
5.2
 30
0.0
 11
16.521021
 21
5.384089
 31
0.0
  0
LINE
  8
0
 62
     0
 10
16.513708
 20
5.2
 30
0.0
 11
16.619363
 21
5.305655
 31
0.0
  0
LINE
  8
0
 62
     0
 10
16.690485
 20
5.2
 30
0.0
 11
16.713975
 21
5.22349
 31
0.0
  0
ENDBLK
  8
0
  0
BLOCK
  8
0
  2
*X26
 70
    65
 10
0.0
 20
0.0
 30
0.0
  3
*X
  0
LINE
  8
0
 62
     0
 10
13.9
 20
0.818525
 30
0.0
 11
17.39645
 21
4.314974
 31
0.0
  0
LINE
  8
0
 62
     0
 10
13.9
 20
0.995301
 30
0.0
 11
17.336354
 21
4.431655
 31
0.0
  0
LINE
  8
0
 62
     0
 10
13.9
 20
1.172078
 30
0.0
 11
17.272078
 21
4.544156
 31
0.0
  0
LINE
  8
0
 62
     0
 10
13.9
 20
1.348855
 30
0.0
 11
17.203766
 21
4.652621
 31
0.0
  0
LINE
  8
0
 62
     0
 10
13.9
 20
1.525631
 30
0.0
 11
17.131535
 21
4.757167
 31
0.0
  0
LINE
  8
0
 62
     0
 10
13.9
 20
1.702408
 30
0.0
 11
16.997592
 21
4.8
 31
0.0
  0
LINE
  8
0
 62
     0
 10
13.9
 20
1.879185
 30
0.0
 11
16.820815
 21
4.8
 31
0.0
  0
LINE
  8
0
 62
     0
 10
13.9
 20
2.055961
 30
0.0
 11
16.644039
 21
4.8
 31
0.0
  0
LINE
  8
0
 62
     0
 10
13.9
 20
2.232738
 30
0.0
 11
16.467262
 21
4.8
 31
0.0
  0
LINE
  8
0
 62
     0
 10
13.9
 20
2.409515
 30
0.0
 11
16.290485
 21
4.8
 31
0.0
  0
LINE
  8
0
 62
     0
 10
13.9
 20
2.586292
 30
0.0
 11
16.113708
 21
4.8
 31
0.0
  0
LINE
  8
0
 62
     0
 10
13.9
 20
2.763068
 30
0.0
 11
15.936932
 21
4.8
 31
0.0
  0
LINE
  8
0
 62
     0
 10
13.9
 20
2.939845
 30
0.0
 11
15.760155
 21
4.8
 31
0.0
  0
LINE
  8
0
 62
     0
 10
13.9
 20
3.116622
 30
0.0
 11
15.583378
 21
4.8
 31
0.0
  0
LINE
  8
0
 62
     0
 10
13.9
 20
3.293398
 30
0.0
 11
15.406602
 21
4.8
 31
0.0
  0
LINE
  8
0
 62
     0
 10
13.9
 20
3.470175
 30
0.0
 11
15.229825
 21
4.8
 31
0.0
  0
LINE
  8
0
 62
     0
 10
13.9
 20
3.646952
 30
0.0
 11
15.053048
 21
4.8
 31
0.0
  0
LINE
  8
0
 62
     0
 10
13.9
 20
3.823728
 30
0.0
 11
14.876272
 21
4.8
 31
0.0
  0
LINE
  8
0
 62
     0
 10
13.9
 20
4.000505
 30
0.0
 11
14.699495
 21
4.8
 31
0.0
  0
LINE
  8
0
 62
     0
 10
13.9
 20
4.177282
 30
0.0
 11
14.522718
 21
4.8
 31
0.0
  0
LINE
  8
0
 62
     0
 10
13.9
 20
4.354058
 30
0.0
 11
14.345942
 21
4.8
 31
0.0
  0
LINE
  8
0
 62
     0
 10
13.9
 20
4.530835
 30
0.0
 11
14.169165
 21
4.8
 31
0.0
  0
LINE
  8
0
 62
     0
 10
13.9
 20
4.707612
 30
0.0
 11
13.992388
 21
4.8
 31
0.0
  0
LINE
  8
0
 62
     0
 10
13.9
 20
0.641748
 30
0.0
 11
17.452185
 21
4.193933
 31
0.0
  0
LINE
  8
0
 62
     0
 10
13.9
 20
0.464971
 30
0.0
 11
17.503339
 21
4.068311
 31
0.0
  0
LINE
  8
0
 62
     0
 10
13.9
 20
0.288194
 30
0.0
 11
17.549642
 21
3.937837
 31
0.0
  0
LINE
  8
0
 62
     0
 10
13.9
 20
0.111418
 30
0.0
 11
17.590762
 21
3.80218
 31
0.0
  0
LINE
  8
0
 62
     0
 10
13.965359
 20
0.0
 30
0.0
 11
17.62629
 21
3.660931
 31
0.0
  0
LINE
  8
0
 62
     0
 10
14.142136
 20
0.000001
 30
0.0
 11
17.655713
 21
3.513577
 31
0.0
  0
LINE
  8
0
 62
     0
 10
14.318913
 20
0.000001
 30
0.0
 11
17.678385
 21
3.359473
 31
0.0
  0
LINE
  8
0
 62
     0
 10
14.49569
 20
0.000001
 30
0.0
 11
17.693473
 21
3.197784
 31
0.0
  0
LINE
  8
0
 62
     0
 10
14.672467
 20
0.000002
 30
0.0
 11
17.699875
 21
3.027409
 31
0.0
  0
LINE
  8
0
 62
     0
 10
14.853154
 20
0.003912
 30
0.0
 11
17.696088
 21
2.846846
 31
0.0
  0
LINE
  8
0
 62
     0
 10
15.046044
 20
0.020025
 30
0.0
 11
17.679975
 21
2.653956
 31
0.0
  0
LINE
  8
0
 62
     0
 10
15.254483
 20
0.051687
 30
0.0
 11
17.648313
 21
2.445517
 31
0.0
  0
LINE
  8
0
 62
     0
 10
15.483762
 20
0.10419
 30
0.0
 11
17.59581
 21
2.216238
 31
0.0
  0
LINE
  8
0
 62
     0
 10
15.743786
 20
0.187437
 30
0.0
 11
17.512563
 21
1.956214
 31
0.0
  0
LINE
  8
0
 62
     0
 10
16.058176
 20
0.32505
 30
0.0
 11
17.37495
 21
1.641824
 31
0.0
  0
LINE
  8
0
 62
     0
 10
16.54193
 20
0.632028
 30
0.0
 11
17.067972
 21
1.15807
 31
0.0
  0
ENDBLK
  8
0
  0
BLOCK
  8
0
  2
BLC15
 70
    64
 10
0.0
 20
0.0
 30
0.0
  3
BLC15
  0
LINE
  8
0
  6
CONTINUOUS
 10
0.142084
 20
3.490022
 30
0.0
 11
0.142084
 21
0.844365
 31
0.0
  0
LINE
  8
0
  6
CONTINUOUS
 10
-0.461611
 20
-0.937188
 30
0.0
 11
0.745779
 21
-0.937188
 31
0.0
  0
LINE
  8
0
  6
CONTINUOUS
 10
-0.894108
 20
-0.049675
 30
0.0
 11
1.169267
 21
-0.049675
 31
0.0
  0
LINE
  8
0
  6
CONTINUOUS
 10
-1.389679
 20
0.844365
 30
0.0
 11
1.673848
 21
0.844365
 31
0.0
  0
ENDBLK
  8
0
  0
BLOCK
  8
0
  2
BLC55
 70
     0
 10
0.0
 20
0.0
 30
0.0
  3
BLC55
  0
INSERT
  8
SWEDEN
  6
CENTER
  2
BLC5
 10
0.087066
 20
-0.756831
 30
0.0
 41
0.6
 42
0.6
 43
0.6
  0
ENDBLK
  8
0
  0
BLOCK
  8
0
  2
BLC5
 70
    64
 10
0.0
 20
0.0
 30
0.0
  3
BLC5
  0
TEXT
  8
0
 10
-3.043704
 20
-6.645912
 30
0.0
 40
3.2
  1
PE
  0
LINE
  8
0
 10
-2.946392
 20
1.181176
 30
0.0
 11
2.135458
 21
1.181176
 31
0.0
  0
LINE
  8
0
 10
-0.48656
 20
2.238362
 30
0.0
 11
-0.48656
 21
6.930438
 31
0.0
  0
LINE
  8
0
 10
-1.973271
 20
0.065258
 30
0.0
 11
1.225411
 21
0.065258
 31
0.0
  0
LINE
  8
0
 10
2.685091
 20
2.238362
 30
0.0
 11
1.68494
 21
2.238362
 31
0.0
  0
LINE
  8
0
 10
-3.505035
 20
2.238362
 30
0.0
 11
2.649049
 21
2.238362
 31
0.0
  0
CIRCLE
  8
0
 10
-0.47755
 20
1.422632
 30
0.0
 40
3.804563
  0
ENDBLK
  8
0
  0
BLOCK
  8
0
  2
BLC43
 70
    64
 10
0.0
 20
0.0
 30
0.0
  3
BLC43
  0
TEXT
  8
SWEDEN2
  6
CONTINUOUS
 10
-0.646672
 20
-0.986365
 30
0.0
 40
2.0
  1
+
  0
ENDBLK
  8
0
  0
BLOCK
  8
0
  2
BLC42
 70
    64
 10
0.0
 20
0.0
 30
0.0
  3
BLC42
  0
TEXT
  8
SWEDEN2
  6
CONTINUOUS
 10
-0.655237
 20
-0.99442
 30
0.0
 40
2.0
  1
-
  0
ENDBLK
  8
0
  0
BLOCK
  8
0
  2
BLC58
 70
     0
 10
0.0
 20
0.0
 30
0.0
  3
BLC58
  0
LINE
  8
BASE
  6
CONTINUOUS
 10
21.388391
 20
13.728844
 30
0.0
 11
30.450615
 21
13.728844
 31
0.0
  0
LINE
  8
0
  6
CONTINUOUS
 10
0.0
 20
30.095544
 30
0.0
 11
21.474488
 21
30.095544
 31
0.0
  0
LINE
  8
0
  6
CONTINUOUS
 10
0.0
 20
21.839396
 30
0.0
 11
21.474488
 21
21.839396
 31
0.0
  0
LINE
  8
0
  6
CONTINUOUS
 10
0.0
 20
13.728844
 30
0.0
 11
21.474488
 21
13.728844
 31
0.0
  0
LINE
  8
0
  6
CONTINUOUS
 10
1.348068
 20
7.725151
 30
0.0
 11
-0.011825
 21
7.725151
 31
0.0
  0
LINE
  8
0
  6
CONTINUOUS
 10
1.348068
 20
9.977606
 30
0.0
 11
1.348068
 21
7.725151
 31
0.0
  0
LINE
  8
0
  6
CONTINUOUS
 10
1.194341
 20
10.868311
 30
0.0
 11
0.0
 21
10.868311
 31
0.0
  0
LINE
  8
0
  6
CONTINUOUS
 10
3.299219
 20
10.868311
 30
0.0
 11
1.194341
 21
9.669285
 31
0.0
  0
LINE
  8
0
  6
CONTINUOUS
 10
5.557824
 20
10.868311
 30
0.0
 11
3.299219
 21
10.868311
 31
0.0
  0
LINE
  8
0
  6
CONTINUOUS
 10
26.181732
 20
9.078337
 30
0.0
 11
27.068619
 21
9.078337
 31
0.0
  0
LINE
  8
0
  6
CONTINUOUS
 10
25.850628
 20
9.566512
 30
0.0
 11
27.435199
 21
9.566512
 31
0.0
  0
LINE
  8
0
  6
CONTINUOUS
 10
26.666564
 20
10.046122
 30
0.0
 11
27.860905
 21
10.046122
 31
0.0
  0
LINE
  8
0
  6
CONTINUOUS
 10
25.472223
 20
10.046122
 30
0.0
 11
26.666564
 21
10.046122
 31
0.0
  0
LINE
  8
0
  6
CONTINUOUS
 10
26.682451
 20
11.400392
 30
0.0
 11
26.682451
 21
10.046122
 31
0.0
  0
TEXT
  8
0
  6
CONTINUOUS
 10
23.730424
 20
9.356562
 30
0.0
 40
2.5
  1
I
 11
23.730424
 21
8.523229
 31
0.0
 73
     1
  0
TEXT
  8
0
  6
CONTINUOUS
 10
23.718599
 20
44.648458
 30
0.0
 40
2.5
  1
2I
 11
23.718599
 21
43.815125
 31
0.0
 73
     1
  0
LINE
  8
0
  6
CONTINUOUS
 10
7.307083
 20
34.320728
 30
0.0
 11
4.961317
 21
33.130809
 31
0.0
  0
LINE
  8
0
  6
CONTINUOUS
 10
4.961317
 20
35.656082
 30
0.0
 11
7.307083
 21
34.320728
 31
0.0
  0
LINE
  8
0
  6
CONTINUOUS
 10
6.079793
 20
34.320728
 30
0.0
 11
3.734027
 21
33.130809
 31
0.0
  0
LINE
  8
0
  6
CONTINUOUS
 10
3.734027
 20
35.656082
 30
0.0
 11
6.079793
 21
34.320728
 31
0.0
  0
TEXT
  8
0
  6
CONTINUOUS
 10
1.924832
 20
33.140093
 30
0.0
 40
2.5
  1
I
 11
1.924832
 21
32.306759
 31
0.0
 73
     1
  0
TEXT
  8
0
  6
CONTINUOUS
 10
3.194767
 20
25.150348
 30
0.0
 40
1.5
  1
2
 11
3.194767
 21
24.650348
 31
0.0
 73
     1
  0
TEXT
  8
0
  6
CONTINUOUS
 10
1.743031
 20
25.483682
 30
0.0
 40
2.5
  1
I
 11
1.743031
 21
24.650348
 31
0.0
 73
     1
  0
ARC
  8
0
  6
CONTINUOUS
 10
16.744168
 20
27.959159
 30
0.0
 40
2.922744
 50
193.105513
 51
283.105513
  0
LINE
  8
0
  6
CONTINUOUS
 10
19.34584
 20
26.975098
 30
0.0
 11
19.34584
 21
25.359905
 31
0.0
  0
LINE
  8
0
  6
CONTINUOUS
 10
10.616324
 20
26.975098
 30
0.0
 11
10.616324
 21
25.359905
 31
0.0
  0
LINE
  8
0
  6
CONTINUOUS
 10
10.616324
 20
26.165772
 30
0.0
 11
19.341064
 21
26.165772
 31
0.0
  0
LINE
  8
0
  6
CONTINUOUS
 10
11.834315
 20
17.975819
 30
0.0
 11
20.559056
 21
17.975819
 31
0.0
  0
LINE
  8
0
  6
CONTINUOUS
 10
20.563831
 20
18.785145
 30
0.0
 11
20.563831
 21
17.169952
 31
0.0
  0
LINE
  8
0
  6
CONTINUOUS
 10
11.834315
 20
18.785145
 30
0.0
 11
11.834315
 21
17.169952
 31
0.0
  0
LINE
  8
0
  6
CONTINUOUS
 10
5.615664
 20
16.924236
 30
0.0
 11
3.269898
 21
18.259589
 31
0.0
  0
LINE
  8
0
  6
CONTINUOUS
 10
3.269898
 20
18.259589
 30
0.0
 11
5.615664
 21
19.449509
 31
0.0
  0
TEXT
  8
0
  6
CONTINUOUS
 10
1.771105
 20
17.124536
 30
0.0
 40
2.5
  1
I
 11
1.771105
 21
16.291202
 31
0.0
 73
     1
  0
LINE
  8
0
  6
CONTINUOUS
 10
11.834315
 20
11.008607
 30
0.0
 11
11.834315
 21
9.393414
 31
0.0
  0
LINE
  8
0
  6
CONTINUOUS
 10
20.563831
 20
11.008607
 30
0.0
 11
20.563831
 21
9.393414
 31
0.0
  0
LINE
  8
0
  6
CONTINUOUS
 10
11.834315
 20
10.199281
 30
0.0
 11
20.559056
 21
10.199281
 31
0.0
  0
LINE
  8
0
  6
CONTINUOUS
 10
9.094379
 20
9.523689
 30
0.0
 11
9.981266
 21
9.523689
 31
0.0
  0
LINE
  8
0
  6
CONTINUOUS
 10
8.763274
 20
10.011864
 30
0.0
 11
10.347846
 21
10.011864
 31
0.0
  0
LINE
  8
0
  6
CONTINUOUS
 10
9.57921
 20
10.491474
 30
0.0
 11
10.773551
 21
10.491474
 31
0.0
  0
LINE
  8
0
  6
CONTINUOUS
 10
8.384869
 20
10.491474
 30
0.0
 11
9.57921
 21
10.491474
 31
0.0
  0
LINE
  8
0
  6
CONTINUOUS
 10
9.595097
 20
11.845745
 30
0.0
 11
9.595097
 21
10.491474
 31
0.0
  0
TEXT
  8
0
  6
CONTINUOUS
 10
6.643071
 20
9.801915
 30
0.0
 40
2.5
  1
I
 11
6.643071
 21
8.968581
 31
0.0
 73
     1
  0
LINE
  8
0
  6
CONTINUOUS
 10
15.254454
 20
43.413293
 30
0.0
 11
15.254454
 21
37.555196
 31
0.0
  0
LINE
  8
0
  6
CONTINUOUS
 10
0.059126
 20
43.413293
 30
0.0
 11
15.254454
 21
43.413293
 31
0.0
  0
LINE
  8
0
  6
CONTINUOUS
 10
1.969552
 20
41.257245
 30
0.0
 11
4.315318
 21
39.921891
 31
0.0
  0
LINE
  8
0
  6
CONTINUOUS
 10
4.315318
 20
39.921891
 30
0.0
 11
1.969552
 21
38.731972
 31
0.0
  0
TEXT
  8
0
  6
CONTINUOUS
 10
5.510524
 20
38.756802
 30
0.0
 40
2.5
  1
95%
 11
5.510524
 21
37.923468
 31
0.0
 73
     1
  0
LINE
  8
0
  6
CONTINUOUS
 10
0.011825
 20
37.58089
 30
0.0
 11
21.415362
 21
37.58089
 31
0.0
  0
LINE
  8
0
  6
CONTINUOUS
 10
21.416194
 20
54.709828
 30
0.0
 11
21.416194
 21
5.232891
 31
0.0
  0
LINE
  8
0
  6
CONTINUOUS
 10
0.012657
 20
5.232891
 30
0.0
 11
30.450615
 21
5.232891
 31
0.0
  0
TEXT
  8
0
  6
CONTINUOUS
 10
11.908766
 20
1.295815
 30
0.0
 40
2.5
  1
IRF
 11
11.908766
 21
0.462481
 31
0.0
 73
     1
  0
LINE
  8
0
  6
CONTINUOUS
 10
18.921474
 20
53.565006
 30
0.0
 11
18.921474
 21
50.173736
 31
0.0
  0
LINE
  8
0
  6
CONTINUOUS
 10
18.921474
 20
50.173736
 30
0.0
 11
16.329266
 21
50.173736
 31
0.0
  0
LINE
  8
0
  6
CONTINUOUS
 10
16.329266
 20
50.173736
 30
0.0
 11
16.329266
 21
47.423701
 31
0.0
  0
LINE
  8
0
  6
CONTINUOUS
 10
16.329266
 20
47.423701
 30
0.0
 11
18.921474
 21
47.423701
 31
0.0
  0
LINE
  8
0
  6
CONTINUOUS
 10
18.921474
 20
47.423701
 30
0.0
 11
18.921474
 21
44.032431
 31
0.0
  0
LINE
  8
0
  6
CONTINUOUS
 10
0.012657
 20
54.709828
 30
0.0
 11
30.450615
 21
54.709828
 31
0.0
  0
LINE
  8
0
  6
CONTINUOUS
 10
0.012657
 20
0.0
 30
0.0
 11
0.012657
 21
54.709828
 31
0.0
  0
LINE
  8
0
  6
CONTINUOUS
 10
30.450615
 20
0.0
 30
0.0
 11
0.012657
 21
0.0
 31
0.0
  0
LINE
  8
0
  6
CONTINUOUS
 10
30.450615
 20
54.709828
 30
0.0
 11
30.450615
 21
0.0
 31
0.0
  0
ENDBLK
  8
0
  0
BLOCK
  8
0
  2
BLC56
 70
     0
 10
0.0
 20
0.0
 30
0.0
  3
BLC56
  0
LINE
  8
BASE
  6
CONTINUOUS
 10
10.0
 20
0.0
 30
0.0
 11
0.0
 21
0.0
 31
0.0
  0
LINE
  8
BASE
  6
CONTINUOUS
 10
0.0
 20
0.0
 30
0.0
 11
0.0
 21
5.0
 31
0.0
  0
LINE
  8
BASE
  6
CONTINUOUS
 10
0.0
 20
5.0
 30
0.0
 11
10.0
 21
5.0
 31
0.0
  0
LINE
  8
BASE
  6
CONTINUOUS
 10
10.0
 20
5.0
 30
0.0
 11
10.0
 21
0.0
 31
0.0
  0
CIRCLE
  8
0
  6
CONTINUOUS
 10
4.984447
 20
-0.797999
 30
0.0
 40
0.798019
  0
TEXT
  8
0
  6
CONTINUOUS
 10
6.68353
 20
1.362373
 30
0.0
 40
2.5
  1
1
 11
6.68353
 21
0.52904
 31
0.0
 73
     1
  0
LINE
  8
0
  6
CONTINUOUS
 10
2.241626
 20
0.69718
 30
0.0
 11
4.625086
 21
1.885372
 31
0.0
  0
LINE
  8
0
  6
CONTINUOUS
 10
2.249668
 20
4.022467
 30
0.0
 11
4.595433
 21
2.687113
 31
0.0
  0
LINE
  8
0
  6
CONTINUOUS
 10
4.595433
 20
2.687113
 30
0.0
 11
2.249668
 21
1.497194
 31
0.0
  0
ENDBLK
  8
0
  0
BLOCK
  8
0
  2
BLC57
 70
     0
 10
0.0
 20
0.0
 30
0.0
  3
BLC57
  0
TEXT
  8
0
  6
CONTINUOUS
 10
5.743694
 20
1.362373
 30
0.0
 40
2.5
  1
1
 11
5.743694
 21
0.52904
 31
0.0
 73
     1
  0
LINE
  8
0
  6
CONTINUOUS
 10
1.301791
 20
0.69718
 30
0.0
 11
3.685251
 21
1.885372
 31
0.0
  0
LINE
  8
0
  6
CONTINUOUS
 10
3.655598
 20
2.687113
 30
0.0
 11
1.309833
 21
1.497194
 31
0.0
  0
LINE
  8
0
  6
CONTINUOUS
 10
1.309833
 20
4.022467
 30
0.0
 11
3.655598
 21
2.687113
 31
0.0
  0
LINE
  8
BASE
  6
CONTINUOUS
 10
7.5
 20
0.0
 30
0.0
 11
7.5
 21
5.0
 31
0.0
  0
LINE
  8
BASE
  6
CONTINUOUS
 10
0.0
 20
0.0
 30
0.0
 11
7.5
 21
0.0
 31
0.0
  0
LINE
  8
BASE
  6
CONTINUOUS
 10
0.0
 20
5.0
 30
0.0
 11
0.0
 21
0.0
 31
0.0
  0
LINE
  8
BASE
  6
CONTINUOUS
 10
7.5
 20
5.0
 30
0.0
 11
0.0
 21
5.0
 31
0.0
  0
ENDBLK
  8
0
  0
BLOCK
  8
0
  2
B14
 70
     0
 10
0.0
 20
0.0
 30
0.0
  3
B14
  0
LINE
  8
BASE1
  6
CONTINUOUS
 10
2.5
 20
5.0
 30
0.0
 11
0.0
 21
5.0
 31
0.0
  0
LINE
  8
BASE1
  6
CONTINUOUS
 10
2.5
 20
5.0
 30
0.0
 11
2.5
 21
6.686532
 31
0.0
  0
LINE
  8
BASE1
  6
CONTINUOUS
 10
7.5
 20
5.0
 30
0.0
 11
2.345956
 21
6.475923
 31
0.0
  0
LINE
  8
BASE1
  6
CONTINUOUS
 10
10.0
 20
5.0
 30
0.0
 11
7.5
 21
5.0
 31
0.0
  0
LINE
  8
BASE1
 10
12.798812
 20
6.589925
 30
0.0
 11
12.798812
 21
-1.6
 31
0.0
  0
LINE
  8
BASE1
  6
CONTINUOUS
 10
12.798812
 20
5.0
 30
0.0
 11
8.098812
 21
5.0
 31
0.0
  0
LINE
  8
BASE1
  6
CONTINUOUS
 10
12.798812
 20
0.0
 30
0.0
 11
8.098812
 21
0.0
 31
0.0
  0
LINE
  8
BASE1
  6
CONTINUOUS
 10
10.0
 20
0.0
 30
0.0
 11
0.0
 21
0.0
 31
0.0
  0
LINE
  8
BASE1
 10
18.496971
 20
6.59384
 30
0.0
 11
16.642636
 21
4.315018
 31
0.0
  0
LINE
  8
BASE1
 10
17.004853
 20
6.59384
 30
0.0
 11
15.09105
 21
4.315018
 31
0.0
  0
LINE
  8
BASE1
 10
20.221556
 20
6.589925
 30
0.0
 11
12.798812
 21
6.589925
 31
0.0
  0
LINE
  8
BASE1
 10
20.221556
 20
-1.6
 30
0.0
 11
20.221556
 21
6.589925
 31
0.0
  0
LINE
  8
BASE1
 10
12.798812
 20
-1.6
 30
0.0
 11
20.221556
 21
-1.6
 31
0.0
  0
LINE
  8
BASE1
  6
CONTINUOUS
 10
20.221556
 20
2.5
 30
0.0
 11
23.098812
 21
2.5
 31
0.0
  0
TEXT
  8
BASE1
  6
CONTINUOUS
 10
0.988929
 20
-2.458581
 30
0.0
 40
2.0
  1
108:11
  0
TEXT
  8
BASE1
  6
CONTINUOUS
 10
0.988929
 20
2.654891
 30
0.0
 40
2.0
  1
14A
  0
TEXT
  8
BASE1
  6
CONTINUOUS
 10
2.505198
 20
7.263196
 30
0.0
 40
2.0
  1
101
  0
ENDBLK
  8
0
  0
BLOCK
  8
0
  2
B15
 70
     0
 10
0.0
 20
0.0
 30
0.0
  3
B15
  0
CIRCLE
  8
BASE1
  6
CONTINUOUS
 10
0.025538
 20
-0.001676
 30
0.0
 40
1.0
  0
ENDBLK
  8
0
  0
BLOCK
  8
0
  2
BLC44
 70
    64
 10
0.0
 20
0.0
 30
0.0
  3
BLC44
  0
LINE
  8
HEL035
 10
-2.520993
 20
1.697877
 30
0.0
 11
1.479007
 21
1.697877
 31
0.0
  0
INSERT
  8
HEL035
  2
WKU130
 10
-2.181043
 20
-0.027675
 30
0.0
 41
0.8
 42
0.8
 43
0.8
  0
ENDBLK
  8
0
  0
BLOCK
  8
0
  2
BLC13
 70
     0
 10
0.0
 20
0.0
 30
0.0
  3
BLC13
  0
LINE
  8
0
 10
-0.113126
 20
0.204294
 30
0.0
 11
16.227899
 21
0.204294
 31
0.0
  0
LINE
  8
0
  6
HIDDEN
 10
7.278095
 20
2.980501
 30
0.0
 11
6.770992
 21
3.671196
 31
0.0
  0
LINE
  8
0
  6
HIDDEN
 10
8.466383
 20
2.52552
 30
0.0
 11
7.48245
 21
2.865385
 31
0.0
  0
LINE
  8
0
  6
HIDDEN
 10
9.843889
 20
2.202099
 30
0.0
 11
8.769132
 21
2.432331
 31
0.0
  0
LINE
  8
0
  6
HIDDEN
 10
11.039745
 20
2.04313
 30
0.0
 11
10.260168
 21
2.10891
 31
0.0
  0
LINE
  8
0
  6
CONTINUOUS
 10
8.443677
 20
5.343115
 30
0.0
 11
9.344354
 21
4.219366
 31
0.0
  0
LINE
  8
0
  6
CONTINUOUS
 10
6.021689
 20
1.977349
 30
0.0
 11
8.8978
 21
4.805908
 31
0.0
  0
LINE
  8
0
  6
CONTINUOUS
 10
3.637545
 20
3.144952
 30
0.0
 11
11.42575
 21
3.144952
 31
0.0
  0
LINE
  8
0
  6
CONTINUOUS
 10
11.421208
 20
3.990231
 30
0.0
 11
11.421208
 21
2.202099
 31
0.0
  0
LINE
  8
0
  6
CONTINUOUS
 10
3.606513
 20
3.990231
 30
0.0
 11
3.606513
 21
2.202099
 31
0.0
  0
LINE
  8
0
  6
CONTINUOUS
 10
8.069666
 20
14.830198
 30
0.0
 11
10.415431
 21
13.494844
 31
0.0
  0
LINE
  8
0
  6
CONTINUOUS
 10
10.415431
 20
13.494844
 30
0.0
 11
8.069666
 21
12.304925
 31
0.0
  0
LINE
  8
0
 10
-0.113126
 20
28.866096
 30
0.0
 11
-0.113126
 21
0.204294
 31
0.0
  0
LINE
  8
0
  6
CONTINUOUS
 10
7.939274
 20
7.188094
 30
0.0
 11
7.029453
 21
7.188094
 31
0.0
  0
LINE
  8
0
  6
CONTINUOUS
 10
7.466441
 20
7.550453
 30
0.0
 11
8.108261
 21
7.550453
 31
0.0
  0
LINE
  8
0
  6
CONTINUOUS
 10
6.859004
 20
7.550453
 30
0.0
 11
7.466441
 21
7.550453
 31
0.0
  0
LINE
  8
0
  6
CONTINUOUS
 10
7.466441
 20
7.945861
 30
0.0
 11
8.360405
 21
7.945861
 31
0.0
  0
LINE
  8
0
  6
CONTINUOUS
 10
6.572478
 20
7.945861
 30
0.0
 11
7.483633
 21
7.945861
 31
0.0
  0
LINE
  8
0
  6
CONTINUOUS
 10
7.466441
 20
9.290587
 30
0.0
 11
7.466441
 21
7.945861
 31
0.0
  0
TEXT
  8
0
  6
CONTINUOUS
 10
4.514415
 20
7.246756
 30
0.0
 40
2.5
  1
I
 11
4.514415
 21
6.413423
 31
0.0
 73
     1
  0
LINE
  8
0
  6
CONTINUOUS
 10
8.582011
 20
13.494844
 30
0.0
 11
6.236245
 21
12.304925
 31
0.0
  0
LINE
  8
0
  6
CONTINUOUS
 10
6.236245
 20
14.830198
 30
0.0
 11
8.582011
 21
13.494844
 31
0.0
  0
LINE
  8
0
  6
CONTINUOUS
 10
12.885039
 20
24.912349
 30
0.0
 11
10.539273
 21
23.72243
 31
0.0
  0
LINE
  8
0
  6
CONTINUOUS
 10
10.539273
 20
26.247703
 30
0.0
 11
12.885039
 21
24.912349
 31
0.0
  0
TEXT
  8
0
  6
CONTINUOUS
 10
3.037954
 20
23.742652
 30
0.0
 40
2.5
  1
2 I
 11
3.037954
 21
22.909319
 31
0.0
 73
     1
  0
TEXT
  8
0
  6
CONTINUOUS
 10
3.403907
 20
12.419301
 30
0.0
 40
2.5
  1
2
 11
3.403907
 21
11.585968
 31
0.0
 73
     1
  0
LINE
  8
0
  6
CONTINUOUS
 10
16.227899
 20
28.866096
 30
0.0
 11
16.227899
 21
0.204294
 31
0.0
  0
LINE
  8
0
  6
CONTINUOUS
 10
-0.113126
 20
28.866096
 30
0.0
 11
16.227899
 21
28.866096
 31
0.0
  0
LINE
  8
0
  6
HIDDEN
 10
7.278095
 20
19.087963
 30
0.0
 11
6.770992
 21
19.778657
 31
0.0
  0
LINE
  8
0
  6
HIDDEN
 10
8.466383
 20
18.632981
 30
0.0
 11
7.48245
 21
18.972847
 31
0.0
  0
LINE
  8
0
  6
HIDDEN
 10
9.843889
 20
18.309561
 30
0.0
 11
8.769132
 21
18.539792
 31
0.0
  0
LINE
  8
0
  6
HIDDEN
 10
11.039745
 20
18.150591
 30
0.0
 11
10.260168
 21
18.216372
 31
0.0
  0
LINE
  8
0
  6
CONTINUOUS
 10
8.443677
 20
21.450576
 30
0.0
 11
9.344354
 21
20.326827
 31
0.0
  0
LINE
  8
0
  6
CONTINUOUS
 10
6.021689
 20
18.084811
 30
0.0
 11
8.8978
 21
20.91337
 31
0.0
  0
LINE
  8
0
  6
CONTINUOUS
 10
3.637545
 20
19.252414
 30
0.0
 11
11.42575
 21
19.252414
 31
0.0
  0
LINE
  8
0
  6
CONTINUOUS
 10
11.421208
 20
20.097692
 30
0.0
 11
11.421208
 21
18.309561
 31
0.0
  0
LINE
  8
0
  6
CONTINUOUS
 10
3.606513
 20
20.097692
 30
0.0
 11
3.606513
 21
18.309561
 31
0.0
  0
TEXT
  8
TEKS
 10
-8.041988
 20
-4.723508
 30
0.0
 40
2.0
  1
OVERCURRENT RELAY
 11
-8.041988
 21
-5.390175
 31
0.0
 73
     1
  0
ENDBLK
  8
0
  0
BLOCK
  8
0
  2
BLC6
 70
     0
 10
0.0
 20
0.0
 30
0.0
  3
BLC6
  0
LINE
  8
0
  6
CENTER
 10
13.663378
 20
7.674384
 30
0.0
 11
13.663378
 21
11.133077
 31
0.0
  0
LINE
  8
0
  6
CENTER
 10
10.212405
 20
7.674384
 30
0.0
 11
10.212405
 21
11.133077
 31
0.0
  0
LINE
  8
0
  6
CENTER
 10
6.806485
 20
7.674384
 30
0.0
 11
6.806485
 21
11.133077
 31
0.0
  0
LINE
  8
0
  6
CENTER
 10
3.400564
 20
7.674384
 30
0.0
 11
3.400564
 21
11.133077
 31
0.0
  0
LINE
  8
0
  6
CONTINUOUS
 10
0.027989
 20
7.679384
 30
0.0
 11
17.15534
 21
7.679384
 31
0.0
  0
LINE
  8
0
  6
CONTINUOUS
 10
17.15534
 20
7.633703
 30
0.0
 11
17.15534
 21
0.023085
 31
0.0
  0
LINE
  8
0
  6
CONTINUOUS
 10
17.15534
 20
0.023085
 30
0.0
 11
0.027989
 21
0.023085
 31
0.0
  0
LINE
  8
0
  6
CONTINUOUS
 10
0.027989
 20
0.023085
 30
0.0
 11
0.027989
 21
7.633703
 31
0.0
  0
LINE
  8
0
  6
CONTINUOUS
 10
0.027989
 20
7.607478
 30
0.0
 11
0.027989
 21
3.836262
 31
0.0
  0
LINE
  8
0
  6
CONTINUOUS
 10
4.279049
 20
6.133609
 30
0.0
 11
10.174044
 21
4.271604
 31
0.0
  0
LINE
  8
0
  6
CONTINUOUS
 10
10.174044
 20
4.271604
 30
0.0
 11
10.23198
 21
4.271604
 31
0.0
  0
LINE
  8
0
  6
CONTINUOUS
 10
0.027989
 20
5.698267
 30
0.0
 11
0.027989
 21
3.836262
 31
0.0
  0
LINE
  8
0
  6
CONTINUOUS
 10
0.027989
 20
3.836262
 30
0.0
 11
0.027989
 21
3.836262
 31
0.0
  0
LINE
  8
0
  6
CONTINUOUS
 10
10.23198
 20
4.271604
 30
0.0
 11
4.279049
 21
2.409599
 31
0.0
  0
LINE
  8
0
  6
CONTINUOUS
 10
4.279049
 20
1.187494
 30
0.0
 11
10.123349
 21
3.049499
 31
0.0
  0
TEXT
  8
0
  6
CONTINUOUS
 10
11.803495
 20
1.769698
 30
0.0
 40
4.8
  1
1
  0
LINE
  8
0
  6
CONTINUOUS
 10
8.57537
 20
0.013998
 30
0.0
 11
8.57537
 21
-2.405298
 31
0.0
  0
ENDBLK
  8
0
  0
BLOCK
  8
0
  2
BLC46
 70
     0
 10
0.0
 20
0.0
 30
0.0
  3
BLC46
  0
LINE
  8
BASE
  6
CONTINUOUS
 10
0.0
 20
0.0
 30
0.0
 11
5.0
 21
0.0
 31
0.0
  0
LINE
  8
BASE
  6
CONTINUOUS
 10
5.0
 20
-5.0
 30
0.0
 11
0.0
 21
-5.0
 31
0.0
  0
LINE
  8
BASE
  6
CONTINUOUS
 10
5.0
 20
-5.0
 30
0.0
 11
5.0
 21
-2.5
 31
0.0
  0
LINE
  8
BASE
  6
CONTINUOUS
 10
10.0
 20
0.0
 30
0.0
 11
15.0
 21
0.0
 31
0.0
  0
LINE
  8
BASE
  6
CONTINUOUS
 10
10.0
 20
0.0
 30
0.0
 11
4.256076
 21
-3.214703
 31
0.0
  0
ENDBLK
  8
0
  0
BLOCK
  8
0
  2
B25
 70
     0
 10
0.0
 20
0.0
 30
0.0
  3
B25
  0
LINE
  8
BASE
  6
CONTINUOUS
 10
7.993665
 20
0.0
 30
0.0
 11
0.0
 21
0.0
 31
0.0
  0
LINE
  8
BASE
  6
CONTINUOUS
 10
7.993665
 20
2.572693
 30
0.0
 11
7.993665
 21
0.0
 31
0.0
  0
LINE
  8
BASE
  6
CONTINUOUS
 10
17.5
 20
0.0
 30
0.0
 11
7.5
 21
2.5
 31
0.0
  0
LINE
  8
BASE
  6
CONTINUOUS
 10
22.5
 20
0.0
 30
0.0
 11
17.5
 21
0.0
 31
0.0
  0
TEXT
  8
BASE
  6
CONTINUOUS
 10
2.685974
 20
1.915936
 30
0.0
 40
1.5
  1
101
  0
TEXT
  8
BASE
  6
CONTINUOUS
 10
2.685974
 20
-2.144616
 30
0.0
 40
1.5
  1
17A
  0
ENDBLK
  8
0
  0
BLOCK
  8
0
  2
B24
 70
     0
 10
0.0
 20
0.0
 30
0.0
  3
B24
  0
LINE
  8
BASE
  6
CONTINUOUS
 10
10.0
 20
0.0
 30
0.0
 11
0.0
 21
0.0
 31
0.0
  0
LINE
  8
BASE
  6
CONTINUOUS
 10
12.798812
 20
0.0
 30
0.0
 11
8.098812
 21
0.0
 31
0.0
  0
LINE
  8
BASE
  6
CONTINUOUS
 10
2.5
 20
5.0
 30
0.0
 11
0.0
 21
5.0
 31
0.0
  0
LINE
  8
BASE
  6
CONTINUOUS
 10
2.5
 20
5.0
 30
0.0
 11
2.5
 21
6.686532
 31
0.0
  0
LINE
  8
BASE
  6
CONTINUOUS
 10
2.347355
 20
6.475523
 30
0.0
 11
1.954974
 21
5.510233
 31
0.0
  0
LINE
  8
BASE
  6
CONTINUOUS
 10
7.5
 20
5.0
 30
0.0
 11
2.347355
 21
6.475523
 31
0.0
  0
LINE
  8
BASE
  6
CONTINUOUS
 10
10.0
 20
5.0
 30
0.0
 11
7.5
 21
5.0
 31
0.0
  0
LINE
  8
BASE
  6
CONTINUOUS
 10
12.798812
 20
5.0
 30
0.0
 11
8.098812
 21
5.0
 31
0.0
  0
TEXT
  8
BASE
  6
CONTINUOUS
 10
0.988929
 20
-2.458581
 30
0.0
 40
2.0
  1
108:11
  0
TEXT
  8
BASE
  6
CONTINUOUS
 10
0.988929
 20
2.654891
 30
0.0
 40
2.0
  1
14A
  0
TEXT
  8
BASE
  6
CONTINUOUS
 10
2.505198
 20
7.263196
 30
0.0
 40
2.0
  1
101
  0
LINE
  8
BASE
 10
12.798812
 20
6.589925
 30
0.0
 11
12.798812
 21
-1.6
 31
0.0
  0
LINE
  8
BASE
 10
17.004853
 20
6.59384
 30
0.0
 11
15.09105
 21
4.315018
 31
0.0
  0
LINE
  8
BASE
 10
18.496971
 20
6.59384
 30
0.0
 11
16.642636
 21
4.315018
 31
0.0
  0
LINE
  8
BASE
 10
20.221556
 20
6.589925
 30
0.0
 11
12.798812
 21
6.589925
 31
0.0
  0
LINE
  8
BASE
 10
12.798812
 20
-1.6
 30
0.0
 11
20.221556
 21
-1.6
 31
0.0
  0
LINE
  8
BASE
 10
20.221556
 20
-1.6
 30
0.0
 11
20.221556
 21
6.589925
 31
0.0
  0
LINE
  8
BASE
  6
CONTINUOUS
 10
20.221556
 20
2.5
 30
0.0
 11
23.098812
 21
2.5
 31
0.0
  0
ENDBLK
  8
0
  0
BLOCK
  8
0
  2
BLC3
 70
     0
 10
0.0
 20
0.0
 30
0.0
  3
BLC3
  0
LINE
  8
0
 10
6.154084
 20
-0.026103
 30
0.0
 11
6.154084
 21
-4.333155
 31
0.0
  0
LINE
  8
0
 10
6.154084
 20
12.36646
 30
0.0
 11
6.154084
 21
17.052011
 31
0.0
  0
LINE
  8
0
 10
-0.036041
 20
12.36646
 30
0.0
 11
6.154084
 21
12.36646
 31
0.0
  0
TEXT
  8
0
 10
1.68494
 20
5.272876
 30
0.0
 40
2.0
  1
150ms
  0
LINE
  8
0
 10
9.68615
 20
10.872044
 30
0.0
 11
9.68615
 21
8.888189
 31
0.0
  0
LINE
  8
0
 10
2.342697
 20
10.872044
 30
0.0
 11
2.342697
 21
8.888189
 31
0.0
  0
LINE
  8
0
 10
2.342697
 20
9.880116
 30
0.0
 11
9.69516
 21
9.880116
 31
0.0
  0
LINE
  8
0
 10
0.0
 20
0.0
 30
0.0
 11
0.0
 21
12.372986
 31
0.0
  0
LINE
  8
0
 10
12.371241
 20
0.0
 30
0.0
 11
0.0
 21
0.0
 31
0.0
  0
LINE
  8
0
 10
12.371241
 20
12.372986
 30
0.0
 11
12.371241
 21
0.0
 31
0.0
  0
LINE
  8
0
 10
0.0
 20
12.372986
 30
0.0
 11
12.371241
 21
12.372986
 31
0.0
  0
ENDBLK
  8
0
  0
BLOCK
  8
0
  2
B26
 70
     0
 10
0.0
 20
0.0
 30
0.0
  3
B26
  0
LINE
  8
BASE
  6
CONTINUOUS
 10
0.0
 20
3.648475
 30
0.0
 11
0.0
 21
0.0
 31
0.0
  0
LINE
  8
BASE
  6
CONTINUOUS
 10
0.0
 20
11.8384
 30
0.0
 11
0.0
 21
15.0
 31
0.0
  0
LINE
  8
0
 10
-2.557808
 20
9.826555
 30
0.0
 11
2.76563
 21
9.826555
 31
0.0
  0
LINE
  8
0
 10
-2.557808
 20
10.544745
 30
0.0
 11
-2.557808
 21
9.108365
 31
0.0
  0
LINE
  8
0
 10
2.759106
 20
10.544745
 30
0.0
 11
2.759106
 21
9.108365
 31
0.0
  0
TEXT
  8
BASE
  6
CONTINUOUS
 10
-3.396424
 20
6.398368
 30
0.0
 40
1.5
  1
150ms
  0
LINE
  8
BASE
 10
4.135737
 20
3.648475
 30
0.0
 11
4.135737
 21
11.8384
 31
0.0
  0
LINE
  8
BASE
 10
-3.942086
 20
3.648475
 30
0.0
 11
4.135737
 21
3.648475
 31
0.0
  0
LINE
  8
BASE
 10
4.135737
 20
11.8384
 30
0.0
 11
-3.942086
 21
11.8384
 31
0.0
  0
LINE
  8
BASE
 10
-3.942086
 20
11.8384
 30
0.0
 11
-3.942086
 21
3.648475
 31
0.0
  0
ENDBLK
  8
0
  0
BLOCK
  8
0
  2
B11
 70
     0
 10
0.0
 20
0.0
 30
0.0
  3
B11
  0
TEXT
  8
BASE
  6
CONTINUOUS
 10
-4.579696
 20
-2.847581
 30
0.0
 40
2.0
  1
8A
  0
TEXT
  8
BASE
  6
CONTINUOUS
 10
-4.579696
 20
6.962947
 30
0.0
 40
2.0
  1
7A
  0
TEXT
  8
BASE
  6
CONTINUOUS
 10
-4.579696
 20
17.07474
 30
0.0
 40
2.0
  1
6A
  0
TEXT
  8
BASE
  6
CONTINUOUS
 10
-4.579696
 20
27.186533
 30
0.0
 40
2.0
  1
5A
  0
TEXT
  8
BASE
  6
CONTINUOUS
 10
-4.579696
 20
37.448958
 30
0.0
 40
2.0
  1
4A
  0
TEXT
  8
BASE
  6
CONTINUOUS
 10
-4.579696
 20
46.958222
 30
0.0
 40
2.0
  1
3A
  0
TEXT
  8
BASE
  6
CONTINUOUS
 10
-20.369738
 20
48.419138
 30
0.0
 40
1.5
  1
101
  0
INSERT
  8
BASE
  6
CONTINUOUS
  2
BLC29
 10
-27.142151
 20
29.871732
 30
0.0
 50
180.0
  0
INSERT
  8
BASE
  6
CONTINUOUS
  2
BLC29
 10
-27.142151
 20
-0.128536
 30
0.0
 50
180.0
  0
LINE
  8
BASE
  6
CONTINUOUS
 10
-20.0
 20
-5.0
 30
0.0
 11
-17.5
 21
-5.0
 31
0.0
  0
LINE
  8
BASE
  6
CONTINUOUS
 10
-20.0
 20
5.0
 30
0.0
 11
-17.5
 21
5.0
 31
0.0
  0
LINE
  8
BASE
  6
CONTINUOUS
 10
-20.0
 20
15.0
 30
0.0
 11
-17.5
 21
15.0
 31
0.0
  0
LINE
  8
BASE
  6
CONTINUOUS
 10
-20.0
 20
25.0
 30
0.0
 11
-17.5
 21
25.0
 31
0.0
  0
LINE
  8
BASE
  6
CONTINUOUS
 10
-20.0
 20
35.0
 30
0.0
 11
-17.5
 21
35.0
 31
0.0
  0
LINE
  8
BASE
  6
CONTINUOUS
 10
-20.0
 20
45.0
 30
0.0
 11
-17.5
 21
45.0
 31
0.0
  0
LINE
  8
BASE
  6
CONTINUOUS
 10
-22.5
 20
5.0
 30
0.0
 11
-21.5
 21
6.0
 31
0.0
  0
LINE
  8
BASE
  6
CONTINUOUS
 10
-22.5
 20
-5.0
 30
0.0
 11
-21.5
 21
-6.0
 31
0.0
  0
LINE
  8
BASE
  6
CONTINUOUS
 10
-22.5
 20
5.0
 30
0.0
 11
-22.5
 21
-5.0
 31
0.0
  0
LINE
  8
BASE
  6
CONTINUOUS
 10
-22.5
 20
15.0
 30
0.0
 11
-21.5
 21
14.0
 31
0.0
  0
LINE
  8
BASE
  6
CONTINUOUS
 10
-22.5
 20
45.0
 30
0.0
 11
-21.5
 21
46.0
 31
0.0
  0
LINE
  8
BASE
  6
CONTINUOUS
 10
-22.5
 20
45.0
 30
0.0
 11
-22.5
 21
15.0
 31
0.0
  0
LINE
  8
21
 10
-5.0
 20
0.0
 30
0.0
 11
-10.8
 21
-3.5
 31
0.0
  0
LINE
  8
HEL035
 10
-11.11905
 20
-3.055575
 30
0.0
 11
-10.439687
 21
-3.991319
 31
0.0
  0
LINE
  8
21
 10
-10.0
 20
-5.0
 30
0.0
 11
-10.0
 21
-2.1
 31
0.0
  0
LINE
  8
21
 10
-12.5
 20
-5.0
 30
0.0
 11
-10.0
 21
-5.0
 31
0.0
  0
LINE
  8
HEL035
 10
-17.5
 20
-5.0
 30
0.0
 11
-12.5
 21
-5.0
 31
0.0
  0
INSERT
  8
BASE
  6
CENTER
  2
BLC22
 10
-15.0
 20
0.0
 30
0.0
  0
LINE
  8
HEL035
 10
-17.5
 20
15.0
 30
0.0
 11
-12.5
 21
15.0
 31
0.0
  0
LINE
  8
21
 10
-12.5
 20
15.0
 30
0.0
 11
-10.0
 21
15.0
 31
0.0
  0
LINE
  8
21
 10
-10.0
 20
15.0
 30
0.0
 11
-10.0
 21
17.9
 31
0.0
  0
LINE
  8
HEL035
 10
-11.11905
 20
16.944425
 30
0.0
 11
-10.439687
 21
16.008681
 31
0.0
  0
LINE
  8
21
 10
-5.0
 20
20.0
 30
0.0
 11
-10.8
 21
16.5
 31
0.0
  0
INSERT
  8
BASE
  6
CENTER
  2
BLC22
 10
-15.0
 20
20.0
 30
0.0
  0
LINE
  8
21
 10
-5.0
 20
40.0
 30
0.0
 11
-10.8
 21
36.5
 31
0.0
  0
LINE
  8
HEL035
 10
-11.11905
 20
36.944425
 30
0.0
 11
-10.439687
 21
36.008681
 31
0.0
  0
LINE
  8
21
 10
-10.0
 20
35.0
 30
0.0
 11
-10.0
 21
37.9
 31
0.0
  0
LINE
  8
21
 10
-12.5
 20
35.0
 30
0.0
 11
-10.0
 21
35.0
 31
0.0
  0
LINE
  8
HEL035
 10
-17.5
 20
35.0
 30
0.0
 11
-12.5
 21
35.0
 31
0.0
  0
INSERT
  8
BASE
  6
CENTER
  2
BLC22
 10
-15.0
 20
40.0
 30
0.0
  0
LINE
  8
BASE
  6
CONTINUOUS
 10
-22.5
 20
0.0
 30
0.0
 11
-32.049385
 21
0.0
 31
0.0
  0
LINE
  8
BASE
  6
CONTINUOUS
 10
-22.5
 20
30.0
 30
0.0
 11
-32.049385
 21
30.0
 31
0.0
  0
LINE
  8
BASE
  6
CONTINUOUS
 10
-5.0
 20
50.0
 30
0.0
 11
0.0
 21
50.0
 31
0.0
  0
LINE
  8
BASE
  6
CONTINUOUS
 10
-5.0
 20
40.0
 30
0.0
 11
0.0
 21
40.0
 31
0.0
  0
LINE
  8
BASE
  6
CONTINUOUS
 10
-5.0
 20
30.0
 30
0.0
 11
0.0
 21
30.0
 31
0.0
  0
LINE
  8
BASE
  6
CONTINUOUS
 10
-5.0
 20
20.0
 30
0.0
 11
0.0
 21
20.0
 31
0.0
  0
LINE
  8
BASE
  6
CONTINUOUS
 10
-5.0
 20
10.0
 30
0.0
 11
0.0
 21
10.0
 31
0.0
  0
LINE
  8
BASE
  6
CONTINUOUS
 10
-5.0
 20
0.0
 30
0.0
 11
0.0
 21
0.0
 31
0.0
  0
ENDBLK
  8
0
  0
BLOCK
  8
0
  2
B8
 70
     0
 10
0.0
 20
0.0
 30
0.0
  3
B8
  0
POLYLINE
  8
0
  6
DASHED
 66
     1
 10
0.0
 20
0.0
 30
0.0
 70
     1
 40
0.25
 41
0.25
 71
     2
 72
   151
  0
VERTEX
  8
0
  6
DASHED
 10
42.125
 20
0.0
 30
0.0
 42
1.0
  0
VERTEX
  8
0
  6
DASHED
 10
42.875
 20
0.0
 30
0.0
 42
1.0
  0
SEQEND
  8
0
  6
DASHED
  0
TEXT
  8
0
  6
CONTINUOUS
 10
13.732328
 20
74.006967
 30
0.0
 40
2.0
  1
L3(T)
 11
13.732328
 21
73.3403
 31
0.0
 73
     1
  0
TEXT
  8
0
  6
CONTINUOUS
 10
13.732328
 20
81.428359
 30
0.0
 40
2.0
  1
L2(S)
 11
13.732328
 21
80.761693
 31
0.0
 73
     1
  0
TEXT
  8
0
  6
CONTINUOUS
 10
13.732328
 20
88.985054
 30
0.0
 40
2.0
  1
L1(R)
 11
13.732328
 21
88.318387
 31
0.0
 73
     1
  0
LINE
  8
0
  6
CONTINUOUS
 10
52.5
 20
22.5
 30
0.0
 11
52.5
 21
0.0
 31
0.0
  0
INSERT
  8
0
  6
DASHED
  2
BLC15
 10
42.357914
 20
-3.489387
 30
0.0
  0
LINE
  8
0
  6
DASHED
 10
57.483152
 20
5.189984
 30
0.0
 11
47.5
 21
5.189984
 31
0.0
  0
LINE
  8
0
  6
DASHED
 10
47.5
 20
0.0
 30
0.0
 11
47.5
 21
5.189984
 31
0.0
  0
INSERT
  8
0
  6
DASHED
  2
BLC15
 10
52.357914
 20
-3.489387
 30
0.0
  0
LINE
  8
0
  6
CONTINUOUS
 10
57.5
 20
7.591425
 30
0.0
 11
52.5
 21
7.591425
 31
0.0
  0
POLYLINE
  8
0
  6
DASHED
 66
     1
 10
0.0
 20
0.0
 30
0.0
 70
     1
 40
0.25
 41
0.25
 71
     2
 72
   151
  0
VERTEX
  8
0
  6
DASHED
 10
42.125
 20
20.0
 30
0.0
 42
1.0
  0
VERTEX
  8
0
  6
DASHED
 10
42.875
 20
20.0
 30
0.0
 42
1.0
  0
SEQEND
  8
0
  6
DASHED
  0
INSERT
  8
0
  6
DASHED
  2
BLC15
 10
42.357916
 20
16.509978
 30
0.0
  0
POLYLINE
  8
0
  6
DASHED
 66
     1
 10
0.0
 20
0.0
 30
0.0
 70
     1
 40
0.25
 41
0.25
 71
     2
 72
   151
  0
VERTEX
  8
0
  6
DASHED
 10
42.117941
 20
25.19257
 30
0.0
 42
1.0
  0
VERTEX
  8
0
  6
DASHED
 10
42.867941
 20
25.19257
 30
0.0
 42
1.0
  0
SEQEND
  8
0
  6
DASHED
  0
LINE
  8
0
  6
DASHED
 10
65.066785
 20
25.189984
 30
0.0
 11
42.5
 21
25.189984
 31
0.0
  0
LINE
  8
0
  6
DASHED
 10
42.5
 20
45.189992
 30
0.0
 11
42.5
 21
20.0
 31
0.0
  0
LINE
  8
0
  6
DASHED
 10
50.0
 20
45.189992
 30
0.0
 11
42.5
 21
45.189992
 31
0.0
  0
POLYLINE
  8
0
  6
DASHED
 66
     1
 10
0.0
 20
0.0
 30
0.0
 70
     1
 40
0.25
 41
0.25
 71
     2
 72
   151
  0
VERTEX
  8
0
  6
DASHED
 10
9.625
 20
20.0
 30
0.0
 42
1.0
  0
VERTEX
  8
0
  6
DASHED
 10
10.375
 20
20.0
 30
0.0
 42
1.0
  0
SEQEND
  8
0
  6
DASHED
  0
LINE
  8
0
  6
DASHED
 10
10.0
 20
40.0
 30
0.0
 11
10.0
 21
20.0
 31
0.0
  0
LINE
  8
0
  6
DASHED
 10
57.5
 20
12.5
 30
0.0
 11
57.5
 21
-7.5
 31
0.0
  0
POLYLINE
  8
0
  6
CONTINUOUS
 66
     1
 10
0.0
 20
0.0
 30
0.0
 70
     1
 40
0.25
 41
0.25
 71
     2
 72
   151
  0
VERTEX
  8
0
  6
CONTINUOUS
 10
52.125
 20
22.5
 30
0.0
 42
1.0
  0
VERTEX
  8
0
  6
CONTINUOUS
 10
52.875
 20
22.5
 30
0.0
 42
1.0
  0
SEQEND
  8
0
  6
CONTINUOUS
  0
INSERT
  8
0
  6
CONTINUOUS
  2
BLC27
 10
58.991155
 20
7.618431
 30
0.0
 50
180.0
  0
POLYLINE
  8
0
  6
CONTINUOUS
 66
     1
 10
0.0
 20
0.0
 30
0.0
 70
     1
 40
0.25
 41
0.25
 71
     2
 72
   151
  0
VERTEX
  8
0
  6
CONTINUOUS
 10
49.625
 20
90.0
 30
0.0
 42
1.0
  0
VERTEX
  8
0
  6
CONTINUOUS
 10
50.375
 20
90.0
 30
0.0
 42
1.0
  0
SEQEND
  8
0
  6
CONTINUOUS
  0
POLYLINE
  8
0
  6
CONTINUOUS
 66
     1
 10
0.0
 20
0.0
 30
0.0
 70
     1
 40
0.25
 41
0.25
 71
     2
 72
   151
  0
VERTEX
  8
0
  6
CONTINUOUS
 10
57.125
 20
82.5
 30
0.0
 42
1.0
  0
VERTEX
  8
0
  6
CONTINUOUS
 10
57.875
 20
82.5
 30
0.0
 42
1.0
  0
SEQEND
  8
0
  6
CONTINUOUS
  0
POLYLINE
  8
0
  6
CONTINUOUS
 66
     1
 10
0.0
 20
0.0
 30
0.0
 70
     1
 40
0.25
 41
0.25
 71
     2
 72
   151
  0
VERTEX
  8
0
  6
CONTINUOUS
 10
64.625
 20
75.0
 30
0.0
 42
1.0
  0
VERTEX
  8
0
  6
CONTINUOUS
 10
65.375
 20
75.0
 30
0.0
 42
1.0
  0
SEQEND
  8
0
  6
CONTINUOUS
  0
LINE
  8
0
  6
CONTINUOUS
 10
65.0
 20
62.5
 30
0.0
 11
64.5
 21
62.0
 31
0.0
  0
LINE
  8
0
  6
CONTINUOUS
 10
65.0
 20
62.5
 30
0.0
 11
64.5
 21
63.0
 31
0.0
  0
LINE
  8
0
  6
CONTINUOUS
 10
65.0
 20
62.5
 30
0.0
 11
65.5
 21
63.0
 31
0.0
  0
LINE
  8
0
  6
CONTINUOUS
 10
65.0
 20
62.5
 30
0.0
 11
65.5
 21
62.0
 31
0.0
  0
LINE
  8
0
  6
CONTINUOUS
 10
57.5
 20
62.5
 30
0.0
 11
57.0
 21
63.0
 31
0.0
  0
LINE
  8
0
  6
CONTINUOUS
 10
57.5
 20
62.5
 30
0.0
 11
57.0
 21
62.0
 31
0.0
  0
LINE
  8
0
  6
CONTINUOUS
 10
57.5
 20
62.5
 30
0.0
 11
58.0
 21
62.0
 31
0.0
  0
LINE
  8
0
  6
CONTINUOUS
 10
57.5
 20
62.5
 30
0.0
 11
58.0
 21
63.0
 31
0.0
  0
LINE
  8
0
  6
CONTINUOUS
 10
50.0
 20
62.5
 30
0.0
 11
49.5
 21
62.0
 31
0.0
  0
LINE
  8
0
  6
CONTINUOUS
 10
50.0
 20
62.5
 30
0.0
 11
50.5
 21
63.0
 31
0.0
  0
LINE
  8
0
  6
CONTINUOUS
 10
50.0
 20
62.5
 30
0.0
 11
50.5
 21
62.0
 31
0.0
  0
LINE
  8
0
  6
CONTINUOUS
 10
50.0
 20
62.5
 30
0.0
 11
49.5
 21
63.0
 31
0.0
  0
LINE
  8
0
  6
CONTINUOUS
 10
65.0
 20
55.0
 30
0.0
 11
62.5
 21
62.5
 31
0.0
  0
LINE
  8
0
  6
CONTINUOUS
 10
57.5
 20
55.0
 30
0.0
 11
55.0
 21
62.5
 31
0.0
  0
LINE
  8
0
  6
CONTINUOUS
 10
50.0
 20
55.0
 30
0.0
 11
47.5
 21
62.5
 31
0.0
  0
LINE
  8
0
  6
CONTINUOUS
 10
57.5
 20
12.5
 30
0.0
 11
62.5
 21
22.5
 31
0.0
  0
LINE
  8
0
  6
CONTINUOUS
 10
57.5
 20
12.5
 30
0.0
 11
52.5
 21
22.5
 31
0.0
  0
LINE
  8
0
  6
CONTINUOUS
 10
50.0
 20
22.5
 30
0.0
 11
65.0
 21
22.5
 31
0.0
  0
INSERT
  8
0
  6
CONTINUOUS
  2
BLC27
 10
66.491158
 20
27.61843
 30
0.0
 50
180.0
  0
LINE
  8
0
  6
DASHED
 10
50.0
 20
75.0
 30
0.0
 11
50.0
 21
90.0
 31
0.0
  0
LINE
  8
0
  6
DASHED
 10
57.5
 20
75.0
 30
0.0
 11
57.5
 21
82.5
 31
0.0
  0
LINE
  8
0
  6
DASHED
 10
80.0
 20
90.0
 30
0.0
 11
22.5
 21
90.0
 31
0.0
  0
LINE
  8
0
  6
DASHED
 10
80.0
 20
82.5
 30
0.0
 11
22.5
 21
82.5
 31
0.0
  0
LINE
  8
0
  6
DASHED
 10
80.0
 20
75.0
 30
0.0
 11
22.5
 21
75.0
 31
0.0
  0
LINE
  8
0
  6
DASHED
 10
65.0
 20
55.0
 30
0.0
 11
65.0
 21
22.5
 31
0.0
  0
LINE
  8
0
  6
DASHED
 10
65.0
 20
75.0
 30
0.0
 11
65.0
 21
62.5
 31
0.0
  0
LINE
  8
0
  6
DASHED
 10
57.5
 20
55.0
 30
0.0
 11
57.5
 21
22.5
 31
0.0
  0
LINE
  8
0
  6
DASHED
 10
57.5
 20
75.0
 30
0.0
 11
57.5
 21
62.5
 31
0.0
  0
LINE
  8
0
  6
DASHED
 10
50.0
 20
62.5
 30
0.0
 11
50.0
 21
75.0
 31
0.0
  0
LINE
  8
0
  6
DASHED
 10
50.0
 20
55.0
 30
0.0
 11
50.0
 21
22.5
 31
0.0
  0
INSERT
  8
0
  6
CONTINUOUS
  2
BLC27
 10
51.491154
 20
47.618433
 30
0.0
 50
180.0
  0
LINE
  8
0
  6
DASHED
 10
0.0
 20
0.0
 30
0.0
 11
47.5
 21
0.0
 31
0.0
  0
LINE
  8
0
  6
DASHED
 10
0.0
 20
10.0
 30
0.0
 11
57.5
 21
10.0
 31
0.0
  0
LINE
  8
0
  6
DASHED
 10
0.0
 20
20.0
 30
0.0
 11
42.5
 21
20.0
 31
0.0
  0
LINE
  8
0
  6
DASHED
 10
0.0
 20
30.0
 30
0.0
 11
65.0
 21
30.0
 31
0.0
  0
LINE
  8
0
  6
DASHED
 10
0.0
 20
40.0
 30
0.0
 11
10.0
 21
40.0
 31
0.0
  0
LINE
  8
0
  6
DASHED
 10
0.0
 20
50.0
 30
0.0
 11
50.0
 21
50.0
 31
0.0
  0
ENDBLK
  8
0
  0
BLOCK
  8
0
  2
B6
 70
     0
 10
0.0
 20
0.0
 30
0.0
  3
B6
  0
TEXT
  8
0
  6
DASHED
 10
0.813324
 20
-6.94985
 30
0.0
 40
2.0
  1
108 SPAJ 122
  0
TEXT
  8
0
  6
DASHED
 10
0.813324
 20
-3.616516
 30
0.0
 40
2.0
  1
101 RTXP 18
  0
TEXT
  8
0
  6
DASHED
 10
22.211341
 20
7.140379
 30
0.0
 40
2.0
  1
4S
  0
TEXT
  8
0
  6
DASHED
 10
9.617517
 20
15.041706
 30
0.0
 40
2.0
  1
30C
  0
TEXT
  8
0
  6
DASHED
 10
9.249881
 20
11.800442
 30
0.0
 40
2.0
  1
108
  0
TEXT
  8
0
  6
DASHED
 10
1.364387
 20
11.816142
 30
0.0
 40
2.0
  1
101  
  0
LINE
  8
0
  6
CONTINUOUS
 10
0.374793
 20
14.318353
 30
0.0
 11
21.053957
 21
14.318353
 31
0.0
  0
LINE
  8
0
  6
CONTINUOUS
 10
21.053957
 20
14.318353
 30
0.0
 11
21.053957
 21
0.172845
 31
0.0
  0
LINE
  8
0
  6
CONTINUOUS
 10
21.053957
 20
0.172845
 30
0.0
 11
0.374793
 21
0.172845
 31
0.0
  0
LINE
  8
0
  6
CONTINUOUS
 10
0.374793
 20
0.172845
 30
0.0
 11
0.374793
 21
14.318353
 31
0.0
  0
LINE
  8
0
  6
CONTINUOUS
 10
6.902051
 20
14.318353
 30
0.0
 11
6.902051
 21
0.172845
 31
0.0
  0
LINE
  8
0
  6
CONTINUOUS
 10
8.716235
 20
14.318353
 30
0.0
 11
8.716235
 21
0.172845
 31
0.0
  0
ENDBLK
  8
0
  0
BLOCK
  8
0
  2
B12
 70
     0
 10
0.0
 20
0.0
 30
0.0
  3
B12
  0
TEXT
  8
0
  6
CONTINUOUS
 10
6.847207
 20
12.309463
 30
0.0
 40
2.5
  1
I
 11
6.847207
 21
11.47613
 31
0.0
 73
     1
  0
LINE
  8
0
  6
CONTINUOUS
 10
4.034791
 20
20.097692
 30
0.0
 11
4.034791
 21
18.309561
 31
0.0
  0
LINE
  8
0
  6
CONTINUOUS
 10
11.849486
 20
20.097692
 30
0.0
 11
11.849486
 21
18.309561
 31
0.0
  0
LINE
  8
0
  6
CONTINUOUS
 10
4.065822
 20
19.252414
 30
0.0
 11
11.854027
 21
19.252414
 31
0.0
  0
LINE
  8
0
  6
CONTINUOUS
 10
6.449967
 20
18.084811
 30
0.0
 11
9.326077
 21
20.91337
 31
0.0
  0
LINE
  8
0
  6
CONTINUOUS
 10
8.871955
 20
21.450576
 30
0.0
 11
9.772631
 21
20.326827
 31
0.0
  0
LINE
  8
0
  6
HIDDEN
 10
11.468023
 20
18.150591
 30
0.0
 11
10.688446
 21
18.216372
 31
0.0
  0
LINE
  8
0
  6
HIDDEN
 10
10.272166
 20
18.309561
 30
0.0
 11
9.197409
 21
18.539792
 31
0.0
  0
LINE
  8
0
  6
HIDDEN
 10
8.894661
 20
18.632981
 30
0.0
 11
7.910728
 21
18.972847
 31
0.0
  0
LINE
  8
0
  6
HIDDEN
 10
7.706373
 20
19.087963
 30
0.0
 11
7.199269
 21
19.778657
 31
0.0
  0
LINE
  8
0
  6
CONTINUOUS
 10
0.315152
 20
28.866096
 30
0.0
 11
16.656177
 21
28.866096
 31
0.0
  0
LINE
  8
0
  6
CONTINUOUS
 10
16.656177
 20
28.866096
 30
0.0
 11
16.656177
 21
0.204294
 31
0.0
  0
TEXT
  8
0
  6
CONTINUOUS
 10
3.832185
 20
12.419301
 30
0.0
 40
2.5
  1
2
 11
3.832185
 21
11.585968
 31
0.0
 73
     1
  0
TEXT
  8
0
  6
CONTINUOUS
 10
3.466231
 20
23.742652
 30
0.0
 40
2.5
  1
2 I
 11
3.466231
 21
22.909319
 31
0.0
 73
     1
  0
LINE
  8
0
  6
CONTINUOUS
 10
10.967551
 20
26.247703
 30
0.0
 11
13.313316
 21
24.912349
 31
0.0
  0
LINE
  8
0
  6
CONTINUOUS
 10
13.313316
 20
24.912349
 30
0.0
 11
10.967551
 21
23.72243
 31
0.0
  0
LINE
  8
0
  6
CONTINUOUS
 10
8.328357
 20
14.830198
 30
0.0
 11
10.674122
 21
13.494844
 31
0.0
  0
LINE
  8
0
  6
CONTINUOUS
 10
10.674122
 20
13.494844
 30
0.0
 11
8.328357
 21
12.304925
 31
0.0
  0
TEXT
  8
0
  6
CONTINUOUS
 10
4.942692
 20
7.246756
 30
0.0
 40
2.5
  1
I
 11
4.942692
 21
6.413423
 31
0.0
 73
     1
  0
LINE
  8
0
  6
CONTINUOUS
 10
7.894719
 20
9.290587
 30
0.0
 11
7.894719
 21
7.945861
 31
0.0
  0
LINE
  8
0
  6
CONTINUOUS
 10
7.000755
 20
7.945861
 30
0.0
 11
7.91191
 21
7.945861
 31
0.0
  0
LINE
  8
0
  6
CONTINUOUS
 10
7.894719
 20
7.945861
 30
0.0
 11
8.788682
 21
7.945861
 31
0.0
  0
LINE
  8
0
  6
CONTINUOUS
 10
7.287282
 20
7.550453
 30
0.0
 11
7.894719
 21
7.550453
 31
0.0
  0
LINE
  8
0
  6
CONTINUOUS
 10
7.894719
 20
7.550453
 30
0.0
 11
8.536539
 21
7.550453
 31
0.0
  0
LINE
  8
0
  6
CONTINUOUS
 10
8.367551
 20
7.188094
 30
0.0
 11
7.457731
 21
7.188094
 31
0.0
  0
LINE
  8
0
 10
0.315152
 20
28.866096
 30
0.0
 11
0.315152
 21
0.204294
 31
0.0
  0
LINE
  8
0
  6
CONTINUOUS
 10
12.507543
 20
13.494844
 30
0.0
 11
10.161777
 21
12.304925
 31
0.0
  0
LINE
  8
0
  6
CONTINUOUS
 10
10.161777
 20
14.830198
 30
0.0
 11
12.507543
 21
13.494844
 31
0.0
  0
LINE
  8
0
  6
CONTINUOUS
 10
4.034791
 20
3.990231
 30
0.0
 11
4.034791
 21
2.202099
 31
0.0
  0
LINE
  8
0
  6
CONTINUOUS
 10
11.849486
 20
3.990231
 30
0.0
 11
11.849486
 21
2.202099
 31
0.0
  0
LINE
  8
0
  6
CONTINUOUS
 10
4.065822
 20
3.144952
 30
0.0
 11
11.854027
 21
3.144952
 31
0.0
  0
LINE
  8
0
  6
CONTINUOUS
 10
6.449967
 20
1.977349
 30
0.0
 11
9.326077
 21
4.805908
 31
0.0
  0
LINE
  8
0
  6
CONTINUOUS
 10
8.871955
 20
5.343115
 30
0.0
 11
9.772631
 21
4.219366
 31
0.0
  0
LINE
  8
0
  6
HIDDEN
 10
11.468023
 20
2.04313
 30
0.0
 11
10.688446
 21
2.10891
 31
0.0
  0
LINE
  8
0
  6
HIDDEN
 10
10.272166
 20
2.202099
 30
0.0
 11
9.197409
 21
2.432331
 31
0.0
  0
LINE
  8
0
  6
HIDDEN
 10
8.894661
 20
2.52552
 30
0.0
 11
7.910728
 21
2.865385
 31
0.0
  0
LINE
  8
0
  6
HIDDEN
 10
7.706373
 20
2.980501
 30
0.0
 11
7.199269
 21
3.671196
 31
0.0
  0
LINE
  8
0
 10
0.315152
 20
0.204294
 30
0.0
 11
16.656177
 21
0.204294
 31
0.0
  0
TEXT
  8
0
  6
DASHED
 10
-6.425168
 20
-8.885769
 30
0.0
 40
2.0
  1
ÖVERSTRÖMSRELÄ
  0
TEXT
  8
0
  6
DASHED
 10
-6.425168
 20
-5.552435
 30
0.0
 40
2.0
  1
OVERCURRENT RELAY
  0
ENDBLK
  8
0
  0
BLOCK
  8
0
  2
B17
 70
     0
 10
0.0
 20
0.0
 30
0.0
  3
B17
  0
TEXT
  8
0
 10
-5.0
 20
-13.107802
 30
0.0
 40
2.0
  1
MOTORSKYDDSRELÄ
 11
-5.0
 21
-13.774469
 31
0.0
 73
     1
  0
TEXT
  8
0
 10
-5.0
 20
-9.774469
 30
0.0
 40
2.0
  1
RELAY
 11
-5.0
 21
-10.441136
 31
0.0
 73
     1
  0
TEXT
  8
0
 10
-5.0
 20
-6.441136
 30
0.0
 40
2.0
  1
MOTOR PROTECTION
 11
-5.0
 21
-7.107802
 31
0.0
 73
     1
  0
INSERT
  8
0
  2
BLC16
 10
0.0
 20
0.0
 30
0.0
  0
ENDBLK
  8
0
  0
BLOCK
  8
0
  2
B20
 70
     0
 10
0.0
 20
0.0
 30
0.0
  3
B20
  0
INSERT
  8
0
  6
CONTINUOUS
  2
BLC25
 10
-0.49118
 20
1.171798
 30
0.0
  0
ENDBLK
  8
0
  0
BLOCK
  8
0
  2
BLC25
 70
    64
 10
0.0
 20
0.0
 30
0.0
  3
BLC25
  0
TEXT
  8
0
  6
CONTINUOUS
 10
2.0
 20
30.666667
 30
0.0
 40
2.0
  1
1)
 11
2.0
 21
30.0
 31
0.0
 73
     1
  0
TEXT
  8
0
 10
6.0
 20
2.0
 30
0.0
 40
2.0
  1
7B    27     26
 11
6.0
 21
1.333333
 31
0.0
 73
     1
  0
TEXT
  8
0
 10
6.0
 20
5.333333
 30
0.0
 40
2.0
  1
5B     9      8
 11
6.0
 21
4.666667
 31
0.0
 73
     1
  0
TEXT
  8
0
 10
6.0
 20
8.666667
 30
0.0
 40
2.0
  1
3B     3      2
 11
6.0
 21
8.0
 31
0.0
 73
     1
  0
TEXT
  8
0
 10
32.0
 20
12.666667
 30
0.0
 40
2.0
  1
In=5A
 11
32.0
 21
12.0
 31
0.0
 73
     1
  0
TEXT
  8
0
 10
16.0
 20
12.666667
 30
0.0
 40
2.0
  1
In=1A 
 11
16.0
 21
12.0
 31
0.0
 73
     1
  0
TEXT
  8
0
 10
26.0
 20
18.666667
 30
0.0
 40
2.0
  1
108:
 11
26.0
 21
18.0
 31
0.0
 73
     1
  0
TEXT
  8
0
 10
6.0
 20
18.666667
 30
0.0
 40
2.0
  1
101:       
 11
6.0
 21
18.0
 31
0.0
 73
     1
  0
TEXT
  8
0
 10
6.0
 20
24.666667
 30
0.0
 40
2.0
  1
TERMINALS / UTTAG
 11
6.0
 21
24.0
 31
0.0
 73
     1
  0
LINE
  8
0
 10
0.0
 20
12.0
 30
0.0
 11
44.0
 21
12.0
 31
0.0
  0
LINE
  8
0
 10
28.0
 20
18.0
 30
0.0
 11
28.0
 21
0.0
 31
0.0
  0
LINE
  8
0
 10
14.0
 20
18.0
 30
0.0
 11
44.0
 21
18.0
 31
0.0
  0
LINE
  8
0
 10
14.0
 20
24.0
 30
0.0
 11
14.0
 21
0.0
 31
0.0
  0
LINE
  8
0
 10
0.0
 20
24.0
 30
0.0
 11
44.0
 21
24.0
 31
0.0
  0
LINE
  8
0
 10
44.0
 20
0.0
 30
0.0
 11
44.0
 21
30.0
 31
0.0
  0
LINE
  8
0
 10
0.0
 20
0.0
 30
0.0
 11
44.0
 21
0.0
 31
0.0
  0
LINE
  8
0
 10
0.0
 20
30.0
 30
0.0
 11
0.0
 21
0.0
 31
0.0
  0
LINE
  8
0
 10
44.0
 20
30.0
 30
0.0
 11
0.0
 21
30.0
 31
0.0
  0
ENDBLK
  8
0
  0
BLOCK
  8
0
  2
B27
 70
     0
 10
0.0
 20
0.0
 30
0.0
  3
B27
  0
LINE
  8
BASE
  6
CONTINUOUS
 10
-5.0
 20
0.0
 30
0.0
 11
7.5
 21
0.0
 31
0.0
  0
LINE
  8
BASE
  6
CONTINUOUS
 10
-5.0
 20
5.0
 30
0.0
 11
-5.0
 21
0.0
 31
0.0
  0
LINE
  8
BASE
  6
CONTINUOUS
 10
-2.5
 20
5.0
 30
0.0
 11
-2.5
 21
13.652485
 31
0.0
  0
LINE
  8
BASE
  6
CONTINUOUS
 10
7.5
 20
5.0
 30
0.0
 11
7.5
 21
0.0
 31
0.0
  0
LINE
  8
BASE
  6
CONTINUOUS
 10
7.5
 20
5.0
 30
0.0
 11
-5.0
 21
5.0
 31
0.0
  0
LINE
  8
BASE
  6
CONTINUOUS
 10
5.0
 20
7.5
 30
0.0
 11
5.0
 21
10.0
 31
0.0
  0
LINE
  8
BASE
  6
CONTINUOUS
 10
2.5
 20
7.5
 30
0.0
 11
2.5
 21
10.0
 31
0.0
  0
LINE
  8
BASE
  6
CONTINUOUS
 10
0.0
 20
5.0
 30
0.0
 11
0.0
 21
13.652485
 31
0.0
  0
LINE
  8
BASE
  6
CONTINUOUS
 10
0.0
 20
-2.5
 30
0.0
 11
0.0
 21
-7.5
 31
0.0
  0
LINE
  8
BASE
  6
CONTINUOUS
 10
2.5
 20
5.0
 30
0.0
 11
2.5
 21
7.5
 31
0.0
  0
LINE
  8
BASE
  6
CONTINUOUS
 10
5.0
 20
5.0
 30
0.0
 11
5.0
 21
7.5
 31
0.0
  0
LINE
  8
BASE
  6
CONTINUOUS
 10
0.0
 20
0.0
 30
0.0
 11
0.0
 21
-2.5
 31
0.0
  0
LINE
  8
BASE
  6
CONTINUOUS
 10
1.24635
 20
2.789195
 30
0.0
 11
-1.099415
 21
1.599276
 31
0.0
  0
LINE
  8
BASE
  6
CONTINUOUS
 10
-1.107457
 20
0.799262
 30
0.0
 11
1.276004
 21
1.987454
 31
0.0
  0
LINE
  8
BASE
  6
CONTINUOUS
 10
-1.099415
 20
4.124549
 30
0.0
 11
1.24635
 21
2.789195
 31
0.0
  0
TEXT
  8
BASE
  6
CONTINUOUS
 10
3.334447
 20
1.464455
 30
0.0
 40
2.5
  1
1
 11
3.334447
 21
0.631122
 31
0.0
 73
     1
  0
ENDBLK
  8
0
  0
BLOCK
  8
0
  2
B28
 70
     0
 10
0.0
 20
0.0
 30
0.0
  3
B28
  0
TEXT
  8
BASE
  6
CENTER
 10
-5.533251
 20
-72.779029
 30
0.0
 40
2.0
  1
10A
  0
TEXT
  8
BASE
  6
CENTER
 10
-4.498916
 20
-62.62865
 30
0.0
 40
2.0
  1
9A
  0
LINE
  8
BASE
  6
CONTINUOUS
 10
-22.5
 20
-35.0
 30
0.0
 11
-22.5
 21
-55.0
 31
0.0
  0
LINE
  8
BASE
  6
CONTINUOUS
 10
-5.0
 20
-70.0
 30
0.0
 11
0.0
 21
-70.0
 31
0.0
  0
LINE
  8
BASE
  6
CONTINUOUS
 10
-5.0
 20
-60.0
 30
0.0
 11
0.0
 21
-60.0
 31
0.0
  0
LINE
  8
BASE
 10
-11.11905
 20
-73.055575
 30
0.0
 11
-10.439687
 21
-73.991319
 31
0.0
  0
LINE
  8
BASE
 10
-5.0
 20
-70.0
 30
0.0
 11
-10.8
 21
-73.5
 31
0.0
  0
LINE
  8
BASE
 10
-10.0
 20
-75.0
 30
0.0
 11
-10.0
 21
-72.1
 31
0.0
  0
LINE
  8
BASE
 10
-12.5
 20
-75.0
 30
0.0
 11
-10.0
 21
-75.0
 31
0.0
  0
INSERT
  8
BASE
  6
CENTER
  2
BLC22
 10
-15.0
 20
-70.0
 30
0.0
  0
LINE
  8
BASE
  6
CONTINUOUS
 10
-20.0
 20
-65.0
 30
0.0
 11
-17.5
 21
-65.0
 31
0.0
  0
LINE
  8
BASE
  6
CONTINUOUS
 10
-20.0
 20
-75.0
 30
0.0
 11
-17.5
 21
-75.0
 31
0.0
  0
LINE
  8
BASE
 10
-17.5
 20
-75.0
 30
0.0
 11
-12.5
 21
-75.0
 31
0.0
  0
LINE
  8
BASE
  6
CONTINUOUS
 10
-5.0
 20
-50.0
 30
0.0
 11
0.0
 21
-50.0
 31
0.0
  0
LINE
  8
BASE
  6
CONTINUOUS
 10
-5.0
 20
-40.0
 30
0.0
 11
0.0
 21
-40.0
 31
0.0
  0
LINE
  8
BASE
  6
CONTINUOUS
 10
-5.0
 20
-30.0
 30
0.0
 11
0.0
 21
-30.0
 31
0.0
  0
LINE
  8
BASE
  6
CONTINUOUS
 10
-5.0
 20
-20.0
 30
0.0
 11
0.0
 21
-20.0
 31
0.0
  0
LINE
  8
BASE
  6
CONTINUOUS
 10
-5.0
 20
-10.0
 30
0.0
 11
0.0
 21
-10.0
 31
0.0
  0
LINE
  8
BASE
  6
CONTINUOUS
 10
-5.0
 20
0.0
 30
0.0
 11
0.0
 21
0.0
 31
0.0
  0
INSERT
  8
BASE
  6
CENTER
  2
BLC22
 10
-15.0
 20
-10.0
 30
0.0
  0
LINE
  8
BASE
 10
-17.5
 20
-15.0
 30
0.0
 11
-12.5
 21
-15.0
 31
0.0
  0
LINE
  8
BASE
 10
-12.5
 20
-15.0
 30
0.0
 11
-10.0
 21
-15.0
 31
0.0
  0
LINE
  8
BASE
 10
-10.0
 20
-15.0
 30
0.0
 11
-10.0
 21
-12.1
 31
0.0
  0
LINE
  8
BASE
 10
-11.11905
 20
-13.055575
 30
0.0
 11
-10.439687
 21
-13.991319
 31
0.0
  0
LINE
  8
BASE
 10
-5.0
 20
-10.0
 30
0.0
 11
-10.8
 21
-13.5
 31
0.0
  0
INSERT
  8
BASE
  6
CENTER
  2
BLC22
 10
-15.0
 20
-30.0
 30
0.0
  0
LINE
  8
BASE
 10
-5.0
 20
-30.0
 30
0.0
 11
-10.8
 21
-33.5
 31
0.0
  0
LINE
  8
BASE
 10
-11.11905
 20
-33.055575
 30
0.0
 11
-10.439687
 21
-33.991319
 31
0.0
  0
LINE
  8
BASE
 10
-10.0
 20
-35.0
 30
0.0
 11
-10.0
 21
-32.1
 31
0.0
  0
LINE
  8
BASE
 10
-12.5
 20
-35.0
 30
0.0
 11
-10.0
 21
-35.0
 31
0.0
  0
LINE
  8
BASE
 10
-17.5
 20
-35.0
 30
0.0
 11
-12.5
 21
-35.0
 31
0.0
  0
INSERT
  8
BASE
  6
CENTER
  2
BLC22
 10
-15.0
 20
-50.0
 30
0.0
  0
LINE
  8
BASE
 10
-17.5
 20
-55.0
 30
0.0
 11
-12.5
 21
-55.0
 31
0.0
  0
LINE
  8
BASE
 10
-12.5
 20
-55.0
 30
0.0
 11
-10.0
 21
-55.0
 31
0.0
  0
LINE
  8
BASE
 10
-10.0
 20
-55.0
 30
0.0
 11
-10.0
 21
-52.1
 31
0.0
  0
LINE
  8
BASE
 10
-11.11905
 20
-53.055575
 30
0.0
 11
-10.439687
 21
-53.991319
 31
0.0
  0
LINE
  8
BASE
 10
-5.0
 20
-50.0
 30
0.0
 11
-10.8
 21
-53.5
 31
0.0
  0
LINE
  8
BASE
  6
CONTINUOUS
 10
-22.5
 20
-5.0
 30
0.0
 11
-22.5
 21
-35.0
 31
0.0
  0
LINE
  8
BASE
  6
CONTINUOUS
 10
-22.5
 20
-5.0
 30
0.0
 11
-21.5
 21
-4.0
 31
0.0
  0
LINE
  8
BASE
  6
CONTINUOUS
 10
-22.5
 20
-55.0
 30
0.0
 11
-21.5
 21
-56.0
 31
0.0
  0
LINE
  8
BASE
  6
CONTINUOUS
 10
-22.5
 20
-65.0
 30
0.0
 11
-22.5
 21
-75.0
 31
0.0
  0
LINE
  8
BASE
  6
CONTINUOUS
 10
-22.5
 20
-75.0
 30
0.0
 11
-21.5
 21
-76.0
 31
0.0
  0
LINE
  8
BASE
  6
CONTINUOUS
 10
-22.5
 20
-65.0
 30
0.0
 11
-21.5
 21
-64.0
 31
0.0
  0
LINE
  8
BASE
  6
CONTINUOUS
 10
-20.0
 20
-5.0
 30
0.0
 11
-17.5
 21
-5.0
 31
0.0
  0
LINE
  8
BASE
  6
CONTINUOUS
 10
-20.0
 20
-15.0
 30
0.0
 11
-17.5
 21
-15.0
 31
0.0
  0
LINE
  8
BASE
  6
CONTINUOUS
 10
-20.0
 20
-25.0
 30
0.0
 11
-17.5
 21
-25.0
 31
0.0
  0
LINE
  8
BASE
  6
CONTINUOUS
 10
-20.0
 20
-35.0
 30
0.0
 11
-17.5
 21
-35.0
 31
0.0
  0
LINE
  8
BASE
  6
CONTINUOUS
 10
-20.0
 20
-45.0
 30
0.0
 11
-17.5
 21
-45.0
 31
0.0
  0
LINE
  8
BASE
  6
CONTINUOUS
 10
-20.0
 20
-55.0
 30
0.0
 11
-17.5
 21
-55.0
 31
0.0
  0
TEXT
  8
BASE
  6
CONTINUOUS
 10
-20.369738
 20
-1.580862
 30
0.0
 40
1.5
  1
101
  0
TEXT
  8
BASE
  6
CONTINUOUS
 10
-4.579696
 20
-3.041778
 30
0.0
 40
2.0
  1
3A
  0
TEXT
  8
BASE
  6
CONTINUOUS
 10
-4.579696
 20
-12.551042
 30
0.0
 40
2.0
  1
4A
  0
TEXT
  8
BASE
  6
CONTINUOUS
 10
-4.579696
 20
-22.813467
 30
0.0
 40
2.0
  1
5A
  0
TEXT
  8
BASE
  6
CONTINUOUS
 10
-4.579696
 20
-32.92526
 30
0.0
 40
2.0
  1
6A
  0
TEXT
  8
BASE
  6
CONTINUOUS
 10
-4.579696
 20
-43.037053
 30
0.0
 40
2.0
  1
7A
  0
TEXT
  8
BASE
  6
CONTINUOUS
 10
-4.579696
 20
-52.847581
 30
0.0
 40
2.0
  1
8A
  0
LINE
  8
BASE
  6
CENTER
 10
0.0
 20
-2.5
 30
0.0
 11
0.0
 21
-25.0
 31
0.0
  0
LINE
  8
BASE
  6
CONTINUOUS
 10
0.0
 20
-37.5
 30
0.0
 11
0.0
 21
-37.5
 31
0.0
  0
LINE
  8
BASE
  6
CONTINUOUS
 10
-22.5
 20
-70.0
 30
0.0
 11
-30.0
 21
-70.0
 31
0.0
  0
INSERT
  8
BASE
  6
CONTINUOUS
  2
BLC29
 10
-25.505406
 20
-70.128467
 30
0.0
 50
180.0
  0
LINE
  8
BASE
  6
CONTINUOUS
 10
-22.5
 20
-30.0
 30
0.0
 11
-32.049385
 21
-30.0
 31
0.0
  0
INSERT
  8
BASE
  6
CONTINUOUS
  2
BLC29
 10
-25.505406
 20
-30.128476
 30
0.0
 50
180.0
  0
ENDBLK
  8
0
  0
BLOCK
  8
0
  2
B29
 70
     0
 10
0.0
 20
0.0
 30
0.0
  3
B29
  0
LINE
  8
0
  6
CONTINUOUS
 10
0.0
 20
0.0
 30
0.0
 11
0.0
 21
-0.672626
 31
0.0
  0
ARC
  8
0
  6
CONTINUOUS
 10
0.0
 20
-1.421276
 30
0.0
 40
0.74865
 50
270.0
 51
90.0
  0
ARC
  8
0
  6
CONTINUOUS
 10
0.0
 20
-2.918575
 30
0.0
 40
0.74865
 50
270.0
 51
90.0
  0
ARC
  8
0
  6
CONTINUOUS
 10
0.0
 20
-4.415875
 30
0.0
 40
0.74865
 50
270.0
 51
90.0
  0
ARC
  8
0
  6
CONTINUOUS
 10
0.0
 20
-5.913174
 30
0.0
 40
0.74865
 50
270.0
 51
90.0
  0
LINE
  8
0
  6
CONTINUOUS
 10
0.0
 20
-6.661823
 30
0.0
 11
0.0
 21
-7.334452
 31
0.0
  0
ENDBLK
  8
0
  0
BLOCK
  8
0
  2
ABBA3V
 70
    64
 10
0.0
 20
0.0
 30
0.0
  3
ABBA3V
  0
TEXT
  8
RAAMI
  6
DASHED
 10
292.217194
 20
11.813359
 30
0.0
 40
3.0
  1
A3
  7
GREEKS
  0
TEXT
  8
RAAMI
  6
DASHED
 10
351.818577
 20
15.69253
 30
0.0
 40
1.4
  1
LEHTI SHEET
  7
GREEKS
  0
LINE
  8
PAKSU
 10
0.237099
 20
262.737999
 30
0.0
 11
392.237099
 21
262.737999
 31
0.0
  0
LINE
  8
RAAMI
 10
18.237099
 20
0.237999
 30
0.0
 11
0.237099
 21
0.237999
 31
0.0
  0
LINE
  8
PAKSU
 10
209.237099
 20
0.237999
 30
0.0
 11
392.237099
 21
0.237999
 31
0.0
  0
LINE
  8
PAKSU
 10
209.237099
 20
0.237999
 30
0.0
 11
209.237099
 21
35.237999
 31
0.0
  0
LINE
  8
PAKSU
 10
392.237099
 20
0.237999
 30
0.0
 11
392.237099
 21
35.237999
 31
0.0
  0
LINE
  8
OHUT
 10
209.237099
 20
18.237999
 30
0.0
 11
392.237099
 21
18.237999
 31
0.0
  0
LINE
  8
OHUT
 10
209.237099
 20
9.737999
 30
0.0
 11
392.237099
 21
9.737999
 31
0.0
  0
LINE
  8
OHUT
 10
209.237099
 20
26.737999
 30
0.0
 11
307.237099
 21
26.737999
 31
0.0
  0
LINE
  8
PAKSU
 10
209.237099
 20
35.237999
 30
0.0
 11
392.237099
 21
35.237999
 31
0.0
  0
TEXT
  8
RAAMI
 10
210.237099
 20
23.971333
 30
0.0
 40
1.4
  1
TARKASTI  CHECKED
  7
ROMANS
  0
TEXT
  8
RAAMI
 10
209.979934
 20
15.704666
 30
0.0
 40
1.4
  1
HYVÄKSYI  APPROVED
  7
ROMANS
  0
LINE
  8
OHUT
 10
307.237099
 20
0.237999
 30
0.0
 11
307.237099
 21
35.237999
 31
0.0
  0
TEXT
  8
RAAMI
 10
259.237099
 20
32.737999
 30
0.0
 40
1.4
  1
LIITTYY  CONCERNING
  7
ROMANS
  0
TEXT
  8
RAAMI
 10
259.237099
 20
23.737999
 30
0.0
 40
1.4
  1
TOLERANSSIT  TOLERANCES
  7
ROMANS
  0
TEXT
  8
RAAMI
 10
259.237099
 20
15.737999
 30
0.0
 40
1.4
  1
SUHDE  SCALE
  7
ROMANS
  0
TEXT
  8
RAAMI
 10
309.237099
 20
32.737999
 30
0.0
 40
1.4
  1
NIMITYS  NAME
  7
ROMANS
  0
TEXT
  8
RAAMI
 10
309.237099
 20
15.737999
 30
0.0
 40
1.4
  1
KOODI  CODE
  7
ROMANS
  0
TEXT
  8
RAAMI
 10
309.237099
 20
7.237999
 30
0.0
 40
1.4
  1
PIIRUSTUS NO  DRAWING NR
  7
ROMANS
  0
LINE
  8
OHUT
 10
349.737099
 20
9.737999
 30
0.0
 11
349.737099
 21
18.237999
 31
0.0
  0
TEXT
  8
RAAMI
 10
371.237099
 20
7.237999
 30
0.0
 40
1.4
  1
PAINOS  REVISION
  7
ROMANS
  0
LINE
  8
OHUT
 10
369.737099
 20
9.737999
 30
0.0
 11
369.737099
 21
0.237999
 31
0.0
  0
LINE
  8
RAAMI
 10
210.187099
 20
1.737999
 30
0.0
 11
211.937099
 21
1.737999
 31
0.0
  0
LINE
  8
RAAMI
 10
215.437099
 20
1.737999
 30
0.0
 11
217.187099
 21
1.737999
 31
0.0
  0
LINE
  8
RAAMI
 10
212.637099
 20
8.737999
 30
0.0
 11
211.459571
 21
5.373634
 31
0.0
  0
LINE
  8
RAAMI
 10
212.425886
 20
3.137999
 30
0.0
 11
213.547099
 21
3.137999
 31
0.0
  0
LINE
  8
RAAMI
 10
212.425889
 20
3.134542
 30
0.0
 11
211.937099
 21
1.737999
 31
0.0
  0
LINE
  8
RAAMI
 10
214.737099
 20
8.737999
 30
0.0
 11
215.913452
 21
5.376991
 31
0.0
  0
LINE
  8
RAAMI
 10
214.948197
 20
3.134863
 30
0.0
 11
215.437099
 21
1.737999
 31
0.0
  0
LINE
  8
RAAMI
 10
214.737099
 20
8.737999
 30
0.0
 11
213.827099
 21
8.737999
 31
0.0
  0
LINE
  8
RAAMI
 10
213.547099
 20
8.737999
 30
0.0
 11
213.547099
 21
5.377999
 31
0.0
  0
LINE
  8
RAAMI
 10
213.827099
 20
8.737999
 30
0.0
 11
213.827099
 21
5.377999
 31
0.0
  0
LINE
  8
RAAMI
 10
213.827099
 20
3.137999
 30
0.0
 11
214.946992
 21
3.137999
 31
0.0
  0
LINE
  8
RAAMI
 10
213.547099
 20
8.737999
 30
0.0
 11
212.637099
 21
8.737999
 31
0.0
  0
LINE
  8
RAAMI
 10
211.45904
 20
5.377999
 30
0.0
 11
213.547099
 21
5.377999
 31
0.0
  0
LINE
  8
RAAMI
 10
211.360082
 20
5.097999
 30
0.0
 11
213.547099
 21
5.097999
 31
0.0
  0
LINE
  8
RAAMI
 10
216.011591
 20
5.096594
 30
0.0
 11
217.187099
 21
1.737999
 31
0.0
  0
LINE
  8
RAAMI
 10
213.827099
 20
5.377999
 30
0.0
 11
215.912213
 21
5.377999
 31
0.0
  0
LINE
  8
RAAMI
 10
213.827099
 20
5.097999
 30
0.0
 11
216.010356
 21
5.097999
 31
0.0
  0
LINE
  8
RAAMI
 10
213.827099
 20
5.097999
 30
0.0
 11
213.827099
 21
3.137999
 31
0.0
  0
LINE
  8
RAAMI
 10
213.547099
 20
5.097999
 30
0.0
 11
213.547099
 21
3.137999
 31
0.0
  0
LINE
  8
RAAMI
 10
211.356988
 20
5.080538
 30
0.0
 11
210.187099
 21
1.737999
 31
0.0
  0
INSERT
  8
RAAMI
  2
*X56
 10
210.187099
 20
1.737999
 30
0.0
 41
0.7
 42
0.7
 43
0.7
  0
INSERT
  8
RAAMI
  2
*X57
 10
210.187099
 20
1.737999
 30
0.0
 41
0.7
 42
0.7
 43
0.7
  0
INSERT
  8
RAAMI
  2
*X58
 10
210.187099
 20
1.737999
 30
0.0
 41
0.7
 42
0.7
 43
0.7
  0
INSERT
  8
RAAMI
  2
*X59
 10
210.187099
 20
1.737999
 30
0.0
 41
0.7
 42
0.7
 43
0.7
  0
LINE
  8
RAAMI
 10
217.677099
 20
1.737999
 30
0.0
 11
217.677099
 21
5.097999
 31
0.0
  0
LINE
  8
RAAMI
 10
217.677099
 20
8.737999
 30
0.0
 11
219.637099
 21
8.737999
 31
0.0
  0
LINE
  8
RAAMI
 10
219.637099
 20
8.737999
 30
0.0
 11
219.637099
 21
5.377999
 31
0.0
  0
LINE
  8
RAAMI
 10
219.637099
 20
5.377999
 30
0.0
 11
217.677099
 21
5.377999
 31
0.0
  0
LINE
  8
RAAMI
 10
217.677099
 20
5.097999
 30
0.0
 11
219.637099
 21
5.097999
 31
0.0
  0
LINE
  8
RAAMI
 10
219.637099
 20
5.097999
 30
0.0
 11
219.637099
 21
1.737999
 31
0.0
  0
LINE
  8
RAAMI
 10
219.637099
 20
1.737999
 30
0.0
 11
217.677099
 21
1.737999
 31
0.0
  0
LINE
  8
RAAMI
 10
217.677099
 20
5.377999
 30
0.0
 11
217.677099
 21
8.737999
 31
0.0
  0
ARC
  8
RAAMI
 10
220.477099
 20
7.162999
 30
0.0
 40
1.575
 50
298.455859
 51
90.052437
  0
LINE
  8
RAAMI
 10
219.917099
 20
8.737999
 30
0.0
 11
220.475658
 21
8.737999
 31
0.0
  0
LINE
  8
RAAMI
 10
219.917099
 20
8.737999
 30
0.0
 11
219.917099
 21
5.377999
 31
0.0
  0
LINE
  8
RAAMI
 10
219.917099
 20
5.377999
 30
0.0
 11
221.901542
 21
5.377999
 31
0.0
  0
LINE
  8
RAAMI
 10
222.157099
 20
5.097999
 30
0.0
 11
219.917099
 21
5.097999
 31
0.0
  0
LINE
  8
RAAMI
 10
219.917099
 20
5.097999
 30
0.0
 11
219.917099
 21
1.737999
 31
0.0
  0
ARC
  8
RAAMI
 10
220.477099
 20
3.837999
 30
0.0
 40
2.1
 50
269.937724
 51
37.056553
  0
LINE
  8
RAAMI
 10
219.917099
 20
1.737999
 30
0.0
 11
220.474817
 21
1.738
 31
0.0
  0
ARC
  8
RAAMI
 10
220.477099
 20
3.837999
 30
0.0
 40
2.1
 50
47.28622
 51
68.787999
  0
INSERT
  8
RAAMI
  2
*X60
 10
210.187099
 20
1.737999
 30
0.0
 41
0.7
 42
0.7
 43
0.7
  0
INSERT
  8
RAAMI
  2
*X61
 10
210.187099
 20
1.737999
 30
0.0
 41
0.7
 42
0.7
 43
0.7
  0
INSERT
  8
RAAMI
  2
*X62
 10
210.187099
 20
1.737999
 30
0.0
 41
0.7
 42
0.7
 43
0.7
  0
INSERT
  8
RAAMI
  2
*X63
 10
210.187099
 20
1.737999
 30
0.0
 41
0.7
 42
0.7
 43
0.7
  0
INSERT
  8
RAAMI
  2
*X63
 10
215.647099
 20
1.737999
 30
0.0
 41
0.7
 42
0.7
 43
0.7
  0
INSERT
  8
RAAMI
  2
*X62
 10
215.647099
 20
1.737999
 30
0.0
 41
0.7
 42
0.7
 43
0.7
  0
INSERT
  8
RAAMI
  2
*X61
 10
215.647099
 20
1.737999
 30
0.0
 41
0.7
 42
0.7
 43
0.7
  0
INSERT
  8
RAAMI
  2
*X60
 10
215.647099
 20
1.737999
 30
0.0
 41
0.7
 42
0.7
 43
0.7
  0
ARC
  8
RAAMI
 10
225.937099
 20
3.837999
 30
0.0
 40
2.1
 50
47.28622
 51
68.787999
  0
LINE
  8
RAAMI
 10
225.377099
 20
1.737999
 30
0.0
 11
225.934817
 21
1.738
 31
0.0
  0
ARC
  8
RAAMI
 10
225.937099
 20
3.837999
 30
0.0
 40
2.1
 50
269.937724
 51
37.056553
  0
LINE
  8
RAAMI
 10
225.377099
 20
5.097999
 30
0.0
 11
225.377099
 21
1.737999
 31
0.0
  0
LINE
  8
RAAMI
 10
227.617099
 20
5.097999
 30
0.0
 11
225.377099
 21
5.097999
 31
0.0
  0
LINE
  8
RAAMI
 10
225.377099
 20
5.377999
 30
0.0
 11
227.361542
 21
5.377999
 31
0.0
  0
LINE
  8
RAAMI
 10
225.377099
 20
8.737999
 30
0.0
 11
225.377099
 21
5.377999
 31
0.0
  0
LINE
  8
RAAMI
 10
225.377099
 20
8.737999
 30
0.0
 11
225.935658
 21
8.737999
 31
0.0
  0
ARC
  8
RAAMI
 10
225.937099
 20
7.162999
 30
0.0
 40
1.575
 50
298.455859
 51
90.052437
  0
LINE
  8
RAAMI
 10
223.137099
 20
5.377999
 30
0.0
 11
223.137099
 21
8.737999
 31
0.0
  0
LINE
  8
RAAMI
 10
225.097099
 20
1.737999
 30
0.0
 11
223.137099
 21
1.737999
 31
0.0
  0
LINE
  8
RAAMI
 10
225.097099
 20
5.097999
 30
0.0
 11
225.097099
 21
1.737999
 31
0.0
  0
LINE
  8
RAAMI
 10
223.137099
 20
5.097999
 30
0.0
 11
225.097099
 21
5.097999
 31
0.0
  0
LINE
  8
RAAMI
 10
225.097099
 20
5.377999
 30
0.0
 11
223.137099
 21
5.377999
 31
0.0
  0
LINE
  8
RAAMI
 10
225.097099
 20
8.737999
 30
0.0
 11
225.097099
 21
5.377999
 31
0.0
  0
LINE
  8
RAAMI
 10
223.137099
 20
8.737999
 30
0.0
 11
225.097099
 21
8.737999
 31
0.0
  0
LINE
  8
RAAMI
 10
223.137099
 20
1.737999
 30
0.0
 11
223.137099
 21
5.097999
 31
0.0
  0
TEXT
  8
RAAMI
 10
229.737099
 20
1.737999
 30
0.0
 40
3.0
  1
ABB 
 41
0.8
  7
ROMANS
  0
TEXT
  8
RAAMI
 10
237.737099
 20
1.737999
 30
0.0
 40
3.0
  1
Strömberg
 41
0.8
  7
ROMANS
  0
LINE
  8
OHUT
 10
282.237099
 20
9.737999
 30
0.0
 11
282.237099
 21
18.237999
 31
0.0
  0
TEXT
  8
RAAMI
 10
27.737099
 20
4.737999
 30
0.0
 40
1.4
  1
MUUTOS
  7
ROMANS
  0
TEXT
  8
RAAMI
 10
27.737099
 20
2.471333
 30
0.0
 40
1.4
  1
REVISION
  7
ROMANS
  0
LINE
  8
OHUT
 10
46.737099
 20
9.237999
 30
0.0
 11
209.237099
 21
9.237999
 31
0.0
  0
LINE
  8
OHUT
 10
46.737099
 20
0.237999
 30
0.0
 11
46.737099
 21
9.237999
 31
0.0
  0
LINE
  8
OHUT
 10
40.737099
 20
4.737999
 30
0.0
 11
209.237099
 21
4.737999
 31
0.0
  0
LINE
  8
OHUT
 10
257.237099
 20
9.737999
 30
0.0
 11
257.237099
 21
35.237999
 31
0.0
  0
LINE
  8
OHUT
 10
271.237099
 20
9.737999
 30
0.0
 11
271.237099
 21
0.237999
 31
0.0
  0
TEXT
  8
RAAMI
 10
210.237099
 20
32.237999
 30
0.0
 40
1.4
  1
TEKI  PREPARED
  7
ROMANS
  0
TEXT
  8
RAAMI
 10
273.237099
 20
7.237999
 30
0.0
 40
1.4
  1
VAST.OSASTO RESP.DEPT.
  7
ROMANS
  0
TEXT
  8
RAAMI
 10
257.407006
 20
1.741783
 30
0.0
 40
3.0
  1
Power
 41
0.8
  7
ROMANS
  0
TEXT
  8
RAAMI
 10
42.237099
 20
1.195292
 30
0.0
 40
2.5
  1
B
  7
ROMANS
  0
TEXT
  8
RAAMI
 10
42.237099
 20
5.587508
 30
0.0
 40
2.5
  1
C
  7
ROMANS
  0
LINE
  8
PAKSU
 10
0.237099
 20
0.237999
 30
0.0
 11
392.237099
 21
0.237999
 31
0.0
  0
LINE
  8
PAKSU
 10
392.237099
 20
262.737999
 30
0.0
 11
392.237099
 21
0.237999
 31
0.0
  0
LINE
  8
PAKSU
 10
0.237099
 20
0.237999
 30
0.0
 11
0.237099
 21
262.737999
 31
0.0
  0
ENDBLK
  8
0
  0
BLOCK
  8
0
  2
*X56
 70
    65
 10
0.0
 20
0.0
 30
0.0
  3
*X
  0
LINE
  8
0
 62
     0
 10
2.284499
 20
6.52714
 30
0.0
 11
4.8
 21
9.042641
 31
0.0
  0
LINE
  8
0
 62
     0
 10
2.379686
 20
6.799104
 30
0.0
 11
4.8
 21
9.219417
 31
0.0
  0
LINE
  8
0
 62
     0
 10
2.474874
 20
7.071068
 30
0.0
 11
4.8
 21
9.396194
 31
0.0
  0
LINE
  8
0
 62
     0
 10
2.570061
 20
7.343032
 30
0.0
 11
4.8
 21
9.572971
 31
0.0
  0
LINE
  8
0
 62
     0
 10
2.665249
 20
7.614996
 30
0.0
 11
4.8
 21
9.749747
 31
0.0
  0
LINE
  8
0
 62
     0
 10
2.760436
 20
7.88696
 30
0.0
 11
4.8
 21
9.926524
 31
0.0
  0
LINE
  8
0
 62
     0
 10
2.855624
 20
8.158924
 30
0.0
 11
4.696699
 21
10.0
 31
0.0
  0
LINE
  8
0
 62
     0
 10
2.950811
 20
8.430889
 30
0.0
 11
4.519922
 21
10.0
 31
0.0
  0
LINE
  8
0
 62
     0
 10
3.045998
 20
8.702853
 30
0.0
 11
4.343146
 21
10.0
 31
0.0
  0
LINE
  8
0
 62
     0
 10
3.141186
 20
8.974817
 30
0.0
 11
4.166369
 21
10.0
 31
0.0
  0
LINE
  8
0
 62
     0
 10
3.236373
 20
9.246781
 30
0.0
 11
3.989592
 21
10.0
 31
0.0
  0
LINE
  8
0
 62
     0
 10
3.331561
 20
9.518745
 30
0.0
 11
3.812816
 21
10.0
 31
0.0
  0
LINE
  8
0
 62
     0
 10
3.426748
 20
9.790709
 30
0.0
 11
3.636039
 21
10.0
 31
0.0
  0
LINE
  8
0
 62
     0
 10
2.189311
 20
6.255175
 30
0.0
 11
4.8
 21
8.865864
 31
0.0
  0
LINE
  8
0
 62
     0
 10
2.094124
 20
5.983211
 30
0.0
 11
4.8
 21
8.689087
 31
0.0
  0
LINE
  8
0
 62
     0
 10
1.998936
 20
5.711247
 30
0.0
 11
4.8
 21
8.512311
 31
0.0
  0
LINE
  8
0
 62
     0
 10
1.903749
 20
5.439283
 30
0.0
 11
4.8
 21
8.335534
 31
0.0
  0
LINE
  8
0
 62
     0
 10
1.841243
 20
5.2
 30
0.0
 11
4.8
 21
8.158757
 31
0.0
  0
LINE
  8
0
 62
     0
 10
2.018019
 20
5.2
 30
0.0
 11
4.8
 21
7.981981
 31
0.0
  0
LINE
  8
0
 62
     0
 10
2.194796
 20
5.2
 30
0.0
 11
4.8
 21
7.805204
 31
0.0
  0
LINE
  8
0
 62
     0
 10
2.371573
 20
5.2
 30
0.0
 11
4.8
 21
7.628427
 31
0.0
  0
LINE
  8
0
 62
     0
 10
2.54835
 20
5.2
 30
0.0
 11
4.8
 21
7.45165
 31
0.0
  0
LINE
  8
0
 62
     0
 10
2.725126
 20
5.2
 30
0.0
 11
4.8
 21
7.274874
 31
0.0
  0
LINE
  8
0
 62
     0
 10
2.901903
 20
5.2
 30
0.0
 11
4.8
 21
7.098097
 31
0.0
  0
LINE
  8
0
 62
     0
 10
3.07868
 20
5.2
 30
0.0
 11
4.8
 21
6.92132
 31
0.0
  0
LINE
  8
0
 62
     0
 10
3.255456
 20
5.2
 30
0.0
 11
4.8
 21
6.744544
 31
0.0
  0
LINE
  8
0
 62
     0
 10
3.432233
 20
5.2
 30
0.0
 11
4.8
 21
6.567767
 31
0.0
  0
LINE
  8
0
 62
     0
 10
3.60901
 20
5.2
 30
0.0
 11
4.8
 21
6.39099
 31
0.0
  0
LINE
  8
0
 62
     0
 10
3.785786
 20
5.2
 30
0.0
 11
4.8
 21
6.214214
 31
0.0
  0
LINE
  8
0
 62
     0
 10
3.962563
 20
5.2
 30
0.0
 11
4.8
 21
6.037437
 31
0.0
  0
LINE
  8
0
 62
     0
 10
4.13934
 20
5.2
 30
0.0
 11
4.8
 21
5.86066
 31
0.0
  0
LINE
  8
0
 62
     0
 10
4.316117
 20
5.2
 30
0.0
 11
4.8
 21
5.683883
 31
0.0
  0
LINE
  8
0
 62
     0
 10
4.492893
 20
5.2
 30
0.0
 11
4.8
 21
5.507107
 31
0.0
  0
LINE
  8
0
 62
     0
 10
4.66967
 20
5.2
 30
0.0
 11
4.8
 21
5.33033
 31
0.0
  0
ENDBLK
  8
0
  0
BLOCK
  8
0
  2
*X57
 70
    65
 10
0.0
 20
0.0
 30
0.0
  3
*X
  0
LINE
  8
0
 62
     0
 10
5.2
 20
6.083883
 30
0.0
 11
7.178252
 21
8.062136
 31
0.0
  0
LINE
  8
0
 62
     0
 10
5.2
 20
6.26066
 30
0.0
 11
7.132421
 21
8.193082
 31
0.0
  0
LINE
  8
0
 62
     0
 10
5.2
 20
6.437437
 30
0.0
 11
7.08659
 21
8.324027
 31
0.0
  0
LINE
  8
0
 62
     0
 10
5.2
 20
6.614214
 30
0.0
 11
7.040759
 21
8.454973
 31
0.0
  0
LINE
  8
0
 62
     0
 10
5.2
 20
6.79099
 30
0.0
 11
6.994928
 21
8.585919
 31
0.0
  0
LINE
  8
0
 62
     0
 10
5.2
 20
6.967767
 30
0.0
 11
6.949097
 21
8.716864
 31
0.0
  0
LINE
  8
0
 62
     0
 10
5.2
 20
7.144544
 30
0.0
 11
6.903266
 21
8.84781
 31
0.0
  0
LINE
  8
0
 62
     0
 10
5.2
 20
7.32132
 30
0.0
 11
6.857435
 21
8.978756
 31
0.0
  0
LINE
  8
0
 62
     0
 10
5.2
 20
7.498097
 30
0.0
 11
6.811604
 21
9.109702
 31
0.0
  0
LINE
  8
0
 62
     0
 10
5.2
 20
7.674874
 30
0.0
 11
6.765773
 21
9.240647
 31
0.0
  0
LINE
  8
0
 62
     0
 10
5.2
 20
7.85165
 30
0.0
 11
6.719942
 21
9.371593
 31
0.0
  0
LINE
  8
0
 62
     0
 10
5.2
 20
8.028427
 30
0.0
 11
6.674111
 21
9.502539
 31
0.0
  0
LINE
  8
0
 62
     0
 10
5.2
 20
8.205204
 30
0.0
 11
6.62828
 21
9.633484
 31
0.0
  0
LINE
  8
0
 62
     0
 10
5.2
 20
8.381981
 30
0.0
 11
6.582449
 21
9.76443
 31
0.0
  0
LINE
  8
0
 62
     0
 10
5.2
 20
8.558757
 30
0.0
 11
6.536619
 21
9.895376
 31
0.0
  0
LINE
  8
0
 62
     0
 10
5.2
 20
8.735534
 30
0.0
 11
6.464466
 21
10.0
 31
0.0
  0
LINE
  8
0
 62
     0
 10
5.2
 20
8.912311
 30
0.0
 11
6.287689
 21
10.0
 31
0.0
  0
LINE
  8
0
 62
     0
 10
5.2
 20
9.089087
 30
0.0
 11
6.110913
 21
10.0
 31
0.0
  0
LINE
  8
0
 62
     0
 10
5.2
 20
9.265864
 30
0.0
 11
5.934136
 21
10.0
 31
0.0
  0
LINE
  8
0
 62
     0
 10
5.2
 20
9.442641
 30
0.0
 11
5.757359
 21
10.0
 31
0.0
  0
LINE
  8
0
 62
     0
 10
5.2
 20
9.619417
 30
0.0
 11
5.580583
 21
10.0
 31
0.0
  0
LINE
  8
0
 62
     0
 10
5.2
 20
9.796194
 30
0.0
 11
5.403806
 21
10.0
 31
0.0
  0
LINE
  8
0
 62
     0
 10
5.2
 20
9.972971
 30
0.0
 11
5.227029
 21
10.0
 31
0.0
  0
LINE
  8
0
 62
     0
 10
5.2
 20
5.907107
 30
0.0
 11
7.224083
 21
7.93119
 31
0.0
  0
LINE
  8
0
 62
     0
 10
5.2
 20
5.73033
 30
0.0
 11
7.269914
 21
7.800245
 31
0.0
  0
LINE
  8
0
 62
     0
 10
5.2
 20
5.553553
 30
0.0
 11
7.315745
 21
7.669299
 31
0.0
  0
LINE
  8
0
 62
     0
 10
5.2
 20
5.376777
 30
0.0
 11
7.361576
 21
7.538353
 31
0.0
  0
LINE
  8
0
 62
     0
 10
5.2
 20
5.2
 30
0.0
 11
7.407407
 21
7.407407
 31
0.0
  0
LINE
  8
0
 62
     0
 10
5.376777
 20
5.2
 30
0.0
 11
7.453238
 21
7.276462
 31
0.0
  0
LINE
  8
0
 62
     0
 10
5.553553
 20
5.2
 30
0.0
 11
7.499069
 21
7.145516
 31
0.0
  0
LINE
  8
0
 62
     0
 10
5.73033
 20
5.2
 30
0.0
 11
7.5449
 21
7.01457
 31
0.0
  0
LINE
  8
0
 62
     0
 10
5.907107
 20
5.2
 30
0.0
 11
7.590731
 21
6.883625
 31
0.0
  0
LINE
  8
0
 62
     0
 10
6.083883
 20
5.2
 30
0.0
 11
7.636562
 21
6.752679
 31
0.0
  0
LINE
  8
0
 62
     0
 10
6.26066
 20
5.2
 30
0.0
 11
7.682393
 21
6.621733
 31
0.0
  0
LINE
  8
0
 62
     0
 10
6.437437
 20
5.2
 30
0.0
 11
7.728224
 21
6.490788
 31
0.0
  0
LINE
  8
0
 62
     0
 10
6.614214
 20
5.2
 30
0.0
 11
7.774055
 21
6.359842
 31
0.0
  0
LINE
  8
0
 62
     0
 10
6.79099
 20
5.2
 30
0.0
 11
7.819886
 21
6.228896
 31
0.0
  0
LINE
  8
0
 62
     0
 10
6.967767
 20
5.2
 30
0.0
 11
7.865717
 21
6.09795
 31
0.0
  0
LINE
  8
0
 62
     0
 10
7.144544
 20
5.2
 30
0.0
 11
7.911548
 21
5.967005
 31
0.0
  0
LINE
  8
0
 62
     0
 10
7.32132
 20
5.2
 30
0.0
 11
7.957379
 21
5.836059
 31
0.0
  0
LINE
  8
0
 62
     0
 10
7.498097
 20
5.2
 30
0.0
 11
8.00321
 21
5.705113
 31
0.0
  0
LINE
  8
0
 62
     0
 10
7.674874
 20
5.2
 30
0.0
 11
8.049041
 21
5.574168
 31
0.0
  0
LINE
  8
0
 62
     0
 10
7.85165
 20
5.2
 30
0.0
 11
8.094872
 21
5.443222
 31
0.0
  0
LINE
  8
0
 62
     0
 10
8.028427
 20
5.2
 30
0.0
 11
8.140703
 21
5.312276
 31
0.0
  0
ENDBLK
  8
0
  0
BLOCK
  8
0
  2
*X58
 70
    65
 10
0.0
 20
0.0
 30
0.0
  3
*X
  0
LINE
  8
0
 62
     0
 10
0.0
 20
0.0
 30
0.0
 11
4.8
 21
4.8
 31
0.0
  0
LINE
  8
0
 62
     0
 10
0.095187
 20
0.271964
 30
0.0
 11
4.623223
 21
4.8
 31
0.0
  0
LINE
  8
0
 62
     0
 10
0.190375
 20
0.543928
 30
0.0
 11
4.446447
 21
4.8
 31
0.0
  0
LINE
  8
0
 62
     0
 10
0.285562
 20
0.815892
 30
0.0
 11
4.26967
 21
4.8
 31
0.0
  0
LINE
  8
0
 62
     0
 10
0.38075
 20
1.087857
 30
0.0
 11
4.092893
 21
4.8
 31
0.0
  0
LINE
  8
0
 62
     0
 10
0.475937
 20
1.359821
 30
0.0
 11
3.916117
 21
4.8
 31
0.0
  0
LINE
  8
0
 62
     0
 10
0.571125
 20
1.631785
 30
0.0
 11
3.73934
 21
4.8
 31
0.0
  0
LINE
  8
0
 62
     0
 10
0.666312
 20
1.903749
 30
0.0
 11
3.562563
 21
4.8
 31
0.0
  0
LINE
  8
0
 62
     0
 10
0.7615
 20
2.175713
 30
0.0
 11
3.385786
 21
4.8
 31
0.0
  0
LINE
  8
0
 62
     0
 10
0.856687
 20
2.447677
 30
0.0
 11
3.20901
 21
4.8
 31
0.0
  0
LINE
  8
0
 62
     0
 10
0.951875
 20
2.719641
 30
0.0
 11
3.032233
 21
4.8
 31
0.0
  0
LINE
  8
0
 62
     0
 10
1.047062
 20
2.991606
 30
0.0
 11
2.855456
 21
4.8
 31
0.0
  0
LINE
  8
0
 62
     0
 10
1.142249
 20
3.26357
 30
0.0
 11
2.67868
 21
4.8
 31
0.0
  0
LINE
  8
0
 62
     0
 10
1.237437
 20
3.535534
 30
0.0
 11
2.501903
 21
4.8
 31
0.0
  0
LINE
  8
0
 62
     0
 10
1.332624
 20
3.807498
 30
0.0
 11
2.325126
 21
4.8
 31
0.0
  0
LINE
  8
0
 62
     0
 10
1.427812
 20
4.079462
 30
0.0
 11
2.14835
 21
4.8
 31
0.0
  0
LINE
  8
0
 62
     0
 10
1.522999
 20
4.351426
 30
0.0
 11
1.971573
 21
4.8
 31
0.0
  0
LINE
  8
0
 62
     0
 10
1.618187
 20
4.62339
 30
0.0
 11
1.794796
 21
4.8
 31
0.0
  0
LINE
  8
0
 62
     0
 10
0.176777
 20
0.0
 30
0.0
 11
4.8
 21
4.623223
 31
0.0
  0
LINE
  8
0
 62
     0
 10
0.353553
 20
0.0
 30
0.0
 11
4.8
 21
4.446447
 31
0.0
  0
LINE
  8
0
 62
     0
 10
0.53033
 20
0.0
 30
0.0
 11
4.8
 21
4.26967
 31
0.0
  0
LINE
  8
0
 62
     0
 10
0.707107
 20
0.0
 30
0.0
 11
4.8
 21
4.092893
 31
0.0
  0
LINE
  8
0
 62
     0
 10
0.883883
 20
0.0
 30
0.0
 11
4.8
 21
3.916117
 31
0.0
  0
LINE
  8
0
 62
     0
 10
1.06066
 20
0.0
 30
0.0
 11
4.8
 21
3.73934
 31
0.0
  0
LINE
  8
0
 62
     0
 10
1.237437
 20
0.0
 30
0.0
 11
3.179842
 21
1.942405
 31
0.0
  0
LINE
  8
0
 62
     0
 10
3.237437
 20
2.0
 30
0.0
 11
4.8
 21
3.562563
 31
0.0
  0
LINE
  8
0
 62
     0
 10
1.414214
 20
0.0
 30
0.0
 11
3.084654
 21
1.670441
 31
0.0
  0
LINE
  8
0
 62
     0
 10
3.414214
 20
2.0
 30
0.0
 11
4.8
 21
3.385786
 31
0.0
  0
LINE
  8
0
 62
     0
 10
1.59099
 20
0.0
 30
0.0
 11
2.989467
 21
1.398477
 31
0.0
  0
LINE
  8
0
 62
     0
 10
3.59099
 20
2.0
 30
0.0
 11
4.8
 21
3.20901
 31
0.0
  0
LINE
  8
0
 62
     0
 10
1.767767
 20
0.0
 30
0.0
 11
2.894279
 21
1.126512
 31
0.0
  0
LINE
  8
0
 62
     0
 10
3.767767
 20
2.0
 30
0.0
 11
4.8
 21
3.032233
 31
0.0
  0
LINE
  8
0
 62
     0
 10
1.944544
 20
0.0
 30
0.0
 11
2.799092
 21
0.854548
 31
0.0
  0
LINE
  8
0
 62
     0
 10
3.944544
 20
2.0
 30
0.0
 11
4.8
 21
2.855456
 31
0.0
  0
LINE
  8
0
 62
     0
 10
2.12132
 20
0.0
 30
0.0
 11
2.703904
 21
0.582584
 31
0.0
  0
LINE
  8
0
 62
     0
 10
4.12132
 20
2.0
 30
0.0
 11
4.8
 21
2.67868
 31
0.0
  0
LINE
  8
0
 62
     0
 10
2.298097
 20
0.0
 30
0.0
 11
2.608717
 21
0.31062
 31
0.0
  0
LINE
  8
0
 62
     0
 10
4.298097
 20
2.0
 30
0.0
 11
4.8
 21
2.501903
 31
0.0
  0
LINE
  8
0
 62
     0
 10
2.474874
 20
0.0
 30
0.0
 11
2.51353
 21
0.038656
 31
0.0
  0
LINE
  8
0
 62
     0
 10
4.474874
 20
2.0
 30
0.0
 11
4.8
 21
2.325126
 31
0.0
  0
LINE
  8
0
 62
     0
 10
4.65165
 20
2.0
 30
0.0
 11
4.8
 21
2.14835
 31
0.0
  0
ENDBLK
  8
0
  0
BLOCK
  8
0
  2
*X59
 70
    65
 10
0.0
 20
0.0
 30
0.0
  3
*X
  0
LINE
  8
0
 62
     0
 10
6.884654
 20
1.75813
 30
0.0
 11
8.736506
 21
3.609982
 31
0.0
  0
LINE
  8
0
 62
     0
 10
6.838823
 20
1.889076
 30
0.0
 11
8.690675
 21
3.740928
 31
0.0
  0
LINE
  8
0
 62
     0
 10
6.772971
 20
2.0
 30
0.0
 11
8.644844
 21
3.871874
 31
0.0
  0
LINE
  8
0
 62
     0
 10
6.596194
 20
2.0
 30
0.0
 11
8.599013
 21
4.002819
 31
0.0
  0
LINE
  8
0
 62
     0
 10
6.419417
 20
2.0
 30
0.0
 11
8.553182
 21
4.133765
 31
0.0
  0
LINE
  8
0
 62
     0
 10
6.242641
 20
2.0
 30
0.0
 11
8.507351
 21
4.264711
 31
0.0
  0
LINE
  8
0
 62
     0
 10
6.065864
 20
2.0
 30
0.0
 11
8.46152
 21
4.395656
 31
0.0
  0
LINE
  8
0
 62
     0
 10
5.889087
 20
2.0
 30
0.0
 11
8.415689
 21
4.526602
 31
0.0
  0
LINE
  8
0
 62
     0
 10
5.712311
 20
2.0
 30
0.0
 11
8.369858
 21
4.657548
 31
0.0
  0
LINE
  8
0
 62
     0
 10
5.535534
 20
2.0
 30
0.0
 11
8.324027
 21
4.788493
 31
0.0
  0
LINE
  8
0
 62
     0
 10
5.358757
 20
2.0
 30
0.0
 11
8.158757
 21
4.8
 31
0.0
  0
LINE
  8
0
 62
     0
 10
5.2
 20
2.018019
 30
0.0
 11
7.981981
 21
4.8
 31
0.0
  0
LINE
  8
0
 62
     0
 10
5.2
 20
2.194796
 30
0.0
 11
7.805204
 21
4.8
 31
0.0
  0
LINE
  8
0
 62
     0
 10
5.2
 20
2.371573
 30
0.0
 11
7.628427
 21
4.8
 31
0.0
  0
LINE
  8
0
 62
     0
 10
5.2
 20
2.54835
 30
0.0
 11
7.45165
 21
4.8
 31
0.0
  0
LINE
  8
0
 62
     0
 10
5.2
 20
2.725126
 30
0.0
 11
7.274874
 21
4.8
 31
0.0
  0
LINE
  8
0
 62
     0
 10
5.2
 20
2.901903
 30
0.0
 11
7.098097
 21
4.8
 31
0.0
  0
LINE
  8
0
 62
     0
 10
5.2
 20
3.07868
 30
0.0
 11
6.92132
 21
4.8
 31
0.0
  0
LINE
  8
0
 62
     0
 10
5.2
 20
3.255456
 30
0.0
 11
6.744544
 21
4.8
 31
0.0
  0
LINE
  8
0
 62
     0
 10
5.2
 20
3.432233
 30
0.0
 11
6.567767
 21
4.8
 31
0.0
  0
LINE
  8
0
 62
     0
 10
5.2
 20
3.60901
 30
0.0
 11
6.39099
 21
4.8
 31
0.0
  0
LINE
  8
0
 62
     0
 10
5.2
 20
3.785786
 30
0.0
 11
6.214214
 21
4.8
 31
0.0
  0
LINE
  8
0
 62
     0
 10
5.2
 20
3.962563
 30
0.0
 11
6.037437
 21
4.8
 31
0.0
  0
LINE
  8
0
 62
     0
 10
5.2
 20
4.13934
 30
0.0
 11
5.86066
 21
4.8
 31
0.0
  0
LINE
  8
0
 62
     0
 10
5.2
 20
4.316117
 30
0.0
 11
5.683883
 21
4.8
 31
0.0
  0
LINE
  8
0
 62
     0
 10
5.2
 20
4.492893
 30
0.0
 11
5.507107
 21
4.8
 31
0.0
  0
LINE
  8
0
 62
     0
 10
5.2
 20
4.66967
 30
0.0
 11
5.33033
 21
4.8
 31
0.0
  0
LINE
  8
0
 62
     0
 10
6.930485
 20
1.627185
 30
0.0
 11
8.782337
 21
3.479036
 31
0.0
  0
LINE
  8
0
 62
     0
 10
6.976316
 20
1.496239
 30
0.0
 11
8.828168
 21
3.348091
 31
0.0
  0
LINE
  8
0
 62
     0
 10
7.022147
 20
1.365293
 30
0.0
 11
8.873999
 21
3.217145
 31
0.0
  0
LINE
  8
0
 62
     0
 10
7.067978
 20
1.234347
 30
0.0
 11
8.91983
 21
3.086199
 31
0.0
  0
LINE
  8
0
 62
     0
 10
7.113809
 20
1.103402
 30
0.0
 11
8.965661
 21
2.955254
 31
0.0
  0
LINE
  8
0
 62
     0
 10
7.15964
 20
0.972456
 30
0.0
 11
9.011492
 21
2.824308
 31
0.0
  0
LINE
  8
0
 62
     0
 10
7.205471
 20
0.84151
 30
0.0
 11
9.057323
 21
2.693362
 31
0.0
  0
LINE
  8
0
 62
     0
 10
7.251302
 20
0.710565
 30
0.0
 11
9.103154
 21
2.562416
 31
0.0
  0
LINE
  8
0
 62
     0
 10
7.297133
 20
0.579619
 30
0.0
 11
9.148985
 21
2.431471
 31
0.0
  0
LINE
  8
0
 62
     0
 10
7.342964
 20
0.448673
 30
0.0
 11
9.194816
 21
2.300525
 31
0.0
  0
LINE
  8
0
 62
     0
 10
7.388795
 20
0.317728
 30
0.0
 11
9.240647
 21
2.169579
 31
0.0
  0
LINE
  8
0
 62
     0
 10
7.434626
 20
0.186782
 30
0.0
 11
9.286478
 21
2.038634
 31
0.0
  0
LINE
  8
0
 62
     0
 10
7.480457
 20
0.055836
 30
0.0
 11
9.332309
 21
1.907688
 31
0.0
  0
LINE
  8
0
 62
     0
 10
7.601398
 20
0.0
 30
0.0
 11
9.37814
 21
1.776742
 31
0.0
  0
LINE
  8
0
 62
     0
 10
7.778175
 20
0.0
 30
0.0
 11
9.423971
 21
1.645797
 31
0.0
  0
LINE
  8
0
 62
     0
 10
7.954951
 20
0.0
 30
0.0
 11
9.469802
 21
1.514851
 31
0.0
  0
LINE
  8
0
 62
     0
 10
8.131728
 20
0.0
 30
0.0
 11
9.515633
 21
1.383905
 31
0.0
  0
LINE
  8
0
 62
     0
 10
8.308505
 20
0.0
 30
0.0
 11
9.561464
 21
1.252959
 31
0.0
  0
LINE
  8
0
 62
     0
 10
8.485281
 20
0.0
 30
0.0
 11
9.607295
 21
1.122014
 31
0.0
  0
LINE
  8
0
 62
     0
 10
8.662058
 20
0.0
 30
0.0
 11
9.653126
 21
0.991068
 31
0.0
  0
LINE
  8
0
 62
     0
 10
8.838835
 20
0.0
 30
0.0
 11
9.698957
 21
0.860122
 31
0.0
  0
LINE
  8
0
 62
     0
 10
9.015611
 20
0.0
 30
0.0
 11
9.744788
 21
0.729177
 31
0.0
  0
LINE
  8
0
 62
     0
 10
9.192388
 20
0.0
 30
0.0
 11
9.790619
 21
0.598231
 31
0.0
  0
LINE
  8
0
 62
     0
 10
9.369165
 20
0.0
 30
0.0
 11
9.83645
 21
0.467285
 31
0.0
  0
LINE
  8
0
 62
     0
 10
9.545942
 20
0.0
 30
0.0
 11
9.882281
 21
0.33634
 31
0.0
  0
LINE
  8
0
 62
     0
 10
9.722718
 20
0.0
 30
0.0
 11
9.928112
 21
0.205394
 31
0.0
  0
LINE
  8
0
 62
     0
 10
9.899495
 20
0.0
 30
0.0
 11
9.973943
 21
0.074448
 31
0.0
  0
ENDBLK
  8
0
  0
BLOCK
  8
0
  2
*X60
 70
    65
 10
0.0
 20
0.0
 30
0.0
  3
*X
  0
LINE
  8
0
 62
     0
 10
10.7
 20
6.280583
 30
0.0
 11
13.5
 21
9.080583
 31
0.0
  0
LINE
  8
0
 62
     0
 10
10.7
 20
6.457359
 30
0.0
 11
13.5
 21
9.257359
 31
0.0
  0
LINE
  8
0
 62
     0
 10
10.7
 20
6.634136
 30
0.0
 11
13.5
 21
9.434136
 31
0.0
  0
LINE
  8
0
 62
     0
 10
10.7
 20
6.810913
 30
0.0
 11
13.5
 21
9.610913
 31
0.0
  0
LINE
  8
0
 62
     0
 10
10.7
 20
6.987689
 30
0.0
 11
13.5
 21
9.787689
 31
0.0
  0
LINE
  8
0
 62
     0
 10
10.7
 20
7.164466
 30
0.0
 11
13.5
 21
9.964466
 31
0.0
  0
LINE
  8
0
 62
     0
 10
10.7
 20
7.341243
 30
0.0
 11
13.358757
 21
10.0
 31
0.0
  0
LINE
  8
0
 62
     0
 10
10.7
 20
7.518019
 30
0.0
 11
13.181981
 21
10.0
 31
0.0
  0
LINE
  8
0
 62
     0
 10
10.7
 20
7.694796
 30
0.0
 11
13.005204
 21
10.0
 31
0.0
  0
LINE
  8
0
 62
     0
 10
10.7
 20
7.871573
 30
0.0
 11
12.828427
 21
10.0
 31
0.0
  0
LINE
  8
0
 62
     0
 10
10.7
 20
8.04835
 30
0.0
 11
12.65165
 21
10.0
 31
0.0
  0
LINE
  8
0
 62
     0
 10
10.7
 20
8.225126
 30
0.0
 11
12.474874
 21
10.0
 31
0.0
  0
LINE
  8
0
 62
     0
 10
10.7
 20
8.401903
 30
0.0
 11
12.298097
 21
10.0
 31
0.0
  0
LINE
  8
0
 62
     0
 10
10.7
 20
8.57868
 30
0.0
 11
12.12132
 21
10.0
 31
0.0
  0
LINE
  8
0
 62
     0
 10
10.7
 20
8.755456
 30
0.0
 11
11.944544
 21
10.0
 31
0.0
  0
LINE
  8
0
 62
     0
 10
10.7
 20
8.932233
 30
0.0
 11
11.767767
 21
10.0
 31
0.0
  0
LINE
  8
0
 62
     0
 10
10.7
 20
9.10901
 30
0.0
 11
11.59099
 21
10.0
 31
0.0
  0
LINE
  8
0
 62
     0
 10
10.7
 20
9.285786
 30
0.0
 11
11.414214
 21
10.0
 31
0.0
  0
LINE
  8
0
 62
     0
 10
10.7
 20
9.462563
 30
0.0
 11
11.237437
 21
10.0
 31
0.0
  0
LINE
  8
0
 62
     0
 10
10.7
 20
9.63934
 30
0.0
 11
11.06066
 21
10.0
 31
0.0
  0
LINE
  8
0
 62
     0
 10
10.7
 20
9.816117
 30
0.0
 11
10.883883
 21
10.0
 31
0.0
  0
LINE
  8
0
 62
     0
 10
10.7
 20
9.992893
 30
0.0
 11
10.707107
 21
10.0
 31
0.0
  0
LINE
  8
0
 62
     0
 10
10.7
 20
6.103806
 30
0.0
 11
13.5
 21
8.903806
 31
0.0
  0
LINE
  8
0
 62
     0
 10
10.7
 20
5.927029
 30
0.0
 11
13.5
 21
8.727029
 31
0.0
  0
LINE
  8
0
 62
     0
 10
10.7
 20
5.750253
 30
0.0
 11
13.5
 21
8.550253
 31
0.0
  0
LINE
  8
0
 62
     0
 10
10.7
 20
5.573476
 30
0.0
 11
13.5
 21
8.373476
 31
0.0
  0
LINE
  8
0
 62
     0
 10
10.7
 20
5.396699
 30
0.0
 11
13.5
 21
8.196699
 31
0.0
  0
LINE
  8
0
 62
     0
 10
10.7
 20
5.219922
 30
0.0
 11
13.5
 21
8.019922
 31
0.0
  0
LINE
  8
0
 62
     0
 10
10.856854
 20
5.2
 30
0.0
 11
13.5
 21
7.843146
 31
0.0
  0
LINE
  8
0
 62
     0
 10
11.033631
 20
5.2
 30
0.0
 11
13.5
 21
7.666369
 31
0.0
  0
LINE
  8
0
 62
     0
 10
11.210408
 20
5.2
 30
0.0
 11
13.5
 21
7.489592
 31
0.0
  0
LINE
  8
0
 62
     0
 10
11.387184
 20
5.2
 30
0.0
 11
13.5
 21
7.312816
 31
0.0
  0
LINE
  8
0
 62
     0
 10
11.563961
 20
5.2
 30
0.0
 11
13.5
 21
7.136039
 31
0.0
  0
LINE
  8
0
 62
     0
 10
11.740738
 20
5.2
 30
0.0
 11
13.5
 21
6.959262
 31
0.0
  0
LINE
  8
0
 62
     0
 10
11.917514
 20
5.2
 30
0.0
 11
13.5
 21
6.782486
 31
0.0
  0
LINE
  8
0
 62
     0
 10
12.094291
 20
5.2
 30
0.0
 11
13.5
 21
6.605709
 31
0.0
  0
LINE
  8
0
 62
     0
 10
12.271068
 20
5.2
 30
0.0
 11
13.5
 21
6.428932
 31
0.0
  0
LINE
  8
0
 62
     0
 10
12.447845
 20
5.2
 30
0.0
 11
13.5
 21
6.252155
 31
0.0
  0
LINE
  8
0
 62
     0
 10
12.624621
 20
5.2
 30
0.0
 11
13.5
 21
6.075379
 31
0.0
  0
LINE
  8
0
 62
     0
 10
12.801398
 20
5.2
 30
0.0
 11
13.5
 21
5.898602
 31
0.0
  0
LINE
  8
0
 62
     0
 10
12.978175
 20
5.2
 30
0.0
 11
13.5
 21
5.721825
 31
0.0
  0
LINE
  8
0
 62
     0
 10
13.154951
 20
5.2
 30
0.0
 11
13.5
 21
5.545049
 31
0.0
  0
LINE
  8
0
 62
     0
 10
13.331728
 20
5.2
 30
0.0
 11
13.5
 21
5.368272
 31
0.0
  0
ENDBLK
  8
0
  0
BLOCK
  8
0
  2
*X61
 70
    65
 10
0.0
 20
0.0
 30
0.0
  3
*X
  0
LINE
  8
0
 62
     0
 10
10.7
 20
1.154058
 30
0.0
 11
13.5
 21
3.954058
 31
0.0
  0
LINE
  8
0
 62
     0
 10
10.7
 20
1.330835
 30
0.0
 11
13.5
 21
4.130835
 31
0.0
  0
LINE
  8
0
 62
     0
 10
10.7
 20
1.507612
 30
0.0
 11
13.5
 21
4.307612
 31
0.0
  0
LINE
  8
0
 62
     0
 10
10.7
 20
1.684389
 30
0.0
 11
13.5
 21
4.484389
 31
0.0
  0
LINE
  8
0
 62
     0
 10
10.7
 20
1.861165
 30
0.0
 11
13.5
 21
4.661165
 31
0.0
  0
LINE
  8
0
 62
     0
 10
10.7
 20
2.037942
 30
0.0
 11
13.462058
 21
4.8
 31
0.0
  0
LINE
  8
0
 62
     0
 10
10.7
 20
2.214719
 30
0.0
 11
13.285281
 21
4.8
 31
0.0
  0
LINE
  8
0
 62
     0
 10
10.7
 20
2.391495
 30
0.0
 11
13.108505
 21
4.8
 31
0.0
  0
LINE
  8
0
 62
     0
 10
10.7
 20
2.568272
 30
0.0
 11
12.931728
 21
4.8
 31
0.0
  0
LINE
  8
0
 62
     0
 10
10.7
 20
2.745049
 30
0.0
 11
12.754951
 21
4.8
 31
0.0
  0
LINE
  8
0
 62
     0
 10
10.7
 20
2.921825
 30
0.0
 11
12.578175
 21
4.8
 31
0.0
  0
LINE
  8
0
 62
     0
 10
10.7
 20
3.098602
 30
0.0
 11
12.401398
 21
4.8
 31
0.0
  0
LINE
  8
0
 62
     0
 10
10.7
 20
3.275379
 30
0.0
 11
12.224621
 21
4.8
 31
0.0
  0
LINE
  8
0
 62
     0
 10
10.7
 20
3.452155
 30
0.0
 11
12.047845
 21
4.8
 31
0.0
  0
LINE
  8
0
 62
     0
 10
10.7
 20
3.628932
 30
0.0
 11
11.871068
 21
4.8
 31
0.0
  0
LINE
  8
0
 62
     0
 10
10.7
 20
3.805709
 30
0.0
 11
11.694291
 21
4.8
 31
0.0
  0
LINE
  8
0
 62
     0
 10
10.7
 20
3.982486
 30
0.0
 11
11.517514
 21
4.8
 31
0.0
  0
LINE
  8
0
 62
     0
 10
10.7
 20
4.159262
 30
0.0
 11
11.340738
 21
4.8
 31
0.0
  0
LINE
  8
0
 62
     0
 10
10.7
 20
4.336039
 30
0.0
 11
11.163961
 21
4.8
 31
0.0
  0
LINE
  8
0
 62
     0
 10
10.7
 20
4.512816
 30
0.0
 11
10.987184
 21
4.8
 31
0.0
  0
LINE
  8
0
 62
     0
 10
10.7
 20
4.689592
 30
0.0
 11
10.810408
 21
4.8
 31
0.0
  0
LINE
  8
0
 62
     0
 10
10.7
 20
0.977282
 30
0.0
 11
13.5
 21
3.777282
 31
0.0
  0
LINE
  8
0
 62
     0
 10
10.7
 20
0.800505
 30
0.0
 11
13.5
 21
3.600505
 31
0.0
  0
LINE
  8
0
 62
     0
 10
10.7
 20
0.623728
 30
0.0
 11
13.5
 21
3.423728
 31
0.0
  0
LINE
  8
0
 62
     0
 10
10.7
 20
0.446952
 30
0.0
 11
13.5
 21
3.246952
 31
0.0
  0
LINE
  8
0
 62
     0
 10
10.7
 20
0.270175
 30
0.0
 11
13.5
 21
3.070175
 31
0.0
  0
LINE
  8
0
 62
     0
 10
10.7
 20
0.093398
 30
0.0
 11
13.5
 21
2.893398
 31
0.0
  0
LINE
  8
0
 62
     0
 10
10.783378
 20
0.0
 30
0.0
 11
13.5
 21
2.716622
 31
0.0
  0
LINE
  8
0
 62
     0
 10
10.960155
 20
0.0
 30
0.0
 11
13.5
 21
2.539845
 31
0.0
  0
LINE
  8
0
 62
     0
 10
11.136932
 20
0.0
 30
0.0
 11
13.5
 21
2.363068
 31
0.0
  0
LINE
  8
0
 62
     0
 10
11.313708
 20
0.0
 30
0.0
 11
13.5
 21
2.186292
 31
0.0
  0
LINE
  8
0
 62
     0
 10
11.490485
 20
0.0
 30
0.0
 11
13.5
 21
2.009515
 31
0.0
  0
LINE
  8
0
 62
     0
 10
11.667262
 20
0.0
 30
0.0
 11
13.5
 21
1.832738
 31
0.0
  0
LINE
  8
0
 62
     0
 10
11.844039
 20
0.0
 30
0.0
 11
13.5
 21
1.655961
 31
0.0
  0
LINE
  8
0
 62
     0
 10
12.020815
 20
0.0
 30
0.0
 11
13.5
 21
1.479185
 31
0.0
  0
LINE
  8
0
 62
     0
 10
12.197592
 20
0.0
 30
0.0
 11
13.5
 21
1.302408
 31
0.0
  0
LINE
  8
0
 62
     0
 10
12.374369
 20
0.0
 30
0.0
 11
13.5
 21
1.125631
 31
0.0
  0
LINE
  8
0
 62
     0
 10
12.551145
 20
0.0
 30
0.0
 11
13.5
 21
0.948855
 31
0.0
  0
LINE
  8
0
 62
     0
 10
12.727922
 20
0.0
 30
0.0
 11
13.5
 21
0.772078
 31
0.0
  0
LINE
  8
0
 62
     0
 10
12.904699
 20
0.0
 30
0.0
 11
13.5
 21
0.595301
 31
0.0
  0
LINE
  8
0
 62
     0
 10
13.081475
 20
0.0
 30
0.0
 11
13.5
 21
0.418525
 31
0.0
  0
LINE
  8
0
 62
     0
 10
13.258252
 20
0.0
 30
0.0
 11
13.5
 21
0.241748
 31
0.0
  0
LINE
  8
0
 62
     0
 10
13.435029
 20
0.0
 30
0.0
 11
13.5
 21
0.064971
 31
0.0
  0
ENDBLK
  8
0
  0
BLOCK
  8
0
  2
*X62
 70
    65
 10
0.0
 20
0.0
 30
0.0
  3
*X
  0
LINE
  8
0
 62
     0
 10
13.9
 20
6.298602
 30
0.0
 11
16.582995
 21
8.981597
 31
0.0
  0
LINE
  8
0
 62
     0
 10
13.9
 20
6.475379
 30
0.0
 11
16.510503
 21
9.085882
 31
0.0
  0
LINE
  8
0
 62
     0
 10
13.9
 20
6.652155
 30
0.0
 11
16.432927
 21
9.185083
 31
0.0
  0
LINE
  8
0
 62
     0
 10
13.9
 20
6.828932
 30
0.0
 11
16.350372
 21
9.279304
 31
0.0
  0
LINE
  8
0
 62
     0
 10
13.9
 20
7.005709
 30
0.0
 11
16.262892
 21
9.368601
 31
0.0
  0
LINE
  8
0
 62
     0
 10
13.9
 20
7.182486
 30
0.0
 11
16.170495
 21
9.452981
 31
0.0
  0
LINE
  8
0
 62
     0
 10
13.9
 20
7.359262
 30
0.0
 11
16.073145
 21
9.532407
 31
0.0
  0
LINE
  8
0
 62
     0
 10
13.9
 20
7.536039
 30
0.0
 11
15.970755
 21
9.606794
 31
0.0
  0
LINE
  8
0
 62
     0
 10
13.9
 20
7.712816
 30
0.0
 11
15.863189
 21
9.676004
 31
0.0
  0
LINE
  8
0
 62
     0
 10
13.9
 20
7.889592
 30
0.0
 11
15.75025
 21
9.739843
 31
0.0
  0
LINE
  8
0
 62
     0
 10
13.9
 20
8.066369
 30
0.0
 11
15.631675
 21
9.798044
 31
0.0
  0
LINE
  8
0
 62
     0
 10
13.9
 20
8.243146
 30
0.0
 11
15.50711
 21
9.850256
 31
0.0
  0
LINE
  8
0
 62
     0
 10
13.9
 20
8.419922
 30
0.0
 11
15.376096
 21
9.896018
 31
0.0
  0
LINE
  8
0
 62
     0
 10
13.9
 20
8.596699
 30
0.0
 11
15.238027
 21
9.934726
 31
0.0
  0
LINE
  8
0
 62
     0
 10
13.9
 20
8.773476
 30
0.0
 11
15.092096
 21
9.965572
 31
0.0
  0
LINE
  8
0
 62
     0
 10
13.9
 20
8.950253
 30
0.0
 11
14.937209
 21
9.987461
 31
0.0
  0
LINE
  8
0
 62
     0
 10
13.9
 20
9.127029
 30
0.0
 11
14.771824
 21
9.998853
 31
0.0
  0
LINE
  8
0
 62
     0
 10
13.9
 20
9.303806
 30
0.0
 11
14.596193
 21
9.999999
 31
0.0
  0
LINE
  8
0
 62
     0
 10
13.9
 20
9.480583
 30
0.0
 11
14.419417
 21
9.999999
 31
0.0
  0
LINE
  8
0
 62
     0
 10
13.9
 20
9.657359
 30
0.0
 11
14.24264
 21
10.0
 31
0.0
  0
LINE
  8
0
 62
     0
 10
13.9
 20
9.834136
 30
0.0
 11
14.065864
 21
10.0
 31
0.0
  0
LINE
  8
0
 62
     0
 10
13.9
 20
6.121825
 30
0.0
 11
16.650245
 21
8.872071
 31
0.0
  0
LINE
  8
0
 62
     0
 10
13.9
 20
5.945049
 30
0.0
 11
16.712035
 21
8.757083
 31
0.0
  0
LINE
  8
0
 62
     0
 10
13.9
 20
5.768272
 30
0.0
 11
16.768067
 21
8.636339
 31
0.0
  0
LINE
  8
0
 62
     0
 10
13.9
 20
5.591495
 30
0.0
 11
16.817955
 21
8.509451
 31
0.0
  0
LINE
  8
0
 62
     0
 10
13.9
 20
5.414719
 30
0.0
 11
16.861189
 21
8.375908
 31
0.0
  0
LINE
  8
0
 62
     0
 10
13.9
 20
5.237942
 30
0.0
 11
16.897097
 21
8.235039
 31
0.0
  0
LINE
  8
0
 62
     0
 10
14.038835
 20
5.2
 30
0.0
 11
16.924779
 21
8.085944
 31
0.0
  0
LINE
  8
0
 62
     0
 10
14.215611
 20
5.2
 30
0.0
 11
16.942997
 21
7.927385
 31
0.0
  0
LINE
  8
0
 62
     0
 10
14.392388
 20
5.2
 30
0.0
 11
16.949987
 21
7.757599
 31
0.0
  0
LINE
  8
0
 62
     0
 10
14.569165
 20
5.2
 30
0.0
 11
16.943101
 21
7.573936
 31
0.0
  0
LINE
  8
0
 62
     0
 10
14.745942
 20
5.2
 30
0.0
 11
16.918037
 21
7.372095
 31
0.0
  0
LINE
  8
0
 62
     0
 10
14.922718
 20
5.2
 30
0.0
 11
16.866909
 21
7.144191
 31
0.0
  0
LINE
  8
0
 62
     0
 10
15.099495
 20
5.2
 30
0.0
 11
16.771715
 21
6.87222
 31
0.0
  0
LINE
  8
0
 62
     0
 10
15.276272
 20
5.2
 30
0.0
 11
15.847951
 21
5.77168
 31
0.0
  0
LINE
  8
0
 62
     0
 10
15.96673
 20
5.890458
 30
0.0
 11
16.559542
 21
6.48327
 31
0.0
  0
LINE
  8
0
 62
     0
 10
15.453048
 20
5.2
 30
0.0
 11
15.970661
 21
5.717613
 31
0.0
  0
LINE
  8
0
 62
     0
 10
15.629825
 20
5.2
 30
0.0
 11
16.088934
 21
5.659109
 31
0.0
  0
LINE
  8
0
 62
     0
 10
15.806602
 20
5.2
 30
0.0
 11
16.202964
 21
5.596363
 31
0.0
  0
LINE
  8
0
 62
     0
 10
15.983378
 20
5.2
 30
0.0
 11
16.312909
 21
5.529531
 31
0.0
  0
LINE
  8
0
 62
     0
 10
16.160155
 20
5.2
 30
0.0
 11
16.418895
 21
5.45874
 31
0.0
  0
LINE
  8
0
 62
     0
 10
16.336932
 20
5.2
 30
0.0
 11
16.521021
 21
5.384089
 31
0.0
  0
LINE
  8
0
 62
     0
 10
16.513708
 20
5.2
 30
0.0
 11
16.619363
 21
5.305655
 31
0.0
  0
LINE
  8
0
 62
     0
 10
16.690485
 20
5.2
 30
0.0
 11
16.713975
 21
5.22349
 31
0.0
  0
ENDBLK
  8
0
  0
BLOCK
  8
0
  2
*X63
 70
    65
 10
0.0
 20
0.0
 30
0.0
  3
*X
  0
LINE
  8
0
 62
     0
 10
13.9
 20
0.818525
 30
0.0
 11
17.39645
 21
4.314974
 31
0.0
  0
LINE
  8
0
 62
     0
 10
13.9
 20
0.995301
 30
0.0
 11
17.336354
 21
4.431655
 31
0.0
  0
LINE
  8
0
 62
     0
 10
13.9
 20
1.172078
 30
0.0
 11
17.272078
 21
4.544156
 31
0.0
  0
LINE
  8
0
 62
     0
 10
13.9
 20
1.348855
 30
0.0
 11
17.203766
 21
4.652621
 31
0.0
  0
LINE
  8
0
 62
     0
 10
13.9
 20
1.525631
 30
0.0
 11
17.131535
 21
4.757167
 31
0.0
  0
LINE
  8
0
 62
     0
 10
13.9
 20
1.702408
 30
0.0
 11
16.997592
 21
4.8
 31
0.0
  0
LINE
  8
0
 62
     0
 10
13.9
 20
1.879185
 30
0.0
 11
16.820815
 21
4.8
 31
0.0
  0
LINE
  8
0
 62
     0
 10
13.9
 20
2.055961
 30
0.0
 11
16.644039
 21
4.8
 31
0.0
  0
LINE
  8
0
 62
     0
 10
13.9
 20
2.232738
 30
0.0
 11
16.467262
 21
4.8
 31
0.0
  0
LINE
  8
0
 62
     0
 10
13.9
 20
2.409515
 30
0.0
 11
16.290485
 21
4.8
 31
0.0
  0
LINE
  8
0
 62
     0
 10
13.9
 20
2.586292
 30
0.0
 11
16.113708
 21
4.8
 31
0.0
  0
LINE
  8
0
 62
     0
 10
13.9
 20
2.763068
 30
0.0
 11
15.936932
 21
4.8
 31
0.0
  0
LINE
  8
0
 62
     0
 10
13.9
 20
2.939845
 30
0.0
 11
15.760155
 21
4.8
 31
0.0
  0
LINE
  8
0
 62
     0
 10
13.9
 20
3.116622
 30
0.0
 11
15.583378
 21
4.8
 31
0.0
  0
LINE
  8
0
 62
     0
 10
13.9
 20
3.293398
 30
0.0
 11
15.406602
 21
4.8
 31
0.0
  0
LINE
  8
0
 62
     0
 10
13.9
 20
3.470175
 30
0.0
 11
15.229825
 21
4.8
 31
0.0
  0
LINE
  8
0
 62
     0
 10
13.9
 20
3.646952
 30
0.0
 11
15.053048
 21
4.8
 31
0.0
  0
LINE
  8
0
 62
     0
 10
13.9
 20
3.823728
 30
0.0
 11
14.876272
 21
4.8
 31
0.0
  0
LINE
  8
0
 62
     0
 10
13.9
 20
4.000505
 30
0.0
 11
14.699495
 21
4.8
 31
0.0
  0
LINE
  8
0
 62
     0
 10
13.9
 20
4.177282
 30
0.0
 11
14.522718
 21
4.8
 31
0.0
  0
LINE
  8
0
 62
     0
 10
13.9
 20
4.354058
 30
0.0
 11
14.345942
 21
4.8
 31
0.0
  0
LINE
  8
0
 62
     0
 10
13.9
 20
4.530835
 30
0.0
 11
14.169165
 21
4.8
 31
0.0
  0
LINE
  8
0
 62
     0
 10
13.9
 20
4.707612
 30
0.0
 11
13.992388
 21
4.8
 31
0.0
  0
LINE
  8
0
 62
     0
 10
13.9
 20
0.641748
 30
0.0
 11
17.452185
 21
4.193933
 31
0.0
  0
LINE
  8
0
 62
     0
 10
13.9
 20
0.464971
 30
0.0
 11
17.503339
 21
4.068311
 31
0.0
  0
LINE
  8
0
 62
     0
 10
13.9
 20
0.288194
 30
0.0
 11
17.549642
 21
3.937837
 31
0.0
  0
LINE
  8
0
 62
     0
 10
13.9
 20
0.111418
 30
0.0
 11
17.590762
 21
3.80218
 31
0.0
  0
LINE
  8
0
 62
     0
 10
13.965359
 20
0.0
 30
0.0
 11
17.62629
 21
3.660931
 31
0.0
  0
LINE
  8
0
 62
     0
 10
14.142136
 20
0.000001
 30
0.0
 11
17.655713
 21
3.513577
 31
0.0
  0
LINE
  8
0
 62
     0
 10
14.318913
 20
0.000001
 30
0.0
 11
17.678385
 21
3.359473
 31
0.0
  0
LINE
  8
0
 62
     0
 10
14.49569
 20
0.000001
 30
0.0
 11
17.693473
 21
3.197784
 31
0.0
  0
LINE
  8
0
 62
     0
 10
14.672467
 20
0.000002
 30
0.0
 11
17.699875
 21
3.027409
 31
0.0
  0
LINE
  8
0
 62
     0
 10
14.853154
 20
0.003912
 30
0.0
 11
17.696088
 21
2.846846
 31
0.0
  0
LINE
  8
0
 62
     0
 10
15.046044
 20
0.020025
 30
0.0
 11
17.679975
 21
2.653956
 31
0.0
  0
LINE
  8
0
 62
     0
 10
15.254483
 20
0.051687
 30
0.0
 11
17.648313
 21
2.445517
 31
0.0
  0
LINE
  8
0
 62
     0
 10
15.483762
 20
0.10419
 30
0.0
 11
17.59581
 21
2.216238
 31
0.0
  0
LINE
  8
0
 62
     0
 10
15.743786
 20
0.187437
 30
0.0
 11
17.512563
 21
1.956214
 31
0.0
  0
LINE
  8
0
 62
     0
 10
16.058176
 20
0.32505
 30
0.0
 11
17.37495
 21
1.641824
 31
0.0
  0
LINE
  8
0
 62
     0
 10
16.54193
 20
0.632028
 30
0.0
 11
17.067972
 21
1.15807
 31
0.0
  0
ENDBLK
  8
0
  0
BLOCK
  8
0
  2
B39
 70
     0
 10
0.0
 20
0.0
 30
0.0
  3
B39
  0
LINE
  8
0
 10
-10.0
 20
2.5
 30
0.0
 11
-11.519867
 21
2.5
 31
0.0
  0
ARC
  8
0
 10
-9.934151
 20
3.75
 30
0.0
 40
1.251733
 50
266.984476
 51
93.015524
  0
LINE
  8
0
 10
-10.0
 20
5.0
 30
0.0
 11
-11.519867
 21
5.0
 31
0.0
  0
LINE
  8
0
 10
-10.0
 20
7.5
 30
0.0
 11
-11.519867
 21
7.5
 31
0.0
  0
ARC
  8
0
 10
-9.934151
 20
6.25
 30
0.0
 40
1.251733
 50
266.984476
 51
93.015524
  0
LINE
  8
0
 10
-5.0
 20
0.0
 30
0.0
 11
-2.5
 21
0.0
 31
0.0
  0
ARC
  8
0
 10
-5.065849
 20
1.25
 30
0.0
 40
1.251733
 50
86.984476
 51
273.015524
  0
ARC
  8
0
 10
-5.065849
 20
3.75
 30
0.0
 40
1.251733
 50
86.984476
 51
273.015524
  0
LINE
  8
0
 10
-5.0
 20
2.5
 30
0.0
 11
-2.5
 21
2.5
 31
0.0
  0
LINE
  8
0
 10
-5.0
 20
5.0
 30
0.0
 11
-2.5
 21
5.0
 31
0.0
  0
LINE
  8
0
 10
-2.5
 20
5.0
 30
0.0
 11
0.0
 21
5.0
 31
0.0
  0
LINE
  8
0
 10
-2.5
 20
0.0
 30
0.0
 11
0.0
 21
0.0
 31
0.0
  0
LINE
  8
0
 10
-2.5
 20
5.0
 30
0.0
 11
0.0
 21
5.0
 31
0.0
  0
LINE
  8
0
 10
-2.5
 20
10.0
 30
0.0
 11
0.0
 21
10.0
 31
0.0
  0
LINE
  8
0
 10
-5.0
 20
10.0
 30
0.0
 11
-2.5
 21
10.0
 31
0.0
  0
LINE
  8
0
 10
-5.0
 20
7.5
 30
0.0
 11
-2.5
 21
7.5
 31
0.0
  0
ARC
  8
0
 10
-5.065849
 20
8.75
 30
0.0
 40
1.251733
 50
86.984476
 51
273.015524
  0
ARC
  8
0
 10
-5.065849
 20
6.25
 30
0.0
 40
1.251733
 50
86.984476
 51
273.015524
  0
LINE
  8
0
 10
-5.0
 20
5.0
 30
0.0
 11
-2.5
 21
5.0
 31
0.0
  0
ENDBLK
  8
0
  0
BLOCK
  8
0
  2
B146
 70
     0
 10
0.0
 20
0.0
 30
0.0
  3
B146
  0
LINE
  8
0
 10
17.5
 20
-4.828202
 30
0.0
 11
62.5
 21
-4.828202
 31
0.0
  0
LINE
  8
0
  6
CONTINUOUS
 10
17.5
 20
-10.0
 30
0.0
 11
62.5
 21
-10.0
 31
0.0
  0
LINE
  8
0
  6
CONTINUOUS
 10
5.0
 20
0.0
 30
0.0
 11
62.5
 21
0.0
 31
0.0
  0
LINE
  8
0
  6
CONTINUOUS
 10
5.0
 20
-25.0
 30
0.0
 11
62.5
 21
-25.0
 31
0.0
  0
TEXT
  8
0
  6
CENTER
 10
20.0
 20
-21.666667
 30
0.0
 40
2.0
  1
25-28
  0
TEXT
  8
0
  6
CENTER
 10
19.998602
 20
-8.389298
 30
0.0
 40
2.0
  1
In=0,2A
  0
LINE
  8
0
  6
CONTINUOUS
 10
17.5
 20
-25.0
 30
0.0
 11
17.5
 21
0.0
 31
0.0
  0
LINE
  8
0
  6
CONTINUOUS
 10
12.616787
 20
-20.534894
 30
0.0
 11
12.616787
 21
-21.889164
 31
0.0
  0
LINE
  8
0
  6
CONTINUOUS
 10
11.406559
 20
-21.889164
 30
0.0
 11
12.6009
 21
-21.889164
 31
0.0
  0
LINE
  8
0
  6
CONTINUOUS
 10
12.6009
 20
-21.889164
 30
0.0
 11
13.795241
 21
-21.889164
 31
0.0
  0
LINE
  8
0
  6
CONTINUOUS
 10
11.784965
 20
-22.368774
 30
0.0
 11
13.369536
 21
-22.368774
 31
0.0
  0
LINE
  8
0
  6
CONTINUOUS
 10
12.116069
 20
-22.856949
 30
0.0
 11
13.002956
 21
-22.856949
 31
0.0
  0
TEXT
  8
0
  6
CENTER
 10
10.0
 20
-21.666667
 30
0.0
 40
2.0
  1
I
  0
TEXT
  8
0
  6
CENTER
 10
10.0
 20
-18.333333
 30
0.0
 40
2.0
  1
L3
  0
TEXT
  8
0
  6
CENTER
 10
10.0
 20
-15.0
 30
0.0
 40
2.0
  1
L1
  0
TEXT
  8
0
  6
CENTER
 10
50.0
 20
-21.666667
 30
0.0
 40
2.0
  1
25-26
  0
TEXT
  8
0
  6
CENTER
 10
50.0
 20
-18.333333
 30
0.0
 40
2.0
  1
7-8
  0
TEXT
  8
0
  6
CENTER
 10
50.0
 20
-15.0
 30
0.0
 40
2.0
  1
1-2
  0
TEXT
  8
0
  6
CENTER
 10
35.0
 20
-21.666667
 30
0.0
 40
2.0
  1
25-27
  0
TEXT
  8
0
  6
CENTER
 10
35.0
 20
-18.333333
 30
0.0
 40
2.0
  1
7-9
  0
TEXT
  8
0
  6
CENTER
 10
35.0
 20
-15.0
 30
0.0
 40
2.0
  1
1-3
  0
LINE
  8
0
 10
5.0
 20
0.0
 30
0.0
 11
5.0
 21
-25.0
 31
0.0
  0
LINE
  8
0
 10
62.5
 20
-25.0
 30
0.0
 11
62.5
 21
0.0
 31
0.0
  0
LINE
  8
0
 10
32.5
 20
-4.828202
 30
0.0
 11
32.5
 21
-25.0
 31
0.0
  0
LINE
  8
0
 10
47.5
 20
-4.828202
 30
0.0
 11
47.5
 21
-25.0
 31
0.0
  0
TEXT
  8
0
 10
23.041221
 20
-4.161535
 30
0.0
 40
2.0
  1
TERMINALS / UTTAG
 11
23.041221
 21
-4.828202
 31
0.0
 73
     1
  0
TEXT
  8
0
 10
35.120167
 20
-8.449983
 30
0.0
 40
2.0
  1
In=1A 
 11
35.120167
 21
-9.11665
 31
0.0
 73
     1
  0
TEXT
  8
0
 10
49.969965
 20
-8.449983
 30
0.0
 40
2.0
  1
In=5A
 11
49.969965
 21
-9.11665
 31
0.0
 73
     1
  0
TEXT
  8
0
  6
CONTINUOUS
 10
1.50882
 20
1.838465
 30
0.0
 40
2.0
  1
1)
 11
1.50882
 21
1.171798
 31
0.0
 73
     1
  0
ENDBLK
  8
0
  0
BLOCK
  8
0
  2
B147
 70
     0
 10
0.0
 20
0.0
 30
0.0
  3
B147
  0
TEXT
  8
0
  6
CONTINUOUS
 10
0.0
 20
0.0
 30
0.0
 40
2.0
  1
1)
  0
LINE
  8
BASE
  6
CONTINUOUS
 10
10.383131
 20
-27.812413
 30
0.0
 11
10.383131
 21
-29.166683
 31
0.0
  0
LINE
  8
BASE
  6
CONTINUOUS
 10
9.172903
 20
-29.166683
 30
0.0
 11
10.367244
 21
-29.166683
 31
0.0
  0
LINE
  8
BASE
  6
CONTINUOUS
 10
10.367244
 20
-29.166683
 30
0.0
 11
11.561585
 21
-29.166683
 31
0.0
  0
LINE
  8
BASE
  6
CONTINUOUS
 10
9.551308
 20
-29.646294
 30
0.0
 11
11.135879
 21
-29.646294
 31
0.0
  0
LINE
  8
BASE
  6
CONTINUOUS
 10
9.882412
 20
-30.134468
 30
0.0
 11
10.769299
 21
-30.134468
 31
0.0
  0
LINE
  8
0
  6
CONTINUOUS
 10
52.5
 20
-2.5
 30
0.0
 11
52.5
 21
-32.5
 31
0.0
  0
TEXT
  8
0
  6
CONTINUOUS
 10
37.5
 20
-29.166667
 30
0.0
 40
2.0
  1
25-26
  0
TEXT
  8
0
  6
CONTINUOUS
 10
37.5
 20
-25.833333
 30
0.0
 40
2.0
  1
7-8
  0
TEXT
  8
0
  6
CONTINUOUS
 10
37.5
 20
-22.5
 30
0.0
 40
2.0
  1
1-2
  0
TEXT
  8
0
  6
CONTINUOUS
 10
20.0
 20
-29.166667
 30
0.0
 40
2.0
  1
25-27
  0
TEXT
  8
0
  6
CONTINUOUS
 10
20.0
 20
-25.833333
 30
0.0
 40
2.0
  1
7-9
  0
TEXT
  8
0
  6
CONTINUOUS
 10
20.0
 20
-22.5
 30
0.0
 40
2.0
  1
1-3
  0
TEXT
  8
0
  6
CONTINUOUS
 10
7.5
 20
-29.166667
 30
0.0
 40
2.0
  1
I
  0
TEXT
  8
0
  6
CONTINUOUS
 10
7.5
 20
-25.833333
 30
0.0
 40
2.0
  1
L3
  0
TEXT
  8
0
  6
CONTINUOUS
 10
7.5
 20
-22.5
 30
0.0
 40
2.0
  1
L1
  0
TEXT
  8
0
  6
CONTINUOUS
 10
37.5
 20
-15.0
 30
0.0
 40
2.0
  1
In=5A
  0
TEXT
  8
0
  6
CONTINUOUS
 10
20.0
 20
-15.0
 30
0.0
 40
2.0
  1
In=1A
  0
TEXT
  8
0
  6
CONTINUOUS
 10
20.0
 20
-7.5
 30
0.0
 40
2.0
  1
TERMINALS/UTTAG
  0
LINE
  8
0
  6
CONTINUOUS
 10
32.5
 20
-10.0
 30
0.0
 11
32.5
 21
-32.5
 31
0.0
  0
LINE
  8
0
  6
CONTINUOUS
 10
15.0
 20
-17.5
 30
0.0
 11
52.5
 21
-17.5
 31
0.0
  0
LINE
  8
0
  6
CONTINUOUS
 10
15.0
 20
-10.0
 30
0.0
 11
52.5
 21
-10.0
 31
0.0
  0
LINE
  8
0
  6
CONTINUOUS
 10
2.5
 20
-32.5
 30
0.0
 11
52.5
 21
-32.5
 31
0.0
  0
LINE
  8
0
  6
CONTINUOUS
 10
2.5
 20
-2.5
 30
0.0
 11
52.5
 21
-2.5
 31
0.0
  0
LINE
  8
0
  6
CONTINUOUS
 10
15.0
 20
-2.5
 30
0.0
 11
15.0
 21
-32.5
 31
0.0
  0
LINE
  8
0
  6
CONTINUOUS
 10
2.5
 20
-2.5
 30
0.0
 11
2.5
 21
-32.5
 31
0.0
  0
ENDBLK
  8
0
  0
BLOCK
  8
0
  2
B91
 70
     0
 10
0.0
 20
0.0
 30
0.0
  3
B91
  0
LINE
  8
0
  6
DASHED
 10
0.0
 20
0.0
 30
0.0
 11
17.5
 21
0.0
 31
0.0
  0
LINE
  8
0
  6
DASHED
 10
0.0
 20
5.0
 30
0.0
 11
4.266471
 21
5.0
 31
0.0
  0
LINE
  8
0
  6
DASHED
 10
0.0
 20
10.0
 30
0.0
 11
4.266471
 21
10.0
 31
0.0
  0
LINE
  8
0
  6
CONTINUOUS
 10
6.0
 20
11.5
 30
0.0
 11
5.0
 21
12.5
 31
0.0
  0
LINE
  8
0
  6
DASHED
 10
6.0
 20
10.0
 30
0.0
 11
17.5
 21
10.0
 31
0.0
  0
LINE
  8
0
  6
CONTINUOUS
 10
6.0
 20
11.5
 30
0.0
 11
6.0
 21
4.5
 31
0.0
  0
LINE
  8
0
  6
CONTINUOUS
 10
6.0
 20
4.5
 30
0.0
 11
5.0
 21
3.5
 31
0.0
  0
ENDBLK
  8
0
  0
BLOCK
  8
0
  2
B69
 70
     0
 10
0.0
 20
0.0
 30
0.0
  3
B69
  0
LINE
  8
0
  6
CONTINUOUS
 10
0.0
 20
0.0
 30
0.0
 11
5.0
 21
0.0
 31
0.0
  0
LINE
  8
0
  6
CONTINUOUS
 10
0.0
 20
-10.0
 30
0.0
 11
5.0
 21
-10.0
 31
0.0
  0
LINE
  8
0
  6
CONTINUOUS
 10
0.0
 20
-20.0
 30
0.0
 11
5.0
 21
-20.0
 31
0.0
  0
LINE
  8
0
  6
CONTINUOUS
 10
0.0
 20
-30.0
 30
0.0
 11
5.0
 21
-30.0
 31
0.0
  0
LINE
  8
0
  6
CONTINUOUS
 10
0.0
 20
-40.0
 30
0.0
 11
5.0
 21
-40.0
 31
0.0
  0
LINE
  8
0
  6
CONTINUOUS
 10
0.0
 20
-50.0
 30
0.0
 11
5.0
 21
-50.0
 31
0.0
  0
LINE
  8
0
  6
CONTINUOUS
 10
0.0
 20
-60.0
 30
0.0
 11
5.0
 21
-60.0
 31
0.0
  0
LINE
  8
0
  6
CONTINUOUS
 10
0.0
 20
-70.0
 30
0.0
 11
5.0
 21
-70.0
 31
0.0
  0
LINE
  8
0
  6
CONTINUOUS
 10
7.5
 20
-70.0
 30
0.0
 11
6.5
 21
-71.0
 31
0.0
  0
LINE
  8
0
  6
CONTINUOUS
 10
7.5
 20
-60.0
 30
0.0
 11
7.5
 21
-70.0
 31
0.0
  0
LINE
  8
0
  6
CONTINUOUS
 10
7.5
 20
-60.0
 30
0.0
 11
6.5
 21
-59.0
 31
0.0
  0
LINE
  8
0
  6
CONTINUOUS
 10
7.5
 20
-50.0
 30
0.0
 11
6.5
 21
-51.0
 31
0.0
  0
LINE
  8
0
  6
CONTINUOUS
 10
7.5
 20
-50.0
 30
0.0
 11
7.5
 21
-20.0
 31
0.0
  0
LINE
  8
0
  6
CONTINUOUS
 10
7.5
 20
-20.0
 30
0.0
 11
7.5
 21
0.0
 31
0.0
  0
LINE
  8
0
  6
CONTINUOUS
 10
7.5
 20
0.0
 30
0.0
 11
6.5
 21
1.0
 31
0.0
  0
LINE
  8
0
  6
DASHED
 10
7.5
 20
-25.0
 30
0.0
 11
20.0
 21
-25.0
 31
0.0
  0
LINE
  8
0
  6
DASHED
 10
7.5
 20
-65.0
 30
0.0
 11
20.0
 21
-65.0
 31
0.0
  0
CIRCLE
  8
0
  6
CONTINUOUS
 10
22.5
 20
-65.0
 30
0.0
 40
2.5
  0
CIRCLE
  8
0
  6
CONTINUOUS
 10
22.5
 20
-25.0
 30
0.0
 40
2.5
  0
LINE
  8
0
  6
DASHED
 10
22.5
 20
-15.0
 30
0.0
 11
22.5
 21
-75.0
 31
0.0
  0
ENDBLK
  8
0
  0
BLOCK
  8
0
  2
B117
 70
     0
 10
0.0
 20
0.0
 30
0.0
  3
B117
  0
LINE
  8
0
  6
DASHED
 10
0.0
 20
37.5
 30
0.0
 11
0.0
 21
5.132058
 31
0.0
  0
CIRCLE
  8
0
  6
CONTINUOUS
 10
0.0
 20
22.440007
 30
0.0
 40
4.398585
  0
CIRCLE
  8
0
  6
CONTINUOUS
 10
0.0
 20
-6.055075
 30
0.0
 40
4.398585
  0
CIRCLE
  8
0
  6
CONTINUOUS
 10
0.0
 20
0.733473
 30
0.0
 40
4.398585
  0
LINE
  8
0
  6
CONTINUOUS
 10
2.330189
 20
-1.600047
 30
0.0
 11
-0.003212
 21
0.733355
 31
0.0
  0
LINE
  8
0
  6
CONTINUOUS
 10
-0.003212
 20
0.733355
 30
0.0
 11
-2.336614
 21
-1.600047
 31
0.0
  0
LINE
  8
0
  6
CONTINUOUS
 10
-0.003212
 20
0.733355
 30
0.0
 11
-0.003212
 21
3.066756
 31
0.0
  0
LINE
  8
0
  6
DASHED
 10
0.0
 20
0.733473
 30
0.0
 11
12.5
 21
0.733473
 31
0.0
  0
INSERT
  8
0
  6
DASHED
  2
B97
 10
14.158425
 20
0.733484
 30
0.0
 50
90.0
  0
ENDBLK
  8
0
  0
BLOCK
  8
0
  2
B97
 70
    64
 10
0.0
 20
0.0
 30
0.0
  3
B97
  0
INSERT
  8
0
  6
DASHED
  2
BLC15
 10
-0.142087
 20
-2.191142
 30
0.0
  0
ENDBLK
  8
0
  0
BLOCK
  8
0
  2
B74
 70
     0
 10
0.0
 20
0.0
 30
0.0
  3
B74
  0
TEXT
  8
0
  6
CONTINUOUS
 10
2.329422
 20
9.526264
 30
0.0
 40
1.8
  1
162 mm
  7
GREEKS
  0
TEXT
  8
0
  6
CONTINUOUS
 10
-12.590453
 20
20.563425
 30
0.0
 40
1.8
  1
142 mm
  7
GREEKS
  0
ARC
  8
0
  6
CONTINUOUS
 10
-0.685275
 20
1.784081
 30
0.0
 40
2.0
 50
270.0
 51
0.0
  0
ARC
  8
0
  6
CONTINUOUS
 10
-14.031047
 20
1.784081
 30
0.0
 40
2.0
 50
180.0
 51
270.0
  0
ARC
  8
0
  6
CONTINUOUS
 10
-14.031047
 20
17.282894
 30
0.0
 40
2.0
 50
90.0
 51
180.0
  0
ARC
  8
0
  6
CONTINUOUS
 10
-0.685275
 20
17.282894
 30
0.0
 40
2.0
 50
0.0
 51
90.0
  0
LINE
  8
0
  6
CONTINUOUS
 10
-16.031047
 20
17.282894
 30
0.0
 11
-16.031047
 21
1.784081
 31
0.0
  0
LINE
  8
0
  6
CONTINUOUS
 10
-0.685275
 20
19.282894
 30
0.0
 11
-14.031047
 21
19.282894
 31
0.0
  0
LINE
  8
0
  6
CONTINUOUS
 10
1.314725
 20
1.784081
 30
0.0
 11
1.314725
 21
17.282894
 31
0.0
  0
LINE
  8
0
  6
CONTINUOUS
 10
-14.031047
 20
-0.215919
 30
0.0
 11
-0.685275
 21
-0.215919
 31
0.0
  0
TEXT
  8
0
  6
CONTINUOUS
 10
-16.318348
 20
-4.949735
 30
0.0
 40
2.0
  1
SPAJ 160 C 
  7
GREEKS
  0
ENDBLK
  8
0
  0
BLOCK
  8
0
  2
B63
 70
     0
 10
0.0
 20
0.0
 30
0.0
  3
B63
  0
LINE
  8
BASE
  6
CONTINUOUS
 10
-5.0
 20
-5.0
 30
0.0
 11
-5.0
 21
-2.5
 31
0.0
  0
LINE
  8
BASE
  6
CONTINUOUS
 10
-5.0
 20
-5.0
 30
0.0
 11
-10.0
 21
-5.0
 31
0.0
  0
LINE
  8
BASE
  6
CONTINUOUS
 10
-0.373205
 20
-0.208872
 30
0.0
 11
-5.743924
 21
-3.214703
 31
0.0
  0
LINE
  8
BASE
  6
CONTINUOUS
 10
-10.0
 20
0.0
 30
0.0
 11
-5.0
 21
0.0
 31
0.0
  0
CIRCLE
  8
BASE
  6
CONTINUOUS
 10
0.0
 20
0.0
 30
0.0
 40
0.427679
  0
LINE
  8
BASE
  6
CONTINUOUS
 10
0.427679
 20
0.0
 30
0.0
 11
5.0
 21
0.0
 31
0.0
  0
ENDBLK
  8
0
  0
BLOCK
  8
0
  2
B31
 70
     0
 10
0.0
 20
0.0
 30
0.0
  3
B31
  0
LINE
  8
0
  6
DASHED
 10
65.0
 20
-52.5
 30
0.0
 11
65.0
 21
-67.5
 31
0.0
  0
LINE
  8
0
  6
DASHED
 10
57.5
 20
-52.5
 30
0.0
 11
57.5
 21
-67.5
 31
0.0
  0
LINE
  8
0
  6
DASHED
 10
50.0
 20
-52.5
 30
0.0
 11
50.0
 21
-67.5
 31
0.0
  0
POLYLINE
  8
0
  6
DASHED
 66
     1
 10
0.0
 20
0.0
 30
0.0
 70
     1
 40
0.25
 41
0.25
 71
     2
 72
   251
  0
VERTEX
  8
0
  6
DASHED
 10
42.125
 20
-50.0
 30
0.0
 42
1.0
  0
VERTEX
  8
0
  6
DASHED
 10
42.875
 20
-50.0
 30
0.0
 42
1.0
  0
SEQEND
  8
0
  6
DASHED
  0
LINE
  8
0
  6
DASHED
 10
10.0
 20
-10.0
 30
0.0
 11
10.0
 21
-50.0
 31
0.0
  0
LINE
  8
0
  6
DASHED
 10
10.0
 20
-50.0
 30
0.0
 11
42.5
 21
-50.0
 31
0.0
  0
POLYLINE
  8
0
  6
DASHED
 66
     1
 10
0.0
 20
0.0
 30
0.0
 70
     1
 40
0.25
 41
0.25
 71
     2
 72
   151
  0
VERTEX
  8
0
  6
DASHED
 10
42.124304
 20
-44.809877
 30
0.0
 42
1.0
  0
VERTEX
  8
0
  6
DASHED
 10
42.874304
 20
-44.809877
 30
0.0
 42
1.0
  0
SEQEND
  8
0
  6
DASHED
  0
POLYLINE
  8
0
  6
DASHED
 66
     1
 10
0.0
 20
0.0
 30
0.0
 70
     1
 40
0.25
 41
0.25
 71
     2
 72
   151
  0
VERTEX
  8
0
  6
DASHED
 10
42.124944
 20
-24.809955
 30
0.0
 42
1.0
  0
VERTEX
  8
0
  6
DASHED
 10
42.874944
 20
-24.809955
 30
0.0
 42
1.0
  0
SEQEND
  8
0
  6
DASHED
  0
LINE
  8
0
  6
DASHED
 10
65.006921
 20
-44.810016
 30
0.0
 11
42.923681
 21
-44.810016
 31
0.0
  0
LINE
  8
0
  6
DASHED
 10
57.569797
 20
-24.810016
 30
0.0
 11
42.695548
 21
-24.810016
 31
0.0
  0
POLYLINE
  8
0
  6
DASHED
 66
     1
 10
0.0
 20
0.0
 30
0.0
 70
     1
 40
0.25
 41
0.25
 71
     2
 72
   151
  0
VERTEX
  8
0
  6
DASHED
 10
9.625
 20
-50.0
 30
0.0
 42
1.0
  0
VERTEX
  8
0
  6
DASHED
 10
10.375
 20
-50.0
 30
0.0
 42
1.0
  0
SEQEND
  8
0
  6
DASHED
  0
POLYLINE
  8
0
  6
DASHED
 66
     1
 10
0.0
 20
0.0
 30
0.0
 70
     1
 40
0.25
 41
0.25
 71
     2
 72
   151
  0
VERTEX
  8
0
  6
DASHED
 10
9.625
 20
-30.0
 30
0.0
 42
1.0
  0
VERTEX
  8
0
  6
DASHED
 10
10.375
 20
-30.0
 30
0.0
 42
1.0
  0
SEQEND
  8
0
  6
DASHED
  0
LINE
  8
0
  6
DASHED
 10
42.5
 20
-4.810008
 30
0.0
 11
42.5
 21
-52.5
 31
0.0
  0
LINE
  8
0
  6
DASHED
 10
50.0
 20
-27.5
 30
0.0
 11
50.0
 21
-52.5
 31
0.0
  0
LINE
  8
0
  6
DASHED
 10
57.5
 20
-27.5
 30
0.0
 11
57.5
 21
-52.5
 31
0.0
  0
LINE
  8
0
  6
DASHED
 10
65.0
 20
-27.5
 30
0.0
 11
65.0
 21
-52.5
 31
0.0
  0
INSERT
  8
0
  6
CONTINUOUS
  2
BLC15
 10
42.357916
 20
-55.0
 30
0.0
  0
INSERT
  8
0
  6
CONTINUOUS
  2
BLC27
 10
51.491154
 20
-2.381567
 30
0.0
 50
180.0
  0
LINE
  8
0
  6
DASHED
 10
50.0
 20
5.0
 30
0.0
 11
50.0
 21
-27.5
 31
0.0
  0
LINE
  8
0
  6
DASHED
 10
50.0
 20
12.5
 30
0.0
 11
50.0
 21
25.0
 31
0.0
  0
LINE
  8
0
  6
DASHED
 10
57.5
 20
25.0
 30
0.0
 11
57.5
 21
12.5
 31
0.0
  0
LINE
  8
0
  6
DASHED
 10
57.5
 20
5.0
 30
0.0
 11
57.5
 21
-27.5
 31
0.0
  0
LINE
  8
0
  6
DASHED
 10
65.0
 20
25.0
 30
0.0
 11
65.0
 21
12.5
 31
0.0
  0
LINE
  8
0
  6
DASHED
 10
65.0
 20
5.0
 30
0.0
 11
65.0
 21
-27.5
 31
0.0
  0
LINE
  8
0
  6
DASHED
 10
80.0
 20
25.0
 30
0.0
 11
22.5
 21
25.0
 31
0.0
  0
LINE
  8
0
  6
DASHED
 10
80.0
 20
32.5
 30
0.0
 11
22.5
 21
32.5
 31
0.0
  0
LINE
  8
0
  6
DASHED
 10
80.0
 20
40.0
 30
0.0
 11
22.5
 21
40.0
 31
0.0
  0
LINE
  8
0
  6
DASHED
 10
57.5
 20
25.0
 30
0.0
 11
57.5
 21
32.5
 31
0.0
  0
LINE
  8
0
  6
DASHED
 10
50.0
 20
25.0
 30
0.0
 11
50.0
 21
40.0
 31
0.0
  0
INSERT
  8
0
  6
CONTINUOUS
  2
BLC27
 10
59.01227
 20
-22.38157
 30
0.0
 50
180.0
  0
LINE
  8
0
  6
CONTINUOUS
 10
50.0
 20
5.0
 30
0.0
 11
47.5
 21
12.5
 31
0.0
  0
LINE
  8
0
  6
CONTINUOUS
 10
57.5
 20
5.0
 30
0.0
 11
55.0
 21
12.5
 31
0.0
  0
LINE
  8
0
  6
CONTINUOUS
 10
65.0
 20
5.0
 30
0.0
 11
62.5
 21
12.5
 31
0.0
  0
LINE
  8
0
  6
CONTINUOUS
 10
50.0
 20
12.5
 30
0.0
 11
49.5
 21
13.0
 31
0.0
  0
LINE
  8
0
  6
CONTINUOUS
 10
50.0
 20
12.5
 30
0.0
 11
50.5
 21
12.0
 31
0.0
  0
LINE
  8
0
  6
CONTINUOUS
 10
50.0
 20
12.5
 30
0.0
 11
50.5
 21
13.0
 31
0.0
  0
LINE
  8
0
  6
CONTINUOUS
 10
50.0
 20
12.5
 30
0.0
 11
49.5
 21
12.0
 31
0.0
  0
LINE
  8
0
  6
CONTINUOUS
 10
57.5
 20
12.5
 30
0.0
 11
58.0
 21
13.0
 31
0.0
  0
LINE
  8
0
  6
CONTINUOUS
 10
57.5
 20
12.5
 30
0.0
 11
58.0
 21
12.0
 31
0.0
  0
LINE
  8
0
  6
CONTINUOUS
 10
57.5
 20
12.5
 30
0.0
 11
57.0
 21
12.0
 31
0.0
  0
LINE
  8
0
  6
CONTINUOUS
 10
57.5
 20
12.5
 30
0.0
 11
57.0
 21
13.0
 31
0.0
  0
LINE
  8
0
  6
CONTINUOUS
 10
65.0
 20
12.5
 30
0.0
 11
65.5
 21
12.0
 31
0.0
  0
LINE
  8
0
  6
CONTINUOUS
 10
65.0
 20
12.5
 30
0.0
 11
65.5
 21
13.0
 31
0.0
  0
LINE
  8
0
  6
CONTINUOUS
 10
65.0
 20
12.5
 30
0.0
 11
64.5
 21
13.0
 31
0.0
  0
LINE
  8
0
  6
CONTINUOUS
 10
65.0
 20
12.5
 30
0.0
 11
64.5
 21
12.0
 31
0.0
  0
POLYLINE
  8
0
  6
CONTINUOUS
 66
     1
 10
0.0
 20
0.0
 30
0.0
 70
     1
 40
0.25
 41
0.25
 71
     2
 72
   151
  0
VERTEX
  8
0
  6
CONTINUOUS
 10
64.625
 20
25.0
 30
0.0
 42
1.0
  0
VERTEX
  8
0
  6
CONTINUOUS
 10
65.375
 20
25.0
 30
0.0
 42
1.0
  0
SEQEND
  8
0
  6
CONTINUOUS
  0
POLYLINE
  8
0
  6
CONTINUOUS
 66
     1
 10
0.0
 20
0.0
 30
0.0
 70
     1
 40
0.25
 41
0.25
 71
     2
 72
   151
  0
VERTEX
  8
0
  6
CONTINUOUS
 10
57.125
 20
32.5
 30
0.0
 42
1.0
  0
VERTEX
  8
0
  6
CONTINUOUS
 10
57.875
 20
32.5
 30
0.0
 42
1.0
  0
SEQEND
  8
0
  6
CONTINUOUS
  0
POLYLINE
  8
0
  6
CONTINUOUS
 66
     1
 10
0.0
 20
0.0
 30
0.0
 70
     1
 40
0.25
 41
0.25
 71
     2
 72
   151
  0
VERTEX
  8
0
  6
CONTINUOUS
 10
49.625
 20
40.0
 30
0.0
 42
1.0
  0
VERTEX
  8
0
  6
CONTINUOUS
 10
50.375
 20
40.0
 30
0.0
 42
1.0
  0
SEQEND
  8
0
  6
CONTINUOUS
  0
INSERT
  8
0
  6
CONTINUOUS
  2
BLC27
 10
66.491155
 20
-42.381569
 30
0.0
 50
180.0
  0
LINE
  8
0
  6
DASHED
 10
50.0
 20
-4.810008
 30
0.0
 11
42.5
 21
-4.810008
 31
0.0
  0
TEXT
  8
0
  6
CONTINUOUS
 10
13.732328
 20
38.985054
 30
0.0
 40
2.0
  1
L1(R)
 11
13.732328
 21
38.318387
 31
0.0
 73
     1
  0
TEXT
  8
0
  6
CONTINUOUS
 10
13.732328
 20
31.428359
 30
0.0
 40
2.0
  1
L2(S)
 11
13.732328
 21
30.761693
 31
0.0
 73
     1
  0
TEXT
  8
0
  6
CONTINUOUS
 10
13.732328
 20
24.006967
 30
0.0
 40
2.0
  1
L3(T)
 11
13.732328
 21
23.3403
 31
0.0
 73
     1
  0
LINE
  8
0
  6
DASHED
 10
0.0
 20
-40.0
 30
0.0
 11
65.0
 21
-40.0
 31
0.0
  0
LINE
  8
0
  6
DASHED
 10
0.0
 20
-50.0
 30
0.0
 11
10.0
 21
-50.0
 31
0.0
  0
LINE
  8
0
  6
DASHED
 10
0.0
 20
-30.0
 30
0.0
 11
10.0
 21
-30.0
 31
0.0
  0
LINE
  8
0
  6
DASHED
 10
0.0
 20
-20.0
 30
0.0
 11
57.5
 21
-20.0
 31
0.0
  0
LINE
  8
0
  6
DASHED
 10
0.0
 20
-10.0
 30
0.0
 11
10.0
 21
-10.0
 31
0.0
  0
LINE
  8
0
  6
DASHED
 10
0.0
 20
0.0
 30
0.0
 11
50.0
 21
0.0
 31
0.0
  0
ENDBLK
  8
0
  0
BLOCK
  8
0
  2
B71
 70
     0
 10
0.0
 20
0.0
 30
0.0
  3
B71
  0
LINE
  8
0
  6
DASHED
 10
25.0
 20
-67.5
 30
0.0
 11
36.243055
 21
-67.5
 31
0.0
  0
LINE
  8
0
  6
DASHED
 10
25.0
 20
-60.0
 30
0.0
 11
25.0
 21
-67.5
 31
0.0
  0
LINE
  8
0
  6
CONTINUOUS
 10
43.928175
 20
-62.082319
 30
0.0
 11
44.178175
 21
-62.332319
 31
0.0
  0
LINE
  8
0
  6
CONTINUOUS
 10
44.178175
 20
-62.332319
 30
0.0
 11
45.678175
 21
-62.332319
 31
0.0
  0
LINE
  8
0
  6
CONTINUOUS
 10
45.678175
 20
-62.332319
 30
0.0
 11
45.928175
 21
-62.082319
 31
0.0
  0
LINE
  8
0
  6
CONTINUOUS
 10
34.178175
 20
-62.332319
 30
0.0
 11
35.678175
 21
-62.332319
 31
0.0
  0
LINE
  8
0
  6
CONTINUOUS
 10
35.678175
 20
-62.332319
 30
0.0
 11
35.928175
 21
-62.082319
 31
0.0
  0
LINE
  8
0
  6
CONTINUOUS
 10
33.928175
 20
-62.082319
 30
0.0
 11
34.178175
 21
-62.332319
 31
0.0
  0
LINE
  8
0
  6
CONTINUOUS
 10
45.0
 20
-61.22468
 30
0.0
 11
45.0
 21
-65.0
 31
0.0
  0
LINE
  8
0
  6
CONTINUOUS
 10
44.134275
 20
-61.22468
 30
0.0
 11
45.798224
 21
-61.22468
 31
0.0
  0
LINE
  8
0
  6
CONTINUOUS
 10
44.134275
 20
-60.8432
 30
0.0
 11
45.798224
 21
-60.8432
 31
0.0
  0
LINE
  8
0
  6
CONTINUOUS
 10
35.0
 20
-60.8432
 30
0.0
 11
35.0
 21
-60.0
 31
0.0
  0
LINE
  8
0
  6
CONTINUOUS
 10
34.134275
 20
-61.22468
 30
0.0
 11
35.798224
 21
-61.22468
 31
0.0
  0
LINE
  8
0
  6
CONTINUOUS
 10
34.134275
 20
-60.8432
 30
0.0
 11
35.798224
 21
-60.8432
 31
0.0
  0
ARC
  8
0
 10
37.493055
 20
-64.907684
 30
0.0
 40
1.251733
 50
356.984476
 51
183.015524
  0
LINE
  8
0
 10
36.243055
 20
-64.973533
 30
0.0
 11
36.243055
 21
-67.5
 31
0.0
  0
LINE
  8
0
 10
38.743055
 20
-64.973533
 30
0.0
 11
38.743055
 21
-67.473533
 31
0.0
  0
LINE
  8
0
 10
38.743055
 20
-67.473533
 30
0.0
 11
38.743055
 21
-67.5
 31
0.0
  0
LINE
  8
0
 10
38.743055
 20
-67.473533
 30
0.0
 11
38.743055
 21
-67.5
 31
0.0
  0
LINE
  8
0
 10
43.743055
 20
-67.473533
 30
0.0
 11
43.743055
 21
-70.0
 31
0.0
  0
LINE
  8
0
 10
43.743055
 20
-64.973533
 30
0.0
 11
43.743055
 21
-67.473533
 31
0.0
  0
LINE
  8
0
 10
41.243055
 20
-64.973533
 30
0.0
 11
41.243055
 21
-67.473533
 31
0.0
  0
ARC
  8
0
 10
42.493055
 20
-64.907684
 30
0.0
 40
1.251733
 50
356.984476
 51
183.015524
  0
ARC
  8
0
 10
39.993055
 20
-64.907684
 30
0.0
 40
1.251733
 50
356.984476
 51
183.015524
  0
LINE
  8
0
 10
38.743055
 20
-64.973533
 30
0.0
 11
38.743055
 21
-67.473533
 31
0.0
  0
LINE
  8
0
  6
CONTINUOUS
 10
35.0
 20
-65.0
 30
0.0
 11
35.0
 21
-61.22468
 31
0.0
  0
LINE
  8
0
  6
CONTINUOUS
 10
45.0
 20
-65.0
 30
0.0
 11
35.0
 21
-65.0
 31
0.0
  0
LINE
  8
0
  6
CONTINUOUS
 10
45.0
 20
-60.0
 30
0.0
 11
45.0
 21
-60.8432
 31
0.0
  0
LINE
  8
0
  6
CONTINUOUS
 10
35.0
 20
-60.0
 30
0.0
 11
45.0
 21
-60.0
 31
0.0
  0
POLYLINE
  8
0
  6
CONTINUOUS
 66
     1
 10
0.0
 20
0.0
 30
0.0
 70
     1
 40
0.25
 41
0.25
 71
     2
 72
   151
  0
VERTEX
  8
0
  6
CONTINUOUS
 10
22.125
 20
-70.0
 30
0.0
 42
1.0
  0
VERTEX
  8
0
  6
CONTINUOUS
 10
22.875
 20
-70.0
 30
0.0
 42
1.0
  0
SEQEND
  8
0
  6
CONTINUOUS
  0
INSERT
  8
0
  6
DASHED
  2
BLC15
 10
22.357913
 20
-73.479912
 30
0.0
  0
INSERT
  8
0
  6
DASHED
  2
BLC15
 10
29.857913
 20
-55.979912
 30
0.0
  0
POLYLINE
  8
0
  6
DASHED
 66
     1
 10
0.0
 20
0.0
 30
0.0
 70
     1
 40
0.25
 41
0.25
 71
     2
 72
   151
  0
VERTEX
  8
0
  6
DASHED
 10
9.625295
 20
-29.999694
 30
0.0
 42
1.0
  0
VERTEX
  8
0
  6
DASHED
 10
10.375295
 20
-29.999694
 30
0.0
 42
1.0
  0
SEQEND
  8
0
  6
DASHED
  0
POLYLINE
  8
0
  6
DASHED
 66
     1
 10
0.0
 20
0.0
 30
0.0
 70
     1
 40
0.25
 41
0.25
 71
     2
 72
   151
  0
VERTEX
  8
0
  6
DASHED
 10
29.625
 20
-50.0
 30
0.0
 42
1.0
  0
VERTEX
  8
0
  6
DASHED
 10
30.375
 20
-50.0
 30
0.0
 42
1.0
  0
SEQEND
  8
0
  6
DASHED
  0
POLYLINE
  8
0
  6
DASHED
 66
     1
 10
0.0
 20
0.0
 30
0.0
 70
     1
 40
0.25
 41
0.25
 71
     2
 72
   151
  0
VERTEX
  8
0
  6
DASHED
 10
9.625
 20
-50.0
 30
0.0
 42
1.0
  0
VERTEX
  8
0
  6
DASHED
 10
10.375
 20
-50.0
 30
0.0
 42
1.0
  0
SEQEND
  8
0
  6
DASHED
  0
POLYLINE
  8
0
  6
DASHED
 66
     1
 10
0.0
 20
0.0
 30
0.0
 70
     1
 40
0.25
 41
0.25
 71
     2
 72
   151
  0
VERTEX
  8
0
  6
DASHED
 10
29.624825
 20
-44.809602
 30
0.0
 42
1.0
  0
VERTEX
  8
0
  6
DASHED
 10
30.374825
 20
-44.809602
 30
0.0
 42
1.0
  0
SEQEND
  8
0
  6
DASHED
  0
POLYLINE
  8
0
  6
DASHED
 66
     1
 10
0.0
 20
0.0
 30
0.0
 70
     1
 40
0.25
 41
0.25
 71
     2
 72
   151
  0
VERTEX
  8
0
  6
DASHED
 10
29.625159
 20
-24.809933
 30
0.0
 42
1.0
  0
VERTEX
  8
0
  6
DASHED
 10
30.375159
 20
-24.809933
 30
0.0
 42
1.0
  0
SEQEND
  8
0
  6
DASHED
  0
LINE
  8
0
  6
DASHED
 10
30.0
 20
-4.810008
 30
0.0
 11
30.0
 21
-52.5
 31
0.0
  0
LINE
  8
0
  6
DASHED
 10
10.0
 20
-10.0
 30
0.0
 11
10.0
 21
-50.0
 31
0.0
  0
POLYLINE
  8
0
  6
CONTINUOUS
 66
     1
 10
0.0
 20
0.0
 30
0.0
 70
     1
 40
0.25
 41
0.25
 71
     2
 72
   151
  0
VERTEX
  8
0
  6
CONTINUOUS
 10
34.625
 20
40.0
 30
0.0
 42
1.0
  0
VERTEX
  8
0
  6
CONTINUOUS
 10
35.375
 20
40.0
 30
0.0
 42
1.0
  0
SEQEND
  8
0
  6
CONTINUOUS
  0
POLYLINE
  8
0
  6
CONTINUOUS
 66
     1
 10
0.0
 20
0.0
 30
0.0
 70
     1
 40
0.25
 41
0.25
 71
     2
 72
   151
  0
VERTEX
  8
0
  6
CONTINUOUS
 10
39.625
 20
35.0
 30
0.0
 42
1.0
  0
VERTEX
  8
0
  6
CONTINUOUS
 10
40.375
 20
35.0
 30
0.0
 42
1.0
  0
SEQEND
  8
0
  6
CONTINUOUS
  0
POLYLINE
  8
0
  6
CONTINUOUS
 66
     1
 10
0.0
 20
0.0
 30
0.0
 70
     1
 40
0.25
 41
0.25
 71
     2
 72
   151
  0
VERTEX
  8
0
  6
CONTINUOUS
 10
44.625
 20
30.0
 30
0.0
 42
1.0
  0
VERTEX
  8
0
  6
CONTINUOUS
 10
45.375
 20
30.0
 30
0.0
 42
1.0
  0
SEQEND
  8
0
  6
CONTINUOUS
  0
LINE
  8
0
  6
DASHED
 10
45.006921
 20
-44.810016
 30
0.0
 11
30.0
 21
-44.810016
 31
0.0
  0
LINE
  8
0
  6
DASHED
 10
40.069797
 20
-24.810016
 30
0.0
 11
30.0
 21
-24.810016
 31
0.0
  0
LINE
  8
0
  6
DASHED
 10
35.0
 20
-27.5
 30
0.0
 11
35.0
 21
-52.5
 31
0.0
  0
LINE
  8
0
  6
DASHED
 10
40.0
 20
-27.5
 30
0.0
 11
40.0
 21
-60.0
 31
0.0
  0
LINE
  8
0
  6
DASHED
 10
45.0
 20
-27.5
 30
0.0
 11
45.0
 21
-52.5
 31
0.0
  0
INSERT
  8
0
  6
CONTINUOUS
  2
BLC27
 10
36.491154
 20
-2.381567
 30
0.0
 50
180.0
  0
LINE
  8
0
  6
DASHED
 10
35.0
 20
5.0
 30
0.0
 11
35.0
 21
-27.5
 31
0.0
  0
LINE
  8
0
  6
DASHED
 10
35.0
 20
12.5
 30
0.0
 11
35.0
 21
25.0
 31
0.0
  0
LINE
  8
0
  6
DASHED
 10
40.0
 20
25.0
 30
0.0
 11
40.0
 21
12.5
 31
0.0
  0
LINE
  8
0
  6
DASHED
 10
40.0
 20
5.0
 30
0.0
 11
40.0
 21
-27.5
 31
0.0
  0
LINE
  8
0
  6
DASHED
 10
45.0
 20
30.0
 30
0.0
 11
45.0
 21
12.5
 31
0.0
  0
LINE
  8
0
  6
DASHED
 10
45.0
 20
5.0
 30
0.0
 11
45.0
 21
-27.5
 31
0.0
  0
LINE
  8
0
  6
DASHED
 10
40.0
 20
25.0
 30
0.0
 11
40.0
 21
35.0
 31
0.0
  0
LINE
  8
0
  6
DASHED
 10
35.0
 20
25.0
 30
0.0
 11
35.0
 21
40.0
 31
0.0
  0
INSERT
  8
0
  6
CONTINUOUS
  2
BLC27
 10
41.491158
 20
-22.38157
 30
0.0
 50
180.0
  0
LINE
  8
0
  6
CONTINUOUS
 10
35.0
 20
5.0
 30
0.0
 11
32.5
 21
12.5
 31
0.0
  0
LINE
  8
0
  6
CONTINUOUS
 10
40.0
 20
5.0
 30
0.0
 11
37.5
 21
12.5
 31
0.0
  0
LINE
  8
0
  6
CONTINUOUS
 10
45.0
 20
5.0
 30
0.0
 11
42.5
 21
12.5
 31
0.0
  0
LINE
  8
0
  6
CONTINUOUS
 10
35.0
 20
12.5
 30
0.0
 11
34.5
 21
13.0
 31
0.0
  0
LINE
  8
0
  6
CONTINUOUS
 10
35.0
 20
12.5
 30
0.0
 11
35.5
 21
12.0
 31
0.0
  0
LINE
  8
0
  6
CONTINUOUS
 10
35.0
 20
12.5
 30
0.0
 11
35.5
 21
13.0
 31
0.0
  0
LINE
  8
0
  6
CONTINUOUS
 10
35.0
 20
12.5
 30
0.0
 11
34.5
 21
12.0
 31
0.0
  0
LINE
  8
0
  6
CONTINUOUS
 10
40.0
 20
12.5
 30
0.0
 11
40.5
 21
13.0
 31
0.0
  0
LINE
  8
0
  6
CONTINUOUS
 10
40.0
 20
12.5
 30
0.0
 11
40.5
 21
12.0
 31
0.0
  0
LINE
  8
0
  6
CONTINUOUS
 10
40.0
 20
12.5
 30
0.0
 11
39.5
 21
12.0
 31
0.0
  0
LINE
  8
0
  6
CONTINUOUS
 10
40.0
 20
12.5
 30
0.0
 11
39.5
 21
13.0
 31
0.0
  0
LINE
  8
0
  6
CONTINUOUS
 10
45.0
 20
12.5
 30
0.0
 11
45.5
 21
12.0
 31
0.0
  0
LINE
  8
0
  6
CONTINUOUS
 10
45.0
 20
12.5
 30
0.0
 11
45.5
 21
13.0
 31
0.0
  0
LINE
  8
0
  6
CONTINUOUS
 10
45.0
 20
12.5
 30
0.0
 11
44.5
 21
13.0
 31
0.0
  0
LINE
  8
0
  6
CONTINUOUS
 10
45.0
 20
12.5
 30
0.0
 11
44.5
 21
12.0
 31
0.0
  0
INSERT
  8
0
  6
CONTINUOUS
  2
BLC27
 10
46.491155
 20
-42.381569
 30
0.0
 50
180.0
  0
LINE
  8
0
  6
DASHED
 10
35.0
 20
-4.810008
 30
0.0
 11
30.0
 21
-4.810008
 31
0.0
  0
TEXT
  8
0
  6
CONTINUOUS
 10
13.732328
 20
38.985054
 30
0.0
 40
2.0
  1
L1(R)
 11
13.732328
 21
38.318387
 31
0.0
 73
     1
  0
TEXT
  8
0
  6
CONTINUOUS
 10
13.732328
 20
33.928359
 30
0.0
 40
2.0
  1
L2(S)
 11
13.732328
 21
33.261693
 31
0.0
 73
     1
  0
TEXT
  8
0
  6
CONTINUOUS
 10
13.732328
 20
29.006967
 30
0.0
 40
2.0
  1
L3(T)
 11
13.732328
 21
28.3403
 31
0.0
 73
     1
  0
LINE
  8
0
  6
DASHED
 10
0.0
 20
-70.0
 30
0.0
 11
43.743055
 21
-70.0
 31
0.0
  0
LINE
  8
0
  6
DASHED
 10
0.0
 20
-60.0
 30
0.0
 11
25.0
 21
-60.0
 31
0.0
  0
LINE
  8
0
  6
DASHED
 10
0.0
 20
-50.0
 30
0.0
 11
30.0
 21
-50.0
 31
0.0
  0
LINE
  8
0
  6
DASHED
 10
0.0
 20
-40.0
 30
0.0
 11
45.0
 21
-40.0
 31
0.0
  0
LINE
  8
0
  6
DASHED
 10
0.0
 20
-30.0
 30
0.0
 11
10.0
 21
-30.0
 31
0.0
  0
LINE
  8
0
  6
DASHED
 10
0.0
 20
-20.0
 30
0.0
 11
40.0
 21
-20.0
 31
0.0
  0
LINE
  8
0
  6
DASHED
 10
0.0
 20
-10.0
 30
0.0
 11
10.0
 21
-10.0
 31
0.0
  0
LINE
  8
0
  6
DASHED
 10
0.0
 20
0.0
 30
0.0
 11
35.0
 21
0.0
 31
0.0
  0
LINE
  8
0
  6
DASHED
 10
80.0
 20
30.0
 30
0.0
 11
22.5
 21
30.0
 31
0.0
  0
LINE
  8
0
  6
DASHED
 10
80.0
 20
35.0
 30
0.0
 11
22.5
 21
35.0
 31
0.0
  0
LINE
  8
0
  6
DASHED
 10
80.0
 20
40.0
 30
0.0
 11
22.5
 21
40.0
 31
0.0
  0
ENDBLK
  8
0
  0
BLOCK
  8
0
  2
B37
 70
     0
 10
0.0
 20
0.0
 30
0.0
  3
B37
  0
CIRCLE
  8
BASE
  6
CONTINUOUS
 10
0.0
 20
0.741055
 30
0.0
 40
0.740939
  0
LINE
  8
BASE
  6
CONTINUOUS
 10
-0.006589
 20
1.481965
 30
0.0
 11
2.301993
 21
7.799404
 31
0.0
  0
LINE
  8
BASE
  6
CONTINUOUS
 10
2.301993
 20
7.799404
 30
0.0
 11
1.56226
 21
8.170978
 31
0.0
  0
LINE
  8
BASE
  6
CONTINUOUS
 10
0.0
 20
7.5
 30
0.0
 11
2.5
 21
7.5
 31
0.0
  0
ENDBLK
  8
0
  0
BLOCK
  8
0
  2
B114
 70
     0
 10
0.0
 20
0.0
 30
0.0
  3
B114
  0
LINE
  8
BASE
  6
CONTINUOUS
 10
1.78724
 20
-7.796705
 30
0.0
 11
2.674127
 21
-7.796705
 31
0.0
  0
LINE
  8
BASE
  6
CONTINUOUS
 10
1.456135
 20
-7.30853
 30
0.0
 11
3.040706
 21
-7.30853
 31
0.0
  0
LINE
  8
BASE
  6
CONTINUOUS
 10
2.272071
 20
-6.82892
 30
0.0
 11
3.466412
 21
-6.82892
 31
0.0
  0
LINE
  8
BASE
  6
CONTINUOUS
 10
1.07773
 20
-6.82892
 30
0.0
 11
2.272071
 21
-6.82892
 31
0.0
  0
LINE
  8
BASE
  6
CONTINUOUS
 10
2.287958
 20
-5.47465
 30
0.0
 11
2.287958
 21
-6.82892
 31
0.0
  0
TEXT
  8
BASE
  6
CONTINUOUS
 10
-0.664068
 20
-7.51848
 30
0.0
 40
2.5
  1
I
 11
-0.664068
 21
-8.351813
 31
0.0
 73
     1
  0
INSERT
  8
BASE
  6
CONTINUOUS
  2
BLC29
 10
6.408728
 20
-3.649613
 30
0.0
  0
LINE
  8
BASE
  6
CONTINUOUS
 10
-1.054336
 20
-3.78219
 30
0.0
 11
5.899413
 21
-3.78219
 31
0.0
  0
TEXT
  8
BASE
  6
CONTINUOUS
 10
1.258508
 20
-2.525867
 30
0.0
 40
2.0
  1
2f
  0
TEXT
  8
BASE
  6
CONTINUOUS
 10
-0.664068
 20
-2.460129
 30
0.0
 40
2.5
  1
I
 11
-0.664068
 21
-3.293463
 31
0.0
 73
     1
  0
LINE
  8
BASE
  6
CONTINUOUS
 10
6.463026
 20
4.375053
 30
0.0
 11
4.11726
 21
3.185134
 31
0.0
  0
LINE
  8
BASE
  6
CONTINUOUS
 10
4.11726
 20
5.710407
 30
0.0
 11
6.463026
 21
4.375053
 31
0.0
  0
TEXT
  8
BASE
  6
CONTINUOUS
 10
-0.664068
 20
3.656177
 30
0.0
 40
2.5
  1
I
 11
-0.664068
 21
2.822844
 31
0.0
 73
     1
  0
LINE
  8
BASE
  6
CONTINUOUS
 10
2.287958
 20
5.700007
 30
0.0
 11
2.287958
 21
4.345737
 31
0.0
  0
LINE
  8
BASE
  6
CONTINUOUS
 10
1.07773
 20
4.345737
 30
0.0
 11
2.272071
 21
4.345737
 31
0.0
  0
LINE
  8
BASE
  6
CONTINUOUS
 10
2.272071
 20
4.345737
 30
0.0
 11
3.466412
 21
4.345737
 31
0.0
  0
LINE
  8
BASE
  6
CONTINUOUS
 10
1.456135
 20
3.866126
 30
0.0
 11
3.040706
 21
3.866126
 31
0.0
  0
LINE
  8
BASE
  6
CONTINUOUS
 10
1.78724
 20
3.377952
 30
0.0
 11
2.674127
 21
3.377952
 31
0.0
  0
ENDBLK
  8
0
  0
BLOCK
  8
0
  2
B72
 70
     0
 10
0.0
 20
0.0
 30
0.0
  3
B72
  0
TEXT
  8
0
  6
CONTINUOUS
 10
0.368306
 20
-79.326509
 30
0.0
 40
2.0
  1
9)
  0
TEXT
  8
0
  6
CONTINUOUS
 10
0.368306
 20
-59.268761
 30
0.0
 40
2.0
  1
9)
  0
TEXT
  8
0
  6
CONTINUOUS
 10
0.368306
 20
-39.436432
 30
0.0
 40
2.0
  1
9)
  0
TEXT
  8
0
  6
CONTINUOUS
 10
0.368306
 20
-19.248633
 30
0.0
 40
2.0
  1
9)
  0
TEXT
  8
0
  6
CONTINUOUS
 10
0.368306
 20
0.791776
 30
0.0
 40
2.0
  1
9)
  0
LINE
  8
0
  6
CONTINUOUS
 10
0.0
 20
-79.6532
 30
0.0
 11
0.0
 21
-85.33813
 31
0.0
  0
LINE
  8
0
  6
CONTINUOUS
 10
0.0
 20
-85.33813
 30
0.0
 11
-1.0
 21
-86.33813
 31
0.0
  0
LINE
  8
0
  6
CONTINUOUS
 10
0.0
 20
-79.6532
 30
0.0
 11
-1.0
 21
-78.6532
 31
0.0
  0
LINE
  8
0
  6
CONTINUOUS
 10
0.0
 20
-59.6532
 30
0.0
 11
-1.0
 21
-58.6532
 31
0.0
  0
LINE
  8
0
  6
CONTINUOUS
 10
0.0
 20
-65.33813
 30
0.0
 11
-1.0
 21
-66.33813
 31
0.0
  0
LINE
  8
0
  6
CONTINUOUS
 10
0.0
 20
-59.6532
 30
0.0
 11
0.0
 21
-65.33813
 31
0.0
  0
LINE
  8
0
  6
CONTINUOUS
 10
0.0
 20
-39.6532
 30
0.0
 11
0.0
 21
-45.33813
 31
0.0
  0
LINE
  8
0
  6
CONTINUOUS
 10
0.0
 20
-45.33813
 30
0.0
 11
-1.0
 21
-46.33813
 31
0.0
  0
LINE
  8
0
  6
CONTINUOUS
 10
0.0
 20
-39.6532
 30
0.0
 11
-1.0
 21
-38.6532
 31
0.0
  0
LINE
  8
0
  6
CONTINUOUS
 10
0.0
 20
-19.6532
 30
0.0
 11
-1.0
 21
-18.6532
 31
0.0
  0
LINE
  8
0
  6
CONTINUOUS
 10
0.0
 20
-25.33813
 30
0.0
 11
-1.0
 21
-26.33813
 31
0.0
  0
LINE
  8
0
  6
CONTINUOUS
 10
0.0
 20
-19.6532
 30
0.0
 11
0.0
 21
-25.33813
 31
0.0
  0
LINE
  8
0
  6
CONTINUOUS
 10
0.0
 20
0.3468
 30
0.0
 11
0.0
 21
-5.33813
 31
0.0
  0
LINE
  8
0
  6
CONTINUOUS
 10
0.0
 20
-5.33813
 30
0.0
 11
-1.0
 21
-6.33813
 31
0.0
  0
LINE
  8
0
  6
CONTINUOUS
 10
0.0
 20
0.3468
 30
0.0
 11
-1.0
 21
1.3468
 31
0.0
  0
LINE
  8
0
  6
DASHED
 10
30.0
 20
-77.5
 30
0.0
 11
30.0
 21
-102.5
 31
0.0
  0
LINE
  8
0
  6
DASHED
 10
52.5
 20
-90.0
 30
0.0
 11
52.5
 21
0.0
 31
0.0
  0
LINE
  8
0
  6
DASHED
 10
60.0
 20
-80.0
 30
0.0
 11
60.0
 21
-12.5
 31
0.0
  0
LINE
  8
0
  6
DASHED
 10
0.0
 20
-80.0
 30
0.0
 11
60.0
 21
-80.0
 31
0.0
  0
LINE
  8
0
  6
CONTINUOUS
 10
57.5
 20
0.0
 30
0.0
 11
52.5
 21
7.5
 31
0.0
  0
LINE
  8
0
  6
CONTINUOUS
 10
60.0
 20
0.0
 30
0.0
 11
57.5
 21
0.0
 31
0.0
  0
LINE
  8
0
  6
CONTINUOUS
 10
51.506031
 20
5.098556
 30
0.0
 11
52.478167
 21
5.098556
 31
0.0
  0
LINE
  8
0
  6
CONTINUOUS
 10
51.496128
 20
7.499996
 30
0.0
 11
52.473936
 21
7.499996
 31
0.0
  0
LINE
  8
0
  6
CONTINUOUS
 10
51.500897
 20
2.68998
 30
0.0
 11
52.5
 21
2.68998
 31
0.0
  0
ARC
  8
0
  6
CONTINUOUS
 10
50.864862
 20
3.894238
 30
0.0
 40
1.204309
 50
90.0
 51
270.0
  0
LINE
  8
0
  6
CONTINUOUS
 10
50.859898
 20
2.689937
 30
0.0
 11
51.509496
 21
2.689937
 31
0.0
  0
LINE
  8
0
  6
CONTINUOUS
 10
50.858762
 20
7.499993
 30
0.0
 11
51.502261
 21
7.499993
 31
0.0
  0
LINE
  8
0
  6
CONTINUOUS
 10
50.858762
 20
5.098547
 30
0.0
 11
51.50836
 21
5.098547
 31
0.0
  0
ARC
  8
0
  6
CONTINUOUS
 10
50.864862
 20
6.296095
 30
0.0
 40
1.204309
 50
90.0
 51
265.706237
  0
LINE
  8
0
  6
CONTINUOUS
 10
59.006031
 20
5.098556
 30
0.0
 11
59.978167
 21
5.098556
 31
0.0
  0
LINE
  8
0
  6
CONTINUOUS
 10
58.996128
 20
7.499996
 30
0.0
 11
59.973936
 21
7.499996
 31
0.0
  0
LINE
  8
0
  6
CONTINUOUS
 10
59.000897
 20
2.68998
 30
0.0
 11
60.0
 21
2.68998
 31
0.0
  0
ARC
  8
0
  6
CONTINUOUS
 10
58.364862
 20
3.894238
 30
0.0
 40
1.204309
 50
90.0
 51
270.0
  0
LINE
  8
0
  6
CONTINUOUS
 10
58.359898
 20
2.689937
 30
0.0
 11
59.009496
 21
2.689937
 31
0.0
  0
LINE
  8
0
  6
CONTINUOUS
 10
58.358762
 20
7.499993
 30
0.0
 11
59.002261
 21
7.499993
 31
0.0
  0
LINE
  8
0
  6
CONTINUOUS
 10
58.358762
 20
5.098547
 30
0.0
 11
59.00836
 21
5.098547
 31
0.0
  0
ARC
  8
0
  6
CONTINUOUS
 10
58.364862
 20
6.296095
 30
0.0
 40
1.204309
 50
90.0
 51
265.706237
  0
LINE
  8
0
  6
CONTINUOUS
 10
60.0
 20
2.68998
 30
0.0
 11
60.0
 21
0.0
 31
0.0
  0
LINE
  8
0
  6
CONTINUOUS
 10
52.5
 20
2.68998
 30
0.0
 11
52.5
 21
0.0
 31
0.0
  0
POLYLINE
  8
0
  6
DASHED
 66
     1
 10
0.0
 20
0.0
 30
0.0
 70
     1
 40
0.25
 41
0.25
 71
     2
 72
   151
  0
VERTEX
  8
0
  6
DASHED
 10
59.625
 20
35.0
 30
0.0
 42
1.0
  0
VERTEX
  8
0
  6
DASHED
 10
60.375
 20
35.0
 30
0.0
 42
1.0
  0
SEQEND
  8
0
  6
DASHED
  0
POLYLINE
  8
0
  6
DASHED
 66
     1
 10
0.0
 20
0.0
 30
0.0
 70
     1
 40
0.25
 41
0.25
 71
     2
 72
   151
  0
VERTEX
  8
0
  6
DASHED
 10
52.125
 20
40.0
 30
0.0
 42
1.0
  0
VERTEX
  8
0
  6
DASHED
 10
52.875
 20
40.0
 30
0.0
 42
1.0
  0
SEQEND
  8
0
  6
DASHED
  0
LINE
  8
0
  6
DASHED
 10
60.0
 20
17.5
 30
0.0
 11
60.0
 21
35.0
 31
0.0
  0
LINE
  8
0
  6
DASHED
 10
52.5
 20
17.5
 30
0.0
 11
52.5
 21
40.0
 31
0.0
  0
INSERT
  8
0
  6
CONTINUOUS
  2
BLC27
 10
58.465932
 20
15.071549
 30
0.0
  0
INSERT
  8
0
  6
CONTINUOUS
  2
BLC27
 10
50.965932
 20
15.071549
 30
0.0
  0
POLYLINE
  8
0
  6
DASHED
 66
     1
 10
0.0
 20
0.0
 30
0.0
 70
     1
 40
0.25
 41
0.25
 71
     2
 72
   151
  0
VERTEX
  8
0
  6
DASHED
 10
19.623777
 20
-50.00007
 30
0.0
 42
1.0
  0
VERTEX
  8
0
  6
DASHED
 10
20.373777
 20
-50.00007
 30
0.0
 42
1.0
  0
SEQEND
  8
0
  6
DASHED
  0
POLYLINE
  8
0
  6
DASHED
 66
     1
 10
0.0
 20
0.0
 30
0.0
 70
     1
 40
0.25
 41
0.25
 71
     2
 72
   151
  0
VERTEX
  8
0
  6
DASHED
 10
19.624033
 20
-44.810354
 30
0.0
 42
1.0
  0
VERTEX
  8
0
  6
DASHED
 10
20.374033
 20
-44.810354
 30
0.0
 42
1.0
  0
SEQEND
  8
0
  6
DASHED
  0
POLYLINE
  8
0
  6
DASHED
 66
     1
 10
0.0
 20
0.0
 30
0.0
 70
     1
 40
0.25
 41
0.25
 71
     2
 72
   151
  0
VERTEX
  8
0
  6
DASHED
 10
19.624166
 20
-24.809666
 30
0.0
 42
1.0
  0
VERTEX
  8
0
  6
DASHED
 10
20.374166
 20
-24.809666
 30
0.0
 42
1.0
  0
SEQEND
  8
0
  6
DASHED
  0
LINE
  8
0
  6
DASHED
 10
35.0
 20
-40.0
 30
0.0
 11
0.0
 21
-40.0
 31
0.0
  0
LINE
  8
0
  6
DASHED
 10
30.0
 20
-20.0
 30
0.0
 11
0.0
 21
-20.0
 31
0.0
  0
LINE
  8
0
  6
DASHED
 10
25.0
 20
0.0
 30
0.0
 11
0.0
 21
0.0
 31
0.0
  0
LINE
  8
0
  6
DASHED
 10
27.5
 20
-70.0
 30
0.0
 11
30.0
 21
-70.0
 31
0.0
  0
LINE
  8
0
  6
DASHED
 10
30.0
 20
-70.0
 30
0.0
 11
30.0
 21
-70.0
 31
0.0
  0
LINE
  8
0
  6
DASHED
 10
17.5
 20
-65.189984
 30
0.0
 11
30.0
 21
-65.189984
 31
0.0
  0
LINE
  8
0
  6
CONTINUOUS
 10
27.5
 20
-67.59856
 30
0.0
 11
30.0
 21
-67.59856
 31
0.0
  0
INSERT
  8
0
  6
CONTINUOUS
  2
BLC27
 10
31.49116
 20
-67.571554
 30
0.0
 50
180.0
  0
LINE
  8
0
  6
DASHED
 10
17.5
 20
-75.0
 30
0.0
 11
17.5
 21
-70.0
 31
0.0
  0
INSERT
  8
0
  6
CONTINUOUS
  2
BLC15
 10
17.357916
 20
-77.5
 30
0.0
  0
POLYLINE
  8
0
  6
DASHED
 66
     1
 10
0.0
 20
0.0
 30
0.0
 70
     1
 40
0.25
 41
0.25
 71
     2
 72
   151
  0
VERTEX
  8
0
  6
DASHED
 10
27.125
 20
-52.5
 30
0.0
 42
1.0
  0
VERTEX
  8
0
  6
DASHED
 10
27.875
 20
-52.5
 30
0.0
 42
1.0
  0
SEQEND
  8
0
  6
DASHED
  0
LINE
  8
0
  6
DASHED
 10
27.5
 20
-52.5
 30
0.0
 11
27.5
 21
-75.0
 31
0.0
  0
LINE
  8
0
  6
CONTINUOUS
 10
30.0
 20
-57.5
 30
0.0
 11
30.0
 21
-77.5
 31
0.0
  0
LINE
  8
0
  6
CONTINUOUS
 10
30.0
 20
-57.5
 30
0.0
 11
32.5
 21
-52.5
 31
0.0
  0
LINE
  8
0
  6
CONTINUOUS
 10
27.5
 20
-52.5
 30
0.0
 11
30.0
 21
-57.5
 31
0.0
  0
LINE
  8
0
  6
CONTINUOUS
 10
25.0
 20
-52.5
 30
0.0
 11
35.0
 21
-52.5
 31
0.0
  0
LINE
  8
0
  6
DASHED
 10
20.0
 20
-4.810008
 30
0.0
 11
20.0
 21
-52.5
 31
0.0
  0
POLYLINE
  8
0
  6
DASHED
 66
     1
 10
0.0
 20
0.0
 30
0.0
 70
     1
 40
0.25
 41
0.25
 71
     2
 72
   251
  0
VERTEX
  8
0
  6
DASHED
 10
17.125
 20
-70.0
 30
0.0
 42
1.0
  0
VERTEX
  8
0
  6
DASHED
 10
17.875
 20
-70.0
 30
0.0
 42
1.0
  0
SEQEND
  8
0
  6
DASHED
  0
INSERT
  8
0
  6
CONTINUOUS
  2
BLC15
 10
27.357916
 20
-77.5
 30
0.0
  0
LINE
  8
0
  6
DASHED
 10
17.5
 20
-60.0
 30
0.0
 11
17.5
 21
-65.189984
 31
0.0
  0
LINE
  8
0
  6
DASHED
 10
0.0
 20
-60.0
 30
0.0
 11
17.5
 21
-60.0
 31
0.0
  0
LINE
  8
0
  6
DASHED
 10
5.0
 20
-10.0
 30
0.0
 11
5.0
 21
-50.0
 31
0.0
  0
LINE
  8
0
  6
DASHED
 10
35.006921
 20
-44.810016
 30
0.0
 11
20.0
 21
-44.810016
 31
0.0
  0
LINE
  8
0
  6
DASHED
 10
30.069797
 20
-24.810016
 30
0.0
 11
20.0
 21
-24.810016
 31
0.0
  0
POLYLINE
  8
0
  6
DASHED
 66
     1
 10
0.0
 20
0.0
 30
0.0
 70
     1
 40
0.25
 41
0.25
 71
     2
 72
   151
  0
VERTEX
  8
0
  6
DASHED
 10
4.625
 20
-50.0
 30
0.0
 42
1.0
  0
VERTEX
  8
0
  6
DASHED
 10
5.375
 20
-50.0
 30
0.0
 42
1.0
  0
SEQEND
  8
0
  6
DASHED
  0
POLYLINE
  8
0
  6
DASHED
 66
     1
 10
0.0
 20
0.0
 30
0.0
 70
     1
 40
0.25
 41
0.25
 71
     2
 72
   151
  0
VERTEX
  8
0
  6
DASHED
 10
4.625
 20
-30.0
 30
0.0
 42
1.0
  0
VERTEX
  8
0
  6
DASHED
 10
5.375
 20
-30.0
 30
0.0
 42
1.0
  0
SEQEND
  8
0
  6
DASHED
  0
LINE
  8
0
  6
DASHED
 10
25.0
 20
-27.5
 30
0.0
 11
25.0
 21
-52.5
 31
0.0
  0
LINE
  8
0
  6
DASHED
 10
30.0
 20
-27.5
 30
0.0
 11
30.0
 21
-52.5
 31
0.0
  0
LINE
  8
0
  6
DASHED
 10
35.0
 20
-27.5
 30
0.0
 11
35.0
 21
-52.5
 31
0.0
  0
INSERT
  8
0
  6
CONTINUOUS
  2
BLC15
 10
19.857916
 20
-55.0
 30
0.0
  0
INSERT
  8
0
  6
CONTINUOUS
  2
BLC27
 10
26.491154
 20
-2.381567
 30
0.0
 50
180.0
  0
LINE
  8
0
  6
DASHED
 10
25.0
 20
5.0
 30
0.0
 11
25.0
 21
-27.5
 31
0.0
  0
LINE
  8
0
  6
DASHED
 10
25.0
 20
12.5
 30
0.0
 11
25.0
 21
25.0
 31
0.0
  0
LINE
  8
0
  6
DASHED
 10
30.0
 20
35.0
 30
0.0
 11
30.0
 21
12.5
 31
0.0
  0
LINE
  8
0
  6
DASHED
 10
30.0
 20
5.0
 30
0.0
 11
30.0
 21
-27.5
 31
0.0
  0
LINE
  8
0
  6
DASHED
 10
35.0
 20
30.0
 30
0.0
 11
35.0
 21
12.5
 31
0.0
  0
LINE
  8
0
  6
DASHED
 10
35.0
 20
5.0
 30
0.0
 11
35.0
 21
-27.5
 31
0.0
  0
LINE
  8
0
  6
DASHED
 10
30.0
 20
25.0
 30
0.0
 11
30.0
 21
32.5
 31
0.0
  0
LINE
  8
0
  6
DASHED
 10
25.0
 20
25.0
 30
0.0
 11
25.0
 21
40.0
 31
0.0
  0
INSERT
  8
0
  6
CONTINUOUS
  2
BLC27
 10
31.51227
 20
-22.38157
 30
0.0
 50
180.0
  0
LINE
  8
0
  6
CONTINUOUS
 10
25.0
 20
5.0
 30
0.0
 11
22.5
 21
12.5
 31
0.0
  0
LINE
  8
0
  6
CONTINUOUS
 10
30.0
 20
5.0
 30
0.0
 11
27.5
 21
12.5
 31
0.0
  0
LINE
  8
0
  6
CONTINUOUS
 10
35.0
 20
5.0
 30
0.0
 11
32.5
 21
12.5
 31
0.0
  0
LINE
  8
0
  6
CONTINUOUS
 10
25.0
 20
12.5
 30
0.0
 11
24.5
 21
13.0
 31
0.0
  0
LINE
  8
0
  6
CONTINUOUS
 10
25.0
 20
12.5
 30
0.0
 11
25.5
 21
12.0
 31
0.0
  0
LINE
  8
0
  6
CONTINUOUS
 10
25.0
 20
12.5
 30
0.0
 11
25.5
 21
13.0
 31
0.0
  0
LINE
  8
0
  6
CONTINUOUS
 10
25.0
 20
12.5
 30
0.0
 11
24.5
 21
12.0
 31
0.0
  0
LINE
  8
0
  6
CONTINUOUS
 10
30.0
 20
12.5
 30
0.0
 11
30.5
 21
13.0
 31
0.0
  0
LINE
  8
0
  6
CONTINUOUS
 10
30.0
 20
12.5
 30
0.0
 11
30.5
 21
12.0
 31
0.0
  0
LINE
  8
0
  6
CONTINUOUS
 10
30.0
 20
12.5
 30
0.0
 11
29.5
 21
12.0
 31
0.0
  0
LINE
  8
0
  6
CONTINUOUS
 10
30.0
 20
12.5
 30
0.0
 11
29.5
 21
13.0
 31
0.0
  0
LINE
  8
0
  6
CONTINUOUS
 10
35.0
 20
12.5
 30
0.0
 11
35.5
 21
12.0
 31
0.0
  0
LINE
  8
0
  6
CONTINUOUS
 10
35.0
 20
12.5
 30
0.0
 11
35.5
 21
13.0
 31
0.0
  0
LINE
  8
0
  6
CONTINUOUS
 10
35.0
 20
12.5
 30
0.0
 11
34.5
 21
13.0
 31
0.0
  0
LINE
  8
0
  6
CONTINUOUS
 10
35.0
 20
12.5
 30
0.0
 11
34.5
 21
12.0
 31
0.0
  0
POLYLINE
  8
0
  6
CONTINUOUS
 66
     1
 10
0.0
 20
0.0
 30
0.0
 70
     1
 40
0.25
 41
0.25
 71
     2
 72
   151
  0
VERTEX
  8
0
  6
CONTINUOUS
 10
34.625
 20
30.0
 30
0.0
 42
1.0
  0
VERTEX
  8
0
  6
CONTINUOUS
 10
35.375
 20
30.0
 30
0.0
 42
1.0
  0
SEQEND
  8
0
  6
CONTINUOUS
  0
POLYLINE
  8
0
  6
CONTINUOUS
 66
     1
 10
0.0
 20
0.0
 30
0.0
 70
     1
 40
0.25
 41
0.25
 71
     2
 72
   151
  0
VERTEX
  8
0
  6
CONTINUOUS
 10
29.625
 20
35.0
 30
0.0
 42
1.0
  0
VERTEX
  8
0
  6
CONTINUOUS
 10
30.375
 20
35.0
 30
0.0
 42
1.0
  0
SEQEND
  8
0
  6
CONTINUOUS
  0
POLYLINE
  8
0
  6
CONTINUOUS
 66
     1
 10
0.0
 20
0.0
 30
0.0
 70
     1
 40
0.25
 41
0.25
 71
     2
 72
   151
  0
VERTEX
  8
0
  6
CONTINUOUS
 10
24.625
 20
40.0
 30
0.0
 42
1.0
  0
VERTEX
  8
0
  6
CONTINUOUS
 10
25.375
 20
40.0
 30
0.0
 42
1.0
  0
SEQEND
  8
0
  6
CONTINUOUS
  0
INSERT
  8
0
  6
CONTINUOUS
  2
BLC27
 10
36.491155
 20
-42.381569
 30
0.0
 50
180.0
  0
LINE
  8
0
  6
DASHED
 10
25.0
 20
-4.810008
 30
0.0
 11
20.0
 21
-4.810008
 31
0.0
  0
TEXT
  8
0
  6
CONTINUOUS
 10
8.732328
 20
38.985054
 30
0.0
 40
2.0
  1
L1(R)
 11
8.732328
 21
38.318387
 31
0.0
 73
     1
  0
TEXT
  8
0
  6
CONTINUOUS
 10
8.732328
 20
33.928359
 30
0.0
 40
2.0
  1
L2(S)
 11
8.732328
 21
33.261693
 31
0.0
 73
     1
  0
TEXT
  8
0
  6
CONTINUOUS
 10
8.732328
 20
29.006967
 30
0.0
 40
2.0
  1
L3(T)
 11
8.732328
 21
28.3403
 31
0.0
 73
     1
  0
LINE
  8
0
  6
DASHED
 10
-5.0
 20
-90.0
 30
0.0
 11
52.5
 21
-90.0
 31
0.0
  0
LINE
  8
0
  6
CONTINUOUS
 10
-5.0
 20
-85.0
 30
0.0
 11
-2.5
 21
-85.0
 31
0.0
  0
LINE
  8
0
  6
CONTINUOUS
 10
-5.0
 20
-80.0
 30
0.0
 11
-2.5
 21
-80.0
 31
0.0
  0
LINE
  8
0
  6
DASHED
 10
-5.0
 20
-70.0
 30
0.0
 11
27.5
 21
-70.0
 31
0.0
  0
LINE
  8
0
  6
CONTINUOUS
 10
-5.0
 20
-65.0
 30
0.0
 11
-2.5
 21
-65.0
 31
0.0
  0
LINE
  8
0
  6
CONTINUOUS
 10
-5.0
 20
-60.0
 30
0.0
 11
-2.5
 21
-60.0
 31
0.0
  0
LINE
  8
0
  6
DASHED
 10
-5.0
 20
-50.0
 30
0.0
 11
20.0
 21
-50.0
 31
0.0
  0
LINE
  8
0
  6
CONTINUOUS
 10
-5.0
 20
-45.0
 30
0.0
 11
-2.5
 21
-45.0
 31
0.0
  0
LINE
  8
0
  6
CONTINUOUS
 10
-5.0
 20
-40.0
 30
0.0
 11
-2.5
 21
-40.0
 31
0.0
  0
LINE
  8
0
  6
DASHED
 10
-5.0
 20
-30.0
 30
0.0
 11
5.0
 21
-30.0
 31
0.0
  0
LINE
  8
0
  6
CONTINUOUS
 10
-5.0
 20
-25.0
 30
0.0
 11
-2.5
 21
-25.0
 31
0.0
  0
LINE
  8
0
  6
CONTINUOUS
 10
-5.0
 20
-20.0
 30
0.0
 11
-2.5
 21
-20.0
 31
0.0
  0
LINE
  8
0
  6
DASHED
 10
-5.0
 20
-10.0
 30
0.0
 11
5.0
 21
-10.0
 31
0.0
  0
LINE
  8
0
  6
CONTINUOUS
 10
-5.0
 20
-5.0
 30
0.0
 11
-2.5
 21
-5.0
 31
0.0
  0
LINE
  8
0
  6
CONTINUOUS
 10
-5.0
 20
0.0
 30
0.0
 11
-2.5
 21
0.0
 31
0.0
  0
POLYLINE
  8
0
  6
DASHED
 66
     1
 10
0.0
 20
0.0
 30
0.0
 70
     1
 40
0.25
 41
0.25
 71
     2
 72
   151
  0
VERTEX
  8
0
  6
DASHED
 10
77.125
 20
7.5
 30
0.0
 42
1.0
  0
VERTEX
  8
0
  6
DASHED
 10
77.875
 20
7.5
 30
0.0
 42
1.0
  0
SEQEND
  8
0
  6
DASHED
  0
LINE
  8
0
  6
DASHED
 10
77.5
 20
-12.5
 30
0.0
 11
77.5
 21
7.5
 31
0.0
  0
LINE
  8
0
  6
DASHED
 10
60.0
 20
-12.5
 30
0.0
 11
77.5
 21
-12.5
 31
0.0
  0
LINE
  8
0
  6
DASHED
 10
72.5
 20
12.68998
 30
0.0
 11
81.663362
 21
12.68998
 31
0.0
  0
LINE
  8
0
  6
DASHED
 10
72.5
 20
7.5
 30
0.0
 11
81.84682
 21
7.5
 31
0.0
  0
INSERT
  8
0
  6
CONTINUOUS
  2
BLC15
 10
85.0
 20
12.547896
 30
0.0
 50
90.0
  0
INSERT
  8
0
  6
CONTINUOUS
  2
BLC15
 10
85.0
 20
7.357916
 30
0.0
 50
90.0
  0
LINE
  8
0
  6
CONTINUOUS
 10
67.5
 20
7.5
 30
0.0
 11
72.5
 21
7.5
 31
0.0
  0
LINE
  8
0
  6
CONTINUOUS
 10
65.0
 20
0.0
 30
0.0
 11
60.0
 21
7.5
 31
0.0
  0
LINE
  8
0
  6
CONTINUOUS
 10
67.5
 20
0.0
 30
0.0
 11
65.0
 21
0.0
 31
0.0
  0
LINE
  8
0
  6
CONTINUOUS
 10
66.506031
 20
5.098556
 30
0.0
 11
67.478167
 21
5.098556
 31
0.0
  0
LINE
  8
0
  6
CONTINUOUS
 10
66.496128
 20
7.499996
 30
0.0
 11
67.473936
 21
7.499996
 31
0.0
  0
LINE
  8
0
  6
CONTINUOUS
 10
66.500897
 20
2.68998
 30
0.0
 11
67.5
 21
2.68998
 31
0.0
  0
ARC
  8
0
  6
CONTINUOUS
 10
65.864862
 20
3.894238
 30
0.0
 40
1.204309
 50
90.0
 51
270.0
  0
LINE
  8
0
  6
CONTINUOUS
 10
65.859898
 20
2.689937
 30
0.0
 11
66.509496
 21
2.689937
 31
0.0
  0
LINE
  8
0
  6
CONTINUOUS
 10
65.858762
 20
7.499993
 30
0.0
 11
66.502261
 21
7.499993
 31
0.0
  0
LINE
  8
0
  6
CONTINUOUS
 10
65.858762
 20
5.098547
 30
0.0
 11
66.50836
 21
5.098547
 31
0.0
  0
ARC
  8
0
  6
CONTINUOUS
 10
65.864862
 20
6.296095
 30
0.0
 40
1.204309
 50
90.0
 51
265.706237
  0
LINE
  8
0
  6
CONTINUOUS
 10
67.5
 20
2.68998
 30
0.0
 11
67.5
 21
0.0
 31
0.0
  0
LINE
  8
0
  6
CONTINUOUS
 10
52.5
 20
12.68998
 30
0.0
 11
72.5
 21
12.68998
 31
0.0
  0
POLYLINE
  8
0
  6
DASHED
 66
     1
 10
0.0
 20
0.0
 30
0.0
 70
     1
 40
0.25
 41
0.25
 71
     2
 72
   151
  0
VERTEX
  8
0
  6
DASHED
 10
67.125
 20
30.0
 30
0.0
 42
1.0
  0
VERTEX
  8
0
  6
DASHED
 10
67.875
 20
30.0
 30
0.0
 42
1.0
  0
SEQEND
  8
0
  6
DASHED
  0
LINE
  8
0
  6
DASHED
 10
67.5
 20
17.5
 30
0.0
 11
67.5
 21
30.0
 31
0.0
  0
INSERT
  8
0
  6
CONTINUOUS
  2
BLC27
 10
65.965932
 20
15.071549
 30
0.0
  0
LINE
  8
0
  6
DASHED
 10
103.595465
 20
30.0
 30
0.0
 11
17.5
 21
30.0
 31
0.0
  0
LINE
  8
0
  6
DASHED
 10
103.595465
 20
35.0
 30
0.0
 11
17.5
 21
35.0
 31
0.0
  0
LINE
  8
0
  6
DASHED
 10
103.595465
 20
40.0
 30
0.0
 11
17.5
 21
40.0
 31
0.0
  0
ENDBLK
  8
0
  0
BLOCK
  8
0
  2
B22
 70
     0
 10
0.0
 20
0.0
 30
0.0
  3
B22
  0
CIRCLE
  8
BASE
  6
CONTINUOUS
 10
-2.949561
 20
-1.638589
 30
0.0
 40
0.705054
  0
CIRCLE
  8
BASE
  6
CONTINUOUS
 10
-2.949561
 20
-1.638589
 30
0.0
 40
1.252595
  0
LINE
  8
BASE
  6
CONTINUOUS
 10
-10.000117
 20
0.000025
 30
0.0
 11
0.011081
 21
0.000025
 31
0.0
  0
LINE
  8
BASE
  6
CONTINUOUS
 10
-27.5
 20
-0.008493
 30
0.0
 11
-17.5
 21
-0.008493
 31
0.0
  0
LINE
  8
BASE
  6
CONTINUOUS
 10
-11.481965
 20
-0.006589
 30
0.0
 11
-18.162841
 21
2.434804
 31
0.0
  0
LINE
  8
BASE
  6
CONTINUOUS
 10
-17.5
 20
-0.008493
 30
0.0
 11
-17.5
 21
2.765661
 31
0.0
  0
LINE
  8
BASE
  6
CONTINUOUS
 10
-18.162841
 20
2.434804
 30
0.0
 11
-18.607734
 21
1.549106
 31
0.0
  0
CIRCLE
  8
BASE
  6
CONTINUOUS
 10
-10.741055
 20
0.0
 30
0.0
 40
0.740939
  0
ENDBLK
  8
0
  0
BLOCK
  8
0
  2
B13
 70
     0
 10
0.0
 20
0.0
 30
0.0
  3
B13
  0
LINE
  8
BASE
  6
CONTINUOUS
 10
0.00793
 20
5.0
 30
0.0
 11
0.00793
 21
-5.0
 31
0.0
  0
LINE
  8
BASE
  6
CONTINUOUS
 10
0.0
 20
-11.000004
 30
0.0
 11
0.0
 21
-17.5
 31
0.0
  0
LINE
  8
BASE
  6
CONTINUOUS
 10
5.0
 20
-11.000004
 30
0.0
 11
5.0
 21
-17.5
 31
0.0
  0
LINE
  8
BASE
  6
CONTINUOUS
 10
4.982972
 20
5.0
 30
0.0
 11
4.982972
 21
-5.0
 31
0.0
  0
LINE
  8
BASE
  6
CONTINUOUS
 10
10.0
 20
-5.0
 30
0.0
 11
10.0
 21
-1.412306
 31
0.0
  0
LINE
  8
BASE
  6
CONTINUOUS
 10
10.0
 20
-0.21377
 30
0.0
 11
10.0
 21
2.28623
 31
0.0
  0
LINE
  8
BASE
  6
CONTINUOUS
 10
10.0
 20
-11.000004
 30
0.0
 11
10.0
 21
-17.5
 31
0.0
  0
LINE
  8
BASE
  6
CONTINUOUS
 10
10.0
 20
-11.000004
 30
0.0
 11
12.434804
 21
-4.337159
 31
0.0
  0
LINE
  8
BASE
  6
CONTINUOUS
 10
10.0
 20
-5.0
 30
0.0
 11
12.765661
 21
-5.0
 31
0.0
  0
LINE
  8
BASE
  6
CONTINUOUS
 10
12.434804
 20
-4.337159
 30
0.0
 11
11.549106
 21
-3.892266
 31
0.0
  0
LINE
  8
BASE
  6
CONTINUOUS
 10
5.0
 20
-5.0
 30
0.0
 11
7.765661
 21
-5.0
 31
0.0
  0
LINE
  8
BASE
  6
CONTINUOUS
 10
7.434804
 20
-4.337159
 30
0.0
 11
6.549106
 21
-3.892266
 31
0.0
  0
LINE
  8
BASE
  6
CONTINUOUS
 10
5.0
 20
-11.000004
 30
0.0
 11
7.434804
 21
-4.337159
 31
0.0
  0
LINE
  8
BASE
  6
CONTINUOUS
 10
0.0
 20
-11.000004
 30
0.0
 11
2.434804
 21
-4.337159
 31
0.0
  0
LINE
  8
BASE
  6
CONTINUOUS
 10
0.0
 20
-5.0
 30
0.0
 11
2.765661
 21
-5.0
 31
0.0
  0
ENDBLK
  8
0
  0
ENDSEC
  0
SECTION
  2
ENTITIES
  0
INSERT
  8
0
  2
1
 10
65.405438
 20
98.713066
 30
0.0
  0
INSERT
  8
0
  2
1
 10
72.541652
 20
49.71056
 30
0.0
  0
INSERT
  8
0
  2
1
 10
85.390443
 20
73.497234
 30
0.0
  0
LINE
  8
0
  6
CENTER
 62
   249
 10
242.5
 20
220.0
 30
0.0
 11
242.5
 21
82.5
 31
0.0
  0
LINE
  8
0
  6
CENTER
 62
   249
 10
242.5
 20
82.5
 30
0.0
 11
242.5
 21
60.0
 31
0.0
  0
LINE
  8
0
  6
CONTINUOUS
 62
   249
 10
225.0
 20
75.0
 30
0.0
 11
235.0
 21
75.0
 31
0.0
  0
LINE
  8
0
  6
CONTINUOUS
 62
   249
 10
225.0
 20
75.0
 30
0.0
 11
227.5
 21
77.5
 31
0.0
  0
LINE
  8
0
  6
CONTINUOUS
 62
   249
 10
230.0
 20
75.0
 30
0.0
 11
232.5
 21
77.5
 31
0.0
  0
LINE
  8
0
  6
CONTINUOUS
 62
   249
 10
235.0
 20
75.0
 30
0.0
 11
237.5
 21
77.5
 31
0.0
  0
LINE
  8
0
  6
CONTINUOUS
 62
   249
 10
230.0
 20
75.0
 30
0.0
 11
230.0
 21
60.0
 31
0.0
  0
LINE
  8
0
  6
CONTINUOUS
 62
   249
 10
217.5
 20
77.5
 30
0.0
 11
217.5
 21
60.0
 31
0.0
  0
LINE
  8
0
  6
CONTINUOUS
 62
   249
 10
212.5
 20
77.5
 30
0.0
 11
212.5
 21
60.0
 31
0.0
  0
LINE
  8
0
  6
DASHED
 62
   249
 10
217.5
 20
60.0
 30
0.0
 11
217.5
 21
52.5
 31
0.0
  0
LINE
  8
0
  6
DASHED
 62
   249
 10
230.0
 20
60.0
 30
0.0
 11
230.0
 21
52.5
 31
0.0
  0
LINE
  8
0
  6
DASHED
 62
   249
 10
212.5
 20
60.0
 30
0.0
 11
212.5
 21
52.5
 31
0.0
  0
LINE
  8
0
  6
DASHED
 62
   249
 10
195.0
 20
60.0
 30
0.0
 11
195.0
 21
52.5
 31
0.0
  0
LINE
  8
0
  6
DASHED
 62
   249
 10
165.0
 20
60.0
 30
0.0
 11
165.0
 21
52.5
 31
0.0
  0
LINE
  8
0
  6
CONTINUOUS
 62
   249
 10
180.0
 20
175.232891
 30
0.0
 11
210.450615
 21
175.232891
 31
0.0
  0
TEXT
  8
0
  6
CONTINUOUS
 62
   249
 10
191.908766
 20
171.295815
 30
0.0
 40
2.5
  1
IRF
 11
191.908766
 21
170.462481
 31
0.0
 73
     1
  0
LINE
  8
0
  6
CONTINUOUS
 62
   249
 10
210.450615
 20
170.0
 30
0.0
 11
180.0
 21
170.0
 31
0.0
  0
LINE
  8
0
  6
CONTINUOUS
 62
   249
 10
210.450615
 20
182.209828
 30
0.0
 11
210.450615
 21
170.0
 31
0.0
  0
LINE
  8
0
  6
CONTINUOUS
 62
   249
 10
210.450615
 20
205.0
 30
0.0
 11
210.450615
 21
182.18832
 31
0.0
  0
LINE
  8
0
  6
CONTINUOUS
 62
   249
 10
180.0
 20
180.0
 30
0.0
 11
210.450615
 21
180.0
 31
0.0
  0
LINE
  8
0
  6
CONTINUOUS
 62
   249
 10
191.426606
 20
195.320238
 30
0.0
 11
191.426606
 21
193.532107
 31
0.0
  0
LINE
  8
0
  6
CONTINUOUS
 62
   249
 10
191.457637
 20
194.47496
 30
0.0
 11
199.245842
 21
194.47496
 31
0.0
  0
LINE
  8
0
  6
CONTINUOUS
 62
   249
 10
193.841782
 20
193.307357
 30
0.0
 11
196.717892
 21
196.135916
 31
0.0
  0
LINE
  8
0
  6
CONTINUOUS
 62
   249
 10
196.287189
 20
196.673123
 30
0.0
 11
197.187866
 21
195.549374
 31
0.0
  0
LINE
  8
0
  6
CONTINUOUS
 62
   249
 10
199.241301
 20
195.320238
 30
0.0
 11
199.241301
 21
193.532107
 31
0.0
  0
LINE
  8
0
  6
CONTINUOUS
 62
   249
 10
188.708715
 20
189.746469
 30
0.0
 11
186.36295
 21
188.55655
 31
0.0
  0
LINE
  8
0
  6
CONTINUOUS
 62
   249
 10
190.797906
 20
189.746469
 30
0.0
 11
188.452141
 21
188.55655
 31
0.0
  0
LINE
  8
0
  6
CONTINUOUS
 62
   249
 10
186.36295
 20
191.081823
 30
0.0
 11
188.708715
 21
189.746469
 31
0.0
  0
LINE
  8
0
  6
CONTINUOUS
 62
   249
 10
188.452141
 20
191.081823
 30
0.0
 11
190.797906
 21
189.746469
 31
0.0
  0
LINE
  8
0
  6
CONTINUOUS
 62
   249
 10
188.708715
 20
194.42729
 30
0.0
 11
186.36295
 21
193.237371
 31
0.0
  0
LINE
  8
0
  6
CONTINUOUS
 62
   249
 10
186.36295
 20
195.762644
 30
0.0
 11
188.708715
 21
194.42729
 31
0.0
  0
LINE
  8
0
  6
CONTINUOUS
 62
   249
 10
180.0
 20
195.0
 30
0.0
 11
180.0
 21
180.0
 31
0.0
  0
LINE
  8
0
  6
CONTINUOUS
 62
   249
 10
180.0
 20
195.0
 30
0.0
 11
180.0
 21
200.0
 31
0.0
  0
LINE
  8
0
  6
CONTINUOUS
 62
   249
 10
180.0
 20
180.0
 30
0.0
 11
180.0
 21
170.0
 31
0.0
  0
LINE
  8
0
  6
CENTER
 62
   249
 10
50.0
 20
220.0
 30
0.0
 11
50.0
 21
60.0
 31
0.0
  0
TEXT
  8
0
  6
DASHED
 62
   249
 10
73.197373
 20
123.403492
 30
0.0
 40
2.0
  1
A
  0
TEXT
  8
0
  6
DASHED
 62
   249
 10
91.643373
 20
113.774588
 30
0.0
 40
2.0
  1
B
  0
TEXT
  8
0
  6
DASHED
 62
   249
 10
108.555109
 20
103.134364
 30
0.0
 40
2.0
  1
C
  0
TEXT
  8
0
  6
DASHED
 62
   249
 10
125.984014
 20
93.255752
 30
0.0
 40
2.0
  1
D
  0
TEXT
  8
0
  6
DASHED
 62
   249
 10
150.671573
 20
73.364654
 30
0.0
 40
2.0
  1
E
  0
LINE
  8
0
  6
CENTER
 62
   249
 10
50.0
 20
60.0
 30
0.0
 11
242.5
 21
60.0
 31
0.0
  0
LINE
  8
0
  6
CENTER
 62
   249
 10
242.5
 20
220.0
 30
0.0
 11
50.0
 21
220.0
 31
0.0
  0
LINE
  8
0
  6
DASHED
 62
   249
 10
175.0
 20
60.0
 30
0.0
 11
175.0
 21
52.5
 31
0.0
  0
LINE
  8
0
  6
DASHED
 62
   249
 10
180.0
 20
60.0
 30
0.0
 11
180.0
 21
52.5
 31
0.0
  0
ARC
  8
0
  6
CONTINUOUS
 62
   249
 10
245.0
 20
135.0
 30
0.0
 40
2.5
 50
90.0
 51
270.0
  0
LINE
  8
0
  6
CONTINUOUS
 62
   249
 10
355.850579
 20
218.316754
 30
0.0
 11
358.196345
 21
216.9814
 31
0.0
  0
LINE
  8
0
  6
CONTINUOUS
 62
   249
 10
358.196345
 20
216.9814
 30
0.0
 11
355.850579
 21
215.791481
 31
0.0
  0
LINE
  8
0
  6
CONTINUOUS
 62
   249
 10
350.600275
 20
212.706143
 30
0.0
 11
350.600275
 21
210.918012
 31
0.0
  0
LINE
  8
0
  6
CONTINUOUS
 62
   249
 10
350.631307
 20
211.860865
 30
0.0
 11
358.419512
 21
211.860865
 31
0.0
  0
LINE
  8
0
  6
CONTINUOUS
 62
   249
 10
355.460859
 20
214.059027
 30
0.0
 11
356.361536
 21
212.935278
 31
0.0
  0
LINE
  8
0
  6
CONTINUOUS
 62
   249
 10
353.015452
 20
210.693262
 30
0.0
 11
355.891562
 21
213.521821
 31
0.0
  0
LINE
  8
0
  6
CONTINUOUS
 62
   249
 10
358.414971
 20
212.706143
 30
0.0
 11
358.414971
 21
210.918012
 31
0.0
  0
LINE
  8
0
  6
CONTINUOUS
 62
   249
 10
358.438869
 20
207.00956
 30
0.0
 11
356.093104
 21
205.819641
 31
0.0
  0
LINE
  8
0
  6
CONTINUOUS
 62
   249
 10
356.093104
 20
208.344914
 30
0.0
 11
358.438869
 21
207.00956
 31
0.0
  0
LINE
  8
0
  6
CONTINUOUS
 62
   249
 10
358.038645
 20
208.344914
 30
0.0
 11
360.384411
 21
207.00956
 31
0.0
  0
LINE
  8
0
  6
CONTINUOUS
 62
   249
 10
360.384411
 20
207.00956
 30
0.0
 11
358.038645
 21
205.819641
 31
0.0
  0
LINE
  8
0
  6
CONTINUOUS
 62
   249
 10
358.414971
 20
203.052173
 30
0.0
 11
358.414971
 21
201.264041
 31
0.0
  0
LINE
  8
0
  6
CONTINUOUS
 62
   249
 10
355.460859
 20
204.405057
 30
0.0
 11
356.361536
 21
203.281308
 31
0.0
  0
LINE
  8
0
  6
CONTINUOUS
 62
   249
 10
353.015452
 20
201.039291
 30
0.0
 11
355.891562
 21
203.86785
 31
0.0
  0
LINE
  8
0
  6
CONTINUOUS
 62
   249
 10
350.631307
 20
202.206894
 30
0.0
 11
358.419512
 21
202.206894
 31
0.0
  0
LINE
  8
0
  6
CONTINUOUS
 62
   249
 10
350.600275
 20
203.052173
 30
0.0
 11
350.600275
 21
201.264041
 31
0.0
  0
TEXT
  8
0
  6
DASHED
 62
   249
 10
24.369019
 20
207.5
 30
0.0
 40
2.0
  1
1)
  0
LINE
  8
0
  6
CONTINUOUS
 62
   249
 10
180.0
 20
187.5
 30
0.0
 11
200.0
 21
187.5
 31
0.0
  0
LINE
  8
0
  6
CONTINUOUS
 62
   249
 10
190.0
 20
198.021206
 30
0.0
 11
192.5
 21
198.021206
 31
0.0
  0
LINE
  8
0
  6
CONTINUOUS
 62
   249
 10
190.0
 20
198.021206
 30
0.0
 11
187.775553
 21
197.460564
 31
0.0
  0
LINE
  8
0
  6
CONTINUOUS
 62
   249
 10
185.0
 20
198.021206
 30
0.0
 11
187.5
 21
198.021206
 31
0.0
  0
TEXT
  8
0
  6
CONTINUOUS
 62
   249
 10
180.906909
 20
197.263189
 30
0.0
 40
1.5
  1
EN
  0
LINE
  8
0
  6
CONTINUOUS
 62
   249
 10
190.900618
 20
182.24318
 30
0.0
 11
188.554852
 21
181.05326
 31
0.0
  0
LINE
  8
0
  6
CONTINUOUS
 62
   249
 10
188.554852
 20
183.578533
 30
0.0
 11
190.900618
 21
182.24318
 31
0.0
  0
LINE
  8
0
  6
CONTINUOUS
 62
   249
 10
186.465661
 20
183.578533
 30
0.0
 11
188.811426
 21
182.24318
 31
0.0
  0
LINE
  8
0
  6
CONTINUOUS
 62
   249
 10
188.811426
 20
182.24318
 30
0.0
 11
186.465661
 21
181.05326
 31
0.0
  0
CIRCLE
  8
0
  6
CONTINUOUS
 62
   249
 10
179.012659
 20
198.016691
 30
0.0
 40
1.0
  0
LINE
  8
0
  6
CONTINUOUS
 62
   249
 10
191.560241
 20
183.072664
 30
0.0
 11
191.560241
 21
181.284533
 31
0.0
  0
LINE
  8
0
  6
CONTINUOUS
 62
   249
 10
191.560241
 20
182.227386
 30
0.0
 11
198.972468
 21
182.227386
 31
0.0
  0
LINE
  8
0
  6
CONTINUOUS
 62
   249
 10
193.975417
 20
181.059783
 30
0.0
 11
196.851528
 21
183.888342
 31
0.0
  0
LINE
  8
0
  6
CONTINUOUS
 62
   249
 10
196.397405
 20
184.425549
 30
0.0
 11
197.298082
 21
183.3018
 31
0.0
  0
LINE
  8
0
  6
CONTINUOUS
 62
   249
 10
198.967927
 20
183.072664
 30
0.0
 11
198.967927
 21
181.284533
 31
0.0
  0
LINE
  8
0
  6
CONTINUOUS
 62
   249
 10
180.0
 20
192.5
 30
0.0
 11
200.0
 21
192.5
 31
0.0
  0
LINE
  8
0
  6
CONTINUOUS
 62
   249
 10
180.0
 20
200.0
 30
0.0
 11
200.0
 21
200.0
 31
0.0
  0
LINE
  8
0
  6
CONTINUOUS
 62
   249
 10
180.0
 20
200.0
 30
0.0
 11
180.0
 21
205.0
 31
0.0
  0
LINE
  8
0
  6
CONTINUOUS
 62
   249
 10
180.0
 20
205.0
 30
0.0
 11
210.450615
 21
205.0
 31
0.0
  0
LINE
  8
0
  6
CONTINUOUS
 62
   249
 10
200.0
 20
180.0
 30
0.0
 11
200.0
 21
205.0
 31
0.0
  0
CIRCLE
  8
0
  6
CONTINUOUS
 62
   249
 10
179.012659
 20
185.784079
 30
0.0
 40
1.0
  0
TEXT
  8
0
  6
CONTINUOUS
 62
   249
 10
180.906909
 20
185.030577
 30
0.0
 40
1.5
  1
EN
  0
LINE
  8
0
  6
CONTINUOUS
 62
   249
 10
185.0
 20
185.788594
 30
0.0
 11
187.5
 21
185.788594
 31
0.0
  0
LINE
  8
0
  6
CONTINUOUS
 62
   249
 10
190.0
 20
185.788594
 30
0.0
 11
187.775553
 21
185.227951
 31
0.0
  0
LINE
  8
0
  6
CONTINUOUS
 62
   249
 10
190.0
 20
185.788594
 30
0.0
 11
192.5
 21
185.788594
 31
0.0
  0
LINE
  8
0
  6
CONTINUOUS
 62
   249
 10
188.708715
 20
202.446305
 30
0.0
 11
186.36295
 21
201.256386
 31
0.0
  0
LINE
  8
0
  6
CONTINUOUS
 62
   249
 10
186.36295
 20
203.781659
 30
0.0
 11
188.708715
 21
202.446305
 31
0.0
  0
LINE
  8
0
  6
CONTINUOUS
 62
   249
 10
157.5
 20
173.325312
 30
0.0
 11
157.5
 21
132.5
 31
0.0
  0
LINE
  8
0
  6
CONTINUOUS
 62
   249
 10
147.5
 20
202.5
 30
0.0
 11
147.5
 21
137.5
 31
0.0
  0
LINE
  8
0
  6
CONTINUOUS
 62
   249
 10
125.0
 20
140.0
 30
0.0
 11
140.0
 21
140.0
 31
0.0
  0
LINE
  8
0
  6
CONTINUOUS
 62
   249
 10
125.0
 20
145.0
 30
0.0
 11
125.0
 21
140.0
 31
0.0
  0
LINE
  8
0
  6
CONTINUOUS
 62
   249
 10
140.0
 20
145.0
 30
0.0
 11
125.0
 21
145.0
 31
0.0
  0
LINE
  8
0
  6
CONTINUOUS
 62
   249
 10
132.5
 20
137.5
 30
0.0
 11
132.5
 21
132.5
 31
0.0
  0
LINE
  8
0
  6
CONTINUOUS
 62
   249
 10
132.5
 20
140.0
 30
0.0
 11
132.5
 21
137.5
 31
0.0
  0
LINE
  8
0
  6
CONTINUOUS
 62
   249
 10
132.224743
 20
142.789195
 30
0.0
 11
129.878977
 21
141.599276
 31
0.0
  0
LINE
  8
0
  6
CONTINUOUS
 62
   249
 10
129.870935
 20
140.799262
 30
0.0
 11
132.254396
 21
141.987454
 31
0.0
  0
LINE
  8
0
  6
CONTINUOUS
 62
   249
 10
129.878977
 20
144.124549
 30
0.0
 11
132.224743
 21
142.789195
 31
0.0
  0
TEXT
  8
0
  6
CONTINUOUS
 62
   249
 10
134.312839
 20
141.464455
 30
0.0
 40
2.5
  1
1
 11
134.312839
 21
140.631122
 31
0.0
 73
     1
  0
LINE
  8
0
  6
CONTINUOUS
 62
   249
 10
140.0
 20
145.0
 30
0.0
 11
140.0
 21
140.0
 31
0.0
  0
LINE
  8
0
  6
CONTINUOUS
 62
   249
 10
127.5
 20
145.0
 30
0.0
 11
127.5
 21
147.5
 31
0.0
  0
LINE
  8
0
  6
CONTINUOUS
 62
   249
 10
132.5
 20
145.0
 30
0.0
 11
132.5
 21
147.5
 31
0.0
  0
LINE
  8
0
  6
CONTINUOUS
 62
   249
 10
137.5
 20
145.0
 30
0.0
 11
137.5
 21
147.5
 31
0.0
  0
LINE
  8
0
  6
CONTINUOUS
 62
   249
 10
120.0
 20
145.0
 30
0.0
 11
120.0
 21
140.0
 31
0.0
  0
TEXT
  8
0
  6
CONTINUOUS
 62
   249
 10
116.812839
 20
141.464455
 30
0.0
 40
2.5
  1
1
 11
116.812839
 21
140.631122
 31
0.0
 73
     1
  0
LINE
  8
0
  6
CONTINUOUS
 62
   249
 10
112.378977
 20
144.124549
 30
0.0
 11
114.724743
 21
142.789195
 31
0.0
  0
LINE
  8
0
  6
CONTINUOUS
 62
   249
 10
112.370935
 20
140.799262
 30
0.0
 11
114.754396
 21
141.987454
 31
0.0
  0
LINE
  8
0
  6
CONTINUOUS
 62
   249
 10
114.724743
 20
142.789195
 30
0.0
 11
112.378977
 21
141.599276
 31
0.0
  0
LINE
  8
0
  6
CONTINUOUS
 62
   249
 10
115.0
 20
140.0
 30
0.0
 11
115.0
 21
137.5
 31
0.0
  0
LINE
  8
0
  6
CONTINUOUS
 62
   249
 10
115.0
 20
137.5
 30
0.0
 11
115.0
 21
132.5
 31
0.0
  0
LINE
  8
0
  6
CONTINUOUS
 62
   249
 10
120.0
 20
145.0
 30
0.0
 11
110.0
 21
145.0
 31
0.0
  0
LINE
  8
0
  6
CONTINUOUS
 62
   249
 10
110.0
 20
145.0
 30
0.0
 11
110.0
 21
140.0
 31
0.0
  0
LINE
  8
0
  6
CONTINUOUS
 62
   249
 10
110.0
 20
140.0
 30
0.0
 11
120.0
 21
140.0
 31
0.0
  0
LINE
  8
0
  6
CONTINUOUS
 62
   249
 10
100.0
 20
145.0
 30
0.0
 11
100.0
 21
147.5
 31
0.0
  0
LINE
  8
0
  6
CONTINUOUS
 62
   249
 10
95.0
 20
145.0
 30
0.0
 11
95.0
 21
147.5
 31
0.0
  0
LINE
  8
0
  6
CONTINUOUS
 62
   249
 10
102.5
 20
145.0
 30
0.0
 11
102.5
 21
140.0
 31
0.0
  0
TEXT
  8
0
  6
CONTINUOUS
 62
   249
 10
99.355307
 20
141.464455
 30
0.0
 40
2.5
  1
1
 11
99.355307
 21
140.631122
 31
0.0
 73
     1
  0
LINE
  8
0
  6
CONTINUOUS
 62
   249
 10
94.921446
 20
144.124549
 30
0.0
 11
97.267211
 21
142.789195
 31
0.0
  0
LINE
  8
0
  6
CONTINUOUS
 62
   249
 10
94.913404
 20
140.799262
 30
0.0
 11
97.296864
 21
141.987454
 31
0.0
  0
LINE
  8
0
  6
CONTINUOUS
 62
   249
 10
97.267211
 20
142.789195
 30
0.0
 11
94.921446
 21
141.599276
 31
0.0
  0
LINE
  8
0
  6
CONTINUOUS
 62
   249
 10
97.5
 20
140.0
 30
0.0
 11
97.5
 21
137.5
 31
0.0
  0
LINE
  8
0
  6
CONTINUOUS
 62
   249
 10
97.5
 20
137.5
 30
0.0
 11
97.5
 21
132.5
 31
0.0
  0
LINE
  8
0
  6
CONTINUOUS
 62
   249
 10
102.5
 20
145.0
 30
0.0
 11
92.5
 21
145.0
 31
0.0
  0
LINE
  8
0
  6
CONTINUOUS
 62
   249
 10
92.5
 20
145.0
 30
0.0
 11
92.5
 21
140.0
 31
0.0
  0
LINE
  8
0
  6
CONTINUOUS
 62
   249
 10
92.5
 20
140.0
 30
0.0
 11
102.5
 21
140.0
 31
0.0
  0
LINE
  8
0
  6
CONTINUOUS
 62
   249
 10
140.0
 20
92.5
 30
0.0
 11
175.0
 21
92.5
 31
0.0
  0
LINE
  8
0
  6
CONTINUOUS
 62
   249
 10
110.0
 20
112.5
 30
0.0
 11
185.0
 21
112.5
 31
0.0
  0
LINE
  8
0
  6
CONTINUOUS
 62
   249
 10
122.5
 20
102.5
 30
0.0
 11
180.0
 21
102.5
 31
0.0
  0
LINE
  8
0
  6
CONTINUOUS
 62
   249
 10
95.0
 20
112.5
 30
0.0
 11
68.500004
 21
112.5
 31
0.0
  0
LINE
  8
0
  6
CONTINUOUS
 62
   249
 10
107.5
 20
102.5
 30
0.0
 11
50.0
 21
102.5
 31
0.0
  0
LINE
  8
0
  6
CONTINUOUS
 62
   249
 10
122.5
 20
92.5
 30
0.0
 11
50.0
 21
92.5
 31
0.0
  0
LINE
  8
0
  6
CONTINUOUS
 62
   249
 10
137.5
 20
72.5
 30
0.0
 11
50.0
 21
72.5
 31
0.0
  0
LINE
  8
0
  6
CONTINUOUS
 62
   249
 10
137.5
 20
67.5
 30
0.0
 11
50.0
 21
67.5
 31
0.0
  0
LINE
  8
0
  6
DASHED
 62
   249
 10
157.5
 20
132.5
 30
0.0
 11
157.5
 21
70.0
 31
0.0
  0
LINE
  8
0
  6
DASHED
 62
   249
 10
132.5
 20
132.5
 30
0.0
 11
132.5
 21
90.0
 31
0.0
  0
LINE
  8
0
  6
DASHED
 62
   249
 10
115.0
 20
132.5
 30
0.0
 11
115.0
 21
100.0
 31
0.0
  0
LINE
  8
0
  6
DASHED
 62
   249
 10
97.5
 20
132.5
 30
0.0
 11
97.5
 21
110.0
 31
0.0
  0
LINE
  8
0
  6
DASHED
 62
   249
 10
80.0
 20
132.5
 30
0.0
 11
80.0
 21
120.0
 31
0.0
  0
LINE
  8
0
  6
CONTINUOUS
 62
   249
 10
132.5
 20
190.0
 30
0.0
 11
180.0
 21
190.0
 31
0.0
  0
LINE
  8
0
  6
CONTINUOUS
 62
   249
 10
127.5
 20
202.5
 30
0.0
 11
180.0
 21
202.5
 31
0.0
  0
LINE
  8
0
  6
CONTINUOUS
 62
   249
 10
137.5
 20
152.5
 30
0.0
 11
137.5
 21
181.993304
 31
0.0
  0
LINE
  8
0
  6
CONTINUOUS
 62
   249
 10
87.721556
 20
207.5
 30
0.0
 11
97.5
 21
207.5
 31
0.0
  0
LINE
  8
0
  6
CONTINUOUS
 62
   249
 10
102.5
 20
207.5
 30
0.0
 11
160.0
 21
207.5
 31
0.0
  0
LINE
  8
0
  6
CONTINUOUS
 62
   249
 10
160.0
 20
207.5
 30
0.0
 11
160.0
 21
185.825312
 31
0.0
  0
LINE
  8
0
  6
CONTINUOUS
 62
   249
 10
102.5
 20
207.5
 30
0.0
 11
97.335918
 21
206.218969
 31
0.0
  0
LINE
  8
0
  6
CONTINUOUS
 62
   249
 10
132.5
 20
152.5
 30
0.0
 11
132.5
 21
190.0
 31
0.0
  0
LINE
  8
0
  6
CONTINUOUS
 62
   249
 10
132.5
 20
147.5
 30
0.0
 11
130.785914
 21
152.586297
 31
0.0
  0
LINE
  8
0
  6
CONTINUOUS
 62
   249
 10
137.5
 20
147.5
 30
0.0
 11
135.785914
 21
152.586297
 31
0.0
  0
LINE
  8
0
  6
CONTINUOUS
 62
   249
 10
127.5
 20
147.5
 30
0.0
 11
125.785914
 21
152.586297
 31
0.0
  0
LINE
  8
0
  6
CONTINUOUS
 62
   249
 10
77.5
 20
152.5
 30
0.0
 11
77.5
 21
194.493304
 31
0.0
  0
LINE
  8
0
  6
CONTINUOUS
 62
   249
 10
77.5
 20
194.493304
 30
0.0
 11
180.0
 21
194.493304
 31
0.0
  0
LINE
  8
0
  6
CONTINUOUS
 62
   249
 10
82.5
 20
181.993304
 30
0.0
 11
180.0
 21
181.993304
 31
0.0
  0
LINE
  8
0
  6
CONTINUOUS
 62
   249
 10
100.0
 20
147.5
 30
0.0
 11
100.0
 21
181.993304
 31
0.0
  0
LINE
  8
0
  6
CONTINUOUS
 62
   249
 10
127.5
 20
152.5
 30
0.0
 11
127.5
 21
202.5
 31
0.0
  0
LINE
  8
0
  6
CONTINUOUS
 62
   249
 10
178.013814
 20
197.968636
 30
0.0
 11
160.0
 21
197.968636
 31
0.0
  0
LINE
  8
0
  6
CONTINUOUS
 62
   249
 10
178.013509
 20
185.825312
 30
0.0
 11
160.0
 21
185.825312
 31
0.0
  0
LINE
  8
0
  6
CONTINUOUS
 62
   249
 10
210.450615
 20
177.5
 30
0.0
 11
215.0
 21
177.5
 31
0.0
  0
LINE
  8
0
  6
CONTINUOUS
 62
   249
 10
215.0
 20
177.5
 30
0.0
 11
215.0
 21
135.0
 31
0.0
  0
LINE
  8
0
  6
CONTINUOUS
 62
   249
 10
345.0
 20
200.0
 30
0.0
 11
365.0
 21
200.0
 31
0.0
  0
LINE
  8
0
  6
CONTINUOUS
 62
   249
 10
345.0
 20
220.0
 30
0.0
 11
365.0
 21
220.0
 31
0.0
  0
LINE
  8
0
  6
CONTINUOUS
 62
   249
 10
365.0
 20
220.0
 30
0.0
 11
365.0
 21
200.0
 31
0.0
  0
LINE
  8
0
  6
CONTINUOUS
 62
   249
 10
345.0
 20
200.0
 30
0.0
 11
345.0
 21
220.0
 31
0.0
  0
TEXT
  8
0
  6
CONTINUOUS
 62
   249
 10
342.5
 20
147.5
 30
0.0
 40
2.0
  1
EXTERNAL BLOCKING
  0
TEXT
  8
0
  6
CONTINUOUS
 62
   249
 10
342.5
 20
144.166667
 30
0.0
 40
2.0
  1
EXTERN BLOCKERING
  0
TEXT
  8
0
  6
CONTINUOUS
 62
   249
 10
342.5
 20
124.166667
 30
0.0
 40
2.0
  1
TRIP
  0
TEXT
  8
0
  6
CONTINUOUS
 62
   249
 10
342.5
 20
120.833333
 30
0.0
 40
2.0
  1
UTLÖSNING
  0
TEXT
  8
0
  6
CONTINUOUS
 62
   249
 10
342.5
 20
112.5
 30
0.0
 40
2.0
  1
ALARM ETC.
  0
TEXT
  8
0
  6
CONTINUOUS
 62
   249
 10
342.5
 20
109.166667
 30
0.0
 40
2.0
  1
SIGNAL MM.
  0
TEXT
  8
0
  6
CONTINUOUS
 62
   249
 10
342.5
 20
100.833333
 30
0.0
 40
2.0
  1
START, BLOCKING ETC.
  0
TEXT
  8
0
  6
CONTINUOUS
 62
   249
 10
342.5
 20
97.5
 30
0.0
 40
2.0
  1
START, BLOCKERING MM.
  0
TEXT
  8
0
  6
CONTINUOUS
 62
   249
 10
335.0
 20
147.701531
 30
0.0
 40
2.0
  1
1)
  0
TEXT
  8
0
  6
CONTINUOUS
 62
   249
 10
335.0
 20
135.827468
 30
0.0
 40
2.0
  1
2)
  0
TEXT
  8
0
  6
CONTINUOUS
 62
   249
 10
335.0
 20
124.172532
 30
0.0
 40
2.0
  1
3)
  0
TEXT
  8
0
  6
CONTINUOUS
 62
   249
 10
335.0
 20
112.5
 30
0.0
 40
2.0
  1
4)
  0
TEXT
  8
0
  6
CONTINUOUS
 62
   249
 10
335.0
 20
100.815972
 30
0.0
 40
2.0
  1
5)
  0
TEXT
  8
0
  6
CONTINUOUS
 62
   249
 10
335.0
 20
89.184028
 30
0.0
 40
2.0
  1
6)
  0
LINE
  8
0
  6
DASHED
 62
   249
 10
50.0
 20
210.0
 30
0.0
 11
40.0
 21
210.0
 31
0.0
  0
LINE
  8
0
  6
DASHED
 62
   249
 10
50.0
 20
205.0
 30
0.0
 11
40.0
 21
205.0
 31
0.0
  0
LINE
  8
0
  6
DASHED
 62
   249
 10
247.5
 20
135.0
 30
0.0
 11
277.5
 21
135.0
 31
0.0
  0
LINE
  8
0
  6
CONTINUOUS
 62
   249
 10
238.563198
 20
134.25712
 30
0.0
 11
239.779906
 21
135.667057
 31
0.0
  0
TEXT
  8
0
  6
CONTINUOUS
 62
   249
 10
239.536564
 20
136.570297
 30
0.0
 40
2.0
  1
9
  0
LINE
  8
0
  6
DASHED
 62
   249
 10
50.0
 20
122.5
 30
0.0
 11
40.0
 21
122.5
 31
0.0
  0
LINE
  8
0
  6
DASHED
 62
   249
 10
50.0
 20
112.5
 30
0.0
 11
40.0
 21
112.5
 31
0.0
  0
LINE
  8
0
  6
DASHED
 62
   249
 10
50.0
 20
102.5
 30
0.0
 11
40.0
 21
102.5
 31
0.0
  0
LINE
  8
0
  6
DASHED
 62
   249
 10
50.0
 20
92.5
 30
0.0
 11
40.0
 21
92.5
 31
0.0
  0
LINE
  8
0
  6
DASHED
 62
   249
 10
50.0
 20
85.0
 30
0.0
 11
40.0
 21
85.0
 31
0.0
  0
LINE
  8
0
  6
CONTINUOUS
 62
   249
 10
37.5
 20
123.0
 30
0.0
 11
37.5
 21
112.0
 31
0.0
  0
LINE
  8
0
  6
CONTINUOUS
 62
   249
 10
37.5
 20
123.0
 30
0.0
 11
38.5
 21
124.0
 31
0.0
  0
LINE
  8
0
  6
CONTINUOUS
 62
   249
 10
37.5
 20
112.0
 30
0.0
 11
38.5
 21
111.0
 31
0.0
  0
TEXT
  8
0
  6
CONTINUOUS
 62
   249
 10
30.0
 20
116.532746
 30
0.0
 40
2.0
  1
3)
  0
TEXT
  8
0
  6
CONTINUOUS
 62
   249
 10
30.0
 20
101.400841
 30
0.0
 40
2.0
  1
4)
  0
TEXT
  8
0
  6
CONTINUOUS
 62
   249
 10
30.0
 20
86.515243
 30
0.0
 40
2.0
  1
5)
  0
TEXT
  8
0
  6
CONTINUOUS
 62
   249
 10
30.0
 20
66.491877
 30
0.0
 40
2.0
  1
6)
  0
LINE
  8
0
  6
CONTINUOUS
 62
   249
 10
72.5
 20
122.5
 30
0.0
 11
68.500004
 21
122.5
 31
0.0
  0
LINE
  8
0
  6
CONTINUOUS
 62
   249
 10
60.0
 20
205.0
 30
0.0
 11
50.0
 21
205.0
 31
0.0
  0
LINE
  8
0
  6
CONTINUOUS
 62
   249
 10
80.298812
 20
205.0
 30
0.0
 11
58.098812
 21
205.0
 31
0.0
  0
LINE
  8
0
  6
CONTINUOUS
 62
   249
 10
60.0
 20
210.0
 30
0.0
 11
50.0
 21
210.0
 31
0.0
  0
LINE
  8
0
  6
CONTINUOUS
 62
   249
 10
62.5
 20
210.0
 30
0.0
 11
58.098812
 21
210.0
 31
0.0
  0
LINE
  8
0
 62
   249
 10
80.298812
 20
211.589925
 30
0.0
 11
80.298812
 21
203.4
 31
0.0
  0
LINE
  8
0
 62
   249
 10
84.504853
 20
211.59384
 30
0.0
 11
82.59105
 21
209.315018
 31
0.0
  0
LINE
  8
0
 62
   249
 10
85.996971
 20
211.59384
 30
0.0
 11
84.142636
 21
209.315018
 31
0.0
  0
LINE
  8
0
 62
   249
 10
87.721556
 20
211.589925
 30
0.0
 11
80.298812
 21
211.589925
 31
0.0
  0
LINE
  8
0
 62
   249
 10
80.298812
 20
203.4
 30
0.0
 11
87.721556
 21
203.4
 31
0.0
  0
LINE
  8
0
 62
   249
 10
87.721556
 20
203.4
 30
0.0
 11
87.721556
 21
211.589925
 31
0.0
  0
INSERT
  8
0
  6
CONTINUOUS
 62
   249
  2
BLC29
 10
224.029446
 20
134.871533
 30
0.0
 41
-1.0
 50
180.0
  0
LINE
  8
0
  6
CONTINUOUS
 62
   249
 10
242.5
 20
135.0
 30
0.0
 11
215.0
 21
135.0
 31
0.0
  0
LINE
  8
0
  6
DASHED
 62
   249
 10
190.0
 20
60.0
 30
0.0
 11
190.0
 21
52.5
 31
0.0
  0
LINE
  8
0
  6
CONTINUOUS
 62
   249
 10
165.0
 20
60.0
 30
0.0
 11
165.0
 21
72.5
 31
0.0
  0
LINE
  8
0
  6
CONTINUOUS
 62
   249
 10
185.0
 20
80.0
 30
0.0
 11
185.0
 21
112.5
 31
0.0
  0
LINE
  8
0
  6
CONTINUOUS
 62
   249
 10
137.5
 20
72.5
 30
0.0
 11
155.0
 21
72.5
 31
0.0
  0
LINE
  8
0
  6
CONTINUOUS
 62
   249
 10
155.0
 20
67.5
 30
0.0
 11
137.5
 21
67.5
 31
0.0
  0
LINE
  8
0
  6
CONTINUOUS
 62
   249
 10
155.0
 20
67.5
 30
0.0
 11
155.0
 21
70.0
 31
0.0
  0
TEXT
  8
0
  6
CONTINUOUS
 62
   249
 10
342.5
 20
135.83101
 30
0.0
 40
2.0
  1
BUS CONNECTION MODULE
  0
TEXT
  8
0
  6
CONTINUOUS
 62
   249
 10
342.5
 20
132.497677
 30
0.0
 40
2.0
  1
BUSSANSLUTNINGSMODUL
  0
TEXT
  8
0
  6
CONTINUOUS
 62
   249
 10
342.5
 20
89.179249
 30
0.0
 40
2.0
  1
INTERNAL RELAY FAULT
  0
TEXT
  8
0
  6
CONTINUOUS
 62
   249
 10
342.5
 20
85.845916
 30
0.0
 40
2.0
  1
INTERNT RELÄFEL
  0
LINE
  8
0
  6
CONTINUOUS
 62
   249
 10
82.5
 20
122.5
 30
0.0
 11
76.756076
 21
119.285297
 31
0.0
  0
LINE
  8
0
  6
CONTINUOUS
 62
   249
 10
72.5
 20
122.5
 30
0.0
 11
77.5
 21
122.5
 31
0.0
  0
LINE
  8
0
  6
CONTINUOUS
 62
   249
 10
82.5
 20
122.5
 30
0.0
 11
87.5
 21
122.5
 31
0.0
  0
LINE
  8
0
  6
CONTINUOUS
 62
   249
 10
100.0
 20
112.5
 30
0.0
 11
110.0
 21
112.5
 31
0.0
  0
LINE
  8
0
  6
CONTINUOUS
 62
   249
 10
107.5
 20
102.5
 30
0.0
 11
112.5
 21
102.5
 31
0.0
  0
LINE
  8
0
  6
CONTINUOUS
 62
   249
 10
117.5
 20
102.5
 30
0.0
 11
122.5
 21
102.5
 31
0.0
  0
LINE
  8
0
  6
CONTINUOUS
 62
   249
 10
122.5
 20
92.5
 30
0.0
 11
130.0
 21
92.5
 31
0.0
  0
LINE
  8
0
  6
CONTINUOUS
 62
   249
 10
135.0
 20
92.5
 30
0.0
 11
140.0
 21
92.5
 31
0.0
  0
LINE
  8
0
  6
CONTINUOUS
 62
   249
 10
100.0
 20
112.5
 30
0.0
 11
94.256076
 21
109.285297
 31
0.0
  0
LINE
  8
0
  6
CONTINUOUS
 62
   249
 10
117.5
 20
102.5
 30
0.0
 11
111.756076
 21
99.285297
 31
0.0
  0
LINE
  8
0
  6
CONTINUOUS
 62
   249
 10
135.0
 20
92.5
 30
0.0
 11
129.256076
 21
89.285297
 31
0.0
  0
LINE
  8
0
  6
CONTINUOUS
 62
   249
 10
160.0
 20
72.5
 30
0.0
 11
154.256076
 21
69.285297
 31
0.0
  0
TEXT
  8
0
  6
DASHED
 62
   249
 10
183.926232
 20
176.082908
 30
0.0
 40
2.5
  1
SERIAL I/O
  0
TEXT
  8
0
  6
DASHED
 62
   249
 10
372.5
 20
12.5
 30
0.0
 40
2.0
  1
1
  0
LINE
  8
0
  6
CONTINUOUS
 62
   249
 10
75.0
 20
140.0
 30
0.0
 11
85.0
 21
140.0
 31
0.0
  0
LINE
  8
0
  6
CONTINUOUS
 62
   249
 10
75.0
 20
145.0
 30
0.0
 11
75.0
 21
140.0
 31
0.0
  0
LINE
  8
0
  6
CONTINUOUS
 62
   249
 10
77.5
 20
145.0
 30
0.0
 11
77.5
 21
153.652485
 31
0.0
  0
LINE
  8
0
  6
CONTINUOUS
 62
   249
 10
85.0
 20
145.0
 30
0.0
 11
85.0
 21
140.0
 31
0.0
  0
LINE
  8
0
  6
CONTINUOUS
 62
   249
 10
85.0
 20
145.0
 30
0.0
 11
75.0
 21
145.0
 31
0.0
  0
LINE
  8
0
  6
CONTINUOUS
 62
   249
 10
80.0
 20
137.5
 30
0.0
 11
80.0
 21
132.5
 31
0.0
  0
LINE
  8
0
  6
CONTINUOUS
 62
   249
 10
82.5
 20
145.0
 30
0.0
 11
82.5
 21
147.5
 31
0.0
  0
LINE
  8
0
  6
CONTINUOUS
 62
   249
 10
80.0
 20
140.0
 30
0.0
 11
80.0
 21
137.5
 31
0.0
  0
LINE
  8
0
  6
CONTINUOUS
 62
   249
 10
79.751902
 20
142.789195
 30
0.0
 11
77.406137
 21
141.599276
 31
0.0
  0
LINE
  8
0
  6
CONTINUOUS
 62
   249
 10
77.398095
 20
140.799262
 30
0.0
 11
79.781556
 21
141.987454
 31
0.0
  0
LINE
  8
0
  6
CONTINUOUS
 62
   249
 10
77.406137
 20
144.124549
 30
0.0
 11
79.751902
 21
142.789195
 31
0.0
  0
TEXT
  8
0
  6
CONTINUOUS
 62
   249
 10
81.839999
 20
141.464455
 30
0.0
 40
2.5
  1
1
 11
81.839999
 21
140.631122
 31
0.0
 73
     1
  0
LINE
  8
0
  6
CONTINUOUS
 62
   249
 10
82.5
 20
147.5
 30
0.0
 11
80.785914
 21
152.586297
 31
0.0
  0
LINE
  8
0
  6
CONTINUOUS
 62
   249
 10
82.5
 20
152.5
 30
0.0
 11
82.5
 21
181.993304
 31
0.0
  0
LINE
  8
0
  6
CONTINUOUS
 62
   249
 10
87.5
 20
122.5
 30
0.0
 11
190.0
 21
122.5
 31
0.0
  0
LINE
  8
0
  6
CONTINUOUS
 62
   249
 10
95.0
 20
147.5
 30
0.0
 11
93.285914
 21
152.586297
 31
0.0
  0
LINE
  8
0
  6
CONTINUOUS
 62
   249
 10
95.0
 20
152.5
 30
0.0
 11
95.0
 21
194.493304
 31
0.0
  0
LINE
  8
0
  6
CONTINUOUS
 62
   249
 10
112.5
 20
147.5
 30
0.0
 11
110.785914
 21
152.586297
 31
0.0
  0
LINE
  8
0
  6
CONTINUOUS
 62
   249
 10
112.5
 20
152.5
 30
0.0
 11
112.5
 21
194.493304
 31
0.0
  0
LINE
  8
0
  6
CONTINUOUS
 62
   249
 10
112.5
 20
145.0
 30
0.0
 11
112.5
 21
147.5
 31
0.0
  0
LINE
  8
0
  6
CONTINUOUS
 62
   249
 10
117.5
 20
147.5
 30
0.0
 11
115.785914
 21
152.586297
 31
0.0
  0
LINE
  8
0
  6
CONTINUOUS
 62
   249
 10
117.5
 20
152.5
 30
0.0
 11
117.5
 21
181.993304
 31
0.0
  0
LINE
  8
0
  6
CONTINUOUS
 62
   249
 10
117.5
 20
145.0
 30
0.0
 11
117.5
 21
147.5
 31
0.0
  0
CIRCLE
  8
0
  6
CONTINUOUS
 62
   249
 10
179.012659
 20
173.284079
 30
0.0
 40
1.0
  0
LINE
  8
0
  6
CONTINUOUS
 62
   249
 10
178.013509
 20
173.325312
 30
0.0
 11
157.5
 21
173.325312
 31
0.0
  0
TEXT
  8
0
  6
DASHED
 62
   249
 10
81.288104
 20
154.781039
 30
0.0
 40
2.0
  1
SGR/6
 50
90.0
  0
TEXT
  8
0
  6
DASHED
 62
   249
 10
93.939391
 20
154.781039
 30
0.0
 40
2.0
  1
SGR/8
 50
90.0
  0
TEXT
  8
0
  6
DASHED
 62
   249
 10
111.390991
 20
154.781039
 30
0.0
 40
2.0
  1
SGR/7
 50
90.0
  0
TEXT
  8
0
  6
DASHED
 62
   249
 10
116.52458
 20
154.781039
 30
0.0
 40
2.0
  1
SGR/5
 50
90.0
  0
TEXT
  8
0
  6
DASHED
 62
   249
 10
126.508274
 20
154.781039
 30
0.0
 40
2.0
  1
SGR/3
 50
90.0
  0
TEXT
  8
0
  6
DASHED
 62
   249
 10
131.209003
 20
154.781039
 30
0.0
 40
2.0
  1
SGR/2
 50
90.0
  0
TEXT
  8
0
  6
DASHED
 62
   249
 10
136.340682
 20
154.781039
 30
0.0
 40
2.0
  1
SGR/4
 50
90.0
  0
TEXT
  8
0
 62
   249
 10
228.465704
 20
44.354458
 30
0.0
 40
1.92
  1
PE
  0
LINE
  8
0
 62
   249
 10
228.524091
 20
49.050711
 30
0.0
 11
231.573201
 21
49.050711
 31
0.0
  0
LINE
  8
0
 62
   249
 10
229.99999
 20
49.685023
 30
0.0
 11
229.99999
 21
52.500268
 31
0.0
  0
LINE
  8
0
 62
   249
 10
229.107964
 20
48.38116
 30
0.0
 11
231.027173
 21
48.38116
 31
0.0
  0
LINE
  8
0
 62
   249
 10
231.902981
 20
49.685023
 30
0.0
 11
231.30289
 21
49.685023
 31
0.0
  0
LINE
  8
0
 62
   249
 10
228.188906
 20
49.685023
 30
0.0
 11
231.881356
 21
49.685023
 31
0.0
  0
CIRCLE
  8
0
 62
   249
 10
230.005397
 20
49.195585
 30
0.0
 40
2.282738
  0
TEXT
  8
0
  6
DASHED
 62
   249
 10
95.210211
 20
208.942482
 30
0.0
 40
2.0
  1
SGR/1
  0
TEXT
  8
0
  6
DASHED
 62
   249
 10
280.0
 20
133.895869
 30
0.0
 40
2.0
  1
2)
  0
LINE
  8
0
  6
CONTINUOUS
 62
   249
 10
220.0
 20
187.5
 30
0.0
 11
221.0
 21
186.5
 31
0.0
  0
LINE
  8
0
  6
CONTINUOUS
 62
   249
 10
220.0
 20
195.0
 30
0.0
 11
221.0
 21
196.0
 31
0.0
  0
LINE
  8
0
  6
CONTINUOUS
 62
   249
 10
220.0
 20
195.0
 30
0.0
 11
220.0
 21
187.5
 31
0.0
  0
LINE
  8
0
  6
CONTINUOUS
 62
   249
 10
220.0
 20
192.5
 30
0.0
 11
210.450615
 21
192.5
 31
0.0
  0
TEXT
  8
0
  6
DASHED
 62
   249
 10
230.0
 20
199.171636
 30
0.0
 40
2.0
  1
101
  0
TEXT
  8
0
  6
DASHED
 62
   249
 10
225.0
 20
130.0
 30
0.0
 40
2.0
  1
108:RX/TX
  0
TEXT
  8
0
  6
DASHED
 62
   249
 10
52.5
 20
212.728005
 30
0.0
 40
2.0
  1
101
  0
TEXT
  8
0
  6
DASHED
 62
   249
 10
52.5
 20
207.036434
 30
0.0
 40
2.0
  1
14A
  0
TEXT
  8
0
  6
DASHED
 62
   249
 10
52.5
 20
202.159842
 30
0.0
 40
2.0
  1
108:11
  0
TEXT
  8
0
  6
DASHED
 62
   249
 10
52.5
 20
124.463984
 30
0.0
 40
2.0
  1
101
  0
TEXT
  8
0
  6
DASHED
 62
   249
 10
52.5
 20
119.387982
 30
0.0
 40
2.0
  1
17A
  0
TEXT
  8
0
  6
DASHED
 62
   249
 10
52.5
 20
109.413435
 30
0.0
 40
2.0
  1
16A
  0
TEXT
  8
0
  6
DASHED
 62
   249
 10
52.5
 20
99.438887
 30
0.0
 40
2.0
  1
108:80
  0
TEXT
  8
0
  6
DASHED
 62
   249
 10
52.5
 20
89.12621
 30
0.0
 40
2.0
  1
108:77
  0
TEXT
  8
0
  6
DASHED
 62
   249
 10
52.5
 20
69.151663
 30
0.0
 40
2.0
  1
108:70
  0
TEXT
  8
0
  6
DASHED
 62
   249
 10
52.5
 20
64.413791
 30
0.0
 40
2.0
  1
108:71
  0
LINE
  8
0
  6
CONTINUOUS
 62
   249
 10
68.500004
 20
210.0
 30
0.0
 11
80.298812
 21
210.0
 31
0.0
  0
LINE
  8
0
  6
CONTINUOUS
 62
   249
 10
62.5
 20
122.5
 30
0.0
 11
50.0
 21
122.5
 31
0.0
  0
LINE
  8
0
  6
CONTINUOUS
 62
   249
 10
62.5
 20
112.5
 30
0.0
 11
50.0
 21
112.5
 31
0.0
  0
TEXT
  8
0
  6
CONTINUOUS
 62
   249
 10
168.361902
 20
62.5
 30
0.0
 40
2.0
  1
108:72
 50
90.0
  0
TEXT
  8
0
  6
CONTINUOUS
 62
   249
 10
172.298112
 20
62.5
 30
0.0
 40
2.0
  1
101
 50
90.0
  0
TEXT
  8
0
  6
CONTINUOUS
 62
   249
 10
178.592066
 20
62.5
 30
0.0
 40
2.0
  1
13A
 50
90.0
  0
TEXT
  8
0
  6
CONTINUOUS
 62
   249
 10
183.517523
 20
62.5
 30
0.0
 40
2.0
  1
2A
 50
90.0
  0
TEXT
  8
0
  6
CONTINUOUS
 62
   249
 10
193.44298
 20
62.5
 30
0.0
 40
2.0
  1
1A
 50
90.0
  0
TEXT
  8
0
  6
CONTINUOUS
 62
   249
 10
198.643767
 20
62.5
 30
0.0
 40
2.0
  1
18A
 50
90.0
  0
TEXT
  8
0
  6
CONTINUOUS
 62
   249
 10
215.960971
 20
62.5
 30
0.0
 40
2.0
  1
108:61
 50
90.0
  0
TEXT
  8
0
  6
CONTINUOUS
 62
   249
 10
221.173728
 20
62.5
 30
0.0
 40
2.0
  1
108:62
 50
90.0
  0
TEXT
  8
0
  6
CONTINUOUS
 62
   249
 10
233.574002
 20
62.5
 30
0.0
 40
2.0
  1
108:
 50
90.0
  0
LINE
  8
0
  6
CONTINUOUS
 62
   249
 10
185.0
 20
80.0
 30
0.0
 11
190.0
 21
80.0
 31
0.0
  0
LINE
  8
0
  6
CONTINUOUS
 62
   249
 10
175.0
 20
75.0
 30
0.0
 11
175.0
 21
92.5
 31
0.0
  0
LINE
  8
0
  6
CONTINUOUS
 62
   249
 10
180.0
 20
75.0
 30
0.0
 11
180.0
 21
102.5
 31
0.0
  0
LINE
  8
0
  6
CONTINUOUS
 62
   249
 10
190.0
 20
75.0
 30
0.0
 11
190.0
 21
122.5
 31
0.0
  0
CIRCLE
  8
0
 62
   249
 10
232.594798
 20
70.404046
 30
0.0
 40
2.032177
  0
LINE
  8
0
 62
   249
 10
232.159082
 20
68.786939
 30
0.0
 11
232.159082
 21
72.074095
 31
0.0
  0
LINE
  8
0
 62
   249
 10
232.159082
 20
72.093346
 30
0.0
 11
232.159082
 21
71.559123
 31
0.0
  0
LINE
  8
0
 62
   249
 10
233.319828
 20
69.605118
 30
0.0
 11
233.319828
 21
71.313669
 31
0.0
  0
LINE
  8
0
 62
   249
 10
232.159082
 20
70.399234
 30
0.0
 11
230.787521
 21
70.399234
 31
0.0
  0
LINE
  8
0
 62
   249
 10
232.72377
 20
69.085334
 30
0.0
 11
232.72377
 21
71.799764
 31
0.0
  0
LINE
  8
0
  6
CONTINUOUS
 62
   249
 10
205.94422
 20
190.923855
 30
0.0
 11
206.831107
 21
190.923855
 31
0.0
  0
LINE
  8
0
  6
CONTINUOUS
 62
   249
 10
205.613115
 20
191.41203
 30
0.0
 11
207.197686
 21
191.41203
 31
0.0
  0
LINE
  8
0
  6
CONTINUOUS
 62
   249
 10
206.429051
 20
191.89164
 30
0.0
 11
207.623392
 21
191.89164
 31
0.0
  0
LINE
  8
0
  6
CONTINUOUS
 62
   249
 10
205.23471
 20
191.89164
 30
0.0
 11
206.429051
 21
191.89164
 31
0.0
  0
LINE
  8
0
  6
CONTINUOUS
 62
   249
 10
206.444938
 20
193.245911
 30
0.0
 11
206.444938
 21
191.89164
 31
0.0
  0
LINE
  8
0
  6
CONTINUOUS
 62
   249
 10
184.897395
 20
203.388838
 30
0.0
 11
184.897395
 21
202.034568
 31
0.0
  0
LINE
  8
0
  6
CONTINUOUS
 62
   249
 10
183.687168
 20
202.034568
 30
0.0
 11
184.881509
 21
202.034568
 31
0.0
  0
LINE
  8
0
  6
CONTINUOUS
 62
   249
 10
184.881509
 20
202.034568
 30
0.0
 11
186.07585
 21
202.034568
 31
0.0
  0
LINE
  8
0
  6
CONTINUOUS
 62
   249
 10
184.065573
 20
201.554958
 30
0.0
 11
185.650144
 21
201.554958
 31
0.0
  0
LINE
  8
0
  6
CONTINUOUS
 62
   249
 10
184.396677
 20
201.066783
 30
0.0
 11
185.283564
 21
201.066783
 31
0.0
  0
LINE
  8
0
  6
CONTINUOUS
 62
   249
 10
184.897395
 20
195.534789
 30
0.0
 11
184.897395
 21
194.180518
 31
0.0
  0
LINE
  8
0
  6
CONTINUOUS
 62
   249
 10
183.687168
 20
194.180518
 30
0.0
 11
184.881509
 21
194.180518
 31
0.0
  0
LINE
  8
0
  6
CONTINUOUS
 62
   249
 10
184.881509
 20
194.180518
 30
0.0
 11
186.07585
 21
194.180518
 31
0.0
  0
LINE
  8
0
  6
CONTINUOUS
 62
   249
 10
184.065573
 20
193.700908
 30
0.0
 11
185.650144
 21
193.700908
 31
0.0
  0
LINE
  8
0
  6
CONTINUOUS
 62
   249
 10
184.396677
 20
193.212733
 30
0.0
 11
185.283564
 21
193.212733
 31
0.0
  0
LINE
  8
0
  6
CONTINUOUS
 62
   249
 10
184.396677
 20
188.400888
 30
0.0
 11
185.283564
 21
188.400888
 31
0.0
  0
LINE
  8
0
  6
CONTINUOUS
 62
   249
 10
184.065573
 20
188.889062
 30
0.0
 11
185.650144
 21
188.889062
 31
0.0
  0
LINE
  8
0
  6
CONTINUOUS
 62
   249
 10
184.881509
 20
189.368673
 30
0.0
 11
186.07585
 21
189.368673
 31
0.0
  0
LINE
  8
0
  6
CONTINUOUS
 62
   249
 10
183.687168
 20
189.368673
 30
0.0
 11
184.881509
 21
189.368673
 31
0.0
  0
LINE
  8
0
  6
CONTINUOUS
 62
   249
 10
184.897395
 20
190.722943
 30
0.0
 11
184.897395
 21
189.368673
 31
0.0
  0
LINE
  8
0
  6
CONTINUOUS
 62
   249
 10
184.897395
 20
183.17138
 30
0.0
 11
184.897395
 21
181.817109
 31
0.0
  0
LINE
  8
0
  6
CONTINUOUS
 62
   249
 10
183.687168
 20
181.817109
 30
0.0
 11
184.881509
 21
181.817109
 31
0.0
  0
LINE
  8
0
  6
CONTINUOUS
 62
   249
 10
184.881509
 20
181.817109
 30
0.0
 11
186.07585
 21
181.817109
 31
0.0
  0
LINE
  8
0
  6
CONTINUOUS
 62
   249
 10
184.065573
 20
181.337499
 30
0.0
 11
185.650144
 21
181.337499
 31
0.0
  0
LINE
  8
0
  6
CONTINUOUS
 62
   249
 10
184.396677
 20
180.849324
 30
0.0
 11
185.283564
 21
180.849324
 31
0.0
  0
TEXT
  8
0
  6
CONTINUOUS
 62
   249
 10
181.232789
 20
201.252198
 30
0.0
 40
2.5
  1
U
  0
TEXT
  8
0
  6
CONTINUOUS
 62
   249
 10
181.232789
 20
193.409455
 30
0.0
 40
2.5
  1
U
  0
TEXT
  8
0
  6
CONTINUOUS
 62
   249
 10
181.232789
 20
188.566529
 30
0.0
 40
2.5
  1
U
  0
TEXT
  8
0
  6
CONTINUOUS
 62
   249
 10
181.232789
 20
180.957875
 30
0.0
 40
2.5
  1
U
  0
TEXT
  8
0
  6
CONTINUOUS
 62
   249
 10
202.528943
 20
191.168997
 30
0.0
 40
2.5
  1
U
  0
LINE
  8
0
  6
CONTINUOUS
 62
   249
 10
353.824757
 20
208.398928
 30
0.0
 11
353.824757
 21
207.044658
 31
0.0
  0
LINE
  8
0
  6
CONTINUOUS
 62
   249
 10
352.614529
 20
207.044658
 30
0.0
 11
353.80887
 21
207.044658
 31
0.0
  0
LINE
  8
0
  6
CONTINUOUS
 62
   249
 10
353.80887
 20
207.044658
 30
0.0
 11
355.003211
 21
207.044658
 31
0.0
  0
LINE
  8
0
  6
CONTINUOUS
 62
   249
 10
352.992934
 20
206.565048
 30
0.0
 11
354.577506
 21
206.565048
 31
0.0
  0
LINE
  8
0
  6
CONTINUOUS
 62
   249
 10
353.324039
 20
206.076873
 30
0.0
 11
354.210926
 21
206.076873
 31
0.0
  0
LINE
  8
0
  6
CONTINUOUS
 62
   249
 10
353.324039
 20
215.681096
 30
0.0
 11
354.210926
 21
215.681096
 31
0.0
  0
LINE
  8
0
  6
CONTINUOUS
 62
   249
 10
352.992934
 20
216.16927
 30
0.0
 11
354.577506
 21
216.16927
 31
0.0
  0
LINE
  8
0
  6
CONTINUOUS
 62
   249
 10
353.80887
 20
216.648881
 30
0.0
 11
355.003211
 21
216.648881
 31
0.0
  0
LINE
  8
0
  6
CONTINUOUS
 62
   249
 10
352.614529
 20
216.648881
 30
0.0
 11
353.80887
 21
216.648881
 31
0.0
  0
LINE
  8
0
  6
CONTINUOUS
 62
   249
 10
353.824757
 20
218.003151
 30
0.0
 11
353.824757
 21
216.648881
 31
0.0
  0
TEXT
  8
0
  6
CONTINUOUS
 62
   249
 10
349.780546
 20
215.722416
 30
0.0
 40
2.5
  1
U
  0
TEXT
  8
0
  6
CONTINUOUS
 62
   249
 10
349.780546
 20
205.885574
 30
0.0
 40
2.5
  1
U
  0
LINE
  8
0
  6
CONTINUOUS
 62
   249
 10
227.5
 20
195.0
 30
0.0
 11
222.5
 21
195.0
 31
0.0
  0
LINE
  8
0
  6
CONTINUOUS
 62
   249
 10
227.5
 20
187.5
 30
0.0
 11
222.5
 21
187.5
 31
0.0
  0
LINE
  8
0
  6
CONTINUOUS
 62
   249
 10
242.5
 20
195.0
 30
0.0
 11
233.500004
 21
195.0
 31
0.0
  0
LINE
  8
0
  6
CONTINUOUS
 62
   249
 10
242.5
 20
187.5
 30
0.0
 11
233.500004
 21
187.5
 31
0.0
  0
TEXT
  8
0
  6
CONTINUOUS
 62
   249
 10
236.410652
 20
192.5
 30
0.0
 40
2.0
  1
11A
  0
TEXT
  8
0
  6
CONTINUOUS
 62
   249
 10
236.410652
 20
184.959812
 30
0.0
 40
2.0
  1
12A
  0
LINE
  8
0
  6
DASHED
 62
   249
 10
270.0
 20
187.5
 30
0.0
 11
270.0
 21
202.5
 31
0.0
  0
LINE
  8
0
  6
CONTINUOUS
 62
   249
 10
275.0
 20
202.5
 30
0.0
 11
270.0
 21
210.0
 31
0.0
  0
LINE
  8
0
  6
CONTINUOUS
 62
   249
 10
277.5
 20
202.5
 30
0.0
 11
275.0
 21
202.5
 31
0.0
  0
LINE
  8
0
  6
CONTINUOUS
 62
   249
 10
269.006031
 20
207.598556
 30
0.0
 11
269.978167
 21
207.598556
 31
0.0
  0
LINE
  8
0
  6
CONTINUOUS
 62
   249
 10
268.996128
 20
209.999996
 30
0.0
 11
269.973936
 21
209.999996
 31
0.0
  0
LINE
  8
0
  6
CONTINUOUS
 62
   249
 10
269.000897
 20
205.18998
 30
0.0
 11
270.0
 21
205.18998
 31
0.0
  0
ARC
  8
0
  6
CONTINUOUS
 62
   249
 10
268.364862
 20
206.394238
 30
0.0
 40
1.204309
 50
90.0
 51
270.0
  0
LINE
  8
0
  6
CONTINUOUS
 62
   249
 10
268.359898
 20
205.189937
 30
0.0
 11
269.009496
 21
205.189937
 31
0.0
  0
LINE
  8
0
  6
CONTINUOUS
 62
   249
 10
268.358762
 20
209.999993
 30
0.0
 11
269.002261
 21
209.999993
 31
0.0
  0
LINE
  8
0
  6
CONTINUOUS
 62
   249
 10
268.358762
 20
207.598547
 30
0.0
 11
269.00836
 21
207.598547
 31
0.0
  0
ARC
  8
0
  6
CONTINUOUS
 62
   249
 10
268.364862
 20
208.796095
 30
0.0
 40
1.204309
 50
90.0
 51
265.706237
  0
LINE
  8
0
  6
CONTINUOUS
 62
   249
 10
276.506031
 20
207.598556
 30
0.0
 11
277.478167
 21
207.598556
 31
0.0
  0
LINE
  8
0
  6
CONTINUOUS
 62
   249
 10
276.496128
 20
209.999996
 30
0.0
 11
277.473936
 21
209.999996
 31
0.0
  0
LINE
  8
0
  6
CONTINUOUS
 62
   249
 10
276.500897
 20
205.18998
 30
0.0
 11
277.5
 21
205.18998
 31
0.0
  0
ARC
  8
0
  6
CONTINUOUS
 62
   249
 10
275.864862
 20
206.394238
 30
0.0
 40
1.204309
 50
90.0
 51
270.0
  0
LINE
  8
0
  6
CONTINUOUS
 62
   249
 10
275.859898
 20
205.189937
 30
0.0
 11
276.509496
 21
205.189937
 31
0.0
  0
LINE
  8
0
  6
CONTINUOUS
 62
   249
 10
275.858762
 20
209.999993
 30
0.0
 11
276.502261
 21
209.999993
 31
0.0
  0
LINE
  8
0
  6
CONTINUOUS
 62
   249
 10
275.858762
 20
207.598547
 30
0.0
 11
276.50836
 21
207.598547
 31
0.0
  0
ARC
  8
0
  6
CONTINUOUS
 62
   249
 10
275.864862
 20
208.796095
 30
0.0
 40
1.204309
 50
90.0
 51
265.706237
  0
LINE
  8
0
  6
CONTINUOUS
 62
   249
 10
277.5
 20
205.18998
 30
0.0
 11
277.5
 21
202.5
 31
0.0
  0
LINE
  8
0
  6
CONTINUOUS
 62
   249
 10
270.0
 20
205.18998
 30
0.0
 11
270.0
 21
202.5
 31
0.0
  0
LINE
  8
0
  6
DASHED
 62
   249
 10
277.5
 20
220.0
 30
0.0
 11
277.5
 21
237.5
 31
0.0
  0
LINE
  8
0
  6
DASHED
 62
   249
 10
270.0
 20
220.0
 30
0.0
 11
270.0
 21
242.5
 31
0.0
  0
TEXT
  8
0
  6
CONTINUOUS
 62
   249
 10
243.732328
 20
241.485054
 30
0.0
 40
2.0
  1
L1(R)
 11
243.732328
 21
240.818387
 31
0.0
 73
     1
  0
TEXT
  8
0
  6
CONTINUOUS
 62
   249
 10
243.732328
 20
236.428359
 30
0.0
 40
2.0
  1
L2(S)
 11
243.732328
 21
235.761693
 31
0.0
 73
     1
  0
TEXT
  8
0
  6
CONTINUOUS
 62
   249
 10
243.732328
 20
231.506967
 30
0.0
 40
2.0
  1
L3(T)
 11
243.732328
 21
230.8403
 31
0.0
 73
     1
  0
LINE
  8
0
  6
DASHED
 62
   249
 10
295.0
 20
195.0
 30
0.0
 11
295.0
 21
210.0
 31
0.0
  0
LINE
  8
0
  6
DASHED
 62
   249
 10
290.0
 20
215.18998
 30
0.0
 11
299.163362
 21
215.18998
 31
0.0
  0
LINE
  8
0
  6
DASHED
 62
   249
 10
290.0
 20
210.0
 30
0.0
 11
299.34682
 21
210.0
 31
0.0
  0
LINE
  8
0
  6
CONTINUOUS
 62
   249
 10
285.0
 20
210.0
 30
0.0
 11
290.0
 21
210.0
 31
0.0
  0
LINE
  8
0
  6
CONTINUOUS
 62
   249
 10
282.5
 20
202.5
 30
0.0
 11
277.5
 21
210.0
 31
0.0
  0
LINE
  8
0
  6
CONTINUOUS
 62
   249
 10
285.0
 20
202.5
 30
0.0
 11
282.5
 21
202.5
 31
0.0
  0
LINE
  8
0
  6
CONTINUOUS
 62
   249
 10
284.006031
 20
207.598556
 30
0.0
 11
284.978167
 21
207.598556
 31
0.0
  0
LINE
  8
0
  6
CONTINUOUS
 62
   249
 10
283.996128
 20
209.999996
 30
0.0
 11
284.973936
 21
209.999996
 31
0.0
  0
LINE
  8
0
  6
CONTINUOUS
 62
   249
 10
284.000897
 20
205.18998
 30
0.0
 11
285.0
 21
205.18998
 31
0.0
  0
ARC
  8
0
  6
CONTINUOUS
 62
   249
 10
283.364862
 20
206.394238
 30
0.0
 40
1.204309
 50
90.0
 51
270.0
  0
LINE
  8
0
  6
CONTINUOUS
 62
   249
 10
283.359898
 20
205.189937
 30
0.0
 11
284.009496
 21
205.189937
 31
0.0
  0
LINE
  8
0
  6
CONTINUOUS
 62
   249
 10
283.358762
 20
209.999993
 30
0.0
 11
284.002261
 21
209.999993
 31
0.0
  0
LINE
  8
0
  6
CONTINUOUS
 62
   249
 10
283.358762
 20
207.598547
 30
0.0
 11
284.00836
 21
207.598547
 31
0.0
  0
ARC
  8
0
  6
CONTINUOUS
 62
   249
 10
283.364862
 20
208.796095
 30
0.0
 40
1.204309
 50
90.0
 51
265.706237
  0
LINE
  8
0
  6
CONTINUOUS
 62
   249
 10
285.0
 20
205.18998
 30
0.0
 11
285.0
 21
202.5
 31
0.0
  0
LINE
  8
0
  6
CONTINUOUS
 62
   249
 10
270.0
 20
215.18998
 30
0.0
 11
290.0
 21
215.18998
 31
0.0
  0
LINE
  8
0
  6
DASHED
 62
   249
 10
285.0
 20
220.0
 30
0.0
 11
285.0
 21
232.5
 31
0.0
  0
LINE
  8
0
  6
DASHED
 62
   249
 10
321.095465
 20
232.5
 30
0.0
 11
255.0
 21
232.5
 31
0.0
  0
LINE
  8
0
  6
DASHED
 62
   249
 10
321.095465
 20
237.5
 30
0.0
 11
255.0
 21
237.5
 31
0.0
  0
LINE
  8
0
  6
DASHED
 62
   249
 10
321.095465
 20
242.5
 30
0.0
 11
255.0
 21
242.5
 31
0.0
  0
LINE
  8
0
  6
DASHED
 62
   249
 10
295.0
 20
195.0
 30
0.0
 11
242.5
 21
195.0
 31
0.0
  0
LINE
  8
0
  6
DASHED
 62
   249
 10
270.0
 20
187.5
 30
0.0
 11
242.5
 21
187.5
 31
0.0
  0
LINE
  8
0
  6
CONTINUOUS
 62
   249
 10
170.0
 20
80.0
 30
0.0
 11
170.0
 21
85.0
 31
0.0
  0
LINE
  8
0
  6
CONTINUOUS
 62
   249
 10
170.0
 20
80.0
 30
0.0
 11
175.0
 21
80.0
 31
0.0
  0
LINE
  8
0
  6
CONTINUOUS
 62
   249
 10
150.0
 20
85.0
 30
0.0
 11
144.256076
 21
81.785297
 31
0.0
  0
LINE
  8
0
  6
CONTINUOUS
 62
   249
 10
145.0
 20
80.0
 30
0.0
 11
145.0
 21
82.5
 31
0.0
  0
LINE
  8
0
  6
CONTINUOUS
 62
   249
 10
145.0
 20
80.0
 30
0.0
 11
50.0
 21
80.0
 31
0.0
  0
LINE
  8
0
  6
CONTINUOUS
 62
   249
 10
50.0
 20
85.0
 30
0.0
 11
145.0
 21
85.0
 31
0.0
  0
LINE
  8
0
  6
CONTINUOUS
 62
   249
 10
160.0
 20
72.5
 30
0.0
 11
165.0
 21
72.5
 31
0.0
  0
LINE
  8
0
  6
CONTINUOUS
 62
   249
 10
150.0
 20
85.0
 30
0.0
 11
170.0
 21
85.0
 31
0.0
  0
TEXT
  8
0
  6
CONTINUOUS
 62
   249
 10
140.0
 20
85.790867
 30
0.0
 40
2.0
  1
F
  0
LINE
  8
0
  6
CONTINUOUS
 62
   249
 10
147.5
 20
137.5
 30
0.0
 11
147.5
 21
132.5
 31
0.0
  0
LINE
  8
0
  6
DASHED
 62
   249
 10
147.5
 20
132.5
 30
0.0
 11
147.5
 21
82.5
 31
0.0
  0
TEXT
  8
0
  6
CONTINUOUS
 62
   249
 10
52.5
 20
81.633001
 30
0.0
 40
2.0
  1
108:74
  0
TEXT
  8
0
  6
CONTINUOUS
 62
   249
 10
52.5
 20
76.666667
 30
0.0
 40
2.0
  1
108:73
  0
LINE
  8
0
  6
DASHED
 62
   249
 10
50.0
 20
80.0
 30
0.0
 11
40.0
 21
80.0
 31
0.0
  0
LINE
  8
0
  6
DASHED
 62
   249
 10
50.0
 20
67.5
 30
0.0
 11
40.0
 21
67.5
 31
0.0
  0
LINE
  8
0
  6
CONTINUOUS
 62
   249
 10
37.5
 20
79.5
 30
0.0
 11
38.5
 21
78.5
 31
0.0
  0
LINE
  8
0
  6
CONTINUOUS
 62
   249
 10
37.5
 20
93.0
 30
0.0
 11
38.5
 21
94.0
 31
0.0
  0
LINE
  8
0
  6
CONTINUOUS
 62
   249
 10
37.5
 20
93.0
 30
0.0
 11
37.5
 21
79.5
 31
0.0
  0
TEXT
  8
0
  6
CONTINUOUS
 62
   249
 10
50.0
 20
55.0
 30
0.0
 40
2.0
  1
DIM. 160 X 193
  0
TEXT
  8
0
  6
CONTINUOUS
 62
   249
 10
50.0
 20
51.666667
 30
0.0
 40
2.0
  1
RS 10152-AAA
  0
TEXT
  8
0
  6
CONTINUOUS
 62
   249
 10
342.5
 20
195.0
 30
0.0
 40
2.0
  1
NEUTRAL VOLTAGE
  0
TEXT
  8
0
  6
CONTINUOUS
 62
   249
 10
342.5
 20
191.666667
 30
0.0
 40
2.0
  1
RELAY
  0
TEXT
  8
0
  6
CONTINUOUS
 62
   249
 10
342.5
 20
188.333333
 30
0.0
 40
2.0
  1
NOLLPUNKTSRELÄ
  0
TEXT
  8
0
  6
CONTINUOUS
 62
   249
 10
213.362569
 20
28.38989
 30
0.0
 40
2.0
  1
1992-08-14 HJ / RITU
  0
TEXT
  8
0
  6
CONTINUOUS
 62
   249
 10
322.5
 20
27.5
 30
0.0
 40
2.0
  1
TERMINAL DIAGRAM / UTTAGSSCHEMA
  0
TEXT
  8
0
  6
CONTINUOUS
 62
   249
 10
322.5
 20
24.166667
 30
0.0
 40
2.0
  1
SPAU 110 C WITH TEST SWITCH
  0
TEXT
  8
0
  6
CONTINUOUS
 62
   249
 10
322.5
 20
20.833333
 30
0.0
 40
2.0
  1
SPAU 110 C MED PROVDON
  0
TEXT
  8
0
  6
CONTINUOUS
 62
   249
 10
322.5
 20
2.5
 30
0.0
 40
2.5
  1
RS 10152-AAA
  0
TEXT
  8
0
  6
CONTINUOUS
 62
   249
 10
380.0
 20
2.5
 30
0.0
 40
2.5
  1
B
  0
TEXT
  8
0
  6
CONTINUOUS
 62
   249
 10
49.158039
 20
1.156219
 30
0.0
 40
2.0
  1
REDRAWN WITH AUTOCAD 1992-08-14 HJ / RITU
  0
TEXT
  8
0
  6
CONTINUOUS
 62
   249
 10
75.0
 20
215.0
 30
0.0
 40
2.0
  1
RS 10152-AA  SPAU 110 C 
  0
LINE
  8
0
  6
CONTINUOUS
 62
   249
 10
68.518035
 20
209.993411
 30
0.0
 11
61.837159
 21
212.434804
 31
0.0
  0
LINE
  8
0
  6
CONTINUOUS
 62
   249
 10
62.5
 20
209.991507
 30
0.0
 11
62.5
 21
212.765661
 31
0.0
  0
LINE
  8
0
  6
CONTINUOUS
 62
   249
 10
61.837159
 20
212.434804
 30
0.0
 11
61.392266
 21
211.549106
 31
0.0
  0
LINE
  8
0
  6
CONTINUOUS
 62
   249
 10
226.837159
 20
189.934804
 30
0.0
 11
226.392266
 21
189.049106
 31
0.0
  0
LINE
  8
0
  6
CONTINUOUS
 62
   249
 10
227.5
 20
187.491507
 30
0.0
 11
227.5
 21
190.265661
 31
0.0
  0
LINE
  8
0
  6
CONTINUOUS
 62
   249
 10
233.518035
 20
187.493411
 30
0.0
 11
226.837159
 21
189.934804
 31
0.0
  0
LINE
  8
0
  6
CONTINUOUS
 62
   249
 10
233.518035
 20
194.993411
 30
0.0
 11
226.837159
 21
197.434804
 31
0.0
  0
LINE
  8
0
  6
CONTINUOUS
 62
   249
 10
227.5
 20
194.991507
 30
0.0
 11
227.5
 21
197.765661
 31
0.0
  0
LINE
  8
0
  6
CONTINUOUS
 62
   249
 10
226.837159
 20
197.434804
 30
0.0
 11
226.392266
 21
196.549106
 31
0.0
  0
LINE
  8
0
  6
CONTINUOUS
 62
   249
 10
62.5
 20
122.491507
 30
0.0
 11
62.5
 21
125.265661
 31
0.0
  0
LINE
  8
0
  6
CONTINUOUS
 62
   249
 10
68.518035
 20
122.493411
 30
0.0
 11
61.837159
 21
124.934804
 31
0.0
  0
LINE
  8
0
  6
CONTINUOUS
 62
   249
 10
62.5
 20
112.491507
 30
0.0
 11
62.5
 21
115.265661
 31
0.0
  0
LINE
  8
0
  6
CONTINUOUS
 62
   249
 10
68.518035
 20
112.493411
 30
0.0
 11
61.837159
 21
114.934804
 31
0.0
  0
LINE
  8
0
  6
CONTINUOUS
 62
   249
 10
190.0
 20
68.999996
 30
0.0
 11
190.0
 21
60.0
 31
0.0
  0
LINE
  8
0
  6
CONTINUOUS
 62
   249
 10
195.0
 20
75.0
 30
0.0
 11
195.0
 21
78.587694
 31
0.0
  0
LINE
  8
0
  6
CONTINUOUS
 62
   249
 10
195.0
 20
79.78623
 30
0.0
 11
195.0
 21
82.28623
 31
0.0
  0
LINE
  8
0
  6
CONTINUOUS
 62
   249
 10
195.0
 20
68.999996
 30
0.0
 11
195.0
 21
60.0
 31
0.0
  0
LINE
  8
0
  6
CONTINUOUS
 62
   249
 10
195.0
 20
68.999996
 30
0.0
 11
197.434804
 21
75.662841
 31
0.0
  0
LINE
  8
0
  6
CONTINUOUS
 62
   249
 10
195.0
 20
75.0
 30
0.0
 11
197.765661
 21
75.0
 31
0.0
  0
LINE
  8
0
  6
CONTINUOUS
 62
   249
 10
197.434804
 20
75.662841
 30
0.0
 11
196.549106
 21
76.107734
 31
0.0
  0
LINE
  8
0
  6
CONTINUOUS
 62
   249
 10
190.0
 20
75.0
 30
0.0
 11
192.765661
 21
75.0
 31
0.0
  0
LINE
  8
0
  6
CONTINUOUS
 62
   249
 10
192.434804
 20
75.662841
 30
0.0
 11
191.549106
 21
76.107734
 31
0.0
  0
LINE
  8
0
  6
CONTINUOUS
 62
   249
 10
190.0
 20
68.999996
 30
0.0
 11
192.434804
 21
75.662841
 31
0.0
  0
LINE
  8
0
  6
CONTINUOUS
 62
   249
 10
180.0
 20
68.999996
 30
0.0
 11
180.0
 21
60.0
 31
0.0
  0
LINE
  8
0
  6
CONTINUOUS
 62
   249
 10
180.0
 20
68.999996
 30
0.0
 11
182.434804
 21
75.662841
 31
0.0
  0
LINE
  8
0
  6
CONTINUOUS
 62
   249
 10
180.0
 20
75.0
 30
0.0
 11
182.765661
 21
75.0
 31
0.0
  0
LINE
  8
0
  6
CONTINUOUS
 62
   249
 10
175.0
 20
68.999996
 30
0.0
 11
175.0
 21
60.0
 31
0.0
  0
LINE
  8
0
  6
CONTINUOUS
 62
   249
 10
175.0
 20
68.999996
 30
0.0
 11
177.434804
 21
75.662841
 31
0.0
  0
LINE
  8
0
  6
CONTINUOUS
 62
   249
 10
175.0
 20
75.0
 30
0.0
 11
177.765661
 21
75.0
 31
0.0
  0
LINE
  8
0
  6
CONTINUOUS
 62
   249
 10
177.434804
 20
75.662841
 30
0.0
 11
176.549106
 21
76.107734
 31
0.0
  0
TEXT
  8
0
  6
DASHED
 62
   249
 10
292.217194
 20
11.813359
 30
0.0
 40
3.0
  1
A3
  7
GREEKS
  0
TEXT
  8
0
  6
DASHED
 62
   249
 10
351.818577
 20
15.69253
 30
0.0
 40
1.4
  1
LEHTI SHEET
  7
GREEKS
  0
LINE
  8
0
 62
   249
 10
0.237099
 20
262.737999
 30
0.0
 11
392.237099
 21
262.737999
 31
0.0
  0
LINE
  8
0
 62
   249
 10
18.237099
 20
0.237999
 30
0.0
 11
0.237099
 21
0.237999
 31
0.0
  0
LINE
  8
0
 62
   249
 10
209.237099
 20
0.237999
 30
0.0
 11
392.237099
 21
0.237999
 31
0.0
  0
LINE
  8
0
 62
   249
 10
209.237099
 20
0.237999
 30
0.0
 11
209.237099
 21
35.237999
 31
0.0
  0
LINE
  8
0
 62
   249
 10
392.237099
 20
0.237999
 30
0.0
 11
392.237099
 21
35.237999
 31
0.0
  0
LINE
  8
0
 62
   249
 10
209.237099
 20
18.237999
 30
0.0
 11
392.237099
 21
18.237999
 31
0.0
  0
LINE
  8
0
 62
   249
 10
209.237099
 20
9.737999
 30
0.0
 11
392.237099
 21
9.737999
 31
0.0
  0
LINE
  8
0
 62
   249
 10
209.237099
 20
26.737999
 30
0.0
 11
307.237099
 21
26.737999
 31
0.0
  0
LINE
  8
0
 62
   249
 10
209.237099
 20
35.237999
 30
0.0
 11
392.237099
 21
35.237999
 31
0.0
  0
TEXT
  8
0
 62
   249
 10
210.237099
 20
23.971333
 30
0.0
 40
1.4
  1
TARKASTI  CHECKED
  7
ROMANS
  0
TEXT
  8
0
 62
   249
 10
209.979934
 20
15.704666
 30
0.0
 40
1.4
  1
HYVÄKSYI  APPROVED
  7
ROMANS
  0
LINE
  8
0
 62
   249
 10
307.237099
 20
0.237999
 30
0.0
 11
307.237099
 21
35.237999
 31
0.0
  0
TEXT
  8
0
 62
   249
 10
259.237099
 20
32.737999
 30
0.0
 40
1.4
  1
LIITTYY  CONCERNING
  7
ROMANS
  0
TEXT
  8
0
 62
   249
 10
259.237099
 20
23.737999
 30
0.0
 40
1.4
  1
TOLERANSSIT  TOLERANCES
  7
ROMANS
  0
TEXT
  8
0
 62
   249
 10
259.237099
 20
15.737999
 30
0.0
 40
1.4
  1
SUHDE  SCALE
  7
ROMANS
  0
TEXT
  8
0
 62
   249
 10
309.237099
 20
32.737999
 30
0.0
 40
1.4
  1
NIMITYS  NAME
  7
ROMANS
  0
TEXT
  8
0
 62
   249
 10
309.237099
 20
15.737999
 30
0.0
 40
1.4
  1
KOODI  CODE
  7
ROMANS
  0
TEXT
  8
0
 62
   249
 10
309.237099
 20
7.237999
 30
0.0
 40
1.4
  1
PIIRUSTUS NO  DRAWING NR
  7
ROMANS
  0
LINE
  8
0
 62
   249
 10
349.737099
 20
9.737999
 30
0.0
 11
349.737099
 21
18.237999
 31
0.0
  0
TEXT
  8
0
 62
   249
 10
371.237099
 20
7.237999
 30
0.0
 40
1.4
  1
PAINOS  REVISION
  7
ROMANS
  0
LINE
  8
0
 62
   249
 10
369.737099
 20
9.737999
 30
0.0
 11
369.737099
 21
0.237999
 31
0.0
  0
LINE
  8
0
 62
   249
 10
210.187099
 20
1.737999
 30
0.0
 11
211.937099
 21
1.737999
 31
0.0
  0
LINE
  8
0
 62
   249
 10
215.437099
 20
1.737999
 30
0.0
 11
217.187099
 21
1.737999
 31
0.0
  0
LINE
  8
0
 62
   249
 10
212.637099
 20
8.737999
 30
0.0
 11
211.459571
 21
5.373634
 31
0.0
  0
LINE
  8
0
 62
   249
 10
212.425886
 20
3.137999
 30
0.0
 11
213.547099
 21
3.137999
 31
0.0
  0
LINE
  8
0
 62
   249
 10
212.425889
 20
3.134542
 30
0.0
 11
211.937099
 21
1.737999
 31
0.0
  0
LINE
  8
0
 62
   249
 10
214.737099
 20
8.737999
 30
0.0
 11
215.913452
 21
5.376991
 31
0.0
  0
LINE
  8
0
 62
   249
 10
214.948197
 20
3.134863
 30
0.0
 11
215.437099
 21
1.737999
 31
0.0
  0
LINE
  8
0
 62
   249
 10
214.737099
 20
8.737999
 30
0.0
 11
213.827099
 21
8.737999
 31
0.0
  0
LINE
  8
0
 62
   249
 10
213.547099
 20
8.737999
 30
0.0
 11
213.547099
 21
5.377999
 31
0.0
  0
LINE
  8
0
 62
   249
 10
213.827099
 20
8.737999
 30
0.0
 11
213.827099
 21
5.377999
 31
0.0
  0
LINE
  8
0
 62
   249
 10
213.827099
 20
3.137999
 30
0.0
 11
214.946992
 21
3.137999
 31
0.0
  0
LINE
  8
0
 62
   249
 10
213.547099
 20
8.737999
 30
0.0
 11
212.637099
 21
8.737999
 31
0.0
  0
LINE
  8
0
 62
   249
 10
211.45904
 20
5.377999
 30
0.0
 11
213.547099
 21
5.377999
 31
0.0
  0
LINE
  8
0
 62
   249
 10
211.360082
 20
5.097999
 30
0.0
 11
213.547099
 21
5.097999
 31
0.0
  0
LINE
  8
0
 62
   249
 10
216.011591
 20
5.096594
 30
0.0
 11
217.187099
 21
1.737999
 31
0.0
  0
LINE
  8
0
 62
   249
 10
213.827099
 20
5.377999
 30
0.0
 11
215.912213
 21
5.377999
 31
0.0
  0
LINE
  8
0
 62
   249
 10
213.827099
 20
5.097999
 30
0.0
 11
216.010356
 21
5.097999
 31
0.0
  0
LINE
  8
0
 62
   249
 10
213.827099
 20
5.097999
 30
0.0
 11
213.827099
 21
3.137999
 31
0.0
  0
LINE
  8
0
 62
   249
 10
213.547099
 20
5.097999
 30
0.0
 11
213.547099
 21
3.137999
 31
0.0
  0
LINE
  8
0
 62
   249
 10
211.356988
 20
5.080538
 30
0.0
 11
210.187099
 21
1.737999
 31
0.0
  0
INSERT
  8
0
 62
   249
  2
*X56
 10
210.187099
 20
1.737999
 30
0.0
 41
0.7
 42
0.7
 43
0.7
  0
INSERT
  8
0
 62
   249
  2
*X57
 10
210.187099
 20
1.737999
 30
0.0
 41
0.7
 42
0.7
 43
0.7
  0
INSERT
  8
0
 62
   249
  2
*X58
 10
210.187099
 20
1.737999
 30
0.0
 41
0.7
 42
0.7
 43
0.7
  0
INSERT
  8
0
 62
   249
  2
*X59
 10
210.187099
 20
1.737999
 30
0.0
 41
0.7
 42
0.7
 43
0.7
  0
LINE
  8
0
 62
   249
 10
217.677099
 20
1.737999
 30
0.0
 11
217.677099
 21
5.097999
 31
0.0
  0
LINE
  8
0
 62
   249
 10
217.677099
 20
8.737999
 30
0.0
 11
219.637099
 21
8.737999
 31
0.0
  0
LINE
  8
0
 62
   249
 10
219.637099
 20
8.737999
 30
0.0
 11
219.637099
 21
5.377999
 31
0.0
  0
LINE
  8
0
 62
   249
 10
219.637099
 20
5.377999
 30
0.0
 11
217.677099
 21
5.377999
 31
0.0
  0
LINE
  8
0
 62
   249
 10
217.677099
 20
5.097999
 30
0.0
 11
219.637099
 21
5.097999
 31
0.0
  0
LINE
  8
0
 62
   249
 10
219.637099
 20
5.097999
 30
0.0
 11
219.637099
 21
1.737999
 31
0.0
  0
LINE
  8
0
 62
   249
 10
219.637099
 20
1.737999
 30
0.0
 11
217.677099
 21
1.737999
 31
0.0
  0
LINE
  8
0
 62
   249
 10
217.677099
 20
5.377999
 30
0.0
 11
217.677099
 21
8.737999
 31
0.0
  0
ARC
  8
0
 62
   249
 10
220.477099
 20
7.162999
 30
0.0
 40
1.575
 50
298.455859
 51
90.052437
  0
LINE
  8
0
 62
   249
 10
219.917099
 20
8.737999
 30
0.0
 11
220.475658
 21
8.737999
 31
0.0
  0
LINE
  8
0
 62
   249
 10
219.917099
 20
8.737999
 30
0.0
 11
219.917099
 21
5.377999
 31
0.0
  0
LINE
  8
0
 62
   249
 10
219.917099
 20
5.377999
 30
0.0
 11
221.901542
 21
5.377999
 31
0.0
  0
LINE
  8
0
 62
   249
 10
222.157099
 20
5.097999
 30
0.0
 11
219.917099
 21
5.097999
 31
0.0
  0
LINE
  8
0
 62
   249
 10
219.917099
 20
5.097999
 30
0.0
 11
219.917099
 21
1.737999
 31
0.0
  0
ARC
  8
0
 62
   249
 10
220.477099
 20
3.837999
 30
0.0
 40
2.1
 50
269.937724
 51
37.056553
  0
LINE
  8
0
 62
   249
 10
219.917099
 20
1.737999
 30
0.0
 11
220.474817
 21
1.738
 31
0.0
  0
ARC
  8
0
 62
   249
 10
220.477099
 20
3.837999
 30
0.0
 40
2.1
 50
47.28622
 51
68.787999
  0
INSERT
  8
0
 62
   249
  2
*X60
 10
210.187099
 20
1.737999
 30
0.0
 41
0.7
 42
0.7
 43
0.7
  0
INSERT
  8
0
 62
   249
  2
*X61
 10
210.187099
 20
1.737999
 30
0.0
 41
0.7
 42
0.7
 43
0.7
  0
INSERT
  8
0
 62
   249
  2
*X62
 10
210.187099
 20
1.737999
 30
0.0
 41
0.7
 42
0.7
 43
0.7
  0
INSERT
  8
0
 62
   249
  2
*X63
 10
210.187099
 20
1.737999
 30
0.0
 41
0.7
 42
0.7
 43
0.7
  0
INSERT
  8
0
 62
   249
  2
*X63
 10
215.647099
 20
1.737999
 30
0.0
 41
0.7
 42
0.7
 43
0.7
  0
INSERT
  8
0
 62
   249
  2
*X62
 10
215.647099
 20
1.737999
 30
0.0
 41
0.7
 42
0.7
 43
0.7
  0
INSERT
  8
0
 62
   249
  2
*X61
 10
215.647099
 20
1.737999
 30
0.0
 41
0.7
 42
0.7
 43
0.7
  0
INSERT
  8
0
 62
   249
  2
*X60
 10
215.647099
 20
1.737999
 30
0.0
 41
0.7
 42
0.7
 43
0.7
  0
ARC
  8
0
 62
   249
 10
225.937099
 20
3.837999
 30
0.0
 40
2.1
 50
47.28622
 51
68.787999
  0
LINE
  8
0
 62
   249
 10
225.377099
 20
1.737999
 30
0.0
 11
225.934817
 21
1.738
 31
0.0
  0
ARC
  8
0
 62
   249
 10
225.937099
 20
3.837999
 30
0.0
 40
2.1
 50
269.937724
 51
37.056553
  0
LINE
  8
0
 62
   249
 10
225.377099
 20
5.097999
 30
0.0
 11
225.377099
 21
1.737999
 31
0.0
  0
LINE
  8
0
 62
   249
 10
227.617099
 20
5.097999
 30
0.0
 11
225.377099
 21
5.097999
 31
0.0
  0
LINE
  8
0
 62
   249
 10
225.377099
 20
5.377999
 30
0.0
 11
227.361542
 21
5.377999
 31
0.0
  0
LINE
  8
0
 62
   249
 10
225.377099
 20
8.737999
 30
0.0
 11
225.377099
 21
5.377999
 31
0.0
  0
LINE
  8
0
 62
   249
 10
225.377099
 20
8.737999
 30
0.0
 11
225.935658
 21
8.737999
 31
0.0
  0
ARC
  8
0
 62
   249
 10
225.937099
 20
7.162999
 30
0.0
 40
1.575
 50
298.455859
 51
90.052437
  0
LINE
  8
0
 62
   249
 10
223.137099
 20
5.377999
 30
0.0
 11
223.137099
 21
8.737999
 31
0.0
  0
LINE
  8
0
 62
   249
 10
225.097099
 20
1.737999
 30
0.0
 11
223.137099
 21
1.737999
 31
0.0
  0
LINE
  8
0
 62
   249
 10
225.097099
 20
5.097999
 30
0.0
 11
225.097099
 21
1.737999
 31
0.0
  0
LINE
  8
0
 62
   249
 10
223.137099
 20
5.097999
 30
0.0
 11
225.097099
 21
5.097999
 31
0.0
  0
LINE
  8
0
 62
   249
 10
225.097099
 20
5.377999
 30
0.0
 11
223.137099
 21
5.377999
 31
0.0
  0
LINE
  8
0
 62
   249
 10
225.097099
 20
8.737999
 30
0.0
 11
225.097099
 21
5.377999
 31
0.0
  0
LINE
  8
0
 62
   249
 10
223.137099
 20
8.737999
 30
0.0
 11
225.097099
 21
8.737999
 31
0.0
  0
LINE
  8
0
 62
   249
 10
223.137099
 20
1.737999
 30
0.0
 11
223.137099
 21
5.097999
 31
0.0
  0
TEXT
  8
0
 62
   249
 10
229.737099
 20
1.737999
 30
0.0
 40
3.0
  1
ABB 
 41
0.8
  7
ROMANS
  0
TEXT
  8
0
 62
   249
 10
237.737099
 20
1.737999
 30
0.0
 40
3.0
  1
Strömberg
 41
0.8
  7
ROMANS
  0
LINE
  8
0
 62
   249
 10
282.237099
 20
9.737999
 30
0.0
 11
282.237099
 21
18.237999
 31
0.0
  0
TEXT
  8
0
 62
   249
 10
27.737099
 20
4.737999
 30
0.0
 40
1.4
  1
MUUTOS
  7
ROMANS
  0
TEXT
  8
0
 62
   249
 10
27.737099
 20
2.471333
 30
0.0
 40
1.4
  1
REVISION
  7
ROMANS
  0
LINE
  8
0
 62
   249
 10
46.737099
 20
9.237999
 30
0.0
 11
209.237099
 21
9.237999
 31
0.0
  0
LINE
  8
0
 62
   249
 10
46.737099
 20
0.237999
 30
0.0
 11
46.737099
 21
9.237999
 31
0.0
  0
LINE
  8
0
 62
   249
 10
40.737099
 20
4.737999
 30
0.0
 11
209.237099
 21
4.737999
 31
0.0
  0
LINE
  8
0
 62
   249
 10
257.237099
 20
9.737999
 30
0.0
 11
257.237099
 21
35.237999
 31
0.0
  0
LINE
  8
0
 62
   249
 10
271.237099
 20
9.737999
 30
0.0
 11
271.237099
 21
0.237999
 31
0.0
  0
TEXT
  8
0
 62
   249
 10
210.237099
 20
32.237999
 30
0.0
 40
1.4
  1
TEKI  PREPARED
  7
ROMANS
  0
TEXT
  8
0
 62
   249
 10
273.237099
 20
7.237999
 30
0.0
 40
1.4
  1
VAST.OSASTO RESP.DEPT.
  7
ROMANS
  0
TEXT
  8
0
 62
   249
 10
257.407006
 20
1.741783
 30
0.0
 40
3.0
  1
Power
 41
0.8
  7
ROMANS
  0
TEXT
  8
0
 62
   249
 10
42.237099
 20
1.195292
 30
0.0
 40
2.5
  1
B
  7
ROMANS
  0
TEXT
  8
0
 62
   249
 10
42.237099
 20
5.587508
 30
0.0
 40
2.5
  1
C
  7
ROMANS
  0
LINE
  8
0
 62
   249
 10
0.237099
 20
0.237999
 30
0.0
 11
392.237099
 21
0.237999
 31
0.0
  0
LINE
  8
0
 62
   249
 10
392.237099
 20
262.737999
 30
0.0
 11
392.237099
 21
0.237999
 31
0.0
  0
LINE
  8
0
 62
   249
 10
0.237099
 20
0.237999
 30
0.0
 11
0.237099
 21
262.737999
 31
0.0
  0
ARC
  8
0
  6
CONTINUOUS
 62
   249
 10
175.0
 20
80.0
 30
0.0
 40
0.5
 50
180.0
 51
0.0
  0
ARC
  8
0
  6
CONTINUOUS
 62
   249
 10
175.0
 20
80.0
 30
0.0
 40
0.5
 50
0.0
 51
180.0
  0
ARC
  8
0
  6
CONTINUOUS
 62
   249
 10
190.0
 20
80.0
 30
0.0
 40
0.5
 50
180.0
 51
0.0
  0
ARC
  8
0
  6
CONTINUOUS
 62
   249
 10
190.0
 20
80.0
 30
0.0
 40
0.5
 50
0.0
 51
180.0
  0
LINE
  8
0
 62
   249
 10
28.502721
 20
208.135937
 30
0.0
 11
32.502721
 21
208.135937
 31
0.0
  0
INSERT
  8
0
 62
   249
  2
WKU130
 10
28.84267
 20
206.410384
 30
0.0
 41
0.8
 42
0.8
 43
0.8
  0
TEXT
  8
0
  6
CONTINUOUS
 62
   249
 10
33.856411
 20
204.00558
 30
0.0
 40
2.0
  1
-
  0
TEXT
  8
0
  6
CONTINUOUS
 62
   249
 10
33.864976
 20
209.013635
 30
0.0
 40
2.0
  1
+
  0
ARC
  8
0
  6
DASHED
 62
   249
 10
100.0
 20
181.993304
 30
0.0
 40
0.5
 50
180.0
 51
0.0
  0
ARC
  8
0
  6
DASHED
 62
   249
 10
100.0
 20
181.993304
 30
0.0
 40
0.5
 50
0.0
 51
180.0
  0
ARC
  8
0
  6
DASHED
 62
   249
 10
95.0
 20
194.493304
 30
0.0
 40
0.5
 50
180.0
 51
0.0
  0
ARC
  8
0
  6
DASHED
 62
   249
 10
95.0
 20
194.493304
 30
0.0
 40
0.5
 50
0.0
 51
180.0
  0
ARC
  8
0
  6
DASHED
 62
   249
 10
117.5
 20
181.993304
 30
0.0
 40
0.5
 50
180.0
 51
0.0
  0
ARC
  8
0
  6
DASHED
 62
   249
 10
117.5
 20
181.993304
 30
0.0
 40
0.5
 50
0.0
 51
180.0
  0
ARC
  8
0
  6
DASHED
 62
   249
 10
112.5
 20
194.493304
 30
0.0
 40
0.5
 50
180.0
 51
0.0
  0
ARC
  8
0
  6
DASHED
 62
   249
 10
112.5
 20
194.493304
 30
0.0
 40
0.5
 50
0.0
 51
180.0
  0
LINE
  8
0
  6
CONTINUOUS
 62
   249
 10
171.404193
 20
171.989958
 30
0.0
 11
169.058427
 21
173.325312
 31
0.0
  0
LINE
  8
0
  6
CONTINUOUS
 62
   249
 10
169.058427
 20
173.325312
 30
0.0
 11
171.404193
 21
174.515231
 31
0.0
  0
ARC
  8
0
  6
DASHED
 62
   249
 10
137.5
 20
181.993304
 30
0.0
 40
0.5
 50
180.0
 51
0.0
  0
ARC
  8
0
  6
DASHED
 62
   249
 10
137.5
 20
181.993304
 30
0.0
 40
0.5
 50
0.0
 51
180.0
  0
ARC
  8
0
  6
CONTINUOUS
 62
   249
 10
147.5
 20
202.5
 30
0.0
 40
0.5
 50
180.0
 51
0.0
  0
ARC
  8
0
  6
CONTINUOUS
 62
   249
 10
147.5
 20
202.5
 30
0.0
 40
0.5
 50
0.0
 51
180.0
  0
ARC
  8
0
  6
DASHED
 62
   249
 10
160.0
 20
197.968636
 30
0.0
 40
0.5
 50
180.0
 51
0.0
  0
ARC
  8
0
  6
DASHED
 62
   249
 10
160.0
 20
197.968636
 30
0.0
 40
0.5
 50
0.0
 51
180.0
  0
LINE
  8
0
  6
CONTINUOUS
 62
   249
 10
171.398107
 20
180.65795
 30
0.0
 11
169.052341
 21
181.993304
 31
0.0
  0
LINE
  8
0
  6
CONTINUOUS
 62
   249
 10
169.052341
 20
181.993304
 30
0.0
 11
171.398107
 21
183.183223
 31
0.0
  0
LINE
  8
0
  6
CONTINUOUS
 62
   249
 10
171.398107
 20
188.664636
 30
0.0
 11
169.052341
 21
189.99999
 31
0.0
  0
LINE
  8
0
  6
CONTINUOUS
 62
   249
 10
169.052341
 20
189.99999
 30
0.0
 11
171.398107
 21
191.189909
 31
0.0
  0
LINE
  8
0
  6
CONTINUOUS
 62
   249
 10
171.398107
 20
201.164646
 30
0.0
 11
169.052341
 21
202.5
 31
0.0
  0
LINE
  8
0
  6
CONTINUOUS
 62
   249
 10
169.052341
 20
202.5
 30
0.0
 11
171.398107
 21
203.689919
 31
0.0
  0
LINE
  8
0
  6
CONTINUOUS
 62
   249
 10
171.398107
 20
193.15795
 30
0.0
 11
169.052341
 21
194.493304
 31
0.0
  0
LINE
  8
0
  6
CONTINUOUS
 62
   249
 10
169.052341
 20
194.493304
 30
0.0
 11
171.398107
 21
195.683223
 31
0.0
  0
LINE
  8
0
 62
   249
 10
213.065579
 20
45.783527
 30
0.0
 11
217.065579
 21
45.783527
 31
0.0
  0
INSERT
  8
0
 62
   249
  2
WKU130
 10
213.405529
 20
44.057974
 30
0.0
 41
0.8
 42
0.8
 43
0.8
  0
TEXT
  8
0
  6
CONTINUOUS
 62
   249
 10
211.853328
 20
46.513635
 30
0.0
 40
2.0
  1
+
  0
TEXT
  8
0
  6
CONTINUOUS
 62
   249
 10
216.844763
 20
46.50558
 30
0.0
 40
2.0
  1
-
  0
LINE
  8
0
  6
CONTINUOUS
 62
   249
 10
217.5
 20
80.429605
 30
0.0
 11
217.5
 21
77.5
 31
0.0
  0
LINE
  8
0
  6
CONTINUOUS
 62
   249
 10
212.5
 20
80.429605
 30
0.0
 11
212.5
 21
77.5
 31
0.0
  0
LINE
  8
0
  6
CONTINUOUS
 62
   249
 10
217.5
 20
95.0
 30
0.0
 11
217.5
 21
89.752154
 31
0.0
  0
LINE
  8
0
  6
CONTINUOUS
 62
   249
 10
212.5
 20
95.0
 30
0.0
 11
212.5
 21
89.752154
 31
0.0
  0
INSERT
  8
0
 62
   249
  2
WKU130
 10
215.306261
 20
81.002888
 30
0.0
 41
0.8
 42
0.8
 43
0.8
  0
LINE
  8
0
 62
   249
 10
214.966311
 20
82.72844
 30
0.0
 11
218.966311
 21
82.72844
 31
0.0
  0
LINE
  8
0
 62
   249
 10
211.209901
 20
87.674464
 30
0.0
 11
215.209901
 21
87.674464
 31
0.0
  0
LINE
  8
0
 62
   249
 10
210.295103
 20
81.386207
 30
0.0
 11
218.658613
 21
89.752154
 31
0.0
  0
LINE
  8
0
 62
   249
 10
211.279395
 20
80.429605
 30
0.0
 11
219.619756
 21
88.767352
 31
0.0
  0
LINE
  8
0
 62
   249
 10
210.295103
 20
80.429605
 30
0.0
 11
210.295103
 21
89.752154
 31
0.0
  0
LINE
  8
0
 62
   249
 10
219.619756
 20
80.429605
 30
0.0
 11
210.295103
 21
80.429605
 31
0.0
  0
LINE
  8
0
 62
   249
 10
219.619756
 20
89.752154
 30
0.0
 11
219.619756
 21
80.429605
 31
0.0
  0
LINE
  8
0
 62
   249
 10
210.295103
 20
89.752154
 30
0.0
 11
219.619756
 21
89.752154
 31
0.0
  0
TEXT
  8
0
  6
CONTINUOUS
 62
   249
 10
211.866734
 20
95.55315
 30
0.0
 40
2.0
  1
+
  0
TEXT
  8
0
  6
CONTINUOUS
 62
   249
 10
216.797086
 20
95.577719
 30
0.0
 40
2.0
  1
-
  0
LINE
  8
0
  6
CONTINUOUS
 62
   249
 10
220.965688
 20
133.664644
 30
0.0
 11
218.619923
 21
134.999998
 31
0.0
  0
LINE
  8
0
  6
CONTINUOUS
 62
   249
 10
218.619923
 20
134.999998
 30
0.0
 11
220.965688
 21
136.189917
 31
0.0
  0
3DFACE
  8
0
  6
CONTINUOUS
 62
   249
 10
244.134024
 20
135.56
 30
0.0
 11
244.149704
 21
135.56
 31
0.0
 12
244.149704
 22
134.44
 32
0.0
 13
244.134024
 23
134.44
 33
0.0
  0
3DFACE
  8
0
  6
CONTINUOUS
 62
   249
 10
244.149704
 20
135.56
 30
0.0
 11
244.165384
 21
135.56
 31
0.0
 12
244.165384
 22
134.44
 32
0.0
 13
244.149704
 23
134.44
 33
0.0
  0
3DFACE
  8
0
  6
CONTINUOUS
 62
   249
 10
244.165384
 20
135.56
 30
0.0
 11
244.181064
 21
135.56
 31
0.0
 12
244.181064
 22
134.44
 32
0.0
 13
244.165384
 23
134.44
 33
0.0
  0
3DFACE
  8
0
  6
CONTINUOUS
 62
   249
 10
244.181064
 20
135.56
 30
0.0
 11
244.196744
 21
135.56
 31
0.0
 12
244.196744
 22
134.44
 32
0.0
 13
244.181064
 23
134.44
 33
0.0
  0
3DFACE
  8
0
  6
CONTINUOUS
 62
   249
 10
244.196744
 20
135.56
 30
0.0
 11
244.212424
 21
135.56
 31
0.0
 12
244.212424
 22
134.44
 32
0.0
 13
244.196744
 23
134.44
 33
0.0
  0
3DFACE
  8
0
  6
CONTINUOUS
 62
   249
 10
244.212424
 20
135.56
 30
0.0
 11
244.228104
 21
135.56
 31
0.0
 12
244.228104
 22
134.44
 32
0.0
 13
244.212424
 23
134.44
 33
0.0
  0
3DFACE
  8
0
  6
CONTINUOUS
 62
   249
 10
244.228104
 20
135.56
 30
0.0
 11
244.243784
 21
135.56
 31
0.0
 12
244.243784
 22
134.44
 32
0.0
 13
244.228104
 23
134.44
 33
0.0
  0
3DFACE
  8
0
  6
CONTINUOUS
 62
   249
 10
244.243784
 20
135.56
 30
0.0
 11
244.259464
 21
135.56
 31
0.0
 12
244.259464
 22
134.44
 32
0.0
 13
244.243784
 23
134.44
 33
0.0
  0
3DFACE
  8
0
  6
CONTINUOUS
 62
   249
 10
244.259464
 20
135.56
 30
0.0
 11
244.275144
 21
135.56
 31
0.0
 12
244.275144
 22
134.44
 32
0.0
 13
244.259464
 23
134.44
 33
0.0
  0
3DFACE
  8
0
  6
CONTINUOUS
 62
   249
 10
244.275144
 20
135.56
 30
0.0
 11
244.290824
 21
135.56
 31
0.0
 12
244.290824
 22
134.44
 32
0.0
 13
244.275144
 23
134.44
 33
0.0
  0
3DFACE
  8
0
  6
CONTINUOUS
 62
   249
 10
244.290824
 20
135.56
 30
0.0
 11
244.306504
 21
135.56
 31
0.0
 12
244.306504
 22
134.44
 32
0.0
 13
244.290824
 23
134.44
 33
0.0
  0
3DFACE
  8
0
  6
CONTINUOUS
 62
   249
 10
244.306504
 20
135.56
 30
0.0
 11
244.322184
 21
135.56
 31
0.0
 12
244.322184
 22
134.44
 32
0.0
 13
244.306504
 23
134.44
 33
0.0
  0
3DFACE
  8
0
  6
CONTINUOUS
 62
   249
 10
244.322184
 20
135.56
 30
0.0
 11
244.337864
 21
135.56
 31
0.0
 12
244.337864
 22
134.44
 32
0.0
 13
244.322184
 23
134.44
 33
0.0
  0
3DFACE
  8
0
  6
CONTINUOUS
 62
   249
 10
244.337864
 20
135.56
 30
0.0
 11
244.353544
 21
135.56
 31
0.0
 12
244.353544
 22
134.44
 32
0.0
 13
244.337864
 23
134.44
 33
0.0
  0
3DFACE
  8
0
  6
CONTINUOUS
 62
   249
 10
244.353544
 20
135.56
 30
0.0
 11
244.369224
 21
135.56
 31
0.0
 12
244.369224
 22
134.44
 32
0.0
 13
244.353544
 23
134.44
 33
0.0
  0
3DFACE
  8
0
  6
CONTINUOUS
 62
   249
 10
244.369224
 20
135.56
 30
0.0
 11
244.384904
 21
135.56
 31
0.0
 12
244.384904
 22
134.44
 32
0.0
 13
244.369224
 23
134.44
 33
0.0
  0
3DFACE
  8
0
  6
CONTINUOUS
 62
   249
 10
244.384904
 20
135.56
 30
0.0
 11
244.400584
 21
135.56
 31
0.0
 12
244.400584
 22
134.44
 32
0.0
 13
244.384904
 23
134.44
 33
0.0
  0
3DFACE
  8
0
  6
CONTINUOUS
 62
   249
 10
244.400584
 20
135.56
 30
0.0
 11
244.416264
 21
135.56
 31
0.0
 12
244.416264
 22
134.44
 32
0.0
 13
244.400584
 23
134.44
 33
0.0
  0
3DFACE
  8
0
  6
CONTINUOUS
 62
   249
 10
244.416264
 20
135.56
 30
0.0
 11
244.431944
 21
135.56
 31
0.0
 12
244.431944
 22
134.44
 32
0.0
 13
244.416264
 23
134.44
 33
0.0
  0
3DFACE
  8
0
  6
CONTINUOUS
 62
   249
 10
244.431944
 20
135.56
 30
0.0
 11
244.447624
 21
135.56
 31
0.0
 12
244.447624
 22
134.44
 32
0.0
 13
244.431944
 23
134.44
 33
0.0
  0
3DFACE
  8
0
  6
CONTINUOUS
 62
   249
 10
244.447624
 20
135.56
 30
0.0
 11
244.463304
 21
135.56
 31
0.0
 12
244.463304
 22
134.44
 32
0.0
 13
244.447624
 23
134.44
 33
0.0
  0
3DFACE
  8
0
  6
CONTINUOUS
 62
   249
 10
244.463304
 20
135.56
 30
0.0
 11
244.478984
 21
135.56
 31
0.0
 12
244.478984
 22
134.44
 32
0.0
 13
244.463304
 23
134.44
 33
0.0
  0
3DFACE
  8
0
  6
CONTINUOUS
 62
   249
 10
244.478984
 20
135.56
 30
0.0
 11
244.494664
 21
135.56
 31
0.0
 12
244.494664
 22
134.44
 32
0.0
 13
244.478984
 23
134.44
 33
0.0
  0
3DFACE
  8
0
  6
CONTINUOUS
 62
   249
 10
244.494664
 20
135.56
 30
0.0
 11
244.510344
 21
135.56
 31
0.0
 12
244.510344
 22
134.44
 32
0.0
 13
244.494664
 23
134.44
 33
0.0
  0
3DFACE
  8
0
  6
CONTINUOUS
 62
   249
 10
244.510344
 20
135.56
 30
0.0
 11
244.526024
 21
135.56
 31
0.0
 12
244.526024
 22
134.44
 32
0.0
 13
244.510344
 23
134.44
 33
0.0
  0
3DFACE
  8
0
  6
CONTINUOUS
 62
   249
 10
244.526024
 20
135.56
 30
0.0
 11
244.541704
 21
135.56
 31
0.0
 12
244.541704
 22
134.44
 32
0.0
 13
244.526024
 23
134.44
 33
0.0
  0
3DFACE
  8
0
  6
CONTINUOUS
 62
   249
 10
244.541704
 20
135.56
 30
0.0
 11
244.557384
 21
135.56
 31
0.0
 12
244.557384
 22
134.44
 32
0.0
 13
244.541704
 23
134.44
 33
0.0
  0
3DFACE
  8
0
  6
CONTINUOUS
 62
   249
 10
244.557384
 20
135.56
 30
0.0
 11
244.573064
 21
135.56
 31
0.0
 12
244.573064
 22
134.44
 32
0.0
 13
244.557384
 23
134.44
 33
0.0
  0
3DFACE
  8
0
  6
CONTINUOUS
 62
   249
 10
244.573064
 20
135.56
 30
0.0
 11
244.588744
 21
135.56
 31
0.0
 12
244.588744
 22
134.44
 32
0.0
 13
244.573064
 23
134.44
 33
0.0
  0
3DFACE
  8
0
  6
CONTINUOUS
 62
   249
 10
244.588744
 20
135.56
 30
0.0
 11
244.604424
 21
135.56
 31
0.0
 12
244.604424
 22
134.44
 32
0.0
 13
244.588744
 23
134.44
 33
0.0
  0
3DFACE
  8
0
  6
CONTINUOUS
 62
   249
 10
244.604424
 20
135.56
 30
0.0
 11
244.620104
 21
135.56
 31
0.0
 12
244.620104
 22
134.44
 32
0.0
 13
244.604424
 23
134.44
 33
0.0
  0
3DFACE
  8
0
  6
CONTINUOUS
 62
   249
 10
244.620104
 20
135.56
 30
0.0
 11
244.635784
 21
135.56
 31
0.0
 12
244.635784
 22
134.44
 32
0.0
 13
244.620104
 23
134.44
 33
0.0
  0
3DFACE
  8
0
  6
CONTINUOUS
 62
   249
 10
244.635784
 20
135.56
 30
0.0
 11
244.651464
 21
135.56
 31
0.0
 12
244.651464
 22
134.44
 32
0.0
 13
244.635784
 23
134.44
 33
0.0
  0
3DFACE
  8
0
  6
CONTINUOUS
 62
   249
 10
244.651464
 20
135.56
 30
0.0
 11
244.667144
 21
135.56
 31
0.0
 12
244.667144
 22
134.44
 32
0.0
 13
244.651464
 23
134.44
 33
0.0
  0
3DFACE
  8
0
  6
CONTINUOUS
 62
   249
 10
244.667144
 20
135.56
 30
0.0
 11
244.682824
 21
135.56
 31
0.0
 12
244.682824
 22
134.44
 32
0.0
 13
244.667144
 23
134.44
 33
0.0
  0
3DFACE
  8
0
  6
CONTINUOUS
 62
   249
 10
244.682824
 20
135.56
 30
0.0
 11
244.698504
 21
135.56
 31
0.0
 12
244.698504
 22
134.44
 32
0.0
 13
244.682824
 23
134.44
 33
0.0
  0
3DFACE
  8
0
  6
CONTINUOUS
 62
   249
 10
244.698504
 20
135.56
 30
0.0
 11
244.714184
 21
135.56
 31
0.0
 12
244.714184
 22
134.44
 32
0.0
 13
244.698504
 23
134.44
 33
0.0
  0
3DFACE
  8
0
  6
CONTINUOUS
 62
   249
 10
244.714184
 20
135.56
 30
0.0
 11
244.729864
 21
135.56
 31
0.0
 12
244.729864
 22
134.44
 32
0.0
 13
244.714184
 23
134.44
 33
0.0
  0
3DFACE
  8
0
  6
CONTINUOUS
 62
   249
 10
244.729864
 20
135.56
 30
0.0
 11
244.745544
 21
135.56
 31
0.0
 12
244.745544
 22
134.44
 32
0.0
 13
244.729864
 23
134.44
 33
0.0
  0
3DFACE
  8
0
  6
CONTINUOUS
 62
   249
 10
244.745544
 20
135.56
 30
0.0
 11
244.761224
 21
135.56
 31
0.0
 12
244.761224
 22
134.44
 32
0.0
 13
244.745544
 23
134.44
 33
0.0
  0
3DFACE
  8
0
  6
CONTINUOUS
 62
   249
 10
244.761224
 20
135.56
 30
0.0
 11
244.776904
 21
135.56
 31
0.0
 12
244.776904
 22
134.44
 32
0.0
 13
244.761224
 23
134.44
 33
0.0
  0
3DFACE
  8
0
  6
CONTINUOUS
 62
   249
 10
244.776904
 20
135.56
 30
0.0
 11
244.792584
 21
135.56
 31
0.0
 12
244.792584
 22
134.44
 32
0.0
 13
244.776904
 23
134.44
 33
0.0
  0
3DFACE
  8
0
  6
CONTINUOUS
 62
   249
 10
244.792584
 20
135.56
 30
0.0
 11
244.808264
 21
135.56
 31
0.0
 12
244.808264
 22
134.44
 32
0.0
 13
244.792584
 23
134.44
 33
0.0
  0
3DFACE
  8
0
  6
CONTINUOUS
 62
   249
 10
244.808264
 20
135.56
 30
0.0
 11
244.823944
 21
135.56
 31
0.0
 12
244.823944
 22
134.44
 32
0.0
 13
244.808264
 23
134.44
 33
0.0
  0
3DFACE
  8
0
  6
CONTINUOUS
 62
   249
 10
244.823944
 20
135.56
 30
0.0
 11
244.839624
 21
135.56
 31
0.0
 12
244.839624
 22
134.44
 32
0.0
 13
244.823944
 23
134.44
 33
0.0
  0
3DFACE
  8
0
  6
CONTINUOUS
 62
   249
 10
244.839624
 20
135.56
 30
0.0
 11
244.855304
 21
135.56
 31
0.0
 12
244.855304
 22
134.44
 32
0.0
 13
244.839624
 23
134.44
 33
0.0
  0
3DFACE
  8
0
  6
CONTINUOUS
 62
   249
 10
244.855304
 20
135.56
 30
0.0
 11
244.870984
 21
135.56
 31
0.0
 12
244.870984
 22
134.44
 32
0.0
 13
244.855304
 23
134.44
 33
0.0
  0
3DFACE
  8
0
  6
CONTINUOUS
 62
   249
 10
244.870984
 20
135.56
 30
0.0
 11
244.886664
 21
135.56
 31
0.0
 12
244.886664
 22
134.44
 32
0.0
 13
244.870984
 23
134.44
 33
0.0
  0
3DFACE
  8
0
  6
CONTINUOUS
 62
   249
 10
244.886664
 20
135.56
 30
0.0
 11
244.902344
 21
135.56
 31
0.0
 12
244.902344
 22
134.44
 32
0.0
 13
244.886664
 23
134.44
 33
0.0
  0
3DFACE
  8
0
  6
CONTINUOUS
 62
   249
 10
244.902344
 20
135.56
 30
0.0
 11
244.918024
 21
135.56
 31
0.0
 12
244.918024
 22
134.44
 32
0.0
 13
244.902344
 23
134.44
 33
0.0
  0
3DFACE
  8
0
  6
CONTINUOUS
 62
   249
 10
244.918024
 20
135.56
 30
0.0
 11
244.933704
 21
135.56
 31
0.0
 12
244.933704
 22
134.44
 32
0.0
 13
244.918024
 23
134.44
 33
0.0
  0
3DFACE
  8
0
  6
CONTINUOUS
 62
   249
 10
244.933704
 20
135.56
 30
0.0
 11
244.949384
 21
135.56
 31
0.0
 12
244.949384
 22
134.44
 32
0.0
 13
244.933704
 23
134.44
 33
0.0
  0
3DFACE
  8
0
  6
CONTINUOUS
 62
   249
 10
244.949384
 20
135.56
 30
0.0
 11
244.965064
 21
135.56
 31
0.0
 12
244.965064
 22
134.44
 32
0.0
 13
244.949384
 23
134.44
 33
0.0
  0
3DFACE
  8
0
  6
CONTINUOUS
 62
   249
 10
244.965064
 20
135.56
 30
0.0
 11
244.980744
 21
135.56
 31
0.0
 12
244.980744
 22
134.44
 32
0.0
 13
244.965064
 23
134.44
 33
0.0
  0
3DFACE
  8
0
  6
CONTINUOUS
 62
   249
 10
244.980744
 20
135.56
 30
0.0
 11
244.996424
 21
135.56
 31
0.0
 12
244.996424
 22
134.44
 32
0.0
 13
244.980744
 23
134.44
 33
0.0
  0
3DFACE
  8
0
  6
CONTINUOUS
 62
   249
 10
244.996424
 20
135.56
 30
0.0
 11
245.012104
 21
135.56
 31
0.0
 12
245.012104
 22
134.44
 32
0.0
 13
244.996424
 23
134.44
 33
0.0
  0
3DFACE
  8
0
  6
CONTINUOUS
 62
   249
 10
245.012104
 20
135.56
 30
0.0
 11
245.027784
 21
135.56
 31
0.0
 12
245.027784
 22
134.44
 32
0.0
 13
245.012104
 23
134.44
 33
0.0
  0
3DFACE
  8
0
  6
CONTINUOUS
 62
   249
 10
245.027784
 20
135.56
 30
0.0
 11
245.043464
 21
135.56
 31
0.0
 12
245.043464
 22
134.44
 32
0.0
 13
245.027784
 23
134.44
 33
0.0
  0
3DFACE
  8
0
  6
CONTINUOUS
 62
   249
 10
245.043464
 20
135.56
 30
0.0
 11
245.059144
 21
135.56
 31
0.0
 12
245.059144
 22
134.44
 32
0.0
 13
245.043464
 23
134.44
 33
0.0
  0
3DFACE
  8
0
  6
CONTINUOUS
 62
   249
 10
245.059144
 20
135.56
 30
0.0
 11
245.074824
 21
135.56
 31
0.0
 12
245.074824
 22
134.44
 32
0.0
 13
245.059144
 23
134.44
 33
0.0
  0
3DFACE
  8
0
  6
CONTINUOUS
 62
   249
 10
245.074824
 20
135.56
 30
0.0
 11
245.090504
 21
135.56
 31
0.0
 12
245.090504
 22
134.44
 32
0.0
 13
245.074824
 23
134.44
 33
0.0
  0
3DFACE
  8
0
  6
CONTINUOUS
 62
   249
 10
245.090504
 20
135.56
 30
0.0
 11
245.106184
 21
135.56
 31
0.0
 12
245.106184
 22
134.44
 32
0.0
 13
245.090504
 23
134.44
 33
0.0
  0
3DFACE
  8
0
  6
CONTINUOUS
 62
   249
 10
245.106184
 20
135.56
 30
0.0
 11
245.121864
 21
135.56
 31
0.0
 12
245.121864
 22
134.44
 32
0.0
 13
245.106184
 23
134.44
 33
0.0
  0
3DFACE
  8
0
  6
CONTINUOUS
 62
   249
 10
245.121864
 20
135.56
 30
0.0
 11
245.137544
 21
135.56
 31
0.0
 12
245.137544
 22
134.44
 32
0.0
 13
245.121864
 23
134.44
 33
0.0
  0
3DFACE
  8
0
  6
CONTINUOUS
 62
   249
 10
245.137544
 20
135.56
 30
0.0
 11
245.153224
 21
135.56
 31
0.0
 12
245.153224
 22
134.44
 32
0.0
 13
245.137544
 23
134.44
 33
0.0
  0
3DFACE
  8
0
  6
CONTINUOUS
 62
   249
 10
245.153224
 20
135.56
 30
0.0
 11
245.168904
 21
135.56
 31
0.0
 12
245.168904
 22
134.44
 32
0.0
 13
245.153224
 23
134.44
 33
0.0
  0
3DFACE
  8
0
  6
CONTINUOUS
 62
   249
 10
245.168904
 20
135.56
 30
0.0
 11
245.184584
 21
135.56
 31
0.0
 12
245.184584
 22
134.44
 32
0.0
 13
245.168904
 23
134.44
 33
0.0
  0
3DFACE
  8
0
  6
CONTINUOUS
 62
   249
 10
245.184584
 20
135.56
 30
0.0
 11
245.200264
 21
135.56
 31
0.0
 12
245.200264
 22
134.44
 32
0.0
 13
245.184584
 23
134.44
 33
0.0
  0
3DFACE
  8
0
  6
CONTINUOUS
 62
   249
 10
245.200264
 20
135.56
 30
0.0
 11
245.215944
 21
135.56
 31
0.0
 12
245.215944
 22
134.44
 32
0.0
 13
245.200264
 23
134.44
 33
0.0
  0
3DFACE
  8
0
  6
CONTINUOUS
 62
   249
 10
245.215944
 20
135.56
 30
0.0
 11
245.231624
 21
135.56
 31
0.0
 12
245.231624
 22
134.44
 32
0.0
 13
245.215944
 23
134.44
 33
0.0
  0
3DFACE
  8
0
  6
CONTINUOUS
 62
   249
 10
245.231624
 20
135.56
 30
0.0
 11
245.247304
 21
135.56
 31
0.0
 12
245.247304
 22
134.44
 32
0.0
 13
245.231624
 23
134.44
 33
0.0
  0
3DFACE
  8
0
  6
CONTINUOUS
 62
   249
 10
245.247304
 20
135.56
 30
0.0
 11
245.262984
 21
135.56
 31
0.0
 12
245.262984
 22
134.44
 32
0.0
 13
245.247304
 23
134.44
 33
0.0
  0
3DFACE
  8
0
  6
CONTINUOUS
 62
   249
 10
245.262984
 20
135.56
 30
0.0
 11
245.278664
 21
135.56
 31
0.0
 12
245.278664
 22
134.44
 32
0.0
 13
245.262984
 23
134.44
 33
0.0
  0
3DFACE
  8
0
  6
CONTINUOUS
 62
   249
 10
245.278664
 20
135.56
 30
0.0
 11
245.294344
 21
135.56
 31
0.0
 12
245.294344
 22
134.44
 32
0.0
 13
245.278664
 23
134.44
 33
0.0
  0
3DFACE
  8
0
  6
CONTINUOUS
 62
   249
 10
245.294344
 20
135.56
 30
0.0
 11
245.310024
 21
135.56
 31
0.0
 12
245.310024
 22
134.44
 32
0.0
 13
245.294344
 23
134.44
 33
0.0
  0
3DFACE
  8
0
  6
CONTINUOUS
 62
   249
 10
245.310024
 20
135.56
 30
0.0
 11
245.325704
 21
135.56
 31
0.0
 12
245.325704
 22
134.44
 32
0.0
 13
245.310024
 23
134.44
 33
0.0
  0
3DFACE
  8
0
  6
CONTINUOUS
 62
   249
 10
245.325704
 20
135.56
 30
0.0
 11
245.341384
 21
135.56
 31
0.0
 12
245.341384
 22
134.44
 32
0.0
 13
245.325704
 23
134.44
 33
0.0
  0
3DFACE
  8
0
  6
CONTINUOUS
 62
   249
 10
245.341384
 20
135.56
 30
0.0
 11
245.357064
 21
135.56
 31
0.0
 12
245.357064
 22
134.44
 32
0.0
 13
245.341384
 23
134.44
 33
0.0
  0
3DFACE
  8
0
  6
CONTINUOUS
 62
   249
 10
245.357064
 20
135.56
 30
0.0
 11
245.372744
 21
135.56
 31
0.0
 12
245.372744
 22
134.44
 32
0.0
 13
245.357064
 23
134.44
 33
0.0
  0
3DFACE
  8
0
  6
CONTINUOUS
 62
   249
 10
245.372744
 20
135.56
 30
0.0
 11
245.388424
 21
135.56
 31
0.0
 12
245.388424
 22
134.44
 32
0.0
 13
245.372744
 23
134.44
 33
0.0
  0
3DFACE
  8
0
  6
CONTINUOUS
 62
   249
 10
245.388424
 20
135.56
 30
0.0
 11
245.404104
 21
135.56
 31
0.0
 12
245.404104
 22
134.44
 32
0.0
 13
245.388424
 23
134.44
 33
0.0
  0
3DFACE
  8
0
  6
CONTINUOUS
 62
   249
 10
245.404104
 20
135.56
 30
0.0
 11
245.419784
 21
135.56
 31
0.0
 12
245.419784
 22
134.44
 32
0.0
 13
245.404104
 23
134.44
 33
0.0
  0
3DFACE
  8
0
  6
CONTINUOUS
 62
   249
 10
245.419784
 20
135.56
 30
0.0
 11
245.435464
 21
135.56
 31
0.0
 12
245.435464
 22
134.44
 32
0.0
 13
245.419784
 23
134.44
 33
0.0
  0
3DFACE
  8
0
  6
CONTINUOUS
 62
   249
 10
245.435464
 20
135.56
 30
0.0
 11
245.451144
 21
135.56
 31
0.0
 12
245.451144
 22
134.44
 32
0.0
 13
245.435464
 23
134.44
 33
0.0
  0
3DFACE
  8
0
  6
CONTINUOUS
 62
   249
 10
245.451144
 20
135.56
 30
0.0
 11
245.466824
 21
135.56
 31
0.0
 12
245.466824
 22
134.44
 32
0.0
 13
245.451144
 23
134.44
 33
0.0
  0
3DFACE
  8
0
  6
CONTINUOUS
 62
   249
 10
245.466824
 20
135.56
 30
0.0
 11
245.482504
 21
135.56
 31
0.0
 12
245.482504
 22
134.44
 32
0.0
 13
245.466824
 23
134.44
 33
0.0
  0
3DFACE
  8
0
  6
CONTINUOUS
 62
   249
 10
245.482504
 20
135.56
 30
0.0
 11
245.498184
 21
135.56
 31
0.0
 12
245.498184
 22
134.44
 32
0.0
 13
245.482504
 23
134.44
 33
0.0
  0
3DFACE
  8
0
  6
CONTINUOUS
 62
   249
 10
245.498184
 20
135.56
 30
0.0
 11
245.513864
 21
135.56
 31
0.0
 12
245.513864
 22
134.44
 32
0.0
 13
245.498184
 23
134.44
 33
0.0
  0
3DFACE
  8
0
  6
CONTINUOUS
 62
   249
 10
245.513864
 20
135.56
 30
0.0
 11
245.529544
 21
135.56
 31
0.0
 12
245.529544
 22
134.44
 32
0.0
 13
245.513864
 23
134.44
 33
0.0
  0
3DFACE
  8
0
  6
CONTINUOUS
 62
   249
 10
245.529544
 20
135.56
 30
0.0
 11
245.545224
 21
135.56
 31
0.0
 12
245.545224
 22
134.44
 32
0.0
 13
245.529544
 23
134.44
 33
0.0
  0
3DFACE
  8
0
  6
CONTINUOUS
 62
   249
 10
245.545224
 20
135.56
 30
0.0
 11
245.560904
 21
135.56
 31
0.0
 12
245.560904
 22
134.44
 32
0.0
 13
245.545224
 23
134.44
 33
0.0
  0
3DFACE
  8
0
  6
CONTINUOUS
 62
   249
 10
245.560904
 20
135.56
 30
0.0
 11
245.576584
 21
135.56
 31
0.0
 12
245.576584
 22
134.44
 32
0.0
 13
245.560904
 23
134.44
 33
0.0
  0
3DFACE
  8
0
  6
CONTINUOUS
 62
   249
 10
245.576584
 20
135.56
 30
0.0
 11
245.592264
 21
135.56
 31
0.0
 12
245.592264
 22
134.44
 32
0.0
 13
245.576584
 23
134.44
 33
0.0
  0
3DFACE
  8
0
  6
CONTINUOUS
 62
   249
 10
245.592264
 20
135.56
 30
0.0
 11
245.607944
 21
135.56
 31
0.0
 12
245.607944
 22
134.44
 32
0.0
 13
245.592264
 23
134.44
 33
0.0
  0
3DFACE
  8
0
  6
CONTINUOUS
 62
   249
 10
245.607944
 20
135.56
 30
0.0
 11
245.623624
 21
135.56
 31
0.0
 12
245.623624
 22
134.44
 32
0.0
 13
245.607944
 23
134.44
 33
0.0
  0
3DFACE
  8
0
  6
CONTINUOUS
 62
   249
 10
245.623624
 20
135.56
 30
0.0
 11
245.639304
 21
135.56
 31
0.0
 12
245.639304
 22
134.44
 32
0.0
 13
245.623624
 23
134.44
 33
0.0
  0
3DFACE
  8
0
  6
CONTINUOUS
 62
   249
 10
245.639304
 20
135.56
 30
0.0
 11
245.654984
 21
135.56
 31
0.0
 12
245.654984
 22
134.44
 32
0.0
 13
245.639304
 23
134.44
 33
0.0
  0
3DFACE
  8
0
  6
CONTINUOUS
 62
   249
 10
245.654984
 20
135.56
 30
0.0
 11
245.670664
 21
135.56
 31
0.0
 12
245.670664
 22
134.44
 32
0.0
 13
245.654984
 23
134.44
 33
0.0
  0
3DFACE
  8
0
  6
CONTINUOUS
 62
   249
 10
245.670664
 20
135.56
 30
0.0
 11
245.686344
 21
135.56
 31
0.0
 12
245.686344
 22
134.44
 32
0.0
 13
245.670664
 23
134.44
 33
0.0
  0
3DFACE
  8
0
  6
CONTINUOUS
 62
   249
 10
245.686344
 20
135.56
 30
0.0
 11
245.702024
 21
135.56
 31
0.0
 12
245.702024
 22
134.44
 32
0.0
 13
245.686344
 23
134.44
 33
0.0
  0
3DFACE
  8
0
  6
CONTINUOUS
 62
   249
 10
245.702024
 20
135.56
 30
0.0
 11
245.717704
 21
135.56
 31
0.0
 12
245.717704
 22
134.44
 32
0.0
 13
245.702024
 23
134.44
 33
0.0
  0
3DFACE
  8
0
  6
CONTINUOUS
 62
   249
 10
245.717704
 20
135.56
 30
0.0
 11
245.733384
 21
135.56
 31
0.0
 12
245.733384
 22
134.44
 32
0.0
 13
245.717704
 23
134.44
 33
0.0
  0
3DFACE
  8
0
  6
CONTINUOUS
 62
   249
 10
245.733384
 20
135.56
 30
0.0
 11
245.749064
 21
135.56
 31
0.0
 12
245.749064
 22
134.44
 32
0.0
 13
245.733384
 23
134.44
 33
0.0
  0
3DFACE
  8
0
  6
CONTINUOUS
 62
   249
 10
245.749064
 20
135.56
 30
0.0
 11
245.764744
 21
135.56
 31
0.0
 12
245.764744
 22
134.44
 32
0.0
 13
245.749064
 23
134.44
 33
0.0
  0
3DFACE
  8
0
  6
CONTINUOUS
 62
   249
 10
245.764744
 20
135.56
 30
0.0
 11
245.780424
 21
135.56
 31
0.0
 12
245.780424
 22
134.44
 32
0.0
 13
245.764744
 23
134.44
 33
0.0
  0
3DFACE
  8
0
  6
CONTINUOUS
 62
   249
 10
245.780424
 20
135.56
 30
0.0
 11
245.796104
 21
135.56
 31
0.0
 12
245.796104
 22
134.44
 32
0.0
 13
245.780424
 23
134.44
 33
0.0
  0
3DFACE
  8
0
  6
CONTINUOUS
 62
   249
 10
245.796104
 20
135.56
 30
0.0
 11
245.811784
 21
135.56
 31
0.0
 12
245.811784
 22
134.44
 32
0.0
 13
245.796104
 23
134.44
 33
0.0
  0
3DFACE
  8
0
  6
CONTINUOUS
 62
   249
 10
245.811784
 20
135.56
 30
0.0
 11
245.827464
 21
135.56
 31
0.0
 12
245.827464
 22
134.44
 32
0.0
 13
245.811784
 23
134.44
 33
0.0
  0
3DFACE
  8
0
  6
CONTINUOUS
 62
   249
 10
245.827464
 20
135.56
 30
0.0
 11
245.843144
 21
135.56
 31
0.0
 12
245.843144
 22
134.44
 32
0.0
 13
245.827464
 23
134.44
 33
0.0
  0
3DFACE
  8
0
  6
CONTINUOUS
 62
   249
 10
245.843144
 20
135.56
 30
0.0
 11
245.858824
 21
135.56
 31
0.0
 12
245.858824
 22
134.44
 32
0.0
 13
245.843144
 23
134.44
 33
0.0
  0
3DFACE
  8
0
  6
CONTINUOUS
 62
   249
 10
245.858824
 20
135.56
 30
0.0
 11
245.874504
 21
135.56
 31
0.0
 12
245.874504
 22
134.44
 32
0.0
 13
245.858824
 23
134.44
 33
0.0
  0
3DFACE
  8
0
  6
CONTINUOUS
 62
   249
 10
245.874504
 20
135.56
 30
0.0
 11
245.890184
 21
135.56
 31
0.0
 12
245.890184
 22
134.44
 32
0.0
 13
245.874504
 23
134.44
 33
0.0
  0
3DFACE
  8
0
  6
CONTINUOUS
 62
   249
 10
245.890184
 20
135.56
 30
0.0
 11
245.905864
 21
135.56
 31
0.0
 12
245.905864
 22
134.44
 32
0.0
 13
245.890184
 23
134.44
 33
0.0
  0
3DFACE
  8
0
  6
CONTINUOUS
 62
   249
 10
245.905864
 20
135.56
 30
0.0
 11
245.921544
 21
135.56
 31
0.0
 12
245.921544
 22
134.44
 32
0.0
 13
245.905864
 23
134.44
 33
0.0
  0
3DFACE
  8
0
  6
CONTINUOUS
 62
   249
 10
245.921544
 20
135.56
 30
0.0
 11
245.937224
 21
135.56
 31
0.0
 12
245.937224
 22
134.44
 32
0.0
 13
245.921544
 23
134.44
 33
0.0
  0
3DFACE
  8
0
  6
CONTINUOUS
 62
   249
 10
245.937224
 20
135.56
 30
0.0
 11
245.952904
 21
135.56
 31
0.0
 12
245.952904
 22
134.44
 32
0.0
 13
245.937224
 23
134.44
 33
0.0
  0
3DFACE
  8
0
  6
CONTINUOUS
 62
   249
 10
245.952904
 20
135.56
 30
0.0
 11
245.968584
 21
135.56
 31
0.0
 12
245.968584
 22
134.44
 32
0.0
 13
245.952904
 23
134.44
 33
0.0
  0
3DFACE
  8
0
  6
CONTINUOUS
 62
   249
 10
245.968584
 20
135.56
 30
0.0
 11
245.984264
 21
135.56
 31
0.0
 12
245.984264
 22
134.44
 32
0.0
 13
245.968584
 23
134.44
 33
0.0
  0
3DFACE
  8
0
  6
CONTINUOUS
 62
   249
 10
245.984264
 20
135.56
 30
0.0
 11
245.999944
 21
135.56
 31
0.0
 12
245.999944
 22
134.44
 32
0.0
 13
245.984264
 23
134.44
 33
0.0
  0
3DFACE
  8
0
  6
CONTINUOUS
 62
   249
 10
245.999944
 20
135.56
 30
0.0
 11
246.015624
 21
135.56
 31
0.0
 12
246.015624
 22
134.44
 32
0.0
 13
245.999944
 23
134.44
 33
0.0
  0
3DFACE
  8
0
  6
CONTINUOUS
 62
   249
 10
246.015624
 20
135.56
 30
0.0
 11
246.031304
 21
135.56
 31
0.0
 12
246.031304
 22
134.44
 32
0.0
 13
246.015624
 23
134.44
 33
0.0
  0
3DFACE
  8
0
  6
CONTINUOUS
 62
   249
 10
246.031304
 20
135.56
 30
0.0
 11
246.046984
 21
135.56
 31
0.0
 12
246.046984
 22
134.44
 32
0.0
 13
246.031304
 23
134.44
 33
0.0
  0
3DFACE
  8
0
  6
CONTINUOUS
 62
   249
 10
246.046984
 20
135.56
 30
0.0
 11
246.062664
 21
135.56
 31
0.0
 12
246.062664
 22
134.44
 32
0.0
 13
246.046984
 23
134.44
 33
0.0
  0
3DFACE
  8
0
  6
CONTINUOUS
 62
   249
 10
246.062664
 20
135.56
 30
0.0
 11
246.078344
 21
135.56
 31
0.0
 12
246.078344
 22
134.44
 32
0.0
 13
246.062664
 23
134.44
 33
0.0
  0
3DFACE
  8
0
  6
CONTINUOUS
 62
   249
 10
246.078344
 20
135.56
 30
0.0
 11
246.094024
 21
135.56
 31
0.0
 12
246.094024
 22
134.44
 32
0.0
 13
246.078344
 23
134.44
 33
0.0
  0
3DFACE
  8
0
  6
CONTINUOUS
 62
   249
 10
246.094024
 20
135.56
 30
0.0
 11
246.109704
 21
135.56
 31
0.0
 12
246.109704
 22
134.44
 32
0.0
 13
246.094024
 23
134.44
 33
0.0
  0
3DFACE
  8
0
  6
CONTINUOUS
 62
   249
 10
246.109704
 20
135.56
 30
0.0
 11
246.125384
 21
135.56
 31
0.0
 12
246.125384
 22
134.44
 32
0.0
 13
246.109704
 23
134.44
 33
0.0
  0
3DFACE
  8
0
  6
CONTINUOUS
 62
   249
 10
246.125384
 20
135.56
 30
0.0
 11
246.141064
 21
135.56
 31
0.0
 12
246.141064
 22
134.44
 32
0.0
 13
246.125384
 23
134.44
 33
0.0
  0
3DFACE
  8
0
  6
CONTINUOUS
 62
   249
 10
246.141064
 20
135.56
 30
0.0
 11
246.156744
 21
135.56
 31
0.0
 12
246.156744
 22
134.44
 32
0.0
 13
246.141064
 23
134.44
 33
0.0
  0
3DFACE
  8
0
  6
CONTINUOUS
 62
   249
 10
246.156744
 20
135.56
 30
0.0
 11
246.172424
 21
135.56
 31
0.0
 12
246.172424
 22
134.44
 32
0.0
 13
246.156744
 23
134.44
 33
0.0
  0
3DFACE
  8
0
  6
CONTINUOUS
 62
   249
 10
246.172424
 20
135.56
 30
0.0
 11
246.188104
 21
135.56
 31
0.0
 12
246.188104
 22
134.44
 32
0.0
 13
246.172424
 23
134.44
 33
0.0
  0
3DFACE
  8
0
  6
CONTINUOUS
 62
   249
 10
246.188104
 20
135.56
 30
0.0
 11
246.203784
 21
135.56
 31
0.0
 12
246.203784
 22
134.44
 32
0.0
 13
246.188104
 23
134.44
 33
0.0
  0
3DFACE
  8
0
  6
CONTINUOUS
 62
   249
 10
246.203784
 20
135.56
 30
0.0
 11
246.219464
 21
135.56
 31
0.0
 12
246.219464
 22
134.44
 32
0.0
 13
246.203784
 23
134.44
 33
0.0
  0
3DFACE
  8
0
  6
CONTINUOUS
 62
   249
 10
246.219464
 20
135.56
 30
0.0
 11
246.235144
 21
135.56
 31
0.0
 12
246.235144
 22
134.44
 32
0.0
 13
246.219464
 23
134.44
 33
0.0
  0
3DFACE
  8
0
  6
CONTINUOUS
 62
   249
 10
246.235144
 20
135.56
 30
0.0
 11
246.250824
 21
135.56
 31
0.0
 12
246.250824
 22
134.44
 32
0.0
 13
246.235144
 23
134.44
 33
0.0
  0
3DFACE
  8
0
  6
CONTINUOUS
 62
   249
 10
246.250824
 20
135.56
 30
0.0
 11
246.266504
 21
135.56
 31
0.0
 12
246.266504
 22
134.44
 32
0.0
 13
246.250824
 23
134.44
 33
0.0
  0
3DFACE
  8
0
  6
CONTINUOUS
 62
   249
 10
246.266504
 20
135.56
 30
0.0
 11
246.282184
 21
135.56
 31
0.0
 12
246.282184
 22
134.44
 32
0.0
 13
246.266504
 23
134.44
 33
0.0
  0
3DFACE
  8
0
  6
CONTINUOUS
 62
   249
 10
246.282184
 20
135.56
 30
0.0
 11
246.297864
 21
135.56
 31
0.0
 12
246.297864
 22
134.44
 32
0.0
 13
246.282184
 23
134.44
 33
0.0
  0
3DFACE
  8
0
  6
CONTINUOUS
 62
   249
 10
246.297864
 20
135.56
 30
0.0
 11
246.313544
 21
135.56
 31
0.0
 12
246.313544
 22
134.44
 32
0.0
 13
246.297864
 23
134.44
 33
0.0
  0
3DFACE
  8
0
  6
CONTINUOUS
 62
   249
 10
246.313544
 20
135.56
 30
0.0
 11
246.329224
 21
135.56
 31
0.0
 12
246.329224
 22
134.44
 32
0.0
 13
246.313544
 23
134.44
 33
0.0
  0
3DFACE
  8
0
  6
CONTINUOUS
 62
   249
 10
246.329224
 20
135.56
 30
0.0
 11
246.344904
 21
135.56
 31
0.0
 12
246.344904
 22
134.44
 32
0.0
 13
246.329224
 23
134.44
 33
0.0
  0
3DFACE
  8
0
  6
CONTINUOUS
 62
   249
 10
246.344904
 20
135.56
 30
0.0
 11
246.360584
 21
135.56
 31
0.0
 12
246.360584
 22
134.44
 32
0.0
 13
246.344904
 23
134.44
 33
0.0
  0
3DFACE
  8
0
  6
CONTINUOUS
 62
   249
 10
246.360584
 20
135.56
 30
0.0
 11
246.376264
 21
135.56
 31
0.0
 12
246.376264
 22
134.44
 32
0.0
 13
246.360584
 23
134.44
 33
0.0
  0
3DFACE
  8
0
  6
CONTINUOUS
 62
   249
 10
246.376264
 20
135.56
 30
0.0
 11
246.391944
 21
135.56
 31
0.0
 12
246.391944
 22
134.44
 32
0.0
 13
246.376264
 23
134.44
 33
0.0
  0
3DFACE
  8
0
  6
CONTINUOUS
 62
   249
 10
246.391944
 20
135.56
 30
0.0
 11
246.407624
 21
135.56
 31
0.0
 12
246.407624
 22
134.44
 32
0.0
 13
246.391944
 23
134.44
 33
0.0
  0
3DFACE
  8
0
  6
CONTINUOUS
 62
   249
 10
246.407624
 20
135.56
 30
0.0
 11
246.423304
 21
135.56
 31
0.0
 12
246.423304
 22
134.44
 32
0.0
 13
246.407624
 23
134.44
 33
0.0
  0
3DFACE
  8
0
  6
CONTINUOUS
 62
   249
 10
246.423304
 20
135.56
 30
0.0
 11
246.438984
 21
135.56
 31
0.0
 12
246.438984
 22
134.44
 32
0.0
 13
246.423304
 23
134.44
 33
0.0
  0
3DFACE
  8
0
  6
CONTINUOUS
 62
   249
 10
246.438984
 20
135.56
 30
0.0
 11
246.454664
 21
135.56
 31
0.0
 12
246.454664
 22
134.44
 32
0.0
 13
246.438984
 23
134.44
 33
0.0
  0
3DFACE
  8
0
  6
CONTINUOUS
 62
   249
 10
246.454664
 20
135.56
 30
0.0
 11
246.470344
 21
135.56
 31
0.0
 12
246.470344
 22
134.44
 32
0.0
 13
246.454664
 23
134.44
 33
0.0
  0
3DFACE
  8
0
  6
CONTINUOUS
 62
   249
 10
246.470344
 20
135.56
 30
0.0
 11
246.486024
 21
135.56
 31
0.0
 12
246.486024
 22
134.44
 32
0.0
 13
246.470344
 23
134.44
 33
0.0
  0
3DFACE
  8
0
  6
CONTINUOUS
 62
   249
 10
246.486024
 20
135.56
 30
0.0
 11
246.501704
 21
135.56
 31
0.0
 12
246.501704
 22
134.44
 32
0.0
 13
246.486024
 23
134.44
 33
0.0
  0
3DFACE
  8
0
  6
CONTINUOUS
 62
   249
 10
246.501704
 20
135.56
 30
0.0
 11
246.517384
 21
135.56
 31
0.0
 12
246.517384
 22
134.44
 32
0.0
 13
246.501704
 23
134.44
 33
0.0
  0
3DFACE
  8
0
  6
CONTINUOUS
 62
   249
 10
246.517384
 20
135.56
 30
0.0
 11
246.533064
 21
135.56
 31
0.0
 12
246.533064
 22
134.44
 32
0.0
 13
246.517384
 23
134.44
 33
0.0
  0
3DFACE
  8
0
  6
CONTINUOUS
 62
   249
 10
246.533064
 20
135.56
 30
0.0
 11
246.548744
 21
135.56
 31
0.0
 12
246.548744
 22
134.44
 32
0.0
 13
246.533064
 23
134.44
 33
0.0
  0
3DFACE
  8
0
  6
CONTINUOUS
 62
   249
 10
246.548744
 20
135.56
 30
0.0
 11
246.564424
 21
135.56
 31
0.0
 12
246.564424
 22
134.44
 32
0.0
 13
246.548744
 23
134.44
 33
0.0
  0
3DFACE
  8
0
  6
CONTINUOUS
 62
   249
 10
246.564424
 20
135.56
 30
0.0
 11
246.580104
 21
135.56
 31
0.0
 12
246.580104
 22
134.44
 32
0.0
 13
246.564424
 23
134.44
 33
0.0
  0
3DFACE
  8
0
  6
CONTINUOUS
 62
   249
 10
246.580104
 20
135.56
 30
0.0
 11
246.595784
 21
135.56
 31
0.0
 12
246.595784
 22
134.44
 32
0.0
 13
246.580104
 23
134.44
 33
0.0
  0
3DFACE
  8
0
  6
CONTINUOUS
 62
   249
 10
246.595784
 20
135.56
 30
0.0
 11
246.611464
 21
135.56
 31
0.0
 12
246.611464
 22
134.44
 32
0.0
 13
246.595784
 23
134.44
 33
0.0
  0
3DFACE
  8
0
  6
CONTINUOUS
 62
   249
 10
246.611464
 20
135.56
 30
0.0
 11
246.627144
 21
135.56
 31
0.0
 12
246.627144
 22
134.44
 32
0.0
 13
246.611464
 23
134.44
 33
0.0
  0
3DFACE
  8
0
  6
CONTINUOUS
 62
   249
 10
246.627144
 20
135.56
 30
0.0
 11
246.642824
 21
135.56
 31
0.0
 12
246.642824
 22
134.44
 32
0.0
 13
246.627144
 23
134.44
 33
0.0
  0
3DFACE
  8
0
  6
CONTINUOUS
 62
   249
 10
246.642824
 20
135.56
 30
0.0
 11
246.658504
 21
135.56
 31
0.0
 12
246.658504
 22
134.44
 32
0.0
 13
246.642824
 23
134.44
 33
0.0
  0
3DFACE
  8
0
  6
CONTINUOUS
 62
   249
 10
246.658504
 20
135.56
 30
0.0
 11
246.674184
 21
135.56
 31
0.0
 12
246.674184
 22
134.44
 32
0.0
 13
246.658504
 23
134.44
 33
0.0
  0
3DFACE
  8
0
  6
CONTINUOUS
 62
   249
 10
246.674184
 20
135.56
 30
0.0
 11
246.689864
 21
135.56
 31
0.0
 12
246.689864
 22
134.44
 32
0.0
 13
246.674184
 23
134.44
 33
0.0
  0
3DFACE
  8
0
  6
CONTINUOUS
 62
   249
 10
246.689864
 20
135.56
 30
0.0
 11
246.705544
 21
135.56
 31
0.0
 12
246.705544
 22
134.44
 32
0.0
 13
246.689864
 23
134.44
 33
0.0
  0
3DFACE
  8
0
  6
CONTINUOUS
 62
   249
 10
246.705544
 20
135.56
 30
0.0
 11
246.721224
 21
135.56
 31
0.0
 12
246.721224
 22
134.44
 32
0.0
 13
246.705544
 23
134.44
 33
0.0
  0
3DFACE
  8
0
  6
CONTINUOUS
 62
   249
 10
246.721224
 20
135.56
 30
0.0
 11
246.736904
 21
135.56
 31
0.0
 12
246.736904
 22
134.44
 32
0.0
 13
246.721224
 23
134.44
 33
0.0
  0
3DFACE
  8
0
  6
CONTINUOUS
 62
   249
 10
246.736904
 20
135.56
 30
0.0
 11
246.752584
 21
135.56
 31
0.0
 12
246.752584
 22
134.44
 32
0.0
 13
246.736904
 23
134.44
 33
0.0
  0
3DFACE
  8
0
  6
CONTINUOUS
 62
   249
 10
246.752584
 20
135.56
 30
0.0
 11
246.768264
 21
135.56
 31
0.0
 12
246.768264
 22
134.44
 32
0.0
 13
246.752584
 23
134.44
 33
0.0
  0
3DFACE
  8
0
  6
CONTINUOUS
 62
   249
 10
246.768264
 20
135.56
 30
0.0
 11
246.783944
 21
135.56
 31
0.0
 12
246.783944
 22
134.44
 32
0.0
 13
246.768264
 23
134.44
 33
0.0
  0
3DFACE
  8
0
  6
CONTINUOUS
 62
   249
 10
246.783944
 20
135.56
 30
0.0
 11
246.799624
 21
135.56
 31
0.0
 12
246.799624
 22
134.44
 32
0.0
 13
246.783944
 23
134.44
 33
0.0
  0
3DFACE
  8
0
  6
CONTINUOUS
 62
   249
 10
246.799624
 20
135.56
 30
0.0
 11
246.815304
 21
135.56
 31
0.0
 12
246.815304
 22
134.44
 32
0.0
 13
246.799624
 23
134.44
 33
0.0
  0
3DFACE
  8
0
  6
CONTINUOUS
 62
   249
 10
246.815304
 20
135.56
 30
0.0
 11
246.830984
 21
135.56
 31
0.0
 12
246.830984
 22
134.44
 32
0.0
 13
246.815304
 23
134.44
 33
0.0
  0
3DFACE
  8
0
  6
CONTINUOUS
 62
   249
 10
246.830984
 20
135.56
 30
0.0
 11
246.846664
 21
135.56
 31
0.0
 12
246.846664
 22
134.44
 32
0.0
 13
246.830984
 23
134.44
 33
0.0
  0
3DFACE
  8
0
  6
CONTINUOUS
 62
   249
 10
246.846664
 20
135.56
 30
0.0
 11
246.862344
 21
135.56
 31
0.0
 12
246.862344
 22
134.44
 32
0.0
 13
246.846664
 23
134.44
 33
0.0
  0
3DFACE
  8
0
  6
CONTINUOUS
 62
   249
 10
246.862344
 20
135.56
 30
0.0
 11
246.878024
 21
135.56
 31
0.0
 12
246.878024
 22
134.44
 32
0.0
 13
246.862344
 23
134.44
 33
0.0
  0
3DFACE
  8
0
  6
CONTINUOUS
 62
   249
 10
246.878024
 20
135.56
 30
0.0
 11
246.893704
 21
135.56
 31
0.0
 12
246.893704
 22
134.44
 32
0.0
 13
246.878024
 23
134.44
 33
0.0
  0
3DFACE
  8
0
  6
CONTINUOUS
 62
   249
 10
246.893704
 20
135.56
 30
0.0
 11
246.909384
 21
135.56
 31
0.0
 12
246.909384
 22
134.44
 32
0.0
 13
246.893704
 23
134.44
 33
0.0
  0
3DFACE
  8
0
  6
CONTINUOUS
 62
   249
 10
246.909384
 20
135.56
 30
0.0
 11
246.925064
 21
135.56
 31
0.0
 12
246.925064
 22
134.44
 32
0.0
 13
246.909384
 23
134.44
 33
0.0
  0
3DFACE
  8
0
  6
CONTINUOUS
 62
   249
 10
246.925064
 20
135.56
 30
0.0
 11
246.940744
 21
135.56
 31
0.0
 12
246.940744
 22
134.44
 32
0.0
 13
246.925064
 23
134.44
 33
0.0
  0
3DFACE
  8
0
  6
CONTINUOUS
 62
   249
 10
246.940744
 20
135.56
 30
0.0
 11
246.956424
 21
135.56
 31
0.0
 12
246.956424
 22
134.44
 32
0.0
 13
246.940744
 23
134.44
 33
0.0
  0
3DFACE
  8
0
  6
CONTINUOUS
 62
   249
 10
246.956424
 20
135.56
 30
0.0
 11
246.972104
 21
135.56
 31
0.0
 12
246.972104
 22
134.44
 32
0.0
 13
246.956424
 23
134.44
 33
0.0
  0
3DFACE
  8
0
  6
CONTINUOUS
 62
   249
 10
246.972104
 20
135.56
 30
0.0
 11
246.987784
 21
135.56
 31
0.0
 12
246.987784
 22
134.44
 32
0.0
 13
246.972104
 23
134.44
 33
0.0
  0
3DFACE
  8
0
  6
CONTINUOUS
 62
   249
 10
246.987784
 20
135.56
 30
0.0
 11
247.003464
 21
135.56
 31
0.0
 12
247.003464
 22
134.44
 32
0.0
 13
246.987784
 23
134.44
 33
0.0
  0
3DFACE
  8
0
  6
CONTINUOUS
 62
   249
 10
247.003464
 20
135.56
 30
0.0
 11
247.019144
 21
135.56
 31
0.0
 12
247.019144
 22
134.44
 32
0.0
 13
247.003464
 23
134.44
 33
0.0
  0
3DFACE
  8
0
  6
CONTINUOUS
 62
   249
 10
247.019144
 20
135.56
 30
0.0
 11
247.034824
 21
135.56
 31
0.0
 12
247.034824
 22
134.44
 32
0.0
 13
247.019144
 23
134.44
 33
0.0
  0
3DFACE
  8
0
  6
CONTINUOUS
 62
   249
 10
247.034824
 20
135.56
 30
0.0
 11
247.050504
 21
135.56
 31
0.0
 12
247.050504
 22
134.44
 32
0.0
 13
247.034824
 23
134.44
 33
0.0
  0
3DFACE
  8
0
  6
CONTINUOUS
 62
   249
 10
247.050504
 20
135.56
 30
0.0
 11
247.066184
 21
135.56
 31
0.0
 12
247.066184
 22
134.44
 32
0.0
 13
247.050504
 23
134.44
 33
0.0
  0
3DFACE
  8
0
  6
CONTINUOUS
 62
   249
 10
247.066184
 20
135.56
 30
0.0
 11
247.081864
 21
135.56
 31
0.0
 12
247.081864
 22
134.44
 32
0.0
 13
247.066184
 23
134.44
 33
0.0
  0
3DFACE
  8
0
  6
CONTINUOUS
 62
   249
 10
247.081864
 20
135.56
 30
0.0
 11
247.097544
 21
135.56
 31
0.0
 12
247.097544
 22
134.44
 32
0.0
 13
247.081864
 23
134.44
 33
0.0
  0
3DFACE
  8
0
  6
CONTINUOUS
 62
   249
 10
247.097544
 20
135.56
 30
0.0
 11
247.113224
 21
135.56
 31
0.0
 12
247.113224
 22
134.44
 32
0.0
 13
247.097544
 23
134.44
 33
0.0
  0
3DFACE
  8
0
  6
CONTINUOUS
 62
   249
 10
247.113224
 20
135.56
 30
0.0
 11
247.128904
 21
135.56
 31
0.0
 12
247.128904
 22
134.44
 32
0.0
 13
247.113224
 23
134.44
 33
0.0
  0
3DFACE
  8
0
  6
CONTINUOUS
 62
   249
 10
247.128904
 20
135.56
 30
0.0
 11
247.144584
 21
135.56
 31
0.0
 12
247.144584
 22
134.44
 32
0.0
 13
247.128904
 23
134.44
 33
0.0
  0
3DFACE
  8
0
  6
CONTINUOUS
 62
   249
 10
247.144584
 20
135.56
 30
0.0
 11
247.160264
 21
135.56
 31
0.0
 12
247.160264
 22
134.44
 32
0.0
 13
247.144584
 23
134.44
 33
0.0
  0
3DFACE
  8
0
  6
CONTINUOUS
 62
   249
 10
247.160264
 20
135.56
 30
0.0
 11
247.175944
 21
135.56
 31
0.0
 12
247.175944
 22
134.44
 32
0.0
 13
247.160264
 23
134.44
 33
0.0
  0
3DFACE
  8
0
  6
CONTINUOUS
 62
   249
 10
247.175944
 20
135.56
 30
0.0
 11
247.191624
 21
135.56
 31
0.0
 12
247.191624
 22
134.44
 32
0.0
 13
247.175944
 23
134.44
 33
0.0
  0
3DFACE
  8
0
  6
CONTINUOUS
 62
   249
 10
247.191624
 20
135.56
 30
0.0
 11
247.207304
 21
135.56
 31
0.0
 12
247.207304
 22
134.44
 32
0.0
 13
247.191624
 23
134.44
 33
0.0
  0
3DFACE
  8
0
  6
CONTINUOUS
 62
   249
 10
247.207304
 20
135.56
 30
0.0
 11
247.222984
 21
135.56
 31
0.0
 12
247.222984
 22
134.44
 32
0.0
 13
247.207304
 23
134.44
 33
0.0
  0
3DFACE
  8
0
  6
CONTINUOUS
 62
   249
 10
247.222984
 20
135.56
 30
0.0
 11
247.238664
 21
135.56
 31
0.0
 12
247.238664
 22
134.44
 32
0.0
 13
247.222984
 23
134.44
 33
0.0
  0
3DFACE
  8
0
  6
CONTINUOUS
 62
   249
 10
247.238664
 20
135.56
 30
0.0
 11
247.254344
 21
135.56
 31
0.0
 12
247.254344
 22
134.44
 32
0.0
 13
247.238664
 23
134.44
 33
0.0
  0
3DFACE
  8
0
  6
CONTINUOUS
 62
   249
 10
247.254344
 20
135.56
 30
0.0
 11
247.270024
 21
135.56
 31
0.0
 12
247.270024
 22
134.44
 32
0.0
 13
247.254344
 23
134.44
 33
0.0
  0
3DFACE
  8
0
  6
CONTINUOUS
 62
   249
 10
247.270024
 20
135.56
 30
0.0
 11
247.285704
 21
135.56
 31
0.0
 12
247.285704
 22
134.44
 32
0.0
 13
247.270024
 23
134.44
 33
0.0
  0
3DFACE
  8
0
  6
CONTINUOUS
 62
   249
 10
247.285704
 20
135.56
 30
0.0
 11
247.301384
 21
135.56
 31
0.0
 12
247.301384
 22
134.44
 32
0.0
 13
247.285704
 23
134.44
 33
0.0
  0
3DFACE
  8
0
  6
CONTINUOUS
 62
   249
 10
247.301384
 20
135.56
 30
0.0
 11
247.317064
 21
135.56
 31
0.0
 12
247.317064
 22
134.44
 32
0.0
 13
247.301384
 23
134.44
 33
0.0
  0
3DFACE
  8
0
  6
CONTINUOUS
 62
   249
 10
247.317064
 20
135.56
 30
0.0
 11
247.332744
 21
135.56
 31
0.0
 12
247.332744
 22
134.44
 32
0.0
 13
247.317064
 23
134.44
 33
0.0
  0
3DFACE
  8
0
  6
CONTINUOUS
 62
   249
 10
247.332744
 20
135.56
 30
0.0
 11
247.348424
 21
135.56
 31
0.0
 12
247.348424
 22
134.44
 32
0.0
 13
247.332744
 23
134.44
 33
0.0
  0
3DFACE
  8
0
  6
CONTINUOUS
 62
   249
 10
247.348424
 20
135.56
 30
0.0
 11
247.364104
 21
135.56
 31
0.0
 12
247.364104
 22
134.44
 32
0.0
 13
247.348424
 23
134.44
 33
0.0
  0
3DFACE
  8
0
  6
CONTINUOUS
 62
   249
 10
247.364104
 20
135.56
 30
0.0
 11
247.379784
 21
135.56
 31
0.0
 12
247.379784
 22
134.44
 32
0.0
 13
247.364104
 23
134.44
 33
0.0
  0
3DFACE
  8
0
  6
CONTINUOUS
 62
   249
 10
247.379784
 20
135.56
 30
0.0
 11
247.395464
 21
135.56
 31
0.0
 12
247.395464
 22
134.44
 32
0.0
 13
247.379784
 23
134.44
 33
0.0
  0
3DFACE
  8
0
  6
CONTINUOUS
 62
   249
 10
247.395464
 20
135.56
 30
0.0
 11
247.411144
 21
135.56
 31
0.0
 12
247.411144
 22
134.44
 32
0.0
 13
247.395464
 23
134.44
 33
0.0
  0
3DFACE
  8
0
  6
CONTINUOUS
 62
   249
 10
247.411144
 20
135.56
 30
0.0
 11
247.426824
 21
135.56
 31
0.0
 12
247.426824
 22
134.44
 32
0.0
 13
247.411144
 23
134.44
 33
0.0
  0
3DFACE
  8
0
  6
CONTINUOUS
 62
   249
 10
247.426824
 20
135.56
 30
0.0
 11
247.442504
 21
135.56
 31
0.0
 12
247.442504
 22
134.44
 32
0.0
 13
247.426824
 23
134.44
 33
0.0
  0
3DFACE
  8
0
  6
CONTINUOUS
 62
   249
 10
247.442504
 20
135.56
 30
0.0
 11
247.458184
 21
135.56
 31
0.0
 12
247.458184
 22
134.44
 32
0.0
 13
247.442504
 23
134.44
 33
0.0
  0
3DFACE
  8
0
  6
CONTINUOUS
 62
   249
 10
247.458184
 20
135.56
 30
0.0
 11
247.473864
 21
135.56
 31
0.0
 12
247.473864
 22
134.44
 32
0.0
 13
247.458184
 23
134.44
 33
0.0
  0
3DFACE
  8
0
  6
CONTINUOUS
 62
   249
 10
247.473864
 20
135.56
 30
0.0
 11
247.489544
 21
135.56
 31
0.0
 12
247.489544
 22
134.44
 32
0.0
 13
247.473864
 23
134.44
 33
0.0
  0
3DFACE
  8
0
  6
CONTINUOUS
 62
   249
 10
247.489544
 20
135.56
 30
0.0
 11
247.505224
 21
135.56
 31
0.0
 12
247.505224
 22
134.44
 32
0.0
 13
247.489544
 23
134.44
 33
0.0
  0
3DFACE
  8
0
  6
CONTINUOUS
 62
   249
 10
247.505224
 20
135.56
 30
0.0
 11
247.520904
 21
135.56
 31
0.0
 12
247.520904
 22
134.44
 32
0.0
 13
247.505224
 23
134.44
 33
0.0
  0
3DFACE
  8
0
  6
CONTINUOUS
 62
   249
 10
247.520904
 20
135.56
 30
0.0
 11
247.536584
 21
135.56
 31
0.0
 12
247.536584
 22
134.44
 32
0.0
 13
247.520904
 23
134.44
 33
0.0
  0
3DFACE
  8
0
  6
CONTINUOUS
 62
   249
 10
247.536584
 20
135.56
 30
0.0
 11
247.552264
 21
135.56
 31
0.0
 12
247.552264
 22
134.44
 32
0.0
 13
247.536584
 23
134.44
 33
0.0
  0
3DFACE
  8
0
  6
CONTINUOUS
 62
   249
 10
247.552264
 20
135.56
 30
0.0
 11
247.567944
 21
135.56
 31
0.0
 12
247.567944
 22
134.44
 32
0.0
 13
247.552264
 23
134.44
 33
0.0
  0
3DFACE
  8
0
  6
CONTINUOUS
 62
   249
 10
247.567944
 20
135.56
 30
0.0
 11
247.583624
 21
135.56
 31
0.0
 12
247.583624
 22
134.44
 32
0.0
 13
247.567944
 23
134.44
 33
0.0
  0
3DFACE
  8
0
  6
CONTINUOUS
 62
   249
 10
247.583624
 20
135.56
 30
0.0
 11
247.599304
 21
135.56
 31
0.0
 12
247.599304
 22
134.44
 32
0.0
 13
247.583624
 23
134.44
 33
0.0
  0
3DFACE
  8
0
  6
CONTINUOUS
 62
   249
 10
247.599304
 20
135.56
 30
0.0
 11
247.614984
 21
135.56
 31
0.0
 12
247.614984
 22
134.44
 32
0.0
 13
247.599304
 23
134.44
 33
0.0
  0
3DFACE
  8
0
  6
CONTINUOUS
 62
   249
 10
247.614984
 20
135.56
 30
0.0
 11
247.630664
 21
135.56
 31
0.0
 12
247.630664
 22
134.44
 32
0.0
 13
247.614984
 23
134.44
 33
0.0
  0
3DFACE
  8
0
  6
CONTINUOUS
 62
   249
 10
247.630664
 20
135.56
 30
0.0
 11
247.646344
 21
135.56
 31
0.0
 12
247.646344
 22
134.44
 32
0.0
 13
247.630664
 23
134.44
 33
0.0
  0
3DFACE
  8
0
  6
CONTINUOUS
 62
   249
 10
247.646344
 20
135.56
 30
0.0
 11
247.662024
 21
135.56
 31
0.0
 12
247.662024
 22
134.44
 32
0.0
 13
247.646344
 23
134.44
 33
0.0
  0
3DFACE
  8
0
  6
CONTINUOUS
 62
   249
 10
247.662024
 20
135.56
 30
0.0
 11
247.677704
 21
135.56
 31
0.0
 12
247.677704
 22
134.44
 32
0.0
 13
247.662024
 23
134.44
 33
0.0
  0
3DFACE
  8
0
  6
CONTINUOUS
 62
   249
 10
247.677704
 20
135.56
 30
0.0
 11
247.693384
 21
135.56
 31
0.0
 12
247.693384
 22
134.44
 32
0.0
 13
247.677704
 23
134.44
 33
0.0
  0
3DFACE
  8
0
  6
CONTINUOUS
 62
   249
 10
247.693384
 20
135.56
 30
0.0
 11
247.709064
 21
135.56
 31
0.0
 12
247.709064
 22
134.44
 32
0.0
 13
247.693384
 23
134.44
 33
0.0
  0
3DFACE
  8
0
  6
CONTINUOUS
 62
   249
 10
247.709064
 20
135.56
 30
0.0
 11
247.724744
 21
135.56
 31
0.0
 12
247.724744
 22
134.44
 32
0.0
 13
247.709064
 23
134.44
 33
0.0
  0
3DFACE
  8
0
  6
CONTINUOUS
 62
   249
 10
247.724744
 20
135.56
 30
0.0
 11
247.740424
 21
135.56
 31
0.0
 12
247.740424
 22
134.44
 32
0.0
 13
247.724744
 23
134.44
 33
0.0
  0
3DFACE
  8
0
  6
CONTINUOUS
 62
   249
 10
247.740424
 20
135.56
 30
0.0
 11
247.756104
 21
135.56
 31
0.0
 12
247.756104
 22
134.44
 32
0.0
 13
247.740424
 23
134.44
 33
0.0
  0
3DFACE
  8
0
  6
CONTINUOUS
 62
   249
 10
247.756104
 20
135.56
 30
0.0
 11
247.771784
 21
135.56
 31
0.0
 12
247.771784
 22
134.44
 32
0.0
 13
247.756104
 23
134.44
 33
0.0
  0
3DFACE
  8
0
  6
CONTINUOUS
 62
   249
 10
247.771784
 20
135.56
 30
0.0
 11
247.787464
 21
135.56
 31
0.0
 12
247.787464
 22
134.44
 32
0.0
 13
247.771784
 23
134.44
 33
0.0
  0
3DFACE
  8
0
  6
CONTINUOUS
 62
   249
 10
247.787464
 20
135.56
 30
0.0
 11
247.803144
 21
135.56
 31
0.0
 12
247.803144
 22
134.44
 32
0.0
 13
247.787464
 23
134.44
 33
0.0
  0
3DFACE
  8
0
  6
CONTINUOUS
 62
   249
 10
247.803144
 20
135.56
 30
0.0
 11
247.818824
 21
135.56
 31
0.0
 12
247.818824
 22
134.44
 32
0.0
 13
247.803144
 23
134.44
 33
0.0
  0
3DFACE
  8
0
  6
CONTINUOUS
 62
   249
 10
247.818824
 20
135.56
 30
0.0
 11
247.834504
 21
135.56
 31
0.0
 12
247.834504
 22
134.44
 32
0.0
 13
247.818824
 23
134.44
 33
0.0
  0
3DFACE
  8
0
  6
CONTINUOUS
 62
   249
 10
247.834504
 20
135.56
 30
0.0
 11
247.850184
 21
135.56
 31
0.0
 12
247.850184
 22
134.44
 32
0.0
 13
247.834504
 23
134.44
 33
0.0
  0
3DFACE
  8
0
  6
CONTINUOUS
 62
   249
 10
247.850184
 20
135.56
 30
0.0
 11
247.865864
 21
135.56
 31
0.0
 12
247.865864
 22
134.44
 32
0.0
 13
247.850184
 23
134.44
 33
0.0
  0
3DFACE
  8
0
  6
CONTINUOUS
 62
   249
 10
247.865864
 20
135.56
 30
0.0
 11
247.881544
 21
135.56
 31
0.0
 12
247.881544
 22
134.44
 32
0.0
 13
247.865864
 23
134.44
 33
0.0
  0
3DFACE
  8
0
  6
CONTINUOUS
 62
   249
 10
247.881544
 20
135.56
 30
0.0
 11
247.897224
 21
135.56
 31
0.0
 12
247.897224
 22
134.44
 32
0.0
 13
247.881544
 23
134.44
 33
0.0
  0
3DFACE
  8
0
  6
CONTINUOUS
 62
   249
 10
247.897224
 20
135.56
 30
0.0
 11
247.912904
 21
135.56
 31
0.0
 12
247.912904
 22
134.44
 32
0.0
 13
247.897224
 23
134.44
 33
0.0
  0
3DFACE
  8
0
  6
CONTINUOUS
 62
   249
 10
247.912904
 20
135.56
 30
0.0
 11
247.928584
 21
135.56
 31
0.0
 12
247.928584
 22
134.44
 32
0.0
 13
247.912904
 23
134.44
 33
0.0
  0
3DFACE
  8
0
  6
CONTINUOUS
 62
   249
 10
247.928584
 20
135.56
 30
0.0
 11
247.944264
 21
135.56
 31
0.0
 12
247.944264
 22
134.44
 32
0.0
 13
247.928584
 23
134.44
 33
0.0
  0
3DFACE
  8
0
  6
CONTINUOUS
 62
   249
 10
247.944264
 20
135.56
 30
0.0
 11
247.959944
 21
135.56
 31
0.0
 12
247.959944
 22
134.44
 32
0.0
 13
247.944264
 23
134.44
 33
0.0
  0
3DFACE
  8
0
  6
CONTINUOUS
 62
   249
 10
247.959944
 20
135.56
 30
0.0
 11
247.975624
 21
135.56
 31
0.0
 12
247.975624
 22
134.44
 32
0.0
 13
247.959944
 23
134.44
 33
0.0
  0
3DFACE
  8
0
  6
CONTINUOUS
 62
   249
 10
247.975624
 20
135.56
 30
0.0
 11
247.991304
 21
135.56
 31
0.0
 12
247.991304
 22
134.44
 32
0.0
 13
247.975624
 23
134.44
 33
0.0
  0
3DFACE
  8
0
  6
CONTINUOUS
 62
   249
 10
247.991304
 20
135.56
 30
0.0
 11
248.006984
 21
135.56
 31
0.0
 12
248.006984
 22
134.44
 32
0.0
 13
247.991304
 23
134.44
 33
0.0
  0
3DFACE
  8
0
  6
CONTINUOUS
 62
   249
 10
248.006984
 20
135.56
 30
0.0
 11
248.022664
 21
135.56
 31
0.0
 12
248.022664
 22
134.44
 32
0.0
 13
248.006984
 23
134.44
 33
0.0
  0
3DFACE
  8
0
  6
CONTINUOUS
 62
   249
 10
248.022664
 20
135.56
 30
0.0
 11
248.038344
 21
135.56
 31
0.0
 12
248.038344
 22
134.44
 32
0.0
 13
248.022664
 23
134.44
 33
0.0
  0
3DFACE
  8
0
  6
CONTINUOUS
 62
   249
 10
248.038344
 20
135.56
 30
0.0
 11
248.054024
 21
135.56
 31
0.0
 12
248.054024
 22
134.44
 32
0.0
 13
248.038344
 23
134.44
 33
0.0
  0
LINE
  8
0
  6
CONTINUOUS
 62
   249
 10
215.352984
 20
191.164843
 30
0.0
 11
213.007219
 21
192.500196
 31
0.0
  0
LINE
  8
0
  6
CONTINUOUS
 62
   249
 10
213.007219
 20
192.500196
 30
0.0
 11
215.352984
 21
193.690116
 31
0.0
  0
LINE
  8
0
  6
CONTINUOUS
 62
   249
 10
299.009978
 20
210.0
 30
0.0
 11
301.655635
 21
210.0
 31
0.0
  0
LINE
  8
0
  6
CONTINUOUS
 62
   249
 10
303.437188
 20
209.396305
 30
0.0
 11
303.437188
 21
210.603695
 31
0.0
  0
LINE
  8
0
  6
CONTINUOUS
 62
   249
 10
302.549675
 20
208.963807
 30
0.0
 11
302.549675
 21
211.027182
 31
0.0
  0
LINE
  8
0
  6
CONTINUOUS
 62
   249
 10
301.655635
 20
208.468237
 30
0.0
 11
301.655635
 21
211.531763
 31
0.0
  0
ARC
  8
0
  6
DASHED
 62
   249
 10
295.0
 20
210.0
 30
0.0
 40
0.5
 50
180.0
 51
0.0
  0
ARC
  8
0
  6
DASHED
 62
   249
 10
295.0
 20
210.0
 30
0.0
 40
0.5
 50
0.0
 51
180.0
  0
INSERT
  8
0
  6
CENTER
 62
   249
  2
BLC26
 10
268.546562
 20
217.609534
 30
0.0
 41
1.006225
 42
1.006225
 43
1.006225
  0
INSERT
  8
0
  6
CENTER
 62
   249
  2
BLC26
 10
276.046562
 20
217.609534
 30
0.0
 41
1.006225
 42
1.006225
 43
1.006225
  0
INSERT
  8
0
  6
CENTER
 62
   249
  2
BLC26
 10
283.546562
 20
217.609534
 30
0.0
 41
1.006225
 42
1.006225
 43
1.006225
  0
ARC
  8
0
  6
DASHED
 62
   249
 10
285.0
 20
232.5
 30
0.0
 40
0.5
 50
180.0
 51
0.0
  0
ARC
  8
0
  6
DASHED
 62
   249
 10
285.0
 20
232.5
 30
0.0
 40
0.5
 50
0.0
 51
180.0
  0
ARC
  8
0
  6
DASHED
 62
   249
 10
270.0
 20
242.5
 30
0.0
 40
0.5
 50
180.0
 51
0.0
  0
ARC
  8
0
  6
DASHED
 62
   249
 10
270.0
 20
242.5
 30
0.0
 40
0.5
 50
0.0
 51
180.0
  0
ARC
  8
0
  6
DASHED
 62
   249
 10
277.5
 20
237.5
 30
0.0
 40
0.5
 50
180.0
 51
0.0
  0
ARC
  8
0
  6
DASHED
 62
   249
 10
277.5
 20
237.5
 30
0.0
 40
0.5
 50
0.0
 51
180.0
  0
LINE
  8
0
  6
CONTINUOUS
 62
   249
 10
299.009978
 20
215.18998
 30
0.0
 11
301.655635
 21
215.18998
 31
0.0
  0
LINE
  8
0
  6
CONTINUOUS
 62
   249
 10
303.437188
 20
214.586285
 30
0.0
 11
303.437188
 21
215.793675
 31
0.0
  0
LINE
  8
0
  6
CONTINUOUS
 62
   249
 10
302.549675
 20
214.153787
 30
0.0
 11
302.549675
 21
216.217163
 31
0.0
  0
LINE
  8
0
  6
CONTINUOUS
 62
   249
 10
301.655635
 20
213.658217
 30
0.0
 11
301.655635
 21
216.721743
 31
0.0
  0
ENDSEC
  0
EOF
