  0
SECTION
  2
HEADER
  9
$ACADVER
  1
AC1009
  9
$DWGCODEPAGE
  3
iso8859-1
  9
$INSBASE
 10
0.0
 20
0.0
 30
0.0
  9
$EXTMIN
 10
1.0E20
 20
1.0E20
  9
$EXTMAX
 10
-1.0E20
 20
-1.0E20
  9
$LIMMIN
 10
0.0
 20
0.0
  9
$LIMMAX
 10
12.0
 20
9.0
  9
$ORTHOMODE
 70
     0
  9
$REGENMODE
 70
     1
  9
$FILLMODE
 70
     1
  9
$QTEXTMODE
 70
     0
  9
$MIRRTEXT
 70
     1
  9
$DRAGMODE
 70
     2
  9
$LTSCALE
 40
15.0
  9
$OSMODE
 70
     0
  9
$ATTMODE
 70
     1
  9
$TEXTSIZE
 40
0.2
  9
$TRACEWID
 40
0.05
  9
$TEXTSTYLE
  7
STANDARD
  9
$CLAYER
  8
0
  9
$CELTYPE
  6
DASHED
  9
$CECOLOR
 62
   256
  9
$DIMSCALE
 40
1.0
  9
$DIMASZ
 40
0.18
  9
$DIMEXO
 40
0.0625
  9
$DIMDLI
 40
0.38
  9
$DIMRND
 40
0.0
  9
$DIMDLE
 40
0.0
  9
$DIMEXE
 40
0.18
  9
$DIMTP
 40
0.0
  9
$DIMTM
 40
0.0
  9
$DIMTXT
 40
0.18
  9
$DIMCEN
 40
0.09
  9
$DIMTSZ
 40
0.0
  9
$DIMTOL
 70
     0
  9
$DIMLIM
 70
     0
  9
$DIMTIH
 70
     1
  9
$DIMTOH
 70
     1
  9
$DIMSE1
 70
     0
  9
$DIMSE2
 70
     0
  9
$DIMTAD
 70
     0
  9
$DIMZIN
 70
     0
  9
$DIMBLK
  1

  9
$DIMASO
 70
     1
  9
$DIMSHO
 70
     1
  9
$DIMPOST
  1

  9
$DIMAPOST
  1

  9
$DIMALT
 70
     0
  9
$DIMALTD
 70
     2
  9
$DIMALTF
 40
25.4
  9
$DIMLFAC
 40
1.0
  9
$DIMTOFL
 70
     0
  9
$DIMTVP
 40
0.0
  9
$DIMTIX
 70
     0
  9
$DIMSOXD
 70
     0
  9
$DIMSAH
 70
     0
  9
$DIMBLK1
  1

  9
$DIMBLK2
  1

  9
$DIMSTYLE
  2
STANDARD
  9
$DIMCLRD
 70
     0
  9
$DIMCLRE
 70
     0
  9
$DIMCLRT
 70
     0
  9
$DIMTFAC
 40
1.0
  9
$DIMGAP
 40
0.09
  9
$LUNITS
 70
     2
  9
$LUPREC
 70
     4
  9
$AXISMODE
 70
     0
  9
$AXISUNIT
 10
0.0
 20
0.0
  9
$SKETCHINC
 40
0.1
  9
$FILLETRAD
 40
0.0
  9
$AUNITS
 70
     0
  9
$AUPREC
 70
     0
  9
$MENU
  1
acad
  9
$ELEVATION
 40
0.0
  9
$PELEVATION
 40
0.0
  9
$THICKNESS
 40
0.0
  9
$LIMCHECK
 70
     0
  9
$BLIPMODE
 70
     1
  9
$CHAMFERA
 40
0.0
  9
$CHAMFERB
 40
0.0
  9
$SKPOLY
 70
     0
  9
$TDCREATE
 40
0.000000000
  9
$TDUPDATE
 40
0.000000000
  9
$TDINDWG
 40
0.0
  9
$TDUSRTIMER
 40
0.0
  9
$USRTIMER
 70
     1
  9
$ANGBASE
 50
0.0
  9
$ANGDIR
 70
     0
  9
$PDMODE
 70
     0
  9
$PDSIZE
 40
0.0
  9
$PLINEWID
 40
0.0
  9
$COORDS
 70
     1
  9
$SPLFRAME
 70
     0
  9
$SPLINETYPE
 70
     6
  9
$SPLINESEGS
 70
     8
  9
$ATTDIA
 70
     0
  9
$ATTREQ
 70
     1
  9
$HANDLING
 70
     1
  9
$HANDSEED
  5
   8B5
  9
$SURFTAB1
 70
     6
  9
$SURFTAB2
 70
     6
  9
$SURFTYPE
 70
     6
  9
$SURFU
 70
     6
  9
$SURFV
 70
     6
  9
$UCSNAME
  2

  9
$UCSORG
 10
0.0
 20
0.0
 30
0.0
  9
$UCSXDIR
 10
1.0
 20
0.0
 30
0.0
  9
$UCSYDIR
 10
0.0
 20
1.0
 30
0.0
  9
$PUCSNAME
  2

  9
$PUCSORG
 10
0.0
 20
0.0
 30
0.0
  9
$PUCSXDIR
 10
1.0
 20
0.0
 30
0.0
  9
$PUCSYDIR
 10
0.0
 20
1.0
 30
0.0
  9
$USERI1
 70
     0
  9
$USERI2
 70
     0
  9
$USERI3
 70
     0
  9
$USERI4
 70
     0
  9
$USERI5
 70
     0
  9
$USERR1
 40
0.0
  9
$USERR2
 40
0.0
  9
$USERR3
 40
0.0
  9
$USERR4
 40
0.0
  9
$USERR5
 40
0.0
  9
$WORLDVIEW
 70
     1
  9
$SHADEDGE
 70
     3
  9
$SHADEDIF
 70
    70
  9
$TILEMODE
 70
     1
  9
$MAXACTVP
 70
    16
  9
$PINSBASE
 10
0.0
 20
0.0
 30
0.0
  9
$PLIMCHECK
 70
     0
  9
$PEXTMIN
 10
1.0E20
 20
1.0E20
 30
1.0E20
  9
$PEXTMAX
 10
-1.0E20
 20
-1.0E20
 30
-1.0E20
  9
$PLIMMIN
 10
0.0
 20
0.0
  9
$PLIMMAX
 10
12.0
 20
9.0
  9
$UNITMODE
 70
     0
  9
$VISRETAIN
 70
     0
  0
ENDSEC
  0
SECTION
  2
TABLES
  0
TABLE
  2
VPORT
 70
     1
  0
VPORT
  2
*ACTIVE
 70
     0
 10
0.0
 20
0.0
 11
1.0
 21
1.0
 12
6.801242
 22
4.5
 13
0.0
 23
0.0
 14
1.0
 24
1.0
 15
0.0
 25
0.0
 16
0.0
 26
0.0
 36
1.0
 17
0.0
 27
0.0
 37
0.0
 40
9.0
 41
1.511387
 42
50.0
 43
0.0
 44
0.0
 50
0.0
 51
0.0
 71
     0
 72
   100
 73
     1
 74
     1
 75
     0
 76
     0
 77
     0
 78
     0
  0
ENDTAB
  0
TABLE
  2
LTYPE
 70
    41
  0
LTYPE
  2
BYBLOCK
 70
     0
  3

 72
    65
 73
     0
 40
0.0
  0
LTYPE
  2
BYLAYER
 70
     0
  3

 72
    65
 73
     0
 40
0.0
  0
LTYPE
  2
CONTINUOUS
 70
     0
  3
Solid line
 72
    65
 73
     0
 40
0.0
  0
LTYPE
  2
BORDER
 70
    64
  3
__ __ . __ __ . __ __ . __ __ . __ __ . __ __ .
 72
    65
 73
     6
 40
1.75
 49
0.5
 49
-0.25
 49
0.5
 49
-0.25
 49
0.0
 49
-0.25
  0
LTYPE
  2
BORDER2
 70
    64
  3
__.__.__.__.__.__.__.__.__.__.__.__.__.__.__.__
 72
    65
 73
     6
 40
0.875
 49
0.25
 49
-0.125
 49
0.25
 49
-0.125
 49
0.0
 49
-0.125
  0
LTYPE
  2
BORDERX2
 70
    64
  3
____  ____  .  ____  ____  .  ____  ____  .  __
 72
    65
 73
     6
 40
3.5
 49
1.0
 49
-0.5
 49
1.0
 49
-0.5
 49
0.0
 49
-0.5
  0
LTYPE
  2
CENTER
 70
    64
  3
____ _ ____ _ ____ _ ____ _ ____ _ ____ _ ____
 72
    65
 73
     4
 40
2.0
 49
1.25
 49
-0.25
 49
0.25
 49
-0.25
  0
LTYPE
  2
CENTER2
 70
    64
  3
___ _ ___ _ ___ _ ___ _ ___ _ ___ _ ___ _ ___ _
 72
    65
 73
     4
 40
1.125
 49
0.75
 49
-0.125
 49
0.125
 49
-0.125
  0
LTYPE
  2
CENTERX2
 70
    64
  3
________  __  ________  __  ________  __  _____
 72
    65
 73
     4
 40
4.0
 49
2.5
 49
-0.5
 49
0.5
 49
-0.5
  0
LTYPE
  2
DASHDOT
 70
    64
  3
__ . __ . __ . __ . __ . __ . __ . __ . __ . __
 72
    65
 73
     4
 40
1.0
 49
0.5
 49
-0.25
 49
0.0
 49
-0.25
  0
LTYPE
  2
DASHDOT2
 70
    64
  3
_._._._._._._._._._._._._._._._._._._._._._._._
 72
    65
 73
     4
 40
0.5
 49
0.25
 49
-0.125
 49
0.0
 49
-0.125
  0
LTYPE
  2
DASHDOTX2
 70
    64
  3
____  .  ____  .  ____  .  ____  .  ____  .  __
 72
    65
 73
     4
 40
2.0
 49
1.0
 49
-0.5
 49
0.0
 49
-0.5
  0
LTYPE
  2
DASHED
 70
    64
  3
__ __ __ __ __ __ __ __ __ __ __ __ __ __ __ __
 72
    65
 73
     2
 40
0.75
 49
0.5
 49
-0.25
  0
LTYPE
  2
DASHED2
 70
    64
  3
_ _ _ _ _ _ _ _ _ _ _ _ _ _ _ _ _ _ _ _ _ _ _ _
 72
    65
 73
     2
 40
0.375
 49
0.25
 49
-0.125
  0
LTYPE
  2
DASHEDX2
 70
    64
  3
____  ____  ____  ____  ____  ____  ____  ____
 72
    65
 73
     2
 40
1.5
 49
1.0
 49
-0.5
  0
LTYPE
  2
DIVIDE
 70
    64
  3
____ . . ____ . . ____ . . ____ . . ____ . . __
 72
    65
 73
     6
 40
1.25
 49
0.5
 49
-0.25
 49
0.0
 49
-0.25
 49
0.0
 49
-0.25
  0
LTYPE
  2
DIVIDE2
 70
    64
  3
__..__..__..__..__..__..__..__..__..__..__..__.
 72
    65
 73
     6
 40
0.625
 49
0.25
 49
-0.125
 49
0.0
 49
-0.125
 49
0.0
 49
-0.125
  0
LTYPE
  2
DIVIDEX2
 70
    64
  3
________  .  .  ________  .  .  ________  .  .
 72
    65
 73
     6
 40
2.5
 49
1.0
 49
-0.5
 49
0.0
 49
-0.5
 49
0.0
 49
-0.5
  0
LTYPE
  2
DOT
 70
    64
  3
. . . . . . . . . . . . . . . . . . . . . . . .
 72
    65
 73
     2
 40
0.25
 49
0.0
 49
-0.25
  0
LTYPE
  2
DOT2
 70
    64
  3
...............................................
 72
    65
 73
     2
 40
0.125
 49
0.0
 49
-0.125
  0
LTYPE
  2
DOTX2
 70
    64
  3
.  .  .  .  .  .  .  .  .  .  .  .  .  .  .  .
 72
    65
 73
     2
 40
0.5
 49
0.0
 49
-0.5
  0
LTYPE
  2
HIDDEN
 70
    64
  3
__ __ __ __ __ __ __ __ __ __ __ __ __ __ __ __
 72
    65
 73
     2
 40
0.375
 49
0.25
 49
-0.125
  0
LTYPE
  2
HIDDEN2
 70
    64
  3
_ _ _ _ _ _ _ _ _ _ _ _ _ _ _ _ _ _ _ _ _ _ _ _
 72
    65
 73
     2
 40
0.1875
 49
0.125
 49
-0.0625
  0
LTYPE
  2
HIDDENX2
 70
    64
  3
____ ____ ____ ____ ____ ____ ____ ____ ____ __
 72
    65
 73
     2
 40
0.75
 49
0.5
 49
-0.25
  0
LTYPE
  2
PHANTOM
 70
    64
  3
______  __  __  ______  __  __  ______  __  __
 72
    65
 73
     6
 40
2.5
 49
1.25
 49
-0.25
 49
0.25
 49
-0.25
 49
0.25
 49
-0.25
  0
LTYPE
  2
PHANTOM2
 70
    64
  3
___ _ _ ___ _ _ ___ _ _ ___ _ _ ___ _ _ ___ _ _
 72
    65
 73
     6
 40
1.25
 49
0.625
 49
-0.125
 49
0.125
 49
-0.125
 49
0.125
 49
-0.125
  0
LTYPE
  2
PHANTOMX2
 70
    64
  3
____________    ____    ____    ____________
 72
    65
 73
     6
 40
5.0
 49
2.5
 49
-0.5
 49
0.5
 49
-0.5
 49
0.5
 49
-0.5
  0
LTYPE
  2
ACAD_ISO02W100
 70
    64
  3
__ __ __ __ __ __ __ __ __ __ __ __ __ __ __ __
 72
    65
 73
     2
 40
15.0
 49
12.0
 49
-3.0
  0
LTYPE
  2
ACAD_ISO03W100
 70
    64
  3
__    __    __    __    __    __    __    __
 72
    65
 73
     2
 40
30.0
 49
12.0
 49
-18.0
  0
LTYPE
  2
ACAD_ISO04W100
 70
    64
  3
____ . ____ . ____ . ____ . ____ . ____ . ____
 72
    65
 73
     4
 40
30.5
 49
24.0
 49
-3.0
 49
0.5
 49
-3.0
  0
LTYPE
  2
ACAD_ISO05W100
 70
    64
  3
____ .. ____ .. ____ .. ____ .. ____ .. ____ ..
 72
    65
 73
     6
 40
34.0
 49
24.0
 49
-3.0
 49
0.5
 49
-3.0
 49
0.5
 49
-3.0
  0
LTYPE
  2
ACAD_ISO06W100
 70
    64
  3
____ ... ____ ... ____ ... ____ ... ____ ... __
 72
    65
 73
     8
 40
37.5
 49
24.0
 49
-3.0
 49
0.5
 49
-3.0
 49
0.5
 49
-3.0
 49
0.5
 49
-3.0
  0
LTYPE
  2
ACAD_ISO07W100
 70
    64
  3
. . . . . . . . . . . . . . . . . . . . . . . .
 72
    65
 73
     2
 40
3.5
 49
0.5
 49
-3.0
  0
LTYPE
  2
ACAD_ISO08W100
 70
    64
  3
____ __ ____ __ ____ __ ____ ____ __ __ ____ __
 72
    65
 73
     4
 40
36.0
 49
24.0
 49
-3.0
 49
6.0
 49
-3.0
  0
LTYPE
  2
ACAD_ISO09W100
 70
    64
  3
____ __ __ ____ __ __ ____ __ __ ____ __ __ ___
 72
    65
 73
     6
 40
45.0
 49
24.0
 49
-3.0
 49
6.0
 49
-3.0
 49
6.0
 49
-3.0
  0
LTYPE
  2
ACAD_ISO10W100
 70
    64
  3
__ . __ . __ . __ . __ . __ . __ . __ . __ . __
 72
    65
 73
     4
 40
18.5
 49
12.0
 49
-3.0
 49
0.5
 49
-3.0
  0
LTYPE
  2
ACAD_ISO11W100
 70
    64
  3
__ __ . __ __ . __ __ . __ __ . __ __ . __ __ .
 72
    65
 73
     6
 40
33.5
 49
12.0
 49
-3.0
 49
12.0
 49
-3.0
 49
0.5
 49
-3.0
  0
LTYPE
  2
ACAD_ISO12W100
 70
    64
  3
__ . . __ . . __ . . __ . . __ . . __ . . __ .
 72
    65
 73
     6
 40
22.0
 49
12.0
 49
-3.0
 49
0.5
 49
-3.0
 49
0.5
 49
-3.0
  0
LTYPE
  2
ACAD_ISO13W100
 70
    64
  3
__ __ . . __ __ . . __ __ . . __ __ . . __ __ .
 72
    65
 73
     8
 40
37.0
 49
12.0
 49
-3.0
 49
12.0
 49
-3.0
 49
0.5
 49
-3.0
 49
0.5
 49
-3.0
  0
LTYPE
  2
ACAD_ISO14W100
 70
    64
  3
__ . . . __ . . . __ . . . __ . . . __ . . . __
 72
    65
 73
     8
 40
25.5
 49
12.0
 49
-3.0
 49
0.5
 49
-3.0
 49
0.5
 49
-3.0
 49
0.5
 49
-3.0
  0
LTYPE
  2
ACAD_ISO15W100
 70
    64
  3
__ __ . . . __ __ . . . __ __ . . . __ __ . . .
 72
    65
 73
    10
 40
40.5
 49
12.0
 49
-3.0
 49
12.0
 49
-3.0
 49
0.5
 49
-3.0
 49
0.5
 49
-3.0
 49
0.5
 49
-3.0
  0
ENDTAB
  0
TABLE
  2
STYLE
 70
     4
  0
STYLE
  2
STANDARD
 70
    64
 40
0.0
 41
1.0
 50
0.0
 71
     0
 42
0.2
  3
txt
  4

  0
STYLE
  2
TOLERANCE
 70
    64
 40
0.0
 41
1.0
 50
0.0
 71
     0
 42
0.2
  3
../igesfont/iges1003.shx
  4

  0
STYLE
  2
ROMANS
 70
    64
 40
0.0
 41
1.0
 50
0.0
 71
     0
 42
0.2
  3
romans.shx
  4

  0
STYLE
  2
ROMANC
 70
    64
 40
0.0
 41
1.0
 50
0.0
 71
     0
 42
0.2
  3
romanc.shx
  4

  0
ENDTAB
  0
TABLE
  2
DIMSTYLE
 70
     2
  0
DIMSTYLE
  2
UNNAMED
 70
     0
  3

  4

  5

  6

  7

 40
1.0
 41
0.18
 42
0.0625
 43
0.38
 44
0.18
 45
0.0
 46
0.0
 47
0.0
 48
0.0
140
0.18
141
0.09
142
0.0
143
25.4
144
1.0
145
0.0
146
1.0
147
0.09
 71
     0
 72
     0
 73
     1
 74
     1
 75
     0
 76
     0
 77
     0
 78
     0
170
     0
171
     2
172
     0
173
     0
174
     0
175
     0
176
     0
177
     0
178
     0
  0
DIMSTYLE
  2
STANDARD
 70
     0
  3

  4

  5

  6

  7

 40
1.0
 41
0.18
 42
0.0625
 43
0.38
 44
0.18
 45
0.0
 46
0.0
 47
0.0
 48
0.0
140
0.18
141
0.09
142
0.0
143
25.4
144
1.0
145
0.0
146
1.0
147
0.09
 71
     0
 72
     0
 73
     1
 74
     1
 75
     0
 76
     0
 77
     0
 78
     0
170
     0
171
     2
172
     0
173
     0
174
     0
175
     0
176
     0
177
     0
178
     0
  0
ENDTAB
  0
TABLE
  2
LAYER
 70
     2
  0
LAYER
  2
0
 70
     0
 62
     7
  6
CONTINUOUS
  0
LAYER
  2
255
 70
     0
 62
     7
  6
CONTINUOUS
  0
ENDTAB
  0
ENDSEC
  0
SECTION
  2
BLOCKS
  0
BLOCK
  5
     B
  8
0
  6
CONTINUOUS
 62
     5
  2
*UDIM1465
 70
    65
 10
0.0
 20
0.0
 30
0.0
  3
*UDIM1465
  0
TEXT
  5
     C
  8
0
  6
CONTINUOUS
 62
     5
 10
-715.622647343992
 20
-113.355421266141
 30
0.0
 40
2.99999994933605
  1
105,25
 50
449.999999896069
 41
0.933333333333333
 72
     1
 11
-717.122647304018
 21
-105.255421400222
 31
0.0
 73
     2
  0
LINE
  5
     D
  8
0
  6
CONTINUOUS
 62
     5
 10
-709.75865420513
 20
-95.0452206283808
 30
0.0
 11
-716.62264732935
 21
-95.0452206283808
 31
0.0
  0
LINE
  5
     E
  8
0
  6
CONTINUOUS
 62
     5
 10
-714.62264732935
 20
-95.0452206283808
 30
0.0
 11
-714.62264732935
 21
-116.09522094205
 31
0.0
  0
LINE
  5
     F
  8
0
  6
CONTINUOUS
 62
     5
 10
-714.101702899399
 20
-97.9996439055878
 30
0.0
 11
-714.62264732935
 21
-95.0452206283808
 31
0.0
  0
LINE
  5
    10
  8
0
  6
CONTINUOUS
 62
     5
 10
-714.62264732935
 20
-95.0452206283808
 30
0.0
 11
-715.143591759302
 21
-97.9996439055878
 31
0.0
  0
LINE
  5
    11
  8
0
  6
CONTINUOUS
 62
     5
 10
-715.143591759302
 20
-113.140797664843
 30
0.0
 11
-714.62264732935
 21
-116.09522094205
 31
0.0
  0
LINE
  5
    12
  8
0
  6
CONTINUOUS
 62
     5
 10
-714.62264732935
 20
-116.09522094205
 30
0.0
 11
-714.101702899399
 21
-113.140797664843
 31
0.0
  0
ENDBLK
  5
    13
  8
0
  6
CONTINUOUS
 62
     5
  0
BLOCK
  5
    14
  8
0
  6
CONTINUOUS
 62
     7
  2
*UDIM1466
 70
    65
 10
0.0
 20
0.0
 30
0.0
  3
*UDIM1466
  0
TEXT
  5
    15
  8
0
  6
CONTINUOUS
 62
     7
 10
-686.333526347652
 20
-109.355709743604
 30
0.0
 40
2.99999994933605
  1
35
 50
359.999999896069
 41
0.933333333333333
 72
     1
 11
-683.833526387158
 21
-107.855709773458
 31
0.0
 73
     2
  0
LINE
  5
    16
  8
0
  6
CONTINUOUS
 62
     7
 10
-681.333526429378
 20
-110.355709748126
 30
0.0
 11
-702.377319388092
 21
-110.355709748126
 31
0.0
  0
LINE
  5
    17
  8
0
  6
CONTINUOUS
 62
     7
 10
-692.422896006577
 20
-109.834765318175
 30
0.0
 11
-695.377319283784
 21
-110.355709748126
 31
0.0
  0
LINE
  5
    18
  8
0
  6
CONTINUOUS
 62
     7
 10
-695.377319283784
 20
-110.355709748126
 30
0.0
 11
-692.422896006577
 21
-110.876654178078
 31
0.0
  0
LINE
  5
    19
  8
0
  6
CONTINUOUS
 62
     7
 10
-705.331742665299
 20
-110.876654178078
 30
0.0
 11
-702.377319388092
 21
-110.355709748126
 31
0.0
  0
LINE
  5
    1A
  8
0
  6
CONTINUOUS
 62
     7
 10
-702.377319388092
 20
-110.355709748126
 30
0.0
 11
-705.331742665299
 21
-109.834765318175
 31
0.0
  0
ENDBLK
  5
    1B
  8
0
  6
CONTINUOUS
 62
     7
  0
BLOCK
  5
    1C
  8
0
  6
CONTINUOUS
 62
     7
  2
*UDIM1467
 70
    65
 10
0.0
 20
0.0
 30
0.0
  3
*UDIM1467
  0
TEXT
  5
    1D
  8
0
  6
CONTINUOUS
 62
     7
 10
-685.346142899771
 20
-97.9333828243447
 30
0.0
 40
2.99999994933605
  1
5,5
 50
338.440679311644
 41
0.933333333333333
 72
     1
 11
-681.16779977502
 21
-97.9714372869428
 31
0.0
 73
     2
  0
TEXT
  5
    1E
  8
0
  6
CONTINUOUS
 62
     7
 10
-688.275761346952
 20
-96.7758702132846
 30
0.0
 40
2.99999994933605
  1
Ø
 50
338.440679311644
 41
0.933333333333333
 72
     1
 11
-686.701523501662
 21
-95.7850245696099
 31
0.0
 73
     2
  0
TEXT
  5
    1F
  8
0
  6
CONTINUOUS
 62
     7
 10
-677.580328914245
 20
-101.001709916012
 30
0.0
 40
2.99999994933605
  1
 - M5
 50
338.440679311644
 41
0.933333333333333
 72
     1
 11
-670.797880510035
 21
-102.068664484883
 31
0.0
 73
     2
  0
LINE
  5
    20
  8
0
  6
CONTINUOUS
 62
     7
 10
-665.485289398045
 20
-106.855769459076
 30
0.0
 11
-695.888839980304
 21
-94.8431152448636
 31
0.0
  0
LINE
  5
    21
  8
0
  6
CONTINUOUS
 62
     7
 10
-691.926645310371
 20
-95.8484732608579
 30
0.0
 11
-694.865798587263
 21
-95.247326011898
 31
0.0
  0
LINE
  5
    22
  8
0
  6
CONTINUOUS
 62
     7
 10
-694.865798587263
 20
-95.247326011898
 30
0.0
 11
-692.309502300326
 21
-96.817469092445
 31
0.0
  0
LINE
  5
    23
  8
0
  6
CONTINUOUS
 62
     7
 10
-698.827993257196
 20
-94.2419679959037
 30
0.0
 11
-695.888839980304
 21
-94.8431152448636
 31
0.0
  0
LINE
  5
    24
  8
0
  6
CONTINUOUS
 62
     7
 10
-695.888839980304
 20
-94.8431152448636
 30
0.0
 11
-698.445136267241
 21
-93.2729721643165
 31
0.0
  0
ENDBLK
  5
    25
  8
0
  6
CONTINUOUS
 62
     7
  0
BLOCK
  5
    26
  8
0
  6
CONTINUOUS
 62
     7
  2
*UDIM1468
 70
    65
 10
0.0
 20
0.0
 30
0.0
  3
*UDIM1468
  0
TEXT
  5
    27
  8
0
  6
CONTINUOUS
 62
     7
 10
-723.32371556639
 20
-120.620222078749
 30
0.0
 40
2.99999994933605
  1
214
 50
449.999999896069
 41
0.933333333333333
 72
     1
 11
-724.823715534008
 21
-116.720222141901
 31
0.0
 73
     2
  0
LINE
  5
    28
  8
0
  6
CONTINUOUS
 62
     7
 10
-709.75865420513
 20
-95.0452203144643
 30
0.0
 11
-724.323715559339
 21
-95.0452157422516
 31
0.0
  0
LINE
  5
    29
  8
0
  6
CONTINUOUS
 62
     7
 10
-709.081282231605
 20
-137.845220952234
 30
0.0
 11
-724.323715559339
 21
-137.845216167383
 31
0.0
  0
LINE
  5
    2A
  8
0
  6
CONTINUOUS
 62
     7
 10
-722.32371555934
 20
-95.0452163700846
 30
0.0
 11
-722.32371555934
 21
-137.845216795216
 31
0.0
  0
LINE
  5
    2B
  8
0
  6
CONTINUOUS
 62
     7
 10
-721.802771129388
 20
-97.9996396472915
 30
0.0
 11
-722.32371555934
 21
-95.0452163700846
 31
0.0
  0
LINE
  5
    2C
  8
0
  6
CONTINUOUS
 62
     7
 10
-722.32371555934
 20
-95.0452163700846
 30
0.0
 11
-722.844659989291
 21
-97.9996396472915
 31
0.0
  0
LINE
  5
    2D
  8
0
  6
CONTINUOUS
 62
     7
 10
-722.844659989291
 20
-134.890793518009
 30
0.0
 11
-722.32371555934
 21
-137.845216795216
 31
0.0
  0
LINE
  5
    2E
  8
0
  6
CONTINUOUS
 62
     7
 10
-722.32371555934
 20
-137.845216795216
 30
0.0
 11
-721.802771129388
 21
-134.890793518009
 31
0.0
  0
ENDBLK
  5
    2F
  8
0
  6
CONTINUOUS
 62
     7
  0
BLOCK
  5
    30
  8
0
  6
CONTINUOUS
 62
     7
  2
*HATCH1035
 70
    65
 10
0.0
 20
0.0
 30
0.0
  3
*HATCH1035
  0
LINE
  5
    31
  8
0
  6
CONTINUOUS
 62
   210
 10
221.237091064453
 20
82.1116256713867
 30
0.0
 11
225.348754882813
 21
77.9999618530274
 31
0.0
  0
LINE
  5
    32
  8
0
  6
CONTINUOUS
 62
   210
 10
224.591400146484
 20
82.9999618530274
 30
0.0
 11
227.237045288086
 21
80.3543167114258
 31
0.0
  0
ENDBLK
  5
    33
  8
0
  6
CONTINUOUS
 62
     7
  0
BLOCK
  5
    34
  8
0
  6
CONTINUOUS
 62
     7
  2
*HATCH1036
 70
    65
 10
0.0
 20
0.0
 30
0.0
  3
*HATCH1036
  0
LINE
  5
    35
  8
0
  6
CONTINUOUS
 62
     3
 10
204.218536376953
 20
77.9999618530274
 30
0.0
 11
202.237045288086
 21
76.0184707641602
 31
0.0
  0
LINE
  5
    36
  8
0
  6
CONTINUOUS
 62
     3
 10
206.237045288086
 20
77.8971557617188
 30
0.0
 11
202.237045288086
 21
73.8971557617188
 31
0.0
  0
LINE
  5
    37
  8
0
  6
CONTINUOUS
 62
     3
 10
206.237045288086
 20
75.7758331298828
 30
0.0
 11
202.237045288086
 21
71.7758331298828
 31
0.0
  0
LINE
  5
    38
  8
0
  6
CONTINUOUS
 62
     3
 10
206.237045288086
 20
73.6545104980469
 30
0.0
 11
202.237045288086
 21
69.6545104980469
 31
0.0
  0
LINE
  5
    39
  8
0
  6
CONTINUOUS
 62
     3
 10
206.237045288086
 20
71.5331878662109
 30
0.0
 11
202.237045288086
 21
67.5331878662109
 31
0.0
  0
LINE
  5
    3A
  8
0
  6
CONTINUOUS
 62
     3
 10
206.237045288086
 20
69.4118728637695
 30
0.0
 11
202.819671630859
 21
65.994499206543
 31
0.0
  0
LINE
  5
    3B
  8
0
  6
CONTINUOUS
 62
     3
 10
206.237045288086
 20
67.2905502319336
 30
0.0
 11
204.279418945313
 21
65.3329238891602
 31
0.0
  0
LINE
  5
    3C
  8
0
  6
CONTINUOUS
 62
     3
 10
206.237045288086
 20
65.1692276000977
 30
0.0
 11
205.739166259766
 21
64.6713485717773
 31
0.0
  0
ENDBLK
  5
    3D
  8
0
  6
CONTINUOUS
 62
     7
  0
BLOCK
  5
    3E
  8
0
  6
CONTINUOUS
 62
     7
  2
*HATCH1037
 70
    65
 10
0.0
 20
0.0
 30
0.0
  3
*HATCH1037
  0
LINE
  5
    3F
  8
0
  6
CONTINUOUS
 62
   210
 10
196.745819091797
 20
81.1470718383789
 30
0.0
 11
199.892929077148
 21
77.9999618530274
 31
0.0
  0
LINE
  5
    40
  8
0
  6
CONTINUOUS
 62
   210
 10
199.13557434082
 20
82.9999618530274
 30
0.0
 11
204.135559082031
 21
77.9999618530274
 31
0.0
  0
LINE
  5
    41
  8
0
  6
CONTINUOUS
 62
   210
 10
203.378219604492
 20
82.9999618530274
 30
0.0
 11
208.378204345703
 21
77.9999618530274
 31
0.0
  0
LINE
  5
    42
  8
0
  6
CONTINUOUS
 62
   210
 10
207.620864868164
 20
82.9999618530274
 30
0.0
 11
212.620849609375
 21
77.9999618530274
 31
0.0
  0
LINE
  5
    43
  8
0
  6
CONTINUOUS
 62
   210
 10
211.863494873047
 20
82.9999618530274
 30
0.0
 11
213.237091064453
 21
81.626350402832
 31
0.0
  0
ENDBLK
  5
    44
  8
0
  6
CONTINUOUS
 62
     7
  0
BLOCK
  5
    45
  8
0
  6
CONTINUOUS
 62
     7
  2
*HATCH1038
 70
    65
 10
0.0
 20
0.0
 30
0.0
  3
*HATCH1038
  0
LINE
  5
    46
  8
0
  6
CONTINUOUS
 62
     3
 10
197.431854248047
 20
90.3051605224609
 30
0.0
 11
196.745819091797
 21
89.6191329956055
 31
0.0
  0
LINE
  5
    47
  8
0
  6
CONTINUOUS
 62
     3
 10
198.492523193359
 20
89.2445068359375
 30
0.0
 11
196.745819091797
 21
87.4978103637695
 31
0.0
  0
LINE
  5
    48
  8
0
  6
CONTINUOUS
 62
     3
 10
199.553192138672
 20
88.1838531494141
 30
0.0
 11
196.745819091797
 21
85.3764877319336
 31
0.0
  0
LINE
  5
    49
  8
0
  6
CONTINUOUS
 62
     3
 10
199.737045288086
 20
86.2463912963867
 30
0.0
 11
196.745819091797
 21
83.2551727294922
 31
0.0
  0
LINE
  5
    4A
  8
0
  6
CONTINUOUS
 62
     3
 10
199.737045288086
 20
84.1250762939453
 30
0.0
 11
198.611923217773
 21
82.9999618530274
 31
0.0
  0
ENDBLK
  5
    4B
  8
0
  6
CONTINUOUS
 62
     7
  0
BLOCK
  5
    4C
  8
0
  6
CONTINUOUS
 62
     7
  2
*HATCH1039
 70
    65
 10
0.0
 20
0.0
 30
0.0
  3
*HATCH1039
  0
LINE
  5
    4D
  8
0
  6
CONTINUOUS
 62
   210
 10
-10.7629547119141
 20
80.7665863037109
 30
0.0
 11
-7.99633836746216
 21
77.9999618530274
 31
0.0
  0
LINE
  5
    4E
  8
0
  6
CONTINUOUS
 62
   210
 10
-8.75369358062744
 20
82.9999618530274
 30
0.0
 11
-4.76300573348999
 21
79.0092697143555
 31
0.0
  0
ENDBLK
  5
    4F
  8
0
  6
CONTINUOUS
 62
     7
  0
BLOCK
  5
    50
  8
0
  6
CONTINUOUS
 62
     7
  2
*HATCH1040
 70
    65
 10
0.0
 20
0.0
 30
0.0
  3
*HATCH1040
  0
LINE
  5
    51
  8
0
  6
CONTINUOUS
 62
   210
 10
3.23699402809143
 20
81.6158676147461
 30
0.0
 11
6.8528938293457
 21
77.9999618530274
 31
0.0
  0
LINE
  5
    52
  8
0
  6
CONTINUOUS
 62
   210
 10
6.09554004669189
 20
82.9999618530274
 30
0.0
 11
11.095531463623
 21
77.9999618530274
 31
0.0
  0
LINE
  5
    53
  8
0
  6
CONTINUOUS
 62
   210
 10
10.3381776809692
 20
82.9999618530274
 30
0.0
 11
15.3381690979004
 21
77.9999618530274
 31
0.0
  0
LINE
  5
    54
  8
0
  6
CONTINUOUS
 62
   210
 10
14.5808153152466
 20
82.9999618530274
 30
0.0
 11
19.5808067321777
 21
77.9999618530274
 31
0.0
  0
LINE
  5
    55
  8
0
  6
CONTINUOUS
 62
   210
 10
18.8234539031982
 20
82.9999618530274
 30
0.0
 11
19.7282676696777
 21
82.0951461791992
 31
0.0
  0
ENDBLK
  5
    56
  8
0
  6
CONTINUOUS
 62
     7
  0
BLOCK
  5
    57
  8
0
  6
CONTINUOUS
 62
     7
  2
*HATCH1041
 70
    65
 10
0.0
 20
0.0
 30
0.0
  3
*HATCH1041
  0
LINE
  5
    58
  8
0
  6
CONTINUOUS
 62
     3
 10
17.0864696502686
 20
102.999938964844
 30
0.0
 11
15.2370948791504
 21
101.150566101074
 31
0.0
  0
LINE
  5
    59
  8
0
  6
CONTINUOUS
 62
     3
 10
18.1471290588379
 20
102.999938964844
 30
0.0
 11
14.2369937896729
 21
99.0898056030274
 31
0.0
  0
LINE
  5
    5A
  8
0
  6
CONTINUOUS
 62
     3
 10
18.2369937896729
 20
100.968482971191
 30
0.0
 11
14.2369937896729
 21
96.9684829711914
 31
0.0
  0
LINE
  5
    5B
  8
0
  6
CONTINUOUS
 62
     3
 10
18.2369937896729
 20
98.8471603393555
 30
0.0
 11
14.2369937896729
 21
94.8471603393555
 31
0.0
  0
LINE
  5
    5C
  8
0
  6
CONTINUOUS
 62
     3
 10
18.2369937896729
 20
96.7258377075195
 30
0.0
 11
14.2369937896729
 21
92.7258377075195
 31
0.0
  0
LINE
  5
    5D
  8
0
  6
CONTINUOUS
 62
     3
 10
18.2369937896729
 20
94.6045150756836
 30
0.0
 11
14.2369937896729
 21
90.6045150756836
 31
0.0
  0
LINE
  5
    5E
  8
0
  6
CONTINUOUS
 62
     3
 10
18.2369937896729
 20
92.4831924438477
 30
0.0
 11
14.2369937896729
 21
88.4831924438477
 31
0.0
  0
LINE
  5
    5F
  8
0
  6
CONTINUOUS
 62
     3
 10
18.2369937896729
 20
90.3618698120117
 30
0.0
 11
14.2369937896729
 21
86.3618698120117
 31
0.0
  0
LINE
  5
    60
  8
0
  6
CONTINUOUS
 62
     3
 10
18.2369937896729
 20
88.2405471801758
 30
0.0
 11
14.2369937896729
 21
84.2405471801758
 31
0.0
  0
LINE
  5
    61
  8
0
  6
CONTINUOUS
 62
     3
 10
18.2369937896729
 20
86.1192398071289
 30
0.0
 11
15.117714881897
 21
82.9999618530274
 31
0.0
  0
LINE
  5
    62
  8
0
  6
CONTINUOUS
 62
     3
 10
18.2369937896729
 20
83.997917175293
 30
0.0
 11
17.23903465271
 21
82.9999618530274
 31
0.0
  0
ENDBLK
  5
    63
  8
0
  6
CONTINUOUS
 62
     7
  0
BLOCK
  5
    64
  8
0
  6
CONTINUOUS
 62
     7
  2
*HATCH1042
 70
    65
 10
0.0
 20
0.0
 30
0.0
  3
*HATCH1042
  0
LINE
  5
    65
  8
0
  6
CONTINUOUS
 62
     3
 10
12.2390375137329
 20
77.9999618530274
 30
0.0
 11
10.2369937896729
 21
75.997917175293
 31
0.0
  0
LINE
  5
    66
  8
0
  6
CONTINUOUS
 62
     3
 10
14.2369937896729
 20
77.8766021728516
 30
0.0
 11
10.2369937896729
 21
73.8766021728516
 31
0.0
  0
LINE
  5
    67
  8
0
  6
CONTINUOUS
 62
     3
 10
14.2369937896729
 20
75.7552795410156
 30
0.0
 11
10.2369937896729
 21
71.7552795410156
 31
0.0
  0
LINE
  5
    68
  8
0
  6
CONTINUOUS
 62
     3
 10
14.2369937896729
 20
73.6339569091797
 30
0.0
 11
10.2369937896729
 21
69.6339569091797
 31
0.0
  0
LINE
  5
    69
  8
0
  6
CONTINUOUS
 62
     3
 10
14.2369937896729
 20
71.5126342773438
 30
0.0
 11
10.2369937896729
 21
67.5126342773438
 31
0.0
  0
LINE
  5
    6A
  8
0
  6
CONTINUOUS
 62
     3
 10
14.2369937896729
 20
69.3913116455078
 30
0.0
 11
10.2369937896729
 21
65.3913116455078
 31
0.0
  0
LINE
  5
    6B
  8
0
  6
CONTINUOUS
 62
     3
 10
14.2369937896729
 20
67.2699890136719
 30
0.0
 11
10.2369937896729
 21
63.2699890136719
 31
0.0
  0
LINE
  5
    6C
  8
0
  6
CONTINUOUS
 62
     3
 10
14.2369937896729
 20
65.148681640625
 30
0.0
 11
10.8553380966187
 21
61.7670249938965
 31
0.0
  0
LINE
  5
    6D
  8
0
  6
CONTINUOUS
 62
     3
 10
14.2369937896729
 20
63.0273590087891
 30
0.0
 11
13.7800302505493
 21
62.5703964233398
 31
0.0
  0
ENDBLK
  5
    6E
  8
0
  6
CONTINUOUS
 62
     7
  0
BLOCK
  5
    6F
  8
0
  6
CONTINUOUS
 62
     7
  2
*HATCH1043
 70
    65
 10
0.0
 20
0.0
 30
0.0
  3
*HATCH1043
  0
LINE
  5
    70
  8
0
  6
CONTINUOUS
 62
     3
 10
185.858123779297
 20
-4.00005149841309
 30
0.0
 11
184.480621337891
 21
-5.37755584716797
 31
0.0
  0
LINE
  5
    71
  8
0
  6
CONTINUOUS
 62
     3
 10
187.979446411133
 20
-4.00005149841309
 30
0.0
 11
185.979446411133
 21
-6.00005149841309
 31
0.0
  0
LINE
  5
    72
  8
0
  6
CONTINUOUS
 62
     3
 10
190.10075378418
 20
-4.00005149841309
 30
0.0
 11
188.10075378418
 21
-6.00005149841309
 31
0.0
  0
LINE
  5
    73
  8
0
  6
CONTINUOUS
 62
     3
 10
192.222061157227
 20
-4.00005149841309
 30
0.0
 11
190.222061157227
 21
-6.00005149841309
 31
0.0
  0
LINE
  5
    74
  8
0
  6
CONTINUOUS
 62
     3
 10
194.343368530273
 20
-4.00005149841309
 30
0.0
 11
192.343368530273
 21
-6.00005149841309
 31
0.0
  0
LINE
  5
    75
  8
0
  6
CONTINUOUS
 62
     3
 10
196.46467590332
 20
-4.00005149841309
 30
0.0
 11
194.46467590332
 21
-6.00005149841309
 31
0.0
  0
LINE
  5
    76
  8
0
  6
CONTINUOUS
 62
     3
 10
198.585983276367
 20
-4.00005149841309
 30
0.0
 11
196.585983276367
 21
-6.00005149841309
 31
0.0
  0
LINE
  5
    77
  8
0
  6
CONTINUOUS
 62
     3
 10
200.707290649414
 20
-4.00005149841309
 30
0.0
 11
198.707290649414
 21
-6.00005149841309
 31
0.0
  0
LINE
  5
    78
  8
0
  6
CONTINUOUS
 62
     3
 10
202.828598022461
 20
-4.00005149841309
 30
0.0
 11
200.828598022461
 21
-6.00005149841309
 31
0.0
  0
LINE
  5
    79
  8
0
  6
CONTINUOUS
 62
     3
 10
204.949905395508
 20
-4.00005149841309
 30
0.0
 11
202.949905395508
 21
-6.00005149841309
 31
0.0
  0
LINE
  5
    7A
  8
0
  6
CONTINUOUS
 62
     3
 10
207.071212768555
 20
-4.00005149841309
 30
0.0
 11
205.071212768555
 21
-6.00005149841309
 31
0.0
  0
LINE
  5
    7B
  8
0
  6
CONTINUOUS
 62
     3
 10
209.192520141602
 20
-4.00005149841309
 30
0.0
 11
207.192520141602
 21
-6.00005149841309
 31
0.0
  0
LINE
  5
    7C
  8
0
  6
CONTINUOUS
 62
     3
 10
211.313827514648
 20
-4.00005149841309
 30
0.0
 11
209.313827514648
 21
-6.00005149841309
 31
0.0
  0
LINE
  5
    7D
  8
0
  6
CONTINUOUS
 62
     3
 10
213.435134887695
 20
-4.00005149841309
 30
0.0
 11
211.435134887695
 21
-6.00005149841309
 31
0.0
  0
LINE
  5
    7E
  8
0
  6
CONTINUOUS
 62
     3
 10
215.556442260742
 20
-4.00005149841309
 30
0.0
 11
213.556442260742
 21
-6.00005149841309
 31
0.0
  0
LINE
  5
    7F
  8
0
  6
CONTINUOUS
 62
     3
 10
217.677749633789
 20
-4.00005149841309
 30
0.0
 11
215.677749633789
 21
-6.00005149841309
 31
0.0
  0
LINE
  5
    80
  8
0
  6
CONTINUOUS
 62
     3
 10
219.799057006836
 20
-4.00005149841309
 30
0.0
 11
217.799057006836
 21
-6.00005149841309
 31
0.0
  0
LINE
  5
    81
  8
0
  6
CONTINUOUS
 62
     3
 10
221.920364379883
 20
-4.00005149841309
 30
0.0
 11
219.920364379883
 21
-6.00005149841309
 31
0.0
  0
LINE
  5
    82
  8
0
  6
CONTINUOUS
 62
     3
 10
224.04167175293
 20
-4.00005149841309
 30
0.0
 11
222.04167175293
 21
-6.00005149841309
 31
0.0
  0
LINE
  5
    83
  8
0
  6
CONTINUOUS
 62
     3
 10
226.162979125977
 20
-4.00005149841309
 30
0.0
 11
224.162979125977
 21
-6.00005149841309
 31
0.0
  0
LINE
  5
    84
  8
0
  6
CONTINUOUS
 62
     3
 10
228.284286499023
 20
-4.00005149841309
 30
0.0
 11
226.284286499023
 21
-6.00005149841309
 31
0.0
  0
LINE
  5
    85
  8
0
  6
CONTINUOUS
 62
     3
 10
230.40559387207
 20
-4.00005149841309
 30
0.0
 11
228.40559387207
 21
-6.00005149841309
 31
0.0
  0
LINE
  5
    86
  8
0
  6
CONTINUOUS
 62
     3
 10
232.526901245117
 20
-4.00005149841309
 30
0.0
 11
230.526901245117
 21
-6.00005149841309
 31
0.0
  0
LINE
  5
    87
  8
0
  6
CONTINUOUS
 62
     3
 10
234.648208618164
 20
-4.00005149841309
 30
0.0
 11
232.648208618164
 21
-6.00005149841309
 31
0.0
  0
LINE
  5
    88
  8
0
  6
CONTINUOUS
 62
     3
 10
236.769515991211
 20
-4.00005149841309
 30
0.0
 11
234.769515991211
 21
-6.00005149841309
 31
0.0
  0
LINE
  5
    89
  8
0
  6
CONTINUOUS
 62
     3
 10
238.890823364258
 20
-4.00005149841309
 30
0.0
 11
236.890823364258
 21
-6.00005149841309
 31
0.0
  0
LINE
  5
    8A
  8
0
  6
CONTINUOUS
 62
     3
 10
241.012130737305
 20
-4.00005149841309
 30
0.0
 11
239.012130737305
 21
-6.00005149841309
 31
0.0
  0
LINE
  5
    8B
  8
0
  6
CONTINUOUS
 62
     3
 10
243.133438110352
 20
-4.00005149841309
 30
0.0
 11
241.133438110352
 21
-6.00005149841309
 31
0.0
  0
LINE
  5
    8C
  8
0
  6
CONTINUOUS
 62
     3
 10
245.254745483398
 20
-4.00005149841309
 30
0.0
 11
243.254745483398
 21
-6.00005149841309
 31
0.0
  0
LINE
  5
    8D
  8
0
  6
CONTINUOUS
 62
     3
 10
247.376052856445
 20
-4.00005149841309
 30
0.0
 11
245.376052856445
 21
-6.00005149841309
 31
0.0
  0
LINE
  5
    8E
  8
0
  6
CONTINUOUS
 62
     3
 10
248.910140991211
 20
-4.58765363693237
 30
0.0
 11
247.497741699219
 21
-6.00005149841309
 31
0.0
  0
LINE
  5
    8F
  8
0
  6
CONTINUOUS
 62
     3
 10
249.653274536133
 20
-5.96583604812622
 30
0.0
 11
249.619049072266
 21
-6.00005149841309
 31
0.0
  0
ENDBLK
  5
    90
  8
0
  6
CONTINUOUS
 62
     7
  0
BLOCK
  5
    91
  8
0
  6
CONTINUOUS
 62
     7
  2
*HATCH1044
 70
    65
 10
0.0
 20
0.0
 30
0.0
  3
*HATCH1044
  0
LINE
  5
    92
  8
0
  6
CONTINUOUS
 62
     3
 10
167.826889038086
 20
-4.00005149841309
 30
0.0
 11
165.980621337891
 21
-5.84633255004883
 31
0.0
  0
LINE
  5
    93
  8
0
  6
CONTINUOUS
 62
     3
 10
169.948211669922
 20
-4.00005149841309
 30
0.0
 11
167.948211669922
 21
-6.00005149841309
 31
0.0
  0
LINE
  5
    94
  8
0
  6
CONTINUOUS
 62
     3
 10
172.069519042969
 20
-4.00005149841309
 30
0.0
 11
170.069519042969
 21
-6.00005149841309
 31
0.0
  0
LINE
  5
    95
  8
0
  6
CONTINUOUS
 62
     3
 10
174.190826416016
 20
-4.00005149841309
 30
0.0
 11
172.190826416016
 21
-6.00005149841309
 31
0.0
  0
LINE
  5
    96
  8
0
  6
CONTINUOUS
 62
     3
 10
176.312133789062
 20
-4.00005149841309
 30
0.0
 11
174.312133789063
 21
-6.00005149841309
 31
0.0
  0
LINE
  5
    97
  8
0
  6
CONTINUOUS
 62
     3
 10
177.480621337891
 20
-4.95293474197388
 30
0.0
 11
176.433502197266
 21
-6.00005149841309
 31
0.0
  0
ENDBLK
  5
    98
  8
0
  6
CONTINUOUS
 62
     7
  0
BLOCK
  5
    99
  8
0
  6
CONTINUOUS
 62
     7
  2
*HATCH1045
 70
    65
 10
0.0
 20
0.0
 30
0.0
  3
*HATCH1045
  0
LINE
  5
    9A
  8
0
  6
CONTINUOUS
 62
     3
 10
43.7296600341797
 20
-4.00005149841309
 30
0.0
 11
42.4806251525879
 21
-5.24908351898193
 31
0.0
  0
LINE
  5
    9B
  8
0
  6
CONTINUOUS
 62
     3
 10
45.8509788513184
 20
-4.00005149841309
 30
0.0
 11
43.8509788513184
 21
-6.00005149841309
 31
0.0
  0
LINE
  5
    9C
  8
0
  6
CONTINUOUS
 62
     3
 10
47.9723014831543
 20
-4.00005149841309
 30
0.0
 11
45.9723014831543
 21
-6.00005149841309
 31
0.0
  0
LINE
  5
    9D
  8
0
  6
CONTINUOUS
 62
     3
 10
50.0936241149902
 20
-4.00005149841309
 30
0.0
 11
48.0936241149902
 21
-6.00005149841309
 31
0.0
  0
LINE
  5
    9E
  8
0
  6
CONTINUOUS
 62
     3
 10
52.2149467468262
 20
-4.00005149841309
 30
0.0
 11
50.2149467468262
 21
-6.00005149841309
 31
0.0
  0
LINE
  5
    9F
  8
0
  6
CONTINUOUS
 62
     3
 10
53.9806251525879
 20
-4.35568618774414
 30
0.0
 11
52.3362579345703
 21
-6.00005149841309
 31
0.0
  0
ENDBLK
  5
    A0
  8
0
  6
CONTINUOUS
 62
     7
  0
BLOCK
  5
    A1
  8
0
  6
CONTINUOUS
 62
     7
  2
*HATCH1046
 70
    65
 10
0.0
 20
0.0
 30
0.0
  3
*HATCH1046
  0
LINE
  5
    A2
  8
0
  6
CONTINUOUS
 62
     3
 10
-24.1525974273682
 20
-4.00005149841309
 30
0.0
 11
-25.3908443450928
 21
-5.23830080032349
 31
0.0
  0
LINE
  5
    A3
  8
0
  6
CONTINUOUS
 62
     3
 10
-22.0312747955322
 20
-4.00005149841309
 30
0.0
 11
-24.0312747955322
 21
-6.00005149841309
 31
0.0
  0
LINE
  5
    A4
  8
0
  6
CONTINUOUS
 62
     3
 10
-19.9099559783936
 20
-4.00005149841309
 30
0.0
 11
-21.9099559783936
 21
-6.00005149841309
 31
0.0
  0
LINE
  5
    A5
  8
0
  6
CONTINUOUS
 62
     3
 10
-17.7886371612549
 20
-4.00005149841309
 30
0.0
 11
-19.7886371612549
 21
-6.00005149841309
 31
0.0
  0
LINE
  5
    A6
  8
0
  6
CONTINUOUS
 62
     3
 10
-15.6673173904419
 20
-4.00005149841309
 30
0.0
 11
-17.6673183441162
 21
-6.00005149841309
 31
0.0
  0
LINE
  5
    A7
  8
0
  6
CONTINUOUS
 62
     3
 10
-13.5459966659546
 20
-4.00005149841309
 30
0.0
 11
-15.5459985733032
 21
-6.00005149841309
 31
0.0
  0
LINE
  5
    A8
  8
0
  6
CONTINUOUS
 62
     3
 10
-11.4246759414673
 20
-4.00005149841309
 30
0.0
 11
-13.4246778488159
 21
-6.00005149841309
 31
0.0
  0
LINE
  5
    A9
  8
0
  6
CONTINUOUS
 62
     3
 10
-9.30335521697998
 20
-4.00005149841309
 30
0.0
 11
-11.3033571243286
 21
-6.00005149841309
 31
0.0
  0
LINE
  5
    AA
  8
0
  6
CONTINUOUS
 62
     3
 10
-7.18203449249268
 20
-4.00005149841309
 30
0.0
 11
-9.18203639984131
 21
-6.00005149841309
 31
0.0
  0
LINE
  5
    AB
  8
0
  6
CONTINUOUS
 62
     3
 10
-5.06071376800537
 20
-4.00005149841309
 30
0.0
 11
-7.060715675354
 21
-6.00005149841309
 31
0.0
  0
LINE
  5
    AC
  8
0
  6
CONTINUOUS
 62
     3
 10
-2.93939328193665
 20
-4.00005149841309
 30
0.0
 11
-4.9393949508667
 21
-6.00005149841309
 31
0.0
  0
LINE
  5
    AD
  8
0
  6
CONTINUOUS
 62
     3
 10
-0.818073034286499
 20
-4.00005149841309
 30
0.0
 11
-2.81807422637939
 21
-6.00005149841309
 31
0.0
  0
LINE
  5
    AE
  8
0
  6
CONTINUOUS
 62
     3
 10
1.30324721336365
 20
-4.00005149841309
 30
0.0
 11
-0.696753740310669
 21
-6.00005149841309
 31
0.0
  0
LINE
  5
    AF
  8
0
  6
CONTINUOUS
 62
     3
 10
3.42456746101379
 20
-4.00005149841309
 30
0.0
 11
1.42456674575806
 21
-6.00005149841309
 31
0.0
  0
LINE
  5
    B0
  8
0
  6
CONTINUOUS
 62
     3
 10
5.54588794708252
 20
-4.00005149841309
 30
0.0
 11
3.54588747024536
 21
-6.00005149841309
 31
0.0
  0
LINE
  5
    B1
  8
0
  6
CONTINUOUS
 62
     3
 10
7.66720867156982
 20
-4.00005149841309
 30
0.0
 11
5.66720819473267
 21
-6.00005149841309
 31
0.0
  0
LINE
  5
    B2
  8
0
  6
CONTINUOUS
 62
     3
 10
9.78852939605713
 20
-4.00005149841309
 30
0.0
 11
7.78852891921997
 21
-6.00005149841309
 31
0.0
  0
LINE
  5
    B3
  8
0
  6
CONTINUOUS
 62
     3
 10
11.9098501205444
 20
-4.00005149841309
 30
0.0
 11
9.90984916687012
 21
-6.00005149841309
 31
0.0
  0
LINE
  5
    B4
  8
0
  6
CONTINUOUS
 62
     3
 10
14.0311708450317
 20
-4.00005149841309
 30
0.0
 11
12.0311698913574
 21
-6.00005149841309
 31
0.0
  0
LINE
  5
    B5
  8
0
  6
CONTINUOUS
 62
     3
 10
16.1524906158447
 20
-4.00005149841309
 30
0.0
 11
14.1524906158447
 21
-6.00005149841309
 31
0.0
  0
LINE
  5
    B6
  8
0
  6
CONTINUOUS
 62
     3
 10
18.2738094329834
 20
-4.00005149841309
 30
0.0
 11
16.273811340332
 21
-6.00005149841309
 31
0.0
  0
LINE
  5
    B7
  8
0
  6
CONTINUOUS
 62
     3
 10
20.3951282501221
 20
-4.00005149841309
 30
0.0
 11
18.3951301574707
 21
-6.00005149841309
 31
0.0
  0
LINE
  5
    B8
  8
0
  6
CONTINUOUS
 62
     3
 10
22.5164470672607
 20
-4.00005149841309
 30
0.0
 11
20.5164489746094
 21
-6.00005149841309
 31
0.0
  0
LINE
  5
    B9
  8
0
  6
CONTINUOUS
 62
     3
 10
24.6377658843994
 20
-4.00005149841309
 30
0.0
 11
22.637767791748
 21
-6.00005149841309
 31
0.0
  0
LINE
  5
    BA
  8
0
  6
CONTINUOUS
 62
     3
 10
26.7590847015381
 20
-4.00005149841309
 30
0.0
 11
24.7590866088867
 21
-6.00005149841309
 31
0.0
  0
LINE
  5
    BB
  8
0
  6
CONTINUOUS
 62
     3
 10
28.8804035186768
 20
-4.00005149841309
 30
0.0
 11
26.8804054260254
 21
-6.00005149841309
 31
0.0
  0
LINE
  5
    BC
  8
0
  6
CONTINUOUS
 62
     3
 10
31.0017223358154
 20
-4.00005149841309
 30
0.0
 11
29.0017242431641
 21
-6.00005149841309
 31
0.0
  0
LINE
  5
    BD
  8
0
  6
CONTINUOUS
 62
     3
 10
33.1230430603027
 20
-4.00005149841309
 30
0.0
 11
31.1230430603027
 21
-6.00005149841309
 31
0.0
  0
LINE
  5
    BE
  8
0
  6
CONTINUOUS
 62
     3
 10
35.2443656921387
 20
-4.00005149841309
 30
0.0
 11
33.2443656921387
 21
-6.00005149841309
 31
0.0
  0
LINE
  5
    BF
  8
0
  6
CONTINUOUS
 62
     3
 10
35.4806251525879
 20
-5.88512229919434
 30
0.0
 11
35.3656959533691
 21
-6.00005149841309
 31
0.0
  0
ENDBLK
  5
    C0
  8
0
  6
CONTINUOUS
 62
     7
  0
BLOCK
  5
    C1
  8
0
  6
CONTINUOUS
 62
     7
  2
146558
 70
    64
 10
0.0
 20
0.0
 30
0.0
  3
146558
  0
LINE
  5
    C2
  8
0
  6
CONTINUOUS
 62
     2
 10
-52.099964209298
 20
223.237096448575
 30
0.0
 11
-35.099964209298
 21
223.237096448575
 31
0.0
  0
LINE
  5
    C3
  8
0
  6
CONTINUOUS
 62
     2
 10
-52.099964209298
 20
211.237096448575
 30
0.0
 11
-35.099964209298
 21
211.237096448575
 31
0.0
  0
LINE
  5
    C4
  8
0
  6
CONTINUOUS
 62
     2
 10
-53.099964209298
 20
212.237096448575
 30
0.0
 11
-53.099964209298
 21
222.237096448575
 31
0.0
  0
LINE
  5
    C5
  8
0
  6
DOT
 62
     2
 10
-57.099964209298
 20
214.237096448575
 30
0.0
 11
-57.099964209298
 21
220.237096448575
 31
0.0
  0
LINE
  5
    C6
  8
0
  6
CONTINUOUS
 62
     2
 10
-34.099964209298
 20
212.237096448575
 30
0.0
 11
-34.099964209298
 21
222.237096448575
 31
0.0
  0
LINE
  5
    C7
  8
0
  6
DOT
 62
     2
 10
-57.099964209298
 20
220.237096448575
 30
0.0
 11
-53.099964209298
 21
220.237096448575
 31
0.0
  0
LINE
  5
    C8
  8
0
  6
DOT
 62
     2
 10
-57.099964209298
 20
214.237096448575
 30
0.0
 11
-53.099964209298
 21
214.237096448575
 31
0.0
  0
LINE
  5
    C9
  8
0
  6
CONTINUOUS
 62
     2
 10
-53.099964209298
 20
222.237096448575
 30
0.0
 11
-52.099964209298
 21
223.237096448575
 31
0.0
  0
LINE
  5
    CA
  8
0
  6
CONTINUOUS
 62
     2
 10
-53.099964209298
 20
212.237096448575
 30
0.0
 11
-52.099964209298
 21
211.237096448575
 31
0.0
  0
LINE
  5
    CB
  8
0
  6
CONTINUOUS
 62
     2
 10
-35.099964209298
 20
223.237096448575
 30
0.0
 11
-34.099964209298
 21
222.237096448575
 31
0.0
  0
LINE
  5
    CC
  8
0
  6
CONTINUOUS
 62
     2
 10
-35.099964209298
 20
211.237096448575
 30
0.0
 11
-34.099964209298
 21
212.237096448575
 31
0.0
  0
LINE
  5
    CD
  8
0
  6
CONTINUOUS
 62
     2
 10
-53.099964209298
 20
222.237096448575
 30
0.0
 11
-34.099964209298
 21
222.237096448575
 31
0.0
  0
LINE
  5
    CE
  8
0
  6
CONTINUOUS
 62
     2
 10
-53.099964209298
 20
212.237096448575
 30
0.0
 11
-34.099964209298
 21
212.237096448575
 31
0.0
  0
LINE
  5
    CF
  8
0
  6
CONTINUOUS
 62
     2
 10
-52.099964209298
 20
211.237096448575
 30
0.0
 11
-52.099964209298
 21
223.237096448575
 31
0.0
  0
LINE
  5
    D0
  8
0
  6
CONTINUOUS
 62
     2
 10
-35.099964209298
 20
211.237096448575
 30
0.0
 11
-35.099964209298
 21
223.237096448575
 31
0.0
  0
LINE
  5
    D1
  8
0
  6
CONTINUOUS
 62
    98
 10
-53.099964209298
 20
212.737096448575
 30
0.0
 11
-53.099964209298
 21
221.737096448575
 31
0.0
  0
LINE
  5
    D2
  8
0
  6
CONTINUOUS
 62
    98
 10
-58.099964209298
 20
208.737096448575
 30
0.0
 11
-58.099964209298
 21
225.737096448575
 31
0.0
  0
LINE
  5
    D3
  8
0
  6
CONTINUOUS
 62
    98
 10
-58.099964209298
 20
225.737096448575
 30
0.0
 11
-55.1884296840102
 21
225.737096448575
 31
0.0
  0
LINE
  5
    D4
  8
0
  6
CONTINUOUS
 62
    98
 10
-58.099964209298
 20
208.737096448575
 30
0.0
 11
-55.1884296840102
 21
208.737096448575
 31
0.0
  0
LINE
  5
    D5
  8
0
  6
CONTINUOUS
 62
    98
 10
-55.599964209298
 20
208.737096448575
 30
0.0
 11
-55.599964209298
 21
225.737096448575
 31
0.0
  0
LINE
  5
    D6
  8
0
  6
CONTINUOUS
 62
    98
 10
-55.1884296840102
 20
208.737096448575
 30
0.0
 11
-55.1884296840102
 21
210.237096448577
 31
0.0
  0
LINE
  5
    D7
  8
0
  6
CONTINUOUS
 62
    98
 10
-55.1884296840102
 20
221.737096448575
 30
0.0
 11
-53.099964209298
 21
221.737096448575
 31
0.0
  0
LINE
  5
    D8
  8
0
  6
CONTINUOUS
 62
    98
 10
-55.1884296840102
 20
212.737096448575
 30
0.0
 11
-53.099964209298
 21
212.737096448575
 31
0.0
  0
ARC
  5
    D9
  8
0
  6
CONTINUOUS
 62
    98
 10
-30.7911578871332
 20
217.237096448575
 30
0.0
 40
24.8088063221649
 50
169.549429087188
 51
190.450570912812
  0
LINE
  5
    DA
  8
0
  6
CONTINUOUS
 62
    98
 10
-55.1884296840102
 20
221.737096448576
 30
0.0
 11
-55.1884296840102
 21
222.237096448581
 31
0.0
  0
ARC
  5
    DB
  8
0
  6
CONTINUOUS
 62
    98
 10
-54.4384296840195
 20
211.237096448576
 30
0.0
 40
1.24999999999367
 50
126.869897645536
 51
158.314733460268
  0
ARC
  5
    DC
  8
0
  6
CONTINUOUS
 62
    98
 10
-54.4384296840122
 20
223.237096448576
 30
0.0
 40
1.24999999999803
 50
126.869897645902
 51
158.314733460726
  0
ARC
  5
    DD
  8
0
  6
CONTINUOUS
 62
    98
 10
-54.4384296840122
 20
223.237096448576
 30
0.0
 40
1.24999999999803
 50
201.685266539274
 51
233.130102354098
  0
ARC
  5
    DE
  8
0
  6
CONTINUOUS
 62
    98
 10
-54.4384296840195
 20
211.237096448576
 30
0.0
 40
1.24999999999367
 50
201.685266539732
 51
233.130102354464
  0
LINE
  5
    DF
  8
0
  6
CONTINUOUS
 62
    98
 10
-55.1884296840102
 20
224.237096448572
 30
0.0
 11
-55.1884296840102
 21
225.737096448575
 31
0.0
  0
LINE
  5
    E0
  8
0
  6
CONTINUOUS
 62
    98
 10
-55.1884296840102
 20
212.237096448575
 30
0.0
 11
-55.1884296840102
 21
212.737096448575
 31
0.0
  0
ENDBLK
  5
    E1
  8
0
  6
CONTINUOUS
 62
     7
  0
BLOCK
  5
    E2
  8
0
  6
CONTINUOUS
 62
    98
  2
*HATCH1047
 70
    65
 10
0.0
 20
0.0
 30
0.0
  3
*HATCH1047
  0
LINE
  5
    E3
  8
0
  6
CONTINUOUS
 62
     3
 10
-46.4132194519043
 20
227.237091064453
 30
0.0
 11
-46.4999656677246
 21
227.150360107422
 31
0.0
  0
LINE
  5
    E4
  8
0
  6
CONTINUOUS
 62
     3
 10
-45.3525581359863
 20
227.237091064453
 30
0.0
 11
-46.4999656677246
 21
226.089706420898
 31
0.0
  0
LINE
  5
    E5
  8
0
  6
CONTINUOUS
 62
     3
 10
-44.2918968200684
 20
227.237091064453
 30
0.0
 11
-46.4999656677246
 21
225.029052734375
 31
0.0
  0
LINE
  5
    E6
  8
0
  6
CONTINUOUS
 62
     3
 10
-43.2312355041504
 20
227.237091064453
 30
0.0
 11
-46.4999656677246
 21
223.968399047852
 31
0.0
  0
LINE
  5
    E7
  8
0
  6
CONTINUOUS
 62
     3
 10
-42.4999656677246
 20
226.90771484375
 30
0.0
 11
-46.170581817627
 21
223.237091064453
 31
0.0
  0
LINE
  5
    E8
  8
0
  6
CONTINUOUS
 62
     3
 10
-42.4999656677246
 20
225.847061157227
 30
0.0
 11
-45.109920501709
 21
223.237091064453
 31
0.0
  0
LINE
  5
    E9
  8
0
  6
CONTINUOUS
 62
     3
 10
-42.4999656677246
 20
224.786407470703
 30
0.0
 11
-44.049259185791
 21
223.237091064453
 31
0.0
  0
LINE
  5
    EA
  8
0
  6
CONTINUOUS
 62
     3
 10
-42.4999656677246
 20
223.72575378418
 30
0.0
 11
-42.988597869873
 21
223.237091064453
 31
0.0
  0
ENDBLK
  5
    EB
  8
0
  6
CONTINUOUS
 62
    98
  0
BLOCK
  5
    EC
  8
0
  6
CONTINUOUS
 62
    98
  2
*HATCH1048
 70
    65
 10
0.0
 20
0.0
 30
0.0
  3
*HATCH1048
  0
LINE
  5
    ED
  8
0
  6
CONTINUOUS
 62
     3
 10
-45.4426574707031
 20
211.237091064453
 30
0.0
 11
-46.4999656677246
 21
210.179794311523
 31
0.0
  0
LINE
  5
    EE
  8
0
  6
CONTINUOUS
 62
     3
 10
-44.3819961547852
 20
211.237091064453
 30
0.0
 11
-46.4999656677246
 21
209.119140625
 31
0.0
  0
LINE
  5
    EF
  8
0
  6
CONTINUOUS
 62
     3
 10
-43.3213348388672
 20
211.237091064453
 30
0.0
 11
-46.4999656677246
 21
208.058486938477
 31
0.0
  0
LINE
  5
    F0
  8
0
  6
CONTINUOUS
 62
     3
 10
-42.4999656677246
 20
210.997817993164
 30
0.0
 11
-46.2606773376465
 21
207.237091064453
 31
0.0
  0
LINE
  5
    F1
  8
0
  6
CONTINUOUS
 62
     3
 10
-42.4999656677246
 20
209.937164306641
 30
0.0
 11
-45.2000160217285
 21
207.237091064453
 31
0.0
  0
LINE
  5
    F2
  8
0
  6
CONTINUOUS
 62
     3
 10
-42.4999656677246
 20
208.876510620117
 30
0.0
 11
-44.1393547058105
 21
207.237091064453
 31
0.0
  0
LINE
  5
    F3
  8
0
  6
CONTINUOUS
 62
     3
 10
-42.4999656677246
 20
207.815856933594
 30
0.0
 11
-43.0786933898926
 21
207.237091064453
 31
0.0
  0
ENDBLK
  5
    F4
  8
0
  6
CONTINUOUS
 62
    98
  0
BLOCK
  5
    F5
  8
0
  6
CONTINUOUS
 62
    98
  2
*HATCH1049
 70
    65
 10
0.0
 20
0.0
 30
0.0
  3
*HATCH1049
  0
LINE
  5
    F6
  8
0
  6
CONTINUOUS
 62
     3
 10
-77.1723709106445
 20
227.237091064453
 30
0.0
 11
-77.9999618530274
 21
226.40950012207
 31
0.0
  0
LINE
  5
    F7
  8
0
  6
CONTINUOUS
 62
     3
 10
-76.1117095947266
 20
227.237091064453
 30
0.0
 11
-77.9999618530274
 21
225.348846435547
 31
0.0
  0
LINE
  5
    F8
  8
0
  6
CONTINUOUS
 62
     3
 10
-75.4999618530274
 20
226.788177490234
 30
0.0
 11
-77.9999618530274
 21
224.288177490234
 31
0.0
  0
LINE
  5
    F9
  8
0
  6
CONTINUOUS
 62
     3
 10
-75.4999618530274
 20
225.727523803711
 30
0.0
 11
-77.9999618530274
 21
223.227523803711
 31
0.0
  0
LINE
  5
    FA
  8
0
  6
CONTINUOUS
 62
     3
 10
-75.4999618530274
 20
224.666870117188
 30
0.0
 11
-77.9999618530274
 21
222.166870117187
 31
0.0
  0
LINE
  5
    FB
  8
0
  6
CONTINUOUS
 62
     3
 10
-75.4999618530274
 20
223.606201171875
 30
0.0
 11
-77.9775619506836
 21
221.128601074219
 31
0.0
  0
LINE
  5
    FC
  8
0
  6
CONTINUOUS
 62
     3
 10
-75.4999618530274
 20
222.545547485352
 30
0.0
 11
-77.7388229370117
 21
220.306686401367
 31
0.0
  0
LINE
  5
    FD
  8
0
  6
CONTINUOUS
 62
     3
 10
-75.4999618530274
 20
221.484878540039
 30
0.0
 11
-77.2433700561523
 21
219.741470336914
 31
0.0
  0
LINE
  5
    FE
  8
0
  6
CONTINUOUS
 62
     3
 10
-74.7982330322266
 20
221.125946044922
 30
0.0
 11
-76.5722961425781
 21
219.35188293457
 31
0.0
  0
LINE
  5
    FF
  8
0
  6
CONTINUOUS
 62
     3
 10
-73.9712905883789
 20
220.892227172852
 30
0.0
 11
-75.6322555541992
 21
219.231262207031
 31
0.0
  0
LINE
  5
   100
  8
0
  6
CONTINUOUS
 62
     3
 10
-73.2686462402344
 20
220.534210205078
 30
0.0
 11
-74.7601089477539
 21
219.042755126953
 31
0.0
  0
LINE
  5
   101
  8
0
  6
CONTINUOUS
 62
     3
 10
-72.7089309692383
 20
220.033264160156
 30
0.0
 11
-74.1236267089844
 21
218.618576049805
 31
0.0
  0
LINE
  5
   102
  8
0
  6
CONTINUOUS
 62
     3
 10
-72.2063140869141
 20
219.475219726562
 30
0.0
 11
-73.6947784423828
 21
217.986770629883
 31
0.0
  0
LINE
  5
   103
  8
0
  6
CONTINUOUS
 62
     3
 10
-76.5567779541016
 20
215.124771118164
 30
0.0
 11
-77.8308486938477
 21
213.850692749023
 31
0.0
  0
LINE
  5
   104
  8
0
  6
CONTINUOUS
 62
     3
 10
-71.8482971191406
 20
218.772583007813
 30
0.0
 11
-73.5564498901367
 21
217.064437866211
 31
0.0
  0
LINE
  5
   105
  8
0
  6
CONTINUOUS
 62
     3
 10
-75.3259506225586
 20
215.294921875
 30
0.0
 11
-77.9999618530274
 21
212.620910644531
 31
0.0
  0
LINE
  5
   106
  8
0
  6
CONTINUOUS
 62
     3
 10
-71.6125106811523
 20
217.947708129883
 30
0.0
 11
-77.9999618530274
 21
211.560256958008
 31
0.0
  0
LINE
  5
   107
  8
0
  6
CONTINUOUS
 62
     3
 10
-71.5446624755859
 20
216.954895019531
 30
0.0
 11
-75.2177734375
 21
213.281784057617
 31
0.0
  0
LINE
  5
   108
  8
0
  6
CONTINUOUS
 62
     3
 10
-75.4999618530274
 20
212.999603271484
 30
0.0
 11
-77.9999618530274
 21
210.499603271484
 31
0.0
  0
LINE
  5
   109
  8
0
  6
CONTINUOUS
 62
     3
 10
-71.963623046875
 20
215.475280761719
 30
0.0
 11
-73.738151550293
 21
213.700744628906
 31
0.0
  0
LINE
  5
   10A
  8
0
  6
CONTINUOUS
 62
     3
 10
-75.4999618530274
 20
211.938934326172
 30
0.0
 11
-77.9999618530274
 21
209.438934326172
 31
0.0
  0
LINE
  5
   10B
  8
0
  6
CONTINUOUS
 62
     3
 10
-75.4999618530274
 20
210.878280639648
 30
0.0
 11
-77.9999618530274
 21
208.378280639648
 31
0.0
  0
LINE
  5
   10C
  8
0
  6
CONTINUOUS
 62
     3
 10
-75.4999618530274
 20
209.817626953125
 30
0.0
 11
-77.9999618530274
 21
207.317626953125
 31
0.0
  0
LINE
  5
   10D
  8
0
  6
CONTINUOUS
 62
     3
 10
-75.4999618530274
 20
208.756958007813
 30
0.0
 11
-77.0198211669922
 21
207.237091064453
 31
0.0
  0
LINE
  5
   10E
  8
0
  6
CONTINUOUS
 62
     3
 10
-75.4999618530274
 20
207.696304321289
 30
0.0
 11
-75.9591598510742
 21
207.237091064453
 31
0.0
  0
ENDBLK
  5
   10F
  8
0
  6
CONTINUOUS
 62
    98
  0
BLOCK
  5
   110
  8
0
  6
CONTINUOUS
 62
   218
  2
*HATCH1050
 70
    65
 10
0.0
 20
0.0
 30
0.0
  3
*HATCH1050
  0
LINE
  5
   111
  8
0
  6
CONTINUOUS
 62
     3
 10
-70.4023208618164
 20
252.038360595703
 30
0.0
 11
-72.2455978393555
 21
250.195083618164
 31
0.0
  0
LINE
  5
   112
  8
0
  6
CONTINUOUS
 62
     3
 10
-69.0759735107422
 20
252.304061889648
 30
0.0
 11
-71.8744277954102
 21
249.505599975586
 31
0.0
  0
LINE
  5
   113
  8
0
  6
CONTINUOUS
 62
     3
 10
-68.0004959106445
 20
252.318878173828
 30
0.0
 11
-71.2877426147461
 21
249.031631469727
 31
0.0
  0
LINE
  5
   114
  8
0
  6
CONTINUOUS
 62
     3
 10
-67.0423049926758
 20
252.216400146484
 30
0.0
 11
-70.5405578613281
 21
248.718139648438
 31
0.0
  0
LINE
  5
   115
  8
0
  6
CONTINUOUS
 62
     3
 10
-66.1708908081055
 20
252.027160644531
 30
0.0
 11
-69.6915588378906
 21
248.506484985352
 31
0.0
  0
LINE
  5
   116
  8
0
  6
CONTINUOUS
 62
     3
 10
-65.423713684082
 20
251.713668823242
 30
0.0
 11
-68.7577438354492
 21
248.379638671875
 31
0.0
  0
LINE
  5
   117
  8
0
  6
CONTINUOUS
 62
     3
 10
-64.8103408813477
 20
251.266387939453
 30
0.0
 11
-67.6970825195313
 21
248.379638671875
 31
0.0
  0
LINE
  5
   118
  8
0
  6
CONTINUOUS
 62
     3
 10
-64.3956069946289
 20
250.620452880859
 30
0.0
 11
-66.4208602905273
 21
248.595199584961
 31
0.0
  0
ENDBLK
  5
   119
  8
0
  6
CONTINUOUS
 62
   218
  0
BLOCK
  5
   11A
  8
0
  6
CONTINUOUS
 62
     7
  2
CAVO
 70
    64
 10
0.0
 20
0.0
 30
0.0
  3
CAVO
  0
LINE
  5
   11B
  8
0
  6
CONTINUOUS
 62
   218
 10
-58.099964209298
 20
208.737096448575
 30
0.0
 11
-58.099964209298
 21
231.737096448575
 31
0.0
  0
LINE
  5
   11C
  8
0
  6
CONTINUOUS
 62
   218
 10
-70.499964209298
 20
208.737096448575
 30
0.0
 11
-70.499964209298
 21
231.737096448575
 31
0.0
  0
LINE
  5
   11D
  8
0
  6
CONTINUOUS
 62
   218
 10
-70.499964209298
 20
208.737096448575
 30
0.0
 11
-58.099964209298
 21
208.737096448575
 31
0.0
  0
LINE
  5
   11E
  8
0
  6
CONTINUOUS
 62
   218
 10
-72.299964209298
 20
231.737096448575
 30
0.0
 11
-56.299964209298
 21
231.737096448575
 31
0.0
  0
LINE
  5
   11F
  8
0
  6
DASHDOT
 62
   218
 10
-64.299964209298
 20
203.675830579354
 30
0.0
 11
-64.299964209298
 21
252.349255591
 31
0.0
  0
LINE
  5
   120
  8
0
  6
CONTINUOUS
 62
   218
 10
-72.299964209298
 20
231.737096448575
 30
0.0
 11
-72.299964209298
 21
250.349255591
 31
0.0
  0
LINE
  5
   121
  8
0
  6
CONTINUOUS
 62
   218
 10
-56.299964209298
 20
231.737096448575
 30
0.0
 11
-56.299964209298
 21
250.349255591
 31
0.0
  0
LINE
  5
   122
  8
0
  6
CONTINUOUS
 62
   218
 10
-64.299964209298
 20
208.737096448575
 30
0.0
 11
-60.2444436530033
 21
231.737096448575
 31
0.0
  0
POLYLINE
  5
   123
  8
0
  6
CONTINUOUS
 62
   218
 66
     1
 10
0.0
 20
0.0
 30
0.0
 70
     1
  0
VERTEX
  5
   124
  8
0
  6
CONTINUOUS
 10
-72.299964209298
 20
250.34925559099
 30
0.0
 40
0.0
 41
0.0
  0
VERTEX
  5
   125
  8
0
  6
CONTINUOUS
 10
-72.2987594840827
 20
250.300173133944
 30
0.0
 40
0.0
 41
0.0
  0
VERTEX
  5
   126
  8
0
  6
CONTINUOUS
 10
-72.2951460341185
 20
250.251120242335
 30
0.0
 40
0.0
 41
0.0
  0
VERTEX
  5
   127
  8
0
  6
CONTINUOUS
 10
-72.2891260360124
 20
250.20212646379
 30
0.0
 40
0.0
 41
0.0
  0
VERTEX
  5
   128
  8
0
  6
CONTINUOUS
 10
-72.2807031159863
 20
250.153221310331
 30
0.0
 40
0.0
 41
0.0
  0
VERTEX
  5
   129
  8
0
  6
CONTINUOUS
 10
-72.2698823476922
 20
250.104434240591
 30
0.0
 40
0.0
 41
0.0
  0
VERTEX
  5
   12A
  8
0
  6
CONTINUOUS
 10
-72.2566702491564
 20
250.055794642079
 30
0.0
 40
0.0
 41
0.0
  0
VERTEX
  5
   12B
  8
0
  6
CONTINUOUS
 10
-72.2410747788529
 20
250.007331813469
 30
0.0
 40
0.0
 41
0.0
  0
VERTEX
  5
   12C
  8
0
  6
CONTINUOUS
 10
-72.22310533091
 20
249.959074946958
 30
0.0
 40
0.0
 41
0.0
  0
VERTEX
  5
   12D
  8
0
  6
CONTINUOUS
 10
-72.202772729451
 20
249.911053110676
 30
0.0
 40
0.0
 41
0.0
  0
VERTEX
  5
   12E
  8
0
  6
CONTINUOUS
 10
-72.180089222075
 20
249.863295231183
 30
0.0
 40
0.0
 41
0.0
  0
VERTEX
  5
   12F
  8
0
  6
CONTINUOUS
 10
-72.1550684724784
 20
249.81583007604
 30
0.0
 40
0.0
 41
0.0
  0
VERTEX
  5
   130
  8
0
  6
CONTINUOUS
 10
-72.1277255522254
 20
249.768686236481
 30
0.0
 40
0.0
 41
0.0
  0
VERTEX
  5
   131
  8
0
  6
CONTINUOUS
 10
-72.0980769316686
 20
249.721892110192
 30
0.0
 40
0.0
 41
0.0
  0
VERTEX
  5
   132
  8
0
  6
CONTINUOUS
 10
-72.0661404700284
 20
249.675475884206
 30
0.0
 40
0.0
 41
0.0
  0
VERTEX
  5
   133
  8
0
  6
CONTINUOUS
 10
-72.0319354046352
 20
249.62946551792
 30
0.0
 40
0.0
 41
0.0
  0
VERTEX
  5
   134
  8
0
  6
CONTINUOUS
 10
-71.9954823393412
 20
249.58388872626
 30
0.0
 40
0.0
 41
0.0
  0
VERTEX
  5
   135
  8
0
  6
CONTINUOUS
 10
-71.9159213817896
 20
249.49414540413
 30
0.0
 40
0.0
 41
0.0
  0
VERTEX
  5
   136
  8
0
  6
CONTINUOUS
 10
-71.8276492666891
 20
249.406462117339
 30
0.0
 40
0.0
 41
0.0
  0
VERTEX
  5
   137
  8
0
  6
CONTINUOUS
 10
-71.7308786492965
 20
249.321050102605
 30
0.0
 40
0.0
 41
0.0
  0
VERTEX
  5
   138
  8
0
  6
CONTINUOUS
 10
-71.6258426585054
 20
249.238115124952
 30
0.0
 40
0.0
 41
0.0
  0
VERTEX
  5
   139
  8
0
  6
CONTINUOUS
 10
-71.5127943352176
 20
249.157856982007
 30
0.0
 40
0.0
 41
0.0
  0
VERTEX
  5
   13A
  8
0
  6
CONTINUOUS
 10
-71.3920060227458
 20
249.080469022665
 30
0.0
 40
0.0
 41
0.0
  0
VERTEX
  5
   13B
  8
0
  6
CONTINUOUS
 10
-71.2637687107145
 20
249.006137681298
 30
0.0
 40
0.0
 41
0.0
  0
VERTEX
  5
   13C
  8
0
  6
CONTINUOUS
 10
-71.1283913340406
 20
248.93504202862
 30
0.0
 40
0.0
 41
0.0
  0
VERTEX
  5
   13D
  8
0
  6
CONTINUOUS
 10
-70.9862000286824
 20
248.867353340283
 30
0.0
 40
0.0
 41
0.0
  0
VERTEX
  5
   13E
  8
0
  6
CONTINUOUS
 10
-70.8375373459487
 20
248.803234684268
 30
0.0
 40
0.0
 41
0.0
  0
VERTEX
  5
   13F
  8
0
  6
CONTINUOUS
 10
-70.6827614272637
 20
248.742840528032
 30
0.0
 40
0.0
 41
0.0
  0
VERTEX
  5
   140
  8
0
  6
CONTINUOUS
 10
-70.5222451413722
 20
248.686316366389
 30
0.0
 40
0.0
 41
0.0
  0
VERTEX
  5
   141
  8
0
  6
CONTINUOUS
 10
-70.3563751860666
 20
248.633798370994
 30
0.0
 40
0.0
 41
0.0
  0
VERTEX
  5
   142
  8
0
  6
CONTINUOUS
 10
-70.1855511565976
 20
248.585413062298
 30
0.0
 40
0.0
 41
0.0
  0
VERTEX
  5
   143
  8
0
  6
CONTINUOUS
 10
-70.0101845830146
 20
248.541277004749
 30
0.0
 40
0.0
 41
0.0
  0
VERTEX
  5
   144
  8
0
  6
CONTINUOUS
 10
-69.8306979387537
 20
248.501496525973
 30
0.0
 40
0.0
 41
0.0
  0
VERTEX
  5
   145
  8
0
  6
CONTINUOUS
 10
-69.6475236228622
 20
248.46616746063
 30
0.0
 40
0.0
 41
0.0
  0
VERTEX
  5
   146
  8
0
  6
CONTINUOUS
 10
-69.4611029183111
 20
248.435374919532
 30
0.0
 40
0.0
 41
0.0
  0
VERTEX
  5
   147
  8
0
  6
CONTINUOUS
 10
-69.2718849289062
 20
248.409193084608
 30
0.0
 40
0.0
 41
0.0
  0
VERTEX
  5
   148
  8
0
  6
CONTINUOUS
 10
-69.0803254973576
 20
248.387685030191
 30
0.0
 40
0.0
 41
0.0
  0
VERTEX
  5
   149
  8
0
  6
CONTINUOUS
 10
-68.8868861071145
 20
248.370902571069
 30
0.0
 40
0.0
 41
0.0
  0
VERTEX
  5
   14A
  8
0
  6
CONTINUOUS
 10
-68.6920327706112
 20
248.358886137654
 30
0.0
 40
0.0
 41
0.0
  0
VERTEX
  5
   14B
  8
0
  6
CONTINUOUS
 10
-68.4962349066027
 20
248.351664678589
 30
0.0
 40
0.0
 41
0.0
  0
VERTEX
  5
   14C
  8
0
  6
CONTINUOUS
 10
-68.299964209293
 20
248.349255591
 30
0.0
 40
0.0
 41
0.0
  0
VERTEX
  5
   14D
  8
0
  6
CONTINUOUS
 10
-68.1036935119833
 20
248.35166467859
 30
0.0
 40
0.0
 41
0.0
  0
VERTEX
  5
   14E
  8
0
  6
CONTINUOUS
 10
-67.9078956479748
 20
248.358886137656
 30
0.0
 40
0.0
 41
0.0
  0
VERTEX
  5
   14F
  8
0
  6
CONTINUOUS
 10
-67.7130423114716
 20
248.370902571072
 30
0.0
 40
0.0
 41
0.0
  0
VERTEX
  5
   150
  8
0
  6
CONTINUOUS
 10
-67.5196029212286
 20
248.387685030195
 30
0.0
 40
0.0
 41
0.0
  0
VERTEX
  5
   151
  8
0
  6
CONTINUOUS
 10
-67.3280434896801
 20
248.409193084613
 30
0.0
 40
0.0
 41
0.0
  0
VERTEX
  5
   152
  8
0
  6
CONTINUOUS
 10
-67.1388255002754
 20
248.435374919538
 30
0.0
 40
0.0
 41
0.0
  0
VERTEX
  5
   153
  8
0
  6
CONTINUOUS
 10
-66.9524047957244
 20
248.466167460637
 30
0.0
 40
0.0
 41
0.0
  0
VERTEX
  5
   154
  8
0
  6
CONTINUOUS
 10
-66.769230479833
 20
248.501496525981
 30
0.0
 40
0.0
 41
0.0
  0
VERTEX
  5
   155
  8
0
  6
CONTINUOUS
 10
-66.5897438355723
 20
248.541277004757
 30
0.0
 40
0.0
 41
0.0
  0
VERTEX
  5
   156
  8
0
  6
CONTINUOUS
 10
-66.4143772619896
 20
248.585413062308
 30
0.0
 40
0.0
 41
0.0
  0
VERTEX
  5
   157
  8
0
  6
CONTINUOUS
 10
-66.2435532325208
 20
248.633798371004
 30
0.0
 40
0.0
 41
0.0
  0
VERTEX
  5
   158
  8
0
  6
CONTINUOUS
 10
-66.0776832772154
 20
248.6863163664
 30
0.0
 40
0.0
 41
0.0
  0
VERTEX
  5
   159
  8
0
  6
CONTINUOUS
 10
-65.9171669913242
 20
248.742840528044
 30
0.0
 40
0.0
 41
0.0
  0
VERTEX
  5
   15A
  8
0
  6
CONTINUOUS
 10
-65.7623910726396
 20
248.803234684281
 30
0.0
 40
0.0
 41
0.0
  0
VERTEX
  5
   15B
  8
0
  6
CONTINUOUS
 10
-65.6137283899062
 20
248.867353340297
 30
0.0
 40
0.0
 41
0.0
  0
VERTEX
  5
   15C
  8
0
  6
CONTINUOUS
 10
-65.4715370845483
 20
248.935042028634
 30
0.0
 40
0.0
 41
0.0
  0
VERTEX
  5
   15D
  8
0
  6
CONTINUOUS
 10
-65.3361597078748
 20
249.006137681313
 30
0.0
 40
0.0
 41
0.0
  0
VERTEX
  5
   15E
  8
0
  6
CONTINUOUS
 10
-65.2079223958439
 20
249.08046902268
 30
0.0
 40
0.0
 41
0.0
  0
VERTEX
  5
   15F
  8
0
  6
CONTINUOUS
 10
-65.0871340833724
 20
249.157856982023
 30
0.0
 40
0.0
 41
0.0
  0
VERTEX
  5
   160
  8
0
  6
CONTINUOUS
 10
-64.974085760085
 20
249.238115124969
 30
0.0
 40
0.0
 41
0.0
  0
VERTEX
  5
   161
  8
0
  6
CONTINUOUS
 10
-64.8690497692943
 20
249.321050102622
 30
0.0
 40
0.0
 41
0.0
  0
VERTEX
  5
   162
  8
0
  6
CONTINUOUS
 10
-64.7722791519022
 20
249.406462117357
 30
0.0
 40
0.0
 41
0.0
  0
VERTEX
  5
   163
  8
0
  6
CONTINUOUS
 10
-64.6840070368021
 20
249.494145404148
 30
0.0
 40
0.0
 41
0.0
  0
VERTEX
  5
   164
  8
0
  6
CONTINUOUS
 10
-64.604446079251
 20
249.583888726279
 30
0.0
 40
0.0
 41
0.0
  0
VERTEX
  5
   165
  8
0
  6
CONTINUOUS
 10
-64.5679930139573
 20
249.629465517939
 30
0.0
 40
0.0
 41
0.0
  0
VERTEX
  5
   166
  8
0
  6
CONTINUOUS
 10
-64.5337879485642
 20
249.675475884225
 30
0.0
 40
0.0
 41
0.0
  0
VERTEX
  5
   167
  8
0
  6
CONTINUOUS
 10
-64.5018514869243
 20
249.721892110211
 30
0.0
 40
0.0
 41
0.0
  0
VERTEX
  5
   168
  8
0
  6
CONTINUOUS
 10
-64.4722028663677
 20
249.7686862365
 30
0.0
 40
0.0
 41
0.0
  0
VERTEX
  5
   169
  8
0
  6
CONTINUOUS
 10
-64.4448599461149
 20
249.81583007606
 30
0.0
 40
0.0
 41
0.0
  0
VERTEX
  5
   16A
  8
0
  6
CONTINUOUS
 10
-64.4198391965186
 20
249.863295231203
 30
0.0
 40
0.0
 41
0.0
  0
VERTEX
  5
   16B
  8
0
  6
CONTINUOUS
 10
-64.3971556891428
 20
249.911053110696
 30
0.0
 40
0.0
 41
0.0
  0
VERTEX
  5
   16C
  8
0
  6
CONTINUOUS
 10
-64.3768230876841
 20
249.959074946977
 30
0.0
 40
0.0
 41
0.0
  0
VERTEX
  5
   16D
  8
0
  6
CONTINUOUS
 10
-64.3588536397414
 20
250.007331813489
 30
0.0
 40
0.0
 41
0.0
  0
VERTEX
  5
   16E
  8
0
  6
CONTINUOUS
 10
-64.3432581694382
 20
250.055794642099
 30
0.0
 40
0.0
 41
0.0
  0
VERTEX
  5
   16F
  8
0
  6
CONTINUOUS
 10
-64.3300460709026
 20
250.104434240611
 30
0.0
 40
0.0
 41
0.0
  0
VERTEX
  5
   170
  8
0
  6
CONTINUOUS
 10
-64.3192253026087
 20
250.153221310351
 30
0.0
 40
0.0
 41
0.0
  0
VERTEX
  5
   171
  8
0
  6
CONTINUOUS
 10
-64.3108023825829
 20
250.20212646381
 30
0.0
 40
0.0
 41
0.0
  0
VERTEX
  5
   172
  8
0
  6
CONTINUOUS
 10
-64.3047823844771
 20
250.251120242355
 30
0.0
 40
0.0
 41
0.0
  0
VERTEX
  5
   173
  8
0
  6
CONTINUOUS
 10
-64.3011689345131
 20
250.300173133964
 30
0.0
 40
0.0
 41
0.0
  0
VERTEX
  5
   174
  8
0
  6
CONTINUOUS
 10
-64.299964209298
 20
250.34925559101
 30
0.0
 40
0.0
 41
0.0
  0
VERTEX
  5
   175
  8
0
  6
CONTINUOUS
 10
-64.3011689345133
 20
250.398338048056
 30
0.0
 40
0.0
 41
0.0
  0
VERTEX
  5
   176
  8
0
  6
CONTINUOUS
 10
-64.3047823844776
 20
250.447390939665
 30
0.0
 40
0.0
 41
0.0
  0
VERTEX
  5
   177
  8
0
  6
CONTINUOUS
 10
-64.3108023825836
 20
250.496384718209
 30
0.0
 40
0.0
 41
0.0
  0
VERTEX
  5
   178
  8
0
  6
CONTINUOUS
 10
-64.3192253026097
 20
250.545289871669
 30
0.0
 40
0.0
 41
0.0
  0
VERTEX
  5
   179
  8
0
  6
CONTINUOUS
 10
-64.3300460709038
 20
250.594076941408
 30
0.0
 40
0.0
 41
0.0
  0
VERTEX
  5
   17A
  8
0
  6
CONTINUOUS
 10
-64.3432581694396
 20
250.64271653992
 30
0.0
 40
0.0
 41
0.0
  0
VERTEX
  5
   17B
  8
0
  6
CONTINUOUS
 10
-64.3588536397431
 20
250.69117936853
 30
0.0
 40
0.0
 41
0.0
  0
VERTEX
  5
   17C
  8
0
  6
CONTINUOUS
 10
-64.3768230876861
 20
250.739436235042
 30
0.0
 40
0.0
 41
0.0
  0
VERTEX
  5
   17D
  8
0
  6
CONTINUOUS
 10
-64.397155689145
 20
250.787458071323
 30
0.0
 40
0.0
 41
0.0
  0
VERTEX
  5
   17E
  8
0
  6
CONTINUOUS
 10
-64.4198391965211
 20
250.835215950816
 30
0.0
 40
0.0
 41
0.0
  0
VERTEX
  5
   17F
  8
0
  6
CONTINUOUS
 10
-64.4448599461176
 20
250.882681105959
 30
0.0
 40
0.0
 41
0.0
  0
VERTEX
  5
   180
  8
0
  6
CONTINUOUS
 10
-64.4722028663706
 20
250.929824945518
 30
0.0
 40
0.0
 41
0.0
  0
VERTEX
  5
   181
  8
0
  6
CONTINUOUS
 10
-64.5018514869274
 20
250.976619071807
 30
0.0
 40
0.0
 41
0.0
  0
VERTEX
  5
   182
  8
0
  6
CONTINUOUS
 10
-64.5337879485676
 20
251.023035297794
 30
0.0
 40
0.0
 41
0.0
  0
VERTEX
  5
   183
  8
0
  6
CONTINUOUS
 10
-64.5679930139609
 20
251.069045664079
 30
0.0
 40
0.0
 41
0.0
  0
VERTEX
  5
   184
  8
0
  6
CONTINUOUS
 10
-64.6044460792548
 20
251.114622455739
 30
0.0
 40
0.0
 41
0.0
  0
VERTEX
  5
   185
  8
0
  6
CONTINUOUS
 10
-64.6840070368064
 20
251.204365777869
 30
0.0
 40
0.0
 41
0.0
  0
VERTEX
  5
   186
  8
0
  6
CONTINUOUS
 10
-64.772279151907
 20
251.292049064661
 30
0.0
 40
0.0
 41
0.0
  0
VERTEX
  5
   187
  8
0
  6
CONTINUOUS
 10
-64.8690497692995
 20
251.377461079395
 30
0.0
 40
0.0
 41
0.0
  0
VERTEX
  5
   188
  8
0
  6
CONTINUOUS
 10
-64.9740857600906
 20
251.460396057047
 30
0.0
 40
0.0
 41
0.0
  0
VERTEX
  5
   189
  8
0
  6
CONTINUOUS
 10
-65.0871340833784
 20
251.540654199993
 30
0.0
 40
0.0
 41
0.0
  0
VERTEX
  5
   18A
  8
0
  6
CONTINUOUS
 10
-65.2079223958502
 20
251.618042159335
 30
0.0
 40
0.0
 41
0.0
  0
VERTEX
  5
   18B
  8
0
  6
CONTINUOUS
 10
-65.3361597078815
 20
251.692373500701
 30
0.0
 40
0.0
 41
0.0
  0
VERTEX
  5
   18C
  8
0
  6
CONTINUOUS
 10
-65.4715370845554
 20
251.76346915338
 30
0.0
 40
0.0
 41
0.0
  0
VERTEX
  5
   18D
  8
0
  6
CONTINUOUS
 10
-65.6137283899137
 20
251.831157841716
 30
0.0
 40
0.0
 41
0.0
  0
VERTEX
  5
   18E
  8
0
  6
CONTINUOUS
 10
-65.7623910726473
 20
251.895276497732
 30
0.0
 40
0.0
 41
0.0
  0
VERTEX
  5
   18F
  8
0
  6
CONTINUOUS
 10
-65.9171669913323
 20
251.955670653967
 30
0.0
 40
0.0
 41
0.0
  0
VERTEX
  5
   190
  8
0
  6
CONTINUOUS
 10
-66.0776832772238
 20
252.01219481561
 30
0.0
 40
0.0
 41
0.0
  0
VERTEX
  5
   191
  8
0
  6
CONTINUOUS
 10
-66.2435532325294
 20
252.064712811005
 30
0.0
 40
0.0
 41
0.0
  0
VERTEX
  5
   192
  8
0
  6
CONTINUOUS
 10
-66.4143772619985
 20
252.113098119701
 30
0.0
 40
0.0
 41
0.0
  0
VERTEX
  5
   193
  8
0
  6
CONTINUOUS
 10
-66.5897438355814
 20
252.157234177251
 30
0.0
 40
0.0
 41
0.0
  0
VERTEX
  5
   194
  8
0
  6
CONTINUOUS
 10
-66.7692304798423
 20
252.197014656026
 30
0.0
 40
0.0
 41
0.0
  0
VERTEX
  5
   195
  8
0
  6
CONTINUOUS
 10
-66.9524047957339
 20
252.232343721369
 30
0.0
 40
0.0
 41
0.0
  0
VERTEX
  5
   196
  8
0
  6
CONTINUOUS
 10
-67.138825500285
 20
252.263136262467
 30
0.0
 40
0.0
 41
0.0
  0
VERTEX
  5
   197
  8
0
  6
CONTINUOUS
 10
-67.3280434896898
 20
252.289318097391
 30
0.0
 40
0.0
 41
0.0
  0
VERTEX
  5
   198
  8
0
  6
CONTINUOUS
 10
-67.5196029212384
 20
252.310826151808
 30
0.0
 40
0.0
 41
0.0
  0
VERTEX
  5
   199
  8
0
  6
CONTINUOUS
 10
-67.7130423114815
 20
252.327608610931
 30
0.0
 40
0.0
 41
0.0
  0
VERTEX
  5
   19A
  8
0
  6
CONTINUOUS
 10
-67.9078956479848
 20
252.339625044345
 30
0.0
 40
0.0
 41
0.0
  0
VERTEX
  5
   19B
  8
0
  6
CONTINUOUS
 10
-68.1036935119934
 20
252.346846503411
 30
0.0
 40
0.0
 41
0.0
  0
VERTEX
  5
   19C
  8
0
  6
CONTINUOUS
 10
-68.299964209303
 20
252.349255591
 30
0.0
 40
0.0
 41
0.0
  0
VERTEX
  5
   19D
  8
0
  6
CONTINUOUS
 10
-68.4962349066127
 20
252.34684650341
 30
0.0
 40
0.0
 41
0.0
  0
VERTEX
  5
   19E
  8
0
  6
CONTINUOUS
 10
-68.6920327706213
 20
252.339625044343
 30
0.0
 40
0.0
 41
0.0
  0
VERTEX
  5
   19F
  8
0
  6
CONTINUOUS
 10
-68.8868861071244
 20
252.327608610928
 30
0.0
 40
0.0
 41
0.0
  0
VERTEX
  5
   1A0
  8
0
  6
CONTINUOUS
 10
-69.0803254973675
 20
252.310826151804
 30
0.0
 40
0.0
 41
0.0
  0
VERTEX
  5
   1A1
  8
0
  6
CONTINUOUS
 10
-69.2718849289159
 20
252.289318097386
 30
0.0
 40
0.0
 41
0.0
  0
VERTEX
  5
   1A2
  8
0
  6
CONTINUOUS
 10
-69.4611029183207
 20
252.263136262461
 30
0.0
 40
0.0
 41
0.0
  0
VERTEX
  5
   1A3
  8
0
  6
CONTINUOUS
 10
-69.6475236228716
 20
252.232343721362
 30
0.0
 40
0.0
 41
0.0
  0
VERTEX
  5
   1A4
  8
0
  6
CONTINUOUS
 10
-69.830697938763
 20
252.197014656018
 30
0.0
 40
0.0
 41
0.0
  0
VERTEX
  5
   1A5
  8
0
  6
CONTINUOUS
 10
-70.0101845830237
 20
252.157234177242
 30
0.0
 40
0.0
 41
0.0
  0
VERTEX
  5
   1A6
  8
0
  6
CONTINUOUS
 10
-70.1855511566064
 20
252.113098119692
 30
0.0
 40
0.0
 41
0.0
  0
VERTEX
  5
   1A7
  8
0
  6
CONTINUOUS
 10
-70.3563751860752
 20
252.064712810995
 30
0.0
 40
0.0
 41
0.0
  0
VERTEX
  5
   1A8
  8
0
  6
CONTINUOUS
 10
-70.5222451413806
 20
252.012194815599
 30
0.0
 40
0.0
 41
0.0
  0
VERTEX
  5
   1A9
  8
0
  6
CONTINUOUS
 10
-70.6827614272718
 20
251.955670653955
 30
0.0
 40
0.0
 41
0.0
  0
VERTEX
  5
   1AA
  8
0
  6
CONTINUOUS
 10
-70.8375373459565
 20
251.895276497719
 30
0.0
 40
0.0
 41
0.0
  0
VERTEX
  5
   1AB
  8
0
  6
CONTINUOUS
 10
-70.9862000286898
 20
251.831157841703
 30
0.0
 40
0.0
 41
0.0
  0
VERTEX
  5
   1AC
  8
0
  6
CONTINUOUS
 10
-71.1283913340478
 20
251.763469153366
 30
0.0
 40
0.0
 41
0.0
  0
VERTEX
  5
   1AD
  8
0
  6
CONTINUOUS
 10
-71.2637687107212
 20
251.692373500686
 30
0.0
 40
0.0
 41
0.0
  0
VERTEX
  5
   1AE
  8
0
  6
CONTINUOUS
 10
-71.3920060227521
 20
251.618042159319
 30
0.0
 40
0.0
 41
0.0
  0
VERTEX
  5
   1AF
  8
0
  6
CONTINUOUS
 10
-71.5127943352236
 20
251.540654199976
 30
0.0
 40
0.0
 41
0.0
  0
VERTEX
  5
   1B0
  8
0
  6
CONTINUOUS
 10
-71.625842658511
 20
251.460396057031
 30
0.0
 40
0.0
 41
0.0
  0
VERTEX
  5
   1B1
  8
0
  6
CONTINUOUS
 10
-71.7308786493017
 20
251.377461079378
 30
0.0
 40
0.0
 41
0.0
  0
VERTEX
  5
   1B2
  8
0
  6
CONTINUOUS
 10
-71.8276492666938
 20
251.292049064643
 30
0.0
 40
0.0
 41
0.0
  0
VERTEX
  5
   1B3
  8
0
  6
CONTINUOUS
 10
-71.9159213817939
 20
251.204365777851
 30
0.0
 40
0.0
 41
0.0
  0
VERTEX
  5
   1B4
  8
0
  6
CONTINUOUS
 10
-71.9954823393451
 20
251.114622455721
 30
0.0
 40
0.0
 41
0.0
  0
VERTEX
  5
   1B5
  8
0
  6
CONTINUOUS
 10
-72.0319354046388
 20
251.06904566406
 30
0.0
 40
0.0
 41
0.0
  0
VERTEX
  5
   1B6
  8
0
  6
CONTINUOUS
 10
-72.0661404700318
 20
251.023035297775
 30
0.0
 40
0.0
 41
0.0
  0
VERTEX
  5
   1B7
  8
0
  6
CONTINUOUS
 10
-72.0980769316717
 20
250.976619071788
 30
0.0
 40
0.0
 41
0.0
  0
VERTEX
  5
   1B8
  8
0
  6
CONTINUOUS
 10
-72.1277255522283
 20
250.929824945499
 30
0.0
 40
0.0
 41
0.0
  0
VERTEX
  5
   1B9
  8
0
  6
CONTINUOUS
 10
-72.1550684724811
 20
250.88268110594
 30
0.0
 40
0.0
 41
0.0
  0
VERTEX
  5
   1BA
  8
0
  6
CONTINUOUS
 10
-72.1800892220774
 20
250.835215950796
 30
0.0
 40
0.0
 41
0.0
  0
VERTEX
  5
   1BB
  8
0
  6
CONTINUOUS
 10
-72.2027727294532
 20
250.787458071304
 30
0.0
 40
0.0
 41
0.0
  0
VERTEX
  5
   1BC
  8
0
  6
CONTINUOUS
 10
-72.2231053309119
 20
250.739436235022
 30
0.0
 40
0.0
 41
0.0
  0
VERTEX
  5
   1BD
  8
0
  6
CONTINUOUS
 10
-72.2410747788546
 20
250.69117936851
 30
0.0
 40
0.0
 41
0.0
  0
VERTEX
  5
   1BE
  8
0
  6
CONTINUOUS
 10
-72.2566702491579
 20
250.642716539901
 30
0.0
 40
0.0
 41
0.0
  0
VERTEX
  5
   1BF
  8
0
  6
CONTINUOUS
 10
-72.2698823476935
 20
250.594076941388
 30
0.0
 40
0.0
 41
0.0
  0
VERTEX
  5
   1C0
  8
0
  6
CONTINUOUS
 10
-72.2807031159873
 20
250.545289871649
 30
0.0
 40
0.0
 41
0.0
  0
VERTEX
  5
   1C1
  8
0
  6
CONTINUOUS
 10
-72.2891260360131
 20
250.496384718189
 30
0.0
 40
0.0
 41
0.0
  0
VERTEX
  5
   1C2
  8
0
  6
CONTINUOUS
 10
-72.2951460341189
 20
250.447390939645
 30
0.0
 40
0.0
 41
0.0
  0
VERTEX
  5
   1C3
  8
0
  6
CONTINUOUS
 10
-72.298759484083
 20
250.398338048035
 30
0.0
 40
0.0
 41
0.0
  0
VERTEX
  5
   1C4
  8
0
  6
CONTINUOUS
 10
-72.299964209298
 20
250.34925559099
 30
0.0
 40
0.0
 41
0.0
  0
SEQEND
  5
   1C5
  8
0
  6
CONTINUOUS
 62
   218
  0
POLYLINE
  5
   1C6
  8
0
  6
CONTINUOUS
 62
   218
 66
     1
 10
0.0
 20
0.0
 30
0.0
  0
VERTEX
  5
   1C7
  8
0
  6
CONTINUOUS
 10
-56.299964209298
 20
250.349255591015
 30
0.0
 40
0.0
 41
0.0
  0
VERTEX
  5
   1C8
  8
0
  6
CONTINUOUS
 10
-56.3011689345136
 20
250.398338048061
 30
0.0
 40
0.0
 41
0.0
  0
VERTEX
  5
   1C9
  8
0
  6
CONTINUOUS
 10
-56.3047823844781
 20
250.44739093967
 30
0.0
 40
0.0
 41
0.0
  0
VERTEX
  5
   1CA
  8
0
  6
CONTINUOUS
 10
-56.3108023825844
 20
250.496384718214
 30
0.0
 40
0.0
 41
0.0
  0
VERTEX
  5
   1CB
  8
0
  6
CONTINUOUS
 10
-56.3192253026107
 20
250.545289871674
 30
0.0
 40
0.0
 41
0.0
  0
VERTEX
  5
   1CC
  8
0
  6
CONTINUOUS
 10
-56.3300460709051
 20
250.594076941413
 30
0.0
 40
0.0
 41
0.0
  0
VERTEX
  5
   1CD
  8
0
  6
CONTINUOUS
 10
-56.3432581694412
 20
250.642716539926
 30
0.0
 40
0.0
 41
0.0
  0
VERTEX
  5
   1CE
  8
0
  6
CONTINUOUS
 10
-56.3588536397449
 20
250.691179368535
 30
0.0
 40
0.0
 41
0.0
  0
VERTEX
  5
   1CF
  8
0
  6
CONTINUOUS
 10
-56.3768230876882
 20
250.739436235047
 30
0.0
 40
0.0
 41
0.0
  0
VERTEX
  5
   1D0
  8
0
  6
CONTINUOUS
 10
-56.3971556891474
 20
250.787458071328
 30
0.0
 40
0.0
 41
0.0
  0
VERTEX
  5
   1D1
  8
0
  6
CONTINUOUS
 10
-56.4198391965237
 20
250.835215950821
 30
0.0
 40
0.0
 41
0.0
  0
VERTEX
  5
   1D2
  8
0
  6
CONTINUOUS
 10
-56.4448599461205
 20
250.882681105964
 30
0.0
 40
0.0
 41
0.0
  0
VERTEX
  5
   1D3
  8
0
  6
CONTINUOUS
 10
-56.4722028663738
 20
250.929824945523
 30
0.0
 40
0.0
 41
0.0
  0
VERTEX
  5
   1D4
  8
0
  6
CONTINUOUS
 10
-56.5018514869309
 20
250.976619071812
 30
0.0
 40
0.0
 41
0.0
  0
VERTEX
  5
   1D5
  8
0
  6
CONTINUOUS
 10
-56.5337879485714
 20
251.023035297799
 30
0.0
 40
0.0
 41
0.0
  0
VERTEX
  5
   1D6
  8
0
  6
CONTINUOUS
 10
-56.5679930139649
 20
251.069045664084
 30
0.0
 40
0.0
 41
0.0
  0
VERTEX
  5
   1D7
  8
0
  6
CONTINUOUS
 10
-56.6044460792591
 20
251.114622455744
 30
0.0
 40
0.0
 41
0.0
  0
VERTEX
  5
   1D8
  8
0
  6
CONTINUOUS
 10
-56.6840070368113
 20
251.204365777875
 30
0.0
 40
0.0
 41
0.0
  0
VERTEX
  5
   1D9
  8
0
  6
CONTINUOUS
 10
-56.7722791519124
 20
251.292049064666
 30
0.0
 40
0.0
 41
0.0
  0
VERTEX
  5
   1DA
  8
0
  6
CONTINUOUS
 10
-56.8690497693056
 20
251.3774610794
 30
0.0
 40
0.0
 41
0.0
  0
VERTEX
  5
   1DB
  8
0
  6
CONTINUOUS
 10
-56.9740857600973
 20
251.460396057052
 30
0.0
 40
0.0
 41
0.0
  0
VERTEX
  5
   1DC
  8
0
  6
CONTINUOUS
 10
-57.0871340833856
 20
251.540654199997
 30
0.0
 40
0.0
 41
0.0
  0
VERTEX
  5
   1DD
  8
0
  6
CONTINUOUS
 10
-57.207922395858
 20
251.61804215934
 30
0.0
 40
0.0
 41
0.0
  0
VERTEX
  5
   1DE
  8
0
  6
CONTINUOUS
 10
-57.3361597078899
 20
251.692373500706
 30
0.0
 40
0.0
 41
0.0
  0
VERTEX
  5
   1DF
  8
0
  6
CONTINUOUS
 10
-57.4715370845643
 20
251.763469153384
 30
0.0
 40
0.0
 41
0.0
  0
VERTEX
  5
   1E0
  8
0
  6
CONTINUOUS
 10
-57.6137283899231
 20
251.831157841721
 30
0.0
 40
0.0
 41
0.0
  0
VERTEX
  5
   1E1
  8
0
  6
CONTINUOUS
 10
-57.7623910726573
 20
251.895276497736
 30
0.0
 40
0.0
 41
0.0
  0
VERTEX
  5
   1E2
  8
0
  6
CONTINUOUS
 10
-57.9171669913428
 20
251.955670653971
 30
0.0
 40
0.0
 41
0.0
  0
VERTEX
  5
   1E3
  8
0
  6
CONTINUOUS
 10
-58.0776832772348
 20
252.012194815614
 30
0.0
 40
0.0
 41
0.0
  0
VERTEX
  5
   1E4
  8
0
  6
CONTINUOUS
 10
-58.2435532325409
 20
252.064712811009
 30
0.0
 40
0.0
 41
0.0
  0
VERTEX
  5
   1E5
  8
0
  6
CONTINUOUS
 10
-58.4143772620104
 20
252.113098119704
 30
0.0
 40
0.0
 41
0.0
  0
VERTEX
  5
   1E6
  8
0
  6
CONTINUOUS
 10
-58.5897438355938
 20
252.157234177254
 30
0.0
 40
0.0
 41
0.0
  0
VERTEX
  5
   1E7
  8
0
  6
CONTINUOUS
 10
-58.7692304798551
 20
252.197014656029
 30
0.0
 40
0.0
 41
0.0
  0
VERTEX
  5
   1E8
  8
0
  6
CONTINUOUS
 10
-58.952404795747
 20
252.232343721371
 30
0.0
 40
0.0
 41
0.0
  0
VERTEX
  5
   1E9
  8
0
  6
CONTINUOUS
 10
-59.1388255002985
 20
252.263136262469
 30
0.0
 40
0.0
 41
0.0
  0
VERTEX
  5
   1EA
  8
0
  6
CONTINUOUS
 10
-59.3280434897037
 20
252.289318097393
 30
0.0
 40
0.0
 41
0.0
  0
VERTEX
  5
   1EB
  8
0
  6
CONTINUOUS
 10
-59.5196029212526
 20
252.31082615181
 30
0.0
 40
0.0
 41
0.0
  0
VERTEX
  5
   1EC
  8
0
  6
CONTINUOUS
 10
-59.713042311496
 20
252.327608610932
 30
0.0
 40
0.0
 41
0.0
  0
VERTEX
  5
   1ED
  8
0
  6
CONTINUOUS
 10
-59.9078956479995
 20
252.339625044346
 30
0.0
 40
0.0
 41
0.0
  0
VERTEX
  5
   1EE
  8
0
  6
CONTINUOUS
 10
-60.1036935120083
 20
252.346846503411
 30
0.0
 40
0.0
 41
0.0
  0
VERTEX
  5
   1EF
  8
0
  6
CONTINUOUS
 10
-60.2999642093181
 20
252.349255591
 30
0.0
 40
0.0
 41
0.0
  0
VERTEX
  5
   1F0
  8
0
  6
CONTINUOUS
 10
-60.4962349066279
 20
252.346846503409
 30
0.0
 40
0.0
 41
0.0
  0
VERTEX
  5
   1F1
  8
0
  6
CONTINUOUS
 10
-60.6920327706366
 20
252.339625044342
 30
0.0
 40
0.0
 41
0.0
  0
VERTEX
  5
   1F2
  8
0
  6
CONTINUOUS
 10
-60.8868861071398
 20
252.327608610927
 30
0.0
 40
0.0
 41
0.0
  0
VERTEX
  5
   1F3
  8
0
  6
CONTINUOUS
 10
-61.0803254973829
 20
252.310826151803
 30
0.0
 40
0.0
 41
0.0
  0
VERTEX
  5
   1F4
  8
0
  6
CONTINUOUS
 10
-61.2718849289313
 20
252.289318097384
 30
0.0
 40
0.0
 41
0.0
  0
VERTEX
  5
   1F5
  8
0
  6
CONTINUOUS
 10
-61.461102918336
 20
252.263136262459
 30
0.0
 40
0.0
 41
0.0
  0
VERTEX
  5
   1F6
  8
0
  6
CONTINUOUS
 10
-61.6475236228869
 20
252.23234372136
 30
0.0
 40
0.0
 41
0.0
  0
VERTEX
  5
   1F7
  8
0
  6
CONTINUOUS
 10
-61.8306979387781
 20
252.197014656015
 30
0.0
 40
0.0
 41
0.0
  0
VERTEX
  5
   1F8
  8
0
  6
CONTINUOUS
 10
-62.0101845830386
 20
252.157234177239
 30
0.0
 40
0.0
 41
0.0
  0
VERTEX
  5
   1F9
  8
0
  6
CONTINUOUS
 10
-62.1855511566211
 20
252.113098119688
 30
0.0
 40
0.0
 41
0.0
  0
VERTEX
  5
   1FA
  8
0
  6
CONTINUOUS
 10
-62.3563751860896
 20
252.064712810991
 30
0.0
 40
0.0
 41
0.0
  0
VERTEX
  5
   1FB
  8
0
  6
CONTINUOUS
 10
-62.5222451413947
 20
252.012194815594
 30
0.0
 40
0.0
 41
0.0
  0
VERTEX
  5
   1FC
  8
0
  6
CONTINUOUS
 10
-62.6827614272855
 20
251.95567065395
 30
0.0
 40
0.0
 41
0.0
  0
VERTEX
  5
   1FD
  8
0
  6
CONTINUOUS
 10
-62.8375373459698
 20
251.895276497713
 30
0.0
 40
0.0
 41
0.0
  0
VERTEX
  5
   1FE
  8
0
  6
CONTINUOUS
 10
-62.9862000287027
 20
251.831157841697
 30
0.0
 40
0.0
 41
0.0
  0
VERTEX
  5
   1FF
  8
0
  6
CONTINUOUS
 10
-63.1283913340602
 20
251.763469153359
 30
0.0
 40
0.0
 41
0.0
  0
VERTEX
  5
   200
  8
0
  6
CONTINUOUS
 10
-63.2637687107331
 20
251.69237350068
 30
0.0
 40
0.0
 41
0.0
  0
VERTEX
  5
   201
  8
0
  6
CONTINUOUS
 10
-63.3920060227635
 20
251.618042159312
 30
0.0
 40
0.0
 41
0.0
  0
VERTEX
  5
   202
  8
0
  6
CONTINUOUS
 10
-63.5127943352343
 20
251.540654199969
 30
0.0
 40
0.0
 41
0.0
  0
VERTEX
  5
   203
  8
0
  6
CONTINUOUS
 10
-63.6258426585211
 20
251.460396057023
 30
0.0
 40
0.0
 41
0.0
  0
VERTEX
  5
   204
  8
0
  6
CONTINUOUS
 10
-63.7308786493111
 20
251.37746107937
 30
0.0
 40
0.0
 41
0.0
  0
VERTEX
  5
   205
  8
0
  6
CONTINUOUS
 10
-63.8276492667025
 20
251.292049064635
 30
0.0
 40
0.0
 41
0.0
  0
VERTEX
  5
   206
  8
0
  6
CONTINUOUS
 10
-63.9159213818019
 20
251.204365777843
 30
0.0
 40
0.0
 41
0.0
  0
VERTEX
  5
   207
  8
0
  6
CONTINUOUS
 10
-63.9954823393523
 20
251.114622455712
 30
0.0
 40
0.0
 41
0.0
  0
VERTEX
  5
   208
  8
0
  6
CONTINUOUS
 10
-64.0319354046456
 20
251.069045664051
 30
0.0
 40
0.0
 41
0.0
  0
VERTEX
  5
   209
  8
0
  6
CONTINUOUS
 10
-64.0661404700382
 20
251.023035297766
 30
0.0
 40
0.0
 41
0.0
  0
VERTEX
  5
   20A
  8
0
  6
CONTINUOUS
 10
-64.0980769316777
 20
250.976619071779
 30
0.0
 40
0.0
 41
0.0
  0
VERTEX
  5
   20B
  8
0
  6
CONTINUOUS
 10
-64.1277255522339
 20
250.92982494549
 30
0.0
 40
0.0
 41
0.0
  0
VERTEX
  5
   20C
  8
0
  6
CONTINUOUS
 10
-64.1550684724862
 20
250.882681105931
 30
0.0
 40
0.0
 41
0.0
  0
VERTEX
  5
   20D
  8
0
  6
CONTINUOUS
 10
-64.1800892220821
 20
250.835215950787
 30
0.0
 40
0.0
 41
0.0
  0
VERTEX
  5
   20E
  8
0
  6
CONTINUOUS
 10
-64.2027727294575
 20
250.787458071294
 30
0.0
 40
0.0
 41
0.0
  0
VERTEX
  5
   20F
  8
0
  6
CONTINUOUS
 10
-64.2231053309157
 20
250.739436235013
 30
0.0
 40
0.0
 41
0.0
  0
VERTEX
  5
   210
  8
0
  6
CONTINUOUS
 10
-64.241074778858
 20
250.691179368501
 30
0.0
 40
0.0
 41
0.0
  0
VERTEX
  5
   211
  8
0
  6
CONTINUOUS
 10
-64.2566702491608
 20
250.642716539891
 30
0.0
 40
0.0
 41
0.0
  0
VERTEX
  5
   212
  8
0
  6
CONTINUOUS
 10
-64.2698823476959
 20
250.594076941378
 30
0.0
 40
0.0
 41
0.0
  0
VERTEX
  5
   213
  8
0
  6
CONTINUOUS
 10
-64.2807031159892
 20
250.545289871639
 30
0.0
 40
0.0
 41
0.0
  0
VERTEX
  5
   214
  8
0
  6
CONTINUOUS
 10
-64.2891260360146
 20
250.496384718179
 30
0.0
 40
0.0
 41
0.0
  0
VERTEX
  5
   215
  8
0
  6
CONTINUOUS
 10
-64.2951460341199
 20
250.447390939635
 30
0.0
 40
0.0
 41
0.0
  0
VERTEX
  5
   216
  8
0
  6
CONTINUOUS
 10
-64.2987594840834
 20
250.398338048025
 30
0.0
 40
0.0
 41
0.0
  0
VERTEX
  5
   217
  8
0
  6
CONTINUOUS
 10
-64.299964209298
 20
250.34925559098
 30
0.0
 40
0.0
 41
0.0
  0
SEQEND
  5
   218
  8
0
  6
CONTINUOUS
 62
   218
  0
INSERT
  5
   219
  8
0
  6
CONTINUOUS
 62
   218
  2
*HATCH1050
 10
0.0
 20
0.0
 30
0.0
  0
LINE
  5
   21A
  8
0
  6
CONTINUOUS
 62
   218
 10
-62.878366952658
 20
208.737096448576
 30
0.0
 11
-58.8228463963633
 21
231.737096448576
 31
0.0
  0
LINE
  5
   21B
  8
0
  6
CONTINUOUS
 62
   218
 10
-61.456769696018
 20
208.737096448575
 30
0.0
 11
-58.099964209298
 21
227.774486377403
 31
0.0
  0
LINE
  5
   21C
  8
0
  6
CONTINUOUS
 62
   218
 10
-60.035172439378
 20
208.737096448575
 30
0.0
 11
-58.099964209298
 21
219.712207701002
 31
0.0
  0
LINE
  5
   21D
  8
0
  6
CONTINUOUS
 62
   218
 10
-58.613575182738
 20
208.737096448575
 30
0.0
 11
-58.0999642092981
 21
211.649929024601
 31
0.0
  0
LINE
  5
   21E
  8
0
  6
CONTINUOUS
 62
   218
 10
-65.7215614659381
 20
208.737096448575
 30
0.0
 11
-61.6660409096434
 21
231.737096448576
 31
0.0
  0
LINE
  5
   21F
  8
0
  6
CONTINUOUS
 62
   218
 10
-67.1431587225781
 20
208.737096448575
 30
0.0
 11
-63.0876381662835
 21
231.737096448575
 31
0.0
  0
LINE
  5
   220
  8
0
  6
CONTINUOUS
 62
   218
 10
-68.5647559792182
 20
208.737096448576
 30
0.0
 11
-64.5092354229235
 21
231.737096448576
 31
0.0
  0
LINE
  5
   221
  8
0
  6
CONTINUOUS
 62
   218
 10
-69.9863532358582
 20
208.737096448575
 30
0.0
 11
-65.9308326795636
 21
231.737096448575
 31
0.0
  0
LINE
  5
   222
  8
0
  6
CONTINUOUS
 62
   218
 10
-70.499964209298
 20
213.886542548952
 30
0.0
 11
-67.3524299362037
 21
231.737096448576
 31
0.0
  0
LINE
  5
   223
  8
0
  6
CONTINUOUS
 62
   218
 10
-70.4999642092981
 20
221.948821225353
 30
0.0
 11
-68.7740271928438
 21
231.737096448575
 31
0.0
  0
LINE
  5
   224
  8
0
  6
CONTINUOUS
 62
   218
 10
-70.499964209298
 20
230.011099901754
 30
0.0
 11
-70.1956244494838
 21
231.737096448575
 31
0.0
  0
ENDBLK
  5
   225
  8
0
  6
CONTINUOUS
 62
     7
  0
BLOCK
  5
   226
  8
0
  6
CONTINUOUS
 62
     7
  2
159488
 70
    64
 10
0.0
 20
0.0
 30
0.0
  3
159488
  0
LINE
  5
   227
  8
0
  6
CONTINUOUS
 62
     3
 10
-77.999964209298
 20
207.237096448575
 30
0.0
 11
-77.999964209298
 21
227.237096448575
 31
0.0
  0
LINE
  5
   228
  8
0
  6
DASHDOT
 62
     3
 10
-82.6696138350863
 20
217.237096448575
 30
0.0
 11
-29.4109503494068
 21
217.237096448575
 31
0.0
  0
LINE
  5
   229
  8
0
  6
CONTINUOUS
 62
     3
 10
-75.499964209298
 20
207.237096448575
 30
0.0
 11
-75.499964209298
 21
213.237096448575
 31
0.0
  0
LINE
  5
   22A
  8
0
  6
CONTINUOUS
 62
     3
 10
-77.999964209298
 20
227.237096448575
 30
0.0
 11
-70.499964209298
 21
227.237096448575
 31
0.0
  0
LINE
  5
   22B
  8
0
  6
CONTINUOUS
 62
     3
 10
-77.999964209298
 20
207.237096448575
 30
0.0
 11
-75.499964209298
 21
207.237096448575
 31
0.0
  0
LINE
  5
   22C
  8
0
  6
CONTINUOUS
 62
     3
 10
-38.999964209298
 20
209.237096448575
 30
0.0
 11
-38.999964209298
 21
211.237096448575
 31
0.0
  0
ARC
  5
   22D
  8
0
  6
CONTINUOUS
 62
     3
 10
-75.499964209298
 20
217.237096448575
 30
0.0
 40
4.0
 50
0.0
 51
90.0
  0
ARC
  5
   22E
  8
0
  6
CONTINUOUS
 62
     3
 10
-40.999964209298
 20
225.237096448575
 30
0.0
 40
2.0
 50
0.0
 51
90.0
  0
ARC
  5
   22F
  8
0
  6
CONTINUOUS
 62
     3
 10
-40.999964209298
 20
209.237096448575
 30
0.0
 40
2.0
 50
270.0
 51
360.0
  0
ARC
  5
   230
  8
0
  6
CONTINUOUS
 62
     3
 10
-75.499964209298
 20
217.237096448575
 30
0.0
 40
4.0
 50
270.0
 51
360.0
  0
ARC
  5
   231
  8
0
  6
CONTINUOUS
 62
     3
 10
-75.499964209298
 20
217.237096448575
 30
0.0
 40
2.0
 50
262.819244218542
 51
457.180755781458
  0
ARC
  5
   232
  8
0
  6
CONTINUOUS
 62
     3
 10
-75.999964209298
 20
221.205723415172
 30
0.0
 40
2.0
 50
180.0
 51
277.180755781458
  0
ARC
  5
   233
  8
0
  6
CONTINUOUS
 62
     3
 10
-75.999964209298
 20
213.268469481978
 30
0.0
 40
2.0
 50
82.8192442185417
 51
180.0
  0
LINE
  5
   234
  8
0
  6
CONTINUOUS
 62
     3
 10
-75.499964209298
 20
221.237096448575
 30
0.0
 11
-75.499964209298
 21
227.237096448575
 31
0.0
  0
LINE
  5
   235
  8
0
  6
CONTINUOUS
 62
     3
 10
-46.499964209298
 20
207.237096448575
 30
0.0
 11
-46.499964209298
 21
211.237096448575
 31
0.0
  0
LINE
  5
   236
  8
0
  6
CONTINUOUS
 62
     3
 10
-42.499964209298
 20
207.237096448575
 30
0.0
 11
-42.499964209298
 21
211.237096448575
 31
0.0
  0
LINE
  5
   237
  8
0
  6
CONTINUOUS
 62
     3
 10
-46.499964209298
 20
222.237096448575
 30
0.0
 11
-42.499964209298
 21
222.237096448575
 31
0.0
  0
LINE
  5
   238
  8
0
  6
CONTINUOUS
 62
     3
 10
-46.499964209298
 20
212.237096448575
 30
0.0
 11
-42.499964209298
 21
212.237096448575
 31
0.0
  0
LINE
  5
   239
  8
0
  6
CONTINUOUS
 62
     3
 10
-46.499964209298
 20
223.237096448575
 30
0.0
 11
-42.499964209298
 21
223.237096448575
 31
0.0
  0
LINE
  5
   23A
  8
0
  6
CONTINUOUS
 62
     3
 10
-46.499964209298
 20
211.237096448575
 30
0.0
 11
-42.499964209298
 21
211.237096448575
 31
0.0
  0
INSERT
  5
   23B
  8
255
  6
CONTINUOUS
 62
     7
  2
146558
 10
0.0
 20
0.0
 30
0.0
  0
LINE
  5
   23C
  8
0
  6
CONTINUOUS
 62
     3
 10
-70.499964209298
 20
207.237096448575
 30
0.0
 11
-40.999964209298
 21
207.237096448575
 31
0.0
  0
LINE
  5
   23D
  8
0
  6
DOT
 62
     3
 10
-75.499964209298
 20
207.237096448575
 30
0.0
 11
-70.499964209298
 21
207.237096448575
 31
0.0
  0
INSERT
  5
   23E
  8
0
  6
CONTINUOUS
 62
    98
  2
*HATCH1047
 10
0.0
 20
0.0
 30
0.0
  0
INSERT
  5
   23F
  8
0
  6
CONTINUOUS
 62
    98
  2
*HATCH1048
 10
0.0
 20
0.0
 30
0.0
  0
INSERT
  5
   240
  8
0
  6
CONTINUOUS
 62
    98
  2
*HATCH1049
 10
0.0
 20
0.0
 30
0.0
  0
LINE
  5
   241
  8
0
  6
DOT
 62
     3
 10
-70.499964209298
 20
227.237096448575
 30
0.0
 11
-58.099964209298
 21
227.237096448575
 31
0.0
  0
LINE
  5
   242
  8
0
  6
CONTINUOUS
 62
     3
 10
-58.099964209298
 20
227.237096448575
 30
0.0
 11
-40.999964209298
 21
227.237096448575
 31
0.0
  0
INSERT
  5
   243
  8
255
  6
CONTINUOUS
 62
     7
  2
CAVO
 10
0.0
 20
0.0
 30
0.0
  0
LINE
  5
   244
  8
0
  6
CONTINUOUS
 62
     3
 10
-46.499964209298
 20
223.237096448575
 30
0.0
 11
-46.499964209298
 21
227.237096448575
 31
0.0
  0
LINE
  5
   245
  8
0
  6
CONTINUOUS
 62
     3
 10
-42.499964209298
 20
223.237096448575
 30
0.0
 11
-42.499964209298
 21
227.237096448575
 31
0.0
  0
LINE
  5
   246
  8
0
  6
DOT
 62
     3
 10
-46.499964209298
 20
211.237096448575
 30
0.0
 11
-46.499964209298
 21
223.237096448575
 31
0.0
  0
LINE
  5
   247
  8
0
  6
DOT
 62
     3
 10
-42.499964209298
 20
211.237096448575
 30
0.0
 11
-42.499964209298
 21
223.237096448575
 31
0.0
  0
LINE
  5
   248
  8
0
  6
CONTINUOUS
 62
     3
 10
-38.999964209298
 20
223.237096448575
 30
0.0
 11
-38.999964209298
 21
225.237096448575
 31
0.0
  0
LINE
  5
   249
  8
0
  6
DOT
 62
     3
 10
-38.999964209298
 20
211.237096448575
 30
0.0
 11
-38.999964209298
 21
223.237096448575
 31
0.0
  0
ENDBLK
  5
   24A
  8
0
  6
CONTINUOUS
 62
     7
  0
BLOCK
  5
   24B
  8
0
  6
CONTINUOUS
 62
     0
  2
*HATCH1051
 70
    65
 10
0.0
 20
0.0
 30
0.0
  3
*HATCH1051
  0
LINE
  5
   24C
  8
0
  6
CONTINUOUS
 62
   210
 10
0.514719009399414
 20
9.0
 30
0.0
 11
0.0
 21
8.48528099060059
 31
0.0
  0
LINE
  5
   24D
  8
0
  6
CONTINUOUS
 62
   210
 10
2.63603949546814
 20
9.0
 30
0.0
 11
0.0
 21
6.36396074295044
 31
0.0
  0
LINE
  5
   24E
  8
0
  6
CONTINUOUS
 62
   210
 10
4.75735998153687
 20
9.0
 30
0.0
 11
0.0
 21
4.24264049530029
 31
0.0
  0
LINE
  5
   24F
  8
0
  6
CONTINUOUS
 62
   210
 10
6.87868022918701
 20
9.0
 30
0.0
 11
1.87867987155914
 21
4.0
 31
0.0
  0
LINE
  5
   250
  8
0
  6
CONTINUOUS
 62
   210
 10
9.00000095367432
 20
9.0
 30
0.0
 11
4.00000047683716
 21
4.0
 31
0.0
  0
LINE
  5
   251
  8
0
  6
CONTINUOUS
 62
   210
 10
11.1213216781616
 20
9.0
 30
0.0
 11
6.1213207244873
 21
4.0
 31
0.0
  0
LINE
  5
   252
  8
0
  6
CONTINUOUS
 62
   210
 10
13.2426424026489
 20
9.0
 30
0.0
 11
8.24264144897461
 21
4.0
 31
0.0
  0
LINE
  5
   253
  8
0
  6
CONTINUOUS
 62
   210
 10
15.0
 20
8.63603782653809
 30
0.0
 11
10.3639612197876
 21
4.0
 31
0.0
  0
LINE
  5
   254
  8
0
  6
CONTINUOUS
 62
   210
 10
15.0
 20
6.51471757888794
 30
0.0
 11
12.4852819442749
 21
4.0
 31
0.0
  0
LINE
  5
   255
  8
0
  6
CONTINUOUS
 62
   210
 10
15.0
 20
4.39339733123779
 30
0.0
 11
14.6066026687622
 21
4.0
 31
0.0
  0
ENDBLK
  5
   256
  8
0
  6
CONTINUOUS
 62
     0
  0
BLOCK
  5
   257
  8
0
  6
CONTINUOUS
 62
     0
  2
*HATCH1052
 70
    65
 10
0.0
 20
0.0
 30
0.0
  3
*HATCH1052
  0
LINE
  5
   258
  8
0
  6
CONTINUOUS
 62
   210
 10
0.242640540003777
 20
-4.0
 30
0.0
 11
0.0
 21
-4.24264049530029
 31
0.0
  0
LINE
  5
   259
  8
0
  6
CONTINUOUS
 62
   210
 10
2.36396098136902
 20
-4.0
 30
0.0
 11
0.0
 21
-6.36396074295044
 31
0.0
  0
LINE
  5
   25A
  8
0
  6
CONTINUOUS
 62
   210
 10
-4.13603973388672
 20
-10.5
 30
0.0
 11
-5.0
 21
-11.3639602661133
 31
0.0
  0
LINE
  5
   25B
  8
0
  6
CONTINUOUS
 62
   210
 10
4.48528146743774
 20
-4.0
 30
0.0
 11
0.0
 21
-8.48528099060059
 31
0.0
  0
LINE
  5
   25C
  8
0
  6
CONTINUOUS
 62
   210
 10
-2.01471948623657
 20
-10.5
 30
0.0
 11
-5.0
 21
-13.4852809906006
 31
0.0
  0
LINE
  5
   25D
  8
0
  6
CONTINUOUS
 62
   210
 10
6.60660171508789
 20
-4.0
 30
0.0
 11
-2.89339900016785
 21
-13.5
 31
0.0
  0
LINE
  5
   25E
  8
0
  6
CONTINUOUS
 62
   210
 10
8.7279224395752
 20
-4.0
 30
0.0
 11
-0.7720787525177
 21
-13.5
 31
0.0
  0
LINE
  5
   25F
  8
0
  6
CONTINUOUS
 62
   210
 10
10.8492431640625
 20
-4.0
 30
0.0
 11
1.34924149513245
 21
-13.5
 31
0.0
  0
LINE
  5
   260
  8
0
  6
CONTINUOUS
 62
   210
 10
12.9705638885498
 20
-4.0
 30
0.0
 11
3.47056174278259
 21
-13.5
 31
0.0
  0
LINE
  5
   261
  8
0
  6
CONTINUOUS
 62
   210
 10
15.0
 20
-4.09188365936279
 30
0.0
 11
5.59188270568848
 21
-13.5
 31
0.0
  0
LINE
  5
   262
  8
0
  6
CONTINUOUS
 62
   210
 10
15.0
 20
-6.21320390701294
 30
0.0
 11
7.71320295333862
 21
-13.5
 31
0.0
  0
LINE
  5
   263
  8
0
  6
CONTINUOUS
 62
   210
 10
15.0
 20
-8.33452415466309
 30
0.0
 11
9.83452320098877
 21
-13.5
 31
0.0
  0
LINE
  5
   264
  8
0
  6
CONTINUOUS
 62
   210
 10
15.0
 20
-10.4558448791504
 30
0.0
 11
11.9558429718018
 21
-13.5
 31
0.0
  0
LINE
  5
   265
  8
0
  6
CONTINUOUS
 62
   210
 10
15.0
 20
-12.5771656036377
 30
0.0
 11
14.0771636962891
 21
-13.5
 31
0.0
  0
ENDBLK
  5
   266
  8
0
  6
CONTINUOUS
 62
     0
  0
BLOCK
  5
   267
  8
0
  6
CONTINUOUS
 62
     0
  2
*HATCH1053
 70
    65
 10
0.0
 20
0.0
 30
0.0
  3
*HATCH1053
  0
LINE
  5
   268
  8
0
  6
CONTINUOUS
 62
   210
 10
15.0
 20
-29.5477275848389
 30
0.0
 11
13.0
 21
-31.5477256774902
 31
0.0
  0
LINE
  5
   269
  8
0
  6
CONTINUOUS
 62
   210
 10
15.0
 20
-31.6690483093262
 30
0.0
 11
13.0
 21
-33.6690444946289
 31
0.0
  0
LINE
  5
   26A
  8
0
  6
CONTINUOUS
 62
   210
 10
15.0
 20
-33.7903671264648
 30
0.0
 11
13.0
 21
-35.7903633117676
 31
0.0
  0
LINE
  5
   26B
  8
0
  6
CONTINUOUS
 62
   210
 10
15.0
 20
-35.9116859436035
 30
0.0
 11
13.0
 21
-37.9116821289063
 31
0.0
  0
LINE
  5
   26C
  8
0
  6
CONTINUOUS
 62
   210
 10
15.0
 20
-38.0330047607422
 30
0.0
 11
13.0
 21
-40.0330009460449
 31
0.0
  0
LINE
  5
   26D
  8
0
  6
CONTINUOUS
 62
   210
 10
15.0
 20
-40.1543273925781
 30
0.0
 11
14.1543283462524
 21
-41.0
 31
0.0
  0
ENDBLK
  5
   26E
  8
0
  6
CONTINUOUS
 62
     0
  0
BLOCK
  5
   26F
  8
0
  6
CONTINUOUS
 62
     0
  2
*HATCH1054
 70
    65
 10
0.0
 20
0.0
 30
0.0
  3
*HATCH1054
  0
LINE
  5
   270
  8
0
  6
CONTINUOUS
 62
   210
 10
-4.04415702819824
 20
-29.5
 30
0.0
 11
-5.0
 21
-30.4558429718018
 31
0.0
  0
LINE
  5
   271
  8
0
  6
CONTINUOUS
 62
   210
 10
-3.0
 20
-30.5771636962891
 30
0.0
 11
-5.0
 21
-32.5771636962891
 31
0.0
  0
LINE
  5
   272
  8
0
  6
CONTINUOUS
 62
   210
 10
-3.0
 20
-32.6984825134277
 30
0.0
 11
-5.0
 21
-34.6984825134277
 31
0.0
  0
LINE
  5
   273
  8
0
  6
CONTINUOUS
 62
   210
 10
-3.0
 20
-34.8198013305664
 30
0.0
 11
-5.0
 21
-36.8198013305664
 31
0.0
  0
LINE
  5
   274
  8
0
  6
CONTINUOUS
 62
   210
 10
-3.0
 20
-36.9411201477051
 30
0.0
 11
-5.0
 21
-38.9411201477051
 31
0.0
  0
LINE
  5
   275
  8
0
  6
CONTINUOUS
 62
   210
 10
-3.0
 20
-39.062442779541
 30
0.0
 11
-4.93755578994751
 21
-41.0
 31
0.0
  0
ENDBLK
  5
   276
  8
0
  6
CONTINUOUS
 62
     0
  0
BLOCK
  5
   277
  8
0
  6
CONTINUOUS
 62
     0
  2
MORSETTO
 70
    64
 10
0.0
 20
0.0
 30
0.0
  3
MORSETTO
  0
LINE
  5
   278
  8
0
  6
CONTINUOUS
 62
     0
 10
0.0
 20
9.0
 30
0.0
 11
15.0
 21
9.0
 31
0.0
  0
LINE
  5
   279
  8
0
  6
CONTINUOUS
 62
     0
 10
15.0
 20
-41.0
 30
0.0
 11
15.0
 21
-4.0
 31
0.0
  0
LINE
  5
   27A
  8
0
  6
CONTINUOUS
 62
     0
 10
-5.0
 20
-41.0
 30
0.0
 11
15.0
 21
-41.0
 31
0.0
  0
LINE
  5
   27B
  8
0
  6
CONTINUOUS
 62
     0
 10
-5.0
 20
-41.0
 30
0.0
 11
-5.0
 21
-25.891847175276
 31
0.0
  0
LINE
  5
   27C
  8
0
  6
CONTINUOUS
 62
     0
 10
-5.0
 20
-10.5
 30
0.0
 11
0.0
 21
-10.5
 31
0.0
  0
LINE
  5
   27D
  8
0
  6
CONTINUOUS
 62
     0
 10
0.0
 20
-10.5
 30
0.0
 11
0.0
 21
-4.0
 31
0.0
  0
LINE
  5
   27E
  8
0
  6
CONTINUOUS
 62
     0
 10
-5.0
 20
4.0
 30
0.0
 11
15.5
 21
4.0
 31
0.0
  0
LINE
  5
   27F
  8
0
  6
CONTINUOUS
 62
     0
 10
-5.0
 20
-4.0
 30
0.0
 11
15.5
 21
-4.0
 31
0.0
  0
LINE
  5
   280
  8
0
  6
CONTINUOUS
 62
     0
 10
-5.0
 20
-13.5
 30
0.0
 11
15.0
 21
-13.5
 31
0.0
  0
LINE
  5
   281
  8
0
  6
CONTINUOUS
 62
     0
 10
-5.0
 20
-29.5
 30
0.0
 11
-3.0
 21
-29.5
 31
0.0
  0
INSERT
  5
   282
  8
0
  6
CONTINUOUS
 62
     0
  2
*HATCH1051
 10
0.0
 20
0.0
 30
0.0
  0
INSERT
  5
   283
  8
0
  6
CONTINUOUS
 62
     0
  2
*HATCH1052
 10
0.0
 20
0.0
 30
0.0
  0
LINE
  5
   284
  8
0
  6
CONTINUOUS
 62
     0
 10
-3.0
 20
-41.0
 30
0.0
 11
-3.0
 21
-26.891847175276
 31
0.0
  0
LINE
  5
   285
  8
0
  6
CONTINUOUS
 62
     0
 10
13.0
 20
-41.0
 30
0.0
 11
13.0
 21
-26.891847175276
 31
0.0
  0
LINE
  5
   286
  8
0
  6
CONTINUOUS
 62
     0
 10
-1.5
 20
-38.6
 30
0.0
 11
-1.5
 21
-26.891847175276
 31
0.0
  0
LINE
  5
   287
  8
0
  6
CONTINUOUS
 62
     0
 10
11.5
 20
-38.6
 30
0.0
 11
11.5
 21
-26.891847175276
 31
0.0
  0
LINE
  5
   288
  8
0
  6
DASHDOT
 62
     0
 10
5.0
 20
-47.3956063362547
 30
0.0
 11
5.0
 21
-25.1245433649944
 31
0.0
  0
LINE
  5
   289
  8
0
  6
CONTINUOUS
 62
     0
 10
-1.5
 20
-38.6
 30
0.0
 11
11.5
 21
-38.6
 31
0.0
  0
LINE
  5
   28A
  8
0
  6
CONTINUOUS
 62
     0
 10
-8.7
 20
-6.5
 30
0.0
 11
-8.7
 21
6.5
 31
0.0
  0
LINE
  5
   28B
  8
0
  6
CONTINUOUS
 62
     0
 10
-9.0
 20
-6.20000000000001
 30
0.0
 11
-9.0
 21
6.2
 31
0.0
  0
LINE
  5
   28C
  8
0
  6
CONTINUOUS
 62
     0
 10
-6.0
 20
-8.0
 30
0.0
 11
-6.0
 21
8.0
 31
0.0
  0
LINE
  5
   28D
  8
0
  6
CONTINUOUS
 62
     0
 10
-3.0
 20
-3.99999999999998
 30
0.0
 11
-3.0
 21
4.00000000000002
 31
0.0
  0
LINE
  5
   28E
  8
0
  6
CONTINUOUS
 62
     0
 10
-8.69999999999999
 20
6.5
 30
0.0
 11
-6.0
 21
6.5
 31
0.0
  0
LINE
  5
   28F
  8
0
  6
CONTINUOUS
 62
     0
 10
-6.0
 20
8.0
 30
0.0
 11
-5.0
 21
8.0
 31
0.0
  0
LINE
  5
   290
  8
0
  6
CONTINUOUS
 62
     0
 10
-9.0
 20
6.19999999999999
 30
0.0
 11
-8.7
 21
6.49999999999999
 31
0.0
  0
LINE
  5
   291
  8
0
  6
CONTINUOUS
 62
     0
 10
-8.7
 20
-6.5
 30
0.0
 11
-6.0
 21
-6.5
 31
0.0
  0
LINE
  5
   292
  8
0
  6
CONTINUOUS
 62
     0
 10
-9.0
 20
-6.2
 30
0.0
 11
-8.7
 21
-6.49999999999999
 31
0.0
  0
LINE
  5
   293
  8
0
  6
CONTINUOUS
 62
     0
 10
-6.0
 20
-8.0
 30
0.0
 11
-5.0
 21
-8.0
 31
0.0
  0
LINE
  5
   294
  8
0
  6
CONTINUOUS
 62
     0
 10
-3.0
 20
3.5
 30
0.0
 11
16.0
 21
3.5
 31
0.0
  0
LINE
  5
   295
  8
0
  6
CONTINUOUS
 62
     0
 10
-3.0
 20
-3.5
 30
0.0
 11
16.0
 21
-3.5
 31
0.0
  0
LINE
  5
   296
  8
0
  6
CONTINUOUS
 62
     0
 10
16.0
 20
-3.5
 30
0.0
 11
16.0
 21
3.5
 31
0.0
  0
LINE
  5
   297
  8
0
  6
CONTINUOUS
 62
     0
 10
15.5
 20
-4.0
 30
0.0
 11
15.5
 21
4.0
 31
0.0
  0
LINE
  5
   298
  8
0
  6
CONTINUOUS
 62
     0
 10
15.5
 20
4.0
 30
0.0
 11
16.0
 21
3.49999999999999
 31
0.0
  0
LINE
  5
   299
  8
0
  6
CONTINUOUS
 62
     0
 10
15.5
 20
-4.00000000000001
 30
0.0
 11
16.0
 21
-3.5
 31
0.0
  0
LINE
  5
   29A
  8
0
  6
CONTINUOUS
 62
     0
 10
8.99999809265137
 20
-4.0
 30
0.0
 11
9.49999999999999
 21
-4.0
 31
0.0
  0
LINE
  5
   29B
  8
0
  6
CONTINUOUS
 62
     0
 10
8.99999809265137
 20
4.0
 30
0.0
 11
9.49999999999999
 21
4.0
 31
0.0
  0
LINE
  5
   29C
  8
0
  6
CONTINUOUS
 62
     0
 10
-5.0
 20
-8.0
 30
0.0
 11
-5.0
 21
8.0
 31
0.0
  0
LINE
  5
   29D
  8
0
  6
CONTINUOUS
 62
     0
 10
0.0
 20
4.0
 30
0.0
 11
0.0
 21
9.0
 31
0.0
  0
LINE
  5
   29E
  8
0
  6
CONTINUOUS
 62
     0
 10
15.0
 20
4.0
 30
0.0
 11
15.0
 21
9.0
 31
0.0
  0
LINE
  5
   29F
  8
0
  6
CONTINUOUS
 62
     0
 10
-3.0
 20
-37.1
 30
0.0
 11
13.0
 21
-37.1
 31
0.0
  0
LINE
  5
   2A0
  8
0
  6
CONTINUOUS
 62
     0
 10
11.5
 20
-38.6
 30
0.0
 11
13.0
 21
-37.1
 31
0.0
  0
LINE
  5
   2A1
  8
0
  6
CONTINUOUS
 62
     0
 10
-3.0
 20
-37.1
 30
0.0
 11
-1.5
 21
-38.6
 31
0.0
  0
ARC
  5
   2A2
  8
0
  6
CONTINUOUS
 62
     0
 10
5.0
 20
-58.391847175276
 30
0.0
 40
32.5
 50
75.7499673021964
 51
104.250032697804
  0
LINE
  5
   2A3
  8
0
  6
CONTINUOUS
 62
     0
 10
-3.0
 20
-26.891847175276
 30
0.0
 11
13.0
 21
-26.891847175276
 31
0.0
  0
INSERT
  5
   2A4
  8
0
  6
CONTINUOUS
 62
     0
  2
*HATCH1053
 10
0.0
 20
0.0
 30
0.0
  0
INSERT
  5
   2A5
  8
0
  6
CONTINUOUS
 62
     0
  2
*HATCH1054
 10
0.0
 20
0.0
 30
0.0
  0
LINE
  5
   2A6
  8
0
  6
CONTINUOUS
 62
     0
 10
13.0
 20
-29.5
 30
0.0
 11
15.0
 21
-29.5
 31
0.0
  0
LINE
  5
   2A7
  8
0
  6
CONTINUOUS
 62
     0
 10
-5.0
 20
-13.5
 30
0.0
 11
-5.0
 21
-10.5
 31
0.0
  0
ENDBLK
  5
   2A8
  8
0
  6
CONTINUOUS
 62
     0
  0
BLOCK
  5
   2A9
  8
0
  6
CONTINUOUS
 62
    98
  2
*HATCH1055
 70
    65
 10
0.0
 20
0.0
 30
0.0
  3
*HATCH1055
  0
LINE
  5
   2AA
  8
0
  6
CONTINUOUS
 62
   210
 10
-62.5955009460449
 20
26.4999542236328
 30
0.0
 11
-64.7629089355469
 21
24.3325500488281
 31
0.0
  0
LINE
  5
   2AB
  8
0
  6
CONTINUOUS
 62
   210
 10
-58.3528633117676
 20
26.4999542236328
 30
0.0
 11
-60.8528633117676
 21
23.9999542236328
 31
0.0
  0
LINE
  5
   2AC
  8
0
  6
CONTINUOUS
 62
   210
 10
-54.1102256774902
 20
26.4999542236328
 30
0.0
 11
-56.6102256774902
 21
23.9999542236328
 31
0.0
  0
LINE
  5
   2AD
  8
0
  6
CONTINUOUS
 62
   210
 10
-49.8675880432129
 20
26.4999542236328
 30
0.0
 11
-52.3675880432129
 21
23.9999542236328
 31
0.0
  0
LINE
  5
   2AE
  8
0
  6
CONTINUOUS
 62
   210
 10
-45.6249504089355
 20
26.4999542236328
 30
0.0
 11
-48.1249504089356
 21
23.9999542236328
 31
0.0
  0
LINE
  5
   2AF
  8
0
  6
CONTINUOUS
 62
   210
 10
-42.4629058837891
 20
25.4193458557129
 30
0.0
 11
-44.4629058837891
 21
23.4193458557129
 31
0.0
  0
LINE
  5
   2B0
  8
0
  6
CONTINUOUS
 62
   210
 10
-42.4629058837891
 20
23.2980270385742
 30
0.0
 11
-44.4629058837891
 21
21.2980270385742
 31
0.0
  0
LINE
  5
   2B1
  8
0
  6
CONTINUOUS
 62
   210
 10
-42.4629058837891
 20
21.1767063140869
 30
0.0
 11
-44.4629058837891
 21
19.1767063140869
 31
0.0
  0
LINE
  5
   2B2
  8
0
  6
CONTINUOUS
 62
   210
 10
-42.4629058837891
 20
19.0553855895996
 30
0.0
 11
-44.4629058837891
 21
17.0553855895996
 31
0.0
  0
LINE
  5
   2B3
  8
0
  6
CONTINUOUS
 62
   210
 10
-20.8970146179199
 20
38.4999542236328
 30
0.0
 11
-21.4629058837891
 21
37.9340629577637
 31
0.0
  0
LINE
  5
   2B4
  8
0
  6
CONTINUOUS
 62
   210
 10
-55.3970336914063
 20
3.99993896484375
 30
0.0
 11
-57.8970184326172
 21
1.49995422363281
 31
0.0
  0
LINE
  5
   2B5
  8
0
  6
CONTINUOUS
 62
   210
 10
-42.4629058837891
 20
14.8127450942993
 30
0.0
 11
-44.4629058837891
 21
12.8127450942993
 31
0.0
  0
LINE
  5
   2B6
  8
0
  6
CONTINUOUS
 62
   210
 10
-19.4629058837891
 20
35.6914253234863
 30
0.0
 11
-21.4629058837891
 21
33.6914253234863
 31
0.0
  0
LINE
  5
   2B7
  8
0
  6
CONTINUOUS
 62
   210
 10
-51.1543922424316
 20
3.99993896484375
 30
0.0
 11
-53.6543769836426
 21
1.49995422363281
 31
0.0
  0
LINE
  5
   2B8
  8
0
  6
CONTINUOUS
 62
   210
 10
-42.4629058837891
 20
10.570104598999
 30
0.0
 11
-44.4629058837891
 21
8.57010459899902
 31
0.0
  0
LINE
  5
   2B9
  8
0
  6
CONTINUOUS
 62
   210
 10
-19.4629058837891
 20
31.4487857818604
 30
0.0
 11
-21.4629058837891
 21
29.4487838745117
 31
0.0
  0
LINE
  5
   2BA
  8
0
  6
CONTINUOUS
 62
   210
 10
-46.9117546081543
 20
3.99993896484375
 30
0.0
 11
-49.4117393493652
 21
1.49995422363281
 31
0.0
  0
LINE
  5
   2BB
  8
0
  6
CONTINUOUS
 62
   210
 10
-22.290412902832
 20
26.4999542236328
 30
0.0
 11
-23.4629058837891
 21
25.3274631500244
 31
0.0
  0
LINE
  5
   2BC
  8
0
  6
CONTINUOUS
 62
   210
 10
-44.7904319763184
 20
3.99993896484375
 30
0.0
 11
-47.2904167175293
 21
1.49995422363281
 31
0.0
  0
LINE
  5
   2BD
  8
0
  6
CONTINUOUS
 62
   210
 10
-42.4629058837891
 20
4.20614385604858
 30
0.0
 11
-45.1690940856934
 21
1.49995422363281
 31
0.0
  0
LINE
  5
   2BE
  8
0
  6
CONTINUOUS
 62
   210
 10
-21.4629058837891
 20
23.0848217010498
 30
0.0
 11
-23.4629058837891
 21
21.0848217010498
 31
0.0
  0
LINE
  5
   2BF
  8
0
  6
CONTINUOUS
 62
   210
 10
-21.4629058837891
 20
20.9635009765625
 30
0.0
 11
-23.4629058837891
 21
18.9635009765625
 31
0.0
  0
LINE
  5
   2C0
  8
0
  6
CONTINUOUS
 62
   210
 10
-21.4629058837891
 20
18.8421802520752
 30
0.0
 11
-23.4629058837891
 21
16.8421802520752
 31
0.0
  0
LINE
  5
   2C1
  8
0
  6
CONTINUOUS
 62
   210
 10
-21.4629058837891
 20
16.7208595275879
 30
0.0
 11
-23.4629058837891
 21
14.7208595275879
 31
0.0
  0
LINE
  5
   2C2
  8
0
  6
CONTINUOUS
 62
   210
 10
-21.4629058837891
 20
14.5995388031006
 30
0.0
 11
-23.4629058837891
 21
12.5995388031006
 31
0.0
  0
LINE
  5
   2C3
  8
0
  6
CONTINUOUS
 62
   210
 10
-21.4629058837891
 20
12.4782180786133
 30
0.0
 11
-23.4629058837891
 21
10.4782180786133
 31
0.0
  0
LINE
  5
   2C4
  8
0
  6
CONTINUOUS
 62
   210
 10
-21.4629058837891
 20
10.356897354126
 30
0.0
 11
-23.4629058837891
 21
8.35689735412598
 31
0.0
  0
LINE
  5
   2C5
  8
0
  6
CONTINUOUS
 62
   210
 10
-21.4629058837891
 20
8.23557662963867
 30
0.0
 11
-23.4629058837891
 21
6.23557710647583
 31
0.0
  0
LINE
  5
   2C6
  8
0
  6
CONTINUOUS
 62
   210
 10
-21.4629058837891
 20
6.11425638198853
 30
0.0
 11
-23.4629058837891
 21
4.11425685882568
 31
0.0
  0
LINE
  5
   2C7
  8
0
  6
CONTINUOUS
 62
   210
 10
-21.4559059143066
 20
3.99993896484375
 30
0.0
 11
-23.9558906555176
 21
1.49995422363281
 31
0.0
  0
LINE
  5
   2C8
  8
0
  6
CONTINUOUS
 62
   210
 10
-17.213264465332
 20
3.99993896484375
 30
0.0
 11
-19.713249206543
 21
1.49995422363281
 31
0.0
  0
LINE
  5
   2C9
  8
0
  6
CONTINUOUS
 62
   210
 10
-12.9706230163574
 20
3.99993896484375
 30
0.0
 11
-15.4706077575684
 21
1.49995422363281
 31
0.0
  0
LINE
  5
   2CA
  8
0
  6
CONTINUOUS
 62
   210
 10
-8.72798156738281
 20
3.99993896484375
 30
0.0
 11
-11.2279663085938
 21
1.49995422363281
 31
0.0
  0
LINE
  5
   2CB
  8
0
  6
CONTINUOUS
 62
   210
 10
-4.48534107208252
 20
3.99993896484375
 30
0.0
 11
-6.9853253364563
 21
1.49995422363281
 31
0.0
  0
LINE
  5
   2CC
  8
0
  6
CONTINUOUS
 62
   210
 10
-0.242700576782227
 20
3.99993896484375
 30
0.0
 11
-2.74268484115601
 21
1.49995422363281
 31
0.0
  0
LINE
  5
   2CD
  8
0
  6
CONTINUOUS
 62
   210
 10
3.99993991851807
 20
3.99993896484375
 30
0.0
 11
1.49995565414429
 21
1.49995422363281
 31
0.0
  0
LINE
  5
   2CE
  8
0
  6
CONTINUOUS
 62
   210
 10
4.23709487915039
 20
2.11577415466309
 30
0.0
 11
3.62127470970154
 21
1.49995422363281
 31
0.0
  0
ENDBLK
  5
   2CF
  8
0
  6
CONTINUOUS
 62
    98
  0
BLOCK
  5
   2D0
  8
0
  6
CONTINUOUS
 62
   218
  2
*HATCH1056
 70
    65
 10
0.0
 20
0.0
 30
0.0
  3
*HATCH1056
  0
LINE
  5
   2D1
  8
0
  6
CONTINUOUS
 62
     3
 10
-17.0614395141602
 20
116.581741333008
 30
0.0
 11
-19.9502468109131
 21
113.692932128906
 31
0.0
  0
LINE
  5
   2D2
  8
0
  6
CONTINUOUS
 62
     3
 10
-15.06764793396
 20
116.454208374023
 30
0.0
 11
-18.5889472961426
 21
112.932914733887
 31
0.0
  0
LINE
  5
   2D3
  8
0
  6
CONTINUOUS
 62
     3
 10
-13.4720983505249
 20
115.928436279297
 30
0.0
 11
-16.7580299377441
 21
112.642509460449
 31
0.0
  0
LINE
  5
   2D4
  8
0
  6
CONTINUOUS
 62
     3
 10
-12.5162143707275
 20
114.763000488281
 30
0.0
 11
-14.3529853820801
 21
112.926231384277
 31
0.0
  0
ENDBLK
  5
   2D5
  8
0
  6
CONTINUOUS
 62
   218
  0
BLOCK
  5
   2D6
  8
0
  6
CONTINUOUS
 62
     7
  2
*UDIM1469
 70
    65
 10
0.0
 20
0.0
 30
0.0
  3
*UDIM1469
  0
TEXT
  5
   2D7
  8
0
  6
CONTINUOUS
 62
     7
 10
-542.650224119735
 20
97.9823303283087
 30
0.0
 40
3.00000002980232
  1
18x18
 50
359.999999948034
 41
0.933333333333333
 72
     1
 11
-535.950224051823
 21
99.4823303371668
 31
0.0
 73
     2
  0
LINE
  5
   2D8
  8
0
  6
CONTINUOUS
 62
     7
 10
-542.8002252916
 20
76.2821529606158
 30
0.0
 11
-542.8002252916
 21
98.9823303222656
 31
0.0
  0
LINE
  5
   2D9
  8
0
  6
CONTINUOUS
 62
     7
 10
-549.000226245274
 20
77.0321273803711
 30
0.0
 11
-549.000226245274
 21
98.9823303222656
 31
0.0
  0
LINE
  5
   2DA
  8
0
  6
CONTINUOUS
 62
     7
 10
-529.250223985265
 20
96.9823303222656
 30
0.0
 11
-549.000226245274
 21
96.9823303222656
 31
0.0
  0
LINE
  5
   2DB
  8
0
  6
CONTINUOUS
 62
     7
 10
-539.845802014393
 20
97.5032747522173
 30
0.0
 11
-542.8002252916
 21
96.9823303222656
 31
0.0
  0
LINE
  5
   2DC
  8
0
  6
CONTINUOUS
 62
     7
 10
-542.8002252916
 20
96.9823303222656
 30
0.0
 11
-539.845802014393
 21
96.461385892314
 31
0.0
  0
LINE
  5
   2DD
  8
0
  6
CONTINUOUS
 62
     7
 10
-551.954649522481
 20
96.461385892314
 30
0.0
 11
-549.000226245274
 21
96.9823303222656
 31
0.0
  0
LINE
  5
   2DE
  8
0
  6
CONTINUOUS
 62
     7
 10
-549.000226245274
 20
96.9823303222656
 30
0.0
 11
-551.954649522481
 21
97.5032747522173
 31
0.0
  0
ENDBLK
  5
   2DF
  8
0
  6
CONTINUOUS
 62
     7
  0
BLOCK
  5
   2E0
  8
0
  6
CONTINUOUS
 62
     7
  2
*UDIM1470
 70
    65
 10
0.0
 20
0.0
 30
0.0
  3
*UDIM1470
  0
TEXT
  5
   2E1
  8
0
  6
CONTINUOUS
 62
     7
 10
-583.075546269449
 20
-33.7018467707286
 30
0.0
 40
3.00000002980232
  1
13,5
 50
89.9999999480344
 41
0.933333333333333
 72
     1
 11
-584.57554627955
 21
-28.4018467167193
 31
0.0
 73
     2
  0
LINE
  5
   2E2
  8
0
  6
CONTINUOUS
 62
     7
 10
-552.500226245274
 20
-44.7178981998736
 30
0.0
 11
-584.075546264648
 21
-44.7178981998736
 31
0.0
  0
LINE
  5
   2E3
  8
0
  6
CONTINUOUS
 62
     7
 10
-556.214896822562
 20
-37.9678981998736
 30
0.0
 11
-584.075546264648
 21
-37.9678981998736
 31
0.0
  0
LINE
  5
   2E4
  8
0
  6
CONTINUOUS
 62
     7
 10
-582.075546264648
 20
-44.7178981998736
 30
0.0
 11
-582.075546264648
 21
-23.1018466640685
 31
0.0
  0
LINE
  5
   2E5
  8
0
  6
CONTINUOUS
 62
     7
 10
-581.554601834697
 20
-47.6723214770806
 30
0.0
 11
-582.075546264648
 21
-44.7178981998736
 31
0.0
  0
LINE
  5
   2E6
  8
0
  6
CONTINUOUS
 62
     7
 10
-582.075546264648
 20
-44.7178981998736
 30
0.0
 11
-582.5964906946
 21
-47.6723214770806
 31
0.0
  0
LINE
  5
   2E7
  8
0
  6
CONTINUOUS
 62
     7
 10
-582.5964906946
 20
-35.0134749226666
 30
0.0
 11
-582.075546264648
 21
-37.9678981998736
 31
0.0
  0
LINE
  5
   2E8
  8
0
  6
CONTINUOUS
 62
     7
 10
-582.075546264648
 20
-37.9678981998736
 30
0.0
 11
-581.554601834697
 21
-35.0134749226666
 31
0.0
  0
ENDBLK
  5
   2E9
  8
0
  6
CONTINUOUS
 62
     7
  0
BLOCK
  5
   2EA
  8
0
  6
CONTINUOUS
 62
     7
  2
*UDIM1471
 70
    65
 10
0.0
 20
0.0
 30
0.0
  3
*UDIM1471
  0
TEXT
  5
   2EB
  8
0
  6
CONTINUOUS
 62
     7
 10
-579.706541288126
 20
-61.2428995562444
 30
0.0
 40
3.00000002980232
  1
16
 50
89.9999999480344
 41
0.933333333333333
 72
     1
 11
-581.206541300763
 21
-58.7428995300506
 31
0.0
 73
     2
  0
TEXT
  5
   2EC
  8
0
  6
CONTINUOUS
 62
     7
 10
-579.706541286858
 20
-64.3928995661785
 30
0.0
 40
3.00000002980232
  1
Ø
 50
89.9999999480344
 41
0.933333333333334
 72
     1
 11
-581.206541300763
 21
-63.2928995538924
 31
0.0
 73
     2
  0
LINE
  5
   2ED
  8
0
  6
CONTINUOUS
 62
     7
 10
-552.500226245274
 20
-52.7178981998736
 30
0.0
 11
-580.706541285862
 21
-52.7178981998736
 31
0.0
  0
LINE
  5
   2EE
  8
0
  6
CONTINUOUS
 62
     7
 10
-554.000226245274
 20
-44.7178981998736
 30
0.0
 11
-580.706541285862
 21
-44.7178981998736
 31
0.0
  0
LINE
  5
   2EF
  8
0
  6
CONTINUOUS
 62
     7
 10
-578.706541285862
 20
-64.39289956482
 30
0.0
 11
-578.706541285862
 21
-44.7178981998736
 31
0.0
  0
LINE
  5
   2F0
  8
0
  6
CONTINUOUS
 62
     7
 10
-579.227485715813
 20
-49.7634749226666
 30
0.0
 11
-578.706541285862
 21
-52.7178981998736
 31
0.0
  0
LINE
  5
   2F1
  8
0
  6
CONTINUOUS
 62
     7
 10
-578.706541285862
 20
-52.7178981998736
 30
0.0
 11
-578.18559685591
 21
-49.7634749226666
 31
0.0
  0
LINE
  5
   2F2
  8
0
  6
CONTINUOUS
 62
     7
 10
-578.18559685591
 20
-47.6723214770806
 30
0.0
 11
-578.706541285862
 21
-44.7178981998736
 31
0.0
  0
LINE
  5
   2F3
  8
0
  6
CONTINUOUS
 62
     7
 10
-578.706541285862
 20
-44.7178981998736
 30
0.0
 11
-579.227485715813
 21
-47.6723214770806
 31
0.0
  0
ENDBLK
  5
   2F4
  8
0
  6
CONTINUOUS
 62
     7
  0
BLOCK
  5
   2F5
  8
0
  6
CONTINUOUS
 62
     7
  2
*UDIM1472
 70
    65
 10
0.0
 20
0.0
 30
0.0
  3
*UDIM1472
  0
TEXT
  5
   2F6
  8
0
  6
CONTINUOUS
 62
     7
 10
-558.025221277611
 20
98.161407472958
 30
0.0
 40
3.00000002980232
  1
25
 50
359.999999948034
 41
0.933333333333333
 72
     1
 11
-555.525221251423
 21
99.6614074856043
 31
0.0
 73
     2
  0
LINE
  5
   2F7
  8
0
  6
CONTINUOUS
 62
     7
 10
-549.000226245274
 20
77.0321273803711
 30
0.0
 11
-549.000226245274
 21
99.1614074707031
 31
0.0
  0
LINE
  5
   2F8
  8
0
  6
CONTINUOUS
 62
     7
 10
-561.500213623047
 20
89.588232531828
 30
0.0
 11
-561.500213623047
 21
99.1614074707031
 31
0.0
  0
LINE
  5
   2F9
  8
0
  6
CONTINUOUS
 62
     7
 10
-549.000226245274
 20
97.1614074707031
 30
0.0
 11
-561.500213623047
 21
97.1614074707031
 31
0.0
  0
LINE
  5
   2FA
  8
0
  6
CONTINUOUS
 62
     7
 10
-551.954649522481
 20
96.6404630407515
 30
0.0
 11
-549.000226245274
 21
97.1614074707031
 31
0.0
  0
LINE
  5
   2FB
  8
0
  6
CONTINUOUS
 62
     7
 10
-549.000226245274
 20
97.1614074707031
 30
0.0
 11
-551.954649522481
 21
97.6823519006548
 31
0.0
  0
LINE
  5
   2FC
  8
0
  6
CONTINUOUS
 62
     7
 10
-558.54579034584
 20
97.6823519006548
 30
0.0
 11
-561.500213623047
 21
97.1614074707031
 31
0.0
  0
LINE
  5
   2FD
  8
0
  6
CONTINUOUS
 62
     7
 10
-561.500213623047
 20
97.1614074707031
 30
0.0
 11
-558.54579034584
 21
96.6404630407515
 31
0.0
  0
ENDBLK
  5
   2FE
  8
0
  6
CONTINUOUS
 62
     7
  0
BLOCK
  5
   2FF
  8
0
  6
CONTINUOUS
 62
     5
  2
*UDIM1473
 70
    65
 10
0.0
 20
0.0
 30
0.0
  3
*UDIM1473
  0
TEXT
  5
   300
  8
0
  6
CONTINUOUS
 62
     5
 10
-583.541862495129
 20
35.8446501773419
 30
0.0
 40
3.00000002980232
  1
107,25
 50
89.9999999480344
 41
0.933333333333333
 72
     1
 11
-585.041862502694
 21
43.9446502591668
 31
0.0
 73
     2
  0
LINE
  5
   301
  8
0
  6
CONTINUOUS
 62
     5
 10
-570.379350796083
 20
17.4071444701972
 30
0.0
 11
-584.541862487793
 21
17.4071444701972
 31
0.0
  0
LINE
  5
   302
  8
0
  6
CONTINUOUS
 62
     5
 10
-556.214896822562
 20
71.0321529606158
 30
0.0
 11
-584.541862487793
 21
71.0321529606158
 31
0.0
  0
LINE
  5
   303
  8
0
  6
CONTINUOUS
 62
     5
 10
-582.541862487793
 20
17.4071444701972
 30
0.0
 11
-582.541862487793
 21
71.0321529606158
 31
0.0
  0
LINE
  5
   304
  8
0
  6
CONTINUOUS
 62
     5
 10
-583.062806917745
 20
20.3615677474041
 30
0.0
 11
-582.541862487793
 21
17.4071444701972
 31
0.0
  0
LINE
  5
   305
  8
0
  6
CONTINUOUS
 62
     5
 10
-582.541862487793
 20
17.4071444701972
 30
0.0
 11
-582.020918057841
 21
20.3615677474041
 31
0.0
  0
LINE
  5
   306
  8
0
  6
CONTINUOUS
 62
     5
 10
-582.020918057841
 20
68.0777296834088
 30
0.0
 11
-582.541862487793
 21
71.0321529606158
 31
0.0
  0
LINE
  5
   307
  8
0
  6
CONTINUOUS
 62
     5
 10
-582.541862487793
 20
71.0321529606158
 30
0.0
 11
-583.062806917745
 21
68.0777296834088
 31
0.0
  0
ENDBLK
  5
   308
  8
0
  6
CONTINUOUS
 62
     5
  0
BLOCK
  5
   309
  8
0
  6
CONTINUOUS
 62
     7
  2
*UDIM1474
 70
    65
 10
0.0
 20
0.0
 30
0.0
  3
*UDIM1474
  0
TEXT
  5
   30A
  8
0
  6
CONTINUOUS
 62
     7
 10
-504.000218499066
 20
-93.9174728383633
 30
0.0
 40
3.00000002980232
  1
2
 50
359.999999948034
 41
0.933333333333334
 72
     1
 11
-502.900218486786
 21
-92.4174728244543
 31
0.0
 73
     2
  0
LINE
  5
   30B
  8
0
  6
CONTINUOUS
 62
     7
 10
-507.000218391418
 20
-51.048039141136
 30
0.0
 11
-507.000218391418
 21
-96.9174728393555
 31
0.0
  0
LINE
  5
   30C
  8
0
  6
CONTINUOUS
 62
     7
 10
-508.000218391419
 20
-51.6618322445843
 30
0.0
 11
-508.000218391419
 21
-96.9174728393555
 31
0.0
  0
LINE
  5
   30D
  8
0
  6
CONTINUOUS
 62
     7
 10
-501.800218475858
 20
-94.9174728393555
 30
0.0
 11
-508.000218391419
 21
-94.9174728393555
 31
0.0
  0
LINE
  5
   30E
  8
0
  6
CONTINUOUS
 62
     7
 10
-504.045795114212
 20
-94.3965284094038
 30
0.0
 11
-507.000218391418
 21
-94.9174728393555
 31
0.0
  0
LINE
  5
   30F
  8
0
  6
CONTINUOUS
 62
     7
 10
-507.000218391418
 20
-94.9174728393555
 30
0.0
 11
-504.045795114212
 21
-95.4384172693071
 31
0.0
  0
LINE
  5
   310
  8
0
  6
CONTINUOUS
 62
     7
 10
-510.954641668625
 20
-95.4384172693071
 30
0.0
 11
-508.000218391419
 21
-94.9174728393555
 31
0.0
  0
LINE
  5
   311
  8
0
  6
CONTINUOUS
 62
     7
 10
-508.000218391419
 20
-94.9174728393555
 30
0.0
 11
-510.954641668625
 21
-94.3965284094038
 31
0.0
  0
ENDBLK
  5
   312
  8
0
  6
CONTINUOUS
 62
     7
  0
BLOCK
  5
   313
  8
0
  6
CONTINUOUS
 62
     7
  2
*UDIM1475
 70
    65
 10
0.0
 20
0.0
 30
0.0
  3
*UDIM1475
  0
TEXT
  5
   314
  8
0
  6
CONTINUOUS
 62
     7
 10
-538.925217483801
 20
-93.9174728358379
 30
0.0
 40
3.00000002980232
  1
107
 50
359.999999948034
 41
0.933333333333333
 72
     1
 11
-535.025217443705
 21
-92.4174728244543
 31
0.0
 73
     2
  0
LINE
  5
   315
  8
0
  6
CONTINUOUS
 62
     7
 10
-561.500213623047
 20
-44.8178981998736
 30
0.0
 11
-561.500213623047
 21
-96.9174728393555
 31
0.0
  0
LINE
  5
   316
  8
0
  6
CONTINUOUS
 62
     7
 10
-508.000218391419
 20
-94.9174728393555
 30
0.0
 11
-561.500213623047
 21
-94.9174728393555
 31
0.0
  0
LINE
  5
   317
  8
0
  6
CONTINUOUS
 62
     7
 10
-510.954641668625
 20
-95.4384172693071
 30
0.0
 11
-508.000218391419
 21
-94.9174728393555
 31
0.0
  0
LINE
  5
   318
  8
0
  6
CONTINUOUS
 62
     7
 10
-508.000218391419
 20
-94.9174728393555
 30
0.0
 11
-510.954641668625
 21
-94.3965284094038
 31
0.0
  0
LINE
  5
   319
  8
0
  6
CONTINUOUS
 62
     7
 10
-558.54579034584
 20
-94.3965284094038
 30
0.0
 11
-561.500213623047
 21
-94.9174728393555
 31
0.0
  0
LINE
  5
   31A
  8
0
  6
CONTINUOUS
 62
     7
 10
-561.500213623047
 20
-94.9174728393555
 30
0.0
 11
-558.54579034584
 21
-95.4384172693071
 31
0.0
  0
ENDBLK
  5
   31B
  8
0
  6
CONTINUOUS
 62
     7
  0
BLOCK
  5
   31C
  8
0
  6
CONTINUOUS
 62
     7
  2
*UDIM1476
 70
    65
 10
0.0
 20
0.0
 30
0.0
  3
*UDIM1476
  0
TEXT
  5
   31D
  8
0
  6
CONTINUOUS
 62
     7
 10
-542.600217507236
 20
-87.7850341736445
 30
0.0
 40
3.00000002980232
  1
103,5
 50
359.999999948034
 41
0.933333333333333
 72
     1
 11
-535.900217439325
 21
-86.2850341647863
 31
0.0
 73
     2
  0
LINE
  5
   31E
  8
0
  6
CONTINUOUS
 62
     7
 10
-509.750221566358
 20
-9.8428402710137
 30
0.0
 11
-509.750246975447
 21
-90.7850341796874
 31
0.0
  0
LINE
  5
   31F
  8
0
  6
CONTINUOUS
 62
     7
 10
-561.500213936963
 20
-44.8178981998735
 30
0.0
 11
-561.500228366805
 21
-90.7850341796874
 31
0.0
  0
LINE
  5
   320
  8
0
  6
CONTINUOUS
 62
     7
 10
-509.750246347614
 20
-88.7850341796875
 30
0.0
 11
-561.500227738972
 21
-88.7850341796875
 31
0.0
  0
LINE
  5
   321
  8
0
  6
CONTINUOUS
 62
     7
 10
-512.70466962482
 20
-89.3059786096392
 30
0.0
 11
-509.750246347614
 21
-88.7850341796875
 31
0.0
  0
LINE
  5
   322
  8
0
  6
CONTINUOUS
 62
     7
 10
-509.750246347614
 20
-88.7850341796875
 30
0.0
 11
-512.70466962482
 21
-88.2640897497358
 31
0.0
  0
LINE
  5
   323
  8
0
  6
CONTINUOUS
 62
     7
 10
-558.545804461765
 20
-88.2640897497358
 30
0.0
 11
-561.500227738972
 21
-88.7850341796875
 31
0.0
  0
LINE
  5
   324
  8
0
  6
CONTINUOUS
 62
     7
 10
-561.500227738972
 20
-88.7850341796875
 30
0.0
 11
-558.545804461765
 21
-89.3059786096392
 31
0.0
  0
ENDBLK
  5
   325
  8
0
  6
CONTINUOUS
 62
     7
  0
BLOCK
  5
   326
  8
0
  6
CONTINUOUS
 62
     7
  2
*UDIM1477
 70
    65
 10
0.0
 20
0.0
 30
0.0
  3
*UDIM1477
  0
TEXT
  5
   327
  8
0
  6
CONTINUOUS
 62
     7
 10
-568.750213541505
 20
-87.7850341786954
 30
0.0
 40
3.00000002980232
  1
3
 50
359.999999948034
 41
0.933333333333334
 72
     1
 11
-567.650213529224
 21
-86.2850341647863
 31
0.0
 73
     2
  0
TEXT
  5
   328
  8
0
  6
CONTINUOUS
 62
     7
 10
-571.500213575281
 20
-87.7850341786954
 30
0.0
 40
3.00000002980232
  1
_
 50
359.999999948034
 41
0.933333333333334
 72
     1
 11
-570.400213563
 21
-86.2850341647863
 31
0.0
 73
     2
  0
LINE
  5
   329
  8
0
  6
CONTINUOUS
 62
     7
 10
-563.000213936963
 20
-44.8178981998735
 30
0.0
 11
-563.000228366805
 21
-90.7850341796874
 31
0.0
  0
LINE
  5
   32A
  8
0
  6
CONTINUOUS
 62
     7
 10
-561.500227738972
 20
-88.7850341796875
 30
0.0
 11
-571.500213573928
 21
-88.7850341796875
 31
0.0
  0
LINE
  5
   32B
  8
0
  6
CONTINUOUS
 62
     7
 10
-558.545804461765
 20
-88.2640897497358
 30
0.0
 11
-561.500227738972
 21
-88.7850341796875
 31
0.0
  0
LINE
  5
   32C
  8
0
  6
CONTINUOUS
 62
     7
 10
-561.500227738972
 20
-88.7850341796875
 30
0.0
 11
-558.545804461765
 21
-89.3059786096392
 31
0.0
  0
LINE
  5
   32D
  8
0
  6
CONTINUOUS
 62
     7
 10
-565.954651016179
 20
-89.3059786096392
 30
0.0
 11
-563.000227738972
 21
-88.7850341796875
 31
0.0
  0
LINE
  5
   32E
  8
0
  6
CONTINUOUS
 62
     7
 10
-563.000227738972
 20
-88.7850341796875
 30
0.0
 11
-565.954651016179
 21
-88.2640897497358
 31
0.0
  0
ENDBLK
  5
   32F
  8
0
  6
CONTINUOUS
 62
     7
  0
BLOCK
  5
   330
  8
0
  6
CONTINUOUS
 62
     7
  2
*UDIM1478
 70
    65
 10
0.0
 20
0.0
 30
0.0
  3
*UDIM1478
  0
TEXT
  5
   331
  8
0
  6
CONTINUOUS
 62
     7
 10
-502.424827577948
 20
-38.0023643436879
 30
0.0
 40
3.00000002980232
  1
11
 50
89.9999999480344
 41
0.933333333333333
 72
     1
 11
-503.924827590585
 21
-35.5023643174941
 31
0.0
 73
     2
  0
LINE
  5
   332
  8
0
  6
CONTINUOUS
 62
     7
 10
-540.148254805124
 20
-37.9678981998736
 30
0.0
 11
-499.424827575684
 21
-37.9678981998736
 31
0.0
  0
LINE
  5
   333
  8
0
  6
CONTINUOUS
 62
     7
 10
-539.798830792918
 20
-32.4678981998736
 30
0.0
 11
-499.424827575684
 21
-32.4678981998736
 31
0.0
  0
LINE
  5
   334
  8
0
  6
CONTINUOUS
 62
     7
 10
-501.424827575684
 20
-38.0023643423293
 30
0.0
 11
-501.424827575684
 21
-32.4678981998736
 31
0.0
  0
LINE
  5
   335
  8
0
  6
CONTINUOUS
 62
     7
 10
-500.903883145732
 20
-40.9223214770806
 30
0.0
 11
-501.424827575684
 21
-37.9678981998736
 31
0.0
  0
LINE
  5
   336
  8
0
  6
CONTINUOUS
 62
     7
 10
-501.424827575684
 20
-37.9678981998736
 30
0.0
 11
-501.945772005635
 21
-40.9223214770806
 31
0.0
  0
LINE
  5
   337
  8
0
  6
CONTINUOUS
 62
     7
 10
-501.945772005635
 20
-29.5134749226666
 30
0.0
 11
-501.424827575684
 21
-32.4678981998736
 31
0.0
  0
LINE
  5
   338
  8
0
  6
CONTINUOUS
 62
     7
 10
-501.424827575684
 20
-32.4678981998736
 30
0.0
 11
-500.903883145732
 21
-29.5134749226666
 31
0.0
  0
ENDBLK
  5
   339
  8
0
  6
CONTINUOUS
 62
     7
  0
BLOCK
  5
   33A
  8
0
  6
CONTINUOUS
 62
     7
  2
*UDIM1479
 70
    65
 10
0.0
 20
0.0
 30
0.0
  3
*UDIM1479
  0
TEXT
  5
   33B
  8
0
  6
CONTINUOUS
 62
     7
 10
-543.10021751871
 20
105.137969976746
 30
0.0
 40
3.00000002980232
  1
101,5
 50
359.999999948034
 41
0.933333333333333
 72
     1
 11
-536.400217450799
 21
106.637969985604
 31
0.0
 73
     2
  0
LINE
  5
   33C
  8
0
  6
CONTINUOUS
 62
     7
 10
-510.750220730216
 20
68.782144470197
 30
0.0
 11
-510.750201222063
 21
106.137969970703
 31
0.0
  0
LINE
  5
   33D
  8
0
  6
CONTINUOUS
 62
     7
 10
-561.500210636129
 20
89.5882325318235
 30
0.0
 11
-561.500161203427
 21
106.137969970694
 31
0.0
  0
LINE
  5
   33E
  8
0
  6
CONTINUOUS
 62
     7
 10
-510.750202266514
 20
104.137969970703
 30
0.0
 11
-561.500167177263
 21
104.137969970703
 31
0.0
  0
LINE
  5
   33F
  8
0
  6
CONTINUOUS
 62
     7
 10
-513.704625543721
 20
103.617025540751
 30
0.0
 11
-510.750202266514
 21
104.137969970703
 31
0.0
  0
LINE
  5
   340
  8
0
  6
CONTINUOUS
 62
     7
 10
-510.750202266514
 20
104.137969970703
 30
0.0
 11
-513.704625543721
 21
104.658914400655
 31
0.0
  0
LINE
  5
   341
  8
0
  6
CONTINUOUS
 62
     7
 10
-558.545743900056
 20
104.658914400655
 30
0.0
 11
-561.500167177263
 21
104.137969970703
 31
0.0
  0
LINE
  5
   342
  8
0
  6
CONTINUOUS
 62
     7
 10
-561.500167177263
 20
104.137969970703
 30
0.0
 11
-558.545743900056
 21
103.617025540751
 31
0.0
  0
ENDBLK
  5
   343
  8
0
  6
CONTINUOUS
 62
     7
  0
BLOCK
  5
   344
  8
0
  6
CONTINUOUS
 62
     7
  2
*UDIM1480
 70
    65
 10
0.0
 20
0.0
 30
0.0
  3
*UDIM1480
  0
TEXT
  5
   345
  8
0
  6
CONTINUOUS
 62
     7
 10
-480.804222109198
 20
66.6850753511897
 30
0.0
 40
3.00000002980232
  1
11
 50
89.9999999480344
 41
0.933333333333333
 72
     1
 11
-482.304222121835
 21
69.1850753773835
 31
0.0
 73
     2
  0
LINE
  5
   346
  8
0
  6
CONTINUOUS
 62
     7
 10
-541.223089829915
 20
65.5321273803711
 30
0.0
 11
-477.804222106934
 21
65.5321273803711
 31
0.0
  0
LINE
  5
   347
  8
0
  6
CONTINUOUS
 62
     7
 10
-540.148254805124
 20
71.0321529606158
 30
0.0
 11
-477.804222106934
 21
71.0321529606158
 31
0.0
  0
LINE
  5
   348
  8
0
  6
CONTINUOUS
 62
     7
 10
-479.804222106934
 20
65.5321273803711
 30
0.0
 11
-479.804222106934
 21
71.6850754022188
 31
0.0
  0
LINE
  5
   349
  8
0
  6
CONTINUOUS
 62
     7
 10
-479.283277676982
 20
62.5777041031641
 30
0.0
 11
-479.804222106934
 21
65.5321273803711
 31
0.0
  0
LINE
  5
   34A
  8
0
  6
CONTINUOUS
 62
     7
 10
-479.804222106934
 20
65.5321273803711
 30
0.0
 11
-480.325166536885
 21
62.5777041031641
 31
0.0
  0
LINE
  5
   34B
  8
0
  6
CONTINUOUS
 62
     7
 10
-480.325166536885
 20
73.9865762378227
 30
0.0
 11
-479.804222106934
 21
71.0321529606158
 31
0.0
  0
LINE
  5
   34C
  8
0
  6
CONTINUOUS
 62
     7
 10
-479.804222106934
 20
71.0321529606158
 30
0.0
 11
-479.283277676982
 21
73.9865762378227
 31
0.0
  0
ENDBLK
  5
   34D
  8
0
  6
CONTINUOUS
 62
     7
  0
BLOCK
  5
   34E
  8
0
  6
CONTINUOUS
 62
     7
  2
*UDIM1481
 70
    65
 10
0.0
 20
0.0
 30
0.0
  3
*UDIM1481
  0
TEXT
  5
   34F
  8
0
  6
CONTINUOUS
 62
     7
 10
-593.127601627068
 20
12.3571235196118
 30
0.0
 40
3.00000002980232
  1
218
 50
89.9999999480344
 41
0.933333333333333
 72
     1
 11
-594.627601638436
 21
16.2571235597134
 31
0.0
 73
     2
  0
LINE
  5
   350
  8
0
  6
CONTINUOUS
 62
     7
 10
-556.214896822562
 20
-37.9678981998736
 30
0.0
 11
-594.127601623535
 21
-37.9678981998736
 31
0.0
  0
LINE
  5
   351
  8
0
  6
CONTINUOUS
 62
     7
 10
-556.214896822562
 20
71.0321529606158
 30
0.0
 11
-594.127601623535
 21
71.0321529606158
 31
0.0
  0
LINE
  5
   352
  8
0
  6
CONTINUOUS
 62
     7
 10
-592.127601623535
 20
-37.9678981998736
 30
0.0
 11
-592.127601623535
 21
71.0321529606158
 31
0.0
  0
LINE
  5
   353
  8
0
  6
CONTINUOUS
 62
     7
 10
-592.648546053487
 20
-35.0134749226666
 30
0.0
 11
-592.127601623535
 21
-37.9678981998736
 31
0.0
  0
LINE
  5
   354
  8
0
  6
CONTINUOUS
 62
     7
 10
-592.127601623535
 20
-37.9678981998736
 30
0.0
 11
-591.606657193584
 21
-35.0134749226666
 31
0.0
  0
LINE
  5
   355
  8
0
  6
CONTINUOUS
 62
     7
 10
-591.606657193584
 20
68.0777296834088
 30
0.0
 11
-592.127601623535
 21
71.0321529606158
 31
0.0
  0
LINE
  5
   356
  8
0
  6
CONTINUOUS
 62
     7
 10
-592.127601623535
 20
71.0321529606158
 30
0.0
 11
-592.648546053487
 21
68.0777296834088
 31
0.0
  0
ENDBLK
  5
   357
  8
0
  6
CONTINUOUS
 62
     7
  0
BLOCK
  5
   358
  8
0
  6
CONTINUOUS
 62
     7
  2
*UDIM1482
 70
    65
 10
0.0
 20
0.0
 30
0.0
  3
*UDIM1482
  0
TEXT
  5
   359
  8
0
  6
CONTINUOUS
 62
     7
 10
-531.914196816716
 20
-101.47945403701
 30
0.0
 40
3.00000002980232
  1
135
 50
359.999999948034
 41
0.933333333333333
 72
     1
 11
-528.01419677662
 21
-99.9794540256262
 31
0.0
 73
     2
  0
LINE
  5
   35A
  8
0
  6
CONTINUOUS
 62
     7
 10
-493.978180320635
 20
11.2821597289863
 30
0.0
 11
-493.978223523428
 21
-104.479454040527
 31
0.0
  0
LINE
  5
   35B
  8
0
  6
CONTINUOUS
 62
     7
 10
-561.500213936963
 20
-44.8178981998735
 30
0.0
 11
-561.500232665709
 21
-104.479454040527
 31
0.0
  0
LINE
  5
   35C
  8
0
  6
CONTINUOUS
 62
     7
 10
-493.978222777018
 20
-102.479454040527
 30
0.0
 11
-561.500232037876
 21
-102.479454040527
 31
0.0
  0
LINE
  5
   35D
  8
0
  6
CONTINUOUS
 62
     7
 10
-496.932646054225
 20
-103.000398470479
 30
0.0
 11
-493.978222777018
 21
-102.479454040527
 31
0.0
  0
LINE
  5
   35E
  8
0
  6
CONTINUOUS
 62
     7
 10
-493.978222777018
 20
-102.479454040527
 30
0.0
 11
-496.932646054225
 21
-101.958509610576
 31
0.0
  0
LINE
  5
   35F
  8
0
  6
CONTINUOUS
 62
     7
 10
-558.545808760669
 20
-101.958509610576
 30
0.0
 11
-561.500232037876
 21
-102.479454040527
 31
0.0
  0
LINE
  5
   360
  8
0
  6
CONTINUOUS
 62
     7
 10
-561.500232037876
 20
-102.479454040527
 30
0.0
 11
-558.545808760669
 21
-103.000398470479
 31
0.0
  0
ENDBLK
  5
   361
  8
0
  6
CONTINUOUS
 62
     7
  0
BLOCK
  5
   362
  8
0
  6
CONTINUOUS
 62
     7
  2
*UDIM1483
 70
    65
 10
0.0
 20
0.0
 30
0.0
  3
*UDIM1483
  0
TEXT
  5
   363
  8
0
  6
CONTINUOUS
 62
     7
 10
-476.811084750847
 20
13.232150235588
 30
0.0
 40
3.00000002980232
  1
105
 50
89.9999999480344
 41
0.933333333333333
 72
     1
 11
-478.311084762216
 21
17.1321502756896
 31
0.0
 73
     2
  0
LINE
  5
   364
  8
0
  6
CONTINUOUS
 62
     7
 10
-507.000218391418
 20
-8.84284027101375
 30
0.0
 11
-473.811084747314
 21
-8.84284027101375
 31
0.0
  0
LINE
  5
   365
  8
0
  6
CONTINUOUS
 62
     7
 10
-507.000218391418
 20
43.6571444701972
 30
0.0
 11
-473.811084747314
 21
43.6571444701972
 31
0.0
  0
LINE
  5
   366
  8
0
  6
CONTINUOUS
 62
     7
 10
-475.811084747315
 20
-8.84284027101375
 30
0.0
 11
-475.811084747315
 21
43.6571444701972
 31
0.0
  0
LINE
  5
   367
  8
0
  6
CONTINUOUS
 62
     7
 10
-476.332029177266
 20
-5.88841699380678
 30
0.0
 11
-475.811084747315
 21
-8.84284027101375
 31
0.0
  0
LINE
  5
   368
  8
0
  6
CONTINUOUS
 62
     7
 10
-475.811084747315
 20
-8.84284027101375
 30
0.0
 11
-475.290140317363
 21
-5.88841699380678
 31
0.0
  0
LINE
  5
   369
  8
0
  6
CONTINUOUS
 62
     7
 10
-475.290140317363
 20
40.7027211929902
 30
0.0
 11
-475.811084747315
 21
43.6571444701972
 31
0.0
  0
LINE
  5
   36A
  8
0
  6
CONTINUOUS
 62
     7
 10
-475.811084747315
 20
43.6571444701972
 30
0.0
 11
-476.332029177266
 21
40.7027211929902
 31
0.0
  0
ENDBLK
  5
   36B
  8
0
  6
CONTINUOUS
 62
     7
  0
BLOCK
  5
   36C
  8
0
  6
CONTINUOUS
 62
     0
  2
ON-OFF
 70
    64
 10
0.0
 20
0.0
 30
0.0
  3
ON-OFF
  0
LINE
  5
   36D
  8
0
  6
CONTINUOUS
 62
     0
 10
5.09999999999999
 20
-29.65
 30
0.0
 11
5.54999999999999
 21
-29.65
 31
0.0
  0
LINE
  5
   36E
  8
0
  6
CONTINUOUS
 62
     0
 10
3.79999999999999
 20
-37.35
 30
0.0
 11
4.59999999999999
 21
-37.35
 31
0.0
  0
LINE
  5
   36F
  8
0
  6
CONTINUOUS
 62
     0
 10
-2.6
 20
-34.75
 30
0.0
 11
-2.6
 21
-34.25
 31
0.0
  0
LINE
  5
   370
  8
0
  6
CONTINUOUS
 62
     0
 10
2.6
 20
-34.75
 30
0.0
 11
2.6
 21
-34.25
 31
0.0
  0
ARC
  5
   371
  8
0
  6
CONTINUOUS
 62
     0
 10
-3.5527136788005E-15
 20
-34.25
 30
0.0
 40
2.6
 50
0.0
 51
180.0
  0
ARC
  5
   372
  8
0
  6
CONTINUOUS
 62
     0
 10
-3.5527136788005E-15
 20
-34.75
 30
0.0
 40
2.6
 50
180.0
 51
360.0
  0
ARC
  5
   373
  8
0
  6
CONTINUOUS
 62
     0
 10
-3.5527136788005E-15
 20
-34.25
 30
0.0
 40
1.8
 50
0.0
 51
180.0
  0
ARC
  5
   374
  8
0
  6
CONTINUOUS
 62
     0
 10
-3.5527136788005E-15
 20
-34.75
 30
0.0
 40
1.8
 50
180.0
 51
360.0
  0
LINE
  5
   375
  8
0
  6
CONTINUOUS
 62
     0
 10
-1.8
 20
-34.75
 30
0.0
 11
-1.8
 21
-34.25
 31
0.0
  0
LINE
  5
   376
  8
0
  6
CONTINUOUS
 62
     0
 10
1.8
 20
-34.75
 30
0.0
 11
1.8
 21
-34.25
 31
0.0
  0
LINE
  5
   377
  8
0
  6
CONTINUOUS
 62
     0
 10
2.84999999999999
 20
-32.85
 30
0.0
 11
2.84999999999999
 21
-32.05
 31
0.0
  0
LINE
  5
   378
  8
0
  6
CONTINUOUS
 62
     0
 10
2.84999999999999
 20
-32.85
 30
0.0
 11
3.79999999999999
 21
-32.85
 31
0.0
  0
LINE
  5
   379
  8
0
  6
CONTINUOUS
 62
     0
 10
5.54999999999999
 20
-32.85
 30
0.0
 11
5.54999999999999
 21
-32.05
 31
0.0
  0
LINE
  5
   37A
  8
0
  6
CONTINUOUS
 62
     0
 10
2.84999999999999
 20
-32.05
 30
0.0
 11
3.79999999999999
 21
-32.05
 31
0.0
  0
LINE
  5
   37B
  8
0
  6
CONTINUOUS
 62
     0
 10
3.79999999999999
 20
-37.35
 30
0.0
 11
3.79999999999999
 21
-32.85
 31
0.0
  0
LINE
  5
   37C
  8
0
  6
CONTINUOUS
 62
     0
 10
4.59999999999999
 20
-37.35
 30
0.0
 11
4.59999999999999
 21
-32.85
 31
0.0
  0
LINE
  5
   37D
  8
0
  6
CONTINUOUS
 62
     0
 10
4.59999999999999
 20
-32.85
 30
0.0
 11
5.54999999999999
 21
-32.85
 31
0.0
  0
LINE
  5
   37E
  8
0
  6
CONTINUOUS
 62
     0
 10
4.59999999999999
 20
-32.05
 30
0.0
 11
5.54999999999999
 21
-32.05
 31
0.0
  0
LINE
  5
   37F
  8
0
  6
CONTINUOUS
 62
     0
 10
3.79999999999999
 20
-32.05
 30
0.0
 11
3.79999999999999
 21
-30.95
 31
0.0
  0
LINE
  5
   380
  8
0
  6
CONTINUOUS
 62
     0
 10
4.59999999999999
 20
-32.05
 30
0.0
 11
4.59999999999999
 21
-30.95
 31
0.0
  0
ARC
  5
   381
  8
0
  6
CONTINUOUS
 62
     0
 10
5.09999999999999
 20
-30.95
 30
0.0
 40
1.3
 50
89.9999999999999
 51
180.0
  0
ARC
  5
   382
  8
0
  6
CONTINUOUS
 62
     0
 10
5.09999999999999
 20
-30.95
 30
0.0
 40
0.5
 50
89.9999999999999
 51
180.0
  0
LINE
  5
   383
  8
0
  6
CONTINUOUS
 62
     0
 10
5.54999999999999
 20
-30.45
 30
0.0
 11
5.54999999999999
 21
-29.65
 31
0.0
  0
LINE
  5
   384
  8
0
  6
CONTINUOUS
 62
     0
 10
5.09999999999999
 20
-30.45
 30
0.0
 11
5.54999999999999
 21
-30.45
 31
0.0
  0
LINE
  5
   385
  8
0
  6
CONTINUOUS
 62
     0
 10
8.29999999999998
 20
-29.65
 30
0.0
 11
8.74999999999999
 21
-29.65
 31
0.0
  0
LINE
  5
   386
  8
0
  6
CONTINUOUS
 62
     0
 10
6.99999999999999
 20
-37.35
 30
0.0
 11
7.79999999999999
 21
-37.35
 31
0.0
  0
LINE
  5
   387
  8
0
  6
CONTINUOUS
 62
     0
 10
6.04999999999999
 20
-32.85
 30
0.0
 11
6.04999999999999
 21
-32.05
 31
0.0
  0
LINE
  5
   388
  8
0
  6
CONTINUOUS
 62
     0
 10
6.04999999999999
 20
-32.85
 30
0.0
 11
6.99999999999999
 21
-32.85
 31
0.0
  0
LINE
  5
   389
  8
0
  6
CONTINUOUS
 62
     0
 10
8.74999999999999
 20
-32.85
 30
0.0
 11
8.74999999999999
 21
-32.05
 31
0.0
  0
LINE
  5
   38A
  8
0
  6
CONTINUOUS
 62
     0
 10
6.04999999999999
 20
-32.05
 30
0.0
 11
6.99999999999999
 21
-32.05
 31
0.0
  0
LINE
  5
   38B
  8
0
  6
CONTINUOUS
 62
     0
 10
6.99999999999999
 20
-37.35
 30
0.0
 11
6.99999999999999
 21
-32.85
 31
0.0
  0
LINE
  5
   38C
  8
0
  6
CONTINUOUS
 62
     0
 10
7.79999999999999
 20
-37.35
 30
0.0
 11
7.79999999999999
 21
-32.85
 31
0.0
  0
LINE
  5
   38D
  8
0
  6
CONTINUOUS
 62
     0
 10
7.79999999999999
 20
-32.85
 30
0.0
 11
8.74999999999999
 21
-32.85
 31
0.0
  0
LINE
  5
   38E
  8
0
  6
CONTINUOUS
 62
     0
 10
7.79999999999999
 20
-32.05
 30
0.0
 11
8.74999999999999
 21
-32.05
 31
0.0
  0
LINE
  5
   38F
  8
0
  6
CONTINUOUS
 62
     0
 10
6.99999999999999
 20
-32.05
 30
0.0
 11
6.99999999999999
 21
-30.95
 31
0.0
  0
LINE
  5
   390
  8
0
  6
CONTINUOUS
 62
     0
 10
7.79999999999999
 20
-32.05
 30
0.0
 11
7.79999999999999
 21
-30.95
 31
0.0
  0
ARC
  5
   391
  8
0
  6
CONTINUOUS
 62
     0
 10
8.29999999999998
 20
-30.95
 30
0.0
 40
1.3
 50
89.9999999999999
 51
180.0
  0
ARC
  5
   392
  8
0
  6
CONTINUOUS
 62
     0
 10
8.29999999999998
 20
-30.95
 30
0.0
 40
0.5
 50
89.9999999999999
 51
180.0
  0
LINE
  5
   393
  8
0
  6
CONTINUOUS
 62
     0
 10
8.74999999999999
 20
-30.45
 30
0.0
 11
8.74999999999999
 21
-29.65
 31
0.0
  0
LINE
  5
   394
  8
0
  6
CONTINUOUS
 62
     0
 10
8.29999999999998
 20
-30.45
 30
0.0
 11
8.74999999999999
 21
-30.45
 31
0.0
  0
LINE
  5
   395
  8
0
  6
CONTINUOUS
 62
     0
 10
3.4
 20
-2.85000000000002
 30
0.0
 11
4.19999999999999
 21
-2.85000000000002
 31
0.0
  0
ARC
  5
   396
  8
0
  6
CONTINUOUS
 62
     0
 10
-3.5527136788005E-15
 20
0.249999999999979
 30
0.0
 40
2.6
 50
0.0
 51
180.0
  0
ARC
  5
   397
  8
0
  6
CONTINUOUS
 62
     0
 10
-3.5527136788005E-15
 20
0.249999999999979
 30
0.0
 40
1.8
 50
0.0
 51
180.0
  0
ARC
  5
   398
  8
0
  6
CONTINUOUS
 62
     0
 10
-3.5527136788005E-15
 20
-0.250000000000018
 30
0.0
 40
2.6
 50
180.0
 51
360.0
  0
ARC
  5
   399
  8
0
  6
CONTINUOUS
 62
     0
 10
-3.5527136788005E-15
 20
-0.250000000000018
 30
0.0
 40
1.8
 50
180.0
 51
360.0
  0
LINE
  5
   39A
  8
0
  6
CONTINUOUS
 62
     0
 10
1.8
 20
-0.250000000000018
 30
0.0
 11
1.8
 21
0.249999999999979
 31
0.0
  0
LINE
  5
   39B
  8
0
  6
CONTINUOUS
 62
     0
 10
2.6
 20
-0.250000000000018
 30
0.0
 11
2.6
 21
0.249999999999979
 31
0.0
  0
LINE
  5
   39C
  8
0
  6
CONTINUOUS
 62
     0
 10
-1.8
 20
-0.250000000000032
 30
0.0
 11
-1.8
 21
0.249999999999964
 31
0.0
  0
LINE
  5
   39D
  8
0
  6
CONTINUOUS
 62
     0
 10
-2.6
 20
-0.250000000000018
 30
0.0
 11
-2.6
 21
0.249999999999979
 31
0.0
  0
LINE
  5
   39E
  8
0
  6
CONTINUOUS
 62
     0
 10
3.4
 20
-2.85000000000002
 30
0.0
 11
3.4
 21
2.84999999999998
 31
0.0
  0
LINE
  5
   39F
  8
0
  6
CONTINUOUS
 62
     0
 10
4.19999999999999
 20
-2.85000000000002
 30
0.0
 11
4.19999999999999
 21
0.649999999999981
 31
0.0
  0
LINE
  5
   3A0
  8
0
  6
CONTINUOUS
 62
     0
 10
6.99999999999999
 20
-2.85000000000002
 30
0.0
 11
6.99999999999999
 21
0.649999999999981
 31
0.0
  0
LINE
  5
   3A1
  8
0
  6
CONTINUOUS
 62
     0
 10
7.79999999999999
 20
-2.85000000000002
 30
0.0
 11
7.79999999999999
 21
0.84999999999998
 31
0.0
  0
LINE
  5
   3A2
  8
0
  6
CONTINUOUS
 62
     0
 10
3.4
 20
2.84999999999998
 30
0.0
 11
4.19999999999999
 21
2.84999999999998
 31
0.0
  0
ARC
  5
   3A3
  8
0
  6
CONTINUOUS
 62
     0
 10
5.59999999999999
 20
0.649999999999981
 30
0.0
 40
1.4
 50
0.0
 51
180.0
  0
LINE
  5
   3A4
  8
0
  6
CONTINUOUS
 62
     0
 10
4.19999999999999
 20
2.05
 30
0.0
 11
4.19999999999999
 21
2.84999999999998
 31
0.0
  0
ARC
  5
   3A5
  8
0
  6
CONTINUOUS
 62
     0
 10
5.79999999999999
 20
0.84999999999998
 30
0.0
 40
2.0
 50
0.0
 51
143.130102354155
  0
LINE
  5
   3A6
  8
0
  6
CONTINUOUS
 62
     0
 10
6.99999999999999
 20
-2.85000000000002
 30
0.0
 11
7.79999999999999
 21
-2.85000000000002
 31
0.0
  0
ENDBLK
  5
   3A7
  8
0
  6
CONTINUOUS
 62
     0
  0
BLOCK
  5
   3A8
  8
0
  6
CONTINUOUS
 62
     0
  2
COPRITERM_PIANTA
 70
    64
 10
0.0
 20
0.0
 30
0.0
  3
COPRITERM_PIANTA
  0
LINE
  5
   3A9
  8
0
  6
CONTINUOUS
 62
     0
 10
-36.2143482848834
 20
0.0
 30
0.0
 11
51.5
 21
0.0
 31
0.0
  0
LINE
  5
   3AA
  8
0
  6
CONTINUOUS
 62
     0
 10
-35.970418085887
 20
01.0
 30
0.0
 11
51.5
 21
01.0
 31
0.0
  0
LINE
  5
   3AB
  8
0
  6
CONTINUOUS
 62
     0
 10
52.5
 20
01.0
 30
0.0
 11
52.5
 21
68.75
 31
0.0
  0
LINE
  5
   3AC
  8
0
  6
CONTINUOUS
 62
     0
 10
51.5
 20
0.0
 30
0.0
 11
51.5
 21
01.0
 31
0.0
  0
LINE
  5
   3AD
  8
0
  6
CONTINUOUS
 62
     0
 10
-16.6009643810488
 20
70.0
 30
0.0
 11
51.25
 21
70.0
 31
0.0
  0
ARC
  5
   3AE
  8
0
  6
CONTINUOUS
 62
     0
 10
51.25
 20
68.75
 30
0.0
 40
1.25
 50
0.0
 51
90.0
  0
LINE
  5
   3AF
  8
0
  6
CONTINUOUS
 62
     0
 10
48.9
 20
01.0
 30
0.0
 11
48.9
 21
70.0
 31
0.0
  0
LINE
  5
   3B0
  8
0
  6
CONTINUOUS
 62
     0
 10
45.3
 20
01.0
 30
0.0
 11
45.3
 21
70.0
 31
0.0
  0
LINE
  5
   3B1
  8
0
  6
CONTINUOUS
 62
     0
 10
41.7
 20
01.0
 30
0.0
 11
41.7
 21
70.0
 31
0.0
  0
LINE
  5
   3B2
  8
0
  6
CONTINUOUS
 62
     0
 10
38.1
 20
01.0
 30
0.0
 11
38.1
 21
70.0
 31
0.0
  0
LINE
  5
   3B3
  8
0
  6
CONTINUOUS
 62
     0
 10
34.5
 20
01.0
 30
0.0
 11
34.5
 21
70.0
 31
0.0
  0
LINE
  5
   3B4
  8
0
  6
CONTINUOUS
 62
     0
 10
30.9
 20
01.0
 30
0.0
 11
30.9
 21
70.0
 31
0.0
  0
LINE
  5
   3B5
  8
0
  6
CONTINUOUS
 62
     0
 10
27.3
 20
01.0
 30
0.0
 11
27.3
 21
70.0
 31
0.0
  0
LINE
  5
   3B6
  8
0
  6
CONTINUOUS
 62
     0
 10
23.7
 20
01.0
 30
0.0
 11
23.7
 21
70.0
 31
0.0
  0
LINE
  5
   3B7
  8
0
  6
CONTINUOUS
 62
     0
 10
20.1
 20
01.0
 30
0.0
 11
20.1
 21
70.0
 31
0.0
  0
LINE
  5
   3B8
  8
0
  6
CONTINUOUS
 62
     0
 10
16.5
 20
01.0
 30
0.0
 11
16.5
 21
70.0
 31
0.0
  0
LINE
  5
   3B9
  8
0
  6
CONTINUOUS
 62
     0
 10
12.9
 20
01.0
 30
0.0
 11
12.9
 21
70.0
 31
0.0
  0
LINE
  5
   3BA
  8
0
  6
CONTINUOUS
 62
     0
 10
9.29999999999999
 20
01.0
 30
0.0
 11
9.29999999999999
 21
70.0
 31
0.0
  0
LINE
  5
   3BB
  8
0
  6
CONTINUOUS
 62
     0
 10
5.69999999999999
 20
01.0
 30
0.0
 11
5.69999999999999
 21
70.0
 31
0.0
  0
LINE
  5
   3BC
  8
0
  6
CONTINUOUS
 62
     0
 10
2.09999999999999
 20
01.0
 30
0.0
 11
2.09999999999999
 21
70.0
 31
0.0
  0
LINE
  5
   3BD
  8
0
  6
CONTINUOUS
 62
     0
 10
-1.50000000000001
 20
01.0
 30
0.0
 11
-1.50000000000001
 21
70.0
 31
0.0
  0
LINE
  5
   3BE
  8
0
  6
CONTINUOUS
 62
     0
 10
-5.10000000000001
 20
01.0
 30
0.0
 11
-5.10000000000001
 21
70.0
 31
0.0
  0
LINE
  5
   3BF
  8
0
  6
CONTINUOUS
 62
     0
 10
-8.70000000000001
 20
01.0
 30
0.0
 11
-8.70000000000001
 21
70.0
 31
0.0
  0
LINE
  5
   3C0
  8
0
  6
CONTINUOUS
 62
     0
 10
-12.3
 20
01.0
 30
0.0
 11
-12.3
 21
70.0
 31
0.0
  0
LINE
  5
   3C1
  8
0
  6
CONTINUOUS
 62
     0
 10
-15.9
 20
01.0
 30
0.0
 11
-15.9
 21
70.0
 31
0.0
  0
LINE
  5
   3C2
  8
0
  6
CONTINUOUS
 62
     0
 10
-19.5
 20
01.0
 30
0.0
 11
-19.5
 21
65.5075118499747
 31
0.0
  0
LINE
  5
   3C3
  8
0
  6
CONTINUOUS
 62
     0
 10
-23.1
 20
01.0
 30
0.0
 11
-23.1
 21
52.0748462759993
 31
0.0
  0
LINE
  5
   3C4
  8
0
  6
CONTINUOUS
 62
     0
 10
-26.7
 20
01.0
 30
0.0
 11
-26.7
 21
28.484724929956
 31
0.0
  0
LINE
  5
   3C5
  8
0
  6
CONTINUOUS
 62
     0
 10
-30.3
 20
01.0
 30
0.0
 11
-30.3
 21
20.0288706052568
 31
0.0
  0
LINE
  5
   3C6
  8
0
  6
CONTINUOUS
 62
     0
 10
-33.9
 20
01.0
 30
0.0
 11
-33.9
 21
11.5426263490789
 31
0.0
  0
LINE
  5
   3C7
  8
0
  6
CONTINUOUS
 62
     0
 10
51.5
 20
01.0
 30
0.0
 11
52.5
 21
01.0
 31
0.0
  0
POLYLINE
  5
   3C8
  8
0
  6
CONTINUOUS
 62
     0
 66
     1
 10
0.0
 20
0.0
 30
0.0
  0
VERTEX
  5
   3C9
  8
0
  6
CONTINUOUS
 62
     0
 10
-16.6009643810488
 20
69.9998044772326
 30
0.0
 40
0.0
 41
0.0
  0
VERTEX
  5
   3CA
  8
0
  6
CONTINUOUS
 62
     0
 10
-16.8285696984956
 20
69.6845005010683
 30
0.0
 40
0.0
 41
0.0
  0
VERTEX
  5
   3CB
  8
0
  6
CONTINUOUS
 62
     0
 10
-17.0542505368215
 20
69.3671808596701
 30
0.0
 40
0.0
 41
0.0
  0
VERTEX
  5
   3CC
  8
0
  6
CONTINUOUS
 62
     0
 10
-17.277960000942
 20
69.0478385555066
 30
0.0
 40
0.0
 41
0.0
  0
VERTEX
  5
   3CD
  8
0
  6
CONTINUOUS
 62
     0
 10
-17.4996268405661
 20
68.7264629568419
 30
0.0
 40
0.0
 41
0.0
  0
VERTEX
  5
   3CE
  8
0
  6
CONTINUOUS
 62
     0
 10
-17.7191503179955
 20
68.4030390319254
 30
0.0
 40
0.0
 41
0.0
  0
VERTEX
  5
   3CF
  8
0
  6
CONTINUOUS
 62
     0
 10
-17.9363950759235
 20
68.0775465831816
 30
0.0
 40
0.0
 41
0.0
  0
VERTEX
  5
   3D0
  8
0
  6
CONTINUOUS
 62
     0
 10
-18.1511860052343
 20
67.7499594813996
 30
0.0
 40
0.0
 41
0.0
  0
VERTEX
  5
   3D1
  8
0
  6
CONTINUOUS
 62
     0
 10
-18.3633031128013
 20
67.4202448999232
 30
0.0
 40
0.0
 41
0.0
  0
VERTEX
  5
   3D2
  8
0
  6
CONTINUOUS
 62
     0
 10
-18.5724763892868
 20
67.0883625488401
 30
0.0
 40
0.0
 41
0.0
  0
VERTEX
  5
   3D3
  8
0
  6
CONTINUOUS
 62
     0
 10
-18.7783806769405
 20
66.754263909172
 30
0.0
 40
0.0
 41
0.0
  0
VERTEX
  5
   3D4
  8
0
  6
CONTINUOUS
 62
     0
 10
-19.0403176454829
 20
66.3168841247867
 30
0.0
 40
0.0
 41
0.0
  0
VERTEX
  5
   3D5
  8
0
  6
CONTINUOUS
 62
     0
 10
-19.1686674672656
 20
66.0967100028514
 30
0.0
 40
0.0
 41
0.0
  0
VERTEX
  5
   3D6
  8
0
  6
CONTINUOUS
 62
     0
 10
-19.2950916940275
 20
65.8755199585444
 30
0.0
 40
0.0
 41
0.0
  0
VERTEX
  5
   3D7
  8
0
  6
CONTINUOUS
 62
     0
 10
-19.4194479425524
 20
65.6532934213859
 30
0.0
 40
0.0
 41
0.0
  0
VERTEX
  5
   3D8
  8
0
  6
CONTINUOUS
 62
     0
 10
-19.541590225405
 20
65.4300097153931
 30
0.0
 40
0.0
 41
0.0
  0
VERTEX
  5
   3D9
  8
0
  6
CONTINUOUS
 62
     0
 10
-19.6613709595447
 20
65.2056484668756
 30
0.0
 40
0.0
 41
0.0
  0
VERTEX
  5
   3DA
  8
0
  6
CONTINUOUS
 62
     0
 10
-19.7786429749397
 20
64.9801900122305
 30
0.0
 40
0.0
 41
0.0
  0
VERTEX
  5
   3DB
  8
0
  6
CONTINUOUS
 62
     0
 10
-19.8932615231805
 20
64.7536158057385
 30
0.0
 40
0.0
 41
0.0
  0
VERTEX
  5
   3DC
  8
0
  6
CONTINUOUS
 62
     0
 10
-20.0050862860942
 20
64.5259088273587
 30
0.0
 40
0.0
 41
0.0
  0
VERTEX
  5
   3DD
  8
0
  6
CONTINUOUS
 62
     0
 10
-20.1139833843579
 20
64.2970539905247
 30
0.0
 40
0.0
 41
0.0
  0
VERTEX
  5
   3DE
  8
0
  6
CONTINUOUS
 62
     0
 10
-20.2198273861132
 20
64.0670385499397
 30
0.0
 40
0.0
 41
0.0
  0
VERTEX
  5
   3DF
  8
0
  6
CONTINUOUS
 62
     0
 10
-20.3225033155795
 20
63.8358525093719
 30
0.0
 40
0.0
 41
0.0
  0
VERTEX
  5
   3E0
  8
0
  6
CONTINUOUS
 62
     0
 10
-20.4219086616682
 20
63.6034890294504
 30
0.0
 40
0.0
 41
0.0
  0
VERTEX
  5
   3E1
  8
0
  6
CONTINUOUS
 62
     0
 10
-20.5179553865966
 20
63.3699448354601
 30
0.0
 40
0.0
 41
0.0
  0
VERTEX
  5
   3E2
  8
0
  6
CONTINUOUS
 62
     0
 10
-20.6105719345015
 20
63.1352206251377
 30
0.0
 40
0.0
 41
0.0
  0
VERTEX
  5
   3E3
  8
0
  6
CONTINUOUS
 62
     0
 10
-20.6997052400536
 20
62.899321476467
 30
0.0
 40
0.0
 41
0.0
  0
VERTEX
  5
   3E4
  8
0
  6
CONTINUOUS
 62
     0
 10
-20.7853227370709
 20
62.662257255474
 30
0.0
 40
0.0
 41
0.0
  0
VERTEX
  5
   3E5
  8
0
  6
CONTINUOUS
 62
     0
 10
-20.8674143671326
 20
62.4240430240232
 30
0.0
 40
0.0
 41
0.0
  0
VERTEX
  5
   3E6
  8
0
  6
CONTINUOUS
 62
     0
 10
-20.9459945881933
 20
62.184699447612
 30
0.0
 40
0.0
 41
0.0
  0
VERTEX
  5
   3E7
  8
0
  6
CONTINUOUS
 62
     0
 10
-21.0454038485206
 20
61.8637878857457
 30
0.0
 40
0.0
 41
0.0
  0
VERTEX
  5
   3E8
  8
0
  6
CONTINUOUS
 62
     0
 10
-21.1388165353278
 20
61.5409960857738
 30
0.0
 40
0.0
 41
0.0
  0
VERTEX
  5
   3E9
  8
0
  6
CONTINUOUS
 62
     0
 10
-21.2264865899689
 20
61.216422427373
 30
0.0
 40
0.0
 41
0.0
  0
VERTEX
  5
   3EA
  8
0
  6
CONTINUOUS
 62
     0
 10
-21.3087401021974
 20
60.8901812254568
 30
0.0
 40
0.0
 41
0.0
  0
VERTEX
  5
   3EB
  8
0
  6
CONTINUOUS
 62
     0
 10
-21.3859662510396
 20
60.5624005441187
 30
0.0
 40
0.0
 41
0.0
  0
VERTEX
  5
   3EC
  8
0
  6
CONTINUOUS
 62
     0
 10
-21.4586082456676
 20
60.2332200105748
 30
0.0
 40
0.0
 41
0.0
  0
VERTEX
  5
   3ED
  8
0
  6
CONTINUOUS
 62
     0
 10
-21.5271542662726
 20
59.9027886291069
 30
0.0
 40
0.0
 41
0.0
  0
VERTEX
  5
   3EE
  8
0
  6
CONTINUOUS
 62
     0
 10
-21.5921284049378
 20
59.5712625950049
 30
0.0
 40
0.0
 41
0.0
  0
VERTEX
  5
   3EF
  8
0
  6
CONTINUOUS
 62
     0
 10
-21.6540816065122
 20
59.2388031085097
 30
0.0
 40
0.0
 41
0.0
  0
VERTEX
  5
   3F0
  8
0
  6
CONTINUOUS
 62
     0
 10
-21.7135826094829
 20
58.9055741887562
 30
0.0
 40
0.0
 41
0.0
  0
VERTEX
  5
   3F1
  8
0
  6
CONTINUOUS
 62
     0
 10
-21.8275375869936
 20
58.2374651041406
 30
0.0
 40
0.0
 41
0.0
  0
VERTEX
  5
   3F2
  8
0
  6
CONTINUOUS
 62
     0
 10
-22.0509009103998
 20
56.8990319375851
 30
0.0
 40
0.0
 41
0.0
  0
VERTEX
  5
   3F3
  8
0
  6
CONTINUOUS
 62
     0
 10
-22.1682571742248
 20
56.2309244073073
 30
0.0
 40
0.0
 41
0.0
  0
VERTEX
  5
   3F4
  8
0
  6
CONTINUOUS
 62
     0
 10
-22.2297333042506
 20
55.897534468481
 30
0.0
 40
0.0
 41
0.0
  0
VERTEX
  5
   3F5
  8
0
  6
CONTINUOUS
 62
     0
 10
-22.2934302627559
 20
55.5646893943264
 30
0.0
 40
0.0
 41
0.0
  0
VERTEX
  5
   3F6
  8
0
  6
CONTINUOUS
 62
     0
 10
-22.3557354853142
 20
55.2510972010935
 30
0.0
 40
0.0
 41
0.0
  0
VERTEX
  5
   3F7
  8
0
  6
CONTINUOUS
 62
     0
 10
-22.4202371340446
 20
54.938060109809
 30
0.0
 40
0.0
 41
0.0
  0
VERTEX
  5
   3F8
  8
0
  6
CONTINUOUS
 62
     0
 10
-22.4869380387558
 20
54.6255854264623
 30
0.0
 40
0.0
 41
0.0
  0
VERTEX
  5
   3F9
  8
0
  6
CONTINUOUS
 62
     0
 10
-22.5557805984482
 20
54.3136649067298
 30
0.0
 40
0.0
 41
0.0
  0
VERTEX
  5
   3FA
  8
0
  6
CONTINUOUS
 62
     0
 10
-22.6993932407777
 20
53.6913847105151
 30
0.0
 40
0.0
 41
0.0
  0
VERTEX
  5
   3FB
  8
0
  6
CONTINUOUS
 62
     0
 10
-22.8496280384705
 20
53.0709000750149
 30
0.0
 40
0.0
 41
0.0
  0
VERTEX
  5
   3FC
  8
0
  6
CONTINUOUS
 62
     0
 10
-23.0044456471546
 20
52.4517396159364
 30
0.0
 40
0.0
 41
0.0
  0
VERTEX
  5
   3FD
  8
0
  6
CONTINUOUS
 62
     0
 10
-23.3178340243459
 20
51.2150365997683
 30
0.0
 40
0.0
 41
0.0
  0
VERTEX
  5
   3FE
  8
0
  6
CONTINUOUS
 62
     0
 10
-23.4710500651394
 20
50.5962274842903
 30
0.0
 40
0.0
 41
0.0
  0
VERTEX
  5
   3FF
  8
0
  6
CONTINUOUS
 62
     0
 10
-23.6185140326249
 20
49.9763062953261
 30
0.0
 40
0.0
 41
0.0
  0
VERTEX
  5
   400
  8
0
  6
CONTINUOUS
 62
     0
 10
-23.689385529285
 20
49.6657661451479
 30
0.0
 40
0.0
 41
0.0
  0
VERTEX
  5
   401
  8
0
  6
CONTINUOUS
 62
     0
 10
-23.7580342568457
 20
49.3547684593858
 30
0.0
 40
0.0
 41
0.0
  0
VERTEX
  5
   402
  8
0
  6
CONTINUOUS
 62
     0
 10
-23.8261661638193
 20
49.0341723826386
 30
0.0
 40
0.0
 41
0.0
  0
VERTEX
  5
   403
  8
0
  6
CONTINUOUS
 62
     0
 10
-23.8915839021856
 20
48.7130158242232
 30
0.0
 40
0.0
 41
0.0
  0
VERTEX
  5
   404
  8
0
  6
CONTINUOUS
 62
     0
 10
-23.9541752217177
 20
48.3912784672208
 30
0.0
 40
0.0
 41
0.0
  0
VERTEX
  5
   405
  8
0
  6
CONTINUOUS
 62
     0
 10
-24.0138715689811
 20
48.0689511431117
 30
0.0
 40
0.0
 41
0.0
  0
VERTEX
  5
   406
  8
0
  6
CONTINUOUS
 62
     0
 10
-24.0706447379133
 20
47.7460348461338
 30
0.0
 40
0.0
 41
0.0
  0
VERTEX
  5
   407
  8
0
  6
CONTINUOUS
 62
     0
 10
-24.1245035204037
 20
47.4225397476409
 30
0.0
 40
0.0
 41
0.0
  0
VERTEX
  5
   408
  8
0
  6
CONTINUOUS
 62
     0
 10
-24.1754903568743
 20
47.098484210461
 30
0.0
 40
0.0
 41
0.0
  0
VERTEX
  5
   409
  8
0
  6
CONTINUOUS
 62
     0
 10
-24.2236779868593
 20
46.7738938032545
 30
0.0
 40
0.0
 41
0.0
  0
VERTEX
  5
   40A
  8
0
  6
CONTINUOUS
 62
     0
 10
-24.269166099585
 20
46.4488003148727
 30
0.0
 40
0.0
 41
0.0
  0
VERTEX
  5
   40B
  8
0
  6
CONTINUOUS
 62
     0
 10
-24.3120779845506
 20
46.1232407687163
 30
0.0
 40
0.0
 41
0.0
  0
VERTEX
  5
   40C
  8
0
  6
CONTINUOUS
 62
     0
 10
-24.3525571821075
 20
45.797256437093
 30
0.0
 40
0.0
 41
0.0
  0
VERTEX
  5
   40D
  8
0
  6
CONTINUOUS
 62
     0
 10
-24.3907641340399
 20
45.4708918555766
 30
0.0
 40
0.0
 41
0.0
  0
VERTEX
  5
   40E
  8
0
  6
CONTINUOUS
 62
     0
 10
-24.4610674788112
 20
44.8172104876379
 30
0.0
 40
0.0
 41
0.0
  0
VERTEX
  5
   40F
  8
0
  6
CONTINUOUS
 62
     0
 10
-24.5244823038331
 20
44.1625807604213
 30
0.0
 40
0.0
 41
0.0
  0
VERTEX
  5
   410
  8
0
  6
CONTINUOUS
 62
     0
 10
-24.582558954121
 20
43.5073759006325
 30
0.0
 40
0.0
 41
0.0
  0
VERTEX
  5
   411
  8
0
  6
CONTINUOUS
 62
     0
 10
-24.6367966532995
 20
42.8519267256274
 30
0.0
 40
0.0
 41
0.0
  0
VERTEX
  5
   412
  8
0
  6
CONTINUOUS
 62
     0
 10
-24.7274896614957
 20
41.6905603860576
 30
0.0
 40
0.0
 41
0.0
  0
VERTEX
  5
   413
  8
0
  6
CONTINUOUS
 62
     0
 10
-24.906311852802
 20
39.370106060696
 30
0.0
 40
0.0
 41
0.0
  0
VERTEX
  5
   414
  8
0
  6
CONTINUOUS
 62
     0
 10
-25.0017191981835
 20
38.2108794345047
 30
0.0
 40
0.0
 41
0.0
  0
VERTEX
  5
   415
  8
0
  6
CONTINUOUS
 62
     0
 10
-25.0523207286696
 20
37.6314286125344
 30
0.0
 40
0.0
 41
0.0
  0
VERTEX
  5
   416
  8
0
  6
CONTINUOUS
 62
     0
 10
-25.1054699314082
 20
37.0520949090321
 30
0.0
 40
0.0
 41
0.0
  0
VERTEX
  5
   417
  8
0
  6
CONTINUOUS
 62
     0
 10
-25.1639784051286
 20
36.4505189577033
 30
0.0
 40
0.0
 41
0.0
  0
VERTEX
  5
   418
  8
0
  6
CONTINUOUS
 62
     0
 10
-25.2265906233469
 20
35.84923743966
 30
0.0
 40
0.0
 41
0.0
  0
VERTEX
  5
   419
  8
0
  6
CONTINUOUS
 62
     0
 10
-25.2941554040321
 20
35.2484129993449
 30
0.0
 40
0.0
 41
0.0
  0
VERTEX
  5
   41A
  8
0
  6
CONTINUOUS
 62
     0
 10
-25.3675928425452
 20
34.648252356466
 30
0.0
 40
0.0
 41
0.0
  0
VERTEX
  5
   41B
  8
0
  6
CONTINUOUS
 62
     0
 10
-25.4478632907993
 20
34.0489989749679
 30
0.0
 40
0.0
 41
0.0
  0
VERTEX
  5
   41C
  8
0
  6
CONTINUOUS
 62
     0
 10
-25.490864377168
 20
33.749796832851
 30
0.0
 40
0.0
 41
0.0
  0
VERTEX
  5
   41D
  8
0
  6
CONTINUOUS
 62
     0
 10
-25.5359363364188
 20
33.4509257320024
 30
0.0
 40
0.0
 41
0.0
  0
VERTEX
  5
   41E
  8
0
  6
CONTINUOUS
 62
     0
 10
-25.5831967207281
 20
33.1524231751328
 30
0.0
 40
0.0
 41
0.0
  0
VERTEX
  5
   41F
  8
0
  6
CONTINUOUS
 62
     0
 10
-25.6327597818989
 20
32.8543275868999
 30
0.0
 40
0.0
 41
0.0
  0
VERTEX
  5
   420
  8
0
  6
CONTINUOUS
 62
     0
 10
-25.68473550196
 20
32.5566780848133
 30
0.0
 40
0.0
 41
0.0
  0
VERTEX
  5
   421
  8
0
  6
CONTINUOUS
 62
     0
 10
-25.7392286237647
 20
32.2595142501405
 30
0.0
 40
0.0
 41
0.0
  0
VERTEX
  5
   422
  8
0
  6
CONTINUOUS
 62
     0
 10
-25.796337681589
 20
31.9628758988115
 30
0.0
 40
0.0
 41
0.0
  0
VERTEX
  5
   423
  8
0
  6
CONTINUOUS
 62
     0
 10
-25.8561540317311
 20
31.6668028523249
 30
0.0
 40
0.0
 41
0.0
  0
VERTEX
  5
   424
  8
0
  6
CONTINUOUS
 62
     0
 10
-25.9187608831095
 20
31.3713347086526
 30
0.0
 40
0.0
 41
0.0
  0
VERTEX
  5
   425
  8
0
  6
CONTINUOUS
 62
     0
 10
-25.984232327862
 20
31.0765106131457
 30
0.0
 40
0.0
 41
0.0
  0
VERTEX
  5
   426
  8
0
  6
CONTINUOUS
 62
     0
 10
-26.0529018109111
 20
30.7812364336979
 30
0.0
 40
0.0
 41
0.0
  0
VERTEX
  5
   427
  8
0
  6
CONTINUOUS
 62
     0
 10
-26.1245762501935
 20
30.4866879750927
 30
0.0
 40
0.0
 41
0.0
  0
VERTEX
  5
   428
  8
0
  6
CONTINUOUS
 62
     0
 10
-26.1992979641781
 20
30.1929018179772
 30
0.0
 40
0.0
 41
0.0
  0
VERTEX
  5
   429
  8
0
  6
CONTINUOUS
 62
     0
 10
-26.2770976551343
 20
29.899912755027
 30
0.0
 40
0.0
 41
0.0
  0
VERTEX
  5
   42A
  8
0
  6
CONTINUOUS
 62
     0
 10
-26.35799421456
 20
29.6077533594287
 30
0.0
 40
0.0
 41
0.0
  0
VERTEX
  5
   42B
  8
0
  6
CONTINUOUS
 62
     0
 10
-26.4419945286102
 20
29.3164535533629
 30
0.0
 40
0.0
 41
0.0
  0
VERTEX
  5
   42C
  8
0
  6
CONTINUOUS
 62
     0
 10
-26.529093283525
 20
29.0260401764869
 30
0.0
 40
0.0
 41
0.0
  0
VERTEX
  5
   42D
  8
0
  6
CONTINUOUS
 62
     0
 10
-26.6192727710578
 20
28.7365365544173
 30
0.0
 40
0.0
 41
0.0
  0
VERTEX
  5
   42E
  8
0
  6
CONTINUOUS
 62
     0
 10
-26.7125026939036
 20
28.4479620672132
 30
0.0
 40
0.0
 41
0.0
  0
VERTEX
  5
   42F
  8
0
  6
CONTINUOUS
 62
     0
 10
-26.8087399711272
 20
28.1603317178585
 30
0.0
 40
0.0
 41
0.0
  0
VERTEX
  5
   430
  8
0
  6
CONTINUOUS
 62
     0
 10
-26.9079285435912
 20
27.8736557007447
 30
0.0
 40
0.0
 41
0.0
  0
VERTEX
  5
   431
  8
0
  6
CONTINUOUS
 62
     0
 10
-27.0099991793847
 20
27.5879389701541
 30
0.0
 40
0.0
 41
0.0
  0
VERTEX
  5
   432
  8
0
  6
CONTINUOUS
 62
     0
 10
-27.114869279251
 20
27.3031808087418
 30
0.0
 40
0.0
 41
0.0
  0
VERTEX
  5
   433
  8
0
  6
CONTINUOUS
 62
     0
 10
-27.2224426820162
 20
27.0193743960194
 30
0.0
 40
0.0
 41
0.0
  0
VERTEX
  5
   434
  8
0
  6
CONTINUOUS
 62
     0
 10
-27.332609470017
 20
26.7365063768367
 30
0.0
 40
0.0
 41
0.0
  0
VERTEX
  5
   435
  8
0
  6
CONTINUOUS
 62
     0
 10
-27.4452457745294
 20
26.4545564298655
 30
0.0
 40
0.0
 41
0.0
  0
VERTEX
  5
   436
  8
0
  6
CONTINUOUS
 62
     0
 10
-27.5602135811966
 20
26.1734968360816
 30
0.0
 40
0.0
 41
0.0
  0
VERTEX
  5
   437
  8
0
  6
CONTINUOUS
 62
     0
 10
-27.6773605354573
 20
25.8932920472479
 30
0.0
 40
0.0
 41
0.0
  0
VERTEX
  5
   438
  8
0
  6
CONTINUOUS
 62
     0
 10
-27.9175096000605
 20
25.3352629563141
 30
0.0
 40
0.0
 41
0.0
  0
VERTEX
  5
   439
  8
0
  6
CONTINUOUS
 62
     0
 10
-28.1497780277908
 20
24.8120339635616
 30
0.0
 40
0.0
 41
0.0
  0
VERTEX
  5
   43A
  8
0
  6
CONTINUOUS
 62
     0
 10
-28.386396223811
 20
24.2907775570958
 30
0.0
 40
0.0
 41
0.0
  0
VERTEX
  5
   43B
  8
0
  6
CONTINUOUS
 62
     0
 10
-29.3451647941356
 20
22.2133916732258
 30
0.0
 40
0.0
 41
0.0
  0
VERTEX
  5
   43C
  8
0
  6
CONTINUOUS
 62
     0
 10
-29.5806133139397
 20
21.6928930194302
 30
0.0
 40
0.0
 41
0.0
  0
VERTEX
  5
   43D
  8
0
  6
CONTINUOUS
 62
     0
 10
-29.8120607252461
 20
21.1708951523152
 30
0.0
 40
0.0
 41
0.0
  0
VERTEX
  5
   43E
  8
0
  6
CONTINUOUS
 62
     0
 10
-30.0388819857441
 20
20.647073526551
 30
0.0
 40
0.0
 41
0.0
  0
VERTEX
  5
   43F
  8
0
  6
CONTINUOUS
 62
     0
 10
-30.2608759906041
 20
20.1212727373545
 30
0.0
 40
0.0
 41
0.0
  0
VERTEX
  5
   440
  8
0
  6
CONTINUOUS
 62
     0
 10
-30.4559927856409
 20
19.6483190173353
 30
0.0
 40
0.0
 41
0.0
  0
VERTEX
  5
   441
  8
0
  6
CONTINUOUS
 62
     0
 10
-30.648038024134
 20
19.173997628536
 30
0.0
 40
0.0
 41
0.0
  0
VERTEX
  5
   442
  8
0
  6
CONTINUOUS
 62
     0
 10
-31.4049689829095
 20
17.2702273783825
 30
0.0
 40
0.0
 41
0.0
  0
VERTEX
  5
   443
  8
0
  6
CONTINUOUS
 62
     0
 10
-31.5969878707269
 20
16.7948375446268
 30
0.0
 40
0.0
 41
0.0
  0
VERTEX
  5
   444
  8
0
  6
CONTINUOUS
 62
     0
 10
-31.792147524921
 20
16.3204910247596
 30
0.0
 40
0.0
 41
0.0
  0
VERTEX
  5
   445
  8
0
  6
CONTINUOUS
 62
     0
 10
-31.991101496541
 20
15.8474764104734
 30
0.0
 40
0.0
 41
0.0
  0
VERTEX
  5
   446
  8
0
  6
CONTINUOUS
 62
     0
 10
-32.1941532628026
 20
15.3759557965037
 30
0.0
 40
0.0
 41
0.0
  0
VERTEX
  5
   447
  8
0
  6
CONTINUOUS
 62
     0
 10
-32.4234882558403
 20
14.8558158422524
 30
0.0
 40
0.0
 41
0.0
  0
VERTEX
  5
   448
  8
0
  6
CONTINUOUS
 62
     0
 10
-32.6567884662308
 20
14.3372469017987
 30
0.0
 40
0.0
 41
0.0
  0
VERTEX
  5
   449
  8
0
  6
CONTINUOUS
 62
     0
 10
-33.128729392251
 20
13.3026635879264
 30
0.0
 40
0.0
 41
0.0
  0
VERTEX
  5
   44A
  8
0
  6
CONTINUOUS
 62
     0
 10
-33.3630271168507
 20
12.7851708066478
 30
0.0
 40
0.0
 41
0.0
  0
VERTEX
  5
   44B
  8
0
  6
CONTINUOUS
 62
     0
 10
-33.5929127193323
 20
12.2664056481404
 30
0.0
 40
0.0
 41
0.0
  0
VERTEX
  5
   44C
  8
0
  6
CONTINUOUS
 62
     0
 10
-33.7054032079153
 20
12.0062688635637
 30
0.0
 40
0.0
 41
0.0
  0
VERTEX
  5
   44D
  8
0
  6
CONTINUOUS
 62
     0
 10
-33.8158437323855
 20
11.745484943354
 30
0.0
 40
0.0
 41
0.0
  0
VERTEX
  5
   44E
  8
0
  6
CONTINUOUS
 62
     0
 10
-33.9239379070911
 20
11.4839508869728
 30
0.0
 40
0.0
 41
0.0
  0
VERTEX
  5
   44F
  8
0
  6
CONTINUOUS
 62
     0
 10
-34.029407078312
 20
11.2215700194145
 30
0.0
 40
0.0
 41
0.0
  0
VERTEX
  5
   450
  8
0
  6
CONTINUOUS
 62
     0
 10
-34.1319951468001
 20
10.9582537634666
 30
0.0
 40
0.0
 41
0.0
  0
VERTEX
  5
   451
  8
0
  6
CONTINUOUS
 62
     0
 10
-34.2314733903201
 20
10.6939234119714
 30
0.0
 40
0.0
 41
0.0
  0
VERTEX
  5
   452
  8
0
  6
CONTINUOUS
 62
     0
 10
-34.3276452861894
 20
10.4285119000861
 30
0.0
 40
0.0
 41
0.0
  0
VERTEX
  5
   453
  8
0
  6
CONTINUOUS
 62
     0
 10
-34.420351333819
 20
10.1619655775442
 30
0.0
 40
0.0
 41
0.0
  0
VERTEX
  5
   454
  8
0
  6
CONTINUOUS
 62
     0
 10
-34.5008128417502
 20
9.92080351175237
 30
0.0
 40
0.0
 41
0.0
  0
VERTEX
  5
   455
  8
0
  6
CONTINUOUS
 62
     0
 10
-34.5783096594581
 20
9.67867191107669
 30
0.0
 40
0.0
 41
0.0
  0
VERTEX
  5
   456
  8
0
  6
CONTINUOUS
 62
     0
 10
-34.6528154741339
 20
9.4355643414133
 30
0.0
 40
0.0
 41
0.0
  0
VERTEX
  5
   457
  8
0
  6
CONTINUOUS
 62
     0
 10
-34.7243306115091
 20
9.19148403551221
 30
0.0
 40
0.0
 41
0.0
  0
VERTEX
  5
   458
  8
0
  6
CONTINUOUS
 62
     0
 10
-34.7928799778634
 20
8.9464431382259
 30
0.0
 40
0.0
 41
0.0
  0
VERTEX
  5
   459
  8
0
  6
CONTINUOUS
 62
     0
 10
-34.858511002033
 20
8.70046195175806
 30
0.0
 40
0.0
 41
0.0
  0
VERTEX
  5
   45A
  8
0
  6
CONTINUOUS
 62
     0
 10
-34.9212915774189
 20
8.45356818091224
 30
0.0
 40
0.0
 41
0.0
  0
VERTEX
  5
   45B
  8
0
  6
CONTINUOUS
 62
     0
 10
-34.9813080039946
 20
8.20579617834051
 30
0.0
 40
0.0
 41
0.0
  0
VERTEX
  5
   45C
  8
0
  6
CONTINUOUS
 62
     0
 10
-35.0386629303144
 20
7.95718618979214
 30
0.0
 40
0.0
 41
0.0
  0
VERTEX
  5
   45D
  8
0
  6
CONTINUOUS
 62
     0
 10
-35.0934732955218
 20
7.70778359936226
 30
0.0
 40
0.0
 41
0.0
  0
VERTEX
  5
   45E
  8
0
  6
CONTINUOUS
 62
     0
 10
-35.1458682713571
 20
7.45763817474054
 30
0.0
 40
0.0
 41
0.0
  0
VERTEX
  5
   45F
  8
0
  6
CONTINUOUS
 62
     0
 10
-35.1959872041662
 20
7.20680331245986
 30
0.0
 40
0.0
 41
0.0
  0
VERTEX
  5
   460
  8
0
  6
CONTINUOUS
 62
     0
 10
-35.2439775569078
 20
6.95533528314495
 30
0.0
 40
0.0
 41
0.0
  0
VERTEX
  5
   461
  8
0
  6
CONTINUOUS
 62
     0
 10
-35.2899928511627
 20
6.70329247676111
 30
0.0
 40
0.0
 41
0.0
  0
VERTEX
  5
   462
  8
0
  6
CONTINUOUS
 62
     0
 10
-35.3767302956899
 20
6.19772216084247
 30
0.0
 40
0.0
 41
0.0
  0
VERTEX
  5
   463
  8
0
  6
CONTINUOUS
 62
     0
 10
-35.4574706791296
 20
5.69057319068647
 30
0.0
 40
0.0
 41
0.0
  0
VERTEX
  5
   464
  8
0
  6
CONTINUOUS
 62
     0
 10
-35.5334503693272
 20
5.18231199763911
 30
0.0
 40
0.0
 41
0.0
  0
VERTEX
  5
   465
  8
0
  6
CONTINUOUS
 62
     0
 10
-35.6073044360307
 20
4.662597761161
 30
0.0
 40
0.0
 41
0.0
  0
VERTEX
  5
   466
  8
0
  6
CONTINUOUS
 62
     0
 10
-35.6784292883979
 20
4.14256562891271
 30
0.0
 40
0.0
 41
0.0
  0
VERTEX
  5
   467
  8
0
  6
CONTINUOUS
 62
     0
 10
-36.0875573342311
 20
1.03064530514073
 30
0.0
 40
0.0
 41
0.0
  0
VERTEX
  5
   468
  8
0
  6
CONTINUOUS
 62
     0
 10
-36.2269977236929
 20
1.72054122987471E-4
 30
0.0
 40
0.0
 41
0.0
  0
SEQEND
  5
   469
  8
0
  6
CONTINUOUS
 62
     0
  0
ENDBLK
  5
   46A
  8
0
  6
CONTINUOUS
 62
     0
  0
BLOCK
  5
   46B
  8
0
  6
CONTINUOUS
 62
     7
  2
*UDIM1484
 70
    65
 10
0.0
 20
0.0
 30
0.0
  3
*UDIM1484
  0
TEXT
  5
   46C
  8
0
  6
CONTINUOUS
 62
     7
 10
-616.128242496208
 20
13.2321349637016
 30
0.0
 40
3.00000002980232
  1
161
 50
89.9999999480344
 41
0.933333333333333
 72
     1
 11
-617.628242507577
 21
17.1321350038032
 31
0.0
 73
     2
  0
LINE
  5
   46D
  8
0
  6
CONTINUOUS
 62
     7
 10
-624.051150631742
 20
-22.8428668975849
 30
0.0
 11
-613.128242492676
 21
-22.8428668975849
 31
0.0
  0
LINE
  5
   46E
  8
0
  6
CONTINUOUS
 62
     7
 10
-624.051150631742
 20
57.6571311950664
 30
0.0
 11
-613.128242492676
 21
57.6571311950664
 31
0.0
  0
LINE
  5
   46F
  8
0
  6
CONTINUOUS
 62
     7
 10
-615.128242492676
 20
-22.8428668975849
 30
0.0
 11
-615.128242492676
 21
57.6571311950664
 31
0.0
  0
LINE
  5
   470
  8
0
  6
CONTINUOUS
 62
     7
 10
-615.649186922628
 20
-19.888443620378
 30
0.0
 11
-615.128242492676
 21
-22.8428668975849
 31
0.0
  0
LINE
  5
   471
  8
0
  6
CONTINUOUS
 62
     7
 10
-615.128242492676
 20
-22.8428668975849
 30
0.0
 11
-614.607298062724
 21
-19.888443620378
 31
0.0
  0
LINE
  5
   472
  8
0
  6
CONTINUOUS
 62
     7
 10
-614.607298062724
 20
54.7027079178595
 30
0.0
 11
-615.128242492676
 21
57.6571311950664
 31
0.0
  0
LINE
  5
   473
  8
0
  6
CONTINUOUS
 62
     7
 10
-615.128242492676
 20
57.6571311950664
 30
0.0
 11
-615.649186922628
 21
54.7027079178595
 31
0.0
  0
ENDBLK
  5
   474
  8
0
  6
CONTINUOUS
 62
     7
  0
BLOCK
  5
   475
  8
0
  6
CONTINUOUS
 62
     7
  2
*UDIM1485
 70
    65
 10
0.0
 20
0.0
 30
0.0
  3
*UDIM1485
  0
TEXT
  5
   476
  8
0
  6
CONTINUOUS
 62
     7
 10
-657.85114748895
 20
102.324600223244
 30
0.0
 40
3.00000002980232
  1
117
 50
359.999999948034
 41
0.933333333333333
 72
     1
 11
-653.951147448854
 21
103.824600234628
 31
0.0
 73
     2
  0
LINE
  5
   477
  8
0
  6
CONTINUOUS
 62
     7
 10
-624.426150631742
 20
58.0321311950664
 30
0.0
 11
-624.426150631742
 21
103.324600219727
 31
0.0
  0
LINE
  5
   478
  8
0
  6
CONTINUOUS
 62
     7
 10
-682.926150631742
 20
58.0321311950664
 30
0.0
 11
-682.926150631742
 21
103.324600219727
 31
0.0
  0
LINE
  5
   479
  8
0
  6
CONTINUOUS
 62
     7
 10
-624.426150631742
 20
101.324600219727
 30
0.0
 11
-682.926150631742
 21
101.324600219727
 31
0.0
  0
LINE
  5
   47A
  8
0
  6
CONTINUOUS
 62
     7
 10
-627.380573908949
 20
100.803655789775
 30
0.0
 11
-624.426150631742
 21
101.324600219727
 31
0.0
  0
LINE
  5
   47B
  8
0
  6
CONTINUOUS
 62
     7
 10
-624.426150631742
 20
101.324600219727
 30
0.0
 11
-627.380573908949
 21
101.845544649678
 31
0.0
  0
LINE
  5
   47C
  8
0
  6
CONTINUOUS
 62
     7
 10
-679.971727354535
 20
101.845544649678
 30
0.0
 11
-682.926150631742
 21
101.324600219727
 31
0.0
  0
LINE
  5
   47D
  8
0
  6
CONTINUOUS
 62
     7
 10
-682.926150631742
 20
101.324600219727
 30
0.0
 11
-679.971727354535
 21
100.803655789775
 31
0.0
  0
ENDBLK
  5
   47E
  8
0
  6
CONTINUOUS
 62
     7
  0
BLOCK
  5
   47F
  8
0
  6
CONTINUOUS
 62
     1
  2
*UDIM1486
 70
    65
 10
0.0
 20
0.0
 30
0.0
  3
*UDIM1486
  0
TEXT
  5
   480
  8
0
  6
CONTINUOUS
 62
     1
 10
-711.420533718943
 20
-61.242849771953
 30
0.0
 40
3.00000002980232
  1
46
 50
89.9999999480344
 41
0.933333333333333
 72
     1
 11
-712.92053373158
 21
-58.7428497457591
 31
0.0
 73
     2
  0
LINE
  5
   481
  8
0
  6
CONTINUOUS
 62
     1
 10
-662.976587646169
 20
-69.9678479004085
 30
0.0
 11
-712.420533716679
 21
-69.9678479004085
 31
0.0
  0
LINE
  5
   482
  8
0
  6
CONTINUOUS
 62
     1
 10
-679.176105681534
 20
-46.9678497314448
 30
0.0
 11
-712.420533716679
 21
-46.9678497314448
 31
0.0
  0
LINE
  5
   483
  8
0
  6
CONTINUOUS
 62
     1
 10
-710.420533716679
 20
-69.9678479004085
 30
0.0
 11
-710.420533716679
 21
-46.9678497314448
 31
0.0
  0
LINE
  5
   484
  8
0
  6
CONTINUOUS
 62
     1
 10
-710.94147814663
 20
-67.0134246232016
 30
0.0
 11
-710.420533716679
 21
-69.9678479004085
 31
0.0
  0
LINE
  5
   485
  8
0
  6
CONTINUOUS
 62
     1
 10
-710.420533716679
 20
-69.9678479004085
 30
0.0
 11
-709.899589286727
 21
-67.0134246232016
 31
0.0
  0
LINE
  5
   486
  8
0
  6
CONTINUOUS
 62
     1
 10
-709.899589286727
 20
-49.9222730086518
 30
0.0
 11
-710.420533716679
 21
-46.9678497314448
 31
0.0
  0
LINE
  5
   487
  8
0
  6
CONTINUOUS
 62
     1
 10
-710.420533716679
 20
-46.9678497314448
 30
0.0
 11
-710.94147814663
 21
-49.9222730086518
 31
0.0
  0
ENDBLK
  5
   488
  8
0
  6
CONTINUOUS
 62
     1
  0
BLOCK
  5
   489
  8
0
  6
CONTINUOUS
 62
     7
  2
*UDIM1487
 70
    65
 10
0.0
 20
0.0
 30
0.0
  3
*UDIM1487
  0
TEXT
  5
   48A
  8
0
  6
CONTINUOUS
 62
     7
 10
-647.701158919531
 20
86.996498110165
 30
0.0
 40
3.00000002980232
  1
35
 50
359.999999948034
 41
0.933333333333333
 72
     1
 11
-645.201158893342
 21
88.4964981228113
 31
0.0
 73
     2
  0
LINE
  5
   48B
  8
0
  6
CONTINUOUS
 62
     7
 10
-636.176165459765
 20
84.7321161188174
 30
0.0
 11
-636.176165459765
 21
87.9964981079102
 31
0.0
  0
LINE
  5
   48C
  8
0
  6
CONTINUOUS
 62
     7
 10
-653.676158037044
 20
84.7321719929922
 30
0.0
 11
-653.676158037044
 21
87.9964981079102
 31
0.0
  0
LINE
  5
   48D
  8
0
  6
CONTINUOUS
 62
     7
 10
-636.176165459765
 20
85.9964981079102
 30
0.0
 11
-653.676158037044
 21
85.9964981079102
 31
0.0
  0
LINE
  5
   48E
  8
0
  6
CONTINUOUS
 62
     7
 10
-639.130588736972
 20
85.4755536779585
 30
0.0
 11
-636.176165459765
 21
85.9964981079102
 31
0.0
  0
LINE
  5
   48F
  8
0
  6
CONTINUOUS
 62
     7
 10
-636.176165459765
 20
85.9964981079102
 30
0.0
 11
-639.130588736972
 21
86.5174425378618
 31
0.0
  0
LINE
  5
   490
  8
0
  6
CONTINUOUS
 62
     7
 10
-650.721734759837
 20
86.5174425378618
 30
0.0
 11
-653.676158037044
 21
85.9964981079102
 31
0.0
  0
LINE
  5
   491
  8
0
  6
CONTINUOUS
 62
     7
 10
-653.676158037044
 20
85.9964981079102
 30
0.0
 11
-650.721734759837
 21
85.4755536779585
 31
0.0
  0
ENDBLK
  5
   492
  8
0
  6
CONTINUOUS
 62
     7
  0
BLOCK
  5
   493
  8
0
  6
CONTINUOUS
 62
     7
  2
*UDIM1488
 70
    65
 10
0.0
 20
0.0
 30
0.0
  3
*UDIM1488
  0
TEXT
  5
   494
  8
0
  6
CONTINUOUS
 62
     7
 10
-665.201136039059
 20
86.996498110165
 30
0.0
 40
3.00000002980232
  1
35
 50
359.999999948034
 41
0.933333333333333
 72
     1
 11
-662.701136012871
 21
88.4964981228113
 31
0.0
 73
     2
  0
LINE
  5
   495
  8
0
  6
CONTINUOUS
 62
     7
 10
-671.176116897405
 20
84.7321187331879
 30
0.0
 11
-671.176116897405
 21
87.9964981079102
 31
0.0
  0
LINE
  5
   496
  8
0
  6
CONTINUOUS
 62
     7
 10
-653.676158037044
 20
85.9964981079102
 30
0.0
 11
-671.176116897405
 21
85.9964981079102
 31
0.0
  0
LINE
  5
   497
  8
0
  6
CONTINUOUS
 62
     7
 10
-656.630581314251
 20
85.4755536779585
 30
0.0
 11
-653.676158037044
 21
85.9964981079102
 31
0.0
  0
LINE
  5
   498
  8
0
  6
CONTINUOUS
 62
     7
 10
-653.676158037044
 20
85.9964981079102
 30
0.0
 11
-656.630581314251
 21
86.5174425378618
 31
0.0
  0
LINE
  5
   499
  8
0
  6
CONTINUOUS
 62
     7
 10
-668.221693620198
 20
86.5174425378618
 30
0.0
 11
-671.176116897405
 21
85.9964981079102
 31
0.0
  0
LINE
  5
   49A
  8
0
  6
CONTINUOUS
 62
     7
 10
-671.176116897405
 20
85.9964981079102
 30
0.0
 11
-668.221693620198
 21
85.4755536779585
 31
0.0
  0
ENDBLK
  5
   49B
  8
0
  6
CONTINUOUS
 62
     7
  0
BLOCK
  5
   49C
  8
0
  6
CONTINUOUS
 62
     5
  2
*UDIM1489
 70
    65
 10
0.0
 20
0.0
 30
0.0
  3
*UDIM1489
  0
TEXT
  5
   49D
  8
0
  6
CONTINUOUS
 62
     5
 10
-699.538195617383
 20
40.3446349219754
 30
0.0
 40
3.00000002980232
  1
125,25
 50
89.9999999480344
 41
0.933333333333333
 72
     1
 11
-701.038195624948
 21
48.4446350038002
 31
0.0
 73
     2
  0
LINE
  5
   49E
  8
0
  6
CONTINUOUS
 62
     5
 10
-698.250559178466
 20
17.4071502685547
 30
0.0
 11
-700.538195610046
 21
17.4071502685547
 31
0.0
  0
LINE
  5
   49F
  8
0
  6
CONTINUOUS
 62
     5
 10
-679.176119601821
 20
80.0321197509667
 30
0.0
 11
-700.538195610046
 21
80.0321197509667
 31
0.0
  0
LINE
  5
   4A0
  8
0
  6
CONTINUOUS
 62
     5
 10
-698.538195610046
 20
17.4071502685547
 30
0.0
 11
-698.538195610046
 21
80.0321197509667
 31
0.0
  0
LINE
  5
   4A1
  8
0
  6
CONTINUOUS
 62
     5
 10
-699.059140039998
 20
20.3615735457616
 30
0.0
 11
-698.538195610046
 21
17.4071502685547
 31
0.0
  0
LINE
  5
   4A2
  8
0
  6
CONTINUOUS
 62
     5
 10
-698.538195610046
 20
17.4071502685547
 30
0.0
 11
-698.017251180095
 21
20.3615735457616
 31
0.0
  0
LINE
  5
   4A3
  8
0
  6
CONTINUOUS
 62
     5
 10
-698.017251180095
 20
77.0776964737597
 30
0.0
 11
-698.538195610046
 21
80.0321197509667
 31
0.0
  0
LINE
  5
   4A4
  8
0
  6
CONTINUOUS
 62
     5
 10
-698.538195610046
 20
80.0321197509667
 30
0.0
 11
-699.059140039998
 21
77.0776964737597
 31
0.0
  0
ENDBLK
  5
   4A5
  8
0
  6
CONTINUOUS
 62
     5
  0
BLOCK
  5
   4A6
  8
0
  6
CONTINUOUS
 62
     7
  2
*UDIM1490
 70
    65
 10
0.0
 20
0.0
 30
0.0
  3
*UDIM1490
  0
TEXT
  5
   4A7
  8
0
  6
CONTINUOUS
 62
     7
 10
-711.541414264397
 20
12.3571349636989
 30
0.0
 40
3.00000002980232
  1
254
 50
89.9999999480344
 41
0.933333333333333
 72
     1
 11
-713.041414275765
 21
16.2571350038005
 31
0.0
 73
     2
  0
LINE
  5
   4A8
  8
0
  6
CONTINUOUS
 62
     7
 10
-679.176105681534
 20
-46.9678497314448
 30
0.0
 11
-712.541414260864
 21
-46.9678497314448
 31
0.0
  0
LINE
  5
   4A9
  8
0
  6
CONTINUOUS
 62
     7
 10
-679.176119601821
 20
80.0321197509667
 30
0.0
 11
-712.541414260864
 21
80.0321197509667
 31
0.0
  0
LINE
  5
   4AA
  8
0
  6
CONTINUOUS
 62
     7
 10
-710.541414260864
 20
-46.9678497314448
 30
0.0
 11
-710.541414260864
 21
80.0321197509667
 31
0.0
  0
LINE
  5
   4AB
  8
0
  6
CONTINUOUS
 62
     7
 10
-711.062358690816
 20
-44.0134264542378
 30
0.0
 11
-710.541414260864
 21
-46.9678497314448
 31
0.0
  0
LINE
  5
   4AC
  8
0
  6
CONTINUOUS
 62
     7
 10
-710.541414260864
 20
-46.9678497314448
 30
0.0
 11
-710.020469830913
 21
-44.0134264542378
 31
0.0
  0
LINE
  5
   4AD
  8
0
  6
CONTINUOUS
 62
     7
 10
-710.020469830913
 20
77.0776964737597
 30
0.0
 11
-710.541414260864
 21
80.0321197509667
 31
0.0
  0
LINE
  5
   4AE
  8
0
  6
CONTINUOUS
 62
     7
 10
-710.541414260864
 20
80.0321197509667
 30
0.0
 11
-711.062358690816
 21
77.0776964737597
 31
0.0
  0
ENDBLK
  5
   4AF
  8
0
  6
CONTINUOUS
 62
     7
  0
BLOCK
  5
   4B0
  8
0
  6
CONTINUOUS
 62
     7
  2
*UDIM1491
 70
    65
 10
0.0
 20
0.0
 30
0.0
  3
*UDIM1491
  0
TEXT
  5
   4B1
  8
0
  6
CONTINUOUS
 62
     7
 10
-657.851124612886
 20
94.1293792759785
 30
0.0
 40
3.00000002980232
  1
105
 50
359.999999948034
 41
0.933333333333333
 72
     1
 11
-653.95112457279
 21
95.6293792873621
 31
0.0
 73
     2
  0
LINE
  5
   4B2
  8
0
  6
CONTINUOUS
 62
     7
 10
-627.426135885196
 20
68.7821350097656
 30
0.0
 11
-627.426127614362
 21
95.1293792724609
 31
0.0
  0
LINE
  5
   4B3
  8
0
  6
CONTINUOUS
 62
     7
 10
-679.926105242223
 20
68.7821350097655
 30
0.0
 11
-679.926093667589
 21
95.1293792724607
 31
0.0
  0
LINE
  5
   4B4
  8
0
  6
CONTINUOUS
 62
     7
 10
-627.426128242195
 20
93.1293792724609
 30
0.0
 11
-679.926094546211
 21
93.1293792724609
 31
0.0
  0
LINE
  5
   4B5
  8
0
  6
CONTINUOUS
 62
     7
 10
-630.380551519402
 20
92.6084348425093
 30
0.0
 11
-627.426128242195
 21
93.1293792724609
 31
0.0
  0
LINE
  5
   4B6
  8
0
  6
CONTINUOUS
 62
     7
 10
-627.426128242195
 20
93.1293792724609
 30
0.0
 11
-630.380551519402
 21
93.6503237024126
 31
0.0
  0
LINE
  5
   4B7
  8
0
  6
CONTINUOUS
 62
     7
 10
-676.971671269004
 20
93.6503237024126
 30
0.0
 11
-679.926094546211
 21
93.1293792724609
 31
0.0
  0
LINE
  5
   4B8
  8
0
  6
CONTINUOUS
 62
     7
 10
-679.926094546211
 20
93.1293792724609
 30
0.0
 11
-676.971671269004
 21
92.6084348425093
 31
0.0
  0
ENDBLK
  5
   4B9
  8
0
  6
CONTINUOUS
 62
     7
  0
BLOCK
  5
   4BA
  8
0
  6
CONTINUOUS
 62
     7
  2
MOSTRINA
 70
    64
 10
0.0
 20
0.0
 30
0.0
  3
MOSTRINA
  0
LINE
  5
   4BB
  8
0
  6
CONTINUOUS
 62
     3
 10
173.338256835938
 20
30.7306251525879
 30
0.0
 11
173.338256835938
 21
189.230621337891
 31
0.0
  0
LINE
  5
   4BC
  8
0
  6
CONTINUOUS
 62
     3
 10
57.5882568359375
 20
29.4806251525879
 30
0.0
 11
172.088256835938
 21
29.4806251525879
 31
0.0
  0
LINE
  5
   4BD
  8
0
  6
CONTINUOUS
 62
     3
 10
56.3382568359375
 20
30.7306251525879
 30
0.0
 11
56.3382568359375
 21
189.230621337891
 31
0.0
  0
LINE
  5
   4BE
  8
0
  6
CONTINUOUS
 62
     3
 10
57.5882568359375
 20
190.480621337891
 30
0.0
 11
172.088256835938
 21
190.480621337891
 31
0.0
  0
LINE
  5
   4BF
  8
0
  6
CONTINUOUS
 62
     3
 10
167.838256835938
 20
56.9806251525879
 30
0.0
 11
167.838256835938
 21
162.980625152588
 31
0.0
  0
LINE
  5
   4C0
  8
0
  6
CONTINUOUS
 62
     3
 10
61.8382568359375
 20
56.9806251525879
 30
0.0
 11
167.838256835938
 21
56.9806251525879
 31
0.0
  0
LINE
  5
   4C1
  8
0
  6
CONTINUOUS
 62
     3
 10
61.8382568359375
 20
56.9806251525879
 30
0.0
 11
61.8382568359375
 21
162.980625152588
 31
0.0
  0
LINE
  5
   4C2
  8
0
  6
CONTINUOUS
 62
     3
 10
61.8382568359375
 20
162.980621337891
 30
0.0
 11
167.838256835938
 21
162.980621337891
 31
0.0
  0
LINE
  5
   4C3
  8
0
  6
CONTINUOUS
 62
     3
 10
168.838256835938
 20
48.4806251525879
 30
0.0
 11
168.838256835938
 21
49.4806251525879
 31
0.0
  0
LINE
  5
   4C4
  8
0
  6
CONTINUOUS
 62
     3
 10
61.8382568359375
 20
50.4806251525879
 30
0.0
 11
167.838256835938
 21
50.4806251525879
 31
0.0
  0
LINE
  5
   4C5
  8
0
  6
CONTINUOUS
 62
     3
 10
60.8382568359375
 20
48.4806251525879
 30
0.0
 11
60.8382568359375
 21
49.4806251525879
 31
0.0
  0
LINE
  5
   4C6
  8
0
  6
CONTINUOUS
 62
     3
 10
61.8382568359375
 20
49.4806251525879
 30
0.0
 11
167.838256835938
 21
49.4806251525879
 31
0.0
  0
LINE
  5
   4C7
  8
0
  6
CONTINUOUS
 62
     3
 10
60.8382568359375
 20
29.4806251525879
 30
0.0
 11
60.8382568359375
 21
48.4806251525879
 31
0.0
  0
LINE
  5
   4C8
  8
0
  6
CONTINUOUS
 62
     3
 10
60.8382568359375
 20
49.4806213378906
 30
0.0
 11
60.8382568359375
 21
190.480621337891
 31
0.0
  0
LINE
  5
   4C9
  8
0
  6
CONTINUOUS
 62
     3
 10
61.8382568359375
 20
29.4806251525879
 30
0.0
 11
61.8382568359375
 21
49.4806251525879
 31
0.0
  0
LINE
  5
   4CA
  8
0
  6
CONTINUOUS
 62
     3
 10
61.8382568359375
 20
162.980621337891
 30
0.0
 11
61.8382568359375
 21
169.480621337891
 31
0.0
  0
LINE
  5
   4CB
  8
0
  6
CONTINUOUS
 62
     3
 10
61.8382568359375
 20
50.4806251525879
 30
0.0
 11
61.8382568359375
 21
56.9806251525879
 31
0.0
  0
LINE
  5
   4CC
  8
0
  6
CONTINUOUS
 62
     3
 10
168.838256835938
 20
29.4806251525879
 30
0.0
 11
168.838256835938
 21
48.4806251525879
 31
0.0
  0
LINE
  5
   4CD
  8
0
  6
CONTINUOUS
 62
     3
 10
168.838256835938
 20
49.4806251525879
 30
0.0
 11
168.838256835938
 21
190.480621337891
 31
0.0
  0
LINE
  5
   4CE
  8
0
  6
CONTINUOUS
 62
     3
 10
167.838256835938
 20
50.4806251525879
 30
0.0
 11
167.838256835938
 21
56.9806251525879
 31
0.0
  0
LINE
  5
   4CF
  8
0
  6
CONTINUOUS
 62
     3
 10
167.838256835938
 20
162.980621337891
 30
0.0
 11
167.838256835938
 21
169.480621337891
 31
0.0
  0
LINE
  5
   4D0
  8
0
  6
CONTINUOUS
 62
     3
 10
167.838256835938
 20
29.4806251525879
 30
0.0
 11
167.838256835938
 21
49.4806251525879
 31
0.0
  0
LINE
  5
   4D1
  8
0
  6
CONTINUOUS
 62
     3
 10
60.8382568359375
 20
170.480621337891
 30
0.0
 11
168.838256835938
 21
170.480621337891
 31
0.0
  0
LINE
  5
   4D2
  8
0
  6
CONTINUOUS
 62
     3
 10
61.8382568359375
 20
169.480621337891
 30
0.0
 11
167.838256835938
 21
169.480621337891
 31
0.0
  0
ARC
  5
   4D3
  8
0
  6
CONTINUOUS
 62
     3
 10
57.5882568359375
 20
30.7306251525879
 30
0.0
 40
1.25
 50
180.0
 51
270.0
  0
ARC
  5
   4D4
  8
0
  6
CONTINUOUS
 62
     3
 10
172.088256835938
 20
30.7306251525879
 30
0.0
 40
1.25
 50
270.0
 51
360.0
  0
ARC
  5
   4D5
  8
0
  6
CONTINUOUS
 62
     3
 10
172.088256835938
 20
189.230621337891
 30
0.0
 40
1.25
 50
0.0
 51
90.0
  0
ARC
  5
   4D6
  8
0
  6
CONTINUOUS
 62
     3
 10
57.5882568359375
 20
189.230621337891
 30
0.0
 40
1.25
 50
90.0
 51
180.0
  0
LINE
  5
   4D7
  8
0
  6
DOT
 62
     3
 10
60.3382577409677
 20
179.7306252571
 30
0.0
 11
60.8382568359375
 21
179.7306252571
 31
0.0
  0
LINE
  5
   4D8
  8
0
  6
DOT
 62
     3
 10
60.3382577409676
 20
181.2306252571
 30
0.0
 11
60.8382568359375
 21
181.2306252571
 31
0.0
  0
LINE
  5
   4D9
  8
0
  6
CONTINUOUS
 62
     3
 10
168.338257745313
 20
179.730625257273
 30
0.0
 11
168.838256835938
 21
179.730625257273
 31
0.0
  0
LINE
  5
   4DA
  8
0
  6
CONTINUOUS
 62
     3
 10
168.338257745314
 20
181.230625257273
 30
0.0
 11
168.838256835938
 21
181.230625257273
 31
0.0
  0
ARC
  5
   4DB
  8
0
  6
DOT
 62
     3
 10
60.3382577401871
 20
180.480625257147
 30
0.0
 40
0.749999999345164
 50
90.0
 51
270.0
  0
ARC
  5
   4DC
  8
0
  6
CONTINUOUS
 62
     3
 10
61.338257740822
 20
180.480625256974
 30
0.0
 40
0.750000000009701
 50
270.0
 51
450.0
  0
LINE
  5
   4DD
  8
0
  6
CONTINUOUS
 62
     3
 10
60.8382568359375
 20
181.2306252571
 30
0.0
 11
61.3382577409688
 21
181.2306252571
 31
0.0
  0
LINE
  5
   4DE
  8
0
  6
CONTINUOUS
 62
     3
 10
60.8382568359375
 20
179.7306252571
 30
0.0
 11
61.3382577409689
 21
179.7306252571
 31
0.0
  0
ARC
  5
   4DF
  8
0
  6
CONTINUOUS
 62
     3
 10
168.338257745503
 20
180.480625256952
 30
0.0
 40
0.750000000048506
 50
90.0000000038822
 51
269.999999996024
  0
ARC
  5
   4E0
  8
0
  6
DOT
 62
     3
 10
169.338257745421
 20
180.480625256965
 30
0.0
 40
0.750000000029104
 50
270.000000002449
 51
449.999999997486
  0
LINE
  5
   4E1
  8
0
  6
DOT
 62
     3
 10
168.838256835938
 20
181.230625257273
 30
0.0
 11
169.338257745315
 21
181.230625257273
 31
0.0
  0
LINE
  5
   4E2
  8
0
  6
DOT
 62
     3
 10
168.838256835938
 20
179.730625257273
 30
0.0
 11
169.338257745315
 21
179.730625257273
 31
0.0
  0
POINT
  5
   4E3
  8
0
  6
CONTINUOUS
 62
     3
 10
114.838256835938
 20
109.980621337891
 30
0.0
  0
ENDBLK
  5
   4E4
  8
0
  6
CONTINUOUS
 62
     7
  0
BLOCK
  5
   4E5
  8
0
  6
CONTINUOUS
 62
     7
  2
*UDIM1492
 70
    65
 10
0.0
 20
0.0
 30
0.0
  3
*UDIM1492
  0
TEXT
  5
   4E6
  8
0
  6
CONTINUOUS
 62
     7
 10
-428.198443236465
 20
11.5912841527927
 30
0.0
 40
3.00000002980232
  1
7
 50
404.893139787217
 41
0.933333333333334
 72
     1
 11
-428.477856586003
 21
13.4302861236575
 31
0.0
 73
     2
  0
TEXT
  5
   4E7
  8
0
  6
CONTINUOUS
 62
     7
 10
-430.42997993674
 20
9.36805586538898
 30
0.0
 40
3.00000002980232
  1
Ø
 50
404.893139787217
 41
0.933333333333334
 72
     1
 11
-430.709393286277
 21
11.2070578362537
 31
0.0
 73
     2
  0
LINE
  5
   4E8
  8
0
  6
CONTINUOUS
 62
     7
 10
-413.72604544437
 20
24.5982152666889
 30
0.0
 11
-429.724193176067
 21
8.65963151908826
 31
0.0
  0
LINE
  5
   4E9
  8
0
  6
CONTINUOUS
 62
     7
 10
-412.000735742383
 20
27.0524578040573
 30
0.0
 11
-413.72604544437
 21
24.5982152666889
 31
0.0
  0
LINE
  5
   4EA
  8
0
  6
CONTINUOUS
 62
     7
 10
-413.72604544437
 20
24.5982152666889
 30
0.0
 11
-411.265384384172
 21
26.3143583687719
 31
0.0
  0
LINE
  5
   4EB
  8
0
  6
CONTINUOUS
 62
     7
 10
-416.691097753711
 20
20.9088459068802
 30
0.0
 11
-414.965788051724
 21
23.3630884442486
 31
0.0
  0
LINE
  5
   4EC
  8
0
  6
CONTINUOUS
 62
     7
 10
-414.965788051724
 20
23.3630884442486
 30
0.0
 11
-417.426449111922
 21
21.6469453421656
 31
0.0
  0
ENDBLK
  5
   4ED
  8
0
  6
CONTINUOUS
 62
     7
  0
BLOCK
  5
   4EE
  8
0
  6
CONTINUOUS
 62
     7
  2
*UDIM1493
 70
    65
 10
0.0
 20
0.0
 30
0.0
  3
*UDIM1493
  0
TEXT
  5
   4EF
  8
0
  6
CONTINUOUS
 62
     7
 10
-407.120916782916
 20
72.2668304511257
 30
0.0
 40
3.00000002980232
  1
80
 50
359.999999844103
 41
0.933333333333333
 72
     1
 11
-404.620916754007
 21
73.7668304592371
 31
0.0
 73
     2
  0
LINE
  5
   4F0
  8
0
  6
CONTINUOUS
 62
     7
 10
-414.345916748047
 20
62.1056518554688
 30
0.0
 11
-414.345916748047
 21
73.2668304443359
 31
0.0
  0
LINE
  5
   4F1
  8
0
  6
CONTINUOUS
 62
     7
 10
-394.345916748047
 20
62.1056518554688
 30
0.0
 11
-394.345916748047
 21
73.2668304443359
 31
0.0
  0
LINE
  5
   4F2
  8
0
  6
CONTINUOUS
 62
     7
 10
-414.345916748047
 20
71.2668304443359
 30
0.0
 11
-394.345916748047
 21
71.2668304443359
 31
0.0
  0
LINE
  5
   4F3
  8
0
  6
CONTINUOUS
 62
     7
 10
-411.39149347084
 20
71.7877748742876
 30
0.0
 11
-414.345916748047
 21
71.2668304443359
 31
0.0
  0
LINE
  5
   4F4
  8
0
  6
CONTINUOUS
 62
     7
 10
-414.345916748047
 20
71.2668304443359
 30
0.0
 11
-411.39149347084
 21
70.7458860143843
 31
0.0
  0
LINE
  5
   4F5
  8
0
  6
CONTINUOUS
 62
     7
 10
-397.300340025254
 20
70.7458860143843
 30
0.0
 11
-394.345916748047
 21
71.2668304443359
 31
0.0
  0
LINE
  5
   4F6
  8
0
  6
CONTINUOUS
 62
     7
 10
-394.345916748047
 20
71.2668304443359
 30
0.0
 11
-397.300340025254
 21
71.7877748742876
 31
0.0
  0
ENDBLK
  5
   4F7
  8
0
  6
CONTINUOUS
 62
     7
  0
BLOCK
  5
   4F8
  8
0
  6
CONTINUOUS
 62
     7
  2
*UDIM1494
 70
    65
 10
0.0
 20
0.0
 30
0.0
  3
*UDIM1494
  0
TEXT
  5
   4F9
  8
0
  6
CONTINUOUS
 62
     7
 10
-408.520916796824
 20
78.7064895735802
 30
0.0
 40
3.00000002980232
  1
112
 50
359.999999844103
 41
0.933333333333333
 72
     1
 11
-404.620916754007
 21
80.2064895778894
 31
0.0
 73
     2
  0
LINE
  5
   4FA
  8
0
  6
CONTINUOUS
 62
     7
 10
-418.345916748047
 20
56.7306518554688
 30
0.0
 11
-418.345916748047
 21
79.7064895629883
 31
0.0
  0
LINE
  5
   4FB
  8
0
  6
CONTINUOUS
 62
     7
 10
-390.345916748047
 20
56.7306518554688
 30
0.0
 11
-390.345916748047
 21
79.7064895629883
 31
0.0
  0
LINE
  5
   4FC
  8
0
  6
CONTINUOUS
 62
     7
 10
-418.345916748047
 20
77.7064895629883
 30
0.0
 11
-390.345916748047
 21
77.7064895629883
 31
0.0
  0
LINE
  5
   4FD
  8
0
  6
CONTINUOUS
 62
     7
 10
-415.39149347084
 20
78.22743399294
 30
0.0
 11
-418.345916748047
 21
77.7064895629883
 31
0.0
  0
LINE
  5
   4FE
  8
0
  6
CONTINUOUS
 62
     7
 10
-418.345916748047
 20
77.7064895629883
 30
0.0
 11
-415.39149347084
 21
77.1855451330366
 31
0.0
  0
LINE
  5
   4FF
  8
0
  6
CONTINUOUS
 62
     7
 10
-393.300340025254
 20
77.1855451330366
 30
0.0
 11
-390.345916748047
 21
77.7064895629883
 31
0.0
  0
LINE
  5
   500
  8
0
  6
CONTINUOUS
 62
     7
 10
-390.345916748047
 20
77.7064895629883
 30
0.0
 11
-393.300340025254
 21
78.22743399294
 31
0.0
  0
ENDBLK
  5
   501
  8
0
  6
CONTINUOUS
 62
     7
  0
BLOCK
  5
   502
  8
0
  6
CONTINUOUS
 62
     7
  2
*UDIM1495
 70
    65
 10
0.0
 20
0.0
 30
0.0
  3
*UDIM1495
  0
TEXT
  5
   503
  8
0
  6
CONTINUOUS
 62
     7
 10
-434.319074641324
 20
37.5556518066933
 30
0.0
 40
3.00000002980232
  1
112
 50
449.999999844103
 41
0.933333333333333
 72
     1
 11
-435.819074645639
 21
41.4556518495083
 31
0.0
 73
     2
  0
LINE
  5
   504
  8
0
  6
CONTINUOUS
 62
     7
 10
-419.345916748047
 20
55.7306518554688
 30
0.0
 11
-435.319074630737
 21
55.7306518554688
 31
0.0
  0
LINE
  5
   505
  8
0
  6
CONTINUOUS
 62
     7
 10
-419.345916748047
 20
27.7306518554688
 30
0.0
 11
-435.319074630737
 21
27.7306518554688
 31
0.0
  0
LINE
  5
   506
  8
0
  6
CONTINUOUS
 62
     7
 10
-433.319074630737
 20
55.7306518554688
 30
0.0
 11
-433.319074630737
 21
27.7306518554688
 31
0.0
  0
LINE
  5
   507
  8
0
  6
CONTINUOUS
 62
     7
 10
-432.798130200786
 20
52.7762285782618
 30
0.0
 11
-433.319074630737
 21
55.7306518554688
 31
0.0
  0
LINE
  5
   508
  8
0
  6
CONTINUOUS
 62
     7
 10
-433.319074630737
 20
55.7306518554688
 30
0.0
 11
-433.840019060689
 21
52.7762285782618
 31
0.0
  0
LINE
  5
   509
  8
0
  6
CONTINUOUS
 62
     7
 10
-433.840019060689
 20
30.6850751326757
 30
0.0
 11
-433.319074630737
 21
27.7306518554688
 31
0.0
  0
LINE
  5
   50A
  8
0
  6
CONTINUOUS
 62
     7
 10
-433.319074630737
 20
27.7306518554688
 30
0.0
 11
-432.798130200786
 21
30.6850751326757
 31
0.0
  0
ENDBLK
  5
   50B
  8
0
  6
CONTINUOUS
 62
     7
  0
BLOCK
  5
   50C
  8
0
  6
CONTINUOUS
 62
     7
  2
*UDIM1496
 70
    65
 10
0.0
 20
0.0
 30
0.0
  3
*UDIM1496
  0
TEXT
  5
   50D
  8
0
  6
CONTINUOUS
 62
     7
 10
-443.332530985929
 20
37.5556518066933
 30
0.0
 40
3.00000002980232
  1
142
 50
449.999999844103
 41
0.933333333333333
 72
     1
 11
-444.832530990243
 21
41.4556518495083
 31
0.0
 73
     2
  0
LINE
  5
   50E
  8
0
  6
CONTINUOUS
 62
     7
 10
-416.970916748047
 20
59.4806518554688
 30
0.0
 11
-444.332530975342
 21
59.4806518554688
 31
0.0
  0
LINE
  5
   50F
  8
0
  6
CONTINUOUS
 62
     7
 10
-416.970916748047
 20
23.9806518554688
 30
0.0
 11
-444.332530975342
 21
23.9806518554688
 31
0.0
  0
LINE
  5
   510
  8
0
  6
CONTINUOUS
 62
     7
 10
-442.332530975342
 20
59.4806518554688
 30
0.0
 11
-442.332530975342
 21
23.9806518554688
 31
0.0
  0
LINE
  5
   511
  8
0
  6
CONTINUOUS
 62
     7
 10
-441.81158654539
 20
56.5262285782618
 30
0.0
 11
-442.332530975342
 21
59.4806518554688
 31
0.0
  0
LINE
  5
   512
  8
0
  6
CONTINUOUS
 62
     7
 10
-442.332530975342
 20
59.4806518554688
 30
0.0
 11
-442.853475405294
 21
56.5262285782618
 31
0.0
  0
LINE
  5
   513
  8
0
  6
CONTINUOUS
 62
     7
 10
-442.853475405294
 20
26.9350751326757
 30
0.0
 11
-442.332530975342
 21
23.9806518554688
 31
0.0
  0
LINE
  5
   514
  8
0
  6
CONTINUOUS
 62
     7
 10
-442.332530975342
 20
23.9806518554688
 30
0.0
 11
-441.81158654539
 21
26.9350751326757
 31
0.0
  0
ENDBLK
  5
   515
  8
0
  6
CONTINUOUS
 62
     7
  0
BLOCK
  5
   516
  8
0
  6
CONTINUOUS
 62
     1
  2
*UDIM1497
 70
    65
 10
0.0
 20
0.0
 30
0.0
  3
*UDIM1497
  0
TEXT
  5
   517
  8
0
  6
CONTINUOUS
 62
     1
 10
-615.813359535607
 20
-81.2463268787519
 30
0.0
 40
2.99999994933605
  1
15
 50
390.951601689505
 41
0.933333333333333
 72
     1
 11
-614.440825177686
 21
-78.674139259384
 31
0.0
 73
     2
  0
TEXT
  5
   518
  8
0
  6
CONTINUOUS
 62
     1
 10
-618.171765154713
 20
-82.6606899145351
 30
0.0
 40
2.99999994933605
  1
R
 50
390.951601689505
 41
0.933333333333333
 72
     1
 11
-617.999873650133
 21
-80.8085416500087
 31
0.0
 73
     2
  0
LINE
  5
   519
  8
0
  6
CONTINUOUS
 62
     1
 10
-611.01103550998
 20
-79.5323598006993
 30
0.0
 11
-639.499110219386
 21
-96.6169865583249
 31
0.0
  0
LINE
  5
   51A
  8
0
  6
CONTINUOUS
 62
     1
 10
-628.900869980912
 20
-90.8685428096759
 30
0.0
 11
-626.635079444581
 21
-88.9022790314735
 31
0.0
  0
LINE
  5
   51B
  8
0
  6
CONTINUOUS
 62
     1
 10
-626.635079444581
 20
-88.9022790314735
 30
0.0
 11
-629.436727836221
 21
-89.9750167858277
 31
0.0
  0
ENDBLK
  5
   51C
  8
0
  6
CONTINUOUS
 62
     1
  0
BLOCK
  5
   51D
  8
0
  6
CONTINUOUS
 62
     7
  2
*UDIM1498
 70
    65
 10
0.0
 20
0.0
 30
0.0
  3
*UDIM1498
  0
TEXT
  5
   51E
  8
0
  6
CONTINUOUS
 62
     7
 10
-626.232885516789
 20
-152.490677427381
 30
0.0
 40
2.99999994933605
  1
35
 50
359.999999896069
 41
0.933333333333333
 72
     1
 11
-623.732885556296
 21
-150.990677457235
 31
0.0
 73
     2
  0
LINE
  5
   51F
  8
0
  6
CONTINUOUS
 62
     1
 10
-629.207885637879
 20
-147.04522138834
 30
0.0
 11
-629.207885637879
 21
-155.490677431903
 31
0.0
  0
LINE
  5
   520
  8
0
  6
CONTINUOUS
 62
     1
 10
-636.207885742188
 20
-149.872408792071
 30
0.0
 11
-636.207885742188
 21
-155.490677431903
 31
0.0
  0
LINE
  5
   521
  8
0
  6
CONTINUOUS
 62
     1
 10
-621.232885598516
 20
-153.490677431903
 30
0.0
 11
-636.207885742188
 21
-153.490677431903
 31
0.0
  0
LINE
  5
   522
  8
0
  6
CONTINUOUS
 62
     1
 10
-632.162308915086
 20
-154.011621861855
 30
0.0
 11
-629.207885637879
 21
-153.490677431903
 31
0.0
  0
LINE
  5
   523
  8
0
  6
CONTINUOUS
 62
     1
 10
-629.207885637879
 20
-153.490677431903
 30
0.0
 11
-632.162308915086
 21
-152.969733001951
 31
0.0
  0
LINE
  5
   524
  8
0
  6
CONTINUOUS
 62
     1
 10
-633.253462464981
 20
-152.969733001951
 30
0.0
 11
-636.207885742188
 21
-153.490677431903
 31
0.0
  0
LINE
  5
   525
  8
0
  6
CONTINUOUS
 62
     1
 10
-636.207885742188
 20
-153.490677431903
 30
0.0
 11
-633.253462464981
 21
-154.011621861855
 31
0.0
  0
ENDBLK
  5
   526
  8
0
  6
CONTINUOUS
 62
     7
  0
BLOCK
  5
   527
  8
0
  6
CONTINUOUS
 62
     7
  2
*UDIM1499
 70
    65
 10
0.0
 20
0.0
 30
0.0
  3
*UDIM1499
  0
TEXT
  5
   528
  8
0
  6
CONTINUOUS
 62
     7
 10
-651.732885896769
 20
-152.490677427381
 30
0.0
 40
2.99999994933605
  1
35
 50
359.999999896069
 41
0.933333333333333
 72
     1
 11
-649.232885936275
 21
-150.990677457235
 31
0.0
 73
     2
  0
LINE
  5
   529
  8
0
  6
CONTINUOUS
 62
     1
 10
-643.207885846496
 20
-147.04522138834
 30
0.0
 11
-643.207885846496
 21
-155.490677431903
 31
0.0
  0
LINE
  5
   52A
  8
0
  6
CONTINUOUS
 62
     1
 10
-636.207885742188
 20
-153.490677431903
 30
0.0
 11
-651.732885894055
 21
-153.490677431903
 31
0.0
  0
LINE
  5
   52B
  8
0
  6
CONTINUOUS
 62
     1
 10
-639.162309019395
 20
-154.011621861855
 30
0.0
 11
-636.207885742188
 21
-153.490677431903
 31
0.0
  0
LINE
  5
   52C
  8
0
  6
CONTINUOUS
 62
     1
 10
-636.207885742188
 20
-153.490677431903
 30
0.0
 11
-639.162309019395
 21
-152.969733001951
 31
0.0
  0
LINE
  5
   52D
  8
0
  6
CONTINUOUS
 62
     1
 10
-640.253462569289
 20
-152.969733001951
 30
0.0
 11
-643.207885846496
 21
-153.490677431903
 31
0.0
  0
LINE
  5
   52E
  8
0
  6
CONTINUOUS
 62
     1
 10
-643.207885846496
 20
-153.490677431903
 30
0.0
 11
-640.253462569289
 21
-154.011621861855
 31
0.0
  0
ENDBLK
  5
   52F
  8
0
  6
CONTINUOUS
 62
     7
  0
BLOCK
  5
   530
  8
0
  6
CONTINUOUS
 62
     1
  2
*UDIM1500
 70
    65
 10
0.0
 20
0.0
 30
0.0
  3
*UDIM1500
  0
TEXT
  5
   531
  8
0
  6
CONTINUOUS
 62
     1
 10
-654.886445888157
 20
-120.620220935896
 30
0.0
 40
2.99999994933605
  1
260
 50
449.999999896069
 41
0.933333333333333
 72
     1
 11
-656.386445855775
 21
-116.720220999047
 31
0.0
 73
     2
  0
LINE
  5
   532
  8
0
  6
CONTINUOUS
 62
     1
 10
-647.80788590014
 20
-90.4452205598354
 30
0.0
 11
-655.886445881107
 21
-90.4452205598354
 31
0.0
  0
LINE
  5
   533
  8
0
  6
CONTINUOUS
 62
     1
 10
-647.80788590014
 20
-142.445221334696
 30
0.0
 11
-655.886445881107
 21
-142.445221334696
 31
0.0
  0
LINE
  5
   534
  8
0
  6
CONTINUOUS
 62
     1
 10
-653.886445881107
 20
-90.4452205598354
 30
0.0
 11
-653.886445881107
 21
-142.445221334696
 31
0.0
  0
LINE
  5
   535
  8
0
  6
CONTINUOUS
 62
     1
 10
-653.365501451155
 20
-93.3996438370424
 30
0.0
 11
-653.886445881107
 21
-90.4452205598354
 31
0.0
  0
LINE
  5
   536
  8
0
  6
CONTINUOUS
 62
     1
 10
-653.886445881107
 20
-90.4452205598354
 30
0.0
 11
-654.407390311059
 21
-93.3996438370424
 31
0.0
  0
LINE
  5
   537
  8
0
  6
CONTINUOUS
 62
     1
 10
-654.407390311059
 20
-139.490798057489
 30
0.0
 11
-653.886445881107
 21
-142.445221334696
 31
0.0
  0
LINE
  5
   538
  8
0
  6
CONTINUOUS
 62
     1
 10
-653.886445881107
 20
-142.445221334696
 30
0.0
 11
-653.365501451155
 21
-139.490798057489
 31
0.0
  0
ENDBLK
  5
   539
  8
0
  6
CONTINUOUS
 62
     1
  0
BLOCK
  5
   53A
  8
0
  6
CONTINUOUS
 62
     1
  2
*UDIM1501
 70
    65
 10
0.0
 20
0.0
 30
0.0
  3
*UDIM1501
  0
TEXT
  5
   53B
  8
0
  6
CONTINUOUS
 62
     1
 10
-614.712484420645
 20
-111.645220740169
 30
0.0
 40
2.99999994933605
  1
128,25
 50
449.999999896069
 41
0.933333333333333
 72
     1
 11
-616.212484380671
 21
-103.54522087425
 31
0.0
 73
     2
  0
LINE
  5
   53C
  8
0
  6
CONTINUOUS
 62
     1
 10
-624.607885584235
 20
-90.4452205598354
 30
0.0
 11
-611.712484406003
 21
-90.4452205598354
 31
0.0
  0
LINE
  5
   53D
  8
0
  6
CONTINUOUS
 62
     1
 10
-618.676453184653
 20
-116.09522094205
 30
0.0
 11
-611.712484406003
 21
-116.09522094205
 31
0.0
  0
LINE
  5
   53E
  8
0
  6
CONTINUOUS
 62
     1
 10
-613.712484406003
 20
-90.4452205598354
 30
0.0
 11
-613.712484406003
 21
-116.09522094205
 31
0.0
  0
LINE
  5
   53F
  8
0
  6
CONTINUOUS
 62
     1
 10
-613.191539976052
 20
-93.3996438370424
 30
0.0
 11
-613.712484406003
 21
-90.4452205598354
 31
0.0
  0
LINE
  5
   540
  8
0
  6
CONTINUOUS
 62
     1
 10
-613.712484406003
 20
-90.4452205598354
 30
0.0
 11
-614.233428835955
 21
-93.3996438370424
 31
0.0
  0
LINE
  5
   541
  8
0
  6
CONTINUOUS
 62
     1
 10
-614.233428835955
 20
-113.140797664843
 30
0.0
 11
-613.712484406003
 21
-116.09522094205
 31
0.0
  0
LINE
  5
   542
  8
0
  6
CONTINUOUS
 62
     1
 10
-613.712484406003
 20
-116.09522094205
 30
0.0
 11
-613.191539976052
 21
-113.140797664843
 31
0.0
  0
ENDBLK
  5
   543
  8
0
  6
CONTINUOUS
 62
     1
  0
ENDSEC
  0
SECTION
  2
ENTITIES
  0
LINE
  5
   544
  8
0
  6
DASHDOT
 62
     3
 10
-698.877319335938
 20
-89.5935032593908
 30
0.0
 11
-698.877319335938
 21
-143.470627922867
 31
0.0
  0
LINE
  5
   545
  8
0
  6
DASHDOT
 62
     3
 10
-689.323289118596
 20
-95.0452206283808
 30
0.0
 11
-708.75865420513
 21
-95.0452206283808
 31
0.0
  0
LINE
  5
   546
  8
0
  6
DASHDOT
 62
     3
 10
-688.923813339337
 20
-137.84522126615
 30
0.0
 11
-708.081282231605
 21
-137.84522126615
 31
0.0
  0
LINE
  5
   547
  8
0
  6
CONTINUOUS
 62
     7
 10
-687.877319172025
 20
-90.2187793675166
 30
0.0
 11
-687.877319172025
 21
-143.123267351058
 31
0.0
  0
LINE
  5
   548
  8
0
  6
CONTINUOUS
 62
     7
 10
-709.87731949985
 20
-89.9929887096748
 30
0.0
 11
-709.87731949985
 21
-142.671686035375
 31
0.0
  0
LINE
  5
   549
  8
0
  6
CONTINUOUS
 62
     7
 10
-687.065382540178
 20
-141.845221325755
 30
0.0
 11
-711.607090196365
 21
-141.845221325755
 31
0.0
  0
LINE
  5
   54A
  8
0
  6
CONTINUOUS
 62
     7
 10
-686.388010566653
 20
-91.0452205687761
 30
0.0
 11
-711.259719953531
 21
-91.0452205687761
 31
0.0
  0
CIRCLE
  5
   54B
  8
0
  6
CONTINUOUS
 62
     7
 10
-702.377319388092
 20
-95.0452206283808
 30
0.0
 40
0.550000008195639
  0
CIRCLE
  5
   54C
  8
0
  6
CONTINUOUS
 62
     7
 10
-695.377319283784
 20
-95.0452206283808
 30
0.0
 40
0.550000008195639
  0
CIRCLE
  5
   54D
  8
0
  6
CONTINUOUS
 62
     7
 10
-702.377319388092
 20
-137.84522126615
 30
0.0
 40
0.550000008195639
  0
CIRCLE
  5
   54E
  8
0
  6
CONTINUOUS
 62
     7
 10
-695.377319283784
 20
-137.84522126615
 30
0.0
 40
0.550000008195639
  0
LINE
  5
   54F
  8
0
  6
DASHDOT
 62
     3
 10
-702.377319388092
 20
-89.5935032593908
 30
0.0
 11
-702.377319388092
 21
-140.326440382175
 31
0.0
  0
LINE
  5
   550
  8
0
  6
DASHDOT
 62
     3
 10
-695.377319283784
 20
-89.5935032593908
 30
0.0
 11
-695.377319283784
 21
-140.108471425599
 31
0.0
  0
LINE
  5
   551
  8
0
  6
DASHDOT
 62
     3
 10
-682.345886778403
 20
-116.09522094205
 30
0.0
 11
-719.315367052699
 21
-116.09522094205
 31
0.0
  0
CIRCLE
  5
   552
  8
0
  6
CONTINUOUS
 62
     1
 10
-707.567596928769
 20
-140.454983367624
 30
0.0
 40
6.00000008940697E-2
  0
INSERT
  5
   553
  8
0
  6
CONTINUOUS
 62
     5
  2
*UDIM1465
 10
0.0
 20
0.0
 30
0.0
  0
TEXT
  5
   554
  8
0
  6
CONTINUOUS
 62
     7
 10
-691.783831684122
 20
-115.853240860618
 30
0.0
 40
2.99999994933605
  1
=
 50
359.999999896069
 41
0.916666607525612
 72
     2
 11
-689.583831865916
 21
-115.853240864598
 31
0.0
  0
TEXT
  5
   555
  8
0
  6
CONTINUOUS
 62
     7
 10
-705.301034644333
 20
-115.853240860618
 30
0.0
 40
2.99999994933605
  1
=
 50
359.999999896069
 41
0.916666607525612
 72
     2
 11
-703.101034826127
 21
-115.853240864598
 31
0.0
  0
TEXT
  5
   556
  8
0
  6
CONTINUOUS
 62
     7
 10
-699.739673943739
 20
-89.1812516075792
 30
0.0
 40
2.99999994933605
  1
Y
 50
359.999999896069
 41
0.916666607525612
 72
     2
 11
-697.539674125533
 21
-89.1812516115588
 31
0.0
  0
INSERT
  5
   557
  8
0
  6
CONTINUOUS
 62
     7
  2
*UDIM1466
 10
0.0
 20
0.0
 30
0.0
  0
INSERT
  5
   558
  8
0
  6
CONTINUOUS
 62
     7
  2
*UDIM1467
 10
0.0
 20
0.0
 30
0.0
  0
INSERT
  5
   559
  8
0
  6
CONTINUOUS
 62
     7
  2
*UDIM1468
 10
0.0
 20
0.0
 30
0.0
  0
TEXT
  5
   55A
  8
0
  6
CONTINUOUS
 62
     7
 10
-731.858206670925
 20
-117.309632789059
 30
0.0
 40
2.99999994933605
  1
X
 50
359.999999896069
 41
0.916666607525612
 72
     2
 11
-729.658206852719
 21
-117.309632793038
 31
0.0
  0
TEXT
  5
   55B
  8
0
  6
CONTINUOUS
 62
     7
 10
-681.281670883096
 20
-118.33363831274
 30
0.0
 40
2.99999994933605
  1
X
 50
359.999999896069
 41
0.916666607525612
 72
     2
 11
-679.08167106489
 21
-118.33363831672
 31
0.0
  0
TEXT
  5
   55C
  8
0
  6
CONTINUOUS
 62
     7
 10
-699.674922194774
 20
-148.53747901855
 30
0.0
 40
2.99999994933605
  1
Y
 50
359.999999896069
 41
0.916666607525612
 72
     2
 11
-697.474922376569
 21
-148.53747902253
 31
0.0
  0
LINE
  5
   55D
  8
0
  6
CONTINUOUS
 62
     7
 10
-560.500228881836
 20
31.2821350097656
 30
0.0
 11
-560.500228881836
 21
31.5321197509766
 31
0.0
  0
LINE
  5
   55E
  8
0
  6
CONTINUOUS
 62
     7
 10
-560.500228881836
 20
39.0321197509766
 30
0.0
 11
-560.500228881836
 21
49.0321044921875
 31
0.0
  0
LINE
  5
   55F
  8
0
  6
CONTINUOUS
 62
     7
 10
-559.250213623047
 20
31.5321197509766
 30
0.0
 11
-559.250213623047
 21
39.0321197509766
 31
0.0
  0
LINE
  5
   560
  8
0
  6
CONTINUOUS
 62
     7
 10
-559.250213623047
 20
31.5321197509766
 30
0.0
 11
-560.500228881836
 21
31.5321197509766
 31
0.0
  0
LINE
  5
   561
  8
0
  6
CONTINUOUS
 62
     7
 10
-559.250213623047
 20
39.0321197509766
 30
0.0
 11
-560.500228881836
 21
39.0321197509766
 31
0.0
  0
LINE
  5
   562
  8
0
  6
CONTINUOUS
 62
     7
 10
-559.250213623047
 20
49.0321044921875
 30
0.0
 11
-559.250213623047
 21
56.5321044921875
 31
0.0
  0
LINE
  5
   563
  8
0
  6
CONTINUOUS
 62
     7
 10
-559.250213623047
 20
49.0321044921875
 30
0.0
 11
-560.500228881836
 21
49.0321044921875
 31
0.0
  0
LINE
  5
   564
  8
0
  6
CONTINUOUS
 62
     7
 10
-559.250213623047
 20
56.5321044921875
 30
0.0
 11
-560.500228881836
 21
56.5321044921875
 31
0.0
  0
LINE
  5
   565
  8
0
  6
CONTINUOUS
 62
     7
 10
-526.250236511231
 20
31.2821197509766
 30
0.0
 11
-526.250236511231
 21
58.7821044921875
 31
0.0
  0
LINE
  5
   566
  8
0
  6
CONTINUOUS
 62
     2
 10
-549.900226245274
 20
80.0321273803711
 30
0.0
 11
-560.500213623047
 21
80.0321273803711
 31
0.0
  0
LINE
  5
   567
  8
0
  6
CONTINUOUS
 62
     2
 10
-560.500259399646
 20
58.5321044921875
 30
0.0
 11
-560.500259399646
 21
68.8394165039062
 31
0.0
  0
LINE
  5
   568
  8
0
  6
CONTINUOUS
 62
     7
 10
-524.500228881836
 20
67.5321044921875
 30
0.0
 11
-526.250228881836
 21
67.5321044921875
 31
0.0
  0
LINE
  5
   569
  8
0
  6
CONTINUOUS
 62
     7
 10
-526.250282287953
 20
58.7821001325808
 30
0.0
 11
-526.250282287953
 21
67.5321001325808
 31
0.0
  0
LINE
  5
   56A
  8
0
  6
CONTINUOUS
 62
     7
 10
-558.500228881836
 20
59.7821044921875
 30
0.0
 11
-560.500228881836
 21
59.7821044921875
 31
0.0
  0
LINE
  5
   56B
  8
0
  6
CONTINUOUS
 62
     7
 10
-558.500227610453
 20
59.7820981439511
 30
0.0
 11
-558.500225056086
 21
60.7865164361561
 31
0.0
  0
LINE
  5
   56C
  8
0
  6
CONTINUOUS
 62
     7
 10
-526.250236511231
 20
26.5321273803711
 30
0.0
 11
-526.250236511231
 21
31.2821350097656
 31
0.0
  0
LINE
  5
   56D
  8
0
  6
CONTINUOUS
 62
     7
 10
-560.500223782175
 20
-3.96785990100434
 30
0.0
 11
-560.500208523386
 21
-3.82074234583573
 31
0.0
  0
LINE
  5
   56E
  8
0
  6
CONTINUOUS
 62
     7
 10
-560.500213623187
 20
3.88502075952943
 30
0.0
 11
-560.500213623187
 21
31.282130744881
 31
0.0
  0
LINE
  5
   56F
  8
0
  6
CONTINUOUS
 62
     7
 10
-525.000228881836
 20
2.78213500976563
 30
0.0
 11
-559.000245666505
 21
2.78213500976563
 31
0.0
  0
LINE
  5
   570
  8
0
  6
CONTINUOUS
 62
     7
 10
-525.000228881836
 20
-2.71786499023438
 30
0.0
 11
-559.000245666505
 21
-2.71786499023438
 31
0.0
  0
LINE
  5
   571
  8
0
  6
CONTINUOUS
 62
     7
 10
-556.384199383711
 20
2.782140094377
 30
0.0
 11
-560.500211780716
 21
3.88502580744542
 31
0.0
  0
LINE
  5
   572
  8
0
  6
CONTINUOUS
 62
     7
 10
-560.500209473725
 20
-3.82074662027074
 30
0.0
 11
-556.384196981947
 21
-2.71786445587457
 31
0.0
  0
LINE
  5
   573
  8
0
  6
CONTINUOUS
 62
     7
 10
-524.500236511231
 20
4.28213500976563
 30
0.0
 11
-528.500236511231
 21
4.28213500976563
 31
0.0
  0
LINE
  5
   574
  8
0
  6
CONTINUOUS
 62
     7
 10
-528.500236511231
 20
4.28213500976563
 30
0.0
 11
-528.500236511231
 21
25.5321273803711
 31
0.0
  0
LINE
  5
   575
  8
0
  6
CONTINUOUS
 62
     7
 10
-560.000213623047
 20
0.282135009765625
 30
0.0
 11
-560.000213623047
 21
3.75104522705078
 31
0.0
  0
LINE
  5
   576
  8
0
  6
CONTINUOUS
 62
     7
 10
-560.000220665547
 20
-3.68677023685369
 30
0.0
 11
-560.000213036159
 21
-3.21786001778077
 31
0.0
  0
LINE
  5
   577
  8
0
  6
CONTINUOUS
 62
     2
 10
-560.500213623047
 20
4.28213500976563
 30
0.0
 11
-561.500213623047
 21
4.28213500976563
 31
0.0
  0
LINE
  5
   578
  8
0
  6
CONTINUOUS
 62
     2
 10
-560.500213623047
 20
7.03213500976563
 30
0.0
 11
-561.500213623047
 21
7.03213500976563
 31
0.0
  0
LINE
  5
   579
  8
0
  6
CONTINUOUS
 62
     7
 10
-524.500247316229
 20
-3.21784547713771
 30
0.0
 11
-525.000239670537
 21
-2.71785312283016
 31
0.0
  0
LINE
  5
   57A
  8
0
  6
CONTINUOUS
 62
     7
 10
-525.000235200099
 20
2.78213571074394
 30
0.0
 11
-524.500235217213
 21
3.28213569362964
 31
0.0
  0
LINE
  5
   57B
  8
0
  6
CONTINUOUS
 62
     7
 10
-526.250236511231
 20
25.5321273803711
 30
0.0
 11
-526.250236511231
 21
26.5321273803711
 31
0.0
  0
LINE
  5
   57C
  8
0
  6
CONTINUOUS
 62
     2
 10
-559.500213623047
 20
-12.9678497314447
 30
0.0
 11
-561.500213623047
 21
-12.9678497314447
 31
0.0
  0
LINE
  5
   57D
  8
0
  6
CONTINUOUS
 62
     7
 10
-560.500228881836
 20
-5.96786499023438
 30
0.0
 11
-560.500228881836
 21
-3.96786499023438
 31
0.0
  0
LINE
  5
   57E
  8
0
  6
CONTINUOUS
 62
     7
 10
-524.500236511231
 20
-10.4678497314453
 30
0.0
 11
-529.500228881836
 21
-10.4678497314453
 31
0.0
  0
LINE
  5
   57F
  8
0
  6
CONTINUOUS
 62
     7
 10
-529.500228881836
 20
-12.9678497314453
 30
0.0
 11
-529.500228881836
 21
-10.4678497314453
 31
0.0
  0
LINE
  5
   580
  8
0
  6
CONTINUOUS
 62
     7
 10
-560.500228881836
 20
-11.717840271014
 30
0.0
 11
-560.500228881836
 21
-5.96786499023438
 31
0.0
  0
LINE
  5
   581
  8
0
  6
CONTINUOUS
 62
     2
 10
-560.500228881836
 20
58.5321044921875
 30
0.0
 11
-560.750213623047
 21
58.5321044921875
 31
0.0
  0
LINE
  5
   582
  8
0
  6
CONTINUOUS
 62
     7
 10
-560.500221252441
 20
23.2821350097656
 30
0.0
 11
-560.750213623047
 21
23.2821350097656
 31
0.0
  0
LINE
  5
   583
  8
0
  6
CONTINUOUS
 62
     7
 10
-560.500213623047
 20
7.28213691711426
 30
0.0
 11
-560.750213623047
 21
7.28213691711426
 31
0.0
  0
LINE
  5
   584
  8
0
  6
CONTINUOUS
 62
     7
 10
-560.000213623047
 20
3.53213548660278
 30
0.0
 11
-560.750213623047
 21
3.53213548660278
 31
0.0
  0
LINE
  5
   585
  8
0
  6
CONTINUOUS
 62
     7
 10
-560.500228881836
 20
-4.46785736083984
 30
0.0
 11
-560.750213623047
 21
-4.46785736083984
 31
0.0
  0
LINE
  5
   586
  8
0
  6
CONTINUOUS
 62
     2
 10
-560.750213623047
 20
-11.2678449559891
 30
0.0
 11
-560.750213623047
 21
4.28212738037109
 31
0.0
  0
LINE
  5
   587
  8
0
  6
CONTINUOUS
 62
     2
 10
-560.750213623047
 20
7.03212738037109
 30
0.0
 11
-560.750213623047
 21
58.532096862793
 31
0.0
  0
LINE
  5
   588
  8
0
  6
CONTINUOUS
 62
     7
 10
-560.000213623047
 20
49.0321273803711
 30
0.0
 11
-560.000213623047
 21
56.5321044921875
 31
0.0
  0
LINE
  5
   589
  8
0
  6
CONTINUOUS
 62
     7
 10
-560.000213623047
 20
31.5321502685547
 30
0.0
 11
-560.000213623047
 21
39.0321426391602
 31
0.0
  0
LINE
  5
   58A
  8
0
  6
CONTINUOUS
 62
     7
 10
-560.000213623047
 20
-3.21782684326172
 30
0.0
 11
-560.000213623047
 21
0.282173156738281
 31
0.0
  0
LINE
  5
   58B
  8
0
  6
CONTINUOUS
 62
     2
 10
-560.550217527563
 20
-11.467841051473
 30
0.0
 11
-560.7502144735
 21
-11.2678441055361
 31
0.0
  0
LINE
  5
   58C
  8
0
  6
CONTINUOUS
 62
     2
 10
-560.500213623047
 20
66.5321044921875
 30
0.0
 11
-561.500213623047
 21
66.5321044921875
 31
0.0
  0
LINE
  5
   58D
  8
0
  6
CONTINUOUS
 62
     2
 10
-560.500213623047
 20
72.0321044921875
 30
0.0
 11
-561.500213623047
 21
72.0321044921875
 31
0.0
  0
LINE
  5
   58E
  8
0
  6
CONTINUOUS
 62
     2
 10
-560.500213623047
 20
70.6879272460938
 30
0.0
 11
-561.500213623047
 21
70.6879272460938
 31
0.0
  0
LINE
  5
   58F
  8
0
  6
CONTINUOUS
 62
     2
 10
-560.500213623047
 20
68.8394165039063
 30
0.0
 11
-561.500213623047
 21
68.8394165039063
 31
0.0
  0
LINE
  5
   590
  8
0
  6
CONTINUOUS
 62
     7
 10
-526.000244140626
 20
32.7821024035454
 30
0.0
 11
-526.000244140626
 21
60.032125291729
 31
0.0
  0
LINE
  5
   591
  8
0
  6
CONTINUOUS
 62
     7
 10
-512.000267028814
 20
68.0321190389122
 30
0.0
 11
-512.000267028814
 21
80.0321190389123
 31
0.0
  0
LINE
  5
   592
  8
0
  6
CONTINUOUS
 62
     7
 10
-512.000228881836
 20
68.0321215820136
 30
0.0
 11
-512.250228881836
 21
68.0321215820136
 31
0.0
  0
LINE
  5
   593
  8
0
  6
CONTINUOUS
 62
     7
 10
-512.250228881836
 20
67.7821215820136
 30
0.0
 11
-512.250228881836
 21
68.0321215820136
 31
0.0
  0
LINE
  5
   594
  8
0
  6
CONTINUOUS
 62
     7
 10
-524.500228881836
 20
67.2821139526191
 30
0.0
 11
-524.500228881836
 21
67.7821215820136
 31
0.0
  0
LINE
  5
   595
  8
0
  6
CONTINUOUS
 62
     7
 10
-512.000225067144
 20
80.0321368407945
 30
0.0
 11
-524.500225067144
 21
80.0321368407945
 31
0.0
  0
LINE
  5
   596
  8
0
  6
CONTINUOUS
 62
     7
 10
-513.250228881836
 20
67.7821215820136
 30
0.0
 11
-513.400230407715
 21
67.7821215820136
 31
0.0
  0
LINE
  5
   597
  8
0
  6
CONTINUOUS
 62
     7
 10
-524.500228881836
 20
67.2821292114081
 30
0.0
 11
-526.000228881836
 21
67.2821292114081
 31
0.0
  0
LINE
  5
   598
  8
0
  6
CONTINUOUS
 62
     7
 10
-526.000228881836
 20
60.0321292114081
 30
0.0
 11
-526.000228881836
 21
67.2821292114081
 31
0.0
  0
LINE
  5
   599
  8
0
  6
CONTINUOUS
 62
     7
 10
-524.50025177002
 20
-9.96786315919734
 30
0.0
 11
-524.50025177002
 21
-6.32955749513484
 31
0.0
  0
LINE
  5
   59A
  8
0
  6
CONTINUOUS
 62
     7
 10
-526.000236511231
 20
26.7821215820136
 30
0.0
 11
-526.000236511231
 21
32.7821063232245
 31
0.0
  0
LINE
  5
   59B
  8
0
  6
CONTINUOUS
 62
     7
 10
-526.000236511231
 20
25.5321063232245
 30
0.0
 11
-526.500236511231
 21
25.5321063232245
 31
0.0
  0
LINE
  5
   59C
  8
0
  6
CONTINUOUS
 62
     7
 10
-513.400246044522
 20
-11.4678479003976
 30
0.0
 11
-524.500252148038
 21
-11.4678479003976
 31
0.0
  0
LINE
  5
   59D
  8
0
  6
CONTINUOUS
 62
     7
 10
-524.50025177002
 20
-11.4678631591973
 30
0.0
 11
-524.50025177002
 21
-9.96786315919734
 31
0.0
  0
LINE
  5
   59E
  8
0
  6
CONTINUOUS
 62
     7
 10
-524.500244140625
 20
-6.32955749513484
 30
0.0
 11
-524.500244140625
 21
-2.8428585540556
 31
0.0
  0
LINE
  5
   59F
  8
0
  6
CONTINUOUS
 62
     7
 10
-513.25025177002
 20
-12.9678707885919
 30
0.0
 11
-513.25025177002
 21
-11.4678707885919
 31
0.0
  0
LINE
  5
   5A0
  8
0
  6
CONTINUOUS
 62
     7
 10
-513.25025177002
 20
-11.4678707885919
 30
0.0
 11
-513.400245636702
 21
-11.4678707885919
 31
0.0
  0
LINE
  5
   5A1
  8
0
  6
CONTINUOUS
 62
     7
 10
-526.500236511231
 20
25.5321063232245
 30
0.0
 11
-528.500236511231
 21
25.5321063232245
 31
0.0
  0
LINE
  5
   5A2
  8
0
  6
CONTINUOUS
 62
     7
 10
-526.000236511231
 20
25.5321063232245
 30
0.0
 11
-526.000236511231
 21
26.7821215820136
 31
0.0
  0
LINE
  5
   5A3
  8
0
  6
CONTINUOUS
 62
     7
 10
-513.400247745681
 20
-2.84284790039968
 30
0.0
 11
-524.500246219802
 21
-2.84284790039968
 31
0.0
  0
LINE
  5
   5A4
  8
0
  6
CONTINUOUS
 62
     7
 10
-513.400251422912
 20
2.90715209959895
 30
0.0
 11
-524.500249897033
 21
2.90715209959895
 31
0.0
  0
LINE
  5
   5A5
  8
0
  6
CONTINUOUS
 62
     7
 10
-523.850731416964
 20
-9.59285460086782
 30
0.0
 11
-523.75025230673
 21
-9.21785460604487
 31
0.0
  0
LINE
  5
   5A6
  8
0
  6
CONTINUOUS
 62
     7
 10
-524.125247099079
 20
-9.86737913359727
 30
0.0
 11
-523.850733872579
 21
-9.5928582708782
 31
0.0
  0
LINE
  5
   5A7
  8
0
  6
CONTINUOUS
 62
     7
 10
-524.500260412718
 20
-9.96785144135737
 30
0.0
 11
-524.125252798445
 21
-9.86737232347597
 31
0.0
  0
LINE
  5
   5A8
  8
0
  6
CONTINUOUS
 62
     7
 10
-524.125248620561
 20
-4.06834119695034
 30
0.0
 11
-524.500248617812
 21
-3.96785445042308
 31
0.0
  0
LINE
  5
   5A9
  8
0
  6
CONTINUOUS
 62
     7
 10
-523.85073603022
 20
-4.3428586256594
 30
0.0
 11
-524.12524926054
 21
-4.06834539533936
 31
0.0
  0
LINE
  5
   5AA
  8
0
  6
CONTINUOUS
 62
     7
 10
-523.750257496651
 20
-4.71785793049325
 30
0.0
 11
-523.850744243179
 21
-4.34285793324285
 31
0.0
  0
LINE
  5
   5AB
  8
0
  6
CONTINUOUS
 62
     7
 10
-523.750256008555
 20
-9.21786019087982
 30
0.0
 11
-523.750248379161
 21
-4.71786019087982
 31
0.0
  0
LINE
  5
   5AC
  8
0
  6
CONTINUOUS
 62
     7
 10
-513.400245666505
 20
-11.4678707885919
 30
0.0
 11
-513.400245666505
 21
67.782115325621
 31
0.0
  0
LINE
  5
   5AD
  8
0
  6
CONTINUOUS
 62
     7
 10
-513.40022277832
 20
78.6321276855292
 30
0.0
 11
-524.208951631904
 21
78.6321276855292
 31
0.0
  0
LINE
  5
   5AE
  8
0
  6
CONTINUOUS
 62
     7
 10
-513.400276184089
 20
67.7821181365306
 30
0.0
 11
-513.400276184089
 21
78.6321242400462
 31
0.0
  0
LINE
  5
   5AF
  8
0
  6
CONTINUOUS
 62
     7
 10
-524.500228881836
 20
67.7821292114081
 30
0.0
 11
-524.500228881836
 21
77.9894385276148
 31
0.0
  0
LINE
  5
   5B0
  8
0
  6
CONTINUOUS
 62
     7
 10
-505.250221252441
 20
-8.84284027101375
 30
0.0
 11
-505.250221252441
 21
0.407142639160156
 31
0.0
  0
LINE
  5
   5B1
  8
0
  6
CONTINUOUS
 62
     7
 10
-505.250221252441
 20
42.5321444701972
 30
0.0
 11
-505.250221252441
 21
42.6571444701972
 31
0.0
  0
LINE
  5
   5B2
  8
0
  6
CONTINUOUS
 62
     7
 10
-508.000218391419
 20
43.6571444701972
 30
0.0
 11
-509.750221252441
 21
43.6571444701972
 31
0.0
  0
LINE
  5
   5B3
  8
0
  6
CONTINUOUS
 62
     7
 10
-508.000218391419
 20
-8.84284027101375
 30
0.0
 11
-509.750221252441
 21
-8.84284027101375
 31
0.0
  0
LINE
  5
   5B4
  8
0
  6
CONTINUOUS
 62
     7
 10
-513.250221252441
 20
-16.9678402710137
 30
0.0
 11
-513.250221252441
 21
-11.4678707885919
 31
0.0
  0
LINE
  5
   5B5
  8
0
  6
CONTINUOUS
 62
     7
 10
-510.750221252442
 20
-16.9678402710137
 30
0.0
 11
-510.750221252442
 21
-8.84284027101375
 31
0.0
  0
LINE
  5
   5B6
  8
0
  6
CONTINUOUS
 62
     7
 10
-510.750221252442
 20
43.6571444701972
 30
0.0
 11
-510.750221252442
 21
67.7821444701972
 31
0.0
  0
LINE
  5
   5B7
  8
0
  6
CONTINUOUS
 62
     7
 10
-510.750221252442
 20
67.7821444701972
 30
0.0
 11
-513.250221252441
 21
67.7821444701972
 31
0.0
  0
LINE
  5
   5B8
  8
0
  6
CONTINUOUS
 62
     7
 10
-510.750221252442
 20
-16.9678402710137
 30
0.0
 11
-513.250221252441
 21
-16.9678402710137
 31
0.0
  0
LINE
  5
   5B9
  8
0
  6
CONTINUOUS
 62
     7
 10
-509.750221252441
 20
-8.84284027101375
 30
0.0
 11
-509.750221252441
 21
43.6571444701972
 31
0.0
  0
LINE
  5
   5BA
  8
0
  6
CONTINUOUS
 62
     7
 10
-509.750221252441
 20
-8.84284027101375
 30
0.0
 11
-510.750221252442
 21
-8.84284027101375
 31
0.0
  0
LINE
  5
   5BB
  8
0
  6
CONTINUOUS
 62
     7
 10
-509.750221252441
 20
43.6571444701972
 30
0.0
 11
-510.750221252442
 21
43.6571444701972
 31
0.0
  0
LINE
  5
   5BC
  8
0
  6
CONTINUOUS
 62
     7
 10
-513.400257246619
 20
3.18212153361677
 30
0.0
 11
-513.250255727696
 21
3.19524409060416
 31
0.0
  0
LINE
  5
   5BD
  8
0
  6
CONTINUOUS
 62
     7
 10
-513.25022994166
 20
-3.13099118193862
 30
0.0
 11
-513.400231464778
 21
-3.11786099553225
 31
0.0
  0
LINE
  5
   5BE
  8
0
  6
CONTINUOUS
 62
     7
 10
-524.500244140625
 20
2.90714144594576
 30
0.0
 11
-524.500244140625
 21
4.28212158201359
 31
0.0
  0
LINE
  5
   5BF
  8
0
  6
CONTINUOUS
 62
     7
 10
-513.400223255158
 20
-45.5678406524837
 30
0.0
 11
-537.200462399293
 21
-45.5678406524837
 31
0.0
  0
LINE
  5
   5C0
  8
0
  6
CONTINUOUS
 62
     2
 10
-559.500213623047
 20
-11.717840271014
 30
0.0
 11
-561.500213623047
 21
-11.717840271014
 31
0.0
  0
LINE
  5
   5C1
  8
0
  6
CONTINUOUS
 62
     7
 10
-513.400215148926
 20
-11.717840271014
 30
0.0
 11
-522.000221252441
 21
-11.717840271014
 31
0.0
  0
LINE
  5
   5C2
  8
0
  6
CONTINUOUS
 62
   218
 10
-512.000213623047
 20
-46.967840271014
 30
0.0
 11
-512.000213623047
 21
-34.9678479004085
 31
0.0
  0
LINE
  5
   5C3
  8
0
  6
CONTINUOUS
 62
     2
 10
-559.500213623047
 20
-12.967840271014
 30
0.0
 11
-559.500213623047
 21
-11.717840271014
 31
0.0
  0
LINE
  5
   5C4
  8
0
  6
CONTINUOUS
 62
   218
 10
-513.400219250295
 20
-32.9678479008563
 30
0.0
 11
-513.250221252831
 21
-32.9678461402545
 31
0.0
  0
LINE
  5
   5C5
  8
0
  6
CONTINUOUS
 62
   218
 10
-512.000213623047
 20
-34.9678479004085
 30
0.0
 11
-513.400215148926
 21
-34.9678479004085
 31
0.0
  0
LINE
  5
   5C6
  8
0
  6
CONTINUOUS
 62
     7
 10
-513.400215148926
 20
-45.5678387451351
 30
0.0
 11
-513.400215148926
 21
-32.967840271014
 31
0.0
  0
LINE
  5
   5C7
  8
0
  6
CONTINUOUS
 62
   218
 10
-513.400215148926
 20
-32.967840271014
 30
0.0
 11
-513.400215148926
 21
-11.717840271014
 31
0.0
  0
LINE
  5
   5C8
  8
0
  6
CONTINUOUS
 62
     7
 10
-513.250221252441
 20
-17.467840271014
 30
0.0
 11
-513.400215148926
 21
-17.467840271014
 31
0.0
  0
LINE
  5
   5C9
  8
0
  6
CONTINUOUS
 62
   218
 10
-561.500213623089
 20
-29.9678478999138
 30
0.0
 11
-560.500214099949
 21
-29.9678402705192
 31
0.0
  0
LINE
  5
   5CA
  8
0
  6
CONTINUOUS
 62
   218
 10
-560.500214099884
 20
-43.8178981998736
 30
0.0
 11
-560.500214099884
 21
-29.9678479004083
 31
0.0
  0
LINE
  5
   5CB
  8
0
  6
CONTINUOUS
 62
   218
 10
-560.500213623047
 20
-35.3428479004085
 30
0.0
 11
-561.500213623047
 21
-35.3428479004085
 31
0.0
  0
LINE
  5
   5CC
  8
0
  6
CONTINUOUS
 62
     7
 10
-524.500226973411
 20
-11.717840268293
 30
0.0
 11
-524.500219344016
 21
-10.7178402682702
 31
0.0
  0
LINE
  5
   5CD
  8
0
  6
CONTINUOUS
 62
     7
 10
-524.500213623047
 20
-10.717840271014
 30
0.0
 11
-529.500213623047
 21
-10.717840271014
 31
0.0
  0
LINE
  5
   5CE
  8
0
  6
CONTINUOUS
 62
     7
 10
-522.000221252441
 20
-11.717840271014
 30
0.0
 11
-524.500221252442
 21
-11.717840271014
 31
0.0
  0
LINE
  5
   5CF
  8
0
  6
CONTINUOUS
 62
   218
 10
-560.500213623047
 20
-39.7016435432613
 30
0.0
 11
-561.500213623047
 21
-39.7016435432613
 31
0.0
  0
LINE
  5
   5D0
  8
0
  6
CONTINUOUS
 62
   218
 10
-560.500213623047
 20
-38.4751492309749
 30
0.0
 11
-561.500213623047
 21
-38.4751492309749
 31
0.0
  0
LINE
  5
   5D1
  8
0
  6
CONTINUOUS
 62
   218
 10
-560.500213623047
 20
-35.4067364502132
 30
0.0
 11
-561.500213623047
 21
-35.4067364502132
 31
0.0
  0
LINE
  5
   5D2
  8
0
  6
CONTINUOUS
 62
     7
 10
-510.750221252442
 20
-17.2178402710137
 30
0.0
 11
-513.250221252441
 21
-17.2178402710137
 31
0.0
  0
LINE
  5
   5D3
  8
0
  6
CONTINUOUS
 62
     7
 10
-510.750221252442
 20
-34.7178402710137
 30
0.0
 11
-513.250221252441
 21
-34.7178402710137
 31
0.0
  0
LINE
  5
   5D4
  8
0
  6
CONTINUOUS
 62
     7
 10
-510.750221252442
 20
-34.7178402710137
 30
0.0
 11
-510.750221252442
 21
-17.2178402710137
 31
0.0
  0
LINE
  5
   5D5
  8
0
  6
CONTINUOUS
 62
     7
 10
-511.750221252441
 20
-34.7178402710137
 30
0.0
 11
-511.750221252441
 21
-17.2178402710137
 31
0.0
  0
LINE
  5
   5D6
  8
0
  6
CONTINUOUS
 62
     7
 10
-513.250221252441
 20
-34.7178402710137
 30
0.0
 11
-513.250221252441
 21
-17.2178402710137
 31
0.0
  0
ARC
  5
   5D7
  8
0
  6
CONTINUOUS
 62
     7
 10
-494.912694867185
 20
6.38521899645478
 30
0.0
 40
0.499999897877905
 50
348.623573369035
 51
436.688788706936
  0
ARC
  5
   5D8
  8
0
  6
CONTINUOUS
 62
     7
 10
-495.511067067103
 20
3.41131001245593
 30
0.0
 40
0.50000037262337
 50
260.593992196011
 51
348.623573369035
  0
LINE
  5
   5D9
  8
0
  6
DASHDOT
 62
     7
 10
-487.512402541411
 20
3.33088835855754
 30
0.0
 11
-512.570745775865
 21
8.37280852645578
 31
0.0
  0
LINE
  5
   5DA
  8
0
  6
CONTINUOUS
 62
     7
 10
-494.797574894838
 20
6.87178546615348
 30
0.0
 11
-505.250221252442
 21
9.34484605412533
 31
0.0
  0
LINE
  5
   5DB
  8
0
  6
CONTINUOUS
 62
     7
 10
-495.020890622223
 20
3.31268296117243
 30
0.0
 11
-494.422518586598
 21
6.28659197822812
 31
0.0
  0
LINE
  5
   5DC
  8
0
  6
CONTINUOUS
 62
     7
 10
-495.592781805697
 20
2.91803228958454
 30
0.0
 11
-505.250221252442
 21
4.51785142448584
 31
0.0
  0
LINE
  5
   5DD
  8
0
  6
CONTINUOUS
 62
     7
 10
-559.000245666505
 20
-2.71786499023438
 30
0.0
 11
-559.000245666505
 21
2.78213500976563
 31
0.0
  0
LINE
  5
   5DE
  8
0
  6
CONTINUOUS
 62
     7
 10
-549.0002252916
 20
76.0321273803711
 30
0.0
 11
-551.5002252916
 21
76.0321273803711
 31
0.0
  0
LINE
  5
   5DF
  8
0
  6
DASHDOT
 62
     7
 10
-541.148254805124
 20
71.0321529606158
 30
0.0
 11
-555.214896822562
 21
71.0321529606158
 31
0.0
  0
LINE
  5
   5E0
  8
0
  6
CONTINUOUS
 62
     7
 10
-549.000226245274
 20
73.0321529606158
 30
0.0
 11
-551.5002252916
 21
73.0321529606158
 31
0.0
  0
LINE
  5
   5E1
  8
0
  6
CONTINUOUS
 62
     7
 10
-549.000226245274
 20
69.0321529606158
 30
0.0
 11
-551.5002252916
 21
69.0321529606158
 31
0.0
  0
LINE
  5
   5E2
  8
0
  6
CONTINUOUS
 62
     7
 10
-544.373878418086
 20
60.7865164309861
 30
0.0
 11
-542.102450354376
 21
65.7983125457521
 31
0.0
  0
LINE
  5
   5E3
  8
0
  6
CONTINUOUS
 62
     7
 10
-549.000226245274
 20
60.7865164309862
 30
0.0
 11
-549.000226245274
 21
76.0321273803711
 31
0.0
  0
LINE
  5
   5E4
  8
0
  6
CONTINUOUS
 62
     7
 10
-551.5002252916
 20
60.7865164309862
 30
0.0
 11
-551.5002252916
 21
69.0321529606158
 31
0.0
  0
LINE
  5
   5E5
  8
0
  6
CONTINUOUS
 62
     2
 10
-560.500259399646
 20
70.6879272460937
 30
0.0
 11
-560.500259399646
 21
80.0321268418315
 31
0.0
  0
LINE
  5
   5E6
  8
0
  6
CONTINUOUS
 62
     7
 10
-542.223089829915
 20
65.5321273803711
 30
0.0
 11
-549.000226245274
 21
65.5321273803711
 31
0.0
  0
INSERT
  5
   5E7
  8
0
  6
CONTINUOUS
 62
     7
  2
*HATCH1035
 10
-510.000244140625
 20
-37.5863952636719
 30
0.0
 41
0.5
 42
0.5
 50
89.9999999480344
 43
0.5
  0
LINE
  5
   5E8
  8
0
  6
CONTINUOUS
 62
     7
 10
-543.129522578452
 20
63.5321273803711
 30
0.0
 11
-549.000226245274
 21
63.5321273803711
 31
0.0
  0
INSERT
  5
   5E9
  8
0
  6
CONTINUOUS
 62
     7
  2
*HATCH1036
 10
-510.000244140625
 20
-37.5863952636719
 30
0.0
 41
0.5
 42
0.5
 50
89.9999999480344
 43
0.5
  0
LINE
  5
   5EA
  8
0
  6
CONTINUOUS
 62
     2
 10
-524.500244140625
 20
80.0321273803711
 30
0.0
 11
-541.900226245274
 21
80.0321273803711
 31
0.0
  0
LINE
  5
   5EB
  8
0
  6
DASHDOT
 62
     7
 10
-561.500213623047
 20
-43.8178981998736
 30
0.0
 11
-561.500213623047
 21
88.588232531828
 31
0.0
  0
LINE
  5
   5EC
  8
0
  6
DASHDOT
 62
     7
 10
-563.000213623047
 20
-43.8178981998736
 30
0.0
 11
-563.000213623047
 21
88.588232531828
 31
0.0
  0
LINE
  5
   5ED
  8
0
  6
CONTINUOUS
 62
     7
 10
-559.93535299748
 20
88.588232531828
 30
0.0
 11
-565.004248869508
 21
88.588232531828
 31
0.0
  0
ARC
  5
   5EE
  8
0
  6
CONTINUOUS
 62
     7
 10
-532.000221252441
 20
12.2821597289863
 30
0.0
 40
38.0220413050115
 50
333.082565820193
 51
379.93594827737
  0
LINE
  5
   5EF
  8
0
  6
CONTINUOUS
 62
     7
 10
-493.97817994743
 20
12.2821597289862
 30
0.0
 11
-493.97817994743
 21
33.9567992444185
 31
0.0
  0
LINE
  5
   5F0
  8
0
  6
CONTINUOUS
 62
     7
 10
-544.373878418086
 20
60.7865164309862
 30
0.0
 11
-562.704298504161
 21
60.7865164309862
 31
0.0
  0
INSERT
  5
   5F1
  8
0
  6
CONTINUOUS
 62
     7
  2
*HATCH1037
 10
-510.000244140625
 20
-37.5863952636719
 30
0.0
 41
0.5
 42
0.5
 50
89.9999999480344
 43
0.5
  0
LINE
  5
   5F2
  8
0
  6
CONTINUOUS
 62
     7
 10
-551.5002252916
 20
62.2821273803711
 30
0.0
 11
-554.0002252916
 21
62.2821273803711
 31
0.0
  0
LINE
  5
   5F3
  8
0
  6
CONTINUOUS
 62
     7
 10
-555.495836240985
 20
60.7865164309862
 30
0.0
 11
-554.0002252916
 21
62.282127380371
 31
0.0
  0
INSERT
  5
   5F4
  8
0
  6
CONTINUOUS
 62
     7
  2
*HATCH1038
 10
-510.000244140625
 20
-37.5863952636719
 30
0.0
 41
0.5
 42
0.5
 50
89.9999999480344
 43
0.5
  0
LINE
  5
   5F5
  8
0
  6
DASHDOT
 62
     7
 10
-541.148254805124
 20
-37.9678981998736
 30
0.0
 11
-555.214896822562
 21
-37.9678981998736
 31
0.0
  0
LINE
  5
   5F6
  8
0
  6
CONTINUOUS
 62
     7
 10
-549.0002252916
 20
-42.9678726196289
 30
0.0
 11
-551.5002252916
 21
-42.9678726196289
 31
0.0
  0
LINE
  5
   5F7
  8
0
  6
CONTINUOUS
 62
     7
 10
-551.5002252916
 20
-42.9678726196289
 30
0.0
 11
-551.5002252916
 21
-27.722261670244
 31
0.0
  0
LINE
  5
   5F8
  8
0
  6
CONTINUOUS
 62
     7
 10
-549.000226245274
 20
-35.9678981998736
 30
0.0
 11
-551.5002252916
 21
-35.9678981998736
 31
0.0
  0
LINE
  5
   5F9
  8
0
  6
CONTINUOUS
 62
     7
 10
-549.000226245274
 20
-39.9678981998736
 30
0.0
 11
-551.5002252916
 21
-39.9678981998736
 31
0.0
  0
LINE
  5
   5FA
  8
0
  6
CONTINUOUS
 62
     7
 10
-549.000226245274
 20
-42.9678726196289
 30
0.0
 11
-549.000226245274
 21
-39.9678981998736
 31
0.0
  0
LINE
  5
   5FB
  8
0
  6
CONTINUOUS
 62
     7
 10
-541.068597933169
 20
-27.722261670244
 30
0.0
 11
-566.054498040371
 21
-27.722261670244
 31
0.0
  0
LINE
  5
   5FC
  8
0
  6
CONTINUOUS
 62
     7
 10
-536.388576396062
 20
-48.5235302198026
 30
0.0
 11
-542.306289579346
 21
-26.979960003531
 31
0.0
  0
INSERT
  5
   5FD
  8
0
  6
CONTINUOUS
 62
     7
  2
*HATCH1039
 10
-510.000244140625
 20
-37.5863952636719
 30
0.0
 41
0.5
 42
0.5
 50
89.9999999480344
 43
0.5
  0
INSERT
  5
   5FE
  8
0
  6
CONTINUOUS
 62
     7
  2
*HATCH1040
 10
-510.000244140625
 20
-37.5863952636719
 30
0.0
 41
0.5
 42
0.5
 50
89.9999999480344
 43
0.5
  0
LINE
  5
   5FF
  8
0
  6
CONTINUOUS
 62
     7
 10
-551.5002252916
 20
-30.4678981998736
 30
0.0
 11
-560.500214099884
 21
-30.4678981998736
 31
0.0
  0
LINE
  5
   600
  8
0
  6
CONTINUOUS
 62
     7
 10
-551.5002252916
 20
-28.4678981998736
 30
0.0
 11
-561.500213623047
 21
-28.4678981998736
 31
0.0
  0
LINE
  5
   601
  8
0
  6
CONTINUOUS
 62
     7
 10
-540.798830792918
 20
-32.4678981998736
 30
0.0
 11
-549.000226245274
 21
-32.4678981998736
 31
0.0
  0
INSERT
  5
   602
  8
0
  6
CONTINUOUS
 62
     7
  2
*HATCH1041
 10
-510.000244140625
 20
-37.5863952636719
 30
0.0
 41
0.5
 42
0.5
 50
89.9999999480344
 43
0.5
  0
LINE
  5
   603
  8
0
  6
CONTINUOUS
 62
     7
 10
-541.348202426671
 20
-30.4678981998736
 30
0.0
 11
-549.000226245274
 21
-30.4678981998736
 31
0.0
  0
INSERT
  5
   604
  8
0
  6
CONTINUOUS
 62
     7
  2
*HATCH1042
 10
-510.000244140625
 20
-37.5863952636719
 30
0.0
 41
0.5
 42
0.5
 50
89.9999999480344
 43
0.5
  0
LINE
  5
   605
  8
0
  6
CONTINUOUS
 62
     7
 10
-529.500228881836
 20
-12.9678497314447
 30
0.0
 11
-559.500213623047
 21
-12.9678497314447
 31
0.0
  0
LINE
  5
   606
  8
0
  6
CONTINUOUS
 62
     7
 10
-505.250221252441
 20
24.1571426391602
 30
0.0
 11
-505.250221252441
 21
43.6571444701972
 31
0.0
  0
LINE
  5
   607
  8
0
  6
CONTINUOUS
 62
     7
 10
-505.250221252441
 20
17.6571426391602
 30
0.0
 11
-505.250221252441
 21
23.6571426391602
 31
0.0
  0
LINE
  5
   608
  8
0
  6
CONTINUOUS
 62
     7
 10
-505.250221252441
 20
7.40715789794815
 30
0.0
 11
-505.250221252441
 21
17.1571426391602
 31
0.0
  0
LINE
  5
   609
  8
0
  6
CONTINUOUS
 62
     7
 10
-505.250221252441
 20
0.907142639160156
 30
0.0
 11
-505.250221252441
 21
6.9071578979482
 31
0.0
  0
LINE
  5
   60A
  8
0
  6
CONTINUOUS
 62
     1
 10
-508.000218391419
 20
-10.0960826873779
 30
0.0
 11
-508.000218391419
 21
-9.09608268737793
 31
0.0
  0
LINE
  5
   60B
  8
0
  6
CONTINUOUS
 62
     1
 10
-507.000218391418
 20
-10.0960826873779
 30
0.0
 11
-508.000218391419
 21
-10.0960826873779
 31
0.0
  0
LINE
  5
   60C
  8
0
  6
CONTINUOUS
 62
     1
 10
-508.000218391419
 20
43.9039154052734
 30
0.0
 11
-508.000218391419
 21
44.9039154052734
 31
0.0
  0
LINE
  5
   60D
  8
0
  6
CONTINUOUS
 62
     1
 10
-507.000218391418
 20
44.9039154052734
 30
0.0
 11
-508.000218391419
 21
44.9039154052734
 31
0.0
  0
LINE
  5
   60E
  8
0
  6
CONTINUOUS
 62
     1
 10
-508.000218391419
 20
-9.09608268737793
 30
0.0
 11
-508.000218391419
 21
43.9039173126221
 31
0.0
  0
LINE
  5
   60F
  8
0
  6
CONTINUOUS
 62
     1
 10
-510.250218391419
 20
51.6925888061524
 30
0.0
 11
-510.250218391419
 21
54.1152420043945
 31
0.0
  0
LINE
  5
   610
  8
0
  6
CONTINUOUS
 62
     1
 10
-507.000218391418
 20
-23.3460826873779
 30
0.0
 11
-507.000218391418
 21
58.1539173126221
 31
0.0
  0
LINE
  5
   611
  8
0
  6
CONTINUOUS
 62
     1
 10
-505.250218391419
 20
-23.3460826873779
 30
0.0
 11
-507.000218391418
 21
-23.3460826873779
 31
0.0
  0
LINE
  5
   612
  8
0
  6
CONTINUOUS
 62
     1
 10
-505.250218391419
 20
-23.3460845947266
 30
0.0
 11
-505.250218391419
 21
58.1539154052734
 31
0.0
  0
LINE
  5
   613
  8
0
  6
CONTINUOUS
 62
     1
 10
-505.250218391419
 20
58.1539154052734
 30
0.0
 11
-505.750218391418
 21
58.1539154052734
 31
0.0
  0
LINE
  5
   614
  8
0
  6
CONTINUOUS
 62
     1
 10
-506.250218391419
 20
58.1539154052734
 30
0.0
 11
-507.000218391418
 21
58.1539154052734
 31
0.0
  0
LINE
  5
   615
  8
0
  6
CONTINUOUS
 62
     1
 10
-507.000218391418
 20
51.4039154052734
 30
0.0
 11
-509.750219989733
 21
51.4039154052734
 31
0.0
  0
LINE
  5
   616
  8
0
  6
CONTINUOUS
 62
     1
 10
-507.000218391418
 20
54.4039154052734
 30
0.0
 11
-509.750216753155
 21
54.4039154052734
 31
0.0
  0
LINE
  5
   617
  8
0
  6
CONTINUOUS
 62
     1
 10
-509.750218398269
 20
51.4039154052734
 30
0.0
 11
-509.750218398269
 21
51.5180969238281
 31
0.0
  0
LINE
  5
   618
  8
0
  6
CONTINUOUS
 62
     1
 10
-509.750218000407
 20
51.4039142567427
 30
0.0
 11
-510.250218016871
 21
51.6925876612409
 31
0.0
  0
LINE
  5
   619
  8
0
  6
CONTINUOUS
 62
     1
 10
-509.750218398269
 20
51.5180969238281
 30
0.0
 11
-509.750218398269
 21
51.8432540893555
 31
0.0
  0
LINE
  5
   61A
  8
0
  6
CONTINUOUS
 62
     1
 10
-509.750218398269
 20
51.8432540893555
 30
0.0
 11
-509.750218398269
 21
52.3298950195313
 31
0.0
  0
LINE
  5
   61B
  8
0
  6
CONTINUOUS
 62
     1
 10
-509.750218398269
 20
52.3298950195313
 30
0.0
 11
-509.750218398269
 21
52.9039154052734
 31
0.0
  0
LINE
  5
   61C
  8
0
  6
CONTINUOUS
 62
     1
 10
-509.750218398269
 20
52.9039154052734
 30
0.0
 11
-509.750218398269
 21
53.4779434204102
 31
0.0
  0
LINE
  5
   61D
  8
0
  6
CONTINUOUS
 62
     1
 10
-509.750218398269
 20
53.4779434204102
 30
0.0
 11
-509.750218398269
 21
53.9645767211914
 31
0.0
  0
LINE
  5
   61E
  8
0
  6
CONTINUOUS
 62
     1
 10
-509.750218398269
 20
53.9645767211914
 30
0.0
 11
-509.750218398269
 21
54.2897338867188
 31
0.0
  0
LINE
  5
   61F
  8
0
  6
CONTINUOUS
 62
     1
 10
-509.750218398269
 20
54.2897338867188
 30
0.0
 11
-509.750218398269
 21
54.4039154052734
 31
0.0
  0
LINE
  5
   620
  8
0
  6
CONTINUOUS
 62
     1
 10
-510.250218826008
 20
54.1152408135255
 30
0.0
 11
-509.750218809544
 21
54.4039142180237
 31
0.0
  0
LINE
  5
   621
  8
0
  6
CONTINUOUS
 62
     1
 10
-507.000218391418
 20
-16.5960826873779
 30
0.0
 11
-509.750217395713
 21
-16.5960826873779
 31
0.0
  0
LINE
  5
   622
  8
0
  6
CONTINUOUS
 62
     1
 10
-507.000218391418
 20
-19.5960826873779
 30
0.0
 11
-509.750218381611
 21
-19.5960826873779
 31
0.0
  0
LINE
  5
   623
  8
0
  6
CONTINUOUS
 62
     1
 10
-509.750218381611
 20
-16.7102642059326
 30
0.0
 11
-509.750218381611
 21
-16.5960826873779
 31
0.0
  0
LINE
  5
   624
  8
0
  6
CONTINUOUS
 62
     1
 10
-509.750218381623
 20
-17.0354232788086
 30
0.0
 11
-509.750218381623
 21
-16.7102642059326
 31
0.0
  0
LINE
  5
   625
  8
0
  6
CONTINUOUS
 62
     1
 10
-509.750218381609
 20
-17.5220565795899
 30
0.0
 11
-509.750218381609
 21
-17.0354232788086
 31
0.0
  0
LINE
  5
   626
  8
0
  6
CONTINUOUS
 62
     1
 10
-509.750218381644
 20
-18.0960826873779
 30
0.0
 11
-509.750218381644
 21
-17.5220565795899
 31
0.0
  0
LINE
  5
   627
  8
0
  6
CONTINUOUS
 62
     1
 10
-509.750218381582
 20
-18.6701068878174
 30
0.0
 11
-509.750218381582
 21
-18.0960826873779
 31
0.0
  0
LINE
  5
   628
  8
0
  6
CONTINUOUS
 62
     1
 10
-509.750218381609
 20
-19.1567420959473
 30
0.0
 11
-509.750218381609
 21
-18.6701068878174
 31
0.0
  0
LINE
  5
   629
  8
0
  6
CONTINUOUS
 62
     1
 10
-509.750218381622
 20
-19.5960826873779
 30
0.0
 11
-509.750218381622
 21
-19.1567420959473
 31
0.0
  0
LINE
  5
   62A
  8
0
  6
CONTINUOUS
 62
     1
 10
-509.750218381611
 20
-19.5960826873779
 30
0.0
 11
-509.750218381611
 21
-19.4819011688233
 31
0.0
  0
LINE
  5
   62B
  8
0
  6
CONTINUOUS
 62
     1
 10
-505.750218391418
 20
58.1539154052734
 30
0.0
 11
-506.250218391419
 21
58.1539154052734
 31
0.0
  0
LINE
  5
   62C
  8
0
  6
CONTINUOUS
 62
     7
 10
-510.250218652493
 20
-16.8847586957313
 30
0.0
 11
-509.750218636029
 21
-16.5960834034748
 31
0.0
  0
LINE
  5
   62D
  8
0
  6
CONTINUOUS
 62
     7
 10
-509.750218174449
 20
-19.5960833011275
 30
0.0
 11
-510.250218190913
 21
-19.3074080088709
 31
0.0
  0
LINE
  5
   62E
  8
0
  6
CONTINUOUS
 62
     7
 10
-508.000218391419
 20
-50.6618322445843
 30
0.0
 11
-508.000218391419
 21
-19.5960826873779
 31
0.0
  0
LINE
  5
   62F
  8
0
  6
CONTINUOUS
 62
     7
 10
-507.000218391418
 20
-50.048039141136
 30
0.0
 11
-507.000218391418
 21
-23.3460826873779
 31
0.0
  0
LINE
  5
   630
  8
0
  6
CONTINUOUS
 62
     7
 10
-507.000218391418
 20
54.6539154052734
 30
0.0
 11
-507.000218391418
 21
87.2494667756188
 31
0.0
  0
LINE
  5
   631
  8
0
  6
CONTINUOUS
 62
     7
 10
-507.000218391418
 20
-10.5960826873779
 30
0.0
 11
-508.000218391419
 21
-10.5960826873779
 31
0.0
  0
LINE
  5
   632
  8
0
  6
CONTINUOUS
 62
     7
 10
-507.000218391418
 20
45.4039154052734
 30
0.0
 11
-508.000218391419
 21
45.4039154052734
 31
0.0
  0
LINE
  5
   633
  8
0
  6
CONTINUOUS
 62
     7
 10
-507.000218391418
 20
54.6539154052734
 30
0.0
 11
-508.000218391419
 21
54.6539154052734
 31
0.0
  0
LINE
  5
   634
  8
0
  6
CONTINUOUS
 62
     7
 10
-507.000218391418
 20
51.1539154052734
 30
0.0
 11
-508.000218391419
 21
51.1539154052734
 31
0.0
  0
LINE
  5
   635
  8
0
  6
CONTINUOUS
 62
     7
 10
-507.000218391418
 20
-16.3460826873779
 30
0.0
 11
-508.000218391419
 21
-16.3460826873779
 31
0.0
  0
LINE
  5
   636
  8
0
  6
CONTINUOUS
 62
     7
 10
-507.000218391418
 20
-19.8460826873779
 30
0.0
 11
-508.000218391419
 21
-19.8460826873779
 31
0.0
  0
LINE
  5
   637
  8
0
  6
CONTINUOUS
 62
     7
 10
-508.000218391419
 20
-16.5960826873779
 30
0.0
 11
-508.000218391419
 21
51.4039154052734
 31
0.0
  0
LINE
  5
   638
  8
0
  6
CONTINUOUS
 62
     7
 10
-508.000218391419
 20
54.4039154052734
 30
0.0
 11
-508.000218391419
 21
86.7102510893443
 31
0.0
  0
LINE
  5
   639
  8
0
  6
CONTINUOUS
 62
     7
 10
-509.197113155086
 20
86.0648666579552
 30
0.0
 11
-505.542961069716
 21
88.0352427824194
 31
0.0
  0
LINE
  5
   63A
  8
0
  6
CONTINUOUS
 62
     7
 10
-509.662838420868
 20
-51.6823369523154
 30
0.0
 11
-504.468210456372
 21
-48.4939101327279
 31
0.0
  0
INSERT
  5
   63B
  8
0
  6
CONTINUOUS
 62
     7
  2
*HATCH1043
 10
-510.000244140625
 20
-37.5863952636719
 30
0.0
 41
0.5
 42
0.5
 50
89.9999999480344
 43
0.5
  0
INSERT
  5
   63C
  8
0
  6
CONTINUOUS
 62
     7
  2
*HATCH1044
 10
-510.000244140625
 20
-37.5863952636719
 30
0.0
 41
0.5
 42
0.5
 50
89.9999999480344
 43
0.5
  0
INSERT
  5
   63D
  8
0
  6
CONTINUOUS
 62
     7
  2
*HATCH1045
 10
-510.000244140625
 20
-37.5863952636719
 30
0.0
 41
0.5
 42
0.5
 50
89.9999999480344
 43
0.5
  0
INSERT
  5
   63E
  8
0
  6
CONTINUOUS
 62
     7
  2
*HATCH1046
 10
-510.000244140625
 20
-37.5863952636719
 30
0.0
 41
0.5
 42
0.5
 50
89.9999999480344
 43
0.5
  0
LINE
  5
   63F
  8
0
  6
CONTINUOUS
 62
     7
 10
-510.250218190913
 20
-19.3074080088709
 30
0.0
 11
-510.250218652493
 21
-16.8847586957313
 31
0.0
  0
LINE
  5
   640
  8
0
  6
DASHDOT
 62
     7
 10
-482.106198198254
 20
17.4071444701972
 30
0.0
 11
-569.379350796083
 21
17.4071444701972
 31
0.0
  0
INSERT
  5
   641
  8
255
  6
CONTINUOUS
 62
     7
  2
159488
 10
-513.750243186951
 20
-37.5863952636719
 30
0.0
 41
0.5
 42
0.5
 50
359.999999792138
 43
0.5
  0
LINE
  5
   642
  8
0
  6
CONTINUOUS
 62
     7
 10
-551.5002252916
 20
73.0321529606158
 30
0.0
 11
-551.5002252916
 21
76.0321273803711
 31
0.0
  0
LINE
  5
   643
  8
0
  6
CONTINUOUS
 62
     7
 10
-530.025446797592
 20
65.7983125457521
 30
0.0
 11
-542.102450354376
 21
65.7983125457521
 31
0.0
  0
LINE
  5
   644
  8
0
  6
CONTINUOUS
 62
     7
 10
-530.025446797592
 20
65.7983125457522
 30
0.0
 11
-522.56716485974
 21
82.2546507570142
 31
0.0
  0
INSERT
  5
   645
  8
255
  6
CONTINUOUS
 62
     1
  2
MORSETTO
 10
-549.000226245274
 20
-37.9678981998736
 30
0.0
 41
0.5
 42
0.5
 50
3.50835464724173E-15
 43
0.5
  0
LINE
  5
   646
  8
0
  6
CONTINUOUS
 62
    98
 10
-511.375221252441
 20
-69.9678479004085
 30
0.0
 11
-560.500213623047
 21
-69.9678479004085
 31
0.0
  0
LINE
  5
   647
  8
0
  6
CONTINUOUS
 62
    98
 10
-560.500213623047
 20
-69.9678479004085
 30
0.0
 11
-560.500213623047
 21
-51.8178981998736
 31
0.0
  0
ARC
  5
   648
  8
0
  6
CONTINUOUS
 62
    98
 10
-511.375221252441
 20
-69.3428479004085
 30
0.0
 40
0.625
 50
269.999999948034
 51
359.999999948034
  0
LINE
  5
   649
  8
0
  6
CONTINUOUS
 62
    98
 10
-510.750221252442
 20
-69.3428479004085
 30
0.0
 11
-510.750221252442
 21
-49.4678479004085
 31
0.0
  0
LINE
  5
   64A
  8
0
  6
CONTINUOUS
 62
    98
 10
-510.750221252442
 20
-49.4678479004085
 30
0.0
 11
-510.750221252442
 21
-35.4678479004085
 31
0.0
  0
LINE
  5
   64B
  8
0
  6
CONTINUOUS
 62
    98
 10
-510.750221252442
 20
-35.4678479004085
 30
0.0
 11
-511.250221252442
 21
-35.4678479004085
 31
0.0
  0
LINE
  5
   64C
  8
0
  6
CONTINUOUS
 62
    98
 10
-511.250221252442
 20
-34.9678479004085
 30
0.0
 11
-512.250217437744
 21
-34.9678479004085
 31
0.0
  0
LINE
  5
   64D
  8
0
  6
CONTINUOUS
 62
    98
 10
-511.250221252442
 20
-35.4678479004085
 30
0.0
 11
-511.250221252442
 21
-34.9678479004085
 31
0.0
  0
LINE
  5
   64E
  8
0
  6
CONTINUOUS
 62
    98
 10
-512.000213623047
 20
-48.3178479004085
 30
0.0
 11
-512.000213623047
 21
-34.9678479004085
 31
0.0
  0
LINE
  5
   64F
  8
0
  6
CONTINUOUS
 62
    98
 10
-512.000213623047
 20
-46.752488038197
 30
0.0
 11
-512.000213623047
 21
-43.9678479004085
 31
0.0
  0
LINE
  5
   650
  8
0
  6
CONTINUOUS
 62
    98
 10
-512.000213623047
 20
-58.8178479004085
 30
0.0
 11
-523.250221252442
 21
-58.8178479004085
 31
0.0
  0
LINE
  5
   651
  8
0
  6
CONTINUOUS
 62
    98
 10
-512.000213623047
 20
-49.3178479004085
 30
0.0
 11
-523.250221252442
 21
-49.3178479004085
 31
0.0
  0
LINE
  5
   652
  8
0
  6
CONTINUOUS
 62
    98
 10
-512.000213623047
 20
-59.8178479004085
 30
0.0
 11
-522.000221252441
 21
-59.8178479004085
 31
0.0
  0
LINE
  5
   653
  8
0
  6
CONTINUOUS
 62
    98
 10
-512.000213623047
 20
-48.3178479004085
 30
0.0
 11
-522.000221252441
 21
-48.3178479004085
 31
0.0
  0
LINE
  5
   654
  8
0
  6
CONTINUOUS
 62
     1
 10
-522.000221252441
 20
-48.3178479004085
 30
0.0
 11
-522.000221252441
 21
-47.3178479004085
 31
0.0
  0
LINE
  5
   655
  8
0
  6
CONTINUOUS
 62
    98
 10
-522.000221252441
 20
-69.9678479004085
 30
0.0
 11
-522.000221252441
 21
-59.8178479004085
 31
0.0
  0
LINE
  5
   656
  8
0
  6
CONTINUOUS
 62
    98
 10
-512.000213623047
 20
-69.9678479004085
 30
0.0
 11
-512.000213623047
 21
-59.8178479004085
 31
0.0
  0
LINE
  5
   657
  8
0
  6
CONTINUOUS
 62
    98
 10
-512.000213623047
 20
-58.8178479004085
 30
0.0
 11
-512.000213623047
 21
-49.3178479004085
 31
0.0
  0
LINE
  5
   658
  8
0
  6
CONTINUOUS
 62
    98
 10
-523.250221252442
 20
-68.9678479004085
 30
0.0
 11
-560.500213623047
 21
-68.9678479004085
 31
0.0
  0
LINE
  5
   659
  8
0
  6
CONTINUOUS
 62
    98
 10
-523.250221252442
 20
-67.9678479004085
 30
0.0
 11
-560.500213623047
 21
-67.9678479004085
 31
0.0
  0
LINE
  5
   65A
  8
0
  6
CONTINUOUS
 62
    98
 10
-523.250221252442
 20
-66.9678479004085
 30
0.0
 11
-560.500213623047
 21
-66.9678479004085
 31
0.0
  0
LINE
  5
   65B
  8
0
  6
CONTINUOUS
 62
    98
 10
-522.000221252441
 20
-47.3178479004085
 30
0.0
 11
-541.500226245274
 21
-47.3178479004085
 31
0.0
  0
LINE
  5
   65C
  8
0
  6
CONTINUOUS
 62
    98
 10
-523.250221252442
 20
-48.3178479004085
 30
0.0
 11
-541.500226245274
 21
-48.3178479004085
 31
0.0
  0
LINE
  5
   65D
  8
0
  6
CONTINUOUS
 62
    98
 10
-523.250221252442
 20
-69.9678479004085
 30
0.0
 11
-523.250221252442
 21
-48.3178479004085
 31
0.0
  0
LINE
  5
   65E
  8
0
  6
CONTINUOUS
 62
     1
 10
-529.250221252441
 20
-48.3178479004085
 30
0.0
 11
-529.250221252441
 21
-47.3178479004085
 31
0.0
  0
INSERT
  5
   65F
  8
0
  6
CONTINUOUS
 62
    98
  2
*HATCH1055
 10
-510.000244140625
 20
-37.5863952636719
 30
0.0
 41
0.5
 42
0.5
 50
89.9999999480344
 43
0.5
  0
LINE
  5
   660
  8
0
  6
CONTINUOUS
 62
     7
 10
-549.000226245274
 20
-35.9678981998736
 30
0.0
 11
-549.000226245274
 21
-27.722261670244
 31
0.0
  0
LINE
  5
   661
  8
0
  6
CONTINUOUS
 62
     7
 10
-566.436491983381
 20
-77.9446991209215
 30
0.0
 11
-558.125103078962
 21
-75.2128681065206
 31
0.0
  0
LINE
  5
   662
  8
0
  6
DASHDOT
 62
     7
 10
-561.500213623047
 20
-76.3222171897359
 30
0.0
 11
-561.500213623047
 21
-51.8178981998736
 31
0.0
  0
LINE
  5
   663
  8
0
  6
DASHDOT
 62
     7
 10
-563.000213623047
 20
-76.8152450781821
 30
0.0
 11
-563.000213623047
 21
-51.8178981998736
 31
0.0
  0
LINE
  5
   664
  8
0
  6
CONTINUOUS
 62
   218
 10
-541.500226245274
 20
-50.9178981998736
 30
0.0
 11
-553.000226245274
 21
-50.9178981998736
 31
0.0
  0
LINE
  5
   665
  8
0
  6
CONTINUOUS
 62
   218
 10
-541.500226245274
 20
-44.7178981998736
 30
0.0
 11
-553.000226245274
 21
-44.7178981998736
 31
0.0
  0
LINE
  5
   666
  8
0
  6
CONTINUOUS
 62
   218
 10
-541.500226245274
 20
-50.9178981998736
 30
0.0
 11
-541.500226245274
 21
-44.7178981998736
 31
0.0
  0
LINE
  5
   667
  8
0
  6
CONTINUOUS
 62
   218
 10
-553.000226245274
 20
-51.8178981998736
 30
0.0
 11
-553.000226245274
 21
-43.8178981998736
 31
0.0
  0
LINE
  5
   668
  8
0
  6
DASHDOT
 62
   218
 10
-538.969593310663
 20
-47.8178981998736
 30
0.0
 11
-563.306305816486
 21
-47.8178981998736
 31
0.0
  0
LINE
  5
   669
  8
0
  6
CONTINUOUS
 62
   218
 10
-553.000226245274
 20
-43.8178981998736
 30
0.0
 11
-567.306305816486
 21
-43.8178981998736
 31
0.0
  0
LINE
  5
   66A
  8
0
  6
CONTINUOUS
 62
   218
 10
-553.000226245274
 20
-51.8178981998736
 30
0.0
 11
-567.306305816486
 21
-51.8178981998736
 31
0.0
  0
LINE
  5
   66B
  8
0
  6
CONTINUOUS
 62
   218
 10
-553.000226245274
 20
-49.845658478021
 30
0.0
 11
-541.500226245274
 21
-47.8178981998736
 31
0.0
  0
POLYLINE
  5
   66C
  8
0
  6
CONTINUOUS
 62
   218
 66
     1
 10
0.0
 20
0.0
 30
0.0
 70
     1
  0
VERTEX
  5
   66D
  8
0
  6
CONTINUOUS
 10
-567.306305816486
 20
-43.8178981998736
 30
0.0
 40
0.0
 41
0.0
  0
VERTEX
  5
   66E
  8
0
  6
CONTINUOUS
 10
-567.330847045009
 20
-43.8185005624812
 30
0.0
 40
0.0
 41
0.0
  0
VERTEX
  5
   66F
  8
0
  6
CONTINUOUS
 10
-567.355373490814
 20
-43.8203072874632
 30
0.0
 40
0.0
 41
0.0
  0
VERTEX
  5
   670
  8
0
  6
CONTINUOUS
 10
-567.379870380086
 20
-43.8233172865162
 30
0.0
 40
0.0
 41
0.0
  0
VERTEX
  5
   671
  8
0
  6
CONTINUOUS
 10
-567.404322956816
 20
-43.8275287465292
 30
0.0
 40
0.0
 41
0.0
  0
VERTEX
  5
   672
  8
0
  6
CONTINUOUS
 10
-567.428716491685
 20
-43.8329391306762
 30
0.0
 40
0.0
 41
0.0
  0
VERTEX
  5
   673
  8
0
  6
CONTINUOUS
 10
-567.453036290942
 20
-43.839545179944
 30
0.0
 40
0.0
 41
0.0
  0
VERTEX
  5
   674
  8
0
  6
CONTINUOUS
 10
-567.477267705247
 20
-43.8473429150957
 30
0.0
 40
0.0
 41
0.0
  0
VERTEX
  5
   675
  8
0
  6
CONTINUOUS
 10
-567.501396138502
 20
-43.8563276390671
 30
0.0
 40
0.0
 41
0.0
  0
VERTEX
  5
   676
  8
0
  6
CONTINUOUS
 10
-567.525407056643
 20
-43.8664939397965
 30
0.0
 40
0.0
 41
0.0
  0
VERTEX
  5
   677
  8
0
  6
CONTINUOUS
 10
-567.54928599639
 20
-43.8778356934845
 30
0.0
 40
0.0
 41
0.0
  0
VERTEX
  5
   678
  8
0
  6
CONTINUOUS
 10
-567.573018573961
 20
-43.8903460682827
 30
0.0
 40
0.0
 41
0.0
  0
VERTEX
  5
   679
  8
0
  6
CONTINUOUS
 10
-567.596590493741
 20
-43.9040175284092
 30
0.0
 40
0.0
 41
0.0
  0
VERTEX
  5
   67A
  8
0
  6
CONTINUOUS
 10
-567.619987556885
 20
-43.9188418386875
 30
0.0
 40
0.0
 41
0.0
  0
VERTEX
  5
   67B
  8
0
  6
CONTINUOUS
 10
-567.643195669879
 20
-43.9348100695076
 30
0.0
 40
0.0
 41
0.0
  0
VERTEX
  5
   67C
  8
0
  6
CONTINUOUS
 10
-567.666200853021
 20
-43.9519126022041
 30
0.0
 40
0.0
 41
0.0
  0
VERTEX
  5
   67D
  8
0
  6
CONTINUOUS
 10
-567.688989248851
 20
-43.970139134851
 30
0.0
 40
0.0
 41
0.0
  0
VERTEX
  5
   67E
  8
0
  6
CONTINUOUS
 10
-567.733860909917
 20
-44.0099196136267
 30
0.0
 40
0.0
 41
0.0
  0
VERTEX
  5
   67F
  8
0
  6
CONTINUOUS
 10
-567.777702553312
 20
-44.0540556711769
 30
0.0
 40
0.0
 41
0.0
  0
VERTEX
  5
   680
  8
0
  6
CONTINUOUS
 10
-567.820408560679
 20
-44.102440979873
 30
0.0
 40
0.0
 41
0.0
  0
VERTEX
  5
   681
  8
0
  6
CONTINUOUS
 10
-567.861876049506
 20
-44.1549589752685
 30
0.0
 40
0.0
 41
0.0
  0
VERTEX
  5
   682
  8
0
  6
CONTINUOUS
 10
-567.902005120979
 20
-44.2114831369123
 30
0.0
 40
0.0
 41
0.0
  0
VERTEX
  5
   683
  8
0
  6
CONTINUOUS
 10
-567.94069910065
 20
-44.2718772931481
 30
0.0
 40
0.0
 41
0.0
  0
VERTEX
  5
   684
  8
0
  6
CONTINUOUS
 10
-567.977864771333
 20
-44.3359959491637
 30
0.0
 40
0.0
 41
0.0
  0
VERTEX
  5
   685
  8
0
  6
CONTINUOUS
 10
-568.013412597673
 20
-44.4036846375005
 30
0.0
 40
0.0
 41
0.0
  0
VERTEX
  5
   686
  8
0
  6
CONTINUOUS
 10
-568.047256941841
 20
-44.4747802901796
 30
0.0
 40
0.0
 41
0.0
  0
VERTEX
  5
   687
  8
0
  6
CONTINUOUS
 10
-568.079316269849
 20
-44.5491116315463
 30
0.0
 40
0.0
 41
0.0
  0
VERTEX
  5
   688
  8
0
  6
CONTINUOUS
 10
-568.109513347967
 20
-44.6264995908887
 30
0.0
 40
0.0
 41
0.0
  0
VERTEX
  5
   689
  8
0
  6
CONTINUOUS
 10
-568.137775428789
 20
-44.7067577338344
 30
0.0
 40
0.0
 41
0.0
  0
VERTEX
  5
   68A
  8
0
  6
CONTINUOUS
 10
-568.164034426486
 20
-44.7896927114872
 30
0.0
 40
0.0
 41
0.0
  0
VERTEX
  5
   68B
  8
0
  6
CONTINUOUS
 10
-568.188227080835
 20
-44.8751047262216
 30
0.0
 40
0.0
 41
0.0
  0
VERTEX
  5
   68C
  8
0
  6
CONTINUOUS
 10
-568.21029510961
 20
-44.962788013013
 30
0.0
 40
0.0
 41
0.0
  0
VERTEX
  5
   68D
  8
0
  6
CONTINUOUS
 10
-568.230185348997
 20
-45.0525313351434
 30
0.0
 40
0.0
 41
0.0
  0
VERTEX
  5
   68E
  8
0
  6
CONTINUOUS
 10
-568.247849881669
 20
-45.1441184930892
 30
0.0
 40
0.0
 41
0.0
  0
VERTEX
  5
   68F
  8
0
  6
CONTINUOUS
 10
-568.263246152218
 20
-45.2373288453647
 30
0.0
 40
0.0
 41
0.0
  0
VERTEX
  5
   690
  8
0
  6
CONTINUOUS
 10
-568.276337069681
 20
-45.3319378400671
 30
0.0
 40
0.0
 41
0.0
  0
VERTEX
  5
   691
  8
0
  6
CONTINUOUS
 10
-568.287091096889
 20
-45.4277175558413
 30
0.0
 40
0.0
 41
0.0
  0
VERTEX
  5
   692
  8
0
  6
CONTINUOUS
 10
-568.295482326451
 20
-45.5244372509629
 30
0.0
 40
0.0
 41
0.0
  0
VERTEX
  5
   693
  8
0
  6
CONTINUOUS
 10
-568.301490543158
 20
-45.6218639192145
 30
0.0
 40
0.0
 41
0.0
  0
VERTEX
  5
   694
  8
0
  6
CONTINUOUS
 10
-568.305101272691
 20
-45.7197628512188
 30
0.0
 40
0.0
 41
0.0
  0
VERTEX
  5
   695
  8
0
  6
CONTINUOUS
 10
-568.306305816486
 20
-45.8178981998736
 30
0.0
 40
0.0
 41
0.0
  0
VERTEX
  5
   696
  8
0
  6
CONTINUOUS
 10
-568.305101272691
 20
-45.9160335485284
 30
0.0
 40
0.0
 41
0.0
  0
VERTEX
  5
   697
  8
0
  6
CONTINUOUS
 10
-568.301490543158
 20
-46.0139324805327
 30
0.0
 40
0.0
 41
0.0
  0
VERTEX
  5
   698
  8
0
  6
CONTINUOUS
 10
-568.295482326451
 20
-46.1113591487843
 30
0.0
 40
0.0
 41
0.0
  0
VERTEX
  5
   699
  8
0
  6
CONTINUOUS
 10
-568.287091096889
 20
-46.2080788439059
 30
0.0
 40
0.0
 41
0.0
  0
VERTEX
  5
   69A
  8
0
  6
CONTINUOUS
 10
-568.276337069681
 20
-46.3038585596801
 30
0.0
 40
0.0
 41
0.0
  0
VERTEX
  5
   69B
  8
0
  6
CONTINUOUS
 10
-568.263246152218
 20
-46.3984675543825
 30
0.0
 40
0.0
 41
0.0
  0
VERTEX
  5
   69C
  8
0
  6
CONTINUOUS
 10
-568.247849881669
 20
-46.491677906658
 30
0.0
 40
0.0
 41
0.0
  0
VERTEX
  5
   69D
  8
0
  6
CONTINUOUS
 10
-568.230185348997
 20
-46.5832650646038
 30
0.0
 40
0.0
 41
0.0
  0
VERTEX
  5
   69E
  8
0
  6
CONTINUOUS
 10
-568.21029510961
 20
-46.6730083867342
 30
0.0
 40
0.0
 41
0.0
  0
VERTEX
  5
   69F
  8
0
  6
CONTINUOUS
 10
-568.188227080835
 20
-46.7606916735256
 30
0.0
 40
0.0
 41
0.0
  0
VERTEX
  5
   6A0
  8
0
  6
CONTINUOUS
 10
-568.164034426486
 20
-46.84610368826
 30
0.0
 40
0.0
 41
0.0
  0
VERTEX
  5
   6A1
  8
0
  6
CONTINUOUS
 10
-568.137775428789
 20
-46.9290386659128
 30
0.0
 40
0.0
 41
0.0
  0
VERTEX
  5
   6A2
  8
0
  6
CONTINUOUS
 10
-568.109513347967
 20
-47.0092968088585
 30
0.0
 40
0.0
 41
0.0
  0
VERTEX
  5
   6A3
  8
0
  6
CONTINUOUS
 10
-568.079316269849
 20
-47.0866847682009
 30
0.0
 40
0.0
 41
0.0
  0
VERTEX
  5
   6A4
  8
0
  6
CONTINUOUS
 10
-568.047256941841
 20
-47.1610161095676
 30
0.0
 40
0.0
 41
0.0
  0
VERTEX
  5
   6A5
  8
0
  6
CONTINUOUS
 10
-568.013412597673
 20
-47.2321117622467
 30
0.0
 40
0.0
 41
0.0
  0
VERTEX
  5
   6A6
  8
0
  6
CONTINUOUS
 10
-567.977864771333
 20
-47.2998004505835
 30
0.0
 40
0.0
 41
0.0
  0
VERTEX
  5
   6A7
  8
0
  6
CONTINUOUS
 10
-567.94069910065
 20
-47.3639191065991
 30
0.0
 40
0.0
 41
0.0
  0
VERTEX
  5
   6A8
  8
0
  6
CONTINUOUS
 10
-567.902005120979
 20
-47.4243132628349
 30
0.0
 40
0.0
 41
0.0
  0
VERTEX
  5
   6A9
  8
0
  6
CONTINUOUS
 10
-567.861876049506
 20
-47.4808374244787
 30
0.0
 40
0.0
 41
0.0
  0
VERTEX
  5
   6AA
  8
0
  6
CONTINUOUS
 10
-567.820408560679
 20
-47.5333554198741
 30
0.0
 40
0.0
 41
0.0
  0
VERTEX
  5
   6AB
  8
0
  6
CONTINUOUS
 10
-567.777702553312
 20
-47.5817407285703
 30
0.0
 40
0.0
 41
0.0
  0
VERTEX
  5
   6AC
  8
0
  6
CONTINUOUS
 10
-567.733860909917
 20
-47.6258767861205
 30
0.0
 40
0.0
 41
0.0
  0
VERTEX
  5
   6AD
  8
0
  6
CONTINUOUS
 10
-567.688989248851
 20
-47.6656572648962
 30
0.0
 40
0.0
 41
0.0
  0
VERTEX
  5
   6AE
  8
0
  6
CONTINUOUS
 10
-567.666200853021
 20
-47.6838837975431
 30
0.0
 40
0.0
 41
0.0
  0
VERTEX
  5
   6AF
  8
0
  6
CONTINUOUS
 10
-567.643195669879
 20
-47.7009863302396
 30
0.0
 40
0.0
 41
0.0
  0
VERTEX
  5
   6B0
  8
0
  6
CONTINUOUS
 10
-567.619987556885
 20
-47.7169545610597
 30
0.0
 40
0.0
 41
0.0
  0
VERTEX
  5
   6B1
  8
0
  6
CONTINUOUS
 10
-567.596590493741
 20
-47.731778871338
 30
0.0
 40
0.0
 41
0.0
  0
VERTEX
  5
   6B2
  8
0
  6
CONTINUOUS
 10
-567.573018573961
 20
-47.7454503314645
 30
0.0
 40
0.0
 41
0.0
  0
VERTEX
  5
   6B3
  8
0
  6
CONTINUOUS
 10
-567.54928599639
 20
-47.7579607062627
 30
0.0
 40
0.0
 41
0.0
  0
VERTEX
  5
   6B4
  8
0
  6
CONTINUOUS
 10
-567.525407056643
 20
-47.7693024599507
 30
0.0
 40
0.0
 41
0.0
  0
VERTEX
  5
   6B5
  8
0
  6
CONTINUOUS
 10
-567.501396138502
 20
-47.7794687606801
 30
0.0
 40
0.0
 41
0.0
  0
VERTEX
  5
   6B6
  8
0
  6
CONTINUOUS
 10
-567.477267705247
 20
-47.7884534846515
 30
0.0
 40
0.0
 41
0.0
  0
VERTEX
  5
   6B7
  8
0
  6
CONTINUOUS
 10
-567.453036290942
 20
-47.7962512198032
 30
0.0
 40
0.0
 41
0.0
  0
VERTEX
  5
   6B8
  8
0
  6
CONTINUOUS
 10
-567.428716491685
 20
-47.802857269071
 30
0.0
 40
0.0
 41
0.0
  0
VERTEX
  5
   6B9
  8
0
  6
CONTINUOUS
 10
-567.404322956816
 20
-47.808267653218
 30
0.0
 40
0.0
 41
0.0
  0
VERTEX
  5
   6BA
  8
0
  6
CONTINUOUS
 10
-567.379870380086
 20
-47.812479113231
 30
0.0
 40
0.0
 41
0.0
  0
VERTEX
  5
   6BB
  8
0
  6
CONTINUOUS
 10
-567.355373490814
 20
-47.8154891122839
 30
0.0
 40
0.0
 41
0.0
  0
VERTEX
  5
   6BC
  8
0
  6
CONTINUOUS
 10
-567.330847045009
 20
-47.817295837266
 30
0.0
 40
0.0
 41
0.0
  0
VERTEX
  5
   6BD
  8
0
  6
CONTINUOUS
 10
-567.306305816486
 20
-47.8178981998736
 30
0.0
 40
0.0
 41
0.0
  0
VERTEX
  5
   6BE
  8
0
  6
CONTINUOUS
 10
-567.281764587963
 20
-47.817295837266
 30
0.0
 40
0.0
 41
0.0
  0
VERTEX
  5
   6BF
  8
0
  6
CONTINUOUS
 10
-567.257238142159
 20
-47.8154891122839
 30
0.0
 40
0.0
 41
0.0
  0
VERTEX
  5
   6C0
  8
0
  6
CONTINUOUS
 10
-567.232741252887
 20
-47.812479113231
 30
0.0
 40
0.0
 41
0.0
  0
VERTEX
  5
   6C1
  8
0
  6
CONTINUOUS
 10
-567.208288676157
 20
-47.808267653218
 30
0.0
 40
0.0
 41
0.0
  0
VERTEX
  5
   6C2
  8
0
  6
CONTINUOUS
 10
-567.183895141287
 20
-47.802857269071
 30
0.0
 40
0.0
 41
0.0
  0
VERTEX
  5
   6C3
  8
0
  6
CONTINUOUS
 10
-567.159575342031
 20
-47.7962512198032
 30
0.0
 40
0.0
 41
0.0
  0
VERTEX
  5
   6C4
  8
0
  6
CONTINUOUS
 10
-567.135343927726
 20
-47.7884534846515
 30
0.0
 40
0.0
 41
0.0
  0
VERTEX
  5
   6C5
  8
0
  6
CONTINUOUS
 10
-567.11121549447
 20
-47.7794687606801
 30
0.0
 40
0.0
 41
0.0
  0
VERTEX
  5
   6C6
  8
0
  6
CONTINUOUS
 10
-567.087204576329
 20
-47.7693024599507
 30
0.0
 40
0.0
 41
0.0
  0
VERTEX
  5
   6C7
  8
0
  6
CONTINUOUS
 10
-567.063325636583
 20
-47.7579607062627
 30
0.0
 40
0.0
 41
0.0
  0
VERTEX
  5
   6C8
  8
0
  6
CONTINUOUS
 10
-567.039593059011
 20
-47.7454503314645
 30
0.0
 40
0.0
 41
0.0
  0
VERTEX
  5
   6C9
  8
0
  6
CONTINUOUS
 10
-567.016021139232
 20
-47.731778871338
 30
0.0
 40
0.0
 41
0.0
  0
VERTEX
  5
   6CA
  8
0
  6
CONTINUOUS
 10
-566.992624076087
 20
-47.7169545610597
 30
0.0
 40
0.0
 41
0.0
  0
VERTEX
  5
   6CB
  8
0
  6
CONTINUOUS
 10
-566.969415963094
 20
-47.7009863302396
 30
0.0
 40
0.0
 41
0.0
  0
VERTEX
  5
   6CC
  8
0
  6
CONTINUOUS
 10
-566.946410779951
 20
-47.6838837975431
 30
0.0
 40
0.0
 41
0.0
  0
VERTEX
  5
   6CD
  8
0
  6
CONTINUOUS
 10
-566.923622384121
 20
-47.6656572648962
 30
0.0
 40
0.0
 41
0.0
  0
VERTEX
  5
   6CE
  8
0
  6
CONTINUOUS
 10
-566.878750723056
 20
-47.6258767861205
 30
0.0
 40
0.0
 41
0.0
  0
VERTEX
  5
   6CF
  8
0
  6
CONTINUOUS
 10
-566.83490907966
 20
-47.5817407285703
 30
0.0
 40
0.0
 41
0.0
  0
VERTEX
  5
   6D0
  8
0
  6
CONTINUOUS
 10
-566.792203072293
 20
-47.5333554198741
 30
0.0
 40
0.0
 41
0.0
  0
VERTEX
  5
   6D1
  8
0
  6
CONTINUOUS
 10
-566.750735583467
 20
-47.4808374244787
 30
0.0
 40
0.0
 41
0.0
  0
VERTEX
  5
   6D2
  8
0
  6
CONTINUOUS
 10
-566.710606511994
 20
-47.4243132628349
 30
0.0
 40
0.0
 41
0.0
  0
VERTEX
  5
   6D3
  8
0
  6
CONTINUOUS
 10
-566.671912532323
 20
-47.3639191065991
 30
0.0
 40
0.0
 41
0.0
  0
VERTEX
  5
   6D4
  8
0
  6
CONTINUOUS
 10
-566.634746861639
 20
-47.2998004505835
 30
0.0
 40
0.0
 41
0.0
  0
VERTEX
  5
   6D5
  8
0
  6
CONTINUOUS
 10
-566.5991990353
 20
-47.2321117622467
 30
0.0
 40
0.0
 41
0.0
  0
VERTEX
  5
   6D6
  8
0
  6
CONTINUOUS
 10
-566.565354691131
 20
-47.1610161095676
 30
0.0
 40
0.0
 41
0.0
  0
VERTEX
  5
   6D7
  8
0
  6
CONTINUOUS
 10
-566.533295363124
 20
-47.0866847682009
 30
0.0
 40
0.0
 41
0.0
  0
VERTEX
  5
   6D8
  8
0
  6
CONTINUOUS
 10
-566.503098285006
 20
-47.0092968088585
 30
0.0
 40
0.0
 41
0.0
  0
VERTEX
  5
   6D9
  8
0
  6
CONTINUOUS
 10
-566.474836204184
 20
-46.9290386659128
 30
0.0
 40
0.0
 41
0.0
  0
VERTEX
  5
   6DA
  8
0
  6
CONTINUOUS
 10
-566.448577206486
 20
-46.84610368826
 30
0.0
 40
0.0
 41
0.0
  0
VERTEX
  5
   6DB
  8
0
  6
CONTINUOUS
 10
-566.424384552138
 20
-46.7606916735256
 30
0.0
 40
0.0
 41
0.0
  0
VERTEX
  5
   6DC
  8
0
  6
CONTINUOUS
 10
-566.402316523363
 20
-46.6730083867342
 30
0.0
 40
0.0
 41
0.0
  0
VERTEX
  5
   6DD
  8
0
  6
CONTINUOUS
 10
-566.382426283975
 20
-46.5832650646038
 30
0.0
 40
0.0
 41
0.0
  0
VERTEX
  5
   6DE
  8
0
  6
CONTINUOUS
 10
-566.364761751303
 20
-46.491677906658
 30
0.0
 40
0.0
 41
0.0
  0
VERTEX
  5
   6DF
  8
0
  6
CONTINUOUS
 10
-566.349365480754
 20
-46.3984675543825
 30
0.0
 40
0.0
 41
0.0
  0
VERTEX
  5
   6E0
  8
0
  6
CONTINUOUS
 10
-566.336274563292
 20
-46.3038585596801
 30
0.0
 40
0.0
 41
0.0
  0
VERTEX
  5
   6E1
  8
0
  6
CONTINUOUS
 10
-566.325520536083
 20
-46.2080788439059
 30
0.0
 40
0.0
 41
0.0
  0
VERTEX
  5
   6E2
  8
0
  6
CONTINUOUS
 10
-566.317129306521
 20
-46.1113591487843
 30
0.0
 40
0.0
 41
0.0
  0
VERTEX
  5
   6E3
  8
0
  6
CONTINUOUS
 10
-566.311121089814
 20
-46.0139324805327
 30
0.0
 40
0.0
 41
0.0
  0
VERTEX
  5
   6E4
  8
0
  6
CONTINUOUS
 10
-566.307510360281
 20
-45.9160335485284
 30
0.0
 40
0.0
 41
0.0
  0
VERTEX
  5
   6E5
  8
0
  6
CONTINUOUS
 10
-566.306305816486
 20
-45.8178981998736
 30
0.0
 40
0.0
 41
0.0
  0
VERTEX
  5
   6E6
  8
0
  6
CONTINUOUS
 10
-566.307510360281
 20
-45.7197628512188
 30
0.0
 40
0.0
 41
0.0
  0
VERTEX
  5
   6E7
  8
0
  6
CONTINUOUS
 10
-566.311121089814
 20
-45.6218639192145
 30
0.0
 40
0.0
 41
0.0
  0
VERTEX
  5
   6E8
  8
0
  6
CONTINUOUS
 10
-566.317129306521
 20
-45.5244372509629
 30
0.0
 40
0.0
 41
0.0
  0
VERTEX
  5
   6E9
  8
0
  6
CONTINUOUS
 10
-566.325520536083
 20
-45.4277175558413
 30
0.0
 40
0.0
 41
0.0
  0
VERTEX
  5
   6EA
  8
0
  6
CONTINUOUS
 10
-566.336274563292
 20
-45.3319378400671
 30
0.0
 40
0.0
 41
0.0
  0
VERTEX
  5
   6EB
  8
0
  6
CONTINUOUS
 10
-566.349365480754
 20
-45.2373288453647
 30
0.0
 40
0.0
 41
0.0
  0
VERTEX
  5
   6EC
  8
0
  6
CONTINUOUS
 10
-566.364761751303
 20
-45.1441184930892
 30
0.0
 40
0.0
 41
0.0
  0
VERTEX
  5
   6ED
  8
0
  6
CONTINUOUS
 10
-566.382426283975
 20
-45.0525313351434
 30
0.0
 40
0.0
 41
0.0
  0
VERTEX
  5
   6EE
  8
0
  6
CONTINUOUS
 10
-566.402316523363
 20
-44.962788013013
 30
0.0
 40
0.0
 41
0.0
  0
VERTEX
  5
   6EF
  8
0
  6
CONTINUOUS
 10
-566.424384552138
 20
-44.8751047262216
 30
0.0
 40
0.0
 41
0.0
  0
VERTEX
  5
   6F0
  8
0
  6
CONTINUOUS
 10
-566.448577206486
 20
-44.7896927114872
 30
0.0
 40
0.0
 41
0.0
  0
VERTEX
  5
   6F1
  8
0
  6
CONTINUOUS
 10
-566.474836204184
 20
-44.7067577338344
 30
0.0
 40
0.0
 41
0.0
  0
VERTEX
  5
   6F2
  8
0
  6
CONTINUOUS
 10
-566.503098285006
 20
-44.6264995908887
 30
0.0
 40
0.0
 41
0.0
  0
VERTEX
  5
   6F3
  8
0
  6
CONTINUOUS
 10
-566.533295363124
 20
-44.5491116315463
 30
0.0
 40
0.0
 41
0.0
  0
VERTEX
  5
   6F4
  8
0
  6
CONTINUOUS
 10
-566.565354691131
 20
-44.4747802901796
 30
0.0
 40
0.0
 41
0.0
  0
VERTEX
  5
   6F5
  8
0
  6
CONTINUOUS
 10
-566.5991990353
 20
-44.4036846375005
 30
0.0
 40
0.0
 41
0.0
  0
VERTEX
  5
   6F6
  8
0
  6
CONTINUOUS
 10
-566.634746861639
 20
-44.3359959491637
 30
0.0
 40
0.0
 41
0.0
  0
VERTEX
  5
   6F7
  8
0
  6
CONTINUOUS
 10
-566.671912532323
 20
-44.2718772931481
 30
0.0
 40
0.0
 41
0.0
  0
VERTEX
  5
   6F8
  8
0
  6
CONTINUOUS
 10
-566.710606511994
 20
-44.2114831369123
 30
0.0
 40
0.0
 41
0.0
  0
VERTEX
  5
   6F9
  8
0
  6
CONTINUOUS
 10
-566.750735583467
 20
-44.1549589752685
 30
0.0
 40
0.0
 41
0.0
  0
VERTEX
  5
   6FA
  8
0
  6
CONTINUOUS
 10
-566.792203072293
 20
-44.102440979873
 30
0.0
 40
0.0
 41
0.0
  0
VERTEX
  5
   6FB
  8
0
  6
CONTINUOUS
 10
-566.83490907966
 20
-44.0540556711769
 30
0.0
 40
0.0
 41
0.0
  0
VERTEX
  5
   6FC
  8
0
  6
CONTINUOUS
 10
-566.878750723056
 20
-44.0099196136267
 30
0.0
 40
0.0
 41
0.0
  0
VERTEX
  5
   6FD
  8
0
  6
CONTINUOUS
 10
-566.923622384121
 20
-43.970139134851
 30
0.0
 40
0.0
 41
0.0
  0
VERTEX
  5
   6FE
  8
0
  6
CONTINUOUS
 10
-566.946410779951
 20
-43.9519126022041
 30
0.0
 40
0.0
 41
0.0
  0
VERTEX
  5
   6FF
  8
0
  6
CONTINUOUS
 10
-566.969415963094
 20
-43.9348100695076
 30
0.0
 40
0.0
 41
0.0
  0
VERTEX
  5
   700
  8
0
  6
CONTINUOUS
 10
-566.992624076087
 20
-43.9188418386875
 30
0.0
 40
0.0
 41
0.0
  0
VERTEX
  5
   701
  8
0
  6
CONTINUOUS
 10
-567.016021139232
 20
-43.9040175284092
 30
0.0
 40
0.0
 41
0.0
  0
VERTEX
  5
   702
  8
0
  6
CONTINUOUS
 10
-567.039593059011
 20
-43.8903460682827
 30
0.0
 40
0.0
 41
0.0
  0
VERTEX
  5
   703
  8
0
  6
CONTINUOUS
 10
-567.063325636583
 20
-43.8778356934845
 30
0.0
 40
0.0
 41
0.0
  0
VERTEX
  5
   704
  8
0
  6
CONTINUOUS
 10
-567.087204576329
 20
-43.8664939397965
 30
0.0
 40
0.0
 41
0.0
  0
VERTEX
  5
   705
  8
0
  6
CONTINUOUS
 10
-567.11121549447
 20
-43.8563276390671
 30
0.0
 40
0.0
 41
0.0
  0
VERTEX
  5
   706
  8
0
  6
CONTINUOUS
 10
-567.135343927726
 20
-43.8473429150957
 30
0.0
 40
0.0
 41
0.0
  0
VERTEX
  5
   707
  8
0
  6
CONTINUOUS
 10
-567.159575342031
 20
-43.839545179944
 30
0.0
 40
0.0
 41
0.0
  0
VERTEX
  5
   708
  8
0
  6
CONTINUOUS
 10
-567.183895141287
 20
-43.8329391306762
 30
0.0
 40
0.0
 41
0.0
  0
VERTEX
  5
   709
  8
0
  6
CONTINUOUS
 10
-567.208288676157
 20
-43.8275287465292
 30
0.0
 40
0.0
 41
0.0
  0
VERTEX
  5
   70A
  8
0
  6
CONTINUOUS
 10
-567.232741252887
 20
-43.8233172865162
 30
0.0
 40
0.0
 41
0.0
  0
VERTEX
  5
   70B
  8
0
  6
CONTINUOUS
 10
-567.257238142159
 20
-43.8203072874632
 30
0.0
 40
0.0
 41
0.0
  0
VERTEX
  5
   70C
  8
0
  6
CONTINUOUS
 10
-567.281764587963
 20
-43.8185005624812
 30
0.0
 40
0.0
 41
0.0
  0
VERTEX
  5
   70D
  8
0
  6
CONTINUOUS
 10
-567.306305816486
 20
-43.8178981998736
 30
0.0
 40
0.0
 41
0.0
  0
SEQEND
  5
   70E
  8
0
  6
CONTINUOUS
 62
   218
  0
POLYLINE
  5
   70F
  8
0
  6
CONTINUOUS
 62
   218
 66
     1
 10
0.0
 20
0.0
 30
0.0
  0
VERTEX
  5
   710
  8
0
  6
CONTINUOUS
 10
-567.306305816486
 20
-47.8178981998736
 30
0.0
 40
0.0
 41
0.0
  0
VERTEX
  5
   711
  8
0
  6
CONTINUOUS
 10
-567.330847045009
 20
-47.8185005624812
 30
0.0
 40
0.0
 41
0.0
  0
VERTEX
  5
   712
  8
0
  6
CONTINUOUS
 10
-567.355373490814
 20
-47.8203072874633
 30
0.0
 40
0.0
 41
0.0
  0
VERTEX
  5
   713
  8
0
  6
CONTINUOUS
 10
-567.379870380086
 20
-47.8233172865162
 30
0.0
 40
0.0
 41
0.0
  0
VERTEX
  5
   714
  8
0
  6
CONTINUOUS
 10
-567.404322956816
 20
-47.8275287465292
 30
0.0
 40
0.0
 41
0.0
  0
VERTEX
  5
   715
  8
0
  6
CONTINUOUS
 10
-567.428716491685
 20
-47.8329391306762
 30
0.0
 40
0.0
 41
0.0
  0
VERTEX
  5
   716
  8
0
  6
CONTINUOUS
 10
-567.453036290942
 20
-47.8395451799441
 30
0.0
 40
0.0
 41
0.0
  0
VERTEX
  5
   717
  8
0
  6
CONTINUOUS
 10
-567.477267705247
 20
-47.8473429150958
 30
0.0
 40
0.0
 41
0.0
  0
VERTEX
  5
   718
  8
0
  6
CONTINUOUS
 10
-567.501396138503
 20
-47.8563276390672
 30
0.0
 40
0.0
 41
0.0
  0
VERTEX
  5
   719
  8
0
  6
CONTINUOUS
 10
-567.525407056643
 20
-47.8664939397966
 30
0.0
 40
0.0
 41
0.0
  0
VERTEX
  5
   71A
  8
0
  6
CONTINUOUS
 10
-567.54928599639
 20
-47.8778356934846
 30
0.0
 40
0.0
 41
0.0
  0
VERTEX
  5
   71B
  8
0
  6
CONTINUOUS
 10
-567.573018573961
 20
-47.8903460682828
 30
0.0
 40
0.0
 41
0.0
  0
VERTEX
  5
   71C
  8
0
  6
CONTINUOUS
 10
-567.596590493741
 20
-47.9040175284093
 30
0.0
 40
0.0
 41
0.0
  0
VERTEX
  5
   71D
  8
0
  6
CONTINUOUS
 10
-567.619987556885
 20
-47.9188418386877
 30
0.0
 40
0.0
 41
0.0
  0
VERTEX
  5
   71E
  8
0
  6
CONTINUOUS
 10
-567.643195669879
 20
-47.9348100695077
 30
0.0
 40
0.0
 41
0.0
  0
VERTEX
  5
   71F
  8
0
  6
CONTINUOUS
 10
-567.666200853022
 20
-47.9519126022043
 30
0.0
 40
0.0
 41
0.0
  0
VERTEX
  5
   720
  8
0
  6
CONTINUOUS
 10
-567.688989248852
 20
-47.9701391348513
 30
0.0
 40
0.0
 41
0.0
  0
VERTEX
  5
   721
  8
0
  6
CONTINUOUS
 10
-567.733860909917
 20
-48.009919613627
 30
0.0
 40
0.0
 41
0.0
  0
VERTEX
  5
   722
  8
0
  6
CONTINUOUS
 10
-567.777702553313
 20
-48.0540556711773
 30
0.0
 40
0.0
 41
0.0
  0
VERTEX
  5
   723
  8
0
  6
CONTINUOUS
 10
-567.82040856068
 20
-48.1024409798735
 30
0.0
 40
0.0
 41
0.0
  0
VERTEX
  5
   724
  8
0
  6
CONTINUOUS
 10
-567.861876049506
 20
-48.154958975269
 30
0.0
 40
0.0
 41
0.0
  0
VERTEX
  5
   725
  8
0
  6
CONTINUOUS
 10
-567.902005120979
 20
-48.2114831369129
 30
0.0
 40
0.0
 41
0.0
  0
VERTEX
  5
   726
  8
0
  6
CONTINUOUS
 10
-567.94069910065
 20
-48.2718772931488
 30
0.0
 40
0.0
 41
0.0
  0
VERTEX
  5
   727
  8
0
  6
CONTINUOUS
 10
-567.977864771334
 20
-48.3359959491645
 30
0.0
 40
0.0
 41
0.0
  0
VERTEX
  5
   728
  8
0
  6
CONTINUOUS
 10
-568.013412597673
 20
-48.4036846375014
 30
0.0
 40
0.0
 41
0.0
  0
VERTEX
  5
   729
  8
0
  6
CONTINUOUS
 10
-568.047256941842
 20
-48.4747802901806
 30
0.0
 40
0.0
 41
0.0
  0
VERTEX
  5
   72A
  8
0
  6
CONTINUOUS
 10
-568.07931626985
 20
-48.5491116315474
 30
0.0
 40
0.0
 41
0.0
  0
VERTEX
  5
   72B
  8
0
  6
CONTINUOUS
 10
-568.109513347967
 20
-48.6264995908899
 30
0.0
 40
0.0
 41
0.0
  0
VERTEX
  5
   72C
  8
0
  6
CONTINUOUS
 10
-568.137775428789
 20
-48.7067577338357
 30
0.0
 40
0.0
 41
0.0
  0
VERTEX
  5
   72D
  8
0
  6
CONTINUOUS
 10
-568.164034426487
 20
-48.7896927114886
 30
0.0
 40
0.0
 41
0.0
  0
VERTEX
  5
   72E
  8
0
  6
CONTINUOUS
 10
-568.188227080835
 20
-48.8751047262231
 30
0.0
 40
0.0
 41
0.0
  0
VERTEX
  5
   72F
  8
0
  6
CONTINUOUS
 10
-568.21029510961
 20
-48.9627880130147
 30
0.0
 40
0.0
 41
0.0
  0
VERTEX
  5
   730
  8
0
  6
CONTINUOUS
 10
-568.230185348998
 20
-49.0525313351452
 30
0.0
 40
0.0
 41
0.0
  0
VERTEX
  5
   731
  8
0
  6
CONTINUOUS
 10
-568.24784988167
 20
-49.144118493091
 30
0.0
 40
0.0
 41
0.0
  0
VERTEX
  5
   732
  8
0
  6
CONTINUOUS
 10
-568.263246152219
 20
-49.2373288453666
 30
0.0
 40
0.0
 41
0.0
  0
VERTEX
  5
   733
  8
0
  6
CONTINUOUS
 10
-568.276337069681
 20
-49.3319378400691
 30
0.0
 40
0.0
 41
0.0
  0
VERTEX
  5
   734
  8
0
  6
CONTINUOUS
 10
-568.28709109689
 20
-49.4277175558435
 30
0.0
 40
0.0
 41
0.0
  0
VERTEX
  5
   735
  8
0
  6
CONTINUOUS
 10
-568.295482326451
 20
-49.5244372509651
 30
0.0
 40
0.0
 41
0.0
  0
VERTEX
  5
   736
  8
0
  6
CONTINUOUS
 10
-568.301490543159
 20
-49.6218639192168
 30
0.0
 40
0.0
 41
0.0
  0
VERTEX
  5
   737
  8
0
  6
CONTINUOUS
 10
-568.305101272692
 20
-49.7197628512212
 30
0.0
 40
0.0
 41
0.0
  0
VERTEX
  5
   738
  8
0
  6
CONTINUOUS
 10
-568.306305816486
 20
-49.8178981998761
 30
0.0
 40
0.0
 41
0.0
  0
VERTEX
  5
   739
  8
0
  6
CONTINUOUS
 10
-568.305101272691
 20
-49.916033548531
 30
0.0
 40
0.0
 41
0.0
  0
VERTEX
  5
   73A
  8
0
  6
CONTINUOUS
 10
-568.301490543158
 20
-50.0139324805354
 30
0.0
 40
0.0
 41
0.0
  0
VERTEX
  5
   73B
  8
0
  6
CONTINUOUS
 10
-568.295482326451
 20
-50.111359148787
 30
0.0
 40
0.0
 41
0.0
  0
VERTEX
  5
   73C
  8
0
  6
CONTINUOUS
 10
-568.287091096889
 20
-50.2080788439086
 30
0.0
 40
0.0
 41
0.0
  0
VERTEX
  5
   73D
  8
0
  6
CONTINUOUS
 10
-568.27633706968
 20
-50.3038585596829
 30
0.0
 40
0.0
 41
0.0
  0
VERTEX
  5
   73E
  8
0
  6
CONTINUOUS
 10
-568.263246152218
 20
-50.3984675543854
 30
0.0
 40
0.0
 41
0.0
  0
VERTEX
  5
   73F
  8
0
  6
CONTINUOUS
 10
-568.247849881669
 20
-50.4916779066609
 30
0.0
 40
0.0
 41
0.0
  0
VERTEX
  5
   740
  8
0
  6
CONTINUOUS
 10
-568.230185348997
 20
-50.5832650646067
 30
0.0
 40
0.0
 41
0.0
  0
VERTEX
  5
   741
  8
0
  6
CONTINUOUS
 10
-568.210295109609
 20
-50.6730083867371
 30
0.0
 40
0.0
 41
0.0
  0
VERTEX
  5
   742
  8
0
  6
CONTINUOUS
 10
-568.188227080834
 20
-50.7606916735285
 30
0.0
 40
0.0
 41
0.0
  0
VERTEX
  5
   743
  8
0
  6
CONTINUOUS
 10
-568.164034426486
 20
-50.8461036882629
 30
0.0
 40
0.0
 41
0.0
  0
VERTEX
  5
   744
  8
0
  6
CONTINUOUS
 10
-568.137775428788
 20
-50.9290386659157
 30
0.0
 40
0.0
 41
0.0
  0
VERTEX
  5
   745
  8
0
  6
CONTINUOUS
 10
-568.109513347966
 20
-51.0092968088613
 30
0.0
 40
0.0
 41
0.0
  0
VERTEX
  5
   746
  8
0
  6
CONTINUOUS
 10
-568.079316269848
 20
-51.0866847682037
 30
0.0
 40
0.0
 41
0.0
  0
VERTEX
  5
   747
  8
0
  6
CONTINUOUS
 10
-568.04725694184
 20
-51.1610161095704
 30
0.0
 40
0.0
 41
0.0
  0
VERTEX
  5
   748
  8
0
  6
CONTINUOUS
 10
-568.013412597671
 20
-51.2321117622494
 30
0.0
 40
0.0
 41
0.0
  0
VERTEX
  5
   749
  8
0
  6
CONTINUOUS
 10
-567.977864771332
 20
-51.2998004505861
 30
0.0
 40
0.0
 41
0.0
  0
VERTEX
  5
   74A
  8
0
  6
CONTINUOUS
 10
-567.940699100648
 20
-51.3639191066016
 30
0.0
 40
0.0
 41
0.0
  0
VERTEX
  5
   74B
  8
0
  6
CONTINUOUS
 10
-567.902005120977
 20
-51.4243132628373
 30
0.0
 40
0.0
 41
0.0
  0
VERTEX
  5
   74C
  8
0
  6
CONTINUOUS
 10
-567.861876049504
 20
-51.480837424481
 30
0.0
 40
0.0
 41
0.0
  0
VERTEX
  5
   74D
  8
0
  6
CONTINUOUS
 10
-567.820408560678
 20
-51.5333554198763
 30
0.0
 40
0.0
 41
0.0
  0
VERTEX
  5
   74E
  8
0
  6
CONTINUOUS
 10
-567.77770255331
 20
-51.5817407285723
 30
0.0
 40
0.0
 41
0.0
  0
VERTEX
  5
   74F
  8
0
  6
CONTINUOUS
 10
-567.733860909915
 20
-51.6258767861223
 30
0.0
 40
0.0
 41
0.0
  0
VERTEX
  5
   750
  8
0
  6
CONTINUOUS
 10
-567.688989248849
 20
-51.6656572648979
 30
0.0
 40
0.0
 41
0.0
  0
VERTEX
  5
   751
  8
0
  6
CONTINUOUS
 10
-567.666200853019
 20
-51.6838837975447
 30
0.0
 40
0.0
 41
0.0
  0
VERTEX
  5
   752
  8
0
  6
CONTINUOUS
 10
-567.643195669876
 20
-51.7009863302412
 30
0.0
 40
0.0
 41
0.0
  0
VERTEX
  5
   753
  8
0
  6
CONTINUOUS
 10
-567.619987556883
 20
-51.7169545610611
 30
0.0
 40
0.0
 41
0.0
  0
VERTEX
  5
   754
  8
0
  6
CONTINUOUS
 10
-567.596590493739
 20
-51.7317788713393
 30
0.0
 40
0.0
 41
0.0
  0
VERTEX
  5
   755
  8
0
  6
CONTINUOUS
 10
-567.573018573959
 20
-51.7454503314657
 30
0.0
 40
0.0
 41
0.0
  0
VERTEX
  5
   756
  8
0
  6
CONTINUOUS
 10
-567.549285996387
 20
-51.7579607062638
 30
0.0
 40
0.0
 41
0.0
  0
VERTEX
  5
   757
  8
0
  6
CONTINUOUS
 10
-567.525407056641
 20
-51.7693024599517
 30
0.0
 40
0.0
 41
0.0
  0
VERTEX
  5
   758
  8
0
  6
CONTINUOUS
 10
-567.5013961385
 20
-51.779468760681
 30
0.0
 40
0.0
 41
0.0
  0
VERTEX
  5
   759
  8
0
  6
CONTINUOUS
 10
-567.477267705244
 20
-51.7884534846523
 30
0.0
 40
0.0
 41
0.0
  0
VERTEX
  5
   75A
  8
0
  6
CONTINUOUS
 10
-567.453036290939
 20
-51.7962512198039
 30
0.0
 40
0.0
 41
0.0
  0
VERTEX
  5
   75B
  8
0
  6
CONTINUOUS
 10
-567.428716491683
 20
-51.8028572690716
 30
0.0
 40
0.0
 41
0.0
  0
VERTEX
  5
   75C
  8
0
  6
CONTINUOUS
 10
-567.404322956813
 20
-51.8082676532185
 30
0.0
 40
0.0
 41
0.0
  0
VERTEX
  5
   75D
  8
0
  6
CONTINUOUS
 10
-567.379870380083
 20
-51.8124791132313
 30
0.0
 40
0.0
 41
0.0
  0
VERTEX
  5
   75E
  8
0
  6
CONTINUOUS
 10
-567.355373490811
 20
-51.8154891122842
 30
0.0
 40
0.0
 41
0.0
  0
VERTEX
  5
   75F
  8
0
  6
CONTINUOUS
 10
-567.330847045007
 20
-51.8172958372661
 30
0.0
 40
0.0
 41
0.0
  0
VERTEX
  5
   760
  8
0
  6
CONTINUOUS
 10
-567.306305816484
 20
-51.8178981998736
 30
0.0
 40
0.0
 41
0.0
  0
SEQEND
  5
   761
  8
0
  6
CONTINUOUS
 62
   218
  0
INSERT
  5
   762
  8
0
  6
CONTINUOUS
 62
   218
  2
*HATCH1056
 10
-510.000244140625
 20
-37.5863952636719
 30
0.0
 41
0.5
 42
0.5
 50
89.9999999480344
 43
0.5
  0
LINE
  5
   763
  8
0
  6
CONTINUOUS
 62
   218
 10
-553.000226245274
 20
-50.556457106341
 30
0.0
 11
-541.500226245274
 21
-48.5286968281936
 31
0.0
  0
LINE
  5
   764
  8
0
  6
CONTINUOUS
 62
   218
 10
-551.018921209688
 20
-50.9178981998736
 30
0.0
 11
-541.500226245274
 21
-49.2394954565136
 31
0.0
  0
LINE
  5
   765
  8
0
  6
CONTINUOUS
 62
   218
 10
-546.987781871488
 20
-50.9178981998736
 30
0.0
 11
-541.500226245274
 21
-49.9502940848336
 31
0.0
  0
LINE
  5
   766
  8
0
  6
CONTINUOUS
 62
   218
 10
-542.956642533287
 20
-50.9178981998736
 30
0.0
 11
-541.500226245274
 21
-50.6610927131536
 31
0.0
  0
LINE
  5
   767
  8
0
  6
CONTINUOUS
 62
   218
 10
-553.000226245274
 20
-49.1348598497009
 30
0.0
 11
-541.500226245274
 21
-47.1070995715536
 31
0.0
  0
LINE
  5
   768
  8
0
  6
CONTINUOUS
 62
   218
 10
-553.000226245274
 20
-48.4240612213809
 30
0.0
 11
-541.500226245274
 21
-46.3963009432335
 31
0.0
  0
LINE
  5
   769
  8
0
  6
CONTINUOUS
 62
   218
 10
-553.000226245274
 20
-47.7132625930609
 30
0.0
 11
-541.500226245274
 21
-45.6855023149135
 31
0.0
  0
LINE
  5
   76A
  8
0
  6
CONTINUOUS
 62
   218
 10
-553.000226245274
 20
-47.0024639647408
 30
0.0
 11
-541.500226245274
 21
-44.9747036865935
 31
0.0
  0
LINE
  5
   76B
  8
0
  6
CONTINUOUS
 62
   218
 10
-553.000226245274
 20
-46.2916653364208
 30
0.0
 11
-544.074949295462
 21
-44.7178981998736
 31
0.0
  0
LINE
  5
   76C
  8
0
  6
CONTINUOUS
 62
   218
 10
-553.000226245274
 20
-45.5808667081007
 30
0.0
 11
-548.106088633663
 21
-44.7178981998736
 31
0.0
  0
LINE
  5
   76D
  8
0
  6
CONTINUOUS
 62
   218
 10
-553.000226245274
 20
-44.8700680797807
 30
0.0
 11
-552.137227971863
 21
-44.7178981998736
 31
0.0
  0
CIRCLE
  5
   76E
  8
0
  6
CONTINUOUS
 62
     1
 10
-536.233214896994
 20
75.0892591676903
 30
0.0
 40
0.125
  0
CIRCLE
  5
   76F
  8
0
  6
CONTINUOUS
 62
     1
 10
-549.061072139951
 20
-55.6169222334083
 30
0.0
 40
0.125
  0
LINE
  5
   770
  8
0
  6
DASHDOT
 62
   218
 10
-558.931385729008
 20
70.0321444701972
 30
0.0
 11
-569.470646636713
 21
70.0321444701972
 31
0.0
  0
LINE
  5
   771
  8
0
  6
CONTINUOUS
 62
     1
 10
-565.000213623047
 20
68.0321444701972
 30
0.0
 11
-565.000213623047
 21
72.0321444701972
 31
0.0
  0
LINE
  5
   772
  8
0
  6
CONTINUOUS
 62
     1
 10
-567.000213623047
 20
68.7821444701972
 30
0.0
 11
-567.000213623047
 21
71.2821444701972
 31
0.0
  0
LINE
  5
   773
  8
0
  6
CONTINUOUS
 62
     1
 10
-563.000213623047
 20
72.0321444701972
 30
0.0
 11
-565.000213623047
 21
72.0321444701972
 31
0.0
  0
LINE
  5
   774
  8
0
  6
CONTINUOUS
 62
     1
 10
-563.000213623047
 20
68.0321444701972
 30
0.0
 11
-565.000213623047
 21
68.0321444701972
 31
0.0
  0
LINE
  5
   775
  8
0
  6
CONTINUOUS
 62
     1
 10
-563.000213623047
 20
71.2821444701972
 30
0.0
 11
-567.000213623047
 21
71.2821444701972
 31
0.0
  0
LINE
  5
   776
  8
0
  6
CONTINUOUS
 62
     1
 10
-563.000213623047
 20
68.7821444701972
 30
0.0
 11
-567.000213623047
 21
68.7821444701972
 31
0.0
  0
LINE
  5
   777
  8
0
  6
CONTINUOUS
 62
     1
 10
-563.000213623047
 20
-34.9678555298028
 30
0.0
 11
-565.000213623047
 21
-34.9678555298028
 31
0.0
  0
LINE
  5
   778
  8
0
  6
CONTINUOUS
 62
     1
 10
-563.000213623047
 20
-35.7178555298028
 30
0.0
 11
-567.000213623047
 21
-35.7178555298028
 31
0.0
  0
LINE
  5
   779
  8
0
  6
DASHDOT
 62
   218
 10
-558.931385729008
 20
-36.9678555298028
 30
0.0
 11
-569.470646636713
 21
-36.9678555298028
 31
0.0
  0
LINE
  5
   77A
  8
0
  6
CONTINUOUS
 62
     1
 10
-563.000213623047
 20
-38.2178555298028
 30
0.0
 11
-567.000213623047
 21
-38.2178555298028
 31
0.0
  0
LINE
  5
   77B
  8
0
  6
CONTINUOUS
 62
     1
 10
-563.000213623047
 20
-38.9678555298028
 30
0.0
 11
-565.000213623047
 21
-38.9678555298028
 31
0.0
  0
LINE
  5
   77C
  8
0
  6
CONTINUOUS
 62
     1
 10
-565.000213623047
 20
-38.9678555298028
 30
0.0
 11
-565.000213623047
 21
-34.9678555298028
 31
0.0
  0
LINE
  5
   77D
  8
0
  6
CONTINUOUS
 62
     1
 10
-567.000213623047
 20
-38.2178555298028
 30
0.0
 11
-567.000213623047
 21
-35.7178555298028
 31
0.0
  0
CIRCLE
  5
   77E
  8
0
  6
CONTINUOUS
 62
     1
 10
-564.396187681151
 20
70.0193412229243
 30
0.0
 40
0.1
  0
TEXT
  5
   77F
  8
0
  6
CONTINUOUS
 62
     1
 10
-504.379986471844
 20
-149.464378482866
 30
0.0
 40
2.00000008940697
  1
M 3076 95-01-16
 50
359.999999948034
 41
0.749999861419206
 72
     2
 11
-482.179989589167
 21
-149.464378502889
 31
0.0
  0
INSERT
  5
   780
  8
0
  6
CONTINUOUS
 62
     7
  2
*UDIM1469
 10
0.0
 20
0.0
 30
0.0
  0
INSERT
  5
   781
  8
0
  6
CONTINUOUS
 62
     7
  2
*UDIM1470
 10
0.0
 20
0.0
 30
0.0
  0
INSERT
  5
   782
  8
0
  6
CONTINUOUS
 62
     7
  2
*UDIM1471
 10
0.0
 20
0.0
 30
0.0
  0
TEXT
  5
   783
  8
0
  6
CONTINUOUS
 62
     1
 10
-511.600387530433
 20
-134.394301928903
 30
0.0
 40
2.00000008940697
  1
93-04-05 ROTA S.
 50
359.999999948034
 41
0.749999861419206
 72
     2
 11
-487.900390857862
 21
-134.394301950279
 31
0.0
  0
INSERT
  5
   784
  8
0
  6
CONTINUOUS
 62
     7
  2
*UDIM1472
 10
0.0
 20
0.0
 30
0.0
  0
INSERT
  5
   785
  8
0
  6
CONTINUOUS
 62
     5
  2
*UDIM1473
 10
0.0
 20
0.0
 30
0.0
  0
TEXT
  5
   786
  8
0
  6
CONTINUOUS
 62
     5
 10
-470.803607952878
 20
3.19864051951212
 30
0.0
 40
3.00000002980232
  1
=        =
 50
89.9999999480344
 41
0.916666604744064
 72
     2
 11
-470.803607928469
 21
30.1486389623408
 31
0.0
  0
INSERT
  5
   787
  8
0
  6
CONTINUOUS
 62
     7
  2
*UDIM1474
 10
0.0
 20
0.0
 30
0.0
  0
INSERT
  5
   788
  8
0
  6
CONTINUOUS
 62
     7
  2
*UDIM1475
 10
0.0
 20
0.0
 30
0.0
  0
INSERT
  5
   789
  8
0
  6
CONTINUOUS
 62
     7
  2
*UDIM1476
 10
0.0
 20
0.0
 30
0.0
  0
INSERT
  5
   78A
  8
0
  6
CONTINUOUS
 62
     7
  2
*UDIM1477
 10
0.0
 20
0.0
 30
0.0
  0
INSERT
  5
   78B
  8
0
  6
CONTINUOUS
 62
     7
  2
*UDIM1478
 10
0.0
 20
0.0
 30
0.0
  0
INSERT
  5
   78C
  8
0
  6
CONTINUOUS
 62
     7
  2
*UDIM1479
 10
0.0
 20
0.0
 30
0.0
  0
INSERT
  5
   78D
  8
0
  6
CONTINUOUS
 62
     7
  2
*UDIM1480
 10
0.0
 20
0.0
 30
0.0
  0
INSERT
  5
   78E
  8
0
  6
CONTINUOUS
 62
     7
  2
*UDIM1481
 10
0.0
 20
0.0
 30
0.0
  0
TEXT
  5
   78F
  8
0
  6
CONTINUOUS
 62
     1
 10
-409.308593664381
 20
-160.4258416442
 30
0.0
 40
4.00000017881393
  1
601812/021
 50
359.999999948034
 41
0.937499973922969
 72
     2
 11
-372.558593064609
 21
-160.425841677347
 31
0.0
  0
TEXT
  5
   790
  8
0
  6
CONTINUOUS
 62
     1
 10
-391.222900326411
 20
-151.444259562939
 30
0.0
 40
3.00000002980232
  1
S4
 50
359.999999948034
 41
0.916666604744064
 72
     2
 11
-386.27290061599
 21
-151.444259567404
 31
0.0
  0
TEXT
  5
   791
  8
0
  6
CONTINUOUS
 62
     1
 10
-419.757320181439
 20
-133.133987451771
 30
0.0
 40
2.00000008940697
  1
3POLE LOW VOLTAGE M.C.C.B SERIES ISOMAX
 50
359.999999948034
 41
0.749999861419206
 72
     1
 11
-390.657324260475
 21
-132.133987433315
 31
0.0
 73
     2
  0
TEXT
  5
   792
  8
0
  6
CONTINUOUS
 62
     1
 10
-415.257320680624
 20
-136.13398745583
 30
0.0
 40
2.00000008940697
  1
FIXED VERSION TERMINALS FOR CABLE
 50
359.999999948034
 41
0.749999861419206
 72
     1
 11
-390.657324129341
 21
-135.133987433315
 31
0.0
 73
     2
  0
TEXT
  5
   793
  8
0
  6
CONTINUOUS
 62
     1
 10
-416.554928548793
 20
-141.204254181492
 30
0.0
 40
2.00000008940697
  1
INTERR.AUTOMATICO SERIE ISOMAX
 50
359.999999948034
 41
0.749999861419206
 72
     1
 11
-394.20493168235
 21
-140.204254156947
 31
0.0
 73
     2
  0
TEXT
  5
   794
  8
0
  6
CONTINUOUS
 62
     1
 10
-424.054927367127
 20
-144.204254174728
 30
0.0
 40
2.00000008940697
  1
TRIPOL.ESECUZIONE FISSA TERMINALI X CAVI
 50
359.999999948034
 41
0.749999861419206
 72
     1
 11
-394.204931551216
 21
-143.204254156947
 31
0.0
 73
     2
  0
INSERT
  5
   795
  8
0
  6
CONTINUOUS
 62
     7
  2
*UDIM1482
 10
0.0
 20
0.0
 30
0.0
  0
INSERT
  5
   796
  8
0
  6
CONTINUOUS
 62
     7
  2
*UDIM1483
 10
0.0
 20
0.0
 30
0.0
  0
TEXT
  5
   797
  8
0
  6
CONTINUOUS
 62
     7
 10
-466.598850162189
 20
16.0361335820929
 30
0.0
 40
3.00000002980232
  1
X
 50
359.999999948034
 41
0.916666604744064
 72
     1
 11
-465.498850226401
 21
17.5361335960019
 31
0.0
 73
     2
  0
LINE
  5
   798
  8
0
  6
CONTINUOUS
 62
     7
 10
-667.426105681534
 20
-8.84284973144532
 30
0.0
 11
-672.426105681534
 21
-8.84284973144532
 31
0.0
  0
LINE
  5
   799
  8
0
  6
CONTINUOUS
 62
     7
 10
-679.926105681534
 20
42.6571350097656
 30
0.0
 11
-679.926105681534
 21
43.6571350097656
 31
0.0
  0
LINE
  5
   79A
  8
0
  6
CONTINUOUS
 62
     7
 10
-672.426105681534
 20
-8.84284973144532
 30
0.0
 11
-679.926105681534
 21
-8.84284973144532
 31
0.0
  0
LINE
  5
   79B
  8
0
  6
CONTINUOUS
 62
     7
 10
-653.676120940323
 20
-8.84284973144532
 30
0.0
 11
-667.426105681534
 21
-8.84284973144532
 31
0.0
  0
LINE
  5
   79C
  8
0
  6
CONTINUOUS
 62
    52
 10
-634.926136199112
 20
-8.84284973144532
 30
0.0
 11
-639.926136199112
 21
-8.84284973144532
 31
0.0
  0
LINE
  5
   79D
  8
0
  6
CONTINUOUS
 62
    52
 10
-627.426136199112
 20
-8.84284973144532
 30
0.0
 11
-634.926136199112
 21
-8.84284973144532
 31
0.0
  0
LINE
  5
   79E
  8
0
  6
CONTINUOUS
 62
    52
 10
-639.926136199112
 20
-8.84284973144532
 30
0.0
 11
-653.676120940323
 21
-8.84284973144532
 31
0.0
  0
LINE
  5
   79F
  8
0
  6
CONTINUOUS
 62
     7
 10
-665.051114570835
 20
68.0321197509677
 30
0.0
 11
-678.67610694144
 21
68.0321197509677
 31
0.0
  0
LINE
  5
   7A0
  8
0
  6
CONTINUOUS
 62
     7
 10
-647.551130000229
 20
68.0321197509766
 30
0.0
 11
-659.801122370835
 21
68.0321197509766
 31
0.0
  0
LINE
  5
   7A1
  8
0
  6
CONTINUOUS
 62
     7
 10
-628.676136199112
 20
68.0321273803711
 30
0.0
 11
-642.301136199112
 21
68.0321273803711
 31
0.0
  0
LINE
  5
   7A2
  8
0
  6
CONTINUOUS
 62
     7
 10
-663.301105681534
 20
80.0321197509667
 30
0.0
 11
-678.176119601821
 21
80.0321197509667
 31
0.0
  0
LINE
  5
   7A3
  8
0
  6
CONTINUOUS
 62
     7
 10
-645.801105681534
 20
80.0321197509765
 30
0.0
 11
-661.551105681534
 21
80.0321197509765
 31
0.0
  0
LINE
  5
   7A4
  8
0
  6
CONTINUOUS
 62
     7
 10
-629.176136199112
 20
80.0321273803711
 30
0.0
 11
-644.051105681534
 21
80.0321273803711
 31
0.0
  0
LINE
  5
   7A5
  8
0
  6
CONTINUOUS
 62
     7
 10
-678.529664441498
 20
79.88565904594
 30
0.0
 11
-678.176118307899
 21
80.0321052627788
 31
0.0
  0
LINE
  5
   7A6
  8
0
  6
CONTINUOUS
 62
     7
 10
-678.676111393449
 20
79.5321063141548
 30
0.0
 11
-678.529657558078
 21
79.8856600701213
 31
0.0
  0
LINE
  5
   7A7
  8
0
  6
CONTINUOUS
 62
     7
 10
-678.676111849969
 20
67.782111147647
 30
0.0
 11
-678.676118894989
 21
78.6321182250976
 31
0.0
  0
LINE
  5
   7A8
  8
0
  6
CONTINUOUS
 62
     7
 10
-628.676140906564
 20
67.7821216989726
 30
0.0
 11
-628.676154996598
 21
78.6321258544922
 31
0.0
  0
LINE
  5
   7A9
  8
0
  6
CONTINUOUS
 62
     7
 10
-628.676156564104
 20
79.5321285209218
 30
0.0
 11
-628.822595162589
 21
79.8856822861735
 31
0.0
  0
LINE
  5
   7AA
  8
0
  6
CONTINUOUS
 62
     7
 10
-628.822596986946
 20
79.885675401066
 30
0.0
 11
-629.176143120546
 21
80.0321216179048
 31
0.0
  0
LINE
  5
   7AB
  8
0
  6
CONTINUOUS
 62
     7
 10
-642.301136199112
 20
68.0321273803711
 30
0.0
 11
-642.301136199112
 21
70.0321273803711
 31
0.0
  0
LINE
  5
   7AC
  8
0
  6
CONTINUOUS
 62
     7
 10
-647.551130417439
 20
68.0321194232204
 30
0.0
 11
-647.551132801625
 21
70.0321194232204
 31
0.0
  0
LINE
  5
   7AD
  8
0
  6
CONTINUOUS
 62
     7
 10
-659.801129463802
 20
68.0321165025585
 30
0.0
 11
-659.801128033291
 21
70.0321165025585
 31
0.0
  0
LINE
  5
   7AE
  8
0
  6
CONTINUOUS
 62
     7
 10
-665.05111807945
 20
68.0321173676057
 30
0.0
 11
-665.051110450056
 21
70.0321173676057
 31
0.0
  0
LINE
  5
   7AF
  8
0
  6
CONTINUOUS
 62
     7
 10
-627.426136199112
 20
67.7821273803711
 30
0.0
 11
-627.426136199112
 21
78.6321258544922
 31
0.0
  0
LINE
  5
   7B0
  8
0
  6
CONTINUOUS
 62
     7
 10
-627.426136199112
 20
78.6321258544922
 30
0.0
 11
-628.676136199112
 21
78.6321258544922
 31
0.0
  0
LINE
  5
   7B1
  8
0
  6
CONTINUOUS
 62
     7
 10
-679.926113310929
 20
67.782112121582
 30
0.0
 11
-679.926113310929
 21
78.6321182250976
 31
0.0
  0
LINE
  5
   7B2
  8
0
  6
CONTINUOUS
 62
     7
 10
-678.676113310929
 20
78.6321182250976
 30
0.0
 11
-679.926113310929
 21
78.6321182250976
 31
0.0
  0
LINE
  5
   7B3
  8
0
  6
CONTINUOUS
 62
     7
 10
-679.926105681534
 20
57.6571311950664
 30
0.0
 11
-679.926105681534
 21
67.7821350097656
 31
0.0
  0
LINE
  5
   7B4
  8
0
  6
CONTINUOUS
 62
     7
 10
-653.676120940323
 20
67.7821350097656
 30
0.0
 11
-679.926105681534
 21
67.7821350097656
 31
0.0
  0
LINE
  5
   7B5
  8
0
  6
CONTINUOUS
 62
     7
 10
-627.426136199112
 20
57.6571311950664
 30
0.0
 11
-627.426136199112
 21
67.7821350097656
 31
0.0
  0
LINE
  5
   7B6
  8
0
  6
CONTINUOUS
 62
     7
 10
-627.426136199112
 20
67.7821350097656
 30
0.0
 11
-653.676120940323
 21
67.7821350097656
 31
0.0
  0
LINE
  5
   7B7
  8
0
  6
DASHDOT
 62
     7
 10
-653.676099147333
 20
-74.1860621492599
 30
0.0
 11
-653.676136462526
 21
66.0218482890943
 31
0.0
  0
LINE
  5
   7B8
  8
0
  6
CONTINUOUS
 62
     3
 10
-679.926105681534
 20
-45.5678497552872
 30
0.0
 11
-679.926105681534
 21
-22.8428668975849
 31
0.0
  0
LINE
  5
   7B9
  8
0
  6
CONTINUOUS
 62
     3
 10
-678.676105681534
 20
-45.5678497552872
 30
0.0
 11
-679.926105681534
 21
-45.5678497552872
 31
0.0
  0
LINE
  5
   7BA
  8
0
  6
CONTINUOUS
 62
     3
 10
-678.676105681534
 20
-46.4678497314453
 30
0.0
 11
-678.676105681534
 21
-45.5678497552872
 31
0.0
  0
LINE
  5
   7BB
  8
0
  6
CONTINUOUS
 62
     3
 10
-667.936106575291
 20
-46.9678497314448
 30
0.0
 11
-678.176105681534
 21
-46.9678497314448
 31
0.0
  0
LINE
  5
   7BC
  8
0
  6
CONTINUOUS
 62
     7
 10
-678.676105681534
 20
-45.5678497552872
 30
0.0
 11
-678.676105681534
 21
-35.4678497314453
 31
0.0
  0
LINE
  5
   7BD
  8
0
  6
CONTINUOUS
 62
     7
 10
-647.551105681534
 20
-34.9678497314453
 30
0.0
 11
-659.801105681534
 21
-34.9678497314453
 31
0.0
  0
LINE
  5
   7BE
  8
0
  6
CONTINUOUS
 62
     7
 10
-630.676105681534
 20
-34.9678497314453
 30
0.0
 11
-642.301105681534
 21
-34.9678497314453
 31
0.0
  0
LINE
  5
   7BF
  8
0
  6
CONTINUOUS
 62
     7
 10
-634.426105681534
 20
-34.9678497314453
 30
0.0
 11
-634.426105681534
 21
-34.7178497314453
 31
0.0
  0
LINE
  5
   7C0
  8
0
  6
CONTINUOUS
 62
     7
 10
-628.301105681534
 20
-35.4678497314453
 30
0.0
 11
-628.301105681534
 21
-34.7178497314453
 31
0.0
  0
LINE
  5
   7C1
  8
0
  6
CONTINUOUS
 62
     7
 10
-679.051105681534
 20
-35.4678497314453
 30
0.0
 11
-679.051105681534
 21
-34.7178497314453
 31
0.0
  0
LINE
  5
   7C2
  8
0
  6
CONTINUOUS
 62
     7
 10
-630.676105681534
 20
-35.4678497314453
 30
0.0
 11
-630.676105681534
 21
-34.7178497314453
 31
0.0
  0
ARC
  5
   7C3
  8
0
  6
CONTINUOUS
 62
     7
 10
-671.176105614266
 20
-37.9678517697935
 30
0.0
 40
2.74999793642075
 50
101.990590955936
 51
280.922300336364
  0
CIRCLE
  5
   7C4
  8
0
  6
CONTINUOUS
 62
     7
 10
-671.176106308403
 20
-44.967850744062
 30
0.0
 40
0.700001026691361
  0
ARC
  5
   7C5
  8
0
  6
CONTINUOUS
 62
     3
 10
-678.176105542305
 20
-46.4678495257324
 30
0.0
 40
0.50000021494898
 50
180.000023420064
 51
269.999992853049
  0
LINE
  5
   7C6
  8
0
  6
DASHDOT
 62
     3
 10
-671.176105614266
 20
-41.7178497062143
 30
0.0
 11
-671.176105614266
 21
-34.2178538333728
 31
0.0
  0
LINE
  5
   7C7
  8
0
  6
DASHDOT
 62
     3
 10
-667.426107677845
 20
-37.9678517697935
 30
0.0
 11
-674.926103550687
 21
-37.9678517697935
 31
0.0
  0
LINE
  5
   7C8
  8
0
  6
DASHDOT
 62
     3
 10
-671.176106308403
 20
-59.6796994483054
 30
0.0
 11
-671.176106308403
 21
-43.2678497173706
 31
0.0
  0
LINE
  5
   7C9
  8
0
  6
DASHDOT
 62
     3
 10
-669.476105281711
 20
-44.967850744062
 30
0.0
 11
-672.876107335094
 21
-44.967850744062
 31
0.0
  0
LINE
  5
   7CA
  8
0
  6
DASHDOT
 62
     3
 10
-659.551111768823
 20
-8.71784119697723
 30
0.0
 11
-665.301099133326
 21
-8.71784119697723
 31
0.0
  0
LINE
  5
   7CB
  8
0
  6
DASHDOT
 62
     3
 10
-642.050908682068
 20
-8.71806231998911
 30
0.0
 11
-647.801266259347
 21
-8.71806231998911
 31
0.0
  0
LINE
  5
   7CC
  8
0
  6
CONTINUOUS
 62
     3
 10
-678.676105681534
 20
-46.4678497314453
 30
0.0
 11
-678.676105681534
 21
-45.5678497552872
 31
0.0
  0
LINE
  5
   7CD
  8
0
  6
CONTINUOUS
 62
     3
 10
-627.426105681534
 20
-45.5678482055664
 30
0.0
 11
-627.426105681534
 21
-22.8428668975849
 31
0.0
  0
LINE
  5
   7CE
  8
0
  6
CONTINUOUS
 62
     7
 10
-676.676105681534
 20
-35.4678497314453
 30
0.0
 11
-679.051105681534
 21
-35.4678497314453
 31
0.0
  0
LINE
  5
   7CF
  8
0
  6
CONTINUOUS
 62
     7
 10
-659.801105681534
 20
-36.9678497314453
 30
0.0
 11
-659.801105681534
 21
-34.9678497314453
 31
0.0
  0
LINE
  5
   7D0
  8
0
  6
CONTINUOUS
 62
     7
 10
-672.926105681534
 20
-34.9678497314453
 30
0.0
 11
-672.926105681534
 21
-34.7178497314453
 31
0.0
  0
LINE
  5
   7D1
  8
0
  6
CONTINUOUS
 62
     7
 10
-676.676105681534
 20
-35.4678497314453
 30
0.0
 11
-676.676105681534
 21
-34.7178497314453
 31
0.0
  0
ARC
  5
   7D2
  8
0
  6
CONTINUOUS
 62
     3
 10
-678.176105542305
 20
-46.4678495257324
 30
0.0
 40
0.50000021494898
 50
180.000023420064
 51
269.999992853049
  0
LINE
  5
   7D3
  8
0
  6
CONTINUOUS
 62
     7
 10
-665.051105681534
 20
-34.9678497314453
 30
0.0
 11
-676.676105681534
 21
-34.9678497314453
 31
0.0
  0
LINE
  5
   7D4
  8
0
  6
CONTINUOUS
 62
     7
 10
-628.301105681534
 20
-35.4678497314453
 30
0.0
 11
-630.676105681534
 21
-35.4678497314453
 31
0.0
  0
LINE
  5
   7D5
  8
0
  6
CONTINUOUS
 62
     7
 10
-627.426136199112
 20
-34.7178497314453
 30
0.0
 11
-679.926105681534
 21
-34.7178497314453
 31
0.0
  0
CIRCLE
  5
   7D6
  8
0
  6
CONTINUOUS
 62
     7
 10
-671.17616876144
 20
71.0317711231391
 30
0.0
 40
2.75032955665546
  0
CIRCLE
  5
   7D7
  8
0
  6
CONTINUOUS
 62
     7
 10
-653.676140127301
 20
71.0318547915784
 30
0.0
 40
2.75025635970134
  0
CIRCLE
  5
   7D8
  8
0
  6
CONTINUOUS
 62
     7
 10
-636.176165686085
 20
71.0323499784396
 30
0.0
 40
2.74979727805939
  0
CIRCLE
  5
   7D9
  8
0
  6
CONTINUOUS
 62
     7
 10
-636.176165459765
 20
78.0321201402288
 30
0.0
 40
0.699995978588607
  0
CIRCLE
  5
   7DA
  8
0
  6
CONTINUOUS
 62
     7
 10
-653.676158037044
 20
78.0321536030938
 30
0.0
 40
0.700018389898363
  0
CIRCLE
  5
   7DB
  8
0
  6
CONTINUOUS
 62
     7
 10
-671.176116897405
 20
78.0321188708179
 30
0.0
 40
0.699999862369895
  0
ARC
  5
   7DC
  8
0
  6
CONTINUOUS
 62
     7
 10
-662.426122797482
 20
70.0321370820624
 30
0.0
 40
2.62498079731739
 50
359.999999948034
 51
539.999781381981
  0
ARC
  5
   7DD
  8
0
  6
CONTINUOUS
 62
     7
 10
-644.926113549705
 20
70.0321183096474
 30
0.0
 40
2.62499746304208
 50
359.999999948034
 51
540.000068249926
  0
LINE
  5
   7DE
  8
0
  6
CONTINUOUS
 62
     7
 10
-667.426113310929
 20
-8.84284973144532
 30
0.0
 11
-672.426105681534
 21
-8.84284973144532
 31
0.0
  0
LINE
  5
   7DF
  8
0
  6
CONTINUOUS
 62
     7
 10
-634.926120940323
 20
-8.84284973144532
 30
0.0
 11
-639.926120940323
 21
-8.84284973144532
 31
0.0
  0
LINE
  5
   7E0
  8
0
  6
CONTINUOUS
 62
     7
 10
-627.426105681534
 20
-8.59284973144531
 30
0.0
 11
-627.426105681534
 21
0.407142639160156
 31
0.0
  0
LINE
  5
   7E1
  8
0
  6
CONTINUOUS
 62
     7
 10
-679.926105681534
 20
-8.84284973144532
 30
0.0
 11
-679.926105681534
 21
0.407142639160156
 31
0.0
  0
LINE
  5
   7E2
  8
0
  6
CONTINUOUS
 62
     7
 10
-627.426113310929
 20
43.6571502685547
 30
0.0
 11
-679.92610568152
 21
43.6571502685547
 31
0.0
  0
LINE
  5
   7E3
  8
0
  6
CONTINUOUS
 62
     7
 10
-672.426105681534
 20
-8.84284973144532
 30
0.0
 11
-679.926105681534
 21
-8.84284973144532
 31
0.0
  0
LINE
  5
   7E4
  8
0
  6
CONTINUOUS
 62
     7
 10
-639.926120940323
 20
-8.84284973144532
 30
0.0
 11
-667.426113310929
 21
-8.84284973144532
 31
0.0
  0
LINE
  5
   7E5
  8
0
  6
CONTINUOUS
 62
     7
 10
-627.676105681534
 20
-8.84284973144532
 30
0.0
 11
-634.926120940323
 21
-8.84284973144532
 31
0.0
  0
LINE
  5
   7E6
  8
0
  6
CONTINUOUS
 62
     7
 10
-648.301105681534
 20
2.28214263916016
 30
0.0
 11
-648.301105681534
 21
22.2821350097656
 31
0.0
  0
LINE
  5
   7E7
  8
0
  6
CONTINUOUS
 62
     7
 10
-659.051105681534
 20
2.28214263916016
 30
0.0
 11
-659.051105681534
 21
22.2821350097656
 31
0.0
  0
LINE
  5
   7E8
  8
0
  6
CONTINUOUS
 62
     7
 10
-627.426105681534
 20
37.6571350097656
 30
0.0
 11
-679.926105681534
 21
37.6571350097656
 31
0.0
  0
LINE
  5
   7E9
  8
0
  6
CONTINUOUS
 62
     7
 10
-627.426105681534
 20
42.6571350097656
 30
0.0
 11
-679.926105681534
 21
42.6571350097656
 31
0.0
  0
LINE
  5
   7EA
  8
0
  6
CONTINUOUS
 62
     7
 10
-648.301105681534
 20
22.14990234375
 30
0.0
 11
-659.051105681534
 21
22.14990234375
 31
0.0
  0
LINE
  5
   7EB
  8
0
  6
CONTINUOUS
 62
     7
 10
-648.301105681534
 20
22.2821350097656
 30
0.0
 11
-659.051105681534
 21
22.2821350097656
 31
0.0
  0
LINE
  5
   7EC
  8
0
  6
CONTINUOUS
 62
     7
 10
-648.301105681534
 20
2.28214263916015
 30
0.0
 11
-659.051105681534
 21
2.28214263916015
 31
0.0
  0
LINE
  5
   7ED
  8
0
  6
CONTINUOUS
 62
     7
 10
-648.301105681534
 20
2.41439056396484
 30
0.0
 11
-659.051105681534
 21
2.41439056396484
 31
0.0
  0
LINE
  5
   7EE
  8
0
  6
DASHDOT
 62
     7
 10
-653.676105681534
 20
-10.4694906711247
 30
0.0
 11
-653.676105681534
 21
32.7583524123997
 31
0.0
  0
LINE
  5
   7EF
  8
0
  6
CONTINUOUS
 62
     7
 10
-627.426113310929
 20
0.907142639160156
 30
0.0
 11
-627.426113310929
 21
6.9071386625409
 31
0.0
  0
LINE
  5
   7F0
  8
0
  6
CONTINUOUS
 62
     7
 10
-627.426113310929
 20
24.1571426391602
 30
0.0
 11
-627.426113310929
 21
43.6571502685547
 31
0.0
  0
LINE
  5
   7F1
  8
0
  6
CONTINUOUS
 62
     7
 10
-627.426113310929
 20
7.40713866254093
 30
0.0
 11
-627.426113310929
 21
17.1571426391602
 31
0.0
  0
LINE
  5
   7F2
  8
0
  6
CONTINUOUS
 62
     7
 10
-627.426113310929
 20
17.6571426391602
 30
0.0
 11
-627.426113310929
 21
23.6571426391602
 31
0.0
  0
LINE
  5
   7F3
  8
0
  6
CONTINUOUS
 62
     7
 10
-679.926105681537
 20
0.907142639160156
 30
0.0
 11
-679.926105681537
 21
6.90714263916124
 31
0.0
  0
LINE
  5
   7F4
  8
0
  6
CONTINUOUS
 62
     7
 10
-679.926105681546
 20
7.40714263916127
 30
0.0
 11
-679.926105681546
 21
17.1571426391602
 31
0.0
  0
LINE
  5
   7F5
  8
0
  6
CONTINUOUS
 62
     7
 10
-679.926105681532
 20
17.6571426391602
 30
0.0
 11
-679.926105681532
 21
23.6571426391602
 31
0.0
  0
LINE
  5
   7F6
  8
0
  6
CONTINUOUS
 62
     7
 10
-679.92610568152
 20
24.1571426391602
 30
0.0
 11
-679.92610568152
 21
43.6571502685547
 31
0.0
  0
LINE
  5
   7F7
  8
0
  6
CONTINUOUS
 62
     7
 10
-659.051109668396
 20
6.90714263915913
 30
0.0
 11
-679.426105711337
 21
6.90714263915913
 31
0.0
  0
LINE
  5
   7F8
  8
0
  6
CONTINUOUS
 62
     7
 10
-627.426113310929
 20
6.90715789794819
 30
0.0
 11
-627.926113310929
 21
6.90715789794819
 31
0.0
  0
LINE
  5
   7F9
  8
0
  6
CONTINUOUS
 62
     7
 10
-659.05111944794
 20
7.40714263915909
 30
0.0
 11
-679.426105711337
 21
7.40714263915909
 31
0.0
  0
LINE
  5
   7FA
  8
0
  6
CONTINUOUS
 62
     7
 10
-627.426113310929
 20
7.40715789794815
 30
0.0
 11
-627.926113310929
 21
7.40715789794815
 31
0.0
  0
LINE
  5
   7FB
  8
0
  6
CONTINUOUS
 62
     7
 10
-679.426105711337
 20
6.90714263916016
 30
0.0
 11
-679.426105711337
 21
7.40714263916016
 31
0.0
  0
LINE
  5
   7FC
  8
0
  6
CONTINUOUS
 62
     7
 10
-627.926113310929
 20
6.90714263916016
 30
0.0
 11
-627.926113310929
 21
7.40714263916016
 31
0.0
  0
LINE
  5
   7FD
  8
0
  6
CONTINUOUS
 62
     7
 10
-627.426105681534
 20
0.407142639160149
 30
0.0
 11
-627.926113310929
 21
0.407142639160149
 31
0.0
  0
LINE
  5
   7FE
  8
0
  6
CONTINUOUS
 62
     7
 10
-627.426113310929
 20
0.907142639160149
 30
0.0
 11
-627.926113310929
 21
0.907142639160149
 31
0.0
  0
LINE
  5
   7FF
  8
0
  6
CONTINUOUS
 62
     7
 10
-679.426105711337
 20
0.407142639160156
 30
0.0
 11
-679.426105711337
 21
0.907142639160156
 31
0.0
  0
LINE
  5
   800
  8
0
  6
CONTINUOUS
 62
     7
 10
-627.926113310929
 20
0.407142639160156
 30
0.0
 11
-627.926113310929
 21
0.907142639160156
 31
0.0
  0
LINE
  5
   801
  8
0
  6
CONTINUOUS
 62
     7
 10
-627.426113310929
 20
23.6571426391601
 30
0.0
 11
-627.926113310929
 21
23.6571426391601
 31
0.0
  0
LINE
  5
   802
  8
0
  6
CONTINUOUS
 62
     7
 10
-627.426113310929
 20
24.1571426391602
 30
0.0
 11
-627.926113310929
 21
24.1571426391602
 31
0.0
  0
LINE
  5
   803
  8
0
  6
CONTINUOUS
 62
     7
 10
-679.426105711337
 20
23.6571426391602
 30
0.0
 11
-679.426105711337
 21
24.1571426391602
 31
0.0
  0
LINE
  5
   804
  8
0
  6
CONTINUOUS
 62
     7
 10
-627.926113310929
 20
23.6571426391602
 30
0.0
 11
-627.926113310929
 21
24.1571426391602
 31
0.0
  0
LINE
  5
   805
  8
0
  6
CONTINUOUS
 62
     7
 10
-659.051109645243
 20
17.1571426391602
 30
0.0
 11
-679.426105711337
 21
17.1571426391602
 31
0.0
  0
LINE
  5
   806
  8
0
  6
CONTINUOUS
 62
     7
 10
-627.426113310929
 20
17.1571426391602
 30
0.0
 11
-627.926113310929
 21
17.1571426391602
 31
0.0
  0
LINE
  5
   807
  8
0
  6
CONTINUOUS
 62
     7
 10
-659.051105681534
 20
17.6571426391602
 30
0.0
 11
-679.426105711337
 21
17.6571426391602
 31
0.0
  0
LINE
  5
   808
  8
0
  6
CONTINUOUS
 62
     7
 10
-627.426113310929
 20
17.6571426391602
 30
0.0
 11
-627.926113310929
 21
17.6571426391602
 31
0.0
  0
LINE
  5
   809
  8
0
  6
CONTINUOUS
 62
     7
 10
-679.426105711337
 20
17.1571426391602
 30
0.0
 11
-679.426105711337
 21
17.6571426391602
 31
0.0
  0
LINE
  5
   80A
  8
0
  6
CONTINUOUS
 62
     7
 10
-627.926113310929
 20
17.1571426391602
 30
0.0
 11
-627.926113310929
 21
17.6571426391602
 31
0.0
  0
ARC
  5
   80B
  8
0
  6
CONTINUOUS
 62
     7
 10
-627.676105681534
 20
-8.59284973144531
 30
0.0
 40
0.25
 50
269.999999948034
 51
359.999999948034
  0
INSERT
  5
   80C
  8
255
  6
CONTINUOUS
 62
     7
  2
ON-OFF
 10
-643.676110564347
 20
20.6571426391602
 30
0.0
 41
0.5
 42
0.5
 50
359.999999792137
 43
0.5
  0
LINE
  5
   80D
  8
0
  6
CONTINUOUS
 62
     7
 10
-664.926105681534
 20
22.9071426391602
 30
0.0
 11
-665.676105681534
 21
22.9071426391602
 31
0.0
  0
LINE
  5
   80E
  8
0
  6
CONTINUOUS
 62
     7
 10
-664.926105681534
 20
18.4071426391602
 30
0.0
 11
-665.676105681534
 21
18.4071426391602
 31
0.0
  0
CIRCLE
  5
   80F
  8
0
  6
CONTINUOUS
 62
     7
 10
-665.301105681534
 20
3.90714263916017
 30
0.0
 40
2.25
  0
CIRCLE
  5
   810
  8
0
  6
CONTINUOUS
 62
     7
 10
-665.301105681534
 20
3.90714263916017
 30
0.0
 40
1.5
  0
LINE
  5
   811
  8
0
  6
CONTINUOUS
 62
     7
 10
-665.676105681534
 20
18.4071426391602
 30
0.0
 11
-665.676105681534
 21
22.9071426391602
 31
0.0
  0
LINE
  5
   812
  8
0
  6
CONTINUOUS
 62
     7
 10
-664.926105681534
 20
18.4071426391602
 30
0.0
 11
-664.926105681534
 21
22.9071426391602
 31
0.0
  0
LINE
  5
   813
  8
0
  6
CONTINUOUS
 62
     7
 10
-660.426105681534
 20
0.907142639160156
 30
0.0
 11
-660.426105681534
 21
6.90714978374292
 31
0.0
  0
LINE
  5
   814
  8
0
  6
CONTINUOUS
 62
     7
 10
-646.926105681534
 20
0.907142639160156
 30
0.0
 11
-646.926105681534
 21
6.90714580711978
 31
0.0
  0
LINE
  5
   815
  8
0
  6
CONTINUOUS
 62
     7
 10
-646.926105681534
 20
17.6571426391602
 30
0.0
 11
-646.926105681534
 21
23.6571426391602
 31
0.0
  0
LINE
  5
   816
  8
0
  6
CONTINUOUS
 62
     7
 10
-660.426105681534
 20
17.6571426391602
 30
0.0
 11
-660.426105681534
 21
23.6571426391602
 31
0.0
  0
LINE
  5
   817
  8
0
  6
DASHDOT
 62
     7
 10
-636.176165686085
 20
63.2825527003802
 30
0.0
 11
-636.176165686085
 21
78.782147256499
 31
0.0
  0
LINE
  5
   818
  8
0
  6
DASHDOT
 62
     7
 10
-628.426368408026
 20
71.0323499784396
 30
0.0
 11
-643.925962964144
 21
71.0323499784396
 31
0.0
  0
LINE
  5
   819
  8
0
  6
DASHDOT
 62
     7
 10
-644.926113549705
 20
62.4071208466053
 30
0.0
 11
-644.926113549705
 21
77.6571157726895
 31
0.0
  0
LINE
  5
   81A
  8
0
  6
DASHDOT
 62
     7
 10
-637.301116086663
 20
70.0321183096474
 30
0.0
 11
-652.551111012747
 21
70.0321183096474
 31
0.0
  0
LINE
  5
   81B
  8
0
  6
DASHDOT
 62
     7
 10
-653.676140127301
 20
63.281598431877
 30
0.0
 11
-653.676140127301
 21
78.7821111512797
 31
0.0
  0
LINE
  5
   81C
  8
0
  6
DASHDOT
 62
     7
 10
-645.9258837676
 20
71.0318547915784
 30
0.0
 11
-661.426396487002
 21
71.0318547915784
 31
0.0
  0
LINE
  5
   81D
  8
0
  6
DASHDOT
 62
     7
 10
-662.426122797482
 20
62.407156284745
 30
0.0
 11
-662.426122797482
 21
77.6571178793798
 31
0.0
  0
LINE
  5
   81E
  8
0
  6
DASHDOT
 62
     7
 10
-654.801142000165
 20
70.0321370820624
 30
0.0
 11
-670.051103594799
 21
70.0321370820624
 31
0.0
  0
LINE
  5
   81F
  8
0
  6
DASHDOT
 62
     7
 10
-671.17616876144
 20
63.2814415664837
 30
0.0
 11
-671.17616876144
 21
78.7821006797946
 31
0.0
  0
LINE
  5
   820
  8
0
  6
DASHDOT
 62
     7
 10
-663.425839204785
 20
71.0317711231391
 30
0.0
 11
-678.926498318096
 21
71.0317711231391
 31
0.0
  0
LINE
  5
   821
  8
0
  6
DASHDOT
 62
     7
 10
-671.176116897405
 20
72.332119008448
 30
0.0
 11
-671.176116897405
 21
83.7321187331879
 31
0.0
  0
LINE
  5
   822
  8
0
  6
DASHDOT
 62
     7
 10
-665.476117035035
 20
78.0321188708179
 30
0.0
 11
-676.876116759775
 21
78.0321188708179
 31
0.0
  0
LINE
  5
   823
  8
0
  6
DASHDOT
 62
     7
 10
-653.676158037044
 20
72.3321352131954
 30
0.0
 11
-653.676158037044
 21
83.7321719929922
 31
0.0
  0
LINE
  5
   824
  8
0
  6
DASHDOT
 62
     7
 10
-647.976139647146
 20
78.0321536030938
 30
0.0
 11
-659.376176426943
 21
78.0321536030938
 31
0.0
  0
LINE
  5
   825
  8
0
  6
DASHDOT
 62
     7
 10
-636.176165459765
 20
72.3321241616402
 30
0.0
 11
-636.176165459765
 21
83.7321161188174
 31
0.0
  0
LINE
  5
   826
  8
0
  6
DASHDOT
 62
     7
 10
-630.476169481177
 20
78.0321201402288
 30
0.0
 11
-641.876161438354
 21
78.0321201402288
 31
0.0
  0
LINE
  5
   827
  8
0
  6
CONTINUOUS
 62
     7
 10
-648.301105681534
 20
6.87178581688054
 30
0.0
 11
-659.051105681534
 21
6.87178581688054
 31
0.0
  0
LINE
  5
   828
  8
0
  6
CONTINUOUS
 62
     7
 10
-648.301105681534
 20
2.91130963983256
 30
0.0
 11
-659.051105681534
 21
2.91130963983256
 31
0.0
  0
LINE
  5
   829
  8
0
  6
CONTINUOUS
 62
     7
 10
-648.301105681534
 20
6.87178546615346
 30
0.0
 11
-659.051105681534
 21
6.87178546615346
 31
0.0
  0
LINE
  5
   82A
  8
0
  6
CONTINUOUS
 62
     7
 10
-648.301105681534
 20
9.34484605412531
 30
0.0
 11
-659.051105681534
 21
9.34484605412531
 31
0.0
  0
LINE
  5
   82B
  8
0
  6
CONTINUOUS
 62
     7
 10
-628.176136265657
 20
65.2821350097656
 30
0.0
 11
-679.176136265659
 21
65.2821350097656
 31
0.0
  0
LINE
  5
   82C
  8
0
  6
CONTINUOUS
 62
     7
 10
-679.176134236326
 20
57.6571311950664
 30
0.0
 11
-679.176136265659
 21
65.2821350097656
 31
0.0
  0
LINE
  5
   82D
  8
0
  6
CONTINUOUS
 62
     7
 10
-628.176134236324
 20
57.6571311950664
 30
0.0
 11
-628.176136265657
 21
65.2821350097656
 31
0.0
  0
LINE
  5
   82E
  8
0
  6
CONTINUOUS
 62
     7
 10
-679.426105711337
 20
24.1571426391602
 30
0.0
 11
-679.92610568152
 21
24.1571426391602
 31
0.0
  0
LINE
  5
   82F
  8
0
  6
CONTINUOUS
 62
     7
 10
-679.426105711337
 20
23.6571426391601
 30
0.0
 11
-679.926105681532
 21
23.6571426391601
 31
0.0
  0
LINE
  5
   830
  8
0
  6
CONTINUOUS
 62
     7
 10
-679.426105711337
 20
17.6571426391602
 30
0.0
 11
-679.926105681532
 21
17.6571426391602
 31
0.0
  0
LINE
  5
   831
  8
0
  6
CONTINUOUS
 62
     7
 10
-679.426105711337
 20
17.1571426391602
 30
0.0
 11
-679.926105681546
 21
17.1571426391602
 31
0.0
  0
LINE
  5
   832
  8
0
  6
CONTINUOUS
 62
     7
 10
-679.426105711337
 20
7.40714263915909
 30
0.0
 11
-679.926105681546
 21
7.40714263915909
 31
0.0
  0
LINE
  5
   833
  8
0
  6
CONTINUOUS
 62
     7
 10
-679.426105711337
 20
6.90714263915913
 30
0.0
 11
-679.926105681537
 21
6.90714263915913
 31
0.0
  0
LINE
  5
   834
  8
0
  6
CONTINUOUS
 62
     7
 10
-679.426105711337
 20
0.907142639160149
 30
0.0
 11
-679.926105681537
 21
0.907142639160149
 31
0.0
  0
LINE
  5
   835
  8
0
  6
CONTINUOUS
 62
     7
 10
-679.426105711337
 20
0.407142639160149
 30
0.0
 11
-679.926105681534
 21
0.407142639160149
 31
0.0
  0
LINE
  5
   836
  8
0
  6
CONTINUOUS
 62
     7
 10
-627.926113310929
 20
0.907142639160149
 30
0.0
 11
-679.426105711337
 21
0.907142639160149
 31
0.0
  0
LINE
  5
   837
  8
0
  6
CONTINUOUS
 62
     7
 10
-627.926113310929
 20
0.407142639160149
 30
0.0
 11
-679.426105711337
 21
0.407142639160149
 31
0.0
  0
LINE
  5
   838
  8
0
  6
CONTINUOUS
 62
     7
 10
-627.926113310929
 20
7.40715789794815
 30
0.0
 11
-648.301107173913
 21
7.40715789794815
 31
0.0
  0
LINE
  5
   839
  8
0
  6
CONTINUOUS
 62
     7
 10
-627.926113310929
 20
6.90715789794819
 30
0.0
 11
-648.301107357108
 21
6.90715789794819
 31
0.0
  0
LINE
  5
   83A
  8
0
  6
CONTINUOUS
 62
     7
 10
-627.926113310929
 20
17.6571426391602
 30
0.0
 11
-648.301105681534
 21
17.6571426391602
 31
0.0
  0
LINE
  5
   83B
  8
0
  6
CONTINUOUS
 62
     7
 10
-627.926113310929
 20
17.1571426391602
 30
0.0
 11
-648.301105681534
 21
17.1571426391602
 31
0.0
  0
LINE
  5
   83C
  8
0
  6
CONTINUOUS
 62
     7
 10
-627.926113310929
 20
24.1571426391602
 30
0.0
 11
-679.426105711337
 21
24.1571426391602
 31
0.0
  0
LINE
  5
   83D
  8
0
  6
CONTINUOUS
 62
     7
 10
-627.926113310929
 20
23.6571426391601
 30
0.0
 11
-679.426105711337
 21
23.6571426391601
 31
0.0
  0
LINE
  5
   83E
  8
0
  6
CONTINUOUS
 62
     7
 10
-678.676118894989
 20
78.6321182250976
 30
0.0
 11
-678.676119479364
 21
79.532111147647
 31
0.0
  0
LINE
  5
   83F
  8
0
  6
CONTINUOUS
 62
     7
 10
-628.676154996598
 20
78.6321258544922
 30
0.0
 11
-628.676156165351
 21
79.5321216989726
 31
0.0
  0
LINE
  5
   840
  8
0
  6
CONTINUOUS
 62
     7
 10
-661.176105681534
 20
76.7820892333984
 30
0.0
 11
-663.676105681534
 21
76.7820892333984
 31
0.0
  0
LINE
  5
   841
  8
0
  6
CONTINUOUS
 62
     7
 10
-663.676105681534
 20
76.7820892333984
 30
0.0
 11
-663.676105681534
 21
78.5320893526077
 31
0.0
  0
LINE
  5
   842
  8
0
  6
CONTINUOUS
 62
     7
 10
-663.301105681534
 20
78.5320892333984
 30
0.0
 11
-663.676105681534
 21
78.5320892333984
 31
0.0
  0
LINE
  5
   843
  8
0
  6
CONTINUOUS
 62
     7
 10
-663.301105681534
 20
78.5320892333982
 30
0.0
 11
-663.301105681534
 21
80.0320892333982
 31
0.0
  0
LINE
  5
   844
  8
0
  6
CONTINUOUS
 62
     7
 10
-661.551105681534
 20
78.5320892333982
 30
0.0
 11
-661.551105681534
 21
80.0320892333982
 31
0.0
  0
LINE
  5
   845
  8
0
  6
CONTINUOUS
 62
     7
 10
-661.176105681534
 20
78.5320892333984
 30
0.0
 11
-661.551105681534
 21
78.5320892333984
 31
0.0
  0
LINE
  5
   846
  8
0
  6
CONTINUOUS
 62
     7
 10
-661.176105681534
 20
76.7820892333984
 30
0.0
 11
-661.176105681534
 21
78.5320892333984
 31
0.0
  0
LINE
  5
   847
  8
0
  6
CONTINUOUS
 62
     7
 10
-645.801105681534
 20
78.5320892333982
 30
0.0
 11
-645.801105681534
 21
80.0320892333982
 31
0.0
  0
LINE
  5
   848
  8
0
  6
CONTINUOUS
 62
     7
 10
-645.801105681534
 20
78.5320892333984
 30
0.0
 11
-646.176105681534
 21
78.5320892333984
 31
0.0
  0
LINE
  5
   849
  8
0
  6
CONTINUOUS
 62
     7
 10
-646.176105681534
 20
76.7820892333984
 30
0.0
 11
-646.176105681534
 21
78.5320893526077
 31
0.0
  0
LINE
  5
   84A
  8
0
  6
CONTINUOUS
 62
     7
 10
-643.676105681534
 20
76.7820892333984
 30
0.0
 11
-646.176105681534
 21
76.7820892333984
 31
0.0
  0
LINE
  5
   84B
  8
0
  6
CONTINUOUS
 62
     7
 10
-643.676105681534
 20
76.7820892333984
 30
0.0
 11
-643.676105681534
 21
78.5320892333984
 31
0.0
  0
LINE
  5
   84C
  8
0
  6
CONTINUOUS
 62
     7
 10
-643.676105681534
 20
78.5320892333984
 30
0.0
 11
-644.051105681534
 21
78.5320892333984
 31
0.0
  0
LINE
  5
   84D
  8
0
  6
CONTINUOUS
 62
     7
 10
-644.051105681534
 20
78.5320892333982
 30
0.0
 11
-644.051105681534
 21
80.0320892333982
 31
0.0
  0
LINE
  5
   84E
  8
0
  6
DASHDOT
 62
     7
 10
-609.977406580637
 20
17.4071502685547
 30
0.0
 11
-697.250559178466
 21
17.4071502685547
 31
0.0
  0
LINE
  5
   84F
  8
0
  6
DASHDOT
 62
     7
 10
-715.849755633741
 20
17.4071502685547
 30
0.0
 11
-722.574080506033
 21
17.4071502685547
 31
0.0
  0
INSERT
  5
   850
  8
255
  6
CONTINUOUS
 62
     1
  2
COPRITERM_PIANTA
 10
-653.676105455644
 20
-34.9678479004085
 30
0.0
 41
0.5
 42
-0.5
 50
1.03931199646468E-7
 43
0.5
  0
LINE
  5
   851
  8
0
  6
CONTINUOUS
 62
     1
 10
-676.676106308403
 20
-58.4678981998736
 30
0.0
 11
-676.676106308403
 21
-46.6678517707533
 31
0.0
  0
LINE
  5
   852
  8
0
  6
CONTINUOUS
 62
     1
 10
-665.676106308403
 20
-58.4678981998736
 30
0.0
 11
-676.676106308403
 21
-58.4678981998736
 31
0.0
  0
ARC
  5
   853
  8
0
  6
CONTINUOUS
 62
     1
 10
-671.176106308403
 20
-48.7178981998736
 30
0.0
 40
4.0
 50
154.05474810364
 51
359.188965625771
  0
LINE
  5
   854
  8
0
  6
DOT
 62
     1
 10
-675.176106308403
 20
-58.4678981998736
 30
0.0
 11
-675.176106308403
 21
-48.7178981998736
 31
0.0
  0
LINE
  5
   855
  8
0
  6
DOT
 62
     1
 10
-667.176106308403
 20
-58.4678981998736
 30
0.0
 11
-667.176106308403
 21
-48.7178981998736
 31
0.0
  0
LINE
  5
   856
  8
0
  6
DOT
 62
     1
 10
-667.801106308403
 20
-58.4678981998736
 30
0.0
 11
-667.801106308403
 21
-50.8648437045383
 31
0.0
  0
LINE
  5
   857
  8
0
  6
DOT
 62
     1
 10
-674.551106308403
 20
-58.4678981998736
 30
0.0
 11
-674.551106308403
 21
-50.8648437045383
 31
0.0
  0
POINT
  5
   858
  8
0
  6
CONTINUOUS
 62
     1
 10
-625.884733529971
 20
54.4868110484772
 30
0.0
  0
CIRCLE
  5
   859
  8
0
  6
CONTINUOUS
 62
     1
 10
-625.884733529971
 20
54.4868110484772
 30
0.0
 40
0.1
  0
TEXT
  5
   85A
  8
0
  6
CONTINUOUS
 62
     7
 10
-611.030632020039
 20
-3.25862485306222
 30
0.0
 40
3.00000002980232
  1
=
 50
89.9999999480344
 41
0.916666604744064
 72
     2
 11
-611.030632018047
 21
-1.05862498419243
 31
0.0
  0
TEXT
  5
   85B
  8
0
  6
CONTINUOUS
 62
     7
 10
-611.485923768086
 20
33.9234010563616
 30
0.0
 40
3.00000002980232
  1
=
 50
89.9999999480344
 41
0.916666604744064
 72
     2
 11
-611.485923766094
 21
36.1234009252314
 31
0.0
  0
INSERT
  5
   85C
  8
0
  6
CONTINUOUS
 62
     7
  2
*UDIM1484
 10
0.0
 20
0.0
 30
0.0
  0
INSERT
  5
   85D
  8
0
  6
CONTINUOUS
 62
     7
  2
*UDIM1485
 10
0.0
 20
0.0
 30
0.0
  0
TEXT
  5
   85E
  8
0
  6
CONTINUOUS
 62
     1
 10
-654.844455475966
 20
-78.0594481690716
 30
0.0
 40
3.00000002980232
  1
Y
 50
359.999999948034
 41
0.916666604744064
 72
     2
 11
-652.644455607096
 21
-78.0594481710559
 31
0.0
  0
INSERT
  5
   85F
  8
0
  6
CONTINUOUS
 62
     1
  2
*UDIM1486
 10
0.0
 20
0.0
 30
0.0
  0
INSERT
  5
   860
  8
0
  6
CONTINUOUS
 62
     7
  2
*UDIM1487
 10
0.0
 20
0.0
 30
0.0
  0
INSERT
  5
   861
  8
0
  6
CONTINUOUS
 62
     7
  2
*UDIM1488
 10
0.0
 20
0.0
 30
0.0
  0
INSERT
  5
   862
  8
0
  6
CONTINUOUS
 62
     5
  2
*UDIM1489
 10
0.0
 20
0.0
 30
0.0
  0
TEXT
  5
   863
  8
0
  6
CONTINUOUS
 62
     7
 10
-602.996299655598
 20
15.5959284372107
 30
0.0
 40
3.00000002980232
  1
X
 50
359.999999948034
 41
0.916666604744064
 72
     1
 11
-601.89629971981
 21
17.0959284511197
 31
0.0
 73
     2
  0
TEXT
  5
   864
  8
0
  6
CONTINUOUS
 62
     7
 10
-725.388336093587
 20
15.5811159677283
 30
0.0
 40
3.00000002980232
  1
X
 50
359.999999948034
 41
0.916666604744064
 72
     1
 11
-724.288336157799
 21
17.0811159816373
 31
0.0
 73
     2
  0
TEXT
  5
   865
  8
0
  6
CONTINUOUS
 62
     7
 10
-654.695476443928
 20
108.930404908158
 30
0.0
 40
3.00000002980232
  1
Y
 50
359.999999948034
 41
0.916666604744064
 72
     1
 11
-653.595476508141
 21
110.430404922067
 31
0.0
 73
     2
  0
INSERT
  5
   866
  8
0
  6
CONTINUOUS
 62
     7
  2
*UDIM1490
 10
0.0
 20
0.0
 30
0.0
  0
INSERT
  5
   867
  8
0
  6
CONTINUOUS
 62
     7
  2
*UDIM1491
 10
0.0
 20
0.0
 30
0.0
  0
INSERT
  5
   868
  8
255
  6
CONTINUOUS
 62
     7
  2
MOSTRINA
 10
-711.095279049711
 20
-37.5831794738789
 30
0.0
 41
0.5
 42
0.5
 50
3.50835464724173E-15
 43
0.5
  0
LINE
  5
   869
  8
0
  6
CONTINUOUS
 62
     7
 10
-418.345916748047
 20
27.7306518554688
 30
0.0
 11
-390.345916748047
 21
27.7306518554688
 31
0.0
  0
LINE
  5
   86A
  8
0
  6
CONTINUOUS
 62
     7
 10
-418.345916748047
 20
55.7306518554688
 30
0.0
 11
-390.345916748047
 21
55.7306518554688
 31
0.0
  0
LINE
  5
   86B
  8
0
  6
CONTINUOUS
 62
     7
 10
-418.345916748047
 20
55.7306518554688
 30
0.0
 11
-418.345916748047
 21
27.7306518554688
 31
0.0
  0
LINE
  5
   86C
  8
0
  6
CONTINUOUS
 62
     7
 10
-390.345916748047
 20
55.7306518554688
 30
0.0
 11
-390.345916748047
 21
27.7306518554688
 31
0.0
  0
CIRCLE
  5
   86D
  8
0
  6
CONTINUOUS
 62
     7
 10
-414.345916748047
 20
59.4806518554688
 30
0.0
 40
0.875
  0
CIRCLE
  5
   86E
  8
0
  6
CONTINUOUS
 62
     7
 10
-394.345916748047
 20
59.4806518554688
 30
0.0
 40
0.875
  0
CIRCLE
  5
   86F
  8
0
  6
CONTINUOUS
 62
     7
 10
-414.345916748047
 20
23.9806518554688
 30
0.0
 40
0.875
  0
CIRCLE
  5
   870
  8
0
  6
CONTINUOUS
 62
     7
 10
-394.345916748047
 20
23.9806518554688
 30
0.0
 40
0.875
  0
LINE
  5
   871
  8
0
  6
DASHDOT
 62
     7
 10
-414.345916748047
 20
61.1056518554688
 30
0.0
 11
-414.345916748047
 21
57.8556518554688
 31
0.0
  0
LINE
  5
   872
  8
0
  6
DASHDOT
 62
     7
 10
-415.970916748047
 20
59.4806518554688
 30
0.0
 11
-412.720916748047
 21
59.4806518554688
 31
0.0
  0
LINE
  5
   873
  8
0
  6
DASHDOT
 62
     7
 10
-394.345916748047
 20
61.1056518554688
 30
0.0
 11
-394.345916748047
 21
57.8556518554688
 31
0.0
  0
LINE
  5
   874
  8
0
  6
DASHDOT
 62
     7
 10
-395.970916748047
 20
59.4806518554688
 30
0.0
 11
-392.720916748047
 21
59.4806518554688
 31
0.0
  0
LINE
  5
   875
  8
0
  6
DASHDOT
 62
     7
 10
-394.345916748047
 20
25.6056518554688
 30
0.0
 11
-394.345916748047
 21
22.3556518554688
 31
0.0
  0
LINE
  5
   876
  8
0
  6
DASHDOT
 62
     7
 10
-395.970916748047
 20
23.9806518554688
 30
0.0
 11
-392.720916748047
 21
23.9806518554688
 31
0.0
  0
LINE
  5
   877
  8
0
  6
DASHDOT
 62
     7
 10
-414.345916748047
 20
25.6056518554688
 30
0.0
 11
-414.345916748047
 21
22.3556518554688
 31
0.0
  0
LINE
  5
   878
  8
0
  6
DASHDOT
 62
     7
 10
-415.970916748047
 20
23.9806518554688
 30
0.0
 11
-412.720916748047
 21
23.9806518554688
 31
0.0
  0
LINE
  5
   879
  8
0
  6
DASHDOT
 62
     7
 10
-404.345916748047
 20
69.1007641408058
 30
0.0
 11
-404.345916748047
 21
12.6074010106477
 31
0.0
  0
LINE
  5
   87A
  8
0
  6
CONTINUOUS
 62
     7
 10
-421.166493291713
 20
62.1318375106748
 30
0.0
 11
-387.211933068405
 21
62.1318375106748
 31
0.0
  0
LINE
  5
   87B
  8
0
  6
CONTINUOUS
 62
     7
 10
-421.166493291713
 20
20.5667724097295
 30
0.0
 11
-387.211933068405
 21
20.5667724097295
 31
0.0
  0
LINE
  5
   87C
  8
0
  6
CONTINUOUS
 62
     7
 10
-387.211933068405
 20
62.1318375106748
 30
0.0
 11
-387.211933068405
 21
20.5667724097295
 31
0.0
  0
LINE
  5
   87D
  8
0
  6
CONTINUOUS
 62
     7
 10
-421.166493291713
 20
62.1318375106748
 30
0.0
 11
-421.166493291713
 21
20.5667724097295
 31
0.0
  0
CIRCLE
  5
   87E
  8
0
  6
CONTINUOUS
 62
     7
 10
-419.29313824491
 20
60.3170248090842
 30
0.0
 40
0.0625
  0
LINE
  5
   87F
  8
0
  6
DASHDOT
 62
     7
 10
-427.596245510102
 20
41.7306518554688
 30
0.0
 11
-378.379910274605
 21
41.7306518554688
 31
0.0
  0
TEXT
  5
   880
  8
0
  6
CONTINUOUS
 62
     7
 10
-438.898835243322
 20
30.803072437053
 30
0.0
 40
3.00000002980232
  1
=      =
 50
449.999999844103
 41
0.916666604744064
 72
     2
 11
-438.898835185093
 21
52.2530711967797
 31
0.0
  0
TEXT
  5
   881
  8
0
  6
CONTINUOUS
 62
     7
 10
-430.028448995726
 20
31.6931527305693
 30
0.0
 40
3.00000002980232
  1
=     =
 50
449.999999844103
 41
0.916666604744064
 72
     2
 11
-430.028448944962
 21
50.393151648745
 31
0.0
  0
INSERT
  5
   882
  8
0
  6
CONTINUOUS
 62
     7
  2
*UDIM1492
 10
0.0
 20
0.0
 30
0.0
  0
TEXT
  5
   883
  8
0
  6
CONTINUOUS
 62
     7
 10
-411.246458741131
 20
74.9549977217458
 30
0.0
 40
3.00000002980232
  1
=   =
 50
359.999999844103
 41
0.916666604744064
 72
     2
 11
-398.046459506058
 21
74.9549976858961
 31
0.0
  0
TEXT
  5
   884
  8
0
  6
CONTINUOUS
 62
     7
 10
-411.305000992718
 20
68.3982560072683
 30
0.0
 40
3.00000002980232
  1
=   =
 50
359.999999844103
 41
0.916666604744064
 72
     2
 11
-398.105001757644
 21
68.3982559714186
 31
0.0
  0
INSERT
  5
   885
  8
0
  6
CONTINUOUS
 62
     7
  2
*UDIM1493
 10
0.0
 20
0.0
 30
0.0
  0
INSERT
  5
   886
  8
0
  6
CONTINUOUS
 62
     7
  2
*UDIM1494
 10
0.0
 20
0.0
 30
0.0
  0
INSERT
  5
   887
  8
0
  6
CONTINUOUS
 62
     7
  2
*UDIM1495
 10
0.0
 20
0.0
 30
0.0
  0
INSERT
  5
   888
  8
0
  6
CONTINUOUS
 62
     7
  2
*UDIM1496
 10
0.0
 20
0.0
 30
0.0
  0
TEXT
  5
   889
  8
0
  6
CONTINUOUS
 62
     7
 10
-405.534196744465
 20
5.7555579447797
 30
0.0
 40
3.00000002980232
  1
Y
 50
359.999999844103
 41
0.916666604744064
 72
     2
 11
-403.334196875595
 21
5.75555793880475
 31
0.0
  0
TEXT
  5
   88A
  8
0
  6
CONTINUOUS
 62
     7
 10
-404.597519288563
 20
84.4950141215375
 30
0.0
 40
3.00000002980232
  1
Y
 50
359.999999844103
 41
0.916666604744064
 72
     2
 11
-402.397519419693
 21
84.4950141155626
 31
0.0
  0
TEXT
  5
   88B
  8
0
  6
CONTINUOUS
 62
     7
 10
-376.694717298054
 20
39.783633401399
 30
0.0
 40
3.00000002980232
  1
X
 50
359.999999844103
 41
0.916666604744064
 72
     2
 11
-374.494717429184
 21
39.783633395424
 31
0.0
  0
TEXT
  5
   88C
  8
0
  6
CONTINUOUS
 62
     7
 10
-451.520713696979
 20
40.4989871287397
 30
0.0
 40
3.00000002980232
  1
X
 50
359.999999844103
 41
0.916666604744064
 72
     2
 11
-449.32071382811
 21
40.4989871227647
 31
0.0
  0
LINE
  5
   88D
  8
0
  6
DASHDOT
 62
     3
 10
-636.207885742188
 20
-86.1533569922261
 30
0.0
 11
-636.207885742188
 21
-148.872408792071
 31
0.0
  0
LINE
  5
   88E
  8
0
  6
DASHDOT
 62
     3
 10
-626.653855524846
 20
-95.0452206283808
 30
0.0
 11
-646.08922061138
 21
-95.0452206283808
 31
0.0
  0
LINE
  5
   88F
  8
0
  6
DASHDOT
 62
     3
 10
-626.254379745587
 20
-137.84522126615
 30
0.0
 11
-645.411848637855
 21
-137.84522126615
 31
0.0
  0
CIRCLE
  5
   890
  8
0
  6
CONTINUOUS
 62
     7
 10
-639.707885794342
 20
-95.0452206283808
 30
0.0
 40
0.550000008195639
  0
CIRCLE
  5
   891
  8
0
  6
CONTINUOUS
 62
     7
 10
-632.707885690033
 20
-95.0452206283808
 30
0.0
 40
0.550000008195639
  0
CIRCLE
  5
   892
  8
0
  6
CONTINUOUS
 62
     7
 10
-639.707885794342
 20
-137.84522126615
 30
0.0
 40
0.550000008195639
  0
CIRCLE
  5
   893
  8
0
  6
CONTINUOUS
 62
     7
 10
-632.707885690033
 20
-137.84522126615
 30
0.0
 40
0.550000008195639
  0
LINE
  5
   894
  8
0
  6
DASHDOT
 62
     3
 10
-639.707885794342
 20
-89.5935032593908
 30
0.0
 11
-639.707885794342
 21
-140.326440382175
 31
0.0
  0
LINE
  5
   895
  8
0
  6
DASHDOT
 62
     3
 10
-632.707885690033
 20
-89.5935032593908
 30
0.0
 11
-632.707885690033
 21
-140.108471425599
 31
0.0
  0
LINE
  5
   896
  8
0
  6
DASHDOT
 62
     3
 10
-619.676453184653
 20
-116.09522094205
 30
0.0
 11
-652.495998792563
 21
-116.09522094205
 31
0.0
  0
ARC
  5
   897
  8
0
  6
CONTINUOUS
 62
     1
 10
-643.207885846496
 20
-90.4452205598354
 30
0.0
 40
3.00000004470348
 50
449.999999896069
 51
629.999999896069
  0
ARC
  5
   898
  8
0
  6
CONTINUOUS
 62
     1
 10
-629.207885637879
 20
-90.4452205598354
 30
0.0
 40
3.00000004470348
 50
269.999999896069
 51
449.999999896069
  0
ARC
  5
   899
  8
0
  6
CONTINUOUS
 62
     1
 10
-629.207885637879
 20
-142.445221334696
 30
0.0
 40
3.00000004470348
 50
269.999999896069
 51
449.999999896069
  0
ARC
  5
   89A
  8
0
  6
CONTINUOUS
 62
     1
 10
-643.207885846496
 20
-142.445221334696
 30
0.0
 40
3.00000004470348
 50
449.999999896069
 51
629.999999896069
  0
LINE
  5
   89B
  8
0
  6
CONTINUOUS
 62
     1
 10
-629.207885637879
 20
-87.445220515132
 30
0.0
 11
-643.207885846496
 21
-87.445220515132
 31
0.0
  0
LINE
  5
   89C
  8
0
  6
CONTINUOUS
 62
     1
 10
-629.207885637879
 20
-93.4452206045389
 30
0.0
 11
-643.207885846496
 21
-93.4452206045389
 31
0.0
  0
LINE
  5
   89D
  8
0
  6
CONTINUOUS
 62
     1
 10
-629.207885637879
 20
-139.445221289992
 30
0.0
 11
-643.207885846496
 21
-139.445221289992
 31
0.0
  0
LINE
  5
   89E
  8
0
  6
CONTINUOUS
 62
     1
 10
-629.207885637879
 20
-145.445221379399
 30
0.0
 11
-643.207885846496
 21
-145.445221379399
 31
0.0
  0
LINE
  5
   89F
  8
0
  6
CONTINUOUS
 62
     7
 10
-622.207885533571
 20
-84.7629108715644
 30
0.0
 11
-650.207885950804
 21
-84.7629108715644
 31
0.0
  0
LINE
  5
   8A0
  8
0
  6
CONTINUOUS
 62
     7
 10
-622.207885533571
 20
-148.127526941717
 30
0.0
 11
-650.207885950804
 21
-148.127526941717
 31
0.0
  0
LINE
  5
   8A1
  8
0
  6
CONTINUOUS
 62
     7
 10
-650.207885950804
 20
-84.7629108715644
 30
0.0
 11
-650.207885950804
 21
-148.127526941717
 31
0.0
  0
LINE
  5
   8A2
  8
0
  6
CONTINUOUS
 62
     7
 10
-622.207885533571
 20
-84.7629108715644
 30
0.0
 11
-622.207885533571
 21
-148.127526941717
 31
0.0
  0
LINE
  5
   8A3
  8
0
  6
DASHDOT
 62
     1
 10
-629.207885637879
 20
-86.8452205061913
 30
0.0
 11
-629.207885637879
 21
-94.0452206134796
 31
0.0
  0
LINE
  5
   8A4
  8
0
  6
DASHDOT
 62
     1
 10
-625.607885584235
 20
-90.4452205598354
 30
0.0
 11
-632.807885691524
 21
-90.4452205598354
 31
0.0
  0
LINE
  5
   8A5
  8
0
  6
DASHDOT
 62
     1
 10
-643.207885846496
 20
-86.8452205061913
 30
0.0
 11
-643.207885846496
 21
-94.0452206134796
 31
0.0
  0
LINE
  5
   8A6
  8
0
  6
DASHDOT
 62
     1
 10
-639.607885792852
 20
-90.4452205598354
 30
0.0
 11
-646.80788590014
 21
-90.4452205598354
 31
0.0
  0
LINE
  5
   8A7
  8
0
  6
DASHDOT
 62
     1
 10
-643.207885846496
 20
-138.845221281052
 30
0.0
 11
-643.207885846496
 21
-146.04522138834
 31
0.0
  0
LINE
  5
   8A8
  8
0
  6
DASHDOT
 62
     1
 10
-639.607885792852
 20
-142.445221334696
 30
0.0
 11
-646.80788590014
 21
-142.445221334696
 31
0.0
  0
LINE
  5
   8A9
  8
0
  6
DASHDOT
 62
     1
 10
-629.207885637879
 20
-138.845221281052
 30
0.0
 11
-629.207885637879
 21
-146.04522138834
 31
0.0
  0
LINE
  5
   8AA
  8
0
  6
DASHDOT
 62
     1
 10
-625.607885584235
 20
-142.445221334696
 30
0.0
 11
-632.807885691524
 21
-142.445221334696
 31
0.0
  0
CIRCLE
  5
   8AB
  8
0
  6
CONTINUOUS
 62
     1
 10
-626.971380720417
 20
-124.09267257028
 30
0.0
 40
6.00000008940697E-2
  0
INSERT
  5
   8AC
  8
0
  6
CONTINUOUS
 62
     1
  2
*UDIM1497
 10
0.0
 20
0.0
 30
0.0
  0
INSERT
  5
   8AD
  8
0
  6
CONTINUOUS
 62
     7
  2
*UDIM1498
 10
0.0
 20
0.0
 30
0.0
  0
INSERT
  5
   8AE
  8
0
  6
CONTINUOUS
 62
     7
  2
*UDIM1499
 10
0.0
 20
0.0
 30
0.0
  0
INSERT
  5
   8AF
  8
0
  6
CONTINUOUS
 62
     1
  2
*UDIM1500
 10
0.0
 20
0.0
 30
0.0
  0
INSERT
  5
   8B0
  8
0
  6
CONTINUOUS
 62
     1
  2
*UDIM1501
 10
0.0
 20
0.0
 30
0.0
  0
TEXT
  5
   8B1
  8
0
  6
CONTINUOUS
 62
     7
 10
-637.02122168013
 20
-81.9820174915132
 30
0.0
 40
2.99999994933605
  1
Y
 50
359.999999896069
 41
0.916666607525612
 72
     2
 11
-634.821221861924
 21
-81.9820174954928
 31
0.0
  0
TEXT
  5
   8B2
  8
0
  6
CONTINUOUS
 62
     7
 10
-662.27878151913
 20
-117.309890853333
 30
0.0
 40
2.99999994933605
  1
X
 50
359.999999896069
 41
0.916666607525612
 72
     2
 11
-660.078781700924
 21
-117.309890857312
 31
0.0
  0
TEXT
  5
   8B3
  8
0
  6
CONTINUOUS
 62
     7
 10
-612.123402048612
 20
-117.607843700485
 30
0.0
 40
2.99999994933605
  1
X
 50
359.999999896069
 41
0.916666607525612
 72
     2
 11
-609.923402230406
 21
-117.607843704464
 31
0.0
  0
TEXT
  5
   8B4
  8
0
  6
CONTINUOUS
 62
     7
 10
-637.151432721699
 20
-157.632828275175
 30
0.0
 40
2.99999994933605
  1
Y
 50
359.999999896069
 41
0.916666607525612
 72
     2
 11
-634.951432903493
 21
-157.632828279155
 31
0.0
  0
ENDSEC
  0
EOF
