ISO-10303-21;
HEADER;
FILE_DESCRIPTION(('CATIA V5 STEP'),'2;1');

FILE_NAME('C:\\Users\\ITLUGRI2\\Desktop\\Modelli semplificati Emax\\E1.2\\1SDH001336R0070_E1.2_IV_W_REAR_SEGREGATION_SHR_UL.stp','2014-09-20T09:14:49+00:00',('none'),('none'),'CATIA Version 5 Release 20 SP 6 (IN-10)','CATIA V5 STEP AP214','none');

FILE_SCHEMA(('AUTOMOTIVE_DESIGN { 1 0 10303 214 1 1 1 1 }'));

ENDSEC;
/* file written by CATIA V5R20 */
DATA;
#5=PRODUCT('E1.2_IV_W_REAR_SEGREGATION_SHR','','',(#2)) ;
#2=PRODUCT_CONTEXT(' ',#1,'mechanical') ;
#1=APPLICATION_CONTEXT('automotive design') ;
#10=PRODUCT_DEFINITION('',' ',#6,#3) ;
#3=PRODUCT_DEFINITION_CONTEXT('part definition',#1,' ') ;
#11=PRODUCT_DEFINITION_SHAPE(' ',' ',#10) ;
#318=MECHANICAL_DESIGN_GEOMETRIC_PRESENTATION_REPRESENTATION(' ',(#30),#17) ;
#20=SHAPE_REPRESENTATION(' ',(#19),#17) ;
#19=AXIS2_PLACEMENT_3D(' ',#18,$,$) ;
#35=AXIS2_PLACEMENT_3D('Plane Axis2P3D',#32,#33,#34) ;
#75=AXIS2_PLACEMENT_3D('Plane Axis2P3D',#72,#73,#74) ;
#106=AXIS2_PLACEMENT_3D('Plane Axis2P3D',#103,#104,#105) ;
#137=AXIS2_PLACEMENT_3D('Plane Axis2P3D',#134,#135,#136) ;
#159=AXIS2_PLACEMENT_3D('Plane Axis2P3D',#156,#157,#158) ;
#199=AXIS2_PLACEMENT_3D('Plane Axis2P3D',#196,#197,#198) ;
#230=AXIS2_PLACEMENT_3D('Plane Axis2P3D',#227,#228,#229) ;
#261=AXIS2_PLACEMENT_3D('Plane Axis2P3D',#258,#259,#260) ;
#283=AXIS2_PLACEMENT_3D('Plane Axis2P3D',#280,#281,#282) ;
#301=AXIS2_PLACEMENT_3D('Plane Axis2P3D',#298,#299,#300) ;
#18=CARTESIAN_POINT(' ',(0.,0.,0.)) ;
#32=CARTESIAN_POINT('Axis2P3D Location',(-241.,-82.0002485352,310.000248535)) ;
#37=CARTESIAN_POINT('Line Origine',(-241.,-83.5002485352,310.000248535)) ;
#41=CARTESIAN_POINT('Vertex',(-241.,-82.0002485352,310.000248535)) ;
#43=CARTESIAN_POINT('Vertex',(-241.,-85.0002485352,310.000248535)) ;
#46=CARTESIAN_POINT('Line Origine',(-241.,-82.0002485352,135.000248535)) ;
#50=CARTESIAN_POINT('Vertex',(-241.,-82.0002485352,-39.9997514648)) ;
#53=CARTESIAN_POINT('Line Origine',(-241.,-83.5002485352,-39.9997514648)) ;
#57=CARTESIAN_POINT('Vertex',(-241.,-85.0002485352,-39.9997514648)) ;
#60=CARTESIAN_POINT('Line Origine',(-241.,-85.0002485352,135.000248535)) ;
#72=CARTESIAN_POINT('Axis2P3D Location',(311.,-82.0002485352,-39.9997514648)) ;
#77=CARTESIAN_POINT('Line Origine',(35.,-82.0002485352,-39.9997514648)) ;
#81=CARTESIAN_POINT('Vertex',(311.,-82.0002485352,-39.9997514648)) ;
#84=CARTESIAN_POINT('Line Origine',(311.,-83.5002485352,-39.9997514648)) ;
#88=CARTESIAN_POINT('Vertex',(311.,-85.0002485352,-39.9997514648)) ;
#91=CARTESIAN_POINT('Line Origine',(35.,-85.0002485352,-39.9997514648)) ;
#103=CARTESIAN_POINT('Axis2P3D Location',(311.,-82.0002485352,-39.9997514648)) ;
#108=CARTESIAN_POINT('Line Origine',(311.,-82.0002485352,135.000248535)) ;
#112=CARTESIAN_POINT('Vertex',(311.,-82.0002485352,310.000248535)) ;
#115=CARTESIAN_POINT('Line Origine',(311.,-83.5002485352,310.000248535)) ;
#119=CARTESIAN_POINT('Vertex',(311.,-85.0002485352,310.000248535)) ;
#122=CARTESIAN_POINT('Line Origine',(311.,-85.0002485352,135.000248535)) ;
#134=CARTESIAN_POINT('Axis2P3D Location',(-241.,-82.0002485352,310.000248535)) ;
#139=CARTESIAN_POINT('Line Origine',(35.,-82.0002485352,310.000248535)) ;
#144=CARTESIAN_POINT('Line Origine',(35.,-85.0002485352,310.000248535)) ;
#156=CARTESIAN_POINT('Axis2P3D Location',(-141.,-82.0002485352,275.000248535)) ;
#161=CARTESIAN_POINT('Line Origine',(35.,-85.0002485352,275.000248535)) ;
#165=CARTESIAN_POINT('Vertex',(211.,-85.0002485352,275.000248535)) ;
#167=CARTESIAN_POINT('Vertex',(-141.,-85.0002485352,275.000248535)) ;
#170=CARTESIAN_POINT('Line Origine',(-141.,-83.5002485352,275.000248535)) ;
#174=CARTESIAN_POINT('Vertex',(-141.,-82.0002485352,275.000248535)) ;
#177=CARTESIAN_POINT('Line Origine',(35.,-82.0002485352,275.000248535)) ;
#181=CARTESIAN_POINT('Vertex',(211.,-82.0002485352,275.000248535)) ;
#184=CARTESIAN_POINT('Line Origine',(211.,-83.5002485352,275.000248535)) ;
#196=CARTESIAN_POINT('Axis2P3D Location',(211.,-82.0002485352,-4.99975146484)) ;
#201=CARTESIAN_POINT('Line Origine',(211.,-85.0002485352,135.000248535)) ;
#205=CARTESIAN_POINT('Vertex',(211.,-85.0002485352,-4.99975146484)) ;
#208=CARTESIAN_POINT('Line Origine',(211.,-82.0002485352,135.000248535)) ;
#212=CARTESIAN_POINT('Vertex',(211.,-82.0002485352,-4.99975146484)) ;
#215=CARTESIAN_POINT('Line Origine',(211.,-83.5002485352,-4.99975146484)) ;
#227=CARTESIAN_POINT('Axis2P3D Location',(211.,-82.0002485352,-4.99975146484)) ;
#232=CARTESIAN_POINT('Line Origine',(35.,-85.0002485352,-4.99975146484)) ;
#236=CARTESIAN_POINT('Vertex',(-141.,-85.0002485352,-4.99975146484)) ;
#239=CARTESIAN_POINT('Line Origine',(35.,-82.0002485352,-4.99975146484)) ;
#243=CARTESIAN_POINT('Vertex',(-141.,-82.0002485352,-4.99975146484)) ;
#246=CARTESIAN_POINT('Line Origine',(-141.,-83.5002485352,-4.99975146484)) ;
#258=CARTESIAN_POINT('Axis2P3D Location',(-141.,-82.0002485352,275.000248535)) ;
#263=CARTESIAN_POINT('Line Origine',(-141.,-85.0002485352,135.000248535)) ;
#268=CARTESIAN_POINT('Line Origine',(-141.,-82.0002485352,135.000248535)) ;
#280=CARTESIAN_POINT('Axis2P3D Location',(70.,-82.0002485352,135.000248535)) ;
#298=CARTESIAN_POINT('Axis2P3D Location',(70.,-85.0002485352,135.000248535)) ;
#33=DIRECTION('Axis2P3D Direction',(-1.,-0.,0.)) ;
#34=DIRECTION('Axis2P3D XDirection',(0.,-6.12323399574E-017,-1.)) ;
#38=DIRECTION('Vector Direction',(0.,-1.,0.)) ;
#47=DIRECTION('Vector Direction',(0.,-8.12048840869E-017,-1.)) ;
#54=DIRECTION('Vector Direction',(0.,-1.,0.)) ;
#61=DIRECTION('Vector Direction',(0.,-8.12048840869E-017,-1.)) ;
#73=DIRECTION('Axis2P3D Direction',(0.,6.12323399574E-017,1.)) ;
#74=DIRECTION('Axis2P3D XDirection',(-1.,0.,0.)) ;
#78=DIRECTION('Vector Direction',(-1.,0.,0.)) ;
#85=DIRECTION('Vector Direction',(0.,-1.,0.)) ;
#92=DIRECTION('Vector Direction',(-1.,0.,0.)) ;
#104=DIRECTION('Axis2P3D Direction',(1.,0.,-0.)) ;
#105=DIRECTION('Axis2P3D XDirection',(0.,6.12323399574E-017,1.)) ;
#109=DIRECTION('Vector Direction',(0.,8.12048840869E-017,1.)) ;
#116=DIRECTION('Vector Direction',(0.,-1.,0.)) ;
#123=DIRECTION('Vector Direction',(0.,8.12048840869E-017,1.)) ;
#135=DIRECTION('Axis2P3D Direction',(0.,-6.12323399574E-017,-1.)) ;
#136=DIRECTION('Axis2P3D XDirection',(1.,0.,0.)) ;
#140=DIRECTION('Vector Direction',(1.,0.,0.)) ;
#145=DIRECTION('Vector Direction',(1.,0.,0.)) ;
#157=DIRECTION('Axis2P3D Direction',(0.,-6.12323399574E-017,-1.)) ;
#158=DIRECTION('Axis2P3D XDirection',(1.,0.,0.)) ;
#162=DIRECTION('Vector Direction',(1.,0.,0.)) ;
#171=DIRECTION('Vector Direction',(0.,-1.,0.)) ;
#178=DIRECTION('Vector Direction',(1.,0.,0.)) ;
#185=DIRECTION('Vector Direction',(0.,-1.,0.)) ;
#197=DIRECTION('Axis2P3D Direction',(1.,0.,-0.)) ;
#198=DIRECTION('Axis2P3D XDirection',(0.,6.12323399574E-017,1.)) ;
#202=DIRECTION('Vector Direction',(0.,5.07530525543E-017,1.)) ;
#209=DIRECTION('Vector Direction',(0.,5.07530525543E-017,1.)) ;
#216=DIRECTION('Vector Direction',(0.,-1.,0.)) ;
#228=DIRECTION('Axis2P3D Direction',(0.,6.12323399574E-017,1.)) ;
#229=DIRECTION('Axis2P3D XDirection',(-1.,0.,0.)) ;
#233=DIRECTION('Vector Direction',(-1.,0.,0.)) ;
#240=DIRECTION('Vector Direction',(-1.,0.,0.)) ;
#247=DIRECTION('Vector Direction',(0.,-1.,0.)) ;
#259=DIRECTION('Axis2P3D Direction',(-1.,-0.,0.)) ;
#260=DIRECTION('Axis2P3D XDirection',(0.,-6.12323399574E-017,-1.)) ;
#264=DIRECTION('Vector Direction',(0.,-5.07530525543E-017,-1.)) ;
#269=DIRECTION('Vector Direction',(0.,-5.07530525543E-017,-1.)) ;
#281=DIRECTION('Axis2P3D Direction',(0.,-1.,6.12323399574E-017)) ;
#282=DIRECTION('Axis2P3D XDirection',(1.,0.,0.)) ;
#299=DIRECTION('Axis2P3D Direction',(0.,-1.,6.12323399574E-017)) ;
#300=DIRECTION('Axis2P3D XDirection',(1.,0.,0.)) ;
#8=PRODUCT_RELATED_PRODUCT_CATEGORY('part',$,(#5)) ;
#7=PRODUCT_CATEGORY('part','specification') ;
#30=STYLED_ITEM(' ',(#29),#22) ;
#29=PRESENTATION_STYLE_ASSIGNMENT((#28)) ;
#28=SURFACE_STYLE_USAGE(.BOTH.,#27) ;
#27=SURFACE_SIDE_STYLE(' ',(#26)) ;
#26=SURFACE_STYLE_FILL_AREA(#25) ;
#25=FILL_AREA_STYLE(' ',(#24)) ;
#24=FILL_AREA_STYLE_COLOUR(' ',#23) ;
#39=VECTOR('Line Direction',#38,1.) ;
#48=VECTOR('Line Direction',#47,1.) ;
#55=VECTOR('Line Direction',#54,1.) ;
#62=VECTOR('Line Direction',#61,1.) ;
#79=VECTOR('Line Direction',#78,1.) ;
#86=VECTOR('Line Direction',#85,1.) ;
#93=VECTOR('Line Direction',#92,1.) ;
#110=VECTOR('Line Direction',#109,1.) ;
#117=VECTOR('Line Direction',#116,1.) ;
#124=VECTOR('Line Direction',#123,1.) ;
#141=VECTOR('Line Direction',#140,1.) ;
#146=VECTOR('Line Direction',#145,1.) ;
#163=VECTOR('Line Direction',#162,1.) ;
#172=VECTOR('Line Direction',#171,1.) ;
#179=VECTOR('Line Direction',#178,1.) ;
#186=VECTOR('Line Direction',#185,1.) ;
#203=VECTOR('Line Direction',#202,1.) ;
#210=VECTOR('Line Direction',#209,1.) ;
#217=VECTOR('Line Direction',#216,1.) ;
#234=VECTOR('Line Direction',#233,1.) ;
#241=VECTOR('Line Direction',#240,1.) ;
#248=VECTOR('Line Direction',#247,1.) ;
#265=VECTOR('Line Direction',#264,1.) ;
#270=VECTOR('Line Direction',#269,1.) ;
#16=UNCERTAINTY_MEASURE_WITH_UNIT(LENGTH_MEASURE(0.005),#12,'distance_accuracy_value','CONFUSED CURVE UNCERTAINTY') ;
#317=SHAPE_REPRESENTATION_RELATIONSHIP(' ',' ',#20,#316) ;
#66=ORIENTED_EDGE('',*,*,#45,.F.) ;
#67=ORIENTED_EDGE('',*,*,#52,.T.) ;
#68=ORIENTED_EDGE('',*,*,#59,.T.) ;
#69=ORIENTED_EDGE('',*,*,#64,.F.) ;
#97=ORIENTED_EDGE('',*,*,#59,.F.) ;
#98=ORIENTED_EDGE('',*,*,#83,.T.) ;
#99=ORIENTED_EDGE('',*,*,#90,.T.) ;
#100=ORIENTED_EDGE('',*,*,#95,.F.) ;
#128=ORIENTED_EDGE('',*,*,#90,.F.) ;
#129=ORIENTED_EDGE('',*,*,#114,.T.) ;
#130=ORIENTED_EDGE('',*,*,#121,.T.) ;
#131=ORIENTED_EDGE('',*,*,#126,.F.) ;
#150=ORIENTED_EDGE('',*,*,#121,.F.) ;
#151=ORIENTED_EDGE('',*,*,#143,.T.) ;
#152=ORIENTED_EDGE('',*,*,#45,.T.) ;
#153=ORIENTED_EDGE('',*,*,#148,.F.) ;
#190=ORIENTED_EDGE('',*,*,#169,.T.) ;
#191=ORIENTED_EDGE('',*,*,#176,.F.) ;
#192=ORIENTED_EDGE('',*,*,#183,.F.) ;
#193=ORIENTED_EDGE('',*,*,#188,.T.) ;
#221=ORIENTED_EDGE('',*,*,#207,.T.) ;
#222=ORIENTED_EDGE('',*,*,#188,.F.) ;
#223=ORIENTED_EDGE('',*,*,#214,.F.) ;
#224=ORIENTED_EDGE('',*,*,#219,.T.) ;
#252=ORIENTED_EDGE('',*,*,#238,.T.) ;
#253=ORIENTED_EDGE('',*,*,#219,.F.) ;
#254=ORIENTED_EDGE('',*,*,#245,.F.) ;
#255=ORIENTED_EDGE('',*,*,#250,.T.) ;
#274=ORIENTED_EDGE('',*,*,#267,.T.) ;
#275=ORIENTED_EDGE('',*,*,#250,.F.) ;
#276=ORIENTED_EDGE('',*,*,#272,.F.) ;
#277=ORIENTED_EDGE('',*,*,#176,.T.) ;
#286=ORIENTED_EDGE('',*,*,#143,.F.) ;
#287=ORIENTED_EDGE('',*,*,#114,.F.) ;
#288=ORIENTED_EDGE('',*,*,#83,.F.) ;
#289=ORIENTED_EDGE('',*,*,#52,.F.) ;
#292=ORIENTED_EDGE('',*,*,#272,.T.) ;
#293=ORIENTED_EDGE('',*,*,#245,.T.) ;
#294=ORIENTED_EDGE('',*,*,#214,.T.) ;
#295=ORIENTED_EDGE('',*,*,#183,.T.) ;
#304=ORIENTED_EDGE('',*,*,#64,.T.) ;
#305=ORIENTED_EDGE('',*,*,#95,.T.) ;
#306=ORIENTED_EDGE('',*,*,#126,.T.) ;
#307=ORIENTED_EDGE('',*,*,#148,.T.) ;
#310=ORIENTED_EDGE('',*,*,#169,.F.) ;
#311=ORIENTED_EDGE('',*,*,#207,.F.) ;
#312=ORIENTED_EDGE('',*,*,#238,.F.) ;
#313=ORIENTED_EDGE('',*,*,#267,.F.) ;
#296=FACE_BOUND('',#291,.T.) ;
#314=FACE_BOUND('',#309,.T.) ;
#31=CLOSED_SHELL('Closed Shell',(#71,#102,#133,#155,#195,#226,#257,#279,#297,#315)) ;
#316=ADVANCED_BREP_SHAPE_REPRESENTATION('NONE',(#22),#17) ;
#71=ADVANCED_FACE('E1.2_IV_W_REAR_SEGREGATION_SHR',(#70),#36,.T.) ;
#102=ADVANCED_FACE('E1.2_IV_W_REAR_SEGREGATION_SHR',(#101),#76,.F.) ;
#133=ADVANCED_FACE('E1.2_IV_W_REAR_SEGREGATION_SHR',(#132),#107,.T.) ;
#155=ADVANCED_FACE('E1.2_IV_W_REAR_SEGREGATION_SHR',(#154),#138,.F.) ;
#195=ADVANCED_FACE('E1.2_IV_W_REAR_SEGREGATION_SHR',(#194),#160,.T.) ;
#226=ADVANCED_FACE('E1.2_IV_W_REAR_SEGREGATION_SHR',(#225),#200,.F.) ;
#257=ADVANCED_FACE('E1.2_IV_W_REAR_SEGREGATION_SHR',(#256),#231,.T.) ;
#279=ADVANCED_FACE('E1.2_IV_W_REAR_SEGREGATION_SHR',(#278),#262,.F.) ;
#297=ADVANCED_FACE('E1.2_IV_W_REAR_SEGREGATION_SHR',(#290,#296),#284,.F.) ;
#315=ADVANCED_FACE('E1.2_IV_W_REAR_SEGREGATION_SHR',(#308,#314),#302,.T.) ;
#4=APPLICATION_PROTOCOL_DEFINITION('international standard','automotive_design',2001,#1) ;
#22=MANIFOLD_SOLID_BREP('E1.2_IV_W_REAR_SEGREGATION_SHR',#31) ;
#23=COLOUR_RGB('Colour',0.752941176471,0.76862745098,0.749019607843) ;
#45=EDGE_CURVE('',#42,#44,#40,.T.) ;
#52=EDGE_CURVE('',#42,#51,#49,.T.) ;
#59=EDGE_CURVE('',#51,#58,#56,.T.) ;
#64=EDGE_CURVE('',#44,#58,#63,.T.) ;
#83=EDGE_CURVE('',#51,#82,#80,.F.) ;
#90=EDGE_CURVE('',#82,#89,#87,.T.) ;
#95=EDGE_CURVE('',#58,#89,#94,.F.) ;
#114=EDGE_CURVE('',#82,#113,#111,.T.) ;
#121=EDGE_CURVE('',#113,#120,#118,.T.) ;
#126=EDGE_CURVE('',#89,#120,#125,.T.) ;
#143=EDGE_CURVE('',#113,#42,#142,.F.) ;
#148=EDGE_CURVE('',#120,#44,#147,.F.) ;
#169=EDGE_CURVE('',#166,#168,#164,.F.) ;
#176=EDGE_CURVE('',#175,#168,#173,.T.) ;
#183=EDGE_CURVE('',#182,#175,#180,.F.) ;
#188=EDGE_CURVE('',#182,#166,#187,.T.) ;
#207=EDGE_CURVE('',#206,#166,#204,.T.) ;
#214=EDGE_CURVE('',#213,#182,#211,.T.) ;
#219=EDGE_CURVE('',#213,#206,#218,.T.) ;
#238=EDGE_CURVE('',#237,#206,#235,.F.) ;
#245=EDGE_CURVE('',#244,#213,#242,.F.) ;
#250=EDGE_CURVE('',#244,#237,#249,.T.) ;
#267=EDGE_CURVE('',#168,#237,#266,.T.) ;
#272=EDGE_CURVE('',#175,#244,#271,.T.) ;
#65=EDGE_LOOP('',(#66,#67,#68,#69)) ;
#96=EDGE_LOOP('',(#97,#98,#99,#100)) ;
#127=EDGE_LOOP('',(#128,#129,#130,#131)) ;
#149=EDGE_LOOP('',(#150,#151,#152,#153)) ;
#189=EDGE_LOOP('',(#190,#191,#192,#193)) ;
#220=EDGE_LOOP('',(#221,#222,#223,#224)) ;
#251=EDGE_LOOP('',(#252,#253,#254,#255)) ;
#273=EDGE_LOOP('',(#274,#275,#276,#277)) ;
#285=EDGE_LOOP('',(#286,#287,#288,#289)) ;
#291=EDGE_LOOP('',(#292,#293,#294,#295)) ;
#303=EDGE_LOOP('',(#304,#305,#306,#307)) ;
#309=EDGE_LOOP('',(#310,#311,#312,#313)) ;
#70=FACE_OUTER_BOUND('',#65,.T.) ;
#101=FACE_OUTER_BOUND('',#96,.T.) ;
#132=FACE_OUTER_BOUND('',#127,.T.) ;
#154=FACE_OUTER_BOUND('',#149,.T.) ;
#194=FACE_OUTER_BOUND('',#189,.T.) ;
#225=FACE_OUTER_BOUND('',#220,.T.) ;
#256=FACE_OUTER_BOUND('',#251,.T.) ;
#278=FACE_OUTER_BOUND('',#273,.T.) ;
#290=FACE_OUTER_BOUND('',#285,.T.) ;
#308=FACE_OUTER_BOUND('',#303,.T.) ;
#40=LINE('Line',#37,#39) ;
#49=LINE('Line',#46,#48) ;
#56=LINE('Line',#53,#55) ;
#63=LINE('Line',#60,#62) ;
#80=LINE('Line',#77,#79) ;
#87=LINE('Line',#84,#86) ;
#94=LINE('Line',#91,#93) ;
#111=LINE('Line',#108,#110) ;
#118=LINE('Line',#115,#117) ;
#125=LINE('Line',#122,#124) ;
#142=LINE('Line',#139,#141) ;
#147=LINE('Line',#144,#146) ;
#164=LINE('Line',#161,#163) ;
#173=LINE('Line',#170,#172) ;
#180=LINE('Line',#177,#179) ;
#187=LINE('Line',#184,#186) ;
#204=LINE('Line',#201,#203) ;
#211=LINE('Line',#208,#210) ;
#218=LINE('Line',#215,#217) ;
#235=LINE('Line',#232,#234) ;
#242=LINE('Line',#239,#241) ;
#249=LINE('Line',#246,#248) ;
#266=LINE('Line',#263,#265) ;
#271=LINE('Line',#268,#270) ;
#36=PLANE('',#35) ;
#76=PLANE('',#75) ;
#107=PLANE('',#106) ;
#138=PLANE('',#137) ;
#160=PLANE('',#159) ;
#200=PLANE('',#199) ;
#231=PLANE('',#230) ;
#262=PLANE('',#261) ;
#284=PLANE('',#283) ;
#302=PLANE('',#301) ;
#14=PLANE_ANGLE_MEASURE_WITH_UNIT(PLANE_ANGLE_MEASURE(0.0174532925199),#13) ;
#9=PRODUCT_CATEGORY_RELATIONSHIP(' ',' ',#7,#8) ;
#6=PRODUCT_DEFINITION_FORMATION_WITH_SPECIFIED_SOURCE('',' ',#5,.NOT_KNOWN.) ;
#21=SHAPE_DEFINITION_REPRESENTATION(#11,#20) ;
#42=VERTEX_POINT('',#41) ;
#44=VERTEX_POINT('',#43) ;
#51=VERTEX_POINT('',#50) ;
#58=VERTEX_POINT('',#57) ;
#82=VERTEX_POINT('',#81) ;
#89=VERTEX_POINT('',#88) ;
#113=VERTEX_POINT('',#112) ;
#120=VERTEX_POINT('',#119) ;
#166=VERTEX_POINT('',#165) ;
#168=VERTEX_POINT('',#167) ;
#175=VERTEX_POINT('',#174) ;
#182=VERTEX_POINT('',#181) ;
#206=VERTEX_POINT('',#205) ;
#213=VERTEX_POINT('',#212) ;
#237=VERTEX_POINT('',#236) ;
#244=VERTEX_POINT('',#243) ;
#12=(LENGTH_UNIT()NAMED_UNIT(*)SI_UNIT(.MILLI.,.METRE.)) ;
#13=(NAMED_UNIT(*)PLANE_ANGLE_UNIT()SI_UNIT($,.RADIAN.)) ;
#15=(NAMED_UNIT(*)SI_UNIT($,.STERADIAN.)SOLID_ANGLE_UNIT()) ;
#17=(GEOMETRIC_REPRESENTATION_CONTEXT(3)GLOBAL_UNCERTAINTY_ASSIGNED_CONTEXT((#16))GLOBAL_UNIT_ASSIGNED_CONTEXT((#12,#13,#15))REPRESENTATION_CONTEXT(' ',' ')) ;
ENDSEC;
END-ISO-10303-21;
