  0
SECTION
  2
HEADER
  9
$ACADVER
  1
AC1009
  9
$INSBASE
 10
0.0
 20
0.0
 30
0.0
  9
$EXTMIN
 10
0.579461
 20
0.579152
 30
0.0
  9
$EXTMAX
 10
392.579461
 20
263.079152
 30
0.0
  9
$LIMMIN
 10
0.0
 20
0.0
  9
$LIMMAX
 10
12.0
 20
9.0
  9
$ORTHOMODE
 70
     1
  9
$REGENMODE
 70
     1
  9
$FILLMODE
 70
     1
  9
$QTEXTMODE
 70
     0
  9
$MIRRTEXT
 70
     1
  9
$DRAGMODE
 70
     2
  9
$LTSCALE
 40
5.0
  9
$OSMODE
 70
     0
  9
$ATTMODE
 70
     1
  9
$TEXTSIZE
 40
2.0
  9
$TRACEWID
 40
0.05
  9
$TEXTSTYLE
  7
ROMANS
  9
$CLAYER
  8
0
  9
$CELTYPE
  6
CONTINUOUS
  9
$CECOLOR
 62
   256
  9
$DIMSCALE
 40
1.0
  9
$DIMASZ
 40
0.18
  9
$DIMEXO
 40
0.0625
  9
$DIMDLI
 40
0.38
  9
$DIMRND
 40
0.0
  9
$DIMDLE
 40
0.0
  9
$DIMEXE
 40
0.18
  9
$DIMTP
 40
0.0
  9
$DIMTM
 40
0.0
  9
$DIMTXT
 40
0.18
  9
$DIMCEN
 40
0.09
  9
$DIMTSZ
 40
0.0
  9
$DIMTOL
 70
     0
  9
$DIMLIM
 70
     0
  9
$DIMTIH
 70
     1
  9
$DIMTOH
 70
     1
  9
$DIMSE1
 70
     0
  9
$DIMSE2
 70
     0
  9
$DIMTAD
 70
     0
  9
$DIMZIN
 70
     0
  9
$DIMBLK
  1

  9
$DIMASO
 70
     1
  9
$DIMSHO
 70
     1
  9
$DIMPOST
  1

  9
$DIMAPOST
  1

  9
$DIMALT
 70
     0
  9
$DIMALTD
 70
     2
  9
$DIMALTF
 40
25.4
  9
$DIMLFAC
 40
1.0
  9
$DIMTOFL
 70
     0
  9
$DIMTVP
 40
0.0
  9
$DIMTIX
 70
     0
  9
$DIMSOXD
 70
     0
  9
$DIMSAH
 70
     0
  9
$DIMBLK1
  1

  9
$DIMBLK2
  1

  9
$DIMSTYLE
  2
*UNNAMED
  9
$DIMCLRD
 70
     0
  9
$DIMCLRE
 70
     0
  9
$DIMCLRT
 70
     0
  9
$DIMTFAC
 40
1.0
  9
$DIMGAP
 40
0.09
  9
$LUNITS
 70
     2
  9
$LUPREC
 70
     4
  9
$SKETCHINC
 40
0.1
  9
$FILLETRAD
 40
0.0
  9
$AUNITS
 70
     0
  9
$AUPREC
 70
     0
  9
$MENU
  1
acad
  9
$ELEVATION
 40
0.0
  9
$PELEVATION
 40
0.0
  9
$THICKNESS
 40
0.0
  9
$LIMCHECK
 70
     0
  9
$BLIPMODE
 70
     1
  9
$CHAMFERA
 40
0.0
  9
$CHAMFERB
 40
0.0
  9
$SKPOLY
 70
     0
  9
$TDCREATE
 40
2448859.444055440
  9
$TDUPDATE
 40
2449105.550093402
  9
$TDINDWG
 40
0.0384745370
  9
$TDUSRTIMER
 40
0.0384745370
  9
$USRTIMER
 70
     1
  9
$ANGBASE
 50
0.0
  9
$ANGDIR
 70
     0
  9
$PDMODE
 70
     0
  9
$PDSIZE
 40
0.0
  9
$PLINEWID
 40
0.0
  9
$COORDS
 70
     2
  9
$SPLFRAME
 70
     0
  9
$SPLINETYPE
 70
     6
  9
$SPLINESEGS
 70
     8
  9
$ATTDIA
 70
     0
  9
$ATTREQ
 70
     1
  9
$HANDLING
 70
     0
  9
$HANDSEED
  5
0
  9
$SURFTAB1
 70
   250
  9
$SURFTAB2
 70
   250
  9
$SURFTYPE
 70
     6
  9
$SURFU
 70
     6
  9
$SURFV
 70
     6
  9
$UCSNAME
  2

  9
$UCSORG
 10
0.0
 20
0.0
 30
0.0
  9
$UCSXDIR
 10
1.0
 20
0.0
 30
0.0
  9
$UCSYDIR
 10
0.0
 20
1.0
 30
0.0
  9
$PUCSNAME
  2

  9
$PUCSORG
 10
0.0
 20
0.0
 30
0.0
  9
$PUCSXDIR
 10
1.0
 20
0.0
 30
0.0
  9
$PUCSYDIR
 10
0.0
 20
1.0
 30
0.0
  9
$USERI1
 70
     0
  9
$USERI2
 70
     0
  9
$USERI3
 70
     0
  9
$USERI4
 70
     0
  9
$USERI5
 70
     0
  9
$USERR1
 40
0.0
  9
$USERR2
 40
0.0
  9
$USERR3
 40
0.0
  9
$USERR4
 40
0.0
  9
$USERR5
 40
0.0
  9
$WORLDVIEW
 70
     1
  9
$SHADEDGE
 70
     3
  9
$SHADEDIF
 70
    70
  9
$TILEMODE
 70
     1
  9
$MAXACTVP
 70
    16
  9
$PINSBASE
 10
0.0
 20
0.0
 30
0.0
  9
$PLIMCHECK
 70
     0
  9
$PEXTMIN
 10
1.000000E+20
 20
1.000000E+20
 30
1.000000E+20
  9
$PEXTMAX
 10
-1.000000E+20
 20
-1.000000E+20
 30
-1.000000E+20
  9
$PLIMMIN
 10
0.0
 20
0.0
  9
$PLIMMAX
 10
12.0
 20
9.0
  9
$UNITMODE
 70
     0
  9
$VISRETAIN
 70
     0
  9
$PLINEGEN
 70
     0
  9
$PSLTSCALE
 70
     0
  9
$TREEDEPTH
 70
  3020
  9
$DWGCODEPAGE
  3
undefined
  0
ENDSEC
  0
SECTION
  2
TABLES
  0
TABLE
  2
VPORT
 70
     2
  0
VPORT
  2
*ACTIVE
 70
     0
 10
0.0
 20
0.0
 11
1.0
 21
1.0
 12
222.717071
 22
142.164464
 13
0.0
 23
0.0
 14
2.5
 24
2.5
 15
0.0
 25
0.0
 16
0.0
 26
0.0
 36
1.0
 17
0.0
 27
0.0
 37
0.0
 40
284.328929
 41
1.566616
 42
50.0
 43
0.0
 44
0.0
 50
0.0
 51
0.0
 71
     0
 72
   100
 73
     1
 74
     1
 75
     1
 76
     0
 77
     0
 78
     0
  0
ENDTAB
  0
TABLE
  2
LTYPE
 70
     7
  0
LTYPE
  2
CONTINUOUS
 70
    64
  3
Solid line
 72
    65
 73
     0
 40
0.0
  0
LTYPE
  2
DASHED
 70
    64
  3
__ __ __ __ __ __ __ __ __ __ __ __ __ __ __ __
 72
    65
 73
     2
 40
0.75
 49
0.5
 49
-0.25
  0
LTYPE
  2
CENTER
 70
    64
  3
____ _ ____ _ ____ _ ____ _ ____ _ ____ _ ____ 
 72
    65
 73
     4
 40
2.0
 49
1.25
 49
-0.25
 49
0.25
 49
-0.25
  0
LTYPE
  2
HIDDEN
 70
    64
  3
__ __ __ __ __ __ __ __ __ __ __ __ __ __ __ __
 72
    65
 73
     2
 40
0.375
 49
0.25
 49
-0.125
  0
LTYPE
  2
DOT
 70
     0
  3
. . . . . . . . . . . . . . . . . . . . . . . .
 72
    65
 73
     2
 40
0.25
 49
0.0
 49
-0.25
  0
LTYPE
  2
DASHDOT
 70
     0
  3
__ . __ . __ . __ . __ . __ . __ . __ . __ . __
 72
    65
 73
     4
 40
1.0
 49
0.5
 49
-0.25
 49
0.0
 49
-0.25
  0
LTYPE
  2
PHANTOM
 70
     0
  3
______  __  __  ______  __  __  ______  __  __ 
 72
    65
 73
     6
 40
2.5
 49
1.25
 49
-0.25
 49
0.25
 49
-0.25
 49
0.25
 49
-0.25
  0
ENDTAB
  0
TABLE
  2
LAYER
 70
    13
  0
LAYER
  2
0
 70
    64
 62
     7
  6
CONTINUOUS
  0
LAYER
  2
RAAMI
 70
    64
 62
    -4
  6
CONTINUOUS
  0
LAYER
  2
PAKSU
 70
    64
 62
    -3
  6
CONTINUOUS
  0
LAYER
  2
OHUT
 70
    64
 62
    -6
  6
CONTINUOUS
  0
LAYER
  2
SWEDEN
 70
    64
 62
    -7
  6
CONTINUOUS
  0
LAYER
  2
SWEDEN2
 70
    64
 62
    -5
  6
CONTINUOUS
  0
LAYER
  2
BASE
 70
    64
 62
    -7
  6
CONTINUOUS
  0
LAYER
  2
21
 70
    64
 62
    -2
  6
CONTINUOUS
  0
LAYER
  2
HEL035
 70
    64
 62
    -7
  6
CONTINUOUS
  0
LAYER
  2
MUO
 70
    64
 62
    -7
  6
CONTINUOUS
  0
LAYER
  2
1
 70
    64
 62
    -2
  6
CONTINUOUS
  0
LAYER
  2
BASE1
 70
    64
 62
    -1
  6
CONTINUOUS
  0
LAYER
  2
TEKS
 70
    64
 62
    -5
  6
CONTINUOUS
  0
ENDTAB
  0
TABLE
  2
STYLE
 70
     6
  0
STYLE
  2
STANDARD
 70
    64
 40
0.0
 41
1.0
 50
0.0
 71
     0
 42
2.5
  3
txt
  4

  0
STYLE
  2
ROMANS
 70
    64
 40
0.0
 41
1.0
 50
0.0
 71
     0
 42
2.0
  3
romans
  4

  0
STYLE
  2
GREEKC
 70
     0
 40
0.0
 41
1.0
 50
0.0
 71
     0
 42
1.5
  3
GREEKC
  4

  0
STYLE
  2
GREEKS
 70
    64
 40
0.0
 41
1.0
 50
0.0
 71
     0
 42
2.0
  3
TXT
  4

  0
STYLE
  2
MONOTXT
 70
     0
 40
0.0
 41
1.0
 50
0.0
 71
     0
 42
2.0
  3
monotxt
  4

  0
STYLE
  2
ROMANT
 70
     0
 40
0.0
 41
1.0
 50
0.0
 71
     0
 42
2.5
  3
romant
  4

  0
ENDTAB
  0
TABLE
  2
VIEW
 70
     0
  0
ENDTAB
  0
TABLE
  2
UCS
 70
     0
  0
ENDTAB
  0
TABLE
  2
APPID
 70
     1
  0
APPID
  2
ACAD
 70
    64
  0
ENDTAB
  0
TABLE
  2
DIMSTYLE
 70
     0
  0
ENDTAB
  0
ENDSEC
  0
SECTION
  2
BLOCKS
  0
BLOCK
  8
0
  2
1
 70
    64
 10
0.0
 20
0.0
 30
0.0
  3
1
  0
ENDBLK
  8
0
  0
BLOCK
  8
0
  2
BLC26
 70
     0
 10
0.0
 20
0.0
 30
0.0
  3
BLC26
  0
ARC
  8
0
  6
CONTINUOUS
 10
-0.180576
 20
1.17922
 30
0.0
 40
1.196859
 50
90.0
 51
265.706237
  0
LINE
  8
0
  6
CONTINUOUS
 10
-0.186638
 20
-0.01092
 30
0.0
 11
0.458942
 21
-0.01092
 31
0.0
  0
LINE
  8
0
  6
CONTINUOUS
 10
-0.186638
 20
2.375671
 30
0.0
 11
0.45288
 21
2.375671
 31
0.0
  0
LINE
  8
0
  6
CONTINUOUS
 10
-0.185509
 20
-2.404629
 30
0.0
 11
0.460071
 21
-2.404629
 31
0.0
  0
ARC
  8
0
  6
CONTINUOUS
 10
-0.180576
 20
-1.207779
 30
0.0
 40
1.196859
 50
90.0
 51
270.0
  0
LINE
  8
0
  6
CONTINUOUS
 10
0.451525
 20
-2.404586
 30
0.0
 11
1.401805
 21
-2.404586
 31
0.0
  0
LINE
  8
0
  6
CONTINUOUS
 10
0.446785
 20
2.375674
 30
0.0
 11
1.418544
 21
2.375674
 31
0.0
  0
LINE
  8
0
  6
CONTINUOUS
 10
0.456627
 20
-0.010911
 30
0.0
 11
1.422749
 21
-0.010911
 31
0.0
  0
ENDBLK
  8
0
  0
BLOCK
  8
0
  2
BLC29
 70
    64
 10
0.0
 20
0.0
 30
0.0
  3
BLC29
  0
LINE
  8
0
  6
CONTINUOUS
 10
0.004865
 20
1.206889
 30
0.0
 11
2.350631
 21
-0.128465
 31
0.0
  0
LINE
  8
0
  6
CONTINUOUS
 10
2.350631
 20
-0.128465
 30
0.0
 11
0.004865
 21
-1.318384
 31
0.0
  0
ENDBLK
  8
0
  0
BLOCK
  8
0
  2
BLC43
 70
    64
 10
0.0
 20
0.0
 30
0.0
  3
BLC43
  0
TEXT
  8
SWEDEN2
  6
CONTINUOUS
 10
-0.646672
 20
-0.986365
 30
0.0
 40
2.0
  1
+
  0
ENDBLK
  8
0
  0
BLOCK
  8
0
  2
BLC42
 70
    64
 10
0.0
 20
0.0
 30
0.0
  3
BLC42
  0
TEXT
  8
SWEDEN2
  6
CONTINUOUS
 10
-0.655237
 20
-0.99442
 30
0.0
 40
2.0
  1
-
  0
ENDBLK
  8
0
  0
BLOCK
  8
0
  2
ABBA3V
 70
    64
 10
0.0
 20
0.0
 30
0.0
  3
ABBA3V
  0
TEXT
  8
RAAMI
  6
DASHED
 10
292.217194
 20
11.813359
 30
0.0
 40
3.0
  1
A3
  7
GREEKS
  0
TEXT
  8
RAAMI
  6
DASHED
 10
351.818577
 20
15.69253
 30
0.0
 40
1.4
  1
LEHTI SHEET
  7
GREEKS
  0
LINE
  8
PAKSU
 10
0.237099
 20
262.737999
 30
0.0
 11
392.237099
 21
262.737999
 31
0.0
  0
LINE
  8
RAAMI
 10
18.237099
 20
0.237999
 30
0.0
 11
0.237099
 21
0.237999
 31
0.0
  0
LINE
  8
PAKSU
 10
209.237099
 20
0.237999
 30
0.0
 11
392.237099
 21
0.237999
 31
0.0
  0
LINE
  8
PAKSU
 10
209.237099
 20
0.237999
 30
0.0
 11
209.237099
 21
35.237999
 31
0.0
  0
LINE
  8
PAKSU
 10
392.237099
 20
0.237999
 30
0.0
 11
392.237099
 21
35.237999
 31
0.0
  0
LINE
  8
OHUT
 10
209.237099
 20
18.237999
 30
0.0
 11
392.237099
 21
18.237999
 31
0.0
  0
LINE
  8
OHUT
 10
209.237099
 20
9.737999
 30
0.0
 11
392.237099
 21
9.737999
 31
0.0
  0
LINE
  8
OHUT
 10
209.237099
 20
26.737999
 30
0.0
 11
307.237099
 21
26.737999
 31
0.0
  0
LINE
  8
PAKSU
 10
209.237099
 20
35.237999
 30
0.0
 11
392.237099
 21
35.237999
 31
0.0
  0
TEXT
  8
RAAMI
 10
210.237099
 20
23.971333
 30
0.0
 40
1.4
  1
TARKASTI  CHECKED
  7
ROMANS
  0
TEXT
  8
RAAMI
 10
209.979934
 20
15.704666
 30
0.0
 40
1.4
  1
HYVÄKSYI  APPROVED
  7
ROMANS
  0
LINE
  8
OHUT
 10
307.237099
 20
0.237999
 30
0.0
 11
307.237099
 21
35.237999
 31
0.0
  0
TEXT
  8
RAAMI
 10
259.237099
 20
32.737999
 30
0.0
 40
1.4
  1
LIITTYY  CONCERNING
  7
ROMANS
  0
TEXT
  8
RAAMI
 10
259.237099
 20
23.737999
 30
0.0
 40
1.4
  1
TOLERANSSIT  TOLERANCES
  7
ROMANS
  0
TEXT
  8
RAAMI
 10
259.237099
 20
15.737999
 30
0.0
 40
1.4
  1
SUHDE  SCALE
  7
ROMANS
  0
TEXT
  8
RAAMI
 10
309.237099
 20
32.737999
 30
0.0
 40
1.4
  1
NIMITYS  NAME
  7
ROMANS
  0
TEXT
  8
RAAMI
 10
309.237099
 20
15.737999
 30
0.0
 40
1.4
  1
KOODI  CODE
  7
ROMANS
  0
TEXT
  8
RAAMI
 10
309.237099
 20
7.237999
 30
0.0
 40
1.4
  1
PIIRUSTUS NO  DRAWING NR
  7
ROMANS
  0
LINE
  8
OHUT
 10
349.737099
 20
9.737999
 30
0.0
 11
349.737099
 21
18.237999
 31
0.0
  0
TEXT
  8
RAAMI
 10
371.237099
 20
7.237999
 30
0.0
 40
1.4
  1
PAINOS  REVISION
  7
ROMANS
  0
LINE
  8
OHUT
 10
369.737099
 20
9.737999
 30
0.0
 11
369.737099
 21
0.237999
 31
0.0
  0
LINE
  8
RAAMI
 10
210.187099
 20
1.737999
 30
0.0
 11
211.937099
 21
1.737999
 31
0.0
  0
LINE
  8
RAAMI
 10
215.437099
 20
1.737999
 30
0.0
 11
217.187099
 21
1.737999
 31
0.0
  0
LINE
  8
RAAMI
 10
212.637099
 20
8.737999
 30
0.0
 11
211.459571
 21
5.373634
 31
0.0
  0
LINE
  8
RAAMI
 10
212.425886
 20
3.137999
 30
0.0
 11
213.547099
 21
3.137999
 31
0.0
  0
LINE
  8
RAAMI
 10
212.425889
 20
3.134542
 30
0.0
 11
211.937099
 21
1.737999
 31
0.0
  0
LINE
  8
RAAMI
 10
214.737099
 20
8.737999
 30
0.0
 11
215.913452
 21
5.376991
 31
0.0
  0
LINE
  8
RAAMI
 10
214.948197
 20
3.134863
 30
0.0
 11
215.437099
 21
1.737999
 31
0.0
  0
LINE
  8
RAAMI
 10
214.737099
 20
8.737999
 30
0.0
 11
213.827099
 21
8.737999
 31
0.0
  0
LINE
  8
RAAMI
 10
213.547099
 20
8.737999
 30
0.0
 11
213.547099
 21
5.377999
 31
0.0
  0
LINE
  8
RAAMI
 10
213.827099
 20
8.737999
 30
0.0
 11
213.827099
 21
5.377999
 31
0.0
  0
LINE
  8
RAAMI
 10
213.827099
 20
3.137999
 30
0.0
 11
214.946992
 21
3.137999
 31
0.0
  0
LINE
  8
RAAMI
 10
213.547099
 20
8.737999
 30
0.0
 11
212.637099
 21
8.737999
 31
0.0
  0
LINE
  8
RAAMI
 10
211.45904
 20
5.377999
 30
0.0
 11
213.547099
 21
5.377999
 31
0.0
  0
LINE
  8
RAAMI
 10
211.360082
 20
5.097999
 30
0.0
 11
213.547099
 21
5.097999
 31
0.0
  0
LINE
  8
RAAMI
 10
216.011591
 20
5.096594
 30
0.0
 11
217.187099
 21
1.737999
 31
0.0
  0
LINE
  8
RAAMI
 10
213.827099
 20
5.377999
 30
0.0
 11
215.912213
 21
5.377999
 31
0.0
  0
LINE
  8
RAAMI
 10
213.827099
 20
5.097999
 30
0.0
 11
216.010356
 21
5.097999
 31
0.0
  0
LINE
  8
RAAMI
 10
213.827099
 20
5.097999
 30
0.0
 11
213.827099
 21
3.137999
 31
0.0
  0
LINE
  8
RAAMI
 10
213.547099
 20
5.097999
 30
0.0
 11
213.547099
 21
3.137999
 31
0.0
  0
LINE
  8
RAAMI
 10
211.356988
 20
5.080538
 30
0.0
 11
210.187099
 21
1.737999
 31
0.0
  0
INSERT
  8
RAAMI
  2
*X6
 10
210.187099
 20
1.737999
 30
0.0
 41
0.7
 42
0.7
 43
0.7
  0
INSERT
  8
RAAMI
  2
*X7
 10
210.187099
 20
1.737999
 30
0.0
 41
0.7
 42
0.7
 43
0.7
  0
INSERT
  8
RAAMI
  2
*X8
 10
210.187099
 20
1.737999
 30
0.0
 41
0.7
 42
0.7
 43
0.7
  0
INSERT
  8
RAAMI
  2
*X9
 10
210.187099
 20
1.737999
 30
0.0
 41
0.7
 42
0.7
 43
0.7
  0
LINE
  8
RAAMI
 10
217.677099
 20
1.737999
 30
0.0
 11
217.677099
 21
5.097999
 31
0.0
  0
LINE
  8
RAAMI
 10
217.677099
 20
8.737999
 30
0.0
 11
219.637099
 21
8.737999
 31
0.0
  0
LINE
  8
RAAMI
 10
219.637099
 20
8.737999
 30
0.0
 11
219.637099
 21
5.377999
 31
0.0
  0
LINE
  8
RAAMI
 10
219.637099
 20
5.377999
 30
0.0
 11
217.677099
 21
5.377999
 31
0.0
  0
LINE
  8
RAAMI
 10
217.677099
 20
5.097999
 30
0.0
 11
219.637099
 21
5.097999
 31
0.0
  0
LINE
  8
RAAMI
 10
219.637099
 20
5.097999
 30
0.0
 11
219.637099
 21
1.737999
 31
0.0
  0
LINE
  8
RAAMI
 10
219.637099
 20
1.737999
 30
0.0
 11
217.677099
 21
1.737999
 31
0.0
  0
LINE
  8
RAAMI
 10
217.677099
 20
5.377999
 30
0.0
 11
217.677099
 21
8.737999
 31
0.0
  0
ARC
  8
RAAMI
 10
220.477099
 20
7.162999
 30
0.0
 40
1.575
 50
298.455859
 51
90.052437
  0
LINE
  8
RAAMI
 10
219.917099
 20
8.737999
 30
0.0
 11
220.475658
 21
8.737999
 31
0.0
  0
LINE
  8
RAAMI
 10
219.917099
 20
8.737999
 30
0.0
 11
219.917099
 21
5.377999
 31
0.0
  0
LINE
  8
RAAMI
 10
219.917099
 20
5.377999
 30
0.0
 11
221.901542
 21
5.377999
 31
0.0
  0
LINE
  8
RAAMI
 10
222.157099
 20
5.097999
 30
0.0
 11
219.917099
 21
5.097999
 31
0.0
  0
LINE
  8
RAAMI
 10
219.917099
 20
5.097999
 30
0.0
 11
219.917099
 21
1.737999
 31
0.0
  0
ARC
  8
RAAMI
 10
220.477099
 20
3.837999
 30
0.0
 40
2.1
 50
269.937724
 51
37.056553
  0
LINE
  8
RAAMI
 10
219.917099
 20
1.737999
 30
0.0
 11
220.474817
 21
1.738
 31
0.0
  0
ARC
  8
RAAMI
 10
220.477099
 20
3.837999
 30
0.0
 40
2.1
 50
47.28622
 51
68.787999
  0
INSERT
  8
RAAMI
  2
*X10
 10
210.187099
 20
1.737999
 30
0.0
 41
0.7
 42
0.7
 43
0.7
  0
INSERT
  8
RAAMI
  2
*X11
 10
210.187099
 20
1.737999
 30
0.0
 41
0.7
 42
0.7
 43
0.7
  0
INSERT
  8
RAAMI
  2
*X12
 10
210.187099
 20
1.737999
 30
0.0
 41
0.7
 42
0.7
 43
0.7
  0
INSERT
  8
RAAMI
  2
*X13
 10
210.187099
 20
1.737999
 30
0.0
 41
0.7
 42
0.7
 43
0.7
  0
INSERT
  8
RAAMI
  2
*X13
 10
215.647099
 20
1.737999
 30
0.0
 41
0.7
 42
0.7
 43
0.7
  0
INSERT
  8
RAAMI
  2
*X12
 10
215.647099
 20
1.737999
 30
0.0
 41
0.7
 42
0.7
 43
0.7
  0
INSERT
  8
RAAMI
  2
*X11
 10
215.647099
 20
1.737999
 30
0.0
 41
0.7
 42
0.7
 43
0.7
  0
INSERT
  8
RAAMI
  2
*X10
 10
215.647099
 20
1.737999
 30
0.0
 41
0.7
 42
0.7
 43
0.7
  0
ARC
  8
RAAMI
 10
225.937099
 20
3.837999
 30
0.0
 40
2.1
 50
47.28622
 51
68.787999
  0
LINE
  8
RAAMI
 10
225.377099
 20
1.737999
 30
0.0
 11
225.934817
 21
1.738
 31
0.0
  0
ARC
  8
RAAMI
 10
225.937099
 20
3.837999
 30
0.0
 40
2.1
 50
269.937724
 51
37.056553
  0
LINE
  8
RAAMI
 10
225.377099
 20
5.097999
 30
0.0
 11
225.377099
 21
1.737999
 31
0.0
  0
LINE
  8
RAAMI
 10
227.617099
 20
5.097999
 30
0.0
 11
225.377099
 21
5.097999
 31
0.0
  0
LINE
  8
RAAMI
 10
225.377099
 20
5.377999
 30
0.0
 11
227.361542
 21
5.377999
 31
0.0
  0
LINE
  8
RAAMI
 10
225.377099
 20
8.737999
 30
0.0
 11
225.377099
 21
5.377999
 31
0.0
  0
LINE
  8
RAAMI
 10
225.377099
 20
8.737999
 30
0.0
 11
225.935658
 21
8.737999
 31
0.0
  0
ARC
  8
RAAMI
 10
225.937099
 20
7.162999
 30
0.0
 40
1.575
 50
298.455859
 51
90.052437
  0
LINE
  8
RAAMI
 10
223.137099
 20
5.377999
 30
0.0
 11
223.137099
 21
8.737999
 31
0.0
  0
LINE
  8
RAAMI
 10
225.097099
 20
1.737999
 30
0.0
 11
223.137099
 21
1.737999
 31
0.0
  0
LINE
  8
RAAMI
 10
225.097099
 20
5.097999
 30
0.0
 11
225.097099
 21
1.737999
 31
0.0
  0
LINE
  8
RAAMI
 10
223.137099
 20
5.097999
 30
0.0
 11
225.097099
 21
5.097999
 31
0.0
  0
LINE
  8
RAAMI
 10
225.097099
 20
5.377999
 30
0.0
 11
223.137099
 21
5.377999
 31
0.0
  0
LINE
  8
RAAMI
 10
225.097099
 20
8.737999
 30
0.0
 11
225.097099
 21
5.377999
 31
0.0
  0
LINE
  8
RAAMI
 10
223.137099
 20
8.737999
 30
0.0
 11
225.097099
 21
8.737999
 31
0.0
  0
LINE
  8
RAAMI
 10
223.137099
 20
1.737999
 30
0.0
 11
223.137099
 21
5.097999
 31
0.0
  0
TEXT
  8
RAAMI
 10
229.737099
 20
1.737999
 30
0.0
 40
3.0
  1
ABB 
 41
0.8
  7
ROMANS
  0
TEXT
  8
RAAMI
 10
237.737099
 20
1.737999
 30
0.0
 40
3.0
  1
Strömberg
 41
0.8
  7
ROMANS
  0
LINE
  8
OHUT
 10
282.237099
 20
9.737999
 30
0.0
 11
282.237099
 21
18.237999
 31
0.0
  0
TEXT
  8
RAAMI
 10
27.737099
 20
4.737999
 30
0.0
 40
1.4
  1
MUUTOS
  7
ROMANS
  0
TEXT
  8
RAAMI
 10
27.737099
 20
2.471333
 30
0.0
 40
1.4
  1
REVISION
  7
ROMANS
  0
LINE
  8
OHUT
 10
46.737099
 20
9.237999
 30
0.0
 11
209.237099
 21
9.237999
 31
0.0
  0
LINE
  8
OHUT
 10
46.737099
 20
0.237999
 30
0.0
 11
46.737099
 21
9.237999
 31
0.0
  0
LINE
  8
OHUT
 10
40.737099
 20
4.737999
 30
0.0
 11
209.237099
 21
4.737999
 31
0.0
  0
LINE
  8
OHUT
 10
257.237099
 20
9.737999
 30
0.0
 11
257.237099
 21
35.237999
 31
0.0
  0
LINE
  8
OHUT
 10
271.237099
 20
9.737999
 30
0.0
 11
271.237099
 21
0.237999
 31
0.0
  0
TEXT
  8
RAAMI
 10
210.237099
 20
32.237999
 30
0.0
 40
1.4
  1
TEKI  PREPARED
  7
ROMANS
  0
TEXT
  8
RAAMI
 10
273.237099
 20
7.237999
 30
0.0
 40
1.4
  1
VAST.OSASTO RESP.DEPT.
  7
ROMANS
  0
TEXT
  8
RAAMI
 10
257.407006
 20
1.741783
 30
0.0
 40
3.0
  1
Power
 41
0.8
  7
ROMANS
  0
TEXT
  8
RAAMI
 10
42.237099
 20
1.195292
 30
0.0
 40
2.5
  1
B
  7
ROMANS
  0
TEXT
  8
RAAMI
 10
42.237099
 20
5.587508
 30
0.0
 40
2.5
  1
C
  7
ROMANS
  0
LINE
  8
PAKSU
 10
0.237099
 20
0.237999
 30
0.0
 11
392.237099
 21
0.237999
 31
0.0
  0
LINE
  8
PAKSU
 10
392.237099
 20
262.737999
 30
0.0
 11
392.237099
 21
0.237999
 31
0.0
  0
LINE
  8
PAKSU
 10
0.237099
 20
0.237999
 30
0.0
 11
0.237099
 21
262.737999
 31
0.0
  0
ENDBLK
  8
0
  0
BLOCK
  8
0
  2
*X6
 70
    65
 10
0.0
 20
0.0
 30
0.0
  3
*X
  0
LINE
  8
0
 62
     0
 10
2.284499
 20
6.52714
 30
0.0
 11
4.8
 21
9.042641
 31
0.0
  0
LINE
  8
0
 62
     0
 10
2.379686
 20
6.799104
 30
0.0
 11
4.8
 21
9.219417
 31
0.0
  0
LINE
  8
0
 62
     0
 10
2.474874
 20
7.071068
 30
0.0
 11
4.8
 21
9.396194
 31
0.0
  0
LINE
  8
0
 62
     0
 10
2.570061
 20
7.343032
 30
0.0
 11
4.8
 21
9.572971
 31
0.0
  0
LINE
  8
0
 62
     0
 10
2.665249
 20
7.614996
 30
0.0
 11
4.8
 21
9.749747
 31
0.0
  0
LINE
  8
0
 62
     0
 10
2.760436
 20
7.88696
 30
0.0
 11
4.8
 21
9.926524
 31
0.0
  0
LINE
  8
0
 62
     0
 10
2.855624
 20
8.158924
 30
0.0
 11
4.696699
 21
10.0
 31
0.0
  0
LINE
  8
0
 62
     0
 10
2.950811
 20
8.430889
 30
0.0
 11
4.519922
 21
10.0
 31
0.0
  0
LINE
  8
0
 62
     0
 10
3.045998
 20
8.702853
 30
0.0
 11
4.343146
 21
10.0
 31
0.0
  0
LINE
  8
0
 62
     0
 10
3.141186
 20
8.974817
 30
0.0
 11
4.166369
 21
10.0
 31
0.0
  0
LINE
  8
0
 62
     0
 10
3.236373
 20
9.246781
 30
0.0
 11
3.989592
 21
10.0
 31
0.0
  0
LINE
  8
0
 62
     0
 10
3.331561
 20
9.518745
 30
0.0
 11
3.812816
 21
10.0
 31
0.0
  0
LINE
  8
0
 62
     0
 10
3.426748
 20
9.790709
 30
0.0
 11
3.636039
 21
10.0
 31
0.0
  0
LINE
  8
0
 62
     0
 10
2.189311
 20
6.255175
 30
0.0
 11
4.8
 21
8.865864
 31
0.0
  0
LINE
  8
0
 62
     0
 10
2.094124
 20
5.983211
 30
0.0
 11
4.8
 21
8.689087
 31
0.0
  0
LINE
  8
0
 62
     0
 10
1.998936
 20
5.711247
 30
0.0
 11
4.8
 21
8.512311
 31
0.0
  0
LINE
  8
0
 62
     0
 10
1.903749
 20
5.439283
 30
0.0
 11
4.8
 21
8.335534
 31
0.0
  0
LINE
  8
0
 62
     0
 10
1.841243
 20
5.2
 30
0.0
 11
4.8
 21
8.158757
 31
0.0
  0
LINE
  8
0
 62
     0
 10
2.018019
 20
5.2
 30
0.0
 11
4.8
 21
7.981981
 31
0.0
  0
LINE
  8
0
 62
     0
 10
2.194796
 20
5.2
 30
0.0
 11
4.8
 21
7.805204
 31
0.0
  0
LINE
  8
0
 62
     0
 10
2.371573
 20
5.2
 30
0.0
 11
4.8
 21
7.628427
 31
0.0
  0
LINE
  8
0
 62
     0
 10
2.54835
 20
5.2
 30
0.0
 11
4.8
 21
7.45165
 31
0.0
  0
LINE
  8
0
 62
     0
 10
2.725126
 20
5.2
 30
0.0
 11
4.8
 21
7.274874
 31
0.0
  0
LINE
  8
0
 62
     0
 10
2.901903
 20
5.2
 30
0.0
 11
4.8
 21
7.098097
 31
0.0
  0
LINE
  8
0
 62
     0
 10
3.07868
 20
5.2
 30
0.0
 11
4.8
 21
6.92132
 31
0.0
  0
LINE
  8
0
 62
     0
 10
3.255456
 20
5.2
 30
0.0
 11
4.8
 21
6.744544
 31
0.0
  0
LINE
  8
0
 62
     0
 10
3.432233
 20
5.2
 30
0.0
 11
4.8
 21
6.567767
 31
0.0
  0
LINE
  8
0
 62
     0
 10
3.60901
 20
5.2
 30
0.0
 11
4.8
 21
6.39099
 31
0.0
  0
LINE
  8
0
 62
     0
 10
3.785786
 20
5.2
 30
0.0
 11
4.8
 21
6.214214
 31
0.0
  0
LINE
  8
0
 62
     0
 10
3.962563
 20
5.2
 30
0.0
 11
4.8
 21
6.037437
 31
0.0
  0
LINE
  8
0
 62
     0
 10
4.13934
 20
5.2
 30
0.0
 11
4.8
 21
5.86066
 31
0.0
  0
LINE
  8
0
 62
     0
 10
4.316117
 20
5.2
 30
0.0
 11
4.8
 21
5.683883
 31
0.0
  0
LINE
  8
0
 62
     0
 10
4.492893
 20
5.2
 30
0.0
 11
4.8
 21
5.507107
 31
0.0
  0
LINE
  8
0
 62
     0
 10
4.66967
 20
5.2
 30
0.0
 11
4.8
 21
5.33033
 31
0.0
  0
ENDBLK
  8
0
  0
BLOCK
  8
0
  2
*X7
 70
    65
 10
0.0
 20
0.0
 30
0.0
  3
*X
  0
LINE
  8
0
 62
     0
 10
5.2
 20
6.083883
 30
0.0
 11
7.178252
 21
8.062136
 31
0.0
  0
LINE
  8
0
 62
     0
 10
5.2
 20
6.26066
 30
0.0
 11
7.132421
 21
8.193082
 31
0.0
  0
LINE
  8
0
 62
     0
 10
5.2
 20
6.437437
 30
0.0
 11
7.08659
 21
8.324027
 31
0.0
  0
LINE
  8
0
 62
     0
 10
5.2
 20
6.614214
 30
0.0
 11
7.040759
 21
8.454973
 31
0.0
  0
LINE
  8
0
 62
     0
 10
5.2
 20
6.79099
 30
0.0
 11
6.994928
 21
8.585919
 31
0.0
  0
LINE
  8
0
 62
     0
 10
5.2
 20
6.967767
 30
0.0
 11
6.949097
 21
8.716864
 31
0.0
  0
LINE
  8
0
 62
     0
 10
5.2
 20
7.144544
 30
0.0
 11
6.903266
 21
8.84781
 31
0.0
  0
LINE
  8
0
 62
     0
 10
5.2
 20
7.32132
 30
0.0
 11
6.857435
 21
8.978756
 31
0.0
  0
LINE
  8
0
 62
     0
 10
5.2
 20
7.498097
 30
0.0
 11
6.811604
 21
9.109702
 31
0.0
  0
LINE
  8
0
 62
     0
 10
5.2
 20
7.674874
 30
0.0
 11
6.765773
 21
9.240647
 31
0.0
  0
LINE
  8
0
 62
     0
 10
5.2
 20
7.85165
 30
0.0
 11
6.719942
 21
9.371593
 31
0.0
  0
LINE
  8
0
 62
     0
 10
5.2
 20
8.028427
 30
0.0
 11
6.674111
 21
9.502539
 31
0.0
  0
LINE
  8
0
 62
     0
 10
5.2
 20
8.205204
 30
0.0
 11
6.62828
 21
9.633484
 31
0.0
  0
LINE
  8
0
 62
     0
 10
5.2
 20
8.381981
 30
0.0
 11
6.582449
 21
9.76443
 31
0.0
  0
LINE
  8
0
 62
     0
 10
5.2
 20
8.558757
 30
0.0
 11
6.536619
 21
9.895376
 31
0.0
  0
LINE
  8
0
 62
     0
 10
5.2
 20
8.735534
 30
0.0
 11
6.464466
 21
10.0
 31
0.0
  0
LINE
  8
0
 62
     0
 10
5.2
 20
8.912311
 30
0.0
 11
6.287689
 21
10.0
 31
0.0
  0
LINE
  8
0
 62
     0
 10
5.2
 20
9.089087
 30
0.0
 11
6.110913
 21
10.0
 31
0.0
  0
LINE
  8
0
 62
     0
 10
5.2
 20
9.265864
 30
0.0
 11
5.934136
 21
10.0
 31
0.0
  0
LINE
  8
0
 62
     0
 10
5.2
 20
9.442641
 30
0.0
 11
5.757359
 21
10.0
 31
0.0
  0
LINE
  8
0
 62
     0
 10
5.2
 20
9.619417
 30
0.0
 11
5.580583
 21
10.0
 31
0.0
  0
LINE
  8
0
 62
     0
 10
5.2
 20
9.796194
 30
0.0
 11
5.403806
 21
10.0
 31
0.0
  0
LINE
  8
0
 62
     0
 10
5.2
 20
9.972971
 30
0.0
 11
5.227029
 21
10.0
 31
0.0
  0
LINE
  8
0
 62
     0
 10
5.2
 20
5.907107
 30
0.0
 11
7.224083
 21
7.93119
 31
0.0
  0
LINE
  8
0
 62
     0
 10
5.2
 20
5.73033
 30
0.0
 11
7.269914
 21
7.800245
 31
0.0
  0
LINE
  8
0
 62
     0
 10
5.2
 20
5.553553
 30
0.0
 11
7.315745
 21
7.669299
 31
0.0
  0
LINE
  8
0
 62
     0
 10
5.2
 20
5.376777
 30
0.0
 11
7.361576
 21
7.538353
 31
0.0
  0
LINE
  8
0
 62
     0
 10
5.2
 20
5.2
 30
0.0
 11
7.407407
 21
7.407407
 31
0.0
  0
LINE
  8
0
 62
     0
 10
5.376777
 20
5.2
 30
0.0
 11
7.453238
 21
7.276462
 31
0.0
  0
LINE
  8
0
 62
     0
 10
5.553553
 20
5.2
 30
0.0
 11
7.499069
 21
7.145516
 31
0.0
  0
LINE
  8
0
 62
     0
 10
5.73033
 20
5.2
 30
0.0
 11
7.5449
 21
7.01457
 31
0.0
  0
LINE
  8
0
 62
     0
 10
5.907107
 20
5.2
 30
0.0
 11
7.590731
 21
6.883625
 31
0.0
  0
LINE
  8
0
 62
     0
 10
6.083883
 20
5.2
 30
0.0
 11
7.636562
 21
6.752679
 31
0.0
  0
LINE
  8
0
 62
     0
 10
6.26066
 20
5.2
 30
0.0
 11
7.682393
 21
6.621733
 31
0.0
  0
LINE
  8
0
 62
     0
 10
6.437437
 20
5.2
 30
0.0
 11
7.728224
 21
6.490788
 31
0.0
  0
LINE
  8
0
 62
     0
 10
6.614214
 20
5.2
 30
0.0
 11
7.774055
 21
6.359842
 31
0.0
  0
LINE
  8
0
 62
     0
 10
6.79099
 20
5.2
 30
0.0
 11
7.819886
 21
6.228896
 31
0.0
  0
LINE
  8
0
 62
     0
 10
6.967767
 20
5.2
 30
0.0
 11
7.865717
 21
6.09795
 31
0.0
  0
LINE
  8
0
 62
     0
 10
7.144544
 20
5.2
 30
0.0
 11
7.911548
 21
5.967005
 31
0.0
  0
LINE
  8
0
 62
     0
 10
7.32132
 20
5.2
 30
0.0
 11
7.957379
 21
5.836059
 31
0.0
  0
LINE
  8
0
 62
     0
 10
7.498097
 20
5.2
 30
0.0
 11
8.00321
 21
5.705113
 31
0.0
  0
LINE
  8
0
 62
     0
 10
7.674874
 20
5.2
 30
0.0
 11
8.049041
 21
5.574168
 31
0.0
  0
LINE
  8
0
 62
     0
 10
7.85165
 20
5.2
 30
0.0
 11
8.094872
 21
5.443222
 31
0.0
  0
LINE
  8
0
 62
     0
 10
8.028427
 20
5.2
 30
0.0
 11
8.140703
 21
5.312276
 31
0.0
  0
ENDBLK
  8
0
  0
BLOCK
  8
0
  2
*X8
 70
    65
 10
0.0
 20
0.0
 30
0.0
  3
*X
  0
LINE
  8
0
 62
     0
 10
0.0
 20
0.0
 30
0.0
 11
4.8
 21
4.8
 31
0.0
  0
LINE
  8
0
 62
     0
 10
0.095187
 20
0.271964
 30
0.0
 11
4.623223
 21
4.8
 31
0.0
  0
LINE
  8
0
 62
     0
 10
0.190375
 20
0.543928
 30
0.0
 11
4.446447
 21
4.8
 31
0.0
  0
LINE
  8
0
 62
     0
 10
0.285562
 20
0.815892
 30
0.0
 11
4.26967
 21
4.8
 31
0.0
  0
LINE
  8
0
 62
     0
 10
0.38075
 20
1.087857
 30
0.0
 11
4.092893
 21
4.8
 31
0.0
  0
LINE
  8
0
 62
     0
 10
0.475937
 20
1.359821
 30
0.0
 11
3.916117
 21
4.8
 31
0.0
  0
LINE
  8
0
 62
     0
 10
0.571125
 20
1.631785
 30
0.0
 11
3.73934
 21
4.8
 31
0.0
  0
LINE
  8
0
 62
     0
 10
0.666312
 20
1.903749
 30
0.0
 11
3.562563
 21
4.8
 31
0.0
  0
LINE
  8
0
 62
     0
 10
0.7615
 20
2.175713
 30
0.0
 11
3.385786
 21
4.8
 31
0.0
  0
LINE
  8
0
 62
     0
 10
0.856687
 20
2.447677
 30
0.0
 11
3.20901
 21
4.8
 31
0.0
  0
LINE
  8
0
 62
     0
 10
0.951875
 20
2.719641
 30
0.0
 11
3.032233
 21
4.8
 31
0.0
  0
LINE
  8
0
 62
     0
 10
1.047062
 20
2.991606
 30
0.0
 11
2.855456
 21
4.8
 31
0.0
  0
LINE
  8
0
 62
     0
 10
1.142249
 20
3.26357
 30
0.0
 11
2.67868
 21
4.8
 31
0.0
  0
LINE
  8
0
 62
     0
 10
1.237437
 20
3.535534
 30
0.0
 11
2.501903
 21
4.8
 31
0.0
  0
LINE
  8
0
 62
     0
 10
1.332624
 20
3.807498
 30
0.0
 11
2.325126
 21
4.8
 31
0.0
  0
LINE
  8
0
 62
     0
 10
1.427812
 20
4.079462
 30
0.0
 11
2.14835
 21
4.8
 31
0.0
  0
LINE
  8
0
 62
     0
 10
1.522999
 20
4.351426
 30
0.0
 11
1.971573
 21
4.8
 31
0.0
  0
LINE
  8
0
 62
     0
 10
1.618187
 20
4.62339
 30
0.0
 11
1.794796
 21
4.8
 31
0.0
  0
LINE
  8
0
 62
     0
 10
0.176777
 20
0.0
 30
0.0
 11
4.8
 21
4.623223
 31
0.0
  0
LINE
  8
0
 62
     0
 10
0.353553
 20
0.0
 30
0.0
 11
4.8
 21
4.446447
 31
0.0
  0
LINE
  8
0
 62
     0
 10
0.53033
 20
0.0
 30
0.0
 11
4.8
 21
4.26967
 31
0.0
  0
LINE
  8
0
 62
     0
 10
0.707107
 20
0.0
 30
0.0
 11
4.8
 21
4.092893
 31
0.0
  0
LINE
  8
0
 62
     0
 10
0.883883
 20
0.0
 30
0.0
 11
4.8
 21
3.916117
 31
0.0
  0
LINE
  8
0
 62
     0
 10
1.06066
 20
0.0
 30
0.0
 11
4.8
 21
3.73934
 31
0.0
  0
LINE
  8
0
 62
     0
 10
1.237437
 20
0.0
 30
0.0
 11
3.179842
 21
1.942405
 31
0.0
  0
LINE
  8
0
 62
     0
 10
3.237437
 20
2.0
 30
0.0
 11
4.8
 21
3.562563
 31
0.0
  0
LINE
  8
0
 62
     0
 10
1.414214
 20
0.0
 30
0.0
 11
3.084654
 21
1.670441
 31
0.0
  0
LINE
  8
0
 62
     0
 10
3.414214
 20
2.0
 30
0.0
 11
4.8
 21
3.385786
 31
0.0
  0
LINE
  8
0
 62
     0
 10
1.59099
 20
0.0
 30
0.0
 11
2.989467
 21
1.398477
 31
0.0
  0
LINE
  8
0
 62
     0
 10
3.59099
 20
2.0
 30
0.0
 11
4.8
 21
3.20901
 31
0.0
  0
LINE
  8
0
 62
     0
 10
1.767767
 20
0.0
 30
0.0
 11
2.894279
 21
1.126512
 31
0.0
  0
LINE
  8
0
 62
     0
 10
3.767767
 20
2.0
 30
0.0
 11
4.8
 21
3.032233
 31
0.0
  0
LINE
  8
0
 62
     0
 10
1.944544
 20
0.0
 30
0.0
 11
2.799092
 21
0.854548
 31
0.0
  0
LINE
  8
0
 62
     0
 10
3.944544
 20
2.0
 30
0.0
 11
4.8
 21
2.855456
 31
0.0
  0
LINE
  8
0
 62
     0
 10
2.12132
 20
0.0
 30
0.0
 11
2.703904
 21
0.582584
 31
0.0
  0
LINE
  8
0
 62
     0
 10
4.12132
 20
2.0
 30
0.0
 11
4.8
 21
2.67868
 31
0.0
  0
LINE
  8
0
 62
     0
 10
2.298097
 20
0.0
 30
0.0
 11
2.608717
 21
0.31062
 31
0.0
  0
LINE
  8
0
 62
     0
 10
4.298097
 20
2.0
 30
0.0
 11
4.8
 21
2.501903
 31
0.0
  0
LINE
  8
0
 62
     0
 10
2.474874
 20
0.0
 30
0.0
 11
2.51353
 21
0.038656
 31
0.0
  0
LINE
  8
0
 62
     0
 10
4.474874
 20
2.0
 30
0.0
 11
4.8
 21
2.325126
 31
0.0
  0
LINE
  8
0
 62
     0
 10
4.65165
 20
2.0
 30
0.0
 11
4.8
 21
2.14835
 31
0.0
  0
ENDBLK
  8
0
  0
BLOCK
  8
0
  2
*X9
 70
    65
 10
0.0
 20
0.0
 30
0.0
  3
*X
  0
LINE
  8
0
 62
     0
 10
6.884654
 20
1.75813
 30
0.0
 11
8.736506
 21
3.609982
 31
0.0
  0
LINE
  8
0
 62
     0
 10
6.838823
 20
1.889076
 30
0.0
 11
8.690675
 21
3.740928
 31
0.0
  0
LINE
  8
0
 62
     0
 10
6.772971
 20
2.0
 30
0.0
 11
8.644844
 21
3.871874
 31
0.0
  0
LINE
  8
0
 62
     0
 10
6.596194
 20
2.0
 30
0.0
 11
8.599013
 21
4.002819
 31
0.0
  0
LINE
  8
0
 62
     0
 10
6.419417
 20
2.0
 30
0.0
 11
8.553182
 21
4.133765
 31
0.0
  0
LINE
  8
0
 62
     0
 10
6.242641
 20
2.0
 30
0.0
 11
8.507351
 21
4.264711
 31
0.0
  0
LINE
  8
0
 62
     0
 10
6.065864
 20
2.0
 30
0.0
 11
8.46152
 21
4.395656
 31
0.0
  0
LINE
  8
0
 62
     0
 10
5.889087
 20
2.0
 30
0.0
 11
8.415689
 21
4.526602
 31
0.0
  0
LINE
  8
0
 62
     0
 10
5.712311
 20
2.0
 30
0.0
 11
8.369858
 21
4.657548
 31
0.0
  0
LINE
  8
0
 62
     0
 10
5.535534
 20
2.0
 30
0.0
 11
8.324027
 21
4.788493
 31
0.0
  0
LINE
  8
0
 62
     0
 10
5.358757
 20
2.0
 30
0.0
 11
8.158757
 21
4.8
 31
0.0
  0
LINE
  8
0
 62
     0
 10
5.2
 20
2.018019
 30
0.0
 11
7.981981
 21
4.8
 31
0.0
  0
LINE
  8
0
 62
     0
 10
5.2
 20
2.194796
 30
0.0
 11
7.805204
 21
4.8
 31
0.0
  0
LINE
  8
0
 62
     0
 10
5.2
 20
2.371573
 30
0.0
 11
7.628427
 21
4.8
 31
0.0
  0
LINE
  8
0
 62
     0
 10
5.2
 20
2.54835
 30
0.0
 11
7.45165
 21
4.8
 31
0.0
  0
LINE
  8
0
 62
     0
 10
5.2
 20
2.725126
 30
0.0
 11
7.274874
 21
4.8
 31
0.0
  0
LINE
  8
0
 62
     0
 10
5.2
 20
2.901903
 30
0.0
 11
7.098097
 21
4.8
 31
0.0
  0
LINE
  8
0
 62
     0
 10
5.2
 20
3.07868
 30
0.0
 11
6.92132
 21
4.8
 31
0.0
  0
LINE
  8
0
 62
     0
 10
5.2
 20
3.255456
 30
0.0
 11
6.744544
 21
4.8
 31
0.0
  0
LINE
  8
0
 62
     0
 10
5.2
 20
3.432233
 30
0.0
 11
6.567767
 21
4.8
 31
0.0
  0
LINE
  8
0
 62
     0
 10
5.2
 20
3.60901
 30
0.0
 11
6.39099
 21
4.8
 31
0.0
  0
LINE
  8
0
 62
     0
 10
5.2
 20
3.785786
 30
0.0
 11
6.214214
 21
4.8
 31
0.0
  0
LINE
  8
0
 62
     0
 10
5.2
 20
3.962563
 30
0.0
 11
6.037437
 21
4.8
 31
0.0
  0
LINE
  8
0
 62
     0
 10
5.2
 20
4.13934
 30
0.0
 11
5.86066
 21
4.8
 31
0.0
  0
LINE
  8
0
 62
     0
 10
5.2
 20
4.316117
 30
0.0
 11
5.683883
 21
4.8
 31
0.0
  0
LINE
  8
0
 62
     0
 10
5.2
 20
4.492893
 30
0.0
 11
5.507107
 21
4.8
 31
0.0
  0
LINE
  8
0
 62
     0
 10
5.2
 20
4.66967
 30
0.0
 11
5.33033
 21
4.8
 31
0.0
  0
LINE
  8
0
 62
     0
 10
6.930485
 20
1.627185
 30
0.0
 11
8.782337
 21
3.479036
 31
0.0
  0
LINE
  8
0
 62
     0
 10
6.976316
 20
1.496239
 30
0.0
 11
8.828168
 21
3.348091
 31
0.0
  0
LINE
  8
0
 62
     0
 10
7.022147
 20
1.365293
 30
0.0
 11
8.873999
 21
3.217145
 31
0.0
  0
LINE
  8
0
 62
     0
 10
7.067978
 20
1.234347
 30
0.0
 11
8.91983
 21
3.086199
 31
0.0
  0
LINE
  8
0
 62
     0
 10
7.113809
 20
1.103402
 30
0.0
 11
8.965661
 21
2.955254
 31
0.0
  0
LINE
  8
0
 62
     0
 10
7.15964
 20
0.972456
 30
0.0
 11
9.011492
 21
2.824308
 31
0.0
  0
LINE
  8
0
 62
     0
 10
7.205471
 20
0.84151
 30
0.0
 11
9.057323
 21
2.693362
 31
0.0
  0
LINE
  8
0
 62
     0
 10
7.251302
 20
0.710565
 30
0.0
 11
9.103154
 21
2.562416
 31
0.0
  0
LINE
  8
0
 62
     0
 10
7.297133
 20
0.579619
 30
0.0
 11
9.148985
 21
2.431471
 31
0.0
  0
LINE
  8
0
 62
     0
 10
7.342964
 20
0.448673
 30
0.0
 11
9.194816
 21
2.300525
 31
0.0
  0
LINE
  8
0
 62
     0
 10
7.388795
 20
0.317728
 30
0.0
 11
9.240647
 21
2.169579
 31
0.0
  0
LINE
  8
0
 62
     0
 10
7.434626
 20
0.186782
 30
0.0
 11
9.286478
 21
2.038634
 31
0.0
  0
LINE
  8
0
 62
     0
 10
7.480457
 20
0.055836
 30
0.0
 11
9.332309
 21
1.907688
 31
0.0
  0
LINE
  8
0
 62
     0
 10
7.601398
 20
0.0
 30
0.0
 11
9.37814
 21
1.776742
 31
0.0
  0
LINE
  8
0
 62
     0
 10
7.778175
 20
0.0
 30
0.0
 11
9.423971
 21
1.645797
 31
0.0
  0
LINE
  8
0
 62
     0
 10
7.954951
 20
0.0
 30
0.0
 11
9.469802
 21
1.514851
 31
0.0
  0
LINE
  8
0
 62
     0
 10
8.131728
 20
0.0
 30
0.0
 11
9.515633
 21
1.383905
 31
0.0
  0
LINE
  8
0
 62
     0
 10
8.308505
 20
0.0
 30
0.0
 11
9.561464
 21
1.252959
 31
0.0
  0
LINE
  8
0
 62
     0
 10
8.485281
 20
0.0
 30
0.0
 11
9.607295
 21
1.122014
 31
0.0
  0
LINE
  8
0
 62
     0
 10
8.662058
 20
0.0
 30
0.0
 11
9.653126
 21
0.991068
 31
0.0
  0
LINE
  8
0
 62
     0
 10
8.838835
 20
0.0
 30
0.0
 11
9.698957
 21
0.860122
 31
0.0
  0
LINE
  8
0
 62
     0
 10
9.015611
 20
0.0
 30
0.0
 11
9.744788
 21
0.729177
 31
0.0
  0
LINE
  8
0
 62
     0
 10
9.192388
 20
0.0
 30
0.0
 11
9.790619
 21
0.598231
 31
0.0
  0
LINE
  8
0
 62
     0
 10
9.369165
 20
0.0
 30
0.0
 11
9.83645
 21
0.467285
 31
0.0
  0
LINE
  8
0
 62
     0
 10
9.545942
 20
0.0
 30
0.0
 11
9.882281
 21
0.33634
 31
0.0
  0
LINE
  8
0
 62
     0
 10
9.722718
 20
0.0
 30
0.0
 11
9.928112
 21
0.205394
 31
0.0
  0
LINE
  8
0
 62
     0
 10
9.899495
 20
0.0
 30
0.0
 11
9.973943
 21
0.074448
 31
0.0
  0
ENDBLK
  8
0
  0
BLOCK
  8
0
  2
*X10
 70
    65
 10
0.0
 20
0.0
 30
0.0
  3
*X
  0
LINE
  8
0
 62
     0
 10
10.7
 20
6.280583
 30
0.0
 11
13.5
 21
9.080583
 31
0.0
  0
LINE
  8
0
 62
     0
 10
10.7
 20
6.457359
 30
0.0
 11
13.5
 21
9.257359
 31
0.0
  0
LINE
  8
0
 62
     0
 10
10.7
 20
6.634136
 30
0.0
 11
13.5
 21
9.434136
 31
0.0
  0
LINE
  8
0
 62
     0
 10
10.7
 20
6.810913
 30
0.0
 11
13.5
 21
9.610913
 31
0.0
  0
LINE
  8
0
 62
     0
 10
10.7
 20
6.987689
 30
0.0
 11
13.5
 21
9.787689
 31
0.0
  0
LINE
  8
0
 62
     0
 10
10.7
 20
7.164466
 30
0.0
 11
13.5
 21
9.964466
 31
0.0
  0
LINE
  8
0
 62
     0
 10
10.7
 20
7.341243
 30
0.0
 11
13.358757
 21
10.0
 31
0.0
  0
LINE
  8
0
 62
     0
 10
10.7
 20
7.518019
 30
0.0
 11
13.181981
 21
10.0
 31
0.0
  0
LINE
  8
0
 62
     0
 10
10.7
 20
7.694796
 30
0.0
 11
13.005204
 21
10.0
 31
0.0
  0
LINE
  8
0
 62
     0
 10
10.7
 20
7.871573
 30
0.0
 11
12.828427
 21
10.0
 31
0.0
  0
LINE
  8
0
 62
     0
 10
10.7
 20
8.04835
 30
0.0
 11
12.65165
 21
10.0
 31
0.0
  0
LINE
  8
0
 62
     0
 10
10.7
 20
8.225126
 30
0.0
 11
12.474874
 21
10.0
 31
0.0
  0
LINE
  8
0
 62
     0
 10
10.7
 20
8.401903
 30
0.0
 11
12.298097
 21
10.0
 31
0.0
  0
LINE
  8
0
 62
     0
 10
10.7
 20
8.57868
 30
0.0
 11
12.12132
 21
10.0
 31
0.0
  0
LINE
  8
0
 62
     0
 10
10.7
 20
8.755456
 30
0.0
 11
11.944544
 21
10.0
 31
0.0
  0
LINE
  8
0
 62
     0
 10
10.7
 20
8.932233
 30
0.0
 11
11.767767
 21
10.0
 31
0.0
  0
LINE
  8
0
 62
     0
 10
10.7
 20
9.10901
 30
0.0
 11
11.59099
 21
10.0
 31
0.0
  0
LINE
  8
0
 62
     0
 10
10.7
 20
9.285786
 30
0.0
 11
11.414214
 21
10.0
 31
0.0
  0
LINE
  8
0
 62
     0
 10
10.7
 20
9.462563
 30
0.0
 11
11.237437
 21
10.0
 31
0.0
  0
LINE
  8
0
 62
     0
 10
10.7
 20
9.63934
 30
0.0
 11
11.06066
 21
10.0
 31
0.0
  0
LINE
  8
0
 62
     0
 10
10.7
 20
9.816117
 30
0.0
 11
10.883883
 21
10.0
 31
0.0
  0
LINE
  8
0
 62
     0
 10
10.7
 20
9.992893
 30
0.0
 11
10.707107
 21
10.0
 31
0.0
  0
LINE
  8
0
 62
     0
 10
10.7
 20
6.103806
 30
0.0
 11
13.5
 21
8.903806
 31
0.0
  0
LINE
  8
0
 62
     0
 10
10.7
 20
5.927029
 30
0.0
 11
13.5
 21
8.727029
 31
0.0
  0
LINE
  8
0
 62
     0
 10
10.7
 20
5.750253
 30
0.0
 11
13.5
 21
8.550253
 31
0.0
  0
LINE
  8
0
 62
     0
 10
10.7
 20
5.573476
 30
0.0
 11
13.5
 21
8.373476
 31
0.0
  0
LINE
  8
0
 62
     0
 10
10.7
 20
5.396699
 30
0.0
 11
13.5
 21
8.196699
 31
0.0
  0
LINE
  8
0
 62
     0
 10
10.7
 20
5.219922
 30
0.0
 11
13.5
 21
8.019922
 31
0.0
  0
LINE
  8
0
 62
     0
 10
10.856854
 20
5.2
 30
0.0
 11
13.5
 21
7.843146
 31
0.0
  0
LINE
  8
0
 62
     0
 10
11.033631
 20
5.2
 30
0.0
 11
13.5
 21
7.666369
 31
0.0
  0
LINE
  8
0
 62
     0
 10
11.210408
 20
5.2
 30
0.0
 11
13.5
 21
7.489592
 31
0.0
  0
LINE
  8
0
 62
     0
 10
11.387184
 20
5.2
 30
0.0
 11
13.5
 21
7.312816
 31
0.0
  0
LINE
  8
0
 62
     0
 10
11.563961
 20
5.2
 30
0.0
 11
13.5
 21
7.136039
 31
0.0
  0
LINE
  8
0
 62
     0
 10
11.740738
 20
5.2
 30
0.0
 11
13.5
 21
6.959262
 31
0.0
  0
LINE
  8
0
 62
     0
 10
11.917514
 20
5.2
 30
0.0
 11
13.5
 21
6.782486
 31
0.0
  0
LINE
  8
0
 62
     0
 10
12.094291
 20
5.2
 30
0.0
 11
13.5
 21
6.605709
 31
0.0
  0
LINE
  8
0
 62
     0
 10
12.271068
 20
5.2
 30
0.0
 11
13.5
 21
6.428932
 31
0.0
  0
LINE
  8
0
 62
     0
 10
12.447845
 20
5.2
 30
0.0
 11
13.5
 21
6.252155
 31
0.0
  0
LINE
  8
0
 62
     0
 10
12.624621
 20
5.2
 30
0.0
 11
13.5
 21
6.075379
 31
0.0
  0
LINE
  8
0
 62
     0
 10
12.801398
 20
5.2
 30
0.0
 11
13.5
 21
5.898602
 31
0.0
  0
LINE
  8
0
 62
     0
 10
12.978175
 20
5.2
 30
0.0
 11
13.5
 21
5.721825
 31
0.0
  0
LINE
  8
0
 62
     0
 10
13.154951
 20
5.2
 30
0.0
 11
13.5
 21
5.545049
 31
0.0
  0
LINE
  8
0
 62
     0
 10
13.331728
 20
5.2
 30
0.0
 11
13.5
 21
5.368272
 31
0.0
  0
ENDBLK
  8
0
  0
BLOCK
  8
0
  2
*X11
 70
    65
 10
0.0
 20
0.0
 30
0.0
  3
*X
  0
LINE
  8
0
 62
     0
 10
10.7
 20
1.154058
 30
0.0
 11
13.5
 21
3.954058
 31
0.0
  0
LINE
  8
0
 62
     0
 10
10.7
 20
1.330835
 30
0.0
 11
13.5
 21
4.130835
 31
0.0
  0
LINE
  8
0
 62
     0
 10
10.7
 20
1.507612
 30
0.0
 11
13.5
 21
4.307612
 31
0.0
  0
LINE
  8
0
 62
     0
 10
10.7
 20
1.684389
 30
0.0
 11
13.5
 21
4.484389
 31
0.0
  0
LINE
  8
0
 62
     0
 10
10.7
 20
1.861165
 30
0.0
 11
13.5
 21
4.661165
 31
0.0
  0
LINE
  8
0
 62
     0
 10
10.7
 20
2.037942
 30
0.0
 11
13.462058
 21
4.8
 31
0.0
  0
LINE
  8
0
 62
     0
 10
10.7
 20
2.214719
 30
0.0
 11
13.285281
 21
4.8
 31
0.0
  0
LINE
  8
0
 62
     0
 10
10.7
 20
2.391495
 30
0.0
 11
13.108505
 21
4.8
 31
0.0
  0
LINE
  8
0
 62
     0
 10
10.7
 20
2.568272
 30
0.0
 11
12.931728
 21
4.8
 31
0.0
  0
LINE
  8
0
 62
     0
 10
10.7
 20
2.745049
 30
0.0
 11
12.754951
 21
4.8
 31
0.0
  0
LINE
  8
0
 62
     0
 10
10.7
 20
2.921825
 30
0.0
 11
12.578175
 21
4.8
 31
0.0
  0
LINE
  8
0
 62
     0
 10
10.7
 20
3.098602
 30
0.0
 11
12.401398
 21
4.8
 31
0.0
  0
LINE
  8
0
 62
     0
 10
10.7
 20
3.275379
 30
0.0
 11
12.224621
 21
4.8
 31
0.0
  0
LINE
  8
0
 62
     0
 10
10.7
 20
3.452155
 30
0.0
 11
12.047845
 21
4.8
 31
0.0
  0
LINE
  8
0
 62
     0
 10
10.7
 20
3.628932
 30
0.0
 11
11.871068
 21
4.8
 31
0.0
  0
LINE
  8
0
 62
     0
 10
10.7
 20
3.805709
 30
0.0
 11
11.694291
 21
4.8
 31
0.0
  0
LINE
  8
0
 62
     0
 10
10.7
 20
3.982486
 30
0.0
 11
11.517514
 21
4.8
 31
0.0
  0
LINE
  8
0
 62
     0
 10
10.7
 20
4.159262
 30
0.0
 11
11.340738
 21
4.8
 31
0.0
  0
LINE
  8
0
 62
     0
 10
10.7
 20
4.336039
 30
0.0
 11
11.163961
 21
4.8
 31
0.0
  0
LINE
  8
0
 62
     0
 10
10.7
 20
4.512816
 30
0.0
 11
10.987184
 21
4.8
 31
0.0
  0
LINE
  8
0
 62
     0
 10
10.7
 20
4.689592
 30
0.0
 11
10.810408
 21
4.8
 31
0.0
  0
LINE
  8
0
 62
     0
 10
10.7
 20
0.977282
 30
0.0
 11
13.5
 21
3.777282
 31
0.0
  0
LINE
  8
0
 62
     0
 10
10.7
 20
0.800505
 30
0.0
 11
13.5
 21
3.600505
 31
0.0
  0
LINE
  8
0
 62
     0
 10
10.7
 20
0.623728
 30
0.0
 11
13.5
 21
3.423728
 31
0.0
  0
LINE
  8
0
 62
     0
 10
10.7
 20
0.446952
 30
0.0
 11
13.5
 21
3.246952
 31
0.0
  0
LINE
  8
0
 62
     0
 10
10.7
 20
0.270175
 30
0.0
 11
13.5
 21
3.070175
 31
0.0
  0
LINE
  8
0
 62
     0
 10
10.7
 20
0.093398
 30
0.0
 11
13.5
 21
2.893398
 31
0.0
  0
LINE
  8
0
 62
     0
 10
10.783378
 20
0.0
 30
0.0
 11
13.5
 21
2.716622
 31
0.0
  0
LINE
  8
0
 62
     0
 10
10.960155
 20
0.0
 30
0.0
 11
13.5
 21
2.539845
 31
0.0
  0
LINE
  8
0
 62
     0
 10
11.136932
 20
0.0
 30
0.0
 11
13.5
 21
2.363068
 31
0.0
  0
LINE
  8
0
 62
     0
 10
11.313708
 20
0.0
 30
0.0
 11
13.5
 21
2.186292
 31
0.0
  0
LINE
  8
0
 62
     0
 10
11.490485
 20
0.0
 30
0.0
 11
13.5
 21
2.009515
 31
0.0
  0
LINE
  8
0
 62
     0
 10
11.667262
 20
0.0
 30
0.0
 11
13.5
 21
1.832738
 31
0.0
  0
LINE
  8
0
 62
     0
 10
11.844039
 20
0.0
 30
0.0
 11
13.5
 21
1.655961
 31
0.0
  0
LINE
  8
0
 62
     0
 10
12.020815
 20
0.0
 30
0.0
 11
13.5
 21
1.479185
 31
0.0
  0
LINE
  8
0
 62
     0
 10
12.197592
 20
0.0
 30
0.0
 11
13.5
 21
1.302408
 31
0.0
  0
LINE
  8
0
 62
     0
 10
12.374369
 20
0.0
 30
0.0
 11
13.5
 21
1.125631
 31
0.0
  0
LINE
  8
0
 62
     0
 10
12.551145
 20
0.0
 30
0.0
 11
13.5
 21
0.948855
 31
0.0
  0
LINE
  8
0
 62
     0
 10
12.727922
 20
0.0
 30
0.0
 11
13.5
 21
0.772078
 31
0.0
  0
LINE
  8
0
 62
     0
 10
12.904699
 20
0.0
 30
0.0
 11
13.5
 21
0.595301
 31
0.0
  0
LINE
  8
0
 62
     0
 10
13.081475
 20
0.0
 30
0.0
 11
13.5
 21
0.418525
 31
0.0
  0
LINE
  8
0
 62
     0
 10
13.258252
 20
0.0
 30
0.0
 11
13.5
 21
0.241748
 31
0.0
  0
LINE
  8
0
 62
     0
 10
13.435029
 20
0.0
 30
0.0
 11
13.5
 21
0.064971
 31
0.0
  0
ENDBLK
  8
0
  0
BLOCK
  8
0
  2
*X12
 70
    65
 10
0.0
 20
0.0
 30
0.0
  3
*X
  0
LINE
  8
0
 62
     0
 10
13.9
 20
6.298602
 30
0.0
 11
16.582995
 21
8.981597
 31
0.0
  0
LINE
  8
0
 62
     0
 10
13.9
 20
6.475379
 30
0.0
 11
16.510503
 21
9.085882
 31
0.0
  0
LINE
  8
0
 62
     0
 10
13.9
 20
6.652155
 30
0.0
 11
16.432927
 21
9.185083
 31
0.0
  0
LINE
  8
0
 62
     0
 10
13.9
 20
6.828932
 30
0.0
 11
16.350372
 21
9.279304
 31
0.0
  0
LINE
  8
0
 62
     0
 10
13.9
 20
7.005709
 30
0.0
 11
16.262892
 21
9.368601
 31
0.0
  0
LINE
  8
0
 62
     0
 10
13.9
 20
7.182486
 30
0.0
 11
16.170495
 21
9.452981
 31
0.0
  0
LINE
  8
0
 62
     0
 10
13.9
 20
7.359262
 30
0.0
 11
16.073145
 21
9.532407
 31
0.0
  0
LINE
  8
0
 62
     0
 10
13.9
 20
7.536039
 30
0.0
 11
15.970755
 21
9.606794
 31
0.0
  0
LINE
  8
0
 62
     0
 10
13.9
 20
7.712816
 30
0.0
 11
15.863189
 21
9.676004
 31
0.0
  0
LINE
  8
0
 62
     0
 10
13.9
 20
7.889592
 30
0.0
 11
15.75025
 21
9.739843
 31
0.0
  0
LINE
  8
0
 62
     0
 10
13.9
 20
8.066369
 30
0.0
 11
15.631675
 21
9.798044
 31
0.0
  0
LINE
  8
0
 62
     0
 10
13.9
 20
8.243146
 30
0.0
 11
15.50711
 21
9.850256
 31
0.0
  0
LINE
  8
0
 62
     0
 10
13.9
 20
8.419922
 30
0.0
 11
15.376096
 21
9.896018
 31
0.0
  0
LINE
  8
0
 62
     0
 10
13.9
 20
8.596699
 30
0.0
 11
15.238027
 21
9.934726
 31
0.0
  0
LINE
  8
0
 62
     0
 10
13.9
 20
8.773476
 30
0.0
 11
15.092096
 21
9.965572
 31
0.0
  0
LINE
  8
0
 62
     0
 10
13.9
 20
8.950253
 30
0.0
 11
14.937209
 21
9.987461
 31
0.0
  0
LINE
  8
0
 62
     0
 10
13.9
 20
9.127029
 30
0.0
 11
14.771824
 21
9.998853
 31
0.0
  0
LINE
  8
0
 62
     0
 10
13.9
 20
9.303806
 30
0.0
 11
14.596193
 21
9.999999
 31
0.0
  0
LINE
  8
0
 62
     0
 10
13.9
 20
9.480583
 30
0.0
 11
14.419417
 21
9.999999
 31
0.0
  0
LINE
  8
0
 62
     0
 10
13.9
 20
9.657359
 30
0.0
 11
14.24264
 21
10.0
 31
0.0
  0
LINE
  8
0
 62
     0
 10
13.9
 20
9.834136
 30
0.0
 11
14.065864
 21
10.0
 31
0.0
  0
LINE
  8
0
 62
     0
 10
13.9
 20
6.121825
 30
0.0
 11
16.650245
 21
8.872071
 31
0.0
  0
LINE
  8
0
 62
     0
 10
13.9
 20
5.945049
 30
0.0
 11
16.712035
 21
8.757083
 31
0.0
  0
LINE
  8
0
 62
     0
 10
13.9
 20
5.768272
 30
0.0
 11
16.768067
 21
8.636339
 31
0.0
  0
LINE
  8
0
 62
     0
 10
13.9
 20
5.591495
 30
0.0
 11
16.817955
 21
8.509451
 31
0.0
  0
LINE
  8
0
 62
     0
 10
13.9
 20
5.414719
 30
0.0
 11
16.861189
 21
8.375908
 31
0.0
  0
LINE
  8
0
 62
     0
 10
13.9
 20
5.237942
 30
0.0
 11
16.897097
 21
8.235039
 31
0.0
  0
LINE
  8
0
 62
     0
 10
14.038835
 20
5.2
 30
0.0
 11
16.924779
 21
8.085944
 31
0.0
  0
LINE
  8
0
 62
     0
 10
14.215611
 20
5.2
 30
0.0
 11
16.942997
 21
7.927385
 31
0.0
  0
LINE
  8
0
 62
     0
 10
14.392388
 20
5.2
 30
0.0
 11
16.949987
 21
7.757599
 31
0.0
  0
LINE
  8
0
 62
     0
 10
14.569165
 20
5.2
 30
0.0
 11
16.943101
 21
7.573936
 31
0.0
  0
LINE
  8
0
 62
     0
 10
14.745942
 20
5.2
 30
0.0
 11
16.918037
 21
7.372095
 31
0.0
  0
LINE
  8
0
 62
     0
 10
14.922718
 20
5.2
 30
0.0
 11
16.866909
 21
7.144191
 31
0.0
  0
LINE
  8
0
 62
     0
 10
15.099495
 20
5.2
 30
0.0
 11
16.771715
 21
6.87222
 31
0.0
  0
LINE
  8
0
 62
     0
 10
15.276272
 20
5.2
 30
0.0
 11
15.847951
 21
5.77168
 31
0.0
  0
LINE
  8
0
 62
     0
 10
15.96673
 20
5.890458
 30
0.0
 11
16.559542
 21
6.48327
 31
0.0
  0
LINE
  8
0
 62
     0
 10
15.453048
 20
5.2
 30
0.0
 11
15.970661
 21
5.717613
 31
0.0
  0
LINE
  8
0
 62
     0
 10
15.629825
 20
5.2
 30
0.0
 11
16.088934
 21
5.659109
 31
0.0
  0
LINE
  8
0
 62
     0
 10
15.806602
 20
5.2
 30
0.0
 11
16.202964
 21
5.596363
 31
0.0
  0
LINE
  8
0
 62
     0
 10
15.983378
 20
5.2
 30
0.0
 11
16.312909
 21
5.529531
 31
0.0
  0
LINE
  8
0
 62
     0
 10
16.160155
 20
5.2
 30
0.0
 11
16.418895
 21
5.45874
 31
0.0
  0
LINE
  8
0
 62
     0
 10
16.336932
 20
5.2
 30
0.0
 11
16.521021
 21
5.384089
 31
0.0
  0
LINE
  8
0
 62
     0
 10
16.513708
 20
5.2
 30
0.0
 11
16.619363
 21
5.305655
 31
0.0
  0
LINE
  8
0
 62
     0
 10
16.690485
 20
5.2
 30
0.0
 11
16.713975
 21
5.22349
 31
0.0
  0
ENDBLK
  8
0
  0
BLOCK
  8
0
  2
*X13
 70
    65
 10
0.0
 20
0.0
 30
0.0
  3
*X
  0
LINE
  8
0
 62
     0
 10
13.9
 20
0.818525
 30
0.0
 11
17.39645
 21
4.314974
 31
0.0
  0
LINE
  8
0
 62
     0
 10
13.9
 20
0.995301
 30
0.0
 11
17.336354
 21
4.431655
 31
0.0
  0
LINE
  8
0
 62
     0
 10
13.9
 20
1.172078
 30
0.0
 11
17.272078
 21
4.544156
 31
0.0
  0
LINE
  8
0
 62
     0
 10
13.9
 20
1.348855
 30
0.0
 11
17.203766
 21
4.652621
 31
0.0
  0
LINE
  8
0
 62
     0
 10
13.9
 20
1.525631
 30
0.0
 11
17.131535
 21
4.757167
 31
0.0
  0
LINE
  8
0
 62
     0
 10
13.9
 20
1.702408
 30
0.0
 11
16.997592
 21
4.8
 31
0.0
  0
LINE
  8
0
 62
     0
 10
13.9
 20
1.879185
 30
0.0
 11
16.820815
 21
4.8
 31
0.0
  0
LINE
  8
0
 62
     0
 10
13.9
 20
2.055961
 30
0.0
 11
16.644039
 21
4.8
 31
0.0
  0
LINE
  8
0
 62
     0
 10
13.9
 20
2.232738
 30
0.0
 11
16.467262
 21
4.8
 31
0.0
  0
LINE
  8
0
 62
     0
 10
13.9
 20
2.409515
 30
0.0
 11
16.290485
 21
4.8
 31
0.0
  0
LINE
  8
0
 62
     0
 10
13.9
 20
2.586292
 30
0.0
 11
16.113708
 21
4.8
 31
0.0
  0
LINE
  8
0
 62
     0
 10
13.9
 20
2.763068
 30
0.0
 11
15.936932
 21
4.8
 31
0.0
  0
LINE
  8
0
 62
     0
 10
13.9
 20
2.939845
 30
0.0
 11
15.760155
 21
4.8
 31
0.0
  0
LINE
  8
0
 62
     0
 10
13.9
 20
3.116622
 30
0.0
 11
15.583378
 21
4.8
 31
0.0
  0
LINE
  8
0
 62
     0
 10
13.9
 20
3.293398
 30
0.0
 11
15.406602
 21
4.8
 31
0.0
  0
LINE
  8
0
 62
     0
 10
13.9
 20
3.470175
 30
0.0
 11
15.229825
 21
4.8
 31
0.0
  0
LINE
  8
0
 62
     0
 10
13.9
 20
3.646952
 30
0.0
 11
15.053048
 21
4.8
 31
0.0
  0
LINE
  8
0
 62
     0
 10
13.9
 20
3.823728
 30
0.0
 11
14.876272
 21
4.8
 31
0.0
  0
LINE
  8
0
 62
     0
 10
13.9
 20
4.000505
 30
0.0
 11
14.699495
 21
4.8
 31
0.0
  0
LINE
  8
0
 62
     0
 10
13.9
 20
4.177282
 30
0.0
 11
14.522718
 21
4.8
 31
0.0
  0
LINE
  8
0
 62
     0
 10
13.9
 20
4.354058
 30
0.0
 11
14.345942
 21
4.8
 31
0.0
  0
LINE
  8
0
 62
     0
 10
13.9
 20
4.530835
 30
0.0
 11
14.169165
 21
4.8
 31
0.0
  0
LINE
  8
0
 62
     0
 10
13.9
 20
4.707612
 30
0.0
 11
13.992388
 21
4.8
 31
0.0
  0
LINE
  8
0
 62
     0
 10
13.9
 20
0.641748
 30
0.0
 11
17.452185
 21
4.193933
 31
0.0
  0
LINE
  8
0
 62
     0
 10
13.9
 20
0.464971
 30
0.0
 11
17.503339
 21
4.068311
 31
0.0
  0
LINE
  8
0
 62
     0
 10
13.9
 20
0.288194
 30
0.0
 11
17.549642
 21
3.937837
 31
0.0
  0
LINE
  8
0
 62
     0
 10
13.9
 20
0.111418
 30
0.0
 11
17.590762
 21
3.80218
 31
0.0
  0
LINE
  8
0
 62
     0
 10
13.965359
 20
0.0
 30
0.0
 11
17.62629
 21
3.660931
 31
0.0
  0
LINE
  8
0
 62
     0
 10
14.142136
 20
0.000001
 30
0.0
 11
17.655713
 21
3.513577
 31
0.0
  0
LINE
  8
0
 62
     0
 10
14.318913
 20
0.000001
 30
0.0
 11
17.678385
 21
3.359473
 31
0.0
  0
LINE
  8
0
 62
     0
 10
14.49569
 20
0.000001
 30
0.0
 11
17.693473
 21
3.197784
 31
0.0
  0
LINE
  8
0
 62
     0
 10
14.672467
 20
0.000002
 30
0.0
 11
17.699875
 21
3.027409
 31
0.0
  0
LINE
  8
0
 62
     0
 10
14.853154
 20
0.003912
 30
0.0
 11
17.696088
 21
2.846846
 31
0.0
  0
LINE
  8
0
 62
     0
 10
15.046044
 20
0.020025
 30
0.0
 11
17.679975
 21
2.653956
 31
0.0
  0
LINE
  8
0
 62
     0
 10
15.254483
 20
0.051687
 30
0.0
 11
17.648313
 21
2.445517
 31
0.0
  0
LINE
  8
0
 62
     0
 10
15.483762
 20
0.10419
 30
0.0
 11
17.59581
 21
2.216238
 31
0.0
  0
LINE
  8
0
 62
     0
 10
15.743786
 20
0.187437
 30
0.0
 11
17.512563
 21
1.956214
 31
0.0
  0
LINE
  8
0
 62
     0
 10
16.058176
 20
0.32505
 30
0.0
 11
17.37495
 21
1.641824
 31
0.0
  0
LINE
  8
0
 62
     0
 10
16.54193
 20
0.632028
 30
0.0
 11
17.067972
 21
1.15807
 31
0.0
  0
ENDBLK
  8
0
  0
BLOCK
  8
0
  2
B157
 70
     0
 10
0.0
 20
0.0
 30
0.0
  3
B157
  0
TEXT
  8
0
  6
CONTINUOUS
 10
0.825099
 20
-22.5
 30
0.0
 40
1.8
  1
265,9 mm
 50
90.0
  7
GREEKS
  0
TEXT
  8
0
  6
CONTINUOUS
 10
10.0
 20
-1.032192
 30
0.0
 40
1.8
  1
269,2 mm
  7
GREEKS
  0
TEXT
  8
0
  6
CONTINUOUS
 10
7.5
 20
-30.942078
 30
0.0
 40
2.0
  1
SPAC 634 C 
  7
GREEKS
  0
LINE
  8
0
  6
CONTINUOUS
 10
2.5
 20
-27.5
 30
0.0
 11
2.5
 21
-2.5
 31
0.0
  0
LINE
  8
0
  6
CONTINUOUS
 10
32.5
 20
-27.5
 30
0.0
 11
2.5
 21
-27.5
 31
0.0
  0
LINE
  8
0
  6
CONTINUOUS
 10
32.5
 20
-2.5
 30
0.0
 11
32.5
 21
-27.5
 31
0.0
  0
LINE
  8
0
  6
CONTINUOUS
 10
2.5
 20
-2.5
 30
0.0
 11
32.5
 21
-2.5
 31
0.0
  0
ENDBLK
  8
0
  0
BLOCK
  8
0
  2
MAA
 70
    64
 10
0.0
 20
0.0
 30
0.0
  3
MAA
  0
LINE
  8
0
  6
CONTINUOUS
 10
-0.500718
 20
-2.587966
 30
0.0
 11
0.386169
 21
-2.587966
 31
0.0
  0
LINE
  8
0
  6
CONTINUOUS
 10
-0.831823
 20
-1.976333
 30
0.0
 11
0.752749
 21
-1.976333
 31
0.0
  0
LINE
  8
0
  6
CONTINUOUS
 10
-0.015887
 20
-1.35427
 30
0.0
 11
1.178454
 21
-1.35427
 31
0.0
  0
LINE
  8
0
  6
CONTINUOUS
 10
-1.210228
 20
-1.35427
 30
0.0
 11
-0.015887
 21
-1.35427
 31
0.0
  0
LINE
  8
0
  6
CONTINUOUS
 10
0.0
 20
0.0
 30
0.0
 11
0.0
 21
-1.35427
 31
0.0
  0
ENDBLK
  8
0
  0
ENDSEC
  0
SECTION
  2
ENTITIES
  0
INSERT
  8
0
  2
1
 10
65.405438
 20
98.713066
 30
0.0
  0
INSERT
  8
0
  2
1
 10
72.541652
 20
49.71056
 30
0.0
  0
INSERT
  8
0
  2
1
 10
85.390443
 20
73.497234
 30
0.0
  0
LINE
  8
0
  6
CENTER
 62
     7
 10
250.0
 20
195.0
 30
0.0
 11
250.0
 21
87.5
 31
0.0
  0
LINE
  8
0
  6
CENTER
 62
     7
 10
250.0
 20
87.5
 30
0.0
 11
250.0
 21
57.5
 31
0.0
  0
LINE
  8
0
  6
CONTINUOUS
 62
     7
 10
210.450615
 20
187.209828
 30
0.0
 11
210.450615
 21
130.0
 31
0.0
  0
LINE
  8
0
  6
CONTINUOUS
 62
     7
 10
210.450615
 20
215.0
 30
0.0
 11
210.450615
 21
187.18832
 31
0.0
  0
LINE
  8
0
  6
CENTER
 62
     7
 10
250.0
 20
217.5
 30
0.0
 11
250.0
 21
195.0
 31
0.0
  0
LINE
  8
0
  6
CONTINUOUS
 62
     7
 10
180.0
 20
130.0
 30
0.0
 11
210.450615
 21
130.0
 31
0.0
  0
LINE
  8
0
  6
CONTINUOUS
 62
     7
 10
200.0
 20
130.0
 30
0.0
 11
200.0
 21
215.0
 31
0.0
  0
LINE
  8
0
  6
CONTINUOUS
 62
     7
 10
180.0
 20
200.0
 30
0.0
 11
180.0
 21
185.0
 31
0.0
  0
LINE
  8
0
  6
CONTINUOUS
 62
     7
 10
180.0
 20
200.0
 30
0.0
 11
180.0
 21
215.0
 31
0.0
  0
LINE
  8
0
  6
CONTINUOUS
 62
     7
 10
180.0
 20
185.0
 30
0.0
 11
180.0
 21
130.0
 31
0.0
  0
LINE
  8
0
  6
CENTER
 62
     7
 10
40.0
 20
242.5
 30
0.0
 11
40.0
 21
57.5
 31
0.0
  0
LINE
  8
0
  6
CONTINUOUS
 62
     7
 10
70.0
 20
122.5
 30
0.0
 11
40.0
 21
122.5
 31
0.0
  0
LINE
  8
0
  6
DASHED
 62
     7
 10
55.0
 20
137.5
 30
0.0
 11
55.0
 21
131.100824
 31
0.0
  0
LINE
  8
0
  6
DASHED
 62
     7
 10
72.5
 20
135.0
 30
0.0
 11
72.5
 21
121.100824
 31
0.0
  0
LINE
  8
0
  6
DASHED
 62
     7
 10
85.0
 20
135.0
 30
0.0
 11
85.0
 21
106.100824
 31
0.0
  0
LINE
  8
0
  6
DASHED
 62
     7
 10
97.5
 20
135.0
 30
0.0
 11
97.5
 21
91.100824
 31
0.0
  0
LINE
  8
0
  6
DASHED
 62
     7
 10
107.5
 20
112.5
 30
0.0
 11
107.5
 21
76.100824
 31
0.0
  0
TEXT
  8
0
  6
DASHED
 62
     7
 10
50.697373
 20
133.403492
 30
0.0
 40
2.0
  1
A
  7
ROMANS
  0
TEXT
  8
0
  6
DASHED
 62
     7
 10
69.143373
 20
123.774588
 30
0.0
 40
2.0
  1
B
  7
ROMANS
  0
TEXT
  8
0
  6
DASHED
 62
     7
 10
81.055109
 20
108.134364
 30
0.0
 40
2.0
  1
C
  7
ROMANS
  0
TEXT
  8
0
  6
DASHED
 62
     7
 10
93.484014
 20
93.255752
 30
0.0
 40
2.0
  1
D
  7
ROMANS
  0
TEXT
  8
0
  6
DASHED
 62
     7
 10
103.171573
 20
78.364654
 30
0.0
 40
2.0
  1
E
  7
ROMANS
  0
LINE
  8
0
  6
CENTER
 62
     7
 10
40.0
 20
57.5
 30
0.0
 11
250.0
 21
57.5
 31
0.0
  0
LINE
  8
0
  6
CONTINUOUS
 62
     7
 10
230.0
 20
167.5
 30
0.0
 11
231.0
 21
166.5
 31
0.0
  0
LINE
  8
0
  6
CONTINUOUS
 62
     7
 10
230.0
 20
212.5
 30
0.0
 11
231.0
 21
213.5
 31
0.0
  0
LINE
  8
0
  6
CONTINUOUS
 62
     7
 10
230.0
 20
212.5
 30
0.0
 11
230.0
 21
167.5
 31
0.0
  0
LINE
  8
0
  6
CENTER
 62
     7
 10
250.0
 20
217.5
 30
0.0
 11
250.0
 21
242.5
 31
0.0
  0
LINE
  8
0
  6
CENTER
 62
     7
 10
250.0
 20
242.5
 30
0.0
 11
40.0
 21
242.5
 31
0.0
  0
LINE
  8
0
  6
CONTINUOUS
 62
     7
 10
25.0
 20
107.5
 30
0.0
 11
25.0
 21
97.499655
 31
0.0
  0
LINE
  8
0
  6
CONTINUOUS
 62
     7
 10
25.0
 20
107.5
 30
0.0
 11
26.0
 21
108.5
 31
0.0
  0
LINE
  8
0
  6
CONTINUOUS
 62
     7
 10
25.0
 20
97.499655
 30
0.0
 11
26.0
 21
96.499655
 31
0.0
  0
TEXT
  8
0
  6
CONTINUOUS
 62
     7
 10
20.0
 20
131.534374
 30
0.0
 40
2.0
  1
3)
  7
ROMANS
  0
LINE
  8
0
  6
CONTINUOUS
 62
     7
 10
180.0
 20
155.0
 30
0.0
 11
210.450615
 21
155.0
 31
0.0
  0
TEXT
  8
0
 62
     7
 10
345.447956
 20
88.338465
 30
0.0
 40
2.0
  1
TERMINALS / UTTAG
  7
ROMANS
 11
345.447956
 21
87.671798
 31
0.0
 73
     1
  0
LINE
  8
0
 62
     7
 10
353.50882
 20
58.564865
 30
0.0
 11
383.50882
 21
58.564865
 31
0.0
  0
LINE
  8
0
 62
     7
 10
368.62649
 20
87.671798
 30
0.0
 11
368.62649
 21
44.019587
 31
0.0
  0
LINE
  8
0
 62
     7
 10
353.50882
 20
87.671798
 30
0.0
 11
353.50882
 21
44.019587
 31
0.0
  0
LINE
  8
0
 62
     7
 10
339.50882
 20
87.671798
 30
0.0
 11
383.50882
 21
87.671798
 31
0.0
  0
LINE
  8
0
 62
     7
 10
383.50882
 20
44.019587
 30
0.0
 11
383.50882
 21
93.671798
 31
0.0
  0
LINE
  8
0
 62
     7
 10
339.50882
 20
93.671798
 30
0.0
 11
339.50882
 21
44.019587
 31
0.0
  0
LINE
  8
0
  6
CONTINUOUS
 62
     7
 10
339.50882
 20
44.019587
 30
0.0
 11
383.50882
 21
44.019587
 31
0.0
  0
LINE
  8
0
  6
CONTINUOUS
 62
     7
 10
198.834541
 20
202.48981
 30
0.0
 11
198.834541
 21
200.701678
 31
0.0
  0
LINE
  8
0
  6
CONTINUOUS
 62
     7
 10
193.435021
 20
200.476928
 30
0.0
 11
196.311132
 21
203.305487
 31
0.0
  0
ARC
  8
0
  6
HIDDEN
 62
     7
 10
197.745745
 20
205.573075
 30
0.0
 40
4.998196
 50
206.402922
 51
282.21115
  0
LINE
  8
0
  6
CONTINUOUS
 62
     7
 10
195.880429
 20
203.842694
 30
0.0
 11
196.781105
 21
202.718945
 31
0.0
  0
LINE
  8
0
  6
CONTINUOUS
 62
     7
 10
191.050877
 20
201.644531
 30
0.0
 11
198.839082
 21
201.644531
 31
0.0
  0
LINE
  8
0
  6
CONTINUOUS
 62
     7
 10
191.019845
 20
202.48981
 30
0.0
 11
191.019845
 21
200.701678
 31
0.0
  0
LINE
  8
0
  6
HIDDEN
 62
     7
 10
180.0
 20
170.0
 30
0.0
 11
200.0
 21
170.0
 31
0.0
  0
LINE
  8
0
  6
HIDDEN
 62
     7
 10
180.0
 20
165.0
 30
0.0
 11
200.0
 21
165.0
 31
0.0
  0
LINE
  8
0
  6
HIDDEN
 62
     7
 10
180.0
 20
180.0
 30
0.0
 11
200.0
 21
180.0
 31
0.0
  0
LINE
  8
0
  6
CONTINUOUS
 62
     7
 10
185.663252
 20
183.677597
 30
0.0
 11
188.009018
 21
182.342244
 31
0.0
  0
LINE
  8
0
  6
CONTINUOUS
 62
     7
 10
188.009018
 20
182.342244
 30
0.0
 11
185.663252
 21
181.152325
 31
0.0
  0
LINE
  8
0
  6
HIDDEN
 62
     7
 10
180.0
 20
195.0
 30
0.0
 11
200.0
 21
195.0
 31
0.0
  0
TEXT
  8
0
  6
CONTINUOUS
 62
     7
 10
181.270128
 20
185.862088
 30
0.0
 40
2.5
  1
I
 11
181.270128
 21
185.028755
 31
0.0
 73
     1
  0
LINE
  8
0
  6
CONTINUOUS
 62
     7
 10
186.778454
 20
187.064692
 30
0.0
 11
184.432688
 21
185.874773
 31
0.0
  0
LINE
  8
0
  6
CONTINUOUS
 62
     7
 10
184.432688
 20
188.400046
 30
0.0
 11
186.778454
 21
187.064692
 31
0.0
  0
LINE
  8
0
  6
CONTINUOUS
 62
     7
 10
185.178827
 20
187.064692
 30
0.0
 11
182.833062
 21
185.874773
 31
0.0
  0
LINE
  8
0
  6
CONTINUOUS
 62
     7
 10
182.833062
 20
188.400046
 30
0.0
 11
185.178827
 21
187.064692
 31
0.0
  0
LINE
  8
0
  6
CONTINUOUS
 62
     7
 10
198.834995
 20
187.63757
 30
0.0
 11
198.834995
 21
185.849439
 31
0.0
  0
LINE
  8
0
  6
CONTINUOUS
 62
     7
 10
193.435476
 20
185.624689
 30
0.0
 11
196.311586
 21
188.453248
 31
0.0
  0
LINE
  8
0
  6
CONTINUOUS
 62
     7
 10
195.880883
 20
188.990455
 30
0.0
 11
196.78156
 21
187.866706
 31
0.0
  0
LINE
  8
0
  6
CONTINUOUS
 62
     7
 10
191.051331
 20
186.792292
 30
0.0
 11
198.839536
 21
186.792292
 31
0.0
  0
LINE
  8
0
  6
CONTINUOUS
 62
     7
 10
191.020299
 20
187.63757
 30
0.0
 11
191.020299
 21
185.849439
 31
0.0
  0
LINE
  8
0
  6
HIDDEN
 62
     7
 10
180.0
 20
200.0
 30
0.0
 11
200.0
 21
200.0
 31
0.0
  0
LINE
  8
0
  6
CONTINUOUS
 62
     7
 10
182.833062
 20
198.730934
 30
0.0
 11
185.178827
 21
197.395581
 31
0.0
  0
LINE
  8
0
  6
CONTINUOUS
 62
     7
 10
185.178827
 20
197.395581
 30
0.0
 11
182.833062
 21
196.205662
 31
0.0
  0
LINE
  8
0
  6
CONTINUOUS
 62
     7
 10
184.432688
 20
198.730934
 30
0.0
 11
186.778454
 21
197.395581
 31
0.0
  0
LINE
  8
0
  6
CONTINUOUS
 62
     7
 10
186.778454
 20
197.395581
 30
0.0
 11
184.432688
 21
196.205662
 31
0.0
  0
TEXT
  8
0
  6
CONTINUOUS
 62
     7
 10
181.270128
 20
196.192977
 30
0.0
 40
2.5
  1
I
 11
181.270128
 21
195.359644
 31
0.0
 73
     1
  0
LINE
  8
0
  6
HIDDEN
 62
     7
 10
180.0
 20
210.0
 30
0.0
 11
200.0
 21
210.0
 31
0.0
  0
TEXT
  8
0
  6
CONTINUOUS
 62
     7
 10
181.270128
 20
200.531635
 30
0.0
 40
2.5
  1
I
 11
181.270128
 21
199.698301
 31
0.0
 73
     1
  0
LINE
  8
0
  6
CONTINUOUS
 62
     7
 10
186.406117
 20
201.734238
 30
0.0
 11
184.060351
 21
200.544319
 31
0.0
  0
LINE
  8
0
  6
CONTINUOUS
 62
     7
 10
184.060351
 20
203.069592
 30
0.0
 11
186.406117
 21
201.734238
 31
0.0
  0
LINE
  8
0
  6
CONTINUOUS
 62
     7
 10
189.900936
 20
204.960055
 30
0.0
 11
192.400936
 21
204.960055
 31
0.0
  0
LINE
  8
0
  6
CONTINUOUS
 62
     7
 10
189.900936
 20
204.960055
 30
0.0
 11
187.676489
 21
204.399413
 31
0.0
  0
LINE
  8
0
  6
CONTINUOUS
 62
     7
 10
184.900936
 20
204.960055
 30
0.0
 11
187.400936
 21
204.960055
 31
0.0
  0
TEXT
  8
0
  6
HIDDEN
 62
     7
 10
181.080478
 20
204.226807
 30
0.0
 40
1.5
  1
EN
  0
CIRCLE
  8
0
  6
CONTINUOUS
 62
     7
 10
179.012659
 20
207.994509
 30
0.0
 40
1.0
  0
LINE
  8
0
  6
CONTINUOUS
 62
     7
 10
178.01273
 20
208.000813
 30
0.0
 11
65.0
 21
208.000813
 31
0.0
  0
LINE
  8
0
  6
CONTINUOUS
 62
     7
 10
180.0
 20
215.0
 30
0.0
 11
210.450615
 21
215.0
 31
0.0
  0
LINE
  8
0
  6
CONTINUOUS
 62
     7
 10
184.060351
 20
213.279314
 30
0.0
 11
186.406117
 21
211.94396
 31
0.0
  0
LINE
  8
0
  6
CONTINUOUS
 62
     7
 10
186.406117
 20
211.94396
 30
0.0
 11
184.060351
 21
210.754041
 31
0.0
  0
TEXT
  8
0
  6
CONTINUOUS
 62
     7
 10
181.270128
 20
210.741357
 30
0.0
 40
2.5
  1
I
 11
181.270128
 21
209.908023
 31
0.0
 73
     1
  0
TEXT
  8
0
  6
CONTINUOUS
 62
     7
 10
205.0
 20
210.0
 30
0.0
 40
2.5
  1
U1
  7
ROMANS
  0
TEXT
  8
0
  6
DASHED
 62
     7
 10
202.077439
 20
198.915137
 30
0.0
 40
2.5
  1
3I
  0
LINE
  8
0
  6
CONTINUOUS
 62
     7
 10
206.48466
 20
201.463417
 30
0.0
 11
208.830425
 21
200.128063
 31
0.0
  0
LINE
  8
0
  6
CONTINUOUS
 62
     7
 10
208.830425
 20
200.128063
 30
0.0
 11
206.48466
 21
198.938144
 31
0.0
  0
LINE
  8
0
  6
CONTINUOUS
 62
     7
 10
52.798812
 20
215.0
 30
0.0
 11
47.5
 21
215.0
 31
0.0
  0
LINE
  8
0
  6
CONTINUOUS
 62
     7
 10
52.798812
 20
220.0
 30
0.0
 11
40.0
 21
220.0
 31
0.0
  0
LINE
  8
0
 62
     7
 10
52.798812
 20
221.589925
 30
0.0
 11
52.798812
 21
213.4
 31
0.0
  0
LINE
  8
0
 62
     7
 10
57.004853
 20
221.59384
 30
0.0
 11
55.09105
 21
219.315018
 31
0.0
  0
LINE
  8
0
 62
     7
 10
58.496971
 20
221.59384
 30
0.0
 11
56.642636
 21
219.315018
 31
0.0
  0
LINE
  8
0
 62
     7
 10
60.221556
 20
221.589925
 30
0.0
 11
52.798812
 21
221.589925
 31
0.0
  0
LINE
  8
0
 62
     7
 10
60.221556
 20
213.4
 30
0.0
 11
60.221556
 21
221.589925
 31
0.0
  0
LINE
  8
0
  6
CONTINUOUS
 62
     7
 10
60.221556
 20
217.5
 30
0.0
 11
65.0
 21
217.5
 31
0.0
  0
LINE
  8
0
  6
CONTINUOUS
 62
     7
 10
60.221556
 20
210.0
 30
0.0
 11
65.0
 21
210.0
 31
0.0
  0
LINE
  8
0
 62
     7
 10
60.221556
 20
206.204212
 30
0.0
 11
60.221556
 21
214.089925
 31
0.0
  0
LINE
  8
0
 62
     7
 10
60.221556
 20
213.704212
 30
0.0
 11
52.798812
 21
213.704212
 31
0.0
  0
LINE
  8
0
 62
     7
 10
58.496971
 20
213.708127
 30
0.0
 11
56.642636
 21
211.429305
 31
0.0
  0
LINE
  8
0
 62
     7
 10
57.004853
 20
213.708127
 30
0.0
 11
55.09105
 21
211.429305
 31
0.0
  0
LINE
  8
0
 62
     7
 10
52.798812
 20
214.089925
 30
0.0
 11
52.798812
 21
206.204212
 31
0.0
  0
LINE
  8
0
  6
CONTINUOUS
 62
     7
 10
52.798812
 20
212.5
 30
0.0
 11
40.0
 21
212.5
 31
0.0
  0
LINE
  8
0
  6
CONTINUOUS
 62
     7
 10
52.798812
 20
207.5
 30
0.0
 11
47.5
 21
207.5
 31
0.0
  0
LINE
  8
0
 62
     7
 10
60.221556
 20
206.204212
 30
0.0
 11
52.798812
 21
206.204212
 31
0.0
  0
LINE
  8
0
  6
CONTINUOUS
 62
     7
 10
222.5
 20
102.5
 30
0.0
 11
230.0
 21
102.5
 31
0.0
  0
LINE
  8
0
 62
     7
 10
235.0
 20
147.5
 30
0.0
 11
233.480133
 21
147.5
 31
0.0
  0
ARC
  8
0
 62
     7
 10
235.065849
 20
148.75
 30
0.0
 40
1.251733
 50
266.984476
 51
93.015524
  0
LINE
  8
0
 62
     7
 10
235.0
 20
150.0
 30
0.0
 11
233.480133
 21
150.0
 31
0.0
  0
LINE
  8
0
 62
     7
 10
235.0
 20
152.5
 30
0.0
 11
233.480133
 21
152.5
 31
0.0
  0
ARC
  8
0
 62
     7
 10
235.065849
 20
151.25
 30
0.0
 40
1.251733
 50
266.984476
 51
93.015524
  0
LINE
  8
0
 62
     7
 10
240.0
 20
145.0
 30
0.0
 11
242.5
 21
145.0
 31
0.0
  0
ARC
  8
0
 62
     7
 10
239.934151
 20
146.25
 30
0.0
 40
1.251733
 50
86.984476
 51
273.015524
  0
ARC
  8
0
 62
     7
 10
239.934151
 20
148.75
 30
0.0
 40
1.251733
 50
86.984476
 51
273.015524
  0
LINE
  8
0
 62
     7
 10
240.0
 20
147.5
 30
0.0
 11
242.5
 21
147.5
 31
0.0
  0
LINE
  8
0
 62
     7
 10
240.0
 20
150.0
 30
0.0
 11
242.5
 21
150.0
 31
0.0
  0
LINE
  8
0
 62
     7
 10
242.5
 20
150.0
 30
0.0
 11
245.0
 21
150.0
 31
0.0
  0
LINE
  8
0
 62
     7
 10
242.5
 20
145.0
 30
0.0
 11
250.0
 21
145.0
 31
0.0
  0
LINE
  8
0
 62
     7
 10
242.5
 20
150.0
 30
0.0
 11
250.0
 21
150.0
 31
0.0
  0
LINE
  8
0
 62
     7
 10
242.5
 20
155.0
 30
0.0
 11
250.0
 21
155.0
 31
0.0
  0
LINE
  8
0
 62
     7
 10
240.0
 20
155.0
 30
0.0
 11
242.5
 21
155.0
 31
0.0
  0
LINE
  8
0
 62
     7
 10
240.0
 20
152.5
 30
0.0
 11
242.5
 21
152.5
 31
0.0
  0
ARC
  8
0
 62
     7
 10
239.934151
 20
153.75
 30
0.0
 40
1.251733
 50
86.984476
 51
273.015524
  0
ARC
  8
0
 62
     7
 10
239.934151
 20
151.25
 30
0.0
 40
1.251733
 50
86.984476
 51
273.015524
  0
LINE
  8
0
 62
     7
 10
240.0
 20
150.0
 30
0.0
 11
242.5
 21
150.0
 31
0.0
  0
LINE
  8
0
 62
     7
 10
235.0
 20
167.5
 30
0.0
 11
233.480133
 21
167.5
 31
0.0
  0
ARC
  8
0
 62
     7
 10
235.065849
 20
168.75
 30
0.0
 40
1.251733
 50
266.984476
 51
93.015524
  0
LINE
  8
0
 62
     7
 10
235.0
 20
170.0
 30
0.0
 11
233.480133
 21
170.0
 31
0.0
  0
LINE
  8
0
 62
     7
 10
235.0
 20
172.5
 30
0.0
 11
233.480133
 21
172.5
 31
0.0
  0
ARC
  8
0
 62
     7
 10
235.065849
 20
171.25
 30
0.0
 40
1.251733
 50
266.984476
 51
93.015524
  0
LINE
  8
0
 62
     7
 10
240.0
 20
165.0
 30
0.0
 11
242.5
 21
165.0
 31
0.0
  0
ARC
  8
0
 62
     7
 10
239.934151
 20
166.25
 30
0.0
 40
1.251733
 50
86.984476
 51
273.015524
  0
ARC
  8
0
 62
     7
 10
239.934151
 20
168.75
 30
0.0
 40
1.251733
 50
86.984476
 51
273.015524
  0
LINE
  8
0
 62
     7
 10
240.0
 20
167.5
 30
0.0
 11
242.5
 21
167.5
 31
0.0
  0
LINE
  8
0
 62
     7
 10
240.0
 20
170.0
 30
0.0
 11
242.5
 21
170.0
 31
0.0
  0
LINE
  8
0
 62
     7
 10
242.5
 20
170.0
 30
0.0
 11
245.0
 21
170.0
 31
0.0
  0
LINE
  8
0
 62
     7
 10
242.5
 20
165.0
 30
0.0
 11
250.0
 21
165.0
 31
0.0
  0
LINE
  8
0
 62
     7
 10
242.5
 20
170.0
 30
0.0
 11
250.0
 21
170.0
 31
0.0
  0
LINE
  8
0
 62
     7
 10
242.5
 20
175.0
 30
0.0
 11
250.0
 21
175.0
 31
0.0
  0
LINE
  8
0
 62
     7
 10
240.0
 20
175.0
 30
0.0
 11
242.5
 21
175.0
 31
0.0
  0
LINE
  8
0
 62
     7
 10
240.0
 20
172.5
 30
0.0
 11
242.5
 21
172.5
 31
0.0
  0
ARC
  8
0
 62
     7
 10
239.934151
 20
173.75
 30
0.0
 40
1.251733
 50
86.984476
 51
273.015524
  0
ARC
  8
0
 62
     7
 10
239.934151
 20
171.25
 30
0.0
 40
1.251733
 50
86.984476
 51
273.015524
  0
LINE
  8
0
 62
     7
 10
240.0
 20
170.0
 30
0.0
 11
242.5
 21
170.0
 31
0.0
  0
LINE
  8
0
 62
     7
 10
235.0
 20
187.5
 30
0.0
 11
233.480133
 21
187.5
 31
0.0
  0
ARC
  8
0
 62
     7
 10
235.065849
 20
188.75
 30
0.0
 40
1.251733
 50
266.984476
 51
93.015524
  0
LINE
  8
0
 62
     7
 10
235.0
 20
190.0
 30
0.0
 11
233.480133
 21
190.0
 31
0.0
  0
LINE
  8
0
 62
     7
 10
235.0
 20
192.5
 30
0.0
 11
233.480133
 21
192.5
 31
0.0
  0
ARC
  8
0
 62
     7
 10
235.065849
 20
191.25
 30
0.0
 40
1.251733
 50
266.984476
 51
93.015524
  0
LINE
  8
0
 62
     7
 10
240.0
 20
185.0
 30
0.0
 11
242.5
 21
185.0
 31
0.0
  0
ARC
  8
0
 62
     7
 10
239.934151
 20
186.25
 30
0.0
 40
1.251733
 50
86.984476
 51
273.015524
  0
ARC
  8
0
 62
     7
 10
239.934151
 20
188.75
 30
0.0
 40
1.251733
 50
86.984476
 51
273.015524
  0
LINE
  8
0
 62
     7
 10
240.0
 20
187.5
 30
0.0
 11
242.5
 21
187.5
 31
0.0
  0
LINE
  8
0
 62
     7
 10
240.0
 20
190.0
 30
0.0
 11
242.5
 21
190.0
 31
0.0
  0
LINE
  8
0
 62
     7
 10
242.5
 20
190.0
 30
0.0
 11
245.0
 21
190.0
 31
0.0
  0
LINE
  8
0
 62
     7
 10
242.5
 20
185.0
 30
0.0
 11
250.0
 21
185.0
 31
0.0
  0
LINE
  8
0
 62
     7
 10
242.5
 20
190.0
 30
0.0
 11
250.0
 21
190.0
 31
0.0
  0
LINE
  8
0
 62
     7
 10
242.5
 20
195.0
 30
0.0
 11
250.0
 21
195.0
 31
0.0
  0
LINE
  8
0
 62
     7
 10
240.0
 20
195.0
 30
0.0
 11
242.5
 21
195.0
 31
0.0
  0
LINE
  8
0
 62
     7
 10
240.0
 20
192.5
 30
0.0
 11
242.5
 21
192.5
 31
0.0
  0
ARC
  8
0
 62
     7
 10
239.934151
 20
193.75
 30
0.0
 40
1.251733
 50
86.984476
 51
273.015524
  0
ARC
  8
0
 62
     7
 10
239.934151
 20
191.25
 30
0.0
 40
1.251733
 50
86.984476
 51
273.015524
  0
LINE
  8
0
 62
     7
 10
240.0
 20
190.0
 30
0.0
 11
242.5
 21
190.0
 31
0.0
  0
LINE
  8
0
 62
     7
 10
235.0
 20
207.5
 30
0.0
 11
233.480133
 21
207.5
 31
0.0
  0
ARC
  8
0
 62
     7
 10
235.065849
 20
208.75
 30
0.0
 40
1.251733
 50
266.984476
 51
93.015524
  0
LINE
  8
0
 62
     7
 10
235.0
 20
210.0
 30
0.0
 11
233.480133
 21
210.0
 31
0.0
  0
LINE
  8
0
 62
     7
 10
235.0
 20
212.5
 30
0.0
 11
233.480133
 21
212.5
 31
0.0
  0
ARC
  8
0
 62
     7
 10
235.065849
 20
211.25
 30
0.0
 40
1.251733
 50
266.984476
 51
93.015524
  0
LINE
  8
0
 62
     7
 10
240.0
 20
205.0
 30
0.0
 11
242.5
 21
205.0
 31
0.0
  0
ARC
  8
0
 62
     7
 10
239.934151
 20
206.25
 30
0.0
 40
1.251733
 50
86.984476
 51
273.015524
  0
ARC
  8
0
 62
     7
 10
239.934151
 20
208.75
 30
0.0
 40
1.251733
 50
86.984476
 51
273.015524
  0
LINE
  8
0
 62
     7
 10
240.0
 20
207.5
 30
0.0
 11
242.5
 21
207.5
 31
0.0
  0
LINE
  8
0
 62
     7
 10
240.0
 20
210.0
 30
0.0
 11
242.5
 21
210.0
 31
0.0
  0
LINE
  8
0
 62
     7
 10
242.5
 20
210.0
 30
0.0
 11
245.0
 21
210.0
 31
0.0
  0
LINE
  8
0
 62
     7
 10
242.5
 20
205.0
 30
0.0
 11
250.0
 21
205.0
 31
0.0
  0
LINE
  8
0
 62
     7
 10
242.5
 20
210.0
 30
0.0
 11
245.0
 21
210.0
 31
0.0
  0
LINE
  8
0
 62
     7
 10
242.5
 20
215.0
 30
0.0
 11
245.0
 21
215.0
 31
0.0
  0
LINE
  8
0
 62
     7
 10
240.0
 20
215.0
 30
0.0
 11
250.0
 21
215.0
 31
0.0
  0
LINE
  8
0
 62
     7
 10
240.0
 20
212.5
 30
0.0
 11
242.5
 21
212.5
 31
0.0
  0
ARC
  8
0
 62
     7
 10
239.934151
 20
213.75
 30
0.0
 40
1.251733
 50
86.984476
 51
273.015524
  0
ARC
  8
0
 62
     7
 10
239.934151
 20
211.25
 30
0.0
 40
1.251733
 50
86.984476
 51
273.015524
  0
LINE
  8
0
 62
     7
 10
240.0
 20
210.0
 30
0.0
 11
250.0
 21
210.0
 31
0.0
  0
TEXT
  8
0
  6
CONTINUOUS
 62
     7
 10
246.356401
 20
212.163714
 30
0.0
 40
2.0
  1
3
  7
ROMANS
  0
TEXT
  8
0
  6
CONTINUOUS
 62
     7
 10
246.356401
 20
207.199365
 30
0.0
 40
2.0
  1
2
  7
ROMANS
  0
TEXT
  8
0
  6
CONTINUOUS
 62
     7
 10
246.356401
 20
202.246037
 30
0.0
 40
2.0
  1
1
  7
ROMANS
  0
TEXT
  8
0
  6
CONTINUOUS
 62
     7
 10
246.356401
 20
172.106638
 30
0.0
 40
2.0
  1
9
  7
ROMANS
  0
TEXT
  8
0
  6
CONTINUOUS
 62
     7
 10
246.356401
 20
167.505961
 30
0.0
 40
2.0
  1
8
  7
ROMANS
  0
TEXT
  8
0
  6
CONTINUOUS
 62
     7
 10
246.356401
 20
162.001615
 30
0.0
 40
2.0
  1
7
  7
ROMANS
  0
LINE
  8
0
  6
HIDDEN
 62
     7
 10
250.0
 20
220.0
 30
0.0
 11
245.0
 21
220.0
 31
0.0
  0
LINE
  8
0
  6
HIDDEN
 62
     7
 10
245.0
 20
220.0
 30
0.0
 11
245.0
 21
72.5
 31
0.0
  0
LINE
  8
0
  6
HIDDEN
 62
     7
 10
245.0
 20
72.5
 30
0.0
 11
250.0
 21
72.5
 31
0.0
  0
TEXT
  8
0
  6
HIDDEN
 62
     7
 10
245.929881
 20
216.186149
 30
0.0
 40
2.0
  1
X0
  7
ROMANS
  0
LINE
  8
0
  6
CONTINUOUS
 62
     7
 10
230.0
 20
150.0
 30
0.0
 11
222.5
 21
150.0
 31
0.0
  0
LINE
  8
0
  6
CONTINUOUS
 62
     7
 10
222.5
 20
140.0
 30
0.0
 11
222.5
 21
170.570278
 31
0.0
  0
LINE
  8
0
  6
CONTINUOUS
 62
     7
 10
222.5
 20
170.570278
 30
0.0
 11
210.450615
 21
170.570278
 31
0.0
  0
LINE
  8
0
  6
CONTINUOUS
 62
     7
 10
210.450615
 20
200.0
 30
0.0
 11
222.5
 21
200.0
 31
0.0
  0
LINE
  8
0
  6
CONTINUOUS
 62
     7
 10
215.0
 20
200.0
 30
0.0
 11
215.0
 21
57.5
 31
0.0
  0
LINE
  8
0
  6
CONTINUOUS
 62
     7
 10
230.0
 20
190.0
 30
0.0
 11
222.5
 21
190.0
 31
0.0
  0
LINE
  8
0
  6
CONTINUOUS
 62
     7
 10
256.0
 20
149.5
 30
0.0
 11
255.0
 21
148.5
 31
0.0
  0
LINE
  8
0
  6
CONTINUOUS
 62
     7
 10
256.0
 20
156.5
 30
0.0
 11
256.0
 21
149.5
 31
0.0
  0
LINE
  8
0
  6
CONTINUOUS
 62
     7
 10
256.0
 20
156.5
 30
0.0
 11
255.0
 21
157.5
 31
0.0
  0
LINE
  8
0
  6
CONTINUOUS
 62
     7
 10
256.0
 20
176.5
 30
0.0
 11
255.0
 21
177.5
 31
0.0
  0
LINE
  8
0
  6
CONTINUOUS
 62
     7
 10
256.0
 20
176.5
 30
0.0
 11
256.0
 21
169.5
 31
0.0
  0
LINE
  8
0
  6
CONTINUOUS
 62
     7
 10
256.0
 20
169.5
 30
0.0
 11
255.0
 21
168.5
 31
0.0
  0
LINE
  8
0
  6
CONTINUOUS
 62
     7
 10
256.0
 20
189.5
 30
0.0
 11
255.0
 21
188.5
 31
0.0
  0
LINE
  8
0
  6
CONTINUOUS
 62
     7
 10
256.0
 20
196.5
 30
0.0
 11
256.0
 21
189.5
 31
0.0
  0
LINE
  8
0
  6
CONTINUOUS
 62
     7
 10
256.0
 20
196.5
 30
0.0
 11
255.0
 21
197.5
 31
0.0
  0
LINE
  8
0
  6
CONTINUOUS
 62
     7
 10
256.0
 20
216.5
 30
0.0
 11
255.0
 21
217.5
 31
0.0
  0
LINE
  8
0
  6
CONTINUOUS
 62
     7
 10
256.0
 20
209.5
 30
0.0
 11
255.0
 21
208.5
 31
0.0
  0
LINE
  8
0
  6
CONTINUOUS
 62
     7
 10
256.0
 20
216.5
 30
0.0
 11
256.0
 21
209.5
 31
0.0
  0
LINE
  8
0
  6
DASHED
 62
     7
 10
250.0
 20
150.0
 30
0.0
 11
254.266471
 21
150.0
 31
0.0
  0
LINE
  8
0
  6
DASHED
 62
     7
 10
250.0
 20
155.0
 30
0.0
 11
254.266471
 21
155.0
 31
0.0
  0
LINE
  8
0
  6
DASHED
 62
     7
 10
250.0
 20
170.0
 30
0.0
 11
254.266471
 21
170.0
 31
0.0
  0
LINE
  8
0
  6
DASHED
 62
     7
 10
250.0
 20
175.0
 30
0.0
 11
254.266471
 21
175.0
 31
0.0
  0
LINE
  8
0
  6
DASHED
 62
     7
 10
250.0
 20
190.0
 30
0.0
 11
254.266471
 21
190.0
 31
0.0
  0
LINE
  8
0
  6
DASHED
 62
     7
 10
250.0
 20
195.0
 30
0.0
 11
254.266471
 21
195.0
 31
0.0
  0
LINE
  8
0
  6
DASHED
 62
     7
 10
250.0
 20
210.0
 30
0.0
 11
254.266471
 21
210.0
 31
0.0
  0
LINE
  8
0
  6
DASHED
 62
     7
 10
250.0
 20
215.0
 30
0.0
 11
254.266471
 21
215.0
 31
0.0
  0
LINE
  8
0
  6
DASHED
 62
     7
 10
40.0
 20
220.0
 30
0.0
 11
32.5
 21
220.0
 31
0.0
  0
LINE
  8
0
  6
DASHED
 62
     7
 10
40.0
 20
212.5
 30
0.0
 11
32.5
 21
212.5
 31
0.0
  0
LINE
  8
0
  6
DASHED
 62
     7
 10
40.0
 20
207.5
 30
0.0
 11
32.5
 21
207.5
 31
0.0
  0
LINE
  8
0
  6
CONTINUOUS
 62
     7
 10
25.0
 20
207.499655
 30
0.0
 11
26.0
 21
206.499655
 31
0.0
  0
LINE
  8
0
  6
CONTINUOUS
 62
     7
 10
25.0
 20
220.0
 30
0.0
 11
26.0
 21
221.0
 31
0.0
  0
LINE
  8
0
  6
CONTINUOUS
 62
     7
 10
25.0
 20
220.0
 30
0.0
 11
25.0
 21
207.499655
 31
0.0
  0
LINE
  8
0
  6
DASHED
 62
     7
 10
40.0
 20
107.5
 30
0.0
 11
27.5
 21
107.5
 31
0.0
  0
LINE
  8
0
  6
DASHED
 62
     7
 10
40.0
 20
97.5
 30
0.0
 11
27.5
 21
97.5
 31
0.0
  0
LINE
  8
0
  6
DASHED
 62
     7
 10
40.0
 20
92.5
 30
0.0
 11
27.5
 21
92.5
 31
0.0
  0
LINE
  8
0
  6
DASHED
 62
     7
 10
40.0
 20
82.5
 30
0.0
 11
27.5
 21
82.5
 31
0.0
  0
LINE
  8
0
  6
DASHED
 62
     7
 10
40.0
 20
77.5
 30
0.0
 11
27.5
 21
77.5
 31
0.0
  0
LINE
  8
0
  6
CONTINUOUS
 62
     7
 10
25.0
 20
92.5
 30
0.0
 11
26.0
 21
93.5
 31
0.0
  0
LINE
  8
0
  6
CONTINUOUS
 62
     7
 10
25.0
 20
67.499655
 30
0.0
 11
26.0
 21
66.499655
 31
0.0
  0
LINE
  8
0
  6
CONTINUOUS
 62
     7
 10
25.0
 20
92.5
 30
0.0
 11
25.0
 21
67.499655
 31
0.0
  0
LINE
  8
0
  6
CONTINUOUS
 62
     7
 10
365.727984
 20
200.0
 30
0.0
 11
365.727984
 21
215.0
 31
0.0
  0
LINE
  8
0
  6
CONTINUOUS
 62
     7
 10
345.727984
 20
215.0
 30
0.0
 11
345.727984
 21
200.0
 31
0.0
  0
LINE
  8
0
  6
CONTINUOUS
 62
     7
 10
353.185823
 20
206.796181
 30
0.0
 11
357.678973
 21
206.796181
 31
0.0
  0
TEXT
  8
0
  6
CONTINUOUS
 62
     7
 10
351.308659
 20
205.879555
 30
0.0
 40
2.0
  1
O
  0
TEXT
  8
0
  6
CONTINUOUS
 62
     7
 10
357.831775
 20
205.875304
 30
0.0
 40
2.0
  1
I
  0
LINE
  8
0
  6
CONTINUOUS
 62
     7
 10
345.727984
 20
215.0
 30
0.0
 11
345.727984
 21
257.5
 31
0.0
  0
LINE
  8
0
  6
CONTINUOUS
 62
     7
 10
365.727984
 20
217.5
 30
0.0
 11
345.727984
 21
217.5
 31
0.0
  0
LINE
  8
0
  6
CONTINUOUS
 62
     7
 10
365.727984
 20
257.5
 30
0.0
 11
365.727984
 21
215.0
 31
0.0
  0
LINE
  8
0
  6
CONTINUOUS
 62
     7
 10
345.727984
 20
257.5
 30
0.0
 11
365.727984
 21
257.5
 31
0.0
  0
LINE
  8
0
  6
CONTINUOUS
 62
     7
 10
345.727984
 20
237.5
 30
0.0
 11
365.727984
 21
237.5
 31
0.0
  0
LINE
  8
0
  6
CONTINUOUS
 62
     7
 10
351.32826
 20
240.552173
 30
0.0
 11
351.32826
 21
238.764041
 31
0.0
  0
LINE
  8
0
  6
CONTINUOUS
 62
     7
 10
351.359291
 20
239.706894
 30
0.0
 11
359.147496
 21
239.706894
 31
0.0
  0
LINE
  8
0
  6
CONTINUOUS
 62
     7
 10
353.743436
 20
238.539291
 30
0.0
 11
356.619546
 21
241.36785
 31
0.0
  0
LINE
  8
0
  6
CONTINUOUS
 62
     7
 10
356.188843
 20
241.905057
 30
0.0
 11
357.08952
 21
240.781308
 31
0.0
  0
LINE
  8
0
  6
CONTINUOUS
 62
     7
 10
359.142955
 20
240.552173
 30
0.0
 11
359.142955
 21
238.764041
 31
0.0
  0
LINE
  8
0
  6
CONTINUOUS
 62
     7
 10
359.142955
 20
220.783684
 30
0.0
 11
359.142955
 21
218.995552
 31
0.0
  0
LINE
  8
0
  6
CONTINUOUS
 62
     7
 10
356.188843
 20
222.136568
 30
0.0
 11
357.08952
 21
221.012819
 31
0.0
  0
LINE
  8
0
  6
CONTINUOUS
 62
     7
 10
353.743436
 20
218.770802
 30
0.0
 11
356.619546
 21
221.599361
 31
0.0
  0
LINE
  8
0
  6
CONTINUOUS
 62
     7
 10
351.359291
 20
219.938405
 30
0.0
 11
359.147496
 21
219.938405
 31
0.0
  0
LINE
  8
0
  6
CONTINUOUS
 62
     7
 10
351.32826
 20
220.783684
 30
0.0
 11
351.32826
 21
218.995552
 31
0.0
  0
LINE
  8
0
  6
CONTINUOUS
 62
     7
 10
360.928086
 20
244.50956
 30
0.0
 11
358.58232
 21
243.319641
 31
0.0
  0
LINE
  8
0
  6
CONTINUOUS
 62
     7
 10
358.58232
 20
245.844914
 30
0.0
 11
360.928086
 21
244.50956
 31
0.0
  0
LINE
  8
0
  6
CONTINUOUS
 62
     7
 10
356.821088
 20
245.844914
 30
0.0
 11
359.166854
 21
244.50956
 31
0.0
  0
LINE
  8
0
  6
CONTINUOUS
 62
     7
 10
359.166854
 20
244.50956
 30
0.0
 11
356.821088
 21
243.319641
 31
0.0
  0
TEXT
  8
0
  6
DASHED
 62
     7
 10
352.171343
 20
243.282752
 30
0.0
 40
2.5
  1
3I
  0
LINE
  8
0
  6
CONTINUOUS
 62
     7
 10
359.142955
 20
250.206143
 30
0.0
 11
359.142955
 21
248.418012
 31
0.0
  0
LINE
  8
0
  6
CONTINUOUS
 62
     7
 10
353.743436
 20
248.193262
 30
0.0
 11
356.619546
 21
251.021821
 31
0.0
  0
ARC
  8
0
  6
HIDDEN
 62
     7
 10
358.054159
 20
253.289409
 30
0.0
 40
4.998196
 50
206.402922
 51
282.21115
  0
LINE
  8
0
  6
CONTINUOUS
 62
     7
 10
356.188843
 20
251.559027
 30
0.0
 11
357.08952
 21
250.435278
 31
0.0
  0
LINE
  8
0
  6
CONTINUOUS
 62
     7
 10
351.359291
 20
249.360865
 30
0.0
 11
359.147496
 21
249.360865
 31
0.0
  0
LINE
  8
0
  6
CONTINUOUS
 62
     7
 10
351.32826
 20
250.206143
 30
0.0
 11
351.32826
 21
248.418012
 31
0.0
  0
LINE
  8
0
  6
CONTINUOUS
 62
     7
 10
358.924329
 20
254.4814
 30
0.0
 11
356.578563
 21
253.291481
 31
0.0
  0
LINE
  8
0
  6
CONTINUOUS
 62
     7
 10
356.578563
 20
255.816754
 30
0.0
 11
358.924329
 21
254.4814
 31
0.0
  0
TEXT
  8
0
  6
DASHED
 62
     7
 10
352.171343
 20
253.268474
 30
0.0
 40
2.5
  1
3I
  0
LINE
  8
0
  6
CONTINUOUS
 62
     7
 10
356.430299
 20
207.507003
 30
0.0
 11
357.678973
 21
206.796181
 31
0.0
  0
LINE
  8
0
  6
CONTINUOUS
 62
     7
 10
357.678973
 20
206.796181
 30
0.0
 11
356.430299
 21
206.162776
 31
0.0
  0
TEXT
  8
0
  6
CONTINUOUS
 62
     7
 10
356.074498
 20
83.820117
 30
0.0
 40
2.0
  1
In=1A
  7
ROMANS
  0
TEXT
  8
0
  6
CONTINUOUS
 62
     7
 10
344.799383
 20
69.637557
 30
0.0
 40
2.0
  1
L3
  7
ROMANS
  0
TEXT
  8
0
  6
CONTINUOUS
 62
     7
 10
357.23092
 20
69.642738
 30
0.0
 40
2.0
  1
7-9
  7
ROMANS
  0
TEXT
  8
0
  6
CONTINUOUS
 62
     7
 10
372.370919
 20
69.642738
 30
0.0
 40
2.0
  1
7-8
  7
ROMANS
  0
LINE
  8
0
  6
DASHED
 62
     7
 10
256.0
 20
215.0
 30
0.0
 11
267.5
 21
215.0
 31
0.0
  0
LINE
  8
0
  6
DASHED
 62
     7
 10
250.0
 20
205.0
 30
0.0
 11
267.5
 21
205.0
 31
0.0
  0
LINE
  8
0
  6
DASHED
 62
     7
 10
256.0
 20
195.0
 30
0.0
 11
267.5
 21
195.0
 31
0.0
  0
LINE
  8
0
  6
DASHED
 62
     7
 10
250.0
 20
185.0
 30
0.0
 11
267.5
 21
185.0
 31
0.0
  0
LINE
  8
0
  6
DASHED
 62
     7
 10
256.0
 20
175.0
 30
0.0
 11
267.5
 21
175.0
 31
0.0
  0
LINE
  8
0
  6
DASHED
 62
     7
 10
250.0
 20
165.0
 30
0.0
 11
267.5
 21
165.0
 31
0.0
  0
LINE
  8
0
  6
DASHED
 62
     7
 10
256.0
 20
155.0
 30
0.0
 11
267.5
 21
155.0
 31
0.0
  0
LINE
  8
0
  6
DASHED
 62
     7
 10
250.0
 20
145.0
 30
0.0
 11
267.5
 21
145.0
 31
0.0
  0
LINE
  8
0
  6
CONTINUOUS
 62
     7
 10
270.0
 20
145.0
 30
0.0
 11
270.0
 21
195.0
 31
0.0
  0
LINE
  8
0
  6
CONTINUOUS
 62
     7
 10
270.0
 20
195.0
 30
0.0
 11
270.0
 21
215.0
 31
0.0
  0
LINE
  8
0
  6
CONTINUOUS
 62
     7
 10
270.0
 20
215.0
 30
0.0
 11
269.0
 21
216.0
 31
0.0
  0
TEXT
  8
0
  6
CONTINUOUS
 62
     7
 10
262.5
 20
212.114287
 30
0.0
 40
2.0
  1
L1
  7
ROMANS
  0
TEXT
  8
0
  6
CONTINUOUS
 62
     7
 10
262.5
 20
172.088956
 30
0.0
 40
2.0
  1
L3
  7
ROMANS
  0
TEXT
  8
0
  6
CONTINUOUS
 62
     7
 10
262.5
 20
202.114287
 30
0.0
 40
2.0
  1
L1
  7
ROMANS
  0
TEXT
  8
0
  6
CONTINUOUS
 62
     7
 10
262.5
 20
162.088956
 30
0.0
 40
2.0
  1
L3
  7
ROMANS
  0
TEXT
  8
0
  6
CONTINUOUS
 62
     7
 10
370.336545
 20
11.978665
 30
0.0
 40
2.0
  1
1/2
  7
ROMANS
  0
LINE
  8
0
  6
CONTINUOUS
 62
     7
 10
270.0
 20
145.0
 30
0.0
 11
269.0
 21
144.0
 31
0.0
  0
LINE
  8
0
  6
DASHED
 62
     7
 10
275.0
 20
227.5
 30
0.0
 11
307.5
 21
227.5
 31
0.0
  0
LINE
  8
0
  6
DASHED
 62
     7
 10
280.0
 20
227.5
 30
0.0
 11
280.0
 21
167.5
 31
0.0
  0
CIRCLE
  8
0
  6
CONTINUOUS
 62
     7
 10
280.0
 20
180.0
 30
0.0
 40
2.5
  0
LINE
  8
0
  6
DASHED
 62
     7
 10
270.0
 20
180.0
 30
0.0
 11
277.5
 21
180.0
 31
0.0
  0
LINE
  8
0
  6
CONTINUOUS
 62
     7
 10
356.98588
 20
236.013348
 30
0.0
 11
359.331645
 21
234.677994
 31
0.0
  0
LINE
  8
0
  6
CONTINUOUS
 62
     7
 10
359.331645
 20
234.677994
 30
0.0
 11
356.98588
 21
233.488075
 31
0.0
  0
LINE
  8
0
 62
     7
 10
353.50882
 20
83.171798
 30
0.0
 11
383.50882
 21
83.171798
 31
0.0
  0
TEXT
  8
0
  6
DASHED
 62
     7
 10
371.077552
 20
83.820117
 30
0.0
 40
2.0
  1
In=5A
  7
ROMANS
  0
TEXT
  8
0
  6
DASHED
 62
     7
 10
344.799383
 20
77.869116
 30
0.0
 40
2.0
  1
L1            
  7
ROMANS
  0
TEXT
  8
0
  6
DASHED
 62
     7
 10
357.412956
 20
78.347964
 30
0.0
 40
2.0
  1
1-3
  7
ROMANS
  0
TEXT
  8
0
  6
DASHED
 62
     7
 10
372.568171
 20
78.347964
 30
0.0
 40
2.0
  1
1-2
  7
ROMANS
  0
TEXT
  8
0
  6
CONTINUOUS
 62
     7
 10
354.206231
 20
59.594715
 30
0.0
 40
2.0
  1
Un=100V
  7
ROMANS
  0
TEXT
  8
0
  6
CONTINUOUS
 62
     7
 10
369.156524
 20
59.594715
 30
0.0
 40
2.0
  1
Un=110V
  7
ROMANS
  0
LINE
  8
0
  6
CONTINUOUS
 62
     7
 10
47.5
 20
207.5
 30
0.0
 11
40.0
 21
207.5
 31
0.0
  0
LINE
  8
0
  6
CONTINUOUS
 62
     7
 10
47.5
 20
215.0
 30
0.0
 11
47.5
 21
207.5
 31
0.0
  0
TEXT
  8
0
  6
HIDDEN
 62
     7
 10
181.080478
 20
207.167847
 30
0.0
 40
1.5
  1
EN
  0
LINE
  8
0
  6
CONTINUOUS
 62
     7
 10
184.900936
 20
207.901095
 30
0.0
 11
187.400936
 21
207.901095
 31
0.0
  0
LINE
  8
0
  6
CONTINUOUS
 62
     7
 10
189.900936
 20
207.901095
 30
0.0
 11
187.676489
 21
207.340453
 31
0.0
  0
LINE
  8
0
  6
CONTINUOUS
 62
     7
 10
189.900936
 20
207.901095
 30
0.0
 11
192.400936
 21
207.901095
 31
0.0
  0
CIRCLE
  8
0
  6
CONTINUOUS
 62
     7
 10
179.012659
 20
204.965349
 30
0.0
 40
1.0
  0
LINE
  8
0
  6
CONTINUOUS
 62
     7
 10
178.01273
 20
204.971652
 30
0.0
 11
172.5
 21
204.971652
 31
0.0
  0
LINE
  8
0
  6
CONTINUOUS
 62
     7
 10
189.900936
 20
192.901095
 30
0.0
 11
192.400936
 21
192.901095
 31
0.0
  0
LINE
  8
0
  6
CONTINUOUS
 62
     7
 10
189.900936
 20
192.901095
 30
0.0
 11
187.676489
 21
192.340453
 31
0.0
  0
LINE
  8
0
  6
CONTINUOUS
 62
     7
 10
184.900936
 20
192.901095
 30
0.0
 11
187.400936
 21
192.901095
 31
0.0
  0
TEXT
  8
0
  6
HIDDEN
 62
     7
 10
181.080478
 20
192.167847
 30
0.0
 40
1.5
  1
EN
  0
TEXT
  8
0
  6
HIDDEN
 62
     7
 10
181.080478
 20
189.226807
 30
0.0
 40
1.5
  1
EN
  0
LINE
  8
0
  6
CONTINUOUS
 62
     7
 10
184.900936
 20
189.960055
 30
0.0
 11
187.400936
 21
189.960055
 31
0.0
  0
LINE
  8
0
  6
CONTINUOUS
 62
     7
 10
189.900936
 20
189.960055
 30
0.0
 11
187.676489
 21
189.399413
 31
0.0
  0
LINE
  8
0
  6
CONTINUOUS
 62
     7
 10
189.900936
 20
189.960055
 30
0.0
 11
192.400936
 21
189.960055
 31
0.0
  0
CIRCLE
  8
0
  6
CONTINUOUS
 62
     7
 10
179.012659
 20
189.965349
 30
0.0
 40
1.0
  0
CIRCLE
  8
0
  6
CONTINUOUS
 62
     7
 10
179.012659
 20
192.994509
 30
0.0
 40
1.0
  0
LINE
  8
0
  6
CONTINUOUS
 62
     7
 10
178.01273
 20
193.000813
 30
0.0
 11
170.0
 21
193.000813
 31
0.0
  0
LINE
  8
0
  6
CONTINUOUS
 62
     7
 10
178.01273
 20
189.971652
 30
0.0
 11
172.5
 21
189.971652
 31
0.0
  0
LINE
  8
0
  6
CONTINUOUS
 62
     7
 10
180.0
 20
185.0
 30
0.0
 11
210.450615
 21
185.0
 31
0.0
  0
LINE
  8
0
  6
CONTINUOUS
 62
     7
 10
189.900936
 20
174.960055
 30
0.0
 11
192.400936
 21
174.960055
 31
0.0
  0
LINE
  8
0
  6
CONTINUOUS
 62
     7
 10
189.900936
 20
174.960055
 30
0.0
 11
187.676489
 21
174.399413
 31
0.0
  0
LINE
  8
0
  6
CONTINUOUS
 62
     7
 10
184.900936
 20
174.960055
 30
0.0
 11
187.400936
 21
174.960055
 31
0.0
  0
TEXT
  8
0
  6
HIDDEN
 62
     7
 10
181.080478
 20
174.226807
 30
0.0
 40
1.5
  1
EN
  0
TEXT
  8
0
  6
HIDDEN
 62
     7
 10
181.080478
 20
177.167847
 30
0.0
 40
1.5
  1
EN
  0
LINE
  8
0
  6
CONTINUOUS
 62
     7
 10
184.900936
 20
177.901095
 30
0.0
 11
187.400936
 21
177.901095
 31
0.0
  0
LINE
  8
0
  6
CONTINUOUS
 62
     7
 10
189.900936
 20
177.901095
 30
0.0
 11
187.676489
 21
177.340453
 31
0.0
  0
LINE
  8
0
  6
CONTINUOUS
 62
     7
 10
189.900936
 20
177.901095
 30
0.0
 11
192.400936
 21
177.901095
 31
0.0
  0
LINE
  8
0
  6
CONTINUOUS
 62
     7
 10
178.01273
 20
174.971652
 30
0.0
 11
172.5
 21
174.971652
 31
0.0
  0
LINE
  8
0
  6
CONTINUOUS
 62
     7
 10
178.01273
 20
178.000813
 30
0.0
 11
170.0
 21
178.000813
 31
0.0
  0
CIRCLE
  8
0
  6
CONTINUOUS
 62
     7
 10
179.012659
 20
177.994509
 30
0.0
 40
1.0
  0
CIRCLE
  8
0
  6
CONTINUOUS
 62
     7
 10
179.012659
 20
174.965349
 30
0.0
 40
1.0
  0
LINE
  8
0
  6
CONTINUOUS
 62
     7
 10
188.009018
 20
171.932945
 30
0.0
 11
185.663252
 21
170.743026
 31
0.0
  0
LINE
  8
0
  6
CONTINUOUS
 62
     7
 10
185.663252
 20
173.268299
 30
0.0
 11
188.009018
 21
171.932945
 31
0.0
  0
LINE
  8
0
  6
CONTINUOUS
 62
     7
 10
185.311857
 20
168.561795
 30
0.0
 11
187.657623
 21
167.226442
 31
0.0
  0
LINE
  8
0
  6
CONTINUOUS
 62
     7
 10
187.657623
 20
167.226442
 30
0.0
 11
185.311857
 21
166.036523
 31
0.0
  0
LINE
  8
0
  6
CONTINUOUS
 62
     7
 10
187.008016
 20
168.561795
 30
0.0
 11
189.353781
 21
167.226442
 31
0.0
  0
LINE
  8
0
  6
CONTINUOUS
 62
     7
 10
189.353781
 20
167.226442
 30
0.0
 11
187.008016
 21
166.036523
 31
0.0
  0
LINE
  8
0
  6
CONTINUOUS
 62
     7
 10
189.900936
 20
162.901095
 30
0.0
 11
192.400936
 21
162.901095
 31
0.0
  0
LINE
  8
0
  6
CONTINUOUS
 62
     7
 10
189.900936
 20
162.901095
 30
0.0
 11
187.676489
 21
162.340453
 31
0.0
  0
LINE
  8
0
  6
CONTINUOUS
 62
     7
 10
184.900936
 20
162.901095
 30
0.0
 11
187.400936
 21
162.901095
 31
0.0
  0
TEXT
  8
0
  6
HIDDEN
 62
     7
 10
181.080478
 20
162.167847
 30
0.0
 40
1.5
  1
EN
  0
TEXT
  8
0
  6
HIDDEN
 62
     7
 10
181.080478
 20
159.226807
 30
0.0
 40
1.5
  1
EN
  0
LINE
  8
0
  6
CONTINUOUS
 62
     7
 10
184.900936
 20
159.960055
 30
0.0
 11
187.400936
 21
159.960055
 31
0.0
  0
LINE
  8
0
  6
CONTINUOUS
 62
     7
 10
189.900936
 20
159.960055
 30
0.0
 11
187.676489
 21
159.399413
 31
0.0
  0
LINE
  8
0
  6
CONTINUOUS
 62
     7
 10
189.900936
 20
159.960055
 30
0.0
 11
192.400936
 21
159.960055
 31
0.0
  0
CIRCLE
  8
0
  6
CONTINUOUS
 62
     7
 10
179.012659
 20
159.965349
 30
0.0
 40
1.0
  0
LINE
  8
0
  6
CONTINUOUS
 62
     7
 10
178.01273
 20
159.971652
 30
0.0
 11
172.5
 21
159.971652
 31
0.0
  0
LINE
  8
0
  6
CONTINUOUS
 62
     7
 10
178.01273
 20
163.000813
 30
0.0
 11
170.0
 21
163.000813
 31
0.0
  0
CIRCLE
  8
0
  6
CONTINUOUS
 62
     7
 10
179.012659
 20
162.994509
 30
0.0
 40
1.0
  0
LINE
  8
0
  6
CONTINUOUS
 62
     7
 10
189.353781
 20
156.684962
 30
0.0
 11
187.008016
 21
155.495042
 31
0.0
  0
LINE
  8
0
  6
CONTINUOUS
 62
     7
 10
187.008016
 20
158.020315
 30
0.0
 11
189.353781
 21
156.684962
 31
0.0
  0
LINE
  8
0
  6
CONTINUOUS
 62
     7
 10
187.657623
 20
156.684962
 30
0.0
 11
185.311857
 21
155.495042
 31
0.0
  0
LINE
  8
0
  6
CONTINUOUS
 62
     7
 10
185.311857
 20
158.020315
 30
0.0
 11
187.657623
 21
156.684962
 31
0.0
  0
LINE
  8
0
  6
CONTINUOUS
 62
     7
 10
198.834995
 20
157.489158
 30
0.0
 11
198.834995
 21
155.701026
 31
0.0
  0
LINE
  8
0
  6
CONTINUOUS
 62
     7
 10
193.435476
 20
155.476276
 30
0.0
 11
196.311586
 21
158.304835
 31
0.0
  0
LINE
  8
0
  6
CONTINUOUS
 62
     7
 10
195.880883
 20
158.842042
 30
0.0
 11
196.78156
 21
157.718293
 31
0.0
  0
LINE
  8
0
  6
CONTINUOUS
 62
     7
 10
191.051331
 20
156.643879
 30
0.0
 11
198.839536
 21
156.643879
 31
0.0
  0
LINE
  8
0
  6
CONTINUOUS
 62
     7
 10
191.020299
 20
157.489158
 30
0.0
 11
191.020299
 21
155.701026
 31
0.0
  0
TEXT
  8
0
  6
CONTINUOUS
 62
     7
 10
205.0
 20
180.775586
 30
0.0
 40
2.5
  1
U2
  7
ROMANS
  0
TEXT
  8
0
  6
CONTINUOUS
 62
     7
 10
205.001359
 20
150.658649
 30
0.0
 40
2.5
  1
U3
  7
GREEKS
  0
LINE
  8
0
  6
HIDDEN
 62
     7
 10
180.0
 20
130.0
 30
0.0
 11
180.0
 21
57.5
 31
0.0
  0
LINE
  8
0
  6
HIDDEN
 62
     7
 10
210.450615
 20
130.0
 30
0.0
 11
210.450615
 21
57.5
 31
0.0
  0
ARC
  8
0
 62
     7
 10
239.934151
 20
123.75
 30
0.0
 40
1.251733
 50
86.984476
 51
273.015524
  0
ARC
  8
0
 62
     7
 10
239.934151
 20
126.25
 30
0.0
 40
1.251733
 50
86.984476
 51
273.015524
  0
LINE
  8
0
 62
     7
 10
240.0
 20
125.0
 30
0.0
 11
242.5
 21
125.0
 31
0.0
  0
LINE
  8
0
 62
     7
 10
242.5
 20
127.5
 30
0.0
 11
245.0
 21
127.5
 31
0.0
  0
LINE
  8
0
 62
     7
 10
242.5
 20
122.5
 30
0.0
 11
245.0
 21
122.5
 31
0.0
  0
LINE
  8
0
 62
     7
 10
242.5
 20
122.5
 30
0.0
 11
245.0
 21
122.5
 31
0.0
  0
LINE
  8
0
 62
     7
 10
240.0
 20
122.5
 30
0.0
 11
250.0
 21
122.5
 31
0.0
  0
LINE
  8
0
 62
     7
 10
240.0
 20
120.0
 30
0.0
 11
242.5
 21
120.0
 31
0.0
  0
ARC
  8
0
 62
     7
 10
239.934151
 20
121.25
 30
0.0
 40
1.251733
 50
86.984476
 51
273.015524
  0
ARC
  8
0
 62
     7
 10
239.934151
 20
118.75
 30
0.0
 40
1.251733
 50
86.984476
 51
273.015524
  0
LINE
  8
0
 62
     7
 10
240.0
 20
117.5
 30
0.0
 11
242.5
 21
117.5
 31
0.0
  0
ARC
  8
0
 62
     7
 10
235.065849
 20
123.75
 30
0.0
 40
1.251733
 50
266.984476
 51
93.015524
  0
LINE
  8
0
 62
     7
 10
235.0
 20
125.0
 30
0.0
 11
233.480133
 21
125.0
 31
0.0
  0
LINE
  8
0
 62
     7
 10
235.0
 20
122.5
 30
0.0
 11
233.480133
 21
122.5
 31
0.0
  0
ARC
  8
0
 62
     7
 10
235.065849
 20
121.25
 30
0.0
 40
1.251733
 50
266.984476
 51
93.015524
  0
LINE
  8
0
 62
     7
 10
235.0
 20
120.0
 30
0.0
 11
233.480133
 21
120.0
 31
0.0
  0
LINE
  8
0
 62
     7
 10
240.0
 20
102.5
 30
0.0
 11
242.5
 21
102.5
 31
0.0
  0
ARC
  8
0
 62
     7
 10
239.934151
 20
103.75
 30
0.0
 40
1.251733
 50
86.984476
 51
273.015524
  0
ARC
  8
0
 62
     7
 10
239.934151
 20
106.25
 30
0.0
 40
1.251733
 50
86.984476
 51
273.015524
  0
LINE
  8
0
 62
     7
 10
240.0
 20
105.0
 30
0.0
 11
242.5
 21
105.0
 31
0.0
  0
LINE
  8
0
 62
     7
 10
242.5
 20
102.5
 30
0.0
 11
245.0
 21
102.5
 31
0.0
  0
LINE
  8
0
 62
     7
 10
240.0
 20
102.5
 30
0.0
 11
250.0
 21
102.5
 31
0.0
  0
LINE
  8
0
 62
     7
 10
240.0
 20
100.0
 30
0.0
 11
242.5
 21
100.0
 31
0.0
  0
ARC
  8
0
 62
     7
 10
239.934151
 20
101.25
 30
0.0
 40
1.251733
 50
86.984476
 51
273.015524
  0
ARC
  8
0
 62
     7
 10
239.934151
 20
98.75
 30
0.0
 40
1.251733
 50
86.984476
 51
273.015524
  0
LINE
  8
0
 62
     7
 10
240.0
 20
97.5
 30
0.0
 11
242.5
 21
97.5
 31
0.0
  0
ARC
  8
0
 62
     7
 10
235.065849
 20
103.75
 30
0.0
 40
1.251733
 50
266.984476
 51
93.015524
  0
LINE
  8
0
 62
     7
 10
235.0
 20
105.0
 30
0.0
 11
233.480133
 21
105.0
 31
0.0
  0
LINE
  8
0
 62
     7
 10
235.0
 20
102.5
 30
0.0
 11
233.480133
 21
102.5
 31
0.0
  0
ARC
  8
0
 62
     7
 10
235.065849
 20
101.25
 30
0.0
 40
1.251733
 50
266.984476
 51
93.015524
  0
LINE
  8
0
 62
     7
 10
235.0
 20
100.0
 30
0.0
 11
233.480133
 21
100.0
 31
0.0
  0
LINE
  8
0
 62
     7
 10
240.0
 20
82.5
 30
0.0
 11
242.5
 21
82.5
 31
0.0
  0
ARC
  8
0
 62
     7
 10
239.934151
 20
83.75
 30
0.0
 40
1.251733
 50
86.984476
 51
273.015524
  0
ARC
  8
0
 62
     7
 10
239.934151
 20
86.25
 30
0.0
 40
1.251733
 50
86.984476
 51
273.015524
  0
LINE
  8
0
 62
     7
 10
240.0
 20
85.0
 30
0.0
 11
242.5
 21
85.0
 31
0.0
  0
LINE
  8
0
 62
     7
 10
242.5
 20
82.5
 30
0.0
 11
245.0
 21
82.5
 31
0.0
  0
LINE
  8
0
 62
     7
 10
240.0
 20
82.5
 30
0.0
 11
250.0
 21
82.5
 31
0.0
  0
LINE
  8
0
 62
     7
 10
240.0
 20
80.0
 30
0.0
 11
242.5
 21
80.0
 31
0.0
  0
ARC
  8
0
 62
     7
 10
239.934151
 20
81.25
 30
0.0
 40
1.251733
 50
86.984476
 51
273.015524
  0
ARC
  8
0
 62
     7
 10
239.934151
 20
78.75
 30
0.0
 40
1.251733
 50
86.984476
 51
273.015524
  0
LINE
  8
0
 62
     7
 10
240.0
 20
77.5
 30
0.0
 11
242.5
 21
77.5
 31
0.0
  0
ARC
  8
0
 62
     7
 10
235.065849
 20
83.75
 30
0.0
 40
1.251733
 50
266.984476
 51
93.015524
  0
LINE
  8
0
 62
     7
 10
235.0
 20
85.0
 30
0.0
 11
233.480133
 21
85.0
 31
0.0
  0
LINE
  8
0
 62
     7
 10
235.0
 20
82.5
 30
0.0
 11
233.480133
 21
82.5
 31
0.0
  0
ARC
  8
0
 62
     7
 10
235.065849
 20
81.25
 30
0.0
 40
1.251733
 50
266.984476
 51
93.015524
  0
LINE
  8
0
 62
     7
 10
235.0
 20
80.0
 30
0.0
 11
233.480133
 21
80.0
 31
0.0
  0
LINE
  8
0
 62
     7
 10
240.0
 20
127.5
 30
0.0
 11
250.0
 21
127.5
 31
0.0
  0
LINE
  8
0
 62
     7
 10
242.5
 20
117.5
 30
0.0
 11
250.0
 21
117.5
 31
0.0
  0
LINE
  8
0
 62
     7
 10
240.0
 20
87.5
 30
0.0
 11
250.0
 21
87.5
 31
0.0
  0
LINE
  8
0
 62
     7
 10
242.5
 20
77.5
 30
0.0
 11
250.0
 21
77.5
 31
0.0
  0
LINE
  8
0
 62
     7
 10
242.5
 20
97.5
 30
0.0
 11
250.0
 21
97.5
 31
0.0
  0
LINE
  8
0
 62
     7
 10
240.0
 20
107.5
 30
0.0
 11
250.0
 21
107.5
 31
0.0
  0
LINE
  8
0
  6
CONTINUOUS
 62
     7
 10
230.0
 20
125.0
 30
0.0
 11
230.0
 21
80.0
 31
0.0
  0
LINE
  8
0
  6
CONTINUOUS
 62
     7
 10
230.0
 20
80.0
 30
0.0
 11
231.0
 21
79.0
 31
0.0
  0
LINE
  8
0
  6
CONTINUOUS
 62
     7
 10
230.0
 20
125.0
 30
0.0
 11
231.0
 21
126.0
 31
0.0
  0
TEXT
  8
0
  6
HIDDEN
 62
     7
 10
246.339088
 20
192.505131
 30
0.0
 40
2.0
  1
6
  7
ROMANS
  0
TEXT
  8
0
  6
HIDDEN
 62
     7
 10
246.339088
 20
187.453437
 30
0.0
 40
2.0
  1
5
  7
ROMANS
  0
TEXT
  8
0
  6
HIDDEN
 62
     7
 10
246.339088
 20
182.390728
 30
0.0
 40
2.0
  1
4
  7
ROMANS
  0
TEXT
  8
0
  6
HIDDEN
 62
     7
 10
245.472137
 20
124.959045
 30
0.0
 40
2.0
  1
15
  7
ROMANS
  0
TEXT
  8
0
  6
HIDDEN
 62
     7
 10
245.472137
 20
119.852276
 30
0.0
 40
2.0
  1
14
  7
ROMANS
  0
TEXT
  8
0
  6
HIDDEN
 62
     7
 10
245.472137
 20
114.844643
 30
0.0
 40
2.0
  1
13
  7
ROMANS
  0
TEXT
  8
0
  6
HIDDEN
 62
     7
 10
245.472137
 20
104.825125
 30
0.0
 40
2.0
  1
18
  7
ROMANS
  0
TEXT
  8
0
  6
HIDDEN
 62
     7
 10
245.472137
 20
99.828507
 30
0.0
 40
2.0
  1
17
  7
ROMANS
  0
TEXT
  8
0
  6
HIDDEN
 62
     7
 10
245.472137
 20
94.820874
 30
0.0
 40
2.0
  1
16
  7
ROMANS
  0
TEXT
  8
0
  6
HIDDEN
 62
     7
 10
245.472137
 20
84.955568
 30
0.0
 40
2.0
  1
21
  7
ROMANS
  0
TEXT
  8
0
  6
HIDDEN
 62
     7
 10
245.472137
 20
79.793723
 30
0.0
 40
2.0
  1
20
  7
ROMANS
  0
TEXT
  8
0
  6
HIDDEN
 62
     7
 10
245.472137
 20
74.797105
 30
0.0
 40
2.0
  1
19
  7
ROMANS
  0
LINE
  8
0
  6
CONTINUOUS
 62
     7
 10
230.0
 20
147.5
 30
0.0
 11
231.0
 21
146.5
 31
0.0
  0
LINE
  8
0
  6
CONTINUOUS
 62
     7
 10
230.0
 20
152.5
 30
0.0
 11
231.0
 21
153.5
 31
0.0
  0
LINE
  8
0
  6
CONTINUOUS
 62
     7
 10
230.0
 20
152.5
 30
0.0
 11
230.0
 21
147.5
 31
0.0
  0
LINE
  8
0
  6
CONTINUOUS
 62
     7
 10
222.5
 20
190.0
 30
0.0
 11
222.5
 21
200.0
 31
0.0
  0
LINE
  8
0
  6
CONTINUOUS
 62
     7
 10
210.450615
 20
140.0
 30
0.0
 11
222.5
 21
140.0
 31
0.0
  0
LINE
  8
0
  6
CONTINUOUS
 62
     7
 10
222.5
 20
102.5
 30
0.0
 11
222.5
 21
57.5
 31
0.0
  0
TEXT
  8
0
  6
CONTINUOUS
 62
     7
 10
46.636438
 20
154.2654
 30
0.0
 40
2.0
  1
SGR
 50
90.0
  7
ROMANS
  0
LINE
  8
0
  6
CONTINUOUS
 62
     7
 10
50.0
 20
157.5
 30
0.0
 11
50.0
 21
171.972419
 31
0.0
  0
LINE
  8
0
  6
CONTINUOUS
 62
     7
 10
50.0
 20
152.5
 30
0.0
 11
48.285914
 21
157.586297
 31
0.0
  0
LINE
  8
0
  6
CONTINUOUS
 62
     7
 10
50.0
 20
145.0
 30
0.0
 11
50.0
 21
152.5
 31
0.0
  0
TEXT
  8
0
  6
CONTINUOUS
 62
     7
 10
55.41296
 20
141.464455
 30
0.0
 40
2.5
  1
1
 11
55.41296
 21
140.631122
 31
0.0
 73
     1
  0
LINE
  8
0
  6
CONTINUOUS
 62
     7
 10
50.979098
 20
144.124549
 30
0.0
 11
53.324863
 21
142.789195
 31
0.0
  0
LINE
  8
0
  6
CONTINUOUS
 62
     7
 10
50.971056
 20
140.799262
 30
0.0
 11
53.354516
 21
141.987454
 31
0.0
  0
LINE
  8
0
  6
CONTINUOUS
 62
     7
 10
53.324863
 20
142.789195
 30
0.0
 11
50.979098
 21
141.599276
 31
0.0
  0
LINE
  8
0
  6
CONTINUOUS
 62
     7
 10
55.0
 20
140.0
 30
0.0
 11
55.0
 21
137.5
 31
0.0
  0
LINE
  8
0
  6
CONTINUOUS
 62
     7
 10
55.0
 20
145.0
 30
0.0
 11
55.0
 21
202.066264
 31
0.0
  0
LINE
  8
0
  6
CONTINUOUS
 62
     7
 10
60.0
 20
145.0
 30
0.0
 11
47.5
 21
145.0
 31
0.0
  0
LINE
  8
0
  6
CONTINUOUS
 62
     7
 10
60.0
 20
145.0
 30
0.0
 11
60.0
 21
140.0
 31
0.0
  0
LINE
  8
0
  6
CONTINUOUS
 62
     7
 10
52.5
 20
145.0
 30
0.0
 11
52.5
 21
187.015226
 31
0.0
  0
LINE
  8
0
  6
CONTINUOUS
 62
     7
 10
47.5
 20
140.0
 30
0.0
 11
60.0
 21
140.0
 31
0.0
  0
LINE
  8
0
  6
CONTINUOUS
 62
     7
 10
47.5
 20
145.0
 30
0.0
 11
47.5
 21
140.0
 31
0.0
  0
LINE
  8
0
  6
CONTINUOUS
 62
     7
 10
67.5
 20
145.0
 30
0.0
 11
77.5
 21
145.0
 31
0.0
  0
LINE
  8
0
  6
CONTINUOUS
 62
     7
 10
77.5
 20
145.0
 30
0.0
 11
77.5
 21
140.0
 31
0.0
  0
LINE
  8
0
  6
CONTINUOUS
 62
     7
 10
77.5
 20
140.0
 30
0.0
 11
67.5
 21
140.0
 31
0.0
  0
LINE
  8
0
  6
CONTINUOUS
 62
     7
 10
67.5
 20
140.0
 30
0.0
 11
67.5
 21
145.0
 31
0.0
  0
LINE
  8
0
  6
CONTINUOUS
 62
     7
 10
71.707396
 20
142.789195
 30
0.0
 11
69.36163
 21
141.599276
 31
0.0
  0
LINE
  8
0
  6
CONTINUOUS
 62
     7
 10
69.353589
 20
140.799262
 30
0.0
 11
71.737049
 21
141.987454
 31
0.0
  0
LINE
  8
0
  6
CONTINUOUS
 62
     7
 10
69.36163
 20
144.124549
 30
0.0
 11
71.707396
 21
142.789195
 31
0.0
  0
TEXT
  8
0
  6
CONTINUOUS
 62
     7
 10
73.795492
 20
141.464455
 30
0.0
 40
2.5
  1
1
 11
73.795492
 21
140.631122
 31
0.0
 73
     1
  0
TEXT
  8
0
  6
CONTINUOUS
 62
     7
 10
86.295492
 20
141.464455
 30
0.0
 40
2.5
  1
1
 11
86.295492
 21
140.631122
 31
0.0
 73
     1
  0
LINE
  8
0
  6
CONTINUOUS
 62
     7
 10
81.86163
 20
144.124549
 30
0.0
 11
84.207396
 21
142.789195
 31
0.0
  0
LINE
  8
0
  6
CONTINUOUS
 62
     7
 10
81.853589
 20
140.799262
 30
0.0
 11
84.237049
 21
141.987454
 31
0.0
  0
LINE
  8
0
  6
CONTINUOUS
 62
     7
 10
84.207396
 20
142.789195
 30
0.0
 11
81.86163
 21
141.599276
 31
0.0
  0
LINE
  8
0
  6
CONTINUOUS
 62
     7
 10
80.0
 20
140.0
 30
0.0
 11
80.0
 21
145.0
 31
0.0
  0
LINE
  8
0
  6
CONTINUOUS
 62
     7
 10
90.0
 20
140.0
 30
0.0
 11
80.0
 21
140.0
 31
0.0
  0
LINE
  8
0
  6
CONTINUOUS
 62
     7
 10
90.0
 20
145.0
 30
0.0
 11
90.0
 21
140.0
 31
0.0
  0
LINE
  8
0
  6
CONTINUOUS
 62
     7
 10
80.0
 20
145.0
 30
0.0
 11
90.0
 21
145.0
 31
0.0
  0
LINE
  8
0
  6
CONTINUOUS
 62
     7
 10
92.5
 20
145.0
 30
0.0
 11
102.5
 21
145.0
 31
0.0
  0
LINE
  8
0
  6
CONTINUOUS
 62
     7
 10
102.5
 20
145.0
 30
0.0
 11
102.5
 21
140.0
 31
0.0
  0
LINE
  8
0
  6
CONTINUOUS
 62
     7
 10
102.5
 20
140.0
 30
0.0
 11
92.5
 21
140.0
 31
0.0
  0
LINE
  8
0
  6
CONTINUOUS
 62
     7
 10
92.5
 20
140.0
 30
0.0
 11
92.5
 21
145.0
 31
0.0
  0
LINE
  8
0
  6
CONTINUOUS
 62
     7
 10
96.707396
 20
142.789195
 30
0.0
 11
94.36163
 21
141.599276
 31
0.0
  0
LINE
  8
0
  6
CONTINUOUS
 62
     7
 10
94.353589
 20
140.799262
 30
0.0
 11
96.737049
 21
141.987454
 31
0.0
  0
LINE
  8
0
  6
CONTINUOUS
 62
     7
 10
94.36163
 20
144.124549
 30
0.0
 11
96.707396
 21
142.789195
 31
0.0
  0
TEXT
  8
0
  6
CONTINUOUS
 62
     7
 10
98.795492
 20
141.464455
 30
0.0
 40
2.5
  1
1
 11
98.795492
 21
140.631122
 31
0.0
 73
     1
  0
LINE
  8
0
  6
CONTINUOUS
 62
     7
 10
95.0
 20
145.0
 30
0.0
 11
95.0
 21
152.5
 31
0.0
  0
LINE
  8
0
  6
CONTINUOUS
 62
     7
 10
95.0
 20
152.5
 30
0.0
 11
93.285914
 21
157.586297
 31
0.0
  0
LINE
  8
0
  6
CONTINUOUS
 62
     7
 10
95.0
 20
157.5
 30
0.0
 11
95.0
 21
160.0
 31
0.0
  0
LINE
  8
0
  6
CONTINUOUS
 62
     7
 10
87.5
 20
145.0
 30
0.0
 11
87.5
 21
152.5
 31
0.0
  0
LINE
  8
0
  6
CONTINUOUS
 62
     7
 10
87.5
 20
152.5
 30
0.0
 11
85.785914
 21
157.586297
 31
0.0
  0
LINE
  8
0
  6
CONTINUOUS
 62
     7
 10
87.5
 20
157.5
 30
0.0
 11
87.5
 21
160.0
 31
0.0
  0
LINE
  8
0
  6
CONTINUOUS
 62
     7
 10
75.0
 20
157.5
 30
0.0
 11
75.0
 21
162.5
 31
0.0
  0
LINE
  8
0
  6
CONTINUOUS
 62
     7
 10
75.0
 20
152.5
 30
0.0
 11
73.285914
 21
157.586297
 31
0.0
  0
LINE
  8
0
  6
CONTINUOUS
 62
     7
 10
75.0
 20
145.0
 30
0.0
 11
75.0
 21
152.5
 31
0.0
  0
LINE
  8
0
  6
CONTINUOUS
 62
     7
 10
70.0
 20
145.0
 30
0.0
 11
70.0
 21
152.5
 31
0.0
  0
LINE
  8
0
  6
CONTINUOUS
 62
     7
 10
70.0
 20
152.5
 30
0.0
 11
68.285914
 21
157.586297
 31
0.0
  0
LINE
  8
0
  6
CONTINUOUS
 62
     7
 10
70.0
 20
157.5
 30
0.0
 11
70.0
 21
175.0
 31
0.0
  0
TEXT
  8
0
  6
CONTINUOUS
 62
     7
 10
49.776285
 20
155.0
 30
0.0
 40
2.0
  1
3
  7
ROMANS
  0
TEXT
  8
0
  6
CONTINUOUS
 62
     7
 10
70.448847
 20
155.0
 30
0.0
 40
2.0
  1
2
  7
ROMANS
  0
TEXT
  8
0
  6
CONTINUOUS
 62
     7
 10
75.413852
 20
155.0
 30
0.0
 40
2.0
  1
7
  7
ROMANS
  0
TEXT
  8
0
  6
CONTINUOUS
 62
     7
 10
87.667359
 20
155.0
 30
0.0
 40
2.0
  1
8
  7
ROMANS
  0
TEXT
  8
0
  6
CONTINUOUS
 62
     7
 10
95.584283
 20
155.0
 30
0.0
 40
2.0
  1
1
  7
ROMANS
  0
LINE
  8
0
  6
CONTINUOUS
 62
     7
 10
60.0
 20
132.5
 30
0.0
 11
60.0
 21
127.5
 31
0.0
  0
LINE
  8
0
  6
CONTINUOUS
 62
     7
 10
60.0
 20
127.5
 30
0.0
 11
40.0
 21
127.5
 31
0.0
  0
LINE
  8
0
  6
CONTINUOUS
 62
     7
 10
77.5
 20
122.5
 30
0.0
 11
77.5
 21
117.5
 31
0.0
  0
LINE
  8
0
  6
CONTINUOUS
 62
     7
 10
77.5
 20
117.5
 30
0.0
 11
40.0
 21
117.5
 31
0.0
  0
LINE
  8
0
  6
CONTINUOUS
 62
     7
 10
120.0
 20
127.5
 30
0.0
 11
120.0
 21
125.0
 31
0.0
  0
LINE
  8
0
  6
CONTINUOUS
 62
     7
 10
117.5
 20
120.0
 30
0.0
 11
117.5
 21
119.999975
 31
0.0
  0
LINE
  8
0
  6
CONTINUOUS
 62
     7
 10
122.5
 20
125.0
 30
0.0
 11
122.5
 21
120.0
 31
0.0
  0
LINE
  8
0
  6
CONTINUOUS
 62
     7
 10
122.5
 20
120.0
 30
0.0
 11
115.0
 21
120.0
 31
0.0
  0
LINE
  8
0
  6
CONTINUOUS
 62
     7
 10
115.0
 20
120.0
 30
0.0
 11
115.0
 21
125.0
 31
0.0
  0
LINE
  8
0
  6
CONTINUOUS
 62
     7
 10
115.0
 20
125.0
 30
0.0
 11
122.5
 21
125.0
 31
0.0
  0
LINE
  8
0
  6
CONTINUOUS
 62
     7
 10
132.5
 20
125.0
 30
0.0
 11
132.5
 21
127.5
 31
0.0
  0
LINE
  8
0
  6
CONTINUOUS
 62
     7
 10
125.0
 20
125.0
 30
0.0
 11
137.5
 21
125.0
 31
0.0
  0
LINE
  8
0
  6
CONTINUOUS
 62
     7
 10
137.5
 20
125.0
 30
0.0
 11
137.5
 21
120.0
 31
0.0
  0
LINE
  8
0
  6
CONTINUOUS
 62
     7
 10
137.5
 20
120.0
 30
0.0
 11
125.0
 21
120.0
 31
0.0
  0
LINE
  8
0
  6
CONTINUOUS
 62
     7
 10
125.0
 20
120.0
 30
0.0
 11
125.0
 21
125.0
 31
0.0
  0
LINE
  8
0
  6
CONTINUOUS
 62
     7
 10
131.063758
 20
122.789195
 30
0.0
 11
128.717992
 21
121.599276
 31
0.0
  0
LINE
  8
0
  6
CONTINUOUS
 62
     7
 10
128.70995
 20
120.799262
 30
0.0
 11
131.093411
 21
121.987454
 31
0.0
  0
LINE
  8
0
  6
CONTINUOUS
 62
     7
 10
128.717992
 20
124.124549
 30
0.0
 11
131.063758
 21
122.789195
 31
0.0
  0
TEXT
  8
0
  6
CONTINUOUS
 62
     7
 10
133.151854
 20
121.464455
 30
0.0
 40
2.5
  1
1
 11
133.151854
 21
120.631122
 31
0.0
 73
     1
  0
TEXT
  8
0
  6
CONTINUOUS
 62
     7
 10
148.151854
 20
121.464455
 30
0.0
 40
2.5
  1
1
 11
148.151854
 21
120.631122
 31
0.0
 73
     1
  0
LINE
  8
0
  6
CONTINUOUS
 62
     7
 10
143.717992
 20
124.124549
 30
0.0
 11
146.063758
 21
122.789195
 31
0.0
  0
LINE
  8
0
  6
CONTINUOUS
 62
     7
 10
143.70995
 20
120.799262
 30
0.0
 11
146.093411
 21
121.987454
 31
0.0
  0
LINE
  8
0
  6
CONTINUOUS
 62
     7
 10
146.063758
 20
122.789195
 30
0.0
 11
143.717992
 21
121.599276
 31
0.0
  0
LINE
  8
0
  6
CONTINUOUS
 62
     7
 10
140.0
 20
120.0
 30
0.0
 11
140.0
 21
125.0
 31
0.0
  0
LINE
  8
0
  6
CONTINUOUS
 62
     7
 10
152.5
 20
120.0
 30
0.0
 11
140.0
 21
120.0
 31
0.0
  0
LINE
  8
0
  6
CONTINUOUS
 62
     7
 10
152.5
 20
125.0
 30
0.0
 11
152.5
 21
120.0
 31
0.0
  0
LINE
  8
0
  6
CONTINUOUS
 62
     7
 10
140.0
 20
125.0
 30
0.0
 11
152.5
 21
125.0
 31
0.0
  0
LINE
  8
0
  6
CONTINUOUS
 62
     7
 10
147.5
 20
125.0
 30
0.0
 11
147.5
 21
127.5
 31
0.0
  0
LINE
  8
0
  6
CONTINUOUS
 62
     7
 10
72.5
 20
135.0
 30
0.0
 11
72.5
 21
140.0
 31
0.0
  0
LINE
  8
0
  6
CONTINUOUS
 62
     7
 10
85.0
 20
135.0
 30
0.0
 11
85.0
 21
140.0
 31
0.0
  0
LINE
  8
0
  6
CONTINUOUS
 62
     7
 10
97.5
 20
135.0
 30
0.0
 11
97.5
 21
140.0
 31
0.0
  0
LINE
  8
0
  6
CONTINUOUS
 62
     7
 10
120.0
 20
120.0
 30
0.0
 11
120.0
 21
57.5
 31
0.0
  0
LINE
  8
0
  6
CONTINUOUS
 62
     7
 10
132.5
 20
120.0
 30
0.0
 11
132.5
 21
57.5
 31
0.0
  0
LINE
  8
0
  6
CONTINUOUS
 62
     7
 10
147.5
 20
120.0
 30
0.0
 11
147.5
 21
57.5
 31
0.0
  0
TEXT
  8
0
  6
CONTINUOUS
 62
     7
 10
118.25176
 20
121.455036
 30
0.0
 40
2.5
  1
&
  7
GREEKS
  0
LINE
  8
0
  6
CONTINUOUS
 62
     7
 10
117.5
 20
127.5
 30
0.0
 11
117.5
 21
126.414794
 31
0.0
  0
CIRCLE
  8
0
  6
CONTINUOUS
 62
     7
 10
117.499507
 20
125.707385
 30
0.0
 40
0.707409
  0
LINE
  8
0
  6
CONTINUOUS
 62
     7
 10
95.0
 20
160.0
 30
0.0
 11
95.0
 21
212.5
 31
0.0
  0
LINE
  8
0
  6
CONTINUOUS
 62
     7
 10
95.0
 20
212.5
 30
0.0
 11
180.0
 21
212.5
 31
0.0
  0
LINE
  8
0
  6
CONTINUOUS
 62
     7
 10
100.0
 20
145.0
 30
0.0
 11
100.0
 21
197.5
 31
0.0
  0
LINE
  8
0
  6
CONTINUOUS
 62
     7
 10
100.0
 20
197.5
 30
0.0
 11
180.0
 21
197.5
 31
0.0
  0
LINE
  8
0
  6
CONTINUOUS
 62
     7
 10
107.5
 20
112.5
 30
0.0
 11
107.5
 21
182.5
 31
0.0
  0
LINE
  8
0
  6
CONTINUOUS
 62
     7
 10
107.5
 20
182.5
 30
0.0
 11
180.0
 21
182.5
 31
0.0
  0
LINE
  8
0
  6
CONTINUOUS
 62
     7
 10
65.0
 20
210.0
 30
0.0
 11
65.0
 21
208.000813
 31
0.0
  0
LINE
  8
0
  6
CONTINUOUS
 62
     7
 10
65.0
 20
217.5
 30
0.0
 11
172.5
 21
217.5
 31
0.0
  0
LINE
  8
0
  6
CONTINUOUS
 62
     7
 10
172.5
 20
217.5
 30
0.0
 11
172.5
 21
159.971652
 31
0.0
  0
LINE
  8
0
  6
CONTINUOUS
 62
     7
 10
170.0
 20
208.000813
 30
0.0
 11
170.0
 21
142.5
 31
0.0
  0
LINE
  8
0
  6
CONTINUOUS
 62
     7
 10
180.0
 20
167.5
 30
0.0
 11
147.5
 21
167.5
 31
0.0
  0
LINE
  8
0
  6
CONTINUOUS
 62
     7
 10
147.5
 20
167.5
 30
0.0
 11
147.5
 21
127.5
 31
0.0
  0
LINE
  8
0
  6
CONTINUOUS
 62
     7
 10
117.5
 20
127.5
 30
0.0
 11
117.5
 21
149.280914
 31
0.0
  0
LINE
  8
0
  6
CONTINUOUS
 62
     7
 10
50.0
 20
149.280914
 30
0.0
 11
117.5
 21
149.280914
 31
0.0
  0
LINE
  8
0
  6
CONTINUOUS
 62
     7
 10
40.0
 20
107.5
 30
0.0
 11
82.5
 21
107.5
 31
0.0
  0
LINE
  8
0
  6
CONTINUOUS
 62
     7
 10
82.5
 20
102.5
 30
0.0
 11
40.0
 21
102.5
 31
0.0
  0
LINE
  8
0
  6
CONTINUOUS
 62
     7
 10
82.5
 20
102.5
 30
0.0
 11
82.5
 21
105.0
 31
0.0
  0
LINE
  8
0
  6
CONTINUOUS
 62
     7
 10
95.0
 20
87.5
 30
0.0
 11
95.0
 21
90.0
 31
0.0
  0
LINE
  8
0
  6
CONTINUOUS
 62
     7
 10
95.0
 20
87.5
 30
0.0
 11
40.0
 21
87.5
 31
0.0
  0
LINE
  8
0
  6
CONTINUOUS
 62
     7
 10
40.0
 20
92.5
 30
0.0
 11
95.0
 21
92.5
 31
0.0
  0
LINE
  8
0
  6
CONTINUOUS
 62
     7
 10
40.0
 20
77.5
 30
0.0
 11
105.0
 21
77.5
 31
0.0
  0
LINE
  8
0
  6
CONTINUOUS
 62
     7
 10
105.0
 20
72.5
 30
0.0
 11
40.0
 21
72.5
 31
0.0
  0
LINE
  8
0
  6
CONTINUOUS
 62
     7
 10
105.0
 20
72.5
 30
0.0
 11
105.0
 21
75.0
 31
0.0
  0
LINE
  8
0
  6
CONTINUOUS
 62
     7
 10
90.0
 20
107.5
 30
0.0
 11
90.0
 21
97.5
 31
0.0
  0
LINE
  8
0
  6
CONTINUOUS
 62
     7
 10
90.0
 20
97.5
 30
0.0
 11
40.0
 21
97.5
 31
0.0
  0
LINE
  8
0
  6
CONTINUOUS
 62
     7
 10
102.5
 20
92.5
 30
0.0
 11
102.5
 21
82.5
 31
0.0
  0
LINE
  8
0
  6
CONTINUOUS
 62
     7
 10
102.5
 20
82.5
 30
0.0
 11
40.0
 21
82.5
 31
0.0
  0
LINE
  8
0
  6
CONTINUOUS
 62
     7
 10
112.5
 20
77.5
 30
0.0
 11
112.5
 21
67.5
 31
0.0
  0
LINE
  8
0
  6
CONTINUOUS
 62
     7
 10
112.5
 20
67.5
 30
0.0
 11
40.0
 21
67.5
 31
0.0
  0
LINE
  8
0
  6
CONTINUOUS
 62
     7
 10
180.0
 20
171.972419
 30
0.0
 11
50.0
 21
171.972419
 31
0.0
  0
LINE
  8
0
  6
CONTINUOUS
 62
     7
 10
180.0
 20
187.015226
 30
0.0
 11
52.5
 21
187.015226
 31
0.0
  0
LINE
  8
0
  6
CONTINUOUS
 62
     7
 10
180.0
 20
202.066264
 30
0.0
 11
55.0
 21
202.066264
 31
0.0
  0
LINE
  8
0
  6
CONTINUOUS
 62
     7
 10
67.5
 20
175.0
 30
0.0
 11
67.5
 21
180.0
 31
0.0
  0
LINE
  8
0
  6
CONTINUOUS
 62
     7
 10
67.5
 20
180.0
 30
0.0
 11
75.0
 21
180.0
 31
0.0
  0
LINE
  8
0
  6
CONTINUOUS
 62
     7
 10
75.0
 20
180.0
 30
0.0
 11
75.0
 21
175.0
 31
0.0
  0
LINE
  8
0
  6
CONTINUOUS
 62
     7
 10
75.0
 20
175.0
 30
0.0
 11
67.5
 21
175.0
 31
0.0
  0
TEXT
  8
0
  6
CONTINUOUS
 62
     7
 10
73.2936
 20
176.40358
 30
0.0
 40
2.5
  1
1
 11
73.2936
 21
175.570247
 31
0.0
 73
     1
  0
LINE
  8
0
  6
CONTINUOUS
 62
     7
 10
68.859739
 20
179.063674
 30
0.0
 11
71.205504
 21
177.72832
 31
0.0
  0
LINE
  8
0
  6
CONTINUOUS
 62
     7
 10
68.851697
 20
175.738387
 30
0.0
 11
71.235157
 21
176.926579
 31
0.0
  0
LINE
  8
0
  6
CONTINUOUS
 62
     7
 10
71.205504
 20
177.72832
 30
0.0
 11
68.859739
 21
176.538401
 31
0.0
  0
LINE
  8
0
  6
CONTINUOUS
 62
     7
 10
57.5
 20
145.0
 30
0.0
 11
57.5
 21
165.0
 31
0.0
  0
LINE
  8
0
  6
CONTINUOUS
 62
     7
 10
57.5
 20
165.0
 30
0.0
 11
112.5
 21
165.0
 31
0.0
  0
LINE
  8
0
  6
CONTINUOUS
 62
     7
 10
112.5
 20
165.0
 30
0.0
 11
112.5
 21
156.937274
 31
0.0
  0
LINE
  8
0
  6
CONTINUOUS
 62
     7
 10
112.5
 20
156.937274
 30
0.0
 11
180.0
 21
156.937274
 31
0.0
  0
LINE
  8
0
  6
CONTINUOUS
 62
     7
 10
87.5
 20
160.0
 30
0.0
 11
87.5
 21
162.5
 31
0.0
  0
LINE
  8
0
  6
CONTINUOUS
 62
     7
 10
87.5
 20
162.5
 30
0.0
 11
65.0
 21
162.5
 31
0.0
  0
LINE
  8
0
  6
CONTINUOUS
 62
     7
 10
65.0
 20
162.5
 30
0.0
 11
65.0
 21
136.782052
 31
0.0
  0
LINE
  8
0
  6
CONTINUOUS
 62
     7
 10
65.0
 20
136.782052
 30
0.0
 11
55.0
 21
136.782052
 31
0.0
  0
LINE
  8
0
  6
CONTINUOUS
 62
     7
 10
85.0
 20
165.0
 30
0.0
 11
85.0
 21
145.0
 31
0.0
  0
LINE
  8
0
  6
CONTINUOUS
 62
     7
 10
82.5
 20
145.0
 30
0.0
 11
82.5
 21
171.972419
 31
0.0
  0
LINE
  8
0
  6
CONTINUOUS
 62
     7
 10
150.0
 20
125.0
 30
0.0
 11
150.0
 21
156.937274
 31
0.0
  0
LINE
  8
0
  6
CONTINUOUS
 62
     7
 10
145.0
 20
125.0
 30
0.0
 11
145.0
 21
171.972419
 31
0.0
  0
LINE
  8
0
  6
CONTINUOUS
 62
     7
 10
142.5
 20
125.0
 30
0.0
 11
142.5
 21
182.5
 31
0.0
  0
LINE
  8
0
  6
CONTINUOUS
 62
     7
 10
135.0
 20
125.0
 30
0.0
 11
135.0
 21
187.015226
 31
0.0
  0
LINE
  8
0
  6
CONTINUOUS
 62
     7
 10
132.5
 20
127.5
 30
0.0
 11
132.5
 21
197.5
 31
0.0
  0
LINE
  8
0
  6
CONTINUOUS
 62
     7
 10
130.0
 20
125.0
 30
0.0
 11
130.0
 21
202.066264
 31
0.0
  0
LINE
  8
0
  6
CONTINUOUS
 62
     7
 10
127.5
 20
125.0
 30
0.0
 11
127.5
 21
212.5
 31
0.0
  0
LINE
  8
0
  6
CONTINUOUS
 62
     7
 10
120.0
 20
127.5
 30
0.0
 11
120.0
 21
171.972419
 31
0.0
  0
LINE
  8
0
  6
CONTINUOUS
 62
     7
 10
70.0
 20
180.0
 30
0.0
 11
70.0
 21
202.066264
 31
0.0
  0
LINE
  8
0
  6
CONTINUOUS
 62
     7
 10
72.5
 20
180.0
 30
0.0
 11
72.5
 21
187.015226
 31
0.0
  0
LINE
  8
0
  6
CONTINUOUS
 62
     7
 10
180.0
 20
142.5
 30
0.0
 11
170.0
 21
142.5
 31
0.0
  0
LINE
  8
0
  6
HIDDEN
 62
     7
 10
40.0
 20
225.0
 30
0.0
 11
45.0
 21
225.0
 31
0.0
  0
LINE
  8
0
  6
HIDDEN
 62
     7
 10
45.0
 20
225.0
 30
0.0
 11
45.0
 21
202.5
 31
0.0
  0
LINE
  8
0
  6
HIDDEN
 62
     7
 10
45.0
 20
202.5
 30
0.0
 11
40.0
 21
202.5
 31
0.0
  0
TEXT
  8
0
  6
HIDDEN
 62
     7
 10
40.879157
 20
221.746473
 30
0.0
 40
2.0
  1
X2
  7
ROMANS
  0
TEXT
  8
0
  6
HIDDEN
 62
     7
 10
40.355422
 20
216.715917
 30
0.0
 40
2.0
  1
12
  7
ROMANS
  0
TEXT
  8
0
  6
HIDDEN
 62
     7
 10
40.355422
 20
209.563703
 30
0.0
 40
2.0
  1
10
  7
ROMANS
  0
TEXT
  8
0
  6
HIDDEN
 62
     7
 10
40.355422
 20
204.269024
 30
0.0
 40
2.0
  1
11
  7
ROMANS
  0
LINE
  8
0
  6
HIDDEN
 62
     7
 10
40.0
 20
137.5
 30
0.0
 11
45.0
 21
137.5
 31
0.0
  0
LINE
  8
0
  6
HIDDEN
 62
     7
 10
45.0
 20
137.5
 30
0.0
 11
45.0
 21
113.211798
 31
0.0
  0
LINE
  8
0
  6
HIDDEN
 62
     7
 10
45.0
 20
113.211798
 30
0.0
 11
40.0
 21
113.211798
 31
0.0
  0
LINE
  8
0
  6
HIDDEN
 62
     7
 10
40.0
 20
62.5
 30
0.0
 11
45.0
 21
62.5
 31
0.0
  0
LINE
  8
0
  6
HIDDEN
 62
     7
 10
45.0
 20
62.5
 30
0.0
 11
45.0
 21
111.97351
 31
0.0
  0
LINE
  8
0
  6
HIDDEN
 62
     7
 10
45.0
 20
111.97351
 30
0.0
 11
40.0
 21
111.97351
 31
0.0
  0
TEXT
  8
0
  6
HIDDEN
 62
     7
 10
41.1717
 20
133.629257
 30
0.0
 40
2.0
  1
X1
  7
ROMANS
  0
TEXT
  8
0
  6
HIDDEN
 62
     7
 10
41.1717
 20
129.910394
 30
0.0
 40
2.0
  1
4
  7
ROMANS
  0
TEXT
  8
0
  6
HIDDEN
 62
     7
 10
41.1717
 20
124.902761
 30
0.0
 40
2.0
  1
3
  7
ROMANS
  0
TEXT
  8
0
  6
HIDDEN
 62
     7
 10
41.1717
 20
119.61975
 30
0.0
 40
2.0
  1
7
  7
ROMANS
  0
TEXT
  8
0
  6
HIDDEN
 62
     7
 10
41.1717
 20
114.810389
 30
0.0
 40
2.0
  1
6
  7
ROMANS
  0
TEXT
  8
0
  6
HIDDEN
 62
     7
 10
40.745853
 20
108.976621
 30
0.0
 40
2.0
  1
X2
  7
ROMANS
  0
TEXT
  8
0
  6
HIDDEN
 62
     7
 10
41.1717
 20
104.773092
 30
0.0
 40
2.0
  1
3
  7
ROMANS
  0
TEXT
  8
0
  6
HIDDEN
 62
     7
 10
41.1717
 20
99.842565
 30
0.0
 40
2.0
  1
1
  7
ROMANS
  0
TEXT
  8
0
  6
HIDDEN
 62
     7
 10
41.1717
 20
94.625644
 30
0.0
 40
2.0
  1
2
  7
ROMANS
  0
TEXT
  8
0
  6
HIDDEN
 62
     7
 10
41.1717
 20
89.695117
 30
0.0
 40
2.0
  1
6
  7
ROMANS
  0
TEXT
  8
0
  6
HIDDEN
 62
     7
 10
41.1717
 20
84.918802
 30
0.0
 40
2.0
  1
4
  7
ROMANS
  0
TEXT
  8
0
  6
HIDDEN
 62
     7
 10
41.1717
 20
79.690866
 30
0.0
 40
2.0
  1
5
  7
ROMANS
  0
TEXT
  8
0
  6
HIDDEN
 62
     7
 10
41.1717
 20
74.760338
 30
0.0
 40
2.0
  1
9
  7
ROMANS
  0
TEXT
  8
0
  6
HIDDEN
 62
     7
 10
41.1717
 20
69.686614
 30
0.0
 40
2.0
  1
7
  7
ROMANS
  0
TEXT
  8
0
  6
HIDDEN
 62
     7
 10
41.1717
 20
64.756087
 30
0.0
 40
2.0
  1
8
  7
ROMANS
  0
TEXT
  8
0
  6
HIDDEN
 62
     7
 10
19.955888
 20
212.527386
 30
0.0
 40
2.0
  1
2)
  7
ROMANS
  0
LINE
  8
0
  6
DASHED
 62
     7
 10
40.0
 20
132.5
 30
0.0
 11
27.5
 21
132.5
 31
0.0
  0
LINE
  8
0
  6
DASHED
 62
     7
 10
40.0
 20
127.5
 30
0.0
 11
27.5
 21
127.5
 31
0.0
  0
LINE
  8
0
  6
DASHED
 62
     7
 10
40.0
 20
117.5
 30
0.0
 11
27.5
 21
117.5
 31
0.0
  0
LINE
  8
0
  6
DASHED
 62
     7
 10
40.0
 20
122.5
 30
0.0
 11
27.5
 21
122.5
 31
0.0
  0
LINE
  8
0
  6
CONTINUOUS
 62
     7
 10
25.0
 20
122.5
 30
0.0
 11
26.0
 21
123.5
 31
0.0
  0
LINE
  8
0
  6
CONTINUOUS
 62
     7
 10
25.0
 20
117.499655
 30
0.0
 11
26.0
 21
116.499655
 31
0.0
  0
LINE
  8
0
  6
CONTINUOUS
 62
     7
 10
25.0
 20
122.5
 30
0.0
 11
25.0
 21
117.5
 31
0.0
  0
LINE
  8
0
  6
DASHED
 62
     7
 10
40.0
 20
67.5
 30
0.0
 11
27.5
 21
67.5
 31
0.0
  0
LINE
  8
0
  6
CONTINUOUS
 62
     7
 10
120.0
 20
45.0
 30
0.0
 11
222.500345
 21
45.0
 31
0.0
  0
LINE
  8
0
  6
CONTINUOUS
 62
     7
 10
222.500345
 20
45.0
 30
0.0
 11
223.500345
 21
46.0
 31
0.0
  0
LINE
  8
0
  6
CONTINUOUS
 62
     7
 10
120.0
 20
45.0
 30
0.0
 11
119.0
 21
46.0
 31
0.0
  0
LINE
  8
0
  6
CONTINUOUS
 62
     7
 10
120.0
 20
57.5
 30
0.0
 11
120.0
 21
50.0
 31
0.0
  0
LINE
  8
0
  6
CONTINUOUS
 62
     7
 10
132.5
 20
57.5
 30
0.0
 11
132.5
 21
50.0
 31
0.0
  0
LINE
  8
0
  6
CONTINUOUS
 62
     7
 10
147.5
 20
57.5
 30
0.0
 11
147.5
 21
50.0
 31
0.0
  0
LINE
  8
0
  6
CONTINUOUS
 62
     7
 10
215.0
 20
57.5
 30
0.0
 11
215.0
 21
50.0
 31
0.0
  0
LINE
  8
0
  6
CONTINUOUS
 62
     7
 10
222.5
 20
57.5
 30
0.0
 11
222.5
 21
50.0
 31
0.0
  0
LINE
  8
0
  6
HIDDEN
 62
     7
 10
180.0
 20
57.5
 30
0.0
 11
180.0
 21
50.0
 31
0.0
  0
LINE
  8
0
  6
HIDDEN
 62
     7
 10
210.450615
 20
57.5
 30
0.0
 11
210.450615
 21
50.0
 31
0.0
  0
TEXT
  8
0
  6
HIDDEN
 62
     7
 10
168.484926
 20
38.667815
 30
0.0
 40
2.0
  1
SHEET 2
  7
ROMANS
  0
TEXT
  8
0
  6
HIDDEN
 62
     7
 10
257.31485
 20
216.11903
 30
0.0
 40
2.0
  1
1)
  7
ROMANS
  0
TEXT
  8
0
  6
HIDDEN
 62
     7
 10
257.31485
 20
196.11903
 30
0.0
 40
2.0
  1
1)
  7
ROMANS
  0
TEXT
  8
0
  6
HIDDEN
 62
     7
 10
257.31485
 20
176.11903
 30
0.0
 40
2.0
  1
1)
  7
ROMANS
  0
TEXT
  8
0
  6
HIDDEN
 62
     7
 10
257.31485
 20
156.11903
 30
0.0
 40
2.0
  1
1)
  7
ROMANS
  0
TEXT
  8
0
  6
HIDDEN
 62
     7
 10
262.505995
 20
192.053511
 30
0.0
 40
2.0
  1
L2
  7
ROMANS
  0
TEXT
  8
0
  6
HIDDEN
 62
     7
 10
262.505995
 20
182.053511
 30
0.0
 40
2.0
  1
L2
  7
ROMANS
  0
TEXT
  8
0
  6
HIDDEN
 62
     7
 10
257.31485
 20
88.61903
 30
0.0
 40
2.0
  1
1)
  7
ROMANS
  0
TEXT
  8
0
  6
HIDDEN
 62
     7
 10
257.31485
 20
108.61903
 30
0.0
 40
2.0
  1
1)
  7
ROMANS
  0
TEXT
  8
0
  6
HIDDEN
 62
     7
 10
257.31485
 20
128.61903
 30
0.0
 40
2.0
  1
1)
  7
ROMANS
  0
LINE
  8
0
  6
CONTINUOUS
 62
     7
 10
270.0
 20
127.5
 30
0.0
 11
269.0
 21
128.5
 31
0.0
  0
LINE
  8
0
  6
CONTINUOUS
 62
     7
 10
270.0
 20
107.5
 30
0.0
 11
270.0
 21
127.5
 31
0.0
  0
LINE
  8
0
  6
CONTINUOUS
 62
     7
 10
270.0
 20
77.5
 30
0.0
 11
270.0
 21
107.5
 31
0.0
  0
LINE
  8
0
  6
CONTINUOUS
 62
     7
 10
270.0
 20
77.5
 30
0.0
 11
269.0
 21
76.5
 31
0.0
  0
LINE
  8
0
  6
DASHED
 62
     7
 10
256.0
 20
87.5
 30
0.0
 11
267.5
 21
87.5
 31
0.0
  0
LINE
  8
0
  6
DASHED
 62
     7
 10
256.0
 20
107.5
 30
0.0
 11
267.5
 21
107.5
 31
0.0
  0
LINE
  8
0
  6
DASHED
 62
     7
 10
256.0
 20
127.5
 30
0.0
 11
267.5
 21
127.5
 31
0.0
  0
LINE
  8
0
  6
CONTINUOUS
 62
     7
 10
256.0
 20
129.0
 30
0.0
 11
256.0
 21
122.0
 31
0.0
  0
LINE
  8
0
  6
CONTINUOUS
 62
     7
 10
256.0
 20
122.0
 30
0.0
 11
255.0
 21
121.0
 31
0.0
  0
LINE
  8
0
  6
CONTINUOUS
 62
     7
 10
256.0
 20
129.0
 30
0.0
 11
255.0
 21
130.0
 31
0.0
  0
LINE
  8
0
  6
CONTINUOUS
 62
     7
 10
256.0
 20
109.0
 30
0.0
 11
255.0
 21
110.0
 31
0.0
  0
LINE
  8
0
  6
CONTINUOUS
 62
     7
 10
256.0
 20
109.0
 30
0.0
 11
256.0
 21
102.0
 31
0.0
  0
LINE
  8
0
  6
CONTINUOUS
 62
     7
 10
256.0
 20
102.0
 30
0.0
 11
255.0
 21
101.0
 31
0.0
  0
LINE
  8
0
  6
CONTINUOUS
 62
     7
 10
256.0
 20
82.0
 30
0.0
 11
255.0
 21
81.0
 31
0.0
  0
LINE
  8
0
  6
CONTINUOUS
 62
     7
 10
256.0
 20
89.0
 30
0.0
 11
256.0
 21
82.0
 31
0.0
  0
LINE
  8
0
  6
CONTINUOUS
 62
     7
 10
256.0
 20
89.0
 30
0.0
 11
255.0
 21
90.0
 31
0.0
  0
LINE
  8
0
  6
DASHED
 62
     7
 10
250.0
 20
77.5
 30
0.0
 11
267.5
 21
77.5
 31
0.0
  0
LINE
  8
0
  6
DASHED
 62
     7
 10
250.0
 20
82.5
 30
0.0
 11
254.266471
 21
82.5
 31
0.0
  0
LINE
  8
0
  6
DASHED
 62
     7
 10
250.0
 20
87.5
 30
0.0
 11
254.266471
 21
87.5
 31
0.0
  0
LINE
  8
0
  6
DASHED
 62
     7
 10
250.0
 20
97.5
 30
0.0
 11
267.5
 21
97.5
 31
0.0
  0
LINE
  8
0
  6
DASHED
 62
     7
 10
250.0
 20
102.5
 30
0.0
 11
254.266471
 21
102.5
 31
0.0
  0
LINE
  8
0
  6
DASHED
 62
     7
 10
250.0
 20
107.5
 30
0.0
 11
254.266471
 21
107.5
 31
0.0
  0
LINE
  8
0
  6
DASHED
 62
     7
 10
250.0
 20
117.5
 30
0.0
 11
267.5
 21
117.5
 31
0.0
  0
LINE
  8
0
  6
DASHED
 62
     7
 10
250.0
 20
122.5
 30
0.0
 11
254.266471
 21
122.5
 31
0.0
  0
LINE
  8
0
  6
DASHED
 62
     7
 10
250.0
 20
127.5
 30
0.0
 11
254.266471
 21
127.5
 31
0.0
  0
TEXT
  8
0
  6
HIDDEN
 62
     7
 10
261.791434
 20
114.207114
 30
0.0
 40
2.0
  1
U12
  7
ROMANS
  0
TEXT
  8
0
  6
HIDDEN
 62
     7
 10
261.791434
 20
94.155021
 30
0.0
 40
2.0
  1
U23
  7
ROMANS
  0
TEXT
  8
0
  6
HIDDEN
 62
     7
 10
261.791434
 20
74.325549
 30
0.0
 40
2.0
  1
U31
  7
ROMANS
  0
TEXT
  8
0
  6
HIDDEN
 62
     7
 10
261.791434
 20
84.325549
 30
0.0
 40
2.0
  1
U31
  7
ROMANS
  0
TEXT
  8
0
  6
HIDDEN
 62
     7
 10
261.791434
 20
104.155021
 30
0.0
 40
2.0
  1
U23
  7
ROMANS
  0
TEXT
  8
0
  6
HIDDEN
 62
     7
 10
261.791434
 20
124.207114
 30
0.0
 40
2.0
  1
U12
  7
ROMANS
  0
LINE
  8
0
  6
DASHED
 62
     7
 10
295.0
 20
102.5
 30
0.0
 11
270.0
 21
102.5
 31
0.0
  0
CIRCLE
  8
0
  6
CONTINUOUS
 62
     7
 10
295.0
 20
215.0
 30
0.0
 40
2.5
  0
CIRCLE
  8
0
  6
CONTINUOUS
 62
     7
 10
295.0
 20
218.041623
 30
0.0
 40
2.5
  0
LINE
  8
0
  6
DASHED
 62
     7
 10
295.0
 20
227.5
 30
0.0
 11
295.0
 21
220.541623
 31
0.0
  0
LINE
  8
0
  6
DASHED
 62
     7
 10
295.0
 20
212.5
 30
0.0
 11
295.0
 21
102.5
 31
0.0
  0
LINE
  8
0
  6
CONTINUOUS
 62
     7
 10
345.727984
 20
200.0
 30
0.0
 11
365.727984
 21
200.0
 31
0.0
  0
LINE
  8
0
  6
CONTINUOUS
 62
     7
 10
362.519318
 20
203.102225
 30
0.0
 11
362.519318
 21
201.314094
 31
0.0
  0
LINE
  8
0
  6
CONTINUOUS
 62
     7
 10
359.565206
 20
204.45511
 30
0.0
 11
360.465883
 21
203.331361
 31
0.0
  0
LINE
  8
0
  6
CONTINUOUS
 62
     7
 10
357.119799
 20
201.089344
 30
0.0
 11
359.99591
 21
203.917903
 31
0.0
  0
LINE
  8
0
  6
CONTINUOUS
 62
     7
 10
354.735654
 20
202.256947
 30
0.0
 11
362.523859
 21
202.256947
 31
0.0
  0
LINE
  8
0
  6
CONTINUOUS
 62
     7
 10
354.704623
 20
203.102225
 30
0.0
 11
354.704623
 21
201.314094
 31
0.0
  0
TEXT
  8
0
  6
CONTINUOUS
 62
     7
 10
348.595465
 20
201.612471
 30
0.0
 40
2.5
  1
n
  7
GREEKS
  0
TEXT
  8
0
  6
CONTINUOUS
 62
     7
 10
351.987037
 20
201.59044
 30
0.0
 40
2.0
  1
x
  7
GREEKS
  0
TEXT
  8
0
  6
CONTINUOUS
 62
     7
 10
344.799383
 20
73.813619
 30
0.0
 40
2.0
  1
L2
  7
ROMANS
  0
TEXT
  8
0
  6
CONTINUOUS
 62
     7
 10
357.246136
 20
73.82464
 30
0.0
 40
2.0
  1
4-6
  7
ROMANS
  0
TEXT
  8
0
  6
CONTINUOUS
 62
     7
 10
372.340486
 20
73.82464
 30
0.0
 40
2.0
  1
4-5
  7
ROMANS
  0
LINE
  8
0
 62
     7
 10
383.50882
 20
93.671798
 30
0.0
 11
339.50882
 21
93.671798
 31
0.0
  0
TEXT
  8
0
  6
HIDDEN
 62
     7
 10
344.836213
 20
52.944869
 30
0.0
 40
2.0
  1
U12
  7
ROMANS
  0
TEXT
  8
0
  6
HIDDEN
 62
     7
 10
344.836213
 20
48.872315
 30
0.0
 40
2.0
  1
U23
  7
ROMANS
  0
TEXT
  8
0
  6
HIDDEN
 62
     7
 10
344.836213
 20
44.962756
 30
0.0
 40
2.0
  1
U31
  7
ROMANS
  0
LINE
  8
0
  6
CONTINUOUS
 62
     7
 10
353.50882
 20
63.060985
 30
0.0
 11
383.493873
 21
63.060985
 31
0.0
  0
TEXT
  8
0
  6
CONTINUOUS
 62
     7
 10
355.815824
 20
52.94301
 30
0.0
 40
2.0
  1
13-14
  7
ROMANS
  0
TEXT
  8
0
  6
CONTINUOUS
 62
     7
 10
355.815824
 20
48.860291
 30
0.0
 40
2.0
  1
16-17
  7
ROMANS
  0
TEXT
  8
0
  6
CONTINUOUS
 62
     7
 10
355.815824
 20
44.98696
 30
0.0
 40
2.0
  1
19-20
  7
ROMANS
  0
TEXT
  8
0
  6
CONTINUOUS
 62
     7
 10
371.290577
 20
52.920969
 30
0.0
 40
2.0
  1
13-15
  7
ROMANS
  0
TEXT
  8
0
  6
CONTINUOUS
 62
     7
 10
371.290577
 20
48.849271
 30
0.0
 40
2.0
  1
16-18
  7
ROMANS
  0
TEXT
  8
0
  6
CONTINUOUS
 62
     7
 10
371.290577
 20
44.99798
 30
0.0
 40
2.0
  1
19-21
  7
ROMANS
  0
TEXT
  8
0
  6
CONTINUOUS
 62
     7
 10
333.891404
 20
92.443728
 30
0.0
 40
2.0
  1
1)
  7
ROMANS
  0
TEXT
  8
0
  6
CONTINUOUS
 62
     7
 10
11.860934
 20
33.164692
 30
0.0
 40
2.0
  1
2) BLOCKING INPUT /
  7
ROMANS
  0
TEXT
  8
0
  6
CONTINUOUS
 62
     7
 10
13.199949
 20
29.831358
 30
0.0
 40
2.0
  1
  BLOCKERING IN
  7
ROMANS
  0
TEXT
  8
0
  6
CONTINUOUS
 62
     7
 10
11.860934
 20
23.998025
 30
0.0
 40
2.0
  1
3) TRIP 1 /
  7
ROMANS
  0
TEXT
  8
0
  6
CONTINUOUS
 62
     7
 10
13.199949
 20
20.664692
 30
0.0
 40
2.0
  1
  UTLÖSNING 1
  7
ROMANS
  0
TEXT
  8
0
  6
CONTINUOUS
 62
     7
 10
13.184733
 20
11.489903
 30
0.0
 40
2.0
  1
  UTLÖSNING 2 ELLER SIGNALUTGÅNG
  7
ROMANS
  0
TEXT
  8
0
  6
CONTINUOUS
 62
     7
 10
84.193637
 20
20.529715
 30
0.0
 40
2.0
  1
  SIGNALUTGÅNG
  7
ROMANS
  0
TEXT
  8
0
  6
CONTINUOUS
 62
     7
 10
84.216335
 20
11.472765
 30
0.0
 40
2.0
  1
  START, BLOCKERING MM.
  7
ROMANS
  0
TEXT
  8
0
  6
CONTINUOUS
 62
     7
 10
181.270128
 20
181.398838
 30
0.0
 40
2.5
  1
I
 11
181.270128
 21
180.565505
 31
0.0
 73
     1
  0
TEXT
  8
0
  6
CONTINUOUS
 62
     7
 10
181.270128
 20
171.079247
 30
0.0
 40
2.5
  1
I
 11
181.270128
 21
170.245914
 31
0.0
 73
     1
  0
TEXT
  8
0
  6
CONTINUOUS
 62
     7
 10
181.270128
 20
166.549875
 30
0.0
 40
2.5
  1
I
 11
181.270128
 21
165.716541
 31
0.0
 73
     1
  0
TEXT
  8
0
  6
CONTINUOUS
 62
     7
 10
181.270128
 20
156.04746
 30
0.0
 40
2.5
  1
I
 11
181.270128
 21
155.214127
 31
0.0
 73
     1
  0
TEXT
  8
0
  6
CONTINUOUS
 62
     7
 10
181.297415
 20
135.271995
 30
0.0
 40
2.5
  1
I
 11
181.297415
 21
134.438662
 31
0.0
 73
     1
  0
LINE
  8
0
  6
CONTINUOUS
 62
     7
 10
180.907148
 20
139.008285
 30
0.0
 11
187.860896
 21
139.008285
 31
0.0
  0
TEXT
  8
0
  6
CONTINUOUS
 62
     7
 10
183.219992
 20
140.264608
 30
0.0
 40
2.0
  1
2f
  0
TEXT
  8
0
  6
CONTINUOUS
 62
     7
 10
181.297415
 20
140.330346
 30
0.0
 40
2.5
  1
I
 11
181.297415
 21
139.497012
 31
0.0
 73
     1
  0
LINE
  8
0
  6
CONTINUOUS
 62
     7
 10
188.424509
 20
147.165528
 30
0.0
 11
186.078744
 21
145.975609
 31
0.0
  0
LINE
  8
0
  6
CONTINUOUS
 62
     7
 10
186.078744
 20
148.500881
 30
0.0
 11
188.424509
 21
147.165528
 31
0.0
  0
TEXT
  8
0
  6
CONTINUOUS
 62
     7
 10
181.297415
 20
146.446652
 30
0.0
 40
2.5
  1
I
 11
181.297415
 21
145.613318
 31
0.0
 73
     1
  0
TEXT
  8
0
  6
CONTINUOUS
 62
     7
 10
203.482459
 20
139.911571
 30
0.0
 40
2.5
  1
I
 11
203.482459
 21
139.078238
 31
0.0
 73
     1
  0
TEXT
  8
0
  6
CONTINUOUS
 62
     7
 10
203.482459
 20
170.175833
 30
0.0
 40
2.5
  1
I
 11
203.482459
 21
169.342499
 31
0.0
 73
     1
  0
LINE
  8
0
  6
CONTINUOUS
 62
     7
 10
191.019845
 20
172.48981
 30
0.0
 11
191.019845
 21
170.701678
 31
0.0
  0
LINE
  8
0
  6
CONTINUOUS
 62
     7
 10
191.050877
 20
171.644531
 30
0.0
 11
198.839082
 21
171.644531
 31
0.0
  0
LINE
  8
0
  6
CONTINUOUS
 62
     7
 10
195.880429
 20
173.842694
 30
0.0
 11
196.781105
 21
172.718945
 31
0.0
  0
ARC
  8
0
  6
HIDDEN
 62
     7
 10
197.745745
 20
175.573075
 30
0.0
 40
4.998196
 50
206.402922
 51
282.21115
  0
LINE
  8
0
  6
CONTINUOUS
 62
     7
 10
193.435021
 20
170.476928
 30
0.0
 11
196.311132
 21
173.305487
 31
0.0
  0
LINE
  8
0
  6
CONTINUOUS
 62
     7
 10
198.834541
 20
172.48981
 30
0.0
 11
198.834541
 21
170.701678
 31
0.0
  0
TEXT
  8
0
  6
CONTINUOUS
 62
     7
 10
245.892886
 20
152.293749
 30
0.0
 40
2.0
  1
27
  7
ROMANS
  0
TEXT
  8
0
  6
CONTINUOUS
 62
     7
 10
245.892886
 20
147.321829
 30
0.0
 40
2.0
  1
26
  7
ROMANS
  0
TEXT
  8
0
  6
CONTINUOUS
 62
     7
 10
245.892886
 20
142.156048
 30
0.0
 40
2.0
  1
25
  7
ROMANS
  0
TEXT
  8
0
  6
CONTINUOUS
 62
     7
 10
261.394857
 20
151.207452
 30
0.0
 40
2.5
  1
I
 11
261.394857
 21
150.374119
 31
0.0
 73
     1
  0
TEXT
  8
0
  6
CONTINUOUS
 62
     7
 10
261.394857
 20
141.207452
 30
0.0
 40
2.5
  1
I
 11
261.394857
 21
140.374119
 31
0.0
 73
     1
  0
TEXT
  8
0
  6
CONTINUOUS
 62
     7
 10
18.006694
 20
118.9968
 30
0.0
 40
2.0
  1
4a)
  7
ROMANS
  0
TEXT
  8
0
  6
CONTINUOUS
 62
     7
 10
18.006694
 20
101.381415
 30
0.0
 40
2.0
  1
4b)
  7
ROMANS
  0
TEXT
  8
0
  6
CONTINUOUS
 62
     7
 10
18.006694
 20
78.920315
 30
0.0
 40
2.0
  1
4c)
  7
ROMANS
  0
TEXT
  8
0
  6
CONTINUOUS
 62
     7
 10
352.114557
 20
212.482567
 30
0.0
 40
2.5
  1
I
 11
352.114557
 21
211.649233
 31
0.0
 73
     1
  0
TEXT
  8
0
  6
CONTINUOUS
 62
     7
 10
354.037134
 20
212.416829
 30
0.0
 40
2.0
  1
2f
  0
TEXT
  8
0
  6
CONTINUOUS
 62
     7
 10
352.140518
 20
233.492044
 30
0.0
 40
2.5
  1
I
 11
352.140518
 21
232.65871
 31
0.0
 73
     1
  0
TEXT
  8
0
  6
CONTINUOUS
 62
     7
 10
352.140518
 20
223.364322
 30
0.0
 40
2.5
  1
I
 11
352.140518
 21
222.530989
 31
0.0
 73
     1
  0
LINE
  8
0
  6
CONTINUOUS
 62
     7
 10
359.166854
 20
224.606769
 30
0.0
 11
356.821088
 21
223.41685
 31
0.0
  0
LINE
  8
0
  6
CONTINUOUS
 62
     7
 10
356.821088
 20
225.942123
 30
0.0
 11
359.166854
 21
224.606769
 31
0.0
  0
LINE
  8
0
  6
CONTINUOUS
 62
     7
 10
358.58232
 20
225.942123
 30
0.0
 11
360.928086
 21
224.606769
 31
0.0
  0
LINE
  8
0
  6
CONTINUOUS
 62
     7
 10
360.928086
 20
224.606769
 30
0.0
 11
358.58232
 21
223.41685
 31
0.0
  0
LINE
  8
0
  6
CONTINUOUS
 62
     7
 10
351.32826
 20
230.116006
 30
0.0
 11
351.32826
 21
228.327874
 31
0.0
  0
LINE
  8
0
  6
CONTINUOUS
 62
     7
 10
351.359291
 20
229.270727
 30
0.0
 11
359.147496
 21
229.270727
 31
0.0
  0
LINE
  8
0
  6
CONTINUOUS
 62
     7
 10
356.188843
 20
231.46889
 30
0.0
 11
357.08952
 21
230.345141
 31
0.0
  0
ARC
  8
0
  6
HIDDEN
 62
     7
 10
358.054159
 20
233.199272
 30
0.0
 40
4.998196
 50
206.402922
 51
282.21115
  0
LINE
  8
0
  6
CONTINUOUS
 62
     7
 10
353.743436
 20
228.103125
 30
0.0
 11
356.619546
 21
230.931683
 31
0.0
  0
LINE
  8
0
  6
CONTINUOUS
 62
     7
 10
359.142955
 20
230.116006
 30
0.0
 11
359.142955
 21
228.327874
 31
0.0
  0
LINE
  8
0
  6
CONTINUOUS
 62
     7
 10
345.727984
 20
210.0
 30
0.0
 11
365.727984
 21
210.0
 31
0.0
  0
TEXT
  8
0
  6
CONTINUOUS
 62
     7
 10
342.15333
 20
194.200508
 30
0.0
 40
2.0
  1
FEEDER TERMINAL
  7
ROMANS
  0
TEXT
  8
0
  6
CONTINUOUS
 62
     7
 10
342.15333
 20
190.867175
 30
0.0
 40
2.0
  1
LEDNINGSTERMINAL
  7
ROMANS
  0
TEXT
  8
0
  6
CONTINUOUS
 62
     7
 10
9.848161
 20
14.827224
 30
0.0
 40
2.0
  1
4a) TRIP 2 OR ALARM OUTPUT
  7
ROMANS
  0
TEXT
  8
0
  6
CONTINUOUS
 62
     7
 10
80.864061
 20
23.852465
 30
0.0
 40
2.0
  1
4b) ALARM OUTPUT /
  7
ROMANS
  0
TEXT
  8
0
  6
CONTINUOUS
 62
     7
 10
80.846501
 20
14.8069
 30
0.0
 40
2.0
  1
4c) START, BLOCKING ETC.
  7
ROMANS
  0
TEXT
  8
0
  6
CONTINUOUS
 62
     7
 10
344.637445
 20
65.541581
 30
0.0
 40
2.5
  1
I
 11
344.637445
 21
64.708248
 31
0.0
 73
     1
  0
TEXT
  8
0
  6
CONTINUOUS
 62
     7
 10
355.283262
 20
65.493589
 30
0.0
 40
2.0
  1
25-27
  7
ROMANS
  0
TEXT
  8
0
  6
CONTINUOUS
 62
     7
 10
370.301532
 20
65.493589
 30
0.0
 40
2.0
  1
25-26
  7
ROMANS
  0
LINE
  8
0
  6
CONTINUOUS
 62
     7
 10
58.240939
 20
132.5
 30
0.0
 11
60.0
 21
132.5
 31
0.0
  0
LINE
  8
0
  6
CONTINUOUS
 62
     7
 10
40.0
 20
132.5
 30
0.0
 11
52.5
 21
132.5
 31
0.0
  0
LINE
  8
0
  6
CONTINUOUS
 62
     7
 10
56.853436
 20
132.138137
 30
0.0
 11
51.756076
 21
129.285297
 31
0.0
  0
CIRCLE
  8
0
  6
CONTINUOUS
 62
     7
 10
57.5
 20
132.5
 30
0.0
 40
0.740939
  0
LINE
  8
0
  6
CONTINUOUS
 62
     7
 10
74.353436
 20
122.138137
 30
0.0
 11
69.256076
 21
119.285297
 31
0.0
  0
CIRCLE
  8
0
  6
CONTINUOUS
 62
     7
 10
75.0
 20
122.5
 30
0.0
 40
0.740939
  0
LINE
  8
0
  6
CONTINUOUS
 62
     7
 10
75.740939
 20
122.5
 30
0.0
 11
77.5
 21
122.5
 31
0.0
  0
CIRCLE
  8
0
  6
CONTINUOUS
 62
     7
 10
87.5
 20
107.5
 30
0.0
 40
0.740939
  0
LINE
  8
0
  6
CONTINUOUS
 62
     7
 10
86.853436
 20
107.138137
 30
0.0
 11
81.756076
 21
104.285297
 31
0.0
  0
LINE
  8
0
  6
CONTINUOUS
 62
     7
 10
88.240939
 20
107.5
 30
0.0
 11
90.0
 21
107.5
 31
0.0
  0
LINE
  8
0
  6
CONTINUOUS
 62
     7
 10
99.353436
 20
92.138137
 30
0.0
 11
94.256076
 21
89.285297
 31
0.0
  0
CIRCLE
  8
0
  6
CONTINUOUS
 62
     7
 10
100.0
 20
92.5
 30
0.0
 40
0.740939
  0
LINE
  8
0
  6
CONTINUOUS
 62
     7
 10
100.740939
 20
92.5
 30
0.0
 11
102.5
 21
92.5
 31
0.0
  0
LINE
  8
0
  6
CONTINUOUS
 62
     7
 10
109.353436
 20
77.138137
 30
0.0
 11
104.256076
 21
74.285297
 31
0.0
  0
CIRCLE
  8
0
  6
CONTINUOUS
 62
     7
 10
110.0
 20
77.5
 30
0.0
 40
0.740939
  0
LINE
  8
0
  6
CONTINUOUS
 62
     7
 10
110.740939
 20
77.5
 30
0.0
 11
112.5
 21
77.5
 31
0.0
  0
TEXT
  8
0
  6
CONTINUOUS
 62
     7
 10
212.6371
 20
28.217661
 30
0.0
 40
2.0
  1
1992-08-24 HJ / RITU
  7
ROMANS
  0
TEXT
  8
0
  6
CONTINUOUS
 62
     7
 10
317.5
 20
27.5
 30
0.0
 40
2.0
  1
CIRCUIT DIAGRAM / KRETSSCHEMA
  7
ROMANS
  0
TEXT
  8
0
  6
CONTINUOUS
 62
     7
 10
317.5
 20
24.166667
 30
0.0
 40
2.0
  1
SPAC 633 C
  7
ROMANS
  0
TEXT
  8
0
  6
CONTINUOUS
 62
     7
 10
322.5
 20
2.5
 30
0.0
 40
2.5
  1
RS 10105-AA
  7
ROMANS
  0
TEXT
  8
0
  6
CONTINUOUS
 62
     7
 10
382.5
 20
2.5
 30
0.0
 40
2.5
  1
B
  7
ROMANS
  0
TEXT
  8
0
  6
CONTINUOUS
 62
     7
 10
342.899975
 20
132.456388
 30
0.0
 40
1.8
  1
265,9 mm
 50
90.0
  7
ROMANS
  0
TEXT
  8
0
  6
CONTINUOUS
 62
     7
 10
352.074876
 20
153.924195
 30
0.0
 40
1.8
  1
269,2 mm
  7
ROMANS
  0
TEXT
  8
0
  6
CONTINUOUS
 62
     7
 10
349.574876
 20
124.01431
 30
0.0
 40
2.0
  1
SPAC 634 C 
  7
ROMANS
  0
LINE
  8
0
  6
CONTINUOUS
 62
     7
 10
344.574876
 20
127.456388
 30
0.0
 11
344.574876
 21
152.456388
 31
0.0
  0
LINE
  8
0
  6
CONTINUOUS
 62
     7
 10
374.574876
 20
127.456388
 30
0.0
 11
344.574876
 21
127.456388
 31
0.0
  0
LINE
  8
0
  6
CONTINUOUS
 62
     7
 10
374.574876
 20
152.456388
 30
0.0
 11
374.574876
 21
127.456388
 31
0.0
  0
LINE
  8
0
  6
CONTINUOUS
 62
     7
 10
344.574876
 20
152.456388
 30
0.0
 11
374.574876
 21
152.456388
 31
0.0
  0
TEXT
  8
0
  6
CONTINUOUS
 62
     7
 10
56.797379
 20
1.410103
 30
0.0
 40
2.0
  1
A CHANGE FOR THE FONT 1993-04-27  KM / RITU Power
  7
ROMANS
  0
TEXT
  8
0
  6
DASHED
 62
     7
 10
292.559556
 20
12.154511
 30
0.0
 40
3.0
  1
A3
  7
GREEKS
  0
TEXT
  8
0
  6
DASHED
 62
     7
 10
352.160939
 20
16.033682
 30
0.0
 40
1.4
  1
LEHTI SHEET
  7
GREEKS
  0
LINE
  8
0
 62
     7
 10
0.579461
 20
263.079152
 30
0.0
 11
392.579461
 21
263.079152
 31
0.0
  0
LINE
  8
0
 62
     7
 10
18.579461
 20
0.579152
 30
0.0
 11
0.579461
 21
0.579152
 31
0.0
  0
LINE
  8
0
 62
     7
 10
209.579461
 20
0.579152
 30
0.0
 11
392.579461
 21
0.579152
 31
0.0
  0
LINE
  8
0
 62
     7
 10
209.579461
 20
0.579152
 30
0.0
 11
209.579461
 21
35.579152
 31
0.0
  0
LINE
  8
0
 62
     7
 10
392.579461
 20
0.579152
 30
0.0
 11
392.579461
 21
35.579152
 31
0.0
  0
LINE
  8
0
 62
     7
 10
209.579461
 20
18.579152
 30
0.0
 11
392.579461
 21
18.579152
 31
0.0
  0
LINE
  8
0
 62
     7
 10
209.579461
 20
10.079152
 30
0.0
 11
392.579461
 21
10.079152
 31
0.0
  0
LINE
  8
0
 62
     7
 10
209.579461
 20
27.079152
 30
0.0
 11
307.579461
 21
27.079152
 31
0.0
  0
LINE
  8
0
 62
     7
 10
209.579461
 20
35.579152
 30
0.0
 11
392.579461
 21
35.579152
 31
0.0
  0
TEXT
  8
0
 62
     7
 10
210.579461
 20
24.312485
 30
0.0
 40
1.4
  1
TARKASTI  CHECKED
  7
ROMANS
  0
TEXT
  8
0
 62
     7
 10
210.322296
 20
16.045818
 30
0.0
 40
1.4
  1
HYVÄKSYI  APPROVED
  7
ROMANS
  0
LINE
  8
0
 62
     7
 10
307.579461
 20
0.579152
 30
0.0
 11
307.579461
 21
35.579152
 31
0.0
  0
TEXT
  8
0
 62
     7
 10
259.579461
 20
33.079152
 30
0.0
 40
1.4
  1
LIITTYY  CONCERNING
  7
ROMANS
  0
TEXT
  8
0
 62
     7
 10
259.579461
 20
24.079152
 30
0.0
 40
1.4
  1
TOLERANSSIT  TOLERANCES
  7
ROMANS
  0
TEXT
  8
0
 62
     7
 10
259.579461
 20
16.079152
 30
0.0
 40
1.4
  1
SUHDE  SCALE
  7
ROMANS
  0
TEXT
  8
0
 62
     7
 10
309.579461
 20
33.079152
 30
0.0
 40
1.4
  1
NIMITYS  NAME
  7
ROMANS
  0
TEXT
  8
0
 62
     7
 10
309.579461
 20
16.079152
 30
0.0
 40
1.4
  1
KOODI  CODE
  7
ROMANS
  0
TEXT
  8
0
 62
     7
 10
309.579461
 20
7.579152
 30
0.0
 40
1.4
  1
PIIRUSTUS NO  DRAWING NR
  7
ROMANS
  0
LINE
  8
0
 62
     7
 10
350.079461
 20
10.079152
 30
0.0
 11
350.079461
 21
18.579152
 31
0.0
  0
TEXT
  8
0
 62
     7
 10
371.579461
 20
7.579152
 30
0.0
 40
1.4
  1
PAINOS  REVISION
  7
ROMANS
  0
LINE
  8
0
 62
     7
 10
370.079461
 20
10.079152
 30
0.0
 11
370.079461
 21
0.579152
 31
0.0
  0
LINE
  8
0
 62
     7
 10
210.529461
 20
2.079152
 30
0.0
 11
212.279461
 21
2.079152
 31
0.0
  0
LINE
  8
0
 62
     7
 10
215.779461
 20
2.079152
 30
0.0
 11
217.529461
 21
2.079152
 31
0.0
  0
LINE
  8
0
 62
     7
 10
212.979461
 20
9.079152
 30
0.0
 11
211.801933
 21
5.714786
 31
0.0
  0
LINE
  8
0
 62
     7
 10
212.768248
 20
3.479152
 30
0.0
 11
213.889461
 21
3.479152
 31
0.0
  0
LINE
  8
0
 62
     7
 10
212.768251
 20
3.475694
 30
0.0
 11
212.279461
 21
2.079152
 31
0.0
  0
LINE
  8
0
 62
     7
 10
215.079461
 20
9.079152
 30
0.0
 11
216.255814
 21
5.718143
 31
0.0
  0
LINE
  8
0
 62
     7
 10
215.290559
 20
3.476015
 30
0.0
 11
215.779461
 21
2.079152
 31
0.0
  0
LINE
  8
0
 62
     7
 10
215.079461
 20
9.079152
 30
0.0
 11
214.169461
 21
9.079152
 31
0.0
  0
LINE
  8
0
 62
     7
 10
213.889461
 20
9.079152
 30
0.0
 11
213.889461
 21
5.719152
 31
0.0
  0
LINE
  8
0
 62
     7
 10
214.169461
 20
9.079152
 30
0.0
 11
214.169461
 21
5.719152
 31
0.0
  0
LINE
  8
0
 62
     7
 10
214.169461
 20
3.479152
 30
0.0
 11
215.289354
 21
3.479152
 31
0.0
  0
LINE
  8
0
 62
     7
 10
213.889461
 20
9.079152
 30
0.0
 11
212.979461
 21
9.079152
 31
0.0
  0
LINE
  8
0
 62
     7
 10
211.801402
 20
5.719152
 30
0.0
 11
213.889461
 21
5.719152
 31
0.0
  0
LINE
  8
0
 62
     7
 10
211.702443
 20
5.439152
 30
0.0
 11
213.889461
 21
5.439152
 31
0.0
  0
LINE
  8
0
 62
     7
 10
216.353953
 20
5.437746
 30
0.0
 11
217.529461
 21
2.079152
 31
0.0
  0
LINE
  8
0
 62
     7
 10
214.169461
 20
5.719152
 30
0.0
 11
216.254575
 21
5.719152
 31
0.0
  0
LINE
  8
0
 62
     7
 10
214.169461
 20
5.439152
 30
0.0
 11
216.352717
 21
5.439152
 31
0.0
  0
LINE
  8
0
 62
     7
 10
214.169461
 20
5.439152
 30
0.0
 11
214.169461
 21
3.479152
 31
0.0
  0
LINE
  8
0
 62
     7
 10
213.889461
 20
5.439152
 30
0.0
 11
213.889461
 21
3.479152
 31
0.0
  0
LINE
  8
0
 62
     7
 10
211.69935
 20
5.421691
 30
0.0
 11
210.529461
 21
2.079152
 31
0.0
  0
INSERT
  8
0
 62
     7
  2
*X6
 10
210.529461
 20
2.079152
 30
0.0
 41
0.7
 42
0.7
 43
0.7
  0
INSERT
  8
0
 62
     7
  2
*X7
 10
210.529461
 20
2.079152
 30
0.0
 41
0.7
 42
0.7
 43
0.7
  0
INSERT
  8
0
 62
     7
  2
*X8
 10
210.529461
 20
2.079152
 30
0.0
 41
0.7
 42
0.7
 43
0.7
  0
INSERT
  8
0
 62
     7
  2
*X9
 10
210.529461
 20
2.079152
 30
0.0
 41
0.7
 42
0.7
 43
0.7
  0
LINE
  8
0
 62
     7
 10
218.019461
 20
2.079152
 30
0.0
 11
218.019461
 21
5.439152
 31
0.0
  0
LINE
  8
0
 62
     7
 10
218.019461
 20
9.079152
 30
0.0
 11
219.979461
 21
9.079152
 31
0.0
  0
LINE
  8
0
 62
     7
 10
219.979461
 20
9.079152
 30
0.0
 11
219.979461
 21
5.719152
 31
0.0
  0
LINE
  8
0
 62
     7
 10
219.979461
 20
5.719152
 30
0.0
 11
218.019461
 21
5.719152
 31
0.0
  0
LINE
  8
0
 62
     7
 10
218.019461
 20
5.439152
 30
0.0
 11
219.979461
 21
5.439152
 31
0.0
  0
LINE
  8
0
 62
     7
 10
219.979461
 20
5.439152
 30
0.0
 11
219.979461
 21
2.079152
 31
0.0
  0
LINE
  8
0
 62
     7
 10
219.979461
 20
2.079152
 30
0.0
 11
218.019461
 21
2.079152
 31
0.0
  0
LINE
  8
0
 62
     7
 10
218.019461
 20
5.719152
 30
0.0
 11
218.019461
 21
9.079152
 31
0.0
  0
ARC
  8
0
 62
     7
 10
220.819461
 20
7.504152
 30
0.0
 40
1.575
 50
298.455859
 51
90.052437
  0
LINE
  8
0
 62
     7
 10
220.259461
 20
9.079152
 30
0.0
 11
220.818019
 21
9.079151
 31
0.0
  0
LINE
  8
0
 62
     7
 10
220.259461
 20
9.079152
 30
0.0
 11
220.259461
 21
5.719152
 31
0.0
  0
LINE
  8
0
 62
     7
 10
220.259461
 20
5.719152
 30
0.0
 11
222.243904
 21
5.719152
 31
0.0
  0
LINE
  8
0
 62
     7
 10
222.499461
 20
5.439152
 30
0.0
 11
220.259461
 21
5.439152
 31
0.0
  0
LINE
  8
0
 62
     7
 10
220.259461
 20
5.439152
 30
0.0
 11
220.259461
 21
2.079152
 31
0.0
  0
ARC
  8
0
 62
     7
 10
220.819461
 20
4.179152
 30
0.0
 40
2.1
 50
269.937724
 51
37.056553
  0
LINE
  8
0
 62
     7
 10
220.259461
 20
2.079152
 30
0.0
 11
220.817178
 21
2.079153
 31
0.0
  0
ARC
  8
0
 62
     7
 10
220.819461
 20
4.179152
 30
0.0
 40
2.1
 50
47.28622
 51
68.787999
  0
INSERT
  8
0
 62
     7
  2
*X10
 10
210.529461
 20
2.079152
 30
0.0
 41
0.7
 42
0.7
 43
0.7
  0
INSERT
  8
0
 62
     7
  2
*X11
 10
210.529461
 20
2.079152
 30
0.0
 41
0.7
 42
0.7
 43
0.7
  0
INSERT
  8
0
 62
     7
  2
*X12
 10
210.529461
 20
2.079152
 30
0.0
 41
0.7
 42
0.7
 43
0.7
  0
INSERT
  8
0
 62
     7
  2
*X13
 10
210.529461
 20
2.079152
 30
0.0
 41
0.7
 42
0.7
 43
0.7
  0
INSERT
  8
0
 62
     7
  2
*X13
 10
215.989461
 20
2.079152
 30
0.0
 41
0.7
 42
0.7
 43
0.7
  0
INSERT
  8
0
 62
     7
  2
*X12
 10
215.989461
 20
2.079152
 30
0.0
 41
0.7
 42
0.7
 43
0.7
  0
INSERT
  8
0
 62
     7
  2
*X11
 10
215.989461
 20
2.079152
 30
0.0
 41
0.7
 42
0.7
 43
0.7
  0
INSERT
  8
0
 62
     7
  2
*X10
 10
215.989461
 20
2.079152
 30
0.0
 41
0.7
 42
0.7
 43
0.7
  0
ARC
  8
0
 62
     7
 10
226.279461
 20
4.179152
 30
0.0
 40
2.1
 50
47.28622
 51
68.787999
  0
LINE
  8
0
 62
     7
 10
225.719461
 20
2.079152
 30
0.0
 11
226.277178
 21
2.079153
 31
0.0
  0
ARC
  8
0
 62
     7
 10
226.279461
 20
4.179152
 30
0.0
 40
2.1
 50
269.937724
 51
37.056553
  0
LINE
  8
0
 62
     7
 10
225.719461
 20
5.439152
 30
0.0
 11
225.719461
 21
2.079152
 31
0.0
  0
LINE
  8
0
 62
     7
 10
227.959461
 20
5.439152
 30
0.0
 11
225.719461
 21
5.439152
 31
0.0
  0
LINE
  8
0
 62
     7
 10
225.719461
 20
5.719152
 30
0.0
 11
227.703904
 21
5.719152
 31
0.0
  0
LINE
  8
0
 62
     7
 10
225.719461
 20
9.079152
 30
0.0
 11
225.719461
 21
5.719152
 31
0.0
  0
LINE
  8
0
 62
     7
 10
225.719461
 20
9.079152
 30
0.0
 11
226.278019
 21
9.079151
 31
0.0
  0
ARC
  8
0
 62
     7
 10
226.279461
 20
7.504152
 30
0.0
 40
1.575
 50
298.455859
 51
90.052437
  0
LINE
  8
0
 62
     7
 10
223.479461
 20
5.719152
 30
0.0
 11
223.479461
 21
9.079152
 31
0.0
  0
LINE
  8
0
 62
     7
 10
225.439461
 20
2.079152
 30
0.0
 11
223.479461
 21
2.079152
 31
0.0
  0
LINE
  8
0
 62
     7
 10
225.439461
 20
5.439152
 30
0.0
 11
225.439461
 21
2.079152
 31
0.0
  0
LINE
  8
0
 62
     7
 10
223.479461
 20
5.439152
 30
0.0
 11
225.439461
 21
5.439152
 31
0.0
  0
LINE
  8
0
 62
     7
 10
225.439461
 20
5.719152
 30
0.0
 11
223.479461
 21
5.719152
 31
0.0
  0
LINE
  8
0
 62
     7
 10
225.439461
 20
9.079152
 30
0.0
 11
225.439461
 21
5.719152
 31
0.0
  0
LINE
  8
0
 62
     7
 10
223.479461
 20
9.079152
 30
0.0
 11
225.439461
 21
9.079152
 31
0.0
  0
LINE
  8
0
 62
     7
 10
223.479461
 20
2.079152
 30
0.0
 11
223.479461
 21
5.439152
 31
0.0
  0
TEXT
  8
0
 62
     7
 10
230.079461
 20
2.079152
 30
0.0
 40
3.0
  1
ABB 
 41
0.8
  7
ROMANS
  0
TEXT
  8
0
 62
     7
 10
238.079461
 20
2.079152
 30
0.0
 40
3.0
  1
Strömberg
 41
0.8
  7
ROMANS
  0
LINE
  8
0
 62
     7
 10
282.579461
 20
10.079152
 30
0.0
 11
282.579461
 21
18.579152
 31
0.0
  0
TEXT
  8
0
 62
     7
 10
28.079461
 20
5.079152
 30
0.0
 40
1.4
  1
MUUTOS
  7
ROMANS
  0
TEXT
  8
0
 62
     7
 10
28.079461
 20
2.812485
 30
0.0
 40
1.4
  1
REVISION
  7
ROMANS
  0
LINE
  8
0
 62
     7
 10
47.079461
 20
9.579152
 30
0.0
 11
209.579461
 21
9.579152
 31
0.0
  0
LINE
  8
0
 62
     7
 10
47.079461
 20
0.579152
 30
0.0
 11
47.079461
 21
9.579152
 31
0.0
  0
LINE
  8
0
 62
     7
 10
41.079461
 20
5.079152
 30
0.0
 11
209.579461
 21
5.079152
 31
0.0
  0
LINE
  8
0
 62
     7
 10
257.579461
 20
10.079152
 30
0.0
 11
257.579461
 21
35.579152
 31
0.0
  0
LINE
  8
0
 62
     7
 10
271.579461
 20
10.079152
 30
0.0
 11
271.579461
 21
0.579152
 31
0.0
  0
TEXT
  8
0
 62
     7
 10
210.579461
 20
32.579152
 30
0.0
 40
1.4
  1
TEKI  PREPARED
  7
ROMANS
  0
TEXT
  8
0
 62
     7
 10
273.579461
 20
7.579152
 30
0.0
 40
1.4
  1
VAST.OSASTO RESP.DEPT.
  7
ROMANS
  0
TEXT
  8
0
 62
     7
 10
257.749368
 20
2.082935
 30
0.0
 40
3.0
  1
Power
 41
0.8
  7
ROMANS
  0
TEXT
  8
0
 62
     7
 10
42.579461
 20
1.536444
 30
0.0
 40
2.5
  1
B
  7
ROMANS
  0
TEXT
  8
0
 62
     7
 10
42.579461
 20
5.928661
 30
0.0
 40
2.5
  1
C
  7
ROMANS
  0
LINE
  8
0
 62
     7
 10
0.579461
 20
0.579152
 30
0.0
 11
392.579461
 21
0.579152
 31
0.0
  0
LINE
  8
0
 62
     7
 10
392.579461
 20
263.079152
 30
0.0
 11
392.579461
 21
0.579152
 31
0.0
  0
LINE
  8
0
 62
     7
 10
0.579461
 20
0.579152
 30
0.0
 11
0.579461
 21
263.079152
 31
0.0
  0
ARC
  8
0
  6
CONTINUOUS
 62
     7
 10
55.0
 20
136.782052
 30
0.0
 40
0.5
 50
180.0
 51
0.0
  0
ARC
  8
0
  6
CONTINUOUS
 62
     7
 10
55.0
 20
136.782052
 30
0.0
 40
0.5
 50
0.0
 51
180.0
  0
ARC
  8
0
  6
CONTINUOUS
 62
     7
 10
50.0
 20
149.280914
 30
0.0
 40
0.5
 50
180.0
 51
0.0
  0
ARC
  8
0
  6
CONTINUOUS
 62
     7
 10
50.0
 20
149.280914
 30
0.0
 40
0.5
 50
0.0
 51
180.0
  0
TEXT
  8
0
  6
CONTINUOUS
 62
     7
 10
29.344763
 20
206.50558
 30
0.0
 40
2.0
  1
-
  0
TEXT
  8
0
  6
CONTINUOUS
 62
     7
 10
29.353328
 20
211.513635
 30
0.0
 40
2.0
  1
+
  0
ARC
  8
0
  6
CONTINUOUS
 62
     7
 10
72.5
 20
187.015226
 30
0.0
 40
0.5
 50
180.0
 51
0.0
  0
ARC
  8
0
  6
CONTINUOUS
 62
     7
 10
72.5
 20
187.015226
 30
0.0
 40
0.5
 50
0.0
 51
180.0
  0
ARC
  8
0
  6
CONTINUOUS
 62
     7
 10
47.5
 20
207.5
 30
0.0
 40
0.5
 50
180.0
 51
0.0
  0
ARC
  8
0
  6
CONTINUOUS
 62
     7
 10
47.5
 20
207.5
 30
0.0
 40
0.5
 50
0.0
 51
180.0
  0
ARC
  8
0
  6
CONTINUOUS
 62
     7
 10
70.0
 20
202.066264
 30
0.0
 40
0.5
 50
180.0
 51
0.0
  0
ARC
  8
0
  6
CONTINUOUS
 62
     7
 10
70.0
 20
202.066264
 30
0.0
 40
0.5
 50
0.0
 51
180.0
  0
TEXT
  8
0
  6
CONTINUOUS
 62
     7
 10
29.353328
 20
219.013635
 30
0.0
 40
2.0
  1
+
  0
ARC
  8
0
  6
CONTINUOUS
 62
     7
 10
135.0
 20
187.015226
 30
0.0
 40
0.5
 50
180.0
 51
0.0
  0
ARC
  8
0
  6
CONTINUOUS
 62
     7
 10
135.0
 20
187.015226
 30
0.0
 40
0.5
 50
0.0
 51
180.0
  0
ARC
  8
0
  6
CONTINUOUS
 62
     7
 10
120.0
 20
171.972419
 30
0.0
 40
0.5
 50
180.0
 51
0.0
  0
ARC
  8
0
  6
CONTINUOUS
 62
     7
 10
120.0
 20
171.972419
 30
0.0
 40
0.5
 50
0.0
 51
180.0
  0
ARC
  8
0
  6
CONTINUOUS
 62
     7
 10
82.5
 20
171.972419
 30
0.0
 40
0.5
 50
180.0
 51
0.0
  0
ARC
  8
0
  6
CONTINUOUS
 62
     7
 10
82.5
 20
171.972419
 30
0.0
 40
0.5
 50
0.0
 51
180.0
  0
ARC
  8
0
  6
CONTINUOUS
 62
     7
 10
75.0
 20
162.5
 30
0.0
 40
0.5
 50
180.0
 51
0.0
  0
ARC
  8
0
  6
CONTINUOUS
 62
     7
 10
75.0
 20
162.5
 30
0.0
 40
0.5
 50
0.0
 51
180.0
  0
ARC
  8
0
  6
CONTINUOUS
 62
     7
 10
85.0
 20
165.0
 30
0.0
 40
0.5
 50
180.0
 51
0.0
  0
ARC
  8
0
  6
CONTINUOUS
 62
     7
 10
85.0
 20
165.0
 30
0.0
 40
0.5
 50
0.0
 51
180.0
  0
ARC
  8
0
  6
CONTINUOUS
 62
     7
 10
132.5
 20
197.5
 30
0.0
 40
0.5
 50
180.0
 51
0.0
  0
ARC
  8
0
  6
CONTINUOUS
 62
     7
 10
132.5
 20
197.5
 30
0.0
 40
0.5
 50
0.0
 51
180.0
  0
ARC
  8
0
  6
CONTINUOUS
 62
     7
 10
130.0
 20
202.066264
 30
0.0
 40
0.5
 50
180.0
 51
0.0
  0
ARC
  8
0
  6
CONTINUOUS
 62
     7
 10
130.0
 20
202.066264
 30
0.0
 40
0.5
 50
0.0
 51
180.0
  0
ARC
  8
0
  6
CONTINUOUS
 62
     7
 10
127.5
 20
212.5
 30
0.0
 40
0.5
 50
180.0
 51
0.0
  0
ARC
  8
0
  6
CONTINUOUS
 62
     7
 10
127.5
 20
212.5
 30
0.0
 40
0.5
 50
0.0
 51
180.0
  0
LINE
  8
0
  6
CONTINUOUS
 62
     7
 10
183.42682
 20
170.424092
 30
0.0
 11
184.313707
 21
170.424092
 31
0.0
  0
LINE
  8
0
  6
CONTINUOUS
 62
     7
 10
183.095716
 20
171.035725
 30
0.0
 11
184.680287
 21
171.035725
 31
0.0
  0
LINE
  8
0
  6
CONTINUOUS
 62
     7
 10
183.911651
 20
171.657787
 30
0.0
 11
185.105992
 21
171.657787
 31
0.0
  0
LINE
  8
0
  6
CONTINUOUS
 62
     7
 10
182.71731
 20
171.657787
 30
0.0
 11
183.911651
 21
171.657787
 31
0.0
  0
LINE
  8
0
  6
CONTINUOUS
 62
     7
 10
183.927538
 20
173.012057
 30
0.0
 11
183.927538
 21
171.657787
 31
0.0
  0
ARC
  8
0
  6
CONTINUOUS
 62
     7
 10
145.0
 20
171.972419
 30
0.0
 40
0.5
 50
180.0
 51
0.0
  0
ARC
  8
0
  6
CONTINUOUS
 62
     7
 10
145.0
 20
171.972419
 30
0.0
 40
0.5
 50
0.0
 51
180.0
  0
LINE
  8
0
  6
CONTINUOUS
 62
     7
 10
176.989729
 20
170.636551
 30
0.0
 11
174.643963
 21
171.971904
 31
0.0
  0
LINE
  8
0
  6
CONTINUOUS
 62
     7
 10
174.643963
 20
171.971904
 30
0.0
 11
176.989729
 21
173.161824
 31
0.0
  0
ARC
  8
0
  6
CONTINUOUS
 62
     7
 10
150.0
 20
156.937274
 30
0.0
 40
0.5
 50
180.0
 51
0.0
  0
ARC
  8
0
  6
CONTINUOUS
 62
     7
 10
150.0
 20
156.937274
 30
0.0
 40
0.5
 50
0.0
 51
180.0
  0
LINE
  8
0
  6
CONTINUOUS
 62
     7
 10
176.989729
 20
141.164635
 30
0.0
 11
174.643963
 21
142.499989
 31
0.0
  0
LINE
  8
0
  6
CONTINUOUS
 62
     7
 10
174.643963
 20
142.499989
 30
0.0
 11
176.989729
 21
143.689908
 31
0.0
  0
LINE
  8
0
  6
CONTINUOUS
 62
     7
 10
188.375077
 20
140.347751
 30
0.0
 11
190.720842
 21
139.012397
 31
0.0
  0
LINE
  8
0
  6
CONTINUOUS
 62
     7
 10
190.720842
 20
139.012397
 30
0.0
 11
188.375077
 21
137.822478
 31
0.0
  0
LINE
  8
0
  6
CONTINUOUS
 62
     7
 10
183.633674
 20
134.498309
 30
0.0
 11
184.520561
 21
134.498309
 31
0.0
  0
LINE
  8
0
  6
CONTINUOUS
 62
     7
 10
183.302569
 20
135.109942
 30
0.0
 11
184.887141
 21
135.109942
 31
0.0
  0
LINE
  8
0
  6
CONTINUOUS
 62
     7
 10
184.118505
 20
135.732004
 30
0.0
 11
185.312846
 21
135.732004
 31
0.0
  0
LINE
  8
0
  6
CONTINUOUS
 62
     7
 10
182.924164
 20
135.732004
 30
0.0
 11
184.118505
 21
135.732004
 31
0.0
  0
LINE
  8
0
  6
CONTINUOUS
 62
     7
 10
184.134392
 20
137.086275
 30
0.0
 11
184.134392
 21
135.732004
 31
0.0
  0
LINE
  8
0
  6
CONTINUOUS
 62
     7
 10
183.633674
 20
145.624615
 30
0.0
 11
184.520561
 21
145.624615
 31
0.0
  0
LINE
  8
0
  6
CONTINUOUS
 62
     7
 10
183.302569
 20
146.236248
 30
0.0
 11
184.887141
 21
146.236248
 31
0.0
  0
LINE
  8
0
  6
CONTINUOUS
 62
     7
 10
184.118505
 20
146.85831
 30
0.0
 11
185.312846
 21
146.85831
 31
0.0
  0
LINE
  8
0
  6
CONTINUOUS
 62
     7
 10
182.924164
 20
146.85831
 30
0.0
 11
184.118505
 21
146.85831
 31
0.0
  0
LINE
  8
0
  6
CONTINUOUS
 62
     7
 10
184.134392
 20
148.21258
 30
0.0
 11
184.134392
 21
146.85831
 31
0.0
  0
ARC
  8
0
  6
CONTINUOUS
 62
     7
 10
170.0
 20
163.000813
 30
0.0
 40
0.5
 50
180.0
 51
0.0
  0
ARC
  8
0
  6
CONTINUOUS
 62
     7
 10
170.0
 20
163.000813
 30
0.0
 40
0.5
 50
0.0
 51
180.0
  0
LINE
  8
0
  6
CONTINUOUS
 62
     7
 10
176.989729
 20
155.601712
 30
0.0
 11
174.643963
 21
156.937065
 31
0.0
  0
LINE
  8
0
  6
CONTINUOUS
 62
     7
 10
174.643963
 20
156.937065
 30
0.0
 11
176.989729
 21
158.126985
 31
0.0
  0
LINE
  8
0
  6
CONTINUOUS
 62
     7
 10
176.989729
 20
166.164635
 30
0.0
 11
174.643963
 21
167.499989
 31
0.0
  0
LINE
  8
0
  6
CONTINUOUS
 62
     7
 10
174.643963
 20
167.499989
 30
0.0
 11
176.989729
 21
168.689908
 31
0.0
  0
LINE
  8
0
  6
CONTINUOUS
 62
     7
 10
183.178595
 20
155.512445
 30
0.0
 11
184.065482
 21
155.512445
 31
0.0
  0
LINE
  8
0
  6
CONTINUOUS
 62
     7
 10
182.847491
 20
156.124078
 30
0.0
 11
184.432062
 21
156.124078
 31
0.0
  0
LINE
  8
0
  6
CONTINUOUS
 62
     7
 10
183.663427
 20
156.74614
 30
0.0
 11
184.857768
 21
156.74614
 31
0.0
  0
LINE
  8
0
  6
CONTINUOUS
 62
     7
 10
182.469086
 20
156.74614
 30
0.0
 11
183.663427
 21
156.74614
 31
0.0
  0
LINE
  8
0
  6
CONTINUOUS
 62
     7
 10
183.679314
 20
158.10041
 30
0.0
 11
183.679314
 21
156.74614
 31
0.0
  0
LINE
  8
0
  6
CONTINUOUS
 62
     7
 10
183.42682
 20
165.560078
 30
0.0
 11
184.313707
 21
165.560078
 31
0.0
  0
LINE
  8
0
  6
CONTINUOUS
 62
     7
 10
183.095716
 20
166.171711
 30
0.0
 11
184.680287
 21
166.171711
 31
0.0
  0
LINE
  8
0
  6
CONTINUOUS
 62
     7
 10
183.911651
 20
166.793773
 30
0.0
 11
185.105992
 21
166.793773
 31
0.0
  0
LINE
  8
0
  6
CONTINUOUS
 62
     7
 10
182.71731
 20
166.793773
 30
0.0
 11
183.911651
 21
166.793773
 31
0.0
  0
LINE
  8
0
  6
CONTINUOUS
 62
     7
 10
183.927538
 20
168.148044
 30
0.0
 11
183.927538
 21
166.793773
 31
0.0
  0
ARC
  8
0
  6
CONTINUOUS
 62
     7
 10
142.5
 20
182.5
 30
0.0
 40
0.5
 50
180.0
 51
0.0
  0
ARC
  8
0
  6
CONTINUOUS
 62
     7
 10
142.5
 20
182.5
 30
0.0
 40
0.5
 50
0.0
 51
180.0
  0
ARC
  8
0
  6
CONTINUOUS
 62
     7
 10
170.0
 20
193.000813
 30
0.0
 40
0.5
 50
180.0
 51
0.0
  0
ARC
  8
0
  6
CONTINUOUS
 62
     7
 10
170.0
 20
193.000813
 30
0.0
 40
0.5
 50
0.0
 51
180.0
  0
LINE
  8
0
  6
CONTINUOUS
 62
     7
 10
176.989729
 20
181.164635
 30
0.0
 11
174.643963
 21
182.499989
 31
0.0
  0
LINE
  8
0
  6
CONTINUOUS
 62
     7
 10
174.643963
 20
182.499989
 30
0.0
 11
176.989729
 21
183.689908
 31
0.0
  0
ARC
  8
0
  6
CONTINUOUS
 62
     7
 10
170.0
 20
178.000813
 30
0.0
 40
0.5
 50
180.0
 51
0.0
  0
ARC
  8
0
  6
CONTINUOUS
 62
     7
 10
170.0
 20
178.000813
 30
0.0
 40
0.5
 50
0.0
 51
180.0
  0
ARC
  8
0
  6
CONTINUOUS
 62
     7
 10
172.5
 20
175.0
 30
0.0
 40
0.5
 50
180.0
 51
0.0
  0
ARC
  8
0
  6
CONTINUOUS
 62
     7
 10
172.5
 20
175.0
 30
0.0
 40
0.5
 50
0.0
 51
180.0
  0
ARC
  8
0
  6
CONTINUOUS
 62
     7
 10
172.5
 20
190.0
 30
0.0
 40
0.5
 50
180.0
 51
0.0
  0
ARC
  8
0
  6
CONTINUOUS
 62
     7
 10
172.5
 20
190.0
 30
0.0
 40
0.5
 50
0.0
 51
180.0
  0
LINE
  8
0
  6
CONTINUOUS
 62
     7
 10
176.989729
 20
185.679877
 30
0.0
 11
174.643963
 21
187.015231
 31
0.0
  0
LINE
  8
0
  6
CONTINUOUS
 62
     7
 10
174.643963
 20
187.015231
 30
0.0
 11
176.989729
 21
188.20515
 31
0.0
  0
LINE
  8
0
  6
CONTINUOUS
 62
     7
 10
183.344078
 20
180.631528
 30
0.0
 11
184.230965
 21
180.631528
 31
0.0
  0
LINE
  8
0
  6
CONTINUOUS
 62
     7
 10
183.012974
 20
181.243161
 30
0.0
 11
184.597545
 21
181.243161
 31
0.0
  0
LINE
  8
0
  6
CONTINUOUS
 62
     7
 10
183.82891
 20
181.865224
 30
0.0
 11
185.023251
 21
181.865224
 31
0.0
  0
LINE
  8
0
  6
CONTINUOUS
 62
     7
 10
182.634569
 20
181.865224
 30
0.0
 11
183.82891
 21
181.865224
 31
0.0
  0
LINE
  8
0
  6
CONTINUOUS
 62
     7
 10
183.844797
 20
183.219494
 30
0.0
 11
183.844797
 21
181.865224
 31
0.0
  0
LINE
  8
0
  6
CONTINUOUS
 62
     7
 10
176.989729
 20
196.164635
 30
0.0
 11
174.643963
 21
197.499989
 31
0.0
  0
LINE
  8
0
  6
CONTINUOUS
 62
     7
 10
174.643963
 20
197.499989
 30
0.0
 11
176.989729
 21
198.689908
 31
0.0
  0
LINE
  8
0
  6
CONTINUOUS
 62
     7
 10
176.989729
 20
200.731684
 30
0.0
 11
174.643963
 21
202.067038
 31
0.0
  0
LINE
  8
0
  6
CONTINUOUS
 62
     7
 10
174.643963
 20
202.067038
 30
0.0
 11
176.989729
 21
203.256957
 31
0.0
  0
ARC
  8
0
  6
CONTINUOUS
 62
     7
 10
170.0
 20
208.000813
 30
0.0
 40
0.5
 50
180.0
 51
0.0
  0
ARC
  8
0
  6
CONTINUOUS
 62
     7
 10
170.0
 20
208.000813
 30
0.0
 40
0.5
 50
0.0
 51
180.0
  0
ARC
  8
0
  6
CONTINUOUS
 62
     7
 10
172.5
 20
205.0
 30
0.0
 40
0.5
 50
180.0
 51
0.0
  0
ARC
  8
0
  6
CONTINUOUS
 62
     7
 10
172.5
 20
205.0
 30
0.0
 40
0.5
 50
0.0
 51
180.0
  0
LINE
  8
0
  6
CONTINUOUS
 62
     7
 10
176.989729
 20
211.164635
 30
0.0
 11
174.643963
 21
212.499989
 31
0.0
  0
LINE
  8
0
  6
CONTINUOUS
 62
     7
 10
174.643963
 20
212.499989
 30
0.0
 11
176.989729
 21
213.689908
 31
0.0
  0
LINE
  8
0
  6
CONTINUOUS
 62
     7
 10
227.38991
 20
101.166103
 30
0.0
 11
225.044144
 21
102.501457
 31
0.0
  0
LINE
  8
0
  6
CONTINUOUS
 62
     7
 10
225.044144
 20
102.501457
 30
0.0
 11
227.38991
 21
103.691376
 31
0.0
  0
LINE
  8
0
  6
CONTINUOUS
 62
     7
 10
347.146766
 20
64.887385
 30
0.0
 11
348.033653
 21
64.887385
 31
0.0
  0
LINE
  8
0
  6
CONTINUOUS
 62
     7
 10
346.815661
 20
65.499018
 30
0.0
 11
348.400233
 21
65.499018
 31
0.0
  0
LINE
  8
0
  6
CONTINUOUS
 62
     7
 10
347.631597
 20
66.12108
 30
0.0
 11
348.825938
 21
66.12108
 31
0.0
  0
LINE
  8
0
  6
CONTINUOUS
 62
     7
 10
346.437256
 20
66.12108
 30
0.0
 11
347.631597
 21
66.12108
 31
0.0
  0
LINE
  8
0
  6
CONTINUOUS
 62
     7
 10
347.647484
 20
67.475351
 30
0.0
 11
347.647484
 21
66.12108
 31
0.0
  0
LINE
  8
0
  6
CONTINUOUS
 62
     7
 10
228.306523
 20
148.664644
 30
0.0
 11
225.960757
 21
149.999998
 31
0.0
  0
LINE
  8
0
  6
CONTINUOUS
 62
     7
 10
225.960757
 20
149.999998
 30
0.0
 11
228.306523
 21
151.189917
 31
0.0
  0
LINE
  8
0
  6
CONTINUOUS
 62
     7
 10
205.794615
 20
139.072679
 30
0.0
 11
206.681502
 21
139.072679
 31
0.0
  0
LINE
  8
0
  6
CONTINUOUS
 62
     7
 10
205.463511
 20
139.684312
 30
0.0
 11
207.048082
 21
139.684312
 31
0.0
  0
LINE
  8
0
  6
CONTINUOUS
 62
     7
 10
206.279447
 20
140.306374
 30
0.0
 11
207.473788
 21
140.306374
 31
0.0
  0
LINE
  8
0
  6
CONTINUOUS
 62
     7
 10
205.085106
 20
140.306374
 30
0.0
 11
206.279447
 21
140.306374
 31
0.0
  0
LINE
  8
0
  6
CONTINUOUS
 62
     7
 10
206.295333
 20
141.660644
 30
0.0
 11
206.295333
 21
140.306374
 31
0.0
  0
ARC
  8
0
  6
CONTINUOUS
 62
     7
 10
222.5
 20
150.0
 30
0.0
 40
0.5
 50
180.0
 51
0.0
  0
ARC
  8
0
  6
CONTINUOUS
 62
     7
 10
222.5
 20
150.0
 30
0.0
 40
0.5
 50
0.0
 51
180.0
  0
LINE
  8
0
  6
CONTINUOUS
 62
     7
 10
205.794615
 20
169.485247
 30
0.0
 11
206.681502
 21
169.485247
 31
0.0
  0
LINE
  8
0
  6
CONTINUOUS
 62
     7
 10
205.463511
 20
170.09688
 30
0.0
 11
207.048082
 21
170.09688
 31
0.0
  0
LINE
  8
0
  6
CONTINUOUS
 62
     7
 10
206.279447
 20
170.718942
 30
0.0
 11
207.473788
 21
170.718942
 31
0.0
  0
LINE
  8
0
  6
CONTINUOUS
 62
     7
 10
205.085106
 20
170.718942
 30
0.0
 11
206.279447
 21
170.718942
 31
0.0
  0
LINE
  8
0
  6
CONTINUOUS
 62
     7
 10
206.295333
 20
172.073213
 30
0.0
 11
206.295333
 21
170.718942
 31
0.0
  0
LINE
  8
0
  6
CONTINUOUS
 62
     7
 10
226.989729
 20
188.664635
 30
0.0
 11
224.643963
 21
189.999989
 31
0.0
  0
LINE
  8
0
  6
CONTINUOUS
 62
     7
 10
224.643963
 20
189.999989
 30
0.0
 11
226.989729
 21
191.189908
 31
0.0
  0
ARC
  8
0
  6
CONTINUOUS
 62
     7
 10
215.0
 20
200.0
 30
0.0
 40
0.5
 50
180.0
 51
0.0
  0
ARC
  8
0
  6
CONTINUOUS
 62
     7
 10
215.0
 20
200.0
 30
0.0
 40
0.5
 50
0.0
 51
180.0
  0
LINE
  8
0
  6
CONTINUOUS
 62
     7
 10
263.810222
 20
150.21896
 30
0.0
 11
264.697108
 21
150.21896
 31
0.0
  0
LINE
  8
0
  6
CONTINUOUS
 62
     7
 10
263.479117
 20
150.830593
 30
0.0
 11
265.063688
 21
150.830593
 31
0.0
  0
LINE
  8
0
  6
CONTINUOUS
 62
     7
 10
264.295053
 20
151.452655
 30
0.0
 11
265.489394
 21
151.452655
 31
0.0
  0
LINE
  8
0
  6
CONTINUOUS
 62
     7
 10
263.100712
 20
151.452655
 30
0.0
 11
264.295053
 21
151.452655
 31
0.0
  0
LINE
  8
0
  6
CONTINUOUS
 62
     7
 10
264.31094
 20
152.806926
 30
0.0
 11
264.31094
 21
151.452655
 31
0.0
  0
LINE
  8
0
  6
CONTINUOUS
 62
     7
 10
263.810222
 20
140.20129
 30
0.0
 11
264.697108
 21
140.20129
 31
0.0
  0
LINE
  8
0
  6
CONTINUOUS
 62
     7
 10
263.479117
 20
140.812923
 30
0.0
 11
265.063688
 21
140.812923
 31
0.0
  0
LINE
  8
0
  6
CONTINUOUS
 62
     7
 10
264.295053
 20
141.434985
 30
0.0
 11
265.489394
 21
141.434985
 31
0.0
  0
LINE
  8
0
  6
CONTINUOUS
 62
     7
 10
263.100712
 20
141.434985
 30
0.0
 11
264.295053
 21
141.434985
 31
0.0
  0
LINE
  8
0
  6
CONTINUOUS
 62
     7
 10
264.31094
 20
142.789255
 30
0.0
 11
264.31094
 21
141.434985
 31
0.0
  0
ARC
  8
0
  6
CONTINUOUS
 62
     7
 10
280.0
 20
227.5
 30
0.0
 40
0.5
 50
180.0
 51
0.0
  0
ARC
  8
0
  6
CONTINUOUS
 62
     7
 10
280.0
 20
227.5
 30
0.0
 40
0.5
 50
0.0
 51
180.0
  0
ARC
  8
0
  6
CONTINUOUS
 62
     7
 10
295.0
 20
227.5
 30
0.0
 40
0.5
 50
180.0
 51
0.0
  0
ARC
  8
0
  6
CONTINUOUS
 62
     7
 10
295.0
 20
227.5
 30
0.0
 40
0.5
 50
0.0
 51
180.0
  0
LINE
  8
0
  6
CONTINUOUS
 62
     7
 10
358.096661
 20
214.979555
 30
0.0
 11
360.442427
 21
213.644202
 31
0.0
  0
LINE
  8
0
  6
CONTINUOUS
 62
     7
 10
360.442427
 20
213.644202
 30
0.0
 11
358.096661
 21
212.454283
 31
0.0
  0
LINE
  8
0
  6
CONTINUOUS
 62
     7
 10
354.527456
 20
232.623394
 30
0.0
 11
355.414342
 21
232.623394
 31
0.0
  0
LINE
  8
0
  6
CONTINUOUS
 62
     7
 10
354.196351
 20
233.235027
 30
0.0
 11
355.780922
 21
233.235027
 31
0.0
  0
LINE
  8
0
  6
CONTINUOUS
 62
     7
 10
355.012287
 20
233.85709
 30
0.0
 11
356.206628
 21
233.85709
 31
0.0
  0
LINE
  8
0
  6
CONTINUOUS
 62
     7
 10
353.817946
 20
233.85709
 30
0.0
 11
355.012287
 21
233.85709
 31
0.0
  0
LINE
  8
0
  6
CONTINUOUS
 62
     7
 10
355.028174
 20
235.21136
 30
0.0
 11
355.028174
 21
233.85709
 31
0.0
  0
LINE
  8
0
  6
CONTINUOUS
 62
     7
 10
354.459001
 20
222.549047
 30
0.0
 11
355.345888
 21
222.549047
 31
0.0
  0
LINE
  8
0
  6
CONTINUOUS
 62
     7
 10
354.127897
 20
223.16068
 30
0.0
 11
355.712468
 21
223.16068
 31
0.0
  0
LINE
  8
0
  6
CONTINUOUS
 62
     7
 10
354.943833
 20
223.782742
 30
0.0
 11
356.138174
 21
223.782742
 31
0.0
  0
LINE
  8
0
  6
CONTINUOUS
 62
     7
 10
353.749492
 20
223.782742
 30
0.0
 11
354.943833
 21
223.782742
 31
0.0
  0
LINE
  8
0
  6
CONTINUOUS
 62
     7
 10
354.95972
 20
225.137013
 30
0.0
 11
354.95972
 21
223.782742
 31
0.0
  0
ENDSEC
  0
EOF
