  0
SECTION
  2
HEADER
  9
$ACADVER
  1
AC1009
999
I-DEAS Drafting Master Series 7m3 Not Encoded
  9
$EXTMIN
 10
0.0
 20
0.0
  9
$EXTMAX
 10
1.2602448E+002
 20
1.5639138E+002
  9
$TEXTSIZE
 40
1.25E-001
  9
$LTSCALE
 40
1.0
  9
$CLAYER
  8
AUTOCAD0
  9
$CECOLOR
 62
1
  9
$DIMASZ
 40
1.25E-001
  9
$DIMEXO
 40
6.25E-002
  9
$DIMDLI
 40
2.5E-001
  9
$DIMEXE
 40
1.25E-001
  9
$DIMTP
 40
5.0E-003
  9
$DIMTM
 40
-5.0E-003
  9
$DIMTXT
 40
1.25E-001
  9
$DIMLIM
 70
0
  9
$DIMTIH
 70
1
  9
$DIMTOH
 70
1
  9
$DIMSE1
 70
0
  9
$DIMSE2
 70
0
  9
$DIMTAD
 70
0
  9
$DIMASO
 70
1
  9
$DIMALT
 70
0
  9
$DIMALTD
 70
0
  9
$DIMTOFL
 70
1
  9
$DIMTIX
 70
0
  9
$DIMSAH
 70
0
  9
$DIMTFAC
 40
1.0
  9
$DIMGAP
 40
6.25E-002
  9
$LUNITS
 70
2
  9
$LUPREC
 70
3
  9
$FILLETRAD
 40
2.5E-001
  9
$AUNITS
 70
0
  9
$AUPREC
 70
1
  9
$CHAMFERA
 40
2.5E-001
  9
$CHAMFERB
 40
2.5E-001
  9
$ANGBASE
 50
0.0
  9
$ANGDIR
 70
0
  9
$PDMODE
 70
2
  9
$PDSIZE
 40
-1.0E-002
  9
$SPLINETYPE
 70
6
  0
ENDSEC
  0
SECTION
  2
TABLES
  0
TABLE
  2
LTYPE
 70
9
  0
LTYPE
  2
HIDDENNEW00
  3
_ 
 70
64
 72
65
 73
2
 40
1.875E-001
 49
1.25E-001
 49
-6.25E-002
  0
LTYPE
  2
HIDDENNEW01
  3
_ 
 70
64
 72
65
 73
2
 40
1.875E-001
 49
1.25E-001
 49
-6.25E-002
  0
LTYPE
  2
HIDDEN
  3
_ 
 70
64
 72
65
 73
2
 40
1.875E-001
 49
1.25E-001
 49
-6.25E-002
  0
LTYPE
  2
CENTERLINE
  3
_ 
 70
64
 72
65
 73
4
 40
1.25
 49
1.0
 49
-6.25E-002
 49
1.25E-001
 49
-6.25E-002
  0
LTYPE
  2
PHANTOM
  3
_ 
 70
64
 72
65
 73
6
 40
1.1875
 49
7.5E-001
 49
-6.25E-002
 49
1.25E-001
 49
-6.25E-002
 49
1.25E-001
 49
-6.25E-002
  0
LTYPE
  2
SHORT_DASH
  3
_ 
 70
64
 72
65
 73
2
 40
1.25E-001
 49
6.25E-002
 49
-6.25E-002
  0
LTYPE
  2
LONG_DASH
  3
_ 
 70
64
 72
65
 73
2
 40
3.75E-001
 49
1.875E-001
 49
-1.875E-001
  0
LTYPE
  2
KV
  3
_ 
 70
64
 72
65
 73
2
 40
3.25
 49
2.25
 49
-1.0
  0
LTYPE
  2
PKV1
  3
_ 
 70
64
 72
65
 73
4
 40
8.06
 49
6.0
 49
-1.0
 49
6.0E-002
 49
-1.0
  0
ENDTAB
  0
TABLE
  2
LAYER
 70
258
  0
LAYER
  2
AUTOCAD0
 70
0
 62
7
  6
HIDDENNEW00
  0
LAYER
  2
Drafting_Hidden_Entities
 70
1
 62
7
  6
CONTINUOUS
  0
ENDTAB
  0
TABLE
  2
STYLE
 70
1
  0
STYLE
  2
STANDARD
 70
64
 40
0.0
 41
1.0
 50
0.0
 71
0
 42
1.0
  3
monotxt.shx
  4

  0
ENDTAB
  0
TABLE
  2
VIEW
 70
0
  0
ENDTAB
  0
TABLE
  2
DIMSTYLE
 70
0
  0
ENDTAB
  0
ENDSEC
  0
SECTION
  2
BLOCKS
  0
ENDSEC
  0
SECTION
  2
ENTITIES
  0
TEXT
  8
AUTOCAD0
  6
CONTINUOUS
 62
40
 10
2.4440529E+001
 20
3.4362963E+001
 40
2.0
  1
OESAZX 116
 41
8.93E-001
  0
LINE
  8
AUTOCAD0
  6
CONTINUOUS
 62
40
 10
1.4284763E+001
 20
6.9438899E+001
 11
4.3284763E+001
 21
6.9438899E+001
  0
LINE
  8
AUTOCAD0
  6
CONTINUOUS
 62
40
 10
4.3284763E+001
 20
6.9438899E+001
 11
4.3284763E+001
 21
3.1438899E+001
  0
LINE
  8
AUTOCAD0
  6
CONTINUOUS
 62
40
 10
1.4284763E+001
 20
3.3438899E+001
 11
1.4284763E+001
 21
3.1438899E+001
  0
LINE
  8
AUTOCAD0
  6
CONTINUOUS
 62
40
 10
1.4284763E+001
 20
3.1438899E+001
 11
4.3284763E+001
 21
3.1438899E+001
  0
LINE
  8
AUTOCAD0
  6
CONTINUOUS
 62
40
 10
2.3284763E+001
 20
4.9438899E+001
 11
2.3284763E+001
 21
3.1438899E+001
  0
LINE
  8
AUTOCAD0
  6
CONTINUOUS
 62
40
 10
1.4284763E+001
 20
5.3438899E+001
 11
1.9284763E+001
 21
5.3438899E+001
  0
LINE
  8
AUTOCAD0
  6
CONTINUOUS
 62
40
 10
1.4284763E+001
 20
3.3438899E+001
 11
2.3284763E+001
 21
3.3438899E+001
  0
ARC
  8
AUTOCAD0
  6
CONTINUOUS
 62
40
 10
1.9284763E+001
 20
4.9438899E+001
 40
4.0
 50
0.0
 51
9.0E+001
  0
LINE
  8
AUTOCAD0
  6
CONTINUOUS
 62
40
 10
1.4284763E+001
 20
5.3438899E+001
 11
1.4284763E+001
 21
6.9438899E+001
  0
CIRCLE
  8
AUTOCAD0
  6
CONTINUOUS
 62
40
 10
3.3284763E+001
 20
6.1688899E+001
 40
4.25
  0
CIRCLE
  8
AUTOCAD0
  6
CONTINUOUS
 62
40
 10
3.3284763E+001
 20
4.5438899E+001
 40
5.0
  0
LINE
  8
AUTOCAD0
  6
CONTINUOUS
 62
40
 10
3.054615E+001
 20
6.4938899E+001
 11
3.6023376E+001
 21
6.4938899E+001
  0
LINE
  8
AUTOCAD0
  6
CONTINUOUS
 62
40
 10
3.054615E+001
 20
5.8438899E+001
 11
3.6023376E+001
 21
5.8438899E+001
  0
LINE
  8
AUTOCAD0
  6
CONTINUOUS
 62
40
 10
3.0034763E+001
 20
6.4427512E+001
 11
3.0034763E+001
 21
5.8950286E+001
  0
LINE
  8
AUTOCAD0
  6
CONTINUOUS
 62
40
 10
3.6534763E+001
 20
6.4427512E+001
 11
3.6534763E+001
 21
5.8950286E+001
  0
LINE
  8
AUTOCAD0
  6
CONTINUOUS
 62
40
 10
6.3284763E+001
 20
3.3438899E+001
 11
6.3284763E+001
 21
3.1438899E+001
  0
LINE
  8
AUTOCAD0
  6
CONTINUOUS
 62
40
 10
1.1328476E+002
 20
6.9438899E+001
 11
1.1328476E+002
 21
3.4438899E+001
  0
LINE
  8
AUTOCAD0
  6
CONTINUOUS
 62
40
 10
6.3284763E+001
 20
3.1438899E+001
 11
1.1028476E+002
 21
3.1438899E+001
  0
LINE
  8
AUTOCAD0
  6
CONTINUOUS
 62
40
 10
6.3284763E+001
 20
3.3438899E+001
 11
1.1028476E+002
 21
3.3438899E+001
  0
LINE
  8
AUTOCAD0
  6
CONTINUOUS
 62
40
 10
1.1128476E+002
 20
6.9438899E+001
 11
1.1128476E+002
 21
3.4438899E+001
  0
LINE
  8
AUTOCAD0
  6
CONTINUOUS
 62
40
 10
1.0928476E+002
 20
6.9438899E+001
 11
1.1328476E+002
 21
6.9438899E+001
  0
ARC
  8
AUTOCAD0
  6
CONTINUOUS
 62
40
 10
1.1028476E+002
 20
3.4438899E+001
 40
1.0
 50
2.7E+002
 51
3.6E+002
  0
ARC
  8
AUTOCAD0
  6
CONTINUOUS
 62
40
 10
1.1028476E+002
 20
3.4438899E+001
 40
3.0
 50
2.7E+002
 51
3.6E+002
  0
LINE
  8
AUTOCAD0
  6
CONTINUOUS
 62
40
 10
1.1128476E+002
 20
5.3438899E+001
 11
1.1328476E+002
 21
5.3438899E+001
  0
LINE
  8
AUTOCAD0
  6
CONTINUOUS
 62
40
 10
9.8284763E+001
 20
3.3438899E+001
 11
9.8284763E+001
 21
3.1438899E+001
  0
LINE
  8
AUTOCAD0
  6
CONTINUOUS
 62
40
 10
7.1784763E+001
 20
4.8938899E+001
 11
7.1784763E+001
 21
3.6438899E+001
  0
LINE
  8
AUTOCAD0
  6
CONTINUOUS
 62
40
 10
7.3784763E+001
 20
4.8938899E+001
 11
7.3784763E+001
 21
3.6438899E+001
  0
LINE
  8
AUTOCAD0
  6
CONTINUOUS
 62
40
 10
7.4784763E+001
 20
3.5438899E+001
 11
9.1784763E+001
 21
3.5438899E+001
  0
LINE
  8
AUTOCAD0
  6
CONTINUOUS
 62
40
 10
9.1784763E+001
 20
3.5438899E+001
 11
9.1784763E+001
 21
3.3438899E+001
  0
LINE
  8
AUTOCAD0
  6
CONTINUOUS
 62
40
 10
7.1784763E+001
 20
4.8938899E+001
 11
7.3784763E+001
 21
4.8938899E+001
  0
ARC
  8
AUTOCAD0
  6
CONTINUOUS
 62
40
 10
7.4784763E+001
 20
3.6438899E+001
 40
1.0
 50
1.8E+002
 51
2.7E+002
  0
ARC
  8
AUTOCAD0
  6
CONTINUOUS
 62
40
 10
7.4784763E+001
 20
3.6438899E+001
 40
3.0
 50
1.8E+002
 51
2.7E+002
  0
LINE
  8
AUTOCAD0
  6
KV
 62
40
 10
7.1784763E+001
 20
4.0938899E+001
 11
7.3784763E+001
 21
4.0938899E+001
  0
LINE
  8
AUTOCAD0
  6
CONTINUOUS
 62
40
 10
3.5534763E+001
 20
4.8938899E+001
 11
3.5534763E+001
 21
4.3188899E+001
  0
LINE
  8
AUTOCAD0
  6
CONTINUOUS
 62
40
 10
3.1034763E+001
 20
4.8938899E+001
 11
3.1034763E+001
 21
4.3188899E+001
  0
ARC
  8
AUTOCAD0
  6
CONTINUOUS
 62
40
 10
3.3284763E+001
 20
4.3188899E+001
 40
2.25
 50
1.8E+002
 51
3.6E+002
  0
LINE
  8
AUTOCAD0
  6
CONTINUOUS
 62
40
 10
3.6855477E+001
 20
4.8938899E+001
 11
3.5534763E+001
 21
4.8938899E+001
  0
LINE
  8
AUTOCAD0
  6
CONTINUOUS
 62
40
 10
3.1034763E+001
 20
4.8938899E+001
 11
2.9714049E+001
 21
4.8938899E+001
  0
LINE
  8
AUTOCAD0
  6
KV
 62
40
 10
2.9714049E+001
 20
4.8938899E+001
 11
2.3284763E+001
 21
4.8938899E+001
  0
LINE
  8
AUTOCAD0
  6
KV
 62
40
 10
3.6855477E+001
 20
4.8938899E+001
 11
4.3284763E+001
 21
4.8938899E+001
  0
LINE
  8
AUTOCAD0
  6
PKV1
 62
40
 10
6.6804704E+001
 20
4.3188899E+001
 11
7.8876283E+001
 21
4.3188899E+001
  0
LINE
  8
AUTOCAD0
  6
PKV1
 62
40
 10
1.0640921E+002
 20
4.5438899E+001
 11
1.1848079E+002
 21
4.5438899E+001
  0
LINE
  8
AUTOCAD0
  6
PKV1
 62
40
 10
1.0640921E+002
 20
6.1688899E+001
 11
1.1848079E+002
 21
6.1688899E+001
  0
LINE
  8
AUTOCAD0
  6
CONTINUOUS
 62
40
 10
1.0928476E+002
 20
3.7438899E+001
 11
1.1128476E+002
 21
3.7438899E+001
  0
LINE
  8
AUTOCAD0
  6
CONTINUOUS
 62
40
 10
1.0928476E+002
 20
3.7438899E+001
 11
1.0928476E+002
 21
6.9438899E+001
  0
LINE
  8
AUTOCAD0
  6
CONTINUOUS
 62
40
 10
4.3284763E+001
 20
8.4360156E+001
 11
1.4284763E+001
 21
8.4360156E+001
  0
LINE
  8
AUTOCAD0
  6
CONTINUOUS
 62
40
 10
4.3284763E+001
 20
1.3436016E+002
 11
1.4284763E+001
 21
1.3436016E+002
  0
LINE
  8
AUTOCAD0
  6
CONTINUOUS
 62
40
 10
1.9284763E+001
 20
1.1936016E+002
 11
1.4284763E+001
 21
1.1936016E+002
  0
LINE
  8
AUTOCAD0
  6
CONTINUOUS
 62
40
 10
1.4284763E+001
 20
8.4360156E+001
 11
1.4284763E+001
 21
1.1936016E+002
  0
LINE
  8
AUTOCAD0
  6
CONTINUOUS
 62
40
 10
4.3284763E+001
 20
8.4360156E+001
 11
4.3284763E+001
 21
1.3436016E+002
  0
LINE
  8
AUTOCAD0
  6
CONTINUOUS
 62
40
 10
2.3284763E+001
 20
1.2336016E+002
 11
2.3284763E+001
 21
1.3436016E+002
  0
LINE
  8
AUTOCAD0
  6
CONTINUOUS
 62
40
 10
2.3284763E+001
 20
1.3236016E+002
 11
1.4284763E+001
 21
1.3236016E+002
  0
LINE
  8
AUTOCAD0
  6
CONTINUOUS
 62
40
 10
1.4284763E+001
 20
1.3236016E+002
 11
1.4284763E+001
 21
1.3436016E+002
  0
ARC
  8
AUTOCAD0
  6
CONTINUOUS
 62
40
 10
1.9284763E+001
 20
1.2336016E+002
 40
4.0
 50
2.7E+002
 51
3.6E+002
  0
LINE
  8
AUTOCAD0
  6
PKV1
 62
40
 10
3.3284763E+001
 20
1.4012617E+002
 11
3.3284763E+001
 21
1.2805459E+002
  0
ENDSEC
  0
EOF
