  0
SECTION
  2
HEADER
  9
$ACADVER
  1
AC1009
  9
$DWGCODEPAGE
  3
iso8859-1
  9
$INSBASE
 10
0.0
 20
0.0
 30
0.0
  9
$EXTMIN
 10
1.0E20
 20
1.0E20
  9
$EXTMAX
 10
-1.0E20
 20
-1.0E20
  9
$LIMMIN
 10
0.0
 20
0.0
  9
$LIMMAX
 10
12.0
 20
9.0
  9
$ORTHOMODE
 70
     0
  9
$REGENMODE
 70
     1
  9
$FILLMODE
 70
     1
  9
$QTEXTMODE
 70
     0
  9
$MIRRTEXT
 70
     1
  9
$DRAGMODE
 70
     2
  9
$LTSCALE
 40
15.0
  9
$OSMODE
 70
     0
  9
$ATTMODE
 70
     1
  9
$TEXTSIZE
 40
0.2
  9
$TRACEWID
 40
0.05
  9
$TEXTSTYLE
  7
STANDARD
  9
$CLAYER
  8
0
  9
$CELTYPE
  6
DASHED
  9
$CECOLOR
 62
   256
  9
$DIMSCALE
 40
1.0
  9
$DIMASZ
 40
0.18
  9
$DIMEXO
 40
0.0625
  9
$DIMDLI
 40
0.38
  9
$DIMRND
 40
0.0
  9
$DIMDLE
 40
0.0
  9
$DIMEXE
 40
0.18
  9
$DIMTP
 40
0.0
  9
$DIMTM
 40
0.0
  9
$DIMTXT
 40
0.18
  9
$DIMCEN
 40
0.09
  9
$DIMTSZ
 40
0.0
  9
$DIMTOL
 70
     0
  9
$DIMLIM
 70
     0
  9
$DIMTIH
 70
     1
  9
$DIMTOH
 70
     1
  9
$DIMSE1
 70
     0
  9
$DIMSE2
 70
     0
  9
$DIMTAD
 70
     0
  9
$DIMZIN
 70
     0
  9
$DIMBLK
  1

  9
$DIMASO
 70
     1
  9
$DIMSHO
 70
     1
  9
$DIMPOST
  1

  9
$DIMAPOST
  1

  9
$DIMALT
 70
     0
  9
$DIMALTD
 70
     2
  9
$DIMALTF
 40
25.4
  9
$DIMLFAC
 40
1.0
  9
$DIMTOFL
 70
     0
  9
$DIMTVP
 40
0.0
  9
$DIMTIX
 70
     0
  9
$DIMSOXD
 70
     0
  9
$DIMSAH
 70
     0
  9
$DIMBLK1
  1

  9
$DIMBLK2
  1

  9
$DIMSTYLE
  2
STANDARD
  9
$DIMCLRD
 70
     0
  9
$DIMCLRE
 70
     0
  9
$DIMCLRT
 70
     0
  9
$DIMTFAC
 40
1.0
  9
$DIMGAP
 40
0.09
  9
$LUNITS
 70
     2
  9
$LUPREC
 70
     4
  9
$AXISMODE
 70
     0
  9
$AXISUNIT
 10
0.0
 20
0.0
  9
$SKETCHINC
 40
0.1
  9
$FILLETRAD
 40
0.0
  9
$AUNITS
 70
     0
  9
$AUPREC
 70
     0
  9
$MENU
  1
acad
  9
$ELEVATION
 40
0.0
  9
$PELEVATION
 40
0.0
  9
$THICKNESS
 40
0.0
  9
$LIMCHECK
 70
     0
  9
$BLIPMODE
 70
     1
  9
$CHAMFERA
 40
0.0
  9
$CHAMFERB
 40
0.0
  9
$SKPOLY
 70
     0
  9
$TDCREATE
 40
0.000000000
  9
$TDUPDATE
 40
0.000000000
  9
$TDINDWG
 40
0.0
  9
$TDUSRTIMER
 40
0.0
  9
$USRTIMER
 70
     1
  9
$ANGBASE
 50
0.0
  9
$ANGDIR
 70
     0
  9
$PDMODE
 70
     0
  9
$PDSIZE
 40
0.0
  9
$PLINEWID
 40
0.0
  9
$COORDS
 70
     1
  9
$SPLFRAME
 70
     0
  9
$SPLINETYPE
 70
     6
  9
$SPLINESEGS
 70
     8
  9
$ATTDIA
 70
     0
  9
$ATTREQ
 70
     1
  9
$HANDLING
 70
     1
  9
$HANDSEED
  5
   5FA
  9
$SURFTAB1
 70
     6
  9
$SURFTAB2
 70
     6
  9
$SURFTYPE
 70
     6
  9
$SURFU
 70
     6
  9
$SURFV
 70
     6
  9
$UCSNAME
  2

  9
$UCSORG
 10
0.0
 20
0.0
 30
0.0
  9
$UCSXDIR
 10
1.0
 20
0.0
 30
0.0
  9
$UCSYDIR
 10
0.0
 20
1.0
 30
0.0
  9
$PUCSNAME
  2

  9
$PUCSORG
 10
0.0
 20
0.0
 30
0.0
  9
$PUCSXDIR
 10
1.0
 20
0.0
 30
0.0
  9
$PUCSYDIR
 10
0.0
 20
1.0
 30
0.0
  9
$USERI1
 70
     0
  9
$USERI2
 70
     0
  9
$USERI3
 70
     0
  9
$USERI4
 70
     0
  9
$USERI5
 70
     0
  9
$USERR1
 40
0.0
  9
$USERR2
 40
0.0
  9
$USERR3
 40
0.0
  9
$USERR4
 40
0.0
  9
$USERR5
 40
0.0
  9
$WORLDVIEW
 70
     1
  9
$SHADEDGE
 70
     3
  9
$SHADEDIF
 70
    70
  9
$TILEMODE
 70
     1
  9
$MAXACTVP
 70
    16
  9
$PINSBASE
 10
0.0
 20
0.0
 30
0.0
  9
$PLIMCHECK
 70
     0
  9
$PEXTMIN
 10
1.0E20
 20
1.0E20
 30
1.0E20
  9
$PEXTMAX
 10
-1.0E20
 20
-1.0E20
 30
-1.0E20
  9
$PLIMMIN
 10
0.0
 20
0.0
  9
$PLIMMAX
 10
12.0
 20
9.0
  9
$UNITMODE
 70
     0
  9
$VISRETAIN
 70
     0
  0
ENDSEC
  0
SECTION
  2
TABLES
  0
TABLE
  2
VPORT
 70
     1
  0
VPORT
  2
*ACTIVE
 70
     0
 10
0.0
 20
0.0
 11
1.0
 21
1.0
 12
6.801242
 22
4.5
 13
0.0
 23
0.0
 14
1.0
 24
1.0
 15
0.0
 25
0.0
 16
0.0
 26
0.0
 36
1.0
 17
0.0
 27
0.0
 37
0.0
 40
9.0
 41
1.511387
 42
50.0
 43
0.0
 44
0.0
 50
0.0
 51
0.0
 71
     0
 72
   100
 73
     1
 74
     1
 75
     0
 76
     0
 77
     0
 78
     0
  0
ENDTAB
  0
TABLE
  2
LTYPE
 70
    41
  0
LTYPE
  2
BYBLOCK
 70
     0
  3

 72
    65
 73
     0
 40
0.0
  0
LTYPE
  2
BYLAYER
 70
     0
  3

 72
    65
 73
     0
 40
0.0
  0
LTYPE
  2
CONTINUOUS
 70
     0
  3
Solid line
 72
    65
 73
     0
 40
0.0
  0
LTYPE
  2
BORDER
 70
    64
  3
__ __ . __ __ . __ __ . __ __ . __ __ . __ __ .
 72
    65
 73
     6
 40
1.75
 49
0.5
 49
-0.25
 49
0.5
 49
-0.25
 49
0.0
 49
-0.25
  0
LTYPE
  2
BORDER2
 70
    64
  3
__.__.__.__.__.__.__.__.__.__.__.__.__.__.__.__
 72
    65
 73
     6
 40
0.875
 49
0.25
 49
-0.125
 49
0.25
 49
-0.125
 49
0.0
 49
-0.125
  0
LTYPE
  2
BORDERX2
 70
    64
  3
____  ____  .  ____  ____  .  ____  ____  .  __
 72
    65
 73
     6
 40
3.5
 49
1.0
 49
-0.5
 49
1.0
 49
-0.5
 49
0.0
 49
-0.5
  0
LTYPE
  2
CENTER
 70
    64
  3
____ _ ____ _ ____ _ ____ _ ____ _ ____ _ ____
 72
    65
 73
     4
 40
2.0
 49
1.25
 49
-0.25
 49
0.25
 49
-0.25
  0
LTYPE
  2
CENTER2
 70
    64
  3
___ _ ___ _ ___ _ ___ _ ___ _ ___ _ ___ _ ___ _
 72
    65
 73
     4
 40
1.125
 49
0.75
 49
-0.125
 49
0.125
 49
-0.125
  0
LTYPE
  2
CENTERX2
 70
    64
  3
________  __  ________  __  ________  __  _____
 72
    65
 73
     4
 40
4.0
 49
2.5
 49
-0.5
 49
0.5
 49
-0.5
  0
LTYPE
  2
DASHDOT
 70
    64
  3
__ . __ . __ . __ . __ . __ . __ . __ . __ . __
 72
    65
 73
     4
 40
1.0
 49
0.5
 49
-0.25
 49
0.0
 49
-0.25
  0
LTYPE
  2
DASHDOT2
 70
    64
  3
_._._._._._._._._._._._._._._._._._._._._._._._
 72
    65
 73
     4
 40
0.5
 49
0.25
 49
-0.125
 49
0.0
 49
-0.125
  0
LTYPE
  2
DASHDOTX2
 70
    64
  3
____  .  ____  .  ____  .  ____  .  ____  .  __
 72
    65
 73
     4
 40
2.0
 49
1.0
 49
-0.5
 49
0.0
 49
-0.5
  0
LTYPE
  2
DASHED
 70
    64
  3
__ __ __ __ __ __ __ __ __ __ __ __ __ __ __ __
 72
    65
 73
     2
 40
0.75
 49
0.5
 49
-0.25
  0
LTYPE
  2
DASHED2
 70
    64
  3
_ _ _ _ _ _ _ _ _ _ _ _ _ _ _ _ _ _ _ _ _ _ _ _
 72
    65
 73
     2
 40
0.375
 49
0.25
 49
-0.125
  0
LTYPE
  2
DASHEDX2
 70
    64
  3
____  ____  ____  ____  ____  ____  ____  ____
 72
    65
 73
     2
 40
1.5
 49
1.0
 49
-0.5
  0
LTYPE
  2
DIVIDE
 70
    64
  3
____ . . ____ . . ____ . . ____ . . ____ . . __
 72
    65
 73
     6
 40
1.25
 49
0.5
 49
-0.25
 49
0.0
 49
-0.25
 49
0.0
 49
-0.25
  0
LTYPE
  2
DIVIDE2
 70
    64
  3
__..__..__..__..__..__..__..__..__..__..__..__.
 72
    65
 73
     6
 40
0.625
 49
0.25
 49
-0.125
 49
0.0
 49
-0.125
 49
0.0
 49
-0.125
  0
LTYPE
  2
DIVIDEX2
 70
    64
  3
________  .  .  ________  .  .  ________  .  .
 72
    65
 73
     6
 40
2.5
 49
1.0
 49
-0.5
 49
0.0
 49
-0.5
 49
0.0
 49
-0.5
  0
LTYPE
  2
DOT
 70
    64
  3
. . . . . . . . . . . . . . . . . . . . . . . .
 72
    65
 73
     2
 40
0.25
 49
0.0
 49
-0.25
  0
LTYPE
  2
DOT2
 70
    64
  3
...............................................
 72
    65
 73
     2
 40
0.125
 49
0.0
 49
-0.125
  0
LTYPE
  2
DOTX2
 70
    64
  3
.  .  .  .  .  .  .  .  .  .  .  .  .  .  .  .
 72
    65
 73
     2
 40
0.5
 49
0.0
 49
-0.5
  0
LTYPE
  2
HIDDEN
 70
    64
  3
__ __ __ __ __ __ __ __ __ __ __ __ __ __ __ __
 72
    65
 73
     2
 40
0.375
 49
0.25
 49
-0.125
  0
LTYPE
  2
HIDDEN2
 70
    64
  3
_ _ _ _ _ _ _ _ _ _ _ _ _ _ _ _ _ _ _ _ _ _ _ _
 72
    65
 73
     2
 40
0.1875
 49
0.125
 49
-0.0625
  0
LTYPE
  2
HIDDENX2
 70
    64
  3
____ ____ ____ ____ ____ ____ ____ ____ ____ __
 72
    65
 73
     2
 40
0.75
 49
0.5
 49
-0.25
  0
LTYPE
  2
PHANTOM
 70
    64
  3
______  __  __  ______  __  __  ______  __  __
 72
    65
 73
     6
 40
2.5
 49
1.25
 49
-0.25
 49
0.25
 49
-0.25
 49
0.25
 49
-0.25
  0
LTYPE
  2
PHANTOM2
 70
    64
  3
___ _ _ ___ _ _ ___ _ _ ___ _ _ ___ _ _ ___ _ _
 72
    65
 73
     6
 40
1.25
 49
0.625
 49
-0.125
 49
0.125
 49
-0.125
 49
0.125
 49
-0.125
  0
LTYPE
  2
PHANTOMX2
 70
    64
  3
____________    ____    ____    ____________
 72
    65
 73
     6
 40
5.0
 49
2.5
 49
-0.5
 49
0.5
 49
-0.5
 49
0.5
 49
-0.5
  0
LTYPE
  2
ACAD_ISO02W100
 70
    64
  3
__ __ __ __ __ __ __ __ __ __ __ __ __ __ __ __
 72
    65
 73
     2
 40
15.0
 49
12.0
 49
-3.0
  0
LTYPE
  2
ACAD_ISO03W100
 70
    64
  3
__    __    __    __    __    __    __    __
 72
    65
 73
     2
 40
30.0
 49
12.0
 49
-18.0
  0
LTYPE
  2
ACAD_ISO04W100
 70
    64
  3
____ . ____ . ____ . ____ . ____ . ____ . ____
 72
    65
 73
     4
 40
30.5
 49
24.0
 49
-3.0
 49
0.5
 49
-3.0
  0
LTYPE
  2
ACAD_ISO05W100
 70
    64
  3
____ .. ____ .. ____ .. ____ .. ____ .. ____ ..
 72
    65
 73
     6
 40
34.0
 49
24.0
 49
-3.0
 49
0.5
 49
-3.0
 49
0.5
 49
-3.0
  0
LTYPE
  2
ACAD_ISO06W100
 70
    64
  3
____ ... ____ ... ____ ... ____ ... ____ ... __
 72
    65
 73
     8
 40
37.5
 49
24.0
 49
-3.0
 49
0.5
 49
-3.0
 49
0.5
 49
-3.0
 49
0.5
 49
-3.0
  0
LTYPE
  2
ACAD_ISO07W100
 70
    64
  3
. . . . . . . . . . . . . . . . . . . . . . . .
 72
    65
 73
     2
 40
3.5
 49
0.5
 49
-3.0
  0
LTYPE
  2
ACAD_ISO08W100
 70
    64
  3
____ __ ____ __ ____ __ ____ ____ __ __ ____ __
 72
    65
 73
     4
 40
36.0
 49
24.0
 49
-3.0
 49
6.0
 49
-3.0
  0
LTYPE
  2
ACAD_ISO09W100
 70
    64
  3
____ __ __ ____ __ __ ____ __ __ ____ __ __ ___
 72
    65
 73
     6
 40
45.0
 49
24.0
 49
-3.0
 49
6.0
 49
-3.0
 49
6.0
 49
-3.0
  0
LTYPE
  2
ACAD_ISO10W100
 70
    64
  3
__ . __ . __ . __ . __ . __ . __ . __ . __ . __
 72
    65
 73
     4
 40
18.5
 49
12.0
 49
-3.0
 49
0.5
 49
-3.0
  0
LTYPE
  2
ACAD_ISO11W100
 70
    64
  3
__ __ . __ __ . __ __ . __ __ . __ __ . __ __ .
 72
    65
 73
     6
 40
33.5
 49
12.0
 49
-3.0
 49
12.0
 49
-3.0
 49
0.5
 49
-3.0
  0
LTYPE
  2
ACAD_ISO12W100
 70
    64
  3
__ . . __ . . __ . . __ . . __ . . __ . . __ .
 72
    65
 73
     6
 40
22.0
 49
12.0
 49
-3.0
 49
0.5
 49
-3.0
 49
0.5
 49
-3.0
  0
LTYPE
  2
ACAD_ISO13W100
 70
    64
  3
__ __ . . __ __ . . __ __ . . __ __ . . __ __ .
 72
    65
 73
     8
 40
37.0
 49
12.0
 49
-3.0
 49
12.0
 49
-3.0
 49
0.5
 49
-3.0
 49
0.5
 49
-3.0
  0
LTYPE
  2
ACAD_ISO14W100
 70
    64
  3
__ . . . __ . . . __ . . . __ . . . __ . . . __
 72
    65
 73
     8
 40
25.5
 49
12.0
 49
-3.0
 49
0.5
 49
-3.0
 49
0.5
 49
-3.0
 49
0.5
 49
-3.0
  0
LTYPE
  2
ACAD_ISO15W100
 70
    64
  3
__ __ . . . __ __ . . . __ __ . . . __ __ . . .
 72
    65
 73
    10
 40
40.5
 49
12.0
 49
-3.0
 49
12.0
 49
-3.0
 49
0.5
 49
-3.0
 49
0.5
 49
-3.0
 49
0.5
 49
-3.0
  0
ENDTAB
  0
TABLE
  2
STYLE
 70
     4
  0
STYLE
  2
STANDARD
 70
    64
 40
0.0
 41
1.0
 50
0.0
 71
     0
 42
0.2
  3
txt
  4

  0
STYLE
  2
TOLERANCE
 70
    64
 40
0.0
 41
1.0
 50
0.0
 71
     0
 42
0.2
  3
../igesfont/iges1003.shx
  4

  0
STYLE
  2
ROMANS
 70
    64
 40
0.0
 41
1.0
 50
0.0
 71
     0
 42
0.2
  3
romans.shx
  4

  0
STYLE
  2
ROMANC
 70
    64
 40
0.0
 41
1.0
 50
0.0
 71
     0
 42
0.2
  3
romanc.shx
  4

  0
ENDTAB
  0
TABLE
  2
DIMSTYLE
 70
     2
  0
DIMSTYLE
  2
UNNAMED
 70
     0
  3

  4

  5

  6

  7

 40
1.0
 41
0.18
 42
0.0625
 43
0.38
 44
0.18
 45
0.0
 46
0.0
 47
0.0
 48
0.0
140
0.18
141
0.09
142
0.0
143
25.4
144
1.0
145
0.0
146
1.0
147
0.09
 71
     0
 72
     0
 73
     1
 74
     1
 75
     0
 76
     0
 77
     0
 78
     0
170
     0
171
     2
172
     0
173
     0
174
     0
175
     0
176
     0
177
     0
178
     0
  0
DIMSTYLE
  2
STANDARD
 70
     0
  3

  4

  5

  6

  7

 40
1.0
 41
0.18
 42
0.0625
 43
0.38
 44
0.18
 45
0.0
 46
0.0
 47
0.0
 48
0.0
140
0.18
141
0.09
142
0.0
143
25.4
144
1.0
145
0.0
146
1.0
147
0.09
 71
     0
 72
     0
 73
     1
 74
     1
 75
     0
 76
     0
 77
     0
 78
     0
170
     0
171
     2
172
     0
173
     0
174
     0
175
     0
176
     0
177
     0
178
     0
  0
ENDTAB
  0
TABLE
  2
LAYER
 70
     2
  0
LAYER
  2
0
 70
     0
 62
     7
  6
CONTINUOUS
  0
LAYER
  2
255
 70
     0
 62
     7
  6
CONTINUOUS
  0
ENDTAB
  0
ENDSEC
  0
SECTION
  2
BLOCKS
  0
BLOCK
  5
     B
  8
0
  6
CONTINUOUS
 62
     7
  2
MOSTRINA
 70
    64
 10
0.0
 20
0.0
 30
0.0
  3
MOSTRINA
  0
LINE
  5
     C
  8
0
  6
CONTINUOUS
 62
     1
 10
208.338256835938
 20
30.7306251525879
 30
0.0
 11
208.338256835938
 21
189.230621337891
 31
0.0
  0
LINE
  5
     D
  8
0
  6
CONTINUOUS
 62
     1
 10
57.5882568359375
 20
29.4806251525879
 30
0.0
 11
207.088256835938
 21
29.4806251525879
 31
0.0
  0
LINE
  5
     E
  8
0
  6
CONTINUOUS
 62
     1
 10
56.3382568359375
 20
30.7306251525879
 30
0.0
 11
56.3382568359375
 21
189.230621337891
 31
0.0
  0
LINE
  5
     F
  8
0
  6
CONTINUOUS
 62
     1
 10
57.5882568359375
 20
190.480621337891
 30
0.0
 11
207.088256835938
 21
190.480621337891
 31
0.0
  0
LINE
  5
    10
  8
0
  6
CONTINUOUS
 62
     1
 10
202.838256835938
 20
56.9806251525879
 30
0.0
 11
202.838256835938
 21
162.980625152588
 31
0.0
  0
LINE
  5
    11
  8
0
  6
CONTINUOUS
 62
     1
 10
61.8382568359375
 20
56.9806251525879
 30
0.0
 11
202.838256835938
 21
56.9806251525879
 31
0.0
  0
LINE
  5
    12
  8
0
  6
CONTINUOUS
 62
     1
 10
61.8382568359375
 20
56.9806251525879
 30
0.0
 11
61.8382568359375
 21
162.980625152588
 31
0.0
  0
LINE
  5
    13
  8
0
  6
CONTINUOUS
 62
     1
 10
61.8382568359375
 20
162.980621337891
 30
0.0
 11
202.838256835938
 21
162.980621337891
 31
0.0
  0
LINE
  5
    14
  8
0
  6
CONTINUOUS
 62
     1
 10
203.838256835938
 20
48.4806251525879
 30
0.0
 11
203.838256835938
 21
49.4806251525879
 31
0.0
  0
LINE
  5
    15
  8
0
  6
CONTINUOUS
 62
     1
 10
61.8382568359375
 20
50.4806251525879
 30
0.0
 11
202.838256835938
 21
50.4806251525879
 31
0.0
  0
LINE
  5
    16
  8
0
  6
CONTINUOUS
 62
     1
 10
60.8382568359375
 20
48.4806251525879
 30
0.0
 11
60.8382568359375
 21
49.4806251525879
 31
0.0
  0
LINE
  5
    17
  8
0
  6
CONTINUOUS
 62
     1
 10
61.8382568359375
 20
49.4806251525879
 30
0.0
 11
202.838256835938
 21
49.4806251525879
 31
0.0
  0
LINE
  5
    18
  8
0
  6
CONTINUOUS
 62
     1
 10
60.8382568359375
 20
29.4806251525879
 30
0.0
 11
60.8382568359375
 21
48.4806251525879
 31
0.0
  0
LINE
  5
    19
  8
0
  6
CONTINUOUS
 62
     1
 10
60.8382568359375
 20
49.4806213378906
 30
0.0
 11
60.8382568359375
 21
190.480621337891
 31
0.0
  0
LINE
  5
    1A
  8
0
  6
CONTINUOUS
 62
     1
 10
61.8382568359375
 20
29.4806251525879
 30
0.0
 11
61.8382568359375
 21
49.4806251525879
 31
0.0
  0
LINE
  5
    1B
  8
0
  6
CONTINUOUS
 62
     1
 10
61.8382568359375
 20
162.980621337891
 30
0.0
 11
61.8382568359375
 21
169.480621337891
 31
0.0
  0
LINE
  5
    1C
  8
0
  6
CONTINUOUS
 62
     1
 10
61.8382568359375
 20
50.4806251525879
 30
0.0
 11
61.8382568359375
 21
56.9806251525879
 31
0.0
  0
LINE
  5
    1D
  8
0
  6
CONTINUOUS
 62
     1
 10
203.838256835938
 20
29.4806251525879
 30
0.0
 11
203.838256835938
 21
48.4806251525879
 31
0.0
  0
LINE
  5
    1E
  8
0
  6
CONTINUOUS
 62
     1
 10
203.838256835938
 20
49.4806251525879
 30
0.0
 11
203.838256835938
 21
190.480621337891
 31
0.0
  0
LINE
  5
    1F
  8
0
  6
CONTINUOUS
 62
     1
 10
202.838256835938
 20
50.4806251525879
 30
0.0
 11
202.838256835938
 21
56.9806251525879
 31
0.0
  0
LINE
  5
    20
  8
0
  6
CONTINUOUS
 62
     1
 10
202.838256835938
 20
162.980621337891
 30
0.0
 11
202.838256835938
 21
169.480621337891
 31
0.0
  0
LINE
  5
    21
  8
0
  6
CONTINUOUS
 62
     1
 10
202.838256835938
 20
29.4806251525879
 30
0.0
 11
202.838256835938
 21
49.4806251525879
 31
0.0
  0
LINE
  5
    22
  8
0
  6
CONTINUOUS
 62
     1
 10
60.8382568359375
 20
170.480621337891
 30
0.0
 11
203.838256835938
 21
170.480621337891
 31
0.0
  0
LINE
  5
    23
  8
0
  6
CONTINUOUS
 62
     1
 10
61.8382568359375
 20
169.480621337891
 30
0.0
 11
202.838256835938
 21
169.480621337891
 31
0.0
  0
ARC
  5
    24
  8
0
  6
CONTINUOUS
 62
     1
 10
57.5882568359375
 20
30.7306251525879
 30
0.0
 40
1.25
 50
180.0
 51
270.0
  0
ARC
  5
    25
  8
0
  6
CONTINUOUS
 62
     1
 10
207.088256835938
 20
30.7306251525879
 30
0.0
 40
1.25
 50
270.0
 51
360.0
  0
ARC
  5
    26
  8
0
  6
CONTINUOUS
 62
     1
 10
207.088256835938
 20
189.230621337891
 30
0.0
 40
1.25
 50
0.0
 51
90.0
  0
ARC
  5
    27
  8
0
  6
CONTINUOUS
 62
     1
 10
57.5882568359375
 20
189.230621337891
 30
0.0
 40
1.25
 50
90.0
 51
180.0
  0
LINE
  5
    28
  8
0
  6
DOT
 62
     1
 10
60.3382577409677
 20
179.7306252571
 30
0.0
 11
60.8382568359375
 21
179.7306252571
 31
0.0
  0
LINE
  5
    29
  8
0
  6
DOT
 62
     1
 10
60.3382577409676
 20
181.2306252571
 30
0.0
 11
60.8382568359375
 21
181.2306252571
 31
0.0
  0
LINE
  5
    2A
  8
0
  6
CONTINUOUS
 62
     1
 10
203.338257745313
 20
179.730625257273
 30
0.0
 11
203.838256835938
 21
179.730625257273
 31
0.0
  0
LINE
  5
    2B
  8
0
  6
CONTINUOUS
 62
     1
 10
203.338257745314
 20
181.230625257273
 30
0.0
 11
203.838256835938
 21
181.230625257273
 31
0.0
  0
ARC
  5
    2C
  8
0
  6
DOT
 62
     1
 10
60.3382577401871
 20
180.480625257147
 30
0.0
 40
0.749999999345164
 50
90.0
 51
270.0
  0
ARC
  5
    2D
  8
0
  6
CONTINUOUS
 62
     1
 10
61.338257740822
 20
180.480625256974
 30
0.0
 40
0.750000000009701
 50
270.0
 51
450.0
  0
LINE
  5
    2E
  8
0
  6
CONTINUOUS
 62
     1
 10
60.8382568359375
 20
181.2306252571
 30
0.0
 11
61.3382577409688
 21
181.2306252571
 31
0.0
  0
LINE
  5
    2F
  8
0
  6
CONTINUOUS
 62
     1
 10
60.8382568359375
 20
179.7306252571
 30
0.0
 11
61.3382577409689
 21
179.7306252571
 31
0.0
  0
ARC
  5
    30
  8
0
  6
CONTINUOUS
 62
     1
 10
203.338257745503
 20
180.480625256952
 30
0.0
 40
0.750000000048506
 50
90.0000000038822
 51
269.999999996024
  0
LINE
  5
    31
  8
0
  6
DOT
 62
     1
 10
203.838256835938
 20
181.230625257273
 30
0.0
 11
204.338257745315
 21
181.230625257273
 31
0.0
  0
LINE
  5
    32
  8
0
  6
DOT
 62
     1
 10
203.838256835938
 20
179.730625257273
 30
0.0
 11
204.338257745315
 21
179.730625257273
 31
0.0
  0
ENDBLK
  5
    33
  8
0
  6
CONTINUOUS
 62
     7
  0
BLOCK
  5
    34
  8
0
  6
CONTINUOUS
 62
     2
  2
*HATCH21
 70
    65
 10
0.0
 20
0.0
 30
0.0
  3
*HATCH21
  0
LINE
  5
    35
  8
0
  6
DOT2
 62
    10
 10
-28.75
 20
111.0
 30
0.0
 11
-25.5
 21
111.0
 31
0.0
  0
LINE
  5
    36
  8
0
  6
DOT2
 62
    10
 10
25.5
 20
111.0
 30
0.0
 11
28.75
 21
111.0
 31
0.0
  0
LINE
  5
    37
  8
0
  6
DOT2
 62
    10
 10
-28.75
 20
113.0
 30
0.0
 11
-25.5
 21
113.0
 31
0.0
  0
LINE
  5
    38
  8
0
  6
DOT2
 62
    10
 10
25.5
 20
113.0
 30
0.0
 11
28.75
 21
113.0
 31
0.0
  0
LINE
  5
    39
  8
0
  6
DOT2
 62
    10
 10
-28.75
 20
115.0
 30
0.0
 11
-25.5
 21
115.0
 31
0.0
  0
LINE
  5
    3A
  8
0
  6
DOT2
 62
    10
 10
25.5
 20
115.0
 30
0.0
 11
28.75
 21
115.0
 31
0.0
  0
LINE
  5
    3B
  8
0
  6
DOT2
 62
    10
 10
-28.75
 20
117.0
 30
0.0
 11
-25.5
 21
117.0
 31
0.0
  0
LINE
  5
    3C
  8
0
  6
DOT2
 62
    10
 10
25.5
 20
117.0
 30
0.0
 11
28.75
 21
117.0
 31
0.0
  0
LINE
  5
    3D
  8
0
  6
DOT2
 62
    10
 10
-28.75
 20
119.0
 30
0.0
 11
-25.5
 21
119.0
 31
0.0
  0
LINE
  5
    3E
  8
0
  6
DOT2
 62
    10
 10
25.5
 20
119.0
 30
0.0
 11
28.75
 21
119.0
 31
0.0
  0
LINE
  5
    3F
  8
0
  6
DOT2
 62
    10
 10
-28.75
 20
121.0
 30
0.0
 11
-25.5
 21
121.0
 31
0.0
  0
LINE
  5
    40
  8
0
  6
DOT2
 62
    10
 10
25.5
 20
121.0
 30
0.0
 11
28.75
 21
121.0
 31
0.0
  0
LINE
  5
    41
  8
0
  6
DOT2
 62
    10
 10
-28.75
 20
123.0
 30
0.0
 11
-25.5
 21
123.0
 31
0.0
  0
LINE
  5
    42
  8
0
  6
DOT2
 62
    10
 10
25.5
 20
123.0
 30
0.0
 11
28.75
 21
123.0
 31
0.0
  0
LINE
  5
    43
  8
0
  6
DOT2
 62
    10
 10
-28.75
 20
125.0
 30
0.0
 11
28.75
 21
125.0
 31
0.0
  0
LINE
  5
    44
  8
0
  6
DOT2
 62
    10
 10
-28.75
 20
127.0
 30
0.0
 11
28.75
 21
127.0
 31
0.0
  0
ENDBLK
  5
    45
  8
0
  6
CONTINUOUS
 62
     2
  0
BLOCK
  5
    46
  8
0
  6
CONTINUOUS
 62
     2
  2
*HATCH22
 70
    65
 10
0.0
 20
0.0
 30
0.0
  3
*HATCH22
  0
LINE
  5
    47
  8
0
  6
DOT2
 62
    10
 10
-28.75
 20
17.0
 30
0.0
 11
28.75
 21
17.0
 31
0.0
  0
LINE
  5
    48
  8
0
  6
DOT2
 62
    10
 10
-28.75
 20
19.0
 30
0.0
 11
-25.5
 21
19.0
 31
0.0
  0
LINE
  5
    49
  8
0
  6
DOT2
 62
    10
 10
25.5
 20
19.0
 30
0.0
 11
28.75
 21
19.0
 31
0.0
  0
LINE
  5
    4A
  8
0
  6
DOT2
 62
    10
 10
-28.75
 20
21.0
 30
0.0
 11
-25.5
 21
21.0
 31
0.0
  0
LINE
  5
    4B
  8
0
  6
DOT2
 62
    10
 10
25.5
 20
21.0
 30
0.0
 11
28.75
 21
21.0
 31
0.0
  0
LINE
  5
    4C
  8
0
  6
DOT2
 62
    10
 10
-28.75
 20
23.0
 30
0.0
 11
-25.5
 21
23.0
 31
0.0
  0
LINE
  5
    4D
  8
0
  6
DOT2
 62
    10
 10
25.5
 20
23.0
 30
0.0
 11
28.75
 21
23.0
 31
0.0
  0
LINE
  5
    4E
  8
0
  6
DOT2
 62
    10
 10
-28.75
 20
25.0
 30
0.0
 11
-25.5
 21
25.0
 31
0.0
  0
LINE
  5
    4F
  8
0
  6
DOT2
 62
    10
 10
25.5
 20
25.0
 30
0.0
 11
28.75
 21
25.0
 31
0.0
  0
LINE
  5
    50
  8
0
  6
DOT2
 62
    10
 10
-28.75
 20
27.0
 30
0.0
 11
-25.5
 21
27.0
 31
0.0
  0
LINE
  5
    51
  8
0
  6
DOT2
 62
    10
 10
25.5
 20
27.0
 30
0.0
 11
28.75
 21
27.0
 31
0.0
  0
LINE
  5
    52
  8
0
  6
DOT2
 62
    10
 10
-28.75
 20
29.0
 30
0.0
 11
-25.5
 21
29.0
 31
0.0
  0
LINE
  5
    53
  8
0
  6
DOT2
 62
    10
 10
25.5
 20
29.0
 30
0.0
 11
28.75
 21
29.0
 31
0.0
  0
LINE
  5
    54
  8
0
  6
DOT2
 62
    10
 10
-28.75
 20
31.0
 30
0.0
 11
-25.5
 21
31.0
 31
0.0
  0
LINE
  5
    55
  8
0
  6
DOT2
 62
    10
 10
25.5
 20
31.0
 30
0.0
 11
28.75
 21
31.0
 31
0.0
  0
LINE
  5
    56
  8
0
  6
DOT2
 62
    10
 10
-28.75
 20
33.0
 30
0.0
 11
-25.5
 21
33.0
 31
0.0
  0
LINE
  5
    57
  8
0
  6
DOT2
 62
    10
 10
25.5
 20
33.0
 30
0.0
 11
28.75
 21
33.0
 31
0.0
  0
ENDBLK
  5
    58
  8
0
  6
CONTINUOUS
 62
     2
  0
BLOCK
  5
    59
  8
0
  6
CONTINUOUS
 62
     7
  2
MOTORE_FRONTE
 70
    64
 10
0.0
 20
0.0
 30
0.0
  3
MOTORE_FRONTE
  0
LINE
  5
    5A
  8
0
  6
CONTINUOUS
 62
     2
 10
-68.0
 20
0.0
 30
0.0
 11
68.0
 21
0.0
 31
0.0
  0
LINE
  5
    5B
  8
0
  6
CONTINUOUS
 62
     2
 10
-68.0
 20
270.0
 30
0.0
 11
68.0
 21
270.0
 31
0.0
  0
LINE
  5
    5C
  8
0
  6
CONTINUOUS
 62
     3
 10
-70.0
 20
268.0
 30
0.0
 11
70.0
 21
268.0
 31
0.0
  0
LINE
  5
    5D
  8
0
  6
CONTINUOUS
 62
     3
 10
-70.0
 20
258.0
 30
0.0
 11
70.0
 21
258.0
 31
0.0
  0
LINE
  5
    5E
  8
0
  6
CONTINUOUS
 62
     3
 10
-70.0
 20
236.75
 30
0.0
 11
70.0
 21
236.75
 31
0.0
  0
LINE
  5
    5F
  8
0
  6
CONTINUOUS
 62
     3
 10
-70.0
 20
235.75
 30
0.0
 11
-25.5
 21
235.75
 31
0.0
  0
LINE
  5
    60
  8
0
  6
CONTINUOUS
 62
     3
 10
-70.0
 20
212.25
 30
0.0
 11
-25.5
 21
212.25
 31
0.0
  0
LINE
  5
    61
  8
0
  6
CONTINUOUS
 62
     3
 10
-70.0
 20
211.25
 30
0.0
 11
70.0
 21
211.25
 31
0.0
  0
LINE
  5
    62
  8
0
  6
CONTINUOUS
 62
     3
 10
-24.5
 20
212.25
 30
0.0
 11
-24.5
 21
235.75
 31
0.0
  0
LINE
  5
    63
  8
0
  6
CONTINUOUS
 62
     3
 10
24.5
 20
212.25
 30
0.0
 11
24.5
 21
235.75
 31
0.0
  0
LINE
  5
    64
  8
0
  6
CONTINUOUS
 62
     3
 10
-25.5
 20
212.25
 30
0.0
 11
-25.5
 21
235.75
 31
0.0
  0
LINE
  5
    65
  8
0
  6
CONTINUOUS
 62
     3
 10
25.5
 20
212.25
 30
0.0
 11
25.5
 21
235.75
 31
0.0
  0
LINE
  5
    66
  8
0
  6
CONTINUOUS
 62
     3
 10
-24.5
 20
235.75
 30
0.0
 11
24.5
 21
235.75
 31
0.0
  0
LINE
  5
    67
  8
0
  6
CONTINUOUS
 62
     3
 10
25.5
 20
235.75
 30
0.0
 11
70.0
 21
235.75
 31
0.0
  0
LINE
  5
    68
  8
0
  6
CONTINUOUS
 62
     3
 10
25.5
 20
212.25
 30
0.0
 11
70.0
 21
212.25
 31
0.0
  0
LINE
  5
    69
  8
0
  6
CONTINUOUS
 62
     3
 10
-24.5
 20
212.25
 30
0.0
 11
24.5
 21
212.25
 31
0.0
  0
LINE
  5
    6A
  8
0
  6
CONTINUOUS
 62
     3
 10
-70.0
 20
189.25
 30
0.0
 11
70.0
 21
189.25
 31
0.0
  0
LINE
  5
    6B
  8
0
  6
CONTINUOUS
 62
     3
 10
23.25
 20
141.5
 30
0.0
 11
23.25
 21
163.5
 31
0.0
  0
LINE
  5
    6C
  8
0
  6
CONTINUOUS
 62
     3
 10
-68.25
 20
141.5
 30
0.0
 11
-68.25
 21
163.5
 31
0.0
  0
LINE
  5
    6D
  8
0
  6
CONTINUOUS
 62
     3
 10
-66.75
 20
165.0
 30
0.0
 11
21.75
 21
165.0
 31
0.0
  0
LINE
  5
    6E
  8
0
  6
CONTINUOUS
 62
     3
 10
-66.75
 20
140.0
 30
0.0
 11
21.75
 21
140.0
 31
0.0
  0
ARC
  5
    6F
  8
0
  6
CONTINUOUS
 62
     3
 10
-66.75
 20
163.5
 30
0.0
 40
1.5
 50
90.0
 51
180.0
  0
ARC
  5
    70
  8
0
  6
CONTINUOUS
 62
     3
 10
-66.75
 20
141.5
 30
0.0
 40
1.5
 50
180.0
 51
270.0
  0
ARC
  5
    71
  8
0
  6
CONTINUOUS
 62
     3
 10
21.75
 20
141.5
 30
0.0
 40
1.5
 50
270.0
 51
360.0
  0
ARC
  5
    72
  8
0
  6
CONTINUOUS
 62
     3
 10
21.75
 20
163.5
 30
0.0
 40
1.5
 50
0.0
 51
90.0
  0
CIRCLE
  5
    73
  8
0
  6
CONTINUOUS
 62
     3
 10
48.0
 20
46.5
 30
0.0
 40
8.25
  0
CIRCLE
  5
    74
  8
0
  6
CONTINUOUS
 62
     3
 10
48.0
 20
46.5
 30
0.0
 40
7.0
  0
LINE
  5
    75
  8
0
  6
CONTINUOUS
 62
     3
 10
-70.0
 20
128.0
 30
0.0
 11
70.0
 21
128.0
 31
0.0
  0
LINE
  5
    76
  8
0
  6
CONTINUOUS
 62
     3
 10
-70.0
 20
127.0
 30
0.0
 11
70.0
 21
127.0
 31
0.0
  0
LINE
  5
    77
  8
0
  6
CONTINUOUS
 62
     3
 10
-70.0
 20
108.0
 30
0.0
 11
-25.5
 21
108.0
 31
0.0
  0
LINE
  5
    78
  8
0
  6
CONTINUOUS
 62
     3
 10
-70.0
 20
109.0
 30
0.0
 11
-25.5
 21
109.0
 31
0.0
  0
LINE
  5
    79
  8
0
  6
CONTINUOUS
 62
     3
 10
-70.0
 20
34.0
 30
0.0
 11
-25.5
 21
34.0
 31
0.0
  0
LINE
  5
    7A
  8
0
  6
CONTINUOUS
 62
     3
 10
-70.0
 20
14.0
 30
0.0
 11
70.0
 21
14.0
 31
0.0
  0
LINE
  5
    7B
  8
0
  6
CONTINUOUS
 62
     3
 10
-70.0
 20
15.0
 30
0.0
 11
70.0
 21
15.0
 31
0.0
  0
LINE
  5
    7C
  8
0
  6
CONTINUOUS
 62
     3
 10
-70.0
 20
33.0
 30
0.0
 11
-25.5
 21
33.0
 31
0.0
  0
LINE
  5
    7D
  8
0
  6
CONTINUOUS
 62
     3
 10
-25.5
 20
18.25
 30
0.0
 11
-25.5
 21
123.75
 31
0.0
  0
LINE
  5
    7E
  8
0
  6
CONTINUOUS
 62
     3
 10
25.5
 20
18.25
 30
0.0
 11
25.5
 21
123.75
 31
0.0
  0
LINE
  5
    7F
  8
0
  6
CONTINUOUS
 62
     1
 10
-25.5
 20
123.75
 30
0.0
 11
25.5
 21
123.75
 31
0.0
  0
LINE
  5
    80
  8
0
  6
CONTINUOUS
 62
     1
 10
-25.5
 20
18.25
 30
0.0
 11
25.5
 21
18.25
 31
0.0
  0
LINE
  5
    81
  8
0
  6
CONTINUOUS
 62
     3
 10
25.5
 20
109.0
 30
0.0
 11
70.0
 21
109.0
 31
0.0
  0
LINE
  5
    82
  8
0
  6
CONTINUOUS
 62
     3
 10
25.5
 20
108.0
 30
0.0
 11
70.0
 21
108.0
 31
0.0
  0
LINE
  5
    83
  8
0
  6
CONTINUOUS
 62
     3
 10
25.5
 20
33.0
 30
0.0
 11
70.0
 21
33.0
 31
0.0
  0
LINE
  5
    84
  8
0
  6
CONTINUOUS
 62
     3
 10
25.5
 20
34.0
 30
0.0
 11
70.0
 21
34.0
 31
0.0
  0
LINE
  5
    85
  8
0
  6
CONTINUOUS
 62
     3
 10
-28.75
 20
15.0
 30
0.0
 11
-28.75
 21
33.0
 31
0.0
  0
LINE
  5
    86
  8
0
  6
CONTINUOUS
 62
     3
 10
28.75
 20
15.0
 30
0.0
 11
28.75
 21
33.0
 31
0.0
  0
LINE
  5
    87
  8
0
  6
CONTINUOUS
 62
     3
 10
28.75
 20
109.0
 30
0.0
 11
28.75
 21
127.0
 31
0.0
  0
LINE
  5
    88
  8
0
  6
CONTINUOUS
 62
     3
 10
-28.75
 20
109.0
 30
0.0
 11
-28.75
 21
127.0
 31
0.0
  0
CIRCLE
  5
    89
  8
0
  6
CONTINUOUS
 62
     2
 10
-63.0
 20
7.0
 30
0.0
 40
4.0
  0
CIRCLE
  5
    8A
  8
0
  6
CONTINUOUS
 62
     2
 10
-63.0
 20
135.0
 30
0.0
 40
4.0
  0
CIRCLE
  5
    8B
  8
0
  6
CONTINUOUS
 62
     2
 10
-63.0
 20
263.0
 30
0.0
 40
4.0
  0
LINE
  5
    8C
  8
0
  6
CONTINUOUS
 62
     2
 10
-63.75
 20
137.75
 30
0.0
 11
-62.25
 21
137.75
 31
0.0
  0
LINE
  5
    8D
  8
0
  6
CONTINUOUS
 62
     2
 10
-63.75
 20
135.75
 30
0.0
 11
-63.75
 21
137.75
 31
0.0
  0
LINE
  5
    8E
  8
0
  6
CONTINUOUS
 62
     2
 10
-62.25
 20
135.75
 30
0.0
 11
-62.25
 21
137.75
 31
0.0
  0
LINE
  5
    8F
  8
0
  6
CONTINUOUS
 62
     2
 10
-62.25
 20
135.75
 30
0.0
 11
-60.25
 21
135.75
 31
0.0
  0
LINE
  5
    90
  8
0
  6
CONTINUOUS
 62
     2
 10
-65.75
 20
135.75
 30
0.0
 11
-63.75
 21
135.75
 31
0.0
  0
LINE
  5
    91
  8
0
  6
CONTINUOUS
 62
     2
 10
-65.75
 20
134.25
 30
0.0
 11
-65.75
 21
135.75
 31
0.0
  0
LINE
  5
    92
  8
0
  6
CONTINUOUS
 62
     2
 10
-60.25
 20
134.25
 30
0.0
 11
-60.25
 21
135.75
 31
0.0
  0
LINE
  5
    93
  8
0
  6
CONTINUOUS
 62
     2
 10
-62.25
 20
134.25
 30
0.0
 11
-60.25
 21
134.25
 31
0.0
  0
LINE
  5
    94
  8
0
  6
CONTINUOUS
 62
     2
 10
-65.75
 20
134.25
 30
0.0
 11
-63.75
 21
134.25
 31
0.0
  0
LINE
  5
    95
  8
0
  6
CONTINUOUS
 62
     2
 10
-63.75
 20
132.25
 30
0.0
 11
-63.75
 21
134.25
 31
0.0
  0
LINE
  5
    96
  8
0
  6
CONTINUOUS
 62
     2
 10
-62.25
 20
132.25
 30
0.0
 11
-62.25
 21
134.25
 31
0.0
  0
LINE
  5
    97
  8
0
  6
CONTINUOUS
 62
     2
 10
-63.75
 20
132.25
 30
0.0
 11
-62.25
 21
132.25
 31
0.0
  0
LINE
  5
    98
  8
0
  6
CONTINUOUS
 62
     2
 10
-63.75
 20
9.75
 30
0.0
 11
-62.25
 21
9.75
 31
0.0
  0
LINE
  5
    99
  8
0
  6
CONTINUOUS
 62
     2
 10
-63.75
 20
7.75
 30
0.0
 11
-63.75
 21
9.75
 31
0.0
  0
LINE
  5
    9A
  8
0
  6
CONTINUOUS
 62
     2
 10
-62.25
 20
7.75
 30
0.0
 11
-62.25
 21
9.75
 31
0.0
  0
LINE
  5
    9B
  8
0
  6
CONTINUOUS
 62
     2
 10
-62.25
 20
7.75
 30
0.0
 11
-60.25
 21
7.75
 31
0.0
  0
LINE
  5
    9C
  8
0
  6
CONTINUOUS
 62
     2
 10
-65.75
 20
7.75
 30
0.0
 11
-63.75
 21
7.75
 31
0.0
  0
LINE
  5
    9D
  8
0
  6
CONTINUOUS
 62
     2
 10
-65.75
 20
6.25
 30
0.0
 11
-65.75
 21
7.75
 31
0.0
  0
LINE
  5
    9E
  8
0
  6
CONTINUOUS
 62
     2
 10
-65.75
 20
6.25
 30
0.0
 11
-63.75
 21
6.25
 31
0.0
  0
LINE
  5
    9F
  8
0
  6
CONTINUOUS
 62
     2
 10
-62.25
 20
4.24999999999994
 30
0.0
 11
-62.25
 21
6.25
 31
0.0
  0
LINE
  5
    A0
  8
0
  6
CONTINUOUS
 62
     2
 10
-62.25
 20
6.25
 30
0.0
 11
-60.25
 21
6.25
 31
0.0
  0
LINE
  5
    A1
  8
0
  6
CONTINUOUS
 62
     2
 10
-60.25
 20
6.25
 30
0.0
 11
-60.25
 21
7.75
 31
0.0
  0
LINE
  5
    A2
  8
0
  6
CONTINUOUS
 62
     2
 10
-63.75
 20
4.24999999999994
 30
0.0
 11
-63.75
 21
6.25
 31
0.0
  0
LINE
  5
    A3
  8
0
  6
CONTINUOUS
 62
     2
 10
-63.75
 20
4.24999999999994
 30
0.0
 11
-62.25
 21
4.24999999999994
 31
0.0
  0
CIRCLE
  5
    A4
  8
0
  6
CONTINUOUS
 62
     2
 10
63.0
 20
7.0
 30
0.0
 40
4.0
  0
LINE
  5
    A5
  8
0
  6
CONTINUOUS
 62
     2
 10
62.25
 20
9.75
 30
0.0
 11
63.75
 21
9.75
 31
0.0
  0
LINE
  5
    A6
  8
0
  6
CONTINUOUS
 62
     2
 10
63.75
 20
7.75
 30
0.0
 11
63.75
 21
9.75
 31
0.0
  0
LINE
  5
    A7
  8
0
  6
CONTINUOUS
 62
     2
 10
62.25
 20
7.75
 30
0.0
 11
62.25
 21
9.75
 31
0.0
  0
LINE
  5
    A8
  8
0
  6
CONTINUOUS
 62
     2
 10
60.25
 20
7.75
 30
0.0
 11
62.25
 21
7.75
 31
0.0
  0
LINE
  5
    A9
  8
0
  6
CONTINUOUS
 62
     2
 10
63.75
 20
7.75
 30
0.0
 11
65.75
 21
7.75
 31
0.0
  0
LINE
  5
    AA
  8
0
  6
CONTINUOUS
 62
     2
 10
65.75
 20
6.25
 30
0.0
 11
65.75
 21
7.75
 31
0.0
  0
LINE
  5
    AB
  8
0
  6
CONTINUOUS
 62
     2
 10
60.25
 20
6.25
 30
0.0
 11
60.25
 21
7.75
 31
0.0
  0
LINE
  5
    AC
  8
0
  6
CONTINUOUS
 62
     2
 10
60.25
 20
6.25
 30
0.0
 11
62.25
 21
6.25
 31
0.0
  0
LINE
  5
    AD
  8
0
  6
CONTINUOUS
 62
     2
 10
63.75
 20
6.25
 30
0.0
 11
65.75
 21
6.25
 31
0.0
  0
LINE
  5
    AE
  8
0
  6
CONTINUOUS
 62
     2
 10
63.75
 20
4.24999999999994
 30
0.0
 11
63.75
 21
6.25
 31
0.0
  0
LINE
  5
    AF
  8
0
  6
CONTINUOUS
 62
     2
 10
62.25
 20
4.24999999999994
 30
0.0
 11
62.25
 21
6.25
 31
0.0
  0
LINE
  5
    B0
  8
0
  6
CONTINUOUS
 62
     2
 10
62.25
 20
4.24999999999994
 30
0.0
 11
63.75
 21
4.24999999999994
 31
0.0
  0
CIRCLE
  5
    B1
  8
0
  6
CONTINUOUS
 62
     2
 10
63.0
 20
135.0
 30
0.0
 40
4.0
  0
LINE
  5
    B2
  8
0
  6
CONTINUOUS
 62
     2
 10
62.25
 20
137.75
 30
0.0
 11
63.75
 21
137.75
 31
0.0
  0
LINE
  5
    B3
  8
0
  6
CONTINUOUS
 62
     2
 10
63.75
 20
135.75
 30
0.0
 11
63.75
 21
137.75
 31
0.0
  0
LINE
  5
    B4
  8
0
  6
CONTINUOUS
 62
     2
 10
62.25
 20
135.75
 30
0.0
 11
62.25
 21
137.75
 31
0.0
  0
LINE
  5
    B5
  8
0
  6
CONTINUOUS
 62
     2
 10
60.25
 20
135.75
 30
0.0
 11
62.25
 21
135.75
 31
0.0
  0
LINE
  5
    B6
  8
0
  6
CONTINUOUS
 62
     2
 10
63.75
 20
135.75
 30
0.0
 11
65.75
 21
135.75
 31
0.0
  0
LINE
  5
    B7
  8
0
  6
CONTINUOUS
 62
     2
 10
65.75
 20
134.25
 30
0.0
 11
65.75
 21
135.75
 31
0.0
  0
LINE
  5
    B8
  8
0
  6
CONTINUOUS
 62
     2
 10
63.75
 20
134.25
 30
0.0
 11
65.75
 21
134.25
 31
0.0
  0
LINE
  5
    B9
  8
0
  6
CONTINUOUS
 62
     2
 10
63.75
 20
132.25
 30
0.0
 11
63.75
 21
134.25
 31
0.0
  0
LINE
  5
    BA
  8
0
  6
CONTINUOUS
 62
     2
 10
62.25
 20
132.25
 30
0.0
 11
63.75
 21
132.25
 31
0.0
  0
LINE
  5
    BB
  8
0
  6
CONTINUOUS
 62
     2
 10
62.25
 20
132.25
 30
0.0
 11
62.25
 21
134.25
 31
0.0
  0
LINE
  5
    BC
  8
0
  6
CONTINUOUS
 62
     2
 10
60.25
 20
134.25
 30
0.0
 11
62.25
 21
134.25
 31
0.0
  0
LINE
  5
    BD
  8
0
  6
CONTINUOUS
 62
     2
 10
60.25
 20
134.25
 30
0.0
 11
60.25
 21
135.75
 31
0.0
  0
CIRCLE
  5
    BE
  8
0
  6
CONTINUOUS
 62
     2
 10
63.0
 20
263.0
 30
0.0
 40
4.0
  0
INSERT
  5
    BF
  8
0
  6
CONTINUOUS
 62
     2
  2
*HATCH21
 10
0.0
 20
0.0
 30
0.0
  0
INSERT
  5
    C0
  8
0
  6
CONTINUOUS
 62
     2
  2
*HATCH22
 10
0.0
 20
0.0
 30
0.0
  0
CIRCLE
  5
    C1
  8
0
  6
CONTINUOUS
 62
     2
 10
0.0
 20
224.0
 30
0.0
 40
9.5
  0
CIRCLE
  5
    C2
  8
0
  6
CONTINUOUS
 62
     2
 10
0.0
 20
224.0
 30
0.0
 40
7.75
  0
CIRCLE
  5
    C3
  8
0
  6
CONTINUOUS
 62
     2
 10
0.0
 20
224.0
 30
0.0
 40
6.25
  0
ARC
  5
    C4
  8
0
  6
DOT
 62
     2
 10
39.25
 20
224.0
 30
0.0
 40
5.5
 50
90.0
 51
270.0
  0
ARC
  5
    C5
  8
0
  6
CONTINUOUS
 62
     2
 10
50.75
 20
224.0
 30
0.0
 40
5.5
 50
270.0
 51
450.0
  0
LINE
  5
    C6
  8
0
  6
CONTINUOUS
 62
     2
 10
45.25
 20
216.5
 30
0.0
 11
45.25
 21
231.5
 31
0.0
  0
LINE
  5
    C7
  8
0
  6
DOT
 62
     2
 10
39.25
 20
229.5
 30
0.0
 11
45.25
 21
229.5
 31
0.0
  0
LINE
  5
    C8
  8
0
  6
DOT
 62
     2
 10
39.25
 20
218.5
 30
0.0
 11
45.25
 21
218.5
 31
0.0
  0
ARC
  5
    C9
  8
0
  6
CONTINUOUS
 62
     2
 10
39.25
 20
224.0
 30
0.0
 40
7.5
 50
90.0
 51
270.0
  0
LINE
  5
    CA
  8
0
  6
CONTINUOUS
 62
     2
 10
39.25
 20
231.5
 30
0.0
 11
45.25
 21
231.5
 31
0.0
  0
LINE
  5
    CB
  8
0
  6
CONTINUOUS
 62
     2
 10
39.25
 20
216.5
 30
0.0
 11
45.25
 21
216.5
 31
0.0
  0
LINE
  5
    CC
  8
0
  6
CONTINUOUS
 62
     2
 10
49.25
 20
218.5
 30
0.0
 11
49.25
 21
229.5
 31
0.0
  0
LINE
  5
    CD
  8
0
  6
CONTINUOUS
 62
     2
 10
52.25
 20
218.708497377871
 30
0.0
 11
52.25
 21
229.291502622129
 31
0.0
  0
LINE
  5
    CE
  8
0
  6
CONTINUOUS
 62
     2
 10
45.25
 20
229.5
 30
0.0
 11
50.75
 21
229.5
 31
0.0
  0
LINE
  5
    CF
  8
0
  6
CONTINUOUS
 62
     2
 10
45.25
 20
218.5
 30
0.0
 11
50.75
 21
218.5
 31
0.0
  0
LINE
  5
    D0
  8
0
  6
DASHDOT
 62
     2
 10
48.0
 20
29.5
 30
0.0
 11
48.0
 21
63.5
 31
0.0
  0
LINE
  5
    D1
  8
0
  6
DASHDOT
 62
     2
 10
31.0
 20
46.5
 30
0.0
 11
65.0
 21
46.5
 31
0.0
  0
LINE
  5
    D2
  8
0
  6
DASHDOT
 62
     2
 10
63.0
 20
-7.0
 30
0.0
 11
63.0
 21
21.0
 31
0.0
  0
LINE
  5
    D3
  8
0
  6
DASHDOT
 62
     2
 10
49.0
 20
7.0
 30
0.0
 11
77.0
 21
7.0
 31
0.0
  0
LINE
  5
    D4
  8
0
  6
DASHDOT
 62
     2
 10
-63.0
 20
-7.0
 30
0.0
 11
-63.0
 21
21.0
 31
0.0
  0
LINE
  5
    D5
  8
0
  6
DASHDOT
 62
     2
 10
-77.0
 20
7.0
 30
0.0
 11
-49.0
 21
7.0
 31
0.0
  0
LINE
  5
    D6
  8
0
  6
DASHDOT
 62
     2
 10
-63.0
 20
121.0
 30
0.0
 11
-63.0
 21
149.0
 31
0.0
  0
LINE
  5
    D7
  8
0
  6
DASHDOT
 62
     2
 10
-77.0
 20
135.0
 30
0.0
 11
-49.0
 21
135.0
 31
0.0
  0
LINE
  5
    D8
  8
0
  6
DASHDOT
 62
     2
 10
63.0
 20
121.0
 30
0.0
 11
63.0
 21
149.0
 31
0.0
  0
LINE
  5
    D9
  8
0
  6
DASHDOT
 62
     2
 10
49.0
 20
135.0
 30
0.0
 11
77.0
 21
135.0
 31
0.0
  0
LINE
  5
    DA
  8
0
  6
DASHDOT
 62
     2
 10
0.0
 20
206.25
 30
0.0
 11
0.0
 21
241.75
 31
0.0
  0
LINE
  5
    DB
  8
0
  6
DASHDOT
 62
     2
 10
-17.75
 20
224.0
 30
0.0
 11
17.75
 21
224.0
 31
0.0
  0
LINE
  5
    DC
  8
0
  6
DASHDOT
 62
     2
 10
39.25
 20
206.5
 30
0.0
 11
39.25
 21
241.5
 31
0.0
  0
LINE
  5
    DD
  8
0
  6
DASHDOT
 62
     2
 10
21.75
 20
224.0
 30
0.0
 11
56.75
 21
224.0
 31
0.0
  0
LINE
  5
    DE
  8
0
  6
DASHDOT
 62
     2
 10
50.75
 20
208.5
 30
0.0
 11
50.75
 21
239.5
 31
0.0
  0
LINE
  5
    DF
  8
0
  6
DASHDOT
 62
     2
 10
35.25
 20
224.0
 30
0.0
 11
66.25
 21
224.0
 31
0.0
  0
LINE
  5
    E0
  8
0
  6
DASHDOT
 62
     2
 10
63.0
 20
249.0
 30
0.0
 11
63.0
 21
277.0
 31
0.0
  0
LINE
  5
    E1
  8
0
  6
DASHDOT
 62
     2
 10
49.0
 20
263.0
 30
0.0
 11
77.0
 21
263.0
 31
0.0
  0
LINE
  5
    E2
  8
0
  6
CONTINUOUS
 62
     2
 10
-69.25
 20
190.25
 30
0.0
 11
-69.25
 21
210.25
 31
0.0
  0
LINE
  5
    E3
  8
0
  6
CONTINUOUS
 62
     2
 10
69.25
 20
190.25
 30
0.0
 11
69.25
 21
210.25
 31
0.0
  0
LINE
  5
    E4
  8
0
  6
CONTINUOUS
 62
     2
 10
-41.75
 20
190.25
 30
0.0
 11
-41.75
 21
210.25
 31
0.0
  0
LINE
  5
    E5
  8
0
  6
CONTINUOUS
 62
     2
 10
-25.25
 20
190.25
 30
0.0
 11
-25.25
 21
210.25
 31
0.0
  0
LINE
  5
    E6
  8
0
  6
CONTINUOUS
 62
     2
 10
-8.75
 20
190.25
 30
0.0
 11
-8.75
 21
210.25
 31
0.0
  0
LINE
  5
    E7
  8
0
  6
CONTINUOUS
 62
     2
 10
7.75
 20
190.25
 30
0.0
 11
7.75
 21
210.25
 31
0.0
  0
LINE
  5
    E8
  8
0
  6
CONTINUOUS
 62
     2
 10
24.25
 20
190.25
 30
0.0
 11
24.25
 21
210.25
 31
0.0
  0
LINE
  5
    E9
  8
0
  6
CONTINUOUS
 62
     2
 10
40.75
 20
190.25
 30
0.0
 11
40.75
 21
210.25
 31
0.0
  0
LINE
  5
    EA
  8
0
  6
CONTINUOUS
 62
     2
 10
57.25
 20
190.25
 30
0.0
 11
57.25
 21
210.113559719484
 31
0.0
  0
LINE
  5
    EB
  8
0
  6
CONTINUOUS
 62
     2
 10
-69.25
 20
203.916666666667
 30
0.0
 11
69.25
 21
203.916666666667
 31
0.0
  0
LINE
  5
    EC
  8
0
  6
CONTINUOUS
 62
     2
 10
-69.25
 20
196.583333333333
 30
0.0
 11
69.25
 21
196.583333333333
 31
0.0
  0
LINE
  5
    ED
  8
0
  6
CONTINUOUS
 62
     2
 10
-69.25
 20
210.25
 30
0.0
 11
69.25
 21
210.25
 31
0.0
  0
LINE
  5
    EE
  8
0
  6
CONTINUOUS
 62
     2
 10
-69.25
 20
190.25
 30
0.0
 11
69.25
 21
190.25
 31
0.0
  0
CIRCLE
  5
    EF
  8
0
  6
CONTINUOUS
 62
     3
 10
-35.25
 20
152.5
 30
0.0
 40
8.0
  0
LINE
  5
    F0
  8
0
  6
DASHDOT
 62
     7
 10
-63.0
 20
249.0
 30
0.0
 11
-63.0
 21
277.0
 31
0.0
  0
LINE
  5
    F1
  8
0
  6
DASHDOT
 62
     7
 10
-77.0
 20
263.0
 30
0.0
 11
-49.0
 21
263.0
 31
0.0
  0
LINE
  5
    F2
  8
0
  6
CONTINUOUS
 62
     3
 10
-70.0
 20
178.428172712697
 30
0.0
 11
70.0
 21
178.428172712697
 31
0.0
  0
LINE
  5
    F3
  8
0
  6
CONTINUOUS
 62
     3
 10
-70.0
 20
171.499969482422
 30
0.0
 11
70.0
 21
171.499969482422
 31
0.0
  0
LINE
  5
    F4
  8
0
  6
CONTINUOUS
 62
     2
 10
70.0
 20
2.0
 30
0.0
 11
70.0
 21
268.0
 31
0.0
  0
LINE
  5
    F5
  8
0
  6
CONTINUOUS
 62
     2
 10
-70.0
 20
2.0
 30
0.0
 11
-70.0
 21
268.0
 31
0.0
  0
ARC
  5
    F6
  8
0
  6
CONTINUOUS
 62
     2
 10
-68.0
 20
268.0
 30
0.0
 40
2.0
 50
90.0
 51
180.0
  0
ARC
  5
    F7
  8
0
  6
CONTINUOUS
 62
     2
 10
68.0
 20
268.0
 30
0.0
 40
2.0
 50
0.0
 51
90.0
  0
ARC
  5
    F8
  8
0
  6
CONTINUOUS
 62
     2
 10
68.0
 20
2.0
 30
0.0
 40
2.0
 50
270.0
 51
360.0
  0
ARC
  5
    F9
  8
0
  6
CONTINUOUS
 62
     2
 10
-68.0
 20
2.0
 30
0.0
 40
2.0
 50
180.0
 51
270.0
  0
ENDBLK
  5
    FA
  8
0
  6
CONTINUOUS
 62
     7
  0
BLOCK
  5
    FB
  8
0
  6
CONTINUOUS
 62
     7
  2
*UDIM204
 70
    65
 10
0.0
 20
0.0
 30
0.0
  3
*UDIM204
  0
TEXT
  5
    FC
  8
0
  6
CONTINUOUS
 62
     7
 10
101.578329142638
 20
17.3477727310078
 30
0.0
 40
2.4999999335834
  1
140
 50
359.999999948034
 41
0.933333333333333
 72
     1
 11
104.828329057424
 21
18.5977726948682
 31
0.0
 73
     2
  0
LINE
  5
    FD
  8
0
  6
CONTINUOUS
 62
     7
 10
129.557494699955
 20
45.1952323943378
 30
0.0
 11
129.557494699955
 21
14.3477727280765
 31
0.0
  0
LINE
  5
    FE
  8
0
  6
CONTINUOUS
 62
     7
 10
80.55749553442
 20
45.1952323943378
 30
0.0
 11
80.55749553442
 21
14.3477727280765
 31
0.0
  0
LINE
  5
    FF
  8
0
  6
CONTINUOUS
 62
     7
 10
129.557494699955
 20
16.3477727280765
 30
0.0
 11
80.55749553442
 21
16.3477727280765
 31
0.0
  0
LINE
  5
   100
  8
0
  6
CONTINUOUS
 62
     7
 10
126.603071438273
 20
15.8268282100762
 30
0.0
 11
129.557494699955
 21
16.3477727280765
 31
0.0
  0
LINE
  5
   101
  8
0
  6
CONTINUOUS
 62
     7
 10
129.557494699955
 20
16.3477727280765
 30
0.0
 11
126.603071438273
 21
16.8687172460768
 31
0.0
  0
LINE
  5
   102
  8
0
  6
CONTINUOUS
 62
     7
 10
83.5119187961016
 20
16.8687172460768
 30
0.0
 11
80.55749553442
 21
16.3477727280765
 31
0.0
  0
LINE
  5
   103
  8
0
  6
CONTINUOUS
 62
     7
 10
80.55749553442
 20
16.3477727280765
 30
0.0
 11
83.5119187961016
 21
15.8268282100762
 31
0.0
  0
ENDBLK
  5
   104
  8
0
  6
CONTINUOUS
 62
     7
  0
BLOCK
  5
   105
  8
0
  6
CONTINUOUS
 62
     7
  2
*UDIM205
 70
    65
 10
0.0
 20
0.0
 30
0.0
  3
*UDIM205
  0
TEXT
  5
   106
  8
0
  6
CONTINUOUS
 62
     7
 10
100.347636582554
 20
5.4640212484553
 30
0.0
 40
2.4999999335834
  1
215.5
 50
359.999999948034
 41
0.933333333333333
 72
     1
 11
105.930969768684
 21
6.71402121021114
 31
0.0
 73
     2
  0
LINE
  5
   107
  8
0
  6
CONTINUOUS
 62
     7
 10
143.715002249226
 20
65.8452427238205
 30
0.0
 11
143.715002249226
 21
2.46402124341944
 31
0.0
  0
LINE
  5
   108
  8
0
  6
CONTINUOUS
 62
     7
 10
68.3075035334076
 20
22.7252271693967
 30
0.0
 11
68.3075035334076
 21
2.46402124341944
 31
0.0
  0
LINE
  5
   109
  8
0
  6
CONTINUOUS
 62
     7
 10
143.715002249226
 20
4.46402124341944
 30
0.0
 11
68.3075035334076
 21
4.46402124341944
 31
0.0
  0
LINE
  5
   10A
  8
0
  6
CONTINUOUS
 62
     7
 10
140.817224776015
 20
3.68756408700089
 30
0.0
 11
143.715002249226
 21
4.46402124341944
 31
0.0
  0
LINE
  5
   10B
  8
0
  6
CONTINUOUS
 62
     7
 10
143.715002249226
 20
4.46402124341944
 30
0.0
 11
140.817224776015
 21
5.24047839983798
 31
0.0
  0
LINE
  5
   10C
  8
0
  6
CONTINUOUS
 62
     7
 10
71.2052810066181
 20
5.24047839983798
 30
0.0
 11
68.3075035334076
 21
4.46402124341944
 31
0.0
  0
LINE
  5
   10D
  8
0
  6
CONTINUOUS
 62
     7
 10
68.3075035334076
 20
4.46402124341944
 30
0.0
 11
71.2052810066181
 21
3.68756408700089
 31
0.0
  0
ENDBLK
  5
   10E
  8
0
  6
CONTINUOUS
 62
     7
  0
BLOCK
  5
   10F
  8
0
  6
CONTINUOUS
 62
     7
  2
*UDIM206
 70
    65
 10
0.0
 20
0.0
 30
0.0
  3
*UDIM206
  0
TEXT
  5
   110
  8
0
  6
CONTINUOUS
 62
     7
 10
89.0767744164317
 20
-0.629935707629083
 30
0.0
 40
2.4999999335834
  1
285.5
 50
359.999999948034
 41
0.933333333333333
 72
     1
 11
94.6601076025621
 21
0.620064254126753
 31
0.0
 73
     2
  0
LINE
  5
   111
  8
0
  6
CONTINUOUS
 62
     7
 10
143.715002249226
 20
65.8452427238205
 30
0.0
 11
143.715002249226
 21
-3.62993571266495
 31
0.0
  0
LINE
  5
   112
  8
0
  6
CONTINUOUS
 62
     7
 10
43.8075039506401
 20
22.7252376808183
 30
0.0
 11
43.8075039506401
 21
-3.62993571266495
 31
0.0
  0
LINE
  5
   113
  8
0
  6
CONTINUOUS
 62
     7
 10
143.715002249226
 20
-1.62993571266495
 30
0.0
 11
43.8075039506401
 21
-1.62993571266495
 31
0.0
  0
LINE
  5
   114
  8
0
  6
CONTINUOUS
 62
     7
 10
140.817224776015
 20
-2.40639286908349
 30
0.0
 11
143.715002249226
 21
-1.62993571266495
 31
0.0
  0
LINE
  5
   115
  8
0
  6
CONTINUOUS
 62
     7
 10
143.715002249226
 20
-1.62993571266495
 30
0.0
 11
140.817224776015
 21
-0.853478556246401
 31
0.0
  0
LINE
  5
   116
  8
0
  6
CONTINUOUS
 62
     7
 10
46.7052814238506
 20
-0.853478556246401
 30
0.0
 11
43.8075039506401
 21
-1.62993571266495
 31
0.0
  0
LINE
  5
   117
  8
0
  6
CONTINUOUS
 62
     7
 10
43.8075039506401
 20
-1.62993571266495
 30
0.0
 11
46.7052814238506
 21
-2.40639286908349
 31
0.0
  0
ENDBLK
  5
   118
  8
0
  6
CONTINUOUS
 62
     7
  0
BLOCK
  5
   119
  8
0
  6
CONTINUOUS
 62
     7
  2
*UDIM207
 70
    65
 10
0.0
 20
0.0
 30
0.0
  3
*UDIM207
  0
TEXT
  5
   11A
  8
0
  6
CONTINUOUS
 62
     7
 10
101.231436413228
 20
11.5875605177559
 30
0.0
 40
2.4999999335834
  1
210
 50
359.999999948034
 41
0.933333333333333
 72
     1
 11
104.481436328014
 21
12.8375604816163
 31
0.0
 73
     2
  0
LINE
  5
   11B
  8
0
  6
CONTINUOUS
 62
     7
 10
141.80750228171
 20
22.7252271693967
 30
0.0
 11
141.80750228171
 21
8.58756051482461
 31
0.0
  0
LINE
  5
   11C
  8
0
  6
CONTINUOUS
 62
     7
 10
68.3075035334076
 20
22.7252271693967
 30
0.0
 11
68.3075035334076
 21
8.58756051482461
 31
0.0
  0
LINE
  5
   11D
  8
0
  6
CONTINUOUS
 62
     7
 10
141.80750228171
 20
10.5875605148246
 30
0.0
 11
68.3075035334076
 21
10.5875605148246
 31
0.0
  0
LINE
  5
   11E
  8
0
  6
CONTINUOUS
 62
     7
 10
138.9097248085
 20
9.81110335840606
 30
0.0
 11
141.80750228171
 21
10.5875605148246
 31
0.0
  0
LINE
  5
   11F
  8
0
  6
CONTINUOUS
 62
     7
 10
141.80750228171
 20
10.5875605148246
 30
0.0
 11
138.9097248085
 21
11.3640176712432
 31
0.0
  0
LINE
  5
   120
  8
0
  6
CONTINUOUS
 62
     7
 10
71.2052810066181
 20
11.3640176712432
 30
0.0
 11
68.3075035334076
 21
10.5875605148246
 31
0.0
  0
LINE
  5
   121
  8
0
  6
CONTINUOUS
 62
     7
 10
68.3075035334076
 20
10.5875605148246
 30
0.0
 11
71.2052810066181
 21
9.81110335840606
 31
0.0
  0
ENDBLK
  5
   122
  8
0
  6
CONTINUOUS
 62
     7
  0
BLOCK
  5
   123
  8
0
  6
CONTINUOUS
 62
     7
  2
*UDIM208
 70
    65
 10
0.0
 20
0.0
 30
0.0
  3
*UDIM208
  0
TEXT
  5
   124
  8
0
  6
CONTINUOUS
 62
     7
 10
84.3991620703617
 20
171.48057421486
 30
0.0
 40
2.4999999335834
  1
91,5
 50
359.999999948034
 41
0.933333333333333
 72
     1
 11
88.8158286208198
 21
172.730574177668
 31
0.0
 73
     2
  0
LINE
  5
   125
  8
0
  6
CONTINUOUS
 62
     7
 10
73.03249566257
 20
152.457724646374
 30
0.0
 11
73.03249566257
 21
172.480574210877
 31
0.0
  0
LINE
  5
   126
  8
0
  6
CONTINUOUS
 62
     7
 10
105.057495117188
 20
170.480574210877
 30
0.0
 11
73.03249566257
 21
170.480574210877
 31
0.0
  0
LINE
  5
   127
  8
0
  6
CONTINUOUS
 62
     7
 10
102.103071855506
 20
169.959629692876
 30
0.0
 11
105.057495117188
 21
170.480574210877
 31
0.0
  0
LINE
  5
   128
  8
0
  6
CONTINUOUS
 62
     7
 10
105.057495117188
 20
170.480574210877
 30
0.0
 11
102.103071855506
 21
171.001518728877
 31
0.0
  0
LINE
  5
   129
  8
0
  6
CONTINUOUS
 62
     7
 10
75.9869189242516
 20
171.001518728877
 30
0.0
 11
73.03249566257
 21
170.480574210877
 31
0.0
  0
LINE
  5
   12A
  8
0
  6
CONTINUOUS
 62
     7
 10
73.03249566257
 20
170.480574210877
 30
0.0
 11
75.9869189242516
 21
169.959629692876
 31
0.0
  0
ENDBLK
  5
   12B
  8
0
  6
CONTINUOUS
 62
     7
  0
BLOCK
  5
   12C
  8
0
  6
CONTINUOUS
 62
     7
  2
*UDIM209
 70
    65
 10
0.0
 20
0.0
 30
0.0
  3
*UDIM209
  0
TEXT
  5
   12D
  8
0
  6
CONTINUOUS
 62
     7
 10
106.157494272399
 20
177.512925797752
 30
0.0
 40
2.4999999335834
  1
222,5
 50
359.999999948034
 41
0.933333333333333
 72
     1
 11
111.740827458529
 21
178.762925759508
 31
0.0
 73
     2
  0
LINE
  5
   12E
  8
0
  6
CONTINUOUS
 62
     7
 10
150.907494336367
 20
152.457724646374
 30
0.0
 11
150.907494336367
 21
178.512925792717
 31
0.0
  0
LINE
  5
   12F
  8
0
  6
CONTINUOUS
 62
     7
 10
73.03249566257
 20
152.457724646374
 30
0.0
 11
73.03249566257
 21
178.512925792717
 31
0.0
  0
LINE
  5
   130
  8
0
  6
CONTINUOUS
 62
     7
 10
150.907494336367
 20
176.512925792717
 30
0.0
 11
73.03249566257
 21
176.512925792717
 31
0.0
  0
LINE
  5
   131
  8
0
  6
CONTINUOUS
 62
     7
 10
147.953071074685
 20
175.991981274716
 30
0.0
 11
150.907494336367
 21
176.512925792717
 31
0.0
  0
LINE
  5
   132
  8
0
  6
CONTINUOUS
 62
     7
 10
150.907494336367
 20
176.512925792717
 30
0.0
 11
147.953071074685
 21
177.033870310717
 31
0.0
  0
LINE
  5
   133
  8
0
  6
CONTINUOUS
 62
     7
 10
75.9869189242516
 20
177.033870310717
 30
0.0
 11
73.03249566257
 21
176.512925792717
 31
0.0
  0
LINE
  5
   134
  8
0
  6
CONTINUOUS
 62
     7
 10
73.03249566257
 20
176.512925792717
 30
0.0
 11
75.9869189242516
 21
175.991981274716
 31
0.0
  0
ENDBLK
  5
   135
  8
0
  6
CONTINUOUS
 62
     7
  0
BLOCK
  5
   136
  8
0
  6
CONTINUOUS
 62
     7
  2
*UDIM210
 70
    65
 10
0.0
 20
0.0
 30
0.0
  3
*UDIM210
  0
TEXT
  5
   137
  8
0
  6
CONTINUOUS
 62
     7
 10
156.080137505163
 20
46.1723129562507
 30
0.0
 40
2.4999999335834
  1
111,75
 50
89.9999999480344
 41
0.933333333333333
 72
     1
 11
154.830137544485
 21
52.9223127780581
 31
0.0
 73
     2
  0
LINE
  5
   138
  8
0
  6
CONTINUOUS
 62
     7
 10
151.469994343817
 20
33.5952266535599
 30
0.0
 11
159.080137511276
 21
33.5952266535599
 31
0.0
  0
LINE
  5
   139
  8
0
  6
CONTINUOUS
 62
     7
 10
151.571311251158
 20
72.707731773102
 30
0.0
 11
159.080137511276
 21
72.707731773102
 31
0.0
  0
LINE
  5
   13A
  8
0
  6
CONTINUOUS
 62
     7
 10
157.080137511276
 20
33.5952266535599
 30
0.0
 11
157.080137511276
 21
72.707731773102
 31
0.0
  0
LINE
  5
   13B
  8
0
  6
CONTINUOUS
 62
     7
 10
156.559192993276
 20
36.5496499152415
 30
0.0
 11
157.080137511276
 21
33.5952266535599
 31
0.0
  0
LINE
  5
   13C
  8
0
  6
CONTINUOUS
 62
     7
 10
157.080137511276
 20
33.5952266535599
 30
0.0
 11
157.601082029277
 21
36.5496499152415
 31
0.0
  0
LINE
  5
   13D
  8
0
  6
CONTINUOUS
 62
     7
 10
157.601082029277
 20
69.7533085114204
 30
0.0
 11
157.080137511276
 21
72.707731773102
 31
0.0
  0
LINE
  5
   13E
  8
0
  6
CONTINUOUS
 62
     7
 10
157.080137511276
 20
72.707731773102
 30
0.0
 11
156.559192993276
 21
69.7533085114204
 31
0.0
  0
ENDBLK
  5
   13F
  8
0
  6
CONTINUOUS
 62
     7
  0
BLOCK
  5
   140
  8
0
  6
CONTINUOUS
 62
     7
  2
*UDIM211
 70
    65
 10
0.0
 20
0.0
 30
0.0
  3
*UDIM211
  0
TEXT
  5
   141
  8
0
  6
CONTINUOUS
 62
     7
 10
161.98161827331
 20
89.2660602766743
 30
0.0
 40
2.4999999335834
  1
338
 50
89.9999999480344
 41
0.933333333333333
 72
     1
 11
160.731618309462
 21
92.5160601914649
 31
0.0
 73
     2
  0
LINE
  5
   142
  8
0
  6
CONTINUOUS
 62
     7
 10
151.469994343817
 20
33.5952266535599
 30
0.0
 11
164.981618276253
 21
33.5952266535599
 31
0.0
  0
LINE
  5
   143
  8
0
  6
CONTINUOUS
 62
     7
 10
151.557494342327
 20
151.895224638923
 30
0.0
 11
164.981618276253
 21
151.895224638923
 31
0.0
  0
LINE
  5
   144
  8
0
  6
CONTINUOUS
 62
     7
 10
162.981618276253
 20
33.5952266535599
 30
0.0
 11
162.981618276253
 21
151.895224638923
 31
0.0
  0
LINE
  5
   145
  8
0
  6
CONTINUOUS
 62
     7
 10
162.460673758253
 20
36.5496499152415
 30
0.0
 11
162.981618276253
 21
33.5952266535599
 31
0.0
  0
LINE
  5
   146
  8
0
  6
CONTINUOUS
 62
     7
 10
162.981618276253
 20
33.5952266535599
 30
0.0
 11
163.502562794254
 21
36.5496499152415
 31
0.0
  0
LINE
  5
   147
  8
0
  6
CONTINUOUS
 62
     7
 10
163.502562794254
 20
148.940801377241
 30
0.0
 11
162.981618276253
 21
151.895224638923
 31
0.0
  0
LINE
  5
   148
  8
0
  6
CONTINUOUS
 62
     7
 10
162.981618276253
 20
151.895224638923
 30
0.0
 11
162.460673758253
 21
148.940801377241
 31
0.0
  0
ENDBLK
  5
   149
  8
0
  6
CONTINUOUS
 62
     7
  0
BLOCK
  5
   14A
  8
0
  6
CONTINUOUS
 62
     0
  2
$1MOTORE
 70
    64
 10
0.0
 20
0.0
 30
0.0
  3
$1MOTORE
  0
LINE
  5
   14B
  8
0
  6
CONTINUOUS
 62
     0
 10
-1.5
 20
-25.25
 30
0.0
 11
-1.5
 21
0.0
 31
0.0
  0
LINE
  5
   14C
  8
0
  6
CONTINUOUS
 62
     0
 10
22.0
 20
-25.25
 30
0.0
 11
22.0
 21
244.75
 31
0.0
  0
LINE
  5
   14D
  8
0
  6
CONTINUOUS
 62
     0
 10
-1.5
 20
-25.25
 30
0.0
 11
22.0
 21
-25.25
 31
0.0
  0
LINE
  5
   14E
  8
0
  6
CONTINUOUS
 62
     0
 10
-1.5
 20
0.0
 30
0.0
 11
0.0
 21
0.0
 31
0.0
  0
LINE
  5
   14F
  8
0
  6
CONTINUOUS
 62
     0
 10
0.0
 20
0.0
 30
0.0
 11
0.0
 21
105.0
 31
0.0
  0
LINE
  5
   150
  8
0
  6
CONTINUOUS
 62
     0
 10
-1.5
 20
244.75
 30
0.0
 11
22.0
 21
244.75
 31
0.0
  0
LINE
  5
   151
  8
0
  6
CONTINUOUS
 62
     0
 10
-1.5
 20
105.0
 30
0.0
 11
0.0
 21
105.0
 31
0.0
  0
LINE
  5
   152
  8
0
  6
CONTINUOUS
 62
     0
 10
-1.5
 20
105.0
 30
0.0
 11
-1.5
 21
244.75
 31
0.0
  0
LINE
  5
   153
  8
0
  6
CONTINUOUS
 62
     0
 10
22.0
 20
-25.25
 30
0.0
 11
95.0
 21
-25.25
 31
0.0
  0
LINE
  5
   154
  8
0
  6
CONTINUOUS
 62
     0
 10
83.0
 20
102.75
 30
0.0
 11
83.0
 21
244.75
 31
0.0
  0
LINE
  5
   155
  8
0
  6
CONTINUOUS
 62
     0
 10
22.0
 20
244.75
 30
0.0
 11
83.0
 21
244.75
 31
0.0
  0
LINE
  5
   156
  8
0
  6
CONTINUOUS
 62
     0
 10
83.0
 20
102.75
 30
0.0
 11
95.0
 21
102.75
 31
0.0
  0
LINE
  5
   157
  8
0
  6
CONTINUOUS
 62
     0
 10
120.5
 20
165.75
 30
0.0
 11
120.5
 21
186.0
 31
0.0
  0
LINE
  5
   158
  8
0
  6
CONTINUOUS
 62
     0
 10
83.0
 20
244.75
 30
0.0
 11
95.0
 21
244.75
 31
0.0
  0
LINE
  5
   159
  8
0
  6
CONTINUOUS
 62
     0
 10
104.5
 20
165.75
 30
0.0
 11
120.5
 21
165.75
 31
0.0
  0
LINE
  5
   15A
  8
0
  6
CONTINUOUS
 62
     0
 10
104.5
 20
155.678203230276
 30
0.0
 11
104.5
 21
165.75
 31
0.0
  0
LINE
  5
   15B
  8
0
  6
CONTINUOUS
 62
     0
 10
100.5
 20
148.75
 30
0.0
 11
104.5
 21
155.678203230276
 31
0.0
  0
LINE
  5
   15C
  8
0
  6
CONTINUOUS
 62
     0
 10
119.5
 20
210.5
 30
0.0
 11
120.5
 21
210.5
 31
0.0
  0
LINE
  5
   15D
  8
0
  6
CONTINUOUS
 62
     0
 10
119.5
 20
211.5
 30
0.0
 11
120.5
 21
211.5
 31
0.0
  0
LINE
  5
   15E
  8
0
  6
CONTINUOUS
 62
     0
 10
119.5
 20
187.0
 30
0.0
 11
120.5
 21
187.0
 31
0.0
  0
LINE
  5
   15F
  8
0
  6
CONTINUOUS
 62
     0
 10
119.5
 20
186.0
 30
0.0
 11
120.5
 21
186.0
 31
0.0
  0
LINE
  5
   160
  8
0
  6
CONTINUOUS
 62
     0
 10
119.5
 20
186.0
 30
0.0
 11
119.5
 21
187.0
 31
0.0
  0
LINE
  5
   161
  8
0
  6
CONTINUOUS
 62
     0
 10
119.5
 20
210.5
 30
0.0
 11
119.5
 21
211.5
 31
0.0
  0
LINE
  5
   162
  8
0
  6
CONTINUOUS
 62
     0
 10
120.5
 20
211.5
 30
0.0
 11
120.5
 21
244.75
 31
0.0
  0
LINE
  5
   163
  8
0
  6
CONTINUOUS
 62
     0
 10
120.5
 20
187.0
 30
0.0
 11
120.5
 21
210.5
 31
0.0
  0
LINE
  5
   164
  8
0
  6
CONTINUOUS
 62
     0
 10
120.5
 20
136.814995672692
 30
0.0
 11
120.5
 21
165.75
 31
0.0
  0
LINE
  5
   165
  8
0
  6
CONTINUOUS
 62
     0
 10
100.5
 20
244.75
 30
0.0
 11
120.5
 21
244.75
 31
0.0
  0
ENDBLK
  5
   166
  8
0
  6
CONTINUOUS
 62
     0
  0
BLOCK
  5
   167
  8
0
  6
CONTINUOUS
 62
     7
  2
*HATCH23
 70
    65
 10
0.0
 20
0.0
 30
0.0
  3
*HATCH23
  0
LINE
  5
   168
  8
0
  6
CONTINUOUS
 62
    52
 10
255.747451782227
 20
37.2514457702637
 30
0.0
 11
255.745971679688
 21
37.2499656677246
 31
0.0
  0
ENDBLK
  5
   169
  8
0
  6
CONTINUOUS
 62
     7
  0
BLOCK
  5
   16A
  8
0
  6
CONTINUOUS
 62
     7
  2
*HATCH24
 70
    65
 10
0.0
 20
0.0
 30
0.0
  3
*HATCH24
  0
LINE
  5
   16B
  8
0
  6
CONTINUOUS
 62
    52
 10
196.783203125
 20
287.999969482422
 30
0.0
 11
195.999938964844
 21
287.216705322266
 31
0.0
  0
LINE
  5
   16C
  8
0
  6
CONTINUOUS
 62
    52
 10
197.999938964844
 20
287.095367431641
 30
0.0
 11
195.999938964844
 21
285.095367431641
 31
0.0
  0
LINE
  5
   16D
  8
0
  6
CONTINUOUS
 62
    52
 10
197.999938964844
 20
284.974060058594
 30
0.0
 11
197.025833129883
 21
283.999969482422
 31
0.0
  0
ENDBLK
  5
   16E
  8
0
  6
CONTINUOUS
 62
     7
  0
BLOCK
  5
   16F
  8
0
  6
CONTINUOUS
 62
     7
  2
*HATCH25
 70
    65
 10
0.0
 20
0.0
 30
0.0
  3
*HATCH25
  0
LINE
  5
   170
  8
0
  6
CONTINUOUS
 62
    52
 10
197.653182983398
 20
329.175018310547
 30
0.0
 11
195.999938964844
 21
327.521789550781
 31
0.0
  0
LINE
  5
   171
  8
0
  6
CONTINUOUS
 62
    52
 10
197.999938964844
 20
327.400451660156
 30
0.0
 11
195.999938964844
 21
325.400451660156
 31
0.0
  0
LINE
  5
   172
  8
0
  6
CONTINUOUS
 62
    52
 10
197.999938964844
 20
325.279144287109
 30
0.0
 11
195.999938964844
 21
323.279144287109
 31
0.0
  0
LINE
  5
   173
  8
0
  6
CONTINUOUS
 62
    52
 10
197.999938964844
 20
323.157836914063
 30
0.0
 11
195.999938964844
 21
321.157836914063
 31
0.0
  0
LINE
  5
   174
  8
0
  6
CONTINUOUS
 62
    52
 10
197.999938964844
 20
321.036529541016
 30
0.0
 11
195.999938964844
 21
319.036529541016
 31
0.0
  0
LINE
  5
   175
  8
0
  6
CONTINUOUS
 62
    52
 10
197.999938964844
 20
318.915222167969
 30
0.0
 11
195.999938964844
 21
316.915222167969
 31
0.0
  0
LINE
  5
   176
  8
0
  6
CONTINUOUS
 62
    52
 10
197.999938964844
 20
316.793914794922
 30
0.0
 11
195.999938964844
 21
314.793914794922
 31
0.0
  0
LINE
  5
   177
  8
0
  6
CONTINUOUS
 62
    52
 10
197.999938964844
 20
314.672607421875
 30
0.0
 11
195.999938964844
 21
312.672607421875
 31
0.0
  0
LINE
  5
   178
  8
0
  6
CONTINUOUS
 62
    52
 10
197.999938964844
 20
312.551300048828
 30
0.0
 11
195.999938964844
 21
310.551300048828
 31
0.0
  0
LINE
  5
   179
  8
0
  6
CONTINUOUS
 62
    52
 10
197.999938964844
 20
310.429992675781
 30
0.0
 11
195.999938964844
 21
308.429992675781
 31
0.0
  0
LINE
  5
   17A
  8
0
  6
CONTINUOUS
 62
    52
 10
197.999938964844
 20
308.308685302734
 30
0.0
 11
195.999938964844
 21
306.308685302734
 31
0.0
  0
LINE
  5
   17B
  8
0
  6
CONTINUOUS
 62
    52
 10
197.999938964844
 20
306.187377929688
 30
0.0
 11
195.999938964844
 21
304.187377929688
 31
0.0
  0
LINE
  5
   17C
  8
0
  6
CONTINUOUS
 62
    52
 10
197.999938964844
 20
304.066070556641
 30
0.0
 11
195.999938964844
 21
302.066070556641
 31
0.0
  0
LINE
  5
   17D
  8
0
  6
CONTINUOUS
 62
    52
 10
197.999938964844
 20
301.944763183594
 30
0.0
 11
195.999938964844
 21
299.944763183594
 31
0.0
  0
LINE
  5
   17E
  8
0
  6
CONTINUOUS
 62
    52
 10
197.999938964844
 20
299.823455810547
 30
0.0
 11
195.999938964844
 21
297.823455810547
 31
0.0
  0
LINE
  5
   17F
  8
0
  6
CONTINUOUS
 62
    52
 10
197.999938964844
 20
297.701965332031
 30
0.0
 11
196.297927856445
 21
295.999969482422
 31
0.0
  0
ENDBLK
  5
   180
  8
0
  6
CONTINUOUS
 62
     7
  0
BLOCK
  5
   181
  8
0
  6
CONTINUOUS
 62
     7
  2
*HATCH26
 70
    65
 10
0.0
 20
0.0
 30
0.0
  3
*HATCH26
  0
LINE
  5
   182
  8
0
  6
CONTINUOUS
 62
    52
 10
197.374649047852
 20
-19.0000381469727
 30
0.0
 11
195.999893188477
 21
-20.374792098999
 31
0.0
  0
LINE
  5
   183
  8
0
  6
CONTINUOUS
 62
    52
 10
197.999908447266
 20
-20.49609375
 30
0.0
 11
195.999893188477
 21
-22.4961128234863
 31
0.0
  0
LINE
  5
   184
  8
0
  6
CONTINUOUS
 62
    52
 10
197.999908447266
 20
-22.6174144744873
 30
0.0
 11
197.617294311523
 21
-23.0000343322754
 31
0.0
  0
ENDBLK
  5
   185
  8
0
  6
CONTINUOUS
 62
     7
  0
BLOCK
  5
   186
  8
0
  6
CONTINUOUS
 62
     7
  2
*HATCH27
 70
    65
 10
0.0
 20
0.0
 30
0.0
  3
*HATCH27
  0
LINE
  5
   187
  8
0
  6
CONTINUOUS
 62
    52
 10
197.999893188477
 20
-31.102710723877
 30
0.0
 11
195.999938964844
 21
-33.1026649475098
 31
0.0
  0
LINE
  5
   188
  8
0
  6
CONTINUOUS
 62
    52
 10
197.999893188477
 20
-33.2240295410156
 30
0.0
 11
195.999938964844
 21
-35.2239837646484
 31
0.0
  0
LINE
  5
   189
  8
0
  6
CONTINUOUS
 62
    52
 10
197.999893188477
 20
-35.3453483581543
 30
0.0
 11
195.999938964844
 21
-37.3453025817871
 31
0.0
  0
LINE
  5
   18A
  8
0
  6
CONTINUOUS
 62
    52
 10
197.999893188477
 20
-37.466667175293
 30
0.0
 11
195.999938964844
 21
-39.4666213989258
 31
0.0
  0
LINE
  5
   18B
  8
0
  6
CONTINUOUS
 62
    52
 10
197.999893188477
 20
-39.5879859924316
 30
0.0
 11
195.999938964844
 21
-41.5879402160645
 31
0.0
  0
LINE
  5
   18C
  8
0
  6
CONTINUOUS
 62
    52
 10
197.999893188477
 20
-41.7093048095703
 30
0.0
 11
195.999938964844
 21
-43.7092590332031
 31
0.0
  0
LINE
  5
   18D
  8
0
  6
CONTINUOUS
 62
    52
 10
197.999893188477
 20
-43.830623626709
 30
0.0
 11
195.999938964844
 21
-45.8305778503418
 31
0.0
  0
LINE
  5
   18E
  8
0
  6
CONTINUOUS
 62
    52
 10
197.999893188477
 20
-45.9519424438477
 30
0.0
 11
195.999938964844
 21
-47.9518966674805
 31
0.0
  0
LINE
  5
   18F
  8
0
  6
CONTINUOUS
 62
    52
 10
197.999893188477
 20
-48.0732612609863
 30
0.0
 11
195.999938964844
 21
-50.0732154846191
 31
0.0
  0
LINE
  5
   190
  8
0
  6
CONTINUOUS
 62
    52
 10
197.999893188477
 20
-50.194580078125
 30
0.0
 11
195.999938964844
 21
-52.1945343017578
 31
0.0
  0
LINE
  5
   191
  8
0
  6
CONTINUOUS
 62
    52
 10
197.999893188477
 20
-52.3158988952637
 30
0.0
 11
195.999938964844
 21
-54.3158531188965
 31
0.0
  0
LINE
  5
   192
  8
0
  6
CONTINUOUS
 62
    52
 10
197.999893188477
 20
-54.4372177124023
 30
0.0
 11
195.999938964844
 21
-56.4371719360352
 31
0.0
  0
LINE
  5
   193
  8
0
  6
CONTINUOUS
 62
    52
 10
197.999893188477
 20
-56.558536529541
 30
0.0
 11
195.999938964844
 21
-58.5584907531738
 31
0.0
  0
LINE
  5
   194
  8
0
  6
CONTINUOUS
 62
    52
 10
197.999893188477
 20
-58.6798553466797
 30
0.0
 11
195.999938964844
 21
-60.6798095703125
 31
0.0
  0
LINE
  5
   195
  8
0
  6
CONTINUOUS
 62
    52
 10
197.999893188477
 20
-60.8011741638184
 30
0.0
 11
195.999938964844
 21
-62.8011283874512
 31
0.0
  0
LINE
  5
   196
  8
0
  6
CONTINUOUS
 62
    52
 10
197.999893188477
 20
-62.922492980957
 30
0.0
 11
195.999938964844
 21
-64.9224472045898
 31
0.0
  0
LINE
  5
   197
  8
0
  6
CONTINUOUS
 62
    52
 10
197.999893188477
 20
-65.0438079833984
 30
0.0
 11
195.999938964844
 21
-67.0437698364258
 31
0.0
  0
LINE
  5
   198
  8
0
  6
CONTINUOUS
 62
    52
 10
197.999893188477
 20
-67.1651229858398
 30
0.0
 11
195.999938964844
 21
-69.1650924682617
 31
0.0
  0
LINE
  5
   199
  8
0
  6
CONTINUOUS
 62
    52
 10
197.999893188477
 20
-69.2864379882813
 30
0.0
 11
195.999938964844
 21
-71.2864151000977
 31
0.0
  0
LINE
  5
   19A
  8
0
  6
CONTINUOUS
 62
    52
 10
197.999893188477
 20
-71.4077529907227
 30
0.0
 11
195.999938964844
 21
-73.4077377319336
 31
0.0
  0
LINE
  5
   19B
  8
0
  6
CONTINUOUS
 62
    52
 10
197.999893188477
 20
-73.5290679931641
 30
0.0
 11
195.999938964844
 21
-75.5290603637695
 31
0.0
  0
LINE
  5
   19C
  8
0
  6
CONTINUOUS
 62
    52
 10
197.999938964844
 20
-75.650390625
 30
0.0
 11
197.07160949707
 21
-76.578727722168
 31
0.0
  0
ENDBLK
  5
   19D
  8
0
  6
CONTINUOUS
 62
     7
  0
BLOCK
  5
   19E
  8
0
  6
CONTINUOUS
 62
     7
  2
$1MOSTRINA
 70
    64
 10
0.0
 20
0.0
 30
0.0
  3
$1MOSTRINA
  0
LINE
  5
   19F
  8
0
  6
CONTINUOUS
 62
     7
 10
197.99993896484
 20
301.499954223633
 30
0.0
 11
197.99993896484
 21
329.137879943504
 31
0.0
  0
LINE
  5
   1A0
  8
0
  6
CONTINUOUS
 62
     7
 10
195.99993896484
 20
283.499954223633
 30
0.0
 11
195.99993896484
 21
288.999965326125
 31
0.0
  0
LINE
  5
   1A1
  8
0
  6
CONTINUOUS
 62
     7
 10
195.99993896484
 20
294.999965326248
 30
0.0
 11
195.99993896484
 21
329.352165657789
 31
0.0
  0
LINE
  5
   1A2
  8
0
  6
CONTINUOUS
 62
     7
 10
187.829815849933
 20
330.227535991529
 30
0.0
 11
204.471709449149
 21
328.444475963042
 31
0.0
  0
LINE
  5
   1A3
  8
0
  6
CONTINUOUS
 62
     7
 10
197.99993896484
 20
-76.3112398752081
 30
0.0
 11
197.99993896484
 21
-36.5000352859497
 31
0.0
  0
LINE
  5
   1A4
  8
0
  6
CONTINUOUS
 62
     7
 10
195.99993896484
 20
-76.8875110616487
 30
0.0
 11
195.99993896484
 21
-30.0000306909644
 31
0.0
  0
LINE
  5
   1A5
  8
0
  6
CONTINUOUS
 62
     7
 10
188.721345864177
 20
-78.9847328025178
 30
0.0
 11
206.254769477637
 21
-73.9327293884701
 31
0.0
  0
LINE
  5
   1A6
  8
0
  6
CONTINUOUS
 62
     1
 10
191.499923707278
 20
289.577346792859
 30
0.0
 11
191.499938966067
 21
294.42262266816
 31
0.0
  0
LINE
  5
   1A7
  8
0
  6
CONTINUOUS
 62
     1
 10
191.499923707278
 20
-29.422666548357
 30
0.0
 11
191.499938966068
 21
-24.5773715926318
 31
0.0
  0
LINE
  5
   1A8
  8
0
  6
CONTINUOUS
 62
     1
 10
197.999893188473
 20
-36.5000352859497
 30
0.0
 11
201.499908447262
 21
-36.5000352859497
 31
0.0
  0
LINE
  5
   1A9
  8
0
  6
CONTINUOUS
 62
     1
 10
197.99993896484
 20
301.499954223633
 30
0.0
 11
201.49993896484
 21
301.499954223633
 31
0.0
  0
LINE
  5
   1AA
  8
0
  6
CONTINUOUS
 62
     1
 10
197.999893188473
 20
-36.5000352859497
 30
0.0
 11
197.999893188473
 21
-24.0000362394802
 31
0.0
  0
LINE
  5
   1AB
  8
0
  6
CONTINUOUS
 62
     1
 10
197.99993896484
 20
-18.5000381469873
 30
0.0
 11
197.99993896484
 21
301.499954223633
 31
0.0
  0
LINE
  5
   1AC
  8
0
  6
CONTINUOUS
 62
     1
 10
197.999908447262
 20
-24.0000381469727
 30
0.0
 11
197.999908447262
 21
-18.5000381469727
 31
0.0
  0
LINE
  5
   1AD
  8
0
  6
CONTINUOUS
 62
     1
 10
201.499908447262
 20
-16.5000343322754
 30
0.0
 11
201.499908447262
 21
281.49996185303
 31
0.0
  0
LINE
  5
   1AE
  8
0
  6
CONTINUOUS
 62
     1
 10
201.49993896484
 20
281.499954223633
 30
0.0
 11
201.49993896484
 21
301.499954223633
 31
0.0
  0
LINE
  5
   1AF
  8
0
  6
CONTINUOUS
 62
     1
 10
201.499908447562
 20
-36.5000352645309
 30
0.0
 11
201.49993896514
 21
-16.5000352645309
 31
0.0
  0
LINE
  5
   1B0
  8
0
  6
CONTINUOUS
 62
     1
 10
195.99993896484
 20
283.499954223633
 30
0.0
 11
197.99993896484
 21
283.499954223633
 31
0.0
  0
LINE
  5
   1B1
  8
0
  6
CONTINUOUS
 62
     1
 10
195.999893188702
 20
-18.5000362396096
 30
0.0
 11
197.999908447491
 21
-18.5000381469582
 31
0.0
  0
LINE
  5
   1B2
  8
0
  6
CONTINUOUS
 62
     1
 10
195.999888375891
 20
-18.5000362396233
 30
0.0
 11
195.999888375891
 21
283.499963760377
 31
0.0
  0
LINE
  5
   1B3
  8
0
  6
CONTINUOUS
 62
     1
 10
192.499938966753
 20
-24.0000209807339
 30
0.0
 11
197.999893188473
 21
-24.0000362394802
 31
0.0
  0
LINE
  5
   1B4
  8
0
  6
CONTINUOUS
 62
     1
 10
191.499926840397
 20
-24.5773753980781
 30
0.0
 11
192.499926873326
 21
-24.000024813565
 31
0.0
  0
LINE
  5
   1B5
  8
0
  6
CONTINUOUS
 62
     1
 10
191.499917577979
 20
-29.4226653773051
 30
0.0
 11
192.499917610904
 21
-30.0000198061698
 31
0.0
  0
LINE
  5
   1B6
  8
0
  6
CONTINUOUS
 62
     1
 10
192.499923707964
 20
-30.000020980757
 30
0.0
 11
197.999893188473
 21
-30.0000362395031
 31
0.0
  0
LINE
  5
   1B7
  8
0
  6
CONTINUOUS
 62
     1
 10
192.499938972491
 20
294.999984746526
 30
0.0
 11
197.999938972491
 21
294.999954228947
 31
0.0
  0
LINE
  5
   1B8
  8
0
  6
CONTINUOUS
 62
     1
 10
191.499928167009
 20
294.422612705264
 30
0.0
 11
192.499928199912
 21
294.999974754035
 31
0.0
  0
LINE
  5
   1B9
  8
0
  6
CONTINUOUS
 62
     1
 10
191.49991840381
 20
289.577340912821
 30
0.0
 11
192.499918436713
 21
288.999978864051
 31
0.0
  0
LINE
  5
   1BA
  8
0
  6
CONTINUOUS
 62
     1
 10
192.499923713702
 20
288.999984746433
 30
0.0
 11
197.999938972491
 21
288.999954228855
 31
0.0
  0
LINE
  5
   1BB
  8
0
  6
DASHDOT
 62
     7
 10
188.890949857947
 20
132.499985329808
 30
0.0
 11
204.117180239084
 21
132.499937379371
 31
0.0
  0
LINE
  5
   1BC
  8
0
  6
DASHDOT
 62
     7
 10
186.890167557559
 20
291.999999261693
 30
0.0
 11
204.415484790032
 21
291.999944070797
 31
0.0
  0
LINE
  5
   1BD
  8
0
  6
DASHDOT
 62
     7
 10
186.013902705825
 20
-27.0000017966934
 30
0.0
 11
208.421271884917
 21
-27.000072361919
 31
0.0
  0
LINE
  5
   1BE
  8
0
  6
DASHDOT
 62
     7
 10
191.105090110885
 20
-14.0000501329705
 30
0.0
 11
205.336197812754
 21
-14.0000501329705
 31
0.0
  0
LINE
  5
   1BF
  8
0
  6
DASHDOT
 62
     7
 10
193.646359343361
 20
278.999960331205
 30
0.0
 11
205.505615761586
 21
278.999960331205
 31
0.0
  0
LINE
  5
   1C0
  8
0
  6
CONTINUOUS
 62
     1
 10
192.499923707964
 20
-30.0000209806424
 30
0.0
 11
192.499938966753
 21
-24.0000209806193
 31
0.0
  0
INSERT
  5
   1C1
  8
0
  6
CONTINUOUS
 62
     7
  2
*HATCH23
 10
0.0
 20
0.0
 30
0.0
  0
LINE
  5
   1C2
  8
0
  6
CONTINUOUS
 62
     7
 10
195.99993896484
 20
295.999965326264
 30
0.0
 11
197.99993896484
 21
295.999954228962
 31
0.0
  0
LINE
  5
   1C3
  8
0
  6
CONTINUOUS
 62
     7
 10
195.99993896484
 20
287.99996532611
 30
0.0
 11
197.99993896484
 21
287.999954228839
 31
0.0
  0
LINE
  5
   1C4
  8
0
  6
CONTINUOUS
 62
     1
 10
192.499923713702
 20
288.999984746433
 30
0.0
 11
192.499938972491
 21
294.999984746526
 31
0.0
  0
LINE
  5
   1C5
  8
0
  6
CONTINUOUS
 62
     7
 10
195.99993896484
 20
-31.0000306909683
 30
0.0
 11
197.999893188473
 21
-31.000036239507
 31
0.0
  0
LINE
  5
   1C6
  8
0
  6
CONTINUOUS
 62
     7
 10
195.999888375891
 20
-23.0000306907818
 30
0.0
 11
197.999893188473
 21
-23.0000362394764
 31
0.0
  0
LINE
  5
   1C7
  8
0
  6
CONTINUOUS
 62
     7
 10
195.999892711869
 20
-19.0000362396094
 30
0.0
 11
197.999908447262
 21
-19.0000381469584
 31
0.0
  0
LINE
  5
   1C8
  8
0
  6
CONTINUOUS
 62
     7
 10
195.99993896484
 20
283.999954223633
 30
0.0
 11
197.99993896484
 21
283.999954223633
 31
0.0
  0
LINE
  5
   1C9
  8
0
  6
CONTINUOUS
 62
     7
 10
195.999888375891
 20
-24.0000362394802
 30
0.0
 11
195.999888375891
 21
-18.5000362396233
 31
0.0
  0
INSERT
  5
   1CA
  8
0
  6
CONTINUOUS
 62
     7
  2
*HATCH24
 10
0.0
 20
0.0
 30
0.0
  0
INSERT
  5
   1CB
  8
0
  6
CONTINUOUS
 62
     7
  2
*HATCH25
 10
0.0
 20
0.0
 30
0.0
  0
INSERT
  5
   1CC
  8
0
  6
CONTINUOUS
 62
     7
  2
*HATCH26
 10
0.0
 20
0.0
 30
0.0
  0
INSERT
  5
   1CD
  8
0
  6
CONTINUOUS
 62
     7
  2
*HATCH27
 10
0.0
 20
0.0
 30
0.0
  0
ENDBLK
  5
   1CE
  8
0
  6
CONTINUOUS
 62
     7
  0
BLOCK
  5
   1CF
  8
0
  6
CONTINUOUS
 62
     7
  2
*UDIM212
 70
    65
 10
0.0
 20
0.0
 30
0.0
  3
*UDIM212
  0
TEXT
  5
   1D0
  8
0
  6
CONTINUOUS
 62
     7
 10
276.54092252081
 20
89.2660656281755
 30
0.0
 40
2.4999999335834
  1
270
 50
90.0
 41
0.933333333333333
 72
     1
 11
275.290922554014
 21
92.5160655418324
 31
0.0
 73
     2
  0
LINE
  5
   1D1
  8
0
  6
CONTINUOUS
 62
     7
 10
256.038789725303
 20
45.4952324062588
 30
0.0
 11
279.540922520806
 21
45.4952324062588
 31
0.0
  0
LINE
  5
   1D2
  8
0
  6
CONTINUOUS
 62
     7
 10
251.838789796828
 20
139.995230796933
 30
0.0
 11
279.540922520806
 21
139.995230796933
 31
0.0
  0
LINE
  5
   1D3
  8
0
  6
CONTINUOUS
 62
     7
 10
277.540922520806
 20
45.4952324062588
 30
0.0
 11
277.540922520806
 21
139.995230796933
 31
0.0
  0
LINE
  5
   1D4
  8
0
  6
CONTINUOUS
 62
     7
 10
277.019978002806
 20
48.4496556679404
 30
0.0
 11
277.540922520806
 21
45.4952324062588
 31
0.0
  0
LINE
  5
   1D5
  8
0
  6
CONTINUOUS
 62
     7
 10
277.540922520806
 20
45.4952324062588
 30
0.0
 11
278.061867038806
 21
48.4496556679404
 31
0.0
  0
LINE
  5
   1D6
  8
0
  6
CONTINUOUS
 62
     7
 10
278.061867038806
 20
137.040807535252
 30
0.0
 11
277.540922520806
 21
139.995230796933
 31
0.0
  0
LINE
  5
   1D7
  8
0
  6
CONTINUOUS
 62
     7
 10
277.540922520806
 20
139.995230796933
 30
0.0
 11
277.019978002806
 21
137.040807535252
 31
0.0
  0
ENDBLK
  5
   1D8
  8
0
  6
CONTINUOUS
 62
     7
  0
BLOCK
  5
   1D9
  8
0
  6
CONTINUOUS
 62
     7
  2
*UDIM213
 70
    65
 10
0.0
 20
0.0
 30
0.0
  3
*UDIM213
  0
TEXT
  5
   1DA
  8
0
  6
CONTINUOUS
 62
     7
 10
270.156883322893
 20
99.3723107329952
 30
0.0
 40
2.4999999335834
  1
192,25
 50
90.0
 41
0.933333333333333
 72
     1
 11
268.906883356093
 21
106.122310553669
 31
0.0
 73
     2
  0
LINE
  5
   1DB
  8
0
  6
CONTINUOUS
 62
     7
 10
264.963789573311
 20
139.995230796933
 30
0.0
 11
273.156883322885
 21
139.995230796933
 31
0.0
  0
LINE
  5
   1DC
  8
0
  6
CONTINUOUS
 62
     7
 10
271.156883322885
 20
72.7077266022566
 30
0.0
 11
271.156883322885
 21
139.995230796933
 31
0.0
  0
LINE
  5
   1DD
  8
0
  6
CONTINUOUS
 62
     7
 10
270.635938804885
 20
75.6621498639382
 30
0.0
 11
271.156883322885
 21
72.7077266022566
 31
0.0
  0
LINE
  5
   1DE
  8
0
  6
CONTINUOUS
 62
     7
 10
271.156883322885
 20
72.7077266022566
 30
0.0
 11
271.677827840885
 21
75.6621498639382
 31
0.0
  0
LINE
  5
   1DF
  8
0
  6
CONTINUOUS
 62
     7
 10
271.677827840885
 20
137.040807535252
 30
0.0
 11
271.156883322885
 21
139.995230796933
 31
0.0
  0
LINE
  5
   1E0
  8
0
  6
CONTINUOUS
 62
     7
 10
271.156883322885
 20
139.995230796933
 30
0.0
 11
270.635938804885
 21
137.040807535252
 31
0.0
  0
ENDBLK
  5
   1E1
  8
0
  6
CONTINUOUS
 62
     7
  0
BLOCK
  5
   1E2
  8
0
  6
CONTINUOUS
 62
     7
  2
*UDIM214
 70
    65
 10
0.0
 20
0.0
 30
0.0
  3
*UDIM214
  0
TEXT
  5
   1E3
  8
0
  6
CONTINUOUS
 62
     7
 10
174.46013393026
 20
40.747318407093
 30
0.0
 40
2.4999999335834
  1
142,75
 50
90.0
 41
0.933333333333333
 72
     1
 11
173.21013396346
 21
47.4973182277666
 31
0.0
 73
     2
  0
LINE
  5
   1E4
  8
0
  6
CONTINUOUS
 62
     7
 10
185.263806918264
 20
22.7452434748409
 30
0.0
 11
173.460133930252
 21
22.7452434748409
 31
0.0
  0
LINE
  5
   1E5
  8
0
  6
CONTINUOUS
 62
     7
 10
177.616634034441
 20
72.7077266022566
 30
0.0
 11
173.460133930252
 21
72.7077266022566
 31
0.0
  0
LINE
  5
   1E6
  8
0
  6
CONTINUOUS
 62
     7
 10
175.460133930252
 20
22.7452434748409
 30
0.0
 11
175.460133930252
 21
72.7077266022566
 31
0.0
  0
LINE
  5
   1E7
  8
0
  6
CONTINUOUS
 62
     7
 10
174.939189412252
 20
25.6996667365225
 30
0.0
 11
175.460133930252
 21
22.7452434748409
 31
0.0
  0
LINE
  5
   1E8
  8
0
  6
CONTINUOUS
 62
     7
 10
175.460133930252
 20
22.7452434748409
 30
0.0
 11
175.981078448252
 21
25.6996667365225
 31
0.0
  0
LINE
  5
   1E9
  8
0
  6
CONTINUOUS
 62
     7
 10
175.981078448252
 20
69.753303340575
 30
0.0
 11
175.460133930252
 21
72.7077266022566
 31
0.0
  0
LINE
  5
   1EA
  8
0
  6
CONTINUOUS
 62
     7
 10
175.460133930252
 20
72.7077266022566
 30
0.0
 11
174.939189412252
 21
69.753303340575
 31
0.0
  0
ENDBLK
  5
   1EB
  8
0
  6
CONTINUOUS
 62
     7
  0
BLOCK
  5
   1EC
  8
0
  6
CONTINUOUS
 62
     7
  2
*UDIM215
 70
    65
 10
0.0
 20
0.0
 30
0.0
  3
*UDIM215
  0
TEXT
  5
   1ED
  8
0
  6
CONTINUOUS
 62
     7
 10
214.488805696112
 20
174.054315316948
 30
0.0
 40
2.4999999335834
  1
198,5
 41
0.933333333333333
 72
     1
 11
220.072138881115
 21
175.30431528374
 31
0.0
 73
     2
  0
LINE
  5
   1EE
  8
0
  6
CONTINUOUS
 62
     7
 10
255.038800406455
 20
162.643507440903
 30
0.0
 11
255.038800406455
 21
175.054315316948
 31
0.0
  0
LINE
  5
   1EF
  8
0
  6
CONTINUOUS
 62
     7
 10
185.563812270761
 20
173.054315316948
 30
0.0
 11
255.038800406455
 21
173.054315316948
 31
0.0
  0
LINE
  5
   1F0
  8
0
  6
CONTINUOUS
 62
     7
 10
188.518235532442
 20
173.575259834949
 30
0.0
 11
185.563812270761
 21
173.054315316948
 31
0.0
  0
LINE
  5
   1F1
  8
0
  6
CONTINUOUS
 62
     7
 10
185.563812270761
 20
173.054315316948
 30
0.0
 11
188.518235532442
 21
172.533370798948
 31
0.0
  0
LINE
  5
   1F2
  8
0
  6
CONTINUOUS
 62
     7
 10
252.084377144773
 20
172.533370798948
 30
0.0
 11
255.038800406455
 21
173.054315316948
 31
0.0
  0
LINE
  5
   1F3
  8
0
  6
CONTINUOUS
 62
     7
 10
255.038800406455
 20
173.054315316948
 30
0.0
 11
252.084377144773
 21
173.575259834949
 31
0.0
  0
ENDBLK
  5
   1F4
  8
0
  6
CONTINUOUS
 62
     7
  0
BLOCK
  5
   1F5
  8
0
  6
CONTINUOUS
 62
     7
  2
*UDIM216
 70
    65
 10
0.0
 20
0.0
 30
0.0
  3
*UDIM216
  0
TEXT
  5
   1F6
  8
0
  6
CONTINUOUS
 62
     7
 10
249.747133171075
 20
174.054315316948
 30
0.0
 40
2.4999999335834
  1
2
 41
0.933333333333333
 72
     1
 11
250.663799813389
 21
175.30431528374
 31
0.0
 73
     2
  0
LINE
  5
   1F7
  8
0
  6
CONTINUOUS
 62
     7
 10
255.738800394534
 20
162.56850744218
 30
0.0
 11
255.738800394534
 21
175.054315316948
 31
0.0
  0
LINE
  5
   1F8
  8
0
  6
CONTINUOUS
 62
     7
 10
249.747133171075
 20
173.054315316948
 30
0.0
 11
255.738800394534
 21
173.054315316948
 31
0.0
  0
LINE
  5
   1F9
  8
0
  6
CONTINUOUS
 62
     7
 10
252.084377144773
 20
172.533370798948
 30
0.0
 11
255.038800406455
 21
173.054315316948
 31
0.0
  0
LINE
  5
   1FA
  8
0
  6
CONTINUOUS
 62
     7
 10
255.038800406455
 20
173.054315316948
 30
0.0
 11
252.084377144773
 21
173.575259834949
 31
0.0
  0
LINE
  5
   1FB
  8
0
  6
CONTINUOUS
 62
     7
 10
258.693223656216
 20
173.575259834949
 30
0.0
 11
255.738800394534
 21
173.054315316948
 31
0.0
  0
LINE
  5
   1FC
  8
0
  6
CONTINUOUS
 62
     7
 10
255.738800394534
 20
173.054315316948
 30
0.0
 11
258.693223656216
 21
172.533370798948
 31
0.0
  0
ENDBLK
  5
   1FD
  8
0
  6
CONTINUOUS
 62
     7
  0
BLOCK
  5
   1FE
  8
0
  6
CONTINUOUS
 62
     7
  2
*UDIM217
 70
    65
 10
0.0
 20
0.0
 30
0.0
  3
*UDIM217
  0
TEXT
  5
   1FF
  8
0
  6
CONTINUOUS
 62
     7
 10
266.901288548154
 20
174.054315316948
 30
0.0
 40
2.4999999335834
  1
23,5
 41
0.933333333333333
 72
     1
 11
271.317955097484
 21
175.30431528374
 31
0.0
 73
     2
  0
LINE
  5
   200
  8
0
  6
CONTINUOUS
 62
     7
 10
263.963789573311
 20
140.995230796933
 30
0.0
 11
263.963789573311
 21
175.054315316948
 31
0.0
  0
LINE
  5
   201
  8
0
  6
CONTINUOUS
 62
     7
 10
255.738800394534
 20
173.054315316948
 30
0.0
 11
275.734621646815
 21
173.054315316948
 31
0.0
  0
LINE
  5
   202
  8
0
  6
CONTINUOUS
 62
     7
 10
258.693223656216
 20
173.575259834949
 30
0.0
 11
255.738800394534
 21
173.054315316948
 31
0.0
  0
LINE
  5
   203
  8
0
  6
CONTINUOUS
 62
     7
 10
255.738800394534
 20
173.054315316948
 30
0.0
 11
258.693223656216
 21
172.533370798948
 31
0.0
  0
LINE
  5
   204
  8
0
  6
CONTINUOUS
 62
     7
 10
261.009366311629
 20
172.533370798948
 30
0.0
 11
263.963789573311
 21
173.054315316948
 31
0.0
  0
LINE
  5
   205
  8
0
  6
CONTINUOUS
 62
     7
 10
263.963789573311
 20
173.054315316948
 30
0.0
 11
261.009366311629
 21
173.575259834949
 31
0.0
  0
ENDBLK
  5
   206
  8
0
  6
CONTINUOUS
 62
     7
  0
BLOCK
  5
   207
  8
0
  6
CONTINUOUS
 62
     7
  2
*UDIM218
 70
    65
 10
0.0
 20
0.0
 30
0.0
  3
*UDIM218
  0
TEXT
  5
   208
  8
0
  6
CONTINUOUS
 62
     7
 10
233.50546470537
 20
17.9013154280003
 30
0.0
 40
2.4999999335834
  1
96,5
 41
0.933333333333333
 72
     1
 11
237.9221312547
 21
19.151315394792
 31
0.0
 73
     2
  0
LINE
  5
   209
  8
0
  6
CONTINUOUS
 62
     7
 10
221.263790300488
 20
44.4952324062588
 30
0.0
 11
221.263790300488
 21
14.9013154280003
 31
0.0
  0
LINE
  5
   20A
  8
0
  6
CONTINUOUS
 62
     7
 10
255.038800406455
 20
18.4596230104769
 30
0.0
 11
255.038800406455
 21
14.9013154280003
 31
0.0
  0
LINE
  5
   20B
  8
0
  6
CONTINUOUS
 62
     7
 10
221.263790300488
 20
16.9013154280003
 30
0.0
 11
255.038800406455
 21
16.9013154280003
 31
0.0
  0
LINE
  5
   20C
  8
0
  6
CONTINUOUS
 62
     7
 10
224.218213562169
 20
17.4222599460007
 30
0.0
 11
221.263790300488
 21
16.9013154280003
 31
0.0
  0
LINE
  5
   20D
  8
0
  6
CONTINUOUS
 62
     7
 10
221.263790300488
 20
16.9013154280003
 30
0.0
 11
224.218213562169
 21
16.38037091
 31
0.0
  0
LINE
  5
   20E
  8
0
  6
CONTINUOUS
 62
     7
 10
252.084377144773
 20
16.38037091
 30
0.0
 11
255.038800406455
 21
16.9013154280003
 31
0.0
  0
LINE
  5
   20F
  8
0
  6
CONTINUOUS
 62
     7
 10
255.038800406455
 20
16.9013154280003
 30
0.0
 11
252.084377144773
 21
17.4222599460007
 31
0.0
  0
ENDBLK
  5
   210
  8
0
  6
CONTINUOUS
 62
     7
  0
BLOCK
  5
   211
  8
0
  6
CONTINUOUS
 62
     7
  2
*UDIM219
 70
    65
 10
0.0
 20
0.0
 30
0.0
  3
*UDIM219
  0
TEXT
  5
   212
  8
0
  6
CONTINUOUS
 62
     7
 10
54.8363793193575
 20
-30.2993908548933
 30
0.0
 40
2.50000005960464
  1
8
 50
348.103052998606
 41
0.933333333333333
 72
     1
 11
55.9910460439349
 21
-29.2652135743921
 31
0.0
 73
     2
  0
TEXT
  5
   213
  8
0
  6
CONTINUOUS
 62
     7
 10
52.2677643310691
 20
-29.7582417296733
 30
0.0
 40
2.50000005960464
  1
Ø
 50
348.103052998606
 41
0.933333333333333
 72
     1
 11
53.4224310556465
 21
-28.7240644491721
 31
0.0
 73
     2
  0
TEXT
  5
   214
  8
0
  6
CONTINUOUS
 62
     7
 10
57.0788209500427
 20
-30.7718225995464
 30
0.0
 40
2.50000005960464
  1
 N_7 Fori
 50
348.103052998606
 41
0.933333333333333
 72
     1
 11
67.3663409576299
 21
-31.6617311216826
 31
0.0
 73
     2
  0
LINE
  5
   215
  8
0
  6
CONTINUOUS
 62
     7
 10
52.0616122911682
 20
-30.7367617046478
 30
0.0
 11
90.6610257618369
 21
-38.8687857444122
 31
0.0
  0
LINE
  5
   216
  8
0
  6
CONTINUOUS
 62
     7
 10
85.7056298748205
 20
-38.3571758836513
 30
0.0
 11
88.7039858181641
 21
-38.4564816589934
 31
0.0
  0
LINE
  5
   217
  8
0
  6
CONTINUOUS
 62
     7
 10
88.7039858181641
 20
-38.4564816589934
 30
0.0
 11
85.920417427869
 21
-37.3376666534852
 31
0.0
  0
LINE
  5
   218
  8
0
  6
CONTINUOUS
 62
     7
 10
93.6593817051805
 20
-38.9680915197542
 30
0.0
 11
90.6610257618369
 21
-38.8687857444122
 31
0.0
  0
LINE
  5
   219
  8
0
  6
CONTINUOUS
 62
     7
 10
90.6610257618369
 20
-38.8687857444122
 30
0.0
 11
93.444594152132
 21
-39.9876007499203
 31
0.0
  0
ENDBLK
  5
   21A
  8
0
  6
CONTINUOUS
 62
     7
  0
BLOCK
  5
   21B
  8
0
  6
CONTINUOUS
 62
     7
  2
*UDIM220
 70
    65
 10
0.0
 20
0.0
 30
0.0
  3
*UDIM220
  0
TEXT
  5
   21C
  8
0
  6
CONTINUOUS
 62
     7
 10
167.070365890605
 20
-104.287645217792
 30
0.0
 40
2.50000005960464
  1
159,5
 50
449.999999844103
 41
0.933333333333333
 72
     1
 11
165.820365875959
 21
-98.7043117479485
 31
0.0
 73
     2
  0
LINE
  5
   21D
  8
0
  6
CONTINUOUS
 62
     7
 10
143.597921828064
 20
-78.5376449530774
 30
0.0
 11
170.070365905762
 21
-78.5376449530774
 31
0.0
  0
LINE
  5
   21E
  8
0
  6
CONTINUOUS
 62
     7
 10
132.682500252539
 20
-118.412645765796
 30
0.0
 11
170.070365905762
 21
-118.412645765796
 31
0.0
  0
LINE
  5
   21F
  8
0
  6
CONTINUOUS
 62
     7
 10
168.070365905762
 20
-78.5376449530774
 30
0.0
 11
168.070365905762
 21
-118.412645765796
 31
0.0
  0
LINE
  5
   220
  8
0
  6
CONTINUOUS
 62
     7
 10
168.591310423762
 20
-81.492068214759
 30
0.0
 11
168.070365905762
 21
-78.5376449530774
 31
0.0
  0
LINE
  5
   221
  8
0
  6
CONTINUOUS
 62
     7
 10
168.070365905762
 20
-78.5376449530774
 30
0.0
 11
167.549421387761
 21
-81.492068214759
 31
0.0
  0
LINE
  5
   222
  8
0
  6
CONTINUOUS
 62
     7
 10
167.549421387761
 20
-115.458222504115
 30
0.0
 11
168.070365905762
 21
-118.412645765796
 31
0.0
  0
LINE
  5
   223
  8
0
  6
CONTINUOUS
 62
     7
 10
168.070365905762
 20
-118.412645765796
 30
0.0
 11
168.591310423762
 21
-115.458222504115
 31
0.0
  0
ENDBLK
  5
   224
  8
0
  6
CONTINUOUS
 62
     7
  0
BLOCK
  5
   225
  8
0
  6
CONTINUOUS
 62
     7
  2
*UDIM221
 70
    65
 10
0.0
 20
0.0
 30
0.0
  3
*UDIM221
  0
TEXT
  5
   226
  8
0
  6
CONTINUOUS
 62
     7
 10
160.686325054918
 20
-112.61056262753
 30
0.0
 40
2.50000005960464
  1
102,25
 50
449.999999844103
 41
0.933333333333333
 72
     1
 11
159.43632504344
 21
-105.860562463204
 31
0.0
 73
     2
  0
LINE
  5
   227
  8
0
  6
CONTINUOUS
 62
     7
 10
132.682500252539
 20
-118.412645765796
 30
0.0
 11
163.686325073242
 21
-118.412645765796
 31
0.0
  0
LINE
  5
   228
  8
0
  6
CONTINUOUS
 62
     7
 10
161.686325073242
 20
-92.8501449530774
 30
0.0
 11
161.686325073242
 21
-118.412645765796
 31
0.0
  0
LINE
  5
   229
  8
0
  6
CONTINUOUS
 62
     7
 10
162.207269591243
 20
-95.804568214759
 30
0.0
 11
161.686325073242
 21
-92.8501449530774
 31
0.0
  0
LINE
  5
   22A
  8
0
  6
CONTINUOUS
 62
     7
 10
161.686325073242
 20
-92.8501449530774
 30
0.0
 11
161.165380555242
 21
-95.804568214759
 31
0.0
  0
LINE
  5
   22B
  8
0
  6
CONTINUOUS
 62
     7
 10
161.165380555242
 20
-115.458222504115
 30
0.0
 11
161.686325073242
 21
-118.412645765796
 31
0.0
  0
LINE
  5
   22C
  8
0
  6
CONTINUOUS
 62
     7
 10
161.686325073242
 20
-118.412645765796
 30
0.0
 11
162.207269591243
 21
-115.458222504115
 31
0.0
  0
ENDBLK
  5
   22D
  8
0
  6
CONTINUOUS
 62
     7
  0
BLOCK
  5
   22E
  8
0
  6
CONTINUOUS
 62
     2
  2
*UDIM222
 70
    65
 10
0.0
 20
0.0
 30
0.0
  3
*UDIM222
  0
TEXT
  5
   22F
  8
0
  6
CONTINUOUS
 62
     2
 10
113.063890378573
 20
-136.908134454604
 30
0.0
 40
2.50000005960464
  1
122
 50
359.999999844103
 41
0.933333333333333
 72
     1
 11
116.313890459453
 21
-135.658134433628
 31
0.0
 73
     2
  0
TEXT
  5
   230
  8
0
  6
CONTINUOUS
 62
     2
 10
121.063890570326
 20
-136.533134425231
 30
0.0
 40
1.75
  1
±0,1
 50
359.999999844103
 41
0.933333333333333
 72
     1
 11
124.155557239369
 21
-135.658134433628
 31
0.0
 73
     2
  0
LINE
  5
   231
  8
0
  6
CONTINUOUS
 62
     2
 10
135.557498791406
 20
-105.662645731555
 30
0.0
 11
135.557498791406
 21
-139.90813446343
 31
0.0
  0
LINE
  5
   232
  8
0
  6
CONTINUOUS
 62
     2
 10
105.057491330347
 20
-137.90813446343
 30
0.0
 11
135.557498791406
 21
-137.90813446343
 31
0.0
  0
LINE
  5
   233
  8
0
  6
CONTINUOUS
 62
     2
 10
108.011914592028
 20
-137.38718994543
 30
0.0
 11
105.057491330347
 21
-137.90813446343
 31
0.0
  0
LINE
  5
   234
  8
0
  6
CONTINUOUS
 62
     2
 10
105.057491330347
 20
-137.90813446343
 30
0.0
 11
108.011914592028
 21
-138.429078981431
 31
0.0
  0
LINE
  5
   235
  8
0
  6
CONTINUOUS
 62
     2
 10
132.603075529725
 20
-138.429078981431
 30
0.0
 11
135.557498791406
 21
-137.90813446343
 31
0.0
  0
LINE
  5
   236
  8
0
  6
CONTINUOUS
 62
     2
 10
135.557498791406
 20
-137.90813446343
 30
0.0
 11
132.603075529725
 21
-137.38718994543
 31
0.0
  0
ENDBLK
  5
   237
  8
0
  6
CONTINUOUS
 62
     2
  0
BLOCK
  5
   238
  8
0
  6
CONTINUOUS
 62
     2
  2
*UDIM223
 70
    65
 10
0.0
 20
0.0
 30
0.0
  3
*UDIM223
  0
TEXT
  5
   239
  8
0
  6
CONTINUOUS
 62
     2
 10
101.578331958251
 20
-130.260233873244
 30
0.0
 40
2.50000005960464
  1
174
 50
359.999999844103
 41
0.933333333333333
 72
     1
 11
104.828332039132
 21
-129.010233852268
 31
0.0
 73
     2
  0
LINE
  5
   23A
  8
0
  6
CONTINUOUS
 62
     2
 10
83.3075006158198
 20
-117.537648677826
 30
0.0
 11
83.3075006158198
 21
-133.260233882071
 31
0.0
  0
LINE
  5
   23B
  8
0
  6
CONTINUOUS
 62
     2
 10
126.807498981282
 20
-117.537648677826
 30
0.0
 11
126.807498981282
 21
-133.260233882071
 31
0.0
  0
LINE
  5
   23C
  8
0
  6
CONTINUOUS
 62
     2
 10
83.3075006158198
 20
-131.260233882071
 30
0.0
 11
126.807498981282
 21
-131.260233882071
 31
0.0
  0
LINE
  5
   23D
  8
0
  6
CONTINUOUS
 62
     2
 10
86.2619238775014
 20
-130.73928936407
 30
0.0
 11
83.3075006158198
 21
-131.260233882071
 31
0.0
  0
LINE
  5
   23E
  8
0
  6
CONTINUOUS
 62
     2
 10
83.3075006158198
 20
-131.260233882071
 30
0.0
 11
86.2619238775014
 21
-131.781178400071
 31
0.0
  0
LINE
  5
   23F
  8
0
  6
CONTINUOUS
 62
     2
 10
123.8530757196
 20
-131.781178400071
 30
0.0
 11
126.807498981282
 21
-131.260233882071
 31
0.0
  0
LINE
  5
   240
  8
0
  6
CONTINUOUS
 62
     2
 10
126.807498981282
 20
-131.260233882071
 30
0.0
 11
123.8530757196
 21
-130.73928936407
 31
0.0
  0
ENDBLK
  5
   241
  8
0
  6
CONTINUOUS
 62
     2
  0
BLOCK
  5
   242
  8
0
  6
CONTINUOUS
 62
     2
  2
*UDIM224
 70
    65
 10
0.0
 20
0.0
 30
0.0
  3
*UDIM224
  0
TEXT
  5
   243
  8
0
  6
CONTINUOUS
 62
     2
 10
112.911670663492
 20
-27.8391799804933
 30
0.0
 40
2.50000005960464
  1
19,75
 50
359.999999844103
 41
0.933333333333333
 72
     1
 11
118.495004133337
 21
-26.5891799658547
 31
0.0
 73
     2
  0
LINE
  5
   244
  8
0
  6
CONTINUOUS
 62
     2
 10
109.995005492235
 20
-36.2876464287322
 30
0.0
 11
109.995005492235
 21
-26.839179995657
 31
0.0
  0
LINE
  5
   245
  8
0
  6
CONTINUOUS
 62
     2
 10
105.057491330347
 20
-28.839179995657
 30
0.0
 11
124.078337599787
 21
-28.839179995657
 31
0.0
  0
LINE
  5
   246
  8
0
  6
CONTINUOUS
 62
     2
 10
102.103068068665
 20
-29.3601245136573
 30
0.0
 11
105.057491330347
 21
-28.839179995657
 31
0.0
  0
LINE
  5
   247
  8
0
  6
CONTINUOUS
 62
     2
 10
105.057491330347
 20
-28.839179995657
 30
0.0
 11
102.103068068665
 21
-28.3182354776567
 31
0.0
  0
LINE
  5
   248
  8
0
  6
CONTINUOUS
 62
     2
 10
112.949428753917
 20
-28.3182354776567
 30
0.0
 11
109.995005492235
 21
-28.839179995657
 31
0.0
  0
LINE
  5
   249
  8
0
  6
CONTINUOUS
 62
     2
 10
109.995005492235
 20
-28.839179995657
 30
0.0
 11
112.949428753917
 21
-29.3601245136573
 31
0.0
  0
ENDBLK
  5
   24A
  8
0
  6
CONTINUOUS
 62
     2
  0
BLOCK
  5
   24B
  8
0
  6
CONTINUOUS
 62
     7
  2
*UDIM225
 70
    65
 10
0.0
 20
0.0
 30
0.0
  3
*UDIM225
  0
TEXT
  5
   24C
  8
0
  6
CONTINUOUS
 62
     7
 10
111.191627207116
 20
-20.8160934326417
 30
0.0
 40
2.50000005960464
  1
81,25
 50
359.999999844103
 41
0.933333333333333
 72
     1
 11
116.774960676962
 21
-19.5660934180031
 31
0.0
 73
     2
  0
TEXT
  5
   24D
  8
0
  6
CONTINUOUS
 62
     7
 10
123.858294176798
 20
-20.4410934096065
 30
0.0
 40
1.75
  1
±0,1
 50
359.999999844103
 41
0.933333333333333
 72
     1
 11
126.949960845841
 21
-19.5660934180031
 31
0.0
 73
     2
  0
LINE
  5
   24E
  8
0
  6
CONTINUOUS
 62
     2
 10
109.995002491129
 20
-116.03764540177
 30
0.0
 11
109.995002491129
 21
-19.8160934478054
 31
0.0
  0
LINE
  5
   24F
  8
0
  6
CONTINUOUS
 62
     2
 10
130.307500252539
 20
-116.037645765796
 30
0.0
 11
130.307500252539
 21
-19.8160934478054
 31
0.0
  0
LINE
  5
   250
  8
0
  6
CONTINUOUS
 62
     2
 10
109.995002491129
 20
-21.8160934478054
 30
0.0
 11
130.307500252539
 21
-21.8160934478054
 31
0.0
  0
LINE
  5
   251
  8
0
  6
CONTINUOUS
 62
     2
 10
107.040579229447
 20
-22.3370379658058
 30
0.0
 11
109.995002491129
 21
-21.8160934478054
 31
0.0
  0
LINE
  5
   252
  8
0
  6
CONTINUOUS
 62
     2
 10
109.995002491129
 20
-21.8160934478054
 30
0.0
 11
107.040579229447
 21
-21.2951489298051
 31
0.0
  0
LINE
  5
   253
  8
0
  6
CONTINUOUS
 62
     2
 10
133.261923514221
 20
-21.2951489298051
 30
0.0
 11
130.307500252539
 21
-21.8160934478054
 31
0.0
  0
LINE
  5
   254
  8
0
  6
CONTINUOUS
 62
     2
 10
130.307500252539
 20
-21.8160934478054
 30
0.0
 11
133.261923514221
 21
-22.3370379658058
 31
0.0
  0
ENDBLK
  5
   255
  8
0
  6
CONTINUOUS
 62
     7
  0
BLOCK
  5
   256
  8
0
  6
CONTINUOUS
 62
     7
  2
*UDIM226
 70
    65
 10
0.0
 20
0.0
 30
0.0
  3
*UDIM226
  0
TEXT
  5
   257
  8
0
  6
CONTINUOUS
 62
     7
 10
83.7528644178253
 20
-20.8160934326417
 30
0.0
 40
2.50000005960464
  1
81,25
 50
359.999999844103
 41
0.933333333333333
 72
     1
 11
89.3361978876705
 21
-19.5660934180031
 31
0.0
 73
     2
  0
TEXT
  5
   258
  8
0
  6
CONTINUOUS
 62
     7
 10
96.4195313875073
 20
-20.4410934096065
 30
0.0
 40
1.75
  1
±0,1
 50
359.999999844103
 41
0.933333333333333
 72
     1
 11
99.5111980565503
 21
-19.5660934180031
 31
0.0
 73
     2
  0
LINE
  5
   259
  8
0
  6
CONTINUOUS
 62
     2
 10
89.6825059044068
 20
-116.037645258758
 30
0.0
 11
89.6825059044068
 21
-19.8160934478054
 31
0.0
  0
LINE
  5
   25A
  8
0
  6
CONTINUOUS
 62
     2
 10
83.7528644212202
 20
-21.8160934478054
 30
0.0
 11
109.995002491129
 21
-21.8160934478054
 31
0.0
  0
LINE
  5
   25B
  8
0
  6
CONTINUOUS
 62
     2
 10
92.6369291660884
 20
-21.2951489298051
 30
0.0
 11
89.6825059044068
 21
-21.8160934478054
 31
0.0
  0
LINE
  5
   25C
  8
0
  6
CONTINUOUS
 62
     2
 10
89.6825059044068
 20
-21.8160934478054
 30
0.0
 11
92.6369291660884
 21
-22.3370379658058
 31
0.0
  0
LINE
  5
   25D
  8
0
  6
CONTINUOUS
 62
     2
 10
107.040579229447
 20
-22.3370379658058
 30
0.0
 11
109.995002491129
 21
-21.8160934478054
 31
0.0
  0
LINE
  5
   25E
  8
0
  6
CONTINUOUS
 62
     2
 10
109.995002491129
 20
-21.8160934478054
 30
0.0
 11
107.040579229447
 21
-21.2951489298051
 31
0.0
  0
ENDBLK
  5
   25F
  8
0
  6
CONTINUOUS
 62
     7
  0
BLOCK
  5
   260
  8
0
  6
CONTINUOUS
 62
     2
  2
*UDIM227
 70
    65
 10
0.0
 20
0.0
 30
0.0
  3
*UDIM227
  0
TEXT
  5
   261
  8
0
  6
CONTINUOUS
 62
     2
 10
67.0776214511384
 20
-82.0168180380422
 30
0.0
 40
2.50000005960464
  1
304
 50
449.999999844103
 41
0.933333333333333
 72
     1
 11
65.8276214301586
 21
-78.7668179571629
 31
0.0
 73
     2
  0
LINE
  5
   262
  8
0
  6
CONTINUOUS
 62
     2
 10
82.3074817594313
 20
-40.5376510620117
 30
0.0
 11
66.0776214599609
 21
-40.5376510620117
 31
0.0
  0
LINE
  5
   263
  8
0
  6
CONTINUOUS
 62
     2
 10
82.3075006158198
 20
-116.537648677826
 30
0.0
 11
66.0776214599609
 21
-116.537648677826
 31
0.0
  0
LINE
  5
   264
  8
0
  6
CONTINUOUS
 62
     2
 10
68.0776214599609
 20
-40.5376510620117
 30
0.0
 11
68.0776214599609
 21
-116.537648677826
 31
0.0
  0
LINE
  5
   265
  8
0
  6
CONTINUOUS
 62
     2
 10
68.5985659779613
 20
-43.4920743236933
 30
0.0
 11
68.0776214599609
 21
-40.5376510620117
 31
0.0
  0
LINE
  5
   266
  8
0
  6
CONTINUOUS
 62
     2
 10
68.0776214599609
 20
-40.5376510620117
 30
0.0
 11
67.5566769419606
 21
-43.4920743236933
 31
0.0
  0
LINE
  5
   267
  8
0
  6
CONTINUOUS
 62
     2
 10
67.5566769419606
 20
-113.583225416144
 30
0.0
 11
68.0776214599609
 21
-116.537648677826
 31
0.0
  0
LINE
  5
   268
  8
0
  6
CONTINUOUS
 62
     2
 10
68.0776214599609
 20
-116.537648677826
 30
0.0
 11
68.5985659779613
 21
-113.583225416144
 31
0.0
  0
ENDBLK
  5
   269
  8
0
  6
CONTINUOUS
 62
     2
  0
BLOCK
  5
   26A
  8
0
  6
CONTINUOUS
 62
     2
  2
*UDIM228
 70
    65
 10
0.0
 20
0.0
 30
0.0
  3
*UDIM228
  0
TEXT
  5
   26B
  8
0
  6
CONTINUOUS
 62
     2
 10
131.758887007512
 20
-90.2751318079783
 30
0.0
 40
2.50000005960464
  1
8
 50
308.777452407068
 41
0.933333333333333
 72
     1
 11
133.307473306871
 21
-90.2068795861002
 31
0.0
 73
     2
  0
TEXT
  5
   26C
  8
0
  6
CONTINUOUS
 62
     2
 10
130.323622868534
 20
-88.488583999564
 30
0.0
 40
2.50000005960464
  1
R
 50
308.777452407068
 41
0.933333333333333
 72
     1
 11
131.872209167893
 21
-88.4203317776859
 31
0.0
 73
     2
  0
LINE
  5
   26D
  8
0
  6
CONTINUOUS
 62
     2
 10
129.544038378613
 20
-89.1148810760819
 30
0.0
 11
143.699362180551
 21
-106.734747711747
 31
0.0
  0
LINE
  5
   26E
  8
0
  6
CONTINUOUS
 62
     2
 10
136.561373001484
 20
-97.0179368857052
 30
0.0
 11
134.304906095886
 21
-95.0409803601483
 31
0.0
  0
LINE
  5
   26F
  8
0
  6
CONTINUOUS
 62
     2
 10
134.304906095886
 20
-95.0409803601483
 30
0.0
 11
135.749132468606
 21
-97.6704689386253
 31
0.0
  0
ENDBLK
  5
   270
  8
0
  6
CONTINUOUS
 62
     2
  0
BLOCK
  5
   271
  8
0
  6
CONTINUOUS
 62
     7
  2
*UDIM229
 70
    65
 10
0.0
 20
0.0
 30
0.0
  3
*UDIM229
  0
TEXT
  5
   272
  8
0
  6
CONTINUOUS
 62
     7
 10
143.051727279765
 20
-91.7115610799725
 30
0.0
 40
2.50000005960464
  1
72,25
 50
449.999999844103
 41
0.933333333333333
 72
     1
 11
141.80172726512
 21
-86.1282276101288
 31
0.0
 73
     2
  0
LINE
  5
   273
  8
0
  6
CONTINUOUS
 62
     2
 10
143.597921828064
 20
-78.5376449530774
 30
0.0
 11
146.051727294922
 21
-78.5376449530774
 31
0.0
  0
LINE
  5
   274
  8
0
  6
CONTINUOUS
 62
     2
 10
138.932500240508
 20
-96.6001493403614
 30
0.0
 11
146.051727294922
 21
-96.6001493403614
 31
0.0
  0
LINE
  5
   275
  8
0
  6
CONTINUOUS
 62
     2
 10
144.051727294922
 20
-78.5376449530774
 30
0.0
 11
144.051727294922
 21
-96.6001493403614
 31
0.0
  0
LINE
  5
   276
  8
0
  6
CONTINUOUS
 62
     2
 10
144.572671812922
 20
-81.492068214759
 30
0.0
 11
144.051727294922
 21
-78.5376449530774
 31
0.0
  0
LINE
  5
   277
  8
0
  6
CONTINUOUS
 62
     2
 10
144.051727294922
 20
-78.5376449530774
 30
0.0
 11
143.530782776922
 21
-81.492068214759
 31
0.0
  0
LINE
  5
   278
  8
0
  6
CONTINUOUS
 62
     2
 10
143.530782776922
 20
-93.6457260786798
 30
0.0
 11
144.051727294922
 21
-96.6001493403614
 31
0.0
  0
LINE
  5
   279
  8
0
  6
CONTINUOUS
 62
     2
 10
144.051727294922
 20
-96.6001493403614
 30
0.0
 11
144.572671812922
 21
-93.6457260786798
 31
0.0
  0
ENDBLK
  5
   27A
  8
0
  6
CONTINUOUS
 62
     7
  0
BLOCK
  5
   27B
  8
0
  6
CONTINUOUS
 62
     7
  2
*UDIM230
 70
    65
 10
0.0
 20
0.0
 30
0.0
  3
*UDIM230
  0
TEXT
  5
   27C
  8
0
  6
CONTINUOUS
 62
     7
 10
143.051727279765
 20
-116.829309252872
 30
0.0
 40
2.50000005960464
  1
22,75
 50
449.999999844103
 41
0.933333333333333
 72
     1
 11
141.80172726512
 21
-111.245975783028
 31
0.0
 73
     2
  0
LINE
  5
   27D
  8
0
  6
CONTINUOUS
 62
     2
 10
138.932498791406
 20
-102.287645731555
 30
0.0
 11
146.051727294922
 21
-102.287645731555
 31
0.0
  0
LINE
  5
   27E
  8
0
  6
CONTINUOUS
 62
     2
 10
144.051727294922
 20
-96.6001493403614
 30
0.0
 11
144.051727294922
 21
-116.829309249479
 31
0.0
  0
LINE
  5
   27F
  8
0
  6
CONTINUOUS
 62
     2
 10
143.530782776922
 20
-93.6457260786798
 30
0.0
 11
144.051727294922
 21
-96.6001493403614
 31
0.0
  0
LINE
  5
   280
  8
0
  6
CONTINUOUS
 62
     2
 10
144.051727294922
 20
-96.6001493403614
 30
0.0
 11
144.572671812922
 21
-93.6457260786798
 31
0.0
  0
LINE
  5
   281
  8
0
  6
CONTINUOUS
 62
     2
 10
144.572671812922
 20
-105.242068993237
 30
0.0
 11
144.051727294922
 21
-102.287645731555
 31
0.0
  0
LINE
  5
   282
  8
0
  6
CONTINUOUS
 62
     2
 10
144.051727294922
 20
-102.287645731555
 30
0.0
 11
143.530782776922
 21
-105.242068993237
 31
0.0
  0
ENDBLK
  5
   283
  8
0
  6
CONTINUOUS
 62
     7
  0
BLOCK
  5
   284
  8
0
  6
CONTINUOUS
 62
     2
  2
*UDIM231
 70
    65
 10
0.0
 20
0.0
 30
0.0
  3
*UDIM231
  0
TEXT
  5
   285
  8
0
  6
CONTINUOUS
 62
     2
 10
73.5719795075484
 20
-110.506397135743
 30
0.0
 40
2.50000005960464
  1
94,75
 50
449.999999844103
 41
0.933333333333333
 72
     1
 11
72.3219794929028
 21
-104.923063665899
 31
0.0
 73
     2
  0
LINE
  5
   286
  8
0
  6
CONTINUOUS
 62
     2
 10
82.3075006158198
 20
-116.537648677826
 30
0.0
 11
72.5719795227051
 21
-116.537648677826
 31
0.0
  0
LINE
  5
   287
  8
0
  6
CONTINUOUS
 62
     2
 10
74.5719795227051
 20
-92.8501449530774
 30
0.0
 11
74.5719795227051
 21
-116.537648677826
 31
0.0
  0
LINE
  5
   288
  8
0
  6
CONTINUOUS
 62
     2
 10
75.0929240407054
 20
-95.804568214759
 30
0.0
 11
74.5719795227051
 21
-92.8501449530774
 31
0.0
  0
LINE
  5
   289
  8
0
  6
CONTINUOUS
 62
     2
 10
74.5719795227051
 20
-92.8501449530774
 30
0.0
 11
74.0510350047047
 21
-95.804568214759
 31
0.0
  0
LINE
  5
   28A
  8
0
  6
CONTINUOUS
 62
     2
 10
74.0510350047047
 20
-113.583225416144
 30
0.0
 11
74.5719795227051
 21
-116.537648677826
 31
0.0
  0
LINE
  5
   28B
  8
0
  6
CONTINUOUS
 62
     2
 10
74.5719795227051
 20
-116.537648677826
 30
0.0
 11
75.0929240407054
 21
-113.583225416144
 31
0.0
  0
ENDBLK
  5
   28C
  8
0
  6
CONTINUOUS
 62
     2
  0
BLOCK
  5
   28D
  8
0
  6
CONTINUOUS
 62
     2
  2
*UDIM232
 70
    65
 10
0.0
 20
0.0
 30
0.0
  3
*UDIM232
  0
TEXT
  5
   28E
  8
0
  6
CONTINUOUS
 62
     2
 10
173.42704772067
 20
-82.0168104033187
 30
0.0
 40
2.50000005960464
  1
319
 50
449.999999844103
 41
0.933333333333333
 72
     1
 11
172.17704769969
 21
-78.7668103224394
 31
0.0
 73
     2
  0
LINE
  5
   28F
  8
0
  6
CONTINUOUS
 62
     2
 10
132.682501660778
 20
-38.6626431749427
 30
0.0
 11
176.427047729492
 21
-38.6626431749427
 31
0.0
  0
LINE
  5
   290
  8
0
  6
CONTINUOUS
 62
     2
 10
132.682500252539
 20
-118.412645765796
 30
0.0
 11
176.427047729492
 21
-118.412645765796
 31
0.0
  0
LINE
  5
   291
  8
0
  6
CONTINUOUS
 62
     2
 10
174.427047729492
 20
-38.6626431749427
 30
0.0
 11
174.427047729492
 21
-118.412645765796
 31
0.0
  0
LINE
  5
   292
  8
0
  6
CONTINUOUS
 62
     2
 10
174.947992247493
 20
-41.6170664366243
 30
0.0
 11
174.427047729492
 21
-38.6626431749427
 31
0.0
  0
LINE
  5
   293
  8
0
  6
CONTINUOUS
 62
     2
 10
174.427047729492
 20
-38.6626431749427
 30
0.0
 11
173.906103211492
 21
-41.6170664366243
 31
0.0
  0
LINE
  5
   294
  8
0
  6
CONTINUOUS
 62
     2
 10
173.906103211492
 20
-115.458222504115
 30
0.0
 11
174.427047729492
 21
-118.412645765796
 31
0.0
  0
LINE
  5
   295
  8
0
  6
CONTINUOUS
 62
     2
 10
174.427047729492
 20
-118.412645765796
 30
0.0
 11
174.947992247493
 21
-115.458222504115
 31
0.0
  0
ENDBLK
  5
   296
  8
0
  6
CONTINUOUS
 62
     2
  0
BLOCK
  5
   297
  8
0
  6
CONTINUOUS
 62
     2
  2
*UDIM233
 70
    65
 10
0.0
 20
0.0
 30
0.0
  3
*UDIM233
  0
TEXT
  5
   298
  8
0
  6
CONTINUOUS
 62
     2
 10
118.594160932425
 20
-143.925363509643
 30
0.0
 40
2.50000005960464
  1
R.min,=200
 50
359.999999844103
 41
0.933333333333333
 72
     1
 11
130.010827874681
 21
-142.675363510847
 31
0.0
 73
     2
  0
LINE
  5
   299
  8
0
  6
CONTINUOUS
 62
     2
 10
105.057491330347
 20
-138.487964410968
 30
0.0
 11
105.057491330347
 21
-146.925363540649
 31
0.0
  0
LINE
  5
   29A
  8
0
  6
CONTINUOUS
 62
     2
 10
155.057491330347
 20
-120.121848668431
 30
0.0
 11
155.057491330347
 21
-146.925363540649
 31
0.0
  0
LINE
  5
   29B
  8
0
  6
CONTINUOUS
 62
     2
 10
105.057491330347
 20
-144.925363540649
 30
0.0
 11
155.057491330347
 21
-144.925363540649
 31
0.0
  0
LINE
  5
   29C
  8
0
  6
CONTINUOUS
 62
     2
 10
108.011914592028
 20
-144.404419022649
 30
0.0
 11
105.057491330347
 21
-144.925363540649
 31
0.0
  0
LINE
  5
   29D
  8
0
  6
CONTINUOUS
 62
     2
 10
105.057491330347
 20
-144.925363540649
 30
0.0
 11
108.011914592028
 21
-145.44630805865
 31
0.0
  0
LINE
  5
   29E
  8
0
  6
CONTINUOUS
 62
     2
 10
152.103068068665
 20
-145.44630805865
 30
0.0
 11
155.057491330347
 21
-144.925363540649
 31
0.0
  0
LINE
  5
   29F
  8
0
  6
CONTINUOUS
 62
     2
 10
155.057491330347
 20
-144.925363540649
 30
0.0
 11
152.103068068665
 21
-144.404419022649
 31
0.0
  0
ENDBLK
  5
   2A0
  8
0
  6
CONTINUOUS
 62
     2
  0
ENDSEC
  0
SECTION
  2
ENTITIES
  0
LINE
  5
   2A1
  8
0
  6
CONTINUOUS
 62
     1
 10
66.4699798245015
 20
54.3327320860261
 30
0.0
 11
43.9825039476599
 21
54.3327320860261
 31
0.0
  0
ARC
  5
   2A2
  8
0
  6
CONTINUOUS
 62
     1
 10
56.0574764877291
 20
27.4702699945967
 30
0.0
 40
2.97503256700413
 50
404.899302393594
 51
495.100813987516
  0
LINE
  5
   2A3
  8
0
  6
DASHDOT
 62
     2
 10
56.0574764877291
 20
21.4711521208361
 30
0.0
 11
56.0574764877291
 21
34.8641142603295
 31
0.0
  0
LINE
  5
   2A4
  8
0
  6
DASHDOT
 62
     2
 10
60.0824813908005
 20
24.3202402848412
 30
0.0
 11
60.0824813908005
 21
30.6202304432554
 31
0.0
  0
LINE
  5
   2A5
  8
0
  6
DASHDOT
 62
     2
 10
52.0324738857884
 20
24.3202352638195
 30
0.0
 11
52.0324738857884
 21
30.6202311984851
 31
0.0
  0
LINE
  5
   2A6
  8
0
  6
CONTINUOUS
 62
     1
 10
66.4699798245015
 20
91.0827314601773
 30
0.0
 11
43.9825039476599
 21
91.0827314601773
 31
0.0
  0
LINE
  5
   2A7
  8
0
  6
CONTINUOUS
 62
     1
 10
66.4699798245015
 20
46.7202375353806
 30
0.0
 11
44.2450039223279
 21
46.7202375353806
 31
0.0
  0
LINE
  5
   2A8
  8
0
  6
CONTINUOUS
 62
     1
 10
66.4699798245015
 20
31.2152324797171
 30
0.0
 11
43.8075039506401
 21
31.2152324797171
 31
0.0
  0
LINE
  5
   2A9
  8
0
  6
CONTINUOUS
 62
     1
 10
62.305004770502
 20
108.425242015717
 30
0.0
 11
62.305004770502
 21
156.270235690617
 31
0.0
  0
LINE
  5
   2AA
  8
0
  6
CONTINUOUS
 62
     1
 10
61.0450049922312
 20
108.425242015717
 30
0.0
 11
61.0450049922312
 21
156.270235690617
 31
0.0
  0
LINE
  5
   2AB
  8
0
  6
CONTINUOUS
 62
     1
 10
59.7850052139605
 20
108.425242015717
 30
0.0
 11
59.7850052139605
 21
156.270235690617
 31
0.0
  0
LINE
  5
   2AC
  8
0
  6
CONTINUOUS
 62
     1
 10
58.5250054356898
 20
108.425242015717
 30
0.0
 11
58.5250054356898
 21
156.270235690617
 31
0.0
  0
LINE
  5
   2AD
  8
0
  6
CONTINUOUS
 62
     1
 10
57.2650056574191
 20
108.425242015717
 30
0.0
 11
57.2650056574191
 21
156.270235690617
 31
0.0
  0
LINE
  5
   2AE
  8
0
  6
CONTINUOUS
 62
     1
 10
56.0050058791483
 20
108.425242015717
 30
0.0
 11
56.0050058791483
 21
156.270235690617
 31
0.0
  0
LINE
  5
   2AF
  8
0
  6
CONTINUOUS
 62
     1
 10
54.7450061008776
 20
108.425242015717
 30
0.0
 11
54.7450061008776
 21
156.270235690617
 31
0.0
  0
LINE
  5
   2B0
  8
0
  6
CONTINUOUS
 62
     1
 10
53.4850063226069
 20
108.425242015717
 30
0.0
 11
53.4850063226069
 21
156.270235690617
 31
0.0
  0
LINE
  5
   2B1
  8
0
  6
CONTINUOUS
 62
     1
 10
52.2250065443362
 20
108.425242015717
 30
0.0
 11
52.2250065443362
 21
156.270235690617
 31
0.0
  0
LINE
  5
   2B2
  8
0
  6
CONTINUOUS
 62
     1
 10
50.9650067660654
 20
108.425242015717
 30
0.0
 11
50.9650067660654
 21
156.270235690617
 31
0.0
  0
LINE
  5
   2B3
  8
0
  6
CONTINUOUS
 62
     1
 10
49.7050069877947
 20
108.425242015717
 30
0.0
 11
49.7050069877947
 21
156.270235690617
 31
0.0
  0
LINE
  5
   2B4
  8
0
  6
CONTINUOUS
 62
     1
 10
48.445007209524
 20
108.425242015717
 30
0.0
 11
48.445007209524
 21
156.270235690617
 31
0.0
  0
LINE
  5
   2B5
  8
0
  6
CONTINUOUS
 62
     1
 10
47.1850074312533
 20
108.425242015717
 30
0.0
 11
47.1850074312533
 21
156.270235690617
 31
0.0
  0
LINE
  5
   2B6
  8
0
  6
CONTINUOUS
 62
     1
 10
45.9250076529825
 20
108.425242015717
 30
0.0
 11
45.9250076529825
 21
156.270235690617
 31
0.0
  0
LINE
  5
   2B7
  8
0
  6
CONTINUOUS
 62
     1
 10
62.305004770502
 20
91.0827314601773
 30
0.0
 11
62.305004770502
 21
107.970236513161
 31
0.0
  0
LINE
  5
   2B8
  8
0
  6
CONTINUOUS
 62
     1
 10
61.0450049922312
 20
91.0827314601773
 30
0.0
 11
61.0450049922312
 21
107.970236513161
 31
0.0
  0
LINE
  5
   2B9
  8
0
  6
CONTINUOUS
 62
     1
 10
59.7850052139605
 20
91.0827314601773
 30
0.0
 11
59.7850052139605
 21
107.970236513161
 31
0.0
  0
LINE
  5
   2BA
  8
0
  6
CONTINUOUS
 62
     1
 10
58.5250054356898
 20
91.0827314601773
 30
0.0
 11
58.5250054356898
 21
107.970236513161
 31
0.0
  0
LINE
  5
   2BB
  8
0
  6
CONTINUOUS
 62
     1
 10
57.2650056574191
 20
91.0827314601773
 30
0.0
 11
57.2650056574191
 21
107.970236513161
 31
0.0
  0
LINE
  5
   2BC
  8
0
  6
CONTINUOUS
 62
     1
 10
56.0050058791483
 20
91.0827314601773
 30
0.0
 11
56.0050058791483
 21
107.970236513161
 31
0.0
  0
LINE
  5
   2BD
  8
0
  6
CONTINUOUS
 62
     1
 10
54.7450061008776
 20
91.0827314601773
 30
0.0
 11
54.7450061008776
 21
107.970236513161
 31
0.0
  0
LINE
  5
   2BE
  8
0
  6
CONTINUOUS
 62
     1
 10
53.4850063226069
 20
91.0827314601773
 30
0.0
 11
53.4850063226069
 21
107.970236513161
 31
0.0
  0
LINE
  5
   2BF
  8
0
  6
CONTINUOUS
 62
     1
 10
52.2250065443362
 20
91.0827314601773
 30
0.0
 11
52.2250065443362
 21
107.970236513161
 31
0.0
  0
LINE
  5
   2C0
  8
0
  6
CONTINUOUS
 62
     1
 10
50.9650067660654
 20
91.0827314601773
 30
0.0
 11
50.9650067660654
 21
107.970236513161
 31
0.0
  0
LINE
  5
   2C1
  8
0
  6
CONTINUOUS
 62
     1
 10
49.7050069877947
 20
91.0827314601773
 30
0.0
 11
49.7050069877947
 21
107.970236513161
 31
0.0
  0
LINE
  5
   2C2
  8
0
  6
CONTINUOUS
 62
     1
 10
48.445007209524
 20
91.0827314601773
 30
0.0
 11
48.445007209524
 21
107.970236513161
 31
0.0
  0
LINE
  5
   2C3
  8
0
  6
CONTINUOUS
 62
     1
 10
47.1850074312533
 20
91.0827314601773
 30
0.0
 11
47.1850074312533
 21
107.970236513161
 31
0.0
  0
LINE
  5
   2C4
  8
0
  6
CONTINUOUS
 62
     1
 10
45.9250076529825
 20
91.0827314601773
 30
0.0
 11
45.9250076529825
 21
107.970236513161
 31
0.0
  0
LINE
  5
   2C5
  8
0
  6
CONTINUOUS
 62
     1
 10
62.305004770502
 20
54.3327320860261
 30
0.0
 11
62.305004770502
 21
91.0827314601773
 31
0.0
  0
LINE
  5
   2C6
  8
0
  6
CONTINUOUS
 62
     1
 10
61.0450049922312
 20
54.3327320860261
 30
0.0
 11
61.0450049922312
 21
91.0827314601773
 31
0.0
  0
LINE
  5
   2C7
  8
0
  6
CONTINUOUS
 62
     1
 10
59.7850052139605
 20
54.3327320860261
 30
0.0
 11
59.7850052139605
 21
91.0827314601773
 31
0.0
  0
LINE
  5
   2C8
  8
0
  6
CONTINUOUS
 62
     1
 10
58.5250054356898
 20
54.3327320860261
 30
0.0
 11
58.5250054356898
 21
91.0827314601773
 31
0.0
  0
LINE
  5
   2C9
  8
0
  6
CONTINUOUS
 62
     1
 10
57.2650056574191
 20
54.3327320860261
 30
0.0
 11
57.2650056574191
 21
91.0827314601773
 31
0.0
  0
LINE
  5
   2CA
  8
0
  6
CONTINUOUS
 62
     1
 10
56.0050058791483
 20
54.3327320860261
 30
0.0
 11
56.0050058791483
 21
91.0827314601773
 31
0.0
  0
LINE
  5
   2CB
  8
0
  6
CONTINUOUS
 62
     1
 10
54.7450061008776
 20
54.3327320860261
 30
0.0
 11
54.7450061008776
 21
91.0827314601773
 31
0.0
  0
LINE
  5
   2CC
  8
0
  6
CONTINUOUS
 62
     1
 10
53.4850063226069
 20
54.3327320860261
 30
0.0
 11
53.4850063226069
 21
91.0827314601773
 31
0.0
  0
LINE
  5
   2CD
  8
0
  6
CONTINUOUS
 62
     1
 10
52.2250065443362
 20
54.3327320860261
 30
0.0
 11
52.2250065443362
 21
91.0827314601773
 31
0.0
  0
LINE
  5
   2CE
  8
0
  6
CONTINUOUS
 62
     1
 10
50.9650067660654
 20
54.3327320860261
 30
0.0
 11
50.9650067660654
 21
91.0827314601773
 31
0.0
  0
LINE
  5
   2CF
  8
0
  6
CONTINUOUS
 62
     1
 10
49.7050069877947
 20
54.3327320860261
 30
0.0
 11
49.7050069877947
 21
91.0827314601773
 31
0.0
  0
LINE
  5
   2D0
  8
0
  6
CONTINUOUS
 62
     1
 10
48.445007209524
 20
54.3327320860261
 30
0.0
 11
48.445007209524
 21
91.0827314601773
 31
0.0
  0
LINE
  5
   2D1
  8
0
  6
CONTINUOUS
 62
     1
 10
47.1850074312533
 20
54.3327320860261
 30
0.0
 11
47.1850074312533
 21
91.0827314601773
 31
0.0
  0
LINE
  5
   2D2
  8
0
  6
CONTINUOUS
 62
     1
 10
45.9250076529825
 20
54.3327320860261
 30
0.0
 11
45.9250076529825
 21
91.0827314601773
 31
0.0
  0
LINE
  5
   2D3
  8
0
  6
CONTINUOUS
 62
     1
 10
62.305004770502
 20
46.7202375353806
 30
0.0
 11
62.305004770502
 21
54.3327320651645
 31
0.0
  0
LINE
  5
   2D4
  8
0
  6
CONTINUOUS
 62
     1
 10
61.0450049922312
 20
46.7202375353806
 30
0.0
 11
61.0450049922312
 21
54.3327320651645
 31
0.0
  0
LINE
  5
   2D5
  8
0
  6
CONTINUOUS
 62
     1
 10
59.7850052139605
 20
46.7202375353806
 30
0.0
 11
59.7850052139605
 21
54.3327320651645
 31
0.0
  0
LINE
  5
   2D6
  8
0
  6
CONTINUOUS
 62
     1
 10
58.5250054356898
 20
46.7202375353806
 30
0.0
 11
58.5250054356898
 21
54.3327320651645
 31
0.0
  0
LINE
  5
   2D7
  8
0
  6
CONTINUOUS
 62
     1
 10
57.2650056574191
 20
46.7202375353806
 30
0.0
 11
57.2650056574191
 21
54.3327320651645
 31
0.0
  0
LINE
  5
   2D8
  8
0
  6
CONTINUOUS
 62
     1
 10
56.0050058791483
 20
46.7202375353806
 30
0.0
 11
56.0050058791483
 21
54.3327320651645
 31
0.0
  0
LINE
  5
   2D9
  8
0
  6
CONTINUOUS
 62
     1
 10
54.7450061008776
 20
46.7202375353806
 30
0.0
 11
54.7450061008776
 21
54.3327320651645
 31
0.0
  0
LINE
  5
   2DA
  8
0
  6
CONTINUOUS
 62
     1
 10
53.4850063226069
 20
46.7202375353806
 30
0.0
 11
53.4850063226069
 21
54.3327320651645
 31
0.0
  0
LINE
  5
   2DB
  8
0
  6
CONTINUOUS
 62
     1
 10
52.2250065443362
 20
46.7202375353806
 30
0.0
 11
52.2250065443362
 21
54.3327320651645
 31
0.0
  0
LINE
  5
   2DC
  8
0
  6
CONTINUOUS
 62
     1
 10
50.9650067660654
 20
46.7202375353806
 30
0.0
 11
50.9650067660654
 21
54.3327320651645
 31
0.0
  0
LINE
  5
   2DD
  8
0
  6
CONTINUOUS
 62
     1
 10
49.7050069877947
 20
46.7202375353806
 30
0.0
 11
49.7050069877947
 21
54.3327320651645
 31
0.0
  0
LINE
  5
   2DE
  8
0
  6
CONTINUOUS
 62
     1
 10
48.445007209524
 20
46.7202375353806
 30
0.0
 11
48.445007209524
 21
54.3327320651645
 31
0.0
  0
LINE
  5
   2DF
  8
0
  6
CONTINUOUS
 62
     1
 10
47.1850074312533
 20
46.7202375353806
 30
0.0
 11
47.1850074312533
 21
54.3327320651645
 31
0.0
  0
LINE
  5
   2E0
  8
0
  6
CONTINUOUS
 62
     1
 10
45.9250076529825
 20
46.7202375353806
 30
0.0
 11
45.9250076529825
 21
54.3327320651645
 31
0.0
  0
LINE
  5
   2E1
  8
0
  6
CONTINUOUS
 62
     1
 10
62.305004770502
 20
31.3202273070849
 30
0.0
 11
62.305004770502
 21
46.3002375633948
 31
0.0
  0
LINE
  5
   2E2
  8
0
  6
CONTINUOUS
 62
     1
 10
61.0450049922312
 20
31.3202273070849
 30
0.0
 11
61.0450049922312
 21
46.3002375633948
 31
0.0
  0
LINE
  5
   2E3
  8
0
  6
CONTINUOUS
 62
     1
 10
59.7850052139605
 20
31.3202273070849
 30
0.0
 11
59.7850052139605
 21
46.3002375633948
 31
0.0
  0
LINE
  5
   2E4
  8
0
  6
CONTINUOUS
 62
     1
 10
58.5250054356898
 20
31.3202273070849
 30
0.0
 11
58.5250054356898
 21
46.3002375633948
 31
0.0
  0
LINE
  5
   2E5
  8
0
  6
CONTINUOUS
 62
     1
 10
57.2650056574191
 20
31.3202273070849
 30
0.0
 11
57.2650056574191
 21
46.3002375633948
 31
0.0
  0
LINE
  5
   2E6
  8
0
  6
CONTINUOUS
 62
     1
 10
56.0050058791483
 20
31.3202273070849
 30
0.0
 11
56.0050058791483
 21
46.3002375633948
 31
0.0
  0
LINE
  5
   2E7
  8
0
  6
CONTINUOUS
 62
     1
 10
54.7450061008776
 20
31.3202273070849
 30
0.0
 11
54.7450061008776
 21
46.3002375633948
 31
0.0
  0
LINE
  5
   2E8
  8
0
  6
CONTINUOUS
 62
     1
 10
53.4850063226069
 20
31.3202273070849
 30
0.0
 11
53.4850063226069
 21
46.3002375633948
 31
0.0
  0
LINE
  5
   2E9
  8
0
  6
CONTINUOUS
 62
     1
 10
52.2250065443362
 20
31.3202273070849
 30
0.0
 11
52.2250065443362
 21
46.3002375633948
 31
0.0
  0
LINE
  5
   2EA
  8
0
  6
CONTINUOUS
 62
     1
 10
50.9650067660654
 20
31.3202273070849
 30
0.0
 11
50.9650067660654
 21
46.3002375633948
 31
0.0
  0
LINE
  5
   2EB
  8
0
  6
CONTINUOUS
 62
     1
 10
49.7050069877947
 20
31.3202273070849
 30
0.0
 11
49.7050069877947
 21
46.3002375633948
 31
0.0
  0
LINE
  5
   2EC
  8
0
  6
CONTINUOUS
 62
     1
 10
48.445007209524
 20
31.3202273070849
 30
0.0
 11
48.445007209524
 21
46.3002375633948
 31
0.0
  0
LINE
  5
   2ED
  8
0
  6
CONTINUOUS
 62
     1
 10
47.1850074312533
 20
31.3202273070849
 30
0.0
 11
47.1850074312533
 21
46.3002375633948
 31
0.0
  0
LINE
  5
   2EE
  8
0
  6
CONTINUOUS
 62
     1
 10
45.9250076529825
 20
31.3202273070849
 30
0.0
 11
45.9250076529825
 21
46.3002375633948
 31
0.0
  0
LINE
  5
   2EF
  8
0
  6
CONTINUOUS
 62
     3
 10
50.3350067767943
 20
109.720241993664
 30
0.0
 11
50.3350067767943
 21
113.920241922138
 31
0.0
  0
LINE
  5
   2F0
  8
0
  6
CONTINUOUS
 62
     3
 10
50.9650067660654
 20
113.920241922138
 30
0.0
 11
50.3350067767943
 21
113.920241922138
 31
0.0
  0
LINE
  5
   2F1
  8
0
  6
CONTINUOUS
 62
     3
 10
50.9650067660654
 20
109.720241993664
 30
0.0
 11
50.3350067767943
 21
109.720241993664
 31
0.0
  0
LINE
  5
   2F2
  8
0
  6
CONTINUOUS
 62
     3
 10
52.2250067446078
 20
109.720241993664
 30
0.0
 11
51.5950067553366
 21
109.720241993664
 31
0.0
  0
LINE
  5
   2F3
  8
0
  6
CONTINUOUS
 62
     3
 10
51.5950067553366
 20
109.720241993664
 30
0.0
 11
51.5950067553366
 21
113.920241922138
 31
0.0
  0
LINE
  5
   2F4
  8
0
  6
CONTINUOUS
 62
     3
 10
52.2250067446078
 20
113.920241922138
 30
0.0
 11
51.5950067553366
 21
113.920241922138
 31
0.0
  0
LINE
  5
   2F5
  8
0
  6
CONTINUOUS
 62
     3
 10
53.4850067231501
 20
113.920241922138
 30
0.0
 11
52.8550067338789
 21
113.920241922138
 31
0.0
  0
LINE
  5
   2F6
  8
0
  6
CONTINUOUS
 62
     3
 10
52.8550067338789
 20
109.720241993664
 30
0.0
 11
52.8550067338789
 21
113.920241922138
 31
0.0
  0
LINE
  5
   2F7
  8
0
  6
CONTINUOUS
 62
     3
 10
53.4850067231501
 20
109.720241993664
 30
0.0
 11
52.8550067338789
 21
109.720241993664
 31
0.0
  0
LINE
  5
   2F8
  8
0
  6
CONTINUOUS
 62
     3
 10
54.7450067016924
 20
109.720241993664
 30
0.0
 11
54.1150067124213
 21
109.720241993664
 31
0.0
  0
LINE
  5
   2F9
  8
0
  6
CONTINUOUS
 62
     3
 10
54.1150067124213
 20
109.720241993664
 30
0.0
 11
54.1150067124213
 21
113.920241922138
 31
0.0
  0
LINE
  5
   2FA
  8
0
  6
CONTINUOUS
 62
     3
 10
54.7450067016924
 20
113.920241922138
 30
0.0
 11
54.1150067124213
 21
113.920241922138
 31
0.0
  0
LINE
  5
   2FB
  8
0
  6
CONTINUOUS
 62
     3
 10
56.0050066802348
 20
112.695241943
 30
0.0
 11
55.3750066909636
 21
112.695241943
 31
0.0
  0
LINE
  5
   2FC
  8
0
  6
CONTINUOUS
 62
     3
 10
55.3750066909636
 20
109.720241993664
 30
0.0
 11
55.3750066909636
 21
112.695241943
 31
0.0
  0
LINE
  5
   2FD
  8
0
  6
CONTINUOUS
 62
     3
 10
56.0050066802348
 20
109.720241993664
 30
0.0
 11
55.3750066909636
 21
109.720241993664
 31
0.0
  0
LINE
  5
   2FE
  8
0
  6
CONTINUOUS
 62
     3
 10
57.2650066587771
 20
109.720241993664
 30
0.0
 11
56.6350066695059
 21
109.720241993664
 31
0.0
  0
LINE
  5
   2FF
  8
0
  6
CONTINUOUS
 62
     3
 10
56.6350066695059
 20
109.720241993664
 30
0.0
 11
56.6350066695059
 21
112.695241943
 31
0.0
  0
LINE
  5
   300
  8
0
  6
CONTINUOUS
 62
     3
 10
57.2650066587771
 20
112.695241943
 30
0.0
 11
56.6350066695059
 21
112.695241943
 31
0.0
  0
LINE
  5
   301
  8
0
  6
CONTINUOUS
 62
     3
 10
58.5250066373194
 20
113.920241922138
 30
0.0
 11
57.8950066480482
 21
113.920241922138
 31
0.0
  0
LINE
  5
   302
  8
0
  6
CONTINUOUS
 62
     3
 10
57.8950066480482
 20
109.720241993664
 30
0.0
 11
57.8950066480482
 21
113.920241922138
 31
0.0
  0
LINE
  5
   303
  8
0
  6
CONTINUOUS
 62
     3
 10
58.5250066373194
 20
109.720241993664
 30
0.0
 11
57.8950066480482
 21
109.720241993664
 31
0.0
  0
LINE
  5
   304
  8
0
  6
CONTINUOUS
 62
     3
 10
59.7850066158617
 20
113.920241922138
 30
0.0
 11
59.1550066265906
 21
113.920241922138
 31
0.0
  0
LINE
  5
   305
  8
0
  6
CONTINUOUS
 62
     3
 10
59.1550066265906
 20
109.720241993664
 30
0.0
 11
59.1550066265906
 21
113.920241922138
 31
0.0
  0
LINE
  5
   306
  8
0
  6
CONTINUOUS
 62
     3
 10
59.7850066158617
 20
109.720241993664
 30
0.0
 11
59.1550066265906
 21
109.720241993664
 31
0.0
  0
LINE
  5
   307
  8
0
  6
CONTINUOUS
 62
     3
 10
61.0450065944041
 20
113.920241922138
 30
0.0
 11
60.4150066051329
 21
113.920241922138
 31
0.0
  0
LINE
  5
   308
  8
0
  6
CONTINUOUS
 62
     3
 10
60.4150066051329
 20
109.720241993664
 30
0.0
 11
60.4150066051329
 21
113.920241922138
 31
0.0
  0
LINE
  5
   309
  8
0
  6
CONTINUOUS
 62
     3
 10
61.0450065944041
 20
109.720241993664
 30
0.0
 11
60.4150066051329
 21
109.720241993664
 31
0.0
  0
LINE
  5
   30A
  8
0
  6
CONTINUOUS
 62
     3
 10
62.3050065729464
 20
113.920241922138
 30
0.0
 11
61.6750065836752
 21
113.920241922138
 31
0.0
  0
LINE
  5
   30B
  8
0
  6
CONTINUOUS
 62
     3
 10
61.6750065836752
 20
109.720241993664
 30
0.0
 11
61.6750065836752
 21
113.920241922138
 31
0.0
  0
LINE
  5
   30C
  8
0
  6
CONTINUOUS
 62
     3
 10
62.3050065729464
 20
109.720241993664
 30
0.0
 11
61.6750065836752
 21
109.720241993664
 31
0.0
  0
LINE
  5
   30D
  8
0
  6
CONTINUOUS
 62
     7
 10
44.6825175076719
 20
156.270253258097
 30
0.0
 11
44.6825175076719
 21
163.795235732198
 31
0.0
  0
LINE
  5
   30E
  8
0
  6
CONTINUOUS
 62
     3
 10
44.2450039223279
 20
46.3702375622027
 30
0.0
 11
44.2450039223279
 21
46.7202375353806
 31
0.0
  0
LINE
  5
   30F
  8
0
  6
CONTINUOUS
 62
     3
 10
44.6824855361165
 20
23.7252376808183
 30
0.0
 11
43.8075039506401
 21
23.7252376808183
 31
0.0
  0
LINE
  5
   310
  8
0
  6
CONTINUOUS
 62
     3
 10
44.6824855361165
 20
23.2702376218097
 30
0.0
 11
44.6824855361165
 21
23.7252376808183
 31
0.0
  0
LINE
  5
   311
  8
0
  6
CONTINUOUS
 62
     1
 10
44.6824855361165
 20
23.7252376808183
 30
0.0
 11
44.6824855361165
 21
31.2152324797171
 31
0.0
  0
ARC
  5
   312
  8
0
  6
CONTINUOUS
 62
     3
 10
45.20748381163
 20
23.2702369960395
 30
0.0
 40
0.524998573004765
 50
179.999941123702
 51
270.000103159103
  0
CIRCLE
  5
   313
  8
0
  6
CONTINUOUS
 62
     1
 10
46.0824847371408
 20
24.1452374417552
 30
0.0
 40
0.49000039187499
  0
LINE
  5
   314
  8
0
  6
DASHDOT
 62
     2
 10
46.0824847371408
 20
22.6052370677616
 30
0.0
 11
46.0824847371408
 21
25.6852378157488
 31
0.0
  0
LINE
  5
   315
  8
0
  6
DASHDOT
 62
     2
 10
47.6224851111344
 20
24.1452374417552
 30
0.0
 11
44.5424843631472
 21
24.1452374417552
 31
0.0
  0
ARC
  5
   316
  8
0
  6
CONTINUOUS
 62
     3
 10
45.0325163736775
 20
164.495233953419
 30
0.0
 40
0.349996002028132
 50
90.0005173512766
 51
180.001122723422
  0
LINE
  5
   317
  8
0
  6
CONTINUOUS
 62
     3
 10
44.6825175076719
 20
163.795235732198
 30
0.0
 11
44.6825175076719
 21
164.495235720277
 31
0.0
  0
LINE
  5
   318
  8
0
  6
CONTINUOUS
 62
     3
 10
44.6825175076719
 20
163.795235732198
 30
0.0
 11
43.8075039506401
 21
163.795235732198
 31
0.0
  0
LINE
  5
   319
  8
0
  6
CONTINUOUS
 62
     7
 10
66.4699798245015
 20
156.445244556243
 30
0.0
 11
44.6825175076719
 21
156.445244556243
 31
0.0
  0
LINE
  5
   31A
  8
0
  6
CONTINUOUS
 62
     1
 10
66.4699798245015
 20
156.270235690617
 30
0.0
 11
43.8075039506401
 21
156.270235690617
 31
0.0
  0
LINE
  5
   31B
  8
0
  6
CONTINUOUS
 62
     3
 10
44.2450039431895
 20
108.075242021678
 30
0.0
 11
44.2450039431895
 21
108.425242015717
 31
0.0
  0
CIRCLE
  5
   31C
  8
0
  6
CONTINUOUS
 62
     1
 10
46.0824961215258
 20
163.445241078732
 30
0.0
 40
0.769999986886978
  0
LINE
  5
   31D
  8
0
  6
CONTINUOUS
 62
     3
 10
43.8075039506401
 20
23.7252376808183
 30
0.0
 11
43.8075039506401
 21
46.3702375622027
 31
0.0
  0
LINE
  5
   31E
  8
0
  6
CONTINUOUS
 62
     3
 10
43.8075039506401
 20
108.425242015717
 30
0.0
 11
43.8075039506401
 21
163.795235732198
 31
0.0
  0
LINE
  5
   31F
  8
0
  6
CONTINUOUS
 62
     3
 10
43.8075039506401
 20
46.7202375353806
 30
0.0
 11
43.8075039506401
 21
108.075242021678
 31
0.0
  0
LINE
  5
   320
  8
0
  6
CONTINUOUS
 62
     3
 10
44.2450039431895
 20
108.425242015717
 30
0.0
 11
43.8075039506401
 21
108.425242015717
 31
0.0
  0
LINE
  5
   321
  8
0
  6
CONTINUOUS
 62
     3
 10
44.2450039431895
 20
108.075242021678
 30
0.0
 11
43.8075039506401
 21
108.075242021678
 31
0.0
  0
LINE
  5
   322
  8
0
  6
CONTINUOUS
 62
     3
 10
44.2450039223279
 20
46.7202375353806
 30
0.0
 11
43.8075039506401
 21
46.7202375353806
 31
0.0
  0
LINE
  5
   323
  8
0
  6
CONTINUOUS
 62
     1
 10
44.2450039223279
 20
46.3002375633948
 30
0.0
 11
43.8075039506401
 21
46.3002375633948
 31
0.0
  0
LINE
  5
   324
  8
0
  6
DOT
 62
     3
 10
141.80750228171
 20
108.425242015717
 30
0.0
 11
141.80750228171
 21
163.795235732198
 31
0.0
  0
LINE
  5
   325
  8
0
  6
CONTINUOUS
 62
     3
 10
66.4699798245015
 20
164.84524105489
 30
0.0
 11
45.0325005051281
 21
164.84524105489
 31
0.0
  0
ARC
  5
   326
  8
0
  6
CONTINUOUS
 62
     1
 10
60.082719218873
 20
160.120251699926
 30
0.0
 40
2.86999995112419
 50
269.679654033286
 51
449.999999948034
  0
ARC
  5
   327
  8
0
  6
CONTINUOUS
 62
     1
 10
60.082719218873
 20
160.120251699926
 30
0.0
 40
2.09985599432712
 50
269.999999948034
 51
449.999945306521
  0
LINE
  5
   328
  8
0
  6
CONTINUOUS
 62
     1
 10
60.082719218873
 20
162.990251651051
 30
0.0
 11
58.1807670155228
 21
162.990251651051
 31
0.0
  0
LINE
  5
   329
  8
0
  6
CONTINUOUS
 62
     1
 10
60.082719218873
 20
162.22023575902
 30
0.0
 11
58.1647754548741
 21
162.22023575902
 31
0.0
  0
LINE
  5
   32A
  8
0
  6
CONTINUOUS
 62
     1
 10
60.082719218873
 20
158.020235830546
 30
0.0
 11
58.1647754548741
 21
158.020235830546
 31
0.0
  0
LINE
  5
   32B
  8
0
  6
CONTINUOUS
 62
     1
 10
60.0666728717004
 20
157.250296607212
 30
0.0
 11
58.1807063804051
 21
157.250296607212
 31
0.0
  0
ARC
  5
   32C
  8
0
  6
CONTINUOUS
 62
     1
 10
56.0575120295274
 20
160.120296558337
 30
0.0
 40
2.97505973521659
 50
224.901380849089
 51
315.098568474349
  0
ARC
  5
   32D
  8
0
  6
CONTINUOUS
 62
     1
 10
56.0575012922286
 20
160.120296558337
 30
0.0
 40
3.56999993920326
 50
233.507448791235
 51
306.493766547859
  0
ARC
  5
   32E
  8
0
  6
CONTINUOUS
 62
     1
 10
56.0575120295274
 20
160.120296558337
 30
0.0
 40
2.97505973521659
 50
404.897963373026
 51
495.101923170488
  0
ARC
  5
   32F
  8
0
  6
CONTINUOUS
 62
     1
 10
56.0575012922286
 20
160.120296558337
 30
0.0
 40
3.56999993920326
 50
413.505022838263
 51
486.494981956033
  0
LINE
  5
   330
  8
0
  6
CONTINUOUS
 62
     1
 10
53.9342353235814
 20
162.990251469532
 30
0.0
 11
52.0487655861508
 21
162.990251469532
 31
0.0
  0
LINE
  5
   331
  8
0
  6
CONTINUOUS
 62
     1
 10
52.0326689611721
 20
162.220229376928
 30
0.0
 11
53.9502376631797
 21
162.220235909291
 31
0.0
  0
LINE
  5
   332
  8
0
  6
CONTINUOUS
 62
     1
 10
53.9502349847581
 20
158.020235680753
 30
0.0
 11
52.0326689697054
 21
158.020242213085
 31
0.0
  0
LINE
  5
   333
  8
0
  6
CONTINUOUS
 62
     1
 10
53.9343570872241
 20
157.250251567284
 30
0.0
 11
52.0326868064442
 21
157.250251567284
 31
0.0
  0
ARC
  5
   334
  8
0
  6
CONTINUOUS
 62
     1
 10
52.0326868064442
 20
160.120296558337
 30
0.0
 40
2.86999995112419
 50
449.679006550204
 51
629.999999948034
  0
ARC
  5
   335
  8
0
  6
CONTINUOUS
 62
     1
 10
52.0326868064442
 20
160.120251518408
 30
0.0
 40
2.1001148727515
 50
90.0052836333811
 51
269.995265213079
  0
LINE
  5
   336
  8
0
  6
DASHDOT
 62
     7
 10
52.0326868064442
 20
157.600113671106
 30
0.0
 11
52.0326868064442
 21
162.64038936571
 31
0.0
  0
LINE
  5
   337
  8
0
  6
DASHDOT
 62
     7
 10
54.5528193131699
 20
160.120251518408
 30
0.0
 11
49.5125542997185
 21
160.120251518408
 31
0.0
  0
LINE
  5
   338
  8
0
  6
DASHDOT
 62
     7
 10
62.6025410714895
 20
160.120251699926
 30
0.0
 11
57.5628973662566
 21
160.120251699926
 31
0.0
  0
LINE
  5
   339
  8
0
  6
DASHDOT
 62
     7
 10
60.082719218873
 20
157.600424506734
 30
0.0
 11
60.082719218873
 21
162.640078893119
 31
0.0
  0
LINE
  5
   33A
  8
0
  6
DASHDOT
 62
     7
 10
56.0574959516526
 20
22.0851296935325
 30
0.0
 11
56.0574959516526
 21
167.314471513044
 31
0.0
  0
LINE
  5
   33B
  8
0
  6
DASHDOT
 62
     7
 10
59.6275730306351
 20
160.120296558337
 30
0.0
 11
52.4874243255392
 21
160.120296558337
 31
0.0
  0
ARC
  5
   33C
  8
0
  6
CONTINUOUS
 62
     1
 10
52.0324738857885
 20
27.4702332311523
 30
0.0
 40
2.09999798521424
 50
90.0001399327154
 51
270.000100332566
  0
LINE
  5
   33D
  8
0
  6
DASHDOT
 62
     2
 10
52.0324738857884
 20
24.3202352638195
 30
0.0
 11
52.0324738857884
 21
30.6202311984851
 31
0.0
  0
LINE
  5
   33E
  8
0
  6
CONTINUOUS
 62
     1
 10
53.9502061729659
 20
25.3702379198329
 30
0.0
 11
52.0324800703706
 21
25.3702379198329
 31
0.0
  0
LINE
  5
   33F
  8
0
  6
CONTINUOUS
 62
     1
 10
53.9502038176063
 20
29.5702309647164
 30
0.0
 11
52.0324777149329
 21
29.5702363052908
 31
0.0
  0
ARC
  5
   340
  8
0
  6
CONTINUOUS
 62
     1
 10
56.0574764877291
 20
27.4702699945967
 30
0.0
 40
2.97503256700413
 50
404.899302393594
 51
495.100813987516
  0
ARC
  5
   341
  8
0
  6
CONTINUOUS
 62
     1
 10
56.0574764877291
 20
27.4702699945967
 30
0.0
 40
2.97503256700413
 50
224.901119153159
 51
315.09888074291
  0
LINE
  5
   342
  8
0
  6
CONTINUOUS
 62
     1
 10
60.08247993328
 20
25.3702379198329
 30
0.0
 11
58.1647591712608
 21
25.3702379198329
 31
0.0
  0
LINE
  5
   343
  8
0
  6
CONTINUOUS
 62
     1
 10
60.0824829185749
 20
29.5702299089837
 30
0.0
 11
58.1647568167945
 21
29.5702352495581
 31
0.0
  0
ARC
  5
   344
  8
0
  6
CONTINUOUS
 62
     1
 10
60.0824813908005
 20
27.4702353640483
 30
0.0
 40
2.09999509708851
 50
269.999747131106
 51
450.000048027357
  0
LINE
  5
   345
  8
0
  6
DASHDOT
 62
     2
 10
60.0824813908005
 20
24.3202402848412
 30
0.0
 11
60.0824813908005
 21
30.6202304432554
 31
0.0
  0
LINE
  5
   346
  8
0
  6
DASHDOT
 62
     2
 10
63.2324764700076
 20
27.4702353640483
 30
0.0
 11
56.9324863115934
 21
27.4702353640483
 31
0.0
  0
LINE
  5
   347
  8
0
  6
DASHDOT
 62
     2
 10
55.1824718531213
 20
27.4702332311523
 30
0.0
 11
48.8824759184556
 21
27.4702332311523
 31
0.0
  0
LINE
  5
   348
  8
0
  6
DASHDOT
 62
     2
 10
60.0825090368518
 20
27.4702699945967
 30
0.0
 11
52.0324439386064
 21
27.4702699945967
 31
0.0
  0
CIRCLE
  5
   349
  8
0
  6
CONTINUOUS
 62
     1
 10
46.0824847371408
 20
24.1452374417552
 30
0.0
 40
0.49000039187499
  0
LINE
  5
   34A
  8
0
  6
CONTINUOUS
 62
     3
 10
66.4699798245015
 20
22.7452379645379
 30
0.0
 11
45.2074855271758
 21
22.7452379645379
 31
0.0
  0
LINE
  5
   34B
  8
0
  6
CONTINUOUS
 62
     3
 10
44.2450039223279
 20
46.3702375622027
 30
0.0
 11
43.8075039506401
 21
46.3702375622027
 31
0.0
  0
LINE
  5
   34C
  8
0
  6
CONTINUOUS
 62
     1
 10
44.6650076744402
 20
108.425242015717
 30
0.0
 11
44.6650076744402
 21
156.270235690617
 31
0.0
  0
LINE
  5
   34D
  8
0
  6
CONTINUOUS
 62
     1
 10
44.6650076744402
 20
91.0827314601773
 30
0.0
 11
44.6650076744402
 21
107.970236513161
 31
0.0
  0
LINE
  5
   34E
  8
0
  6
CONTINUOUS
 62
     1
 10
44.6650076744402
 20
54.3327320860261
 30
0.0
 11
44.6650076744402
 21
91.0827314601773
 31
0.0
  0
LINE
  5
   34F
  8
0
  6
CONTINUOUS
 62
     1
 10
44.6650076744402
 20
46.7202375353806
 30
0.0
 11
44.6650076744402
 21
54.3327320651645
 31
0.0
  0
LINE
  5
   350
  8
0
  6
CONTINUOUS
 62
     1
 10
44.6650076744402
 20
31.3202273070849
 30
0.0
 11
44.6650076744402
 21
46.3002375633948
 31
0.0
  0
INSERT
  5
   351
  8
255
  6
CONTINUOUS
 62
     7
  2
MOSTRINA
 10
58.7391060134069
 20
34.2145142928039
 30
0.0
 41
0.349999994039536
 42
0.349999994039536
 50
359.999999792138
 43
0.349999994039536
  0
LINE
  5
   352
  8
0
  6
CONTINUOUS
 62
     1
 10
66.4699798245015
 20
46.3002375633948
 30
0.0
 11
44.2450039223279
 21
46.3002375633948
 31
0.0
  0
LINE
  5
   353
  8
0
  6
CONTINUOUS
 62
     3
 10
92.0199793893876
 20
22.7452274531163
 30
0.0
 11
69.7074851099433
 21
22.7452274531163
 31
0.0
  0
LINE
  5
   354
  8
0
  6
DASHDOT
 62
     7
 10
105.057495117188
 20
121.293629964827
 30
0.0
 11
105.057495117188
 21
182.341027293032
 31
0.0
  0
LINE
  5
   355
  8
0
  6
DASHDOT
 62
     7
 10
129.557494699955
 20
154.036662434991
 30
0.0
 11
129.557494699955
 21
165.617435439991
 31
0.0
  0
LINE
  5
   356
  8
0
  6
CONTINUOUS
 62
     1
 10
66.4699798245015
 20
31.3202273070849
 30
0.0
 11
43.8075039506401
 21
31.3202273070849
 31
0.0
  0
LINE
  5
   357
  8
0
  6
CONTINUOUS
 62
     1
 10
66.4699798245015
 20
108.425242015717
 30
0.0
 11
44.2450039431895
 21
108.425242015717
 31
0.0
  0
LINE
  5
   358
  8
0
  6
CONTINUOUS
 62
     1
 10
66.4699798245015
 20
108.075242021678
 30
0.0
 11
44.2450039431895
 21
108.075242021678
 31
0.0
  0
LINE
  5
   359
  8
0
  6
CONTINUOUS
 62
     1
 10
66.4699798245015
 20
107.970236513161
 30
0.0
 11
43.8075039506401
 21
107.970236513161
 31
0.0
  0
LINE
  5
   35A
  8
0
  6
CONTINUOUS
 62
     1
 10
66.4699798245015
 20
46.3702270507812
 30
0.0
 11
44.2450039223279
 21
46.3702270507812
 31
0.0
  0
LINE
  5
   35B
  8
0
  6
CONTINUOUS
 62
     1
 10
73.03249566257
 20
116.545241877435
 30
0.0
 11
69.5325000878956
 21
116.545241877435
 31
0.0
  0
ARC
  5
   35C
  8
0
  6
CONTINUOUS
 62
     1
 10
69.532515956445
 20
116.195234775963
 30
0.0
 40
0.349996002028132
 50
90.0005173512766
 51
180.001122723422
  0
LINE
  5
   35D
  8
0
  6
CONTINUOUS
 62
     1
 10
129.540001422509
 20
91.0827314601773
 30
0.0
 11
129.540001422509
 21
107.970236513161
 31
0.0
  0
LINE
  5
   35E
  8
0
  6
CONTINUOUS
 62
     1
 10
69.8650034401263
 20
91.0827314601773
 30
0.0
 11
69.8650034401263
 21
107.970236513161
 31
0.0
  0
LINE
  5
   35F
  8
0
  6
CONTINUOUS
 62
     1
 10
72.3850033304538
 20
91.0827314601773
 30
0.0
 11
72.3850033304538
 21
107.970236513161
 31
0.0
  0
LINE
  5
   360
  8
0
  6
CONTINUOUS
 62
     1
 10
71.125003218397
 20
91.0827314601773
 30
0.0
 11
71.125003218397
 21
107.970236513161
 31
0.0
  0
LINE
  5
   361
  8
0
  6
CONTINUOUS
 62
     1
 10
80.5749990520324
 20
91.0827314601773
 30
0.0
 11
80.5749990520324
 21
107.970236513161
 31
0.0
  0
LINE
  5
   362
  8
0
  6
CONTINUOUS
 62
     1
 10
71.125003218397
 20
54.3327320860261
 30
0.0
 11
71.125003218397
 21
91.0827314601773
 31
0.0
  0
LINE
  5
   363
  8
0
  6
CONTINUOUS
 62
     1
 10
72.3850033304538
 20
54.3327320860261
 30
0.0
 11
72.3850033304538
 21
91.0827314601773
 31
0.0
  0
LINE
  5
   364
  8
0
  6
CONTINUOUS
 62
     1
 10
69.8650034401263
 20
54.3327320860261
 30
0.0
 11
69.8650034401263
 21
91.0827314601773
 31
0.0
  0
LINE
  5
   365
  8
0
  6
CONTINUOUS
 62
     1
 10
69.8650034401263
 20
46.7202375353806
 30
0.0
 11
69.8650034401263
 21
54.3327320651645
 31
0.0
  0
LINE
  5
   366
  8
0
  6
CONTINUOUS
 62
     1
 10
72.3850033304538
 20
46.7202375353806
 30
0.0
 11
72.3850033304538
 21
54.3327320651645
 31
0.0
  0
LINE
  5
   367
  8
0
  6
CONTINUOUS
 62
     1
 10
71.125003218397
 20
46.7202375353806
 30
0.0
 11
71.125003218397
 21
54.3327320651645
 31
0.0
  0
LINE
  5
   368
  8
0
  6
DASHDOT
 62
     3
 10
105.057495117188
 20
46.5138931493881
 30
0.0
 11
105.057495117188
 21
157.34834451779
 31
0.0
  0
LINE
  5
   369
  8
0
  6
CONTINUOUS
 62
     1
 10
71.6324847433747
 20
31.1452324809092
 30
0.0
 11
69.182485118884
 21
31.1452324809092
 31
0.0
  0
LINE
  5
   36A
  8
0
  6
CONTINUOUS
 62
     1
 10
85.8074848357619
 20
31.1452324809092
 30
0.0
 11
74.0824796948614
 21
31.1452324809092
 31
0.0
  0
LINE
  5
   36B
  8
0
  6
CONTINUOUS
 62
     1
 10
111.532479057092
 20
31.1452324809092
 30
0.0
 11
87.5574794653835
 21
31.1452324809092
 31
0.0
  0
LINE
  5
   36C
  8
0
  6
CONTINUOUS
 62
     1
 10
122.557478869337
 20
31.1452324809092
 30
0.0
 11
113.982479015368
 21
31.1452324809092
 31
0.0
  0
LINE
  5
   36D
  8
0
  6
CONTINUOUS
 62
     1
 10
136.03247481379
 20
31.1452225171503
 30
0.0
 11
124.307475013465
 21
31.1452225171503
 31
0.0
  0
LINE
  5
   36E
  8
0
  6
CONTINUOUS
 62
     1
 10
140.93248084637
 20
31.145229048114
 30
0.0
 11
138.482475548041
 21
31.1452343886881
 31
0.0
  0
LINE
  5
   36F
  8
0
  6
CONTINUOUS
 62
     1
 10
140.932473215818
 20
23.7252374792527
 30
0.0
 11
140.932473215818
 21
31.1452309441996
 31
0.0
  0
LINE
  5
   370
  8
0
  6
CONTINUOUS
 62
     1
 10
124.307478839535
 20
31.1452378214852
 30
0.0
 11
122.557484209913
 21
31.1452378214852
 31
0.0
  0
LINE
  5
   371
  8
0
  6
CONTINUOUS
 62
     1
 10
138.482478598136
 20
31.1452378214852
 30
0.0
 11
136.032478639859
 21
31.1452378214852
 31
0.0
  0
LINE
  5
   372
  8
0
  6
CONTINUOUS
 62
     1
 10
87.5574741248074
 20
31.1452378214852
 30
0.0
 11
85.8074848357619
 21
31.1452378214852
 31
0.0
  0
LINE
  5
   373
  8
0
  6
CONTINUOUS
 62
     1
 10
74.0824793610754
 20
31.1452378214852
 30
0.0
 11
71.6324847433747
 21
31.1452378214852
 31
0.0
  0
LINE
  5
   374
  8
0
  6
CONTINUOUS
 62
     1
 10
113.982479015368
 20
31.1452378214852
 30
0.0
 11
111.532479057092
 21
31.1452378214852
 31
0.0
  0
ARC
  5
   375
  8
0
  6
CONTINUOUS
 62
     1
 10
80.5574760704966
 20
27.4702699945967
 30
0.0
 40
2.97503256700413
 50
404.899302393594
 51
495.100813987516
  0
ARC
  5
   376
  8
0
  6
CONTINUOUS
 62
     1
 10
105.057495117188
 20
27.4702429869973
 30
0.0
 40
2.97499672471136
 50
404.900757179708
 51
495.099359217673
  0
ARC
  5
   377
  8
0
  6
CONTINUOUS
 62
     1
 10
129.557451777672
 20
27.4702211382921
 30
0.0
 40
2.97500388320602
 50
404.901246442185
 51
495.09901516511
  0
LINE
  5
   378
  8
0
  6
DASHDOT
 62
     2
 10
84.582480973568
 20
24.3202402848412
 30
0.0
 11
84.582480973568
 21
30.6202304432554
 31
0.0
  0
LINE
  5
   379
  8
0
  6
DASHDOT
 62
     2
 10
76.5324734685559
 20
24.3202352638195
 30
0.0
 11
76.5324734685559
 21
30.6202311984851
 31
0.0
  0
LINE
  5
   37A
  8
0
  6
DASHDOT
 62
     2
 10
101.032449190941
 20
24.3202491058129
 30
0.0
 11
101.032449190941
 21
30.6201851624061
 31
0.0
  0
LINE
  5
   37B
  8
0
  6
DASHDOT
 62
     2
 10
105.057495117188
 20
21.0959609942056
 30
0.0
 11
105.057495117188
 21
48.0520003998071
 31
0.0
  0
LINE
  5
   37C
  8
0
  6
DASHDOT
 62
     2
 10
109.082479809272
 20
24.3202395607206
 30
0.0
 11
109.082479809272
 21
30.6202321268947
 31
0.0
  0
LINE
  5
   37D
  8
0
  6
DASHDOT
 62
     2
 10
117.307518661368
 20
25.2826308637902
 30
0.0
 11
117.307518661368
 21
31.057742558169
 31
0.0
  0
LINE
  5
   37E
  8
0
  6
DASHDOT
 62
     2
 10
125.532465861095
 20
24.3202436134678
 30
0.0
 11
125.532465861095
 21
30.6202301399934
 31
0.0
  0
LINE
  5
   37F
  8
0
  6
DASHDOT
 62
     2
 10
133.58242961255
 20
24.3202032688733
 30
0.0
 11
133.58242961255
 21
30.6202857535166
 31
0.0
  0
LINE
  5
   380
  8
0
  6
DASHDOT
 62
     7
 10
129.557494699955
 20
106.13328637212
 30
0.0
 11
129.557494699955
 21
117.718725166898
 31
0.0
  0
LINE
  5
   381
  8
0
  6
DASHDOT
 62
     7
 10
80.55749553442
 20
106.857376296794
 30
0.0
 11
80.55749553442
 21
119.046223362134
 31
0.0
  0
LINE
  5
   382
  8
0
  6
CONTINUOUS
 62
     1
 10
73.03249566257
 20
91.0827314601773
 30
0.0
 11
68.5700035289372
 21
91.0827314601773
 31
0.0
  0
LINE
  5
   383
  8
0
  6
DASHDOT
 62
     7
 10
150.571311251158
 20
72.707731773102
 30
0.0
 11
41.3730570626594
 21
72.707731773102
 31
0.0
  0
INSERT
  5
   384
  8
255
  6
CONTINUOUS
 62
     7
  2
MOTORE_FRONTE
 10
105.057495117188
 20
45.4952324062588
 30
0.0
 41
0.349999994039536
 42
0.349999994039536
 50
3.50835464724173E-15
 43
0.349999994039536
  0
LINE
  5
   385
  8
0
  6
CONTINUOUS
 62
     7
 10
73.03249566257
 20
108.145245378787
 30
0.0
 11
68.745003525957
 21
108.145245378787
 31
0.0
  0
LINE
  5
   386
  8
0
  6
CONTINUOUS
 62
     1
 10
73.03249566257
 20
54.3327320860261
 30
0.0
 11
68.5700035289372
 21
54.3327320860261
 31
0.0
  0
LINE
  5
   387
  8
0
  6
CONTINUOUS
 62
     1
 10
73.03249566257
 20
46.7202375353806
 30
0.0
 11
68.3950035319175
 21
46.7202375353806
 31
0.0
  0
LINE
  5
   388
  8
0
  6
CONTINUOUS
 62
     1
 10
73.03249566257
 20
46.3702375622027
 30
0.0
 11
68.7450035050954
 21
46.3702375622027
 31
0.0
  0
LINE
  5
   389
  8
0
  6
CONTINUOUS
 62
     1
 10
141.7200022832
 20
63.768742647925
 30
0.0
 11
141.7200022832
 21
81.0425717568705
 31
0.0
  0
LINE
  5
   38A
  8
0
  6
CONTINUOUS
 62
     3
 10
143.715002249226
 20
78.0452425330857
 30
0.0
 11
141.7200022832
 21
78.0452425330857
 31
0.0
  0
LINE
  5
   38B
  8
0
  6
CONTINUOUS
 62
     3
 10
143.715002249226
 20
66.8452427238205
 30
0.0
 11
141.7200022832
 21
66.8452427238205
 31
0.0
  0
LINE
  5
   38C
  8
0
  6
CONTINUOUS
 62
     2
 10
153.217560935718
 20
81.0425717568705
 30
0.0
 11
138.292972585589
 21
81.0425717568705
 31
0.0
  0
LINE
  5
   38D
  8
0
  6
CONTINUOUS
 62
     2
 10
153.35575156859
 20
63.768742647925
 30
0.0
 11
138.292972585589
 21
63.768742647925
 31
0.0
  0
LINE
  5
   38E
  8
0
  6
CONTINUOUS
 62
     2
 10
138.292972585589
 20
63.768742647925
 30
0.0
 11
138.292972585589
 21
81.0425717568705
 31
0.0
  0
LINE
  5
   38F
  8
0
  6
CONTINUOUS
 62
     1
 10
150.907494336367
 20
81.0425717568705
 30
0.0
 11
150.907494336367
 21
151.457724646374
 31
0.0
  0
ARC
  5
   390
  8
0
  6
CONTINUOUS
 62
     1
 10
150.469994343817
 20
151.457724646374
 30
0.0
 40
0.437499992549419
 50
359.999999948034
 51
449.999999948034
  0
LINE
  5
   391
  8
0
  6
CONTINUOUS
 62
     1
 10
150.557494342327
 20
151.895224638923
 30
0.0
 11
73.4699956551195
 21
151.895224638923
 31
0.0
  0
LINE
  5
   392
  8
0
  6
CONTINUOUS
 62
     1
 10
129.207494705916
 20
47.3278502118197
 30
0.0
 11
129.207494705916
 21
138.162601080663
 31
0.0
  0
LINE
  5
   393
  8
0
  6
CONTINUOUS
 62
     1
 10
127.72487093904
 20
139.645224847539
 30
0.0
 11
82.3901192953356
 21
139.645224847539
 31
0.0
  0
LINE
  5
   394
  8
0
  6
CONTINUOUS
 62
     1
 10
134.282494619489
 20
144.545224764093
 30
0.0
 11
76.0074956119061
 21
144.545224764093
 31
0.0
  0
LINE
  5
   395
  8
0
  6
CONTINUOUS
 62
     1
 10
134.282494619489
 20
144.895224758132
 30
0.0
 11
76.0074956119061
 21
144.895224758132
 31
0.0
  0
LINE
  5
   396
  8
0
  6
CONTINUOUS
 62
     1
 10
129.732494696975
 20
144.895224758132
 30
0.0
 11
129.732494696975
 21
151.895224638923
 31
0.0
  0
LINE
  5
   397
  8
0
  6
CONTINUOUS
 62
     1
 10
130.082494691014
 20
144.895224758132
 30
0.0
 11
130.082494691014
 21
151.895224638923
 31
0.0
  0
LINE
  5
   398
  8
0
  6
CONTINUOUS
 62
     1
 10
134.107494622469
 20
144.895224758132
 30
0.0
 11
134.107494622469
 21
151.895224638923
 31
0.0
  0
LINE
  5
   399
  8
0
  6
CONTINUOUS
 62
     1
 10
134.457494616509
 20
71.0014623833068
 30
0.0
 11
134.457494616509
 21
151.895224638923
 31
0.0
  0
LINE
  5
   39A
  8
0
  6
CONTINUOUS
 62
     1
 10
134.107494622469
 20
40.9452265283902
 30
0.0
 11
134.107494622469
 21
144.545224764093
 31
0.0
  0
LINE
  5
   39B
  8
0
  6
CONTINUOUS
 62
     1
 10
80.3824955374003
 20
144.895224758132
 30
0.0
 11
80.3824955374003
 21
151.895224638923
 31
0.0
  0
LINE
  5
   39C
  8
0
  6
CONTINUOUS
 62
     1
 10
80.0324955433607
 20
144.895224758132
 30
0.0
 11
80.0324955433607
 21
151.895224638923
 31
0.0
  0
LINE
  5
   39D
  8
0
  6
CONTINUOUS
 62
     1
 10
80.9074955284596
 20
47.3278502118197
 30
0.0
 11
80.9074955284596
 21
138.162601080663
 31
0.0
  0
LINE
  5
   39E
  8
0
  6
CONTINUOUS
 62
     1
 10
76.0074956119061
 20
40.9452265283902
 30
0.0
 11
76.0074956119061
 21
144.545224764093
 31
0.0
  0
LINE
  5
   39F
  8
0
  6
CONTINUOUS
 62
     1
 10
76.0074956119061
 20
144.895224758132
 30
0.0
 11
76.0074956119061
 21
151.895224638923
 31
0.0
  0
LINE
  5
   3A0
  8
0
  6
CONTINUOUS
 62
     1
 10
75.6574956178665
 20
33.5952266535599
 30
0.0
 11
75.6574956178665
 21
151.895224638923
 31
0.0
  0
LINE
  5
   3A1
  8
0
  6
CONTINUOUS
 62
     1
 10
73.03249566257
 20
34.0327266461094
 30
0.0
 11
73.03249566257
 21
151.457724646374
 31
0.0
  0
ARC
  5
   3A2
  8
0
  6
CONTINUOUS
 62
     1
 10
73.4699956551195
 20
151.457724646374
 30
0.0
 40
0.437499992549419
 50
89.9999999480344
 51
179.999999948034
  0
LINE
  5
   3A3
  8
0
  6
CONTINUOUS
 62
     1
 10
138.292972585589
 20
71.0014623833068
 30
0.0
 11
134.544994615018
 21
71.0014623833068
 31
0.0
  0
LINE
  5
   3A4
  8
0
  6
CONTINUOUS
 62
     1
 10
138.292972585589
 20
70.6514623892673
 30
0.0
 11
134.544994615018
 21
70.6514623892673
 31
0.0
  0
LINE
  5
   3A5
  8
0
  6
CONTINUOUS
 62
     1
 10
134.457494616509
 20
56.3014626336463
 30
0.0
 11
134.457494616509
 21
70.6514623892673
 31
0.0
  0
LINE
  5
   3A6
  8
0
  6
CONTINUOUS
 62
     1
 10
144.257494449616
 20
56.3014626336463
 30
0.0
 11
134.457494616509
 21
56.3014626336463
 31
0.0
  0
LINE
  5
   3A7
  8
0
  6
CONTINUOUS
 62
     1
 10
150.907494336367
 20
55.9514626396068
 30
0.0
 11
134.457494616509
 21
55.9514626396068
 31
0.0
  0
LINE
  5
   3A8
  8
0
  6
CONTINUOUS
 62
     1
 10
144.257494449616
 20
56.3014626336463
 30
0.0
 11
144.257494449616
 21
63.768742647925
 31
0.0
  0
LINE
  5
   3A9
  8
0
  6
CONTINUOUS
 62
     1
 10
144.607494443655
 20
55.9514626396068
 30
0.0
 11
144.607494443655
 21
63.768742647925
 31
0.0
  0
LINE
  5
   3AA
  8
0
  6
CONTINUOUS
 62
     1
 10
150.907494336367
 20
56.3014626336463
 30
0.0
 11
144.694994442165
 21
56.3014626336463
 31
0.0
  0
LINE
  5
   3AB
  8
0
  6
CONTINUOUS
 62
     1
 10
134.457494616509
 20
33.5952266535599
 30
0.0
 11
134.457494616509
 21
55.9514626396068
 31
0.0
  0
LINE
  5
   3AC
  8
0
  6
CONTINUOUS
 62
     1
 10
127.724870939039
 20
45.8452264449437
 30
0.0
 11
82.3901192953356
 21
45.8452264449437
 31
0.0
  0
LINE
  5
   3AD
  8
0
  6
CONTINUOUS
 62
     1
 10
134.107494622469
 20
40.9452265283902
 30
0.0
 11
76.0074956119061
 21
40.9452265283902
 31
0.0
  0
LINE
  5
   3AE
  8
0
  6
CONTINUOUS
 62
     1
 10
134.107494622469
 20
40.5952265343507
 30
0.0
 11
76.0074956119061
 21
40.5952265343507
 31
0.0
  0
LINE
  5
   3AF
  8
0
  6
CONTINUOUS
 62
     1
 10
150.469994343817
 20
33.5952266535599
 30
0.0
 11
73.4699956551194
 21
33.5952266535599
 31
0.0
  0
ARC
  5
   3B0
  8
0
  6
CONTINUOUS
 62
     1
 10
150.469994343817
 20
34.0327266461093
 30
0.0
 40
0.437499992549419
 50
269.999999948034
 51
359.999999948034
  0
LINE
  5
   3B1
  8
0
  6
CONTINUOUS
 62
     1
 10
76.0074956119061
 20
33.5952266535599
 30
0.0
 11
76.0074956119061
 21
40.5952265343507
 31
0.0
  0
ARC
  5
   3B2
  8
0
  6
CONTINUOUS
 62
     1
 10
73.4699956551194
 20
34.0327266461094
 30
0.0
 40
0.437499992549419
 50
179.999999948034
 51
269.999999948034
  0
ARC
  5
   3B3
  8
0
  6
CONTINUOUS
 62
     1
 10
81.6074955165386
 20
138.94522485946
 30
0.0
 40
1.04999998211861
 50
401.810314843813
 51
588.189685052252
  0
ARC
  5
   3B4
  8
0
  6
CONTINUOUS
 62
     1
 10
81.6074955165386
 20
46.5452264330228
 30
0.0
 40
1.04999998211861
 50
131.810314843817
 51
318.189685052256
  0
ARC
  5
   3B5
  8
0
  6
CONTINUOUS
 62
     1
 10
128.507494717836
 20
138.94522485946
 30
0.0
 40
1.04999998211861
 50
311.810314843817
 51
498.189685052256
  0
ARC
  5
   3B6
  8
0
  6
CONTINUOUS
 62
     1
 10
128.507494717836
 20
46.5452264330227
 30
0.0
 40
1.04999998211861
 50
221.810314843813
 51
408.189685052256
  0
LINE
  5
   3B7
  8
0
  6
CONTINUOUS
 62
     1
 10
134.107494622469
 20
33.5952266535599
 30
0.0
 11
134.107494622469
 21
40.5952265343507
 31
0.0
  0
LINE
  5
   3B8
  8
0
  6
CONTINUOUS
 62
     1
 10
150.907494336367
 20
34.0327266461093
 30
0.0
 11
150.907494336367
 21
63.768742647925
 31
0.0
  0
LINE
  5
   3B9
  8
0
  6
CONTINUOUS
 62
     1
 10
141.054986847297
 20
63.768742647925
 30
0.0
 11
141.054986847297
 21
81.0425717568705
 31
0.0
  0
LINE
  5
   3BA
  8
0
  6
CONTINUOUS
 62
     1
 10
140.249986794249
 20
63.768742647925
 30
0.0
 11
140.249986794249
 21
81.0425717568705
 31
0.0
  0
LINE
  5
   3BB
  8
0
  6
CONTINUOUS
 62
     1
 10
138.989987015978
 20
63.768742647925
 30
0.0
 11
138.989987015978
 21
81.0425717568705
 31
0.0
  0
LINE
  5
   3BC
  8
0
  6
DASHDOT
 62
     2
 10
105.057495117188
 20
18.2084505319579
 30
0.0
 11
105.057495117188
 21
45.1644899375594
 31
0.0
  0
LINE
  5
   3BD
  8
0
  6
DASHDOT
 62
     2
 10
129.557451777672
 20
18.2950330996419
 30
0.0
 11
129.557451777672
 21
44.5872728196664
 31
0.0
  0
LINE
  5
   3BE
  8
0
  6
CONTINUOUS
 62
     1
 10
68.3950035319175
 20
54.5077215716243
 30
0.0
 11
68.3950035319175
 21
90.907720951736
 31
0.0
  0
LINE
  5
   3BF
  8
0
  6
CONTINUOUS
 62
     1
 10
69.8650034401263
 20
91.0827209487558
 30
0.0
 11
69.8650034401263
 21
107.970226001739
 31
0.0
  0
LINE
  5
   3C0
  8
0
  6
CONTINUOUS
 62
     1
 10
69.0600033870782
 20
91.0827209487558
 30
0.0
 11
69.0600033870782
 21
107.970226001739
 31
0.0
  0
LINE
  5
   3C1
  8
0
  6
CONTINUOUS
 62
     1
 10
72.3850033304538
 20
91.0827209487558
 30
0.0
 11
72.3850033304538
 21
107.970226001739
 31
0.0
  0
LINE
  5
   3C2
  8
0
  6
CONTINUOUS
 62
     1
 10
71.125003218397
 20
91.0827209487558
 30
0.0
 11
71.125003218397
 21
107.970226001739
 31
0.0
  0
LINE
  5
   3C3
  8
0
  6
CONTINUOUS
 62
     1
 10
71.125003218397
 20
54.3327215746045
 30
0.0
 11
71.125003218397
 21
91.0827209487558
 31
0.0
  0
LINE
  5
   3C4
  8
0
  6
CONTINUOUS
 62
     1
 10
72.3850033304538
 20
54.3327215746045
 30
0.0
 11
72.3850033304538
 21
91.0827209487558
 31
0.0
  0
LINE
  5
   3C5
  8
0
  6
CONTINUOUS
 62
     1
 10
69.8650034401263
 20
54.3327215746045
 30
0.0
 11
69.8650034401263
 21
91.0827209487558
 31
0.0
  0
LINE
  5
   3C6
  8
0
  6
CONTINUOUS
 62
     1
 10
69.0600033870782
 20
54.3327215746045
 30
0.0
 11
69.0600033870782
 21
91.0827209487558
 31
0.0
  0
LINE
  5
   3C7
  8
0
  6
CONTINUOUS
 62
     1
 10
69.8650034401263
 20
46.7202270239591
 30
0.0
 11
69.8650034401263
 21
54.3327215537429
 31
0.0
  0
LINE
  5
   3C8
  8
0
  6
CONTINUOUS
 62
     1
 10
69.0600033870782
 20
46.7202270239591
 30
0.0
 11
69.0600033870782
 21
54.3327215537429
 31
0.0
  0
LINE
  5
   3C9
  8
0
  6
CONTINUOUS
 62
     1
 10
72.3850033304538
 20
46.7202270239591
 30
0.0
 11
72.3850033304538
 21
54.3327215537429
 31
0.0
  0
LINE
  5
   3CA
  8
0
  6
CONTINUOUS
 62
     1
 10
71.125003218397
 20
46.7202270239591
 30
0.0
 11
71.125003218397
 21
54.3327215537429
 31
0.0
  0
ARC
  5
   3CB
  8
0
  6
CONTINUOUS
 62
     1
 10
68.5700035289372
 20
90.907720951736
 30
0.0
 40
0.174999997019768
 50
89.9999999480344
 51
179.999999948034
  0
ARC
  5
   3CC
  8
0
  6
CONTINUOUS
 62
     1
 10
68.5700035289372
 20
54.5077215716243
 30
0.0
 40
0.174999997019768
 50
179.999999948034
 51
269.999999948034
  0
LINE
  5
   3CD
  8
0
  6
CONTINUOUS
 62
     1
 10
69.182485118884
 20
23.7252271693967
 30
0.0
 11
68.3950035319175
 21
23.7252271693967
 31
0.0
  0
LINE
  5
   3CE
  8
0
  6
CONTINUOUS
 62
     3
 10
69.182485118884
 20
23.2702271103881
 30
0.0
 11
69.182485118884
 21
23.7252271693967
 31
0.0
  0
LINE
  5
   3CF
  8
0
  6
CONTINUOUS
 62
     3
 10
92.0199793893876
 20
22.7452274531163
 30
0.0
 11
69.7074851099433
 21
22.7452274531163
 31
0.0
  0
LINE
  5
   3D0
  8
0
  6
CONTINUOUS
 62
     3
 10
116.519984312731
 20
22.7452274531155
 30
0.0
 11
93.5949847031416
 21
22.7452274531155
 31
0.0
  0
LINE
  5
   3D1
  8
0
  6
CONTINUOUS
 62
     3
 10
140.407478565353
 20
22.7452274530959
 30
0.0
 11
118.094984285909
 21
22.7452274530959
 31
0.0
  0
LINE
  5
   3D2
  8
0
  6
CONTINUOUS
 62
     3
 10
140.932478556413
 20
23.2702274441741
 30
0.0
 11
140.932478556413
 21
23.7252271693967
 31
0.0
  0
LINE
  5
   3D3
  8
0
  6
CONTINUOUS
 62
     1
 10
141.7200022832
 20
23.7252271693967
 30
0.0
 11
140.932478556413
 21
23.7252271693967
 31
0.0
  0
LINE
  5
   3D4
  8
0
  6
CONTINUOUS
 62
     1
 10
140.932473215818
 20
23.7252269678312
 30
0.0
 11
140.932473215818
 21
31.3202273070849
 31
0.0
  0
LINE
  5
   3D5
  8
0
  6
CONTINUOUS
 62
     1
 10
69.182485118884
 20
23.7252271693967
 30
0.0
 11
69.182485118884
 21
31.3202273070849
 31
0.0
  0
LINE
  5
   3D6
  8
0
  6
CONTINUOUS
 62
     1
 10
133.582481666396
 20
29.5702217950243
 30
0.0
 11
131.664755564615
 21
29.5702271355987
 31
0.0
  0
LINE
  5
   3D7
  8
0
  6
CONTINUOUS
 62
     1
 10
127.450202566313
 20
29.570217510181
 30
0.0
 11
125.532476463639
 21
29.5702228507554
 31
0.0
  0
LINE
  5
   3D8
  8
0
  6
CONTINUOUS
 62
     1
 10
127.450204921268
 20
25.3702274084114
 30
0.0
 11
125.532478818673
 21
25.3702274084114
 31
0.0
  0
LINE
  5
   3D9
  8
0
  6
CONTINUOUS
 62
     1
 10
133.582478681582
 20
25.3702274084114
 30
0.0
 11
131.664757919563
 21
25.3702274084114
 31
0.0
  0
LINE
  5
   3DA
  8
0
  6
CONTINUOUS
 62
     1
 10
84.582482502957
 20
29.5702193975621
 30
0.0
 11
82.6647564002835
 21
29.5702247381365
 31
0.0
  0
LINE
  5
   3DB
  8
0
  6
CONTINUOUS
 62
     1
 10
78.4502034010954
 20
29.5702204532949
 30
0.0
 11
76.5324772984219
 21
29.5702257938692
 31
0.0
  0
LINE
  5
   3DC
  8
0
  6
CONTINUOUS
 62
     1
 10
78.4502057557334
 20
25.3702274084114
 30
0.0
 11
76.5324796531381
 21
25.3702274084114
 31
0.0
  0
LINE
  5
   3DD
  8
0
  6
CONTINUOUS
 62
     1
 10
84.5824795160475
 20
25.3702274084114
 30
0.0
 11
82.6647587540283
 21
25.3702274084114
 31
0.0
  0
LINE
  5
   3DE
  8
0
  6
CONTINUOUS
 62
     1
 10
109.082482084676
 20
29.5702205962932
 30
0.0
 11
107.164755982003
 21
29.5702259368676
 31
0.0
  0
LINE
  5
   3DF
  8
0
  6
CONTINUOUS
 62
     1
 10
102.950202983708
 20
29.570221652026
 30
0.0
 11
101.032476881034
 21
29.5702269926003
 31
0.0
  0
LINE
  5
   3E0
  8
0
  6
CONTINUOUS
 62
     1
 10
102.950205338501
 20
25.3702274084114
 30
0.0
 11
101.032479235906
 21
25.3702274084114
 31
0.0
  0
LINE
  5
   3E1
  8
0
  6
CONTINUOUS
 62
     1
 10
109.082479098815
 20
25.3702274084114
 30
0.0
 11
107.164758336796
 21
25.3702274084114
 31
0.0
  0
LINE
  5
   3E2
  8
0
  6
CONTINUOUS
 62
     3
 10
118.532484278458
 20
23.6202274382137
 30
0.0
 11
118.532484278458
 21
25.1952274113916
 31
0.0
  0
LINE
  5
   3E3
  8
0
  6
CONTINUOUS
 62
     3
 10
118.532484278458
 20
23.6202274382137
 30
0.0
 11
118.094984285909
 21
23.6202274382137
 31
0.0
  0
LINE
  5
   3E4
  8
0
  6
CONTINUOUS
 62
     3
 10
118.094984285909
 20
22.745227453109
 30
0.0
 11
118.094984285909
 21
23.6202274382078
 31
0.0
  0
LINE
  5
   3E5
  8
0
  6
CONTINUOUS
 62
     3
 10
116.519984312731
 20
22.7452274531155
 30
0.0
 11
116.519984312731
 21
23.6202274382143
 31
0.0
  0
LINE
  5
   3E6
  8
0
  6
CONTINUOUS
 62
     3
 10
116.519984312731
 20
23.6202274382137
 30
0.0
 11
116.082484320182
 21
23.6202274382137
 31
0.0
  0
LINE
  5
   3E7
  8
0
  6
CONTINUOUS
 62
     3
 10
116.082484320182
 20
23.6202274382137
 30
0.0
 11
116.082484320182
 21
25.1952274113916
 31
0.0
  0
LINE
  5
   3E8
  8
0
  6
CONTINUOUS
 62
     3
 10
118.532484278458
 20
25.1952274113916
 30
0.0
 11
116.082484320182
 21
25.1952274113916
 31
0.0
  0
LINE
  5
   3E9
  8
0
  6
CONTINUOUS
 62
     3
 10
91.5824793968382
 20
23.6202274382137
 30
0.0
 11
91.5824793968382
 21
25.1952274113916
 31
0.0
  0
LINE
  5
   3EA
  8
0
  6
CONTINUOUS
 62
     3
 10
92.0199793893876
 20
23.6202274382137
 30
0.0
 11
91.5824793968382
 21
23.6202274382137
 31
0.0
  0
LINE
  5
   3EB
  8
0
  6
CONTINUOUS
 62
     3
 10
92.0199793893876
 20
22.745227453109
 30
0.0
 11
92.0199793893876
 21
23.6202274382078
 31
0.0
  0
LINE
  5
   3EC
  8
0
  6
CONTINUOUS
 62
     3
 10
93.5949793625655
 20
22.7452274531155
 30
0.0
 11
93.5949793625655
 21
23.6202274382143
 31
0.0
  0
LINE
  5
   3ED
  8
0
  6
CONTINUOUS
 62
     3
 10
94.0324793551149
 20
23.6202274382137
 30
0.0
 11
93.5949793625655
 21
23.6202274382137
 31
0.0
  0
LINE
  5
   3EE
  8
0
  6
CONTINUOUS
 62
     3
 10
94.0324793551149
 20
23.6202274382137
 30
0.0
 11
94.0324793551149
 21
25.1952274113916
 31
0.0
  0
LINE
  5
   3EF
  8
0
  6
CONTINUOUS
 62
     3
 10
94.0324793551149
 20
25.1952274113916
 30
0.0
 11
91.5824793968382
 21
25.1952274113916
 31
0.0
  0
ARC
  5
   3F0
  8
0
  6
CONTINUOUS
 62
     3
 10
69.7074833943975
 20
23.2702264846179
 30
0.0
 40
0.524998573004765
 50
179.999941123702
 51
270.000103159103
  0
CIRCLE
  5
   3F1
  8
0
  6
CONTINUOUS
 62
     1
 10
70.5824843199083
 20
24.1452269303336
 30
0.0
 40
0.49000039187499
  0
ARC
  5
   3F2
  8
0
  6
CONTINUOUS
 62
     1
 10
76.5324734685559
 20
27.4702227197307
 30
0.0
 40
2.09999798521424
 50
90.0001399327154
 51
270.000100332566
  0
ARC
  5
   3F3
  8
0
  6
CONTINUOUS
 62
     1
 10
80.5574760704966
 20
27.4702594831751
 30
0.0
 40
2.97503256700413
 50
404.899302393594
 51
495.100813987516
  0
ARC
  5
   3F4
  8
0
  6
CONTINUOUS
 62
     1
 10
84.582480973568
 20
27.4702248526267
 30
0.0
 40
2.09999509708851
 50
269.999747131106
 51
450.000048027357
  0
CIRCLE
  5
   3F5
  8
0
  6
CONTINUOUS
 62
     1
 10
92.8074839458011
 20
28.1702399089068
 30
0.0
 40
1.83749026298616
  0
CIRCLE
  5
   3F6
  8
0
  6
CONTINUOUS
 62
     1
 10
92.8074742902954
 20
28.1702165394522
 30
0.0
 40
0.962507390421093
  0
ARC
  5
   3F7
  8
0
  6
CONTINUOUS
 62
     1
 10
101.032449190941
 20
27.4702066226879
 30
0.0
 40
2.09996804617799
 50
449.999680793011
 51
630.000858183329
  0
ARC
  5
   3F8
  8
0
  6
CONTINUOUS
 62
     1
 10
105.057495117188
 20
27.4702324755757
 30
0.0
 40
2.97499672471136
 50
404.900757179708
 51
495.099359217673
  0
ARC
  5
   3F9
  8
0
  6
CONTINUOUS
 62
     1
 10
109.082479809272
 20
27.4702253323861
 30
0.0
 40
2.09999630096849
 50
269.999783457987
 51
450.000092622467
  0
CIRCLE
  5
   3FA
  8
0
  6
CONTINUOUS
 62
     1
 10
117.307518661368
 20
28.170176199558
 30
0.0
 40
1.83755586507084
  0
CIRCLE
  5
   3FB
  8
0
  6
CONTINUOUS
 62
     1
 10
117.30746409746
 20
28.1702464166554
 30
0.0
 40
0.962478285897051
  0
ARC
  5
   3FC
  8
0
  6
CONTINUOUS
 62
     1
 10
125.532465861095
 20
27.4702263653091
 30
0.0
 40
2.09999328114419
 50
90.0003609959681
 51
270.000490903722
  0
ARC
  5
   3FD
  8
0
  6
CONTINUOUS
 62
     1
 10
133.58242961255
 20
27.4702339997734
 30
0.0
 40
2.10004126020305
 50
270.001034630644
 51
449.998799421533
  0
ARC
  5
   3FE
  8
0
  6
CONTINUOUS
 62
     1
 10
129.557451777672
 20
27.4702106268705
 30
0.0
 40
2.97500388320602
 50
404.901246442185
 51
495.09901516511
  0
CIRCLE
  5
   3FF
  8
0
  6
CONTINUOUS
 62
     1
 10
139.532478398935
 20
24.1452248011596
 30
0.0
 40
0.489998730940279
  0
ARC
  5
   400
  8
0
  6
CONTINUOUS
 62
     1
 10
129.557451777672
 20
27.4702106268705
 30
0.0
 40
2.97500388320602
 50
224.900341297451
 51
315.099658598617
  0
ARC
  5
   401
  8
0
  6
CONTINUOUS
 62
     1
 10
105.057495117188
 20
27.4702324755757
 30
0.0
 40
2.97499672471136
 50
224.901072739214
 51
315.098927156855
  0
ARC
  5
   402
  8
0
  6
CONTINUOUS
 62
     1
 10
80.5574760704966
 20
27.4702594831751
 30
0.0
 40
2.97503256700413
 50
224.901119153159
 51
315.09888074291
  0
LINE
  5
   403
  8
0
  6
DASHDOT
 62
     2
 10
84.5825086196193
 20
27.4702594831751
 30
0.0
 11
76.5324435213738
 21
27.4702594831751
 31
0.0
  0
LINE
  5
   404
  8
0
  6
DASHDOT
 62
     2
 10
84.582480973568
 20
24.3202297734196
 30
0.0
 11
84.582480973568
 21
30.6202199318339
 31
0.0
  0
LINE
  5
   405
  8
0
  6
DASHDOT
 62
     2
 10
87.7324760527751
 20
27.4702248526267
 30
0.0
 11
81.4324858943609
 21
27.4702248526267
 31
0.0
  0
LINE
  5
   406
  8
0
  6
DASHDOT
 62
     2
 10
76.5324734685559
 20
24.3202247523979
 30
0.0
 11
76.5324734685559
 21
30.6202206870636
 31
0.0
  0
LINE
  5
   407
  8
0
  6
DASHDOT
 62
     2
 10
79.6824714358888
 20
27.4702227197307
 30
0.0
 11
73.3824755012231
 21
27.4702227197307
 31
0.0
  0
LINE
  5
   408
  8
0
  6
DASHDOT
 62
     2
 10
101.032449190941
 20
24.3202385943913
 30
0.0
 11
101.032449190941
 21
30.6201746509845
 31
0.0
  0
LINE
  5
   409
  8
0
  6
DASHDOT
 62
     2
 10
104.182417219238
 20
27.4702066226879
 30
0.0
 11
97.8824811626443
 21
27.4702066226879
 31
0.0
  0
LINE
  5
   40A
  8
0
  6
DASHDOT
 62
     2
 10
109.082491824018
 20
27.4702324755757
 30
0.0
 11
101.032498410358
 21
27.4702324755757
 31
0.0
  0
LINE
  5
   40B
  8
0
  6
DASHDOT
 62
     2
 10
109.082479809272
 20
24.320229049299
 30
0.0
 11
109.082479809272
 21
30.6202216154732
 31
0.0
  0
LINE
  5
   40C
  8
0
  6
DASHDOT
 62
     2
 10
112.232476092359
 20
27.4702253323861
 30
0.0
 11
105.932483526185
 21
27.4702253323861
 31
0.0
  0
LINE
  5
   40D
  8
0
  6
DASHDOT
 62
     2
 10
117.307518661368
 20
25.2826203523686
 30
0.0
 11
117.307518661368
 21
31.0577320467475
 31
0.0
  0
LINE
  5
   40E
  8
0
  6
DASHDOT
 62
     2
 10
125.532465861095
 20
24.3202331020463
 30
0.0
 11
125.532465861095
 21
30.6202196285719
 31
0.0
  0
LINE
  5
   40F
  8
0
  6
DASHDOT
 62
     2
 10
128.682459124358
 20
27.4702263653091
 30
0.0
 11
122.382472597832
 21
27.4702263653091
 31
0.0
  0
LINE
  5
   410
  8
0
  6
DASHDOT
 62
     2
 10
129.557451777672
 20
21.182533050468
 30
0.0
 11
129.557451777672
 21
31.3978068544282
 31
0.0
  0
LINE
  5
   411
  8
0
  6
DASHDOT
 62
     2
 10
133.582455642996
 20
27.4702106268705
 30
0.0
 11
125.532447912347
 21
27.4702106268705
 31
0.0
  0
LINE
  5
   412
  8
0
  6
DASHDOT
 62
     2
 10
133.58242961255
 20
24.3201927574517
 30
0.0
 11
133.58242961255
 21
30.6202752420951
 31
0.0
  0
LINE
  5
   413
  8
0
  6
DASHDOT
 62
     2
 10
136.732470854871
 20
27.4702339997734
 30
0.0
 11
130.432388370228
 21
27.4702339997734
 31
0.0
  0
LINE
  5
   414
  8
0
  6
DASHDOT
 62
     2
 10
139.532478398935
 20
22.6052260881008
 30
0.0
 11
139.532478398935
 21
25.6852235142185
 31
0.0
  0
LINE
  5
   415
  8
0
  6
DASHDOT
 62
     2
 10
70.5824843199083
 20
22.60522655634
 30
0.0
 11
70.5824843199083
 21
25.6852273043272
 31
0.0
  0
LINE
  5
   416
  8
0
  6
DASHDOT
 62
     2
 10
72.1224846939019
 20
24.1452269303336
 30
0.0
 11
69.0424839459147
 21
24.1452269303336
 31
0.0
  0
ARC
  5
   417
  8
0
  6
CONTINUOUS
 62
     3
 10
140.407463635117
 20
23.2702228740474
 30
0.0
 40
0.525005873581529
 50
270.001088208967
 51
360.000070595423
  0
LINE
  5
   418
  8
0
  6
DASHDOT
 62
     2
 10
104.035146987294
 20
28.1702399089068
 30
0.0
 11
97.6800744924687
 21
28.1702399089068
 31
0.0
  0
LINE
  5
   419
  8
0
  6
DASHDOT
 62
     2
 10
120.389459421531
 20
28.1702399089068
 30
0.0
 11
105.97574021998
 21
28.1702399089068
 31
0.0
  0
LINE
  5
   41A
  8
0
  6
CONTINUOUS
 62
     1
 10
129.557494699955
 20
32.5452272862195
 30
0.0
 11
129.557494699955
 21
40.4202159702797
 31
0.0
  0
LINE
  5
   41B
  8
0
  6
CONTINUOUS
 62
     1
 10
73.03249566257
 20
91.0827209487558
 30
0.0
 11
68.5700035289372
 21
91.0827209487558
 31
0.0
  0
LINE
  5
   41C
  8
0
  6
CONTINUOUS
 62
     1
 10
73.03249566257
 20
54.3327215746045
 30
0.0
 11
68.5700035289372
 21
54.3327215746045
 31
0.0
  0
LINE
  5
   41D
  8
0
  6
DASHDOT
 62
     7
 10
80.5574760704966
 20
23.4452269340524
 30
0.0
 11
80.5574760704966
 21
31.4952920322978
 31
0.0
  0
LINE
  5
   41E
  8
0
  6
CONTINUOUS
 62
     1
 10
73.03249566257
 20
46.3702270507812
 30
0.0
 11
68.3075035334076
 21
46.3702270507812
 31
0.0
  0
LINE
  5
   41F
  8
0
  6
CONTINUOUS
 62
     1
 10
73.03249566257
 20
46.7202270239591
 30
0.0
 11
68.3075035334076
 21
46.7202270239591
 31
0.0
  0
LINE
  5
   420
  8
0
  6
CONTINUOUS
 62
     1
 10
84.5827188016405
 20
162.22023575902
 30
0.0
 11
82.6647750376415
 21
162.22023575902
 31
0.0
  0
LINE
  5
   421
  8
0
  6
CONTINUOUS
 62
     1
 10
84.5827188016405
 20
158.020235830546
 30
0.0
 11
82.6647750376415
 21
158.020235830546
 31
0.0
  0
LINE
  5
   422
  8
0
  6
CONTINUOUS
 62
     1
 10
78.4502345618275
 20
158.020235680753
 30
0.0
 11
76.5326685467748
 21
158.020242213085
 31
0.0
  0
LINE
  5
   423
  8
0
  6
CONTINUOUS
 62
     1
 10
76.5326685499219
 20
162.220229376928
 30
0.0
 11
78.4502372519295
 21
162.220235909291
 31
0.0
  0
LINE
  5
   424
  8
0
  6
CONTINUOUS
 62
     7
 10
69.1825170904394
 20
156.270253258097
 30
0.0
 11
69.1825170904394
 21
163.795235732198
 31
0.0
  0
LINE
  5
   425
  8
0
  6
CONTINUOUS
 62
     1
 10
102.950217282896
 20
162.22023575902
 30
0.0
 11
101.032629067965
 21
162.22023575902
 31
0.0
  0
LINE
  5
   426
  8
0
  6
CONTINUOUS
 62
     1
 10
102.949841822332
 20
158.020235830546
 30
0.0
 11
101.032629067965
 21
158.020235830546
 31
0.0
  0
LINE
  5
   427
  8
0
  6
CONTINUOUS
 62
     1
 10
107.164773432744
 20
158.020232328386
 30
0.0
 11
109.082542658546
 21
158.020238861432
 31
0.0
  0
LINE
  5
   428
  8
0
  6
CONTINUOUS
 62
     1
 10
109.082542663122
 20
162.220232728893
 30
0.0
 11
107.16477343148
 21
162.220239261939
 31
0.0
  0
LINE
  5
   429
  8
0
  6
CONTINUOUS
 62
     3
 10
140.932473143936
 20
163.795235732198
 30
0.0
 11
140.932473143936
 21
164.495235720277
 31
0.0
  0
LINE
  5
   42A
  8
0
  6
CONTINUOUS
 62
     1
 10
127.450210189943
 20
162.22023575902
 30
0.0
 11
125.532412857131
 21
162.22023575902
 31
0.0
  0
LINE
  5
   42B
  8
0
  6
CONTINUOUS
 62
     1
 10
127.450210189943
 20
158.020235830546
 30
0.0
 11
125.532412857131
 21
158.020235830546
 31
0.0
  0
LINE
  5
   42C
  8
0
  6
CONTINUOUS
 62
     1
 10
131.664755999601
 20
158.020235680754
 30
0.0
 11
133.582540416046
 21
158.02024221383
 31
0.0
  0
LINE
  5
   42D
  8
0
  6
CONTINUOUS
 62
     1
 10
133.582556429578
 20
162.22022937644
 30
0.0
 11
131.664753312703
 21
162.22023590958
 31
0.0
  0
LINE
  5
   42E
  8
0
  6
DASHDOT
 62
     7
 10
103.552710071684
 20
160.120239268495
 30
0.0
 11
98.512548398032
 21
160.120239268495
 31
0.0
  0
LINE
  5
   42F
  8
0
  6
DASHDOT
 62
     7
 10
101.032629067965
 20
157.600158598562
 30
0.0
 11
101.032629067965
 21
162.640319938428
 31
0.0
  0
ARC
  5
   430
  8
0
  6
CONTINUOUS
 62
     1
 10
101.032629067965
 20
160.120239268495
 30
0.0
 40
2.10006689115832
 50
90.0036557603355
 51
269.996301839899
  0
LINE
  5
   431
  8
0
  6
DASHDOT
 62
     7
 10
108.62762288738
 20
160.120093993202
 30
0.0
 11
101.487290520209
 21
160.120093993202
 31
0.0
  0
ARC
  5
   432
  8
0
  6
CONTINUOUS
 62
     1
 10
105.057456703805
 20
160.120093993202
 30
0.0
 40
2.97513848632147
 50
224.89430374687
 51
315.105491686916
  0
LINE
  5
   433
  8
0
  6
DASHDOT
 62
     7
 10
111.602475204085
 20
160.120293326879
 30
0.0
 11
106.562595143907
 21
160.120293326879
 31
0.0
  0
LINE
  5
   434
  8
0
  6
DASHDOT
 62
     7
 10
109.082535507785
 20
157.600351764718
 30
0.0
 11
109.082535507785
 21
162.640231157325
 31
0.0
  0
ARC
  5
   435
  8
0
  6
CONTINUOUS
 62
     1
 10
109.082535507782
 20
160.120293326879
 30
0.0
 40
2.09994941313343
 50
269.999007927624
 51
450.00105270767
  0
LINE
  5
   436
  8
0
  6
DASHDOT
 62
     7
 10
128.052309773844
 20
160.120256174804
 30
0.0
 11
123.012494578114
 21
160.120256174804
 31
0.0
  0
LINE
  5
   437
  8
0
  6
DASHDOT
 62
     7
 10
125.532412857131
 20
157.600343236362
 30
0.0
 11
125.532412857131
 21
162.640169113245
 31
0.0
  0
ARC
  5
   438
  8
0
  6
CONTINUOUS
 62
     1
 10
125.532412857131
 20
160.120256174804
 30
0.0
 40
2.09992678112893
 50
449.999999948034
 51
630.002376467854
  0
LINE
  5
   439
  8
0
  6
DASHDOT
 62
     7
 10
133.127521502158
 20
160.12020627718
 30
0.0
 11
125.987462908018
 21
160.12020627718
 31
0.0
  0
ARC
  5
   43A
  8
0
  6
CONTINUOUS
 62
     1
 10
129.557497545664
 20
160.12020627718
 30
0.0
 40
2.97502441422517
 50
404.901045292561
 51
495.098630845462
  0
LINE
  5
   43B
  8
0
  6
DASHDOT
 62
     7
 10
136.102542072826
 20
160.120225333578
 30
0.0
 11
131.062535123226
 21
160.120225333578
 31
0.0
  0
LINE
  5
   43C
  8
0
  6
DASHDOT
 62
     7
 10
133.582538598026
 20
157.600216518202
 30
0.0
 11
133.582538598026
 21
162.640234148954
 31
0.0
  0
ARC
  5
   43D
  8
0
  6
CONTINUOUS
 62
     1
 10
133.582538598026
 20
160.120225333578
 30
0.0
 40
2.10000667857487
 50
269.998338346111
 51
450.001473300288
  0
LINE
  5
   43E
  8
0
  6
DASHDOT
 62
     7
 10
79.0528188959374
 20
160.120251518408
 30
0.0
 11
74.012553882486
 21
160.120251518408
 31
0.0
  0
LINE
  5
   43F
  8
0
  6
DASHDOT
 62
     7
 10
76.5326863892117
 20
157.600113671106
 30
0.0
 11
76.5326863892117
 21
162.64038936571
 31
0.0
  0
ARC
  5
   440
  8
0
  6
CONTINUOUS
 62
     1
 10
76.5326863892117
 20
160.120251518408
 30
0.0
 40
2.1001148727515
 50
90.0052836333811
 51
269.995265213079
  0
LINE
  5
   441
  8
0
  6
DASHDOT
 62
     7
 10
84.1275726134026
 20
160.120296558337
 30
0.0
 11
76.9874239083067
 21
160.120296558337
 31
0.0
  0
ARC
  5
   442
  8
0
  6
CONTINUOUS
 62
     1
 10
80.5575116122949
 20
160.120296558337
 30
0.0
 40
2.97505973521659
 50
224.901380849089
 51
315.098568474349
  0
LINE
  5
   443
  8
0
  6
DASHDOT
 62
     7
 10
87.102540654257
 20
160.120251699926
 30
0.0
 11
82.0628969490241
 21
160.120251699926
 31
0.0
  0
LINE
  5
   444
  8
0
  6
DASHDOT
 62
     7
 10
84.5827188016405
 20
157.600424506734
 30
0.0
 11
84.5827188016405
 21
162.640078893119
 31
0.0
  0
ARC
  5
   445
  8
0
  6
CONTINUOUS
 62
     1
 10
84.5827188016405
 20
160.120251699926
 30
0.0
 40
2.09985599432712
 50
269.999999948034
 51
449.999945306521
  0
ARC
  5
   446
  8
0
  6
CONTINUOUS
 62
     1
 10
80.5575116122949
 20
160.120296558337
 30
0.0
 40
2.97505973521659
 50
404.897963373026
 51
495.101923170488
  0
ARC
  5
   447
  8
0
  6
CONTINUOUS
 62
     1
 10
105.057456703805
 20
160.120093993202
 30
0.0
 40
2.97513848632147
 50
404.902109287098
 51
495.097767281763
  0
ARC
  5
   448
  8
0
  6
CONTINUOUS
 62
     1
 10
129.557497545664
 20
160.12020627718
 30
0.0
 40
2.97502441422517
 50
224.899545375473
 51
315.100341172749
  0
LINE
  5
   449
  8
0
  6
CONTINUOUS
 62
     1
 10
117.307412009485
 20
155.832770471401
 30
0.0
 11
117.307412009485
 21
163.007770349212
 31
0.0
  0
LINE
  5
   44A
  8
0
  6
DASHDOT
 62
     7
 10
120.89491194839
 20
159.420270410306
 30
0.0
 11
113.71991207058
 21
159.420270410306
 31
0.0
  0
LINE
  5
   44B
  8
0
  6
DASHDOT
 62
     7
 10
92.8075782248901
 20
155.832770471401
 30
0.0
 11
92.8075782248901
 21
163.007770349212
 31
0.0
  0
LINE
  5
   44C
  8
0
  6
DASHDOT
 62
     7
 10
96.3950781637953
 20
159.420270410306
 30
0.0
 11
89.2200782859849
 21
159.420270410306
 31
0.0
  0
LINE
  5
   44D
  8
0
  6
CONTINUOUS
 62
     3
 10
92.0199793893876
 20
164.84524105489
 30
0.0
 11
69.5325000878956
 21
164.84524105489
 31
0.0
  0
ARC
  5
   44E
  8
0
  6
CONTINUOUS
 62
     3
 10
69.532515956445
 20
164.495233953419
 30
0.0
 40
0.349996002028132
 50
90.0005173512766
 51
180.001122723422
  0
LINE
  5
   44F
  8
0
  6
CONTINUOUS
 62
     3
 10
69.1825170904394
 20
163.795235732198
 30
0.0
 11
69.1825170904394
 21
164.495235720277
 31
0.0
  0
LINE
  5
   450
  8
0
  6
CONTINUOUS
 62
     3
 10
69.1825170904394
 20
163.795235732198
 30
0.0
 11
68.3075035334076
 21
163.795235732198
 31
0.0
  0
LINE
  5
   451
  8
0
  6
CONTINUOUS
 62
     3
 10
92.0199793893876
 20
163.9702465801
 30
0.0
 11
92.0199793893876
 21
164.845246565199
 31
0.0
  0
LINE
  5
   452
  8
0
  6
CONTINUOUS
 62
     3
 10
92.0199793893876
 20
163.970246580094
 30
0.0
 11
91.5824793968382
 21
163.970246580094
 31
0.0
  0
LINE
  5
   453
  8
0
  6
CONTINUOUS
 62
     3
 10
91.5824793968382
 20
162.395246606916
 30
0.0
 11
91.5824793968382
 21
163.970246580094
 31
0.0
  0
LINE
  5
   454
  8
0
  6
CONTINUOUS
 62
     3
 10
94.0324793551149
 20
162.395246606916
 30
0.0
 11
91.5824793968382
 21
162.395246606916
 31
0.0
  0
LINE
  5
   455
  8
0
  6
CONTINUOUS
 62
     3
 10
94.0324793551149
 20
162.395246606916
 30
0.0
 11
94.0324793551149
 21
163.970246580094
 31
0.0
  0
LINE
  5
   456
  8
0
  6
CONTINUOUS
 62
     3
 10
94.0324793551149
 20
163.970246580094
 30
0.0
 11
93.5949793625655
 21
163.970246580094
 31
0.0
  0
LINE
  5
   457
  8
0
  6
CONTINUOUS
 62
     3
 10
93.5949793625655
 20
163.970246580094
 30
0.0
 11
93.5949793625655
 21
164.845246565193
 31
0.0
  0
LINE
  5
   458
  8
0
  6
CONTINUOUS
 62
     3
 10
116.519984312731
 20
164.845235714314
 30
0.0
 11
93.5949793625655
 21
164.845235714314
 31
0.0
  0
LINE
  5
   459
  8
0
  6
CONTINUOUS
 62
     3
 10
116.519984312731
 20
163.970246580094
 30
0.0
 11
116.519984312731
 21
164.845246565193
 31
0.0
  0
LINE
  5
   45A
  8
0
  6
CONTINUOUS
 62
     3
 10
116.519984312731
 20
163.970246580094
 30
0.0
 11
116.082484320182
 21
163.970246580094
 31
0.0
  0
LINE
  5
   45B
  8
0
  6
CONTINUOUS
 62
     3
 10
116.082484320182
 20
162.395246606916
 30
0.0
 11
116.082484320182
 21
163.970246580094
 31
0.0
  0
LINE
  5
   45C
  8
0
  6
CONTINUOUS
 62
     3
 10
118.532484278458
 20
162.395246606916
 30
0.0
 11
116.082484320182
 21
162.395246606916
 31
0.0
  0
LINE
  5
   45D
  8
0
  6
CONTINUOUS
 62
     3
 10
118.532484278458
 20
162.395246606916
 30
0.0
 11
118.532484278458
 21
163.970246580094
 31
0.0
  0
LINE
  5
   45E
  8
0
  6
CONTINUOUS
 62
     3
 10
118.532484278458
 20
163.970246580094
 30
0.0
 11
118.094984285909
 21
163.970246580094
 31
0.0
  0
LINE
  5
   45F
  8
0
  6
CONTINUOUS
 62
     3
 10
118.094984285909
 20
163.9702465801
 30
0.0
 11
118.094984285909
 21
164.845246565199
 31
0.0
  0
LINE
  5
   460
  8
0
  6
CONTINUOUS
 62
     3
 10
140.582490146479
 20
164.84524105489
 30
0.0
 11
118.094984285909
 21
164.84524105489
 31
0.0
  0
ARC
  5
   461
  8
0
  6
CONTINUOUS
 62
     3
 10
140.582475897661
 20
164.495227725582
 30
0.0
 40
0.349999722807106
 50
360.000054589548
 51
449.999945306521
  0
LINE
  5
   462
  8
0
  6
CONTINUOUS
 62
     7
 10
140.932486495376
 20
156.270235860353
 30
0.0
 11
140.932486495376
 21
164.495227725582
 31
0.0
  0
LINE
  5
   463
  8
0
  6
CONTINUOUS
 62
     3
 10
141.80750228171
 20
163.795235732198
 30
0.0
 11
140.932473143936
 21
163.795235732198
 31
0.0
  0
LINE
  5
   464
  8
0
  6
CONTINUOUS
 62
     1
 10
140.932486495376
 20
156.270235860353
 30
0.0
 11
140.932486495376
 21
164.495227725582
 31
0.0
  0
LINE
  5
   465
  8
0
  6
CONTINUOUS
 62
     7
 10
140.93249183595
 20
156.445244556243
 30
0.0
 11
69.1825170904394
 21
156.445244556243
 31
0.0
  0
LINE
  5
   466
  8
0
  6
CONTINUOUS
 62
     7
 10
140.93249183595
 20
156.445244556243
 30
0.0
 11
69.1825170904394
 21
156.445244556243
 31
0.0
  0
LINE
  5
   467
  8
0
  6
CONTINUOUS
 62
     1
 10
141.80750228171
 20
156.270235690617
 30
0.0
 11
68.3950035319174
 21
156.270235690617
 31
0.0
  0
LINE
  5
   468
  8
0
  6
CONTINUOUS
 62
     3
 10
68.745003525957
 20
108.075242021678
 30
0.0
 11
68.745003525957
 21
108.425242015717
 31
0.0
  0
LINE
  5
   469
  8
0
  6
DOT
 62
     3
 10
141.370002289161
 20
108.075242021678
 30
0.0
 11
141.370002289161
 21
108.425242015717
 31
0.0
  0
LINE
  5
   46A
  8
0
  6
CONTINUOUS
 62
     1
 10
141.054999090179
 20
151.895224638923
 30
0.0
 11
141.054999090179
 21
156.270235690617
 31
0.0
  0
LINE
  5
   46B
  8
0
  6
CONTINUOUS
 62
     1
 10
140.249998035773
 20
151.895224638923
 30
0.0
 11
140.249998035773
 21
156.270235690617
 31
0.0
  0
LINE
  5
   46C
  8
0
  6
CONTINUOUS
 62
     1
 10
138.990001261577
 20
151.895224638923
 30
0.0
 11
138.990001261577
 21
156.270235690617
 31
0.0
  0
LINE
  5
   46D
  8
0
  6
CONTINUOUS
 62
     1
 10
137.729999146804
 20
151.895224638923
 30
0.0
 11
137.729999146804
 21
156.270235690617
 31
0.0
  0
LINE
  5
   46E
  8
0
  6
CONTINUOUS
 62
     1
 10
135.210000257834
 20
151.895224638923
 30
0.0
 11
135.210000257834
 21
156.270235690617
 31
0.0
  0
LINE
  5
   46F
  8
0
  6
CONTINUOUS
 62
     1
 10
133.949998143062
 20
151.895224638923
 30
0.0
 11
133.949998143062
 21
156.270235690617
 31
0.0
  0
LINE
  5
   470
  8
0
  6
CONTINUOUS
 62
     1
 10
132.690001368865
 20
151.895224638923
 30
0.0
 11
132.690001368865
 21
156.270235690617
 31
0.0
  0
LINE
  5
   471
  8
0
  6
CONTINUOUS
 62
     1
 10
131.429999254092
 20
151.895224638923
 30
0.0
 11
131.429999254092
 21
156.270235690617
 31
0.0
  0
LINE
  5
   472
  8
0
  6
CONTINUOUS
 62
     1
 10
69.0600033870782
 20
108.425242015717
 30
0.0
 11
69.0600033870782
 21
156.270235690617
 31
0.0
  0
LINE
  5
   473
  8
0
  6
CONTINUOUS
 62
     1
 10
69.8650034401263
 20
108.425242015717
 30
0.0
 11
69.8650034401263
 21
156.270235690617
 31
0.0
  0
LINE
  5
   474
  8
0
  6
CONTINUOUS
 62
     1
 10
71.125003218397
 20
108.425242015717
 30
0.0
 11
71.125003218397
 21
156.270235690617
 31
0.0
  0
LINE
  5
   475
  8
0
  6
CONTINUOUS
 62
     1
 10
72.3850033304538
 20
108.425242015717
 30
0.0
 11
72.3850033304538
 21
156.270235690617
 31
0.0
  0
ARC
  5
   476
  8
0
  6
CONTINUOUS
 62
     1
 10
76.5326863892117
 20
160.120296558337
 30
0.0
 40
2.86999995112419
 50
449.679006550204
 51
629.999999948034
  0
ARC
  5
   477
  8
0
  6
CONTINUOUS
 62
     1
 10
80.5575008749961
 20
160.120296558337
 30
0.0
 40
3.56999993920326
 50
413.505022838263
 51
486.494981956033
  0
LINE
  5
   478
  8
0
  6
CONTINUOUS
 62
     1
 10
78.4342349063489
 20
162.990251469532
 30
0.0
 11
76.5487651689183
 21
162.990251469532
 31
0.0
  0
LINE
  5
   479
  8
0
  6
CONTINUOUS
 62
     1
 10
84.5827188016405
 20
162.990251651051
 30
0.0
 11
82.6807665982903
 21
162.990251651051
 31
0.0
  0
LINE
  5
   47A
  8
0
  6
CONTINUOUS
 62
     1
 10
84.5666724544679
 20
157.250296607212
 30
0.0
 11
82.6807059631726
 21
157.250296607212
 31
0.0
  0
LINE
  5
   47B
  8
0
  6
CONTINUOUS
 62
     1
 10
78.4343566699916
 20
157.250251567284
 30
0.0
 11
76.5326863892117
 21
157.250251567284
 31
0.0
  0
ARC
  5
   47C
  8
0
  6
CONTINUOUS
 62
     1
 10
80.5575008749961
 20
160.120296558337
 30
0.0
 40
3.56999993920326
 50
233.507448791235
 51
306.493766547859
  0
ARC
  5
   47D
  8
0
  6
CONTINUOUS
 62
     1
 10
84.5827188016405
 20
160.120251699926
 30
0.0
 40
2.86999995112419
 50
269.679654033286
 51
449.999999948034
  0
ARC
  5
   47E
  8
0
  6
CONTINUOUS
 62
     1
 10
109.082718384408
 20
160.120251699926
 30
0.0
 40
2.86999995112419
 50
269.679654033286
 51
449.999999948034
  0
LINE
  5
   47F
  8
0
  6
CONTINUOUS
 62
     1
 10
109.082718384408
 20
162.990251651051
 30
0.0
 11
107.180766181058
 21
162.990251651051
 31
0.0
  0
LINE
  5
   480
  8
0
  6
CONTINUOUS
 62
     1
 10
109.066672037235
 20
157.250296607212
 30
0.0
 11
107.18070554594
 21
157.250296607212
 31
0.0
  0
ARC
  5
   481
  8
0
  6
CONTINUOUS
 62
     1
 10
105.057500457764
 20
160.120296558337
 30
0.0
 40
3.56999993920326
 50
233.507448791235
 51
306.493766547859
  0
ARC
  5
   482
  8
0
  6
CONTINUOUS
 62
     1
 10
105.057500457764
 20
160.120296558337
 30
0.0
 40
3.56999993920326
 50
413.505022838263
 51
486.494981956033
  0
LINE
  5
   483
  8
0
  6
CONTINUOUS
 62
     1
 10
102.934234489116
 20
162.990251469532
 30
0.0
 11
101.048764751686
 21
162.990251469532
 31
0.0
  0
ARC
  5
   484
  8
0
  6
CONTINUOUS
 62
     1
 10
101.032685971979
 20
160.120296558337
 30
0.0
 40
2.86999995112419
 50
449.679006550204
 51
629.999999948034
  0
LINE
  5
   485
  8
0
  6
CONTINUOUS
 62
     1
 10
102.934356252759
 20
157.250251567284
 30
0.0
 11
101.032685971979
 21
157.250251567284
 31
0.0
  0
ARC
  5
   486
  8
0
  6
CONTINUOUS
 62
     1
 10
133.582717967175
 20
160.120251699926
 30
0.0
 40
2.86999995112419
 50
269.679654033286
 51
449.999999948034
  0
LINE
  5
   487
  8
0
  6
CONTINUOUS
 62
     1
 10
133.582717967175
 20
162.990251651051
 30
0.0
 11
131.680765763825
 21
162.990251651051
 31
0.0
  0
LINE
  5
   488
  8
0
  6
CONTINUOUS
 62
     1
 10
133.566671620003
 20
157.250296607212
 30
0.0
 11
131.680705128708
 21
157.250296607212
 31
0.0
  0
ARC
  5
   489
  8
0
  6
CONTINUOUS
 62
     1
 10
129.557500040531
 20
160.120296558337
 30
0.0
 40
3.56999993920326
 50
233.507448791235
 51
306.493766547859
  0
ARC
  5
   48A
  8
0
  6
CONTINUOUS
 62
     1
 10
129.557500040531
 20
160.120296558337
 30
0.0
 40
3.56999993920326
 50
413.505022838263
 51
486.494981956033
  0
LINE
  5
   48B
  8
0
  6
CONTINUOUS
 62
     1
 10
127.434234071884
 20
162.990251469532
 30
0.0
 11
125.548764334453
 21
162.990251469532
 31
0.0
  0
LINE
  5
   48C
  8
0
  6
CONTINUOUS
 62
     1
 10
127.434355835527
 20
157.250251567284
 30
0.0
 11
125.532685554747
 21
157.250251567284
 31
0.0
  0
ARC
  5
   48D
  8
0
  6
CONTINUOUS
 62
     1
 10
125.532685554747
 20
160.120296558337
 30
0.0
 40
2.86999995112419
 50
449.679006550204
 51
629.999999948034
  0
ARC
  5
   48E
  8
0
  6
CONTINUOUS
 62
     1
 10
92.4575782308506
 20
159.420270410306
 30
0.0
 40
1.04999998211861
 50
89.9999999480344
 51
269.999999948034
  0
ARC
  5
   48F
  8
0
  6
CONTINUOUS
 62
     1
 10
93.1575782189296
 20
159.420270410306
 30
0.0
 40
1.04999998211861
 50
269.999999948034
 51
449.999999948034
  0
LINE
  5
   490
  8
0
  6
CONTINUOUS
 62
     1
 10
93.1575782189296
 20
160.470270392425
 30
0.0
 11
92.4575782308506
 21
160.470270392425
 31
0.0
  0
LINE
  5
   491
  8
0
  6
CONTINUOUS
 62
     1
 10
93.1575782189296
 20
158.370270428188
 30
0.0
 11
92.4575782308506
 21
158.370270428188
 31
0.0
  0
ARC
  5
   492
  8
0
  6
CONTINUOUS
 62
     1
 10
117.657577801697
 20
159.420270410306
 30
0.0
 40
1.04999998211861
 50
269.999999948034
 51
449.999999948034
  0
LINE
  5
   493
  8
0
  6
CONTINUOUS
 62
     1
 10
117.657577801697
 20
160.470270392425
 30
0.0
 11
116.957577813618
 21
160.470270392425
 31
0.0
  0
LINE
  5
   494
  8
0
  6
CONTINUOUS
 62
     1
 10
117.657577801697
 20
158.370270428188
 30
0.0
 11
116.957577813618
 21
158.370270428188
 31
0.0
  0
ARC
  5
   495
  8
0
  6
CONTINUOUS
 62
     1
 10
116.957577813618
 20
159.420270410306
 30
0.0
 40
1.04999998211861
 50
89.9999999480344
 51
269.999999948034
  0
CIRCLE
  5
   496
  8
0
  6
CONTINUOUS
 62
     1
 10
70.5824957042933
 20
163.445241078732
 30
0.0
 40
0.769999986886978
  0
CIRCLE
  5
   497
  8
0
  6
CONTINUOUS
 62
     1
 10
90.357495367527
 20
163.445241078732
 30
0.0
 40
0.769999986886978
  0
CIRCLE
  5
   498
  8
0
  6
CONTINUOUS
 62
     1
 10
119.757494866848
 20
163.445241078732
 30
0.0
 40
0.769999986886978
  0
CIRCLE
  5
   499
  8
0
  6
CONTINUOUS
 62
     1
 10
139.532494530082
 20
163.445241078732
 30
0.0
 40
0.769999986886978
  0
LINE
  5
   49A
  8
0
  6
CONTINUOUS
 62
     3
 10
68.3075035334076
 20
108.425242015717
 30
0.0
 11
68.3075035334076
 21
163.795235732198
 31
0.0
  0
LINE
  5
   49B
  8
0
  6
CONTINUOUS
 62
     3
 10
68.745003525957
 20
108.425242015717
 30
0.0
 11
68.3075035334076
 21
108.425242015717
 31
0.0
  0
LINE
  5
   49C
  8
0
  6
CONTINUOUS
 62
     3
 10
68.745003525957
 20
108.075242021678
 30
0.0
 11
68.3075035334076
 21
108.075242021678
 31
0.0
  0
LINE
  5
   49D
  8
0
  6
DOT
 62
     3
 10
141.80750228171
 20
108.425242015717
 30
0.0
 11
141.370002289161
 21
108.425242015717
 31
0.0
  0
LINE
  5
   49E
  8
0
  6
DOT
 62
     3
 10
141.80750228171
 20
108.075242021678
 30
0.0
 11
141.370002289161
 21
108.075242021678
 31
0.0
  0
LINE
  5
   49F
  8
0
  6
CONTINUOUS
 62
     1
 10
129.032494708896
 20
154.520235890148
 30
0.0
 11
81.0824955254794
 21
154.520235890148
 31
0.0
  0
LINE
  5
   4A0
  8
0
  6
CONTINUOUS
 62
     1
 10
81.0824955254794
 20
151.895224638923
 30
0.0
 11
81.0824955254794
 21
154.520235890148
 31
0.0
  0
LINE
  5
   4A1
  8
0
  6
CONTINUOUS
 62
     1
 10
129.032494708896
 20
151.895224638923
 30
0.0
 11
129.032494708896
 21
154.520235890148
 31
0.0
  0
LINE
  5
   4A2
  8
0
  6
CONTINUOUS
 62
     3
 10
130.169994689524
 20
151.895224638923
 30
0.0
 11
130.169994689524
 21
156.270235690617
 31
0.0
  0
LINE
  5
   4A3
  8
0
  6
CONTINUOUS
 62
     3
 10
80.574995534122
 20
109.720241993664
 30
0.0
 11
80.574995534122
 21
112.695241943
 31
0.0
  0
LINE
  5
   4A4
  8
0
  6
CONTINUOUS
 62
     3
 10
68.3075035334076
 20
23.7252271693967
 30
0.0
 11
68.3075035334076
 21
108.075242021678
 31
0.0
  0
LINE
  5
   4A5
  8
0
  6
CONTINUOUS
 62
     3
 10
69.182485118884
 20
23.7252271693967
 30
0.0
 11
68.3075035334076
 21
23.7252271693967
 31
0.0
  0
LINE
  5
   4A6
  8
0
  6
CONTINUOUS
 62
     3
 10
141.80750228171
 20
23.7252271693967
 30
0.0
 11
141.80750228171
 21
33.5952266535599
 31
0.0
  0
LINE
  5
   4A7
  8
0
  6
CONTINUOUS
 62
     3
 10
141.80750228171
 20
23.7252271693967
 30
0.0
 11
140.932473215818
 21
23.7252271693967
 31
0.0
  0
LINE
  5
   4A8
  8
0
  6
CONTINUOUS
 62
     1
 10
136.469997032031
 20
151.895224638923
 30
0.0
 11
136.469997032031
 21
156.270235690617
 31
0.0
  0
LINE
  5
   4A9
  8
0
  6
CONTINUOUS
 62
     1
 10
141.80750228171
 20
31.3202273070849
 30
0.0
 11
68.3075035334076
 21
31.3202273070849
 31
0.0
  0
LINE
  5
   4AA
  8
0
  6
CONTINUOUS
 62
     7
 10
68.745003525957
 20
46.3702270507812
 30
0.0
 11
68.745003525957
 21
46.7202270239591
 31
0.0
  0
LINE
  5
   4AB
  8
0
  6
CONTINUOUS
 62
     7
 10
68.745003525957
 20
46.7202270239591
 30
0.0
 11
68.3075035334076
 21
46.7202270239591
 31
0.0
  0
LINE
  5
   4AC
  8
0
  6
CONTINUOUS
 62
     7
 10
68.745003525957
 20
46.3702270507812
 30
0.0
 11
68.3075035334076
 21
46.3702270507812
 31
0.0
  0
LINE
  5
   4AD
  8
0
  6
DOT
 62
     3
 10
141.370002289161
 20
46.3702270507812
 30
0.0
 11
141.370002289161
 21
46.7202270239591
 31
0.0
  0
LINE
  5
   4AE
  8
0
  6
DOT
 62
     3
 10
141.80750228171
 20
46.7202270239591
 30
0.0
 11
141.370002289161
 21
46.7202270239591
 31
0.0
  0
LINE
  5
   4AF
  8
0
  6
DOT
 62
     3
 10
141.80750228171
 20
46.3702270507812
 30
0.0
 11
141.370002289161
 21
46.3702270507812
 31
0.0
  0
LINE
  5
   4B0
  8
0
  6
CONTINUOUS
 62
     1
 10
132.690001368865
 20
31.3202273070849
 30
0.0
 11
132.690001368865
 21
33.5952266535599
 31
0.0
  0
LINE
  5
   4B1
  8
0
  6
CONTINUOUS
 62
     1
 10
133.949998143062
 20
31.3202273070849
 30
0.0
 11
133.949998143062
 21
33.5952266535599
 31
0.0
  0
LINE
  5
   4B2
  8
0
  6
CONTINUOUS
 62
     1
 10
135.210000257834
 20
31.3202273070849
 30
0.0
 11
135.210000257834
 21
33.5952266535599
 31
0.0
  0
LINE
  5
   4B3
  8
0
  6
CONTINUOUS
 62
     1
 10
136.469997032031
 20
31.3202273070849
 30
0.0
 11
136.469997032031
 21
33.5952266535599
 31
0.0
  0
LINE
  5
   4B4
  8
0
  6
CONTINUOUS
 62
     1
 10
137.729999146804
 20
31.3202273070849
 30
0.0
 11
137.729999146804
 21
33.5952266535599
 31
0.0
  0
LINE
  5
   4B5
  8
0
  6
CONTINUOUS
 62
     1
 10
138.990001261577
 20
31.3202273070849
 30
0.0
 11
138.990001261577
 21
33.5952266535599
 31
0.0
  0
LINE
  5
   4B6
  8
0
  6
CONTINUOUS
 62
     1
 10
140.249998035773
 20
31.3202273070849
 30
0.0
 11
140.249998035773
 21
33.5952266535599
 31
0.0
  0
LINE
  5
   4B7
  8
0
  6
CONTINUOUS
 62
     1
 10
141.054999090179
 20
31.3202273070849
 30
0.0
 11
141.054999090179
 21
33.5952266535599
 31
0.0
  0
LINE
  5
   4B8
  8
0
  6
CONTINUOUS
 62
     1
 10
69.0600033870782
 20
31.3202273070849
 30
0.0
 11
69.0600033870782
 21
46.3702270507812
 31
0.0
  0
LINE
  5
   4B9
  8
0
  6
CONTINUOUS
 62
     1
 10
69.8650034401263
 20
31.3202273070849
 30
0.0
 11
69.8650034401263
 21
46.3702270507812
 31
0.0
  0
LINE
  5
   4BA
  8
0
  6
CONTINUOUS
 62
     1
 10
71.125003218397
 20
31.3202273070849
 30
0.0
 11
71.125003218397
 21
46.3702270507812
 31
0.0
  0
LINE
  5
   4BB
  8
0
  6
CONTINUOUS
 62
     1
 10
72.3850033304538
 20
31.3202273070849
 30
0.0
 11
72.3850033304538
 21
46.3702270507812
 31
0.0
  0
LINE
  5
   4BC
  8
0
  6
CONTINUOUS
 62
     1
 10
73.6450034425105
 20
31.3202273070849
 30
0.0
 11
73.6450034425105
 21
33.5952266535599
 31
0.0
  0
LINE
  5
   4BD
  8
0
  6
CONTINUOUS
 62
     1
 10
74.9050002167072
 20
31.3202273070849
 30
0.0
 11
74.9050002167072
 21
33.5952266535599
 31
0.0
  0
LINE
  5
   4BE
  8
0
  6
CONTINUOUS
 62
     1
 10
77.4249991056766
 20
31.3202273070849
 30
0.0
 11
77.4249991056766
 21
33.5952266535599
 31
0.0
  0
LINE
  5
   4BF
  8
0
  6
CONTINUOUS
 62
     1
 10
78.6849990842189
 20
31.3202273070849
 30
0.0
 11
78.6849990842189
 21
33.5952266535599
 31
0.0
  0
LINE
  5
   4C0
  8
0
  6
CONTINUOUS
 62
     1
 10
79.9449990627613
 20
31.3202273070849
 30
0.0
 11
79.9449990627613
 21
33.5952266535599
 31
0.0
  0
LINE
  5
   4C1
  8
0
  6
CONTINUOUS
 62
     1
 10
131.430001390323
 20
31.3202273070849
 30
0.0
 11
131.430001390323
 21
33.5952266535599
 31
0.0
  0
LINE
  5
   4C2
  8
0
  6
CONTINUOUS
 62
     1
 10
130.17000141178
 20
31.3202273070849
 30
0.0
 11
130.17000141178
 21
33.5952266535599
 31
0.0
  0
LINE
  5
   4C3
  8
0
  6
DASHDOT
 62
     7
 10
92.8074839458011
 20
25.6327496578416
 30
0.0
 11
92.8074839458011
 21
30.7077301599721
 31
0.0
  0
LINE
  5
   4C4
  8
0
  6
DASHDOT
 62
     7
 10
95.3449741968663
 20
28.1702399089068
 30
0.0
 11
90.2699936947359
 21
28.1702399089068
 31
0.0
  0
LINE
  5
   4C5
  8
0
  6
DASHDOT
 62
     7
 10
105.057495117188
 20
-2.44290155167597
 30
0.0
 11
105.057495117188
 21
9.15538633913888
 31
0.0
  0
LINE
  5
   4C6
  8
0
  6
CONTINUOUS
 62
     1
 10
73.03249566257
 20
108.425242015717
 30
0.0
 11
68.745003525957
 21
108.425242015717
 31
0.0
  0
LINE
  5
   4C7
  8
0
  6
CONTINUOUS
 62
     1
 10
73.03249566257
 20
107.970236513161
 30
0.0
 11
68.3075035334076
 21
107.970236513161
 31
0.0
  0
LINE
  5
   4C8
  8
0
  6
CONTINUOUS
 62
     1
 10
63.5650047490443
 20
91.0827314601773
 30
0.0
 11
63.5650047490443
 21
107.970236513161
 31
0.0
  0
LINE
  5
   4C9
  8
0
  6
CONTINUOUS
 62
     1
 10
64.8250047275866
 20
91.0827314601773
 30
0.0
 11
64.8250047275866
 21
107.970236513161
 31
0.0
  0
LINE
  5
   4CA
  8
0
  6
CONTINUOUS
 62
     1
 10
66.0850047061289
 20
91.0827314601773
 30
0.0
 11
66.0850047061289
 21
107.970236513161
 31
0.0
  0
LINE
  5
   4CB
  8
0
  6
CONTINUOUS
 62
     1
 10
63.5650047490443
 20
54.3327320860261
 30
0.0
 11
63.5650047490443
 21
91.0827314601773
 31
0.0
  0
LINE
  5
   4CC
  8
0
  6
CONTINUOUS
 62
     1
 10
64.8250047275866
 20
54.3327320860261
 30
0.0
 11
64.8250047275866
 21
91.0827314601773
 31
0.0
  0
LINE
  5
   4CD
  8
0
  6
CONTINUOUS
 62
     1
 10
66.0850047061289
 20
54.3327320860261
 30
0.0
 11
66.0850047061289
 21
91.0827314601773
 31
0.0
  0
LINE
  5
   4CE
  8
0
  6
CONTINUOUS
 62
     1
 10
63.5650047490443
 20
46.7202375353806
 30
0.0
 11
63.5650047490443
 21
54.3327320651645
 31
0.0
  0
LINE
  5
   4CF
  8
0
  6
CONTINUOUS
 62
     1
 10
64.8250047275866
 20
46.7202375353806
 30
0.0
 11
64.8250047275866
 21
54.3327320651645
 31
0.0
  0
LINE
  5
   4D0
  8
0
  6
CONTINUOUS
 62
     1
 10
66.0850047061289
 20
46.7202375353806
 30
0.0
 11
66.0850047061289
 21
54.3327320651645
 31
0.0
  0
LINE
  5
   4D1
  8
0
  6
CONTINUOUS
 62
     1
 10
63.5650047490443
 20
31.3202273070849
 30
0.0
 11
63.5650047490443
 21
46.3002375633948
 31
0.0
  0
LINE
  5
   4D2
  8
0
  6
CONTINUOUS
 62
     1
 10
64.8250047275866
 20
31.3202273070849
 30
0.0
 11
64.8250047275866
 21
46.3002375633948
 31
0.0
  0
LINE
  5
   4D3
  8
0
  6
CONTINUOUS
 62
     1
 10
66.0850047061289
 20
31.3202273070849
 30
0.0
 11
66.0850047061289
 21
46.3002375633948
 31
0.0
  0
LINE
  5
   4D4
  8
0
  6
CONTINUOUS
 62
     1
 10
63.5650047490443
 20
108.425242015717
 30
0.0
 11
63.5650047490443
 21
156.270235690617
 31
0.0
  0
LINE
  5
   4D5
  8
0
  6
CONTINUOUS
 62
     1
 10
64.8250047275866
 20
108.425242015717
 30
0.0
 11
64.8250047275866
 21
156.270235690617
 31
0.0
  0
LINE
  5
   4D6
  8
0
  6
CONTINUOUS
 62
     1
 10
66.0850047061289
 20
108.425242015717
 30
0.0
 11
66.0850047061289
 21
156.270235690617
 31
0.0
  0
LINE
  5
   4D7
  8
0
  6
CONTINUOUS
 62
     1
 10
79.9450033352221
 20
151.895224638923
 30
0.0
 11
79.9450033352221
 21
156.270235690617
 31
0.0
  0
LINE
  5
   4D8
  8
0
  6
CONTINUOUS
 62
     1
 10
78.6850012204494
 20
151.895224638923
 30
0.0
 11
78.6850012204494
 21
156.270235690617
 31
0.0
  0
LINE
  5
   4D9
  8
0
  6
CONTINUOUS
 62
     1
 10
77.4249991056766
 20
151.895224638923
 30
0.0
 11
77.4249991056766
 21
156.270235690617
 31
0.0
  0
LINE
  5
   4DA
  8
0
  6
CONTINUOUS
 62
     1
 10
76.1650023314799
 20
151.895224638923
 30
0.0
 11
76.1650023314799
 21
156.270235690617
 31
0.0
  0
LINE
  5
   4DB
  8
0
  6
CONTINUOUS
 62
     1
 10
74.9050002167072
 20
151.895224638923
 30
0.0
 11
74.9050002167072
 21
156.270235690617
 31
0.0
  0
LINE
  5
   4DC
  8
0
  6
CONTINUOUS
 62
     1
 10
73.6450034425105
 20
151.895224638923
 30
0.0
 11
73.6450034425105
 21
156.270235690617
 31
0.0
  0
LINE
  5
   4DD
  8
0
  6
DOT
 62
     3
 10
141.80750228171
 20
33.5952266535599
 30
0.0
 11
141.80750228171
 21
63.768742647925
 31
0.0
  0
LINE
  5
   4DE
  8
0
  6
CONTINUOUS
 62
     3
 10
141.80750228171
 20
151.895224638923
 30
0.0
 11
141.80750228171
 21
163.795235732198
 31
0.0
  0
LINE
  5
   4DF
  8
0
  6
DOT
 62
     3
 10
141.80750228171
 20
81.0425717568705
 30
0.0
 11
141.80750228171
 21
108.075242021678
 31
0.0
  0
LINE
  5
   4E0
  8
0
  6
CONTINUOUS
 62
     3
 10
141.80750228171
 20
63.768742647925
 30
0.0
 11
141.80750228171
 21
81.0425717568705
 31
0.0
  0
TEXT
  5
   4E1
  8
0
  6
CONTINUOUS
 62
     7
 10
285.057348558234
 20
71.7770747487277
 30
0.0
 40
2.99999997871263
  1
X
 50
359.999999948034
 41
0.916666703091727
 72
     1
 11
286.157348600458
 21
73.2770747370919
 31
0.0
 73
     2
  0
TEXT
  5
   4E2
  8
0
  6
CONTINUOUS
 62
     7
 10
167.705273951759
 20
71.4759862794578
 30
0.0
 40
2.99999997871263
  1
X
 50
359.999999948034
 41
0.91666663951344
 72
     2
 11
169.905273887471
 21
71.4759862774735
 31
0.0
  0
TEXT
  5
   4E3
  8
0
  6
CONTINUOUS
 62
     7
 10
37.1620875821108
 20
71.1221332010434
 30
0.0
 40
2.99999997871263
  1
X
 50
359.999999948034
 41
0.916666703091727
 72
     1
 11
38.2620876243354
 21
72.6221331894076
 31
0.0
 73
     2
  0
TEXT
  5
   4E4
  8
0
  6
CONTINUOUS
 62
     7
 10
104.763171709257
 20
184.761252752321
 30
0.0
 40
2.99999997871263
  1
Y
 50
359.999999948034
 41
0.91666663951344
 72
     2
 11
106.963171644969
 21
184.761252750337
 31
0.0
  0
TEXT
  5
   4E5
  8
0
  6
CONTINUOUS
 62
     7
 10
104.156269275238
 20
-7.12550105405838
 30
0.0
 40
2.99999997871263
  1
Y
 50
359.999999948034
 41
0.91666663951344
 72
     2
 11
106.35626921095
 21
-7.12550105604265
 31
0.0
  0
LINE
  5
   4E6
  8
0
  6
CONTINUOUS
 62
     3
 10
143.715002249226
 20
66.8452427238205
 30
0.0
 11
143.715002249226
 21
78.0452425330857
 31
0.0
  0
INSERT
  5
   4E7
  8
0
  6
CONTINUOUS
 62
     7
  2
*UDIM204
 10
0.0
 20
0.0
 30
0.0
  0
INSERT
  5
   4E8
  8
0
  6
CONTINUOUS
 62
     7
  2
*UDIM205
 10
0.0
 20
0.0
 30
0.0
  0
INSERT
  5
   4E9
  8
0
  6
CONTINUOUS
 62
     7
  2
*UDIM206
 10
0.0
 20
0.0
 30
0.0
  0
INSERT
  5
   4EA
  8
0
  6
CONTINUOUS
 62
     7
  2
*UDIM207
 10
0.0
 20
0.0
 30
0.0
  0
INSERT
  5
   4EB
  8
0
  6
CONTINUOUS
 62
     7
  2
*UDIM208
 10
0.0
 20
0.0
 30
0.0
  0
INSERT
  5
   4EC
  8
0
  6
CONTINUOUS
 62
     7
  2
*UDIM209
 10
0.0
 20
0.0
 30
0.0
  0
INSERT
  5
   4ED
  8
0
  6
CONTINUOUS
 62
     7
  2
*UDIM210
 10
0.0
 20
0.0
 30
0.0
  0
INSERT
  5
   4EE
  8
0
  6
CONTINUOUS
 62
     7
  2
*UDIM211
 10
0.0
 20
0.0
 30
0.0
  0
LINE
  5
   4EF
  8
0
  6
CONTINUOUS
 62
     3
 10
185.563812270761
 20
47.0702484011649
 30
0.0
 11
185.563812270761
 21
123.807851573286
 31
0.0
  0
LINE
  5
   4F0
  8
0
  6
CONTINUOUS
 62
     3
 10
221.088790303468
 20
46.3702323913576
 30
0.0
 11
221.088790303468
 21
54.332732255757
 31
0.0
  0
LINE
  5
   4F1
  8
0
  6
CONTINUOUS
 62
     3
 10
221.088790303468
 20
91.0827262893322
 30
0.0
 11
221.088790303468
 21
107.97022600174
 31
0.0
  0
LINE
  5
   4F2
  8
0
  6
CONTINUOUS
 62
     3
 10
219.33879033327
 20
107.97022600174
 30
0.0
 11
221.088790303468
 21
107.97022600174
 31
0.0
  0
LINE
  5
   4F3
  8
0
  6
CONTINUOUS
 62
     3
 10
219.33879033327
 20
46.3702323913576
 30
0.0
 11
221.088790303468
 21
46.3702323913576
 31
0.0
  0
LINE
  5
   4F4
  8
0
  6
CONTINUOUS
 62
     3
 10
221.088790303468
 20
91.0827262893322
 30
0.0
 11
221.788790291547
 21
91.0827262893322
 31
0.0
  0
LINE
  5
   4F5
  8
0
  6
CONTINUOUS
 62
     3
 10
213.388790434598
 20
116.545241877437
 30
0.0
 11
220.038790321349
 21
116.545241877437
 31
0.0
  0
LINE
  5
   4F6
  8
0
  6
CONTINUOUS
 62
     3
 10
220.038790321349
 20
107.97022600174
 30
0.0
 11
220.038790321349
 21
108.145231339336
 31
0.0
  0
LINE
  5
   4F7
  8
0
  6
CONTINUOUS
 62
     3
 10
220.038790321349
 20
116.545241877437
 30
0.0
 11
220.213790318369
 21
116.545241877437
 31
0.0
  0
LINE
  5
   4F8
  8
0
  6
CONTINUOUS
 62
     3
 10
220.038790321349
 20
108.145231339336
 30
0.0
 11
220.213790318369
 21
108.145231339336
 31
0.0
  0
LINE
  5
   4F9
  8
0
  6
CONTINUOUS
 62
     3
 10
220.213790318369
 20
108.145231339336
 30
0.0
 11
220.213790318369
 21
116.545241877437
 31
0.0
  0
LINE
  5
   4FA
  8
0
  6
CONTINUOUS
 62
     3
 10
219.233785552816
 20
108.14522549726
 30
0.0
 11
220.038786607222
 21
108.145230837836
 31
0.0
  0
LINE
  5
   4FB
  8
0
  6
CONTINUOUS
 62
     3
 10
256.96378969252
 20
90.2952209621671
 30
0.0
 11
256.96378969252
 21
91.0827262893322
 31
0.0
  0
LINE
  5
   4FC
  8
0
  6
CONTINUOUS
 62
     3
 10
220.038784980773
 20
107.970236682892
 30
0.0
 11
221.088790303468
 21
107.970236682892
 31
0.0
  0
LINE
  5
   4FD
  8
0
  6
CONTINUOUS
 62
     3
 10
221.088790303468
 20
91.0827369704844
 30
0.0
 11
221.788790291547
 21
91.0827369704844
 31
0.0
  0
LINE
  5
   4FE
  8
0
  6
CONTINUOUS
 62
     3
 10
256.96378969252
 20
86.9702316999437
 30
0.0
 11
256.96378969252
 21
90.2952316433193
 31
0.0
  0
LINE
  5
   4FF
  8
0
  6
CONTINUOUS
 62
     3
 10
202.184400671796
 20
22.7452434748419
 30
0.0
 11
220.213806340099
 21
22.7452434748419
 31
0.0
  0
LINE
  5
   500
  8
0
  6
CONTINUOUS
 62
     3
 10
220.213806340099
 20
22.7452434748409
 30
0.0
 11
220.213806340099
 21
31.1452379912137
 31
0.0
  0
LINE
  5
   501
  8
0
  6
CONTINUOUS
 62
     3
 10
219.233806623817
 20
31.1452379912137
 30
0.0
 11
220.213806340099
 21
31.1452379912137
 31
0.0
  0
LINE
  5
   502
  8
0
  6
CONTINUOUS
 62
     3
 10
221.088806592226
 20
32.5452377976411
 30
0.0
 11
221.088806592226
 21
46.195237565183
 31
0.0
  0
LINE
  5
   503
  8
0
  6
CONTINUOUS
 62
     3
 10
219.233806623817
 20
46.195237565183
 30
0.0
 11
221.088806592226
 21
46.195237565183
 31
0.0
  0
LINE
  5
   504
  8
0
  6
CONTINUOUS
 62
     3
 10
219.233806623817
 20
32.5452377976411
 30
0.0
 11
221.088806592226
 21
32.5452377976411
 31
0.0
  0
LINE
  5
   505
  8
0
  6
CONTINUOUS
 62
     3
 10
220.213806607127
 20
32.5452377976411
 30
0.0
 11
220.213806607127
 21
46.195237565183
 31
0.0
  0
LINE
  5
   506
  8
0
  6
CONTINUOUS
 62
     3
 10
241.85382676872
 20
55.9836414315492
 30
0.0
 11
242.743753115808
 21
58.6668229780409
 31
0.0
  0
LINE
  5
   507
  8
0
  6
CONTINUOUS
 62
     3
 10
233.166465781934
 20
58.1416437503235
 30
0.0
 11
241.424538936748
 21
55.7575568088673
 31
0.0
  0
LINE
  5
   508
  8
0
  6
CONTINUOUS
 62
     3
 10
234.488651391674
 20
62.1280982165877
 30
0.0
 11
242.534653987427
 21
59.1046396237683
 31
0.0
  0
LINE
  5
   509
  8
0
  6
CONTINUOUS
 62
     3
 10
221.550679052562
 20
66.4192141208638
 30
0.0
 11
234.488654306827
 21
62.1280974531158
 31
0.0
  0
LINE
  5
   50A
  8
0
  6
CONTINUOUS
 62
     3
 10
219.33879033327
 20
62.7278460265375
 30
0.0
 11
233.166473442928
 21
58.1416414387188
 31
0.0
  0
ARC
  5
   50B
  8
0
  6
CONTINUOUS
 62
     3
 10
241.521623826393
 20
56.0938197222166
 30
0.0
 40
0.349990964861241
 50
253.896746069851
 51
341.65100647314
  0
ARC
  5
   50C
  8
0
  6
CONTINUOUS
 62
     3
 10
242.411553364486
 20
58.7770058574454
 30
0.0
 40
0.349991035761385
 50
341.650951831627
 51
429.405209888843
  0
LINE
  5
   50D
  8
0
  6
CONTINUOUS
 62
     3
 10
186.438812255859
 20
116.545241877437
 30
0.0
 11
213.388811796904
 21
116.545241877437
 31
0.0
  0
LINE
  5
   50E
  8
0
  6
CONTINUOUS
 62
     1
 10
253.813789746164
 20
35.3452325791122
 30
0.0
 11
253.813789746164
 21
35.3715589489032
 31
0.0
  0
LINE
  5
   50F
  8
0
  6
DASHDOT
 62
     7
 10
178.616634034441
 20
72.7077266022566
 30
0.0
 11
282.063958910134
 21
72.7077266022566
 31
0.0
  0
INSERT
  5
   510
  8
255
  6
CONTINUOUS
 62
     3
  2
$1MOTORE
 10
221.788790291547
 20
54.332732255757
 30
0.0
 41
0.349999994039536
 42
0.349999994039536
 43
0.349999994039536
  0
LINE
  5
   511
  8
0
  6
CONTINUOUS
 62
     7
 10
256.96378969252
 20
103.245231422782
 30
0.0
 11
263.963789573311
 21
103.245231422782
 31
0.0
  0
LINE
  5
   512
  8
0
  6
CONTINUOUS
 62
     7
 10
256.96378969252
 20
94.4952315717937
 30
0.0
 11
263.963789573311
 21
94.4952315717937
 31
0.0
  0
LINE
  5
   513
  8
0
  6
CONTINUOUS
 62
     7
 10
263.963789573311
 20
94.4952315717937
 30
0.0
 11
263.963789573311
 21
103.245231422782
 31
0.0
  0
INSERT
  5
   514
  8
255
  6
CONTINUOUS
 62
     7
  2
$1MOSTRINA
 10
186.438822937012
 20
46.3702514237687
 30
0.0
 41
0.349999994039536
 42
0.349999994039536
 43
0.349999994039536
  0
LINE
  5
   515
  8
0
  6
DASHDOT
 62
   130
 10
185.563812270761
 20
47.0702484011649
 30
0.0
 11
185.563812270761
 21
123.807851573286
 31
0.0
  0
LINE
  5
   516
  8
0
  6
CONTINUOUS
 62
     3
 10
185.913812306523
 20
75.2452479213475
 30
0.0
 11
185.913812306523
 21
79.7952478438615
 31
0.0
  0
LINE
  5
   517
  8
0
  6
CONTINUOUS
 62
   130
 10
185.563812604547
 20
161.170246458054
 30
0.0
 11
186.438812255859
 21
161.170246458054
 31
0.0
  0
LINE
  5
   518
  8
0
  6
CONTINUOUS
 62
   130
 10
185.563812604547
 20
157.670241177082
 30
0.0
 11
186.438812255859
 21
157.670241177082
 31
0.0
  0
LINE
  5
   519
  8
0
  6
CONTINUOUS
 62
   130
 10
185.563812604547
 20
157.670241177082
 30
0.0
 11
185.563812604547
 21
158.138075641771
 31
0.0
  0
LINE
  5
   51A
  8
0
  6
CONTINUOUS
 62
   130
 10
185.563812604547
 20
158.138107685228
 30
0.0
 11
185.563812604547
 21
158.742949288697
 31
0.0
  0
LINE
  5
   51B
  8
0
  6
CONTINUOUS
 62
   130
 10
185.563812604547
 20
158.742992013305
 30
0.0
 11
185.563812604547
 21
161.170246124268
 31
0.0
  0
LINE
  5
   51C
  8
0
  6
CONTINUOUS
 62
     3
 10
186.08881226182
 20
47.0702480673789
 30
0.0
 11
186.438812234998
 21
47.0702480673789
 31
0.0
  0
LINE
  5
   51D
  8
0
  6
CONTINUOUS
 62
     3
 10
186.08881226182
 20
75.4924418258292
 30
0.0
 11
186.08881226182
 21
79.7952478438615
 31
0.0
  0
LINE
  5
   51E
  8
0
  6
CONTINUOUS
 62
   130
 10
186.08881226182
 20
152.595246610828
 30
0.0
 11
186.438812255859
 21
152.595241270252
 31
0.0
  0
LINE
  5
   51F
  8
0
  6
CONTINUOUS
 62
   130
 10
186.438811621232
 20
152.805997561227
 30
0.0
 11
186.438812309665
 21
152.595231726198
 31
0.0
  0
LINE
  5
   520
  8
0
  6
CONTINUOUS
 62
   130
 10
186.438812255859
 20
152.595241263509
 30
0.0
 11
186.438812255859
 21
164.845241054893
 31
0.0
  0
LINE
  5
   521
  8
0
  6
CONTINUOUS
 62
     3
 10
186.438812234998
 20
47.0702480673789
 30
0.0
 11
202.001240253663
 21
47.0702480673789
 31
0.0
  0
LINE
  5
   522
  8
0
  6
CONTINUOUS
 62
     3
 10
186.08881094025
 20
70.0984197241227
 30
0.0
 11
186.438812255859
 21
70.1921990396338
 31
0.0
  0
LINE
  5
   523
  8
0
  6
CONTINUOUS
 62
     3
 10
186.088814839416
 20
75.4924368604958
 30
0.0
 11
188.970618365656
 21
74.7202324607835
 31
0.0
  0
LINE
  5
   524
  8
0
  6
CONTINUOUS
 62
     3
 10
187.313789810537
 20
74.7202324902584
 30
0.0
 11
219.233789266943
 21
74.720247647852
 31
0.0
  0
LINE
  5
   525
  8
0
  6
CONTINUOUS
 62
     3
 10
187.313789810537
 20
70.8702218746382
 30
0.0
 11
219.233789266943
 21
70.870237031379
 31
0.0
  0
LINE
  5
   526
  8
0
  6
CONTINUOUS
 62
     3
 10
186.438812255859
 20
70.1921817537386
 30
0.0
 11
186.438812255859
 21
75.2452479213475
 31
0.0
  0
LINE
  5
   527
  8
0
  6
DASHDOT
 62
   130
 10
185.563812270761
 20
33.2452432960272
 30
0.0
 11
185.563812270761
 21
172.107850750742
 31
0.0
  0
LINE
  5
   528
  8
0
  6
CONTINUOUS
 62
     3
 10
185.563812270761
 20
52.320248311758
 30
0.0
 11
186.088811928034
 21
52.320248311758
 31
0.0
  0
LINE
  5
   529
  8
0
  6
CONTINUOUS
 62
     3
 10
185.563812382022
 20
47.070248401165
 30
0.0
 11
186.088812373082
 21
47.070248067379
 31
0.0
  0
LINE
  5
   52A
  8
0
  6
CONTINUOUS
 62
     3
 10
202.001231832433
 20
47.0702464743405
 30
0.0
 11
202.188792849408
 21
46.3702468509929
 31
0.0
  0
LINE
  5
   52B
  8
0
  6
CONTINUOUS
 62
     3
 10
202.013806650043
 20
46.3702484130858
 30
0.0
 11
213.388790434599
 21
46.3702484130858
 31
0.0
  0
LINE
  5
   52C
  8
0
  6
CONTINUOUS
 62
     3
 10
211.463790467382
 20
70.7827266350391
 30
0.0
 11
211.463790467382
 21
70.8702373147012
 31
0.0
  0
LINE
  5
   52D
  8
0
  6
CONTINUOUS
 62
     3
 10
211.463790467382
 20
74.7202479302882
 30
0.0
 11
211.463790467382
 21
74.8077265664938
 31
0.0
  0
LINE
  5
   52E
  8
0
  6
CONTINUOUS
 62
     3
 10
211.463790467382
 20
74.8077265664938
 30
0.0
 11
219.233789266943
 21
74.8077265664938
 31
0.0
  0
LINE
  5
   52F
  8
0
  6
CONTINUOUS
 62
     3
 10
211.463787068712
 20
70.7827246943282
 30
0.0
 11
219.233789266943
 21
70.7826815815471
 31
0.0
  0
LINE
  5
   530
  8
0
  6
CONTINUOUS
 62
     3
 10
185.913812598586
 20
79.7952478438615
 30
0.0
 11
186.088812929392
 21
79.7952478438615
 31
0.0
  0
LINE
  5
   531
  8
0
  6
CONTINUOUS
 62
     3
 10
185.913812577724
 20
75.2452479213475
 30
0.0
 11
186.438812234998
 21
75.2452479213475
 31
0.0
  0
LINE
  5
   532
  8
0
  6
CONTINUOUS
 62
     3
 10
221.088790303468
 20
46.7202323853971
 30
0.0
 11
221.088790303468
 21
54.332732255757
 31
0.0
  0
LINE
  5
   533
  8
0
  6
CONTINUOUS
 62
     3
 10
221.088790303468
 20
108.425242015719
 30
0.0
 11
221.088790303468
 21
156.270225179196
 31
0.0
  0
LINE
  5
   534
  8
0
  6
CONTINUOUS
 62
     7
 10
219.33879033327
 20
107.97022600174
 30
0.0
 11
221.088790303468
 21
107.97022600174
 31
0.0
  0
LINE
  5
   535
  8
0
  6
CONTINUOUS
 62
     3
 10
220.213806607127
 20
46.3702323913576
 30
0.0
 11
220.738790309428
 21
46.3702323913576
 31
0.0
  0
LINE
  5
   536
  8
0
  6
CONTINUOUS
 62
     3
 10
221.788790291547
 20
54.332732255757
 30
0.0
 11
221.788790291547
 21
91.0827262893322
 31
0.0
  0
LINE
  5
   537
  8
0
  6
CONTINUOUS
 62
     3
 10
221.088790303468
 20
54.332732255757
 30
0.0
 11
221.788790291547
 21
54.332732255757
 31
0.0
  0
LINE
  5
   538
  8
0
  6
CONTINUOUS
 62
     3
 10
221.088790303468
 20
91.0827262893322
 30
0.0
 11
221.788790291547
 21
91.0827262893322
 31
0.0
  0
LINE
  5
   539
  8
0
  6
CONTINUOUS
 62
     3
 10
212.338790452479
 20
81.1952405217456
 30
0.0
 11
212.338790452479
 21
105.778378964094
 31
0.0
  0
LINE
  5
   53A
  8
0
  6
CONTINUOUS
 62
     3
 10
212.338789610358
 20
81.1952406621034
 30
0.0
 11
213.388789893991
 21
81.0202353486283
 31
0.0
  0
LINE
  5
   53B
  8
0
  6
CONTINUOUS
 62
     3
 10
212.338790119387
 20
81.1952380847065
 30
0.0
 11
212.338790453173
 21
81.3702327413131
 31
0.0
  0
LINE
  5
   53C
  8
0
  6
CONTINUOUS
 62
     3
 10
186.438812255859
 20
163.795253167211
 30
0.0
 11
219.233789266943
 21
163.795225672062
 31
0.0
  0
LINE
  5
   53D
  8
0
  6
CONTINUOUS
 62
     3
 10
213.388790434598
 20
164.845241054893
 30
0.0
 11
220.038790321349
 21
164.845241054893
 31
0.0
  0
LINE
  5
   53E
  8
0
  6
CONTINUOUS
 62
     3
 10
213.388790434598
 20
46.3702484130858
 30
0.0
 11
219.338784992694
 21
46.3702484130858
 31
0.0
  0
LINE
  5
   53F
  8
0
  6
CONTINUOUS
 62
     3
 10
213.388790434598
 20
47.0702430605888
 30
0.0
 11
219.233789266943
 21
47.0702430605888
 31
0.0
  0
LINE
  5
   540
  8
0
  6
CONTINUOUS
 62
     3
 10
213.388790434598
 20
46.3702484130858
 30
0.0
 11
213.388790434598
 21
70.7827140132181
 31
0.0
  0
LINE
  5
   541
  8
0
  6
CONTINUOUS
 62
     3
 10
220.038790321349
 20
164.845241054893
 30
0.0
 11
220.213790318369
 21
164.845241054893
 31
0.0
  0
LINE
  5
   542
  8
0
  6
CONTINUOUS
 62
     3
 10
220.213790318369
 20
156.270241200924
 30
0.0
 11
220.213790318369
 21
164.845241054893
 31
0.0
  0
LINE
  5
   543
  8
0
  6
CONTINUOUS
 62
     3
 10
219.233789266943
 20
74.8077265664938
 30
0.0
 11
219.233789266943
 21
163.795225672062
 31
0.0
  0
LINE
  5
   544
  8
0
  6
CONTINUOUS
 62
     3
 10
219.233789266943
 20
47.0702430605888
 30
0.0
 11
219.233789266943
 21
70.7826815815471
 31
0.0
  0
LINE
  5
   545
  8
0
  6
CONTINUOUS
 62
     3
 10
220.738790309428
 20
107.970236682892
 30
0.0
 11
221.088790303468
 21
107.970236682892
 31
0.0
  0
LINE
  5
   546
  8
0
  6
CONTINUOUS
 62
     3
 10
221.088790303468
 20
91.0827369704844
 30
0.0
 11
221.788790291547
 21
91.0827369704844
 31
0.0
  0
LINE
  5
   547
  8
0
  6
CONTINUOUS
 62
     3
 10
219.33879033327
 20
46.3702323913576
 30
0.0
 11
219.33879033327
 21
107.97022600174
 31
0.0
  0
LINE
  5
   548
  8
0
  6
CONTINUOUS
 62
     3
 10
219.233790902417
 20
66.8277274454695
 30
0.0
 11
219.338791965319
 21
66.8092136759159
 31
0.0
  0
LINE
  5
   549
  8
0
  6
CONTINUOUS
 62
     3
 10
219.233791178812
 20
47.0702484142553
 30
0.0
 11
219.338786899098
 21
47.0011520451384
 31
0.0
  0
LINE
  5
   54A
  8
0
  6
CONTINUOUS
 62
     3
 10
219.233787542437
 20
78.7627307416329
 30
0.0
 11
219.338788605068
 21
78.781246517432
 31
0.0
  0
LINE
  5
   54B
  8
0
  6
CONTINUOUS
 62
     3
 10
219.233787811609
 20
153.407860337838
 30
0.0
 11
219.338783531472
 21
153.363159722135
 31
0.0
  0
LINE
  5
   54C
  8
0
  6
CONTINUOUS
 62
     3
 10
219.233793520182
 20
154.932621867277
 30
0.0
 11
219.338789245464
 21
154.977317142693
 31
0.0
  0
LINE
  5
   54D
  8
0
  6
CONTINUOUS
 62
     2
 10
185.563812270761
 20
26.420243412256
 30
0.0
 11
186.263806918264
 21
26.420243412256
 31
0.0
  0
LINE
  5
   54E
  8
0
  6
CONTINUOUS
 62
     2
 10
185.563812270761
 20
26.420243412256
 30
0.0
 11
185.563812270761
 21
52.320248311758
 31
0.0
  0
LINE
  5
   54F
  8
0
  6
CONTINUOUS
 62
     3
 10
185.563806930184
 20
46.8952430635688
 30
0.0
 11
202.013806650043
 21
46.8952430635688
 31
0.0
  0
LINE
  5
   550
  8
0
  6
CONTINUOUS
 62
     2
 10
220.213806340099
 20
22.7452434748409
 30
0.0
 11
220.213806340099
 21
31.1452379912137
 31
0.0
  0
LINE
  5
   551
  8
0
  6
CONTINUOUS
 62
     3
 10
185.563806930184
 20
21.6952402512365
 30
0.0
 11
185.563806930184
 21
46.8952430635688
 31
0.0
  0
LINE
  5
   552
  8
0
  6
CONTINUOUS
 62
     2
 10
219.233806623817
 20
31.1452379912137
 30
0.0
 11
220.213806340099
 21
31.1452379912137
 31
0.0
  0
LINE
  5
   553
  8
0
  6
CONTINUOUS
 62
     3
 10
219.233806623817
 20
23.7252445262668
 30
0.0
 11
219.233806623817
 21
31.1452379912137
 31
0.0
  0
LINE
  5
   554
  8
0
  6
CONTINUOUS
 62
     3
 10
202.013806650043
 20
46.3702377319335
 30
0.0
 11
202.013806650043
 21
46.8952430635688
 31
0.0
  0
LINE
  5
   555
  8
0
  6
CONTINUOUS
 62
     2
 10
219.233806623817
 20
32.5452379673718
 30
0.0
 11
219.233806623817
 21
46.3702377319335
 31
0.0
  0
LINE
  5
   556
  8
0
  6
CONTINUOUS
 62
     2
 10
186.263806918264
 20
22.7452434748419
 30
0.0
 11
186.263806918264
 21
26.420243412256
 31
0.0
  0
LINE
  5
   557
  8
0
  6
CONTINUOUS
 62
     7
 10
221.088806592226
 20
32.5452377976411
 30
0.0
 11
221.088806592226
 21
46.195237565183
 31
0.0
  0
LINE
  5
   558
  8
0
  6
CONTINUOUS
 62
     7
 10
219.233806623817
 20
46.195237565183
 30
0.0
 11
220.213806607127
 21
46.195237565183
 31
0.0
  0
LINE
  5
   559
  8
0
  6
CONTINUOUS
 62
     7
 10
219.233806623817
 20
32.5452377976411
 30
0.0
 11
221.088806592226
 21
32.5452377976411
 31
0.0
  0
LINE
  5
   55A
  8
0
  6
CONTINUOUS
 62
     7
 10
220.213806607127
 20
32.5452377976411
 30
0.0
 11
220.213806607127
 21
46.195237565183
 31
0.0
  0
LINE
  5
   55B
  8
0
  6
CONTINUOUS
 62
     3
 10
213.388790434598
 20
74.8077265664938
 30
0.0
 11
213.388790434598
 21
81.0202211201195
 31
0.0
  0
LINE
  5
   55C
  8
0
  6
CONTINUOUS
 62
     3
 10
219.233789266943
 20
70.870237031379
 30
0.0
 11
219.233789266943
 21
74.720247647852
 31
0.0
  0
LINE
  5
   55D
  8
0
  6
CONTINUOUS
 62
     3
 10
187.313789810537
 20
70.870237031379
 30
0.0
 11
187.313789810537
 21
74.7202324902584
 31
0.0
  0
LINE
  5
   55E
  8
0
  6
DASHDOT
 62
     7
 10
184.513806948066
 20
21.6952402512365
 30
0.0
 11
184.513806948066
 21
171.962430069427
 31
0.0
  0
LINE
  5
   55F
  8
0
  6
CONTINUOUS
 62
     3
 10
186.438812255859
 20
70.1921990396338
 30
0.0
 11
188.969342408244
 21
70.870229021201
 31
0.0
  0
LINE
  5
   560
  8
0
  6
CONTINUOUS
 62
     3
 10
186.438812255859
 20
75.2452479213475
 30
0.0
 11
186.438812255859
 21
75.3986559692721
 31
0.0
  0
LINE
  5
   561
  8
0
  6
CONTINUOUS
 62
     3
 10
186.08881226182
 20
115.495241895319
 30
0.0
 11
186.08881226182
 21
151.549011530694
 31
0.0
  0
LINE
  5
   562
  8
0
  6
CONTINUOUS
 62
     3
 10
186.08881226182
 20
52.320248311758
 30
0.0
 11
186.08881226182
 21
70.0984172594858
 31
0.0
  0
LINE
  5
   563
  8
0
  6
CONTINUOUS
 62
     2
 10
219.233806623817
 20
31.1452379912137
 30
0.0
 11
219.233806623817
 21
32.5452379673718
 31
0.0
  0
LINE
  5
   564
  8
0
  6
CONTINUOUS
 62
   130
 10
186.438812255859
 20
164.845241054893
 30
0.0
 11
213.388811796904
 21
164.845241054893
 31
0.0
  0
LINE
  5
   565
  8
0
  6
DASHDOT
 62
   218
 10
179.331620329686
 20
159.420225125552
 30
0.0
 11
185.991401071039
 21
159.420225125552
 31
0.0
  0
LINE
  5
   566
  8
0
  6
CONTINUOUS
 62
     7
 10
183.113806971908
 20
109.720225971937
 30
0.0
 11
183.113806971908
 21
112.520225924254
 31
0.0
  0
LINE
  5
   567
  8
0
  6
CONTINUOUS
 62
     7
 10
181.71380699575
 20
110.245225962997
 30
0.0
 11
181.71380699575
 21
111.995225933194
 31
0.0
  0
LINE
  5
   568
  8
0
  6
CONTINUOUS
 62
     7
 10
183.113806971908
 20
112.520225924254
 30
0.0
 11
184.513806948066
 21
112.520225924254
 31
0.0
  0
LINE
  5
   569
  8
0
  6
CONTINUOUS
 62
     7
 10
183.113806971908
 20
109.720225971937
 30
0.0
 11
184.513806948066
 21
109.720225971937
 31
0.0
  0
LINE
  5
   56A
  8
0
  6
CONTINUOUS
 62
     7
 10
181.71380699575
 20
111.995225933194
 30
0.0
 11
184.513806948066
 21
111.995225933194
 31
0.0
  0
LINE
  5
   56B
  8
0
  6
CONTINUOUS
 62
     7
 10
181.71380699575
 20
110.245225962997
 30
0.0
 11
184.513806948066
 21
110.245225962997
 31
0.0
  0
LINE
  5
   56C
  8
0
  6
CONTINUOUS
 62
     7
 10
183.113806971908
 20
29.5702273368838
 30
0.0
 11
184.513806948066
 21
29.5702273368838
 31
0.0
  0
LINE
  5
   56D
  8
0
  6
CONTINUOUS
 62
     7
 10
181.71380699575
 20
29.0452273458245
 30
0.0
 11
184.513806948066
 21
29.0452273458245
 31
0.0
  0
LINE
  5
   56E
  8
0
  6
CONTINUOUS
 62
     7
 10
181.71380699575
 20
27.2952273756268
 30
0.0
 11
184.513806948066
 21
27.2952273756268
 31
0.0
  0
LINE
  5
   56F
  8
0
  6
CONTINUOUS
 62
     7
 10
183.113806971908
 20
26.7702273845675
 30
0.0
 11
184.513806948066
 21
26.7702273845675
 31
0.0
  0
LINE
  5
   570
  8
0
  6
CONTINUOUS
 62
     7
 10
183.113806971908
 20
26.7702273845675
 30
0.0
 11
183.113806971908
 21
29.5702273368838
 31
0.0
  0
LINE
  5
   571
  8
0
  6
CONTINUOUS
 62
     7
 10
181.71380699575
 20
27.2952273756268
 30
0.0
 11
181.71380699575
 21
29.0452273458245
 31
0.0
  0
LINE
  5
   572
  8
0
  6
CONTINUOUS
 62
     3
 10
221.088790303468
 20
91.0827262893322
 30
0.0
 11
221.088790303468
 21
107.97022600174
 31
0.0
  0
LINE
  5
   573
  8
0
  6
CONTINUOUS
 62
     3
 10
220.213790318369
 20
156.270241200924
 30
0.0
 11
221.088790303468
 21
156.270241200924
 31
0.0
  0
LINE
  5
   574
  8
0
  6
CONTINUOUS
 62
     7
 10
219.33879033327
 20
108.07524202168
 30
0.0
 11
219.33879033327
 21
164.845241054893
 31
0.0
  0
LINE
  5
   575
  8
0
  6
CONTINUOUS
 62
     7
 10
219.33879033327
 20
108.07524202168
 30
0.0
 11
220.738790309428
 21
108.07524202168
 31
0.0
  0
LINE
  5
   576
  8
0
  6
CONTINUOUS
 62
     7
 10
219.33879033327
 20
108.425242015719
 30
0.0
 11
220.738790309428
 21
108.425242015719
 31
0.0
  0
LINE
  5
   577
  8
0
  6
CONTINUOUS
 62
     3
 10
220.738790309428
 20
107.970236682892
 30
0.0
 11
220.738790309428
 21
108.425242015719
 31
0.0
  0
LINE
  5
   578
  8
0
  6
CONTINUOUS
 62
     3
 10
186.08881226182
 20
115.495241895319
 30
0.0
 11
219.33879033327
 21
115.495241895319
 31
0.0
  0
LINE
  5
   579
  8
0
  6
CONTINUOUS
 62
     3
 10
213.388790434598
 20
105.870242059232
 30
0.0
 11
213.388790434598
 21
117.070241868497
 31
0.0
  0
LINE
  5
   57A
  8
0
  6
CONTINUOUS
 62
     3
 10
212.338790452479
 20
117.070241868497
 30
0.0
 11
213.388790434598
 21
117.070241868497
 31
0.0
  0
LINE
  5
   57B
  8
0
  6
CONTINUOUS
 62
     3
 10
212.338790452479
 20
117.070241868497
 30
0.0
 11
212.338790452479
 21
153.120241254569
 31
0.0
  0
LINE
  5
   57C
  8
0
  6
CONTINUOUS
 62
     3
 10
212.338790452479
 20
153.120241254569
 30
0.0
 11
213.388790434598
 21
153.120241254569
 31
0.0
  0
LINE
  5
   57D
  8
0
  6
CONTINUOUS
 62
     3
 10
213.388790434598
 20
153.120241254569
 30
0.0
 11
213.388790434598
 21
164.845241054893
 31
0.0
  0
LINE
  5
   57E
  8
0
  6
CONTINUOUS
 62
     3
 10
212.338790452479
 20
105.778378964094
 30
0.0
 11
213.388790434598
 21
105.870242059232
 31
0.0
  0
LINE
  5
   57F
  8
0
  6
CONTINUOUS
 62
     7
 10
183.113806971908
 20
160.82022510171
 30
0.0
 11
184.513806948066
 21
160.82022510171
 31
0.0
  0
LINE
  5
   580
  8
0
  6
CONTINUOUS
 62
     7
 10
181.71380699575
 20
160.29522511065
 30
0.0
 11
184.513806948066
 21
160.29522511065
 31
0.0
  0
LINE
  5
   581
  8
0
  6
CONTINUOUS
 62
     7
 10
181.71380699575
 20
158.545225140453
 30
0.0
 11
181.71380699575
 21
160.29522511065
 31
0.0
  0
LINE
  5
   582
  8
0
  6
CONTINUOUS
 62
     7
 10
181.71380699575
 20
158.545225140453
 30
0.0
 11
184.513806948066
 21
158.545225140453
 31
0.0
  0
LINE
  5
   583
  8
0
  6
CONTINUOUS
 62
     7
 10
183.113806971908
 20
158.020225149393
 30
0.0
 11
184.513806948066
 21
158.020225149393
 31
0.0
  0
LINE
  5
   584
  8
0
  6
CONTINUOUS
 62
     7
 10
183.113806971908
 20
158.020225149393
 30
0.0
 11
183.113806971908
 21
160.82022510171
 31
0.0
  0
LINE
  5
   585
  8
0
  6
DASHDOT
 62
   218
 10
179.331620329686
 20
111.120225948096
 30
0.0
 11
185.991401071039
 21
111.120225948096
 31
0.0
  0
LINE
  5
   586
  8
0
  6
CONTINUOUS
 62
     3
 10
185.563812604547
 20
112.870247280598
 30
0.0
 11
186.438812255859
 21
112.870247280598
 31
0.0
  0
LINE
  5
   587
  8
0
  6
CONTINUOUS
 62
     3
 10
185.563812604547
 20
109.370241999626
 30
0.0
 11
186.438812255859
 21
109.370241999626
 31
0.0
  0
LINE
  5
   588
  8
0
  6
CONTINUOUS
 62
     3
 10
186.438812255859
 20
104.295242086053
 30
0.0
 11
186.438812255859
 21
115.495241895319
 31
0.0
  0
LINE
  5
   589
  8
0
  6
CONTINUOUS
 62
     3
 10
186.08881226182
 20
104.295247433372
 30
0.0
 11
186.438812255859
 21
104.295242092796
 31
0.0
  0
LINE
  5
   58A
  8
0
  6
CONTINUOUS
 62
     3
 10
186.08881226182
 20
79.7952478438615
 30
0.0
 11
186.08881226182
 21
104.295247426629
 31
0.0
  0
LINE
  5
   58B
  8
0
  6
CONTINUOUS
 62
   130
 10
186.08881226182
 20
151.549011530694
 30
0.0
 11
186.08881226182
 21
152.595246604085
 31
0.0
  0
LINE
  5
   58C
  8
0
  6
CONTINUOUS
 62
     3
 10
219.33879033327
 20
46.7202323853971
 30
0.0
 11
220.738790309428
 21
46.7202323853971
 31
0.0
  0
LINE
  5
   58D
  8
0
  6
CONTINUOUS
 62
     3
 10
220.738790309428
 20
46.3702323913576
 30
0.0
 11
220.738790309428
 21
46.7202323853971
 31
0.0
  0
LINE
  5
   58E
  8
0
  6
CONTINUOUS
 62
     3
 10
220.738790309428
 20
108.425242015719
 30
0.0
 11
221.088790303468
 21
108.425242015719
 31
0.0
  0
LINE
  5
   58F
  8
0
  6
CONTINUOUS
 62
     3
 10
220.738790309428
 20
46.7202323853971
 30
0.0
 11
221.088790303468
 21
46.7202323853971
 31
0.0
  0
LINE
  5
   590
  8
0
  6
CONTINUOUS
 62
     3
 10
220.213806607127
 20
46.195237565183
 30
0.0
 11
220.213806607127
 21
46.3702323913576
 31
0.0
  0
LINE
  5
   591
  8
0
  6
CONTINUOUS
 62
     7
 10
220.213806607127
 20
46.195237565183
 30
0.0
 11
221.088806592226
 21
46.195237565183
 31
0.0
  0
LINE
  5
   592
  8
0
  6
CONTINUOUS
 62
     7
 10
219.233806623817
 20
46.3702375622027
 30
0.0
 11
220.213806607127
 21
46.3702375622027
 31
0.0
  0
LINE
  5
   593
  8
0
  6
CONTINUOUS
 62
     3
 10
186.08881226182
 20
115.495241895319
 30
0.0
 11
186.438812255859
 21
115.495241895319
 31
0.0
  0
LINE
  5
   594
  8
0
  6
CONTINUOUS
 62
     7
 10
219.33879033327
 20
156.270241200924
 30
0.0
 11
220.213790318369
 21
156.270241200924
 31
0.0
  0
LINE
  5
   595
  8
0
  6
CONTINUOUS
 62
     2
 10
186.263806918264
 20
22.7452434748409
 30
0.0
 11
220.213806340099
 21
22.7452434748409
 31
0.0
  0
LINE
  5
   596
  8
0
  6
CONTINUOUS
 62
     3
 10
186.263806918264
 20
23.7252445262668
 30
0.0
 11
219.233806623817
 21
23.7252445262668
 31
0.0
  0
LINE
  5
   597
  8
0
  6
CONTINUOUS
 62
     7
 10
185.563812604547
 20
109.370241999626
 30
0.0
 11
185.563812604547
 21
112.870247280598
 31
0.0
  0
TEXT
  5
   598
  8
0
  6
CONTINUOUS
 62
     1
 10
233.05940246582
 20
-195.708282449416
 30
0.0
 40
2.99999997871263
  1
  S6X III IV
 41
0.91666663951344
 72
     2
 11
265.509401290828
 21
-195.708282449416
 31
0.0
  0
TEXT
  5
   599
  8
0
  6
CONTINUOUS
 62
     1
 10
137.032585074838
 20
-193.442703264313
 30
0.0
 40
2.00000003448554
  1
M 4352 96-12-17
 41
0.749999888539317
 72
     1
 11
148.132583618164
 21
-192.44270324707
 31
0.0
 73
     2
  0
TEXT
  5
   59A
  8
0
  6
CONTINUOUS
 62
     1
 10
219.037477944422
 20
-177.398010271149
 30
0.0
 40
2.00000003448554
  1
3-4POLE LOW VOLTAGE M.C.C.B SER.ISOMAX SUPERLIMIT.
 41
0.637500002980232
 72
     1
 11
250.774978637695
 21
-176.398010253906
 31
0.0
 73
     2
  0
TEXT
  5
   59B
  8
0
  6
CONTINUOUS
 62
     1
 10
221.587478000311
 20
-180.398010271149
 30
0.0
 40
2.00000003448554
  1
VERSION WITH STORED ENERGY OPERATING MECHANISM
 41
0.637500002980232
 72
     1
 11
250.774978637695
 21
-179.398010253906
 31
0.0
 73
     2
  0
TEXT
  5
   59C
  8
0
  6
CONTINUOUS
 62
     1
 10
211.377375923938
 20
-185.468276994782
 30
0.0
 40
2.00000003448554
  1
INT.AUTOMATICO SERIE ISOMAX SUPERLIM. TRIP-TETR.
 41
0.749999888539317
 72
     1
 11
247.22737121582
 21
-184.468276977539
 31
0.0
 73
     2
  0
TEXT
  5
   59D
  8
0
  6
CONTINUOUS
 62
     1
 10
212.877375726881
 20
-188.468276994782
 30
0.0
 40
2.00000003448554
  1
ESECUZ. FISSA CON COM. MOT.ACCUMOLO DI ENERGIA
 41
0.749999888539317
 72
     1
 11
247.22737121582
 21
-187.468276977539
 31
0.0
 73
     2
  0
INSERT
  5
   59E
  8
0
  6
CONTINUOUS
 62
     7
  2
*UDIM212
 10
0.0
 20
0.0
 30
0.0
  0
INSERT
  5
   59F
  8
0
  6
CONTINUOUS
 62
     7
  2
*UDIM213
 10
0.0
 20
0.0
 30
0.0
  0
INSERT
  5
   5A0
  8
0
  6
CONTINUOUS
 62
     7
  2
*UDIM214
 10
0.0
 20
0.0
 30
0.0
  0
INSERT
  5
   5A1
  8
0
  6
CONTINUOUS
 62
     7
  2
*UDIM215
 10
0.0
 20
0.0
 30
0.0
  0
INSERT
  5
   5A2
  8
0
  6
CONTINUOUS
 62
     7
  2
*UDIM216
 10
0.0
 20
0.0
 30
0.0
  0
INSERT
  5
   5A3
  8
0
  6
CONTINUOUS
 62
     7
  2
*UDIM217
 10
0.0
 20
0.0
 30
0.0
  0
TEXT
  5
   5A4
  8
0
  6
CONTINUOUS
 62
     1
 10
130.357193272712
 20
-178.689426199598
 30
0.0
 40
2.00000003448554
  1
96-11-27 ZANCHI.
 41
0.749999888539317
 72
     2
 11
154.057190162307
 21
-178.689426199598
 31
0.0
  0
TEXT
  5
   5A5
  8
0
  6
CONTINUOUS
 62
     1
 10
231.973706979957
 20
-204.689867759807
 30
0.0
 40
4.00000006897109
  1
605031/181
 41
0.937499981746078
 72
     2
 11
268.723706883472
 21
-204.689867759807
 31
0.0
  0
INSERT
  5
   5A6
  8
0
  6
CONTINUOUS
 62
     7
  2
*UDIM218
 10
0.0
 20
0.0
 30
0.0
  0
LINE
  5
   5A7
  8
0
  6
CONTINUOUS
 62
     7
 10
154.307491773706
 20
-34.3880392638433
 30
0.0
 11
154.307489828537
 21
-111.385094923411
 31
0.0
  0
LINE
  5
   5A8
  8
0
  6
CONTINUOUS
 62
     7
 10
155.807491330347
 20
-51.9378538445087
 30
0.0
 11
155.807491172453
 21
-58.1878538445087
 31
0.0
  0
LINE
  5
   5A9
  8
0
  6
CONTINUOUS
 62
     7
 10
154.307491172453
 20
-58.1878538445087
 30
0.0
 11
155.807491172453
 21
-58.1878538445087
 31
0.0
  0
LINE
  5
   5AA
  8
0
  6
CONTINUOUS
 62
     7
 10
154.307491330347
 20
-51.9378538445087
 30
0.0
 11
155.807491330347
 21
-51.9378538445087
 31
0.0
  0
LINE
  5
   5AB
  8
0
  6
CONTINUOUS
 62
     7
 10
154.307489828537
 20
-111.385094923411
 30
0.0
 11
155.807489828537
 21
-111.385094923411
 31
0.0
  0
LINE
  5
   5AC
  8
0
  6
CONTINUOUS
 62
     7
 10
155.807489828537
 20
-111.385094923411
 30
0.0
 11
155.807489670644
 21
-117.635094923411
 31
0.0
  0
LINE
  5
   5AD
  8
0
  6
CONTINUOUS
 62
     7
 10
154.307489828537
 20
-111.385094923411
 30
0.0
 11
154.307489536917
 21
-122.928512796718
 31
0.0
  0
LINE
  5
   5AE
  8
0
  6
CONTINUOUS
 62
     7
 10
154.307489670644
 20
-117.635094923411
 30
0.0
 11
155.807489670644
 21
-117.635094923411
 31
0.0
  0
LINE
  5
   5AF
  8
0
  6
DASHDOT
 62
     2
 10
155.057491330347
 20
-49.2651743429519
 30
0.0
 11
155.057491330347
 21
-119.121848668431
 31
0.0
  0
LINE
  5
   5B0
  8
0
  6
CONTINUOUS
 62
     2
 10
78.7607170477609
 20
-34.3880392638433
 30
0.0
 11
78.7607390155716
 21
-122.928512796718
 31
0.0
  0
LINE
  5
   5B1
  8
0
  6
CONTINUOUS
 62
     2
 10
78.7607170477609
 20
-34.3880392638433
 30
0.0
 11
154.307491773706
 21
-34.3880392638433
 31
0.0
  0
LINE
  5
   5B2
  8
0
  6
CONTINUOUS
 62
     2
 10
78.7607390155716
 20
-122.928512796718
 30
0.0
 11
154.307489536917
 21
-122.928512796718
 31
0.0
  0
CIRCLE
  5
   5B3
  8
0
  6
CONTINUOUS
 62
     7
 10
133.544921097277
 20
-113.810254006537
 30
0.0
 40
0.25
  0
LINE
  5
   5B4
  8
0
  6
CONTINUOUS
 62
     2
 10
83.3074817594313
 20
-40.5376510620117
 30
0.0
 11
126.807500901262
 21
-40.5376510620117
 31
0.0
  0
LINE
  5
   5B5
  8
0
  6
CONTINUOUS
 62
     2
 10
83.3074817594313
 20
-40.5376510620117
 30
0.0
 11
83.3075006158198
 21
-116.537648677826
 31
0.0
  0
LINE
  5
   5B6
  8
0
  6
CONTINUOUS
 62
     2
 10
83.3075006158198
 20
-116.537648677826
 30
0.0
 11
126.807498981282
 21
-116.537648677826
 31
0.0
  0
LINE
  5
   5B7
  8
0
  6
CONTINUOUS
 62
     2
 10
126.807500901262
 20
-40.5376510620117
 30
0.0
 11
126.807498981282
 21
-116.537648677826
 31
0.0
  0
CIRCLE
  5
   5B8
  8
0
  6
CONTINUOUS
 62
     2
 10
130.307501660778
 20
-38.6626431749427
 30
0.0
 40
1.0
  0
CIRCLE
  5
   5B9
  8
0
  6
CONTINUOUS
 62
     2
 10
109.995005492235
 20
-38.6626464287322
 30
0.0
 40
1.0
  0
CIRCLE
  5
   5BA
  8
0
  6
CONTINUOUS
 62
     2
 10
89.6825057900005
 20
-38.6626337017028
 30
0.0
 40
1.0
  0
CIRCLE
  5
   5BB
  8
0
  6
CONTINUOUS
 62
     2
 10
130.307500435197
 20
-78.5376449530774
 30
0.0
 40
1.0
  0
CIRCLE
  5
   5BC
  8
0
  6
CONTINUOUS
 62
     2
 10
130.307500252539
 20
-118.412645765796
 30
0.0
 40
1.0
  0
CIRCLE
  5
   5BD
  8
0
  6
CONTINUOUS
 62
     2
 10
109.995002491129
 20
-118.41264540177
 30
0.0
 40
1.0
  0
CIRCLE
  5
   5BE
  8
0
  6
CONTINUOUS
 62
     2
 10
89.6825059044068
 20
-118.412645258758
 30
0.0
 40
1.0
  0
ARC
  5
   5BF
  8
0
  6
CONTINUOUS
 62
     2
 10
135.557500240508
 20
-96.6001493403614
 30
0.0
 40
2.0
 50
359.999985245866
 51
539.999985245866
  0
LINE
  5
   5C0
  8
0
  6
CONTINUOUS
 62
     2
 10
133.557500240508
 20
-96.6001488307867
 30
0.0
 11
133.557498791406
 21
-102.28764522198
 31
0.0
  0
LINE
  5
   5C1
  8
0
  6
CONTINUOUS
 62
     2
 10
137.557500240508
 20
-96.600149849936
 30
0.0
 11
137.557498791406
 21
-102.28764624113
 31
0.0
  0
ARC
  5
   5C2
  8
0
  6
CONTINUOUS
 62
     2
 10
135.557498791406
 20
-102.287645731555
 30
0.0
 40
2.0
 50
539.999985245866
 51
719.999985245866
  0
LINE
  5
   5C3
  8
0
  6
DASHDOT
 62
     2
 10
130.307500435197
 20
-77.1626449530774
 30
0.0
 11
130.307500435197
 21
-79.9126449530774
 31
0.0
  0
LINE
  5
   5C4
  8
0
  6
DASHDOT
 62
     2
 10
74.1768856599096
 20
-78.5376449530774
 30
0.0
 11
142.597921828064
 21
-78.5376449530774
 31
0.0
  0
LINE
  5
   5C5
  8
0
  6
DASHDOT
 62
     2
 10
130.307501660778
 20
-37.2876431749427
 30
0.0
 11
130.307501660778
 21
-40.0376431749427
 31
0.0
  0
LINE
  5
   5C6
  8
0
  6
DASHDOT
 62
     2
 10
111.908496795981
 20
-38.6626431749427
 30
0.0
 11
131.682501660778
 21
-38.6626431749427
 31
0.0
  0
LINE
  5
   5C7
  8
0
  6
DASHDOT
 62
     2
 10
109.995005492235
 20
-37.2876464287322
 30
0.0
 11
109.995005492235
 21
-40.0376464287322
 31
0.0
  0
LINE
  5
   5C8
  8
0
  6
DASHDOT
 62
     2
 10
91.371944064298
 20
-38.6626464287322
 30
0.0
 11
111.370005492235
 21
-38.6626464287322
 31
0.0
  0
LINE
  5
   5C9
  8
0
  6
DASHDOT
 62
     2
 10
89.6825057900005
 20
-37.2876337017028
 30
0.0
 11
89.6825057900005
 21
-40.0376337017028
 31
0.0
  0
LINE
  5
   5CA
  8
0
  6
DASHDOT
 62
     2
 10
88.3075057900005
 20
-38.6626337017028
 30
0.0
 11
91.0575057900005
 21
-38.6626337017028
 31
0.0
  0
LINE
  5
   5CB
  8
0
  6
DASHDOT
 62
     2
 10
89.6825059044068
 20
-117.037645258758
 30
0.0
 11
89.6825059044068
 21
-119.787645258758
 31
0.0
  0
LINE
  5
   5CC
  8
0
  6
DASHDOT
 62
     2
 10
88.3075059044068
 20
-118.412645258758
 30
0.0
 11
91.0575059044068
 21
-118.412645258758
 31
0.0
  0
LINE
  5
   5CD
  8
0
  6
DASHDOT
 62
     2
 10
109.995002491129
 20
-117.03764540177
 30
0.0
 11
109.995002491129
 21
-119.78764540177
 31
0.0
  0
LINE
  5
   5CE
  8
0
  6
DASHDOT
 62
     2
 10
92.157952190022
 20
-118.41264540177
 30
0.0
 11
111.370002491129
 21
-118.41264540177
 31
0.0
  0
LINE
  5
   5CF
  8
0
  6
DASHDOT
 62
     2
 10
130.307500252539
 20
-117.037645765796
 30
0.0
 11
130.307500252539
 21
-119.787645765796
 31
0.0
  0
LINE
  5
   5D0
  8
0
  6
DASHDOT
 62
     2
 10
112.460374841703
 20
-118.412645765796
 30
0.0
 11
131.682500252539
 21
-118.412645765796
 31
0.0
  0
LINE
  5
   5D1
  8
0
  6
DASHDOT
 62
     2
 10
105.057491330347
 20
-8.59717794032379
 30
0.0
 11
105.057491330347
 21
-137.487964410968
 31
0.0
  0
LINE
  5
   5D2
  8
0
  6
DASHDOT
 62
     2
 10
135.557500240508
 20
-94.2251493403614
 30
0.0
 11
135.557500240508
 21
-98.9751493403614
 31
0.0
  0
LINE
  5
   5D3
  8
0
  6
DASHDOT
 62
     2
 10
133.182500240508
 20
-96.6001493403614
 30
0.0
 11
137.932500240508
 21
-96.6001493403614
 31
0.0
  0
LINE
  5
   5D4
  8
0
  6
DASHDOT
 62
     2
 10
135.557498791406
 20
-99.912645731555
 30
0.0
 11
135.557498791406
 21
-104.662645731555
 31
0.0
  0
LINE
  5
   5D5
  8
0
  6
DASHDOT
 62
     2
 10
133.182498791406
 20
-102.287645731555
 30
0.0
 11
137.932498791406
 21
-102.287645731555
 31
0.0
  0
LINE
  5
   5D6
  8
0
  6
DASHDOT
 62
     2
 10
62.057827939173
 20
-92.8501449530774
 30
0.0
 11
177.541766087596
 21
-92.8501449530774
 31
0.0
  0
LINE
  5
   5D7
  8
0
  6
DASHDOT
 62
     2
 10
155.057491330347
 20
-49.2651743429519
 30
0.0
 11
155.057491330347
 21
-119.121848668431
 31
0.0
  0
TEXT
  5
   5D8
  8
0
  6
CONTINUOUS
 62
     7
 10
104.391974260308
 20
-155.603183660303
 30
0.0
 40
3.00000002980232
  1
Y
 50
359.999999844103
 41
0.916666604744064
 72
     2
 11
106.591974129177
 21
-155.603183666278
 31
0.0
  0
INSERT
  5
   5D9
  8
0
  6
CONTINUOUS
 62
     7
  2
*UDIM219
 10
0.0
 20
0.0
 30
0.0
  0
INSERT
  5
   5DA
  8
0
  6
CONTINUOUS
 62
     7
  2
*UDIM220
 10
0.0
 20
0.0
 30
0.0
  0
INSERT
  5
   5DB
  8
0
  6
CONTINUOUS
 62
     7
  2
*UDIM221
 10
0.0
 20
0.0
 30
0.0
  0
TEXT
  5
   5DC
  8
0
  6
CONTINUOUS
 62
     2
 10
54.8026533072513
 20
-94.0737496436738
 30
0.0
 40
4.00000017881393
  1
X
 50
359.999999844103
 41
0.915625062622128
 72
     1
 11
56.267653465271
 21
-92.0737495582456
 31
0.0
 73
     2
  0
TEXT
  5
   5DD
  8
0
  6
CONTINUOUS
 62
     2
 10
179.98235606604
 20
-94.4808198035859
 30
0.0
 40
4.00000017881393
  1
X
 50
359.999999844103
 41
0.915625062622128
 72
     1
 11
181.44735622406
 21
-92.4808197181577
 31
0.0
 73
     2
  0
INSERT
  5
   5DE
  8
0
  6
CONTINUOUS
 62
     2
  2
*UDIM222
 10
0.0
 20
0.0
 30
0.0
  0
INSERT
  5
   5DF
  8
0
  6
CONTINUOUS
 62
     2
  2
*UDIM223
 10
0.0
 20
0.0
 30
0.0
  0
INSERT
  5
   5E0
  8
0
  6
CONTINUOUS
 62
     2
  2
*UDIM224
 10
0.0
 20
0.0
 30
0.0
  0
INSERT
  5
   5E1
  8
0
  6
CONTINUOUS
 62
     7
  2
*UDIM225
 10
0.0
 20
0.0
 30
0.0
  0
INSERT
  5
   5E2
  8
0
  6
CONTINUOUS
 62
     7
  2
*UDIM226
 10
0.0
 20
0.0
 30
0.0
  0
INSERT
  5
   5E3
  8
0
  6
CONTINUOUS
 62
     2
  2
*UDIM227
 10
0.0
 20
0.0
 30
0.0
  0
INSERT
  5
   5E4
  8
0
  6
CONTINUOUS
 62
     2
  2
*UDIM228
 10
0.0
 20
0.0
 30
0.0
  0
INSERT
  5
   5E5
  8
0
  6
CONTINUOUS
 62
     7
  2
*UDIM229
 10
0.0
 20
0.0
 30
0.0
  0
INSERT
  5
   5E6
  8
0
  6
CONTINUOUS
 62
     7
  2
*UDIM230
 10
0.0
 20
0.0
 30
0.0
  0
INSERT
  5
   5E7
  8
0
  6
CONTINUOUS
 62
     2
  2
*UDIM231
 10
0.0
 20
0.0
 30
0.0
  0
INSERT
  5
   5E8
  8
0
  6
CONTINUOUS
 62
     2
  2
*UDIM232
 10
0.0
 20
0.0
 30
0.0
  0
INSERT
  5
   5E9
  8
0
  6
CONTINUOUS
 62
     2
  2
*UDIM233
 10
0.0
 20
0.0
 30
0.0
  0
ENDSEC
  0
EOF
