  0
SECTION
  2
HEADER
  9
$ACADVER
  1
AC1009
  9
$INSBASE
 10
0.0
 20
0.0
 30
0.0
  9
$EXTMIN
 10
109.035591
 20
167.948252
 30
0.0
  9
$EXTMAX
 10
2176.659826
 20
1548.417635
 30
0.0
  9
$LIMMIN
 10
0.0
 20
0.0
  9
$LIMMAX
 10
12.0
 20
9.0
  9
$ORTHOMODE
 70
     1
  9
$REGENMODE
 70
     1
  9
$FILLMODE
 70
     1
  9
$QTEXTMODE
 70
     0
  9
$MIRRTEXT
 70
     1
  9
$DRAGMODE
 70
     2
  9
$LTSCALE
 40
20.0
  9
$OSMODE
 70
  1023
  9
$ATTMODE
 70
     1
  9
$TEXTSIZE
 40
0.2
  9
$TRACEWID
 40
0.05
  9
$TEXTSTYLE
  7
STANDARD
  9
$CLAYER
  8
0
  9
$CELTYPE
  6
CONTINUOUS
  9
$CECOLOR
 62
   256
  9
$DIMSCALE
 40
1.0
  9
$DIMASZ
 40
10.0
  9
$DIMEXO
 40
0.0625
  9
$DIMDLI
 40
0.38
  9
$DIMRND
 40
0.0
  9
$DIMDLE
 40
0.0
  9
$DIMEXE
 40
0.18
  9
$DIMTP
 40
0.0
  9
$DIMTM
 40
0.0
  9
$DIMTXT
 40
10.0
  9
$DIMCEN
 40
0.09
  9
$DIMTSZ
 40
0.0
  9
$DIMTOL
 70
     0
  9
$DIMLIM
 70
     0
  9
$DIMTIH
 70
     1
  9
$DIMTOH
 70
     1
  9
$DIMSE1
 70
     0
  9
$DIMSE2
 70
     0
  9
$DIMTAD
 70
     0
  9
$DIMZIN
 70
     0
  9
$DIMBLK
  1

  9
$DIMASO
 70
     1
  9
$DIMSHO
 70
     1
  9
$DIMPOST
  1

  9
$DIMAPOST
  1

  9
$DIMALT
 70
     0
  9
$DIMALTD
 70
     2
  9
$DIMALTF
 40
25.4
  9
$DIMLFAC
 40
1.0
  9
$DIMTOFL
 70
     0
  9
$DIMTVP
 40
0.0
  9
$DIMTIX
 70
     0
  9
$DIMSOXD
 70
     0
  9
$DIMSAH
 70
     0
  9
$DIMBLK1
  1

  9
$DIMBLK2
  1

  9
$DIMSTYLE
  2
STANDARD
  9
$DIMCLRD
 70
     1
  9
$DIMCLRE
 70
     1
  9
$DIMCLRT
 70
     1
  9
$DIMTFAC
 40
1.0
  9
$DIMGAP
 40
10.0
  9
$LUNITS
 70
     2
  9
$LUPREC
 70
     4
  9
$SKETCHINC
 40
0.1
  9
$FILLETRAD
 40
0.0
  9
$AUNITS
 70
     0
  9
$AUPREC
 70
     0
  9
$MENU
  1
acad
  9
$ELEVATION
 40
0.0
  9
$PELEVATION
 40
0.0
  9
$THICKNESS
 40
0.0
  9
$LIMCHECK
 70
     0
  9
$BLIPMODE
 70
     0
  9
$CHAMFERA
 40
0.0
  9
$CHAMFERB
 40
0.0
  9
$SKPOLY
 70
     0
  9
$TDCREATE
 40
2452004.372628
  9
$TDUPDATE
 40
2452039.34375
  9
$TDINDWG
 40
0.023235
  9
$TDUSRTIMER
 40
0.023235
  9
$USRTIMER
 70
     1
  9
$ANGBASE
 50
0.0
  9
$ANGDIR
 70
     0
  9
$PDMODE
 70
     0
  9
$PDSIZE
 40
0.0
  9
$PLINEWID
 40
0.0
  9
$COORDS
 70
     1
  9
$SPLFRAME
 70
     0
  9
$SPLINETYPE
 70
     6
  9
$SPLINESEGS
 70
     8
  9
$ATTDIA
 70
     0
  9
$ATTREQ
 70
     1
  9
$HANDLING
 70
     1
  9
$HANDSEED
  5
6B2
  9
$SURFTAB1
 70
     6
  9
$SURFTAB2
 70
     6
  9
$SURFTYPE
 70
     6
  9
$SURFU
 70
     6
  9
$SURFV
 70
     6
  9
$UCSNAME
  2

  9
$UCSORG
 10
0.0
 20
0.0
 30
0.0
  9
$UCSXDIR
 10
1.0
 20
0.0
 30
0.0
  9
$UCSYDIR
 10
0.0
 20
1.0
 30
0.0
  9
$PUCSNAME
  2

  9
$PUCSORG
 10
0.0
 20
0.0
 30
0.0
  9
$PUCSXDIR
 10
1.0
 20
0.0
 30
0.0
  9
$PUCSYDIR
 10
0.0
 20
1.0
 30
0.0
  9
$USERI1
 70
     0
  9
$USERI2
 70
     0
  9
$USERI3
 70
     0
  9
$USERI4
 70
     0
  9
$USERI5
 70
     0
  9
$USERR1
 40
0.0
  9
$USERR2
 40
0.0
  9
$USERR3
 40
0.0
  9
$USERR4
 40
0.0
  9
$USERR5
 40
0.0
  9
$WORLDVIEW
 70
     1
  9
$SHADEDGE
 70
     3
  9
$SHADEDIF
 70
    70
  9
$TILEMODE
 70
     1
  9
$MAXACTVP
 70
    48
  9
$PLIMCHECK
 70
     0
  9
$PEXTMIN
 10
1.000000E+020
 20
1.000000E+020
 30
1.000000E+020
  9
$PEXTMAX
 10
-1.000000E+020
 20
-1.000000E+020
 30
-1.000000E+020
  9
$PLIMMIN
 10
0.0
 20
0.0
  9
$PLIMMAX
 10
12.0
 20
9.0
  9
$UNITMODE
 70
     0
  9
$VISRETAIN
 70
     1
  9
$PLINEGEN
 70
     0
  9
$PSLTSCALE
 70
     1
  0
ENDSEC
  0
SECTION
  2
TABLES
  0
TABLE
  2
VPORT
 70
     4
  0
VPORT
  2
*ACTIVE
 70
     0
 10
0.0
 20
0.0
 11
1.0
 21
1.0
 12
1142.847708
 22
858.182943
 13
0.0
 23
0.0
 14
1.0
 24
1.0
 15
0.0
 25
0.0
 16
0.0
 26
0.0
 36
1.0
 17
0.0
 27
0.0
 37
0.0
 40
1389.271526
 41
1.679787
 42
50.0
 43
0.0
 44
0.0
 50
0.0
 51
0.0
 71
     0
 72
   100
 73
     1
 74
     1
 75
     0
 76
     0
 77
     0
 78
     0
  0
ENDTAB
  0
TABLE
  2
LTYPE
 70
     3
  0
LTYPE
  2
CONTINUOUS
 70
     0
  3
Solid line
 72
    65
 73
     0
 40
0.0
  0
LTYPE
  2
CENTER
 70
     0
  3
____ _ ____ _ ____ _ ____ _ ____ _ ____
 72
    65
 73
     4
 40
2.0
 49
1.25
 49
-0.25
 49
0.25
 49
-0.25
  0
LTYPE
  2
DASHED
 70
     0
  3
_ _ _ _ _ _ _ _ _ _ _ _ _ _ _ _ _ _ _ _ _
 72
    65
 73
     2
 40
0.75
 49
0.5
 49
-0.25
  0
ENDTAB
  0
TABLE
  2
LAYER
 70
     5
  0
LAYER
  2
0
 70
     0
 62
     7
  6
CONTINUOUS
  0
LAYER
  2
5
 70
     0
 62
     7
  6
CONTINUOUS
  0
LAYER
  2
6
 70
     0
 62
     5
  6
CENTER
  0
LAYER
  2
7
 70
     0
 62
     3
  6
DASHED
  0
LAYER
  2
BYLAYER
 70
     0
 62
     7
  6
CONTINUOUS
  0
ENDTAB
  0
TABLE
  2
STYLE
 70
     1
  0
STYLE
  2
STANDARD
 70
     0
 40
0.0
 41
1.0
 50
0.0
 71
     0
 42
0.2
  3
txt
  4

  0
ENDTAB
  0
TABLE
  2
VIEW
 70
     0
  0
ENDTAB
  0
TABLE
  2
UCS
 70
     0
  0
ENDTAB
  0
TABLE
  2
APPID
 70
     1
  0
APPID
  2
ACAD
 70
     0
  0
ENDTAB
  0
TABLE
  2
DIMSTYLE
 70
     1
  0
DIMSTYLE
  2
STANDARD
 70
     0
  3

  4

  5

  6

  7

 40
1.0
 41
0.18
 42
0.0625
 43
0.38
 44
0.18
 45
0.0
 46
0.0
 47
0.0
 48
0.0
140
0.18
141
0.09
142
0.0
143
25.4
144
1.0
145
0.0
146
1.0
147
0.09
 71
     0
 72
     0
 73
     1
 74
     1
 75
     0
 76
     0
 77
     0
 78
     0
170
     0
171
     2
172
     0
173
     0
174
     0
175
     0
176
     0
177
     0
178
     0
  0
ENDTAB
  0
ENDSEC
  0
SECTION
  2
BLOCKS
  0
BLOCK
  8
0
  2
$MODEL_SPACE
 70
     0
 10
0.0
 20
0.0
 30
0.0
  3
$MODEL_SPACE
  1

  0
ENDBLK
  5
1A
  8
0
  0
BLOCK
 67
     1
  8
0
  2
$PAPER_SPACE
 70
     0
 10
0.0
 20
0.0
 30
0.0
  3
$PAPER_SPACE
  1

  0
ENDBLK
  5
17
 67
     1
  8
0
  0
ENDSEC
  0
SECTION
  2
ENTITIES
  0
LINE
  5
25
  8
5
  6
CONTINUOUS
 10
1842.534
 20
938.3938
 30
0.0
 11
1842.534
 21
994.6487
 31
0.0
  0
LINE
  5
26
  8
5
  6
CONTINUOUS
 10
2058.534
 20
994.6487
 30
0.0
 11
2058.534
 21
938.3938
 31
0.0
  0
LINE
  5
27
  8
5
  6
CONTINUOUS
 10
2069.214
 20
1002.466
 30
0.0
 11
2097.545
 21
953.3938
 31
0.0
  0
LINE
  5
28
  8
5
  6
CONTINUOUS
 10
2166.034
 20
953.3938
 30
0.0
 11
2124.106
 21
1020.494
 31
0.0
  0
LINE
  5
29
  8
5
  6
CONTINUOUS
 10
2147.334
 20
1020.494
 30
0.0
 11
2089.104
 21
1020.494
 31
0.0
  0
LINE
  5
2A
  8
5
  6
CONTINUOUS
 10
1831.168
 20
1003.008
 30
0.0
 11
1802.523
 21
953.3938
 31
0.0
  0
LINE
  5
2B
  8
5
  6
CONTINUOUS
 10
1959.534
 20
1187.394
 30
0.0
 11
1959.534
 21
1182.012
 31
0.0
  0
LINE
  5
2C
  8
5
  6
CONTINUOUS
 10
1941.534
 20
1187.394
 30
0.0
 11
1941.534
 21
1182.012
 31
0.0
  0
LINE
  5
2D
  8
5
  6
CONTINUOUS
 10
1941.534
 20
1187.394
 30
0.0
 11
1959.534
 21
1187.394
 31
0.0
  0
ARC
  5
2E
  8
5
  6
CONTINUOUS
 10
1950.534
 20
1153.394
 30
0.0
 40
35.0
 50
104.9005
 51
0.0
  0
ARC
  5
2F
  8
5
  6
CONTINUOUS
 10
1950.534
 20
1153.394
 30
0.0
 40
35.0
 50
76.27088
 51
103.7292
  0
LINE
  5
30
  8
5
  6
CONTINUOUS
 10
1775.963
 20
1020.494
 30
0.0
 11
1734.034
 21
953.3938
 31
0.0
  0
ARC
  5
31
  8
5
  6
CONTINUOUS
 10
1950.534
 20
1153.394
 30
0.0
 40
34.99999
 50
0.000002
 51
75.09935
  0
CIRCLE
  5
32
  8
5
  6
CONTINUOUS
 10
1950.534
 20
1153.394
 30
0.0
 40
30.0
  0
LINE
  5
33
  8
5
  6
CONTINUOUS
 10
658.1228
 20
1187.394
 30
0.0
 11
667.1228
 21
1187.394
 31
0.0
  0
LINE
  5
34
  8
5
  6
CONTINUOUS
 10
667.1228
 20
1187.394
 30
0.0
 11
775.1228
 21
1187.394
 31
0.0
  0
LINE
  5
35
  8
5
  6
CONTINUOUS
 10
784.1228
 20
1187.394
 30
0.0
 11
775.1228
 21
1187.394
 31
0.0
  0
LINE
  5
36
  8
5
  6
CONTINUOUS
 10
651.1228
 20
1183.394
 30
0.0
 11
651.1228
 21
1123.394
 31
0.0
  0
LINE
  5
37
  8
5
  6
CONTINUOUS
 10
791.1228
 20
1153.394
 30
0.0
 11
791.1228
 21
1118.394
 31
0.0
  0
LINE
  5
38
  8
5
  6
CONTINUOUS
 10
791.1228
 20
1188.394
 30
0.0
 11
791.1228
 21
1153.394
 31
0.0
  0
LINE
  5
39
  8
5
  6
CONTINUOUS
 10
2058.534
 20
938.3938
 30
0.0
 11
2040.534
 21
938.3938
 31
0.0
  0
LINE
  5
3A
  8
5
  6
CONTINUOUS
 10
1023.617
 20
1548.394
 30
0.0
 11
1023.617
 21
1548.394
 31
0.0
  0
LINE
  5
3B
  8
5
  6
CONTINUOUS
 10
775.1227
 20
1182.012
 30
0.0
 11
667.1227
 21
1182.012
 31
0.0
  0
LINE
  5
3C
  8
5
  6
CONTINUOUS
 10
775.1227
 20
1187.394
 30
0.0
 11
775.1227
 21
1182.012
 31
0.0
  0
LINE
  5
3D
  8
5
  6
CONTINUOUS
 10
667.1228
 20
1187.394
 30
0.0
 11
667.1227
 21
1182.012
 31
0.0
  0
LINE
  5
3E
  8
5
  6
CONTINUOUS
 10
1875.534
 20
938.3938
 30
0.0
 11
1860.534
 21
938.3938
 31
0.0
  0
LINE
  5
3F
  8
5
  6
CONTINUOUS
 10
658.1228
 20
1187.394
 30
0.0
 11
658.1228
 21
1183.394
 31
0.0
  0
LINE
  5
40
  8
5
  6
CONTINUOUS
 10
784.1229
 20
1183.394
 30
0.0
 11
784.1229
 21
1187.394
 31
0.0
  0
LINE
  5
41
  8
5
  6
CONTINUOUS
 10
1905.534
 20
938.3938
 30
0.0
 11
1890.534
 21
938.3938
 31
0.0
  0
LINE
  5
42
  8
5
  6
CONTINUOUS
 10
800.1227
 20
1188.394
 30
0.0
 11
791.1228
 21
1188.394
 31
0.0
  0
LINE
  5
43
  8
5
  6
CONTINUOUS
 10
791.1228
 20
1118.394
 30
0.0
 11
800.1227
 21
1118.394
 31
0.0
  0
LINE
  5
44
  8
5
  6
CONTINUOUS
 10
1935.534
 20
938.3938
 30
0.0
 11
1920.534
 21
938.3938
 31
0.0
  0
LINE
  5
45
  8
5
  6
CONTINUOUS
 10
658.1226
 20
1183.394
 30
0.0
 11
651.1228
 21
1183.394
 31
0.0
  0
LINE
  5
46
  8
5
  6
CONTINUOUS
 10
791.1228
 20
1183.394
 30
0.0
 11
784.1225
 21
1183.394
 31
0.0
  0
LINE
  5
47
  8
5
  6
CONTINUOUS
 10
651.1227
 20
1123.394
 30
0.0
 11
791.1228
 21
1123.394
 31
0.0
  0
LINE
  5
48
  8
5
  6
CONTINUOUS
 10
667.3338
 20
384.9903
 30
0.0
 11
775.3338
 21
384.9903
 31
0.0
  0
LINE
  5
49
  8
5
  6
CONTINUOUS
 10
1811.965
 20
1020.494
 30
0.0
 11
1754.534
 21
1020.494
 31
0.0
  0
ARC
  5
4A
  8
5
  6
CONTINUOUS
 10
667.3338
 20
393.9903
 30
0.0
 40
9.0
 50
90.0
 51
270.0
  0
LINE
  5
4B
  8
5
  6
CONTINUOUS
 10
2025.534
 20
938.3938
 30
0.0
 11
2010.534
 21
938.3938
 31
0.0
  0
LINE
  5
4C
  8
5
  6
CONTINUOUS
 10
775.3338
 20
402.9903
 30
0.0
 11
667.3338
 21
402.9903
 31
0.0
  0
LINE
  5
4D
  8
5
  6
CONTINUOUS
 10
651.3338
 20
423.9903
 30
0.0
 11
651.3338
 21
363.9903
 31
0.0
  0
ARC
  5
4E
  8
5
  6
CONTINUOUS
 10
775.3338
 20
393.9903
 30
0.0
 40
9.0
 50
270.0
 51
90.0
  0
LINE
  5
4F
  8
5
  6
CONTINUOUS
 10
1995.534
 20
938.3938
 30
0.0
 11
1980.534
 21
938.3938
 31
0.0
  0
LINE
  5
50
  8
5
  6
CONTINUOUS
 10
791.3338
 20
428.9903
 30
0.0
 11
791.3338
 21
358.9903
 31
0.0
  0
LINE
  5
51
  8
5
  6
CONTINUOUS
 10
1047.613232
 20
393.288338
 30
0.0
 11
1047.613232
 21
393.288338
 31
0.0
  0
LINE
  5
52
  8
5
  6
CONTINUOUS
 10
1965.534
 20
938.3938
 30
0.0
 11
1950.534
 21
938.3938
 31
0.0
  0
LINE
  5
53
  8
5
  6
CONTINUOUS
 10
2040.534
 20
938.3938
 30
0.0
 11
2025.534
 21
938.3938
 31
0.0
  0
LINE
  5
54
  8
5
  6
CONTINUOUS
 10
1860.534
 20
938.3938
 30
0.0
 11
1842.534
 21
938.3938
 31
0.0
  0
LINE
  5
55
  8
5
  6
CONTINUOUS
 10
2165.534
 20
1053.294
 30
0.0
 11
2165.534
 21
1039.494
 31
0.0
  0
LINE
  5
56
  8
5
  6
CONTINUOUS
 10
1890.534
 20
938.3938
 30
0.0
 11
1875.534
 21
938.3938
 31
0.0
  0
LINE
  5
57
  8
5
  6
CONTINUOUS
 10
1920.534
 20
938.3938
 30
0.0
 11
1905.534
 21
938.3938
 31
0.0
  0
LINE
  5
58
  8
5
  6
CONTINUOUS
 10
1950.534
 20
938.3938
 30
0.0
 11
1935.534
 21
938.3938
 31
0.0
  0
LINE
  5
59
  8
5
  6
CONTINUOUS
 10
2010.534
 20
938.3938
 30
0.0
 11
1995.534
 21
938.3938
 31
0.0
  0
LINE
  5
5A
  8
5
  6
CONTINUOUS
 10
2083.434
 20
1318.706
 30
0.0
 11
2130.349
 21
1354.058
 31
0.0
  0
LINE
  5
5B
  8
5
  6
CONTINUOUS
 10
2130.349
 20
1354.058
 30
0.0
 11
2143.221
 21
1363.758
 31
0.0
  0
LINE
  5
5C
  8
5
  6
CONTINUOUS
 10
2160.899
 20
1346.08
 30
0.0
 11
2152.426
 21
1331.98
 31
0.0
  0
LINE
  5
5D
  8
5
  6
CONTINUOUS
 10
2152.426
 20
1331.98
 30
0.0
 11
2124.975
 21
1286.294
 31
0.0
  0
LINE
  5
5E
  8
5
  6
CONTINUOUS
 10
2083.434
 20
1368.394
 30
0.0
 11
2083.434
 21
1344.394
 31
0.0
  0
LINE
  5
5F
  8
5
  6
CONTINUOUS
 10
2083.434
 20
1344.394
 30
0.0
 11
2083.434
 21
1291.964
 31
0.0
  0
LINE
  5
60
  8
5
  6
CONTINUOUS
 10
1980.534
 20
938.3938
 30
0.0
 11
1965.534
 21
938.3938
 31
0.0
  0
LINE
  5
61
  8
5
  6
CONTINUOUS
 10
800.3337
 20
428.9903
 30
0.0
 11
791.3338
 21
428.9903
 31
0.0
  0
LINE
  5
62
  8
5
  6
CONTINUOUS
 10
2143.221
 20
1363.758
 30
0.0
 11
2160.899
 21
1346.08
 31
0.0
  0
LINE
  5
63
  8
5
  6
CONTINUOUS
 10
791.3338
 20
358.9903
 30
0.0
 11
800.3337
 21
358.9904
 31
0.0
  0
LINE
  5
64
  8
5
  6
CONTINUOUS
 10
1754.534
 20
1286.294
 30
0.0
 11
1811.965
 21
1286.294
 31
0.0
  0
LINE
  5
65
  8
5
  6
CONTINUOUS
 10
1817.634
 20
1344.394
 30
0.0
 11
1817.634
 21
1318.706
 31
0.0
  0
LINE
  5
66
  8
5
  6
CONTINUOUS
 10
1817.634
 20
1344.394
 30
0.0
 11
1817.634
 21
1368.394
 31
0.0
  0
LINE
  5
67
  8
5
  6
CONTINUOUS
 10
1967.034
 20
1013.66
 30
0.0
 11
1967.034
 21
1007.323
 31
0.0
  0
LINE
  5
68
  8
5
  6
CONTINUOUS
 10
2165.534
 20
1088.894
 30
0.0
 11
2165.534
 21
1073.894
 31
0.0
  0
LINE
  5
69
  8
5
  6
CONTINUOUS
 10
1967.034
 20
1007.323
 30
0.0
 11
1967.034
 21
997.2632
 31
0.0
  0
LINE
  5
6A
  8
5
  6
CONTINUOUS
 10
2165.534
 20
1249.894
 30
0.0
 11
2165.534
 21
1232.894
 31
0.0
  0
LINE
  5
6B
  8
5
  6
CONTINUOUS
 10
1967.034
 20
997.2632
 30
0.0
 11
1967.034
 21
990.2415
 31
0.0
  0
LINE
  5
6C
  8
5
  6
CONTINUOUS
 10
1967.034
 20
990.2415
 30
0.0
 11
1967.034
 21
986.501
 31
0.0
  0
LINE
  5
6D
  8
5
  6
CONTINUOUS
 10
1967.034
 20
1037.094
 30
0.0
 11
1967.034
 21
1013.66
 31
0.0
  0
LINE
  5
6E
  8
5
  6
CONTINUOUS
 10
2165.534
 20
1073.894
 30
0.0
 11
2165.534
 21
1056.894
 31
0.0
  0
LINE
  5
6F
  8
5
  6
CONTINUOUS
 10
1934.034
 20
1007.323
 30
0.0
 11
1934.034
 21
1013.66
 31
0.0
  0
LINE
  5
70
  8
5
  6
CONTINUOUS
 10
1934.034
 20
1013.66
 30
0.0
 11
1934.034
 21
1037.094
 31
0.0
  0
LINE
  5
71
  8
5
  6
CONTINUOUS
 10
2165.534
 20
1268.094
 30
0.0
 11
2165.534
 21
1249.894
 31
0.0
  0
LINE
  5
72
  8
5
  6
CONTINUOUS
 10
2165.534
 20
1232.894
 30
0.0
 11
2165.534
 21
1217.894
 31
0.0
  0
LINE
  5
73
  8
5
  6
CONTINUOUS
 10
1934.034
 20
986.501
 30
0.0
 11
1934.034
 21
990.2415
 31
0.0
  0
LINE
  5
74
  8
5
  6
CONTINUOUS
 10
1934.034
 20
990.2415
 30
0.0
 11
1934.034
 21
997.2632
 31
0.0
  0
LINE
  5
75
  8
5
  6
CONTINUOUS
 10
1934.034
 20
997.2632
 30
0.0
 11
1934.034
 21
1007.323
 31
0.0
  0
LINE
  5
76
  8
5
  6
CONTINUOUS
 10
1934.034
 20
1037.094
 30
0.0
 11
1967.034
 21
1037.094
 31
0.0
  0
LINE
  5
77
  8
5
  6
CONTINUOUS
 10
1967.034
 20
1037.094
 30
0.0
 11
2029.731
 21
1037.094
 31
0.0
  0
LINE
  5
78
  8
5
  6
CONTINUOUS
 10
1735.534
 20
1232.894
 30
0.0
 11
1735.534
 21
1249.894
 31
0.0
  0
LINE
  5
79
  8
5
  6
CONTINUOUS
 10
1871.337
 20
1037.094
 30
0.0
 11
1934.034
 21
1037.094
 31
0.0
  0
LINE
  5
7A
  8
5
  6
CONTINUOUS
 10
1735.534
 20
1073.894
 30
0.0
 11
1735.534
 21
1088.894
 31
0.0
  0
LINE
  5
7B
  8
5
  6
CONTINUOUS
 10
1735.534
 20
1038.694
 30
0.0
 11
1735.534
 21
1056.894
 31
0.0
  0
ARC
  5
7C
  8
5
  6
CONTINUOUS
 10
1950.534
 20
1153.394
 30
0.0
 40
157.0
 50
90.0
 51
263.9673
  0
ARC
  5
7D
  8
5
  6
CONTINUOUS
 10
1950.534
 20
1153.394
 30
0.0
 40
157.0
 50
276.0327
 51
90.0
  0
LINE
  5
7E
  8
5
  6
CONTINUOUS
 10
1976.534
 20
1057.394
 30
0.0
 11
1924.534
 21
1057.394
 31
0.0
  0
LINE
  5
7F
  8
5
  6
CONTINUOUS
 10
1735.534
 20
1217.894
 30
0.0
 11
1735.534
 21
1232.894
 31
0.0
  0
LINE
  5
80
  8
5
  6
CONTINUOUS
 10
1735.534
 20
1249.894
 30
0.0
 11
1735.534
 21
1268.094
 31
0.0
  0
LINE
  5
81
  8
5
  6
CONTINUOUS
 10
1847.666
 20
1057.394
 30
0.0
 11
1924.534
 21
1057.394
 31
0.0
  0
LINE
  5
82
  8
5
  6
CONTINUOUS
 10
1735.534
 20
1056.894
 30
0.0
 11
1735.534
 21
1073.894
 31
0.0
  0
LINE
  5
83
  8
5
  6
CONTINUOUS
 10
2156.239
 20
1276.998
 30
0.0
 11
2146.534
 21
1286.294
 31
0.0
  0
LINE
  5
84
  8
5
  6
CONTINUOUS
 10
2165.534
 20
1268.094
 30
0.0
 11
2156.239
 21
1276.998
 31
0.0
  0
LINE
  5
85
  8
5
  6
CONTINUOUS
 10
2164.768
 20
1038.694
 30
0.0
 11
2165.534
 21
1039.494
 31
0.0
  0
LINE
  5
86
  8
5
  6
CONTINUOUS
 10
2156.239
 20
1029.789
 30
0.0
 11
2164.768
 21
1038.694
 31
0.0
  0
LINE
  5
87
  8
5
  6
CONTINUOUS
 10
2147.334
 20
1020.494
 30
0.0
 11
2156.239
 21
1029.789
 31
0.0
  0
LINE
  5
88
  8
5
  6
CONTINUOUS
 10
1744.83
 20
1276.998
 30
0.0
 11
1735.534
 21
1268.094
 31
0.0
  0
LINE
  5
89
  8
5
  6
CONTINUOUS
 10
1754.534
 20
1286.294
 30
0.0
 11
1744.83
 21
1276.998
 31
0.0
  0
LINE
  5
8A
  8
5
  6
CONTINUOUS
 10
1744.83
 20
1029.789
 30
0.0
 11
1754.534
 21
1020.494
 31
0.0
  0
LINE
  5
8B
  8
5
  6
CONTINUOUS
 10
1735.534
 20
1038.694
 30
0.0
 11
1744.83
 21
1029.789
 31
0.0
  0
LINE
  5
8C
  8
5
  6
CONTINUOUS
 10
2072.034
 20
1368.394
 30
0.0
 11
2083.434
 21
1368.394
 31
0.0
  0
LINE
  5
8D
  8
5
  6
CONTINUOUS
 10
1817.634
 20
1368.394
 30
0.0
 11
1829.034
 21
1368.394
 31
0.0
  0
LINE
  5
8E
  8
5
  6
CONTINUOUS
 10
1976.534
 20
1057.394
 30
0.0
 11
2053.403
 21
1057.394
 31
0.0
  0
LINE
  5
8F
  8
5
  6
CONTINUOUS
 10
1740.17
 20
1346.08
 30
0.0
 11
1757.848
 21
1363.758
 31
0.0
  0
LINE
  5
90
  8
5
  6
CONTINUOUS
 10
1748.642
 20
1331.98
 30
0.0
 11
1776.094
 21
1286.294
 31
0.0
  0
LINE
  5
91
  8
5
  6
CONTINUOUS
 10
1748.642
 20
1331.98
 30
0.0
 11
1740.17
 21
1346.08
 31
0.0
  0
LINE
  5
92
  8
5
  6
CONTINUOUS
 10
1757.848
 20
1363.758
 30
0.0
 11
1770.72
 21
1354.058
 31
0.0
  0
LINE
  5
93
  8
5
  6
CONTINUOUS
 10
1976.534
 20
1099.639
 30
0.0
 11
1976.534
 21
1057.394
 31
0.0
  0
LINE
  5
94
  8
5
  6
CONTINUOUS
 10
2144.318
 20
1286.294
 30
0.0
 11
2132.235
 21
1298.376
 31
0.0
  0
LINE
  5
95
  8
5
  6
CONTINUOUS
 10
2099.671
 20
1330.941
 30
0.0
 11
2083.434
 21
1347.177
 31
0.0
  0
LINE
  5
96
  8
5
  6
CONTINUOUS
 10
1817.634
 20
1347.177
 30
0.0
 11
1801.398
 21
1330.941
 31
0.0
  0
LINE
  5
97
  8
5
  6
CONTINUOUS
 10
1768.834
 20
1298.376
 30
0.0
 11
1756.751
 21
1286.294
 31
0.0
  0
LINE
  5
98
  8
5
  6
CONTINUOUS
 10
1756.751
 20
1020.494
 30
0.0
 11
1768.575
 21
1008.67
 31
0.0
  0
LINE
  5
99
  8
5
  6
CONTINUOUS
 10
1924.534
 20
1099.639
 30
0.0
 11
1924.534
 21
1057.394
 31
0.0
  0
LINE
  5
9A
  8
5
  6
CONTINUOUS
 10
1991.834
 20
1056.294
 30
0.0
 11
1991.834
 21
1053.294
 31
0.0
  0
LINE
  5
9B
  8
5
  6
CONTINUOUS
 10
2176.534
 20
1053.294
 30
0.0
 11
2176.534
 21
1056.294
 31
0.0
  0
LINE
  5
9C
  8
5
  6
CONTINUOUS
 10
2131.879
 20
1008.055
 30
0.0
 11
2144.318
 21
1020.494
 31
0.0
  0
LINE
  5
9D
  8
5
  6
CONTINUOUS
 10
651.3339
 20
363.9902
 30
0.0
 11
791.3338
 21
363.9902
 31
0.0
  0
LINE
  5
9E
  8
5
  6
CONTINUOUS
 10
791.3338
 20
423.9904
 30
0.0
 11
651.3339
 21
423.9902
 31
0.0
  0
LINE
  5
9F
  8
5
  6
CONTINUOUS
 10
888.3874
 20
585.9903
 30
0.0
 11
880.8337
 21
585.9903
 31
0.0
  0
LINE
  5
A0
  8
5
  6
CONTINUOUS
 10
880.8337
 20
201.9903
 30
0.0
 11
888.3875
 21
201.9903
 31
0.0
  0
LINE
  5
A1
  8
5
  6
CONTINUOUS
 10
1332.834
 20
585.9903
 30
0.0
 11
1324.28
 21
585.9903
 31
0.0
  0
LINE
  5
A2
  8
5
  6
CONTINUOUS
 10
2089.104
 20
1286.294
 30
0.0
 11
2146.534
 21
1286.294
 31
0.0
  0
LINE
  5
A3
  8
5
  6
CONTINUOUS
 10
2082.534
 20
953.3938
 30
0.0
 11
2082.534
 21
928.3938
 31
0.0
  0
LINE
  5
A4
  8
5
  6
CONTINUOUS
 10
2166.534
 20
928.3938
 30
0.0
 11
2166.534
 21
953.3938
 31
0.0
  0
LINE
  5
A5
  8
5
  6
CONTINUOUS
 10
2166.534
 20
953.3938
 30
0.0
 11
2082.534
 21
953.3938
 31
0.0
  0
LINE
  5
A6
  8
5
  6
CONTINUOUS
 10
2070.639
 20
1365.394
 30
0.0
 11
2072.875
 21
1301.369
 31
0.0
  0
LINE
  5
A7
  8
5
  6
CONTINUOUS
 10
2166.534
 20
928.3938
 30
0.0
 11
2082.534
 21
928.3938
 31
0.0
  0
LINE
  5
A8
  8
5
  6
CONTINUOUS
 10
1817.534
 20
953.3938
 30
0.0
 11
1817.534
 21
928.3938
 31
0.0
  0
LINE
  5
A9
  8
5
  6
CONTINUOUS
 10
1733.534
 20
928.3938
 30
0.0
 11
1733.534
 21
953.3938
 31
0.0
  0
LINE
  5
AA
  8
5
  6
CONTINUOUS
 10
1733.534
 20
953.3938
 30
0.0
 11
1817.534
 21
953.3938
 31
0.0
  0
LINE
  5
AB
  8
5
  6
CONTINUOUS
 10
1733.534
 20
928.3938
 30
0.0
 11
1817.534
 21
928.3938
 31
0.0
  0
LINE
  5
AC
  8
5
  6
CONTINUOUS
 10
2058.534
 20
977.8938
 30
0.0
 11
2058.629
 21
977.7992
 31
0.0
  0
LINE
  5
AE
  8
5
  6
CONTINUOUS
 10
2058.534
 20
977.963
 30
0.0
 11
2082.534
 21
936.3938
 31
0.0
  0
LINE
  5
AF
  8
5
  6
CONTINUOUS
 10
1842.534
 20
979.695
 30
0.0
 11
1817.534
 21
936.3938
 31
0.0
  0
ARC
  5
B0
  8
5
  6
CONTINUOUS
 10
1950.534
 20
1153.394
 30
0.0
 40
192.0
 50
329.6202
 51
0.0
  0
ARC
  5
B1
  8
5
  6
CONTINUOUS
 10
1950.534
 20
1153.394
 30
0.0
 40
192.0
 50
90.0
 51
328.5769
  0
ARC
  5
B2
  8
5
  6
CONTINUOUS
 10
1950.534
 20
1153.394
 30
0.0
 40
192.0
 50
0.0
 51
90.0
  0
LINE
  5
B3
  8
5
  6
CONTINUOUS
 10
2119.026
 20
1345.526
 30
0.0
 11
2119.026
 21
1345.526
 31
0.0
  0
LINE
  5
B4
  8
5
  6
CONTINUOUS
 10
2165.534
 20
1118.894
 30
0.0
 11
2165.534
 21
1103.894
 31
0.0
  0
LINE
  5
B5
  8
5
  6
CONTINUOUS
 10
2165.534
 20
1217.894
 30
0.0
 11
2165.534
 21
1202.894
 31
0.0
  0
LINE
  5
B6
  8
5
  6
CONTINUOUS
 10
2165.534
 20
1187.894
 30
0.0
 11
2165.534
 21
1170.644
 31
0.0
  0
LINE
  5
B7
  8
5
  6
CONTINUOUS
 10
2165.534
 20
1153.394
 30
0.0
 11
2165.534
 21
1136.144
 31
0.0
  0
LINE
  5
B8
  8
5
  6
CONTINUOUS
 10
2165.534
 20
1103.894
 30
0.0
 11
2165.534
 21
1088.894
 31
0.0
  0
LINE
  5
B9
  8
5
  6
CONTINUOUS
 10
2165.534
 20
1136.144
 30
0.0
 11
2165.534
 21
1118.894
 31
0.0
  0
LINE
  5
BA
  8
5
  6
CONTINUOUS
 10
2165.534
 20
1202.894
 30
0.0
 11
2165.534
 21
1187.894
 31
0.0
  0
LINE
  5
BB
  8
5
  6
CONTINUOUS
 10
2165.534
 20
1056.894
 30
0.0
 11
2165.534
 21
1056.294
 31
0.0
  0
LINE
  5
BC
  8
5
  6
CONTINUOUS
 10
2165.534
 20
1170.644
 30
0.0
 11
2165.534
 21
1153.394
 31
0.0
  0
LINE
  5
BD
  8
5
  6
CONTINUOUS
 10
1735.534
 20
1136.144
 30
0.0
 11
1735.534
 21
1153.394
 31
0.0
  0
LINE
  5
BE
  8
5
  6
CONTINUOUS
 10
1735.534
 20
1170.644
 30
0.0
 11
1735.534
 21
1187.894
 31
0.0
  0
LINE
  5
BF
  8
5
  6
CONTINUOUS
 10
1735.534
 20
1202.894
 30
0.0
 11
1735.534
 21
1217.894
 31
0.0
  0
LINE
  5
C0
  8
5
  6
CONTINUOUS
 10
1735.534
 20
1103.894
 30
0.0
 11
1735.534
 21
1118.894
 31
0.0
  0
LINE
  5
C1
  8
5
  6
CONTINUOUS
 10
1735.534
 20
1118.894
 30
0.0
 11
1735.534
 21
1136.144
 31
0.0
  0
LINE
  5
C2
  8
5
  6
CONTINUOUS
 10
1735.534
 20
1153.394
 30
0.0
 11
1735.534
 21
1170.644
 31
0.0
  0
LINE
  5
C3
  8
5
  6
CONTINUOUS
 10
1735.534
 20
1187.894
 30
0.0
 11
1735.534
 21
1202.894
 31
0.0
  0
LINE
  5
C4
  8
5
  6
CONTINUOUS
 10
1735.534
 20
1088.894
 30
0.0
 11
1735.534
 21
1103.894
 31
0.0
  0
LINE
  5
C5
  8
5
  6
CONTINUOUS
 10
1826.069
 20
951.176
 30
0.0
 11
1836.351
 21
940.8938
 31
0.0
  0
LINE
  5
C6
  8
5
  6
CONTINUOUS
 10
1828.194
 20
1301.369
 30
0.0
 11
1830.43
 21
1365.394
 31
0.0
  0
LINE
  5
C7
  8
5
  6
CONTINUOUS
 10
1836.351
 20
940.8938
 30
0.0
 11
1842.534
 21
940.8938
 31
0.0
  0
LINE
  5
C8
  8
5
  6
CONTINUOUS
 10
2058.534
 20
940.8938
 30
0.0
 11
2064.718
 21
940.8938
 31
0.0
  0
LINE
  5
C9
  8
5
  6
CONTINUOUS
 10
2064.718
 20
940.8938
 30
0.0
 11
2074.366
 21
950.542
 31
0.0
  0
LINE
  5
CA
  8
5
  6
CONTINUOUS
 10
2144.974
 20
1319.578
 30
0.0
 11
2144.974
 21
1319.578
 31
0.0
  0
LINE
  5
CB
  8
5
  6
CONTINUOUS
 10
1782.042
 20
1345.526
 30
0.0
 11
1782.042
 21
1345.526
 31
0.0
  0
LINE
  5
CC
  8
5
  6
CONTINUOUS
 10
1756.094
 20
1319.578
 30
0.0
 11
1756.094
 21
1319.578
 31
0.0
  0
LINE
  5
CD
  8
5
  6
CONTINUOUS
 10
2152.426
 20
1331.98
 30
0.0
 11
2130.349
 21
1354.058
 31
0.0
  0
LINE
  5
CE
  8
5
  6
CONTINUOUS
 10
2072.034
 20
1399.694
 30
0.0
 11
2072.034
 21
1365.394
 31
0.0
  0
LINE
  5
D0
  8
5
  6
CONTINUOUS
 10
1753.734
 20
1038.694
 30
0.0
 11
1796.561
 21
1038.694
 31
0.0
  0
LINE
  5
D2
  8
5
  6
CONTINUOUS
 10
1829.034
 20
1365.394
 30
0.0
 11
1829.034
 21
1399.694
 31
0.0
  0
LINE
  5
D3
  8
5
  6
CONTINUOUS
 10
2074.534
 20
1399.694
 30
0.0
 11
1826.534
 21
1399.694
 31
0.0
  0
LINE
  5
D4
  8
5
  6
CONTINUOUS
 10
2098.534
 20
1425.194
 30
0.0
 11
2143.034
 21
1425.194
 31
0.0
  0
LINE
  5
D7
  8
5
  6
CONTINUOUS
 10
2098.534
 20
1423.694
 30
0.0
 11
2098.534
 21
1448.194
 31
0.0
  0
LINE
  5
D8
  8
5
  6
CONTINUOUS
 10
2108.034
 20
1448.194
 30
0.0
 11
1795.534
 21
1448.194
 31
0.0
  0
LINE
  5
D9
  8
5
  6
CONTINUOUS
 10
2143.034
 20
1473.194
 30
0.0
 11
2143.034
 21
1425.194
 31
0.0
  0
LINE
  5
DA
  8
5
  6
CONTINUOUS
 10
2098.534
 20
1423.694
 30
0.0
 11
2074.534
 21
1399.694
 31
0.0
  0
LINE
  5
DD
  8
5
  6
CONTINUOUS
 10
1753.734
 20
1268.094
 30
0.0
 11
1796.561
 21
1268.094
 31
0.0
  0
LINE
  5
E0
  8
5
  6
CONTINUOUS
 10
2083.434
 20
1344.394
 30
0.0
 11
2071.372
 21
1344.394
 31
0.0
  0
LINE
  5
E1
  8
5
  6
CONTINUOUS
 10
1829.696
 20
1344.394
 30
0.0
 11
1817.634
 21
1344.394
 31
0.0
  0
LINE
  5
E2
  8
5
  6
CONTINUOUS
 10
2147.334
 20
1038.694
 30
0.0
 11
2164.768
 21
1038.694
 31
0.0
  0
LINE
  5
E3
  8
5
  6
CONTINUOUS
 10
2147.334
 20
1268.094
 30
0.0
 11
2165.534
 21
1268.094
 31
0.0
  0
LINE
  5
E4
  8
5
  6
CONTINUOUS
 10
2129.134
 20
1249.894
 30
0.0
 11
2165.534
 21
1249.894
 31
0.0
  0
LINE
  5
E5
  8
5
  6
CONTINUOUS
 10
1826.534
 20
1399.694
 30
0.0
 11
1802.534
 21
1423.694
 31
0.0
  0
LINE
  5
E6
  8
5
  6
CONTINUOUS
 10
1802.534
 20
1423.694
 30
0.0
 11
1802.534
 21
1448.194
 31
0.0
  0
LINE
  5
E7
  8
5
  6
CONTINUOUS
 10
1840.534
 20
1544.194
 30
0.0
 11
2063.542
 21
1544.194
 31
0.0
  0
LINE
  5
E8
  8
5
  6
CONTINUOUS
 10
1950.375
 20
1544.194
 30
0.0
 11
1950.375
 21
1548.394
 31
0.0
  0
LINE
  5
E9
  8
5
  6
CONTINUOUS
 10
1735.534
 20
1038.694
 30
0.0
 11
1753.734
 21
1038.694
 31
0.0
  0
LINE
  5
EA
  8
5
  6
CONTINUOUS
 10
1771.934
 20
1056.894
 30
0.0
 11
1735.534
 21
1056.894
 31
0.0
  0
LINE
  5
EB
  8
5
  6
CONTINUOUS
 10
1735.534
 20
1268.094
 30
0.0
 11
1753.734
 21
1268.094
 31
0.0
  0
LINE
  5
EC
  8
5
  6
CONTINUOUS
 10
1735.534
 20
1249.894
 30
0.0
 11
1771.934
 21
1249.894
 31
0.0
  0
LINE
  5
ED
  8
5
  6
CONTINUOUS
 10
1925.478
 20
1548.394
 30
0.0
 11
1925.478
 21
1544.194
 31
0.0
  0
LINE
  5
EE
  8
5
  6
CONTINUOUS
 10
1952.475
 20
1544.194
 30
0.0
 11
1952.475
 21
1548.394
 31
0.0
  0
LINE
  5
EF
  8
5
  6
CONTINUOUS
 10
1978.542
 20
1544.194
 30
0.0
 11
1978.542
 21
1548.394
 31
0.0
  0
LINE
  5
F0
  8
5
  6
CONTINUOUS
 10
1952.475
 20
1544.194
 30
0.0
 11
1952.475
 21
1544.194
 31
0.0
  0
LINE
  5
F1
  8
5
  6
CONTINUOUS
 10
1952.475
 20
1548.394
 30
0.0
 11
1952.475
 21
1548.394
 31
0.0
  0
LINE
  5
F2
  8
5
  6
CONTINUOUS
 10
1735.534
 20
1232.894
 30
0.0
 11
1775.767
 21
1232.894
 31
0.0
  0
LINE
  5
F3
  8
5
  6
CONTINUOUS
 10
1925.478
 20
1548.394
 30
0.0
 11
1950.375
 21
1548.394
 31
0.0
  0
LINE
  5
F4
  8
5
  6
CONTINUOUS
 10
1952.475
 20
1548.394
 30
0.0
 11
1978.542
 21
1548.394
 31
0.0
  0
LINE
  5
F5
  8
5
  6
CONTINUOUS
 10
1735.534
 20
1073.894
 30
0.0
 11
1775.767
 21
1073.894
 31
0.0
  0
LINE
  5
F6
  8
5
  6
CONTINUOUS
 10
1770.72
 20
1354.058
 30
0.0
 11
1748.642
 21
1331.98
 31
0.0
  0
LINE
  5
F7
  8
5
  6
CONTINUOUS
 10
1925.478
 20
1548.394
 30
0.0
 11
1925.478
 21
1548.394
 31
0.0
  0
LINE
  5
F8
  8
5
  6
CONTINUOUS
 10
1952.475
 20
1548.394
 30
0.0
 11
1952.475
 21
1548.394
 31
0.0
  0
LINE
  5
F9
  8
5
  6
CONTINUOUS
 10
1791.034
 20
1493.194
 30
0.0
 11
1791.034
 21
1470.194
 31
0.0
  0
LINE
  5
FA
  8
5
  6
CONTINUOUS
 10
1840.534
 20
1493.194
 30
0.0
 11
1791.034
 21
1493.194
 31
0.0
  0
LINE
  5
FB
  8
5
  6
CONTINUOUS
 10
1844.438
 20
1365.394
 30
0.0
 11
1842.58
 21
1312.17
 31
0.0
  0
LINE
  5
FC
  8
5
  6
CONTINUOUS
 10
2058.489
 20
1312.17
 30
0.0
 11
2056.631
 21
1365.394
 31
0.0
  0
LINE
  5
FD
  8
5
  6
CONTINUOUS
 10
1791.034
 20
1493.194
 30
0.0
 11
1840.534
 21
1544.194
 31
0.0
  0
LINE
  5
FE
  8
5
  6
CONTINUOUS
 10
2113.034
 20
1493.194
 30
0.0
 11
2063.534
 21
1493.194
 31
0.0
  0
LINE
  5
FF
  8
5
  6
CONTINUOUS
 10
2063.542
 20
1544.194
 30
0.0
 11
2082.463
 21
1524.694
 31
0.0
  0
LINE
  5
100
  8
5
  6
CONTINUOUS
 10
2078.965
 20
1524.694
 30
0.0
 11
2142.034
 21
1524.694
 31
0.0
  0
LINE
  5
101
  8
5
  6
CONTINUOUS
 10
141.3761
 20
1020.494
 30
0.0
 11
138.3595
 21
1020.494
 31
0.0
  0
LINE
  5
102
  8
5
  6
CONTINUOUS
 10
531.1595
 20
1020.494
 30
0.0
 11
528.9428
 21
1020.494
 31
0.0
  0
LINE
  5
103
  8
5
  6
CONTINUOUS
 10
2113.034
 20
1473.194
 30
0.0
 11
2143.034
 21
1473.194
 31
0.0
  0
LINE
  5
104
  8
5
  6
CONTINUOUS
 10
142.4729
 20
1363.758
 30
0.0
 11
155.3452
 21
1354.058
 31
0.0
  0
LINE
  5
105
  8
5
  6
CONTINUOUS
 10
186.023
 20
1330.941
 30
0.0
 11
155.3452
 21
1354.058
 31
0.0
  0
LINE
  5
106
  8
5
  6
CONTINUOUS
 10
133.2674
 20
1331.98
 30
0.0
 11
153.4587
 21
1298.376
 31
0.0
  0
LINE
  5
107
  8
5
  6
CONTINUOUS
 10
133.2674
 20
1331.98
 30
0.0
 11
124.7952
 21
1346.08
 31
0.0
  0
LINE
  5
108
  8
5
  6
CONTINUOUS
 10
202.2595
 20
1347.177
 30
0.0
 11
202.2595
 21
1368.394
 31
0.0
  0
LINE
  5
109
  8
5
  6
CONTINUOUS
 10
124.7952
 20
1346.08
 30
0.0
 11
142.4729
 21
1363.758
 31
0.0
  0
LINE
  5
10A
  8
5
  6
CONTINUOUS
 10
139.1595
 20
1286.294
 30
0.0
 11
141.3761
 21
1286.294
 31
0.0
  0
LINE
  5
10B
  8
5
  6
CONTINUOUS
 10
528.9428
 20
1286.294
 30
0.0
 11
531.1595
 21
1286.294
 31
0.0
  0
LINE
  5
10C
  8
5
  6
CONTINUOUS
 10
468.0595
 20
1368.394
 30
0.0
 11
468.0595
 21
1347.177
 31
0.0
  0
LINE
  5
10D
  8
5
  6
CONTINUOUS
 10
120.1595
 20
1039.494
 30
0.0
 11
120.1595
 21
1056.894
 31
0.0
  0
LINE
  5
10E
  8
5
  6
CONTINUOUS
 10
120.1595
 20
1073.894
 30
0.0
 11
120.1595
 21
1088.894
 31
0.0
  0
LINE
  5
10F
  8
5
  6
CONTINUOUS
 10
120.1595
 20
1103.894
 30
0.0
 11
120.1595
 21
1118.894
 31
0.0
  0
LINE
  5
110
  8
5
  6
CONTINUOUS
 10
120.1595
 20
1232.894
 30
0.0
 11
120.1595
 21
1249.894
 31
0.0
  0
LINE
  5
111
  8
5
  6
CONTINUOUS
 10
120.1595
 20
1202.894
 30
0.0
 11
120.1595
 21
1217.894
 31
0.0
  0
LINE
  5
112
  8
5
  6
CONTINUOUS
 10
120.1595
 20
1170.644
 30
0.0
 11
120.1595
 21
1187.894
 31
0.0
  0
LINE
  5
113
  8
5
  6
CONTINUOUS
 10
120.1595
 20
1136.144
 30
0.0
 11
120.1595
 21
1153.394
 31
0.0
  0
LINE
  5
114
  8
5
  6
CONTINUOUS
 10
120.1595
 20
1056.894
 30
0.0
 11
120.1595
 21
1073.894
 31
0.0
  0
LINE
  5
115
  8
5
  6
CONTINUOUS
 10
120.1595
 20
1088.894
 30
0.0
 11
120.1595
 21
1103.894
 31
0.0
  0
LINE
  5
116
  8
5
  6
CONTINUOUS
 10
120.1595
 20
1118.894
 30
0.0
 11
120.1595
 21
1136.144
 31
0.0
  0
LINE
  5
117
  8
5
  6
CONTINUOUS
 10
120.1595
 20
1249.894
 30
0.0
 11
120.1595
 21
1268.094
 31
0.0
  0
LINE
  5
118
  8
5
  6
CONTINUOUS
 10
120.1595
 20
1217.894
 30
0.0
 11
120.1595
 21
1232.894
 31
0.0
  0
LINE
  5
119
  8
5
  6
CONTINUOUS
 10
120.1595
 20
1187.894
 30
0.0
 11
120.1595
 21
1202.894
 31
0.0
  0
LINE
  5
11A
  8
5
  6
CONTINUOUS
 10
120.1595
 20
1153.394
 30
0.0
 11
120.1595
 21
1170.644
 31
0.0
  0
LINE
  5
11B
  8
5
  6
CONTINUOUS
 10
550.1595
 20
1153.394
 30
0.0
 11
550.1595
 21
1136.144
 31
0.0
  0
LINE
  5
11C
  8
5
  6
CONTINUOUS
 10
550.1595
 20
1187.894
 30
0.0
 11
550.1595
 21
1170.644
 31
0.0
  0
LINE
  5
11D
  8
5
  6
CONTINUOUS
 10
550.1595
 20
1217.894
 30
0.0
 11
550.1595
 21
1202.894
 31
0.0
  0
LINE
  5
11E
  8
5
  6
CONTINUOUS
 10
550.1595
 20
1249.894
 30
0.0
 11
550.1595
 21
1232.894
 31
0.0
  0
LINE
  5
11F
  8
5
  6
CONTINUOUS
 10
550.1595
 20
1118.894
 30
0.0
 11
550.1595
 21
1103.894
 31
0.0
  0
LINE
  5
120
  8
5
  6
CONTINUOUS
 10
550.1595
 20
1088.894
 30
0.0
 11
550.1595
 21
1073.894
 31
0.0
  0
LINE
  5
121
  8
5
  6
CONTINUOUS
 10
550.1595
 20
1056.894
 30
0.0
 11
550.1595
 21
1038.694
 31
0.0
  0
LINE
  5
122
  8
5
  6
CONTINUOUS
 10
550.1595
 20
1136.144
 30
0.0
 11
550.1595
 21
1118.894
 31
0.0
  0
LINE
  5
123
  8
5
  6
CONTINUOUS
 10
550.1595
 20
1170.644
 30
0.0
 11
550.1595
 21
1153.394
 31
0.0
  0
LINE
  5
124
  8
5
  6
CONTINUOUS
 10
550.1595
 20
1202.894
 30
0.0
 11
550.1595
 21
1187.894
 31
0.0
  0
LINE
  5
125
  8
5
  6
CONTINUOUS
 10
550.1595
 20
1232.894
 30
0.0
 11
550.1595
 21
1217.894
 31
0.0
  0
LINE
  5
126
  8
5
  6
CONTINUOUS
 10
550.1595
 20
1268.094
 30
0.0
 11
550.1595
 21
1249.894
 31
0.0
  0
LINE
  5
127
  8
5
  6
CONTINUOUS
 10
550.1595
 20
1103.894
 30
0.0
 11
550.1595
 21
1088.894
 31
0.0
  0
LINE
  5
128
  8
5
  6
CONTINUOUS
 10
550.1595
 20
1073.894
 30
0.0
 11
550.1595
 21
1056.894
 31
0.0
  0
LINE
  5
129
  8
5
  6
CONTINUOUS
 10
129.4552
 20
1276.998
 30
0.0
 11
120.1595
 21
1268.094
 31
0.0
  0
LINE
  5
12A
  8
5
  6
CONTINUOUS
 10
139.1595
 20
1286.294
 30
0.0
 11
129.4552
 21
1276.998
 31
0.0
  0
LINE
  5
12B
  8
5
  6
CONTINUOUS
 10
129.4552
 20
1029.79
 30
0.0
 11
138.3595
 21
1020.494
 31
0.0
  0
LINE
  5
12C
  8
5
  6
CONTINUOUS
 10
120.9258
 20
1038.694
 30
0.0
 11
129.4552
 21
1029.79
 31
0.0
  0
LINE
  5
12D
  8
5
  6
CONTINUOUS
 10
120.1595
 20
1039.494
 30
0.0
 11
120.9258
 21
1038.694
 31
0.0
  0
LINE
  5
12E
  8
5
  6
CONTINUOUS
 10
540.8638
 20
1276.998
 30
0.0
 11
531.1595
 21
1286.294
 31
0.0
  0
LINE
  5
12F
  8
5
  6
CONTINUOUS
 10
550.1595
 20
1268.094
 30
0.0
 11
540.8638
 21
1276.998
 31
0.0
  0
LINE
  5
130
  8
5
  6
CONTINUOUS
 10
540.8638
 20
1029.79
 30
0.0
 11
550.1595
 21
1038.694
 31
0.0
  0
LINE
  5
131
  8
5
  6
CONTINUOUS
 10
531.1595
 20
1020.494
 30
0.0
 11
540.8638
 21
1029.79
 31
0.0
  0
LINE
  5
132
  8
5
  6
CONTINUOUS
 10
202.2595
 20
1368.394
 30
0.0
 11
220.4595
 21
1368.394
 31
0.0
  0
LINE
  5
133
  8
5
  6
CONTINUOUS
 10
431.6595
 20
1368.394
 30
0.0
 11
449.8595
 21
1368.394
 31
0.0
  0
LINE
  5
134
  8
5
  6
CONTINUOUS
 10
399.6595
 20
1368.394
 30
0.0
 11
414.6595
 21
1368.394
 31
0.0
  0
LINE
  5
135
  8
5
  6
CONTINUOUS
 10
369.6595
 20
1368.394
 30
0.0
 11
384.6595
 21
1368.394
 31
0.0
  0
LINE
  5
136
  8
5
  6
CONTINUOUS
 10
335.1595
 20
1368.394
 30
0.0
 11
352.4095
 21
1368.394
 31
0.0
  0
LINE
  5
137
  8
5
  6
CONTINUOUS
 10
300.6595
 20
1368.394
 30
0.0
 11
317.9095
 21
1368.394
 31
0.0
  0
LINE
  5
138
  8
5
  6
CONTINUOUS
 10
270.6595
 20
1368.394
 30
0.0
 11
285.6595
 21
1368.394
 31
0.0
  0
LINE
  5
139
  8
5
  6
CONTINUOUS
 10
238.6595
 20
1368.394
 30
0.0
 11
255.6595
 21
1368.394
 31
0.0
  0
LINE
  5
13A
  8
5
  6
CONTINUOUS
 10
220.4595
 20
1368.394
 30
0.0
 11
238.6595
 21
1368.394
 31
0.0
  0
LINE
  5
13B
  8
5
  6
CONTINUOUS
 10
449.8595
 20
1368.394
 30
0.0
 11
468.0595
 21
1368.394
 31
0.0
  0
LINE
  5
13C
  8
5
  6
CONTINUOUS
 10
414.6595
 20
1368.394
 30
0.0
 11
431.6595
 21
1368.394
 31
0.0
  0
LINE
  5
13D
  8
5
  6
CONTINUOUS
 10
384.6595
 20
1368.394
 30
0.0
 11
399.6595
 21
1368.394
 31
0.0
  0
LINE
  5
13E
  8
5
  6
CONTINUOUS
 10
352.4095
 20
1368.394
 30
0.0
 11
369.6595
 21
1368.394
 31
0.0
  0
LINE
  5
13F
  8
5
  6
CONTINUOUS
 10
317.9095
 20
1368.394
 30
0.0
 11
335.1595
 21
1368.394
 31
0.0
  0
LINE
  5
140
  8
5
  6
CONTINUOUS
 10
285.6595
 20
1368.394
 30
0.0
 11
300.6595
 21
1368.394
 31
0.0
  0
LINE
  5
141
  8
5
  6
CONTINUOUS
 10
255.6595
 20
1368.394
 30
0.0
 11
270.6595
 21
1368.394
 31
0.0
  0
LINE
  5
142
  8
5
  6
CONTINUOUS
 10
527.8461
 20
1363.758
 30
0.0
 11
545.5237
 21
1346.08
 31
0.0
  0
LINE
  5
143
  8
5
  6
CONTINUOUS
 10
545.5237
 20
1346.08
 30
0.0
 11
537.0515
 21
1331.98
 31
0.0
  0
LINE
  5
144
  8
5
  6
CONTINUOUS
 10
537.0515
 20
1331.98
 30
0.0
 11
516.8602
 21
1298.376
 31
0.0
  0
LINE
  5
145
  8
5
  6
CONTINUOUS
 10
484.2959
 20
1330.941
 30
0.0
 11
514.9737
 21
1354.058
 31
0.0
  0
LINE
  5
146
  8
5
  6
CONTINUOUS
 10
514.9737
 20
1354.058
 30
0.0
 11
527.8461
 21
1363.758
 31
0.0
  0
LINE
  5
147
  8
5
  6
CONTINUOUS
 10
125.6595
 20
1040.453
 30
0.0
 11
125.6595
 21
1266.334
 31
0.0
  0
LINE
  5
148
  8
5
  6
CONTINUOUS
 10
125.6595
 20
1040.453
 30
0.0
 11
222.2188
 21
943.8938
 31
0.0
  0
LINE
  5
149
  8
5
  6
CONTINUOUS
 10
222.2188
 20
943.8938
 30
0.0
 11
448.1002
 21
943.8938
 31
0.0
  0
LINE
  5
14A
  8
5
  6
CONTINUOUS
 10
448.1002
 20
943.8938
 30
0.0
 11
544.6595
 21
1040.453
 31
0.0
  0
LINE
  5
14B
  8
5
  6
CONTINUOUS
 10
544.6595
 20
1040.453
 30
0.0
 11
544.6595
 21
1266.334
 31
0.0
  0
LINE
  5
14C
  8
5
  6
CONTINUOUS
 10
544.6595
 20
1266.334
 30
0.0
 11
448.1002
 21
1362.894
 31
0.0
  0
LINE
  5
14D
  8
5
  6
CONTINUOUS
 10
448.1002
 20
1362.894
 30
0.0
 11
222.2188
 21
1362.894
 31
0.0
  0
LINE
  5
14E
  8
5
  6
CONTINUOUS
 10
222.2188
 20
1362.894
 30
0.0
 11
125.6595
 21
1266.334
 31
0.0
  0
LINE
  5
14F
  8
5
  6
CONTINUOUS
 10
122.6595
 20
1039.211
 30
0.0
 11
122.6595
 21
1267.577
 31
0.0
  0
LINE
  5
150
  8
5
  6
CONTINUOUS
 10
220.9761
 20
1365.894
 30
0.0
 11
122.6595
 21
1267.577
 31
0.0
  0
LINE
  5
151
  8
5
  6
CONTINUOUS
 10
449.3428
 20
1365.894
 30
0.0
 11
220.9761
 21
1365.894
 31
0.0
  0
LINE
  5
152
  8
5
  6
CONTINUOUS
 10
547.6595
 20
1267.577
 30
0.0
 11
449.3428
 21
1365.894
 31
0.0
  0
LINE
  5
153
  8
5
  6
CONTINUOUS
 10
547.6595
 20
1039.211
 30
0.0
 11
547.6595
 21
1267.577
 31
0.0
  0
LINE
  5
154
  8
5
  6
CONTINUOUS
 10
449.3428
 20
940.8938
 30
0.0
 11
547.6595
 21
1039.211
 31
0.0
  0
LINE
  5
155
  8
5
  6
CONTINUOUS
 10
220.9761
 20
940.8938
 30
0.0
 11
449.3428
 21
940.8938
 31
0.0
  0
LINE
  5
156
  8
5
  6
CONTINUOUS
 10
122.6595
 20
1039.211
 30
0.0
 11
220.9761
 21
940.8938
 31
0.0
  0
CIRCLE
  5
157
  8
5
  6
CONTINUOUS
 10
335.1595
 20
1153.394
 30
0.0
 40
140.0
  0
LINE
  5
158
  8
5
  6
CONTINUOUS
 10
1828.513
 20
1310.508
 30
0.0
 11
1770.72
 21
1354.058
 31
0.0
  0
LINE
  5
159
  8
5
  6
CONTINUOUS
 10
2108.034
 20
1448.194
 30
0.0
 11
2108.034
 21
1470.194
 31
0.0
  0
LINE
  5
15A
  8
5
  6
CONTINUOUS
 10
1795.534
 20
1448.194
 30
0.0
 11
1795.534
 21
1470.194
 31
0.0
  0
LINE
  5
15B
  8
5
  6
CONTINUOUS
 10
2142.034
 20
1524.694
 30
0.0
 11
2142.034
 21
1473.194
 31
0.0
  0
LINE
  5
15C
  8
5
  6
CONTINUOUS
 10
2113.034
 20
1493.194
 30
0.0
 11
2113.034
 21
1470.194
 31
0.0
  0
LINE
  5
15D
  8
5
  6
CONTINUOUS
 10
2113.034
 20
1470.194
 30
0.0
 11
1791.034
 21
1470.194
 31
0.0
  0
LINE
  5
15E
  8
5
  6
CONTINUOUS
 10
2072.034
 20
1365.394
 30
0.0
 11
2057.034
 21
1365.394
 31
0.0
  0
LINE
  5
15F
  8
5
  6
CONTINUOUS
 10
2057.034
 20
1365.394
 30
0.0
 11
1844.034
 21
1365.394
 31
0.0
  0
LINE
  5
160
  8
5
  6
CONTINUOUS
 10
1844.034
 20
1365.394
 30
0.0
 11
1829.034
 21
1365.394
 31
0.0
  0
LINE
  5
161
  8
5
  6
CONTINUOUS
 10
1844.034
 20
1399.694
 30
0.0
 11
1844.034
 21
1365.394
 31
0.0
  0
LINE
  5
163
  8
5
  6
CONTINUOUS
 10
2025.534
 20
971.3937
 30
0.0
 11
2025.534
 21
976.6481
 31
0.0
  0
LINE
  5
164
  8
5
  6
CONTINUOUS
 10
2040.534
 20
983.7942
 30
0.0
 11
2040.534
 21
956.3937
 31
0.0
  0
LINE
  5
167
  8
5
  6
CONTINUOUS
 10
1860.534
 20
983.7942
 30
0.0
 11
1860.534
 21
956.3937
 31
0.0
  0
LINE
  5
169
  8
5
  6
CONTINUOUS
 10
1875.534
 20
971.3937
 30
0.0
 11
1875.534
 21
976.6481
 31
0.0
  0
ARC
  5
16C
  8
5
  6
CONTINUOUS
 10
1950.534
 20
1153.394
 30
0.0
 40
191.6333
 50
329.5559
 51
90.0
  0
ARC
  5
16D
  8
5
  6
CONTINUOUS
 10
1950.534
 20
1153.394
 30
0.0
 40
191.6333
 50
90.0
 51
328.5099
  0
LINE
  5
16E
  8
5
  6
CONTINUOUS
 10
1860.534
 20
956.3937
 30
0.0
 11
1860.534
 21
938.3938
 31
0.0
  0
LINE
  5
16F
  8
5
  6
CONTINUOUS
 10
1875.534
 20
938.3938
 30
0.0
 11
1875.534
 21
971.3937
 31
0.0
  0
LINE
  5
170
  8
5
  6
CONTINUOUS
 10
2040.534
 20
956.3937
 30
0.0
 11
2040.534
 21
938.3938
 31
0.0
  0
LINE
  5
171
  8
5
  6
CONTINUOUS
 10
2025.534
 20
971.3937
 30
0.0
 11
2025.534
 21
938.3938
 31
0.0
  0
LINE
  5
172
  8
5
  6
CONTINUOUS
 10
1980.534
 20
963.752
 30
0.0
 11
1980.534
 21
938.3938
 31
0.0
  0
LINE
  5
173
  8
5
  6
CONTINUOUS
 10
1995.534
 20
938.3938
 30
0.0
 11
1995.534
 21
966.7417
 31
0.0
  0
LINE
  5
174
  8
5
  6
CONTINUOUS
 10
155.3452
 20
1354.058
 30
0.0
 11
133.2674
 21
1331.98
 31
0.0
  0
LINE
  5
175
  8
5
  6
CONTINUOUS
 10
129.4552
 20
1029.79
 30
0.0
 11
130.7678
 21
1031.102
 31
0.0
  0
LINE
  5
176
  8
5
  6
CONTINUOUS
 10
539.5511
 20
1031.102
 30
0.0
 11
540.8638
 21
1029.79
 31
0.0
  0
LINE
  5
177
  8
5
  6
CONTINUOUS
 10
129.4552
 20
1276.998
 30
0.0
 11
130.7678
 21
1275.685
 31
0.0
  0
LINE
  5
178
  8
5
  6
CONTINUOUS
 10
540.8638
 20
1276.998
 30
0.0
 11
539.5511
 21
1275.685
 31
0.0
  0
LINE
  5
179
  8
5
  6
CONTINUOUS
 10
212.8678
 20
1357.785
 30
0.0
 11
202.2595
 21
1368.394
 31
0.0
  0
LINE
  5
17A
  8
5
  6
CONTINUOUS
 10
457.4511
 20
1357.785
 30
0.0
 11
468.0595
 21
1368.394
 31
0.0
  0
LINE
  5
17B
  8
5
  6
CONTINUOUS
 10
120.9257
 20
1038.694
 30
0.0
 11
123.1761
 21
1038.694
 31
0.0
  0
LINE
  5
17C
  8
5
  6
CONTINUOUS
 10
122.6595
 20
1056.894
 30
0.0
 11
120.1595
 21
1056.894
 31
0.0
  0
LINE
  5
17D
  8
5
  6
CONTINUOUS
 10
120.1595
 20
1268.094
 30
0.0
 11
123.1761
 21
1268.094
 31
0.0
  0
LINE
  5
17E
  8
5
  6
CONTINUOUS
 10
120.1595
 20
1249.894
 30
0.0
 11
122.6595
 21
1249.894
 31
0.0
  0
LINE
  5
17F
  8
5
  6
CONTINUOUS
 10
122.6595
 20
1153.394
 30
0.0
 11
120.1595
 21
1153.394
 31
0.0
  0
LINE
  5
180
  8
5
  6
CONTINUOUS
 10
120.1595
 20
1136.144
 30
0.0
 11
122.6595
 21
1136.144
 31
0.0
  0
LINE
  5
181
  8
5
  6
CONTINUOUS
 10
122.6595
 20
1187.894
 30
0.0
 11
120.1595
 21
1187.894
 31
0.0
  0
LINE
  5
182
  8
5
  6
CONTINUOUS
 10
120.1595
 20
1170.644
 30
0.0
 11
122.6595
 21
1170.644
 31
0.0
  0
LINE
  5
183
  8
5
  6
CONTINUOUS
 10
122.6595
 20
1217.894
 30
0.0
 11
120.1595
 21
1217.894
 31
0.0
  0
LINE
  5
184
  8
5
  6
CONTINUOUS
 10
120.1595
 20
1202.894
 30
0.0
 11
122.6595
 21
1202.894
 31
0.0
  0
LINE
  5
185
  8
5
  6
CONTINUOUS
 10
120.1595
 20
1232.894
 30
0.0
 11
122.6595
 21
1232.894
 31
0.0
  0
LINE
  5
186
  8
5
  6
CONTINUOUS
 10
122.6595
 20
1118.894
 30
0.0
 11
120.1595
 21
1118.894
 31
0.0
  0
LINE
  5
187
  8
5
  6
CONTINUOUS
 10
120.1595
 20
1103.894
 30
0.0
 11
122.6595
 21
1103.894
 31
0.0
  0
LINE
  5
188
  8
5
  6
CONTINUOUS
 10
122.6595
 20
1088.894
 30
0.0
 11
120.1595
 21
1088.894
 31
0.0
  0
LINE
  5
189
  8
5
  6
CONTINUOUS
 10
120.1595
 20
1073.894
 30
0.0
 11
122.6595
 21
1073.894
 31
0.0
  0
LINE
  5
18A
  8
5
  6
CONTINUOUS
 10
547.1428
 20
1038.694
 30
0.0
 11
550.1594
 21
1038.694
 31
0.0
  0
LINE
  5
18B
  8
5
  6
CONTINUOUS
 10
550.1594
 20
1056.894
 30
0.0
 11
547.6595
 21
1056.894
 31
0.0
  0
LINE
  5
18C
  8
5
  6
CONTINUOUS
 10
547.1428
 20
1268.094
 30
0.0
 11
550.1595
 21
1268.094
 31
0.0
  0
LINE
  5
18D
  8
5
  6
CONTINUOUS
 10
547.6595
 20
1249.894
 30
0.0
 11
550.1595
 21
1249.894
 31
0.0
  0
LINE
  5
18E
  8
5
  6
CONTINUOUS
 10
547.6595
 20
1136.144
 30
0.0
 11
550.1594
 21
1136.144
 31
0.0
  0
LINE
  5
18F
  8
5
  6
CONTINUOUS
 10
550.1595
 20
1153.394
 30
0.0
 11
547.6595
 21
1153.394
 31
0.0
  0
LINE
  5
190
  8
5
  6
CONTINUOUS
 10
547.6595
 20
1170.644
 30
0.0
 11
550.1595
 21
1170.644
 31
0.0
  0
LINE
  5
191
  8
5
  6
CONTINUOUS
 10
550.1595
 20
1187.894
 30
0.0
 11
547.6595
 21
1187.894
 31
0.0
  0
LINE
  5
192
  8
5
  6
CONTINUOUS
 10
547.6595
 20
1202.894
 30
0.0
 11
550.1595
 21
1202.894
 31
0.0
  0
LINE
  5
193
  8
5
  6
CONTINUOUS
 10
550.1595
 20
1217.894
 30
0.0
 11
547.6595
 21
1217.894
 31
0.0
  0
LINE
  5
194
  8
5
  6
CONTINUOUS
 10
547.6595
 20
1232.894
 30
0.0
 11
550.1595
 21
1232.894
 31
0.0
  0
LINE
  5
195
  8
5
  6
CONTINUOUS
 10
547.6595
 20
1103.894
 30
0.0
 11
550.1594
 21
1103.894
 31
0.0
  0
LINE
  5
196
  8
5
  6
CONTINUOUS
 10
550.1594
 20
1118.894
 30
0.0
 11
547.6595
 21
1118.894
 31
0.0
  0
LINE
  5
197
  8
5
  6
CONTINUOUS
 10
547.6595
 20
1073.894
 30
0.0
 11
550.1594
 21
1073.894
 31
0.0
  0
LINE
  5
198
  8
5
  6
CONTINUOUS
 10
550.1594
 20
1088.894
 30
0.0
 11
547.6595
 21
1088.894
 31
0.0
  0
LINE
  5
199
  8
5
  6
CONTINUOUS
 10
449.8595
 20
1365.377
 30
0.0
 11
449.8595
 21
1368.394
 31
0.0
  0
LINE
  5
19A
  8
5
  6
CONTINUOUS
 10
431.6595
 20
1368.394
 30
0.0
 11
431.6595
 21
1365.894
 31
0.0
  0
LINE
  5
19B
  8
5
  6
CONTINUOUS
 10
220.4595
 20
1365.377
 30
0.0
 11
220.4595
 21
1368.394
 31
0.0
  0
LINE
  5
19C
  8
5
  6
CONTINUOUS
 10
238.6595
 20
1365.894
 30
0.0
 11
238.6595
 21
1368.394
 31
0.0
  0
LINE
  5
19D
  8
5
  6
CONTINUOUS
 10
255.6595
 20
1365.894
 30
0.0
 11
255.6594
 21
1368.394
 31
0.0
  0
LINE
  5
19E
  8
5
  6
CONTINUOUS
 10
285.6595
 20
1365.894
 30
0.0
 11
285.6595
 21
1368.394
 31
0.0
  0
LINE
  5
19F
  8
5
  6
CONTINUOUS
 10
270.6594
 20
1368.394
 30
0.0
 11
270.6595
 21
1365.894
 31
0.0
  0
LINE
  5
1A0
  8
5
  6
CONTINUOUS
 10
317.9095
 20
1365.894
 30
0.0
 11
317.9094
 21
1368.394
 31
0.0
  0
LINE
  5
1A1
  8
5
  6
CONTINUOUS
 10
300.6595
 20
1368.394
 30
0.0
 11
300.6595
 21
1365.894
 31
0.0
  0
LINE
  5
1A2
  8
5
  6
CONTINUOUS
 10
352.4095
 20
1365.894
 30
0.0
 11
352.4095
 21
1368.394
 31
0.0
  0
LINE
  5
1A3
  8
5
  6
CONTINUOUS
 10
335.1595
 20
1368.394
 30
0.0
 11
335.1595
 21
1365.894
 31
0.0
  0
LINE
  5
1A4
  8
5
  6
CONTINUOUS
 10
384.6595
 20
1365.894
 30
0.0
 11
384.6595
 21
1368.394
 31
0.0
  0
LINE
  5
1A5
  8
5
  6
CONTINUOUS
 10
369.6595
 20
1368.394
 30
0.0
 11
369.6595
 21
1365.894
 31
0.0
  0
LINE
  5
1A6
  8
5
  6
CONTINUOUS
 10
414.6595
 20
1365.894
 30
0.0
 11
414.6595
 21
1368.394
 31
0.0
  0
LINE
  5
1A7
  8
5
  6
CONTINUOUS
 10
399.6595
 20
1368.394
 30
0.0
 11
399.6595
 21
1365.894
 31
0.0
  0
LINE
  5
1A8
  8
5
  6
CONTINUOUS
 10
537.0515
 20
1331.98
 30
0.0
 11
514.9737
 21
1354.058
 31
0.0
  0
CIRCLE
  5
1A9
  8
5
  6
CONTINUOUS
 10
335.1595
 20
1153.394
 30
0.0
 40
200.5
  0
LINE
  5
1AA
  8
5
  6
CONTINUOUS
 10
2010.534
 20
971.0095
 30
0.0
 11
2010.534
 21
938.3938
 31
0.0
  0
LINE
  5
1AB
  8
5
  6
CONTINUOUS
 10
1890.534
 20
971.0095
 30
0.0
 11
1890.534
 21
938.3938
 31
0.0
  0
LINE
  5
1AC
  8
5
  6
CONTINUOUS
 10
1905.534
 20
938.3938
 30
0.0
 11
1905.534
 21
966.7417
 31
0.0
  0
LINE
  5
1AD
  8
5
  6
CONTINUOUS
 10
1920.534
 20
938.3938
 30
0.0
 11
1920.534
 21
963.752
 31
0.0
  0
LINE
  5
1AE
  8
5
  6
CONTINUOUS
 10
1950.534
 20
961.3938
 30
0.0
 11
1950.534
 21
938.3938
 31
0.0
  0
LINE
  5
1AF
  8
5
  6
CONTINUOUS
 10
1965.534
 20
938.3938
 30
0.0
 11
1965.534
 21
961.9806
 31
0.0
  0
LINE
  5
1B0
  8
5
  6
CONTINUOUS
 10
1935.534
 20
938.3938
 30
0.0
 11
1935.534
 21
961.9806
 31
0.0
  0
LINE
  5
1B1
  8
5
  6
CONTINUOUS
 10
1321.123
 20
1020.494
 30
0.0
 11
891.1228
 21
1020.494
 31
0.0
  0
LINE
  5
1B2
  8
5
  6
CONTINUOUS
 10
2057.034
 20
1365.394
 30
0.0
 11
2057.034
 21
1399.694
 31
0.0
  0
LINE
  5
1B3
  8
5
  6
CONTINUOUS
 10
1802.534
 20
1423.694
 30
0.0
 11
2098.534
 21
1423.694
 31
0.0
  0
LINE
  5
1B4
  8
5
  6
CONTINUOUS
 10
2063.534
 20
1493.194
 30
0.0
 11
1840.534
 21
1493.194
 31
0.0
  0
LINE
  5
1B5
  8
5
  6
CONTINUOUS
 10
1840.534
 20
1544.194
 30
0.0
 11
1840.534
 21
1493.194
 31
0.0
  0
LINE
  5
1B6
  8
5
  6
CONTINUOUS
 10
2063.534
 20
1493.194
 30
0.0
 11
2063.542
 21
1544.194
 31
0.0
  0
LINE
  5
1B7
  8
5
  6
CONTINUOUS
 10
2109.534
 20
1493.194
 30
0.0
 11
2078.965
 21
1524.694
 31
0.0
  0
LINE
  5
1B8
  8
5
  6
CONTINUOUS
 10
166.6674
 20
1345.526
 30
0.0
 11
166.6674
 21
1345.526
 31
0.0
  0
LINE
  5
1B9
  8
5
  6
CONTINUOUS
 10
140.7194
 20
1319.578
 30
0.0
 11
140.7194
 21
1319.578
 31
0.0
  0
LINE
  5
1BA
  8
5
  6
CONTINUOUS
 10
503.6515
 20
1345.526
 30
0.0
 11
503.6515
 21
1345.526
 31
0.0
  0
LINE
  5
1BB
  8
5
  6
CONTINUOUS
 10
529.5995
 20
1319.578
 30
0.0
 11
529.5995
 21
1319.578
 31
0.0
  0
LINE
  5
1BC
  8
5
  6
CONTINUOUS
 10
213.6595
 20
1368.394
 30
0.0
 11
213.6595
 21
1399.694
 31
0.0
  0
LINE
  5
1BD
  8
5
  6
CONTINUOUS
 10
456.6595
 20
1399.694
 30
0.0
 11
456.6595
 21
1368.394
 31
0.0
  0
LINE
  5
1BE
  8
5
  6
CONTINUOUS
 10
888.7913
 20
1038.694
 30
0.0
 11
886.4598
 21
1056.894
 31
0.0
  0
LINE
  5
1BF
  8
5
  6
CONTINUOUS
 10
886.4598
 20
1056.894
 30
0.0
 11
885.4171
 21
1065.034
 31
0.0
  0
LINE
  5
1C0
  8
5
  6
CONTINUOUS
 10
891.1228
 20
1020.494
 30
0.0
 11
889.932
 21
1029.79
 31
0.0
  0
LINE
  5
1C1
  8
5
  6
CONTINUOUS
 10
889.932
 20
1029.79
 30
0.0
 11
888.7913
 21
1038.694
 31
0.0
  0
LINE
  5
1C2
  8
5
  6
CONTINUOUS
 10
886.4598
 20
1249.894
 30
0.0
 11
885.4171
 21
1241.754
 31
0.0
  0
LINE
  5
1C3
  8
5
  6
CONTINUOUS
 10
889.932
 20
1276.998
 30
0.0
 11
888.7913
 21
1268.094
 31
0.0
  0
LINE
  5
1C4
  8
5
  6
CONTINUOUS
 10
889.932
 20
1276.998
 30
0.0
 11
891.1228
 21
1286.294
 31
0.0
  0
LINE
  5
1C5
  8
5
  6
CONTINUOUS
 10
888.7913
 20
1268.094
 30
0.0
 11
886.4598
 21
1249.894
 31
0.0
  0
LINE
  5
1C6
  8
5
  6
CONTINUOUS
 10
1323.454
 20
1038.694
 30
0.0
 11
1325.786
 21
1056.894
 31
0.0
  0
LINE
  5
1C7
  8
5
  6
CONTINUOUS
 10
1325.786
 20
1056.894
 30
0.0
 11
1326.829
 21
1065.034
 31
0.0
  0
LINE
  5
1C8
  8
5
  6
CONTINUOUS
 10
1322.314
 20
1029.79
 30
0.0
 11
1323.454
 21
1038.694
 31
0.0
  0
LINE
  5
1C9
  8
5
  6
CONTINUOUS
 10
1322.314
 20
1029.79
 30
0.0
 11
1321.123
 21
1020.494
 31
0.0
  0
LINE
  5
1CA
  8
5
  6
CONTINUOUS
 10
891.1228
 20
1286.294
 30
0.0
 11
1321.123
 21
1286.294
 31
0.0
  0
LINE
  5
1CB
  8
5
  6
CONTINUOUS
 10
1325.786
 20
1249.894
 30
0.0
 11
1326.829
 21
1241.754
 31
0.0
  0
LINE
  5
1CC
  8
5
  6
CONTINUOUS
 10
1321.123
 20
1286.294
 30
0.0
 11
1322.314
 21
1276.998
 31
0.0
  0
LINE
  5
1CD
  8
5
  6
CONTINUOUS
 10
1322.314
 20
1276.998
 30
0.0
 11
1323.454
 21
1268.094
 31
0.0
  0
LINE
  5
1CE
  8
5
  6
CONTINUOUS
 10
1323.454
 20
1268.094
 30
0.0
 11
1325.786
 21
1249.894
 31
0.0
  0
LINE
  5
1CF
  8
5
  6
CONTINUOUS
 10
1171.123
 20
1344.394
 30
0.0
 11
1171.123
 21
1291.964
 31
0.0
  0
LINE
  5
1D0
  8
5
  6
CONTINUOUS
 10
1332.623
 20
1153.394
 30
0.0
 11
1332.623
 21
1345.394
 31
0.0
  0
LINE
  5
1D1
  8
5
  6
CONTINUOUS
 10
1332.623
 20
961.3938
 30
0.0
 11
1332.623
 21
1153.394
 31
0.0
  0
LINE
  5
1D2
  8
5
  6
CONTINUOUS
 10
1321.123
 20
1368.394
 30
0.0
 11
1196.123
 21
1368.394
 31
0.0
  0
LINE
  5
1D3
  8
5
  6
CONTINUOUS
 10
1196.123
 20
1368.394
 30
0.0
 11
1171.123
 21
1344.394
 31
0.0
  0
LINE
  5
1D4
  8
5
  6
CONTINUOUS
 10
1323.454
 20
1350.194
 30
0.0
 11
1321.123
 21
1368.394
 31
0.0
  0
LINE
  5
1D5
  8
5
  6
CONTINUOUS
 10
1325.786
 20
1331.994
 30
0.0
 11
1323.454
 21
1350.194
 31
0.0
  0
LINE
  5
1D6
  8
5
  6
CONTINUOUS
 10
1326.829
 20
1323.854
 30
0.0
 11
1325.786
 21
1331.994
 31
0.0
  0
ARC
  5
1D7
  8
5
  6
CONTINUOUS
 10
1950.534
 20
1153.394
 30
0.0
 40
167.7064
 50
264.3538
 51
275.6462
  0
LINE
  5
1D8
  8
5
  6
CONTINUOUS
 10
1383.623
 20
1039.211
 30
0.0
 11
1383.623
 21
940.8938
 31
0.0
  0
LINE
  5
1D9
  8
5
  6
CONTINUOUS
 10
1383.623
 20
1365.894
 30
0.0
 11
1383.623
 21
1267.577
 31
0.0
  0
LINE
  5
1DA
  8
5
  6
CONTINUOUS
 10
1383.623
 20
1039.211
 30
0.0
 11
1383.623
 21
1267.577
 31
0.0
  0
LINE
  5
1DB
  8
5
  6
CONTINUOUS
 10
1383.623
 20
943.8938
 30
0.0
 11
1455.123
 21
943.8938
 31
0.0
  0
LINE
  5
1DC
  8
5
  6
CONTINUOUS
 10
1383.623
 20
1362.894
 30
0.0
 11
1455.123
 21
1362.894
 31
0.0
  0
LINE
  5
1DD
  8
5
  6
CONTINUOUS
 10
1334.123
 20
1267.577
 30
0.0
 11
1334.123
 21
1039.211
 31
0.0
  0
LINE
  5
1DE
  8
5
  6
CONTINUOUS
 10
1334.123
 20
1267.577
 30
0.0
 11
1334.123
 21
1365.894
 31
0.0
  0
LINE
  5
1DF
  8
5
  6
CONTINUOUS
 10
1334.123
 20
940.8938
 30
0.0
 11
1334.123
 21
1039.211
 31
0.0
  0
LINE
  5
1E0
  8
5
  6
CONTINUOUS
 10
1383.623
 20
1365.894
 30
0.0
 11
1334.123
 21
1365.894
 31
0.0
  0
LINE
  5
1E1
  8
5
  6
CONTINUOUS
 10
1383.623
 20
940.8938
 30
0.0
 11
1334.123
 21
940.8938
 31
0.0
  0
LINE
  5
1E2
  8
5
  6
CONTINUOUS
 10
1522.123
 20
1293.394
 30
0.0
 11
1522.123
 21
1013.394
 31
0.0
  0
LINE
  5
1E3
  8
5
  6
CONTINUOUS
 10
1455.123
 20
1040.453
 30
0.0
 11
1455.123
 21
1266.334
 31
0.0
  0
LINE
  5
1E4
  8
5
  6
CONTINUOUS
 10
1455.123
 20
1040.453
 30
0.0
 11
1455.123
 21
943.8938
 31
0.0
  0
LINE
  5
1E5
  8
5
  6
CONTINUOUS
 10
1455.123
 20
1362.894
 30
0.0
 11
1455.123
 21
1266.334
 31
0.0
  0
LINE
  5
1E6
  8
5
  6
CONTINUOUS
 10
459.1594
 20
1399.694
 30
0.0
 11
211.1594
 21
1399.694
 31
0.0
  0
LINE
  5
1E7
  8
5
  6
CONTINUOUS
 10
187.1594
 20
1425.194
 30
0.0
 11
142.6594
 21
1425.194
 31
0.0
  0
ARC
  5
1E8
  8
5
  6
CONTINUOUS
 10
1950.534
 20
1153.394
 30
0.0
 40
163.9844
 50
323.6917
 51
264.2252
  0
ARC
  5
1E9
  8
5
  6
CONTINUOUS
 10
1950.534
 20
1153.394
 30
0.0
 40
163.9844
 50
275.7748
 51
322.3798
  0
LINE
  5
1EA
  8
5
  6
CONTINUOUS
 10
187.1594
 20
1423.694
 30
0.0
 11
187.1594
 21
1448.194
 31
0.0
  0
ARC
  5
1EB
  8
5
  6
CONTINUOUS
 10
1950.534
 20
1153.394
 30
0.0
 40
147.0
 50
276.4447
 51
263.5553
  0
LINE
  5
1EC
  8
5
  6
CONTINUOUS
 10
2165.534
 20
1056.894
 30
0.0
 11
2129.134
 21
1056.894
 31
0.0
  0
LINE
  5
1ED
  8
5
  6
CONTINUOUS
 10
2125.302
 20
1232.894
 30
0.0
 11
2165.534
 21
1232.894
 31
0.0
  0
LINE
  5
1EE
  8
5
  6
CONTINUOUS
 10
2125.302
 20
1073.894
 30
0.0
 11
2165.534
 21
1073.894
 31
0.0
  0
ARC
  5
1EF
  8
5
  6
CONTINUOUS
 10
1950.534
 20
1153.394
 30
0.0
 40
140.7048
 50
235.7463
 51
263.2656
  0
ARC
  5
1F0
  8
5
  6
CONTINUOUS
 10
1950.534
 20
1153.394
 30
0.0
 40
140.7048
 50
276.7344
 51
304.2537
  0
LINE
  5
1F1
  8
5
  6
CONTINUOUS
 10
490.1594
 20
1448.194
 30
0.0
 11
177.6594
 21
1448.194
 31
0.0
  0
LINE
  5
1F2
  8
5
  6
CONTINUOUS
 10
142.6594
 20
1425.194
 30
0.0
 11
142.6594
 21
1473.194
 31
0.0
  0
LINE
  5
1F3
  8
5
  6
CONTINUOUS
 10
187.1594
 20
1423.694
 30
0.0
 11
211.1594
 21
1399.694
 31
0.0
  0
LINE
  5
1F4
  8
5
  6
CONTINUOUS
 10
2104.508
 20
1038.694
 30
0.0
 11
2147.334
 21
1038.694
 31
0.0
  0
LINE
  5
1F5
  8
5
  6
CONTINUOUS
 10
2104.508
 20
1268.094
 30
0.0
 11
2147.334
 21
1268.094
 31
0.0
  0
ARC
  5
1F6
  8
5
  6
CONTINUOUS
 10
1950.534
 20
1153.394
 30
0.0
 40
140.7048
 50
43.02201
 51
136.978
  0
LINE
  5
1F7
  8
5
  6
CONTINUOUS
 10
483.1594
 20
1423.694
 30
0.0
 11
459.1594
 21
1399.694
 31
0.0
  0
LINE
  5
1F8
  8
5
  6
CONTINUOUS
 10
483.1594
 20
1448.194
 30
0.0
 11
483.1594
 21
1423.694
 31
0.0
  0
ARC
  5
1F9
  8
5
  6
CONTINUOUS
 10
1950.534
 20
1153.394
 30
0.0
 40
140.7048
 50
154.984
 51
162.4192
  0
ARC
  5
1FA
  8
5
  6
CONTINUOUS
 10
1950.534
 20
1153.394
 30
0.0
 40
140.7048
 50
17.58082
 51
25.01598
  0
ARC
  5
1FB
  8
5
  6
CONTINUOUS
 10
1950.534
 20
1153.394
 30
0.0
 40
140.7048
 50
169.5586
 51
176.5366
  0
ARC
  5
1FC
  8
5
  6
CONTINUOUS
 10
1950.534
 20
1153.394
 30
0.0
 40
140.7048
 50
3.463355
 51
10.44144
  0
ARC
  5
1FD
  8
5
  6
CONTINUOUS
 10
1950.534
 20
1153.394
 30
0.0
 40
140.7048
 50
183.4634
 51
190.4414
  0
ARC
  5
1FE
  8
5
  6
CONTINUOUS
 10
1950.534
 20
1153.394
 30
0.0
 40
140.7048
 50
349.5586
 51
356.5366
  0
ARC
  5
1FF
  8
5
  6
CONTINUOUS
 10
1950.534
 20
1153.394
 30
0.0
 40
140.7048
 50
197.5808
 51
205.016
  0
ARC
  5
200
  8
5
  6
CONTINUOUS
 10
1950.534
 20
1153.394
 30
0.0
 40
140.7048
 50
334.984
 51
342.4192
  0
ARC
  5
201
  8
5
  6
CONTINUOUS
 10
1950.534
 20
1153.394
 30
0.0
 40
140.7048
 50
316.978
 51
334.984
  0
ARC
  5
202
  8
5
  6
CONTINUOUS
 10
1950.534
 20
1153.394
 30
0.0
 40
136.2749
 50
314.5588
 51
315.2142
  0
ARC
  5
203
  8
5
  6
CONTINUOUS
 10
1950.534
 20
1153.394
 30
0.0
 40
136.2749
 50
301.4142
 51
312.7313
  0
LINE
  5
204
  8
5
  6
CONTINUOUS
 10
889.6594
 20
1312.17
 30
0.0
 11
891.518
 21
1365.394
 31
0.0
  0
LINE
  5
205
  8
5
  6
CONTINUOUS
 10
1131.728
 20
1365.394
 30
0.0
 11
1133.586
 21
1312.17
 31
0.0
  0
ARC
  5
206
  8
5
  6
CONTINUOUS
 10
1950.534
 20
1153.394
 30
0.0
 40
136.2749
 50
224.7858
 51
238.5858
  0
ARC
  5
207
  8
5
  6
CONTINUOUS
 10
1950.534
 20
1153.394
 30
0.0
 40
140.7048
 50
205.016
 51
223.022
  0
ARC
  5
208
  8
5
  6
CONTINUOUS
 10
1950.534
 20
1153.394
 30
0.0
 40
140.7048
 50
25.01598
 51
43.02201
  0
ARC
  5
209
  8
5
  6
CONTINUOUS
 10
1950.534
 20
1153.394
 30
0.0
 40
140.7048
 50
136.978
 51
154.984
  0
LINE
  5
20A
  8
5
  6
CONTINUOUS
 10
1602.123
 20
1346.08
 30
0.0
 11
1602.123
 21
1256.08
 31
0.0
  0
ARC
  5
20B
  8
5
  6
CONTINUOUS
 10
1950.534
 20
1153.394
 30
0.0
 40
140.7048
 50
162.4192
 51
169.5586
  0
ARC
  5
20C
  8
5
  6
CONTINUOUS
 10
1950.534
 20
1153.394
 30
0.0
 40
140.7048
 50
10.44144
 51
17.58082
  0
ARC
  5
20D
  8
5
  6
CONTINUOUS
 10
1950.534
 20
1153.394
 30
0.0
 40
140.7048
 50
176.5366
 51
183.4634
  0
ARC
  5
20E
  8
5
  6
CONTINUOUS
 10
1950.534
 20
1153.394
 30
0.0
 40
140.7048
 50
356.5366
 51
3.4634
  0
ARC
  5
20F
  8
5
  6
CONTINUOUS
 10
1950.534
 20
1153.394
 30
0.0
 40
140.7048
 50
190.4414
 51
197.5808
  0
ARC
  5
210
  8
5
  6
CONTINUOUS
 10
1950.534
 20
1153.394
 30
0.0
 40
140.7048
 50
342.4192
 51
349.5586
  0
ARC
  5
211
  8
5
  6
CONTINUOUS
 10
1950.534
 20
1153.394
 30
0.0
 40
59.71259
 50
244.188
 51
295.812
  0
LINE
  5
212
  8
5
  6
CONTINUOUS
 10
1602.123
 20
1331.08
 30
0.0
 11
1619.443
 21
1341.08
 31
0.0
  0
LINE
  5
213
  8
5
  6
CONTINUOUS
 10
1602.123
 20
1316.08
 30
0.0
 11
1619.443
 21
1326.08
 31
0.0
  0
LINE
  5
214
  8
5
  6
CONTINUOUS
 10
1602.123
 20
1301.08
 30
0.0
 11
1619.443
 21
1311.08
 31
0.0
  0
LINE
  5
215
  8
5
  6
CONTINUOUS
 10
1602.123
 20
1286.08
 30
0.0
 11
1619.443
 21
1296.08
 31
0.0
  0
LINE
  5
216
  8
5
  6
CONTINUOUS
 10
1602.123
 20
1271.08
 30
0.0
 11
1619.443
 21
1281.08
 31
0.0
  0
CIRCLE
  5
217
  8
5
  6
CONTINUOUS
 10
1950.534
 20
1153.394
 30
0.0
 40
54.0
  0
ARC
  5
218
  8
5
  6
CONTINUOUS
 10
1950.534
 20
1153.394
 30
0.0
 40
69.0
 50
292.1363
 51
247.8637
  0
ARC
  5
219
  8
5
  6
CONTINUOUS
 10
1950.534
 20
1153.394
 30
0.0
 40
69.38402
 50
120.9578
 51
142.2271
  0
LINE
  5
21A
  8
5
  6
CONTINUOUS
 10
1204.439
 20
1318.706
 30
0.0
 11
1208.507
 21
1354.058
 31
0.0
  0
LINE
  5
21B
  8
5
  6
CONTINUOUS
 10
1208.507
 20
1354.058
 30
0.0
 11
1225.623
 21
1363.758
 31
0.0
  0
LINE
  5
21C
  8
5
  6
CONTINUOUS
 10
1225.623
 20
1363.758
 30
0.0
 11
1284.623
 21
1363.758
 31
0.0
  0
LINE
  5
21D
  8
5
  6
CONTINUOUS
 10
1284.623
 20
1363.758
 30
0.0
 11
1301.739
 21
1354.058
 31
0.0
  0
LINE
  5
21E
  8
5
  6
CONTINUOUS
 10
1305.807
 20
1318.706
 30
0.0
 11
1301.739
 21
1354.058
 31
0.0
  0
LINE
  5
21F
  8
5
  6
CONTINUOUS
 10
1301.739
 20
1331.98
 30
0.0
 11
1305.355
 21
1286.294
 31
0.0
  0
LINE
  5
220
  8
5
  6
CONTINUOUS
 10
1301.739
 20
1331.98
 30
0.0
 11
1284.623
 21
1346.08
 31
0.0
  0
LINE
  5
221
  8
5
  6
CONTINUOUS
 10
1284.623
 20
1346.08
 30
0.0
 11
1225.623
 21
1346.08
 31
0.0
  0
LINE
  5
222
  8
5
  6
CONTINUOUS
 10
1225.623
 20
1346.08
 30
0.0
 11
1208.507
 21
1331.98
 31
0.0
  0
LINE
  5
223
  8
5
  6
CONTINUOUS
 10
1208.507
 20
1331.98
 30
0.0
 11
1204.89
 21
1286.294
 31
0.0
  0
LINE
  5
224
  8
5
  6
CONTINUOUS
 10
1237.123
 20
1286.294
 30
0.0
 11
1237.123
 21
1312.511
 31
0.0
  0
LINE
  5
225
  8
5
  6
CONTINUOUS
 10
1237.123
 20
1312.511
 30
0.0
 11
1245.123
 21
1319.578
 31
0.0
  0
LINE
  5
226
  8
5
  6
CONTINUOUS
 10
1245.123
 20
1319.578
 30
0.0
 11
1265.123
 21
1319.578
 31
0.0
  0
LINE
  5
227
  8
5
  6
CONTINUOUS
 10
1265.123
 20
1319.578
 30
0.0
 11
1273.123
 21
1312.511
 31
0.0
  0
LINE
  5
228
  8
5
  6
CONTINUOUS
 10
1273.123
 20
1312.511
 30
0.0
 11
1273.123
 21
1286.294
 31
0.0
  0
LINE
  5
229
  8
5
  6
CONTINUOUS
 10
1305.807
 20
1318.706
 30
0.0
 11
1307.129
 21
1291.964
 31
0.0
  0
LINE
  5
22A
  8
5
  6
CONTINUOUS
 10
1301.739
 20
1354.058
 30
0.0
 11
1301.739
 21
1331.98
 31
0.0
  0
LINE
  5
22B
  8
5
  6
CONTINUOUS
 10
1208.507
 20
1331.98
 30
0.0
 11
1208.507
 21
1354.058
 31
0.0
  0
LINE
  5
22C
  8
5
  6
CONTINUOUS
 10
1203.117
 20
1291.964
 30
0.0
 11
1204.439
 21
1318.706
 31
0.0
  0
LINE
  5
22D
  8
5
  6
CONTINUOUS
 10
1237.123
 20
1291.964
 30
0.0
 11
1273.123
 21
1291.964
 31
0.0
  0
LINE
  5
22E
  8
5
  6
CONTINUOUS
 10
1307.129
 20
1291.964
 30
0.0
 11
1321.123
 21
1291.964
 31
0.0
  0
LINE
  5
22F
  8
5
  6
CONTINUOUS
 10
1321.123
 20
1291.964
 30
0.0
 11
1321.123
 21
1368.394
 31
0.0
  0
LINE
  5
230
  8
5
  6
CONTINUOUS
 10
1171.123
 20
1291.964
 30
0.0
 11
1203.117
 21
1291.964
 31
0.0
  0
ARC
  5
231
  8
5
  6
CONTINUOUS
 10
1950.534
 20
1153.394
 30
0.0
 40
69.38402
 50
37.77288
 51
59.04217
  0
ARC
  5
232
  8
5
  6
CONTINUOUS
 10
1950.534
 20
1153.394
 30
0.0
 40
69.38402
 50
158.4373
 51
172.9632
  0
ARC
  5
233
  8
5
  6
CONTINUOUS
 10
1950.534
 20
1153.394
 30
0.0
 40
69.38402
 50
7.036787
 51
21.56274
  0
LINE
  5
234
  8
5
  6
CONTINUOUS
 10
1119.955
 20
1301.369
 30
0.0
 11
903.2908
 21
1301.369
 31
0.0
  0
ARC
  5
235
  8
5
  6
CONTINUOUS
 10
1950.534
 20
1153.394
 30
0.0
 40
69.38402
 50
187.0368
 51
201.5627
  0
ARC
  5
236
  8
5
  6
CONTINUOUS
 10
1950.534
 20
1153.394
 30
0.0
 40
69.38402
 50
338.4373
 51
352.9632
  0
LINE
  5
237
  8
5
  6
CONTINUOUS
 10
1225.623
 20
1363.758
 30
0.0
 11
1225.623
 21
1346.08
 31
0.0
  0
LINE
  5
238
  8
5
  6
CONTINUOUS
 10
1284.623
 20
1346.08
 30
0.0
 11
1284.623
 21
1363.758
 31
0.0
  0
LINE
  5
23B
  8
5
  6
CONTINUOUS
 10
1321.123
 20
1056.894
 30
0.0
 11
891.1228
 21
1056.894
 31
0.0
  0
LINE
  5
23C
  8
5
  6
CONTINUOUS
 10
891.1228
 20
1056.894
 30
0.0
 11
891.1228
 21
1039.494
 31
0.0
  0
LINE
  5
23D
  8
5
  6
CONTINUOUS
 10
891.1228
 20
1039.494
 30
0.0
 11
1321.123
 21
1039.494
 31
0.0
  0
LINE
  5
23E
  8
5
  6
CONTINUOUS
 10
1321.123
 20
1039.494
 30
0.0
 11
1321.123
 21
1056.894
 31
0.0
  0
LINE
  5
23F
  8
5
  6
CONTINUOUS
 10
1321.123
 20
1088.894
 30
0.0
 11
891.1228
 21
1088.894
 31
0.0
  0
LINE
  5
240
  8
5
  6
CONTINUOUS
 10
891.1228
 20
1088.894
 30
0.0
 11
891.1228
 21
1073.894
 31
0.0
  0
LINE
  5
241
  8
5
  6
CONTINUOUS
 10
891.1228
 20
1073.894
 30
0.0
 11
1321.123
 21
1073.894
 31
0.0
  0
LINE
  5
242
  8
5
  6
CONTINUOUS
 10
1321.123
 20
1073.894
 30
0.0
 11
1321.123
 21
1088.894
 31
0.0
  0
LINE
  5
243
  8
5
  6
CONTINUOUS
 10
1321.123
 20
1118.894
 30
0.0
 11
891.1228
 21
1118.894
 31
0.0
  0
LINE
  5
244
  8
5
  6
CONTINUOUS
 10
891.1228
 20
1118.894
 30
0.0
 11
891.1228
 21
1103.894
 31
0.0
  0
LINE
  5
245
  8
5
  6
CONTINUOUS
 10
891.1228
 20
1103.894
 30
0.0
 11
1321.123
 21
1103.894
 31
0.0
  0
LINE
  5
246
  8
5
  6
CONTINUOUS
 10
1321.123
 20
1103.894
 30
0.0
 11
1321.123
 21
1118.894
 31
0.0
  0
LINE
  5
247
  8
5
  6
CONTINUOUS
 10
1321.123
 20
1249.894
 30
0.0
 11
891.1228
 21
1249.894
 31
0.0
  0
LINE
  5
248
  8
5
  6
CONTINUOUS
 10
891.1228
 20
1249.894
 30
0.0
 11
891.1228
 21
1232.894
 31
0.0
  0
LINE
  5
249
  8
5
  6
CONTINUOUS
 10
891.1228
 20
1232.894
 30
0.0
 11
1321.123
 21
1232.894
 31
0.0
  0
LINE
  5
24A
  8
5
  6
CONTINUOUS
 10
1321.123
 20
1232.894
 30
0.0
 11
1321.123
 21
1249.894
 31
0.0
  0
LINE
  5
24B
  8
5
  6
CONTINUOUS
 10
1321.123
 20
1217.894
 30
0.0
 11
891.1228
 21
1217.894
 31
0.0
  0
LINE
  5
24C
  8
5
  6
CONTINUOUS
 10
891.1228
 20
1217.894
 30
0.0
 11
891.1228
 21
1202.894
 31
0.0
  0
LINE
  5
24D
  8
5
  6
CONTINUOUS
 10
891.1228
 20
1202.894
 30
0.0
 11
1321.123
 21
1202.894
 31
0.0
  0
LINE
  5
24E
  8
5
  6
CONTINUOUS
 10
1321.123
 20
1202.894
 30
0.0
 11
1321.123
 21
1217.894
 31
0.0
  0
LINE
  5
24F
  8
5
  6
CONTINUOUS
 10
1321.123
 20
1187.894
 30
0.0
 11
891.1228
 21
1187.894
 31
0.0
  0
LINE
  5
250
  8
5
  6
CONTINUOUS
 10
891.1228
 20
1187.894
 30
0.0
 11
891.1228
 21
1170.644
 31
0.0
  0
LINE
  5
251
  8
5
  6
CONTINUOUS
 10
891.1228
 20
1170.644
 30
0.0
 11
1321.123
 21
1170.644
 31
0.0
  0
LINE
  5
252
  8
5
  6
CONTINUOUS
 10
1321.123
 20
1170.644
 30
0.0
 11
1321.123
 21
1187.894
 31
0.0
  0
LINE
  5
253
  8
5
  6
CONTINUOUS
 10
1321.123
 20
1153.394
 30
0.0
 11
891.1228
 21
1153.394
 31
0.0
  0
LINE
  5
254
  8
5
  6
CONTINUOUS
 10
891.1228
 20
1153.394
 30
0.0
 11
891.1228
 21
1136.144
 31
0.0
  0
LINE
  5
255
  8
5
  6
CONTINUOUS
 10
891.1228
 20
1136.144
 30
0.0
 11
1321.123
 21
1136.144
 31
0.0
  0
LINE
  5
256
  8
5
  6
CONTINUOUS
 10
1321.123
 20
1136.144
 30
0.0
 11
1321.123
 21
1153.394
 31
0.0
  0
LINE
  5
257
  8
5
  6
CONTINUOUS
 10
1321.123
 20
1056.894
 30
0.0
 11
1321.123
 21
1073.894
 31
0.0
  0
LINE
  5
258
  8
5
  6
CONTINUOUS
 10
891.1228
 20
1073.894
 30
0.0
 11
891.1228
 21
1056.894
 31
0.0
  0
LINE
  5
259
  8
5
  6
CONTINUOUS
 10
1321.123
 20
1088.894
 30
0.0
 11
1321.123
 21
1103.894
 31
0.0
  0
LINE
  5
25A
  8
5
  6
CONTINUOUS
 10
891.1228
 20
1103.894
 30
0.0
 11
891.1228
 21
1088.894
 31
0.0
  0
LINE
  5
25B
  8
5
  6
CONTINUOUS
 10
1321.123
 20
1118.894
 30
0.0
 11
1321.123
 21
1136.144
 31
0.0
  0
LINE
  5
25C
  8
5
  6
CONTINUOUS
 10
891.1228
 20
1136.144
 30
0.0
 11
891.1228
 21
1118.894
 31
0.0
  0
LINE
  5
25D
  8
5
  6
CONTINUOUS
 10
1321.123
 20
1249.894
 30
0.0
 11
1321.123
 21
1268.094
 31
0.0
  0
LINE
  5
25E
  8
5
  6
CONTINUOUS
 10
1321.123
 20
1268.094
 30
0.0
 11
891.1228
 21
1268.094
 31
0.0
  0
LINE
  5
25F
  8
5
  6
CONTINUOUS
 10
891.1228
 20
1268.094
 30
0.0
 11
891.1228
 21
1249.894
 31
0.0
  0
LINE
  5
260
  8
5
  6
CONTINUOUS
 10
891.1228
 20
1232.894
 30
0.0
 11
891.1228
 21
1217.894
 31
0.0
  0
LINE
  5
261
  8
5
  6
CONTINUOUS
 10
1321.123
 20
1217.894
 30
0.0
 11
1321.123
 21
1232.894
 31
0.0
  0
LINE
  5
262
  8
5
  6
CONTINUOUS
 10
891.1228
 20
1202.894
 30
0.0
 11
891.1228
 21
1187.894
 31
0.0
  0
LINE
  5
263
  8
5
  6
CONTINUOUS
 10
1321.123
 20
1187.894
 30
0.0
 11
1321.123
 21
1202.894
 31
0.0
  0
LINE
  5
264
  8
5
  6
CONTINUOUS
 10
891.1228
 20
1170.644
 30
0.0
 11
891.1228
 21
1153.394
 31
0.0
  0
LINE
  5
265
  8
5
  6
CONTINUOUS
 10
1321.123
 20
1153.394
 30
0.0
 11
1321.123
 21
1170.644
 31
0.0
  0
LINE
  5
268
  8
5
  6
CONTINUOUS
 10
891.1228
 20
1056.894
 30
0.0
 11
886.4599
 21
1056.894
 31
0.0
  0
LINE
  5
269
  8
5
  6
CONTINUOUS
 10
888.7913
 20
1268.094
 30
0.0
 11
891.1228
 21
1268.094
 31
0.0
  0
LINE
  5
26B
  8
5
  6
CONTINUOUS
 10
886.4598
 20
1249.894
 30
0.0
 11
891.1228
 21
1249.894
 31
0.0
  0
LINE
  5
26D
  8
5
  6
CONTINUOUS
 10
888.0769
 20
1136.144
 30
0.0
 11
891.1228
 21
1136.144
 31
0.0
  0
LINE
  5
26E
  8
5
  6
CONTINUOUS
 10
891.1228
 20
1153.394
 30
0.0
 11
888.1764
 21
1153.394
 31
0.0
  0
LINE
  5
26F
  8
5
  6
CONTINUOUS
 10
888.0769
 20
1170.644
 30
0.0
 11
891.1228
 21
1170.644
 31
0.0
  0
LINE
  5
270
  8
5
  6
CONTINUOUS
 10
891.1228
 20
1187.894
 30
0.0
 11
887.776
 21
1187.894
 31
0.0
  0
LINE
  5
271
  8
5
  6
CONTINUOUS
 10
887.3449
 20
1202.894
 30
0.0
 11
891.1228
 21
1202.894
 31
0.0
  0
LINE
  5
272
  8
5
  6
CONTINUOUS
 10
891.1228
 20
1217.894
 30
0.0
 11
886.747
 21
1217.894
 31
0.0
  0
LINE
  5
273
  8
5
  6
CONTINUOUS
 10
885.969
 20
1232.894
 30
0.0
 11
891.1228
 21
1232.894
 31
0.0
  0
LINE
  5
274
  8
5
  6
CONTINUOUS
 10
887.3449
 20
1103.894
 30
0.0
 11
891.1228
 21
1103.894
 31
0.0
  0
LINE
  5
275
  8
5
  6
CONTINUOUS
 10
891.1228
 20
1118.894
 30
0.0
 11
887.776
 21
1118.894
 31
0.0
  0
LINE
  5
276
  8
5
  6
CONTINUOUS
 10
885.969
 20
1073.894
 30
0.0
 11
891.1228
 21
1073.894
 31
0.0
  0
LINE
  5
277
  8
5
  6
CONTINUOUS
 10
891.1228
 20
1088.894
 30
0.0
 11
886.747
 21
1088.894
 31
0.0
  0
LINE
  5
279
  8
5
  6
CONTINUOUS
 10
1325.786
 20
1056.894
 30
0.0
 11
1321.123
 21
1056.894
 31
0.0
  0
LINE
  5
27B
  8
5
  6
CONTINUOUS
 10
1321.123
 20
1268.094
 30
0.0
 11
1323.454
 21
1268.094
 31
0.0
  0
LINE
  5
27D
  8
5
  6
CONTINUOUS
 10
1321.123
 20
1249.894
 30
0.0
 11
1325.786
 21
1249.894
 31
0.0
  0
LINE
  5
27F
  8
5
  6
CONTINUOUS
 10
1324.069
 20
1153.394
 30
0.0
 11
1321.123
 21
1153.394
 31
0.0
  0
LINE
  5
280
  8
5
  6
CONTINUOUS
 10
1321.123
 20
1136.144
 30
0.0
 11
1324.169
 21
1136.144
 31
0.0
  0
LINE
  5
281
  8
5
  6
CONTINUOUS
 10
1324.47
 20
1187.894
 30
0.0
 11
1321.123
 21
1187.894
 31
0.0
  0
LINE
  5
282
  8
5
  6
CONTINUOUS
 10
1321.123
 20
1170.644
 30
0.0
 11
1324.169
 21
1170.644
 31
0.0
  0
LINE
  5
283
  8
5
  6
CONTINUOUS
 10
1325.499
 20
1217.894
 30
0.0
 11
1321.123
 21
1217.894
 31
0.0
  0
LINE
  5
284
  8
5
  6
CONTINUOUS
 10
1321.123
 20
1202.894
 30
0.0
 11
1324.901
 21
1202.894
 31
0.0
  0
LINE
  5
285
  8
5
  6
CONTINUOUS
 10
1321.123
 20
1232.894
 30
0.0
 11
1326.277
 21
1232.894
 31
0.0
  0
LINE
  5
286
  8
5
  6
CONTINUOUS
 10
1324.47
 20
1118.894
 30
0.0
 11
1321.123
 21
1118.894
 31
0.0
  0
LINE
  5
287
  8
5
  6
CONTINUOUS
 10
1321.123
 20
1103.894
 30
0.0
 11
1324.901
 21
1103.894
 31
0.0
  0
LINE
  5
288
  8
5
  6
CONTINUOUS
 10
1325.499
 20
1088.894
 30
0.0
 11
1321.123
 21
1088.894
 31
0.0
  0
LINE
  5
289
  8
5
  6
CONTINUOUS
 10
1321.123
 20
1073.894
 30
0.0
 11
1326.277
 21
1073.894
 31
0.0
  0
LINE
  5
28A
  8
5
  6
CONTINUOUS
 10
1455.123
 20
1266.334
 30
0.0
 11
1383.623
 21
1266.334
 31
0.0
  0
LINE
  5
28B
  8
5
  6
CONTINUOUS
 10
1383.623
 20
1040.453
 30
0.0
 11
1455.123
 21
1040.453
 31
0.0
  0
LINE
  5
28C
  8
5
  6
CONTINUOUS
 10
1334.123
 20
1039.211
 30
0.0
 11
1383.623
 21
1039.211
 31
0.0
  0
LINE
  5
28D
  8
5
  6
CONTINUOUS
 10
1383.623
 20
1267.577
 30
0.0
 11
1334.123
 21
1267.577
 31
0.0
  0
LINE
  5
28E
  8
5
  6
CONTINUOUS
 10
1522.123
 20
1013.394
 30
0.0
 11
1513.123
 21
1013.394
 31
0.0
  0
LINE
  5
28F
  8
5
  6
CONTINUOUS
 10
1513.123
 20
1293.394
 30
0.0
 11
1513.123
 21
1013.394
 31
0.0
  0
LINE
  5
290
  8
5
  6
CONTINUOUS
 10
1522.123
 20
1293.394
 30
0.0
 11
1513.123
 21
1293.394
 31
0.0
  0
LINE
  5
291
  8
5
  6
CONTINUOUS
 10
1513.123
 20
1013.394
 30
0.0
 11
1455.123
 21
952.8938
 31
0.0
  0
LINE
  5
292
  8
5
  6
CONTINUOUS
 10
1513.123
 20
1293.394
 30
0.0
 11
1455.123
 21
1353.894
 31
0.0
  0
ARC
  5
293
  8
5
  6
CONTINUOUS
 10
1950.534
 20
1153.394
 30
0.0
 40
69.38402
 50
217.7729
 51
239.0422
  0
ARC
  5
294
  8
5
  6
CONTINUOUS
 10
1950.534
 20
1153.394
 30
0.0
 40
69.38402
 50
300.9578
 51
322.2271
  0
ARC
  5
295
  8
5
  6
CONTINUOUS
 10
1950.534
 20
1153.394
 30
0.0
 40
69.38402
 50
239.0422
 51
247.9926
  0
ARC
  5
296
  8
5
  6
CONTINUOUS
 10
1950.534
 20
1153.394
 30
0.0
 40
69.38402
 50
292.0074
 51
300.9578
  0
ARC
  5
297
  8
5
  6
CONTINUOUS
 10
1950.534
 20
1153.394
 30
0.0
 40
69.38402
 50
59.04217
 51
120.9578
  0
ARC
  5
298
  8
5
  6
CONTINUOUS
 10
1950.534
 20
1153.394
 30
0.0
 40
69.38402
 50
142.2271
 51
158.4373
  0
ARC
  5
299
  8
5
  6
CONTINUOUS
 10
1950.534
 20
1153.394
 30
0.0
 40
69.38402
 50
21.56274
 51
37.77288
  0
ARC
  5
29A
  8
5
  6
CONTINUOUS
 10
1950.534
 20
1153.394
 30
0.0
 40
69.38402
 50
172.9632
 51
187.0368
  0
ARC
  5
29B
  8
5
  6
CONTINUOUS
 10
1950.534
 20
1153.394
 30
0.0
 40
69.38402
 50
352.9632
 51
7.0368
  0
ARC
  5
29C
  8
5
  6
CONTINUOUS
 10
1950.534
 20
1153.394
 30
0.0
 40
69.38402
 50
201.5627
 51
217.7729
  0
ARC
  5
29D
  8
5
  6
CONTINUOUS
 10
1950.534
 20
1153.394
 30
0.0
 40
69.38402
 50
322.2271
 51
338.4373
  0
LINE
  5
29E
  8
5
  6
CONTINUOUS
 10
905.5265
 20
1365.394
 30
0.0
 11
903.2908
 21
1301.369
 31
0.0
  0
LINE
  5
29F
  8
5
  6
CONTINUOUS
 10
1119.955
 20
1301.369
 30
0.0
 11
1117.719
 21
1365.394
 31
0.0
  0
LINE
  5
2A0
  8
5
  6
CONTINUOUS
 10
1847.666
 20
1249.394
 30
0.0
 11
2053.403
 21
1249.394
 31
0.0
  0
LINE
  5
2A1
  8
5
  6
CONTINUOUS
 10
1914.843
 20
1212.894
 30
0.0
 11
1823.029
 21
1212.894
 31
0.0
  0
LINE
  5
2A2
  8
5
  6
CONTINUOUS
 10
1816.402
 20
1195.894
 30
0.0
 11
1895.69
 21
1195.894
 31
0.0
  0
LINE
  5
2A3
  8
5
  6
CONTINUOUS
 10
2005.379
 20
1195.894
 30
0.0
 11
2084.667
 21
1195.894
 31
0.0
  0
LINE
  5
2A4
  8
5
  6
CONTINUOUS
 10
2078.04
 20
1212.894
 30
0.0
 11
1986.226
 21
1212.894
 31
0.0
  0
LINE
  5
2A5
  8
5
  6
CONTINUOUS
 10
1886.006
 20
1178.894
 30
0.0
 11
1812.16
 21
1178.894
 31
0.0
  0
LINE
  5
2A6
  8
5
  6
CONTINUOUS
 10
1810.087
 20
1161.894
 30
0.0
 11
1881.673
 21
1161.894
 31
0.0
  0
LINE
  5
2A7
  8
5
  6
CONTINUOUS
 10
2019.396
 20
1161.894
 30
0.0
 11
2090.982
 21
1161.894
 31
0.0
  0
LINE
  5
2A8
  8
5
  6
CONTINUOUS
 10
2088.909
 20
1178.894
 30
0.0
 11
2015.063
 21
1178.894
 31
0.0
  0
LINE
  5
2A9
  8
5
  6
CONTINUOUS
 10
1881.673
 20
1144.894
 30
0.0
 11
1810.087
 21
1144.894
 31
0.0
  0
LINE
  5
2AA
  8
5
  6
CONTINUOUS
 10
1812.159
 20
1127.894
 30
0.0
 11
1886.006
 21
1127.894
 31
0.0
  0
LINE
  5
2AB
  8
5
  6
CONTINUOUS
 10
2015.063
 20
1127.894
 30
0.0
 11
2088.909
 21
1127.894
 31
0.0
  0
LINE
  5
2AC
  8
5
  6
CONTINUOUS
 10
2090.982
 20
1144.894
 30
0.0
 11
2019.396
 21
1144.894
 31
0.0
  0
LINE
  5
2AD
  8
5
  6
CONTINUOUS
 10
1895.69
 20
1110.894
 30
0.0
 11
1816.402
 21
1110.894
 31
0.0
  0
LINE
  5
2AE
  8
5
  6
CONTINUOUS
 10
1823.029
 20
1093.894
 30
0.0
 11
1914.843
 21
1093.894
 31
0.0
  0
LINE
  5
2AF
  8
5
  6
CONTINUOUS
 10
1986.226
 20
1093.894
 30
0.0
 11
2078.04
 21
1093.894
 31
0.0
  0
LINE
  5
2B0
  8
5
  6
CONTINUOUS
 10
2084.667
 20
1110.894
 30
0.0
 11
2005.379
 21
1110.894
 31
0.0
  0
LINE
  5
2B1
  8
5
  6
CONTINUOUS
 10
2071.485
 20
1053.294
 30
0.0
 11
2176.534
 21
1053.294
 31
0.0
  0
LINE
  5
2B2
  8
5
  6
CONTINUOUS
 10
2073.906
 20
1056.294
 30
0.0
 11
2176.534
 21
1056.294
 31
0.0
  0
LINE
  5
2B3
  8
5
  6
CONTINUOUS
 10
1991.834
 20
1053.294
 30
0.0
 11
2055.304
 21
1053.294
 31
0.0
  0
LINE
  5
2B4
  8
5
  6
CONTINUOUS
 10
1991.834
 20
1056.294
 30
0.0
 11
2058.089
 21
1056.294
 31
0.0
  0
LINE
  5
2B5
  8
5
  6
CONTINUOUS
 10
1784.547
 20
1056.894
 30
0.0
 11
1771.934
 21
1056.894
 31
0.0
  0
LINE
  5
2B6
  8
5
  6
CONTINUOUS
 10
2129.734
 20
1056.294
 30
0.0
 11
2129.134
 21
1056.894
 31
0.0
  0
LINE
  5
2B7
  8
5
  6
CONTINUOUS
 10
2129.134
 20
1056.894
 30
0.0
 11
2116.522
 21
1056.894
 31
0.0
  0
LINE
  5
2B9
  8
5
  6
CONTINUOUS
 10
1321.334
 20
261.0903
 30
0.0
 11
1196.334
 21
261.0903
 31
0.0
  0
LINE
  5
2BA
  8
5
  6
CONTINUOUS
 10
1196.334
 20
261.0903
 30
0.0
 11
1171.334
 21
261.0903
 31
0.0
  0
LINE
  5
2BB
  8
5
  6
CONTINUOUS
 10
1327.039
 20
305.6305
 30
0.0
 11
1325.997
 21
297.4903
 31
0.0
  0
LINE
  5
2BC
  8
5
  6
CONTINUOUS
 10
1323.665
 20
279.2903
 30
0.0
 11
1321.334
 21
261.0903
 31
0.0
  0
LINE
  5
2BD
  8
5
  6
CONTINUOUS
 10
1325.997
 20
297.4903
 30
0.0
 11
1323.665
 21
279.2903
 31
0.0
  0
LINE
  5
2BE
  8
5
  6
CONTINUOUS
 10
1325.997
 20
490.4903
 30
0.0
 11
1323.665
 21
508.6903
 31
0.0
  0
LINE
  5
2BF
  8
5
  6
CONTINUOUS
 10
1327.039
 20
482.3501
 30
0.0
 11
1325.997
 21
490.4903
 31
0.0
  0
LINE
  5
2C0
  8
5
  6
CONTINUOUS
 10
1323.665
 20
508.6903
 30
0.0
 11
1321.334
 21
526.8903
 31
0.0
  0
LINE
  5
2C1
  8
5
  6
CONTINUOUS
 10
1171.334
 20
526.8903
 30
0.0
 11
1196.334
 21
526.8903
 31
0.0
  0
LINE
  5
2C2
  8
5
  6
CONTINUOUS
 10
1196.334
 20
526.8903
 30
0.0
 11
1321.334
 21
526.8903
 31
0.0
  0
LINE
  5
2C3
  8
5
  6
CONTINUOUS
 10
1332.834
 20
201.9903
 30
0.0
 11
1332.834
 21
585.9903
 31
0.0
  0
LINE
  5
2C4
  8
5
  6
CONTINUOUS
 10
1321.334
 20
178.9903
 30
0.0
 11
891.3338
 21
178.9903
 31
0.0
  0
LINE
  5
2C5
  8
5
  6
CONTINUOUS
 10
891.3338
 20
608.9903
 30
0.0
 11
1321.334
 21
608.9903
 31
0.0
  0
LINE
  5
2C7
  8
5
  6
CONTINUOUS
 10
891.3338
 20
178.9903
 30
0.0
 11
890.143
 21
188.286
 31
0.0
  0
LINE
  5
2C8
  8
5
  6
CONTINUOUS
 10
890.143
 20
188.286
 30
0.0
 11
889.0023
 21
197.1903
 31
0.0
  0
LINE
  5
2CA
  8
5
  6
CONTINUOUS
 10
2129.134
 20
1249.894
 30
0.0
 11
2116.522
 21
1249.894
 31
0.0
  0
LINE
  5
2CB
  8
5
  6
CONTINUOUS
 10
890.143
 20
599.6946
 30
0.0
 11
889.0023
 21
590.7903
 31
0.0
  0
LINE
  5
2CC
  8
5
  6
CONTINUOUS
 10
890.143
 20
599.6946
 30
0.0
 11
891.3338
 21
608.9903
 31
0.0
  0
LINE
  5
2CD
  8
5
  6
CONTINUOUS
 10
889.0023
 20
590.7903
 30
0.0
 11
886.6708
 21
572.5903
 31
0.0
  0
LINE
  5
2CE
  8
5
  6
CONTINUOUS
 10
886.6708
 20
572.5903
 30
0.0
 11
885.628
 21
564.4501
 31
0.0
  0
LINE
  5
2CF
  8
5
  6
CONTINUOUS
 10
1322.525
 20
188.286
 30
0.0
 11
1323.665
 21
197.1903
 31
0.0
  0
LINE
  5
2D0
  8
5
  6
CONTINUOUS
 10
1322.525
 20
188.286
 30
0.0
 11
1321.334
 21
178.9903
 31
0.0
  0
LINE
  5
2D1
  8
5
  6
CONTINUOUS
 10
1323.665
 20
197.1903
 30
0.0
 11
1325.997
 21
215.3903
 31
0.0
  0
LINE
  5
2D2
  8
5
  6
CONTINUOUS
 10
1325.997
 20
215.3903
 30
0.0
 11
1327.039
 21
223.5305
 31
0.0
  0
LINE
  5
2D3
  8
5
  6
CONTINUOUS
 10
1784.547
 20
1249.894
 30
0.0
 11
1771.934
 21
1249.894
 31
0.0
  0
LINE
  5
2D4
  8
5
  6
CONTINUOUS
 10
1321.334
 20
608.9903
 30
0.0
 11
1322.525
 21
599.6946
 31
0.0
  0
LINE
  5
2D5
  8
5
  6
CONTINUOUS
 10
1322.525
 20
599.6946
 30
0.0
 11
1323.665
 21
590.7904
 31
0.0
  0
LINE
  5
2D6
  8
5
  6
CONTINUOUS
 10
1323.665
 20
590.7904
 30
0.0
 11
1325.997
 21
572.5903
 31
0.0
  0
LINE
  5
2D7
  8
5
  6
CONTINUOUS
 10
1325.997
 20
572.5903
 30
0.0
 11
1327.039
 21
564.4501
 31
0.0
  0
LINE
  5
2D8
  8
5
  6
CONTINUOUS
 10
1383.834
 20
606.4903
 30
0.0
 11
1383.834
 21
508.1737
 31
0.0
  0
LINE
  5
2D9
  8
5
  6
CONTINUOUS
 10
1383.834
 20
508.1737
 30
0.0
 11
1383.834
 21
279.807
 31
0.0
  0
LINE
  5
2DA
  8
5
  6
CONTINUOUS
 10
1383.834
 20
279.807
 30
0.0
 11
1383.834
 21
181.4903
 31
0.0
  0
LINE
  5
2DB
  8
5
  6
CONTINUOUS
 10
1455.334
 20
184.4904
 30
0.0
 11
1383.834
 21
184.4904
 31
0.0
  0
LINE
  5
2DC
  8
5
  6
CONTINUOUS
 10
1383.834
 20
603.4904
 30
0.0
 11
1455.334
 21
603.4904
 31
0.0
  0
LINE
  5
2DD
  8
5
  6
CONTINUOUS
 10
1334.334
 20
181.4903
 30
0.0
 11
1334.334
 21
279.807
 31
0.0
  0
LINE
  5
2DE
  8
5
  6
CONTINUOUS
 10
1334.334
 20
279.807
 30
0.0
 11
1334.334
 21
508.1737
 31
0.0
  0
LINE
  5
2DF
  8
5
  6
CONTINUOUS
 10
1334.334
 20
508.1737
 30
0.0
 11
1334.334
 21
606.4903
 31
0.0
  0
LINE
  5
2E0
  8
5
  6
CONTINUOUS
 10
1383.834
 20
181.4903
 30
0.0
 11
1334.334
 21
181.4903
 31
0.0
  0
LINE
  5
2E1
  8
5
  6
CONTINUOUS
 10
1383.834
 20
606.4903
 30
0.0
 11
1334.334
 21
606.4903
 31
0.0
  0
LINE
  5
2E2
  8
5
  6
CONTINUOUS
 10
1522.334
 20
533.9903
 30
0.0
 11
1522.334
 21
253.9903
 31
0.0
  0
LINE
  5
2E3
  8
5
  6
CONTINUOUS
 10
1455.334
 20
603.4904
 30
0.0
 11
1455.334
 21
506.9311
 31
0.0
  0
LINE
  5
2E4
  8
5
  6
CONTINUOUS
 10
1455.334
 20
506.9311
 30
0.0
 11
1455.334
 21
281.0497
 31
0.0
  0
LINE
  5
2E5
  8
5
  6
CONTINUOUS
 10
1455.334
 20
281.0497
 30
0.0
 11
1455.334
 21
184.4904
 31
0.0
  0
LINE
  5
2E7
  8
5
  6
CONTINUOUS
 10
2141.758
 20
1136.144
 30
0.0
 11
2165.534
 21
1136.144
 31
0.0
  0
LINE
  5
2E8
  8
5
  6
CONTINUOUS
 10
2165.534
 20
1153.394
 30
0.0
 11
2142.534
 21
1153.394
 31
0.0
  0
LINE
  5
2E9
  8
5
  6
CONTINUOUS
 10
2141.758
 20
1170.644
 30
0.0
 11
2165.534
 21
1170.644
 31
0.0
  0
LINE
  5
2EA
  8
5
  6
CONTINUOUS
 10
2165.534
 20
1187.894
 30
0.0
 11
2139.409
 21
1187.894
 31
0.0
  0
LINE
  5
2EB
  8
5
  6
CONTINUOUS
 10
2136.044
 20
1202.894
 30
0.0
 11
2165.534
 21
1202.894
 31
0.0
  0
LINE
  5
2EC
  8
5
  6
CONTINUOUS
 10
2165.534
 20
1217.894
 30
0.0
 11
2131.376
 21
1217.894
 31
0.0
  0
LINE
  5
2ED
  8
5
  6
CONTINUOUS
 10
2136.044
 20
1103.894
 30
0.0
 11
2165.534
 21
1103.894
 31
0.0
  0
LINE
  5
2EE
  8
5
  6
CONTINUOUS
 10
2165.534
 20
1118.894
 30
0.0
 11
2139.409
 21
1118.894
 31
0.0
  0
LINE
  5
2EF
  8
5
  6
CONTINUOUS
 10
2165.534
 20
1088.894
 30
0.0
 11
2131.376
 21
1088.894
 31
0.0
  0
LINE
  5
2F0
  8
5
  6
CONTINUOUS
 10
1758.534
 20
1153.394
 30
0.0
 11
1735.534
 21
1153.394
 31
0.0
  0
LINE
  5
2F1
  8
5
  6
CONTINUOUS
 10
1735.534
 20
1136.144
 30
0.0
 11
1759.311
 21
1136.144
 31
0.0
  0
LINE
  5
2F2
  8
5
  6
CONTINUOUS
 10
1761.659
 20
1187.894
 30
0.0
 11
1735.534
 21
1187.894
 31
0.0
  0
LINE
  5
2F3
  8
5
  6
CONTINUOUS
 10
1735.534
 20
1170.644
 30
0.0
 11
1759.311
 21
1170.644
 31
0.0
  0
LINE
  5
2F4
  8
5
  6
CONTINUOUS
 10
1769.693
 20
1217.894
 30
0.0
 11
1735.534
 21
1217.894
 31
0.0
  0
LINE
  5
2F5
  8
5
  6
CONTINUOUS
 10
1735.534
 20
1202.894
 30
0.0
 11
1765.025
 21
1202.894
 31
0.0
  0
LINE
  5
2F6
  8
5
  6
CONTINUOUS
 10
1761.659
 20
1118.894
 30
0.0
 11
1735.534
 21
1118.894
 31
0.0
  0
LINE
  5
2F7
  8
5
  6
CONTINUOUS
 10
1735.534
 20
1103.894
 30
0.0
 11
1765.025
 21
1103.894
 31
0.0
  0
LINE
  5
2F8
  8
5
  6
CONTINUOUS
 10
1769.693
 20
1088.894
 30
0.0
 11
1735.534
 21
1088.894
 31
0.0
  0
LINE
  5
2F9
  8
5
  6
CONTINUOUS
 10
222.1595
 20
1544.194
 30
0.0
 11
445.1669
 21
1544.194
 31
0.0
  0
LINE
  5
2FA
  8
5
  6
CONTINUOUS
 10
335.3228
 20
1544.194
 30
0.0
 11
335.3228
 21
1548.394
 31
0.0
  0
LINE
  5
2FB
  8
5
  6
CONTINUOUS
 10
360.2199
 20
1544.194
 30
0.0
 11
360.2199
 21
1548.394
 31
0.0
  0
LINE
  5
2FC
  8
5
  6
CONTINUOUS
 10
307.1563
 20
1544.194
 30
0.0
 11
307.1563
 21
1548.394
 31
0.0
  0
LINE
  5
2FD
  8
5
  6
CONTINUOUS
 10
333.2229
 20
1544.194
 30
0.0
 11
333.2229
 21
1548.394
 31
0.0
  0
LINE
  5
2FE
  8
5
  6
CONTINUOUS
 10
443.1595
 20
940.8938
 30
0.0
 11
443.1595
 21
938.3938
 31
0.0
  0
LINE
  5
2FF
  8
5
  6
CONTINUOUS
 10
227.1595
 20
938.3938
 30
0.0
 11
227.1595
 21
940.8938
 31
0.0
  0
LINE
  5
300
  8
5
  6
CONTINUOUS
 10
188.1483
 20
953.3938
 30
0.0
 11
195.5888
 21
966.2811
 31
0.0
  0
LINE
  5
301
  8
5
  6
CONTINUOUS
 10
153.8153
 20
1008.055
 30
0.0
 11
119.6595
 21
953.3938
 31
0.0
  0
LINE
  5
302
  8
5
  6
CONTINUOUS
 10
483.1706
 20
953.3938
 30
0.0
 11
475.364
 21
966.9151
 31
0.0
  0
LINE
  5
303
  8
5
  6
CONTINUOUS
 10
551.6595
 20
953.3938
 30
0.0
 11
517.119
 21
1008.67
 31
0.0
  0
LINE
  5
304
  8
5
  6
CONTINUOUS
 10
245.1595
 20
938.3938
 30
0.0
 11
227.1595
 21
938.3938
 31
0.0
  0
LINE
  5
305
  8
5
  6
CONTINUOUS
 10
425.1595
 20
938.3938
 30
0.0
 11
410.1595
 21
938.3938
 31
0.0
  0
LINE
  5
306
  8
5
  6
CONTINUOUS
 10
395.1595
 20
938.3938
 30
0.0
 11
380.1595
 21
938.3938
 31
0.0
  0
LINE
  5
307
  8
5
  6
CONTINUOUS
 10
365.1595
 20
938.3938
 30
0.0
 11
350.1595
 21
938.3938
 31
0.0
  0
LINE
  5
308
  8
5
  6
CONTINUOUS
 10
275.1595
 20
938.3938
 30
0.0
 11
260.1595
 21
938.3938
 31
0.0
  0
LINE
  5
309
  8
5
  6
CONTINUOUS
 10
305.1595
 20
938.3938
 30
0.0
 11
290.1595
 21
938.3938
 31
0.0
  0
LINE
  5
30A
  8
5
  6
CONTINUOUS
 10
335.1595
 20
938.3938
 30
0.0
 11
320.1595
 21
938.3938
 31
0.0
  0
LINE
  5
30B
  8
5
  6
CONTINUOUS
 10
260.1595
 20
938.3938
 30
0.0
 11
245.1595
 21
938.3938
 31
0.0
  0
LINE
  5
30C
  8
5
  6
CONTINUOUS
 10
443.1595
 20
938.3938
 30
0.0
 11
425.1595
 21
938.3938
 31
0.0
  0
LINE
  5
30D
  8
5
  6
CONTINUOUS
 10
410.1595
 20
938.3938
 30
0.0
 11
395.1595
 21
938.3938
 31
0.0
  0
LINE
  5
30E
  8
5
  6
CONTINUOUS
 10
380.1595
 20
938.3938
 30
0.0
 11
365.1595
 21
938.3938
 31
0.0
  0
LINE
  5
30F
  8
5
  6
CONTINUOUS
 10
350.1595
 20
938.3938
 30
0.0
 11
335.1595
 21
938.3938
 31
0.0
  0
LINE
  5
310
  8
5
  6
CONTINUOUS
 10
290.1595
 20
938.3938
 30
0.0
 11
275.1595
 21
938.3938
 31
0.0
  0
LINE
  5
311
  8
5
  6
CONTINUOUS
 10
320.1595
 20
938.3938
 30
0.0
 11
305.1595
 21
938.3938
 31
0.0
  0
LINE
  5
312
  8
5
  6
CONTINUOUS
 10
109.1595
 20
1056.294
 30
0.0
 11
109.1595
 21
1053.294
 31
0.0
  0
LINE
  5
313
  8
5
  6
CONTINUOUS
 10
203.1595
 20
928.3938
 30
0.0
 11
203.1595
 21
953.3938
 31
0.0
  0
LINE
  5
314
  8
5
  6
CONTINUOUS
 10
119.1595
 20
953.3938
 30
0.0
 11
119.1595
 21
928.3938
 31
0.0
  0
LINE
  5
315
  8
5
  6
CONTINUOUS
 10
203.1595
 20
953.3938
 30
0.0
 11
119.1595
 21
953.3938
 31
0.0
  0
LINE
  5
316
  8
5
  6
CONTINUOUS
 10
119.1595
 20
928.3938
 30
0.0
 11
203.1595
 21
928.3938
 31
0.0
  0
LINE
  5
317
  8
5
  6
CONTINUOUS
 10
468.1595
 20
928.3938
 30
0.0
 11
468.1595
 21
953.3938
 31
0.0
  0
LINE
  5
318
  8
5
  6
CONTINUOUS
 10
552.1595
 20
953.3938
 30
0.0
 11
552.1595
 21
928.3938
 31
0.0
  0
LINE
  5
319
  8
5
  6
CONTINUOUS
 10
468.1595
 20
953.3938
 30
0.0
 11
552.1595
 21
953.3938
 31
0.0
  0
LINE
  5
31A
  8
5
  6
CONTINUOUS
 10
552.1595
 20
928.3938
 30
0.0
 11
468.1595
 21
928.3938
 31
0.0
  0
LINE
  5
31B
  8
5
  6
CONTINUOUS
 10
203.1595
 20
936.3938
 30
0.0
 11
211.3279
 21
950.542
 31
0.0
  0
LINE
  5
31C
  8
5
  6
CONTINUOUS
 10
468.1595
 20
936.3938
 30
0.0
 11
459.625
 21
951.176
 31
0.0
  0
LINE
  5
31D
  8
5
  6
CONTINUOUS
 10
307.1563
 20
1548.394
 30
0.0
 11
307.1563
 21
1548.394
 31
0.0
  0
LINE
  5
31E
  8
5
  6
CONTINUOUS
 10
335.3228
 20
1548.394
 30
0.0
 11
335.3228
 21
1548.394
 31
0.0
  0
LINE
  5
31F
  8
5
  6
CONTINUOUS
 10
307.1563
 20
1548.394
 30
0.0
 11
307.1563
 21
1548.394
 31
0.0
  0
LINE
  5
320
  8
5
  6
CONTINUOUS
 10
335.3228
 20
1548.394
 30
0.0
 11
335.3228
 21
1548.394
 31
0.0
  0
LINE
  5
321
  8
5
  6
CONTINUOUS
 10
335.3228
 20
1548.394
 30
0.0
 11
337.8775
 21
1548.394
 31
0.0
  0
LINE
  5
322
  8
5
  6
CONTINUOUS
 10
337.8775
 20
1548.394
 30
0.0
 11
349.7807
 21
1548.394
 31
0.0
  0
LINE
  5
323
  8
5
  6
CONTINUOUS
 10
349.7807
 20
1548.394
 30
0.0
 11
360.2199
 21
1548.394
 31
0.0
  0
LINE
  5
324
  8
5
  6
CONTINUOUS
 10
307.1563
 20
1548.394
 30
0.0
 11
321.9852
 21
1548.394
 31
0.0
  0
LINE
  5
325
  8
5
  6
CONTINUOUS
 10
321.9852
 20
1548.394
 30
0.0
 11
333.2229
 21
1548.394
 31
0.0
  0
LINE
  5
326
  8
5
  6
CONTINUOUS
 10
494.6594
 20
1493.194
 30
0.0
 11
494.6594
 21
1470.194
 31
0.0
  0
LINE
  5
327
  8
5
  6
CONTINUOUS
 10
494.6594
 20
1493.194
 30
0.0
 11
445.1595
 21
1493.194
 31
0.0
  0
LINE
  5
328
  8
5
  6
CONTINUOUS
 10
445.1669
 20
1544.194
 30
0.0
 11
494.6594
 21
1493.194
 31
0.0
  0
LINE
  5
329
  8
5
  6
CONTINUOUS
 10
222.1594
 20
1493.194
 30
0.0
 11
172.6594
 21
1493.194
 31
0.0
  0
LINE
  5
32A
  8
5
  6
CONTINUOUS
 10
203.2307
 20
1524.694
 30
0.0
 11
222.1595
 21
1544.194
 31
0.0
  0
LINE
  5
32B
  8
5
  6
CONTINUOUS
 10
143.6594
 20
1524.694
 30
0.0
 11
206.7283
 21
1524.694
 31
0.0
  0
LINE
  5
32C
  8
5
  6
CONTINUOUS
 10
142.6594
 20
1473.194
 30
0.0
 11
172.6594
 21
1473.194
 31
0.0
  0
LINE
  5
32D
  8
5
  6
CONTINUOUS
 10
177.6594
 20
1448.194
 30
0.0
 11
177.6594
 21
1470.194
 31
0.0
  0
LINE
  5
32E
  8
5
  6
CONTINUOUS
 10
490.1594
 20
1470.194
 30
0.0
 11
490.1594
 21
1448.194
 31
0.0
  0
LINE
  5
32F
  8
5
  6
CONTINUOUS
 10
143.6594
 20
1473.194
 30
0.0
 11
143.6594
 21
1524.694
 31
0.0
  0
LINE
  5
330
  8
5
  6
CONTINUOUS
 10
172.6594
 20
1470.194
 30
0.0
 11
172.6594
 21
1493.194
 31
0.0
  0
LINE
  5
331
  8
5
  6
CONTINUOUS
 10
494.6594
 20
1470.194
 30
0.0
 11
172.6594
 21
1470.194
 31
0.0
  0
LINE
  5
332
  8
5
  6
CONTINUOUS
 10
1273.334
 20
261.0903
 30
0.0
 11
1273.334
 21
231.9501
 31
0.0
  0
LINE
  5
333
  8
5
  6
CONTINUOUS
 10
1273.334
 20
231.9501
 30
0.0
 11
1265.334
 21
225.4983
 31
0.0
  0
LINE
  5
334
  8
5
  6
CONTINUOUS
 10
1265.334
 20
225.4983
 30
0.0
 11
1245.334
 21
225.4983
 31
0.0
  0
LINE
  5
335
  8
5
  6
CONTINUOUS
 10
1245.334
 20
225.4983
 30
0.0
 11
1237.334
 21
231.9502
 31
0.0
  0
LINE
  5
336
  8
5
  6
CONTINUOUS
 10
1237.334
 20
231.9502
 30
0.0
 11
1237.334
 21
261.0903
 31
0.0
  0
LINE
  5
337
  8
5
  6
CONTINUOUS
 10
1204.65
 20
261.0903
 30
0.0
 11
1208.718
 21
214.1761
 31
0.0
  0
LINE
  5
338
  8
5
  6
CONTINUOUS
 10
1208.718
 20
214.1761
 30
0.0
 11
1225.834
 21
201.3037
 31
0.0
  0
LINE
  5
339
  8
5
  6
CONTINUOUS
 10
1225.834
 20
201.3037
 30
0.0
 11
1284.834
 21
201.3037
 31
0.0
  0
LINE
  5
33A
  8
5
  6
CONTINUOUS
 10
1284.834
 20
201.3037
 30
0.0
 11
1301.95
 21
214.1761
 31
0.0
  0
LINE
  5
33B
  8
5
  6
CONTINUOUS
 10
1306.018
 20
261.0903
 30
0.0
 11
1301.95
 21
214.1761
 31
0.0
  0
LINE
  5
33C
  8
5
  6
CONTINUOUS
 10
1301.95
 20
192.0983
 30
0.0
 11
1305.566
 21
219.5495
 31
0.0
  0
LINE
  5
33D
  8
5
  6
CONTINUOUS
 10
1301.95
 20
192.0983
 30
0.0
 11
1284.834
 21
183.6262
 31
0.0
  0
LINE
  5
33E
  8
5
  6
CONTINUOUS
 10
1284.834
 20
183.6262
 30
0.0
 11
1225.834
 21
183.6262
 31
0.0
  0
LINE
  5
33F
  8
5
  6
CONTINUOUS
 10
1225.834
 20
183.6262
 30
0.0
 11
1208.718
 21
192.0983
 31
0.0
  0
LINE
  5
340
  8
5
  6
CONTINUOUS
 10
1208.718
 20
192.0983
 30
0.0
 11
1205.101
 21
219.5495
 31
0.0
  0
LINE
  5
341
  8
5
  6
CONTINUOUS
 10
1301.95
 20
214.1761
 30
0.0
 11
1301.95
 21
192.0983
 31
0.0
  0
LINE
  5
342
  8
5
  6
CONTINUOUS
 10
1307.34
 20
255.4205
 30
0.0
 11
1305.566
 21
219.5495
 31
0.0
  0
LINE
  5
343
  8
5
  6
CONTINUOUS
 10
1205.101
 20
219.5495
 30
0.0
 11
1203.328
 21
255.4205
 31
0.0
  0
LINE
  5
344
  8
5
  6
CONTINUOUS
 10
1208.718
 20
192.0983
 30
0.0
 11
1208.718
 21
214.1761
 31
0.0
  0
LINE
  5
345
  8
5
  6
CONTINUOUS
 10
1273.334
 20
255.4205
 30
0.0
 11
1237.334
 21
255.4205
 31
0.0
  0
LINE
  5
346
  8
5
  6
CONTINUOUS
 10
1203.328
 20
255.4205
 30
0.0
 11
1171.334
 21
255.4205
 31
0.0
  0
LINE
  5
347
  8
5
  6
CONTINUOUS
 10
1321.334
 20
255.4205
 30
0.0
 11
1307.34
 21
255.4205
 31
0.0
  0
LINE
  5
348
  8
5
  6
CONTINUOUS
 10
1171.334
 20
532.5601
 30
0.0
 11
1321.334
 21
532.5601
 31
0.0
  0
LINE
  5
349
  8
5
  6
CONTINUOUS
 10
1225.834
 20
201.3037
 30
0.0
 11
1225.834
 21
183.6262
 31
0.0
  0
LINE
  5
34A
  8
5
  6
CONTINUOUS
 10
1284.834
 20
183.6262
 30
0.0
 11
1284.834
 21
201.3037
 31
0.0
  0
LINE
  5
34E
  8
5
  6
CONTINUOUS
 10
891.3338
 20
589.9904
 30
0.0
 11
891.3338
 21
553.4903
 31
0.0
  0
LINE
  5
351
  8
5
  6
CONTINUOUS
 10
1302.726
 20
197.9903
 30
0.0
 11
1321.334
 21
197.9902
 31
0.0
  0
LINE
  5
352
  8
5
  6
CONTINUOUS
 10
1321.334
 20
197.9902
 30
0.0
 11
1321.334
 21
255.4205
 31
0.0
  0
LINE
  5
353
  8
5
  6
CONTINUOUS
 10
1008.566
 20
568.4312
 30
0.0
 11
1009.305
 21
553.4903
 31
0.0
  0
LINE
  5
354
  8
5
  6
CONTINUOUS
 10
1321.334
 20
532.5601
 30
0.0
 11
1321.334
 21
589.9904
 31
0.0
  0
LINE
  5
355
  8
5
  6
CONTINUOUS
 10
1321.334
 20
589.9904
 30
0.0
 11
1005.726
 21
589.9903
 31
0.0
  0
LINE
  5
356
  8
5
  6
CONTINUOUS
 10
910.9414
 20
589.9903
 30
0.0
 11
891.3338
 21
589.9904
 31
0.0
  0
LINE
  5
357
  8
5
  6
CONTINUOUS
 10
907.3625
 20
553.4903
 30
0.0
 11
908.1013
 21
568.4312
 31
0.0
  0
LINE
  5
35E
  8
5
  6
CONTINUOUS
 10
1321.334
 20
279.2904
 30
0.0
 11
1196.334
 21
279.2904
 31
0.0
  0
LINE
  5
35F
  8
5
  6
CONTINUOUS
 10
1196.334
 20
279.2904
 30
0.0
 11
1196.334
 21
261.0903
 31
0.0
  0
LINE
  5
360
  8
5
  6
CONTINUOUS
 10
1321.334
 20
261.0903
 30
0.0
 11
1321.334
 21
279.2904
 31
0.0
  0
LINE
  5
361
  8
5
  6
CONTINUOUS
 10
1321.334
 20
508.6902
 30
0.0
 11
1196.334
 21
508.6902
 31
0.0
  0
LINE
  5
362
  8
5
  6
CONTINUOUS
 10
1196.334
 20
508.6902
 30
0.0
 11
1196.334
 21
490.4904
 31
0.0
  0
LINE
  5
363
  8
5
  6
CONTINUOUS
 10
1196.334
 20
490.4904
 30
0.0
 11
1321.334
 21
490.4904
 31
0.0
  0
LINE
  5
364
  8
5
  6
CONTINUOUS
 10
1321.334
 20
490.4904
 30
0.0
 11
1321.334
 21
508.6902
 31
0.0
  0
LINE
  5
365
  8
5
  6
CONTINUOUS
 10
1196.334
 20
458.4904
 30
0.0
 11
1321.334
 21
458.4904
 31
0.0
  0
LINE
  5
366
  8
5
  6
CONTINUOUS
 10
1321.334
 20
458.4904
 30
0.0
 11
1321.334
 21
473.4903
 31
0.0
  0
LINE
  5
367
  8
5
  6
CONTINUOUS
 10
1321.334
 20
473.4903
 30
0.0
 11
1196.334
 21
473.4903
 31
0.0
  0
LINE
  5
368
  8
5
  6
CONTINUOUS
 10
1196.334
 20
473.4903
 30
0.0
 11
1196.334
 21
458.4904
 31
0.0
  0
LINE
  5
369
  8
5
  6
CONTINUOUS
 10
1196.334
 20
428.4903
 30
0.0
 11
1321.334
 21
428.4903
 31
0.0
  0
LINE
  5
36A
  8
5
  6
CONTINUOUS
 10
1321.334
 20
428.4903
 30
0.0
 11
1321.334
 21
443.4904
 31
0.0
  0
LINE
  5
36B
  8
5
  6
CONTINUOUS
 10
1321.334
 20
443.4904
 30
0.0
 11
1196.334
 21
443.4904
 31
0.0
  0
LINE
  5
36C
  8
5
  6
CONTINUOUS
 10
1196.334
 20
443.4904
 30
0.0
 11
1196.334
 21
428.4903
 31
0.0
  0
LINE
  5
36D
  8
5
  6
CONTINUOUS
 10
1196.334
 20
393.9903
 30
0.0
 11
1321.334
 21
393.9903
 31
0.0
  0
LINE
  5
36E
  8
5
  6
CONTINUOUS
 10
1321.334
 20
393.9903
 30
0.0
 11
1321.334
 21
411.2403
 31
0.0
  0
LINE
  5
36F
  8
5
  6
CONTINUOUS
 10
1321.334
 20
411.2403
 30
0.0
 11
1196.334
 21
411.2403
 31
0.0
  0
LINE
  5
370
  8
5
  6
CONTINUOUS
 10
1196.334
 20
411.2403
 30
0.0
 11
1196.334
 21
393.9903
 31
0.0
  0
LINE
  5
371
  8
5
  6
CONTINUOUS
 10
1321.334
 20
376.7403
 30
0.0
 11
1196.334
 21
376.7403
 31
0.0
  0
LINE
  5
372
  8
5
  6
CONTINUOUS
 10
1196.334
 20
376.7403
 30
0.0
 11
1196.334
 21
359.4904
 31
0.0
  0
LINE
  5
373
  8
5
  6
CONTINUOUS
 10
1196.334
 20
359.4904
 30
0.0
 11
1321.334
 21
359.4904
 31
0.0
  0
LINE
  5
374
  8
5
  6
CONTINUOUS
 10
1321.334
 20
359.4904
 30
0.0
 11
1321.334
 21
376.7403
 31
0.0
  0
LINE
  5
375
  8
5
  6
CONTINUOUS
 10
1321.334
 20
344.4904
 30
0.0
 11
1196.334
 21
344.4904
 31
0.0
  0
LINE
  5
376
  8
5
  6
CONTINUOUS
 10
1196.334
 20
344.4904
 30
0.0
 11
1196.334
 21
329.4903
 31
0.0
  0
LINE
  5
377
  8
5
  6
CONTINUOUS
 10
1196.334
 20
329.4903
 30
0.0
 11
1321.334
 21
329.4903
 31
0.0
  0
LINE
  5
378
  8
5
  6
CONTINUOUS
 10
1321.334
 20
329.4903
 30
0.0
 11
1321.334
 21
344.4904
 31
0.0
  0
LINE
  5
379
  8
5
  6
CONTINUOUS
 10
1321.334
 20
314.4903
 30
0.0
 11
1196.334
 21
314.4903
 31
0.0
  0
LINE
  5
37A
  8
5
  6
CONTINUOUS
 10
1196.334
 20
314.4903
 30
0.0
 11
1196.334
 21
297.4902
 31
0.0
  0
LINE
  5
37B
  8
5
  6
CONTINUOUS
 10
1196.334
 20
297.4902
 30
0.0
 11
1321.334
 21
297.4902
 31
0.0
  0
LINE
  5
37C
  8
5
  6
CONTINUOUS
 10
1321.334
 20
297.4902
 30
0.0
 11
1321.334
 21
314.4903
 31
0.0
  0
LINE
  5
37D
  8
5
  6
CONTINUOUS
 10
1321.334
 20
279.2904
 30
0.0
 11
1321.334
 21
297.4902
 31
0.0
  0
LINE
  5
37E
  8
5
  6
CONTINUOUS
 10
1196.334
 20
297.4902
 30
0.0
 11
1196.334
 21
279.2904
 31
0.0
  0
LINE
  5
37F
  8
5
  6
CONTINUOUS
 10
1321.334
 20
508.6902
 30
0.0
 11
1321.334
 21
526.8903
 31
0.0
  0
LINE
  5
380
  8
5
  6
CONTINUOUS
 10
1196.334
 20
526.8903
 30
0.0
 11
1196.334
 21
508.6902
 31
0.0
  0
LINE
  5
381
  8
5
  6
CONTINUOUS
 10
1196.334
 20
490.4904
 30
0.0
 11
1196.334
 21
473.4903
 31
0.0
  0
LINE
  5
382
  8
5
  6
CONTINUOUS
 10
1321.334
 20
473.4903
 30
0.0
 11
1321.334
 21
490.4904
 31
0.0
  0
LINE
  5
383
  8
5
  6
CONTINUOUS
 10
1196.334
 20
458.4904
 30
0.0
 11
1196.334
 21
443.4904
 31
0.0
  0
LINE
  5
384
  8
5
  6
CONTINUOUS
 10
1321.334
 20
443.4904
 30
0.0
 11
1321.334
 21
458.4904
 31
0.0
  0
LINE
  5
385
  8
5
  6
CONTINUOUS
 10
1196.334
 20
428.4903
 30
0.0
 11
1196.334
 21
411.2403
 31
0.0
  0
LINE
  5
386
  8
5
  6
CONTINUOUS
 10
1321.334
 20
411.2403
 30
0.0
 11
1321.334
 21
428.4903
 31
0.0
  0
LINE
  5
387
  8
5
  6
CONTINUOUS
 10
1196.334
 20
393.9903
 30
0.0
 11
1196.334
 21
376.7403
 31
0.0
  0
LINE
  5
388
  8
5
  6
CONTINUOUS
 10
1321.334
 20
376.7403
 30
0.0
 11
1321.334
 21
393.9903
 31
0.0
  0
LINE
  5
389
  8
5
  6
CONTINUOUS
 10
1196.334
 20
359.4904
 30
0.0
 11
1196.334
 21
344.4904
 31
0.0
  0
LINE
  5
38A
  8
5
  6
CONTINUOUS
 10
1321.334
 20
344.4904
 30
0.0
 11
1321.334
 21
359.4904
 31
0.0
  0
LINE
  5
38B
  8
5
  6
CONTINUOUS
 10
1196.334
 20
329.4903
 30
0.0
 11
1196.334
 21
314.4903
 31
0.0
  0
LINE
  5
38C
  8
5
  6
CONTINUOUS
 10
1321.334
 20
314.4903
 30
0.0
 11
1321.334
 21
329.4903
 31
0.0
  0
LINE
  5
38D
  8
5
  6
CONTINUOUS
 10
1171.334
 20
297.4902
 30
0.0
 11
1196.334
 21
297.4902
 31
0.0
  0
LINE
  5
38E
  8
5
  6
CONTINUOUS
 10
1196.334
 20
314.4903
 30
0.0
 11
1171.334
 21
314.4903
 31
0.0
  0
LINE
  5
38F
  8
5
  6
CONTINUOUS
 10
1171.334
 20
329.4903
 30
0.0
 11
1196.334
 21
329.4903
 31
0.0
  0
LINE
  5
390
  8
5
  6
CONTINUOUS
 10
1196.334
 20
344.4904
 30
0.0
 11
1171.334
 21
344.4904
 31
0.0
  0
LINE
  5
391
  8
5
  6
CONTINUOUS
 10
1196.334
 20
443.4904
 30
0.0
 11
1171.334
 21
443.4904
 31
0.0
  0
LINE
  5
392
  8
5
  6
CONTINUOUS
 10
1171.334
 20
428.4903
 30
0.0
 11
1196.334
 21
428.4903
 31
0.0
  0
LINE
  5
393
  8
5
  6
CONTINUOUS
 10
1196.334
 20
473.4903
 30
0.0
 11
1171.334
 21
473.4903
 31
0.0
  0
LINE
  5
394
  8
5
  6
CONTINUOUS
 10
1171.334
 20
458.4904
 30
0.0
 11
1196.334
 21
458.4904
 31
0.0
  0
LINE
  5
395
  8
5
  6
CONTINUOUS
 10
1196.334
 20
508.6902
 30
0.0
 11
1171.334
 21
508.6902
 31
0.0
  0
LINE
  5
396
  8
5
  6
CONTINUOUS
 10
1171.334
 20
490.4904
 30
0.0
 11
1196.334
 21
490.4904
 31
0.0
  0
LINE
  5
397
  8
5
  6
CONTINUOUS
 10
1196.334
 20
279.2904
 30
0.0
 11
1171.334
 21
279.2904
 31
0.0
  0
LINE
  5
398
  8
5
  6
CONTINUOUS
 10
1196.334
 20
359.4904
 30
0.0
 11
1171.334
 21
359.4904
 31
0.0
  0
LINE
  5
399
  8
5
  6
CONTINUOUS
 10
1196.334
 20
376.7403
 30
0.0
 11
1171.567
 21
376.7403
 31
0.0
  0
LINE
  5
39A
  8
5
  6
CONTINUOUS
 10
1172.375
 20
393.9903
 30
0.0
 11
1196.334
 21
393.9903
 31
0.0
  0
LINE
  5
39B
  8
5
  6
CONTINUOUS
 10
1196.334
 20
411.2403
 30
0.0
 11
1171.567
 21
411.2403
 31
0.0
  0
LINE
  5
39C
  8
5
  6
CONTINUOUS
 10
1323.665
 20
508.6903
 30
0.0
 11
1321.334
 21
508.6902
 31
0.0
  0
LINE
  5
39D
  8
5
  6
CONTINUOUS
 10
1321.334
 20
490.4904
 30
0.0
 11
1325.997
 21
490.4903
 31
0.0
  0
LINE
  5
39E
  8
5
  6
CONTINUOUS
 10
1323.665
 20
279.2904
 30
0.0
 11
1321.334
 21
279.2904
 31
0.0
  0
LINE
  5
39F
  8
5
  6
CONTINUOUS
 10
1325.997
 20
297.4902
 30
0.0
 11
1321.334
 21
297.4902
 31
0.0
  0
LINE
  5
3A0
  8
5
  6
CONTINUOUS
 10
1326.488
 20
314.4903
 30
0.0
 11
1321.334
 21
314.4903
 31
0.0
  0
LINE
  5
3A1
  8
5
  6
CONTINUOUS
 10
1325.112
 20
344.4904
 30
0.0
 11
1321.334
 21
344.4904
 31
0.0
  0
LINE
  5
3A2
  8
5
  6
CONTINUOUS
 10
1321.334
 20
329.4903
 30
0.0
 11
1325.71
 21
329.4903
 31
0.0
  0
LINE
  5
3A3
  8
5
  6
CONTINUOUS
 10
1324.38
 20
376.7403
 30
0.0
 11
1321.334
 21
376.7403
 31
0.0
  0
LINE
  5
3A4
  8
5
  6
CONTINUOUS
 10
1321.334
 20
359.4904
 30
0.0
 11
1324.681
 21
359.4904
 31
0.0
  0
LINE
  5
3A5
  8
5
  6
CONTINUOUS
 10
1324.38
 20
411.2403
 30
0.0
 11
1321.334
 21
411.2403
 31
0.0
  0
LINE
  5
3A6
  8
5
  6
CONTINUOUS
 10
1321.334
 20
393.9903
 30
0.0
 11
1324.28
 21
393.9903
 31
0.0
  0
LINE
  5
3A7
  8
5
  6
CONTINUOUS
 10
1325.112
 20
443.4904
 30
0.0
 11
1321.334
 21
443.4904
 31
0.0
  0
LINE
  5
3A8
  8
5
  6
CONTINUOUS
 10
1321.334
 20
428.4903
 30
0.0
 11
1324.681
 21
428.4903
 31
0.0
  0
LINE
  5
3A9
  8
5
  6
CONTINUOUS
 10
1326.488
 20
473.4903
 30
0.0
 11
1321.334
 21
473.4903
 31
0.0
  0
LINE
  5
3AA
  8
5
  6
CONTINUOUS
 10
1321.334
 20
458.4904
 30
0.0
 11
1325.71
 21
458.4904
 31
0.0
  0
LINE
  5
3AB
  8
5
  6
CONTINUOUS
 10
987.8337
 20
604.3547
 30
0.0
 11
1004.95
 21
595.8823
 31
0.0
  0
LINE
  5
3AC
  8
5
  6
CONTINUOUS
 10
987.8337
 20
586.6769
 30
0.0
 11
987.8337
 21
604.3547
 31
0.0
  0
LINE
  5
3AD
  8
5
  6
CONTINUOUS
 10
1004.95
 20
573.8045
 30
0.0
 11
987.8337
 21
586.6769
 31
0.0
  0
LINE
  5
3AE
  8
5
  6
CONTINUOUS
 10
1004.95
 20
595.8823
 30
0.0
 11
1004.95
 21
573.8045
 31
0.0
  0
LINE
  5
3AF
  8
5
  6
CONTINUOUS
 10
928.8339
 20
586.6769
 30
0.0
 11
911.7176
 21
573.8045
 31
0.0
  0
LINE
  5
3B0
  8
5
  6
CONTINUOUS
 10
928.8339
 20
604.3547
 30
0.0
 11
928.8339
 21
586.6769
 31
0.0
  0
LINE
  5
3B1
  8
5
  6
CONTINUOUS
 10
911.7176
 20
595.8823
 30
0.0
 11
928.8339
 21
604.3547
 31
0.0
  0
LINE
  5
3B2
  8
5
  6
CONTINUOUS
 10
911.7176
 20
573.8045
 30
0.0
 11
911.7176
 21
595.8823
 31
0.0
  0
LINE
  5
3B3
  8
5
  6
CONTINUOUS
 10
968.3336
 20
562.4823
 30
0.0
 11
976.3338
 21
556.0305
 31
0.0
  0
LINE
  5
3B4
  8
5
  6
CONTINUOUS
 10
940.3337
 20
556.0305
 30
0.0
 11
948.3337
 21
562.4823
 31
0.0
  0
LINE
  5
3B5
  8
5
  6
CONTINUOUS
 10
948.3337
 20
562.4823
 30
0.0
 11
968.3336
 21
562.4823
 31
0.0
  0
LINE
  5
3B6
  8
5
  6
CONTINUOUS
 10
928.8339
 20
604.3547
 30
0.0
 11
987.8337
 21
604.3547
 31
0.0
  0
LINE
  5
3B7
  8
5
  6
CONTINUOUS
 10
987.8337
 20
586.6769
 30
0.0
 11
928.8339
 21
586.6769
 31
0.0
  0
LINE
  5
3B8
  8
5
  6
CONTINUOUS
 10
1004.95
 20
595.8823
 30
0.0
 11
1008.566
 21
568.4312
 31
0.0
  0
LINE
  5
3B9
  8
5
  6
CONTINUOUS
 10
1006.711
 20
553.4903
 30
0.0
 11
1004.95
 21
573.8045
 31
0.0
  0
LINE
  5
3BA
  8
5
  6
CONTINUOUS
 10
909.9563
 20
553.4903
 30
0.0
 11
911.7176
 21
573.8045
 31
0.0
  0
LINE
  5
3BB
  8
5
  6
CONTINUOUS
 10
911.7176
 20
595.8823
 30
0.0
 11
908.1013
 21
568.4312
 31
0.0
  0
LINE
  5
3BC
  8
5
  6
CONTINUOUS
 10
940.3337
 20
553.4903
 30
0.0
 11
940.3337
 21
556.0305
 31
0.0
  0
LINE
  5
3BD
  8
5
  6
CONTINUOUS
 10
976.3338
 20
556.0305
 30
0.0
 11
976.3338
 21
553.4903
 31
0.0
  0
LINE
  5
3BE
  8
5
  6
CONTINUOUS
 10
1383.834
 20
506.931
 30
0.0
 11
1455.334
 21
506.9311
 31
0.0
  0
LINE
  5
3BF
  8
5
  6
CONTINUOUS
 10
1383.834
 20
281.0496
 30
0.0
 11
1455.334
 21
281.0497
 31
0.0
  0
LINE
  5
3C0
  8
5
  6
CONTINUOUS
 10
1383.834
 20
279.807
 30
0.0
 11
1334.334
 21
279.807
 31
0.0
  0
LINE
  5
3C1
  8
5
  6
CONTINUOUS
 10
1383.834
 20
508.1737
 30
0.0
 11
1334.334
 21
508.1737
 31
0.0
  0
LINE
  5
3C2
  8
5
  6
CONTINUOUS
 10
1513.334
 20
533.9903
 30
0.0
 11
1513.334
 21
253.9903
 31
0.0
  0
LINE
  5
3C3
  8
5
  6
CONTINUOUS
 10
1522.334
 20
533.9903
 30
0.0
 11
1513.334
 21
533.9903
 31
0.0
  0
LINE
  5
3C4
  8
5
  6
CONTINUOUS
 10
1513.334
 20
253.9904
 30
0.0
 11
1522.334
 21
253.9904
 31
0.0
  0
LINE
  5
3C5
  8
5
  6
CONTINUOUS
 10
1513.334
 20
533.9903
 30
0.0
 11
1455.334
 21
594.4903
 31
0.0
  0
LINE
  5
3C6
  8
5
  6
CONTINUOUS
 10
1455.334
 20
193.4904
 30
0.0
 11
1513.334
 21
253.9903
 31
0.0
  0
LINE
  5
3C7
  8
5
  6
CONTINUOUS
 10
228.6596
 20
1399.694
 30
0.0
 11
228.6595
 21
1368.394
 31
0.0
  0
LINE
  5
3C8
  8
6
  6
CENTER
 10
338.1595
 20
1153.394
 30
0.0
 11
332.1595
 21
1153.394
 31
0.0
  0
LINE
  5
3C9
  8
6
  6
CENTER
 10
335.1595
 20
1156.394
 30
0.0
 11
335.1595
 21
1150.394
 31
0.0
  0
LINE
  5
3CA
  8
6
  6
CENTER
 10
338.1595
 20
1153.394
 30
0.0
 11
332.1595
 21
1153.394
 31
0.0
  0
LINE
  5
3CB
  8
6
  6
CENTER
 10
335.1595
 20
1156.394
 30
0.0
 11
335.1595
 21
1150.394
 31
0.0
  0
LINE
  5
3CC
  8
6
  6
CENTER
 10
339.6595
 20
1153.394
 30
0.0
 11
538.6595
 21
1153.394
 31
0.0
  0
LINE
  5
3CD
  8
6
  6
CENTER
 10
335.1595
 20
1157.894
 30
0.0
 11
335.1595
 21
1356.894
 31
0.0
  0
LINE
  5
3CE
  8
6
  6
CENTER
 10
330.6595
 20
1153.394
 30
0.0
 11
131.6595
 21
1153.394
 31
0.0
  0
LINE
  5
3CF
  8
6
  6
CENTER
 10
335.1595
 20
1148.894
 30
0.0
 11
335.1595
 21
949.8938
 31
0.0
  0
LINE
  5
3D0
  8
5
  6
CONTINUOUS
 10
441.6595
 20
1368.394
 30
0.0
 11
441.6595
 21
1399.694
 31
0.0
  0
LINE
  5
3D1
  8
5
  6
CONTINUOUS
 10
187.1595
 20
1423.694
 30
0.0
 11
483.1594
 21
1423.694
 31
0.0
  0
LINE
  5
3D2
  8
5
  6
CONTINUOUS
 10
337.8776
 20
1544.194
 30
0.0
 11
337.8775
 21
1548.394
 31
0.0
  0
LINE
  5
3D3
  8
5
  6
CONTINUOUS
 10
349.7807
 20
1544.194
 30
0.0
 11
349.7807
 21
1548.394
 31
0.0
  0
LINE
  5
3D4
  8
5
  6
CONTINUOUS
 10
321.9852
 20
1544.194
 30
0.0
 11
321.9852
 21
1548.394
 31
0.0
  0
LINE
  5
3D5
  8
5
  6
CONTINUOUS
 10
445.1595
 20
1493.194
 30
0.0
 11
222.1595
 21
1493.194
 31
0.0
  0
LINE
  5
3D6
  8
5
  6
CONTINUOUS
 10
445.1595
 20
1493.194
 30
0.0
 11
445.1669
 21
1544.194
 31
0.0
  0
LINE
  5
3D7
  8
5
  6
CONTINUOUS
 10
222.1595
 20
1544.194
 30
0.0
 11
222.1595
 21
1493.194
 31
0.0
  0
LINE
  5
3D8
  8
5
  6
CONTINUOUS
 10
206.7283
 20
1524.694
 30
0.0
 11
176.1594
 21
1493.194
 31
0.0
  0
LINE
  5
3D9
  8
5
  6
CONTINUOUS
 10
1045.858
 20
1458.058718
 30
0.0
 11
1045.857
 21
1477.608718
 31
0.0
  0
LINE
  5
3DA
  8
5
  6
CONTINUOUS
 10
1035.524
 20
1458.058718
 30
0.0
 11
1045.858
 21
1458.058718
 31
0.0
  0
LINE
  5
3DB
  8
5
  6
CONTINUOUS
 10
1035.523
 20
1477.607718
 30
0.0
 11
1035.524
 21
1458.058718
 31
0.0
  0
LINE
  5
3DC
  8
5
  6
CONTINUOUS
 10
1035.523
 20
1477.607718
 30
0.0
 11
1045.857
 21
1477.608718
 31
0.0
  0
LINE
  5
3DD
  8
5
  6
CONTINUOUS
 10
1058.365
 20
1477.608718
 30
0.0
 11
1047.432
 21
1477.608718
 31
0.0
  0
ARC
  5
3DE
  8
5
  6
CONTINUOUS
 10
1049.545
 20
1468.575718
 30
0.0
 40
12.62499
 50
2.745839
 51
45.68309
  0
ARC
  5
3DF
  8
5
  6
CONTINUOUS
 10
1051.034
 20
1469.180718
 30
0.0
 40
11.12137
 50
270.0019
 51
0.0019
  0
LINE
  5
3E0
  8
5
  6
CONTINUOUS
 10
1047.433
 20
1458.058718
 30
0.0
 11
1051.034
 21
1458.058718
 31
0.0
  0
LINE
  5
3E1
  8
5
  6
CONTINUOUS
 10
1047.432
 20
1477.608718
 30
0.0
 11
1047.433
 21
1458.058718
 31
0.0
  0
LINE
  5
3E2
  8
5
  6
CONTINUOUS
 10
1047.431
 20
1497.856718
 30
0.0
 11
1047.432
 21
1479.183718
 31
0.0
  0
LINE
  5
3E3
  8
5
  6
CONTINUOUS
 10
1051.033
 20
1497.856718
 30
0.0
 11
1047.431
 21
1497.856718
 31
0.0
  0
ARC
  5
3E4
  8
5
  6
CONTINUOUS
 10
1051.033
 20
1490.026718
 30
0.0
 40
7.829616
 50
0.001947
 51
90.00195
  0
ARC
  5
3E5
  8
5
  6
CONTINUOUS
 10
1048.76
 20
1490.963718
 30
0.0
 40
10.14607
 50
283.5581
 51
354.7072
  0
ARC
  5
3E6
  8
5
  6
CONTINUOUS
 10
1049.545
 20
1468.575718
 30
0.0
 40
12.62499
 50
57.16491
 51
82.74766
  0
LINE
  5
3E7
  8
5
  6
CONTINUOUS
 10
1047.432
 20
1479.183718
 30
0.0
 11
1056.39
 21
1479.183718
 31
0.0
  0
LINE
  5
3E8
  8
5
  6
CONTINUOUS
 10
1035.522
 20
1497.855718
 30
0.0
 11
1035.523
 21
1479.182718
 31
0.0
  0
LINE
  5
3E9
  8
5
  6
CONTINUOUS
 10
1045.856
 20
1497.856718
 30
0.0
 11
1035.522
 21
1497.855718
 31
0.0
  0
LINE
  5
3EA
  8
5
  6
CONTINUOUS
 10
1045.857
 20
1479.183718
 30
0.0
 11
1045.856
 21
1497.856718
 31
0.0
  0
LINE
  5
3EB
  8
5
  6
CONTINUOUS
 10
1035.523
 20
1479.182718
 30
0.0
 11
1045.857
 21
1479.183718
 31
0.0
  0
LINE
  5
3EC
  8
5
  6
CONTINUOUS
 10
1013.197
 20
1497.855718
 30
0.0
 11
1013.198
 21
1479.182718
 31
0.0
  0
LINE
  5
3ED
  8
5
  6
CONTINUOUS
 10
1016.799
 20
1497.855718
 30
0.0
 11
1013.197
 21
1497.855718
 31
0.0
  0
ARC
  5
3EE
  8
5
  6
CONTINUOUS
 10
1016.799
 20
1490.025718
 30
0.0
 40
7.829616
 50
0.001947
 51
90.00195
  0
ARC
  5
3EF
  8
5
  6
CONTINUOUS
 10
1014.526
 20
1490.961718
 30
0.0
 40
10.14607
 50
283.5581
 51
354.7072
  0
ARC
  5
3F0
  8
5
  6
CONTINUOUS
 10
1015.31
 20
1468.574718
 30
0.0
 40
12.62499
 50
57.16493
 51
82.74766
  0
LINE
  5
3F1
  8
5
  6
CONTINUOUS
 10
1013.198
 20
1479.182718
 30
0.0
 11
1022.156
 21
1479.182718
 31
0.0
  0
ARC
  5
3F2
  8
5
  6
CONTINUOUS
 10
1015.31
 20
1468.574718
 30
0.0
 40
12.62499
 50
2.745839
 51
45.68318
  0
ARC
  5
3F3
  8
5
  6
CONTINUOUS
 10
1016.8
 20
1469.178718
 30
0.0
 40
11.12137
 50
270.0019
 51
0.0019
  0
LINE
  5
3F4
  8
5
  6
CONTINUOUS
 10
1013.198
 20
1458.057718
 30
0.0
 11
1016.8
 21
1458.057718
 31
0.0
  0
LINE
  5
3F5
  8
5
  6
CONTINUOUS
 10
1013.198
 20
1477.607718
 30
0.0
 11
1013.198
 21
1458.057718
 31
0.0
  0
LINE
  5
3F6
  8
5
  6
CONTINUOUS
 10
1024.131
 20
1477.607718
 30
0.0
 11
1013.198
 21
1477.607718
 31
0.0
  0
LINE
  5
3F7
  8
5
  6
CONTINUOUS
 10
1011.624
 20
1458.057718
 30
0.0
 11
1011.623
 21
1477.607718
 31
0.0
  0
LINE
  5
3F8
  8
5
  6
CONTINUOUS
 10
1001.29
 20
1458.057718
 30
0.0
 11
1011.624
 21
1458.057718
 31
0.0
  0
LINE
  5
3F9
  8
5
  6
CONTINUOUS
 10
1001.289
 20
1477.606718
 30
0.0
 11
1001.29
 21
1458.057718
 31
0.0
  0
LINE
  5
3FA
  8
5
  6
CONTINUOUS
 10
1011.623
 20
1477.607718
 30
0.0
 11
1001.289
 21
1477.606718
 31
0.0
  0
LINE
  5
3FB
  8
5
  6
CONTINUOUS
 10
1011.623
 20
1479.182718
 30
0.0
 11
1011.622
 21
1497.855718
 31
0.0
  0
LINE
  5
3FC
  8
5
  6
CONTINUOUS
 10
1001.289
 20
1479.181718
 30
0.0
 11
1011.623
 21
1479.182718
 31
0.0
  0
LINE
  5
3FD
  8
5
  6
CONTINUOUS
 10
1001.288
 20
1497.854718
 30
0.0
 11
1001.289
 21
1479.181718
 31
0.0
  0
LINE
  5
3FE
  8
5
  6
CONTINUOUS
 10
1011.622
 20
1497.855718
 30
0.0
 11
1001.288
 21
1497.854718
 31
0.0
  0
LINE
  5
3FF
  8
5
  6
CONTINUOUS
 10
993.5738
 20
1458.056718
 30
0.0
 11
986.595
 21
1477.606718
 31
0.0
  0
LINE
  5
400
  8
5
  6
CONTINUOUS
 10
986.4486
 20
1458.056718
 30
0.0
 11
993.5738
 21
1458.056718
 31
0.0
  0
LINE
  5
401
  8
5
  6
CONTINUOUS
 10
983.5685
 20
1466.124718
 30
0.0
 11
986.4486
 21
1458.056718
 31
0.0
  0
LINE
  5
402
  8
5
  6
CONTINUOUS
 10
975.0234
 20
1466.124718
 30
0.0
 11
983.5685
 21
1466.124718
 31
0.0
  0
LINE
  5
403
  8
5
  6
CONTINUOUS
 10
975.0231
 20
1477.605718
 30
0.0
 11
975.0234
 21
1466.124718
 31
0.0
  0
LINE
  5
404
  8
5
  6
CONTINUOUS
 10
986.595
 20
1477.606718
 30
0.0
 11
975.0231
 21
1477.605718
 31
0.0
  0
LINE
  5
405
  8
5
  6
CONTINUOUS
 10
975.0223
 20
1497.853718
 30
0.0
 11
975.0229
 21
1479.180718
 31
0.0
  0
LINE
  5
406
  8
5
  6
CONTINUOUS
 10
979.367
 20
1497.854718
 30
0.0
 11
975.0223
 21
1497.853718
 31
0.0
  0
LINE
  5
407
  8
5
  6
CONTINUOUS
 10
986.0328
 20
1479.181718
 30
0.0
 11
979.367
 21
1497.854718
 31
0.0
  0
LINE
  5
408
  8
5
  6
CONTINUOUS
 10
975.0229
 20
1479.180718
 30
0.0
 11
986.0328
 21
1479.181718
 31
0.0
  0
LINE
  5
409
  8
5
  6
CONTINUOUS
 10
964.8654
 20
1466.123718
 30
0.0
 11
973.4483
 21
1466.124718
 31
0.0
  0
LINE
  5
40A
  8
5
  6
CONTINUOUS
 10
962.0977
 20
1458.055718
 30
0.0
 11
964.8654
 21
1466.123718
 31
0.0
  0
LINE
  5
40B
  8
5
  6
CONTINUOUS
 10
955.4505
 20
1458.055718
 30
0.0
 11
962.0977
 21
1458.055718
 31
0.0
  0
LINE
  5
40C
  8
5
  6
CONTINUOUS
 10
962.1569
 20
1477.605718
 30
0.0
 11
955.4505
 21
1458.055718
 31
0.0
  0
LINE
  5
40D
  8
5
  6
CONTINUOUS
 10
973.448
 20
1477.605718
 30
0.0
 11
962.1569
 21
1477.605718
 31
0.0
  0
LINE
  5
40E
  8
5
  6
CONTINUOUS
 10
973.4483
 20
1466.124718
 30
0.0
 11
973.448
 21
1477.605718
 31
0.0
  0
LINE
  5
40F
  8
5
  6
CONTINUOUS
 10
973.4473
 20
1497.853718
 30
0.0
 11
969.1027
 21
1497.853718
 31
0.0
  0
LINE
  5
410
  8
5
  6
CONTINUOUS
 10
973.448
 20
1479.180718
 30
0.0
 11
973.4473
 21
1497.853718
 31
0.0
  0
LINE
  5
411
  8
5
  6
CONTINUOUS
 10
962.6972
 20
1479.180718
 30
0.0
 11
973.448
 21
1479.180718
 31
0.0
  0
LINE
  5
412
  8
5
  6
CONTINUOUS
 10
969.1027
 20
1497.853718
 30
0.0
 11
962.6972
 21
1479.180718
 31
0.0
  0
LINE
  5
413
  8
5
  6
CONTINUOUS
 10
890.1228
 20
1365.394
 30
0.0
 11
890.1228
 21
1399.694
 31
0.0
  0
LINE
  5
414
  8
5
  6
CONTINUOUS
 10
1133.123
 20
1399.694
 30
0.0
 11
1133.123
 21
1365.394
 31
0.0
  0
LINE
  5
415
  8
5
  6
CONTINUOUS
 10
1135.623
 20
1399.694
 30
0.0
 11
887.6228
 21
1399.694
 31
0.0
  0
LINE
  5
416
  8
5
  6
CONTINUOUS
 10
897.6228
 20
1425.194
 30
0.0
 11
1125.623
 21
1425.194
 31
0.0
  0
LINE
  5
417
  8
5
  6
CONTINUOUS
 10
897.6228
 20
1448.194
 30
0.0
 11
856.6228
 21
1448.194
 31
0.0
  0
LINE
  5
418
  8
5
  6
CONTINUOUS
 10
1166.623
 20
1448.194
 30
0.0
 11
1125.623
 21
1448.194
 31
0.0
  0
LINE
  5
419
  8
5
  6
CONTINUOUS
 10
863.6228
 20
1423.694
 30
0.0
 11
887.6228
 21
1399.694
 31
0.0
  0
LINE
  5
41A
  8
5
  6
CONTINUOUS
 10
1159.623
 20
1423.694
 30
0.0
 11
1135.623
 21
1399.694
 31
0.0
  0
LINE
  5
41B
  8
5
  6
CONTINUOUS
 10
1159.623
 20
1423.694
 30
0.0
 11
1159.623
 21
1448.194
 31
0.0
  0
LINE
  5
41C
  8
5
  6
CONTINUOUS
 10
863.6228
 20
1423.694
 30
0.0
 11
863.6228
 21
1448.194
 31
0.0
  0
LINE
  5
41D
  8
5
  6
CONTINUOUS
 10
901.6227
 20
1544.194
 30
0.0
 11
1121.623
 21
1544.194
 31
0.0
  0
LINE
  5
41E
  8
5
  6
CONTINUOUS
 10
970.6171
 20
1548.394
 30
0.0
 11
970.6171
 21
1544.194
 31
0.0
  0
LINE
  5
41F
  8
5
  6
CONTINUOUS
 10
972.7171
 20
1544.194
 30
0.0
 11
972.7171
 21
1548.394
 31
0.0
  0
LINE
  5
420
  8
5
  6
CONTINUOUS
 10
1007.739
 20
1544.194
 30
0.0
 11
1007.739
 21
1548.394
 31
0.0
  0
LINE
  5
421
  8
5
  6
CONTINUOUS
 10
1021.517
 20
1544.194
 30
0.0
 11
1021.517
 21
1548.394
 31
0.0
  0
LINE
  5
422
  8
5
  6
CONTINUOUS
 10
1023.617
 20
1544.194
 30
0.0
 11
1023.617
 21
1548.394
 31
0.0
  0
LINE
  5
423
  8
5
  6
CONTINUOUS
 10
1069.263
 20
1544.194
 30
0.0
 11
1069.263
 21
1548.394
 31
0.0
  0
LINE
  5
424
  8
5
  6
CONTINUOUS
 10
1053.384
 20
1544.194
 30
0.0
 11
1053.384
 21
1548.394
 31
0.0
  0
LINE
  5
425
  8
5
  6
CONTINUOUS
 10
1067.163
 20
1544.194
 30
0.0
 11
1067.163
 21
1548.394
 31
0.0
  0
LINE
  5
426
  8
5
  6
CONTINUOUS
 10
946.6199
 20
1548.394
 30
0.0
 11
955.4828
 21
1548.394
 31
0.0
  0
LINE
  5
427
  8
5
  6
CONTINUOUS
 10
955.4828
 20
1548.394
 30
0.0
 11
959.173
 21
1548.394
 31
0.0
  0
LINE
  5
428
  8
5
  6
CONTINUOUS
 10
959.173
 20
1548.394
 30
0.0
 11
970.6171
 21
1548.394
 31
0.0
  0
LINE
  5
429
  8
5
  6
CONTINUOUS
 10
972.7171
 20
1548.394
 30
0.0
 11
984.1105
 21
1548.394
 31
0.0
  0
LINE
  5
42A
  8
5
  6
CONTINUOUS
 10
984.1105
 20
1548.394
 30
0.0
 11
987.9507
 21
1548.394
 31
0.0
  0
LINE
  5
42B
  8
5
  6
CONTINUOUS
 10
987.9507
 20
1548.394
 30
0.0
 11
997.451
 21
1548.394
 31
0.0
  0
LINE
  5
42C
  8
5
  6
CONTINUOUS
 10
1007.739
 20
1548.394
 30
0.0
 11
1021.517
 21
1548.394
 31
0.0
  0
LINE
  5
42D
  8
5
  6
CONTINUOUS
 10
1023.617
 20
1548.394
 30
0.0
 11
1028.419
 21
1548.394
 31
0.0
  0
LINE
  5
42E
  8
5
  6
CONTINUOUS
 10
1028.419
 20
1548.394
 30
0.0
 11
1043.247
 21
1548.394
 31
0.0
  0
LINE
  5
42F
  8
5
  6
CONTINUOUS
 10
1069.263
 20
1548.394
 30
0.0
 11
1074.065
 21
1548.394
 31
0.0
  0
LINE
  5
430
  8
5
  6
CONTINUOUS
 10
1074.065
 20
1548.394
 30
0.0
 11
1088.893
 21
1548.394
 31
0.0
  0
LINE
  5
431
  8
5
  6
CONTINUOUS
 10
1053.384
 20
1548.394
 30
0.0
 11
1067.163
 21
1548.394
 31
0.0
  0
LINE
  5
432
  8
5
  6
CONTINUOUS
 10
1171.123
 20
1470.194
 30
0.0
 11
1171.123
 21
1493.194
 31
0.0
  0
LINE
  5
433
  8
5
  6
CONTINUOUS
 10
852.1228
 20
1493.194
 30
0.0
 11
852.1228
 21
1470.194
 31
0.0
  0
LINE
  5
434
  8
5
  6
CONTINUOUS
 10
1121.623
 20
1544.194
 30
0.0
 11
1171.123
 21
1493.194
 31
0.0
  0
LINE
  5
435
  8
5
  6
CONTINUOUS
 10
852.1228
 20
1493.194
 30
0.0
 11
901.6227
 21
1544.194
 31
0.0
  0
LINE
  5
436
  8
5
  6
CONTINUOUS
 10
1171.123
 20
1493.194
 30
0.0
 11
1125.123
 21
1493.194
 31
0.0
  0
LINE
  5
437
  8
5
  6
CONTINUOUS
 10
898.1228
 20
1493.194
 30
0.0
 11
852.1228
 21
1493.194
 31
0.0
  0
LINE
  5
438
  8
5
  6
CONTINUOUS
 10
898.1228
 20
1524.694
 30
0.0
 11
1125.123
 21
1524.694
 31
0.0
  0
LINE
  5
43A
  8
5
  6
CONTINUOUS
 10
897.6228
 20
1473.194
 30
0.0
 11
897.6228
 21
1425.194
 31
0.0
  0
LINE
  5
43B
  8
5
  6
CONTINUOUS
 10
1125.623
 20
1425.194
 30
0.0
 11
1125.623
 21
1473.194
 31
0.0
  0
LINE
  5
43C
  8
5
  6
CONTINUOUS
 10
1166.623
 20
1448.194
 30
0.0
 11
1166.623
 21
1470.194
 31
0.0
  0
LINE
  5
43D
  8
5
  6
CONTINUOUS
 10
856.6228
 20
1448.194
 30
0.0
 11
856.6228
 21
1470.194
 31
0.0
  0
LINE
  5
43E
  8
5
  6
CONTINUOUS
 10
898.1228
 20
1524.694
 30
0.0
 11
898.1228
 21
1473.194
 31
0.0
  0
LINE
  5
43F
  8
5
  6
CONTINUOUS
 10
1125.123
 20
1473.194
 30
0.0
 11
1125.123
 21
1524.694
 31
0.0
  0
LINE
  5
440
  8
5
  6
CONTINUOUS
 10
852.1228
 20
1470.194
 30
0.0
 11
897.6228
 21
1470.194
 31
0.0
  0
LINE
  5
441
  8
5
  6
CONTINUOUS
 10
1125.623
 20
1470.194
 30
0.0
 11
1171.123
 21
1470.194
 31
0.0
  0
LINE
  5
442
  8
5
  6
CONTINUOUS
 10
440.5666
 20
1170.647
 30
0.0
 11
440.5658
 21
1190.197
 31
0.0
  0
LINE
  5
443
  8
5
  6
CONTINUOUS
 10
430.2326
 20
1170.646
 30
0.0
 11
440.5666
 21
1170.647
 31
0.0
  0
LINE
  5
444
  8
5
  6
CONTINUOUS
 10
430.232
 20
1190.196
 30
0.0
 11
430.2326
 21
1170.646
 31
0.0
  0
LINE
  5
445
  8
5
  6
CONTINUOUS
 10
430.232
 20
1190.196
 30
0.0
 11
440.5658
 21
1190.197
 31
0.0
  0
LINE
  5
446
  8
5
  6
CONTINUOUS
 10
453.0737
 20
1190.197
 30
0.0
 11
442.1409
 21
1190.197
 31
0.0
  0
ARC
  5
447
  8
5
  6
CONTINUOUS
 10
444.2536
 20
1181.164
 30
0.0
 40
12.62499
 50
2.745839
 51
45.68309
  0
ARC
  5
448
  8
5
  6
CONTINUOUS
 10
445.7427
 20
1181.768
 30
0.0
 40
11.12137
 50
270.0019
 51
0.0019
  0
LINE
  5
449
  8
5
  6
CONTINUOUS
 10
442.1416
 20
1170.647
 30
0.0
 11
445.7431
 21
1170.647
 31
0.0
  0
LINE
  5
44A
  8
5
  6
CONTINUOUS
 10
442.1409
 20
1190.197
 30
0.0
 11
442.1416
 21
1170.647
 31
0.0
  0
LINE
  5
44B
  8
5
  6
CONTINUOUS
 10
442.1402
 20
1210.445
 30
0.0
 11
442.1409
 21
1191.772
 31
0.0
  0
LINE
  5
44C
  8
5
  6
CONTINUOUS
 10
445.7417
 20
1210.445
 30
0.0
 11
442.1402
 21
1210.445
 31
0.0
  0
ARC
  5
44D
  8
5
  6
CONTINUOUS
 10
445.742
 20
1202.615
 30
0.0
 40
7.829616
 50
0.001947
 51
90.00195
  0
ARC
  5
44E
  8
5
  6
CONTINUOUS
 10
443.4688
 20
1203.551
 30
0.0
 40
10.14607
 50
283.5581
 51
354.7072
  0
ARC
  5
44F
  8
5
  6
CONTINUOUS
 10
444.2536
 20
1181.164
 30
0.0
 40
12.62499
 50
57.16491
 51
82.74766
  0
LINE
  5
450
  8
5
  6
CONTINUOUS
 10
442.1409
 20
1191.772
 30
0.0
 11
451.0991
 21
1191.772
 31
0.0
  0
LINE
  5
451
  8
5
  6
CONTINUOUS
 10
430.2314
 20
1210.444
 30
0.0
 11
430.232
 21
1191.771
 31
0.0
  0
LINE
  5
452
  8
5
  6
CONTINUOUS
 10
440.5652
 20
1210.445
 30
0.0
 11
430.2314
 21
1210.444
 31
0.0
  0
LINE
  5
453
  8
5
  6
CONTINUOUS
 10
440.5658
 20
1191.772
 30
0.0
 11
440.5652
 21
1210.445
 31
0.0
  0
LINE
  5
454
  8
5
  6
CONTINUOUS
 10
430.232
 20
1191.771
 30
0.0
 11
440.5658
 21
1191.772
 31
0.0
  0
LINE
  5
455
  8
5
  6
CONTINUOUS
 10
407.906
 20
1210.443
 30
0.0
 11
407.9067
 21
1191.77
 31
0.0
  0
LINE
  5
456
  8
5
  6
CONTINUOUS
 10
411.5075
 20
1210.444
 30
0.0
 11
407.906
 21
1210.443
 31
0.0
  0
ARC
  5
457
  8
5
  6
CONTINUOUS
 10
411.5078
 20
1202.614
 30
0.0
 40
7.829616
 50
0.001947
 51
90.00195
  0
ARC
  5
458
  8
5
  6
CONTINUOUS
 10
409.2346
 20
1203.55
 30
0.0
 40
10.14607
 50
283.5581
 51
354.7072
  0
ARC
  5
459
  8
5
  6
CONTINUOUS
 10
410.0194
 20
1181.163
 30
0.0
 40
12.62499
 50
57.16493
 51
82.74766
  0
LINE
  5
45A
  8
5
  6
CONTINUOUS
 10
407.9067
 20
1191.77
 30
0.0
 11
416.8649
 21
1191.771
 31
0.0
  0
ARC
  5
45B
  8
5
  6
CONTINUOUS
 10
410.0194
 20
1181.163
 30
0.0
 40
12.62499
 50
2.745839
 51
45.68318
  0
ARC
  5
45C
  8
5
  6
CONTINUOUS
 10
411.5085
 20
1181.767
 30
0.0
 40
11.12137
 50
270.0019
 51
0.0019
  0
LINE
  5
45D
  8
5
  6
CONTINUOUS
 10
407.9073
 20
1170.646
 30
0.0
 11
411.5089
 21
1170.646
 31
0.0
  0
LINE
  5
45E
  8
5
  6
CONTINUOUS
 10
407.9067
 20
1190.196
 30
0.0
 11
407.9073
 21
1170.646
 31
0.0
  0
LINE
  5
45F
  8
5
  6
CONTINUOUS
 10
418.8395
 20
1190.196
 30
0.0
 11
407.9067
 21
1190.196
 31
0.0
  0
LINE
  5
460
  8
5
  6
CONTINUOUS
 10
406.3324
 20
1170.646
 30
0.0
 11
406.3317
 21
1190.195
 31
0.0
  0
LINE
  5
461
  8
5
  6
CONTINUOUS
 10
395.9985
 20
1170.645
 30
0.0
 11
406.3324
 21
1170.646
 31
0.0
  0
LINE
  5
462
  8
5
  6
CONTINUOUS
 10
395.9978
 20
1190.195
 30
0.0
 11
395.9985
 21
1170.645
 31
0.0
  0
LINE
  5
463
  8
5
  6
CONTINUOUS
 10
406.3317
 20
1190.195
 30
0.0
 11
395.9978
 21
1190.195
 31
0.0
  0
LINE
  5
464
  8
5
  6
CONTINUOUS
 10
406.3317
 20
1191.77
 30
0.0
 11
406.331
 21
1210.443
 31
0.0
  0
LINE
  5
465
  8
5
  6
CONTINUOUS
 10
395.9978
 20
1191.77
 30
0.0
 11
406.3317
 21
1191.77
 31
0.0
  0
LINE
  5
466
  8
5
  6
CONTINUOUS
 10
395.9972
 20
1210.443
 30
0.0
 11
395.9978
 21
1191.77
 31
0.0
  0
LINE
  5
467
  8
5
  6
CONTINUOUS
 10
406.331
 20
1210.443
 30
0.0
 11
395.9972
 21
1210.443
 31
0.0
  0
LINE
  5
468
  8
5
  6
CONTINUOUS
 10
388.2827
 20
1170.645
 30
0.0
 11
381.3039
 21
1190.195
 31
0.0
  0
LINE
  5
469
  8
5
  6
CONTINUOUS
 10
381.1575
 20
1170.645
 30
0.0
 11
388.2827
 21
1170.645
 31
0.0
  0
LINE
  5
46A
  8
5
  6
CONTINUOUS
 10
378.2774
 20
1178.713
 30
0.0
 11
381.1575
 21
1170.645
 31
0.0
  0
LINE
  5
46B
  8
5
  6
CONTINUOUS
 10
369.7323
 20
1178.712
 30
0.0
 11
378.2774
 21
1178.713
 31
0.0
  0
LINE
  5
46C
  8
5
  6
CONTINUOUS
 10
369.7319
 20
1190.194
 30
0.0
 11
369.7323
 21
1178.712
 31
0.0
  0
LINE
  5
46D
  8
5
  6
CONTINUOUS
 10
381.3039
 20
1190.195
 30
0.0
 11
369.7319
 21
1190.194
 31
0.0
  0
LINE
  5
46E
  8
5
  6
CONTINUOUS
 10
369.7311
 20
1210.442
 30
0.0
 11
369.7318
 21
1191.769
 31
0.0
  0
LINE
  5
46F
  8
5
  6
CONTINUOUS
 10
374.0759
 20
1210.442
 30
0.0
 11
369.7311
 21
1210.442
 31
0.0
  0
LINE
  5
470
  8
5
  6
CONTINUOUS
 10
380.7417
 20
1191.77
 30
0.0
 11
374.0759
 21
1210.442
 31
0.0
  0
LINE
  5
471
  8
5
  6
CONTINUOUS
 10
369.7318
 20
1191.769
 30
0.0
 11
380.7417
 21
1191.77
 31
0.0
  0
LINE
  5
472
  8
5
  6
CONTINUOUS
 10
359.5743
 20
1178.712
 30
0.0
 11
368.1572
 21
1178.712
 31
0.0
  0
LINE
  5
473
  8
5
  6
CONTINUOUS
 10
356.8066
 20
1170.644
 30
0.0
 11
359.5743
 21
1178.712
 31
0.0
  0
LINE
  5
474
  8
5
  6
CONTINUOUS
 10
350.1594
 20
1170.644
 30
0.0
 11
356.8066
 21
1170.644
 31
0.0
  0
LINE
  5
475
  8
5
  6
CONTINUOUS
 10
356.8658
 20
1190.194
 30
0.0
 11
350.1594
 21
1170.644
 31
0.0
  0
LINE
  5
476
  8
5
  6
CONTINUOUS
 10
368.1569
 20
1190.194
 30
0.0
 11
356.8658
 21
1190.194
 31
0.0
  0
LINE
  5
477
  8
5
  6
CONTINUOUS
 10
368.1572
 20
1178.712
 30
0.0
 11
368.1569
 21
1190.194
 31
0.0
  0
LINE
  5
478
  8
5
  6
CONTINUOUS
 10
368.1562
 20
1210.442
 30
0.0
 11
363.8116
 21
1210.442
 31
0.0
  0
LINE
  5
479
  8
5
  6
CONTINUOUS
 10
368.1569
 20
1191.769
 30
0.0
 11
368.1562
 21
1210.442
 31
0.0
  0
LINE
  5
47A
  8
5
  6
CONTINUOUS
 10
357.4061
 20
1191.769
 30
0.0
 11
368.1569
 21
1191.769
 31
0.0
  0
LINE
  5
47B
  8
5
  6
CONTINUOUS
 10
363.8116
 20
1210.442
 30
0.0
 11
357.4061
 21
1191.769
 31
0.0
  0
LINE
  5
47C
  8
5
  6
CONTINUOUS
 10
1976.051
 20
1504.64176
 30
0.0
 11
1976.051
 21
1519.30476
 31
0.0
  0
LINE
  5
47D
  8
5
  6
CONTINUOUS
 10
1968.301
 20
1504.64176
 30
0.0
 11
1976.051
 21
1504.64176
 31
0.0
  0
LINE
  5
47E
  8
5
  6
CONTINUOUS
 10
1968.3
 20
1519.30376
 30
0.0
 11
1968.301
 21
1504.64176
 31
0.0
  0
LINE
  5
47F
  8
5
  6
CONTINUOUS
 10
1968.3
 20
1519.30376
 30
0.0
 11
1976.051
 21
1519.30476
 31
0.0
  0
LINE
  5
480
  8
5
  6
CONTINUOUS
 10
1985.432
 20
1519.30476
 30
0.0
 11
1977.232
 21
1519.30476
 31
0.0
  0
ARC
  5
481
  8
5
  6
CONTINUOUS
 10
1978.817
 20
1512.52976
 30
0.0
 40
9.468742
 50
2.745839
 51
45.68309
  0
ARC
  5
482
  8
5
  6
CONTINUOUS
 10
1979.934
 20
1512.98376
 30
0.0
 40
8.341025
 50
270.0019
 51
0.0019
  0
LINE
  5
483
  8
5
  6
CONTINUOUS
 10
1977.233
 20
1504.64176
 30
0.0
 11
1979.934
 21
1504.64276
 31
0.0
  0
LINE
  5
484
  8
5
  6
CONTINUOUS
 10
1977.232
 20
1519.30476
 30
0.0
 11
1977.233
 21
1504.64176
 31
0.0
  0
LINE
  5
485
  8
5
  6
CONTINUOUS
 10
1977.232
 20
1534.49076
 30
0.0
 11
1977.232
 21
1520.48576
 31
0.0
  0
LINE
  5
486
  8
5
  6
CONTINUOUS
 10
1979.933
 20
1534.49076
 30
0.0
 11
1977.232
 21
1534.49076
 31
0.0
  0
ARC
  5
487
  8
5
  6
CONTINUOUS
 10
1979.933
 20
1528.61876
 30
0.0
 40
5.872212
 50
0.001947
 51
90.00195
  0
ARC
  5
488
  8
5
  6
CONTINUOUS
 10
1978.228
 20
1529.32076
 30
0.0
 40
7.609554
 50
283.5581
 51
354.7072
  0
ARC
  5
489
  8
5
  6
CONTINUOUS
 10
1978.817
 20
1512.52976
 30
0.0
 40
9.468742
 50
57.16491
 51
82.74766
  0
LINE
  5
48A
  8
5
  6
CONTINUOUS
 10
1977.232
 20
1520.48576
 30
0.0
 11
1983.951
 21
1520.48576
 31
0.0
  0
LINE
  5
48B
  8
5
  6
CONTINUOUS
 10
1968.3
 20
1534.48976
 30
0.0
 11
1968.3
 21
1520.48576
 31
0.0
  0
LINE
  5
48C
  8
5
  6
CONTINUOUS
 10
1976.05
 20
1534.49076
 30
0.0
 11
1968.3
 21
1534.48976
 31
0.0
  0
LINE
  5
48D
  8
5
  6
CONTINUOUS
 10
1976.051
 20
1520.48576
 30
0.0
 11
1976.05
 21
1534.49076
 31
0.0
  0
LINE
  5
48E
  8
5
  6
CONTINUOUS
 10
1968.3
 20
1520.48576
 30
0.0
 11
1976.051
 21
1520.48576
 31
0.0
  0
LINE
  5
48F
  8
5
  6
CONTINUOUS
 10
1951.556
 20
1534.48976
 30
0.0
 11
1951.556
 21
1520.48476
 31
0.0
  0
LINE
  5
490
  8
5
  6
CONTINUOUS
 10
1954.257
 20
1534.48976
 30
0.0
 11
1951.556
 21
1534.48976
 31
0.0
  0
ARC
  5
491
  8
5
  6
CONTINUOUS
 10
1954.257
 20
1528.61776
 30
0.0
 40
5.872212
 50
0.001947
 51
90.00195
  0
ARC
  5
492
  8
5
  6
CONTINUOUS
 10
1952.552
 20
1529.31976
 30
0.0
 40
7.609554
 50
283.5581
 51
354.7072
  0
ARC
  5
493
  8
5
  6
CONTINUOUS
 10
1953.141
 20
1512.52876
 30
0.0
 40
9.468742
 50
57.16493
 51
82.74766
  0
LINE
  5
494
  8
5
  6
CONTINUOUS
 10
1951.556
 20
1520.48476
 30
0.0
 11
1958.275
 21
1520.48476
 31
0.0
  0
ARC
  5
495
  8
5
  6
CONTINUOUS
 10
1953.141
 20
1512.52876
 30
0.0
 40
9.468742
 50
2.745839
 51
45.68318
  0
ARC
  5
496
  8
5
  6
CONTINUOUS
 10
1954.258
 20
1512.98276
 30
0.0
 40
8.341025
 50
270.0019
 51
0.0019
  0
LINE
  5
497
  8
5
  6
CONTINUOUS
 10
1951.557
 20
1504.64176
 30
0.0
 11
1954.258
 21
1504.64176
 31
0.0
  0
LINE
  5
498
  8
5
  6
CONTINUOUS
 10
1951.556
 20
1519.30376
 30
0.0
 11
1951.557
 21
1504.64176
 31
0.0
  0
LINE
  5
499
  8
5
  6
CONTINUOUS
 10
1959.756
 20
1519.30376
 30
0.0
 11
1951.556
 21
1519.30376
 31
0.0
  0
LINE
  5
49A
  8
5
  6
CONTINUOUS
 10
1950.376
 20
1504.64076
 30
0.0
 11
1950.375
 21
1519.30376
 31
0.0
  0
LINE
  5
49B
  8
5
  6
CONTINUOUS
 10
1942.625
 20
1504.64076
 30
0.0
 11
1950.376
 21
1504.64076
 31
0.0
  0
LINE
  5
49C
  8
5
  6
CONTINUOUS
 10
1942.625
 20
1519.30376
 30
0.0
 11
1942.625
 21
1504.64076
 31
0.0
  0
LINE
  5
49D
  8
5
  6
CONTINUOUS
 10
1950.375
 20
1519.30376
 30
0.0
 11
1942.625
 21
1519.30376
 31
0.0
  0
LINE
  5
49E
  8
5
  6
CONTINUOUS
 10
1950.375
 20
1520.48476
 30
0.0
 11
1950.375
 21
1534.48976
 31
0.0
  0
LINE
  5
49F
  8
5
  6
CONTINUOUS
 10
1942.625
 20
1520.48476
 30
0.0
 11
1950.375
 21
1520.48476
 31
0.0
  0
LINE
  5
4A0
  8
5
  6
CONTINUOUS
 10
1942.624
 20
1534.48876
 30
0.0
 11
1942.625
 21
1520.48476
 31
0.0
  0
LINE
  5
4A1
  8
5
  6
CONTINUOUS
 10
1950.375
 20
1534.48976
 30
0.0
 11
1942.624
 21
1534.48876
 31
0.0
  0
LINE
  5
4A2
  8
5
  6
CONTINUOUS
 10
1936.838
 20
1504.64076
 30
0.0
 11
1931.604
 21
1519.30276
 31
0.0
  0
LINE
  5
4A3
  8
5
  6
CONTINUOUS
 10
1931.495
 20
1504.64076
 30
0.0
 11
1936.838
 21
1504.64076
 31
0.0
  0
LINE
  5
4A4
  8
5
  6
CONTINUOUS
 10
1929.335
 20
1510.69176
 30
0.0
 11
1931.495
 21
1504.64076
 31
0.0
  0
LINE
  5
4A5
  8
5
  6
CONTINUOUS
 10
1922.926
 20
1510.69176
 30
0.0
 11
1929.335
 21
1510.69176
 31
0.0
  0
LINE
  5
4A6
  8
5
  6
CONTINUOUS
 10
1922.925
 20
1519.30276
 30
0.0
 11
1922.926
 21
1510.69176
 31
0.0
  0
LINE
  5
4A7
  8
5
  6
CONTINUOUS
 10
1931.604
 20
1519.30276
 30
0.0
 11
1922.925
 21
1519.30276
 31
0.0
  0
LINE
  5
4A8
  8
5
  6
CONTINUOUS
 10
1922.925
 20
1534.48876
 30
0.0
 11
1922.925
 21
1520.48376
 31
0.0
  0
LINE
  5
4A9
  8
5
  6
CONTINUOUS
 10
1926.183
 20
1534.48876
 30
0.0
 11
1922.925
 21
1534.48876
 31
0.0
  0
LINE
  5
4AA
  8
5
  6
CONTINUOUS
 10
1931.183
 20
1520.48376
 30
0.0
 11
1926.183
 21
1534.48876
 31
0.0
  0
LINE
  5
4AB
  8
5
  6
CONTINUOUS
 10
1922.925
 20
1520.48376
 30
0.0
 11
1931.183
 21
1520.48376
 31
0.0
  0
LINE
  5
4AC
  8
5
  6
CONTINUOUS
 10
1915.307
 20
1510.69076
 30
0.0
 11
1921.744
 21
1510.69176
 31
0.0
  0
LINE
  5
4AD
  8
5
  6
CONTINUOUS
 10
1913.231
 20
1504.63976
 30
0.0
 11
1915.307
 21
1510.69076
 31
0.0
  0
LINE
  5
4AE
  8
5
  6
CONTINUOUS
 10
1908.246
 20
1504.63976
 30
0.0
 11
1913.231
 21
1504.63976
 31
0.0
  0
LINE
  5
4AF
  8
5
  6
CONTINUOUS
 10
1913.276
 20
1519.30276
 30
0.0
 11
1908.246
 21
1504.63976
 31
0.0
  0
LINE
  5
4B0
  8
5
  6
CONTINUOUS
 10
1921.744
 20
1519.30276
 30
0.0
 11
1913.276
 21
1519.30276
 31
0.0
  0
LINE
  5
4B1
  8
5
  6
CONTINUOUS
 10
1921.744
 20
1510.69176
 30
0.0
 11
1921.744
 21
1519.30276
 31
0.0
  0
LINE
  5
4B2
  8
5
  6
CONTINUOUS
 10
1921.744
 20
1534.48876
 30
0.0
 11
1918.485
 21
1534.48876
 31
0.0
  0
LINE
  5
4B3
  8
5
  6
CONTINUOUS
 10
1921.744
 20
1520.48376
 30
0.0
 11
1921.744
 21
1534.48876
 31
0.0
  0
LINE
  5
4B4
  8
5
  6
CONTINUOUS
 10
1913.681
 20
1520.48376
 30
0.0
 11
1921.744
 21
1520.48376
 31
0.0
  0
LINE
  5
4B5
  8
5
  6
CONTINUOUS
 10
1918.485
 20
1534.48876
 30
0.0
 11
1913.681
 21
1520.48376
 31
0.0
  0
LINE
  5
4B6
  8
5
  6
CONTINUOUS
 10
1133.123
 20
1365.394
 30
0.0
 11
1118.123
 21
1365.394
 31
0.0
  0
LINE
  5
4B7
  8
5
  6
CENTER
 10
1772.534
 20
958.3938
 30
0.0
 11
1772.534
 21
923.3938
 31
0.0
  0
LINE
  5
4B8
  8
5
  6
CONTINUOUS
 10
905.1228
 20
1365.394
 30
0.0
 11
1118.123
 21
1365.394
 31
0.0
  0
LINE
  5
4B9
  8
5
  6
CONTINUOUS
 10
905.1228
 20
1365.394
 30
0.0
 11
890.1228
 21
1365.394
 31
0.0
  0
LINE
  5
4BA
  8
7
  6
DASHED
 10
1781.784
 20
953.3938
 30
0.0
 11
1781.784
 21
928.3938
 31
0.0
  0
LINE
  5
4BB
  8
7
  6
DASHED
 10
1763.284
 20
953.3938
 30
0.0
 11
1763.284
 21
928.3938
 31
0.0
  0
LINE
  5
4BC
  8
5
  6
CENTER
 10
2128.534
 20
958.3938
 30
0.0
 11
2128.534
 21
923.3938
 31
0.0
  0
LINE
  5
4BD
  8
7
  6
DASHED
 10
2119.284
 20
953.3938
 30
0.0
 11
2119.284
 21
928.3938
 31
0.0
  0
LINE
  5
4BE
  8
7
  6
DASHED
 10
2137.784
 20
953.3938
 30
0.0
 11
2137.784
 21
928.3938
 31
0.0
  0
LINE
  5
4BF
  8
6
  6
CENTER
 10
157.1595
 20
958.3938
 30
0.0
 11
157.1595
 21
923.3938
 31
0.0
  0
LINE
  5
4C0
  8
7
  6
DASHED
 10
166.4095
 20
953.3938
 30
0.0
 11
166.4095
 21
928.3938
 31
0.0
  0
LINE
  5
4C1
  8
7
  6
DASHED
 10
147.9095
 20
953.3938
 30
0.0
 11
147.9095
 21
928.3938
 31
0.0
  0
LINE
  5
4C2
  8
6
  6
CENTER
 10
513.1595
 20
958.3938
 30
0.0
 11
513.1595
 21
923.3938
 31
0.0
  0
LINE
  5
4C3
  8
7
  6
DASHED
 10
503.9095
 20
953.3938
 30
0.0
 11
503.9095
 21
928.3938
 31
0.0
  0
LINE
  5
4C4
  8
7
  6
DASHED
 10
522.4095
 20
953.3938
 30
0.0
 11
522.4095
 21
928.3938
 31
0.0
  0
LINE
  5
4C5
  8
6
  6
CENTER
 10
940.1229
 20
961.3938
 30
0.0
 11
940.1229
 21
920.6068
 31
0.0
  0
LINE
  5
4C6
  8
7
  6
DASHED
 10
949.3729
 20
953.3938
 30
0.0
 11
949.3729
 21
928.3938
 31
0.0
  0
LINE
  5
4C7
  8
7
  6
DASHED
 10
930.8729
 20
953.3938
 30
0.0
 11
930.8729
 21
928.3938
 31
0.0
  0
LINE
  5
4C8
  8
7
  6
DASHED
 10
1235.373
 20
953.3938
 30
0.0
 11
1235.373
 21
928.3938
 31
0.0
  0
LINE
  5
4C9
  8
6
  6
CENTER
 10
1226.123
 20
961.3938
 30
0.0
 11
1226.123
 21
920.6068
 31
0.0
  0
LINE
  5
4CA
  8
7
  6
DASHED
 10
1216.873
 20
953.3938
 30
0.0
 11
1216.873
 21
928.3938
 31
0.0
  0
LINE
  5
4CB
  8
6
  6
CENTER
 10
1251.123
 20
961.3938
 30
0.0
 11
1251.123
 21
920.6068
 31
0.0
  0
LINE
  5
4CC
  8
7
  6
DASHED
 10
1260.373
 20
953.3938
 30
0.0
 11
1260.373
 21
928.3938
 31
0.0
  0
LINE
  5
4CD
  8
7
  6
DASHED
 10
1241.873
 20
953.3938
 30
0.0
 11
1241.873
 21
928.3938
 31
0.0
  0
LINE
  5
4CE
  8
6
  6
CENTER
 10
626.1228
 20
1153.394
 30
0.0
 11
1546.623
 21
1153.394
 31
0.0
  0
LINE
  5
4CF
  8
6
  6
CENTER
 10
626.3338
 20
393.9903
 30
0.0
 11
901.829899
 21
393.9903
 31
0.0
  0
LINE
  5
4D0
  8
5
  6
CENTER
 10
264.5707
 20
1136.144
 30
0.0
 11
264.5707
 21
1100.641
 31
0.0
  0
LINE
  5
4D1
  8
5
  6
CONTINUOUS
 10
905.1228
 20
1399.694
 30
0.0
 11
905.1228
 21
1365.394
 31
0.0
  0
LINE
  5
4D2
  8
5
  6
CONTINUOUS
 10
1118.123
 20
1365.394
 30
0.0
 11
1118.123
 21
1399.694
 31
0.0
  0
LINE
  5
4D3
  8
5
  6
CONTINUOUS
 10
863.6228
 20
1423.694
 30
0.0
 11
1159.623
 21
1423.694
 31
0.0
  0
LINE
  5
4D4
  8
5
  6
CONTINUOUS
 10
946.62
 20
1544.194
 30
0.0
 11
946.6199
 21
1548.394
 31
0.0
  0
LINE
  5
4D5
  8
5
  6
CONTINUOUS
 10
955.4828
 20
1544.194
 30
0.0
 11
955.4828
 21
1548.394
 31
0.0
  0
LINE
  5
4D6
  8
5
  6
CONTINUOUS
 10
959.1731
 20
1544.194
 30
0.0
 11
959.173
 21
1548.394
 31
0.0
  0
LINE
  5
4D7
  8
5
  6
CONTINUOUS
 10
984.1106
 20
1544.194
 30
0.0
 11
984.1105
 21
1548.394
 31
0.0
  0
LINE
  5
4D8
  8
5
  6
CONTINUOUS
 10
987.9507
 20
1544.194
 30
0.0
 11
987.9507
 21
1548.394
 31
0.0
  0
LINE
  5
4D9
  8
5
  6
CONTINUOUS
 10
997.451
 20
1544.194
 30
0.0
 11
997.451
 21
1548.394
 31
0.0
  0
LINE
  5
4DA
  8
5
  6
CONTINUOUS
 10
1028.419
 20
1544.194
 30
0.0
 11
1028.419
 21
1548.394
 31
0.0
  0
LINE
  5
4DB
  8
5
  6
CONTINUOUS
 10
1043.247
 20
1544.194
 30
0.0
 11
1043.247
 21
1548.394
 31
0.0
  0
LINE
  5
4DC
  8
5
  6
CONTINUOUS
 10
1074.065
 20
1544.194
 30
0.0
 11
1074.065
 21
1548.394
 31
0.0
  0
LINE
  5
4DD
  8
5
  6
CONTINUOUS
 10
1088.893
 20
1544.194
 30
0.0
 11
1088.893
 21
1548.394
 31
0.0
  0
LINE
  5
4DE
  8
5
  6
CONTINUOUS
 10
1121.623
 20
1524.694
 30
0.0
 11
1121.623
 21
1544.194
 31
0.0
  0
LINE
  5
4DF
  8
5
  6
CONTINUOUS
 10
901.6227
 20
1544.194
 30
0.0
 11
901.6227
 21
1524.694
 31
0.0
  0
LINE
  5
4E0
  8
5
  6
CONTINUOUS
 10
889.0023
 20
197.1903
 30
0.0
 11
886.6708
 21
215.3903
 31
0.0
  0
LINE
  5
4E1
  8
5
  6
CONTINUOUS
 10
264.5707
 20
1136.144
 30
0.0
 11
264.5707
 21
1100.641
 31
0.0
  0
LINE
  5
4E2
  8
5
  6
CENTER
 10
274.5707
 20
1136.144
 30
0.0
 11
274.5707
 21
1078.212
 31
0.0
  0
LINE
  5
4E3
  8
5
  6
CONTINUOUS
 10
274.5707
 20
1136.144
 30
0.0
 11
274.5707
 21
1078.581
 31
0.0
  0
LINE
  5
4E4
  8
5
  6
CENTER
 10
284.5707
 20
1136.144
 30
0.0
 11
284.5707
 21
1065.394
 31
0.0
  0
LINE
  5
4E5
  8
5
  6
CONTINUOUS
 10
284.5707
 20
1136.144
 30
0.0
 11
284.5707
 21
1065.394
 31
0.0
  0
LINE
  5
4E6
  8
5
  6
CENTER
 10
294.5707
 20
1136.144
 30
0.0
 11
294.5707
 21
1065.394
 31
0.0
  0
LINE
  5
4E7
  8
5
  6
CONTINUOUS
 10
294.5707
 20
1136.144
 30
0.0
 11
294.5707
 21
1065.394
 31
0.0
  0
LINE
  5
4E8
  8
5
  6
CENTER
 10
304.5707
 20
1136.144
 30
0.0
 11
304.5707
 21
1065.394
 31
0.0
  0
LINE
  5
4E9
  8
5
  6
CONTINUOUS
 10
304.5707
 20
1136.144
 30
0.0
 11
304.5707
 21
1065.394
 31
0.0
  0
LINE
  5
4EA
  8
5
  6
CENTER
 10
314.5707
 20
1136.144
 30
0.0
 11
314.5707
 21
1065.394
 31
0.0
  0
LINE
  5
4EB
  8
5
  6
CONTINUOUS
 10
314.5707
 20
1136.144
 30
0.0
 11
314.5707
 21
1065.394
 31
0.0
  0
LINE
  5
4EC
  8
5
  6
CONTINUOUS
 10
277.074
 20
1076.169
 30
0.0
 11
324.7153
 21
1076.169
 31
0.0
  0
LINE
  5
4ED
  8
5
  6
CONTINUOUS
 10
277.5654
 20
1076.169
 30
0.0
 11
324.7153
 21
1076.169
 31
0.0
  0
LINE
  5
4EE
  8
5
  6
CONTINUOUS
 10
264.5707
 20
1086.169
 30
0.0
 11
324.7153
 21
1086.169
 31
0.0
  0
LINE
  5
4EF
  8
5
  6
CONTINUOUS
 10
264.5707
 20
1086.169
 30
0.0
 11
324.7153
 21
1086.169
 31
0.0
  0
LINE
  5
4F0
  8
5
  6
CONTINUOUS
 10
260.9477
 20
1096.169
 30
0.0
 11
324.7153
 21
1096.169
 31
0.0
  0
LINE
  5
4F1
  8
5
  6
CONTINUOUS
 10
264.9377
 20
1096.169
 30
0.0
 11
324.7153
 21
1096.169
 31
0.0
  0
LINE
  5
4F2
  8
5
  6
CONTINUOUS
 10
254.0789
 20
1106.169
 30
0.0
 11
324.7153
 21
1106.169
 31
0.0
  0
LINE
  5
4F3
  8
5
  6
CONTINUOUS
 10
254.8325
 20
1106.169
 30
0.0
 11
324.7153
 21
1106.169
 31
0.0
  0
LINE
  5
4F4
  8
5
  6
CONTINUOUS
 10
254.3301
 20
1116.169
 30
0.0
 11
324.7153
 21
1116.169
 31
0.0
  0
LINE
  5
4F5
  8
5
  6
CONTINUOUS
 10
254.3301
 20
1116.169
 30
0.0
 11
324.7153
 21
1116.169
 31
0.0
  0
LINE
  5
4F6
  8
5
  6
CONTINUOUS
 10
255.335
 20
1126.169
 30
0.0
 11
324.7153
 21
1126.169
 31
0.0
  0
LINE
  5
4F7
  8
5
  6
CONTINUOUS
 10
255.335
 20
1126.169
 30
0.0
 11
324.7153
 21
1126.169
 31
0.0
  0
LINE
  5
4F8
  8
5
  6
CONTINUOUS
 10
886.6708
 20
215.3903
 30
0.0
 11
885.628
 21
223.5305
 31
0.0
  0
LINE
  5
4F9
  8
5
  6
CONTINUOUS
 10
1321.123
 20
1039.494
 30
0.0
 11
1321.123
 21
1020.494
 31
0.0
  0
LINE
  5
4FA
  8
5
  6
CONTINUOUS
 10
1321.123
 20
1268.094
 30
0.0
 11
1321.123
 21
1286.294
 31
0.0
  0
LINE
  5
4FB
  8
5
  6
CONTINUOUS
 10
1321.123
 20
1039.494
 30
0.0
 11
1323.557
 21
1039.494
 31
0.0
  0
LINE
  5
4FC
  8
5
  6
CONTINUOUS
 10
891.1229
 20
1039.494
 30
0.0
 11
888.6888
 21
1039.494
 31
0.0
  0
LINE
  5
4FD
  8
5
  6
CONTINUOUS
 10
891.1228
 20
1039.494
 30
0.0
 11
891.1228
 21
1020.494
 31
0.0
  0
LINE
  5
4FE
  8
5
  6
CONTINUOUS
 10
891.1229
 20
1268.094
 30
0.0
 11
891.1228
 21
1286.294
 31
0.0
  0
LINE
  5
4FF
  8
5
  6
CONTINUOUS
 10
1321.334
 20
589.9903
 30
0.0
 11
1321.334
 21
608.9903
 31
0.0
  0
LINE
  5
500
  8
5
  6
CONTINUOUS
 10
1321.334
 20
589.9903
 30
0.0
 11
1323.768
 21
589.9903
 31
0.0
  0
LINE
  5
501
  8
5
  6
CONTINUOUS
 10
1321.334
 20
197.9904
 30
0.0
 11
1321.334
 21
178.9903
 31
0.0
  0
LINE
  5
502
  8
5
  6
CONTINUOUS
 10
1321.334
 20
197.9904
 30
0.0
 11
1323.768
 21
197.9904
 31
0.0
  0
LINE
  5
503
  8
5
  6
CONTINUOUS
 10
891.3337
 20
589.9903
 30
0.0
 11
891.3338
 21
608.9903
 31
0.0
  0
LINE
  5
504
  8
5
  6
CONTINUOUS
 10
897.8338
 20
201.4903
 30
0.0
 11
1125.834
 21
201.4903
 31
0.0
  0
LINE
  5
505
  8
5
  6
CONTINUOUS
 10
891.3337
 20
589.9903
 30
0.0
 11
888.8998
 21
589.9903
 31
0.0
  0
LINE
  5
506
  8
5
  6
CONTINUOUS
 10
891.3337
 20
197.9904
 30
0.0
 11
891.3338
 21
178.9903
 31
0.0
  0
LINE
  5
507
  8
5
  6
CONTINUOUS
 10
891.3337
 20
197.9904
 30
0.0
 11
888.8998
 21
197.9904
 31
0.0
  0
LINE
  5
508
  8
5
  6
CONTINUOUS
 10
959.052032
 20
420.282538
 30
0.0
 11
950.511332
 21
395.384938
 31
0.0
  0
LINE
  5
509
  8
5
  6
CONTINUOUS
 10
950.511332
 20
395.384938
 30
0.0
 11
964.845632
 21
395.385338
 31
0.0
  0
LINE
  5
50A
  8
5
  6
CONTINUOUS
 10
964.845632
 20
395.385338
 30
0.0
 11
964.844832
 21
420.282838
 31
0.0
  0
LINE
  5
50B
  8
5
  6
CONTINUOUS
 10
964.844832
 20
420.282838
 30
0.0
 11
959.052032
 21
420.282538
 31
0.0
  0
LINE
  5
50C
  8
5
  6
CONTINUOUS
 10
964.846332
 20
377.976538
 30
0.0
 11
964.845932
 21
393.285438
 31
0.0
  0
LINE
  5
50D
  8
5
  6
CONTINUOUS
 10
964.845932
 20
393.285438
 30
0.0
 11
949.790832
 21
393.285038
 31
0.0
  0
LINE
  5
50E
  8
5
  6
CONTINUOUS
 10
949.790832
 20
393.285038
 30
0.0
 11
940.849132
 21
367.218438
 31
0.0
  0
LINE
  5
50F
  8
5
  6
CONTINUOUS
 10
940.849132
 20
367.218438
 30
0.0
 11
949.712032
 21
367.218638
 31
0.0
  0
LINE
  5
510
  8
5
  6
CONTINUOUS
 10
949.712032
 20
367.218638
 30
0.0
 11
953.402232
 21
377.976138
 31
0.0
  0
LINE
  5
511
  8
5
  6
CONTINUOUS
 10
953.402232
 20
377.976138
 30
0.0
 11
964.846332
 21
377.976538
 31
0.0
  0
LINE
  5
512
  8
5
  6
CONTINUOUS
 10
966.945832
 20
395.385638
 30
0.0
 11
981.625432
 21
395.386038
 31
0.0
  0
LINE
  5
513
  8
5
  6
CONTINUOUS
 10
981.625432
 20
395.386038
 30
0.0
 11
972.737732
 21
420.283038
 31
0.0
  0
LINE
  5
514
  8
5
  6
CONTINUOUS
 10
972.737732
 20
420.283038
 30
0.0
 11
966.944832
 21
420.282838
 31
0.0
  0
LINE
  5
515
  8
5
  6
CONTINUOUS
 10
966.944832
 20
420.282838
 30
0.0
 11
966.945832
 21
395.385638
 31
0.0
  0
LINE
  5
516
  8
5
  6
CONTINUOUS
 10
982.375032
 20
393.286138
 30
0.0
 11
966.945832
 21
393.285438
 31
0.0
  0
LINE
  5
517
  8
5
  6
CONTINUOUS
 10
966.945832
 20
393.285438
 30
0.0
 11
966.946232
 21
377.976538
 31
0.0
  0
LINE
  5
518
  8
5
  6
CONTINUOUS
 10
966.946232
 20
377.976538
 30
0.0
 11
978.339732
 21
377.976938
 31
0.0
  0
LINE
  5
519
  8
5
  6
CONTINUOUS
 10
978.339732
 20
377.976938
 30
0.0
 11
982.179832
 21
367.219738
 31
0.0
  0
LINE
  5
51A
  8
5
  6
CONTINUOUS
 10
982.179832
 20
367.219738
 30
0.0
 11
991.680232
 21
367.220138
 31
0.0
  0
LINE
  5
51B
  8
5
  6
CONTINUOUS
 10
991.680232
 20
367.220138
 30
0.0
 11
982.375032
 21
393.286138
 31
0.0
  0
LINE
  5
51C
  8
5
  6
CONTINUOUS
 10
1015.744232
 20
420.284438
 30
0.0
 11
1001.966232
 21
420.284038
 31
0.0
  0
LINE
  5
51D
  8
5
  6
CONTINUOUS
 10
1001.966232
 20
420.284038
 30
0.0
 11
1001.967232
 21
395.386738
 31
0.0
  0
LINE
  5
51E
  8
5
  6
CONTINUOUS
 10
1001.967232
 20
395.386738
 30
0.0
 11
1015.745232
 21
395.387138
 31
0.0
  0
LINE
  5
51F
  8
5
  6
CONTINUOUS
 10
1015.745232
 20
395.387138
 30
0.0
 11
1015.744232
 21
420.284438
 31
0.0
  0
LINE
  5
520
  8
5
  6
CONTINUOUS
 10
1015.745232
 20
393.287238
 30
0.0
 11
1001.967232
 21
393.286738
 31
0.0
  0
LINE
  5
521
  8
5
  6
CONTINUOUS
 10
1001.967232
 20
393.286738
 30
0.0
 11
1001.968232
 21
367.220438
 31
0.0
  0
LINE
  5
522
  8
5
  6
CONTINUOUS
 10
1001.968232
 20
367.220438
 30
0.0
 11
1015.746232
 21
367.220838
 31
0.0
  0
LINE
  5
523
  8
5
  6
CONTINUOUS
 10
1015.746232
 20
367.220838
 30
0.0
 11
1015.745232
 21
393.287238
 31
0.0
  0
LINE
  5
524
  8
5
  6
CONTINUOUS
 10
1032.422232
 20
393.287838
 30
0.0
 11
1017.845232
 21
393.287238
 31
0.0
  0
LINE
  5
525
  8
5
  6
CONTINUOUS
 10
1017.845232
 20
393.287238
 30
0.0
 11
1017.846232
 21
367.220838
 31
0.0
  0
LINE
  5
526
  8
5
  6
CONTINUOUS
 10
1017.846232
 20
367.220838
 30
0.0
 11
1022.648232
 21
367.221138
 31
0.0
  0
ARC
  5
527
  8
5
  6
CONTINUOUS
 10
1022.648232
 20
382.049638
 30
0.0
 40
14.82854
 50
270.0018
 51
0.0019
  0
ARC
  5
528
  8
5
  6
CONTINUOUS
 10
1020.662232
 20
381.243738
 30
0.0
 40
16.83332
 50
2.745839
 51
45.68321
  0
LINE
  5
529
  8
5
  6
CONTINUOUS
 10
1017.845232
 20
395.387338
 30
0.0
 11
1029.789232
 21
395.387738
 31
0.0
  0
ARC
  5
52A
  8
5
  6
CONTINUOUS
 10
1020.662232
 20
381.243738
 30
0.0
 40
16.83335
 50
57.16543
 51
82.74766
  0
ARC
  5
52B
  8
5
  6
CONTINUOUS
 10
1019.616232
 20
411.093538
 30
0.0
 40
13.5281
 50
283.5581
 51
354.7072
  0
ARC
  5
52C
  8
5
  6
CONTINUOUS
 10
1022.647232
 20
409.845238
 30
0.0
 40
10.43949
 50
0.001947
 51
90.00195
  0
LINE
  5
52D
  8
5
  6
CONTINUOUS
 10
1022.646232
 20
420.284738
 30
0.0
 11
1017.844232
 21
420.284538
 31
0.0
  0
LINE
  5
52E
  8
5
  6
CONTINUOUS
 10
1017.844232
 20
420.284538
 30
0.0
 11
1017.845232
 21
395.387338
 31
0.0
  0
LINE
  5
52F
  8
5
  6
CONTINUOUS
 10
1047.612232
 20
395.388238
 30
0.0
 11
1061.391232
 21
395.388638
 31
0.0
  0
LINE
  5
530
  8
5
  6
CONTINUOUS
 10
1061.391232
 20
395.388638
 30
0.0
 11
1061.390232
 21
420.286038
 31
0.0
  0
LINE
  5
531
  8
5
  6
CONTINUOUS
 10
1061.390232
 20
420.286038
 30
0.0
 11
1047.611232
 21
420.285538
 31
0.0
  0
LINE
  5
532
  8
5
  6
CONTINUOUS
 10
1047.611232
 20
420.285538
 30
0.0
 11
1047.612232
 21
395.388238
 31
0.0
  0
LINE
  5
533
  8
5
  6
CONTINUOUS
 10
1063.491232
 20
395.388838
 30
0.0
 11
1075.435232
 21
395.389338
 31
0.0
  0
ARC
  5
534
  8
5
  6
CONTINUOUS
 10
1066.308232
 20
381.245238
 30
0.0
 40
16.83342
 50
57.16495
 51
82.74766
  0
ARC
  5
535
  8
5
  6
CONTINUOUS
 10
1065.261232
 20
411.095038
 30
0.0
 40
13.5281
 50
283.5581
 51
354.7072
  0
ARC
  5
536
  8
5
  6
CONTINUOUS
 10
1068.292232
 20
409.846738
 30
0.0
 40
10.43949
 50
0.001947
 51
90.00195
  0
LINE
  5
537
  8
5
  6
CONTINUOUS
 10
1068.292232
 20
420.286238
 30
0.0
 11
1063.490232
 21
420.286138
 31
0.0
  0
LINE
  5
538
  8
5
  6
CONTINUOUS
 10
1063.490232
 20
420.286138
 30
0.0
 11
1063.491232
 21
395.388838
 31
0.0
  0
LINE
  5
539
  8
5
  6
CONTINUOUS
 10
1063.491232
 20
393.288738
 30
0.0
 11
1063.492232
 21
367.222638
 31
0.0
  0
LINE
  5
53A
  8
5
  6
CONTINUOUS
 10
1063.492232
 20
367.222638
 30
0.0
 11
1068.294232
 21
367.222638
 31
0.0
  0
ARC
  5
53B
  8
5
  6
CONTINUOUS
 10
1068.293232
 20
382.051238
 30
0.0
 40
14.82856
 50
270.0024
 51
0.0019
  0
ARC
  5
53C
  8
5
  6
CONTINUOUS
 10
1066.308232
 20
381.245238
 30
0.0
 40
16.83332
 50
2.745839
 51
45.68319
  0
LINE
  5
53D
  8
5
  6
CONTINUOUS
 10
1078.068232
 20
393.289338
 30
0.0
 11
1063.491232
 21
393.288738
 31
0.0
  0
LINE
  5
53E
  8
5
  6
CONTINUOUS
 10
1047.613232
 20
393.288338
 30
0.0
 11
1061.391232
 21
393.288738
 31
0.0
  0
LINE
  5
53F
  8
5
  6
CONTINUOUS
 10
1047.613232
 20
393.288338
 30
0.0
 11
1047.613232
 21
367.221938
 31
0.0
  0
LINE
  5
540
  8
5
  6
CONTINUOUS
 10
1047.613232
 20
367.221938
 30
0.0
 11
1061.392232
 21
367.222438
 31
0.0
  0
LINE
  5
541
  8
5
  6
CONTINUOUS
 10
1061.392232
 20
367.222438
 30
0.0
 11
1061.391232
 21
393.288738
 31
0.0
  0
LINE
  5
542
  8
5
  6
CONTINUOUS
 10
1171.334
 20
280.9903
 30
0.0
 11
1171.334
 21
231.4903
 31
0.0
  0
LINE
  5
543
  8
5
  6
CONTINUOUS
 10
1171.334
 20
553.4903
 30
0.0
 11
1171.334
 21
503.9903
 31
0.0
  0
LINE
  5
544
  8
5
  6
CONTINUOUS
 10
1171.334
 20
503.9903
 30
0.0
 11
1171.334
 21
280.9903
 31
0.0
  0
LINE
  5
545
  8
5
  6
CONTINUOUS
 10
852.3338
 20
553.4903
 30
0.0
 11
901.8338
 21
553.4903
 31
0.0
  0
LINE
  5
546
  8
5
  6
CONTINUOUS
 10
901.8338
 20
553.4903
 30
0.0
 11
1121.834
 21
553.4903
 31
0.0
  0
LINE
  5
547
  8
5
  6
CONTINUOUS
 10
1121.834
 20
553.4903
 30
0.0
 11
1171.334
 21
553.4903
 31
0.0
  0
LINE
  5
548
  8
5
  6
CONTINUOUS
 10
852.3338
 20
503.9903
 30
0.0
 11
852.3338
 21
553.4903
 31
0.0
  0
LINE
  5
549
  8
5
  6
CONTINUOUS
 10
852.3338
 20
231.4903
 30
0.0
 11
852.3338
 21
280.9903
 31
0.0
  0
LINE
  5
54A
  8
5
  6
CONTINUOUS
 10
852.3338
 20
280.9903
 30
0.0
 11
852.3338
 21
503.9903
 31
0.0
  0
LINE
  5
54B
  8
5
  6
CONTINUOUS
 10
897.8338
 20
231.4903
 30
0.0
 11
897.8338
 21
201.4903
 31
0.0
  0
LINE
  5
54C
  8
5
  6
CONTINUOUS
 10
1125.834
 20
201.4903
 30
0.0
 11
1125.834
 21
231.4903
 31
0.0
  0
LINE
  5
54D
  8
5
  6
CONTINUOUS
 10
898.3338
 20
202.4903
 30
0.0
 11
1125.334
 21
202.4903
 31
0.0
  0
LINE
  5
54E
  8
5
  6
CONTINUOUS
 10
898.3338
 20
231.4903
 30
0.0
 11
852.3338
 21
231.4903
 31
0.0
  0
LINE
  5
54F
  8
5
  6
CONTINUOUS
 10
443.1595
 20
938.3939
 30
0.0
 11
440.6594
 21
940.8938
 31
0.0
  0
LINE
  5
550
  8
5
  6
CONTINUOUS
 10
227.1595
 20
938.3939
 30
0.0
 11
229.6595
 21
940.8938
 31
0.0
  0
LINE
  5
551
  8
5
  6
CONTINUOUS
 10
425.1594
 20
938.3939
 30
0.0
 11
425.1595
 21
940.8938
 31
0.0
  0
LINE
  5
552
  8
5
  6
CONTINUOUS
 10
410.1595
 20
940.8938
 30
0.0
 11
410.1595
 21
938.3939
 31
0.0
  0
LINE
  5
553
  8
5
  6
CONTINUOUS
 10
245.1595
 20
938.3939
 30
0.0
 11
245.1595
 21
940.8938
 31
0.0
  0
LINE
  5
554
  8
5
  6
CONTINUOUS
 10
260.1594
 20
938.3939
 30
0.0
 11
260.1595
 21
940.8938
 31
0.0
  0
LINE
  5
555
  8
5
  6
CONTINUOUS
 10
320.1595
 20
940.8938
 30
0.0
 11
320.1595
 21
938.3939
 31
0.0
  0
LINE
  5
556
  8
5
  6
CONTINUOUS
 10
335.1594
 20
938.3939
 30
0.0
 11
335.1595
 21
940.8938
 31
0.0
  0
LINE
  5
557
  8
5
  6
CONTINUOUS
 10
290.1595
 20
940.8938
 30
0.0
 11
290.1595
 21
938.3939
 31
0.0
  0
LINE
  5
558
  8
5
  6
CONTINUOUS
 10
305.1595
 20
938.3939
 30
0.0
 11
305.1595
 21
940.8938
 31
0.0
  0
LINE
  5
559
  8
5
  6
CONTINUOUS
 10
275.1594
 20
938.3939
 30
0.0
 11
275.1595
 21
940.8938
 31
0.0
  0
LINE
  5
55A
  8
5
  6
CONTINUOUS
 10
350.1595
 20
940.8938
 30
0.0
 11
350.1594
 21
938.3939
 31
0.0
  0
LINE
  5
55B
  8
5
  6
CONTINUOUS
 10
365.1594
 20
938.3939
 30
0.0
 11
365.1595
 21
940.8938
 31
0.0
  0
LINE
  5
55C
  8
5
  6
CONTINUOUS
 10
380.1595
 20
940.8938
 30
0.0
 11
380.1595
 21
938.3939
 31
0.0
  0
LINE
  5
55D
  8
5
  6
CONTINUOUS
 10
395.1595
 20
938.3939
 30
0.0
 11
395.1595
 21
940.8938
 31
0.0
  0
LINE
  5
55E
  8
5
  6
CONTINUOUS
 10
1171.334
 20
231.4903
 30
0.0
 11
1125.334
 21
231.4903
 31
0.0
  0
LINE
  5
55F
  8
5
  6
CONTINUOUS
 10
898.3338
 20
265.5592
 30
0.0
 11
898.3338
 21
202.4903
 31
0.0
  0
LINE
  5
560
  8
5
  6
CONTINUOUS
 10
1125.334
 20
202.4903
 30
0.0
 11
1125.334
 21
265.5592
 31
0.0
  0
LINE
  5
561
  8
5
  6
CONTINUOUS
 10
870.3338
 20
231.4903
 30
0.0
 11
870.3338
 21
202.3571
 31
0.0
  0
LINE
  5
562
  8
5
  6
CONTINUOUS
 10
880.8338
 20
231.4903
 30
0.0
 11
880.8337
 21
201.9903
 31
0.0
  0
LINE
  5
563
  8
5
  6
CONTINUOUS
 10
880.8337
 20
585.9903
 30
0.0
 11
870.3338
 21
585.6236
 31
0.0
  0
LINE
  5
564
  8
5
  6
CONTINUOUS
 10
109.1595
 20
1053.294
 30
0.0
 11
120.1595
 21
1053.294
 31
0.0
  0
LINE
  5
565
  8
5
  6
CONTINUOUS
 10
120.1595
 20
1056.294
 30
0.0
 11
109.1595
 21
1056.294
 31
0.0
  0
LINE
  5
566
  8
5
  6
CONTINUOUS
 10
1324.28
 20
201.9903
 30
0.0
 11
1332.834
 21
201.9903
 31
0.0
  0
LINE
  5
568
  8
5
  6
CONTINUOUS
 10
891.3338
 20
231.4903
 30
0.0
 11
891.3338
 21
197.9902
 31
0.0
  0
LINE
  5
569
  8
5
  6
CONTINUOUS
 10
891.3338
 20
197.9902
 30
0.0
 11
1207.941
 21
197.9903
 31
0.0
  0
LINE
  5
56A
  8
5
  6
CONTINUOUS
 10
901.8337
 20
280.9829
 30
0.0
 11
1121.834
 21
280.9829
 31
0.0
  0
LINE
  5
56B
  8
5
  6
CONTINUOUS
 10
1121.834
 20
280.9829
 30
0.0
 11
1121.834
 21
503.9978
 31
0.0
  0
LINE
  5
56C
  8
5
  6
CONTINUOUS
 10
1121.834
 20
503.9978
 30
0.0
 11
901.8262
 21
503.9904
 31
0.0
  0
LINE
  5
56D
  8
5
  6
CONTINUOUS
 10
901.8262
 20
503.9904
 30
0.0
 11
901.8337
 21
280.9829
 31
0.0
  0
LINE
  5
56E
  8
5
  6
CONTINUOUS
 10
1171.334
 20
503.9903
 30
0.0
 11
1121.834
 21
553.4903
 31
0.0
  0
LINE
  5
56F
  8
5
  6
CONTINUOUS
 10
901.8338
 20
553.4903
 30
0.0
 11
852.3338
 21
503.9903
 31
0.0
  0
LINE
  5
570
  8
5
  6
CONTINUOUS
 10
1121.834
 20
503.9978
 30
0.0
 11
1121.834
 21
553.4903
 31
0.0
  0
LINE
  5
571
  8
5
  6
CONTINUOUS
 10
1171.334
 20
503.9903
 30
0.0
 11
1121.834
 21
503.9978
 31
0.0
  0
LINE
  5
572
  8
5
  6
CONTINUOUS
 10
1285.623
 20
953.3938
 30
0.0
 11
1285.623
 21
1002.466
 31
0.0
  0
LINE
  5
573
  8
5
  6
CONTINUOUS
 10
926.6228
 20
1002.466
 30
0.0
 11
926.6228
 21
953.3938
 31
0.0
  0
LINE
  5
574
  8
5
  6
CONTINUOUS
 10
1320.623
 20
938.3938
 30
0.0
 11
1322.929
 21
956.3938
 31
0.0
  0
LINE
  5
575
  8
5
  6
CONTINUOUS
 10
1121.834
 20
280.9829
 30
0.0
 11
1171.334
 21
280.9903
 31
0.0
  0
LINE
  5
576
  8
5
  6
CONTINUOUS
 10
901.8262
 20
503.9904
 30
0.0
 11
852.3338
 21
503.9903
 31
0.0
  0
LINE
  5
577
  8
5
  6
CONTINUOUS
 10
901.8338
 20
553.4903
 30
0.0
 11
901.8262
 21
503.9904
 31
0.0
  0
LINE
  5
578
  8
5
  6
CONTINUOUS
 10
852.3338
 20
280.9903
 30
0.0
 11
901.8337
 21
280.9829
 31
0.0
  0
LINE
  5
579
  8
5
  6
CONTINUOUS
 10
1322.929
 20
956.3938
 30
0.0
 11
1324.85
 21
971.3938
 31
0.0
  0
LINE
  5
57A
  8
5
  6
CONTINUOUS
 10
1324.85
 20
971.3938
 30
0.0
 11
1325.327
 21
975.115
 31
0.0
  0
LINE
  5
57B
  8
5
  6
CONTINUOUS
 10
890.6228
 20
938.3938
 30
0.0
 11
888.3169
 21
956.3938
 31
0.0
  0
LINE
  5
57C
  8
5
  6
CONTINUOUS
 10
888.3169
 20
956.3938
 30
0.0
 11
886.3954
 21
971.3938
 31
0.0
  0
LINE
  5
57D
  8
5
  6
CONTINUOUS
 10
1125.334
 20
234.9903
 30
0.0
 11
1171.334
 21
280.9903
 31
0.0
  0
LINE
  5
57E
  8
5
  6
CONTINUOUS
 10
852.3338
 20
280.9903
 30
0.0
 11
898.3338
 21
234.9903
 31
0.0
  0
LINE
  5
57F
  8
5
  6
CONTINUOUS
 10
1121.834
 20
262.0614
 30
0.0
 11
1121.834
 21
280.9829
 31
0.0
  0
LINE
  5
580
  8
5
  6
CONTINUOUS
 10
1121.834
 20
262.0614
 30
0.0
 11
1125.334
 21
265.5592
 31
0.0
  0
LINE
  5
581
  8
5
  6
CONTINUOUS
 10
898.3338
 20
265.5592
 30
0.0
 11
901.8337
 21
262.0614
 31
0.0
  0
LINE
  5
582
  8
5
  6
CONTINUOUS
 10
901.8337
 20
280.9829
 30
0.0
 11
901.8337
 21
262.0614
 31
0.0
  0
LINE
  5
583
  8
5
  6
CONTINUOUS
 10
901.8337
 20
262.0614
 30
0.0
 11
1121.834
 21
262.0614
 31
0.0
  0
LINE
  5
584
  8
5
  6
CONTINUOUS
 10
886.3954
 20
971.3938
 30
0.0
 11
885.9187
 21
975.115
 31
0.0
  0
LINE
  5
585
  8
5
  6
CONTINUOUS
 10
890.6228
 20
938.3938
 30
0.0
 11
901.6227
 21
938.3937
 31
0.0
  0
LINE
  5
586
  8
5
  6
CONTINUOUS
 10
1310.623
 20
938.3937
 30
0.0
 11
1320.623
 21
938.3938
 31
0.0
  0
LINE
  5
588
  8
5
  6
CONTINUOUS
 10
818.1228
 20
1317.378
 30
0.0
 11
818.1228
 21
990.2416
 31
0.0
  0
LINE
  5
589
  8
5
  6
CONTINUOUS
 10
808.1228
 20
1310.394
 30
0.0
 11
808.1228
 21
997.2633
 31
0.0
  0
LINE
  5
58A
  8
5
  6
CONTINUOUS
 10
808.1228
 20
1057.394
 30
0.0
 11
804.1228
 21
1057.394
 31
0.0
  0
LINE
  5
58B
  8
5
  6
CONTINUOUS
 10
804.1229
 20
1099.639
 30
0.0
 11
804.1229
 21
1057.394
 31
0.0
  0
CIRCLE
  5
58C
  8
5
  6
CONTINUOUS
 10
812.6228
 20
1054.794
 30
0.0
 40
1.5
  0
LINE
  5
58D
  8
5
  6
CONTINUOUS
 10
800.1228
 20
1207.394
 30
0.0
 11
800.1228
 21
1099.394
 31
0.0
  0
LINE
  5
58E
  8
5
  6
CONTINUOUS
 10
1181.623
 20
928.3938
 30
0.0
 11
1181.623
 21
936.3938
 31
0.0
  0
LINE
  5
58F
  8
5
  6
CONTINUOUS
 10
1181.623
 20
936.3938
 30
0.0
 11
1030.623
 21
936.3938
 31
0.0
  0
LINE
  5
590
  8
5
  6
CONTINUOUS
 10
1030.623
 20
936.3938
 30
0.0
 11
1030.623
 21
928.3938
 31
0.0
  0
LINE
  5
591
  8
5
  6
CONTINUOUS
 10
1310.623
 20
953.3938
 30
0.0
 11
1310.623
 21
928.3938
 31
0.0
  0
LINE
  5
592
  8
5
  6
CONTINUOUS
 10
901.6228
 20
928.3938
 30
0.0
 11
901.6228
 21
953.3938
 31
0.0
  0
LINE
  5
593
  8
5
  6
CONTINUOUS
 10
1310.623
 20
953.3938
 30
0.0
 11
901.6228
 21
953.3938
 31
0.0
  0
LINE
  5
594
  8
5
  6
CONTINUOUS
 10
1310.623
 20
928.3938
 30
0.0
 11
1181.623
 21
928.3938
 31
0.0
  0
LINE
  5
595
  8
5
  6
CONTINUOUS
 10
1030.623
 20
928.3938
 30
0.0
 11
901.6228
 21
928.3938
 31
0.0
  0
LINE
  5
596
  8
5
  6
CONTINUOUS
 10
1188.623
 20
1020.494
 30
0.0
 11
1188.623
 21
953.3938
 31
0.0
  0
LINE
  5
597
  8
5
  6
CONTINUOUS
 10
1023.623
 20
953.3938
 30
0.0
 11
1023.623
 21
1020.494
 31
0.0
  0
LINE
  5
599
  8
5
  6
CONTINUOUS
 10
1320.623
 20
938.3937
 30
0.0
 11
1320.623
 21
994.6488
 31
0.0
  0
LINE
  5
59D
  8
5
  6
CONTINUOUS
 10
890.6227
 20
994.6488
 30
0.0
 11
890.6227
 21
938.3937
 31
0.0
  0
LINE
  5
59E
  8
5
  6
CONTINUOUS
 10
880.6227
 20
1345.394
 30
0.0
 11
870.1228
 21
1345.027
 31
0.0
  0
LINE
  5
59F
  8
5
  6
CONTINUOUS
 10
870.1228
 20
1345.027
 30
0.0
 11
870.1228
 21
961.7605
 31
0.0
  0
LINE
  5
5A0
  8
5
  6
CONTINUOUS
 10
870.1228
 20
961.7605
 30
0.0
 11
880.6227
 21
961.3938
 31
0.0
  0
LINE
  5
5A1
  8
5
  6
CONTINUOUS
 10
880.6227
 20
1153.394
 30
0.0
 11
880.6227
 21
961.3938
 31
0.0
  0
LINE
  5
5A2
  8
5
  6
CONTINUOUS
 10
880.6227
 20
1345.394
 30
0.0
 11
880.6227
 21
1153.394
 31
0.0
  0
LINE
  5
5A3
  8
5
  6
CONTINUOUS
 10
890.6227
 20
994.6488
 30
0.0
 11
926.6227
 21
994.6488
 31
0.0
  0
LINE
  5
5A4
  8
5
  6
CONTINUOUS
 10
1285.623
 20
994.6488
 30
0.0
 11
1320.623
 21
994.6488
 31
0.0
  0
LINE
  5
5A5
  8
5
  6
CONTINUOUS
 10
926.6228
 20
1002.466
 30
0.0
 11
1023.623
 21
1002.466
 31
0.0
  0
LINE
  5
5A6
  8
5
  6
CONTINUOUS
 10
1188.623
 20
1002.466
 30
0.0
 11
1285.623
 21
1002.466
 31
0.0
  0
LINE
  5
5A7
  8
5
  6
CONTINUOUS
 10
808.1228
 20
997.2633
 30
0.0
 11
818.1228
 21
997.2632
 31
0.0
  0
LINE
  5
5A8
  8
5
  6
CONTINUOUS
 10
870.1228
 20
1345.027
 30
0.0
 11
818.1228
 21
1317.378
 31
0.0
  0
LINE
  5
5A9
  8
5
  6
CONTINUOUS
 10
818.1228
 20
990.2416
 30
0.0
 11
870.1228
 21
961.7605
 31
0.0
  0
LINE
  5
5AA
  8
5
  6
CONTINUOUS
 10
818.1228
 20
1310.394
 30
0.0
 11
808.1228
 21
1310.394
 31
0.0
  0
LINE
  5
5AB
  8
5
  6
CONTINUOUS
 10
800.1227
 20
1099.394
 30
0.0
 11
804.1229
 21
1093.681
 31
0.0
  0
LINE
  5
5AC
  8
5
  6
CONTINUOUS
 10
808.1228
 20
1218.819
 30
0.0
 11
800.1228
 21
1207.394
 31
0.0
  0
LINE
  5
5AD
  8
5
  6
CONTINUOUS
 10
880.6227
 20
961.3938
 30
0.0
 11
887.6747
 21
961.3938
 31
0.0
  0
LINE
  5
5AE
  8
5
  6
CONTINUOUS
 10
890.8196
 20
1345.394
 30
0.0
 11
880.6227
 21
1345.394
 31
0.0
  0
LINE
  5
5AF
  8
5
  6
CONTINUOUS
 10
1323.571
 20
961.3938
 30
0.0
 11
1332.623
 21
961.3938
 31
0.0
  0
LINE
  5
5B0
  8
5
  6
CONTINUOUS
 10
1172.162
 20
1345.394
 30
0.0
 11
1132.428
 21
1345.394
 31
0.0
  0
LINE
  5
5B1
  8
5
  6
CONTINUOUS
 10
1332.623
 20
1345.394
 30
0.0
 11
1324.069
 21
1345.394
 31
0.0
  0
LINE
  5
5B2
  8
5
  6
CONTINUOUS
 10
818.3338
 20
557.9748
 30
0.0
 11
818.3338
 21
393.9903
 31
0.0
  0
LINE
  5
5B3
  8
5
  6
CONTINUOUS
 10
818.3338
 20
393.9903
 30
0.0
 11
818.3338
 21
230.0059
 31
0.0
  0
LINE
  5
5B4
  8
5
  6
CONTINUOUS
 10
808.3338
 20
550.9903
 30
0.0
 11
808.3338
 21
393.9903
 31
0.0
  0
LINE
  5
5B5
  8
5
  6
CONTINUOUS
 10
808.3338
 20
393.9903
 30
0.0
 11
808.3337
 21
236.9903
 31
0.0
  0
LINE
  5
5B6
  8
5
  6
CONTINUOUS
 10
812.8338
 20
167.9903
 30
0.0
 11
814.3338
 21
167.9903
 31
0.0
  0
LINE
  5
5B7
  8
5
  6
CONTINUOUS
 10
811.3338
 20
167.9903
 30
0.0
 11
812.8338
 21
167.9903
 31
0.0
  0
LINE
  5
5B8
  8
5
  6
CONTINUOUS
 10
800.3338
 20
393.9903
 30
0.0
 11
800.3338
 21
339.9903
 31
0.0
  0
LINE
  5
5B9
  8
5
  6
CONTINUOUS
 10
800.3338
 20
447.9903
 30
0.0
 11
800.3338
 21
393.9903
 31
0.0
  0
LINE
  5
5BA
  8
5
  6
CONTINUOUS
 10
1310.834
 20
178.9903
 30
0.0
 11
1310.834
 21
177.9903
 31
0.0
  0
LINE
  5
5BB
  8
5
  6
CONTINUOUS
 10
901.8338
 20
177.9903
 30
0.0
 11
901.8338
 21
178.9903
 31
0.0
  0
LINE
  5
5BC
  8
5
  6
CONTINUOUS
 10
1310.834
 20
177.9903
 30
0.0
 11
901.8338
 21
177.9903
 31
0.0
  0
LINE
  5
5BD
  8
5
  6
CONTINUOUS
 10
1310.834
 20
608.9903
 30
0.0
 11
1310.834
 21
610.9903
 31
0.0
  0
LINE
  5
5BE
  8
5
  6
CONTINUOUS
 10
901.8338
 20
610.9903
 30
0.0
 11
901.8338
 21
608.9903
 31
0.0
  0
LINE
  5
5BF
  8
5
  6
CONTINUOUS
 10
1310.834
 20
610.9903
 30
0.0
 11
901.8338
 21
610.9903
 31
0.0
  0
LINE
  5
5C0
  8
5
  6
CONTINUOUS
 10
1188.834
 20
610.4903
 30
0.0
 11
1188.834
 21
608.9904
 31
0.0
  0
LINE
  5
5C1
  8
5
  6
CONTINUOUS
 10
1188.834
 20
178.9904
 30
0.0
 11
1188.834
 21
178.4903
 31
0.0
  0
LINE
  5
5C2
  8
5
  6
CONTINUOUS
 10
1023.834
 20
608.9904
 30
0.0
 11
1023.834
 21
610.4903
 31
0.0
  0
LINE
  5
5C3
  8
5
  6
CONTINUOUS
 10
1023.834
 20
178.4903
 30
0.0
 11
1023.834
 21
178.9904
 31
0.0
  0
LINE
  5
5C4
  8
5
  6
CONTINUOUS
 10
870.3338
 20
585.6236
 30
0.0
 11
870.3338
 21
553.4903
 31
0.0
  0
LINE
  5
5C5
  8
5
  6
CONTINUOUS
 10
870.3338
 20
202.3571
 30
0.0
 11
880.8337
 21
201.9903
 31
0.0
  0
LINE
  5
5C6
  8
5
  6
CONTINUOUS
 10
880.8337
 20
585.9903
 30
0.0
 11
880.8338
 21
553.4903
 31
0.0
  0
LINE
  5
5C7
  8
5
  6
CONTINUOUS
 10
1023.834
 20
178.4902
 30
0.0
 11
1188.834
 21
178.4902
 31
0.0
  0
LINE
  5
5C8
  8
5
  6
CONTINUOUS
 10
1023.834
 20
610.4903
 30
0.0
 11
1188.834
 21
610.4903
 31
0.0
  0
LINE
  5
5C9
  8
5
  6
CONTINUOUS
 10
870.3338
 20
585.6236
 30
0.0
 11
818.3338
 21
557.9748
 31
0.0
  0
LINE
  5
5CA
  8
5
  6
CONTINUOUS
 10
818.3338
 20
230.0059
 30
0.0
 11
870.3338
 21
202.3571
 31
0.0
  0
LINE
  5
5CB
  8
5
  6
CONTINUOUS
 10
808.3337
 20
236.9903
 30
0.0
 11
818.3338
 21
236.9903
 31
0.0
  0
LINE
  5
5CC
  8
5
  6
CONTINUOUS
 10
818.3338
 20
550.9904
 30
0.0
 11
808.3338
 21
550.9903
 31
0.0
  0
LINE
  5
5CD
  8
5
  6
CONTINUOUS
 10
800.3338
 20
339.9903
 30
0.0
 11
808.3338
 21
328.5651
 31
0.0
  0
LINE
  5
5CE
  8
5
  6
CONTINUOUS
 10
808.3338
 20
459.4155
 30
0.0
 11
800.3338
 21
447.9903
 31
0.0
  0
LINE
  5
5CF
  8
5
  6
CONTINUOUS
 10
811.3338
 20
236.9903
 30
0.0
 11
811.3338
 21
167.9904
 31
0.0
  0
LINE
  5
5D0
  8
5
  6
CONTINUOUS
 10
814.3337
 20
167.9904
 30
0.0
 11
814.3338
 21
236.9903
 31
0.0
  0
LINE
  5
5D1
  8
6
  6
CENTER
 10
1950.534
 20
956.7604
 30
0.0
 11
1950.534
 21
1350.027
 31
0.0
  0
LINE
  5
5D2
  8
6
  6
CENTER
 10
1753.901
 20
1153.394
 30
0.0
 11
2147.168
 21
1153.394
 31
0.0
  0
LINE
  5
5D3
  8
7
  6
DASHED
 10
2137.784
 20
928.3938
 30
0.0
 11
2137.784
 21
953.3938
 31
0.0
  0
LINE
  5
5D4
  8
7
  6
DASHED
 10
2119.284
 20
928.3938
 30
0.0
 11
2119.284
 21
953.3938
 31
0.0
  0
LINE
  5
5D5
  8
7
  6
DASHED
 10
1781.784
 20
928.3938
 30
0.0
 11
1781.784
 21
953.3938
 31
0.0
  0
LINE
  5
5D6
  8
7
  6
DASHED
 10
1763.284
 20
928.3938
 30
0.0
 11
1763.284
 21
953.3938
 31
0.0
  0
LINE
  5
5D7
  8
7
  6
DASHED
 10
1260.373
 20
928.3938
 30
0.0
 11
1260.373
 21
953.3938
 31
0.0
  0
LINE
  5
5D8
  8
7
  6
DASHED
 10
1241.873
 20
928.3938
 30
0.0
 11
1241.873
 21
953.3938
 31
0.0
  0
LINE
  5
5D9
  8
7
  6
DASHED
 10
1235.373
 20
928.3938
 30
0.0
 11
1235.373
 21
953.3938
 31
0.0
  0
LINE
  5
5DA
  8
7
  6
DASHED
 10
1216.873
 20
928.3938
 30
0.0
 11
1216.873
 21
953.3938
 31
0.0
  0
LINE
  5
5DB
  8
7
  6
DASHED
 10
930.8727
 20
928.3938
 30
0.0
 11
930.8727
 21
953.3938
 31
0.0
  0
LINE
  5
5DC
  8
7
  6
DASHED
 10
949.3728
 20
928.3938
 30
0.0
 11
949.3728
 21
953.3938
 31
0.0
  0
LINE
  5
5DD
  8
7
  6
DASHED
 10
147.9094
 20
928.3938
 30
0.0
 11
147.9094
 21
953.3938
 31
0.0
  0
LINE
  5
5DE
  8
7
  6
DASHED
 10
166.4094
 20
928.3938
 30
0.0
 11
166.4094
 21
953.3938
 31
0.0
  0
LINE
  5
5DF
  8
7
  6
DASHED
 10
503.9094
 20
928.3938
 30
0.0
 11
503.9094
 21
953.3938
 31
0.0
  0
LINE
  5
5E0
  8
7
  6
DASHED
 10
522.4095
 20
928.3938
 30
0.0
 11
522.4095
 21
953.3938
 31
0.0
  0
LINE
  5
5E1
  8
6
  6
CENTER
 10
2128.534
 20
920.8938
 30
0.0
 11
2128.534
 21
960.8938
 31
0.0
  0
LINE
  5
5E2
  8
6
  6
CENTER
 10
1772.534
 20
920.8938
 30
0.0
 11
1772.534
 21
960.8938
 31
0.0
  0
LINE
  5
5E3
  8
6
  6
CENTER
 10
940.1228
 20
920.8938
 30
0.0
 11
940.1228
 21
960.8938
 31
0.0
  0
LINE
  5
5E4
  8
6
  6
CENTER
 10
1226.123
 20
920.8938
 30
0.0
 11
1226.123
 21
960.8938
 31
0.0
  0
LINE
  5
5E5
  8
6
  6
CENTER
 10
1251.123
 20
920.8938
 30
0.0
 11
1251.123
 21
960.8938
 31
0.0
  0
LINE
  5
5E6
  8
5
  6
CENTER
 10
157.1594
 20
920.8938
 30
0.0
 11
157.1594
 21
960.8938
 31
0.0
  0
LINE
  5
5E7
  8
6
  6
CENTER
 10
513.1594
 20
920.8938
 30
0.0
 11
513.1594
 21
960.8938
 31
0.0
  0
LINE
  5
5ED
  8
0
  6
CONTINUOUS
 10
784.1229
 20
1183.394
 30
0.0
 11
775.1227
 21
1182.012
 31
0.0
  0
LINE
  5
5EE
  8
0
  6
CONTINUOUS
 10
658.1228
 20
1183.394
 30
0.0
 11
667.1227
 21
1182.012
 31
0.0
  0
LINE
  5
5F6
  8
6
  6
CENTER
 10
1121.834
 20
393.9903
 30
0.0
 11
1546.834
 21
393.9903
 31
0.0
  0
ENDSEC
  0
EOF
