  0
SECTION
  2
HEADER
  9
$ACADVER
  1
AC1009
  9
$DWGCODEPAGE
  3
iso8859-1
  9
$INSBASE
 10
0.0
 20
0.0
 30
0.0
  9
$EXTMIN
 10
1.0E20
 20
1.0E20
  9
$EXTMAX
 10
-1.0E20
 20
-1.0E20
  9
$LIMMIN
 10
0.0
 20
0.0
  9
$LIMMAX
 10
12.0
 20
9.0
  9
$ORTHOMODE
 70
     0
  9
$REGENMODE
 70
     1
  9
$FILLMODE
 70
     1
  9
$QTEXTMODE
 70
     0
  9
$MIRRTEXT
 70
     1
  9
$DRAGMODE
 70
     2
  9
$LTSCALE
 40
15.0
  9
$OSMODE
 70
     0
  9
$ATTMODE
 70
     1
  9
$TEXTSIZE
 40
0.2
  9
$TRACEWID
 40
0.05
  9
$TEXTSTYLE
  7
STANDARD
  9
$CLAYER
  8
0
  9
$CELTYPE
  6
DASHED
  9
$CECOLOR
 62
   256
  9
$DIMSCALE
 40
1.0
  9
$DIMASZ
 40
0.18
  9
$DIMEXO
 40
0.0625
  9
$DIMDLI
 40
0.38
  9
$DIMRND
 40
0.0
  9
$DIMDLE
 40
0.0
  9
$DIMEXE
 40
0.18
  9
$DIMTP
 40
0.0
  9
$DIMTM
 40
0.0
  9
$DIMTXT
 40
0.18
  9
$DIMCEN
 40
0.09
  9
$DIMTSZ
 40
0.0
  9
$DIMTOL
 70
     0
  9
$DIMLIM
 70
     0
  9
$DIMTIH
 70
     1
  9
$DIMTOH
 70
     1
  9
$DIMSE1
 70
     0
  9
$DIMSE2
 70
     0
  9
$DIMTAD
 70
     0
  9
$DIMZIN
 70
     0
  9
$DIMBLK
  1

  9
$DIMASO
 70
     1
  9
$DIMSHO
 70
     1
  9
$DIMPOST
  1

  9
$DIMAPOST
  1

  9
$DIMALT
 70
     0
  9
$DIMALTD
 70
     2
  9
$DIMALTF
 40
25.4
  9
$DIMLFAC
 40
1.0
  9
$DIMTOFL
 70
     0
  9
$DIMTVP
 40
0.0
  9
$DIMTIX
 70
     0
  9
$DIMSOXD
 70
     0
  9
$DIMSAH
 70
     0
  9
$DIMBLK1
  1

  9
$DIMBLK2
  1

  9
$DIMSTYLE
  2
STANDARD
  9
$DIMCLRD
 70
     0
  9
$DIMCLRE
 70
     0
  9
$DIMCLRT
 70
     0
  9
$DIMTFAC
 40
1.0
  9
$DIMGAP
 40
0.09
  9
$LUNITS
 70
     2
  9
$LUPREC
 70
     4
  9
$AXISMODE
 70
     0
  9
$AXISUNIT
 10
0.0
 20
0.0
  9
$SKETCHINC
 40
0.1
  9
$FILLETRAD
 40
0.0
  9
$AUNITS
 70
     0
  9
$AUPREC
 70
     0
  9
$MENU
  1
acad
  9
$ELEVATION
 40
0.0
  9
$PELEVATION
 40
0.0
  9
$THICKNESS
 40
0.0
  9
$LIMCHECK
 70
     0
  9
$BLIPMODE
 70
     1
  9
$CHAMFERA
 40
0.0
  9
$CHAMFERB
 40
0.0
  9
$SKPOLY
 70
     0
  9
$TDCREATE
 40
0.000000000
  9
$TDUPDATE
 40
0.000000000
  9
$TDINDWG
 40
0.0
  9
$TDUSRTIMER
 40
0.0
  9
$USRTIMER
 70
     1
  9
$ANGBASE
 50
0.0
  9
$ANGDIR
 70
     0
  9
$PDMODE
 70
     0
  9
$PDSIZE
 40
0.0
  9
$PLINEWID
 40
0.0
  9
$COORDS
 70
     1
  9
$SPLFRAME
 70
     0
  9
$SPLINETYPE
 70
     6
  9
$SPLINESEGS
 70
     8
  9
$ATTDIA
 70
     0
  9
$ATTREQ
 70
     1
  9
$HANDLING
 70
     1
  9
$HANDSEED
  5
   765
  9
$SURFTAB1
 70
     6
  9
$SURFTAB2
 70
     6
  9
$SURFTYPE
 70
     6
  9
$SURFU
 70
     6
  9
$SURFV
 70
     6
  9
$UCSNAME
  2

  9
$UCSORG
 10
0.0
 20
0.0
 30
0.0
  9
$UCSXDIR
 10
1.0
 20
0.0
 30
0.0
  9
$UCSYDIR
 10
0.0
 20
1.0
 30
0.0
  9
$PUCSNAME
  2

  9
$PUCSORG
 10
0.0
 20
0.0
 30
0.0
  9
$PUCSXDIR
 10
1.0
 20
0.0
 30
0.0
  9
$PUCSYDIR
 10
0.0
 20
1.0
 30
0.0
  9
$USERI1
 70
     0
  9
$USERI2
 70
     0
  9
$USERI3
 70
     0
  9
$USERI4
 70
     0
  9
$USERI5
 70
     0
  9
$USERR1
 40
0.0
  9
$USERR2
 40
0.0
  9
$USERR3
 40
0.0
  9
$USERR4
 40
0.0
  9
$USERR5
 40
0.0
  9
$WORLDVIEW
 70
     1
  9
$SHADEDGE
 70
     3
  9
$SHADEDIF
 70
    70
  9
$TILEMODE
 70
     1
  9
$MAXACTVP
 70
    16
  9
$PINSBASE
 10
0.0
 20
0.0
 30
0.0
  9
$PLIMCHECK
 70
     0
  9
$PEXTMIN
 10
1.0E20
 20
1.0E20
 30
1.0E20
  9
$PEXTMAX
 10
-1.0E20
 20
-1.0E20
 30
-1.0E20
  9
$PLIMMIN
 10
0.0
 20
0.0
  9
$PLIMMAX
 10
12.0
 20
9.0
  9
$UNITMODE
 70
     0
  9
$VISRETAIN
 70
     0
  0
ENDSEC
  0
SECTION
  2
TABLES
  0
TABLE
  2
VPORT
 70
     1
  0
VPORT
  2
*ACTIVE
 70
     0
 10
0.0
 20
0.0
 11
1.0
 21
1.0
 12
6.801242
 22
4.5
 13
0.0
 23
0.0
 14
1.0
 24
1.0
 15
0.0
 25
0.0
 16
0.0
 26
0.0
 36
1.0
 17
0.0
 27
0.0
 37
0.0
 40
9.0
 41
1.511387
 42
50.0
 43
0.0
 44
0.0
 50
0.0
 51
0.0
 71
     0
 72
   100
 73
     1
 74
     1
 75
     0
 76
     0
 77
     0
 78
     0
  0
ENDTAB
  0
TABLE
  2
LTYPE
 70
    41
  0
LTYPE
  2
BYBLOCK
 70
     0
  3

 72
    65
 73
     0
 40
0.0
  0
LTYPE
  2
BYLAYER
 70
     0
  3

 72
    65
 73
     0
 40
0.0
  0
LTYPE
  2
CONTINUOUS
 70
     0
  3
Solid line
 72
    65
 73
     0
 40
0.0
  0
LTYPE
  2
BORDER
 70
    64
  3
__ __ . __ __ . __ __ . __ __ . __ __ . __ __ .
 72
    65
 73
     6
 40
1.75
 49
0.5
 49
-0.25
 49
0.5
 49
-0.25
 49
0.0
 49
-0.25
  0
LTYPE
  2
BORDER2
 70
    64
  3
__.__.__.__.__.__.__.__.__.__.__.__.__.__.__.__
 72
    65
 73
     6
 40
0.875
 49
0.25
 49
-0.125
 49
0.25
 49
-0.125
 49
0.0
 49
-0.125
  0
LTYPE
  2
BORDERX2
 70
    64
  3
____  ____  .  ____  ____  .  ____  ____  .  __
 72
    65
 73
     6
 40
3.5
 49
1.0
 49
-0.5
 49
1.0
 49
-0.5
 49
0.0
 49
-0.5
  0
LTYPE
  2
CENTER
 70
    64
  3
____ _ ____ _ ____ _ ____ _ ____ _ ____ _ ____
 72
    65
 73
     4
 40
2.0
 49
1.25
 49
-0.25
 49
0.25
 49
-0.25
  0
LTYPE
  2
CENTER2
 70
    64
  3
___ _ ___ _ ___ _ ___ _ ___ _ ___ _ ___ _ ___ _
 72
    65
 73
     4
 40
1.125
 49
0.75
 49
-0.125
 49
0.125
 49
-0.125
  0
LTYPE
  2
CENTERX2
 70
    64
  3
________  __  ________  __  ________  __  _____
 72
    65
 73
     4
 40
4.0
 49
2.5
 49
-0.5
 49
0.5
 49
-0.5
  0
LTYPE
  2
DASHDOT
 70
    64
  3
__ . __ . __ . __ . __ . __ . __ . __ . __ . __
 72
    65
 73
     4
 40
1.0
 49
0.5
 49
-0.25
 49
0.0
 49
-0.25
  0
LTYPE
  2
DASHDOT2
 70
    64
  3
_._._._._._._._._._._._._._._._._._._._._._._._
 72
    65
 73
     4
 40
0.5
 49
0.25
 49
-0.125
 49
0.0
 49
-0.125
  0
LTYPE
  2
DASHDOTX2
 70
    64
  3
____  .  ____  .  ____  .  ____  .  ____  .  __
 72
    65
 73
     4
 40
2.0
 49
1.0
 49
-0.5
 49
0.0
 49
-0.5
  0
LTYPE
  2
DASHED
 70
    64
  3
__ __ __ __ __ __ __ __ __ __ __ __ __ __ __ __
 72
    65
 73
     2
 40
0.75
 49
0.5
 49
-0.25
  0
LTYPE
  2
DASHED2
 70
    64
  3
_ _ _ _ _ _ _ _ _ _ _ _ _ _ _ _ _ _ _ _ _ _ _ _
 72
    65
 73
     2
 40
0.375
 49
0.25
 49
-0.125
  0
LTYPE
  2
DASHEDX2
 70
    64
  3
____  ____  ____  ____  ____  ____  ____  ____
 72
    65
 73
     2
 40
1.5
 49
1.0
 49
-0.5
  0
LTYPE
  2
DIVIDE
 70
    64
  3
____ . . ____ . . ____ . . ____ . . ____ . . __
 72
    65
 73
     6
 40
1.25
 49
0.5
 49
-0.25
 49
0.0
 49
-0.25
 49
0.0
 49
-0.25
  0
LTYPE
  2
DIVIDE2
 70
    64
  3
__..__..__..__..__..__..__..__..__..__..__..__.
 72
    65
 73
     6
 40
0.625
 49
0.25
 49
-0.125
 49
0.0
 49
-0.125
 49
0.0
 49
-0.125
  0
LTYPE
  2
DIVIDEX2
 70
    64
  3
________  .  .  ________  .  .  ________  .  .
 72
    65
 73
     6
 40
2.5
 49
1.0
 49
-0.5
 49
0.0
 49
-0.5
 49
0.0
 49
-0.5
  0
LTYPE
  2
DOT
 70
    64
  3
. . . . . . . . . . . . . . . . . . . . . . . .
 72
    65
 73
     2
 40
0.25
 49
0.0
 49
-0.25
  0
LTYPE
  2
DOT2
 70
    64
  3
...............................................
 72
    65
 73
     2
 40
0.125
 49
0.0
 49
-0.125
  0
LTYPE
  2
DOTX2
 70
    64
  3
.  .  .  .  .  .  .  .  .  .  .  .  .  .  .  .
 72
    65
 73
     2
 40
0.5
 49
0.0
 49
-0.5
  0
LTYPE
  2
HIDDEN
 70
    64
  3
__ __ __ __ __ __ __ __ __ __ __ __ __ __ __ __
 72
    65
 73
     2
 40
0.375
 49
0.25
 49
-0.125
  0
LTYPE
  2
HIDDEN2
 70
    64
  3
_ _ _ _ _ _ _ _ _ _ _ _ _ _ _ _ _ _ _ _ _ _ _ _
 72
    65
 73
     2
 40
0.1875
 49
0.125
 49
-0.0625
  0
LTYPE
  2
HIDDENX2
 70
    64
  3
____ ____ ____ ____ ____ ____ ____ ____ ____ __
 72
    65
 73
     2
 40
0.75
 49
0.5
 49
-0.25
  0
LTYPE
  2
PHANTOM
 70
    64
  3
______  __  __  ______  __  __  ______  __  __
 72
    65
 73
     6
 40
2.5
 49
1.25
 49
-0.25
 49
0.25
 49
-0.25
 49
0.25
 49
-0.25
  0
LTYPE
  2
PHANTOM2
 70
    64
  3
___ _ _ ___ _ _ ___ _ _ ___ _ _ ___ _ _ ___ _ _
 72
    65
 73
     6
 40
1.25
 49
0.625
 49
-0.125
 49
0.125
 49
-0.125
 49
0.125
 49
-0.125
  0
LTYPE
  2
PHANTOMX2
 70
    64
  3
____________    ____    ____    ____________
 72
    65
 73
     6
 40
5.0
 49
2.5
 49
-0.5
 49
0.5
 49
-0.5
 49
0.5
 49
-0.5
  0
LTYPE
  2
ACAD_ISO02W100
 70
    64
  3
__ __ __ __ __ __ __ __ __ __ __ __ __ __ __ __
 72
    65
 73
     2
 40
15.0
 49
12.0
 49
-3.0
  0
LTYPE
  2
ACAD_ISO03W100
 70
    64
  3
__    __    __    __    __    __    __    __
 72
    65
 73
     2
 40
30.0
 49
12.0
 49
-18.0
  0
LTYPE
  2
ACAD_ISO04W100
 70
    64
  3
____ . ____ . ____ . ____ . ____ . ____ . ____
 72
    65
 73
     4
 40
30.5
 49
24.0
 49
-3.0
 49
0.5
 49
-3.0
  0
LTYPE
  2
ACAD_ISO05W100
 70
    64
  3
____ .. ____ .. ____ .. ____ .. ____ .. ____ ..
 72
    65
 73
     6
 40
34.0
 49
24.0
 49
-3.0
 49
0.5
 49
-3.0
 49
0.5
 49
-3.0
  0
LTYPE
  2
ACAD_ISO06W100
 70
    64
  3
____ ... ____ ... ____ ... ____ ... ____ ... __
 72
    65
 73
     8
 40
37.5
 49
24.0
 49
-3.0
 49
0.5
 49
-3.0
 49
0.5
 49
-3.0
 49
0.5
 49
-3.0
  0
LTYPE
  2
ACAD_ISO07W100
 70
    64
  3
. . . . . . . . . . . . . . . . . . . . . . . .
 72
    65
 73
     2
 40
3.5
 49
0.5
 49
-3.0
  0
LTYPE
  2
ACAD_ISO08W100
 70
    64
  3
____ __ ____ __ ____ __ ____ ____ __ __ ____ __
 72
    65
 73
     4
 40
36.0
 49
24.0
 49
-3.0
 49
6.0
 49
-3.0
  0
LTYPE
  2
ACAD_ISO09W100
 70
    64
  3
____ __ __ ____ __ __ ____ __ __ ____ __ __ ___
 72
    65
 73
     6
 40
45.0
 49
24.0
 49
-3.0
 49
6.0
 49
-3.0
 49
6.0
 49
-3.0
  0
LTYPE
  2
ACAD_ISO10W100
 70
    64
  3
__ . __ . __ . __ . __ . __ . __ . __ . __ . __
 72
    65
 73
     4
 40
18.5
 49
12.0
 49
-3.0
 49
0.5
 49
-3.0
  0
LTYPE
  2
ACAD_ISO11W100
 70
    64
  3
__ __ . __ __ . __ __ . __ __ . __ __ . __ __ .
 72
    65
 73
     6
 40
33.5
 49
12.0
 49
-3.0
 49
12.0
 49
-3.0
 49
0.5
 49
-3.0
  0
LTYPE
  2
ACAD_ISO12W100
 70
    64
  3
__ . . __ . . __ . . __ . . __ . . __ . . __ .
 72
    65
 73
     6
 40
22.0
 49
12.0
 49
-3.0
 49
0.5
 49
-3.0
 49
0.5
 49
-3.0
  0
LTYPE
  2
ACAD_ISO13W100
 70
    64
  3
__ __ . . __ __ . . __ __ . . __ __ . . __ __ .
 72
    65
 73
     8
 40
37.0
 49
12.0
 49
-3.0
 49
12.0
 49
-3.0
 49
0.5
 49
-3.0
 49
0.5
 49
-3.0
  0
LTYPE
  2
ACAD_ISO14W100
 70
    64
  3
__ . . . __ . . . __ . . . __ . . . __ . . . __
 72
    65
 73
     8
 40
25.5
 49
12.0
 49
-3.0
 49
0.5
 49
-3.0
 49
0.5
 49
-3.0
 49
0.5
 49
-3.0
  0
LTYPE
  2
ACAD_ISO15W100
 70
    64
  3
__ __ . . . __ __ . . . __ __ . . . __ __ . . .
 72
    65
 73
    10
 40
40.5
 49
12.0
 49
-3.0
 49
12.0
 49
-3.0
 49
0.5
 49
-3.0
 49
0.5
 49
-3.0
 49
0.5
 49
-3.0
  0
ENDTAB
  0
TABLE
  2
STYLE
 70
     4
  0
STYLE
  2
STANDARD
 70
    64
 40
0.0
 41
1.0
 50
0.0
 71
     0
 42
0.2
  3
txt
  4

  0
STYLE
  2
TOLERANCE
 70
    64
 40
0.0
 41
1.0
 50
0.0
 71
     0
 42
0.2
  3
../igesfont/iges1003.shx
  4

  0
STYLE
  2
ROMANS
 70
    64
 40
0.0
 41
1.0
 50
0.0
 71
     0
 42
0.2
  3
romans.shx
  4

  0
STYLE
  2
ROMANC
 70
    64
 40
0.0
 41
1.0
 50
0.0
 71
     0
 42
0.2
  3
romanc.shx
  4

  0
ENDTAB
  0
TABLE
  2
DIMSTYLE
 70
     2
  0
DIMSTYLE
  2
UNNAMED
 70
     0
  3

  4

  5

  6

  7

 40
1.0
 41
0.18
 42
0.0625
 43
0.38
 44
0.18
 45
0.0
 46
0.0
 47
0.0
 48
0.0
140
0.18
141
0.09
142
0.0
143
25.4
144
1.0
145
0.0
146
1.0
147
0.09
 71
     0
 72
     0
 73
     1
 74
     1
 75
     0
 76
     0
 77
     0
 78
     0
170
     0
171
     2
172
     0
173
     0
174
     0
175
     0
176
     0
177
     0
178
     0
  0
DIMSTYLE
  2
STANDARD
 70
     0
  3

  4

  5

  6

  7

 40
1.0
 41
0.18
 42
0.0625
 43
0.38
 44
0.18
 45
0.0
 46
0.0
 47
0.0
 48
0.0
140
0.18
141
0.09
142
0.0
143
25.4
144
1.0
145
0.0
146
1.0
147
0.09
 71
     0
 72
     0
 73
     1
 74
     1
 75
     0
 76
     0
 77
     0
 78
     0
170
     0
171
     2
172
     0
173
     0
174
     0
175
     0
176
     0
177
     0
178
     0
  0
ENDTAB
  0
TABLE
  2
LAYER
 70
     2
  0
LAYER
  2
0
 70
     0
 62
     7
  6
CONTINUOUS
  0
LAYER
  2
255
 70
     0
 62
     7
  6
CONTINUOUS
  0
ENDTAB
  0
ENDSEC
  0
SECTION
  2
BLOCKS
  0
BLOCK
  5
     B
  8
0
  6
CONTINUOUS
 62
     7
  2
*UDIM140
 70
    65
 10
0.0
 20
0.0
 30
0.0
  3
*UDIM140
  0
TEXT
  5
     C
  8
0
  6
CONTINUOUS
 62
     7
 10
-1081.58143805847
 20
-132.725601013783
 30
0.0
 40
2.99999994933605
  1
105,25
 50
449.999999896069
 41
0.933333333333333
 72
     1
 11
-1083.0814380185
 21
-124.625601147864
 31
0.0
 73
     2
  0
LINE
  5
     D
  8
0
  6
CONTINUOUS
 62
     7
 10
-1070.32800845733
 20
-114.475320115685
 30
0.0
 11
-1082.58143804383
 21
-114.475320115685
 31
0.0
  0
LINE
  5
     E
  8
0
  6
CONTINUOUS
 62
     7
 10
-1080.58143804383
 20
-114.475320115685
 30
0.0
 11
-1080.58143804383
 21
-135.525320429355
 31
0.0
  0
LINE
  5
     F
  8
0
  6
CONTINUOUS
 62
     7
 10
-1080.06049361388
 20
-117.429743392892
 30
0.0
 11
-1080.58143804383
 21
-114.475320115685
 31
0.0
  0
LINE
  5
    10
  8
0
  6
CONTINUOUS
 62
     7
 10
-1080.58143804383
 20
-114.475320115685
 30
0.0
 11
-1081.10238247378
 21
-117.429743392892
 31
0.0
  0
LINE
  5
    11
  8
0
  6
CONTINUOUS
 62
     7
 10
-1081.10238247378
 20
-132.570897152148
 30
0.0
 11
-1080.58143804383
 21
-135.525320429355
 31
0.0
  0
LINE
  5
    12
  8
0
  6
CONTINUOUS
 62
     7
 10
-1080.58143804383
 20
-135.525320429355
 30
0.0
 11
-1080.06049361388
 21
-132.570897152148
 31
0.0
  0
ENDBLK
  5
    13
  8
0
  6
CONTINUOUS
 62
     7
  0
BLOCK
  5
    14
  8
0
  6
CONTINUOUS
 62
     7
  2
*UDIM141
 70
    65
 10
0.0
 20
0.0
 30
0.0
  3
*UDIM141
  0
TEXT
  5
    15
  8
0
  6
CONTINUOUS
 62
     7
 10
-1066.3237793509
 20
-142.03967600049
 30
0.0
 40
2.99999994933605
  1
87,5
 50
359.999999896069
 41
0.933333333333333
 72
     1
 11
-1061.02377943769
 21
-140.53967603541
 31
0.0
 73
     2
  0
LINE
  5
    16
  8
0
  6
CONTINUOUS
 62
     7
 10
-1051.99877923168
 20
-143.039676010078
 30
0.0
 11
-1069.49877949245
 21
-143.039676010078
 31
0.0
  0
LINE
  5
    17
  8
0
  6
CONTINUOUS
 62
     7
 10
-1054.95320250889
 20
-143.560620440029
 30
0.0
 11
-1051.99877923168
 21
-143.039676010078
 31
0.0
  0
LINE
  5
    18
  8
0
  6
CONTINUOUS
 62
     7
 10
-1051.99877923168
 20
-143.039676010078
 30
0.0
 11
-1054.95320250889
 21
-142.518731580126
 31
0.0
  0
LINE
  5
    19
  8
0
  6
CONTINUOUS
 62
     7
 10
-1066.54435621525
 20
-142.518731580126
 30
0.0
 11
-1069.49877949245
 21
-143.039676010078
 31
0.0
  0
LINE
  5
    1A
  8
0
  6
CONTINUOUS
 62
     7
 10
-1069.49877949245
 20
-143.039676010078
 30
0.0
 11
-1066.54435621525
 21
-143.560620440029
 31
0.0
  0
ENDBLK
  5
    1B
  8
0
  6
CONTINUOUS
 62
     7
  0
BLOCK
  5
    1C
  8
0
  6
CONTINUOUS
 62
     7
  2
*UDIM142
 70
    65
 10
0.0
 20
0.0
 30
0.0
  3
*UDIM142
  0
TEXT
  5
    1D
  8
0
  6
CONTINUOUS
 62
     7
 10
-1040.16509367585
 20
-147.945880317197
 30
0.0
 40
2.99999994933605
  1
22
 50
359.999999896069
 41
0.933333333333333
 72
     1
 11
-1037.66509371536
 21
-146.445880347052
 31
0.0
 73
     2
  0
LINE
  5
    1E
  8
0
  6
CONTINUOUS
 62
     7
 10
-1035.16509375758
 20
-148.94588032172
 30
0.0
 11
-1056.37377929688
 21
-148.94588032172
 31
0.0
  0
LINE
  5
    1F
  8
0
  6
CONTINUOUS
 62
     7
 10
-1049.04435595448
 20
-148.424935891768
 30
0.0
 11
-1051.99877923168
 21
-148.94588032172
 31
0.0
  0
LINE
  5
    20
  8
0
  6
CONTINUOUS
 62
     7
 10
-1051.99877923168
 20
-148.94588032172
 30
0.0
 11
-1049.04435595448
 21
-149.466824751671
 31
0.0
  0
LINE
  5
    21
  8
0
  6
CONTINUOUS
 62
     7
 10
-1059.32820257408
 20
-149.466824751671
 30
0.0
 11
-1056.37377929688
 21
-148.94588032172
 31
0.0
  0
LINE
  5
    22
  8
0
  6
CONTINUOUS
 62
     7
 10
-1056.37377929688
 20
-148.94588032172
 30
0.0
 11
-1059.32820257408
 21
-148.424935891768
 31
0.0
  0
ENDBLK
  5
    23
  8
0
  6
CONTINUOUS
 62
     7
  0
BLOCK
  5
    24
  8
0
  6
CONTINUOUS
 62
     7
  2
*UDIM143
 70
    65
 10
0.0
 20
0.0
 30
0.0
  3
*UDIM143
  0
TEXT
  5
    25
  8
0
  6
CONTINUOUS
 62
     7
 10
-1033.49675220758
 20
-116.887465036361
 30
0.0
 40
2.99999994933605
  1
5,5
 50
349.499917725695
 41
0.933333333333333
 72
     1
 11
-1029.38870375192
 21
-116.123307136301
 31
0.0
 73
     2
  0
TEXT
  5
    26
  8
0
  6
CONTINUOUS
 62
     7
 10
-1036.59400429581
 20
-116.313418703079
 30
0.0
 40
2.99999994933605
  1
Ø
 50
349.499917725695
 41
0.933333333333333
 72
     1
 11
-1035.23906880213
 21
-115.038997386919
 31
0.0
 73
     2
  0
TEXT
  5
    27
  8
0
  6
CONTINUOUS
 62
     7
 10
-1025.28657602859
 20
-118.40914342198
 30
0.0
 40
2.99999994933605
  1
 - M5
 50
349.499917725695
 41
0.933333333333333
 72
     1
 11
-1018.42541461096
 21
-118.155248938022
 31
0.0
 73
     2
  0
LINE
  5
    28
  8
0
  6
CONTINUOUS
 62
     7
 10
-1012.29320092704
 20
-121.83437297668
 30
0.0
 11
-1052.53956929516
 21
-114.375089799601
 31
0.0
  0
LINE
  5
    29
  8
0
  6
CONTINUOUS
 62
     7
 10
-1048.45810343748
 20
-114.601734445167
 30
0.0
 11
-1051.45798916821
 21
-114.57555043177
 31
0.0
  0
LINE
  5
    2A
  8
0
  6
CONTINUOUS
 62
     7
 10
-1051.45798916821
 20
-114.57555043177
 30
0.0
 11
-1048.64797407056
 21
-115.626176507503
 31
0.0
  0
LINE
  5
    2B
  8
0
  6
CONTINUOUS
 62
     7
 10
-1055.53945502589
 20
-114.348905786204
 30
0.0
 11
-1052.53956929516
 21
-114.375089799601
 31
0.0
  0
LINE
  5
    2C
  8
0
  6
CONTINUOUS
 62
     7
 10
-1052.53956929516
 20
-114.375089799601
 30
0.0
 11
-1055.3495843928
 21
-113.324463723868
 31
0.0
  0
ENDBLK
  5
    2D
  8
0
  6
CONTINUOUS
 62
     7
  0
BLOCK
  5
    2E
  8
0
  6
CONTINUOUS
 62
     7
  2
*UDIM144
 70
    65
 10
0.0
 20
0.0
 30
0.0
  3
*UDIM144
  0
TEXT
  5
    2F
  8
0
  6
CONTINUOUS
 62
     7
 10
-1089.0193150538
 20
-140.050318535305
 30
0.0
 40
2.99999994933605
  1
214
 50
449.999999896069
 41
0.933333333333333
 72
     1
 11
-1090.51931502142
 21
-136.150318598457
 31
0.0
 73
     2
  0
LINE
  5
    30
  8
0
  6
CONTINUOUS
 62
     7
 10
-1070.32800845733
 20
-114.475319306588
 30
0.0
 11
-1090.01931504675
 21
-114.47530337441
 31
0.0
  0
LINE
  5
    31
  8
0
  6
CONTINUOUS
 62
     7
 10
-1072.82738416168
 20
-157.275319769768
 30
0.0
 11
-1090.01931504675
 21
-157.275302858286
 31
0.0
  0
LINE
  5
    32
  8
0
  6
CONTINUOUS
 62
     7
 10
-1088.01931504675
 20
-114.475304992604
 30
0.0
 11
-1088.01931504675
 21
-157.275304825661
 31
0.0
  0
LINE
  5
    33
  8
0
  6
CONTINUOUS
 62
     7
 10
-1087.4983706168
 20
-117.429728269811
 30
0.0
 11
-1088.01931504675
 21
-114.475304992604
 31
0.0
  0
LINE
  5
    34
  8
0
  6
CONTINUOUS
 62
     7
 10
-1088.01931504675
 20
-114.475304992604
 30
0.0
 11
-1088.5402594767
 21
-117.429728269811
 31
0.0
  0
LINE
  5
    35
  8
0
  6
CONTINUOUS
 62
     7
 10
-1088.5402594767
 20
-154.320881548454
 30
0.0
 11
-1088.01931504675
 21
-157.275304825661
 31
0.0
  0
LINE
  5
    36
  8
0
  6
CONTINUOUS
 62
     7
 10
-1088.01931504675
 20
-157.275304825661
 30
0.0
 11
-1087.4983706168
 21
-154.320881548454
 31
0.0
  0
ENDBLK
  5
    37
  8
0
  6
CONTINUOUS
 62
     7
  0
BLOCK
  5
    38
  8
0
  6
CONTINUOUS
 62
     7
  2
*UDIM145
 70
    65
 10
0.0
 20
0.0
 30
0.0
  3
*UDIM145
  0
TEXT
  5
    39
  8
0
  6
CONTINUOUS
 62
     7
 10
-1092.10320203473
 20
97.894892834952
 30
0.0
 40
3.00000002980232
  1
54
 50
359.999999948034
 41
0.933333333333333
 72
     1
 11
-1089.60320200854
 21
99.3948928475983
 31
0.0
 73
     2
  0
LINE
  5
    3A
  8
0
  6
CONTINUOUS
 62
     7
 10
-1080.74886336261
 20
81.6495308403303
 30
0.0
 11
-1080.74886336261
 21
97.8948928326971
 31
0.0
  0
LINE
  5
    3B
  8
0
  6
CONTINUOUS
 62
     7
 10
-1107.62386336261
 20
81.6495308403303
 30
0.0
 11
-1107.62386336261
 21
97.8948928326971
 31
0.0
  0
LINE
  5
    3C
  8
0
  6
CONTINUOUS
 62
     7
 10
-1080.74886336261
 20
95.8948928326971
 30
0.0
 11
-1107.62386336261
 21
95.8948928326971
 31
0.0
  0
LINE
  5
    3D
  8
0
  6
CONTINUOUS
 62
     7
 10
-1083.64664083582
 20
95.1184356762786
 30
0.0
 11
-1080.74886336261
 21
95.8948928326971
 31
0.0
  0
LINE
  5
    3E
  8
0
  6
CONTINUOUS
 62
     7
 10
-1080.74886336261
 20
95.8948928326971
 30
0.0
 11
-1083.64664083582
 21
96.6713499891156
 31
0.0
  0
LINE
  5
    3F
  8
0
  6
CONTINUOUS
 62
     7
 10
-1104.7260858894
 20
96.6713499891156
 30
0.0
 11
-1107.62386336261
 21
95.8948928326971
 31
0.0
  0
LINE
  5
    40
  8
0
  6
CONTINUOUS
 62
     7
 10
-1107.62386336261
 20
95.8948928326971
 30
0.0
 11
-1104.7260858894
 21
95.1184356762786
 31
0.0
  0
ENDBLK
  5
    41
  8
0
  6
CONTINUOUS
 62
     7
  0
BLOCK
  5
    42
  8
0
  6
CONTINUOUS
 62
     7
  2
*UDIM146
 70
    65
 10
0.0
 20
0.0
 30
0.0
  3
*UDIM146
  0
TEXT
  5
    43
  8
0
  6
CONTINUOUS
 62
     7
 10
-1065.29678647687
 20
97.894892834952
 30
0.0
 40
3.00000002980232
  1
54
 50
359.999999948034
 41
0.933333333333333
 72
     1
 11
-1062.79678645068
 21
99.3948928475983
 31
0.0
 73
     2
  0
LINE
  5
    44
  8
0
  6
CONTINUOUS
 62
     7
 10
-1053.87386336261
 20
81.6495308403303
 30
0.0
 11
-1053.87386336261
 21
97.8948928326971
 31
0.0
  0
LINE
  5
    45
  8
0
  6
CONTINUOUS
 62
     7
 10
-1053.87386336261
 20
95.8948928326971
 30
0.0
 11
-1080.74886336261
 21
95.8948928326971
 31
0.0
  0
LINE
  5
    46
  8
0
  6
CONTINUOUS
 62
     7
 10
-1056.77164083582
 20
95.1184356762786
 30
0.0
 11
-1053.87386336261
 21
95.8948928326971
 31
0.0
  0
LINE
  5
    47
  8
0
  6
CONTINUOUS
 62
     7
 10
-1053.87386336261
 20
95.8948928326971
 30
0.0
 11
-1056.77164083582
 21
96.6713499891156
 31
0.0
  0
LINE
  5
    48
  8
0
  6
CONTINUOUS
 62
     7
 10
-1077.8510858894
 20
96.6713499891156
 30
0.0
 11
-1080.74886336261
 21
95.8948928326971
 31
0.0
  0
LINE
  5
    49
  8
0
  6
CONTINUOUS
 62
     7
 10
-1080.74886336261
 20
95.8948928326971
 30
0.0
 11
-1077.8510858894
 21
95.1184356762786
 31
0.0
  0
ENDBLK
  5
    4A
  8
0
  6
CONTINUOUS
 62
     7
  0
BLOCK
  5
    4B
  8
0
  6
CONTINUOUS
 62
     7
  2
*UDIM147
 70
    65
 10
0.0
 20
0.0
 30
0.0
  3
*UDIM147
  0
TEXT
  5
    4C
  8
0
  6
CONTINUOUS
 62
     7
 10
-1037.88113467862
 20
97.894892834952
 30
0.0
 40
3.00000002980232
  1
54
 50
359.999999948034
 41
0.933333333333333
 72
     1
 11
-1035.38113465243
 21
99.3948928475983
 31
0.0
 73
     2
  0
LINE
  5
    4D
  8
0
  6
CONTINUOUS
 62
     7
 10
-1026.99886336261
 20
81.6495308403303
 30
0.0
 11
-1026.99886336261
 21
97.8948928326971
 31
0.0
  0
LINE
  5
    4E
  8
0
  6
CONTINUOUS
 62
     7
 10
-1026.99886336261
 20
95.8948928326971
 30
0.0
 11
-1053.87386336261
 21
95.8948928326971
 31
0.0
  0
LINE
  5
    4F
  8
0
  6
CONTINUOUS
 62
     7
 10
-1029.89664083582
 20
95.1184356762786
 30
0.0
 11
-1026.99886336261
 21
95.8948928326971
 31
0.0
  0
LINE
  5
    50
  8
0
  6
CONTINUOUS
 62
     7
 10
-1026.99886336261
 20
95.8948928326971
 30
0.0
 11
-1029.89664083582
 21
96.6713499891156
 31
0.0
  0
LINE
  5
    51
  8
0
  6
CONTINUOUS
 62
     7
 10
-1050.9760858894
 20
96.6713499891156
 30
0.0
 11
-1053.87386336261
 21
95.8948928326971
 31
0.0
  0
LINE
  5
    52
  8
0
  6
CONTINUOUS
 62
     7
 10
-1053.87386336261
 20
95.8948928326971
 30
0.0
 11
-1050.9760858894
 21
95.1184356762786
 31
0.0
  0
ENDBLK
  5
    53
  8
0
  6
CONTINUOUS
 62
     7
  0
BLOCK
  5
    54
  8
0
  6
CONTINUOUS
 62
     7
  2
*UDIM148
 70
    65
 10
0.0
 20
0.0
 30
0.0
  3
*UDIM148
  0
TEXT
  5
    55
  8
0
  6
CONTINUOUS
 62
     7
 10
-1068.00996177121
 20
69.9539707234682
 30
0.0
 40
3.00000002980232
  1
max 189
 50
89.9999999480344
 41
0.933333333333333
 72
     1
 11
-1069.5099617775
 21
79.4539708192008
 31
0.0
 73
     2
  0
LINE
  5
    56
  8
0
  6
CONTINUOUS
 62
     7
 10
-1092.8198270974
 20
102.399535010176
 30
0.0
 11
-1064.0099617626
 21
102.399535010176
 31
0.0
  0
LINE
  5
    57
  8
0
  6
CONTINUOUS
 62
     7
 10
-1066.0099617626
 20
57.1494952331523
 30
0.0
 11
-1066.0099617626
 21
102.399535010176
 31
0.0
  0
LINE
  5
    58
  8
0
  6
CONTINUOUS
 62
     7
 10
-1066.78641891902
 20
60.0472727063628
 30
0.0
 11
-1066.0099617626
 21
57.1494952331523
 31
0.0
  0
LINE
  5
    59
  8
0
  6
CONTINUOUS
 62
     7
 10
-1066.0099617626
 20
57.1494952331523
 30
0.0
 11
-1065.23350460618
 21
60.0472727063628
 31
0.0
  0
LINE
  5
    5A
  8
0
  6
CONTINUOUS
 62
     7
 10
-1065.23350460618
 20
99.5017575369658
 30
0.0
 11
-1066.0099617626
 21
102.399535010176
 31
0.0
  0
LINE
  5
    5B
  8
0
  6
CONTINUOUS
 62
     7
 10
-1066.0099617626
 20
102.399535010176
 30
0.0
 11
-1066.78641891902
 21
99.5017575369658
 31
0.0
  0
ENDBLK
  5
    5C
  8
0
  6
CONTINUOUS
 62
     7
  0
BLOCK
  5
    5D
  8
0
  6
CONTINUOUS
 62
     7
  2
*UDIM149
 70
    65
 10
0.0
 20
0.0
 30
0.0
  3
*UDIM149
  0
TEXT
  5
    5E
  8
0
  6
CONTINUOUS
 62
     7
 10
-1113.24931137731
 20
91.3963679260337
 30
0.0
 40
3.00000002980232
  1
40
 50
359.999999948034
 41
0.933333333333333
 72
     1
 11
-1110.74931135112
 21
92.89636793868
 31
0.0
 73
     2
  0
LINE
  5
    5F
  8
0
  6
CONTINUOUS
 62
     7
 10
-1097.62386336261
 20
85.3995308403302
 30
0.0
 11
-1097.62386336261
 21
91.3963679237789
 31
0.0
  0
LINE
  5
    60
  8
0
  6
CONTINUOUS
 62
     7
 10
-1117.62386336261
 20
85.3995308403302
 30
0.0
 11
-1117.62386336261
 21
91.3963679237789
 31
0.0
  0
LINE
  5
    61
  8
0
  6
CONTINUOUS
 62
     7
 10
-1097.62386336261
 20
89.3963679237789
 30
0.0
 11
-1117.62386336261
 21
89.3963679237789
 31
0.0
  0
LINE
  5
    62
  8
0
  6
CONTINUOUS
 62
     7
 10
-1100.52164083582
 20
88.6199107673604
 30
0.0
 11
-1097.62386336261
 21
89.3963679237789
 31
0.0
  0
LINE
  5
    63
  8
0
  6
CONTINUOUS
 62
     7
 10
-1097.62386336261
 20
89.3963679237789
 30
0.0
 11
-1100.52164083582
 21
90.1728250801974
 31
0.0
  0
LINE
  5
    64
  8
0
  6
CONTINUOUS
 62
     7
 10
-1114.7260858894
 20
90.1728250801974
 30
0.0
 11
-1117.62386336261
 21
89.3963679237789
 31
0.0
  0
LINE
  5
    65
  8
0
  6
CONTINUOUS
 62
     7
 10
-1117.62386336261
 20
89.3963679237789
 30
0.0
 11
-1114.7260858894
 21
88.6199107673604
 31
0.0
  0
ENDBLK
  5
    66
  8
0
  6
CONTINUOUS
 62
     7
  0
BLOCK
  5
    67
  8
0
  6
CONTINUOUS
 62
     7
  2
*UDIM150
 70
    65
 10
0.0
 20
0.0
 30
0.0
  3
*UDIM150
  0
TEXT
  5
    68
  8
0
  6
CONTINUOUS
 62
     7
 10
-1119.75322088341
 20
67.3733911423191
 30
0.0
 40
3.00000002980232
  1
11
 50
405.59623893398
 41
0.933333333333333
 72
     1
 11
-1119.07558540403
 21
70.2090234044384
 31
0.0
 73
     2
  0
TEXT
  5
    69
  8
0
  6
CONTINUOUS
 62
     7
 10
-1122.55206185753
 20
64.5156841174462
 30
0.0
 40
3.00000002980232
  1
Ø
 50
405.59623893398
 41
1.2
 72
     1
 11
-1122.57413662422
 21
66.6368896223614
 31
0.0
 73
     2
  0
LINE
  5
    6A
  8
0
  6
CONTINUOUS
 62
     7
 10
-1121.12320835414
 20
63.1162636405109
 30
0.0
 11
-1102.20110901441
 21
82.4363381585471
 31
0.0
  0
LINE
  5
    6B
  8
0
  6
CONTINUOUS
 62
     7
 10
-1111.02094932191
 20
72.3213125091699
 30
0.0
 11
-1109.54806651842
 21
74.9348572758017
 31
0.0
  0
LINE
  5
    6C
  8
0
  6
CONTINUOUS
 62
     7
 10
-1109.54806651842
 20
74.9348572758017
 30
0.0
 11
-1112.1303928486
 21
73.4079025533405
 31
0.0
  0
LINE
  5
    6D
  8
0
  6
CONTINUOUS
 62
     7
 10
-1104.22677740331
 20
81.4777491714907
 30
0.0
 11
-1105.69966020679
 21
78.8642044048588
 31
0.0
  0
LINE
  5
    6E
  8
0
  6
CONTINUOUS
 62
     7
 10
-1105.69966020679
 20
78.8642044048588
 30
0.0
 11
-1103.11733387661
 21
80.3911591273201
 31
0.0
  0
ENDBLK
  5
    6F
  8
0
  6
CONTINUOUS
 62
     7
  0
BLOCK
  5
    70
  8
0
  6
CONTINUOUS
 62
     0
  2
$1ON-OFF
 70
    64
 10
0.0
 20
0.0
 30
0.0
  3
$1ON-OFF
  0
LINE
  5
    71
  8
0
  6
CONTINUOUS
 62
     0
 10
5.09999999999999
 20
-29.65
 30
0.0
 11
5.54999999999999
 21
-29.65
 31
0.0
  0
LINE
  5
    72
  8
0
  6
CONTINUOUS
 62
     0
 10
3.79999999999999
 20
-37.35
 30
0.0
 11
4.59999999999999
 21
-37.35
 31
0.0
  0
LINE
  5
    73
  8
0
  6
CONTINUOUS
 62
     0
 10
-2.6
 20
-34.75
 30
0.0
 11
-2.6
 21
-34.25
 31
0.0
  0
LINE
  5
    74
  8
0
  6
CONTINUOUS
 62
     0
 10
2.6
 20
-34.75
 30
0.0
 11
2.6
 21
-34.25
 31
0.0
  0
ARC
  5
    75
  8
0
  6
CONTINUOUS
 62
     0
 10
-3.5527136788005E-15
 20
-34.25
 30
0.0
 40
2.6
 50
0.0
 51
180.0
  0
ARC
  5
    76
  8
0
  6
CONTINUOUS
 62
     0
 10
-3.5527136788005E-15
 20
-34.75
 30
0.0
 40
2.6
 50
180.0
 51
360.0
  0
ARC
  5
    77
  8
0
  6
CONTINUOUS
 62
     0
 10
-3.5527136788005E-15
 20
-34.25
 30
0.0
 40
1.8
 50
0.0
 51
180.0
  0
ARC
  5
    78
  8
0
  6
CONTINUOUS
 62
     0
 10
-3.5527136788005E-15
 20
-34.75
 30
0.0
 40
1.8
 50
180.0
 51
360.0
  0
LINE
  5
    79
  8
0
  6
CONTINUOUS
 62
     0
 10
-1.8
 20
-34.75
 30
0.0
 11
-1.8
 21
-34.25
 31
0.0
  0
LINE
  5
    7A
  8
0
  6
CONTINUOUS
 62
     0
 10
1.8
 20
-34.75
 30
0.0
 11
1.8
 21
-34.25
 31
0.0
  0
LINE
  5
    7B
  8
0
  6
CONTINUOUS
 62
     0
 10
2.84999999999999
 20
-32.85
 30
0.0
 11
2.84999999999999
 21
-32.05
 31
0.0
  0
LINE
  5
    7C
  8
0
  6
CONTINUOUS
 62
     0
 10
2.84999999999999
 20
-32.85
 30
0.0
 11
3.79999999999999
 21
-32.85
 31
0.0
  0
LINE
  5
    7D
  8
0
  6
CONTINUOUS
 62
     0
 10
5.54999999999999
 20
-32.85
 30
0.0
 11
5.54999999999999
 21
-32.05
 31
0.0
  0
LINE
  5
    7E
  8
0
  6
CONTINUOUS
 62
     0
 10
2.84999999999999
 20
-32.05
 30
0.0
 11
3.79999999999999
 21
-32.05
 31
0.0
  0
LINE
  5
    7F
  8
0
  6
CONTINUOUS
 62
     0
 10
3.79999999999999
 20
-37.35
 30
0.0
 11
3.79999999999999
 21
-32.85
 31
0.0
  0
LINE
  5
    80
  8
0
  6
CONTINUOUS
 62
     0
 10
4.59999999999999
 20
-37.35
 30
0.0
 11
4.59999999999999
 21
-32.85
 31
0.0
  0
LINE
  5
    81
  8
0
  6
CONTINUOUS
 62
     0
 10
4.59999999999999
 20
-32.85
 30
0.0
 11
5.54999999999999
 21
-32.85
 31
0.0
  0
LINE
  5
    82
  8
0
  6
CONTINUOUS
 62
     0
 10
4.59999999999999
 20
-32.05
 30
0.0
 11
5.54999999999999
 21
-32.05
 31
0.0
  0
LINE
  5
    83
  8
0
  6
CONTINUOUS
 62
     0
 10
3.79999999999999
 20
-32.05
 30
0.0
 11
3.79999999999999
 21
-30.95
 31
0.0
  0
LINE
  5
    84
  8
0
  6
CONTINUOUS
 62
     0
 10
4.59999999999999
 20
-32.05
 30
0.0
 11
4.59999999999999
 21
-30.95
 31
0.0
  0
ARC
  5
    85
  8
0
  6
CONTINUOUS
 62
     0
 10
5.09999999999999
 20
-30.95
 30
0.0
 40
1.3
 50
89.9999999999999
 51
180.0
  0
ARC
  5
    86
  8
0
  6
CONTINUOUS
 62
     0
 10
5.09999999999999
 20
-30.95
 30
0.0
 40
0.5
 50
89.9999999999999
 51
180.0
  0
LINE
  5
    87
  8
0
  6
CONTINUOUS
 62
     0
 10
5.54999999999999
 20
-30.45
 30
0.0
 11
5.54999999999999
 21
-29.65
 31
0.0
  0
LINE
  5
    88
  8
0
  6
CONTINUOUS
 62
     0
 10
5.09999999999999
 20
-30.45
 30
0.0
 11
5.54999999999999
 21
-30.45
 31
0.0
  0
LINE
  5
    89
  8
0
  6
CONTINUOUS
 62
     0
 10
8.29999999999998
 20
-29.65
 30
0.0
 11
8.74999999999999
 21
-29.65
 31
0.0
  0
LINE
  5
    8A
  8
0
  6
CONTINUOUS
 62
     0
 10
6.99999999999999
 20
-37.35
 30
0.0
 11
7.79999999999999
 21
-37.35
 31
0.0
  0
LINE
  5
    8B
  8
0
  6
CONTINUOUS
 62
     0
 10
6.04999999999999
 20
-32.85
 30
0.0
 11
6.04999999999999
 21
-32.05
 31
0.0
  0
LINE
  5
    8C
  8
0
  6
CONTINUOUS
 62
     0
 10
6.04999999999999
 20
-32.85
 30
0.0
 11
6.99999999999999
 21
-32.85
 31
0.0
  0
LINE
  5
    8D
  8
0
  6
CONTINUOUS
 62
     0
 10
8.74999999999999
 20
-32.85
 30
0.0
 11
8.74999999999999
 21
-32.05
 31
0.0
  0
LINE
  5
    8E
  8
0
  6
CONTINUOUS
 62
     0
 10
6.04999999999999
 20
-32.05
 30
0.0
 11
6.99999999999999
 21
-32.05
 31
0.0
  0
LINE
  5
    8F
  8
0
  6
CONTINUOUS
 62
     0
 10
6.99999999999999
 20
-37.35
 30
0.0
 11
6.99999999999999
 21
-32.85
 31
0.0
  0
LINE
  5
    90
  8
0
  6
CONTINUOUS
 62
     0
 10
7.79999999999999
 20
-37.35
 30
0.0
 11
7.79999999999999
 21
-32.85
 31
0.0
  0
LINE
  5
    91
  8
0
  6
CONTINUOUS
 62
     0
 10
7.79999999999999
 20
-32.85
 30
0.0
 11
8.74999999999999
 21
-32.85
 31
0.0
  0
LINE
  5
    92
  8
0
  6
CONTINUOUS
 62
     0
 10
7.79999999999999
 20
-32.05
 30
0.0
 11
8.74999999999999
 21
-32.05
 31
0.0
  0
LINE
  5
    93
  8
0
  6
CONTINUOUS
 62
     0
 10
6.99999999999999
 20
-32.05
 30
0.0
 11
6.99999999999999
 21
-30.95
 31
0.0
  0
LINE
  5
    94
  8
0
  6
CONTINUOUS
 62
     0
 10
7.79999999999999
 20
-32.05
 30
0.0
 11
7.79999999999999
 21
-30.95
 31
0.0
  0
ARC
  5
    95
  8
0
  6
CONTINUOUS
 62
     0
 10
8.29999999999998
 20
-30.95
 30
0.0
 40
1.3
 50
89.9999999999999
 51
180.0
  0
ARC
  5
    96
  8
0
  6
CONTINUOUS
 62
     0
 10
8.29999999999998
 20
-30.95
 30
0.0
 40
0.5
 50
89.9999999999999
 51
180.0
  0
LINE
  5
    97
  8
0
  6
CONTINUOUS
 62
     0
 10
8.74999999999999
 20
-30.45
 30
0.0
 11
8.74999999999999
 21
-29.65
 31
0.0
  0
LINE
  5
    98
  8
0
  6
CONTINUOUS
 62
     0
 10
8.29999999999998
 20
-30.45
 30
0.0
 11
8.74999999999999
 21
-30.45
 31
0.0
  0
LINE
  5
    99
  8
0
  6
CONTINUOUS
 62
     0
 10
3.4
 20
-2.85000000000002
 30
0.0
 11
4.19999999999999
 21
-2.85000000000002
 31
0.0
  0
ARC
  5
    9A
  8
0
  6
CONTINUOUS
 62
     0
 10
-3.5527136788005E-15
 20
0.249999999999979
 30
0.0
 40
2.6
 50
0.0
 51
180.0
  0
ARC
  5
    9B
  8
0
  6
CONTINUOUS
 62
     0
 10
-3.5527136788005E-15
 20
0.249999999999979
 30
0.0
 40
1.8
 50
0.0
 51
180.0
  0
ARC
  5
    9C
  8
0
  6
CONTINUOUS
 62
     0
 10
-3.5527136788005E-15
 20
-0.250000000000018
 30
0.0
 40
2.6
 50
180.0
 51
360.0
  0
ARC
  5
    9D
  8
0
  6
CONTINUOUS
 62
     0
 10
-3.5527136788005E-15
 20
-0.250000000000018
 30
0.0
 40
1.8
 50
180.0
 51
360.0
  0
LINE
  5
    9E
  8
0
  6
CONTINUOUS
 62
     0
 10
1.8
 20
-0.250000000000018
 30
0.0
 11
1.8
 21
0.249999999999979
 31
0.0
  0
LINE
  5
    9F
  8
0
  6
CONTINUOUS
 62
     0
 10
2.6
 20
-0.250000000000018
 30
0.0
 11
2.6
 21
0.249999999999979
 31
0.0
  0
LINE
  5
    A0
  8
0
  6
CONTINUOUS
 62
     0
 10
-1.8
 20
-0.250000000000032
 30
0.0
 11
-1.8
 21
0.249999999999964
 31
0.0
  0
LINE
  5
    A1
  8
0
  6
CONTINUOUS
 62
     0
 10
-2.6
 20
-0.250000000000018
 30
0.0
 11
-2.6
 21
0.249999999999979
 31
0.0
  0
LINE
  5
    A2
  8
0
  6
CONTINUOUS
 62
     0
 10
3.4
 20
-2.85000000000002
 30
0.0
 11
3.4
 21
2.84999999999998
 31
0.0
  0
LINE
  5
    A3
  8
0
  6
CONTINUOUS
 62
     0
 10
4.19999999999999
 20
-2.85000000000002
 30
0.0
 11
4.19999999999999
 21
0.649999999999981
 31
0.0
  0
LINE
  5
    A4
  8
0
  6
CONTINUOUS
 62
     0
 10
6.99999999999999
 20
-2.85000000000002
 30
0.0
 11
6.99999999999999
 21
0.649999999999981
 31
0.0
  0
LINE
  5
    A5
  8
0
  6
CONTINUOUS
 62
     0
 10
7.79999999999999
 20
-2.85000000000002
 30
0.0
 11
7.79999999999999
 21
0.84999999999998
 31
0.0
  0
LINE
  5
    A6
  8
0
  6
CONTINUOUS
 62
     0
 10
3.4
 20
2.84999999999998
 30
0.0
 11
4.19999999999999
 21
2.84999999999998
 31
0.0
  0
ARC
  5
    A7
  8
0
  6
CONTINUOUS
 62
     0
 10
5.59999999999999
 20
0.649999999999981
 30
0.0
 40
1.4
 50
0.0
 51
180.0
  0
LINE
  5
    A8
  8
0
  6
CONTINUOUS
 62
     0
 10
4.19999999999999
 20
2.05
 30
0.0
 11
4.19999999999999
 21
2.84999999999998
 31
0.0
  0
ARC
  5
    A9
  8
0
  6
CONTINUOUS
 62
     0
 10
5.79999999999999
 20
0.84999999999998
 30
0.0
 40
2.0
 50
0.0
 51
143.130102354155
  0
LINE
  5
    AA
  8
0
  6
CONTINUOUS
 62
     0
 10
6.99999999999999
 20
-2.85000000000002
 30
0.0
 11
7.79999999999999
 21
-2.85000000000002
 31
0.0
  0
ENDBLK
  5
    AB
  8
0
  6
CONTINUOUS
 62
     0
  0
BLOCK
  5
    AC
  8
0
  6
CONTINUOUS
 62
     0
  2
COPRITERMINALI
 70
    64
 10
0.0
 20
0.0
 30
0.0
  3
COPRITERMINALI
  0
LINE
  5
    AD
  8
0
  6
CONTINUOUS
 62
     0
 10
70.0
 20
-25.5
 30
0.0
 11
70.0
 21
-1.25
 31
0.0
  0
LINE
  5
    AE
  8
0
  6
CONTINUOUS
 62
     0
 10
68.7500079259097
 20
6.86639207359008E-6
 30
0.0
 11
69.6338885468344
 21
-0.366112524937034
 31
0.0
  0
LINE
  5
    AF
  8
0
  6
CONTINUOUS
 62
     0
 10
69.633884498095
 20
-0.366107105298454
 30
0.0
 11
70.0000038894241
 21
-1.24998772622308
 31
0.0
  0
LINE
  5
    B0
  8
0
  6
CONTINUOUS
 62
     0
 10
-73.1296841370387
 20
-26.5
 30
0.0
 11
69.0
 21
-26.5
 31
0.0
  0
LINE
  5
    B1
  8
0
  6
CONTINUOUS
 62
     0
 10
67.6000061035156
 20
-25.5
 30
0.0
 11
67.6000061035156
 21
-0.310653686523438
 31
0.0
  0
LINE
  5
    B2
  8
0
  6
CONTINUOUS
 62
     0
 10
64.0
 20
-25.5
 30
0.0
 11
64.0
 21
-0.310653686523438
 31
0.0
  0
LINE
  5
    B3
  8
0
  6
CONTINUOUS
 62
     0
 10
60.3999938964844
 20
-25.5
 30
0.0
 11
60.3999938964844
 21
-0.310653686523438
 31
0.0
  0
LINE
  5
    B4
  8
0
  6
CONTINUOUS
 62
     0
 10
56.8000030517578
 20
-25.5
 30
0.0
 11
56.8000030517578
 21
-0.310653686523438
 31
0.0
  0
LINE
  5
    B5
  8
0
  6
CONTINUOUS
 62
     0
 10
53.1999969482422
 20
-25.5
 30
0.0
 11
53.1999969482422
 21
-0.310653686523438
 31
0.0
  0
LINE
  5
    B6
  8
0
  6
CONTINUOUS
 62
     0
 10
49.5999984741211
 20
-25.5
 30
0.0
 11
49.5999984741211
 21
-0.310653686523438
 31
0.0
  0
LINE
  5
    B7
  8
0
  6
CONTINUOUS
 62
     0
 10
46.0
 20
-25.5
 30
0.0
 11
46.0
 21
-0.310653686523438
 31
0.0
  0
LINE
  5
    B8
  8
0
  6
CONTINUOUS
 62
     0
 10
42.4000015258789
 20
-25.5
 30
0.0
 11
42.4000015258789
 21
-0.310653686523438
 31
0.0
  0
LINE
  5
    B9
  8
0
  6
CONTINUOUS
 62
     0
 10
38.8000030517578
 20
-25.5
 30
0.0
 11
38.8000030517578
 21
-0.310653686523438
 31
0.0
  0
LINE
  5
    BA
  8
0
  6
CONTINUOUS
 62
     0
 10
35.1999969482422
 20
-25.5
 30
0.0
 11
35.1999969482422
 21
-0.310653686523438
 31
0.0
  0
LINE
  5
    BB
  8
0
  6
CONTINUOUS
 62
     0
 10
31.5999984741211
 20
-25.5
 30
0.0
 11
31.5999984741211
 21
-0.310653686523438
 31
0.0
  0
LINE
  5
    BC
  8
0
  6
CONTINUOUS
 62
     0
 10
28.0
 20
-25.5
 30
0.0
 11
28.0
 21
-0.310653686523438
 31
0.0
  0
LINE
  5
    BD
  8
0
  6
CONTINUOUS
 62
     0
 10
24.4000015258789
 20
-25.5
 30
0.0
 11
24.4000015258789
 21
-0.310653686523438
 31
0.0
  0
LINE
  5
    BE
  8
0
  6
CONTINUOUS
 62
     0
 10
20.8000030517578
 20
-25.5
 30
0.0
 11
20.8000030517578
 21
-0.310653686523438
 31
0.0
  0
LINE
  5
    BF
  8
0
  6
CONTINUOUS
 62
     0
 10
17.1999969482422
 20
-25.5
 30
0.0
 11
17.1999969482422
 21
-0.310653686523438
 31
0.0
  0
LINE
  5
    C0
  8
0
  6
CONTINUOUS
 62
     0
 10
13.5999984741211
 20
-25.5
 30
0.0
 11
13.5999984741211
 21
-0.310653686523438
 31
0.0
  0
LINE
  5
    C1
  8
0
  6
CONTINUOUS
 62
     0
 10
10.0
 20
-25.5
 30
0.0
 11
10.0
 21
-0.310653686523438
 31
0.0
  0
LINE
  5
    C2
  8
0
  6
CONTINUOUS
 62
     0
 10
6.40000152587891
 20
-25.5
 30
0.0
 11
6.40000152587891
 21
-0.310653686523438
 31
0.0
  0
LINE
  5
    C3
  8
0
  6
CONTINUOUS
 62
     0
 10
2.80000305175781
 20
-25.5
 30
0.0
 11
2.80000305175781
 21
-0.310653686523438
 31
0.0
  0
LINE
  5
    C4
  8
0
  6
CONTINUOUS
 62
     0
 10
-0.800003051757813
 20
-25.5
 30
0.0
 11
-0.800003051757813
 21
-0.310653686523438
 31
0.0
  0
LINE
  5
    C5
  8
0
  6
CONTINUOUS
 62
     0
 10
-4.40000152587891
 20
-25.5
 30
0.0
 11
-4.40000152587891
 21
-0.310653686523438
 31
0.0
  0
LINE
  5
    C6
  8
0
  6
CONTINUOUS
 62
     0
 10
-8.0
 20
-25.5
 30
0.0
 11
-8.0
 21
-0.310653686523438
 31
0.0
  0
LINE
  5
    C7
  8
0
  6
CONTINUOUS
 62
     0
 10
-11.5999984741211
 20
-25.5
 30
0.0
 11
-11.5999984741211
 21
-0.310653686523438
 31
0.0
  0
LINE
  5
    C8
  8
0
  6
CONTINUOUS
 62
     0
 10
-15.2000007629395
 20
-25.5
 30
0.0
 11
-15.2000007629395
 21
-0.310653686523438
 31
0.0
  0
LINE
  5
    C9
  8
0
  6
CONTINUOUS
 62
     0
 10
-18.7999992370605
 20
-25.5
 30
0.0
 11
-18.7999992370605
 21
-0.310653686523438
 31
0.0
  0
LINE
  5
    CA
  8
0
  6
CONTINUOUS
 62
     0
 10
-22.4000015258789
 20
-25.5
 30
0.0
 11
-22.4000015258789
 21
-0.310653686523438
 31
0.0
  0
LINE
  5
    CB
  8
0
  6
CONTINUOUS
 62
     0
 10
-26.0
 20
-25.5
 30
0.0
 11
-26.0
 21
-0.310653686523438
 31
0.0
  0
LINE
  5
    CC
  8
0
  6
CONTINUOUS
 62
     0
 10
-29.5999984741211
 20
-25.5
 30
0.0
 11
-29.5999984741211
 21
-0.310653686523438
 31
0.0
  0
LINE
  5
    CD
  8
0
  6
CONTINUOUS
 62
     0
 10
-33.2000007629395
 20
-25.5
 30
0.0
 11
-33.2000007629395
 21
-0.310653686523438
 31
0.0
  0
LINE
  5
    CE
  8
0
  6
CONTINUOUS
 62
     0
 10
69.0
 20
-25.5
 30
0.0
 11
70.0
 21
-25.5
 31
0.0
  0
LINE
  5
    CF
  8
0
  6
CONTINUOUS
 62
     0
 10
69.0
 20
-26.5
 30
0.0
 11
69.0
 21
-25.5
 31
0.0
  0
LINE
  5
    D0
  8
0
  6
CONTINUOUS
 62
     0
 10
-73.1967259764782
 20
-25.5
 30
0.0
 11
69.0
 21
-25.5
 31
0.0
  0
LINE
  5
    D1
  8
0
  6
CONTINUOUS
 62
     0
 10
-59.1462946202841
 20
6.8663920274048E-6
 30
0.0
 11
68.7500079259097
 21
6.8663920274048E-6
 31
0.0
  0
LINE
  5
    D2
  8
0
  6
CONTINUOUS
 62
     0
 10
-36.8000007629395
 20
-25.5
 30
0.0
 11
-36.8000007629395
 21
6.8663920274048E-6
 31
0.0
  0
LINE
  5
    D3
  8
0
  6
CONTINUOUS
 62
     0
 10
-40.4000007629395
 20
-25.5
 30
0.0
 11
-40.4000007629395
 21
6.8663920274048E-6
 31
0.0
  0
LINE
  5
    D4
  8
0
  6
CONTINUOUS
 62
     0
 10
-44.0000007629395
 20
-25.5
 30
0.0
 11
-44.0000007629395
 21
6.8663920274048E-6
 31
0.0
  0
LINE
  5
    D5
  8
0
  6
CONTINUOUS
 62
     0
 10
-47.6000007629395
 20
-25.5
 30
0.0
 11
-47.6000007629395
 21
6.8663920274048E-6
 31
0.0
  0
LINE
  5
    D6
  8
0
  6
CONTINUOUS
 62
     0
 10
-51.2000007629395
 20
-25.5
 30
0.0
 11
-51.2000007629395
 21
6.8663920274048E-6
 31
0.0
  0
LINE
  5
    D7
  8
0
  6
CONTINUOUS
 62
     0
 10
-54.8000007629395
 20
-25.5
 30
0.0
 11
-54.8000007629395
 21
6.8663920274048E-6
 31
0.0
  0
LINE
  5
    D8
  8
0
  6
CONTINUOUS
 62
     0
 10
-58.4000007629395
 20
-25.5
 30
0.0
 11
-58.4000007629395
 21
6.8663920274048E-6
 31
0.0
  0
LINE
  5
    D9
  8
0
  6
CONTINUOUS
 62
     0
 10
-62.0000007629395
 20
-25.5
 30
0.0
 11
-62.0000007629395
 21
-4.21911227373364
 31
0.0
  0
LINE
  5
    DA
  8
0
  6
CONTINUOUS
 62
     0
 10
-65.6000007629395
 20
-25.5
 30
0.0
 11
-65.6000007629395
 21
-16.2692496708557
 31
0.0
  0
LINE
  5
    DB
  8
0
  6
CONTINUOUS
 62
     0
 10
-69.2000007629395
 20
-25.5
 30
0.0
 11
-69.2000007629395
 21
-20.1027322150701
 31
0.0
  0
LINE
  5
    DC
  8
0
  6
CONTINUOUS
 62
     0
 10
-72.8000007629394
 20
-25.5
 30
0.0
 11
-72.8000007629394
 21
-23.5314063282443
 31
0.0
  0
POLYLINE
  5
    DD
  8
0
  6
CONTINUOUS
 62
     0
 66
     1
 10
0.0
 20
0.0
 30
0.0
  0
VERTEX
  5
    DE
  8
0
  6
CONTINUOUS
 62
     0
 10
-57.4967768527533
 20
2.01142080493747
 30
0.0
 40
0.0
 41
0.0
  0
VERTEX
  5
    DF
  8
0
  6
CONTINUOUS
 62
     0
 10
-57.5670972417523
 20
1.88237663942379
 30
0.0
 40
0.0
 41
0.0
  0
VERTEX
  5
    E0
  8
0
  6
CONTINUOUS
 62
     0
 10
-57.639992555305
 20
1.7555254448307
 30
0.0
 40
0.0
 41
0.0
  0
VERTEX
  5
    E1
  8
0
  6
CONTINUOUS
 62
     0
 10
-57.7154612680474
 20
1.63086591876553
 30
0.0
 40
0.0
 41
0.0
  0
VERTEX
  5
    E2
  8
0
  6
CONTINUOUS
 62
     0
 10
-57.7934994140333
 20
1.50839467500733
 30
0.0
 40
0.0
 41
0.0
  0
VERTEX
  5
    E3
  8
0
  6
CONTINUOUS
 62
     0
 10
-57.8740993664432
 20
1.38810520159273
 30
0.0
 40
0.0
 41
0.0
  0
VERTEX
  5
    E4
  8
0
  6
CONTINUOUS
 62
     0
 10
-57.957248617293
 20
1.26998681890181
 30
0.0
 40
0.0
 41
0.0
  0
VERTEX
  5
    E5
  8
0
  6
CONTINUOUS
 62
     0
 10
-58.042928557143
 20
1.15402363774394
 30
0.0
 40
0.0
 41
0.0
  0
VERTEX
  5
    E6
  8
0
  6
CONTINUOUS
 62
     0
 10
-58.1311132548069
 20
1.04019351744368
 30
0.0
 40
0.0
 41
0.0
  0
VERTEX
  5
    E7
  8
0
  6
CONTINUOUS
 62
     0
 10
-58.2217682370602
 20
0.928467023926591
 30
0.0
 40
0.0
 41
0.0
  0
VERTEX
  5
    E8
  8
0
  6
CONTINUOUS
 62
     0
 10
-58.3148492683495
 20
0.818806387805149
 30
0.0
 40
0.0
 41
0.0
  0
VERTEX
  5
    E9
  8
0
  6
CONTINUOUS
 62
     0
 10
-58.4103011305015
 20
0.711164462464564
 30
0.0
 40
0.0
 41
0.0
  0
VERTEX
  5
    EA
  8
0
  6
CONTINUOUS
 62
     0
 10
-58.5080564024312
 20
0.60548368214866
 30
0.0
 40
0.0
 41
0.0
  0
VERTEX
  5
    EB
  8
0
  6
CONTINUOUS
 62
     0
 10
-58.6080342398516
 20
0.501695020045732
 30
0.0
 40
0.0
 41
0.0
  0
VERTEX
  5
    EC
  8
0
  6
CONTINUOUS
 62
     0
 10
-58.7101391549819
 20
0.39971694637441
 30
0.0
 40
0.0
 41
0.0
  0
VERTEX
  5
    ED
  8
0
  6
CONTINUOUS
 62
     0
 10
-58.8142597962568
 20
0.299454386469516
 30
0.0
 40
0.0
 41
0.0
  0
VERTEX
  5
    EE
  8
0
  6
CONTINUOUS
 62
     0
 10
-58.9202677280351
 20
0.200797678867928
 30
0.0
 40
0.0
 41
0.0
  0
VERTEX
  5
    EF
  8
0
  6
CONTINUOUS
 62
     0
 10
-59.0280162103089
 20
0.103621533394439
 30
0.0
 40
0.0
 41
0.0
  0
VERTEX
  5
    F0
  8
0
  6
CONTINUOUS
 62
     0
 10
-59.1373389784119
 20
7.78398924762062E-3
 30
0.0
 40
0.0
 41
0.0
  0
VERTEX
  5
    F1
  8
0
  6
CONTINUOUS
 62
     0
 10
-59.3599373684046
 20
-0.180532742887671
 30
0.0
 40
0.0
 41
0.0
  0
VERTEX
  5
    F2
  8
0
  6
CONTINUOUS
 62
     0
 10
-59.9642870948411
 20
-0.67071168191174
 30
0.0
 40
0.0
 41
0.0
  0
VERTEX
  5
    F3
  8
0
  6
CONTINUOUS
 62
     0
 10
-60.1642062535979
 20
-0.835374659637325
 30
0.0
 40
0.0
 41
0.0
  0
VERTEX
  5
    F4
  8
0
  6
CONTINUOUS
 62
     0
 10
-60.3603613079993
 20
-1.00313332286768
 30
0.0
 40
0.0
 41
0.0
  0
VERTEX
  5
    F5
  8
0
  6
CONTINUOUS
 62
     0
 10
-60.4564493072153
 20
-1.08862979399144
 30
0.0
 40
0.0
 41
0.0
  0
VERTEX
  5
    F6
  8
0
  6
CONTINUOUS
 62
     0
 10
-60.5509068781735
 20
-1.1754368763059
 30
0.0
 40
0.0
 41
0.0
  0
VERTEX
  5
    F7
  8
0
  6
CONTINUOUS
 62
     0
 10
-60.6435117725637
 20
-1.2637187951954
 30
0.0
 40
0.0
 41
0.0
  0
VERTEX
  5
    F8
  8
0
  6
CONTINUOUS
 62
     0
 10
-60.7340485790912
 20
-1.35362931311713
 30
0.0
 40
0.0
 41
0.0
  0
VERTEX
  5
    F9
  8
0
  6
CONTINUOUS
 62
     0
 10
-60.8223105483948
 20
-1.44530978599811
 30
0.0
 40
0.0
 41
0.0
  0
VERTEX
  5
    FA
  8
0
  6
CONTINUOUS
 62
     0
 10
-60.9081014179662
 20
-1.53888721963222
 30
0.0
 40
0.0
 41
0.0
  0
VERTEX
  5
    FB
  8
0
  6
CONTINUOUS
 62
     0
 10
-60.9912372370685
 20
-1.63447232607715
 30
0.0
 40
0.0
 41
0.0
  0
VERTEX
  5
    FC
  8
0
  6
CONTINUOUS
 62
     0
 10
-61.0715481916548
 20
-1.73215758005138
 30
0.0
 40
0.0
 41
0.0
  0
VERTEX
  5
    FD
  8
0
  6
CONTINUOUS
 62
     0
 10
-61.1488804292874
 20
-1.83201527533123
 30
0.0
 40
0.0
 41
0.0
  0
VERTEX
  5
    FE
  8
0
  6
CONTINUOUS
 62
     0
 10
-61.223097884056
 20
-1.93409558114778
 30
0.0
 40
0.0
 41
0.0
  0
VERTEX
  5
    FF
  8
0
  6
CONTINUOUS
 62
     0
 10
-61.2881322266464
 20
-2.02939917273782
 30
0.0
 40
0.0
 41
0.0
  0
VERTEX
  5
   100
  8
0
  6
CONTINUOUS
 62
     0
 10
-61.350391180732
 20
-2.12658463568302
 30
0.0
 40
0.0
 41
0.0
  0
VERTEX
  5
   101
  8
0
  6
CONTINUOUS
 62
     0
 10
-61.4098154900511
 20
-2.22563675594768
 30
0.0
 40
0.0
 41
0.0
  0
VERTEX
  5
   102
  8
0
  6
CONTINUOUS
 62
     0
 10
-61.4663599901707
 20
-2.32652481888943
 30
0.0
 40
0.0
 41
0.0
  0
VERTEX
  5
   103
  8
0
  6
CONTINUOUS
 62
     0
 10
-61.5199931633073
 20
-2.42920394895215
 30
0.0
 40
0.0
 41
0.0
  0
VERTEX
  5
   104
  8
0
  6
CONTINUOUS
 62
     0
 10
-61.5706966931463
 20
-2.53361644935884
 30
0.0
 40
0.0
 41
0.0
  0
VERTEX
  5
   105
  8
0
  6
CONTINUOUS
 62
     0
 10
-61.6184650196631
 20
-2.63969314180448
 30
0.0
 40
0.0
 41
0.0
  0
VERTEX
  5
   106
  8
0
  6
CONTINUOUS
 62
     0
 10
-61.6633048939429
 20
-2.74735470614894
 30
0.0
 40
0.0
 41
0.0
  0
VERTEX
  5
   107
  8
0
  6
CONTINUOUS
 62
     0
 10
-61.7052349330011
 20
-2.85651302010986
 30
0.0
 40
0.0
 41
0.0
  0
VERTEX
  5
   108
  8
0
  6
CONTINUOUS
 62
     0
 10
-61.7442851746036
 20
-2.96707249895555
 30
0.0
 40
0.0
 41
0.0
  0
VERTEX
  5
   109
  8
0
  6
CONTINUOUS
 62
     0
 10
-61.780496632087
 20
-3.07893143519784
 30
0.0
 40
0.0
 41
0.0
  0
VERTEX
  5
   10A
  8
0
  6
CONTINUOUS
 62
     0
 10
-61.8139208491787
 20
-3.19198333828499
 30
0.0
 40
0.0
 41
0.0
  0
VERTEX
  5
   10B
  8
0
  6
CONTINUOUS
 62
     0
 10
-61.8446194548177
 20
-3.30611827429457
 30
0.0
 40
0.0
 41
0.0
  0
VERTEX
  5
   10C
  8
0
  6
CONTINUOUS
 62
     0
 10
-61.8726637179742
 20
-3.42122420562634
 30
0.0
 40
0.0
 41
0.0
  0
VERTEX
  5
   10D
  8
0
  6
CONTINUOUS
 62
     0
 10
-61.8981341024703
 20
-3.53718833069514
 30
0.0
 40
0.0
 41
0.0
  0
VERTEX
  5
   10E
  8
0
  6
CONTINUOUS
 62
     0
 10
-61.9211198218001
 20
-3.65389842362376
 30
0.0
 40
0.0
 41
0.0
  0
VERTEX
  5
   10F
  8
0
  6
CONTINUOUS
 62
     0
 10
-61.94171839395
 20
-3.77124417393588
 30
0.0
 40
0.0
 41
0.0
  0
VERTEX
  5
   110
  8
0
  6
CONTINUOUS
 62
     0
 10
-61.9600351962191
 20
-3.88911852624885
 30
0.0
 40
0.0
 41
0.0
  0
VERTEX
  5
   111
  8
0
  6
CONTINUOUS
 62
     0
 10
-61.976183020039
 20
-4.0074190199667
 30
0.0
 40
0.0
 41
0.0
  0
VERTEX
  5
   112
  8
0
  6
CONTINUOUS
 62
     0
 10
-61.9902816257948
 20
-4.12604912897291
 30
0.0
 40
0.0
 41
0.0
  0
VERTEX
  5
   113
  8
0
  6
CONTINUOUS
 62
     0
 10
-62.005847955925
 20
-4.28165115014272
 30
0.0
 40
0.0
 41
0.0
  0
VERTEX
  5
   114
  8
0
  6
CONTINUOUS
 62
     0
 10
-62.0184197605658
 20
-4.43748687185255
 30
0.0
 40
0.0
 41
0.0
  0
VERTEX
  5
   115
  8
0
  6
CONTINUOUS
 62
     0
 10
-62.0283101296562
 20
-4.59340138306892
 30
0.0
 40
0.0
 41
0.0
  0
VERTEX
  5
   116
  8
0
  6
CONTINUOUS
 62
     0
 10
-62.0358439442196
 20
-4.74926237850684
 30
0.0
 40
0.0
 41
0.0
  0
VERTEX
  5
   117
  8
0
  6
CONTINUOUS
 62
     0
 10
-62.0451822703105
 20
-5.06039964403355
 30
0.0
 40
0.0
 41
0.0
  0
VERTEX
  5
   118
  8
0
  6
CONTINUOUS
 62
     0
 10
-62.0491548552392
 20
-5.37024176555308
 30
0.0
 40
0.0
 41
0.0
  0
VERTEX
  5
   119
  8
0
  6
CONTINUOUS
 62
     0
 10
-62.0517635744386
 20
-5.98475293544678
 30
0.0
 40
0.0
 41
0.0
  0
VERTEX
  5
   11A
  8
0
  6
CONTINUOUS
 62
     0
 10
-62.0554303452318
 20
-6.28932037859685
 30
0.0
 40
0.0
 41
0.0
  0
VERTEX
  5
   11B
  8
0
  6
CONTINUOUS
 62
     0
 10
-62.0635993789054
 20
-6.59230428738531
 30
0.0
 40
0.0
 41
0.0
  0
VERTEX
  5
   11C
  8
0
  6
CONTINUOUS
 62
     0
 10
-62.0780013885728
 20
-6.89400441974887
 30
0.0
 40
0.0
 41
0.0
  0
VERTEX
  5
   11D
  8
0
  6
CONTINUOUS
 62
     0
 10
-62.099879303186
 20
-7.1947840959281
 30
0.0
 40
0.0
 41
0.0
  0
VERTEX
  5
   11E
  8
0
  6
CONTINUOUS
 62
     0
 10
-62.1292313189971
 20
-7.48919274423854
 30
0.0
 40
0.0
 41
0.0
  0
VERTEX
  5
   11F
  8
0
  6
CONTINUOUS
 62
     0
 10
-62.166447044693
 20
-7.78343412767048
 30
0.0
 40
0.0
 41
0.0
  0
VERTEX
  5
   120
  8
0
  6
CONTINUOUS
 62
     0
 10
-62.2110680191456
 20
-8.07782052526593
 30
0.0
 40
0.0
 41
0.0
  0
VERTEX
  5
   121
  8
0
  6
CONTINUOUS
 62
     0
 10
-62.2622675842127
 20
-8.37261238918381
 30
0.0
 40
0.0
 41
0.0
  0
VERTEX
  5
   122
  8
0
  6
CONTINUOUS
 62
     0
 10
-62.3189815910564
 20
-8.66800242361423
 30
0.0
 40
0.0
 41
0.0
  0
VERTEX
  5
   123
  8
0
  6
CONTINUOUS
 62
     0
 10
-62.3800391064627
 20
-8.96409966369277
 30
0.0
 40
0.0
 41
0.0
  0
VERTEX
  5
   124
  8
0
  6
CONTINUOUS
 62
     0
 10
-62.4442931191608
 20
-9.26091355441478
 30
0.0
 40
0.0
 41
0.0
  0
VERTEX
  5
   125
  8
0
  6
CONTINUOUS
 62
     0
 10
-62.5107512461416
 20
-9.55833802954969
 30
0.0
 40
0.0
 41
0.0
  0
VERTEX
  5
   126
  8
0
  6
CONTINUOUS
 62
     0
 10
-62.6478676901423
 20
-10.153921385492
 30
0.0
 40
0.0
 41
0.0
  0
VERTEX
  5
   127
  8
0
  6
CONTINUOUS
 62
     0
 10
-62.7680196756094
 20
-10.6536415032597
 30
0.0
 40
0.0
 41
0.0
  0
VERTEX
  5
   128
  8
0
  6
CONTINUOUS
 62
     0
 10
-62.831102943689
 20
-10.9018137206756
 30
0.0
 40
0.0
 41
0.0
  0
VERTEX
  5
   129
  8
0
  6
CONTINUOUS
 62
     0
 10
-62.8973603117297
 20
-11.1481998766369
 30
0.0
 40
0.0
 41
0.0
  0
VERTEX
  5
   12A
  8
0
  6
CONTINUOUS
 62
     0
 10
-62.9678094415338
 20
-11.3922998523281
 30
0.0
 40
0.0
 41
0.0
  0
VERTEX
  5
   12B
  8
0
  6
CONTINUOUS
 62
     0
 10
-63.0434830417604
 20
-11.6336469546263
 30
0.0
 40
0.0
 41
0.0
  0
VERTEX
  5
   12C
  8
0
  6
CONTINUOUS
 62
     0
 10
-63.1253475906364
 20
-11.8718387664838
 30
0.0
 40
0.0
 41
0.0
  0
VERTEX
  5
   12D
  8
0
  6
CONTINUOUS
 62
     0
 10
-63.1688653835473
 20
-11.9896508507455
 30
0.0
 40
0.0
 41
0.0
  0
VERTEX
  5
   12E
  8
0
  6
CONTINUOUS
 62
     0
 10
-63.2142220586678
 20
-12.1065679973107
 30
0.0
 40
0.0
 41
0.0
  0
VERTEX
  5
   12F
  8
0
  6
CONTINUOUS
 62
     0
 10
-63.2614836046746
 20
-12.2225717197556
 30
0.0
 40
0.0
 41
0.0
  0
VERTEX
  5
   130
  8
0
  6
CONTINUOUS
 62
     0
 10
-63.3106966313505
 20
-12.3376533333579
 30
0.0
 40
0.0
 41
0.0
  0
VERTEX
  5
   131
  8
0
  6
CONTINUOUS
 62
     0
 10
-63.3618858296694
 20
-12.4518149191712
 30
0.0
 40
0.0
 41
0.0
  0
VERTEX
  5
   132
  8
0
  6
CONTINUOUS
 62
     0
 10
-63.4150514318811
 20
-12.5650702880997
 30
0.0
 40
0.0
 41
0.0
  0
VERTEX
  5
   133
  8
0
  6
CONTINUOUS
 62
     0
 10
-63.4706553577735
 20
-12.6784212812752
 30
0.0
 40
0.0
 41
0.0
  0
VERTEX
  5
   134
  8
0
  6
CONTINUOUS
 62
     0
 10
-63.5281865299003
 20
-12.7909178072788
 30
0.0
 40
0.0
 41
0.0
  0
VERTEX
  5
   135
  8
0
  6
CONTINUOUS
 62
     0
 10
-63.6486710397923
 20
-13.0135706968606
 30
0.0
 40
0.0
 41
0.0
  0
VERTEX
  5
   136
  8
0
  6
CONTINUOUS
 62
     0
 10
-63.7755632529409
 20
-13.2335737362858
 30
0.0
 40
0.0
 41
0.0
  0
VERTEX
  5
   137
  8
0
  6
CONTINUOUS
 62
     0
 10
-63.9076370864424
 20
-13.4515918535583
 30
0.0
 40
0.0
 41
0.0
  0
VERTEX
  5
   138
  8
0
  6
CONTINUOUS
 62
     0
 10
-64.043484548377
 20
-13.6683570774548
 30
0.0
 40
0.0
 41
0.0
  0
VERTEX
  5
   139
  8
0
  6
CONTINUOUS
 62
     0
 10
-64.4590119210674
 20
-14.3183481846362
 30
0.0
 40
0.0
 41
0.0
  0
VERTEX
  5
   13A
  8
0
  6
CONTINUOUS
 62
     0
 10
-64.5958220817563
 20
-14.5369074655702
 30
0.0
 40
0.0
 41
0.0
  0
VERTEX
  5
   13B
  8
0
  6
CONTINUOUS
 62
     0
 10
-64.7302235605762
 20
-14.7570238359248
 30
0.0
 40
0.0
 41
0.0
  0
VERTEX
  5
   13C
  8
0
  6
CONTINUOUS
 62
     0
 10
-64.8618576382516
 20
-14.9787028359386
 30
0.0
 40
0.0
 41
0.0
  0
VERTEX
  5
   13D
  8
0
  6
CONTINUOUS
 62
     0
 10
-64.9908736007054
 20
-15.2017038022021
 30
0.0
 40
0.0
 41
0.0
  0
VERTEX
  5
   13E
  8
0
  6
CONTINUOUS
 62
     0
 10
-65.369590552455
 20
-15.8727594515865
 30
0.0
 40
0.0
 41
0.0
  0
VERTEX
  5
   13F
  8
0
  6
CONTINUOUS
 62
     0
 10
-65.4968353370378
 20
-16.0944741306635
 30
0.0
 40
0.0
 41
0.0
  0
VERTEX
  5
   140
  8
0
  6
CONTINUOUS
 62
     0
 10
-65.6267980649776
 20
-16.3137350009254
 30
0.0
 40
0.0
 41
0.0
  0
VERTEX
  5
   141
  8
0
  6
CONTINUOUS
 62
     0
 10
-65.7607990880061
 20
-16.5297000942848
 30
0.0
 40
0.0
 41
0.0
  0
VERTEX
  5
   142
  8
0
  6
CONTINUOUS
 62
     0
 10
-65.9000177310424
 20
-16.7416361091687
 30
0.0
 40
0.0
 41
0.0
  0
VERTEX
  5
   143
  8
0
  6
CONTINUOUS
 62
     0
 10
-65.9718898637064
 20
-16.8459082818845
 30
0.0
 40
0.0
 41
0.0
  0
VERTEX
  5
   144
  8
0
  6
CONTINUOUS
 62
     0
 10
-66.0453956892713
 20
-16.94897738375
 30
0.0
 40
0.0
 41
0.0
  0
VERTEX
  5
   145
  8
0
  6
CONTINUOUS
 62
     0
 10
-66.1696714561385
 20
-17.1153613277057
 30
0.0
 40
0.0
 41
0.0
  0
VERTEX
  5
   146
  8
0
  6
CONTINUOUS
 62
     0
 10
-66.2986452450797
 20
-17.2783649690416
 30
0.0
 40
0.0
 41
0.0
  0
VERTEX
  5
   147
  8
0
  6
CONTINUOUS
 62
     0
 10
-66.4322832550121
 20
-17.4380447769328
 30
0.0
 40
0.0
 41
0.0
  0
VERTEX
  5
   148
  8
0
  6
CONTINUOUS
 62
     0
 10
-66.5704031438125
 20
-17.5945529051654
 30
0.0
 40
0.0
 41
0.0
  0
VERTEX
  5
   149
  8
0
  6
CONTINUOUS
 62
     0
 10
-66.7126972461444
 20
-17.7481204127413
 30
0.0
 40
0.0
 41
0.0
  0
VERTEX
  5
   14A
  8
0
  6
CONTINUOUS
 62
     0
 10
-66.8587557912861
 20
-17.899040484484
 30
0.0
 40
0.0
 41
0.0
  0
VERTEX
  5
   14B
  8
0
  6
CONTINUOUS
 62
     0
 10
-67.0080901209576
 20
-18.0476516516433
 30
0.0
 40
0.0
 41
0.0
  0
VERTEX
  5
   14C
  8
0
  6
CONTINUOUS
 62
     0
 10
-67.1601559071483
 20
-18.1943210125007
 30
0.0
 40
0.0
 41
0.0
  0
VERTEX
  5
   14D
  8
0
  6
CONTINUOUS
 62
     0
 10
-67.4701654953576
 20
-18.4833448672275
 30
0.0
 40
0.0
 41
0.0
  0
VERTEX
  5
   14E
  8
0
  6
CONTINUOUS
 62
     0
 10
-68.2353405630027
 20
-19.1790230205308
 30
0.0
 40
0.0
 41
0.0
  0
VERTEX
  5
   14F
  8
0
  6
CONTINUOUS
 62
     0
 10
-68.6106402523282
 20
-19.5283618421602
 30
0.0
 40
0.0
 41
0.0
  0
VERTEX
  5
   150
  8
0
  6
CONTINUOUS
 62
     0
 10
-68.7948074464772
 20
-19.7042450254086
 30
0.0
 40
0.0
 41
0.0
  0
VERTEX
  5
   151
  8
0
  6
CONTINUOUS
 62
     0
 10
-68.9765008196385
 20
-19.88101637668
 30
0.0
 40
0.0
 41
0.0
  0
VERTEX
  5
   152
  8
0
  6
CONTINUOUS
 62
     0
 10
-69.333326011009
 20
-20.2369077054877
 30
0.0
 40
0.0
 41
0.0
  0
VERTEX
  5
   153
  8
0
  6
CONTINUOUS
 62
     0
 10
-69.6854728303112
 20
-20.5946443685376
 30
0.0
 40
0.0
 41
0.0
  0
VERTEX
  5
   154
  8
0
  6
CONTINUOUS
 62
     0
 10
-70.0405018513967
 20
-20.9512796612042
 30
0.0
 40
0.0
 41
0.0
  0
VERTEX
  5
   155
  8
0
  6
CONTINUOUS
 62
     0
 10
-70.2218979893783
 20
-21.1282118151695
 30
0.0
 40
0.0
 41
0.0
  0
VERTEX
  5
   156
  8
0
  6
CONTINUOUS
 62
     0
 10
-70.4072223619528
 20
-21.3037789201358
 30
0.0
 40
0.0
 41
0.0
  0
VERTEX
  5
   157
  8
0
  6
CONTINUOUS
 62
     0
 10
-70.5972017154367
 20
-21.4777671155417
 30
0.0
 40
0.0
 41
0.0
  0
VERTEX
  5
   158
  8
0
  6
CONTINUOUS
 62
     0
 10
-70.7922145430722
 20
-21.6501035220748
 30
0.0
 40
0.0
 41
0.0
  0
VERTEX
  5
   159
  8
0
  6
CONTINUOUS
 62
     0
 10
-70.9921866180715
 20
-21.8208956060434
 30
0.0
 40
0.0
 41
0.0
  0
VERTEX
  5
   15A
  8
0
  6
CONTINUOUS
 62
     0
 10
-71.1964865266603
 20
-21.9904705437478
 30
0.0
 40
0.0
 41
0.0
  0
VERTEX
  5
   15B
  8
0
  6
CONTINUOUS
 62
     0
 10
-71.6565547653081
 20
-22.3647975412159
 30
0.0
 40
0.0
 41
0.0
  0
VERTEX
  5
   15C
  8
0
  6
CONTINUOUS
 62
     0
 10
-71.8844375337082
 20
-22.554083710695
 30
0.0
 40
0.0
 41
0.0
  0
VERTEX
  5
   15D
  8
0
  6
CONTINUOUS
 62
     0
 10
-71.9961068961029
 20
-22.649976304379
 30
0.0
 40
0.0
 41
0.0
  0
VERTEX
  5
   15E
  8
0
  6
CONTINUOUS
 62
     0
 10
-72.1055315086461
 20
-22.7470005106448
 30
0.0
 40
0.0
 41
0.0
  0
VERTEX
  5
   15F
  8
0
  6
CONTINUOUS
 62
     0
 10
-72.2121518776975
 20
-22.8453834812679
 30
0.0
 40
0.0
 41
0.0
  0
VERTEX
  5
   160
  8
0
  6
CONTINUOUS
 62
     0
 10
-72.3154099435185
 20
-22.9453504398563
 30
0.0
 40
0.0
 41
0.0
  0
VERTEX
  5
   161
  8
0
  6
CONTINUOUS
 62
     0
 10
-72.4147582366261
 20
-23.0471209438364
 30
0.0
 40
0.0
 41
0.0
  0
VERTEX
  5
   162
  8
0
  6
CONTINUOUS
 62
     0
 10
-72.5096690341475
 20
-23.1509051464398
 30
0.0
 40
0.0
 41
0.0
  0
VERTEX
  5
   163
  8
0
  6
CONTINUOUS
 62
     0
 10
-72.5996435161743
 20
-23.2569000586889
 30
0.0
 40
0.0
 41
0.0
  0
VERTEX
  5
   164
  8
0
  6
CONTINUOUS
 62
     0
 10
-72.6842209221162
 20
-23.3652858113838
 30
0.0
 40
0.0
 41
0.0
  0
VERTEX
  5
   165
  8
0
  6
CONTINUOUS
 62
     0
 10
-72.7629877070556
 20
-23.476221917088
 30
0.0
 40
0.0
 41
0.0
  0
VERTEX
  5
   166
  8
0
  6
CONTINUOUS
 62
     0
 10
-72.8355866981018
 20
-23.5898435321146
 30
0.0
 40
0.0
 41
0.0
  0
VERTEX
  5
   167
  8
0
  6
CONTINUOUS
 62
     0
 10
-72.9017262507449
 20
-23.7062577185129
 30
0.0
 40
0.0
 41
0.0
  0
VERTEX
  5
   168
  8
0
  6
CONTINUOUS
 62
     0
 10
-72.9611894052105
 20
-23.8255397060545
 30
0.0
 40
0.0
 41
0.0
  0
VERTEX
  5
   169
  8
0
  6
CONTINUOUS
 62
     0
 10
-73.0138430428133
 20
-23.9477291542192
 30
0.0
 40
0.0
 41
0.0
  0
VERTEX
  5
   16A
  8
0
  6
CONTINUOUS
 62
     0
 10
-73.0596470423117
 20
-24.0728264141816
 30
0.0
 40
0.0
 41
0.0
  0
VERTEX
  5
   16B
  8
0
  6
CONTINUOUS
 62
     0
 10
-73.0862668299358
 20
-24.1573566761571
 30
0.0
 40
0.0
 41
0.0
  0
VERTEX
  5
   16C
  8
0
  6
CONTINUOUS
 62
     0
 10
-73.1099442300875
 20
-24.2431241738443
 30
0.0
 40
0.0
 41
0.0
  0
VERTEX
  5
   16D
  8
0
  6
CONTINUOUS
 62
     0
 10
-73.1307431284155
 20
-24.330097215425
 30
0.0
 40
0.0
 41
0.0
  0
VERTEX
  5
   16E
  8
0
  6
CONTINUOUS
 62
     0
 10
-73.1487456851156
 20
-24.4182364494099
 30
0.0
 40
0.0
 41
0.0
  0
VERTEX
  5
   16F
  8
0
  6
CONTINUOUS
 62
     0
 10
-73.1640507150722
 20
-24.5074955560901
 30
0.0
 40
0.0
 41
0.0
  0
VERTEX
  5
   170
  8
0
  6
CONTINUOUS
 62
     0
 10
-73.1767720680009
 20
-24.5978219389899
 30
0.0
 40
0.0
 41
0.0
  0
VERTEX
  5
   171
  8
0
  6
CONTINUOUS
 62
     0
 10
-73.1870370085912
 20
-24.6891574163177
 30
0.0
 40
0.0
 41
0.0
  0
VERTEX
  5
   172
  8
0
  6
CONTINUOUS
 62
     0
 10
-73.1949845966483
 20
-24.7814389124187
 30
0.0
 40
0.0
 41
0.0
  0
VERTEX
  5
   173
  8
0
  6
CONTINUOUS
 62
     0
 10
-73.2007640672356
 20
-24.8745991492265
 30
0.0
 40
0.0
 41
0.0
  0
VERTEX
  5
   174
  8
0
  6
CONTINUOUS
 62
     0
 10
-73.204533210817
 20
-24.9685673377149
 30
0.0
 40
0.0
 41
0.0
  0
VERTEX
  5
   175
  8
0
  6
CONTINUOUS
 62
     0
 10
-73.2067047366749
 20
-25.1586310075419
 30
0.0
 40
0.0
 41
0.0
  0
VERTEX
  5
   176
  8
0
  6
CONTINUOUS
 62
     0
 10
-73.2028710513529
 20
-25.3510196656696
 30
0.0
 40
0.0
 41
0.0
  0
VERTEX
  5
   177
  8
0
  6
CONTINUOUS
 62
     0
 10
-73.1944372474992
 20
-25.5451111334352
 30
0.0
 40
0.0
 41
0.0
  0
VERTEX
  5
   178
  8
0
  6
CONTINUOUS
 62
     0
 10
-73.169244719703
 20
-25.935986929833
 30
0.0
 40
0.0
 41
0.0
  0
VERTEX
  5
   179
  8
0
  6
CONTINUOUS
 62
     0
 10
-73.1336129084997
 20
-26.4381691811677
 30
0.0
 40
0.0
 41
0.0
  0
VERTEX
  5
   17A
  8
0
  6
CONTINUOUS
 62
     0
 10
-73.118986039433
 20
-26.6870550222749
 30
0.0
 40
0.0
 41
0.0
  0
VERTEX
  5
   17B
  8
0
  6
CONTINUOUS
 62
     0
 10
-73.1084059734294
 20
-26.9336258856321
 30
0.0
 40
0.0
 41
0.0
  0
VERTEX
  5
   17C
  8
0
  6
CONTINUOUS
 62
     0
 10
-73.1028846910056
 20
-27.17743668663
 30
0.0
 40
0.0
 41
0.0
  0
VERTEX
  5
   17D
  8
0
  6
CONTINUOUS
 62
     0
 10
-73.1031484370032
 20
-27.4181680116074
 30
0.0
 40
0.0
 41
0.0
  0
VERTEX
  5
   17E
  8
0
  6
CONTINUOUS
 62
     0
 10
-73.1096853432008
 20
-27.6556051726939
 30
0.0
 40
0.0
 41
0.0
  0
VERTEX
  5
   17F
  8
0
  6
CONTINUOUS
 62
     0
 10
-73.122793050927
 20
-27.8896172626515
 30
0.0
 40
0.0
 41
0.0
  0
VERTEX
  5
   180
  8
0
  6
CONTINUOUS
 62
     0
 10
-73.1426263336725
 20
-28.1201362097163
 30
0.0
 40
0.0
 41
0.0
  0
VERTEX
  5
   181
  8
0
  6
CONTINUOUS
 62
     0
 10
-73.169244719703
 20
-28.3471358324407
 30
0.0
 40
0.0
 41
0.0
  0
SEQEND
  5
   182
  8
0
  6
CONTINUOUS
 62
     0
  0
ENDBLK
  5
   183
  8
0
  6
CONTINUOUS
 62
     0
  0
BLOCK
  5
   184
  8
0
  6
CONTINUOUS
 62
     7
  2
MOSTRINA
 70
    64
 10
0.0
 20
0.0
 30
0.0
  3
MOSTRINA
  0
LINE
  5
   185
  8
0
  6
CONTINUOUS
 62
     3
 10
173.338256835938
 20
30.7306251525879
 30
0.0
 11
173.338256835938
 21
189.230621337891
 31
0.0
  0
LINE
  5
   186
  8
0
  6
CONTINUOUS
 62
     3
 10
57.5882568359375
 20
29.4806251525879
 30
0.0
 11
172.088256835938
 21
29.4806251525879
 31
0.0
  0
LINE
  5
   187
  8
0
  6
CONTINUOUS
 62
     3
 10
56.3382568359375
 20
30.7306251525879
 30
0.0
 11
56.3382568359375
 21
189.230621337891
 31
0.0
  0
LINE
  5
   188
  8
0
  6
CONTINUOUS
 62
     3
 10
57.5882568359375
 20
190.480621337891
 30
0.0
 11
172.088256835938
 21
190.480621337891
 31
0.0
  0
LINE
  5
   189
  8
0
  6
CONTINUOUS
 62
     3
 10
167.838256835938
 20
56.9806251525879
 30
0.0
 11
167.838256835938
 21
162.980625152588
 31
0.0
  0
LINE
  5
   18A
  8
0
  6
CONTINUOUS
 62
     3
 10
61.8382568359375
 20
56.9806251525879
 30
0.0
 11
167.838256835938
 21
56.9806251525879
 31
0.0
  0
LINE
  5
   18B
  8
0
  6
CONTINUOUS
 62
     3
 10
61.8382568359375
 20
56.9806251525879
 30
0.0
 11
61.8382568359375
 21
162.980625152588
 31
0.0
  0
LINE
  5
   18C
  8
0
  6
CONTINUOUS
 62
     3
 10
61.8382568359375
 20
162.980621337891
 30
0.0
 11
167.838256835938
 21
162.980621337891
 31
0.0
  0
LINE
  5
   18D
  8
0
  6
CONTINUOUS
 62
     3
 10
168.838256835938
 20
48.4806251525879
 30
0.0
 11
168.838256835938
 21
49.4806251525879
 31
0.0
  0
LINE
  5
   18E
  8
0
  6
CONTINUOUS
 62
     3
 10
61.8382568359375
 20
50.4806251525879
 30
0.0
 11
167.838256835938
 21
50.4806251525879
 31
0.0
  0
LINE
  5
   18F
  8
0
  6
CONTINUOUS
 62
     3
 10
60.8382568359375
 20
48.4806251525879
 30
0.0
 11
60.8382568359375
 21
49.4806251525879
 31
0.0
  0
LINE
  5
   190
  8
0
  6
CONTINUOUS
 62
     3
 10
61.8382568359375
 20
49.4806251525879
 30
0.0
 11
167.838256835938
 21
49.4806251525879
 31
0.0
  0
LINE
  5
   191
  8
0
  6
CONTINUOUS
 62
     3
 10
60.8382568359375
 20
29.4806251525879
 30
0.0
 11
60.8382568359375
 21
48.4806251525879
 31
0.0
  0
LINE
  5
   192
  8
0
  6
CONTINUOUS
 62
     3
 10
60.8382568359375
 20
49.4806213378906
 30
0.0
 11
60.8382568359375
 21
190.480621337891
 31
0.0
  0
LINE
  5
   193
  8
0
  6
CONTINUOUS
 62
     3
 10
61.8382568359375
 20
29.4806251525879
 30
0.0
 11
61.8382568359375
 21
49.4806251525879
 31
0.0
  0
LINE
  5
   194
  8
0
  6
CONTINUOUS
 62
     3
 10
61.8382568359375
 20
162.980621337891
 30
0.0
 11
61.8382568359375
 21
169.480621337891
 31
0.0
  0
LINE
  5
   195
  8
0
  6
CONTINUOUS
 62
     3
 10
61.8382568359375
 20
50.4806251525879
 30
0.0
 11
61.8382568359375
 21
56.9806251525879
 31
0.0
  0
LINE
  5
   196
  8
0
  6
CONTINUOUS
 62
     3
 10
168.838256835938
 20
29.4806251525879
 30
0.0
 11
168.838256835938
 21
48.4806251525879
 31
0.0
  0
LINE
  5
   197
  8
0
  6
CONTINUOUS
 62
     3
 10
168.838256835938
 20
49.4806251525879
 30
0.0
 11
168.838256835938
 21
190.480621337891
 31
0.0
  0
LINE
  5
   198
  8
0
  6
CONTINUOUS
 62
     3
 10
167.838256835938
 20
50.4806251525879
 30
0.0
 11
167.838256835938
 21
56.9806251525879
 31
0.0
  0
LINE
  5
   199
  8
0
  6
CONTINUOUS
 62
     3
 10
167.838256835938
 20
162.980621337891
 30
0.0
 11
167.838256835938
 21
169.480621337891
 31
0.0
  0
LINE
  5
   19A
  8
0
  6
CONTINUOUS
 62
     3
 10
167.838256835938
 20
29.4806251525879
 30
0.0
 11
167.838256835938
 21
49.4806251525879
 31
0.0
  0
LINE
  5
   19B
  8
0
  6
CONTINUOUS
 62
     3
 10
60.8382568359375
 20
170.480621337891
 30
0.0
 11
168.838256835938
 21
170.480621337891
 31
0.0
  0
LINE
  5
   19C
  8
0
  6
CONTINUOUS
 62
     3
 10
61.8382568359375
 20
169.480621337891
 30
0.0
 11
167.838256835938
 21
169.480621337891
 31
0.0
  0
ARC
  5
   19D
  8
0
  6
CONTINUOUS
 62
     3
 10
57.5882568359375
 20
30.7306251525879
 30
0.0
 40
1.25
 50
180.0
 51
270.0
  0
ARC
  5
   19E
  8
0
  6
CONTINUOUS
 62
     3
 10
172.088256835938
 20
30.7306251525879
 30
0.0
 40
1.25
 50
270.0
 51
360.0
  0
ARC
  5
   19F
  8
0
  6
CONTINUOUS
 62
     3
 10
172.088256835938
 20
189.230621337891
 30
0.0
 40
1.25
 50
0.0
 51
90.0
  0
ARC
  5
   1A0
  8
0
  6
CONTINUOUS
 62
     3
 10
57.5882568359375
 20
189.230621337891
 30
0.0
 40
1.25
 50
90.0
 51
180.0
  0
LINE
  5
   1A1
  8
0
  6
DOT
 62
     3
 10
60.3382577409677
 20
179.7306252571
 30
0.0
 11
60.8382568359375
 21
179.7306252571
 31
0.0
  0
LINE
  5
   1A2
  8
0
  6
DOT
 62
     3
 10
60.3382577409676
 20
181.2306252571
 30
0.0
 11
60.8382568359375
 21
181.2306252571
 31
0.0
  0
LINE
  5
   1A3
  8
0
  6
CONTINUOUS
 62
     3
 10
168.338257745313
 20
179.730625257273
 30
0.0
 11
168.838256835938
 21
179.730625257273
 31
0.0
  0
LINE
  5
   1A4
  8
0
  6
CONTINUOUS
 62
     3
 10
168.338257745314
 20
181.230625257273
 30
0.0
 11
168.838256835938
 21
181.230625257273
 31
0.0
  0
ARC
  5
   1A5
  8
0
  6
DOT
 62
     3
 10
60.3382577401871
 20
180.480625257147
 30
0.0
 40
0.749999999345164
 50
90.0
 51
270.0
  0
ARC
  5
   1A6
  8
0
  6
CONTINUOUS
 62
     3
 10
61.338257740822
 20
180.480625256974
 30
0.0
 40
0.750000000009701
 50
270.0
 51
450.0
  0
LINE
  5
   1A7
  8
0
  6
CONTINUOUS
 62
     3
 10
60.8382568359375
 20
181.2306252571
 30
0.0
 11
61.3382577409688
 21
181.2306252571
 31
0.0
  0
LINE
  5
   1A8
  8
0
  6
CONTINUOUS
 62
     3
 10
60.8382568359375
 20
179.7306252571
 30
0.0
 11
61.3382577409689
 21
179.7306252571
 31
0.0
  0
ARC
  5
   1A9
  8
0
  6
CONTINUOUS
 62
     3
 10
168.338257745503
 20
180.480625256952
 30
0.0
 40
0.750000000048506
 50
90.0000000038822
 51
269.999999996024
  0
ARC
  5
   1AA
  8
0
  6
DOT
 62
     3
 10
169.338257745421
 20
180.480625256965
 30
0.0
 40
0.750000000029104
 50
270.000000002449
 51
449.999999997486
  0
LINE
  5
   1AB
  8
0
  6
DOT
 62
     3
 10
168.838256835938
 20
181.230625257273
 30
0.0
 11
169.338257745315
 21
181.230625257273
 31
0.0
  0
LINE
  5
   1AC
  8
0
  6
DOT
 62
     3
 10
168.838256835938
 20
179.730625257273
 30
0.0
 11
169.338257745315
 21
179.730625257273
 31
0.0
  0
POINT
  5
   1AD
  8
0
  6
CONTINUOUS
 62
     3
 10
114.838256835938
 20
109.980621337891
 30
0.0
  0
ENDBLK
  5
   1AE
  8
0
  6
CONTINUOUS
 62
     7
  0
BLOCK
  5
   1AF
  8
0
  6
CONTINUOUS
 62
     7
  2
*UDIM151
 70
    65
 10
0.0
 20
0.0
 30
0.0
  3
*UDIM151
  0
TEXT
  5
   1B0
  8
0
  6
CONTINUOUS
 62
     7
 10
-1130.97380575531
 20
69.6495133093337
 30
0.0
 40
3.00000002980232
  1
max 189
 50
89.9999999480344
 41
0.933333333333333
 72
     1
 11
-1132.47380576161
 21
79.1495134050663
 31
0.0
 73
     2
  0
LINE
  5
   1B1
  8
0
  6
CONTINUOUS
 62
     7
 10
-1112.49887652305
 20
55.8994917999563
 30
0.0
 11
-1131.97380574671
 21
55.8994917999563
 31
0.0
  0
LINE
  5
   1B2
  8
0
  6
CONTINUOUS
 62
     7
 10
-1095.55315897315
 20
102.399535010176
 30
0.0
 11
-1131.97380574671
 21
102.399535010176
 31
0.0
  0
LINE
  5
   1B3
  8
0
  6
CONTINUOUS
 62
     7
 10
-1129.97380574671
 20
55.8994917999563
 30
0.0
 11
-1129.97380574671
 21
102.399535010176
 31
0.0
  0
LINE
  5
   1B4
  8
0
  6
CONTINUOUS
 62
     7
 10
-1130.75026290313
 20
58.7972692731668
 30
0.0
 11
-1129.97380574671
 21
55.8994917999563
 31
0.0
  0
LINE
  5
   1B5
  8
0
  6
CONTINUOUS
 62
     7
 10
-1129.97380574671
 20
55.8994917999563
 30
0.0
 11
-1129.19734859029
 21
58.7972692731668
 31
0.0
  0
LINE
  5
   1B6
  8
0
  6
CONTINUOUS
 62
     7
 10
-1129.19734859029
 20
99.5017575369658
 30
0.0
 11
-1129.97380574671
 21
102.399535010176
 31
0.0
  0
LINE
  5
   1B7
  8
0
  6
CONTINUOUS
 62
     7
 10
-1129.97380574671
 20
102.399535010176
 30
0.0
 11
-1130.75026290313
 21
99.5017575369658
 31
0.0
  0
ENDBLK
  5
   1B8
  8
0
  6
CONTINUOUS
 62
     7
  0
BLOCK
  5
   1B9
  8
0
  6
CONTINUOUS
 62
     7
  2
*UDIM152
 70
    65
 10
0.0
 20
0.0
 30
0.0
  3
*UDIM152
  0
TEXT
  5
   1BA
  8
0
  6
CONTINUOUS
 62
     7
 10
-1007.12635171767
 20
-10.9004906161304
 30
0.0
 40
3.00000002980232
  1
161
 50
89.9999999480344
 41
0.933333333333333
 72
     1
 11
-1008.62635172904
 21
-7.00049057602882
 31
0.0
 73
     2
  0
LINE
  5
   1BB
  8
0
  6
CONTINUOUS
 62
     7
 10
-1026.7488791653
 20
-46.9754886627197
 30
0.0
 11
-1004.12635171413
 21
-46.9754886627197
 31
0.0
  0
LINE
  5
   1BC
  8
0
  6
CONTINUOUS
 62
     7
 10
-1026.7488791653
 20
33.5245094299316
 30
0.0
 11
-1004.12635171413
 21
33.5245094299316
 31
0.0
  0
LINE
  5
   1BD
  8
0
  6
CONTINUOUS
 62
     7
 10
-1006.12635171413
 20
-46.9754886627197
 30
0.0
 11
-1006.12635171413
 21
33.5245094299316
 31
0.0
  0
LINE
  5
   1BE
  8
0
  6
CONTINUOUS
 62
     7
 10
-1006.64729614409
 20
-44.0210653855128
 30
0.0
 11
-1006.12635171413
 21
-46.9754886627197
 31
0.0
  0
LINE
  5
   1BF
  8
0
  6
CONTINUOUS
 62
     7
 10
-1006.12635171413
 20
-46.9754886627197
 30
0.0
 11
-1005.60540728418
 21
-44.0210653855128
 31
0.0
  0
LINE
  5
   1C0
  8
0
  6
CONTINUOUS
 62
     7
 10
-1005.60540728418
 20
30.5700861527247
 30
0.0
 11
-1006.12635171413
 21
33.5245094299316
 31
0.0
  0
LINE
  5
   1C1
  8
0
  6
CONTINUOUS
 62
     7
 10
-1006.12635171413
 20
33.5245094299316
 30
0.0
 11
-1006.64729614409
 21
30.5700861527247
 31
0.0
  0
ENDBLK
  5
   1C2
  8
0
  6
CONTINUOUS
 62
     7
  0
BLOCK
  5
   1C3
  8
0
  6
CONTINUOUS
 62
     7
  2
*UDIM153
 70
    65
 10
0.0
 20
0.0
 30
0.0
  3
*UDIM153
  0
TEXT
  5
   1C4
  8
0
  6
CONTINUOUS
 62
     7
 10
-1014.67069769639
 20
16.8370017073149
 30
0.0
 40
3.00000002980232
  1
127,75
 50
89.9999999480344
 41
0.933333333333333
 72
     1
 11
-1016.17069770396
 21
24.9370017891397
 31
0.0
 73
     2
  0
LINE
  5
   1C5
  8
0
  6
CONTINUOUS
 62
     7
 10
-1014.63049189024
 20
-6.72549057006836
 30
0.0
 11
-1011.67069768906
 21
-6.72549057006836
 31
0.0
  0
LINE
  5
   1C6
  8
0
  6
CONTINUOUS
 62
     7
 10
-1020.99888412507
 20
57.1494952331523
 30
0.0
 11
-1011.67069768906
 21
57.1494952331523
 31
0.0
  0
LINE
  5
   1C7
  8
0
  6
CONTINUOUS
 62
     7
 10
-1013.67069768906
 20
-6.72549057006836
 30
0.0
 11
-1013.67069768906
 21
57.1494952331523
 31
0.0
  0
LINE
  5
   1C8
  8
0
  6
CONTINUOUS
 62
     7
 10
-1014.19164211901
 20
-3.7710672928614
 30
0.0
 11
-1013.67069768906
 21
-6.72549057006836
 31
0.0
  0
LINE
  5
   1C9
  8
0
  6
CONTINUOUS
 62
     7
 10
-1013.67069768906
 20
-6.72549057006836
 30
0.0
 11
-1013.1497532591
 21
-3.7710672928614
 31
0.0
  0
LINE
  5
   1CA
  8
0
  6
CONTINUOUS
 62
     7
 10
-1013.1497532591
 20
54.1950719559453
 30
0.0
 11
-1013.67069768906
 21
57.1494952331523
 31
0.0
  0
LINE
  5
   1CB
  8
0
  6
CONTINUOUS
 62
     7
 10
-1013.67069768906
 20
57.1494952331523
 30
0.0
 11
-1014.19164211901
 21
54.1950719559453
 31
0.0
  0
ENDBLK
  5
   1CC
  8
0
  6
CONTINUOUS
 62
     7
  0
BLOCK
  5
   1CD
  8
0
  6
CONTINUOUS
 62
     7
  2
*UDIM154
 70
    65
 10
0.0
 20
0.0
 30
0.0
  3
*UDIM154
  0
TEXT
  5
   1CE
  8
0
  6
CONTINUOUS
 62
     7
 10
-998.06214809771
 20
-11.7754906065725
 30
0.0
 40
3.00000002980232
  1
259
 50
89.9999999480344
 41
0.933333333333333
 72
     1
 11
-999.562148109079
 21
-7.87549056647092
 31
0.0
 73
     2
  0
LINE
  5
   1CF
  8
0
  6
CONTINUOUS
 62
     7
 10
-1023.37388659907
 20
-72.3504658041511
 30
0.0
 11
-995.062148094177
 21
-72.3504658041511
 31
0.0
  0
LINE
  5
   1D0
  8
0
  6
CONTINUOUS
 62
     7
 10
-1020.99888412507
 20
57.1494952331523
 30
0.0
 11
-995.062148094177
 21
57.1494952331523
 31
0.0
  0
LINE
  5
   1D1
  8
0
  6
CONTINUOUS
 62
     7
 10
-997.062148094177
 20
-72.3504658041511
 30
0.0
 11
-997.062148094177
 21
57.1494952331523
 31
0.0
  0
LINE
  5
   1D2
  8
0
  6
CONTINUOUS
 62
     7
 10
-997.583092524129
 20
-69.3960425269441
 30
0.0
 11
-997.062148094177
 21
-72.3504658041511
 31
0.0
  0
LINE
  5
   1D3
  8
0
  6
CONTINUOUS
 62
     7
 10
-997.062148094177
 20
-72.3504658041511
 30
0.0
 11
-996.541203664226
 21
-69.3960425269441
 31
0.0
  0
LINE
  5
   1D4
  8
0
  6
CONTINUOUS
 62
     7
 10
-996.541203664226
 20
54.1950719559453
 30
0.0
 11
-997.062148094177
 21
57.1494952331523
 31
0.0
  0
LINE
  5
   1D5
  8
0
  6
CONTINUOUS
 62
     7
 10
-997.062148094177
 20
57.1494952331523
 30
0.0
 11
-997.583092524129
 21
54.1950719559453
 31
0.0
  0
ENDBLK
  5
   1D6
  8
0
  6
CONTINUOUS
 62
     7
  0
BLOCK
  5
   1D7
  8
0
  6
CONTINUOUS
 62
     7
  2
*UDIM155
 70
    65
 10
0.0
 20
0.0
 30
0.0
  3
*UDIM155
  0
TEXT
  5
   1D8
  8
0
  6
CONTINUOUS
 62
     7
 10
-1124.38168335695
 20
16.2120017192515
 30
0.0
 40
3.00000002980232
  1
125,25
 50
89.9999999480344
 41
0.933333333333333
 72
     1
 11
-1125.88168336451
 21
24.3120018010764
 31
0.0
 73
     2
  0
LINE
  5
   1D9
  8
0
  6
CONTINUOUS
 62
     7
 10
-1122.94561820165
 20
-6.72549057006836
 30
0.0
 11
-1125.38168334961
 21
-6.72549057006836
 31
0.0
  0
LINE
  5
   1DA
  8
0
  6
CONTINUOUS
 62
     7
 10
-1112.49887652305
 20
55.8994917999563
 30
0.0
 11
-1125.38168334961
 21
55.8994917999563
 31
0.0
  0
LINE
  5
   1DB
  8
0
  6
CONTINUOUS
 62
     7
 10
-1123.38168334961
 20
-6.72549057006836
 30
0.0
 11
-1123.38168334961
 21
55.8994917999563
 31
0.0
  0
LINE
  5
   1DC
  8
0
  6
CONTINUOUS
 62
     7
 10
-1123.90262777956
 20
-3.7710672928614
 30
0.0
 11
-1123.38168334961
 21
-6.72549057006836
 31
0.0
  0
LINE
  5
   1DD
  8
0
  6
CONTINUOUS
 62
     7
 10
-1123.38168334961
 20
-6.72549057006836
 30
0.0
 11
-1122.86073891966
 21
-3.7710672928614
 31
0.0
  0
LINE
  5
   1DE
  8
0
  6
CONTINUOUS
 62
     7
 10
-1122.86073891966
 20
52.9450685227493
 30
0.0
 11
-1123.38168334961
 21
55.8994917999563
 31
0.0
  0
LINE
  5
   1DF
  8
0
  6
CONTINUOUS
 62
     7
 10
-1123.38168334961
 20
55.8994917999563
 30
0.0
 11
-1123.90262777956
 21
52.9450685227493
 31
0.0
  0
ENDBLK
  5
   1E0
  8
0
  6
CONTINUOUS
 62
     7
  0
BLOCK
  5
   1E1
  8
0
  6
CONTINUOUS
 62
     7
  2
*UDIM156
 70
    65
 10
0.0
 20
0.0
 30
0.0
  3
*UDIM156
  0
TEXT
  5
   1E2
  8
0
  6
CONTINUOUS
 62
     7
 10
-1056.26709810416
 20
-92.860847469627
 30
0.0
 40
3.00000002980232
  1
105
 50
359.999999948034
 41
0.933333333333333
 72
     1
 11
-1052.36709806407
 21
-91.3608474582434
 31
0.0
 73
     2
  0
LINE
  5
   1E3
  8
0
  6
CONTINUOUS
 62
     7
 10
-1030.12389442409
 20
-0.725490570068359
 30
0.0
 11
-1030.12389442409
 21
-95.8608474731445
 31
0.0
  0
LINE
  5
   1E4
  8
0
  6
CONTINUOUS
 62
     7
 10
-1082.62388679468
 20
-0.725490570068352
 30
0.0
 11
-1082.62388679468
 21
-95.8608474731445
 31
0.0
  0
LINE
  5
   1E5
  8
0
  6
CONTINUOUS
 62
     7
 10
-1030.12389442409
 20
-93.8608474731445
 30
0.0
 11
-1082.62388679468
 21
-93.8608474731445
 31
0.0
  0
LINE
  5
   1E6
  8
0
  6
CONTINUOUS
 62
     7
 10
-1033.07831770129
 20
-94.3817919030962
 30
0.0
 11
-1030.12389442409
 21
-93.8608474731445
 31
0.0
  0
LINE
  5
   1E7
  8
0
  6
CONTINUOUS
 62
     7
 10
-1030.12389442409
 20
-93.8608474731445
 30
0.0
 11
-1033.07831770129
 21
-93.3399030431929
 31
0.0
  0
LINE
  5
   1E8
  8
0
  6
CONTINUOUS
 62
     7
 10
-1079.66946351747
 20
-93.3399030431929
 30
0.0
 11
-1082.62388679468
 21
-93.8608474731445
 31
0.0
  0
LINE
  5
   1E9
  8
0
  6
CONTINUOUS
 62
     7
 10
-1082.62388679468
 20
-93.8608474731445
 30
0.0
 11
-1079.66946351747
 21
-94.3817919030962
 31
0.0
  0
ENDBLK
  5
   1EA
  8
0
  6
CONTINUOUS
 62
     7
  0
BLOCK
  5
   1EB
  8
0
  6
CONTINUOUS
 62
     7
  2
*UDIM157
 70
    65
 10
0.0
 20
0.0
 30
0.0
  3
*UDIM157
  0
TEXT
  5
   1EC
  8
0
  6
CONTINUOUS
 62
     7
 10
-1130.90653992052
 20
-11.7754906244381
 30
0.0
 40
3.00000002980232
  1
254
 50
89.9999999480344
 41
0.933333333333333
 72
     1
 11
-1132.40653993189
 21
-7.87549058433655
 31
0.0
 73
     2
  0
LINE
  5
   1ED
  8
0
  6
CONTINUOUS
 62
     7
 10
-1112.4988867763
 20
-71.1004658041511
 30
0.0
 11
-1131.90653991699
 21
-71.1004658041511
 31
0.0
  0
LINE
  5
   1EE
  8
0
  6
CONTINUOUS
 62
     7
 10
-1112.49887652305
 20
55.8994917999563
 30
0.0
 11
-1131.90653991699
 21
55.8994917999563
 31
0.0
  0
LINE
  5
   1EF
  8
0
  6
CONTINUOUS
 62
     7
 10
-1129.90653991699
 20
-71.1004658041511
 30
0.0
 11
-1129.90653991699
 21
55.8994917999563
 31
0.0
  0
LINE
  5
   1F0
  8
0
  6
CONTINUOUS
 62
     7
 10
-1130.42748434694
 20
-68.1460425269441
 30
0.0
 11
-1129.90653991699
 21
-71.1004658041511
 31
0.0
  0
LINE
  5
   1F1
  8
0
  6
CONTINUOUS
 62
     7
 10
-1129.90653991699
 20
-71.1004658041511
 30
0.0
 11
-1129.38559548704
 21
-68.1460425269441
 31
0.0
  0
LINE
  5
   1F2
  8
0
  6
CONTINUOUS
 62
     7
 10
-1129.38559548704
 20
52.9450685227493
 30
0.0
 11
-1129.90653991699
 21
55.8994917999563
 31
0.0
  0
LINE
  5
   1F3
  8
0
  6
CONTINUOUS
 62
     7
 10
-1129.90653991699
 20
55.8994917999563
 30
0.0
 11
-1130.42748434694
 21
52.9450685227493
 31
0.0
  0
ENDBLK
  5
   1F4
  8
0
  6
CONTINUOUS
 62
     7
  0
BLOCK
  5
   1F5
  8
0
  6
CONTINUOUS
 62
     7
  2
*UDIM158
 70
    65
 10
0.0
 20
0.0
 30
0.0
  3
*UDIM158
  0
TEXT
  5
   1F6
  8
0
  6
CONTINUOUS
 62
     7
 10
-1052.41138618497
 20
-78.5958080231318
 30
0.0
 40
3.00000002980232
  1
43,75
 50
359.999999948034
 41
0.933333333333333
 72
     1
 11
-1045.71138611706
 21
-77.0958080142736
 31
0.0
 73
     2
  0
LINE
  5
   1F7
  8
0
  6
CONTINUOUS
 62
     7
 10
-1034.49888548711
 20
-70.8504658711435
 30
0.0
 11
-1034.49888548711
 21
-81.5958080291748
 31
0.0
  0
LINE
  5
   1F8
  8
0
  6
CONTINUOUS
 62
     7
 10
-1056.37388679469
 20
-73.9600029932813
 30
0.0
 11
-1056.37388679469
 21
-81.5958080291748
 31
0.0
  0
LINE
  5
   1F9
  8
0
  6
CONTINUOUS
 62
     7
 10
-1034.49888548711
 20
-79.5958080291748
 30
0.0
 11
-1056.37388679469
 21
-79.5958080291748
 31
0.0
  0
LINE
  5
   1FA
  8
0
  6
CONTINUOUS
 62
     7
 10
-1037.45330876432
 20
-80.1167524591265
 30
0.0
 11
-1034.49888548711
 21
-79.5958080291748
 31
0.0
  0
LINE
  5
   1FB
  8
0
  6
CONTINUOUS
 62
     7
 10
-1034.49888548711
 20
-79.5958080291748
 30
0.0
 11
-1037.45330876432
 21
-79.0748635992231
 31
0.0
  0
LINE
  5
   1FC
  8
0
  6
CONTINUOUS
 62
     7
 10
-1053.41946351749
 20
-79.0748635992231
 30
0.0
 11
-1056.37388679469
 21
-79.5958080291748
 31
0.0
  0
LINE
  5
   1FD
  8
0
  6
CONTINUOUS
 62
     7
 10
-1056.37388679469
 20
-79.5958080291748
 30
0.0
 11
-1053.41946351749
 21
-80.1167524591265
 31
0.0
  0
ENDBLK
  5
   1FE
  8
0
  6
CONTINUOUS
 62
     7
  0
BLOCK
  5
   1FF
  8
0
  6
CONTINUOUS
 62
     7
  2
*UDIM159
 70
    65
 10
0.0
 20
0.0
 30
0.0
  3
*UDIM159
  0
TEXT
  5
   200
  8
0
  6
CONTINUOUS
 62
     7
 10
-1074.28638617454
 20
-78.5958080231318
 30
0.0
 40
3.00000002980232
  1
43,75
 50
359.999999948034
 41
0.933333333333333
 72
     1
 11
-1067.58638610663
 21
-77.0958080142736
 31
0.0
 73
     2
  0
LINE
  5
   201
  8
0
  6
CONTINUOUS
 62
     7
 10
-1078.24888647953
 20
-70.8504661267026
 30
0.0
 11
-1078.24888647953
 21
-81.5958080291748
 31
0.0
  0
LINE
  5
   202
  8
0
  6
CONTINUOUS
 62
     7
 10
-1056.37388679469
 20
-79.5958080291748
 30
0.0
 11
-1078.24888647953
 21
-79.5958080291748
 31
0.0
  0
LINE
  5
   203
  8
0
  6
CONTINUOUS
 62
     7
 10
-1059.3283100719
 20
-80.1167524591265
 30
0.0
 11
-1056.37388679469
 21
-79.5958080291748
 31
0.0
  0
LINE
  5
   204
  8
0
  6
CONTINUOUS
 62
     7
 10
-1056.37388679469
 20
-79.5958080291748
 30
0.0
 11
-1059.3283100719
 21
-79.0748635992231
 31
0.0
  0
LINE
  5
   205
  8
0
  6
CONTINUOUS
 62
     7
 10
-1075.29446320232
 20
-79.0748635992231
 30
0.0
 11
-1078.24888647953
 21
-79.5958080291748
 31
0.0
  0
LINE
  5
   206
  8
0
  6
CONTINUOUS
 62
     7
 10
-1078.24888647953
 20
-79.5958080291748
 30
0.0
 11
-1075.29446320232
 21
-80.1167524591265
 31
0.0
  0
ENDBLK
  5
   207
  8
0
  6
CONTINUOUS
 62
     7
  0
BLOCK
  5
   208
  8
0
  6
CONTINUOUS
 62
     7
  2
*UDIM160
 70
    65
 10
0.0
 20
0.0
 30
0.0
  3
*UDIM160
  0
TEXT
  5
   209
  8
0
  6
CONTINUOUS
 62
     7
 10
-1096.16138616597
 20
-78.5958080231318
 30
0.0
 40
3.00000002980232
  1
43,75
 50
359.999999948034
 41
0.933333333333333
 72
     1
 11
-1089.46138609806
 21
-77.0958080142736
 31
0.0
 73
     2
  0
LINE
  5
   20A
  8
0
  6
CONTINUOUS
 62
     7
 10
-1100.12388647953
 20
-70.8504661267026
 30
0.0
 11
-1100.12388647953
 21
-81.5958080291748
 31
0.0
  0
LINE
  5
   20B
  8
0
  6
CONTINUOUS
 62
     7
 10
-1078.24888647953
 20
-79.5958080291748
 30
0.0
 11
-1100.12388647953
 21
-79.5958080291748
 31
0.0
  0
LINE
  5
   20C
  8
0
  6
CONTINUOUS
 62
     7
 10
-1081.20330975673
 20
-80.1167524591265
 30
0.0
 11
-1078.24888647953
 21
-79.5958080291748
 31
0.0
  0
LINE
  5
   20D
  8
0
  6
CONTINUOUS
 62
     7
 10
-1078.24888647953
 20
-79.5958080291748
 30
0.0
 11
-1081.20330975673
 21
-79.0748635992231
 31
0.0
  0
LINE
  5
   20E
  8
0
  6
CONTINUOUS
 62
     7
 10
-1097.16946320232
 20
-79.0748635992231
 30
0.0
 11
-1100.12388647953
 21
-79.5958080291748
 31
0.0
  0
LINE
  5
   20F
  8
0
  6
CONTINUOUS
 62
     7
 10
-1100.12388647953
 20
-79.5958080291748
 30
0.0
 11
-1097.16946320232
 21
-80.1167524591265
 31
0.0
  0
ENDBLK
  5
   210
  8
0
  6
CONTINUOUS
 62
     7
  0
BLOCK
  5
   211
  8
0
  6
CONTINUOUS
 62
     7
  2
*UDIM161
 70
    65
 10
0.0
 20
0.0
 30
0.0
  3
*UDIM161
  0
TEXT
  5
   212
  8
0
  6
CONTINUOUS
 62
     7
 10
-1041.64886706473
 20
-85.2854919411045
 30
0.0
 40
3.00000002980232
  1
70
 50
359.999999948034
 41
0.933333333333333
 72
     1
 11
-1039.14886703854
 21
-83.7854919284582
 31
0.0
 73
     2
  0
LINE
  5
   213
  8
0
  6
CONTINUOUS
 62
     7
 10
-1021.37387084961
 20
42.8995170593262
 30
0.0
 11
-1021.37387084961
 21
-88.2854919433594
 31
0.0
  0
LINE
  5
   214
  8
0
  6
CONTINUOUS
 62
     7
 10
-1056.37385957967
 20
38.1496098888682
 30
0.0
 11
-1056.37385957967
 21
-88.2854919433594
 31
0.0
  0
LINE
  5
   215
  8
0
  6
CONTINUOUS
 62
     7
 10
-1021.37387084961
 20
-86.2854919433594
 30
0.0
 11
-1056.37385957967
 21
-86.2854919433594
 31
0.0
  0
LINE
  5
   216
  8
0
  6
CONTINUOUS
 62
     7
 10
-1024.32829412682
 20
-86.8064363733111
 30
0.0
 11
-1021.37387084961
 21
-86.2854919433594
 31
0.0
  0
LINE
  5
   217
  8
0
  6
CONTINUOUS
 62
     7
 10
-1021.37387084961
 20
-86.2854919433594
 30
0.0
 11
-1024.32829412682
 21
-85.7645475134077
 31
0.0
  0
LINE
  5
   218
  8
0
  6
CONTINUOUS
 62
     7
 10
-1053.41943630247
 20
-85.7645475134077
 30
0.0
 11
-1056.37385957967
 21
-86.2854919433594
 31
0.0
  0
LINE
  5
   219
  8
0
  6
CONTINUOUS
 62
     7
 10
-1056.37385957967
 20
-86.2854919433594
 30
0.0
 11
-1053.41943630247
 21
-86.8064363733111
 31
0.0
  0
ENDBLK
  5
   21A
  8
0
  6
CONTINUOUS
 62
     7
  0
BLOCK
  5
   21B
  8
0
  6
CONTINUOUS
 62
     7
  2
*UDIM162
 70
    65
 10
0.0
 20
0.0
 30
0.0
  3
*UDIM162
  0
TEXT
  5
   21C
  8
0
  6
CONTINUOUS
 62
     7
 10
-1081.09877031984
 20
-102.96133422121
 30
0.0
 40
3.00000002980232
  1
183,75
 50
359.999999948034
 41
0.933333333333333
 72
     1
 11
-1072.99877023802
 21
-101.461334213614
 31
0.0
 73
     2
  0
LINE
  5
   21D
  8
0
  6
CONTINUOUS
 62
     7
 10
-1021.37387084961
 20
42.8995170593262
 30
0.0
 11
-1021.37387084961
 21
-105.961334228516
 31
0.0
  0
LINE
  5
   21E
  8
0
  6
CONTINUOUS
 62
     7
 10
-1113.24886322232
 20
42.8995170593262
 30
0.0
 11
-1113.24886322232
 21
-105.961334228516
 31
0.0
  0
LINE
  5
   21F
  8
0
  6
CONTINUOUS
 62
     7
 10
-1021.37387084961
 20
-103.961334228516
 30
0.0
 11
-1113.24886322232
 21
-103.961334228516
 31
0.0
  0
LINE
  5
   220
  8
0
  6
CONTINUOUS
 62
     7
 10
-1024.32829412682
 20
-104.482278658467
 30
0.0
 11
-1021.37387084961
 21
-103.961334228516
 31
0.0
  0
LINE
  5
   221
  8
0
  6
CONTINUOUS
 62
     7
 10
-1021.37387084961
 20
-103.961334228516
 30
0.0
 11
-1024.32829412682
 21
-103.440389798564
 31
0.0
  0
LINE
  5
   222
  8
0
  6
CONTINUOUS
 62
     7
 10
-1110.29443994511
 20
-103.440389798564
 30
0.0
 11
-1113.24886322232
 21
-103.961334228516
 31
0.0
  0
LINE
  5
   223
  8
0
  6
CONTINUOUS
 62
     7
 10
-1113.24886322232
 20
-103.961334228516
 30
0.0
 11
-1110.29443994511
 21
-104.482278658467
 31
0.0
  0
ENDBLK
  5
   224
  8
0
  6
CONTINUOUS
 62
     7
  0
BLOCK
  5
   225
  8
0
  6
CONTINUOUS
 62
     7
  2
*UDIM163
 70
    65
 10
0.0
 20
0.0
 30
0.0
  3
*UDIM163
  0
TEXT
  5
   226
  8
0
  6
CONTINUOUS
 62
     7
 10
-1123.84636688459
 20
76.5773978927124
 30
0.0
 40
3.00000002980232
  1
20
 50
89.9999999480344
 41
0.933333333333333
 72
     1
 11
-1125.34636689723
 21
79.0773979189062
 31
0.0
 73
     2
  0
LINE
  5
   227
  8
0
  6
CONTINUOUS
 62
     7
 10
-1118.62386336261
 20
74.3995323181152
 30
0.0
 11
-1124.84636688232
 21
74.3995323181152
 31
0.0
  0
LINE
  5
   228
  8
0
  6
CONTINUOUS
 62
     7
 10
-1118.62386336261
 20
84.3995308403302
 30
0.0
 11
-1124.84636688232
 21
84.3995308403302
 31
0.0
  0
LINE
  5
   229
  8
0
  6
CONTINUOUS
 62
     7
 10
-1122.84636688232
 20
74.3995323181152
 30
0.0
 11
-1122.84636688232
 21
84.3995308403302
 31
0.0
  0
LINE
  5
   22A
  8
0
  6
CONTINUOUS
 62
     7
 10
-1122.32542245237
 20
71.4451090409082
 30
0.0
 11
-1122.84636688232
 21
74.3995323181152
 31
0.0
  0
LINE
  5
   22B
  8
0
  6
CONTINUOUS
 62
     7
 10
-1122.84636688232
 20
74.3995323181152
 30
0.0
 11
-1123.36731131228
 21
71.4451090409082
 31
0.0
  0
LINE
  5
   22C
  8
0
  6
CONTINUOUS
 62
     7
 10
-1123.36731131228
 20
87.3539541175372
 30
0.0
 11
-1122.84636688232
 21
84.3995308403302
 31
0.0
  0
LINE
  5
   22D
  8
0
  6
CONTINUOUS
 62
     7
 10
-1122.84636688232
 20
84.3995308403302
 30
0.0
 11
-1122.32542245237
 21
87.3539541175372
 31
0.0
  0
ENDBLK
  5
   22E
  8
0
  6
CONTINUOUS
 62
     7
  0
BLOCK
  5
   22F
  8
0
  6
CONTINUOUS
 62
     7
  2
*UDIM164
 70
    65
 10
0.0
 20
0.0
 30
0.0
  3
*UDIM164
  0
TEXT
  5
   230
  8
0
  6
CONTINUOUS
 62
     7
 10
-1071.49068149696
 20
106.541149142922
 30
0.0
 40
3.00000002980232
  1
202
 50
359.999999948034
 41
0.933333333333333
 72
     1
 11
-1067.59068145686
 21
108.041149154305
 31
0.0
 73
     2
  0
LINE
  5
   231
  8
0
  6
CONTINUOUS
 62
     7
 10
-1016.99886336261
 20
85.3995308403302
 30
0.0
 11
-1016.99886336261
 21
107.541149139404
 31
0.0
  0
LINE
  5
   232
  8
0
  6
CONTINUOUS
 62
     7
 10
-1117.62386336261
 20
85.3995308403302
 30
0.0
 11
-1117.62386336261
 21
107.541149139404
 31
0.0
  0
LINE
  5
   233
  8
0
  6
CONTINUOUS
 62
     7
 10
-1016.99886336261
 20
105.541149139404
 30
0.0
 11
-1117.62386336261
 21
105.541149139404
 31
0.0
  0
LINE
  5
   234
  8
0
  6
CONTINUOUS
 62
     7
 10
-1019.95328663981
 20
105.020204709453
 30
0.0
 11
-1016.99886336261
 21
105.541149139404
 31
0.0
  0
LINE
  5
   235
  8
0
  6
CONTINUOUS
 62
     7
 10
-1016.99886336261
 20
105.541149139404
 30
0.0
 11
-1019.95328663981
 21
106.062093569356
 31
0.0
  0
LINE
  5
   236
  8
0
  6
CONTINUOUS
 62
     7
 10
-1114.6694400854
 20
106.062093569356
 30
0.0
 11
-1117.62386336261
 21
105.541149139404
 31
0.0
  0
LINE
  5
   237
  8
0
  6
CONTINUOUS
 62
     7
 10
-1117.62386336261
 20
105.541149139404
 30
0.0
 11
-1114.6694400854
 21
105.020204709453
 31
0.0
  0
ENDBLK
  5
   238
  8
0
  6
CONTINUOUS
 62
     7
  0
BLOCK
  5
   239
  8
0
  6
CONTINUOUS
 62
     7
  2
*UDIM165
 70
    65
 10
0.0
 20
0.0
 30
0.0
  3
*UDIM165
  0
TEXT
  5
   23A
  8
0
  6
CONTINUOUS
 62
     7
 10
-828.60562325091
 20
16.2843146399941
 30
0.0
 40
3.00000002980232
  1
7
 50
395.236499334515
 41
0.933333333333334
 72
     1
 11
-828.572597094032
 21
18.1441289698953
 31
0.0
 73
     2
  0
TEXT
  5
   23B
  8
0
  6
CONTINUOUS
 62
     7
 10
-831.178472460427
 20
14.4669134713822
 30
0.0
 40
3.00000002980232
  1
Ø
 50
395.236499334515
 41
0.933333333333334
 72
     1
 11
-831.14544630355
 21
16.3267278012834
 31
0.0
 73
     2
  0
LINE
  5
   23C
  8
0
  6
CONTINUOUS
 62
     7
 10
-815.262187342058
 20
24.4854855118244
 30
0.0
 11
-830.601519705256
 21
13.6501359470375
 31
0.0
  0
LINE
  5
   23D
  8
0
  6
CONTINUOUS
 62
     7
 10
-813.149641133621
 20
26.6155438484002
 30
0.0
 11
-815.262187342058
 21
24.4854855118244
 31
0.0
  0
LINE
  5
   23E
  8
0
  6
CONTINUOUS
 62
     7
 10
-815.262187342058
 20
24.4854855118244
 30
0.0
 11
-812.548520490579
 21
25.7645524448595
 31
0.0
  0
LINE
  5
   23F
  8
0
  6
CONTINUOUS
 62
     7
 10
-818.804094217942
 20
21.3457598625373
 30
0.0
 11
-816.691548009504
 21
23.4758181991131
 31
0.0
  0
LINE
  5
   240
  8
0
  6
CONTINUOUS
 62
     7
 10
-816.691548009504
 20
23.4758181991131
 30
0.0
 11
-819.405214860983
 21
22.196751266078
 31
0.0
  0
ENDBLK
  5
   241
  8
0
  6
CONTINUOUS
 62
     7
  0
BLOCK
  5
   242
  8
0
  6
CONTINUOUS
 62
     7
  2
*UDIM166
 70
    65
 10
0.0
 20
0.0
 30
0.0
  3
*UDIM166
  0
TEXT
  5
   243
  8
0
  6
CONTINUOUS
 62
     7
 10
-808.751867710651
 20
72.2668304511257
 30
0.0
 40
3.00000002980232
  1
80
 50
359.999999844103
 41
0.933333333333333
 72
     1
 11
-806.251867681742
 21
73.7668304592371
 31
0.0
 73
     2
  0
LINE
  5
   244
  8
0
  6
CONTINUOUS
 62
     7
 10
-815.976867675781
 20
62.1056518554688
 30
0.0
 11
-815.976867675781
 21
73.2668304443359
 31
0.0
  0
LINE
  5
   245
  8
0
  6
CONTINUOUS
 62
     7
 10
-795.976867675781
 20
62.1056518554688
 30
0.0
 11
-795.976867675781
 21
73.2668304443359
 31
0.0
  0
LINE
  5
   246
  8
0
  6
CONTINUOUS
 62
     7
 10
-815.976867675781
 20
71.2668304443359
 30
0.0
 11
-795.976867675781
 21
71.2668304443359
 31
0.0
  0
LINE
  5
   247
  8
0
  6
CONTINUOUS
 62
     7
 10
-813.022444398574
 20
71.7877748742876
 30
0.0
 11
-815.976867675781
 21
71.2668304443359
 31
0.0
  0
LINE
  5
   248
  8
0
  6
CONTINUOUS
 62
     7
 10
-815.976867675781
 20
71.2668304443359
 30
0.0
 11
-813.022444398574
 21
70.7458860143843
 31
0.0
  0
LINE
  5
   249
  8
0
  6
CONTINUOUS
 62
     7
 10
-798.931290952988
 20
70.7458860143843
 30
0.0
 11
-795.976867675781
 21
71.2668304443359
 31
0.0
  0
LINE
  5
   24A
  8
0
  6
CONTINUOUS
 62
     7
 10
-795.976867675781
 20
71.2668304443359
 30
0.0
 11
-798.931290952988
 21
71.7877748742876
 31
0.0
  0
ENDBLK
  5
   24B
  8
0
  6
CONTINUOUS
 62
     7
  0
BLOCK
  5
   24C
  8
0
  6
CONTINUOUS
 62
     7
  2
*UDIM167
 70
    65
 10
0.0
 20
0.0
 30
0.0
  3
*UDIM167
  0
TEXT
  5
   24D
  8
0
  6
CONTINUOUS
 62
     7
 10
-810.151867724559
 20
78.7064895735802
 30
0.0
 40
3.00000002980232
  1
112
 50
359.999999844103
 41
0.933333333333333
 72
     1
 11
-806.251867681742
 21
80.2064895778894
 31
0.0
 73
     2
  0
LINE
  5
   24E
  8
0
  6
CONTINUOUS
 62
     7
 10
-819.976867675781
 20
56.7306518554688
 30
0.0
 11
-819.976867675781
 21
79.7064895629883
 31
0.0
  0
LINE
  5
   24F
  8
0
  6
CONTINUOUS
 62
     7
 10
-791.976867675781
 20
56.7306518554688
 30
0.0
 11
-791.976867675781
 21
79.7064895629883
 31
0.0
  0
LINE
  5
   250
  8
0
  6
CONTINUOUS
 62
     7
 10
-819.976867675781
 20
77.7064895629883
 30
0.0
 11
-791.976867675781
 21
77.7064895629883
 31
0.0
  0
LINE
  5
   251
  8
0
  6
CONTINUOUS
 62
     7
 10
-817.022444398574
 20
78.22743399294
 30
0.0
 11
-819.976867675781
 21
77.7064895629883
 31
0.0
  0
LINE
  5
   252
  8
0
  6
CONTINUOUS
 62
     7
 10
-819.976867675781
 20
77.7064895629883
 30
0.0
 11
-817.022444398574
 21
77.1855451330366
 31
0.0
  0
LINE
  5
   253
  8
0
  6
CONTINUOUS
 62
     7
 10
-794.931290952988
 20
77.1855451330366
 30
0.0
 11
-791.976867675781
 21
77.7064895629883
 31
0.0
  0
LINE
  5
   254
  8
0
  6
CONTINUOUS
 62
     7
 10
-791.976867675781
 20
77.7064895629883
 30
0.0
 11
-794.931290952988
 21
78.22743399294
 31
0.0
  0
ENDBLK
  5
   255
  8
0
  6
CONTINUOUS
 62
     7
  0
BLOCK
  5
   256
  8
0
  6
CONTINUOUS
 62
     7
  2
*UDIM168
 70
    65
 10
0.0
 20
0.0
 30
0.0
  3
*UDIM168
  0
TEXT
  5
   257
  8
0
  6
CONTINUOUS
 62
     7
 10
-832.384243022062
 20
37.5556518066933
 30
0.0
 40
3.00000002980232
  1
112
 50
449.999999844103
 41
0.933333333333333
 72
     1
 11
-833.884243026376
 21
41.4556518495083
 31
0.0
 73
     2
  0
LINE
  5
   258
  8
0
  6
CONTINUOUS
 62
     7
 10
-820.976867675781
 20
55.7306518554688
 30
0.0
 11
-833.384243011475
 21
55.7306518554688
 31
0.0
  0
LINE
  5
   259
  8
0
  6
CONTINUOUS
 62
     7
 10
-820.976867675781
 20
27.7306518554688
 30
0.0
 11
-833.384243011475
 21
27.7306518554688
 31
0.0
  0
LINE
  5
   25A
  8
0
  6
CONTINUOUS
 62
     7
 10
-831.384243011475
 20
55.7306518554688
 30
0.0
 11
-831.384243011475
 21
27.7306518554688
 31
0.0
  0
LINE
  5
   25B
  8
0
  6
CONTINUOUS
 62
     7
 10
-830.863298581523
 20
52.7762285782618
 30
0.0
 11
-831.384243011475
 21
55.7306518554688
 31
0.0
  0
LINE
  5
   25C
  8
0
  6
CONTINUOUS
 62
     7
 10
-831.384243011475
 20
55.7306518554688
 30
0.0
 11
-831.905187441426
 21
52.7762285782618
 31
0.0
  0
LINE
  5
   25D
  8
0
  6
CONTINUOUS
 62
     7
 10
-831.905187441426
 20
30.6850751326757
 30
0.0
 11
-831.384243011475
 21
27.7306518554688
 31
0.0
  0
LINE
  5
   25E
  8
0
  6
CONTINUOUS
 62
     7
 10
-831.384243011475
 20
27.7306518554688
 30
0.0
 11
-830.863298581523
 21
30.6850751326757
 31
0.0
  0
ENDBLK
  5
   25F
  8
0
  6
CONTINUOUS
 62
     7
  0
BLOCK
  5
   260
  8
0
  6
CONTINUOUS
 62
     7
  2
*UDIM169
 70
    65
 10
0.0
 20
0.0
 30
0.0
  3
*UDIM169
  0
TEXT
  5
   261
  8
0
  6
CONTINUOUS
 62
     7
 10
-839.760578166105
 20
37.5556518066933
 30
0.0
 40
3.00000002980232
  1
142
 50
449.999999844103
 41
0.933333333333333
 72
     1
 11
-841.260578170419
 21
41.4556518495083
 31
0.0
 73
     2
  0
LINE
  5
   262
  8
0
  6
CONTINUOUS
 62
     7
 10
-818.601867675781
 20
59.4806518554688
 30
0.0
 11
-840.760578155518
 21
59.4806518554688
 31
0.0
  0
LINE
  5
   263
  8
0
  6
CONTINUOUS
 62
     7
 10
-818.601867675781
 20
23.9806518554688
 30
0.0
 11
-840.760578155518
 21
23.9806518554688
 31
0.0
  0
LINE
  5
   264
  8
0
  6
CONTINUOUS
 62
     7
 10
-838.760578155518
 20
59.4806518554688
 30
0.0
 11
-838.760578155518
 21
23.9806518554688
 31
0.0
  0
LINE
  5
   265
  8
0
  6
CONTINUOUS
 62
     7
 10
-838.239633725566
 20
56.5262285782618
 30
0.0
 11
-838.760578155518
 21
59.4806518554688
 31
0.0
  0
LINE
  5
   266
  8
0
  6
CONTINUOUS
 62
     7
 10
-838.760578155518
 20
59.4806518554688
 30
0.0
 11
-839.281522585469
 21
56.5262285782618
 31
0.0
  0
LINE
  5
   267
  8
0
  6
CONTINUOUS
 62
     7
 10
-839.281522585469
 20
26.9350751326757
 30
0.0
 11
-838.760578155518
 21
23.9806518554688
 31
0.0
  0
LINE
  5
   268
  8
0
  6
CONTINUOUS
 62
     7
 10
-838.760578155518
 20
23.9806518554688
 30
0.0
 11
-838.239633725566
 21
26.9350751326757
 31
0.0
  0
ENDBLK
  5
   269
  8
0
  6
CONTINUOUS
 62
     7
  0
BLOCK
  5
   26A
  8
0
  6
CONTINUOUS
 62
     7
  2
*HATCH90
 70
    65
 10
0.0
 20
0.0
 30
0.0
  3
*HATCH90
  0
LINE
  5
   26B
  8
0
  6
CONTINUOUS
 62
   210
 10
204.102630615234
 20
-24.9999752044678
 30
0.0
 11
201.237121582031
 21
-27.8654766082764
 31
0.0
  0
LINE
  5
   26C
  8
0
  6
CONTINUOUS
 62
   210
 10
205.237121582031
 20
-28.108118057251
 30
0.0
 11
201.237121582031
 21
-32.1081161499023
 31
0.0
  0
LINE
  5
   26D
  8
0
  6
CONTINUOUS
 62
   210
 10
205.237121582031
 20
-32.350757598877
 30
0.0
 11
201.237121582031
 21
-36.3507537841797
 31
0.0
  0
LINE
  5
   26E
  8
0
  6
CONTINUOUS
 62
   210
 10
205.237121582031
 20
-36.5933952331543
 30
0.0
 11
203.887817382813
 21
-37.9427146911621
 31
0.0
  0
ENDBLK
  5
   26F
  8
0
  6
CONTINUOUS
 62
     7
  0
BLOCK
  5
   270
  8
0
  6
CONTINUOUS
 62
     7
  2
*HATCH91
 70
    65
 10
0.0
 20
0.0
 30
0.0
  3
*HATCH91
  0
LINE
  5
   271
  8
0
  6
CONTINUOUS
 62
   210
 10
198.4345703125
 20
-13.6974716186523
 30
0.0
 11
196.745849609375
 21
-15.3861865997314
 31
0.0
  0
LINE
  5
   272
  8
0
  6
CONTINUOUS
 62
   210
 10
199.737075805664
 20
-16.6376056671143
 30
0.0
 11
196.745849609375
 21
-19.6288280487061
 31
0.0
  0
ENDBLK
  5
   273
  8
0
  6
CONTINUOUS
 62
     7
  0
BLOCK
  5
   274
  8
0
  6
CONTINUOUS
 62
     7
  2
*HATCH92
 70
    65
 10
0.0
 20
0.0
 30
0.0
  3
*HATCH92
  0
LINE
  5
   275
  8
0
  6
CONTINUOUS
 62
   210
 10
-10.7629241943359
 20
-21.0568885803223
 30
0.0
 11
-6.81984043121338
 21
-24.9999771118164
 31
0.0
  0
LINE
  5
   276
  8
0
  6
CONTINUOUS
 62
   210
 10
-7.57719612121582
 20
-19.9999771118164
 30
0.0
 11
-5.86297512054443
 21
-21.7141990661621
 31
0.0
  0
ENDBLK
  5
   277
  8
0
  6
CONTINUOUS
 62
     7
  0
BLOCK
  5
   278
  8
0
  6
CONTINUOUS
 62
     7
  2
*HATCH93
 70
    65
 10
0.0
 20
0.0
 30
0.0
  3
*HATCH93
  0
LINE
  5
   279
  8
0
  6
CONTINUOUS
 62
   210
 10
4.3370246887207
 20
-21.3076019287109
 30
0.0
 11
8.02939128875732
 21
-24.9999752044678
 31
0.0
  0
LINE
  5
   27A
  8
0
  6
CONTINUOUS
 62
   210
 10
7.27203750610352
 20
-19.9999771118164
 30
0.0
 11
12.2720289230347
 21
-24.9999752044678
 31
0.0
  0
LINE
  5
   27B
  8
0
  6
CONTINUOUS
 62
   210
 10
11.5146751403809
 20
-19.9999771118164
 30
0.0
 11
16.5146675109863
 21
-24.9999752044678
 31
0.0
  0
LINE
  5
   27C
  8
0
  6
CONTINUOUS
 62
   210
 10
15.7573137283325
 20
-19.9999771118164
 30
0.0
 11
19.7282981872559
 21
-23.9709663391113
 31
0.0
  0
ENDBLK
  5
   27D
  8
0
  6
CONTINUOUS
 62
     7
  0
BLOCK
  5
   27E
  8
0
  6
CONTINUOUS
 62
     7
  2
*HATCH94
 70
    65
 10
0.0
 20
0.0
 30
0.0
  3
*HATCH94
  0
LINE
  5
   27F
  8
0
  6
CONTINUOUS
 62
   210
 10
14.9705638885498
 20
-1.99999904632568
 30
0.0
 11
14.237024307251
 21
-2.73353862762451
 31
0.0
  0
LINE
  5
   280
  8
0
  6
CONTINUOUS
 62
   210
 10
18.237024307251
 20
-2.97617936134338
 30
0.0
 11
14.237024307251
 21
-6.9761791229248
 31
0.0
  0
LINE
  5
   281
  8
0
  6
CONTINUOUS
 62
   210
 10
18.237024307251
 20
-7.21882009506226
 30
0.0
 11
14.237024307251
 21
-11.2188205718994
 31
0.0
  0
LINE
  5
   282
  8
0
  6
CONTINUOUS
 62
   210
 10
18.237024307251
 20
-11.4614601135254
 30
0.0
 11
14.237024307251
 21
-15.461462020874
 31
0.0
  0
LINE
  5
   283
  8
0
  6
CONTINUOUS
 62
   210
 10
18.237024307251
 20
-15.7041015625
 30
0.0
 11
14.237024307251
 21
-19.7041034698486
 31
0.0
  0
LINE
  5
   284
  8
0
  6
CONTINUOUS
 62
   210
 10
18.237024307251
 20
-19.946741104126
 30
0.0
 11
18.1837902069092
 21
-19.9999771118164
 31
0.0
  0
ENDBLK
  5
   285
  8
0
  6
CONTINUOUS
 62
     7
  0
BLOCK
  5
   286
  8
0
  6
CONTINUOUS
 62
     2
  2
*HATCH95
 70
    65
 10
0.0
 20
0.0
 30
0.0
  3
*HATCH95
  0
LINE
  5
   287
  8
0
  6
CONTINUOUS
 62
   210
 10
222.237121582031
 20
-22.8331680297852
 30
0.0
 11
224.403930664063
 21
-24.9999752044678
 31
0.0
  0
LINE
  5
   288
  8
0
  6
CONTINUOUS
 62
   210
 10
223.646575927734
 20
-19.9999771118164
 30
0.0
 11
227.237075805664
 21
-23.5904788970947
 31
0.0
  0
ENDBLK
  5
   289
  8
0
  6
CONTINUOUS
 62
     2
  0
BLOCK
  5
   28A
  8
0
  6
CONTINUOUS
 62
     2
  2
*HATCH96
 70
    65
 10
0.0
 20
0.0
 30
0.0
  3
*HATCH96
  0
LINE
  5
   28B
  8
0
  6
CONTINUOUS
 62
   210
 10
196.745849609375
 20
-22.797721862793
 30
0.0
 11
198.948104858398
 21
-24.9999752044678
 31
0.0
  0
LINE
  5
   28C
  8
0
  6
CONTINUOUS
 62
   210
 10
198.19075012207
 20
-19.9999771118164
 30
0.0
 11
203.190734863281
 21
-24.9999752044678
 31
0.0
  0
LINE
  5
   28D
  8
0
  6
CONTINUOUS
 62
   210
 10
202.433395385742
 20
-19.9999771118164
 30
0.0
 11
207.433380126953
 21
-24.9999752044678
 31
0.0
  0
LINE
  5
   28E
  8
0
  6
CONTINUOUS
 62
   210
 10
206.676040649414
 20
-19.9999771118164
 30
0.0
 11
211.676025390625
 21
-24.9999752044678
 31
0.0
  0
LINE
  5
   28F
  8
0
  6
CONTINUOUS
 62
   210
 10
210.918670654297
 20
-19.9999771118164
 30
0.0
 11
212.237121582031
 21
-21.3184394836426
 31
0.0
  0
ENDBLK
  5
   290
  8
0
  6
CONTINUOUS
 62
     2
  0
BLOCK
  5
   291
  8
0
  6
CONTINUOUS
 62
     7
  2
*UDIM170
 70
    65
 10
0.0
 20
0.0
 30
0.0
  3
*UDIM170
  0
TEXT
  5
   292
  8
0
  6
CONTINUOUS
 62
     7
 10
-934.457107471471
 20
105.56581820434
 30
0.0
 40
3.00000002980232
  1
101
 50
359.999999948034
 41
0.933333333333333
 72
     1
 11
-930.557107431374
 21
107.065818215724
 31
0.0
 73
     2
  0
LINE
  5
   293
  8
0
  6
CONTINUOUS
 62
     7
 10
-906.063977465977
 20
93.1818195967054
 30
0.0
 11
-906.063977465977
 21
105.565818200823
 31
0.0
  0
LINE
  5
   294
  8
0
  6
CONTINUOUS
 62
     7
 10
-956.563976028974
 20
97.5790983831433
 30
0.0
 11
-956.563976028974
 21
105.565818200823
 31
0.0
  0
LINE
  5
   295
  8
0
  6
CONTINUOUS
 62
     7
 10
-906.063977465977
 20
103.565818200823
 30
0.0
 11
-956.563976028974
 21
103.565818200823
 31
0.0
  0
LINE
  5
   296
  8
0
  6
CONTINUOUS
 62
     7
 10
-908.961754939188
 20
102.789361044404
 30
0.0
 11
-906.063977465977
 21
103.565818200823
 31
0.0
  0
LINE
  5
   297
  8
0
  6
CONTINUOUS
 62
     7
 10
-906.063977465977
 20
103.565818200823
 30
0.0
 11
-908.961754939188
 21
104.342275357241
 31
0.0
  0
LINE
  5
   298
  8
0
  6
CONTINUOUS
 62
     7
 10
-953.666198555763
 20
104.342275357241
 30
0.0
 11
-956.563976028974
 21
103.565818200823
 31
0.0
  0
LINE
  5
   299
  8
0
  6
CONTINUOUS
 62
     7
 10
-956.563976028974
 20
103.565818200823
 30
0.0
 11
-953.666198555763
 21
102.789361044404
 31
0.0
  0
ENDBLK
  5
   29A
  8
0
  6
CONTINUOUS
 62
     7
  0
BLOCK
  5
   29B
  8
0
  6
CONTINUOUS
 62
     7
  2
*UDIM171
 70
    65
 10
0.0
 20
0.0
 30
0.0
  3
*UDIM171
  0
TEXT
  5
   29C
  8
0
  6
CONTINUOUS
 62
     7
 10
-926.813978285635
 20
89.2316856394199
 30
0.0
 40
3.00000002980232
  1
5
 50
359.999999948034
 41
0.933333333333334
 72
     1
 11
-925.713978273354
 21
90.7316856533289
 31
0.0
 73
     2
  0
LINE
  5
   29D
  8
0
  6
CONTINUOUS
 62
     7
 10
-929.813977465977
 20
85.3995197513872
 30
0.0
 11
-929.813977465977
 21
90.2316856384277
 31
0.0
  0
LINE
  5
   29E
  8
0
  6
CONTINUOUS
 62
     7
 10
-932.313976028974
 20
85.3995197513872
 30
0.0
 11
-932.313976028974
 21
90.2316856384277
 31
0.0
  0
LINE
  5
   29F
  8
0
  6
CONTINUOUS
 62
     7
 10
-924.613978262427
 20
88.2316856384277
 30
0.0
 11
-932.313976028974
 21
88.2316856384277
 31
0.0
  0
LINE
  5
   2A0
  8
0
  6
CONTINUOUS
 62
     7
 10
-926.85955418877
 20
88.7526300683794
 30
0.0
 11
-929.813977465977
 21
88.2316856384277
 31
0.0
  0
LINE
  5
   2A1
  8
0
  6
CONTINUOUS
 62
     7
 10
-929.813977465977
 20
88.2316856384277
 30
0.0
 11
-926.85955418877
 21
87.7107412084761
 31
0.0
  0
LINE
  5
   2A2
  8
0
  6
CONTINUOUS
 62
     7
 10
-935.268399306181
 20
87.7107412084761
 30
0.0
 11
-932.313976028974
 21
88.2316856384277
 31
0.0
  0
LINE
  5
   2A3
  8
0
  6
CONTINUOUS
 62
     7
 10
-932.313976028974
 20
88.2316856384277
 30
0.0
 11
-935.268399306181
 21
88.7526300683794
 31
0.0
  0
ENDBLK
  5
   2A4
  8
0
  6
CONTINUOUS
 62
     7
  0
BLOCK
  5
   2A5
  8
0
  6
CONTINUOUS
 62
     7
  2
*UDIM172
 70
    65
 10
0.0
 20
0.0
 30
0.0
  3
*UDIM172
  0
TEXT
  5
   2A6
  8
0
  6
CONTINUOUS
 62
     7
 10
-947.33897058772
 20
89.2316856406826
 30
0.0
 40
3.00000002980232
  1
49
 50
359.999999948034
 41
0.933333333333333
 72
     1
 11
-944.838970561532
 21
90.7316856533289
 31
0.0
 73
     2
  0
LINE
  5
   2A7
  8
0
  6
CONTINUOUS
 62
     7
 10
-956.81396484375
 20
65.4555993225994
 30
0.0
 11
-956.81396484375
 21
90.2316856384277
 31
0.0
  0
LINE
  5
   2A8
  8
0
  6
CONTINUOUS
 62
     7
 10
-932.313976028974
 20
88.2316856384277
 30
0.0
 11
-956.81396484375
 21
88.2316856384277
 31
0.0
  0
LINE
  5
   2A9
  8
0
  6
CONTINUOUS
 62
     7
 10
-935.268399306181
 20
87.7107412084761
 30
0.0
 11
-932.313976028974
 21
88.2316856384277
 31
0.0
  0
LINE
  5
   2AA
  8
0
  6
CONTINUOUS
 62
     7
 10
-932.313976028974
 20
88.2316856384277
 30
0.0
 11
-935.268399306181
 21
88.7526300683794
 31
0.0
  0
LINE
  5
   2AB
  8
0
  6
CONTINUOUS
 62
     7
 10
-953.859541566543
 20
88.7526300683794
 30
0.0
 11
-956.81396484375
 21
88.2316856384277
 31
0.0
  0
LINE
  5
   2AC
  8
0
  6
CONTINUOUS
 62
     7
 10
-956.81396484375
 20
88.2316856384277
 30
0.0
 11
-953.859541566543
 21
87.7107412084761
 31
0.0
  0
ENDBLK
  5
   2AD
  8
0
  6
CONTINUOUS
 62
     7
  0
BLOCK
  5
   2AE
  8
0
  6
CONTINUOUS
 62
     7
  2
*HATCH97
 70
    65
 10
0.0
 20
0.0
 30
0.0
  3
*HATCH97
  0
LINE
  5
   2AF
  8
0
  6
CONTINUOUS
 62
    52
 10
187.863540649414
 20
-106.999984741211
 30
0.0
 11
185.863540649414
 21
-108.999984741211
 31
0.0
  0
LINE
  5
   2B0
  8
0
  6
CONTINUOUS
 62
    52
 10
192.106185913086
 20
-106.999984741211
 30
0.0
 11
190.106185913086
 21
-108.999984741211
 31
0.0
  0
LINE
  5
   2B1
  8
0
  6
CONTINUOUS
 62
    52
 10
196.348831176758
 20
-106.999984741211
 30
0.0
 11
194.348831176758
 21
-108.999984741211
 31
0.0
  0
LINE
  5
   2B2
  8
0
  6
CONTINUOUS
 62
    52
 10
200.59147644043
 20
-106.999984741211
 30
0.0
 11
198.59147644043
 21
-108.999984741211
 31
0.0
  0
LINE
  5
   2B3
  8
0
  6
CONTINUOUS
 62
    52
 10
204.834121704102
 20
-106.999984741211
 30
0.0
 11
202.834121704102
 21
-108.999984741211
 31
0.0
  0
LINE
  5
   2B4
  8
0
  6
CONTINUOUS
 62
    52
 10
209.076766967773
 20
-106.999984741211
 30
0.0
 11
207.076766967773
 21
-108.999984741211
 31
0.0
  0
LINE
  5
   2B5
  8
0
  6
CONTINUOUS
 62
    52
 10
213.319412231445
 20
-106.999984741211
 30
0.0
 11
211.319412231445
 21
-108.999984741211
 31
0.0
  0
LINE
  5
   2B6
  8
0
  6
CONTINUOUS
 62
    52
 10
217.562057495117
 20
-106.999984741211
 30
0.0
 11
215.562057495117
 21
-108.999984741211
 31
0.0
  0
LINE
  5
   2B7
  8
0
  6
CONTINUOUS
 62
    52
 10
221.804702758789
 20
-106.999984741211
 30
0.0
 11
219.804702758789
 21
-108.999984741211
 31
0.0
  0
LINE
  5
   2B8
  8
0
  6
CONTINUOUS
 62
    52
 10
226.047348022461
 20
-106.999984741211
 30
0.0
 11
224.047348022461
 21
-108.999984741211
 31
0.0
  0
LINE
  5
   2B9
  8
0
  6
CONTINUOUS
 62
    52
 10
230.289993286133
 20
-106.999984741211
 30
0.0
 11
228.289993286133
 21
-108.999984741211
 31
0.0
  0
LINE
  5
   2BA
  8
0
  6
CONTINUOUS
 62
    52
 10
234.532638549805
 20
-106.999984741211
 30
0.0
 11
232.532638549805
 21
-108.999984741211
 31
0.0
  0
LINE
  5
   2BB
  8
0
  6
CONTINUOUS
 62
    52
 10
238.775283813477
 20
-106.999984741211
 30
0.0
 11
236.775283813477
 21
-108.999984741211
 31
0.0
  0
LINE
  5
   2BC
  8
0
  6
CONTINUOUS
 62
    52
 10
243.017929077148
 20
-106.999984741211
 30
0.0
 11
241.017929077148
 21
-108.999984741211
 31
0.0
  0
LINE
  5
   2BD
  8
0
  6
CONTINUOUS
 62
    52
 10
247.26057434082
 20
-106.999984741211
 30
0.0
 11
245.26057434082
 21
-108.999984741211
 31
0.0
  0
LINE
  5
   2BE
  8
0
  6
CONTINUOUS
 62
    52
 10
251.503219604492
 20
-106.999984741211
 30
0.0
 11
249.503219604492
 21
-108.999984741211
 31
0.0
  0
LINE
  5
   2BF
  8
0
  6
CONTINUOUS
 62
    52
 10
255.745864868164
 20
-106.999984741211
 30
0.0
 11
253.745864868164
 21
-108.999984741211
 31
0.0
  0
LINE
  5
   2C0
  8
0
  6
CONTINUOUS
 62
    52
 10
259.281341552734
 20
-107.707077026367
 30
0.0
 11
257.988433837891
 21
-108.999984741211
 31
0.0
  0
ENDBLK
  5
   2C1
  8
0
  6
CONTINUOUS
 62
     7
  0
BLOCK
  5
   2C2
  8
0
  6
CONTINUOUS
 62
     7
  2
*HATCH98
 70
    65
 10
0.0
 20
0.0
 30
0.0
  3
*HATCH98
  0
LINE
  5
   2C3
  8
0
  6
CONTINUOUS
 62
    52
 10
168.771667480469
 20
-106.999984741211
 30
0.0
 11
166.771667480469
 21
-108.999984741211
 31
0.0
  0
LINE
  5
   2C4
  8
0
  6
CONTINUOUS
 62
    52
 10
173.014312744141
 20
-106.999984741211
 30
0.0
 11
171.014312744141
 21
-108.999984741211
 31
0.0
  0
LINE
  5
   2C5
  8
0
  6
CONTINUOUS
 62
    52
 10
177.256958007812
 20
-106.999984741211
 30
0.0
 11
175.256958007813
 21
-108.999984741211
 31
0.0
  0
ENDBLK
  5
   2C6
  8
0
  6
CONTINUOUS
 62
     7
  0
BLOCK
  5
   2C7
  8
0
  6
CONTINUOUS
 62
     7
  2
*HATCH99
 70
    65
 10
0.0
 20
0.0
 30
0.0
  3
*HATCH99
  0
LINE
  5
   2C8
  8
0
  6
CONTINUOUS
 62
    52
 10
45.7350769042969
 20
-106.999984741211
 30
0.0
 11
43.7350769042969
 21
-108.999984741211
 31
0.0
  0
LINE
  5
   2C9
  8
0
  6
CONTINUOUS
 62
    52
 10
49.9777145385742
 20
-106.999984741211
 30
0.0
 11
47.9777145385742
 21
-108.999984741211
 31
0.0
  0
LINE
  5
   2CA
  8
0
  6
CONTINUOUS
 62
    52
 10
53.9806251525879
 20
-107.239715576172
 30
0.0
 11
52.2203598022461
 21
-108.999984741211
 31
0.0
  0
ENDBLK
  5
   2CB
  8
0
  6
CONTINUOUS
 62
     7
  0
BLOCK
  5
   2CC
  8
0
  6
CONTINUOUS
 62
     7
  2
*HATCH100
 70
    65
 10
0.0
 20
0.0
 30
0.0
  3
*HATCH100
  0
LINE
  5
   2CD
  8
0
  6
CONTINUOUS
 62
    52
 10
-41.2390594482422
 20
-106.999984741211
 30
0.0
 11
-43.2390594482422
 21
-108.999984741211
 31
0.0
  0
LINE
  5
   2CE
  8
0
  6
CONTINUOUS
 62
    52
 10
-36.9964218139648
 20
-106.999984741211
 30
0.0
 11
-38.9964218139648
 21
-108.999984741211
 31
0.0
  0
LINE
  5
   2CF
  8
0
  6
CONTINUOUS
 62
    52
 10
-32.7537841796875
 20
-106.999984741211
 30
0.0
 11
-34.7537841796875
 21
-108.999984741211
 31
0.0
  0
LINE
  5
   2D0
  8
0
  6
CONTINUOUS
 62
    52
 10
-28.5111427307129
 20
-106.999984741211
 30
0.0
 11
-30.5111446380615
 21
-108.999984741211
 31
0.0
  0
LINE
  5
   2D1
  8
0
  6
CONTINUOUS
 62
    52
 10
-24.2685012817383
 20
-106.999984741211
 30
0.0
 11
-26.2685031890869
 21
-108.999984741211
 31
0.0
  0
LINE
  5
   2D2
  8
0
  6
CONTINUOUS
 62
    52
 10
-20.0258598327637
 20
-106.999984741211
 30
0.0
 11
-22.0258617401123
 21
-108.999984741211
 31
0.0
  0
LINE
  5
   2D3
  8
0
  6
CONTINUOUS
 62
    52
 10
-15.7832183837891
 20
-106.999984741211
 30
0.0
 11
-17.7832202911377
 21
-108.999984741211
 31
0.0
  0
LINE
  5
   2D4
  8
0
  6
CONTINUOUS
 62
    52
 10
-11.5405769348145
 20
-106.999984741211
 30
0.0
 11
-13.5405788421631
 21
-108.999984741211
 31
0.0
  0
LINE
  5
   2D5
  8
0
  6
CONTINUOUS
 62
    52
 10
-7.297935962677
 20
-106.999984741211
 30
0.0
 11
-9.29793739318848
 21
-108.999984741211
 31
0.0
  0
LINE
  5
   2D6
  8
0
  6
CONTINUOUS
 62
    52
 10
-3.05529546737671
 20
-106.999984741211
 30
0.0
 11
-5.05529689788818
 21
-108.999984741211
 31
0.0
  0
LINE
  5
   2D7
  8
0
  6
CONTINUOUS
 62
    52
 10
1.18734502792358
 20
-106.999984741211
 30
0.0
 11
-0.812656402587891
 21
-108.999984741211
 31
0.0
  0
LINE
  5
   2D8
  8
0
  6
CONTINUOUS
 62
    52
 10
5.42998552322388
 20
-106.999984741211
 30
0.0
 11
3.4299840927124
 21
-108.999984741211
 31
0.0
  0
LINE
  5
   2D9
  8
0
  6
CONTINUOUS
 62
    52
 10
9.67262649536133
 20
-106.999984741211
 30
0.0
 11
7.6726245880127
 21
-108.999984741211
 31
0.0
  0
LINE
  5
   2DA
  8
0
  6
CONTINUOUS
 62
    52
 10
13.9152679443359
 20
-106.999984741211
 30
0.0
 11
11.9152660369873
 21
-108.999984741211
 31
0.0
  0
LINE
  5
   2DB
  8
0
  6
CONTINUOUS
 62
    52
 10
18.1579093933105
 20
-106.999984741211
 30
0.0
 11
16.1579074859619
 21
-108.999984741211
 31
0.0
  0
LINE
  5
   2DC
  8
0
  6
CONTINUOUS
 62
    52
 10
22.4005508422852
 20
-106.999984741211
 30
0.0
 11
20.4005489349365
 21
-108.999984741211
 31
0.0
  0
LINE
  5
   2DD
  8
0
  6
CONTINUOUS
 62
    52
 10
26.6431922912598
 20
-106.999984741211
 30
0.0
 11
24.6431903839111
 21
-108.999984741211
 31
0.0
  0
LINE
  5
   2DE
  8
0
  6
CONTINUOUS
 62
    52
 10
30.8858337402344
 20
-106.999984741211
 30
0.0
 11
28.8858318328857
 21
-108.999984741211
 31
0.0
  0
LINE
  5
   2DF
  8
0
  6
CONTINUOUS
 62
    52
 10
35.1284713745117
 20
-106.999984741211
 30
0.0
 11
33.1284713745117
 21
-108.999984741211
 31
0.0
  0
ENDBLK
  5
   2E0
  8
0
  6
CONTINUOUS
 62
     7
  0
BLOCK
  5
   2E1
  8
0
  6
CONTINUOUS
 62
     2
  2
*HATCH101
 70
    65
 10
0.0
 20
0.0
 30
0.0
  3
*HATCH101
  0
LINE
  5
   2E2
  8
0
  6
CONTINUOUS
 62
   210
 10
210.466598510742
 20
-24.9999752044678
 30
0.0
 11
207.237121582031
 21
-28.2294387817383
 31
0.0
  0
LINE
  5
   2E3
  8
0
  6
CONTINUOUS
 62
   210
 10
212.137130737305
 20
-27.572078704834
 30
0.0
 11
209.709228515625
 21
-29.9999752044678
 31
0.0
  0
ENDBLK
  5
   2E4
  8
0
  6
CONTINUOUS
 62
     2
  0
BLOCK
  5
   2E5
  8
0
  6
CONTINUOUS
 62
     7
  2
*HATCH102
 70
    65
 10
0.0
 20
0.0
 30
0.0
  3
*HATCH102
  0
LINE
  5
   2E6
  8
0
  6
CONTINUOUS
 62
   210
 10
286.168640136719
 20
-48.9999771118164
 30
0.0
 11
282.737121582031
 21
-52.4314956665039
 31
0.0
  0
LINE
  5
   2E7
  8
0
  6
CONTINUOUS
 62
   210
 10
290.411285400391
 20
-48.9999771118164
 30
0.0
 11
285.411285400391
 21
-53.9999732971191
 31
0.0
  0
LINE
  5
   2E8
  8
0
  6
CONTINUOUS
 62
   210
 10
292.237121582031
 20
-51.4167747497559
 30
0.0
 11
289.653930664063
 21
-53.9999732971191
 31
0.0
  0
ENDBLK
  5
   2E9
  8
0
  6
CONTINUOUS
 62
     7
  0
BLOCK
  5
   2EA
  8
0
  6
CONTINUOUS
 62
     7
  2
*HATCH103
 70
    65
 10
0.0
 20
0.0
 30
0.0
  3
*HATCH103
  0
LINE
  5
   2EB
  8
0
  6
CONTINUOUS
 62
   210
 10
225.315841674805
 20
-24.9999752044678
 30
0.0
 11
222.337127685547
 21
-27.9786815643311
 31
0.0
  0
LINE
  5
   2EC
  8
0
  6
CONTINUOUS
 62
   210
 10
229.558471679688
 20
-24.9999752044678
 30
0.0
 11
224.558471679688
 21
-29.9999752044678
 31
0.0
  0
LINE
  5
   2ED
  8
0
  6
CONTINUOUS
 62
   210
 10
233.801116943359
 20
-24.9999752044678
 30
0.0
 11
228.801116943359
 21
-29.9999752044678
 31
0.0
  0
LINE
  5
   2EE
  8
0
  6
CONTINUOUS
 62
   210
 10
238.043762207031
 20
-24.9999752044678
 30
0.0
 11
233.043762207031
 21
-29.9999752044678
 31
0.0
  0
LINE
  5
   2EF
  8
0
  6
CONTINUOUS
 62
   210
 10
241.941543579102
 20
-25.3448238372803
 30
0.0
 11
237.286392211914
 21
-29.9999752044678
 31
0.0
  0
LINE
  5
   2F0
  8
0
  6
CONTINUOUS
 62
   210
 10
244.594131469727
 20
-26.9348754882813
 30
0.0
 11
241.066543579102
 21
-30.4624652862549
 31
0.0
  0
LINE
  5
   2F1
  8
0
  6
CONTINUOUS
 62
   210
 10
246.332855224609
 20
-29.4387912750244
 30
0.0
 11
242.60400390625
 21
-33.167652130127
 31
0.0
  0
LINE
  5
   2F2
  8
0
  6
CONTINUOUS
 62
   210
 10
247.740966796875
 20
-32.273307800293
 30
0.0
 11
244.012115478516
 21
-36.0021705627441
 31
0.0
  0
LINE
  5
   2F3
  8
0
  6
CONTINUOUS
 62
   210
 10
249.149078369141
 20
-35.1078262329102
 30
0.0
 11
245.420227050781
 21
-38.8366889953613
 31
0.0
  0
LINE
  5
   2F4
  8
0
  6
CONTINUOUS
 62
   210
 10
250.557189941406
 20
-37.9423446655273
 30
0.0
 11
246.828338623047
 21
-41.6712074279785
 31
0.0
  0
LINE
  5
   2F5
  8
0
  6
CONTINUOUS
 62
   210
 10
251.965301513672
 20
-40.7768630981445
 30
0.0
 11
248.236450195313
 21
-44.5057258605957
 31
0.0
  0
LINE
  5
   2F6
  8
0
  6
CONTINUOUS
 62
   210
 10
253.373413085938
 20
-43.6113815307617
 30
0.0
 11
249.644561767578
 21
-47.3402442932129
 31
0.0
  0
LINE
  5
   2F7
  8
0
  6
CONTINUOUS
 62
   210
 10
254.781616210938
 20
-46.4458847045898
 30
0.0
 11
251.057281494141
 21
-50.1702156066895
 31
0.0
  0
LINE
  5
   2F8
  8
0
  6
CONTINUOUS
 62
   210
 10
256.604156494141
 20
-48.8659744262695
 30
0.0
 11
252.986892700195
 21
-52.4832458496094
 31
0.0
  0
LINE
  5
   2F9
  8
0
  6
CONTINUOUS
 62
   210
 10
260.712799072266
 20
-48.9999771118164
 30
0.0
 11
255.870376586914
 21
-53.8424034118652
 31
0.0
  0
LINE
  5
   2FA
  8
0
  6
CONTINUOUS
 62
   210
 10
264.955413818359
 20
-48.9999771118164
 30
0.0
 11
259.955444335938
 21
-53.9999732971191
 31
0.0
  0
LINE
  5
   2FB
  8
0
  6
CONTINUOUS
 62
   210
 10
269.198028564453
 20
-48.9999771118164
 30
0.0
 11
264.198059082031
 21
-53.9999732971191
 31
0.0
  0
LINE
  5
   2FC
  8
0
  6
CONTINUOUS
 62
   210
 10
271.737121582031
 20
-50.7035751342773
 30
0.0
 11
268.440734863281
 21
-53.9999732971191
 31
0.0
  0
ENDBLK
  5
   2FD
  8
0
  6
CONTINUOUS
 62
     7
  0
BLOCK
  5
   2FE
  8
0
  6
CONTINUOUS
 62
     7
  2
*UDIM173
 70
    65
 10
0.0
 20
0.0
 30
0.0
  3
*UDIM173
  0
TEXT
  5
   2FF
  8
0
  6
CONTINUOUS
 62
     7
 10
-976.098967724781
 20
60.5808606580395
 30
0.0
 40
3.00000002980232
  1
60
 50
89.9999999480344
 41
0.933333333333333
 72
     1
 11
-977.598967737418
 21
63.0808606842333
 31
0.0
 73
     2
  0
LINE
  5
   300
  8
0
  6
CONTINUOUS
 62
     7
 10
-951.213977465977
 20
46.8995197513873
 30
0.0
 11
-976.098967722517
 21
46.8995197513873
 31
0.0
  0
LINE
  5
   301
  8
0
  6
CONTINUOUS
 62
     7
 10
-937.644420151235
 20
76.8995197513872
 30
0.0
 11
-976.098967722517
 21
76.8995197513872
 31
0.0
  0
LINE
  5
   302
  8
0
  6
CONTINUOUS
 62
     7
 10
-974.098967722517
 20
46.8995197513873
 30
0.0
 11
-974.098967722517
 21
76.8995197513872
 31
0.0
  0
LINE
  5
   303
  8
0
  6
CONTINUOUS
 62
     7
 10
-974.875424878935
 20
49.7972972245978
 30
0.0
 11
-974.098967722517
 21
46.8995197513873
 31
0.0
  0
LINE
  5
   304
  8
0
  6
CONTINUOUS
 62
     7
 10
-974.098967722517
 20
46.8995197513873
 30
0.0
 11
-973.322510566098
 21
49.7972972245978
 31
0.0
  0
LINE
  5
   305
  8
0
  6
CONTINUOUS
 62
     7
 10
-973.322510566098
 20
74.0017422781767
 30
0.0
 11
-974.098967722517
 21
76.8995197513872
 31
0.0
  0
LINE
  5
   306
  8
0
  6
CONTINUOUS
 62
     7
 10
-974.098967722517
 20
76.8995197513872
 30
0.0
 11
-974.875424878935
 21
74.0017422781767
 31
0.0
  0
ENDBLK
  5
   307
  8
0
  6
CONTINUOUS
 62
     7
  0
BLOCK
  5
   308
  8
0
  6
CONTINUOUS
 62
     7
  2
*UDIM174
 70
    65
 10
0.0
 20
0.0
 30
0.0
  3
*UDIM174
  0
TEXT
  5
   309
  8
0
  6
CONTINUOUS
 62
     7
 10
-954.232796501951
 20
-82.9452419258457
 30
0.0
 40
3.00000002980232
  1
20
 50
359.999999948034
 41
0.933333333333333
 72
     1
 11
-951.732796475763
 21
-81.4452419131994
 31
0.0
 73
     2
  0
LINE
  5
   30A
  8
0
  6
CONTINUOUS
 62
     7
 10
-946.813976512303
 20
-68.1005058288574
 30
0.0
 11
-946.813976512303
 21
-85.9452419281006
 31
0.0
  0
LINE
  5
   30B
  8
0
  6
CONTINUOUS
 62
     7
 10
-956.81396484375
 20
-81.69183167959
 30
0.0
 11
-956.81396484375
 21
-85.9452419281006
 31
0.0
  0
LINE
  5
   30C
  8
0
  6
CONTINUOUS
 62
     7
 10
-946.813976512303
 20
-83.9452419281006
 30
0.0
 11
-956.81396484375
 21
-83.9452419281006
 31
0.0
  0
LINE
  5
   30D
  8
0
  6
CONTINUOUS
 62
     7
 10
-943.859553235096
 20
-83.4242974981489
 30
0.0
 11
-946.813976512303
 21
-83.9452419281006
 31
0.0
  0
LINE
  5
   30E
  8
0
  6
CONTINUOUS
 62
     7
 10
-946.813976512303
 20
-83.9452419281006
 30
0.0
 11
-943.859553235096
 21
-84.4661863580523
 31
0.0
  0
LINE
  5
   30F
  8
0
  6
CONTINUOUS
 62
     7
 10
-959.768388120957
 20
-84.4661863580523
 30
0.0
 11
-956.81396484375
 21
-83.9452419281006
 31
0.0
  0
LINE
  5
   310
  8
0
  6
CONTINUOUS
 62
     7
 10
-956.81396484375
 20
-83.9452419281006
 30
0.0
 11
-959.768388120957
 21
-83.4242974981489
 31
0.0
  0
ENDBLK
  5
   311
  8
0
  6
CONTINUOUS
 62
     7
  0
BLOCK
  5
   312
  8
0
  6
CONTINUOUS
 62
     7
  2
*HATCH104
 70
    65
 10
0.0
 20
0.0
 30
0.0
  3
*HATCH104
  0
LINE
  5
   313
  8
0
  6
CONTINUOUS
 62
   210
 10
15.237024307251
 20
-25.0680618286133
 30
0.0
 11
11.237024307251
 21
-29.0680618286133
 31
0.0
  0
LINE
  5
   314
  8
0
  6
CONTINUOUS
 62
   210
 10
15.237024307251
 20
-29.3107032775879
 30
0.0
 11
11.237024307251
 21
-33.3107032775879
 31
0.0
  0
LINE
  5
   315
  8
0
  6
CONTINUOUS
 62
   210
 10
15.237024307251
 20
-33.5533447265625
 30
0.0
 11
11.237024307251
 21
-37.5533409118652
 31
0.0
  0
LINE
  5
   316
  8
0
  6
CONTINUOUS
 62
   210
 10
15.237024307251
 20
-37.7959823608398
 30
0.0
 11
11.237024307251
 21
-41.7959785461426
 31
0.0
  0
LINE
  5
   317
  8
0
  6
CONTINUOUS
 62
   210
 10
15.237024307251
 20
-42.0386199951172
 30
0.0
 11
11.237024307251
 21
-46.0386161804199
 31
0.0
  0
ENDBLK
  5
   318
  8
0
  6
CONTINUOUS
 62
     7
  0
BLOCK
  5
   319
  8
0
  6
CONTINUOUS
 62
     7
  2
*UDIM175
 70
    65
 10
0.0
 20
0.0
 30
0.0
  3
*UDIM175
  0
TEXT
  5
   31A
  8
0
  6
CONTINUOUS
 62
     7
 10
-953.947876308671
 20
-90.2045392428268
 30
0.0
 40
3.00000002980232
  1
5
 50
359.999999948034
 41
0.933333333333334
 72
     1
 11
-952.847876296391
 21
-88.7045392289178
 31
0.0
 73
     2
  0
LINE
  5
   31B
  8
0
  6
CONTINUOUS
 62
     7
 10
-944.313976512303
 20
-68.1005058288574
 30
0.0
 11
-944.313976512303
 21
-93.204539243819
 31
0.0
  0
LINE
  5
   31C
  8
0
  6
CONTINUOUS
 62
     7
 10
-946.813976512303
 20
-68.1005058288574
 30
0.0
 11
-946.813976512303
 21
-93.204539243819
 31
0.0
  0
LINE
  5
   31D
  8
0
  6
CONTINUOUS
 62
     7
 10
-944.313976512303
 20
-91.204539243819
 30
0.0
 11
-953.947876307319
 21
-91.204539243819
 31
0.0
  0
LINE
  5
   31E
  8
0
  6
CONTINUOUS
 62
     7
 10
-941.416199039092
 20
-90.4280820874004
 30
0.0
 11
-944.313976512303
 21
-91.204539243819
 31
0.0
  0
LINE
  5
   31F
  8
0
  6
CONTINUOUS
 62
     7
 10
-944.313976512303
 20
-91.204539243819
 30
0.0
 11
-941.416199039092
 21
-91.9809964002375
 31
0.0
  0
LINE
  5
   320
  8
0
  6
CONTINUOUS
 62
     7
 10
-949.711753985513
 20
-91.9809964002375
 30
0.0
 11
-946.813976512303
 21
-91.204539243819
 31
0.0
  0
LINE
  5
   321
  8
0
  6
CONTINUOUS
 62
     7
 10
-946.813976512303
 20
-91.204539243819
 30
0.0
 11
-949.711753985513
 21
-90.4280820874004
 31
0.0
  0
ENDBLK
  5
   322
  8
0
  6
CONTINUOUS
 62
     7
  0
BLOCK
  5
   323
  8
0
  6
CONTINUOUS
 62
     7
  2
*UDIM176
 70
    65
 10
0.0
 20
0.0
 30
0.0
  3
*UDIM176
  0
TEXT
  5
   324
  8
0
  6
CONTINUOUS
 62
     7
 10
-934.19255234034
 20
-90.2045392415641
 30
0.0
 40
3.00000002980232
  1
10
 50
359.999999948034
 41
0.933333333333333
 72
     1
 11
-931.692552314152
 21
-88.7045392289178
 31
0.0
 73
     2
  0
TEXT
  5
   325
  8
0
  6
CONTINUOUS
 62
     7
 10
-928.192552290895
 20
-90.4545392218676
 30
0.0
 40
3.5
  1
 min.
 50
359.999999948034
 41
0.933333333333333
 72
     1
 11
-920.37588562265
 21
-88.7045392289178
 31
0.0
 73
     2
  0
LINE
  5
   326
  8
0
  6
CONTINUOUS
 62
     7
 10
-939.313977465977
 20
-68.6004802486127
 30
0.0
 11
-939.313977465977
 21
-93.204539243819
 31
0.0
  0
LINE
  5
   327
  8
0
  6
CONTINUOUS
 62
     7
 10
-912.559218955984
 20
-91.204539243819
 30
0.0
 11
-944.313976512303
 21
-91.204539243819
 31
0.0
  0
LINE
  5
   328
  8
0
  6
CONTINUOUS
 62
     7
 10
-936.416199992767
 20
-90.4280820874004
 30
0.0
 11
-939.313977465977
 21
-91.204539243819
 31
0.0
  0
LINE
  5
   329
  8
0
  6
CONTINUOUS
 62
     7
 10
-939.313977465977
 20
-91.204539243819
 30
0.0
 11
-936.416199992767
 21
-91.9809964002375
 31
0.0
  0
CIRCLE
  5
   32A
  8
0
  6
CONTINUOUS
 62
     7
 10
-944.313976512303
 20
-91.204539243819
 30
0.0
 40
0.5
  0
ENDBLK
  5
   32B
  8
0
  6
CONTINUOUS
 62
     7
  0
BLOCK
  5
   32C
  8
0
  6
CONTINUOUS
 62
     7
  2
*UDIM177
 70
    65
 10
0.0
 20
0.0
 30
0.0
  3
*UDIM177
  0
TEXT
  5
   32D
  8
0
  6
CONTINUOUS
 62
     7
 10
-967.062571529106
 20
-78.7005322121431
 30
0.0
 40
3.00000002980232
  1
M10
 50
89.9999999480344
 41
0.933333333333333
 72
     1
 11
-968.562571540475
 21
-74.8005321720416
 31
0.0
 73
     2
  0
LINE
  5
   32E
  8
0
  6
CONTINUOUS
 62
     7
 10
-947.813976512303
 20
-64.6505314091021
 30
0.0
 11
-968.062571525574
 21
-64.6505314091021
 31
0.0
  0
LINE
  5
   32F
  8
0
  6
CONTINUOUS
 62
     7
 10
-947.813976512303
 20
-59.5505314091021
 30
0.0
 11
-968.062571525574
 21
-59.5505314091021
 31
0.0
  0
LINE
  5
   330
  8
0
  6
CONTINUOUS
 62
     7
 10
-966.062571525574
 20
-78.7005322107846
 30
0.0
 11
-966.062571525574
 21
-59.5505314091021
 31
0.0
  0
LINE
  5
   331
  8
0
  6
CONTINUOUS
 62
     7
 10
-965.541627095622
 20
-67.6049546863091
 30
0.0
 11
-966.062571525574
 21
-64.6505314091021
 31
0.0
  0
LINE
  5
   332
  8
0
  6
CONTINUOUS
 62
     7
 10
-966.062571525574
 20
-64.6505314091021
 30
0.0
 11
-966.583515955526
 21
-67.6049546863091
 31
0.0
  0
LINE
  5
   333
  8
0
  6
CONTINUOUS
 62
     7
 10
-966.583515955526
 20
-56.5961081318952
 30
0.0
 11
-966.062571525574
 21
-59.5505314091021
 31
0.0
  0
LINE
  5
   334
  8
0
  6
CONTINUOUS
 62
     7
 10
-966.062571525574
 20
-59.5505314091021
 30
0.0
 11
-965.541627095622
 21
-56.5961081318952
 31
0.0
  0
ENDBLK
  5
   335
  8
0
  6
CONTINUOUS
 62
     7
  0
BLOCK
  5
   336
  8
0
  6
CONTINUOUS
 62
     5
  2
*UDIM178
 70
    65
 10
0.0
 20
0.0
 30
0.0
  3
*UDIM178
  0
TEXT
  5
   337
  8
0
  6
CONTINUOUS
 62
     5
 10
-975.039070136731
 20
11.7120169681134
 30
0.0
 40
3.00000002980232
  1
107,25
 50
89.9999999480344
 41
0.933333333333333
 72
     1
 11
-976.539070144296
 21
19.8120170499383
 31
0.0
 73
     2
  0
LINE
  5
   338
  8
0
  6
CONTINUOUS
 62
     5
 10
-951.528648043265
 20
46.8995197513873
 30
0.0
 11
-976.039070129395
 21
46.8995197513873
 31
0.0
  0
LINE
  5
   339
  8
0
  6
CONTINUOUS
 62
     5
 10
-974.039070129395
 20
-6.72548873903133
 30
0.0
 11
-974.039070129395
 21
46.8995197513873
 31
0.0
  0
LINE
  5
   33A
  8
0
  6
CONTINUOUS
 62
     5
 10
-974.560014559346
 20
-3.77106546182437
 30
0.0
 11
-974.039070129395
 21
-6.72548873903133
 31
0.0
  0
LINE
  5
   33B
  8
0
  6
CONTINUOUS
 62
     5
 10
-974.039070129395
 20
-6.72548873903133
 30
0.0
 11
-973.518125699443
 21
-3.77106546182437
 31
0.0
  0
LINE
  5
   33C
  8
0
  6
CONTINUOUS
 62
     5
 10
-973.518125699443
 20
43.9450964741803
 30
0.0
 11
-974.039070129395
 21
46.8995197513873
 31
0.0
  0
LINE
  5
   33D
  8
0
  6
CONTINUOUS
 62
     5
 10
-974.039070129395
 20
46.8995197513873
 30
0.0
 11
-974.560014559346
 21
43.9450964741803
 31
0.0
  0
ENDBLK
  5
   33E
  8
0
  6
CONTINUOUS
 62
     5
  0
BLOCK
  5
   33F
  8
0
  6
CONTINUOUS
 62
     7
  2
*UDIM179
 70
    65
 10
0.0
 20
0.0
 30
0.0
  3
*UDIM179
  0
TEXT
  5
   340
  8
0
  6
CONTINUOUS
 62
     7
 10
-899.313972580793
 20
-113.894790648422
 30
0.0
 40
3.00000002980232
  1
2
 50
359.999999948034
 41
0.933333333333334
 72
     1
 11
-898.213972568512
 21
-112.394790634513
 31
0.0
 73
     2
  0
LINE
  5
   341
  8
0
  6
CONTINUOUS
 62
     7
 10
-902.313972473145
 20
-84.7917677316697
 30
0.0
 11
-902.313972473145
 21
-116.894790649414
 31
0.0
  0
LINE
  5
   342
  8
0
  6
CONTINUOUS
 62
     7
 10
-903.313972473145
 20
-85.2276651675671
 30
0.0
 11
-903.313972473145
 21
-116.894790649414
 31
0.0
  0
LINE
  5
   343
  8
0
  6
CONTINUOUS
 62
     7
 10
-897.113972557585
 20
-114.894790649414
 30
0.0
 11
-903.313972473145
 21
-114.894790649414
 31
0.0
  0
LINE
  5
   344
  8
0
  6
CONTINUOUS
 62
     7
 10
-899.359549195938
 20
-114.373846219462
 30
0.0
 11
-902.313972473145
 21
-114.894790649414
 31
0.0
  0
LINE
  5
   345
  8
0
  6
CONTINUOUS
 62
     7
 10
-902.313972473145
 20
-114.894790649414
 30
0.0
 11
-899.359549195938
 21
-115.415735079366
 31
0.0
  0
LINE
  5
   346
  8
0
  6
CONTINUOUS
 62
     7
 10
-906.268395750351
 20
-115.415735079366
 30
0.0
 11
-903.313972473145
 21
-114.894790649414
 31
0.0
  0
LINE
  5
   347
  8
0
  6
CONTINUOUS
 62
     7
 10
-903.313972473145
 20
-114.894790649414
 30
0.0
 11
-906.268395750351
 21
-114.373846219462
 31
0.0
  0
ENDBLK
  5
   348
  8
0
  6
CONTINUOUS
 62
     7
  0
BLOCK
  5
   349
  8
0
  6
CONTINUOUS
 62
     7
  2
*UDIM180
 70
    65
 10
0.0
 20
0.0
 30
0.0
  3
*UDIM180
  0
TEXT
  5
   34A
  8
0
  6
CONTINUOUS
 62
     7
 10
-934.238968704504
 20
-113.894790645896
 30
0.0
 40
3.00000002980232
  1
107
 50
359.999999948034
 41
0.933333333333333
 72
     1
 11
-930.338968664408
 21
-112.394790634513
 31
0.0
 73
     2
  0
LINE
  5
   34B
  8
0
  6
CONTINUOUS
 62
     7
 10
-956.81396484375
 20
-81.69183167959
 30
0.0
 11
-956.81396484375
 21
-116.894790649414
 31
0.0
  0
LINE
  5
   34C
  8
0
  6
CONTINUOUS
 62
     7
 10
-903.313972473145
 20
-114.894790649414
 30
0.0
 11
-956.81396484375
 21
-114.894790649414
 31
0.0
  0
LINE
  5
   34D
  8
0
  6
CONTINUOUS
 62
     7
 10
-906.268395750351
 20
-115.415735079366
 30
0.0
 11
-903.313972473145
 21
-114.894790649414
 31
0.0
  0
LINE
  5
   34E
  8
0
  6
CONTINUOUS
 62
     7
 10
-903.313972473145
 20
-114.894790649414
 30
0.0
 11
-906.268395750351
 21
-114.373846219462
 31
0.0
  0
LINE
  5
   34F
  8
0
  6
CONTINUOUS
 62
     7
 10
-953.859541566543
 20
-114.373846219462
 30
0.0
 11
-956.81396484375
 21
-114.894790649414
 31
0.0
  0
LINE
  5
   350
  8
0
  6
CONTINUOUS
 62
     7
 10
-956.81396484375
 20
-114.894790649414
 30
0.0
 11
-953.859541566543
 21
-115.415735079366
 31
0.0
  0
ENDBLK
  5
   351
  8
0
  6
CONTINUOUS
 62
     7
  0
BLOCK
  5
   352
  8
0
  6
CONTINUOUS
 62
     7
  2
*UDIM181
 70
    65
 10
0.0
 20
0.0
 30
0.0
  3
*UDIM181
  0
TEXT
  5
   353
  8
0
  6
CONTINUOUS
 62
     7
 10
-937.913968732319
 20
-106.549564355529
 30
0.0
 40
3.00000002980232
  1
103,5
 50
359.999999948034
 41
0.933333333333333
 72
     1
 11
-931.213968664408
 21
-105.049564346671
 31
0.0
 73
     2
  0
LINE
  5
   354
  8
0
  6
CONTINUOUS
 62
     7
 10
-905.063972473144
 20
-33.9754734802423
 30
0.0
 11
-905.063972473144
 21
-109.549564361572
 31
0.0
  0
LINE
  5
   355
  8
0
  6
CONTINUOUS
 62
     7
 10
-956.81396484375
 20
-81.69183167959
 30
0.0
 11
-956.81396484375
 21
-109.549564361572
 31
0.0
  0
LINE
  5
   356
  8
0
  6
CONTINUOUS
 62
     7
 10
-905.063972473144
 20
-107.549564361572
 30
0.0
 11
-956.81396484375
 21
-107.549564361572
 31
0.0
  0
LINE
  5
   357
  8
0
  6
CONTINUOUS
 62
     7
 10
-908.018395750352
 20
-108.070508791524
 30
0.0
 11
-905.063972473144
 21
-107.549564361572
 31
0.0
  0
LINE
  5
   358
  8
0
  6
CONTINUOUS
 62
     7
 10
-905.063972473144
 20
-107.549564361572
 30
0.0
 11
-908.018395750352
 21
-107.028619931621
 31
0.0
  0
LINE
  5
   359
  8
0
  6
CONTINUOUS
 62
     7
 10
-953.859541566543
 20
-107.028619931621
 30
0.0
 11
-956.81396484375
 21
-107.549564361572
 31
0.0
  0
LINE
  5
   35A
  8
0
  6
CONTINUOUS
 62
     7
 10
-956.81396484375
 20
-107.549564361572
 30
0.0
 11
-953.859541566543
 21
-108.070508791524
 31
0.0
  0
ENDBLK
  5
   35B
  8
0
  6
CONTINUOUS
 62
     7
  0
BLOCK
  5
   35C
  8
0
  6
CONTINUOUS
 62
     7
  2
*UDIM182
 70
    65
 10
0.0
 20
0.0
 30
0.0
  3
*UDIM182
  0
TEXT
  5
   35D
  8
0
  6
CONTINUOUS
 62
     7
 10
-964.063964951398
 20
-106.54956436058
 30
0.0
 40
3.00000002980232
  1
3
 50
359.999999948034
 41
0.933333333333334
 72
     1
 11
-962.963964939117
 21
-105.049564346671
 31
0.0
 73
     2
  0
TEXT
  5
   35E
  8
0
  6
CONTINUOUS
 62
     7
 10
-966.813964985174
 20
-106.54956436058
 30
0.0
 40
3.00000002980232
  1
_
 50
359.999999948034
 41
0.933333333333334
 72
     1
 11
-965.713964972893
 21
-105.049564346671
 31
0.0
 73
     2
  0
LINE
  5
   35F
  8
0
  6
CONTINUOUS
 62
     7
 10
-958.31396484375
 20
-81.69183167959
 30
0.0
 11
-958.31396484375
 21
-109.549564361572
 31
0.0
  0
LINE
  5
   360
  8
0
  6
CONTINUOUS
 62
     7
 10
-956.81396484375
 20
-107.549564361572
 30
0.0
 11
-966.813964983821
 21
-107.549564361572
 31
0.0
  0
LINE
  5
   361
  8
0
  6
CONTINUOUS
 62
     7
 10
-953.859541566543
 20
-107.028619931621
 30
0.0
 11
-956.81396484375
 21
-107.549564361572
 31
0.0
  0
LINE
  5
   362
  8
0
  6
CONTINUOUS
 62
     7
 10
-956.81396484375
 20
-107.549564361572
 30
0.0
 11
-953.859541566543
 21
-108.070508791524
 31
0.0
  0
LINE
  5
   363
  8
0
  6
CONTINUOUS
 62
     7
 10
-961.268388120957
 20
-108.070508791524
 30
0.0
 11
-958.31396484375
 21
-107.549564361572
 31
0.0
  0
LINE
  5
   364
  8
0
  6
CONTINUOUS
 62
     7
 10
-958.31396484375
 20
-107.549564361572
 30
0.0
 11
-961.268388120957
 21
-107.028619931621
 31
0.0
  0
ENDBLK
  5
   365
  8
0
  6
CONTINUOUS
 62
     7
  0
BLOCK
  5
   366
  8
0
  6
CONTINUOUS
 62
     7
  2
*UDIM183
 70
    65
 10
0.0
 20
0.0
 30
0.0
  3
*UDIM183
  0
TEXT
  5
   367
  8
0
  6
CONTINUOUS
 62
     7
 10
-975.039070131659
 20
-70.6255320075005
 30
0.0
 40
3.00000002980232
  1
15
 50
89.9999999480344
 41
0.933333333333333
 72
     1
 11
-976.539070144296
 21
-68.1255319813067
 31
0.0
 73
     2
  0
LINE
  5
   368
  8
0
  6
CONTINUOUS
 62
     7
 10
-951.528648043265
 20
-62.1005314091021
 30
0.0
 11
-976.039070129395
 21
-62.1005314091021
 31
0.0
  0
LINE
  5
   369
  8
0
  6
CONTINUOUS
 62
     7
 10
-956.813965320587
 20
-54.6005314091021
 30
0.0
 11
-976.039070129395
 21
-54.6005314091021
 31
0.0
  0
LINE
  5
   36A
  8
0
  6
CONTINUOUS
 62
     7
 10
-974.039070129395
 20
-70.625532006142
 30
0.0
 11
-974.039070129395
 21
-54.6005314091021
 31
0.0
  0
LINE
  5
   36B
  8
0
  6
CONTINUOUS
 62
     7
 10
-973.518125699443
 20
-65.0549546863091
 30
0.0
 11
-974.039070129395
 21
-62.1005314091021
 31
0.0
  0
LINE
  5
   36C
  8
0
  6
CONTINUOUS
 62
     7
 10
-974.039070129395
 20
-62.1005314091021
 30
0.0
 11
-974.560014559346
 21
-65.0549546863091
 31
0.0
  0
LINE
  5
   36D
  8
0
  6
CONTINUOUS
 62
     7
 10
-974.560014559346
 20
-51.6461081318952
 30
0.0
 11
-974.039070129395
 21
-54.6005314091021
 31
0.0
  0
LINE
  5
   36E
  8
0
  6
CONTINUOUS
 62
     7
 10
-974.039070129395
 20
-54.6005314091021
 30
0.0
 11
-973.518125699443
 21
-51.6461081318952
 31
0.0
  0
ENDBLK
  5
   36F
  8
0
  6
CONTINUOUS
 62
     7
  0
BLOCK
  5
   370
  8
0
  6
CONTINUOUS
 62
     7
  2
*UDIM184
 70
    65
 10
0.0
 20
0.0
 30
0.0
  3
*UDIM184
  0
TEXT
  5
   371
  8
0
  6
CONTINUOUS
 62
     7
 10
-938.413968732319
 20
-98.1324958740839
 30
0.0
 40
3.00000002980232
  1
101,5
 50
359.999999948034
 41
0.933333333333333
 72
     1
 11
-931.713968664408
 21
-96.6324958652258
 31
0.0
 73
     2
  0
LINE
  5
   372
  8
0
  6
CONTINUOUS
 62
     7
 10
-906.063972473145
 20
18.5245112609687
 30
0.0
 11
-906.063972473145
 21
-101.132495880127
 31
0.0
  0
LINE
  5
   373
  8
0
  6
CONTINUOUS
 62
     7
 10
-956.81396484375
 20
-81.69183167959
 30
0.0
 11
-956.81396484375
 21
-101.132495880127
 31
0.0
  0
LINE
  5
   374
  8
0
  6
CONTINUOUS
 62
     7
 10
-906.063972473145
 20
-99.132495880127
 30
0.0
 11
-956.81396484375
 21
-99.132495880127
 31
0.0
  0
LINE
  5
   375
  8
0
  6
CONTINUOUS
 62
     7
 10
-909.018395750352
 20
-99.6534403100786
 30
0.0
 11
-906.063972473145
 21
-99.132495880127
 31
0.0
  0
LINE
  5
   376
  8
0
  6
CONTINUOUS
 62
     7
 10
-906.063972473145
 20
-99.132495880127
 30
0.0
 11
-909.018395750352
 21
-98.6115514501753
 31
0.0
  0
LINE
  5
   377
  8
0
  6
CONTINUOUS
 62
     7
 10
-953.859541566543
 20
-98.6115514501753
 30
0.0
 11
-956.81396484375
 21
-99.132495880127
 31
0.0
  0
LINE
  5
   378
  8
0
  6
CONTINUOUS
 62
     7
 10
-956.81396484375
 20
-99.132495880127
 30
0.0
 11
-953.859541566543
 21
-99.6534403100786
 31
0.0
  0
ENDBLK
  5
   379
  8
0
  6
CONTINUOUS
 62
     7
  0
BLOCK
  5
   37A
  8
0
  6
CONTINUOUS
 62
     7
  2
*UDIM185
 70
    65
 10
0.0
 20
0.0
 30
0.0
  3
*UDIM185
  0
TEXT
  5
   37B
  8
0
  6
CONTINUOUS
 62
     7
 10
-984.647127155022
 20
-11.7755058749195
 30
0.0
 40
3.00000002980232
  1
218
 50
89.9999999480344
 41
0.933333333333333
 72
     1
 11
-986.147127166391
 21
-7.87550583481789
 31
0.0
 73
     2
  0
LINE
  5
   37C
  8
0
  6
CONTINUOUS
 62
     7
 10
-951.528648043265
 20
-62.1005314091021
 30
0.0
 11
-985.647127151489
 21
-62.1005314091021
 31
0.0
  0
LINE
  5
   37D
  8
0
  6
CONTINUOUS
 62
     7
 10
-951.528648043265
 20
46.8995197513873
 30
0.0
 11
-985.647127151489
 21
46.8995197513873
 31
0.0
  0
LINE
  5
   37E
  8
0
  6
CONTINUOUS
 62
     7
 10
-983.647127151489
 20
-62.1005314091021
 30
0.0
 11
-983.647127151489
 21
46.8995197513873
 31
0.0
  0
LINE
  5
   37F
  8
0
  6
CONTINUOUS
 62
     7
 10
-984.168071581441
 20
-59.1461081318952
 30
0.0
 11
-983.647127151489
 21
-62.1005314091021
 31
0.0
  0
LINE
  5
   380
  8
0
  6
CONTINUOUS
 62
     7
 10
-983.647127151489
 20
-62.1005314091021
 30
0.0
 11
-983.126182721538
 21
-59.1461081318952
 31
0.0
  0
LINE
  5
   381
  8
0
  6
CONTINUOUS
 62
     7
 10
-983.126182721538
 20
43.9450964741803
 30
0.0
 11
-983.647127151489
 21
46.8995197513873
 31
0.0
  0
LINE
  5
   382
  8
0
  6
CONTINUOUS
 62
     7
 10
-983.647127151489
 20
46.8995197513873
 30
0.0
 11
-984.168071581441
 21
43.9450964741803
 31
0.0
  0
ENDBLK
  5
   383
  8
0
  6
CONTINUOUS
 62
     7
  0
BLOCK
  5
   384
  8
0
  6
CONTINUOUS
 62
     7
  2
*UDIM186
 70
    65
 10
0.0
 20
0.0
 30
0.0
  3
*UDIM186
  0
TEXT
  5
   385
  8
0
  6
CONTINUOUS
 62
     7
 10
-927.227948051998
 20
-121.965095516502
 30
0.0
 40
3.00000002980232
  1
135
 50
359.999999948034
 41
0.933333333333333
 72
     1
 11
-923.327948011902
 21
-120.465095505118
 31
0.0
 73
     2
  0
LINE
  5
   386
  8
0
  6
CONTINUOUS
 62
     7
 10
-889.291931168133
 20
-12.8504734802423
 30
0.0
 11
-889.291931168133
 21
-124.96509552002
 31
0.0
  0
LINE
  5
   387
  8
0
  6
CONTINUOUS
 62
     7
 10
-956.81396484375
 20
-81.69183167959
 30
0.0
 11
-956.81396484375
 21
-124.96509552002
 31
0.0
  0
LINE
  5
   388
  8
0
  6
CONTINUOUS
 62
     7
 10
-889.291931168133
 20
-122.96509552002
 30
0.0
 11
-956.81396484375
 21
-122.96509552002
 31
0.0
  0
LINE
  5
   389
  8
0
  6
CONTINUOUS
 62
     7
 10
-892.24635444534
 20
-123.486039949971
 30
0.0
 11
-889.291931168133
 21
-122.96509552002
 31
0.0
  0
LINE
  5
   38A
  8
0
  6
CONTINUOUS
 62
     7
 10
-889.291931168133
 20
-122.96509552002
 30
0.0
 11
-892.24635444534
 21
-122.444151090068
 31
0.0
  0
LINE
  5
   38B
  8
0
  6
CONTINUOUS
 62
     7
 10
-953.859541566543
 20
-122.444151090068
 30
0.0
 11
-956.81396484375
 21
-122.96509552002
 31
0.0
  0
LINE
  5
   38C
  8
0
  6
CONTINUOUS
 62
     7
 10
-956.81396484375
 20
-122.96509552002
 30
0.0
 11
-953.859541566543
 21
-123.486039949971
 31
0.0
  0
ENDBLK
  5
   38D
  8
0
  6
CONTINUOUS
 62
     7
  0
BLOCK
  5
   38E
  8
0
  6
CONTINUOUS
 62
     7
  2
*UDIM187
 70
    65
 10
0.0
 20
0.0
 30
0.0
  3
*UDIM187
  0
TEXT
  5
   38F
  8
0
  6
CONTINUOUS
 62
     7
 10
-867.897758487419
 20
-10.9004829736405
 30
0.0
 40
3.00000002980232
  1
105
 50
89.9999999480344
 41
0.933333333333333
 72
     1
 11
-869.397758498788
 21
-7.00048293353893
 31
0.0
 73
     2
  0
LINE
  5
   390
  8
0
  6
CONTINUOUS
 62
     7
 10
-902.313972473145
 20
-32.9754734802423
 30
0.0
 11
-864.897758483887
 21
-32.9754734802423
 31
0.0
  0
LINE
  5
   391
  8
0
  6
CONTINUOUS
 62
     7
 10
-902.313972473145
 20
19.5245112609687
 30
0.0
 11
-864.897758483887
 21
19.5245112609687
 31
0.0
  0
LINE
  5
   392
  8
0
  6
CONTINUOUS
 62
     7
 10
-866.897758483887
 20
-32.9754734802423
 30
0.0
 11
-866.897758483887
 21
19.5245112609687
 31
0.0
  0
LINE
  5
   393
  8
0
  6
CONTINUOUS
 62
     7
 10
-867.418702913839
 20
-30.0210502030353
 30
0.0
 11
-866.897758483887
 21
-32.9754734802423
 31
0.0
  0
LINE
  5
   394
  8
0
  6
CONTINUOUS
 62
     7
 10
-866.897758483887
 20
-32.9754734802423
 30
0.0
 11
-866.376814053935
 21
-30.0210502030353
 31
0.0
  0
LINE
  5
   395
  8
0
  6
CONTINUOUS
 62
     7
 10
-866.376814053935
 20
16.5700879837617
 30
0.0
 11
-866.897758483887
 21
19.5245112609687
 31
0.0
  0
LINE
  5
   396
  8
0
  6
CONTINUOUS
 62
     7
 10
-866.897758483887
 20
19.5245112609687
 30
0.0
 11
-867.418702913839
 21
16.5700879837617
 31
0.0
  0
ENDBLK
  5
   397
  8
0
  6
CONTINUOUS
 62
     7
  0
BLOCK
  5
   398
  8
0
  6
CONTINUOUS
 62
     7
  2
*UDIM188
 70
    65
 10
0.0
 20
0.0
 30
0.0
  3
*UDIM188
  0
TEXT
  5
   399
  8
0
  6
CONTINUOUS
 62
     7
 10
-893.9560050987
 20
-61.8260373088568
 30
0.0
 40
3.00000002980232
  1
12
 50
89.9999999480344
 41
0.933333333333333
 72
     1
 11
-895.456005111337
 21
-59.326037282663
 31
0.0
 73
     2
  0
LINE
  5
   39A
  8
0
  6
CONTINUOUS
 62
     7
 10
-934.713977465977
 20
-62.1005314091021
 30
0.0
 11
-890.956005096436
 21
-62.1005314091021
 31
0.0
  0
LINE
  5
   39B
  8
0
  6
CONTINUOUS
 62
     7
 10
-932.74992492206
 20
-56.1005314091021
 30
0.0
 11
-890.956005096436
 21
-56.1005314091021
 31
0.0
  0
LINE
  5
   39C
  8
0
  6
CONTINUOUS
 62
     7
 10
-892.956005096436
 20
-62.1005314091021
 30
0.0
 11
-892.956005096436
 21
-56.1005314091021
 31
0.0
  0
LINE
  5
   39D
  8
0
  6
CONTINUOUS
 62
     7
 10
-892.435060666484
 20
-65.0549546863091
 30
0.0
 11
-892.956005096436
 21
-62.1005314091021
 31
0.0
  0
LINE
  5
   39E
  8
0
  6
CONTINUOUS
 62
     7
 10
-892.956005096436
 20
-62.1005314091021
 30
0.0
 11
-893.476949526387
 21
-65.0549546863091
 31
0.0
  0
LINE
  5
   39F
  8
0
  6
CONTINUOUS
 62
     7
 10
-893.476949526387
 20
-53.1461081318951
 30
0.0
 11
-892.956005096436
 21
-56.1005314091021
 31
0.0
  0
LINE
  5
   3A0
  8
0
  6
CONTINUOUS
 62
     7
 10
-892.956005096436
 20
-56.1005314091021
 30
0.0
 11
-892.435060666484
 21
-53.1461081318951
 31
0.0
  0
ENDBLK
  5
   3A1
  8
0
  6
CONTINUOUS
 62
     7
  0
BLOCK
  5
   3A2
  8
0
  6
CONTINUOUS
 62
     7
  2
*UDIM189
 70
    65
 10
0.0
 20
0.0
 30
0.0
  3
*UDIM189
  0
TEXT
  5
   3A3
  8
0
  6
CONTINUOUS
 62
     7
 10
-893.9560050987
 20
41.1261573568482
 30
0.0
 40
3.00000002980232
  1
12
 50
89.9999999480344
 41
0.933333333333333
 72
     1
 11
-895.456005111337
 21
43.626157383042
 31
0.0
 73
     2
  0
LINE
  5
   3A4
  8
0
  6
CONTINUOUS
 62
     7
 10
-936.536841050618
 20
40.8995197513872
 30
0.0
 11
-890.956005096436
 21
40.8995197513872
 31
0.0
  0
LINE
  5
   3A5
  8
0
  6
CONTINUOUS
 62
     7
 10
-934.713977465977
 20
46.8995197513873
 30
0.0
 11
-890.956005096436
 21
46.8995197513873
 31
0.0
  0
LINE
  5
   3A6
  8
0
  6
CONTINUOUS
 62
     7
 10
-892.956005096436
 20
40.8995197513872
 30
0.0
 11
-892.956005096436
 21
46.8995197513873
 31
0.0
  0
LINE
  5
   3A7
  8
0
  6
CONTINUOUS
 62
     7
 10
-892.435060666484
 20
37.9450964741803
 30
0.0
 11
-892.956005096436
 21
40.8995197513872
 31
0.0
  0
LINE
  5
   3A8
  8
0
  6
CONTINUOUS
 62
     7
 10
-892.956005096436
 20
40.8995197513872
 30
0.0
 11
-893.476949526387
 21
37.9450964741803
 31
0.0
  0
LINE
  5
   3A9
  8
0
  6
CONTINUOUS
 62
     7
 10
-893.476949526387
 20
49.8539430285942
 30
0.0
 11
-892.956005096436
 21
46.8995197513873
 31
0.0
  0
LINE
  5
   3AA
  8
0
  6
CONTINUOUS
 62
     7
 10
-892.956005096436
 20
46.8995197513873
 30
0.0
 11
-892.435060666484
 21
49.8539430285942
 31
0.0
  0
ENDBLK
  5
   3AB
  8
0
  6
CONTINUOUS
 62
     7
  0
BLOCK
  5
   3AC
  8
0
  6
CONTINUOUS
 62
     7
  2
*UDIM190
 70
    65
 10
0.0
 20
0.0
 30
0.0
  3
*UDIM190
  0
TEXT
  5
   3AD
  8
0
  6
CONTINUOUS
 62
     7
 10
-984.647127153754
 20
62.8745170370239
 30
0.0
 40
3.00000002980232
  1
75
 50
89.9999999480344
 41
0.933333333333333
 72
     1
 11
-986.147127166391
 21
65.3745170632178
 31
0.0
 73
     2
  0
LINE
  5
   3AE
  8
0
  6
CONTINUOUS
 62
     7
 10
-951.213977465977
 20
46.8995197513873
 30
0.0
 11
-985.647127151489
 21
46.8995197513873
 31
0.0
  0
LINE
  5
   3AF
  8
0
  6
CONTINUOUS
 62
     7
 10
-933.313976028974
 20
84.3995197513872
 30
0.0
 11
-985.647127151489
 21
84.3995197513872
 31
0.0
  0
LINE
  5
   3B0
  8
0
  6
CONTINUOUS
 62
     7
 10
-983.647127151489
 20
46.8995197513873
 30
0.0
 11
-983.647127151489
 21
84.3995197513872
 31
0.0
  0
LINE
  5
   3B1
  8
0
  6
CONTINUOUS
 62
     7
 10
-984.168071581441
 20
49.8539430285942
 30
0.0
 11
-983.647127151489
 21
46.8995197513873
 31
0.0
  0
LINE
  5
   3B2
  8
0
  6
CONTINUOUS
 62
     7
 10
-983.647127151489
 20
46.8995197513873
 30
0.0
 11
-983.126182721538
 21
49.8539430285942
 31
0.0
  0
LINE
  5
   3B3
  8
0
  6
CONTINUOUS
 62
     7
 10
-983.126182721538
 20
81.4450964741803
 30
0.0
 11
-983.647127151489
 21
84.3995197513872
 31
0.0
  0
LINE
  5
   3B4
  8
0
  6
CONTINUOUS
 62
     7
 10
-983.647127151489
 20
84.3995197513872
 30
0.0
 11
-984.168071581441
 21
81.4450964741803
 31
0.0
  0
ENDBLK
  5
   3B5
  8
0
  6
CONTINUOUS
 62
     7
  0
ENDSEC
  0
SECTION
  2
ENTITIES
  0
LINE
  5
   3B6
  8
0
  6
DASHDOT
 62
     7
 10
-1039.84382008576
 20
-114.475320115685
 30
0.0
 11
-1069.32800845733
 21
-114.475320115685
 31
0.0
  0
LINE
  5
   3B7
  8
0
  6
DASHDOT
 62
     7
 10
-1037.28035782488
 20
-157.275320753455
 30
0.0
 11
-1071.82738416168
 21
-157.275320753455
 31
0.0
  0
LINE
  5
   3B8
  8
0
  6
DASHDOT
 62
     7
 10
-1056.37377929688
 20
-109.048325126897
 30
0.0
 11
-1056.37377929688
 21
-162.240167040029
 31
0.0
  0
LINE
  5
   3B9
  8
0
  6
CONTINUOUS
 62
     7
 10
-1076.12377959117
 20
-109.49693102255
 30
0.0
 11
-1076.12377959117
 21
-161.855647700898
 31
0.0
  0
LINE
  5
   3BA
  8
0
  6
CONTINUOUS
 62
     7
 10
-1043.62377910689
 20
-109.49693102255
 30
0.0
 11
-1043.62377910689
 21
-163.137378831335
 31
0.0
  0
LINE
  5
   3BB
  8
0
  6
CONTINUOUS
 62
     7
 10
-1039.84382008576
 20
-110.475320056081
 30
0.0
 11
-1077.3112639945
 21
-110.475320056081
 31
0.0
  0
LINE
  5
   3BC
  8
0
  6
CONTINUOUS
 62
     7
 10
-1037.28035782488
 20
-161.27532081306
 30
0.0
 11
-1077.96750869625
 21
-161.27532081306
 31
0.0
  0
CIRCLE
  5
   3BD
  8
0
  6
CONTINUOUS
 62
     7
 10
-1051.99877923168
 20
-114.475320115685
 30
0.0
 40
0.550000008195639
  0
LINE
  5
   3BE
  8
0
  6
DASHDOT
 62
     7
 10
-1051.99877923168
 20
-112.478894499579
 30
0.0
 11
-1051.99877923168
 21
-159.344361691338
 31
0.0
  0
CIRCLE
  5
   3BF
  8
0
  6
CONTINUOUS
 62
     7
 10
-1051.99877923168
 20
-157.275320753455
 30
0.0
 40
0.550000008195639
  0
LINE
  5
   3C0
  8
0
  6
DASHDOT
 62
     7
 10
-1069.49877949245
 20
-112.196231850654
 30
0.0
 11
-1069.49877949245
 21
-159.344361691338
 31
0.0
  0
CIRCLE
  5
   3C1
  8
0
  6
CONTINUOUS
 62
     7
 10
-1069.49877949245
 20
-114.475320115685
 30
0.0
 40
0.550000008195639
  0
CIRCLE
  5
   3C2
  8
0
  6
CONTINUOUS
 62
     7
 10
-1069.49877949245
 20
-157.275320753455
 30
0.0
 40
0.550000008195639
  0
LINE
  5
   3C3
  8
0
  6
DASHDOT
 62
     7
 10
-1034.04059873634
 20
-135.525320429355
 30
0.0
 11
-1085.66057306866
 21
-135.525320429355
 31
0.0
  0
INSERT
  5
   3C4
  8
0
  6
CONTINUOUS
 62
     7
  2
*UDIM140
 10
0.0
 20
0.0
 30
0.0
  0
TEXT
  5
   3C5
  8
0
  6
CONTINUOUS
 62
     7
 10
-1057.06758531818
 20
-109.167707914698
 30
0.0
 40
2.99999994933605
  1
Y
 50
359.999999896069
 41
0.916666607525612
 72
     2
 11
-1054.86758549997
 21
-109.167707918677
 31
0.0
  0
INSERT
  5
   3C6
  8
0
  6
CONTINUOUS
 62
     7
  2
*UDIM141
 10
0.0
 20
0.0
 30
0.0
  0
INSERT
  5
   3C7
  8
0
  6
CONTINUOUS
 62
     7
  2
*UDIM142
 10
0.0
 20
0.0
 30
0.0
  0
INSERT
  5
   3C8
  8
0
  6
CONTINUOUS
 62
     7
  2
*UDIM143
 10
0.0
 20
0.0
 30
0.0
  0
INSERT
  5
   3C9
  8
0
  6
CONTINUOUS
 62
     7
  2
*UDIM144
 10
0.0
 20
0.0
 30
0.0
  0
TEXT
  5
   3CA
  8
0
  6
CONTINUOUS
 62
     7
 10
-1096.44948790458
 20
-137.701952864127
 30
0.0
 40
2.99999994933605
  1
X
 50
359.999999896069
 41
0.916666607525612
 72
     2
 11
-1094.24948808637
 21
-137.701952868106
 31
0.0
  0
TEXT
  5
   3CB
  8
0
  6
CONTINUOUS
 62
     7
 10
-1032.02963526007
 20
-137.635955357955
 30
0.0
 40
2.99999994933605
  1
X
 50
359.999999896069
 41
0.916666607525612
 72
     2
 11
-1029.82963544187
 21
-137.635955361935
 31
0.0
  0
TEXT
  5
   3CC
  8
0
  6
CONTINUOUS
 62
     7
 10
-1057.5399406634
 20
-165.4401980971
 30
0.0
 40
2.99999994933605
  1
Y
 50
359.999999896069
 41
0.916666607525612
 72
     2
 11
-1055.3399408452
 21
-165.44019810108
 31
0.0
  0
LINE
  5
   3CD
  8
0
  6
DASHDOT
 62
     7
 10
-1067.31136336261
 20
58.3116848338464
 30
0.0
 11
-1067.31136336261
 21
96.4209653637061
 31
0.0
  0
LINE
  5
   3CE
  8
0
  6
CONTINUOUS
 62
   132
 10
-1091.93636336261
 20
55.8994917999563
 30
0.0
 11
-1091.93636336261
 21
57.1494952331523
 31
0.0
  0
LINE
  5
   3CF
  8
0
  6
CONTINUOUS
 62
   132
 10
-1086.43636336261
 20
56.7482755718791
 30
0.0
 11
-1086.43636336261
 21
57.6494952331523
 31
0.0
  0
LINE
  5
   3D0
  8
0
  6
CONTINUOUS
 62
   132
 10
-1088.06138659907
 20
52.8994847107112
 30
0.0
 11
-1090.31138659907
 21
52.8994847107112
 31
0.0
  0
LINE
  5
   3D1
  8
0
  6
CONTINUOUS
 62
   132
 10
-1090.31138659907
 20
52.8994847107112
 30
0.0
 11
-1090.31138659907
 21
54.5244847107112
 31
0.0
  0
LINE
  5
   3D2
  8
0
  6
CONTINUOUS
 62
   132
 10
-1088.06138659907
 20
52.8994847107112
 30
0.0
 11
-1088.06138659907
 21
54.5244847107112
 31
0.0
  0
LINE
  5
   3D3
  8
0
  6
CONTINUOUS
 62
   132
 10
-1088.43624497814
 20
54.0244847107112
 30
0.0
 11
-1088.43624497814
 21
57.6494952331523
 31
0.0
  0
LINE
  5
   3D4
  8
0
  6
CONTINUOUS
 62
   132
 10
-1089.93638659907
 20
54.5244847107112
 30
0.0
 11
-1090.31138659907
 21
54.5244847107112
 31
0.0
  0
LINE
  5
   3D5
  8
0
  6
CONTINUOUS
 62
   132
 10
-1089.93638659907
 20
54.0244847107112
 30
0.0
 11
-1090.31138659907
 21
54.0244847107112
 31
0.0
  0
LINE
  5
   3D6
  8
0
  6
CONTINUOUS
 62
   132
 10
-1088.06124497814
 20
54.0244847107113
 30
0.0
 11
-1088.43624497814
 21
54.0244847107113
 31
0.0
  0
LINE
  5
   3D7
  8
0
  6
CONTINUOUS
 62
   132
 10
-1088.06124497814
 20
54.5244847107112
 30
0.0
 11
-1088.43624497814
 21
54.5244847107112
 31
0.0
  0
LINE
  5
   3D8
  8
0
  6
CONTINUOUS
 62
   132
 10
-1089.93638659907
 20
54.0244847107111
 30
0.0
 11
-1089.93638659907
 21
57.6494952331523
 31
0.0
  0
LINE
  5
   3D9
  8
0
  6
CONTINUOUS
 62
     1
 10
-1043.87386336261
 20
74.3995323181151
 30
0.0
 11
-1043.87386336261
 21
84.3995308403302
 31
0.0
  0
LINE
  5
   3DA
  8
0
  6
CONTINUOUS
 62
     1
 10
-1036.99886336261
 20
74.3995323181151
 30
0.0
 11
-1036.99886336261
 21
84.3995308403302
 31
0.0
  0
LINE
  5
   3DB
  8
0
  6
CONTINUOUS
 62
     1
 10
-1016.99886336261
 20
74.3995323181152
 30
0.0
 11
-1016.99886336261
 21
84.3995308403302
 31
0.0
  0
LINE
  5
   3DC
  8
0
  6
CONTINUOUS
 62
     1
 10
-1016.99886336261
 20
84.3995308403302
 30
0.0
 11
-1036.99886336261
 21
84.3995308403302
 31
0.0
  0
CIRCLE
  5
   3DD
  8
0
  6
CONTINUOUS
 62
     1
 10
-1026.99886336261
 20
76.8995308403303
 30
0.0
 40
2.75
  0
LINE
  5
   3DE
  8
0
  6
CONTINUOUS
 62
     1
 10
-1043.87386336261
 20
84.3995308403302
 30
0.0
 11
-1063.87386336261
 21
84.3995308403302
 31
0.0
  0
CIRCLE
  5
   3DF
  8
0
  6
CONTINUOUS
 62
     1
 10
-1053.87386336261
 20
76.8995308403303
 30
0.0
 40
2.75
  0
LINE
  5
   3E0
  8
0
  6
CONTINUOUS
 62
     1
 10
-1063.87386336261
 20
57.1494952331523
 30
0.0
 11
-1063.87386336261
 21
84.3995308403302
 31
0.0
  0
LINE
  5
   3E1
  8
0
  6
CONTINUOUS
 62
     1
 10
-1090.74886336261
 20
74.3995323181151
 30
0.0
 11
-1090.74886336261
 21
84.3995308403302
 31
0.0
  0
LINE
  5
   3E2
  8
0
  6
CONTINUOUS
 62
     1
 10
-1097.62386336261
 20
74.3995323181151
 30
0.0
 11
-1097.62386336261
 21
84.3995308403302
 31
0.0
  0
LINE
  5
   3E3
  8
0
  6
CONTINUOUS
 62
     1
 10
-1117.62386336261
 20
74.3995323181152
 30
0.0
 11
-1117.62386336261
 21
84.3995308403302
 31
0.0
  0
LINE
  5
   3E4
  8
0
  6
CONTINUOUS
 62
     1
 10
-1097.62386336261
 20
84.3995308403302
 30
0.0
 11
-1117.62386336261
 21
84.3995308403302
 31
0.0
  0
CIRCLE
  5
   3E5
  8
0
  6
CONTINUOUS
 62
     1
 10
-1107.62386336261
 20
76.8995308403303
 30
0.0
 40
2.75
  0
LINE
  5
   3E6
  8
0
  6
CONTINUOUS
 62
     1
 10
-1070.74886336261
 20
84.3995308403302
 30
0.0
 11
-1090.74886336261
 21
84.3995308403302
 31
0.0
  0
CIRCLE
  5
   3E7
  8
0
  6
CONTINUOUS
 62
     1
 10
-1080.74886336261
 20
76.8995308403303
 30
0.0
 40
2.75
  0
LINE
  5
   3E8
  8
0
  6
CONTINUOUS
 62
     1
 10
-1070.74886336261
 20
57.1494952331523
 30
0.0
 11
-1070.74886336261
 21
84.3995308403302
 31
0.0
  0
LINE
  5
   3E9
  8
0
  6
DASHDOT
 62
     3
 10
-1107.62386336261
 20
73.1495308403303
 30
0.0
 11
-1107.62386336261
 21
80.6495308403303
 31
0.0
  0
LINE
  5
   3EA
  8
0
  6
DASHDOT
 62
     3
 10
-1103.87386336261
 20
76.8995308403303
 30
0.0
 11
-1111.37386336261
 21
76.8995308403303
 31
0.0
  0
LINE
  5
   3EB
  8
0
  6
DASHDOT
 62
     3
 10
-1080.74886336261
 20
73.1495308403303
 30
0.0
 11
-1080.74886336261
 21
80.6495308403303
 31
0.0
  0
LINE
  5
   3EC
  8
0
  6
DASHDOT
 62
     3
 10
-1076.99886336261
 20
76.8995308403303
 30
0.0
 11
-1084.49886336261
 21
76.8995308403303
 31
0.0
  0
LINE
  5
   3ED
  8
0
  6
DASHDOT
 62
     3
 10
-1053.87386336261
 20
73.1495308403303
 30
0.0
 11
-1053.87386336261
 21
80.6495308403303
 31
0.0
  0
LINE
  5
   3EE
  8
0
  6
DASHDOT
 62
     3
 10
-1050.12386336261
 20
76.8995308403303
 30
0.0
 11
-1057.62386336261
 21
76.8995308403303
 31
0.0
  0
LINE
  5
   3EF
  8
0
  6
DASHDOT
 62
     3
 10
-1026.99886336261
 20
73.1495308403303
 30
0.0
 11
-1026.99886336261
 21
80.6495308403303
 31
0.0
  0
LINE
  5
   3F0
  8
0
  6
DASHDOT
 62
     3
 10
-1023.24886336261
 20
76.8995308403303
 30
0.0
 11
-1030.74886336261
 21
76.8995308403303
 31
0.0
  0
LINE
  5
   3F1
  8
0
  6
CONTINUOUS
 62
     1
 10
-1092.62386336261
 20
65.8995330953901
 30
0.0
 11
-1097.62386336261
 21
74.3995323181152
 31
0.0
  0
LINE
  5
   3F2
  8
0
  6
CONTINUOUS
 62
     1
 10
-1107.62386336261
 20
65.8995330953902
 30
0.0
 11
-1117.62386336261
 21
74.3995323181152
 31
0.0
  0
LINE
  5
   3F3
  8
0
  6
CONTINUOUS
 62
     7
 10
-1093.79657396298
 20
54.8137485725494
 30
0.0
 11
-1106.47592783288
 21
54.8137485725494
 31
0.0
  0
LINE
  5
   3F4
  8
0
  6
CONTINUOUS
 62
     7
 10
-1093.87326360333
 20
61.41923221982
 30
0.0
 11
-1106.54835693765
 21
61.41923221982
 31
0.0
  0
LINE
  5
   3F5
  8
0
  6
CONTINUOUS
 62
     7
 10
-1072.32005858298
 20
61.41923221982
 30
0.0
 11
-1084.8494492564
 21
61.41923221982
 31
0.0
  0
LINE
  5
   3F6
  8
0
  6
CONTINUOUS
 62
     7
 10
-1072.59745384853
 20
54.8137485725494
 30
0.0
 11
-1084.47878266141
 21
54.8137485725494
 31
0.0
  0
LINE
  5
   3F7
  8
0
  6
CONTINUOUS
 62
     1
 10
-1085.74886336261
 20
65.8995330953903
 30
0.0
 11
-1090.74886336261
 21
74.3995323181153
 31
0.0
  0
LINE
  5
   3F8
  8
0
  6
CONTINUOUS
 62
     7
 10
-1050.46131165769
 20
61.41923221982
 30
0.0
 11
-1062.27834997009
 21
61.41923221982
 31
0.0
  0
LINE
  5
   3F9
  8
0
  6
CONTINUOUS
 62
     7
 10
-1050.68322787013
 20
54.8137485725494
 30
0.0
 11
-1062.16739186387
 21
54.8137485725494
 31
0.0
  0
LINE
  5
   3FA
  8
0
  6
CONTINUOUS
 62
     7
 10
-1028.65804378552
 20
61.41923221982
 30
0.0
 11
-1040.41960304481
 21
61.41923221982
 31
0.0
  0
LINE
  5
   3FB
  8
0
  6
CONTINUOUS
 62
     7
 10
-1028.38064851997
 20
54.8137485725494
 30
0.0
 11
-1040.69699831036
 21
54.8137485725494
 31
0.0
  0
LINE
  5
   3FC
  8
0
  6
CONTINUOUS
 62
     1
 10
-1048.87386336261
 20
65.8995330953903
 30
0.0
 11
-1043.87386336261
 21
74.3995323181153
 31
0.0
  0
LINE
  5
   3FD
  8
0
  6
CONTINUOUS
 62
     1
 10
-1041.99886336261
 20
65.8995330953901
 30
0.0
 11
-1036.99886336261
 21
74.3995323181152
 31
0.0
  0
LINE
  5
   3FE
  8
0
  6
CONTINUOUS
 62
     1
 10
-1026.99886336261
 20
65.8995330953902
 30
0.0
 11
-1016.99886336261
 21
74.3995323181153
 31
0.0
  0
LINE
  5
   3FF
  8
0
  6
CONTINUOUS
 62
     1
 10
-1107.62386336261
 20
55.8994917999563
 30
0.0
 11
-1107.62386336261
 21
65.8995330953902
 31
0.0
  0
LINE
  5
   400
  8
0
  6
CONTINUOUS
 62
     1
 10
-1092.62386336261
 20
55.8994917999563
 30
0.0
 11
-1092.62386336261
 21
65.89953309539
 31
0.0
  0
LINE
  5
   401
  8
0
  6
CONTINUOUS
 62
     1
 10
-1085.74886336261
 20
57.1494952331523
 30
0.0
 11
-1085.74886336261
 21
65.8995330953903
 31
0.0
  0
LINE
  5
   402
  8
0
  6
CONTINUOUS
 62
     1
 10
-1048.87386336261
 20
57.1494952331523
 30
0.0
 11
-1048.87386336261
 21
65.8995330953903
 31
0.0
  0
LINE
  5
   403
  8
0
  6
CONTINUOUS
 62
     1
 10
-1041.99886336261
 20
57.1494952331523
 30
0.0
 11
-1041.99886336261
 21
65.8995330953901
 31
0.0
  0
LINE
  5
   404
  8
0
  6
CONTINUOUS
 62
     1
 10
-1026.99886336261
 20
57.1494952331523
 30
0.0
 11
-1026.99886336261
 21
65.8995330953903
 31
0.0
  0
INSERT
  5
   405
  8
0
  6
CONTINUOUS
 62
     7
  2
*UDIM145
 10
0.0
 20
0.0
 30
0.0
  0
INSERT
  5
   406
  8
0
  6
CONTINUOUS
 62
     7
  2
*UDIM146
 10
0.0
 20
0.0
 30
0.0
  0
INSERT
  5
   407
  8
0
  6
CONTINUOUS
 62
     7
  2
*UDIM147
 10
0.0
 20
0.0
 30
0.0
  0
LINE
  5
   408
  8
0
  6
CONTINUOUS
 62
     7
 10
-1090.92321470538
 20
92.1625343443261
 30
0.0
 11
-1097.72635796941
 21
94.2948628300649
 31
0.0
  0
LINE
  5
   409
  8
0
  6
CONTINUOUS
 62
   132
 10
-1086.43636336261
 20
57.1494952331523
 30
0.0
 11
-1086.43636336261
 21
58.6494952331523
 31
0.0
  0
LINE
  5
   40A
  8
0
  6
CONTINUOUS
 62
   132
 10
-1086.43636336261
 20
57.6494952331523
 30
0.0
 11
-1091.93636336261
 21
57.6494952331523
 31
0.0
  0
LINE
  5
   40B
  8
0
  6
CONTINUOUS
 62
   132
 10
-1086.43636336261
 20
58.6494952331523
 30
0.0
 11
-1088.43636336261
 21
58.6494952331523
 31
0.0
  0
LINE
  5
   40C
  8
0
  6
CONTINUOUS
 62
   132
 10
-1089.93636336261
 20
58.6494952331523
 30
0.0
 11
-1089.93636336261
 21
65.6953060298901
 31
0.0
  0
LINE
  5
   40D
  8
0
  6
CONTINUOUS
 62
   132
 10
-1088.43636336261
 20
58.6494952331523
 30
0.0
 11
-1088.43636336261
 21
66.1037685005819
 31
0.0
  0
LINE
  5
   40E
  8
0
  6
CONTINUOUS
 62
   132
 10
-1089.93636336261
 20
58.6494952331523
 30
0.0
 11
-1091.93636336261
 21
58.6494952331523
 31
0.0
  0
LINE
  5
   40F
  8
0
  6
CONTINUOUS
 62
   132
 10
-1093.8198270974
 20
102.399535010176
 30
0.0
 11
-1094.55315897315
 21
102.399535010176
 31
0.0
  0
LINE
  5
   410
  8
0
  6
CONTINUOUS
 62
   132
 10
-1091.93636336261
 20
57.1494952331523
 30
0.0
 11
-1091.93636336261
 21
58.6494952331523
 31
0.0
  0
LINE
  5
   411
  8
0
  6
CONTINUOUS
 62
   132
 10
-1089.93636336261
 20
65.6953060298901
 30
0.0
 11
-1094.93636336261
 21
74.1953052526153
 31
0.0
  0
LINE
  5
   412
  8
0
  6
CONTINUOUS
 62
   132
 10
-1088.43636336261
 20
66.103768500582
 30
0.0
 11
-1093.43636336261
 21
74.6037677233072
 31
0.0
  0
LINE
  5
   413
  8
0
  6
CONTINUOUS
 62
   132
 10
-1094.93636336261
 20
74.1953052526158
 30
0.0
 11
-1094.80895791609
 21
93.3804538581314
 31
0.0
  0
LINE
  5
   414
  8
0
  6
CONTINUOUS
 62
   132
 10
-1093.43636336261
 20
74.6037677233062
 30
0.0
 11
-1093.55940900954
 21
92.9888042008518
 31
0.0
  0
LINE
  5
   415
  8
0
  6
CONTINUOUS
 62
   132
 10
-1094.61346014192
 20
93.3191784363739
 30
0.0
 11
-1094.55315897315
 21
102.399535010176
 31
0.0
  0
LINE
  5
   416
  8
0
  6
CONTINUOUS
 62
   132
 10
-1093.75725887373
 20
93.0508168448528
 30
0.0
 11
-1093.8198270974
 21
102.399535010176
 31
0.0
  0
LINE
  5
   417
  8
0
  6
CONTINUOUS
 62
   132
 10
-1064.56136336261
 20
57.6494952331523
 30
0.0
 11
-1070.06136336261
 21
57.6494952331523
 31
0.0
  0
LINE
  5
   418
  8
0
  6
CONTINUOUS
 62
   132
 10
-1070.06136336261
 20
57.1494952331523
 30
0.0
 11
-1070.06136336261
 21
58.6494952331523
 31
0.0
  0
LINE
  5
   419
  8
0
  6
CONTINUOUS
 62
   132
 10
-1068.06136336261
 20
58.6494952331523
 30
0.0
 11
-1070.06136336261
 21
58.6494952331523
 31
0.0
  0
LINE
  5
   41A
  8
0
  6
CONTINUOUS
 62
   132
 10
-1068.06136336261
 20
58.6494952331573
 30
0.0
 11
-1067.8833372475
 21
93.364587678424
 31
0.0
  0
LINE
  5
   41B
  8
0
  6
CONTINUOUS
 62
   132
 10
-1064.56136336261
 20
58.6494952331523
 30
0.0
 11
-1066.56136336261
 21
58.6494952331523
 31
0.0
  0
LINE
  5
   41C
  8
0
  6
CONTINUOUS
 62
   132
 10
-1064.56136336261
 20
57.1494952331523
 30
0.0
 11
-1064.56136336261
 21
58.6494952331523
 31
0.0
  0
LINE
  5
   41D
  8
0
  6
CONTINUOUS
 62
   132
 10
-1066.56136336261
 20
58.6494952331492
 30
0.0
 11
-1066.73754779547
 21
93.0054596412192
 31
0.0
  0
LINE
  5
   41E
  8
0
  6
CONTINUOUS
 62
   132
 10
-1048.18636336261
 20
57.1494952331523
 30
0.0
 11
-1048.18636336261
 21
58.6494952331523
 31
0.0
  0
LINE
  5
   41F
  8
0
  6
CONTINUOUS
 62
   132
 10
-1042.68636336261
 20
57.6494952331523
 30
0.0
 11
-1048.18636336261
 21
57.6494952331523
 31
0.0
  0
LINE
  5
   420
  8
0
  6
CONTINUOUS
 62
   132
 10
-1046.18636336261
 20
58.6494952331523
 30
0.0
 11
-1048.18636336261
 21
58.6494952331523
 31
0.0
  0
LINE
  5
   421
  8
0
  6
CONTINUOUS
 62
   132
 10
-1044.68636336261
 20
58.6494952331523
 30
0.0
 11
-1044.68636336261
 21
65.6953060298901
 31
0.0
  0
LINE
  5
   422
  8
0
  6
CONTINUOUS
 62
   132
 10
-1046.18636336261
 20
58.6494952331523
 30
0.0
 11
-1046.18636336261
 21
66.1037685005819
 31
0.0
  0
LINE
  5
   423
  8
0
  6
CONTINUOUS
 62
   132
 10
-1042.68636336261
 20
58.6494952331523
 30
0.0
 11
-1044.68636336261
 21
58.6494952331523
 31
0.0
  0
LINE
  5
   424
  8
0
  6
CONTINUOUS
 62
   132
 10
-1042.68636336261
 20
57.1494952331523
 30
0.0
 11
-1042.68636336261
 21
58.6494952331523
 31
0.0
  0
LINE
  5
   425
  8
0
  6
CONTINUOUS
 62
   132
 10
-1044.68636336261
 20
65.6953060298901
 30
0.0
 11
-1039.68636336261
 21
74.1953052526153
 31
0.0
  0
LINE
  5
   426
  8
0
  6
CONTINUOUS
 62
   132
 10
-1046.18636336261
 20
66.103768500582
 30
0.0
 11
-1041.18636336261
 21
74.6037677233072
 31
0.0
  0
LINE
  5
   427
  8
0
  6
CONTINUOUS
 62
   132
 10
-1039.68636336261
 20
74.1953052526158
 30
0.0
 11
-1039.8111715963
 21
92.9893566534187
 31
0.0
  0
LINE
  5
   428
  8
0
  6
CONTINUOUS
 62
   132
 10
-1041.18636336261
 20
74.6037677233062
 30
0.0
 11
-1041.06069288015
 21
93.3809976528344
 31
0.0
  0
LINE
  5
   429
  8
0
  6
CONTINUOUS
 62
     7
 10
-1064.04821470538
 20
92.1625343443261
 30
0.0
 11
-1070.85135796941
 21
94.2948628300649
 31
0.0
  0
LINE
  5
   42A
  8
0
  6
CONTINUOUS
 62
   132
 10
-1067.73846014192
 20
93.3191784363738
 30
0.0
 11
-1067.67815897315
 21
102.399535010176
 31
0.0
  0
LINE
  5
   42B
  8
0
  6
CONTINUOUS
 62
   132
 10
-1066.88225887373
 20
93.0508168448528
 30
0.0
 11
-1066.9448270974
 21
102.399535010176
 31
0.0
  0
LINE
  5
   42C
  8
0
  6
CONTINUOUS
 62
   132
 10
-1066.9448270974
 20
102.399535010176
 30
0.0
 11
-1067.67815897315
 21
102.399535010176
 31
0.0
  0
LINE
  5
   42D
  8
0
  6
CONTINUOUS
 62
     7
 10
-1037.17321470538
 20
92.1625343443261
 30
0.0
 11
-1043.97635796941
 21
94.2948628300649
 31
0.0
  0
LINE
  5
   42E
  8
0
  6
CONTINUOUS
 62
   132
 10
-1040.86346014192
 20
93.3191784363738
 30
0.0
 11
-1040.80315897315
 21
102.399535010176
 31
0.0
  0
LINE
  5
   42F
  8
0
  6
CONTINUOUS
 62
   132
 10
-1040.00725887373
 20
93.0508168448528
 30
0.0
 11
-1040.0698270974
 21
102.399535010176
 31
0.0
  0
LINE
  5
   430
  8
0
  6
CONTINUOUS
 62
   132
 10
-1040.0698270974
 20
102.399535010176
 30
0.0
 11
-1040.80315897315
 21
102.399535010176
 31
0.0
  0
INSERT
  5
   431
  8
0
  6
CONTINUOUS
 62
     7
  2
*UDIM148
 10
0.0
 20
0.0
 30
0.0
  0
INSERT
  5
   432
  8
0
  6
CONTINUOUS
 62
     7
  2
*UDIM149
 10
0.0
 20
0.0
 30
0.0
  0
INSERT
  5
   433
  8
0
  6
CONTINUOUS
 62
     7
  2
*UDIM150
 10
0.0
 20
0.0
 30
0.0
  0
LINE
  5
   434
  8
0
  6
CONTINUOUS
 62
     7
 10
-1087.15137502423
 20
55.8995094299316
 30
0.0
 11
-1088.31138659907
 21
55.8995094299316
 31
0.0
  0
LINE
  5
   435
  8
0
  6
CONTINUOUS
 62
     7
 10
-1021.37387084961
 20
43.8995170593262
 30
0.0
 11
-1021.37387084961
 21
54.4995094299316
 31
0.0
  0
LINE
  5
   436
  8
0
  6
CONTINUOUS
 62
     7
 10
-1113.24886322232
 20
43.8995170593262
 30
0.0
 11
-1113.24886322232
 21
54.4995094299316
 31
0.0
  0
ARC
  5
   437
  8
0
  6
CONTINUOUS
 62
     7
 10
-1111.49887652305
 20
55.3995008804348
 30
0.0
 40
0.499990919521533
 50
449.999429635018
 51
540.000998310938
  0
LINE
  5
   438
  8
0
  6
CONTINUOUS
 62
     7
 10
-1111.99886322021
 20
54.4995094299316
 30
0.0
 11
-1113.24886322232
 21
54.4995094299316
 31
0.0
  0
LINE
  5
   439
  8
0
  6
CONTINUOUS
 62
     7
 10
-1022.62386322021
 20
43.8995170593262
 30
0.0
 11
-1022.62386322021
 21
54.4995094299316
 31
0.0
  0
LINE
  5
   43A
  8
0
  6
CONTINUOUS
 62
     7
 10
-1021.37388659907
 20
-69.700464324969
 30
0.0
 11
-1021.37388659907
 21
-40.3504829704762
 31
0.0
  0
LINE
  5
   43B
  8
0
  6
CONTINUOUS
 62
     7
 10
-1113.24888659907
 20
-69.7004658746898
 30
0.0
 11
-1113.24888659907
 21
-40.3504829704761
 31
0.0
  0
LINE
  5
   43C
  8
0
  6
CONTINUOUS
 62
     7
 10
-1111.99888659907
 20
-69.7004658746898
 30
0.0
 11
-1113.24888659907
 21
-69.7004658746898
 31
0.0
  0
LINE
  5
   43D
  8
0
  6
CONTINUOUS
 62
     7
 10
-1111.99888659907
 20
-70.6004658508479
 30
0.0
 11
-1111.99888659907
 21
-69.7004658746898
 31
0.0
  0
LINE
  5
   43E
  8
0
  6
CONTINUOUS
 62
     7
 10
-1068.18638659907
 20
-71.1004658508478
 30
0.0
 11
-1088.31138659907
 21
-71.1004658508478
 31
0.0
  0
LINE
  5
   43F
  8
0
  6
CONTINUOUS
 62
     7
 10
-1046.31138659907
 20
-71.1004658508476
 30
0.0
 11
-1066.43638659907
 21
-71.1004658508476
 31
0.0
  0
LINE
  5
   440
  8
0
  6
CONTINUOUS
 62
     7
 10
-1023.12388659907
 20
-71.1004658508481
 30
0.0
 11
-1044.56138659907
 21
-71.1004658508481
 31
0.0
  0
LINE
  5
   441
  8
0
  6
CONTINUOUS
 62
     7
 10
-1022.62388659907
 20
-70.6004658508479
 30
0.0
 11
-1022.62388659907
 21
-69.7004658746898
 31
0.0
  0
LINE
  5
   442
  8
0
  6
CONTINUOUS
 62
     7
 10
-1021.37388659907
 20
-69.7004658746898
 30
0.0
 11
-1022.62388659907
 21
-69.7004658746898
 31
0.0
  0
LINE
  5
   443
  8
0
  6
CONTINUOUS
 62
     1
 10
-1111.99888659907
 20
-69.7004658746898
 30
0.0
 11
-1111.99888659907
 21
-59.10046549322
 31
0.0
  0
LINE
  5
   444
  8
0
  6
CONTINUOUS
 62
     1
 10
-1069.93638659907
 20
-59.1004658508479
 30
0.0
 11
-1086.56138659907
 21
-59.1004658508479
 31
0.0
  0
LINE
  5
   445
  8
0
  6
CONTINUOUS
 62
     1
 10
-1069.93638659907
 20
-61.1004658508479
 30
0.0
 11
-1069.93638659907
 21
-59.1004658508479
 31
0.0
  0
LINE
  5
   446
  8
0
  6
CONTINUOUS
 62
     1
 10
-1064.68638659907
 20
-61.1004658508479
 30
0.0
 11
-1064.68638659907
 21
-59.1004658508479
 31
0.0
  0
LINE
  5
   447
  8
0
  6
CONTINUOUS
 62
     1
 10
-1048.06138659907
 20
-59.1004658508479
 30
0.0
 11
-1064.68638659907
 21
-59.1004658508479
 31
0.0
  0
LINE
  5
   448
  8
0
  6
CONTINUOUS
 62
     1
 10
-1048.06138659907
 20
-61.1004658508479
 30
0.0
 11
-1048.06138659907
 21
-59.1004658508479
 31
0.0
  0
LINE
  5
   449
  8
0
  6
CONTINUOUS
 62
     1
 10
-1042.81138659907
 20
-61.1004658508479
 30
0.0
 11
-1042.81138659907
 21
-59.1004658508479
 31
0.0
  0
LINE
  5
   44A
  8
0
  6
CONTINUOUS
 62
     1
 10
-1022.62388659907
 20
-59.1004658508479
 30
0.0
 11
-1042.81138659907
 21
-59.1004658508479
 31
0.0
  0
LINE
  5
   44B
  8
0
  6
CONTINUOUS
 62
     1
 10
-1022.62388659907
 20
-69.7004658746898
 30
0.0
 11
-1022.62388659907
 21
-59.10046549322
 31
0.0
  0
LINE
  5
   44C
  8
0
  6
CONTINUOUS
 62
     1
 10
-1066.06138659907
 20
-64.3504658508479
 30
0.0
 11
-1066.06138659907
 21
-63.3616410064876
 31
0.0
  0
LINE
  5
   44D
  8
0
  6
CONTINUOUS
 62
     1
 10
-1068.56138659907
 20
-64.3504658508479
 30
0.0
 11
-1068.56138659907
 21
-63.3616410064876
 31
0.0
  0
LINE
  5
   44E
  8
0
  6
CONTINUOUS
 62
     1
 10
-1066.06138659907
 20
-64.3504658508479
 30
0.0
 11
-1068.56138659907
 21
-64.3504658508479
 31
0.0
  0
LINE
  5
   44F
  8
0
  6
CONTINUOUS
 62
     1
 10
-1046.68638659907
 20
-64.3504658508479
 30
0.0
 11
-1046.68638659907
 21
-63.3616410064876
 31
0.0
  0
LINE
  5
   450
  8
0
  6
CONTINUOUS
 62
     1
 10
-1044.18638659907
 20
-64.3504658508479
 30
0.0
 11
-1044.18638659907
 21
-63.3616410064876
 31
0.0
  0
LINE
  5
   451
  8
0
  6
CONTINUOUS
 62
     1
 10
-1044.18638659907
 20
-64.3504658508479
 30
0.0
 11
-1046.68638659907
 21
-64.3504658508479
 31
0.0
  0
LINE
  5
   452
  8
0
  6
CONTINUOUS
 62
     7
 10
-1044.18638659907
 20
-69.6004658508479
 30
0.0
 11
-1044.18638659907
 21
-67.8504658508479
 31
0.0
  0
LINE
  5
   453
  8
0
  6
CONTINUOUS
 62
     7
 10
-1046.68638659907
 20
-69.6004659700572
 30
0.0
 11
-1046.68638659907
 21
-67.8504658508479
 31
0.0
  0
LINE
  5
   454
  8
0
  6
CONTINUOUS
 62
     7
 10
-1044.56138659907
 20
-71.1004658508476
 30
0.0
 11
-1044.56138659907
 21
-69.6004658508476
 31
0.0
  0
LINE
  5
   455
  8
0
  6
CONTINUOUS
 62
     7
 10
-1044.18638659907
 20
-69.6004658508479
 30
0.0
 11
-1044.56138659907
 21
-69.6004658508479
 31
0.0
  0
LINE
  5
   456
  8
0
  6
CONTINUOUS
 62
     7
 10
-1046.31138659907
 20
-71.1004658508476
 30
0.0
 11
-1046.31138659907
 21
-69.6004658508476
 31
0.0
  0
LINE
  5
   457
  8
0
  6
CONTINUOUS
 62
     7
 10
-1046.31138659907
 20
-69.6004658508479
 30
0.0
 11
-1046.68638659907
 21
-69.6004658508479
 31
0.0
  0
LINE
  5
   458
  8
0
  6
CONTINUOUS
 62
     7
 10
-1066.06138659907
 20
-69.6004658508479
 30
0.0
 11
-1066.06138659907
 21
-67.8504658508479
 31
0.0
  0
LINE
  5
   459
  8
0
  6
CONTINUOUS
 62
     7
 10
-1068.56138659907
 20
-69.6004659700572
 30
0.0
 11
-1068.56138659907
 21
-67.8504658508479
 31
0.0
  0
LINE
  5
   45A
  8
0
  6
CONTINUOUS
 62
     7
 10
-1068.18638659907
 20
-71.1004658508476
 30
0.0
 11
-1068.18638659907
 21
-69.6004658508476
 31
0.0
  0
LINE
  5
   45B
  8
0
  6
CONTINUOUS
 62
     7
 10
-1068.18638659907
 20
-69.6004658508479
 30
0.0
 11
-1068.56138659907
 21
-69.6004658508479
 31
0.0
  0
LINE
  5
   45C
  8
0
  6
CONTINUOUS
 62
     7
 10
-1066.43638659907
 20
-71.1004658508476
 30
0.0
 11
-1066.43638659907
 21
-69.6004658508476
 31
0.0
  0
LINE
  5
   45D
  8
0
  6
CONTINUOUS
 62
     7
 10
-1066.06138659907
 20
-69.6004658508479
 30
0.0
 11
-1066.43638659907
 21
-69.6004658508479
 31
0.0
  0
CIRCLE
  5
   45E
  8
0
  6
CONTINUOUS
 62
     1
 10
-1034.49888548711
 20
-62.1004650295525
 30
0.0
 40
2.75000084159095
  0
CIRCLE
  5
   45F
  8
0
  6
CONTINUOUS
 62
     1
 10
-1045.43638610789
 20
-61.1004665537659
 30
0.0
 40
1.37500079763464
  0
ARC
  5
   460
  8
0
  6
CONTINUOUS
 62
     1
 10
-1045.43639052402
 20
-61.1004764482295
 30
0.0
 40
2.62501075357347
 50
121.002660601852
 51
418.997339294217
  0
CIRCLE
  5
   461
  8
0
  6
CONTINUOUS
 62
     1
 10
-1067.31138641448
 20
-61.1004651832621
 30
0.0
 40
1.37499960951013
  0
CIRCLE
  5
   462
  8
0
  6
CONTINUOUS
 62
     1
 10
-1056.37388679469
 20
-62.100465956177
 30
0.0
 40
2.74999984850238
  0
CIRCLE
  5
   463
  8
0
  6
CONTINUOUS
 62
     1
 10
-1034.49888687383
 20
-69.1004633728253
 30
0.0
 40
0.699998471827824
  0
CIRCLE
  5
   464
  8
0
  6
CONTINUOUS
 62
     1
 10
-1056.37388562961
 20
-69.1004644935568
 30
0.0
 40
0.700001020696338
  0
CIRCLE
  5
   465
  8
0
  6
CONTINUOUS
 62
     1
 10
-1078.24888698191
 20
-69.1004664476509
 30
0.0
 40
0.700000042083871
  0
CIRCLE
  5
   466
  8
0
  6
CONTINUOUS
 62
     1
 10
-1078.24888647953
 20
-62.1004659671053
 30
0.0
 40
2.75000015959725
  0
LINE
  5
   467
  8
0
  6
DASHDOT
 62
     7
 10
-1056.37388679469
 20
-72.9600029932813
 30
0.0
 11
-1056.37388679469
 21
-33.445021301809
 31
0.0
  0
LINE
  5
   468
  8
0
  6
DASHDOT
 62
     7
 10
-1052.12388694619
 20
-62.100465956177
 30
0.0
 11
-1060.6238866432
 21
-62.100465956177
 31
0.0
  0
ARC
  5
   469
  8
0
  6
CONTINUOUS
 62
     1
 10
-1067.31138920072
 20
-61.1004596510601
 30
0.0
 40
2.62499406553746
 50
121.002766250911
 51
418.997233645158
  0
ARC
  5
   46A
  8
0
  6
CONTINUOUS
 62
     7
 10
-1023.12388299857
 20
-70.6004704144713
 30
0.0
 40
0.499995200460646
 50
269.999729091746
 51
360.000478711826
  0
ARC
  5
   46B
  8
0
  6
CONTINUOUS
 62
     7
 10
-1111.4988867763
 20
-70.6004659141858
 30
0.0
 40
0.499999889965255
 50
179.99999084272
 51
269.999993044176
  0
LINE
  5
   46C
  8
0
  6
CONTINUOUS
 62
     1
 10
-1021.37388679469
 20
19.7745246887207
 30
0.0
 11
-1021.37388679469
 21
43.8995170593262
 31
0.0
  0
LINE
  5
   46D
  8
0
  6
CONTINUOUS
 62
     1
 10
-1113.24888679469
 20
-40.3504829704761
 30
0.0
 11
-1113.24888679469
 21
-32.7254905700683
 31
0.0
  0
LINE
  5
   46E
  8
0
  6
CONTINUOUS
 62
     1
 10
-1113.24888679469
 20
19.7745094299316
 30
0.0
 11
-1113.24888679469
 21
43.8995170593262
 31
0.0
  0
LINE
  5
   46F
  8
0
  6
CONTINUOUS
 62
     1
 10
-1021.87389442409
 20
-40.8504829406738
 30
0.0
 11
-1027.1238791653
 21
-40.8504829406738
 31
0.0
  0
LINE
  5
   470
  8
0
  6
CONTINUOUS
 62
     1
 10
-1113.24888679469
 20
-32.7254829406738
 30
0.0
 11
-1113.24888679469
 21
19.7745170593262
 31
0.0
  0
LINE
  5
   471
  8
0
  6
CONTINUOUS
 62
     1
 10
-1021.37388679469
 20
-40.3504829704762
 30
0.0
 11
-1021.37388679469
 21
19.7745170593262
 31
0.0
  0
LINE
  5
   472
  8
0
  6
DASHDOT
 62
     1
 10
-1056.37388679469
 20
-44.1790575047007
 30
0.0
 11
-1056.37388679469
 21
46.8309178462275
 31
0.0
  0
LINE
  5
   473
  8
0
  6
CONTINUOUS
 62
     1
 10
-1021.37388679469
 20
-40.3504829704762
 30
0.0
 11
-1027.1238791653
 21
-40.3504829704762
 31
0.0
  0
LINE
  5
   474
  8
0
  6
CONTINUOUS
 62
     1
 10
-1021.87389442409
 20
-40.850482940674
 30
0.0
 11
-1021.87389442409
 21
-40.3504829704763
 31
0.0
  0
LINE
  5
   475
  8
0
  6
CONTINUOUS
 62
     1
 10
-1022.49889442409
 20
-32.7254829406738
 30
0.0
 11
-1022.49889442409
 21
19.7745094299316
 31
0.0
  0
LINE
  5
   476
  8
0
  6
CONTINUOUS
 62
     1
 10
-1023.64888832057
 20
-32.7254905700684
 30
0.0
 11
-1023.64888832057
 21
19.7745094299316
 31
0.0
  0
LINE
  5
   477
  8
0
  6
CONTINUOUS
 62
     1
 10
-1025.44889137233
 20
-32.7254905700684
 30
0.0
 11
-1025.44889137233
 21
19.7745094299316
 31
0.0
  0
LINE
  5
   478
  8
0
  6
CONTINUOUS
 62
     1
 10
-1027.24889442409
 20
33.2745297741227
 30
0.0
 11
-1027.24889442409
 21
43.8995094299316
 31
0.0
  0
LINE
  5
   479
  8
0
  6
CONTINUOUS
 62
     1
 10
-1029.04888984645
 20
33.5245094299316
 30
0.0
 11
-1029.04888984645
 21
43.8995094299316
 31
0.0
  0
LINE
  5
   47A
  8
0
  6
CONTINUOUS
 62
     1
 10
-1022.49889442409
 20
19.7745094299316
 30
0.0
 11
-1022.49889442409
 21
43.8995094299316
 31
0.0
  0
LINE
  5
   47B
  8
0
  6
CONTINUOUS
 62
     1
 10
-1023.64888832057
 20
19.7745094299316
 30
0.0
 11
-1023.64888832057
 21
43.8995094299316
 31
0.0
  0
LINE
  5
   47C
  8
0
  6
CONTINUOUS
 62
     1
 10
-1025.44889137233
 20
19.7745094299316
 30
0.0
 11
-1025.44889137233
 21
43.8995094299316
 31
0.0
  0
LINE
  5
   47D
  8
0
  6
CONTINUOUS
 62
     1
 10
-1027.24889442409
 20
-58.8504658508477
 30
0.0
 11
-1027.24889442409
 21
-46.7255090069096
 31
0.0
  0
LINE
  5
   47E
  8
0
  6
CONTINUOUS
 62
     1
 10
-1029.04888984645
 20
-58.8504658508477
 30
0.0
 11
-1029.04888984645
 21
-46.9754886627197
 31
0.0
  0
LINE
  5
   47F
  8
0
  6
CONTINUOUS
 62
     1
 10
-1022.49889442409
 20
-58.8504658508477
 30
0.0
 11
-1022.49889442409
 21
-41.3504658508477
 31
0.0
  0
LINE
  5
   480
  8
0
  6
CONTINUOUS
 62
     1
 10
-1023.64888832057
 20
-58.8504658508477
 30
0.0
 11
-1023.64888832057
 21
-41.3504658508477
 31
0.0
  0
LINE
  5
   481
  8
0
  6
CONTINUOUS
 62
     1
 10
-1025.44889137233
 20
-58.8504658508477
 30
0.0
 11
-1025.44889137233
 21
-41.3504658508477
 31
0.0
  0
LINE
  5
   482
  8
0
  6
CONTINUOUS
 62
     1
 10
-1029.94889137233
 20
-58.8504658508477
 30
0.0
 11
-1029.94889137233
 21
-46.9754886627197
 31
0.0
  0
LINE
  5
   483
  8
0
  6
CONTINUOUS
 62
     1
 10
-1081.87388679469
 20
33.5245094299316
 30
0.0
 11
-1081.87388679469
 21
41.3995170593262
 31
0.0
  0
LINE
  5
   484
  8
0
  6
CONTINUOUS
 62
     1
 10
-1030.87388679469
 20
33.5245094299316
 30
0.0
 11
-1030.87388679469
 21
41.3995170593262
 31
0.0
  0
LINE
  5
   485
  8
0
  6
CONTINUOUS
 62
     1
 10
-1030.87388679469
 20
41.3995170593262
 30
0.0
 11
-1081.87388679469
 21
41.3995170593262
 31
0.0
  0
LINE
  5
   486
  8
0
  6
CONTINUOUS
 62
     3
 10
-1030.12388679469
 20
-32.4754905700684
 30
0.0
 11
-1030.12388679469
 21
-23.4754905700684
 31
0.0
  0
LINE
  5
   487
  8
0
  6
CONTINUOUS
 62
     3
 10
-1082.62388679469
 20
-32.4754905700684
 30
0.0
 11
-1082.62388679469
 21
-23.4754905700684
 31
0.0
  0
LINE
  5
   488
  8
0
  6
CONTINUOUS
 62
     3
 10
-1050.99888679469
 20
-21.6004905700684
 30
0.0
 11
-1050.99888679469
 21
-1.60049819946289
 31
0.0
  0
LINE
  5
   489
  8
0
  6
CONTINUOUS
 62
     3
 10
-1061.74888679469
 20
-21.6004905700684
 30
0.0
 11
-1061.74888679469
 21
-1.60049819946289
 31
0.0
  0
LINE
  5
   48A
  8
0
  6
CONTINUOUS
 62
     1
 10
-1030.12388679469
 20
13.7745018005371
 30
0.0
 11
-1082.62388679469
 21
13.7745018005371
 31
0.0
  0
LINE
  5
   48B
  8
0
  6
CONTINUOUS
 62
     3
 10
-1050.99888679469
 20
-1.73273086547852
 30
0.0
 11
-1061.74888679469
 21
-1.73273086547852
 31
0.0
  0
LINE
  5
   48C
  8
0
  6
CONTINUOUS
 62
     3
 10
-1050.99888679469
 20
-1.60049819946289
 30
0.0
 11
-1061.74888679469
 21
-1.60049819946289
 31
0.0
  0
LINE
  5
   48D
  8
0
  6
CONTINUOUS
 62
     3
 10
-1050.99888679469
 20
-21.6004905700684
 30
0.0
 11
-1061.74888679469
 21
-21.6004905700684
 31
0.0
  0
LINE
  5
   48E
  8
0
  6
CONTINUOUS
 62
     3
 10
-1050.99888679469
 20
-21.4682426452637
 30
0.0
 11
-1061.74888679469
 21
-21.4682426452637
 31
0.0
  0
LINE
  5
   48F
  8
0
  6
DASHDOT
 62
     3
 10
-1056.37388679469
 20
-34.3521238803532
 30
0.0
 11
-1056.37388679469
 21
8.87571920317114
 31
0.0
  0
LINE
  5
   490
  8
0
  6
DASHDOT
 62
     3
 10
-1056.37388679469
 20
8.48935284691156
 30
0.0
 11
-1056.37388679469
 21
25.2424290512882
 31
0.0
  0
LINE
  5
   491
  8
0
  6
CONTINUOUS
 62
     3
 10
-1030.12389442409
 20
-22.9754905700684
 30
0.0
 11
-1030.12389442409
 21
-16.9754945466876
 31
0.0
  0
LINE
  5
   492
  8
0
  6
CONTINUOUS
 62
     3
 10
-1030.12389442409
 20
0.274509429931641
 30
0.0
 11
-1030.12389442409
 21
19.0245094299316
 31
0.0
  0
LINE
  5
   493
  8
0
  6
CONTINUOUS
 62
     3
 10
-1030.12389442409
 20
-16.4754945466876
 30
0.0
 11
-1030.12389442409
 21
-6.72549057006836
 31
0.0
  0
LINE
  5
   494
  8
0
  6
CONTINUOUS
 62
     3
 10
-1030.12389442409
 20
-6.22549057006836
 30
0.0
 11
-1030.12389442409
 21
-0.225490570068359
 31
0.0
  0
LINE
  5
   495
  8
0
  6
CONTINUOUS
 62
     3
 10
-1082.6238867947
 20
-22.9754905700684
 30
0.0
 11
-1082.6238867947
 21
-16.9754905700673
 31
0.0
  0
LINE
  5
   496
  8
0
  6
CONTINUOUS
 62
     3
 10
-1082.62388679471
 20
-16.4754905700672
 30
0.0
 11
-1082.62388679471
 21
-6.72549057006835
 31
0.0
  0
LINE
  5
   497
  8
0
  6
CONTINUOUS
 62
     3
 10
-1082.62388679469
 20
-6.22549057006835
 30
0.0
 11
-1082.62388679469
 21
-0.225490570068352
 31
0.0
  0
LINE
  5
   498
  8
0
  6
CONTINUOUS
 62
     3
 10
-1082.62388679468
 20
0.274509429931648
 30
0.0
 11
-1082.62388679468
 21
19.0245094299316
 31
0.0
  0
LINE
  5
   499
  8
0
  6
CONTINUOUS
 62
     1
 10
-1061.74889078156
 20
-16.9754809523562
 30
0.0
 11
-1082.1238868245
 21
-16.9754809523562
 31
0.0
  0
LINE
  5
   49A
  8
0
  6
CONTINUOUS
 62
     3
 10
-1030.12389442409
 20
-16.9754849289794
 30
0.0
 11
-1030.62389442409
 21
-16.9754849289794
 31
0.0
  0
LINE
  5
   49B
  8
0
  6
CONTINUOUS
 62
     1
 10
-1061.7489005611
 20
-16.4754809523533
 30
0.0
 11
-1082.1238868245
 21
-16.4754809523533
 31
0.0
  0
LINE
  5
   49C
  8
0
  6
CONTINUOUS
 62
     3
 10
-1030.12389442409
 20
-16.4754849289794
 30
0.0
 11
-1030.62389442409
 21
-16.4754849289794
 31
0.0
  0
LINE
  5
   49D
  8
0
  6
CONTINUOUS
 62
     3
 10
-1082.1238868245
 20
-16.9754905700684
 30
0.0
 11
-1082.1238868245
 21
-16.4754905700684
 31
0.0
  0
LINE
  5
   49E
  8
0
  6
CONTINUOUS
 62
     3
 10
-1030.62389442409
 20
-16.9754905700684
 30
0.0
 11
-1030.62389442409
 21
-16.4754905700684
 31
0.0
  0
LINE
  5
   49F
  8
0
  6
CONTINUOUS
 62
     3
 10
-1030.12388679469
 20
-23.4754905700684
 30
0.0
 11
-1030.62389442409
 21
-23.4754905700684
 31
0.0
  0
LINE
  5
   4A0
  8
0
  6
CONTINUOUS
 62
     3
 10
-1030.12389442409
 20
-22.9754905700684
 30
0.0
 11
-1030.62389442409
 21
-22.9754905700684
 31
0.0
  0
LINE
  5
   4A1
  8
0
  6
CONTINUOUS
 62
     3
 10
-1082.1238868245
 20
-23.4754905700684
 30
0.0
 11
-1082.1238868245
 21
-22.9754905700684
 31
0.0
  0
LINE
  5
   4A2
  8
0
  6
CONTINUOUS
 62
     3
 10
-1030.62389442409
 20
-23.4754905700684
 30
0.0
 11
-1030.62389442409
 21
-22.9754905700684
 31
0.0
  0
LINE
  5
   4A3
  8
0
  6
CONTINUOUS
 62
     3
 10
-1030.12389442409
 20
-0.225490570068359
 30
0.0
 11
-1030.62389442409
 21
-0.225490570068359
 31
0.0
  0
LINE
  5
   4A4
  8
0
  6
CONTINUOUS
 62
     3
 10
-1030.12389442409
 20
0.274509429931641
 30
0.0
 11
-1030.62389442409
 21
0.274509429931641
 31
0.0
  0
LINE
  5
   4A5
  8
0
  6
CONTINUOUS
 62
     3
 10
-1082.1238868245
 20
-0.225490570068352
 30
0.0
 11
-1082.1238868245
 21
0.274509429931648
 31
0.0
  0
LINE
  5
   4A6
  8
0
  6
CONTINUOUS
 62
     3
 10
-1030.62389442409
 20
-0.225490570068359
 30
0.0
 11
-1030.62389442409
 21
0.274509429931641
 31
0.0
  0
LINE
  5
   4A7
  8
0
  6
CONTINUOUS
 62
     1
 10
-1061.7488907584
 20
-6.72549057006836
 30
0.0
 11
-1082.1238868245
 21
-6.72549057006836
 31
0.0
  0
LINE
  5
   4A8
  8
0
  6
CONTINUOUS
 62
     3
 10
-1030.12389442409
 20
-6.72549057006836
 30
0.0
 11
-1030.62389442409
 21
-6.72549057006836
 31
0.0
  0
LINE
  5
   4A9
  8
0
  6
CONTINUOUS
 62
     1
 10
-1061.74888679469
 20
-6.22549057006836
 30
0.0
 11
-1082.1238868245
 21
-6.22549057006836
 31
0.0
  0
LINE
  5
   4AA
  8
0
  6
CONTINUOUS
 62
     3
 10
-1030.12389442409
 20
-6.22549057006836
 30
0.0
 11
-1030.62389442409
 21
-6.22549057006836
 31
0.0
  0
LINE
  5
   4AB
  8
0
  6
CONTINUOUS
 62
     3
 10
-1082.1238868245
 20
-6.72549057006835
 30
0.0
 11
-1082.1238868245
 21
-6.22549057006835
 31
0.0
  0
LINE
  5
   4AC
  8
0
  6
CONTINUOUS
 62
     3
 10
-1030.62389442409
 20
-6.72549057006836
 30
0.0
 11
-1030.62389442409
 21
-6.22549057006836
 31
0.0
  0
INSERT
  5
   4AD
  8
255
  6
CONTINUOUS
 62
     3
  2
$1ON-OFF
 10
-1046.37389167751
 20
-3.22549057006835
 30
0.0
 41
0.5
 42
0.5
 50
359.999999792137
 43
0.5
  0
LINE
  5
   4AE
  8
0
  6
CONTINUOUS
 62
     1
 10
-1067.62388679469
 20
-0.975490570068359
 30
0.0
 11
-1068.37388679469
 21
-0.975490570068359
 31
0.0
  0
LINE
  5
   4AF
  8
0
  6
CONTINUOUS
 62
     1
 10
-1067.62388679469
 20
-5.47549057006836
 30
0.0
 11
-1068.37388679469
 21
-5.47549057006836
 31
0.0
  0
CIRCLE
  5
   4B0
  8
0
  6
CONTINUOUS
 62
     1
 10
-1067.99888679469
 20
-19.9754905700683
 30
0.0
 40
2.25
  0
CIRCLE
  5
   4B1
  8
0
  6
CONTINUOUS
 62
     1
 10
-1067.99888679469
 20
-19.9754905700683
 30
0.0
 40
1.5
  0
LINE
  5
   4B2
  8
0
  6
CONTINUOUS
 62
     1
 10
-1068.37388679469
 20
-5.47549057006835
 30
0.0
 11
-1068.37388679469
 21
-0.975490570068352
 31
0.0
  0
LINE
  5
   4B3
  8
0
  6
CONTINUOUS
 62
     1
 10
-1067.62388679469
 20
-5.47549057006835
 30
0.0
 11
-1067.62388679469
 21
-0.975490570068352
 31
0.0
  0
LINE
  5
   4B4
  8
0
  6
CONTINUOUS
 62
     1
 10
-1063.12388679469
 20
-22.9754905700684
 30
0.0
 11
-1063.12388679469
 21
-16.9754834254856
 31
0.0
  0
LINE
  5
   4B5
  8
0
  6
CONTINUOUS
 62
     1
 10
-1049.62388679469
 20
-22.9754905700684
 30
0.0
 11
-1049.62388679469
 21
-16.9754874021087
 31
0.0
  0
LINE
  5
   4B6
  8
0
  6
CONTINUOUS
 62
     1
 10
-1049.62388679469
 20
-6.22549057006836
 30
0.0
 11
-1049.62388679469
 21
-0.225490570068359
 31
0.0
  0
LINE
  5
   4B7
  8
0
  6
CONTINUOUS
 62
     1
 10
-1063.12388679469
 20
-6.22549057006836
 30
0.0
 11
-1063.12388679469
 21
-0.225490570068359
 31
0.0
  0
LINE
  5
   4B8
  8
0
  6
CONTINUOUS
 62
     7
 10
-1021.37388659907
 20
-41.3504658508477
 30
0.0
 11
-1027.1238791653
 21
-41.3504658508477
 31
0.0
  0
LINE
  5
   4B9
  8
0
  6
CONTINUOUS
 62
     1
 10
-1021.37388659907
 20
-58.8504658508477
 30
0.0
 11
-1113.24888659907
 21
-58.8504658508477
 31
0.0
  0
LINE
  5
   4BA
  8
0
  6
DASHDOT
 62
     7
 10
-1056.37388808802
 20
48.1995125497444
 30
0.0
 11
-1056.37388808802
 21
67.4583207570906
 31
0.0
  0
LINE
  5
   4BB
  8
0
  6
DASHDOT
 62
     7
 10
-1056.37385957967
 20
39.1496098888682
 30
0.0
 11
-1056.37385957967
 21
54.6495342866665
 31
0.0
  0
LINE
  5
   4BC
  8
0
  6
DASHDOT
 62
     7
 10
-1078.24888647953
 20
-69.8504661267026
 30
0.0
 11
-1078.24888647953
 21
-54.3504658075081
 31
0.0
  0
LINE
  5
   4BD
  8
0
  6
DASHDOT
 62
     7
 10
-1070.49888631993
 20
-62.1004659671053
 30
0.0
 11
-1085.99888663912
 21
-62.1004659671053
 31
0.0
  0
LINE
  5
   4BE
  8
0
  6
DASHDOT
 62
     7
 10
-1078.24888698191
 20
-74.8004664897347
 30
0.0
 11
-1078.24888698191
 21
-63.400466405567
 31
0.0
  0
LINE
  5
   4BF
  8
0
  6
DASHDOT
 62
     7
 10
-1072.54888693983
 20
-69.1004664476509
 30
0.0
 11
-1083.948887024
 21
-69.1004664476509
 31
0.0
  0
LINE
  5
   4C0
  8
0
  6
DASHDOT
 62
     7
 10
-1056.37388562961
 20
-74.8004655142532
 30
0.0
 11
-1056.37388562961
 21
-63.4004634728605
 31
0.0
  0
LINE
  5
   4C1
  8
0
  6
DASHDOT
 62
     7
 10
-1050.67388460892
 20
-69.1004644935568
 30
0.0
 11
-1062.07388665031
 21
-69.1004644935568
 31
0.0
  0
LINE
  5
   4C2
  8
0
  6
DASHDOT
 62
     7
 10
-1067.31138920072
 20
-68.7254537165975
 30
0.0
 11
-1067.31138920072
 21
-53.4754655855226
 31
0.0
  0
LINE
  5
   4C3
  8
0
  6
DASHDOT
 62
     7
 10
-1059.68639513518
 20
-61.1004596510601
 30
0.0
 11
-1074.93638326626
 21
-61.1004596510601
 31
0.0
  0
LINE
  5
   4C4
  8
0
  6
DASHDOT
 62
     7
 10
-1045.43639052402
 20
-68.725487201803
 30
0.0
 11
-1045.43639052402
 21
-53.475465694656
 31
0.0
  0
LINE
  5
   4C5
  8
0
  6
DASHDOT
 62
     7
 10
-1037.81137977045
 20
-61.1004764482295
 30
0.0
 11
-1053.0614012776
 21
-61.1004764482295
 31
0.0
  0
LINE
  5
   4C6
  8
0
  6
DASHDOT
 62
     7
 10
-1034.49888548711
 20
-69.8504658711435
 30
0.0
 11
-1034.49888548711
 21
-54.3504641879616
 31
0.0
  0
LINE
  5
   4C7
  8
0
  6
DASHDOT
 62
     7
 10
-1026.74888464552
 20
-62.1004650295525
 30
0.0
 11
-1042.24888632871
 21
-62.1004650295525
 31
0.0
  0
LINE
  5
   4C8
  8
0
  6
DASHDOT
 62
     7
 10
-1034.49888687383
 20
-74.8004618446531
 30
0.0
 11
-1034.49888687383
 21
-63.4004649009974
 31
0.0
  0
LINE
  5
   4C9
  8
0
  6
DASHDOT
 62
     7
 10
-1028.798888402
 20
-69.1004633728253
 30
0.0
 11
-1040.19888534565
 21
-69.1004633728253
 31
0.0
  0
LINE
  5
   4CA
  8
0
  6
CONTINUOUS
 62
     7
 10
-1050.99888679469
 20
-17.2608401136805
 30
0.0
 11
-1061.74888679469
 21
-17.2608401136805
 31
0.0
  0
LINE
  5
   4CB
  8
0
  6
CONTINUOUS
 62
     7
 10
-1050.99888679469
 20
-14.7877795257087
 30
0.0
 11
-1061.74888679469
 21
-14.7877795257087
 31
0.0
  0
LINE
  5
   4CC
  8
0
  6
CONTINUOUS
 62
     7
 10
-1050.99888679469
 20
-21.2213159400014
 30
0.0
 11
-1061.74888679469
 21
-21.2213159400014
 31
0.0
  0
LINE
  5
   4CD
  8
0
  6
CONTINUOUS
 62
     7
 10
-1111.99886322021
 20
54.4995094299316
 30
0.0
 11
-1111.99886322021
 21
55.3995170593262
 31
0.0
  0
LINE
  5
   4CE
  8
0
  6
CONTINUOUS
 62
     7
 10
-1044.18638659907
 20
-67.8504658508479
 30
0.0
 11
-1046.68638659907
 21
-67.8504658508479
 31
0.0
  0
LINE
  5
   4CF
  8
0
  6
CONTINUOUS
 62
     7
 10
-1066.06138659907
 20
-67.8504658508479
 30
0.0
 11
-1068.56138659907
 21
-67.8504658508479
 31
0.0
  0
LINE
  5
   4D0
  8
0
  6
CONTINUOUS
 62
     3
 10
-1082.1238868245
 20
0.274509429931641
 30
0.0
 11
-1082.62388679468
 21
0.274509429931641
 31
0.0
  0
LINE
  5
   4D1
  8
0
  6
CONTINUOUS
 62
     3
 10
-1082.1238868245
 20
-0.225490570068359
 30
0.0
 11
-1082.62388679469
 21
-0.225490570068359
 31
0.0
  0
LINE
  5
   4D2
  8
0
  6
CONTINUOUS
 62
     3
 10
-1082.1238868245
 20
-6.22549057006836
 30
0.0
 11
-1082.62388679469
 21
-6.22549057006836
 31
0.0
  0
LINE
  5
   4D3
  8
0
  6
CONTINUOUS
 62
     3
 10
-1082.1238868245
 20
-6.72549057006836
 30
0.0
 11
-1082.62388679471
 21
-6.72549057006836
 31
0.0
  0
LINE
  5
   4D4
  8
0
  6
CONTINUOUS
 62
     3
 10
-1082.1238868245
 20
-16.4754809523533
 30
0.0
 11
-1082.62388679471
 21
-16.4754809523533
 31
0.0
  0
LINE
  5
   4D5
  8
0
  6
CONTINUOUS
 62
     3
 10
-1082.1238868245
 20
-16.9754809523562
 30
0.0
 11
-1082.6238867947
 21
-16.9754809523562
 31
0.0
  0
LINE
  5
   4D6
  8
0
  6
CONTINUOUS
 62
     3
 10
-1082.1238868245
 20
-22.9754905700684
 30
0.0
 11
-1082.6238867947
 21
-22.9754905700684
 31
0.0
  0
LINE
  5
   4D7
  8
0
  6
CONTINUOUS
 62
     3
 10
-1082.1238868245
 20
-23.4754905700684
 30
0.0
 11
-1082.62388679469
 21
-23.4754905700684
 31
0.0
  0
LINE
  5
   4D8
  8
0
  6
CONTINUOUS
 62
     1
 10
-1030.62389442409
 20
-23.4754905700684
 30
0.0
 11
-1082.1238868245
 21
-23.4754905700684
 31
0.0
  0
LINE
  5
   4D9
  8
0
  6
CONTINUOUS
 62
     1
 10
-1030.62389442409
 20
-22.9754905700684
 30
0.0
 11
-1082.1238868245
 21
-22.9754905700684
 31
0.0
  0
LINE
  5
   4DA
  8
0
  6
CONTINUOUS
 62
     1
 10
-1030.62389442409
 20
-16.9754849289794
 30
0.0
 11
-1050.99888847027
 21
-16.9754849289794
 31
0.0
  0
LINE
  5
   4DB
  8
0
  6
CONTINUOUS
 62
     1
 10
-1030.62389442409
 20
-16.4754849289794
 30
0.0
 11
-1050.99888828707
 21
-16.4754849289794
 31
0.0
  0
LINE
  5
   4DC
  8
0
  6
CONTINUOUS
 62
     1
 10
-1030.62389442409
 20
-6.72549057006836
 30
0.0
 11
-1050.99888679469
 21
-6.72549057006836
 31
0.0
  0
LINE
  5
   4DD
  8
0
  6
CONTINUOUS
 62
     1
 10
-1030.62389442409
 20
-6.22549057006836
 30
0.0
 11
-1050.99888679469
 21
-6.22549057006836
 31
0.0
  0
LINE
  5
   4DE
  8
0
  6
CONTINUOUS
 62
     1
 10
-1030.62389442409
 20
-0.225490570068359
 30
0.0
 11
-1082.1238868245
 21
-0.225490570068359
 31
0.0
  0
LINE
  5
   4DF
  8
0
  6
CONTINUOUS
 62
     1
 10
-1030.62389442409
 20
0.274509429931641
 30
0.0
 11
-1082.1238868245
 21
0.274509429931641
 31
0.0
  0
LINE
  5
   4E0
  8
0
  6
CONTINUOUS
 62
     7
 10
-1087.93638659907
 20
-67.8504658508479
 30
0.0
 11
-1090.43638659907
 21
-67.8504658508479
 31
0.0
  0
LINE
  5
   4E1
  8
0
  6
CONTINUOUS
 62
     7
 10
-1090.43638659907
 20
-69.6004659700572
 30
0.0
 11
-1090.43638659907
 21
-67.8504658508479
 31
0.0
  0
LINE
  5
   4E2
  8
0
  6
CONTINUOUS
 62
     7
 10
-1090.06138659907
 20
-69.6004658508479
 30
0.0
 11
-1090.43638659907
 21
-69.6004658508479
 31
0.0
  0
LINE
  5
   4E3
  8
0
  6
CONTINUOUS
 62
     7
 10
-1090.06138659907
 20
-71.1004658508476
 30
0.0
 11
-1090.06138659907
 21
-69.6004658508476
 31
0.0
  0
LINE
  5
   4E4
  8
0
  6
CONTINUOUS
 62
     7
 10
-1088.31138659907
 20
-71.1004658508476
 30
0.0
 11
-1088.31138659907
 21
-69.6004658508476
 31
0.0
  0
LINE
  5
   4E5
  8
0
  6
CONTINUOUS
 62
     7
 10
-1087.93638659907
 20
-69.6004658508479
 30
0.0
 11
-1088.31138659907
 21
-69.6004658508479
 31
0.0
  0
LINE
  5
   4E6
  8
0
  6
CONTINUOUS
 62
     7
 10
-1087.93638659907
 20
-69.6004658508479
 30
0.0
 11
-1087.93638659907
 21
-67.8504658508479
 31
0.0
  0
LINE
  5
   4E7
  8
0
  6
CONTINUOUS
 62
     7
 10
-1090.06138659907
 20
54.3994847107109
 30
0.0
 11
-1090.06138659907
 21
55.8994847107109
 31
0.0
  0
LINE
  5
   4E8
  8
0
  6
CONTINUOUS
 62
     7
 10
-1088.31138659907
 20
54.3994847107109
 30
0.0
 11
-1088.31138659907
 21
55.8994847107109
 31
0.0
  0
LINE
  5
   4E9
  8
0
  6
CONTINUOUS
 62
     7
 10
-1087.93638659907
 20
54.3994847107112
 30
0.0
 11
-1088.31138659907
 21
54.3994847107112
 31
0.0
  0
LINE
  5
   4EA
  8
0
  6
CONTINUOUS
 62
     7
 10
-1087.93638659907
 20
52.6494847107112
 30
0.0
 11
-1087.93638659907
 21
54.3994847107112
 31
0.0
  0
LINE
  5
   4EB
  8
0
  6
CONTINUOUS
 62
     7
 10
-1087.93638659907
 20
52.6494847107112
 30
0.0
 11
-1090.43638659907
 21
52.6494847107112
 31
0.0
  0
LINE
  5
   4EC
  8
0
  6
CONTINUOUS
 62
     7
 10
-1090.43638659907
 20
52.6494847107112
 30
0.0
 11
-1090.43638659907
 21
54.3994848299205
 31
0.0
  0
LINE
  5
   4ED
  8
0
  6
CONTINUOUS
 62
     7
 10
-1090.06138659907
 20
54.3994847107112
 30
0.0
 11
-1090.43638659907
 21
54.3994847107112
 31
0.0
  0
CIRCLE
  5
   4EE
  8
0
  6
CONTINUOUS
 62
     1
 10
-1100.12386336261
 20
53.899514591987
 30
0.0
 40
0.699999510271856
  0
CIRCLE
  5
   4EF
  8
0
  6
CONTINUOUS
 62
     1
 10
-1100.12385868361
 20
46.8995364879613
 30
0.0
 40
2.75000604975671
  0
CIRCLE
  5
   4F0
  8
0
  6
CONTINUOUS
 62
     1
 10
-1100.12388698191
 20
-69.1004664476509
 30
0.0
 40
0.700000042083871
  0
CIRCLE
  5
   4F1
  8
0
  6
CONTINUOUS
 62
     1
 10
-1100.12388647953
 20
-62.1004659671053
 30
0.0
 40
2.75000015959725
  0
LINE
  5
   4F2
  8
0
  6
CONTINUOUS
 62
     1
 10
-1090.43638659907
 20
-64.3504658508479
 30
0.0
 11
-1090.43638659907
 21
-63.3616410064876
 31
0.0
  0
LINE
  5
   4F3
  8
0
  6
CONTINUOUS
 62
     1
 10
-1087.93638659907
 20
-64.3504658508479
 30
0.0
 11
-1090.43638659907
 21
-64.3504658508479
 31
0.0
  0
LINE
  5
   4F4
  8
0
  6
CONTINUOUS
 62
     1
 10
-1087.93638659907
 20
-64.3504658508479
 30
0.0
 11
-1087.93638659907
 21
-63.3616410064876
 31
0.0
  0
ARC
  5
   4F5
  8
0
  6
CONTINUOUS
 62
     1
 10
-1089.18638920072
 20
-61.1004596510601
 30
0.0
 40
2.62499406553746
 50
121.002766250911
 51
418.997233645158
  0
LINE
  5
   4F6
  8
0
  6
CONTINUOUS
 62
     1
 10
-1086.56138659907
 20
-61.1004658508479
 30
0.0
 11
-1086.56138659907
 21
-59.1004658508479
 31
0.0
  0
LINE
  5
   4F7
  8
0
  6
CONTINUOUS
 62
     1
 10
-1091.81138659907
 20
-61.1004658508479
 30
0.0
 11
-1091.81138659907
 21
-59.1004658508479
 31
0.0
  0
CIRCLE
  5
   4F8
  8
0
  6
CONTINUOUS
 62
     1
 10
-1089.18638641448
 20
-61.1004651832621
 30
0.0
 40
1.37499960951013
  0
LINE
  5
   4F9
  8
0
  6
CONTINUOUS
 62
     1
 10
-1091.81138659907
 20
-59.1004658508479
 30
0.0
 11
-1111.99888659907
 21
-59.1004658508479
 31
0.0
  0
LINE
  5
   4FA
  8
0
  6
CONTINUOUS
 62
     1
 10
-1111.99886322021
 20
43.8995170593262
 30
0.0
 11
-1111.99886322021
 21
54.4995094299316
 31
0.0
  0
LINE
  5
   4FB
  8
0
  6
CONTINUOUS
 62
     7
 10
-1090.06138659907
 20
55.8994917999563
 30
0.0
 11
-1111.49887652305
 21
55.8994917999563
 31
0.0
  0
LINE
  5
   4FC
  8
0
  6
CONTINUOUS
 62
     7
 10
-1090.06138659907
 20
-71.1004658041511
 30
0.0
 11
-1111.4988867763
 21
-71.1004658041511
 31
0.0
  0
LINE
  5
   4FD
  8
0
  6
DASHDOT
 62
     7
 10
-1100.12385868361
 20
39.1495304382046
 30
0.0
 11
-1100.12385868361
 21
54.649542537718
 31
0.0
  0
LINE
  5
   4FE
  8
0
  6
DASHDOT
 62
     7
 10
-1092.37385263385
 20
46.8995364879613
 30
0.0
 11
-1107.87386473336
 21
46.8995364879613
 31
0.0
  0
LINE
  5
   4FF
  8
0
  6
DASHDOT
 62
     7
 10
-1089.18631578861
 20
38.2745146398776
 30
0.0
 11
-1089.18631578861
 21
53.5245880125378
 31
0.0
  0
LINE
  5
   500
  8
0
  6
DASHDOT
 62
     7
 10
-1100.12386336261
 20
48.1995150817151
 30
0.0
 11
-1100.12386336261
 21
59.5995141022589
 31
0.0
  0
LINE
  5
   501
  8
0
  6
DASHDOT
 62
     7
 10
-1094.42386385234
 20
53.899514591987
 30
0.0
 11
-1105.82386287288
 21
53.899514591987
 31
0.0
  0
LINE
  5
   502
  8
0
  6
DASHDOT
 62
     7
 10
-1100.12388698191
 20
-74.8004664897347
 30
0.0
 11
-1100.12388698191
 21
-63.400466405567
 31
0.0
  0
LINE
  5
   503
  8
0
  6
DASHDOT
 62
     7
 10
-1094.42388693983
 20
-69.1004664476509
 30
0.0
 11
-1105.823887024
 21
-69.1004664476509
 31
0.0
  0
LINE
  5
   504
  8
0
  6
DASHDOT
 62
     7
 10
-1100.12388647953
 20
-69.8504661267026
 30
0.0
 11
-1100.12388647953
 21
-52.9097012096875
 31
0.0
  0
LINE
  5
   505
  8
0
  6
DASHDOT
 62
     7
 10
-1092.37388631993
 20
-62.1004659671053
 30
0.0
 11
-1107.87388663912
 21
-62.1004659671053
 31
0.0
  0
LINE
  5
   506
  8
0
  6
DASHDOT
 62
     7
 10
-1089.18638641448
 20
-67.4754647927722
 30
0.0
 11
-1089.18638641448
 21
-53.371820491027
 31
0.0
  0
LINE
  5
   507
  8
0
  6
DASHDOT
 62
     7
 10
-1082.81138680497
 20
-61.1004651832621
 30
0.0
 11
-1095.56138602399
 21
-61.1004651832621
 31
0.0
  0
LINE
  5
   508
  8
0
  6
CONTINUOUS
 62
     1
 10
-1085.6238791653
 20
-32.4754905700683
 30
0.0
 11
-1102.62388679469
 21
-32.4754905700683
 31
0.0
  0
LINE
  5
   509
  8
0
  6
CONTINUOUS
 62
     1
 10
-1103.87388679469
 20
-32.4754905700683
 30
0.0
 11
-1113.24888679469
 21
-32.4754905700683
 31
0.0
  0
LINE
  5
   50A
  8
0
  6
CONTINUOUS
 62
     1
 10
-1103.87388679469
 20
13.0245094299317
 30
0.0
 11
-1103.87388679469
 21
15.5245094299317
 31
0.0
  0
LINE
  5
   50B
  8
0
  6
CONTINUOUS
 62
     1
 10
-1102.62388679469
 20
13.0245094299317
 30
0.0
 11
-1103.87388679469
 21
13.0245094299317
 31
0.0
  0
LINE
  5
   50C
  8
0
  6
CONTINUOUS
 62
     1
 10
-1102.62388679469
 20
13.0245094299317
 30
0.0
 11
-1102.62388679469
 21
15.5245094299317
 31
0.0
  0
LINE
  5
   50D
  8
0
  6
CONTINUOUS
 62
     1
 10
-1102.62388679469
 20
15.5245094299317
 30
0.0
 11
-1103.87388679469
 21
15.5245094299317
 31
0.0
  0
LINE
  5
   50E
  8
0
  6
CONTINUOUS
 62
     1
 10
-1103.87388679469
 20
-33.725483417511
 30
0.0
 11
-1103.87388679469
 21
-29.2254905700683
 31
0.0
  0
LINE
  5
   50F
  8
0
  6
CONTINUOUS
 62
     1
 10
-1102.62388679469
 20
-33.725483417511
 30
0.0
 11
-1103.87388679469
 21
-33.725483417511
 31
0.0
  0
LINE
  5
   510
  8
0
  6
CONTINUOUS
 62
     1
 10
-1102.62388679469
 20
-33.725483417511
 30
0.0
 11
-1102.62388679469
 21
-29.2254905700683
 31
0.0
  0
LINE
  5
   511
  8
0
  6
CONTINUOUS
 62
     1
 10
-1102.62388679469
 20
-29.2254905700683
 30
0.0
 11
-1103.87388679469
 21
-29.2254905700683
 31
0.0
  0
LINE
  5
   512
  8
0
  6
CONTINUOUS
 62
     1
 10
-1021.37388679469
 20
43.8995094299317
 30
0.0
 11
-1113.1238791653
 21
43.8995094299317
 31
0.0
  0
LINE
  5
   513
  8
0
  6
CONTINUOUS
 62
     1
 10
-1103.12388679469
 20
13.0245094299317
 30
0.0
 11
-1103.12388679469
 21
15.5245094299317
 31
0.0
  0
LINE
  5
   514
  8
0
  6
CONTINUOUS
 62
     1
 10
-1103.1238791653
 20
-33.725483417511
 30
0.0
 11
-1103.1238791653
 21
-29.2254905700683
 31
0.0
  0
LINE
  5
   515
  8
0
  6
CONTINUOUS
 62
     1
 10
-1094.82388374294
 20
-32.7254905700683
 30
0.0
 11
-1094.82388374294
 21
19.7745094299317
 31
0.0
  0
LINE
  5
   516
  8
0
  6
CONTINUOUS
 62
     1
 10
-1096.6238791653
 20
-32.7254905700683
 30
0.0
 11
-1096.6238791653
 21
19.7745094299317
 31
0.0
  0
LINE
  5
   517
  8
0
  6
CONTINUOUS
 62
     1
 10
-1091.22388526881
 20
-32.7254905700683
 30
0.0
 11
-1091.22388526881
 21
19.7745094299317
 31
0.0
  0
LINE
  5
   518
  8
0
  6
CONTINUOUS
 62
     1
 10
-1093.02388069118
 20
-32.7254905700683
 30
0.0
 11
-1093.02388069118
 21
19.7745094299317
 31
0.0
  0
LINE
  5
   519
  8
0
  6
CONTINUOUS
 62
     1
 10
-1087.6238791653
 20
-32.7254905700683
 30
0.0
 11
-1087.6238791653
 21
19.7745094299317
 31
0.0
  0
LINE
  5
   51A
  8
0
  6
CONTINUOUS
 62
     1
 10
-1089.42388221706
 20
-32.7254905700683
 30
0.0
 11
-1089.42388221706
 21
19.7745094299317
 31
0.0
  0
LINE
  5
   51B
  8
0
  6
CONTINUOUS
 62
     1
 10
-1085.82388374294
 20
-32.7254905700683
 30
0.0
 11
-1085.82388374294
 21
19.7745094299317
 31
0.0
  0
LINE
  5
   51C
  8
0
  6
CONTINUOUS
 62
     1
 10
-1105.6238791653
 20
-32.7254905700683
 30
0.0
 11
-1105.6238791653
 21
19.7745094299317
 31
0.0
  0
LINE
  5
   51D
  8
0
  6
CONTINUOUS
 62
     1
 10
-1107.42388221706
 20
-32.7254905700683
 30
0.0
 11
-1107.42388221706
 21
19.7745094299317
 31
0.0
  0
LINE
  5
   51E
  8
0
  6
CONTINUOUS
 62
     1
 10
-1109.22388526881
 20
-32.7254905700683
 30
0.0
 11
-1109.22388526881
 21
19.7745094299317
 31
0.0
  0
LINE
  5
   51F
  8
0
  6
CONTINUOUS
 62
     1
 10
-1110.77388069118
 20
-32.7254905700683
 30
0.0
 11
-1110.77388069118
 21
19.7745094299317
 31
0.0
  0
LINE
  5
   520
  8
0
  6
CONTINUOUS
 62
     1
 10
-1111.92388221706
 20
-32.7254829406738
 30
0.0
 11
-1111.92388221706
 21
19.7745094299317
 31
0.0
  0
LINE
  5
   521
  8
0
  6
CONTINUOUS
 62
     1
 10
-1098.42388221706
 20
-32.7254905700683
 30
0.0
 11
-1098.42388221706
 21
19.7745094299317
 31
0.0
  0
LINE
  5
   522
  8
0
  6
CONTINUOUS
 62
     1
 10
-1100.22388526881
 20
-32.7254905700683
 30
0.0
 11
-1100.22388526881
 21
19.7745094299317
 31
0.0
  0
LINE
  5
   523
  8
0
  6
CONTINUOUS
 62
     1
 10
-1102.02388069118
 20
-32.7254905700683
 30
0.0
 11
-1102.02388069118
 21
19.7745094299317
 31
0.0
  0
LINE
  5
   524
  8
0
  6
CONTINUOUS
 62
     1
 10
-1103.82388374294
 20
-29.2254905700683
 30
0.0
 11
-1103.82388374294
 21
13.0245094299317
 31
0.0
  0
LINE
  5
   525
  8
0
  6
CONTINUOUS
 62
     1
 10
-1103.82388374294
 20
15.5245094299317
 30
0.0
 11
-1103.82388374294
 21
19.7745094299317
 31
0.0
  0
LINE
  5
   526
  8
0
  6
CONTINUOUS
 62
     1
 10
-1084.02388069118
 20
33.5245094299316
 30
0.0
 11
-1084.02388069118
 21
43.8995094299317
 31
0.0
  0
LINE
  5
   527
  8
0
  6
CONTINUOUS
 62
     1
 10
-1087.6238791653
 20
19.7745094299317
 30
0.0
 11
-1087.6238791653
 21
43.8995094299317
 31
0.0
  0
LINE
  5
   528
  8
0
  6
CONTINUOUS
 62
     1
 10
-1085.82388374294
 20
19.7745094299317
 30
0.0
 11
-1085.82388374294
 21
43.8995094299317
 31
0.0
  0
LINE
  5
   529
  8
0
  6
CONTINUOUS
 62
     1
 10
-1091.22388526881
 20
19.7745094299317
 30
0.0
 11
-1091.22388526881
 21
43.8995094299317
 31
0.0
  0
LINE
  5
   52A
  8
0
  6
CONTINUOUS
 62
     1
 10
-1089.42388221706
 20
19.7745094299317
 30
0.0
 11
-1089.42388221706
 21
43.8995094299317
 31
0.0
  0
LINE
  5
   52B
  8
0
  6
CONTINUOUS
 62
     1
 10
-1094.82388374294
 20
19.7745094299317
 30
0.0
 11
-1094.82388374294
 21
43.8995094299317
 31
0.0
  0
LINE
  5
   52C
  8
0
  6
CONTINUOUS
 62
     1
 10
-1093.02388069118
 20
19.7745094299317
 30
0.0
 11
-1093.02388069118
 21
43.8995094299317
 31
0.0
  0
LINE
  5
   52D
  8
0
  6
CONTINUOUS
 62
     1
 10
-1098.42388221706
 20
19.7745094299317
 30
0.0
 11
-1098.42388221706
 21
43.8995094299317
 31
0.0
  0
LINE
  5
   52E
  8
0
  6
CONTINUOUS
 62
     1
 10
-1096.6238791653
 20
19.7745094299317
 30
0.0
 11
-1096.6238791653
 21
43.8995094299317
 31
0.0
  0
LINE
  5
   52F
  8
0
  6
CONTINUOUS
 62
     1
 10
-1102.02388069118
 20
19.7745094299317
 30
0.0
 11
-1102.02388069118
 21
43.8995094299317
 31
0.0
  0
LINE
  5
   530
  8
0
  6
CONTINUOUS
 62
     1
 10
-1100.22388526881
 20
19.7745094299317
 30
0.0
 11
-1100.22388526881
 21
43.8995094299317
 31
0.0
  0
LINE
  5
   531
  8
0
  6
CONTINUOUS
 62
     1
 10
-1111.92388221706
 20
19.7745094299317
 30
0.0
 11
-1111.92388221706
 21
43.8995094299317
 31
0.0
  0
LINE
  5
   532
  8
0
  6
CONTINUOUS
 62
     1
 10
-1110.77388069118
 20
19.7745094299317
 30
0.0
 11
-1110.77388069118
 21
43.8995094299317
 31
0.0
  0
LINE
  5
   533
  8
0
  6
CONTINUOUS
 62
     1
 10
-1105.6238791653
 20
19.7745094299317
 30
0.0
 11
-1105.6238791653
 21
43.8995094299317
 31
0.0
  0
LINE
  5
   534
  8
0
  6
CONTINUOUS
 62
     1
 10
-1103.82388374294
 20
19.7745094299317
 30
0.0
 11
-1103.82388374294
 21
43.8995094299317
 31
0.0
  0
LINE
  5
   535
  8
0
  6
CONTINUOUS
 62
     1
 10
-1109.22388526881
 20
19.7745094299317
 30
0.0
 11
-1109.22388526881
 21
43.8995094299317
 31
0.0
  0
LINE
  5
   536
  8
0
  6
CONTINUOUS
 62
     1
 10
-1107.42388221706
 20
19.7745094299317
 30
0.0
 11
-1107.42388221706
 21
43.8995094299317
 31
0.0
  0
LINE
  5
   537
  8
0
  6
CONTINUOUS
 62
     1
 10
-1094.82388374294
 20
-58.8504658508477
 30
0.0
 11
-1094.82388374294
 21
-41.3504658508477
 31
0.0
  0
LINE
  5
   538
  8
0
  6
CONTINUOUS
 62
     1
 10
-1093.02388069118
 20
-58.8504658508477
 30
0.0
 11
-1093.02388069118
 21
-41.3504658508477
 31
0.0
  0
LINE
  5
   539
  8
0
  6
CONTINUOUS
 62
     1
 10
-1084.02388069118
 20
-58.8504658508477
 30
0.0
 11
-1084.02388069118
 21
-46.9754886627197
 31
0.0
  0
LINE
  5
   53A
  8
0
  6
CONTINUOUS
 62
     1
 10
-1100.22388526881
 20
-58.8504658508477
 30
0.0
 11
-1100.22388526881
 21
-41.3504658508477
 31
0.0
  0
LINE
  5
   53B
  8
0
  6
CONTINUOUS
 62
     1
 10
-1096.6238791653
 20
-58.8504658508477
 30
0.0
 11
-1096.6238791653
 21
-41.3504658508477
 31
0.0
  0
LINE
  5
   53C
  8
0
  6
CONTINUOUS
 62
     1
 10
-1098.42388221706
 20
-58.8504658508477
 30
0.0
 11
-1098.42388221706
 21
-41.3504658508477
 31
0.0
  0
LINE
  5
   53D
  8
0
  6
CONTINUOUS
 62
     1
 10
-1087.6238791653
 20
-58.8504658508477
 30
0.0
 11
-1087.6238791653
 21
-41.3504658508477
 31
0.0
  0
LINE
  5
   53E
  8
0
  6
CONTINUOUS
 62
     1
 10
-1085.82388374294
 20
-58.8504658508477
 30
0.0
 11
-1085.82388374294
 21
-41.3504658508477
 31
0.0
  0
LINE
  5
   53F
  8
0
  6
CONTINUOUS
 62
     1
 10
-1091.22388526881
 20
-58.8504658508477
 30
0.0
 11
-1091.22388526881
 21
-41.3504658508477
 31
0.0
  0
LINE
  5
   540
  8
0
  6
CONTINUOUS
 62
     1
 10
-1089.42388221706
 20
-58.8504658508477
 30
0.0
 11
-1089.42388221706
 21
-41.3504658508477
 31
0.0
  0
LINE
  5
   541
  8
0
  6
CONTINUOUS
 62
     1
 10
-1105.6238791653
 20
-58.8504658508477
 30
0.0
 11
-1105.6238791653
 21
-41.3504658508477
 31
0.0
  0
LINE
  5
   542
  8
0
  6
CONTINUOUS
 62
     1
 10
-1103.82388374294
 20
-58.8504658508477
 30
0.0
 11
-1103.82388374294
 21
-41.3504658508477
 31
0.0
  0
LINE
  5
   543
  8
0
  6
CONTINUOUS
 62
     1
 10
-1102.02388069118
 20
-58.8504658508477
 30
0.0
 11
-1102.02388069118
 21
-41.3504658508477
 31
0.0
  0
LINE
  5
   544
  8
0
  6
CONTINUOUS
 62
     1
 10
-1111.92388221706
 20
-58.8504658508477
 30
0.0
 11
-1111.92388221706
 21
-41.3504658508477
 31
0.0
  0
LINE
  5
   545
  8
0
  6
CONTINUOUS
 62
     1
 10
-1110.77388069118
 20
-58.8504658508477
 30
0.0
 11
-1110.77388069118
 21
-41.3504658508477
 31
0.0
  0
LINE
  5
   546
  8
0
  6
CONTINUOUS
 62
     1
 10
-1109.22388526881
 20
-58.8504658508477
 30
0.0
 11
-1109.22388526881
 21
-41.3504658508477
 31
0.0
  0
LINE
  5
   547
  8
0
  6
CONTINUOUS
 62
     1
 10
-1107.42388221706
 20
-58.8504658508477
 30
0.0
 11
-1107.42388221706
 21
-41.3504658508477
 31
0.0
  0
LINE
  5
   548
  8
0
  6
CONTINUOUS
 62
     1
 10
-1021.37388679469
 20
-32.4754829406738
 30
0.0
 11
-1030.12388679469
 21
-32.4754829406738
 31
0.0
  0
LINE
  5
   549
  8
0
  6
CONTINUOUS
 62
     1
 10
-1022.49889442409
 20
-40.3504829704762
 30
0.0
 11
-1022.49889442409
 21
-32.725482493639
 31
0.0
  0
LINE
  5
   54A
  8
0
  6
CONTINUOUS
 62
     1
 10
-1023.64888832057
 20
-40.3504829704762
 30
0.0
 11
-1023.64888832057
 21
-32.725482493639
 31
0.0
  0
LINE
  5
   54B
  8
0
  6
CONTINUOUS
 62
     1
 10
-1025.44889137233
 20
-40.3504829704762
 30
0.0
 11
-1025.44889137233
 21
-32.725482493639
 31
0.0
  0
LINE
  5
   54C
  8
0
  6
CONTINUOUS
 62
     1
 10
-1094.82388374294
 20
-40.3504829704761
 30
0.0
 11
-1094.82388374294
 21
-32.7254905700683
 31
0.0
  0
LINE
  5
   54D
  8
0
  6
CONTINUOUS
 62
     1
 10
-1093.02388069118
 20
-40.3504829704761
 30
0.0
 11
-1093.02388069118
 21
-32.7254905700683
 31
0.0
  0
LINE
  5
   54E
  8
0
  6
CONTINUOUS
 62
     1
 10
-1100.22388526881
 20
-40.3504829704761
 30
0.0
 11
-1100.22388526881
 21
-32.7254905700683
 31
0.0
  0
LINE
  5
   54F
  8
0
  6
CONTINUOUS
 62
     1
 10
-1096.6238791653
 20
-40.3504829704761
 30
0.0
 11
-1096.6238791653
 21
-32.7254905700683
 31
0.0
  0
LINE
  5
   550
  8
0
  6
CONTINUOUS
 62
     1
 10
-1098.42388221706
 20
-40.3504829704761
 30
0.0
 11
-1098.42388221706
 21
-32.7254905700683
 31
0.0
  0
LINE
  5
   551
  8
0
  6
CONTINUOUS
 62
     1
 10
-1087.6238791653
 20
-40.3504829704761
 30
0.0
 11
-1087.6238791653
 21
-32.7254905700683
 31
0.0
  0
LINE
  5
   552
  8
0
  6
CONTINUOUS
 62
     1
 10
-1085.82388374294
 20
-40.3504829704761
 30
0.0
 11
-1085.82388374294
 21
-32.7254905700683
 31
0.0
  0
LINE
  5
   553
  8
0
  6
CONTINUOUS
 62
     1
 10
-1091.22388526881
 20
-40.3504829704761
 30
0.0
 11
-1091.22388526881
 21
-32.7254905700683
 31
0.0
  0
LINE
  5
   554
  8
0
  6
CONTINUOUS
 62
     1
 10
-1089.42388221706
 20
-40.3504829704761
 30
0.0
 11
-1089.42388221706
 21
-32.7254905700683
 31
0.0
  0
LINE
  5
   555
  8
0
  6
CONTINUOUS
 62
     1
 10
-1105.6238791653
 20
-40.3504829704761
 30
0.0
 11
-1105.6238791653
 21
-32.7254905700683
 31
0.0
  0
LINE
  5
   556
  8
0
  6
CONTINUOUS
 62
     1
 10
-1103.82388374294
 20
-40.3504829704761
 30
0.0
 11
-1103.82388374294
 21
-33.725483417511
 31
0.0
  0
LINE
  5
   557
  8
0
  6
CONTINUOUS
 62
     1
 10
-1102.02388069118
 20
-40.3504829704761
 30
0.0
 11
-1102.02388069118
 21
-32.7254905700683
 31
0.0
  0
LINE
  5
   558
  8
0
  6
CONTINUOUS
 62
     1
 10
-1111.92388221706
 20
-40.3504829704761
 30
0.0
 11
-1111.92388221706
 21
-32.7254905700683
 31
0.0
  0
LINE
  5
   559
  8
0
  6
CONTINUOUS
 62
     1
 10
-1110.77388069118
 20
-40.3504829704761
 30
0.0
 11
-1110.77388069118
 21
-32.7254905700683
 31
0.0
  0
LINE
  5
   55A
  8
0
  6
CONTINUOUS
 62
     1
 10
-1109.22388526881
 20
-40.3504829704761
 30
0.0
 11
-1109.22388526881
 21
-32.7254905700683
 31
0.0
  0
LINE
  5
   55B
  8
0
  6
CONTINUOUS
 62
     1
 10
-1107.42388221706
 20
-40.3504829704761
 30
0.0
 11
-1107.42388221706
 21
-32.7254905700683
 31
0.0
  0
LINE
  5
   55C
  8
0
  6
CONTINUOUS
 62
     3
 10
-1030.62389442409
 20
19.5245094299316
 30
0.0
 11
-1082.12388679468
 21
19.5245094299316
 31
0.0
  0
LINE
  5
   55D
  8
0
  6
DASHDOT
 62
     7
 10
-1015.63049189024
 20
-6.72549057006836
 30
0.0
 11
-1121.94561820165
 21
-6.72549057006836
 31
0.0
  0
LINE
  5
   55E
  8
0
  6
CONTINUOUS
 62
     3
 10
-1030.62388679469
 20
-32.9754905700684
 30
0.0
 11
-1082.12388679469
 21
-32.9754905700684
 31
0.0
  0
ARC
  5
   55F
  8
0
  6
CONTINUOUS
 62
     5
 10
-1030.62388679469
 20
-32.4754905700684
 30
0.0
 40
0.5
 50
269.999999948034
 51
359.999999948034
  0
ARC
  5
   560
  8
0
  6
CONTINUOUS
 62
     5
 10
-1082.12388679469
 20
-32.4754905700684
 30
0.0
 40
0.5
 50
179.999999948034
 51
269.999999948034
  0
ARC
  5
   561
  8
0
  6
CONTINUOUS
 62
     5
 10
-1082.12388679468
 20
19.0245094299316
 30
0.0
 40
0.5
 50
89.9999999480344
 51
179.999999948034
  0
ARC
  5
   562
  8
0
  6
CONTINUOUS
 62
     5
 10
-1030.62389442409
 20
19.0245094299316
 30
0.0
 40
0.5
 50
359.999999948034
 51
449.999999948034
  0
LINE
  5
   563
  8
0
  6
CONTINUOUS
 62
     1
 10
-1085.6238791653
 20
19.5245094299316
 30
0.0
 11
-1113.24888679469
 21
19.5245094299316
 31
0.0
  0
LINE
  5
   564
  8
0
  6
CONTINUOUS
 62
     1
 10
-1021.37388679469
 20
19.5245094299316
 30
0.0
 11
-1027.1238791653
 21
19.5245094299316
 31
0.0
  0
INSERT
  5
   565
  8
255
  6
CONTINUOUS
 62
     2
  2
COPRITERMINALI
 10
-1056.37388808802
 20
57.1494917999563
 30
0.0
 41
0.5
 42
0.5
 50
359.999999792138
 43
0.5
  0
LINE
  5
   566
  8
0
  6
CONTINUOUS
 62
     2
 10
-1024.37388659907
 20
-72.3504658041511
 30
0.0
 11
-1024.37388659907
 21
-71.1004658508481
 31
0.0
  0
LINE
  5
   567
  8
0
  6
CONTINUOUS
 62
     2
 10
-1110.24888659907
 20
-72.3504658041511
 30
0.0
 11
-1110.24888659907
 21
-71.1004658041511
 31
0.0
  0
LINE
  5
   568
  8
0
  6
CONTINUOUS
 62
     2
 10
-1024.37388659907
 20
-72.3504658041511
 30
0.0
 11
-1110.24888659907
 21
-72.3504658041511
 31
0.0
  0
LINE
  5
   569
  8
0
  6
CONTINUOUS
 62
     7
 10
-1085.6238791653
 20
-41.3504658508477
 30
0.0
 11
-1113.24888659907
 21
-41.3504658508477
 31
0.0
  0
LINE
  5
   56A
  8
0
  6
CONTINUOUS
 62
     1
 10
-1085.6238791653
 20
-40.8504829406738
 30
0.0
 11
-1113.24888659907
 21
-40.8504829406738
 31
0.0
  0
LINE
  5
   56B
  8
0
  6
CONTINUOUS
 62
     1
 10
-1085.6238791653
 20
-40.3504829704762
 30
0.0
 11
-1113.24888659907
 21
-40.3504829704762
 31
0.0
  0
INSERT
  5
   56C
  8
255
  6
CONTINUOUS
 62
     7
  2
MOSTRINA
 10
-1113.79300758327
 20
-61.7158012390137
 30
0.0
 41
0.5
 42
0.5
 50
359.999999792138
 43
0.5
  0
TEXT
  5
   56D
  8
0
  6
CONTINUOUS
 62
     7
 10
-1057.62235406176
 20
86.4383354047922
 30
0.0
 40
3.00000002980232
  1
Y
 50
359.999999948034
 41
0.916666604744064
 72
     1
 11
-1056.52235412598
 21
87.9383354187012
 31
0.0
 73
     2
  0
INSERT
  5
   56E
  8
0
  6
CONTINUOUS
 62
     7
  2
*UDIM151
 10
0.0
 20
0.0
 30
0.0
  0
INSERT
  5
   56F
  8
0
  6
CONTINUOUS
 62
     7
  2
*UDIM152
 10
0.0
 20
0.0
 30
0.0
  0
INSERT
  5
   570
  8
0
  6
CONTINUOUS
 62
     7
  2
*UDIM153
 10
0.0
 20
0.0
 30
0.0
  0
INSERT
  5
   571
  8
0
  6
CONTINUOUS
 62
     7
  2
*UDIM154
 10
0.0
 20
0.0
 30
0.0
  0
INSERT
  5
   572
  8
0
  6
CONTINUOUS
 62
     7
  2
*UDIM155
 10
0.0
 20
0.0
 30
0.0
  0
TEXT
  5
   573
  8
0
  6
CONTINUOUS
 62
     7
 10
-1067.70204751131
 20
-96.6120988640969
 30
0.0
 40
3.00000002980232
  1
=         =
 50
359.999999948034
 41
0.916666604744064
 72
     2
 11
-1038.00204922693
 21
-96.6120988908847
 31
0.0
  0
INSERT
  5
   574
  8
0
  6
CONTINUOUS
 62
     7
  2
*UDIM156
 10
0.0
 20
0.0
 30
0.0
  0
INSERT
  5
   575
  8
0
  6
CONTINUOUS
 62
     7
  2
*UDIM157
 10
0.0
 20
0.0
 30
0.0
  0
INSERT
  5
   576
  8
0
  6
CONTINUOUS
 62
     7
  2
*UDIM158
 10
0.0
 20
0.0
 30
0.0
  0
INSERT
  5
   577
  8
0
  6
CONTINUOUS
 62
     7
  2
*UDIM159
 10
0.0
 20
0.0
 30
0.0
  0
INSERT
  5
   578
  8
0
  6
CONTINUOUS
 62
     7
  2
*UDIM160
 10
0.0
 20
0.0
 30
0.0
  0
INSERT
  5
   579
  8
0
  6
CONTINUOUS
 62
     7
  2
*UDIM161
 10
0.0
 20
0.0
 30
0.0
  0
INSERT
  5
   57A
  8
0
  6
CONTINUOUS
 62
     7
  2
*UDIM162
 10
0.0
 20
0.0
 30
0.0
  0
TEXT
  5
   57B
  8
0
  6
CONTINUOUS
 62
     7
 10
-1139.90801993148
 20
-7.92710470487912
 30
0.0
 40
3.00000002980232
  1
X
 50
359.999999948034
 41
0.916666604744064
 72
     1
 11
-1138.80801999569
 21
-6.4271046909701
 31
0.0
 73
     2
  0
INSERT
  5
   57C
  8
0
  6
CONTINUOUS
 62
     7
  2
*UDIM163
 10
0.0
 20
0.0
 30
0.0
  0
INSERT
  5
   57D
  8
0
  6
CONTINUOUS
 62
     7
  2
*UDIM164
 10
0.0
 20
0.0
 30
0.0
  0
LINE
  5
   57E
  8
0
  6
CONTINUOUS
 62
     7
 10
-819.976867675781
 20
27.7306518554688
 30
0.0
 11
-791.976867675781
 21
27.7306518554688
 31
0.0
  0
LINE
  5
   57F
  8
0
  6
CONTINUOUS
 62
     7
 10
-819.976867675781
 20
55.7306518554688
 30
0.0
 11
-791.976867675781
 21
55.7306518554688
 31
0.0
  0
LINE
  5
   580
  8
0
  6
CONTINUOUS
 62
     7
 10
-819.976867675781
 20
55.7306518554688
 30
0.0
 11
-819.976867675781
 21
27.7306518554688
 31
0.0
  0
LINE
  5
   581
  8
0
  6
CONTINUOUS
 62
     7
 10
-791.976867675781
 20
55.7306518554688
 30
0.0
 11
-791.976867675781
 21
27.7306518554688
 31
0.0
  0
CIRCLE
  5
   582
  8
0
  6
CONTINUOUS
 62
     7
 10
-815.976867675781
 20
59.4806518554688
 30
0.0
 40
0.875
  0
CIRCLE
  5
   583
  8
0
  6
CONTINUOUS
 62
     7
 10
-795.976867675781
 20
59.4806518554688
 30
0.0
 40
0.875
  0
CIRCLE
  5
   584
  8
0
  6
CONTINUOUS
 62
     7
 10
-815.976867675781
 20
23.9806518554688
 30
0.0
 40
0.875
  0
CIRCLE
  5
   585
  8
0
  6
CONTINUOUS
 62
     7
 10
-795.976867675781
 20
23.9806518554688
 30
0.0
 40
0.875
  0
LINE
  5
   586
  8
0
  6
DASHDOT
 62
     7
 10
-815.976867675781
 20
61.1056518554688
 30
0.0
 11
-815.976867675781
 21
57.8556518554688
 31
0.0
  0
LINE
  5
   587
  8
0
  6
DASHDOT
 62
     7
 10
-817.601867675781
 20
59.4806518554688
 30
0.0
 11
-814.351867675781
 21
59.4806518554688
 31
0.0
  0
LINE
  5
   588
  8
0
  6
DASHDOT
 62
     7
 10
-795.976867675781
 20
61.1056518554688
 30
0.0
 11
-795.976867675781
 21
57.8556518554688
 31
0.0
  0
LINE
  5
   589
  8
0
  6
DASHDOT
 62
     7
 10
-797.601867675781
 20
59.4806518554688
 30
0.0
 11
-794.351867675781
 21
59.4806518554688
 31
0.0
  0
LINE
  5
   58A
  8
0
  6
DASHDOT
 62
     7
 10
-795.976867675781
 20
25.6056518554688
 30
0.0
 11
-795.976867675781
 21
22.3556518554688
 31
0.0
  0
LINE
  5
   58B
  8
0
  6
DASHDOT
 62
     7
 10
-797.601867675781
 20
23.9806518554688
 30
0.0
 11
-794.351867675781
 21
23.9806518554688
 31
0.0
  0
LINE
  5
   58C
  8
0
  6
DASHDOT
 62
     7
 10
-815.976867675781
 20
25.6056518554688
 30
0.0
 11
-815.976867675781
 21
22.3556518554688
 31
0.0
  0
LINE
  5
   58D
  8
0
  6
DASHDOT
 62
     7
 10
-817.601867675781
 20
23.9806518554688
 30
0.0
 11
-814.351867675781
 21
23.9806518554688
 31
0.0
  0
LINE
  5
   58E
  8
0
  6
DASHDOT
 62
     7
 10
-805.976867675781
 20
69.1007641408058
 30
0.0
 11
-805.976867675781
 21
12.6074010106477
 31
0.0
  0
LINE
  5
   58F
  8
0
  6
CONTINUOUS
 62
     7
 10
-822.797444219447
 20
62.1318375106748
 30
0.0
 11
-788.84288399614
 21
62.1318375106748
 31
0.0
  0
LINE
  5
   590
  8
0
  6
CONTINUOUS
 62
     7
 10
-822.797444219447
 20
20.5667724097295
 30
0.0
 11
-788.84288399614
 21
20.5667724097295
 31
0.0
  0
LINE
  5
   591
  8
0
  6
CONTINUOUS
 62
     7
 10
-788.84288399614
 20
62.1318375106748
 30
0.0
 11
-788.84288399614
 21
20.5667724097295
 31
0.0
  0
LINE
  5
   592
  8
0
  6
CONTINUOUS
 62
     7
 10
-822.797444219447
 20
62.1318375106748
 30
0.0
 11
-822.797444219447
 21
20.5667724097295
 31
0.0
  0
LINE
  5
   593
  8
0
  6
DASHDOT
 62
     7
 10
-829.098853890218
 20
41.7306518554688
 30
0.0
 11
-781.858255996163
 21
41.7306518554688
 31
0.0
  0
TEXT
  5
   594
  8
0
  6
CONTINUOUS
 62
     7
 10
-835.740105318282
 20
33.4926647999933
 30
0.0
 40
3.00000002980232
  1
=   =
 50
449.999999844103
 41
0.916666604744064
 72
     2
 11
-835.740105282449
 21
46.692664035067
 31
0.0
  0
TEXT
  5
   595
  8
0
  6
CONTINUOUS
 62
     7
 10
-827.720482515548
 20
34.1191978314569
 30
0.0
 40
3.00000002980232
  1
=   =
 50
449.999999844103
 41
0.916666604744064
 72
     2
 11
-827.720482479715
 21
47.3191970665306
 31
0.0
  0
INSERT
  5
   596
  8
0
  6
CONTINUOUS
 62
     7
  2
*UDIM165
 10
0.0
 20
0.0
 30
0.0
  0
TEXT
  5
   597
  8
0
  6
CONTINUOUS
 62
     7
 10
-812.877409668866
 20
74.9549977217458
 30
0.0
 40
3.00000002980232
  1
=   =
 50
359.999999844103
 41
0.916666604744064
 72
     2
 11
-799.677410433792
 21
74.9549976858961
 31
0.0
  0
TEXT
  5
   598
  8
0
  6
CONTINUOUS
 62
     7
 10
-812.935951920453
 20
68.3982560072683
 30
0.0
 40
3.00000002980232
  1
=   =
 50
359.999999844103
 41
0.916666604744064
 72
     2
 11
-799.735952685379
 21
68.3982559714186
 31
0.0
  0
INSERT
  5
   599
  8
0
  6
CONTINUOUS
 62
     7
  2
*UDIM166
 10
0.0
 20
0.0
 30
0.0
  0
INSERT
  5
   59A
  8
0
  6
CONTINUOUS
 62
     7
  2
*UDIM167
 10
0.0
 20
0.0
 30
0.0
  0
INSERT
  5
   59B
  8
0
  6
CONTINUOUS
 62
     7
  2
*UDIM168
 10
0.0
 20
0.0
 30
0.0
  0
INSERT
  5
   59C
  8
0
  6
CONTINUOUS
 62
     7
  2
*UDIM169
 10
0.0
 20
0.0
 30
0.0
  0
TEXT
  5
   59D
  8
0
  6
CONTINUOUS
 62
     7
 10
-807.165147672199
 20
5.7555579447797
 30
0.0
 40
3.00000002980232
  1
Y
 50
359.999999844103
 41
0.916666604744064
 72
     2
 11
-804.965147803329
 21
5.75555793880475
 31
0.0
  0
TEXT
  5
   59E
  8
0
  6
CONTINUOUS
 62
     7
 10
-806.228470216297
 20
84.4950141215375
 30
0.0
 40
3.00000002980232
  1
Y
 50
359.999999844103
 41
0.916666604744064
 72
     2
 11
-804.028470347427
 21
84.4950141155626
 31
0.0
  0
TEXT
  5
   59F
  8
0
  6
CONTINUOUS
 62
     7
 10
-780.377105603718
 20
40.2974147105268
 30
0.0
 40
3.00000002980232
  1
X
 50
359.999999844103
 41
0.916666604744064
 72
     2
 11
-778.177105734848
 21
40.2974147045518
 31
0.0
  0
TEXT
  5
   5A0
  8
0
  6
CONTINUOUS
 62
     7
 10
-848.144790540241
 20
39.8272039198926
 30
0.0
 40
3.00000002980232
  1
X
 50
359.999999844103
 41
0.916666604744064
 72
     2
 11
-845.944790671371
 21
39.8272039139177
 31
0.0
  0
LINE
  5
   5A1
  8
0
  6
CONTINUOUS
 62
     1
 10
-908.713973999023
 20
54.4994944763007
 30
0.0
 11
-941.813977465977
 21
54.4994944763007
 31
0.0
  0
LINE
  5
   5A2
  8
0
  6
DASHDOT
 62
     7
 10
-929.124679604979
 20
76.8995197513872
 30
0.0
 11
-936.644420151235
 21
76.8995197513872
 31
0.0
  0
LINE
  5
   5A3
  8
0
  6
CONTINUOUS
 62
     7
 10
-946.813976512303
 20
-67.1005058288574
 30
0.0
 11
-946.813976512303
 21
-51.8548948794726
 31
0.0
  0
LINE
  5
   5A4
  8
0
  6
CONTINUOUS
 62
     7
 10
-939.313977465977
 20
-67.6004802486127
 30
0.0
 11
-939.313977465977
 21
-56.6004802486127
 31
0.0
  0
LINE
  5
   5A5
  8
0
  6
CONTINUOUS
 62
     7
 10
-944.313976512303
 20
-67.1005058288574
 30
0.0
 11
-944.313976512303
 21
-64.6005314091021
 31
0.0
  0
INSERT
  5
   5A6
  8
0
  6
CONTINUOUS
 62
     7
  2
*HATCH90
 10
-956.81396484375
 20
-61.7190437316895
 30
0.0
 41
0.5
 42
0.5
 50
89.9999999480344
 43
0.5
  0
INSERT
  5
   5A7
  8
0
  6
CONTINUOUS
 62
     7
  2
*HATCH91
 10
-956.81396484375
 20
-61.7190437316895
 30
0.0
 41
0.5
 42
0.5
 50
89.9999999480344
 43
0.5
  0
LINE
  5
   5A8
  8
0
  6
DASHDOT
 62
     7
 10
-936.462006025827
 20
-62.1005314091021
 30
0.0
 11
-950.528648043265
 21
-62.1005314091021
 31
0.0
  0
LINE
  5
   5A9
  8
0
  6
CONTINUOUS
 62
     7
 10
-944.313976512303
 20
-67.1005058288574
 30
0.0
 11
-946.813976512303
 21
-67.1005058288574
 31
0.0
  0
LINE
  5
   5AA
  8
0
  6
CONTINUOUS
 62
     7
 10
-944.313977465977
 20
-59.6005314091021
 30
0.0
 11
-944.313977465977
 21
-51.8548948794726
 31
0.0
  0
LINE
  5
   5AB
  8
0
  6
CONTINUOUS
 62
     7
 10
-934.91614106036
 20
-51.8548948794726
 30
0.0
 11
-961.368249261074
 21
-51.8548948794726
 31
0.0
  0
LINE
  5
   5AC
  8
0
  6
CONTINUOUS
 62
     7
 10
-929.202327616765
 20
-72.6561634290313
 30
0.0
 11
-934.91614106036
 21
-51.8548948794726
 31
0.0
  0
INSERT
  5
   5AD
  8
0
  6
CONTINUOUS
 62
     7
  2
*HATCH92
 10
-956.81396484375
 20
-61.7190437316895
 30
0.0
 41
0.5
 42
0.5
 50
89.9999999480344
 43
0.5
  0
INSERT
  5
   5AE
  8
0
  6
CONTINUOUS
 62
     7
  2
*HATCH93
 10
-956.81396484375
 20
-61.7190437316895
 30
0.0
 41
0.5
 42
0.5
 50
89.9999999480344
 43
0.5
  0
LINE
  5
   5AF
  8
0
  6
CONTINUOUS
 62
     7
 10
-946.813976512303
 20
-54.6005314091021
 30
0.0
 11
-955.813965320587
 21
-54.6005314091021
 31
0.0
  0
LINE
  5
   5B0
  8
0
  6
CONTINUOUS
 62
     7
 10
-946.813976512303
 20
-52.6005314091021
 30
0.0
 11
-956.81396484375
 21
-52.6005314091021
 31
0.0
  0
LINE
  5
   5B1
  8
0
  6
CONTINUOUS
 62
     7
 10
-933.74992492206
 20
-56.1005314091021
 30
0.0
 11
-944.313977465977
 21
-56.1005314091021
 31
0.0
  0
INSERT
  5
   5B2
  8
0
  6
CONTINUOUS
 62
     7
  2
*HATCH94
 10
-956.81396484375
 20
-61.7190437316895
 30
0.0
 41
0.5
 42
0.5
 50
89.9999999480344
 43
0.5
  0
LINE
  5
   5B3
  8
0
  6
CONTINUOUS
 62
     7
 10
-934.299296555812
 20
-54.1005314091021
 30
0.0
 11
-944.313977465977
 21
-54.1005314091021
 31
0.0
  0
LINE
  5
   5B4
  8
0
  6
CONTINUOUS
 62
     7
 10
-944.313977465977
 20
-59.5505314091021
 30
0.0
 11
-946.813976512303
 21
-59.5505314091021
 31
0.0
  0
LINE
  5
   5B5
  8
0
  6
CONTINUOUS
 62
     7
 10
-944.313976512303
 20
-64.6505314091021
 30
0.0
 11
-946.813976512303
 21
-64.6505314091021
 31
0.0
  0
LINE
  5
   5B6
  8
0
  6
CONTINUOUS
 62
     7
 10
-938.713977465977
 20
-56.6004802486127
 30
0.0
 11
-939.313977465977
 21
-56.6004802486127
 31
0.0
  0
LINE
  5
   5B7
  8
0
  6
CONTINUOUS
 62
     7
 10
-938.713977465977
 20
-67.6004802486127
 30
0.0
 11
-938.713977465977
 21
-56.6004802486127
 31
0.0
  0
LINE
  5
   5B8
  8
0
  6
CONTINUOUS
 62
     7
 10
-938.713977465977
 20
-67.6004802486127
 30
0.0
 11
-939.313977465977
 21
-67.6004802486127
 31
0.0
  0
LINE
  5
   5B9
  8
0
  6
CONTINUOUS
 62
     1
 10
-938.513977465977
 20
-66.8255314091021
 30
0.0
 11
-938.513977465977
 21
-57.3755314091021
 31
0.0
  0
ARC
  5
   5BA
  8
0
  6
CONTINUOUS
 62
     1
 10
-937.018766869134
 20
-65.6442814091021
 30
0.0
 40
1.80478940315675
 50
319.117607838934
 51
400.882392057134
  0
ARC
  5
   5BB
  8
0
  6
CONTINUOUS
 62
     1
 10
-937.018766869134
 20
-58.5567814091021
 30
0.0
 40
1.80478940315675
 50
319.117607838934
 51
400.882392057134
  0
LINE
  5
   5BC
  8
0
  6
CONTINUOUS
 62
     1
 10
-935.619318383764
 20
-64.4630314091021
 30
0.0
 11
-938.513977465977
 21
-64.4630314091021
 31
0.0
  0
ARC
  5
   5BD
  8
0
  6
CONTINUOUS
 62
     1
 10
-942.301477465977
 20
-62.1005314091021
 30
0.0
 40
7.0875
 50
340.528779313544
 51
379.471220582525
  0
LINE
  5
   5BE
  8
0
  6
CONTINUOUS
 62
     1
 10
-935.619318383764
 20
-59.7380314091021
 30
0.0
 11
-938.513977465977
 21
-59.7380314091021
 31
0.0
  0
LINE
  5
   5BF
  8
0
  6
CONTINUOUS
 62
     1
 10
-935.654247456576
 20
-66.8255314091021
 30
0.0
 11
-938.513977465977
 21
-66.8255314091021
 31
0.0
  0
LINE
  5
   5C0
  8
0
  6
CONTINUOUS
 62
     1
 10
-935.654247456576
 20
-57.3755314091021
 30
0.0
 11
-938.513977465977
 21
-57.3755314091021
 31
0.0
  0
LINE
  5
   5C1
  8
0
  6
CONTINUOUS
 62
     1
 10
-938.513977465977
 20
-66.1505314091021
 30
0.0
 11
-938.713977465977
 21
-66.1505314091021
 31
0.0
  0
LINE
  5
   5C2
  8
0
  6
CONTINUOUS
 62
     1
 10
-938.513977465977
 20
-58.0505314091021
 30
0.0
 11
-938.713977465977
 21
-58.0505314091021
 31
0.0
  0
LINE
  5
   5C3
  8
0
  6
CONTINUOUS
 62
     7
 10
-940.213977465977
 20
-64.1404589091021
 30
0.0
 11
-946.813976512303
 21
-64.1404589091021
 31
0.0
  0
LINE
  5
   5C4
  8
0
  6
CONTINUOUS
 62
     7
 10
-940.213977465977
 20
-60.0606039091021
 30
0.0
 11
-946.813976512303
 21
-60.0606039091021
 31
0.0
  0
LINE
  5
   5C5
  8
0
  6
CONTINUOUS
 62
     1
 10
-939.313977465977
 20
-59.6005314091021
 30
0.0
 11
-946.813976512303
 21
-59.6005314091021
 31
0.0
  0
LINE
  5
   5C6
  8
0
  6
CONTINUOUS
 62
     1
 10
-939.313977465977
 20
-64.6005314091021
 30
0.0
 11
-946.813976512303
 21
-64.6005314091021
 31
0.0
  0
LINE
  5
   5C7
  8
0
  6
CONTINUOUS
 62
     1
 10
-940.213977465977
 20
-64.6005314091021
 30
0.0
 11
-940.213977465977
 21
-59.6005314091021
 31
0.0
  0
LINE
  5
   5C8
  8
0
  6
CONTINUOUS
 62
     1
 10
-935.213977465977
 20
-65.6442814091021
 30
0.0
 11
-935.213977465977
 21
-58.5567814091021
 31
0.0
  0
LINE
  5
   5C9
  8
0
  6
DASHDOT
 62
     7
 10
-935.713977465977
 20
-62.1005314091021
 30
0.0
 11
-950.213977465977
 21
-62.1005314091021
 31
0.0
  0
LINE
  5
   5CA
  8
0
  6
DASHDOT
 62
     7
 10
-935.713977465977
 20
46.8995197513873
 30
0.0
 11
-950.213977465977
 21
46.8995197513873
 31
0.0
  0
LINE
  5
   5CB
  8
0
  6
CONTINUOUS
 62
     1
 10
-908.713974475861
 20
-69.7004738617122
 30
0.0
 11
-930.014213619996
 21
-69.7004738617122
 31
0.0
  0
LINE
  5
   5CC
  8
0
  6
CONTINUOUS
 62
     1
 10
-938.154247456576
 20
51.6245197513872
 30
0.0
 11
-941.013977465977
 21
51.6245197513872
 31
0.0
  0
ARC
  5
   5CD
  8
0
  6
CONTINUOUS
 62
     1
 10
-939.518766869134
 20
50.4432697513873
 30
0.0
 40
1.80478940315675
 50
319.117607838934
 51
400.882392057134
  0
LINE
  5
   5CE
  8
0
  6
CONTINUOUS
 62
     1
 10
-937.713977465977
 20
43.3557697513872
 30
0.0
 11
-937.713977465977
 21
50.4432697513873
 31
0.0
  0
LINE
  5
   5CF
  8
0
  6
CONTINUOUS
 62
     1
 10
-938.119318383764
 20
49.2620197513872
 30
0.0
 11
-941.013977465977
 21
49.2620197513872
 31
0.0
  0
ARC
  5
   5D0
  8
0
  6
CONTINUOUS
 62
     1
 10
-944.801477465977
 20
46.8995197513873
 30
0.0
 40
7.0875
 50
340.528779313544
 51
379.471220582525
  0
LINE
  5
   5D1
  8
0
  6
CONTINUOUS
 62
     1
 10
-938.119318383764
 20
44.5370197513873
 30
0.0
 11
-941.013977465977
 21
44.5370197513873
 31
0.0
  0
ARC
  5
   5D2
  8
0
  6
CONTINUOUS
 62
     1
 10
-939.518766869134
 20
43.3557697513872
 30
0.0
 40
1.80478940315675
 50
319.117607838934
 51
400.882392057134
  0
LINE
  5
   5D3
  8
0
  6
CONTINUOUS
 62
     1
 10
-938.154247456576
 20
42.1745197513872
 30
0.0
 11
-941.013977465977
 21
42.1745197513872
 31
0.0
  0
LINE
  5
   5D4
  8
0
  6
CONTINUOUS
 62
     1
 10
-941.013977465977
 20
42.1745197513872
 30
0.0
 11
-941.013977465977
 21
51.6245197513872
 31
0.0
  0
LINE
  5
   5D5
  8
0
  6
CONTINUOUS
 62
     2
 10
-941.213977465977
 20
41.3995197513872
 30
0.0
 11
-941.213977465977
 21
52.3995197513872
 31
0.0
  0
LINE
  5
   5D6
  8
0
  6
CONTINUOUS
 62
     2
 10
-941.213977465977
 20
52.3995197513872
 30
0.0
 11
-941.813977465977
 21
52.3995197513872
 31
0.0
  0
LINE
  5
   5D7
  8
0
  6
CONTINUOUS
 62
     2
 10
-941.213977465977
 20
41.3995197513872
 30
0.0
 11
-941.813977465977
 21
41.3995197513872
 31
0.0
  0
LINE
  5
   5D8
  8
0
  6
CONTINUOUS
 62
     1
 10
-941.013977465977
 20
42.8495197513872
 30
0.0
 11
-941.213977465977
 21
42.8495197513872
 31
0.0
  0
LINE
  5
   5D9
  8
0
  6
CONTINUOUS
 62
     1
 10
-941.013977465977
 20
50.9495197513872
 30
0.0
 11
-941.213977465977
 21
50.9495197513872
 31
0.0
  0
LINE
  5
   5DA
  8
0
  6
CONTINUOUS
 62
     1
 10
-943.213977465977
 20
44.3995197513873
 30
0.0
 11
-943.213977465977
 21
49.3995197513873
 31
0.0
  0
LINE
  5
   5DB
  8
0
  6
CONTINUOUS
 62
     1
 10
-941.813977465977
 20
44.3995197513873
 30
0.0
 11
-946.813976512303
 21
44.3995197513873
 31
0.0
  0
LINE
  5
   5DC
  8
0
  6
CONTINUOUS
 62
     1
 10
-941.813977465977
 20
49.3995197513873
 30
0.0
 11
-946.813976512303
 21
49.3995197513873
 31
0.0
  0
LINE
  5
   5DD
  8
0
  6
CONTINUOUS
 62
     7
 10
-944.313977465977
 20
51.8994941711426
 30
0.0
 11
-946.813976512303
 21
51.8994941711426
 31
0.0
  0
LINE
  5
   5DE
  8
0
  6
CONTINUOUS
 62
     7
 10
-939.23404647863
 20
36.6538832217577
 30
0.0
 11
-937.718797989803
 21
39.9972056938791
 31
0.0
  0
LINE
  5
   5DF
  8
0
  6
CONTINUOUS
 62
     7
 10
-944.313977465977
 20
36.6538832217577
 30
0.0
 11
-944.313977465977
 21
44.3995197513873
 31
0.0
  0
LINE
  5
   5E0
  8
0
  6
CONTINUOUS
 62
     7
 10
-946.813976512303
 20
36.6538832217577
 30
0.0
 11
-946.813976512303
 21
44.3995197513873
 31
0.0
  0
LINE
  5
   5E1
  8
0
  6
CONTINUOUS
 62
     7
 10
-937.536841050618
 20
40.8995197513872
 30
0.0
 11
-944.313977465977
 21
40.8995197513872
 31
0.0
  0
LINE
  5
   5E2
  8
0
  6
CONTINUOUS
 62
     7
 10
-938.443273799156
 20
38.8995197513872
 30
0.0
 11
-944.313977465977
 21
38.8995197513872
 31
0.0
  0
LINE
  5
   5E3
  8
0
  6
CONTINUOUS
 62
     7
 10
-939.23404647863
 20
36.6538832217577
 30
0.0
 11
-958.018049724864
 21
36.6538832217577
 31
0.0
  0
LINE
  5
   5E4
  8
0
  6
CONTINUOUS
 62
     7
 10
-946.813976512303
 20
38.1494941711426
 30
0.0
 11
-949.313976512303
 21
38.1494941711426
 31
0.0
  0
LINE
  5
   5E5
  8
0
  6
CONTINUOUS
 62
     7
 10
-950.809587461688
 20
36.6538832217576
 30
0.0
 11
-949.313976512303
 21
38.1494941711425
 31
0.0
  0
LINE
  5
   5E6
  8
0
  6
CONTINUOUS
 62
     7
 10
-944.313977465977
 20
44.3995197513873
 30
0.0
 11
-946.813976512303
 21
44.3995197513873
 31
0.0
  0
LINE
  5
   5E7
  8
0
  6
CONTINUOUS
 62
     7
 10
-946.813976512303
 20
49.3995197513873
 30
0.0
 11
-946.813976512303
 21
51.8994941711426
 31
0.0
  0
LINE
  5
   5E8
  8
0
  6
CONTINUOUS
 62
     7
 10
-917.631511657117
 20
39.997205693879
 30
0.0
 11
-937.718797989803
 21
39.997205693879
 31
0.0
  0
LINE
  5
   5E9
  8
0
  6
CONTINUOUS
 62
     7
 10
-943.213977465977
 20
44.8595922513872
 30
0.0
 11
-946.813976512303
 21
44.8595922513872
 31
0.0
  0
LINE
  5
   5EA
  8
0
  6
CONTINUOUS
 62
     7
 10
-943.213977465977
 20
48.9394472513873
 30
0.0
 11
-946.813976512303
 21
48.9394472513873
 31
0.0
  0
LINE
  5
   5EB
  8
0
  6
DASHDOT
 62
     7
 10
-935.713977465977
 20
46.8995197513873
 30
0.0
 11
-950.213977465977
 21
46.8995197513873
 31
0.0
  0
LINE
  5
   5EC
  8
0
  6
CONTINUOUS
 62
     7
 10
-919.813979289409
 20
55.899503631566
 30
0.0
 11
-941.813977465977
 21
55.899503631566
 31
0.0
  0
LINE
  5
   5ED
  8
0
  6
CONTINUOUS
 62
     2
 10
-941.813977465977
 20
41.3995197513872
 30
0.0
 11
-941.813977465977
 21
52.3995197513872
 31
0.0
  0
LINE
  5
   5EE
  8
0
  6
CONTINUOUS
 62
     7
 10
-944.313977465977
 20
49.3995197513873
 30
0.0
 11
-944.313977465977
 21
51.8994941711426
 31
0.0
  0
INSERT
  5
   5EF
  8
0
  6
CONTINUOUS
 62
     2
  2
*HATCH95
 10
-956.81396484375
 20
-61.7190437316895
 30
0.0
 41
0.5
 42
0.5
 50
89.9999999480344
 43
0.5
  0
INSERT
  5
   5F0
  8
0
  6
CONTINUOUS
 62
     2
  2
*HATCH96
 10
-956.81396484375
 20
-61.7190437316895
 30
0.0
 41
0.5
 42
0.5
 50
89.9999999480344
 43
0.5
  0
LINE
  5
   5F1
  8
0
  6
CONTINUOUS
 62
     7
 10
-932.063993025752
 20
57.149503631566
 30
0.0
 11
-941.813977465977
 21
57.149503631566
 31
0.0
  0
LINE
  5
   5F2
  8
0
  6
CONTINUOUS
 62
   132
 10
-944.281888442739
 20
58.6495197513873
 30
0.0
 11
-956.563976028974
 21
58.6495197513873
 31
0.0
  0
LINE
  5
   5F3
  8
0
  6
CONTINUOUS
 62
   132
 10
-944.313977465977
 20
57.1495197513873
 30
0.0
 11
-956.063976076038
 21
57.1495197513873
 31
0.0
  0
LINE
  5
   5F4
  8
0
  6
CONTINUOUS
 62
   132
 10
-956.063976046088
 20
57.1495197214374
 30
0.0
 11
-956.563976028974
 21
57.6495197043231
 31
0.0
  0
INSERT
  5
   5F5
  8
0
  6
CONTINUOUS
 62
     7
  2
*UDIM170
 10
0.0
 20
0.0
 30
0.0
  0
LINE
  5
   5F6
  8
0
  6
CONTINUOUS
 62
   132
 10
-956.563976028974
 20
57.6495197043231
 30
0.0
 11
-956.563976028974
 21
96.5790983831432
 31
0.0
  0
LINE
  5
   5F7
  8
0
  6
CONTINUOUS
 62
   132
 10
-906.063977465977
 20
57.6495197043231
 30
0.0
 11
-906.063977465977
 21
92.1818195967054
 31
0.0
  0
LINE
  5
   5F8
  8
0
  6
CONTINUOUS
 62
   132
 10
-906.063977465977
 20
58.6495197513873
 30
0.0
 11
-941.695116809524
 21
58.6495197513873
 31
0.0
  0
LINE
  5
   5F9
  8
0
  6
CONTINUOUS
 62
   132
 10
-906.563977448863
 20
57.1495197214373
 30
0.0
 11
-906.063977465977
 21
57.6495197043231
 31
0.0
  0
LINE
  5
   5FA
  8
0
  6
CONTINUOUS
 62
     7
 10
-903.778000086134
 20
91.9827685051273
 30
0.0
 11
-959.891906101303
 21
96.8688773282168
 31
0.0
  0
INSERT
  5
   5FB
  8
0
  6
CONTINUOUS
 62
     7
  2
*UDIM171
 10
0.0
 20
0.0
 30
0.0
  0
INSERT
  5
   5FC
  8
0
  6
CONTINUOUS
 62
     7
  2
*UDIM172
 10
0.0
 20
0.0
 30
0.0
  0
LINE
  5
   5FD
  8
0
  6
CONTINUOUS
 62
     7
 10
-955.813980102539
 20
7.14950180053711
 30
0.0
 11
-955.813980102539
 21
7.39948654174805
 31
0.0
  0
LINE
  5
   5FE
  8
0
  6
CONTINUOUS
 62
     7
 10
-955.813980102539
 20
14.899486541748
 30
0.0
 11
-955.813980102539
 21
24.899471282959
 31
0.0
  0
LINE
  5
   5FF
  8
0
  6
CONTINUOUS
 62
     7
 10
-954.56396484375
 20
7.39948654174805
 30
0.0
 11
-954.56396484375
 21
14.899486541748
 31
0.0
  0
LINE
  5
   600
  8
0
  6
CONTINUOUS
 62
     7
 10
-954.56396484375
 20
7.39948654174805
 30
0.0
 11
-955.813980102539
 21
7.39948654174805
 31
0.0
  0
LINE
  5
   601
  8
0
  6
CONTINUOUS
 62
     7
 10
-954.56396484375
 20
14.899486541748
 30
0.0
 11
-955.813980102539
 21
14.899486541748
 31
0.0
  0
LINE
  5
   602
  8
0
  6
CONTINUOUS
 62
     7
 10
-954.56396484375
 20
24.899471282959
 30
0.0
 11
-954.56396484375
 21
32.399471282959
 31
0.0
  0
LINE
  5
   603
  8
0
  6
CONTINUOUS
 62
     7
 10
-954.56396484375
 20
24.899471282959
 30
0.0
 11
-955.813980102539
 21
24.899471282959
 31
0.0
  0
LINE
  5
   604
  8
0
  6
CONTINUOUS
 62
     7
 10
-954.56396484375
 20
32.399471282959
 30
0.0
 11
-955.813980102539
 21
32.399471282959
 31
0.0
  0
LINE
  5
   605
  8
0
  6
CONTINUOUS
 62
     7
 10
-921.563987731934
 20
7.14948654174805
 30
0.0
 11
-921.563987731934
 21
34.649471282959
 31
0.0
  0
LINE
  5
   606
  8
0
  6
CONTINUOUS
 62
     2
 10
-955.063976512303
 20
55.8994941711426
 30
0.0
 11
-955.81396484375
 21
55.8994941711426
 31
0.0
  0
LINE
  5
   607
  8
0
  6
CONTINUOUS
 62
     2
 10
-955.814045710665
 20
34.399471282959
 30
0.0
 11
-955.814045710665
 21
44.7067832946777
 31
0.0
  0
LINE
  5
   608
  8
0
  6
CONTINUOUS
 62
     7
 10
-919.813980102539
 20
43.399471282959
 30
0.0
 11
-921.563980102539
 21
43.399471282959
 31
0.0
  0
LINE
  5
   609
  8
0
  6
CONTINUOUS
 62
     7
 10
-921.56407611831
 20
34.6494669233522
 30
0.0
 11
-921.56407611831
 21
43.3994669233522
 31
0.0
  0
LINE
  5
   60A
  8
0
  6
CONTINUOUS
 62
     7
 10
-953.813980102539
 20
35.649471282959
 30
0.0
 11
-955.813980102539
 21
35.649471282959
 31
0.0
  0
LINE
  5
   60B
  8
0
  6
CONTINUOUS
 62
     7
 10
-953.813978831157
 20
35.6494649254404
 30
0.0
 11
-953.813976276789
 21
36.6538832218121
 31
0.0
  0
LINE
  5
   60C
  8
0
  6
CONTINUOUS
 62
     7
 10
-921.563987731934
 20
2.39949417114258
 30
0.0
 11
-921.563987731934
 21
7.14950180053711
 31
0.0
  0
LINE
  5
   60D
  8
0
  6
CONTINUOUS
 62
     7
 10
-955.813975002878
 20
-28.1004931097914
 30
0.0
 11
-955.81395974409
 21
-27.9533755546518
 31
0.0
  0
LINE
  5
   60E
  8
0
  6
CONTINUOUS
 62
     7
 10
-955.813937626476
 20
-20.2476124496991
 30
0.0
 11
-955.813937626476
 21
7.14949753565246
 31
0.0
  0
LINE
  5
   60F
  8
0
  6
CONTINUOUS
 62
     7
 10
-920.313980102539
 20
-21.3504981994629
 30
0.0
 11
-954.313996887208
 21
-21.3504981994629
 31
0.0
  0
LINE
  5
   610
  8
0
  6
CONTINUOUS
 62
     7
 10
-920.313980102539
 20
-26.8504981994629
 30
0.0
 11
-954.313996887208
 21
-26.8504981994629
 31
0.0
  0
LINE
  5
   611
  8
0
  6
CONTINUOUS
 62
     7
 10
-951.697950604414
 20
-21.3504931148515
 30
0.0
 11
-955.813963001419
 21
-20.2476074017831
 31
0.0
  0
LINE
  5
   612
  8
0
  6
CONTINUOUS
 62
     7
 10
-955.813960694428
 20
-27.9533798294992
 30
0.0
 11
-951.697948202651
 21
-26.8504976651031
 31
0.0
  0
LINE
  5
   613
  8
0
  6
CONTINUOUS
 62
     7
 10
-919.813987731934
 20
-19.8504981994629
 30
0.0
 11
-923.813987731934
 21
-19.8504981994629
 31
0.0
  0
LINE
  5
   614
  8
0
  6
CONTINUOUS
 62
     7
 10
-923.813987731934
 20
-19.8504981994629
 30
0.0
 11
-923.813987731934
 21
1.39949417114258
 31
0.0
  0
LINE
  5
   615
  8
0
  6
CONTINUOUS
 62
     7
 10
-955.31396484375
 20
-23.8504981994629
 30
0.0
 11
-955.31396484375
 21
-20.3815879821777
 31
0.0
  0
LINE
  5
   616
  8
0
  6
CONTINUOUS
 62
     7
 10
-955.31397188625
 20
-27.8194034460765
 30
0.0
 11
-955.313964256862
 21
-27.3504932287931
 31
0.0
  0
LINE
  5
   617
  8
0
  6
CONTINUOUS
 62
     2
 10
-955.81396484375
 20
-19.8504981994629
 30
0.0
 11
-956.81396484375
 21
-19.8504981994629
 31
0.0
  0
LINE
  5
   618
  8
0
  6
CONTINUOUS
 62
     2
 10
-955.81396484375
 20
-17.1004981994629
 30
0.0
 11
-956.81396484375
 21
-17.1004981994629
 31
0.0
  0
LINE
  5
   619
  8
0
  6
CONTINUOUS
 62
     7
 10
-919.813998536932
 20
-27.3504786863662
 30
0.0
 11
-920.31399089124
 21
-26.8504863320586
 31
0.0
  0
LINE
  5
   61A
  8
0
  6
CONTINUOUS
 62
     7
 10
-920.313986420802
 20
-21.3504974984846
 30
0.0
 11
-919.813986437916
 21
-20.8504975155989
 31
0.0
  0
LINE
  5
   61B
  8
0
  6
CONTINUOUS
 62
     7
 10
-921.563987731934
 20
1.39949417114258
 30
0.0
 11
-921.563987731934
 21
2.39949417114258
 31
0.0
  0
LINE
  5
   61C
  8
0
  6
CONTINUOUS
 62
     2
 10
-954.81396484375
 20
-37.1004829406732
 30
0.0
 11
-956.81396484375
 21
-37.1004829406732
 31
0.0
  0
LINE
  5
   61D
  8
0
  6
CONTINUOUS
 62
     7
 10
-955.813980102539
 20
-30.1004981994629
 30
0.0
 11
-955.813980102539
 21
-28.1004981994629
 31
0.0
  0
LINE
  5
   61E
  8
0
  6
CONTINUOUS
 62
     7
 10
-919.813987731934
 20
-34.6004829406738
 30
0.0
 11
-924.813980102539
 21
-34.6004829406738
 31
0.0
  0
LINE
  5
   61F
  8
0
  6
CONTINUOUS
 62
     7
 10
-924.813980102539
 20
-37.1004829406738
 30
0.0
 11
-924.813980102539
 21
-34.6004829406738
 31
0.0
  0
LINE
  5
   620
  8
0
  6
CONTINUOUS
 62
     7
 10
-955.813980102539
 20
-35.8504734802425
 30
0.0
 11
-955.813980102539
 21
-30.1004981994629
 31
0.0
  0
LINE
  5
   621
  8
0
  6
CONTINUOUS
 62
     2
 10
-955.813980102539
 20
34.399471282959
 30
0.0
 11
-956.06396484375
 21
34.399471282959
 31
0.0
  0
LINE
  5
   622
  8
0
  6
CONTINUOUS
 62
     7
 10
-955.813972473145
 20
-0.850498199462891
 30
0.0
 11
-956.06396484375
 21
-0.850498199462891
 31
0.0
  0
LINE
  5
   623
  8
0
  6
CONTINUOUS
 62
     7
 10
-955.81396484375
 20
-16.8504962921143
 30
0.0
 11
-956.06396484375
 21
-16.8504962921143
 31
0.0
  0
LINE
  5
   624
  8
0
  6
CONTINUOUS
 62
     7
 10
-955.31396484375
 20
-20.6004977226257
 30
0.0
 11
-956.06396484375
 21
-20.6004977226257
 31
0.0
  0
LINE
  5
   625
  8
0
  6
CONTINUOUS
 62
     7
 10
-955.813980102539
 20
-28.6004905700684
 30
0.0
 11
-956.06396484375
 21
-28.6004905700684
 31
0.0
  0
LINE
  5
   626
  8
0
  6
CONTINUOUS
 62
     2
 10
-956.06396484375
 20
-35.4004781652176
 30
0.0
 11
-956.06396484375
 21
-19.8505058288574
 31
0.0
  0
LINE
  5
   627
  8
0
  6
CONTINUOUS
 62
     2
 10
-956.06396484375
 20
-17.1005058288574
 30
0.0
 11
-956.06396484375
 21
34.3994636535645
 31
0.0
  0
LINE
  5
   628
  8
0
  6
CONTINUOUS
 62
     7
 10
-955.31396484375
 20
24.8994941711426
 30
0.0
 11
-955.31396484375
 21
32.399471282959
 31
0.0
  0
LINE
  5
   629
  8
0
  6
CONTINUOUS
 62
     7
 10
-955.31396484375
 20
7.39951705932617
 30
0.0
 11
-955.31396484375
 21
14.8995094299316
 31
0.0
  0
LINE
  5
   62A
  8
0
  6
CONTINUOUS
 62
     7
 10
-955.31396484375
 20
-27.3504600524902
 30
0.0
 11
-955.31396484375
 21
-23.8504600524902
 31
0.0
  0
LINE
  5
   62B
  8
0
  6
CONTINUOUS
 62
     2
 10
-955.863968748266
 20
-35.6004742607015
 30
0.0
 11
-956.063965694203
 21
-35.4004773147646
 31
0.0
  0
LINE
  5
   62C
  8
0
  6
CONTINUOUS
 62
     2
 10
-955.81396484375
 20
42.399471282959
 30
0.0
 11
-956.81396484375
 21
42.399471282959
 31
0.0
  0
LINE
  5
   62D
  8
0
  6
CONTINUOUS
 62
     2
 10
-955.81396484375
 20
47.899471282959
 30
0.0
 11
-956.81396484375
 21
47.899471282959
 31
0.0
  0
LINE
  5
   62E
  8
0
  6
CONTINUOUS
 62
     2
 10
-955.81396484375
 20
46.5552940368652
 30
0.0
 11
-956.81396484375
 21
46.5552940368652
 31
0.0
  0
LINE
  5
   62F
  8
0
  6
CONTINUOUS
 62
     2
 10
-955.81396484375
 20
44.7067832946777
 30
0.0
 11
-956.81396484375
 21
44.7067832946777
 31
0.0
  0
LINE
  5
   630
  8
0
  6
CONTINUOUS
 62
     7
 10
-921.313995361329
 20
8.64946919431684
 30
0.0
 11
-921.313995361329
 21
35.8994920825004
 31
0.0
  0
LINE
  5
   631
  8
0
  6
CONTINUOUS
 62
     7
 10
-907.314018249517
 20
43.8994858296837
 30
0.0
 11
-907.314018249517
 21
55.8994858296837
 31
0.0
  0
LINE
  5
   632
  8
0
  6
CONTINUOUS
 62
     7
 10
-907.313980102539
 20
43.8994883727851
 30
0.0
 11
-907.563980102539
 21
43.8994883727851
 31
0.0
  0
LINE
  5
   633
  8
0
  6
CONTINUOUS
 62
     7
 10
-907.563980102539
 20
43.6494883727851
 30
0.0
 11
-907.563980102539
 21
43.8994883727851
 31
0.0
  0
LINE
  5
   634
  8
0
  6
CONTINUOUS
 62
     7
 10
-919.813980102539
 20
43.1494807433905
 30
0.0
 11
-919.813980102539
 21
43.6494883727851
 31
0.0
  0
LINE
  5
   635
  8
0
  6
CONTINUOUS
 62
     7
 10
-919.813986918848
 20
54.4994786748299
 30
0.0
 11
-919.813979289453
 21
55.8994954592364
 31
0.0
  0
LINE
  5
   636
  8
0
  6
CONTINUOUS
 62
     7
 10
-907.313976287847
 20
55.899503631566
 30
0.0
 11
-919.813976287847
 21
55.899503631566
 31
0.0
  0
LINE
  5
   637
  8
0
  6
CONTINUOUS
 62
     7
 10
-908.563980102539
 20
43.6494883727851
 30
0.0
 11
-908.713981628418
 21
43.6494883727851
 31
0.0
  0
LINE
  5
   638
  8
0
  6
CONTINUOUS
 62
     7
 10
-919.813980102539
 20
43.1494960021796
 30
0.0
 11
-921.313980102539
 21
43.1494960021796
 31
0.0
  0
LINE
  5
   639
  8
0
  6
CONTINUOUS
 62
     7
 10
-921.313980102539
 20
35.8994960021796
 30
0.0
 11
-921.313980102539
 21
43.1494960021796
 31
0.0
  0
LINE
  5
   63A
  8
0
  6
CONTINUOUS
 62
     7
 10
-919.814002990723
 20
-34.1004963684259
 30
0.0
 11
-919.814002990723
 21
-30.4621907043634
 31
0.0
  0
LINE
  5
   63B
  8
0
  6
CONTINUOUS
 62
     7
 10
-921.313987731934
 20
2.64948837278507
 30
0.0
 11
-921.313987731934
 21
8.64947311399601
 31
0.0
  0
LINE
  5
   63C
  8
0
  6
CONTINUOUS
 62
     7
 10
-921.313987731934
 20
1.39947311399602
 30
0.0
 11
-921.813987731934
 21
1.39947311399602
 31
0.0
  0
LINE
  5
   63D
  8
0
  6
CONTINUOUS
 62
     7
 10
-908.713997265226
 20
-35.6004811096262
 30
0.0
 11
-919.814003368741
 21
-35.6004811096262
 31
0.0
  0
LINE
  5
   63E
  8
0
  6
CONTINUOUS
 62
     7
 10
-919.814002990723
 20
-35.6004963684259
 30
0.0
 11
-919.814002990723
 21
-34.1004963684259
 31
0.0
  0
LINE
  5
   63F
  8
0
  6
CONTINUOUS
 62
     7
 10
-919.813995361328
 20
-30.4621907043634
 30
0.0
 11
-919.813995361328
 21
-26.9754917632841
 31
0.0
  0
LINE
  5
   640
  8
0
  6
CONTINUOUS
 62
     7
 10
-908.564002990723
 20
-37.1005039978204
 30
0.0
 11
-908.564002990723
 21
-35.6005039978204
 31
0.0
  0
LINE
  5
   641
  8
0
  6
CONTINUOUS
 62
     7
 10
-908.564002990723
 20
-35.6005039978204
 30
0.0
 11
-908.713996857405
 21
-35.6005039978204
 31
0.0
  0
LINE
  5
   642
  8
0
  6
CONTINUOUS
 62
     7
 10
-921.813987731934
 20
1.39947311399602
 30
0.0
 11
-923.813987731934
 21
1.39947311399602
 31
0.0
  0
LINE
  5
   643
  8
0
  6
CONTINUOUS
 62
     7
 10
-921.313987731934
 20
1.39947311399602
 30
0.0
 11
-921.313987731934
 21
2.64948837278507
 31
0.0
  0
LINE
  5
   644
  8
0
  6
CONTINUOUS
 62
     7
 10
-908.713998966384
 20
-26.9754811096282
 30
0.0
 11
-919.813997440505
 21
-26.9754811096282
 31
0.0
  0
LINE
  5
   645
  8
0
  6
CONTINUOUS
 62
     7
 10
-908.714002643615
 20
-21.2254811096296
 30
0.0
 11
-919.814001117736
 21
-21.2254811096296
 31
0.0
  0
LINE
  5
   646
  8
0
  6
CONTINUOUS
 62
     7
 10
-919.164482637667
 20
-33.7254878100963
 30
0.0
 11
-919.064003527433
 21
-33.3504878152735
 31
0.0
  0
LINE
  5
   647
  8
0
  6
CONTINUOUS
 62
     7
 10
-919.438998319782
 20
-34.0000123428259
 30
0.0
 11
-919.164485093282
 21
-33.7254914801067
 31
0.0
  0
LINE
  5
   648
  8
0
  6
CONTINUOUS
 62
     7
 10
-919.814011633421
 20
-34.1004846505859
 30
0.0
 11
-919.439004019148
 21
-34.0000055327045
 31
0.0
  0
LINE
  5
   649
  8
0
  6
CONTINUOUS
 62
     7
 10
-919.438999841264
 20
-28.2009744061789
 30
0.0
 11
-919.813999838514
 21
-28.1004876596516
 31
0.0
  0
LINE
  5
   64A
  8
0
  6
CONTINUOUS
 62
     7
 10
-919.164487250923
 20
-28.4754918348878
 30
0.0
 11
-919.439000481243
 21
-28.2009786045679
 31
0.0
  0
LINE
  5
   64B
  8
0
  6
CONTINUOUS
 62
     7
 10
-919.064008717354
 20
-28.8504911397217
 30
0.0
 11
-919.164495463882
 21
-28.4754911424714
 31
0.0
  0
LINE
  5
   64C
  8
0
  6
CONTINUOUS
 62
     7
 10
-919.064007229258
 20
-33.3504934020593
 30
0.0
 11
-919.063999599864
 21
-28.8504934022218
 31
0.0
  0
LINE
  5
   64D
  8
0
  6
CONTINUOUS
 62
     7
 10
-908.713996887208
 20
-35.6005039978204
 30
0.0
 11
-908.713996887208
 21
43.6494821163924
 31
0.0
  0
LINE
  5
   64E
  8
0
  6
CONTINUOUS
 62
     7
 10
-908.714027404792
 20
43.649484927302
 30
0.0
 11
-908.714027404792
 21
54.4994910308177
 31
0.0
  0
LINE
  5
   64F
  8
0
  6
CONTINUOUS
 62
     7
 10
-919.813980102539
 20
43.6494960021796
 30
0.0
 11
-919.813980102539
 21
54.4994944763007
 31
0.0
  0
LINE
  5
   650
  8
0
  6
CONTINUOUS
 62
     7
 10
-900.563972473145
 20
-32.9754734802423
 30
0.0
 11
-900.563972473145
 21
-23.4754981994629
 31
0.0
  0
LINE
  5
   651
  8
0
  6
CONTINUOUS
 62
     7
 10
-900.563972473145
 20
18.3995112609687
 30
0.0
 11
-900.563972473145
 21
18.5245112609687
 31
0.0
  0
LINE
  5
   652
  8
0
  6
CONTINUOUS
 62
     7
 10
-903.313972473145
 20
19.5245112609687
 30
0.0
 11
-905.063972473144
 21
19.5245112609687
 31
0.0
  0
LINE
  5
   653
  8
0
  6
CONTINUOUS
 62
     7
 10
-903.313972473145
 20
-32.9754734802423
 30
0.0
 11
-905.063972473144
 21
-32.9754734802423
 31
0.0
  0
LINE
  5
   654
  8
0
  6
CONTINUOUS
 62
     7
 10
-908.563972473145
 20
-41.1004734802423
 30
0.0
 11
-908.563972473145
 21
-35.6005039978204
 31
0.0
  0
LINE
  5
   655
  8
0
  6
CONTINUOUS
 62
     7
 10
-906.063972473145
 20
-41.1004734802423
 30
0.0
 11
-906.063972473145
 21
-32.9754734802423
 31
0.0
  0
LINE
  5
   656
  8
0
  6
CONTINUOUS
 62
     7
 10
-906.063972473145
 20
19.5245112609687
 30
0.0
 11
-906.063972473145
 21
43.6495112609687
 31
0.0
  0
LINE
  5
   657
  8
0
  6
CONTINUOUS
 62
     7
 10
-906.063972473145
 20
43.6495112609687
 30
0.0
 11
-908.563972473145
 21
43.6495112609687
 31
0.0
  0
LINE
  5
   658
  8
0
  6
CONTINUOUS
 62
     7
 10
-906.063972473145
 20
-41.1004734802423
 30
0.0
 11
-908.563972473145
 21
-41.1004734802423
 31
0.0
  0
LINE
  5
   659
  8
0
  6
CONTINUOUS
 62
     7
 10
-905.063972473144
 20
-32.9754734802423
 30
0.0
 11
-905.063972473144
 21
19.5245112609687
 31
0.0
  0
LINE
  5
   65A
  8
0
  6
CONTINUOUS
 62
     7
 10
-905.063972473144
 20
-32.9754734802423
 30
0.0
 11
-906.063972473145
 21
-32.9754734802423
 31
0.0
  0
LINE
  5
   65B
  8
0
  6
CONTINUOUS
 62
     7
 10
-905.063972473144
 20
19.5245112609687
 30
0.0
 11
-906.063972473145
 21
19.5245112609687
 31
0.0
  0
LINE
  5
   65C
  8
0
  6
CONTINUOUS
 62
     7
 10
-908.714008467322
 20
-20.9505116756117
 30
0.0
 11
-908.564006948399
 21
-20.9373891186243
 31
0.0
  0
LINE
  5
   65D
  8
0
  6
CONTINUOUS
 62
     7
 10
-908.563981162363
 20
-27.2636243911671
 30
0.0
 11
-908.713982685481
 21
-27.2504942047608
 31
0.0
  0
LINE
  5
   65E
  8
0
  6
CONTINUOUS
 62
     7
 10
-919.813995361328
 20
-21.2254917632828
 30
0.0
 11
-919.813995361328
 21
-19.8505116272149
 31
0.0
  0
LINE
  5
   65F
  8
0
  6
CONTINUOUS
 62
     2
 10
-954.81396484375
 20
-35.8504734802425
 30
0.0
 11
-956.81396484375
 21
-35.8504734802425
 31
0.0
  0
LINE
  5
   660
  8
0
  6
CONTINUOUS
 62
     7
 10
-908.713966369629
 20
-35.8504734802425
 30
0.0
 11
-917.313972473145
 21
-35.8504734802425
 31
0.0
  0
LINE
  5
   661
  8
0
  6
CONTINUOUS
 62
   218
 10
-907.31396484375
 20
-71.1004734802425
 30
0.0
 11
-907.31396484375
 21
-59.100481109637
 31
0.0
  0
LINE
  5
   662
  8
0
  6
CONTINUOUS
 62
     2
 10
-954.81396484375
 20
-37.1004734802425
 30
0.0
 11
-954.81396484375
 21
-35.8504734802425
 31
0.0
  0
LINE
  5
   663
  8
0
  6
CONTINUOUS
 62
   218
 10
-908.71397047064
 20
-57.1004811100848
 30
0.0
 11
-908.563972473176
 21
-57.100479349483
 31
0.0
  0
LINE
  5
   664
  8
0
  6
CONTINUOUS
 62
   218
 10
-907.31396484375
 20
-59.100481109637
 30
0.0
 11
-908.713966369629
 21
-59.100481109637
 31
0.0
  0
LINE
  5
   665
  8
0
  6
CONTINUOUS
 62
   218
 10
-908.713966369629
 20
-69.7004719543636
 30
0.0
 11
-908.713966369629
 21
-57.1004734802425
 31
0.0
  0
LINE
  5
   666
  8
0
  6
CONTINUOUS
 62
   218
 10
-908.713966369629
 20
-57.1004734802425
 30
0.0
 11
-908.713966369629
 21
-35.8504734802425
 31
0.0
  0
LINE
  5
   667
  8
0
  6
CONTINUOUS
 62
     7
 10
-908.563972473145
 20
-41.6004734802425
 30
0.0
 11
-908.713966369629
 21
-41.6004734802425
 31
0.0
  0
LINE
  5
   668
  8
0
  6
CONTINUOUS
 62
   218
 10
-956.813964843696
 20
-54.1004811091423
 30
0.0
 11
-955.813965320556
 21
-54.1004734797477
 31
0.0
  0
LINE
  5
   669
  8
0
  6
CONTINUOUS
 62
   218
 10
-955.813965320587
 20
-71.1004734802423
 30
0.0
 11
-955.813965320587
 21
-54.1004811096368
 31
0.0
  0
LINE
  5
   66A
  8
0
  6
CONTINUOUS
 62
   218
 10
-955.81396484375
 20
-59.475481109637
 30
0.0
 11
-956.81396484375
 21
-59.475481109637
 31
0.0
  0
LINE
  5
   66B
  8
0
  6
CONTINUOUS
 62
     7
 10
-919.813978194114
 20
-35.8504734781803
 30
0.0
 11
-919.813970564719
 21
-34.8504734781654
 31
0.0
  0
LINE
  5
   66C
  8
0
  6
CONTINUOUS
 62
     7
 10
-919.81396484375
 20
-34.8504734802425
 30
0.0
 11
-924.81396484375
 21
-34.8504734802425
 31
0.0
  0
LINE
  5
   66D
  8
0
  6
CONTINUOUS
 62
     7
 10
-917.313972473145
 20
-35.8504734802425
 30
0.0
 11
-919.813972473145
 21
-35.8504734802425
 31
0.0
  0
LINE
  5
   66E
  8
0
  6
CONTINUOUS
 62
   218
 10
-955.81396484375
 20
-63.8342767524898
 30
0.0
 11
-956.81396484375
 21
-63.8342767524898
 31
0.0
  0
LINE
  5
   66F
  8
0
  6
CONTINUOUS
 62
   218
 10
-955.81396484375
 20
-62.6077824402034
 30
0.0
 11
-956.81396484375
 21
-62.6077824402034
 31
0.0
  0
LINE
  5
   670
  8
0
  6
CONTINUOUS
 62
   218
 10
-955.81396484375
 20
-59.5393696594417
 30
0.0
 11
-956.81396484375
 21
-59.5393696594417
 31
0.0
  0
LINE
  5
   671
  8
0
  6
CONTINUOUS
 62
     7
 10
-906.063972473145
 20
-41.3504734802423
 30
0.0
 11
-908.563972473145
 21
-41.3504734802423
 31
0.0
  0
LINE
  5
   672
  8
0
  6
CONTINUOUS
 62
     7
 10
-906.063972473145
 20
-58.8504734802423
 30
0.0
 11
-908.563972473145
 21
-58.8504734802423
 31
0.0
  0
LINE
  5
   673
  8
0
  6
CONTINUOUS
 62
     7
 10
-906.063972473145
 20
-58.8504734802423
 30
0.0
 11
-906.063972473145
 21
-41.3504734802423
 31
0.0
  0
LINE
  5
   674
  8
0
  6
CONTINUOUS
 62
     7
 10
-907.063972473145
 20
-58.8504734802423
 30
0.0
 11
-907.063972473145
 21
-41.3504734802423
 31
0.0
  0
LINE
  5
   675
  8
0
  6
CONTINUOUS
 62
     7
 10
-908.563972473145
 20
-58.8504734802423
 30
0.0
 11
-908.563972473145
 21
-41.3504734802423
 31
0.0
  0
ARC
  5
   676
  8
0
  6
CONTINUOUS
 62
     7
 10
-890.226446087888
 20
-17.7474142127737
 30
0.0
 40
0.499999897877905
 50
348.623573369035
 51
436.688788706936
  0
ARC
  5
   677
  8
0
  6
CONTINUOUS
 62
     7
 10
-890.824818287807
 20
-20.7213231967726
 30
0.0
 40
0.50000037262337
 50
260.593992196011
 51
348.623573369035
  0
LINE
  5
   678
  8
0
  6
DASHDOT
 62
     7
 10
-882.826153762114
 20
-20.801744850671
 30
0.0
 11
-907.884496996568
 21
-15.7598246827727
 31
0.0
  0
LINE
  5
   679
  8
0
  6
CONTINUOUS
 62
     7
 10
-890.111326115542
 20
-17.260847743075
 30
0.0
 11
-900.563972473145
 21
-14.7877871551032
 31
0.0
  0
LINE
  5
   67A
  8
0
  6
CONTINUOUS
 62
     7
 10
-890.334641842926
 20
-20.8199502480563
 30
0.0
 11
-889.736269807301
 21
-17.8460412310005
 31
0.0
  0
LINE
  5
   67B
  8
0
  6
CONTINUOUS
 62
     7
 10
-890.9065330264
 20
-21.214600919644
 30
0.0
 11
-900.563972473145
 21
-19.6147817847427
 31
0.0
  0
LINE
  5
   67C
  8
0
  6
CONTINUOUS
 62
     7
 10
-954.313996887208
 20
-26.8504981994629
 30
0.0
 11
-954.313996887208
 21
-21.3504981994629
 31
0.0
  0
LINE
  5
   67D
  8
0
  6
DASHDOT
 62
     7
 10
-936.462006025827
 20
46.8995197513873
 30
0.0
 11
-950.528648043265
 21
46.8995197513873
 31
0.0
  0
LINE
  5
   67E
  8
0
  6
CONTINUOUS
 62
     7
 10
-939.23404647863
 20
36.6538832217577
 30
0.0
 11
-937.718797989803
 21
39.9972056938791
 31
0.0
  0
LINE
  5
   67F
  8
0
  6
CONTINUOUS
 62
     2
 10
-955.814045710665
 20
46.5552940368652
 30
0.0
 11
-955.814045710665
 21
55.899493632603
 31
0.0
  0
LINE
  5
   680
  8
0
  6
DASHDOT
 62
     7
 10
-956.81396484375
 20
-80.69183167959
 30
0.0
 11
-956.81396484375
 21
64.4555993225994
 31
0.0
  0
LINE
  5
   681
  8
0
  6
DASHDOT
 62
     7
 10
-958.31396484375
 20
-80.69183167959
 30
0.0
 11
-958.31396484375
 21
64.4555993225994
 31
0.0
  0
LINE
  5
   682
  8
0
  6
CONTINUOUS
 62
     7
 10
-955.249104218183
 20
64.4555993225994
 30
0.0
 11
-960.318000090211
 21
64.4555993225994
 31
0.0
  0
LINE
  5
   683
  8
0
  6
CONTINUOUS
 62
     7
 10
-953.438784263888
 20
-80.69183167959
 30
0.0
 11
-962.731760029272
 21
-80.69183167959
 31
0.0
  0
ARC
  5
   684
  8
0
  6
CONTINUOUS
 62
     7
 10
-927.313972473145
 20
-11.8504734802423
 30
0.0
 40
38.0220413050115
 50
333.082565820193
 51
379.93594827737
  0
LINE
  5
   685
  8
0
  6
CONTINUOUS
 62
     7
 10
-889.291931168133
 20
-11.8504734802423
 30
0.0
 11
-889.291931168133
 21
9.82416603519
 31
0.0
  0
LINE
  5
   686
  8
0
  6
CONTINUOUS
 62
     7
 10
-939.23404647863
 20
36.6538832217577
 30
0.0
 11
-958.018049724864
 21
36.6538832217577
 31
0.0
  0
LINE
  5
   687
  8
0
  6
DASHDOT
 62
     7
 10
-936.462006025827
 20
-62.1005314091021
 30
0.0
 11
-950.528648043265
 21
-62.1005314091021
 31
0.0
  0
LINE
  5
   688
  8
0
  6
CONTINUOUS
 62
   218
 10
-907.313965320587
 20
-71.1004734802423
 30
0.0
 11
-946.313976512303
 21
-71.1004734802423
 31
0.0
  0
LINE
  5
   689
  8
0
  6
CONTINUOUS
 62
     7
 10
-924.813980102539
 20
-37.1004829406732
 30
0.0
 11
-954.81396484375
 21
-37.1004829406732
 31
0.0
  0
LINE
  5
   68A
  8
0
  6
CONTINUOUS
 62
     7
 10
-900.563972473145
 20
0.274501800537109
 30
0.0
 11
-900.563972473145
 21
19.5245112609687
 31
0.0
  0
LINE
  5
   68B
  8
0
  6
CONTINUOUS
 62
     7
 10
-900.563972473145
 20
-6.22549819946289
 30
0.0
 11
-900.563972473145
 21
-0.225498199462891
 31
0.0
  0
LINE
  5
   68C
  8
0
  6
CONTINUOUS
 62
     7
 10
-900.563972473145
 20
-16.4754925583739
 30
0.0
 11
-900.563972473145
 21
-6.72549819946289
 31
0.0
  0
LINE
  5
   68D
  8
0
  6
CONTINUOUS
 62
     7
 10
-900.563972473145
 20
-22.9754981994629
 30
0.0
 11
-900.563972473145
 21
-16.9754925583739
 31
0.0
  0
LINE
  5
   68E
  8
0
  6
CONTINUOUS
 62
     1
 10
-903.313972473145
 20
-34.2287311553955
 30
0.0
 11
-903.313972473145
 21
-33.2287311553955
 31
0.0
  0
LINE
  5
   68F
  8
0
  6
CONTINUOUS
 62
     1
 10
-902.313972473145
 20
-34.2287311553955
 30
0.0
 11
-903.313972473145
 21
-34.2287311553955
 31
0.0
  0
LINE
  5
   690
  8
0
  6
CONTINUOUS
 62
     1
 10
-903.313972473145
 20
-33.2287311553955
 30
0.0
 11
-903.313972473145
 21
20.7712669372559
 31
0.0
  0
LINE
  5
   691
  8
0
  6
CONTINUOUS
 62
     1
 10
-902.313972473145
 20
20.7712669372559
 30
0.0
 11
-903.313972473145
 21
20.7712669372559
 31
0.0
  0
LINE
  5
   692
  8
0
  6
CONTINUOUS
 62
     1
 10
-905.563972383738
 20
27.5599403381348
 30
0.0
 11
-905.563972383738
 21
29.982593536377
 31
0.0
  0
LINE
  5
   693
  8
0
  6
CONTINUOUS
 62
     1
 10
-905.563972383738
 20
-43.440055847168
 30
0.0
 11
-905.563972383738
 21
-41.017406463623
 31
0.0
  0
LINE
  5
   694
  8
0
  6
CONTINUOUS
 62
     1
 10
-902.313972473145
 20
-47.4787311553955
 30
0.0
 11
-902.313972473145
 21
34.0212688446045
 31
0.0
  0
LINE
  5
   695
  8
0
  6
CONTINUOUS
 62
     1
 10
-900.563972473145
 20
-47.4787311553955
 30
0.0
 11
-902.313972473145
 21
-47.4787311553955
 31
0.0
  0
LINE
  5
   696
  8
0
  6
CONTINUOUS
 62
     1
 10
-900.563972473145
 20
-47.4787330627441
 30
0.0
 11
-900.563972473145
 21
34.0212669372559
 31
0.0
  0
LINE
  5
   697
  8
0
  6
CONTINUOUS
 62
     1
 10
-900.563972473145
 20
34.0212669372559
 30
0.0
 11
-901.063972473145
 21
34.0212669372559
 31
0.0
  0
LINE
  5
   698
  8
0
  6
CONTINUOUS
 62
     1
 10
-901.563972473145
 20
34.0212669372559
 30
0.0
 11
-902.313972473145
 21
34.0212669372559
 31
0.0
  0
LINE
  5
   699
  8
0
  6
CONTINUOUS
 62
     1
 10
-902.313972473145
 20
27.2712669372559
 30
0.0
 11
-905.063972390588
 21
27.2712669372559
 31
0.0
  0
LINE
  5
   69A
  8
0
  6
CONTINUOUS
 62
     1
 10
-902.313972473145
 20
30.2712669372559
 30
0.0
 11
-905.063972390588
 21
30.2712669372559
 31
0.0
  0
LINE
  5
   69B
  8
0
  6
CONTINUOUS
 62
     1
 10
-905.063972390588
 20
27.2712669372559
 30
0.0
 11
-905.063972390588
 21
27.3854484558106
 31
0.0
  0
LINE
  5
   69C
  8
0
  6
CONTINUOUS
 62
     1
 10
-905.063971992726
 20
27.2712657887251
 30
0.0
 11
-905.563972009189
 21
27.5599391932233
 31
0.0
  0
LINE
  5
   69D
  8
0
  6
CONTINUOUS
 62
     1
 10
-905.063972390588
 20
27.2712669372559
 30
0.0
 11
-905.063972390588
 21
27.7106056213379
 31
0.0
  0
LINE
  5
   69E
  8
0
  6
CONTINUOUS
 62
     1
 10
-905.063972390588
 20
27.7106056213379
 30
0.0
 11
-905.063972390588
 21
28.1972465515137
 31
0.0
  0
LINE
  5
   69F
  8
0
  6
CONTINUOUS
 62
     1
 10
-905.063972390588
 20
28.1972465515137
 30
0.0
 11
-905.063972390588
 21
28.7712669372559
 31
0.0
  0
LINE
  5
   6A0
  8
0
  6
CONTINUOUS
 62
     1
 10
-905.063972390588
 20
28.7712669372559
 30
0.0
 11
-905.063972390588
 21
29.3452949523926
 31
0.0
  0
LINE
  5
   6A1
  8
0
  6
CONTINUOUS
 62
     1
 10
-905.063972390588
 20
29.3452949523926
 30
0.0
 11
-905.063972390588
 21
29.8319282531738
 31
0.0
  0
LINE
  5
   6A2
  8
0
  6
CONTINUOUS
 62
     1
 10
-905.063972390588
 20
29.8319282531738
 30
0.0
 11
-905.063972390588
 21
30.2712669372559
 31
0.0
  0
LINE
  5
   6A3
  8
0
  6
CONTINUOUS
 62
     1
 10
-905.063972390588
 20
30.1570854187012
 30
0.0
 11
-905.063972390588
 21
30.2712669372559
 31
0.0
  0
LINE
  5
   6A4
  8
0
  6
CONTINUOUS
 62
     1
 10
-905.563972818327
 20
29.982592345508
 30
0.0
 11
-905.063972801863
 21
30.2712657500062
 31
0.0
  0
LINE
  5
   6A5
  8
0
  6
CONTINUOUS
 62
     1
 10
-902.313972473145
 20
-40.7287311553955
 30
0.0
 11
-905.063971388032
 21
-40.7287311553955
 31
0.0
  0
LINE
  5
   6A6
  8
0
  6
CONTINUOUS
 62
     1
 10
-902.313972473145
 20
-43.7287311553955
 30
0.0
 11
-905.063973229813
 21
-43.7287311553955
 31
0.0
  0
LINE
  5
   6A7
  8
0
  6
CONTINUOUS
 62
     1
 10
-905.563972644812
 20
-41.0174071637489
 30
0.0
 11
-905.063972628348
 21
-40.7287318714924
 31
0.0
  0
LINE
  5
   6A8
  8
0
  6
CONTINUOUS
 62
     1
 10
-905.06397237393
 20
-43.7287316495398
 30
0.0
 11
-905.06397237393
 21
-40.7287311553955
 31
0.0
  0
LINE
  5
   6A9
  8
0
  6
CONTINUOUS
 62
     1
 10
-905.063972166768
 20
-43.728731769145
 30
0.0
 11
-905.563972183232
 21
-43.4400564768885
 31
0.0
  0
LINE
  5
   6AA
  8
0
  6
CONTINUOUS
 62
     1
 10
-956.813938995329
 20
-43.7287311553955
 30
0.0
 11
-956.813938995329
 21
-43.6145496368408
 31
0.0
  0
LINE
  5
   6AB
  8
0
  6
CONTINUOUS
 62
     1
 10
-901.063972473145
 20
34.0212669372559
 30
0.0
 11
-901.563972473145
 21
34.0212669372559
 31
0.0
  0
LINE
  5
   6AC
  8
0
  6
CONTINUOUS
 62
     7
 10
-903.313972473145
 20
20.7712669372558
 30
0.0
 11
-903.313972473145
 21
27.2712669372559
 31
0.0
  0
LINE
  5
   6AD
  8
0
  6
CONTINUOUS
 62
     7
 10
-902.313972473145
 20
34.0212669372559
 30
0.0
 11
-902.313972473145
 21
68.3367863755881
 31
0.0
  0
LINE
  5
   6AE
  8
0
  6
CONTINUOUS
 62
     7
 10
-903.313972473145
 20
-84.2276651675671
 30
0.0
 11
-903.313972473145
 21
-43.7287311553955
 31
0.0
  0
LINE
  5
   6AF
  8
0
  6
CONTINUOUS
 62
     7
 10
-902.313972473145
 20
-83.7917677316697
 30
0.0
 11
-902.313972473145
 21
-47.4787311553955
 31
0.0
  0
LINE
  5
   6B0
  8
0
  6
CONTINUOUS
 62
     7
 10
-905.888587032406
 20
-85.3499330523732
 30
0.0
 11
-899.261819010314
 21
-82.4613418632562
 31
0.0
  0
LINE
  5
   6B1
  8
0
  6
CONTINUOUS
 62
     7
 10
-905.45888077941
 20
66.3171204908308
 30
0.0
 11
-899.729091114436
 21
69.9968019270527
 31
0.0
  0
LINE
  5
   6B2
  8
0
  6
CONTINUOUS
 62
     7
 10
-902.313972473145
 20
21.2712669372559
 30
0.0
 11
-903.313972473145
 21
21.2712669372559
 31
0.0
  0
LINE
  5
   6B3
  8
0
  6
CONTINUOUS
 62
     7
 10
-902.313972473145
 20
-34.7287311553955
 30
0.0
 11
-903.313972473145
 21
-34.7287311553955
 31
0.0
  0
LINE
  5
   6B4
  8
0
  6
CONTINUOUS
 62
     7
 10
-902.313972473145
 20
-40.4787311553955
 30
0.0
 11
-903.313972473145
 21
-40.4787311553955
 31
0.0
  0
LINE
  5
   6B5
  8
0
  6
CONTINUOUS
 62
     7
 10
-902.313972473145
 20
-43.9787311553955
 30
0.0
 11
-903.313972473145
 21
-43.9787311553955
 31
0.0
  0
LINE
  5
   6B6
  8
0
  6
CONTINUOUS
 62
     7
 10
-902.313972473145
 20
30.5212669372559
 30
0.0
 11
-903.313972473145
 21
30.5212669372559
 31
0.0
  0
LINE
  5
   6B7
  8
0
  6
CONTINUOUS
 62
     7
 10
-902.313972473145
 20
27.0212669372559
 30
0.0
 11
-903.313972473145
 21
27.0212669372559
 31
0.0
  0
LINE
  5
   6B8
  8
0
  6
CONTINUOUS
 62
     7
 10
-903.313972473145
 20
30.2712669372559
 30
0.0
 11
-903.313972473145
 21
67.6945845407257
 31
0.0
  0
LINE
  5
   6B9
  8
0
  6
CONTINUOUS
 62
     7
 10
-903.313972473145
 20
-40.7287311553955
 30
0.0
 11
-903.313972473145
 21
-34.2287311553955
 31
0.0
  0
INSERT
  5
   6BA
  8
0
  6
CONTINUOUS
 62
     7
  2
*HATCH97
 10
-956.81396484375
 20
-61.7190437316895
 30
0.0
 41
0.5
 42
0.5
 50
89.9999999480344
 43
0.5
  0
INSERT
  5
   6BB
  8
0
  6
CONTINUOUS
 62
     7
  2
*HATCH98
 10
-956.81396484375
 20
-61.7190437316895
 30
0.0
 41
0.5
 42
0.5
 50
89.9999999480344
 43
0.5
  0
INSERT
  5
   6BC
  8
0
  6
CONTINUOUS
 62
     7
  2
*HATCH99
 10
-956.81396484375
 20
-61.7190437316895
 30
0.0
 41
0.5
 42
0.5
 50
89.9999999480344
 43
0.5
  0
INSERT
  5
   6BD
  8
0
  6
CONTINUOUS
 62
     7
  2
*HATCH100
 10
-956.81396484375
 20
-61.7190437316895
 30
0.0
 41
0.5
 42
0.5
 50
89.9999999480344
 43
0.5
  0
LINE
  5
   6BE
  8
0
  6
DASHDOT
 62
     3
 10
-861.508884814612
 20
-6.72548873903133
 30
0.0
 11
-866.396948415993
 21
-6.72548873903133
 31
0.0
  0
LINE
  5
   6BF
  8
0
  6
DASHDOT
 62
     3
 10
-874.016576971087
 20
-6.72548873903133
 30
0.0
 11
-990.755037098184
 21
-6.72548873903133
 31
0.0
  0
LINE
  5
   6C0
  8
0
  6
CONTINUOUS
 62
     7
 10
-917.631511657117
 20
39.997205693879
 30
0.0
 11
-937.718797989803
 21
39.997205693879
 31
0.0
  0
LINE
  5
   6C1
  8
0
  6
CONTINUOUS
 62
     7
 10
-917.631511657117
 20
39.997205693879
 30
0.0
 11
-911.949999486215
 21
59.2899202720124
 31
0.0
  0
LINE
  5
   6C2
  8
0
  6
CONTINUOUS
 62
     7
 10
-906.689018249518
 20
57.149503631566
 30
0.0
 11
-932.063993025752
 21
57.149503631566
 31
0.0
  0
LINE
  5
   6C3
  8
0
  6
CONTINUOUS
 62
     7
 10
-906.064018249518
 20
44.1495112609687
 30
0.0
 11
-906.064018249518
 21
56.524503631566
 31
0.0
  0
ARC
  5
   6C4
  8
0
  6
CONTINUOUS
 62
     7
 10
-906.689018249518
 20
56.524503631566
 30
0.0
 40
0.625
 50
359.999999948034
 51
449.999999948034
  0
LINE
  5
   6C5
  8
0
  6
CONTINUOUS
 62
     7
 10
-906.063972473145
 20
44.1495112609687
 30
0.0
 11
-906.564018249517
 21
44.1495112609687
 31
0.0
  0
LINE
  5
   6C6
  8
0
  6
CONTINUOUS
 62
     7
 10
-906.564018249517
 20
43.6495112609687
 30
0.0
 11
-906.564018249517
 21
44.1495112609687
 31
0.0
  0
LINE
  5
   6C7
  8
0
  6
CONTINUOUS
 62
     1
 10
-946.938976736714
 20
53.9995195053631
 30
0.0
 11
-946.438976753828
 21
54.4995194882488
 31
0.0
  0
LINE
  5
   6C8
  8
0
  6
CONTINUOUS
 62
     1
 10
-946.938976512303
 20
52.8995195874745
 30
0.0
 11
-946.938976512303
 21
57.1495197513873
 31
0.0
  0
LINE
  5
   6C9
  8
0
  6
CONTINUOUS
 62
     1
 10
-944.313977465977
 20
54.4995195368105
 30
0.0
 11
-946.438976512303
 21
54.4995195368105
 31
0.0
  0
LINE
  5
   6CA
  8
0
  6
CONTINUOUS
 62
     1
 10
-944.313977465977
 20
52.8995195129687
 30
0.0
 11
-946.938976512303
 21
52.8995195129687
 31
0.0
  0
LINE
  5
   6CB
  8
0
  6
CONTINUOUS
 62
     7
 10
-955.063976512303
 20
-71.1004734802423
 30
0.0
 11
-955.813965320587
 21
-71.1004734802423
 31
0.0
  0
LINE
  5
   6CC
  8
0
  6
DASHDOT
 62
     7
 10
-935.713977465977
 20
-62.1005314091021
 30
0.0
 11
-950.213977465977
 21
-62.1005314091021
 31
0.0
  0
LINE
  5
   6CD
  8
0
  6
DASHDOT
 62
     7
 10
-935.713977465977
 20
46.8995197513873
 30
0.0
 11
-950.213977465977
 21
46.8995197513873
 31
0.0
  0
LINE
  5
   6CE
  8
0
  6
DASHDOT
 62
     7
 10
-953.68160953509
 20
45.8995112609687
 30
0.0
 11
-965.489619605854
 21
45.8995112609687
 31
0.0
  0
LINE
  5
   6CF
  8
0
  6
CONTINUOUS
 62
     2
 10
-960.31396484375
 20
43.8995112609687
 30
0.0
 11
-960.31396484375
 21
47.8995112609687
 31
0.0
  0
LINE
  5
   6D0
  8
0
  6
CONTINUOUS
 62
     2
 10
-962.31396484375
 20
44.6495112609687
 30
0.0
 11
-962.31396484375
 21
47.1495112609687
 31
0.0
  0
LINE
  5
   6D1
  8
0
  6
CONTINUOUS
 62
     2
 10
-958.31396484375
 20
47.8995112609687
 30
0.0
 11
-960.31396484375
 21
47.8995112609687
 31
0.0
  0
LINE
  5
   6D2
  8
0
  6
CONTINUOUS
 62
     2
 10
-958.31396484375
 20
43.8995112609687
 30
0.0
 11
-960.31396484375
 21
43.8995112609687
 31
0.0
  0
LINE
  5
   6D3
  8
0
  6
CONTINUOUS
 62
     2
 10
-958.31396484375
 20
47.1495112609687
 30
0.0
 11
-962.31396484375
 21
47.1495112609687
 31
0.0
  0
LINE
  5
   6D4
  8
0
  6
CONTINUOUS
 62
     2
 10
-958.31396484375
 20
44.6495112609687
 30
0.0
 11
-962.31396484375
 21
44.6495112609687
 31
0.0
  0
LINE
  5
   6D5
  8
0
  6
CONTINUOUS
 62
     2
 10
-958.31396484375
 20
-59.1004887390313
 30
0.0
 11
-960.31396484375
 21
-59.1004887390313
 31
0.0
  0
LINE
  5
   6D6
  8
0
  6
CONTINUOUS
 62
     2
 10
-958.31396484375
 20
-59.8504887390313
 30
0.0
 11
-962.31396484375
 21
-59.8504887390313
 31
0.0
  0
LINE
  5
   6D7
  8
0
  6
DASHDOT
 62
     7
 10
-953.68160953509
 20
-61.1004887390313
 30
0.0
 11
-965.489619605854
 21
-61.1004887390313
 31
0.0
  0
LINE
  5
   6D8
  8
0
  6
CONTINUOUS
 62
     2
 10
-958.31396484375
 20
-62.3504887390313
 30
0.0
 11
-962.31396484375
 21
-62.3504887390313
 31
0.0
  0
LINE
  5
   6D9
  8
0
  6
CONTINUOUS
 62
     2
 10
-958.31396484375
 20
-63.1004887390313
 30
0.0
 11
-960.31396484375
 21
-63.1004887390313
 31
0.0
  0
LINE
  5
   6DA
  8
0
  6
CONTINUOUS
 62
     2
 10
-960.31396484375
 20
-63.1004887390313
 30
0.0
 11
-960.31396484375
 21
-59.1004887390313
 31
0.0
  0
LINE
  5
   6DB
  8
0
  6
CONTINUOUS
 62
     2
 10
-962.31396484375
 20
-62.3504887390313
 30
0.0
 11
-962.31396484375
 21
-59.8504887390313
 31
0.0
  0
LINE
  5
   6DC
  8
0
  6
DASHDOT
 62
     7
 10
-935.713977465977
 20
46.8995197513873
 30
0.0
 11
-950.213977465977
 21
46.8995197513873
 31
0.0
  0
LINE
  5
   6DD
  8
0
  6
CONTINUOUS
 62
     1
 10
-929.813977465977
 20
84.3995197513872
 30
0.0
 11
-932.313976028974
 21
84.3995197513872
 31
0.0
  0
LINE
  5
   6DE
  8
0
  6
CONTINUOUS
 62
     1
 10
-929.813977465977
 20
79.6495197513872
 30
0.0
 11
-932.313976028974
 21
79.6495197513872
 31
0.0
  0
LINE
  5
   6DF
  8
0
  6
CONTINUOUS
 62
     1
 10
-929.813977465977
 20
74.1495197513872
 30
0.0
 11
-932.313976028974
 21
74.1495197513872
 31
0.0
  0
LINE
  5
   6E0
  8
0
  6
CONTINUOUS
 62
     1
 10
-932.313976028974
 20
66.9259905819542
 30
0.0
 11
-932.313976028974
 21
84.3995197513872
 31
0.0
  0
LINE
  5
   6E1
  8
0
  6
CONTINUOUS
 62
     1
 10
-929.813977465977
 20
66.9268437912428
 30
0.0
 11
-929.813977465977
 21
84.3995197513872
 31
0.0
  0
POINT
  5
   6E2
  8
0
  6
CONTINUOUS
 62
     7
 10
-932.313976028974
 20
66.3061718956415
 30
0.0
  0
LINE
  5
   6E3
  8
0
  6
CONTINUOUS
 62
     1
 10
-942.29314138207
 20
61.3487403075812
 30
0.0
 11
-932.869072237632
 21
66.0304122121565
 31
0.0
  0
LINE
  5
   6E4
  8
0
  6
CONTINUOUS
 62
     1
 10
-941.236595727718
 20
59.0829708399895
 30
0.0
 11
-931.756814181894
 21
63.7923195040974
 31
0.0
  0
ARC
  5
   6E5
  8
0
  6
CONTINUOUS
 62
     1
 10
-940.813977465977
 20
58.1766630529529
 30
0.0
 40
3.5
 50
114.999999948035
 51
179.999999948034
  0
ARC
  5
   6E6
  8
0
  6
CONTINUOUS
 62
     1
 10
-940.813977465977
 20
58.1766630529528
 30
0.0
 40
1.0
 50
114.999999948035
 51
179.999999948034
  0
POINT
  5
   6E7
  8
0
  6
CONTINUOUS
 62
     7
 10
-941.813977465977
 20
58.7961401883961
 30
0.0
  0
LINE
  5
   6E8
  8
0
  6
CONTINUOUS
 62
     1
 10
-941.813977465977
 20
41.8995197513873
 30
0.0
 11
-941.813977465977
 21
58.1766630529528
 31
0.0
  0
LINE
  5
   6E9
  8
0
  6
CONTINUOUS
 62
     1
 10
-944.313977465977
 20
41.8995197513873
 30
0.0
 11
-944.313977465977
 21
58.1766630529529
 31
0.0
  0
INSERT
  5
   6EA
  8
0
  6
CONTINUOUS
 62
     2
  2
*HATCH101
 10
-956.81396484375
 20
-61.7190437316895
 30
0.0
 41
0.5
 42
0.5
 50
89.9999999480344
 43
0.5
  0
LINE
  5
   6EB
  8
0
  6
CONTINUOUS
 62
     1
 10
-941.813977465977
 20
41.8995197513873
 30
0.0
 11
-944.313977465977
 21
41.8995197513873
 31
0.0
  0
LINE
  5
   6EC
  8
0
  6
CONTINUOUS
 62
     1
 10
-941.813977465977
 20
44.3495197513873
 30
0.0
 11
-944.313977465977
 21
44.3495197513873
 31
0.0
  0
LINE
  5
   6ED
  8
0
  6
CONTINUOUS
 62
     1
 10
-941.813977465977
 20
49.4495197513872
 30
0.0
 11
-944.313977465977
 21
49.4495197513872
 31
0.0
  0
ARC
  5
   6EE
  8
0
  6
CONTINUOUS
 62
     1
 10
-933.313976028974
 20
66.9259905819542
 30
0.0
 40
1.0
 50
296.417183476869
 51
359.999999948034
  0
ARC
  5
   6EF
  8
0
  6
CONTINUOUS
 62
     1
 10
-933.313977465977
 20
66.9268437912428
 30
0.0
 40
3.5
 50
296.417183739838
 51
359.999999948034
  0
INSERT
  5
   6F0
  8
0
  6
CONTINUOUS
 62
     7
  2
*HATCH102
 10
-956.81396484375
 20
-61.7190437316895
 30
0.0
 41
0.5
 42
0.5
 50
89.9999999480344
 43
0.5
  0
INSERT
  5
   6F1
  8
0
  6
CONTINUOUS
 62
     7
  2
*HATCH103
 10
-956.81396484375
 20
-61.7190437316895
 30
0.0
 41
0.5
 42
0.5
 50
89.9999999480344
 43
0.5
  0
LINE
  5
   6F2
  8
0
  6
CONTINUOUS
 62
   210
 10
-946.813976512303
 20
57.1495197513873
 30
0.0
 11
-947.313976512303
 21
57.1495197513873
 31
0.0
  0
LINE
  5
   6F3
  8
0
  6
CONTINUOUS
 62
   210
 10
-946.313975979621
 20
56.6495174345429
 30
0.0
 11
-946.813975962507
 21
57.1495174174286
 31
0.0
  0
LINE
  5
   6F4
  8
0
  6
CONTINUOUS
 62
   210
 10
-946.313976512303
 20
55.8995197513873
 30
0.0
 11
-946.313976512303
 21
56.6495197513873
 31
0.0
  0
LINE
  5
   6F5
  8
0
  6
CONTINUOUS
 62
   210
 10
-946.313976512303
 20
55.8995197513873
 30
0.0
 11
-947.313976512303
 21
55.8995197513873
 31
0.0
  0
LINE
  5
   6F6
  8
0
  6
CONTINUOUS
 62
   210
 10
-947.313976512303
 20
52.6495197513873
 30
0.0
 11
-948.938977942814
 21
52.6495197513873
 31
0.0
  0
LINE
  5
   6F7
  8
0
  6
CONTINUOUS
 62
   210
 10
-947.313976512303
 20
52.6495197513873
 30
0.0
 11
-947.313976512303
 21
55.8995197513873
 31
0.0
  0
LINE
  5
   6F8
  8
0
  6
CONTINUOUS
 62
   210
 10
-954.313976512303
 20
41.8995197513873
 30
0.0
 11
-955.063976512303
 21
41.8995197513873
 31
0.0
  0
LINE
  5
   6F9
  8
0
  6
CONTINUOUS
 62
   210
 10
-947.313976512303
 20
57.1495197513873
 30
0.0
 11
-955.063976512303
 21
57.1495197513873
 31
0.0
  0
LINE
  5
   6FA
  8
0
  6
CONTINUOUS
 62
   210
 10
-955.063976512303
 20
41.8995197513873
 30
0.0
 11
-955.063976512303
 21
57.1495197513873
 31
0.0
  0
LINE
  5
   6FB
  8
0
  6
CONTINUOUS
 62
   210
 10
-947.313976512303
 20
55.8995197513873
 30
0.0
 11
-947.313976512303
 21
57.1495197513873
 31
0.0
  0
LINE
  5
   6FC
  8
0
  6
CONTINUOUS
 62
   210
 10
-954.313977219812
 20
41.8995174503068
 30
0.0
 11
-947.31397709423
 21
55.8995177014725
 31
0.0
  0
LINE
  5
   6FD
  8
0
  6
CONTINUOUS
 62
   210
 10
-947.313976512303
 20
54.2995212772662
 30
0.0
 11
-947.813976512303
 21
54.2995212772662
 31
0.0
  0
LINE
  5
   6FE
  8
0
  6
CONTINUOUS
 62
   210
 10
-947.813975948355
 20
54.2995190025721
 30
0.0
 11
-948.013975764481
 21
54.4995159527355
 31
0.0
  0
LINE
  5
   6FF
  8
0
  6
CONTINUOUS
 62
   210
 10
-947.063976512303
 20
42.1495197513873
 30
0.0
 11
-947.063976512303
 21
51.6495197513873
 31
0.0
  0
LINE
  5
   700
  8
0
  6
CONTINUOUS
 62
   218
 10
-946.813976512303
 20
43.3995197513873
 30
0.0
 11
-946.813976512303
 21
50.3995197513873
 31
0.0
  0
LINE
  5
   701
  8
0
  6
CONTINUOUS
 62
   210
 10
-954.063976512303
 20
42.3995197513873
 30
0.0
 11
-955.063976512303
 21
42.3995197513873
 31
0.0
  0
LINE
  5
   702
  8
0
  6
CONTINUOUS
 62
   210
 10
-947.313976512303
 20
56.6495197513873
 30
0.0
 11
-955.063976512303
 21
56.6495197513873
 31
0.0
  0
LINE
  5
   703
  8
0
  6
CONTINUOUS
 62
   210
 10
-947.063976750721
 20
42.1495197513873
 30
0.0
 11
-954.188977704396
 21
42.1495197513873
 31
0.0
  0
LINE
  5
   704
  8
0
  6
CONTINUOUS
 62
   210
 10
-947.063976512303
 20
51.6495197513873
 30
0.0
 11
-949.438975081791
 21
51.6495197513873
 31
0.0
  0
LINE
  5
   705
  8
0
  6
CONTINUOUS
 62
   218
 10
-946.813976512303
 20
50.3995197513873
 30
0.0
 11
-947.063976512303
 21
50.3995197513873
 31
0.0
  0
LINE
  5
   706
  8
0
  6
CONTINUOUS
 62
   218
 10
-946.813976512303
 20
43.3995197513873
 30
0.0
 11
-947.063976512303
 21
43.3995197513873
 31
0.0
  0
LINE
  5
   707
  8
0
  6
CONTINUOUS
 62
   210
 10
-946.813976512303
 20
57.1495197513873
 30
0.0
 11
-947.313976512303
 21
57.1495197513873
 31
0.0
  0
LINE
  5
   708
  8
0
  6
CONTINUOUS
 62
   210
 10
-946.313975979621
 20
56.6495174345429
 30
0.0
 11
-946.813975962507
 21
57.1495174174286
 31
0.0
  0
LINE
  5
   709
  8
0
  6
CONTINUOUS
 62
   210
 10
-946.313976512303
 20
55.8995197513873
 30
0.0
 11
-946.313976512303
 21
56.6495197513873
 31
0.0
  0
LINE
  5
   70A
  8
0
  6
CONTINUOUS
 62
   210
 10
-946.313976512303
 20
55.8995197513873
 30
0.0
 11
-947.313976512303
 21
55.8995197513873
 31
0.0
  0
LINE
  5
   70B
  8
0
  6
CONTINUOUS
 62
   210
 10
-947.313976512303
 20
52.6495197513873
 30
0.0
 11
-948.938977465977
 21
52.6495197513873
 31
0.0
  0
LINE
  5
   70C
  8
0
  6
CONTINUOUS
 62
   210
 10
-947.313976512303
 20
52.6495197513873
 30
0.0
 11
-947.313976512303
 21
55.8995197513873
 31
0.0
  0
LINE
  5
   70D
  8
0
  6
CONTINUOUS
 62
   210
 10
-947.313976512303
 20
57.1495197513873
 30
0.0
 11
-955.063976512303
 21
57.1495197513873
 31
0.0
  0
LINE
  5
   70E
  8
0
  6
CONTINUOUS
 62
   210
 10
-947.313976512303
 20
55.8995197513873
 30
0.0
 11
-947.313976512303
 21
57.1495197513873
 31
0.0
  0
LINE
  5
   70F
  8
0
  6
CONTINUOUS
 62
   210
 10
-954.313977219812
 20
41.8995174503068
 30
0.0
 11
-947.31397709423
 21
55.8995177014725
 31
0.0
  0
LINE
  5
   710
  8
0
  6
CONTINUOUS
 62
   210
 10
-947.313976512303
 20
54.2995212772662
 30
0.0
 11
-947.813976512303
 21
54.2995212772662
 31
0.0
  0
LINE
  5
   711
  8
0
  6
CONTINUOUS
 62
   210
 10
-947.813975962051
 20
54.2995190113286
 30
0.0
 11
-948.013975778177
 21
54.499515961492
 31
0.0
  0
LINE
  5
   712
  8
0
  6
CONTINUOUS
 62
   210
 10
-947.063976512303
 20
42.1495197513873
 30
0.0
 11
-947.063976512303
 21
51.6495197513873
 31
0.0
  0
LINE
  5
   713
  8
0
  6
CONTINUOUS
 62
   218
 10
-946.813976512303
 20
43.3995197513873
 30
0.0
 11
-946.813976512303
 21
50.3995197513873
 31
0.0
  0
LINE
  5
   714
  8
0
  6
CONTINUOUS
 62
   210
 10
-947.313976512303
 20
56.6495197513873
 30
0.0
 11
-955.063976512303
 21
56.6495197513873
 31
0.0
  0
LINE
  5
   715
  8
0
  6
CONTINUOUS
 62
   210
 10
-947.063976750721
 20
42.1495197513873
 30
0.0
 11
-954.188977704396
 21
42.1495197513873
 31
0.0
  0
LINE
  5
   716
  8
0
  6
CONTINUOUS
 62
   210
 10
-947.063976512303
 20
51.6495197513873
 30
0.0
 11
-949.438975081791
 21
51.6495197513873
 31
0.0
  0
LINE
  5
   717
  8
0
  6
CONTINUOUS
 62
   218
 10
-946.813976512303
 20
50.3995197513873
 30
0.0
 11
-947.063976512303
 21
50.3995197513873
 31
0.0
  0
LINE
  5
   718
  8
0
  6
CONTINUOUS
 62
   218
 10
-946.813976512303
 20
43.3995197513873
 30
0.0
 11
-947.063976512303
 21
43.3995197513873
 31
0.0
  0
LINE
  5
   719
  8
0
  6
CONTINUOUS
 62
   210
 10
-955.063976512303
 20
41.8995197513873
 30
0.0
 11
-955.063976512303
 21
57.1495197513873
 31
0.0
  0
LINE
  5
   71A
  8
0
  6
CONTINUOUS
 62
   210
 10
-954.063976512303
 20
42.3995197513873
 30
0.0
 11
-955.063976512303
 21
42.3995197513873
 31
0.0
  0
LINE
  5
   71B
  8
0
  6
CONTINUOUS
 62
   210
 10
-954.313976512303
 20
41.8995197513873
 30
0.0
 11
-955.063976512303
 21
41.8995197513873
 31
0.0
  0
LINE
  5
   71C
  8
0
  6
CONTINUOUS
 62
   210
 10
-946.813976512303
 20
-72.3504802486127
 30
0.0
 11
-947.313976512303
 21
-72.3504802486127
 31
0.0
  0
LINE
  5
   71D
  8
0
  6
CONTINUOUS
 62
   210
 10
-946.813975962507
 20
-72.3504779146541
 30
0.0
 11
-946.313975979621
 21
-71.8504779317683
 31
0.0
  0
LINE
  5
   71E
  8
0
  6
CONTINUOUS
 62
   210
 10
-946.313976512303
 20
-71.8504802486127
 30
0.0
 11
-946.313976512303
 21
-71.1004802486127
 31
0.0
  0
LINE
  5
   71F
  8
0
  6
CONTINUOUS
 62
   210
 10
-946.313976512303
 20
-71.1004802486127
 30
0.0
 11
-947.313976512303
 21
-71.1004802486127
 31
0.0
  0
LINE
  5
   720
  8
0
  6
CONTINUOUS
 62
   210
 10
-947.313976512303
 20
-67.8504802486127
 30
0.0
 11
-948.938977942814
 21
-67.8504802486127
 31
0.0
  0
LINE
  5
   721
  8
0
  6
CONTINUOUS
 62
   210
 10
-947.313976512303
 20
-71.1004802486127
 30
0.0
 11
-947.313976512303
 21
-67.8504802486127
 31
0.0
  0
LINE
  5
   722
  8
0
  6
CONTINUOUS
 62
   210
 10
-954.313976512303
 20
-57.1004802486127
 30
0.0
 11
-955.063976512303
 21
-57.1004802486127
 31
0.0
  0
LINE
  5
   723
  8
0
  6
CONTINUOUS
 62
   210
 10
-947.313976512303
 20
-72.3504802486127
 30
0.0
 11
-955.063976512303
 21
-72.3504802486127
 31
0.0
  0
LINE
  5
   724
  8
0
  6
CONTINUOUS
 62
   210
 10
-955.063976512303
 20
-72.3504802486127
 30
0.0
 11
-955.063976512303
 21
-57.1004802486127
 31
0.0
  0
LINE
  5
   725
  8
0
  6
CONTINUOUS
 62
   210
 10
-947.313976512303
 20
-72.3504802486127
 30
0.0
 11
-947.313976512303
 21
-71.1004802486127
 31
0.0
  0
LINE
  5
   726
  8
0
  6
CONTINUOUS
 62
   210
 10
-947.31397709423
 20
-71.1004781986979
 30
0.0
 11
-954.313977219812
 21
-57.1004779475322
 31
0.0
  0
LINE
  5
   727
  8
0
  6
CONTINUOUS
 62
   210
 10
-947.313976512303
 20
-69.5004817744917
 30
0.0
 11
-947.813976512303
 21
-69.5004817744917
 31
0.0
  0
LINE
  5
   728
  8
0
  6
CONTINUOUS
 62
   210
 10
-948.013975764481
 20
-69.7004764499609
 30
0.0
 11
-947.813975948355
 21
-69.5004794997975
 31
0.0
  0
LINE
  5
   729
  8
0
  6
CONTINUOUS
 62
   210
 10
-947.063976512303
 20
-66.8504802486127
 30
0.0
 11
-947.063976512303
 21
-57.3504802486127
 31
0.0
  0
LINE
  5
   72A
  8
0
  6
CONTINUOUS
 62
   218
 10
-946.813976512303
 20
-65.6004802486127
 30
0.0
 11
-946.813976512303
 21
-58.6004802486127
 31
0.0
  0
LINE
  5
   72B
  8
0
  6
CONTINUOUS
 62
   210
 10
-954.063976512303
 20
-57.6004802486127
 30
0.0
 11
-955.063976512303
 21
-57.6004802486127
 31
0.0
  0
LINE
  5
   72C
  8
0
  6
CONTINUOUS
 62
   210
 10
-947.313976512303
 20
-71.8504802486127
 30
0.0
 11
-955.063976512303
 21
-71.8504802486127
 31
0.0
  0
LINE
  5
   72D
  8
0
  6
CONTINUOUS
 62
   210
 10
-947.063976750721
 20
-57.3504802486127
 30
0.0
 11
-954.188977704396
 21
-57.3504802486127
 31
0.0
  0
LINE
  5
   72E
  8
0
  6
CONTINUOUS
 62
   210
 10
-947.063976512303
 20
-66.8504802486127
 30
0.0
 11
-949.438975081791
 21
-66.8504802486127
 31
0.0
  0
LINE
  5
   72F
  8
0
  6
CONTINUOUS
 62
   218
 10
-946.813976512303
 20
-65.6004802486127
 30
0.0
 11
-947.063976512303
 21
-65.6004802486127
 31
0.0
  0
LINE
  5
   730
  8
0
  6
CONTINUOUS
 62
   218
 10
-946.813976512303
 20
-58.6004802486127
 30
0.0
 11
-947.063976512303
 21
-58.6004802486127
 31
0.0
  0
LINE
  5
   731
  8
0
  6
CONTINUOUS
 62
   210
 10
-946.813976512303
 20
-72.3504802486127
 30
0.0
 11
-947.313976512303
 21
-72.3504802486127
 31
0.0
  0
LINE
  5
   732
  8
0
  6
CONTINUOUS
 62
   210
 10
-946.813975962507
 20
-72.3504779146541
 30
0.0
 11
-946.313975979621
 21
-71.8504779317683
 31
0.0
  0
LINE
  5
   733
  8
0
  6
CONTINUOUS
 62
   210
 10
-946.313976512303
 20
-71.8504802486127
 30
0.0
 11
-946.313976512303
 21
-71.1004802486127
 31
0.0
  0
LINE
  5
   734
  8
0
  6
CONTINUOUS
 62
   210
 10
-946.313976512303
 20
-71.1004802486127
 30
0.0
 11
-947.313976512303
 21
-71.1004802486127
 31
0.0
  0
LINE
  5
   735
  8
0
  6
CONTINUOUS
 62
   210
 10
-947.313976512303
 20
-67.8504802486127
 30
0.0
 11
-948.938977465977
 21
-67.8504802486127
 31
0.0
  0
LINE
  5
   736
  8
0
  6
CONTINUOUS
 62
   210
 10
-947.313976512303
 20
-71.1004802486127
 30
0.0
 11
-947.313976512303
 21
-67.8504802486127
 31
0.0
  0
LINE
  5
   737
  8
0
  6
CONTINUOUS
 62
   210
 10
-947.313976512303
 20
-72.3504802486127
 30
0.0
 11
-955.063976512303
 21
-72.3504802486127
 31
0.0
  0
LINE
  5
   738
  8
0
  6
CONTINUOUS
 62
   210
 10
-947.313976512303
 20
-72.3504802486127
 30
0.0
 11
-947.313976512303
 21
-71.1004802486127
 31
0.0
  0
LINE
  5
   739
  8
0
  6
CONTINUOUS
 62
   210
 10
-947.31397709423
 20
-71.1004781986979
 30
0.0
 11
-954.313977219812
 21
-57.1004779475322
 31
0.0
  0
LINE
  5
   73A
  8
0
  6
CONTINUOUS
 62
   210
 10
-947.313976512303
 20
-69.5004817744917
 30
0.0
 11
-947.813976512303
 21
-69.5004817744917
 31
0.0
  0
LINE
  5
   73B
  8
0
  6
CONTINUOUS
 62
   210
 10
-948.013975778177
 20
-69.7004764587175
 30
0.0
 11
-947.813975962051
 21
-69.5004795085541
 31
0.0
  0
LINE
  5
   73C
  8
0
  6
CONTINUOUS
 62
   210
 10
-947.063976512303
 20
-66.8504802486127
 30
0.0
 11
-947.063976512303
 21
-57.3504802486127
 31
0.0
  0
LINE
  5
   73D
  8
0
  6
CONTINUOUS
 62
   218
 10
-946.813976512303
 20
-65.6004802486127
 30
0.0
 11
-946.813976512303
 21
-58.6004802486127
 31
0.0
  0
LINE
  5
   73E
  8
0
  6
CONTINUOUS
 62
   210
 10
-947.313976512303
 20
-71.8504802486127
 30
0.0
 11
-955.063976512303
 21
-71.8504802486127
 31
0.0
  0
LINE
  5
   73F
  8
0
  6
CONTINUOUS
 62
   210
 10
-947.063976750721
 20
-57.3504802486127
 30
0.0
 11
-954.188977704396
 21
-57.3504802486127
 31
0.0
  0
LINE
  5
   740
  8
0
  6
CONTINUOUS
 62
   210
 10
-947.063976512303
 20
-66.8504802486127
 30
0.0
 11
-949.438975081791
 21
-66.8504802486127
 31
0.0
  0
LINE
  5
   741
  8
0
  6
CONTINUOUS
 62
   218
 10
-946.813976512303
 20
-65.6004802486127
 30
0.0
 11
-947.063976512303
 21
-65.6004802486127
 31
0.0
  0
LINE
  5
   742
  8
0
  6
CONTINUOUS
 62
   218
 10
-946.813976512303
 20
-58.6004802486127
 30
0.0
 11
-947.063976512303
 21
-58.6004802486127
 31
0.0
  0
LINE
  5
   743
  8
0
  6
CONTINUOUS
 62
   210
 10
-955.063976512303
 20
-72.3504802486127
 30
0.0
 11
-955.063976512303
 21
-57.1004802486127
 31
0.0
  0
LINE
  5
   744
  8
0
  6
CONTINUOUS
 62
   210
 10
-954.063976512303
 20
-57.6004802486127
 30
0.0
 11
-955.063976512303
 21
-57.6004802486127
 31
0.0
  0
LINE
  5
   745
  8
0
  6
CONTINUOUS
 62
   210
 10
-954.313976512303
 20
-57.1004802486127
 30
0.0
 11
-955.063976512303
 21
-57.1004802486127
 31
0.0
  0
INSERT
  5
   746
  8
0
  6
CONTINUOUS
 62
     7
  2
*UDIM173
 10
0.0
 20
0.0
 30
0.0
  0
INSERT
  5
   747
  8
0
  6
CONTINUOUS
 62
     7
  2
*UDIM174
 10
0.0
 20
0.0
 30
0.0
  0
INSERT
  5
   748
  8
0
  6
CONTINUOUS
 62
     7
  2
*HATCH104
 10
-956.81396484375
 20
-61.7190437316895
 30
0.0
 41
0.5
 42
0.5
 50
89.9999999480344
 43
0.5
  0
INSERT
  5
   749
  8
0
  6
CONTINUOUS
 62
     7
  2
*UDIM175
 10
0.0
 20
0.0
 30
0.0
  0
INSERT
  5
   74A
  8
0
  6
CONTINUOUS
 62
     7
  2
*UDIM176
 10
0.0
 20
0.0
 30
0.0
  0
TEXT
  5
   74B
  8
0
  6
CONTINUOUS
 62
     1
 10
-883.503204746701
 20
-152.729347264372
 30
0.0
 40
2.00000008940697
  1
N0073 01-05-04
 50
359.999999948034
 41
0.749999995529652
 72
     1
 11
-873.153204351664
 21
-151.729347229004
 31
0.0
 73
     2
  0
TEXT
  5
   74C
  8
0
  6
CONTINUOUS
 62
     2
 10
-1002.50067137737
 20
-24.5513629782871
 30
0.0
 40
3.00000002980232
  1
=          =
 50
89.9999999480344
 41
0.916666604744064
 72
     2
 11
-1002.50067134798
 21
7.89863514764351
 31
0.0
  0
INSERT
  5
   74D
  8
0
  6
CONTINUOUS
 62
     7
  2
*UDIM177
 10
0.0
 20
0.0
 30
0.0
  0
TEXT
  5
   74E
  8
0
  6
CONTINUOUS
 62
     7
 10
-994.554908592868
 20
-8.22949983557844
 30
0.0
 40
3.00000002980232
  1
X
 50
359.999999948034
 41
0.916666604744064
 72
     2
 11
-992.354908723998
 21
-8.22949983756272
 31
0.0
  0
INSERT
  5
   74F
  8
0
  6
CONTINUOUS
 62
     5
  2
*UDIM178
 10
0.0
 20
0.0
 30
0.0
  0
TEXT
  5
   750
  8
0
  6
CONTINUOUS
 62
     5
 10
-864.240447988701
 20
-24.2190112937168
 30
0.0
 40
3.00000002980232
  1
=          =
 50
89.9999999480344
 41
0.916666604744064
 72
     2
 11
-864.240447959311
 21
8.23098683221382
 31
0.0
  0
INSERT
  5
   751
  8
0
  6
CONTINUOUS
 62
     7
  2
*UDIM179
 10
0.0
 20
0.0
 30
0.0
  0
INSERT
  5
   752
  8
0
  6
CONTINUOUS
 62
     7
  2
*UDIM180
 10
0.0
 20
0.0
 30
0.0
  0
INSERT
  5
   753
  8
0
  6
CONTINUOUS
 62
     7
  2
*UDIM181
 10
0.0
 20
0.0
 30
0.0
  0
INSERT
  5
   754
  8
0
  6
CONTINUOUS
 62
     7
  2
*UDIM182
 10
0.0
 20
0.0
 30
0.0
  0
INSERT
  5
   755
  8
0
  6
CONTINUOUS
 62
     7
  2
*UDIM183
 10
0.0
 20
0.0
 30
0.0
  0
INSERT
  5
   756
  8
0
  6
CONTINUOUS
 62
     7
  2
*UDIM184
 10
0.0
 20
0.0
 30
0.0
  0
INSERT
  5
   757
  8
0
  6
CONTINUOUS
 62
     7
  2
*UDIM185
 10
0.0
 20
0.0
 30
0.0
  0
INSERT
  5
   758
  8
0
  6
CONTINUOUS
 62
     7
  2
*UDIM186
 10
0.0
 20
0.0
 30
0.0
  0
INSERT
  5
   759
  8
0
  6
CONTINUOUS
 62
     7
  2
*UDIM187
 10
0.0
 20
0.0
 30
0.0
  0
TEXT
  5
   75A
  8
0
  6
CONTINUOUS
 62
     7
 10
-858.427123935383
 20
-7.95826670458159
 30
0.0
 40
3.00000002980232
  1
X
 50
359.999999948034
 41
0.916666604744064
 72
     1
 11
-857.327123999595
 21
-6.45826669067257
 31
0.0
 73
     2
  0
INSERT
  5
   75B
  8
0
  6
CONTINUOUS
 62
     7
  2
*UDIM188
 10
0.0
 20
0.0
 30
0.0
  0
INSERT
  5
   75C
  8
0
  6
CONTINUOUS
 62
     7
  2
*UDIM189
 10
0.0
 20
0.0
 30
0.0
  0
INSERT
  5
   75D
  8
0
  6
CONTINUOUS
 62
     7
  2
*UDIM190
 10
0.0
 20
0.0
 30
0.0
  0
TEXT
  5
   75E
  8
0
  6
CONTINUOUS
 62
     1
 10
-915.547454791175
 20
-137.617366217671
 30
0.0
 40
2.00000008940697
  1
96-06-24 COLLEONI M.
 50
359.999999948034
 41
0.749999861419206
 72
     2
 11
-885.84745895903
 21
-137.617366244458
 31
0.0
  0
TEXT
  5
   75F
  8
0
  6
CONTINUOUS
 62
     1
 10
-813.979492101881
 20
-163.780124023351
 30
0.0
 40
4.00000017881393
  1
601812/861
 50
359.999999948034
 41
0.937499973922969
 72
     2
 11
-777.229491502109
 21
-163.780124056497
 31
0.0
  0
TEXT
  5
   760
  8
0
  6
CONTINUOUS
 62
     1
 10
-802.131042416255
 20
-155.15800824945
 30
0.0
 40
3.00000002980232
  1
S5 630
 50
359.999999948034
 41
0.916666604744064
 72
     2
 11
-786.18104333963
 21
-155.158008263836
 31
0.0
  0
TEXT
  5
   761
  8
0
  6
CONTINUOUS
 62
     1
 10
-824.428218618939
 20
-136.488269830922
 30
0.0
 40
2.00000008940697
  1
4POLE LOW VOLTAGE M.C.C.B SERIES ISOMAX
 50
359.999999948034
 41
0.749999861419206
 72
     1
 11
-795.328222697975
 21
-135.488269812465
 31
0.0
 73
     2
  0
TEXT
  5
   762
  8
0
  6
CONTINUOUS
 62
     1
 10
-823.678218592858
 20
-139.488269831598
 30
0.0
 40
2.00000008940697
  1
FIXED VERSION EXTENDED FRONT TERMINALS
 50
359.999999948034
 41
0.749999861419206
 72
     1
 11
-795.328222566841
 21
-138.488269812465
 31
0.0
 73
     2
  0
TEXT
  5
   763
  8
0
  6
CONTINUOUS
 62
     1
 10
-821.225826986293
 20
-144.558536560643
 30
0.0
 40
2.00000008940697
  1
INTERR.AUTOMATICO SERIE ISOMAX
 50
359.999999948034
 41
0.749999861419206
 72
     1
 11
-798.87583011985
 21
-143.558536536098
 31
0.0
 73
     2
  0
TEXT
  5
   764
  8
0
  6
CONTINUOUS
 62
     1
 10
-833.225825174308
 20
-147.558536549819
 30
0.0
 40
2.00000008940697
  1
TETRAP.ESECUZIONE FISSA TERMINALI ANT.PROLUNG.
 50
359.999999948034
 41
0.749999861419206
 72
     1
 11
-798.875829988716
 21
-146.558536536098
 31
0.0
 73
     2
  0
ENDSEC
  0
EOF
