  0
SECTION
  2
HEADER
  9
$ACADVER
  1
AC1009
  9
$DWGCODEPAGE
  3
iso8859-1
  9
$INSBASE
 10
0.0
 20
0.0
 30
0.0
  9
$EXTMIN
 10
1.0E20
 20
1.0E20
  9
$EXTMAX
 10
-1.0E20
 20
-1.0E20
  9
$LIMMIN
 10
0.0
 20
0.0
  9
$LIMMAX
 10
12.0
 20
9.0
  9
$ORTHOMODE
 70
     0
  9
$REGENMODE
 70
     1
  9
$FILLMODE
 70
     1
  9
$QTEXTMODE
 70
     0
  9
$MIRRTEXT
 70
     1
  9
$DRAGMODE
 70
     2
  9
$LTSCALE
 40
15.0
  9
$OSMODE
 70
     0
  9
$ATTMODE
 70
     1
  9
$TEXTSIZE
 40
0.2
  9
$TRACEWID
 40
0.05
  9
$TEXTSTYLE
  7
STANDARD
  9
$CLAYER
  8
0
  9
$CELTYPE
  6
DASHED
  9
$CECOLOR
 62
   256
  9
$DIMSCALE
 40
1.0
  9
$DIMASZ
 40
0.18
  9
$DIMEXO
 40
0.0625
  9
$DIMDLI
 40
0.38
  9
$DIMRND
 40
0.0
  9
$DIMDLE
 40
0.0
  9
$DIMEXE
 40
0.18
  9
$DIMTP
 40
0.0
  9
$DIMTM
 40
0.0
  9
$DIMTXT
 40
0.18
  9
$DIMCEN
 40
0.09
  9
$DIMTSZ
 40
0.0
  9
$DIMTOL
 70
     0
  9
$DIMLIM
 70
     0
  9
$DIMTIH
 70
     1
  9
$DIMTOH
 70
     1
  9
$DIMSE1
 70
     0
  9
$DIMSE2
 70
     0
  9
$DIMTAD
 70
     0
  9
$DIMZIN
 70
     0
  9
$DIMBLK
  1

  9
$DIMASO
 70
     1
  9
$DIMSHO
 70
     1
  9
$DIMPOST
  1

  9
$DIMAPOST
  1

  9
$DIMALT
 70
     0
  9
$DIMALTD
 70
     2
  9
$DIMALTF
 40
25.4
  9
$DIMLFAC
 40
1.0
  9
$DIMTOFL
 70
     0
  9
$DIMTVP
 40
0.0
  9
$DIMTIX
 70
     0
  9
$DIMSOXD
 70
     0
  9
$DIMSAH
 70
     0
  9
$DIMBLK1
  1

  9
$DIMBLK2
  1

  9
$DIMSTYLE
  2
STANDARD
  9
$DIMCLRD
 70
     0
  9
$DIMCLRE
 70
     0
  9
$DIMCLRT
 70
     0
  9
$DIMTFAC
 40
1.0
  9
$DIMGAP
 40
0.09
  9
$LUNITS
 70
     2
  9
$LUPREC
 70
     4
  9
$AXISMODE
 70
     0
  9
$AXISUNIT
 10
0.0
 20
0.0
  9
$SKETCHINC
 40
0.1
  9
$FILLETRAD
 40
0.0
  9
$AUNITS
 70
     0
  9
$AUPREC
 70
     0
  9
$MENU
  1
acad
  9
$ELEVATION
 40
0.0
  9
$PELEVATION
 40
0.0
  9
$THICKNESS
 40
0.0
  9
$LIMCHECK
 70
     0
  9
$BLIPMODE
 70
     1
  9
$CHAMFERA
 40
0.0
  9
$CHAMFERB
 40
0.0
  9
$SKPOLY
 70
     0
  9
$TDCREATE
 40
0.000000000
  9
$TDUPDATE
 40
0.000000000
  9
$TDINDWG
 40
0.0
  9
$TDUSRTIMER
 40
0.0
  9
$USRTIMER
 70
     1
  9
$ANGBASE
 50
0.0
  9
$ANGDIR
 70
     0
  9
$PDMODE
 70
     0
  9
$PDSIZE
 40
0.0
  9
$PLINEWID
 40
0.0
  9
$COORDS
 70
     1
  9
$SPLFRAME
 70
     0
  9
$SPLINETYPE
 70
     6
  9
$SPLINESEGS
 70
     8
  9
$ATTDIA
 70
     0
  9
$ATTREQ
 70
     1
  9
$HANDLING
 70
     1
  9
$HANDSEED
  5
   742
  9
$SURFTAB1
 70
     6
  9
$SURFTAB2
 70
     6
  9
$SURFTYPE
 70
     6
  9
$SURFU
 70
     6
  9
$SURFV
 70
     6
  9
$UCSNAME
  2

  9
$UCSORG
 10
0.0
 20
0.0
 30
0.0
  9
$UCSXDIR
 10
1.0
 20
0.0
 30
0.0
  9
$UCSYDIR
 10
0.0
 20
1.0
 30
0.0
  9
$PUCSNAME
  2

  9
$PUCSORG
 10
0.0
 20
0.0
 30
0.0
  9
$PUCSXDIR
 10
1.0
 20
0.0
 30
0.0
  9
$PUCSYDIR
 10
0.0
 20
1.0
 30
0.0
  9
$USERI1
 70
     0
  9
$USERI2
 70
     0
  9
$USERI3
 70
     0
  9
$USERI4
 70
     0
  9
$USERI5
 70
     0
  9
$USERR1
 40
0.0
  9
$USERR2
 40
0.0
  9
$USERR3
 40
0.0
  9
$USERR4
 40
0.0
  9
$USERR5
 40
0.0
  9
$WORLDVIEW
 70
     1
  9
$SHADEDGE
 70
     3
  9
$SHADEDIF
 70
    70
  9
$TILEMODE
 70
     1
  9
$MAXACTVP
 70
    16
  9
$PINSBASE
 10
0.0
 20
0.0
 30
0.0
  9
$PLIMCHECK
 70
     0
  9
$PEXTMIN
 10
1.0E20
 20
1.0E20
 30
1.0E20
  9
$PEXTMAX
 10
-1.0E20
 20
-1.0E20
 30
-1.0E20
  9
$PLIMMIN
 10
0.0
 20
0.0
  9
$PLIMMAX
 10
12.0
 20
9.0
  9
$UNITMODE
 70
     0
  9
$VISRETAIN
 70
     0
  0
ENDSEC
  0
SECTION
  2
TABLES
  0
TABLE
  2
VPORT
 70
     1
  0
VPORT
  2
*ACTIVE
 70
     0
 10
0.0
 20
0.0
 11
1.0
 21
1.0
 12
6.801242
 22
4.5
 13
0.0
 23
0.0
 14
1.0
 24
1.0
 15
0.0
 25
0.0
 16
0.0
 26
0.0
 36
1.0
 17
0.0
 27
0.0
 37
0.0
 40
9.0
 41
1.511387
 42
50.0
 43
0.0
 44
0.0
 50
0.0
 51
0.0
 71
     0
 72
   100
 73
     1
 74
     1
 75
     0
 76
     0
 77
     0
 78
     0
  0
ENDTAB
  0
TABLE
  2
LTYPE
 70
    41
  0
LTYPE
  2
BYBLOCK
 70
     0
  3

 72
    65
 73
     0
 40
0.0
  0
LTYPE
  2
BYLAYER
 70
     0
  3

 72
    65
 73
     0
 40
0.0
  0
LTYPE
  2
CONTINUOUS
 70
     0
  3
Solid line
 72
    65
 73
     0
 40
0.0
  0
LTYPE
  2
BORDER
 70
    64
  3
__ __ . __ __ . __ __ . __ __ . __ __ . __ __ .
 72
    65
 73
     6
 40
1.75
 49
0.5
 49
-0.25
 49
0.5
 49
-0.25
 49
0.0
 49
-0.25
  0
LTYPE
  2
BORDER2
 70
    64
  3
__.__.__.__.__.__.__.__.__.__.__.__.__.__.__.__
 72
    65
 73
     6
 40
0.875
 49
0.25
 49
-0.125
 49
0.25
 49
-0.125
 49
0.0
 49
-0.125
  0
LTYPE
  2
BORDERX2
 70
    64
  3
____  ____  .  ____  ____  .  ____  ____  .  __
 72
    65
 73
     6
 40
3.5
 49
1.0
 49
-0.5
 49
1.0
 49
-0.5
 49
0.0
 49
-0.5
  0
LTYPE
  2
CENTER
 70
    64
  3
____ _ ____ _ ____ _ ____ _ ____ _ ____ _ ____
 72
    65
 73
     4
 40
2.0
 49
1.25
 49
-0.25
 49
0.25
 49
-0.25
  0
LTYPE
  2
CENTER2
 70
    64
  3
___ _ ___ _ ___ _ ___ _ ___ _ ___ _ ___ _ ___ _
 72
    65
 73
     4
 40
1.125
 49
0.75
 49
-0.125
 49
0.125
 49
-0.125
  0
LTYPE
  2
CENTERX2
 70
    64
  3
________  __  ________  __  ________  __  _____
 72
    65
 73
     4
 40
4.0
 49
2.5
 49
-0.5
 49
0.5
 49
-0.5
  0
LTYPE
  2
DASHDOT
 70
    64
  3
__ . __ . __ . __ . __ . __ . __ . __ . __ . __
 72
    65
 73
     4
 40
1.0
 49
0.5
 49
-0.25
 49
0.0
 49
-0.25
  0
LTYPE
  2
DASHDOT2
 70
    64
  3
_._._._._._._._._._._._._._._._._._._._._._._._
 72
    65
 73
     4
 40
0.5
 49
0.25
 49
-0.125
 49
0.0
 49
-0.125
  0
LTYPE
  2
DASHDOTX2
 70
    64
  3
____  .  ____  .  ____  .  ____  .  ____  .  __
 72
    65
 73
     4
 40
2.0
 49
1.0
 49
-0.5
 49
0.0
 49
-0.5
  0
LTYPE
  2
DASHED
 70
    64
  3
__ __ __ __ __ __ __ __ __ __ __ __ __ __ __ __
 72
    65
 73
     2
 40
0.75
 49
0.5
 49
-0.25
  0
LTYPE
  2
DASHED2
 70
    64
  3
_ _ _ _ _ _ _ _ _ _ _ _ _ _ _ _ _ _ _ _ _ _ _ _
 72
    65
 73
     2
 40
0.375
 49
0.25
 49
-0.125
  0
LTYPE
  2
DASHEDX2
 70
    64
  3
____  ____  ____  ____  ____  ____  ____  ____
 72
    65
 73
     2
 40
1.5
 49
1.0
 49
-0.5
  0
LTYPE
  2
DIVIDE
 70
    64
  3
____ . . ____ . . ____ . . ____ . . ____ . . __
 72
    65
 73
     6
 40
1.25
 49
0.5
 49
-0.25
 49
0.0
 49
-0.25
 49
0.0
 49
-0.25
  0
LTYPE
  2
DIVIDE2
 70
    64
  3
__..__..__..__..__..__..__..__..__..__..__..__.
 72
    65
 73
     6
 40
0.625
 49
0.25
 49
-0.125
 49
0.0
 49
-0.125
 49
0.0
 49
-0.125
  0
LTYPE
  2
DIVIDEX2
 70
    64
  3
________  .  .  ________  .  .  ________  .  .
 72
    65
 73
     6
 40
2.5
 49
1.0
 49
-0.5
 49
0.0
 49
-0.5
 49
0.0
 49
-0.5
  0
LTYPE
  2
DOT
 70
    64
  3
. . . . . . . . . . . . . . . . . . . . . . . .
 72
    65
 73
     2
 40
0.25
 49
0.0
 49
-0.25
  0
LTYPE
  2
DOT2
 70
    64
  3
...............................................
 72
    65
 73
     2
 40
0.125
 49
0.0
 49
-0.125
  0
LTYPE
  2
DOTX2
 70
    64
  3
.  .  .  .  .  .  .  .  .  .  .  .  .  .  .  .
 72
    65
 73
     2
 40
0.5
 49
0.0
 49
-0.5
  0
LTYPE
  2
HIDDEN
 70
    64
  3
__ __ __ __ __ __ __ __ __ __ __ __ __ __ __ __
 72
    65
 73
     2
 40
0.375
 49
0.25
 49
-0.125
  0
LTYPE
  2
HIDDEN2
 70
    64
  3
_ _ _ _ _ _ _ _ _ _ _ _ _ _ _ _ _ _ _ _ _ _ _ _
 72
    65
 73
     2
 40
0.1875
 49
0.125
 49
-0.0625
  0
LTYPE
  2
HIDDENX2
 70
    64
  3
____ ____ ____ ____ ____ ____ ____ ____ ____ __
 72
    65
 73
     2
 40
0.75
 49
0.5
 49
-0.25
  0
LTYPE
  2
PHANTOM
 70
    64
  3
______  __  __  ______  __  __  ______  __  __
 72
    65
 73
     6
 40
2.5
 49
1.25
 49
-0.25
 49
0.25
 49
-0.25
 49
0.25
 49
-0.25
  0
LTYPE
  2
PHANTOM2
 70
    64
  3
___ _ _ ___ _ _ ___ _ _ ___ _ _ ___ _ _ ___ _ _
 72
    65
 73
     6
 40
1.25
 49
0.625
 49
-0.125
 49
0.125
 49
-0.125
 49
0.125
 49
-0.125
  0
LTYPE
  2
PHANTOMX2
 70
    64
  3
____________    ____    ____    ____________
 72
    65
 73
     6
 40
5.0
 49
2.5
 49
-0.5
 49
0.5
 49
-0.5
 49
0.5
 49
-0.5
  0
LTYPE
  2
ACAD_ISO02W100
 70
    64
  3
__ __ __ __ __ __ __ __ __ __ __ __ __ __ __ __
 72
    65
 73
     2
 40
15.0
 49
12.0
 49
-3.0
  0
LTYPE
  2
ACAD_ISO03W100
 70
    64
  3
__    __    __    __    __    __    __    __
 72
    65
 73
     2
 40
30.0
 49
12.0
 49
-18.0
  0
LTYPE
  2
ACAD_ISO04W100
 70
    64
  3
____ . ____ . ____ . ____ . ____ . ____ . ____
 72
    65
 73
     4
 40
30.5
 49
24.0
 49
-3.0
 49
0.5
 49
-3.0
  0
LTYPE
  2
ACAD_ISO05W100
 70
    64
  3
____ .. ____ .. ____ .. ____ .. ____ .. ____ ..
 72
    65
 73
     6
 40
34.0
 49
24.0
 49
-3.0
 49
0.5
 49
-3.0
 49
0.5
 49
-3.0
  0
LTYPE
  2
ACAD_ISO06W100
 70
    64
  3
____ ... ____ ... ____ ... ____ ... ____ ... __
 72
    65
 73
     8
 40
37.5
 49
24.0
 49
-3.0
 49
0.5
 49
-3.0
 49
0.5
 49
-3.0
 49
0.5
 49
-3.0
  0
LTYPE
  2
ACAD_ISO07W100
 70
    64
  3
. . . . . . . . . . . . . . . . . . . . . . . .
 72
    65
 73
     2
 40
3.5
 49
0.5
 49
-3.0
  0
LTYPE
  2
ACAD_ISO08W100
 70
    64
  3
____ __ ____ __ ____ __ ____ ____ __ __ ____ __
 72
    65
 73
     4
 40
36.0
 49
24.0
 49
-3.0
 49
6.0
 49
-3.0
  0
LTYPE
  2
ACAD_ISO09W100
 70
    64
  3
____ __ __ ____ __ __ ____ __ __ ____ __ __ ___
 72
    65
 73
     6
 40
45.0
 49
24.0
 49
-3.0
 49
6.0
 49
-3.0
 49
6.0
 49
-3.0
  0
LTYPE
  2
ACAD_ISO10W100
 70
    64
  3
__ . __ . __ . __ . __ . __ . __ . __ . __ . __
 72
    65
 73
     4
 40
18.5
 49
12.0
 49
-3.0
 49
0.5
 49
-3.0
  0
LTYPE
  2
ACAD_ISO11W100
 70
    64
  3
__ __ . __ __ . __ __ . __ __ . __ __ . __ __ .
 72
    65
 73
     6
 40
33.5
 49
12.0
 49
-3.0
 49
12.0
 49
-3.0
 49
0.5
 49
-3.0
  0
LTYPE
  2
ACAD_ISO12W100
 70
    64
  3
__ . . __ . . __ . . __ . . __ . . __ . . __ .
 72
    65
 73
     6
 40
22.0
 49
12.0
 49
-3.0
 49
0.5
 49
-3.0
 49
0.5
 49
-3.0
  0
LTYPE
  2
ACAD_ISO13W100
 70
    64
  3
__ __ . . __ __ . . __ __ . . __ __ . . __ __ .
 72
    65
 73
     8
 40
37.0
 49
12.0
 49
-3.0
 49
12.0
 49
-3.0
 49
0.5
 49
-3.0
 49
0.5
 49
-3.0
  0
LTYPE
  2
ACAD_ISO14W100
 70
    64
  3
__ . . . __ . . . __ . . . __ . . . __ . . . __
 72
    65
 73
     8
 40
25.5
 49
12.0
 49
-3.0
 49
0.5
 49
-3.0
 49
0.5
 49
-3.0
 49
0.5
 49
-3.0
  0
LTYPE
  2
ACAD_ISO15W100
 70
    64
  3
__ __ . . . __ __ . . . __ __ . . . __ __ . . .
 72
    65
 73
    10
 40
40.5
 49
12.0
 49
-3.0
 49
12.0
 49
-3.0
 49
0.5
 49
-3.0
 49
0.5
 49
-3.0
 49
0.5
 49
-3.0
  0
ENDTAB
  0
TABLE
  2
STYLE
 70
     4
  0
STYLE
  2
STANDARD
 70
    64
 40
0.0
 41
1.0
 50
0.0
 71
     0
 42
0.2
  3
txt
  4

  0
STYLE
  2
TOLERANCE
 70
    64
 40
0.0
 41
1.0
 50
0.0
 71
     0
 42
0.2
  3
../igesfont/iges1003.shx
  4

  0
STYLE
  2
ROMANS
 70
    64
 40
0.0
 41
1.0
 50
0.0
 71
     0
 42
0.2
  3
romans.shx
  4

  0
STYLE
  2
ROMANC
 70
    64
 40
0.0
 41
1.0
 50
0.0
 71
     0
 42
0.2
  3
romanc.shx
  4

  0
ENDTAB
  0
TABLE
  2
DIMSTYLE
 70
     2
  0
DIMSTYLE
  2
UNNAMED
 70
     0
  3

  4

  5

  6

  7

 40
1.0
 41
0.18
 42
0.0625
 43
0.38
 44
0.18
 45
0.0
 46
0.0
 47
0.0
 48
0.0
140
0.18
141
0.09
142
0.0
143
25.4
144
1.0
145
0.0
146
1.0
147
0.09
 71
     0
 72
     0
 73
     1
 74
     1
 75
     0
 76
     0
 77
     0
 78
     0
170
     0
171
     2
172
     0
173
     0
174
     0
175
     0
176
     0
177
     0
178
     0
  0
DIMSTYLE
  2
STANDARD
 70
     0
  3

  4

  5

  6

  7

 40
1.0
 41
0.18
 42
0.0625
 43
0.38
 44
0.18
 45
0.0
 46
0.0
 47
0.0
 48
0.0
140
0.18
141
0.09
142
0.0
143
25.4
144
1.0
145
0.0
146
1.0
147
0.09
 71
     0
 72
     0
 73
     1
 74
     1
 75
     0
 76
     0
 77
     0
 78
     0
170
     0
171
     2
172
     0
173
     0
174
     0
175
     0
176
     0
177
     0
178
     0
  0
ENDTAB
  0
TABLE
  2
LAYER
 70
     2
  0
LAYER
  2
0
 70
     0
 62
     7
  6
CONTINUOUS
  0
LAYER
  2
255
 70
     0
 62
     7
  6
CONTINUOUS
  0
ENDTAB
  0
ENDSEC
  0
SECTION
  2
BLOCKS
  0
BLOCK
  5
     B
  8
0
  6
CONTINUOUS
 62
     7
  2
*UDIM470
 70
    65
 10
0.0
 20
0.0
 30
0.0
  3
*UDIM470
  0
TEXT
  5
     C
  8
0
  6
CONTINUOUS
 62
     7
 10
-642.475942623806
 20
-122.03729217423
 30
0.0
 40
3.00000002980232
  1
65,75
 50
449.999999896069
 41
0.933333333333333
 72
     1
 11
-643.975942626596
 21
-115.337292104959
 31
0.0
 73
     2
  0
LINE
  5
     D
  8
0
  6
CONTINUOUS
 62
     7
 10
-629.271847574581
 20
-107.393402099609
 30
0.0
 11
-643.475942611694
 21
-107.393402099609
 31
0.0
  0
LINE
  5
     E
  8
0
  6
CONTINUOUS
 62
     7
 10
-641.475942611694
 20
-107.393402099609
 30
0.0
 11
-641.475942611694
 21
-123.830902099609
 31
0.0
  0
LINE
  5
     F
  8
0
  6
CONTINUOUS
 62
     7
 10
-640.954998181743
 20
-110.347825376816
 30
0.0
 11
-641.475942611694
 21
-107.393402099609
 31
0.0
  0
LINE
  5
    10
  8
0
  6
CONTINUOUS
 62
     7
 10
-641.475942611694
 20
-107.393402099609
 30
0.0
 11
-641.996887041646
 21
-110.347825376816
 31
0.0
  0
LINE
  5
    11
  8
0
  6
CONTINUOUS
 62
     7
 10
-641.996887041646
 20
-120.876478822402
 30
0.0
 11
-641.475942611694
 21
-123.830902099609
 31
0.0
  0
LINE
  5
    12
  8
0
  6
CONTINUOUS
 62
     7
 10
-641.475942611694
 20
-123.830902099609
 30
0.0
 11
-640.954998181743
 21
-120.876478822402
 31
0.0
  0
ENDBLK
  5
    13
  8
0
  6
CONTINUOUS
 62
     7
  0
BLOCK
  5
    14
  8
0
  6
CONTINUOUS
 62
     7
  2
*UDIM471
 70
    65
 10
0.0
 20
0.0
 30
0.0
  3
*UDIM471
  0
TEXT
  5
    15
  8
0
  6
CONTINUOUS
 62
     7
 10
-581.643321917415
 20
-103.078929775871
 30
0.0
 40
3.00000002980232
  1
6
 50
372.466948566418
 41
0.933333333333334
 72
     1
 11
-580.893073733935
 21
-101.376834675141
 31
0.0
 73
     2
  0
TEXT
  5
    16
  8
0
  6
CONTINUOUS
 62
     7
 10
-584.719047128483
 20
-103.758940429161
 30
0.0
 40
3.00000002980232
  1
Ø
 50
372.466948566418
 41
0.933333333333334
 72
     1
 11
-583.968798945003
 21
-102.056845328431
 31
0.0
 73
     2
  0
TEXT
  5
    17
  8
0
  6
CONTINUOUS
 62
     7
 10
-578.958164964793
 20
-102.48526966642
 30
0.0
 40
3.00000002980232
  1
 (M5)
 50
372.466948566418
 41
0.933333333333333
 72
     1
 11
-572.739960811265
 21
-99.5742667393122
 31
0.0
 73
     2
  0
LINE
  5
    18
  8
0
  6
CONTINUOUS
 62
     7
 10
-565.658251067812
 20
-100.568946625445
 30
0.0
 11
-597.25795028976
 21
-107.555309397501
 31
0.0
  0
LINE
  5
    19
  8
0
  6
CONTINUOUS
 62
     7
 10
-593.021018807143
 20
-106.085043624509
 30
0.0
 11
-595.79331924149
 21
-107.231494801718
 31
0.0
  0
LINE
  5
    1A
  8
0
  6
CONTINUOUS
 62
     7
 10
-595.79331924149
 20
-107.231494801718
 30
0.0
 11
-592.796099593796
 21
-107.102365473217
 31
0.0
  0
LINE
  5
    1B
  8
0
  6
CONTINUOUS
 62
     7
 10
-600.030250724107
 20
-108.70176057471
 30
0.0
 11
-597.25795028976
 21
-107.555309397501
 31
0.0
  0
LINE
  5
    1C
  8
0
  6
CONTINUOUS
 62
     7
 10
-597.25795028976
 20
-107.555309397501
 30
0.0
 11
-600.255169937454
 21
-107.684438726002
 31
0.0
  0
ENDBLK
  5
    1D
  8
0
  6
CONTINUOUS
 62
     7
  0
BLOCK
  5
    1E
  8
0
  6
CONTINUOUS
 62
     7
  2
*UDIM472
 70
    65
 10
0.0
 20
0.0
 30
0.0
  3
*UDIM472
  0
TEXT
  5
    1F
  8
0
  6
CONTINUOUS
 62
     7
 10
-608.494139617415
 20
-150.981147759059
 30
0.0
 40
3.00000002980232
  1
115
 50
359.999999896069
 41
0.933333333333333
 72
     1
 11
-604.594139575958
 21
-149.481147751212
 31
0.0
 73
     2
  0
LINE
  5
    20
  8
0
  6
CONTINUOUS
 62
     7
 10
-596.525634765625
 20
-146.932450338558
 30
0.0
 11
-596.525634765625
 21
-153.981147766113
 31
0.0
  0
LINE
  5
    21
  8
0
  6
CONTINUOUS
 62
     7
 10
-625.275634765625
 20
-146.104097562793
 30
0.0
 11
-625.275634765625
 21
-153.981147766113
 31
0.0
  0
LINE
  5
    22
  8
0
  6
CONTINUOUS
 62
     7
 10
-596.525634765625
 20
-151.981147766113
 30
0.0
 11
-625.275634765625
 21
-151.981147766113
 31
0.0
  0
LINE
  5
    23
  8
0
  6
CONTINUOUS
 62
     7
 10
-599.480058042832
 20
-152.502092196065
 30
0.0
 11
-596.525634765625
 21
-151.981147766113
 31
0.0
  0
LINE
  5
    24
  8
0
  6
CONTINUOUS
 62
     7
 10
-596.525634765625
 20
-151.981147766113
 30
0.0
 11
-599.480058042832
 21
-151.460203336162
 31
0.0
  0
LINE
  5
    25
  8
0
  6
CONTINUOUS
 62
     7
 10
-622.321211488418
 20
-151.460203336162
 30
0.0
 11
-625.275634765625
 21
-151.981147766113
 31
0.0
  0
LINE
  5
    26
  8
0
  6
CONTINUOUS
 62
     7
 10
-625.275634765625
 20
-151.981147766113
 30
0.0
 11
-622.321211488418
 21
-152.502092196065
 31
0.0
  0
ENDBLK
  5
    27
  8
0
  6
CONTINUOUS
 62
     7
  0
BLOCK
  5
    28
  8
0
  6
CONTINUOUS
 62
     7
  2
*UDIM473
 70
    65
 10
0.0
 20
0.0
 30
0.0
  3
*UDIM473
  0
TEXT
  5
    29
  8
0
  6
CONTINUOUS
 62
     7
 10
-652.701683051484
 20
-128.44339975883
 30
0.0
 40
3.00000002980232
  1
135
 50
449.999999896069
 41
0.933333333333333
 72
     1
 11
-654.201683059335
 21
-124.543399717376
 31
0.0
 73
     2
  0
LINE
  5
    2A
  8
0
  6
CONTINUOUS
 62
     7
 10
-629.27184757458
 20
-107.393401315898
 30
0.0
 11
-653.701683044433
 21
-107.393382169947
 31
0.0
  0
LINE
  5
    2B
  8
0
  6
CONTINUOUS
 62
     7
 10
-629.323619623066
 20
-141.143401314162
 30
0.0
 11
-653.701683044433
 21
-141.143382166476
 31
0.0
  0
LINE
  5
    2C
  8
0
  6
CONTINUOUS
 62
     7
 10
-651.701683044434
 20
-107.39338373737
 30
0.0
 11
-651.701683044434
 21
-141.14338373737
 31
0.0
  0
LINE
  5
    2D
  8
0
  6
CONTINUOUS
 62
     7
 10
-651.180738614482
 20
-110.347807014577
 30
0.0
 11
-651.701683044434
 21
-107.39338373737
 31
0.0
  0
LINE
  5
    2E
  8
0
  6
CONTINUOUS
 62
     7
 10
-651.701683044434
 20
-107.39338373737
 30
0.0
 11
-652.222627474385
 21
-110.347807014577
 31
0.0
  0
LINE
  5
    2F
  8
0
  6
CONTINUOUS
 62
     7
 10
-652.222627474385
 20
-138.188960460163
 30
0.0
 11
-651.701683044434
 21
-141.14338373737
 31
0.0
  0
LINE
  5
    30
  8
0
  6
CONTINUOUS
 62
     7
 10
-651.701683044434
 20
-141.14338373737
 30
0.0
 11
-651.180738614482
 21
-138.188960460163
 31
0.0
  0
ENDBLK
  5
    31
  8
0
  6
CONTINUOUS
 62
     7
  0
BLOCK
  5
    32
  8
0
  6
CONTINUOUS
 62
     7
  2
CS5
 70
    64
 10
0.0
 20
0.0
 30
0.0
  3
CS5
  0
LINE
  5
    33
  8
0
  6
CONTINUOUS
 62
     3
 10
-167.300026810909
 20
236.487045567246
 30
0.0
 11
-167.300026810909
 21
283.987015113429
 31
0.0
  0
LINE
  5
    34
  8
0
  6
CONTINUOUS
 62
     3
 10
-27.3000268109382
 20
236.487043033883
 30
0.0
 11
-27.3000268109382
 21
283.987015113429
 31
0.0
  0
LINE
  5
    35
  8
0
  6
CONTINUOUS
 62
     7
 10
-166.050026810909
 20
285.237015113429
 30
0.0
 11
-28.5500268109382
 21
285.237015113429
 31
0.0
  0
ARC
  5
    36
  8
0
  6
CONTINUOUS
 62
     7
 10
-28.5500268109382
 20
283.987015113429
 30
0.0
 40
1.25
 50
360.0
 51
450.0
  0
ARC
  5
    37
  8
0
  6
CONTINUOUS
 62
     7
 10
-166.050026810909
 20
283.987015113429
 30
0.0
 40
1.25
 50
90.0
 51
180.0
  0
LINE
  5
    38
  8
0
  6
CONTINUOUS
 62
     7
 10
-167.300026810909
 20
238.737015113429
 30
0.0
 11
-27.3000268109382
 21
238.737015113429
 31
0.0
  0
LINE
  5
    39
  8
0
  6
CONTINUOUS
 62
     3
 10
-159.65002719238
 20
238.737015113429
 30
0.0
 11
-159.65002719238
 21
285.237015113429
 31
0.0
  0
LINE
  5
    3A
  8
0
  6
CONTINUOUS
 62
     3
 10
-156.050027764585
 20
238.737015113429
 30
0.0
 11
-156.050027764585
 21
285.237015113429
 31
0.0
  0
LINE
  5
    3B
  8
0
  6
CONTINUOUS
 62
     3
 10
-148.850029862668
 20
238.737015113429
 30
0.0
 11
-148.850029862668
 21
285.237015113429
 31
0.0
  0
LINE
  5
    3C
  8
0
  6
CONTINUOUS
 62
     3
 10
-145.250039017942
 20
238.737015113429
 30
0.0
 11
-145.250039017942
 21
285.237015113429
 31
0.0
  0
LINE
  5
    3D
  8
0
  6
CONTINUOUS
 62
     3
 10
-141.650032914426
 20
238.737015113429
 30
0.0
 11
-141.650032914426
 21
285.237015113429
 31
0.0
  0
LINE
  5
    3E
  8
0
  6
CONTINUOUS
 62
     3
 10
-138.0500420697
 20
238.737015113429
 30
0.0
 11
-138.0500420697
 21
285.237015113429
 31
0.0
  0
LINE
  5
    3F
  8
0
  6
CONTINUOUS
 62
     3
 10
-134.450035966184
 20
238.737015113429
 30
0.0
 11
-134.450035966184
 21
285.237015113429
 31
0.0
  0
LINE
  5
    40
  8
0
  6
CONTINUOUS
 62
     3
 10
-130.850029862668
 20
238.737015113429
 30
0.0
 11
-130.850029862668
 21
285.237015113429
 31
0.0
  0
LINE
  5
    41
  8
0
  6
CONTINUOUS
 62
     3
 10
-127.250039017942
 20
238.737015113429
 30
0.0
 11
-127.250039017942
 21
285.237015113429
 31
0.0
  0
LINE
  5
    42
  8
0
  6
CONTINUOUS
 62
     3
 10
-123.650032914426
 20
238.737015113429
 30
0.0
 11
-123.650032914426
 21
285.237015113429
 31
0.0
  0
LINE
  5
    43
  8
0
  6
CONTINUOUS
 62
     3
 10
-120.0500420697
 20
238.737015113429
 30
0.0
 11
-120.0500420697
 21
285.237015113429
 31
0.0
  0
LINE
  5
    44
  8
0
  6
CONTINUOUS
 62
     3
 10
-116.450035966184
 20
238.737015113429
 30
0.0
 11
-116.450035966184
 21
285.237015113429
 31
0.0
  0
LINE
  5
    45
  8
0
  6
CONTINUOUS
 62
     3
 10
-112.850029862668
 20
238.737015113429
 30
0.0
 11
-112.850029862668
 21
285.237015113429
 31
0.0
  0
LINE
  5
    46
  8
0
  6
CONTINUOUS
 62
     3
 10
-109.250039017942
 20
238.737015113429
 30
0.0
 11
-109.250039017942
 21
285.237015113429
 31
0.0
  0
LINE
  5
    47
  8
0
  6
CONTINUOUS
 62
     3
 10
-105.650032914426
 20
238.737015113429
 30
0.0
 11
-105.650032914426
 21
285.237015113429
 31
0.0
  0
LINE
  5
    48
  8
0
  6
CONTINUOUS
 62
     3
 10
-102.0500420697
 20
238.737015113429
 30
0.0
 11
-102.0500420697
 21
285.237015113429
 31
0.0
  0
LINE
  5
    49
  8
0
  6
CONTINUOUS
 62
     3
 10
-98.4500359661839
 20
238.737015113429
 30
0.0
 11
-98.4500359661839
 21
285.237015113429
 31
0.0
  0
LINE
  5
    4A
  8
0
  6
CONTINUOUS
 62
     3
 10
-163.25002757385
 20
238.737015113429
 30
0.0
 11
-163.25002757385
 21
285.237015113429
 31
0.0
  0
LINE
  5
    4B
  8
0
  6
CONTINUOUS
 62
     3
 10
-152.450027383115
 20
238.737015113429
 30
0.0
 11
-152.450027383115
 21
285.237015113429
 31
0.0
  0
LINE
  5
    4C
  8
0
  6
CONTINUOUS
 62
     3
 10
-94.8500298626683
 20
238.737015113429
 30
0.0
 11
-94.8500298626683
 21
285.237015113429
 31
0.0
  0
LINE
  5
    4D
  8
0
  6
CONTINUOUS
 62
     3
 10
-91.2500390179417
 20
238.737015113429
 30
0.0
 11
-91.2500390179417
 21
285.237015113429
 31
0.0
  0
LINE
  5
    4E
  8
0
  6
CONTINUOUS
 62
     3
 10
-87.6500329144261
 20
238.737015113429
 30
0.0
 11
-87.6500329144261
 21
285.237015113429
 31
0.0
  0
LINE
  5
    4F
  8
0
  6
CONTINUOUS
 62
     3
 10
-84.0500420696995
 20
238.737015113429
 30
0.0
 11
-84.0500420696995
 21
285.237015113429
 31
0.0
  0
LINE
  5
    50
  8
0
  6
CONTINUOUS
 62
     3
 10
-80.4500359661839
 20
238.737015113429
 30
0.0
 11
-80.4500359661839
 21
285.237015113429
 31
0.0
  0
LINE
  5
    51
  8
0
  6
CONTINUOUS
 62
     3
 10
-76.8500298626683
 20
238.737015113429
 30
0.0
 11
-76.8500298626683
 21
285.237015113429
 31
0.0
  0
LINE
  5
    52
  8
0
  6
CONTINUOUS
 62
     3
 10
-73.2500390179417
 20
238.737015113429
 30
0.0
 11
-73.2500390179417
 21
285.237015113429
 31
0.0
  0
LINE
  5
    53
  8
0
  6
CONTINUOUS
 62
     3
 10
-69.6500329144261
 20
238.737015113429
 30
0.0
 11
-69.6500329144261
 21
285.237015113429
 31
0.0
  0
LINE
  5
    54
  8
0
  6
CONTINUOUS
 62
     3
 10
-66.0500420696995
 20
238.737015113429
 30
0.0
 11
-66.0500420696995
 21
285.237015113429
 31
0.0
  0
LINE
  5
    55
  8
0
  6
CONTINUOUS
 62
     3
 10
-62.4500359661839
 20
238.737015113429
 30
0.0
 11
-62.4500359661839
 21
285.237015113429
 31
0.0
  0
LINE
  5
    56
  8
0
  6
CONTINUOUS
 62
     3
 10
-58.8500298626683
 20
238.737015113429
 30
0.0
 11
-58.8500298626683
 21
285.237015113429
 31
0.0
  0
LINE
  5
    57
  8
0
  6
CONTINUOUS
 62
     3
 10
-55.2500390179417
 20
238.737015113429
 30
0.0
 11
-55.2500390179417
 21
285.237015113429
 31
0.0
  0
LINE
  5
    58
  8
0
  6
CONTINUOUS
 62
     3
 10
-51.6500329144261
 20
238.737015113429
 30
0.0
 11
-51.6500329144261
 21
285.237015113429
 31
0.0
  0
LINE
  5
    59
  8
0
  6
CONTINUOUS
 62
     3
 10
-48.0500420696995
 20
238.737015113429
 30
0.0
 11
-48.0500420696995
 21
285.237015113429
 31
0.0
  0
LINE
  5
    5A
  8
0
  6
CONTINUOUS
 62
     3
 10
-44.4500359661839
 20
238.737015113429
 30
0.0
 11
-44.4500359661839
 21
285.237015113429
 31
0.0
  0
LINE
  5
    5B
  8
0
  6
CONTINUOUS
 62
     3
 10
-40.8500298626683
 20
238.737015113429
 30
0.0
 11
-40.8500298626683
 21
285.237015113429
 31
0.0
  0
LINE
  5
    5C
  8
0
  6
CONTINUOUS
 62
     3
 10
-33.6500329144261
 20
238.737015113429
 30
0.0
 11
-33.6500329144261
 21
285.237015113429
 31
0.0
  0
LINE
  5
    5D
  8
0
  6
CONTINUOUS
 62
     3
 10
-37.2500390179415
 20
238.737015113429
 30
0.0
 11
-37.2500390179415
 21
285.237015113429
 31
0.0
  0
LINE
  5
    5E
  8
0
  6
CONTINUOUS
 62
     3
 10
-30.0500420696993
 20
238.737015113429
 30
0.0
 11
-30.0500420696993
 21
285.237015113429
 31
0.0
  0
ENDBLK
  5
    5F
  8
0
  6
CONTINUOUS
 62
     7
  0
BLOCK
  5
    60
  8
0
  6
CONTINUOUS
 62
     7
  2
MOSTRA
 70
    64
 10
0.0
 20
0.0
 30
0.0
  3
MOSTRA
  0
LINE
  5
    61
  8
0
  6
CONTINUOUS
 62
     2
 10
175.338317871094
 20
34.312744140625
 30
0.0
 11
210.838317871094
 21
34.312744140625
 31
0.0
  0
LINE
  5
    62
  8
0
  6
CONTINUOUS
 62
     2
 10
175.338317871094
 20
49.312744140625
 30
0.0
 11
210.838317871094
 21
49.312744140625
 31
0.0
  0
LINE
  5
    63
  8
0
  6
CONTINUOUS
 62
     2
 10
210.838317871094
 20
33.312744140625
 30
0.0
 11
210.838317871094
 21
50.312744140625
 31
0.0
  0
LINE
  5
    64
  8
0
  6
CONTINUOUS
 62
     2
 10
175.338317871094
 20
34.312744140625
 30
0.0
 11
175.338317871094
 21
49.312744140625
 31
0.0
  0
LINE
  5
    65
  8
0
  6
CONTINUOUS
 62
     2
 10
210.838317871094
 20
50.312744140625
 30
0.0
 11
210.838317871094
 21
148.306442260742
 31
0.0
  0
LINE
  5
    66
  8
0
  6
CONTINUOUS
 62
     2
 10
210.838317871094
 20
-10.187255859375
 30
0.0
 11
210.838317871094
 21
33.3127403259278
 31
0.0
  0
LINE
  5
    67
  8
0
  6
CONTINUOUS
 62
     2
 10
37.5883140563965
 20
-11.437255859375
 30
0.0
 11
209.588317871094
 21
-11.437255859375
 31
0.0
  0
LINE
  5
    68
  8
0
  6
CONTINUOUS
 62
     2
 10
36.3383140563965
 20
-10.187255859375
 30
0.0
 11
36.3383140563965
 21
148.306442260742
 31
0.0
  0
LINE
  5
    69
  8
0
  6
CONTINUOUS
 62
     2
 10
175.338317871094
 20
128.562744140625
 30
0.0
 11
175.338317871094
 21
129.562744140625
 31
0.0
  0
LINE
  5
    6A
  8
0
  6
CONTINUOUS
 62
     2
 10
45.3383140563965
 20
128.562744140625
 30
0.0
 11
45.3383140563965
 21
129.562744140625
 31
0.0
  0
LINE
  5
    6B
  8
0
  6
CONTINUOUS
 62
     2
 10
175.338317871094
 20
8.56274414062501
 30
0.0
 11
175.338317871094
 21
9.56274414062501
 31
0.0
  0
LINE
  5
    6C
  8
0
  6
CONTINUOUS
 62
     2
 10
46.3383140563965
 20
8.562744140625
 30
0.0
 11
174.338314056396
 21
8.56274414062501
 31
0.0
  0
LINE
  5
    6D
  8
0
  6
CONTINUOUS
 62
     2
 10
45.3383140563965
 20
8.562744140625
 30
0.0
 11
45.3383140563965
 21
9.562744140625
 31
0.0
  0
LINE
  5
    6E
  8
0
  6
CONTINUOUS
 62
     2
 10
174.338317871094
 20
-11.437255859375
 30
0.0
 11
174.338317871094
 21
8.56274414062501
 31
0.0
  0
LINE
  5
    6F
  8
0
  6
CONTINUOUS
 62
     2
 10
175.338317871094
 20
129.562744140625
 30
0.0
 11
175.338317871094
 21
149.562744140625
 31
0.0
  0
LINE
  5
    70
  8
0
  6
CONTINUOUS
 62
     2
 10
175.338317871094
 20
9.56274414062501
 30
0.0
 11
175.338317871094
 21
33.312744140625
 31
0.0
  0
LINE
  5
    71
  8
0
  6
CONTINUOUS
 62
     2
 10
175.338317871094
 20
50.312744140625
 30
0.0
 11
175.338317871094
 21
128.562744140625
 31
0.0
  0
LINE
  5
    72
  8
0
  6
CONTINUOUS
 62
     2
 10
175.338317871094
 20
-11.437255859375
 30
0.0
 11
175.338317871094
 21
8.56274414062501
 31
0.0
  0
LINE
  5
    73
  8
0
  6
CONTINUOUS
 62
     2
 10
45.3383140563965
 20
129.562744140625
 30
0.0
 11
45.3383140563965
 21
149.562744140625
 31
0.0
  0
LINE
  5
    74
  8
0
  6
CONTINUOUS
 62
     2
 10
45.3383140563965
 20
9.562744140625
 30
0.0
 11
45.3383140563965
 21
128.562744140625
 31
0.0
  0
LINE
  5
    75
  8
0
  6
CONTINUOUS
 62
     2
 10
45.3383140563965
 20
-11.437255859375
 30
0.0
 11
45.3383140563965
 21
8.562744140625
 31
0.0
  0
LINE
  5
    76
  8
0
  6
CONTINUOUS
 62
     2
 10
46.3383140563965
 20
-11.437255859375
 30
0.0
 11
46.3383140563965
 21
8.562744140625
 31
0.0
  0
LINE
  5
    77
  8
0
  6
CONTINUOUS
 62
     2
 10
175.338317871094
 20
33.312744140625
 30
0.0
 11
210.838317871094
 21
33.312744140625
 31
0.0
  0
LINE
  5
    78
  8
0
  6
CONTINUOUS
 62
     2
 10
175.338317871094
 20
50.312744140625
 30
0.0
 11
210.838317871094
 21
50.312744140625
 31
0.0
  0
LINE
  5
    79
  8
0
  6
CONTINUOUS
 62
     2
 10
175.388320922852
 20
49.312744140625
 30
0.0
 11
175.388320922852
 21
50.312744140625
 31
0.0
  0
LINE
  5
    7A
  8
0
  6
CONTINUOUS
 62
     2
 10
175.388320922852
 20
33.312744140625
 30
0.0
 11
175.388320922852
 21
34.312744140625
 31
0.0
  0
LINE
  5
    7B
  8
0
  6
CONTINUOUS
 62
     2
 10
46.3383140563965
 20
128.562744140625
 30
0.0
 11
174.338314056396
 21
128.562744140625
 31
0.0
  0
LINE
  5
    7C
  8
0
  6
CONTINUOUS
 62
     2
 10
46.3383140563965
 20
9.562744140625
 30
0.0
 11
174.338314056396
 21
9.56274414062501
 31
0.0
  0
LINE
  5
    7D
  8
0
  6
CONTINUOUS
 62
     2
 10
174.338317871094
 20
9.56274414062501
 30
0.0
 11
174.338317871094
 21
128.562744140625
 31
0.0
  0
LINE
  5
    7E
  8
0
  6
CONTINUOUS
 62
     2
 10
46.3383140563965
 20
9.562744140625
 30
0.0
 11
46.3383140563965
 21
128.562744140625
 31
0.0
  0
LINE
  5
    7F
  8
0
  6
CONTINUOUS
 62
     2
 10
167.338315963745
 20
121.562743016692
 30
0.0
 11
174.338312295455
 21
128.562739348402
 31
0.0
  0
LINE
  5
    80
  8
0
  6
CONTINUOUS
 62
     2
 10
46.3383156391412
 20
128.562746004959
 30
0.0
 11
62.3383159637451
 21
121.033336629486
 31
0.0
  0
LINE
  5
    81
  8
0
  6
CONTINUOUS
 62
     2
 10
167.338315963745
 20
16.5627619426901
 30
0.0
 11
174.338335117812
 21
9.56273924827786
 31
0.0
  0
LINE
  5
    82
  8
0
  6
CONTINUOUS
 62
     2
 10
46.3383186567184
 20
9.56274576222224
 30
0.0
 11
62.3383159637451
 21
17.092157375641
 31
0.0
  0
LINE
  5
    83
  8
0
  6
CONTINUOUS
 62
     2
 10
174.338256835938
 20
129.556442260742
 30
0.0
 11
174.338256835938
 21
149.556442260742
 31
0.0
  0
LINE
  5
    84
  8
0
  6
CONTINUOUS
 62
     2
 10
45.3383140563965
 20
129.556442260742
 30
0.0
 11
175.338317871094
 21
129.556442260742
 31
0.0
  0
LINE
  5
    85
  8
0
  6
CONTINUOUS
 62
     2
 10
37.5883140563965
 20
149.556442260742
 30
0.0
 11
45.3383140563965
 21
149.556442260742
 31
0.0
  0
LINE
  5
    86
  8
0
  6
CONTINUOUS
 62
     2
 10
115.343585020102
 20
149.556442260742
 30
0.0
 11
175.338317871094
 21
149.556442260742
 31
0.0
  0
ARC
  5
    87
  8
0
  6
CONTINUOUS
 62
     2
 10
110.338285446167
 20
153.703627621259
 30
0.0
 40
6.50016693934245
 50
219.643748317915
 51
320.356251682085
  0
LINE
  5
    88
  8
0
  6
CONTINUOUS
 62
     2
 10
105.332985872232
 20
149.556442260742
 30
0.0
 11
115.343585020102
 21
149.556442260742
 31
0.0
  0
LINE
  5
    89
  8
0
  6
CONTINUOUS
 62
     2
 10
46.3383140563965
 20
129.562744140625
 30
0.0
 11
46.3383140563965
 21
149.562744140625
 31
0.0
  0
LINE
  5
    8A
  8
0
  6
CONTINUOUS
 62
     2
 10
45.3383140563965
 20
149.556442260742
 30
0.0
 11
105.332985872232
 21
149.556442260742
 31
0.0
  0
LINE
  5
    8B
  8
0
  6
CONTINUOUS
 62
     2
 10
175.338317871094
 20
149.556442260742
 30
0.0
 11
209.588317871094
 21
149.556442260742
 31
0.0
  0
POINT
  5
    8C
  8
0
  6
CONTINUOUS
 62
     2
 10
114.838315963745
 20
69.062744140625
 30
0.0
  0
ARC
  5
    8D
  8
0
  6
CONTINUOUS
 62
     2
 10
37.5883140563965
 20
148.306442260742
 30
0.0
 40
1.25
 50
90.0
 51
180.0
  0
ARC
  5
    8E
  8
0
  6
CONTINUOUS
 62
     2
 10
37.5883140563965
 20
-10.187255859375
 30
0.0
 40
1.25
 50
180.0
 51
270.0
  0
ARC
  5
    8F
  8
0
  6
CONTINUOUS
 62
     2
 10
209.588317871094
 20
-10.187255859375
 30
0.0
 40
1.25
 50
270.0
 51
360.0
  0
ARC
  5
    90
  8
0
  6
CONTINUOUS
 62
     2
 10
209.588317871094
 20
148.306442260742
 30
0.0
 40
1.25
 50
0.0
 51
90.0
  0
ENDBLK
  5
    91
  8
0
  6
CONTINUOUS
 62
     7
  0
BLOCK
  5
    92
  8
0
  6
CONTINUOUS
 62
     7
  2
*UDIM474
 70
    65
 10
0.0
 20
0.0
 30
0.0
  3
*UDIM474
  0
TEXT
  5
    93
  8
0
  6
CONTINUOUS
 62
     7
 10
-435.975489765419
 20
-89.9290069730444
 30
0.0
 40
2.99999994291904
  1
96
 50
359.999999948034
 41
0.933333333333333
 72
     1
 11
-433.475489811633
 21
-88.4290070038397
 31
0.0
 73
     2
  0
LINE
  5
    94
  8
0
  6
CONTINUOUS
 62
     7
 10
-410.64048833354
 20
-24.1399583565934
 30
0.0
 11
-410.64048833354
 21
-92.9290069752992
 31
0.0
  0
LINE
  5
    95
  8
0
  6
CONTINUOUS
 62
     7
 10
-455.760489115552
 20
-86.3739698893201
 30
0.0
 11
-455.760489115552
 21
-92.9290069752992
 31
0.0
  0
LINE
  5
    96
  8
0
  6
CONTINUOUS
 62
     7
 10
-410.64048833354
 20
-90.9290069752992
 30
0.0
 11
-455.760489115552
 21
-90.9290069752992
 31
0.0
  0
LINE
  5
    97
  8
0
  6
CONTINUOUS
 62
     7
 10
-413.594911610746
 20
-91.4499514052509
 30
0.0
 11
-410.64048833354
 21
-90.9290069752992
 31
0.0
  0
LINE
  5
    98
  8
0
  6
CONTINUOUS
 62
     7
 10
-410.64048833354
 20
-90.9290069752992
 30
0.0
 11
-413.594911610746
 21
-90.4080625453476
 31
0.0
  0
LINE
  5
    99
  8
0
  6
CONTINUOUS
 62
     7
 10
-452.806065838346
 20
-90.4080625453476
 30
0.0
 11
-455.760489115552
 21
-90.9290069752992
 31
0.0
  0
LINE
  5
    9A
  8
0
  6
CONTINUOUS
 62
     7
 10
-455.760489115552
 20
-90.9290069752992
 30
0.0
 11
-452.806065838346
 21
-91.4499514052509
 31
0.0
  0
ENDBLK
  5
    9B
  8
0
  6
CONTINUOUS
 62
     7
  0
BLOCK
  5
    9C
  8
0
  6
CONTINUOUS
 62
     7
  2
*UDIM475
 70
    65
 10
0.0
 20
0.0
 30
0.0
  3
*UDIM475
  0
TEXT
  5
    9D
  8
0
  6
CONTINUOUS
 62
     7
 10
-479.782990896785
 20
-89.9290069705189
 30
0.0
 40
2.99999994291904
  1
78,5
 50
359.999999948034
 41
0.933333333333333
 72
     1
 11
-474.482990996276
 21
-88.4290070038397
 31
0.0
 73
     2
  0
LINE
  5
    9E
  8
0
  6
CONTINUOUS
 62
     7
 10
-492.655489918427
 20
-24.1399583565934
 30
0.0
 11
-492.655489918427
 21
-92.9290069752992
 31
0.0
  0
LINE
  5
    9F
  8
0
  6
CONTINUOUS
 62
     7
 10
-455.760489115552
 20
-90.9290069752992
 30
0.0
 11
-492.655489918427
 21
-90.9290069752992
 31
0.0
  0
LINE
  5
    A0
  8
0
  6
CONTINUOUS
 62
     7
 10
-458.714912392759
 20
-91.4499514052509
 30
0.0
 11
-455.760489115552
 21
-90.9290069752992
 31
0.0
  0
LINE
  5
    A1
  8
0
  6
CONTINUOUS
 62
     7
 10
-455.760489115552
 20
-90.9290069752992
 30
0.0
 11
-458.714912392759
 21
-90.4080625453476
 31
0.0
  0
LINE
  5
    A2
  8
0
  6
CONTINUOUS
 62
     7
 10
-489.70106664122
 20
-90.4080625453476
 30
0.0
 11
-492.655489918427
 21
-90.9290069752992
 31
0.0
  0
LINE
  5
    A3
  8
0
  6
CONTINUOUS
 62
     7
 10
-492.655489918427
 20
-90.9290069752992
 30
0.0
 11
-489.70106664122
 21
-91.4499514052509
 31
0.0
  0
ENDBLK
  5
    A4
  8
0
  6
CONTINUOUS
 62
     7
  0
BLOCK
  5
    A5
  8
0
  6
CONTINUOUS
 62
     7
  2
*UDIM476
 70
    65
 10
0.0
 20
0.0
 30
0.0
  3
*UDIM476
  0
TEXT
  5
    A6
  8
0
  6
CONTINUOUS
 62
     7
 10
-497.008060851133
 20
9.93105998512251
 30
0.0
 40
2.99999994291904
  1
161
 50
89.9999999480344
 41
0.933333333333333
 72
     1
 11
-498.50806081906
 21
13.8310599122758
 31
0.0
 73
     2
  0
LINE
  5
    A7
  8
0
  6
CONTINUOUS
 62
     7
 10
-493.067989919917
 20
-23.7274583551033
 30
0.0
 11
-498.008060847601
 21
-23.7274583551033
 31
0.0
  0
LINE
  5
    A8
  8
0
  6
CONTINUOUS
 62
     7
 10
-489.425489929156
 20
51.9395795694324
 30
0.0
 11
-498.008060847601
 21
51.9395795694324
 31
0.0
  0
LINE
  5
    A9
  8
0
  6
CONTINUOUS
 62
     7
 10
-496.008060847601
 20
-23.7274583551033
 30
0.0
 11
-496.008060847601
 21
51.9395795694324
 31
0.0
  0
LINE
  5
    AA
  8
0
  6
CONTINUOUS
 62
     7
 10
-496.529005277552
 20
-20.7730350778963
 30
0.0
 11
-496.008060847601
 21
-23.7274583551033
 31
0.0
  0
LINE
  5
    AB
  8
0
  6
CONTINUOUS
 62
     7
 10
-496.008060847601
 20
-23.7274583551033
 30
0.0
 11
-495.487116417649
 21
-20.7730350778963
 31
0.0
  0
LINE
  5
    AC
  8
0
  6
CONTINUOUS
 62
     7
 10
-495.487116417649
 20
48.9851562922254
 30
0.0
 11
-496.008060847601
 21
51.9395795694324
 31
0.0
  0
LINE
  5
    AD
  8
0
  6
CONTINUOUS
 62
     7
 10
-496.008060847601
 20
51.9395795694324
 30
0.0
 11
-496.529005277552
 21
48.9851562922254
 31
0.0
  0
ENDBLK
  5
    AE
  8
0
  6
CONTINUOUS
 62
     7
  0
BLOCK
  5
    AF
  8
0
  6
CONTINUOUS
 62
     7
  2
*UDIM477
 70
    65
 10
0.0
 20
0.0
 30
0.0
  3
*UDIM477
  0
TEXT
  5
    B0
  8
0
  6
CONTINUOUS
 62
     7
 10
-530.115550391184
 20
3.55102650318611
 30
0.0
 40
2.99999994291904
  1
354
 50
89.9999999480344
 41
0.933333333333333
 72
     1
 11
-531.615550359111
 21
7.45102643033944
 31
0.0
 73
     2
  0
LINE
  5
    B1
  8
0
  6
CONTINUOUS
 62
     7
 10
-489.072992383649
 20
-69.9049410276877
 30
0.0
 11
-531.115550387651
 21
-69.9049410276877
 31
0.0
  0
LINE
  5
    B2
  8
0
  6
CONTINUOUS
 62
     7
 10
-489.072992383649
 20
96.4750014996109
 30
0.0
 11
-531.115550387651
 21
96.4750014996109
 31
0.0
  0
LINE
  5
    B3
  8
0
  6
CONTINUOUS
 62
     7
 10
-529.115550387651
 20
-69.9049410276877
 30
0.0
 11
-529.115550387651
 21
96.4750014996109
 31
0.0
  0
LINE
  5
    B4
  8
0
  6
CONTINUOUS
 62
     7
 10
-529.636494817603
 20
-66.9505177504808
 30
0.0
 11
-529.115550387651
 21
-69.9049410276877
 31
0.0
  0
LINE
  5
    B5
  8
0
  6
CONTINUOUS
 62
     7
 10
-529.115550387651
 20
-69.9049410276877
 30
0.0
 11
-528.5946059577
 21
-66.9505177504808
 31
0.0
  0
LINE
  5
    B6
  8
0
  6
CONTINUOUS
 62
     7
 10
-528.5946059577
 20
93.5205782224039
 30
0.0
 11
-529.115550387651
 21
96.4750014996109
 31
0.0
  0
LINE
  5
    B7
  8
0
  6
CONTINUOUS
 62
     7
 10
-529.115550387651
 20
96.4750014996109
 30
0.0
 11
-529.636494817603
 21
93.5205782224039
 31
0.0
  0
ENDBLK
  5
    B8
  8
0
  6
CONTINUOUS
 62
     7
  0
BLOCK
  5
    B9
  8
0
  6
CONTINUOUS
 62
     7
  2
*UDIM478
 70
    65
 10
0.0
 20
0.0
 30
0.0
  3
*UDIM478
  0
TEXT
  5
    BA
  8
0
  6
CONTINUOUS
 62
     7
 10
-521.358860048545
 20
46.9162728310795
 30
0.0
 40
2.99999994291904
  1
175,25
 50
89.9999999480344
 41
0.933333333333333
 72
     1
 11
-522.858860012669
 21
55.0162726783194
 31
0.0
 73
     2
  0
LINE
  5
    BB
  8
0
  6
CONTINUOUS
 62
     7
 10
-511.322784953301
 20
14.1075415489332
 30
0.0
 11
-522.358860041209
 21
14.1075415489332
 31
0.0
  0
LINE
  5
    BC
  8
0
  6
CONTINUOUS
 62
     7
 10
-489.072992383649
 20
96.4750014996109
 30
0.0
 11
-522.358860041209
 21
96.4750014996109
 31
0.0
  0
LINE
  5
    BD
  8
0
  6
CONTINUOUS
 62
     7
 10
-520.358860041209
 20
14.1075415489332
 30
0.0
 11
-520.358860041209
 21
96.4750014996109
 31
0.0
  0
LINE
  5
    BE
  8
0
  6
CONTINUOUS
 62
     7
 10
-520.879804471161
 20
17.0619648261402
 30
0.0
 11
-520.358860041209
 21
14.1075415489332
 31
0.0
  0
LINE
  5
    BF
  8
0
  6
CONTINUOUS
 62
     7
 10
-520.358860041209
 20
14.1075415489332
 30
0.0
 11
-519.837915611257
 21
17.0619648261402
 31
0.0
  0
LINE
  5
    C0
  8
0
  6
CONTINUOUS
 62
     7
 10
-519.837915611257
 20
93.5205782224039
 30
0.0
 11
-520.358860041209
 21
96.4750014996109
 31
0.0
  0
LINE
  5
    C1
  8
0
  6
CONTINUOUS
 62
     7
 10
-520.358860041209
 20
96.4750014996109
 30
0.0
 11
-520.879804471161
 21
93.5205782224039
 31
0.0
  0
ENDBLK
  5
    C2
  8
0
  6
CONTINUOUS
 62
     7
  0
BLOCK
  5
    C3
  8
0
  6
CONTINUOUS
 62
     7
  2
*UDIM479
 70
    65
 10
0.0
 20
0.0
 30
0.0
  3
*UDIM479
  0
TEXT
  5
    C4
  8
0
  6
CONTINUOUS
 62
     7
 10
-504.56520271199
 20
35.7537728593917
 30
0.0
 40
2.99999994291904
  1
127,75
 50
89.9999999480344
 41
0.933333333333333
 72
     1
 11
-506.065202676113
 21
43.8537727066317
 31
0.0
 73
     2
  0
LINE
  5
    C5
  8
0
  6
CONTINUOUS
 62
     7
 10
-489.072991815811
 20
74.1500015562353
 30
0.0
 11
-505.565202704654
 21
74.1500015562353
 31
0.0
  0
LINE
  5
    C6
  8
0
  6
CONTINUOUS
 62
     7
 10
-503.565202704654
 20
14.1075415489332
 30
0.0
 11
-503.565202704654
 21
74.1500015562353
 31
0.0
  0
LINE
  5
    C7
  8
0
  6
CONTINUOUS
 62
     7
 10
-504.086147134605
 20
17.0619648261402
 30
0.0
 11
-503.565202704654
 21
14.1075415489332
 31
0.0
  0
LINE
  5
    C8
  8
0
  6
CONTINUOUS
 62
     7
 10
-503.565202704654
 20
14.1075415489332
 30
0.0
 11
-503.044258274702
 21
17.0619648261402
 31
0.0
  0
LINE
  5
    C9
  8
0
  6
CONTINUOUS
 62
     7
 10
-503.044258274702
 20
71.1955782790284
 30
0.0
 11
-503.565202704654
 21
74.1500015562353
 31
0.0
  0
LINE
  5
    CA
  8
0
  6
CONTINUOUS
 62
     7
 10
-503.565202704654
 20
74.1500015562353
 30
0.0
 11
-504.086147134605
 21
71.1955782790284
 31
0.0
  0
ENDBLK
  5
    CB
  8
0
  6
CONTINUOUS
 62
     7
  0
BLOCK
  5
    CC
  8
0
  6
CONTINUOUS
 62
     7
  2
*UDIM480
 70
    65
 10
0.0
 20
0.0
 30
0.0
  3
*UDIM480
  0
TEXT
  5
    CD
  8
0
  6
CONTINUOUS
 62
     7
 10
-438.882977292112
 20
-99.1655152771278
 30
0.0
 40
2.99999994291904
  1
101,5
 50
359.999999948034
 41
0.933333333333333
 72
     1
 11
-432.18297741824
 21
-97.6655153117114
 31
0.0
 73
     2
  0
LINE
  5
    CE
  8
0
  6
CONTINUOUS
 62
     7
 10
-408.055469765902
 20
7.58501231880554
 30
0.0
 11
-408.055469765902
 21
-102.165515283171
 31
0.0
  0
LINE
  5
    CF
  8
0
  6
CONTINUOUS
 62
     7
 10
-455.760489115552
 20
-86.3739698893201
 30
0.0
 11
-455.760489115552
 21
-102.165515283171
 31
0.0
  0
LINE
  5
    D0
  8
0
  6
CONTINUOUS
 62
     7
 10
-408.055469765902
 20
-100.165515283171
 30
0.0
 11
-455.760489115552
 21
-100.165515283171
 31
0.0
  0
LINE
  5
    D1
  8
0
  6
CONTINUOUS
 62
     7
 10
-411.009893043109
 20
-100.686459713123
 30
0.0
 11
-408.055469765902
 21
-100.165515283171
 31
0.0
  0
LINE
  5
    D2
  8
0
  6
CONTINUOUS
 62
     7
 10
-408.055469765902
 20
-100.165515283171
 30
0.0
 11
-411.009893043109
 21
-99.6445708532192
 31
0.0
  0
LINE
  5
    D3
  8
0
  6
CONTINUOUS
 62
     7
 10
-452.806065838346
 20
-99.6445708532192
 30
0.0
 11
-455.760489115552
 21
-100.165515283171
 31
0.0
  0
LINE
  5
    D4
  8
0
  6
CONTINUOUS
 62
     7
 10
-455.760489115552
 20
-100.165515283171
 30
0.0
 11
-452.806065838346
 21
-100.686459713123
 31
0.0
  0
ENDBLK
  5
    D5
  8
0
  6
CONTINUOUS
 62
     7
  0
BLOCK
  5
    D6
  8
0
  6
CONTINUOUS
 62
     7
  2
*UDIM481
 70
    65
 10
0.0
 20
0.0
 30
0.0
  3
*UDIM481
  0
TEXT
  5
    D7
  8
0
  6
CONTINUOUS
 62
     7
 10
-513.321893054628
 20
3.92993961868014
 30
0.0
 40
2.99999994291904
  1
259
 50
89.9999999480344
 41
0.933333333333333
 72
     1
 11
-514.821893022555
 21
7.82993954583347
 31
0.0
 73
     2
  0
LINE
  5
    D8
  8
0
  6
CONTINUOUS
 62
     7
 10
-489.072991815811
 20
-47.5799410843122
 30
0.0
 11
-514.321893051096
 21
-47.5799410843122
 31
0.0
  0
LINE
  5
    D9
  8
0
  6
CONTINUOUS
 62
     7
 10
-489.072991815811
 20
74.1500015562353
 30
0.0
 11
-514.321893051096
 21
74.1500015562353
 31
0.0
  0
LINE
  5
    DA
  8
0
  6
CONTINUOUS
 62
     7
 10
-512.321893051096
 20
-47.5799410843122
 30
0.0
 11
-512.321893051096
 21
74.1500015562353
 31
0.0
  0
LINE
  5
    DB
  8
0
  6
CONTINUOUS
 62
     7
 10
-512.842837481047
 20
-44.6255178071052
 30
0.0
 11
-512.321893051096
 21
-47.5799410843122
 31
0.0
  0
LINE
  5
    DC
  8
0
  6
CONTINUOUS
 62
     7
 10
-512.321893051096
 20
-47.5799410843122
 30
0.0
 11
-511.800948621144
 21
-44.6255178071052
 31
0.0
  0
LINE
  5
    DD
  8
0
  6
CONTINUOUS
 62
     7
 10
-511.800948621144
 20
71.1955782790284
 30
0.0
 11
-512.321893051096
 21
74.1500015562353
 31
0.0
  0
LINE
  5
    DE
  8
0
  6
CONTINUOUS
 62
     7
 10
-512.321893051096
 20
74.1500015562353
 30
0.0
 11
-512.842837481047
 21
71.1955782790284
 31
0.0
  0
ENDBLK
  5
    DF
  8
0
  6
CONTINUOUS
 62
     7
  0
BLOCK
  5
    E0
  8
0
  6
CONTINUOUS
 62
     7
  2
*UDIM482
 70
    65
 10
0.0
 20
0.0
 30
0.0
  3
*UDIM482
  0
TEXT
  5
    E1
  8
0
  6
CONTINUOUS
 62
     7
 10
-452.454232634054
 20
-81.4686197226484
 30
0.0
 40
2.99999994291904
  1
43,75
 50
359.999999948034
 41
0.933333333333333
 72
     1
 11
-445.754232760182
 21
-79.968619757232
 31
0.0
 73
     2
  0
LINE
  5
    E2
  8
0
  6
CONTINUOUS
 62
     7
 10
-435.197975243566
 20
-62.7269129901934
 30
0.0
 11
-435.197984264721
 21
-84.4686197286913
 31
0.0
  0
LINE
  5
    E3
  8
0
  6
CONTINUOUS
 62
     7
 10
-435.197983434873
 20
-82.4686197286915
 30
0.0
 11
-455.760488203515
 21
-82.4686197286915
 31
0.0
  0
LINE
  5
    E4
  8
0
  6
CONTINUOUS
 62
     7
 10
-438.15240671208
 20
-82.9895641586431
 30
0.0
 11
-435.197983434873
 21
-82.4686197286915
 31
0.0
  0
LINE
  5
    E5
  8
0
  6
CONTINUOUS
 62
     7
 10
-435.197983434873
 20
-82.4686197286915
 30
0.0
 11
-438.15240671208
 21
-81.9476752987398
 31
0.0
  0
LINE
  5
    E6
  8
0
  6
CONTINUOUS
 62
     7
 10
-452.806064926308
 20
-81.9476752987398
 30
0.0
 11
-455.760488203515
 21
-82.4686197286915
 31
0.0
  0
LINE
  5
    E7
  8
0
  6
CONTINUOUS
 62
     7
 10
-455.760488203515
 20
-82.4686197286915
 30
0.0
 11
-452.806064926308
 21
-82.9895641586431
 31
0.0
  0
ENDBLK
  5
    E8
  8
0
  6
CONTINUOUS
 62
     7
  0
BLOCK
  5
    E9
  8
0
  6
CONTINUOUS
 62
     7
  2
*UDIM483
 70
    65
 10
0.0
 20
0.0
 30
0.0
  3
*UDIM483
  0
TEXT
  5
    EA
  8
0
  6
CONTINUOUS
 62
     7
 10
-473.016728979969
 20
-81.4686197226484
 30
0.0
 40
2.99999994291904
  1
43,75
 50
359.999999948034
 41
0.933333333333333
 72
     1
 11
-466.316729106097
 21
-79.968619757232
 31
0.0
 73
     2
  0
LINE
  5
    EB
  8
0
  6
CONTINUOUS
 62
     7
 10
-476.322975272766
 20
-62.7269129901933
 30
0.0
 11
-476.322987196616
 21
-84.4686197286912
 31
0.0
  0
LINE
  5
    EC
  8
0
  6
CONTINUOUS
 62
     7
 10
-455.760488203515
 20
-82.4686197286915
 30
0.0
 11
-476.322986099751
 21
-82.4686197286915
 31
0.0
  0
LINE
  5
    ED
  8
0
  6
CONTINUOUS
 62
     7
 10
-458.714911480722
 20
-82.9895641586431
 30
0.0
 11
-455.760488203515
 21
-82.4686197286915
 31
0.0
  0
LINE
  5
    EE
  8
0
  6
CONTINUOUS
 62
     7
 10
-455.760488203515
 20
-82.4686197286915
 30
0.0
 11
-458.714911480722
 21
-81.9476752987398
 31
0.0
  0
LINE
  5
    EF
  8
0
  6
CONTINUOUS
 62
     7
 10
-473.368562822545
 20
-81.9476752987398
 30
0.0
 11
-476.322986099751
 21
-82.4686197286915
 31
0.0
  0
LINE
  5
    F0
  8
0
  6
CONTINUOUS
 62
     7
 10
-476.322986099751
 20
-82.4686197286915
 30
0.0
 11
-473.368562822545
 21
-82.9895641586431
 31
0.0
  0
ENDBLK
  5
    F1
  8
0
  6
CONTINUOUS
 62
     7
  0
BLOCK
  5
    F2
  8
0
  6
CONTINUOUS
 62
     7
  2
*UDIM484
 70
    65
 10
0.0
 20
0.0
 30
0.0
  3
*UDIM484
  0
TEXT
  5
    F3
  8
0
  6
CONTINUOUS
 62
     7
 10
-459.185809288518
 20
103.701590529043
 30
0.0
 40
2.99999994291904
  1
140
 50
359.999999948034
 41
0.933333333333333
 72
     1
 11
-455.28580936137
 21
105.201590496985
 31
0.0
 73
     2
  0
LINE
  5
    F4
  8
0
  6
CONTINUOUS
 62
     7
 10
-422.860488885082
 20
62.6950372848068
 30
0.0
 11
-422.860475698533
 21
104.701590525526
 31
0.0
  0
LINE
  5
    F5
  8
0
  6
CONTINUOUS
 62
     7
 10
-488.66048871819
 20
62.6950372848068
 30
0.0
 11
-488.66047553164
 21
104.701590525526
 31
0.0
  0
LINE
  5
    F6
  8
0
  6
CONTINUOUS
 62
     7
 10
-422.860476326366
 20
102.701590525526
 30
0.0
 11
-488.660476159473
 21
102.701590525526
 31
0.0
  0
LINE
  5
    F7
  8
0
  6
CONTINUOUS
 62
     7
 10
-425.814899603573
 20
102.180646095574
 30
0.0
 11
-422.860476326366
 21
102.701590525526
 31
0.0
  0
LINE
  5
    F8
  8
0
  6
CONTINUOUS
 62
     7
 10
-422.860476326366
 20
102.701590525526
 30
0.0
 11
-425.814899603573
 21
103.222534955477
 31
0.0
  0
LINE
  5
    F9
  8
0
  6
CONTINUOUS
 62
     7
 10
-485.706052882266
 20
103.222534955477
 30
0.0
 11
-488.660476159473
 21
102.701590525526
 31
0.0
  0
LINE
  5
    FA
  8
0
  6
CONTINUOUS
 62
     7
 10
-488.660476159473
 20
102.701590525526
 30
0.0
 11
-485.706052882266
 21
102.180646095574
 31
0.0
  0
ENDBLK
  5
    FB
  8
0
  6
CONTINUOUS
 62
     7
  0
BLOCK
  5
    FC
  8
0
  6
CONTINUOUS
 62
     7
  2
*HATCH125
 70
    65
 10
0.0
 20
0.0
 30
0.0
  3
*HATCH125
  0
LINE
  5
    FD
  8
0
  6
CONTINUOUS
 62
    52
 10
187.992431640625
 20
39.5
 30
0.0
 11
185.992431640625
 21
37.5
 31
0.0
  0
LINE
  5
    FE
  8
0
  6
CONTINUOUS
 62
    52
 10
192.235076904297
 20
39.5
 30
0.0
 11
190.235076904297
 21
37.5
 31
0.0
  0
LINE
  5
    FF
  8
0
  6
CONTINUOUS
 62
    52
 10
196.477722167969
 20
39.5
 30
0.0
 11
194.477722167969
 21
37.5
 31
0.0
  0
LINE
  5
   100
  8
0
  6
CONTINUOUS
 62
    52
 10
200.720367431641
 20
39.5
 30
0.0
 11
198.720367431641
 21
37.5
 31
0.0
  0
LINE
  5
   101
  8
0
  6
CONTINUOUS
 62
    52
 10
204.963012695313
 20
39.5
 30
0.0
 11
202.963012695313
 21
37.5
 31
0.0
  0
LINE
  5
   102
  8
0
  6
CONTINUOUS
 62
    52
 10
209.205657958984
 20
39.5
 30
0.0
 11
207.205657958984
 21
37.5
 31
0.0
  0
LINE
  5
   103
  8
0
  6
CONTINUOUS
 62
    52
 10
213.448303222656
 20
39.5
 30
0.0
 11
211.448303222656
 21
37.5
 31
0.0
  0
LINE
  5
   104
  8
0
  6
CONTINUOUS
 62
    52
 10
217.690948486328
 20
39.5
 30
0.0
 11
215.690948486328
 21
37.5
 31
0.0
  0
LINE
  5
   105
  8
0
  6
CONTINUOUS
 62
    52
 10
221.93359375
 20
39.5
 30
0.0
 11
219.93359375
 21
37.5
 31
0.0
  0
LINE
  5
   106
  8
0
  6
CONTINUOUS
 62
    52
 10
226.176239013672
 20
39.5
 30
0.0
 11
224.176239013672
 21
37.5
 31
0.0
  0
LINE
  5
   107
  8
0
  6
CONTINUOUS
 62
    52
 10
229.369522094727
 20
38.4506874084473
 30
0.0
 11
228.418838500977
 21
37.5
 31
0.0
  0
ENDBLK
  5
   108
  8
0
  6
CONTINUOUS
 62
     7
  0
BLOCK
  5
   109
  8
0
  6
CONTINUOUS
 62
     7
  2
*HATCH126
 70
    65
 10
0.0
 20
0.0
 30
0.0
  3
*HATCH126
  0
LINE
  5
   10A
  8
0
  6
CONTINUOUS
 62
    52
 10
115.867530822754
 20
39.4999961853027
 30
0.0
 11
113.867530822754
 21
37.4999961853027
 31
0.0
  0
LINE
  5
   10B
  8
0
  6
CONTINUOUS
 62
    52
 10
120.110176086426
 20
39.4999961853027
 30
0.0
 11
118.110176086426
 21
37.4999961853027
 31
0.0
  0
LINE
  5
   10C
  8
0
  6
CONTINUOUS
 62
    52
 10
124.352821350098
 20
39.4999961853027
 30
0.0
 11
122.352821350098
 21
37.4999961853027
 31
0.0
  0
LINE
  5
   10D
  8
0
  6
CONTINUOUS
 62
    52
 10
128.595458984375
 20
39.4999961853027
 30
0.0
 11
126.59546661377
 21
37.4999961853027
 31
0.0
  0
LINE
  5
   10E
  8
0
  6
CONTINUOUS
 62
    52
 10
132.838104248047
 20
39.4999961853027
 30
0.0
 11
130.838104248047
 21
37.4999961853027
 31
0.0
  0
LINE
  5
   10F
  8
0
  6
CONTINUOUS
 62
    52
 10
137.080749511719
 20
39.4999961853027
 30
0.0
 11
135.080749511719
 21
37.4999961853027
 31
0.0
  0
LINE
  5
   110
  8
0
  6
CONTINUOUS
 62
    52
 10
141.323394775391
 20
39.4999961853027
 30
0.0
 11
139.323394775391
 21
37.4999961853027
 31
0.0
  0
LINE
  5
   111
  8
0
  6
CONTINUOUS
 62
    52
 10
145.566040039063
 20
39.4999961853027
 30
0.0
 11
143.566040039063
 21
37.4999961853027
 31
0.0
  0
LINE
  5
   112
  8
0
  6
CONTINUOUS
 62
    52
 10
149.808685302734
 20
39.4999961853027
 30
0.0
 11
147.808685302734
 21
37.4999961853027
 31
0.0
  0
LINE
  5
   113
  8
0
  6
CONTINUOUS
 62
    52
 10
154.051330566406
 20
39.4999961853027
 30
0.0
 11
152.051330566406
 21
37.4999961853027
 31
0.0
  0
LINE
  5
   114
  8
0
  6
CONTINUOUS
 62
    52
 10
158.293975830078
 20
39.4999961853027
 30
0.0
 11
156.293975830078
 21
37.4999961853027
 31
0.0
  0
LINE
  5
   115
  8
0
  6
CONTINUOUS
 62
    52
 10
162.53662109375
 20
39.4999961853027
 30
0.0
 11
160.53662109375
 21
37.4999961853027
 31
0.0
  0
LINE
  5
   116
  8
0
  6
CONTINUOUS
 62
    52
 10
166.779266357422
 20
39.4999961853027
 30
0.0
 11
164.779266357422
 21
37.4999961853027
 31
0.0
  0
LINE
  5
   117
  8
0
  6
CONTINUOUS
 62
    52
 10
171.021911621094
 20
39.4999961853027
 30
0.0
 11
169.021911621094
 21
37.4999961853027
 31
0.0
  0
LINE
  5
   118
  8
0
  6
CONTINUOUS
 62
    52
 10
175.264556884766
 20
39.4999961853027
 30
0.0
 11
173.264556884766
 21
37.4999961853027
 31
0.0
  0
ENDBLK
  5
   119
  8
0
  6
CONTINUOUS
 62
     7
  0
BLOCK
  5
   11A
  8
0
  6
CONTINUOUS
 62
     7
  2
*HATCH127
 70
    65
 10
0.0
 20
0.0
 30
0.0
  3
*HATCH127
  0
LINE
  5
   11B
  8
0
  6
CONTINUOUS
 62
    52
 10
92.5330123901367
 20
39.4999961853027
 30
0.0
 11
90.5330123901367
 21
37.4999961853027
 31
0.0
  0
LINE
  5
   11C
  8
0
  6
CONTINUOUS
 62
    52
 10
96.7756576538086
 20
39.4999961853027
 30
0.0
 11
94.7756576538086
 21
37.4999961853027
 31
0.0
  0
LINE
  5
   11D
  8
0
  6
CONTINUOUS
 62
    52
 10
101.01830291748
 20
39.4999961853027
 30
0.0
 11
99.0183029174805
 21
37.4999961853027
 31
0.0
  0
LINE
  5
   11E
  8
0
  6
CONTINUOUS
 62
    52
 10
105.260948181152
 20
39.4999961853027
 30
0.0
 11
103.260948181152
 21
37.4999961853027
 31
0.0
  0
ENDBLK
  5
   11F
  8
0
  6
CONTINUOUS
 62
     7
  0
BLOCK
  5
   120
  8
0
  6
CONTINUOUS
 62
     7
  2
*HATCH128
 70
    65
 10
0.0
 20
0.0
 30
0.0
  3
*HATCH128
  0
LINE
  5
   121
  8
0
  6
CONTINUOUS
 62
    52
 10
45.8639602661133
 20
39.4999961853027
 30
0.0
 11
43.8639640808105
 21
37.5
 31
0.0
  0
LINE
  5
   122
  8
0
  6
CONTINUOUS
 62
    52
 10
50.1065979003906
 20
39.4999961853027
 30
0.0
 11
48.1066017150879
 21
37.5
 31
0.0
  0
LINE
  5
   123
  8
0
  6
CONTINUOUS
 62
    52
 10
54.349235534668
 20
39.4999961853027
 30
0.0
 11
52.3492393493652
 21
37.5
 31
0.0
  0
LINE
  5
   124
  8
0
  6
CONTINUOUS
 62
    52
 10
58.5918731689453
 20
39.4999961853027
 30
0.0
 11
56.5918769836426
 21
37.5
 31
0.0
  0
LINE
  5
   125
  8
0
  6
CONTINUOUS
 62
    52
 10
62.8345108032227
 20
39.4999961853027
 30
0.0
 11
60.8345146179199
 21
37.5
 31
0.0
  0
LINE
  5
   126
  8
0
  6
CONTINUOUS
 62
    52
 10
67.0771560668945
 20
39.4999961853027
 30
0.0
 11
65.0771560668945
 21
37.5
 31
0.0
  0
LINE
  5
   127
  8
0
  6
CONTINUOUS
 62
    52
 10
71.3198013305664
 20
39.4999961853027
 30
0.0
 11
69.3198013305664
 21
37.5
 31
0.0
  0
LINE
  5
   128
  8
0
  6
CONTINUOUS
 62
    52
 10
75.2370758056641
 20
39.1746253967285
 30
0.0
 11
73.5624465942383
 21
37.4999961853027
 31
0.0
  0
ENDBLK
  5
   129
  8
0
  6
CONTINUOUS
 62
     7
  0
BLOCK
  5
   12A
  8
0
  6
CONTINUOUS
 62
     7
  2
*HATCH129
 70
    65
 10
0.0
 20
0.0
 30
0.0
  3
*HATCH129
  0
LINE
  5
   12B
  8
0
  6
CONTINUOUS
 62
    52
 10
-34.7462120056152
 20
39.5
 30
0.0
 11
-36.7462120056152
 21
37.5
 31
0.0
  0
LINE
  5
   12C
  8
0
  6
CONTINUOUS
 62
    52
 10
-30.5035724639893
 20
39.5
 30
0.0
 11
-32.5035743713379
 21
37.5
 31
0.0
  0
LINE
  5
   12D
  8
0
  6
CONTINUOUS
 62
    52
 10
-26.2609310150147
 20
39.5
 30
0.0
 11
-28.2609329223633
 21
37.5
 31
0.0
  0
LINE
  5
   12E
  8
0
  6
CONTINUOUS
 62
    52
 10
-22.01828956604
 20
39.5
 30
0.0
 11
-24.0182914733887
 21
37.5
 31
0.0
  0
LINE
  5
   12F
  8
0
  6
CONTINUOUS
 62
    52
 10
-17.7756481170654
 20
39.5
 30
0.0
 11
-19.7756500244141
 21
37.5
 31
0.0
  0
LINE
  5
   130
  8
0
  6
CONTINUOUS
 62
    52
 10
-13.5330066680908
 20
39.5
 30
0.0
 11
-15.5330085754395
 21
37.5
 31
0.0
  0
LINE
  5
   131
  8
0
  6
CONTINUOUS
 62
    52
 10
-9.29036521911621
 20
39.5
 30
0.0
 11
-11.2903671264648
 21
37.5
 31
0.0
  0
LINE
  5
   132
  8
0
  6
CONTINUOUS
 62
    52
 10
-5.0477237701416
 20
39.5
 30
0.0
 11
-7.04772567749023
 21
37.5
 31
0.0
  0
LINE
  5
   133
  8
0
  6
CONTINUOUS
 62
    52
 10
-0.80508279800415
 20
39.5
 30
0.0
 11
-2.8050844669342
 21
37.5
 31
0.0
  0
LINE
  5
   134
  8
0
  6
CONTINUOUS
 62
    52
 10
3.4375581741333
 20
39.5
 30
0.0
 11
1.43755650520325
 21
37.5
 31
0.0
  0
LINE
  5
   135
  8
0
  6
CONTINUOUS
 62
    52
 10
7.68019962310791
 20
39.5
 30
0.0
 11
5.68019771575928
 21
37.5
 31
0.0
  0
LINE
  5
   136
  8
0
  6
CONTINUOUS
 62
    52
 10
11.9228410720825
 20
39.5
 30
0.0
 11
9.92283916473389
 21
37.5
 31
0.0
  0
LINE
  5
   137
  8
0
  6
CONTINUOUS
 62
    52
 10
16.1654815673828
 20
39.5
 30
0.0
 11
14.1654806137085
 21
37.5
 31
0.0
  0
LINE
  5
   138
  8
0
  6
CONTINUOUS
 62
    52
 10
20.4081230163574
 20
39.5
 30
0.0
 11
18.4081211090088
 21
37.5
 31
0.0
  0
LINE
  5
   139
  8
0
  6
CONTINUOUS
 62
    52
 10
24.650764465332
 20
39.5
 30
0.0
 11
22.6507625579834
 21
37.5
 31
0.0
  0
LINE
  5
   13A
  8
0
  6
CONTINUOUS
 62
    52
 10
28.8934059143066
 20
39.5
 30
0.0
 11
26.893404006958
 21
37.5
 31
0.0
  0
LINE
  5
   13B
  8
0
  6
CONTINUOUS
 62
    52
 10
33.1360473632813
 20
39.5
 30
0.0
 11
31.1360454559326
 21
37.5
 31
0.0
  0
LINE
  5
   13C
  8
0
  6
CONTINUOUS
 62
    52
 10
35.486873626709
 20
37.6081924438477
 30
0.0
 11
35.3786811828613
 21
37.5
 31
0.0
  0
ENDBLK
  5
   13D
  8
0
  6
CONTINUOUS
 62
     7
  0
BLOCK
  5
   13E
  8
0
  6
CONTINUOUS
 62
     7
  2
*HATCH130
 70
    65
 10
0.0
 20
0.0
 30
0.0
  3
*HATCH130
  0
LINE
  5
   13F
  8
0
  6
CONTINUOUS
 62
    52
 10
166.264526367187
 20
30.5000076293945
 30
0.0
 11
163.987060546875
 21
28.2225513458252
 31
0.0
  0
LINE
  5
   140
  8
0
  6
CONTINUOUS
 62
    52
 10
170.50715637207
 20
30.5000076293945
 30
0.0
 11
168.00715637207
 21
28.0000019073486
 31
0.0
  0
LINE
  5
   141
  8
0
  6
CONTINUOUS
 62
    52
 10
172.987060546875
 20
28.7372703552246
 30
0.0
 11
172.249786376953
 21
28.0000019073486
 31
0.0
  0
ENDBLK
  5
   142
  8
0
  6
CONTINUOUS
 62
     7
  0
BLOCK
  5
   143
  8
0
  6
CONTINUOUS
 62
     7
  2
*HATCH131
 70
    65
 10
0.0
 20
0.0
 30
0.0
  3
*HATCH131
  0
LINE
  5
   144
  8
0
  6
CONTINUOUS
 62
    92
 10
-18.4999847412109
 20
268.815979003906
 30
0.0
 11
-15.5211000442505
 21
265.837066650391
 31
0.0
  0
LINE
  5
   145
  8
0
  6
CONTINUOUS
 62
    92
 10
-18.4999847412109
 20
273.05859375
 30
0.0
 11
-12.4999847412109
 21
267.05859375
 31
0.0
  0
LINE
  5
   146
  8
0
  6
CONTINUOUS
 62
    92
 10
-15.9358129501343
 20
274.737091064453
 30
0.0
 11
-12.4999847412109
 21
271.301239013672
 31
0.0
  0
ENDBLK
  5
   147
  8
0
  6
CONTINUOUS
 62
     7
  0
BLOCK
  5
   148
  8
0
  6
CONTINUOUS
 62
     7
  2
*HATCH132
 70
    65
 10
0.0
 20
0.0
 30
0.0
  3
*HATCH132
  0
LINE
  5
   149
  8
0
  6
CONTINUOUS
 62
    92
 10
-21.4999847412109
 20
250.602752685547
 30
0.0
 11
-20.6343097686768
 21
249.737075805664
 31
0.0
  0
LINE
  5
   14A
  8
0
  6
CONTINUOUS
 62
    92
 10
-21.4999847412109
 20
254.845397949219
 30
0.0
 11
-18.4999847412109
 21
251.845397949219
 31
0.0
  0
LINE
  5
   14B
  8
0
  6
CONTINUOUS
 62
    92
 10
-20.464334487915
 20
258.052398681641
 30
0.0
 11
-18.3174171447754
 21
255.905471801758
 31
0.0
  0
LINE
  5
   14C
  8
0
  6
CONTINUOUS
 62
    92
 10
-17.8742046356201
 20
259.704895019531
 30
0.0
 11
-15.7062034606934
 21
257.536895751953
 31
0.0
  0
LINE
  5
   14D
  8
0
  6
CONTINUOUS
 62
    92
 10
-21.4999847412109
 20
267.573333740234
 30
0.0
 11
-14.5577545166016
 21
260.631072998047
 31
0.0
  0
LINE
  5
   14E
  8
0
  6
CONTINUOUS
 62
    92
 10
-21.4999847412109
 20
271.815979003906
 30
0.0
 11
-18.4999847412109
 21
268.815979003906
 31
0.0
  0
LINE
  5
   14F
  8
0
  6
CONTINUOUS
 62
    92
 10
-19.1784515380859
 20
273.737091064453
 30
0.0
 11
-18.4999847412109
 21
273.05859375
 31
0.0
  0
ENDBLK
  5
   150
  8
0
  6
CONTINUOUS
 62
     7
  0
BLOCK
  5
   151
  8
0
  6
CONTINUOUS
 62
     7
  2
*HATCH133
 70
    65
 10
0.0
 20
0.0
 30
0.0
  3
*HATCH133
  0
LINE
  5
   152
  8
0
  6
CONTINUOUS
 62
    92
 10
9.00001525878906
 20
272.043731689453
 30
0.0
 11
6.2220778465271
 21
269.265777587891
 31
0.0
  0
LINE
  5
   153
  8
0
  6
CONTINUOUS
 62
    92
 10
9.00001525878906
 20
267.801086425781
 30
0.0
 11
7.05519390106201
 21
265.856262207031
 31
0.0
  0
ENDBLK
  5
   154
  8
0
  6
CONTINUOUS
 62
     7
  0
BLOCK
  5
   155
  8
0
  6
CONTINUOUS
 62
     7
  2
*HATCH134
 70
    65
 10
0.0
 20
0.0
 30
0.0
  3
*HATCH134
  0
LINE
  5
   156
  8
0
  6
CONTINUOUS
 62
    92
 10
7.39255666732788
 20
257.708343505859
 30
0.0
 11
6.5280294418335
 21
256.843811035156
 31
0.0
  0
LINE
  5
   157
  8
0
  6
CONTINUOUS
 62
    92
 10
10.5000152587891
 20
256.573150634766
 30
0.0
 11
10.1639261245728
 21
256.237060546875
 31
0.0
  0
LINE
  5
   158
  8
0
  6
CONTINUOUS
 62
    92
 10
9.00001525878906
 20
255.073165893555
 30
0.0
 11
6.50001525878906
 21
252.573165893555
 31
0.0
  0
ENDBLK
  5
   159
  8
0
  6
CONTINUOUS
 62
     7
  0
BLOCK
  5
   15A
  8
0
  6
CONTINUOUS
 62
     7
  2
*HATCH135
 70
    65
 10
0.0
 20
0.0
 30
0.0
  3
*HATCH135
  0
LINE
  5
   15B
  8
0
  6
CONTINUOUS
 62
    92
 10
13.5000152587891
 20
270.757080078125
 30
0.0
 11
14.5200090408325
 21
269.737091064453
 31
0.0
  0
LINE
  5
   15C
  8
0
  6
CONTINUOUS
 62
    92
 10
14.7626523971558
 20
273.737091064453
 30
0.0
 11
17.5000152587891
 21
270.999694824219
 31
0.0
  0
ENDBLK
  5
   15D
  8
0
  6
CONTINUOUS
 62
     7
  0
BLOCK
  5
   15E
  8
0
  6
CONTINUOUS
 62
     7
  2
*HATCH136
 70
    65
 10
0.0
 20
0.0
 30
0.0
  3
*HATCH136
  0
LINE
  5
   15F
  8
0
  6
CONTINUOUS
 62
    92
 10
13.5494365692139
 20
253.737075805664
 30
0.0
 11
17.5000152587891
 21
249.786499023438
 31
0.0
  0
ENDBLK
  5
   160
  8
0
  6
CONTINUOUS
 62
     7
  0
BLOCK
  5
   161
  8
0
  6
CONTINUOUS
 62
     7
  2
*HATCH137
 70
    65
 10
0.0
 20
0.0
 30
0.0
  3
*HATCH137
  0
LINE
  5
   162
  8
0
  6
CONTINUOUS
 62
    92
 10
34.9212875366211
 20
285.237060546875
 30
0.0
 11
32.9212875366211
 21
283.237091064453
 31
0.0
  0
LINE
  5
   163
  8
0
  6
CONTINUOUS
 62
    92
 10
-13.0787162780762
 20
237.237075805664
 30
0.0
 11
-13.5571794509888
 21
236.758605957031
 31
0.0
  0
LINE
  5
   164
  8
0
  6
CONTINUOUS
 62
    92
 10
39.1639289855957
 20
285.237060546875
 30
0.0
 11
37.1639289855957
 21
283.237091064453
 31
0.0
  0
LINE
  5
   165
  8
0
  6
CONTINUOUS
 62
    92
 10
-8.83607578277588
 20
237.237075805664
 30
0.0
 11
-10.8360757827759
 21
235.237075805664
 31
0.0
  0
LINE
  5
   166
  8
0
  6
CONTINUOUS
 62
    92
 10
42.0000152587891
 20
283.830535888672
 30
0.0
 11
39.5000152587891
 21
281.330535888672
 31
0.0
  0
LINE
  5
   167
  8
0
  6
CONTINUOUS
 62
    92
 10
-1.09343433380127
 20
240.737075805664
 30
0.0
 11
-2.00007629394531
 21
239.830429077148
 31
0.0
  0
LINE
  5
   168
  8
0
  6
CONTINUOUS
 62
    92
 10
-4.59343481063843
 20
237.237075805664
 30
0.0
 11
-6.59343481063843
 21
235.237075805664
 31
0.0
  0
LINE
  5
   169
  8
0
  6
CONTINUOUS
 62
    92
 10
42.0000152587891
 20
279.587890625
 30
0.0
 11
39.5000152587891
 21
277.087890625
 31
0.0
  0
LINE
  5
   16A
  8
0
  6
CONTINUOUS
 62
    92
 10
3.14920663833618
 20
240.737075805664
 30
0.0
 11
1.1492063999176
 21
238.737075805664
 31
0.0
  0
LINE
  5
   16B
  8
0
  6
CONTINUOUS
 62
    92
 10
-7.62939525884576E-5
 20
237.587799072266
 30
0.0
 11
-2.35079383850098
 21
235.237075805664
 31
0.0
  0
LINE
  5
   16C
  8
0
  6
CONTINUOUS
 62
    92
 10
42.0000152587891
 20
275.345245361328
 30
0.0
 11
39.5000152587891
 21
272.845245361328
 31
0.0
  0
LINE
  5
   16D
  8
0
  6
CONTINUOUS
 62
    92
 10
7.39184761047363
 20
240.737075805664
 30
0.0
 11
5.39184713363647
 21
238.737075805664
 31
0.0
  0
LINE
  5
   16E
  8
0
  6
CONTINUOUS
 62
    92
 10
42.0000152587891
 20
271.102600097656
 30
0.0
 11
39.5000152587891
 21
268.602600097656
 31
0.0
  0
LINE
  5
   16F
  8
0
  6
CONTINUOUS
 62
    92
 10
11.6344890594482
 20
240.737075805664
 30
0.0
 11
9.63448810577393
 21
238.737075805664
 31
0.0
  0
LINE
  5
   170
  8
0
  6
CONTINUOUS
 62
    92
 10
42.0000152587891
 20
266.859954833984
 30
0.0
 11
39.5000152587891
 21
264.359954833984
 31
0.0
  0
LINE
  5
   171
  8
0
  6
CONTINUOUS
 62
    92
 10
15.8771305084229
 20
240.737075805664
 30
0.0
 11
13.8771286010742
 21
238.737075805664
 31
0.0
  0
LINE
  5
   172
  8
0
  6
CONTINUOUS
 62
    92
 10
42.0000152587891
 20
262.617309570313
 30
0.0
 11
39.5000152587891
 21
260.117309570313
 31
0.0
  0
LINE
  5
   173
  8
0
  6
CONTINUOUS
 62
    92
 10
20.1197719573975
 20
240.737075805664
 30
0.0
 11
18.1197700500488
 21
238.737075805664
 31
0.0
  0
LINE
  5
   174
  8
0
  6
CONTINUOUS
 62
    92
 10
42.0000152587891
 20
258.374664306641
 30
0.0
 11
39.5000152587891
 21
255.874664306641
 31
0.0
  0
LINE
  5
   175
  8
0
  6
CONTINUOUS
 62
    92
 10
24.3624134063721
 20
240.737075805664
 30
0.0
 11
22.3624114990234
 21
238.737075805664
 31
0.0
  0
LINE
  5
   176
  8
0
  6
CONTINUOUS
 62
    92
 10
42.0000152587891
 20
254.132019042969
 30
0.0
 11
39.5000152587891
 21
251.632019042969
 31
0.0
  0
LINE
  5
   177
  8
0
  6
CONTINUOUS
 62
    92
 10
28.6050548553467
 20
240.737075805664
 30
0.0
 11
26.605052947998
 21
238.737075805664
 31
0.0
  0
LINE
  5
   178
  8
0
  6
CONTINUOUS
 62
    92
 10
42.0000152587891
 20
249.889373779297
 30
0.0
 11
39.5000152587891
 21
247.389373779297
 31
0.0
  0
LINE
  5
   179
  8
0
  6
CONTINUOUS
 62
    92
 10
32.8476943969727
 20
240.737075805664
 30
0.0
 11
30.8476943969727
 21
238.737075805664
 31
0.0
  0
LINE
  5
   17A
  8
0
  6
CONTINUOUS
 62
    92
 10
42.0000152587891
 20
245.646728515625
 30
0.0
 11
39.5000152587891
 21
243.146728515625
 31
0.0
  0
LINE
  5
   17B
  8
0
  6
CONTINUOUS
 62
    92
 10
37.0903358459473
 20
240.737075805664
 30
0.0
 11
35.0903358459473
 21
238.737075805664
 31
0.0
  0
LINE
  5
   17C
  8
0
  6
CONTINUOUS
 62
    92
 10
42.0000152587891
 20
241.404113769531
 30
0.0
 11
39.3329734802246
 21
238.737075805664
 31
0.0
  0
ENDBLK
  5
   17D
  8
0
  6
CONTINUOUS
 62
     7
  0
BLOCK
  5
   17E
  8
0
  6
CONTINUOUS
 62
   218
  2
*HATCH138
 70
    65
 10
0.0
 20
0.0
 30
0.0
  3
*HATCH138
  0
LINE
  5
   17F
  8
0
  6
CONTINUOUS
 62
     3
 10
-14.0276679992676
 20
298.867065429688
 30
0.0
 11
-15.429347038269
 21
297.465393066406
 31
0.0
  0
LINE
  5
   180
  8
0
  6
CONTINUOUS
 62
     3
 10
-12.4040069580078
 20
299.430084228516
 30
0.0
 11
-15.2723007202148
 21
296.561767578125
 31
0.0
  0
LINE
  5
   181
  8
0
  6
CONTINUOUS
 62
     3
 10
-11.1201038360596
 20
299.6533203125
 30
0.0
 11
-14.7491188049316
 21
296.024291992188
 31
0.0
  0
LINE
  5
   182
  8
0
  6
CONTINUOUS
 62
     3
 10
-9.99649620056152
 20
299.716278076172
 30
0.0
 11
-14.0778503417969
 21
295.634918212891
 31
0.0
  0
LINE
  5
   183
  8
0
  6
CONTINUOUS
 62
     3
 10
-8.95268726348877
 20
299.699401855469
 30
0.0
 11
-13.3296051025391
 21
295.322479248047
 31
0.0
  0
LINE
  5
   184
  8
0
  6
CONTINUOUS
 62
     3
 10
-7.96425485610962
 20
299.627197265625
 30
0.0
 11
-12.52587890625
 21
295.065551757813
 31
0.0
  0
LINE
  5
   185
  8
0
  6
CONTINUOUS
 62
     3
 10
-7.06253337860107
 20
299.46826171875
 30
0.0
 11
-11.6241569519043
 21
294.906616210938
 31
0.0
  0
LINE
  5
   186
  8
0
  6
CONTINUOUS
 62
     3
 10
-6.22046995162964
 20
299.249633789063
 30
0.0
 11
-10.6742601394653
 21
294.795867919922
 31
0.0
  0
LINE
  5
   187
  8
0
  6
CONTINUOUS
 62
     3
 10
-5.42820167541504
 20
298.981262207031
 30
0.0
 11
-9.66986846923828
 21
294.739593505859
 31
0.0
  0
LINE
  5
   188
  8
0
  6
CONTINUOUS
 62
     3
 10
-4.7459135055542
 20
298.602874755859
 30
0.0
 11
-8.55158805847168
 21
294.797210693359
 31
0.0
  0
LINE
  5
   189
  8
0
  6
CONTINUOUS
 62
     3
 10
-4.17403411865234
 20
298.114105224609
 30
0.0
 11
-7.32924270629883
 21
294.958892822266
 31
0.0
  0
LINE
  5
   18A
  8
0
  6
CONTINUOUS
 62
     3
 10
-3.80679082870483
 20
297.420684814453
 30
0.0
 11
-5.89752674102783
 21
295.329956054688
 31
0.0
  0
ENDBLK
  5
   18B
  8
0
  6
CONTINUOUS
 62
   218
  0
BLOCK
  5
   18C
  8
0
  6
CONTINUOUS
 62
     7
  2
TS5
 70
    64
 10
0.0
 20
0.0
 30
0.0
  3
TS5
  0
LINE
  5
   18D
  8
0
  6
CONTINUOUS
 62
     7
 10
-27.4999847412109
 20
235.237075805664
 30
0.0
 11
-26.9999847412109
 21
235.237075805664
 31
0.0
  0
LINE
  5
   18E
  8
0
  6
CONTINUOUS
 62
     7
 10
-27.4999847412109
 20
247.806717934577
 30
0.0
 11
-27.4999847412109
 21
285.850671117788
 31
0.0
  0
LINE
  5
   18F
  8
0
  6
CONTINUOUS
 62
     3
 10
-12.4999847412109
 20
246.314426074854
 30
0.0
 11
-12.4999847412109
 21
249.737075805664
 31
0.0
  0
LINE
  5
   190
  8
0
  6
CONTINUOUS
 62
     3
 10
-18.4999847412109
 20
265.636055291231
 30
0.0
 11
-18.4999847412109
 21
274.737075805664
 31
0.0
  0
LINE
  5
   191
  8
0
  6
CONTINUOUS
 62
     3
 10
-18.4999847412109
 20
274.737075805664
 30
0.0
 11
-12.4999847412109
 21
274.737075805664
 31
0.0
  0
LINE
  5
   192
  8
0
  6
DASHDOT
 62
     7
 10
-29.0871931901964
 20
260.737075805664
 30
0.0
 11
-9.32950497127206
 21
260.737075805664
 31
0.0
  0
LINE
  5
   193
  8
0
  6
CONTINUOUS
 62
     3
 10
-22.1954699022254
 20
243.603486453166
 30
0.0
 11
-19.1249847412109
 21
245.376231887421
 31
0.0
  0
LINE
  5
   194
  8
0
  6
CONTINUOUS
 62
     3
 10
-17.1374192538883
 20
239.595550126283
 30
0.0
 11
-15.9999847412112
 21
240.252248248363
 31
0.0
  0
ARC
  5
   195
  8
0
  6
CONTINUOUS
 62
     3
 10
-19.7499847412109
 20
246.458763642151
 30
0.0
 40
1.25
 50
300.0
 51
360.0
  0
ARC
  5
   196
  8
0
  6
CONTINUOUS
 62
     3
 10
-19.4999847412109
 20
246.314426074854
 30
0.0
 40
7.0
 50
300.0
 51
360.0
  0
LINE
  5
   197
  8
0
  6
CONTINUOUS
 62
     3
 10
-18.4999847412109
 20
265.837075805664
 30
0.0
 11
-12.4999847412109
 21
265.837075805664
 31
0.0
  0
LINE
  5
   198
  8
0
  6
CONTINUOUS
 62
     3
 10
-18.4999847412109
 20
255.637075805664
 30
0.0
 11
-12.4999847412109
 21
255.637075805664
 31
0.0
  0
LINE
  5
   199
  8
0
  6
CONTINUOUS
 62
   130
 10
-37.0000762939524
 20
235.237075805664
 30
0.0
 11
-7.62939490355507E-5
 21
235.237075805664
 31
0.0
  0
INSERT
  5
   19A
  8
0
  6
CONTINUOUS
 62
     7
  2
*HATCH131
 10
0.0
 20
0.0
 30
0.0
  0
ARC
  5
   19B
  8
0
  6
CONTINUOUS
 62
     5
 10
-19.4999847412109
 20
260.737075805664
 30
0.0
 40
5.0
 50
281.536959032815
 51
438.463040967185
  0
LINE
  5
   19C
  8
0
  6
CONTINUOUS
 62
     3
 10
-18.4999847412109
 20
246.458763642151
 30
0.0
 11
-18.4999847412109
 21
255.838096320098
 31
0.0
  0
LINE
  5
   19D
  8
0
  6
CONTINUOUS
 62
     5
 10
-21.4999847412109
 20
249.737075805664
 30
0.0
 11
-21.4999847412109
 21
273.737075805664
 31
0.0
  0
ARC
  5
   19E
  8
0
  6
CONTINUOUS
 62
     5
 10
-19.4999847412109
 20
260.737075805664
 30
0.0
 40
2.0
 50
281.536959032815
 51
438.463040967185
  0
ARC
  5
   19F
  8
0
  6
CONTINUOUS
 62
     5
 10
-18.4999847412109
 20
265.636055291231
 30
0.0
 40
3.0
 50
180.0
 51
258.463040967185
  0
ARC
  5
   1A0
  8
0
  6
CONTINUOUS
 62
     5
 10
-18.499984741211
 20
255.838096320098
 30
0.0
 40
3.0
 50
101.536959032815
 51
180.0
  0
LINE
  5
   1A1
  8
0
  6
CONTINUOUS
 62
     5
 10
22.5000152587891
 20
269.737075805664
 30
0.0
 11
22.5000152587891
 21
271.737075805664
 31
0.0
  0
LINE
  5
   1A2
  8
0
  6
CONTINUOUS
 62
     5
 10
-21.499984741211
 20
249.737075805664
 30
0.0
 11
-18.4999847412109
 21
249.737075805664
 31
0.0
  0
LINE
  5
   1A3
  8
0
  6
CONTINUOUS
 62
     5
 10
5.00001525878908
 20
249.737075805664
 30
0.0
 11
20.500015258789
 21
249.737075805664
 31
0.0
  0
LINE
  5
   1A4
  8
0
  6
CONTINUOUS
 62
     5
 10
5.00001525878908
 20
273.737075805664
 30
0.0
 11
20.5000152587891
 21
273.737075805664
 31
0.0
  0
LINE
  5
   1A5
  8
0
  6
CONTINUOUS
 62
     5
 10
-21.4999847412109
 20
273.737075805664
 30
0.0
 11
-18.4999847412109
 21
273.737075805664
 31
0.0
  0
ARC
  5
   1A6
  8
0
  6
CONTINUOUS
 62
     5
 10
20.5000152587891
 20
271.737075805664
 30
0.0
 40
2.0
 50
360.0
 51
450.0
  0
ARC
  5
   1A7
  8
0
  6
CONTINUOUS
 62
     5
 10
20.500015258789
 20
251.737075805664
 30
0.0
 40
2.0
 50
270.0
 51
360.0
  0
LINE
  5
   1A8
  8
0
  6
CONTINUOUS
 62
     5
 10
13.5000152587891
 20
269.737075805664
 30
0.0
 11
13.5000152587891
 21
273.737075805664
 31
0.0
  0
LINE
  5
   1A9
  8
0
  6
CONTINUOUS
 62
     5
 10
17.5000152587891
 20
269.737075805664
 30
0.0
 11
17.5000152587891
 21
273.737075805664
 31
0.0
  0
LINE
  5
   1AA
  8
0
  6
DASHDOT
 62
     7
 10
-3.33982172849323
 20
261.737075805664
 30
0.0
 11
43.306521724916
 21
261.737075805664
 31
0.0
  0
LINE
  5
   1AB
  8
0
  6
CONTINUOUS
 62
     1
 10
5.00001525878908
 20
272.487075805664
 30
0.0
 11
9.00001525878905
 21
272.487075805664
 31
0.0
  0
LINE
  5
   1AC
  8
0
  6
CONTINUOUS
 62
     1
 10
6.50001525878906
 20
270.487075805664
 30
0.0
 11
6.50001525878906
 21
272.487075805664
 31
0.0
  0
LINE
  5
   1AD
  8
0
  6
CONTINUOUS
 62
     1
 10
9.00001525878906
 20
270.487075805664
 30
0.0
 11
9.00001525878906
 21
272.487075805664
 31
0.0
  0
LINE
  5
   1AE
  8
0
  6
DASHDOT
 62
     7
 10
2.78914887304103
 20
269.737075805664
 30
0.0
 11
9.91513858309941
 21
269.737075805664
 31
0.0
  0
ARC
  5
   1AF
  8
0
  6
CONTINUOUS
 62
     1
 10
6.81251525878907
 20
269.737075805664
 30
0.0
 40
0.812500000000006
 50
112.619864948041
 51
247.380135051959
  0
LINE
  5
   1B0
  8
0
  6
CONTINUOUS
 62
     1
 10
6.50001525878906
 20
261.737075805664
 30
0.0
 11
6.50001525878906
 21
268.987075805664
 31
0.0
  0
ARC
  5
   1B1
  8
0
  6
CONTINUOUS
 62
     1
 10
9.31251525878906
 20
269.737075805664
 30
0.0
 40
0.812500000000006
 50
112.619864948041
 51
247.380135051959
  0
LINE
  5
   1B2
  8
0
  6
CONTINUOUS
 62
     1
 10
9.00001525878906
 20
267.737075805664
 30
0.0
 11
9.00001525878906
 21
268.987075805664
 31
0.0
  0
LINE
  5
   1B3
  8
0
  6
CONTINUOUS
 62
     1
 10
5.00001525878908
 20
270.487075805664
 30
0.0
 11
6.50001525878905
 21
270.487075805664
 31
0.0
  0
LINE
  5
   1B4
  8
0
  6
CONTINUOUS
 62
     1
 10
5.00001525878908
 20
268.987075805664
 30
0.0
 11
6.50001525878905
 21
268.987075805664
 31
0.0
  0
LINE
  5
   1B5
  8
0
  6
CONTINUOUS
 62
     1
 10
7.50001525878905
 20
265.737075805664
 30
0.0
 11
10.5000152587891
 21
265.737075805664
 31
0.0
  0
LINE
  5
   1B6
  8
0
  6
CONTINUOUS
 62
     1
 10
9.50001525878905
 20
267.237075805664
 30
0.0
 11
10.5000152587891
 21
267.237075805664
 31
0.0
  0
ARC
  5
   1B7
  8
0
  6
CONTINUOUS
 62
     1
 10
9.50001525878905
 20
267.737075805664
 30
0.0
 40
0.5
 50
180.0
 51
270.0
  0
ARC
  5
   1B8
  8
0
  6
CONTINUOUS
 62
     1
 10
7.50001525878905
 20
266.737075805664
 30
0.0
 40
1.0
 50
180.0
 51
270.0
  0
LINE
  5
   1B9
  8
0
  6
CONTINUOUS
 62
     1
 10
5.00001525878908
 20
250.987075805664
 30
0.0
 11
9.00001525878905
 21
250.987075805664
 31
0.0
  0
LINE
  5
   1BA
  8
0
  6
CONTINUOUS
 62
     1
 10
6.50001525878906
 20
250.987075805664
 30
0.0
 11
6.50001525878906
 21
252.987075805664
 31
0.0
  0
LINE
  5
   1BB
  8
0
  6
CONTINUOUS
 62
     1
 10
9.00001525878906
 20
250.987075805664
 30
0.0
 11
9.00001525878906
 21
252.987075805664
 31
0.0
  0
LINE
  5
   1BC
  8
0
  6
DASHDOT
 62
     7
 10
2.78914887304103
 20
253.737075805664
 30
0.0
 11
9.91513858309941
 21
253.737075805664
 31
0.0
  0
ARC
  5
   1BD
  8
0
  6
CONTINUOUS
 62
     1
 10
6.81251525878906
 20
253.737075805664
 30
0.0
 40
0.812500000000006
 50
112.619864948041
 51
247.380135051959
  0
LINE
  5
   1BE
  8
0
  6
CONTINUOUS
 62
     1
 10
6.50001525878906
 20
254.487075805664
 30
0.0
 11
6.50001525878906
 21
261.737075805664
 31
0.0
  0
ARC
  5
   1BF
  8
0
  6
CONTINUOUS
 62
     1
 10
9.31251525878906
 20
253.737075805664
 30
0.0
 40
0.812500000000006
 50
112.619864948041
 51
247.380135051959
  0
LINE
  5
   1C0
  8
0
  6
CONTINUOUS
 62
     1
 10
9.00001525878906
 20
254.487075805664
 30
0.0
 11
9.00001525878906
 21
255.737075805664
 31
0.0
  0
LINE
  5
   1C1
  8
0
  6
CONTINUOUS
 62
     1
 10
5.00001525878908
 20
252.987075805664
 30
0.0
 11
6.50001525878905
 21
252.987075805664
 31
0.0
  0
LINE
  5
   1C2
  8
0
  6
CONTINUOUS
 62
     1
 10
5.00001525878908
 20
254.487075805664
 30
0.0
 11
6.50001525878905
 21
254.487075805664
 31
0.0
  0
LINE
  5
   1C3
  8
0
  6
CONTINUOUS
 62
     1
 10
7.50001525878905
 20
257.737075805664
 30
0.0
 11
10.5000152587891
 21
257.737075805664
 31
0.0
  0
LINE
  5
   1C4
  8
0
  6
CONTINUOUS
 62
     1
 10
9.50001525878905
 20
256.237075805664
 30
0.0
 11
10.5000152587891
 21
256.237075805664
 31
0.0
  0
ARC
  5
   1C5
  8
0
  6
CONTINUOUS
 62
     1
 10
9.50001525878905
 20
255.737075805664
 30
0.0
 40
0.5
 50
90.0
 51
180.0
  0
ARC
  5
   1C6
  8
0
  6
CONTINUOUS
 62
     1
 10
7.50001525878905
 20
256.737075805664
 30
0.0
 40
1.0
 50
90.0
 51
180.0
  0
LINE
  5
   1C7
  8
0
  6
CONTINUOUS
 62
     2
 10
37.5000152587891
 20
255.237075805664
 30
0.0
 11
37.5000152587891
 21
268.237075805664
 31
0.0
  0
LINE
  5
   1C8
  8
0
  6
CONTINUOUS
 62
     7
 10
13.5000152587891
 20
269.737075805664
 30
0.0
 11
15.0000152587891
 21
269.737075805664
 31
0.0
  0
LINE
  5
   1C9
  8
0
  6
CONTINUOUS
 62
     7
 10
13.5000152587891
 20
253.737075805664
 30
0.0
 11
15.0000152587891
 21
253.737075805664
 31
0.0
  0
LINE
  5
   1CA
  8
0
  6
CONTINUOUS
 62
     2
 10
36.000015258789
 20
269.737075805664
 30
0.0
 11
37.5000152587891
 21
268.237075805664
 31
0.0
  0
LINE
  5
   1CB
  8
0
  6
CONTINUOUS
 62
     2
 10
36.000015258789
 20
253.737075805664
 30
0.0
 11
37.5000152587891
 21
255.237075805664
 31
0.0
  0
LINE
  5
   1CC
  8
0
  6
CONTINUOUS
 62
     2
 10
10.500015258789
 20
255.237075805664
 30
0.0
 11
12.000015258789
 21
253.737075805664
 31
0.0
  0
LINE
  5
   1CD
  8
0
  6
CONTINUOUS
 62
     2
 10
10.5000152587891
 20
268.237075805664
 30
0.0
 11
12.0000152587891
 21
269.737075805664
 31
0.0
  0
LINE
  5
   1CE
  8
0
  6
CONTINUOUS
 62
     5
 10
17.5000152587891
 20
249.737075805664
 30
0.0
 11
17.5000152587891
 21
253.737075805664
 31
0.0
  0
LINE
  5
   1CF
  8
0
  6
CONTINUOUS
 62
     2
 10
36.0000152587891
 20
253.737075805664
 30
0.0
 11
36.0000152587891
 21
269.737075805664
 31
0.0
  0
LINE
  5
   1D0
  8
0
  6
CONTINUOUS
 62
     2
 10
12.0000152587891
 20
253.737075805664
 30
0.0
 11
12.0000152587891
 21
269.737075805664
 31
0.0
  0
LINE
  5
   1D1
  8
0
  6
CONTINUOUS
 62
     2
 10
12.0000152587891
 20
269.737075805664
 30
0.0
 11
36.000015258789
 21
269.737075805664
 31
0.0
  0
LINE
  5
   1D2
  8
0
  6
CONTINUOUS
 62
     2
 10
12.0000152587891
 20
253.737075805664
 30
0.0
 11
36.000015258789
 21
253.737075805664
 31
0.0
  0
LINE
  5
   1D3
  8
0
  6
CONTINUOUS
 62
     7
 10
11.2500152587891
 20
254.487075805664
 30
0.0
 11
36.7500152587891
 21
254.487075805664
 31
0.0
  0
LINE
  5
   1D4
  8
0
  6
CONTINUOUS
 62
     2
 10
11.250015258789
 20
268.987075805664
 30
0.0
 11
36.7500152587891
 21
268.987075805664
 31
0.0
  0
LINE
  5
   1D5
  8
0
  6
CONTINUOUS
 62
     5
 10
22.5000152587891
 20
251.737075805664
 30
0.0
 11
22.5000152587891
 21
253.737075805664
 31
0.0
  0
LINE
  5
   1D6
  8
0
  6
CONTINUOUS
 62
   130
 10
42.0000152587891
 20
239.987075805664
 30
0.0
 11
42.0000152587891
 21
283.987075805664
 31
0.0
  0
LINE
  5
   1D7
  8
0
  6
CONTINUOUS
 62
   130
 10
39.5000152587891
 20
240.737075805664
 30
0.0
 11
39.5000152587891
 21
283.237075805664
 31
0.0
  0
LINE
  5
   1D8
  8
0
  6
CONTINUOUS
 62
   130
 10
8.00001525878908
 20
285.237075805664
 30
0.0
 11
40.750015258789
 21
285.237075805664
 31
0.0
  0
INSERT
  5
   1D9
  8
0
  6
CONTINUOUS
 62
     7
  2
*HATCH132
 10
0.0
 20
0.0
 30
0.0
  0
INSERT
  5
   1DA
  8
0
  6
CONTINUOUS
 62
     7
  2
*HATCH133
 10
0.0
 20
0.0
 30
0.0
  0
INSERT
  5
   1DB
  8
0
  6
CONTINUOUS
 62
     7
  2
*HATCH134
 10
0.0
 20
0.0
 30
0.0
  0
LINE
  5
   1DC
  8
0
  6
CONTINUOUS
 62
   130
 10
-7.62939524743632E-5
 20
238.737075805664
 30
0.0
 11
40.750015258789
 21
238.737075805664
 31
0.0
  0
LINE
  5
   1DD
  8
0
  6
CONTINUOUS
 62
   130
 10
-2.00007629395246
 20
240.737075805664
 30
0.0
 11
39.500015258789
 21
240.737075805664
 31
0.0
  0
ARC
  5
   1DE
  8
0
  6
CONTINUOUS
 62
   130
 10
40.750015258789
 20
283.987075805664
 30
0.0
 40
1.25
 50
360.0
 51
450.0
  0
ARC
  5
   1DF
  8
0
  6
CONTINUOUS
 62
   130
 10
40.750015258789
 20
239.987075805664
 30
0.0
 40
1.25
 50
270.0
 51
360.0
  0
LINE
  5
   1E0
  8
0
  6
CONTINUOUS
 62
   130
 10
-47.9999847412109
 20
238.737075805664
 30
0.0
 11
-47.9999847412109
 21
285.237075805664
 31
0.0
  0
LINE
  5
   1E1
  8
0
  6
CONTINUOUS
 62
   130
 10
-7.62939524463491E-5
 20
235.237075805664
 30
0.0
 11
-7.62939524463491E-5
 21
238.737075805664
 31
0.0
  0
LINE
  5
   1E2
  8
0
  6
CONTINUOUS
 62
   130
 10
-2.00007629395245
 20
237.237075805664
 30
0.0
 11
-2.00007629395245
 21
240.737075805664
 31
0.0
  0
LINE
  5
   1E3
  8
0
  6
CONTINUOUS
 62
   130
 10
-14.1610040632382
 20
237.237075805664
 30
0.0
 11
-2.00007629395246
 21
237.237075805664
 31
0.0
  0
LINE
  5
   1E4
  8
0
  6
CONTINUOUS
 62
   130
 10
8.00001525878908
 20
283.237075805664
 30
0.0
 11
39.500015258789
 21
283.237075805664
 31
0.0
  0
LINE
  5
   1E5
  8
0
  6
CONTINUOUS
 62
   130
 10
8.00001525878908
 20
281.237075805664
 30
0.0
 11
33.000015258789
 21
281.237075805664
 31
0.0
  0
LINE
  5
   1E6
  8
0
  6
CONTINUOUS
 62
   130
 10
8.00001525878908
 20
279.237075805664
 30
0.0
 11
39.500015258789
 21
279.237075805664
 31
0.0
  0
LINE
  5
   1E7
  8
0
  6
CONTINUOUS
 62
   130
 10
33.0000152587891
 20
281.237075805664
 30
0.0
 11
33.0000152587891
 21
283.237075805664
 31
0.0
  0
LINE
  5
   1E8
  8
0
  6
CONTINUOUS
 62
   130
 10
31.0000152587891
 20
283.237075805664
 30
0.0
 11
31.0000152587891
 21
285.237075805664
 31
0.0
  0
LINE
  5
   1E9
  8
0
  6
CONTINUOUS
 62
     2
 10
10.5000152587891
 20
255.237075805664
 30
0.0
 11
10.5000152587891
 21
268.237075805664
 31
0.0
  0
LINE
  5
   1EA
  8
0
  6
CONTINUOUS
 62
     5
 10
13.5000152587891
 20
249.737075805664
 30
0.0
 11
13.5000152587891
 21
253.737075805664
 31
0.0
  0
INSERT
  5
   1EB
  8
0
  6
CONTINUOUS
 62
     7
  2
*HATCH135
 10
0.0
 20
0.0
 30
0.0
  0
INSERT
  5
   1EC
  8
0
  6
CONTINUOUS
 62
     7
  2
*HATCH136
 10
0.0
 20
0.0
 30
0.0
  0
LINE
  5
   1ED
  8
0
  6
CONTINUOUS
 62
     7
 10
-27.4999847412109
 20
247.806717934577
 30
0.0
 11
-8.69590669591328
 21
232.906600729133
 31
0.0
  0
INSERT
  5
   1EE
  8
0
  6
CONTINUOUS
 62
     7
  2
*HATCH137
 10
0.0
 20
0.0
 30
0.0
  0
LINE
  5
   1EF
  8
0
  6
CONTINUOUS
 62
   130
 10
-37.0000762939524
 20
237.737075805664
 30
0.0
 11
-37.0000762939524
 21
238.737075805664
 31
0.0
  0
LINE
  5
   1F0
  8
0
  6
CONTINUOUS
 62
   130
 10
-37.0000762939521
 20
238.737075805664
 30
0.0
 11
-16.0540171636745
 21
238.737075805664
 31
0.0
  0
LINE
  5
   1F1
  8
0
  6
CONTINUOUS
 62
   130
 10
-37.0000762939521
 20
237.737075805664
 30
0.0
 11
-14.7920084300503
 21
237.737075805664
 31
0.0
  0
LINE
  5
   1F2
  8
0
  6
CONTINUOUS
 62
   130
 10
-47.9999847412109
 20
238.737075805664
 30
0.0
 11
-37.0000762939524
 21
235.237075805664
 31
0.0
  0
LINE
  5
   1F3
  8
0
  6
CONTINUOUS
 62
   130
 10
-47.9999847412109
 20
285.237075805664
 30
0.0
 11
-15.4999847412109
 21
285.237075805664
 31
0.0
  0
LINE
  5
   1F4
  8
0
  6
CONTINUOUS
 62
   130
 10
-47.9999847412109
 20
283.237075805664
 30
0.0
 11
-15.4999847412109
 21
283.237075805664
 31
0.0
  0
LINE
  5
   1F5
  8
0
  6
CONTINUOUS
 62
   130
 10
-47.9999847412109
 20
281.237075805664
 30
0.0
 11
-15.4999847412109
 21
281.237075805664
 31
0.0
  0
LINE
  5
   1F6
  8
0
  6
CONTINUOUS
 62
   130
 10
-47.9999847412109
 20
279.237075805664
 30
0.0
 11
-15.4999847412109
 21
279.237075805664
 31
0.0
  0
POINT
  5
   1F7
  8
0
  6
CONTINUOUS
 62
     7
 10
-12.4999847412109
 20
260.737075805664
 30
0.0
  0
LINE
  5
   1F8
  8
0
  6
CONTINUOUS
 62
   218
 10
-12.4999847412109
 20
249.737075805664
 30
0.0
 11
5.00001525878908
 21
249.737075805664
 31
0.0
  0
LINE
  5
   1F9
  8
0
  6
CONTINUOUS
 62
   218
 10
-12.4999847412109
 20
249.737075805664
 30
0.0
 11
-12.4999847412109
 21
276.737075805664
 31
0.0
  0
LINE
  5
   1FA
  8
0
  6
CONTINUOUS
 62
   218
 10
5.00001525878908
 20
249.737075805664
 30
0.0
 11
5.00001525878908
 21
276.737075805664
 31
0.0
  0
LINE
  5
   1FB
  8
0
  6
CONTINUOUS
 62
   218
 10
-15.4999847412109
 20
276.737075805664
 30
0.0
 11
-15.4999847412109
 21
297.237075805664
 31
0.0
  0
LINE
  5
   1FC
  8
0
  6
CONTINUOUS
 62
   218
 10
8.00001525878908
 20
276.737075805664
 30
0.0
 11
8.00001525878908
 21
297.237075805664
 31
0.0
  0
LINE
  5
   1FD
  8
0
  6
CONTINUOUS
 62
   218
 10
-15.4999847412109
 20
276.737075805664
 30
0.0
 11
8.00001525878908
 21
276.737075805664
 31
0.0
  0
LINE
  5
   1FE
  8
0
  6
DASHDOT
 62
   218
 10
-3.74998474121092
 20
246.852050665833
 30
0.0
 11
-3.74998474121092
 21
302.851663937792
 31
0.0
  0
LINE
  5
   1FF
  8
0
  6
CONTINUOUS
 62
   218
 10
-3.74998474121093
 20
249.737075805664
 30
0.0
 11
1.01084373791763
 21
276.737075805664
 31
0.0
  0
LINE
  5
   200
  8
0
  6
CONTINUOUS
 62
   218
 10
-5.27312465903954
 20
249.737075805664
 30
0.0
 11
-0.51229617991099
 21
276.737075805664
 31
0.0
  0
LINE
  5
   201
  8
0
  6
CONTINUOUS
 62
   218
 10
-6.79626457686815
 20
249.737075805664
 30
0.0
 11
-2.03543609773961
 21
276.737075805664
 31
0.0
  0
LINE
  5
   202
  8
0
  6
CONTINUOUS
 62
   218
 10
-8.31940449469678
 20
249.737075805664
 30
0.0
 11
-3.55857601556823
 21
276.737075805664
 31
0.0
  0
LINE
  5
   203
  8
0
  6
CONTINUOUS
 62
   218
 10
-9.8425444125254
 20
249.737075805664
 30
0.0
 11
-5.08171593339685
 21
276.737075805664
 31
0.0
  0
LINE
  5
   204
  8
0
  6
CONTINUOUS
 62
   218
 10
-11.365684330354
 20
249.737075805664
 30
0.0
 11
-6.60485585122544
 21
276.737075805664
 31
0.0
  0
LINE
  5
   205
  8
0
  6
CONTINUOUS
 62
   218
 10
-12.4999847412109
 20
251.942294232302
 30
0.0
 11
-8.12799576905409
 21
276.737075805664
 31
0.0
  0
LINE
  5
   206
  8
0
  6
CONTINUOUS
 62
   218
 10
-12.4999847412109
 20
260.580449957018
 30
0.0
 11
-9.65113568688271
 21
276.737075805664
 31
0.0
  0
LINE
  5
   207
  8
0
  6
CONTINUOUS
 62
   218
 10
-12.4999847412109
 20
269.218605681733
 30
0.0
 11
-11.1742756047113
 21
276.737075805664
 31
0.0
  0
LINE
  5
   208
  8
0
  6
CONTINUOUS
 62
   218
 10
-2.2268448233823
 20
249.737075805664
 30
0.0
 11
2.53398365574625
 21
276.737075805664
 31
0.0
  0
LINE
  5
   209
  8
0
  6
CONTINUOUS
 62
   218
 10
-0.703704905553678
 20
249.737075805664
 30
0.0
 11
4.05712357357488
 21
276.737075805664
 31
0.0
  0
LINE
  5
   20A
  8
0
  6
CONTINUOUS
 62
   218
 10
0.819435012274951
 20
249.737075805664
 30
0.0
 11
5.00001525878909
 21
273.446324553173
 31
0.0
  0
LINE
  5
   20B
  8
0
  6
CONTINUOUS
 62
   218
 10
2.34257493010357
 20
249.737075805664
 30
0.0
 11
5.00001525878909
 21
264.808168828457
 31
0.0
  0
LINE
  5
   20C
  8
0
  6
CONTINUOUS
 62
   218
 10
3.8657148479322
 20
249.737075805664
 30
0.0
 11
5.00001525878907
 21
256.170013103742
 31
0.0
  0
POLYLINE
  5
   20D
  8
0
  6
CONTINUOUS
 62
   218
 66
     1
 10
0.0
 20
0.0
 30
0.0
 70
     1
  0
VERTEX
  5
   20E
  8
0
  6
CONTINUOUS
 10
-15.4999847412109
 20
297.237075805649
 30
0.0
 40
0.0
 41
0.0
  0
VERTEX
  5
   20F
  8
0
  6
CONTINUOUS
 10
-15.498215301051
 20
297.175722734342
 30
0.0
 40
0.0
 41
0.0
  0
VERTEX
  5
   210
  8
0
  6
CONTINUOUS
 10
-15.492908046416
 20
297.114406619831
 30
0.0
 40
0.0
 41
0.0
  0
VERTEX
  5
   211
  8
0
  6
CONTINUOUS
 10
-15.4840661741978
 20
297.05316439665
 30
0.0
 40
0.0
 41
0.0
  0
VERTEX
  5
   212
  8
0
  6
CONTINUOUS
 10
-15.4716950104095
 20
296.992032954826
 30
0.0
 40
0.0
 41
0.0
  0
VERTEX
  5
   213
  8
0
  6
CONTINUOUS
 10
-15.4558020069776
 20
296.931049117651
 30
0.0
 40
0.0
 41
0.0
  0
VERTEX
  5
   214
  8
0
  6
CONTINUOUS
 10
-15.4363967372531
 20
296.870249619511
 30
0.0
 40
0.0
 41
0.0
  0
VERTEX
  5
   215
  8
0
  6
CONTINUOUS
 10
-15.4134908902449
 20
296.809671083749
 30
0.0
 40
0.0
 41
0.0
  0
VERTEX
  5
   216
  8
0
  6
CONTINUOUS
 10
-15.3870982635787
 20
296.749350000609
 30
0.0
 40
0.0
 41
0.0
  0
VERTEX
  5
   217
  8
0
  6
CONTINUOUS
 10
-15.3572347551859
 20
296.689322705258
 30
0.0
 40
0.0
 41
0.0
  0
VERTEX
  5
   218
  8
0
  6
CONTINUOUS
 10
-15.3239183537273
 20
296.629625355892
 30
0.0
 40
0.0
 41
0.0
  0
VERTEX
  5
   219
  8
0
  6
CONTINUOUS
 10
-15.2871691277575
 20
296.570293911963
 30
0.0
 40
0.0
 41
0.0
  0
VERTEX
  5
   21A
  8
0
  6
CONTINUOUS
 10
-15.2470092136358
 20
296.511364112514
 30
0.0
 40
0.0
 41
0.0
  0
VERTEX
  5
   21B
  8
0
  6
CONTINUOUS
 10
-15.203462802193
 20
296.452871454653
 30
0.0
 40
0.0
 41
0.0
  0
VERTEX
  5
   21C
  8
0
  6
CONTINUOUS
 10
-15.1565561241591
 20
296.39485117217
 30
0.0
 40
0.0
 41
0.0
  0
VERTEX
  5
   21D
  8
0
  6
CONTINUOUS
 10
-15.1063174343628
 20
296.337338214313
 30
0.0
 40
0.0
 41
0.0
  0
VERTEX
  5
   21E
  8
0
  6
CONTINUOUS
 10
-15.0527769947123
 20
296.280367224738
 30
0.0
 40
0.0
 41
0.0
  0
VERTEX
  5
   21F
  8
0
  6
CONTINUOUS
 10
-14.9959670559666
 20
296.223972520638
 30
0.0
 40
0.0
 41
0.0
  0
VERTEX
  5
   220
  8
0
  6
CONTINUOUS
 10
-14.9359218383085
 20
296.168188072075
 30
0.0
 40
0.0
 41
0.0
  0
VERTEX
  5
   221
  8
0
  6
CONTINUOUS
 10
-14.8726775107318
 20
296.113047481514
 30
0.0
 40
0.0
 41
0.0
  0
VERTEX
  5
   222
  8
0
  6
CONTINUOUS
 10
-14.8062721692545
 20
296.058583963586
 30
0.0
 40
0.0
 41
0.0
  0
VERTEX
  5
   223
  8
0
  6
CONTINUOUS
 10
-14.7367458139715
 20
296.004830325077
 30
0.0
 40
0.0
 41
0.0
  0
VERTEX
  5
   224
  8
0
  6
CONTINUOUS
 10
-14.6641403249593
 20
295.951818945168
 30
0.0
 40
0.0
 41
0.0
  0
VERTEX
  5
   225
  8
0
  6
CONTINUOUS
 10
-14.5884994370496
 20
295.899581755934
 30
0.0
 40
0.0
 41
0.0
  0
VERTEX
  5
   226
  8
0
  6
CONTINUOUS
 10
-14.5098687134849
 20
295.848150223103
 30
0.0
 40
0.0
 41
0.0
  0
VERTEX
  5
   227
  8
0
  6
CONTINUOUS
 10
-14.4282955184729
 20
295.797555327107
 30
0.0
 40
0.0
 41
0.0
  0
VERTEX
  5
   228
  8
0
  6
CONTINUOUS
 10
-14.343828988656
 20
295.747827544421
 30
0.0
 40
0.0
 41
0.0
  0
VERTEX
  5
   229
  8
0
  6
CONTINUOUS
 10
-14.2565200035134
 20
295.698996829201
 30
0.0
 40
0.0
 41
0.0
  0
VERTEX
  5
   22A
  8
0
  6
CONTINUOUS
 10
-14.166421154713
 20
295.651092595244
 30
0.0
 40
0.0
 41
0.0
  0
VERTEX
  5
   22B
  8
0
  6
CONTINUOUS
 10
-14.0735867144324
 20
295.604143698268
 30
0.0
 40
0.0
 41
0.0
  0
VERTEX
  5
   22C
  8
0
  6
CONTINUOUS
 10
-13.9780726026671
 20
295.558178418536
 30
0.0
 40
0.0
 41
0.0
  0
VERTEX
  5
   22D
  8
0
  6
CONTINUOUS
 10
-13.8799363535465
 20
295.513224443811
 30
0.0
 40
0.0
 41
0.0
  0
VERTEX
  5
   22E
  8
0
  6
CONTINUOUS
 10
-13.6760354415366
 20
295.426458098275
 30
0.0
 40
0.0
 41
0.0
  0
VERTEX
  5
   22F
  8
0
  6
CONTINUOUS
 10
-13.4623751935596
 20
295.344053689388
 30
0.0
 40
0.0
 41
0.0
  0
VERTEX
  5
   230
  8
0
  6
CONTINUOUS
 10
-13.2394703358672
 20
295.266209736588
 30
0.0
 40
0.0
 41
0.0
  0
VERTEX
  5
   231
  8
0
  6
CONTINUOUS
 10
-13.0078578657856
 20
295.193113772777
 30
0.0
 40
0.0
 41
0.0
  0
VERTEX
  5
   232
  8
0
  6
CONTINUOUS
 10
-12.7680957580423
 20
295.124941892532
 30
0.0
 40
0.0
 41
0.0
  0
VERTEX
  5
   233
  8
0
  6
CONTINUOUS
 10
-12.5207616205554
 20
295.061858327885
 30
0.0
 40
0.0
 41
0.0
  0
VERTEX
  5
   234
  8
0
  6
CONTINUOUS
 10
-12.2664513029261
 20
295.004015052669
 30
0.0
 40
0.0
 41
0.0
  0
VERTEX
  5
   235
  8
0
  6
CONTINUOUS
 10
-12.1368709151082
 20
294.977102572849
 30
0.0
 40
0.0
 41
0.0
  0
VERTEX
  5
   236
  8
0
  6
CONTINUOUS
 10
-11.87324990635
 20
294.92737697438
 30
0.0
 40
0.0
 41
0.0
  0
VERTEX
  5
   237
  8
0
  6
CONTINUOUS
 10
-11.6042126298843
 20
294.883215642702
 30
0.0
 40
0.0
 41
0.0
  0
VERTEX
  5
   238
  8
0
  6
CONTINUOUS
 10
-11.3304072200749
 20
294.844724966329
 30
0.0
 40
0.0
 41
0.0
  0
VERTEX
  5
   239
  8
0
  6
CONTINUOUS
 10
-11.0524932981365
 20
294.811997672674
 30
0.0
 40
0.0
 41
0.0
  0
VERTEX
  5
   23A
  8
0
  6
CONTINUOUS
 10
-10.7711403830495
 20
294.785112604653
 30
0.0
 40
0.0
 41
0.0
  0
VERTEX
  5
   23B
  8
0
  6
CONTINUOUS
 10
-10.48702627863
 20
294.76413453075
 30
0.0
 40
0.0
 41
0.0
  0
VERTEX
  5
   23C
  8
0
  6
CONTINUOUS
 10
-10.2008354406408
 20
294.749113988982
 30
0.0
 40
0.0
 41
0.0
  0
VERTEX
  5
   23D
  8
0
  6
CONTINUOUS
 10
-9.91325732787823
 20
294.74008716515
 30
0.0
 40
0.0
 41
0.0
  0
VERTEX
  5
   23E
  8
0
  6
CONTINUOUS
 10
-9.62498474120464
 20
294.737075805664
 30
0.0
 40
0.0
 41
0.0
  0
VERTEX
  5
   23F
  8
0
  6
CONTINUOUS
 10
-9.33671215453107
 20
294.740087165152
 30
0.0
 40
0.0
 41
0.0
  0
VERTEX
  5
   240
  8
0
  6
CONTINUOUS
 10
-9.0491340417685
 20
294.749113988985
 30
0.0
 40
0.0
 41
0.0
  0
VERTEX
  5
   241
  8
0
  6
CONTINUOUS
 10
-8.76294320377946
 20
294.764134530754
 30
0.0
 40
0.0
 41
0.0
  0
VERTEX
  5
   242
  8
0
  6
CONTINUOUS
 10
-8.47882909936001
 20
294.785112604659
 30
0.0
 40
0.0
 41
0.0
  0
VERTEX
  5
   243
  8
0
  6
CONTINUOUS
 10
-8.19747618427315
 20
294.811997672681
 30
0.0
 40
0.0
 41
0.0
  0
VERTEX
  5
   244
  8
0
  6
CONTINUOUS
 10
-7.91956226233495
 20
294.844724966338
 30
0.0
 40
0.0
 41
0.0
  0
VERTEX
  5
   245
  8
0
  6
CONTINUOUS
 10
-7.64575685252572
 20
294.883215642712
 30
0.0
 40
0.0
 41
0.0
  0
VERTEX
  5
   246
  8
0
  6
CONTINUOUS
 10
-7.37671957606022
 20
294.927376974392
 30
0.0
 40
0.0
 41
0.0
  0
VERTEX
  5
   247
  8
0
  6
CONTINUOUS
 10
-7.11309856730234
 20
294.977102572862
 30
0.0
 40
0.0
 41
0.0
  0
VERTEX
  5
   248
  8
0
  6
CONTINUOUS
 10
-6.85552891235265
 20
295.0322726448
 30
0.0
 40
0.0
 41
0.0
  0
VERTEX
  5
   249
  8
0
  6
CONTINUOUS
 10
-6.60463111907036
 20
295.092754280671
 30
0.0
 40
0.0
 41
0.0
  0
VERTEX
  5
   24A
  8
0
  6
CONTINUOUS
 10
-6.36100962221554
 20
295.158401774916
 30
0.0
 40
0.0
 41
0.0
  0
VERTEX
  5
   24B
  8
0
  6
CONTINUOUS
 10
-6.12525132731283
 20
295.229056976971
 30
0.0
 40
0.0
 41
0.0
  0
VERTEX
  5
   24C
  8
0
  6
CONTINUOUS
 10
-5.89792419674465
 20
295.304549672267
 30
0.0
 40
0.0
 41
0.0
  0
VERTEX
  5
   24D
  8
0
  6
CONTINUOUS
 10
-5.67957588148004
 20
295.384697992287
 30
0.0
 40
0.0
 41
0.0
  0
VERTEX
  5
   24E
  8
0
  6
CONTINUOUS
 10
-5.47073240173552
 20
295.469308852708
 30
0.0
 40
0.0
 41
0.0
  0
VERTEX
  5
   24F
  8
0
  6
CONTINUOUS
 10
-5.37003312886672
 20
295.513224443832
 30
0.0
 40
0.0
 41
0.0
  0
VERTEX
  5
   250
  8
0
  6
CONTINUOUS
 10
-5.27189687974632
 20
295.558178418558
 30
0.0
 40
0.0
 41
0.0
  0
VERTEX
  5
   251
  8
0
  6
CONTINUOUS
 10
-5.17638276798123
 20
295.604143698291
 30
0.0
 40
0.0
 41
0.0
  0
VERTEX
  5
   252
  8
0
  6
CONTINUOUS
 10
-5.08354832770086
 20
295.651092595266
 30
0.0
 40
0.0
 41
0.0
  0
VERTEX
  5
   253
  8
0
  6
CONTINUOUS
 10
-4.99344947890075
 20
295.698996829224
 30
0.0
 40
0.0
 41
0.0
  0
VERTEX
  5
   254
  8
0
  6
CONTINUOUS
 10
-4.90614049375839
 20
295.747827544445
 30
0.0
 40
0.0
 41
0.0
  0
VERTEX
  5
   255
  8
0
  6
CONTINUOUS
 10
-4.82167396394175
 20
295.797555327132
 30
0.0
 40
0.0
 41
0.0
  0
VERTEX
  5
   256
  8
0
  6
CONTINUOUS
 10
-4.74010076892998
 20
295.848150223127
 30
0.0
 40
0.0
 41
0.0
  0
VERTEX
  5
   257
  8
0
  6
CONTINUOUS
 10
-4.66147004536553
 20
295.899581755959
 30
0.0
 40
0.0
 41
0.0
  0
VERTEX
  5
   258
  8
0
  6
CONTINUOUS
 10
-4.5858291574561
 20
295.951818945194
 30
0.0
 40
0.0
 41
0.0
  0
VERTEX
  5
   259
  8
0
  6
CONTINUOUS
 10
-4.51322366844415
 20
296.004830325102
 30
0.0
 40
0.0
 41
0.0
  0
VERTEX
  5
   25A
  8
0
  6
CONTINUOUS
 10
-4.44369731316138
 20
296.058583963612
 30
0.0
 40
0.0
 41
0.0
  0
VERTEX
  5
   25B
  8
0
  6
CONTINUOUS
 10
-4.37729197168445
 20
296.113047481541
 30
0.0
 40
0.0
 41
0.0
  0
VERTEX
  5
   25C
  8
0
  6
CONTINUOUS
 10
-4.31404764410801
 20
296.168188072102
 30
0.0
 40
0.0
 41
0.0
  0
VERTEX
  5
   25D
  8
0
  6
CONTINUOUS
 10
-4.25400242645014
 20
296.223972520665
 30
0.0
 40
0.0
 41
0.0
  0
VERTEX
  5
   25E
  8
0
  6
CONTINUOUS
 10
-4.19719248770471
 20
296.280367224765
 30
0.0
 40
0.0
 41
0.0
  0
VERTEX
  5
   25F
  8
0
  6
CONTINUOUS
 10
-4.14365204805457
 20
296.33733821434
 30
0.0
 40
0.0
 41
0.0
  0
VERTEX
  5
   260
  8
0
  6
CONTINUOUS
 10
-4.09341335825856
 20
296.394851172197
 30
0.0
 40
0.0
 41
0.0
  0
VERTEX
  5
   261
  8
0
  6
CONTINUOUS
 10
-4.04650668022486
 20
296.452871454681
 30
0.0
 40
0.0
 41
0.0
  0
VERTEX
  5
   262
  8
0
  6
CONTINUOUS
 10
-4.00296026878237
 20
296.511364112542
 30
0.0
 40
0.0
 41
0.0
  0
VERTEX
  5
   263
  8
0
  6
CONTINUOUS
 10
-3.96280035466104
 20
296.570293911991
 30
0.0
 40
0.0
 41
0.0
  0
VERTEX
  5
   264
  8
0
  6
CONTINUOUS
 10
-3.92605112869145
 20
296.62962535592
 30
0.0
 40
0.0
 41
0.0
  0
VERTEX
  5
   265
  8
0
  6
CONTINUOUS
 10
-3.89273472723319
 20
296.689322705286
 30
0.0
 40
0.0
 41
0.0
  0
VERTEX
  5
   266
  8
0
  6
CONTINUOUS
 10
-3.86287121884072
 20
296.749350000638
 30
0.0
 40
0.0
 41
0.0
  0
VERTEX
  5
   267
  8
0
  6
CONTINUOUS
 10
-3.83647859217482
 20
296.809671083778
 30
0.0
 40
0.0
 41
0.0
  0
VERTEX
  5
   268
  8
0
  6
CONTINUOUS
 10
-3.81357274516691
 20
296.87024961954
 30
0.0
 40
0.0
 41
0.0
  0
VERTEX
  5
   269
  8
0
  6
CONTINUOUS
 10
-3.79416747544273
 20
296.931049117681
 30
0.0
 40
0.0
 41
0.0
  0
VERTEX
  5
   26A
  8
0
  6
CONTINUOUS
 10
-3.77827447201115
 20
296.992032954855
 30
0.0
 40
0.0
 41
0.0
  0
VERTEX
  5
   26B
  8
0
  6
CONTINUOUS
 10
-3.76590330822316
 20
297.05316439668
 30
0.0
 40
0.0
 41
0.0
  0
VERTEX
  5
   26C
  8
0
  6
CONTINUOUS
 10
-3.75706143600523
 20
297.11440661986
 30
0.0
 40
0.0
 41
0.0
  0
VERTEX
  5
   26D
  8
0
  6
CONTINUOUS
 10
-3.75175418137057
 20
297.175722734372
 30
0.0
 40
0.0
 41
0.0
  0
VERTEX
  5
   26E
  8
0
  6
CONTINUOUS
 10
-3.74998474121092
 20
297.237075805679
 30
0.0
 40
0.0
 41
0.0
  0
VERTEX
  5
   26F
  8
0
  6
CONTINUOUS
 10
-3.75175418137088
 20
297.298428876986
 30
0.0
 40
0.0
 41
0.0
  0
VERTEX
  5
   270
  8
0
  6
CONTINUOUS
 10
-3.75706143600584
 20
297.359744991497
 30
0.0
 40
0.0
 41
0.0
  0
VERTEX
  5
   271
  8
0
  6
CONTINUOUS
 10
-3.76590330822408
 20
297.420987214678
 30
0.0
 40
0.0
 41
0.0
  0
VERTEX
  5
   272
  8
0
  6
CONTINUOUS
 10
-3.77827447201238
 20
297.482118656503
 30
0.0
 40
0.0
 41
0.0
  0
VERTEX
  5
   273
  8
0
  6
CONTINUOUS
 10
-3.79416747544427
 20
297.543102493677
 30
0.0
 40
0.0
 41
0.0
  0
VERTEX
  5
   274
  8
0
  6
CONTINUOUS
 10
-3.81357274516876
 20
297.603901991817
 30
0.0
 40
0.0
 41
0.0
  0
VERTEX
  5
   275
  8
0
  6
CONTINUOUS
 10
-3.83647859217697
 20
297.664480527579
 30
0.0
 40
0.0
 41
0.0
  0
VERTEX
  5
   276
  8
0
  6
CONTINUOUS
 10
-3.86287121884317
 20
297.724801610719
 30
0.0
 40
0.0
 41
0.0
  0
VERTEX
  5
   277
  8
0
  6
CONTINUOUS
 10
-3.89273472723594
 20
297.784828906071
 30
0.0
 40
0.0
 41
0.0
  0
VERTEX
  5
   278
  8
0
  6
CONTINUOUS
 10
-3.9260511286945
 20
297.844526255437
 30
0.0
 40
0.0
 41
0.0
  0
VERTEX
  5
   279
  8
0
  6
CONTINUOUS
 10
-3.96280035466439
 20
297.903857699366
 30
0.0
 40
0.0
 41
0.0
  0
VERTEX
  5
   27A
  8
0
  6
CONTINUOUS
 10
-4.00296026878602
 20
297.962787498814
 30
0.0
 40
0.0
 41
0.0
  0
VERTEX
  5
   27B
  8
0
  6
CONTINUOUS
 10
-4.0465066802288
 20
298.021280156675
 30
0.0
 40
0.0
 41
0.0
  0
VERTEX
  5
   27C
  8
0
  6
CONTINUOUS
 10
-4.09341335826279
 20
298.079300439159
 30
0.0
 40
0.0
 41
0.0
  0
VERTEX
  5
   27D
  8
0
  6
CONTINUOUS
 10
-4.14365204805909
 20
298.136813397015
 30
0.0
 40
0.0
 41
0.0
  0
VERTEX
  5
   27E
  8
0
  6
CONTINUOUS
 10
-4.19719248770952
 20
298.19378438659
 30
0.0
 40
0.0
 41
0.0
  0
VERTEX
  5
   27F
  8
0
  6
CONTINUOUS
 10
-4.25400242645523
 20
298.25017909069
 30
0.0
 40
0.0
 41
0.0
  0
VERTEX
  5
   280
  8
0
  6
CONTINUOUS
 10
-4.31404764411338
 20
298.305963539253
 30
0.0
 40
0.0
 41
0.0
  0
VERTEX
  5
   281
  8
0
  6
CONTINUOUS
 10
-4.3772919716901
 20
298.361104129814
 30
0.0
 40
0.0
 41
0.0
  0
VERTEX
  5
   282
  8
0
  6
CONTINUOUS
 10
-4.4436973131673
 20
298.415567647742
 30
0.0
 40
0.0
 41
0.0
  0
VERTEX
  5
   283
  8
0
  6
CONTINUOUS
 10
-4.51322366845034
 20
298.469321286251
 30
0.0
 40
0.0
 41
0.0
  0
VERTEX
  5
   284
  8
0
  6
CONTINUOUS
 10
-4.58582915746255
 20
298.52233266616
 30
0.0
 40
0.0
 41
0.0
  0
VERTEX
  5
   285
  8
0
  6
CONTINUOUS
 10
-4.66147004537225
 20
298.574569855394
 30
0.0
 40
0.0
 41
0.0
  0
VERTEX
  5
   286
  8
0
  6
CONTINUOUS
 10
-4.74010076893696
 20
298.626001388225
 30
0.0
 40
0.0
 41
0.0
  0
VERTEX
  5
   287
  8
0
  6
CONTINUOUS
 10
-4.82167396394898
 20
298.676596284221
 30
0.0
 40
0.0
 41
0.0
  0
VERTEX
  5
   288
  8
0
  6
CONTINUOUS
 10
-4.90614049376588
 20
298.726324066907
 30
0.0
 40
0.0
 41
0.0
  0
VERTEX
  5
   289
  8
0
  6
CONTINUOUS
 10
-4.99344947890847
 20
298.775154782127
 30
0.0
 40
0.0
 41
0.0
  0
VERTEX
  5
   28A
  8
0
  6
CONTINUOUS
 10
-5.08354832770883
 20
298.823059016085
 30
0.0
 40
0.0
 41
0.0
  0
VERTEX
  5
   28B
  8
0
  6
CONTINUOUS
 10
-5.17638276798943
 20
298.87000791306
 30
0.0
 40
0.0
 41
0.0
  0
VERTEX
  5
   28C
  8
0
  6
CONTINUOUS
 10
-5.27189687975476
 20
298.915973192793
 30
0.0
 40
0.0
 41
0.0
  0
VERTEX
  5
   28D
  8
0
  6
CONTINUOUS
 10
-5.37003312887539
 20
298.960927167517
 30
0.0
 40
0.0
 41
0.0
  0
VERTEX
  5
   28E
  8
0
  6
CONTINUOUS
 10
-5.5739340408852
 20
299.047693513053
 30
0.0
 40
0.0
 41
0.0
  0
VERTEX
  5
   28F
  8
0
  6
CONTINUOUS
 10
-5.78759428886224
 20
299.13009792194
 30
0.0
 40
0.0
 41
0.0
  0
VERTEX
  5
   290
  8
0
  6
CONTINUOUS
 10
-6.01049914655469
 20
299.20794187474
 30
0.0
 40
0.0
 41
0.0
  0
VERTEX
  5
   291
  8
0
  6
CONTINUOUS
 10
-6.24211161663622
 20
299.281037838552
 30
0.0
 40
0.0
 41
0.0
  0
VERTEX
  5
   292
  8
0
  6
CONTINUOUS
 10
-6.48187372437953
 20
299.349209718796
 30
0.0
 40
0.0
 41
0.0
  0
VERTEX
  5
   293
  8
0
  6
CONTINUOUS
 10
-6.72920786186641
 20
299.412293283443
 30
0.0
 40
0.0
 41
0.0
  0
VERTEX
  5
   294
  8
0
  6
CONTINUOUS
 10
-6.98351817949572
 20
299.470136558659
 30
0.0
 40
0.0
 41
0.0
  0
VERTEX
  5
   295
  8
0
  6
CONTINUOUS
 10
-7.11309856731369
 20
299.497049038479
 30
0.0
 40
0.0
 41
0.0
  0
VERTEX
  5
   296
  8
0
  6
CONTINUOUS
 10
-7.37671957607182
 20
299.546774636948
 30
0.0
 40
0.0
 41
0.0
  0
VERTEX
  5
   297
  8
0
  6
CONTINUOUS
 10
-7.64575685253754
 20
299.590935968627
 30
0.0
 40
0.0
 41
0.0
  0
VERTEX
  5
   298
  8
0
  6
CONTINUOUS
 10
-7.91956226234696
 20
299.629426644999
 30
0.0
 40
0.0
 41
0.0
  0
VERTEX
  5
   299
  8
0
  6
CONTINUOUS
 10
-8.19747618428534
 20
299.662153938654
 30
0.0
 40
0.0
 41
0.0
  0
VERTEX
  5
   29A
  8
0
  6
CONTINUOUS
 10
-8.47882909937233
 20
299.689039006675
 30
0.0
 40
0.0
 41
0.0
  0
VERTEX
  5
   29B
  8
0
  6
CONTINUOUS
 10
-8.76294320379189
 20
299.710017080578
 30
0.0
 40
0.0
 41
0.0
  0
VERTEX
  5
   29C
  8
0
  6
CONTINUOUS
 10
-9.04913404178101
 20
299.725037622346
 30
0.0
 40
0.0
 41
0.0
  0
VERTEX
  5
   29D
  8
0
  6
CONTINUOUS
 10
-9.33671215454362
 20
299.734064446178
 30
0.0
 40
0.0
 41
0.0
  0
VERTEX
  5
   29E
  8
0
  6
CONTINUOUS
 10
-9.6249847412172
 20
299.737075805664
 30
0.0
 40
0.0
 41
0.0
  0
VERTEX
  5
   29F
  8
0
  6
CONTINUOUS
 10
-9.91325732789078
 20
299.734064446176
 30
0.0
 40
0.0
 41
0.0
  0
VERTEX
  5
   2A0
  8
0
  6
CONTINUOUS
 10
-10.2008354406533
 20
299.725037622343
 30
0.0
 40
0.0
 41
0.0
  0
VERTEX
  5
   2A1
  8
0
  6
CONTINUOUS
 10
-10.4870262786424
 20
299.710017080574
 30
0.0
 40
0.0
 41
0.0
  0
VERTEX
  5
   2A2
  8
0
  6
CONTINUOUS
 10
-10.7711403830618
 20
299.689039006669
 30
0.0
 40
0.0
 41
0.0
  0
VERTEX
  5
   2A3
  8
0
  6
CONTINUOUS
 10
-11.0524932981487
 20
299.662153938647
 30
0.0
 40
0.0
 41
0.0
  0
VERTEX
  5
   2A4
  8
0
  6
CONTINUOUS
 10
-11.3304072200869
 20
299.62942664499
 30
0.0
 40
0.0
 41
0.0
  0
VERTEX
  5
   2A5
  8
0
  6
CONTINUOUS
 10
-11.6042126298961
 20
299.590935968617
 30
0.0
 40
0.0
 41
0.0
  0
VERTEX
  5
   2A6
  8
0
  6
CONTINUOUS
 10
-11.8732499063616
 20
299.546774636937
 30
0.0
 40
0.0
 41
0.0
  0
VERTEX
  5
   2A7
  8
0
  6
CONTINUOUS
 10
-12.1368709151195
 20
299.497049038466
 30
0.0
 40
0.0
 41
0.0
  0
VERTEX
  5
   2A8
  8
0
  6
CONTINUOUS
 10
-12.3944405700692
 20
299.441878966528
 30
0.0
 40
0.0
 41
0.0
  0
VERTEX
  5
   2A9
  8
0
  6
CONTINUOUS
 10
-12.6453383633515
 20
299.381397330657
 30
0.0
 40
0.0
 41
0.0
  0
VERTEX
  5
   2AA
  8
0
  6
CONTINUOUS
 10
-12.8889598602063
 20
299.315749836412
 30
0.0
 40
0.0
 41
0.0
  0
VERTEX
  5
   2AB
  8
0
  6
CONTINUOUS
 10
-13.124718155109
 20
299.245094634357
 30
0.0
 40
0.0
 41
0.0
  0
VERTEX
  5
   2AC
  8
0
  6
CONTINUOUS
 10
-13.3520452856772
 20
299.169601939062
 30
0.0
 40
0.0
 41
0.0
  0
VERTEX
  5
   2AD
  8
0
  6
CONTINUOUS
 10
-13.5703936009418
 20
299.089453619042
 30
0.0
 40
0.0
 41
0.0
  0
VERTEX
  5
   2AE
  8
0
  6
CONTINUOUS
 10
-13.7792370806863
 20
299.00484275862
 30
0.0
 40
0.0
 41
0.0
  0
VERTEX
  5
   2AF
  8
0
  6
CONTINUOUS
 10
-13.8799363535551
 20
298.960927167496
 30
0.0
 40
0.0
 41
0.0
  0
VERTEX
  5
   2B0
  8
0
  6
CONTINUOUS
 10
-13.9780726026755
 20
298.915973192771
 30
0.0
 40
0.0
 41
0.0
  0
VERTEX
  5
   2B1
  8
0
  6
CONTINUOUS
 10
-14.0735867144406
 20
298.870007913037
 30
0.0
 40
0.0
 41
0.0
  0
VERTEX
  5
   2B2
  8
0
  6
CONTINUOUS
 10
-14.166421154721
 20
298.823059016062
 30
0.0
 40
0.0
 41
0.0
  0
VERTEX
  5
   2B3
  8
0
  6
CONTINUOUS
 10
-14.2565200035211
 20
298.775154782104
 30
0.0
 40
0.0
 41
0.0
  0
VERTEX
  5
   2B4
  8
0
  6
CONTINUOUS
 10
-14.3438289886635
 20
298.726324066883
 30
0.0
 40
0.0
 41
0.0
  0
VERTEX
  5
   2B5
  8
0
  6
CONTINUOUS
 10
-14.4282955184801
 20
298.676596284197
 30
0.0
 40
0.0
 41
0.0
  0
VERTEX
  5
   2B6
  8
0
  6
CONTINUOUS
 10
-14.5098687134919
 20
298.626001388201
 30
0.0
 40
0.0
 41
0.0
  0
VERTEX
  5
   2B7
  8
0
  6
CONTINUOUS
 10
-14.5884994370563
 20
298.574569855369
 30
0.0
 40
0.0
 41
0.0
  0
VERTEX
  5
   2B8
  8
0
  6
CONTINUOUS
 10
-14.6641403249658
 20
298.522332666134
 30
0.0
 40
0.0
 41
0.0
  0
VERTEX
  5
   2B9
  8
0
  6
CONTINUOUS
 10
-14.7367458139777
 20
298.469321286226
 30
0.0
 40
0.0
 41
0.0
  0
VERTEX
  5
   2BA
  8
0
  6
CONTINUOUS
 10
-14.8062721692605
 20
298.415567647716
 30
0.0
 40
0.0
 41
0.0
  0
VERTEX
  5
   2BB
  8
0
  6
CONTINUOUS
 10
-14.8726775107374
 20
298.361104129787
 30
0.0
 40
0.0
 41
0.0
  0
VERTEX
  5
   2BC
  8
0
  6
CONTINUOUS
 10
-14.9359218383138
 20
298.305963539226
 30
0.0
 40
0.0
 41
0.0
  0
VERTEX
  5
   2BD
  8
0
  6
CONTINUOUS
 10
-14.9959670559717
 20
298.250179090663
 30
0.0
 40
0.0
 41
0.0
  0
VERTEX
  5
   2BE
  8
0
  6
CONTINUOUS
 10
-15.0527769947171
 20
298.193784386563
 30
0.0
 40
0.0
 41
0.0
  0
VERTEX
  5
   2BF
  8
0
  6
CONTINUOUS
 10
-15.1063174343673
 20
298.136813396988
 30
0.0
 40
0.0
 41
0.0
  0
VERTEX
  5
   2C0
  8
0
  6
CONTINUOUS
 10
-15.1565561241633
 20
298.079300439131
 30
0.0
 40
0.0
 41
0.0
  0
VERTEX
  5
   2C1
  8
0
  6
CONTINUOUS
 10
-15.203462802197
 20
298.021280156647
 30
0.0
 40
0.0
 41
0.0
  0
VERTEX
  5
   2C2
  8
0
  6
CONTINUOUS
 10
-15.2470092136395
 20
297.962787498786
 30
0.0
 40
0.0
 41
0.0
  0
VERTEX
  5
   2C3
  8
0
  6
CONTINUOUS
 10
-15.2871691277608
 20
297.903857699337
 30
0.0
 40
0.0
 41
0.0
  0
VERTEX
  5
   2C4
  8
0
  6
CONTINUOUS
 10
-15.3239183537304
 20
297.844526255408
 30
0.0
 40
0.0
 41
0.0
  0
VERTEX
  5
   2C5
  8
0
  6
CONTINUOUS
 10
-15.3572347551887
 20
297.784828906042
 30
0.0
 40
0.0
 41
0.0
  0
VERTEX
  5
   2C6
  8
0
  6
CONTINUOUS
 10
-15.3870982635811
 20
297.72480161069
 30
0.0
 40
0.0
 41
0.0
  0
VERTEX
  5
   2C7
  8
0
  6
CONTINUOUS
 10
-15.413490890247
 20
297.66448052755
 30
0.0
 40
0.0
 41
0.0
  0
VERTEX
  5
   2C8
  8
0
  6
CONTINUOUS
 10
-15.4363967372549
 20
297.603901991788
 30
0.0
 40
0.0
 41
0.0
  0
VERTEX
  5
   2C9
  8
0
  6
CONTINUOUS
 10
-15.4558020069791
 20
297.543102493647
 30
0.0
 40
0.0
 41
0.0
  0
VERTEX
  5
   2CA
  8
0
  6
CONTINUOUS
 10
-15.4716950104107
 20
297.482118656473
 30
0.0
 40
0.0
 41
0.0
  0
VERTEX
  5
   2CB
  8
0
  6
CONTINUOUS
 10
-15.4840661741987
 20
297.420987214649
 30
0.0
 40
0.0
 41
0.0
  0
VERTEX
  5
   2CC
  8
0
  6
CONTINUOUS
 10
-15.4929080464166
 20
297.359744991468
 30
0.0
 40
0.0
 41
0.0
  0
VERTEX
  5
   2CD
  8
0
  6
CONTINUOUS
 10
-15.4982153010513
 20
297.298428876957
 30
0.0
 40
0.0
 41
0.0
  0
VERTEX
  5
   2CE
  8
0
  6
CONTINUOUS
 10
-15.4999847412109
 20
297.237075805649
 30
0.0
 40
0.0
 41
0.0
  0
SEQEND
  5
   2CF
  8
0
  6
CONTINUOUS
 62
   218
  0
POLYLINE
  5
   2D0
  8
0
  6
CONTINUOUS
 62
   218
 66
     1
 10
0.0
 20
0.0
 30
0.0
  0
VERTEX
  5
   2D1
  8
0
  6
CONTINUOUS
 10
8.00001525878908
 20
297.237075805685
 30
0.0
 40
0.0
 41
0.0
  0
VERTEX
  5
   2D2
  8
0
  6
CONTINUOUS
 10
7.99824581862876
 20
297.298428876992
 30
0.0
 40
0.0
 41
0.0
  0
VERTEX
  5
   2D3
  8
0
  6
CONTINUOUS
 10
7.99293856399342
 20
297.359744991504
 30
0.0
 40
0.0
 41
0.0
  0
VERTEX
  5
   2D4
  8
0
  6
CONTINUOUS
 10
7.98409669177481
 20
297.420987214684
 30
0.0
 40
0.0
 41
0.0
  0
VERTEX
  5
   2D5
  8
0
  6
CONTINUOUS
 10
7.97172552798613
 20
297.482118656509
 30
0.0
 40
0.0
 41
0.0
  0
VERTEX
  5
   2D6
  8
0
  6
CONTINUOUS
 10
7.95583252455385
 20
297.543102493683
 30
0.0
 40
0.0
 41
0.0
  0
VERTEX
  5
   2D7
  8
0
  6
CONTINUOUS
 10
7.93642725482898
 20
297.603901991824
 30
0.0
 40
0.0
 41
0.0
  0
VERTEX
  5
   2D8
  8
0
  6
CONTINUOUS
 10
7.91352140782037
 20
297.664480527586
 30
0.0
 40
0.0
 41
0.0
  0
VERTEX
  5
   2D9
  8
0
  6
CONTINUOUS
 10
7.88712878115377
 20
297.724801610725
 30
0.0
 40
0.0
 41
0.0
  0
VERTEX
  5
   2DA
  8
0
  6
CONTINUOUS
 10
7.85726527276059
 20
297.784828906077
 30
0.0
 40
0.0
 41
0.0
  0
VERTEX
  5
   2DB
  8
0
  6
CONTINUOUS
 10
7.82394887130163
 20
297.844526255443
 30
0.0
 40
0.0
 41
0.0
  0
VERTEX
  5
   2DC
  8
0
  6
CONTINUOUS
 10
7.78719964533134
 20
297.903857699372
 30
0.0
 40
0.0
 41
0.0
  0
VERTEX
  5
   2DD
  8
0
  6
CONTINUOUS
 10
7.74703973120929
 20
297.962787498821
 30
0.0
 40
0.0
 41
0.0
  0
VERTEX
  5
   2DE
  8
0
  6
CONTINUOUS
 10
7.7034933197661
 20
298.021280156682
 30
0.0
 40
0.0
 41
0.0
  0
VERTEX
  5
   2DF
  8
0
  6
CONTINUOUS
 10
7.65658664173169
 20
298.079300439165
 30
0.0
 40
0.0
 41
0.0
  0
VERTEX
  5
   2E0
  8
0
  6
CONTINUOUS
 10
7.60634795193497
 20
298.136813397022
 30
0.0
 40
0.0
 41
0.0
  0
VERTEX
  5
   2E1
  8
0
  6
CONTINUOUS
 10
7.55280751228413
 20
298.193784386597
 30
0.0
 40
0.0
 41
0.0
  0
VERTEX
  5
   2E2
  8
0
  6
CONTINUOUS
 10
7.495997573538
 20
298.250179090697
 30
0.0
 40
0.0
 41
0.0
  0
VERTEX
  5
   2E3
  8
0
  6
CONTINUOUS
 10
7.43595235587942
 20
298.30596353926
 30
0.0
 40
0.0
 41
0.0
  0
VERTEX
  5
   2E4
  8
0
  6
CONTINUOUS
 10
7.37270802830228
 20
298.36110412982
 30
0.0
 40
0.0
 41
0.0
  0
VERTEX
  5
   2E5
  8
0
  6
CONTINUOUS
 10
7.30630268682466
 20
298.415567647749
 30
0.0
 40
0.0
 41
0.0
  0
VERTEX
  5
   2E6
  8
0
  6
CONTINUOUS
 10
7.23677633154119
 20
298.469321286258
 30
0.0
 40
0.0
 41
0.0
  0
VERTEX
  5
   2E7
  8
0
  6
CONTINUOUS
 10
7.16417084252855
 20
298.522332666166
 30
0.0
 40
0.0
 41
0.0
  0
VERTEX
  5
   2E8
  8
0
  6
CONTINUOUS
 10
7.08852995461843
 20
298.574569855401
 30
0.0
 40
0.0
 41
0.0
  0
VERTEX
  5
   2E9
  8
0
  6
CONTINUOUS
 10
7.0098992310533
 20
298.626001388232
 30
0.0
 40
0.0
 41
0.0
  0
VERTEX
  5
   2EA
  8
0
  6
CONTINUOUS
 10
6.92832603604085
 20
298.676596284227
 30
0.0
 40
0.0
 41
0.0
  0
VERTEX
  5
   2EB
  8
0
  6
CONTINUOUS
 10
6.84385950622354
 20
298.726324066913
 30
0.0
 40
0.0
 41
0.0
  0
VERTEX
  5
   2EC
  8
0
  6
CONTINUOUS
 10
6.75655052108052
 20
298.775154782133
 30
0.0
 40
0.0
 41
0.0
  0
VERTEX
  5
   2ED
  8
0
  6
CONTINUOUS
 10
6.66645167227976
 20
298.823059016091
 30
0.0
 40
0.0
 41
0.0
  0
VERTEX
  5
   2EE
  8
0
  6
CONTINUOUS
 10
6.57361723199874
 20
298.870007913066
 30
0.0
 40
0.0
 41
0.0
  0
VERTEX
  5
   2EF
  8
0
  6
CONTINUOUS
 10
6.47810312023301
 20
298.915973192798
 30
0.0
 40
0.0
 41
0.0
  0
VERTEX
  5
   2F0
  8
0
  6
CONTINUOUS
 10
6.37996687111197
 20
298.960927167523
 30
0.0
 40
0.0
 41
0.0
  0
VERTEX
  5
   2F1
  8
0
  6
CONTINUOUS
 10
6.17606595910135
 20
299.047693513058
 30
0.0
 40
0.0
 41
0.0
  0
VERTEX
  5
   2F2
  8
0
  6
CONTINUOUS
 10
5.96240571112352
 20
299.130097921945
 30
0.0
 40
0.0
 41
0.0
  0
VERTEX
  5
   2F3
  8
0
  6
CONTINUOUS
 10
5.73950085343031
 20
299.207941874745
 30
0.0
 40
0.0
 41
0.0
  0
VERTEX
  5
   2F4
  8
0
  6
CONTINUOUS
 10
5.50788838334804
 20
299.281037838556
 30
0.0
 40
0.0
 41
0.0
  0
VERTEX
  5
   2F5
  8
0
  6
CONTINUOUS
 10
5.268126275604
 20
299.349209718801
 30
0.0
 40
0.0
 41
0.0
  0
VERTEX
  5
   2F6
  8
0
  6
CONTINUOUS
 10
5.02079213811643
 20
299.412293283447
 30
0.0
 40
0.0
 41
0.0
  0
VERTEX
  5
   2F7
  8
0
  6
CONTINUOUS
 10
4.76648182048646
 20
299.470136558663
 30
0.0
 40
0.0
 41
0.0
  0
VERTEX
  5
   2F8
  8
0
  6
CONTINUOUS
 10
4.63690143266817
 20
299.497049038483
 30
0.0
 40
0.0
 41
0.0
  0
VERTEX
  5
   2F9
  8
0
  6
CONTINUOUS
 10
4.37328042390942
 20
299.546774636951
 30
0.0
 40
0.0
 41
0.0
  0
VERTEX
  5
   2FA
  8
0
  6
CONTINUOUS
 10
4.10424314744312
 20
299.59093596863
 30
0.0
 40
0.0
 41
0.0
  0
VERTEX
  5
   2FB
  8
0
  6
CONTINUOUS
 10
3.83043773763316
 20
299.629426645001
 30
0.0
 40
0.0
 41
0.0
  0
VERTEX
  5
   2FC
  8
0
  6
CONTINUOUS
 10
3.5525238156943
 20
299.662153938656
 30
0.0
 40
0.0
 41
0.0
  0
VERTEX
  5
   2FD
  8
0
  6
CONTINUOUS
 10
3.27117090060686
 20
299.689039006677
 30
0.0
 40
0.0
 41
0.0
  0
VERTEX
  5
   2FE
  8
0
  6
CONTINUOUS
 10
2.9870567961869
 20
299.71001708058
 30
0.0
 40
0.0
 41
0.0
  0
VERTEX
  5
   2FF
  8
0
  6
CONTINUOUS
 10
2.70086595819742
 20
299.725037622347
 30
0.0
 40
0.0
 41
0.0
  0
VERTEX
  5
   300
  8
0
  6
CONTINUOUS
 10
2.41328784543449
 20
299.734064446178
 30
0.0
 40
0.0
 41
0.0
  0
VERTEX
  5
   301
  8
0
  6
CONTINUOUS
 10
2.12501525876065
 20
299.737075805664
 30
0.0
 40
0.0
 41
0.0
  0
VERTEX
  5
   302
  8
0
  6
CONTINUOUS
 10
1.83674267208688
 20
299.734064446176
 30
0.0
 40
0.0
 41
0.0
  0
VERTEX
  5
   303
  8
0
  6
CONTINUOUS
 10
1.54916455932416
 20
299.725037622342
 30
0.0
 40
0.0
 41
0.0
  0
VERTEX
  5
   304
  8
0
  6
CONTINUOUS
 10
1.26297372133502
 20
299.710017080572
 30
0.0
 40
0.0
 41
0.0
  0
VERTEX
  5
   305
  8
0
  6
CONTINUOUS
 10
0.978859616915537
 20
299.689039006667
 30
0.0
 40
0.0
 41
0.0
  0
VERTEX
  5
   306
  8
0
  6
CONTINUOUS
 10
0.697506701828709
 20
299.662153938644
 30
0.0
 40
0.0
 41
0.0
  0
VERTEX
  5
   307
  8
0
  6
CONTINUOUS
 10
0.419592779890586
 20
299.629426644987
 30
0.0
 40
0.0
 41
0.0
  0
VERTEX
  5
   308
  8
0
  6
CONTINUOUS
 10
0.145787370081503
 20
299.590935968613
 30
0.0
 40
0.0
 41
0.0
  0
VERTEX
  5
   309
  8
0
  6
CONTINUOUS
 10
-0.123249906383792
 20
299.546774636933
 30
0.0
 40
0.0
 41
0.0
  0
VERTEX
  5
   30A
  8
0
  6
CONTINUOUS
 10
-0.386870915141406
 20
299.497049038462
 30
0.0
 40
0.0
 41
0.0
  0
VERTEX
  5
   30B
  8
0
  6
CONTINUOUS
 10
-0.644440570090763
 20
299.441878966523
 30
0.0
 40
0.0
 41
0.0
  0
VERTEX
  5
   30C
  8
0
  6
CONTINUOUS
 10
-0.895338363372657
 20
299.381397330652
 30
0.0
 40
0.0
 41
0.0
  0
VERTEX
  5
   30D
  8
0
  6
CONTINUOUS
 10
-1.13895986022702
 20
299.315749836406
 30
0.0
 40
0.0
 41
0.0
  0
VERTEX
  5
   30E
  8
0
  6
CONTINUOUS
 10
-1.37471815512921
 20
299.245094634351
 30
0.0
 40
0.0
 41
0.0
  0
VERTEX
  5
   30F
  8
0
  6
CONTINUOUS
 10
-1.60204528569681
 20
299.169601939055
 30
0.0
 40
0.0
 41
0.0
  0
VERTEX
  5
   310
  8
0
  6
CONTINUOUS
 10
-1.82039360096078
 20
299.089453619034
 30
0.0
 40
0.0
 41
0.0
  0
VERTEX
  5
   311
  8
0
  6
CONTINUOUS
 10
-2.0292370807046
 20
299.004842758612
 30
0.0
 40
0.0
 41
0.0
  0
VERTEX
  5
   312
  8
0
  6
CONTINUOUS
 10
-2.12993635357302
 20
298.960927167488
 30
0.0
 40
0.0
 41
0.0
  0
VERTEX
  5
   313
  8
0
  6
CONTINUOUS
 10
-2.22807260269303
 20
298.915973192763
 30
0.0
 40
0.0
 41
0.0
  0
VERTEX
  5
   314
  8
0
  6
CONTINUOUS
 10
-2.32358671445772
 20
298.870007913029
 30
0.0
 40
0.0
 41
0.0
  0
VERTEX
  5
   315
  8
0
  6
CONTINUOUS
 10
-2.41642115473767
 20
298.823059016053
 30
0.0
 40
0.0
 41
0.0
  0
VERTEX
  5
   316
  8
0
  6
CONTINUOUS
 10
-2.50652000353735
 20
298.775154782095
 30
0.0
 40
0.0
 41
0.0
  0
VERTEX
  5
   317
  8
0
  6
CONTINUOUS
 10
-2.59382898867926
 20
298.726324066874
 30
0.0
 40
0.0
 41
0.0
  0
VERTEX
  5
   318
  8
0
  6
CONTINUOUS
 10
-2.67829551849544
 20
298.676596284187
 30
0.0
 40
0.0
 41
0.0
  0
VERTEX
  5
   319
  8
0
  6
CONTINUOUS
 10
-2.75986871350673
 20
298.626001388191
 30
0.0
 40
0.0
 41
0.0
  0
VERTEX
  5
   31A
  8
0
  6
CONTINUOUS
 10
-2.83849943707069
 20
298.57456985536
 30
0.0
 40
0.0
 41
0.0
  0
VERTEX
  5
   31B
  8
0
  6
CONTINUOUS
 10
-2.91414032497963
 20
298.522332666125
 30
0.0
 40
0.0
 41
0.0
  0
VERTEX
  5
   31C
  8
0
  6
CONTINUOUS
 10
-2.98674581399106
 20
298.469321286216
 30
0.0
 40
0.0
 41
0.0
  0
VERTEX
  5
   31D
  8
0
  6
CONTINUOUS
 10
-3.0562721692733
 20
298.415567647706
 30
0.0
 40
0.0
 41
0.0
  0
VERTEX
  5
   31E
  8
0
  6
CONTINUOUS
 10
-3.12267751074969
 20
298.361104129777
 30
0.0
 40
0.0
 41
0.0
  0
VERTEX
  5
   31F
  8
0
  6
CONTINUOUS
 10
-3.18592183832557
 20
298.305963539216
 30
0.0
 40
0.0
 41
0.0
  0
VERTEX
  5
   320
  8
0
  6
CONTINUOUS
 10
-3.24596705598288
 20
298.250179090652
 30
0.0
 40
0.0
 41
0.0
  0
VERTEX
  5
   321
  8
0
  6
CONTINUOUS
 10
-3.30277699472773
 20
298.193784386552
 30
0.0
 40
0.0
 41
0.0
  0
VERTEX
  5
   322
  8
0
  6
CONTINUOUS
 10
-3.35631743437728
 20
298.136813396977
 30
0.0
 40
0.0
 41
0.0
  0
VERTEX
  5
   323
  8
0
  6
CONTINUOUS
 10
-3.40655612417269
 20
298.07930043912
 30
0.0
 40
0.0
 41
0.0
  0
VERTEX
  5
   324
  8
0
  6
CONTINUOUS
 10
-3.45346280220577
 20
298.021280156636
 30
0.0
 40
0.0
 41
0.0
  0
VERTEX
  5
   325
  8
0
  6
CONTINUOUS
 10
-3.49700921364764
 20
297.962787498775
 30
0.0
 40
0.0
 41
0.0
  0
VERTEX
  5
   326
  8
0
  6
CONTINUOUS
 10
-3.53716912776834
 20
297.903857699326
 30
0.0
 40
0.0
 41
0.0
  0
VERTEX
  5
   327
  8
0
  6
CONTINUOUS
 10
-3.57391835373729
 20
297.844526255396
 30
0.0
 40
0.0
 41
0.0
  0
VERTEX
  5
   328
  8
0
  6
CONTINUOUS
 10
-3.6072347551949
 20
297.78482890603
 30
0.0
 40
0.0
 41
0.0
  0
VERTEX
  5
   329
  8
0
  6
CONTINUOUS
 10
-3.63709826358671
 20
297.724801610678
 30
0.0
 40
0.0
 41
0.0
  0
VERTEX
  5
   32A
  8
0
  6
CONTINUOUS
 10
-3.66349089025194
 20
297.664480527538
 30
0.0
 40
0.0
 41
0.0
  0
VERTEX
  5
   32B
  8
0
  6
CONTINUOUS
 10
-3.68639673725916
 20
297.603901991776
 30
0.0
 40
0.0
 41
0.0
  0
VERTEX
  5
   32C
  8
0
  6
CONTINUOUS
 10
-3.70580200698266
 20
297.543102493635
 30
0.0
 40
0.0
 41
0.0
  0
VERTEX
  5
   32D
  8
0
  6
CONTINUOUS
 10
-3.72169501041354
 20
297.482118656461
 30
0.0
 40
0.0
 41
0.0
  0
VERTEX
  5
   32E
  8
0
  6
CONTINUOUS
 10
-3.73406617420084
 20
297.420987214636
 30
0.0
 40
0.0
 41
0.0
  0
VERTEX
  5
   32F
  8
0
  6
CONTINUOUS
 10
-3.74290804641806
 20
297.359744991455
 30
0.0
 40
0.0
 41
0.0
  0
VERTEX
  5
   330
  8
0
  6
CONTINUOUS
 10
-3.748215301052
 20
297.298428876944
 30
0.0
 40
0.0
 41
0.0
  0
VERTEX
  5
   331
  8
0
  6
CONTINUOUS
 10
-3.74998474121092
 20
297.237075805637
 30
0.0
 40
0.0
 41
0.0
  0
SEQEND
  5
   332
  8
0
  6
CONTINUOUS
 62
   218
  0
INSERT
  5
   333
  8
0
  6
CONTINUOUS
 62
   218
  2
*HATCH138
 10
0.0
 20
0.0
 30
0.0
  0
ENDBLK
  5
   334
  8
0
  6
CONTINUOUS
 62
     7
  0
BLOCK
  5
   335
  8
0
  6
CONTINUOUS
 62
     7
  2
*UDIM485
 70
    65
 10
0.0
 20
0.0
 30
0.0
  3
*UDIM485
  0
TEXT
  5
   336
  8
0
  6
CONTINUOUS
 62
     7
 10
-635.258431591792
 20
5.52515815826724
 30
0.0
 40
2.99999994291904
  1
5,5
 50
310.26892473572
 41
0.933333333333333
 72
     1
 11
-631.593036587228
 21
3.51894810044811
 31
0.0
 73
     2
  0
TEXT
  5
   337
  8
0
  6
CONTINUOUS
 62
     7
 10
-637.294516084855
 20
7.92866800811006
 30
0.0
 40
2.99999994291904
  1
Ø
 50
310.26892473572
 41
0.933333333333333
 72
     1
 11
-635.438973955835
 21
8.05891114906263
 31
0.0
 73
     2
  0
LINE
  5
   338
  8
0
  6
CONTINUOUS
 62
     7
 10
-630.979717591282
 20
-1.07276607703607
 30
0.0
 11
-643.977984583195
 21
14.2711270193508
 31
0.0
  0
LINE
  5
   339
  8
0
  6
CONTINUOUS
 62
     7
 10
-639.999941145453
 20
10.3811648393093
 30
0.0
 11
-642.307100068789
 21
12.2987199760577
 31
0.0
  0
LINE
  5
   33A
  8
0
  6
CONTINUOUS
 62
     7
 10
-642.307100068789
 20
12.2987199760577
 30
0.0
 11
-640.794922155509
 21
9.70771284395894
 31
0.0
  0
LINE
  5
   33B
  8
0
  6
CONTINUOUS
 62
     7
 10
-646.285143506531
 20
16.1886821560992
 30
0.0
 11
-643.977984583195
 21
14.2711270193508
 31
0.0
  0
LINE
  5
   33C
  8
0
  6
CONTINUOUS
 62
     7
 10
-643.977984583195
 20
14.2711270193508
 30
0.0
 11
-645.490162496476
 21
16.8621341514496
 31
0.0
  0
ENDBLK
  5
   33D
  8
0
  6
CONTINUOUS
 62
     7
  0
BLOCK
  5
   33E
  8
0
  6
CONTINUOUS
 62
     7
  2
*UDIM486
 70
    65
 10
0.0
 20
0.0
 30
0.0
  3
*UDIM486
  0
TEXT
  5
   33F
  8
0
  6
CONTINUOUS
 62
     7
 10
-685.2288319585
 20
101.175180014253
 30
0.0
 40
2.99999994291904
  1
27,5
 50
359.999999948034
 41
0.933333333333333
 72
     1
 11
-679.92883205799
 21
102.675179980932
 31
0.0
 73
     2
  0
TEXT
  5
   340
  8
0
  6
CONTINUOUS
 62
     7
 10
-674.078832148265
 20
101.175180039507
 30
0.0
 40
2.99999994291904
  1
 - CORSA DI SEZIONAMENTO
 50
359.999999948034
 41
0.933333333333333
 72
     1
 11
-640.778832780511
 21
102.675179980932
 31
0.0
 73
     2
  0
LINE
  5
   341
  8
0
  6
CONTINUOUS
 62
     7
 10
-656.53751280427
 20
52.9423911303438
 30
0.0
 11
-656.53751280427
 21
102.175180009473
 31
0.0
  0
LINE
  5
   342
  8
0
  6
CONTINUOUS
 62
     7
 10
-669.462512771487
 20
39.7824772232925
 30
0.0
 11
-669.462512771487
 21
102.175180009473
 31
0.0
  0
LINE
  5
   343
  8
0
  6
CONTINUOUS
 62
     7
 10
-607.47883341411
 20
100.175180009473
 30
0.0
 11
-685.228831957147
 21
100.175180009473
 31
0.0
  0
LINE
  5
   344
  8
0
  6
CONTINUOUS
 62
     7
 10
-653.583089527063
 20
100.696124439424
 30
0.0
 11
-656.53751280427
 21
100.175180009473
 31
0.0
  0
LINE
  5
   345
  8
0
  6
CONTINUOUS
 62
     7
 10
-656.53751280427
 20
100.175180009473
 30
0.0
 11
-653.583089527063
 21
99.6542355795209
 31
0.0
  0
LINE
  5
   346
  8
0
  6
CONTINUOUS
 62
     7
 10
-672.416936048694
 20
99.6542355795209
 30
0.0
 11
-669.462512771487
 21
100.175180009473
 31
0.0
  0
LINE
  5
   347
  8
0
  6
CONTINUOUS
 62
     7
 10
-669.462512771487
 20
100.175180009473
 30
0.0
 11
-672.416936048694
 21
100.696124439424
 31
0.0
  0
ENDBLK
  5
   348
  8
0
  6
CONTINUOUS
 62
     7
  0
BLOCK
  5
   349
  8
0
  6
CONTINUOUS
 62
     7
  2
*UDIM487
 70
    65
 10
0.0
 20
0.0
 30
0.0
  3
*UDIM487
  0
TEXT
  5
   34A
  8
0
  6
CONTINUOUS
 62
     7
 10
-599.727102686991
 20
-27.0928817560542
 30
0.0
 40
2.99999994291904
  1
91,5
 50
359.999999948034
 41
0.933333333333333
 72
     1
 11
-594.427102786481
 21
-25.592881789375
 31
0.0
 73
     2
  0
LINE
  5
   34B
  8
0
  6
CONTINUOUS
 62
     7
 10
-607.657514721155
 20
-47.6375153833474
 30
0.0
 11
-607.657514721155
 21
-26.0928817608345
 31
0.0
  0
LINE
  5
   34C
  8
0
  6
CONTINUOUS
 62
     7
 10
-564.652514830232
 20
-28.0928817608345
 30
0.0
 11
-607.657514721155
 21
-28.0928817608345
 31
0.0
  0
LINE
  5
   34D
  8
0
  6
CONTINUOUS
 62
     7
 10
-567.606938107439
 20
-28.6138261907862
 30
0.0
 11
-564.652514830232
 21
-28.0928817608345
 31
0.0
  0
LINE
  5
   34E
  8
0
  6
CONTINUOUS
 62
     7
 10
-564.652514830232
 20
-28.0928817608345
 30
0.0
 11
-567.606938107439
 21
-27.5719373308829
 31
0.0
  0
LINE
  5
   34F
  8
0
  6
CONTINUOUS
 62
     7
 10
-604.703091443948
 20
-27.5719373308829
 30
0.0
 11
-607.657514721155
 21
-28.0928817608345
 31
0.0
  0
LINE
  5
   350
  8
0
  6
CONTINUOUS
 62
     7
 10
-607.657514721155
 20
-28.0928817608345
 30
0.0
 11
-604.703091443948
 21
-28.6138261907862
 31
0.0
  0
ENDBLK
  5
   351
  8
0
  6
CONTINUOUS
 62
     7
  0
BLOCK
  5
   352
  8
0
  6
CONTINUOUS
 62
     7
  2
*UDIM488
 70
    65
 10
0.0
 20
0.0
 30
0.0
  3
*UDIM488
  0
TEXT
  5
   353
  8
0
  6
CONTINUOUS
 62
     7
 10
-541.631194704261
 20
9.10995571131266
 30
0.0
 40
2.99999994291904
  1
305
 50
89.9999999480344
 41
0.933333333333333
 72
     1
 11
-543.131194672188
 21
13.009955638466
 31
0.0
 73
     2
  0
LINE
  5
   354
  8
0
  6
CONTINUOUS
 62
     7
 10
-573.246526834875
 20
-58.3900153586114
 30
0.0
 11
-538.631194700729
 21
-58.3900153586114
 31
0.0
  0
LINE
  5
   355
  8
0
  6
CONTINUOUS
 62
     7
 10
-573.246526834875
 20
84.9599269047535
 30
0.0
 11
-538.631194700729
 21
84.9599269047535
 31
0.0
  0
LINE
  5
   356
  8
0
  6
CONTINUOUS
 62
     7
 10
-540.631194700729
 20
-58.3900153586114
 30
0.0
 11
-540.631194700729
 21
84.9599269047535
 31
0.0
  0
LINE
  5
   357
  8
0
  6
CONTINUOUS
 62
     7
 10
-541.152139130681
 20
-55.4355920814045
 30
0.0
 11
-540.631194700729
 21
-58.3900153586114
 31
0.0
  0
LINE
  5
   358
  8
0
  6
CONTINUOUS
 62
     7
 10
-540.631194700729
 20
-58.3900153586114
 30
0.0
 11
-540.110250270777
 21
-55.4355920814045
 31
0.0
  0
LINE
  5
   359
  8
0
  6
CONTINUOUS
 62
     7
 10
-540.110250270777
 20
82.0055036275465
 30
0.0
 11
-540.631194700729
 21
84.9599269047535
 31
0.0
  0
LINE
  5
   35A
  8
0
  6
CONTINUOUS
 62
     7
 10
-540.631194700729
 20
84.9599269047535
 30
0.0
 11
-541.152139130681
 21
82.0055036275465
 31
0.0
  0
ENDBLK
  5
   35B
  8
0
  6
CONTINUOUS
 62
     7
  0
BLOCK
  5
   35C
  8
0
  6
CONTINUOUS
 62
     7
  2
*UDIM489
 70
    65
 10
0.0
 20
0.0
 30
0.0
  3
*UDIM489
  0
TEXT
  5
   35D
  8
0
  6
CONTINUOUS
 62
     7
 10
-549.832528305428
 20
41.1586983875841
 30
0.0
 40
2.99999994291904
  1
150,75
 50
89.9999999480344
 41
0.933333333333333
 72
     1
 11
-551.332528269551
 21
49.2586982348241
 31
0.0
 73
     2
  0
LINE
  5
   35E
  8
0
  6
CONTINUOUS
 62
     7
 10
-573.246526834875
 20
84.9599269047535
 30
0.0
 11
-546.832528298091
 21
84.9599269047535
 31
0.0
  0
LINE
  5
   35F
  8
0
  6
CONTINUOUS
 62
     7
 10
-548.832528298091
 20
14.1074772858774
 30
0.0
 11
-548.832528298091
 21
84.9599269047535
 31
0.0
  0
LINE
  5
   360
  8
0
  6
CONTINUOUS
 62
     7
 10
-549.353472728043
 20
17.0619005630844
 30
0.0
 11
-548.832528298091
 21
14.1074772858774
 31
0.0
  0
LINE
  5
   361
  8
0
  6
CONTINUOUS
 62
     7
 10
-548.832528298091
 20
14.1074772858774
 30
0.0
 11
-548.31158386814
 21
17.0619005630844
 31
0.0
  0
LINE
  5
   362
  8
0
  6
CONTINUOUS
 62
     7
 10
-548.31158386814
 20
82.0055036275465
 30
0.0
 11
-548.832528298091
 21
84.9599269047535
 31
0.0
  0
LINE
  5
   363
  8
0
  6
CONTINUOUS
 62
     7
 10
-548.832528298091
 20
84.9599269047535
 30
0.0
 11
-549.353472728043
 21
82.0055036275465
 31
0.0
  0
ENDBLK
  5
   364
  8
0
  6
CONTINUOUS
 62
     7
  0
BLOCK
  5
   365
  8
0
  6
CONTINUOUS
 62
     7
  2
*UDIM490
 70
    65
 10
0.0
 20
0.0
 30
0.0
  3
*UDIM490
  0
TEXT
  5
   366
  8
0
  6
CONTINUOUS
 62
     7
 10
-555.654305474238
 20
108.009830261684
 30
0.0
 40
2.99999994291904
  1
3
 50
359.999999948034
 41
0.933333333333333
 72
     1
 11
-554.554305493814
 21
109.509830232152
 31
0.0
 73
     2
  0
TEXT
  5
   367
  8
0
  6
CONTINUOUS
 62
     7
 10
-558.404305444299
 20
108.009830261684
 30
0.0
 40
2.99999994291904
  1
_
 50
359.999999948034
 41
0.933333333333333
 72
     1
 11
-557.304305463876
 21
109.509830232152
 31
0.0
 73
     2
  0
LINE
  5
   368
  8
0
  6
CONTINUOUS
 62
     7
 10
-563.242514833808
 20
104.004896648826
 30
0.0
 11
-563.242514833808
 21
109.009830260692
 31
0.0
  0
LINE
  5
   369
  8
0
  6
CONTINUOUS
 62
     7
 10
-564.652514830232
 20
104.033672158958
 30
0.0
 11
-564.652514830232
 21
109.009830260692
 31
0.0
  0
LINE
  5
   36A
  8
0
  6
CONTINUOUS
 62
     7
 10
-553.454305514744
 20
107.009830260692
 30
0.0
 11
-564.652514830232
 21
107.009830260692
 31
0.0
  0
LINE
  5
   36B
  8
0
  6
CONTINUOUS
 62
     7
 10
-560.288091556601
 20
107.530774690644
 30
0.0
 11
-563.242514833808
 21
107.009830260692
 31
0.0
  0
LINE
  5
   36C
  8
0
  6
CONTINUOUS
 62
     7
 10
-563.242514833808
 20
107.009830260692
 30
0.0
 11
-560.288091556601
 21
106.48888583074
 31
0.0
  0
LINE
  5
   36D
  8
0
  6
CONTINUOUS
 62
     7
 10
-567.606938107439
 20
106.48888583074
 30
0.0
 11
-564.652514830232
 21
107.009830260692
 31
0.0
  0
LINE
  5
   36E
  8
0
  6
CONTINUOUS
 62
     7
 10
-564.652514830232
 20
107.009830260692
 30
0.0
 11
-567.606938107439
 21
107.530774690644
 31
0.0
  0
ENDBLK
  5
   36F
  8
0
  6
CONTINUOUS
 62
     7
  0
BLOCK
  5
   370
  8
0
  6
CONTINUOUS
 62
     7
  2
*UDIM491
 70
    65
 10
0.0
 20
0.0
 30
0.0
  3
*UDIM491
  0
TEXT
  5
   371
  8
0
  6
CONTINUOUS
 62
     7
 10
-576.122512459335
 20
108.009830262947
 30
0.0
 40
2.99999994291904
  1
37
 50
359.999999948034
 41
0.933333333333333
 72
     1
 11
-573.622512505549
 21
109.509830232152
 31
0.0
 73
     2
  0
LINE
  5
   372
  8
0
  6
CONTINUOUS
 62
     7
 10
-582.042514786124
 20
93.47992688568
 30
0.0
 11
-582.042514786124
 21
109.009830260692
 31
0.0
  0
LINE
  5
   373
  8
0
  6
CONTINUOUS
 62
     7
 10
-564.652514830232
 20
107.009830260692
 30
0.0
 11
-582.042514786124
 21
107.009830260692
 31
0.0
  0
LINE
  5
   374
  8
0
  6
CONTINUOUS
 62
     7
 10
-567.606938107439
 20
106.48888583074
 30
0.0
 11
-564.652514830232
 21
107.009830260692
 31
0.0
  0
LINE
  5
   375
  8
0
  6
CONTINUOUS
 62
     7
 10
-564.652514830232
 20
107.009830260692
 30
0.0
 11
-567.606938107439
 21
107.530774690644
 31
0.0
  0
LINE
  5
   376
  8
0
  6
CONTINUOUS
 62
     7
 10
-579.088091508917
 20
107.530774690644
 30
0.0
 11
-582.042514786124
 21
107.009830260692
 31
0.0
  0
LINE
  5
   377
  8
0
  6
CONTINUOUS
 62
     7
 10
-582.042514786124
 20
107.009830260692
 30
0.0
 11
-579.088091508917
 21
106.48888583074
 31
0.0
  0
ENDBLK
  5
   378
  8
0
  6
CONTINUOUS
 62
     7
  0
BLOCK
  5
   379
  8
0
  6
CONTINUOUS
 62
     7
  2
*UDIM492
 70
    65
 10
0.0
 20
0.0
 30
0.0
  3
*UDIM492
  0
TEXT
  5
   37A
  8
0
  6
CONTINUOUS
 62
     7
 10
-607.817091256514
 20
108.009830266735
 30
0.0
 40
2.99999994291904
  1
24x24
 50
359.999999948034
 41
0.933333333333333
 72
     1
 11
-601.117091382642
 21
109.509830232152
 31
0.0
 73
     2
  0
LINE
  5
   37B
  8
0
  6
CONTINUOUS
 62
     7
 10
-590.267514765263
 20
93.47992688568
 30
0.0
 11
-590.267514765263
 21
109.009830260692
 31
0.0
  0
LINE
  5
   37C
  8
0
  6
CONTINUOUS
 62
     7
 10
-582.042514786124
 20
107.009830260692
 30
0.0
 11
-607.817091255161
 21
107.009830260692
 31
0.0
  0
LINE
  5
   37D
  8
0
  6
CONTINUOUS
 62
     7
 10
-584.996938063331
 20
106.48888583074
 30
0.0
 11
-582.042514786124
 21
107.009830260692
 31
0.0
  0
LINE
  5
   37E
  8
0
  6
CONTINUOUS
 62
     7
 10
-582.042514786124
 20
107.009830260692
 30
0.0
 11
-584.996938063331
 21
107.530774690644
 31
0.0
  0
LINE
  5
   37F
  8
0
  6
CONTINUOUS
 62
     7
 10
-587.313091488056
 20
107.530774690644
 30
0.0
 11
-590.267514765263
 21
107.009830260692
 31
0.0
  0
LINE
  5
   380
  8
0
  6
CONTINUOUS
 62
     7
 10
-590.267514765263
 20
107.009830260692
 30
0.0
 11
-587.313091488056
 21
106.48888583074
 31
0.0
  0
ENDBLK
  5
   381
  8
0
  6
CONTINUOUS
 62
     7
  0
BLOCK
  5
   382
  8
0
  6
CONTINUOUS
 62
     7
  2
*UDIM493
 70
    65
 10
0.0
 20
0.0
 30
0.0
  3
*UDIM493
  0
TEXT
  5
   383
  8
0
  6
CONTINUOUS
 62
     7
 10
-617.570016010834
 20
-90.924604195735
 30
0.0
 40
2.99999994291904
  1
195,5
 50
359.999999948034
 41
0.933333333333333
 72
     1
 11
-610.870016136962
 21
-89.4246042303185
 31
0.0
 73
     2
  0
LINE
  5
   384
  8
0
  6
CONTINUOUS
 62
     7
 10
-564.652514830232
 20
-76.013649929302
 30
0.0
 11
-564.652514830232
 21
-93.924604201778
 31
0.0
  0
LINE
  5
   385
  8
0
  6
CONTINUOUS
 62
     7
 10
-656.53751280427
 20
-24.7276113670908
 30
0.0
 11
-656.53751280427
 21
-93.924604201778
 31
0.0
  0
LINE
  5
   386
  8
0
  6
CONTINUOUS
 62
     7
 10
-564.652514830232
 20
-91.924604201778
 30
0.0
 11
-656.53751280427
 21
-91.924604201778
 31
0.0
  0
LINE
  5
   387
  8
0
  6
CONTINUOUS
 62
     7
 10
-567.606938107439
 20
-92.4455486317297
 30
0.0
 11
-564.652514830232
 21
-91.924604201778
 31
0.0
  0
LINE
  5
   388
  8
0
  6
CONTINUOUS
 62
     7
 10
-564.652514830232
 20
-91.924604201778
 30
0.0
 11
-567.606938107439
 21
-91.4036597718264
 31
0.0
  0
LINE
  5
   389
  8
0
  6
CONTINUOUS
 62
     7
 10
-653.583089527063
 20
-91.4036597718264
 30
0.0
 11
-656.53751280427
 21
-91.924604201778
 31
0.0
  0
LINE
  5
   38A
  8
0
  6
CONTINUOUS
 62
     7
 10
-656.53751280427
 20
-91.924604201778
 30
0.0
 11
-653.583089527063
 21
-92.4455486317297
 31
0.0
  0
ENDBLK
  5
   38B
  8
0
  6
CONTINUOUS
 62
     7
  0
BLOCK
  5
   38C
  8
0
  6
CONTINUOUS
 62
     7
  2
*UDIM494
 70
    65
 10
0.0
 20
0.0
 30
0.0
  3
*UDIM494
  0
TEXT
  5
   38D
  8
0
  6
CONTINUOUS
 62
     7
 10
-613.477514778736
 20
-84.2566692633906
 30
0.0
 40
2.99999994291904
  1
190
 50
359.999999948034
 41
0.933333333333333
 72
     1
 11
-609.577514851588
 21
-82.7566692954486
 31
0.0
 73
     2
  0
LINE
  5
   38E
  8
0
  6
CONTINUOUS
 62
     7
 10
-564.652514830232
 20
-76.013649929302
 30
0.0
 11
-564.652514830232
 21
-87.2566692669082
 31
0.0
  0
LINE
  5
   38F
  8
0
  6
CONTINUOUS
 62
     7
 10
-653.952514603734
 20
-56.6729054232071
 30
0.0
 11
-653.952514603734
 21
-87.2566692669082
 31
0.0
  0
LINE
  5
   390
  8
0
  6
CONTINUOUS
 62
     7
 10
-564.652514830232
 20
-85.2566692669082
 30
0.0
 11
-653.952514603734
 21
-85.2566692669082
 31
0.0
  0
LINE
  5
   391
  8
0
  6
CONTINUOUS
 62
     7
 10
-567.606938107439
 20
-85.7776136968598
 30
0.0
 11
-564.652514830232
 21
-85.2566692669082
 31
0.0
  0
LINE
  5
   392
  8
0
  6
CONTINUOUS
 62
     7
 10
-564.652514830232
 20
-85.2566692669082
 30
0.0
 11
-567.606938107439
 21
-84.7357248369565
 31
0.0
  0
LINE
  5
   393
  8
0
  6
CONTINUOUS
 62
     7
 10
-650.998091326527
 20
-84.7357248369565
 30
0.0
 11
-653.952514603734
 21
-85.2566692669082
 31
0.0
  0
LINE
  5
   394
  8
0
  6
CONTINUOUS
 62
     7
 10
-653.952514603734
 20
-85.2566692669082
 30
0.0
 11
-650.998091326527
 21
-85.7776136968598
 31
0.0
  0
ENDBLK
  5
   395
  8
0
  6
CONTINUOUS
 62
     7
  0
BLOCK
  5
   396
  8
0
  6
CONTINUOUS
 62
     7
  2
*UDIM495
 70
    65
 10
0.0
 20
0.0
 30
0.0
  3
*UDIM495
  0
TEXT
  5
   397
  8
0
  6
CONTINUOUS
 62
     7
 10
-660.642513063174
 20
-84.256669265916
 30
0.0
 40
2.99999994291904
  1
2
 50
359.999999948034
 41
0.933333333333333
 72
     1
 11
-659.54251308275
 21
-82.7566692954486
 31
0.0
 73
     2
  0
LINE
  5
   398
  8
0
  6
CONTINUOUS
 62
     7
 10
-654.89251460135
 20
-56.8313323890974
 30
0.0
 11
-654.89251460135
 21
-87.2566692669082
 31
0.0
  0
LINE
  5
   399
  8
0
  6
CONTINUOUS
 62
     7
 10
-653.952514603734
 20
-85.2566692669082
 30
0.0
 11
-660.642513061821
 21
-85.2566692669082
 31
0.0
  0
LINE
  5
   39A
  8
0
  6
CONTINUOUS
 62
     7
 10
-650.998091326527
 20
-84.7357248369565
 30
0.0
 11
-653.952514603734
 21
-85.2566692669082
 31
0.0
  0
LINE
  5
   39B
  8
0
  6
CONTINUOUS
 62
     7
 10
-653.952514603734
 20
-85.2566692669082
 30
0.0
 11
-650.998091326527
 21
-85.7776136968598
 31
0.0
  0
LINE
  5
   39C
  8
0
  6
CONTINUOUS
 62
     7
 10
-657.846937878557
 20
-85.7776136968598
 30
0.0
 11
-654.89251460135
 21
-85.2566692669082
 31
0.0
  0
LINE
  5
   39D
  8
0
  6
CONTINUOUS
 62
     7
 10
-654.89251460135
 20
-85.2566692669082
 30
0.0
 11
-657.846937878557
 21
-84.7357248369565
 31
0.0
  0
ENDBLK
  5
   39E
  8
0
  6
CONTINUOUS
 62
     7
  0
BLOCK
  5
   39F
  8
0
  6
CONTINUOUS
 62
     7
  2
*UDIM496
 70
    65
 10
0.0
 20
0.0
 30
0.0
  3
*UDIM496
  0
TEXT
  5
   3A0
  8
0
  6
CONTINUOUS
 62
     7
 10
-608.072529142161
 20
-77.7248160237322
 30
0.0
 40
2.99999994291904
  1
167
 50
359.999999948034
 41
0.933333333333333
 72
     1
 11
-604.172529215014
 21
-76.2248160557902
 31
0.0
 73
     2
  0
LINE
  5
   3A1
  8
0
  6
CONTINUOUS
 62
     7
 10
-564.652514830232
 20
-76.013649929302
 30
0.0
 11
-564.652514830232
 21
-80.7248160272498
 31
0.0
  0
LINE
  5
   3A2
  8
0
  6
CONTINUOUS
 62
     7
 10
-643.142546412146
 20
7.11493032860568
 30
0.0
 11
-643.142546412146
 21
-80.7248160272498
 31
0.0
  0
LINE
  5
   3A3
  8
0
  6
CONTINUOUS
 62
     7
 10
-564.652514830232
 20
-78.7248160272497
 30
0.0
 11
-643.142546412146
 21
-78.7248160272497
 31
0.0
  0
LINE
  5
   3A4
  8
0
  6
CONTINUOUS
 62
     7
 10
-567.606938107439
 20
-79.2457604572014
 30
0.0
 11
-564.652514830232
 21
-78.7248160272497
 31
0.0
  0
LINE
  5
   3A5
  8
0
  6
CONTINUOUS
 62
     7
 10
-564.652514830232
 20
-78.7248160272497
 30
0.0
 11
-567.606938107439
 21
-78.2038715972981
 31
0.0
  0
LINE
  5
   3A6
  8
0
  6
CONTINUOUS
 62
     7
 10
-640.188123134939
 20
-78.2038715972981
 30
0.0
 11
-643.142546412146
 21
-78.7248160272497
 31
0.0
  0
LINE
  5
   3A7
  8
0
  6
CONTINUOUS
 62
     7
 10
-643.142546412146
 20
-78.7248160272497
 30
0.0
 11
-640.188123134939
 21
-79.2457604572014
 31
0.0
  0
ENDBLK
  5
   3A8
  8
0
  6
CONTINUOUS
 62
     7
  0
BLOCK
  5
   3A9
  8
0
  6
CONTINUOUS
 62
     7
  2
*UDIM497
 70
    65
 10
0.0
 20
0.0
 30
0.0
  3
*UDIM497
  0
TEXT
  5
   3AA
  8
0
  6
CONTINUOUS
 62
     7
 10
-678.543877538763
 20
9.93246288085734
 30
0.0
 40
2.99999994291904
  1
105
 50
89.9999999480344
 41
0.933333333333333
 72
     1
 11
-680.04387750669
 21
13.8324628080107
 31
0.0
 73
     2
  0
LINE
  5
   3AB
  8
0
  6
CONTINUOUS
 62
     7
 10
-654.952512810826
 20
-10.567545959338
 30
0.0
 11
-679.543877535231
 21
-10.567545959338
 31
0.0
  0
LINE
  5
   3AC
  8
0
  6
CONTINUOUS
 62
     7
 10
-654.952512810826
 20
38.7824772232925
 30
0.0
 11
-679.543877535231
 21
38.7824772232925
 31
0.0
  0
LINE
  5
   3AD
  8
0
  6
CONTINUOUS
 62
     7
 10
-677.543877535231
 20
-10.567545959338
 30
0.0
 11
-677.543877535231
 21
38.7824772232925
 31
0.0
  0
LINE
  5
   3AE
  8
0
  6
CONTINUOUS
 62
     7
 10
-678.064821965182
 20
-7.613122682131
 30
0.0
 11
-677.543877535231
 21
-10.567545959338
 31
0.0
  0
LINE
  5
   3AF
  8
0
  6
CONTINUOUS
 62
     7
 10
-677.543877535231
 20
-10.567545959338
 30
0.0
 11
-677.022933105279
 21
-7.613122682131
 31
0.0
  0
LINE
  5
   3B0
  8
0
  6
CONTINUOUS
 62
     7
 10
-677.022933105279
 20
35.8280539460855
 30
0.0
 11
-677.543877535231
 21
38.7824772232925
 31
0.0
  0
LINE
  5
   3B1
  8
0
  6
CONTINUOUS
 62
     7
 10
-677.543877535231
 20
38.7824772232925
 30
0.0
 11
-678.064821965182
 21
35.8280539460855
 31
0.0
  0
ENDBLK
  5
   3B2
  8
0
  6
CONTINUOUS
 62
     7
  0
BLOCK
  5
   3B3
  8
0
  6
CONTINUOUS
 62
     7
  2
*UDIM498
 70
    65
 10
0.0
 20
0.0
 30
0.0
  3
*UDIM498
  0
TEXT
  5
   3B4
  8
0
  6
CONTINUOUS
 62
     7
 10
-609.716511801211
 20
-1.50181315552617
 30
0.0
 40
2.99999994291904
  1
1,75
 50
89.9999999480344
 41
0.933333333333333
 72
     1
 11
-611.216511767871
 21
3.79818674498937
 31
0.0
 73
     2
  0
LINE
  5
   3B5
  8
0
  6
CONTINUOUS
 62
     7
 10
-636.972550427864
 20
13.2849263128879
 30
0.0
 11
-606.716511796411
 21
13.2849263128879
 31
0.0
  0
LINE
  5
   3B6
  8
0
  6
CONTINUOUS
 62
     7
 10
-608.716511796411
 20
-1.5018131541676
 30
0.0
 11
-608.716511796411
 21
14.1074772858774
 31
0.0
  0
LINE
  5
   3B7
  8
0
  6
CONTINUOUS
 62
     7
 10
-608.195567366459
 20
10.330503035681
 30
0.0
 11
-608.716511796411
 21
13.2849263128879
 31
0.0
  0
LINE
  5
   3B8
  8
0
  6
CONTINUOUS
 62
     7
 10
-608.716511796411
 20
13.2849263128879
 30
0.0
 11
-609.237456226363
 21
10.330503035681
 31
0.0
  0
LINE
  5
   3B9
  8
0
  6
CONTINUOUS
 62
     7
 10
-609.237456226363
 20
17.0619005630844
 30
0.0
 11
-608.716511796411
 21
14.1074772858774
 31
0.0
  0
LINE
  5
   3BA
  8
0
  6
CONTINUOUS
 62
     7
 10
-608.716511796411
 20
14.1074772858774
 30
0.0
 11
-608.195567366459
 21
17.0619005630844
 31
0.0
  0
ENDBLK
  5
   3BB
  8
0
  6
CONTINUOUS
 62
     7
  0
BLOCK
  5
   3BC
  8
0
  6
CONTINUOUS
 62
     7
  2
*UDIM499
 70
    65
 10
0.0
 20
0.0
 30
0.0
  3
*UDIM499
  0
TEXT
  5
   3BD
  8
0
  6
CONTINUOUS
 62
     7
 10
-313.648649212981
 20
96.5074528834817
 30
0.0
 40
3.00000002980232
  1
8
 50
406.249477420785
 41
0.933333333333334
 72
     1
 11
-313.971514089927
 21
98.3393257884559
 31
0.0
 73
     2
  0
TEXT
  5
   3BE
  8
0
  6
CONTINUOUS
 62
     7
 10
-315.826936093011
 20
94.2320262573578
 30
0.0
 40
3.00000002980232
  1
Ø
 50
406.249477420785
 41
0.933333333333334
 72
     1
 11
-316.149800969957
 21
96.063899162332
 31
0.0
 73
     2
  0
TEXT
  5
   3BF
  8
0
  6
CONTINUOUS
 62
     7
 10
-327.409890234348
 20
82.132535394091
 30
0.0
 40
3.00000002980232
  1
3 fori
 50
406.249477420785
 41
0.933333333333333
 72
     1
 11
-322.892117553565
 21
89.0209119338155
 31
0.0
 73
     2
  0
LINE
  5
   3C0
  8
0
  6
CONTINUOUS
 62
     7
 10
-311.404948323084
 20
97.4051201028518
 30
0.0
 11
-335.87190904657
 21
71.8470660187282
 31
0.0
  0
LINE
  5
   3C1
  8
0
  6
CONTINUOUS
 62
     7
 10
-332.822136231994
 20
75.7861749139351
 30
0.0
 11
-334.488869762024
 21
73.291781332346
 31
0.0
  0
LINE
  5
   3C2
  8
0
  6
CONTINUOUS
 62
     7
 10
-334.488869762024
 20
73.291781332346
 30
0.0
 11
-332.069519836498
 21
75.0656883022464
 31
0.0
  0
LINE
  5
   3C3
  8
0
  6
CONTINUOUS
 62
     7
 10
-337.5386425766
 20
69.3526724371391
 30
0.0
 11
-335.87190904657
 21
71.8470660187282
 31
0.0
  0
LINE
  5
   3C4
  8
0
  6
CONTINUOUS
 62
     7
 10
-335.87190904657
 20
71.8470660187282
 30
0.0
 11
-338.291258972095
 21
70.0731590488279
 31
0.0
  0
ENDBLK
  5
   3C5
  8
0
  6
CONTINUOUS
 62
     7
  0
BLOCK
  5
   3C6
  8
0
  6
CONTINUOUS
 62
     7
  2
*UDIM500
 70
    65
 10
0.0
 20
0.0
 30
0.0
  3
*UDIM500
  0
TEXT
  5
   3C7
  8
0
  6
CONTINUOUS
 62
     7
 10
-379.464012013431
 20
83.8296843387505
 30
0.0
 40
3.00000002980232
  1
7
 50
322.503336344405
 41
0.933333333333334
 72
     1
 11
-377.67821148344
 21
84.3501807708506
 31
0.0
 73
     2
  0
TEXT
  5
   3C8
  8
0
  6
CONTINUOUS
 62
     7
 10
-382.63756719201
 20
86.264545272547
 30
0.0
 40
3.00000002980232
  1
Ø
 50
322.503336344405
 41
1.2
 72
     1
 11
-380.534411143969
 21
86.5415556098869
 31
0.0
 73
     2
  0
LINE
  5
   3C9
  8
0
  6
CONTINUOUS
 62
     7
 10
-383.246282419956
 20
85.4711564779349
 30
0.0
 11
-361.769230269515
 21
68.9932217069344
 31
0.0
  0
LINE
  5
   3CA
  8
0
  6
CONTINUOUS
 62
     7
 10
-369.896310050097
 20
74.2499383750075
 30
0.0
 11
-367.124604594584
 21
73.1020495006482
 31
0.0
  0
LINE
  5
   3CB
  8
0
  6
CONTINUOUS
 62
     7
 10
-367.124604594584
 20
73.1020495006482
 30
0.0
 11
-368.951027459009
 21
75.4820031809333
 31
0.0
  0
LINE
  5
   3CC
  8
0
  6
CONTINUOUS
 62
     7
 10
-362.964468758497
 20
70.8889089760667
 30
0.0
 11
-365.73617421401
 21
72.0367978504261
 31
0.0
  0
LINE
  5
   3CD
  8
0
  6
CONTINUOUS
 62
     7
 10
-365.73617421401
 20
72.0367978504261
 30
0.0
 11
-363.909751349584
 21
69.6568441701409
 31
0.0
  0
ENDBLK
  5
   3CE
  8
0
  6
CONTINUOUS
 62
     7
  0
BLOCK
  5
   3CF
  8
0
  6
CONTINUOUS
 62
     7
  2
*UDIM501
 70
    65
 10
0.0
 20
0.0
 30
0.0
  3
*UDIM501
  0
TEXT
  5
   3D0
  8
0
  6
CONTINUOUS
 62
     7
 10
-322.425331281371
 20
23.9272886109688
 30
0.0
 40
3.00000002980232
  1
7
 50
311.013623575892
 41
0.933333333333334
 72
     1
 11
-320.571638608805
 21
24.0816373862076
 31
0.0
 73
     2
  0
TEXT
  5
   3D1
  8
0
  6
CONTINUOUS
 62
     7
 10
-325.050285158163
 20
26.9455028815488
 30
0.0
 40
3.00000002980232
  1
Ø
 50
311.013623575892
 41
1.2
 72
     1
 11
-322.934097098004
 21
26.7980302283382
 31
0.0
 73
     2
  0
LINE
  5
   3D2
  8
0
  6
CONTINUOUS
 62
     7
 10
-339.035790383315
 20
41.5024258513756
 30
0.0
 11
-321.736160206525
 21
21.61103228887
 31
0.0
  0
LINE
  5
   3D3
  8
0
  6
CONTINUOUS
 62
     7
 10
-338.242109613264
 20
39.4066453039073
 30
0.0
 11
-335.754598060746
 21
37.7296580421513
 31
0.0
  0
LINE
  5
   3D4
  8
0
  6
CONTINUOUS
 62
     7
 10
-335.754598060746
 20
37.7296580421513
 30
0.0
 11
-337.070352587273
 21
40.4257274080848
 31
0.0
  0
LINE
  5
   3D5
  8
0
  6
CONTINUOUS
 62
     7
 10
-332.11866919533
 20
34.7322020471669
 30
0.0
 11
-334.606180747847
 21
36.4091893089229
 31
0.0
  0
LINE
  5
   3D6
  8
0
  6
CONTINUOUS
 62
     7
 10
-334.606180747847
 20
36.4091893089229
 30
0.0
 11
-333.290426221321
 21
33.7131199429894
 31
0.0
  0
ENDBLK
  5
   3D7
  8
0
  6
CONTINUOUS
 62
     7
  0
BLOCK
  5
   3D8
  8
0
  6
CONTINUOUS
 62
     7
  2
*UDIM502
 70
    65
 10
0.0
 20
0.0
 30
0.0
  3
*UDIM502
  0
TEXT
  5
   3D9
  8
0
  6
CONTINUOUS
 62
     7
 10
-352.523656448976
 20
16.5208397245675
 30
0.0
 40
3.00000002980232
  1
R min.200
 50
359.999999844103
 41
0.933333333333333
 72
     1
 11
-340.223656322713
 21
18.0208397060633
 31
0.0
 73
     2
  0
LINE
  5
   3DA
  8
0
  6
CONTINUOUS
 62
     7
 10
-355.430389404297
 20
30.6742423579857
 30
0.0
 11
-355.430389404297
 21
13.5208396911621
 31
0.0
  0
LINE
  5
   3DB
  8
0
  6
CONTINUOUS
 62
     7
 10
-325.710638336649
 20
21.3860013864571
 30
0.0
 11
-325.710638336649
 21
13.5208396911621
 31
0.0
  0
LINE
  5
   3DC
  8
0
  6
CONTINUOUS
 62
     7
 10
-355.430389404297
 20
15.5208396911621
 30
0.0
 11
-325.710638336649
 21
15.5208396911621
 31
0.0
  0
LINE
  5
   3DD
  8
0
  6
CONTINUOUS
 62
     7
 10
-358.384812681504
 20
14.9998952612104
 30
0.0
 11
-355.430389404297
 21
15.5208396911621
 31
0.0
  0
LINE
  5
   3DE
  8
0
  6
CONTINUOUS
 62
     7
 10
-355.430389404297
 20
15.5208396911621
 30
0.0
 11
-358.384812681504
 21
16.0417841211138
 31
0.0
  0
LINE
  5
   3DF
  8
0
  6
CONTINUOUS
 62
     7
 10
-322.756215059442
 20
16.0417841211138
 30
0.0
 11
-325.710638336649
 21
15.5208396911621
 31
0.0
  0
LINE
  5
   3E0
  8
0
  6
CONTINUOUS
 62
     7
 10
-325.710638336649
 20
15.5208396911621
 30
0.0
 11
-322.756215059442
 21
14.9998952612104
 31
0.0
  0
ENDBLK
  5
   3E1
  8
0
  6
CONTINUOUS
 62
     7
  0
BLOCK
  5
   3E2
  8
0
  6
CONTINUOUS
 62
     7
  2
*UDIM503
 70
    65
 10
0.0
 20
0.0
 30
0.0
  3
*UDIM503
  0
TEXT
  5
   3E3
  8
0
  6
CONTINUOUS
 62
     7
 10
-392.970310225569
 20
58.3069236128539
 30
0.0
 40
3.00000002980232
  1
72,5
 50
449.999999844103
 41
0.933333333333333
 72
     1
 11
-394.470310226083
 21
63.6069236695766
 31
0.0
 73
     2
  0
LINE
  5
   3E4
  8
0
  6
CONTINUOUS
 62
     7
 10
-363.725389404297
 20
72.9444236755371
 30
0.0
 11
-393.970310211182
 21
72.9444236755371
 31
0.0
  0
LINE
  5
   3E5
  8
0
  6
CONTINUOUS
 62
     7
 10
-383.89111416744
 20
54.8194236755371
 30
0.0
 11
-393.970310211182
 21
54.8194236755371
 31
0.0
  0
LINE
  5
   3E6
  8
0
  6
CONTINUOUS
 62
     7
 10
-391.970310211182
 20
72.9444236755371
 30
0.0
 11
-391.970310211182
 21
54.8194236755371
 31
0.0
  0
LINE
  5
   3E7
  8
0
  6
CONTINUOUS
 62
     7
 10
-391.44936578123
 20
69.9900003983302
 30
0.0
 11
-391.970310211182
 21
72.9444236755371
 31
0.0
  0
LINE
  5
   3E8
  8
0
  6
CONTINUOUS
 62
     7
 10
-391.970310211182
 20
72.9444236755371
 30
0.0
 11
-392.491254641133
 21
69.9900003983302
 31
0.0
  0
LINE
  5
   3E9
  8
0
  6
CONTINUOUS
 62
     7
 10
-392.491254641133
 20
57.7738469527441
 30
0.0
 11
-391.970310211182
 21
54.8194236755371
 31
0.0
  0
LINE
  5
   3EA
  8
0
  6
CONTINUOUS
 62
     7
 10
-391.970310211182
 20
54.8194236755371
 30
0.0
 11
-391.44936578123
 21
57.7738469527441
 31
0.0
  0
ENDBLK
  5
   3EB
  8
0
  6
CONTINUOUS
 62
     7
  0
BLOCK
  5
   3EC
  8
0
  6
CONTINUOUS
 62
     7
  2
*UDIM504
 70
    65
 10
0.0
 20
0.0
 30
0.0
  3
*UDIM504
  0
TEXT
  5
   3ED
  8
0
  6
CONTINUOUS
 62
     7
 10
-345.78661921531
 20
83.6769809790798
 30
0.0
 40
3.00000002980232
  1
45
 50
359.999999844103
 41
0.933333333333333
 72
     1
 11
-343.286619186401
 21
85.1769809871912
 31
0.0
 73
     2
  0
LINE
  5
   3EE
  8
0
  6
CONTINUOUS
 62
     7
 10
-361.055389404297
 20
75.6144236755371
 30
0.0
 11
-361.055389404297
 21
84.67698097229
 31
0.0
  0
LINE
  5
   3EF
  8
0
  6
CONTINUOUS
 62
     7
 10
-349.805389404297
 20
75.6144236755371
 30
0.0
 11
-349.805389404297
 21
84.67698097229
 31
0.0
  0
LINE
  5
   3F0
  8
0
  6
CONTINUOUS
 62
     7
 10
-361.055389404297
 20
82.67698097229
 30
0.0
 11
-340.786619161566
 21
82.67698097229
 31
0.0
  0
LINE
  5
   3F1
  8
0
  6
CONTINUOUS
 62
     7
 10
-364.009812681504
 20
82.1560365423384
 30
0.0
 11
-361.055389404297
 21
82.67698097229
 31
0.0
  0
LINE
  5
   3F2
  8
0
  6
CONTINUOUS
 62
     7
 10
-361.055389404297
 20
82.67698097229
 30
0.0
 11
-364.009812681504
 21
83.1979254022417
 31
0.0
  0
LINE
  5
   3F3
  8
0
  6
CONTINUOUS
 62
     7
 10
-346.85096612709
 20
83.1979254022417
 30
0.0
 11
-349.805389404297
 21
82.67698097229
 31
0.0
  0
LINE
  5
   3F4
  8
0
  6
CONTINUOUS
 62
     7
 10
-349.805389404297
 20
82.67698097229
 30
0.0
 11
-346.85096612709
 21
82.1560365423384
 31
0.0
  0
ENDBLK
  5
   3F5
  8
0
  6
CONTINUOUS
 62
     7
  0
BLOCK
  5
   3F6
  8
0
  6
CONTINUOUS
 62
     7
  2
*UDIM505
 70
    65
 10
0.0
 20
0.0
 30
0.0
  3
*UDIM505
  0
TEXT
  5
   3F7
  8
0
  6
CONTINUOUS
 62
     7
 10
-317.555088061401
 20
57.7194239863764
 30
0.0
 40
3.00000002980232
  1
27,25
 50
449.999999844103
 41
0.933333333333333
 72
     1
 11
-319.055088058114
 21
64.4194240570068
 31
0.0
 73
     2
  0
LINE
  5
   3F8
  8
0
  6
CONTINUOUS
 62
     7
 10
-326.43766110416
 20
54.8194236755371
 30
0.0
 11
-314.555088043213
 21
54.8194236755371
 31
0.0
  0
LINE
  5
   3F9
  8
0
  6
CONTINUOUS
 62
     7
 10
-329.175083004855
 20
48.0069236755371
 30
0.0
 11
-314.555088043213
 21
48.0069236755371
 31
0.0
  0
LINE
  5
   3FA
  8
0
  6
CONTINUOUS
 62
     7
 10
-316.555088043213
 20
71.1194241235654
 30
0.0
 11
-316.555088043213
 21
48.0069236755371
 31
0.0
  0
LINE
  5
   3FB
  8
0
  6
CONTINUOUS
 62
     7
 10
-317.076032473165
 20
57.7738469527441
 30
0.0
 11
-316.555088043213
 21
54.8194236755371
 31
0.0
  0
LINE
  5
   3FC
  8
0
  6
CONTINUOUS
 62
     7
 10
-316.555088043213
 20
54.8194236755371
 30
0.0
 11
-316.034143613261
 21
57.7738469527441
 31
0.0
  0
LINE
  5
   3FD
  8
0
  6
CONTINUOUS
 62
     7
 10
-316.034143613261
 20
45.0525003983301
 30
0.0
 11
-316.555088043213
 21
48.0069236755371
 31
0.0
  0
LINE
  5
   3FE
  8
0
  6
CONTINUOUS
 62
     7
 10
-316.555088043213
 20
48.0069236755371
 30
0.0
 11
-317.076032473165
 21
45.0525003983301
 31
0.0
  0
ENDBLK
  5
   3FF
  8
0
  6
CONTINUOUS
 62
     7
  0
BLOCK
  5
   400
  8
0
  6
CONTINUOUS
 62
     7
  2
*UDIM506
 70
    65
 10
0.0
 20
0.0
 30
0.0
  3
*UDIM506
  0
TEXT
  5
   401
  8
0
  6
CONTINUOUS
 62
     7
 10
-311.72125625909
 20
63.2526893704147
 30
0.0
 40
3.00000002980232
  1
=
 50
449.999999844103
 41
0.933333333333334
 72
     1
 11
-313.221256271005
 21
64.3526893854141
 31
0.0
 73
     2
  0
LINE
  5
   402
  8
0
  6
CONTINUOUS
 62
     7
 10
-332.555389404297
 20
72.5694236755371
 30
0.0
 11
-308.721256256104
 21
72.5694236755371
 31
0.0
  0
LINE
  5
   403
  8
0
  6
CONTINUOUS
 62
     7
 10
-332.555389404297
 20
54.8194236755371
 30
0.0
 11
-308.721256256104
 21
54.8194236755371
 31
0.0
  0
LINE
  5
   404
  8
0
  6
CONTINUOUS
 62
     7
 10
-310.721256256104
 20
72.5694236755371
 30
0.0
 11
-310.721256256104
 21
54.8194236755371
 31
0.0
  0
LINE
  5
   405
  8
0
  6
CONTINUOUS
 62
     7
 10
-310.200311826152
 20
69.6150003983302
 30
0.0
 11
-310.721256256104
 21
72.5694236755371
 31
0.0
  0
LINE
  5
   406
  8
0
  6
CONTINUOUS
 62
     7
 10
-310.721256256104
 20
72.5694236755371
 30
0.0
 11
-311.242200686055
 21
69.6150003983302
 31
0.0
  0
LINE
  5
   407
  8
0
  6
CONTINUOUS
 62
     7
 10
-311.242200686055
 20
57.7738469527441
 30
0.0
 11
-310.721256256104
 21
54.8194236755371
 31
0.0
  0
LINE
  5
   408
  8
0
  6
CONTINUOUS
 62
     7
 10
-310.721256256104
 20
54.8194236755371
 30
0.0
 11
-310.200311826152
 21
57.7738469527441
 31
0.0
  0
ENDBLK
  5
   409
  8
0
  6
CONTINUOUS
 62
     7
  0
BLOCK
  5
   40A
  8
0
  6
CONTINUOUS
 62
     7
  2
*UDIM507
 70
    65
 10
0.0
 20
0.0
 30
0.0
  3
*UDIM507
  0
TEXT
  5
   40B
  8
0
  6
CONTINUOUS
 62
     7
 10
-311.72125625909
 20
45.5026893704147
 30
0.0
 40
3.00000002980232
  1
=
 50
449.999999844103
 41
0.933333333333334
 72
     1
 11
-313.221256271005
 21
46.6026893854141
 31
0.0
 73
     2
  0
LINE
  5
   40C
  8
0
  6
CONTINUOUS
 62
     7
 10
-332.555389404297
 20
37.0694236755371
 30
0.0
 11
-308.721256256104
 21
37.0694236755371
 31
0.0
  0
LINE
  5
   40D
  8
0
  6
CONTINUOUS
 62
     7
 10
-310.721256256104
 20
54.8194236755371
 30
0.0
 11
-310.721256256104
 21
37.0694236755371
 31
0.0
  0
LINE
  5
   40E
  8
0
  6
CONTINUOUS
 62
     7
 10
-310.200311826152
 20
51.8650003983301
 30
0.0
 11
-310.721256256104
 21
54.8194236755371
 31
0.0
  0
LINE
  5
   40F
  8
0
  6
CONTINUOUS
 62
     7
 10
-310.721256256104
 20
54.8194236755371
 30
0.0
 11
-311.242200686055
 21
51.8650003983301
 31
0.0
  0
LINE
  5
   410
  8
0
  6
CONTINUOUS
 62
     7
 10
-311.242200686055
 20
40.0238469527441
 30
0.0
 11
-310.721256256104
 21
37.0694236755371
 31
0.0
  0
LINE
  5
   411
  8
0
  6
CONTINUOUS
 62
     7
 10
-310.721256256104
 20
37.0694236755371
 30
0.0
 11
-310.200311826152
 21
40.0238469527441
 31
0.0
  0
ENDBLK
  5
   412
  8
0
  6
CONTINUOUS
 62
     7
  0
BLOCK
  5
   413
  8
0
  6
CONTINUOUS
 62
     7
  2
*UDIM508
 70
    65
 10
0.0
 20
0.0
 30
0.0
  3
*UDIM508
  0
TEXT
  5
   414
  8
0
  6
CONTINUOUS
 62
     7
 10
-385.573728571988
 20
50.6444236267617
 30
0.0
 40
3.00000002980232
  1
126
 50
449.999999844103
 41
0.933333333333333
 72
     1
 11
-387.073728576303
 21
54.5444236695766
 31
0.0
 73
     2
  0
LINE
  5
   415
  8
0
  6
CONTINUOUS
 62
     7
 10
-374.430389404297
 20
70.5694236755371
 30
0.0
 11
-386.573728561401
 21
70.5694236755371
 31
0.0
  0
LINE
  5
   416
  8
0
  6
CONTINUOUS
 62
     7
 10
-374.430389404297
 20
39.0694236755371
 30
0.0
 11
-386.573728561401
 21
39.0694236755371
 31
0.0
  0
LINE
  5
   417
  8
0
  6
CONTINUOUS
 62
     7
 10
-384.573728561401
 20
70.5694236755371
 30
0.0
 11
-384.573728561401
 21
39.0694236755371
 31
0.0
  0
LINE
  5
   418
  8
0
  6
CONTINUOUS
 62
     7
 10
-384.05278413145
 20
67.6150003983302
 30
0.0
 11
-384.573728561401
 21
70.5694236755371
 31
0.0
  0
LINE
  5
   419
  8
0
  6
CONTINUOUS
 62
     7
 10
-384.573728561401
 20
70.5694236755371
 30
0.0
 11
-385.094672991353
 21
67.6150003983302
 31
0.0
  0
LINE
  5
   41A
  8
0
  6
CONTINUOUS
 62
     7
 10
-385.094672991353
 20
42.0238469527441
 30
0.0
 11
-384.573728561401
 21
39.0694236755371
 31
0.0
  0
LINE
  5
   41B
  8
0
  6
CONTINUOUS
 62
     7
 10
-384.573728561401
 20
39.0694236755371
 30
0.0
 11
-384.05278413145
 21
42.0238469527441
 31
0.0
  0
ENDBLK
  5
   41C
  8
0
  6
CONTINUOUS
 62
     7
  0
BLOCK
  5
   41D
  8
0
  6
CONTINUOUS
 62
     7
  2
*UDIM509
 70
    65
 10
0.0
 20
0.0
 30
0.0
  3
*UDIM509
  0
TEXT
  5
   41E
  8
0
  6
CONTINUOUS
 62
     7
 10
-305.02424241171
 20
50.6444236267617
 30
0.0
 40
3.00000002980232
  1
142
 50
449.999999844103
 41
0.933333333333333
 72
     1
 11
-306.524242416024
 21
54.5444236695766
 31
0.0
 73
     2
  0
LINE
  5
   41F
  8
0
  6
CONTINUOUS
 62
     7
 10
-363.805389404297
 20
72.5694236755371
 30
0.0
 11
-302.024242401123
 21
72.5694236755371
 31
0.0
  0
LINE
  5
   420
  8
0
  6
CONTINUOUS
 62
     7
 10
-332.555389404297
 20
37.0694236755371
 30
0.0
 11
-302.024242401123
 21
37.0694236755371
 31
0.0
  0
LINE
  5
   421
  8
0
  6
CONTINUOUS
 62
     7
 10
-304.024242401123
 20
72.5694236755371
 30
0.0
 11
-304.024242401123
 21
37.0694236755371
 31
0.0
  0
LINE
  5
   422
  8
0
  6
CONTINUOUS
 62
     7
 10
-303.503297971171
 20
69.6150003983302
 30
0.0
 11
-304.024242401123
 21
72.5694236755371
 31
0.0
  0
LINE
  5
   423
  8
0
  6
CONTINUOUS
 62
     7
 10
-304.024242401123
 20
72.5694236755371
 30
0.0
 11
-304.545186831075
 21
69.6150003983302
 31
0.0
  0
LINE
  5
   424
  8
0
  6
CONTINUOUS
 62
     7
 10
-304.545186831075
 20
40.0238469527441
 30
0.0
 11
-304.024242401123
 21
37.0694236755371
 31
0.0
  0
LINE
  5
   425
  8
0
  6
CONTINUOUS
 62
     7
 10
-304.024242401123
 20
37.0694236755371
 30
0.0
 11
-303.503297971171
 21
40.0238469527441
 31
0.0
  0
ENDBLK
  5
   426
  8
0
  6
CONTINUOUS
 62
     7
  0
BLOCK
  5
   427
  8
0
  6
CONTINUOUS
 62
     7
  2
*UDIM510
 70
    65
 10
0.0
 20
0.0
 30
0.0
  3
*UDIM510
  0
TEXT
  5
   428
  8
0
  6
CONTINUOUS
 62
     7
 10
-348.412920004956
 20
45.3171859392534
 30
0.0
 40
3.00000002980232
  1
16
 50
449.999999844103
 41
0.933333333333333
 72
     1
 11
-349.91292001307
 21
47.8171859681606
 31
0.0
 73
     2
  0
LINE
  5
   429
  8
0
  6
CONTINUOUS
 62
     7
 10
-340.680389404297
 20
50.0069236755371
 30
0.0
 11
-349.412919998169
 21
50.0069236755371
 31
0.0
  0
LINE
  5
   42A
  8
0
  6
CONTINUOUS
 62
     7
 10
-340.680389404297
 20
46.0069236755371
 30
0.0
 11
-349.412919998169
 21
46.0069236755371
 31
0.0
  0
LINE
  5
   42B
  8
0
  6
CONTINUOUS
 62
     7
 10
-347.412919998169
 20
50.3171859929959
 30
0.0
 11
-347.412919998169
 21
45.3171859433254
 31
0.0
  0
LINE
  5
   42C
  8
0
  6
CONTINUOUS
 62
     7
 10
-347.933864428121
 20
52.9613469527441
 30
0.0
 11
-347.412919998169
 21
50.0069236755371
 31
0.0
  0
LINE
  5
   42D
  8
0
  6
CONTINUOUS
 62
     7
 10
-347.412919998169
 20
50.0069236755371
 30
0.0
 11
-346.891975568217
 21
52.9613469527441
 31
0.0
  0
LINE
  5
   42E
  8
0
  6
CONTINUOUS
 62
     7
 10
-346.891975568217
 20
43.0525003983302
 30
0.0
 11
-347.412919998169
 21
46.0069236755371
 31
0.0
  0
LINE
  5
   42F
  8
0
  6
CONTINUOUS
 62
     7
 10
-347.412919998169
 20
46.0069236755371
 30
0.0
 11
-347.933864428121
 21
43.0525003983302
 31
0.0
  0
ENDBLK
  5
   430
  8
0
  6
CONTINUOUS
 62
     7
  0
BLOCK
  5
   431
  8
0
  6
CONTINUOUS
 62
     7
  2
*UDIM511
 70
    65
 10
0.0
 20
0.0
 30
0.0
  3
*UDIM511
  0
TEXT
  5
   432
  8
0
  6
CONTINUOUS
 62
     7
 10
-354.980389482877
 20
23.7612419234338
 30
0.0
 40
3.00000002980232
  1
125
 50
359.999999844103
 41
0.933333333333333
 72
     1
 11
-351.08038944006
 21
25.261241927743
 31
0.0
 73
     2
  0
LINE
  5
   433
  8
0
  6
CONTINUOUS
 62
     7
 10
-366.430389404297
 20
34.4444236755371
 30
0.0
 11
-366.430389404297
 21
20.7612419128418
 31
0.0
  0
LINE
  5
   434
  8
0
  6
CONTINUOUS
 62
     7
 10
-335.180389404297
 20
34.4444236755371
 30
0.0
 11
-335.180389404297
 21
20.7612419128418
 31
0.0
  0
LINE
  5
   435
  8
0
  6
CONTINUOUS
 62
     7
 10
-366.430389404297
 20
22.7612419128418
 30
0.0
 11
-335.180389404297
 21
22.7612419128418
 31
0.0
  0
LINE
  5
   436
  8
0
  6
CONTINUOUS
 62
     7
 10
-363.47596612709
 20
23.2821863427935
 30
0.0
 11
-366.430389404297
 21
22.7612419128418
 31
0.0
  0
LINE
  5
   437
  8
0
  6
CONTINUOUS
 62
     7
 10
-366.430389404297
 20
22.7612419128418
 30
0.0
 11
-363.47596612709
 21
22.2402974828901
 31
0.0
  0
LINE
  5
   438
  8
0
  6
CONTINUOUS
 62
     7
 10
-338.134812681504
 20
22.2402974828901
 30
0.0
 11
-335.180389404297
 21
22.7612419128418
 31
0.0
  0
LINE
  5
   439
  8
0
  6
CONTINUOUS
 62
     7
 10
-335.180389404297
 20
22.7612419128418
 30
0.0
 11
-338.134812681504
 21
23.2821863427935
 31
0.0
  0
ENDBLK
  5
   43A
  8
0
  6
CONTINUOUS
 62
     7
  0
BLOCK
  5
   43B
  8
0
  6
CONTINUOUS
 62
     7
  2
*UDIM512
 70
    65
 10
0.0
 20
0.0
 30
0.0
  3
*UDIM512
  0
TEXT
  5
   43C
  8
0
  6
CONTINUOUS
 62
     7
 10
-348.080389439166
 20
30.8644962378688
 30
0.0
 40
3.00000002980232
  1
81
 50
359.999999844103
 41
0.933333333333333
 72
     1
 11
-345.580389410257
 21
32.3644962459803
 31
0.0
 73
     2
  0
LINE
  5
   43D
  8
0
  6
CONTINUOUS
 62
     7
 10
-355.430389404297
 20
30.6742423579857
 30
0.0
 11
-355.430389404297
 21
27.8644962310791
 31
0.0
  0
LINE
  5
   43E
  8
0
  6
CONTINUOUS
 62
     7
 10
-335.180389404297
 20
34.4444236755371
 30
0.0
 11
-335.180389404297
 21
27.8644962310791
 31
0.0
  0
LINE
  5
   43F
  8
0
  6
CONTINUOUS
 62
     7
 10
-355.430389404297
 20
29.8644962310791
 30
0.0
 11
-335.180389404297
 21
29.8644962310791
 31
0.0
  0
LINE
  5
   440
  8
0
  6
CONTINUOUS
 62
     7
 10
-352.47596612709
 20
30.3854406610308
 30
0.0
 11
-355.430389404297
 21
29.8644962310791
 31
0.0
  0
LINE
  5
   441
  8
0
  6
CONTINUOUS
 62
     7
 10
-355.430389404297
 20
29.8644962310791
 30
0.0
 11
-352.47596612709
 21
29.3435518011274
 31
0.0
  0
LINE
  5
   442
  8
0
  6
CONTINUOUS
 62
     7
 10
-338.134812681504
 20
29.3435518011274
 30
0.0
 11
-335.180389404297
 21
29.8644962310791
 31
0.0
  0
LINE
  5
   443
  8
0
  6
CONTINUOUS
 62
     7
 10
-335.180389404297
 20
29.8644962310791
 30
0.0
 11
-338.134812681504
 21
30.3854406610308
 31
0.0
  0
ENDBLK
  5
   444
  8
0
  6
CONTINUOUS
 62
     7
  0
BLOCK
  5
   445
  8
0
  6
CONTINUOUS
 62
     7
  2
*UDIM513
 70
    65
 10
0.0
 20
0.0
 30
0.0
  3
*UDIM513
  0
TEXT
  5
   446
  8
0
  6
CONTINUOUS
 62
     7
 10
-360.730389453074
 20
99.3526878462853
 30
0.0
 40
3.00000002980232
  1
135
 50
359.999999844103
 41
0.933333333333333
 72
     1
 11
-356.830389410257
 21
100.852687850595
 31
0.0
 73
     2
  0
LINE
  5
   447
  8
0
  6
CONTINUOUS
 62
     7
 10
-373.430389404297
 20
71.5694236755371
 30
0.0
 11
-373.430389404297
 21
100.352687835693
 31
0.0
  0
LINE
  5
   448
  8
0
  6
CONTINUOUS
 62
     7
 10
-339.680389404297
 20
71.5694236755371
 30
0.0
 11
-339.680389404297
 21
100.352687835693
 31
0.0
  0
LINE
  5
   449
  8
0
  6
CONTINUOUS
 62
     7
 10
-373.430389404297
 20
98.3526878356934
 30
0.0
 11
-339.680389404297
 21
98.3526878356934
 31
0.0
  0
LINE
  5
   44A
  8
0
  6
CONTINUOUS
 62
     7
 10
-370.47596612709
 20
98.873632265645
 30
0.0
 11
-373.430389404297
 21
98.3526878356934
 31
0.0
  0
LINE
  5
   44B
  8
0
  6
CONTINUOUS
 62
     7
 10
-373.430389404297
 20
98.3526878356934
 30
0.0
 11
-370.47596612709
 21
97.8317434057417
 31
0.0
  0
LINE
  5
   44C
  8
0
  6
CONTINUOUS
 62
     7
 10
-342.634812681504
 20
97.8317434057417
 30
0.0
 11
-339.680389404297
 21
98.3526878356934
 31
0.0
  0
LINE
  5
   44D
  8
0
  6
CONTINUOUS
 62
     7
 10
-339.680389404297
 20
98.3526878356934
 30
0.0
 11
-342.634812681504
 21
98.873632265645
 31
0.0
  0
ENDBLK
  5
   44E
  8
0
  6
CONTINUOUS
 62
     7
  0
BLOCK
  5
   44F
  8
0
  6
CONTINUOUS
 62
     7
  2
*UDIM514
 70
    65
 10
0.0
 20
0.0
 30
0.0
  3
*UDIM514
  0
TEXT
  5
   450
  8
0
  6
CONTINUOUS
 62
     7
 10
-350.330389916004
 20
91.1155891486354
 30
0.0
 40
3.00000002980232
  1
63
 50
359.999999844103
 41
0.933333333333333
 72
     1
 11
-347.830389887095
 21
92.6155891567469
 31
0.0
 73
     2
  0
LINE
  5
   451
  8
0
  6
CONTINUOUS
 62
     7
 10
-355.430389404297
 20
81.4469148363922
 30
0.0
 11
-355.430389404297
 21
92.1155891418457
 31
0.0
  0
LINE
  5
   452
  8
0
  6
CONTINUOUS
 62
     7
 10
-339.680389404297
 20
71.5694236755371
 30
0.0
 11
-339.680389404297
 21
92.1155891418457
 31
0.0
  0
LINE
  5
   453
  8
0
  6
CONTINUOUS
 62
     7
 10
-355.430389404297
 20
90.1155891418457
 30
0.0
 11
-339.680389404297
 21
90.1155891418457
 31
0.0
  0
LINE
  5
   454
  8
0
  6
CONTINUOUS
 62
     7
 10
-352.47596612709
 20
90.6365335717974
 30
0.0
 11
-355.430389404297
 21
90.1155891418457
 31
0.0
  0
LINE
  5
   455
  8
0
  6
CONTINUOUS
 62
     7
 10
-355.430389404297
 20
90.1155891418457
 30
0.0
 11
-352.47596612709
 21
89.594644711894
 31
0.0
  0
LINE
  5
   456
  8
0
  6
CONTINUOUS
 62
     7
 10
-342.634812681504
 20
89.594644711894
 30
0.0
 11
-339.680389404297
 21
90.1155891418457
 31
0.0
  0
LINE
  5
   457
  8
0
  6
CONTINUOUS
 62
     7
 10
-339.680389404297
 20
90.1155891418457
 30
0.0
 11
-342.634812681504
 21
90.6365335717974
 31
0.0
  0
ENDBLK
  5
   458
  8
0
  6
CONTINUOUS
 62
     7
  0
BLOCK
  5
   459
  8
0
  6
CONTINUOUS
 62
     7
  2
*HATCH139
 70
    65
 10
0.0
 20
0.0
 30
0.0
  3
*HATCH139
  0
LINE
  5
   45A
  8
0
  6
CONTINUOUS
 62
    52
 10
-11.7279224395752
 20
1.0
 30
0.0
 11
-11.9763488769531
 21
0.75157368183136
 31
0.0
  0
LINE
  5
   45B
  8
0
  6
CONTINUOUS
 62
    52
 10
-9.60660171508789
 20
1.0
 30
0.0
 11
-11.6066026687622
 21
-1.0
 31
0.0
  0
LINE
  5
   45C
  8
0
  6
CONTINUOUS
 62
    52
 10
-7.48528146743774
 20
1.0
 30
0.0
 11
-9.48528289794922
 21
-1.0
 31
0.0
  0
LINE
  5
   45D
  8
0
  6
CONTINUOUS
 62
    52
 10
-5.3639612197876
 20
1.0
 30
0.0
 11
-7.36396265029907
 21
-1.0
 31
0.0
  0
LINE
  5
   45E
  8
0
  6
CONTINUOUS
 62
    52
 10
-3.47947335243225
 20
0.763167560100555
 30
0.0
 11
-5.24264097213745
 21
-1.0
 31
0.0
  0
LINE
  5
   45F
  8
0
  6
CONTINUOUS
 62
    52
 10
-2.51160907745361
 20
-0.390288293361664
 30
0.0
 11
-3.1213207244873
 21
-1.0
 31
0.0
  0
ENDBLK
  5
   460
  8
0
  6
CONTINUOUS
 62
     7
  0
BLOCK
  5
   461
  8
0
  6
CONTINUOUS
 62
     7
  2
*HATCH140
 70
    65
 10
0.0
 20
0.0
 30
0.0
  3
*HATCH140
  0
LINE
  5
   462
  8
0
  6
CONTINUOUS
 62
    52
 10
5.24264097213745
 20
1.0
 30
0.0
 11
3.24264073371887
 21
-1.0
 31
0.0
  0
LINE
  5
   463
  8
0
  6
CONTINUOUS
 62
    52
 10
7.3639612197876
 20
1.0
 30
0.0
 11
5.3639612197876
 21
-1.0
 31
0.0
  0
LINE
  5
   464
  8
0
  6
CONTINUOUS
 62
    52
 10
9.48528099060059
 20
1.0
 30
0.0
 11
7.4852819442749
 21
-1.0
 31
0.0
  0
ENDBLK
  5
   465
  8
0
  6
CONTINUOUS
 62
     7
  0
BLOCK
  5
   466
  8
0
  6
CONTINUOUS
 62
     7
  2
*UDIM515
 70
    65
 10
0.0
 20
0.0
 30
0.0
  3
*UDIM515
  0
TEXT
  5
   467
  8
0
  6
CONTINUOUS
 62
     7
 10
-506.47145294769
 20
-119.41267783768
 30
0.0
 40
3.00000002980232
  1
80
 50
449.241125536518
 41
0.933333333333333
 72
     1
 11
-507.938210217625
 21
-116.893030386156
 31
0.0
 73
     2
  0
TEXT
  5
   468
  8
0
  6
CONTINUOUS
 62
     7
 10
-507.005177981952
 20
-114.405169666234
 30
0.0
 40
3.00000002980232
  1
°
 50
449.241125536518
 41
0.933333333333334
 72
     1
 11
-508.490477511113
 21
-113.285399432027
 31
0.0
 73
     2
  0
LINE
  5
   469
  8
0
  6
CONTINUOUS
 62
     7
 10
-523.533882314694
 20
-119.839137201631
 30
0.0
 11
-509.331915148463
 21
-131.756002612807
 31
0.0
  0
LINE
  5
   46A
  8
0
  6
CONTINUOUS
 62
     7
 10
-523.533882314694
 20
-111.197163457549
 30
0.0
 11
-509.331915148463
 21
-99.2802980463729
 31
0.0
  0
ARC
  5
   46B
  8
0
  6
CONTINUOUS
 62
     7
 10
-528.683433943001
 20
-115.51815032959
 30
0.0
 40
23.2616136940404
 50
319.999999815233
 51
399.999999769042
  0
LINE
  5
   46C
  8
0
  6
CONTINUOUS
 62
     7
 10
-509.364003944081
 20
-127.8723512344
 30
0.0
 11
-510.864004034701
 21
-130.470427393434
 31
0.0
  0
LINE
  5
   46D
  8
0
  6
CONTINUOUS
 62
     7
 10
-510.864004034701
 20
-130.470427393434
 30
0.0
 11
-508.565870772605
 21
-128.542064484216
 31
0.0
  0
LINE
  5
   46E
  8
0
  6
CONTINUOUS
 62
     7
 10
-508.565870772605
 20
-102.494236174964
 30
0.0
 11
-510.864004034701
 21
-100.565873265746
 31
0.0
  0
LINE
  5
   46F
  8
0
  6
CONTINUOUS
 62
     7
 10
-510.864004034701
 20
-100.565873265746
 30
0.0
 11
-509.364003944081
 21
-103.16394942478
 31
0.0
  0
ENDBLK
  5
   470
  8
0
  6
CONTINUOUS
 62
     7
  0
ENDSEC
  0
SECTION
  2
ENTITIES
  0
LINE
  5
   471
  8
0
  6
DASHDOT
 62
     7
 10
-610.900634765625
 20
-97.5081883251856
 30
0.0
 11
-610.900634765625
 21
-161.153432593251
 31
0.0
  0
LINE
  5
   472
  8
0
  6
CONTINUOUS
 62
     7
 10
-629.338134765625
 20
-99.7399429826794
 30
0.0
 11
-629.338134765625
 21
-156.743810698598
 31
0.0
  0
LINE
  5
   473
  8
0
  6
CONTINUOUS
 62
     7
 10
-592.463134765625
 20
-99.2915986621945
 30
0.0
 11
-592.463134765625
 21
-158.34597458777
 31
0.0
  0
LINE
  5
   474
  8
0
  6
CONTINUOUS
 62
     7
 10
-587.033858281278
 20
-156.018402099609
 30
0.0
 11
-633.021427364833
 21
-156.018402099609
 31
0.0
  0
LINE
  5
   475
  8
0
  6
DASHDOT
 62
     7
 10
-593.207654718908
 20
-107.393402099609
 30
0.0
 11
-628.271847574581
 21
-107.393402099609
 31
0.0
  0
LINE
  5
   476
  8
0
  6
DASHDOT
 62
     7
 10
-593.207654718908
 20
-141.143402099609
 30
0.0
 11
-628.323619623066
 21
-141.143402099609
 31
0.0
  0
LINE
  5
   477
  8
0
  6
DASHDOT
 62
     7
 10
-625.275634765625
 20
-103.643315400775
 30
0.0
 11
-625.275634765625
 21
-145.104097562793
 31
0.0
  0
LINE
  5
   478
  8
0
  6
DASHDOT
 62
     7
 10
-596.525634765625
 20
-104.411267453308
 30
0.0
 11
-596.525634765625
 21
-145.932450338558
 31
0.0
  0
CIRCLE
  5
   479
  8
0
  6
CONTINUOUS
 62
     7
 10
-625.275634765625
 20
-107.393402099609
 30
0.0
 40
0.75
  0
CIRCLE
  5
   47A
  8
0
  6
CONTINUOUS
 62
     7
 10
-596.525634765625
 20
-107.393402099609
 30
0.0
 40
0.75
  0
CIRCLE
  5
   47B
  8
0
  6
CONTINUOUS
 62
     7
 10
-625.275634765625
 20
-141.143402099609
 30
0.0
 40
0.75
  0
CIRCLE
  5
   47C
  8
0
  6
CONTINUOUS
 62
     7
 10
-596.525634765625
 20
-141.143402099609
 30
0.0
 40
0.75
  0
CIRCLE
  5
   47D
  8
0
  6
CONTINUOUS
 62
     7
 10
-626.817008215191
 20
-148.366721929777
 30
0.0
 40
0.0625
  0
LINE
  5
   47E
  8
0
  6
CONTINUOUS
 62
     7
 10
-591.109464501259
 20
-100.849005249142
 30
0.0
 11
-630.610958842929
 21
-100.849005249142
 31
0.0
  0
LINE
  5
   47F
  8
0
  6
DASHDOT
 62
     7
 10
-581.431167400766
 20
-123.830902099609
 30
0.0
 11
-650.543106703314
 21
-123.830902099609
 31
0.0
  0
TEXT
  5
   480
  8
0
  6
CONTINUOUS
 62
     7
 10
-611.9069132832
 20
-96.8309498111377
 30
0.0
 40
3.00000002980232
  1
Y
 50
359.999999896069
 41
0.916666604744064
 72
     2
 11
-609.706913414331
 21
-96.8309498151173
 31
0.0
  0
INSERT
  5
   481
  8
0
  6
CONTINUOUS
 62
     7
  2
*UDIM470
 10
0.0
 20
0.0
 30
0.0
  0
TEXT
  5
   482
  8
0
  6
CONTINUOUS
 62
     7
 10
-666.296047124
 20
-152.782335294283
 30
0.0
 40
3.00000002980232
  1
6
 50
359.999999896069
 41
0.916666604744064
 72
     1
 11
-665.196047186852
 21
-151.282335281372
 31
0.0
 73
     2
  0
TEXT
  5
   483
  8
0
  6
CONTINUOUS
 62
     7
 10
-619.03916549954
 20
-154.48068620312
 30
0.0
 40
3.00000002980232
  1
=    =
 50
359.999999896069
 41
0.916666604744064
 72
     2
 11
-603.089166422915
 21
-154.480686231973
 31
0.0
  0
INSERT
  5
   484
  8
0
  6
CONTINUOUS
 62
     7
  2
*UDIM471
 10
0.0
 20
0.0
 30
0.0
  0
INSERT
  5
   485
  8
0
  6
CONTINUOUS
 62
     7
  2
*UDIM472
 10
0.0
 20
0.0
 30
0.0
  0
INSERT
  5
   486
  8
0
  6
CONTINUOUS
 62
     7
  2
*UDIM473
 10
0.0
 20
0.0
 30
0.0
  0
TEXT
  5
   487
  8
0
  6
CONTINUOUS
 62
     7
 10
-661.322956087919
 20
-124.888784913219
 30
0.0
 40
3.00000002980232
  1
X
 50
359.999999896069
 41
0.916666604744064
 72
     2
 11
-659.122956219049
 21
-124.888784917199
 31
0.0
  0
TEXT
  5
   488
  8
0
  6
CONTINUOUS
 62
     7
 10
-580.470455172391
 20
-125.719195870555
 30
0.0
 40
3.00000002980232
  1
X
 50
359.999999896069
 41
0.916666604744064
 72
     2
 11
-578.270455303521
 21
-125.719195874535
 31
0.0
  0
TEXT
  5
   489
  8
0
  6
CONTINUOUS
 62
     7
 10
-612.177525761457
 20
-162.685321835674
 30
0.0
 40
3.00000002980232
  1
Y
 50
359.999999896069
 41
0.916666604744064
 72
     2
 11
-609.977525892587
 21
-162.685321839653
 31
0.0
  0
LINE
  5
   48A
  8
0
  6
CONTINUOUS
 62
     7
 10
-488.660466874074
 20
61.6950372848068
 30
0.0
 11
-488.660466874074
 21
71.6590300879036
 31
0.0
  0
LINE
  5
   48B
  8
0
  6
CONTINUOUS
 62
     7
 10
-422.86048901511
 20
-45.0889449455871
 30
0.0
 11
-422.86048901511
 21
-23.7274583551033
 31
0.0
  0
LINE
  5
   48C
  8
0
  6
CONTINUOUS
 62
     7
 10
-488.660488848217
 20
-45.0889464023247
 30
0.0
 11
-488.660488848217
 21
-23.7274583551033
 31
0.0
  0
LINE
  5
   48D
  8
0
  6
CONTINUOUS
 62
     1
 10
-422.860489198999
 20
51.9395795694324
 30
0.0
 11
-422.860489198999
 21
61.6950372848068
 31
0.0
  0
LINE
  5
   48E
  8
0
  6
CONTINUOUS
 62
     1
 10
-488.660489032106
 20
51.9395795694324
 30
0.0
 11
-488.660489032106
 21
61.6950372848069
 31
0.0
  0
LINE
  5
   48F
  8
0
  6
CONTINUOUS
 62
     1
 10
-442.365496321158
 20
-17.4999625143255
 30
0.0
 11
-448.47548913403
 21
-17.4999625143255
 31
0.0
  0
LINE
  5
   490
  8
0
  6
CONTINUOUS
 62
     1
 10
-430.920993481533
 20
51.9395795694324
 30
0.0
 11
-430.920993481533
 21
61.695030113176
 31
0.0
  0
LINE
  5
   491
  8
0
  6
CONTINUOUS
 62
     1
 10
-430.920993481533
 20
-47.5799410843122
 30
0.0
 11
-430.920993481533
 21
-23.7274583551033
 31
0.0
  0
LINE
  5
   492
  8
0
  6
CONTINUOUS
 62
     1
 10
-479.730489054756
 20
51.9395795694324
 30
0.0
 11
-479.730489054756
 21
59.3450372907673
 31
0.0
  0
LINE
  5
   493
  8
0
  6
CONTINUOUS
 62
     1
 10
-431.790489176349
 20
51.9395795694324
 30
0.0
 11
-431.790489176349
 21
59.3450372907673
 31
0.0
  0
LINE
  5
   494
  8
0
  6
CONTINUOUS
 62
     1
 10
-431.790489176349
 20
59.3450372907673
 30
0.0
 11
-479.730489054756
 21
59.3450372907673
 31
0.0
  0
LINE
  5
   495
  8
0
  6
DASHDOT
 62
     3
 10
-455.760489115552
 20
-85.3739698893201
 30
0.0
 11
-455.760489115552
 21
28.7726673835244
 31
0.0
  0
LINE
  5
   496
  8
0
  6
DASHDOT
 62
     3
 10
-455.760489115552
 20
28.4094830095615
 30
0.0
 11
-455.760489115552
 21
100.900479225238
 31
0.0
  0
LINE
  5
   497
  8
0
  6
CONTINUOUS
 62
     7
 10
-450.707989128367
 20
3.96870478859578
 30
0.0
 11
-460.812989102737
 21
3.96870478859578
 31
0.0
  0
LINE
  5
   498
  8
0
  6
CONTINUOUS
 62
     7
 10
-450.707989128367
 20
6.29338173539308
 30
0.0
 11
-460.812989102737
 21
6.29338173539308
 31
0.0
  0
LINE
  5
   499
  8
0
  6
CONTINUOUS
 62
     7
 10
-450.707989128367
 20
0.245857521296642
 30
0.0
 11
-460.812989102737
 21
0.245857521296642
 31
0.0
  0
LINE
  5
   49A
  8
0
  6
CONTINUOUS
 62
     3
 10
-488.660492382159
 20
60.9900140225105
 30
0.0
 11
-488.660492382159
 21
73.5625158710192
 31
0.0
  0
LINE
  5
   49B
  8
0
  6
CONTINUOUS
 62
     3
 10
-423.33049254786
 20
60.5200140517139
 30
0.0
 11
-488.190492383352
 21
60.5200140517139
 31
0.0
  0
LINE
  5
   49C
  8
0
  6
CONTINUOUS
 62
     3
 10
-422.860492549066
 20
60.9900140768309
 30
0.0
 11
-422.860492549066
 21
73.5625146803387
 31
0.0
  0
LINE
  5
   49D
  8
0
  6
CONTINUOUS
 62
     3
 10
-485.06499257057
 20
-47.5799410843122
 30
0.0
 11
-485.06499257057
 21
-23.7274583551033
 31
0.0
  0
LINE
  5
   49E
  8
0
  6
CONTINUOUS
 62
     3
 10
-483.372992843798
 20
-47.5799410843122
 30
0.0
 11
-483.372992843798
 21
-23.7274583551033
 31
0.0
  0
LINE
  5
   49F
  8
0
  6
CONTINUOUS
 62
     3
 10
-479.98899383848
 20
60.9900140225105
 30
0.0
 11
-479.98899383848
 21
74.1500015562353
 31
0.0
  0
LINE
  5
   4A0
  8
0
  6
CONTINUOUS
 62
     3
 10
-478.29699814575
 20
60.9900140225105
 30
0.0
 11
-478.29699814575
 21
74.1500015562353
 31
0.0
  0
LINE
  5
   4A1
  8
0
  6
CONTINUOUS
 62
     3
 10
-476.604995281389
 20
60.9900140225105
 30
0.0
 11
-476.604995281389
 21
74.1500015562353
 31
0.0
  0
LINE
  5
   4A2
  8
0
  6
CONTINUOUS
 62
     3
 10
-474.912999588659
 20
60.9900140225105
 30
0.0
 11
-474.912999588659
 21
74.1500015562353
 31
0.0
  0
LINE
  5
   4A3
  8
0
  6
CONTINUOUS
 62
     3
 10
-473.220996724298
 20
60.9900140225105
 30
0.0
 11
-473.220996724298
 21
74.1500015562353
 31
0.0
  0
LINE
  5
   4A4
  8
0
  6
CONTINUOUS
 62
     3
 10
-471.528993859938
 20
60.9900140225105
 30
0.0
 11
-471.528993859938
 21
74.1500015562353
 31
0.0
  0
LINE
  5
   4A5
  8
0
  6
CONTINUOUS
 62
     3
 10
-469.836998167208
 20
60.9900140225105
 30
0.0
 11
-469.836998167208
 21
74.1500015562353
 31
0.0
  0
LINE
  5
   4A6
  8
0
  6
CONTINUOUS
 62
     3
 10
-468.144995302847
 20
60.9900140225105
 30
0.0
 11
-468.144995302847
 21
74.1500015562353
 31
0.0
  0
LINE
  5
   4A7
  8
0
  6
CONTINUOUS
 62
     3
 10
-466.452999610117
 20
60.9900140225105
 30
0.0
 11
-466.452999610117
 21
74.1500015562353
 31
0.0
  0
LINE
  5
   4A8
  8
0
  6
CONTINUOUS
 62
     3
 10
-464.760996745756
 20
60.9900140225105
 30
0.0
 11
-464.760996745756
 21
74.1500015562353
 31
0.0
  0
LINE
  5
   4A9
  8
0
  6
CONTINUOUS
 62
     3
 10
-463.068993881395
 20
60.9900140225105
 30
0.0
 11
-463.068993881395
 21
74.1500015562353
 31
0.0
  0
LINE
  5
   4AA
  8
0
  6
CONTINUOUS
 62
     3
 10
-461.376998188665
 20
60.9900140225105
 30
0.0
 11
-461.376998188665
 21
74.1500015562353
 31
0.0
  0
LINE
  5
   4AB
  8
0
  6
CONTINUOUS
 62
     3
 10
-459.684995324304
 20
60.9900140225105
 30
0.0
 11
-459.684995324304
 21
74.1500015562353
 31
0.0
  0
LINE
  5
   4AC
  8
0
  6
CONTINUOUS
 62
     3
 10
-457.992999631574
 20
60.9900140225105
 30
0.0
 11
-457.992999631574
 21
74.1500015562353
 31
0.0
  0
LINE
  5
   4AD
  8
0
  6
CONTINUOUS
 62
     3
 10
-456.300996767214
 20
60.9900140225105
 30
0.0
 11
-456.300996767214
 21
74.1500015562353
 31
0.0
  0
LINE
  5
   4AE
  8
0
  6
CONTINUOUS
 62
     3
 10
-454.608993902853
 20
60.9900140225105
 30
0.0
 11
-454.608993902853
 21
74.1500015562353
 31
0.0
  0
LINE
  5
   4AF
  8
0
  6
CONTINUOUS
 62
     3
 10
-452.916998210123
 20
60.9900140225105
 30
0.0
 11
-452.916998210123
 21
74.1500015562353
 31
0.0
  0
LINE
  5
   4B0
  8
0
  6
CONTINUOUS
 62
     3
 10
-451.224995345762
 20
60.9900140225105
 30
0.0
 11
-451.224995345762
 21
74.1500015562353
 31
0.0
  0
LINE
  5
   4B1
  8
0
  6
CONTINUOUS
 62
     3
 10
-449.532999653032
 20
60.9900140225105
 30
0.0
 11
-449.532999653032
 21
74.1500015562353
 31
0.0
  0
LINE
  5
   4B2
  8
0
  6
CONTINUOUS
 62
     3
 10
-447.840996788671
 20
60.9900140225105
 30
0.0
 11
-447.840996788671
 21
74.1500015562353
 31
0.0
  0
LINE
  5
   4B3
  8
0
  6
CONTINUOUS
 62
     3
 10
-446.14899392431
 20
60.9900140225105
 30
0.0
 11
-446.14899392431
 21
74.1500015562353
 31
0.0
  0
LINE
  5
   4B4
  8
0
  6
CONTINUOUS
 62
     3
 10
-444.456998231581
 20
60.9900140225105
 30
0.0
 11
-444.456998231581
 21
74.1500015562353
 31
0.0
  0
LINE
  5
   4B5
  8
0
  6
CONTINUOUS
 62
     3
 10
-442.76499536722
 20
60.9900140225105
 30
0.0
 11
-442.76499536722
 21
74.1500015562353
 31
0.0
  0
LINE
  5
   4B6
  8
0
  6
CONTINUOUS
 62
     3
 10
-441.07299967449
 20
60.9900140225105
 30
0.0
 11
-441.07299967449
 21
74.1500015562353
 31
0.0
  0
LINE
  5
   4B7
  8
0
  6
CONTINUOUS
 62
     3
 10
-439.380996810129
 20
60.9900140225105
 30
0.0
 11
-439.380996810129
 21
74.1500015562353
 31
0.0
  0
LINE
  5
   4B8
  8
0
  6
CONTINUOUS
 62
     3
 10
-437.688993945768
 20
60.9900140225105
 30
0.0
 11
-437.688993945768
 21
74.1500015562353
 31
0.0
  0
LINE
  5
   4B9
  8
0
  6
CONTINUOUS
 62
     3
 10
-435.996998253038
 20
60.9900140225105
 30
0.0
 11
-435.996998253038
 21
74.1500015562353
 31
0.0
  0
LINE
  5
   4BA
  8
0
  6
CONTINUOUS
 62
     3
 10
-434.304995388677
 20
60.9900140225105
 30
0.0
 11
-434.304995388677
 21
74.1500015562353
 31
0.0
  0
LINE
  5
   4BB
  8
0
  6
CONTINUOUS
 62
     3
 10
-432.612999695947
 20
60.9900140225105
 30
0.0
 11
-432.612999695947
 21
74.1500015562353
 31
0.0
  0
LINE
  5
   4BC
  8
0
  6
CONTINUOUS
 62
     3
 10
-430.920996831587
 20
60.9900140225105
 30
0.0
 11
-430.920996831587
 21
74.1500015562353
 31
0.0
  0
LINE
  5
   4BD
  8
0
  6
CONTINUOUS
 62
     3
 10
-429.228993967226
 20
-47.5799410843122
 30
0.0
 11
-429.228993967226
 21
-23.7274583551033
 31
0.0
  0
LINE
  5
   4BE
  8
0
  6
CONTINUOUS
 62
     3
 10
-425.844995410135
 20
-47.5799410843122
 30
0.0
 11
-425.844995410135
 21
-23.7274583551033
 31
0.0
  0
LINE
  5
   4BF
  8
0
  6
CONTINUOUS
 62
     3
 10
-422.909170189486
 20
60.9900140225105
 30
0.0
 11
-488.611822305555
 21
60.9900140225105
 31
0.0
  0
LINE
  5
   4C0
  8
0
  6
CONTINUOUS
 62
     3
 10
-422.860492625567
 20
60.9900086772492
 30
0.0
 11
-423.032568735971
 21
60.9900086772492
 31
0.0
  0
LINE
  5
   4C1
  8
0
  6
CONTINUOUS
 62
     3
 10
-423.33049254786
 20
60.5200140517168
 30
0.0
 11
-423.33049254786
 21
60.9900140225105
 31
0.0
  0
LINE
  5
   4C2
  8
0
  6
CONTINUOUS
 62
     3
 10
-488.611822305554
 20
60.9900140225105
 30
0.0
 11
-488.660492382159
 21
60.9900140225105
 31
0.0
  0
LINE
  5
   4C3
  8
0
  6
CONTINUOUS
 62
     3
 10
-488.190492383352
 20
60.5200140517139
 30
0.0
 11
-488.190492383352
 21
60.9900140225077
 31
0.0
  0
ARC
  5
   4C4
  8
0
  6
CONTINUOUS
 62
     3
 10
-488.073005569419
 20
73.5625158710192
 30
0.0
 40
0.58748725843258
 50
449.998658602021
 51
540.001080379242
  0
ARC
  5
   4C5
  8
0
  6
CONTINUOUS
 62
     3
 10
-423.447986815583
 20
73.5625146803387
 30
0.0
 40
0.587485303110247
 50
359.998931305817
 51
450.001731127297
  0
LINE
  5
   4C6
  8
0
  6
CONTINUOUS
 62
     7
 10
-423.448004566321
 20
74.1500015562353
 30
0.0
 11
-488.072991815811
 21
74.1500015562353
 31
0.0
  0
LINE
  5
   4C7
  8
0
  6
CONTINUOUS
 62
     3
 10
-488.660492382159
 20
-46.992455399096
 30
0.0
 11
-488.660492382159
 21
-34.4199535505874
 31
0.0
  0
LINE
  5
   4C8
  8
0
  6
CONTINUOUS
 62
     3
 10
-423.33049254786
 20
-33.9499535797908
 30
0.0
 11
-488.190492383352
 21
-33.9499535797908
 31
0.0
  0
LINE
  5
   4C9
  8
0
  6
CONTINUOUS
 62
     3
 10
-422.860492549065
 20
-46.9924542084156
 30
0.0
 11
-422.860492549065
 21
-34.4199536049078
 31
0.0
  0
LINE
  5
   4CA
  8
0
  6
CONTINUOUS
 62
     3
 10
-486.756992745569
 20
-47.5799410843122
 30
0.0
 11
-486.756992745569
 21
-23.7274583551033
 31
0.0
  0
LINE
  5
   4CB
  8
0
  6
CONTINUOUS
 62
     3
 10
-481.680992668798
 20
-47.5799410843122
 30
0.0
 11
-481.680992668798
 21
-23.7274583551033
 31
0.0
  0
LINE
  5
   4CC
  8
0
  6
CONTINUOUS
 62
     3
 10
-479.98899383848
 20
-47.5799410843122
 30
0.0
 11
-479.98899383848
 21
-34.4199535505874
 31
0.0
  0
LINE
  5
   4CD
  8
0
  6
CONTINUOUS
 62
     3
 10
-478.29699814575
 20
-47.5799410843122
 30
0.0
 11
-478.29699814575
 21
-34.4199535505874
 31
0.0
  0
LINE
  5
   4CE
  8
0
  6
CONTINUOUS
 62
     3
 10
-476.604995281389
 20
-47.5799410843122
 30
0.0
 11
-476.604995281389
 21
-34.4199535505874
 31
0.0
  0
LINE
  5
   4CF
  8
0
  6
CONTINUOUS
 62
     3
 10
-474.912999588659
 20
-47.5799410843122
 30
0.0
 11
-474.912999588659
 21
-34.4199535505874
 31
0.0
  0
LINE
  5
   4D0
  8
0
  6
CONTINUOUS
 62
     3
 10
-473.220996724298
 20
-47.5799410843122
 30
0.0
 11
-473.220996724298
 21
-34.4199535505874
 31
0.0
  0
LINE
  5
   4D1
  8
0
  6
CONTINUOUS
 62
     3
 10
-471.528993859937
 20
-47.5799410843122
 30
0.0
 11
-471.528993859937
 21
-34.4199535505874
 31
0.0
  0
LINE
  5
   4D2
  8
0
  6
CONTINUOUS
 62
     3
 10
-469.836998167207
 20
-47.5799410843122
 30
0.0
 11
-469.836998167207
 21
-34.4199535505874
 31
0.0
  0
LINE
  5
   4D3
  8
0
  6
CONTINUOUS
 62
     3
 10
-468.144995302847
 20
-47.5799410843122
 30
0.0
 11
-468.144995302847
 21
-34.4199535505874
 31
0.0
  0
LINE
  5
   4D4
  8
0
  6
CONTINUOUS
 62
     3
 10
-466.452999610117
 20
-47.5799410843122
 30
0.0
 11
-466.452999610117
 21
-34.4199535505874
 31
0.0
  0
LINE
  5
   4D5
  8
0
  6
CONTINUOUS
 62
     3
 10
-464.760996745756
 20
-47.5799410843122
 30
0.0
 11
-464.760996745756
 21
-34.4199535505874
 31
0.0
  0
LINE
  5
   4D6
  8
0
  6
CONTINUOUS
 62
     3
 10
-463.068993881395
 20
-47.5799410843122
 30
0.0
 11
-463.068993881395
 21
-34.4199535505874
 31
0.0
  0
LINE
  5
   4D7
  8
0
  6
CONTINUOUS
 62
     3
 10
-461.376998188665
 20
-47.5799410843122
 30
0.0
 11
-461.376998188665
 21
-34.4199535505874
 31
0.0
  0
LINE
  5
   4D8
  8
0
  6
CONTINUOUS
 62
     3
 10
-459.684995324304
 20
-47.5799410843122
 30
0.0
 11
-459.684995324304
 21
-34.4199535505874
 31
0.0
  0
LINE
  5
   4D9
  8
0
  6
CONTINUOUS
 62
     3
 10
-457.992999631574
 20
-47.5799410843122
 30
0.0
 11
-457.992999631574
 21
-34.4199535505874
 31
0.0
  0
LINE
  5
   4DA
  8
0
  6
CONTINUOUS
 62
     3
 10
-456.300996767214
 20
-47.5799410843122
 30
0.0
 11
-456.300996767214
 21
-34.4199535505874
 31
0.0
  0
LINE
  5
   4DB
  8
0
  6
CONTINUOUS
 62
     3
 10
-454.608993902853
 20
-47.5799410843122
 30
0.0
 11
-454.608993902853
 21
-34.4199535505874
 31
0.0
  0
LINE
  5
   4DC
  8
0
  6
CONTINUOUS
 62
     3
 10
-452.916998210123
 20
-47.5799410843122
 30
0.0
 11
-452.916998210123
 21
-34.4199535505874
 31
0.0
  0
LINE
  5
   4DD
  8
0
  6
CONTINUOUS
 62
     3
 10
-451.224995345762
 20
-47.5799410843122
 30
0.0
 11
-451.224995345762
 21
-34.4199535505874
 31
0.0
  0
LINE
  5
   4DE
  8
0
  6
CONTINUOUS
 62
     3
 10
-449.532999653032
 20
-47.5799410843122
 30
0.0
 11
-449.532999653032
 21
-34.4199535505874
 31
0.0
  0
LINE
  5
   4DF
  8
0
  6
CONTINUOUS
 62
     3
 10
-447.840996788671
 20
-47.5799410843122
 30
0.0
 11
-447.840996788671
 21
-34.4199535505874
 31
0.0
  0
LINE
  5
   4E0
  8
0
  6
CONTINUOUS
 62
     3
 10
-446.14899392431
 20
-47.5799410843122
 30
0.0
 11
-446.14899392431
 21
-34.4199535505874
 31
0.0
  0
LINE
  5
   4E1
  8
0
  6
CONTINUOUS
 62
     3
 10
-444.45699823158
 20
-47.5799410843122
 30
0.0
 11
-444.45699823158
 21
-34.4199535505874
 31
0.0
  0
LINE
  5
   4E2
  8
0
  6
CONTINUOUS
 62
     3
 10
-442.76499536722
 20
-47.5799410843122
 30
0.0
 11
-442.76499536722
 21
-34.4199535505874
 31
0.0
  0
LINE
  5
   4E3
  8
0
  6
CONTINUOUS
 62
     3
 10
-441.07299967449
 20
-47.5799410843122
 30
0.0
 11
-441.07299967449
 21
-34.4199535505874
 31
0.0
  0
LINE
  5
   4E4
  8
0
  6
CONTINUOUS
 62
     3
 10
-439.380996810129
 20
-47.5799410843122
 30
0.0
 11
-439.380996810129
 21
-34.4199535505874
 31
0.0
  0
LINE
  5
   4E5
  8
0
  6
CONTINUOUS
 62
     3
 10
-437.688993945768
 20
-47.5799410843122
 30
0.0
 11
-437.688993945768
 21
-34.4199535505874
 31
0.0
  0
LINE
  5
   4E6
  8
0
  6
CONTINUOUS
 62
     3
 10
-435.996998253038
 20
-47.5799410843122
 30
0.0
 11
-435.996998253038
 21
-34.4199535505874
 31
0.0
  0
LINE
  5
   4E7
  8
0
  6
CONTINUOUS
 62
     3
 10
-434.304995388677
 20
-47.5799410843122
 30
0.0
 11
-434.304995388677
 21
-34.4199535505874
 31
0.0
  0
LINE
  5
   4E8
  8
0
  6
CONTINUOUS
 62
     3
 10
-432.612999695947
 20
-47.5799410843122
 30
0.0
 11
-432.612999695947
 21
-34.4199535505874
 31
0.0
  0
LINE
  5
   4E9
  8
0
  6
CONTINUOUS
 62
     3
 10
-427.536998274496
 20
-47.5799410843122
 30
0.0
 11
-427.536998274496
 21
-23.7274583551033
 31
0.0
  0
LINE
  5
   4EA
  8
0
  6
CONTINUOUS
 62
     3
 10
-424.152999717405
 20
-47.5799410843122
 30
0.0
 11
-424.152999717405
 21
-23.7274583551033
 31
0.0
  0
LINE
  5
   4EB
  8
0
  6
CONTINUOUS
 62
     3
 10
-422.909170189486
 20
-34.4199535505874
 30
0.0
 11
-488.611822305555
 21
-34.4199535505874
 31
0.0
  0
LINE
  5
   4EC
  8
0
  6
CONTINUOUS
 62
     3
 10
-422.860492625567
 20
-34.4199482053261
 30
0.0
 11
-423.032568735971
 21
-34.4199482053261
 31
0.0
  0
LINE
  5
   4ED
  8
0
  6
CONTINUOUS
 62
     3
 10
-423.33049254786
 20
-34.4199535505874
 30
0.0
 11
-423.33049254786
 21
-33.9499535797936
 31
0.0
  0
LINE
  5
   4EE
  8
0
  6
CONTINUOUS
 62
     3
 10
-488.611822305554
 20
-34.4199535505874
 30
0.0
 11
-488.660492382159
 21
-34.4199535505874
 31
0.0
  0
LINE
  5
   4EF
  8
0
  6
CONTINUOUS
 62
     3
 10
-488.190492383352
 20
-34.4199535505845
 30
0.0
 11
-488.190492383352
 21
-33.9499535797908
 31
0.0
  0
ARC
  5
   4F0
  8
0
  6
CONTINUOUS
 62
     3
 10
-488.073005569419
 20
-46.992455399096
 30
0.0
 40
0.58748725843258
 50
179.998919516826
 51
270.001341294048
  0
ARC
  5
   4F1
  8
0
  6
CONTINUOUS
 62
     3
 10
-423.447986815583
 20
-46.9924542084156
 30
0.0
 40
0.587485303110247
 50
269.998268768772
 51
360.001068590252
  0
LINE
  5
   4F2
  8
0
  6
CONTINUOUS
 62
     7
 10
-423.448004566321
 20
-47.5799410843122
 30
0.0
 11
-488.072991815811
 21
-47.5799410843122
 31
0.0
  0
LINE
  5
   4F3
  8
0
  6
DASHDOT
 62
     7
 10
-455.760474776488
 20
76.9230111557702
 30
0.0
 11
-455.760474776488
 21
83.5969734740375
 31
0.0
  0
LINE
  5
   4F4
  8
0
  6
DASHDOT
 62
     7
 10
-435.197974828642
 20
-61.7269129901935
 30
0.0
 11
-435.197974828642
 21
-55.0529506719261
 31
0.0
  0
LINE
  5
   4F5
  8
0
  6
DASHDOT
 62
     7
 10
-476.322974724334
 20
-61.7269129901935
 30
0.0
 11
-476.322974724334
 21
-55.0529506719261
 31
0.0
  0
LINE
  5
   4F6
  8
0
  6
DASHDOT
 62
     7
 10
-455.760474776488
 20
-57.0269130021144
 30
0.0
 11
-455.760474776488
 21
-50.3529506838471
 31
0.0
  0
LINE
  5
   4F7
  8
0
  6
CONTINUOUS
 62
   130
 10
-408.525465506554
 20
-18.5574714761818
 30
0.0
 11
-410.64048833354
 21
-18.5574714761818
 31
0.0
  0
LINE
  5
   4F8
  8
0
  6
CONTINUOUS
 62
   130
 10
-408.525472342014
 20
49.4750373158013
 30
0.0
 11
-410.64048833354
 21
49.4750373158013
 31
0.0
  0
LINE
  5
   4F9
  8
0
  6
CONTINUOUS
 62
   130
 10
-408.525465506354
 20
-18.5574714761818
 30
0.0
 11
-408.525472342014
 21
49.4750373158022
 31
0.0
  0
LINE
  5
   4FA
  8
0
  6
CONTINUOUS
 62
   130
 10
-408.055469765902
 20
8.58501231880554
 30
0.0
 11
-408.055469317675
 21
17.9850122949637
 31
0.0
  0
LINE
  5
   4FB
  8
0
  6
CONTINUOUS
 62
   130
 10
-408.055469317675
 20
17.9850122949636
 30
0.0
 11
-408.525468083859
 21
17.9850122949636
 31
0.0
  0
LINE
  5
   4FC
  8
0
  6
CONTINUOUS
 62
   130
 10
-408.055469765902
 20
8.58501231880541
 30
0.0
 11
-408.525468532085
 21
8.58501231880541
 31
0.0
  0
CIRCLE
  5
   4FD
  8
0
  6
CONTINUOUS
 62
   130
 10
-414.870396666012
 20
1.30001776566037
 30
0.0
 40
2.46747124816461
  0
LINE
  5
   4FE
  8
0
  6
DASHDOT
 62
     7
 10
-414.870396666012
 20
-1.63745348131215
 30
0.0
 11
-414.870396666012
 21
4.2374890126329
 31
0.0
  0
LINE
  5
   4FF
  8
0
  6
DASHDOT
 62
     7
 10
-411.93292541904
 20
1.30001776566037
 30
0.0
 11
-417.807867912985
 21
1.30001776566037
 31
0.0
  0
LINE
  5
   500
  8
0
  6
CONTINUOUS
 62
   150
 10
-446.595464038077
 20
-8.9225068701247
 30
0.0
 11
-446.595464038077
 21
31.7324930267593
 31
0.0
  0
LINE
  5
   501
  8
0
  6
CONTINUOUS
 62
   150
 10
-480.366654332772
 20
38.7137069349176
 30
0.0
 11
-480.200480471583
 21
38.7825474204439
 31
0.0
  0
LINE
  5
   502
  8
0
  6
CONTINUOUS
 62
   150
 10
-480.435484651179
 20
38.5475380945268
 30
0.0
 11
-480.366654924088
 21
38.7137119570458
 31
0.0
  0
LINE
  5
   503
  8
0
  6
CONTINUOUS
 62
   150
 10
-480.435496224585
 20
-10.0968956238843
 30
0.0
 11
-480.435496224585
 21
-9.86188128121866
 31
0.0
  0
LINE
  5
   504
  8
0
  6
CONTINUOUS
 62
   150
 10
-480.435489052955
 20
33.1424912302753
 30
0.0
 11
-480.435489052955
 21
38.5475270747204
 31
0.0
  0
LINE
  5
   505
  8
0
  6
CONTINUOUS
 62
   150
 10
-480.366659690821
 20
-10.4986633988206
 30
0.0
 11
-480.43549659009
 21
-10.3324931307885
 31
0.0
  0
LINE
  5
   506
  8
0
  6
CONTINUOUS
 62
   150
 10
-480.2004963098
 20
-10.5674630600179
 30
0.0
 11
-480.366657621339
 21
-10.4986620188333
 31
0.0
  0
LINE
  5
   507
  8
0
  6
CONTINUOUS
 62
   150
 10
-431.280377734571
 20
-10.567461043879
 30
0.0
 11
-445.655464040417
 21
-10.567461043879
 31
0.0
  0
LINE
  5
   508
  8
0
  6
CONTINUOUS
 62
   150
 10
-479.965489054147
 20
-10.5674638361673
 30
0.0
 11
-480.200498018089
 21
-10.5674638361673
 31
0.0
  0
LINE
  5
   509
  8
0
  6
CONTINUOUS
 62
   150
 10
-431.280377734571
 20
-10.567461043879
 30
0.0
 11
-431.08545439071
 21
-10.0968972386673
 31
0.0
  0
LINE
  5
   50A
  8
0
  6
CONTINUOUS
 62
   150
 10
-431.085452907117
 20
-10.0968974167904
 30
0.0
 11
-431.085452907117
 21
38.7831239741245
 31
0.0
  0
LINE
  5
   50B
  8
0
  6
CONTINUOUS
 62
   150
 10
-431.085461733254
 20
38.5475312739506
 30
0.0
 11
-431.154309391304
 21
38.7137051305816
 31
0.0
  0
LINE
  5
   50C
  8
0
  6
CONTINUOUS
 62
   150
 10
-431.154312629001
 20
38.7137004786746
 30
0.0
 11
-431.320486490572
 21
38.782526619713
 31
0.0
  0
LINE
  5
   50D
  8
0
  6
CONTINUOUS
 62
   150
 10
-431.32048559171
 20
38.7825414863484
 30
0.0
 11
-480.200485467733
 21
38.7825414863484
 31
0.0
  0
LINE
  5
   50E
  8
0
  6
CONTINUOUS
 62
     3
 10
-443.916494165722
 20
-5.66513959170446
 30
0.0
 11
-443.916494165722
 21
-1.83990644710978
 31
0.0
  0
LINE
  5
   50F
  8
0
  6
CONTINUOUS
 62
     3
 10
-443.259499308533
 20
-6.4203062342984
 30
0.0
 11
-443.916499557517
 21
-5.66514068415331
 31
0.0
  0
LINE
  5
   510
  8
0
  6
CONTINUOUS
 62
     3
 10
-442.416671372202
 20
-6.96037868244726
 30
0.0
 11
-443.259488615497
 21
-6.42030469656179
 31
0.0
  0
LINE
  5
   511
  8
0
  6
CONTINUOUS
 62
     3
 10
-441.456022353714
 20
-7.24176525717161
 30
0.0
 11
-442.41667666712
 21
-6.96037916155565
 31
0.0
  0
LINE
  5
   512
  8
0
  6
CONTINUOUS
 62
     3
 10
-440.455013309023
 20
-7.24176525909227
 30
0.0
 11
-441.456022370205
 21
-7.24176525909227
 31
0.0
  0
LINE
  5
   513
  8
0
  6
CONTINUOUS
 62
     3
 10
-440.455014196539
 20
-7.24176558793173
 30
0.0
 11
-439.494359896336
 21
-6.96038305739418
 31
0.0
  0
LINE
  5
   514
  8
0
  6
CONTINUOUS
 62
     3
 10
-439.494349239684
 20
-6.96037752082139
 30
0.0
 11
-438.651524813312
 21
-6.42030349213141
 31
0.0
  0
LINE
  5
   515
  8
0
  6
CONTINUOUS
 62
     3
 10
-438.651539780737
 20
-6.42031244253181
 30
0.0
 11
-437.994517968855
 21
-5.66510026769788
 31
0.0
  0
LINE
  5
   516
  8
0
  6
CONTINUOUS
 62
     3
 10
-437.994512825848
 20
-5.66509656618332
 30
0.0
 11
-437.994491310956
 21
-1.83988493567857
 31
0.0
  0
LINE
  5
   517
  8
0
  6
CONTINUOUS
 62
     3
 10
-437.994492655457
 20
-1.83988525748681
 30
0.0
 11
-438.651514457818
 21
-1.08469100879877
 31
0.0
  0
LINE
  5
   518
  8
0
  6
CONTINUOUS
 62
     3
 10
-438.651505519798
 20
-1.08468961757631
 30
0.0
 11
-439.494329946171
 21
-0.544615588886337
 31
0.0
  0
LINE
  5
   519
  8
0
  6
CONTINUOUS
 62
     3
 10
-439.494334556249
 20
-0.544616190764408
 30
0.0
 11
-440.45498165208
 21
-0.263233674047463
 31
0.0
  0
LINE
  5
   51A
  8
0
  6
CONTINUOUS
 62
     3
 10
-440.454984622499
 20
-0.263234164121492
 30
0.0
 11
-441.456000855312
 21
-0.263234164121492
 31
0.0
  0
LINE
  5
   51B
  8
0
  6
CONTINUOUS
 62
     3
 10
-442.416644623855
 20
-0.544615298108383
 30
0.0
 11
-441.455997528024
 21
-0.263232781391437
 31
0.0
  0
LINE
  5
   51C
  8
0
  6
CONTINUOUS
 62
     3
 10
-443.259462875027
 20
-1.08468504873589
 30
0.0
 11
-442.416638448655
 21
-0.544611020045927
 31
0.0
  0
LINE
  5
   51D
  8
0
  6
CONTINUOUS
 62
     3
 10
-443.916499599612
 20
-1.83991075470977
 30
0.0
 11
-443.259477812498
 21
-1.08469499959689
 31
0.0
  0
LINE
  5
   51E
  8
0
  6
CONTINUOUS
 62
     3
 10
-445.655464037101
 20
33.1424984020432
 30
0.0
 11
-431.085464074055
 21
33.1425270885657
 31
0.0
  0
LINE
  5
   51F
  8
0
  6
CONTINUOUS
 62
     3
 10
-431.085464077416
 20
37.8425270765085
 30
0.0
 11
-480.43549263877
 21
37.8425270765085
 31
0.0
  0
LINE
  5
   520
  8
0
  6
CONTINUOUS
 62
     3
 10
-436.488393326755
 20
29.7349662385431
 30
0.0
 11
-436.542058638311
 21
30.0047629885989
 31
0.0
  0
LINE
  5
   521
  8
0
  6
CONTINUOUS
 62
     3
 10
-436.542055929646
 20
30.0047675316967
 30
0.0
 11
-436.69487621891
 21
30.2334851819229
 31
0.0
  0
LINE
  5
   522
  8
0
  6
CONTINUOUS
 62
     3
 10
-436.694878748907
 20
30.2334831179975
 30
0.0
 11
-436.923603574037
 21
30.3863033939026
 31
0.0
  0
LINE
  5
   523
  8
0
  6
CONTINUOUS
 62
     3
 10
-436.923608301998
 20
30.3863016078756
 30
0.0
 11
-437.193397876873
 21
30.4399669208026
 31
0.0
  0
LINE
  5
   524
  8
0
  6
CONTINUOUS
 62
     3
 10
-437.463188718372
 20
30.3863002302013
 30
0.0
 11
-437.193399143497
 21
30.4399655431284
 31
0.0
  0
LINE
  5
   525
  8
0
  6
CONTINUOUS
 62
     3
 10
-437.691896677413
 20
30.2334857231269
 30
0.0
 11
-437.463179027187
 21
30.3863060123911
 31
0.0
  0
LINE
  5
   526
  8
0
  6
CONTINUOUS
 62
     3
 10
-437.844725810108
 20
30.0047668708371
 30
0.0
 11
-437.691898359245
 21
30.2334845167085
 31
0.0
  0
LINE
  5
   527
  8
0
  6
CONTINUOUS
 62
     3
 10
-437.898394040518
 20
29.7349654190251
 30
0.0
 11
-437.844728728962
 21
30.004762169081
 31
0.0
  0
LINE
  5
   528
  8
0
  6
CONTINUOUS
 62
     3
 10
-437.898391458818
 20
28.3249697276017
 30
0.0
 11
-437.898391458818
 21
29.7349697240254
 31
0.0
  0
LINE
  5
   529
  8
0
  6
CONTINUOUS
 62
     3
 10
-437.844729214965
 20
28.055174457728
 30
0.0
 11
-437.898394527892
 21
28.3249640326027
 31
0.0
  0
LINE
  5
   52A
  8
0
  6
CONTINUOUS
 62
     3
 10
-437.691898520671
 20
27.8264627030881
 30
0.0
 11
-437.844725971534
 21
28.0551803489595
 31
0.0
  0
LINE
  5
   52B
  8
0
  6
CONTINUOUS
 62
     3
 10
-437.463180794929
 20
27.6736351820985
 30
0.0
 11
-437.6918984408
 21
27.8264626329619
 31
0.0
  0
LINE
  5
   52C
  8
0
  6
CONTINUOUS
 62
     3
 10
-437.193397882613
 20
27.6199670680881
 30
0.0
 11
-437.463187457488
 21
27.6736323810152
 31
0.0
  0
LINE
  5
   52D
  8
0
  6
CONTINUOUS
 62
     3
 10
-437.193399137757
 20
27.6199656904139
 30
0.0
 11
-436.923609562882
 21
27.6736310033409
 31
0.0
  0
LINE
  5
   52E
  8
0
  6
CONTINUOUS
 62
     3
 10
-436.923601259841
 20
27.6736355222963
 30
0.0
 11
-436.694876439106
 21
27.8264629762562
 31
0.0
  0
LINE
  5
   52F
  8
0
  6
CONTINUOUS
 62
     3
 10
-436.694875408443
 20
27.8264643888499
 30
0.0
 11
-436.542055119179
 21
28.0551820390761
 31
0.0
  0
LINE
  5
   530
  8
0
  6
CONTINUOUS
 62
     3
 10
-436.542061155025
 20
28.0551730847045
 30
0.0
 11
-436.488395842098
 21
28.3249626595792
 31
0.0
  0
LINE
  5
   531
  8
0
  6
CONTINUOUS
 62
     3
 10
-436.488391462394
 20
28.3249697276017
 30
0.0
 11
-436.488391462394
 21
29.7349697240254
 31
0.0
  0
LINE
  5
   532
  8
0
  6
CONTINUOUS
 62
     3
 10
-436.490464063707
 20
18.219980510678
 30
0.0
 11
-437.900464060131
 21
18.219980510678
 31
0.0
  0
LINE
  5
   533
  8
0
  6
CONTINUOUS
 62
     3
 10
-437.900464060131
 20
5.52998054286446
 30
0.0
 11
-437.900464060131
 21
18.219980510678
 31
0.0
  0
LINE
  5
   534
  8
0
  6
CONTINUOUS
 62
     3
 10
-436.490464063707
 20
5.52998054286447
 30
0.0
 11
-437.900464060131
 21
5.52998054286447
 31
0.0
  0
LINE
  5
   535
  8
0
  6
CONTINUOUS
 62
     3
 10
-436.490464063707
 20
5.52998054286446
 30
0.0
 11
-436.490464063707
 21
18.219980510678
 31
0.0
  0
LINE
  5
   536
  8
0
  6
CONTINUOUS
 62
     3
 10
-445.655464040461
 20
33.1424912302753
 30
0.0
 11
-478.790503400388
 21
33.1424912302753
 31
0.0
  0
LINE
  5
   537
  8
0
  6
CONTINUOUS
 62
   150
 10
-447.065464036885
 20
32.2024912326595
 30
0.0
 11
-478.790503400388
 21
32.2024912326595
 31
0.0
  0
LINE
  5
   538
  8
0
  6
CONTINUOUS
 62
   150
 10
-446.595465065773
 20
31.7324899946268
 30
0.0
 11
-447.065465048493
 21
32.2024899773473
 31
0.0
  0
LINE
  5
   539
  8
0
  6
CONTINUOUS
 62
   150
 10
-479.260502752441
 20
31.7324927490007
 30
0.0
 11
-479.122843298204
 21
32.0648332938703
 31
0.0
  0
LINE
  5
   53A
  8
0
  6
CONTINUOUS
 62
   150
 10
-479.122843052771
 20
32.0648327679498
 30
0.0
 11
-478.790502507901
 21
32.2024922221867
 31
0.0
  0
LINE
  5
   53B
  8
0
  6
CONTINUOUS
 62
     3
 10
-478.790503385326
 20
33.1424912309473
 30
0.0
 11
-480.435490830896
 21
33.1424984025783
 31
0.0
  0
LINE
  5
   53C
  8
0
  6
CONTINUOUS
 62
   150
 10
-480.435493778575
 20
-9.86188128121862
 30
0.0
 11
-480.435493778575
 21
33.3780970942163
 31
0.0
  0
LINE
  5
   53D
  8
0
  6
CONTINUOUS
 62
   150
 10
-446.733122597259
 20
-9.25484660124131
 30
0.0
 11
-446.595463143022
 21
-8.92250605637168
 31
0.0
  0
LINE
  5
   53E
  8
0
  6
CONTINUOUS
 62
   150
 10
-447.065462657439
 20
-9.39250627344193
 30
0.0
 11
-446.73312211257
 21
-9.25484681920496
 31
0.0
  0
LINE
  5
   53F
  8
0
  6
CONTINUOUS
 62
   150
 10
-447.065464036885
 20
-9.39250686893261
 30
0.0
 11
-478.790503400388
 21
-9.39250686893261
 31
0.0
  0
LINE
  5
   540
  8
0
  6
CONTINUOUS
 62
   150
 10
-478.790502884806
 20
-9.39250663629212
 30
0.0
 11
-479.122843429675
 21
-9.25484718205513
 31
0.0
  0
LINE
  5
   541
  8
0
  6
CONTINUOUS
 62
   150
 10
-479.122843672354
 20
-9.2548469613364
 30
0.0
 11
-479.260503126591
 21
-8.9225064164668
 31
0.0
  0
LINE
  5
   542
  8
0
  6
CONTINUOUS
 62
   150
 10
-479.260503399196
 20
-8.9225068701247
 30
0.0
 11
-479.260503399196
 21
31.7324930267593
 31
0.0
  0
LINE
  5
   543
  8
0
  6
CONTINUOUS
 62
   150
 10
-460.812974759463
 20
-0.613772722192358
 30
0.0
 11
-460.812974759463
 21
19.021474801858
 31
0.0
  0
LINE
  5
   544
  8
0
  6
CONTINUOUS
 62
   150
 10
-450.707974785093
 20
-0.613772722192365
 30
0.0
 11
-450.707974785093
 21
19.021474801858
 31
0.0
  0
LINE
  5
   545
  8
0
  6
CONTINUOUS
 62
     3
 10
-433.435456899825
 20
2.08507691085494
 30
0.0
 11
-434.375456897441
 21
2.08507691085494
 31
0.0
  0
LINE
  5
   546
  8
0
  6
CONTINUOUS
 62
     3
 10
-434.541619577867
 20
2.01625243069957
 30
0.0
 11
-434.375445715348
 21
2.08508215779017
 31
0.0
  0
LINE
  5
   547
  8
0
  6
CONTINUOUS
 62
     3
 10
-434.610457210297
 20
1.85007659928146
 30
0.0
 11
-434.541631069184
 21
2.01624686852828
 31
0.0
  0
LINE
  5
   548
  8
0
  6
CONTINUOUS
 62
     3
 10
-434.610456896845
 20
-3.31992307543599
 30
0.0
 11
-434.610456896845
 21
1.85007691145098
 31
0.0
  0
LINE
  5
   549
  8
0
  6
CONTINUOUS
 62
     3
 10
-434.541630987924
 20
-3.48609346256234
 30
0.0
 11
-434.610457129037
 21
-3.31992319331547
 31
0.0
  0
LINE
  5
   54A
  8
0
  6
CONTINUOUS
 62
     3
 10
-434.375447610999
 20
-3.55492217478269
 30
0.0
 11
-434.541621473518
 21
-3.48609244769207
 31
0.0
  0
LINE
  5
   54B
  8
0
  6
CONTINUOUS
 62
     3
 10
-433.435456899825
 20
-3.55492307483994
 30
0.0
 11
-434.375456897441
 21
-3.55492307483994
 31
0.0
  0
LINE
  5
   54C
  8
0
  6
CONTINUOUS
 62
     3
 10
-432.730456901613
 20
-3.55492307483994
 30
0.0
 11
-433.435456899825
 21
-3.55492307483994
 31
0.0
  0
LINE
  5
   54D
  8
0
  6
CONTINUOUS
 62
     3
 10
-432.730464796478
 20
-3.55492645563584
 30
0.0
 11
-432.564298114108
 21
-3.48609672853598
 31
0.0
  0
LINE
  5
   54E
  8
0
  6
CONTINUOUS
 62
     3
 10
-432.564287678532
 20
-3.48609106462539
 30
0.0
 11
-432.495454365362
 21
-3.31992078902194
 31
0.0
  0
LINE
  5
   54F
  8
0
  6
CONTINUOUS
 62
     3
 10
-432.495456902209
 20
-3.31992307543599
 30
0.0
 11
-432.495456902209
 21
1.85007691145098
 31
0.0
  0
LINE
  5
   550
  8
0
  6
CONTINUOUS
 62
     3
 10
-432.495455019746
 20
1.85007806674941
 30
0.0
 11
-432.564288332916
 21
2.01624834235284
 31
0.0
  0
LINE
  5
   551
  8
0
  6
CONTINUOUS
 62
     3
 10
-432.564296786945
 20
2.01624626107629
 30
0.0
 11
-432.730463469316
 21
2.08507598817616
 31
0.0
  0
LINE
  5
   552
  8
0
  6
CONTINUOUS
 62
     3
 10
-432.730456901613
 20
2.08507691085494
 30
0.0
 11
-433.435456899825
 21
2.08507691085494
 31
0.0
  0
LINE
  5
   553
  8
0
  6
CONTINUOUS
 62
   150
 10
-446.59548555297
 20
20.6880989193105
 30
0.0
 11
-446.59548555297
 21
21.1580989181184
 31
0.0
  0
LINE
  5
   554
  8
0
  6
CONTINUOUS
 62
     3
 10
-446.59548555297
 20
20.922502018716
 30
0.0
 11
-479.260506985012
 21
20.922502018716
 31
0.0
  0
LINE
  5
   555
  8
0
  6
CONTINUOUS
 62
     3
 10
-446.59548555297
 20
20.452502019908
 30
0.0
 11
-479.260506985012
 21
20.452502019908
 31
0.0
  0
LINE
  5
   556
  8
0
  6
CONTINUOUS
 62
   150
 10
-446.59548555297
 20
-2.34190102227697
 30
0.0
 11
-446.59548555297
 21
-1.87190102346906
 31
0.0
  0
LINE
  5
   557
  8
0
  6
CONTINUOUS
 62
     3
 10
-446.59548555297
 20
-2.1074979228715
 30
0.0
 11
-479.260506985012
 21
-2.1074979228715
 31
0.0
  0
LINE
  5
   558
  8
0
  6
CONTINUOUS
 62
     3
 10
-446.59548555297
 20
-2.5774979216794
 30
0.0
 11
-479.260506985012
 21
-2.5774979216794
 31
0.0
  0
LINE
  5
   559
  8
0
  6
CONTINUOUS
 62
     3
 10
-460.812989102724
 20
14.8125020342132
 30
0.0
 11
-479.260506985012
 21
14.8125020342132
 31
0.0
  0
LINE
  5
   55A
  8
0
  6
CONTINUOUS
 62
     3
 10
-460.812989102724
 20
14.3425020354053
 30
0.0
 11
-479.260506985012
 21
14.3425020354053
 31
0.0
  0
LINE
  5
   55B
  8
0
  6
CONTINUOUS
 62
     3
 10
-460.81299268854
 20
4.0025020616313
 30
0.0
 11
-479.260506985012
 21
4.0025020616313
 31
0.0
  0
LINE
  5
   55C
  8
0
  6
CONTINUOUS
 62
     3
 10
-460.81299268854
 20
3.53250206282339
 30
0.0
 11
-479.260506985012
 21
3.53250206282339
 31
0.0
  0
LINE
  5
   55D
  8
0
  6
CONTINUOUS
 62
   150
 10
-446.59548555297
 20
14.5780989348077
 30
0.0
 11
-446.59548555297
 21
15.0480989336156
 31
0.0
  0
LINE
  5
   55E
  8
0
  6
CONTINUOUS
 62
     3
 10
-446.59548555297
 20
14.8125020342132
 30
0.0
 11
-450.707974785093
 21
14.8125020342132
 31
0.0
  0
LINE
  5
   55F
  8
0
  6
CONTINUOUS
 62
     3
 10
-446.59548555297
 20
14.3425020354053
 30
0.0
 11
-450.707974785093
 21
14.3425020354053
 31
0.0
  0
LINE
  5
   560
  8
0
  6
CONTINUOUS
 62
   150
 10
-446.59548555297
 20
3.76809896222582
 30
0.0
 11
-446.59548555297
 21
4.23809896103373
 31
0.0
  0
LINE
  5
   561
  8
0
  6
CONTINUOUS
 62
     3
 10
-446.59548555297
 20
4.0025020616313
 30
0.0
 11
-450.707978370908
 21
4.0025020616313
 31
0.0
  0
LINE
  5
   562
  8
0
  6
CONTINUOUS
 62
     3
 10
-446.59548555297
 20
3.53250206282339
 30
0.0
 11
-450.707978370908
 21
3.53250206282339
 31
0.0
  0
LINE
  5
   563
  8
0
  6
CONTINUOUS
 62
   150
 10
-445.846367640014
 20
-10.5676176308567
 30
0.0
 11
-480.202158232575
 21
-10.5667825232552
 31
0.0
  0
LINE
  5
   564
  8
0
  6
CONTINUOUS
 62
   150
 10
-450.707974785093
 20
18.8142899726716
 30
0.0
 11
-460.812974759463
 21
18.8142899726716
 31
0.0
  0
LINE
  5
   565
  8
0
  6
CONTINUOUS
 62
   150
 10
-450.707974785093
 20
19.021474801858
 30
0.0
 11
-460.812974759463
 21
19.021474801858
 31
0.0
  0
LINE
  5
   566
  8
0
  6
CONTINUOUS
 62
   150
 10
-450.707974785093
 20
-0.37817582278992
 30
0.0
 11
-460.812974759463
 21
-0.37817582278992
 31
0.0
  0
LINE
  5
   567
  8
0
  6
CONTINUOUS
 62
   150
 10
-450.707974785093
 20
-0.298930956633491
 30
0.0
 11
-460.812974759463
 21
-0.298930956633491
 31
0.0
  0
LINE
  5
   568
  8
0
  6
DASHDOT
 62
     3
 10
-401.345764524108
 20
14.1075415489332
 30
0.0
 11
-510.322784953301
 21
14.1075415489332
 31
0.0
  0
INSERT
  5
   569
  8
255
  6
CONTINUOUS
 62
     7
  2
CS5
 10
-410.029479980469
 20
-37.5863952636719
 30
0.0
 41
0.469999998807907
 42
0.469999998807907
 50
3.50835464724173E-15
 43
0.469999998807907
  0
INSERT
  5
   56A
  8
255
  6
CONTINUOUS
 62
     7
  2
CS5
 10
-410.029479980469
 20
64.1564557355951
 30
0.0
 41
0.469999998807907
 42
-0.469999998807907
 50
1.03931199646468E-7
 43
0.469999998807907
  0
INSERT
  5
   56B
  8
255
  6
CONTINUOUS
 62
     7
  2
MOSTRA
 10
-509.734497481615
 20
-18.3519481148313
 30
0.0
 41
0.469999998807907
 42
0.469999998807907
 50
359.999999792138
 43
0.469999998807907
  0
LINE
  5
   56C
  8
0
  6
CONTINUOUS
 62
     3
 10
-481.680992668798
 20
51.9395795694324
 30
0.0
 11
-481.680992668798
 21
74.1500015562353
 31
0.0
  0
LINE
  5
   56D
  8
0
  6
CONTINUOUS
 62
     3
 10
-483.372992843798
 20
51.9395795694324
 30
0.0
 11
-483.372992843798
 21
74.1500015562353
 31
0.0
  0
LINE
  5
   56E
  8
0
  6
CONTINUOUS
 62
     3
 10
-485.06499257057
 20
51.9395795694324
 30
0.0
 11
-485.06499257057
 21
74.1500015562353
 31
0.0
  0
LINE
  5
   56F
  8
0
  6
CONTINUOUS
 62
     3
 10
-486.756992745569
 20
51.9395795694324
 30
0.0
 11
-486.756992745569
 21
74.1500015562353
 31
0.0
  0
LINE
  5
   570
  8
0
  6
CONTINUOUS
 62
     3
 10
-424.152999717405
 20
51.9395795694324
 30
0.0
 11
-424.152999717405
 21
74.1500015562353
 31
0.0
  0
LINE
  5
   571
  8
0
  6
CONTINUOUS
 62
     3
 10
-425.844995410135
 20
51.9395795694324
 30
0.0
 11
-425.844995410135
 21
74.1500015562353
 31
0.0
  0
LINE
  5
   572
  8
0
  6
CONTINUOUS
 62
     3
 10
-427.536998274496
 20
51.9395795694324
 30
0.0
 11
-427.536998274496
 21
74.1500015562353
 31
0.0
  0
LINE
  5
   573
  8
0
  6
CONTINUOUS
 62
     3
 10
-429.228993967226
 20
51.9395795694324
 30
0.0
 11
-429.228993967226
 21
74.1500015562353
 31
0.0
  0
LINE
  5
   574
  8
0
  6
DOT
 62
     7
 10
-422.860489198999
 20
-23.7274583551033
 30
0.0
 11
-422.860489198999
 21
51.9395795694324
 31
0.0
  0
LINE
  5
   575
  8
0
  6
DOT
 62
     7
 10
-410.64048833354
 20
49.4750373158013
 30
0.0
 11
-422.860489198999
 21
49.4750373158013
 31
0.0
  0
LINE
  5
   576
  8
0
  6
DOT
 62
     7
 10
-410.64048833354
 20
-18.5574714761818
 30
0.0
 11
-422.860489198999
 21
-18.5574714761818
 31
0.0
  0
TEXT
  5
   577
  8
0
  6
CONTINUOUS
 62
     1
 10
-429.881987162155
 20
-149.926118887712
 30
0.0
 40
2.00000009267888
  1
M4504 98-11-17
 50
359.999999948034
 41
0.749999868303543
 72
     1
 11
-419.531988501549
 21
-148.926118850708
 31
0.0
 73
     2
  0
TEXT
  5
   578
  8
0
  6
CONTINUOUS
 62
     1
 10
-469.410064698168
 20
-143.815530862351
 30
0.0
 40
2.00000009267888
  1
SCARPELLINI
 50
359.999999948034
 41
0.749999868303543
 72
     2
 11
-453.210066797107
 21
-143.815530876962
 31
0.0
  0
TEXT
  5
   579
  8
0
  6
CONTINUOUS
 62
     1
 10
-455.471982019382
 20
-149.926121891834
 30
0.0
 40
2.00000009267888
  1
M 3076 95-01-16
 50
359.999999948034
 41
0.749999868303543
 72
     1
 11
-444.371983455718
 21
-148.926121855506
 31
0.0
 73
     2
  0
INSERT
  5
   57A
  8
0
  6
CONTINUOUS
 62
     7
  2
*UDIM474
 10
0.0
 20
0.0
 30
0.0
  0
INSERT
  5
   57B
  8
0
  6
CONTINUOUS
 62
     7
  2
*UDIM475
 10
0.0
 20
0.0
 30
0.0
  0
TEXT
  5
   57C
  8
0
  6
CONTINUOUS
 62
     7
 10
-493.369058482391
 20
4.61759806817103
 30
0.0
 40
2.99999994291904
  1
=     =
 50
89.9999999480344
 41
0.916666599088244
 72
     2
 11
-493.369058465455
 21
23.3175963260021
 31
0.0
  0
INSERT
  5
   57D
  8
0
  6
CONTINUOUS
 62
     7
  2
*UDIM476
 10
0.0
 20
0.0
 30
0.0
  0
INSERT
  5
   57E
  8
0
  6
CONTINUOUS
 62
     7
  2
*UDIM477
 10
0.0
 20
0.0
 30
0.0
  0
INSERT
  5
   57F
  8
0
  6
CONTINUOUS
 62
     7
  2
*UDIM478
 10
0.0
 20
0.0
 30
0.0
  0
TEXT
  5
   580
  8
0
  6
CONTINUOUS
 62
     1
 10
-469.410063359436
 20
-135.34877980524
 30
0.0
 40
2.00000009267888
  1
94-05-03 BARCELLA
 50
359.999999948034
 41
0.749999868303543
 72
     2
 11
-444.210066621678
 21
-135.348779827969
 31
0.0
  0
INSERT
  5
   581
  8
0
  6
CONTINUOUS
 62
     7
  2
*UDIM479
 10
0.0
 20
0.0
 30
0.0
  0
INSERT
  5
   582
  8
0
  6
CONTINUOUS
 62
     7
  2
*UDIM480
 10
0.0
 20
0.0
 30
0.0
  0
INSERT
  5
   583
  8
0
  6
CONTINUOUS
 62
     7
  2
*UDIM481
 10
0.0
 20
0.0
 30
0.0
  0
INSERT
  5
   584
  8
0
  6
CONTINUOUS
 62
     7
  2
*UDIM482
 10
0.0
 20
0.0
 30
0.0
  0
INSERT
  5
   585
  8
0
  6
CONTINUOUS
 62
     7
  2
*UDIM483
 10
0.0
 20
0.0
 30
0.0
  0
INSERT
  5
   586
  8
0
  6
CONTINUOUS
 62
     7
  2
*UDIM484
 10
0.0
 20
0.0
 30
0.0
  0
TEXT
  5
   587
  8
0
  6
CONTINUOUS
 62
     7
 10
-457.133797326185
 20
-109.042158844033
 30
0.0
 40
2.99999994291904
  1
Y
 50
359.999999948034
 41
0.916666599088244
 72
     2
 11
-454.933797537997
 21
-109.042158846017
 31
0.0
  0
TEXT
  5
   588
  8
0
  6
CONTINUOUS
 62
     1
 10
-360.44042804919
 20
-160.981748788099
 30
0.0
 40
4.00000018535776
  1
601821/591
 50
359.999999948034
 41
0.937499950975182
 72
     2
 11
-323.690428307209
 21
-160.981748821245
 31
0.0
  0
TEXT
  5
   589
  8
0
  6
CONTINUOUS
 62
     1
 10
-349.354736265217
 20
-152.000168708542
 30
0.0
 40
2.99999994291904
  1
 S5
 50
359.999999948034
 41
0.916666599088244
 72
     2
 11
-341.654736987148
 21
-152.000168715487
 31
0.0
  0
TEXT
  5
   58A
  8
0
  6
CONTINUOUS
 62
     1
 10
-370.889155082619
 20
-133.689897852917
 30
0.0
 40
2.00000009267888
  1
3POLE LOW VOLTAGE M.C.C.B SERIES ISOMAX
 50
359.999999948034
 41
0.749999868303543
 72
     1
 11
-341.789158845559
 21
-132.689897832824
 31
0.0
 73
     2
  0
TEXT
  5
   58B
  8
0
  6
CONTINUOUS
 62
     1
 10
-368.63915524231
 20
-136.689897854946
 30
0.0
 40
2.00000009267888
  1
WITHDRAWABLE VERSION CABLE TERMINALS
 50
359.999999948034
 41
0.749999868303543
 72
     1
 11
-341.789158714425
 21
-135.689897832824
 31
0.0
 73
     2
  0
TEXT
  5
   58C
  8
0
  6
CONTINUOUS
 62
     1
 10
-367.686768098197
 20
-141.760162731114
 30
0.0
 40
2.00000009267888
  1
INTERR.AUTOMATICO SERIE ISOMAX
 50
359.999999948034
 41
0.749999868303543
 72
     1
 11
-345.336770988661
 21
-140.760162704933
 31
0.0
 73
     2
  0
TEXT
  5
   58D
  8
0
  6
CONTINUOUS
 62
     1
 10
-380.436766319051
 20
-144.760162719614
 30
0.0
 40
2.00000009267888
  1
TRIPOL.ESECUZIONE ESTRAIBILE TERMINALI PER CAVI
 50
359.999999948034
 41
0.749999868303543
 72
     1
 11
-345.336770857527
 21
-143.760162704933
 31
0.0
 73
     2
  0
TEXT
  5
   58E
  8
0
  6
CONTINUOUS
 62
     7
 10
-537.2080088909
 20
13.1310918461344
 30
0.0
 40
2.99999994291904
  1
X
 50
359.999999948034
 41
0.916666599088244
 72
     1
 11
-536.108008995453
 21
14.6310918166018
 31
0.0
 73
     2
  0
TEXT
  5
   58F
  8
0
  6
CONTINUOUS
 62
     7
 10
-455.935082842765
 20
107.937788917071
 30
0.0
 40
2.99999994291904
  1
Y
 50
359.999999948034
 41
0.916666599088244
 72
     1
 11
-454.835082947319
 21
109.437788887539
 31
0.0
 73
     2
  0
LINE
  5
   590
  8
0
  6
DASHDOT
 62
     3
 10
-547.228700462685
 20
14.1074772858774
 30
0.0
 11
-676.824148872383
 21
14.1074772858774
 31
0.0
  0
LINE
  5
   591
  8
0
  6
CONTINUOUS
 62
     5
 10
-588.857536283732
 20
74.149955618695
 30
0.0
 11
-635.15252899468
 21
74.149955618695
 31
0.0
  0
LINE
  5
   592
  8
0
  6
CONTINUOUS
 62
     5
 10
-635.622528993487
 20
61.9299717141259
 30
0.0
 11
-635.622528993487
 21
73.6799556198871
 31
0.0
  0
ARC
  5
   593
  8
0
  6
CONTINUOUS
 62
     5
 10
-635.15252899468
 20
73.6799556198871
 30
0.0
 40
0.469999998807907
 50
89.9999999480344
 51
179.999999948034
  0
LINE
  5
   594
  8
0
  6
CONTINUOUS
 62
     5
 10
-635.15252899468
 20
61.459971715318
 30
0.0
 11
-635.15252899468
 21
61.9299717141259
 31
0.0
  0
LINE
  5
   595
  8
0
  6
CONTINUOUS
 62
     5
 10
-635.15252899468
 20
61.9299717141259
 30
0.0
 11
-635.622528993487
 21
61.9299717141259
 31
0.0
  0
LINE
  5
   596
  8
0
  6
CONTINUOUS
 62
     5
 10
-588.857535835504
 20
-47.5800136648548
 30
0.0
 11
-635.15252899468
 21
-47.5800136648548
 31
0.0
  0
LINE
  5
   597
  8
0
  6
CONTINUOUS
 62
     5
 10
-635.622528993487
 20
-47.1100136660469
 30
0.0
 11
-635.622528993487
 21
-35.5950208668842
 31
0.0
  0
ARC
  5
   598
  8
0
  6
CONTINUOUS
 62
     5
 10
-635.15252899468
 20
-47.1100136660469
 30
0.0
 40
0.469999998807907
 50
179.999999948034
 51
269.999999948034
  0
LINE
  5
   599
  8
0
  6
CONTINUOUS
 62
     5
 10
-635.15252899468
 20
-35.5950208668842
 30
0.0
 11
-635.622528993487
 21
-35.5950208668842
 31
0.0
  0
LINE
  5
   59A
  8
0
  6
CONTINUOUS
 62
     5
 10
-635.15252899468
 20
-35.5950208668842
 30
0.0
 11
-635.15252899468
 21
-35.1250208680763
 31
0.0
  0
LINE
  5
   59B
  8
0
  6
CONTINUOUS
 62
     3
 10
-568.64752199173
 20
71.6589613623178
 30
0.0
 11
-570.527514815331
 21
71.6589613623178
 31
0.0
  0
LINE
  5
   59C
  8
0
  6
CONTINUOUS
 62
     7
 10
-565.357514828444
 20
71.6589613623178
 30
0.0
 11
-568.64752199173
 21
71.6589613623178
 31
0.0
  0
LINE
  5
   59D
  8
0
  6
CONTINUOUS
 62
     3
 10
-568.64752199173
 20
57.3708925509013
 30
0.0
 11
-570.527514815331
 21
57.3708925509013
 31
0.0
  0
LINE
  5
   59E
  8
0
  6
CONTINUOUS
 62
     3
 10
-568.64752199173
 20
56.2899269774712
 30
0.0
 11
-568.64752199173
 21
57.3708925509013
 31
0.0
  0
LINE
  5
   59F
  8
0
  6
CONTINUOUS
 62
     7
 10
-565.357514828444
 20
57.3708925509013
 30
0.0
 11
-568.64752199173
 21
57.3708925509013
 31
0.0
  0
LINE
  5
   5A0
  8
0
  6
CONTINUOUS
 62
     3
 10
-568.64752199173
 20
-45.0890498161757
 30
0.0
 11
-570.527514815331
 21
-45.0890498161757
 31
0.0
  0
LINE
  5
   5A1
  8
0
  6
CONTINUOUS
 62
     3
 10
-568.64752199173
 20
-46.1700153896059
 30
0.0
 11
-568.64752199173
 21
-45.0890498161757
 31
0.0
  0
LINE
  5
   5A2
  8
0
  6
CONTINUOUS
 62
     7
 10
-565.357514828444
 20
-45.0890498161757
 30
0.0
 11
-568.64752199173
 21
-45.0890498161757
 31
0.0
  0
LINE
  5
   5A3
  8
0
  6
CONTINUOUS
 62
     7
 10
-565.357514828444
 20
-45.0890498161757
 30
0.0
 11
-565.357514828444
 21
-30.8009810047593
 31
0.0
  0
LINE
  5
   5A4
  8
0
  6
CONTINUOUS
 62
     3
 10
-565.357566761694
 20
-46.16998341796
 30
0.0
 11
-564.887566778973
 21
-45.6999834352396
 31
0.0
  0
LINE
  5
   5A5
  8
0
  6
CONTINUOUS
 62
     3
 10
-565.357514828444
 20
-46.1700153896059
 30
0.0
 11
-568.64752199173
 21
-46.1700153896059
 31
0.0
  0
LINE
  5
   5A6
  8
0
  6
CONTINUOUS
 62
     3
 10
-564.887514829636
 20
-45.6999314859021
 30
0.0
 11
-564.887514829636
 21
-30.1900237148973
 31
0.0
  0
LINE
  5
   5A7
  8
0
  6
CONTINUOUS
 62
     3
 10
-568.64752199173
 20
-30.8009810047593
 30
0.0
 11
-570.527514815331
 21
-30.8009810047593
 31
0.0
  0
LINE
  5
   5A8
  8
0
  6
CONTINUOUS
 62
     3
 10
-568.64752199173
 20
-30.8009810047593
 30
0.0
 11
-568.64752199173
 21
-29.7200154313291
 31
0.0
  0
LINE
  5
   5A9
  8
0
  6
CONTINUOUS
 62
     3
 10
-565.357514828444
 20
-29.7200154313291
 30
0.0
 11
-568.64752199173
 21
-29.7200154313291
 31
0.0
  0
LINE
  5
   5AA
  8
0
  6
CONTINUOUS
 62
     3
 10
-564.887481853544
 20
-30.190056690989
 30
0.0
 11
-565.357481836265
 21
-29.7200567082685
 31
0.0
  0
LINE
  5
   5AB
  8
0
  6
CONTINUOUS
 62
     7
 10
-565.357514828444
 20
-30.8009810047593
 30
0.0
 11
-568.64752199173
 21
-30.8009810047593
 31
0.0
  0
LINE
  5
   5AC
  8
0
  6
CONTINUOUS
 62
     2
 10
-588.857493253728
 20
52.7649341580427
 30
0.0
 11
-588.857493253728
 21
62.4538074244838
 31
0.0
  0
LINE
  5
   5AD
  8
0
  6
CONTINUOUS
 62
     7
 10
-621.052521858811
 20
61.224934136585
 30
0.0
 11
-622.697521854639
 21
61.224934136585
 31
0.0
  0
LINE
  5
   5AE
  8
0
  6
CONTINUOUS
 62
     7
 10
-621.052471657062
 20
52.9999300594163
 30
0.0
 11
-621.052471657062
 21
61.2249300385547
 31
0.0
  0
LINE
  5
   5AF
  8
0
  6
CONTINUOUS
 62
     7
 10
-588.85752194047
 20
53.9399341550625
 30
0.0
 11
-590.737521935701
 21
53.9399341550625
 31
0.0
  0
LINE
  5
   5B0
  8
0
  6
CONTINUOUS
 62
     7
 10
-590.737523130801
 20
53.9399281877203
 30
0.0
 11
-590.737568192608
 21
71.6589559118617
 31
0.0
  0
LINE
  5
   5B1
  8
0
  6
CONTINUOUS
 62
     2
 10
-588.622536284328
 20
52.7649341580427
 30
0.0
 11
-588.85752194047
 21
52.7649341580427
 31
0.0
  0
LINE
  5
   5B2
  8
0
  6
CONTINUOUS
 62
     2
 10
-587.917536286116
 20
60.2849341389692
 30
0.0
 11
-588.857536283732
 21
60.2849341389692
 31
0.0
  0
LINE
  5
   5B3
  8
0
  6
CONTINUOUS
 62
     2
 10
-587.917536286116
 20
65.4549341258562
 30
0.0
 11
-588.857536283732
 21
65.4549341258562
 31
0.0
  0
LINE
  5
   5B4
  8
0
  6
CONTINUOUS
 62
     2
 10
-587.917536286116
 20
64.1914075177328
 30
0.0
 11
-588.857536283732
 21
64.1914075177328
 31
0.0
  0
LINE
  5
   5B5
  8
0
  6
CONTINUOUS
 62
     2
 10
-587.917536286116
 20
62.4538074244838
 30
0.0
 11
-588.857536283732
 21
62.4538074244838
 31
0.0
  0
LINE
  5
   5B6
  8
0
  6
CONTINUOUS
 62
     7
 10
-622.697521854639
 20
60.9899430299867
 30
0.0
 11
-622.697521854639
 21
61.4599502004255
 31
0.0
  0
LINE
  5
   5B7
  8
0
  6
CONTINUOUS
 62
     7
 10
-633.131520393848
 20
61.4599502004255
 30
0.0
 11
-633.272521827817
 21
61.4599502004255
 31
0.0
  0
LINE
  5
   5B8
  8
0
  6
CONTINUOUS
 62
     7
 10
-621.287521858215
 20
60.9899573732484
 30
0.0
 11
-622.697521854639
 21
60.9899573732484
 31
0.0
  0
LINE
  5
   5B9
  8
0
  6
CONTINUOUS
 62
     7
 10
-621.287521858215
 20
49.474948509649
 30
0.0
 11
-621.287521858215
 21
60.9899573732484
 31
0.0
  0
LINE
  5
   5BA
  8
0
  6
CONTINUOUS
 62
     7
 10
-633.131506050586
 20
49.474948509649
 30
0.0
 11
-633.131506050586
 21
61.4599443194164
 31
0.0
  0
LINE
  5
   5BB
  8
0
  6
CONTINUOUS
 62
     2
 10
-588.857493253728
 20
71.6589559118617
 30
0.0
 11
-633.131527565479
 21
71.6589559118617
 31
0.0
  0
LINE
  5
   5BC
  8
0
  6
CONTINUOUS
 62
     2
 10
-633.131477364057
 20
61.4599469616714
 30
0.0
 11
-633.131477364057
 21
71.6589526731077
 31
0.0
  0
LINE
  5
   5BD
  8
0
  6
CONTINUOUS
 62
     7
 10
-622.697521854639
 20
61.4599573720563
 30
0.0
 11
-622.697521854639
 21
71.6589559118617
 31
0.0
  0
LINE
  5
   5BE
  8
0
  6
CONTINUOUS
 62
     7
 10
-635.622528993487
 20
-18.2050137393606
 30
0.0
 11
-635.622528993487
 21
-16.3250620809042
 31
0.0
  0
LINE
  5
   5BF
  8
0
  6
CONTINUOUS
 62
     7
 10
-635.622528993487
 20
49.474948509649
 30
0.0
 11
-635.622528993487
 21
61.459971715318
 31
0.0
  0
LINE
  5
   5C0
  8
0
  6
CONTINUOUS
 62
     7
 10
-633.272528999448
 20
61.459971715318
 30
0.0
 11
-635.622528993487
 21
61.459971715318
 31
0.0
  0
LINE
  5
   5C1
  8
0
  6
CONTINUOUS
 62
     7
 10
-633.272528999448
 20
-18.2050137393606
 30
0.0
 11
-635.622528993487
 21
-18.2050137393606
 31
0.0
  0
LINE
  5
   5C2
  8
0
  6
CONTINUOUS
 62
   218
 10
-588.857535835504
 20
-45.0890140297546
 30
0.0
 11
-633.131527117252
 21
-45.0890140297546
 31
0.0
  0
LINE
  5
   5C3
  8
0
  6
CONTINUOUS
 62
   218
 10
-633.131530881767
 20
-33.2450208732656
 30
0.0
 11
-633.272528999025
 21
-33.2450192182999
 31
0.0
  0
LINE
  5
   5C4
  8
0
  6
CONTINUOUS
 62
   218
 10
-633.13153473711
 20
-35.1250208680763
 30
0.0
 11
-635.15252899468
 21
-35.1250208680763
 31
0.0
  0
LINE
  5
   5C5
  8
0
  6
CONTINUOUS
 62
   218
 10
-633.13153473711
 20
-45.0890122368469
 30
0.0
 11
-633.13153473711
 21
-33.2450137012138
 31
0.0
  0
LINE
  5
   5C6
  8
0
  6
CONTINUOUS
 62
   218
 10
-633.13153473711
 20
-33.2450137012138
 30
0.0
 11
-633.13153473711
 21
-18.2050602832281
 31
0.0
  0
LINE
  5
   5C7
  8
0
  6
CONTINUOUS
 62
     7
 10
-633.13153473711
 20
-18.6750137381687
 30
0.0
 11
-633.272528999448
 21
-18.6750137381687
 31
0.0
  0
LINE
  5
   5C8
  8
0
  6
CONTINUOUS
 62
   218
 10
-587.917536285963
 20
-30.4250208795321
 30
0.0
 11
-588.857535835331
 21
-30.4250137079013
 31
0.0
  0
LINE
  5
   5C9
  8
0
  6
CONTINUOUS
 62
   218
 10
-588.857535835504
 20
-47.5800136648548
 30
0.0
 11
-588.857535835504
 21
-30.425020879997
 31
0.0
  0
LINE
  5
   5CA
  8
0
  6
CONTINUOUS
 62
   218
 10
-587.917536286116
 20
-35.4775208671822
 30
0.0
 11
-588.857536283732
 21
-35.4775208671822
 31
0.0
  0
LINE
  5
   5CB
  8
0
  6
CONTINUOUS
 62
   218
 10
-587.917536286116
 20
-39.5747887610717
 30
0.0
 11
-588.857536283732
 21
-39.5747887610717
 31
0.0
  0
LINE
  5
   5CC
  8
0
  6
CONTINUOUS
 62
   218
 10
-587.917536286116
 20
-38.4218841104467
 30
0.0
 11
-588.857536283732
 21
-38.4218841104467
 31
0.0
  0
LINE
  5
   5CD
  8
0
  6
CONTINUOUS
 62
     7
 10
-633.272528999448
 20
-18.4400137387645
 30
0.0
 11
-635.622528993487
 21
-18.4400137387645
 31
0.0
  0
LINE
  5
   5CE
  8
0
  6
CONTINUOUS
 62
     7
 10
-633.272528999448
 20
-34.8900136970413
 30
0.0
 11
-635.622528993487
 21
-34.8900136970413
 31
0.0
  0
LINE
  5
   5CF
  8
0
  6
CONTINUOUS
 62
     7
 10
-635.622528993487
 20
-34.8900136970413
 30
0.0
 11
-635.622528993487
 21
-18.4400137387645
 31
0.0
  0
LINE
  5
   5D0
  8
0
  6
CONTINUOUS
 62
     7
 10
-634.682528995872
 20
-34.8900136970413
 30
0.0
 11
-634.682528995872
 21
-18.4400137387645
 31
0.0
  0
LINE
  5
   5D1
  8
0
  6
CONTINUOUS
 62
     7
 10
-633.272528999448
 20
-34.8900136970413
 30
0.0
 11
-633.272528999448
 21
-18.4400137387645
 31
0.0
  0
LINE
  5
   5D2
  8
0
  6
CONTINUOUS
 62
     2
 10
-588.857493253728
 20
64.1914075177328
 30
0.0
 11
-588.857493253728
 21
74.149955618695
 31
0.0
  0
LINE
  5
   5D3
  8
0
  6
CONTINUOUS
 62
     7
 10
-587.917536286116
 20
60.2849341389692
 30
0.0
 11
-587.917536286116
 21
65.4549341258562
 31
0.0
  0
LINE
  5
   5D4
  8
0
  6
CONTINUOUS
 62
     7
 10
-587.917536286116
 20
-39.5747887610723
 30
0.0
 11
-587.917536286116
 21
-35.4775208671829
 31
0.0
  0
LINE
  5
   5D5
  8
0
  6
CONTINUOUS
 62
     7
 10
-565.357514828444
 20
57.3708925509013
 30
0.0
 11
-565.357514828444
 21
71.6589613623178
 31
0.0
  0
LINE
  5
   5D6
  8
0
  6
CONTINUOUS
 62
     7
 10
-587.917536286116
 20
-37.9450512686217
 30
0.0
 11
-587.917536286116
 21
-18.5575620752418
 31
0.0
  0
LINE
  5
   5D7
  8
0
  6
CONTINUOUS
 62
     7
 10
-587.917536286116
 20
-46.405051247164
 30
0.0
 11
-587.917536286116
 21
-45.0890283012832
 31
0.0
  0
LINE
  5
   5D8
  8
0
  6
CONTINUOUS
 62
     7
 10
-587.917536286116
 20
71.6589685339486
 30
0.0
 11
-587.917536286116
 21
72.9749556216752
 31
0.0
  0
LINE
  5
   5D9
  8
0
  6
CONTINUOUS
 62
     7
 10
-587.917536286116
 20
49.474948509649
 30
0.0
 11
-587.917536286116
 21
64.5149699863946
 31
0.0
  0
LINE
  5
   5DA
  8
0
  6
CONTINUOUS
 62
     7
 10
-570.527514815331
 20
71.6589470190561
 30
0.0
 11
-570.527514815331
 21
72.9749556216752
 31
0.0
  0
LINE
  5
   5DB
  8
0
  6
CONTINUOUS
 62
     7
 10
-570.527514815331
 20
-46.4050584187949
 30
0.0
 11
-570.527514815331
 21
-45.0890386105025
 31
0.0
  0
LINE
  5
   5DC
  8
0
  6
CONTINUOUS
 62
     7
 10
-570.527514815331
 20
-37.9450656118834
 30
0.0
 11
-570.527514815331
 21
-30.8009810047593
 31
0.0
  0
LINE
  5
   5DD
  8
0
  6
CONTINUOUS
 62
     7
 10
-564.652514830232
 20
41.4849557015455
 30
0.0
 11
-564.652514830232
 21
48.5349556836641
 31
0.0
  0
LINE
  5
   5DE
  8
0
  6
CONTINUOUS
 62
     7
 10
-564.652514830232
 20
-21.9650154509986
 30
0.0
 11
-564.652514830232
 21
-14.91501546888
 31
0.0
  0
LINE
  5
   5DF
  8
0
  6
CONTINUOUS
 62
     7
 10
-565.592514827848
 20
-2.22506570248242
 30
0.0
 11
-566.532515881751
 21
-2.22506570248242
 31
0.0
  0
LINE
  5
   5E0
  8
0
  6
CONTINUOUS
 62
     7
 10
-565.592514827848
 20
1.06492711754208
 30
0.0
 11
-566.532516270908
 21
1.06492711754208
 31
0.0
  0
LINE
  5
   5E1
  8
0
  6
CONTINUOUS
 62
     7
 10
-570.527514815331
 20
71.6589613623178
 30
0.0
 11
-587.917536286116
 21
71.6589613623178
 31
0.0
  0
LINE
  5
   5E2
  8
0
  6
CONTINUOUS
 62
     7
 10
-587.917536286116
 20
64.5149556431329
 30
0.0
 11
-587.917536286116
 21
71.6589613623178
 31
0.0
  0
LINE
  5
   5E3
  8
0
  6
CONTINUOUS
 62
     7
 10
-570.527514815331
 20
64.5149628147638
 30
0.0
 11
-570.527514815331
 21
71.6589613623178
 31
0.0
  0
LINE
  5
   5E4
  8
0
  6
CONTINUOUS
 62
     7
 10
-570.527514815331
 20
-45.0890368175948
 30
0.0
 11
-587.917536286116
 21
-45.0890368175948
 31
0.0
  0
LINE
  5
   5E5
  8
0
  6
CONTINUOUS
 62
     7
 10
-587.917536286116
 20
-45.0890368175948
 30
0.0
 11
-587.917536286116
 21
-37.9450584402525
 31
0.0
  0
LINE
  5
   5E6
  8
0
  6
CONTINUOUS
 62
     3
 10
-564.887514829636
 20
-14.4450513282263
 30
0.0
 11
-565.592514827848
 21
-14.4450513282263
 31
0.0
  0
LINE
  5
   5E7
  8
0
  6
CONTINUOUS
 62
     3
 10
-564.887514829636
 20
-22.4350513079607
 30
0.0
 11
-565.592514827848
 21
-22.4350513079607
 31
0.0
  0
LINE
  5
   5E8
  8
0
  6
CONTINUOUS
 62
     3
 10
-564.887514829636
 20
-27.6050512948477
 30
0.0
 11
-565.592514827848
 21
-27.6050512948477
 31
0.0
  0
LINE
  5
   5E9
  8
0
  6
CONTINUOUS
 62
     3
 10
-564.887514829636
 20
54.1749484977281
 30
0.0
 11
-565.592514827848
 21
54.1749484977281
 31
0.0
  0
LINE
  5
   5EA
  8
0
  6
CONTINUOUS
 62
     3
 10
-564.887514829636
 20
49.0049485108411
 30
0.0
 11
-565.592514827848
 21
49.0049485108411
 31
0.0
  0
LINE
  5
   5EB
  8
0
  6
CONTINUOUS
 62
     3
 10
-564.887514829636
 20
41.0149485311067
 30
0.0
 11
-565.592514827848
 21
41.0149485311067
 31
0.0
  0
LINE
  5
   5EC
  8
0
  6
CONTINUOUS
 62
     3
 10
-565.592514827848
 20
48.5349556836641
 30
0.0
 11
-565.592514827848
 21
54.1749484977281
 31
0.0
  0
LINE
  5
   5ED
  8
0
  6
CONTINUOUS
 62
     3
 10
-565.592514827848
 20
-14.9149796107258
 30
0.0
 11
-565.592514827848
 21
41.4849700448071
 31
0.0
  0
LINE
  5
   5EE
  8
0
  6
CONTINUOUS
 62
     3
 10
-565.592514827848
 20
-27.6050512948477
 30
0.0
 11
-565.592514827848
 21
-21.9649795928444
 31
0.0
  0
LINE
  5
   5EF
  8
0
  6
CONTINUOUS
 62
     3
 10
-564.887514829636
 20
-27.6050512948477
 30
0.0
 11
-564.887514829636
 21
-21.9650226226295
 31
0.0
  0
LINE
  5
   5F0
  8
0
  6
CONTINUOUS
 62
     3
 10
-564.887514829636
 20
-14.9150298121417
 30
0.0
 11
-564.887514829636
 21
41.4849055001296
 31
0.0
  0
LINE
  5
   5F1
  8
0
  6
CONTINUOUS
 62
     3
 10
-564.887514829636
 20
48.5349198255099
 30
0.0
 11
-564.887514829636
 21
54.1749484977281
 31
0.0
  0
LINE
  5
   5F2
  8
0
  6
CONTINUOUS
 62
     3
 10
-564.887514829636
 20
56.7599352610393
 30
0.0
 11
-564.887514829636
 21
72.2698430320441
 31
0.0
  0
LINE
  5
   5F3
  8
0
  6
CONTINUOUS
 62
     3
 10
-568.64752199173
 20
71.6589613623178
 30
0.0
 11
-568.64752199173
 21
72.7399269357479
 31
0.0
  0
LINE
  5
   5F4
  8
0
  6
CONTINUOUS
 62
     7
 10
-564.652514830232
 20
48.5349556836641
 30
0.0
 11
-566.532521885906
 21
48.5349556836641
 31
0.0
  0
LINE
  5
   5F5
  8
0
  6
CONTINUOUS
 62
     7
 10
-564.652514830232
 20
41.4849557015455
 30
0.0
 11
-566.532521051996
 21
41.4849557015455
 31
0.0
  0
LINE
  5
   5F6
  8
0
  6
CONTINUOUS
 62
     7
 10
-564.652514830232
 20
-14.91501546888
 30
0.0
 11
-566.532520040938
 21
-14.91501546888
 31
0.0
  0
LINE
  5
   5F7
  8
0
  6
CONTINUOUS
 62
     7
 10
-564.652514830232
 20
-21.9650154509986
 30
0.0
 11
-570.527514815331
 21
-21.9650154509986
 31
0.0
  0
LINE
  5
   5F8
  8
0
  6
CONTINUOUS
 62
     3
 10
-564.887566778973
 20
72.2698949813817
 30
0.0
 11
-565.357566761694
 21
72.7398949641021
 31
0.0
  0
LINE
  5
   5F9
  8
0
  6
CONTINUOUS
 62
     3
 10
-565.357481836265
 20
56.2899682544105
 30
0.0
 11
-564.887481853544
 21
56.759968237131
 31
0.0
  0
LINE
  5
   5FA
  8
0
  6
CONTINUOUS
 62
     3
 10
-565.357514828444
 20
72.7399269357479
 30
0.0
 11
-568.64752199173
 21
72.7399269357479
 31
0.0
  0
LINE
  5
   5FB
  8
0
  6
CONTINUOUS
 62
     3
 10
-565.357514828444
 20
56.2899269774712
 30
0.0
 11
-568.64752199173
 21
56.2899269774712
 31
0.0
  0
LINE
  5
   5FC
  8
0
  6
DASHDOT
 62
     7
 10
-564.652514830232
 20
-14.91501546888
 30
0.0
 11
-564.652514830232
 21
41.4849557015454
 31
0.0
  0
LINE
  5
   5FD
  8
0
  6
DASHDOT
 62
     7
 10
-564.652514830232
 20
-75.013649929302
 30
0.0
 11
-564.652514830232
 21
-21.9650154509986
 31
0.0
  0
LINE
  5
   5FE
  8
0
  6
DASHDOT
 62
     7
 10
-564.652514830232
 20
48.5349556836641
 30
0.0
 11
-564.652514830232
 21
103.033672158958
 31
0.0
  0
LINE
  5
   5FF
  8
0
  6
DASHDOT
 62
     7
 10
-563.242514833808
 20
-75.0841499291231
 30
0.0
 11
-563.242514833808
 21
103.004896648826
 31
0.0
  0
LINE
  5
   600
  8
0
  6
CONTINUOUS
 62
     7
 10
-570.527514815331
 20
57.3708925509013
 30
0.0
 11
-570.527514815331
 21
64.5149269566095
 31
0.0
  0
LINE
  5
   601
  8
0
  6
CONTINUOUS
 62
     7
 10
-570.527514815331
 20
49.474948509649
 30
0.0
 11
-570.527514815331
 21
57.3708925509013
 31
0.0
  0
LINE
  5
   602
  8
0
  6
CONTINUOUS
 62
     7
 10
-570.527514815331
 20
-21.9650154509986
 30
0.0
 11
-570.527514815331
 21
-16.3251688515896
 31
0.0
  0
LINE
  5
   603
  8
0
  6
CONTINUOUS
 62
     7
 10
-570.527514815331
 20
-30.8009810047593
 30
0.0
 11
-570.527514815331
 21
-21.9650154509986
 31
0.0
  0
LINE
  5
   604
  8
0
  6
CONTINUOUS
 62
     7
 10
-570.527514815331
 20
-45.0890498161757
 30
0.0
 11
-570.527514815331
 21
-37.9450584402525
 31
0.0
  0
LINE
  5
   605
  8
0
  6
DASHDOT
 62
     7
 10
-556.7174202582
 20
45.0099556926047
 30
0.0
 11
-573.079367925105
 21
45.0099556926047
 31
0.0
  0
LINE
  5
   606
  8
0
  6
DASHDOT
 62
     7
 10
-556.34716649398
 20
-18.4400441464627
 30
0.0
 11
-574.139690606998
 21
-18.4400441464627
 31
0.0
  0
LINE
  5
   607
  8
0
  6
CONTINUOUS
 62
   130
 10
-648.782483241994
 20
-11.1550674683593
 30
0.0
 11
-648.782507446249
 21
-9.27505492277367
 31
0.0
  0
LINE
  5
   608
  8
0
  6
CONTINUOUS
 62
   130
 10
-648.782507446173
 20
-16.3250656634517
 30
0.0
 11
-648.782484138373
 21
-14.4450728398509
 31
0.0
  0
LINE
  5
   609
  8
0
  6
CONTINUOUS
 62
   130
 10
-586.97753609299
 20
-16.3251212047487
 30
0.0
 11
-587.917536090606
 21
-16.3250620387943
 31
0.0
  0
LINE
  5
   60A
  8
0
  6
CONTINUOUS
 62
   130
 10
-590.267543451786
 20
-16.3250620809042
 30
0.0
 11
-646.432507451177
 21
-16.3250620809042
 31
0.0
  0
LINE
  5
   60B
  8
0
  6
CONTINUOUS
 62
   130
 10
-566.532521997094
 20
49.474948509649
 30
0.0
 11
-586.977543460131
 21
49.474948509649
 31
0.0
  0
LINE
  5
   60C
  8
0
  6
CONTINUOUS
 62
   130
 10
-566.53252199651
 20
-16.3251804127241
 30
0.0
 11
-586.977536287915
 21
-16.3251212467708
 31
0.0
  0
LINE
  5
   60D
  8
0
  6
CONTINUOUS
 62
   130
 10
-566.532521997027
 20
-16.3251804127722
 30
0.0
 11
-566.532514825396
 21
-11.1550782301457
 31
0.0
  0
LINE
  5
   60E
  8
0
  6
CONTINUOUS
 62
     7
 10
-606.247514724732
 20
34.4349557194269
 30
0.0
 11
-648.782507445216
 21
34.4349557194269
 31
0.0
  0
LINE
  5
   60F
  8
0
  6
CONTINUOUS
 62
     7
 10
-606.247514724732
 20
20.3349306544817
 30
0.0
 11
-648.782507445216
 21
20.3349306544817
 31
0.0
  0
LINE
  5
   610
  8
0
  6
CONTINUOUS
 62
   130
 10
-648.782484137416
 20
-14.4450728431171
 30
0.0
 11
-648.782483240963
 21
-11.1550674727387
 31
0.0
  0
LINE
  5
   611
  8
0
  6
CONTINUOUS
 62
   130
 10
-586.977543460131
 20
49.474948509649
 30
0.0
 11
-648.782507445216
 21
49.474948509649
 31
0.0
  0
LINE
  5
   612
  8
0
  6
CONTINUOUS
 62
   130
 10
-648.782507445216
 20
34.4349557194269
 30
0.0
 11
-648.782507445216
 21
49.474948509649
 31
0.0
  0
LINE
  5
   613
  8
0
  6
CONTINUOUS
 62
     7
 10
-600.725043425106
 20
-14.4450441565573
 30
0.0
 11
-588.857536283576
 21
-14.4450226416649
 31
0.0
  0
LINE
  5
   614
  8
0
  6
CONTINUOUS
 62
     7
 10
-619.936264689999
 20
-14.4450549140368
 30
0.0
 11
-602.605043420481
 21
-14.445044156591
 31
0.0
  0
LINE
  5
   615
  8
0
  6
CONTINUOUS
 62
     7
 10
-646.902456352109
 20
-14.445071050206
 30
0.0
 11
-621.816263788784
 21
-14.445054914037
 31
0.0
  0
LINE
  5
   616
  8
0
  6
CONTINUOUS
 62
     7
 10
-646.90245186984
 20
-12.3300674697551
 30
0.0
 11
-621.81626289233
 21
-12.3300513335855
 31
0.0
  0
LINE
  5
   617
  8
0
  6
CONTINUOUS
 62
     7
 10
-619.936262897091
 20
-12.3300495406778
 30
0.0
 11
-602.605039834665
 21
-12.3300387832319
 31
0.0
  0
LINE
  5
   618
  8
0
  6
CONTINUOUS
 62
     7
 10
-600.725039839429
 20
-12.3300369903245
 30
0.0
 11
-588.857536283714
 21
-12.3300298186936
 31
0.0
  0
LINE
  5
   619
  8
0
  6
CONTINUOUS
 62
     7
 10
-646.90245635213
 20
-14.4450710501446
 30
0.0
 11
-646.902452766314
 21
-12.3300674696936
 31
0.0
  0
LINE
  5
   61A
  8
0
  6
CONTINUOUS
 62
     7
 10
-588.857536283732
 20
-14.445022641703
 30
0.0
 11
-588.857536283732
 21
-12.3300298186982
 31
0.0
  0
LINE
  5
   61B
  8
0
  6
CONTINUOUS
 62
     7
 10
-600.725043425211
 20
-14.4450441565229
 30
0.0
 11
-600.725039839395
 21
-12.3300262328102
 31
0.0
  0
LINE
  5
   61C
  8
0
  6
CONTINUOUS
 62
     7
 10
-602.605043420445
 20
-14.445044156529
 30
0.0
 11
-602.60503983463
 21
-12.330028025724
 31
0.0
  0
LINE
  5
   61D
  8
0
  6
CONTINUOUS
 62
     7
 10
-619.936264690006
 20
-14.4450549140236
 30
0.0
 11
-619.936262897098
 21
-12.3300387832186
 31
0.0
  0
LINE
  5
   61E
  8
0
  6
CONTINUOUS
 62
     7
 10
-621.816263788784
 20
-14.4450549140251
 30
0.0
 11
-621.816261995877
 21
-12.3300405761279
 31
0.0
  0
LINE
  5
   61F
  8
0
  6
CONTINUOUS
 62
   130
 10
-633.742508155704
 20
-18.2050602832281
 30
0.0
 11
-633.742508155704
 21
-16.3250602879965
 31
0.0
  0
LINE
  5
   620
  8
0
  6
CONTINUOUS
 62
   130
 10
-631.862507936358
 20
-18.2050602832281
 30
0.0
 11
-631.862507936358
 21
-16.3250602879965
 31
0.0
  0
LINE
  5
   621
  8
0
  6
CONTINUOUS
 62
   130
 10
-631.862507936358
 20
-18.2050602832281
 30
0.0
 11
-633.742508155704
 21
-18.2050602832281
 31
0.0
  0
LINE
  5
   622
  8
0
  6
CONTINUOUS
 62
   130
 10
-594.380007583201
 20
-18.2050351825202
 30
0.0
 11
-594.380007583201
 21
-16.3250692525351
 31
0.0
  0
LINE
  5
   623
  8
0
  6
CONTINUOUS
 62
   130
 10
-592.500007587969
 20
-18.2050351825202
 30
0.0
 11
-592.500007587969
 21
-16.3250692525351
 31
0.0
  0
LINE
  5
   624
  8
0
  6
CONTINUOUS
 62
   130
 10
-592.500007587969
 20
-18.2050351825202
 30
0.0
 11
-594.380007583201
 21
-18.2050351825202
 31
0.0
  0
LINE
  5
   625
  8
0
  6
CONTINUOUS
 62
   130
 10
-646.432507451177
 20
-18.5575620752418
 30
0.0
 11
-646.432507451177
 21
-17.382562078222
 31
0.0
  0
LINE
  5
   626
  8
0
  6
CONTINUOUS
 62
   130
 10
-648.782507445216
 20
-18.5575620752418
 30
0.0
 11
-648.782507445216
 21
-16.3250656667196
 31
0.0
  0
LINE
  5
   627
  8
0
  6
CONTINUOUS
 62
   130
 10
-646.432507451177
 20
-18.5575620752418
 30
0.0
 11
-648.782507445216
 21
-18.5575620752418
 31
0.0
  0
LINE
  5
   628
  8
0
  6
CONTINUOUS
 62
   130
 10
-646.432507451177
 20
-17.382562078222
 30
0.0
 11
-646.432507451177
 21
-16.3250620809042
 31
0.0
  0
LINE
  5
   629
  8
0
  6
CONTINUOUS
 62
   130
 10
-590.267550623417
 20
-18.5575620752418
 30
0.0
 11
-590.267550623417
 21
-17.382562078222
 31
0.0
  0
LINE
  5
   62A
  8
0
  6
CONTINUOUS
 62
   130
 10
-587.917550629377
 20
-18.5575620752418
 30
0.0
 11
-590.267550623417
 21
-18.5575620752418
 31
0.0
  0
LINE
  5
   62B
  8
0
  6
CONTINUOUS
 62
   130
 10
-587.917550628378
 20
-18.5575620744563
 30
0.0
 11
-587.917536285116
 21
-16.3250620801187
 31
0.0
  0
LINE
  5
   62C
  8
0
  6
CONTINUOUS
 62
   130
 10
-590.267550622358
 20
-17.3825620772928
 30
0.0
 11
-590.267543450727
 21
-16.3250692516058
 31
0.0
  0
LINE
  5
   62D
  8
0
  6
CONTINUOUS
 62
     7
 10
-645.49251097784
 20
39.8399638157588
 30
0.0
 11
-646.902511005238
 21
41.2499638431564
 31
0.0
  0
LINE
  5
   62E
  8
0
  6
CONTINUOUS
 62
   130
 10
-648.782507445216
 20
-9.27505492715477
 30
0.0
 11
-648.782507445216
 21
20.334941411928
 31
0.0
  0
LINE
  5
   62F
  8
0
  6
CONTINUOUS
 62
     7
 10
-606.247514724732
 20
20.3349306544817
 30
0.0
 11
-606.247514724732
 21
34.4349557194269
 31
0.0
  0
LINE
  5
   630
  8
0
  6
CONTINUOUS
 62
     7
 10
-641.497507911921
 20
34.1999557200229
 30
0.0
 11
-641.497507911921
 21
34.4349557194269
 31
0.0
  0
LINE
  5
   631
  8
0
  6
CONTINUOUS
 62
     7
 10
-600.725043425245
 20
43.2474485254589
 30
0.0
 11
-588.857536283714
 21
43.2474556970899
 31
0.0
  0
LINE
  5
   632
  8
0
  6
CONTINUOUS
 62
     7
 10
-600.725043425262
 20
39.8399485340869
 30
0.0
 11
-600.725043425262
 21
43.2474485254443
 31
0.0
  0
LINE
  5
   633
  8
0
  6
CONTINUOUS
 62
     7
 10
-600.725043425245
 20
39.8399485341009
 30
0.0
 11
-588.857536283714
 21
39.8399557057319
 31
0.0
  0
LINE
  5
   634
  8
0
  6
CONTINUOUS
 62
     7
 10
-588.857536283732
 20
39.8399557057178
 30
0.0
 11
-588.857536283732
 21
43.2474556970751
 31
0.0
  0
LINE
  5
   635
  8
0
  6
CONTINUOUS
 62
     7
 10
-621.816263788789
 20
39.8399557057178
 30
0.0
 11
-621.816263788789
 21
43.2474556970751
 31
0.0
  0
LINE
  5
   636
  8
0
  6
CONTINUOUS
 62
     7
 10
-602.605043420494
 20
39.8399557057178
 30
0.0
 11
-621.816264685243
 21
39.8399557057178
 31
0.0
  0
LINE
  5
   637
  8
0
  6
CONTINUOUS
 62
     7
 10
-602.605043420494
 20
39.8399557057178
 30
0.0
 11
-602.605043420494
 21
43.2474556970751
 31
0.0
  0
LINE
  5
   638
  8
0
  6
CONTINUOUS
 62
     7
 10
-602.605043420494
 20
43.2474556970751
 30
0.0
 11
-621.816264685243
 21
43.2474556970751
 31
0.0
  0
LINE
  5
   639
  8
0
  6
CONTINUOUS
 62
     7
 10
-623.696263784021
 20
39.8399557057178
 30
0.0
 11
-646.902506553531
 21
39.8399557057178
 31
0.0
  0
LINE
  5
   63A
  8
0
  6
CONTINUOUS
 62
     7
 10
-623.696263784021
 20
39.8399557057178
 30
0.0
 11
-623.696263784021
 21
43.2474556970751
 31
0.0
  0
LINE
  5
   63B
  8
0
  6
CONTINUOUS
 62
     7
 10
-623.696263784021
 20
43.2474556970751
 30
0.0
 11
-646.902506553531
 21
43.2474556970751
 31
0.0
  0
LINE
  5
   63C
  8
0
  6
CONTINUOUS
 62
     7
 10
-646.902507449985
 20
39.8399557057178
 30
0.0
 11
-646.902507449985
 21
43.2474556970751
 31
0.0
  0
LINE
  5
   63D
  8
0
  6
CONTINUOUS
 62
     7
 10
-642.202507910132
 20
-14.4450674643957
 30
0.0
 11
-642.202507910132
 21
-12.3300531264985
 31
0.0
  0
LINE
  5
   63E
  8
0
  6
CONTINUOUS
 62
     7
 10
-640.32250657022
 20
-14.445065671488
 30
0.0
 11
-640.32250657022
 21
-12.3300531264985
 31
0.0
  0
LINE
  5
   63F
  8
0
  6
CONTINUOUS
 62
     7
 10
-646.902323676945
 20
-14.4450818076532
 30
0.0
 11
-646.902322780491
 21
-12.330067469756
 31
0.0
  0
LINE
  5
   640
  8
0
  6
CONTINUOUS
 62
   130
 10
-648.782507445307
 20
-16.3250871813028
 30
0.0
 11
-648.782505652399
 21
-15.8550531172484
 31
0.0
  0
LINE
  5
   641
  8
0
  6
CONTINUOUS
 62
   130
 10
-586.977539862825
 20
-16.3251176585682
 30
0.0
 11
-587.917536274625
 21
-16.3251033153065
 31
0.0
  0
LINE
  5
   642
  8
0
  6
CONTINUOUS
 62
   130
 10
-566.532514825463
 20
-11.1550782301863
 30
0.0
 11
-566.532521997094
 21
49.4749503025571
 31
0.0
  0
LINE
  5
   643
  8
0
  6
CONTINUOUS
 62
     7
 10
-600.700573820832
 20
-14.4450513282263
 30
0.0
 11
-600.700573820832
 21
-12.3300369903291
 31
0.0
  0
LINE
  5
   644
  8
0
  6
CONTINUOUS
 62
     7
 10
-602.605613565146
 20
-14.4450728431189
 30
0.0
 11
-602.605613565146
 21
-12.3300387832368
 31
0.0
  0
LINE
  5
   645
  8
0
  6
CONTINUOUS
 62
     7
 10
-613.062507535815
 20
34.1999557200229
 30
0.0
 11
-648.782507445216
 21
34.1999557200229
 31
0.0
  0
LINE
  5
   646
  8
0
  6
CONTINUOUS
 62
     7
 10
-613.062507535815
 20
20.3349306544817
 30
0.0
 11
-613.062507535815
 21
34.1999557200229
 31
0.0
  0
LINE
  5
   647
  8
0
  6
CONTINUOUS
 62
     7
 10
-648.782507445216
 20
20.334941411928
 30
0.0
 11
-648.782507445216
 21
34.1999557200229
 31
0.0
  0
LINE
  5
   648
  8
0
  6
CONTINUOUS
 62
   150
 10
-648.782490412593
 20
-10.567545959338
 30
0.0
 11
-653.952512810826
 21
-10.567545959338
 31
0.0
  0
LINE
  5
   649
  8
0
  6
CONTINUOUS
 62
   150
 10
-648.782507445216
 20
38.7824772232925
 30
0.0
 11
-653.952512810826
 21
38.7824772232925
 31
0.0
  0
LINE
  5
   64A
  8
0
  6
CONTINUOUS
 62
   150
 10
-656.537649270146
 20
-10.3328017241049
 30
0.0
 11
-656.537514802063
 21
-10.3318281752017
 31
0.0
  0
LINE
  5
   64B
  8
0
  6
CONTINUOUS
 62
     7
 10
-645.492451873423
 20
-14.4450584998526
 30
0.0
 11
-645.492452769877
 21
-12.3300549194016
 31
0.0
  0
LINE
  5
   64C
  8
0
  6
CONTINUOUS
 62
     7
 10
-588.857536283732
 20
40.5449557039297
 30
0.0
 11
-600.725036253631
 21
40.5449557039297
 31
0.0
  0
LINE
  5
   64D
  8
0
  6
CONTINUOUS
 62
     7
 10
-602.605039834678
 20
40.5449557039297
 30
0.0
 11
-621.81625930652
 21
40.5449557039297
 31
0.0
  0
LINE
  5
   64E
  8
0
  6
CONTINUOUS
 62
     7
 10
-623.696259301752
 20
40.5449557039297
 30
0.0
 11
-645.492507453561
 21
40.5449557039297
 31
0.0
  0
LINE
  5
   64F
  8
0
  6
CONTINUOUS
 62
     7
 10
-645.845005759547
 20
40.1924632624645
 30
0.0
 11
-645.492505752698
 21
40.5449632693139
 31
0.0
  0
LINE
  5
   650
  8
0
  6
CONTINUOUS
 62
     7
 10
-645.492507453561
 20
40.5449557039297
 30
0.0
 11
-645.492507453561
 21
43.2474556970751
 31
0.0
  0
CIRCLE
  5
   651
  8
0
  6
CONTINUOUS
 62
   130
 10
-643.142546412146
 20
13.2849263128879
 30
0.0
 40
4.69999598547433
  0
CIRCLE
  5
   652
  8
0
  6
CONTINUOUS
 62
   130
 10
-643.142542325992
 20
13.2849234977042
 30
0.0
 40
1.29250189602503
  0
CIRCLE
  5
   653
  8
0
  6
CONTINUOUS
 62
   130
 10
-576.167518703289
 20
38.6649186068163
 30
0.0
 40
2.82003173989634
  0
CIRCLE
  5
   654
  8
0
  6
CONTINUOUS
 62
   130
 10
-576.167537025799
 20
38.6649395428277
 30
0.0
 40
1.52750446052815
  0
CIRCLE
  5
   655
  8
0
  6
CONTINUOUS
 62
   130
 10
-576.167538129266
 20
-8.33505790543562
 30
0.0
 40
2.82000110723514
  0
CIRCLE
  5
   656
  8
0
  6
CONTINUOUS
 62
   130
 10
-576.167533568695
 20
-8.33505389994123
 30
0.0
 40
1.52750394798675
  0
LINE
  5
   657
  8
0
  6
DASHDOT
 62
     7
 10
-576.167518703289
 20
35.374886868112
 30
0.0
 11
-576.167518703289
 21
41.9549503455205
 31
0.0
  0
LINE
  5
   658
  8
0
  6
DASHDOT
 62
     7
 10
-572.877486964585
 20
38.6649186068163
 30
0.0
 11
-579.457550441993
 21
38.6649186068163
 31
0.0
  0
LINE
  5
   659
  8
0
  6
DASHDOT
 62
     7
 10
-576.167538129266
 20
-11.6250590114787
 30
0.0
 11
-576.167538129266
 21
-5.04505679939256
 31
0.0
  0
LINE
  5
   65A
  8
0
  6
DASHDOT
 62
     7
 10
-572.877537023223
 20
-8.33505790543562
 30
0.0
 11
-579.457539235309
 21
-8.33505790543562
 31
0.0
  0
LINE
  5
   65B
  8
0
  6
CONTINUOUS
 62
     7
 10
-588.622536284328
 20
49.474948509649
 30
0.0
 11
-588.622536284328
 21
52.7649341580427
 31
0.0
  0
LINE
  5
   65C
  8
0
  6
CONTINUOUS
 62
     7
 10
-653.952514603734
 20
-55.6729054232071
 30
0.0
 11
-653.952514603734
 21
-20.6726104783855
 31
0.0
  0
LINE
  5
   65D
  8
0
  6
CONTINUOUS
 62
     7
 10
-654.89251460135
 20
-55.8313323890974
 30
0.0
 11
-654.89251460135
 21
-10.567545959338
 31
0.0
  0
LINE
  5
   65E
  8
0
  6
CONTINUOUS
 62
     7
 10
-657.334820420529
 20
-56.2429569653635
 30
0.0
 11
-651.239387450261
 21
-55.2156368018352
 31
0.0
  0
LINE
  5
   65F
  8
0
  6
CONTINUOUS
 62
     7
 10
-651.787291537476
 20
69.5010310505038
 30
0.0
 11
-656.033548213393
 21
70.6653272358359
 31
0.0
  0
LINE
  5
   660
  8
0
  6
CONTINUOUS
 62
     7
 10
-654.89251460135
 20
38.7824772232925
 30
0.0
 11
-654.89251460135
 21
70.3524631809208
 31
0.0
  0
LINE
  5
   661
  8
0
  6
DASHDOT
 62
     7
 10
-643.142546412146
 20
8.11493032860568
 30
0.0
 11
-643.142546412146
 21
18.4549222971702
 31
0.0
  0
LINE
  5
   662
  8
0
  6
DASHDOT
 62
     7
 10
-637.972550427864
 20
13.2849263128879
 30
0.0
 11
-648.312542396428
 21
13.2849263128879
 31
0.0
  0
LINE
  5
   663
  8
0
  6
CONTINUOUS
 62
     7
 10
-650.192512820363
 20
-1.75501550225863
 30
0.0
 11
-650.192512820363
 21
4.35488766522781
 31
0.0
  0
LINE
  5
   664
  8
0
  6
CONTINUOUS
 62
     1
 10
-654.892512808442
 20
-23.7276113670908
 30
0.0
 11
-654.892512808442
 21
51.9423884409823
 31
0.0
  0
LINE
  5
   665
  8
0
  6
CONTINUOUS
 62
     1
 10
-654.892512808442
 20
-23.7276113670908
 30
0.0
 11
-656.53751280427
 21
-23.7276113670908
 31
0.0
  0
LINE
  5
   666
  8
0
  6
CONTINUOUS
 62
     1
 10
-656.53751280427
 20
-23.7276113670908
 30
0.0
 11
-656.53751280427
 21
-2.69511142043694
 31
0.0
  0
LINE
  5
   667
  8
0
  6
CONTINUOUS
 62
     1
 10
-656.53751280427
 20
5.29488766284362
 30
0.0
 11
-656.53751280427
 21
51.9423911303438
 31
0.0
  0
LINE
  5
   668
  8
0
  6
CONTINUOUS
 62
     1
 10
-654.892512808442
 20
51.9423911303438
 30
0.0
 11
-656.53751280427
 21
51.9423911303438
 31
0.0
  0
LINE
  5
   669
  8
0
  6
CONTINUOUS
 62
     1
 10
-653.952512810826
 20
15.517391222731
 30
0.0
 11
-653.952512810826
 21
46.067391145245
 31
0.0
  0
LINE
  5
   66A
  8
0
  6
CONTINUOUS
 62
     1
 10
-653.952512810826
 20
4.35489125104323
 30
0.0
 11
-653.952512810826
 21
12.697394815699
 31
0.0
  0
LINE
  5
   66B
  8
0
  6
CONTINUOUS
 62
     7
 10
-651.837512816191
 20
-20.4012556893399
 30
0.0
 11
-651.837512816191
 21
-18.1239652745837
 31
0.0
  0
LINE
  5
   66C
  8
0
  6
CONTINUOUS
 62
     7
 10
-651.837512816191
 20
46.3387441413829
 30
0.0
 11
-651.837512816191
 21
48.6160381419545
 31
0.0
  0
LINE
  5
   66D
  8
0
  6
CONTINUOUS
 62
     7
 10
-651.837512816191
 20
12.9687442260215
 30
0.0
 11
-651.837512816191
 21
15.2460346407777
 31
0.0
  0
LINE
  5
   66E
  8
0
  6
CONTINUOUS
 62
     1
 10
-656.067512805462
 20
-2.6951123168908
 30
0.0
 11
-656.53751280427
 21
-2.6951123168908
 31
0.0
  0
LINE
  5
   66F
  8
0
  6
CONTINUOUS
 62
     1
 10
-656.067512805462
 20
5.29488766284362
 30
0.0
 11
-656.53751280427
 21
5.29488766284362
 31
0.0
  0
LINE
  5
   670
  8
0
  6
CONTINUOUS
 62
     3
 10
-656.53751280427
 20
-2.22511231808289
 30
0.0
 11
-656.53751280427
 21
4.82488766403571
 31
0.0
  0
LINE
  5
   671
  8
0
  6
CONTINUOUS
 62
     7
 10
-656.067512805462
 20
-2.22511231808289
 30
0.0
 11
-656.53751280427
 21
-2.22511231808289
 31
0.0
  0
LINE
  5
   672
  8
0
  6
CONTINUOUS
 62
     7
 10
-656.067512805462
 20
-4.10511231331452
 30
0.0
 11
-656.067512805462
 21
-2.22511231808289
 31
0.0
  0
LINE
  5
   673
  8
0
  6
CONTINUOUS
 62
     7
 10
-655.597512806654
 20
-4.10511231331452
 30
0.0
 11
-656.067512805462
 21
-4.10511231331452
 31
0.0
  0
LINE
  5
   674
  8
0
  6
CONTINUOUS
 62
     7
 10
-655.597512806654
 20
-4.10511231331452
 30
0.0
 11
-655.597512806654
 21
6.70488765926734
 31
0.0
  0
LINE
  5
   675
  8
0
  6
CONTINUOUS
 62
     7
 10
-655.597512806654
 20
6.70488765926734
 30
0.0
 11
-656.067512805462
 21
6.70488765926734
 31
0.0
  0
LINE
  5
   676
  8
0
  6
CONTINUOUS
 62
     7
 10
-656.067512805462
 20
4.82488766403571
 30
0.0
 11
-656.067512805462
 21
6.70488765926734
 31
0.0
  0
LINE
  5
   677
  8
0
  6
CONTINUOUS
 62
     7
 10
-656.067512805462
 20
4.82488766403571
 30
0.0
 11
-656.53751280427
 21
4.82488766403571
 31
0.0
  0
LINE
  5
   678
  8
0
  6
CONTINUOUS
 62
     7
 10
-650.192512820363
 20
-1.75501550225863
 30
0.0
 11
-654.892512808442
 21
-1.75501550225863
 31
0.0
  0
LINE
  5
   679
  8
0
  6
CONTINUOUS
 62
     7
 10
-650.192512820363
 20
4.35488766522781
 30
0.0
 11
-654.892512808442
 21
4.35488766522781
 31
0.0
  0
LINE
  5
   67A
  8
0
  6
CONTINUOUS
 62
     1
 10
-656.53751280427
 20
-2.69510873107538
 30
0.0
 11
-656.53751280427
 21
-2.22511231808289
 31
0.0
  0
LINE
  5
   67B
  8
0
  6
CONTINUOUS
 62
     1
 10
-656.53751280427
 20
4.82488766403571
 30
0.0
 11
-656.53751280427
 21
5.29489124865904
 31
0.0
  0
LINE
  5
   67C
  8
0
  6
CONTINUOUS
 62
     7
 10
-652.307512814999
 20
-20.6726104783855
 30
0.0
 11
-654.892512808442
 21
-20.6726104783855
 31
0.0
  0
LINE
  5
   67D
  8
0
  6
CONTINUOUS
 62
     7
 10
-652.307512814999
 20
-17.8526104855381
 30
0.0
 11
-654.892512808442
 21
-17.8526104855381
 31
0.0
  0
LINE
  5
   67E
  8
0
  6
CONTINUOUS
 62
     7
 10
-652.307512814999
 20
-17.9599393197996
 30
0.0
 11
-652.307512814999
 21
-17.8526104855381
 31
0.0
  0
LINE
  5
   67F
  8
0
  6
CONTINUOUS
 62
     7
 10
-652.307512814999
 20
-18.2655888475277
 30
0.0
 11
-652.307512814999
 21
-17.9599393197996
 31
0.0
  0
LINE
  5
   680
  8
0
  6
CONTINUOUS
 62
     7
 10
-652.307512814999
 20
-18.7230259420096
 30
0.0
 11
-652.307512814999
 21
-18.2655888475277
 31
0.0
  0
LINE
  5
   681
  8
0
  6
CONTINUOUS
 62
     7
 10
-652.307512814999
 20
-19.2626104819618
 30
0.0
 11
-652.307512814999
 21
-18.7230259420096
 31
0.0
  0
LINE
  5
   682
  8
0
  6
CONTINUOUS
 62
     7
 10
-652.307512814999
 20
-19.8021932290063
 30
0.0
 11
-652.307512814999
 21
-19.2626104819618
 31
0.0
  0
LINE
  5
   683
  8
0
  6
CONTINUOUS
 62
     7
 10
-652.307512814999
 20
-20.2596303234882
 30
0.0
 11
-652.307512814999
 21
-19.8021932290063
 31
0.0
  0
LINE
  5
   684
  8
0
  6
CONTINUOUS
 62
     7
 10
-652.307512814999
 20
-20.5652798512164
 30
0.0
 11
-652.307512814999
 21
-20.2596303234882
 31
0.0
  0
LINE
  5
   685
  8
0
  6
CONTINUOUS
 62
     7
 10
-652.307512814999
 20
-20.6726104783855
 30
0.0
 11
-652.307512814999
 21
-20.5652798512164
 31
0.0
  0
LINE
  5
   686
  8
0
  6
CONTINUOUS
 62
     7
 10
-652.307512251653
 20
-20.6726108665592
 30
0.0
 11
-651.837512237368
 21
-20.4012560925263
 31
0.0
  0
LINE
  5
   687
  8
0
  6
CONTINUOUS
 62
     7
 10
-651.837511804267
 20
-18.1239661216533
 30
0.0
 11
-652.307511818551
 21
-17.8526113476204
 31
0.0
  0
LINE
  5
   688
  8
0
  6
CONTINUOUS
 62
     7
 10
-652.307512814999
 20
46.067391145245
 30
0.0
 11
-654.892512808442
 21
46.067391145245
 31
0.0
  0
LINE
  5
   689
  8
0
  6
CONTINUOUS
 62
     7
 10
-652.307512814999
 20
48.8873911380924
 30
0.0
 11
-654.892512808442
 21
48.8873911380924
 31
0.0
  0
LINE
  5
   68A
  8
0
  6
CONTINUOUS
 62
     7
 10
-652.307512814999
 20
48.7800605109233
 30
0.0
 11
-652.307512814999
 21
48.8873911380924
 31
0.0
  0
LINE
  5
   68B
  8
0
  6
CONTINUOUS
 62
     7
 10
-652.307512814999
 20
48.4744127761028
 30
0.0
 11
-652.307512814999
 21
48.7800605109233
 31
0.0
  0
LINE
  5
   68C
  8
0
  6
CONTINUOUS
 62
     7
 10
-652.307512814999
 20
48.0169703028978
 30
0.0
 11
-652.307512814999
 21
48.4744127761028
 31
0.0
  0
LINE
  5
   68D
  8
0
  6
CONTINUOUS
 62
     7
 10
-652.307512814999
 20
47.4773911416687
 30
0.0
 11
-652.307512814999
 21
48.0169703028978
 31
0.0
  0
LINE
  5
   68E
  8
0
  6
CONTINUOUS
 62
     7
 10
-652.307512814999
 20
46.9378048088088
 30
0.0
 11
-652.307512814999
 21
47.4773911416687
 31
0.0
  0
LINE
  5
   68F
  8
0
  6
CONTINUOUS
 62
     7
 10
-652.307512814999
 20
46.4803695072346
 30
0.0
 11
-652.307512814999
 21
46.9378048088088
 31
0.0
  0
LINE
  5
   690
  8
0
  6
CONTINUOUS
 62
     7
 10
-652.307512814999
 20
46.1747217724142
 30
0.0
 11
-652.307512814999
 21
46.4803695072346
 31
0.0
  0
LINE
  5
   691
  8
0
  6
CONTINUOUS
 62
     7
 10
-652.307512814999
 20
46.067391145245
 30
0.0
 11
-652.307512814999
 21
46.1747217724142
 31
0.0
  0
LINE
  5
   692
  8
0
  6
CONTINUOUS
 62
     7
 10
-652.307512900263
 20
46.0673901370322
 30
0.0
 11
-651.837512885979
 21
46.3387431365723
 31
0.0
  0
LINE
  5
   693
  8
0
  6
CONTINUOUS
 62
     7
 10
-651.837512125364
 20
48.6160369510556
 30
0.0
 11
-652.307512139648
 21
48.8873899505957
 31
0.0
  0
LINE
  5
   694
  8
0
  6
CONTINUOUS
 62
     7
 10
-652.307512814999
 20
12.6973912298836
 30
0.0
 11
-654.892512808442
 21
12.6973912298836
 31
0.0
  0
LINE
  5
   695
  8
0
  6
CONTINUOUS
 62
     7
 10
-652.307512814999
 20
15.517391222731
 30
0.0
 11
-654.892512808442
 21
15.517391222731
 31
0.0
  0
LINE
  5
   696
  8
0
  6
CONTINUOUS
 62
     7
 10
-652.307512814999
 20
15.4100605955618
 30
0.0
 11
-652.307512814999
 21
15.517391222731
 31
0.0
  0
LINE
  5
   697
  8
0
  6
CONTINUOUS
 62
     7
 10
-652.307512814999
 20
15.104409274926
 30
0.0
 11
-652.307512814999
 21
15.4100605955618
 31
0.0
  0
LINE
  5
   698
  8
0
  6
CONTINUOUS
 62
     7
 10
-652.307512814999
 20
14.6469739733518
 30
0.0
 11
-652.307512814999
 21
15.104409274926
 31
0.0
  0
LINE
  5
   699
  8
0
  6
CONTINUOUS
 62
     7
 10
-652.307512814999
 20
14.1073912263073
 30
0.0
 11
-652.307512814999
 21
14.6469739733518
 31
0.0
  0
LINE
  5
   69A
  8
0
  6
CONTINUOUS
 62
     7
 10
-652.307512814999
 20
13.5678048934474
 30
0.0
 11
-652.307512814999
 21
14.1073912263073
 31
0.0
  0
LINE
  5
   69B
  8
0
  6
CONTINUOUS
 62
     7
 10
-652.307512814999
 20
13.1103695918732
 30
0.0
 11
-652.307512814999
 21
13.5678048934474
 31
0.0
  0
LINE
  5
   69C
  8
0
  6
CONTINUOUS
 62
     7
 10
-652.307512814999
 20
12.8047182712373
 30
0.0
 11
-652.307512814999
 21
13.1103695918732
 31
0.0
  0
LINE
  5
   69D
  8
0
  6
CONTINUOUS
 62
     7
 10
-652.307512814999
 20
12.6973912298836
 30
0.0
 11
-652.307512814999
 21
12.8047182712373
 31
0.0
  0
LINE
  5
   69E
  8
0
  6
CONTINUOUS
 62
     7
 10
-652.307512751071
 20
12.6973906523522
 30
0.0
 11
-651.837512736787
 21
12.9687436518923
 31
0.0
  0
LINE
  5
   69F
  8
0
  6
CONTINUOUS
 62
     7
 10
-651.837512064379
 20
15.2460335827195
 30
0.0
 11
-652.307512078662
 21
15.5173901635976
 31
0.0
  0
LINE
  5
   6A0
  8
0
  6
CONTINUOUS
 62
     7
 10
-653.952514603734
 20
-17.6176104861341
 30
0.0
 11
-654.892512808442
 21
-17.6176104861341
 31
0.0
  0
LINE
  5
   6A1
  8
0
  6
CONTINUOUS
 62
     7
 10
-653.952514603734
 20
-20.9076104777895
 30
0.0
 11
-654.892512808442
 21
-20.9076104777895
 31
0.0
  0
LINE
  5
   6A2
  8
0
  6
CONTINUOUS
 62
     7
 10
-653.952514603734
 20
-17.8526104855381
 30
0.0
 11
-653.952514603734
 21
-1.75510514764414
 31
0.0
  0
LINE
  5
   6A3
  8
0
  6
CONTINUOUS
 62
     7
 10
-653.952512810826
 20
-2.22501550106654
 30
0.0
 11
-654.892512808442
 21
-2.22501550106654
 31
0.0
  0
LINE
  5
   6A4
  8
0
  6
CONTINUOUS
 62
     7
 10
-653.952512810826
 20
4.82488766403571
 30
0.0
 11
-654.892512808442
 21
4.82488766403571
 31
0.0
  0
LINE
  5
   6A5
  8
0
  6
CONTINUOUS
 62
     7
 10
-653.952512810826
 20
15.752391222135
 30
0.0
 11
-654.892512808442
 21
15.752391222135
 31
0.0
  0
LINE
  5
   6A6
  8
0
  6
CONTINUOUS
 62
     7
 10
-653.952512810826
 20
12.4623912304796
 30
0.0
 11
-654.892512808442
 21
12.4623912304796
 31
0.0
  0
LINE
  5
   6A7
  8
0
  6
CONTINUOUS
 62
     7
 10
-653.952514603734
 20
48.8873911380924
 30
0.0
 11
-653.952514603734
 21
70.0947212460907
 31
0.0
  0
LINE
  5
   6A8
  8
0
  6
CONTINUOUS
 62
     7
 10
-653.952514603734
 20
49.1223911374964
 30
0.0
 11
-654.892512808442
 21
49.1223911374964
 31
0.0
  0
LINE
  5
   6A9
  8
0
  6
CONTINUOUS
 62
     7
 10
-653.952514603734
 20
45.832391145841
 30
0.0
 11
-654.892512808442
 21
45.832391145841
 31
0.0
  0
INSERT
  5
   6AA
  8
0
  6
CONTINUOUS
 62
     7
  2
*HATCH125
 10
-636.327514648438
 20
-37.5864410400391
 30
0.0
 41
0.469999998807907
 42
0.469999998807907
 50
89.9999999480344
 43
0.469999998807907
  0
INSERT
  5
   6AB
  8
0
  6
CONTINUOUS
 62
     7
  2
*HATCH126
 10
-636.327514648438
 20
-37.5864410400391
 30
0.0
 41
0.469999998807907
 42
0.469999998807907
 50
89.9999999480344
 43
0.469999998807907
  0
INSERT
  5
   6AC
  8
0
  6
CONTINUOUS
 62
     7
  2
*HATCH127
 10
-636.327514648438
 20
-37.5864410400391
 30
0.0
 41
0.469999998807907
 42
0.469999998807907
 50
89.9999999480344
 43
0.469999998807907
  0
INSERT
  5
   6AD
  8
0
  6
CONTINUOUS
 62
     7
  2
*HATCH128
 10
-636.327514648438
 20
-37.5864410400391
 30
0.0
 41
0.469999998807907
 42
0.469999998807907
 50
89.9999999480344
 43
0.469999998807907
  0
INSERT
  5
   6AE
  8
0
  6
CONTINUOUS
 62
     7
  2
*HATCH129
 10
-636.327514648438
 20
-37.5864410400391
 30
0.0
 41
0.469999998807907
 42
0.469999998807907
 50
89.9999999480344
 43
0.469999998807907
  0
CIRCLE
  5
   6AF
  8
0
  6
CONTINUOUS
 62
     7
 10
-654.702923628183
 20
-53.4201603284629
 30
0.0
 40
0.117499999701977
  0
CIRCLE
  5
   6B0
  8
0
  6
CONTINUOUS
 62
     7
 10
-655.942577898249
 20
-19.2276643460579
 30
0.0
 40
0.117499999701977
  0
LINE
  5
   6B1
  8
0
  6
CONTINUOUS
 62
     3
 10
-652.307512814999
 20
38.7824772232925
 30
0.0
 11
-652.307512814999
 21
42.0724772149479
 31
0.0
  0
LINE
  5
   6B2
  8
0
  6
CONTINUOUS
 62
     3
 10
-651.367512817383
 20
38.7824772232925
 30
0.0
 11
-651.367512817383
 21
42.0724772149479
 31
0.0
  0
LINE
  5
   6B3
  8
0
  6
CONTINUOUS
 62
     3
 10
-651.367512817383
 20
42.0724772149479
 30
0.0
 11
-652.307512814999
 21
42.0724772149479
 31
0.0
  0
LINE
  5
   6B4
  8
0
  6
CONTINUOUS
 62
     7
 10
-649.487515511513
 20
39.4874772215044
 30
0.0
 11
-650.662518197894
 21
39.4874772215044
 31
0.0
  0
LINE
  5
   6B5
  8
0
  6
CONTINUOUS
 62
     7
 10
-649.487515511513
 20
39.4874772215044
 30
0.0
 11
-649.487515511513
 21
44.4224772089874
 31
0.0
  0
LINE
  5
   6B6
  8
0
  6
CONTINUOUS
 62
     7
 10
-651.132518196702
 20
46.0674772048151
 30
0.0
 11
-652.307518193722
 21
46.0674772048151
 31
0.0
  0
LINE
  5
   6B7
  8
0
  6
CONTINUOUS
 62
     7
 10
-652.77751819253
 20
48.8873911380924
 30
0.0
 11
-652.77751819253
 21
50.2974771940862
 31
0.0
  0
LINE
  5
   6B8
  8
0
  6
CONTINUOUS
 62
     7
 10
-652.77751819253
 20
50.2974771940862
 30
0.0
 11
-653.952514603734
 21
50.2974771940862
 31
0.0
  0
LINE
  5
   6B9
  8
0
  6
CONTINUOUS
 62
     7
 10
-651.132518196702
 20
44.8924772077953
 30
0.0
 11
-652.307518193722
 21
44.8924772077953
 31
0.0
  0
LINE
  5
   6BA
  8
0
  6
CONTINUOUS
 62
     7
 10
-650.662518197894
 20
39.4874772215044
 30
0.0
 11
-650.662518197894
 21
44.4224772089874
 31
0.0
  0
ARC
  5
   6BB
  8
0
  6
CONTINUOUS
 62
     7
 10
-651.13252508385
 20
44.4224712464243
 30
0.0
 40
1.64500866879195
 50
360.000319242658
 51
449.999813057862
  0
ARC
  5
   6BC
  8
0
  6
CONTINUOUS
 62
     7
 10
-651.132497400072
 20
44.4224964295351
 30
0.0
 40
0.469976414792414
 50
359.998830132094
 51
450.002235749312
  0
ARC
  5
   6BD
  8
0
  6
CONTINUOUS
 62
     7
 10
-652.307527289341
 20
46.5374621415639
 30
0.0
 40
1.6449863921215
 50
196.604271282219
 51
270.000346548696
  0
LINE
  5
   6BE
  8
0
  6
CONTINUOUS
 62
     7
 10
-649.487515511513
 20
43.7174772107755
 30
0.0
 11
-650.662518197894
 21
43.7174772107755
 31
0.0
  0
INSERT
  5
   6BF
  8
0
  6
CONTINUOUS
 62
     7
  2
*HATCH130
 10
-636.327514648438
 20
-37.5864410400391
 30
0.0
 41
0.469999998807907
 42
0.469999998807907
 50
89.9999999480344
 43
0.469999998807907
  0
INSERT
  5
   6C0
  8
255
  6
CONTINUOUS
 62
     7
  2
TS5
 10
-587.917507599592
 20
-37.5864984130858
 30
0.0
 41
-0.469999998807907
 42
0.469999998807907
 50
360.0
 43
0.469999998807907
  0
INSERT
  5
   6C1
  8
255
  6
CONTINUOUS
 62
     7
  2
TS5
 10
-587.917507599592
 20
64.1564099592279
 30
0.0
 41
0.469999998807907
 42
0.469999998807907
 50
179.999999896069
 43
0.469999998807907
  0
LINE
  5
   6C2
  8
0
  6
CONTINUOUS
 62
     7
 10
-558.872262025718
 20
102.915707816008
 30
0.0
 11
-567.984014970606
 21
103.101661957741
 31
0.0
  0
LINE
  5
   6C3
  8
0
  6
CONTINUOUS
 62
     7
 10
-558.396605873241
 20
-75.3264453771515
 30
0.0
 11
-568.759075111914
 21
-74.8083219152178
 31
0.0
  0
LINE
  5
   6C4
  8
0
  6
DOT
 62
     7
 10
-669.462512771487
 20
-10.567545959338
 30
0.0
 11
-669.462512771487
 21
38.7824772232925
 31
0.0
  0
LINE
  5
   6C5
  8
0
  6
DOT
 62
     7
 10
-660.759996354047
 20
38.7824772232925
 30
0.0
 11
-669.462512771487
 21
38.7824772232925
 31
0.0
  0
LINE
  5
   6C6
  8
0
  6
DOT
 62
     7
 10
-661.938255119126
 20
-10.567545959338
 30
0.0
 11
-669.462512771487
 21
-10.567545959338
 31
0.0
  0
LINE
  5
   6C7
  8
0
  6
CONTINUOUS
 62
     7
 10
-561.362514838576
 20
43.1299556973731
 30
0.0
 11
-561.362514838576
 21
46.8899556878364
 31
0.0
  0
LINE
  5
   6C8
  8
0
  6
CONTINUOUS
 62
     7
 10
-559.482514843345
 20
43.834955695585
 30
0.0
 11
-559.482514843345
 21
46.1849556896245
 31
0.0
  0
LINE
  5
   6C9
  8
0
  6
CONTINUOUS
 62
     7
 10
-561.362514838576
 20
46.8899556878364
 30
0.0
 11
-563.242514833808
 21
46.8899556878364
 31
0.0
  0
LINE
  5
   6CA
  8
0
  6
CONTINUOUS
 62
     7
 10
-561.362514838576
 20
43.1299556973731
 30
0.0
 11
-563.242514833808
 21
43.1299556973731
 31
0.0
  0
LINE
  5
   6CB
  8
0
  6
CONTINUOUS
 62
     7
 10
-559.482514843345
 20
46.1849556896245
 30
0.0
 11
-563.242514833808
 21
46.1849556896245
 31
0.0
  0
LINE
  5
   6CC
  8
0
  6
CONTINUOUS
 62
     7
 10
-559.482514843345
 20
43.834955695585
 30
0.0
 11
-563.242514833808
 21
43.834955695585
 31
0.0
  0
LINE
  5
   6CD
  8
0
  6
CONTINUOUS
 62
     7
 10
-561.362514838576
 20
-16.5600441512311
 30
0.0
 11
-563.242514833808
 21
-16.5600441512311
 31
0.0
  0
LINE
  5
   6CE
  8
0
  6
CONTINUOUS
 62
     7
 10
-559.482514843345
 20
-17.2650441494429
 30
0.0
 11
-563.242514833808
 21
-17.2650441494429
 31
0.0
  0
LINE
  5
   6CF
  8
0
  6
CONTINUOUS
 62
     7
 10
-559.482514843345
 20
-19.6150441434825
 30
0.0
 11
-563.242514833808
 21
-19.6150441434825
 31
0.0
  0
LINE
  5
   6D0
  8
0
  6
CONTINUOUS
 62
     7
 10
-561.362514838576
 20
-20.3200441416943
 30
0.0
 11
-563.242514833808
 21
-20.3200441416943
 31
0.0
  0
LINE
  5
   6D1
  8
0
  6
CONTINUOUS
 62
     7
 10
-561.362514838576
 20
-20.3200441416943
 30
0.0
 11
-561.362514838576
 21
-16.5600441512311
 31
0.0
  0
LINE
  5
   6D2
  8
0
  6
CONTINUOUS
 62
     7
 10
-559.482514843345
 20
-19.6150441434825
 30
0.0
 11
-559.482514843345
 21
-17.2650441494429
 31
0.0
  0
CIRCLE
  5
   6D3
  8
0
  6
CONTINUOUS
 62
     7
 10
-561.654137114465
 20
-18.3499579599796
 30
0.0
 40
0.187999999523163
  0
TEXT
  5
   6D4
  8
0
  6
CONTINUOUS
 62
     7
 10
-666.345441327803
 20
106.26686476476
 30
0.0
 40
2.99999994291904
  1
ISOLATING DISTANCE
 50
359.999999948034
 41
0.916666599088244
 72
     2
 11
-617.395445875626
 21
106.266864720609
 31
0.0
  0
INSERT
  5
   6D5
  8
0
  6
CONTINUOUS
 62
     7
  2
*UDIM485
 10
0.0
 20
0.0
 30
0.0
  0
INSERT
  5
   6D6
  8
0
  6
CONTINUOUS
 62
     7
  2
*UDIM486
 10
0.0
 20
0.0
 30
0.0
  0
INSERT
  5
   6D7
  8
0
  6
CONTINUOUS
 62
     7
  2
*UDIM487
 10
0.0
 20
0.0
 30
0.0
  0
INSERT
  5
   6D8
  8
0
  6
CONTINUOUS
 62
     7
  2
*UDIM488
 10
0.0
 20
0.0
 30
0.0
  0
INSERT
  5
   6D9
  8
0
  6
CONTINUOUS
 62
     7
  2
*UDIM489
 10
0.0
 20
0.0
 30
0.0
  0
INSERT
  5
   6DA
  8
0
  6
CONTINUOUS
 62
     7
  2
*UDIM490
 10
0.0
 20
0.0
 30
0.0
  0
INSERT
  5
   6DB
  8
0
  6
CONTINUOUS
 62
     7
  2
*UDIM491
 10
0.0
 20
0.0
 30
0.0
  0
INSERT
  5
   6DC
  8
0
  6
CONTINUOUS
 62
     7
  2
*UDIM492
 10
0.0
 20
0.0
 30
0.0
  0
INSERT
  5
   6DD
  8
0
  6
CONTINUOUS
 62
     7
  2
*UDIM493
 10
0.0
 20
0.0
 30
0.0
  0
INSERT
  5
   6DE
  8
0
  6
CONTINUOUS
 62
     7
  2
*UDIM494
 10
0.0
 20
0.0
 30
0.0
  0
INSERT
  5
   6DF
  8
0
  6
CONTINUOUS
 62
     7
  2
*UDIM495
 10
0.0
 20
0.0
 30
0.0
  0
TEXT
  5
   6E0
  8
0
  6
CONTINUOUS
 62
     7
 10
-687.731066371124
 20
12.5318844064466
 30
0.0
 40
2.99999994291904
  1
X
 50
359.999999948034
 41
0.916666599088244
 72
     2
 11
-685.531066582936
 21
12.5318844044624
 31
0.0
  0
INSERT
  5
   6E1
  8
0
  6
CONTINUOUS
 62
     7
  2
*UDIM496
 10
0.0
 20
0.0
 30
0.0
  0
TEXT
  5
   6E2
  8
0
  6
CONTINUOUS
 62
     7
 10
-674.185144644552
 20
0.736993105432486
 30
0.0
 40
2.99999994291904
  1
=       =
 50
89.9999999480344
 41
0.916666599088244
 72
     2
 11
-674.185144622634
 21
24.9369908531446
 31
0.0
  0
INSERT
  5
   6E3
  8
0
  6
CONTINUOUS
 62
     7
  2
*UDIM497
 10
0.0
 20
0.0
 30
0.0
  0
INSERT
  5
   6E4
  8
0
  6
CONTINUOUS
 62
     7
  2
*UDIM498
 10
0.0
 20
0.0
 30
0.0
  0
LINE
  5
   6E5
  8
0
  6
CONTINUOUS
 62
     7
 10
-373.430389404297
 20
39.0694236755371
 30
0.0
 11
-339.680389404297
 21
39.0694236755371
 31
0.0
  0
LINE
  5
   6E6
  8
0
  6
CONTINUOUS
 62
     7
 10
-373.430389404297
 20
70.5694236755371
 30
0.0
 11
-339.680389404297
 21
70.5694236755371
 31
0.0
  0
LINE
  5
   6E7
  8
0
  6
CONTINUOUS
 62
     7
 10
-339.680389404297
 20
70.5694236755371
 30
0.0
 11
-339.680389404297
 21
50.0069236755371
 31
0.0
  0
LINE
  5
   6E8
  8
0
  6
CONTINUOUS
 62
     7
 10
-373.430389404297
 20
70.5694236755371
 30
0.0
 11
-373.430389404297
 21
39.0694236755371
 31
0.0
  0
LINE
  5
   6E9
  8
0
  6
DASHDOT
 62
     7
 10
-344.155375950892
 20
48.0069236755371
 30
0.0
 11
-330.175083004855
 21
48.0069236755371
 31
0.0
  0
LINE
  5
   6EA
  8
0
  6
CONTINUOUS
 62
     7
 10
-339.680389404297
 20
50.0069236755371
 30
0.0
 11
-333.930389404297
 21
50.0069236755371
 31
0.0
  0
LINE
  5
   6EB
  8
0
  6
CONTINUOUS
 62
     7
 10
-339.680389404297
 20
46.0069236755371
 30
0.0
 11
-333.930389404297
 21
46.0069236755371
 31
0.0
  0
ARC
  5
   6EC
  8
0
  6
CONTINUOUS
 62
     7
 10
-333.930389404297
 20
48.0069236755371
 30
0.0
 40
2.0
 50
269.999999844103
 51
449.999999844103
  0
LINE
  5
   6ED
  8
0
  6
CONTINUOUS
 62
     7
 10
-339.680389404297
 20
46.0069236755371
 30
0.0
 11
-339.680389404297
 21
39.0694236755371
 31
0.0
  0
LINE
  5
   6EE
  8
0
  6
DASHDOT
 62
     7
 10
-355.430389404297
 20
80.4469148363922
 30
0.0
 11
-355.430389404297
 21
31.6742423579857
 31
0.0
  0
CIRCLE
  5
   6EF
  8
0
  6
CONTINUOUS
 62
     7
 10
-366.430389404297
 20
72.5694236755371
 30
0.0
 40
0.875
  0
CIRCLE
  5
   6F0
  8
0
  6
CONTINUOUS
 62
     7
 10
-335.180389404297
 20
72.5694236755371
 30
0.0
 40
1.0
  0
CIRCLE
  5
   6F1
  8
0
  6
CONTINUOUS
 62
     7
 10
-335.180389404297
 20
54.8194236755371
 30
0.0
 40
1.0
  0
CIRCLE
  5
   6F2
  8
0
  6
CONTINUOUS
 62
     7
 10
-335.180389404297
 20
37.0694236755371
 30
0.0
 40
0.875
  0
CIRCLE
  5
   6F3
  8
0
  6
CONTINUOUS
 62
     7
 10
-366.430389404297
 20
37.0694236755371
 30
0.0
 40
1.0
  0
LINE
  5
   6F4
  8
0
  6
DASHDOT
 62
     7
 10
-366.430389404297
 20
74.1944236755371
 30
0.0
 11
-366.430389404297
 21
70.9444236755371
 31
0.0
  0
LINE
  5
   6F5
  8
0
  6
DASHDOT
 62
     7
 10
-368.055389404297
 20
72.5694236755371
 30
0.0
 11
-364.805389404297
 21
72.5694236755371
 31
0.0
  0
LINE
  5
   6F6
  8
0
  6
DASHDOT
 62
     7
 10
-335.180389404297
 20
74.1944236755371
 30
0.0
 11
-335.180389404297
 21
70.9444236755371
 31
0.0
  0
LINE
  5
   6F7
  8
0
  6
DASHDOT
 62
     7
 10
-336.805389404297
 20
72.5694236755371
 30
0.0
 11
-333.555389404297
 21
72.5694236755371
 31
0.0
  0
LINE
  5
   6F8
  8
0
  6
DASHDOT
 62
     7
 10
-335.180389404297
 20
56.4444236755371
 30
0.0
 11
-335.180389404297
 21
53.1944236755371
 31
0.0
  0
LINE
  5
   6F9
  8
0
  6
DASHDOT
 62
     7
 10
-336.805389404297
 20
54.8194236755371
 30
0.0
 11
-333.555389404297
 21
54.8194236755371
 31
0.0
  0
LINE
  5
   6FA
  8
0
  6
DASHDOT
 62
     7
 10
-335.180389404297
 20
38.6944236755371
 30
0.0
 11
-335.180389404297
 21
35.4444236755371
 31
0.0
  0
LINE
  5
   6FB
  8
0
  6
DASHDOT
 62
     7
 10
-336.805389404297
 20
37.0694236755371
 30
0.0
 11
-333.555389404297
 21
37.0694236755371
 31
0.0
  0
LINE
  5
   6FC
  8
0
  6
DASHDOT
 62
     7
 10
-366.430389404297
 20
38.6944236755371
 30
0.0
 11
-366.430389404297
 21
35.4444236755371
 31
0.0
  0
LINE
  5
   6FD
  8
0
  6
DASHDOT
 62
     7
 10
-368.055389404297
 20
37.0694236755371
 30
0.0
 11
-364.805389404297
 21
37.0694236755371
 31
0.0
  0
LINE
  5
   6FE
  8
0
  6
CONTINUOUS
 62
     7
 10
-379.35494848169
 20
75.5694236755371
 30
0.0
 11
-329.767890006427
 21
75.5694236755371
 31
0.0
  0
LINE
  5
   6FF
  8
0
  6
CONTINUOUS
 62
     7
 10
-379.988359812578
 20
34.0694236755371
 30
0.0
 11
-329.315453341507
 21
34.0694236755371
 31
0.0
  0
LINE
  5
   700
  8
0
  6
CONTINUOUS
 62
     7
 10
-330.180389404297
 20
76.3994687231339
 30
0.0
 11
-330.180389404297
 21
33.1465235567548
 31
0.0
  0
LINE
  5
   701
  8
0
  6
CONTINUOUS
 62
     7
 10
-378.430389404297
 20
76.3994687231339
 30
0.0
 11
-378.430389404297
 21
32.5583558923585
 31
0.0
  0
LINE
  5
   702
  8
0
  6
DASHDOT
 62
     7
 10
-382.89111416744
 20
54.8194236755371
 30
0.0
 11
-327.43766110416
 21
54.8194236755371
 31
0.0
  0
CIRCLE
  5
   703
  8
0
  6
CONTINUOUS
 62
     7
 10
-349.805389404297
 20
72.9444236755371
 30
0.0
 40
0.5
  0
CIRCLE
  5
   704
  8
0
  6
CONTINUOUS
 62
     7
 10
-361.055389404297
 20
72.9444236755371
 30
0.0
 40
0.5
  0
CIRCLE
  5
   705
  8
0
  6
CONTINUOUS
 62
     7
 10
-349.805389404297
 20
72.9444236755371
 30
0.0
 40
0.92
  0
CIRCLE
  5
   706
  8
0
  6
CONTINUOUS
 62
     7
 10
-361.055389404297
 20
72.9444236755371
 30
0.0
 40
0.92
  0
LINE
  5
   707
  8
0
  6
DASHDOT
 62
     7
 10
-349.805389404297
 20
74.6144236755371
 30
0.0
 11
-349.805389404297
 21
71.2744236755371
 31
0.0
  0
LINE
  5
   708
  8
0
  6
DASHDOT
 62
     7
 10
-351.475389404297
 20
72.9444236755371
 30
0.0
 11
-348.135389404297
 21
72.9444236755371
 31
0.0
  0
LINE
  5
   709
  8
0
  6
DASHDOT
 62
     7
 10
-361.055389404297
 20
74.6144236755371
 30
0.0
 11
-361.055389404297
 21
71.2744236755371
 31
0.0
  0
LINE
  5
   70A
  8
0
  6
DASHDOT
 62
     7
 10
-362.725389404297
 20
72.9444236755371
 30
0.0
 11
-359.385389404297
 21
72.9444236755371
 31
0.0
  0
LINE
  5
   70B
  8
0
  6
CONTINUOUS
 62
     7
 10
-323.973307810589
 20
71.6324085473123
 30
0.0
 11
-323.973307810589
 21
62.5189376908845
 31
0.0
  0
LINE
  5
   70C
  8
0
  6
CONTINUOUS
 62
     7
 10
-327.44796886271
 20
71.6324085473123
 30
0.0
 11
-327.44796886271
 21
62.5189376908845
 31
0.0
  0
LINE
  5
   70D
  8
0
  6
CONTINUOUS
 62
     7
 10
-327.44796886271
 20
71.6324085473123
 30
0.0
 11
-323.973307810589
 21
71.6324085473123
 31
0.0
  0
LINE
  5
   70E
  8
0
  6
CONTINUOUS
 62
     7
 10
-327.44796886271
 20
62.5189376908845
 30
0.0
 11
-323.973307810589
 21
62.5189376908845
 31
0.0
  0
LINE
  5
   70F
  8
0
  6
CONTINUOUS
 62
     7
 10
-327.44796886271
 20
47.1199096601897
 30
0.0
 11
-327.44796886271
 21
38.0064388037619
 31
0.0
  0
LINE
  5
   710
  8
0
  6
CONTINUOUS
 62
     7
 10
-323.973307810589
 20
47.1199096601897
 30
0.0
 11
-323.973307810589
 21
38.0064388037619
 31
0.0
  0
LINE
  5
   711
  8
0
  6
CONTINUOUS
 62
     7
 10
-327.44796886271
 20
38.0064388037619
 30
0.0
 11
-323.973307810589
 21
38.0064388037619
 31
0.0
  0
LINE
  5
   712
  8
0
  6
CONTINUOUS
 62
     7
 10
-327.44796886271
 20
47.1199096601897
 30
0.0
 11
-323.973307810589
 21
47.1199096601897
 31
0.0
  0
LINE
  5
   713
  8
0
  6
DASHDOT
 62
     7
 10
-325.710638336649
 20
76.1530748296565
 30
0.0
 11
-325.710638336649
 21
22.3860013864571
 31
0.0
  0
LINE
  5
   714
  8
0
  6
CONTINUOUS
 62
     7
 10
-381.364152580261
 20
101.408598242946
 30
0.0
 11
-362.648662162679
 21
74.1076662101456
 31
0.0
  0
LINE
  5
   715
  8
0
  6
CONTINUOUS
 62
     7
 10
-405.266369788833
 20
101.408598242946
 30
0.0
 11
-381.364152580261
 21
101.408598242946
 31
0.0
  0
LINE
  5
   716
  8
0
  6
CONTINUOUS
 62
     7
 10
-366.167359264097
 20
77.1201855155712
 30
0.0
 11
-362.648662162679
 21
74.1076662101457
 31
0.0
  0
LINE
  5
   717
  8
0
  6
CONTINUOUS
 62
     7
 10
-364.071324725905
 20
78.1404262603103
 30
0.0
 11
-362.648662162679
 21
74.1076662101457
 31
0.0
  0
INSERT
  5
   718
  8
0
  6
CONTINUOUS
 62
     7
  2
*UDIM499
 10
0.0
 20
0.0
 30
0.0
  0
INSERT
  5
   719
  8
0
  6
CONTINUOUS
 62
     7
  2
*UDIM500
 10
0.0
 20
0.0
 30
0.0
  0
INSERT
  5
   71A
  8
0
  6
CONTINUOUS
 62
     7
  2
*UDIM501
 10
0.0
 20
0.0
 30
0.0
  0
TEXT
  5
   71B
  8
0
  6
CONTINUOUS
 62
     7
 10
-403.563385343155
 20
102.36159899976
 30
0.0
 40
3.00000002980232
  1
PART. Z
 50
359.999999844103
 41
0.916666689183977
 72
     1
 11
-394.213385015726
 21
103.861598989268
 31
0.0
 73
     2
  0
INSERT
  5
   71C
  8
0
  6
CONTINUOUS
 62
     7
  2
*UDIM502
 10
0.0
 20
0.0
 30
0.0
  0
INSERT
  5
   71D
  8
0
  6
CONTINUOUS
 62
     7
  2
*UDIM503
 10
0.0
 20
0.0
 30
0.0
  0
INSERT
  5
   71E
  8
0
  6
CONTINUOUS
 62
     7
  2
*UDIM504
 10
0.0
 20
0.0
 30
0.0
  0
TEXT
  5
   71F
  8
0
  6
CONTINUOUS
 62
     7
 10
-380.95151799597
 20
45.6289580513091
 30
0.0
 40
3.00000002980232
  1
=     =
 50
449.999999844103
 41
0.916666604744064
 72
     2
 11
-380.951517945206
 21
64.3289569694848
 31
0.0
  0
INSERT
  5
   720
  8
0
  6
CONTINUOUS
 62
     7
  2
*UDIM505
 10
0.0
 20
0.0
 30
0.0
  0
INSERT
  5
   721
  8
0
  6
CONTINUOUS
 62
     7
  2
*UDIM506
 10
0.0
 20
0.0
 30
0.0
  0
INSERT
  5
   722
  8
0
  6
CONTINUOUS
 62
     7
  2
*UDIM507
 10
0.0
 20
0.0
 30
0.0
  0
INSERT
  5
   723
  8
0
  6
CONTINUOUS
 62
     7
  2
*UDIM508
 10
0.0
 20
0.0
 30
0.0
  0
INSERT
  5
   724
  8
0
  6
CONTINUOUS
 62
     7
  2
*UDIM509
 10
0.0
 20
0.0
 30
0.0
  0
INSERT
  5
   725
  8
0
  6
CONTINUOUS
 62
     7
  2
*UDIM510
 10
0.0
 20
0.0
 30
0.0
  0
INSERT
  5
   726
  8
0
  6
CONTINUOUS
 62
     7
  2
*UDIM511
 10
0.0
 20
0.0
 30
0.0
  0
INSERT
  5
   727
  8
0
  6
CONTINUOUS
 62
     7
  2
*UDIM512
 10
0.0
 20
0.0
 30
0.0
  0
INSERT
  5
   728
  8
0
  6
CONTINUOUS
 62
     7
  2
*UDIM513
 10
0.0
 20
0.0
 30
0.0
  0
INSERT
  5
   729
  8
0
  6
CONTINUOUS
 62
     7
  2
*UDIM514
 10
0.0
 20
0.0
 30
0.0
  0
TEXT
  5
   72A
  8
0
  6
CONTINUOUS
 62
     7
 10
-356.360122571491
 20
9.95417015791447
 30
0.0
 40
3.00000002980232
  1
Y
 50
359.999999844103
 41
0.916666604744064
 72
     2
 11
-354.160122702621
 21
9.95417015193952
 31
0.0
  0
TEXT
  5
   72B
  8
0
  6
CONTINUOUS
 62
     7
 10
-356.72877849152
 20
105.959400107866
 30
0.0
 40
3.00000002980232
  1
Y
 50
359.999999844103
 41
0.916666604744064
 72
     2
 11
-354.52877862265
 21
105.959400101891
 31
0.0
  0
TEXT
  5
   72C
  8
0
  6
CONTINUOUS
 62
     7
 10
-302.928531537556
 20
54.1151009106687
 30
0.0
 40
3.00000002980232
  1
X
 50
359.999999844103
 41
0.916666604744064
 72
     2
 11
-300.728531668686
 21
54.1151009046937
 31
0.0
  0
TEXT
  5
   72D
  8
0
  6
CONTINUOUS
 62
     7
 10
-400.111926923298
 20
53.5721768641523
 30
0.0
 40
3.00000002980232
  1
X
 50
359.999999844103
 41
0.916666604744064
 72
     2
 11
-397.911927054428
 21
53.5721768581773
 31
0.0
  0
LINE
  5
   72E
  8
0
  6
CONTINUOUS
 62
     7
 10
-524.299926757813
 20
-103.559889586488
 30
0.0
 11
-524.299926757813
 21
-127.476411072691
 31
0.0
  0
LINE
  5
   72F
  8
0
  6
CONTINUOUS
 62
     7
 10
-526.299926757813
 20
-103.559889586488
 30
0.0
 11
-526.299926757813
 21
-127.476411072691
 31
0.0
  0
LINE
  5
   730
  8
0
  6
DASHDOT
 62
     7
 10
-529.50252986021
 20
-115.51815032959
 30
0.0
 11
-521.076310667772
 21
-115.51815032959
 31
0.0
  0
LINE
  5
   731
  8
0
  6
CONTINUOUS
 62
     7
 10
-524.299926757813
 20
-111.839951067235
 30
0.0
 11
-526.299926757813
 21
-113.51815032959
 31
0.0
  0
LINE
  5
   732
  8
0
  6
CONTINUOUS
 62
     7
 10
-526.299926757813
 20
-117.51815032959
 30
0.0
 11
-524.299926757813
 21
-119.196349591944
 31
0.0
  0
LINE
  5
   733
  8
0
  6
CONTINUOUS
 62
     7
 10
-526.299926757813
 20
-125.01815032959
 30
0.0
 11
-524.299926757813
 21
-125.01815032959
 31
0.0
  0
CIRCLE
  5
   734
  8
0
  6
CONTINUOUS
 62
     7
 10
-525.299926757813
 20
-115.51815032959
 30
0.0
 40
12.0
  0
LINE
  5
   735
  8
0
  6
CONTINUOUS
 62
     7
 10
-532.299919128418
 20
-120.01815032959
 30
0.0
 11
-529.799919128418
 21
-120.01815032959
 31
0.0
  0
LINE
  5
   736
  8
0
  6
CONTINUOUS
 62
     7
 10
-528.799919128418
 20
-111.01815032959
 30
0.0
 11
-528.799919128418
 21
-119.01815032959
 31
0.0
  0
LINE
  5
   737
  8
0
  6
CONTINUOUS
 62
     7
 10
-528.799919128418
 20
-111.01815032959
 30
0.0
 11
-526.299926757813
 21
-111.01815032959
 31
0.0
  0
LINE
  5
   738
  8
0
  6
CONTINUOUS
 62
     7
 10
-532.299919128418
 20
-122.51815032959
 30
0.0
 11
-529.799919128418
 21
-122.51815032959
 31
0.0
  0
LINE
  5
   739
  8
0
  6
CONTINUOUS
 62
     7
 10
-533.299919128418
 20
-123.51815032959
 30
0.0
 11
-533.299919128418
 21
-124.462429063521
 31
0.0
  0
ARC
  5
   73A
  8
0
  6
CONTINUOUS
 62
     7
 10
-529.799914981138
 20
-119.018151000929
 30
0.0
 40
0.999996977799109
 50
629.999840735313
 51
720.000252836193
  0
ARC
  5
   73B
  8
0
  6
CONTINUOUS
 62
     7
 10
-532.299904474911
 20
-123.518163015894
 30
0.0
 40
3.50001845311552
 50
450.000186734275
 51
513.408761128067
  0
ARC
  5
   73C
  8
0
  6
CONTINUOUS
 62
     7
 10
-532.299963376568
 20
-123.518109434807
 30
0.0
 40
0.999949821243504
 50
449.997764042825
 51
540.001169660043
  0
ARC
  5
   73D
  8
0
  6
CONTINUOUS
 62
     7
 10
-529.799899776036
 20
-119.018182376524
 30
0.0
 40
3.49997105594423
 50
629.999653243441
 51
720.000420168909
  0
INSERT
  5
   73E
  8
0
  6
CONTINUOUS
 62
     7
  2
*HATCH139
 10
-525.299926757813
 20
-115.51815032959
 30
0.0
 50
269.999999844103
  0
INSERT
  5
   73F
  8
0
  6
CONTINUOUS
 62
     7
  2
*HATCH140
 10
-525.299926757813
 20
-115.51815032959
 30
0.0
 50
269.999999844103
  0
TEXT
  5
   740
  8
0
  6
CONTINUOUS
 62
     7
 10
-534.00692520102
 20
-98.9608459160113
 30
0.0
 40
3.00000002980232
  1
PART. Z
 50
359.999999844103
 41
0.916666689183977
 72
     1
 11
-524.656924873591
 21
-97.4608459265037
 31
0.0
 73
     2
  0
INSERT
  5
   741
  8
0
  6
CONTINUOUS
 62
     7
  2
*UDIM515
 10
0.0
 20
0.0
 30
0.0
  0
ENDSEC
  0
EOF
