  0
SECTION
  2
HEADER
  9
$ACADVER
  1
AC1009
  9
$DWGCODEPAGE
  3
iso8859-1
  9
$INSBASE
 10
0.0
 20
0.0
 30
0.0
  9
$EXTMIN
 10
1.0E20
 20
1.0E20
  9
$EXTMAX
 10
-1.0E20
 20
-1.0E20
  9
$LIMMIN
 10
0.0
 20
0.0
  9
$LIMMAX
 10
12.0
 20
9.0
  9
$ORTHOMODE
 70
     0
  9
$REGENMODE
 70
     1
  9
$FILLMODE
 70
     1
  9
$QTEXTMODE
 70
     0
  9
$MIRRTEXT
 70
     1
  9
$DRAGMODE
 70
     2
  9
$LTSCALE
 40
15.0
  9
$OSMODE
 70
     0
  9
$ATTMODE
 70
     1
  9
$TEXTSIZE
 40
0.2
  9
$TRACEWID
 40
0.05
  9
$TEXTSTYLE
  7
STANDARD
  9
$CLAYER
  8
0
  9
$CELTYPE
  6
DASHED
  9
$CECOLOR
 62
   256
  9
$DIMSCALE
 40
1.0
  9
$DIMASZ
 40
0.18
  9
$DIMEXO
 40
0.0625
  9
$DIMDLI
 40
0.38
  9
$DIMRND
 40
0.0
  9
$DIMDLE
 40
0.0
  9
$DIMEXE
 40
0.18
  9
$DIMTP
 40
0.0
  9
$DIMTM
 40
0.0
  9
$DIMTXT
 40
0.18
  9
$DIMCEN
 40
0.09
  9
$DIMTSZ
 40
0.0
  9
$DIMTOL
 70
     0
  9
$DIMLIM
 70
     0
  9
$DIMTIH
 70
     1
  9
$DIMTOH
 70
     1
  9
$DIMSE1
 70
     0
  9
$DIMSE2
 70
     0
  9
$DIMTAD
 70
     0
  9
$DIMZIN
 70
     0
  9
$DIMBLK
  1

  9
$DIMASO
 70
     1
  9
$DIMSHO
 70
     1
  9
$DIMPOST
  1

  9
$DIMAPOST
  1

  9
$DIMALT
 70
     0
  9
$DIMALTD
 70
     2
  9
$DIMALTF
 40
25.4
  9
$DIMLFAC
 40
1.0
  9
$DIMTOFL
 70
     0
  9
$DIMTVP
 40
0.0
  9
$DIMTIX
 70
     0
  9
$DIMSOXD
 70
     0
  9
$DIMSAH
 70
     0
  9
$DIMBLK1
  1

  9
$DIMBLK2
  1

  9
$DIMSTYLE
  2
STANDARD
  9
$DIMCLRD
 70
     0
  9
$DIMCLRE
 70
     0
  9
$DIMCLRT
 70
     0
  9
$DIMTFAC
 40
1.0
  9
$DIMGAP
 40
0.09
  9
$LUNITS
 70
     2
  9
$LUPREC
 70
     4
  9
$AXISMODE
 70
     0
  9
$AXISUNIT
 10
0.0
 20
0.0
  9
$SKETCHINC
 40
0.1
  9
$FILLETRAD
 40
0.0
  9
$AUNITS
 70
     0
  9
$AUPREC
 70
     0
  9
$MENU
  1
acad
  9
$ELEVATION
 40
0.0
  9
$PELEVATION
 40
0.0
  9
$THICKNESS
 40
0.0
  9
$LIMCHECK
 70
     0
  9
$BLIPMODE
 70
     1
  9
$CHAMFERA
 40
0.0
  9
$CHAMFERB
 40
0.0
  9
$SKPOLY
 70
     0
  9
$TDCREATE
 40
0.000000000
  9
$TDUPDATE
 40
0.000000000
  9
$TDINDWG
 40
0.0
  9
$TDUSRTIMER
 40
0.0
  9
$USRTIMER
 70
     1
  9
$ANGBASE
 50
0.0
  9
$ANGDIR
 70
     0
  9
$PDMODE
 70
     0
  9
$PDSIZE
 40
0.0
  9
$PLINEWID
 40
0.0
  9
$COORDS
 70
     1
  9
$SPLFRAME
 70
     0
  9
$SPLINETYPE
 70
     6
  9
$SPLINESEGS
 70
     8
  9
$ATTDIA
 70
     0
  9
$ATTREQ
 70
     1
  9
$HANDLING
 70
     1
  9
$HANDSEED
  5
   59E
  9
$SURFTAB1
 70
     6
  9
$SURFTAB2
 70
     6
  9
$SURFTYPE
 70
     6
  9
$SURFU
 70
     6
  9
$SURFV
 70
     6
  9
$UCSNAME
  2

  9
$UCSORG
 10
0.0
 20
0.0
 30
0.0
  9
$UCSXDIR
 10
1.0
 20
0.0
 30
0.0
  9
$UCSYDIR
 10
0.0
 20
1.0
 30
0.0
  9
$PUCSNAME
  2

  9
$PUCSORG
 10
0.0
 20
0.0
 30
0.0
  9
$PUCSXDIR
 10
1.0
 20
0.0
 30
0.0
  9
$PUCSYDIR
 10
0.0
 20
1.0
 30
0.0
  9
$USERI1
 70
     0
  9
$USERI2
 70
     0
  9
$USERI3
 70
     0
  9
$USERI4
 70
     0
  9
$USERI5
 70
     0
  9
$USERR1
 40
0.0
  9
$USERR2
 40
0.0
  9
$USERR3
 40
0.0
  9
$USERR4
 40
0.0
  9
$USERR5
 40
0.0
  9
$WORLDVIEW
 70
     1
  9
$SHADEDGE
 70
     3
  9
$SHADEDIF
 70
    70
  9
$TILEMODE
 70
     1
  9
$MAXACTVP
 70
    16
  9
$PINSBASE
 10
0.0
 20
0.0
 30
0.0
  9
$PLIMCHECK
 70
     0
  9
$PEXTMIN
 10
1.0E20
 20
1.0E20
 30
1.0E20
  9
$PEXTMAX
 10
-1.0E20
 20
-1.0E20
 30
-1.0E20
  9
$PLIMMIN
 10
0.0
 20
0.0
  9
$PLIMMAX
 10
12.0
 20
9.0
  9
$UNITMODE
 70
     0
  9
$VISRETAIN
 70
     0
  0
ENDSEC
  0
SECTION
  2
TABLES
  0
TABLE
  2
VPORT
 70
     1
  0
VPORT
  2
*ACTIVE
 70
     0
 10
0.0
 20
0.0
 11
1.0
 21
1.0
 12
6.801242
 22
4.5
 13
0.0
 23
0.0
 14
1.0
 24
1.0
 15
0.0
 25
0.0
 16
0.0
 26
0.0
 36
1.0
 17
0.0
 27
0.0
 37
0.0
 40
9.0
 41
1.511387
 42
50.0
 43
0.0
 44
0.0
 50
0.0
 51
0.0
 71
     0
 72
   100
 73
     1
 74
     1
 75
     0
 76
     0
 77
     0
 78
     0
  0
ENDTAB
  0
TABLE
  2
LTYPE
 70
    41
  0
LTYPE
  2
BYBLOCK
 70
     0
  3

 72
    65
 73
     0
 40
0.0
  0
LTYPE
  2
BYLAYER
 70
     0
  3

 72
    65
 73
     0
 40
0.0
  0
LTYPE
  2
CONTINUOUS
 70
     0
  3
Solid line
 72
    65
 73
     0
 40
0.0
  0
LTYPE
  2
BORDER
 70
    64
  3
__ __ . __ __ . __ __ . __ __ . __ __ . __ __ .
 72
    65
 73
     6
 40
1.75
 49
0.5
 49
-0.25
 49
0.5
 49
-0.25
 49
0.0
 49
-0.25
  0
LTYPE
  2
BORDER2
 70
    64
  3
__.__.__.__.__.__.__.__.__.__.__.__.__.__.__.__
 72
    65
 73
     6
 40
0.875
 49
0.25
 49
-0.125
 49
0.25
 49
-0.125
 49
0.0
 49
-0.125
  0
LTYPE
  2
BORDERX2
 70
    64
  3
____  ____  .  ____  ____  .  ____  ____  .  __
 72
    65
 73
     6
 40
3.5
 49
1.0
 49
-0.5
 49
1.0
 49
-0.5
 49
0.0
 49
-0.5
  0
LTYPE
  2
CENTER
 70
    64
  3
____ _ ____ _ ____ _ ____ _ ____ _ ____ _ ____
 72
    65
 73
     4
 40
2.0
 49
1.25
 49
-0.25
 49
0.25
 49
-0.25
  0
LTYPE
  2
CENTER2
 70
    64
  3
___ _ ___ _ ___ _ ___ _ ___ _ ___ _ ___ _ ___ _
 72
    65
 73
     4
 40
1.125
 49
0.75
 49
-0.125
 49
0.125
 49
-0.125
  0
LTYPE
  2
CENTERX2
 70
    64
  3
________  __  ________  __  ________  __  _____
 72
    65
 73
     4
 40
4.0
 49
2.5
 49
-0.5
 49
0.5
 49
-0.5
  0
LTYPE
  2
DASHDOT
 70
    64
  3
__ . __ . __ . __ . __ . __ . __ . __ . __ . __
 72
    65
 73
     4
 40
1.0
 49
0.5
 49
-0.25
 49
0.0
 49
-0.25
  0
LTYPE
  2
DASHDOT2
 70
    64
  3
_._._._._._._._._._._._._._._._._._._._._._._._
 72
    65
 73
     4
 40
0.5
 49
0.25
 49
-0.125
 49
0.0
 49
-0.125
  0
LTYPE
  2
DASHDOTX2
 70
    64
  3
____  .  ____  .  ____  .  ____  .  ____  .  __
 72
    65
 73
     4
 40
2.0
 49
1.0
 49
-0.5
 49
0.0
 49
-0.5
  0
LTYPE
  2
DASHED
 70
    64
  3
__ __ __ __ __ __ __ __ __ __ __ __ __ __ __ __
 72
    65
 73
     2
 40
0.75
 49
0.5
 49
-0.25
  0
LTYPE
  2
DASHED2
 70
    64
  3
_ _ _ _ _ _ _ _ _ _ _ _ _ _ _ _ _ _ _ _ _ _ _ _
 72
    65
 73
     2
 40
0.375
 49
0.25
 49
-0.125
  0
LTYPE
  2
DASHEDX2
 70
    64
  3
____  ____  ____  ____  ____  ____  ____  ____
 72
    65
 73
     2
 40
1.5
 49
1.0
 49
-0.5
  0
LTYPE
  2
DIVIDE
 70
    64
  3
____ . . ____ . . ____ . . ____ . . ____ . . __
 72
    65
 73
     6
 40
1.25
 49
0.5
 49
-0.25
 49
0.0
 49
-0.25
 49
0.0
 49
-0.25
  0
LTYPE
  2
DIVIDE2
 70
    64
  3
__..__..__..__..__..__..__..__..__..__..__..__.
 72
    65
 73
     6
 40
0.625
 49
0.25
 49
-0.125
 49
0.0
 49
-0.125
 49
0.0
 49
-0.125
  0
LTYPE
  2
DIVIDEX2
 70
    64
  3
________  .  .  ________  .  .  ________  .  .
 72
    65
 73
     6
 40
2.5
 49
1.0
 49
-0.5
 49
0.0
 49
-0.5
 49
0.0
 49
-0.5
  0
LTYPE
  2
DOT
 70
    64
  3
. . . . . . . . . . . . . . . . . . . . . . . .
 72
    65
 73
     2
 40
0.25
 49
0.0
 49
-0.25
  0
LTYPE
  2
DOT2
 70
    64
  3
...............................................
 72
    65
 73
     2
 40
0.125
 49
0.0
 49
-0.125
  0
LTYPE
  2
DOTX2
 70
    64
  3
.  .  .  .  .  .  .  .  .  .  .  .  .  .  .  .
 72
    65
 73
     2
 40
0.5
 49
0.0
 49
-0.5
  0
LTYPE
  2
HIDDEN
 70
    64
  3
__ __ __ __ __ __ __ __ __ __ __ __ __ __ __ __
 72
    65
 73
     2
 40
0.375
 49
0.25
 49
-0.125
  0
LTYPE
  2
HIDDEN2
 70
    64
  3
_ _ _ _ _ _ _ _ _ _ _ _ _ _ _ _ _ _ _ _ _ _ _ _
 72
    65
 73
     2
 40
0.1875
 49
0.125
 49
-0.0625
  0
LTYPE
  2
HIDDENX2
 70
    64
  3
____ ____ ____ ____ ____ ____ ____ ____ ____ __
 72
    65
 73
     2
 40
0.75
 49
0.5
 49
-0.25
  0
LTYPE
  2
PHANTOM
 70
    64
  3
______  __  __  ______  __  __  ______  __  __
 72
    65
 73
     6
 40
2.5
 49
1.25
 49
-0.25
 49
0.25
 49
-0.25
 49
0.25
 49
-0.25
  0
LTYPE
  2
PHANTOM2
 70
    64
  3
___ _ _ ___ _ _ ___ _ _ ___ _ _ ___ _ _ ___ _ _
 72
    65
 73
     6
 40
1.25
 49
0.625
 49
-0.125
 49
0.125
 49
-0.125
 49
0.125
 49
-0.125
  0
LTYPE
  2
PHANTOMX2
 70
    64
  3
____________    ____    ____    ____________
 72
    65
 73
     6
 40
5.0
 49
2.5
 49
-0.5
 49
0.5
 49
-0.5
 49
0.5
 49
-0.5
  0
LTYPE
  2
ACAD_ISO02W100
 70
    64
  3
__ __ __ __ __ __ __ __ __ __ __ __ __ __ __ __
 72
    65
 73
     2
 40
15.0
 49
12.0
 49
-3.0
  0
LTYPE
  2
ACAD_ISO03W100
 70
    64
  3
__    __    __    __    __    __    __    __
 72
    65
 73
     2
 40
30.0
 49
12.0
 49
-18.0
  0
LTYPE
  2
ACAD_ISO04W100
 70
    64
  3
____ . ____ . ____ . ____ . ____ . ____ . ____
 72
    65
 73
     4
 40
30.5
 49
24.0
 49
-3.0
 49
0.5
 49
-3.0
  0
LTYPE
  2
ACAD_ISO05W100
 70
    64
  3
____ .. ____ .. ____ .. ____ .. ____ .. ____ ..
 72
    65
 73
     6
 40
34.0
 49
24.0
 49
-3.0
 49
0.5
 49
-3.0
 49
0.5
 49
-3.0
  0
LTYPE
  2
ACAD_ISO06W100
 70
    64
  3
____ ... ____ ... ____ ... ____ ... ____ ... __
 72
    65
 73
     8
 40
37.5
 49
24.0
 49
-3.0
 49
0.5
 49
-3.0
 49
0.5
 49
-3.0
 49
0.5
 49
-3.0
  0
LTYPE
  2
ACAD_ISO07W100
 70
    64
  3
. . . . . . . . . . . . . . . . . . . . . . . .
 72
    65
 73
     2
 40
3.5
 49
0.5
 49
-3.0
  0
LTYPE
  2
ACAD_ISO08W100
 70
    64
  3
____ __ ____ __ ____ __ ____ ____ __ __ ____ __
 72
    65
 73
     4
 40
36.0
 49
24.0
 49
-3.0
 49
6.0
 49
-3.0
  0
LTYPE
  2
ACAD_ISO09W100
 70
    64
  3
____ __ __ ____ __ __ ____ __ __ ____ __ __ ___
 72
    65
 73
     6
 40
45.0
 49
24.0
 49
-3.0
 49
6.0
 49
-3.0
 49
6.0
 49
-3.0
  0
LTYPE
  2
ACAD_ISO10W100
 70
    64
  3
__ . __ . __ . __ . __ . __ . __ . __ . __ . __
 72
    65
 73
     4
 40
18.5
 49
12.0
 49
-3.0
 49
0.5
 49
-3.0
  0
LTYPE
  2
ACAD_ISO11W100
 70
    64
  3
__ __ . __ __ . __ __ . __ __ . __ __ . __ __ .
 72
    65
 73
     6
 40
33.5
 49
12.0
 49
-3.0
 49
12.0
 49
-3.0
 49
0.5
 49
-3.0
  0
LTYPE
  2
ACAD_ISO12W100
 70
    64
  3
__ . . __ . . __ . . __ . . __ . . __ . . __ .
 72
    65
 73
     6
 40
22.0
 49
12.0
 49
-3.0
 49
0.5
 49
-3.0
 49
0.5
 49
-3.0
  0
LTYPE
  2
ACAD_ISO13W100
 70
    64
  3
__ __ . . __ __ . . __ __ . . __ __ . . __ __ .
 72
    65
 73
     8
 40
37.0
 49
12.0
 49
-3.0
 49
12.0
 49
-3.0
 49
0.5
 49
-3.0
 49
0.5
 49
-3.0
  0
LTYPE
  2
ACAD_ISO14W100
 70
    64
  3
__ . . . __ . . . __ . . . __ . . . __ . . . __
 72
    65
 73
     8
 40
25.5
 49
12.0
 49
-3.0
 49
0.5
 49
-3.0
 49
0.5
 49
-3.0
 49
0.5
 49
-3.0
  0
LTYPE
  2
ACAD_ISO15W100
 70
    64
  3
__ __ . . . __ __ . . . __ __ . . . __ __ . . .
 72
    65
 73
    10
 40
40.5
 49
12.0
 49
-3.0
 49
12.0
 49
-3.0
 49
0.5
 49
-3.0
 49
0.5
 49
-3.0
 49
0.5
 49
-3.0
  0
ENDTAB
  0
TABLE
  2
STYLE
 70
     4
  0
STYLE
  2
STANDARD
 70
    64
 40
0.0
 41
1.0
 50
0.0
 71
     0
 42
0.2
  3
txt
  4

  0
STYLE
  2
TOLERANCE
 70
    64
 40
0.0
 41
1.0
 50
0.0
 71
     0
 42
0.2
  3
../igesfont/iges1003.shx
  4

  0
STYLE
  2
ROMANS
 70
    64
 40
0.0
 41
1.0
 50
0.0
 71
     0
 42
0.2
  3
romans.shx
  4

  0
STYLE
  2
ROMANC
 70
    64
 40
0.0
 41
1.0
 50
0.0
 71
     0
 42
0.2
  3
romanc.shx
  4

  0
ENDTAB
  0
TABLE
  2
DIMSTYLE
 70
     2
  0
DIMSTYLE
  2
UNNAMED
 70
     0
  3

  4

  5

  6

  7

 40
1.0
 41
0.18
 42
0.0625
 43
0.38
 44
0.18
 45
0.0
 46
0.0
 47
0.0
 48
0.0
140
0.18
141
0.09
142
0.0
143
25.4
144
1.0
145
0.0
146
1.0
147
0.09
 71
     0
 72
     0
 73
     1
 74
     1
 75
     0
 76
     0
 77
     0
 78
     0
170
     0
171
     2
172
     0
173
     0
174
     0
175
     0
176
     0
177
     0
178
     0
  0
DIMSTYLE
  2
STANDARD
 70
     0
  3

  4

  5

  6

  7

 40
1.0
 41
0.18
 42
0.0625
 43
0.38
 44
0.18
 45
0.0
 46
0.0
 47
0.0
 48
0.0
140
0.18
141
0.09
142
0.0
143
25.4
144
1.0
145
0.0
146
1.0
147
0.09
 71
     0
 72
     0
 73
     1
 74
     1
 75
     0
 76
     0
 77
     0
 78
     0
170
     0
171
     2
172
     0
173
     0
174
     0
175
     0
176
     0
177
     0
178
     0
  0
ENDTAB
  0
TABLE
  2
LAYER
 70
     2
  0
LAYER
  2
0
 70
     0
 62
     7
  6
CONTINUOUS
  0
LAYER
  2
255
 70
     0
 62
     7
  6
CONTINUOUS
  0
ENDTAB
  0
ENDSEC
  0
SECTION
  2
BLOCKS
  0
BLOCK
  5
     B
  8
0
  6
CONTINUOUS
 62
    18
  2
*HATCH0
 70
    65
 10
0.0
 20
0.0
 30
0.0
  3
*HATCH0
  0
LINE
  5
     C
  8
0
  6
DOT2
 62
    10
 10
18.2260398864746
 20
-21.75
 30
0.0
 11
36.2260398864746
 21
-21.75
 31
0.0
  0
LINE
  5
     D
  8
0
  6
DOT2
 62
    10
 10
18.2260398864746
 20
-19.75
 30
0.0
 11
21.1800842285156
 21
-19.75
 31
0.0
  0
LINE
  5
     E
  8
0
  6
DOT2
 62
    10
 10
18.2260398864746
 20
-17.75
 30
0.0
 11
21.1800842285156
 21
-17.75
 31
0.0
  0
LINE
  5
     F
  8
0
  6
DOT2
 62
    10
 10
18.2260398864746
 20
-15.75
 30
0.0
 11
21.1800842285156
 21
-15.75
 31
0.0
  0
LINE
  5
    10
  8
0
  6
DOT2
 62
    10
 10
18.2260398864746
 20
-13.75
 30
0.0
 11
21.1800842285156
 21
-13.75
 31
0.0
  0
LINE
  5
    11
  8
0
  6
DOT2
 62
    10
 10
18.2260398864746
 20
-11.75
 30
0.0
 11
21.1800842285156
 21
-11.75
 31
0.0
  0
LINE
  5
    12
  8
0
  6
DOT2
 62
    10
 10
18.2260398864746
 20
-9.74999999999999
 30
0.0
 11
21.1800842285156
 21
-9.74999999999999
 31
0.0
  0
LINE
  5
    13
  8
0
  6
DOT2
 62
    10
 10
18.2260398864746
 20
-7.74999999999999
 30
0.0
 11
21.1800842285156
 21
-7.74999999999999
 31
0.0
  0
LINE
  5
    14
  8
0
  6
DOT2
 62
    10
 10
18.2260398864746
 20
-5.74999999999999
 30
0.0
 11
21.1800842285156
 21
-5.74999999999999
 31
0.0
  0
LINE
  5
    15
  8
0
  6
DOT2
 62
    10
 10
18.2260398864746
 20
-3.74999999999999
 30
0.0
 11
21.1800842285156
 21
-3.74999999999999
 31
0.0
  0
LINE
  5
    16
  8
0
  6
DOT2
 62
    10
 10
18.2260398864746
 20
-1.74999999999999
 30
0.0
 11
21.1800842285156
 21
-1.74999999999999
 31
0.0
  0
LINE
  5
    17
  8
0
  6
DOT2
 62
    10
 10
18.2260398864746
 20
0.250000000000011
 30
0.0
 11
21.1800842285156
 21
0.250000000000011
 31
0.0
  0
LINE
  5
    18
  8
0
  6
DOT2
 62
    10
 10
18.2260398864746
 20
2.25000000000001
 30
0.0
 11
21.1800842285156
 21
2.25000000000001
 31
0.0
  0
LINE
  5
    19
  8
0
  6
DOT2
 62
    10
 10
18.2260398864746
 20
4.25000000000001
 30
0.0
 11
21.1800842285156
 21
4.25000000000001
 31
0.0
  0
LINE
  5
    1A
  8
0
  6
DOT2
 62
    10
 10
18.2260398864746
 20
6.25000000000001
 30
0.0
 11
21.1800842285156
 21
6.25000000000001
 31
0.0
  0
LINE
  5
    1B
  8
0
  6
DOT2
 62
    10
 10
18.2260398864746
 20
8.25000000000001
 30
0.0
 11
21.1800842285156
 21
8.25000000000001
 31
0.0
  0
LINE
  5
    1C
  8
0
  6
DOT2
 62
    10
 10
18.2260398864746
 20
10.25
 30
0.0
 11
21.1800842285156
 21
10.25
 31
0.0
  0
LINE
  5
    1D
  8
0
  6
DOT2
 62
    10
 10
18.2260398864746
 20
12.25
 30
0.0
 11
21.1800842285156
 21
12.25
 31
0.0
  0
LINE
  5
    1E
  8
0
  6
DOT2
 62
    10
 10
18.2260398864746
 20
14.25
 30
0.0
 11
21.1800842285156
 21
14.25
 31
0.0
  0
LINE
  5
    1F
  8
0
  6
DOT2
 62
    10
 10
18.2260398864746
 20
16.25
 30
0.0
 11
21.1800842285156
 21
16.25
 31
0.0
  0
LINE
  5
    20
  8
0
  6
DOT2
 62
    10
 10
18.2260398864746
 20
18.25
 30
0.0
 11
21.1800842285156
 21
18.25
 31
0.0
  0
LINE
  5
    21
  8
0
  6
DOT2
 62
    10
 10
18.2260398864746
 20
20.25
 30
0.0
 11
21.1800842285156
 21
20.25
 31
0.0
  0
LINE
  5
    22
  8
0
  6
DOT2
 62
    10
 10
18.2260398864746
 20
22.25
 30
0.0
 11
36.2260398864746
 21
22.25
 31
0.0
  0
ENDBLK
  5
    23
  8
0
  6
CONTINUOUS
 62
    18
  0
BLOCK
  5
    24
  8
0
  6
CONTINUOUS
 62
     7
  2
*HATCH1
 70
    65
 10
0.0
 20
0.0
 30
0.0
  3
*HATCH1
  0
LINE
  5
    25
  8
0
  6
DOT2
 62
    10
 10
85.0557632446289
 20
-21.75
 30
0.0
 11
103.055763244629
 21
-21.75
 31
0.0
  0
LINE
  5
    26
  8
0
  6
DOT2
 62
    10
 10
100.319770812988
 20
-19.75
 30
0.0
 11
103.055763244629
 21
-19.75
 31
0.0
  0
LINE
  5
    27
  8
0
  6
DOT2
 62
    10
 10
100.319770812988
 20
-17.75
 30
0.0
 11
103.055763244629
 21
-17.75
 31
0.0
  0
LINE
  5
    28
  8
0
  6
DOT2
 62
    10
 10
100.319770812988
 20
-15.75
 30
0.0
 11
103.055763244629
 21
-15.75
 31
0.0
  0
LINE
  5
    29
  8
0
  6
DOT2
 62
    10
 10
100.319770812988
 20
-13.75
 30
0.0
 11
103.055763244629
 21
-13.75
 31
0.0
  0
LINE
  5
    2A
  8
0
  6
DOT2
 62
    10
 10
100.319770812988
 20
-11.75
 30
0.0
 11
103.055763244629
 21
-11.75
 31
0.0
  0
LINE
  5
    2B
  8
0
  6
DOT2
 62
    10
 10
100.319770812988
 20
-9.74999999999999
 30
0.0
 11
103.055763244629
 21
-9.74999999999999
 31
0.0
  0
LINE
  5
    2C
  8
0
  6
DOT2
 62
    10
 10
100.319770812988
 20
-7.74999999999999
 30
0.0
 11
103.055763244629
 21
-7.74999999999999
 31
0.0
  0
LINE
  5
    2D
  8
0
  6
DOT2
 62
    10
 10
100.319770812988
 20
-5.74999999999999
 30
0.0
 11
103.055763244629
 21
-5.74999999999999
 31
0.0
  0
LINE
  5
    2E
  8
0
  6
DOT2
 62
    10
 10
100.319770812988
 20
-3.74999999999999
 30
0.0
 11
103.055763244629
 21
-3.74999999999999
 31
0.0
  0
LINE
  5
    2F
  8
0
  6
DOT2
 62
    10
 10
100.319770812988
 20
-1.74999999999999
 30
0.0
 11
103.055763244629
 21
-1.74999999999999
 31
0.0
  0
LINE
  5
    30
  8
0
  6
DOT2
 62
    10
 10
100.319770812988
 20
0.250000000000014
 30
0.0
 11
103.055763244629
 21
0.250000000000014
 31
0.0
  0
LINE
  5
    31
  8
0
  6
DOT2
 62
    10
 10
100.319770812988
 20
2.25000000000001
 30
0.0
 11
103.055763244629
 21
2.25000000000001
 31
0.0
  0
LINE
  5
    32
  8
0
  6
DOT2
 62
    10
 10
100.319770812988
 20
4.25000000000001
 30
0.0
 11
103.055763244629
 21
4.25000000000001
 31
0.0
  0
LINE
  5
    33
  8
0
  6
DOT2
 62
    10
 10
100.319770812988
 20
6.25000000000001
 30
0.0
 11
103.055763244629
 21
6.25000000000001
 31
0.0
  0
LINE
  5
    34
  8
0
  6
DOT2
 62
    10
 10
100.319770812988
 20
8.25000000000001
 30
0.0
 11
103.055763244629
 21
8.25000000000001
 31
0.0
  0
LINE
  5
    35
  8
0
  6
DOT2
 62
    10
 10
100.319770812988
 20
10.25
 30
0.0
 11
103.055763244629
 21
10.25
 31
0.0
  0
LINE
  5
    36
  8
0
  6
DOT2
 62
    10
 10
100.319770812988
 20
12.25
 30
0.0
 11
103.055763244629
 21
12.25
 31
0.0
  0
LINE
  5
    37
  8
0
  6
DOT2
 62
    10
 10
100.319770812988
 20
14.25
 30
0.0
 11
103.055763244629
 21
14.25
 31
0.0
  0
LINE
  5
    38
  8
0
  6
DOT2
 62
    10
 10
100.319770812988
 20
16.25
 30
0.0
 11
103.055763244629
 21
16.25
 31
0.0
  0
LINE
  5
    39
  8
0
  6
DOT2
 62
    10
 10
100.319770812988
 20
18.25
 30
0.0
 11
103.055763244629
 21
18.25
 31
0.0
  0
LINE
  5
    3A
  8
0
  6
DOT2
 62
    10
 10
100.319770812988
 20
20.25
 30
0.0
 11
103.055763244629
 21
20.25
 31
0.0
  0
LINE
  5
    3B
  8
0
  6
DOT2
 62
    10
 10
85.0557632446289
 20
22.25
 30
0.0
 11
103.055763244629
 21
22.25
 31
0.0
  0
ENDBLK
  5
    3C
  8
0
  6
CONTINUOUS
 62
     7
  0
BLOCK
  5
    3D
  8
0
  6
CONTINUOUS
 62
     7
  2
*UDIM0
 70
    65
 10
0.0
 20
0.0
 30
0.0
  3
*UDIM0
  0
TEXT
  5
    3E
  8
0
  6
CONTINUOUS
 62
     7
 10
-10.6849827549193
 20
-119.479332286038
 30
0.0
 40
3.00000001532688
  1
152
 50
359.999999948034
 41
0.933333333333334
 72
     1
 11
-6.78498273364141
 21
-117.979332281892
 31
0.0
 73
     2
  0
LINE
  5
    3F
  8
0
  6
CONTINUOUS
 62
     7
 10
20.0900164127347
 20
-80.737987256048
 30
0.0
 11
20.0900164127347
 21
-122.479332289556
 31
0.0
  0
LINE
  5
    40
  8
0
  6
CONTINUOUS
 62
     7
 10
-33.1099781513217
 20
-80.7379992723431
 30
0.0
 11
-33.1099781513217
 21
-122.479332289556
 31
0.0
  0
LINE
  5
    41
  8
0
  6
CONTINUOUS
 62
     7
 10
20.0900164127347
 20
-120.479332289556
 30
0.0
 11
-33.1099781513217
 21
-120.479332289556
 31
0.0
  0
LINE
  5
    42
  8
0
  6
CONTINUOUS
 62
     7
 10
17.1355931355278
 20
-121.000276719507
 30
0.0
 11
20.0900164127347
 21
-120.479332289556
 31
0.0
  0
LINE
  5
    43
  8
0
  6
CONTINUOUS
 62
     7
 10
20.0900164127347
 20
-120.479332289556
 30
0.0
 11
17.1355931355278
 21
-119.958387859604
 31
0.0
  0
LINE
  5
    44
  8
0
  6
CONTINUOUS
 62
     7
 10
-30.1555548741147
 20
-119.958387859604
 30
0.0
 11
-33.1099781513217
 21
-120.479332289556
 31
0.0
  0
LINE
  5
    45
  8
0
  6
CONTINUOUS
 62
     7
 10
-33.1099781513217
 20
-120.479332289556
 30
0.0
 11
-30.1555548741147
 21
-121.000276719507
 31
0.0
  0
ENDBLK
  5
    46
  8
0
  6
CONTINUOUS
 62
     7
  0
BLOCK
  5
    47
  8
0
  6
CONTINUOUS
 62
     7
  2
*UDIM1
 70
    65
 10
0.0
 20
0.0
 30
0.0
  3
*UDIM1
  0
TEXT
  5
    48
  8
0
  6
CONTINUOUS
 62
     7
 10
-82.4061734000314
 20
-50.0504954389095
 30
0.0
 40
3.00000001532688
  1
196
 50
89.9999999480344
 41
0.933333333333334
 72
     1
 11
-83.9061734041625
 21
-46.150495417626
 31
0.0
 73
     2
  0
LINE
  5
    49
  8
0
  6
CONTINUOUS
 62
     7
 10
-33.6724781960238
 20
-80.1754932194906
 30
0.0
 11
-83.4061733964991
 21
-80.1754932194906
 31
0.0
  0
LINE
  5
    4A
  8
0
  6
CONTINUOUS
 62
     7
 10
-32.5349756419652
 20
-11.5754975587112
 30
0.0
 11
-83.4061733964991
 21
-11.5754975587112
 31
0.0
  0
LINE
  5
    4B
  8
0
  6
CONTINUOUS
 62
     7
 10
-81.4061733964991
 20
-80.1754932194906
 30
0.0
 11
-81.4061733964991
 21
-11.5754975587112
 31
0.0
  0
LINE
  5
    4C
  8
0
  6
CONTINUOUS
 62
     7
 10
-81.9271178264508
 20
-77.2210699422837
 30
0.0
 11
-81.4061733964991
 21
-80.1754932194906
 31
0.0
  0
LINE
  5
    4D
  8
0
  6
CONTINUOUS
 62
     7
 10
-81.4061733964991
 20
-80.1754932194906
 30
0.0
 11
-80.8852289665474
 21
-77.2210699422837
 31
0.0
  0
LINE
  5
    4E
  8
0
  6
CONTINUOUS
 62
     7
 10
-80.8852289665474
 20
-14.5299208359182
 30
0.0
 11
-81.4061733964991
 21
-11.5754975587112
 31
0.0
  0
LINE
  5
    4F
  8
0
  6
CONTINUOUS
 62
     7
 10
-81.4061733964991
 20
-11.5754975587112
 30
0.0
 11
-81.9271178264508
 21
-14.5299208359182
 31
0.0
  0
ENDBLK
  5
    50
  8
0
  6
CONTINUOUS
 62
     7
  0
BLOCK
  5
    51
  8
0
  6
CONTINUOUS
 62
     7
  2
*UDIM2
 70
    65
 10
0.0
 20
0.0
 30
0.0
  3
*UDIM2
  0
TEXT
  5
    52
  8
0
  6
CONTINUOUS
 62
     7
 10
46.0202455147875
 20
-47.1630678289145
 30
0.0
 40
3.00000001532688
  1
406
 50
89.9999999480344
 41
0.933333333333334
 72
     1
 11
44.5202455106564
 21
-43.263067807631
 31
0.0
 73
     2
  0
LINE
  5
    53
  8
0
  6
CONTINUOUS
 62
     7
 10
31.2400020241745
 20
-114.037957735657
 30
0.0
 11
49.0202455183198
 21
-114.037957735657
 31
0.0
  0
LINE
  5
    54
  8
0
  6
CONTINUOUS
 62
     7
 10
-66.2350915460355
 20
28.0618293955673
 30
0.0
 11
49.0202455183198
 21
28.0618293955673
 31
0.0
  0
LINE
  5
    55
  8
0
  6
CONTINUOUS
 62
     7
 10
47.0202455183198
 20
-114.037957735657
 30
0.0
 11
47.0202455183198
 21
28.0618293955673
 31
0.0
  0
LINE
  5
    56
  8
0
  6
CONTINUOUS
 62
     7
 10
46.4993010883682
 20
-111.083534458451
 30
0.0
 11
47.0202455183198
 21
-114.037957735657
 31
0.0
  0
LINE
  5
    57
  8
0
  6
CONTINUOUS
 62
     7
 10
47.0202455183198
 20
-114.037957735657
 30
0.0
 11
47.5411899482715
 21
-111.083534458451
 31
0.0
  0
LINE
  5
    58
  8
0
  6
CONTINUOUS
 62
     7
 10
47.5411899482715
 20
25.1074061183603
 30
0.0
 11
47.0202455183198
 21
28.0618293955673
 31
0.0
  0
LINE
  5
    59
  8
0
  6
CONTINUOUS
 62
     7
 10
47.0202455183198
 20
28.0618293955673
 30
0.0
 11
46.4993010883682
 21
25.1074061183603
 31
0.0
  0
ENDBLK
  5
    5A
  8
0
  6
CONTINUOUS
 62
     7
  0
BLOCK
  5
    5B
  8
0
  6
CONTINUOUS
 62
     7
  2
*UDIM3
 70
    65
 10
0.0
 20
0.0
 30
0.0
  3
*UDIM3
  0
TEXT
  5
    5C
  8
0
  6
CONTINUOUS
 62
     7
 10
38.0274812825134
 20
-17.2818338816365
 30
0.0
 40
3.00000001532688
  1
211,25
 50
89.9999999480344
 41
0.933333333333333
 72
     1
 11
36.5274812821862
 21
-9.18183383889536
 31
0.0
 73
     2
  0
LINE
  5
    5D
  8
0
  6
CONTINUOUS
 62
     7
 10
-66.2350915460355
 20
28.0618293955673
 30
0.0
 11
41.0274812898497
 21
28.0618293955673
 31
0.0
  0
LINE
  5
    5E
  8
0
  6
CONTINUOUS
 62
     7
 10
39.0274812898497
 20
-45.8754908829906
 30
0.0
 11
39.0274812898497
 21
28.0618293955673
 31
0.0
  0
LINE
  5
    5F
  8
0
  6
CONTINUOUS
 62
     7
 10
38.506536859898
 20
-42.9210676057836
 30
0.0
 11
39.0274812898497
 21
-45.8754908829906
 31
0.0
  0
LINE
  5
    60
  8
0
  6
CONTINUOUS
 62
     7
 10
39.0274812898497
 20
-45.8754908829906
 30
0.0
 11
39.5484257198013
 21
-42.9210676057836
 31
0.0
  0
LINE
  5
    61
  8
0
  6
CONTINUOUS
 62
     7
 10
39.5484257198013
 20
25.1074061183603
 30
0.0
 11
39.0274812898497
 21
28.0618293955673
 31
0.0
  0
LINE
  5
    62
  8
0
  6
CONTINUOUS
 62
     7
 10
39.0274812898497
 20
28.0618293955673
 30
0.0
 11
38.506536859898
 21
25.1074061183603
 31
0.0
  0
ENDBLK
  5
    63
  8
0
  6
CONTINUOUS
 62
     7
  0
BLOCK
  5
    64
  8
0
  6
CONTINUOUS
 62
     7
  2
*UDIM4
 70
    65
 10
0.0
 20
0.0
 30
0.0
  3
*UDIM4
  0
TEXT
  5
    65
  8
0
  6
CONTINUOUS
 62
     7
 10
-22.9349788329339
 20
47.5686982830335
 30
0.0
 40
3.00000001532688
  1
280
 50
359.999999948034
 41
0.933333333333334
 72
     1
 11
-19.0349788116561
 21
49.0686982871794
 31
0.0
 73
     2
  0
LINE
  5
    66
  8
0
  6
CONTINUOUS
 62
     7
 10
30.2400127053261
 20
28.5369375288574
 30
0.0
 11
30.2400127053261
 21
48.568698279516
 31
0.0
  0
LINE
  5
    67
  8
0
  6
CONTINUOUS
 62
     7
 10
-67.7599772810936
 20
28.5369375288574
 30
0.0
 11
-67.7599772810936
 21
48.568698279516
 31
0.0
  0
LINE
  5
    68
  8
0
  6
CONTINUOUS
 62
     7
 10
30.2400127053261
 20
46.568698279516
 30
0.0
 11
-67.7599772810936
 21
46.568698279516
 31
0.0
  0
LINE
  5
    69
  8
0
  6
CONTINUOUS
 62
     7
 10
27.2855894281191
 20
46.0477538495643
 30
0.0
 11
30.2400127053261
 21
46.568698279516
 31
0.0
  0
LINE
  5
    6A
  8
0
  6
CONTINUOUS
 62
     7
 10
30.2400127053261
 20
46.568698279516
 30
0.0
 11
27.2855894281191
 21
47.0896427094676
 31
0.0
  0
LINE
  5
    6B
  8
0
  6
CONTINUOUS
 62
     7
 10
-64.8055540038866
 20
47.0896427094676
 30
0.0
 11
-67.7599772810936
 21
46.568698279516
 31
0.0
  0
LINE
  5
    6C
  8
0
  6
CONTINUOUS
 62
     7
 10
-67.7599772810936
 20
46.568698279516
 30
0.0
 11
-64.8055540038866
 21
46.0477538495643
 31
0.0
  0
ENDBLK
  5
    6D
  8
0
  6
CONTINUOUS
 62
     7
  0
BLOCK
  5
    6E
  8
0
  6
CONTINUOUS
 62
     7
  2
*UDIM5
 70
    65
 10
0.0
 20
0.0
 30
0.0
  3
*UDIM5
  0
TEXT
  5
    6F
  8
0
  6
CONTINUOUS
 62
     7
 10
7.6900153675344
 20
41.490877553964
 30
0.0
 40
3.00000001532688
  1
105
 50
359.999999948034
 41
0.933333333333334
 72
     1
 11
11.5900153888123
 21
42.9908775581098
 31
0.0
 73
     2
  0
LINE
  5
    70
  8
0
  6
CONTINUOUS
 62
     7
 10
30.2400127053261
 20
28.5369375288574
 30
0.0
 11
30.2400127053261
 21
42.4908775504464
 31
0.0
  0
LINE
  5
    71
  8
0
  6
CONTINUOUS
 62
     7
 10
-6.5099835395813
 20
37.9819415477954
 30
0.0
 11
-6.5099835395813
 21
42.4908775504464
 31
0.0
  0
LINE
  5
    72
  8
0
  6
CONTINUOUS
 62
     7
 10
30.2400127053261
 20
40.4908775504464
 30
0.0
 11
-6.5099835395813
 21
40.4908775504464
 31
0.0
  0
LINE
  5
    73
  8
0
  6
CONTINUOUS
 62
     7
 10
27.2855894281191
 20
39.9699331204947
 30
0.0
 11
30.2400127053261
 21
40.4908775504464
 31
0.0
  0
LINE
  5
    74
  8
0
  6
CONTINUOUS
 62
     7
 10
30.2400127053261
 20
40.4908775504464
 30
0.0
 11
27.2855894281191
 21
41.0118219803981
 31
0.0
  0
LINE
  5
    75
  8
0
  6
CONTINUOUS
 62
     7
 10
-3.55556026237433
 20
41.0118219803981
 30
0.0
 11
-6.5099835395813
 21
40.4908775504464
 31
0.0
  0
LINE
  5
    76
  8
0
  6
CONTINUOUS
 62
     7
 10
-6.5099835395813
 20
40.4908775504464
 30
0.0
 11
-3.55556026237433
 21
39.9699331204947
 31
0.0
  0
ENDBLK
  5
    77
  8
0
  6
CONTINUOUS
 62
     7
  0
BLOCK
  5
    78
  8
0
  6
CONTINUOUS
 62
     7
  2
*UDIM6
 70
    65
 10
0.0
 20
0.0
 30
0.0
  3
*UDIM6
  0
TEXT
  5
    79
  8
0
  6
CONTINUOUS
 62
     7
 10
-72.6019393249178
 20
-50.0504941037659
 30
0.0
 40
3.00000001532688
  1
140
 50
89.9999999480344
 41
0.933333333333334
 72
     1
 11
-74.101939329049
 21
-46.1504940824824
 31
0.0
 73
     2
  0
LINE
  5
    7A
  8
0
  6
CONTINUOUS
 62
     7
 10
-31.8349810540676
 20
-70.3754906326508
 30
0.0
 11
-73.6019393213855
 21
-70.3754906326508
 31
0.0
  0
LINE
  5
    7B
  8
0
  6
CONTINUOUS
 62
     7
 10
-31.8349810540676
 20
-21.3754933863856
 30
0.0
 11
-73.6019393213855
 21
-21.3754933863856
 31
0.0
  0
LINE
  5
    7C
  8
0
  6
CONTINUOUS
 62
     7
 10
-71.6019393213855
 20
-70.3754906326508
 30
0.0
 11
-71.6019393213855
 21
-21.3754933863856
 31
0.0
  0
LINE
  5
    7D
  8
0
  6
CONTINUOUS
 62
     7
 10
-72.1228837513372
 20
-67.4210673554439
 30
0.0
 11
-71.6019393213855
 21
-70.3754906326508
 31
0.0
  0
LINE
  5
    7E
  8
0
  6
CONTINUOUS
 62
     7
 10
-71.6019393213855
 20
-70.3754906326508
 30
0.0
 11
-71.0809948914339
 21
-67.4210673554439
 31
0.0
  0
LINE
  5
    7F
  8
0
  6
CONTINUOUS
 62
     7
 10
-71.0809948914339
 20
-24.3299166635926
 30
0.0
 11
-71.6019393213855
 21
-21.3754933863856
 31
0.0
  0
LINE
  5
    80
  8
0
  6
CONTINUOUS
 62
     7
 10
-71.6019393213855
 20
-21.3754933863856
 30
0.0
 11
-72.1228837513372
 21
-24.3299166635926
 31
0.0
  0
ENDBLK
  5
    81
  8
0
  6
CONTINUOUS
 62
     7
  0
BLOCK
  5
    82
  8
0
  6
CONTINUOUS
 62
     7
  2
*UDIM7
 70
    65
 10
0.0
 20
0.0
 30
0.0
  3
*UDIM7
  0
TEXT
  5
    83
  8
0
  6
CONTINUOUS
 62
     7
 10
-10.6849827549193
 20
34.7469802327974
 30
0.0
 40
3.00000001532688
  1
140
 50
359.999999948034
 41
0.933333333333334
 72
     1
 11
-6.78498273364143
 21
36.2469802369433
 31
0.0
 73
     2
  0
LINE
  5
    84
  8
0
  6
CONTINUOUS
 62
     7
 10
17.9900139570236
 20
-20.5504933685042
 30
0.0
 11
17.9900139570236
 21
35.7469802292799
 31
0.0
  0
LINE
  5
    85
  8
0
  6
CONTINUOUS
 62
     7
 10
-31.0099810361862
 20
-20.5504933685042
 30
0.0
 11
-31.0099810361862
 21
35.7469802292799
 31
0.0
  0
LINE
  5
    86
  8
0
  6
CONTINUOUS
 62
     7
 10
17.9900139570236
 20
33.7469802292799
 30
0.0
 11
-31.0099810361862
 21
33.7469802292799
 31
0.0
  0
LINE
  5
    87
  8
0
  6
CONTINUOUS
 62
     7
 10
15.0355906798167
 20
33.2260357993282
 30
0.0
 11
17.9900139570236
 21
33.7469802292799
 31
0.0
  0
LINE
  5
    88
  8
0
  6
CONTINUOUS
 62
     7
 10
17.9900139570236
 20
33.7469802292799
 30
0.0
 11
15.0355906798167
 21
34.2679246592315
 31
0.0
  0
LINE
  5
    89
  8
0
  6
CONTINUOUS
 62
     7
 10
-28.0555577589793
 20
34.2679246592315
 30
0.0
 11
-31.0099810361862
 21
33.7469802292799
 31
0.0
  0
LINE
  5
    8A
  8
0
  6
CONTINUOUS
 62
     7
 10
-31.0099810361862
 20
33.7469802292799
 30
0.0
 11
-28.0555577589793
 21
33.2260357993282
 31
0.0
  0
ENDBLK
  5
    8B
  8
0
  6
CONTINUOUS
 62
     7
  0
BLOCK
  5
    8C
  8
0
  6
CONTINUOUS
 62
     7
  2
MOSTRA
 70
    64
 10
0.0
 20
0.0
 30
0.0
  3
MOSTRA
  0
LINE
  5
    8D
  8
0
  6
CONTINUOUS
 62
     3
 10
75.9999847412109
 20
-24.000020980835
 30
0.0
 11
75.9999847412109
 21
169.499979019165
 31
0.0
  0
LINE
  5
    8E
  8
0
  6
CONTINUOUS
 62
     3
 10
-71.5000076293913
 20
170.749954223637
 30
0.0
 11
71.4999923706087
 21
170.749984741215
 31
0.0
  0
LINE
  5
    8F
  8
0
  6
CONTINUOUS
 62
     3
 10
71.4999923722532
 20
170.749969484304
 30
0.0
 11
74.7499847428587
 21
170.749984743093
 31
0.0
  0
LINE
  5
    90
  8
0
  6
CONTINUOUS
 62
     3
 10
-74.7500152650933
 20
170.749938972373
 30
0.0
 11
-71.5000076356988
 21
170.74996948995
 31
0.0
  0
LINE
  5
    91
  8
0
  6
CONTINUOUS
 62
     3
 10
-76.0000152587891
 20
-24.0000553131103
 30
0.0
 11
-76.0000152587891
 21
169.49994468689
 31
0.0
  0
LINE
  5
    92
  8
0
  6
CONTINUOUS
 62
     3
 10
-74.7500152587851
 20
-25.250055313111
 30
0.0
 11
74.7499847412149
 21
-25.2500209808356
 31
0.0
  0
LINE
  5
    93
  8
0
  6
CONTINUOUS
 62
     3
 10
-70.50000762559
 20
2.24997818470003
 30
0.0
 11
70.49999237441
 21
2.24997818470002
 31
0.0
  0
LINE
  5
    94
  8
0
  6
CONTINUOUS
 62
     3
 10
-70.5000074412761
 20
2.24997806549074
 30
0.0
 11
-70.5000074412761
 21
93.0689001568776
 31
0.0
  0
LINE
  5
    95
  8
0
  6
CONTINUOUS
 62
     3
 10
-70.5000152587891
 20
108.431043142038
 30
0.0
 11
-70.5000152587891
 21
143.249984741211
 31
0.0
  0
LINE
  5
    96
  8
0
  6
CONTINUOUS
 62
     3
 10
-70.500015258789
 20
143.249984741211
 30
0.0
 11
70.4999694824219
 21
143.249984741211
 31
0.0
  0
LINE
  5
    97
  8
0
  6
CONTINUOUS
 62
     3
 10
70.499992735838
 20
2.24997854232794
 30
0.0
 11
70.499992735838
 21
143.249978542328
 31
0.0
  0
LINE
  5
    98
  8
0
  6
CONTINUOUS
 62
     3
 10
-71.5000076293945
 20
150.749984741211
 30
0.0
 11
-71.5000076293945
 21
170.749969482422
 31
0.0
  0
LINE
  5
    99
  8
0
  6
CONTINUOUS
 62
     3
 10
71.4999923706055
 20
150.749984741211
 30
0.0
 11
71.4999923706055
 21
170.749969482422
 31
0.0
  0
LINE
  5
    9A
  8
0
  6
CONTINUOUS
 62
     3
 10
-71.5000076293945
 20
150.749984741211
 30
0.0
 11
71.4999923706055
 21
150.749984741211
 31
0.0
  0
LINE
  5
    9B
  8
0
  6
CONTINUOUS
 62
     3
 10
-70.5000152587891
 20
-4.25005340576171
 30
0.0
 11
70.4999847412109
 21
-4.25005340576172
 31
0.0
  0
LINE
  5
    9C
  8
0
  6
CONTINUOUS
 62
     3
 10
-70.5000152587891
 20
-5.25005340576171
 30
0.0
 11
70.4999847412109
 21
-5.25005340576172
 31
0.0
  0
LINE
  5
    9D
  8
0
  6
CONTINUOUS
 62
     3
 10
-70.5000305175649
 20
149.74993896486
 30
0.0
 11
70.4999694824351
 21
149.750000000014
 31
0.0
  0
LINE
  5
    9E
  8
0
  6
CONTINUOUS
 62
     3
 10
71.4999858357699
 20
-25.2500247955323
 30
0.0
 11
71.4999858357699
 21
150.749990463257
 31
0.0
  0
LINE
  5
    9F
  8
0
  6
CONTINUOUS
 62
     3
 10
70.4999847412109
 20
-25.2500247955322
 30
0.0
 11
70.4999847412109
 21
-5.25005340576172
 31
0.0
  0
LINE
  5
    A0
  8
0
  6
CONTINUOUS
 62
     3
 10
70.4999847412595
 20
-4.25005341252316
 30
0.0
 11
70.4999923706543
 21
2.24997805388479
 31
0.0
  0
LINE
  5
    A1
  8
0
  6
CONTINUOUS
 62
     3
 10
70.4999694824219
 20
143.249984741211
 30
0.0
 11
70.4999694824219
 21
149.75
 31
0.0
  0
LINE
  5
    A2
  8
0
  6
CONTINUOUS
 62
     3
 10
-71.5000141642294
 20
-25.2500457763669
 30
0.0
 11
-71.5000141642294
 21
150.749984741211
 31
0.0
  0
LINE
  5
    A3
  8
0
  6
CONTINUOUS
 62
     3
 10
-70.5000152587891
 20
-25.2500419616699
 30
0.0
 11
-70.5000152587891
 21
-5.25005340576171
 31
0.0
  0
LINE
  5
    A4
  8
0
  6
CONTINUOUS
 62
     3
 10
-70.5000152588376
 20
-4.25005339719544
 30
0.0
 11
-70.5000076294428
 21
2.24997808131977
 31
0.0
  0
LINE
  5
    A5
  8
0
  6
CONTINUOUS
 62
     3
 10
-70.5000305177719
 20
149.749938959778
 30
0.0
 11
-70.5000152589833
 21
143.249984736586
 31
0.0
  0
LINE
  5
    A6
  8
0
  6
CONTINUOUS
 62
     3
 10
-71.5000076293945
 20
159.999984741211
 30
0.0
 11
-71.0
 21
159.999984741211
 31
0.0
  0
LINE
  5
    A7
  8
0
  6
CONTINUOUS
 62
     3
 10
-71.5000076293945
 20
161.499984741211
 30
0.0
 11
-71.0
 21
161.499984741211
 31
0.0
  0
LINE
  5
    A8
  8
0
  6
CONTINUOUS
 62
     3
 10
70.9999923706055
 20
159.999984741211
 30
0.0
 11
71.4999923706055
 21
159.999984741211
 31
0.0
  0
LINE
  5
    A9
  8
0
  6
CONTINUOUS
 62
     3
 10
70.9999923706055
 20
161.499984741211
 30
0.0
 11
71.4999923706055
 21
161.499984741211
 31
0.0
  0
ARC
  5
    AA
  8
0
  6
CONTINUOUS
 62
     3
 10
-74.7500446175772
 20
169.499966747805
 30
0.0
 40
1.2499712385188
 50
89.9986335430652
 51
180.000984426699
  0
ARC
  5
    AB
  8
0
  6
CONTINUOUS
 62
     3
 10
-71.0000555065448
 20
160.749933035418
 30
0.0
 40
0.750060676953542
 50
270.004052802733
 51
449.996390805965
  0
ARC
  5
    AC
  8
0
  6
CONTINUOUS
 62
     3
 10
71.0004519501049
 20
160.749941254871
 30
0.0
 40
0.750296104915764
 50
90.0
 51
270.0
  0
ARC
  5
    AD
  8
0
  6
CONTINUOUS
 62
     3
 10
74.7499844400411
 20
169.499990278414
 30
0.0
 40
1.25000142315613
 50
2.89360398659739E-4
 51
89.9998353051498
  0
ARC
  5
    AE
  8
0
  6
CONTINUOUS
 62
     3
 10
74.7499756668578
 20
-24.0000128113076
 30
0.0
 40
1.25000813012569
 50
270.000329889624
 51
359.999635393882
  0
ARC
  5
    AF
  8
0
  6
CONTINUOUS
 62
     3
 10
-74.7500061806411
 20
-24.0000471426785
 30
0.0
 40
1.25000813391971
 50
180.000364647548
 51
269.999670038333
  0
ARC
  5
    B0
  8
0
  6
CONTINUOUS
 62
     3
 10
-41.5002621522514
 20
100.749971717654
 30
0.0
 40
29.9997423066705
 50
165.164904903841
 51
194.835095365634
  0
ARC
  5
    B1
  8
0
  6
DOT
 62
     3
 10
-71.9999597522443
 20
160.749933035418
 30
0.0
 40
0.750060676953542
 50
90.003609194035
 51
269.995947197267
  0
LINE
  5
    B2
  8
0
  6
DOT
 62
     3
 10
-72.0000152587891
 20
161.499984741211
 30
0.0
 11
-71.5000076293945
 21
161.499984741211
 31
0.0
  0
LINE
  5
    B3
  8
0
  6
DOT
 62
     3
 10
-72.0000152587891
 20
159.999984741211
 30
0.0
 11
-71.5000076293945
 21
159.999984741211
 31
0.0
  0
LINE
  5
    B4
  8
0
  6
DOT
 62
     3
 10
71.4999923706055
 20
161.499984741211
 30
0.0
 11
71.9999923706055
 21
161.499984741211
 31
0.0
  0
LINE
  5
    B5
  8
0
  6
DOT
 62
     3
 10
71.4999923706055
 20
159.999984741211
 30
0.0
 11
71.9999923706055
 21
159.999984741211
 31
0.0
  0
ARC
  5
    B6
  8
0
  6
DOT
 62
     3
 10
71.999532791106
 20
160.749941254871
 30
0.0
 40
0.750296104915764
 50
270.0
 51
450.0
  0
POINT
  5
    B7
  8
0
  6
CONTINUOUS
 62
     3
 10
-2.28881835892954E-5
 20
72.7499785423279
 30
0.0
  0
ENDBLK
  5
    B8
  8
0
  6
CONTINUOUS
 62
     7
  0
BLOCK
  5
    B9
  8
0
  6
CONTINUOUS
 62
     7
  2
*HATCH2
 70
    65
 10
0.0
 20
0.0
 30
0.0
  3
*HATCH2
  0
LINE
  5
    BA
  8
0
  6
CONTINUOUS
 62
    52
 10
179.222381591797
 20
234.376708984375
 30
0.0
 11
177.499420166016
 21
232.653732299805
 31
0.0
  0
LINE
  5
    BB
  8
0
  6
CONTINUOUS
 62
    52
 10
179.499420166016
 20
230.411087036133
 30
0.0
 11
177.499420166016
 21
228.411087036133
 31
0.0
  0
LINE
  5
    BC
  8
0
  6
CONTINUOUS
 62
    52
 10
179.499420166016
 20
226.168441772461
 30
0.0
 11
177.499420166016
 21
224.168441772461
 31
0.0
  0
LINE
  5
    BD
  8
0
  6
CONTINUOUS
 62
    52
 10
179.499420166016
 20
221.925796508789
 30
0.0
 11
177.499420166016
 21
219.925796508789
 31
0.0
  0
LINE
  5
    BE
  8
0
  6
CONTINUOUS
 62
    52
 10
179.499420166016
 20
217.683151245117
 30
0.0
 11
177.499420166016
 21
215.683151245117
 31
0.0
  0
LINE
  5
    BF
  8
0
  6
CONTINUOUS
 62
    52
 10
179.499420166016
 20
213.440505981445
 30
0.0
 11
177.499420166016
 21
211.440505981445
 31
0.0
  0
LINE
  5
    C0
  8
0
  6
CONTINUOUS
 62
    52
 10
179.499420166016
 20
209.197860717773
 30
0.0
 11
177.499420166016
 21
207.197860717773
 31
0.0
  0
LINE
  5
    C1
  8
0
  6
CONTINUOUS
 62
    52
 10
179.499420166016
 20
204.955215454102
 30
0.0
 11
177.499420166016
 21
202.955215454102
 31
0.0
  0
LINE
  5
    C2
  8
0
  6
CONTINUOUS
 62
    52
 10
179.499420166016
 20
200.71257019043
 30
0.0
 11
177.499420166016
 21
198.71257019043
 31
0.0
  0
LINE
  5
    C3
  8
0
  6
CONTINUOUS
 62
    52
 10
179.499420166016
 20
196.469924926758
 30
0.0
 11
177.499420166016
 21
194.469924926758
 31
0.0
  0
LINE
  5
    C4
  8
0
  6
CONTINUOUS
 62
    52
 10
179.499420166016
 20
192.227279663086
 30
0.0
 11
177.499420166016
 21
190.227279663086
 31
0.0
  0
LINE
  5
    C5
  8
0
  6
CONTINUOUS
 62
    52
 10
179.499420166016
 20
187.984634399414
 30
0.0
 11
177.499420166016
 21
185.984634399414
 31
0.0
  0
LINE
  5
    C6
  8
0
  6
CONTINUOUS
 62
    52
 10
179.499420166016
 20
183.741989135742
 30
0.0
 11
177.499420166016
 21
181.741989135742
 31
0.0
  0
LINE
  5
    C7
  8
0
  6
CONTINUOUS
 62
    52
 10
179.499420166016
 20
179.49934387207
 30
0.0
 11
177.499420166016
 21
177.49934387207
 31
0.0
  0
LINE
  5
    C8
  8
0
  6
CONTINUOUS
 62
    52
 10
179.499420166016
 20
175.256698608398
 30
0.0
 11
177.499420166016
 21
173.256698608398
 31
0.0
  0
LINE
  5
    C9
  8
0
  6
CONTINUOUS
 62
    52
 10
179.499420166016
 20
171.014053344727
 30
0.0
 11
177.499420166016
 21
169.014053344727
 31
0.0
  0
LINE
  5
    CA
  8
0
  6
CONTINUOUS
 62
    52
 10
179.499420166016
 20
166.771408081055
 30
0.0
 11
177.499420166016
 21
164.771408081055
 31
0.0
  0
LINE
  5
    CB
  8
0
  6
CONTINUOUS
 62
    52
 10
179.499420166016
 20
162.528762817383
 30
0.0
 11
177.499420166016
 21
160.528762817383
 31
0.0
  0
LINE
  5
    CC
  8
0
  6
CONTINUOUS
 62
    52
 10
179.499420166016
 20
158.286117553711
 30
0.0
 11
177.499420166016
 21
156.286117553711
 31
0.0
  0
LINE
  5
    CD
  8
0
  6
CONTINUOUS
 62
    52
 10
179.499420166016
 20
154.043563842773
 30
0.0
 11
179.205703735352
 21
153.749847412109
 31
0.0
  0
ENDBLK
  5
    CE
  8
0
  6
CONTINUOUS
 62
     7
  0
BLOCK
  5
    CF
  8
0
  6
CONTINUOUS
 62
     7
  2
*HATCH3
 70
    65
 10
0.0
 20
0.0
 30
0.0
  3
*HATCH3
  0
LINE
  5
    D0
  8
0
  6
CONTINUOUS
 62
    52
 10
179.499420166016
 20
-9.29809856414795
 30
0.0
 11
177.499420166016
 21
-11.2980985641479
 31
0.0
  0
LINE
  5
    D1
  8
0
  6
CONTINUOUS
 62
    52
 10
179.499420166016
 20
-13.5407390594482
 30
0.0
 11
177.499420166016
 21
-15.5407390594482
 31
0.0
  0
LINE
  5
    D2
  8
0
  6
CONTINUOUS
 62
    52
 10
179.499420166016
 20
-17.7833805084229
 30
0.0
 11
177.499420166016
 21
-19.7833805084229
 31
0.0
  0
LINE
  5
    D3
  8
0
  6
CONTINUOUS
 62
    52
 10
179.499420166016
 20
-22.0260219573975
 30
0.0
 11
177.499420166016
 21
-24.0260219573975
 31
0.0
  0
LINE
  5
    D4
  8
0
  6
CONTINUOUS
 62
    52
 10
179.499420166016
 20
-26.2686634063721
 30
0.0
 11
177.499420166016
 21
-28.2686634063721
 31
0.0
  0
LINE
  5
    D5
  8
0
  6
CONTINUOUS
 62
    52
 10
179.499420166016
 20
-30.5113048553467
 30
0.0
 11
177.499420166016
 21
-32.511302947998
 31
0.0
  0
LINE
  5
    D6
  8
0
  6
CONTINUOUS
 62
    52
 10
179.499420166016
 20
-34.7539443969727
 30
0.0
 11
177.499420166016
 21
-36.7539405822754
 31
0.0
  0
LINE
  5
    D7
  8
0
  6
CONTINUOUS
 62
    52
 10
179.499420166016
 20
-38.99658203125
 30
0.0
 11
177.499420166016
 21
-40.9965782165527
 31
0.0
  0
LINE
  5
    D8
  8
0
  6
CONTINUOUS
 62
    52
 10
179.499420166016
 20
-43.2392196655273
 30
0.0
 11
177.499420166016
 21
-45.2392158508301
 31
0.0
  0
LINE
  5
    D9
  8
0
  6
CONTINUOUS
 62
    52
 10
179.499420166016
 20
-47.4818572998047
 30
0.0
 11
177.499420166016
 21
-49.4818534851074
 31
0.0
  0
LINE
  5
    DA
  8
0
  6
CONTINUOUS
 62
    52
 10
179.499420166016
 20
-51.724494934082
 30
0.0
 11
177.499420166016
 21
-53.7244911193848
 31
0.0
  0
LINE
  5
    DB
  8
0
  6
CONTINUOUS
 62
    52
 10
179.499420166016
 20
-55.9671325683594
 30
0.0
 11
177.499420166016
 21
-57.9671287536621
 31
0.0
  0
LINE
  5
    DC
  8
0
  6
CONTINUOUS
 62
    52
 10
179.499420166016
 20
-60.2097702026367
 30
0.0
 11
177.499420166016
 21
-62.2097663879395
 31
0.0
  0
LINE
  5
    DD
  8
0
  6
CONTINUOUS
 62
    52
 10
179.499420166016
 20
-64.4524078369141
 30
0.0
 11
177.499420166016
 21
-66.4524078369141
 31
0.0
  0
LINE
  5
    DE
  8
0
  6
CONTINUOUS
 62
    52
 10
179.499420166016
 20
-68.6950531005859
 30
0.0
 11
177.499420166016
 21
-70.6950531005859
 31
0.0
  0
LINE
  5
    DF
  8
0
  6
CONTINUOUS
 62
    52
 10
179.499420166016
 20
-72.9376983642578
 30
0.0
 11
177.499420166016
 21
-74.9376983642578
 31
0.0
  0
LINE
  5
    E0
  8
0
  6
CONTINUOUS
 62
    52
 10
179.499420166016
 20
-77.1803436279297
 30
0.0
 11
177.499420166016
 21
-79.1803436279297
 31
0.0
  0
LINE
  5
    E1
  8
0
  6
CONTINUOUS
 62
    52
 10
179.499420166016
 20
-81.4229888916016
 30
0.0
 11
177.499420166016
 21
-83.4229888916016
 31
0.0
  0
LINE
  5
    E2
  8
0
  6
CONTINUOUS
 62
    52
 10
179.499420166016
 20
-85.6656341552734
 30
0.0
 11
177.499420166016
 21
-87.6656341552734
 31
0.0
  0
LINE
  5
    E3
  8
0
  6
CONTINUOUS
 62
    52
 10
179.499420166016
 20
-89.9082794189453
 30
0.0
 11
177.499420166016
 21
-91.9082794189453
 31
0.0
  0
LINE
  5
    E4
  8
0
  6
CONTINUOUS
 62
    52
 10
179.499420166016
 20
-94.1509246826172
 30
0.0
 11
177.499420166016
 21
-96.1509246826172
 31
0.0
  0
ENDBLK
  5
    E5
  8
0
  6
CONTINUOUS
 62
     7
  0
BLOCK
  5
    E6
  8
0
  6
CONTINUOUS
 62
     7
  2
*HATCH4
 70
    65
 10
0.0
 20
0.0
 30
0.0
  3
*HATCH4
  0
LINE
  5
    E7
  8
0
  6
CONTINUOUS
 62
    52
 10
170.220428466797
 20
153.249862670898
 30
0.0
 11
167.999420166016
 21
151.028839111328
 31
0.0
  0
LINE
  5
    E8
  8
0
  6
CONTINUOUS
 62
    52
 10
170.499420166016
 20
149.286209106445
 30
0.0
 11
167.999420166016
 21
146.786209106445
 31
0.0
  0
LINE
  5
    E9
  8
0
  6
CONTINUOUS
 62
    52
 10
170.499420166016
 20
145.043563842773
 30
0.0
 11
169.705718994141
 21
144.249862670898
 31
0.0
  0
ENDBLK
  5
    EA
  8
0
  6
CONTINUOUS
 62
     7
  0
BLOCK
  5
    EB
  8
0
  6
CONTINUOUS
 62
     7
  2
*UDIM8
 70
    65
 10
0.0
 20
0.0
 30
0.0
  3
*UDIM8
  0
TEXT
  5
    EC
  8
0
  6
CONTINUOUS
 62
     7
 10
84.1949757216662
 20
46.8181765056179
 30
0.0
 40
3.00000001532688
  1
140,5
 41
0.933333333333333
 72
     1
 11
90.8949757558962
 21
48.3181765132813
 31
0.0
 73
     2
  0
LINE
  5
    ED
  8
0
  6
CONTINUOUS
 62
     7
 10
66.5824813842773
 20
35.2704366152974
 30
0.0
 11
66.5824813842773
 21
47.8181765056179
 31
0.0
  0
LINE
  5
    EE
  8
0
  6
CONTINUOUS
 62
     7
 10
115.75747101903
 20
-28.6004978865358
 30
0.0
 11
115.75747101903
 21
47.8181765056179
 31
0.0
  0
LINE
  5
    EF
  8
0
  6
CONTINUOUS
 62
     7
 10
66.5824813842773
 20
45.8181765056179
 30
0.0
 11
115.75747101903
 21
45.8181765056179
 31
0.0
  0
LINE
  5
    F0
  8
0
  6
CONTINUOUS
 62
     7
 10
69.5369046614843
 20
46.3391209355696
 30
0.0
 11
66.5824813842773
 21
45.8181765056179
 31
0.0
  0
LINE
  5
    F1
  8
0
  6
CONTINUOUS
 62
     7
 10
66.5824813842773
 20
45.8181765056179
 30
0.0
 11
69.5369046614843
 21
45.2972320756662
 31
0.0
  0
LINE
  5
    F2
  8
0
  6
CONTINUOUS
 62
     7
 10
112.803047741823
 20
45.2972320756662
 30
0.0
 11
115.75747101903
 21
45.8181765056179
 31
0.0
  0
LINE
  5
    F3
  8
0
  6
CONTINUOUS
 62
     7
 10
115.75747101903
 20
45.8181765056179
 30
0.0
 11
112.803047741823
 21
46.3391209355696
 31
0.0
  0
ENDBLK
  5
    F4
  8
0
  6
CONTINUOUS
 62
     7
  0
BLOCK
  5
    F5
  8
0
  6
CONTINUOUS
 62
     7
  2
*UDIM9
 70
    65
 10
0.0
 20
0.0
 30
0.0
  3
*UDIM9
  0
TEXT
  5
    F6
  8
0
  6
CONTINUOUS
 62
     7
 10
119.457372961108
 20
46.8181765056179
 30
0.0
 40
3.00000001532688
  1
37
 41
0.933333333333333
 72
     1
 11
121.95737297388
 21
48.3181765132813
 31
0.0
 73
     2
  0
LINE
  5
    F7
  8
0
  6
CONTINUOUS
 62
     7
 10
128.707271397581
 20
12.0783092591579
 30
0.0
 11
128.707271397581
 21
47.8181765056179
 31
0.0
  0
LINE
  5
    F8
  8
0
  6
CONTINUOUS
 62
     7
 10
115.75747101903
 20
45.8181765056179
 30
0.0
 11
128.707271397581
 21
45.8181765056179
 31
0.0
  0
LINE
  5
    F9
  8
0
  6
CONTINUOUS
 62
     7
 10
118.711894296237
 20
46.3391209355696
 30
0.0
 11
115.75747101903
 21
45.8181765056179
 31
0.0
  0
LINE
  5
    FA
  8
0
  6
CONTINUOUS
 62
     7
 10
115.75747101903
 20
45.8181765056179
 30
0.0
 11
118.711894296237
 21
45.2972320756662
 31
0.0
  0
LINE
  5
    FB
  8
0
  6
CONTINUOUS
 62
     7
 10
125.752848120374
 20
45.2972320756662
 30
0.0
 11
128.707271397581
 21
45.8181765056179
 31
0.0
  0
LINE
  5
    FC
  8
0
  6
CONTINUOUS
 62
     7
 10
128.707271397581
 20
45.8181765056179
 30
0.0
 11
125.752848120374
 21
46.3391209355696
 31
0.0
  0
ENDBLK
  5
    FD
  8
0
  6
CONTINUOUS
 62
     7
  0
BLOCK
  5
    FE
  8
0
  6
CONTINUOUS
 62
     7
  2
*UDIM10
 70
    65
 10
0.0
 20
0.0
 30
0.0
  3
*UDIM10
  0
TEXT
  5
    FF
  8
0
  6
CONTINUOUS
 62
     7
 10
132.407270949184
 20
46.8181765056179
 30
0.0
 40
3.00000001532688
  1
2
 41
0.933333333333333
 72
     1
 11
133.507270954804
 21
48.3181765132813
 31
0.0
 73
     2
  0
LINE
  5
   100
  8
0
  6
CONTINUOUS
 62
     7
 10
129.407271326056
 20
11.6320593047555
 30
0.0
 11
129.407271326056
 21
47.8181765056179
 31
0.0
  0
LINE
  5
   101
  8
0
  6
CONTINUOUS
 62
     7
 10
128.707271397581
 20
45.8181765056179
 30
0.0
 11
134.607270960424
 21
45.8181765056179
 31
0.0
  0
LINE
  5
   102
  8
0
  6
CONTINUOUS
 62
     7
 10
125.752848120374
 20
45.2972320756662
 30
0.0
 11
128.707271397581
 21
45.8181765056179
 31
0.0
  0
LINE
  5
   103
  8
0
  6
CONTINUOUS
 62
     7
 10
128.707271397581
 20
45.8181765056179
 30
0.0
 11
125.752848120374
 21
46.3391209355696
 31
0.0
  0
LINE
  5
   104
  8
0
  6
CONTINUOUS
 62
     7
 10
132.361694603263
 20
46.3391209355696
 30
0.0
 11
129.407271326056
 21
45.8181765056179
 31
0.0
  0
LINE
  5
   105
  8
0
  6
CONTINUOUS
 62
     7
 10
129.407271326056
 20
45.8181765056179
 30
0.0
 11
132.361694603263
 21
45.2972320756662
 31
0.0
  0
ENDBLK
  5
   106
  8
0
  6
CONTINUOUS
 62
     7
  0
BLOCK
  5
   107
  8
0
  6
CONTINUOUS
 62
     7
  2
*UDIM11
 70
    65
 10
0.0
 20
0.0
 30
0.0
  3
*UDIM11
  0
TEXT
  5
   108
  8
0
  6
CONTINUOUS
 62
     7
 10
137.146655538474
 20
-135.004615279608
 30
0.0
 40
3.00000001532688
  1
42,5
 41
0.933333333333333
 72
     1
 11
142.446655565552
 21
-133.504615271944
 31
0.0
 73
     2
  0
LINE
  5
   109
  8
0
  6
CONTINUOUS
 62
     7
 10
115.75747101903
 20
-67.1754727870221
 30
0.0
 11
115.75747101903
 21
-138.004615279608
 31
0.0
  0
LINE
  5
   10A
  8
0
  6
CONTINUOUS
 62
     7
 10
130.632271200886
 20
-83.8005152690778
 30
0.0
 11
130.632271200886
 21
-138.004615279608
 31
0.0
  0
LINE
  5
   10B
  8
0
  6
CONTINUOUS
 62
     7
 10
115.75747101903
 20
-136.004615279608
 30
0.0
 11
147.746655592629
 21
-136.004615279608
 31
0.0
  0
LINE
  5
   10C
  8
0
  6
CONTINUOUS
 62
     7
 10
118.711894296237
 20
-135.483670849656
 30
0.0
 11
115.75747101903
 21
-136.004615279608
 31
0.0
  0
LINE
  5
   10D
  8
0
  6
CONTINUOUS
 62
     7
 10
115.75747101903
 20
-136.004615279608
 30
0.0
 11
118.711894296237
 21
-136.525559709559
 31
0.0
  0
LINE
  5
   10E
  8
0
  6
CONTINUOUS
 62
     7
 10
127.677847923679
 20
-136.525559709559
 30
0.0
 11
130.632271200886
 21
-136.004615279608
 31
0.0
  0
LINE
  5
   10F
  8
0
  6
CONTINUOUS
 62
     7
 10
130.632271200886
 20
-136.004615279608
 30
0.0
 11
127.677847923679
 21
-135.483670849656
 31
0.0
  0
ENDBLK
  5
   110
  8
0
  6
CONTINUOUS
 62
     7
  0
BLOCK
  5
   111
  8
0
  6
CONTINUOUS
 62
     7
  2
*UDIM12
 70
    65
 10
0.0
 20
0.0
 30
0.0
  3
*UDIM12
  0
TEXT
  5
   112
  8
0
  6
CONTINUOUS
 62
     7
 10
196.805239811439
 20
-38.3602237557474
 30
0.0
 40
3.00000002980232
  1
2,75
 50
359.999999844103
 41
0.933333333333333
 72
     1
 11
202.105239868164
 21
-36.8602237552404
 31
0.0
 73
     2
  0
LINE
  5
   113
  8
0
  6
CONTINUOUS
 62
     7
 10
209.870330810547
 20
-26.0453471374512
 30
0.0
 11
209.870330810547
 21
-41.3602237701416
 31
0.0
  0
LINE
  5
   114
  8
0
  6
CONTINUOUS
 62
     7
 10
196.805239815513
 20
-39.3602237701416
 30
0.0
 11
210.557830810547
 21
-39.3602237701416
 31
0.0
  0
LINE
  5
   115
  8
0
  6
CONTINUOUS
 62
     7
 10
206.91590753334
 20
-39.8811682000933
 30
0.0
 11
209.870330810547
 21
-39.3602237701416
 31
0.0
  0
LINE
  5
   116
  8
0
  6
CONTINUOUS
 62
     7
 10
209.870330810547
 20
-39.3602237701416
 30
0.0
 11
206.91590753334
 21
-38.8392793401899
 31
0.0
  0
LINE
  5
   117
  8
0
  6
CONTINUOUS
 62
     7
 10
213.512254087754
 20
-38.8392793401899
 30
0.0
 11
210.557830810547
 21
-39.3602237701416
 31
0.0
  0
LINE
  5
   118
  8
0
  6
CONTINUOUS
 62
     7
 10
210.557830810547
 20
-39.3602237701416
 30
0.0
 11
213.512254087754
 21
-39.8811682000933
 31
0.0
  0
ENDBLK
  5
   119
  8
0
  6
CONTINUOUS
 62
     7
  0
BLOCK
  5
   11A
  8
0
  6
CONTINUOUS
 62
     7
  2
*UDIM13
 70
    65
 10
0.0
 20
0.0
 30
0.0
  3
*UDIM13
  0
TEXT
  5
   11B
  8
0
  6
CONTINUOUS
 62
     7
 10
241.869567864307
 20
-37.4003471723189
 30
0.0
 40
3.00000002980232
  1
90
 50
449.999999844103
 41
0.933333333333333
 72
     1
 11
240.369567856193
 21
-34.9003471434116
 31
0.0
 73
     2
  0
LINE
  5
   11C
  8
0
  6
CONTINUOUS
 62
     7
 10
223.790330810547
 20
-23.3753471374512
 30
0.0
 11
244.869567871094
 21
-23.3753471374512
 31
0.0
  0
LINE
  5
   11D
  8
0
  6
CONTINUOUS
 62
     7
 10
239.188124109918
 20
-45.8753471374512
 30
0.0
 11
244.869567871094
 21
-45.8753471374512
 31
0.0
  0
LINE
  5
   11E
  8
0
  6
CONTINUOUS
 62
     7
 10
242.869567871094
 20
-23.3753471374512
 30
0.0
 11
242.869567871094
 21
-45.8753471374512
 31
0.0
  0
LINE
  5
   11F
  8
0
  6
CONTINUOUS
 62
     7
 10
243.390512301045
 20
-26.3297704146581
 30
0.0
 11
242.869567871094
 21
-23.3753471374512
 31
0.0
  0
LINE
  5
   120
  8
0
  6
CONTINUOUS
 62
     7
 10
242.869567871094
 20
-23.3753471374512
 30
0.0
 11
242.348623441142
 21
-26.3297704146581
 31
0.0
  0
LINE
  5
   121
  8
0
  6
CONTINUOUS
 62
     7
 10
242.348623441142
 20
-42.9209238602442
 30
0.0
 11
242.869567871094
 21
-45.8753471374512
 31
0.0
  0
LINE
  5
   122
  8
0
  6
CONTINUOUS
 62
     7
 10
242.869567871094
 20
-45.8753471374512
 30
0.0
 11
243.390512301045
 21
-42.9209238602442
 31
0.0
  0
ENDBLK
  5
   123
  8
0
  6
CONTINUOUS
 62
     7
  0
BLOCK
  5
   124
  8
0
  6
CONTINUOUS
 62
     7
  2
*UDIM14
 70
    65
 10
0.0
 20
0.0
 30
0.0
  3
*UDIM14
  0
TEXT
  5
   125
  8
0
  6
CONTINUOUS
 62
     7
 10
212.920858451127
 20
-13.5146922997288
 30
0.0
 40
3.00000002980232
  1
45
 50
359.999999844103
 41
0.933333333333333
 72
     1
 11
215.420858480036
 21
-12.0146922916174
 31
0.0
 73
     2
  0
LINE
  5
   126
  8
0
  6
CONTINUOUS
 62
     7
 10
209.870330810547
 20
-20.7053471374512
 30
0.0
 11
209.870330810547
 21
-12.5146923065186
 31
0.0
  0
LINE
  5
   127
  8
0
  6
CONTINUOUS
 62
     7
 10
221.120330810547
 20
-20.7053471374512
 30
0.0
 11
221.120330810547
 21
-12.5146923065186
 31
0.0
  0
LINE
  5
   128
  8
0
  6
CONTINUOUS
 62
     7
 10
209.870330810547
 20
-14.5146923065186
 30
0.0
 11
221.120330810547
 21
-14.5146923065186
 31
0.0
  0
LINE
  5
   129
  8
0
  6
CONTINUOUS
 62
     7
 10
206.91590753334
 20
-15.0356367364702
 30
0.0
 11
209.870330810547
 21
-14.5146923065186
 31
0.0
  0
LINE
  5
   12A
  8
0
  6
CONTINUOUS
 62
     7
 10
209.870330810547
 20
-14.5146923065186
 30
0.0
 11
206.91590753334
 21
-13.9937478765669
 31
0.0
  0
LINE
  5
   12B
  8
0
  6
CONTINUOUS
 62
     7
 10
224.074754087754
 20
-13.9937478765669
 30
0.0
 11
221.120330810547
 21
-14.5146923065186
 31
0.0
  0
LINE
  5
   12C
  8
0
  6
CONTINUOUS
 62
     7
 10
221.120330810547
 20
-14.5146923065186
 30
0.0
 11
224.074754087754
 21
-15.0356367364702
 31
0.0
  0
ENDBLK
  5
   12D
  8
0
  6
CONTINUOUS
 62
     7
  0
BLOCK
  5
   12E
  8
0
  6
CONTINUOUS
 62
     7
  2
*UDIM15
 70
    65
 10
0.0
 20
0.0
 30
0.0
  3
*UDIM15
  0
TEXT
  5
   12F
  8
0
  6
CONTINUOUS
 62
     7
 10
180.555465384182
 20
-78.6104069797531
 30
0.0
 40
3.00000002980232
  1
7
 50
397.208926617964
 41
0.933333333333334
 72
     1
 11
180.524459858626
 21
-76.750557865946
 31
0.0
 73
     2
  0
TEXT
  5
   130
  8
0
  6
CONTINUOUS
 62
     7
 10
178.046692887092
 20
-80.5152850914515
 30
0.0
 40
3.00000002980232
  1
Ø
 50
397.208926617964
 41
0.933333333333334
 72
     1
 11
178.015687361536
 21
-78.6554359776444
 31
0.0
 73
     2
  0
LINE
  5
   131
  8
0
  6
CONTINUOUS
 62
     7
 10
196.879712057541
 20
-67.4712143303149
 30
0.0
 11
178.651416100298
 21
-81.3117208022176
 31
0.0
  0
LINE
  5
   132
  8
0
  6
CONTINUOUS
 62
     7
 10
198.917693073525
 20
-65.2697072604898
 30
0.0
 11
196.879712057541
 21
-67.4712143303149
 31
0.0
  0
LINE
  5
   133
  8
0
  6
CONTINUOUS
 62
     7
 10
196.879712057541
 20
-67.4712143303149
 30
0.0
 11
199.547747447427
 21
-66.099504755254
 31
0.0
  0
LINE
  5
   134
  8
0
  6
CONTINUOUS
 62
     7
 10
193.447968547569
 20
-70.7309870144125
 30
0.0
 11
195.485949563553
 21
-68.5294799445875
 31
0.0
  0
LINE
  5
   135
  8
0
  6
CONTINUOUS
 62
     7
 10
195.485949563553
 20
-68.5294799445875
 30
0.0
 11
192.817914173667
 21
-69.9011895196484
 31
0.0
  0
ENDBLK
  5
   136
  8
0
  6
CONTINUOUS
 62
     7
  0
BLOCK
  5
   137
  8
0
  6
CONTINUOUS
 62
     7
  2
*UDIM16
 70
    65
 10
0.0
 20
0.0
 30
0.0
  3
*UDIM16
  0
TEXT
  5
   138
  8
0
  6
CONTINUOUS
 62
     7
 10
206.38283076177
 20
-92.2549514664588
 30
0.0
 40
3.00000002980232
  1
147
 50
359.999999844103
 41
0.933333333333333
 72
     1
 11
210.282830804586
 21
-90.7549514621496
 31
0.0
 73
     2
  0
LINE
  5
   139
  8
0
  6
CONTINUOUS
 62
     7
 10
192.182830810547
 20
-65.2503471374512
 30
0.0
 11
192.182830810547
 21
-95.2549514770508
 31
0.0
  0
LINE
  5
   13A
  8
0
  6
CONTINUOUS
 62
     7
 10
228.932830810547
 20
-65.2503471374512
 30
0.0
 11
228.932830810547
 21
-95.2549514770508
 31
0.0
  0
LINE
  5
   13B
  8
0
  6
CONTINUOUS
 62
     7
 10
192.182830810547
 20
-93.2549514770508
 30
0.0
 11
228.932830810547
 21
-93.2549514770508
 31
0.0
  0
LINE
  5
   13C
  8
0
  6
CONTINUOUS
 62
     7
 10
195.137254087754
 20
-92.7340070470991
 30
0.0
 11
192.182830810547
 21
-93.2549514770508
 31
0.0
  0
LINE
  5
   13D
  8
0
  6
CONTINUOUS
 62
     7
 10
192.182830810547
 20
-93.2549514770508
 30
0.0
 11
195.137254087754
 21
-93.7758959070024
 31
0.0
  0
LINE
  5
   13E
  8
0
  6
CONTINUOUS
 62
     7
 10
225.97840753334
 20
-93.7758959070024
 30
0.0
 11
228.932830810547
 21
-93.2549514770508
 31
0.0
  0
LINE
  5
   13F
  8
0
  6
CONTINUOUS
 62
     7
 10
228.932830810547
 20
-93.2549514770508
 30
0.0
 11
225.97840753334
 21
-92.7340070470991
 31
0.0
  0
ENDBLK
  5
   140
  8
0
  6
CONTINUOUS
 62
     7
  0
BLOCK
  5
   141
  8
0
  6
CONTINUOUS
 62
     7
  2
*UDIM17
 70
    65
 10
0.0
 20
0.0
 30
0.0
  3
*UDIM17
  0
TEXT
  5
   142
  8
0
  6
CONTINUOUS
 62
     7
 10
206.38283076177
 20
-80.8360443009315
 30
0.0
 40
3.00000002980232
  1
115
 50
359.999999844103
 41
0.933333333333333
 72
     1
 11
210.282830804586
 21
-79.3360442966223
 31
0.0
 73
     2
  0
LINE
  5
   143
  8
0
  6
CONTINUOUS
 62
     7
 10
196.182830810547
 20
-26.3753471374512
 30
0.0
 11
196.182830810547
 21
-83.8360443115234
 31
0.0
  0
LINE
  5
   144
  8
0
  6
CONTINUOUS
 62
     7
 10
224.932830810547
 20
-26.3753471374512
 30
0.0
 11
224.932830810547
 21
-83.8360443115234
 31
0.0
  0
LINE
  5
   145
  8
0
  6
CONTINUOUS
 62
     7
 10
196.182830810547
 20
-81.8360443115234
 30
0.0
 11
224.932830810547
 21
-81.8360443115234
 31
0.0
  0
LINE
  5
   146
  8
0
  6
CONTINUOUS
 62
     7
 10
199.137254087754
 20
-81.3150998815718
 30
0.0
 11
196.182830810547
 21
-81.8360443115234
 31
0.0
  0
LINE
  5
   147
  8
0
  6
CONTINUOUS
 62
     7
 10
196.182830810547
 20
-81.8360443115234
 30
0.0
 11
199.137254087754
 21
-82.3569887414751
 31
0.0
  0
LINE
  5
   148
  8
0
  6
CONTINUOUS
 62
     7
 10
221.97840753334
 20
-82.3569887414751
 30
0.0
 11
224.932830810547
 21
-81.8360443115234
 31
0.0
  0
LINE
  5
   149
  8
0
  6
CONTINUOUS
 62
     7
 10
224.932830810547
 20
-81.8360443115234
 30
0.0
 11
221.97840753334
 21
-81.3150998815718
 31
0.0
  0
ENDBLK
  5
   14A
  8
0
  6
CONTINUOUS
 62
     7
  0
BLOCK
  5
   14B
  8
0
  6
CONTINUOUS
 62
     7
  2
*UDIM18
 70
    65
 10
0.0
 20
0.0
 30
0.0
  3
*UDIM18
  0
TEXT
  5
   14C
  8
0
  6
CONTINUOUS
 62
     7
 10
169.537090290927
 20
-50.0503471862266
 30
0.0
 40
3.00000002980232
  1
177
 50
449.999999844103
 41
0.933333333333333
 72
     1
 11
168.037090286613
 21
-46.1503471434116
 31
0.0
 73
     2
  0
LINE
  5
   14D
  8
0
  6
CONTINUOUS
 62
     7
 10
193.557830810547
 20
-23.7503471374512
 30
0.0
 11
168.537090301514
 21
-23.7503471374512
 31
0.0
  0
LINE
  5
   14E
  8
0
  6
CONTINUOUS
 62
     7
 10
193.557830810547
 20
-68.0003471374512
 30
0.0
 11
168.537090301514
 21
-68.0003471374512
 31
0.0
  0
LINE
  5
   14F
  8
0
  6
CONTINUOUS
 62
     7
 10
170.537090301514
 20
-23.7503471374512
 30
0.0
 11
170.537090301514
 21
-68.0003471374512
 31
0.0
  0
LINE
  5
   150
  8
0
  6
CONTINUOUS
 62
     7
 10
171.058034731465
 20
-26.7047704146581
 30
0.0
 11
170.537090301514
 21
-23.7503471374512
 31
0.0
  0
LINE
  5
   151
  8
0
  6
CONTINUOUS
 62
     7
 10
170.537090301514
 20
-23.7503471374512
 30
0.0
 11
170.016145871562
 21
-26.7047704146581
 31
0.0
  0
LINE
  5
   152
  8
0
  6
CONTINUOUS
 62
     7
 10
170.016145871562
 20
-65.0459238602442
 30
0.0
 11
170.537090301514
 21
-68.0003471374512
 31
0.0
  0
LINE
  5
   153
  8
0
  6
CONTINUOUS
 62
     7
 10
170.537090301514
 20
-68.0003471374512
 30
0.0
 11
171.058034731465
 21
-65.0459238602442
 31
0.0
  0
ENDBLK
  5
   154
  8
0
  6
CONTINUOUS
 62
     7
  0
BLOCK
  5
   155
  8
0
  6
CONTINUOUS
 62
     7
  2
*UDIM19
 70
    65
 10
0.0
 20
0.0
 30
0.0
  3
*UDIM19
  0
TEXT
  5
   156
  8
0
  6
CONTINUOUS
 62
     7
 10
178.909399022006
 20
-50.0503471862266
 30
0.0
 40
3.00000002980232
  1
147
 50
449.999999844103
 41
0.933333333333333
 72
     1
 11
177.409399017692
 21
-46.1503471434116
 31
0.0
 73
     2
  0
LINE
  5
   157
  8
0
  6
CONTINUOUS
 62
     7
 10
191.182830810547
 20
-27.5003471374512
 30
0.0
 11
177.909399032593
 21
-27.5003471374512
 31
0.0
  0
LINE
  5
   158
  8
0
  6
CONTINUOUS
 62
     7
 10
191.182830810547
 20
-64.2503471374512
 30
0.0
 11
177.909399032593
 21
-64.2503471374512
 31
0.0
  0
LINE
  5
   159
  8
0
  6
CONTINUOUS
 62
     7
 10
179.909399032593
 20
-27.5003471374512
 30
0.0
 11
179.909399032593
 21
-64.2503471374512
 31
0.0
  0
LINE
  5
   15A
  8
0
  6
CONTINUOUS
 62
     7
 10
180.430343462544
 20
-30.4547704146581
 30
0.0
 11
179.909399032593
 21
-27.5003471374512
 31
0.0
  0
LINE
  5
   15B
  8
0
  6
CONTINUOUS
 62
     7
 10
179.909399032593
 20
-27.5003471374512
 30
0.0
 11
179.388454602641
 21
-30.4547704146581
 31
0.0
  0
LINE
  5
   15C
  8
0
  6
CONTINUOUS
 62
     7
 10
179.388454602641
 20
-61.2959238602442
 30
0.0
 11
179.909399032593
 21
-64.2503471374512
 31
0.0
  0
LINE
  5
   15D
  8
0
  6
CONTINUOUS
 62
     7
 10
179.909399032593
 20
-64.2503471374512
 30
0.0
 11
180.430343462544
 21
-61.2959238602442
 31
0.0
  0
ENDBLK
  5
   15E
  8
0
  6
CONTINUOUS
 62
     7
  0
BLOCK
  5
   15F
  8
0
  6
CONTINUOUS
 62
     7
  2
*HATCH5
 70
    65
 10
0.0
 20
0.0
 30
0.0
  3
*HATCH5
  0
LINE
  5
   160
  8
0
  6
CONTINUOUS
 62
    52
 10
-11.7279224395752
 20
1.0
 30
0.0
 11
-11.9763488769531
 21
0.75157368183136
 31
0.0
  0
LINE
  5
   161
  8
0
  6
CONTINUOUS
 62
    52
 10
-9.60660171508789
 20
1.0
 30
0.0
 11
-11.6066026687622
 21
-1.0
 31
0.0
  0
LINE
  5
   162
  8
0
  6
CONTINUOUS
 62
    52
 10
-7.48528146743774
 20
1.0
 30
0.0
 11
-9.48528289794922
 21
-1.0
 31
0.0
  0
LINE
  5
   163
  8
0
  6
CONTINUOUS
 62
    52
 10
-5.3639612197876
 20
1.0
 30
0.0
 11
-7.36396265029907
 21
-1.0
 31
0.0
  0
LINE
  5
   164
  8
0
  6
CONTINUOUS
 62
    52
 10
-3.47947335243225
 20
0.763167560100555
 30
0.0
 11
-5.24264097213745
 21
-1.0
 31
0.0
  0
LINE
  5
   165
  8
0
  6
CONTINUOUS
 62
    52
 10
-2.51160907745361
 20
-0.390288293361664
 30
0.0
 11
-3.1213207244873
 21
-1.0
 31
0.0
  0
ENDBLK
  5
   166
  8
0
  6
CONTINUOUS
 62
     7
  0
BLOCK
  5
   167
  8
0
  6
CONTINUOUS
 62
     7
  2
*HATCH6
 70
    65
 10
0.0
 20
0.0
 30
0.0
  3
*HATCH6
  0
LINE
  5
   168
  8
0
  6
CONTINUOUS
 62
    52
 10
5.24264097213745
 20
1.0
 30
0.0
 11
3.24264073371887
 21
-1.0
 31
0.0
  0
LINE
  5
   169
  8
0
  6
CONTINUOUS
 62
    52
 10
7.3639612197876
 20
1.0
 30
0.0
 11
5.3639612197876
 21
-1.0
 31
0.0
  0
LINE
  5
   16A
  8
0
  6
CONTINUOUS
 62
    52
 10
9.48528099060059
 20
1.0
 30
0.0
 11
7.4852819442749
 21
-1.0
 31
0.0
  0
ENDBLK
  5
   16B
  8
0
  6
CONTINUOUS
 62
     7
  0
BLOCK
  5
   16C
  8
0
  6
CONTINUOUS
 62
     7
  2
*UDIM20
 70
    65
 10
0.0
 20
0.0
 30
0.0
  3
*UDIM20
  0
TEXT
  5
   16D
  8
0
  6
CONTINUOUS
 62
     7
 10
233.039243463443
 20
13.4633311497466
 30
0.0
 40
3.00000002980232
  1
80
 50
449.241125536518
 41
0.933333333333333
 72
     1
 11
231.572486193508
 21
15.982978601271
 31
0.0
 73
     2
  0
TEXT
  5
   16E
  8
0
  6
CONTINUOUS
 62
     7
 10
232.505518429181
 20
18.4708393211927
 30
0.0
 40
3.00000002980232
  1
°
 50
449.241125536518
 41
0.933333333333334
 72
     1
 11
231.02021890002
 21
19.5906095553997
 31
0.0
 73
     2
  0
LINE
  5
   16F
  8
0
  6
CONTINUOUS
 62
     7
 10
215.976814096439
 20
13.0368717857958
 30
0.0
 11
230.17878126267
 21
1.12000637461996
 31
0.0
  0
LINE
  5
   170
  8
0
  6
CONTINUOUS
 62
     7
 10
215.976814096439
 20
21.678845529878
 30
0.0
 11
230.17878126267
 21
33.5957109410539
 31
0.0
  0
ARC
  5
   171
  8
0
  6
CONTINUOUS
 62
     7
 10
210.827262468132
 20
17.3578586578369
 30
0.0
 40
23.2616136940404
 50
319.999999815233
 51
399.999999769042
  0
LINE
  5
   172
  8
0
  6
CONTINUOUS
 62
     7
 10
230.146692467052
 20
5.00365775302694
 30
0.0
 11
228.646692376432
 21
2.40558159399304
 31
0.0
  0
LINE
  5
   173
  8
0
  6
CONTINUOUS
 62
     7
 10
228.646692376432
 20
2.40558159399304
 30
0.0
 11
230.944825638528
 21
4.33394450321065
 31
0.0
  0
LINE
  5
   174
  8
0
  6
CONTINUOUS
 62
     7
 10
230.944825638528
 20
30.3817728124632
 30
0.0
 11
228.646692376432
 21
32.3101357216808
 31
0.0
  0
LINE
  5
   175
  8
0
  6
CONTINUOUS
 62
     7
 10
228.646692376432
 20
32.3101357216808
 30
0.0
 11
230.146692467052
 21
29.7120595626469
 31
0.0
  0
ENDBLK
  5
   176
  8
0
  6
CONTINUOUS
 62
     7
  0
BLOCK
  5
   177
  8
0
  6
CONTINUOUS
 62
     7
  2
*UDIM21
 70
    65
 10
0.0
 20
0.0
 30
0.0
  3
*UDIM21
  0
TEXT
  5
   178
  8
0
  6
CONTINUOUS
 62
     7
 10
192.765102379688
 20
23.2429256150137
 30
0.0
 40
3.00000002980232
  1
Ø4
 50
449.999999844103
 41
0.933333333333333
 72
     1
 11
191.265102371573
 21
25.7429256439209
 31
0.0
 73
     2
  0
LINE
  5
   179
  8
0
  6
CONTINUOUS
 62
     7
 10
212.21076965332
 20
19.3578586578369
 30
0.0
 11
191.765102386475
 21
19.3578586578369
 31
0.0
  0
LINE
  5
   17A
  8
0
  6
CONTINUOUS
 62
     7
 10
212.21076965332
 20
15.3578586578369
 30
0.0
 11
191.765102386475
 21
15.3578586578369
 31
0.0
  0
LINE
  5
   17B
  8
0
  6
CONTINUOUS
 62
     7
 10
193.765102386475
 20
28.2429256687562
 30
0.0
 11
193.765102386475
 21
15.3578586578369
 31
0.0
  0
LINE
  5
   17C
  8
0
  6
CONTINUOUS
 62
     7
 10
193.244157956523
 20
22.3122819350439
 30
0.0
 11
193.765102386475
 21
19.3578586578369
 31
0.0
  0
LINE
  5
   17D
  8
0
  6
CONTINUOUS
 62
     7
 10
193.765102386475
 20
19.3578586578369
 30
0.0
 11
194.286046816426
 21
22.3122819350439
 31
0.0
  0
LINE
  5
   17E
  8
0
  6
CONTINUOUS
 62
     7
 10
194.286046816426
 20
12.40343538063
 30
0.0
 11
193.765102386475
 21
15.3578586578369
 31
0.0
  0
LINE
  5
   17F
  8
0
  6
CONTINUOUS
 62
     7
 10
193.765102386475
 20
15.3578586578369
 30
0.0
 11
193.244157956523
 21
12.40343538063
 31
0.0
  0
ENDBLK
  5
   180
  8
0
  6
CONTINUOUS
 62
     7
  0
BLOCK
  5
   181
  8
0
  6
CONTINUOUS
 62
     7
  2
*UDIM22
 70
    65
 10
0.0
 20
0.0
 30
0.0
  3
*UDIM22
  0
TEXT
  5
   182
  8
0
  6
CONTINUOUS
 62
     7
 10
-58.356495638423
 20
-190.601160546545
 30
0.0
 40
3.00000005960463
  1
40
 50
336.041640856291
 41
0.933333333333334
 72
     1
 11
-55.4627846326677
 21
-190.245580804532
 31
0.0
 73
     2
  0
TEXT
  5
   183
  8
0
  6
CONTINUOUS
 62
     7
 10
-60.8695579483059
 20
-189.484460885662
 30
0.0
 40
3.00000005960463
  1
R
 50
336.041640856291
 41
0.933333333333334
 72
     1
 11
-59.2552241164766
 21
-188.560379494821
 31
0.0
 73
     2
  0
LINE
  5
   184
  8
0
  6
CONTINUOUS
 62
     7
 10
-61.2756305432186
 20
-190.39830170968
 30
0.0
 11
-32.2738360627385
 21
-203.285484814682
 31
0.0
  0
LINE
  5
   185
  8
0
  6
CONTINUOUS
 62
     7
 10
-43.0700345283346
 20
-197.918045911886
 30
0.0
 11
-45.9814483791919
 21
-197.194395865913
 31
0.0
  0
LINE
  5
   186
  8
0
  6
CONTINUOUS
 62
     7
 10
-45.9814483791919
 20
-197.194395865913
 30
0.0
 11
-43.4931170430281
 21
-198.870166483112
 31
0.0
  0
ENDBLK
  5
   187
  8
0
  6
CONTINUOUS
 62
     7
  0
BLOCK
  5
   188
  8
0
  6
CONTINUOUS
 62
     7
  2
*UDIM23
 70
    65
 10
0.0
 20
0.0
 30
0.0
  3
*UDIM23
  0
TEXT
  5
   189
  8
0
  6
CONTINUOUS
 62
     7
 10
-66.7030326536873
 20
-185.214983509391
 30
0.0
 40
3.00000005960463
  1
315
 50
449.999999896069
 41
0.933333333333334
 72
     1
 11
-68.2030326764398
 21
-181.314983429193
 31
0.0
 73
     2
  0
LINE
  5
   18A
  8
0
  6
CONTINUOUS
 62
     7
 10
-53.5910445106436
 20
-151.442979365587
 30
0.0
 11
-67.7030326466374
 21
-151.442979365587
 31
0.0
  0
LINE
  5
   18B
  8
0
  6
CONTINUOUS
 62
     7
 10
-53.5910445106436
 20
-200.44297644496
 30
0.0
 11
-67.7030326466374
 21
-200.44297644496
 31
0.0
  0
LINE
  5
   18C
  8
0
  6
CONTINUOUS
 62
     7
 10
-65.7030326466374
 20
-151.442979365587
 30
0.0
 11
-65.7030326466374
 21
-200.44297644496
 31
0.0
  0
LINE
  5
   18D
  8
0
  6
CONTINUOUS
 62
     7
 10
-65.1820882166858
 20
-154.397402642794
 30
0.0
 11
-65.7030326466374
 21
-151.442979365587
 31
0.0
  0
LINE
  5
   18E
  8
0
  6
CONTINUOUS
 62
     7
 10
-65.7030326466374
 20
-151.442979365587
 30
0.0
 11
-66.2239770765891
 21
-154.397402642794
 31
0.0
  0
LINE
  5
   18F
  8
0
  6
CONTINUOUS
 62
     7
 10
-66.2239770765891
 20
-197.488553167753
 30
0.0
 11
-65.7030326466374
 21
-200.44297644496
 31
0.0
  0
LINE
  5
   190
  8
0
  6
CONTINUOUS
 62
     7
 10
-65.7030326466374
 20
-200.44297644496
 30
0.0
 11
-65.1820882166858
 21
-197.488553167753
 31
0.0
  0
ENDBLK
  5
   191
  8
0
  6
CONTINUOUS
 62
     7
  0
BLOCK
  5
   192
  8
0
  6
CONTINUOUS
 62
     7
  2
*UDIM24
 70
    65
 10
0.0
 20
0.0
 30
0.0
  3
*UDIM24
  0
TEXT
  5
   193
  8
0
  6
CONTINUOUS
 62
     7
 10
-57.7361234057099
 20
-173.442978319257
 30
0.0
 40
3.00000005960463
  1
165,75
 50
449.999999896069
 41
0.933333333333334
 72
     1
 11
-59.2361234208702
 21
-165.342978155613
 31
0.0
 73
     2
  0
LINE
  5
   194
  8
0
  6
CONTINUOUS
 62
     7
 10
-53.5910445106436
 20
-151.442979365587
 30
0.0
 11
-58.7361233910678
 21
-151.442979365587
 31
0.0
  0
LINE
  5
   195
  8
0
  6
CONTINUOUS
 62
     7
 10
-39.4626740567484
 20
-175.942977905273
 30
0.0
 11
-58.7361233910678
 21
-175.942977905273
 31
0.0
  0
LINE
  5
   196
  8
0
  6
CONTINUOUS
 62
     7
 10
-56.7361233910679
 20
-151.442979365587
 30
0.0
 11
-56.7361233910679
 21
-175.942977905273
 31
0.0
  0
LINE
  5
   197
  8
0
  6
CONTINUOUS
 62
     7
 10
-56.2151789611162
 20
-154.397402642794
 30
0.0
 11
-56.7361233910679
 21
-151.442979365587
 31
0.0
  0
LINE
  5
   198
  8
0
  6
CONTINUOUS
 62
     7
 10
-56.7361233910679
 20
-151.442979365587
 30
0.0
 11
-57.2570678210195
 21
-154.397402642794
 31
0.0
  0
LINE
  5
   199
  8
0
  6
CONTINUOUS
 62
     7
 10
-57.2570678210195
 20
-172.988554628067
 30
0.0
 11
-56.7361233910679
 21
-175.942977905273
 31
0.0
  0
LINE
  5
   19A
  8
0
  6
CONTINUOUS
 62
     7
 10
-56.7361233910679
 20
-175.942977905273
 30
0.0
 11
-56.2151789611162
 21
-172.988554628067
 31
0.0
  0
ENDBLK
  5
   19B
  8
0
  6
CONTINUOUS
 62
     7
  0
BLOCK
  5
   19C
  8
0
  6
CONTINUOUS
 62
     7
  2
*UDIM25
 70
    65
 10
0.0
 20
0.0
 30
0.0
  3
*UDIM25
  0
TEXT
  5
   19D
  8
0
  6
CONTINUOUS
 62
     7
 10
27.7032849639756
 20
-154.101168657579
 30
0.0
 40
3.00000005960463
  1
50
 50
449.999999896069
 41
0.933333333333334
 72
     1
 11
26.2032849386924
 21
-151.601168605197
 31
0.0
 73
     2
  0
LINE
  5
   19E
  8
0
  6
CONTINUOUS
 62
     7
 10
-29.9157207068026
 20
-146.44297966361
 30
0.0
 11
30.7032849684947
 21
-146.44297966361
 31
0.0
  0
LINE
  5
   19F
  8
0
  6
CONTINUOUS
 62
     7
 10
-29.9157207068026
 20
-156.442979067564
 30
0.0
 11
30.7032849684947
 21
-156.442979067564
 31
0.0
  0
LINE
  5
   1A0
  8
0
  6
CONTINUOUS
 62
     7
 10
28.7032849684947
 20
-146.44297966361
 30
0.0
 11
28.7032849684947
 21
-156.442979067564
 31
0.0
  0
LINE
  5
   1A1
  8
0
  6
CONTINUOUS
 62
     7
 10
28.182340538543
 20
-143.488556386404
 30
0.0
 11
28.7032849684947
 21
-146.44297966361
 31
0.0
  0
LINE
  5
   1A2
  8
0
  6
CONTINUOUS
 62
     7
 10
28.7032849684947
 20
-146.44297966361
 30
0.0
 11
29.2242293984464
 21
-143.488556386404
 31
0.0
  0
LINE
  5
   1A3
  8
0
  6
CONTINUOUS
 62
     7
 10
29.2242293984464
 20
-159.397402344771
 30
0.0
 11
28.7032849684947
 21
-156.442979067564
 31
0.0
  0
LINE
  5
   1A4
  8
0
  6
CONTINUOUS
 62
     7
 10
28.7032849684947
 20
-156.442979067564
 30
0.0
 11
28.182340538543
 21
-159.397402344771
 31
0.0
  0
ENDBLK
  5
   1A5
  8
0
  6
CONTINUOUS
 62
     7
  0
BLOCK
  5
   1A6
  8
0
  6
CONTINUOUS
 62
     7
  2
*UDIM26
 70
    65
 10
0.0
 20
0.0
 30
0.0
  3
*UDIM26
  0
TEXT
  5
   1A7
  8
0
  6
CONTINUOUS
 62
     7
 10
-6.44572422527409
 20
-183.147725946866
 30
0.0
 40
3.00000005960463
  1
70
 50
359.999999896069
 41
0.933333333333334
 72
     1
 11
-3.94572417289019
 21
-181.647725921586
 31
0.0
 73
     2
  0
LINE
  5
   1A8
  8
0
  6
CONTINUOUS
 62
     7
 10
3.32927525043488
 20
-184.147725951389
 30
0.0
 11
-10.6707239151001
 21
-184.147725951389
 31
0.0
  0
LINE
  5
   1A9
  8
0
  6
CONTINUOUS
 62
     7
 10
0.374851973227912
 20
-184.66867038134
 30
0.0
 11
3.32927525043488
 21
-184.147725951389
 31
0.0
  0
LINE
  5
   1AA
  8
0
  6
CONTINUOUS
 62
     7
 10
3.32927525043488
 20
-184.147725951389
 30
0.0
 11
0.374851973227912
 21
-183.626781521437
 31
0.0
  0
LINE
  5
   1AB
  8
0
  6
CONTINUOUS
 62
     7
 10
-7.71630063789313
 20
-183.626781521437
 30
0.0
 11
-10.6707239151001
 21
-184.147725951389
 31
0.0
  0
LINE
  5
   1AC
  8
0
  6
CONTINUOUS
 62
     7
 10
-10.6707239151001
 20
-184.147725951389
 30
0.0
 11
-7.71630063789313
 21
-184.66867038134
 31
0.0
  0
ENDBLK
  5
   1AD
  8
0
  6
CONTINUOUS
 62
     7
  0
BLOCK
  5
   1AE
  8
0
  6
CONTINUOUS
 62
     7
  2
*UDIM27
 70
    65
 10
0.0
 20
0.0
 30
0.0
  3
*UDIM27
  0
TEXT
  5
   1AF
  8
0
  6
CONTINUOUS
 62
     7
 10
-20.4457233908091
 20
-183.147725946866
 30
0.0
 40
3.00000005960463
  1
70
 50
359.999999896069
 41
0.933333333333334
 72
     1
 11
-17.9457233384252
 21
-181.647725921586
 31
0.0
 73
     2
  0
LINE
  5
   1B0
  8
0
  6
CONTINUOUS
 62
     7
 10
-10.6707239151001
 20
-184.147725951389
 30
0.0
 11
-24.6707230806351
 21
-184.147725951389
 31
0.0
  0
LINE
  5
   1B1
  8
0
  6
CONTINUOUS
 62
     7
 10
-13.6251471923071
 20
-184.66867038134
 30
0.0
 11
-10.6707239151001
 21
-184.147725951389
 31
0.0
  0
LINE
  5
   1B2
  8
0
  6
CONTINUOUS
 62
     7
 10
-10.6707239151001
 20
-184.147725951389
 30
0.0
 11
-13.6251471923071
 21
-183.626781521437
 31
0.0
  0
LINE
  5
   1B3
  8
0
  6
CONTINUOUS
 62
     7
 10
-21.7162998034281
 20
-183.626781521437
 30
0.0
 11
-24.6707230806351
 21
-184.147725951389
 31
0.0
  0
LINE
  5
   1B4
  8
0
  6
CONTINUOUS
 62
     7
 10
-24.6707230806351
 20
-184.147725951389
 30
0.0
 11
-21.7162998034281
 21
-184.66867038134
 31
0.0
  0
ENDBLK
  5
   1B5
  8
0
  6
CONTINUOUS
 62
     7
  0
BLOCK
  5
   1B6
  8
0
  6
CONTINUOUS
 62
     7
  2
*UDIM28
 70
    65
 10
0.0
 20
0.0
 30
0.0
  3
*UDIM28
  0
TEXT
  5
   1B7
  8
0
  6
CONTINUOUS
 62
     7
 10
-34.445722556344
 20
-183.147725946866
 30
0.0
 40
3.00000005960463
  1
70
 50
359.999999896069
 41
0.933333333333334
 72
     1
 11
-31.9457225039601
 21
-181.647725921586
 31
0.0
 73
     2
  0
LINE
  5
   1B8
  8
0
  6
CONTINUOUS
 62
     7
 10
-24.6707230806351
 20
-184.147725951389
 30
0.0
 11
-38.67072224617
 21
-184.147725951389
 31
0.0
  0
LINE
  5
   1B9
  8
0
  6
CONTINUOUS
 62
     7
 10
-27.625146357842
 20
-184.66867038134
 30
0.0
 11
-24.6707230806351
 21
-184.147725951389
 31
0.0
  0
LINE
  5
   1BA
  8
0
  6
CONTINUOUS
 62
     7
 10
-24.6707230806351
 20
-184.147725951389
 30
0.0
 11
-27.625146357842
 21
-183.626781521437
 31
0.0
  0
LINE
  5
   1BB
  8
0
  6
CONTINUOUS
 62
     7
 10
-35.7162989689631
 20
-183.626781521437
 30
0.0
 11
-38.67072224617
 21
-184.147725951389
 31
0.0
  0
LINE
  5
   1BC
  8
0
  6
CONTINUOUS
 62
     7
 10
-38.67072224617
 20
-184.147725951389
 30
0.0
 11
-35.7162989689631
 21
-184.66867038134
 31
0.0
  0
ENDBLK
  5
   1BD
  8
0
  6
CONTINUOUS
 62
     7
  0
BLOCK
  5
   1BE
  8
0
  6
CONTINUOUS
 62
     7
  2
*UDIM29
 70
    65
 10
0.0
 20
0.0
 30
0.0
  3
*UDIM29
  0
TEXT
  5
   1BF
  8
0
  6
CONTINUOUS
 62
     7
 10
-74.4856310743536
 20
-168.868730754837
 30
0.0
 40
3.00000005960463
  1
197,25
 50
449.999999896069
 41
0.933333333333334
 72
     1
 11
-75.9856310895138
 21
-160.768730591193
 31
0.0
 73
     2
  0
LINE
  5
   1C0
  8
0
  6
CONTINUOUS
 62
     7
 10
-24.9946707182239
 20
-145.142979741097
 30
0.0
 11
-75.4856310597115
 21
-145.142979741097
 31
0.0
  0
LINE
  5
   1C1
  8
0
  6
CONTINUOUS
 62
     7
 10
-46.5779014203002
 20
-175.942977905273
 30
0.0
 11
-75.4856310597115
 21
-175.942977905273
 31
0.0
  0
LINE
  5
   1C2
  8
0
  6
CONTINUOUS
 62
     7
 10
-73.4856310597115
 20
-145.142979741097
 30
0.0
 11
-73.4856310597115
 21
-175.942977905273
 31
0.0
  0
LINE
  5
   1C3
  8
0
  6
CONTINUOUS
 62
     7
 10
-72.9646866297599
 20
-148.097403018303
 30
0.0
 11
-73.4856310597115
 21
-145.142979741097
 31
0.0
  0
LINE
  5
   1C4
  8
0
  6
CONTINUOUS
 62
     7
 10
-73.4856310597115
 20
-145.142979741097
 30
0.0
 11
-74.0065754896632
 21
-148.097403018303
 31
0.0
  0
LINE
  5
   1C5
  8
0
  6
CONTINUOUS
 62
     7
 10
-74.0065754896632
 20
-172.988554628067
 30
0.0
 11
-73.4856310597115
 21
-175.942977905273
 31
0.0
  0
LINE
  5
   1C6
  8
0
  6
CONTINUOUS
 62
     7
 10
-73.4856310597115
 20
-175.942977905273
 30
0.0
 11
-72.9646866297599
 21
-172.988554628067
 31
0.0
  0
ENDBLK
  5
   1C7
  8
0
  6
CONTINUOUS
 62
     7
  0
BLOCK
  5
   1C8
  8
0
  6
CONTINUOUS
 62
     7
  2
*UDIM30
 70
    65
 10
0.0
 20
0.0
 30
0.0
  3
*UDIM30
  0
TEXT
  5
   1C9
  8
0
  6
CONTINUOUS
 62
     7
 10
-9.64079506151587
 20
-165.636875702753
 30
0.0
 40
3.00000005960463
  1
35
 50
359.999999896069
 41
0.933333333333334
 72
     1
 11
-7.14079500913197
 21
-164.136875677473
 31
0.0
 73
     2
  0
LINE
  5
   1CA
  8
0
  6
CONTINUOUS
 62
     7
 10
-3.67072433233261
 20
-166.636875707275
 30
0.0
 11
-10.6707239151001
 21
-166.636875707275
 31
0.0
  0
LINE
  5
   1CB
  8
0
  6
CONTINUOUS
 62
     7
 10
-0.716301055125648
 20
-166.115931277323
 30
0.0
 11
-3.67072433233261
 21
-166.636875707275
 31
0.0
  0
LINE
  5
   1CC
  8
0
  6
CONTINUOUS
 62
     7
 10
-3.67072433233261
 20
-166.636875707275
 30
0.0
 11
-0.716301055125648
 21
-167.157820137227
 31
0.0
  0
LINE
  5
   1CD
  8
0
  6
CONTINUOUS
 62
     7
 10
-13.6251471923071
 20
-167.157820137227
 30
0.0
 11
-10.6707239151001
 21
-166.636875707275
 31
0.0
  0
LINE
  5
   1CE
  8
0
  6
CONTINUOUS
 62
     7
 10
-10.6707239151001
 20
-166.636875707275
 30
0.0
 11
-13.6251471923071
 21
-166.115931277323
 31
0.0
  0
ENDBLK
  5
   1CF
  8
0
  6
CONTINUOUS
 62
     7
  0
BLOCK
  5
   1D0
  8
0
  6
CONTINUOUS
 62
     7
  2
*UDIM31
 70
    65
 10
0.0
 20
0.0
 30
0.0
  3
*UDIM31
  0
TEXT
  5
   1D1
  8
0
  6
CONTINUOUS
 62
     7
 10
-81.6337751719488
 20
-180.117977355714
 30
0.0
 40
3.00000005960463
  1
378
 50
449.999999896069
 41
0.933333333333334
 72
     1
 11
-83.1337751947012
 21
-176.217977275517
 31
0.0
 73
     2
  0
LINE
  5
   1D2
  8
0
  6
CONTINUOUS
 62
     7
 10
-24.9946707182238
 20
-145.14297942718
 30
0.0
 11
-82.6337751648988
 21
-145.142961333316
 31
0.0
  0
LINE
  5
   1D3
  8
0
  6
CONTINUOUS
 62
     7
 10
-26.6684040127872
 20
-206.742975755534
 30
0.0
 11
-82.6337751648988
 21
-206.742958187082
 31
0.0
  0
LINE
  5
   1D4
  8
0
  6
CONTINUOUS
 62
     7
 10
-80.6337751648989
 20
-145.142961961149
 30
0.0
 11
-80.6337751648989
 21
-206.742958814915
 31
0.0
  0
LINE
  5
   1D5
  8
0
  6
CONTINUOUS
 62
     7
 10
-80.1128307349472
 20
-148.097385238356
 30
0.0
 11
-80.6337751648989
 21
-145.142961961149
 31
0.0
  0
LINE
  5
   1D6
  8
0
  6
CONTINUOUS
 62
     7
 10
-80.6337751648989
 20
-145.142961961149
 30
0.0
 11
-81.1547195948506
 21
-148.097385238356
 31
0.0
  0
LINE
  5
   1D7
  8
0
  6
CONTINUOUS
 62
     7
 10
-81.1547195948506
 20
-203.788535537708
 30
0.0
 11
-80.6337751648989
 21
-206.742958814915
 31
0.0
  0
LINE
  5
   1D8
  8
0
  6
CONTINUOUS
 62
     7
 10
-80.6337751648989
 20
-206.742958814915
 30
0.0
 11
-80.1128307349472
 21
-203.788535537708
 31
0.0
  0
ENDBLK
  5
   1D9
  8
0
  6
CONTINUOUS
 62
     7
  0
BLOCK
  5
   1DA
  8
0
  6
CONTINUOUS
 62
     7
  2
*UDIM32
 70
    65
 10
0.0
 20
0.0
 30
0.0
  3
*UDIM32
  0
TEXT
  5
   1DB
  8
0
  6
CONTINUOUS
 62
     7
 10
21.8928344049799
 20
-191.737861226294
 30
0.0
 40
3.00000005960463
  1
5,5
 50
388.478485351186
 41
0.933333333333334
 72
     1
 11
24.6056766401773
 21
-188.559734781244
 31
0.0
 73
     2
  0
TEXT
  5
   1DC
  8
0
  6
CONTINUOUS
 62
     7
 10
19.1239962749658
 20
-193.239871748911
 30
0.0
 40
3.00000005960463
  1
Ø
 50
388.478485351186
 41
0.933333333333334
 72
     1
 11
19.3756490326394
 21
-191.396865773055
 31
0.0
 73
     2
  0
TEXT
  5
   1DD
  8
0
  6
CONTINUOUS
 62
     7
 10
29.2324530167107
 20
-187.756341237465
 30
0.0
 40
3.00000005960463
  1
 - M5
 50
388.478485351186
 41
0.933333333333333
 72
     1
 11
34.406484729432
 21
-183.243094323222
 31
0.0
 73
     2
  0
LINE
  5
   1DE
  8
0
  6
CONTINUOUS
 62
     7
 10
41.4878313868667
 20
-182.245832346598
 30
0.0
 11
-4.15417222652237
 21
-207.005231855931
 31
0.0
  0
LINE
  5
   1DF
  8
0
  6
CONTINUOUS
 62
     7
 10
-0.838750805939556
 20
-204.614058193869
 30
0.0
 11
-3.18727643814285
 21
-206.48072028297
 31
0.0
  0
LINE
  5
   1E0
  8
0
  6
CONTINUOUS
 62
     7
 10
-3.18727643814285
 20
-206.48072028297
 30
0.0
 11
-0.34194826291044
 21
-205.529874567184
 31
0.0
  0
LINE
  5
   1E1
  8
0
  6
CONTINUOUS
 62
     7
 10
-6.50269785872567
 20
-208.871893945031
 30
0.0
 11
-4.15417222652237
 21
-207.005231855931
 31
0.0
  0
LINE
  5
   1E2
  8
0
  6
CONTINUOUS
 62
     7
 10
-4.15417222652237
 20
-207.005231855931
 30
0.0
 11
-6.99950040175478
 21
-207.956077571717
 31
0.0
  0
ENDBLK
  5
   1E3
  8
0
  6
CONTINUOUS
 62
     7
  0
BLOCK
  5
   1E4
  8
0
  6
CONTINUOUS
 62
     7
  2
*UDIM33
 70
    65
 10
0.0
 20
0.0
 30
0.0
  3
*UDIM33
  0
TEXT
  5
   1E5
  8
0
  6
CONTINUOUS
 62
     7
 10
-21.8457233232571
 20
-189.802730430477
 30
0.0
 40
3.00000005960463
  1
140
 50
359.999999896069
 41
0.933333333333334
 72
     1
 11
-17.9457232430577
 21
-188.30273040773
 31
0.0
 73
     2
  0
LINE
  5
   1E6
  8
0
  6
CONTINUOUS
 62
     7
 10
-3.67072433233261
 20
-190.802730437532
 30
0.0
 11
-31.6707226634026
 21
-190.802730437532
 31
0.0
  0
LINE
  5
   1E7
  8
0
  6
CONTINUOUS
 62
     7
 10
-6.62514760953958
 20
-191.323674867484
 30
0.0
 11
-3.67072433233261
 21
-190.802730437532
 31
0.0
  0
LINE
  5
   1E8
  8
0
  6
CONTINUOUS
 62
     7
 10
-3.67072433233261
 20
-190.802730437532
 30
0.0
 11
-6.62514760953958
 21
-190.28178600758
 31
0.0
  0
LINE
  5
   1E9
  8
0
  6
CONTINUOUS
 62
     7
 10
-28.7162993861956
 20
-190.28178600758
 30
0.0
 11
-31.6707226634026
 21
-190.802730437532
 31
0.0
  0
LINE
  5
   1EA
  8
0
  6
CONTINUOUS
 62
     7
 10
-31.6707226634026
 20
-190.802730437532
 30
0.0
 11
-28.7162993861956
 21
-191.323674867484
 31
0.0
  0
ENDBLK
  5
   1EB
  8
0
  6
CONTINUOUS
 62
     7
  0
BLOCK
  5
   1EC
  8
0
  6
CONTINUOUS
 62
     1
  2
*UDIM34
 70
    65
 10
0.0
 20
0.0
 30
0.0
  3
*UDIM34
  0
TEXT
  5
   1ED
  8
0
  6
CONTINUOUS
 62
     1
 10
11.494344342028
 20
-127.534118037064
 30
0.0
 40
2.00000009536742
  1
FORATURA DA ESEGUIRE SOLO PER ESECUZ.TERM.POST.
 50
359.999999896069
 41
0.937499979138376
 72
     2
 11
99.2443465688986
 21
-125.534118100429
 31
0.0
 73
     3
  0
TEXT
  5
   1EE
  8
0
  6
CONTINUOUS
 62
     1
 10
13.3693443897117
 20
-130.53411803876
 30
0.0
 40
2.00000009536742
  1
REAR TERMINAL EXECUTION ONLY DRILLING TEMPLATE
 50
359.999999896069
 41
0.937499979138376
 72
     2
 11
99.2443465688986
 21
-128.534118098733
 31
0.0
 73
     3
  0
LINE
  5
   1EF
  8
0
  6
CONTINUOUS
 62
     1
 10
3.03067144743227
 20
-149.571379135346
 30
0.0
 11
11.4193443483073
 21
-131.53411811643
 31
0.0
  0
LINE
  5
   1F0
  8
0
  6
CONTINUOUS
 62
     1
 10
11.4193443483073
 20
-131.53411811643
 30
0.0
 11
99.2443465670897
 21
-131.53411811643
 31
0.0
  0
LINE
  5
   1F1
  8
0
  6
CONTINUOUS
 62
     1
 10
3.80419207976907
 20
-146.672816417145
 30
0.0
 11
3.03067144743227
 21
-149.571379135346
 31
0.0
  0
LINE
  5
   1F2
  8
0
  6
CONTINUOUS
 62
     1
 10
3.03067144743227
 20
-149.571379135346
 30
0.0
 11
4.74890974243087
 21
-147.112180655841
 31
0.0
  0
ENDBLK
  5
   1F3
  8
0
  6
CONTINUOUS
 62
     1
  0
ENDSEC
  0
SECTION
  2
ENTITIES
  0
LINE
  5
   1F4
  8
0
  6
CONTINUOUS
 62
     1
 10
-31.167463930251
 20
-66.2629620969301
 30
0.0
 11
-31.167463930251
 21
-29.5129925549008
 31
0.0
  0
LINE
  5
   1F5
  8
0
  6
DASHDOT
 62
     7
 10
49.2127720556046
 20
-45.8754908829906
 30
0.0
 11
-71.2493544114706
 21
-45.8754908829906
 31
0.0
  0
LINE
  5
   1F6
  8
0
  6
CONTINUOUS
 62
     7
 10
5.56500988602692
 20
-68.5379912376379
 30
0.0
 11
5.56500988602692
 21
-31.2629950463747
 31
0.0
  0
LINE
  5
   1F7
  8
0
  6
CONTINUOUS
 62
     7
 10
5.56500988602693
 20
-35.2684534688865
 30
0.0
 11
-29.7849838316438
 21
-35.2684534688865
 31
0.0
  0
LINE
  5
   1F8
  8
0
  6
CONTINUOUS
 62
     7
 10
5.56500988602693
 20
-34.9184535046493
 30
0.0
 11
-29.7849838316438
 21
-34.9184535046493
 31
0.0
  0
LINE
  5
   1F9
  8
0
  6
CONTINUOUS
 62
     7
 10
-13.8599827885628
 20
-63.9249381964237
 30
0.0
 11
-13.8599827885628
 21
-36.226050722114
 31
0.0
  0
LINE
  5
   1FA
  8
0
  6
CONTINUOUS
 62
     7
 10
0.840015709400172
 20
-63.9249381964237
 30
0.0
 11
0.840015709400172
 21
-36.226050722114
 31
0.0
  0
LINE
  5
   1FB
  8
0
  6
CONTINUOUS
 62
     7
 10
-13.8599827885628
 20
-41.9184527893935
 30
0.0
 11
-29.7849838316438
 21
-41.9184527893935
 31
0.0
  0
LINE
  5
   1FC
  8
0
  6
CONTINUOUS
 62
     7
 10
5.56500988602693
 20
-41.9184527893935
 30
0.0
 11
0.840015709400176
 21
-41.9184527893935
 31
0.0
  0
LINE
  5
   1FD
  8
0
  6
CONTINUOUS
 62
     7
 10
1.80251561105251
 20
-41.5684528251563
 30
0.0
 11
0.840015709400176
 21
-41.5684528251563
 31
0.0
  0
LINE
  5
   1FE
  8
0
  6
CONTINUOUS
 62
     7
 10
-13.8599827885628
 20
-41.5684528251563
 30
0.0
 11
-29.7849838316438
 21
-41.5684528251563
 31
0.0
  0
LINE
  5
   1FF
  8
0
  6
CONTINUOUS
 62
     7
 10
5.56500988602692
 20
-58.3088542899861
 30
0.0
 11
0.840015709400173
 21
-58.3088542899861
 31
0.0
  0
LINE
  5
   200
  8
0
  6
CONTINUOUS
 62
     7
 10
-13.8599827885628
 20
-58.3088542899861
 30
0.0
 11
-29.7849838316438
 21
-58.3088542899861
 31
0.0
  0
LINE
  5
   201
  8
0
  6
CONTINUOUS
 62
     7
 10
-13.8599827885628
 20
-58.6588542542233
 30
0.0
 11
-29.7849838316438
 21
-58.6588542542233
 31
0.0
  0
LINE
  5
   202
  8
0
  6
CONTINUOUS
 62
     7
 10
5.56500988602692
 20
-58.6588542542233
 30
0.0
 11
0.840015709400173
 21
-58.6588542542233
 31
0.0
  0
LINE
  5
   203
  8
0
  6
CONTINUOUS
 62
     7
 10
5.56500988602692
 20
-64.9588536104932
 30
0.0
 11
-29.7849838316438
 21
-64.9588536104932
 31
0.0
  0
LINE
  5
   204
  8
0
  6
CONTINUOUS
 62
     7
 10
5.56500988602692
 20
-65.3088535747304
 30
0.0
 11
-29.7849838316438
 21
-65.3088535747304
 31
0.0
  0
LINE
  5
   205
  8
0
  6
CONTINUOUS
 62
     7
 10
0.840015709400178
 20
-36.6082196436355
 30
0.0
 11
-13.8599827885628
 21
-36.6082196436355
 31
0.0
  0
LINE
  5
   206
  8
0
  6
CONTINUOUS
 62
     7
 10
0.840015709400178
 20
-36.226050722114
 30
0.0
 11
-13.8599827885628
 21
-36.226050722114
 31
0.0
  0
LINE
  5
   207
  8
0
  6
CONTINUOUS
 62
     7
 10
0.840015709400173
 20
-63.9249381964237
 30
0.0
 11
-13.8599827885628
 21
-63.9249381964237
 31
0.0
  0
LINE
  5
   208
  8
0
  6
CONTINUOUS
 62
     7
 10
0.840015709400173
 20
-63.5427699424741
 30
0.0
 11
-13.8599827885628
 21
-63.5427699424741
 31
0.0
  0
LINE
  5
   209
  8
0
  6
CONTINUOUS
 62
     7
 10
-17.5349837481974
 20
-36.843453307954
 30
0.0
 11
-18.0599836945532
 21
-36.843453307954
 31
0.0
  0
LINE
  5
   20A
  8
0
  6
CONTINUOUS
 62
     7
 10
-17.5349837481974
 20
-39.9934529860889
 30
0.0
 11
-18.0599836945532
 21
-39.9934529860889
 31
0.0
  0
LINE
  5
   20B
  8
0
  6
CONTINUOUS
 62
     7
 10
-17.5349837481974
 20
-39.9934529860889
 30
0.0
 11
-17.5349837481974
 21
-36.843453307954
 31
0.0
  0
LINE
  5
   20C
  8
0
  6
CONTINUOUS
 62
     7
 10
-18.0599836945532
 20
-39.9934529860889
 30
0.0
 11
-18.0599836945532
 21
-36.843453307954
 31
0.0
  0
CIRCLE
  5
   20D
  8
0
  6
CONTINUOUS
 62
     7
 10
-17.7974837213753
 20
-61.8088539323583
 30
0.0
 40
1.13749988377094
  0
CIRCLE
  5
   20E
  8
0
  6
CONTINUOUS
 62
     7
 10
-17.7974837213753
 20
-61.8088539323583
 30
0.0
 40
1.66249983012676
  0
LINE
  5
   20F
  8
0
  6
DASHDOT
 62
     7
 10
-6.5099835395813
 20
-72.1389341332798
 30
0.0
 11
-6.5099835395813
 21
-27.6407716923845
 31
0.0
  0
LINE
  5
   210
  8
0
  6
CONTINUOUS
 62
     7
 10
1.80251561105251
 20
-41.5684528251563
 30
0.0
 11
1.80251561105251
 21
-35.2684534688865
 31
0.0
  0
LINE
  5
   211
  8
0
  6
CONTINUOUS
 62
     7
 10
-14.8224826902151
 20
-41.5684528251563
 30
0.0
 11
-14.8224826902151
 21
-35.2684534688865
 31
0.0
  0
LINE
  5
   212
  8
0
  6
CONTINUOUS
 62
     7
 10
5.56500988602693
 20
-41.5684528251563
 30
0.0
 11
1.80251561105251
 21
-41.5684528251563
 31
0.0
  0
LINE
  5
   213
  8
0
  6
CONTINUOUS
 62
     7
 10
1.80251561105251
 20
-64.9588536104932
 30
0.0
 11
1.80251561105251
 21
-58.6588542542233
 31
0.0
  0
LINE
  5
   214
  8
0
  6
CONTINUOUS
 62
     7
 10
-14.8224826902151
 20
-64.9588536104932
 30
0.0
 11
-14.8224826902151
 21
-58.6588542542233
 31
0.0
  0
INSERT
  5
   215
  8
0
  6
CONTINUOUS
 62
    18
  2
*HATCH0
 10
-6.5099835395813
 20
-71.3379669189453
 30
0.0
 41
0.349999964237213
 42
0.349999964237213
 50
89.9999999480344
  0
LINE
  5
   216
  8
0
  6
CONTINUOUS
 62
     7
 10
17.815013974905
 20
-21.3754933863856
 30
0.0
 11
-30.8349810540676
 21
-21.3754933863856
 31
0.0
  0
LINE
  5
   217
  8
0
  6
CONTINUOUS
 62
     7
 10
17.815013974905
 20
-70.3754906326508
 30
0.0
 11
-30.8349810540676
 21
-70.3754906326508
 31
0.0
  0
LINE
  5
   218
  8
0
  6
CONTINUOUS
 62
     7
 10
14.8400142788887
 20
-28.9879952788328
 30
0.0
 11
14.8400142788887
 21
-27.9379953861212
 31
0.0
  0
LINE
  5
   219
  8
0
  6
CONTINUOUS
 62
     7
 10
15.8900141716003
 20
-28.9879952788328
 30
0.0
 11
15.8900141716003
 21
-27.9379953861212
 31
0.0
  0
LINE
  5
   21A
  8
0
  6
DOT
 62
     7
 10
9.13500444769966
 20
-66.7247803633404
 30
0.0
 11
9.13500444769966
 21
-63.876202105975
 31
0.0
  0
LINE
  5
   21B
  8
0
  6
DOT
 62
     7
 10
13.545003463031
 20
-66.7247803633404
 30
0.0
 11
13.545003463031
 21
-63.876202105975
 31
0.0
  0
LINE
  5
   21C
  8
0
  6
CONTINUOUS
 62
     7
 10
15.8900034904491
 20
-58.7379441738153
 30
0.0
 11
14.8400035977375
 21
-58.7379441738153
 31
0.0
  0
LINE
  5
   21D
  8
0
  6
CONTINUOUS
 62
     7
 10
14.6650036156188
 20
-59.787944066527
 30
0.0
 11
14.6650036156188
 21
-58.9129441559339
 31
0.0
  0
LINE
  5
   21E
  8
0
  6
CONTINUOUS
 62
     7
 10
14.6650036156188
 20
-60.4879446625733
 30
0.0
 11
14.6650036156188
 21
-59.787944066527
 31
0.0
  0
LINE
  5
   21F
  8
0
  6
CONTINUOUS
 62
     7
 10
14.6650036156188
 20
-61.1879445910478
 30
0.0
 11
14.6650036156188
 21
-60.4879446625733
 31
0.0
  0
LINE
  5
   220
  8
0
  6
CONTINUOUS
 62
     7
 10
14.6650036156188
 20
-61.8879445195222
 30
0.0
 11
14.6650036156188
 21
-61.1879445910478
 31
0.0
  0
LINE
  5
   221
  8
0
  6
CONTINUOUS
 62
     7
 10
14.6650036156188
 20
-62.7629444301152
 30
0.0
 11
14.6650036156188
 21
-61.8879445195222
 31
0.0
  0
LINE
  5
   222
  8
0
  6
CONTINUOUS
 62
     7
 10
15.8900034904491
 20
-62.9379444122338
 30
0.0
 11
14.8400035977375
 21
-62.9379444122338
 31
0.0
  0
LINE
  5
   223
  8
0
  6
CONTINUOUS
 62
     7
 10
16.0650034725677
 20
-62.7629444301152
 30
0.0
 11
16.0650034725677
 21
-61.8879445195222
 31
0.0
  0
LINE
  5
   224
  8
0
  6
CONTINUOUS
 62
     7
 10
16.0650034725677
 20
-61.8879445195222
 30
0.0
 11
16.0650034725677
 21
-61.1879445910478
 31
0.0
  0
LINE
  5
   225
  8
0
  6
CONTINUOUS
 62
     7
 10
16.0650034725677
 20
-61.1879445910478
 30
0.0
 11
16.0650034725677
 21
-60.4879446625733
 31
0.0
  0
LINE
  5
   226
  8
0
  6
CONTINUOUS
 62
     7
 10
16.0650034725677
 20
-60.4879446625733
 30
0.0
 11
16.0650034725677
 21
-59.7879454016709
 31
0.0
  0
LINE
  5
   227
  8
0
  6
CONTINUOUS
 62
     7
 10
16.0650034725677
 20
-59.7879454016709
 30
0.0
 11
16.0650034725677
 21
-58.9129441559339
 31
0.0
  0
ARC
  5
   228
  8
0
  6
CONTINUOUS
 62
     7
 10
15.3650140298786
 20
-27.9379960464251
 30
0.0
 40
0.524999302322405
 50
359.999973013555
 51
540.000043615088
  0
ARC
  5
   229
  8
0
  6
CONTINUOUS
 62
     7
 10
15.3649813357897
 20
-28.9879508028124
 30
0.0
 40
0.52505174731448
 50
180.004949696118
 51
359.995034083139
  0
ARC
  5
   22A
  8
0
  6
DOT
 62
     7
 10
11.3400046975204
 20
-65.3004898778398
 30
0.0
 40
2.62500139177998
 50
392.859977017252
 51
507.140082588953
  0
ARC
  5
   22B
  8
0
  6
DOT
 62
     7
 10
11.3400046975204
 20
-65.3004898778398
 30
0.0
 40
2.62500139177998
 50
212.859917307116
 51
327.140022878817
  0
ARC
  5
   22C
  8
0
  6
CONTINUOUS
 62
     7
 10
14.8400037393027
 20
-58.9129437462936
 30
0.0
 40
0.174999811768228
 50
449.999889462241
 51
540.000025360212
  0
ARC
  5
   22D
  8
0
  6
CONTINUOUS
 62
     7
 10
15.8900043399177
 20
-58.9129434702819
 30
0.0
 40
0.174999366440514
 50
359.999829068822
 51
450.000145163477
  0
ARC
  5
   22E
  8
0
  6
CONTINUOUS
 62
     7
 10
15.8900041484317
 20
-62.7629445825873
 30
0.0
 40
0.174999637680245
 50
269.999943873992
 51
360.000134042801
  0
ARC
  5
   22F
  8
0
  6
CONTINUOUS
 62
     7
 10
14.8400034872133
 20
-62.7629447501518
 30
0.0
 40
0.174999639432298
 50
179.999866090912
 51
270.000166521604
  0
ARC
  5
   230
  8
0
  6
CONTINUOUS
 62
     7
 10
17.815013974905
 20
-70.2004906505322
 30
0.0
 40
0.174999982118607
 50
269.999999948034
 51
359.999999948034
  0
ARC
  5
   231
  8
0
  6
CONTINUOUS
 62
     7
 10
17.815013974905
 20
-21.5504933685042
 30
0.0
 40
0.174999982118607
 50
359.999999948034
 51
449.999999948034
  0
LINE
  5
   232
  8
0
  6
DASHDOT
 62
     7
 10
15.3650140298786
 20
-30.8254951073487
 30
0.0
 11
15.3650140298786
 21
-29.0754965742294
 31
0.0
  0
LINE
  5
   233
  8
0
  6
DASHDOT
 62
     7
 10
16.2400132964383
 20
-27.9379960464251
 30
0.0
 11
14.490014763319
 21
-27.9379960464251
 31
0.0
  0
LINE
  5
   234
  8
0
  6
DASHDOT
 62
     7
 10
15.3649813357897
 20
-54.2123931305703
 30
0.0
 11
15.3649813357897
 21
-26.1003992968967
 31
0.0
  0
LINE
  5
   235
  8
0
  6
DASHDOT
 62
     7
 10
16.2400330473414
 20
-28.9879508028124
 30
0.0
 11
14.489929624238
 21
-28.9879508028124
 31
0.0
  0
LINE
  5
   236
  8
0
  6
DASHDOT
 62
     7
 10
11.3400046975204
 20
-68.275491233857
 30
0.0
 11
11.3400046975204
 21
-62.3254885218226
 31
0.0
  0
LINE
  5
   237
  8
0
  6
DASHDOT
 62
     7
 10
14.3150060535376
 20
-65.3004898778398
 30
0.0
 11
8.36500334150318
 21
-65.3004898778398
 31
0.0
  0
LINE
  5
   238
  8
0
  6
DASHDOT
 62
     7
 10
15.8025145181922
 20
-70.0254905197886
 30
0.0
 11
15.8025145181922
 21
-66.3504910658179
 31
0.0
  0
LINE
  5
   239
  8
0
  6
DASHDOT
 62
     7
 10
17.6400142451776
 20
-68.1879907928032
 30
0.0
 11
13.9650147912069
 21
-68.1879907928032
 31
0.0
  0
LINE
  5
   23A
  8
0
  6
DASHDOT
 62
     7
 10
-6.5099835395813
 20
-127.322974140406
 30
0.0
 11
-6.5099835395813
 21
36.9819415477954
 31
0.0
  0
LINE
  5
   23B
  8
0
  6
DASHDOT
 62
     7
 10
17.4032033370108
 20
-60.8379442930246
 30
0.0
 11
13.833931335779
 21
-60.8379442930246
 31
0.0
  0
LINE
  5
   23C
  8
0
  6
DASHDOT
 62
     7
 10
15.3650035440933
 20
-63.5917955248995
 30
0.0
 11
15.3650035440933
 21
-58.21910188094
 31
0.0
  0
ARC
  5
   23D
  8
0
  6
CONTINUOUS
 62
     7
 10
-30.8349810540676
 20
-70.2004906505322
 30
0.0
 40
0.174999982118607
 50
179.999999948034
 51
269.999999948034
  0
ARC
  5
   23E
  8
0
  6
CONTINUOUS
 62
     7
 10
-30.8349810540676
 20
-21.5504933685042
 30
0.0
 40
0.174999982118607
 50
89.9999999480344
 51
179.999999948034
  0
LINE
  5
   23F
  8
0
  6
CONTINUOUS
 62
     7
 10
17.815013974905
 20
-21.3754933863856
 30
0.0
 11
-30.8349810540676
 21
-21.3754933863856
 31
0.0
  0
LINE
  5
   240
  8
0
  6
CONTINUOUS
 62
     7
 10
17.815013974905
 20
-70.3754906326508
 30
0.0
 11
-30.8349810540676
 21
-70.3754906326508
 31
0.0
  0
LINE
  5
   241
  8
0
  6
CONTINUOUS
 62
     7
 10
17.7275139838457
 20
-25.5754929572322
 30
0.0
 11
-30.7474810630083
 21
-25.5754929572322
 31
0.0
  0
LINE
  5
   242
  8
0
  6
CONTINUOUS
 62
     7
 10
17.7275139838457
 20
-22.0754933148601
 30
0.0
 11
-30.7474810630083
 21
-22.0754933148601
 31
0.0
  0
LINE
  5
   243
  8
0
  6
CONTINUOUS
 62
     7
 10
-31.0099810361862
 20
-70.2004906505322
 30
0.0
 11
-31.0099810361862
 21
-21.5504933685042
 31
0.0
  0
LINE
  5
   244
  8
0
  6
CONTINUOUS
 62
     7
 10
17.9900139570236
 20
-70.2004906505322
 30
0.0
 11
17.9900139570236
 21
-21.5504933685042
 31
0.0
  0
LINE
  5
   245
  8
0
  6
CONTINUOUS
 62
     7
 10
5.21500992178972
 20
-26.6254955202317
 30
0.0
 11
-29.4349838674066
 21
-26.6254955202317
 31
0.0
  0
LINE
  5
   246
  8
0
  6
CONTINUOUS
 62
     7
 10
5.39000990390832
 20
-69.150491341946
 30
0.0
 11
-29.4349838674066
 21
-69.150491341946
 31
0.0
  0
LINE
  5
   247
  8
0
  6
CONTINUOUS
 62
     7
 10
-29.7849838316438
 20
-68.8004913777088
 30
0.0
 11
-29.7849838316438
 21
-26.9754954844689
 31
0.0
  0
LINE
  5
   248
  8
0
  6
CONTINUOUS
 62
     7
 10
5.56500988602693
 20
-68.9754913598274
 30
0.0
 11
5.56500988602693
 21
-26.9754954844689
 31
0.0
  0
LINE
  5
   249
  8
0
  6
CONTINUOUS
 62
     7
 10
15.8900168418882
 20
-43.8629937589144
 30
0.0
 11
15.8900168418882
 21
-43.1630205333181
 31
0.0
  0
LINE
  5
   24A
  8
0
  6
CONTINUOUS
 62
     7
 10
15.890019512176
 20
-45.7879935622191
 30
0.0
 11
15.890019512176
 21
-45.0879936337446
 31
0.0
  0
LINE
  5
   24B
  8
0
  6
CONTINUOUS
 62
     7
 10
14.8400089389345
 20
-50.6004944053856
 30
0.0
 11
14.8400142795101
 21
-49.9004931417703
 31
0.0
  0
LINE
  5
   24C
  8
0
  6
CONTINUOUS
 62
     7
 10
14.8399966994917
 20
-50.6004944056098
 30
0.0
 11
14.8399966994917
 21
-41.1504967063489
 31
0.0
  0
LINE
  5
   24D
  8
0
  6
CONTINUOUS
 62
     7
 10
15.8900275230394
 20
-50.6004944056247
 30
0.0
 11
14.8400142788887
 21
-50.6004944056247
 31
0.0
  0
LINE
  5
   24E
  8
0
  6
CONTINUOUS
 62
     7
 10
15.8900275230537
 20
-50.6004944003339
 30
0.0
 11
15.890016841902
 21
-41.1505207342231
 31
0.0
  0
LINE
  5
   24F
  8
0
  6
CONTINUOUS
 62
     7
 10
15.8900168537178
 20
-41.150520731047
 30
0.0
 11
14.8400223015546
 21
-41.1504966984567
 31
0.0
  0
LINE
  5
   250
  8
0
  6
CONTINUOUS
 62
     7
 10
-13.8599827885628
 20
-63.5427699424741
 30
0.0
 11
-13.8599827885628
 21
-36.6082203112074
 31
0.0
  0
LINE
  5
   251
  8
0
  6
CONTINUOUS
 62
     7
 10
0.840015709400178
 20
-63.5427699424741
 30
0.0
 11
0.840015709400178
 21
-36.6082203112074
 31
0.0
  0
LINE
  5
   252
  8
0
  6
CONTINUOUS
 62
     7
 10
0.84001570940018
 20
-63.5427699424741
 30
0.0
 11
-13.8599827885628
 21
-63.5427699424741
 31
0.0
  0
LINE
  5
   253
  8
0
  6
CONTINUOUS
 62
     7
 10
0.84001570940018
 20
-63.2879911065078
 30
0.0
 11
-13.8599827885628
 21
-63.2879911065078
 31
0.0
  0
LINE
  5
   254
  8
0
  6
CONTINUOUS
 62
     7
 10
0.84001570940018
 20
-36.8629971444579
 30
0.0
 11
-13.8599827885628
 21
-36.8629971444579
 31
0.0
  0
LINE
  5
   255
  8
0
  6
CONTINUOUS
 62
     7
 10
0.84001570940018
 20
-36.6082196436355
 30
0.0
 11
-13.8599827885628
 21
-36.6082196436355
 31
0.0
  0
CIRCLE
  5
   256
  8
0
  6
CONTINUOUS
 62
     7
 10
15.8025096854136
 20
-68.1879909121325
 30
0.0
 40
0.910002492644921
  0
CIRCLE
  5
   257
  8
0
  6
CONTINUOUS
 62
     7
 10
15.8025091656422
 20
-68.1879916510559
 30
0.0
 40
1.48750398503051
  0
LINE
  5
   258
  8
0
  6
CONTINUOUS
 62
     7
 10
17.7275139838457
 20
-69.9379906773543
 30
0.0
 11
17.7275139838457
 21
-21.8129933416822
 31
0.0
  0
LINE
  5
   259
  8
0
  6
CONTINUOUS
 62
     7
 10
17.5525140017271
 20
-70.1129906594729
 30
0.0
 11
-30.5724810808897
 21
-70.1129906594729
 31
0.0
  0
LINE
  5
   25A
  8
0
  6
CONTINUOUS
 62
     7
 10
-30.7474810630083
 20
-69.9379906773543
 30
0.0
 11
-30.7474810630083
 21
-21.8129933416822
 31
0.0
  0
LINE
  5
   25B
  8
0
  6
CONTINUOUS
 62
     7
 10
17.5525140017271
 20
-21.6379933595636
 30
0.0
 11
-30.5724810808897
 21
-21.6379933595636
 31
0.0
  0
ARC
  5
   25C
  8
0
  6
CONTINUOUS
 62
     7
 10
-30.5724810808897
 20
-21.8129933416822
 30
0.0
 40
0.174999982118607
 50
89.9999999480344
 51
179.999999948034
  0
ARC
  5
   25D
  8
0
  6
CONTINUOUS
 62
     7
 10
17.5525140017271
 20
-21.8129933416822
 30
0.0
 40
0.174999982118607
 50
359.999999948034
 51
449.999999948034
  0
ARC
  5
   25E
  8
0
  6
CONTINUOUS
 62
     7
 10
17.5525140017271
 20
-69.9379906773543
 30
0.0
 40
0.174999982118607
 50
269.999999948034
 51
359.999999948034
  0
ARC
  5
   25F
  8
0
  6
CONTINUOUS
 62
     7
 10
-30.5724810808897
 20
-69.9379906773543
 30
0.0
 40
0.174999982118607
 50
179.999999948034
 51
269.999999948034
  0
ARC
  5
   260
  8
0
  6
CONTINUOUS
 62
     7
 10
-29.4349838674066
 20
-68.8004913777088
 30
0.0
 40
0.349999964237213
 50
179.999999948034
 51
269.999999948034
  0
ARC
  5
   261
  8
0
  6
CONTINUOUS
 62
     7
 10
-29.4349838674066
 20
-26.9754954844689
 30
0.0
 40
0.349999964237213
 50
89.9999999480344
 51
179.999999948034
  0
ARC
  5
   262
  8
0
  6
CONTINUOUS
 62
     7
 10
5.21500992178972
 20
-26.9754954844689
 30
0.0
 40
0.349999964237213
 50
359.999999948034
 51
449.999999948034
  0
LINE
  5
   263
  8
0
  6
CONTINUOUS
 62
     7
 10
5.39217990368659
 20
-69.3276613238429
 30
0.0
 11
-29.6121538493034
 21
-69.3276613238429
 31
0.0
  0
LINE
  5
   264
  8
0
  6
CONTINUOUS
 62
     7
 10
-29.9621538135407
 20
-68.9776613596057
 30
0.0
 11
-29.9621538135407
 21
-26.798325502572
 31
0.0
  0
LINE
  5
   265
  8
0
  6
CONTINUOUS
 62
     7
 10
5.74217986792381
 20
-68.9776613596057
 30
0.0
 11
5.74217986792381
 21
-26.798325502572
 31
0.0
  0
LINE
  5
   266
  8
0
  6
CONTINUOUS
 62
     7
 10
5.39217990368659
 20
-26.4483255383348
 30
0.0
 11
-29.6121538493034
 21
-26.4483255383348
 31
0.0
  0
ARC
  5
   267
  8
0
  6
CONTINUOUS
 62
     7
 10
5.39217990368659
 20
-26.798325502572
 30
0.0
 40
0.349999964237213
 50
359.999999948034
 51
449.999999948034
  0
ARC
  5
   268
  8
0
  6
CONTINUOUS
 62
     7
 10
5.39217990368659
 20
-68.9776613596057
 30
0.0
 40
0.349999964237213
 50
269.999999948034
 51
359.999999948034
  0
ARC
  5
   269
  8
0
  6
CONTINUOUS
 62
     7
 10
-29.6121538493034
 20
-68.9776613596057
 30
0.0
 40
0.349999964237213
 50
179.999999948034
 51
269.999999948034
  0
ARC
  5
   26A
  8
0
  6
CONTINUOUS
 62
     7
 10
-29.6121538493034
 20
-26.798325502572
 30
0.0
 40
0.349999964237213
 50
89.9999999480344
 51
179.999999948034
  0
LINE
  5
   26B
  8
0
  6
CONTINUOUS
 62
     7
 10
5.21500992178972
 20
-67.5670786086859
 30
0.0
 11
5.21500992178972
 21
-34.7750507226983
 31
0.0
  0
LINE
  5
   26C
  8
0
  6
DASHDOT
 62
     7
 10
13.9650147912069
 20
-68.1879907928032
 30
0.0
 11
6.22310422814916
 21
-68.1879907928032
 31
0.0
  0
LINE
  5
   26D
  8
0
  6
CONTINUOUS
 62
     7
 10
15.7850091087823
 20
-59.6129440844084
 30
0.0
 11
15.7850091087823
 21
-58.9129441559339
 31
0.0
  0
LINE
  5
   26E
  8
0
  6
CONTINUOUS
 62
     7
 10
16.0650034725677
 20
-58.9129441559339
 30
0.0
 11
15.7850091087823
 21
-58.9129441559339
 31
0.0
  0
LINE
  5
   26F
  8
0
  6
CONTINUOUS
 62
     7
 10
16.0650034725677
 20
-59.6129440844084
 30
0.0
 11
15.7850091087823
 21
-59.6129440844084
 31
0.0
  0
LINE
  5
   270
  8
0
  6
CONTINUOUS
 62
     7
 10
14.9450046551237
 20
-62.7629444301152
 30
0.0
 11
14.9450046551237
 21
-62.0629445016408
 31
0.0
  0
LINE
  5
   271
  8
0
  6
CONTINUOUS
 62
     7
 10
14.9450046551237
 20
-62.7629444301152
 30
0.0
 11
14.6650049507628
 21
-62.7629444301152
 31
0.0
  0
LINE
  5
   272
  8
0
  6
CONTINUOUS
 62
     7
 10
14.9450046551237
 20
-62.0629445016408
 30
0.0
 11
14.6650049507628
 21
-62.0629445016408
 31
0.0
  0
ARC
  5
   273
  8
0
  6
CONTINUOUS
 62
     7
 10
5.39000990390832
 20
-68.9754913598274
 30
0.0
 40
0.174999982118607
 50
269.999999948034
 51
359.999999948034
  0
INSERT
  5
   274
  8
0
  6
CONTINUOUS
 62
     7
  2
*HATCH1
 10
-6.5099835395813
 20
-71.3379669189453
 30
0.0
 41
0.349999964237213
 42
0.349999964237213
 50
89.9999999480344
  0
LINE
  5
   275
  8
0
  6
CONTINUOUS
 62
     1
 10
-42.1638971807353
 20
-74.6629659196335
 30
0.0
 11
-67.3224559635008
 21
-74.6628766593152
 31
0.0
  0
LINE
  5
   276
  8
0
  6
CONTINUOUS
 62
     1
 10
29.1439301017479
 20
-74.6629659196335
 30
0.0
 11
29.8024871632975
 21
-74.6629635831319
 31
0.0
  0
LINE
  5
   277
  8
0
  6
CONTINUOUS
 62
     1
 10
30.2400119177741
 20
-0.987974107265472
 30
0.0
 11
-67.7599764935416
 21
-0.987974107265472
 31
0.0
  0
LINE
  5
   278
  8
0
  6
CONTINUOUS
 62
     1
 10
29.1439289855361
 20
-74.6629662454129
 30
0.0
 11
20.0900164127347
 21
-74.6629662454129
 31
0.0
  0
LINE
  5
   279
  8
0
  6
CONTINUOUS
 62
     1
 10
30.1525020331155
 20
-74.3129662811756
 30
0.0
 11
20.0900164127347
 21
-74.3129662811756
 31
0.0
  0
LINE
  5
   27A
  8
0
  6
CONTINUOUS
 62
     1
 10
-33.1099781513217
 20
-29.5129925549008
 30
0.0
 11
-67.7599665999415
 21
-29.5129925549008
 31
0.0
  0
LINE
  5
   27B
  8
0
  6
CONTINUOUS
 62
     1
 10
30.1525020331155
 20
-66.2629731118673
 30
0.0
 11
20.0900164127347
 21
-66.2629731118673
 31
0.0
  0
LINE
  5
   27C
  8
0
  6
CONTINUOUS
 62
     1
 10
-33.1099781513217
 20
-66.2629731118673
 30
0.0
 11
-67.7599673136593
 21
-66.2629731118673
 31
0.0
  0
LINE
  5
   27D
  8
0
  6
CONTINUOUS
 62
     1
 10
-42.5074713164577
 20
-29.5129925549008
 30
0.0
 11
-42.5074713164577
 21
-0.987979447841099
 31
0.0
  0
LINE
  5
   27E
  8
0
  6
CONTINUOUS
 62
     1
 10
-41.2474586278222
 20
-29.5129925549008
 30
0.0
 11
-41.2474586278222
 21
-0.987979447841099
 31
0.0
  0
LINE
  5
   27F
  8
0
  6
CONTINUOUS
 62
     1
 10
-39.9874673014892
 20
-29.5129925549008
 30
0.0
 11
-39.9874673014892
 21
-0.987979447841099
 31
0.0
  0
LINE
  5
   280
  8
0
  6
CONTINUOUS
 62
     1
 10
-38.7274759751563
 20
-29.5129925549008
 30
0.0
 11
-38.7274759751563
 21
-0.987979447841099
 31
0.0
  0
LINE
  5
   281
  8
0
  6
CONTINUOUS
 62
     1
 10
-37.4674632865208
 20
-29.5129925549008
 30
0.0
 11
-37.4674632865208
 21
-0.987979447841099
 31
0.0
  0
LINE
  5
   282
  8
0
  6
CONTINUOUS
 62
     1
 10
-36.2074719601878
 20
-29.5129925549008
 30
0.0
 11
-36.2074719601878
 21
-0.987979447841099
 31
0.0
  0
LINE
  5
   283
  8
0
  6
CONTINUOUS
 62
     1
 10
-34.9474592715524
 20
-29.5129925549008
 30
0.0
 11
-34.9474592715524
 21
-0.987979447841099
 31
0.0
  0
LINE
  5
   284
  8
0
  6
CONTINUOUS
 62
     1
 10
-33.6874679452194
 20
-29.5129925549008
 30
0.0
 11
-33.6874679452194
 21
-0.987979447841099
 31
0.0
  0
LINE
  5
   285
  8
0
  6
CONTINUOUS
 62
     1
 10
-32.4274766188864
 20
-11.5754975587112
 30
0.0
 11
-32.4274766188864
 21
-0.987979447841099
 31
0.0
  0
LINE
  5
   286
  8
0
  6
CONTINUOUS
 62
     1
 10
-31.167463930251
 20
-11.5754975587112
 30
0.0
 11
-31.167463930251
 21
-0.987979447841099
 31
0.0
  0
LINE
  5
   287
  8
0
  6
CONTINUOUS
 62
     1
 10
-42.5074713164577
 20
-66.2629620969301
 30
0.0
 11
-42.5074713164577
 21
-29.5129925549008
 31
0.0
  0
LINE
  5
   288
  8
0
  6
CONTINUOUS
 62
     1
 10
-41.2474586278222
 20
-66.2629620969301
 30
0.0
 11
-41.2474586278222
 21
-29.5129925549008
 31
0.0
  0
LINE
  5
   289
  8
0
  6
CONTINUOUS
 62
     1
 10
-39.9874673014892
 20
-66.2629620969301
 30
0.0
 11
-39.9874673014892
 21
-29.5129925549008
 31
0.0
  0
LINE
  5
   28A
  8
0
  6
CONTINUOUS
 62
     1
 10
-38.7274759751563
 20
-66.2629620969301
 30
0.0
 11
-38.7274759751563
 21
-29.5129925549008
 31
0.0
  0
LINE
  5
   28B
  8
0
  6
CONTINUOUS
 62
     1
 10
-37.4674632865208
 20
-66.2629620969301
 30
0.0
 11
-37.4674632865208
 21
-29.5129925549008
 31
0.0
  0
LINE
  5
   28C
  8
0
  6
CONTINUOUS
 62
     1
 10
-36.2074719601878
 20
-66.2629620969301
 30
0.0
 11
-36.2074719601878
 21
-29.5129925549008
 31
0.0
  0
LINE
  5
   28D
  8
0
  6
CONTINUOUS
 62
     1
 10
-34.9474592715524
 20
-66.2629620969301
 30
0.0
 11
-34.9474592715524
 21
-29.5129925549008
 31
0.0
  0
LINE
  5
   28E
  8
0
  6
CONTINUOUS
 62
     1
 10
-33.6874679452194
 20
-66.2629620969301
 30
0.0
 11
-33.6874679452194
 21
-29.5129925549008
 31
0.0
  0
LINE
  5
   28F
  8
0
  6
CONTINUOUS
 62
     2
 10
-42.5074713164577
 20
-114.037957735657
 30
0.0
 11
-42.5074713164577
 21
-99.672537206675
 31
0.0
  0
LINE
  5
   290
  8
0
  6
CONTINUOUS
 62
     2
 10
-41.2474586278222
 20
-114.037957735657
 30
0.0
 11
-41.2474586278222
 21
-89.0129602926967
 31
0.0
  0
LINE
  5
   291
  8
0
  6
CONTINUOUS
 62
     2
 10
-39.9874673014892
 20
-114.037957735657
 30
0.0
 11
-39.9874673014892
 21
-89.0129602926967
 31
0.0
  0
LINE
  5
   292
  8
0
  6
CONTINUOUS
 62
     2
 10
-38.7274759751563
 20
-114.037957735657
 30
0.0
 11
-38.7274759751563
 21
-89.0129602926967
 31
0.0
  0
LINE
  5
   293
  8
0
  6
CONTINUOUS
 62
     2
 10
-37.4674632865208
 20
-114.037957735657
 30
0.0
 11
-37.4674632865208
 21
-89.0129602926967
 31
0.0
  0
LINE
  5
   294
  8
0
  6
CONTINUOUS
 62
     2
 10
-36.2074719601878
 20
-114.037957735657
 30
0.0
 11
-36.2074719601878
 21
-89.0129602926967
 31
0.0
  0
LINE
  5
   295
  8
0
  6
CONTINUOUS
 62
     2
 10
-34.9474592715524
 20
-114.037957735657
 30
0.0
 11
-34.9474592715524
 21
-89.0129602926967
 31
0.0
  0
LINE
  5
   296
  8
0
  6
CONTINUOUS
 62
     2
 10
-33.6874679452194
 20
-114.037957735657
 30
0.0
 11
-33.6874679452194
 21
-89.0129602926967
 31
0.0
  0
LINE
  5
   297
  8
0
  6
CONTINUOUS
 62
     2
 10
-32.4274766188864
 20
-114.037957735657
 30
0.0
 11
-32.4274766188864
 21
-89.0129602926967
 31
0.0
  0
LINE
  5
   298
  8
0
  6
CONTINUOUS
 62
     2
 10
-31.167463930251
 20
-88.4879624962809
 30
0.0
 11
-31.167463930251
 21
-80.1754932194906
 31
0.0
  0
LINE
  5
   299
  8
0
  6
CONTINUOUS
 62
     1
 10
29.4875042372951
 20
-29.5129925549008
 30
0.0
 11
29.4875042372951
 21
-0.987979447841099
 31
0.0
  0
LINE
  5
   29A
  8
0
  6
CONTINUOUS
 62
     1
 10
28.2274915486596
 20
-29.5129925549008
 30
0.0
 11
28.2274915486596
 21
-0.987979447841099
 31
0.0
  0
LINE
  5
   29B
  8
0
  6
CONTINUOUS
 62
     1
 10
26.9675002223266
 20
-29.5129925549008
 30
0.0
 11
26.9675002223266
 21
-0.987979447841099
 31
0.0
  0
LINE
  5
   29C
  8
0
  6
CONTINUOUS
 62
     1
 10
25.7075088959937
 20
-29.5129925549008
 30
0.0
 11
25.7075088959937
 21
-0.987979447841099
 31
0.0
  0
LINE
  5
   29D
  8
0
  6
CONTINUOUS
 62
     1
 10
24.4474962073582
 20
-29.5129925549008
 30
0.0
 11
24.4474962073582
 21
-0.987979447841099
 31
0.0
  0
LINE
  5
   29E
  8
0
  6
CONTINUOUS
 62
     1
 10
23.1875048810252
 20
-29.5129925549008
 30
0.0
 11
23.1875048810252
 21
-0.987979447841099
 31
0.0
  0
LINE
  5
   29F
  8
0
  6
CONTINUOUS
 62
     1
 10
21.9274921923898
 20
-29.5129925549008
 30
0.0
 11
21.9274921923898
 21
-0.987979447841099
 31
0.0
  0
LINE
  5
   2A0
  8
0
  6
CONTINUOUS
 62
     1
 10
20.6675008660568
 20
-29.5129925549008
 30
0.0
 11
20.6675008660568
 21
-0.987979447841099
 31
0.0
  0
LINE
  5
   2A1
  8
0
  6
CONTINUOUS
 62
     1
 10
18.1474968510884
 20
-11.575499283578
 30
0.0
 11
18.1474968510884
 21
-0.987979447841099
 31
0.0
  0
LINE
  5
   2A2
  8
0
  6
CONTINUOUS
 62
     1
 10
29.4875042372951
 20
-66.2629704415795
 30
0.0
 11
29.4875042372951
 21
-29.5130008995503
 31
0.0
  0
LINE
  5
   2A3
  8
0
  6
CONTINUOUS
 62
     1
 10
28.2274915486596
 20
-66.2629704415795
 30
0.0
 11
28.2274915486596
 21
-29.5130008995503
 31
0.0
  0
LINE
  5
   2A4
  8
0
  6
CONTINUOUS
 62
     1
 10
26.9675002223266
 20
-66.2629704415795
 30
0.0
 11
26.9675002223266
 21
-29.5130008995503
 31
0.0
  0
LINE
  5
   2A5
  8
0
  6
CONTINUOUS
 62
     1
 10
25.7075088959937
 20
-66.2629704415795
 30
0.0
 11
25.7075088959937
 21
-29.5130008995503
 31
0.0
  0
LINE
  5
   2A6
  8
0
  6
CONTINUOUS
 62
     1
 10
24.4474962073582
 20
-66.2629704415795
 30
0.0
 11
24.4474962073582
 21
-29.5130008995503
 31
0.0
  0
LINE
  5
   2A7
  8
0
  6
CONTINUOUS
 62
     1
 10
23.1875048810252
 20
-66.2629704415795
 30
0.0
 11
23.1875048810252
 21
-29.5130008995503
 31
0.0
  0
LINE
  5
   2A8
  8
0
  6
CONTINUOUS
 62
     1
 10
21.9274921923898
 20
-66.2629704415795
 30
0.0
 11
21.9274921923898
 21
-29.5130008995503
 31
0.0
  0
LINE
  5
   2A9
  8
0
  6
CONTINUOUS
 62
     1
 10
20.6675008660568
 20
-66.2629704415795
 30
0.0
 11
20.6675008660568
 21
-29.5130008995503
 31
0.0
  0
LINE
  5
   2AA
  8
0
  6
CONTINUOUS
 62
     1
 10
18.1474968510884
 20
-66.2629704415795
 30
0.0
 11
18.1474968510884
 21
-29.5130008995503
 31
0.0
  0
LINE
  5
   2AB
  8
0
  6
CONTINUOUS
 62
     1
 10
29.4875042372951
 20
-74.3129662811756
 30
0.0
 11
29.4875042372951
 21
-66.2629724442954
 31
0.0
  0
LINE
  5
   2AC
  8
0
  6
CONTINUOUS
 62
     1
 10
28.2274915486596
 20
-74.3129662811756
 30
0.0
 11
28.2274915486596
 21
-66.2629724442954
 31
0.0
  0
LINE
  5
   2AD
  8
0
  6
CONTINUOUS
 62
     1
 10
26.9675002223266
 20
-74.3129662811756
 30
0.0
 11
26.9675002223266
 21
-66.2629724442954
 31
0.0
  0
LINE
  5
   2AE
  8
0
  6
CONTINUOUS
 62
     1
 10
25.7075088959937
 20
-74.3129662811756
 30
0.0
 11
25.7075088959937
 21
-66.2629724442954
 31
0.0
  0
LINE
  5
   2AF
  8
0
  6
CONTINUOUS
 62
     1
 10
24.4474962073582
 20
-74.3129662811756
 30
0.0
 11
24.4474962073582
 21
-66.2629724442954
 31
0.0
  0
LINE
  5
   2B0
  8
0
  6
CONTINUOUS
 62
     1
 10
23.1875048810252
 20
-74.3129662811756
 30
0.0
 11
23.1875048810252
 21
-66.2629724442954
 31
0.0
  0
LINE
  5
   2B1
  8
0
  6
CONTINUOUS
 62
     1
 10
21.9274921923898
 20
-74.3129662811756
 30
0.0
 11
21.9274921923898
 21
-66.2629724442954
 31
0.0
  0
LINE
  5
   2B2
  8
0
  6
CONTINUOUS
 62
     1
 10
20.6675008660568
 20
-74.3129662811756
 30
0.0
 11
20.6675008660568
 21
-66.2629724442954
 31
0.0
  0
LINE
  5
   2B3
  8
0
  6
CONTINUOUS
 62
     1
 10
18.1474968510884
 20
-74.3129662811756
 30
0.0
 11
18.1474968510884
 21
-66.2629724442954
 31
0.0
  0
LINE
  5
   2B4
  8
0
  6
CONTINUOUS
 62
     1
 10
17.4650300323928
 20
-11.5754975587112
 30
0.0
 11
17.4650300323928
 21
-2.73797504543293
 31
0.0
  0
LINE
  5
   2B5
  8
0
  6
CONTINUOUS
 62
     1
 10
-30.4849490463747
 20
-11.5754975587112
 30
0.0
 11
-30.4849490463747
 21
-2.73797815202659
 31
0.0
  0
LINE
  5
   2B6
  8
0
  6
CONTINUOUS
 62
     1
 10
17.4650033295165
 20
-2.73797392845154
 30
0.0
 11
-30.4849757492548
 21
-2.73797392845154
 31
0.0
  0
LINE
  5
   2B7
  8
0
  6
CONTINUOUS
 62
     1
 10
29.8024913877271
 20
-74.662963908911
 30
0.0
 11
29.8024913877271
 21
-74.3129662811756
 31
0.0
  0
LINE
  5
   2B8
  8
0
  6
CONTINUOUS
 62
     1
 10
-67.3224559634946
 20
-74.662963908911
 30
0.0
 11
-67.3224559634946
 21
-74.3129662811756
 31
0.0
  0
LINE
  5
   2B9
  8
0
  6
CONTINUOUS
 62
     1
 10
-5.96741143048557
 20
-114.037957735657
 30
0.0
 11
-5.96741143048557
 21
-89.0129602926967
 31
0.0
  0
LINE
  5
   2BA
  8
0
  6
CONTINUOUS
 62
     1
 10
-4.70741276086135
 20
-114.037957735657
 30
0.0
 11
-4.70741276086135
 21
-89.0129602926967
 31
0.0
  0
LINE
  5
   2BB
  8
0
  6
CONTINUOUS
 62
     1
 10
-3.27241177261675
 20
-114.037957735657
 30
0.0
 11
-3.27241177261675
 21
-89.0129602926967
 31
0.0
  0
LINE
  5
   2BC
  8
0
  6
CONTINUOUS
 62
     1
 10
-2.01241210163461
 20
-114.037957735657
 30
0.0
 11
-2.01241210163461
 21
-89.0129602926967
 31
0.0
  0
LINE
  5
   2BD
  8
0
  6
CONTINUOUS
 62
     1
 10
-0.752426449663295
 20
-114.037957735657
 30
0.0
 11
-0.752426449663295
 21
-89.0129602926967
 31
0.0
  0
LINE
  5
   2BE
  8
0
  6
CONTINUOUS
 62
     1
 10
0.507575557820722
 20
-114.037957735657
 30
0.0
 11
0.507575557820722
 21
-89.0129602926967
 31
0.0
  0
LINE
  5
   2BF
  8
0
  6
CONTINUOUS
 62
     1
 10
1.76758824645497
 20
-114.037957735657
 30
0.0
 11
1.76758824645497
 21
-89.0129602926967
 31
0.0
  0
LINE
  5
   2C0
  8
0
  6
CONTINUOUS
 62
     1
 10
3.02757423221313
 20
-114.037957735657
 30
0.0
 11
3.02757423221313
 21
-89.0129602926967
 31
0.0
  0
LINE
  5
   2C1
  8
0
  6
CONTINUOUS
 62
     1
 10
6.80740485187962
 20
-0.462945000335466
 30
0.0
 11
6.80737006919468
 21
11.1529275601957
 31
0.0
  0
LINE
  5
   2C2
  8
0
  6
CONTINUOUS
 62
     1
 10
8.0674655810043
 20
-0.462952188254945
 30
0.0
 11
8.0674016100305
 21
28.061856532554
 31
0.0
  0
LINE
  5
   2C3
  8
0
  6
CONTINUOUS
 62
     1
 10
9.32746758848535
 20
-0.462949361544943
 30
0.0
 11
9.32740361750943
 21
28.0618603062769
 31
0.0
  0
LINE
  5
   2C4
  8
0
  6
CONTINUOUS
 62
     1
 10
10.5874695959664
 20
-0.462946535943843
 30
0.0
 11
10.5874056249884
 21
28.0618640788908
 31
0.0
  0
LINE
  5
   2C5
  8
0
  6
CONTINUOUS
 62
     1
 10
11.8474288911829
 20
-0.462936807266317
 30
0.0
 11
11.8473541982204
 21
28.0618678538175
 31
0.0
  0
LINE
  5
   2C6
  8
0
  6
CONTINUOUS
 62
     1
 10
13.1074629297772
 20
-0.462940884753635
 30
0.0
 11
13.1073989587949
 21
28.0618716252155
 31
0.0
  0
LINE
  5
   2C7
  8
0
  6
CONTINUOUS
 62
     1
 10
14.3674649372583
 20
-0.462938059152521
 30
0.0
 11
14.3674009662739
 21
28.0618753978294
 31
0.0
  0
LINE
  5
   2C8
  8
0
  6
CONTINUOUS
 62
     1
 10
15.6274669447393
 20
-0.462935233551434
 30
0.0
 11
15.6274029737528
 21
28.0618791704433
 31
0.0
  0
LINE
  5
   2C9
  8
0
  6
CONTINUOUS
 62
     1
 10
16.8874582710691
 20
-0.462932407962313
 30
0.0
 11
16.8873943000805
 21
28.0618829441542
 31
0.0
  0
LINE
  5
   2CA
  8
0
  6
CONTINUOUS
 62
     1
 10
30.2400119916062
 20
-0.462979501485279
 30
0.0
 11
-6.5099835395813
 21
-0.462979501485279
 31
0.0
  0
LINE
  5
   2CB
  8
0
  6
CONTINUOUS
 62
     1
 10
-7.22755963622732
 20
-114.037957735657
 30
0.0
 11
-7.22755963622732
 21
-89.0129602926967
 31
0.0
  0
LINE
  5
   2CC
  8
0
  6
CONTINUOUS
 62
     1
 10
-8.48756297885515
 20
-114.037957735657
 30
0.0
 11
-8.48756297885515
 21
-89.0129602926967
 31
0.0
  0
LINE
  5
   2CD
  8
0
  6
CONTINUOUS
 62
     1
 10
-9.74756064712147
 20
-114.037957735657
 30
0.0
 11
-9.74756064712147
 21
-89.0129602926967
 31
0.0
  0
LINE
  5
   2CE
  8
0
  6
CONTINUOUS
 62
     1
 10
-11.0075603181036
 20
-114.037957735657
 30
0.0
 11
-11.0075603181036
 21
-89.0129602926967
 31
0.0
  0
LINE
  5
   2CF
  8
0
  6
CONTINUOUS
 62
     1
 10
-12.2675459700749
 20
-114.037957735657
 30
0.0
 11
-12.2675459700749
 21
-89.0129602926967
 31
0.0
  0
LINE
  5
   2D0
  8
0
  6
CONTINUOUS
 62
     1
 10
-13.5275479775589
 20
-114.037957735657
 30
0.0
 11
-13.5275479775589
 21
-89.0129602926967
 31
0.0
  0
LINE
  5
   2D1
  8
0
  6
CONTINUOUS
 62
     1
 10
-14.7875606661932
 20
-114.037957735657
 30
0.0
 11
-14.7875606661932
 21
-89.0129602926967
 31
0.0
  0
LINE
  5
   2D2
  8
0
  6
CONTINUOUS
 62
     1
 10
-16.0475466519514
 20
-114.037957735657
 30
0.0
 11
-16.0475466519514
 21
-89.0129602926967
 31
0.0
  0
LINE
  5
   2D3
  8
0
  6
CONTINUOUS
 62
     1
 10
-17.3075112754077
 20
-114.037957735657
 30
0.0
 11
-17.3075112754077
 21
-98.8990561466539
 31
0.0
  0
LINE
  5
   2D4
  8
0
  6
CONTINUOUS
 62
     1
 10
-17.3075093232128
 20
12.8894041363984
 30
0.0
 11
-17.3074878067979
 21
28.0618520263496
 31
0.0
  0
LINE
  5
   2D5
  8
0
  6
CONTINUOUS
 62
     1
 10
-18.3925073171294
 20
13.829529687495
 30
0.0
 11
-18.392485790565
 21
28.0618520267994
 31
0.0
  0
LINE
  5
   2D6
  8
0
  6
CONTINUOUS
 62
     1
 10
-18.567497261165
 20
-114.037957735657
 30
0.0
 11
-18.567497261165
 21
-99.8520236344766
 31
0.0
  0
LINE
  5
   2D7
  8
0
  6
CONTINUOUS
 62
     1
 10
-19.6524956639142
 20
13.603934684854
 30
0.0
 11
-19.6524741399256
 21
28.0618520263163
 31
0.0
  0
LINE
  5
   2D8
  8
0
  6
CONTINUOUS
 62
     1
 10
-19.8274992686493
 20
-114.037957735657
 30
0.0
 11
-19.8274992686493
 21
-99.4470683316841
 31
0.0
  0
LINE
  5
   2D9
  8
0
  6
CONTINUOUS
 62
     1
 10
-21.08754934131
 20
-114.037957735657
 30
0.0
 11
-21.08754934131
 21
-89.0129602926967
 31
0.0
  0
LINE
  5
   2DA
  8
0
  6
CONTINUOUS
 62
     1
 10
-22.3475513487939
 20
-114.037957735657
 30
0.0
 11
-22.3475513487939
 21
-89.0129602926967
 31
0.0
  0
LINE
  5
   2DB
  8
0
  6
CONTINUOUS
 62
     1
 10
-23.6075533562777
 20
-114.037957735657
 30
0.0
 11
-23.6075533562777
 21
-89.0129602926967
 31
0.0
  0
LINE
  5
   2DC
  8
0
  6
CONTINUOUS
 62
     1
 10
-24.8675553637616
 20
-114.037957735657
 30
0.0
 11
-24.8675553637616
 21
-89.0129602926967
 31
0.0
  0
LINE
  5
   2DD
  8
0
  6
CONTINUOUS
 62
     1
 10
-26.1275466900942
 20
-114.037957735657
 30
0.0
 11
-26.1275466900942
 21
-89.0129602926967
 31
0.0
  0
LINE
  5
   2DE
  8
0
  6
CONTINUOUS
 62
     1
 10
-27.3875486975781
 20
-114.037957735657
 30
0.0
 11
-27.3875486975781
 21
-89.0129602926967
 31
0.0
  0
LINE
  5
   2DF
  8
0
  6
CONTINUOUS
 62
     1
 10
-28.6475507050619
 20
-114.037957735657
 30
0.0
 11
-28.6475507050619
 21
-89.0129602926967
 31
0.0
  0
LINE
  5
   2E0
  8
0
  6
CONTINUOUS
 62
     1
 10
-29.9075527125458
 20
-114.037957735657
 30
0.0
 11
-29.9075527125458
 21
-89.0129602926967
 31
0.0
  0
LINE
  5
   2E1
  8
0
  6
CONTINUOUS
 62
     1
 10
-31.1674959737047
 20
-0.462958139182774
 30
0.0
 11
-31.1674959737047
 21
28.0618520260032
 31
0.0
  0
LINE
  5
   2E2
  8
0
  6
CONTINUOUS
 62
     1
 10
-32.4275193434896
 20
-0.463033846447402
 30
0.0
 11
-32.4275193434896
 21
28.0618520260031
 31
0.0
  0
LINE
  5
   2E3
  8
0
  6
CONTINUOUS
 62
     1
 10
-33.6875480538461
 20
-0.463023157256799
 30
0.0
 11
-33.6875480538461
 21
28.0618520260031
 31
0.0
  0
LINE
  5
   2E4
  8
0
  6
CONTINUOUS
 62
     1
 10
-34.9474913150061
 20
-0.462958139182774
 30
0.0
 11
-34.9474913150061
 21
28.0618520260032
 31
0.0
  0
LINE
  5
   2E5
  8
0
  6
CONTINUOUS
 62
     1
 10
-36.2075146847907
 20
-0.46303242561369
 30
0.0
 11
-36.2075146847907
 21
28.0618520260032
 31
0.0
  0
LINE
  5
   2E6
  8
0
  6
CONTINUOUS
 62
     1
 10
-37.4674953299746
 20
-0.462958139182774
 30
0.0
 11
-37.4674953299746
 21
28.0618520260032
 31
0.0
  0
LINE
  5
   2E7
  8
0
  6
CONTINUOUS
 62
     1
 10
-38.727518699759
 20
-0.463031478388558
 30
0.0
 11
-38.727518699759
 21
28.0619280224656
 31
0.0
  0
LINE
  5
   2E8
  8
0
  6
CONTINUOUS
 62
     1
 10
-39.9875100260919
 20
-0.463031004780007
 30
0.0
 11
-39.9875100260919
 21
28.0619374752132
 31
0.0
  0
LINE
  5
   2E9
  8
0
  6
CONTINUOUS
 62
     1
 10
-41.247490671276
 20
-0.462958139182774
 30
0.0
 11
-41.247490671276
 21
28.0619152811943
 31
0.0
  0
LINE
  5
   2EA
  8
0
  6
CONTINUOUS
 62
     1
 10
-42.5075140410601
 20
-0.463019376399515
 30
0.0
 11
-42.5075140410601
 21
10.92760158479
 31
0.0
  0
LINE
  5
   2EB
  8
0
  6
CONTINUOUS
 62
     1
 10
-6.50998569870161
 20
-0.462979501504122
 30
0.0
 11
-67.75997656738
 21
-0.462979501504122
 31
0.0
  0
LINE
  5
   2EC
  8
0
  6
CONTINUOUS
 62
     1
 10
30.2400127053261
 20
1.28702031970079
 30
0.0
 11
30.2400127053261
 21
27.5369375288574
 31
0.0
  0
LINE
  5
   2ED
  8
0
  6
CONTINUOUS
 62
     1
 10
29.9774935451035
 20
27.9915404370312
 30
0.0
 11
29.7145851613918
 21
28.0619745491079
 31
0.0
  0
LINE
  5
   2EE
  8
0
  6
CONTINUOUS
 62
     1
 10
30.1696235387685
 20
27.7993914877217
 30
0.0
 11
29.9774642892249
 21
27.9915667575703
 31
0.0
  0
LINE
  5
   2EF
  8
0
  6
CONTINUOUS
 62
     1
 10
30.2400275619471
 20
27.5368740693424
 30
0.0
 11
30.1696868465654
 21
27.7993740405955
 31
0.0
  0
LINE
  5
   2F0
  8
0
  6
CONTINUOUS
 62
     1
 10
-67.7599772810936
 20
1.28702031970079
 30
0.0
 11
-67.7599772810936
 21
27.5369375288574
 31
0.0
  0
LINE
  5
   2F1
  8
0
  6
CONTINUOUS
 62
     1
 10
-67.4974545944445
 20
27.9915413817738
 30
0.0
 11
-67.2349546283294
 21
28.0618660772911
 31
0.0
  0
LINE
  5
   2F2
  8
0
  6
CONTINUOUS
 62
     1
 10
-67.689588114536
 20
27.7993914877217
 30
0.0
 11
-67.4974288649924
 21
27.9915667575703
 31
0.0
  0
LINE
  5
   2F3
  8
0
  6
CONTINUOUS
 62
     1
 10
-67.7599921377146
 20
27.5368740693425
 30
0.0
 11
-67.6896514223329
 21
27.7993740405956
 31
0.0
  0
LINE
  5
   2F4
  8
0
  6
CONTINUOUS
 62
     1
 10
30.2400020241745
 20
-114.037957735657
 30
0.0
 11
30.2400020241745
 21
1.28701515140433
 31
0.0
  0
LINE
  5
   2F5
  8
0
  6
CONTINUOUS
 62
     1
 10
-67.7599665999415
 20
-88.4879624962809
 30
0.0
 11
-67.7599665999415
 21
1.28701515140433
 31
0.0
  0
LINE
  5
   2F6
  8
0
  6
CONTINUOUS
 62
     1
 10
17.5525875328544
 20
-33.7129944581249
 30
0.0
 11
17.8619563976196
 21
-33.7129837769755
 31
0.0
  0
CIRCLE
  5
   2F7
  8
0
  6
CONTINUOUS
 62
     1
 10
-18.759948577143
 20
12.3120173382721
 30
0.0
 40
1.57569269749607
  0
LINE
  5
   2F8
  8
0
  6
DASHDOT
 62
     7
 10
-18.7599485771429
 20
9.11955532475453
 30
0.0
 11
-18.7599485771429
 21
15.5174811176804
 31
0.0
  0
LINE
  5
   2F9
  8
0
  6
DASHDOT
 62
     7
 10
-16.142433521807
 20
12.3120173382721
 30
0.0
 11
-20.9778295831272
 21
12.3120173382721
 31
0.0
  0
LINE
  5
   2FA
  8
0
  6
CONTINUOUS
 62
     1
 10
30.2400020241745
 20
-114.037957735657
 30
0.0
 11
-67.7599605948734
 21
-114.037957735657
 31
0.0
  0
LINE
  5
   2FB
  8
0
  6
CONTINUOUS
 62
     1
 10
30.2400020241745
 20
-89.0129602926967
 30
0.0
 11
-67.7599641142382
 21
-89.0129602926967
 31
0.0
  0
LINE
  5
   2FC
  8
0
  6
CONTINUOUS
 62
     1
 10
30.2400020241745
 20
-88.6629603284595
 30
0.0
 11
-67.4099641992229
 21
-88.6629603284595
 31
0.0
  0
LINE
  5
   2FD
  8
0
  6
CONTINUOUS
 62
     1
 10
30.2400020241745
 20
-88.4879624962809
 30
0.0
 11
-67.7599641880707
 21
-88.4879624962809
 31
0.0
  0
LINE
  5
   2FE
  8
0
  6
CONTINUOUS
 62
     1
 10
30.2400015319567
 20
-74.8379638910296
 30
0.0
 11
20.0900164127347
 21
-74.8379638910296
 31
0.0
  0
LINE
  5
   2FF
  8
0
  6
CONTINUOUS
 62
     1
 10
-67.7599665999415
 20
-114.037957735657
 30
0.0
 11
-67.7599665999415
 21
-89.0129602926967
 31
0.0
  0
LINE
  5
   300
  8
0
  6
CONTINUOUS
 62
     1
 10
-67.4099666357043
 20
-89.0129602926967
 30
0.0
 11
-67.4099666357043
 21
-88.6629603284595
 31
0.0
  0
LINE
  5
   301
  8
0
  6
CONTINUOUS
 62
     1
 10
-31.0099810361862
 20
-88.4879624962809
 30
0.0
 11
-31.0099810361862
 21
-80.1754932194906
 31
0.0
  0
LINE
  5
   302
  8
0
  6
CONTINUOUS
 62
     1
 10
17.9900139570236
 20
-88.4879624962809
 30
0.0
 11
17.9900139570236
 21
-80.1754932194906
 31
0.0
  0
LINE
  5
   303
  8
0
  6
CONTINUOUS
 62
     2
 10
-42.5074713164577
 20
-88.4879624962809
 30
0.0
 11
-42.5074713164577
 21
-74.8379638910296
 31
0.0
  0
LINE
  5
   304
  8
0
  6
CONTINUOUS
 62
     2
 10
-41.2474586278222
 20
-88.4879624962809
 30
0.0
 11
-41.2474586278222
 21
-74.8379638910296
 31
0.0
  0
LINE
  5
   305
  8
0
  6
CONTINUOUS
 62
     2
 10
-39.9874673014892
 20
-88.4879624962809
 30
0.0
 11
-39.9874673014892
 21
-74.8379638910296
 31
0.0
  0
LINE
  5
   306
  8
0
  6
CONTINUOUS
 62
     2
 10
-38.7274759751563
 20
-88.4879624962809
 30
0.0
 11
-38.7274759751563
 21
-74.8379638910296
 31
0.0
  0
LINE
  5
   307
  8
0
  6
CONTINUOUS
 62
     2
 10
-37.4674632865208
 20
-88.4879624962809
 30
0.0
 11
-37.4674632865208
 21
-74.8379638910296
 31
0.0
  0
LINE
  5
   308
  8
0
  6
CONTINUOUS
 62
     2
 10
-36.2074719601878
 20
-88.4879624962809
 30
0.0
 11
-36.2074719601878
 21
-74.8379638910296
 31
0.0
  0
LINE
  5
   309
  8
0
  6
CONTINUOUS
 62
     2
 10
-34.9474592715524
 20
-88.4879624962809
 30
0.0
 11
-34.9474592715524
 21
-74.8379638910296
 31
0.0
  0
LINE
  5
   30A
  8
0
  6
CONTINUOUS
 62
     2
 10
-33.6874679452194
 20
-88.4879624962809
 30
0.0
 11
-33.6874679452194
 21
-74.8379638910296
 31
0.0
  0
LINE
  5
   30B
  8
0
  6
CONTINUOUS
 62
     2
 10
-32.4274766188864
 20
-88.4879624962809
 30
0.0
 11
-32.4274766188864
 21
-80.1754932194906
 31
0.0
  0
LINE
  5
   30C
  8
0
  6
CONTINUOUS
 62
     1
 10
-31.167463930251
 20
-74.3129662811756
 30
0.0
 11
-31.167463930251
 21
-66.2629724442954
 31
0.0
  0
LINE
  5
   30D
  8
0
  6
CONTINUOUS
 62
     1
 10
-42.5074713164577
 20
-74.3129662811756
 30
0.0
 11
-42.5074713164577
 21
-66.2629724442954
 31
0.0
  0
LINE
  5
   30E
  8
0
  6
CONTINUOUS
 62
     1
 10
-41.2474586278222
 20
-74.3129662811756
 30
0.0
 11
-41.2474586278222
 21
-66.2629724442954
 31
0.0
  0
LINE
  5
   30F
  8
0
  6
CONTINUOUS
 62
     1
 10
-39.9874673014892
 20
-74.3129662811756
 30
0.0
 11
-39.9874673014892
 21
-66.2629724442954
 31
0.0
  0
LINE
  5
   310
  8
0
  6
CONTINUOUS
 62
     1
 10
-38.7274759751563
 20
-74.3129662811756
 30
0.0
 11
-38.7274759751563
 21
-66.2629724442954
 31
0.0
  0
LINE
  5
   311
  8
0
  6
CONTINUOUS
 62
     1
 10
-37.4674632865208
 20
-74.3129662811756
 30
0.0
 11
-37.4674632865208
 21
-66.2629724442954
 31
0.0
  0
LINE
  5
   312
  8
0
  6
CONTINUOUS
 62
     1
 10
-36.2074719601878
 20
-74.3129662811756
 30
0.0
 11
-36.2074719601878
 21
-66.2629724442954
 31
0.0
  0
LINE
  5
   313
  8
0
  6
CONTINUOUS
 62
     1
 10
-34.9474592715524
 20
-74.3129662811756
 30
0.0
 11
-34.9474592715524
 21
-66.2629724442954
 31
0.0
  0
LINE
  5
   314
  8
0
  6
CONTINUOUS
 62
     1
 10
-33.6874679452194
 20
-74.3129662811756
 30
0.0
 11
-33.6874679452194
 21
-66.2629724442954
 31
0.0
  0
LINE
  5
   315
  8
0
  6
CONTINUOUS
 62
     2
 10
-31.1674767476325
 20
-114.037957735657
 30
0.0
 11
-31.1674767476325
 21
-89.0129602926967
 31
0.0
  0
LINE
  5
   316
  8
0
  6
CONTINUOUS
 62
     1
 10
29.4875042372951
 20
-88.4879624962809
 30
0.0
 11
29.4875042372951
 21
-74.8379638910296
 31
0.0
  0
LINE
  5
   317
  8
0
  6
CONTINUOUS
 62
     1
 10
28.2274915486596
 20
-88.4879624962809
 30
0.0
 11
28.2274915486596
 21
-74.8379638910296
 31
0.0
  0
LINE
  5
   318
  8
0
  6
CONTINUOUS
 62
     1
 10
26.9675002223266
 20
-88.4879624962809
 30
0.0
 11
26.9675002223266
 21
-74.8379638910296
 31
0.0
  0
LINE
  5
   319
  8
0
  6
CONTINUOUS
 62
     1
 10
25.7075088959937
 20
-88.4879624962809
 30
0.0
 11
25.7075088959937
 21
-74.8379638910296
 31
0.0
  0
LINE
  5
   31A
  8
0
  6
CONTINUOUS
 62
     1
 10
24.4474962073582
 20
-88.4879624962809
 30
0.0
 11
24.4474962073582
 21
-74.8379638910296
 31
0.0
  0
LINE
  5
   31B
  8
0
  6
CONTINUOUS
 62
     1
 10
23.1875048810252
 20
-88.6629603284595
 30
0.0
 11
23.1875048810252
 21
-74.8379638910296
 31
0.0
  0
LINE
  5
   31C
  8
0
  6
CONTINUOUS
 62
     1
 10
21.9274921923898
 20
-88.6629603284595
 30
0.0
 11
21.9274921923898
 21
-74.8379638910296
 31
0.0
  0
LINE
  5
   31D
  8
0
  6
CONTINUOUS
 62
     1
 10
20.6675008660568
 20
-88.4879624962809
 30
0.0
 11
20.6675008660568
 21
-74.8379638910296
 31
0.0
  0
LINE
  5
   31E
  8
0
  6
CONTINUOUS
 62
     1
 10
19.4075095397238
 20
-88.4879624962809
 30
0.0
 11
19.4075095397238
 21
-80.1754932194906
 31
0.0
  0
LINE
  5
   31F
  8
0
  6
CONTINUOUS
 62
     1
 10
18.1474968510884
 20
-88.4879624962809
 30
0.0
 11
18.1474968510884
 21
-80.1754932194906
 31
0.0
  0
LINE
  5
   320
  8
0
  6
CONTINUOUS
 62
     1
 10
29.4873768995864
 20
-0.462877086964752
 30
0.0
 11
29.4872914846467
 21
28.061920675039
 31
0.0
  0
LINE
  5
   321
  8
0
  6
CONTINUOUS
 62
     1
 10
28.2273642109565
 20
-0.462880858751504
 30
0.0
 11
28.2272787960169
 21
28.0619169015912
 31
0.0
  0
LINE
  5
   322
  8
0
  6
CONTINUOUS
 62
     1
 10
26.9673728846292
 20
-0.462884632167274
 30
0.0
 11
26.9672874696896
 21
28.0619131298365
 31
0.0
  0
LINE
  5
   323
  8
0
  6
CONTINUOUS
 62
     1
 10
25.7073815583019
 20
-0.462888407244066
 30
0.0
 11
25.7072961433623
 21
28.0619093547597
 31
0.0
  0
LINE
  5
   324
  8
0
  6
CONTINUOUS
 62
     1
 10
24.4473688696721
 20
-0.462892179030803
 30
0.0
 11
24.4472834547325
 21
28.061905582973
 31
0.0
  0
LINE
  5
   325
  8
0
  6
CONTINUOUS
 62
     1
 10
23.1873775433448
 20
-0.462895950785537
 30
0.0
 11
23.1872921284051
 21
28.0619018095572
 31
0.0
  0
LINE
  5
   326
  8
0
  6
CONTINUOUS
 62
     1
 10
21.9273648547149
 20
-0.462899725894331
 30
0.0
 11
21.9272794397753
 21
28.0618980361094
 31
0.0
  0
LINE
  5
   327
  8
0
  6
CONTINUOUS
 62
     1
 10
20.6673735283876
 20
-0.462903499310102
 30
0.0
 11
20.667288113448
 21
28.0618942626936
 31
0.0
  0
LINE
  5
   328
  8
0
  6
CONTINUOUS
 62
     1
 10
19.4073822020603
 20
-0.462907269403829
 30
0.0
 11
19.4072967871207
 21
28.0618904909389
 31
0.0
  0
LINE
  5
   329
  8
0
  6
CONTINUOUS
 62
     1
 10
18.147382330812
 20
-0.462911042832388
 30
0.0
 11
18.1472969158724
 21
28.0618867191714
 31
0.0
  0
CIRCLE
  5
   32A
  8
0
  6
CONTINUOUS
 62
     1
 10
-18.759948577143
 20
-98.2881278681542
 30
0.0
 40
1.57569269749607
  0
LINE
  5
   32B
  8
0
  6
DASHDOT
 62
     1
 10
-18.759948577143
 20
-103.363820208022
 30
0.0
 11
-18.759948577143
 21
-89.0129602926967
 31
0.0
  0
LINE
  5
   32C
  8
0
  6
DASHDOT
 62
     1
 10
-13.6842562372748
 20
-98.2881278681542
 30
0.0
 11
-23.8356409170112
 21
-98.2881278681542
 31
0.0
  0
LINE
  5
   32D
  8
0
  6
CONTINUOUS
 62
     1
 10
-5.96741143048557
 20
-0.462979501485293
 30
0.0
 11
-5.96741143048557
 21
28.0618520260031
 31
0.0
  0
LINE
  5
   32E
  8
0
  6
CONTINUOUS
 62
     1
 10
-4.70741276086135
 20
-0.462979501485293
 30
0.0
 11
-4.70741276086135
 21
28.0618520260031
 31
0.0
  0
LINE
  5
   32F
  8
0
  6
CONTINUOUS
 62
     1
 10
-3.27241177261675
 20
-0.462979501485293
 30
0.0
 11
-3.27241177261675
 21
28.0618520260031
 31
0.0
  0
LINE
  5
   330
  8
0
  6
CONTINUOUS
 62
     1
 10
-2.01241210163461
 20
-0.462979501485293
 30
0.0
 11
-2.01241210163461
 21
28.0618520260031
 31
0.0
  0
LINE
  5
   331
  8
0
  6
CONTINUOUS
 62
     1
 10
-0.752426449663295
 20
-0.462979501485293
 30
0.0
 11
-0.752426449663295
 21
28.0618520260031
 31
0.0
  0
LINE
  5
   332
  8
0
  6
CONTINUOUS
 62
     1
 10
0.507575557820722
 20
-0.462979501485293
 30
0.0
 11
0.507575557820722
 21
28.0618520260031
 31
0.0
  0
LINE
  5
   333
  8
0
  6
CONTINUOUS
 62
     1
 10
1.76758824645497
 20
-0.462979501485293
 30
0.0
 11
1.76758824645497
 21
28.0618520260031
 31
0.0
  0
LINE
  5
   334
  8
0
  6
CONTINUOUS
 62
     1
 10
3.02757423221313
 20
-0.462979501485293
 30
0.0
 11
3.02757423221313
 21
28.0618520260031
 31
0.0
  0
LINE
  5
   335
  8
0
  6
CONTINUOUS
 62
     1
 10
-7.22755963622732
 20
-0.462979501485279
 30
0.0
 11
-7.22755963622732
 21
28.0618520260032
 31
0.0
  0
LINE
  5
   336
  8
0
  6
CONTINUOUS
 62
     1
 10
-8.48756297885515
 20
-0.462979501485279
 30
0.0
 11
-8.48756297885515
 21
28.0618520260031
 31
0.0
  0
LINE
  5
   337
  8
0
  6
CONTINUOUS
 62
     1
 10
-9.74756064712147
 20
-0.462979501485293
 30
0.0
 11
-9.74756064712147
 21
28.0618520260031
 31
0.0
  0
LINE
  5
   338
  8
0
  6
CONTINUOUS
 62
     1
 10
-11.0075603181036
 20
-0.462979501485293
 30
0.0
 11
-11.0075603181036
 21
28.0618520260031
 31
0.0
  0
LINE
  5
   339
  8
0
  6
CONTINUOUS
 62
     1
 10
-12.2675459700749
 20
-0.462979501485293
 30
0.0
 11
-12.2675459700749
 21
28.0618520260031
 31
0.0
  0
LINE
  5
   33A
  8
0
  6
CONTINUOUS
 62
     1
 10
-13.5275479775589
 20
-0.462979501485293
 30
0.0
 11
-13.5275479775589
 21
28.0618520260031
 31
0.0
  0
LINE
  5
   33B
  8
0
  6
CONTINUOUS
 62
     1
 10
-14.7875606661932
 20
-0.462979501485293
 30
0.0
 11
-14.7875606661932
 21
28.0618520260031
 31
0.0
  0
LINE
  5
   33C
  8
0
  6
CONTINUOUS
 62
     1
 10
-16.0475466519514
 20
-0.462979501485293
 30
0.0
 11
-16.0475466519514
 21
28.0618520260031
 31
0.0
  0
LINE
  5
   33D
  8
0
  6
CONTINUOUS
 62
     1
 10
-17.3075112754077
 20
-0.462979501485279
 30
0.0
 11
-17.3075112754077
 21
11.734590815895
 31
0.0
  0
LINE
  5
   33E
  8
0
  6
CONTINUOUS
 62
     1
 10
-18.567497261165
 20
-0.462979501485279
 30
0.0
 11
-18.567497261165
 21
10.766814425524
 31
0.0
  0
LINE
  5
   33F
  8
0
  6
CONTINUOUS
 62
     1
 10
-19.8274992686493
 20
-0.462979501485279
 30
0.0
 11
-19.8274992686493
 21
11.1786262120586
 31
0.0
  0
LINE
  5
   340
  8
0
  6
CONTINUOUS
 62
     1
 10
-21.08754934131
 20
-0.462979501485293
 30
0.0
 11
-21.08754934131
 21
28.0618520260031
 31
0.0
  0
LINE
  5
   341
  8
0
  6
CONTINUOUS
 62
     1
 10
-22.3475513487939
 20
-0.462979501485293
 30
0.0
 11
-22.3475513487939
 21
28.0618520260031
 31
0.0
  0
LINE
  5
   342
  8
0
  6
CONTINUOUS
 62
     1
 10
-23.6075533562777
 20
-0.462979501485293
 30
0.0
 11
-23.6075533562777
 21
28.0618520260031
 31
0.0
  0
LINE
  5
   343
  8
0
  6
CONTINUOUS
 62
     1
 10
-24.8675553637616
 20
-0.462979501485293
 30
0.0
 11
-24.8675553637616
 21
28.0618520260031
 31
0.0
  0
LINE
  5
   344
  8
0
  6
CONTINUOUS
 62
     1
 10
-26.1275466900942
 20
-0.462979501485293
 30
0.0
 11
-26.1275466900942
 21
28.0618520260031
 31
0.0
  0
LINE
  5
   345
  8
0
  6
CONTINUOUS
 62
     1
 10
-27.3875486975781
 20
-0.462979501485293
 30
0.0
 11
-27.3875486975781
 21
28.0618520260031
 31
0.0
  0
LINE
  5
   346
  8
0
  6
CONTINUOUS
 62
     1
 10
-28.6475507050619
 20
-0.462979501485293
 30
0.0
 11
-28.6475507050619
 21
28.0618520260031
 31
0.0
  0
LINE
  5
   347
  8
0
  6
CONTINUOUS
 62
     1
 10
-29.9075527125458
 20
-0.462979501485293
 30
0.0
 11
-29.9075527125458
 21
28.0618520260031
 31
0.0
  0
LINE
  5
   348
  8
0
  6
CONTINUOUS
 62
     1
 10
4.28753885566948
 20
-97.6770020467772
 30
0.0
 11
4.28753885566948
 21
-89.0129602926967
 31
0.0
  0
LINE
  5
   349
  8
0
  6
CONTINUOUS
 62
     1
 10
-17.3075112754077
 20
-97.6771995896546
 30
0.0
 11
-17.3075112754077
 21
-89.0129602926967
 31
0.0
  0
LINE
  5
   34A
  8
0
  6
CONTINUOUS
 62
     1
 10
-18.567497261165
 20
-96.7242321018319
 30
0.0
 11
-18.567497261165
 21
-89.0129602926967
 31
0.0
  0
LINE
  5
   34B
  8
0
  6
CONTINUOUS
 62
     1
 10
-19.8274992686493
 20
-97.1291874046243
 30
0.0
 11
-19.8274992686493
 21
-89.0129602926967
 31
0.0
  0
LINE
  5
   34C
  8
0
  6
CONTINUOUS
 62
     1
 10
-67.2350915460355
 20
28.0618293955673
 30
0.0
 11
29.7145851642562
 21
28.061974549108
 31
0.0
  0
LINE
  5
   34D
  8
0
  6
CONTINUOUS
 62
     1
 10
4.28757410346691
 20
-0.462978791065893
 30
0.0
 11
4.28757410346691
 21
11.7011292690673
 31
0.0
  0
LINE
  5
   34E
  8
0
  6
CONTINUOUS
 62
     1
 10
5.54757397472087
 20
-0.462978080646494
 30
0.0
 11
5.54757397472087
 21
10.7481218783029
 31
0.0
  0
CIRCLE
  5
   34F
  8
0
  6
CONTINUOUS
 62
     1
 10
5.73998149798036
 20
12.3120173382721
 30
0.0
 40
1.57569269749607
  0
LINE
  5
   350
  8
0
  6
DASHDOT
 62
     7
 10
5.73998149798034
 20
8.67613472524482
 30
0.0
 11
5.73998149798034
 21
16.08759331705
 31
0.0
  0
LINE
  5
   351
  8
0
  6
DASHDOT
 62
     7
 10
8.68912005073697
 20
12.3120173382721
 30
0.0
 11
2.52346219088761
 21
12.3120173382721
 31
0.0
  0
LINE
  5
   352
  8
0
  6
CONTINUOUS
 62
     1
 10
6.80736312759549
 20
13.4711135099429
 30
0.0
 11
6.80731943693999
 21
28.0618527608378
 31
0.0
  0
LINE
  5
   353
  8
0
  6
CONTINUOUS
 62
     1
 10
5.54757397472087
 20
13.8759125812197
 30
0.0
 11
5.54757397472087
 21
28.0618196804042
 31
0.0
  0
LINE
  5
   354
  8
0
  6
CONTINUOUS
 62
     1
 10
4.28757410346691
 20
12.9229037696165
 30
0.0
 11
4.28757410346691
 21
28.061936479576
 31
0.0
  0
LINE
  5
   355
  8
0
  6
CONTINUOUS
 62
     1
 10
-67.0075115376616
 20
-0.463019376399515
 30
0.0
 11
-67.0075115376616
 21
28.0618617834349
 31
0.0
  0
LINE
  5
   356
  8
0
  6
CONTINUOUS
 62
     1
 10
-65.7474881678809
 20
-0.462958139182774
 30
0.0
 11
-65.7474881678809
 21
28.0619152811943
 31
0.0
  0
LINE
  5
   357
  8
0
  6
CONTINUOUS
 62
     1
 10
-64.4875075226933
 20
-0.463031004780007
 30
0.0
 11
-64.4875075226933
 21
28.0619374752132
 31
0.0
  0
LINE
  5
   358
  8
0
  6
CONTINUOUS
 62
     1
 10
-63.2275161963605
 20
-0.463031478388558
 30
0.0
 11
-63.2275161963605
 21
28.0619280224656
 31
0.0
  0
LINE
  5
   359
  8
0
  6
CONTINUOUS
 62
     1
 10
-61.9674928265795
 20
-0.462958139182774
 30
0.0
 11
-61.9674928265795
 21
28.0618520260032
 31
0.0
  0
LINE
  5
   35A
  8
0
  6
CONTINUOUS
 62
     1
 10
-60.7075121813922
 20
-0.46303242561369
 30
0.0
 11
-60.7075121813922
 21
28.0618520260032
 31
0.0
  0
LINE
  5
   35B
  8
0
  6
CONTINUOUS
 62
     1
 10
-59.447488811611
 20
-0.462958139182774
 30
0.0
 11
-59.447488811611
 21
28.0618520260032
 31
0.0
  0
LINE
  5
   35C
  8
0
  6
CONTINUOUS
 62
     1
 10
-58.1875455504372
 20
-0.463023157256799
 30
0.0
 11
-58.1875455504372
 21
28.0618520260031
 31
0.0
  0
LINE
  5
   35D
  8
0
  6
CONTINUOUS
 62
     1
 10
-56.9275168400911
 20
-0.463033846447402
 30
0.0
 11
-56.9275168400911
 21
28.0618520260031
 31
0.0
  0
LINE
  5
   35E
  8
0
  6
CONTINUOUS
 62
     1
 10
-55.6674934703096
 20
-0.462958139182774
 30
0.0
 11
-55.6674934703096
 21
28.0618520260032
 31
0.0
  0
LINE
  5
   35F
  8
0
  6
CONTINUOUS
 62
     1
 10
-54.4075502091369
 20
-0.462979501485293
 30
0.0
 11
-54.4075502091369
 21
28.0618520260031
 31
0.0
  0
LINE
  5
   360
  8
0
  6
CONTINUOUS
 62
     1
 10
-53.147548201653
 20
-0.462979501485293
 30
0.0
 11
-53.147548201653
 21
28.0618520260031
 31
0.0
  0
LINE
  5
   361
  8
0
  6
CONTINUOUS
 62
     1
 10
-51.8875461941691
 20
-0.462979501485293
 30
0.0
 11
-51.8875461941691
 21
28.0618520260031
 31
0.0
  0
LINE
  5
   362
  8
0
  6
CONTINUOUS
 62
     1
 10
-50.6275441866853
 20
-0.462979501485293
 30
0.0
 11
-50.6275441866853
 21
28.0618520260031
 31
0.0
  0
LINE
  5
   363
  8
0
  6
CONTINUOUS
 62
     1
 10
-49.3675528603527
 20
-0.462979501485293
 30
0.0
 11
-49.3675528603527
 21
28.0618520260031
 31
0.0
  0
LINE
  5
   364
  8
0
  6
CONTINUOUS
 62
     1
 10
-48.1075508528688
 20
-0.462979501485293
 30
0.0
 11
-48.1075508528688
 21
28.0618520260031
 31
0.0
  0
LINE
  5
   365
  8
0
  6
CONTINUOUS
 62
     1
 10
-46.8475488453849
 20
-0.462979501485293
 30
0.0
 11
-46.8475488453849
 21
28.0618520260031
 31
0.0
  0
LINE
  5
   366
  8
0
  6
CONTINUOUS
 62
     1
 10
-45.5875468379011
 20
-0.462979501485293
 30
0.0
 11
-45.5875468379011
 21
28.0618520260031
 31
0.0
  0
LINE
  5
   367
  8
0
  6
CONTINUOUS
 62
     1
 10
-43.9774931784006
 20
13.6039346860701
 30
0.0
 11
-43.977471654412
 21
28.0618520275325
 31
0.0
  0
CIRCLE
  5
   368
  8
0
  6
CONTINUOUS
 62
     1
 10
-43.2599460737479
 20
12.3120173382721
 30
0.0
 40
1.57569269749607
  0
LINE
  5
   369
  8
0
  6
DASHDOT
 62
     7
 10
-40.642431018412
 20
12.3120173382721
 30
0.0
 11
-45.4778270797322
 21
12.3120173382721
 31
0.0
  0
LINE
  5
   36A
  8
0
  6
DASHDOT
 62
     7
 10
-43.2599460737479
 20
9.11955532475453
 30
0.0
 11
-43.2599460737479
 21
15.5174811176804
 31
0.0
  0
LINE
  5
   36B
  8
0
  6
CONTINUOUS
 62
     1
 10
-44.1524967831356
 20
-0.462979501485279
 30
0.0
 11
-44.1524967831356
 21
11.1786262120586
 31
0.0
  0
LINE
  5
   36C
  8
0
  6
CONTINUOUS
 62
     1
 10
-42.5075140410601
 20
13.6964325260785
 30
0.0
 11
-42.5075140410601
 21
28.0618617834349
 31
0.0
  0
LINE
  5
   36D
  8
0
  6
CONTINUOUS
 62
     1
 10
-67.0074688130626
 20
-29.5129925549008
 30
0.0
 11
-67.0074688130626
 21
-0.987979447841099
 31
0.0
  0
LINE
  5
   36E
  8
0
  6
CONTINUOUS
 62
     1
 10
-65.7474561244271
 20
-29.5129925549008
 30
0.0
 11
-65.7474561244271
 21
-0.987979447841099
 31
0.0
  0
LINE
  5
   36F
  8
0
  6
CONTINUOUS
 62
     1
 10
-64.4874647980942
 20
-29.5129925549008
 30
0.0
 11
-64.4874647980942
 21
-0.987979447841099
 31
0.0
  0
LINE
  5
   370
  8
0
  6
CONTINUOUS
 62
     1
 10
-63.2274734717612
 20
-29.5129925549008
 30
0.0
 11
-63.2274734717612
 21
-0.987979447841099
 31
0.0
  0
LINE
  5
   371
  8
0
  6
CONTINUOUS
 62
     1
 10
-61.9674607831257
 20
-29.5129925549008
 30
0.0
 11
-61.9674607831257
 21
-0.987979447841099
 31
0.0
  0
LINE
  5
   372
  8
0
  6
CONTINUOUS
 62
     1
 10
-60.7074694567928
 20
-29.5129925549008
 30
0.0
 11
-60.7074694567928
 21
-0.987979447841099
 31
0.0
  0
LINE
  5
   373
  8
0
  6
CONTINUOUS
 62
     1
 10
-59.4474567681573
 20
-29.5129925549008
 30
0.0
 11
-59.4474567681573
 21
-0.987979447841099
 31
0.0
  0
LINE
  5
   374
  8
0
  6
CONTINUOUS
 62
     1
 10
-58.1874654418243
 20
-29.5129925549008
 30
0.0
 11
-58.1874654418243
 21
-0.987979447841099
 31
0.0
  0
LINE
  5
   375
  8
0
  6
CONTINUOUS
 62
     1
 10
-56.9274741154913
 20
-29.5129925549008
 30
0.0
 11
-56.9274741154913
 21
-0.987979447841099
 31
0.0
  0
LINE
  5
   376
  8
0
  6
CONTINUOUS
 62
     1
 10
-55.6674614268559
 20
-29.5129925549008
 30
0.0
 11
-55.6674614268559
 21
-0.987979447841099
 31
0.0
  0
LINE
  5
   377
  8
0
  6
CONTINUOUS
 62
     1
 10
-67.0074688130626
 20
-66.2629620969301
 30
0.0
 11
-67.0074688130626
 21
-29.5129925549008
 31
0.0
  0
LINE
  5
   378
  8
0
  6
CONTINUOUS
 62
     1
 10
-65.7474561244271
 20
-66.2629620969301
 30
0.0
 11
-65.7474561244271
 21
-29.5129925549008
 31
0.0
  0
LINE
  5
   379
  8
0
  6
CONTINUOUS
 62
     1
 10
-64.4874647980942
 20
-66.2629620969301
 30
0.0
 11
-64.4874647980942
 21
-29.5129925549008
 31
0.0
  0
LINE
  5
   37A
  8
0
  6
CONTINUOUS
 62
     1
 10
-63.2274734717612
 20
-66.2629620969301
 30
0.0
 11
-63.2274734717612
 21
-29.5129925549008
 31
0.0
  0
LINE
  5
   37B
  8
0
  6
CONTINUOUS
 62
     1
 10
-61.9674607831257
 20
-66.2629620969301
 30
0.0
 11
-61.9674607831257
 21
-29.5129925549008
 31
0.0
  0
LINE
  5
   37C
  8
0
  6
CONTINUOUS
 62
     1
 10
-60.7074694567928
 20
-66.2629620969301
 30
0.0
 11
-60.7074694567928
 21
-29.5129925549008
 31
0.0
  0
LINE
  5
   37D
  8
0
  6
CONTINUOUS
 62
     1
 10
-59.4474567681573
 20
-66.2629620969301
 30
0.0
 11
-59.4474567681573
 21
-29.5129925549008
 31
0.0
  0
LINE
  5
   37E
  8
0
  6
CONTINUOUS
 62
     1
 10
-58.1874654418243
 20
-66.2629620969301
 30
0.0
 11
-58.1874654418243
 21
-29.5129925549008
 31
0.0
  0
LINE
  5
   37F
  8
0
  6
CONTINUOUS
 62
     1
 10
-56.9274741154913
 20
-66.2629620969301
 30
0.0
 11
-56.9274741154913
 21
-29.5129925549008
 31
0.0
  0
LINE
  5
   380
  8
0
  6
CONTINUOUS
 62
     1
 10
-67.0074688130626
 20
-74.3129662811756
 30
0.0
 11
-67.0074688130626
 21
-66.2629724442954
 31
0.0
  0
LINE
  5
   381
  8
0
  6
CONTINUOUS
 62
     1
 10
-65.7474561244271
 20
-74.3129662811756
 30
0.0
 11
-65.7474561244271
 21
-66.2629724442954
 31
0.0
  0
LINE
  5
   382
  8
0
  6
CONTINUOUS
 62
     1
 10
-64.4874647980942
 20
-74.3129662811756
 30
0.0
 11
-64.4874647980942
 21
-66.2629724442954
 31
0.0
  0
LINE
  5
   383
  8
0
  6
CONTINUOUS
 62
     1
 10
-63.2274734717612
 20
-74.3129662811756
 30
0.0
 11
-63.2274734717612
 21
-66.2629724442954
 31
0.0
  0
LINE
  5
   384
  8
0
  6
CONTINUOUS
 62
     1
 10
-61.9674607831257
 20
-74.3129662811756
 30
0.0
 11
-61.9674607831257
 21
-66.2629724442954
 31
0.0
  0
LINE
  5
   385
  8
0
  6
CONTINUOUS
 62
     1
 10
-60.7074694567928
 20
-74.3129662811756
 30
0.0
 11
-60.7074694567928
 21
-66.2629724442954
 31
0.0
  0
LINE
  5
   386
  8
0
  6
CONTINUOUS
 62
     1
 10
-59.4474567681573
 20
-74.3129662811756
 30
0.0
 11
-59.4474567681573
 21
-66.2629724442954
 31
0.0
  0
LINE
  5
   387
  8
0
  6
CONTINUOUS
 62
     1
 10
-58.1874654418243
 20
-74.3129662811756
 30
0.0
 11
-58.1874654418243
 21
-66.2629724442954
 31
0.0
  0
LINE
  5
   388
  8
0
  6
CONTINUOUS
 62
     1
 10
-56.9274741154913
 20
-74.3129662811756
 30
0.0
 11
-56.9274741154913
 21
-66.2629724442954
 31
0.0
  0
LINE
  5
   389
  8
0
  6
CONTINUOUS
 62
     1
 10
-55.6674614268559
 20
-74.3129662811756
 30
0.0
 11
-55.6674614268559
 21
-66.2629724442954
 31
0.0
  0
LINE
  5
   38A
  8
0
  6
CONTINUOUS
 62
     1
 10
-55.6674614268559
 20
-66.2629620969301
 30
0.0
 11
-55.6674614268559
 21
-29.5129925549008
 31
0.0
  0
LINE
  5
   38B
  8
0
  6
CONTINUOUS
 62
     2
 10
-67.0074688130626
 20
-88.4879624962809
 30
0.0
 11
-67.0074688130626
 21
-74.8379638910296
 31
0.0
  0
LINE
  5
   38C
  8
0
  6
CONTINUOUS
 62
     2
 10
-65.7474561244271
 20
-88.4879624962809
 30
0.0
 11
-65.7474561244271
 21
-74.8379638910296
 31
0.0
  0
LINE
  5
   38D
  8
0
  6
CONTINUOUS
 62
     2
 10
-64.4874647980942
 20
-88.4879624962809
 30
0.0
 11
-64.4874647980942
 21
-74.8379638910296
 31
0.0
  0
LINE
  5
   38E
  8
0
  6
CONTINUOUS
 62
     2
 10
-63.2274734717612
 20
-88.4879624962809
 30
0.0
 11
-63.2274734717612
 21
-74.8379638910296
 31
0.0
  0
LINE
  5
   38F
  8
0
  6
CONTINUOUS
 62
     2
 10
-61.9674607831257
 20
-88.4879624962809
 30
0.0
 11
-61.9674607831257
 21
-74.8379638910296
 31
0.0
  0
LINE
  5
   390
  8
0
  6
CONTINUOUS
 62
     2
 10
-60.7074694567928
 20
-88.4879624962809
 30
0.0
 11
-60.7074694567928
 21
-74.8379638910296
 31
0.0
  0
LINE
  5
   391
  8
0
  6
CONTINUOUS
 62
     2
 10
-59.4474567681573
 20
-88.4879624962809
 30
0.0
 11
-59.4474567681573
 21
-74.8379638910296
 31
0.0
  0
LINE
  5
   392
  8
0
  6
CONTINUOUS
 62
     2
 10
-58.1874654418243
 20
-88.4879624962809
 30
0.0
 11
-58.1874654418243
 21
-74.8379638910296
 31
0.0
  0
LINE
  5
   393
  8
0
  6
CONTINUOUS
 62
     2
 10
-56.9274741154913
 20
-88.4879624962809
 30
0.0
 11
-56.9274741154913
 21
-74.8379638910296
 31
0.0
  0
LINE
  5
   394
  8
0
  6
CONTINUOUS
 62
     2
 10
-55.6674614268559
 20
-88.4879624962809
 30
0.0
 11
-55.6674614268559
 21
-74.8379638910296
 31
0.0
  0
LINE
  5
   395
  8
0
  6
CONTINUOUS
 62
     2
 10
-67.0074688130626
 20
-114.037957735657
 30
0.0
 11
-67.0074688130626
 21
-89.0129602926967
 31
0.0
  0
LINE
  5
   396
  8
0
  6
CONTINUOUS
 62
     2
 10
-65.7474561244271
 20
-114.037957735657
 30
0.0
 11
-65.7474561244271
 21
-89.0129602926967
 31
0.0
  0
LINE
  5
   397
  8
0
  6
CONTINUOUS
 62
     2
 10
-64.4874647980942
 20
-114.037957735657
 30
0.0
 11
-64.4874647980942
 21
-89.0129602926967
 31
0.0
  0
LINE
  5
   398
  8
0
  6
CONTINUOUS
 62
     2
 10
-63.2274734717612
 20
-114.037957735657
 30
0.0
 11
-63.2274734717612
 21
-89.0129602926967
 31
0.0
  0
LINE
  5
   399
  8
0
  6
CONTINUOUS
 62
     2
 10
-61.9674607831257
 20
-114.037957735657
 30
0.0
 11
-61.9674607831257
 21
-89.0129602926967
 31
0.0
  0
LINE
  5
   39A
  8
0
  6
CONTINUOUS
 62
     2
 10
-60.7074694567928
 20
-114.037957735657
 30
0.0
 11
-60.7074694567928
 21
-89.0129602926967
 31
0.0
  0
LINE
  5
   39B
  8
0
  6
CONTINUOUS
 62
     2
 10
-59.4474567681573
 20
-114.037957735657
 30
0.0
 11
-59.4474567681573
 21
-89.0129602926967
 31
0.0
  0
LINE
  5
   39C
  8
0
  6
CONTINUOUS
 62
     2
 10
-58.1874654418243
 20
-114.037957735657
 30
0.0
 11
-58.1874654418243
 21
-89.0129602926967
 31
0.0
  0
LINE
  5
   39D
  8
0
  6
CONTINUOUS
 62
     2
 10
-56.9274741154913
 20
-114.037957735657
 30
0.0
 11
-56.9274741154913
 21
-89.0129602926967
 31
0.0
  0
LINE
  5
   39E
  8
0
  6
CONTINUOUS
 62
     2
 10
-55.6674742442374
 20
-114.037957735657
 30
0.0
 11
-55.6674742442374
 21
-89.0129602926967
 31
0.0
  0
LINE
  5
   39F
  8
0
  6
CONTINUOUS
 62
     1
 10
-54.4075502091369
 20
-114.037957735657
 30
0.0
 11
-54.4075502091369
 21
-89.0129602926967
 31
0.0
  0
LINE
  5
   3A0
  8
0
  6
CONTINUOUS
 62
     1
 10
-53.147548201653
 20
-114.037957735657
 30
0.0
 11
-53.147548201653
 21
-89.0129602926967
 31
0.0
  0
LINE
  5
   3A1
  8
0
  6
CONTINUOUS
 62
     1
 10
-51.8875461941691
 20
-114.037957735657
 30
0.0
 11
-51.8875461941691
 21
-89.0129602926967
 31
0.0
  0
LINE
  5
   3A2
  8
0
  6
CONTINUOUS
 62
     1
 10
-50.6275441866853
 20
-114.037957735657
 30
0.0
 11
-50.6275441866853
 21
-89.0129602926967
 31
0.0
  0
LINE
  5
   3A3
  8
0
  6
CONTINUOUS
 62
     1
 10
-49.3675528603527
 20
-114.037957735657
 30
0.0
 11
-49.3675528603527
 21
-89.0129602926967
 31
0.0
  0
LINE
  5
   3A4
  8
0
  6
CONTINUOUS
 62
     1
 10
-44.1524967831356
 20
-97.1291874046243
 30
0.0
 11
-44.1524967831356
 21
-89.0129602926967
 31
0.0
  0
LINE
  5
   3A5
  8
0
  6
CONTINUOUS
 62
     1
 10
-45.5875468379011
 20
-114.037957735657
 30
0.0
 11
-45.5875468379011
 21
-89.0129602926967
 31
0.0
  0
LINE
  5
   3A6
  8
0
  6
CONTINUOUS
 62
     1
 10
-46.8475488453849
 20
-114.037957735657
 30
0.0
 11
-46.8475488453849
 21
-89.0129602926967
 31
0.0
  0
LINE
  5
   3A7
  8
0
  6
CONTINUOUS
 62
     1
 10
-48.1075508528688
 20
-114.037957735657
 30
0.0
 11
-48.1075508528688
 21
-89.0129602926967
 31
0.0
  0
CIRCLE
  5
   3A8
  8
0
  6
CONTINUOUS
 62
     1
 10
-43.2599460737479
 20
-98.2881278681542
 30
0.0
 40
1.57569269749607
  0
LINE
  5
   3A9
  8
0
  6
DASHDOT
 62
     1
 10
-43.2599460737479
 20
-103.363820208022
 30
0.0
 11
-43.2599460737479
 21
-89.0129602926967
 31
0.0
  0
LINE
  5
   3AA
  8
0
  6
DASHDOT
 62
     1
 10
-38.1842537338797
 20
-98.2881278681542
 30
0.0
 11
-48.3356384136161
 21
-98.2881278681542
 31
0.0
  0
LINE
  5
   3AB
  8
0
  6
CONTINUOUS
 62
     1
 10
-44.1524967831356
 20
-114.037957735657
 30
0.0
 11
-44.1524967831356
 21
-99.4470683316841
 31
0.0
  0
LINE
  5
   3AC
  8
0
  6
CONTINUOUS
 62
     2
 10
-42.5074713164577
 20
-96.9037185296335
 30
0.0
 11
-42.5074713164577
 21
-89.0129602926967
 31
0.0
  0
LINE
  5
   3AD
  8
0
  6
CONTINUOUS
 62
     1
 10
-44.1524967831356
 20
-88.4879624962809
 30
0.0
 11
-44.1524967831356
 21
-74.8379638910296
 31
0.0
  0
LINE
  5
   3AE
  8
0
  6
CONTINUOUS
 62
     1
 10
-45.5875468379011
 20
-88.4879615490102
 30
0.0
 11
-45.5875468379011
 21
-74.8379629437666
 31
0.0
  0
LINE
  5
   3AF
  8
0
  6
CONTINUOUS
 62
     1
 10
-46.8475488453849
 20
-88.4879606017853
 30
0.0
 11
-46.8475488453849
 21
-74.8379619965417
 31
0.0
  0
LINE
  5
   3B0
  8
0
  6
CONTINUOUS
 62
     1
 10
-48.1075508528688
 20
-88.4879596545603
 30
0.0
 11
-48.1075508528688
 21
-74.8379610493167
 31
0.0
  0
LINE
  5
   3B1
  8
0
  6
CONTINUOUS
 62
     1
 10
-49.3675528603527
 20
-88.4879587073354
 30
0.0
 11
-49.3675528603527
 21
-74.8379601020918
 31
0.0
  0
LINE
  5
   3B2
  8
0
  6
CONTINUOUS
 62
     1
 10
-50.6275441866853
 20
-88.4879577601185
 30
0.0
 11
-50.6275441866853
 21
-74.8379591548749
 31
0.0
  0
LINE
  5
   3B3
  8
0
  6
CONTINUOUS
 62
     1
 10
-51.8875461941691
 20
-88.4879568128936
 30
0.0
 11
-51.8875461941691
 21
-74.83795820765
 31
0.0
  0
LINE
  5
   3B4
  8
0
  6
CONTINUOUS
 62
     1
 10
-53.147548201653
 20
-88.4879558656684
 30
0.0
 11
-53.147548201653
 21
-74.8379572604248
 31
0.0
  0
LINE
  5
   3B5
  8
0
  6
CONTINUOUS
 62
     1
 10
-54.4075502091369
 20
-88.4879549184433
 30
0.0
 11
-54.4075502091369
 21
-74.8379563131997
 31
0.0
  0
LINE
  5
   3B6
  8
0
  6
CONTINUOUS
 62
     1
 10
-44.1524967831356
 20
-74.3129662811756
 30
0.0
 11
-44.1524967831356
 21
-66.2629724442954
 31
0.0
  0
LINE
  5
   3B7
  8
0
  6
CONTINUOUS
 62
     1
 10
-45.5875468379011
 20
-74.3129653339129
 30
0.0
 11
-45.5875468379011
 21
-66.2629714970372
 31
0.0
  0
LINE
  5
   3B8
  8
0
  6
CONTINUOUS
 62
     1
 10
-46.8475488453849
 20
-74.312964386688
 30
0.0
 11
-46.8475488453849
 21
-66.2629705498123
 31
0.0
  0
LINE
  5
   3B9
  8
0
  6
CONTINUOUS
 62
     1
 10
-48.1075508528688
 20
-74.312963439463
 30
0.0
 11
-48.1075508528688
 21
-66.2629696025873
 31
0.0
  0
LINE
  5
   3BA
  8
0
  6
CONTINUOUS
 62
     1
 10
-49.3675528603527
 20
-74.3129624922381
 30
0.0
 11
-49.3675528603527
 21
-66.2629686553624
 31
0.0
  0
LINE
  5
   3BB
  8
0
  6
CONTINUOUS
 62
     1
 10
-50.6275441866853
 20
-74.3129615450212
 30
0.0
 11
-50.6275441866853
 21
-66.2629677081455
 31
0.0
  0
LINE
  5
   3BC
  8
0
  6
CONTINUOUS
 62
     1
 10
-51.8875461941692
 20
-74.3129605977963
 30
0.0
 11
-51.8875461941692
 21
-66.2629667609206
 31
0.0
  0
LINE
  5
   3BD
  8
0
  6
CONTINUOUS
 62
     1
 10
-53.147548201653
 20
-74.3129596505712
 30
0.0
 11
-53.147548201653
 21
-66.2629658136954
 31
0.0
  0
LINE
  5
   3BE
  8
0
  6
CONTINUOUS
 62
     1
 10
-54.4075502091369
 20
-74.312958703346
 30
0.0
 11
-54.4075502091369
 21
-66.2629648664703
 31
0.0
  0
LINE
  5
   3BF
  8
0
  6
CONTINUOUS
 62
     1
 10
-44.1524967831356
 20
-66.2629620969301
 30
0.0
 11
-44.1524967831356
 21
-29.5129925549008
 31
0.0
  0
LINE
  5
   3C0
  8
0
  6
CONTINUOUS
 62
     1
 10
-45.5875468379011
 20
-66.2629611496719
 30
0.0
 11
-45.5875468379011
 21
-29.5129916076634
 31
0.0
  0
LINE
  5
   3C1
  8
0
  6
CONTINUOUS
 62
     1
 10
-46.847548845385
 20
-66.262960202447
 30
0.0
 11
-46.847548845385
 21
-29.5129906604385
 31
0.0
  0
LINE
  5
   3C2
  8
0
  6
CONTINUOUS
 62
     1
 10
-48.1075508528688
 20
-66.262959255222
 30
0.0
 11
-48.1075508528688
 21
-29.5129897132136
 31
0.0
  0
LINE
  5
   3C3
  8
0
  6
CONTINUOUS
 62
     1
 10
-49.3675528603527
 20
-66.2629583079971
 30
0.0
 11
-49.3675528603527
 21
-29.5129887659886
 31
0.0
  0
LINE
  5
   3C4
  8
0
  6
CONTINUOUS
 62
     1
 10
-50.6275441866853
 20
-66.2629573607802
 30
0.0
 11
-50.6275441866853
 21
-29.5129878187717
 31
0.0
  0
LINE
  5
   3C5
  8
0
  6
CONTINUOUS
 62
     1
 10
-51.8875461941692
 20
-66.2629564135553
 30
0.0
 11
-51.8875461941692
 21
-29.5129868715468
 31
0.0
  0
LINE
  5
   3C6
  8
0
  6
CONTINUOUS
 62
     1
 10
-53.147548201653
 20
-66.2629554663302
 30
0.0
 11
-53.147548201653
 21
-29.5129859243217
 31
0.0
  0
LINE
  5
   3C7
  8
0
  6
CONTINUOUS
 62
     1
 10
-54.4075502091369
 20
-66.262954519105
 30
0.0
 11
-54.4075502091369
 21
-29.5129849770965
 31
0.0
  0
LINE
  5
   3C8
  8
0
  6
CONTINUOUS
 62
     1
 10
-44.1524967831356
 20
-29.5129925549008
 30
0.0
 11
-44.1524967831356
 21
-0.987979447841099
 31
0.0
  0
LINE
  5
   3C9
  8
0
  6
CONTINUOUS
 62
     1
 10
-45.5875468379011
 20
-29.5129916076634
 30
0.0
 11
-45.5875468379011
 21
-0.987978500619789
 31
0.0
  0
LINE
  5
   3CA
  8
0
  6
CONTINUOUS
 62
     1
 10
-46.8475488453849
 20
-29.5129906604385
 30
0.0
 11
-46.8475488453849
 21
-0.987977553394856
 31
0.0
  0
LINE
  5
   3CB
  8
0
  6
CONTINUOUS
 62
     1
 10
-48.1075508528688
 20
-29.5129897132136
 30
0.0
 11
-48.1075508528688
 21
-0.987976606169937
 31
0.0
  0
LINE
  5
   3CC
  8
0
  6
CONTINUOUS
 62
     1
 10
-49.3675528603527
 20
-29.5129887659886
 30
0.0
 11
-49.3675528603527
 21
-0.987975658945004
 31
0.0
  0
LINE
  5
   3CD
  8
0
  6
CONTINUOUS
 62
     1
 10
-50.6275441866853
 20
-29.5129878187717
 30
0.0
 11
-50.6275441866853
 21
-0.987974711728114
 31
0.0
  0
LINE
  5
   3CE
  8
0
  6
CONTINUOUS
 62
     1
 10
-51.8875461941692
 20
-29.5129868715468
 30
0.0
 11
-51.8875461941692
 21
-0.987973764503195
 31
0.0
  0
LINE
  5
   3CF
  8
0
  6
CONTINUOUS
 62
     1
 10
-53.147548201653
 20
-29.5129859243217
 30
0.0
 11
-53.147548201653
 21
-0.987972817278063
 31
0.0
  0
LINE
  5
   3D0
  8
0
  6
CONTINUOUS
 62
     1
 10
-54.4075502091369
 20
-29.5129849770965
 30
0.0
 11
-54.4075502091369
 21
-0.987971870052917
 31
0.0
  0
LINE
  5
   3D1
  8
0
  6
CONTINUOUS
 62
     1
 10
30.1525020331155
 20
-29.5129925549008
 30
0.0
 11
20.0900164127347
 21
-29.5129925549008
 31
0.0
  0
CIRCLE
  5
   3D2
  8
0
  6
CONTINUOUS
 62
     1
 10
5.73998149798036
 20
-98.2881278681542
 30
0.0
 40
1.57569269749607
  0
LINE
  5
   3D3
  8
0
  6
DASHDOT
 62
     1
 10
5.73998149798036
 20
-103.363820208022
 30
0.0
 11
5.73998149798036
 21
-89.0129602926967
 31
0.0
  0
LINE
  5
   3D4
  8
0
  6
DASHDOT
 62
     1
 10
10.8156738378486
 20
-98.2881278681542
 30
0.0
 11
0.664289158112153
 21
-98.2881278681542
 31
0.0
  0
LINE
  5
   3D5
  8
0
  6
CONTINUOUS
 62
     1
 10
4.28754419624511
 20
-114.037957735657
 30
0.0
 11
4.28754419624511
 21
-98.8990561466539
 31
0.0
  0
LINE
  5
   3D6
  8
0
  6
CONTINUOUS
 62
     1
 10
3.02757957278876
 20
-114.037957735657
 30
0.0
 11
3.02757957278876
 21
-89.0129602926967
 31
0.0
  0
LINE
  5
   3D7
  8
0
  6
CONTINUOUS
 62
     1
 10
1.76759358703059
 20
-114.037957735657
 30
0.0
 11
1.76759358703059
 21
-89.0129602926967
 31
0.0
  0
LINE
  5
   3D8
  8
0
  6
CONTINUOUS
 62
     1
 10
6.80753218948666
 20
-97.1291874046243
 30
0.0
 11
6.80753218948666
 21
-89.0129602926967
 31
0.0
  0
LINE
  5
   3D9
  8
0
  6
CONTINUOUS
 62
     1
 10
6.80753218948666
 20
-114.037957735657
 30
0.0
 11
6.80753218948666
 21
-99.4470683316841
 31
0.0
  0
LINE
  5
   3DA
  8
0
  6
CONTINUOUS
 62
     1
 10
8.0675822621474
 20
-114.037957735657
 30
0.0
 11
8.0675822621474
 21
-89.0129602926967
 31
0.0
  0
LINE
  5
   3DB
  8
0
  6
CONTINUOUS
 62
     1
 10
9.32758426963126
 20
-114.037957735657
 30
0.0
 11
9.32758426963126
 21
-89.0129602926967
 31
0.0
  0
LINE
  5
   3DC
  8
0
  6
CONTINUOUS
 62
     1
 10
10.5875862771151
 20
-114.037957735657
 30
0.0
 11
10.5875862771151
 21
-89.0129602926967
 31
0.0
  0
LINE
  5
   3DD
  8
0
  6
CONTINUOUS
 62
     1
 10
11.847588284599
 20
-114.037957735657
 30
0.0
 11
11.847588284599
 21
-89.0129602926967
 31
0.0
  0
LINE
  5
   3DE
  8
0
  6
CONTINUOUS
 62
     1
 10
13.1075796109316
 20
-114.037957735657
 30
0.0
 11
13.1075796109316
 21
-89.0129602926967
 31
0.0
  0
LINE
  5
   3DF
  8
0
  6
CONTINUOUS
 62
     1
 10
14.3675816184155
 20
-114.037957735657
 30
0.0
 11
14.3675816184155
 21
-89.0129602926967
 31
0.0
  0
LINE
  5
   3E0
  8
0
  6
CONTINUOUS
 62
     1
 10
15.6275836258993
 20
-114.037957735657
 30
0.0
 11
15.6275836258993
 21
-89.0129602926967
 31
0.0
  0
LINE
  5
   3E1
  8
0
  6
CONTINUOUS
 62
     1
 10
16.8875856333832
 20
-114.037957735657
 30
0.0
 11
16.8875856333832
 21
-89.0129602926967
 31
0.0
  0
LINE
  5
   3E2
  8
0
  6
CONTINUOUS
 62
     2
 10
18.1475096684699
 20
-114.037957735657
 30
0.0
 11
18.1475096684699
 21
-89.0129602926967
 31
0.0
  0
LINE
  5
   3E3
  8
0
  6
CONTINUOUS
 62
     2
 10
19.4075095397238
 20
-114.037957735657
 30
0.0
 11
19.4075095397238
 21
-89.0129602926967
 31
0.0
  0
LINE
  5
   3E4
  8
0
  6
CONTINUOUS
 62
     2
 10
20.6675008660568
 20
-114.037957735657
 30
0.0
 11
20.6675008660568
 21
-89.0129602926967
 31
0.0
  0
LINE
  5
   3E5
  8
0
  6
CONTINUOUS
 62
     2
 10
21.9274921923898
 20
-114.037957735657
 30
0.0
 11
21.9274921923898
 21
-89.0129602926967
 31
0.0
  0
LINE
  5
   3E6
  8
0
  6
CONTINUOUS
 62
     2
 10
23.1875048810252
 20
-114.037957735657
 30
0.0
 11
23.1875048810252
 21
-89.0129602926967
 31
0.0
  0
LINE
  5
   3E7
  8
0
  6
CONTINUOUS
 62
     2
 10
24.4474962073582
 20
-114.037957735657
 30
0.0
 11
24.4474962073582
 21
-89.0129602926967
 31
0.0
  0
LINE
  5
   3E8
  8
0
  6
CONTINUOUS
 62
     2
 10
25.7075088959937
 20
-114.037957735657
 30
0.0
 11
25.7075088959937
 21
-89.0129602926967
 31
0.0
  0
LINE
  5
   3E9
  8
0
  6
CONTINUOUS
 62
     2
 10
26.9675002223266
 20
-114.037957735657
 30
0.0
 11
26.9675002223266
 21
-89.0129602926967
 31
0.0
  0
LINE
  5
   3EA
  8
0
  6
CONTINUOUS
 62
     2
 10
28.2274915486596
 20
-114.037957735657
 30
0.0
 11
28.2274915486596
 21
-89.0129602926967
 31
0.0
  0
LINE
  5
   3EB
  8
0
  6
CONTINUOUS
 62
     2
 10
29.4875042372951
 20
-114.037957735657
 30
0.0
 11
29.4875042372951
 21
-89.0129602926967
 31
0.0
  0
LINE
  5
   3EC
  8
0
  6
CONTINUOUS
 62
     1
 10
5.54753018200245
 20
-114.037957735657
 30
0.0
 11
5.54753018200245
 21
-99.8520236344766
 31
0.0
  0
LINE
  5
   3ED
  8
0
  6
CONTINUOUS
 62
     1
 10
5.54753018200245
 20
-96.7242321018319
 30
0.0
 11
5.54753018200245
 21
-89.0129602926967
 31
0.0
  0
LINE
  5
   3EE
  8
0
  6
CONTINUOUS
 62
     7
 10
-24.2183921561998
 20
-39.1439076183495
 30
0.0
 11
-24.4220284990288
 21
-39.1439076183495
 31
0.0
  0
ARC
  5
   3EF
  8
0
  6
CONTINUOUS
 62
     7
 10
-25.3224829524754
 20
-38.3548167898874
 30
0.0
 40
0.661818114194003
 50
359.999999948034
 51
539.999999948034
  0
ARC
  5
   3F0
  8
0
  6
CONTINUOUS
 62
     7
 10
-25.3224829524754
 20
-38.3548167898874
 30
0.0
 40
0.458181771365079
 50
359.999999948034
 51
539.999999948034
  0
ARC
  5
   3F1
  8
0
  6
CONTINUOUS
 62
     7
 10
-25.3224829524754
 20
-38.4820895041555
 30
0.0
 40
0.661818114194002
 50
179.999999948034
 51
359.999999948034
  0
ARC
  5
   3F2
  8
0
  6
CONTINUOUS
 62
     7
 10
-25.3224829524754
 20
-38.4820895041555
 30
0.0
 40
0.458181771365078
 50
179.999999948034
 51
359.999999948034
  0
LINE
  5
   3F3
  8
0
  6
CONTINUOUS
 62
     7
 10
-24.8643011811103
 20
-38.4820895041555
 30
0.0
 11
-24.8643011811103
 21
-38.3548167898874
 31
0.0
  0
LINE
  5
   3F4
  8
0
  6
CONTINUOUS
 62
     7
 10
-24.6606648382814
 20
-38.4820895041555
 30
0.0
 11
-24.6606648382814
 21
-38.3548167898874
 31
0.0
  0
LINE
  5
   3F5
  8
0
  6
CONTINUOUS
 62
     7
 10
-25.7806647238405
 20
-38.4820895041555
 30
0.0
 11
-25.7806647238405
 21
-38.3548167898874
 31
0.0
  0
LINE
  5
   3F6
  8
0
  6
CONTINUOUS
 62
     7
 10
-25.9843010666694
 20
-38.4820895041555
 30
0.0
 11
-25.9843010666694
 21
-38.3548167898874
 31
0.0
  0
LINE
  5
   3F7
  8
0
  6
CONTINUOUS
 62
     7
 10
-24.4220284990288
 20
-39.1439076183495
 30
0.0
 11
-24.4220284990288
 21
-37.6929986756934
 31
0.0
  0
LINE
  5
   3F8
  8
0
  6
CONTINUOUS
 62
     7
 10
-24.2183921561998
 20
-39.1439076183495
 30
0.0
 11
-24.2183921561998
 21
-38.2529986184729
 31
0.0
  0
LINE
  5
   3F9
  8
0
  6
CONTINUOUS
 62
     7
 10
-23.5056649562986
 20
-39.1439076183495
 30
0.0
 11
-23.5056649562986
 21
-38.2529986184729
 31
0.0
  0
LINE
  5
   3FA
  8
0
  6
CONTINUOUS
 62
     7
 10
-23.3020286134697
 20
-39.1439076183495
 30
0.0
 11
-23.3020286134697
 21
-38.2020895327657
 31
0.0
  0
LINE
  5
   3FB
  8
0
  6
CONTINUOUS
 62
     7
 10
-24.2183921561998
 20
-37.6929986756934
 30
0.0
 11
-24.4220284990288
 21
-37.6929986756934
 31
0.0
  0
ARC
  5
   3FC
  8
0
  6
CONTINUOUS
 62
     7
 10
-23.8620285562492
 20
-38.2529986184729
 30
0.0
 40
0.356363599950617
 50
359.999999948034
 51
539.999999948034
  0
LINE
  5
   3FD
  8
0
  6
CONTINUOUS
 62
     7
 10
-24.2183921561998
 20
-37.8966350185223
 30
0.0
 11
-24.2183921561998
 21
-37.6929986756934
 31
0.0
  0
ARC
  5
   3FE
  8
0
  6
CONTINUOUS
 62
     7
 10
-23.811119470542
 20
-38.2020895327657
 30
0.0
 40
0.50909085707231
 50
359.999999948034
 51
503.13010230219
  0
LINE
  5
   3FF
  8
0
  6
CONTINUOUS
 62
     7
 10
-23.3020286134697
 20
-39.1439076183495
 30
0.0
 11
-23.5056649562986
 21
-39.1439076183495
 31
0.0
  0
LINE
  5
   400
  8
0
  6
CONTINUOUS
 62
     7
 10
-23.874755827676
 20
-60.8288540324941
 30
0.0
 11
-23.9893012705173
 21
-60.8288540324941
 31
0.0
  0
LINE
  5
   401
  8
0
  6
CONTINUOUS
 62
     7
 10
-24.1165739847854
 20
-62.7888538322225
 30
0.0
 11
-24.3202103276143
 21
-62.7888538322225
 31
0.0
  0
LINE
  5
   402
  8
0
  6
CONTINUOUS
 62
     7
 10
-25.9843010666694
 20
-62.1270357180285
 30
0.0
 11
-25.9843010666694
 21
-61.9997630037604
 31
0.0
  0
LINE
  5
   403
  8
0
  6
CONTINUOUS
 62
     7
 10
-24.6606648382814
 20
-62.1270357180285
 30
0.0
 11
-24.6606648382814
 21
-61.9997630037604
 31
0.0
  0
ARC
  5
   404
  8
0
  6
CONTINUOUS
 62
     7
 10
-25.3224829524754
 20
-61.9997630037604
 30
0.0
 40
0.661818114194003
 50
359.999999948034
 51
539.999999948034
  0
ARC
  5
   405
  8
0
  6
CONTINUOUS
 62
     7
 10
-25.3224829524754
 20
-62.1270357180285
 30
0.0
 40
0.661818114194002
 50
179.999999948034
 51
359.999999948034
  0
ARC
  5
   406
  8
0
  6
CONTINUOUS
 62
     7
 10
-25.3224829524754
 20
-61.9997630037604
 30
0.0
 40
0.458181771365079
 50
359.999999948034
 51
539.999999948034
  0
ARC
  5
   407
  8
0
  6
CONTINUOUS
 62
     7
 10
-25.3224829524754
 20
-62.1270357180285
 30
0.0
 40
0.458181771365078
 50
179.999999948034
 51
359.999999948034
  0
LINE
  5
   408
  8
0
  6
CONTINUOUS
 62
     7
 10
-25.7806647238405
 20
-62.1270357180285
 30
0.0
 11
-25.7806647238405
 21
-61.9997630037604
 31
0.0
  0
LINE
  5
   409
  8
0
  6
CONTINUOUS
 62
     7
 10
-24.8643011811103
 20
-62.1270357180285
 30
0.0
 11
-24.8643011811103
 21
-61.9997630037604
 31
0.0
  0
LINE
  5
   40A
  8
0
  6
CONTINUOUS
 62
     7
 10
-24.5620284847237
 20
-61.6433994038098
 30
0.0
 11
-24.5620284847237
 21
-61.4397630609809
 31
0.0
  0
LINE
  5
   40B
  8
0
  6
CONTINUOUS
 62
     7
 10
-24.3202103276143
 20
-61.6433994038098
 30
0.0
 11
-24.5620284847237
 21
-61.6433994038098
 31
0.0
  0
LINE
  5
   40C
  8
0
  6
CONTINUOUS
 62
     7
 10
-23.874755827676
 20
-61.6433994038098
 30
0.0
 11
-23.874755827676
 21
-61.4397630609809
 31
0.0
  0
LINE
  5
   40D
  8
0
  6
CONTINUOUS
 62
     7
 10
-24.3202103276143
 20
-61.4397630609808
 30
0.0
 11
-24.5620284847237
 21
-61.4397630609808
 31
0.0
  0
LINE
  5
   40E
  8
0
  6
CONTINUOUS
 62
     7
 10
-24.3202103276143
 20
-62.7888538322225
 30
0.0
 11
-24.3202103276143
 21
-61.6433994038098
 31
0.0
  0
LINE
  5
   40F
  8
0
  6
CONTINUOUS
 62
     7
 10
-24.1165739847854
 20
-62.7888538322225
 30
0.0
 11
-24.1165739847854
 21
-61.6433994038098
 31
0.0
  0
LINE
  5
   410
  8
0
  6
CONTINUOUS
 62
     7
 10
-23.874755827676
 20
-61.6433994038098
 30
0.0
 11
-24.1165739847854
 21
-61.6433994038098
 31
0.0
  0
LINE
  5
   411
  8
0
  6
CONTINUOUS
 62
     7
 10
-23.874755827676
 20
-61.4397630609808
 30
0.0
 11
-24.1165739847854
 21
-61.4397630609808
 31
0.0
  0
LINE
  5
   412
  8
0
  6
CONTINUOUS
 62
     7
 10
-24.3202103276143
 20
-61.4397630609809
 30
0.0
 11
-24.3202103276143
 21
-61.1597630895911
 31
0.0
  0
LINE
  5
   413
  8
0
  6
CONTINUOUS
 62
     7
 10
-24.1165739847854
 20
-61.4397630609809
 30
0.0
 11
-24.1165739847854
 21
-61.1597630895911
 31
0.0
  0
ARC
  5
   414
  8
0
  6
CONTINUOUS
 62
     7
 10
-23.9893012705173
 20
-61.1597630895911
 30
0.0
 40
0.330909057097001
 50
449.999999948034
 51
539.999999948034
  0
ARC
  5
   415
  8
0
  6
CONTINUOUS
 62
     7
 10
-23.9893012705173
 20
-61.1597630895911
 30
0.0
 40
0.127272714268077
 50
449.999999948034
 51
539.999999948034
  0
LINE
  5
   416
  8
0
  6
CONTINUOUS
 62
     7
 10
-23.874755827676
 20
-61.032490375323
 30
0.0
 11
-23.874755827676
 21
-60.8288540324941
 31
0.0
  0
LINE
  5
   417
  8
0
  6
CONTINUOUS
 62
     7
 10
-23.874755827676
 20
-61.032490375323
 30
0.0
 11
-23.9893012705173
 21
-61.032490375323
 31
0.0
  0
LINE
  5
   418
  8
0
  6
CONTINUOUS
 62
     7
 10
-23.0252104599366
 20
-60.8288540324941
 30
0.0
 11
-23.1397559027779
 21
-60.8288540324941
 31
0.0
  0
LINE
  5
   419
  8
0
  6
CONTINUOUS
 62
     7
 10
-23.267028617046
 20
-62.7888538322225
 30
0.0
 11
-23.4706649598749
 21
-62.7888538322225
 31
0.0
  0
LINE
  5
   41A
  8
0
  6
CONTINUOUS
 62
     7
 10
-23.7124831169842
 20
-61.6433994038098
 30
0.0
 11
-23.7124831169842
 21
-61.4397630609809
 31
0.0
  0
LINE
  5
   41B
  8
0
  6
CONTINUOUS
 62
     7
 10
-23.4706649598749
 20
-61.6433994038098
 30
0.0
 11
-23.7124831169842
 21
-61.6433994038098
 31
0.0
  0
LINE
  5
   41C
  8
0
  6
CONTINUOUS
 62
     7
 10
-23.0252104599366
 20
-61.6433994038098
 30
0.0
 11
-23.0252104599366
 21
-61.4397630609809
 31
0.0
  0
LINE
  5
   41D
  8
0
  6
CONTINUOUS
 62
     7
 10
-23.4706649598749
 20
-61.4397630609808
 30
0.0
 11
-23.7124831169842
 21
-61.4397630609808
 31
0.0
  0
LINE
  5
   41E
  8
0
  6
CONTINUOUS
 62
     7
 10
-23.4706649598749
 20
-62.7888538322225
 30
0.0
 11
-23.4706649598749
 21
-61.6433994038098
 31
0.0
  0
LINE
  5
   41F
  8
0
  6
CONTINUOUS
 62
     7
 10
-23.267028617046
 20
-62.7888538322225
 30
0.0
 11
-23.267028617046
 21
-61.6433994038098
 31
0.0
  0
LINE
  5
   420
  8
0
  6
CONTINUOUS
 62
     7
 10
-23.0252104599366
 20
-61.6433994038098
 30
0.0
 11
-23.267028617046
 21
-61.6433994038098
 31
0.0
  0
LINE
  5
   421
  8
0
  6
CONTINUOUS
 62
     7
 10
-23.0252104599366
 20
-61.4397630609808
 30
0.0
 11
-23.267028617046
 21
-61.4397630609808
 31
0.0
  0
LINE
  5
   422
  8
0
  6
CONTINUOUS
 62
     7
 10
-23.4706649598749
 20
-61.4397630609809
 30
0.0
 11
-23.4706649598749
 21
-61.1597630895911
 31
0.0
  0
LINE
  5
   423
  8
0
  6
CONTINUOUS
 62
     7
 10
-23.267028617046
 20
-61.4397630609809
 30
0.0
 11
-23.267028617046
 21
-61.1597630895911
 31
0.0
  0
ARC
  5
   424
  8
0
  6
CONTINUOUS
 62
     7
 10
-23.1397559027779
 20
-61.1597630895911
 30
0.0
 40
0.330909057097001
 50
449.999999948034
 51
539.999999948034
  0
ARC
  5
   425
  8
0
  6
CONTINUOUS
 62
     7
 10
-23.1397559027779
 20
-61.1597630895911
 30
0.0
 40
0.127272714268077
 50
449.999999948034
 51
539.999999948034
  0
LINE
  5
   426
  8
0
  6
CONTINUOUS
 62
     7
 10
-23.0252104599366
 20
-61.032490375323
 30
0.0
 11
-23.0252104599366
 21
-60.8288540324941
 31
0.0
  0
LINE
  5
   427
  8
0
  6
CONTINUOUS
 62
     7
 10
-23.0252104599366
 20
-61.032490375323
 30
0.0
 11
-23.1397559027779
 21
-61.032490375323
 31
0.0
  0
LINE
  5
   428
  8
0
  6
CONTINUOUS
 62
     1
 10
-33.1099781513217
 20
-74.3129662811756
 30
0.0
 11
-67.7599661815567
 21
-74.3129662811756
 31
0.0
  0
LINE
  5
   429
  8
0
  6
CONTINUOUS
 62
     1
 10
-33.1099781513217
 20
-74.6629662454129
 30
0.0
 11
-42.1638907241231
 21
-74.6629662454129
 31
0.0
  0
LINE
  5
   42A
  8
0
  6
CONTINUOUS
 62
     1
 10
-33.1099781513217
 20
-74.8379638910296
 30
0.0
 11
-67.7599661077242
 21
-74.8379638910296
 31
0.0
  0
TEXT
  5
   42B
  8
0
  6
CONTINUOUS
 62
     7
 10
-78.8760564701394
 20
-58.0239252211628
 30
0.0
 40
3.00000001532688
  1
=       =
 50
89.9999999480344
 41
0.916666680375734
 72
     1
 11
-80.3760564668437
 21
-45.9239249788739
 31
0.0
 73
     2
  0
TEXT
  5
   42C
  8
0
  6
CONTINUOUS
 62
     7
 10
-18.8771864646162
 20
-123.377340096525
 30
0.0
 40
3.00000001532688
  1
=       =
 50
359.999999948034
 41
0.916666680375734
 72
     1
 11
-6.77718622233297
 21
-121.877340099775
 31
0.0
 73
     2
  0
INSERT
  5
   42D
  8
0
  6
CONTINUOUS
 62
     7
  2
*UDIM0
 10
0.0
 20
0.0
 30
0.0
  0
INSERT
  5
   42E
  8
0
  6
CONTINUOUS
 62
     7
  2
*UDIM1
 10
0.0
 20
0.0
 30
0.0
  0
TEXT
  5
   42F
  8
0
  6
CONTINUOUS
 62
     7
 10
-68.4297335382654
 20
-56.7356779240458
 30
0.0
 40
3.00000001532688
  1
=     =
 50
89.9999999480344
 41
0.916666616797451
 72
     2
 11
-68.4297335213286
 21
-38.0356788429792
 31
0.0
  0
INSERT
  5
   430
  8
0
  6
CONTINUOUS
 62
     7
  2
*UDIM2
 10
0.0
 20
0.0
 30
0.0
  0
INSERT
  5
   431
  8
0
  6
CONTINUOUS
 62
     7
  2
*UDIM3
 10
0.0
 20
0.0
 30
0.0
  0
INSERT
  5
   432
  8
0
  6
CONTINUOUS
 62
     7
  2
*UDIM4
 10
0.0
 20
0.0
 30
0.0
  0
INSERT
  5
   433
  8
0
  6
CONTINUOUS
 62
     7
  2
*UDIM5
 10
0.0
 20
0.0
 30
0.0
  0
INSERT
  5
   434
  8
0
  6
CONTINUOUS
 62
     7
  2
*UDIM6
 10
0.0
 20
0.0
 30
0.0
  0
INSERT
  5
   435
  8
0
  6
CONTINUOUS
 62
     7
  2
*UDIM7
 10
0.0
 20
0.0
 30
0.0
  0
TEXT
  5
   436
  8
0
  6
CONTINUOUS
 62
     7
 10
-21.4451430238717
 20
30.8329599123125
 30
0.0
 40
3.00000001532688
  1
=         =
 50
359.999999948034
 41
0.916666616797451
 72
     2
 11
8.25485551496284
 21
30.8329598855247
 31
0.0
  0
TEXT
  5
   437
  8
0
  6
CONTINUOUS
 62
     7
 10
-7.84921706735023
 20
50.3985646841118
 30
0.0
 40
3.00000001532688
  1
Y
 50
359.999999948034
 41
0.916666616797451
 72
     2
 11
-5.64921717293561
 21
50.3985646821275
 31
0.0
  0
TEXT
  5
   438
  8
0
  6
CONTINUOUS
 62
     7
 10
55.6398245210535
 20
-47.4248471800917
 30
0.0
 40
3.00000001532688
  1
X
 50
359.999999948034
 41
0.916666616797451
 72
     2
 11
57.8398244154681
 21
-47.424847182076
 31
0.0
  0
TEXT
  5
   439
  8
0
  6
CONTINUOUS
 62
     7
 10
-90.6311718856027
 20
-46.0904002186664
 30
0.0
 40
3.00000001532688
  1
X
 50
359.999999948034
 41
0.916666616797451
 72
     2
 11
-88.4311719911881
 21
-46.0904002206507
 31
0.0
  0
TEXT
  5
   43A
  8
0
  6
CONTINUOUS
 62
     7
 10
-7.23720022892998
 20
-139.175951593099
 30
0.0
 40
3.00000001532688
  1
Y
 50
359.999999948034
 41
0.916666616797451
 72
     2
 11
-5.03720033451536
 21
-139.175951595083
 31
0.0
  0
INSERT
  5
   43B
  8
255
  6
CONTINUOUS
 62
     7
  2
MOSTRA
 10
-6.50997552871784
 20
-71.3379807710634
 30
0.0
 41
0.349999964237213
 42
0.349999964237213
 50
359.999999792138
 43
0.349999964237213
  0
LINE
  5
   43C
  8
0
  6
CONTINUOUS
 62
   130
 10
67.1074809510339
 20
28.0620176034822
 30
0.0
 11
67.1074819523917
 21
1.28702033933537
 31
0.0
  0
LINE
  5
   43D
  8
0
  6
CONTINUOUS
 62
   130
 10
100.182457321888
 20
1.28700021398274
 30
0.0
 11
100.18245817186
 21
2.70744193374341
 31
0.0
  0
LINE
  5
   43E
  8
0
  6
CONTINUOUS
 62
   130
 10
68.1574744651089
 20
-38.7879739732293
 30
0.0
 11
68.4199747693212
 21
-38.7176386032537
 31
0.0
  0
LINE
  5
   43F
  8
0
  6
CONTINUOUS
 62
   130
 10
66.5824813842773
 20
-71.3379808905848
 30
0.0
 11
101.582456445702
 21
-71.3379669189422
 31
0.0
  0
LINE
  5
   440
  8
0
  6
CONTINUOUS
 62
   130
 10
101.582445764666
 20
-34.587954652073
 30
0.0
 11
101.582451105241
 21
-36.337954473259
 31
0.0
  0
LINE
  5
   441
  8
0
  6
CONTINUOUS
 62
   130
 10
101.582445764548
 20
-40.8879425294253
 30
0.0
 11
101.582451105122
 21
-71.3379714615166
 31
0.0
  0
LINE
  5
   442
  8
0
  6
CONTINUOUS
 62
   130
 10
67.1074817123547
 20
1.28701499325616
 30
0.0
 11
67.1074827137126
 21
-35.9159368328099
 31
0.0
  0
LINE
  5
   443
  8
0
  6
CONTINUOUS
 62
   130
 10
67.1074820326167
 20
-55.587968540544
 30
0.0
 11
67.1074823664027
 21
-41.3099609662591
 31
0.0
  0
LINE
  5
   444
  8
0
  6
CONTINUOUS
 62
   130
 10
67.1074819071732
 20
-60.8379699399251
 30
0.0
 11
67.1074829085308
 21
-70.4629689564485
 31
0.0
  0
LINE
  5
   445
  8
0
  6
CONTINUOUS
 62
   130
 10
67.107482999563
 20
-70.4629686772822
 30
0.0
 11
67.4574806272984
 21
-70.4629686772822
 31
0.0
  0
LINE
  5
   446
  8
0
  6
CONTINUOUS
 62
   130
 10
67.4574809610844
 20
-41.2161857865658
 30
0.0
 11
67.4574809610844
 21
-38.7879755854601
 31
0.0
  0
LINE
  5
   447
  8
0
  6
CONTINUOUS
 62
   130
 10
67.4574809610844
 20
-36.5129704773426
 30
0.0
 11
67.4574809610844
 21
-36.0097387172391
 31
0.0
  0
LINE
  5
   448
  8
0
  6
CONTINUOUS
 62
   130
 10
66.5824813842773
 20
-55.5879685282707
 30
0.0
 11
67.1074823319911
 21
-55.5879685282707
 31
0.0
  0
LINE
  5
   449
  8
0
  6
CONTINUOUS
 62
   130
 10
66.5824813842773
 20
-60.8379679918289
 30
0.0
 11
67.1074819982051
 21
-60.8379679918289
 31
0.0
  0
LINE
  5
   44A
  8
0
  6
CONTINUOUS
 62
   130
 10
66.5824813842773
 20
-60.8379679918289
 30
0.0
 11
66.5824813842773
 21
-55.5879685282707
 31
0.0
  0
LINE
  5
   44B
  8
0
  6
CONTINUOUS
 62
   130
 10
68.1574744651089
 20
-38.7879739732293
 30
0.0
 11
68.4199747693212
 21
-38.7176386032537
 31
0.0
  0
LINE
  5
   44C
  8
0
  6
CONTINUOUS
 62
   130
 10
68.419977772892
 20
-38.7176472925722
 30
0.0
 11
68.6121410265471
 21
-38.5254827106642
 31
0.0
  0
LINE
  5
   44D
  8
0
  6
CONTINUOUS
 62
   130
 10
68.6121447175628
 20
-38.5254798247166
 30
0.0
 11
68.6824644085871
 21
-38.2629958818465
 31
0.0
  0
LINE
  5
   44E
  8
0
  6
CONTINUOUS
 62
   130
 10
68.6824634790425
 20
-38.2629714429182
 30
0.0
 11
68.6824641466144
 21
-37.037971568088
 31
0.0
  0
LINE
  5
   44F
  8
0
  6
CONTINUOUS
 62
   130
 10
68.6121370932265
 20
-36.7754785438627
 30
0.0
 11
68.6824621180995
 21
-37.0379785095919
 31
0.0
  0
LINE
  5
   450
  8
0
  6
CONTINUOUS
 62
   130
 10
68.4199732787638
 20
-36.5833166121668
 30
0.0
 11
68.6121365350926
 21
-36.775475851396
 31
0.0
  0
LINE
  5
   451
  8
0
  6
CONTINUOUS
 62
   130
 10
68.1574756214498
 20
-36.512978016034
 30
0.0
 11
68.419975592703
 21
-36.5833187314157
 31
0.0
  0
LINE
  5
   452
  8
0
  6
CONTINUOUS
 62
   130
 10
67.4574809610844
 20
-36.5129704773426
 30
0.0
 11
68.1574758827692
 21
-36.5129704773426
 31
0.0
  0
LINE
  5
   453
  8
0
  6
CONTINUOUS
 62
   130
 10
67.4574809610844
 20
-38.7879702448845
 30
0.0
 11
68.1574758827692
 21
-38.7879702448845
 31
0.0
  0
LINE
  5
   454
  8
0
  6
CONTINUOUS
 62
   130
 10
100.182456719002
 20
-34.5879863570892
 30
0.0
 11
100.182466045459
 21
28.0619365762405
 31
0.0
  0
LINE
  5
   455
  8
0
  6
CONTINUOUS
 62
   130
 10
100.182456588747
 20
-34.5879813551892
 30
0.0
 11
101.582445764545
 21
-34.5879813551892
 31
0.0
  0
LINE
  5
   456
  8
0
  6
CONTINUOUS
 62
   130
 10
100.182448776872
 20
-17.4630819169901
 30
0.0
 11
100.357454094275
 21
-17.416191666798
 31
0.0
  0
LINE
  5
   457
  8
0
  6
CONTINUOUS
 62
   130
 10
100.182444656863
 20
-20.2128190701586
 30
0.0
 11
100.357455318881
 21
-20.2597146550971
 31
0.0
  0
LINE
  5
   458
  8
0
  6
CONTINUOUS
 62
   130
 10
67.45748035487
 20
-70.4629687386398
 30
0.0
 11
91.2574779230005
 21
-70.4629704075685
 31
0.0
  0
LINE
  5
   459
  8
0
  6
CONTINUOUS
 62
   130
 10
91.2574788630009
 20
-71.3379650351308
 30
0.0
 11
91.2574788630009
 21
-70.4629704651134
 31
0.0
  0
LINE
  5
   45A
  8
0
  6
CONTINUOUS
 62
   130
 10
69.9886704703616
 20
-36.6879514260636
 30
0.0
 11
101.232447795469
 21
-36.6879727883655
 31
0.0
  0
LINE
  5
   45B
  8
0
  6
CONTINUOUS
 62
   130
 10
69.9886675042161
 20
-40.5379510326718
 30
0.0
 11
101.232444829324
 21
-40.5379723949737
 31
0.0
  0
LINE
  5
   45C
  8
0
  6
CONTINUOUS
 62
   130
 10
67.1074844756621
 20
-35.9159408684897
 30
0.0
 11
67.4574809610844
 21
-36.009722188093
 31
0.0
  0
LINE
  5
   45D
  8
0
  6
CONTINUOUS
 62
   130
 10
67.1074772958121
 20
-41.30996540113
 30
0.0
 11
67.4574809610844
 21
-41.2161820928975
 31
0.0
  0
LINE
  5
   45E
  8
0
  6
CONTINUOUS
 62
   130
 10
101.232471998262
 20
-36.6879536763831
 30
0.0
 11
101.582461270569
 21
-36.3379590641953
 31
0.0
  0
LINE
  5
   45F
  8
0
  6
CONTINUOUS
 62
   130
 10
101.232447700261
 20
-40.5379675067023
 30
0.0
 11
101.582447652518
 21
-40.8879674589595
 31
0.0
  0
LINE
  5
   460
  8
0
  6
CONTINUOUS
 62
   130
 10
100.357542020076
 20
-0.812963443995613
 30
0.0
 11
100.357542020076
 21
28.0619361263132
 31
0.0
  0
LINE
  5
   461
  8
0
  6
CONTINUOUS
 62
     1
 10
100.357542020076
 20
28.0619374752132
 30
0.0
 11
101.582520532604
 21
28.0619374752132
 31
0.0
  0
LINE
  5
   462
  8
0
  6
CONTINUOUS
 62
   130
 10
114.707561916104
 20
-0.462979501485279
 30
0.0
 11
114.88240702153
 21
-0.462979501485279
 31
0.0
  0
LINE
  5
   463
  8
0
  6
CONTINUOUS
 62
     1
 10
110.507551664106
 20
28.0619374752132
 30
0.0
 11
111.557562237969
 21
28.0619374752132
 31
0.0
  0
LINE
  5
   464
  8
0
  6
CONTINUOUS
 62
   130
 10
115.05756138101
 20
27.6244316638513
 30
0.0
 11
115.057582743311
 21
-0.462953314096936
 31
0.0
  0
LINE
  5
   465
  8
0
  6
CONTINUOUS
 62
   130
 10
114.00747653842
 20
-0.81296894359447
 30
0.0
 11
114.707556904833
 21
-0.81294758166932
 31
0.0
  0
LINE
  5
   466
  8
0
  6
CONTINUOUS
 62
   130
 10
112.852464907171
 20
-0.812963443995613
 30
0.0
 11
114.00747653842
 21
-0.812963443995613
 31
0.0
  0
LINE
  5
   467
  8
0
  6
CONTINUOUS
 62
     1
 10
111.557562237969
 20
28.0619374752132
 30
0.0
 11
114.182497882841
 21
28.0619374752132
 31
0.0
  0
LINE
  5
   468
  8
0
  6
CONTINUOUS
 62
     1
 10
101.582520532604
 20
28.0619374752132
 30
0.0
 11
110.507551664106
 21
28.0619374752132
 31
0.0
  0
LINE
  5
   469
  8
0
  6
CONTINUOUS
 62
   130
 10
114.707561916104
 20
-0.462952798607148
 30
0.0
 11
115.057583242644
 21
-0.462952798607148
 31
0.0
  0
LINE
  5
   46A
  8
0
  6
CONTINUOUS
 62
   130
 10
114.707561916104
 20
-0.812947422268735
 30
0.0
 11
114.707561916104
 21
-0.462952798607148
 31
0.0
  0
LINE
  5
   46B
  8
0
  6
CONTINUOUS
 62
     1
 10
114.62001120917
 20
28.0618156308088
 30
0.0
 11
114.929369390937
 21
27.9336418285406
 31
0.0
  0
LINE
  5
   46C
  8
0
  6
CONTINUOUS
 62
     1
 10
114.929435739251
 20
27.9337134967669
 30
0.0
 11
115.057577509999
 21
27.6243873700673
 31
0.0
  0
LINE
  5
   46D
  8
0
  6
CONTINUOUS
 62
   130
 10
100.707563346616
 20
-0.462947458031522
 30
0.0
 11
100.707563346616
 21
28.0619374752132
 31
0.0
  0
LINE
  5
   46E
  8
0
  6
CONTINUOUS
 62
   130
 10
100.707558339839
 20
-0.462949794558114
 30
0.0
 11
114.707556909327
 21
-0.462955135133427
 31
0.0
  0
LINE
  5
   46F
  8
0
  6
CONTINUOUS
 62
   130
 10
114.707471126319
 20
-74.662963908911
 30
0.0
 11
114.707471126319
 21
-74.3129662811756
 31
0.0
  0
LINE
  5
   470
  8
0
  6
CONTINUOUS
 62
   130
 10
113.30746614548
 20
-0.987979048734445
 30
0.0
 11
113.307471486052
 21
-74.312966215855
 31
0.0
  0
LINE
  5
   471
  8
0
  6
CONTINUOUS
 62
   130
 10
112.957466205584
 20
-0.987976753770624
 30
0.0
 11
112.957471546156
 21
-74.6629638851284
 31
0.0
  0
LINE
  5
   472
  8
0
  6
CONTINUOUS
 62
   130
 10
112.957465964557
 20
-0.987974107265472
 30
0.0
 11
113.30746614548
 21
-0.987974107265472
 31
0.0
  0
LINE
  5
   473
  8
0
  6
CONTINUOUS
 62
   130
 10
112.957471305132
 20
-74.662963908911
 30
0.0
 11
113.657476574183
 21
-74.662963908911
 31
0.0
  0
LINE
  5
   474
  8
0
  6
CONTINUOUS
 62
   130
 10
113.30746614548
 20
-0.987974107265472
 30
0.0
 11
115.057471090556
 21
-0.987974107265472
 31
0.0
  0
LINE
  5
   475
  8
0
  6
CONTINUOUS
 62
   130
 10
115.057471090556
 20
-74.3129662811756
 30
0.0
 11
115.057471090556
 21
-66.262977784871
 31
0.0
  0
LINE
  5
   476
  8
0
  6
CONTINUOUS
 62
   130
 10
115.057471090556
 20
-29.5129925549008
 30
0.0
 11
115.057471090556
 21
-0.987979447841099
 31
0.0
  0
LINE
  5
   477
  8
0
  6
CONTINUOUS
 62
   130
 10
115.669967388009
 20
-29.513000744914
 30
0.0
 11
115.75746203615
 21
-29.6005007328973
 31
0.0
  0
LINE
  5
   478
  8
0
  6
CONTINUOUS
 62
   130
 10
115.669959555882
 20
-66.2629762061731
 30
0.0
 11
115.757459543946
 21
-66.175475886202
 31
0.0
  0
LINE
  5
   479
  8
0
  6
CONTINUOUS
 62
   130
 10
115.75747101903
 20
-66.175472787022
 30
0.0
 11
115.75747101903
 21
-29.6004978865358
 31
0.0
  0
LINE
  5
   47A
  8
0
  6
CONTINUOUS
 62
   130
 10
113.30747126937
 20
-74.3129662811756
 30
0.0
 11
114.707471126319
 21
-74.3129662811756
 31
0.0
  0
LINE
  5
   47B
  8
0
  6
CONTINUOUS
 62
   130
 10
101.582456445696
 20
-40.8879967331859
 30
0.0
 11
101.582456445696
 21
-36.3380078792534
 31
0.0
  0
LINE
  5
   47C
  8
0
  6
CONTINUOUS
 62
   130
 10
101.582456445696
 20
-34.5880133986429
 30
0.0
 11
101.582456445696
 21
-34.2380080938301
 31
0.0
  0
LINE
  5
   47D
  8
0
  6
CONTINUOUS
 62
   130
 10
101.582456445696
 20
-71.3379669189451
 30
0.0
 11
112.957471305132
 21
-71.3379669189451
 31
0.0
  0
LINE
  5
   47E
  8
0
  6
CONTINUOUS
 62
   130
 10
114.00747653842
 20
-0.987974107265472
 30
0.0
 11
114.00747653842
 21
-0.812979465722492
 31
0.0
  0
LINE
  5
   47F
  8
0
  6
CONTINUOUS
 62
   130
 10
100.357456570866
 20
-34.2379707098007
 30
0.0
 11
100.357456570866
 21
-0.812974125146866
 31
0.0
  0
LINE
  5
   480
  8
0
  6
CONTINUOUS
 62
   130
 10
100.357456570866
 20
-34.2379707098007
 30
0.0
 11
101.582456445696
 21
-34.2379707098007
 31
0.0
  0
LINE
  5
   481
  8
0
  6
CONTINUOUS
 62
   130
 10
100.357456570866
 20
-0.812974125146866
 30
0.0
 11
101.582456445696
 21
-0.812974125146866
 31
0.0
  0
LINE
  5
   482
  8
0
  6
CONTINUOUS
 62
   130
 10
101.582452481689
 20
-0.812974689015093
 30
0.0
 11
112.852466283739
 21
-0.812980029590221
 31
0.0
  0
LINE
  5
   483
  8
0
  6
CONTINUOUS
 62
   130
 10
112.852470247746
 20
-16.8254671484237
 30
0.0
 11
112.852470247746
 21
-0.812979465722492
 31
0.0
  0
LINE
  5
   484
  8
0
  6
CONTINUOUS
 62
   130
 10
112.85245422602
 20
-71.3379709211274
 30
0.0
 11
112.852470247746
 21
-20.8504707393338
 31
0.0
  0
LINE
  5
   485
  8
0
  6
CONTINUOUS
 62
   130
 10
112.852464907171
 20
-9.91297319531441
 30
0.0
 11
112.957465964557
 21
-9.91297319531441
 31
0.0
  0
LINE
  5
   486
  8
0
  6
CONTINUOUS
 62
   130
 10
112.852464907171
 20
-11.3129730522633
 30
0.0
 11
112.957465964557
 21
-11.3129730522633
 31
0.0
  0
LINE
  5
   487
  8
0
  6
CONTINUOUS
 62
   130
 10
101.582456445696
 20
-70.4629670083523
 30
0.0
 11
112.852470247746
 21
-70.4629670083523
 31
0.0
  0
LINE
  5
   488
  8
0
  6
CONTINUOUS
 62
   130
 10
111.20745546222
 20
-16.8254671484237
 30
0.0
 11
112.957471305132
 21
-16.8254671484237
 31
0.0
  0
LINE
  5
   489
  8
0
  6
CONTINUOUS
 62
   130
 10
111.20745546222
 20
-20.8504667371517
 30
0.0
 11
111.20745546222
 21
-16.8254671484237
 31
0.0
  0
LINE
  5
   48A
  8
0
  6
CONTINUOUS
 62
   130
 10
111.20745546222
 20
-20.8504667371517
 30
0.0
 11
112.957465964557
 21
-20.8504667371517
 31
0.0
  0
LINE
  5
   48B
  8
0
  6
CONTINUOUS
 62
   130
 10
115.75747101903
 20
-66.2629731118673
 30
0.0
 11
115.75747101903
 21
-66.175473120808
 31
0.0
  0
LINE
  5
   48C
  8
0
  6
CONTINUOUS
 62
   130
 10
115.757470486086
 20
-29.6005130197203
 30
0.0
 11
115.757475826662
 21
-29.5129916663585
 31
0.0
  0
LINE
  5
   48D
  8
0
  6
CONTINUOUS
 62
   130
 10
120.13247591257
 20
-62.2379581386338
 30
0.0
 11
120.13247591257
 21
-59.1754744732851
 31
0.0
  0
LINE
  5
   48E
  8
0
  6
CONTINUOUS
 62
   130
 10
120.13247591257
 20
-28.2004936600186
 30
0.0
 11
120.13247591257
 21
-27.6754937136628
 31
0.0
  0
LINE
  5
   48F
  8
0
  6
CONTINUOUS
 62
   130
 10
115.669965687395
 20
-66.2629731118673
 30
0.0
 11
115.75747101903
 21
-66.2629731118673
 31
0.0
  0
LINE
  5
   490
  8
0
  6
CONTINUOUS
 62
   130
 10
66.5824813842773
 20
21.0619381904689
 30
0.0
 11
67.1074813306332
 21
21.0619381904689
 31
0.0
  0
LINE
  5
   491
  8
0
  6
CONTINUOUS
 62
   130
 10
66.5824813842773
 20
25.2619377613155
 30
0.0
 11
67.1074813306332
 21
25.2619377613155
 31
0.0
  0
LINE
  5
   492
  8
0
  6
CONTINUOUS
 62
   130
 10
68.6824561996775
 20
-40.3629556502053
 30
0.0
 11
69.6621176760747
 21
-40.6254609228744
 31
0.0
  0
LINE
  5
   493
  8
0
  6
CONTINUOUS
 62
   130
 10
68.6824492953917
 20
-40.3629520580573
 30
0.0
 11
68.6824633144014
 21
-38.2629736349366
 31
0.0
  0
LINE
  5
   494
  8
0
  6
CONTINUOUS
 62
   130
 10
68.6824527402182
 20
-36.8629516230838
 30
0.0
 11
68.6824640889412
 21
-37.0379729675049
 31
0.0
  0
LINE
  5
   495
  8
0
  6
CONTINUOUS
 62
   130
 10
68.682443508906
 20
-36.8629639257846
 30
0.0
 11
69.6621070003797
 21
-36.6004693445969
 31
0.0
  0
LINE
  5
   496
  8
0
  6
CONTINUOUS
 62
     1
 10
114.182497882841
 20
28.0619374752132
 30
0.0
 11
114.620061925045
 21
28.0619374752132
 31
0.0
  0
LINE
  5
   497
  8
0
  6
CONTINUOUS
 62
   130
 10
114.707471126319
 20
-74.3129662811756
 30
0.0
 11
115.057471090556
 21
-74.3129662811756
 31
0.0
  0
LINE
  5
   498
  8
0
  6
CONTINUOUS
 62
   130
 10
115.057471090556
 20
-29.5129925549008
 30
0.0
 11
115.669976368547
 21
-29.5129925549008
 31
0.0
  0
LINE
  5
   499
  8
0
  6
CONTINUOUS
 62
   130
 10
115.057471090556
 20
-66.2629731118673
 30
0.0
 11
115.669971027971
 21
-66.2629731118673
 31
0.0
  0
LINE
  5
   49A
  8
0
  6
CONTINUOUS
 62
   130
 10
113.657476574183
 20
-88.6629603284595
 30
0.0
 11
113.657476574183
 21
-88.4879624962809
 31
0.0
  0
LINE
  5
   49B
  8
0
  6
CONTINUOUS
 62
   130
 10
115.057476431131
 20
-114.037957735657
 30
0.0
 11
115.057476431131
 21
-89.0129602926967
 31
0.0
  0
LINE
  5
   49C
  8
0
  6
CONTINUOUS
 62
   130
 10
113.657476574183
 20
-114.037957735657
 30
0.0
 11
115.057476431131
 21
-114.037957735657
 31
0.0
  0
LINE
  5
   49D
  8
0
  6
CONTINUOUS
 62
   130
 10
101.757477790117
 20
-88.6629603284595
 30
0.0
 11
113.657476574183
 21
-88.6629603284595
 31
0.0
  0
LINE
  5
   49E
  8
0
  6
CONTINUOUS
 62
   130
 10
115.057476431131
 20
-88.4879624962809
 30
0.0
 11
115.057476431131
 21
-74.8379638910296
 31
0.0
  0
LINE
  5
   49F
  8
0
  6
CONTINUOUS
 62
   130
 10
101.757477790117
 20
-114.037962486019
 30
0.0
 11
101.757477790117
 21
-88.6629603284595
 31
0.0
  0
LINE
  5
   4A0
  8
0
  6
CONTINUOUS
 62
   130
 10
101.757477790117
 20
-89.0129602926967
 30
0.0
 11
115.057476431131
 21
-89.0129602926967
 31
0.0
  0
LINE
  5
   4A1
  8
0
  6
CONTINUOUS
 62
   130
 10
114.707476466894
 20
-89.0129602926967
 30
0.0
 11
114.707476466894
 21
-88.6629603284595
 31
0.0
  0
LINE
  5
   4A2
  8
0
  6
CONTINUOUS
 62
   130
 10
112.957471305132
 20
-74.8379638910296
 30
0.0
 11
113.30747126937
 21
-74.8379638910296
 31
0.0
  0
LINE
  5
   4A3
  8
0
  6
CONTINUOUS
 62
   130
 10
112.957471305132
 20
-88.4879624962809
 30
0.0
 11
113.30747126937
 21
-88.4879624962809
 31
0.0
  0
LINE
  5
   4A4
  8
0
  6
CONTINUOUS
 62
   130
 10
112.957471305132
 20
-88.4879624962809
 30
0.0
 11
112.957471305132
 21
-74.8379638910296
 31
0.0
  0
LINE
  5
   4A5
  8
0
  6
CONTINUOUS
 62
   130
 10
113.30747126937
 20
-88.4879624962809
 30
0.0
 11
113.30747126937
 21
-74.8379638910296
 31
0.0
  0
LINE
  5
   4A6
  8
0
  6
CONTINUOUS
 62
   130
 10
113.657476574183
 20
-74.8379638910296
 30
0.0
 11
113.657476574183
 21
-74.662963908911
 31
0.0
  0
LINE
  5
   4A7
  8
0
  6
CONTINUOUS
 62
   130
 10
101.932477772236
 20
-114.037962486019
 30
0.0
 11
101.932477772236
 21
-89.0129602926967
 31
0.0
  0
LINE
  5
   4A8
  8
0
  6
CONTINUOUS
 62
   130
 10
66.5824813842773
 20
-121.087844737152
 30
0.0
 11
66.5824813842773
 21
34.2704366152974
 31
0.0
  0
LINE
  5
   4A9
  8
0
  6
CONTINUOUS
 62
   130
 10
65.5324814915657
 20
-121.087844737152
 30
0.0
 11
65.5324814915657
 21
34.4765566363898
 31
0.0
  0
LINE
  5
   4AA
  8
0
  6
CONTINUOUS
 62
   130
 10
113.657476574183
 20
-88.6629603284595
 30
0.0
 11
114.707476466894
 21
-88.6629603284595
 31
0.0
  0
LINE
  5
   4AB
  8
0
  6
CONTINUOUS
 62
   130
 10
113.657476574183
 20
-74.662963908911
 30
0.0
 11
114.707471126319
 21
-74.662963908911
 31
0.0
  0
LINE
  5
   4AC
  8
0
  6
CONTINUOUS
 62
   130
 10
113.30747126937
 20
-74.8379638910296
 30
0.0
 11
115.057476431131
 21
-74.8379638910296
 31
0.0
  0
LINE
  5
   4AD
  8
0
  6
CONTINUOUS
 62
   130
 10
113.30747126937
 20
-88.4879624962809
 30
0.0
 11
115.057476431131
 21
-88.4879624962809
 31
0.0
  0
LINE
  5
   4AE
  8
0
  6
CONTINUOUS
 62
   130
 10
67.4574809610844
 20
-36.009722188093
 30
0.0
 11
69.9886717909029
 21
-36.6879530449023
 31
0.0
  0
LINE
  5
   4AF
  8
0
  6
CONTINUOUS
 62
   130
 10
67.4574809610844
 20
-41.2161820928975
 30
0.0
 11
69.9886623541656
 21
-40.5379532960787
 31
0.0
  0
LINE
  5
   4B0
  8
0
  6
CONTINUOUS
 62
   130
 10
66.5824813842773
 20
-114.037976527528
 30
0.0
 11
113.657476574182
 21
-114.037957735657
 31
0.0
  0
LINE
  5
   4B1
  8
0
  6
CONTINUOUS
 62
   130
 10
67.1074807645579
 20
28.0620215755569
 30
0.0
 11
100.357520091698
 21
28.0619361263695
 31
0.0
  0
LINE
  5
   4B2
  8
0
  6
CONTINUOUS
 62
     1
 10
63.9606618517654
 20
34.7851123796408
 30
0.0
 11
68.0250848073044
 21
33.9872466359019
 31
0.0
  0
LINE
  5
   4B3
  8
0
  6
CONTINUOUS
 62
     1
 10
64.5803843861378
 20
-121.087844737152
 30
0.0
 11
67.6403864467836
 21
-121.087844737152
 31
0.0
  0
LINE
  5
   4B4
  8
0
  6
DASHDOT
 62
     2
 10
61.5223807460531
 20
-45.8753326489754
 30
0.0
 11
140.353575389911
 21
-45.8755513526452
 31
0.0
  0
LINE
  5
   4B5
  8
0
  6
CONTINUOUS
 62
   212
 10
115.057471090556
 20
-21.3754836762214
 30
0.0
 11
130.282272207664
 21
-21.3755259148287
 31
0.0
  0
LINE
  5
   4B6
  8
0
  6
CONTINUOUS
 62
   212
 10
115.057471090556
 20
-70.3754786696198
 30
0.0
 11
130.282270265634
 21
-70.3755209082218
 31
0.0
  0
LINE
  5
   4B7
  8
0
  6
CONTINUOUS
 62
     7
 10
120.13247591257
 20
-70.3754927493529
 30
0.0
 11
120.13247591257
 21
-21.3754977559545
 31
0.0
  0
LINE
  5
   4B8
  8
0
  6
CONTINUOUS
 62
   212
 10
130.632271200886
 20
-26.8027191712642
 30
0.0
 11
130.632271200886
 21
-21.7255258790646
 31
0.0
  0
LINE
  5
   4B9
  8
0
  6
CONTINUOUS
 62
   212
 10
130.632163381474
 20
-21.9005435901998
 30
0.0
 11
130.632272863272
 21
-22.4253352540996
 31
0.0
  0
LINE
  5
   4BA
  8
0
  6
CONTINUOUS
 62
     7
 10
112.852286461338
 20
-9.74011313218386
 30
0.0
 11
112.957286350473
 21
-9.74011313218386
 31
0.0
  0
LINE
  5
   4BB
  8
0
  6
CONTINUOUS
 62
     7
 10
115.319785986706
 20
-23.740111161128
 30
0.0
 11
115.381657817056
 21
-23.76574058369
 31
0.0
  0
LINE
  5
   4BC
  8
0
  6
CONTINUOUS
 62
     7
 10
115.381658307809
 20
-23.7657428483386
 30
0.0
 11
115.407286468978
 21
-23.8276134155388
 31
0.0
  0
LINE
  5
   4BD
  8
0
  6
CONTINUOUS
 62
     7
 10
115.381657594508
 20
-60.4644808157995
 30
0.0
 11
115.407285713772
 21
-60.4026089135271
 31
0.0
  0
LINE
  5
   4BE
  8
0
  6
CONTINUOUS
 62
   212
 10
130.632271200886
 20
-70.0255209439859
 30
0.0
 11
130.632271200886
 21
-45.1022602919377
 31
0.0
  0
ARC
  5
   4BF
  8
0
  6
CONTINUOUS
 62
   212
 10
130.282271236649
 20
-70.0255209439859
 30
0.0
 40
0.349999964237213
 50
269.999841042657
 51
360.0
  0
ARC
  5
   4C0
  8
0
  6
CONTINUOUS
 62
   212
 10
130.282271236649
 20
-21.7255258790646
 30
0.0
 40
0.349999964237213
 50
0.0
 51
89.999841042657
  0
LINE
  5
   4C1
  8
0
  6
CONTINUOUS
 62
     7
 10
120.13247591257
 20
-70.3754927493529
 30
0.0
 11
120.13247591257
 21
-21.3754977559545
 31
0.0
  0
LINE
  5
   4C2
  8
0
  6
CONTINUOUS
 62
     1
 10
128.707271397581
 20
-62.2380334785536
 30
0.0
 11
128.707271397581
 21
-61.5380335500792
 31
0.0
  0
LINE
  5
   4C3
  8
0
  6
CONTINUOUS
 62
     1
 10
128.707271397581
 20
-73.8755161810289
 30
0.0
 11
129.407271326056
 21
-73.8755161810289
 31
0.0
  0
LINE
  5
   4C4
  8
0
  6
CONTINUOUS
 62
     1
 10
128.707271397581
 20
-24.4380386760785
 30
0.0
 11
128.707271397581
 21
-23.7380387476041
 31
0.0
  0
LINE
  5
   4C5
  8
0
  6
CONTINUOUS
 62
     1
 10
128.707271397581
 20
-17.8755238449163
 30
0.0
 11
129.407271326056
 21
-17.8755238449163
 31
0.0
  0
LINE
  5
   4C6
  8
0
  6
CONTINUOUS
 62
     1
 10
128.707271397581
 20
-61.5380335500792
 30
0.0
 11
128.707271397581
 21
-24.4380373409346
 31
0.0
  0
LINE
  5
   4C7
  8
0
  6
CONTINUOUS
 62
     1
 10
129.407271326056
 20
-71.1630339017464
 30
0.0
 11
129.407271326056
 21
-14.8130396595551
 31
0.0
  0
LINE
  5
   4C8
  8
0
  6
CONTINUOUS
 62
     1
 10
129.407271326056
 20
-82.8005152690778
 30
0.0
 11
130.632271200886
 21
-82.8005152690778
 31
0.0
  0
LINE
  5
   4C9
  8
0
  6
CONTINUOUS
 62
     1
 10
130.632271200886
 20
-82.8005152690778
 30
0.0
 11
130.632271200886
 21
-8.95052475686735
 31
0.0
  0
LINE
  5
   4CA
  8
0
  6
CONTINUOUS
 62
     1
 10
129.407271326056
 20
-8.95052475686735
 30
0.0
 11
129.932271272411
 21
-8.95052475686735
 31
0.0
  0
LINE
  5
   4CB
  8
0
  6
CONTINUOUS
 62
     1
 10
130.282271236649
 20
-8.95052475686735
 30
0.0
 11
130.632271200886
 21
-8.95052475686735
 31
0.0
  0
LINE
  5
   4CC
  8
0
  6
CONTINUOUS
 62
     1
 10
129.932271272411
 20
-8.95052475686735
 30
0.0
 11
130.282271236649
 21
-8.95052475686735
 31
0.0
  0
LINE
  5
   4CD
  8
0
  6
CONTINUOUS
 62
     7
 10
129.407271326056
 20
-14.8130396595551
 30
0.0
 11
129.407271326056
 21
10.6320593047555
 31
0.0
  0
LINE
  5
   4CE
  8
0
  6
CONTINUOUS
 62
     7
 10
129.407271326056
 20
-104.919599031692
 30
0.0
 11
129.407271326056
 21
-71.1630325666025
 31
0.0
  0
LINE
  5
   4CF
  8
0
  6
CONTINUOUS
 62
     7
 10
126.263134612428
 20
-105.833592262398
 30
0.0
 11
131.851918743145
 21
-104.208945712771
 31
0.0
  0
LINE
  5
   4D0
  8
0
  6
CONTINUOUS
 62
     7
 10
126.977979094264
 20
12.1807331025229
 30
0.0
 11
132.176848053071
 21
8.86645414128338
 31
0.0
  0
LINE
  5
   4D1
  8
0
  6
CONTINUOUS
 62
     7
 10
128.707271397581
 20
-74.2255161452661
 30
0.0
 11
129.407271326056
 21
-74.2255161452661
 31
0.0
  0
LINE
  5
   4D2
  8
0
  6
CONTINUOUS
 62
     7
 10
128.707271397581
 20
-17.5255238806791
 30
0.0
 11
129.407271326056
 21
-17.5255238806791
 31
0.0
  0
LINE
  5
   4D3
  8
0
  6
CONTINUOUS
 62
     7
 10
128.707271397581
 20
-23.7380387476041
 30
0.0
 11
128.707271397581
 21
11.0783092591579
 31
0.0
  0
LINE
  5
   4D4
  8
0
  6
CONTINUOUS
 62
     7
 10
128.707271397581
 20
-105.123087382993
 30
0.0
 11
128.707271397581
 21
-62.2380334785536
 31
0.0
  0
INSERT
  5
   4D5
  8
0
  6
CONTINUOUS
 62
     7
  2
*HATCH2
 10
66.5824813842773
 20
-71.3379669189453
 30
0.0
 41
0.349999964237213
 42
0.349999964237213
 43
0.349999964237213
  0
INSERT
  5
   4D6
  8
0
  6
CONTINUOUS
 62
     7
  2
*HATCH3
 10
66.5824813842773
 20
-71.3379669189453
 30
0.0
 41
0.349999964237213
 42
0.349999964237213
 43
0.349999964237213
  0
LINE
  5
   4D7
  8
0
  6
CONTINUOUS
 62
     7
 10
130.632271200886
 20
-41.150496698449
 30
0.0
 11
132.382271022072
 21
-41.150496698449
 31
0.0
  0
LINE
  5
   4D8
  8
0
  6
CONTINUOUS
 62
     7
 10
130.632271200886
 20
-50.6004944056169
 30
0.0
 11
132.382271022072
 21
-50.6004944056169
 31
0.0
  0
LINE
  5
   4D9
  8
0
  6
CONTINUOUS
 62
     7
 10
132.382271022072
 20
-50.6004944056169
 30
0.0
 11
132.382271022072
 21
-41.150496698449
 31
0.0
  0
LINE
  5
   4DA
  8
0
  6
CONTINUOUS
 62
     7
 10
125.3822724049
 20
-20.8505215988843
 30
0.0
 11
126.257274318209
 21
-20.8505215988843
 31
0.0
  0
LINE
  5
   4DB
  8
0
  6
CONTINUOUS
 62
     7
 10
125.3822724049
 20
-20.8505215988843
 30
0.0
 11
125.3822724049
 21
-17.1755219743936
 31
0.0
  0
LINE
  5
   4DC
  8
0
  6
CONTINUOUS
 62
     7
 10
126.607274282446
 20
-15.9505220995633
 30
0.0
 11
127.482274193039
 21
-15.9505220995633
 31
0.0
  0
LINE
  5
   4DD
  8
0
  6
CONTINUOUS
 62
     7
 10
127.832274157276
 20
-15.6005221353261
 30
0.0
 11
127.832274157276
 21
-12.8005224214284
 31
0.0
  0
LINE
  5
   4DE
  8
0
  6
CONTINUOUS
 62
     7
 10
127.832274157276
 20
-12.8005224214284
 30
0.0
 11
128.707271397581
 21
-12.8005224214284
 31
0.0
  0
LINE
  5
   4DF
  8
0
  6
CONTINUOUS
 62
     7
 10
128.707271397581
 20
-15.6005221353261
 30
0.0
 11
128.707271397581
 21
-12.8005224214284
 31
0.0
  0
LINE
  5
   4E0
  8
0
  6
CONTINUOUS
 62
     7
 10
126.607274282446
 20
-16.8255220101563
 30
0.0
 11
127.482274193039
 21
-16.8255220101563
 31
0.0
  0
LINE
  5
   4E1
  8
0
  6
CONTINUOUS
 62
     7
 10
126.257274318209
 20
-20.8505215988843
 30
0.0
 11
126.257274318209
 21
-17.1755219743936
 31
0.0
  0
ARC
  5
   4E2
  8
0
  6
CONTINUOUS
 62
     7
 10
127.482275644587
 20
-15.6005223702946
 30
0.0
 40
0.349998906467009
 50
269.99984089121
 51
360.00025299209
  0
ARC
  5
   4E3
  8
0
  6
CONTINUOUS
 62
     7
 10
126.607279411173
 20
-17.1755264145997
 30
0.0
 40
1.22500633342002
 50
90.000186890172
 51
179.999680705376
  0
ARC
  5
   4E4
  8
0
  6
CONTINUOUS
 62
     7
 10
126.607258795595
 20
-17.1755076612212
 30
0.0
 40
0.349982401674234
 50
89.997764198722
 51
180.00116981594
  0
ARC
  5
   4E5
  8
0
  6
CONTINUOUS
 62
     7
 10
127.482280966372
 20
-15.6005333517519
 30
0.0
 40
1.22498974441176
 50
269.999653399338
 51
360.000420324806
  0
LINE
  5
   4E6
  8
0
  6
CONTINUOUS
 62
     7
 10
125.3822724049
 20
-17.7005219207494
 30
0.0
 11
126.257274318209
 21
-17.7005219207494
 31
0.0
  0
INSERT
  5
   4E7
  8
0
  6
CONTINUOUS
 62
     7
  2
*HATCH4
 10
66.5824813842773
 20
-71.3379669189453
 30
0.0
 41
0.349999964237213
 42
0.349999964237213
 43
0.349999964237213
  0
LINE
  5
   4E8
  8
0
  6
CONTINUOUS
 62
     7
 10
126.782271594277
 20
-18.9255164550056
 30
0.0
 11
127.482271522751
 21
-18.9255183970357
 31
0.0
  0
LINE
  5
   4E9
  8
0
  6
CONTINUOUS
 62
     7
 10
127.482271522751
 20
-21.3755181467056
 30
0.0
 11
127.482271522751
 21
-18.9255183970357
 31
0.0
  0
LINE
  5
   4EA
  8
0
  6
CONTINUOUS
 62
     7
 10
126.782271594277
 20
-21.3755181467056
 30
0.0
 11
126.782271594277
 21
-18.9255183970357
 31
0.0
  0
LINE
  5
   4EB
  8
0
  6
DASHDOT
 62
     2
 10
60.2422815028664
 20
23.162163848497
 30
0.0
 11
68.9977564005446
 21
23.1621395579291
 31
0.0
  0
POINT
  5
   4EC
  8
0
  6
CONTINUOUS
 62
     7
 10
65.5324814915657
 20
-109.137837310434
 30
0.0
  0
POINT
  5
   4ED
  8
0
  6
CONTINUOUS
 62
     7
 10
65.5324814915657
 20
23.1621491717417
 30
0.0
  0
LINE
  5
   4EE
  8
0
  6
CONTINUOUS
 62
     7
 10
64.1324816346169
 20
21.7621531988477
 30
0.0
 11
64.1324816346169
 21
24.5621529127562
 31
0.0
  0
LINE
  5
   4EF
  8
0
  6
CONTINUOUS
 62
     7
 10
62.732481777668
 20
22.2871570292658
 30
0.0
 11
62.732481777668
 21
24.0371568504586
 31
0.0
  0
LINE
  5
   4F0
  8
0
  6
CONTINUOUS
 62
     7
 10
64.1324816346169
 20
21.7621531988477
 30
0.0
 11
65.5324814915657
 21
21.7621493147875
 31
0.0
  0
LINE
  5
   4F1
  8
0
  6
CONTINUOUS
 62
     7
 10
64.1324816346169
 20
24.5621529127562
 30
0.0
 11
65.5324814915657
 21
24.562149028696
 31
0.0
  0
LINE
  5
   4F2
  8
0
  6
CONTINUOUS
 62
     7
 10
62.732481777668
 20
24.0371568504586
 30
0.0
 11
65.5324814915657
 21
24.0371490823382
 31
0.0
  0
LINE
  5
   4F3
  8
0
  6
CONTINUOUS
 62
     7
 10
62.732481777668
 20
22.2871570292658
 30
0.0
 11
65.5324814915657
 21
22.2871492611454
 31
0.0
  0
LINE
  5
   4F4
  8
0
  6
CONTINUOUS
 62
     7
 10
64.1324816346169
 20
-107.73783356942
 30
0.0
 11
65.5324814915657
 21
-107.73783745348
 31
0.0
  0
LINE
  5
   4F5
  8
0
  6
CONTINUOUS
 62
     7
 10
62.732481777668
 20
-108.262829631717
 30
0.0
 11
65.5324814915657
 21
-108.262837399838
 31
0.0
  0
LINE
  5
   4F6
  8
0
  6
DASHDOT
 62
     2
 10
60.2422815028664
 20
-109.137822633679
 30
0.0
 11
68.9977564005446
 21
-109.137846924247
 31
0.0
  0
LINE
  5
   4F7
  8
0
  6
CONTINUOUS
 62
     7
 10
62.732481777668
 20
-110.01282945291
 30
0.0
 11
65.5324814915657
 21
-110.01283722103
 31
0.0
  0
LINE
  5
   4F8
  8
0
  6
CONTINUOUS
 62
     7
 10
64.1324816346169
 20
-110.537833283328
 30
0.0
 11
65.5324814915657
 21
-110.537837167388
 31
0.0
  0
LINE
  5
   4F9
  8
0
  6
CONTINUOUS
 62
     7
 10
64.1324816346169
 20
-110.537833283328
 30
0.0
 11
64.1324816346169
 21
-107.737833569419
 31
0.0
  0
LINE
  5
   4FA
  8
0
  6
CONTINUOUS
 62
     7
 10
62.732481777668
 20
-110.01282945291
 30
0.0
 11
62.732481777668
 21
-108.262829631717
 31
0.0
  0
INSERT
  5
   4FB
  8
0
  6
CONTINUOUS
 62
     7
  2
*UDIM8
 10
0.0
 20
0.0
 30
0.0
  0
INSERT
  5
   4FC
  8
0
  6
CONTINUOUS
 62
     7
  2
*UDIM9
 10
0.0
 20
0.0
 30
0.0
  0
INSERT
  5
   4FD
  8
0
  6
CONTINUOUS
 62
     7
  2
*UDIM10
 10
0.0
 20
0.0
 30
0.0
  0
INSERT
  5
   4FE
  8
0
  6
CONTINUOUS
 62
     7
  2
*UDIM11
 10
0.0
 20
0.0
 30
0.0
  0
TEXT
  5
   4FF
  8
0
  6
CONTINUOUS
 62
     7
 10
145.365105652881
 20
-47.0632611767749
 30
0.0
 40
3.00000001532688
  1
X
 41
0.916666616797451
 72
     2
 11
147.565105547296
 21
-47.0632611767749
 31
0.0
  0
LINE
  5
   500
  8
0
  6
CONTINUOUS
 62
     7
 10
192.182830810547
 20
-64.2503471374512
 30
0.0
 11
228.932830810547
 21
-64.2503471374512
 31
0.0
  0
LINE
  5
   501
  8
0
  6
CONTINUOUS
 62
     7
 10
192.182830810547
 20
-27.5003471374512
 30
0.0
 11
228.932830810547
 21
-27.5003471374512
 31
0.0
  0
LINE
  5
   502
  8
0
  6
CONTINUOUS
 62
     7
 10
192.182830810547
 20
-27.5003471374512
 30
0.0
 11
192.182830810547
 21
-64.2503471374512
 31
0.0
  0
LINE
  5
   503
  8
0
  6
CONTINUOUS
 62
     7
 10
228.932830810547
 20
-27.5003471374512
 30
0.0
 11
228.932830810547
 21
-64.2503471374512
 31
0.0
  0
LINE
  5
   504
  8
0
  6
DASHDOT
 62
     7
 10
210.557830810547
 20
-6.98574349994148
 30
0.0
 11
210.557830810547
 21
-76.6912618672061
 31
0.0
  0
CIRCLE
  5
   505
  8
0
  6
CONTINUOUS
 62
     7
 10
196.182830810547
 20
-23.7503471374512
 30
0.0
 40
0.875
  0
CIRCLE
  5
   506
  8
0
  6
CONTINUOUS
 62
     7
 10
224.932830810547
 20
-23.7503471374512
 30
0.0
 40
0.875
  0
CIRCLE
  5
   507
  8
0
  6
CONTINUOUS
 62
     7
 10
224.932830810547
 20
-68.0003471374512
 30
0.0
 40
0.875
  0
CIRCLE
  5
   508
  8
0
  6
CONTINUOUS
 62
     7
 10
196.182830810547
 20
-68.0003471374512
 30
0.0
 40
0.875
  0
LINE
  5
   509
  8
0
  6
CONTINUOUS
 62
     3
 10
188.218335141132
 20
-21.4005468401599
 30
0.0
 11
232.771704411118
 21
-21.4005468401599
 31
0.0
  0
LINE
  5
   50A
  8
0
  6
CONTINUOUS
 62
     3
 10
188.218335141132
 20
-71.3558279649152
 30
0.0
 11
232.771704411118
 21
-71.3558279649152
 31
0.0
  0
LINE
  5
   50B
  8
0
  6
CONTINUOUS
 62
     3
 10
232.771704411118
 20
-21.4005468401599
 30
0.0
 11
232.771704411118
 21
-71.3558279649152
 31
0.0
  0
LINE
  5
   50C
  8
0
  6
CONTINUOUS
 62
     3
 10
188.218335141132
 20
-21.4005468401599
 30
0.0
 11
188.218335141132
 21
-71.3558279649152
 31
0.0
  0
LINE
  5
   50D
  8
0
  6
DASHDOT
 62
     7
 10
224.932830810547
 20
-22.1253471374512
 30
0.0
 11
224.932830810547
 21
-25.3753471374512
 31
0.0
  0
LINE
  5
   50E
  8
0
  6
DASHDOT
 62
     7
 10
223.307830810547
 20
-23.7503471374512
 30
0.0
 11
226.557830810547
 21
-23.7503471374512
 31
0.0
  0
LINE
  5
   50F
  8
0
  6
DASHDOT
 62
     7
 10
196.182830810547
 20
-22.1253471374512
 30
0.0
 11
196.182830810547
 21
-25.3753471374512
 31
0.0
  0
LINE
  5
   510
  8
0
  6
DASHDOT
 62
     7
 10
194.557830810547
 20
-23.7503471374512
 30
0.0
 11
197.807830810547
 21
-23.7503471374512
 31
0.0
  0
LINE
  5
   511
  8
0
  6
DASHDOT
 62
     7
 10
196.182830810547
 20
-66.3753471374512
 30
0.0
 11
196.182830810547
 21
-69.6253471374512
 31
0.0
  0
LINE
  5
   512
  8
0
  6
DASHDOT
 62
     7
 10
194.557830810547
 20
-68.0003471374512
 30
0.0
 11
197.807830810547
 21
-68.0003471374512
 31
0.0
  0
LINE
  5
   513
  8
0
  6
DASHDOT
 62
     7
 10
224.932830810547
 20
-66.3753471374512
 30
0.0
 11
224.932830810547
 21
-69.6253471374512
 31
0.0
  0
LINE
  5
   514
  8
0
  6
DASHDOT
 62
     7
 10
223.307830810547
 20
-68.0003471374512
 30
0.0
 11
226.557830810547
 21
-68.0003471374512
 31
0.0
  0
LINE
  5
   515
  8
0
  6
DASHDOT
 62
     7
 10
185.19197325719
 20
-45.8753471374512
 30
0.0
 11
238.188124109918
 21
-45.8753471374512
 31
0.0
  0
CIRCLE
  5
   516
  8
0
  6
CONTINUOUS
 62
     7
 10
221.120330810547
 20
-23.3753471374512
 30
0.0
 40
0.5
  0
CIRCLE
  5
   517
  8
0
  6
CONTINUOUS
 62
     7
 10
209.870330810547
 20
-23.3753471374512
 30
0.0
 40
0.5
  0
CIRCLE
  5
   518
  8
0
  6
CONTINUOUS
 62
     7
 10
209.870330810547
 20
-23.3753471374512
 30
0.0
 40
0.92
  0
CIRCLE
  5
   519
  8
0
  6
CONTINUOUS
 62
     7
 10
221.120330810547
 20
-23.3753471374512
 30
0.0
 40
0.92
  0
LINE
  5
   51A
  8
0
  6
DASHDOT
 62
     7
 10
221.120330810547
 20
-21.7053471374512
 30
0.0
 11
221.120330810547
 21
-25.0453471374512
 31
0.0
  0
LINE
  5
   51B
  8
0
  6
DASHDOT
 62
     7
 10
219.450330810547
 20
-23.3753471374512
 30
0.0
 11
222.790330810547
 21
-23.3753471374512
 31
0.0
  0
LINE
  5
   51C
  8
0
  6
DASHDOT
 62
     7
 10
209.870330810547
 20
-21.7053471374512
 30
0.0
 11
209.870330810547
 21
-25.0453471374512
 31
0.0
  0
LINE
  5
   51D
  8
0
  6
DASHDOT
 62
     7
 10
208.200330810547
 20
-23.3753471374512
 30
0.0
 11
211.540330810547
 21
-23.3753471374512
 31
0.0
  0
INSERT
  5
   51E
  8
0
  6
CONTINUOUS
 62
     7
  2
*UDIM12
 10
0.0
 20
0.0
 30
0.0
  0
INSERT
  5
   51F
  8
0
  6
CONTINUOUS
 62
     7
  2
*UDIM13
 10
0.0
 20
0.0
 30
0.0
  0
INSERT
  5
   520
  8
0
  6
CONTINUOUS
 62
     7
  2
*UDIM14
 10
0.0
 20
0.0
 30
0.0
  0
TEXT
  5
   521
  8
0
  6
CONTINUOUS
 62
     7
 10
203.834849623737
 20
-83.9065058793284
 30
0.0
 40
3.00000002980232
  1
=   =
 50
359.999999844103
 41
0.916666604744064
 72
     2
 11
217.034848858811
 21
-83.9065059151781
 31
0.0
  0
TEXT
  5
   522
  8
0
  6
CONTINUOUS
 62
     7
 10
202.465157456594
 20
-95.5136340790077
 30
0.0
 40
3.00000002980232
  1
=    =
 50
359.999999844103
 41
0.916666604744064
 72
     2
 11
218.415156533219
 21
-95.5136341223261
 31
0.0
  0
TEXT
  5
   523
  8
0
  6
CONTINUOUS
 62
     7
 10
183.999133172853
 20
-56.1392466377168
 30
0.0
 40
3.00000002980232
  1
=     =
 50
449.999999844103
 41
0.916666604744064
 72
     2
 11
183.999133223617
 21
-37.4392477195411
 31
0.0
  0
TEXT
  5
   524
  8
0
  6
CONTINUOUS
 62
     7
 10
174.28601341814
 20
-58.2311337948788
 30
0.0
 40
3.00000002980232
  1
=       =
 50
449.999999844103
 41
0.916666604744064
 72
     2
 11
174.286013483834
 21
-34.0311351936012
 31
0.0
  0
INSERT
  5
   525
  8
0
  6
CONTINUOUS
 62
     7
  2
*UDIM15
 10
0.0
 20
0.0
 30
0.0
  0
INSERT
  5
   526
  8
0
  6
CONTINUOUS
 62
     7
  2
*UDIM16
 10
0.0
 20
0.0
 30
0.0
  0
INSERT
  5
   527
  8
0
  6
CONTINUOUS
 62
     7
  2
*UDIM17
 10
0.0
 20
0.0
 30
0.0
  0
INSERT
  5
   528
  8
0
  6
CONTINUOUS
 62
     7
  2
*UDIM18
 10
0.0
 20
0.0
 30
0.0
  0
INSERT
  5
   529
  8
0
  6
CONTINUOUS
 62
     7
  2
*UDIM19
 10
0.0
 20
0.0
 30
0.0
  0
TEXT
  5
   52A
  8
0
  6
CONTINUOUS
 62
     7
 10
209.752808441616
 20
-98.4624710774371
 30
0.0
 40
3.00000002980232
  1
Y
 50
359.999999844103
 41
0.916666604744064
 72
     2
 11
211.952808310486
 21
-98.462471083412
 31
0.0
  0
TEXT
  5
   52B
  8
0
  6
CONTINUOUS
 62
     7
 10
209.815549721218
 20
-5.85639960526913
 30
0.0
 40
3.00000002980232
  1
Y
 50
359.999999844103
 41
0.916666604744064
 72
     2
 11
212.015549590088
 21
-5.85639961124408
 31
0.0
  0
TEXT
  5
   52C
  8
0
  6
CONTINUOUS
 62
     7
 10
245.578056444622
 20
-47.2028787827441
 30
0.0
 40
3.00000002980232
  1
X
 50
359.999999844103
 41
0.916666604744064
 72
     2
 11
247.778056313492
 21
-47.2028787887191
 31
0.0
  0
TEXT
  5
   52D
  8
0
  6
CONTINUOUS
 62
     7
 10
161.141269793011
 20
-47.2839916443774
 30
0.0
 40
3.00000002980232
  1
X
 50
359.999999844103
 41
0.916666604744064
 72
     2
 11
163.341269661881
 21
-47.2839916503524
 31
0.0
  0
TEXT
  5
   52E
  8
0
  6
CONTINUOUS
 62
     1
 10
130.243331918389
 20
-191.841884528951
 30
0.0
 40
2.00000008940697
  1
93-04-05 ROTA S.
 50
359.999999844103
 41
0.749999861419206
 72
     2
 11
153.943328590959
 21
-191.841884593318
 31
0.0
  0
TEXT
  5
   52F
  8
0
  6
CONTINUOUS
 62
     1
 10
231.973709124863
 20
-218.083675294311
 30
0.0
 40
4.00000017881393
  1
601840/251
 50
359.999999844103
 41
0.937499973922969
 72
     2
 11
268.723709724635
 21
-218.08367539412
 31
0.0
  0
TEXT
  5
   530
  8
0
  6
CONTINUOUS
 62
     1
 10
249.059402479634
 20
-209.102092736486
 30
0.0
 40
3.00000002980232
  1
S7
 50
359.999999844103
 41
0.916666604744064
 72
     2
 11
254.009402190055
 21
-209.10209274993
 31
0.0
  0
TEXT
  5
   531
  8
0
  6
CONTINUOUS
 62
     1
 10
222.274982615819
 20
-190.79182049562
 30
0.0
 40
2.00000008940697
  1
4POLE LOW VOLTAGE FIXED M.C.C.B SERIES
 50
359.999999844103
 41
0.749999861419206
 72
     1
 11
250.62497864365
 21
-189.791820527912
 31
0.0
 73
     2
  0
TEXT
  5
   532
  8
0
  6
CONTINUOUS
 62
     1
 10
222.274982651593
 20
-193.79182049562
 30
0.0
 40
2.00000008940697
  1
ISOMAX FRONT PANEL WITH PADLOK DEVICES
 50
359.999999844103
 41
0.749999861419206
 72
     1
 11
250.624978679425
 21
-192.791820527912
 31
0.0
 73
     2
  0
TEXT
  5
   533
  8
0
  6
CONTINUOUS
 62
     1
 10
224.727374353518
 20
-198.862087235548
 30
0.0
 40
2.00000008940697
  1
INTERR.AUTOMATICO SERIE ISOMAX
 50
359.999999844103
 41
0.749999861419206
 72
     1
 11
247.077371221775
 21
-197.862087251545
 31
0.0
 73
     2
  0
TEXT
  5
   534
  8
0
  6
CONTINUOUS
 62
     1
 10
222.477374704452
 20
-201.862087229437
 30
0.0
 40
2.00000008940697
  1
TETRAP.FISSO FRONTALE PER BLOCCHI
 50
359.999999844103
 41
0.749999861419206
 72
     1
 11
247.077371257549
 21
-200.862087251545
 31
0.0
 73
     2
  0
TEXT
  5
   535
  8
0
  6
CONTINUOUS
 62
     1
 10
137.365556389358
 20
-207.316905991688
 30
0.0
 40
2.00000008940697
  1
M 3076 95-01-16
 50
359.999999844103
 41
0.749999861419206
 72
     1
 11
148.465554833412
 21
-206.316905977131
 31
0.0
 73
     2
  0
LINE
  5
   536
  8
0
  6
CONTINUOUS
 62
     7
 10
215.21076965332
 20
29.3161194009383
 30
0.0
 11
215.21076965332
 21
5.39959791473552
 31
0.0
  0
LINE
  5
   537
  8
0
  6
CONTINUOUS
 62
     7
 10
213.21076965332
 20
29.3161194009383
 30
0.0
 11
213.21076965332
 21
5.39959791473552
 31
0.0
  0
LINE
  5
   538
  8
0
  6
DASHDOT
 62
     7
 10
210.008166550923
 20
17.3578586578369
 30
0.0
 11
218.434385743361
 21
17.3578586578369
 31
0.0
  0
POINT
  5
   539
  8
0
  6
CONTINUOUS
 62
     7
 10
213.21076965332
 20
19.3578586578369
 30
0.0
  0
POINT
  5
   53A
  8
0
  6
CONTINUOUS
 62
     7
 10
213.21076965332
 20
15.3578586578369
 30
0.0
  0
LINE
  5
   53B
  8
0
  6
CONTINUOUS
 62
     7
 10
215.21076965332
 20
21.0360579201915
 30
0.0
 11
213.21076965332
 21
19.3578586578369
 31
0.0
  0
LINE
  5
   53C
  8
0
  6
CONTINUOUS
 62
     7
 10
213.21076965332
 20
15.3578586578369
 30
0.0
 11
215.21076965332
 21
13.6796593954824
 31
0.0
  0
LINE
  5
   53D
  8
0
  6
CONTINUOUS
 62
     7
 10
213.21076965332
 20
7.85785865783691
 30
0.0
 11
215.21076965332
 21
7.85785865783691
 31
0.0
  0
CIRCLE
  5
   53E
  8
0
  6
CONTINUOUS
 62
     7
 10
214.21076965332
 20
17.3578586578369
 30
0.0
 40
12.0
  0
LINE
  5
   53F
  8
0
  6
CONTINUOUS
 62
     7
 10
207.210777282715
 20
12.8578586578369
 30
0.0
 11
209.710777282715
 21
12.8578586578369
 31
0.0
  0
LINE
  5
   540
  8
0
  6
CONTINUOUS
 62
     7
 10
210.710777282715
 20
21.8578586578369
 30
0.0
 11
210.710777282715
 21
13.8578586578369
 31
0.0
  0
LINE
  5
   541
  8
0
  6
CONTINUOUS
 62
     7
 10
210.710777282715
 20
21.8578586578369
 30
0.0
 11
213.21076965332
 21
21.8578586578369
 31
0.0
  0
LINE
  5
   542
  8
0
  6
CONTINUOUS
 62
     7
 10
207.210777282715
 20
10.3578586578369
 30
0.0
 11
209.710777282715
 21
10.3578586578369
 31
0.0
  0
LINE
  5
   543
  8
0
  6
CONTINUOUS
 62
     7
 10
206.210777282715
 20
9.35785865783691
 30
0.0
 11
206.210777282715
 21
8.4135799239057
 31
0.0
  0
ARC
  5
   544
  8
0
  6
CONTINUOUS
 62
     7
 10
209.710781429995
 20
13.8578579864982
 30
0.0
 40
0.999996977799109
 50
629.999840735313
 51
720.000252836193
  0
ARC
  5
   545
  8
0
  6
CONTINUOUS
 62
     7
 10
207.210791936222
 20
9.35784597153244
 30
0.0
 40
3.50001845311552
 50
450.000186734275
 51
513.408761128067
  0
ARC
  5
   546
  8
0
  6
CONTINUOUS
 62
     7
 10
207.210733034565
 20
9.3578995526193
 30
0.0
 40
0.999949821243504
 50
449.997764042825
 51
540.001169660043
  0
ARC
  5
   547
  8
0
  6
CONTINUOUS
 62
     7
 10
209.710796635097
 20
13.8578266109026
 30
0.0
 40
3.49997105594423
 50
629.999653243441
 51
720.000420168909
  0
INSERT
  5
   548
  8
0
  6
CONTINUOUS
 62
     7
  2
*HATCH5
 10
214.21076965332
 20
17.3578586578369
 30
0.0
 50
269.999999844103
  0
INSERT
  5
   549
  8
0
  6
CONTINUOUS
 62
     7
  2
*HATCH6
 10
214.21076965332
 20
17.3578586578369
 30
0.0
 50
269.999999844103
  0
LINE
  5
   54A
  8
0
  6
CONTINUOUS
 62
     7
 10
205.635153894599
 20
8.96388377350597
 30
0.0
 11
199.264408730594
 21
2.72807792519045
 31
0.0
  0
LINE
  5
   54B
  8
0
  6
CONTINUOUS
 62
     7
 10
199.264408730594
 20
-16.0488458272784
 30
0.0
 11
207.549640418725
 21
-22.7985918240152
 31
0.0
  0
LINE
  5
   54C
  8
0
  6
CONTINUOUS
 62
     7
 10
202.065126960985
 20
-20.3373496708437
 30
0.0
 11
207.549640418725
 21
-22.7985918240152
 31
0.0
  0
LINE
  5
   54D
  8
0
  6
CONTINUOUS
 62
     7
 10
204.302608019318
 20
-18.3016439668236
 30
0.0
 11
207.549640418725
 21
-22.7985918240152
 31
0.0
  0
LINE
  5
   54E
  8
0
  6
CONTINUOUS
 62
     7
 10
199.264408730594
 20
2.72807792519045
 30
0.0
 11
199.264408730594
 21
-16.0488458272784
 31
0.0
  0
INSERT
  5
   54F
  8
0
  6
CONTINUOUS
 62
     7
  2
*UDIM20
 10
0.0
 20
0.0
 30
0.0
  0
INSERT
  5
   550
  8
0
  6
CONTINUOUS
 62
     7
  2
*UDIM21
 10
0.0
 20
0.0
 30
0.0
  0
LINE
  5
   551
  8
0
  6
DASHDOT
 62
     7
 10
8.6123355632155
 20
-145.142979741097
 30
0.0
 11
-23.9946707182239
 21
-145.142979741097
 31
0.0
  0
LINE
  5
   552
  8
0
  6
DASHDOT
 62
     7
 10
8.2627345951798
 20
-206.74297606945
 30
0.0
 11
-25.6684040127873
 21
-206.74297606945
 31
0.0
  0
LINE
  5
   553
  8
0
  6
DASHDOT
 62
     7
 10
-31.6707226634026
 20
-136.483449933126
 30
0.0
 11
-31.6707226634026
 21
-217.583435933334
 31
0.0
  0
LINE
  5
   554
  8
0
  6
DASHDOT
 62
     7
 10
-3.67072433233261
 20
-135.824100453449
 30
0.0
 11
-3.67072433233261
 21
-217.583435933334
 31
0.0
  0
LINE
  5
   555
  8
0
  6
CONTINUOUS
 62
     1
 10
14.3292745947838
 20
-141.142979979515
 30
0.0
 11
14.3292745947838
 21
-210.742975831032
 31
0.0
  0
LINE
  5
   556
  8
0
  6
CONTINUOUS
 62
     1
 10
14.3292745947838
 20
-141.142979979515
 30
0.0
 11
-49.670721590519
 21
-141.142979979515
 31
0.0
  0
LINE
  5
   557
  8
0
  6
CONTINUOUS
 62
     1
 10
-49.670721590519
 20
-141.142979979515
 30
0.0
 11
-49.670721590519
 21
-210.742975831032
 31
0.0
  0
LINE
  5
   558
  8
0
  6
CONTINUOUS
 62
     1
 10
14.3292745947838
 20
-210.742975831032
 30
0.0
 11
-49.670721590519
 21
-210.742975831032
 31
0.0
  0
LINE
  5
   559
  8
0
  6
DASHDOT
 62
     7
 10
17.9176179517773
 20
-175.942977905273
 30
0.0
 11
-38.4626740567484
 21
-175.942977905273
 31
0.0
  0
LINE
  5
   55A
  8
0
  6
DASHDOT
 62
     7
 10
-10.6707239151001
 20
-138.677276334178
 30
0.0
 11
-10.6707239151001
 21
-213.911715418288
 31
0.0
  0
CIRCLE
  5
   55B
  8
0
  6
CONTINUOUS
 62
     7
 10
-31.6707226634026
 20
-145.142979741097
 30
0.0
 40
0.549999967217445
  0
CIRCLE
  5
   55C
  8
0
  6
CONTINUOUS
 62
     7
 10
-3.67072433233261
 20
-145.142979741097
 30
0.0
 40
0.549999967217445
  0
CIRCLE
  5
   55D
  8
0
  6
CONTINUOUS
 62
     7
 10
-31.6707226634026
 20
-206.74297606945
 30
0.0
 40
0.549999967217445
  0
CIRCLE
  5
   55E
  8
0
  6
CONTINUOUS
 62
     7
 10
-3.67072433233261
 20
-206.74297606945
 30
0.0
 40
0.549999967217445
  0
LINE
  5
   55F
  8
0
  6
DASHDOT
 62
     7
 10
-40.7061061049554
 20
-175.942977905273
 30
0.0
 11
-45.5779014203002
 21
-175.942977905273
 31
0.0
  0
LINE
  5
   560
  8
0
  6
DASHDOT
 62
     7
 10
-24.6707230806351
 20
-138.677276334178
 30
0.0
 11
-24.6707230806351
 21
-213.911715418288
 31
0.0
  0
LINE
  5
   561
  8
0
  6
DASHDOT
 62
     7
 10
3.32927525043488
 20
-138.677276334178
 30
0.0
 11
3.32927525043488
 21
-213.911715418288
 31
0.0
  0
LINE
  5
   562
  8
0
  6
DASHDOT
 62
     7
 10
-38.67072224617
 20
-138.677276334178
 30
0.0
 11
-38.67072224617
 21
-213.911715418288
 31
0.0
  0
LINE
  5
   563
  8
0
  6
DASHDOT
 62
     7
 10
18.8904429287633
 20
-151.442979365587
 30
0.0
 11
-52.5910445106436
 21
-151.442979365587
 31
0.0
  0
LINE
  5
   564
  8
0
  6
DASHDOT
 62
     7
 10
18.8904429287633
 20
-200.44297644496
 30
0.0
 11
-52.5910445106436
 21
-200.44297644496
 31
0.0
  0
ARC
  5
   565
  8
0
  6
CONTINUOUS
 62
     7
 10
-38.67072224617
 20
-151.442979365587
 30
0.0
 40
7.99999952316284
 50
179.999999896069
 51
321.317812442579
  0
ARC
  5
   566
  8
0
  6
CONTINUOUS
 62
     7
 10
-24.6707230806351
 20
-151.442979365587
 30
0.0
 40
7.99999952316284
 50
218.682187349558
 51
321.317812442579
  0
ARC
  5
   567
  8
0
  6
CONTINUOUS
 62
     7
 10
-10.6707239151001
 20
-151.442979365587
 30
0.0
 40
7.99999952316284
 50
218.682187349558
 51
321.317812442579
  0
ARC
  5
   568
  8
0
  6
CONTINUOUS
 62
     7
 10
3.32927525043488
 20
-151.442979365587
 30
0.0
 40
7.99999952316284
 50
218.682187349558
 51
501.317812442579
  0
LINE
  5
   569
  8
0
  6
CONTINUOUS
 62
     7
 10
-2.91572237573263
 20
-146.44297966361
 30
0.0
 11
-4.42572628893259
 21
-146.44297966361
 31
0.0
  0
LINE
  5
   56A
  8
0
  6
CONTINUOUS
 62
     7
 10
-2.91572237573263
 20
-156.442979067564
 30
0.0
 11
-4.42572628893259
 21
-156.442979067564
 31
0.0
  0
LINE
  5
   56B
  8
0
  6
CONTINUOUS
 62
     7
 10
-16.9157215412676
 20
-146.44297966361
 30
0.0
 11
-18.4257254544676
 21
-146.44297966361
 31
0.0
  0
LINE
  5
   56C
  8
0
  6
CONTINUOUS
 62
     7
 10
-16.9157215412676
 20
-156.442979067564
 30
0.0
 11
-18.4257254544676
 21
-156.442979067564
 31
0.0
  0
LINE
  5
   56D
  8
0
  6
CONTINUOUS
 62
     7
 10
-30.9157207068026
 20
-146.44297966361
 30
0.0
 11
-32.4257246200025
 21
-146.44297966361
 31
0.0
  0
LINE
  5
   56E
  8
0
  6
CONTINUOUS
 62
     7
 10
-30.9157207068026
 20
-156.442979067564
 30
0.0
 11
-32.4257246200025
 21
-156.442979067564
 31
0.0
  0
ARC
  5
   56F
  8
0
  6
CONTINUOUS
 62
     7
 10
-38.67072224617
 20
-151.442979365587
 30
0.0
 40
7.99999952316284
 50
398.682187349558
 51
539.999999896069
  0
ARC
  5
   570
  8
0
  6
CONTINUOUS
 62
     7
 10
-24.6707230806351
 20
-151.442979365587
 30
0.0
 40
7.99999952316284
 50
398.682187349558
 51
501.317812442579
  0
ARC
  5
   571
  8
0
  6
CONTINUOUS
 62
     7
 10
-10.6707239151001
 20
-151.442979365587
 30
0.0
 40
7.99999952316284
 50
398.682187349558
 51
501.317812442579
  0
ARC
  5
   572
  8
0
  6
CONTINUOUS
 62
     7
 10
-38.67072224617
 20
-200.44297644496
 30
0.0
 40
7.99999952316284
 50
179.999999896069
 51
321.317812442579
  0
ARC
  5
   573
  8
0
  6
CONTINUOUS
 62
     7
 10
-38.67072224617
 20
-200.44297644496
 30
0.0
 40
7.99999952316284
 50
398.682187349558
 51
539.999999896069
  0
LINE
  5
   574
  8
0
  6
CONTINUOUS
 62
     7
 10
-30.9157207068026
 20
-195.442976742983
 30
0.0
 11
-32.4257246200025
 21
-195.442976742983
 31
0.0
  0
LINE
  5
   575
  8
0
  6
CONTINUOUS
 62
     7
 10
-30.9157207068026
 20
-205.442976146936
 30
0.0
 11
-32.4257246200025
 21
-205.442976146936
 31
0.0
  0
ARC
  5
   576
  8
0
  6
CONTINUOUS
 62
     7
 10
-24.6707230806351
 20
-200.44297644496
 30
0.0
 40
7.99999952316284
 50
398.682187349558
 51
501.317812442579
  0
ARC
  5
   577
  8
0
  6
CONTINUOUS
 62
     7
 10
-24.6707230806351
 20
-200.44297644496
 30
0.0
 40
7.99999952316284
 50
218.682187349558
 51
321.317812442579
  0
ARC
  5
   578
  8
0
  6
CONTINUOUS
 62
     7
 10
-10.6707239151001
 20
-200.44297644496
 30
0.0
 40
7.99999952316284
 50
218.682187349558
 51
321.317812442579
  0
ARC
  5
   579
  8
0
  6
CONTINUOUS
 62
     7
 10
-10.6707239151001
 20
-200.44297644496
 30
0.0
 40
7.99999952316284
 50
398.682187349558
 51
501.317812442579
  0
ARC
  5
   57A
  8
0
  6
CONTINUOUS
 62
     7
 10
3.32927525043488
 20
-200.44297644496
 30
0.0
 40
7.99999952316284
 50
218.682187349558
 51
501.317812442579
  0
LINE
  5
   57B
  8
0
  6
CONTINUOUS
 62
     7
 10
-16.9157215412676
 20
-195.442976742983
 30
0.0
 11
-18.4257254544676
 21
-195.442976742983
 31
0.0
  0
LINE
  5
   57C
  8
0
  6
CONTINUOUS
 62
     7
 10
-16.9157215412676
 20
-205.442976146936
 30
0.0
 11
-18.4257254544676
 21
-205.442976146936
 31
0.0
  0
LINE
  5
   57D
  8
0
  6
CONTINUOUS
 62
     7
 10
-2.91572237573263
 20
-195.442976742983
 30
0.0
 11
-4.42572628893259
 21
-195.442976742983
 31
0.0
  0
LINE
  5
   57E
  8
0
  6
CONTINUOUS
 62
     7
 10
-2.91572237573263
 20
-205.442976146936
 30
0.0
 11
-4.42572628893259
 21
-205.442976146936
 31
0.0
  0
INSERT
  5
   57F
  8
0
  6
CONTINUOUS
 62
     7
  2
*UDIM22
 10
0.0
 20
0.0
 30
0.0
  0
INSERT
  5
   580
  8
0
  6
CONTINUOUS
 62
     7
  2
*UDIM23
 10
0.0
 20
0.0
 30
0.0
  0
INSERT
  5
   581
  8
0
  6
CONTINUOUS
 62
     7
  2
*UDIM24
 10
0.0
 20
0.0
 30
0.0
  0
INSERT
  5
   582
  8
0
  6
CONTINUOUS
 62
     7
  2
*UDIM25
 10
0.0
 20
0.0
 30
0.0
  0
INSERT
  5
   583
  8
0
  6
CONTINUOUS
 62
     7
  2
*UDIM26
 10
0.0
 20
0.0
 30
0.0
  0
INSERT
  5
   584
  8
0
  6
CONTINUOUS
 62
     7
  2
*UDIM27
 10
0.0
 20
0.0
 30
0.0
  0
INSERT
  5
   585
  8
0
  6
CONTINUOUS
 62
     7
  2
*UDIM28
 10
0.0
 20
0.0
 30
0.0
  0
INSERT
  5
   586
  8
0
  6
CONTINUOUS
 62
     7
  2
*UDIM29
 10
0.0
 20
0.0
 30
0.0
  0
INSERT
  5
   587
  8
0
  6
CONTINUOUS
 62
     7
  2
*UDIM30
 10
0.0
 20
0.0
 30
0.0
  0
TEXT
  5
   588
  8
0
  6
CONTINUOUS
 62
     7
 10
19.5671893189288
 20
-177.334882508201
 30
0.0
 40
3.00000005960463
  1
X
 50
359.999999896069
 41
0.916666581564485
 72
     2
 11
21.7671891401149
 21
-177.334882512181
 31
0.0
  0
TEXT
  5
   589
  8
0
  6
CONTINUOUS
 62
     7
 10
-90.3197365043465
 20
-176.911915004115
 30
0.0
 40
3.00000005960463
  1
X
 50
359.999999896069
 41
0.916666581564485
 72
     2
 11
-88.1197366831604
 21
-176.911915008095
 31
0.0
  0
INSERT
  5
   58A
  8
0
  6
CONTINUOUS
 62
     7
  2
*UDIM31
 10
0.0
 20
0.0
 30
0.0
  0
INSERT
  5
   58B
  8
0
  6
CONTINUOUS
 62
     7
  2
*UDIM32
 10
0.0
 20
0.0
 30
0.0
  0
INSERT
  5
   58C
  8
0
  6
CONTINUOUS
 62
     7
  2
*UDIM33
 10
0.0
 20
0.0
 30
0.0
  0
INSERT
  5
   58D
  8
0
  6
CONTINUOUS
 62
     1
  2
*UDIM34
 10
0.0
 20
0.0
 30
0.0
  0
ENDSEC
  0
EOF
