ISO-10303-21;
HEADER;
FILE_DESCRIPTION(('CATIA V5 STEP Exchange'),'2;1');

FILE_NAME('X:\\ABBSaceSpa_1429\\Bergamo\\CAD_E14-0073_ViewerEmax2XtFormula\\Lavoro\\Nuovi STEP\\1SDH001252R0213_1PA_001_01_E4.2_IV_W_FLOOR_FIXING.stp','2014-03-07T08:03:01+00:00',('none'),('none'),'CATIA Version 5 Release 20 SP 1 (IN-10)','CATIA V5 STEP AP214','none');

FILE_SCHEMA(('AUTOMOTIVE_DESIGN { 1 0 10303 214 1 1 1 1 }'));

ENDSEC;
/* file written by CATIA V5R20 */
DATA;
#5=PRODUCT('1SDH001252R0213_1PA_001_01_E4.2_IV_W_FLOOR_FIXING','','',(#2)) ;
#2=PRODUCT_CONTEXT(' ',#1,'mechanical') ;
#1=APPLICATION_CONTEXT('automotive design') ;
#10=PRODUCT_DEFINITION('',' ',#6,#3) ;
#3=PRODUCT_DEFINITION_CONTEXT('part definition',#1,' ') ;
#11=PRODUCT_DEFINITION_SHAPE(' ',' ',#10) ;
#578=MECHANICAL_DESIGN_GEOMETRIC_PRESENTATION_REPRESENTATION(' ',(#30),#17) ;
#20=SHAPE_REPRESENTATION(' ',(#19),#17) ;
#19=AXIS2_PLACEMENT_3D(' ',#18,$,$) ;
#35=AXIS2_PLACEMENT_3D('Cylinder Axis2P3D',#32,#33,#34) ;
#39=AXIS2_PLACEMENT_3D('Circle Axis2P3D',#37,#38,$) ;
#55=AXIS2_PLACEMENT_3D('Circle Axis2P3D',#53,#54,$) ;
#74=AXIS2_PLACEMENT_3D('Circle Axis2P3D',#72,#73,$) ;
#79=AXIS2_PLACEMENT_3D('Circle Axis2P3D',#77,#78,$) ;
#92=AXIS2_PLACEMENT_3D('Plane Axis2P3D',#89,#90,#91) ;
#134=AXIS2_PLACEMENT_3D('Circle Axis2P3D',#132,#133,$) ;
#143=AXIS2_PLACEMENT_3D('Circle Axis2P3D',#141,#142,$) ;
#152=AXIS2_PLACEMENT_3D('Circle Axis2P3D',#150,#151,$) ;
#161=AXIS2_PLACEMENT_3D('Circle Axis2P3D',#159,#160,$) ;
#170=AXIS2_PLACEMENT_3D('Circle Axis2P3D',#168,#169,$) ;
#179=AXIS2_PLACEMENT_3D('Circle Axis2P3D',#177,#178,$) ;
#224=AXIS2_PLACEMENT_3D('Plane Axis2P3D',#221,#222,#223) ;
#266=AXIS2_PLACEMENT_3D('Circle Axis2P3D',#264,#265,$) ;
#275=AXIS2_PLACEMENT_3D('Circle Axis2P3D',#273,#274,$) ;
#284=AXIS2_PLACEMENT_3D('Circle Axis2P3D',#282,#283,$) ;
#293=AXIS2_PLACEMENT_3D('Circle Axis2P3D',#291,#292,$) ;
#302=AXIS2_PLACEMENT_3D('Circle Axis2P3D',#300,#301,$) ;
#311=AXIS2_PLACEMENT_3D('Circle Axis2P3D',#309,#310,$) ;
#356=AXIS2_PLACEMENT_3D('Plane Axis2P3D',#353,#354,#355) ;
#378=AXIS2_PLACEMENT_3D('Plane Axis2P3D',#375,#376,#377) ;
#395=AXIS2_PLACEMENT_3D('Plane Axis2P3D',#392,#393,#394) ;
#412=AXIS2_PLACEMENT_3D('Plane Axis2P3D',#409,#410,#411) ;
#424=AXIS2_PLACEMENT_3D('Cylinder Axis2P3D',#421,#422,#423) ;
#453=AXIS2_PLACEMENT_3D('Cylinder Axis2P3D',#450,#451,#452) ;
#482=AXIS2_PLACEMENT_3D('Cylinder Axis2P3D',#479,#480,#481) ;
#511=AXIS2_PLACEMENT_3D('Plane Axis2P3D',#508,#509,#510) ;
#533=AXIS2_PLACEMENT_3D('Plane Axis2P3D',#530,#531,#532) ;
#550=AXIS2_PLACEMENT_3D('Plane Axis2P3D',#547,#548,#549) ;
#567=AXIS2_PLACEMENT_3D('Plane Axis2P3D',#564,#565,#566) ;
#18=CARTESIAN_POINT(' ',(0.,0.,0.)) ;
#32=CARTESIAN_POINT('Axis2P3D Location',(33.0004853516,294.999702148,-41.1)) ;
#37=CARTESIAN_POINT('Axis2P3D Location',(33.0004853516,294.999702148,-41.)) ;
#41=CARTESIAN_POINT('Vertex',(28.6125725421,297.396829841,-41.)) ;
#43=CARTESIAN_POINT('Vertex',(37.388398161,292.602574455,-41.)) ;
#46=CARTESIAN_POINT('Line Origine',(37.388398161,292.602574455,-45.8449999999)) ;
#50=CARTESIAN_POINT('Vertex',(37.388398161,292.602574455,-51.)) ;
#53=CARTESIAN_POINT('Axis2P3D Location',(33.0004853516,294.999702148,-51.)) ;
#57=CARTESIAN_POINT('Vertex',(28.6125725421,297.396829841,-51.)) ;
#60=CARTESIAN_POINT('Line Origine',(28.6125725421,297.396829841,-45.8449999999)) ;
#72=CARTESIAN_POINT('Axis2P3D Location',(33.0004853516,294.999702148,-41.)) ;
#77=CARTESIAN_POINT('Axis2P3D Location',(33.0004853516,294.999702148,-51.)) ;
#89=CARTESIAN_POINT('Axis2P3D Location',(-191.999514648,219.999702148,-51.)) ;
#94=CARTESIAN_POINT('Line Origine',(-126.999514648,-0.000297851562479,-51.)) ;
#98=CARTESIAN_POINT('Vertex',(-411.999514648,-0.000297851562522,-51.)) ;
#100=CARTESIAN_POINT('Vertex',(158.000485352,-0.000297851562379,-51.)) ;
#103=CARTESIAN_POINT('Line Origine',(-411.999514648,174.999702148,-51.)) ;
#107=CARTESIAN_POINT('Vertex',(-411.999514648,349.999702148,-51.)) ;
#110=CARTESIAN_POINT('Line Origine',(-126.999514648,349.999702148,-51.)) ;
#114=CARTESIAN_POINT('Vertex',(158.000485352,349.999702148,-51.)) ;
#117=CARTESIAN_POINT('Line Origine',(158.000485352,174.999702148,-51.)) ;
#132=CARTESIAN_POINT('Axis2P3D Location',(33.0004853516,144.999702148,-51.)) ;
#136=CARTESIAN_POINT('Vertex',(28.6125725421,147.396829841,-51.)) ;
#138=CARTESIAN_POINT('Vertex',(37.388398161,142.602574455,-51.)) ;
#141=CARTESIAN_POINT('Axis2P3D Location',(33.0004853516,144.999702148,-51.)) ;
#150=CARTESIAN_POINT('Axis2P3D Location',(-291.999514648,294.999702148,-51.)) ;
#154=CARTESIAN_POINT('Vertex',(-296.387427458,297.396829841,-51.)) ;
#156=CARTESIAN_POINT('Vertex',(-287.611601839,292.602574455,-51.)) ;
#159=CARTESIAN_POINT('Axis2P3D Location',(-291.999514648,294.999702148,-51.)) ;
#168=CARTESIAN_POINT('Axis2P3D Location',(-291.999514648,144.999702148,-51.)) ;
#172=CARTESIAN_POINT('Vertex',(-296.387427458,147.396829841,-51.)) ;
#174=CARTESIAN_POINT('Vertex',(-287.611601839,142.602574455,-51.)) ;
#177=CARTESIAN_POINT('Axis2P3D Location',(-291.999514648,144.999702148,-51.)) ;
#186=CARTESIAN_POINT('Line Origine',(-128.999514648,19.9997021484,-51.)) ;
#190=CARTESIAN_POINT('Vertex',(-380.999514648,19.9997021484,-51.)) ;
#192=CARTESIAN_POINT('Vertex',(123.000485352,19.9997021484,-51.)) ;
#195=CARTESIAN_POINT('Line Origine',(123.000485352,44.9997021484,-51.)) ;
#199=CARTESIAN_POINT('Vertex',(123.000485352,69.9997021484,-51.)) ;
#202=CARTESIAN_POINT('Line Origine',(-128.999514648,69.9997021484,-51.)) ;
#206=CARTESIAN_POINT('Vertex',(-380.999514648,69.9997021484,-51.)) ;
#209=CARTESIAN_POINT('Line Origine',(-380.999514648,44.9997021484,-51.)) ;
#221=CARTESIAN_POINT('Axis2P3D Location',(-191.999514648,219.999702148,-41.)) ;
#226=CARTESIAN_POINT('Line Origine',(158.000485352,174.999702148,-41.)) ;
#230=CARTESIAN_POINT('Vertex',(158.000485352,-0.000297851562379,-41.)) ;
#232=CARTESIAN_POINT('Vertex',(158.000485352,349.999702148,-41.)) ;
#235=CARTESIAN_POINT('Line Origine',(-126.999514648,349.999702148,-41.)) ;
#239=CARTESIAN_POINT('Vertex',(-411.999514648,349.999702148,-41.)) ;
#242=CARTESIAN_POINT('Line Origine',(-411.999514648,174.999702148,-41.)) ;
#246=CARTESIAN_POINT('Vertex',(-411.999514648,-0.000297851562522,-41.)) ;
#249=CARTESIAN_POINT('Line Origine',(-126.999514648,-0.000297851562479,-41.)) ;
#264=CARTESIAN_POINT('Axis2P3D Location',(33.0004853516,144.999702148,-41.)) ;
#268=CARTESIAN_POINT('Vertex',(37.388398161,142.602574455,-41.)) ;
#270=CARTESIAN_POINT('Vertex',(28.6125725421,147.396829841,-41.)) ;
#273=CARTESIAN_POINT('Axis2P3D Location',(33.0004853516,144.999702148,-41.)) ;
#282=CARTESIAN_POINT('Axis2P3D Location',(-291.999514648,294.999702148,-41.)) ;
#286=CARTESIAN_POINT('Vertex',(-287.611601839,292.602574455,-41.)) ;
#288=CARTESIAN_POINT('Vertex',(-296.387427458,297.396829841,-41.)) ;
#291=CARTESIAN_POINT('Axis2P3D Location',(-291.999514648,294.999702148,-41.)) ;
#300=CARTESIAN_POINT('Axis2P3D Location',(-291.999514648,144.999702148,-41.)) ;
#304=CARTESIAN_POINT('Vertex',(-287.611601839,142.602574455,-41.)) ;
#306=CARTESIAN_POINT('Vertex',(-296.387427458,147.396829841,-41.)) ;
#309=CARTESIAN_POINT('Axis2P3D Location',(-291.999514648,144.999702148,-41.)) ;
#318=CARTESIAN_POINT('Line Origine',(-380.999514648,44.9997021484,-41.)) ;
#322=CARTESIAN_POINT('Vertex',(-380.999514648,69.9997021484,-41.)) ;
#324=CARTESIAN_POINT('Vertex',(-380.999514648,19.9997021484,-41.)) ;
#327=CARTESIAN_POINT('Line Origine',(-128.999514648,69.9997021484,-41.)) ;
#331=CARTESIAN_POINT('Vertex',(123.000485352,69.9997021484,-41.)) ;
#334=CARTESIAN_POINT('Line Origine',(123.000485352,44.9997021484,-41.)) ;
#338=CARTESIAN_POINT('Vertex',(123.000485352,19.9997021484,-41.)) ;
#341=CARTESIAN_POINT('Line Origine',(-128.999514648,19.9997021484,-41.)) ;
#353=CARTESIAN_POINT('Axis2P3D Location',(-380.999514648,69.9997021484,-41.)) ;
#358=CARTESIAN_POINT('Line Origine',(-380.999514648,69.9997021484,-46.)) ;
#363=CARTESIAN_POINT('Line Origine',(-380.999514648,19.9997021484,-46.)) ;
#375=CARTESIAN_POINT('Axis2P3D Location',(-380.999514648,69.9997021484,-41.)) ;
#380=CARTESIAN_POINT('Line Origine',(123.000485352,69.9997021484,-46.)) ;
#392=CARTESIAN_POINT('Axis2P3D Location',(123.000485352,19.9997021484,-41.)) ;
#397=CARTESIAN_POINT('Line Origine',(123.000485352,19.9997021484,-46.)) ;
#409=CARTESIAN_POINT('Axis2P3D Location',(123.000485352,19.9997021484,-41.)) ;
#421=CARTESIAN_POINT('Axis2P3D Location',(-291.999514648,144.999702148,-41.1)) ;
#426=CARTESIAN_POINT('Line Origine',(-296.387427458,147.396829841,-45.8449999999)) ;
#431=CARTESIAN_POINT('Line Origine',(-287.611601839,142.602574455,-45.8449999999)) ;
#450=CARTESIAN_POINT('Axis2P3D Location',(-291.999514648,294.999702148,-41.1)) ;
#455=CARTESIAN_POINT('Line Origine',(-296.387427458,297.396829841,-45.8449999999)) ;
#460=CARTESIAN_POINT('Line Origine',(-287.611601839,292.602574455,-45.8449999999)) ;
#479=CARTESIAN_POINT('Axis2P3D Location',(33.0004853516,144.999702148,-41.1)) ;
#484=CARTESIAN_POINT('Line Origine',(28.6125725421,147.396829841,-45.8449999999)) ;
#489=CARTESIAN_POINT('Line Origine',(37.388398161,142.602574455,-45.8449999999)) ;
#508=CARTESIAN_POINT('Axis2P3D Location',(158.000485352,-0.000297851562422,-41.)) ;
#513=CARTESIAN_POINT('Line Origine',(158.000485352,-0.000297851562422,-46.)) ;
#518=CARTESIAN_POINT('Line Origine',(-411.999514648,-0.000297851562492,-46.)) ;
#530=CARTESIAN_POINT('Axis2P3D Location',(-411.999514648,349.999702148,-41.)) ;
#535=CARTESIAN_POINT('Line Origine',(-411.999514648,349.999702148,-46.)) ;
#547=CARTESIAN_POINT('Axis2P3D Location',(-411.999514648,349.999702148,-41.)) ;
#552=CARTESIAN_POINT('Line Origine',(158.000485352,349.999702148,-46.)) ;
#564=CARTESIAN_POINT('Axis2P3D Location',(158.000485352,-0.000297851562422,-41.)) ;
#33=DIRECTION('Axis2P3D Direction',(-0.,0.,-1.)) ;
#34=DIRECTION('Axis2P3D XDirection',(-0.87758256189,0.479425538604,0.)) ;
#38=DIRECTION('Axis2P3D Direction',(-0.,0.,-1.)) ;
#47=DIRECTION('Vector Direction',(0.,0.,-1.)) ;
#54=DIRECTION('Axis2P3D Direction',(-0.,0.,-1.)) ;
#61=DIRECTION('Vector Direction',(0.,0.,-1.)) ;
#73=DIRECTION('Axis2P3D Direction',(-0.,0.,-1.)) ;
#78=DIRECTION('Axis2P3D Direction',(-0.,0.,-1.)) ;
#90=DIRECTION('Axis2P3D Direction',(0.,0.,1.)) ;
#91=DIRECTION('Axis2P3D XDirection',(-1.,-1.22464679915E-016,0.)) ;
#95=DIRECTION('Vector Direction',(-1.,-1.49587944371E-016,0.)) ;
#104=DIRECTION('Vector Direction',(0.,-1.,0.)) ;
#111=DIRECTION('Vector Direction',(1.,9.9725296247E-017,0.)) ;
#118=DIRECTION('Vector Direction',(-1.62409768174E-016,1.,0.)) ;
#133=DIRECTION('Axis2P3D Direction',(0.,0.,1.)) ;
#142=DIRECTION('Axis2P3D Direction',(0.,0.,1.)) ;
#151=DIRECTION('Axis2P3D Direction',(0.,0.,1.)) ;
#160=DIRECTION('Axis2P3D Direction',(0.,0.,1.)) ;
#169=DIRECTION('Axis2P3D Direction',(0.,0.,1.)) ;
#178=DIRECTION('Axis2P3D Direction',(0.,0.,1.)) ;
#187=DIRECTION('Vector Direction',(-1.,-1.12784561232E-016,0.)) ;
#196=DIRECTION('Vector Direction',(-2.84217094304E-016,1.,0.)) ;
#203=DIRECTION('Vector Direction',(1.,1.12784561232E-016,0.)) ;
#210=DIRECTION('Vector Direction',(0.,-1.,0.)) ;
#222=DIRECTION('Axis2P3D Direction',(0.,0.,1.)) ;
#223=DIRECTION('Axis2P3D XDirection',(-1.,-1.22464679915E-016,0.)) ;
#227=DIRECTION('Vector Direction',(-1.62409768174E-016,1.,0.)) ;
#236=DIRECTION('Vector Direction',(1.,9.9725296247E-017,0.)) ;
#243=DIRECTION('Vector Direction',(0.,-1.,0.)) ;
#250=DIRECTION('Vector Direction',(-1.,-1.49587944371E-016,0.)) ;
#265=DIRECTION('Axis2P3D Direction',(0.,0.,1.)) ;
#274=DIRECTION('Axis2P3D Direction',(0.,0.,1.)) ;
#283=DIRECTION('Axis2P3D Direction',(0.,0.,1.)) ;
#292=DIRECTION('Axis2P3D Direction',(0.,0.,1.)) ;
#301=DIRECTION('Axis2P3D Direction',(0.,0.,1.)) ;
#310=DIRECTION('Axis2P3D Direction',(0.,0.,1.)) ;
#319=DIRECTION('Vector Direction',(0.,-1.,0.)) ;
#328=DIRECTION('Vector Direction',(1.,1.12784561232E-016,0.)) ;
#335=DIRECTION('Vector Direction',(-2.84217094304E-016,1.,0.)) ;
#342=DIRECTION('Vector Direction',(-1.,-1.12784561232E-016,0.)) ;
#354=DIRECTION('Axis2P3D Direction',(1.,1.22464679915E-016,0.)) ;
#355=DIRECTION('Axis2P3D XDirection',(1.22464679915E-016,-1.,0.)) ;
#359=DIRECTION('Vector Direction',(0.,0.,-1.)) ;
#364=DIRECTION('Vector Direction',(0.,0.,-1.)) ;
#376=DIRECTION('Axis2P3D Direction',(-1.22464679915E-016,1.,0.)) ;
#377=DIRECTION('Axis2P3D XDirection',(1.,1.22464679915E-016,0.)) ;
#381=DIRECTION('Vector Direction',(0.,0.,-1.)) ;
#393=DIRECTION('Axis2P3D Direction',(-1.,-1.22464679915E-016,-0.)) ;
#394=DIRECTION('Axis2P3D XDirection',(-1.22464679915E-016,1.,0.)) ;
#398=DIRECTION('Vector Direction',(0.,0.,-1.)) ;
#410=DIRECTION('Axis2P3D Direction',(1.22464679915E-016,-1.,0.)) ;
#411=DIRECTION('Axis2P3D XDirection',(-1.,-1.22464679915E-016,0.)) ;
#422=DIRECTION('Axis2P3D Direction',(-0.,0.,-1.)) ;
#423=DIRECTION('Axis2P3D XDirection',(-0.87758256189,0.479425538604,0.)) ;
#427=DIRECTION('Vector Direction',(0.,0.,-1.)) ;
#432=DIRECTION('Vector Direction',(0.,0.,-1.)) ;
#451=DIRECTION('Axis2P3D Direction',(-0.,0.,-1.)) ;
#452=DIRECTION('Axis2P3D XDirection',(-0.87758256189,0.479425538604,0.)) ;
#456=DIRECTION('Vector Direction',(0.,0.,-1.)) ;
#461=DIRECTION('Vector Direction',(0.,0.,-1.)) ;
#480=DIRECTION('Axis2P3D Direction',(-0.,0.,-1.)) ;
#481=DIRECTION('Axis2P3D XDirection',(-0.87758256189,0.479425538604,0.)) ;
#485=DIRECTION('Vector Direction',(0.,0.,-1.)) ;
#490=DIRECTION('Vector Direction',(0.,0.,-1.)) ;
#509=DIRECTION('Axis2P3D Direction',(1.22464679915E-016,-1.,0.)) ;
#510=DIRECTION('Axis2P3D XDirection',(-1.,-1.22464679915E-016,0.)) ;
#514=DIRECTION('Vector Direction',(0.,0.,-1.)) ;
#519=DIRECTION('Vector Direction',(0.,0.,-1.)) ;
#531=DIRECTION('Axis2P3D Direction',(1.,1.22464679915E-016,0.)) ;
#532=DIRECTION('Axis2P3D XDirection',(1.22464679915E-016,-1.,0.)) ;
#536=DIRECTION('Vector Direction',(0.,0.,-1.)) ;
#548=DIRECTION('Axis2P3D Direction',(-1.22464679915E-016,1.,0.)) ;
#549=DIRECTION('Axis2P3D XDirection',(1.,1.22464679915E-016,0.)) ;
#553=DIRECTION('Vector Direction',(0.,0.,-1.)) ;
#565=DIRECTION('Axis2P3D Direction',(-1.,-1.22464679915E-016,-0.)) ;
#566=DIRECTION('Axis2P3D XDirection',(-1.22464679915E-016,1.,0.)) ;
#8=PRODUCT_RELATED_PRODUCT_CATEGORY('part',$,(#5)) ;
#7=PRODUCT_CATEGORY('part','specification') ;
#30=STYLED_ITEM(' ',(#29),#22) ;
#29=PRESENTATION_STYLE_ASSIGNMENT((#28)) ;
#28=SURFACE_STYLE_USAGE(.BOTH.,#27) ;
#27=SURFACE_SIDE_STYLE(' ',(#26)) ;
#26=SURFACE_STYLE_FILL_AREA(#25) ;
#25=FILL_AREA_STYLE(' ',(#24)) ;
#24=FILL_AREA_STYLE_COLOUR(' ',#23) ;
#48=VECTOR('Line Direction',#47,1.) ;
#62=VECTOR('Line Direction',#61,1.) ;
#96=VECTOR('Line Direction',#95,1.) ;
#105=VECTOR('Line Direction',#104,1.) ;
#112=VECTOR('Line Direction',#111,1.) ;
#119=VECTOR('Line Direction',#118,1.) ;
#188=VECTOR('Line Direction',#187,1.) ;
#197=VECTOR('Line Direction',#196,1.) ;
#204=VECTOR('Line Direction',#203,1.) ;
#211=VECTOR('Line Direction',#210,1.) ;
#228=VECTOR('Line Direction',#227,1.) ;
#237=VECTOR('Line Direction',#236,1.) ;
#244=VECTOR('Line Direction',#243,1.) ;
#251=VECTOR('Line Direction',#250,1.) ;
#320=VECTOR('Line Direction',#319,1.) ;
#329=VECTOR('Line Direction',#328,1.) ;
#336=VECTOR('Line Direction',#335,1.) ;
#343=VECTOR('Line Direction',#342,1.) ;
#360=VECTOR('Line Direction',#359,1.) ;
#365=VECTOR('Line Direction',#364,1.) ;
#382=VECTOR('Line Direction',#381,1.) ;
#399=VECTOR('Line Direction',#398,1.) ;
#428=VECTOR('Line Direction',#427,1.) ;
#433=VECTOR('Line Direction',#432,1.) ;
#457=VECTOR('Line Direction',#456,1.) ;
#462=VECTOR('Line Direction',#461,1.) ;
#486=VECTOR('Line Direction',#485,1.) ;
#491=VECTOR('Line Direction',#490,1.) ;
#515=VECTOR('Line Direction',#514,1.) ;
#520=VECTOR('Line Direction',#519,1.) ;
#537=VECTOR('Line Direction',#536,1.) ;
#554=VECTOR('Line Direction',#553,1.) ;
#16=UNCERTAINTY_MEASURE_WITH_UNIT(LENGTH_MEASURE(0.005),#12,'distance_accuracy_value','CONFUSED CURVE UNCERTAINTY') ;
#577=SHAPE_REPRESENTATION_RELATIONSHIP(' ',' ',#20,#576) ;
#66=ORIENTED_EDGE('',*,*,#45,.T.) ;
#67=ORIENTED_EDGE('',*,*,#52,.F.) ;
#68=ORIENTED_EDGE('',*,*,#59,.T.) ;
#69=ORIENTED_EDGE('',*,*,#64,.T.) ;
#83=ORIENTED_EDGE('',*,*,#76,.T.) ;
#84=ORIENTED_EDGE('',*,*,#64,.F.) ;
#85=ORIENTED_EDGE('',*,*,#81,.T.) ;
#86=ORIENTED_EDGE('',*,*,#52,.T.) ;
#123=ORIENTED_EDGE('',*,*,#102,.F.) ;
#124=ORIENTED_EDGE('',*,*,#109,.F.) ;
#125=ORIENTED_EDGE('',*,*,#116,.F.) ;
#126=ORIENTED_EDGE('',*,*,#121,.F.) ;
#129=ORIENTED_EDGE('',*,*,#81,.F.) ;
#130=ORIENTED_EDGE('',*,*,#59,.F.) ;
#147=ORIENTED_EDGE('',*,*,#140,.F.) ;
#148=ORIENTED_EDGE('',*,*,#145,.F.) ;
#165=ORIENTED_EDGE('',*,*,#158,.F.) ;
#166=ORIENTED_EDGE('',*,*,#163,.F.) ;
#183=ORIENTED_EDGE('',*,*,#176,.F.) ;
#184=ORIENTED_EDGE('',*,*,#181,.F.) ;
#215=ORIENTED_EDGE('',*,*,#194,.T.) ;
#216=ORIENTED_EDGE('',*,*,#201,.T.) ;
#217=ORIENTED_EDGE('',*,*,#208,.T.) ;
#218=ORIENTED_EDGE('',*,*,#213,.T.) ;
#255=ORIENTED_EDGE('',*,*,#234,.T.) ;
#256=ORIENTED_EDGE('',*,*,#241,.T.) ;
#257=ORIENTED_EDGE('',*,*,#248,.T.) ;
#258=ORIENTED_EDGE('',*,*,#253,.T.) ;
#261=ORIENTED_EDGE('',*,*,#76,.F.) ;
#262=ORIENTED_EDGE('',*,*,#45,.F.) ;
#279=ORIENTED_EDGE('',*,*,#272,.F.) ;
#280=ORIENTED_EDGE('',*,*,#277,.F.) ;
#297=ORIENTED_EDGE('',*,*,#290,.F.) ;
#298=ORIENTED_EDGE('',*,*,#295,.F.) ;
#315=ORIENTED_EDGE('',*,*,#308,.F.) ;
#316=ORIENTED_EDGE('',*,*,#313,.F.) ;
#347=ORIENTED_EDGE('',*,*,#326,.F.) ;
#348=ORIENTED_EDGE('',*,*,#333,.F.) ;
#349=ORIENTED_EDGE('',*,*,#340,.F.) ;
#350=ORIENTED_EDGE('',*,*,#345,.F.) ;
#369=ORIENTED_EDGE('',*,*,#362,.F.) ;
#370=ORIENTED_EDGE('',*,*,#326,.T.) ;
#371=ORIENTED_EDGE('',*,*,#367,.T.) ;
#372=ORIENTED_EDGE('',*,*,#213,.F.) ;
#386=ORIENTED_EDGE('',*,*,#384,.F.) ;
#387=ORIENTED_EDGE('',*,*,#333,.T.) ;
#388=ORIENTED_EDGE('',*,*,#362,.T.) ;
#389=ORIENTED_EDGE('',*,*,#208,.F.) ;
#403=ORIENTED_EDGE('',*,*,#401,.F.) ;
#404=ORIENTED_EDGE('',*,*,#340,.T.) ;
#405=ORIENTED_EDGE('',*,*,#384,.T.) ;
#406=ORIENTED_EDGE('',*,*,#201,.F.) ;
#415=ORIENTED_EDGE('',*,*,#367,.F.) ;
#416=ORIENTED_EDGE('',*,*,#345,.T.) ;
#417=ORIENTED_EDGE('',*,*,#401,.T.) ;
#418=ORIENTED_EDGE('',*,*,#194,.F.) ;
#437=ORIENTED_EDGE('',*,*,#308,.T.) ;
#438=ORIENTED_EDGE('',*,*,#430,.F.) ;
#439=ORIENTED_EDGE('',*,*,#176,.T.) ;
#440=ORIENTED_EDGE('',*,*,#435,.T.) ;
#444=ORIENTED_EDGE('',*,*,#313,.T.) ;
#445=ORIENTED_EDGE('',*,*,#435,.F.) ;
#446=ORIENTED_EDGE('',*,*,#181,.T.) ;
#447=ORIENTED_EDGE('',*,*,#430,.T.) ;
#466=ORIENTED_EDGE('',*,*,#290,.T.) ;
#467=ORIENTED_EDGE('',*,*,#459,.F.) ;
#468=ORIENTED_EDGE('',*,*,#158,.T.) ;
#469=ORIENTED_EDGE('',*,*,#464,.T.) ;
#473=ORIENTED_EDGE('',*,*,#295,.T.) ;
#474=ORIENTED_EDGE('',*,*,#464,.F.) ;
#475=ORIENTED_EDGE('',*,*,#163,.T.) ;
#476=ORIENTED_EDGE('',*,*,#459,.T.) ;
#495=ORIENTED_EDGE('',*,*,#272,.T.) ;
#496=ORIENTED_EDGE('',*,*,#488,.F.) ;
#497=ORIENTED_EDGE('',*,*,#140,.T.) ;
#498=ORIENTED_EDGE('',*,*,#493,.T.) ;
#502=ORIENTED_EDGE('',*,*,#277,.T.) ;
#503=ORIENTED_EDGE('',*,*,#493,.F.) ;
#504=ORIENTED_EDGE('',*,*,#145,.T.) ;
#505=ORIENTED_EDGE('',*,*,#488,.T.) ;
#524=ORIENTED_EDGE('',*,*,#102,.T.) ;
#525=ORIENTED_EDGE('',*,*,#517,.F.) ;
#526=ORIENTED_EDGE('',*,*,#253,.F.) ;
#527=ORIENTED_EDGE('',*,*,#522,.T.) ;
#541=ORIENTED_EDGE('',*,*,#109,.T.) ;
#542=ORIENTED_EDGE('',*,*,#522,.F.) ;
#543=ORIENTED_EDGE('',*,*,#248,.F.) ;
#544=ORIENTED_EDGE('',*,*,#539,.T.) ;
#558=ORIENTED_EDGE('',*,*,#116,.T.) ;
#559=ORIENTED_EDGE('',*,*,#539,.F.) ;
#560=ORIENTED_EDGE('',*,*,#241,.F.) ;
#561=ORIENTED_EDGE('',*,*,#556,.T.) ;
#570=ORIENTED_EDGE('',*,*,#121,.T.) ;
#571=ORIENTED_EDGE('',*,*,#556,.F.) ;
#572=ORIENTED_EDGE('',*,*,#234,.F.) ;
#573=ORIENTED_EDGE('',*,*,#517,.T.) ;
#131=FACE_BOUND('',#128,.T.) ;
#149=FACE_BOUND('',#146,.T.) ;
#167=FACE_BOUND('',#164,.T.) ;
#185=FACE_BOUND('',#182,.T.) ;
#219=FACE_BOUND('',#214,.T.) ;
#263=FACE_BOUND('',#260,.T.) ;
#281=FACE_BOUND('',#278,.T.) ;
#299=FACE_BOUND('',#296,.T.) ;
#317=FACE_BOUND('',#314,.T.) ;
#351=FACE_BOUND('',#346,.T.) ;
#31=CLOSED_SHELL('Closed Shell',(#71,#88,#220,#352,#374,#391,#408,#420,#442,#449,#471,#478,#500,#507,#529,#546,#563,#575)) ;
#576=ADVANCED_BREP_SHAPE_REPRESENTATION('NONE',(#22),#17) ;
#71=ADVANCED_FACE('E4.2_IV_W_FLOOR_FIXING',(#70),#36,.F.) ;
#88=ADVANCED_FACE('E4.2_IV_W_FLOOR_FIXING',(#87),#36,.F.) ;
#220=ADVANCED_FACE('E4.2_IV_W_FLOOR_FIXING',(#127,#131,#149,#167,#185,#219),#93,.F.) ;
#352=ADVANCED_FACE('E4.2_IV_W_FLOOR_FIXING',(#259,#263,#281,#299,#317,#351),#225,.T.) ;
#374=ADVANCED_FACE('E4.2_IV_W_FLOOR_FIXING',(#373),#357,.T.) ;
#391=ADVANCED_FACE('E4.2_IV_W_FLOOR_FIXING',(#390),#379,.F.) ;
#408=ADVANCED_FACE('E4.2_IV_W_FLOOR_FIXING',(#407),#396,.T.) ;
#420=ADVANCED_FACE('E4.2_IV_W_FLOOR_FIXING',(#419),#413,.F.) ;
#442=ADVANCED_FACE('E4.2_IV_W_FLOOR_FIXING',(#441),#425,.F.) ;
#449=ADVANCED_FACE('E4.2_IV_W_FLOOR_FIXING',(#448),#425,.F.) ;
#471=ADVANCED_FACE('E4.2_IV_W_FLOOR_FIXING',(#470),#454,.F.) ;
#478=ADVANCED_FACE('E4.2_IV_W_FLOOR_FIXING',(#477),#454,.F.) ;
#500=ADVANCED_FACE('E4.2_IV_W_FLOOR_FIXING',(#499),#483,.F.) ;
#507=ADVANCED_FACE('E4.2_IV_W_FLOOR_FIXING',(#506),#483,.F.) ;
#529=ADVANCED_FACE('E4.2_IV_W_FLOOR_FIXING',(#528),#512,.T.) ;
#546=ADVANCED_FACE('E4.2_IV_W_FLOOR_FIXING',(#545),#534,.F.) ;
#563=ADVANCED_FACE('E4.2_IV_W_FLOOR_FIXING',(#562),#551,.T.) ;
#575=ADVANCED_FACE('E4.2_IV_W_FLOOR_FIXING',(#574),#568,.F.) ;
#4=APPLICATION_PROTOCOL_DEFINITION('international standard','automotive_design',2001,#1) ;
#22=MANIFOLD_SOLID_BREP('E4.2_IV_W_FLOOR_FIXING',#31) ;
#40=CIRCLE('generated circle',#39,5.) ;
#56=CIRCLE('generated circle',#55,5.) ;
#75=CIRCLE('generated circle',#74,5.) ;
#80=CIRCLE('generated circle',#79,5.) ;
#135=CIRCLE('generated circle',#134,5.) ;
#144=CIRCLE('generated circle',#143,5.) ;
#153=CIRCLE('generated circle',#152,5.) ;
#162=CIRCLE('generated circle',#161,5.) ;
#171=CIRCLE('generated circle',#170,5.) ;
#180=CIRCLE('generated circle',#179,5.) ;
#267=CIRCLE('generated circle',#266,5.) ;
#276=CIRCLE('generated circle',#275,5.) ;
#285=CIRCLE('generated circle',#284,5.) ;
#294=CIRCLE('generated circle',#293,5.) ;
#303=CIRCLE('generated circle',#302,5.) ;
#312=CIRCLE('generated circle',#311,5.) ;
#23=COLOUR_RGB('Colour',0.752941176471,0.76862745098,0.749019607843) ;
#36=CYLINDRICAL_SURFACE('generated cylinder',#35,5.) ;
#425=CYLINDRICAL_SURFACE('generated cylinder',#424,5.) ;
#454=CYLINDRICAL_SURFACE('generated cylinder',#453,5.) ;
#483=CYLINDRICAL_SURFACE('generated cylinder',#482,5.) ;
#45=EDGE_CURVE('',#42,#44,#40,.F.) ;
#52=EDGE_CURVE('',#51,#44,#49,.F.) ;
#59=EDGE_CURVE('',#51,#58,#56,.T.) ;
#64=EDGE_CURVE('',#58,#42,#63,.F.) ;
#76=EDGE_CURVE('',#44,#42,#75,.F.) ;
#81=EDGE_CURVE('',#58,#51,#80,.T.) ;
#102=EDGE_CURVE('',#99,#101,#97,.F.) ;
#109=EDGE_CURVE('',#108,#99,#106,.T.) ;
#116=EDGE_CURVE('',#115,#108,#113,.F.) ;
#121=EDGE_CURVE('',#101,#115,#120,.T.) ;
#140=EDGE_CURVE('',#137,#139,#135,.F.) ;
#145=EDGE_CURVE('',#139,#137,#144,.F.) ;
#158=EDGE_CURVE('',#155,#157,#153,.F.) ;
#163=EDGE_CURVE('',#157,#155,#162,.F.) ;
#176=EDGE_CURVE('',#173,#175,#171,.F.) ;
#181=EDGE_CURVE('',#175,#173,#180,.F.) ;
#194=EDGE_CURVE('',#191,#193,#189,.F.) ;
#201=EDGE_CURVE('',#193,#200,#198,.T.) ;
#208=EDGE_CURVE('',#200,#207,#205,.F.) ;
#213=EDGE_CURVE('',#207,#191,#212,.T.) ;
#234=EDGE_CURVE('',#231,#233,#229,.T.) ;
#241=EDGE_CURVE('',#233,#240,#238,.F.) ;
#248=EDGE_CURVE('',#240,#247,#245,.T.) ;
#253=EDGE_CURVE('',#247,#231,#252,.F.) ;
#272=EDGE_CURVE('',#269,#271,#267,.T.) ;
#277=EDGE_CURVE('',#271,#269,#276,.T.) ;
#290=EDGE_CURVE('',#287,#289,#285,.T.) ;
#295=EDGE_CURVE('',#289,#287,#294,.T.) ;
#308=EDGE_CURVE('',#305,#307,#303,.T.) ;
#313=EDGE_CURVE('',#307,#305,#312,.T.) ;
#326=EDGE_CURVE('',#323,#325,#321,.T.) ;
#333=EDGE_CURVE('',#332,#323,#330,.F.) ;
#340=EDGE_CURVE('',#339,#332,#337,.T.) ;
#345=EDGE_CURVE('',#325,#339,#344,.F.) ;
#362=EDGE_CURVE('',#323,#207,#361,.T.) ;
#367=EDGE_CURVE('',#325,#191,#366,.T.) ;
#384=EDGE_CURVE('',#332,#200,#383,.T.) ;
#401=EDGE_CURVE('',#339,#193,#400,.T.) ;
#430=EDGE_CURVE('',#173,#307,#429,.F.) ;
#435=EDGE_CURVE('',#175,#305,#434,.F.) ;
#459=EDGE_CURVE('',#155,#289,#458,.F.) ;
#464=EDGE_CURVE('',#157,#287,#463,.F.) ;
#488=EDGE_CURVE('',#137,#271,#487,.F.) ;
#493=EDGE_CURVE('',#139,#269,#492,.F.) ;
#517=EDGE_CURVE('',#231,#101,#516,.T.) ;
#522=EDGE_CURVE('',#247,#99,#521,.T.) ;
#539=EDGE_CURVE('',#240,#108,#538,.T.) ;
#556=EDGE_CURVE('',#233,#115,#555,.T.) ;
#65=EDGE_LOOP('',(#66,#67,#68,#69)) ;
#82=EDGE_LOOP('',(#83,#84,#85,#86)) ;
#122=EDGE_LOOP('',(#123,#124,#125,#126)) ;
#128=EDGE_LOOP('',(#129,#130)) ;
#146=EDGE_LOOP('',(#147,#148)) ;
#164=EDGE_LOOP('',(#165,#166)) ;
#182=EDGE_LOOP('',(#183,#184)) ;
#214=EDGE_LOOP('',(#215,#216,#217,#218)) ;
#254=EDGE_LOOP('',(#255,#256,#257,#258)) ;
#260=EDGE_LOOP('',(#261,#262)) ;
#278=EDGE_LOOP('',(#279,#280)) ;
#296=EDGE_LOOP('',(#297,#298)) ;
#314=EDGE_LOOP('',(#315,#316)) ;
#346=EDGE_LOOP('',(#347,#348,#349,#350)) ;
#368=EDGE_LOOP('',(#369,#370,#371,#372)) ;
#385=EDGE_LOOP('',(#386,#387,#388,#389)) ;
#402=EDGE_LOOP('',(#403,#404,#405,#406)) ;
#414=EDGE_LOOP('',(#415,#416,#417,#418)) ;
#436=EDGE_LOOP('',(#437,#438,#439,#440)) ;
#443=EDGE_LOOP('',(#444,#445,#446,#447)) ;
#465=EDGE_LOOP('',(#466,#467,#468,#469)) ;
#472=EDGE_LOOP('',(#473,#474,#475,#476)) ;
#494=EDGE_LOOP('',(#495,#496,#497,#498)) ;
#501=EDGE_LOOP('',(#502,#503,#504,#505)) ;
#523=EDGE_LOOP('',(#524,#525,#526,#527)) ;
#540=EDGE_LOOP('',(#541,#542,#543,#544)) ;
#557=EDGE_LOOP('',(#558,#559,#560,#561)) ;
#569=EDGE_LOOP('',(#570,#571,#572,#573)) ;
#70=FACE_OUTER_BOUND('',#65,.T.) ;
#87=FACE_OUTER_BOUND('',#82,.T.) ;
#127=FACE_OUTER_BOUND('',#122,.T.) ;
#259=FACE_OUTER_BOUND('',#254,.T.) ;
#373=FACE_OUTER_BOUND('',#368,.T.) ;
#390=FACE_OUTER_BOUND('',#385,.T.) ;
#407=FACE_OUTER_BOUND('',#402,.T.) ;
#419=FACE_OUTER_BOUND('',#414,.T.) ;
#441=FACE_OUTER_BOUND('',#436,.T.) ;
#448=FACE_OUTER_BOUND('',#443,.T.) ;
#470=FACE_OUTER_BOUND('',#465,.T.) ;
#477=FACE_OUTER_BOUND('',#472,.T.) ;
#499=FACE_OUTER_BOUND('',#494,.T.) ;
#506=FACE_OUTER_BOUND('',#501,.T.) ;
#528=FACE_OUTER_BOUND('',#523,.T.) ;
#545=FACE_OUTER_BOUND('',#540,.T.) ;
#562=FACE_OUTER_BOUND('',#557,.T.) ;
#574=FACE_OUTER_BOUND('',#569,.T.) ;
#49=LINE('Line',#46,#48) ;
#63=LINE('Line',#60,#62) ;
#97=LINE('Line',#94,#96) ;
#106=LINE('Line',#103,#105) ;
#113=LINE('Line',#110,#112) ;
#120=LINE('Line',#117,#119) ;
#189=LINE('Line',#186,#188) ;
#198=LINE('Line',#195,#197) ;
#205=LINE('Line',#202,#204) ;
#212=LINE('Line',#209,#211) ;
#229=LINE('Line',#226,#228) ;
#238=LINE('Line',#235,#237) ;
#245=LINE('Line',#242,#244) ;
#252=LINE('Line',#249,#251) ;
#321=LINE('Line',#318,#320) ;
#330=LINE('Line',#327,#329) ;
#337=LINE('Line',#334,#336) ;
#344=LINE('Line',#341,#343) ;
#361=LINE('Line',#358,#360) ;
#366=LINE('Line',#363,#365) ;
#383=LINE('Line',#380,#382) ;
#400=LINE('Line',#397,#399) ;
#429=LINE('Line',#426,#428) ;
#434=LINE('Line',#431,#433) ;
#458=LINE('Line',#455,#457) ;
#463=LINE('Line',#460,#462) ;
#487=LINE('Line',#484,#486) ;
#492=LINE('Line',#489,#491) ;
#516=LINE('Line',#513,#515) ;
#521=LINE('Line',#518,#520) ;
#538=LINE('Line',#535,#537) ;
#555=LINE('Line',#552,#554) ;
#93=PLANE('',#92) ;
#225=PLANE('',#224) ;
#357=PLANE('',#356) ;
#379=PLANE('',#378) ;
#396=PLANE('',#395) ;
#413=PLANE('',#412) ;
#512=PLANE('',#511) ;
#534=PLANE('',#533) ;
#551=PLANE('',#550) ;
#568=PLANE('',#567) ;
#14=PLANE_ANGLE_MEASURE_WITH_UNIT(PLANE_ANGLE_MEASURE(0.0174532925199),#13) ;
#9=PRODUCT_CATEGORY_RELATIONSHIP(' ',' ',#7,#8) ;
#6=PRODUCT_DEFINITION_FORMATION_WITH_SPECIFIED_SOURCE('',' ',#5,.NOT_KNOWN.) ;
#21=SHAPE_DEFINITION_REPRESENTATION(#11,#20) ;
#42=VERTEX_POINT('',#41) ;
#44=VERTEX_POINT('',#43) ;
#51=VERTEX_POINT('',#50) ;
#58=VERTEX_POINT('',#57) ;
#99=VERTEX_POINT('',#98) ;
#101=VERTEX_POINT('',#100) ;
#108=VERTEX_POINT('',#107) ;
#115=VERTEX_POINT('',#114) ;
#137=VERTEX_POINT('',#136) ;
#139=VERTEX_POINT('',#138) ;
#155=VERTEX_POINT('',#154) ;
#157=VERTEX_POINT('',#156) ;
#173=VERTEX_POINT('',#172) ;
#175=VERTEX_POINT('',#174) ;
#191=VERTEX_POINT('',#190) ;
#193=VERTEX_POINT('',#192) ;
#200=VERTEX_POINT('',#199) ;
#207=VERTEX_POINT('',#206) ;
#231=VERTEX_POINT('',#230) ;
#233=VERTEX_POINT('',#232) ;
#240=VERTEX_POINT('',#239) ;
#247=VERTEX_POINT('',#246) ;
#269=VERTEX_POINT('',#268) ;
#271=VERTEX_POINT('',#270) ;
#287=VERTEX_POINT('',#286) ;
#289=VERTEX_POINT('',#288) ;
#305=VERTEX_POINT('',#304) ;
#307=VERTEX_POINT('',#306) ;
#323=VERTEX_POINT('',#322) ;
#325=VERTEX_POINT('',#324) ;
#332=VERTEX_POINT('',#331) ;
#339=VERTEX_POINT('',#338) ;
#12=(LENGTH_UNIT()NAMED_UNIT(*)SI_UNIT(.MILLI.,.METRE.)) ;
#13=(NAMED_UNIT(*)PLANE_ANGLE_UNIT()SI_UNIT($,.RADIAN.)) ;
#15=(NAMED_UNIT(*)SI_UNIT($,.STERADIAN.)SOLID_ANGLE_UNIT()) ;
#17=(GEOMETRIC_REPRESENTATION_CONTEXT(3)GLOBAL_UNCERTAINTY_ASSIGNED_CONTEXT((#16))GLOBAL_UNIT_ASSIGNED_CONTEXT((#12,#13,#15))REPRESENTATION_CONTEXT(' ',' ')) ;
ENDSEC;
END-ISO-10303-21;
