  0
SECTION
  2
HEADER
  9
$ACADVER
  1
AC1009
  9
$INSBASE
 10
0.0
 20
0.0
 30
0.0
  9
$EXTMIN
 10
0.237099
 20
0.237999
 30
0.0
  9
$EXTMAX
 10
392.237099
 20
262.737999
 30
0.0
  9
$LIMMIN
 10
0.0
 20
0.0
  9
$LIMMAX
 10
12.0
 20
9.0
  9
$ORTHOMODE
 70
     1
  9
$REGENMODE
 70
     1
  9
$FILLMODE
 70
     1
  9
$QTEXTMODE
 70
     0
  9
$MIRRTEXT
 70
     1
  9
$DRAGMODE
 70
     2
  9
$LTSCALE
 40
5.0
  9
$OSMODE
 70
     0
  9
$ATTMODE
 70
     1
  9
$TEXTSIZE
 40
2.0
  9
$TRACEWID
 40
0.05
  9
$TEXTSTYLE
  7
ROMANS
  9
$CLAYER
  8
0
  9
$CELTYPE
  6
CONTINUOUS
  9
$CECOLOR
 62
   256
  9
$DIMSCALE
 40
1.0
  9
$DIMASZ
 40
0.18
  9
$DIMEXO
 40
0.0625
  9
$DIMDLI
 40
0.38
  9
$DIMRND
 40
0.0
  9
$DIMDLE
 40
0.0
  9
$DIMEXE
 40
0.18
  9
$DIMTP
 40
0.0
  9
$DIMTM
 40
0.0
  9
$DIMTXT
 40
0.18
  9
$DIMCEN
 40
0.09
  9
$DIMTSZ
 40
0.0
  9
$DIMTOL
 70
     0
  9
$DIMLIM
 70
     0
  9
$DIMTIH
 70
     1
  9
$DIMTOH
 70
     1
  9
$DIMSE1
 70
     0
  9
$DIMSE2
 70
     0
  9
$DIMTAD
 70
     0
  9
$DIMZIN
 70
     0
  9
$DIMBLK
  1

  9
$DIMASO
 70
     1
  9
$DIMSHO
 70
     1
  9
$DIMPOST
  1

  9
$DIMAPOST
  1

  9
$DIMALT
 70
     0
  9
$DIMALTD
 70
     2
  9
$DIMALTF
 40
25.4
  9
$DIMLFAC
 40
1.0
  9
$DIMTOFL
 70
     0
  9
$DIMTVP
 40
0.0
  9
$DIMTIX
 70
     0
  9
$DIMSOXD
 70
     0
  9
$DIMSAH
 70
     0
  9
$DIMBLK1
  1

  9
$DIMBLK2
  1

  9
$DIMSTYLE
  2
*UNNAMED
  9
$DIMCLRD
 70
     0
  9
$DIMCLRE
 70
     0
  9
$DIMCLRT
 70
     0
  9
$DIMTFAC
 40
1.0
  9
$DIMGAP
 40
0.09
  9
$LUNITS
 70
     2
  9
$LUPREC
 70
     4
  9
$SKETCHINC
 40
0.1
  9
$FILLETRAD
 40
1.5
  9
$AUNITS
 70
     0
  9
$AUPREC
 70
     0
  9
$MENU
  1
acad
  9
$ELEVATION
 40
0.0
  9
$PELEVATION
 40
0.0
  9
$THICKNESS
 40
0.0
  9
$LIMCHECK
 70
     0
  9
$BLIPMODE
 70
     1
  9
$CHAMFERA
 40
0.0
  9
$CHAMFERB
 40
0.0
  9
$SKPOLY
 70
     0
  9
$TDCREATE
 40
2449063.416780787
  9
$TDUPDATE
 40
2449063.506765162
  9
$TDINDWG
 40
0.0008658565
  9
$TDUSRTIMER
 40
0.0008658565
  9
$USRTIMER
 70
     1
  9
$ANGBASE
 50
0.0
  9
$ANGDIR
 70
     0
  9
$PDMODE
 70
     0
  9
$PDSIZE
 40
0.0
  9
$PLINEWID
 40
0.0
  9
$COORDS
 70
     2
  9
$SPLFRAME
 70
     0
  9
$SPLINETYPE
 70
     6
  9
$SPLINESEGS
 70
     8
  9
$ATTDIA
 70
     0
  9
$ATTREQ
 70
     1
  9
$HANDLING
 70
     0
  9
$HANDSEED
  5
0
  9
$SURFTAB1
 70
   100
  9
$SURFTAB2
 70
   100
  9
$SURFTYPE
 70
     6
  9
$SURFU
 70
     6
  9
$SURFV
 70
     6
  9
$UCSNAME
  2

  9
$UCSORG
 10
0.0
 20
0.0
 30
0.0
  9
$UCSXDIR
 10
1.0
 20
0.0
 30
0.0
  9
$UCSYDIR
 10
0.0
 20
1.0
 30
0.0
  9
$PUCSNAME
  2

  9
$PUCSORG
 10
0.0
 20
0.0
 30
0.0
  9
$PUCSXDIR
 10
1.0
 20
0.0
 30
0.0
  9
$PUCSYDIR
 10
0.0
 20
1.0
 30
0.0
  9
$USERI1
 70
     0
  9
$USERI2
 70
     0
  9
$USERI3
 70
     0
  9
$USERI4
 70
     0
  9
$USERI5
 70
     0
  9
$USERR1
 40
0.0
  9
$USERR2
 40
0.0
  9
$USERR3
 40
0.0
  9
$USERR4
 40
0.0
  9
$USERR5
 40
0.0
  9
$WORLDVIEW
 70
     1
  9
$SHADEDGE
 70
     3
  9
$SHADEDIF
 70
    70
  9
$TILEMODE
 70
     1
  9
$MAXACTVP
 70
    16
  9
$PINSBASE
 10
0.0
 20
0.0
 30
0.0
  9
$PLIMCHECK
 70
     0
  9
$PEXTMIN
 10
1.000000E+20
 20
1.000000E+20
 30
1.000000E+20
  9
$PEXTMAX
 10
-1.000000E+20
 20
-1.000000E+20
 30
-1.000000E+20
  9
$PLIMMIN
 10
0.0
 20
0.0
  9
$PLIMMAX
 10
12.0
 20
9.0
  9
$UNITMODE
 70
     0
  9
$VISRETAIN
 70
     0
  9
$PLINEGEN
 70
     0
  9
$PSLTSCALE
 70
     0
  9
$TREEDEPTH
 70
  3020
  9
$DWGCODEPAGE
  3
undefined
  0
ENDSEC
  0
SECTION
  2
TABLES
  0
TABLE
  2
VPORT
 70
     2
  0
VPORT
  2
*ACTIVE
 70
     0
 10
0.0
 20
0.0
 11
1.0
 21
1.0
 12
222.522843
 22
142.040485
 13
0.0
 23
0.0
 14
2.5
 24
2.5
 15
0.0
 25
0.0
 16
0.0
 26
0.0
 36
1.0
 17
0.0
 27
0.0
 37
0.0
 40
284.080971
 41
1.566616
 42
50.0
 43
0.0
 44
0.0
 50
0.0
 51
0.0
 71
     0
 72
   100
 73
     1
 74
     1
 75
     1
 76
     0
 77
     0
 78
     0
  0
ENDTAB
  0
TABLE
  2
LTYPE
 70
     4
  0
LTYPE
  2
CONTINUOUS
 70
    64
  3
Solid line
 72
    65
 73
     0
 40
0.0
  0
LTYPE
  2
DASHED
 70
    64
  3
__ __ __ __ __ __ __ __ __ __ __ __ __ __ __ __
 72
    65
 73
     2
 40
0.75
 49
0.5
 49
-0.25
  0
LTYPE
  2
CENTER
 70
    64
  3
____ _ ____ _ ____ _ ____ _ ____ _ ____ _ ____ 
 72
    65
 73
     4
 40
2.0
 49
1.25
 49
-0.25
 49
0.25
 49
-0.25
  0
LTYPE
  2
HIDDEN
 70
    64
  3
__ __ __ __ __ __ __ __ __ __ __ __ __ __ __ __
 72
    65
 73
     2
 40
0.375
 49
0.25
 49
-0.125
  0
ENDTAB
  0
TABLE
  2
LAYER
 70
    13
  0
LAYER
  2
0
 70
    64
 62
     7
  6
CONTINUOUS
  0
LAYER
  2
RAAMI
 70
    64
 62
    -4
  6
CONTINUOUS
  0
LAYER
  2
PAKSU
 70
    64
 62
    -3
  6
CONTINUOUS
  0
LAYER
  2
OHUT
 70
    64
 62
    -6
  6
CONTINUOUS
  0
LAYER
  2
SWEDEN
 70
    64
 62
    -7
  6
CONTINUOUS
  0
LAYER
  2
SWEDEN2
 70
    64
 62
    -5
  6
CONTINUOUS
  0
LAYER
  2
BASE
 70
    64
 62
    -7
  6
CONTINUOUS
  0
LAYER
  2
21
 70
    64
 62
    -2
  6
CONTINUOUS
  0
LAYER
  2
HEL035
 70
    64
 62
    -7
  6
CONTINUOUS
  0
LAYER
  2
MUO
 70
    64
 62
    -7
  6
CONTINUOUS
  0
LAYER
  2
1
 70
    64
 62
    -2
  6
CONTINUOUS
  0
LAYER
  2
BASE1
 70
    64
 62
    -5
  6
CONTINUOUS
  0
LAYER
  2
TEKS
 70
    64
 62
    -5
  6
CONTINUOUS
  0
ENDTAB
  0
TABLE
  2
STYLE
 70
     3
  0
STYLE
  2
STANDARD
 70
    64
 40
0.0
 41
1.0
 50
0.0
 71
     0
 42
2.5
  3
txt
  4

  0
STYLE
  2
ROMANS
 70
    64
 40
0.0
 41
1.0
 50
0.0
 71
     0
 42
2.0
  3
romans
  4

  0
STYLE
  2
GREEKS
 70
    64
 40
0.0
 41
1.0
 50
0.0
 71
     0
 42
2.5
  3
TXT
  4

  0
ENDTAB
  0
TABLE
  2
VIEW
 70
     0
  0
ENDTAB
  0
TABLE
  2
UCS
 70
     0
  0
ENDTAB
  0
TABLE
  2
APPID
 70
     1
  0
APPID
  2
ACAD
 70
    64
  0
ENDTAB
  0
TABLE
  2
DIMSTYLE
 70
     0
  0
ENDTAB
  0
ENDSEC
  0
SECTION
  2
BLOCKS
  0
BLOCK
  8
0
  2
1
 70
    64
 10
0.0
 20
0.0
 30
0.0
  3
1
  0
ENDBLK
  8
0
  0
BLOCK
  8
0
  2
BLC16
 70
     0
 10
0.0
 20
0.0
 30
0.0
  3
BLC16
  0
LINE
  8
0
  6
CONTINUOUS
 10
0.007689
 20
38.054928
 30
0.0
 11
19.983683
 21
38.054928
 31
0.0
  0
LINE
  8
0
  6
CONTINUOUS
 10
19.983683
 20
38.054928
 30
0.0
 11
19.983683
 21
-0.003751
 31
0.0
  0
LINE
  8
0
  6
CONTINUOUS
 10
19.983683
 20
-0.003751
 30
0.0
 11
0.007689
 21
-0.003751
 31
0.0
  0
LINE
  8
0
  6
CONTINUOUS
 10
0.007689
 20
-0.003751
 30
0.0
 11
0.007689
 21
38.054928
 31
0.0
  0
LINE
  8
0
  6
CONTINUOUS
 10
14.152643
 20
36.919738
 30
0.0
 11
14.152643
 21
33.528469
 31
0.0
  0
LINE
  8
0
  6
CONTINUOUS
 10
14.152643
 20
33.528469
 30
0.0
 11
11.560435
 21
33.528469
 31
0.0
  0
LINE
  8
0
  6
CONTINUOUS
 10
11.560435
 20
33.528469
 30
0.0
 11
11.560435
 21
30.778433
 31
0.0
  0
LINE
  8
0
  6
CONTINUOUS
 10
11.560435
 20
30.778433
 30
0.0
 11
14.152643
 21
30.778433
 31
0.0
  0
LINE
  8
0
  6
CONTINUOUS
 10
14.152643
 20
30.778433
 30
0.0
 11
14.152643
 21
27.387164
 31
0.0
  0
TEXT
  8
0
  6
CONTINUOUS
 10
6.558569
 20
30.805266
 30
0.0
 40
2.5
  1
2
 11
6.558569
 21
29.971932
 31
0.0
 73
     1
  0
TEXT
  8
0
  6
CONTINUOUS
 10
6.553289
 20
23.854078
 30
0.0
 40
2.5
  1
2 I
 11
6.553289
 21
23.020744
 31
0.0
 73
     1
  0
LINE
  8
0
  6
CONTINUOUS
 10
12.942534
 20
26.359129
 30
0.0
 11
15.288299
 21
25.023775
 31
0.0
  0
LINE
  8
0
  6
CONTINUOUS
 10
15.288299
 20
25.023775
 30
0.0
 11
12.942534
 21
23.833856
 31
0.0
  0
LINE
  8
0
  6
CONTINUOUS
 10
14.169823
 20
26.359129
 30
0.0
 11
16.515589
 21
25.023775
 31
0.0
  0
LINE
  8
0
  6
CONTINUOUS
 10
16.515589
 20
25.023775
 30
0.0
 11
14.169823
 21
23.833856
 31
0.0
  0
TEXT
  8
0
  6
CONTINUOUS
 10
11.566446
 20
19.235679
 30
0.0
 40
2.5
  1
I
 11
11.566446
 21
18.402346
 31
0.0
 73
     1
  0
TEXT
  8
0
  6
CONTINUOUS
 10
13.018181
 20
18.902346
 30
0.0
 40
1.5
  1
2
 11
13.018181
 21
18.402346
 31
0.0
 73
     1
  0
LINE
  8
0
  6
CONTINUOUS
 10
10.65733
 20
12.773825
 30
0.0
 11
13.003095
 21
13.963744
 31
0.0
  0
LINE
  8
0
  6
CONTINUOUS
 10
13.003095
 20
11.438471
 30
0.0
 11
10.65733
 21
12.773825
 31
0.0
  0
LINE
  8
0
  6
CONTINUOUS
 10
6.557002
 20
16.714658
 30
0.0
 11
15.281743
 21
16.714658
 31
0.0
  0
LINE
  8
0
  6
CONTINUOUS
 10
6.557002
 20
17.523984
 30
0.0
 11
6.557002
 21
15.908791
 31
0.0
  0
LINE
  8
0
  6
CONTINUOUS
 10
15.286518
 20
17.523984
 30
0.0
 11
15.286518
 21
15.908791
 31
0.0
  0
ARC
  8
0
  6
CONTINUOUS
 10
12.684846
 20
18.508045
 30
0.0
 40
2.922744
 50
193.105513
 51
283.105513
  0
TEXT
  8
0
  6
CONTINUOUS
 10
6.557002
 20
11.567974
 30
0.0
 40
2.5
  1
2I
 11
6.557002
 21
10.734641
 31
0.0
 73
     1
  0
LINE
  8
0
  6
CONTINUOUS
 10
6.557002
 20
9.441103
 30
0.0
 11
15.281743
 21
9.441103
 31
0.0
  0
LINE
  8
0
  6
CONTINUOUS
 10
15.286518
 20
10.250429
 30
0.0
 11
15.286518
 21
8.635236
 31
0.0
  0
LINE
  8
0
  6
CONTINUOUS
 10
6.557002
 20
10.250429
 30
0.0
 11
6.557002
 21
8.635236
 31
0.0
  0
TEXT
  8
0
  6
CONTINUOUS
 10
6.557002
 20
4.778631
 30
0.0
 40
2.5
  1
I
 11
6.557002
 21
3.945298
 31
0.0
 73
     1
  0
LINE
  8
0
  6
CONTINUOUS
 10
9.509029
 20
6.822462
 30
0.0
 11
9.509029
 21
5.477736
 31
0.0
  0
LINE
  8
0
  6
CONTINUOUS
 10
8.615065
 20
5.477736
 30
0.0
 11
9.52622
 21
5.477736
 31
0.0
  0
LINE
  8
0
  6
CONTINUOUS
 10
9.509029
 20
5.477736
 30
0.0
 11
10.402992
 21
5.477736
 31
0.0
  0
LINE
  8
0
  6
CONTINUOUS
 10
8.901592
 20
5.082328
 30
0.0
 11
9.509029
 21
5.082328
 31
0.0
  0
LINE
  8
0
  6
CONTINUOUS
 10
9.509029
 20
5.082328
 30
0.0
 11
10.150849
 21
5.082328
 31
0.0
  0
LINE
  8
0
  6
CONTINUOUS
 10
9.981861
 20
4.719969
 30
0.0
 11
9.072041
 21
4.719969
 31
0.0
  0
LINE
  8
0
  6
CONTINUOUS
 10
15.286518
 20
2.797924
 30
0.0
 11
15.286518
 21
1.182731
 31
0.0
  0
LINE
  8
0
  6
CONTINUOUS
 10
6.557002
 20
1.988598
 30
0.0
 11
15.281743
 21
1.988598
 31
0.0
  0
LINE
  8
0
  6
CONTINUOUS
 10
6.557002
 20
2.797924
 30
0.0
 11
6.557002
 21
1.182731
 31
0.0
  0
ENDBLK
  8
0
  0
BLOCK
  8
0
  2
BLC27
 70
     0
 10
0.0
 20
0.0
 30
0.0
  3
BLC27
  0
INSERT
  8
SWEDEN2
  6
CENTER
  2
BLC26
 10
0.08063
 20
0.037985
 30
0.0
 41
1.006225
 42
1.006225
 43
1.006225
  0
ENDBLK
  8
0
  0
BLOCK
  8
0
  2
BLC26
 70
    64
 10
0.0
 20
0.0
 30
0.0
  3
BLC26
  0
ARC
  8
0
  6
CONTINUOUS
 10
-0.180576
 20
1.17922
 30
0.0
 40
1.196859
 50
90.0
 51
265.706237
  0
LINE
  8
0
  6
CONTINUOUS
 10
-0.186638
 20
-0.01092
 30
0.0
 11
0.458942
 21
-0.01092
 31
0.0
  0
LINE
  8
0
  6
CONTINUOUS
 10
-0.186638
 20
2.375671
 30
0.0
 11
0.45288
 21
2.375671
 31
0.0
  0
LINE
  8
0
  6
CONTINUOUS
 10
-0.185509
 20
-2.404629
 30
0.0
 11
0.460071
 21
-2.404629
 31
0.0
  0
ARC
  8
0
  6
CONTINUOUS
 10
-0.180576
 20
-1.207779
 30
0.0
 40
1.196859
 50
90.0
 51
270.0
  0
LINE
  8
0
  6
CONTINUOUS
 10
0.451525
 20
-2.404586
 30
0.0
 11
1.401805
 21
-2.404586
 31
0.0
  0
LINE
  8
0
  6
CONTINUOUS
 10
0.446785
 20
2.375674
 30
0.0
 11
1.418544
 21
2.375674
 31
0.0
  0
LINE
  8
0
  6
CONTINUOUS
 10
0.456627
 20
-0.010911
 30
0.0
 11
1.422749
 21
-0.010911
 31
0.0
  0
ENDBLK
  8
0
  0
BLOCK
  8
0
  2
BLC28
 70
     0
 10
0.0
 20
0.0
 30
0.0
  3
BLC28
  0
LINE
  8
0
  6
CONTINUOUS
 10
0.484576
 20
2.400948
 30
0.0
 11
1.456712
 21
2.400948
 31
0.0
  0
LINE
  8
0
  6
CONTINUOUS
 10
0.474673
 20
4.802388
 30
0.0
 11
1.452481
 21
4.802388
 31
0.0
  0
LINE
  8
0
  6
CONTINUOUS
 10
0.479442
 20
-0.007627
 30
0.0
 11
1.435637
 21
-0.007627
 31
0.0
  0
ARC
  8
0
  6
CONTINUOUS
 10
-0.156593
 20
1.19663
 30
0.0
 40
1.204309
 50
90.0
 51
270.0
  0
LINE
  8
0
  6
CONTINUOUS
 10
-0.161557
 20
-0.007671
 30
0.0
 11
0.488041
 21
-0.007671
 31
0.0
  0
LINE
  8
0
  6
CONTINUOUS
 10
-0.162693
 20
4.802386
 30
0.0
 11
0.480806
 21
4.802386
 31
0.0
  0
LINE
  8
0
  6
CONTINUOUS
 10
-0.162693
 20
2.400939
 30
0.0
 11
0.486905
 21
2.400939
 31
0.0
  0
ARC
  8
0
  6
CONTINUOUS
 10
-0.156593
 20
3.598487
 30
0.0
 40
1.204309
 50
90.0
 51
265.706237
  0
LINE
  8
0
  6
CONTINUOUS
 10
0.484576
 20
-2.362961
 30
0.0
 11
1.456712
 21
-2.362961
 31
0.0
  0
LINE
  8
0
  6
CONTINUOUS
 10
0.479442
 20
-4.771537
 30
0.0
 11
1.435637
 21
-4.771537
 31
0.0
  0
ARC
  8
0
  6
CONTINUOUS
 10
-0.156593
 20
-3.567279
 30
0.0
 40
1.204309
 50
90.0
 51
270.0
  0
LINE
  8
0
  6
CONTINUOUS
 10
-0.161557
 20
-4.77158
 30
0.0
 11
0.488041
 21
-4.77158
 31
0.0
  0
LINE
  8
0
  6
CONTINUOUS
 10
-0.162693
 20
-2.36297
 30
0.0
 11
0.486905
 21
-2.36297
 31
0.0
  0
ARC
  8
0
  6
CONTINUOUS
 10
-0.156593
 20
-1.165422
 30
0.0
 40
1.204309
 50
101.28465
 51
265.706237
  0
ENDBLK
  8
0
  0
BLOCK
  8
0
  2
BLC22
 70
     0
 10
0.0
 20
0.0
 30
0.0
  3
BLC22
  0
LINE
  8
HEL035
 10
0.0
 20
-0.00155
 30
0.0
 11
0.0
 21
9.99845
 31
0.0
  0
LINE
  8
21
 10
2.5
 20
10.0
 30
0.0
 11
5.0
 21
10.0
 31
0.0
  0
LINE
  8
HEL035
 10
0.0
 20
9.99845
 30
0.0
 11
2.5
 21
9.99845
 31
0.0
  0
LINE
  8
HEL035
 10
-2.5
 20
5.0
 30
0.0
 11
2.5
 21
5.0
 31
0.0
  0
LINE
  8
21
 10
2.5
 20
5.0
 30
0.0
 11
5.0
 21
5.0
 31
0.0
  0
LINE
  8
21
 10
5.0
 20
5.0
 30
0.0
 11
5.0
 21
7.9
 31
0.0
  0
LINE
  8
HEL035
 10
3.88095
 20
6.944425
 30
0.0
 11
4.560313
 21
6.008681
 31
0.0
  0
LINE
  8
21
 10
10.0
 20
10.0
 30
0.0
 11
4.2
 21
6.5
 31
0.0
  0
LINE
  8
HEL035
 10
2.5
 20
-0.00155
 30
0.0
 11
0.0
 21
-0.00155
 31
0.0
  0
LINE
  8
21
 10
2.5
 20
0.0
 30
0.0
 11
5.0
 21
0.0
 31
0.0
  0
ENDBLK
  8
0
  0
BLOCK
  8
0
  2
BLC18
 70
     0
 10
0.0
 20
0.0
 30
0.0
  3
BLC18
  0
LINE
  8
MUO
 10
-0.056268
 20
0.849555
 30
0.0
 11
8.307242
 21
9.215502
 31
0.0
  0
LINE
  8
MUO
 10
0.928025
 20
-0.107047
 30
0.0
 11
9.268386
 21
8.2307
 31
0.0
  0
LINE
  8
MUO
 10
-0.056268
 20
-0.107047
 30
0.0
 11
-0.056268
 21
9.215502
 31
0.0
  0
LINE
  8
MUO
 10
9.268386
 20
-0.107047
 30
0.0
 11
-0.056268
 21
-0.107047
 31
0.0
  0
LINE
  8
MUO
 10
9.268386
 20
9.215502
 30
0.0
 11
9.268386
 21
-0.107047
 31
0.0
  0
LINE
  8
MUO
 10
-0.056268
 20
9.215502
 30
0.0
 11
9.268386
 21
9.215502
 31
0.0
  0
ENDBLK
  8
0
  0
BLOCK
  8
0
  2
BLC29
 70
     0
 10
0.0
 20
0.0
 30
0.0
  3
BLC29
  0
LINE
  8
0
  6
CONTINUOUS
 10
0.004865
 20
1.206889
 30
0.0
 11
2.350631
 21
-0.128465
 31
0.0
  0
LINE
  8
0
  6
CONTINUOUS
 10
2.350631
 20
-0.128465
 30
0.0
 11
0.004865
 21
-1.318384
 31
0.0
  0
ENDBLK
  8
0
  0
BLOCK
  8
0
  2
WKU130
 70
     0
 10
190.0
 20
250.0
 30
0.0
  3
WKU130
  0
ARC
  8
21
 10
191.083333
 20
249.916667
 30
0.0
 40
1.086534
 50
32.471192
 51
175.601295
  0
ARC
  8
21
 10
192.916667
 20
251.083333
 30
0.0
 40
1.086534
 50
212.471192
 51
355.601295
  0
ENDBLK
  8
0
  0
BLOCK
  8
0
  2
BLC15
 70
     0
 10
0.0
 20
0.0
 30
0.0
  3
BLC15
  0
LINE
  8
0
  6
CONTINUOUS
 10
0.142084
 20
3.490022
 30
0.0
 11
0.142084
 21
0.844365
 31
0.0
  0
LINE
  8
0
  6
CONTINUOUS
 10
-0.461611
 20
-0.937188
 30
0.0
 11
0.745779
 21
-0.937188
 31
0.0
  0
LINE
  8
0
  6
CONTINUOUS
 10
-0.894108
 20
-0.049675
 30
0.0
 11
1.169267
 21
-0.049675
 31
0.0
  0
LINE
  8
0
  6
CONTINUOUS
 10
-1.389679
 20
0.844365
 30
0.0
 11
1.673848
 21
0.844365
 31
0.0
  0
ENDBLK
  8
0
  0
BLOCK
  8
0
  2
BLC5
 70
     0
 10
0.0
 20
0.0
 30
0.0
  3
BLC5
  0
TEXT
  8
0
 10
-3.043704
 20
-6.645912
 30
0.0
 40
3.2
  1
PE
  0
LINE
  8
0
 10
-2.946392
 20
1.181176
 30
0.0
 11
2.135458
 21
1.181176
 31
0.0
  0
LINE
  8
0
 10
-0.48656
 20
2.238362
 30
0.0
 11
-0.48656
 21
6.930438
 31
0.0
  0
LINE
  8
0
 10
-1.973271
 20
0.065258
 30
0.0
 11
1.225411
 21
0.065258
 31
0.0
  0
LINE
  8
0
 10
2.685091
 20
2.238362
 30
0.0
 11
1.68494
 21
2.238362
 31
0.0
  0
LINE
  8
0
 10
-3.505035
 20
2.238362
 30
0.0
 11
2.649049
 21
2.238362
 31
0.0
  0
CIRCLE
  8
0
 10
-0.47755
 20
1.422632
 30
0.0
 40
3.804563
  0
ENDBLK
  8
0
  0
BLOCK
  8
0
  2
BLC25
 70
     0
 10
0.0
 20
0.0
 30
0.0
  3
BLC25
  0
TEXT
  8
0
  6
CONTINUOUS
 10
2.0
 20
30.666667
 30
0.0
 40
2.0
  1
1)
 11
2.0
 21
30.0
 31
0.0
 73
     1
  0
TEXT
  8
0
 10
6.0
 20
2.0
 30
0.0
 40
2.0
  1
7B    27     26
 11
6.0
 21
1.333333
 31
0.0
 73
     1
  0
TEXT
  8
0
 10
6.0
 20
5.333333
 30
0.0
 40
2.0
  1
5B     9      8
 11
6.0
 21
4.666667
 31
0.0
 73
     1
  0
TEXT
  8
0
 10
6.0
 20
8.666667
 30
0.0
 40
2.0
  1
3B     3      2
 11
6.0
 21
8.0
 31
0.0
 73
     1
  0
TEXT
  8
0
 10
32.0
 20
12.666667
 30
0.0
 40
2.0
  1
In=5A
 11
32.0
 21
12.0
 31
0.0
 73
     1
  0
TEXT
  8
0
 10
16.0
 20
12.666667
 30
0.0
 40
2.0
  1
In=1A 
 11
16.0
 21
12.0
 31
0.0
 73
     1
  0
TEXT
  8
0
 10
26.0
 20
18.666667
 30
0.0
 40
2.0
  1
108:
 11
26.0
 21
18.0
 31
0.0
 73
     1
  0
TEXT
  8
0
 10
6.0
 20
18.666667
 30
0.0
 40
2.0
  1
101:       
 11
6.0
 21
18.0
 31
0.0
 73
     1
  0
TEXT
  8
0
 10
6.0
 20
24.666667
 30
0.0
 40
2.0
  1
TERMINALS / UTTAG
 11
6.0
 21
24.0
 31
0.0
 73
     1
  0
LINE
  8
0
 10
0.0
 20
12.0
 30
0.0
 11
44.0
 21
12.0
 31
0.0
  0
LINE
  8
0
 10
28.0
 20
18.0
 30
0.0
 11
28.0
 21
0.0
 31
0.0
  0
LINE
  8
0
 10
14.0
 20
18.0
 30
0.0
 11
44.0
 21
18.0
 31
0.0
  0
LINE
  8
0
 10
14.0
 20
24.0
 30
0.0
 11
14.0
 21
0.0
 31
0.0
  0
LINE
  8
0
 10
0.0
 20
24.0
 30
0.0
 11
44.0
 21
24.0
 31
0.0
  0
LINE
  8
0
 10
44.0
 20
0.0
 30
0.0
 11
44.0
 21
30.0
 31
0.0
  0
LINE
  8
0
 10
0.0
 20
0.0
 30
0.0
 11
44.0
 21
0.0
 31
0.0
  0
LINE
  8
0
 10
0.0
 20
30.0
 30
0.0
 11
0.0
 21
0.0
 31
0.0
  0
LINE
  8
0
 10
44.0
 20
30.0
 30
0.0
 11
0.0
 21
30.0
 31
0.0
  0
ENDBLK
  8
0
  0
BLOCK
  8
0
  2
ABBA3V
 70
    64
 10
0.0
 20
0.0
 30
0.0
  3
ABBA3V
  0
TEXT
  8
RAAMI
  6
DASHED
 10
292.217194
 20
11.813359
 30
0.0
 40
3.0
  1
A3
  7
GREEKS
  0
TEXT
  8
RAAMI
  6
DASHED
 10
351.818577
 20
15.69253
 30
0.0
 40
1.4
  1
LEHTI SHEET
  7
GREEKS
  0
LINE
  8
PAKSU
 10
0.237099
 20
262.737999
 30
0.0
 11
392.237099
 21
262.737999
 31
0.0
  0
LINE
  8
RAAMI
 10
18.237099
 20
0.237999
 30
0.0
 11
0.237099
 21
0.237999
 31
0.0
  0
LINE
  8
PAKSU
 10
209.237099
 20
0.237999
 30
0.0
 11
392.237099
 21
0.237999
 31
0.0
  0
LINE
  8
PAKSU
 10
209.237099
 20
0.237999
 30
0.0
 11
209.237099
 21
35.237999
 31
0.0
  0
LINE
  8
PAKSU
 10
392.237099
 20
0.237999
 30
0.0
 11
392.237099
 21
35.237999
 31
0.0
  0
LINE
  8
OHUT
 10
209.237099
 20
18.237999
 30
0.0
 11
392.237099
 21
18.237999
 31
0.0
  0
LINE
  8
OHUT
 10
209.237099
 20
9.737999
 30
0.0
 11
392.237099
 21
9.737999
 31
0.0
  0
LINE
  8
OHUT
 10
209.237099
 20
26.737999
 30
0.0
 11
307.237099
 21
26.737999
 31
0.0
  0
LINE
  8
PAKSU
 10
209.237099
 20
35.237999
 30
0.0
 11
392.237099
 21
35.237999
 31
0.0
  0
TEXT
  8
RAAMI
 10
210.237099
 20
23.971333
 30
0.0
 40
1.4
  1
TARKASTI  CHECKED
  7
ROMANS
  0
TEXT
  8
RAAMI
 10
209.979934
 20
15.704666
 30
0.0
 40
1.4
  1
HYVÄKSYI  APPROVED
  7
ROMANS
  0
LINE
  8
OHUT
 10
307.237099
 20
0.237999
 30
0.0
 11
307.237099
 21
35.237999
 31
0.0
  0
TEXT
  8
RAAMI
 10
259.237099
 20
32.737999
 30
0.0
 40
1.4
  1
LIITTYY  CONCERNING
  7
ROMANS
  0
TEXT
  8
RAAMI
 10
259.237099
 20
23.737999
 30
0.0
 40
1.4
  1
TOLERANSSIT  TOLERANCES
  7
ROMANS
  0
TEXT
  8
RAAMI
 10
259.237099
 20
15.737999
 30
0.0
 40
1.4
  1
SUHDE  SCALE
  7
ROMANS
  0
TEXT
  8
RAAMI
 10
309.237099
 20
32.737999
 30
0.0
 40
1.4
  1
NIMITYS  NAME
  7
ROMANS
  0
TEXT
  8
RAAMI
 10
309.237099
 20
15.737999
 30
0.0
 40
1.4
  1
KOODI  CODE
  7
ROMANS
  0
TEXT
  8
RAAMI
 10
309.237099
 20
7.237999
 30
0.0
 40
1.4
  1
PIIRUSTUS NO  DRAWING NR
  7
ROMANS
  0
LINE
  8
OHUT
 10
349.737099
 20
9.737999
 30
0.0
 11
349.737099
 21
18.237999
 31
0.0
  0
TEXT
  8
RAAMI
 10
371.237099
 20
7.237999
 30
0.0
 40
1.4
  1
PAINOS  REVISION
  7
ROMANS
  0
LINE
  8
OHUT
 10
369.737099
 20
9.737999
 30
0.0
 11
369.737099
 21
0.237999
 31
0.0
  0
LINE
  8
RAAMI
 10
210.187099
 20
1.737999
 30
0.0
 11
211.937099
 21
1.737999
 31
0.0
  0
LINE
  8
RAAMI
 10
215.437099
 20
1.737999
 30
0.0
 11
217.187099
 21
1.737999
 31
0.0
  0
LINE
  8
RAAMI
 10
212.637099
 20
8.737999
 30
0.0
 11
211.459571
 21
5.373634
 31
0.0
  0
LINE
  8
RAAMI
 10
212.425886
 20
3.137999
 30
0.0
 11
213.547099
 21
3.137999
 31
0.0
  0
LINE
  8
RAAMI
 10
212.425889
 20
3.134542
 30
0.0
 11
211.937099
 21
1.737999
 31
0.0
  0
LINE
  8
RAAMI
 10
214.737099
 20
8.737999
 30
0.0
 11
215.913452
 21
5.376991
 31
0.0
  0
LINE
  8
RAAMI
 10
214.948197
 20
3.134863
 30
0.0
 11
215.437099
 21
1.737999
 31
0.0
  0
LINE
  8
RAAMI
 10
214.737099
 20
8.737999
 30
0.0
 11
213.827099
 21
8.737999
 31
0.0
  0
LINE
  8
RAAMI
 10
213.547099
 20
8.737999
 30
0.0
 11
213.547099
 21
5.377999
 31
0.0
  0
LINE
  8
RAAMI
 10
213.827099
 20
8.737999
 30
0.0
 11
213.827099
 21
5.377999
 31
0.0
  0
LINE
  8
RAAMI
 10
213.827099
 20
3.137999
 30
0.0
 11
214.946992
 21
3.137999
 31
0.0
  0
LINE
  8
RAAMI
 10
213.547099
 20
8.737999
 30
0.0
 11
212.637099
 21
8.737999
 31
0.0
  0
LINE
  8
RAAMI
 10
211.45904
 20
5.377999
 30
0.0
 11
213.547099
 21
5.377999
 31
0.0
  0
LINE
  8
RAAMI
 10
211.360082
 20
5.097999
 30
0.0
 11
213.547099
 21
5.097999
 31
0.0
  0
LINE
  8
RAAMI
 10
216.011591
 20
5.096594
 30
0.0
 11
217.187099
 21
1.737999
 31
0.0
  0
LINE
  8
RAAMI
 10
213.827099
 20
5.377999
 30
0.0
 11
215.912213
 21
5.377999
 31
0.0
  0
LINE
  8
RAAMI
 10
213.827099
 20
5.097999
 30
0.0
 11
216.010356
 21
5.097999
 31
0.0
  0
LINE
  8
RAAMI
 10
213.827099
 20
5.097999
 30
0.0
 11
213.827099
 21
3.137999
 31
0.0
  0
LINE
  8
RAAMI
 10
213.547099
 20
5.097999
 30
0.0
 11
213.547099
 21
3.137999
 31
0.0
  0
LINE
  8
RAAMI
 10
211.356988
 20
5.080538
 30
0.0
 11
210.187099
 21
1.737999
 31
0.0
  0
INSERT
  8
RAAMI
  2
*X13
 10
210.187099
 20
1.737999
 30
0.0
 41
0.7
 42
0.7
 43
0.7
  0
INSERT
  8
RAAMI
  2
*X14
 10
210.187099
 20
1.737999
 30
0.0
 41
0.7
 42
0.7
 43
0.7
  0
INSERT
  8
RAAMI
  2
*X15
 10
210.187099
 20
1.737999
 30
0.0
 41
0.7
 42
0.7
 43
0.7
  0
INSERT
  8
RAAMI
  2
*X16
 10
210.187099
 20
1.737999
 30
0.0
 41
0.7
 42
0.7
 43
0.7
  0
LINE
  8
RAAMI
 10
217.677099
 20
1.737999
 30
0.0
 11
217.677099
 21
5.097999
 31
0.0
  0
LINE
  8
RAAMI
 10
217.677099
 20
8.737999
 30
0.0
 11
219.637099
 21
8.737999
 31
0.0
  0
LINE
  8
RAAMI
 10
219.637099
 20
8.737999
 30
0.0
 11
219.637099
 21
5.377999
 31
0.0
  0
LINE
  8
RAAMI
 10
219.637099
 20
5.377999
 30
0.0
 11
217.677099
 21
5.377999
 31
0.0
  0
LINE
  8
RAAMI
 10
217.677099
 20
5.097999
 30
0.0
 11
219.637099
 21
5.097999
 31
0.0
  0
LINE
  8
RAAMI
 10
219.637099
 20
5.097999
 30
0.0
 11
219.637099
 21
1.737999
 31
0.0
  0
LINE
  8
RAAMI
 10
219.637099
 20
1.737999
 30
0.0
 11
217.677099
 21
1.737999
 31
0.0
  0
LINE
  8
RAAMI
 10
217.677099
 20
5.377999
 30
0.0
 11
217.677099
 21
8.737999
 31
0.0
  0
ARC
  8
RAAMI
 10
220.477099
 20
7.162999
 30
0.0
 40
1.575
 50
298.455859
 51
90.052437
  0
LINE
  8
RAAMI
 10
219.917099
 20
8.737999
 30
0.0
 11
220.475658
 21
8.737999
 31
0.0
  0
LINE
  8
RAAMI
 10
219.917099
 20
8.737999
 30
0.0
 11
219.917099
 21
5.377999
 31
0.0
  0
LINE
  8
RAAMI
 10
219.917099
 20
5.377999
 30
0.0
 11
221.901542
 21
5.377999
 31
0.0
  0
LINE
  8
RAAMI
 10
222.157099
 20
5.097999
 30
0.0
 11
219.917099
 21
5.097999
 31
0.0
  0
LINE
  8
RAAMI
 10
219.917099
 20
5.097999
 30
0.0
 11
219.917099
 21
1.737999
 31
0.0
  0
ARC
  8
RAAMI
 10
220.477099
 20
3.837999
 30
0.0
 40
2.1
 50
269.937724
 51
37.056553
  0
LINE
  8
RAAMI
 10
219.917099
 20
1.737999
 30
0.0
 11
220.474817
 21
1.738
 31
0.0
  0
ARC
  8
RAAMI
 10
220.477099
 20
3.837999
 30
0.0
 40
2.1
 50
47.28622
 51
68.787999
  0
INSERT
  8
RAAMI
  2
*X17
 10
210.187099
 20
1.737999
 30
0.0
 41
0.7
 42
0.7
 43
0.7
  0
INSERT
  8
RAAMI
  2
*X18
 10
210.187099
 20
1.737999
 30
0.0
 41
0.7
 42
0.7
 43
0.7
  0
INSERT
  8
RAAMI
  2
*X19
 10
210.187099
 20
1.737999
 30
0.0
 41
0.7
 42
0.7
 43
0.7
  0
INSERT
  8
RAAMI
  2
*X20
 10
210.187099
 20
1.737999
 30
0.0
 41
0.7
 42
0.7
 43
0.7
  0
INSERT
  8
RAAMI
  2
*X20
 10
215.647099
 20
1.737999
 30
0.0
 41
0.7
 42
0.7
 43
0.7
  0
INSERT
  8
RAAMI
  2
*X19
 10
215.647099
 20
1.737999
 30
0.0
 41
0.7
 42
0.7
 43
0.7
  0
INSERT
  8
RAAMI
  2
*X18
 10
215.647099
 20
1.737999
 30
0.0
 41
0.7
 42
0.7
 43
0.7
  0
INSERT
  8
RAAMI
  2
*X17
 10
215.647099
 20
1.737999
 30
0.0
 41
0.7
 42
0.7
 43
0.7
  0
ARC
  8
RAAMI
 10
225.937099
 20
3.837999
 30
0.0
 40
2.1
 50
47.28622
 51
68.787999
  0
LINE
  8
RAAMI
 10
225.377099
 20
1.737999
 30
0.0
 11
225.934817
 21
1.738
 31
0.0
  0
ARC
  8
RAAMI
 10
225.937099
 20
3.837999
 30
0.0
 40
2.1
 50
269.937724
 51
37.056553
  0
LINE
  8
RAAMI
 10
225.377099
 20
5.097999
 30
0.0
 11
225.377099
 21
1.737999
 31
0.0
  0
LINE
  8
RAAMI
 10
227.617099
 20
5.097999
 30
0.0
 11
225.377099
 21
5.097999
 31
0.0
  0
LINE
  8
RAAMI
 10
225.377099
 20
5.377999
 30
0.0
 11
227.361542
 21
5.377999
 31
0.0
  0
LINE
  8
RAAMI
 10
225.377099
 20
8.737999
 30
0.0
 11
225.377099
 21
5.377999
 31
0.0
  0
LINE
  8
RAAMI
 10
225.377099
 20
8.737999
 30
0.0
 11
225.935658
 21
8.737999
 31
0.0
  0
ARC
  8
RAAMI
 10
225.937099
 20
7.162999
 30
0.0
 40
1.575
 50
298.455859
 51
90.052437
  0
LINE
  8
RAAMI
 10
223.137099
 20
5.377999
 30
0.0
 11
223.137099
 21
8.737999
 31
0.0
  0
LINE
  8
RAAMI
 10
225.097099
 20
1.737999
 30
0.0
 11
223.137099
 21
1.737999
 31
0.0
  0
LINE
  8
RAAMI
 10
225.097099
 20
5.097999
 30
0.0
 11
225.097099
 21
1.737999
 31
0.0
  0
LINE
  8
RAAMI
 10
223.137099
 20
5.097999
 30
0.0
 11
225.097099
 21
5.097999
 31
0.0
  0
LINE
  8
RAAMI
 10
225.097099
 20
5.377999
 30
0.0
 11
223.137099
 21
5.377999
 31
0.0
  0
LINE
  8
RAAMI
 10
225.097099
 20
8.737999
 30
0.0
 11
225.097099
 21
5.377999
 31
0.0
  0
LINE
  8
RAAMI
 10
223.137099
 20
8.737999
 30
0.0
 11
225.097099
 21
8.737999
 31
0.0
  0
LINE
  8
RAAMI
 10
223.137099
 20
1.737999
 30
0.0
 11
223.137099
 21
5.097999
 31
0.0
  0
TEXT
  8
RAAMI
 10
229.737099
 20
1.737999
 30
0.0
 40
3.0
  1
ABB 
 41
0.8
  7
ROMANS
  0
TEXT
  8
RAAMI
 10
237.737099
 20
1.737999
 30
0.0
 40
3.0
  1
Strömberg
 41
0.8
  7
ROMANS
  0
LINE
  8
OHUT
 10
282.237099
 20
9.737999
 30
0.0
 11
282.237099
 21
18.237999
 31
0.0
  0
TEXT
  8
RAAMI
 10
27.737099
 20
4.737999
 30
0.0
 40
1.4
  1
MUUTOS
  7
ROMANS
  0
TEXT
  8
RAAMI
 10
27.737099
 20
2.471333
 30
0.0
 40
1.4
  1
REVISION
  7
ROMANS
  0
LINE
  8
OHUT
 10
46.737099
 20
9.237999
 30
0.0
 11
209.237099
 21
9.237999
 31
0.0
  0
LINE
  8
OHUT
 10
46.737099
 20
0.237999
 30
0.0
 11
46.737099
 21
9.237999
 31
0.0
  0
LINE
  8
OHUT
 10
40.737099
 20
4.737999
 30
0.0
 11
209.237099
 21
4.737999
 31
0.0
  0
LINE
  8
OHUT
 10
257.237099
 20
9.737999
 30
0.0
 11
257.237099
 21
35.237999
 31
0.0
  0
LINE
  8
OHUT
 10
271.237099
 20
9.737999
 30
0.0
 11
271.237099
 21
0.237999
 31
0.0
  0
TEXT
  8
RAAMI
 10
210.237099
 20
32.237999
 30
0.0
 40
1.4
  1
TEKI  PREPARED
  7
ROMANS
  0
TEXT
  8
RAAMI
 10
273.237099
 20
7.237999
 30
0.0
 40
1.4
  1
VAST.OSASTO RESP.DEPT.
  7
ROMANS
  0
TEXT
  8
RAAMI
 10
257.407006
 20
1.741783
 30
0.0
 40
3.0
  1
Power
 41
0.8
  7
ROMANS
  0
TEXT
  8
RAAMI
 10
42.237099
 20
1.195292
 30
0.0
 40
2.5
  1
B
  7
ROMANS
  0
TEXT
  8
RAAMI
 10
42.237099
 20
5.587508
 30
0.0
 40
2.5
  1
C
  7
ROMANS
  0
LINE
  8
PAKSU
 10
0.237099
 20
0.237999
 30
0.0
 11
392.237099
 21
0.237999
 31
0.0
  0
LINE
  8
PAKSU
 10
392.237099
 20
262.737999
 30
0.0
 11
392.237099
 21
0.237999
 31
0.0
  0
LINE
  8
PAKSU
 10
0.237099
 20
0.237999
 30
0.0
 11
0.237099
 21
262.737999
 31
0.0
  0
ENDBLK
  8
0
  0
BLOCK
  8
0
  2
*X13
 70
    65
 10
0.0
 20
0.0
 30
0.0
  3
*X
  0
LINE
  8
0
 62
     0
 10
2.284499
 20
6.52714
 30
0.0
 11
4.8
 21
9.042641
 31
0.0
  0
LINE
  8
0
 62
     0
 10
2.379686
 20
6.799104
 30
0.0
 11
4.8
 21
9.219417
 31
0.0
  0
LINE
  8
0
 62
     0
 10
2.474874
 20
7.071068
 30
0.0
 11
4.8
 21
9.396194
 31
0.0
  0
LINE
  8
0
 62
     0
 10
2.570061
 20
7.343032
 30
0.0
 11
4.8
 21
9.572971
 31
0.0
  0
LINE
  8
0
 62
     0
 10
2.665249
 20
7.614996
 30
0.0
 11
4.8
 21
9.749747
 31
0.0
  0
LINE
  8
0
 62
     0
 10
2.760436
 20
7.88696
 30
0.0
 11
4.8
 21
9.926524
 31
0.0
  0
LINE
  8
0
 62
     0
 10
2.855624
 20
8.158924
 30
0.0
 11
4.696699
 21
10.0
 31
0.0
  0
LINE
  8
0
 62
     0
 10
2.950811
 20
8.430889
 30
0.0
 11
4.519922
 21
10.0
 31
0.0
  0
LINE
  8
0
 62
     0
 10
3.045998
 20
8.702853
 30
0.0
 11
4.343146
 21
10.0
 31
0.0
  0
LINE
  8
0
 62
     0
 10
3.141186
 20
8.974817
 30
0.0
 11
4.166369
 21
10.0
 31
0.0
  0
LINE
  8
0
 62
     0
 10
3.236373
 20
9.246781
 30
0.0
 11
3.989592
 21
10.0
 31
0.0
  0
LINE
  8
0
 62
     0
 10
3.331561
 20
9.518745
 30
0.0
 11
3.812816
 21
10.0
 31
0.0
  0
LINE
  8
0
 62
     0
 10
3.426748
 20
9.790709
 30
0.0
 11
3.636039
 21
10.0
 31
0.0
  0
LINE
  8
0
 62
     0
 10
2.189311
 20
6.255175
 30
0.0
 11
4.8
 21
8.865864
 31
0.0
  0
LINE
  8
0
 62
     0
 10
2.094124
 20
5.983211
 30
0.0
 11
4.8
 21
8.689087
 31
0.0
  0
LINE
  8
0
 62
     0
 10
1.998936
 20
5.711247
 30
0.0
 11
4.8
 21
8.512311
 31
0.0
  0
LINE
  8
0
 62
     0
 10
1.903749
 20
5.439283
 30
0.0
 11
4.8
 21
8.335534
 31
0.0
  0
LINE
  8
0
 62
     0
 10
1.841243
 20
5.2
 30
0.0
 11
4.8
 21
8.158757
 31
0.0
  0
LINE
  8
0
 62
     0
 10
2.018019
 20
5.2
 30
0.0
 11
4.8
 21
7.981981
 31
0.0
  0
LINE
  8
0
 62
     0
 10
2.194796
 20
5.2
 30
0.0
 11
4.8
 21
7.805204
 31
0.0
  0
LINE
  8
0
 62
     0
 10
2.371573
 20
5.2
 30
0.0
 11
4.8
 21
7.628427
 31
0.0
  0
LINE
  8
0
 62
     0
 10
2.54835
 20
5.2
 30
0.0
 11
4.8
 21
7.45165
 31
0.0
  0
LINE
  8
0
 62
     0
 10
2.725126
 20
5.2
 30
0.0
 11
4.8
 21
7.274874
 31
0.0
  0
LINE
  8
0
 62
     0
 10
2.901903
 20
5.2
 30
0.0
 11
4.8
 21
7.098097
 31
0.0
  0
LINE
  8
0
 62
     0
 10
3.07868
 20
5.2
 30
0.0
 11
4.8
 21
6.92132
 31
0.0
  0
LINE
  8
0
 62
     0
 10
3.255456
 20
5.2
 30
0.0
 11
4.8
 21
6.744544
 31
0.0
  0
LINE
  8
0
 62
     0
 10
3.432233
 20
5.2
 30
0.0
 11
4.8
 21
6.567767
 31
0.0
  0
LINE
  8
0
 62
     0
 10
3.60901
 20
5.2
 30
0.0
 11
4.8
 21
6.39099
 31
0.0
  0
LINE
  8
0
 62
     0
 10
3.785786
 20
5.2
 30
0.0
 11
4.8
 21
6.214214
 31
0.0
  0
LINE
  8
0
 62
     0
 10
3.962563
 20
5.2
 30
0.0
 11
4.8
 21
6.037437
 31
0.0
  0
LINE
  8
0
 62
     0
 10
4.13934
 20
5.2
 30
0.0
 11
4.8
 21
5.86066
 31
0.0
  0
LINE
  8
0
 62
     0
 10
4.316117
 20
5.2
 30
0.0
 11
4.8
 21
5.683883
 31
0.0
  0
LINE
  8
0
 62
     0
 10
4.492893
 20
5.2
 30
0.0
 11
4.8
 21
5.507107
 31
0.0
  0
LINE
  8
0
 62
     0
 10
4.66967
 20
5.2
 30
0.0
 11
4.8
 21
5.33033
 31
0.0
  0
ENDBLK
  8
0
  0
BLOCK
  8
0
  2
*X14
 70
    65
 10
0.0
 20
0.0
 30
0.0
  3
*X
  0
LINE
  8
0
 62
     0
 10
5.2
 20
6.083883
 30
0.0
 11
7.178252
 21
8.062136
 31
0.0
  0
LINE
  8
0
 62
     0
 10
5.2
 20
6.26066
 30
0.0
 11
7.132421
 21
8.193082
 31
0.0
  0
LINE
  8
0
 62
     0
 10
5.2
 20
6.437437
 30
0.0
 11
7.08659
 21
8.324027
 31
0.0
  0
LINE
  8
0
 62
     0
 10
5.2
 20
6.614214
 30
0.0
 11
7.040759
 21
8.454973
 31
0.0
  0
LINE
  8
0
 62
     0
 10
5.2
 20
6.79099
 30
0.0
 11
6.994928
 21
8.585919
 31
0.0
  0
LINE
  8
0
 62
     0
 10
5.2
 20
6.967767
 30
0.0
 11
6.949097
 21
8.716864
 31
0.0
  0
LINE
  8
0
 62
     0
 10
5.2
 20
7.144544
 30
0.0
 11
6.903266
 21
8.84781
 31
0.0
  0
LINE
  8
0
 62
     0
 10
5.2
 20
7.32132
 30
0.0
 11
6.857435
 21
8.978756
 31
0.0
  0
LINE
  8
0
 62
     0
 10
5.2
 20
7.498097
 30
0.0
 11
6.811604
 21
9.109702
 31
0.0
  0
LINE
  8
0
 62
     0
 10
5.2
 20
7.674874
 30
0.0
 11
6.765773
 21
9.240647
 31
0.0
  0
LINE
  8
0
 62
     0
 10
5.2
 20
7.85165
 30
0.0
 11
6.719942
 21
9.371593
 31
0.0
  0
LINE
  8
0
 62
     0
 10
5.2
 20
8.028427
 30
0.0
 11
6.674111
 21
9.502539
 31
0.0
  0
LINE
  8
0
 62
     0
 10
5.2
 20
8.205204
 30
0.0
 11
6.62828
 21
9.633484
 31
0.0
  0
LINE
  8
0
 62
     0
 10
5.2
 20
8.381981
 30
0.0
 11
6.582449
 21
9.76443
 31
0.0
  0
LINE
  8
0
 62
     0
 10
5.2
 20
8.558757
 30
0.0
 11
6.536619
 21
9.895376
 31
0.0
  0
LINE
  8
0
 62
     0
 10
5.2
 20
8.735534
 30
0.0
 11
6.464466
 21
10.0
 31
0.0
  0
LINE
  8
0
 62
     0
 10
5.2
 20
8.912311
 30
0.0
 11
6.287689
 21
10.0
 31
0.0
  0
LINE
  8
0
 62
     0
 10
5.2
 20
9.089087
 30
0.0
 11
6.110913
 21
10.0
 31
0.0
  0
LINE
  8
0
 62
     0
 10
5.2
 20
9.265864
 30
0.0
 11
5.934136
 21
10.0
 31
0.0
  0
LINE
  8
0
 62
     0
 10
5.2
 20
9.442641
 30
0.0
 11
5.757359
 21
10.0
 31
0.0
  0
LINE
  8
0
 62
     0
 10
5.2
 20
9.619417
 30
0.0
 11
5.580583
 21
10.0
 31
0.0
  0
LINE
  8
0
 62
     0
 10
5.2
 20
9.796194
 30
0.0
 11
5.403806
 21
10.0
 31
0.0
  0
LINE
  8
0
 62
     0
 10
5.2
 20
9.972971
 30
0.0
 11
5.227029
 21
10.0
 31
0.0
  0
LINE
  8
0
 62
     0
 10
5.2
 20
5.907107
 30
0.0
 11
7.224083
 21
7.93119
 31
0.0
  0
LINE
  8
0
 62
     0
 10
5.2
 20
5.73033
 30
0.0
 11
7.269914
 21
7.800245
 31
0.0
  0
LINE
  8
0
 62
     0
 10
5.2
 20
5.553553
 30
0.0
 11
7.315745
 21
7.669299
 31
0.0
  0
LINE
  8
0
 62
     0
 10
5.2
 20
5.376777
 30
0.0
 11
7.361576
 21
7.538353
 31
0.0
  0
LINE
  8
0
 62
     0
 10
5.2
 20
5.2
 30
0.0
 11
7.407407
 21
7.407407
 31
0.0
  0
LINE
  8
0
 62
     0
 10
5.376777
 20
5.2
 30
0.0
 11
7.453238
 21
7.276462
 31
0.0
  0
LINE
  8
0
 62
     0
 10
5.553553
 20
5.2
 30
0.0
 11
7.499069
 21
7.145516
 31
0.0
  0
LINE
  8
0
 62
     0
 10
5.73033
 20
5.2
 30
0.0
 11
7.5449
 21
7.01457
 31
0.0
  0
LINE
  8
0
 62
     0
 10
5.907107
 20
5.2
 30
0.0
 11
7.590731
 21
6.883625
 31
0.0
  0
LINE
  8
0
 62
     0
 10
6.083883
 20
5.2
 30
0.0
 11
7.636562
 21
6.752679
 31
0.0
  0
LINE
  8
0
 62
     0
 10
6.26066
 20
5.2
 30
0.0
 11
7.682393
 21
6.621733
 31
0.0
  0
LINE
  8
0
 62
     0
 10
6.437437
 20
5.2
 30
0.0
 11
7.728224
 21
6.490788
 31
0.0
  0
LINE
  8
0
 62
     0
 10
6.614214
 20
5.2
 30
0.0
 11
7.774055
 21
6.359842
 31
0.0
  0
LINE
  8
0
 62
     0
 10
6.79099
 20
5.2
 30
0.0
 11
7.819886
 21
6.228896
 31
0.0
  0
LINE
  8
0
 62
     0
 10
6.967767
 20
5.2
 30
0.0
 11
7.865717
 21
6.09795
 31
0.0
  0
LINE
  8
0
 62
     0
 10
7.144544
 20
5.2
 30
0.0
 11
7.911548
 21
5.967005
 31
0.0
  0
LINE
  8
0
 62
     0
 10
7.32132
 20
5.2
 30
0.0
 11
7.957379
 21
5.836059
 31
0.0
  0
LINE
  8
0
 62
     0
 10
7.498097
 20
5.2
 30
0.0
 11
8.00321
 21
5.705113
 31
0.0
  0
LINE
  8
0
 62
     0
 10
7.674874
 20
5.2
 30
0.0
 11
8.049041
 21
5.574168
 31
0.0
  0
LINE
  8
0
 62
     0
 10
7.85165
 20
5.2
 30
0.0
 11
8.094872
 21
5.443222
 31
0.0
  0
LINE
  8
0
 62
     0
 10
8.028427
 20
5.2
 30
0.0
 11
8.140703
 21
5.312276
 31
0.0
  0
ENDBLK
  8
0
  0
BLOCK
  8
0
  2
*X15
 70
    65
 10
0.0
 20
0.0
 30
0.0
  3
*X
  0
LINE
  8
0
 62
     0
 10
0.0
 20
0.0
 30
0.0
 11
4.8
 21
4.8
 31
0.0
  0
LINE
  8
0
 62
     0
 10
0.095187
 20
0.271964
 30
0.0
 11
4.623223
 21
4.8
 31
0.0
  0
LINE
  8
0
 62
     0
 10
0.190375
 20
0.543928
 30
0.0
 11
4.446447
 21
4.8
 31
0.0
  0
LINE
  8
0
 62
     0
 10
0.285562
 20
0.815892
 30
0.0
 11
4.26967
 21
4.8
 31
0.0
  0
LINE
  8
0
 62
     0
 10
0.38075
 20
1.087857
 30
0.0
 11
4.092893
 21
4.8
 31
0.0
  0
LINE
  8
0
 62
     0
 10
0.475937
 20
1.359821
 30
0.0
 11
3.916117
 21
4.8
 31
0.0
  0
LINE
  8
0
 62
     0
 10
0.571125
 20
1.631785
 30
0.0
 11
3.73934
 21
4.8
 31
0.0
  0
LINE
  8
0
 62
     0
 10
0.666312
 20
1.903749
 30
0.0
 11
3.562563
 21
4.8
 31
0.0
  0
LINE
  8
0
 62
     0
 10
0.7615
 20
2.175713
 30
0.0
 11
3.385786
 21
4.8
 31
0.0
  0
LINE
  8
0
 62
     0
 10
0.856687
 20
2.447677
 30
0.0
 11
3.20901
 21
4.8
 31
0.0
  0
LINE
  8
0
 62
     0
 10
0.951875
 20
2.719641
 30
0.0
 11
3.032233
 21
4.8
 31
0.0
  0
LINE
  8
0
 62
     0
 10
1.047062
 20
2.991606
 30
0.0
 11
2.855456
 21
4.8
 31
0.0
  0
LINE
  8
0
 62
     0
 10
1.142249
 20
3.26357
 30
0.0
 11
2.67868
 21
4.8
 31
0.0
  0
LINE
  8
0
 62
     0
 10
1.237437
 20
3.535534
 30
0.0
 11
2.501903
 21
4.8
 31
0.0
  0
LINE
  8
0
 62
     0
 10
1.332624
 20
3.807498
 30
0.0
 11
2.325126
 21
4.8
 31
0.0
  0
LINE
  8
0
 62
     0
 10
1.427812
 20
4.079462
 30
0.0
 11
2.14835
 21
4.8
 31
0.0
  0
LINE
  8
0
 62
     0
 10
1.522999
 20
4.351426
 30
0.0
 11
1.971573
 21
4.8
 31
0.0
  0
LINE
  8
0
 62
     0
 10
1.618187
 20
4.62339
 30
0.0
 11
1.794796
 21
4.8
 31
0.0
  0
LINE
  8
0
 62
     0
 10
0.176777
 20
0.0
 30
0.0
 11
4.8
 21
4.623223
 31
0.0
  0
LINE
  8
0
 62
     0
 10
0.353553
 20
0.0
 30
0.0
 11
4.8
 21
4.446447
 31
0.0
  0
LINE
  8
0
 62
     0
 10
0.53033
 20
0.0
 30
0.0
 11
4.8
 21
4.26967
 31
0.0
  0
LINE
  8
0
 62
     0
 10
0.707107
 20
0.0
 30
0.0
 11
4.8
 21
4.092893
 31
0.0
  0
LINE
  8
0
 62
     0
 10
0.883883
 20
0.0
 30
0.0
 11
4.8
 21
3.916117
 31
0.0
  0
LINE
  8
0
 62
     0
 10
1.06066
 20
0.0
 30
0.0
 11
4.8
 21
3.73934
 31
0.0
  0
LINE
  8
0
 62
     0
 10
1.237437
 20
0.0
 30
0.0
 11
3.179842
 21
1.942405
 31
0.0
  0
LINE
  8
0
 62
     0
 10
3.237437
 20
2.0
 30
0.0
 11
4.8
 21
3.562563
 31
0.0
  0
LINE
  8
0
 62
     0
 10
1.414214
 20
0.0
 30
0.0
 11
3.084654
 21
1.670441
 31
0.0
  0
LINE
  8
0
 62
     0
 10
3.414214
 20
2.0
 30
0.0
 11
4.8
 21
3.385786
 31
0.0
  0
LINE
  8
0
 62
     0
 10
1.59099
 20
0.0
 30
0.0
 11
2.989467
 21
1.398477
 31
0.0
  0
LINE
  8
0
 62
     0
 10
3.59099
 20
2.0
 30
0.0
 11
4.8
 21
3.20901
 31
0.0
  0
LINE
  8
0
 62
     0
 10
1.767767
 20
0.0
 30
0.0
 11
2.894279
 21
1.126512
 31
0.0
  0
LINE
  8
0
 62
     0
 10
3.767767
 20
2.0
 30
0.0
 11
4.8
 21
3.032233
 31
0.0
  0
LINE
  8
0
 62
     0
 10
1.944544
 20
0.0
 30
0.0
 11
2.799092
 21
0.854548
 31
0.0
  0
LINE
  8
0
 62
     0
 10
3.944544
 20
2.0
 30
0.0
 11
4.8
 21
2.855456
 31
0.0
  0
LINE
  8
0
 62
     0
 10
2.12132
 20
0.0
 30
0.0
 11
2.703904
 21
0.582584
 31
0.0
  0
LINE
  8
0
 62
     0
 10
4.12132
 20
2.0
 30
0.0
 11
4.8
 21
2.67868
 31
0.0
  0
LINE
  8
0
 62
     0
 10
2.298097
 20
0.0
 30
0.0
 11
2.608717
 21
0.31062
 31
0.0
  0
LINE
  8
0
 62
     0
 10
4.298097
 20
2.0
 30
0.0
 11
4.8
 21
2.501903
 31
0.0
  0
LINE
  8
0
 62
     0
 10
2.474874
 20
0.0
 30
0.0
 11
2.51353
 21
0.038656
 31
0.0
  0
LINE
  8
0
 62
     0
 10
4.474874
 20
2.0
 30
0.0
 11
4.8
 21
2.325126
 31
0.0
  0
LINE
  8
0
 62
     0
 10
4.65165
 20
2.0
 30
0.0
 11
4.8
 21
2.14835
 31
0.0
  0
ENDBLK
  8
0
  0
BLOCK
  8
0
  2
*X16
 70
    65
 10
0.0
 20
0.0
 30
0.0
  3
*X
  0
LINE
  8
0
 62
     0
 10
6.884654
 20
1.75813
 30
0.0
 11
8.736506
 21
3.609982
 31
0.0
  0
LINE
  8
0
 62
     0
 10
6.838823
 20
1.889076
 30
0.0
 11
8.690675
 21
3.740928
 31
0.0
  0
LINE
  8
0
 62
     0
 10
6.772971
 20
2.0
 30
0.0
 11
8.644844
 21
3.871874
 31
0.0
  0
LINE
  8
0
 62
     0
 10
6.596194
 20
2.0
 30
0.0
 11
8.599013
 21
4.002819
 31
0.0
  0
LINE
  8
0
 62
     0
 10
6.419417
 20
2.0
 30
0.0
 11
8.553182
 21
4.133765
 31
0.0
  0
LINE
  8
0
 62
     0
 10
6.242641
 20
2.0
 30
0.0
 11
8.507351
 21
4.264711
 31
0.0
  0
LINE
  8
0
 62
     0
 10
6.065864
 20
2.0
 30
0.0
 11
8.46152
 21
4.395656
 31
0.0
  0
LINE
  8
0
 62
     0
 10
5.889087
 20
2.0
 30
0.0
 11
8.415689
 21
4.526602
 31
0.0
  0
LINE
  8
0
 62
     0
 10
5.712311
 20
2.0
 30
0.0
 11
8.369858
 21
4.657548
 31
0.0
  0
LINE
  8
0
 62
     0
 10
5.535534
 20
2.0
 30
0.0
 11
8.324027
 21
4.788493
 31
0.0
  0
LINE
  8
0
 62
     0
 10
5.358757
 20
2.0
 30
0.0
 11
8.158757
 21
4.8
 31
0.0
  0
LINE
  8
0
 62
     0
 10
5.2
 20
2.018019
 30
0.0
 11
7.981981
 21
4.8
 31
0.0
  0
LINE
  8
0
 62
     0
 10
5.2
 20
2.194796
 30
0.0
 11
7.805204
 21
4.8
 31
0.0
  0
LINE
  8
0
 62
     0
 10
5.2
 20
2.371573
 30
0.0
 11
7.628427
 21
4.8
 31
0.0
  0
LINE
  8
0
 62
     0
 10
5.2
 20
2.54835
 30
0.0
 11
7.45165
 21
4.8
 31
0.0
  0
LINE
  8
0
 62
     0
 10
5.2
 20
2.725126
 30
0.0
 11
7.274874
 21
4.8
 31
0.0
  0
LINE
  8
0
 62
     0
 10
5.2
 20
2.901903
 30
0.0
 11
7.098097
 21
4.8
 31
0.0
  0
LINE
  8
0
 62
     0
 10
5.2
 20
3.07868
 30
0.0
 11
6.92132
 21
4.8
 31
0.0
  0
LINE
  8
0
 62
     0
 10
5.2
 20
3.255456
 30
0.0
 11
6.744544
 21
4.8
 31
0.0
  0
LINE
  8
0
 62
     0
 10
5.2
 20
3.432233
 30
0.0
 11
6.567767
 21
4.8
 31
0.0
  0
LINE
  8
0
 62
     0
 10
5.2
 20
3.60901
 30
0.0
 11
6.39099
 21
4.8
 31
0.0
  0
LINE
  8
0
 62
     0
 10
5.2
 20
3.785786
 30
0.0
 11
6.214214
 21
4.8
 31
0.0
  0
LINE
  8
0
 62
     0
 10
5.2
 20
3.962563
 30
0.0
 11
6.037437
 21
4.8
 31
0.0
  0
LINE
  8
0
 62
     0
 10
5.2
 20
4.13934
 30
0.0
 11
5.86066
 21
4.8
 31
0.0
  0
LINE
  8
0
 62
     0
 10
5.2
 20
4.316117
 30
0.0
 11
5.683883
 21
4.8
 31
0.0
  0
LINE
  8
0
 62
     0
 10
5.2
 20
4.492893
 30
0.0
 11
5.507107
 21
4.8
 31
0.0
  0
LINE
  8
0
 62
     0
 10
5.2
 20
4.66967
 30
0.0
 11
5.33033
 21
4.8
 31
0.0
  0
LINE
  8
0
 62
     0
 10
6.930485
 20
1.627185
 30
0.0
 11
8.782337
 21
3.479036
 31
0.0
  0
LINE
  8
0
 62
     0
 10
6.976316
 20
1.496239
 30
0.0
 11
8.828168
 21
3.348091
 31
0.0
  0
LINE
  8
0
 62
     0
 10
7.022147
 20
1.365293
 30
0.0
 11
8.873999
 21
3.217145
 31
0.0
  0
LINE
  8
0
 62
     0
 10
7.067978
 20
1.234347
 30
0.0
 11
8.91983
 21
3.086199
 31
0.0
  0
LINE
  8
0
 62
     0
 10
7.113809
 20
1.103402
 30
0.0
 11
8.965661
 21
2.955254
 31
0.0
  0
LINE
  8
0
 62
     0
 10
7.15964
 20
0.972456
 30
0.0
 11
9.011492
 21
2.824308
 31
0.0
  0
LINE
  8
0
 62
     0
 10
7.205471
 20
0.84151
 30
0.0
 11
9.057323
 21
2.693362
 31
0.0
  0
LINE
  8
0
 62
     0
 10
7.251302
 20
0.710565
 30
0.0
 11
9.103154
 21
2.562416
 31
0.0
  0
LINE
  8
0
 62
     0
 10
7.297133
 20
0.579619
 30
0.0
 11
9.148985
 21
2.431471
 31
0.0
  0
LINE
  8
0
 62
     0
 10
7.342964
 20
0.448673
 30
0.0
 11
9.194816
 21
2.300525
 31
0.0
  0
LINE
  8
0
 62
     0
 10
7.388795
 20
0.317728
 30
0.0
 11
9.240647
 21
2.169579
 31
0.0
  0
LINE
  8
0
 62
     0
 10
7.434626
 20
0.186782
 30
0.0
 11
9.286478
 21
2.038634
 31
0.0
  0
LINE
  8
0
 62
     0
 10
7.480457
 20
0.055836
 30
0.0
 11
9.332309
 21
1.907688
 31
0.0
  0
LINE
  8
0
 62
     0
 10
7.601398
 20
0.0
 30
0.0
 11
9.37814
 21
1.776742
 31
0.0
  0
LINE
  8
0
 62
     0
 10
7.778175
 20
0.0
 30
0.0
 11
9.423971
 21
1.645797
 31
0.0
  0
LINE
  8
0
 62
     0
 10
7.954951
 20
0.0
 30
0.0
 11
9.469802
 21
1.514851
 31
0.0
  0
LINE
  8
0
 62
     0
 10
8.131728
 20
0.0
 30
0.0
 11
9.515633
 21
1.383905
 31
0.0
  0
LINE
  8
0
 62
     0
 10
8.308505
 20
0.0
 30
0.0
 11
9.561464
 21
1.252959
 31
0.0
  0
LINE
  8
0
 62
     0
 10
8.485281
 20
0.0
 30
0.0
 11
9.607295
 21
1.122014
 31
0.0
  0
LINE
  8
0
 62
     0
 10
8.662058
 20
0.0
 30
0.0
 11
9.653126
 21
0.991068
 31
0.0
  0
LINE
  8
0
 62
     0
 10
8.838835
 20
0.0
 30
0.0
 11
9.698957
 21
0.860122
 31
0.0
  0
LINE
  8
0
 62
     0
 10
9.015611
 20
0.0
 30
0.0
 11
9.744788
 21
0.729177
 31
0.0
  0
LINE
  8
0
 62
     0
 10
9.192388
 20
0.0
 30
0.0
 11
9.790619
 21
0.598231
 31
0.0
  0
LINE
  8
0
 62
     0
 10
9.369165
 20
0.0
 30
0.0
 11
9.83645
 21
0.467285
 31
0.0
  0
LINE
  8
0
 62
     0
 10
9.545942
 20
0.0
 30
0.0
 11
9.882281
 21
0.33634
 31
0.0
  0
LINE
  8
0
 62
     0
 10
9.722718
 20
0.0
 30
0.0
 11
9.928112
 21
0.205394
 31
0.0
  0
LINE
  8
0
 62
     0
 10
9.899495
 20
0.0
 30
0.0
 11
9.973943
 21
0.074448
 31
0.0
  0
ENDBLK
  8
0
  0
BLOCK
  8
0
  2
*X17
 70
    65
 10
0.0
 20
0.0
 30
0.0
  3
*X
  0
LINE
  8
0
 62
     0
 10
10.7
 20
6.280583
 30
0.0
 11
13.5
 21
9.080583
 31
0.0
  0
LINE
  8
0
 62
     0
 10
10.7
 20
6.457359
 30
0.0
 11
13.5
 21
9.257359
 31
0.0
  0
LINE
  8
0
 62
     0
 10
10.7
 20
6.634136
 30
0.0
 11
13.5
 21
9.434136
 31
0.0
  0
LINE
  8
0
 62
     0
 10
10.7
 20
6.810913
 30
0.0
 11
13.5
 21
9.610913
 31
0.0
  0
LINE
  8
0
 62
     0
 10
10.7
 20
6.987689
 30
0.0
 11
13.5
 21
9.787689
 31
0.0
  0
LINE
  8
0
 62
     0
 10
10.7
 20
7.164466
 30
0.0
 11
13.5
 21
9.964466
 31
0.0
  0
LINE
  8
0
 62
     0
 10
10.7
 20
7.341243
 30
0.0
 11
13.358757
 21
10.0
 31
0.0
  0
LINE
  8
0
 62
     0
 10
10.7
 20
7.518019
 30
0.0
 11
13.181981
 21
10.0
 31
0.0
  0
LINE
  8
0
 62
     0
 10
10.7
 20
7.694796
 30
0.0
 11
13.005204
 21
10.0
 31
0.0
  0
LINE
  8
0
 62
     0
 10
10.7
 20
7.871573
 30
0.0
 11
12.828427
 21
10.0
 31
0.0
  0
LINE
  8
0
 62
     0
 10
10.7
 20
8.04835
 30
0.0
 11
12.65165
 21
10.0
 31
0.0
  0
LINE
  8
0
 62
     0
 10
10.7
 20
8.225126
 30
0.0
 11
12.474874
 21
10.0
 31
0.0
  0
LINE
  8
0
 62
     0
 10
10.7
 20
8.401903
 30
0.0
 11
12.298097
 21
10.0
 31
0.0
  0
LINE
  8
0
 62
     0
 10
10.7
 20
8.57868
 30
0.0
 11
12.12132
 21
10.0
 31
0.0
  0
LINE
  8
0
 62
     0
 10
10.7
 20
8.755456
 30
0.0
 11
11.944544
 21
10.0
 31
0.0
  0
LINE
  8
0
 62
     0
 10
10.7
 20
8.932233
 30
0.0
 11
11.767767
 21
10.0
 31
0.0
  0
LINE
  8
0
 62
     0
 10
10.7
 20
9.10901
 30
0.0
 11
11.59099
 21
10.0
 31
0.0
  0
LINE
  8
0
 62
     0
 10
10.7
 20
9.285786
 30
0.0
 11
11.414214
 21
10.0
 31
0.0
  0
LINE
  8
0
 62
     0
 10
10.7
 20
9.462563
 30
0.0
 11
11.237437
 21
10.0
 31
0.0
  0
LINE
  8
0
 62
     0
 10
10.7
 20
9.63934
 30
0.0
 11
11.06066
 21
10.0
 31
0.0
  0
LINE
  8
0
 62
     0
 10
10.7
 20
9.816117
 30
0.0
 11
10.883883
 21
10.0
 31
0.0
  0
LINE
  8
0
 62
     0
 10
10.7
 20
9.992893
 30
0.0
 11
10.707107
 21
10.0
 31
0.0
  0
LINE
  8
0
 62
     0
 10
10.7
 20
6.103806
 30
0.0
 11
13.5
 21
8.903806
 31
0.0
  0
LINE
  8
0
 62
     0
 10
10.7
 20
5.927029
 30
0.0
 11
13.5
 21
8.727029
 31
0.0
  0
LINE
  8
0
 62
     0
 10
10.7
 20
5.750253
 30
0.0
 11
13.5
 21
8.550253
 31
0.0
  0
LINE
  8
0
 62
     0
 10
10.7
 20
5.573476
 30
0.0
 11
13.5
 21
8.373476
 31
0.0
  0
LINE
  8
0
 62
     0
 10
10.7
 20
5.396699
 30
0.0
 11
13.5
 21
8.196699
 31
0.0
  0
LINE
  8
0
 62
     0
 10
10.7
 20
5.219922
 30
0.0
 11
13.5
 21
8.019922
 31
0.0
  0
LINE
  8
0
 62
     0
 10
10.856854
 20
5.2
 30
0.0
 11
13.5
 21
7.843146
 31
0.0
  0
LINE
  8
0
 62
     0
 10
11.033631
 20
5.2
 30
0.0
 11
13.5
 21
7.666369
 31
0.0
  0
LINE
  8
0
 62
     0
 10
11.210408
 20
5.2
 30
0.0
 11
13.5
 21
7.489592
 31
0.0
  0
LINE
  8
0
 62
     0
 10
11.387184
 20
5.2
 30
0.0
 11
13.5
 21
7.312816
 31
0.0
  0
LINE
  8
0
 62
     0
 10
11.563961
 20
5.2
 30
0.0
 11
13.5
 21
7.136039
 31
0.0
  0
LINE
  8
0
 62
     0
 10
11.740738
 20
5.2
 30
0.0
 11
13.5
 21
6.959262
 31
0.0
  0
LINE
  8
0
 62
     0
 10
11.917514
 20
5.2
 30
0.0
 11
13.5
 21
6.782486
 31
0.0
  0
LINE
  8
0
 62
     0
 10
12.094291
 20
5.2
 30
0.0
 11
13.5
 21
6.605709
 31
0.0
  0
LINE
  8
0
 62
     0
 10
12.271068
 20
5.2
 30
0.0
 11
13.5
 21
6.428932
 31
0.0
  0
LINE
  8
0
 62
     0
 10
12.447845
 20
5.2
 30
0.0
 11
13.5
 21
6.252155
 31
0.0
  0
LINE
  8
0
 62
     0
 10
12.624621
 20
5.2
 30
0.0
 11
13.5
 21
6.075379
 31
0.0
  0
LINE
  8
0
 62
     0
 10
12.801398
 20
5.2
 30
0.0
 11
13.5
 21
5.898602
 31
0.0
  0
LINE
  8
0
 62
     0
 10
12.978175
 20
5.2
 30
0.0
 11
13.5
 21
5.721825
 31
0.0
  0
LINE
  8
0
 62
     0
 10
13.154951
 20
5.2
 30
0.0
 11
13.5
 21
5.545049
 31
0.0
  0
LINE
  8
0
 62
     0
 10
13.331728
 20
5.2
 30
0.0
 11
13.5
 21
5.368272
 31
0.0
  0
ENDBLK
  8
0
  0
BLOCK
  8
0
  2
*X18
 70
    65
 10
0.0
 20
0.0
 30
0.0
  3
*X
  0
LINE
  8
0
 62
     0
 10
10.7
 20
1.154058
 30
0.0
 11
13.5
 21
3.954058
 31
0.0
  0
LINE
  8
0
 62
     0
 10
10.7
 20
1.330835
 30
0.0
 11
13.5
 21
4.130835
 31
0.0
  0
LINE
  8
0
 62
     0
 10
10.7
 20
1.507612
 30
0.0
 11
13.5
 21
4.307612
 31
0.0
  0
LINE
  8
0
 62
     0
 10
10.7
 20
1.684389
 30
0.0
 11
13.5
 21
4.484389
 31
0.0
  0
LINE
  8
0
 62
     0
 10
10.7
 20
1.861165
 30
0.0
 11
13.5
 21
4.661165
 31
0.0
  0
LINE
  8
0
 62
     0
 10
10.7
 20
2.037942
 30
0.0
 11
13.462058
 21
4.8
 31
0.0
  0
LINE
  8
0
 62
     0
 10
10.7
 20
2.214719
 30
0.0
 11
13.285281
 21
4.8
 31
0.0
  0
LINE
  8
0
 62
     0
 10
10.7
 20
2.391495
 30
0.0
 11
13.108505
 21
4.8
 31
0.0
  0
LINE
  8
0
 62
     0
 10
10.7
 20
2.568272
 30
0.0
 11
12.931728
 21
4.8
 31
0.0
  0
LINE
  8
0
 62
     0
 10
10.7
 20
2.745049
 30
0.0
 11
12.754951
 21
4.8
 31
0.0
  0
LINE
  8
0
 62
     0
 10
10.7
 20
2.921825
 30
0.0
 11
12.578175
 21
4.8
 31
0.0
  0
LINE
  8
0
 62
     0
 10
10.7
 20
3.098602
 30
0.0
 11
12.401398
 21
4.8
 31
0.0
  0
LINE
  8
0
 62
     0
 10
10.7
 20
3.275379
 30
0.0
 11
12.224621
 21
4.8
 31
0.0
  0
LINE
  8
0
 62
     0
 10
10.7
 20
3.452155
 30
0.0
 11
12.047845
 21
4.8
 31
0.0
  0
LINE
  8
0
 62
     0
 10
10.7
 20
3.628932
 30
0.0
 11
11.871068
 21
4.8
 31
0.0
  0
LINE
  8
0
 62
     0
 10
10.7
 20
3.805709
 30
0.0
 11
11.694291
 21
4.8
 31
0.0
  0
LINE
  8
0
 62
     0
 10
10.7
 20
3.982486
 30
0.0
 11
11.517514
 21
4.8
 31
0.0
  0
LINE
  8
0
 62
     0
 10
10.7
 20
4.159262
 30
0.0
 11
11.340738
 21
4.8
 31
0.0
  0
LINE
  8
0
 62
     0
 10
10.7
 20
4.336039
 30
0.0
 11
11.163961
 21
4.8
 31
0.0
  0
LINE
  8
0
 62
     0
 10
10.7
 20
4.512816
 30
0.0
 11
10.987184
 21
4.8
 31
0.0
  0
LINE
  8
0
 62
     0
 10
10.7
 20
4.689592
 30
0.0
 11
10.810408
 21
4.8
 31
0.0
  0
LINE
  8
0
 62
     0
 10
10.7
 20
0.977282
 30
0.0
 11
13.5
 21
3.777282
 31
0.0
  0
LINE
  8
0
 62
     0
 10
10.7
 20
0.800505
 30
0.0
 11
13.5
 21
3.600505
 31
0.0
  0
LINE
  8
0
 62
     0
 10
10.7
 20
0.623728
 30
0.0
 11
13.5
 21
3.423728
 31
0.0
  0
LINE
  8
0
 62
     0
 10
10.7
 20
0.446952
 30
0.0
 11
13.5
 21
3.246952
 31
0.0
  0
LINE
  8
0
 62
     0
 10
10.7
 20
0.270175
 30
0.0
 11
13.5
 21
3.070175
 31
0.0
  0
LINE
  8
0
 62
     0
 10
10.7
 20
0.093398
 30
0.0
 11
13.5
 21
2.893398
 31
0.0
  0
LINE
  8
0
 62
     0
 10
10.783378
 20
0.0
 30
0.0
 11
13.5
 21
2.716622
 31
0.0
  0
LINE
  8
0
 62
     0
 10
10.960155
 20
0.0
 30
0.0
 11
13.5
 21
2.539845
 31
0.0
  0
LINE
  8
0
 62
     0
 10
11.136932
 20
0.0
 30
0.0
 11
13.5
 21
2.363068
 31
0.0
  0
LINE
  8
0
 62
     0
 10
11.313708
 20
0.0
 30
0.0
 11
13.5
 21
2.186292
 31
0.0
  0
LINE
  8
0
 62
     0
 10
11.490485
 20
0.0
 30
0.0
 11
13.5
 21
2.009515
 31
0.0
  0
LINE
  8
0
 62
     0
 10
11.667262
 20
0.0
 30
0.0
 11
13.5
 21
1.832738
 31
0.0
  0
LINE
  8
0
 62
     0
 10
11.844039
 20
0.0
 30
0.0
 11
13.5
 21
1.655961
 31
0.0
  0
LINE
  8
0
 62
     0
 10
12.020815
 20
0.0
 30
0.0
 11
13.5
 21
1.479185
 31
0.0
  0
LINE
  8
0
 62
     0
 10
12.197592
 20
0.0
 30
0.0
 11
13.5
 21
1.302408
 31
0.0
  0
LINE
  8
0
 62
     0
 10
12.374369
 20
0.0
 30
0.0
 11
13.5
 21
1.125631
 31
0.0
  0
LINE
  8
0
 62
     0
 10
12.551145
 20
0.0
 30
0.0
 11
13.5
 21
0.948855
 31
0.0
  0
LINE
  8
0
 62
     0
 10
12.727922
 20
0.0
 30
0.0
 11
13.5
 21
0.772078
 31
0.0
  0
LINE
  8
0
 62
     0
 10
12.904699
 20
0.0
 30
0.0
 11
13.5
 21
0.595301
 31
0.0
  0
LINE
  8
0
 62
     0
 10
13.081475
 20
0.0
 30
0.0
 11
13.5
 21
0.418525
 31
0.0
  0
LINE
  8
0
 62
     0
 10
13.258252
 20
0.0
 30
0.0
 11
13.5
 21
0.241748
 31
0.0
  0
LINE
  8
0
 62
     0
 10
13.435029
 20
0.0
 30
0.0
 11
13.5
 21
0.064971
 31
0.0
  0
ENDBLK
  8
0
  0
BLOCK
  8
0
  2
*X19
 70
    65
 10
0.0
 20
0.0
 30
0.0
  3
*X
  0
LINE
  8
0
 62
     0
 10
13.9
 20
6.298602
 30
0.0
 11
16.582995
 21
8.981597
 31
0.0
  0
LINE
  8
0
 62
     0
 10
13.9
 20
6.475379
 30
0.0
 11
16.510503
 21
9.085882
 31
0.0
  0
LINE
  8
0
 62
     0
 10
13.9
 20
6.652155
 30
0.0
 11
16.432927
 21
9.185083
 31
0.0
  0
LINE
  8
0
 62
     0
 10
13.9
 20
6.828932
 30
0.0
 11
16.350372
 21
9.279304
 31
0.0
  0
LINE
  8
0
 62
     0
 10
13.9
 20
7.005709
 30
0.0
 11
16.262892
 21
9.368601
 31
0.0
  0
LINE
  8
0
 62
     0
 10
13.9
 20
7.182486
 30
0.0
 11
16.170495
 21
9.452981
 31
0.0
  0
LINE
  8
0
 62
     0
 10
13.9
 20
7.359262
 30
0.0
 11
16.073145
 21
9.532407
 31
0.0
  0
LINE
  8
0
 62
     0
 10
13.9
 20
7.536039
 30
0.0
 11
15.970755
 21
9.606794
 31
0.0
  0
LINE
  8
0
 62
     0
 10
13.9
 20
7.712816
 30
0.0
 11
15.863189
 21
9.676004
 31
0.0
  0
LINE
  8
0
 62
     0
 10
13.9
 20
7.889592
 30
0.0
 11
15.75025
 21
9.739843
 31
0.0
  0
LINE
  8
0
 62
     0
 10
13.9
 20
8.066369
 30
0.0
 11
15.631675
 21
9.798044
 31
0.0
  0
LINE
  8
0
 62
     0
 10
13.9
 20
8.243146
 30
0.0
 11
15.50711
 21
9.850256
 31
0.0
  0
LINE
  8
0
 62
     0
 10
13.9
 20
8.419922
 30
0.0
 11
15.376096
 21
9.896018
 31
0.0
  0
LINE
  8
0
 62
     0
 10
13.9
 20
8.596699
 30
0.0
 11
15.238027
 21
9.934726
 31
0.0
  0
LINE
  8
0
 62
     0
 10
13.9
 20
8.773476
 30
0.0
 11
15.092096
 21
9.965572
 31
0.0
  0
LINE
  8
0
 62
     0
 10
13.9
 20
8.950253
 30
0.0
 11
14.937209
 21
9.987461
 31
0.0
  0
LINE
  8
0
 62
     0
 10
13.9
 20
9.127029
 30
0.0
 11
14.771824
 21
9.998853
 31
0.0
  0
LINE
  8
0
 62
     0
 10
13.9
 20
9.303806
 30
0.0
 11
14.596193
 21
9.999999
 31
0.0
  0
LINE
  8
0
 62
     0
 10
13.9
 20
9.480583
 30
0.0
 11
14.419417
 21
9.999999
 31
0.0
  0
LINE
  8
0
 62
     0
 10
13.9
 20
9.657359
 30
0.0
 11
14.24264
 21
10.0
 31
0.0
  0
LINE
  8
0
 62
     0
 10
13.9
 20
9.834136
 30
0.0
 11
14.065864
 21
10.0
 31
0.0
  0
LINE
  8
0
 62
     0
 10
13.9
 20
6.121825
 30
0.0
 11
16.650245
 21
8.872071
 31
0.0
  0
LINE
  8
0
 62
     0
 10
13.9
 20
5.945049
 30
0.0
 11
16.712035
 21
8.757083
 31
0.0
  0
LINE
  8
0
 62
     0
 10
13.9
 20
5.768272
 30
0.0
 11
16.768067
 21
8.636339
 31
0.0
  0
LINE
  8
0
 62
     0
 10
13.9
 20
5.591495
 30
0.0
 11
16.817955
 21
8.509451
 31
0.0
  0
LINE
  8
0
 62
     0
 10
13.9
 20
5.414719
 30
0.0
 11
16.861189
 21
8.375908
 31
0.0
  0
LINE
  8
0
 62
     0
 10
13.9
 20
5.237942
 30
0.0
 11
16.897097
 21
8.235039
 31
0.0
  0
LINE
  8
0
 62
     0
 10
14.038835
 20
5.2
 30
0.0
 11
16.924779
 21
8.085944
 31
0.0
  0
LINE
  8
0
 62
     0
 10
14.215611
 20
5.2
 30
0.0
 11
16.942997
 21
7.927385
 31
0.0
  0
LINE
  8
0
 62
     0
 10
14.392388
 20
5.2
 30
0.0
 11
16.949987
 21
7.757599
 31
0.0
  0
LINE
  8
0
 62
     0
 10
14.569165
 20
5.2
 30
0.0
 11
16.943101
 21
7.573936
 31
0.0
  0
LINE
  8
0
 62
     0
 10
14.745942
 20
5.2
 30
0.0
 11
16.918037
 21
7.372095
 31
0.0
  0
LINE
  8
0
 62
     0
 10
14.922718
 20
5.2
 30
0.0
 11
16.866909
 21
7.144191
 31
0.0
  0
LINE
  8
0
 62
     0
 10
15.099495
 20
5.2
 30
0.0
 11
16.771715
 21
6.87222
 31
0.0
  0
LINE
  8
0
 62
     0
 10
15.276272
 20
5.2
 30
0.0
 11
15.847951
 21
5.77168
 31
0.0
  0
LINE
  8
0
 62
     0
 10
15.96673
 20
5.890458
 30
0.0
 11
16.559542
 21
6.48327
 31
0.0
  0
LINE
  8
0
 62
     0
 10
15.453048
 20
5.2
 30
0.0
 11
15.970661
 21
5.717613
 31
0.0
  0
LINE
  8
0
 62
     0
 10
15.629825
 20
5.2
 30
0.0
 11
16.088934
 21
5.659109
 31
0.0
  0
LINE
  8
0
 62
     0
 10
15.806602
 20
5.2
 30
0.0
 11
16.202964
 21
5.596363
 31
0.0
  0
LINE
  8
0
 62
     0
 10
15.983378
 20
5.2
 30
0.0
 11
16.312909
 21
5.529531
 31
0.0
  0
LINE
  8
0
 62
     0
 10
16.160155
 20
5.2
 30
0.0
 11
16.418895
 21
5.45874
 31
0.0
  0
LINE
  8
0
 62
     0
 10
16.336932
 20
5.2
 30
0.0
 11
16.521021
 21
5.384089
 31
0.0
  0
LINE
  8
0
 62
     0
 10
16.513708
 20
5.2
 30
0.0
 11
16.619363
 21
5.305655
 31
0.0
  0
LINE
  8
0
 62
     0
 10
16.690485
 20
5.2
 30
0.0
 11
16.713975
 21
5.22349
 31
0.0
  0
ENDBLK
  8
0
  0
BLOCK
  8
0
  2
*X20
 70
    65
 10
0.0
 20
0.0
 30
0.0
  3
*X
  0
LINE
  8
0
 62
     0
 10
13.9
 20
0.818525
 30
0.0
 11
17.39645
 21
4.314974
 31
0.0
  0
LINE
  8
0
 62
     0
 10
13.9
 20
0.995301
 30
0.0
 11
17.336354
 21
4.431655
 31
0.0
  0
LINE
  8
0
 62
     0
 10
13.9
 20
1.172078
 30
0.0
 11
17.272078
 21
4.544156
 31
0.0
  0
LINE
  8
0
 62
     0
 10
13.9
 20
1.348855
 30
0.0
 11
17.203766
 21
4.652621
 31
0.0
  0
LINE
  8
0
 62
     0
 10
13.9
 20
1.525631
 30
0.0
 11
17.131535
 21
4.757167
 31
0.0
  0
LINE
  8
0
 62
     0
 10
13.9
 20
1.702408
 30
0.0
 11
16.997592
 21
4.8
 31
0.0
  0
LINE
  8
0
 62
     0
 10
13.9
 20
1.879185
 30
0.0
 11
16.820815
 21
4.8
 31
0.0
  0
LINE
  8
0
 62
     0
 10
13.9
 20
2.055961
 30
0.0
 11
16.644039
 21
4.8
 31
0.0
  0
LINE
  8
0
 62
     0
 10
13.9
 20
2.232738
 30
0.0
 11
16.467262
 21
4.8
 31
0.0
  0
LINE
  8
0
 62
     0
 10
13.9
 20
2.409515
 30
0.0
 11
16.290485
 21
4.8
 31
0.0
  0
LINE
  8
0
 62
     0
 10
13.9
 20
2.586292
 30
0.0
 11
16.113708
 21
4.8
 31
0.0
  0
LINE
  8
0
 62
     0
 10
13.9
 20
2.763068
 30
0.0
 11
15.936932
 21
4.8
 31
0.0
  0
LINE
  8
0
 62
     0
 10
13.9
 20
2.939845
 30
0.0
 11
15.760155
 21
4.8
 31
0.0
  0
LINE
  8
0
 62
     0
 10
13.9
 20
3.116622
 30
0.0
 11
15.583378
 21
4.8
 31
0.0
  0
LINE
  8
0
 62
     0
 10
13.9
 20
3.293398
 30
0.0
 11
15.406602
 21
4.8
 31
0.0
  0
LINE
  8
0
 62
     0
 10
13.9
 20
3.470175
 30
0.0
 11
15.229825
 21
4.8
 31
0.0
  0
LINE
  8
0
 62
     0
 10
13.9
 20
3.646952
 30
0.0
 11
15.053048
 21
4.8
 31
0.0
  0
LINE
  8
0
 62
     0
 10
13.9
 20
3.823728
 30
0.0
 11
14.876272
 21
4.8
 31
0.0
  0
LINE
  8
0
 62
     0
 10
13.9
 20
4.000505
 30
0.0
 11
14.699495
 21
4.8
 31
0.0
  0
LINE
  8
0
 62
     0
 10
13.9
 20
4.177282
 30
0.0
 11
14.522718
 21
4.8
 31
0.0
  0
LINE
  8
0
 62
     0
 10
13.9
 20
4.354058
 30
0.0
 11
14.345942
 21
4.8
 31
0.0
  0
LINE
  8
0
 62
     0
 10
13.9
 20
4.530835
 30
0.0
 11
14.169165
 21
4.8
 31
0.0
  0
LINE
  8
0
 62
     0
 10
13.9
 20
4.707612
 30
0.0
 11
13.992388
 21
4.8
 31
0.0
  0
LINE
  8
0
 62
     0
 10
13.9
 20
0.641748
 30
0.0
 11
17.452185
 21
4.193933
 31
0.0
  0
LINE
  8
0
 62
     0
 10
13.9
 20
0.464971
 30
0.0
 11
17.503339
 21
4.068311
 31
0.0
  0
LINE
  8
0
 62
     0
 10
13.9
 20
0.288194
 30
0.0
 11
17.549642
 21
3.937837
 31
0.0
  0
LINE
  8
0
 62
     0
 10
13.9
 20
0.111418
 30
0.0
 11
17.590762
 21
3.80218
 31
0.0
  0
LINE
  8
0
 62
     0
 10
13.965359
 20
0.0
 30
0.0
 11
17.62629
 21
3.660931
 31
0.0
  0
LINE
  8
0
 62
     0
 10
14.142136
 20
0.000001
 30
0.0
 11
17.655713
 21
3.513577
 31
0.0
  0
LINE
  8
0
 62
     0
 10
14.318913
 20
0.000001
 30
0.0
 11
17.678385
 21
3.359473
 31
0.0
  0
LINE
  8
0
 62
     0
 10
14.49569
 20
0.000001
 30
0.0
 11
17.693473
 21
3.197784
 31
0.0
  0
LINE
  8
0
 62
     0
 10
14.672467
 20
0.000002
 30
0.0
 11
17.699875
 21
3.027409
 31
0.0
  0
LINE
  8
0
 62
     0
 10
14.853154
 20
0.003912
 30
0.0
 11
17.696088
 21
2.846846
 31
0.0
  0
LINE
  8
0
 62
     0
 10
15.046044
 20
0.020025
 30
0.0
 11
17.679975
 21
2.653956
 31
0.0
  0
LINE
  8
0
 62
     0
 10
15.254483
 20
0.051687
 30
0.0
 11
17.648313
 21
2.445517
 31
0.0
  0
LINE
  8
0
 62
     0
 10
15.483762
 20
0.10419
 30
0.0
 11
17.59581
 21
2.216238
 31
0.0
  0
LINE
  8
0
 62
     0
 10
15.743786
 20
0.187437
 30
0.0
 11
17.512563
 21
1.956214
 31
0.0
  0
LINE
  8
0
 62
     0
 10
16.058176
 20
0.32505
 30
0.0
 11
17.37495
 21
1.641824
 31
0.0
  0
LINE
  8
0
 62
     0
 10
16.54193
 20
0.632028
 30
0.0
 11
17.067972
 21
1.15807
 31
0.0
  0
ENDBLK
  8
0
  0
BLOCK
  8
0
  2
B155
 70
     0
 10
0.0
 20
0.0
 30
0.0
  3
B155
  0
LINE
  8
0
  6
CONTINUOUS
 10
0.0
 20
0.0
 30
0.0
 11
0.0
 21
-1.35427
 31
0.0
  0
LINE
  8
0
  6
CONTINUOUS
 10
-1.210228
 20
-1.35427
 30
0.0
 11
-0.015887
 21
-1.35427
 31
0.0
  0
LINE
  8
0
  6
CONTINUOUS
 10
-0.015887
 20
-1.35427
 30
0.0
 11
1.178454
 21
-1.35427
 31
0.0
  0
LINE
  8
0
  6
CONTINUOUS
 10
-0.831823
 20
-1.833881
 30
0.0
 11
0.752749
 21
-1.833881
 31
0.0
  0
LINE
  8
0
  6
CONTINUOUS
 10
-0.500718
 20
-2.322055
 30
0.0
 11
0.386169
 21
-2.322055
 31
0.0
  0
ENDBLK
  8
0
  0
BLOCK
  8
0
  2
B1004
 70
     0
 10
0.0
 20
0.0
 30
0.0
  3
B1004
  0
TEXT
  8
BASE
  6
CONTINUOUS
 10
-201.221958
 20
-39.764723
 30
0.0
 40
2.0
  1
U1/SGB/7
  0
TEXT
  8
BASE
  6
CONTINUOUS
 10
-201.221958
 20
-35.928531
 30
0.0
 40
2.0
  1
U1/SGB/6
  0
TEXT
  8
BASE
  6
CONTINUOUS
 10
-190.891108
 20
11.687068
 30
0.0
 40
2.0
  1
U1/SGF/4
 50
90.0
  0
TEXT
  8
BASE
  6
CONTINUOUS
 10
-195.10485
 20
43.319814
 30
0.0
 40
2.0
  1
U1/SGB/8
  0
TEXT
  8
BASE
  6
CONTINUOUS
 10
-195.10485
 20
50.866763
 30
0.0
 40
2.0
  1
U1/SGB/5
  0
TEXT
  8
BASE
  6
CONTINUOUS
 10
-194.362657
 20
-11.115012
 30
0.0
 40
2.0
  1
0,1...1s
  0
LINE
  8
BASE
  6
CONTINUOUS
 10
-182.5
 20
-2.5
 30
0.0
 11
-182.5
 21
-12.5
 31
0.0
  0
LINE
  8
BASE
  6
CONTINUOUS
 10
-197.5
 20
-2.5
 30
0.0
 11
-182.5
 21
-2.5
 31
0.0
  0
LINE
  8
BASE
  6
CONTINUOUS
 10
-197.5
 20
-12.5
 30
0.0
 11
-197.5
 21
-2.5
 31
0.0
  0
LINE
  8
BASE
  6
CONTINUOUS
 10
-182.5
 20
-12.5
 30
0.0
 11
-197.5
 21
-12.5
 31
0.0
  0
TEXT
  8
BASE
  6
CONTINUOUS
 10
-165.820696
 20
41.507719
 30
0.0
 40
2.0
  1
RELAY RESET
  0
TEXT
  8
BASE
  6
CONTINUOUS
 10
-165.820696
 20
49.022254
 30
0.0
 40
2.0
  1
REMOTE SETTINGS
  0
TEXT
  8
BASE
  6
CONTINUOUS
 10
-201.233928
 20
-31.966344
 30
0.0
 40
2.0
  1
SEAL. IN
  0
TEXT
  8
BASE
  6
CONTINUOUS
 10
-168.351085
 20
-17.357407
 30
0.0
 40
2.0
  1
U1/SGR1/6
 50
90.0
  0
TEXT
  8
BASE
  6
CONTINUOUS
 10
-173.336397
 20
-17.357407
 30
0.0
 40
2.0
  1
U1/SGR1/4
 50
90.0
  0
TEXT
  8
BASE
  6
CONTINUOUS
 10
-178.082291
 20
-17.357407
 30
0.0
 40
2.0
  1
U1/SGR1/2
 50
90.0
  0
TEXT
  8
BASE
  6
CONTINUOUS
 10
-163.26237
 20
-17.331397
 30
0.0
 40
2.0
  1
U1/SGR1/8
 50
90.0
  0
TEXT
  8
BASE
  6
CONTINUOUS
 10
-135.815396
 20
-31.444015
 30
0.0
 40
2.0
  1
U1/SGR2/8
 50
90.0
  0
TEXT
  8
BASE
  6
CONTINUOUS
 10
-141.016183
 20
-31.444015
 30
0.0
 40
2.0
  1
U1/SGR2/6
 50
90.0
  0
TEXT
  8
BASE
  6
CONTINUOUS
 10
-145.881787
 20
-31.444015
 30
0.0
 40
2.0
  1
U1/SGR2/4
 50
90.0
  0
TEXT
  8
BASE
  6
CONTINUOUS
 10
-150.998778
 20
-31.444015
 30
0.0
 40
2.0
  1
U1/SGR2/2
 50
90.0
  0
TEXT
  8
BASE
  6
CONTINUOUS
 10
-155.756643
 20
-31.444015
 30
0.0
 40
2.0
  1
U1/SGF2/7
 50
90.0
  0
TEXT
  8
BASE
  6
CONTINUOUS
 10
-113.567008
 20
-31.452685
 30
0.0
 40
2.0
  1
U1/SGR2/7
 50
90.0
  0
TEXT
  8
BASE
  6
CONTINUOUS
 10
-118.636116
 20
-31.452685
 30
0.0
 40
2.0
  1
U1/SGR2/5
 50
90.0
  0
TEXT
  8
BASE
  6
CONTINUOUS
 10
-123.477777
 20
-31.452685
 30
0.0
 40
2.0
  1
U1/SGR2/3
 50
90.0
  0
TEXT
  8
BASE
  6
CONTINUOUS
 10
-128.379293
 20
-31.452685
 30
0.0
 40
2.0
  1
U1/SGR2/1
 50
90.0
  0
TEXT
  8
BASE
  6
CONTINUOUS
 10
-91.085739
 20
-31.470025
 30
0.0
 40
2.0
  1
U1/SGR1/7
 50
90.0
  0
TEXT
  8
BASE
  6
CONTINUOUS
 10
-95.999226
 20
-31.470025
 30
0.0
 40
2.0
  1
U1/SGR1/5
 50
90.0
  0
TEXT
  8
BASE
  6
CONTINUOUS
 10
-101.176071
 20
-31.470025
 30
0.0
 40
2.0
  1
U1/SGR1/3
 50
90.0
  0
TEXT
  8
BASE
  6
CONTINUOUS
 10
-106.077586
 20
-31.470025
 30
0.0
 40
2.0
  1
U1/SGR1/1
 50
90.0
  0
TEXT
  8
BASE
  6
CONTINUOUS
 10
-43.623493
 20
-31.470025
 30
0.0
 40
2.0
  1
U1/SGR3/8
 50
90.0
  0
TEXT
  8
BASE
  6
CONTINUOUS
 10
-48.596833
 20
-31.470025
 30
0.0
 40
2.0
  1
U1/SGR3/7
 50
90.0
  0
TEXT
  8
BASE
  6
CONTINUOUS
 10
-53.570174
 20
-31.470025
 30
0.0
 40
2.0
  1
U1/SGR3/6
 50
90.0
  0
TEXT
  8
BASE
  6
CONTINUOUS
 10
-58.34001
 20
-31.470025
 30
0.0
 40
2.0
  1
U1/SGR3/5
 50
90.0
  0
TEXT
  8
BASE
  6
CONTINUOUS
 10
-63.217584
 20
-31.470025
 30
0.0
 40
2.0
  1
U1/SGR3/4
 50
90.0
  0
TEXT
  8
BASE
  6
CONTINUOUS
 10
-68.286692
 20
-31.470025
 30
0.0
 40
2.0
  1
U1/SGR3/3
 50
90.0
  0
TEXT
  8
BASE
  6
CONTINUOUS
 10
-73.355799
 20
-31.470025
 30
0.0
 40
2.0
  1
U1/SGR3/2
 50
90.0
  0
TEXT
  8
BASE
  6
CONTINUOUS
 10
-78.616441
 20
-31.470025
 30
0.0
 40
2.0
  1
U1/SGR3/1
 50
90.0
  0
TEXT
  8
BASE
  6
CONTINUOUS
 10
-26.069224
 20
-32.5
 30
0.0
 40
2.0
  1
U1/SGF2/8
 50
90.0
  0
LINE
  8
BASE
  6
CONTINUOUS
 10
-25.0
 20
-40.0
 30
0.0
 11
-30.721042
 21
-33.483593
 31
0.0
  0
TEXT
  8
BASE
  6
CONTINUOUS
 10
-143.572221
 20
-46.035545
 30
0.0
 40
2.5
  1
1
 11
-143.572221
 21
-46.868878
 31
0.0
 73
     1
  0
LINE
  8
BASE
  6
CONTINUOUS
 10
-148.006083
 20
-43.375451
 30
0.0
 11
-145.660318
 21
-44.710805
 31
0.0
  0
LINE
  8
BASE
  6
CONTINUOUS
 10
-148.014125
 20
-46.700738
 30
0.0
 11
-145.630665
 21
-45.512546
 31
0.0
  0
LINE
  8
BASE
  6
CONTINUOUS
 10
-145.660318
 20
-44.710805
 30
0.0
 11
-148.006083
 21
-45.900724
 31
0.0
  0
POLYLINE
  8
BASE
  6
CONTINUOUS
 66
     1
 10
0.0
 20
0.0
 30
0.0
 70
     1
 40
0.5
 41
0.5
 71
     2
 72
   151
  0
VERTEX
  8
BASE
  6
CONTINUOUS
 10
-43.0
 20
0.0
 30
0.0
 42
1.0
  0
VERTEX
  8
BASE
  6
CONTINUOUS
 10
-42.0
 20
0.0
 30
0.0
 42
1.0
  0
SEQEND
  8
BASE
  6
CONTINUOUS
  0
POLYLINE
  8
BASE
  6
CONTINUOUS
 66
     1
 10
0.0
 20
0.0
 30
0.0
 70
     1
 40
0.5
 41
0.5
 71
     2
 72
   151
  0
VERTEX
  8
BASE
  6
CONTINUOUS
 10
-113.0
 20
0.0
 30
0.0
 42
1.0
  0
VERTEX
  8
BASE
  6
CONTINUOUS
 10
-112.0
 20
0.0
 30
0.0
 42
1.0
  0
SEQEND
  8
BASE
  6
CONTINUOUS
  0
POLYLINE
  8
BASE
  6
CONTINUOUS
 66
     1
 10
0.0
 20
0.0
 30
0.0
 70
     1
 40
0.5
 41
0.5
 71
     2
 72
   151
  0
VERTEX
  8
BASE
  6
CONTINUOUS
 10
-135.5
 20
0.0
 30
0.0
 42
1.0
  0
VERTEX
  8
BASE
  6
CONTINUOUS
 10
-134.5
 20
0.0
 30
0.0
 42
1.0
  0
SEQEND
  8
BASE
  6
CONTINUOUS
  0
POLYLINE
  8
BASE
  6
CONTINUOUS
 66
     1
 10
0.0
 20
0.0
 30
0.0
 70
     1
 40
0.5
 41
0.5
 71
     2
 72
   151
  0
VERTEX
  8
BASE
  6
CONTINUOUS
 10
-198.0
 20
50.0
 30
0.0
 42
1.0
  0
VERTEX
  8
BASE
  6
CONTINUOUS
 10
-197.0
 20
50.0
 30
0.0
 42
1.0
  0
SEQEND
  8
BASE
  6
CONTINUOUS
  0
POLYLINE
  8
BASE
  6
CONTINUOUS
 66
     1
 10
0.0
 20
0.0
 30
0.0
 70
     1
 40
0.5
 41
0.5
 71
     2
 72
   151
  0
VERTEX
  8
BASE
  6
CONTINUOUS
 10
-30.5
 20
15.0
 30
0.0
 42
1.0
  0
VERTEX
  8
BASE
  6
CONTINUOUS
 10
-29.5
 20
15.0
 30
0.0
 42
1.0
  0
SEQEND
  8
BASE
  6
CONTINUOUS
  0
POLYLINE
  8
BASE
  6
CONTINUOUS
 66
     1
 10
0.0
 20
0.0
 30
0.0
 70
     1
 40
0.5
 41
0.5
 71
     2
 72
   151
  0
VERTEX
  8
BASE
  6
CONTINUOUS
 10
-25.5
 20
5.0
 30
0.0
 42
1.0
  0
VERTEX
  8
BASE
  6
CONTINUOUS
 10
-24.5
 20
5.0
 30
0.0
 42
1.0
  0
SEQEND
  8
BASE
  6
CONTINUOUS
  0
POLYLINE
  8
BASE
  6
CONTINUOUS
 66
     1
 10
0.0
 20
0.0
 30
0.0
 70
     1
 40
0.5
 41
0.5
 71
     2
 72
   151
  0
VERTEX
  8
BASE
  6
CONTINUOUS
 10
-48.0
 20
5.0
 30
0.0
 42
1.0
  0
VERTEX
  8
BASE
  6
CONTINUOUS
 10
-47.0
 20
5.0
 30
0.0
 42
1.0
  0
SEQEND
  8
BASE
  6
CONTINUOUS
  0
POLYLINE
  8
BASE
  6
CONTINUOUS
 66
     1
 10
0.0
 20
0.0
 30
0.0
 70
     1
 40
0.5
 41
0.5
 71
     2
 72
   151
  0
VERTEX
  8
BASE
  6
CONTINUOUS
 10
-53.0
 20
10.0
 30
0.0
 42
1.0
  0
VERTEX
  8
BASE
  6
CONTINUOUS
 10
-52.0
 20
10.0
 30
0.0
 42
1.0
  0
SEQEND
  8
BASE
  6
CONTINUOUS
  0
POLYLINE
  8
BASE
  6
CONTINUOUS
 66
     1
 10
0.0
 20
0.0
 30
0.0
 70
     1
 40
0.5
 41
0.5
 71
     2
 72
   151
  0
VERTEX
  8
BASE
  6
CONTINUOUS
 10
-58.0
 20
15.0
 30
0.0
 42
1.0
  0
VERTEX
  8
BASE
  6
CONTINUOUS
 10
-57.0
 20
15.0
 30
0.0
 42
1.0
  0
SEQEND
  8
BASE
  6
CONTINUOUS
  0
POLYLINE
  8
BASE
  6
CONTINUOUS
 66
     1
 10
0.0
 20
0.0
 30
0.0
 70
     1
 40
0.5
 41
0.5
 71
     2
 72
   151
  0
VERTEX
  8
BASE
  6
CONTINUOUS
 10
-63.0
 20
20.0
 30
0.0
 42
1.0
  0
VERTEX
  8
BASE
  6
CONTINUOUS
 10
-62.0
 20
20.0
 30
0.0
 42
1.0
  0
SEQEND
  8
BASE
  6
CONTINUOUS
  0
POLYLINE
  8
BASE
  6
CONTINUOUS
 66
     1
 10
0.0
 20
0.0
 30
0.0
 70
     1
 40
0.5
 41
0.5
 71
     2
 72
   151
  0
VERTEX
  8
BASE
  6
CONTINUOUS
 10
-68.0
 20
25.0
 30
0.0
 42
1.0
  0
VERTEX
  8
BASE
  6
CONTINUOUS
 10
-67.0
 20
25.0
 30
0.0
 42
1.0
  0
SEQEND
  8
BASE
  6
CONTINUOUS
  0
POLYLINE
  8
BASE
  6
CONTINUOUS
 66
     1
 10
0.0
 20
0.0
 30
0.0
 70
     1
 40
0.5
 41
0.5
 71
     2
 72
   151
  0
VERTEX
  8
BASE
  6
CONTINUOUS
 10
-73.0
 20
30.0
 30
0.0
 42
1.0
  0
VERTEX
  8
BASE
  6
CONTINUOUS
 10
-72.0
 20
30.0
 30
0.0
 42
1.0
  0
SEQEND
  8
BASE
  6
CONTINUOUS
  0
POLYLINE
  8
BASE
  6
CONTINUOUS
 66
     1
 10
0.0
 20
0.0
 30
0.0
 70
     1
 40
0.5
 41
0.5
 71
     2
 72
   151
  0
VERTEX
  8
BASE
  6
CONTINUOUS
 10
-78.0
 20
35.0
 30
0.0
 42
1.0
  0
VERTEX
  8
BASE
  6
CONTINUOUS
 10
-77.0
 20
35.0
 30
0.0
 42
1.0
  0
SEQEND
  8
BASE
  6
CONTINUOUS
  0
POLYLINE
  8
BASE
  6
CONTINUOUS
 66
     1
 10
0.0
 20
0.0
 30
0.0
 70
     1
 40
0.5
 41
0.5
 71
     2
 72
   151
  0
VERTEX
  8
BASE
  6
CONTINUOUS
 10
-100.5
 20
25.0
 30
0.0
 42
1.0
  0
VERTEX
  8
BASE
  6
CONTINUOUS
 10
-99.5
 20
25.0
 30
0.0
 42
1.0
  0
SEQEND
  8
BASE
  6
CONTINUOUS
  0
POLYLINE
  8
BASE
  6
CONTINUOUS
 66
     1
 10
0.0
 20
0.0
 30
0.0
 70
     1
 40
0.5
 41
0.5
 71
     2
 72
   151
  0
VERTEX
  8
BASE
  6
CONTINUOUS
 10
-118.0
 20
10.0
 30
0.0
 42
1.0
  0
VERTEX
  8
BASE
  6
CONTINUOUS
 10
-117.0
 20
10.0
 30
0.0
 42
1.0
  0
SEQEND
  8
BASE
  6
CONTINUOUS
  0
POLYLINE
  8
BASE
  6
CONTINUOUS
 66
     1
 10
0.0
 20
0.0
 30
0.0
 70
     1
 40
0.5
 41
0.5
 71
     2
 72
   151
  0
VERTEX
  8
BASE
  6
CONTINUOUS
 10
-140.5
 20
10.0
 30
0.0
 42
1.0
  0
VERTEX
  8
BASE
  6
CONTINUOUS
 10
-139.5
 20
10.0
 30
0.0
 42
1.0
  0
SEQEND
  8
BASE
  6
CONTINUOUS
  0
POLYLINE
  8
BASE
  6
CONTINUOUS
 66
     1
 10
0.0
 20
0.0
 30
0.0
 70
     1
 40
0.5
 41
0.5
 71
     2
 72
   151
  0
VERTEX
  8
BASE
  6
CONTINUOUS
 10
-123.0
 20
20.0
 30
0.0
 42
1.0
  0
VERTEX
  8
BASE
  6
CONTINUOUS
 10
-122.0
 20
20.0
 30
0.0
 42
1.0
  0
SEQEND
  8
BASE
  6
CONTINUOUS
  0
POLYLINE
  8
BASE
  6
CONTINUOUS
 66
     1
 10
0.0
 20
0.0
 30
0.0
 70
     1
 40
0.5
 41
0.5
 71
     2
 72
   151
  0
VERTEX
  8
BASE
  6
CONTINUOUS
 10
-145.5
 20
20.0
 30
0.0
 42
1.0
  0
VERTEX
  8
BASE
  6
CONTINUOUS
 10
-144.5
 20
20.0
 30
0.0
 42
1.0
  0
SEQEND
  8
BASE
  6
CONTINUOUS
  0
POLYLINE
  8
BASE
  6
CONTINUOUS
 66
     1
 10
0.0
 20
0.0
 30
0.0
 70
     1
 40
0.5
 41
0.5
 71
     2
 72
   151
  0
VERTEX
  8
BASE
  6
CONTINUOUS
 10
-128.0
 20
30.0
 30
0.0
 42
1.0
  0
VERTEX
  8
BASE
  6
CONTINUOUS
 10
-127.0
 20
30.0
 30
0.0
 42
1.0
  0
SEQEND
  8
BASE
  6
CONTINUOUS
  0
POLYLINE
  8
BASE
  6
CONTINUOUS
 66
     1
 10
0.0
 20
0.0
 30
0.0
 70
     1
 40
0.5
 41
0.5
 71
     2
 72
   151
  0
VERTEX
  8
BASE
  6
CONTINUOUS
 10
-150.5
 20
30.0
 30
0.0
 42
1.0
  0
VERTEX
  8
BASE
  6
CONTINUOUS
 10
-149.5
 20
30.0
 30
0.0
 42
1.0
  0
SEQEND
  8
BASE
  6
CONTINUOUS
  0
LINE
  8
BASE
  6
CONTINUOUS
 10
-25.0
 20
-52.5
 30
0.0
 11
-25.0
 21
-40.0
 31
0.0
  0
LINE
  8
BASE
  6
CONTINUOUS
 10
-30.0
 20
-35.0
 30
0.0
 11
-30.0
 21
-32.5
 31
0.0
  0
LINE
  8
BASE
  6
CONTINUOUS
 10
-25.0
 20
-35.0
 30
0.0
 11
-25.0
 21
-32.5
 31
0.0
  0
LINE
  8
BASE
  6
CONTINUOUS
 10
-30.0
 20
-32.5
 30
0.0
 11
-30.0
 21
15.0
 31
0.0
  0
LINE
  8
BASE
  6
CONTINUOUS
 10
-25.0
 20
-32.5
 30
0.0
 11
-25.0
 21
5.0
 31
0.0
  0
LINE
  8
BASE
  6
CONTINUOUS
 10
-197.5
 20
42.5
 30
0.0
 11
-197.5
 21
55.0
 31
0.0
  0
LINE
  8
BASE
  6
CONTINUOUS
 10
-172.5
 20
42.5
 30
0.0
 11
-167.5
 21
42.5
 31
0.0
  0
LINE
  8
BASE
  6
CONTINUOUS
 10
-172.5
 20
42.5
 30
0.0
 11
-178.243924
 21
39.285297
 31
0.0
  0
LINE
  8
BASE
  6
CONTINUOUS
 10
-177.5
 20
42.5
 30
0.0
 11
-197.5
 21
42.5
 31
0.0
  0
LINE
  8
BASE
  6
DASHED
 10
0.0
 20
55.0
 30
0.0
 11
-205.0
 21
55.0
 31
0.0
  0
LINE
  8
BASE
  6
DASHED
 10
0.0
 20
-55.0
 30
0.0
 11
0.0
 21
55.0
 31
0.0
  0
LINE
  8
BASE
  6
DASHED
 10
-205.0
 20
-55.0
 30
0.0
 11
0.0
 21
-55.0
 31
0.0
  0
LINE
  8
BASE
  6
DASHED
 10
-205.0
 20
55.0
 30
0.0
 11
-205.0
 21
-55.0
 31
0.0
  0
LINE
  8
BASE
  6
CONTINUOUS
 10
-193.895452
 20
-5.257616
 30
0.0
 11
-193.895452
 21
-7.045747
 31
0.0
  0
LINE
  8
BASE
  6
CONTINUOUS
 10
-193.864421
 20
-6.102894
 30
0.0
 11
-186.076216
 21
-6.102894
 31
0.0
  0
LINE
  8
BASE
  6
CONTINUOUS
 10
-191.480276
 20
-7.270497
 30
0.0
 11
-188.604166
 21
-4.441938
 31
0.0
  0
LINE
  8
BASE
  6
CONTINUOUS
 10
-189.058288
 20
-3.904732
 30
0.0
 11
-188.157612
 21
-5.028481
 31
0.0
  0
LINE
  8
BASE
  6
CONTINUOUS
 10
-186.080757
 20
-5.257616
 30
0.0
 11
-186.080757
 21
-7.045747
 31
0.0
  0
LINE
  8
BASE
  6
CONTINUOUS
 10
-135.0
 20
-35.0
 30
0.0
 11
-135.0
 21
0.0
 31
0.0
  0
LINE
  8
BASE
  6
CONTINUOUS
 10
-135.0
 20
-40.0
 30
0.0
 11
-136.71779
 21
-34.985034
 31
0.0
  0
LINE
  8
BASE
  6
CONTINUOUS
 10
-135.0
 20
-42.5
 30
0.0
 11
-135.0
 21
-40.0
 31
0.0
  0
LINE
  8
BASE
  6
CONTINUOUS
 10
0.0
 20
0.0
 30
0.0
 11
-162.5
 21
0.0
 31
0.0
  0
LINE
  8
BASE
  6
CONTINUOUS
 10
0.0
 20
5.0
 30
0.0
 11
-90.0
 21
5.0
 31
0.0
  0
LINE
  8
BASE
  6
CONTINUOUS
 10
0.0
 20
10.0
 30
0.0
 11
-167.5
 21
10.0
 31
0.0
  0
LINE
  8
BASE
  6
CONTINUOUS
 10
0.0
 20
15.0
 30
0.0
 11
-95.0
 21
15.0
 31
0.0
  0
LINE
  8
BASE
  6
CONTINUOUS
 10
0.0
 20
20.0
 30
0.0
 11
-172.5
 21
20.0
 31
0.0
  0
LINE
  8
BASE
  6
CONTINUOUS
 10
0.0
 20
25.0
 30
0.0
 11
-155.0
 21
25.0
 31
0.0
  0
LINE
  8
BASE
  6
CONTINUOUS
 10
0.0
 20
30.0
 30
0.0
 11
-177.5
 21
30.0
 31
0.0
  0
POLYLINE
  8
BASE
  6
CONTINUOUS
 66
     1
 10
0.0
 20
0.0
 30
0.0
 70
    16
 71
     2
 72
   101
  0
VERTEX
  8
BASE
  6
CONTINUOUS
 10
-163.793403
 20
-27.5
 30
0.0
 70
    64
  0
VERTEX
  8
BASE
  6
CONTINUOUS
 10
-163.780469
 20
-27.508981
 30
0.0
 70
    64
  0
VERTEX
  8
BASE
  6
CONTINUOUS
 10
-163.767535
 20
-27.517962
 30
0.0
 70
    64
  0
VERTEX
  8
BASE
  6
CONTINUOUS
 10
-163.754601
 20
-27.526943
 30
0.0
 70
    64
  0
VERTEX
  8
BASE
  6
CONTINUOUS
 10
-163.741667
 20
-27.535923
 30
0.0
 70
    64
  0
VERTEX
  8
BASE
  6
CONTINUOUS
 10
-163.728733
 20
-27.544904
 30
0.0
 70
    64
  0
VERTEX
  8
BASE
  6
CONTINUOUS
 10
-163.715798
 20
-27.553885
 30
0.0
 70
    64
  0
VERTEX
  8
BASE
  6
CONTINUOUS
 10
-163.702864
 20
-27.562866
 30
0.0
 70
    64
  0
VERTEX
  8
BASE
  6
CONTINUOUS
 10
-163.68993
 20
-27.571847
 30
0.0
 70
    64
  0
VERTEX
  8
BASE
  6
CONTINUOUS
 10
-163.676996
 20
-27.580828
 30
0.0
 70
    64
  0
VERTEX
  8
BASE
  6
CONTINUOUS
 10
-163.664062
 20
-27.589809
 30
0.0
 70
    64
  0
VERTEX
  8
BASE
  6
CONTINUOUS
 10
-163.651128
 20
-27.59879
 30
0.0
 70
    64
  0
VERTEX
  8
BASE
  6
CONTINUOUS
 10
-163.638194
 20
-27.60777
 30
0.0
 70
    64
  0
VERTEX
  8
BASE
  6
CONTINUOUS
 10
-163.62526
 20
-27.616751
 30
0.0
 70
    64
  0
VERTEX
  8
BASE
  6
CONTINUOUS
 10
-163.612326
 20
-27.625732
 30
0.0
 70
    64
  0
VERTEX
  8
BASE
  6
CONTINUOUS
 10
-163.599392
 20
-27.634713
 30
0.0
 70
    64
  0
VERTEX
  8
BASE
  6
CONTINUOUS
 10
-163.586458
 20
-27.643694
 30
0.0
 70
    64
  0
VERTEX
  8
BASE
  6
CONTINUOUS
 10
-163.573524
 20
-27.652675
 30
0.0
 70
    64
  0
VERTEX
  8
BASE
  6
CONTINUOUS
 10
-163.56059
 20
-27.661656
 30
0.0
 70
    64
  0
VERTEX
  8
BASE
  6
CONTINUOUS
 10
-163.547656
 20
-27.670637
 30
0.0
 70
    64
  0
VERTEX
  8
BASE
  6
CONTINUOUS
 10
-163.534722
 20
-27.679617
 30
0.0
 70
    64
  0
VERTEX
  8
BASE
  6
CONTINUOUS
 10
-163.521788
 20
-27.688598
 30
0.0
 70
    64
  0
VERTEX
  8
BASE
  6
CONTINUOUS
 10
-163.508854
 20
-27.697579
 30
0.0
 70
    64
  0
VERTEX
  8
BASE
  6
CONTINUOUS
 10
-163.49592
 20
-27.70656
 30
0.0
 70
    64
  0
VERTEX
  8
BASE
  6
CONTINUOUS
 10
-163.482986
 20
-27.715541
 30
0.0
 70
    64
  0
VERTEX
  8
BASE
  6
CONTINUOUS
 10
-163.470052
 20
-27.724522
 30
0.0
 70
    64
  0
VERTEX
  8
BASE
  6
CONTINUOUS
 10
-163.457118
 20
-27.733503
 30
0.0
 70
    64
  0
VERTEX
  8
BASE
  6
CONTINUOUS
 10
-163.444184
 20
-27.742484
 30
0.0
 70
    64
  0
VERTEX
  8
BASE
  6
CONTINUOUS
 10
-163.43125
 20
-27.751464
 30
0.0
 70
    64
  0
VERTEX
  8
BASE
  6
CONTINUOUS
 10
-163.418316
 20
-27.760445
 30
0.0
 70
    64
  0
VERTEX
  8
BASE
  6
CONTINUOUS
 10
-163.405382
 20
-27.769426
 30
0.0
 70
    64
  0
VERTEX
  8
BASE
  6
CONTINUOUS
 10
-163.392448
 20
-27.778407
 30
0.0
 70
    64
  0
VERTEX
  8
BASE
  6
CONTINUOUS
 10
-163.379514
 20
-27.787388
 30
0.0
 70
    64
  0
VERTEX
  8
BASE
  6
CONTINUOUS
 10
-163.36658
 20
-27.796369
 30
0.0
 70
    64
  0
VERTEX
  8
BASE
  6
CONTINUOUS
 10
-163.353646
 20
-27.80535
 30
0.0
 70
    64
  0
VERTEX
  8
BASE
  6
CONTINUOUS
 10
-163.340712
 20
-27.814331
 30
0.0
 70
    64
  0
VERTEX
  8
BASE
  6
CONTINUOUS
 10
-163.327778
 20
-27.823311
 30
0.0
 70
    64
  0
VERTEX
  8
BASE
  6
CONTINUOUS
 10
-163.314844
 20
-27.832292
 30
0.0
 70
    64
  0
VERTEX
  8
BASE
  6
CONTINUOUS
 10
-163.30191
 20
-27.841273
 30
0.0
 70
    64
  0
VERTEX
  8
BASE
  6
CONTINUOUS
 10
-163.288976
 20
-27.850254
 30
0.0
 70
    64
  0
VERTEX
  8
BASE
  6
CONTINUOUS
 10
-163.276042
 20
-27.859235
 30
0.0
 70
    64
  0
VERTEX
  8
BASE
  6
CONTINUOUS
 10
-163.263108
 20
-27.868216
 30
0.0
 70
    64
  0
VERTEX
  8
BASE
  6
CONTINUOUS
 10
-163.250174
 20
-27.877197
 30
0.0
 70
    64
  0
VERTEX
  8
BASE
  6
CONTINUOUS
 10
-163.23724
 20
-27.886178
 30
0.0
 70
    64
  0
VERTEX
  8
BASE
  6
CONTINUOUS
 10
-163.224305
 20
-27.895158
 30
0.0
 70
    64
  0
VERTEX
  8
BASE
  6
CONTINUOUS
 10
-163.211371
 20
-27.904139
 30
0.0
 70
    64
  0
VERTEX
  8
BASE
  6
CONTINUOUS
 10
-163.198437
 20
-27.91312
 30
0.0
 70
    64
  0
VERTEX
  8
BASE
  6
CONTINUOUS
 10
-163.185503
 20
-27.922101
 30
0.0
 70
    64
  0
VERTEX
  8
BASE
  6
CONTINUOUS
 10
-163.172569
 20
-27.931082
 30
0.0
 70
    64
  0
VERTEX
  8
BASE
  6
CONTINUOUS
 10
-163.159635
 20
-27.940063
 30
0.0
 70
    64
  0
VERTEX
  8
BASE
  6
CONTINUOUS
 10
-163.146701
 20
-27.949044
 30
0.0
 70
    64
  0
VERTEX
  8
BASE
  6
CONTINUOUS
 10
-163.133767
 20
-27.958025
 30
0.0
 70
    64
  0
VERTEX
  8
BASE
  6
CONTINUOUS
 10
-163.120833
 20
-27.967005
 30
0.0
 70
    64
  0
VERTEX
  8
BASE
  6
CONTINUOUS
 10
-163.107899
 20
-27.975986
 30
0.0
 70
    64
  0
VERTEX
  8
BASE
  6
CONTINUOUS
 10
-163.094965
 20
-27.984967
 30
0.0
 70
    64
  0
VERTEX
  8
BASE
  6
CONTINUOUS
 10
-163.082031
 20
-27.993948
 30
0.0
 70
    64
  0
VERTEX
  8
BASE
  6
CONTINUOUS
 10
-163.069097
 20
-28.002929
 30
0.0
 70
    64
  0
VERTEX
  8
BASE
  6
CONTINUOUS
 10
-163.056163
 20
-28.01191
 30
0.0
 70
    64
  0
VERTEX
  8
BASE
  6
CONTINUOUS
 10
-163.043229
 20
-28.020891
 30
0.0
 70
    64
  0
VERTEX
  8
BASE
  6
CONTINUOUS
 10
-163.030295
 20
-28.029872
 30
0.0
 70
    64
  0
VERTEX
  8
BASE
  6
CONTINUOUS
 10
-163.017361
 20
-28.038853
 30
0.0
 70
    64
  0
VERTEX
  8
BASE
  6
CONTINUOUS
 10
-163.004427
 20
-28.047833
 30
0.0
 70
    64
  0
VERTEX
  8
BASE
  6
CONTINUOUS
 10
-162.991493
 20
-28.056814
 30
0.0
 70
    64
  0
VERTEX
  8
BASE
  6
CONTINUOUS
 10
-162.978559
 20
-28.065795
 30
0.0
 70
    64
  0
VERTEX
  8
BASE
  6
CONTINUOUS
 10
-162.965625
 20
-28.074776
 30
0.0
 70
    64
  0
VERTEX
  8
BASE
  6
CONTINUOUS
 10
-162.952691
 20
-28.083757
 30
0.0
 70
    64
  0
VERTEX
  8
BASE
  6
CONTINUOUS
 10
-162.939757
 20
-28.092738
 30
0.0
 70
    64
  0
VERTEX
  8
BASE
  6
CONTINUOUS
 10
-162.926823
 20
-28.101719
 30
0.0
 70
    64
  0
VERTEX
  8
BASE
  6
CONTINUOUS
 10
-162.913889
 20
-28.1107
 30
0.0
 70
    64
  0
VERTEX
  8
BASE
  6
CONTINUOUS
 10
-162.900955
 20
-28.11968
 30
0.0
 70
    64
  0
VERTEX
  8
BASE
  6
CONTINUOUS
 10
-162.888021
 20
-28.128661
 30
0.0
 70
    64
  0
VERTEX
  8
BASE
  6
CONTINUOUS
 10
-162.875087
 20
-28.137642
 30
0.0
 70
    64
  0
VERTEX
  8
BASE
  6
CONTINUOUS
 10
-162.862153
 20
-28.146623
 30
0.0
 70
    64
  0
VERTEX
  8
BASE
  6
CONTINUOUS
 10
-162.849219
 20
-28.155604
 30
0.0
 70
    64
  0
VERTEX
  8
BASE
  6
CONTINUOUS
 10
-162.836285
 20
-28.164585
 30
0.0
 70
    64
  0
VERTEX
  8
BASE
  6
CONTINUOUS
 10
-162.823351
 20
-28.173566
 30
0.0
 70
    64
  0
VERTEX
  8
BASE
  6
CONTINUOUS
 10
-162.810417
 20
-28.182547
 30
0.0
 70
    64
  0
VERTEX
  8
BASE
  6
CONTINUOUS
 10
-162.797483
 20
-28.191527
 30
0.0
 70
    64
  0
VERTEX
  8
BASE
  6
CONTINUOUS
 10
-162.784549
 20
-28.200508
 30
0.0
 70
    64
  0
VERTEX
  8
BASE
  6
CONTINUOUS
 10
-162.771615
 20
-28.209489
 30
0.0
 70
    64
  0
VERTEX
  8
BASE
  6
CONTINUOUS
 10
-162.758681
 20
-28.21847
 30
0.0
 70
    64
  0
VERTEX
  8
BASE
  6
CONTINUOUS
 10
-162.745747
 20
-28.227451
 30
0.0
 70
    64
  0
VERTEX
  8
BASE
  6
CONTINUOUS
 10
-162.732812
 20
-28.236432
 30
0.0
 70
    64
  0
VERTEX
  8
BASE
  6
CONTINUOUS
 10
-162.719878
 20
-28.245413
 30
0.0
 70
    64
  0
VERTEX
  8
BASE
  6
CONTINUOUS
 10
-162.706944
 20
-28.254394
 30
0.0
 70
    64
  0
VERTEX
  8
BASE
  6
CONTINUOUS
 10
-162.69401
 20
-28.263374
 30
0.0
 70
    64
  0
VERTEX
  8
BASE
  6
CONTINUOUS
 10
-162.681076
 20
-28.272355
 30
0.0
 70
    64
  0
VERTEX
  8
BASE
  6
CONTINUOUS
 10
-162.668142
 20
-28.281336
 30
0.0
 70
    64
  0
VERTEX
  8
BASE
  6
CONTINUOUS
 10
-162.655208
 20
-28.290317
 30
0.0
 70
    64
  0
VERTEX
  8
BASE
  6
CONTINUOUS
 10
-162.642274
 20
-28.299298
 30
0.0
 70
    64
  0
VERTEX
  8
BASE
  6
CONTINUOUS
 10
-162.62934
 20
-28.308279
 30
0.0
 70
    64
  0
VERTEX
  8
BASE
  6
CONTINUOUS
 10
-162.616406
 20
-28.31726
 30
0.0
 70
    64
  0
VERTEX
  8
BASE
  6
CONTINUOUS
 10
-162.603472
 20
-28.326241
 30
0.0
 70
    64
  0
VERTEX
  8
BASE
  6
CONTINUOUS
 10
-162.590538
 20
-28.335221
 30
0.0
 70
    64
  0
VERTEX
  8
BASE
  6
CONTINUOUS
 10
-162.577604
 20
-28.344202
 30
0.0
 70
    64
  0
VERTEX
  8
BASE
  6
CONTINUOUS
 10
-162.56467
 20
-28.353183
 30
0.0
 70
    64
  0
VERTEX
  8
BASE
  6
CONTINUOUS
 10
-162.551736
 20
-28.362164
 30
0.0
 70
    64
  0
VERTEX
  8
BASE
  6
CONTINUOUS
 10
-162.538802
 20
-28.371145
 30
0.0
 70
    64
  0
VERTEX
  8
BASE
  6
CONTINUOUS
 10
-162.525868
 20
-28.380126
 30
0.0
 70
    64
  0
VERTEX
  8
BASE
  6
CONTINUOUS
 10
-162.512934
 20
-28.389107
 30
0.0
 70
    64
  0
VERTEX
  8
BASE
  6
CONTINUOUS
 10
-162.5
 20
-28.398088
 30
0.0
 70
    64
  0
VERTEX
  8
BASE
  6
CONTINUOUS
 10
-163.793403
 20
-27.5
 30
0.0
 70
    64
  0
VERTEX
  8
BASE
  6
CONTINUOUS
 10
-163.780469
 20
-27.490932
 30
0.0
 70
    64
  0
VERTEX
  8
BASE
  6
CONTINUOUS
 10
-163.767535
 20
-27.481864
 30
0.0
 70
    64
  0
VERTEX
  8
BASE
  6
CONTINUOUS
 10
-163.754601
 20
-27.472797
 30
0.0
 70
    64
  0
VERTEX
  8
BASE
  6
CONTINUOUS
 10
-163.741667
 20
-27.463729
 30
0.0
 70
    64
  0
VERTEX
  8
BASE
  6
CONTINUOUS
 10
-163.728733
 20
-27.454661
 30
0.0
 70
    64
  0
VERTEX
  8
BASE
  6
CONTINUOUS
 10
-163.715798
 20
-27.445594
 30
0.0
 70
    64
  0
VERTEX
  8
BASE
  6
CONTINUOUS
 10
-163.702864
 20
-27.436526
 30
0.0
 70
    64
  0
VERTEX
  8
BASE
  6
CONTINUOUS
 10
-163.68993
 20
-27.427458
 30
0.0
 70
    64
  0
VERTEX
  8
BASE
  6
CONTINUOUS
 10
-163.676996
 20
-27.418391
 30
0.0
 70
    64
  0
VERTEX
  8
BASE
  6
CONTINUOUS
 10
-163.664062
 20
-27.409323
 30
0.0
 70
    64
  0
VERTEX
  8
BASE
  6
CONTINUOUS
 10
-163.651128
 20
-27.400255
 30
0.0
 70
    64
  0
VERTEX
  8
BASE
  6
CONTINUOUS
 10
-163.638194
 20
-27.391188
 30
0.0
 70
    64
  0
VERTEX
  8
BASE
  6
CONTINUOUS
 10
-163.62526
 20
-27.38212
 30
0.0
 70
    64
  0
VERTEX
  8
BASE
  6
CONTINUOUS
 10
-163.612326
 20
-27.373052
 30
0.0
 70
    64
  0
VERTEX
  8
BASE
  6
CONTINUOUS
 10
-163.599392
 20
-27.363985
 30
0.0
 70
    64
  0
VERTEX
  8
BASE
  6
CONTINUOUS
 10
-163.586458
 20
-27.354917
 30
0.0
 70
    64
  0
VERTEX
  8
BASE
  6
CONTINUOUS
 10
-163.573524
 20
-27.345849
 30
0.0
 70
    64
  0
VERTEX
  8
BASE
  6
CONTINUOUS
 10
-163.56059
 20
-27.336781
 30
0.0
 70
    64
  0
VERTEX
  8
BASE
  6
CONTINUOUS
 10
-163.547656
 20
-27.327714
 30
0.0
 70
    64
  0
VERTEX
  8
BASE
  6
CONTINUOUS
 10
-163.534722
 20
-27.318646
 30
0.0
 70
    64
  0
VERTEX
  8
BASE
  6
CONTINUOUS
 10
-163.521788
 20
-27.309578
 30
0.0
 70
    64
  0
VERTEX
  8
BASE
  6
CONTINUOUS
 10
-163.508854
 20
-27.300511
 30
0.0
 70
    64
  0
VERTEX
  8
BASE
  6
CONTINUOUS
 10
-163.49592
 20
-27.291443
 30
0.0
 70
    64
  0
VERTEX
  8
BASE
  6
CONTINUOUS
 10
-163.482986
 20
-27.282375
 30
0.0
 70
    64
  0
VERTEX
  8
BASE
  6
CONTINUOUS
 10
-163.470052
 20
-27.273308
 30
0.0
 70
    64
  0
VERTEX
  8
BASE
  6
CONTINUOUS
 10
-163.457118
 20
-27.26424
 30
0.0
 70
    64
  0
VERTEX
  8
BASE
  6
CONTINUOUS
 10
-163.444184
 20
-27.255172
 30
0.0
 70
    64
  0
VERTEX
  8
BASE
  6
CONTINUOUS
 10
-163.43125
 20
-27.246105
 30
0.0
 70
    64
  0
VERTEX
  8
BASE
  6
CONTINUOUS
 10
-163.418316
 20
-27.237037
 30
0.0
 70
    64
  0
VERTEX
  8
BASE
  6
CONTINUOUS
 10
-163.405382
 20
-27.227969
 30
0.0
 70
    64
  0
VERTEX
  8
BASE
  6
CONTINUOUS
 10
-163.392448
 20
-27.218902
 30
0.0
 70
    64
  0
VERTEX
  8
BASE
  6
CONTINUOUS
 10
-163.379514
 20
-27.209834
 30
0.0
 70
    64
  0
VERTEX
  8
BASE
  6
CONTINUOUS
 10
-163.36658
 20
-27.200766
 30
0.0
 70
    64
  0
VERTEX
  8
BASE
  6
CONTINUOUS
 10
-163.353646
 20
-27.191699
 30
0.0
 70
    64
  0
VERTEX
  8
BASE
  6
CONTINUOUS
 10
-163.340712
 20
-27.182631
 30
0.0
 70
    64
  0
VERTEX
  8
BASE
  6
CONTINUOUS
 10
-163.327778
 20
-27.173563
 30
0.0
 70
    64
  0
VERTEX
  8
BASE
  6
CONTINUOUS
 10
-163.314844
 20
-27.164495
 30
0.0
 70
    64
  0
VERTEX
  8
BASE
  6
CONTINUOUS
 10
-163.30191
 20
-27.155428
 30
0.0
 70
    64
  0
VERTEX
  8
BASE
  6
CONTINUOUS
 10
-163.288976
 20
-27.14636
 30
0.0
 70
    64
  0
VERTEX
  8
BASE
  6
CONTINUOUS
 10
-163.276042
 20
-27.137292
 30
0.0
 70
    64
  0
VERTEX
  8
BASE
  6
CONTINUOUS
 10
-163.263108
 20
-27.128225
 30
0.0
 70
    64
  0
VERTEX
  8
BASE
  6
CONTINUOUS
 10
-163.250174
 20
-27.119157
 30
0.0
 70
    64
  0
VERTEX
  8
BASE
  6
CONTINUOUS
 10
-163.23724
 20
-27.110089
 30
0.0
 70
    64
  0
VERTEX
  8
BASE
  6
CONTINUOUS
 10
-163.224305
 20
-27.101022
 30
0.0
 70
    64
  0
VERTEX
  8
BASE
  6
CONTINUOUS
 10
-163.211371
 20
-27.091954
 30
0.0
 70
    64
  0
VERTEX
  8
BASE
  6
CONTINUOUS
 10
-163.198437
 20
-27.082886
 30
0.0
 70
    64
  0
VERTEX
  8
BASE
  6
CONTINUOUS
 10
-163.185503
 20
-27.073819
 30
0.0
 70
    64
  0
VERTEX
  8
BASE
  6
CONTINUOUS
 10
-163.172569
 20
-27.064751
 30
0.0
 70
    64
  0
VERTEX
  8
BASE
  6
CONTINUOUS
 10
-163.159635
 20
-27.055683
 30
0.0
 70
    64
  0
VERTEX
  8
BASE
  6
CONTINUOUS
 10
-163.146701
 20
-27.046616
 30
0.0
 70
    64
  0
VERTEX
  8
BASE
  6
CONTINUOUS
 10
-163.133767
 20
-27.037548
 30
0.0
 70
    64
  0
VERTEX
  8
BASE
  6
CONTINUOUS
 10
-163.120833
 20
-27.02848
 30
0.0
 70
    64
  0
VERTEX
  8
BASE
  6
CONTINUOUS
 10
-163.107899
 20
-27.019412
 30
0.0
 70
    64
  0
VERTEX
  8
BASE
  6
CONTINUOUS
 10
-163.094965
 20
-27.010345
 30
0.0
 70
    64
  0
VERTEX
  8
BASE
  6
CONTINUOUS
 10
-163.082031
 20
-27.001277
 30
0.0
 70
    64
  0
VERTEX
  8
BASE
  6
CONTINUOUS
 10
-163.069097
 20
-26.992209
 30
0.0
 70
    64
  0
VERTEX
  8
BASE
  6
CONTINUOUS
 10
-163.056163
 20
-26.983142
 30
0.0
 70
    64
  0
VERTEX
  8
BASE
  6
CONTINUOUS
 10
-163.043229
 20
-26.974074
 30
0.0
 70
    64
  0
VERTEX
  8
BASE
  6
CONTINUOUS
 10
-163.030295
 20
-26.965006
 30
0.0
 70
    64
  0
VERTEX
  8
BASE
  6
CONTINUOUS
 10
-163.017361
 20
-26.955939
 30
0.0
 70
    64
  0
VERTEX
  8
BASE
  6
CONTINUOUS
 10
-163.004427
 20
-26.946871
 30
0.0
 70
    64
  0
VERTEX
  8
BASE
  6
CONTINUOUS
 10
-162.991493
 20
-26.937803
 30
0.0
 70
    64
  0
VERTEX
  8
BASE
  6
CONTINUOUS
 10
-162.978559
 20
-26.928736
 30
0.0
 70
    64
  0
VERTEX
  8
BASE
  6
CONTINUOUS
 10
-162.965625
 20
-26.919668
 30
0.0
 70
    64
  0
VERTEX
  8
BASE
  6
CONTINUOUS
 10
-162.952691
 20
-26.9106
 30
0.0
 70
    64
  0
VERTEX
  8
BASE
  6
CONTINUOUS
 10
-162.939757
 20
-26.901533
 30
0.0
 70
    64
  0
VERTEX
  8
BASE
  6
CONTINUOUS
 10
-162.926823
 20
-26.892465
 30
0.0
 70
    64
  0
VERTEX
  8
BASE
  6
CONTINUOUS
 10
-162.913889
 20
-26.883397
 30
0.0
 70
    64
  0
VERTEX
  8
BASE
  6
CONTINUOUS
 10
-162.900955
 20
-26.874329
 30
0.0
 70
    64
  0
VERTEX
  8
BASE
  6
CONTINUOUS
 10
-162.888021
 20
-26.865262
 30
0.0
 70
    64
  0
VERTEX
  8
BASE
  6
CONTINUOUS
 10
-162.875087
 20
-26.856194
 30
0.0
 70
    64
  0
VERTEX
  8
BASE
  6
CONTINUOUS
 10
-162.862153
 20
-26.847126
 30
0.0
 70
    64
  0
VERTEX
  8
BASE
  6
CONTINUOUS
 10
-162.849219
 20
-26.838059
 30
0.0
 70
    64
  0
VERTEX
  8
BASE
  6
CONTINUOUS
 10
-162.836285
 20
-26.828991
 30
0.0
 70
    64
  0
VERTEX
  8
BASE
  6
CONTINUOUS
 10
-162.823351
 20
-26.819923
 30
0.0
 70
    64
  0
VERTEX
  8
BASE
  6
CONTINUOUS
 10
-162.810417
 20
-26.810856
 30
0.0
 70
    64
  0
VERTEX
  8
BASE
  6
CONTINUOUS
 10
-162.797483
 20
-26.801788
 30
0.0
 70
    64
  0
VERTEX
  8
BASE
  6
CONTINUOUS
 10
-162.784549
 20
-26.79272
 30
0.0
 70
    64
  0
VERTEX
  8
BASE
  6
CONTINUOUS
 10
-162.771615
 20
-26.783653
 30
0.0
 70
    64
  0
VERTEX
  8
BASE
  6
CONTINUOUS
 10
-162.758681
 20
-26.774585
 30
0.0
 70
    64
  0
VERTEX
  8
BASE
  6
CONTINUOUS
 10
-162.745747
 20
-26.765517
 30
0.0
 70
    64
  0
VERTEX
  8
BASE
  6
CONTINUOUS
 10
-162.732812
 20
-26.75645
 30
0.0
 70
    64
  0
VERTEX
  8
BASE
  6
CONTINUOUS
 10
-162.719878
 20
-26.747382
 30
0.0
 70
    64
  0
VERTEX
  8
BASE
  6
CONTINUOUS
 10
-162.706944
 20
-26.738314
 30
0.0
 70
    64
  0
VERTEX
  8
BASE
  6
CONTINUOUS
 10
-162.69401
 20
-26.729246
 30
0.0
 70
    64
  0
VERTEX
  8
BASE
  6
CONTINUOUS
 10
-162.681076
 20
-26.720179
 30
0.0
 70
    64
  0
VERTEX
  8
BASE
  6
CONTINUOUS
 10
-162.668142
 20
-26.711111
 30
0.0
 70
    64
  0
VERTEX
  8
BASE
  6
CONTINUOUS
 10
-162.655208
 20
-26.702043
 30
0.0
 70
    64
  0
VERTEX
  8
BASE
  6
CONTINUOUS
 10
-162.642274
 20
-26.692976
 30
0.0
 70
    64
  0
VERTEX
  8
BASE
  6
CONTINUOUS
 10
-162.62934
 20
-26.683908
 30
0.0
 70
    64
  0
VERTEX
  8
BASE
  6
CONTINUOUS
 10
-162.616406
 20
-26.67484
 30
0.0
 70
    64
  0
VERTEX
  8
BASE
  6
CONTINUOUS
 10
-162.603472
 20
-26.665773
 30
0.0
 70
    64
  0
VERTEX
  8
BASE
  6
CONTINUOUS
 10
-162.590538
 20
-26.656705
 30
0.0
 70
    64
  0
VERTEX
  8
BASE
  6
CONTINUOUS
 10
-162.577604
 20
-26.647637
 30
0.0
 70
    64
  0
VERTEX
  8
BASE
  6
CONTINUOUS
 10
-162.56467
 20
-26.63857
 30
0.0
 70
    64
  0
VERTEX
  8
BASE
  6
CONTINUOUS
 10
-162.551736
 20
-26.629502
 30
0.0
 70
    64
  0
VERTEX
  8
BASE
  6
CONTINUOUS
 10
-162.538802
 20
-26.620434
 30
0.0
 70
    64
  0
VERTEX
  8
BASE
  6
CONTINUOUS
 10
-162.525868
 20
-26.611367
 30
0.0
 70
    64
  0
VERTEX
  8
BASE
  6
CONTINUOUS
 10
-162.512934
 20
-26.602299
 30
0.0
 70
    64
  0
VERTEX
  8
BASE
  6
CONTINUOUS
 10
-162.5
 20
-26.593231
 30
0.0
 70
    64
  0
SEQEND
  8
BASE
  6
CONTINUOUS
  0
POLYLINE
  8
BASE
  6
CONTINUOUS
 66
     1
 10
0.0
 20
0.0
 30
0.0
 70
    16
 71
     2
 72
   101
  0
VERTEX
  8
BASE
  6
CONTINUOUS
 10
-168.793403
 20
-27.5
 30
0.0
 70
    64
  0
VERTEX
  8
BASE
  6
CONTINUOUS
 10
-168.780469
 20
-27.508981
 30
0.0
 70
    64
  0
VERTEX
  8
BASE
  6
CONTINUOUS
 10
-168.767535
 20
-27.517962
 30
0.0
 70
    64
  0
VERTEX
  8
BASE
  6
CONTINUOUS
 10
-168.754601
 20
-27.526943
 30
0.0
 70
    64
  0
VERTEX
  8
BASE
  6
CONTINUOUS
 10
-168.741667
 20
-27.535923
 30
0.0
 70
    64
  0
VERTEX
  8
BASE
  6
CONTINUOUS
 10
-168.728733
 20
-27.544904
 30
0.0
 70
    64
  0
VERTEX
  8
BASE
  6
CONTINUOUS
 10
-168.715798
 20
-27.553885
 30
0.0
 70
    64
  0
VERTEX
  8
BASE
  6
CONTINUOUS
 10
-168.702864
 20
-27.562866
 30
0.0
 70
    64
  0
VERTEX
  8
BASE
  6
CONTINUOUS
 10
-168.68993
 20
-27.571847
 30
0.0
 70
    64
  0
VERTEX
  8
BASE
  6
CONTINUOUS
 10
-168.676996
 20
-27.580828
 30
0.0
 70
    64
  0
VERTEX
  8
BASE
  6
CONTINUOUS
 10
-168.664062
 20
-27.589809
 30
0.0
 70
    64
  0
VERTEX
  8
BASE
  6
CONTINUOUS
 10
-168.651128
 20
-27.59879
 30
0.0
 70
    64
  0
VERTEX
  8
BASE
  6
CONTINUOUS
 10
-168.638194
 20
-27.60777
 30
0.0
 70
    64
  0
VERTEX
  8
BASE
  6
CONTINUOUS
 10
-168.62526
 20
-27.616751
 30
0.0
 70
    64
  0
VERTEX
  8
BASE
  6
CONTINUOUS
 10
-168.612326
 20
-27.625732
 30
0.0
 70
    64
  0
VERTEX
  8
BASE
  6
CONTINUOUS
 10
-168.599392
 20
-27.634713
 30
0.0
 70
    64
  0
VERTEX
  8
BASE
  6
CONTINUOUS
 10
-168.586458
 20
-27.643694
 30
0.0
 70
    64
  0
VERTEX
  8
BASE
  6
CONTINUOUS
 10
-168.573524
 20
-27.652675
 30
0.0
 70
    64
  0
VERTEX
  8
BASE
  6
CONTINUOUS
 10
-168.56059
 20
-27.661656
 30
0.0
 70
    64
  0
VERTEX
  8
BASE
  6
CONTINUOUS
 10
-168.547656
 20
-27.670637
 30
0.0
 70
    64
  0
VERTEX
  8
BASE
  6
CONTINUOUS
 10
-168.534722
 20
-27.679617
 30
0.0
 70
    64
  0
VERTEX
  8
BASE
  6
CONTINUOUS
 10
-168.521788
 20
-27.688598
 30
0.0
 70
    64
  0
VERTEX
  8
BASE
  6
CONTINUOUS
 10
-168.508854
 20
-27.697579
 30
0.0
 70
    64
  0
VERTEX
  8
BASE
  6
CONTINUOUS
 10
-168.49592
 20
-27.70656
 30
0.0
 70
    64
  0
VERTEX
  8
BASE
  6
CONTINUOUS
 10
-168.482986
 20
-27.715541
 30
0.0
 70
    64
  0
VERTEX
  8
BASE
  6
CONTINUOUS
 10
-168.470052
 20
-27.724522
 30
0.0
 70
    64
  0
VERTEX
  8
BASE
  6
CONTINUOUS
 10
-168.457118
 20
-27.733503
 30
0.0
 70
    64
  0
VERTEX
  8
BASE
  6
CONTINUOUS
 10
-168.444184
 20
-27.742484
 30
0.0
 70
    64
  0
VERTEX
  8
BASE
  6
CONTINUOUS
 10
-168.43125
 20
-27.751464
 30
0.0
 70
    64
  0
VERTEX
  8
BASE
  6
CONTINUOUS
 10
-168.418316
 20
-27.760445
 30
0.0
 70
    64
  0
VERTEX
  8
BASE
  6
CONTINUOUS
 10
-168.405382
 20
-27.769426
 30
0.0
 70
    64
  0
VERTEX
  8
BASE
  6
CONTINUOUS
 10
-168.392448
 20
-27.778407
 30
0.0
 70
    64
  0
VERTEX
  8
BASE
  6
CONTINUOUS
 10
-168.379514
 20
-27.787388
 30
0.0
 70
    64
  0
VERTEX
  8
BASE
  6
CONTINUOUS
 10
-168.36658
 20
-27.796369
 30
0.0
 70
    64
  0
VERTEX
  8
BASE
  6
CONTINUOUS
 10
-168.353646
 20
-27.80535
 30
0.0
 70
    64
  0
VERTEX
  8
BASE
  6
CONTINUOUS
 10
-168.340712
 20
-27.814331
 30
0.0
 70
    64
  0
VERTEX
  8
BASE
  6
CONTINUOUS
 10
-168.327778
 20
-27.823311
 30
0.0
 70
    64
  0
VERTEX
  8
BASE
  6
CONTINUOUS
 10
-168.314844
 20
-27.832292
 30
0.0
 70
    64
  0
VERTEX
  8
BASE
  6
CONTINUOUS
 10
-168.30191
 20
-27.841273
 30
0.0
 70
    64
  0
VERTEX
  8
BASE
  6
CONTINUOUS
 10
-168.288976
 20
-27.850254
 30
0.0
 70
    64
  0
VERTEX
  8
BASE
  6
CONTINUOUS
 10
-168.276042
 20
-27.859235
 30
0.0
 70
    64
  0
VERTEX
  8
BASE
  6
CONTINUOUS
 10
-168.263108
 20
-27.868216
 30
0.0
 70
    64
  0
VERTEX
  8
BASE
  6
CONTINUOUS
 10
-168.250174
 20
-27.877197
 30
0.0
 70
    64
  0
VERTEX
  8
BASE
  6
CONTINUOUS
 10
-168.23724
 20
-27.886178
 30
0.0
 70
    64
  0
VERTEX
  8
BASE
  6
CONTINUOUS
 10
-168.224305
 20
-27.895158
 30
0.0
 70
    64
  0
VERTEX
  8
BASE
  6
CONTINUOUS
 10
-168.211371
 20
-27.904139
 30
0.0
 70
    64
  0
VERTEX
  8
BASE
  6
CONTINUOUS
 10
-168.198437
 20
-27.91312
 30
0.0
 70
    64
  0
VERTEX
  8
BASE
  6
CONTINUOUS
 10
-168.185503
 20
-27.922101
 30
0.0
 70
    64
  0
VERTEX
  8
BASE
  6
CONTINUOUS
 10
-168.172569
 20
-27.931082
 30
0.0
 70
    64
  0
VERTEX
  8
BASE
  6
CONTINUOUS
 10
-168.159635
 20
-27.940063
 30
0.0
 70
    64
  0
VERTEX
  8
BASE
  6
CONTINUOUS
 10
-168.146701
 20
-27.949044
 30
0.0
 70
    64
  0
VERTEX
  8
BASE
  6
CONTINUOUS
 10
-168.133767
 20
-27.958025
 30
0.0
 70
    64
  0
VERTEX
  8
BASE
  6
CONTINUOUS
 10
-168.120833
 20
-27.967005
 30
0.0
 70
    64
  0
VERTEX
  8
BASE
  6
CONTINUOUS
 10
-168.107899
 20
-27.975986
 30
0.0
 70
    64
  0
VERTEX
  8
BASE
  6
CONTINUOUS
 10
-168.094965
 20
-27.984967
 30
0.0
 70
    64
  0
VERTEX
  8
BASE
  6
CONTINUOUS
 10
-168.082031
 20
-27.993948
 30
0.0
 70
    64
  0
VERTEX
  8
BASE
  6
CONTINUOUS
 10
-168.069097
 20
-28.002929
 30
0.0
 70
    64
  0
VERTEX
  8
BASE
  6
CONTINUOUS
 10
-168.056163
 20
-28.01191
 30
0.0
 70
    64
  0
VERTEX
  8
BASE
  6
CONTINUOUS
 10
-168.043229
 20
-28.020891
 30
0.0
 70
    64
  0
VERTEX
  8
BASE
  6
CONTINUOUS
 10
-168.030295
 20
-28.029872
 30
0.0
 70
    64
  0
VERTEX
  8
BASE
  6
CONTINUOUS
 10
-168.017361
 20
-28.038853
 30
0.0
 70
    64
  0
VERTEX
  8
BASE
  6
CONTINUOUS
 10
-168.004427
 20
-28.047833
 30
0.0
 70
    64
  0
VERTEX
  8
BASE
  6
CONTINUOUS
 10
-167.991493
 20
-28.056814
 30
0.0
 70
    64
  0
VERTEX
  8
BASE
  6
CONTINUOUS
 10
-167.978559
 20
-28.065795
 30
0.0
 70
    64
  0
VERTEX
  8
BASE
  6
CONTINUOUS
 10
-167.965625
 20
-28.074776
 30
0.0
 70
    64
  0
VERTEX
  8
BASE
  6
CONTINUOUS
 10
-167.952691
 20
-28.083757
 30
0.0
 70
    64
  0
VERTEX
  8
BASE
  6
CONTINUOUS
 10
-167.939757
 20
-28.092738
 30
0.0
 70
    64
  0
VERTEX
  8
BASE
  6
CONTINUOUS
 10
-167.926823
 20
-28.101719
 30
0.0
 70
    64
  0
VERTEX
  8
BASE
  6
CONTINUOUS
 10
-167.913889
 20
-28.1107
 30
0.0
 70
    64
  0
VERTEX
  8
BASE
  6
CONTINUOUS
 10
-167.900955
 20
-28.11968
 30
0.0
 70
    64
  0
VERTEX
  8
BASE
  6
CONTINUOUS
 10
-167.888021
 20
-28.128661
 30
0.0
 70
    64
  0
VERTEX
  8
BASE
  6
CONTINUOUS
 10
-167.875087
 20
-28.137642
 30
0.0
 70
    64
  0
VERTEX
  8
BASE
  6
CONTINUOUS
 10
-167.862153
 20
-28.146623
 30
0.0
 70
    64
  0
VERTEX
  8
BASE
  6
CONTINUOUS
 10
-167.849219
 20
-28.155604
 30
0.0
 70
    64
  0
VERTEX
  8
BASE
  6
CONTINUOUS
 10
-167.836285
 20
-28.164585
 30
0.0
 70
    64
  0
VERTEX
  8
BASE
  6
CONTINUOUS
 10
-167.823351
 20
-28.173566
 30
0.0
 70
    64
  0
VERTEX
  8
BASE
  6
CONTINUOUS
 10
-167.810417
 20
-28.182547
 30
0.0
 70
    64
  0
VERTEX
  8
BASE
  6
CONTINUOUS
 10
-167.797483
 20
-28.191527
 30
0.0
 70
    64
  0
VERTEX
  8
BASE
  6
CONTINUOUS
 10
-167.784549
 20
-28.200508
 30
0.0
 70
    64
  0
VERTEX
  8
BASE
  6
CONTINUOUS
 10
-167.771615
 20
-28.209489
 30
0.0
 70
    64
  0
VERTEX
  8
BASE
  6
CONTINUOUS
 10
-167.758681
 20
-28.21847
 30
0.0
 70
    64
  0
VERTEX
  8
BASE
  6
CONTINUOUS
 10
-167.745747
 20
-28.227451
 30
0.0
 70
    64
  0
VERTEX
  8
BASE
  6
CONTINUOUS
 10
-167.732812
 20
-28.236432
 30
0.0
 70
    64
  0
VERTEX
  8
BASE
  6
CONTINUOUS
 10
-167.719878
 20
-28.245413
 30
0.0
 70
    64
  0
VERTEX
  8
BASE
  6
CONTINUOUS
 10
-167.706944
 20
-28.254394
 30
0.0
 70
    64
  0
VERTEX
  8
BASE
  6
CONTINUOUS
 10
-167.69401
 20
-28.263374
 30
0.0
 70
    64
  0
VERTEX
  8
BASE
  6
CONTINUOUS
 10
-167.681076
 20
-28.272355
 30
0.0
 70
    64
  0
VERTEX
  8
BASE
  6
CONTINUOUS
 10
-167.668142
 20
-28.281336
 30
0.0
 70
    64
  0
VERTEX
  8
BASE
  6
CONTINUOUS
 10
-167.655208
 20
-28.290317
 30
0.0
 70
    64
  0
VERTEX
  8
BASE
  6
CONTINUOUS
 10
-167.642274
 20
-28.299298
 30
0.0
 70
    64
  0
VERTEX
  8
BASE
  6
CONTINUOUS
 10
-167.62934
 20
-28.308279
 30
0.0
 70
    64
  0
VERTEX
  8
BASE
  6
CONTINUOUS
 10
-167.616406
 20
-28.31726
 30
0.0
 70
    64
  0
VERTEX
  8
BASE
  6
CONTINUOUS
 10
-167.603472
 20
-28.326241
 30
0.0
 70
    64
  0
VERTEX
  8
BASE
  6
CONTINUOUS
 10
-167.590538
 20
-28.335221
 30
0.0
 70
    64
  0
VERTEX
  8
BASE
  6
CONTINUOUS
 10
-167.577604
 20
-28.344202
 30
0.0
 70
    64
  0
VERTEX
  8
BASE
  6
CONTINUOUS
 10
-167.56467
 20
-28.353183
 30
0.0
 70
    64
  0
VERTEX
  8
BASE
  6
CONTINUOUS
 10
-167.551736
 20
-28.362164
 30
0.0
 70
    64
  0
VERTEX
  8
BASE
  6
CONTINUOUS
 10
-167.538802
 20
-28.371145
 30
0.0
 70
    64
  0
VERTEX
  8
BASE
  6
CONTINUOUS
 10
-167.525868
 20
-28.380126
 30
0.0
 70
    64
  0
VERTEX
  8
BASE
  6
CONTINUOUS
 10
-167.512934
 20
-28.389107
 30
0.0
 70
    64
  0
VERTEX
  8
BASE
  6
CONTINUOUS
 10
-167.5
 20
-28.398088
 30
0.0
 70
    64
  0
VERTEX
  8
BASE
  6
CONTINUOUS
 10
-168.793403
 20
-27.5
 30
0.0
 70
    64
  0
VERTEX
  8
BASE
  6
CONTINUOUS
 10
-168.780469
 20
-27.490932
 30
0.0
 70
    64
  0
VERTEX
  8
BASE
  6
CONTINUOUS
 10
-168.767535
 20
-27.481864
 30
0.0
 70
    64
  0
VERTEX
  8
BASE
  6
CONTINUOUS
 10
-168.754601
 20
-27.472797
 30
0.0
 70
    64
  0
VERTEX
  8
BASE
  6
CONTINUOUS
 10
-168.741667
 20
-27.463729
 30
0.0
 70
    64
  0
VERTEX
  8
BASE
  6
CONTINUOUS
 10
-168.728733
 20
-27.454661
 30
0.0
 70
    64
  0
VERTEX
  8
BASE
  6
CONTINUOUS
 10
-168.715798
 20
-27.445594
 30
0.0
 70
    64
  0
VERTEX
  8
BASE
  6
CONTINUOUS
 10
-168.702864
 20
-27.436526
 30
0.0
 70
    64
  0
VERTEX
  8
BASE
  6
CONTINUOUS
 10
-168.68993
 20
-27.427458
 30
0.0
 70
    64
  0
VERTEX
  8
BASE
  6
CONTINUOUS
 10
-168.676996
 20
-27.418391
 30
0.0
 70
    64
  0
VERTEX
  8
BASE
  6
CONTINUOUS
 10
-168.664062
 20
-27.409323
 30
0.0
 70
    64
  0
VERTEX
  8
BASE
  6
CONTINUOUS
 10
-168.651128
 20
-27.400255
 30
0.0
 70
    64
  0
VERTEX
  8
BASE
  6
CONTINUOUS
 10
-168.638194
 20
-27.391188
 30
0.0
 70
    64
  0
VERTEX
  8
BASE
  6
CONTINUOUS
 10
-168.62526
 20
-27.38212
 30
0.0
 70
    64
  0
VERTEX
  8
BASE
  6
CONTINUOUS
 10
-168.612326
 20
-27.373052
 30
0.0
 70
    64
  0
VERTEX
  8
BASE
  6
CONTINUOUS
 10
-168.599392
 20
-27.363985
 30
0.0
 70
    64
  0
VERTEX
  8
BASE
  6
CONTINUOUS
 10
-168.586458
 20
-27.354917
 30
0.0
 70
    64
  0
VERTEX
  8
BASE
  6
CONTINUOUS
 10
-168.573524
 20
-27.345849
 30
0.0
 70
    64
  0
VERTEX
  8
BASE
  6
CONTINUOUS
 10
-168.56059
 20
-27.336781
 30
0.0
 70
    64
  0
VERTEX
  8
BASE
  6
CONTINUOUS
 10
-168.547656
 20
-27.327714
 30
0.0
 70
    64
  0
VERTEX
  8
BASE
  6
CONTINUOUS
 10
-168.534722
 20
-27.318646
 30
0.0
 70
    64
  0
VERTEX
  8
BASE
  6
CONTINUOUS
 10
-168.521788
 20
-27.309578
 30
0.0
 70
    64
  0
VERTEX
  8
BASE
  6
CONTINUOUS
 10
-168.508854
 20
-27.300511
 30
0.0
 70
    64
  0
VERTEX
  8
BASE
  6
CONTINUOUS
 10
-168.49592
 20
-27.291443
 30
0.0
 70
    64
  0
VERTEX
  8
BASE
  6
CONTINUOUS
 10
-168.482986
 20
-27.282375
 30
0.0
 70
    64
  0
VERTEX
  8
BASE
  6
CONTINUOUS
 10
-168.470052
 20
-27.273308
 30
0.0
 70
    64
  0
VERTEX
  8
BASE
  6
CONTINUOUS
 10
-168.457118
 20
-27.26424
 30
0.0
 70
    64
  0
VERTEX
  8
BASE
  6
CONTINUOUS
 10
-168.444184
 20
-27.255172
 30
0.0
 70
    64
  0
VERTEX
  8
BASE
  6
CONTINUOUS
 10
-168.43125
 20
-27.246105
 30
0.0
 70
    64
  0
VERTEX
  8
BASE
  6
CONTINUOUS
 10
-168.418316
 20
-27.237037
 30
0.0
 70
    64
  0
VERTEX
  8
BASE
  6
CONTINUOUS
 10
-168.405382
 20
-27.227969
 30
0.0
 70
    64
  0
VERTEX
  8
BASE
  6
CONTINUOUS
 10
-168.392448
 20
-27.218902
 30
0.0
 70
    64
  0
VERTEX
  8
BASE
  6
CONTINUOUS
 10
-168.379514
 20
-27.209834
 30
0.0
 70
    64
  0
VERTEX
  8
BASE
  6
CONTINUOUS
 10
-168.36658
 20
-27.200766
 30
0.0
 70
    64
  0
VERTEX
  8
BASE
  6
CONTINUOUS
 10
-168.353646
 20
-27.191699
 30
0.0
 70
    64
  0
VERTEX
  8
BASE
  6
CONTINUOUS
 10
-168.340712
 20
-27.182631
 30
0.0
 70
    64
  0
VERTEX
  8
BASE
  6
CONTINUOUS
 10
-168.327778
 20
-27.173563
 30
0.0
 70
    64
  0
VERTEX
  8
BASE
  6
CONTINUOUS
 10
-168.314844
 20
-27.164495
 30
0.0
 70
    64
  0
VERTEX
  8
BASE
  6
CONTINUOUS
 10
-168.30191
 20
-27.155428
 30
0.0
 70
    64
  0
VERTEX
  8
BASE
  6
CONTINUOUS
 10
-168.288976
 20
-27.14636
 30
0.0
 70
    64
  0
VERTEX
  8
BASE
  6
CONTINUOUS
 10
-168.276042
 20
-27.137292
 30
0.0
 70
    64
  0
VERTEX
  8
BASE
  6
CONTINUOUS
 10
-168.263108
 20
-27.128225
 30
0.0
 70
    64
  0
VERTEX
  8
BASE
  6
CONTINUOUS
 10
-168.250174
 20
-27.119157
 30
0.0
 70
    64
  0
VERTEX
  8
BASE
  6
CONTINUOUS
 10
-168.23724
 20
-27.110089
 30
0.0
 70
    64
  0
VERTEX
  8
BASE
  6
CONTINUOUS
 10
-168.224305
 20
-27.101022
 30
0.0
 70
    64
  0
VERTEX
  8
BASE
  6
CONTINUOUS
 10
-168.211371
 20
-27.091954
 30
0.0
 70
    64
  0
VERTEX
  8
BASE
  6
CONTINUOUS
 10
-168.198437
 20
-27.082886
 30
0.0
 70
    64
  0
VERTEX
  8
BASE
  6
CONTINUOUS
 10
-168.185503
 20
-27.073819
 30
0.0
 70
    64
  0
VERTEX
  8
BASE
  6
CONTINUOUS
 10
-168.172569
 20
-27.064751
 30
0.0
 70
    64
  0
VERTEX
  8
BASE
  6
CONTINUOUS
 10
-168.159635
 20
-27.055683
 30
0.0
 70
    64
  0
VERTEX
  8
BASE
  6
CONTINUOUS
 10
-168.146701
 20
-27.046616
 30
0.0
 70
    64
  0
VERTEX
  8
BASE
  6
CONTINUOUS
 10
-168.133767
 20
-27.037548
 30
0.0
 70
    64
  0
VERTEX
  8
BASE
  6
CONTINUOUS
 10
-168.120833
 20
-27.02848
 30
0.0
 70
    64
  0
VERTEX
  8
BASE
  6
CONTINUOUS
 10
-168.107899
 20
-27.019412
 30
0.0
 70
    64
  0
VERTEX
  8
BASE
  6
CONTINUOUS
 10
-168.094965
 20
-27.010345
 30
0.0
 70
    64
  0
VERTEX
  8
BASE
  6
CONTINUOUS
 10
-168.082031
 20
-27.001277
 30
0.0
 70
    64
  0
VERTEX
  8
BASE
  6
CONTINUOUS
 10
-168.069097
 20
-26.992209
 30
0.0
 70
    64
  0
VERTEX
  8
BASE
  6
CONTINUOUS
 10
-168.056163
 20
-26.983142
 30
0.0
 70
    64
  0
VERTEX
  8
BASE
  6
CONTINUOUS
 10
-168.043229
 20
-26.974074
 30
0.0
 70
    64
  0
VERTEX
  8
BASE
  6
CONTINUOUS
 10
-168.030295
 20
-26.965006
 30
0.0
 70
    64
  0
VERTEX
  8
BASE
  6
CONTINUOUS
 10
-168.017361
 20
-26.955939
 30
0.0
 70
    64
  0
VERTEX
  8
BASE
  6
CONTINUOUS
 10
-168.004427
 20
-26.946871
 30
0.0
 70
    64
  0
VERTEX
  8
BASE
  6
CONTINUOUS
 10
-167.991493
 20
-26.937803
 30
0.0
 70
    64
  0
VERTEX
  8
BASE
  6
CONTINUOUS
 10
-167.978559
 20
-26.928736
 30
0.0
 70
    64
  0
VERTEX
  8
BASE
  6
CONTINUOUS
 10
-167.965625
 20
-26.919668
 30
0.0
 70
    64
  0
VERTEX
  8
BASE
  6
CONTINUOUS
 10
-167.952691
 20
-26.9106
 30
0.0
 70
    64
  0
VERTEX
  8
BASE
  6
CONTINUOUS
 10
-167.939757
 20
-26.901533
 30
0.0
 70
    64
  0
VERTEX
  8
BASE
  6
CONTINUOUS
 10
-167.926823
 20
-26.892465
 30
0.0
 70
    64
  0
VERTEX
  8
BASE
  6
CONTINUOUS
 10
-167.913889
 20
-26.883397
 30
0.0
 70
    64
  0
VERTEX
  8
BASE
  6
CONTINUOUS
 10
-167.900955
 20
-26.874329
 30
0.0
 70
    64
  0
VERTEX
  8
BASE
  6
CONTINUOUS
 10
-167.888021
 20
-26.865262
 30
0.0
 70
    64
  0
VERTEX
  8
BASE
  6
CONTINUOUS
 10
-167.875087
 20
-26.856194
 30
0.0
 70
    64
  0
VERTEX
  8
BASE
  6
CONTINUOUS
 10
-167.862153
 20
-26.847126
 30
0.0
 70
    64
  0
VERTEX
  8
BASE
  6
CONTINUOUS
 10
-167.849219
 20
-26.838059
 30
0.0
 70
    64
  0
VERTEX
  8
BASE
  6
CONTINUOUS
 10
-167.836285
 20
-26.828991
 30
0.0
 70
    64
  0
VERTEX
  8
BASE
  6
CONTINUOUS
 10
-167.823351
 20
-26.819923
 30
0.0
 70
    64
  0
VERTEX
  8
BASE
  6
CONTINUOUS
 10
-167.810417
 20
-26.810856
 30
0.0
 70
    64
  0
VERTEX
  8
BASE
  6
CONTINUOUS
 10
-167.797483
 20
-26.801788
 30
0.0
 70
    64
  0
VERTEX
  8
BASE
  6
CONTINUOUS
 10
-167.784549
 20
-26.79272
 30
0.0
 70
    64
  0
VERTEX
  8
BASE
  6
CONTINUOUS
 10
-167.771615
 20
-26.783653
 30
0.0
 70
    64
  0
VERTEX
  8
BASE
  6
CONTINUOUS
 10
-167.758681
 20
-26.774585
 30
0.0
 70
    64
  0
VERTEX
  8
BASE
  6
CONTINUOUS
 10
-167.745747
 20
-26.765517
 30
0.0
 70
    64
  0
VERTEX
  8
BASE
  6
CONTINUOUS
 10
-167.732812
 20
-26.75645
 30
0.0
 70
    64
  0
VERTEX
  8
BASE
  6
CONTINUOUS
 10
-167.719878
 20
-26.747382
 30
0.0
 70
    64
  0
VERTEX
  8
BASE
  6
CONTINUOUS
 10
-167.706944
 20
-26.738314
 30
0.0
 70
    64
  0
VERTEX
  8
BASE
  6
CONTINUOUS
 10
-167.69401
 20
-26.729246
 30
0.0
 70
    64
  0
VERTEX
  8
BASE
  6
CONTINUOUS
 10
-167.681076
 20
-26.720179
 30
0.0
 70
    64
  0
VERTEX
  8
BASE
  6
CONTINUOUS
 10
-167.668142
 20
-26.711111
 30
0.0
 70
    64
  0
VERTEX
  8
BASE
  6
CONTINUOUS
 10
-167.655208
 20
-26.702043
 30
0.0
 70
    64
  0
VERTEX
  8
BASE
  6
CONTINUOUS
 10
-167.642274
 20
-26.692976
 30
0.0
 70
    64
  0
VERTEX
  8
BASE
  6
CONTINUOUS
 10
-167.62934
 20
-26.683908
 30
0.0
 70
    64
  0
VERTEX
  8
BASE
  6
CONTINUOUS
 10
-167.616406
 20
-26.67484
 30
0.0
 70
    64
  0
VERTEX
  8
BASE
  6
CONTINUOUS
 10
-167.603472
 20
-26.665773
 30
0.0
 70
    64
  0
VERTEX
  8
BASE
  6
CONTINUOUS
 10
-167.590538
 20
-26.656705
 30
0.0
 70
    64
  0
VERTEX
  8
BASE
  6
CONTINUOUS
 10
-167.577604
 20
-26.647637
 30
0.0
 70
    64
  0
VERTEX
  8
BASE
  6
CONTINUOUS
 10
-167.56467
 20
-26.63857
 30
0.0
 70
    64
  0
VERTEX
  8
BASE
  6
CONTINUOUS
 10
-167.551736
 20
-26.629502
 30
0.0
 70
    64
  0
VERTEX
  8
BASE
  6
CONTINUOUS
 10
-167.538802
 20
-26.620434
 30
0.0
 70
    64
  0
VERTEX
  8
BASE
  6
CONTINUOUS
 10
-167.525868
 20
-26.611367
 30
0.0
 70
    64
  0
VERTEX
  8
BASE
  6
CONTINUOUS
 10
-167.512934
 20
-26.602299
 30
0.0
 70
    64
  0
VERTEX
  8
BASE
  6
CONTINUOUS
 10
-167.5
 20
-26.593231
 30
0.0
 70
    64
  0
SEQEND
  8
BASE
  6
CONTINUOUS
  0
POLYLINE
  8
BASE
  6
CONTINUOUS
 66
     1
 10
0.0
 20
0.0
 30
0.0
 70
    16
 71
     2
 72
   101
  0
VERTEX
  8
BASE
  6
CONTINUOUS
 10
-173.793403
 20
-27.5
 30
0.0
 70
    64
  0
VERTEX
  8
BASE
  6
CONTINUOUS
 10
-173.780469
 20
-27.508981
 30
0.0
 70
    64
  0
VERTEX
  8
BASE
  6
CONTINUOUS
 10
-173.767535
 20
-27.517962
 30
0.0
 70
    64
  0
VERTEX
  8
BASE
  6
CONTINUOUS
 10
-173.754601
 20
-27.526943
 30
0.0
 70
    64
  0
VERTEX
  8
BASE
  6
CONTINUOUS
 10
-173.741667
 20
-27.535923
 30
0.0
 70
    64
  0
VERTEX
  8
BASE
  6
CONTINUOUS
 10
-173.728733
 20
-27.544904
 30
0.0
 70
    64
  0
VERTEX
  8
BASE
  6
CONTINUOUS
 10
-173.715798
 20
-27.553885
 30
0.0
 70
    64
  0
VERTEX
  8
BASE
  6
CONTINUOUS
 10
-173.702864
 20
-27.562866
 30
0.0
 70
    64
  0
VERTEX
  8
BASE
  6
CONTINUOUS
 10
-173.68993
 20
-27.571847
 30
0.0
 70
    64
  0
VERTEX
  8
BASE
  6
CONTINUOUS
 10
-173.676996
 20
-27.580828
 30
0.0
 70
    64
  0
VERTEX
  8
BASE
  6
CONTINUOUS
 10
-173.664062
 20
-27.589809
 30
0.0
 70
    64
  0
VERTEX
  8
BASE
  6
CONTINUOUS
 10
-173.651128
 20
-27.59879
 30
0.0
 70
    64
  0
VERTEX
  8
BASE
  6
CONTINUOUS
 10
-173.638194
 20
-27.60777
 30
0.0
 70
    64
  0
VERTEX
  8
BASE
  6
CONTINUOUS
 10
-173.62526
 20
-27.616751
 30
0.0
 70
    64
  0
VERTEX
  8
BASE
  6
CONTINUOUS
 10
-173.612326
 20
-27.625732
 30
0.0
 70
    64
  0
VERTEX
  8
BASE
  6
CONTINUOUS
 10
-173.599392
 20
-27.634713
 30
0.0
 70
    64
  0
VERTEX
  8
BASE
  6
CONTINUOUS
 10
-173.586458
 20
-27.643694
 30
0.0
 70
    64
  0
VERTEX
  8
BASE
  6
CONTINUOUS
 10
-173.573524
 20
-27.652675
 30
0.0
 70
    64
  0
VERTEX
  8
BASE
  6
CONTINUOUS
 10
-173.56059
 20
-27.661656
 30
0.0
 70
    64
  0
VERTEX
  8
BASE
  6
CONTINUOUS
 10
-173.547656
 20
-27.670637
 30
0.0
 70
    64
  0
VERTEX
  8
BASE
  6
CONTINUOUS
 10
-173.534722
 20
-27.679617
 30
0.0
 70
    64
  0
VERTEX
  8
BASE
  6
CONTINUOUS
 10
-173.521788
 20
-27.688598
 30
0.0
 70
    64
  0
VERTEX
  8
BASE
  6
CONTINUOUS
 10
-173.508854
 20
-27.697579
 30
0.0
 70
    64
  0
VERTEX
  8
BASE
  6
CONTINUOUS
 10
-173.49592
 20
-27.70656
 30
0.0
 70
    64
  0
VERTEX
  8
BASE
  6
CONTINUOUS
 10
-173.482986
 20
-27.715541
 30
0.0
 70
    64
  0
VERTEX
  8
BASE
  6
CONTINUOUS
 10
-173.470052
 20
-27.724522
 30
0.0
 70
    64
  0
VERTEX
  8
BASE
  6
CONTINUOUS
 10
-173.457118
 20
-27.733503
 30
0.0
 70
    64
  0
VERTEX
  8
BASE
  6
CONTINUOUS
 10
-173.444184
 20
-27.742484
 30
0.0
 70
    64
  0
VERTEX
  8
BASE
  6
CONTINUOUS
 10
-173.43125
 20
-27.751464
 30
0.0
 70
    64
  0
VERTEX
  8
BASE
  6
CONTINUOUS
 10
-173.418316
 20
-27.760445
 30
0.0
 70
    64
  0
VERTEX
  8
BASE
  6
CONTINUOUS
 10
-173.405382
 20
-27.769426
 30
0.0
 70
    64
  0
VERTEX
  8
BASE
  6
CONTINUOUS
 10
-173.392448
 20
-27.778407
 30
0.0
 70
    64
  0
VERTEX
  8
BASE
  6
CONTINUOUS
 10
-173.379514
 20
-27.787388
 30
0.0
 70
    64
  0
VERTEX
  8
BASE
  6
CONTINUOUS
 10
-173.36658
 20
-27.796369
 30
0.0
 70
    64
  0
VERTEX
  8
BASE
  6
CONTINUOUS
 10
-173.353646
 20
-27.80535
 30
0.0
 70
    64
  0
VERTEX
  8
BASE
  6
CONTINUOUS
 10
-173.340712
 20
-27.814331
 30
0.0
 70
    64
  0
VERTEX
  8
BASE
  6
CONTINUOUS
 10
-173.327778
 20
-27.823311
 30
0.0
 70
    64
  0
VERTEX
  8
BASE
  6
CONTINUOUS
 10
-173.314844
 20
-27.832292
 30
0.0
 70
    64
  0
VERTEX
  8
BASE
  6
CONTINUOUS
 10
-173.30191
 20
-27.841273
 30
0.0
 70
    64
  0
VERTEX
  8
BASE
  6
CONTINUOUS
 10
-173.288976
 20
-27.850254
 30
0.0
 70
    64
  0
VERTEX
  8
BASE
  6
CONTINUOUS
 10
-173.276042
 20
-27.859235
 30
0.0
 70
    64
  0
VERTEX
  8
BASE
  6
CONTINUOUS
 10
-173.263108
 20
-27.868216
 30
0.0
 70
    64
  0
VERTEX
  8
BASE
  6
CONTINUOUS
 10
-173.250174
 20
-27.877197
 30
0.0
 70
    64
  0
VERTEX
  8
BASE
  6
CONTINUOUS
 10
-173.23724
 20
-27.886178
 30
0.0
 70
    64
  0
VERTEX
  8
BASE
  6
CONTINUOUS
 10
-173.224305
 20
-27.895158
 30
0.0
 70
    64
  0
VERTEX
  8
BASE
  6
CONTINUOUS
 10
-173.211371
 20
-27.904139
 30
0.0
 70
    64
  0
VERTEX
  8
BASE
  6
CONTINUOUS
 10
-173.198437
 20
-27.91312
 30
0.0
 70
    64
  0
VERTEX
  8
BASE
  6
CONTINUOUS
 10
-173.185503
 20
-27.922101
 30
0.0
 70
    64
  0
VERTEX
  8
BASE
  6
CONTINUOUS
 10
-173.172569
 20
-27.931082
 30
0.0
 70
    64
  0
VERTEX
  8
BASE
  6
CONTINUOUS
 10
-173.159635
 20
-27.940063
 30
0.0
 70
    64
  0
VERTEX
  8
BASE
  6
CONTINUOUS
 10
-173.146701
 20
-27.949044
 30
0.0
 70
    64
  0
VERTEX
  8
BASE
  6
CONTINUOUS
 10
-173.133767
 20
-27.958025
 30
0.0
 70
    64
  0
VERTEX
  8
BASE
  6
CONTINUOUS
 10
-173.120833
 20
-27.967005
 30
0.0
 70
    64
  0
VERTEX
  8
BASE
  6
CONTINUOUS
 10
-173.107899
 20
-27.975986
 30
0.0
 70
    64
  0
VERTEX
  8
BASE
  6
CONTINUOUS
 10
-173.094965
 20
-27.984967
 30
0.0
 70
    64
  0
VERTEX
  8
BASE
  6
CONTINUOUS
 10
-173.082031
 20
-27.993948
 30
0.0
 70
    64
  0
VERTEX
  8
BASE
  6
CONTINUOUS
 10
-173.069097
 20
-28.002929
 30
0.0
 70
    64
  0
VERTEX
  8
BASE
  6
CONTINUOUS
 10
-173.056163
 20
-28.01191
 30
0.0
 70
    64
  0
VERTEX
  8
BASE
  6
CONTINUOUS
 10
-173.043229
 20
-28.020891
 30
0.0
 70
    64
  0
VERTEX
  8
BASE
  6
CONTINUOUS
 10
-173.030295
 20
-28.029872
 30
0.0
 70
    64
  0
VERTEX
  8
BASE
  6
CONTINUOUS
 10
-173.017361
 20
-28.038853
 30
0.0
 70
    64
  0
VERTEX
  8
BASE
  6
CONTINUOUS
 10
-173.004427
 20
-28.047833
 30
0.0
 70
    64
  0
VERTEX
  8
BASE
  6
CONTINUOUS
 10
-172.991493
 20
-28.056814
 30
0.0
 70
    64
  0
VERTEX
  8
BASE
  6
CONTINUOUS
 10
-172.978559
 20
-28.065795
 30
0.0
 70
    64
  0
VERTEX
  8
BASE
  6
CONTINUOUS
 10
-172.965625
 20
-28.074776
 30
0.0
 70
    64
  0
VERTEX
  8
BASE
  6
CONTINUOUS
 10
-172.952691
 20
-28.083757
 30
0.0
 70
    64
  0
VERTEX
  8
BASE
  6
CONTINUOUS
 10
-172.939757
 20
-28.092738
 30
0.0
 70
    64
  0
VERTEX
  8
BASE
  6
CONTINUOUS
 10
-172.926823
 20
-28.101719
 30
0.0
 70
    64
  0
VERTEX
  8
BASE
  6
CONTINUOUS
 10
-172.913889
 20
-28.1107
 30
0.0
 70
    64
  0
VERTEX
  8
BASE
  6
CONTINUOUS
 10
-172.900955
 20
-28.11968
 30
0.0
 70
    64
  0
VERTEX
  8
BASE
  6
CONTINUOUS
 10
-172.888021
 20
-28.128661
 30
0.0
 70
    64
  0
VERTEX
  8
BASE
  6
CONTINUOUS
 10
-172.875087
 20
-28.137642
 30
0.0
 70
    64
  0
VERTEX
  8
BASE
  6
CONTINUOUS
 10
-172.862153
 20
-28.146623
 30
0.0
 70
    64
  0
VERTEX
  8
BASE
  6
CONTINUOUS
 10
-172.849219
 20
-28.155604
 30
0.0
 70
    64
  0
VERTEX
  8
BASE
  6
CONTINUOUS
 10
-172.836285
 20
-28.164585
 30
0.0
 70
    64
  0
VERTEX
  8
BASE
  6
CONTINUOUS
 10
-172.823351
 20
-28.173566
 30
0.0
 70
    64
  0
VERTEX
  8
BASE
  6
CONTINUOUS
 10
-172.810417
 20
-28.182547
 30
0.0
 70
    64
  0
VERTEX
  8
BASE
  6
CONTINUOUS
 10
-172.797483
 20
-28.191527
 30
0.0
 70
    64
  0
VERTEX
  8
BASE
  6
CONTINUOUS
 10
-172.784549
 20
-28.200508
 30
0.0
 70
    64
  0
VERTEX
  8
BASE
  6
CONTINUOUS
 10
-172.771615
 20
-28.209489
 30
0.0
 70
    64
  0
VERTEX
  8
BASE
  6
CONTINUOUS
 10
-172.758681
 20
-28.21847
 30
0.0
 70
    64
  0
VERTEX
  8
BASE
  6
CONTINUOUS
 10
-172.745747
 20
-28.227451
 30
0.0
 70
    64
  0
VERTEX
  8
BASE
  6
CONTINUOUS
 10
-172.732812
 20
-28.236432
 30
0.0
 70
    64
  0
VERTEX
  8
BASE
  6
CONTINUOUS
 10
-172.719878
 20
-28.245413
 30
0.0
 70
    64
  0
VERTEX
  8
BASE
  6
CONTINUOUS
 10
-172.706944
 20
-28.254394
 30
0.0
 70
    64
  0
VERTEX
  8
BASE
  6
CONTINUOUS
 10
-172.69401
 20
-28.263374
 30
0.0
 70
    64
  0
VERTEX
  8
BASE
  6
CONTINUOUS
 10
-172.681076
 20
-28.272355
 30
0.0
 70
    64
  0
VERTEX
  8
BASE
  6
CONTINUOUS
 10
-172.668142
 20
-28.281336
 30
0.0
 70
    64
  0
VERTEX
  8
BASE
  6
CONTINUOUS
 10
-172.655208
 20
-28.290317
 30
0.0
 70
    64
  0
VERTEX
  8
BASE
  6
CONTINUOUS
 10
-172.642274
 20
-28.299298
 30
0.0
 70
    64
  0
VERTEX
  8
BASE
  6
CONTINUOUS
 10
-172.62934
 20
-28.308279
 30
0.0
 70
    64
  0
VERTEX
  8
BASE
  6
CONTINUOUS
 10
-172.616406
 20
-28.31726
 30
0.0
 70
    64
  0
VERTEX
  8
BASE
  6
CONTINUOUS
 10
-172.603472
 20
-28.326241
 30
0.0
 70
    64
  0
VERTEX
  8
BASE
  6
CONTINUOUS
 10
-172.590538
 20
-28.335221
 30
0.0
 70
    64
  0
VERTEX
  8
BASE
  6
CONTINUOUS
 10
-172.577604
 20
-28.344202
 30
0.0
 70
    64
  0
VERTEX
  8
BASE
  6
CONTINUOUS
 10
-172.56467
 20
-28.353183
 30
0.0
 70
    64
  0
VERTEX
  8
BASE
  6
CONTINUOUS
 10
-172.551736
 20
-28.362164
 30
0.0
 70
    64
  0
VERTEX
  8
BASE
  6
CONTINUOUS
 10
-172.538802
 20
-28.371145
 30
0.0
 70
    64
  0
VERTEX
  8
BASE
  6
CONTINUOUS
 10
-172.525868
 20
-28.380126
 30
0.0
 70
    64
  0
VERTEX
  8
BASE
  6
CONTINUOUS
 10
-172.512934
 20
-28.389107
 30
0.0
 70
    64
  0
VERTEX
  8
BASE
  6
CONTINUOUS
 10
-172.5
 20
-28.398088
 30
0.0
 70
    64
  0
VERTEX
  8
BASE
  6
CONTINUOUS
 10
-173.793403
 20
-27.5
 30
0.0
 70
    64
  0
VERTEX
  8
BASE
  6
CONTINUOUS
 10
-173.780469
 20
-27.490932
 30
0.0
 70
    64
  0
VERTEX
  8
BASE
  6
CONTINUOUS
 10
-173.767535
 20
-27.481864
 30
0.0
 70
    64
  0
VERTEX
  8
BASE
  6
CONTINUOUS
 10
-173.754601
 20
-27.472797
 30
0.0
 70
    64
  0
VERTEX
  8
BASE
  6
CONTINUOUS
 10
-173.741667
 20
-27.463729
 30
0.0
 70
    64
  0
VERTEX
  8
BASE
  6
CONTINUOUS
 10
-173.728733
 20
-27.454661
 30
0.0
 70
    64
  0
VERTEX
  8
BASE
  6
CONTINUOUS
 10
-173.715798
 20
-27.445594
 30
0.0
 70
    64
  0
VERTEX
  8
BASE
  6
CONTINUOUS
 10
-173.702864
 20
-27.436526
 30
0.0
 70
    64
  0
VERTEX
  8
BASE
  6
CONTINUOUS
 10
-173.68993
 20
-27.427458
 30
0.0
 70
    64
  0
VERTEX
  8
BASE
  6
CONTINUOUS
 10
-173.676996
 20
-27.418391
 30
0.0
 70
    64
  0
VERTEX
  8
BASE
  6
CONTINUOUS
 10
-173.664062
 20
-27.409323
 30
0.0
 70
    64
  0
VERTEX
  8
BASE
  6
CONTINUOUS
 10
-173.651128
 20
-27.400255
 30
0.0
 70
    64
  0
VERTEX
  8
BASE
  6
CONTINUOUS
 10
-173.638194
 20
-27.391188
 30
0.0
 70
    64
  0
VERTEX
  8
BASE
  6
CONTINUOUS
 10
-173.62526
 20
-27.38212
 30
0.0
 70
    64
  0
VERTEX
  8
BASE
  6
CONTINUOUS
 10
-173.612326
 20
-27.373052
 30
0.0
 70
    64
  0
VERTEX
  8
BASE
  6
CONTINUOUS
 10
-173.599392
 20
-27.363985
 30
0.0
 70
    64
  0
VERTEX
  8
BASE
  6
CONTINUOUS
 10
-173.586458
 20
-27.354917
 30
0.0
 70
    64
  0
VERTEX
  8
BASE
  6
CONTINUOUS
 10
-173.573524
 20
-27.345849
 30
0.0
 70
    64
  0
VERTEX
  8
BASE
  6
CONTINUOUS
 10
-173.56059
 20
-27.336781
 30
0.0
 70
    64
  0
VERTEX
  8
BASE
  6
CONTINUOUS
 10
-173.547656
 20
-27.327714
 30
0.0
 70
    64
  0
VERTEX
  8
BASE
  6
CONTINUOUS
 10
-173.534722
 20
-27.318646
 30
0.0
 70
    64
  0
VERTEX
  8
BASE
  6
CONTINUOUS
 10
-173.521788
 20
-27.309578
 30
0.0
 70
    64
  0
VERTEX
  8
BASE
  6
CONTINUOUS
 10
-173.508854
 20
-27.300511
 30
0.0
 70
    64
  0
VERTEX
  8
BASE
  6
CONTINUOUS
 10
-173.49592
 20
-27.291443
 30
0.0
 70
    64
  0
VERTEX
  8
BASE
  6
CONTINUOUS
 10
-173.482986
 20
-27.282375
 30
0.0
 70
    64
  0
VERTEX
  8
BASE
  6
CONTINUOUS
 10
-173.470052
 20
-27.273308
 30
0.0
 70
    64
  0
VERTEX
  8
BASE
  6
CONTINUOUS
 10
-173.457118
 20
-27.26424
 30
0.0
 70
    64
  0
VERTEX
  8
BASE
  6
CONTINUOUS
 10
-173.444184
 20
-27.255172
 30
0.0
 70
    64
  0
VERTEX
  8
BASE
  6
CONTINUOUS
 10
-173.43125
 20
-27.246105
 30
0.0
 70
    64
  0
VERTEX
  8
BASE
  6
CONTINUOUS
 10
-173.418316
 20
-27.237037
 30
0.0
 70
    64
  0
VERTEX
  8
BASE
  6
CONTINUOUS
 10
-173.405382
 20
-27.227969
 30
0.0
 70
    64
  0
VERTEX
  8
BASE
  6
CONTINUOUS
 10
-173.392448
 20
-27.218902
 30
0.0
 70
    64
  0
VERTEX
  8
BASE
  6
CONTINUOUS
 10
-173.379514
 20
-27.209834
 30
0.0
 70
    64
  0
VERTEX
  8
BASE
  6
CONTINUOUS
 10
-173.36658
 20
-27.200766
 30
0.0
 70
    64
  0
VERTEX
  8
BASE
  6
CONTINUOUS
 10
-173.353646
 20
-27.191699
 30
0.0
 70
    64
  0
VERTEX
  8
BASE
  6
CONTINUOUS
 10
-173.340712
 20
-27.182631
 30
0.0
 70
    64
  0
VERTEX
  8
BASE
  6
CONTINUOUS
 10
-173.327778
 20
-27.173563
 30
0.0
 70
    64
  0
VERTEX
  8
BASE
  6
CONTINUOUS
 10
-173.314844
 20
-27.164495
 30
0.0
 70
    64
  0
VERTEX
  8
BASE
  6
CONTINUOUS
 10
-173.30191
 20
-27.155428
 30
0.0
 70
    64
  0
VERTEX
  8
BASE
  6
CONTINUOUS
 10
-173.288976
 20
-27.14636
 30
0.0
 70
    64
  0
VERTEX
  8
BASE
  6
CONTINUOUS
 10
-173.276042
 20
-27.137292
 30
0.0
 70
    64
  0
VERTEX
  8
BASE
  6
CONTINUOUS
 10
-173.263108
 20
-27.128225
 30
0.0
 70
    64
  0
VERTEX
  8
BASE
  6
CONTINUOUS
 10
-173.250174
 20
-27.119157
 30
0.0
 70
    64
  0
VERTEX
  8
BASE
  6
CONTINUOUS
 10
-173.23724
 20
-27.110089
 30
0.0
 70
    64
  0
VERTEX
  8
BASE
  6
CONTINUOUS
 10
-173.224305
 20
-27.101022
 30
0.0
 70
    64
  0
VERTEX
  8
BASE
  6
CONTINUOUS
 10
-173.211371
 20
-27.091954
 30
0.0
 70
    64
  0
VERTEX
  8
BASE
  6
CONTINUOUS
 10
-173.198437
 20
-27.082886
 30
0.0
 70
    64
  0
VERTEX
  8
BASE
  6
CONTINUOUS
 10
-173.185503
 20
-27.073819
 30
0.0
 70
    64
  0
VERTEX
  8
BASE
  6
CONTINUOUS
 10
-173.172569
 20
-27.064751
 30
0.0
 70
    64
  0
VERTEX
  8
BASE
  6
CONTINUOUS
 10
-173.159635
 20
-27.055683
 30
0.0
 70
    64
  0
VERTEX
  8
BASE
  6
CONTINUOUS
 10
-173.146701
 20
-27.046616
 30
0.0
 70
    64
  0
VERTEX
  8
BASE
  6
CONTINUOUS
 10
-173.133767
 20
-27.037548
 30
0.0
 70
    64
  0
VERTEX
  8
BASE
  6
CONTINUOUS
 10
-173.120833
 20
-27.02848
 30
0.0
 70
    64
  0
VERTEX
  8
BASE
  6
CONTINUOUS
 10
-173.107899
 20
-27.019412
 30
0.0
 70
    64
  0
VERTEX
  8
BASE
  6
CONTINUOUS
 10
-173.094965
 20
-27.010345
 30
0.0
 70
    64
  0
VERTEX
  8
BASE
  6
CONTINUOUS
 10
-173.082031
 20
-27.001277
 30
0.0
 70
    64
  0
VERTEX
  8
BASE
  6
CONTINUOUS
 10
-173.069097
 20
-26.992209
 30
0.0
 70
    64
  0
VERTEX
  8
BASE
  6
CONTINUOUS
 10
-173.056163
 20
-26.983142
 30
0.0
 70
    64
  0
VERTEX
  8
BASE
  6
CONTINUOUS
 10
-173.043229
 20
-26.974074
 30
0.0
 70
    64
  0
VERTEX
  8
BASE
  6
CONTINUOUS
 10
-173.030295
 20
-26.965006
 30
0.0
 70
    64
  0
VERTEX
  8
BASE
  6
CONTINUOUS
 10
-173.017361
 20
-26.955939
 30
0.0
 70
    64
  0
VERTEX
  8
BASE
  6
CONTINUOUS
 10
-173.004427
 20
-26.946871
 30
0.0
 70
    64
  0
VERTEX
  8
BASE
  6
CONTINUOUS
 10
-172.991493
 20
-26.937803
 30
0.0
 70
    64
  0
VERTEX
  8
BASE
  6
CONTINUOUS
 10
-172.978559
 20
-26.928736
 30
0.0
 70
    64
  0
VERTEX
  8
BASE
  6
CONTINUOUS
 10
-172.965625
 20
-26.919668
 30
0.0
 70
    64
  0
VERTEX
  8
BASE
  6
CONTINUOUS
 10
-172.952691
 20
-26.9106
 30
0.0
 70
    64
  0
VERTEX
  8
BASE
  6
CONTINUOUS
 10
-172.939757
 20
-26.901533
 30
0.0
 70
    64
  0
VERTEX
  8
BASE
  6
CONTINUOUS
 10
-172.926823
 20
-26.892465
 30
0.0
 70
    64
  0
VERTEX
  8
BASE
  6
CONTINUOUS
 10
-172.913889
 20
-26.883397
 30
0.0
 70
    64
  0
VERTEX
  8
BASE
  6
CONTINUOUS
 10
-172.900955
 20
-26.874329
 30
0.0
 70
    64
  0
VERTEX
  8
BASE
  6
CONTINUOUS
 10
-172.888021
 20
-26.865262
 30
0.0
 70
    64
  0
VERTEX
  8
BASE
  6
CONTINUOUS
 10
-172.875087
 20
-26.856194
 30
0.0
 70
    64
  0
VERTEX
  8
BASE
  6
CONTINUOUS
 10
-172.862153
 20
-26.847126
 30
0.0
 70
    64
  0
VERTEX
  8
BASE
  6
CONTINUOUS
 10
-172.849219
 20
-26.838059
 30
0.0
 70
    64
  0
VERTEX
  8
BASE
  6
CONTINUOUS
 10
-172.836285
 20
-26.828991
 30
0.0
 70
    64
  0
VERTEX
  8
BASE
  6
CONTINUOUS
 10
-172.823351
 20
-26.819923
 30
0.0
 70
    64
  0
VERTEX
  8
BASE
  6
CONTINUOUS
 10
-172.810417
 20
-26.810856
 30
0.0
 70
    64
  0
VERTEX
  8
BASE
  6
CONTINUOUS
 10
-172.797483
 20
-26.801788
 30
0.0
 70
    64
  0
VERTEX
  8
BASE
  6
CONTINUOUS
 10
-172.784549
 20
-26.79272
 30
0.0
 70
    64
  0
VERTEX
  8
BASE
  6
CONTINUOUS
 10
-172.771615
 20
-26.783653
 30
0.0
 70
    64
  0
VERTEX
  8
BASE
  6
CONTINUOUS
 10
-172.758681
 20
-26.774585
 30
0.0
 70
    64
  0
VERTEX
  8
BASE
  6
CONTINUOUS
 10
-172.745747
 20
-26.765517
 30
0.0
 70
    64
  0
VERTEX
  8
BASE
  6
CONTINUOUS
 10
-172.732812
 20
-26.75645
 30
0.0
 70
    64
  0
VERTEX
  8
BASE
  6
CONTINUOUS
 10
-172.719878
 20
-26.747382
 30
0.0
 70
    64
  0
VERTEX
  8
BASE
  6
CONTINUOUS
 10
-172.706944
 20
-26.738314
 30
0.0
 70
    64
  0
VERTEX
  8
BASE
  6
CONTINUOUS
 10
-172.69401
 20
-26.729246
 30
0.0
 70
    64
  0
VERTEX
  8
BASE
  6
CONTINUOUS
 10
-172.681076
 20
-26.720179
 30
0.0
 70
    64
  0
VERTEX
  8
BASE
  6
CONTINUOUS
 10
-172.668142
 20
-26.711111
 30
0.0
 70
    64
  0
VERTEX
  8
BASE
  6
CONTINUOUS
 10
-172.655208
 20
-26.702043
 30
0.0
 70
    64
  0
VERTEX
  8
BASE
  6
CONTINUOUS
 10
-172.642274
 20
-26.692976
 30
0.0
 70
    64
  0
VERTEX
  8
BASE
  6
CONTINUOUS
 10
-172.62934
 20
-26.683908
 30
0.0
 70
    64
  0
VERTEX
  8
BASE
  6
CONTINUOUS
 10
-172.616406
 20
-26.67484
 30
0.0
 70
    64
  0
VERTEX
  8
BASE
  6
CONTINUOUS
 10
-172.603472
 20
-26.665773
 30
0.0
 70
    64
  0
VERTEX
  8
BASE
  6
CONTINUOUS
 10
-172.590538
 20
-26.656705
 30
0.0
 70
    64
  0
VERTEX
  8
BASE
  6
CONTINUOUS
 10
-172.577604
 20
-26.647637
 30
0.0
 70
    64
  0
VERTEX
  8
BASE
  6
CONTINUOUS
 10
-172.56467
 20
-26.63857
 30
0.0
 70
    64
  0
VERTEX
  8
BASE
  6
CONTINUOUS
 10
-172.551736
 20
-26.629502
 30
0.0
 70
    64
  0
VERTEX
  8
BASE
  6
CONTINUOUS
 10
-172.538802
 20
-26.620434
 30
0.0
 70
    64
  0
VERTEX
  8
BASE
  6
CONTINUOUS
 10
-172.525868
 20
-26.611367
 30
0.0
 70
    64
  0
VERTEX
  8
BASE
  6
CONTINUOUS
 10
-172.512934
 20
-26.602299
 30
0.0
 70
    64
  0
VERTEX
  8
BASE
  6
CONTINUOUS
 10
-172.5
 20
-26.593231
 30
0.0
 70
    64
  0
SEQEND
  8
BASE
  6
CONTINUOUS
  0
POLYLINE
  8
BASE
  6
CONTINUOUS
 66
     1
 10
0.0
 20
0.0
 30
0.0
 70
    16
 71
     2
 72
   101
  0
VERTEX
  8
BASE
  6
CONTINUOUS
 10
-178.793403
 20
-27.5
 30
0.0
 70
    64
  0
VERTEX
  8
BASE
  6
CONTINUOUS
 10
-178.780469
 20
-27.508981
 30
0.0
 70
    64
  0
VERTEX
  8
BASE
  6
CONTINUOUS
 10
-178.767535
 20
-27.517962
 30
0.0
 70
    64
  0
VERTEX
  8
BASE
  6
CONTINUOUS
 10
-178.754601
 20
-27.526943
 30
0.0
 70
    64
  0
VERTEX
  8
BASE
  6
CONTINUOUS
 10
-178.741667
 20
-27.535923
 30
0.0
 70
    64
  0
VERTEX
  8
BASE
  6
CONTINUOUS
 10
-178.728733
 20
-27.544904
 30
0.0
 70
    64
  0
VERTEX
  8
BASE
  6
CONTINUOUS
 10
-178.715798
 20
-27.553885
 30
0.0
 70
    64
  0
VERTEX
  8
BASE
  6
CONTINUOUS
 10
-178.702864
 20
-27.562866
 30
0.0
 70
    64
  0
VERTEX
  8
BASE
  6
CONTINUOUS
 10
-178.68993
 20
-27.571847
 30
0.0
 70
    64
  0
VERTEX
  8
BASE
  6
CONTINUOUS
 10
-178.676996
 20
-27.580828
 30
0.0
 70
    64
  0
VERTEX
  8
BASE
  6
CONTINUOUS
 10
-178.664062
 20
-27.589809
 30
0.0
 70
    64
  0
VERTEX
  8
BASE
  6
CONTINUOUS
 10
-178.651128
 20
-27.59879
 30
0.0
 70
    64
  0
VERTEX
  8
BASE
  6
CONTINUOUS
 10
-178.638194
 20
-27.60777
 30
0.0
 70
    64
  0
VERTEX
  8
BASE
  6
CONTINUOUS
 10
-178.62526
 20
-27.616751
 30
0.0
 70
    64
  0
VERTEX
  8
BASE
  6
CONTINUOUS
 10
-178.612326
 20
-27.625732
 30
0.0
 70
    64
  0
VERTEX
  8
BASE
  6
CONTINUOUS
 10
-178.599392
 20
-27.634713
 30
0.0
 70
    64
  0
VERTEX
  8
BASE
  6
CONTINUOUS
 10
-178.586458
 20
-27.643694
 30
0.0
 70
    64
  0
VERTEX
  8
BASE
  6
CONTINUOUS
 10
-178.573524
 20
-27.652675
 30
0.0
 70
    64
  0
VERTEX
  8
BASE
  6
CONTINUOUS
 10
-178.56059
 20
-27.661656
 30
0.0
 70
    64
  0
VERTEX
  8
BASE
  6
CONTINUOUS
 10
-178.547656
 20
-27.670637
 30
0.0
 70
    64
  0
VERTEX
  8
BASE
  6
CONTINUOUS
 10
-178.534722
 20
-27.679617
 30
0.0
 70
    64
  0
VERTEX
  8
BASE
  6
CONTINUOUS
 10
-178.521788
 20
-27.688598
 30
0.0
 70
    64
  0
VERTEX
  8
BASE
  6
CONTINUOUS
 10
-178.508854
 20
-27.697579
 30
0.0
 70
    64
  0
VERTEX
  8
BASE
  6
CONTINUOUS
 10
-178.49592
 20
-27.70656
 30
0.0
 70
    64
  0
VERTEX
  8
BASE
  6
CONTINUOUS
 10
-178.482986
 20
-27.715541
 30
0.0
 70
    64
  0
VERTEX
  8
BASE
  6
CONTINUOUS
 10
-178.470052
 20
-27.724522
 30
0.0
 70
    64
  0
VERTEX
  8
BASE
  6
CONTINUOUS
 10
-178.457118
 20
-27.733503
 30
0.0
 70
    64
  0
VERTEX
  8
BASE
  6
CONTINUOUS
 10
-178.444184
 20
-27.742484
 30
0.0
 70
    64
  0
VERTEX
  8
BASE
  6
CONTINUOUS
 10
-178.43125
 20
-27.751464
 30
0.0
 70
    64
  0
VERTEX
  8
BASE
  6
CONTINUOUS
 10
-178.418316
 20
-27.760445
 30
0.0
 70
    64
  0
VERTEX
  8
BASE
  6
CONTINUOUS
 10
-178.405382
 20
-27.769426
 30
0.0
 70
    64
  0
VERTEX
  8
BASE
  6
CONTINUOUS
 10
-178.392448
 20
-27.778407
 30
0.0
 70
    64
  0
VERTEX
  8
BASE
  6
CONTINUOUS
 10
-178.379514
 20
-27.787388
 30
0.0
 70
    64
  0
VERTEX
  8
BASE
  6
CONTINUOUS
 10
-178.36658
 20
-27.796369
 30
0.0
 70
    64
  0
VERTEX
  8
BASE
  6
CONTINUOUS
 10
-178.353646
 20
-27.80535
 30
0.0
 70
    64
  0
VERTEX
  8
BASE
  6
CONTINUOUS
 10
-178.340712
 20
-27.814331
 30
0.0
 70
    64
  0
VERTEX
  8
BASE
  6
CONTINUOUS
 10
-178.327778
 20
-27.823311
 30
0.0
 70
    64
  0
VERTEX
  8
BASE
  6
CONTINUOUS
 10
-178.314844
 20
-27.832292
 30
0.0
 70
    64
  0
VERTEX
  8
BASE
  6
CONTINUOUS
 10
-178.30191
 20
-27.841273
 30
0.0
 70
    64
  0
VERTEX
  8
BASE
  6
CONTINUOUS
 10
-178.288976
 20
-27.850254
 30
0.0
 70
    64
  0
VERTEX
  8
BASE
  6
CONTINUOUS
 10
-178.276042
 20
-27.859235
 30
0.0
 70
    64
  0
VERTEX
  8
BASE
  6
CONTINUOUS
 10
-178.263108
 20
-27.868216
 30
0.0
 70
    64
  0
VERTEX
  8
BASE
  6
CONTINUOUS
 10
-178.250174
 20
-27.877197
 30
0.0
 70
    64
  0
VERTEX
  8
BASE
  6
CONTINUOUS
 10
-178.23724
 20
-27.886178
 30
0.0
 70
    64
  0
VERTEX
  8
BASE
  6
CONTINUOUS
 10
-178.224305
 20
-27.895158
 30
0.0
 70
    64
  0
VERTEX
  8
BASE
  6
CONTINUOUS
 10
-178.211371
 20
-27.904139
 30
0.0
 70
    64
  0
VERTEX
  8
BASE
  6
CONTINUOUS
 10
-178.198437
 20
-27.91312
 30
0.0
 70
    64
  0
VERTEX
  8
BASE
  6
CONTINUOUS
 10
-178.185503
 20
-27.922101
 30
0.0
 70
    64
  0
VERTEX
  8
BASE
  6
CONTINUOUS
 10
-178.172569
 20
-27.931082
 30
0.0
 70
    64
  0
VERTEX
  8
BASE
  6
CONTINUOUS
 10
-178.159635
 20
-27.940063
 30
0.0
 70
    64
  0
VERTEX
  8
BASE
  6
CONTINUOUS
 10
-178.146701
 20
-27.949044
 30
0.0
 70
    64
  0
VERTEX
  8
BASE
  6
CONTINUOUS
 10
-178.133767
 20
-27.958025
 30
0.0
 70
    64
  0
VERTEX
  8
BASE
  6
CONTINUOUS
 10
-178.120833
 20
-27.967005
 30
0.0
 70
    64
  0
VERTEX
  8
BASE
  6
CONTINUOUS
 10
-178.107899
 20
-27.975986
 30
0.0
 70
    64
  0
VERTEX
  8
BASE
  6
CONTINUOUS
 10
-178.094965
 20
-27.984967
 30
0.0
 70
    64
  0
VERTEX
  8
BASE
  6
CONTINUOUS
 10
-178.082031
 20
-27.993948
 30
0.0
 70
    64
  0
VERTEX
  8
BASE
  6
CONTINUOUS
 10
-178.069097
 20
-28.002929
 30
0.0
 70
    64
  0
VERTEX
  8
BASE
  6
CONTINUOUS
 10
-178.056163
 20
-28.01191
 30
0.0
 70
    64
  0
VERTEX
  8
BASE
  6
CONTINUOUS
 10
-178.043229
 20
-28.020891
 30
0.0
 70
    64
  0
VERTEX
  8
BASE
  6
CONTINUOUS
 10
-178.030295
 20
-28.029872
 30
0.0
 70
    64
  0
VERTEX
  8
BASE
  6
CONTINUOUS
 10
-178.017361
 20
-28.038853
 30
0.0
 70
    64
  0
VERTEX
  8
BASE
  6
CONTINUOUS
 10
-178.004427
 20
-28.047833
 30
0.0
 70
    64
  0
VERTEX
  8
BASE
  6
CONTINUOUS
 10
-177.991493
 20
-28.056814
 30
0.0
 70
    64
  0
VERTEX
  8
BASE
  6
CONTINUOUS
 10
-177.978559
 20
-28.065795
 30
0.0
 70
    64
  0
VERTEX
  8
BASE
  6
CONTINUOUS
 10
-177.965625
 20
-28.074776
 30
0.0
 70
    64
  0
VERTEX
  8
BASE
  6
CONTINUOUS
 10
-177.952691
 20
-28.083757
 30
0.0
 70
    64
  0
VERTEX
  8
BASE
  6
CONTINUOUS
 10
-177.939757
 20
-28.092738
 30
0.0
 70
    64
  0
VERTEX
  8
BASE
  6
CONTINUOUS
 10
-177.926823
 20
-28.101719
 30
0.0
 70
    64
  0
VERTEX
  8
BASE
  6
CONTINUOUS
 10
-177.913889
 20
-28.1107
 30
0.0
 70
    64
  0
VERTEX
  8
BASE
  6
CONTINUOUS
 10
-177.900955
 20
-28.11968
 30
0.0
 70
    64
  0
VERTEX
  8
BASE
  6
CONTINUOUS
 10
-177.888021
 20
-28.128661
 30
0.0
 70
    64
  0
VERTEX
  8
BASE
  6
CONTINUOUS
 10
-177.875087
 20
-28.137642
 30
0.0
 70
    64
  0
VERTEX
  8
BASE
  6
CONTINUOUS
 10
-177.862153
 20
-28.146623
 30
0.0
 70
    64
  0
VERTEX
  8
BASE
  6
CONTINUOUS
 10
-177.849219
 20
-28.155604
 30
0.0
 70
    64
  0
VERTEX
  8
BASE
  6
CONTINUOUS
 10
-177.836285
 20
-28.164585
 30
0.0
 70
    64
  0
VERTEX
  8
BASE
  6
CONTINUOUS
 10
-177.823351
 20
-28.173566
 30
0.0
 70
    64
  0
VERTEX
  8
BASE
  6
CONTINUOUS
 10
-177.810417
 20
-28.182547
 30
0.0
 70
    64
  0
VERTEX
  8
BASE
  6
CONTINUOUS
 10
-177.797483
 20
-28.191527
 30
0.0
 70
    64
  0
VERTEX
  8
BASE
  6
CONTINUOUS
 10
-177.784549
 20
-28.200508
 30
0.0
 70
    64
  0
VERTEX
  8
BASE
  6
CONTINUOUS
 10
-177.771615
 20
-28.209489
 30
0.0
 70
    64
  0
VERTEX
  8
BASE
  6
CONTINUOUS
 10
-177.758681
 20
-28.21847
 30
0.0
 70
    64
  0
VERTEX
  8
BASE
  6
CONTINUOUS
 10
-177.745747
 20
-28.227451
 30
0.0
 70
    64
  0
VERTEX
  8
BASE
  6
CONTINUOUS
 10
-177.732812
 20
-28.236432
 30
0.0
 70
    64
  0
VERTEX
  8
BASE
  6
CONTINUOUS
 10
-177.719878
 20
-28.245413
 30
0.0
 70
    64
  0
VERTEX
  8
BASE
  6
CONTINUOUS
 10
-177.706944
 20
-28.254394
 30
0.0
 70
    64
  0
VERTEX
  8
BASE
  6
CONTINUOUS
 10
-177.69401
 20
-28.263374
 30
0.0
 70
    64
  0
VERTEX
  8
BASE
  6
CONTINUOUS
 10
-177.681076
 20
-28.272355
 30
0.0
 70
    64
  0
VERTEX
  8
BASE
  6
CONTINUOUS
 10
-177.668142
 20
-28.281336
 30
0.0
 70
    64
  0
VERTEX
  8
BASE
  6
CONTINUOUS
 10
-177.655208
 20
-28.290317
 30
0.0
 70
    64
  0
VERTEX
  8
BASE
  6
CONTINUOUS
 10
-177.642274
 20
-28.299298
 30
0.0
 70
    64
  0
VERTEX
  8
BASE
  6
CONTINUOUS
 10
-177.62934
 20
-28.308279
 30
0.0
 70
    64
  0
VERTEX
  8
BASE
  6
CONTINUOUS
 10
-177.616406
 20
-28.31726
 30
0.0
 70
    64
  0
VERTEX
  8
BASE
  6
CONTINUOUS
 10
-177.603472
 20
-28.326241
 30
0.0
 70
    64
  0
VERTEX
  8
BASE
  6
CONTINUOUS
 10
-177.590538
 20
-28.335221
 30
0.0
 70
    64
  0
VERTEX
  8
BASE
  6
CONTINUOUS
 10
-177.577604
 20
-28.344202
 30
0.0
 70
    64
  0
VERTEX
  8
BASE
  6
CONTINUOUS
 10
-177.56467
 20
-28.353183
 30
0.0
 70
    64
  0
VERTEX
  8
BASE
  6
CONTINUOUS
 10
-177.551736
 20
-28.362164
 30
0.0
 70
    64
  0
VERTEX
  8
BASE
  6
CONTINUOUS
 10
-177.538802
 20
-28.371145
 30
0.0
 70
    64
  0
VERTEX
  8
BASE
  6
CONTINUOUS
 10
-177.525868
 20
-28.380126
 30
0.0
 70
    64
  0
VERTEX
  8
BASE
  6
CONTINUOUS
 10
-177.512934
 20
-28.389107
 30
0.0
 70
    64
  0
VERTEX
  8
BASE
  6
CONTINUOUS
 10
-177.5
 20
-28.398088
 30
0.0
 70
    64
  0
VERTEX
  8
BASE
  6
CONTINUOUS
 10
-178.793403
 20
-27.5
 30
0.0
 70
    64
  0
VERTEX
  8
BASE
  6
CONTINUOUS
 10
-178.780469
 20
-27.490932
 30
0.0
 70
    64
  0
VERTEX
  8
BASE
  6
CONTINUOUS
 10
-178.767535
 20
-27.481864
 30
0.0
 70
    64
  0
VERTEX
  8
BASE
  6
CONTINUOUS
 10
-178.754601
 20
-27.472797
 30
0.0
 70
    64
  0
VERTEX
  8
BASE
  6
CONTINUOUS
 10
-178.741667
 20
-27.463729
 30
0.0
 70
    64
  0
VERTEX
  8
BASE
  6
CONTINUOUS
 10
-178.728733
 20
-27.454661
 30
0.0
 70
    64
  0
VERTEX
  8
BASE
  6
CONTINUOUS
 10
-178.715798
 20
-27.445594
 30
0.0
 70
    64
  0
VERTEX
  8
BASE
  6
CONTINUOUS
 10
-178.702864
 20
-27.436526
 30
0.0
 70
    64
  0
VERTEX
  8
BASE
  6
CONTINUOUS
 10
-178.68993
 20
-27.427458
 30
0.0
 70
    64
  0
VERTEX
  8
BASE
  6
CONTINUOUS
 10
-178.676996
 20
-27.418391
 30
0.0
 70
    64
  0
VERTEX
  8
BASE
  6
CONTINUOUS
 10
-178.664062
 20
-27.409323
 30
0.0
 70
    64
  0
VERTEX
  8
BASE
  6
CONTINUOUS
 10
-178.651128
 20
-27.400255
 30
0.0
 70
    64
  0
VERTEX
  8
BASE
  6
CONTINUOUS
 10
-178.638194
 20
-27.391188
 30
0.0
 70
    64
  0
VERTEX
  8
BASE
  6
CONTINUOUS
 10
-178.62526
 20
-27.38212
 30
0.0
 70
    64
  0
VERTEX
  8
BASE
  6
CONTINUOUS
 10
-178.612326
 20
-27.373052
 30
0.0
 70
    64
  0
VERTEX
  8
BASE
  6
CONTINUOUS
 10
-178.599392
 20
-27.363985
 30
0.0
 70
    64
  0
VERTEX
  8
BASE
  6
CONTINUOUS
 10
-178.586458
 20
-27.354917
 30
0.0
 70
    64
  0
VERTEX
  8
BASE
  6
CONTINUOUS
 10
-178.573524
 20
-27.345849
 30
0.0
 70
    64
  0
VERTEX
  8
BASE
  6
CONTINUOUS
 10
-178.56059
 20
-27.336781
 30
0.0
 70
    64
  0
VERTEX
  8
BASE
  6
CONTINUOUS
 10
-178.547656
 20
-27.327714
 30
0.0
 70
    64
  0
VERTEX
  8
BASE
  6
CONTINUOUS
 10
-178.534722
 20
-27.318646
 30
0.0
 70
    64
  0
VERTEX
  8
BASE
  6
CONTINUOUS
 10
-178.521788
 20
-27.309578
 30
0.0
 70
    64
  0
VERTEX
  8
BASE
  6
CONTINUOUS
 10
-178.508854
 20
-27.300511
 30
0.0
 70
    64
  0
VERTEX
  8
BASE
  6
CONTINUOUS
 10
-178.49592
 20
-27.291443
 30
0.0
 70
    64
  0
VERTEX
  8
BASE
  6
CONTINUOUS
 10
-178.482986
 20
-27.282375
 30
0.0
 70
    64
  0
VERTEX
  8
BASE
  6
CONTINUOUS
 10
-178.470052
 20
-27.273308
 30
0.0
 70
    64
  0
VERTEX
  8
BASE
  6
CONTINUOUS
 10
-178.457118
 20
-27.26424
 30
0.0
 70
    64
  0
VERTEX
  8
BASE
  6
CONTINUOUS
 10
-178.444184
 20
-27.255172
 30
0.0
 70
    64
  0
VERTEX
  8
BASE
  6
CONTINUOUS
 10
-178.43125
 20
-27.246105
 30
0.0
 70
    64
  0
VERTEX
  8
BASE
  6
CONTINUOUS
 10
-178.418316
 20
-27.237037
 30
0.0
 70
    64
  0
VERTEX
  8
BASE
  6
CONTINUOUS
 10
-178.405382
 20
-27.227969
 30
0.0
 70
    64
  0
VERTEX
  8
BASE
  6
CONTINUOUS
 10
-178.392448
 20
-27.218902
 30
0.0
 70
    64
  0
VERTEX
  8
BASE
  6
CONTINUOUS
 10
-178.379514
 20
-27.209834
 30
0.0
 70
    64
  0
VERTEX
  8
BASE
  6
CONTINUOUS
 10
-178.36658
 20
-27.200766
 30
0.0
 70
    64
  0
VERTEX
  8
BASE
  6
CONTINUOUS
 10
-178.353646
 20
-27.191699
 30
0.0
 70
    64
  0
VERTEX
  8
BASE
  6
CONTINUOUS
 10
-178.340712
 20
-27.182631
 30
0.0
 70
    64
  0
VERTEX
  8
BASE
  6
CONTINUOUS
 10
-178.327778
 20
-27.173563
 30
0.0
 70
    64
  0
VERTEX
  8
BASE
  6
CONTINUOUS
 10
-178.314844
 20
-27.164495
 30
0.0
 70
    64
  0
VERTEX
  8
BASE
  6
CONTINUOUS
 10
-178.30191
 20
-27.155428
 30
0.0
 70
    64
  0
VERTEX
  8
BASE
  6
CONTINUOUS
 10
-178.288976
 20
-27.14636
 30
0.0
 70
    64
  0
VERTEX
  8
BASE
  6
CONTINUOUS
 10
-178.276042
 20
-27.137292
 30
0.0
 70
    64
  0
VERTEX
  8
BASE
  6
CONTINUOUS
 10
-178.263108
 20
-27.128225
 30
0.0
 70
    64
  0
VERTEX
  8
BASE
  6
CONTINUOUS
 10
-178.250174
 20
-27.119157
 30
0.0
 70
    64
  0
VERTEX
  8
BASE
  6
CONTINUOUS
 10
-178.23724
 20
-27.110089
 30
0.0
 70
    64
  0
VERTEX
  8
BASE
  6
CONTINUOUS
 10
-178.224305
 20
-27.101022
 30
0.0
 70
    64
  0
VERTEX
  8
BASE
  6
CONTINUOUS
 10
-178.211371
 20
-27.091954
 30
0.0
 70
    64
  0
VERTEX
  8
BASE
  6
CONTINUOUS
 10
-178.198437
 20
-27.082886
 30
0.0
 70
    64
  0
VERTEX
  8
BASE
  6
CONTINUOUS
 10
-178.185503
 20
-27.073819
 30
0.0
 70
    64
  0
VERTEX
  8
BASE
  6
CONTINUOUS
 10
-178.172569
 20
-27.064751
 30
0.0
 70
    64
  0
VERTEX
  8
BASE
  6
CONTINUOUS
 10
-178.159635
 20
-27.055683
 30
0.0
 70
    64
  0
VERTEX
  8
BASE
  6
CONTINUOUS
 10
-178.146701
 20
-27.046616
 30
0.0
 70
    64
  0
VERTEX
  8
BASE
  6
CONTINUOUS
 10
-178.133767
 20
-27.037548
 30
0.0
 70
    64
  0
VERTEX
  8
BASE
  6
CONTINUOUS
 10
-178.120833
 20
-27.02848
 30
0.0
 70
    64
  0
VERTEX
  8
BASE
  6
CONTINUOUS
 10
-178.107899
 20
-27.019412
 30
0.0
 70
    64
  0
VERTEX
  8
BASE
  6
CONTINUOUS
 10
-178.094965
 20
-27.010345
 30
0.0
 70
    64
  0
VERTEX
  8
BASE
  6
CONTINUOUS
 10
-178.082031
 20
-27.001277
 30
0.0
 70
    64
  0
VERTEX
  8
BASE
  6
CONTINUOUS
 10
-178.069097
 20
-26.992209
 30
0.0
 70
    64
  0
VERTEX
  8
BASE
  6
CONTINUOUS
 10
-178.056163
 20
-26.983142
 30
0.0
 70
    64
  0
VERTEX
  8
BASE
  6
CONTINUOUS
 10
-178.043229
 20
-26.974074
 30
0.0
 70
    64
  0
VERTEX
  8
BASE
  6
CONTINUOUS
 10
-178.030295
 20
-26.965006
 30
0.0
 70
    64
  0
VERTEX
  8
BASE
  6
CONTINUOUS
 10
-178.017361
 20
-26.955939
 30
0.0
 70
    64
  0
VERTEX
  8
BASE
  6
CONTINUOUS
 10
-178.004427
 20
-26.946871
 30
0.0
 70
    64
  0
VERTEX
  8
BASE
  6
CONTINUOUS
 10
-177.991493
 20
-26.937803
 30
0.0
 70
    64
  0
VERTEX
  8
BASE
  6
CONTINUOUS
 10
-177.978559
 20
-26.928736
 30
0.0
 70
    64
  0
VERTEX
  8
BASE
  6
CONTINUOUS
 10
-177.965625
 20
-26.919668
 30
0.0
 70
    64
  0
VERTEX
  8
BASE
  6
CONTINUOUS
 10
-177.952691
 20
-26.9106
 30
0.0
 70
    64
  0
VERTEX
  8
BASE
  6
CONTINUOUS
 10
-177.939757
 20
-26.901533
 30
0.0
 70
    64
  0
VERTEX
  8
BASE
  6
CONTINUOUS
 10
-177.926823
 20
-26.892465
 30
0.0
 70
    64
  0
VERTEX
  8
BASE
  6
CONTINUOUS
 10
-177.913889
 20
-26.883397
 30
0.0
 70
    64
  0
VERTEX
  8
BASE
  6
CONTINUOUS
 10
-177.900955
 20
-26.874329
 30
0.0
 70
    64
  0
VERTEX
  8
BASE
  6
CONTINUOUS
 10
-177.888021
 20
-26.865262
 30
0.0
 70
    64
  0
VERTEX
  8
BASE
  6
CONTINUOUS
 10
-177.875087
 20
-26.856194
 30
0.0
 70
    64
  0
VERTEX
  8
BASE
  6
CONTINUOUS
 10
-177.862153
 20
-26.847126
 30
0.0
 70
    64
  0
VERTEX
  8
BASE
  6
CONTINUOUS
 10
-177.849219
 20
-26.838059
 30
0.0
 70
    64
  0
VERTEX
  8
BASE
  6
CONTINUOUS
 10
-177.836285
 20
-26.828991
 30
0.0
 70
    64
  0
VERTEX
  8
BASE
  6
CONTINUOUS
 10
-177.823351
 20
-26.819923
 30
0.0
 70
    64
  0
VERTEX
  8
BASE
  6
CONTINUOUS
 10
-177.810417
 20
-26.810856
 30
0.0
 70
    64
  0
VERTEX
  8
BASE
  6
CONTINUOUS
 10
-177.797483
 20
-26.801788
 30
0.0
 70
    64
  0
VERTEX
  8
BASE
  6
CONTINUOUS
 10
-177.784549
 20
-26.79272
 30
0.0
 70
    64
  0
VERTEX
  8
BASE
  6
CONTINUOUS
 10
-177.771615
 20
-26.783653
 30
0.0
 70
    64
  0
VERTEX
  8
BASE
  6
CONTINUOUS
 10
-177.758681
 20
-26.774585
 30
0.0
 70
    64
  0
VERTEX
  8
BASE
  6
CONTINUOUS
 10
-177.745747
 20
-26.765517
 30
0.0
 70
    64
  0
VERTEX
  8
BASE
  6
CONTINUOUS
 10
-177.732812
 20
-26.75645
 30
0.0
 70
    64
  0
VERTEX
  8
BASE
  6
CONTINUOUS
 10
-177.719878
 20
-26.747382
 30
0.0
 70
    64
  0
VERTEX
  8
BASE
  6
CONTINUOUS
 10
-177.706944
 20
-26.738314
 30
0.0
 70
    64
  0
VERTEX
  8
BASE
  6
CONTINUOUS
 10
-177.69401
 20
-26.729246
 30
0.0
 70
    64
  0
VERTEX
  8
BASE
  6
CONTINUOUS
 10
-177.681076
 20
-26.720179
 30
0.0
 70
    64
  0
VERTEX
  8
BASE
  6
CONTINUOUS
 10
-177.668142
 20
-26.711111
 30
0.0
 70
    64
  0
VERTEX
  8
BASE
  6
CONTINUOUS
 10
-177.655208
 20
-26.702043
 30
0.0
 70
    64
  0
VERTEX
  8
BASE
  6
CONTINUOUS
 10
-177.642274
 20
-26.692976
 30
0.0
 70
    64
  0
VERTEX
  8
BASE
  6
CONTINUOUS
 10
-177.62934
 20
-26.683908
 30
0.0
 70
    64
  0
VERTEX
  8
BASE
  6
CONTINUOUS
 10
-177.616406
 20
-26.67484
 30
0.0
 70
    64
  0
VERTEX
  8
BASE
  6
CONTINUOUS
 10
-177.603472
 20
-26.665773
 30
0.0
 70
    64
  0
VERTEX
  8
BASE
  6
CONTINUOUS
 10
-177.590538
 20
-26.656705
 30
0.0
 70
    64
  0
VERTEX
  8
BASE
  6
CONTINUOUS
 10
-177.577604
 20
-26.647637
 30
0.0
 70
    64
  0
VERTEX
  8
BASE
  6
CONTINUOUS
 10
-177.56467
 20
-26.63857
 30
0.0
 70
    64
  0
VERTEX
  8
BASE
  6
CONTINUOUS
 10
-177.551736
 20
-26.629502
 30
0.0
 70
    64
  0
VERTEX
  8
BASE
  6
CONTINUOUS
 10
-177.538802
 20
-26.620434
 30
0.0
 70
    64
  0
VERTEX
  8
BASE
  6
CONTINUOUS
 10
-177.525868
 20
-26.611367
 30
0.0
 70
    64
  0
VERTEX
  8
BASE
  6
CONTINUOUS
 10
-177.512934
 20
-26.602299
 30
0.0
 70
    64
  0
VERTEX
  8
BASE
  6
CONTINUOUS
 10
-177.5
 20
-26.593231
 30
0.0
 70
    64
  0
SEQEND
  8
BASE
  6
CONTINUOUS
  0
INSERT
  8
BASE
  6
CONTINUOUS
  2
*X23
 10
-257.5
 20
-167.5
 30
0.0
  0
LINE
  8
BASE
  6
CONTINUOUS
 10
-190.0
 20
-2.5
 30
0.0
 11
-190.0
 21
0.0
 31
0.0
  0
LINE
  8
BASE
  6
CONTINUOUS
 10
-190.0
 20
-12.5
 30
0.0
 11
-190.0
 21
-15.0
 31
0.0
  0
LINE
  8
BASE
  6
CONTINUOUS
 10
-177.5
 20
50.0
 30
0.0
 11
-197.5
 21
50.0
 31
0.0
  0
LINE
  8
BASE
  6
CONTINUOUS
 10
-190.0
 20
-27.5
 30
0.0
 11
-190.0
 21
-15.0
 31
0.0
  0
LINE
  8
BASE
  6
CONTINUOUS
 10
-190.0
 20
5.0
 30
0.0
 11
-192.370085
 21
9.92295
 31
0.0
  0
LINE
  8
BASE
  6
CONTINUOUS
 10
-190.0
 20
5.0
 30
0.0
 11
-190.0
 21
0.0
 31
0.0
  0
LINE
  8
BASE
  6
CONTINUOUS
 10
-190.0
 20
17.5
 30
0.0
 11
-190.0
 21
10.0
 31
0.0
  0
LINE
  8
BASE
  6
CONTINUOUS
 10
-82.5
 20
17.5
 30
0.0
 11
-190.0
 21
17.5
 31
0.0
  0
LINE
  8
BASE
  6
CONTINUOUS
 10
-82.5
 20
-32.5
 30
0.0
 11
-82.5
 21
17.5
 31
0.0
  0
LINE
  8
BASE
  6
CONTINUOUS
 10
-180.0
 20
-27.5
 30
0.0
 11
-190.0
 21
-27.5
 31
0.0
  0
LINE
  8
BASE
  6
CONTINUOUS
 10
-62.5
 20
-47.5
 30
0.0
 11
-62.5
 21
-55.0
 31
0.0
  0
LINE
  8
BASE
  6
CONTINUOUS
 10
-97.5
 20
-50.0
 30
0.0
 11
-97.5
 21
-55.0
 31
0.0
  0
LINE
  8
BASE
  6
CONTINUOUS
 10
-120.0
 20
-50.0
 30
0.0
 11
-120.0
 21
-55.0
 31
0.0
  0
LINE
  8
BASE
  6
CONTINUOUS
 10
-145.0
 20
-50.0
 30
0.0
 11
-145.0
 21
-55.0
 31
0.0
  0
LINE
  8
BASE
  6
CONTINUOUS
 10
-170.0
 20
-50.0
 30
0.0
 11
-170.0
 21
-55.0
 31
0.0
  0
LINE
  8
BASE
  6
CONTINUOUS
 10
-172.5
 20
50.0
 30
0.0
 11
-178.243924
 21
46.785297
 31
0.0
  0
LINE
  8
BASE
  6
CONTINUOUS
 10
-172.5
 20
50.0
 30
0.0
 11
-167.5
 21
50.0
 31
0.0
  0
LINE
  8
BASE
  6
CONTINUOUS
 10
-179.854508
 20
-33.176755
 30
0.0
 11
-183.709234
 21
-34.659557
 31
0.0
  0
LINE
  8
BASE
  6
CONTINUOUS
 10
-179.660251
 20
-36.8225
 30
0.0
 11
-183.709234
 21
-38.380028
 31
0.0
  0
LINE
  8
BASE
  6
CONTINUOUS
 10
-183.709234
 20
-33.145824
 30
0.0
 11
-190.049109
 21
-33.145824
 31
0.0
  0
LINE
  8
BASE
  6
CONTINUOUS
 10
-183.709234
 20
-36.869447
 30
0.0
 11
-190.049109
 21
-36.869447
 31
0.0
  0
LINE
  8
BASE
  6
CONTINUOUS
 10
-168.194397
 20
-36.8225
 30
0.0
 11
-179.660251
 21
-36.8225
 31
0.0
  0
LINE
  8
BASE
  6
CONTINUOUS
 10
-178.194148
 20
-33.176755
 30
0.0
 11
-179.854508
 21
-33.176755
 31
0.0
  0
LINE
  8
BASE
  6
CONTINUOUS
 10
-177.5
 20
-25.0
 30
0.0
 11
-179.21779
 21
-19.985034
 31
0.0
  0
LINE
  8
BASE
  6
CONTINUOUS
 10
-172.5
 20
-25.0
 30
0.0
 11
-174.21779
 21
-19.985034
 31
0.0
  0
LINE
  8
BASE
  6
CONTINUOUS
 10
-167.5
 20
-25.0
 30
0.0
 11
-169.21779
 21
-19.985034
 31
0.0
  0
LINE
  8
BASE
  6
CONTINUOUS
 10
-162.5
 20
-25.0
 30
0.0
 11
-164.21779
 21
-19.985034
 31
0.0
  0
LINE
  8
BASE
  6
CONTINUOUS
 10
-178.793403
 20
-27.5
 30
0.0
 11
-177.5
 21
-26.593231
 31
0.0
  0
LINE
  8
BASE
  6
CONTINUOUS
 10
-177.5
 20
-28.398088
 30
0.0
 11
-178.793403
 21
-27.5
 31
0.0
  0
LINE
  8
BASE
  6
CONTINUOUS
 10
-173.793403
 20
-27.5
 30
0.0
 11
-172.5
 21
-26.593231
 31
0.0
  0
LINE
  8
BASE
  6
CONTINUOUS
 10
-172.5
 20
-28.398088
 30
0.0
 11
-173.793403
 21
-27.5
 31
0.0
  0
LINE
  8
BASE
  6
CONTINUOUS
 10
-168.793403
 20
-27.5
 30
0.0
 11
-167.5
 21
-26.593231
 31
0.0
  0
LINE
  8
BASE
  6
CONTINUOUS
 10
-167.5
 20
-28.398088
 30
0.0
 11
-168.793403
 21
-27.5
 31
0.0
  0
LINE
  8
BASE
  6
CONTINUOUS
 10
-163.793403
 20
-27.5
 30
0.0
 11
-162.5
 21
-26.593231
 31
0.0
  0
LINE
  8
BASE
  6
CONTINUOUS
 10
-162.5
 20
-28.398088
 30
0.0
 11
-163.793403
 21
-27.5
 31
0.0
  0
LINE
  8
BASE
  6
CONTINUOUS
 10
-180.0
 20
-27.5
 30
0.0
 11
-162.5
 21
-27.5
 31
0.0
  0
LINE
  8
BASE
  6
CONTINUOUS
 10
-176.794759
 20
-33.148476
 30
0.0
 11
-173.194757
 21
-33.148476
 31
0.0
  0
LINE
  8
BASE
  6
CONTINUOUS
 10
-166.794816
 20
-36.809023
 30
0.0
 11
-163.1947
 21
-36.809023
 31
0.0
  0
LINE
  8
BASE
  6
CONTINUOUS
 10
-177.5
 20
-25.0
 30
0.0
 11
-177.5
 21
-32.447555
 31
0.0
  0
LINE
  8
BASE
  6
CONTINUOUS
 10
-172.5
 20
-25.0
 30
0.0
 11
-172.5
 21
-32.447555
 31
0.0
  0
CIRCLE
  8
BASE
  6
CONTINUOUS
 10
-177.494758
 20
-33.147535
 30
0.0
 40
0.7
  0
CIRCLE
  8
BASE
  6
CONTINUOUS
 10
-172.494758
 20
-33.147535
 30
0.0
 40
0.7
  0
LINE
  8
BASE
  6
CONTINUOUS
 10
-167.5
 20
-25.0
 30
0.0
 11
-167.5
 21
-36.100039
 31
0.0
  0
LINE
  8
BASE
  6
CONTINUOUS
 10
-162.5
 20
-25.0
 30
0.0
 11
-162.5
 21
-36.100039
 31
0.0
  0
CIRCLE
  8
BASE
  6
CONTINUOUS
 10
-167.494758
 20
-36.80002
 30
0.0
 40
0.7
  0
LINE
  8
BASE
  6
CONTINUOUS
 10
-167.5
 20
-40.0
 30
0.0
 11
-167.5
 21
-37.5
 31
0.0
  0
LINE
  8
BASE
  6
CONTINUOUS
 10
-162.5
 20
-40.0
 30
0.0
 11
-162.5
 21
-37.5
 31
0.0
  0
CIRCLE
  8
BASE
  6
CONTINUOUS
 10
-162.494758
 20
-36.80002
 30
0.0
 40
0.7
  0
LINE
  8
BASE
  6
CONTINUOUS
 10
-112.5
 20
-32.5
 30
0.0
 11
-112.5
 21
0.0
 31
0.0
  0
LINE
  8
BASE
  6
CONTINUOUS
 10
-117.5
 20
-32.5
 30
0.0
 11
-117.5
 21
10.0
 31
0.0
  0
LINE
  8
BASE
  6
CONTINUOUS
 10
-122.5
 20
-32.5
 30
0.0
 11
-122.5
 21
20.0
 31
0.0
  0
LINE
  8
BASE
  6
CONTINUOUS
 10
-127.5
 20
-32.5
 30
0.0
 11
-127.5
 21
30.0
 31
0.0
  0
LINE
  8
BASE
  6
CONTINUOUS
 10
-140.0
 20
-32.5
 30
0.0
 11
-140.0
 21
10.0
 31
0.0
  0
LINE
  8
BASE
  6
CONTINUOUS
 10
-145.0
 20
-32.5
 30
0.0
 11
-145.0
 21
20.0
 31
0.0
  0
LINE
  8
BASE
  6
CONTINUOUS
 10
-150.0
 20
-32.5
 30
0.0
 11
-150.0
 21
30.0
 31
0.0
  0
LINE
  8
BASE
  6
CONTINUOUS
 10
-155.0
 20
-32.5
 30
0.0
 11
-155.0
 21
25.0
 31
0.0
  0
LINE
  8
BASE
  6
CONTINUOUS
 10
-77.5
 20
-32.5
 30
0.0
 11
-77.5
 21
35.0
 31
0.0
  0
LINE
  8
BASE
  6
CONTINUOUS
 10
-72.5
 20
-32.5
 30
0.0
 11
-72.5
 21
30.0
 31
0.0
  0
LINE
  8
BASE
  6
CONTINUOUS
 10
-67.5
 20
-32.5
 30
0.0
 11
-67.5
 21
25.0
 31
0.0
  0
LINE
  8
BASE
  6
CONTINUOUS
 10
-62.5
 20
-32.5
 30
0.0
 11
-62.5
 21
20.0
 31
0.0
  0
LINE
  8
BASE
  6
CONTINUOUS
 10
-57.5
 20
-32.5
 30
0.0
 11
-57.5
 21
15.0
 31
0.0
  0
LINE
  8
BASE
  6
CONTINUOUS
 10
-52.5
 20
-32.5
 30
0.0
 11
-52.5
 21
10.0
 31
0.0
  0
LINE
  8
BASE
  6
CONTINUOUS
 10
-47.5
 20
-32.5
 30
0.0
 11
-47.5
 21
5.0
 31
0.0
  0
LINE
  8
BASE
  6
CONTINUOUS
 10
-42.5
 20
-32.5
 30
0.0
 11
-42.5
 21
0.0
 31
0.0
  0
LINE
  8
BASE
  6
CONTINUOUS
 10
-105.0
 20
35.0
 30
0.0
 11
-105.0
 21
-32.5
 31
0.0
  0
LINE
  8
BASE
  6
CONTINUOUS
 10
0.0
 20
35.0
 30
0.0
 11
-105.0
 21
35.0
 31
0.0
  0
LINE
  8
BASE
  6
CONTINUOUS
 10
-177.5
 20
30.0
 30
0.0
 11
-177.5
 21
-20.0
 31
0.0
  0
LINE
  8
BASE
  6
CONTINUOUS
 10
-100.0
 20
25.0
 30
0.0
 11
-100.0
 21
-32.5
 31
0.0
  0
LINE
  8
BASE
  6
CONTINUOUS
 10
-172.5
 20
20.0
 30
0.0
 11
-172.5
 21
-20.0
 31
0.0
  0
LINE
  8
BASE
  6
CONTINUOUS
 10
-95.0
 20
15.0
 30
0.0
 11
-95.0
 21
-32.5
 31
0.0
  0
LINE
  8
BASE
  6
CONTINUOUS
 10
-167.5
 20
10.0
 30
0.0
 11
-167.5
 21
-20.0
 31
0.0
  0
LINE
  8
BASE
  6
CONTINUOUS
 10
-90.0
 20
5.0
 30
0.0
 11
-90.0
 21
-32.5
 31
0.0
  0
LINE
  8
BASE
  6
CONTINUOUS
 10
-162.5
 20
0.0
 30
0.0
 11
-162.5
 21
-20.0
 31
0.0
  0
LINE
  8
BASE
  6
CONTINUOUS
 10
-42.5
 20
-32.5
 30
0.0
 11
-42.5
 21
-32.5
 31
0.0
  0
LINE
  8
BASE
  6
CONTINUOUS
 10
-42.5
 20
-35.0
 30
0.0
 11
-42.5
 21
-32.5
 31
0.0
  0
LINE
  8
BASE
  6
CONTINUOUS
 10
-47.5
 20
-35.0
 30
0.0
 11
-47.5
 21
-32.5
 31
0.0
  0
LINE
  8
BASE
  6
CONTINUOUS
 10
-52.5
 20
-35.0
 30
0.0
 11
-52.5
 21
-32.5
 31
0.0
  0
LINE
  8
BASE
  6
CONTINUOUS
 10
-57.5
 20
-35.0
 30
0.0
 11
-57.5
 21
-32.5
 31
0.0
  0
LINE
  8
BASE
  6
CONTINUOUS
 10
-62.5
 20
-35.0
 30
0.0
 11
-62.5
 21
-32.5
 31
0.0
  0
LINE
  8
BASE
  6
CONTINUOUS
 10
-67.5
 20
-35.0
 30
0.0
 11
-67.5
 21
-32.5
 31
0.0
  0
LINE
  8
BASE
  6
CONTINUOUS
 10
-72.5
 20
-35.0
 30
0.0
 11
-72.5
 21
-32.5
 31
0.0
  0
LINE
  8
BASE
  6
CONTINUOUS
 10
-77.5
 20
-35.0
 30
0.0
 11
-77.5
 21
-32.5
 31
0.0
  0
LINE
  8
BASE
  6
CONTINUOUS
 10
-82.5
 20
-40.0
 30
0.0
 11
-82.5
 21
-32.5
 31
0.0
  0
LINE
  8
BASE
  6
CONTINUOUS
 10
-42.5
 20
-40.0
 30
0.0
 11
-44.21779
 21
-34.985034
 31
0.0
  0
LINE
  8
BASE
  6
CONTINUOUS
 10
-47.5
 20
-40.0
 30
0.0
 11
-49.21779
 21
-34.985034
 31
0.0
  0
LINE
  8
BASE
  6
CONTINUOUS
 10
-52.5
 20
-40.0
 30
0.0
 11
-54.21779
 21
-34.985034
 31
0.0
  0
LINE
  8
BASE
  6
CONTINUOUS
 10
-57.5
 20
-40.0
 30
0.0
 11
-59.21779
 21
-34.985034
 31
0.0
  0
LINE
  8
BASE
  6
CONTINUOUS
 10
-62.5
 20
-40.0
 30
0.0
 11
-64.21779
 21
-34.985034
 31
0.0
  0
LINE
  8
BASE
  6
CONTINUOUS
 10
-67.5
 20
-40.0
 30
0.0
 11
-69.21779
 21
-34.985034
 31
0.0
  0
LINE
  8
BASE
  6
CONTINUOUS
 10
-72.5
 20
-40.0
 30
0.0
 11
-74.21779
 21
-34.985034
 31
0.0
  0
LINE
  8
BASE
  6
CONTINUOUS
 10
-77.5
 20
-40.0
 30
0.0
 11
-79.21779
 21
-34.985034
 31
0.0
  0
LINE
  8
BASE
  6
CONTINUOUS
 10
-42.5
 20
-42.5
 30
0.0
 11
-42.5
 21
-40.0
 31
0.0
  0
LINE
  8
BASE
  6
CONTINUOUS
 10
-47.5
 20
-42.5
 30
0.0
 11
-47.5
 21
-40.0
 31
0.0
  0
LINE
  8
BASE
  6
CONTINUOUS
 10
-52.5
 20
-42.5
 30
0.0
 11
-52.5
 21
-40.0
 31
0.0
  0
LINE
  8
BASE
  6
CONTINUOUS
 10
-57.5
 20
-42.5
 30
0.0
 11
-57.5
 21
-40.0
 31
0.0
  0
LINE
  8
BASE
  6
CONTINUOUS
 10
-62.5
 20
-42.5
 30
0.0
 11
-62.5
 21
-40.0
 31
0.0
  0
LINE
  8
BASE
  6
CONTINUOUS
 10
-67.5
 20
-42.5
 30
0.0
 11
-67.5
 21
-40.0
 31
0.0
  0
LINE
  8
BASE
  6
CONTINUOUS
 10
-72.5
 20
-42.5
 30
0.0
 11
-72.5
 21
-40.0
 31
0.0
  0
LINE
  8
BASE
  6
CONTINUOUS
 10
-77.5
 20
-42.5
 30
0.0
 11
-77.5
 21
-40.0
 31
0.0
  0
LINE
  8
BASE
  6
CONTINUOUS
 10
-82.5
 20
-42.5
 30
0.0
 11
-82.5
 21
-40.0
 31
0.0
  0
TEXT
  8
BASE
  6
CONTINUOUS
 10
-62.280268
 20
-46.035545
 30
0.0
 40
2.5
  1
1
 11
-62.280268
 21
-46.868878
 31
0.0
 73
     1
  0
LINE
  8
BASE
  6
CONTINUOUS
 10
-66.71413
 20
-43.375451
 30
0.0
 11
-64.368365
 21
-44.710805
 31
0.0
  0
LINE
  8
BASE
  6
CONTINUOUS
 10
-64.368365
 20
-44.710805
 30
0.0
 11
-66.71413
 21
-45.900724
 31
0.0
  0
LINE
  8
BASE
  6
CONTINUOUS
 10
-66.722172
 20
-46.700738
 30
0.0
 11
-64.338711
 21
-45.512546
 31
0.0
  0
LINE
  8
BASE
  6
CONTINUOUS
 10
-40.0
 20
-42.5
 30
0.0
 11
-85.0
 21
-42.5
 31
0.0
  0
LINE
  8
BASE
  6
CONTINUOUS
 10
-40.0
 20
-47.5
 30
0.0
 11
-40.0
 21
-42.5
 31
0.0
  0
LINE
  8
BASE
  6
CONTINUOUS
 10
-85.0
 20
-47.5
 30
0.0
 11
-40.0
 21
-47.5
 31
0.0
  0
LINE
  8
BASE
  6
CONTINUOUS
 10
-85.0
 20
-42.5
 30
0.0
 11
-85.0
 21
-47.5
 31
0.0
  0
LINE
  8
BASE
  6
CONTINUOUS
 10
-177.5
 20
-42.5
 30
0.0
 11
-177.5
 21
-33.847515
 31
0.0
  0
LINE
  8
BASE
  6
CONTINUOUS
 10
-180.0
 20
-42.5
 30
0.0
 11
-180.0
 21
-47.5
 31
0.0
  0
LINE
  8
BASE
  6
CONTINUOUS
 10
-180.0
 20
-47.5
 30
0.0
 11
-160.0
 21
-47.5
 31
0.0
  0
LINE
  8
BASE
  6
CONTINUOUS
 10
-160.0
 20
-47.5
 30
0.0
 11
-160.0
 21
-42.5
 31
0.0
  0
LINE
  8
BASE
  6
CONTINUOUS
 10
-160.0
 20
-42.5
 30
0.0
 11
-180.0
 21
-42.5
 31
0.0
  0
LINE
  8
BASE
  6
CONTINUOUS
 10
-172.5
 20
-42.5
 30
0.0
 11
-172.5
 21
-33.847515
 31
0.0
  0
LINE
  8
BASE
  6
CONTINUOUS
 10
-167.5
 20
-42.5
 30
0.0
 11
-167.5
 21
-40.0
 31
0.0
  0
LINE
  8
BASE
  6
CONTINUOUS
 10
-162.5
 20
-42.5
 30
0.0
 11
-162.5
 21
-40.0
 31
0.0
  0
LINE
  8
BASE
  6
CONTINUOUS
 10
-170.0
 20
-47.5
 30
0.0
 11
-170.0
 21
-50.0
 31
0.0
  0
LINE
  8
BASE
  6
CONTINUOUS
 10
-168.75365
 20
-44.710805
 30
0.0
 11
-171.099415
 21
-45.900724
 31
0.0
  0
LINE
  8
BASE
  6
CONTINUOUS
 10
-171.107457
 20
-46.700738
 30
0.0
 11
-168.723996
 21
-45.512546
 31
0.0
  0
LINE
  8
BASE
  6
CONTINUOUS
 10
-171.099415
 20
-43.375451
 30
0.0
 11
-168.75365
 21
-44.710805
 31
0.0
  0
TEXT
  8
BASE
  6
CONTINUOUS
 10
-166.665553
 20
-46.035545
 30
0.0
 40
2.5
  1
1
 11
-166.665553
 21
-46.868878
 31
0.0
 73
     1
  0
TEXT
  8
BASE
  6
CONTINUOUS
 10
-95.528322
 20
-46.035545
 30
0.0
 40
2.5
  1
1
 11
-95.528322
 21
-46.868878
 31
0.0
 73
     1
  0
LINE
  8
BASE
  6
CONTINUOUS
 10
-99.962184
 20
-43.375451
 30
0.0
 11
-97.616418
 21
-44.710805
 31
0.0
  0
LINE
  8
BASE
  6
CONTINUOUS
 10
-99.970225
 20
-46.700738
 30
0.0
 11
-97.586765
 21
-45.512546
 31
0.0
  0
LINE
  8
BASE
  6
CONTINUOUS
 10
-97.616418
 20
-44.710805
 30
0.0
 11
-99.962184
 21
-45.900724
 31
0.0
  0
LINE
  8
BASE
  6
CONTINUOUS
 10
-105.0
 20
-40.0
 30
0.0
 11
-106.71779
 21
-34.985034
 31
0.0
  0
LINE
  8
BASE
  6
CONTINUOUS
 10
-100.0
 20
-40.0
 30
0.0
 11
-101.71779
 21
-34.985034
 31
0.0
  0
LINE
  8
BASE
  6
CONTINUOUS
 10
-95.0
 20
-40.0
 30
0.0
 11
-96.71779
 21
-34.985034
 31
0.0
  0
LINE
  8
BASE
  6
CONTINUOUS
 10
-90.0
 20
-40.0
 30
0.0
 11
-91.71779
 21
-34.985034
 31
0.0
  0
LINE
  8
BASE
  6
CONTINUOUS
 10
-105.0
 20
-35.0
 30
0.0
 11
-105.0
 21
-32.5
 31
0.0
  0
LINE
  8
BASE
  6
CONTINUOUS
 10
-100.0
 20
-35.0
 30
0.0
 11
-100.0
 21
-32.5
 31
0.0
  0
LINE
  8
BASE
  6
CONTINUOUS
 10
-95.0
 20
-35.0
 30
0.0
 11
-95.0
 21
-32.5
 31
0.0
  0
LINE
  8
BASE
  6
CONTINUOUS
 10
-90.0
 20
-35.0
 30
0.0
 11
-90.0
 21
-32.5
 31
0.0
  0
LINE
  8
BASE
  6
CONTINUOUS
 10
-97.5
 20
-47.5
 30
0.0
 11
-97.5
 21
-50.0
 31
0.0
  0
LINE
  8
BASE
  6
CONTINUOUS
 10
-90.0
 20
-42.5
 30
0.0
 11
-90.0
 21
-40.0
 31
0.0
  0
LINE
  8
BASE
  6
CONTINUOUS
 10
-95.0
 20
-42.5
 30
0.0
 11
-95.0
 21
-40.0
 31
0.0
  0
LINE
  8
BASE
  6
CONTINUOUS
 10
-100.0
 20
-42.5
 30
0.0
 11
-100.0
 21
-40.0
 31
0.0
  0
LINE
  8
BASE
  6
CONTINUOUS
 10
-105.0
 20
-42.5
 30
0.0
 11
-105.0
 21
-40.0
 31
0.0
  0
LINE
  8
BASE
  6
CONTINUOUS
 10
-87.5
 20
-42.5
 30
0.0
 11
-107.5
 21
-42.5
 31
0.0
  0
LINE
  8
BASE
  6
CONTINUOUS
 10
-87.5
 20
-47.5
 30
0.0
 11
-87.5
 21
-42.5
 31
0.0
  0
LINE
  8
BASE
  6
CONTINUOUS
 10
-107.5
 20
-47.5
 30
0.0
 11
-87.5
 21
-47.5
 31
0.0
  0
LINE
  8
BASE
  6
CONTINUOUS
 10
-107.5
 20
-42.5
 30
0.0
 11
-107.5
 21
-47.5
 31
0.0
  0
LINE
  8
BASE
  6
CONTINUOUS
 10
-130.0
 20
-42.5
 30
0.0
 11
-130.0
 21
-47.5
 31
0.0
  0
LINE
  8
BASE
  6
CONTINUOUS
 10
-130.0
 20
-47.5
 30
0.0
 11
-110.0
 21
-47.5
 31
0.0
  0
LINE
  8
BASE
  6
CONTINUOUS
 10
-110.0
 20
-47.5
 30
0.0
 11
-110.0
 21
-42.5
 31
0.0
  0
LINE
  8
BASE
  6
CONTINUOUS
 10
-110.0
 20
-42.5
 30
0.0
 11
-130.0
 21
-42.5
 31
0.0
  0
LINE
  8
BASE
  6
CONTINUOUS
 10
-127.5
 20
-42.5
 30
0.0
 11
-127.5
 21
-40.0
 31
0.0
  0
LINE
  8
BASE
  6
CONTINUOUS
 10
-122.5
 20
-42.5
 30
0.0
 11
-122.5
 21
-40.0
 31
0.0
  0
LINE
  8
BASE
  6
CONTINUOUS
 10
-117.5
 20
-42.5
 30
0.0
 11
-117.5
 21
-40.0
 31
0.0
  0
LINE
  8
BASE
  6
CONTINUOUS
 10
-112.5
 20
-42.5
 30
0.0
 11
-112.5
 21
-40.0
 31
0.0
  0
LINE
  8
BASE
  6
CONTINUOUS
 10
-120.0
 20
-47.5
 30
0.0
 11
-120.0
 21
-50.0
 31
0.0
  0
LINE
  8
BASE
  6
CONTINUOUS
 10
-112.5
 20
-35.0
 30
0.0
 11
-112.5
 21
-32.5
 31
0.0
  0
LINE
  8
BASE
  6
CONTINUOUS
 10
-117.5
 20
-35.0
 30
0.0
 11
-117.5
 21
-32.5
 31
0.0
  0
LINE
  8
BASE
  6
CONTINUOUS
 10
-122.5
 20
-35.0
 30
0.0
 11
-122.5
 21
-32.5
 31
0.0
  0
LINE
  8
BASE
  6
CONTINUOUS
 10
-127.5
 20
-35.0
 30
0.0
 11
-127.5
 21
-32.5
 31
0.0
  0
LINE
  8
BASE
  6
CONTINUOUS
 10
-112.5
 20
-40.0
 30
0.0
 11
-114.21779
 21
-34.985034
 31
0.0
  0
LINE
  8
BASE
  6
CONTINUOUS
 10
-117.5
 20
-40.0
 30
0.0
 11
-119.21779
 21
-34.985034
 31
0.0
  0
LINE
  8
BASE
  6
CONTINUOUS
 10
-122.5
 20
-40.0
 30
0.0
 11
-124.21779
 21
-34.985034
 31
0.0
  0
LINE
  8
BASE
  6
CONTINUOUS
 10
-127.5
 20
-40.0
 30
0.0
 11
-129.21779
 21
-34.985034
 31
0.0
  0
LINE
  8
BASE
  6
CONTINUOUS
 10
-118.75365
 20
-44.710805
 30
0.0
 11
-121.099415
 21
-45.900724
 31
0.0
  0
LINE
  8
BASE
  6
CONTINUOUS
 10
-121.107457
 20
-46.700738
 30
0.0
 11
-118.723996
 21
-45.512546
 31
0.0
  0
LINE
  8
BASE
  6
CONTINUOUS
 10
-121.099415
 20
-43.375451
 30
0.0
 11
-118.75365
 21
-44.710805
 31
0.0
  0
TEXT
  8
BASE
  6
CONTINUOUS
 10
-116.665553
 20
-46.035545
 30
0.0
 40
2.5
  1
1
 11
-116.665553
 21
-46.868878
 31
0.0
 73
     1
  0
LINE
  8
BASE
  6
CONTINUOUS
 10
-155.0
 20
-40.0
 30
0.0
 11
-156.71779
 21
-34.985034
 31
0.0
  0
LINE
  8
BASE
  6
CONTINUOUS
 10
-150.0
 20
-40.0
 30
0.0
 11
-151.71779
 21
-34.985034
 31
0.0
  0
LINE
  8
BASE
  6
CONTINUOUS
 10
-145.0
 20
-40.0
 30
0.0
 11
-146.71779
 21
-34.985034
 31
0.0
  0
LINE
  8
BASE
  6
CONTINUOUS
 10
-140.0
 20
-40.0
 30
0.0
 11
-141.71779
 21
-34.985034
 31
0.0
  0
LINE
  8
BASE
  6
CONTINUOUS
 10
-155.0
 20
-35.0
 30
0.0
 11
-155.0
 21
-32.5
 31
0.0
  0
LINE
  8
BASE
  6
CONTINUOUS
 10
-150.0
 20
-35.0
 30
0.0
 11
-150.0
 21
-32.5
 31
0.0
  0
LINE
  8
BASE
  6
CONTINUOUS
 10
-145.0
 20
-35.0
 30
0.0
 11
-145.0
 21
-32.5
 31
0.0
  0
LINE
  8
BASE
  6
CONTINUOUS
 10
-140.0
 20
-35.0
 30
0.0
 11
-140.0
 21
-32.5
 31
0.0
  0
LINE
  8
BASE
  6
CONTINUOUS
 10
-145.0
 20
-47.5
 30
0.0
 11
-145.0
 21
-50.0
 31
0.0
  0
LINE
  8
BASE
  6
CONTINUOUS
 10
-140.0
 20
-42.5
 30
0.0
 11
-140.0
 21
-40.0
 31
0.0
  0
LINE
  8
BASE
  6
CONTINUOUS
 10
-145.0
 20
-42.5
 30
0.0
 11
-145.0
 21
-40.0
 31
0.0
  0
LINE
  8
BASE
  6
CONTINUOUS
 10
-150.0
 20
-42.5
 30
0.0
 11
-150.0
 21
-40.0
 31
0.0
  0
LINE
  8
BASE
  6
CONTINUOUS
 10
-155.0
 20
-42.5
 30
0.0
 11
-155.0
 21
-40.0
 31
0.0
  0
LINE
  8
BASE
  6
CONTINUOUS
 10
-132.5
 20
-42.5
 30
0.0
 11
-157.5
 21
-42.5
 31
0.0
  0
LINE
  8
BASE
  6
CONTINUOUS
 10
-132.5
 20
-47.5
 30
0.0
 11
-132.5
 21
-42.5
 31
0.0
  0
LINE
  8
BASE
  6
CONTINUOUS
 10
-157.5
 20
-47.5
 30
0.0
 11
-132.5
 21
-47.5
 31
0.0
  0
LINE
  8
BASE
  6
CONTINUOUS
 10
-157.5
 20
-42.5
 30
0.0
 11
-157.5
 21
-47.5
 31
0.0
  0
ENDBLK
  8
0
  0
BLOCK
  8
0
  2
*X23
 70
    65
 10
0.0
 20
0.0
 30
0.0
  3
*X
  0
LINE
  8
0
  6
CONTINUOUS
 62
     0
 10
78.706597
 20
140.0
 30
0.0
 11
80.0
 21
140.0
 31
0.0
  0
ENDBLK
  8
0
  0
BLOCK
  8
0
  2
MAA
 70
    64
 10
0.0
 20
0.0
 30
0.0
  3
MAA
  0
LINE
  8
0
  6
CONTINUOUS
 10
-0.500718
 20
-2.587966
 30
0.0
 11
0.386169
 21
-2.587966
 31
0.0
  0
LINE
  8
0
  6
CONTINUOUS
 10
-0.831823
 20
-1.976333
 30
0.0
 11
0.752749
 21
-1.976333
 31
0.0
  0
LINE
  8
0
  6
CONTINUOUS
 10
-0.015887
 20
-1.35427
 30
0.0
 11
1.178454
 21
-1.35427
 31
0.0
  0
LINE
  8
0
  6
CONTINUOUS
 10
-1.210228
 20
-1.35427
 30
0.0
 11
-0.015887
 21
-1.35427
 31
0.0
  0
LINE
  8
0
  6
CONTINUOUS
 10
0.0
 20
0.0
 30
0.0
 11
0.0
 21
-1.35427
 31
0.0
  0
ENDBLK
  8
0
  0
ENDSEC
  0
SECTION
  2
ENTITIES
  0
INSERT
  8
0
  2
1
 10
65.405438
 20
98.713066
 30
0.0
  0
INSERT
  8
0
  2
1
 10
72.541652
 20
49.71056
 30
0.0
  0
INSERT
  8
0
  2
1
 10
85.390443
 20
73.497234
 30
0.0
  0
LINE
  8
0
  6
CONTINUOUS
 62
   249
 10
300.811752
 20
187.499529
 30
0.0
 11
298.465986
 21
186.30961
 31
0.0
  0
LINE
  8
0
  6
CONTINUOUS
 62
   249
 10
298.465986
 20
188.834883
 30
0.0
 11
300.811752
 21
187.499529
 31
0.0
  0
LINE
  8
0
  6
CONTINUOUS
 62
   249
 10
298.991035
 20
187.499529
 30
0.0
 11
296.645269
 21
186.30961
 31
0.0
  0
LINE
  8
0
  6
CONTINUOUS
 62
   249
 10
296.645269
 20
188.834883
 30
0.0
 11
298.991035
 21
187.499529
 31
0.0
  0
TEXT
  8
0
  6
CONTINUOUS
 62
   249
 10
294.836074
 20
186.318894
 30
0.0
 40
2.5
  1
I
 11
294.836074
 21
185.48556
 31
0.0
 73
     1
  0
LINE
  8
0
  6
CONTINUOUS
 62
   249
 10
302.229824
 20
182.494012
 30
0.0
 11
299.884059
 21
181.304092
 31
0.0
  0
LINE
  8
0
  6
CONTINUOUS
 62
   249
 10
299.884059
 20
183.829365
 30
0.0
 11
302.229824
 21
182.494012
 31
0.0
  0
LINE
  8
0
  6
CONTINUOUS
 62
   249
 10
306.221939
 20
198.402694
 30
0.0
 11
306.221939
 21
196.614562
 31
0.0
  0
LINE
  8
0
  6
CONTINUOUS
 62
   249
 10
306.25297
 20
197.557415
 30
0.0
 11
314.041175
 21
197.557415
 31
0.0
  0
LINE
  8
0
  6
CONTINUOUS
 62
   249
 10
308.637115
 20
196.389812
 30
0.0
 11
311.513225
 21
199.218371
 31
0.0
  0
LINE
  8
0
  6
CONTINUOUS
 62
   249
 10
311.082522
 20
199.755578
 30
0.0
 11
311.983199
 21
198.631829
 31
0.0
  0
LINE
  8
0
  6
CONTINUOUS
 62
   249
 10
314.036634
 20
198.402694
 30
0.0
 11
314.036634
 21
196.614562
 31
0.0
  0
ARC
  8
0
  6
HIDDEN
 62
   249
 10
312.947838
 20
201.485959
 30
0.0
 40
4.998196
 50
206.402922
 51
282.21115
  0
TEXT
  8
0
  6
CONTINUOUS
 62
   249
 10
294.836074
 20
191.336934
 30
0.0
 40
2.5
  1
I
 11
294.836074
 21
190.503601
 31
0.0
 73
     1
  0
LINE
  8
0
  6
CONTINUOUS
 62
   249
 10
298.991035
 20
192.51757
 30
0.0
 11
296.645269
 21
191.327651
 31
0.0
  0
LINE
  8
0
  6
CONTINUOUS
 62
   249
 10
300.811752
 20
192.51757
 30
0.0
 11
298.465986
 21
191.327651
 31
0.0
  0
LINE
  8
0
  6
CONTINUOUS
 62
   249
 10
296.645269
 20
193.852924
 30
0.0
 11
298.991035
 21
192.51757
 31
0.0
  0
LINE
  8
0
  6
CONTINUOUS
 62
   249
 10
298.465986
 20
193.852924
 30
0.0
 11
300.811752
 21
192.51757
 31
0.0
  0
TEXT
  8
0
  6
CONTINUOUS
 62
   249
 10
294.836074
 20
196.32911
 30
0.0
 40
2.5
  1
I
 11
294.836074
 21
195.495776
 31
0.0
 73
     1
  0
LINE
  8
0
  6
CONTINUOUS
 62
   249
 10
298.991035
 20
197.509745
 30
0.0
 11
296.645269
 21
196.319826
 31
0.0
  0
LINE
  8
0
  6
CONTINUOUS
 62
   249
 10
296.645269
 20
198.845099
 30
0.0
 11
298.991035
 21
197.509745
 31
0.0
  0
LINE
  8
0
  6
CONTINUOUS
 62
   249
 10
298.991035
 20
202.531151
 30
0.0
 11
296.645269
 21
201.341232
 31
0.0
  0
LINE
  8
0
  6
CONTINUOUS
 62
   249
 10
296.645269
 20
203.866505
 30
0.0
 11
298.991035
 21
202.531151
 31
0.0
  0
TEXT
  8
0
  6
CONTINUOUS
 62
   249
 10
294.836074
 20
201.350516
 30
0.0
 40
2.5
  1
I
 11
294.836074
 21
200.517182
 31
0.0
 73
     1
  0
LINE
  8
0
  6
CONTINUOUS
 62
   249
 10
305.948565
 20
188.334167
 30
0.0
 11
305.948565
 21
186.546035
 31
0.0
  0
LINE
  8
0
  6
CONTINUOUS
 62
   249
 10
313.76326
 20
188.334167
 30
0.0
 11
313.76326
 21
186.546035
 31
0.0
  0
LINE
  8
0
  6
CONTINUOUS
 62
   249
 10
305.979596
 20
187.488888
 30
0.0
 11
313.767801
 21
187.488888
 31
0.0
  0
LINE
  8
0
  6
CONTINUOUS
 62
   249
 10
308.363741
 20
186.321285
 30
0.0
 11
311.239851
 21
189.149844
 31
0.0
  0
LINE
  8
0
  6
CONTINUOUS
 62
   249
 10
310.785729
 20
189.687051
 30
0.0
 11
311.686405
 21
188.563302
 31
0.0
  0
LINE
  8
0
  6
CONTINUOUS
 62
   249
 10
314.117877
 20
168.343147
 30
0.0
 11
314.117877
 21
166.555016
 31
0.0
  0
LINE
  8
0
  6
CONTINUOUS
 62
   249
 10
311.140346
 20
169.696031
 30
0.0
 11
312.041023
 21
168.572282
 31
0.0
  0
LINE
  8
0
  6
CONTINUOUS
 62
   249
 10
308.718358
 20
166.330266
 30
0.0
 11
311.594469
 21
169.158824
 31
0.0
  0
LINE
  8
0
  6
CONTINUOUS
 62
   249
 10
306.334213
 20
167.497868
 30
0.0
 11
314.122418
 21
167.497868
 31
0.0
  0
LINE
  8
0
  6
CONTINUOUS
 62
   249
 10
306.303182
 20
168.343147
 30
0.0
 11
306.303182
 21
166.555016
 31
0.0
  0
LINE
  8
0
  6
CONTINUOUS
 62
   249
 10
115.0
 20
112.5
 30
0.0
 11
115.0
 21
105.0
 31
0.0
  0
LINE
  8
0
  6
CONTINUOUS
 62
   249
 10
165.0
 20
112.5
 30
0.0
 11
165.0
 21
105.0
 31
0.0
  0
LINE
  8
0
  6
CONTINUOUS
 62
   249
 10
187.5
 20
112.5
 30
0.0
 11
187.5
 21
105.0
 31
0.0
  0
LINE
  8
0
  6
CONTINUOUS
 62
   249
 10
222.5
 20
112.5
 30
0.0
 11
222.5
 21
105.0
 31
0.0
  0
TEXT
  8
0
  6
CONTINUOUS
 62
   249
 10
116.041465
 20
83.971313
 30
0.0
 40
2.0
  1
OPEN
 50
90.0
  7
ROMANS
  0
TEXT
  8
0
  6
CONTINUOUS
 62
   249
 10
165.796388
 20
83.971313
 30
0.0
 40
2.0
  1
SIGNAL 3
 50
90.0
  7
ROMANS
  0
TEXT
  8
0
  6
CONTINUOUS
 62
   249
 10
188.504812
 20
83.971313
 30
0.0
 40
2.0
  1
SIGNAL 1
 50
90.0
  7
ROMANS
  0
TEXT
  8
0
  6
CONTINUOUS
 62
   249
 10
223.611225
 20
84.439493
 30
0.0
 40
2.0
  1
SIGNAL 2
 50
90.0
  7
ROMANS
  0
LINE
  8
0
  6
CONTINUOUS
 62
   249
 10
87.5
 20
222.5
 30
0.0
 11
87.5
 21
227.5
 31
0.0
  0
LINE
  8
0
  6
CONTINUOUS
 62
   249
 10
285.0
 20
202.5
 30
0.0
 11
290.0
 21
202.5
 31
0.0
  0
LINE
  8
0
  6
CONTINUOUS
 62
   249
 10
285.0
 20
197.5
 30
0.0
 11
290.0
 21
197.5
 31
0.0
  0
LINE
  8
0
  6
CONTINUOUS
 62
   249
 10
285.0
 20
192.5
 30
0.0
 11
290.0
 21
192.5
 31
0.0
  0
LINE
  8
0
  6
CONTINUOUS
 62
   249
 10
285.0
 20
187.5
 30
0.0
 11
290.0
 21
187.5
 31
0.0
  0
LINE
  8
0
  6
CONTINUOUS
 62
   249
 10
285.0
 20
182.5
 30
0.0
 11
290.0
 21
182.5
 31
0.0
  0
LINE
  8
0
  6
CONTINUOUS
 62
   249
 10
285.0
 20
177.5
 30
0.0
 11
290.0
 21
177.5
 31
0.0
  0
LINE
  8
0
  6
CONTINUOUS
 62
   249
 10
285.0
 20
172.5
 30
0.0
 11
290.0
 21
172.5
 31
0.0
  0
LINE
  8
0
  6
CONTINUOUS
 62
   249
 10
285.0
 20
167.5
 30
0.0
 11
290.0
 21
167.5
 31
0.0
  0
TEXT
  8
0
  6
CONTINUOUS
 62
   249
 10
317.5
 20
27.5
 30
0.0
 40
2.0
  1
CIRCUIT DIAGRAM, PROGRAMMING /
  7
ROMANS
  0
TEXT
  8
0
  6
CONTINUOUS
 62
   249
 10
317.5
 20
24.166667
 30
0.0
 40
2.0
  1
KRETSSCHEMA, PROGRAMMERING
  7
ROMANS
  0
TEXT
  8
0
  6
CONTINUOUS
 62
   249
 10
368.329125
 20
11.429564
 30
0.0
 40
2.0
  1
2/2
  7
ROMANS
  0
LINE
  8
0
  6
CONTINUOUS
 62
   249
 10
140.0
 20
112.5
 30
0.0
 11
140.0
 21
105.0
 31
0.0
  0
TEXT
  8
0
  6
CONTINUOUS
 62
   249
 10
140.984482
 20
84.014663
 30
0.0
 40
2.0
  1
(NOT USED)
 50
90.0
  7
ROMANS
  0
TEXT
  8
0
  6
CONTINUOUS
 62
   249
 10
77.026921
 20
230.099936
 30
0.0
 40
2.0
  1
ON-OFF INPUT 8
  7
ROMANS
  0
TEXT
  8
0
  6
CONTINUOUS
 62
   249
 10
294.827568
 20
181.297207
 30
0.0
 40
2.5
  1
I
 11
294.827568
 21
180.463873
 31
0.0
 73
     1
  0
LINE
  8
0
  6
CONTINUOUS
 62
   249
 10
314.036634
 20
178.402694
 30
0.0
 11
314.036634
 21
176.614562
 31
0.0
  0
LINE
  8
0
  6
CONTINUOUS
 62
   249
 10
311.082522
 20
179.755578
 30
0.0
 11
311.983199
 21
178.631829
 31
0.0
  0
LINE
  8
0
  6
CONTINUOUS
 62
   249
 10
308.637115
 20
176.389812
 30
0.0
 11
311.513225
 21
179.218371
 31
0.0
  0
LINE
  8
0
  6
CONTINUOUS
 62
   249
 10
306.25297
 20
177.557415
 30
0.0
 11
314.041175
 21
177.557415
 31
0.0
  0
LINE
  8
0
  6
CONTINUOUS
 62
   249
 10
306.221939
 20
178.402694
 30
0.0
 11
306.221939
 21
176.614562
 31
0.0
  0
TEXT
  8
0
  6
CONTINUOUS
 62
   249
 10
294.827568
 20
176.297207
 30
0.0
 40
2.5
  1
I
 11
294.827568
 21
175.463873
 31
0.0
 73
     1
  0
LINE
  8
0
  6
CONTINUOUS
 62
   249
 10
299.884059
 20
178.829365
 30
0.0
 11
302.229824
 21
177.494012
 31
0.0
  0
LINE
  8
0
  6
CONTINUOUS
 62
   249
 10
302.229824
 20
177.494012
 30
0.0
 11
299.884059
 21
176.304092
 31
0.0
  0
TEXT
  8
0
  6
CONTINUOUS
 62
   249
 10
294.827568
 20
171.297207
 30
0.0
 40
2.5
  1
I
 11
294.827568
 21
170.463873
 31
0.0
 73
     1
  0
LINE
  8
0
  6
CONTINUOUS
 62
   249
 10
302.229824
 20
172.494012
 30
0.0
 11
299.884059
 21
171.304092
 31
0.0
  0
LINE
  8
0
  6
CONTINUOUS
 62
   249
 10
299.884059
 20
173.829365
 30
0.0
 11
302.229824
 21
172.494012
 31
0.0
  0
LINE
  8
0
  6
CONTINUOUS
 62
   249
 10
304.240928
 20
172.494012
 30
0.0
 11
301.895163
 21
171.304092
 31
0.0
  0
LINE
  8
0
  6
CONTINUOUS
 62
   249
 10
301.895163
 20
173.829365
 30
0.0
 11
304.240928
 21
172.494012
 31
0.0
  0
LINE
  8
0
  6
CONTINUOUS
 62
   249
 10
301.895163
 20
168.829365
 30
0.0
 11
304.240928
 21
167.494012
 31
0.0
  0
LINE
  8
0
  6
CONTINUOUS
 62
   249
 10
304.240928
 20
167.494012
 30
0.0
 11
301.895163
 21
166.304092
 31
0.0
  0
LINE
  8
0
  6
CONTINUOUS
 62
   249
 10
299.884059
 20
168.829365
 30
0.0
 11
302.229824
 21
167.494012
 31
0.0
  0
LINE
  8
0
  6
CONTINUOUS
 62
   249
 10
302.229824
 20
167.494012
 30
0.0
 11
299.884059
 21
166.304092
 31
0.0
  0
TEXT
  8
0
  6
CONTINUOUS
 62
   249
 10
294.827568
 20
166.297207
 30
0.0
 40
2.5
  1
I
 11
294.827568
 21
165.463873
 31
0.0
 73
     1
  0
TEXT
  8
0
  6
CONTINUOUS
 62
   249
 10
260.98161
 20
84.439493
 30
0.0
 40
2.0
  1
(NOT USED)
 50
90.0
  7
ROMANS
  0
TEXT
  8
0
  6
CONTINUOUS
 62
   249
 10
213.123152
 20
27.618261
 30
0.0
 40
2.0
  1
1993-03-10 KM / RITU
  7
ROMANS
  0
TEXT
  8
0
  6
CONTINUOUS
 62
   249
 10
317.5
 20
20.833333
 30
0.0
 40
2.0
  1
SPAC 311 C
  7
ROMANS
  0
TEXT
  8
0
  6
CONTINUOUS
 62
   249
 10
325.0
 20
2.5
 30
0.0
 40
2.5
  1
RS 10138-AA
  7
ROMANS
  0
TEXT
  8
0
  6
CONTINUOUS
 62
   249
 10
83.778042
 20
127.735277
 30
0.0
 40
2.0
  1
U1/SGB/7
  7
ROMANS
  0
TEXT
  8
0
  6
CONTINUOUS
 62
   249
 10
83.778042
 20
131.571469
 30
0.0
 40
2.0
  1
U1/SGB/6
  7
ROMANS
  0
TEXT
  8
0
  6
CONTINUOUS
 62
   249
 10
94.108892
 20
179.187068
 30
0.0
 40
2.0
  1
U1/SGF/4
 50
90.0
  0
TEXT
  8
0
  6
CONTINUOUS
 62
   249
 10
89.89515
 20
210.819814
 30
0.0
 40
2.0
  1
U1/SGB/8
  7
ROMANS
  0
TEXT
  8
0
  6
CONTINUOUS
 62
   249
 10
89.89515
 20
218.366763
 30
0.0
 40
2.0
  1
U1/SGB/5
  7
ROMANS
  0
TEXT
  8
0
  6
CONTINUOUS
 62
   249
 10
89.907121
 20
156.384988
 30
0.0
 40
2.0
  1
0,1...1s
  7
ROMANS
  0
LINE
  8
0
  6
CONTINUOUS
 62
   249
 10
102.5
 20
165.0
 30
0.0
 11
102.5
 21
155.0
 31
0.0
  0
LINE
  8
0
  6
CONTINUOUS
 62
   249
 10
87.5
 20
165.0
 30
0.0
 11
102.5
 21
165.0
 31
0.0
  0
LINE
  8
0
  6
CONTINUOUS
 62
   249
 10
87.5
 20
155.0
 30
0.0
 11
87.5
 21
165.0
 31
0.0
  0
LINE
  8
0
  6
CONTINUOUS
 62
   249
 10
102.5
 20
155.0
 30
0.0
 11
87.5
 21
155.0
 31
0.0
  0
TEXT
  8
0
  6
CONTINUOUS
 62
   249
 10
119.179304
 20
209.007719
 30
0.0
 40
2.0
  1
RELAY RESET
  7
ROMANS
  0
TEXT
  8
0
  6
CONTINUOUS
 62
   249
 10
119.179304
 20
216.522254
 30
0.0
 40
2.0
  1
REMOTE SETTINGS
  7
ROMANS
  0
TEXT
  8
0
  6
CONTINUOUS
 62
   249
 10
83.766072
 20
135.533656
 30
0.0
 40
2.0
  1
SEAL. IN
  7
ROMANS
  0
TEXT
  8
0
  6
CONTINUOUS
 62
   249
 10
116.648915
 20
150.142593
 30
0.0
 40
2.0
  1
U1/SGR1/6
 50
90.0
  7
ROMANS
  0
TEXT
  8
0
  6
CONTINUOUS
 62
   249
 10
111.663603
 20
150.142593
 30
0.0
 40
2.0
  1
U1/SGR1/4
 50
90.0
  7
ROMANS
  0
TEXT
  8
0
  6
CONTINUOUS
 62
   249
 10
106.917709
 20
150.142593
 30
0.0
 40
2.0
  1
U1/SGR1/2
 50
90.0
  7
ROMANS
  0
TEXT
  8
0
  6
CONTINUOUS
 62
   249
 10
121.73763
 20
150.168603
 30
0.0
 40
2.0
  1
U1/SGR1/8
 50
90.0
  7
ROMANS
  0
TEXT
  8
0
  6
CONTINUOUS
 62
   249
 10
149.184604
 20
136.055985
 30
0.0
 40
2.0
  1
U1/SGR2/8
 50
90.0
  7
ROMANS
  0
TEXT
  8
0
  6
CONTINUOUS
 62
   249
 10
143.983817
 20
136.055985
 30
0.0
 40
2.0
  1
U1/SGR2/6
 50
90.0
  7
ROMANS
  0
TEXT
  8
0
  6
CONTINUOUS
 62
   249
 10
139.118213
 20
136.055985
 30
0.0
 40
2.0
  1
U1/SGR2/4
 50
90.0
  7
ROMANS
  0
TEXT
  8
0
  6
CONTINUOUS
 62
   249
 10
134.001222
 20
136.055985
 30
0.0
 40
2.0
  1
U1/SGR2/2
 50
90.0
  7
ROMANS
  0
TEXT
  8
0
  6
CONTINUOUS
 62
   249
 10
129.243357
 20
136.055985
 30
0.0
 40
2.0
  1
U1/SGF2/7
 50
90.0
  7
ROMANS
  0
TEXT
  8
0
  6
CONTINUOUS
 62
   249
 10
171.432992
 20
136.047315
 30
0.0
 40
2.0
  1
U1/SGR2/7
 50
90.0
  7
ROMANS
  0
TEXT
  8
0
  6
CONTINUOUS
 62
   249
 10
166.363884
 20
136.047315
 30
0.0
 40
2.0
  1
U1/SGR2/5
 50
90.0
  7
ROMANS
  0
TEXT
  8
0
  6
CONTINUOUS
 62
   249
 10
161.522223
 20
136.047315
 30
0.0
 40
2.0
  1
U1/SGR2/3
 50
90.0
  7
ROMANS
  0
TEXT
  8
0
  6
CONTINUOUS
 62
   249
 10
156.620707
 20
136.047315
 30
0.0
 40
2.0
  1
U1/SGR2/1
 50
90.0
  7
ROMANS
  0
TEXT
  8
0
  6
CONTINUOUS
 62
   249
 10
193.914261
 20
136.029975
 30
0.0
 40
2.0
  1
U1/SGR1/7
 50
90.0
  7
ROMANS
  0
TEXT
  8
0
  6
CONTINUOUS
 62
   249
 10
189.000774
 20
136.029975
 30
0.0
 40
2.0
  1
U1/SGR1/5
 50
90.0
  7
ROMANS
  0
TEXT
  8
0
  6
CONTINUOUS
 62
   249
 10
183.823929
 20
136.029975
 30
0.0
 40
2.0
  1
U1/SGR1/3
 50
90.0
  7
ROMANS
  0
TEXT
  8
0
  6
CONTINUOUS
 62
   249
 10
178.922414
 20
136.029975
 30
0.0
 40
2.0
  1
U1/SGR1/1
 50
90.0
  7
ROMANS
  0
TEXT
  8
0
  6
CONTINUOUS
 62
   249
 10
241.376507
 20
136.029975
 30
0.0
 40
2.0
  1
U1/SGR3/8
 50
90.0
  7
ROMANS
  0
TEXT
  8
0
  6
CONTINUOUS
 62
   249
 10
236.403167
 20
136.029975
 30
0.0
 40
2.0
  1
U1/SGR3/7
 50
90.0
  7
ROMANS
  0
TEXT
  8
0
  6
CONTINUOUS
 62
   249
 10
231.429826
 20
136.029975
 30
0.0
 40
2.0
  1
U1/SGR3/6
 50
90.0
  7
ROMANS
  0
TEXT
  8
0
  6
CONTINUOUS
 62
   249
 10
226.65999
 20
136.029975
 30
0.0
 40
2.0
  1
U1/SGR3/5
 50
90.0
  7
ROMANS
  0
TEXT
  8
0
  6
CONTINUOUS
 62
   249
 10
221.782416
 20
136.029975
 30
0.0
 40
2.0
  1
U1/SGR3/4
 50
90.0
  7
ROMANS
  0
TEXT
  8
0
  6
CONTINUOUS
 62
   249
 10
216.713308
 20
136.029975
 30
0.0
 40
2.0
  1
U1/SGR3/3
 50
90.0
  7
ROMANS
  0
TEXT
  8
0
  6
CONTINUOUS
 62
   249
 10
211.644201
 20
136.029975
 30
0.0
 40
2.0
  1
U1/SGR3/2
 50
90.0
  7
ROMANS
  0
TEXT
  8
0
  6
CONTINUOUS
 62
   249
 10
206.383559
 20
136.029975
 30
0.0
 40
2.0
  1
U1/SGR3/1
 50
90.0
  7
ROMANS
  0
TEXT
  8
0
  6
CONTINUOUS
 62
   249
 10
258.930776
 20
135.0
 30
0.0
 40
2.0
  1
U1/SGF2/8
 50
90.0
  7
ROMANS
  0
LINE
  8
0
  6
CONTINUOUS
 62
   249
 10
260.0
 20
127.5
 30
0.0
 11
254.278958
 21
134.016407
 31
0.0
  0
TEXT
  8
0
  6
CONTINUOUS
 62
   249
 10
141.427779
 20
121.464455
 30
0.0
 40
2.5
  1
1
 11
141.427779
 21
120.631122
 31
0.0
 73
     1
  0
LINE
  8
0
  6
CONTINUOUS
 62
   249
 10
136.993917
 20
124.124549
 30
0.0
 11
139.339682
 21
122.789195
 31
0.0
  0
LINE
  8
0
  6
CONTINUOUS
 62
   249
 10
136.985875
 20
120.799262
 30
0.0
 11
139.369335
 21
121.987454
 31
0.0
  0
LINE
  8
0
  6
CONTINUOUS
 62
   249
 10
139.339682
 20
122.789195
 30
0.0
 11
136.993917
 21
121.599276
 31
0.0
  0
LINE
  8
0
  6
CONTINUOUS
 62
   249
 10
260.0
 20
115.0
 30
0.0
 11
260.0
 21
127.5
 31
0.0
  0
LINE
  8
0
  6
CONTINUOUS
 62
   249
 10
255.0
 20
132.5
 30
0.0
 11
255.0
 21
135.0
 31
0.0
  0
LINE
  8
0
  6
CONTINUOUS
 62
   249
 10
260.0
 20
132.5
 30
0.0
 11
260.0
 21
135.0
 31
0.0
  0
LINE
  8
0
  6
CONTINUOUS
 62
   249
 10
255.0
 20
135.0
 30
0.0
 11
255.0
 21
182.5
 31
0.0
  0
LINE
  8
0
  6
CONTINUOUS
 62
   249
 10
260.0
 20
135.0
 30
0.0
 11
260.0
 21
172.5
 31
0.0
  0
LINE
  8
0
  6
CONTINUOUS
 62
   249
 10
87.5
 20
210.0
 30
0.0
 11
87.5
 21
222.5
 31
0.0
  0
LINE
  8
0
  6
CONTINUOUS
 62
   249
 10
112.5
 20
210.0
 30
0.0
 11
117.5
 21
210.0
 31
0.0
  0
LINE
  8
0
  6
CONTINUOUS
 62
   249
 10
112.5
 20
210.0
 30
0.0
 11
106.756076
 21
206.785297
 31
0.0
  0
LINE
  8
0
  6
CONTINUOUS
 62
   249
 10
107.5
 20
210.0
 30
0.0
 11
87.5
 21
210.0
 31
0.0
  0
LINE
  8
0
  6
DASHED
 62
   249
 10
285.0
 20
222.5
 30
0.0
 11
80.0
 21
222.5
 31
0.0
  0
LINE
  8
0
  6
DASHED
 62
   249
 10
285.0
 20
112.5
 30
0.0
 11
285.0
 21
222.5
 31
0.0
  0
LINE
  8
0
  6
DASHED
 62
   249
 10
80.0
 20
112.5
 30
0.0
 11
285.0
 21
112.5
 31
0.0
  0
LINE
  8
0
  6
DASHED
 62
   249
 10
80.0
 20
222.5
 30
0.0
 11
80.0
 21
112.5
 31
0.0
  0
LINE
  8
0
  6
CONTINUOUS
 62
   249
 10
91.104548
 20
162.242384
 30
0.0
 11
91.104548
 21
160.454253
 31
0.0
  0
LINE
  8
0
  6
CONTINUOUS
 62
   249
 10
91.135579
 20
161.397106
 30
0.0
 11
98.923784
 21
161.397106
 31
0.0
  0
LINE
  8
0
  6
CONTINUOUS
 62
   249
 10
93.519724
 20
160.229503
 30
0.0
 11
96.395834
 21
163.058062
 31
0.0
  0
LINE
  8
0
  6
CONTINUOUS
 62
   249
 10
95.941712
 20
163.595268
 30
0.0
 11
96.842388
 21
162.471519
 31
0.0
  0
LINE
  8
0
  6
CONTINUOUS
 62
   249
 10
98.919243
 20
162.242384
 30
0.0
 11
98.919243
 21
160.454253
 31
0.0
  0
LINE
  8
0
  6
CONTINUOUS
 62
   249
 10
150.0
 20
132.5
 30
0.0
 11
150.0
 21
167.5
 31
0.0
  0
LINE
  8
0
  6
CONTINUOUS
 62
   249
 10
150.0
 20
127.5
 30
0.0
 11
148.28221
 21
132.514966
 31
0.0
  0
LINE
  8
0
  6
CONTINUOUS
 62
   249
 10
150.0
 20
125.0
 30
0.0
 11
150.0
 21
127.5
 31
0.0
  0
LINE
  8
0
  6
CONTINUOUS
 62
   249
 10
285.0
 20
167.5
 30
0.0
 11
122.5
 21
167.5
 31
0.0
  0
LINE
  8
0
  6
CONTINUOUS
 62
   249
 10
285.0
 20
172.5
 30
0.0
 11
195.0
 21
172.5
 31
0.0
  0
LINE
  8
0
  6
CONTINUOUS
 62
   249
 10
285.0
 20
177.5
 30
0.0
 11
117.5
 21
177.5
 31
0.0
  0
LINE
  8
0
  6
CONTINUOUS
 62
   249
 10
285.0
 20
182.5
 30
0.0
 11
190.0
 21
182.5
 31
0.0
  0
LINE
  8
0
  6
CONTINUOUS
 62
   249
 10
285.0
 20
187.5
 30
0.0
 11
112.5
 21
187.5
 31
0.0
  0
LINE
  8
0
  6
CONTINUOUS
 62
   249
 10
285.0
 20
192.5
 30
0.0
 11
130.0
 21
192.5
 31
0.0
  0
LINE
  8
0
  6
CONTINUOUS
 62
   249
 10
285.0
 20
197.5
 30
0.0
 11
107.5
 21
197.5
 31
0.0
  0
LINE
  8
0
  6
CONTINUOUS
 62
   249
 10
95.0
 20
165.0
 30
0.0
 11
95.0
 21
167.5
 31
0.0
  0
LINE
  8
0
  6
CONTINUOUS
 62
   249
 10
95.0
 20
155.0
 30
0.0
 11
95.0
 21
152.5
 31
0.0
  0
LINE
  8
0
  6
CONTINUOUS
 62
   249
 10
107.5
 20
217.5
 30
0.0
 11
87.5
 21
217.5
 31
0.0
  0
LINE
  8
0
  6
CONTINUOUS
 62
   249
 10
95.0
 20
140.0
 30
0.0
 11
95.0
 21
152.5
 31
0.0
  0
LINE
  8
0
  6
CONTINUOUS
 62
   249
 10
95.0
 20
172.5
 30
0.0
 11
92.629915
 21
177.42295
 31
0.0
  0
LINE
  8
0
  6
CONTINUOUS
 62
   249
 10
95.0
 20
172.5
 30
0.0
 11
95.0
 21
167.5
 31
0.0
  0
LINE
  8
0
  6
CONTINUOUS
 62
   249
 10
95.0
 20
185.0
 30
0.0
 11
95.0
 21
177.5
 31
0.0
  0
LINE
  8
0
  6
CONTINUOUS
 62
   249
 10
202.5
 20
185.0
 30
0.0
 11
95.0
 21
185.0
 31
0.0
  0
LINE
  8
0
  6
CONTINUOUS
 62
   249
 10
202.5
 20
135.0
 30
0.0
 11
202.5
 21
185.0
 31
0.0
  0
LINE
  8
0
  6
CONTINUOUS
 62
   249
 10
105.0
 20
140.0
 30
0.0
 11
95.0
 21
140.0
 31
0.0
  0
LINE
  8
0
  6
CONTINUOUS
 62
   249
 10
222.5
 20
120.0
 30
0.0
 11
222.5
 21
112.5
 31
0.0
  0
LINE
  8
0
  6
CONTINUOUS
 62
   249
 10
187.5
 20
117.5
 30
0.0
 11
187.5
 21
112.5
 31
0.0
  0
LINE
  8
0
  6
CONTINUOUS
 62
   249
 10
165.0
 20
117.5
 30
0.0
 11
165.0
 21
112.5
 31
0.0
  0
LINE
  8
0
  6
CONTINUOUS
 62
   249
 10
140.0
 20
117.5
 30
0.0
 11
140.0
 21
112.5
 31
0.0
  0
LINE
  8
0
  6
CONTINUOUS
 62
   249
 10
115.0
 20
117.5
 30
0.0
 11
115.0
 21
112.5
 31
0.0
  0
LINE
  8
0
  6
CONTINUOUS
 62
   249
 10
112.5
 20
217.5
 30
0.0
 11
106.756076
 21
214.285297
 31
0.0
  0
LINE
  8
0
  6
CONTINUOUS
 62
   249
 10
112.5
 20
217.5
 30
0.0
 11
117.5
 21
217.5
 31
0.0
  0
LINE
  8
0
  6
CONTINUOUS
 62
   249
 10
105.145492
 20
134.323245
 30
0.0
 11
101.290766
 21
132.840443
 31
0.0
  0
LINE
  8
0
  6
CONTINUOUS
 62
   249
 10
105.339749
 20
130.6775
 30
0.0
 11
101.290766
 21
129.119972
 31
0.0
  0
LINE
  8
0
  6
CONTINUOUS
 62
   249
 10
101.290766
 20
134.354176
 30
0.0
 11
94.950891
 21
134.354176
 31
0.0
  0
LINE
  8
0
  6
CONTINUOUS
 62
   249
 10
101.290766
 20
130.630553
 30
0.0
 11
94.950891
 21
130.630553
 31
0.0
  0
LINE
  8
0
  6
CONTINUOUS
 62
   249
 10
116.805603
 20
130.6775
 30
0.0
 11
105.339749
 21
130.6775
 31
0.0
  0
LINE
  8
0
  6
CONTINUOUS
 62
   249
 10
106.805852
 20
134.323245
 30
0.0
 11
105.145492
 21
134.323245
 31
0.0
  0
LINE
  8
0
  6
CONTINUOUS
 62
   249
 10
107.5
 20
142.5
 30
0.0
 11
105.78221
 21
147.514966
 31
0.0
  0
LINE
  8
0
  6
CONTINUOUS
 62
   249
 10
112.5
 20
142.5
 30
0.0
 11
110.78221
 21
147.514966
 31
0.0
  0
LINE
  8
0
  6
CONTINUOUS
 62
   249
 10
117.5
 20
142.5
 30
0.0
 11
115.78221
 21
147.514966
 31
0.0
  0
LINE
  8
0
  6
CONTINUOUS
 62
   249
 10
122.5
 20
142.5
 30
0.0
 11
120.78221
 21
147.514966
 31
0.0
  0
LINE
  8
0
  6
CONTINUOUS
 62
   249
 10
106.206597
 20
140.0
 30
0.0
 11
107.5
 21
140.906769
 31
0.0
  0
LINE
  8
0
  6
CONTINUOUS
 62
   249
 10
107.5
 20
139.101912
 30
0.0
 11
106.206597
 21
140.0
 31
0.0
  0
LINE
  8
0
  6
CONTINUOUS
 62
   249
 10
111.206597
 20
140.0
 30
0.0
 11
112.5
 21
140.906769
 31
0.0
  0
LINE
  8
0
  6
CONTINUOUS
 62
   249
 10
112.5
 20
139.101912
 30
0.0
 11
111.206597
 21
140.0
 31
0.0
  0
LINE
  8
0
  6
CONTINUOUS
 62
   249
 10
116.206597
 20
140.0
 30
0.0
 11
117.5
 21
140.906769
 31
0.0
  0
LINE
  8
0
  6
CONTINUOUS
 62
   249
 10
117.5
 20
139.101912
 30
0.0
 11
116.206597
 21
140.0
 31
0.0
  0
LINE
  8
0
  6
CONTINUOUS
 62
   249
 10
121.206597
 20
140.0
 30
0.0
 11
122.5
 21
140.906769
 31
0.0
  0
LINE
  8
0
  6
CONTINUOUS
 62
   249
 10
122.5
 20
139.101912
 30
0.0
 11
121.206597
 21
140.0
 31
0.0
  0
LINE
  8
0
  6
CONTINUOUS
 62
   249
 10
105.0
 20
140.0
 30
0.0
 11
122.5
 21
140.0
 31
0.0
  0
LINE
  8
0
  6
CONTINUOUS
 62
   249
 10
108.205241
 20
134.351524
 30
0.0
 11
111.805243
 21
134.351524
 31
0.0
  0
LINE
  8
0
  6
CONTINUOUS
 62
   249
 10
118.205184
 20
130.690977
 30
0.0
 11
121.8053
 21
130.690977
 31
0.0
  0
LINE
  8
0
  6
CONTINUOUS
 62
   249
 10
107.5
 20
142.5
 30
0.0
 11
107.5
 21
135.052445
 31
0.0
  0
LINE
  8
0
  6
CONTINUOUS
 62
   249
 10
112.5
 20
142.5
 30
0.0
 11
112.5
 21
135.052445
 31
0.0
  0
CIRCLE
  8
0
  6
CONTINUOUS
 62
   249
 10
107.505242
 20
134.352465
 30
0.0
 40
0.7
  0
CIRCLE
  8
0
  6
CONTINUOUS
 62
   249
 10
112.505242
 20
134.352465
 30
0.0
 40
0.7
  0
LINE
  8
0
  6
CONTINUOUS
 62
   249
 10
117.5
 20
142.5
 30
0.0
 11
117.5
 21
131.399961
 31
0.0
  0
LINE
  8
0
  6
CONTINUOUS
 62
   249
 10
122.5
 20
142.5
 30
0.0
 11
122.5
 21
131.399961
 31
0.0
  0
CIRCLE
  8
0
  6
CONTINUOUS
 62
   249
 10
117.505242
 20
130.69998
 30
0.0
 40
0.7
  0
LINE
  8
0
  6
CONTINUOUS
 62
   249
 10
117.5
 20
127.5
 30
0.0
 11
117.5
 21
130.0
 31
0.0
  0
LINE
  8
0
  6
CONTINUOUS
 62
   249
 10
122.5
 20
127.5
 30
0.0
 11
122.5
 21
130.0
 31
0.0
  0
CIRCLE
  8
0
  6
CONTINUOUS
 62
   249
 10
122.505242
 20
130.69998
 30
0.0
 40
0.7
  0
LINE
  8
0
  6
CONTINUOUS
 62
   249
 10
172.5
 20
135.0
 30
0.0
 11
172.5
 21
167.5
 31
0.0
  0
LINE
  8
0
  6
CONTINUOUS
 62
   249
 10
167.5
 20
135.0
 30
0.0
 11
167.5
 21
177.5
 31
0.0
  0
LINE
  8
0
  6
CONTINUOUS
 62
   249
 10
162.5
 20
135.0
 30
0.0
 11
162.5
 21
187.5
 31
0.0
  0
LINE
  8
0
  6
CONTINUOUS
 62
   249
 10
157.5
 20
135.0
 30
0.0
 11
157.5
 21
197.5
 31
0.0
  0
LINE
  8
0
  6
CONTINUOUS
 62
   249
 10
145.0
 20
135.0
 30
0.0
 11
145.0
 21
177.5
 31
0.0
  0
LINE
  8
0
  6
CONTINUOUS
 62
   249
 10
140.0
 20
135.0
 30
0.0
 11
140.0
 21
187.5
 31
0.0
  0
LINE
  8
0
  6
CONTINUOUS
 62
   249
 10
135.0
 20
135.0
 30
0.0
 11
135.0
 21
197.5
 31
0.0
  0
LINE
  8
0
  6
CONTINUOUS
 62
   249
 10
130.0
 20
135.0
 30
0.0
 11
130.0
 21
192.5
 31
0.0
  0
LINE
  8
0
  6
CONTINUOUS
 62
   249
 10
207.5
 20
135.0
 30
0.0
 11
207.5
 21
202.5
 31
0.0
  0
LINE
  8
0
  6
CONTINUOUS
 62
   249
 10
212.5
 20
135.0
 30
0.0
 11
212.5
 21
197.5
 31
0.0
  0
LINE
  8
0
  6
CONTINUOUS
 62
   249
 10
217.5
 20
135.0
 30
0.0
 11
217.5
 21
192.5
 31
0.0
  0
LINE
  8
0
  6
CONTINUOUS
 62
   249
 10
222.5
 20
135.0
 30
0.0
 11
222.5
 21
187.5
 31
0.0
  0
LINE
  8
0
  6
CONTINUOUS
 62
   249
 10
227.5
 20
135.0
 30
0.0
 11
227.5
 21
182.5
 31
0.0
  0
LINE
  8
0
  6
CONTINUOUS
 62
   249
 10
232.5
 20
135.0
 30
0.0
 11
232.5
 21
177.5
 31
0.0
  0
LINE
  8
0
  6
CONTINUOUS
 62
   249
 10
237.5
 20
135.0
 30
0.0
 11
237.5
 21
172.5
 31
0.0
  0
LINE
  8
0
  6
CONTINUOUS
 62
   249
 10
242.5
 20
135.0
 30
0.0
 11
242.5
 21
167.5
 31
0.0
  0
LINE
  8
0
  6
CONTINUOUS
 62
   249
 10
180.0
 20
202.5
 30
0.0
 11
180.0
 21
135.0
 31
0.0
  0
LINE
  8
0
  6
CONTINUOUS
 62
   249
 10
285.0
 20
202.5
 30
0.0
 11
180.0
 21
202.5
 31
0.0
  0
LINE
  8
0
  6
CONTINUOUS
 62
   249
 10
107.5
 20
197.5
 30
0.0
 11
107.5
 21
147.5
 31
0.0
  0
LINE
  8
0
  6
CONTINUOUS
 62
   249
 10
185.0
 20
192.5
 30
0.0
 11
185.0
 21
135.0
 31
0.0
  0
LINE
  8
0
  6
CONTINUOUS
 62
   249
 10
112.5
 20
187.5
 30
0.0
 11
112.5
 21
147.5
 31
0.0
  0
LINE
  8
0
  6
CONTINUOUS
 62
   249
 10
190.0
 20
182.5
 30
0.0
 11
190.0
 21
135.0
 31
0.0
  0
LINE
  8
0
  6
CONTINUOUS
 62
   249
 10
117.5
 20
177.5
 30
0.0
 11
117.5
 21
147.5
 31
0.0
  0
LINE
  8
0
  6
CONTINUOUS
 62
   249
 10
195.0
 20
172.5
 30
0.0
 11
195.0
 21
135.0
 31
0.0
  0
LINE
  8
0
  6
CONTINUOUS
 62
   249
 10
122.5
 20
167.5
 30
0.0
 11
122.5
 21
147.5
 31
0.0
  0
LINE
  8
0
  6
CONTINUOUS
 62
   249
 10
242.5
 20
135.0
 30
0.0
 11
242.5
 21
135.0
 31
0.0
  0
LINE
  8
0
  6
CONTINUOUS
 62
   249
 10
242.5
 20
132.5
 30
0.0
 11
242.5
 21
135.0
 31
0.0
  0
LINE
  8
0
  6
CONTINUOUS
 62
   249
 10
237.5
 20
132.5
 30
0.0
 11
237.5
 21
135.0
 31
0.0
  0
LINE
  8
0
  6
CONTINUOUS
 62
   249
 10
232.5
 20
132.5
 30
0.0
 11
232.5
 21
135.0
 31
0.0
  0
LINE
  8
0
  6
CONTINUOUS
 62
   249
 10
227.5
 20
132.5
 30
0.0
 11
227.5
 21
135.0
 31
0.0
  0
LINE
  8
0
  6
CONTINUOUS
 62
   249
 10
222.5
 20
132.5
 30
0.0
 11
222.5
 21
135.0
 31
0.0
  0
LINE
  8
0
  6
CONTINUOUS
 62
   249
 10
217.5
 20
132.5
 30
0.0
 11
217.5
 21
135.0
 31
0.0
  0
LINE
  8
0
  6
CONTINUOUS
 62
   249
 10
212.5
 20
132.5
 30
0.0
 11
212.5
 21
135.0
 31
0.0
  0
LINE
  8
0
  6
CONTINUOUS
 62
   249
 10
207.5
 20
132.5
 30
0.0
 11
207.5
 21
135.0
 31
0.0
  0
LINE
  8
0
  6
CONTINUOUS
 62
   249
 10
202.5
 20
127.5
 30
0.0
 11
202.5
 21
135.0
 31
0.0
  0
LINE
  8
0
  6
CONTINUOUS
 62
   249
 10
242.5
 20
127.5
 30
0.0
 11
240.78221
 21
132.514966
 31
0.0
  0
LINE
  8
0
  6
CONTINUOUS
 62
   249
 10
237.5
 20
127.5
 30
0.0
 11
235.78221
 21
132.514966
 31
0.0
  0
LINE
  8
0
  6
CONTINUOUS
 62
   249
 10
232.5
 20
127.5
 30
0.0
 11
230.78221
 21
132.514966
 31
0.0
  0
LINE
  8
0
  6
CONTINUOUS
 62
   249
 10
227.5
 20
127.5
 30
0.0
 11
225.78221
 21
132.514966
 31
0.0
  0
LINE
  8
0
  6
CONTINUOUS
 62
   249
 10
222.5
 20
127.5
 30
0.0
 11
220.78221
 21
132.514966
 31
0.0
  0
LINE
  8
0
  6
CONTINUOUS
 62
   249
 10
217.5
 20
127.5
 30
0.0
 11
215.78221
 21
132.514966
 31
0.0
  0
LINE
  8
0
  6
CONTINUOUS
 62
   249
 10
212.5
 20
127.5
 30
0.0
 11
210.78221
 21
132.514966
 31
0.0
  0
LINE
  8
0
  6
CONTINUOUS
 62
   249
 10
207.5
 20
127.5
 30
0.0
 11
205.78221
 21
132.514966
 31
0.0
  0
LINE
  8
0
  6
CONTINUOUS
 62
   249
 10
242.5
 20
125.0
 30
0.0
 11
242.5
 21
127.5
 31
0.0
  0
LINE
  8
0
  6
CONTINUOUS
 62
   249
 10
237.5
 20
125.0
 30
0.0
 11
237.5
 21
127.5
 31
0.0
  0
LINE
  8
0
  6
CONTINUOUS
 62
   249
 10
232.5
 20
125.0
 30
0.0
 11
232.5
 21
127.5
 31
0.0
  0
LINE
  8
0
  6
CONTINUOUS
 62
   249
 10
227.5
 20
125.0
 30
0.0
 11
227.5
 21
127.5
 31
0.0
  0
LINE
  8
0
  6
CONTINUOUS
 62
   249
 10
222.5
 20
125.0
 30
0.0
 11
222.5
 21
127.5
 31
0.0
  0
LINE
  8
0
  6
CONTINUOUS
 62
   249
 10
217.5
 20
125.0
 30
0.0
 11
217.5
 21
127.5
 31
0.0
  0
LINE
  8
0
  6
CONTINUOUS
 62
   249
 10
212.5
 20
125.0
 30
0.0
 11
212.5
 21
127.5
 31
0.0
  0
LINE
  8
0
  6
CONTINUOUS
 62
   249
 10
207.5
 20
125.0
 30
0.0
 11
207.5
 21
127.5
 31
0.0
  0
LINE
  8
0
  6
CONTINUOUS
 62
   249
 10
202.5
 20
125.0
 30
0.0
 11
202.5
 21
127.5
 31
0.0
  0
TEXT
  8
0
  6
CONTINUOUS
 62
   249
 10
222.719732
 20
121.464455
 30
0.0
 40
2.5
  1
1
 11
222.719732
 21
120.631122
 31
0.0
 73
     1
  0
LINE
  8
0
  6
CONTINUOUS
 62
   249
 10
218.28587
 20
124.124549
 30
0.0
 11
220.631635
 21
122.789195
 31
0.0
  0
LINE
  8
0
  6
CONTINUOUS
 62
   249
 10
220.631635
 20
122.789195
 30
0.0
 11
218.28587
 21
121.599276
 31
0.0
  0
LINE
  8
0
  6
CONTINUOUS
 62
   249
 10
218.277828
 20
120.799262
 30
0.0
 11
220.661289
 21
121.987454
 31
0.0
  0
LINE
  8
0
  6
CONTINUOUS
 62
   249
 10
245.0
 20
125.0
 30
0.0
 11
200.0
 21
125.0
 31
0.0
  0
LINE
  8
0
  6
CONTINUOUS
 62
   249
 10
245.0
 20
120.0
 30
0.0
 11
245.0
 21
125.0
 31
0.0
  0
LINE
  8
0
  6
CONTINUOUS
 62
   249
 10
200.0
 20
120.0
 30
0.0
 11
245.0
 21
120.0
 31
0.0
  0
LINE
  8
0
  6
CONTINUOUS
 62
   249
 10
200.0
 20
125.0
 30
0.0
 11
200.0
 21
120.0
 31
0.0
  0
LINE
  8
0
  6
CONTINUOUS
 62
   249
 10
107.5
 20
125.0
 30
0.0
 11
107.5
 21
133.652485
 31
0.0
  0
LINE
  8
0
  6
CONTINUOUS
 62
   249
 10
105.0
 20
125.0
 30
0.0
 11
105.0
 21
120.0
 31
0.0
  0
LINE
  8
0
  6
CONTINUOUS
 62
   249
 10
105.0
 20
120.0
 30
0.0
 11
125.0
 21
120.0
 31
0.0
  0
LINE
  8
0
  6
CONTINUOUS
 62
   249
 10
125.0
 20
120.0
 30
0.0
 11
125.0
 21
125.0
 31
0.0
  0
LINE
  8
0
  6
CONTINUOUS
 62
   249
 10
125.0
 20
125.0
 30
0.0
 11
105.0
 21
125.0
 31
0.0
  0
LINE
  8
0
  6
CONTINUOUS
 62
   249
 10
112.5
 20
125.0
 30
0.0
 11
112.5
 21
133.652485
 31
0.0
  0
LINE
  8
0
  6
CONTINUOUS
 62
   249
 10
117.5
 20
125.0
 30
0.0
 11
117.5
 21
127.5
 31
0.0
  0
LINE
  8
0
  6
CONTINUOUS
 62
   249
 10
122.5
 20
125.0
 30
0.0
 11
122.5
 21
127.5
 31
0.0
  0
LINE
  8
0
  6
CONTINUOUS
 62
   249
 10
115.0
 20
120.0
 30
0.0
 11
115.0
 21
117.5
 31
0.0
  0
LINE
  8
0
  6
CONTINUOUS
 62
   249
 10
116.24635
 20
122.789195
 30
0.0
 11
113.900585
 21
121.599276
 31
0.0
  0
LINE
  8
0
  6
CONTINUOUS
 62
   249
 10
113.892543
 20
120.799262
 30
0.0
 11
116.276004
 21
121.987454
 31
0.0
  0
LINE
  8
0
  6
CONTINUOUS
 62
   249
 10
113.900585
 20
124.124549
 30
0.0
 11
116.24635
 21
122.789195
 31
0.0
  0
TEXT
  8
0
  6
CONTINUOUS
 62
   249
 10
118.334447
 20
121.464455
 30
0.0
 40
2.5
  1
1
 11
118.334447
 21
120.631122
 31
0.0
 73
     1
  0
TEXT
  8
0
  6
CONTINUOUS
 62
   249
 10
189.471678
 20
121.464455
 30
0.0
 40
2.5
  1
1
 11
189.471678
 21
120.631122
 31
0.0
 73
     1
  0
LINE
  8
0
  6
CONTINUOUS
 62
   249
 10
185.037816
 20
124.124549
 30
0.0
 11
187.383582
 21
122.789195
 31
0.0
  0
LINE
  8
0
  6
CONTINUOUS
 62
   249
 10
185.029775
 20
120.799262
 30
0.0
 11
187.413235
 21
121.987454
 31
0.0
  0
LINE
  8
0
  6
CONTINUOUS
 62
   249
 10
187.383582
 20
122.789195
 30
0.0
 11
185.037816
 21
121.599276
 31
0.0
  0
LINE
  8
0
  6
CONTINUOUS
 62
   249
 10
180.0
 20
127.5
 30
0.0
 11
178.28221
 21
132.514966
 31
0.0
  0
LINE
  8
0
  6
CONTINUOUS
 62
   249
 10
185.0
 20
127.5
 30
0.0
 11
183.28221
 21
132.514966
 31
0.0
  0
LINE
  8
0
  6
CONTINUOUS
 62
   249
 10
190.0
 20
127.5
 30
0.0
 11
188.28221
 21
132.514966
 31
0.0
  0
LINE
  8
0
  6
CONTINUOUS
 62
   249
 10
195.0
 20
127.5
 30
0.0
 11
193.28221
 21
132.514966
 31
0.0
  0
LINE
  8
0
  6
CONTINUOUS
 62
   249
 10
180.0
 20
132.5
 30
0.0
 11
180.0
 21
135.0
 31
0.0
  0
LINE
  8
0
  6
CONTINUOUS
 62
   249
 10
185.0
 20
132.5
 30
0.0
 11
185.0
 21
135.0
 31
0.0
  0
LINE
  8
0
  6
CONTINUOUS
 62
   249
 10
190.0
 20
132.5
 30
0.0
 11
190.0
 21
135.0
 31
0.0
  0
LINE
  8
0
  6
CONTINUOUS
 62
   249
 10
195.0
 20
132.5
 30
0.0
 11
195.0
 21
135.0
 31
0.0
  0
LINE
  8
0
  6
CONTINUOUS
 62
   249
 10
187.5
 20
120.0
 30
0.0
 11
187.5
 21
117.5
 31
0.0
  0
LINE
  8
0
  6
CONTINUOUS
 62
   249
 10
195.0
 20
125.0
 30
0.0
 11
195.0
 21
127.5
 31
0.0
  0
LINE
  8
0
  6
CONTINUOUS
 62
   249
 10
190.0
 20
125.0
 30
0.0
 11
190.0
 21
127.5
 31
0.0
  0
LINE
  8
0
  6
CONTINUOUS
 62
   249
 10
185.0
 20
125.0
 30
0.0
 11
185.0
 21
127.5
 31
0.0
  0
LINE
  8
0
  6
CONTINUOUS
 62
   249
 10
180.0
 20
125.0
 30
0.0
 11
180.0
 21
127.5
 31
0.0
  0
LINE
  8
0
  6
CONTINUOUS
 62
   249
 10
197.5
 20
125.0
 30
0.0
 11
177.5
 21
125.0
 31
0.0
  0
LINE
  8
0
  6
CONTINUOUS
 62
   249
 10
197.5
 20
120.0
 30
0.0
 11
197.5
 21
125.0
 31
0.0
  0
LINE
  8
0
  6
CONTINUOUS
 62
   249
 10
177.5
 20
120.0
 30
0.0
 11
197.5
 21
120.0
 31
0.0
  0
LINE
  8
0
  6
CONTINUOUS
 62
   249
 10
177.5
 20
125.0
 30
0.0
 11
177.5
 21
120.0
 31
0.0
  0
LINE
  8
0
  6
CONTINUOUS
 62
   249
 10
155.0
 20
125.0
 30
0.0
 11
155.0
 21
120.0
 31
0.0
  0
LINE
  8
0
  6
CONTINUOUS
 62
   249
 10
155.0
 20
120.0
 30
0.0
 11
175.0
 21
120.0
 31
0.0
  0
LINE
  8
0
  6
CONTINUOUS
 62
   249
 10
175.0
 20
120.0
 30
0.0
 11
175.0
 21
125.0
 31
0.0
  0
LINE
  8
0
  6
CONTINUOUS
 62
   249
 10
175.0
 20
125.0
 30
0.0
 11
155.0
 21
125.0
 31
0.0
  0
LINE
  8
0
  6
CONTINUOUS
 62
   249
 10
157.5
 20
125.0
 30
0.0
 11
157.5
 21
127.5
 31
0.0
  0
LINE
  8
0
  6
CONTINUOUS
 62
   249
 10
162.5
 20
125.0
 30
0.0
 11
162.5
 21
127.5
 31
0.0
  0
LINE
  8
0
  6
CONTINUOUS
 62
   249
 10
167.5
 20
125.0
 30
0.0
 11
167.5
 21
127.5
 31
0.0
  0
LINE
  8
0
  6
CONTINUOUS
 62
   249
 10
172.5
 20
125.0
 30
0.0
 11
172.5
 21
127.5
 31
0.0
  0
LINE
  8
0
  6
CONTINUOUS
 62
   249
 10
165.0
 20
120.0
 30
0.0
 11
165.0
 21
117.5
 31
0.0
  0
LINE
  8
0
  6
CONTINUOUS
 62
   249
 10
172.5
 20
132.5
 30
0.0
 11
172.5
 21
135.0
 31
0.0
  0
LINE
  8
0
  6
CONTINUOUS
 62
   249
 10
167.5
 20
132.5
 30
0.0
 11
167.5
 21
135.0
 31
0.0
  0
LINE
  8
0
  6
CONTINUOUS
 62
   249
 10
162.5
 20
132.5
 30
0.0
 11
162.5
 21
135.0
 31
0.0
  0
LINE
  8
0
  6
CONTINUOUS
 62
   249
 10
157.5
 20
132.5
 30
0.0
 11
157.5
 21
135.0
 31
0.0
  0
LINE
  8
0
  6
CONTINUOUS
 62
   249
 10
172.5
 20
127.5
 30
0.0
 11
170.78221
 21
132.514966
 31
0.0
  0
LINE
  8
0
  6
CONTINUOUS
 62
   249
 10
167.5
 20
127.5
 30
0.0
 11
165.78221
 21
132.514966
 31
0.0
  0
LINE
  8
0
  6
CONTINUOUS
 62
   249
 10
162.5
 20
127.5
 30
0.0
 11
160.78221
 21
132.514966
 31
0.0
  0
LINE
  8
0
  6
CONTINUOUS
 62
   249
 10
157.5
 20
127.5
 30
0.0
 11
155.78221
 21
132.514966
 31
0.0
  0
LINE
  8
0
  6
CONTINUOUS
 62
   249
 10
166.24635
 20
122.789195
 30
0.0
 11
163.900585
 21
121.599276
 31
0.0
  0
LINE
  8
0
  6
CONTINUOUS
 62
   249
 10
163.892543
 20
120.799262
 30
0.0
 11
166.276004
 21
121.987454
 31
0.0
  0
LINE
  8
0
  6
CONTINUOUS
 62
   249
 10
163.900585
 20
124.124549
 30
0.0
 11
166.24635
 21
122.789195
 31
0.0
  0
TEXT
  8
0
  6
CONTINUOUS
 62
   249
 10
168.334447
 20
121.464455
 30
0.0
 40
2.5
  1
1
 11
168.334447
 21
120.631122
 31
0.0
 73
     1
  0
LINE
  8
0
  6
CONTINUOUS
 62
   249
 10
130.0
 20
127.5
 30
0.0
 11
128.28221
 21
132.514966
 31
0.0
  0
LINE
  8
0
  6
CONTINUOUS
 62
   249
 10
135.0
 20
127.5
 30
0.0
 11
133.28221
 21
132.514966
 31
0.0
  0
LINE
  8
0
  6
CONTINUOUS
 62
   249
 10
140.0
 20
127.5
 30
0.0
 11
138.28221
 21
132.514966
 31
0.0
  0
LINE
  8
0
  6
CONTINUOUS
 62
   249
 10
145.0
 20
127.5
 30
0.0
 11
143.28221
 21
132.514966
 31
0.0
  0
LINE
  8
0
  6
CONTINUOUS
 62
   249
 10
130.0
 20
132.5
 30
0.0
 11
130.0
 21
135.0
 31
0.0
  0
LINE
  8
0
  6
CONTINUOUS
 62
   249
 10
135.0
 20
132.5
 30
0.0
 11
135.0
 21
135.0
 31
0.0
  0
LINE
  8
0
  6
CONTINUOUS
 62
   249
 10
140.0
 20
132.5
 30
0.0
 11
140.0
 21
135.0
 31
0.0
  0
LINE
  8
0
  6
CONTINUOUS
 62
   249
 10
145.0
 20
132.5
 30
0.0
 11
145.0
 21
135.0
 31
0.0
  0
LINE
  8
0
  6
CONTINUOUS
 62
   249
 10
140.0
 20
120.0
 30
0.0
 11
140.0
 21
117.5
 31
0.0
  0
LINE
  8
0
  6
CONTINUOUS
 62
   249
 10
145.0
 20
125.0
 30
0.0
 11
145.0
 21
127.5
 31
0.0
  0
LINE
  8
0
  6
CONTINUOUS
 62
   249
 10
140.0
 20
125.0
 30
0.0
 11
140.0
 21
127.5
 31
0.0
  0
LINE
  8
0
  6
CONTINUOUS
 62
   249
 10
135.0
 20
125.0
 30
0.0
 11
135.0
 21
127.5
 31
0.0
  0
LINE
  8
0
  6
CONTINUOUS
 62
   249
 10
130.0
 20
125.0
 30
0.0
 11
130.0
 21
127.5
 31
0.0
  0
LINE
  8
0
  6
CONTINUOUS
 62
   249
 10
152.5
 20
125.0
 30
0.0
 11
127.5
 21
125.0
 31
0.0
  0
LINE
  8
0
  6
CONTINUOUS
 62
   249
 10
152.5
 20
120.0
 30
0.0
 11
152.5
 21
125.0
 31
0.0
  0
LINE
  8
0
  6
CONTINUOUS
 62
   249
 10
127.5
 20
120.0
 30
0.0
 11
152.5
 21
120.0
 31
0.0
  0
LINE
  8
0
  6
CONTINUOUS
 62
   249
 10
127.5
 20
125.0
 30
0.0
 11
127.5
 21
120.0
 31
0.0
  0
TEXT
  8
0
  6
CONTINUOUS
 62
   249
 10
380.0
 20
2.5
 30
0.0
 40
2.5
  1
B
  7
ROMANS
  0
TEXT
  8
0
  6
CONTINUOUS
 62
   249
 10
56.819673
 20
1.001384
 30
0.0
 40
2.0
  1
REDRAWN WITH AUTOCAD 1993-03-10  KM / RITU Power
  7
ROMANS
  0
TEXT
  8
0
  6
DASHED
 62
   249
 10
292.217194
 20
11.813359
 30
0.0
 40
3.0
  1
A3
  7
GREEKS
  0
TEXT
  8
0
  6
DASHED
 62
   249
 10
351.818577
 20
15.69253
 30
0.0
 40
1.4
  1
LEHTI SHEET
  7
GREEKS
  0
LINE
  8
0
 62
   249
 10
0.237099
 20
262.737999
 30
0.0
 11
392.237099
 21
262.737999
 31
0.0
  0
LINE
  8
0
 62
   249
 10
18.237099
 20
0.237999
 30
0.0
 11
0.237099
 21
0.237999
 31
0.0
  0
LINE
  8
0
 62
   249
 10
209.237099
 20
0.237999
 30
0.0
 11
392.237099
 21
0.237999
 31
0.0
  0
LINE
  8
0
 62
   249
 10
209.237099
 20
0.237999
 30
0.0
 11
209.237099
 21
35.237999
 31
0.0
  0
LINE
  8
0
 62
   249
 10
392.237099
 20
0.237999
 30
0.0
 11
392.237099
 21
35.237999
 31
0.0
  0
LINE
  8
0
 62
   249
 10
209.237099
 20
18.237999
 30
0.0
 11
392.237099
 21
18.237999
 31
0.0
  0
LINE
  8
0
 62
   249
 10
209.237099
 20
9.737999
 30
0.0
 11
392.237099
 21
9.737999
 31
0.0
  0
LINE
  8
0
 62
   249
 10
209.237099
 20
26.737999
 30
0.0
 11
307.237099
 21
26.737999
 31
0.0
  0
LINE
  8
0
 62
   249
 10
209.237099
 20
35.237999
 30
0.0
 11
392.237099
 21
35.237999
 31
0.0
  0
TEXT
  8
0
 62
   249
 10
210.237099
 20
23.971333
 30
0.0
 40
1.4
  1
TARKASTI  CHECKED
  7
ROMANS
  0
TEXT
  8
0
 62
   249
 10
209.979934
 20
15.704666
 30
0.0
 40
1.4
  1
HYVÄKSYI  APPROVED
  7
ROMANS
  0
LINE
  8
0
 62
   249
 10
307.237099
 20
0.237999
 30
0.0
 11
307.237099
 21
35.237999
 31
0.0
  0
TEXT
  8
0
 62
   249
 10
259.237099
 20
32.737999
 30
0.0
 40
1.4
  1
LIITTYY  CONCERNING
  7
ROMANS
  0
TEXT
  8
0
 62
   249
 10
259.237099
 20
23.737999
 30
0.0
 40
1.4
  1
TOLERANSSIT  TOLERANCES
  7
ROMANS
  0
TEXT
  8
0
 62
   249
 10
259.237099
 20
15.737999
 30
0.0
 40
1.4
  1
SUHDE  SCALE
  7
ROMANS
  0
TEXT
  8
0
 62
   249
 10
309.237099
 20
32.737999
 30
0.0
 40
1.4
  1
NIMITYS  NAME
  7
ROMANS
  0
TEXT
  8
0
 62
   249
 10
309.237099
 20
15.737999
 30
0.0
 40
1.4
  1
KOODI  CODE
  7
ROMANS
  0
TEXT
  8
0
 62
   249
 10
309.237099
 20
7.237999
 30
0.0
 40
1.4
  1
PIIRUSTUS NO  DRAWING NR
  7
ROMANS
  0
LINE
  8
0
 62
   249
 10
349.737099
 20
9.737999
 30
0.0
 11
349.737099
 21
18.237999
 31
0.0
  0
TEXT
  8
0
 62
   249
 10
371.237099
 20
7.237999
 30
0.0
 40
1.4
  1
PAINOS  REVISION
  7
ROMANS
  0
LINE
  8
0
 62
   249
 10
369.737099
 20
9.737999
 30
0.0
 11
369.737099
 21
0.237999
 31
0.0
  0
LINE
  8
0
 62
   249
 10
210.187099
 20
1.737999
 30
0.0
 11
211.937099
 21
1.737999
 31
0.0
  0
LINE
  8
0
 62
   249
 10
215.437099
 20
1.737999
 30
0.0
 11
217.187099
 21
1.737999
 31
0.0
  0
LINE
  8
0
 62
   249
 10
212.637099
 20
8.737999
 30
0.0
 11
211.459571
 21
5.373634
 31
0.0
  0
LINE
  8
0
 62
   249
 10
212.425886
 20
3.137999
 30
0.0
 11
213.547099
 21
3.137999
 31
0.0
  0
LINE
  8
0
 62
   249
 10
212.425889
 20
3.134542
 30
0.0
 11
211.937099
 21
1.737999
 31
0.0
  0
LINE
  8
0
 62
   249
 10
214.737099
 20
8.737999
 30
0.0
 11
215.913452
 21
5.376991
 31
0.0
  0
LINE
  8
0
 62
   249
 10
214.948197
 20
3.134863
 30
0.0
 11
215.437099
 21
1.737999
 31
0.0
  0
LINE
  8
0
 62
   249
 10
214.737099
 20
8.737999
 30
0.0
 11
213.827099
 21
8.737999
 31
0.0
  0
LINE
  8
0
 62
   249
 10
213.547099
 20
8.737999
 30
0.0
 11
213.547099
 21
5.377999
 31
0.0
  0
LINE
  8
0
 62
   249
 10
213.827099
 20
8.737999
 30
0.0
 11
213.827099
 21
5.377999
 31
0.0
  0
LINE
  8
0
 62
   249
 10
213.827099
 20
3.137999
 30
0.0
 11
214.946992
 21
3.137999
 31
0.0
  0
LINE
  8
0
 62
   249
 10
213.547099
 20
8.737999
 30
0.0
 11
212.637099
 21
8.737999
 31
0.0
  0
LINE
  8
0
 62
   249
 10
211.45904
 20
5.377999
 30
0.0
 11
213.547099
 21
5.377999
 31
0.0
  0
LINE
  8
0
 62
   249
 10
211.360082
 20
5.097999
 30
0.0
 11
213.547099
 21
5.097999
 31
0.0
  0
LINE
  8
0
 62
   249
 10
216.011591
 20
5.096594
 30
0.0
 11
217.187099
 21
1.737999
 31
0.0
  0
LINE
  8
0
 62
   249
 10
213.827099
 20
5.377999
 30
0.0
 11
215.912213
 21
5.377999
 31
0.0
  0
LINE
  8
0
 62
   249
 10
213.827099
 20
5.097999
 30
0.0
 11
216.010356
 21
5.097999
 31
0.0
  0
LINE
  8
0
 62
   249
 10
213.827099
 20
5.097999
 30
0.0
 11
213.827099
 21
3.137999
 31
0.0
  0
LINE
  8
0
 62
   249
 10
213.547099
 20
5.097999
 30
0.0
 11
213.547099
 21
3.137999
 31
0.0
  0
LINE
  8
0
 62
   249
 10
211.356988
 20
5.080538
 30
0.0
 11
210.187099
 21
1.737999
 31
0.0
  0
INSERT
  8
0
 62
   249
  2
*X13
 10
210.187099
 20
1.737999
 30
0.0
 41
0.7
 42
0.7
 43
0.7
  0
INSERT
  8
0
 62
   249
  2
*X14
 10
210.187099
 20
1.737999
 30
0.0
 41
0.7
 42
0.7
 43
0.7
  0
INSERT
  8
0
 62
   249
  2
*X15
 10
210.187099
 20
1.737999
 30
0.0
 41
0.7
 42
0.7
 43
0.7
  0
INSERT
  8
0
 62
   249
  2
*X16
 10
210.187099
 20
1.737999
 30
0.0
 41
0.7
 42
0.7
 43
0.7
  0
LINE
  8
0
 62
   249
 10
217.677099
 20
1.737999
 30
0.0
 11
217.677099
 21
5.097999
 31
0.0
  0
LINE
  8
0
 62
   249
 10
217.677099
 20
8.737999
 30
0.0
 11
219.637099
 21
8.737999
 31
0.0
  0
LINE
  8
0
 62
   249
 10
219.637099
 20
8.737999
 30
0.0
 11
219.637099
 21
5.377999
 31
0.0
  0
LINE
  8
0
 62
   249
 10
219.637099
 20
5.377999
 30
0.0
 11
217.677099
 21
5.377999
 31
0.0
  0
LINE
  8
0
 62
   249
 10
217.677099
 20
5.097999
 30
0.0
 11
219.637099
 21
5.097999
 31
0.0
  0
LINE
  8
0
 62
   249
 10
219.637099
 20
5.097999
 30
0.0
 11
219.637099
 21
1.737999
 31
0.0
  0
LINE
  8
0
 62
   249
 10
219.637099
 20
1.737999
 30
0.0
 11
217.677099
 21
1.737999
 31
0.0
  0
LINE
  8
0
 62
   249
 10
217.677099
 20
5.377999
 30
0.0
 11
217.677099
 21
8.737999
 31
0.0
  0
ARC
  8
0
 62
   249
 10
220.477099
 20
7.162999
 30
0.0
 40
1.575
 50
298.455859
 51
90.052437
  0
LINE
  8
0
 62
   249
 10
219.917099
 20
8.737999
 30
0.0
 11
220.475658
 21
8.737999
 31
0.0
  0
LINE
  8
0
 62
   249
 10
219.917099
 20
8.737999
 30
0.0
 11
219.917099
 21
5.377999
 31
0.0
  0
LINE
  8
0
 62
   249
 10
219.917099
 20
5.377999
 30
0.0
 11
221.901542
 21
5.377999
 31
0.0
  0
LINE
  8
0
 62
   249
 10
222.157099
 20
5.097999
 30
0.0
 11
219.917099
 21
5.097999
 31
0.0
  0
LINE
  8
0
 62
   249
 10
219.917099
 20
5.097999
 30
0.0
 11
219.917099
 21
1.737999
 31
0.0
  0
ARC
  8
0
 62
   249
 10
220.477099
 20
3.837999
 30
0.0
 40
2.1
 50
269.937724
 51
37.056553
  0
LINE
  8
0
 62
   249
 10
219.917099
 20
1.737999
 30
0.0
 11
220.474817
 21
1.738
 31
0.0
  0
ARC
  8
0
 62
   249
 10
220.477099
 20
3.837999
 30
0.0
 40
2.1
 50
47.28622
 51
68.787999
  0
INSERT
  8
0
 62
   249
  2
*X17
 10
210.187099
 20
1.737999
 30
0.0
 41
0.7
 42
0.7
 43
0.7
  0
INSERT
  8
0
 62
   249
  2
*X18
 10
210.187099
 20
1.737999
 30
0.0
 41
0.7
 42
0.7
 43
0.7
  0
INSERT
  8
0
 62
   249
  2
*X19
 10
210.187099
 20
1.737999
 30
0.0
 41
0.7
 42
0.7
 43
0.7
  0
INSERT
  8
0
 62
   249
  2
*X20
 10
210.187099
 20
1.737999
 30
0.0
 41
0.7
 42
0.7
 43
0.7
  0
INSERT
  8
0
 62
   249
  2
*X20
 10
215.647099
 20
1.737999
 30
0.0
 41
0.7
 42
0.7
 43
0.7
  0
INSERT
  8
0
 62
   249
  2
*X19
 10
215.647099
 20
1.737999
 30
0.0
 41
0.7
 42
0.7
 43
0.7
  0
INSERT
  8
0
 62
   249
  2
*X18
 10
215.647099
 20
1.737999
 30
0.0
 41
0.7
 42
0.7
 43
0.7
  0
INSERT
  8
0
 62
   249
  2
*X17
 10
215.647099
 20
1.737999
 30
0.0
 41
0.7
 42
0.7
 43
0.7
  0
ARC
  8
0
 62
   249
 10
225.937099
 20
3.837999
 30
0.0
 40
2.1
 50
47.28622
 51
68.787999
  0
LINE
  8
0
 62
   249
 10
225.377099
 20
1.737999
 30
0.0
 11
225.934817
 21
1.738
 31
0.0
  0
ARC
  8
0
 62
   249
 10
225.937099
 20
3.837999
 30
0.0
 40
2.1
 50
269.937724
 51
37.056553
  0
LINE
  8
0
 62
   249
 10
225.377099
 20
5.097999
 30
0.0
 11
225.377099
 21
1.737999
 31
0.0
  0
LINE
  8
0
 62
   249
 10
227.617099
 20
5.097999
 30
0.0
 11
225.377099
 21
5.097999
 31
0.0
  0
LINE
  8
0
 62
   249
 10
225.377099
 20
5.377999
 30
0.0
 11
227.361542
 21
5.377999
 31
0.0
  0
LINE
  8
0
 62
   249
 10
225.377099
 20
8.737999
 30
0.0
 11
225.377099
 21
5.377999
 31
0.0
  0
LINE
  8
0
 62
   249
 10
225.377099
 20
8.737999
 30
0.0
 11
225.935658
 21
8.737999
 31
0.0
  0
ARC
  8
0
 62
   249
 10
225.937099
 20
7.162999
 30
0.0
 40
1.575
 50
298.455859
 51
90.052437
  0
LINE
  8
0
 62
   249
 10
223.137099
 20
5.377999
 30
0.0
 11
223.137099
 21
8.737999
 31
0.0
  0
LINE
  8
0
 62
   249
 10
225.097099
 20
1.737999
 30
0.0
 11
223.137099
 21
1.737999
 31
0.0
  0
LINE
  8
0
 62
   249
 10
225.097099
 20
5.097999
 30
0.0
 11
225.097099
 21
1.737999
 31
0.0
  0
LINE
  8
0
 62
   249
 10
223.137099
 20
5.097999
 30
0.0
 11
225.097099
 21
5.097999
 31
0.0
  0
LINE
  8
0
 62
   249
 10
225.097099
 20
5.377999
 30
0.0
 11
223.137099
 21
5.377999
 31
0.0
  0
LINE
  8
0
 62
   249
 10
225.097099
 20
8.737999
 30
0.0
 11
225.097099
 21
5.377999
 31
0.0
  0
LINE
  8
0
 62
   249
 10
223.137099
 20
8.737999
 30
0.0
 11
225.097099
 21
8.737999
 31
0.0
  0
LINE
  8
0
 62
   249
 10
223.137099
 20
1.737999
 30
0.0
 11
223.137099
 21
5.097999
 31
0.0
  0
TEXT
  8
0
 62
   249
 10
229.737099
 20
1.737999
 30
0.0
 40
3.0
  1
ABB 
 41
0.8
  7
ROMANS
  0
TEXT
  8
0
 62
   249
 10
237.737099
 20
1.737999
 30
0.0
 40
3.0
  1
Strömberg
 41
0.8
  7
ROMANS
  0
LINE
  8
0
 62
   249
 10
282.237099
 20
9.737999
 30
0.0
 11
282.237099
 21
18.237999
 31
0.0
  0
TEXT
  8
0
 62
   249
 10
27.737099
 20
4.737999
 30
0.0
 40
1.4
  1
MUUTOS
  7
ROMANS
  0
TEXT
  8
0
 62
   249
 10
27.737099
 20
2.471333
 30
0.0
 40
1.4
  1
REVISION
  7
ROMANS
  0
LINE
  8
0
 62
   249
 10
46.737099
 20
9.237999
 30
0.0
 11
209.237099
 21
9.237999
 31
0.0
  0
LINE
  8
0
 62
   249
 10
46.737099
 20
0.237999
 30
0.0
 11
46.737099
 21
9.237999
 31
0.0
  0
LINE
  8
0
 62
   249
 10
40.737099
 20
4.737999
 30
0.0
 11
209.237099
 21
4.737999
 31
0.0
  0
LINE
  8
0
 62
   249
 10
257.237099
 20
9.737999
 30
0.0
 11
257.237099
 21
35.237999
 31
0.0
  0
LINE
  8
0
 62
   249
 10
271.237099
 20
9.737999
 30
0.0
 11
271.237099
 21
0.237999
 31
0.0
  0
TEXT
  8
0
 62
   249
 10
210.237099
 20
32.237999
 30
0.0
 40
1.4
  1
TEKI  PREPARED
  7
ROMANS
  0
TEXT
  8
0
 62
   249
 10
273.237099
 20
7.237999
 30
0.0
 40
1.4
  1
VAST.OSASTO RESP.DEPT.
  7
ROMANS
  0
TEXT
  8
0
 62
   249
 10
257.407006
 20
1.741783
 30
0.0
 40
3.0
  1
Power
 41
0.8
  7
ROMANS
  0
TEXT
  8
0
 62
   249
 10
42.237099
 20
1.195292
 30
0.0
 40
2.5
  1
B
  7
ROMANS
  0
TEXT
  8
0
 62
   249
 10
42.237099
 20
5.587508
 30
0.0
 40
2.5
  1
C
  7
ROMANS
  0
LINE
  8
0
 62
   249
 10
0.237099
 20
0.237999
 30
0.0
 11
392.237099
 21
0.237999
 31
0.0
  0
LINE
  8
0
 62
   249
 10
392.237099
 20
262.737999
 30
0.0
 11
392.237099
 21
0.237999
 31
0.0
  0
LINE
  8
0
 62
   249
 10
0.237099
 20
0.237999
 30
0.0
 11
0.237099
 21
262.737999
 31
0.0
  0
ARC
  8
0
  6
CONTINUOUS
 62
   249
 10
135.0
 20
197.5
 30
0.0
 40
0.5
 50
180.0
 51
0.0
  0
ARC
  8
0
  6
CONTINUOUS
 62
   249
 10
135.0
 20
197.5
 30
0.0
 40
0.5
 50
0.0
 51
180.0
  0
3DFACE
  8
0
  6
CONTINUOUS
 62
   249
 10
111.206597
 20
140.0
 30
0.0
 11
111.219531
 21
139.991019
 31
0.0
 12
111.219531
 22
140.009068
 32
0.0
 13
111.206597
 23
140.0
 33
0.0
  0
3DFACE
  8
0
  6
CONTINUOUS
 62
   249
 10
111.219531
 20
139.991019
 30
0.0
 11
111.232465
 21
139.982038
 31
0.0
 12
111.232465
 22
140.018136
 32
0.0
 13
111.219531
 23
140.009068
 33
0.0
  0
3DFACE
  8
0
  6
CONTINUOUS
 62
   249
 10
111.232465
 20
139.982038
 30
0.0
 11
111.245399
 21
139.973057
 31
0.0
 12
111.245399
 22
140.027203
 32
0.0
 13
111.232465
 23
140.018136
 33
0.0
  0
3DFACE
  8
0
  6
CONTINUOUS
 62
   249
 10
111.245399
 20
139.973057
 30
0.0
 11
111.258333
 21
139.964077
 31
0.0
 12
111.258333
 22
140.036271
 32
0.0
 13
111.245399
 23
140.027203
 33
0.0
  0
3DFACE
  8
0
  6
CONTINUOUS
 62
   249
 10
111.258333
 20
139.964077
 30
0.0
 11
111.271267
 21
139.955096
 31
0.0
 12
111.271267
 22
140.045339
 32
0.0
 13
111.258333
 23
140.036271
 33
0.0
  0
3DFACE
  8
0
  6
CONTINUOUS
 62
   249
 10
111.271267
 20
139.955096
 30
0.0
 11
111.284202
 21
139.946115
 31
0.0
 12
111.284202
 22
140.054406
 32
0.0
 13
111.271267
 23
140.045339
 33
0.0
  0
3DFACE
  8
0
  6
CONTINUOUS
 62
   249
 10
111.284202
 20
139.946115
 30
0.0
 11
111.297136
 21
139.937134
 31
0.0
 12
111.297136
 22
140.063474
 32
0.0
 13
111.284202
 23
140.054406
 33
0.0
  0
3DFACE
  8
0
  6
CONTINUOUS
 62
   249
 10
111.297136
 20
139.937134
 30
0.0
 11
111.31007
 21
139.928153
 31
0.0
 12
111.31007
 22
140.072542
 32
0.0
 13
111.297136
 23
140.063474
 33
0.0
  0
3DFACE
  8
0
  6
CONTINUOUS
 62
   249
 10
111.31007
 20
139.928153
 30
0.0
 11
111.323004
 21
139.919172
 31
0.0
 12
111.323004
 22
140.081609
 32
0.0
 13
111.31007
 23
140.072542
 33
0.0
  0
3DFACE
  8
0
  6
CONTINUOUS
 62
   249
 10
111.323004
 20
139.919172
 30
0.0
 11
111.335938
 21
139.910191
 31
0.0
 12
111.335938
 22
140.090677
 32
0.0
 13
111.323004
 23
140.081609
 33
0.0
  0
3DFACE
  8
0
  6
CONTINUOUS
 62
   249
 10
111.335938
 20
139.910191
 30
0.0
 11
111.348872
 21
139.90121
 31
0.0
 12
111.348872
 22
140.099745
 32
0.0
 13
111.335938
 23
140.090677
 33
0.0
  0
3DFACE
  8
0
  6
CONTINUOUS
 62
   249
 10
111.348872
 20
139.90121
 30
0.0
 11
111.361806
 21
139.89223
 31
0.0
 12
111.361806
 22
140.108812
 32
0.0
 13
111.348872
 23
140.099745
 33
0.0
  0
3DFACE
  8
0
  6
CONTINUOUS
 62
   249
 10
111.361806
 20
139.89223
 30
0.0
 11
111.37474
 21
139.883249
 31
0.0
 12
111.37474
 22
140.11788
 32
0.0
 13
111.361806
 23
140.108812
 33
0.0
  0
3DFACE
  8
0
  6
CONTINUOUS
 62
   249
 10
111.37474
 20
139.883249
 30
0.0
 11
111.387674
 21
139.874268
 31
0.0
 12
111.387674
 22
140.126948
 32
0.0
 13
111.37474
 23
140.11788
 33
0.0
  0
3DFACE
  8
0
  6
CONTINUOUS
 62
   249
 10
111.387674
 20
139.874268
 30
0.0
 11
111.400608
 21
139.865287
 31
0.0
 12
111.400608
 22
140.136015
 32
0.0
 13
111.387674
 23
140.126948
 33
0.0
  0
3DFACE
  8
0
  6
CONTINUOUS
 62
   249
 10
111.400608
 20
139.865287
 30
0.0
 11
111.413542
 21
139.856306
 31
0.0
 12
111.413542
 22
140.145083
 32
0.0
 13
111.400608
 23
140.136015
 33
0.0
  0
3DFACE
  8
0
  6
CONTINUOUS
 62
   249
 10
111.413542
 20
139.856306
 30
0.0
 11
111.426476
 21
139.847325
 31
0.0
 12
111.426476
 22
140.154151
 32
0.0
 13
111.413542
 23
140.145083
 33
0.0
  0
3DFACE
  8
0
  6
CONTINUOUS
 62
   249
 10
111.426476
 20
139.847325
 30
0.0
 11
111.43941
 21
139.838344
 31
0.0
 12
111.43941
 22
140.163219
 32
0.0
 13
111.426476
 23
140.154151
 33
0.0
  0
3DFACE
  8
0
  6
CONTINUOUS
 62
   249
 10
111.43941
 20
139.838344
 30
0.0
 11
111.452344
 21
139.829363
 31
0.0
 12
111.452344
 22
140.172286
 32
0.0
 13
111.43941
 23
140.163219
 33
0.0
  0
3DFACE
  8
0
  6
CONTINUOUS
 62
   249
 10
111.452344
 20
139.829363
 30
0.0
 11
111.465278
 21
139.820383
 31
0.0
 12
111.465278
 22
140.181354
 32
0.0
 13
111.452344
 23
140.172286
 33
0.0
  0
3DFACE
  8
0
  6
CONTINUOUS
 62
   249
 10
111.465278
 20
139.820383
 30
0.0
 11
111.478212
 21
139.811402
 31
0.0
 12
111.478212
 22
140.190422
 32
0.0
 13
111.465278
 23
140.181354
 33
0.0
  0
3DFACE
  8
0
  6
CONTINUOUS
 62
   249
 10
111.478212
 20
139.811402
 30
0.0
 11
111.491146
 21
139.802421
 31
0.0
 12
111.491146
 22
140.199489
 32
0.0
 13
111.478212
 23
140.190422
 33
0.0
  0
3DFACE
  8
0
  6
CONTINUOUS
 62
   249
 10
111.491146
 20
139.802421
 30
0.0
 11
111.50408
 21
139.79344
 31
0.0
 12
111.50408
 22
140.208557
 32
0.0
 13
111.491146
 23
140.199489
 33
0.0
  0
3DFACE
  8
0
  6
CONTINUOUS
 62
   249
 10
111.50408
 20
139.79344
 30
0.0
 11
111.517014
 21
139.784459
 31
0.0
 12
111.517014
 22
140.217625
 32
0.0
 13
111.50408
 23
140.208557
 33
0.0
  0
3DFACE
  8
0
  6
CONTINUOUS
 62
   249
 10
111.517014
 20
139.784459
 30
0.0
 11
111.529948
 21
139.775478
 31
0.0
 12
111.529948
 22
140.226692
 32
0.0
 13
111.517014
 23
140.217625
 33
0.0
  0
3DFACE
  8
0
  6
CONTINUOUS
 62
   249
 10
111.529948
 20
139.775478
 30
0.0
 11
111.542882
 21
139.766497
 31
0.0
 12
111.542882
 22
140.23576
 32
0.0
 13
111.529948
 23
140.226692
 33
0.0
  0
3DFACE
  8
0
  6
CONTINUOUS
 62
   249
 10
111.542882
 20
139.766497
 30
0.0
 11
111.555816
 21
139.757516
 31
0.0
 12
111.555816
 22
140.244828
 32
0.0
 13
111.542882
 23
140.23576
 33
0.0
  0
3DFACE
  8
0
  6
CONTINUOUS
 62
   249
 10
111.555816
 20
139.757516
 30
0.0
 11
111.56875
 21
139.748536
 31
0.0
 12
111.56875
 22
140.253895
 32
0.0
 13
111.555816
 23
140.244828
 33
0.0
  0
3DFACE
  8
0
  6
CONTINUOUS
 62
   249
 10
111.56875
 20
139.748536
 30
0.0
 11
111.581684
 21
139.739555
 31
0.0
 12
111.581684
 22
140.262963
 32
0.0
 13
111.56875
 23
140.253895
 33
0.0
  0
3DFACE
  8
0
  6
CONTINUOUS
 62
   249
 10
111.581684
 20
139.739555
 30
0.0
 11
111.594618
 21
139.730574
 31
0.0
 12
111.594618
 22
140.272031
 32
0.0
 13
111.581684
 23
140.262963
 33
0.0
  0
3DFACE
  8
0
  6
CONTINUOUS
 62
   249
 10
111.594618
 20
139.730574
 30
0.0
 11
111.607552
 21
139.721593
 31
0.0
 12
111.607552
 22
140.281098
 32
0.0
 13
111.594618
 23
140.272031
 33
0.0
  0
3DFACE
  8
0
  6
CONTINUOUS
 62
   249
 10
111.607552
 20
139.721593
 30
0.0
 11
111.620486
 21
139.712612
 31
0.0
 12
111.620486
 22
140.290166
 32
0.0
 13
111.607552
 23
140.281098
 33
0.0
  0
3DFACE
  8
0
  6
CONTINUOUS
 62
   249
 10
111.620486
 20
139.712612
 30
0.0
 11
111.63342
 21
139.703631
 31
0.0
 12
111.63342
 22
140.299234
 32
0.0
 13
111.620486
 23
140.290166
 33
0.0
  0
3DFACE
  8
0
  6
CONTINUOUS
 62
   249
 10
111.63342
 20
139.703631
 30
0.0
 11
111.646354
 21
139.69465
 31
0.0
 12
111.646354
 22
140.308301
 32
0.0
 13
111.63342
 23
140.299234
 33
0.0
  0
3DFACE
  8
0
  6
CONTINUOUS
 62
   249
 10
111.646354
 20
139.69465
 30
0.0
 11
111.659288
 21
139.685669
 31
0.0
 12
111.659288
 22
140.317369
 32
0.0
 13
111.646354
 23
140.308301
 33
0.0
  0
3DFACE
  8
0
  6
CONTINUOUS
 62
   249
 10
111.659288
 20
139.685669
 30
0.0
 11
111.672222
 21
139.676689
 31
0.0
 12
111.672222
 22
140.326437
 32
0.0
 13
111.659288
 23
140.317369
 33
0.0
  0
3DFACE
  8
0
  6
CONTINUOUS
 62
   249
 10
111.672222
 20
139.676689
 30
0.0
 11
111.685156
 21
139.667708
 31
0.0
 12
111.685156
 22
140.335505
 32
0.0
 13
111.672222
 23
140.326437
 33
0.0
  0
3DFACE
  8
0
  6
CONTINUOUS
 62
   249
 10
111.685156
 20
139.667708
 30
0.0
 11
111.69809
 21
139.658727
 31
0.0
 12
111.69809
 22
140.344572
 32
0.0
 13
111.685156
 23
140.335505
 33
0.0
  0
3DFACE
  8
0
  6
CONTINUOUS
 62
   249
 10
111.69809
 20
139.658727
 30
0.0
 11
111.711024
 21
139.649746
 31
0.0
 12
111.711024
 22
140.35364
 32
0.0
 13
111.69809
 23
140.344572
 33
0.0
  0
3DFACE
  8
0
  6
CONTINUOUS
 62
   249
 10
111.711024
 20
139.649746
 30
0.0
 11
111.723958
 21
139.640765
 31
0.0
 12
111.723958
 22
140.362708
 32
0.0
 13
111.711024
 23
140.35364
 33
0.0
  0
3DFACE
  8
0
  6
CONTINUOUS
 62
   249
 10
111.723958
 20
139.640765
 30
0.0
 11
111.736892
 21
139.631784
 31
0.0
 12
111.736892
 22
140.371775
 32
0.0
 13
111.723958
 23
140.362708
 33
0.0
  0
3DFACE
  8
0
  6
CONTINUOUS
 62
   249
 10
111.736892
 20
139.631784
 30
0.0
 11
111.749826
 21
139.622803
 31
0.0
 12
111.749826
 22
140.380843
 32
0.0
 13
111.736892
 23
140.371775
 33
0.0
  0
3DFACE
  8
0
  6
CONTINUOUS
 62
   249
 10
111.749826
 20
139.622803
 30
0.0
 11
111.76276
 21
139.613822
 31
0.0
 12
111.76276
 22
140.389911
 32
0.0
 13
111.749826
 23
140.380843
 33
0.0
  0
3DFACE
  8
0
  6
CONTINUOUS
 62
   249
 10
111.76276
 20
139.613822
 30
0.0
 11
111.775695
 21
139.604842
 31
0.0
 12
111.775695
 22
140.398978
 32
0.0
 13
111.76276
 23
140.389911
 33
0.0
  0
3DFACE
  8
0
  6
CONTINUOUS
 62
   249
 10
111.775695
 20
139.604842
 30
0.0
 11
111.788629
 21
139.595861
 31
0.0
 12
111.788629
 22
140.408046
 32
0.0
 13
111.775695
 23
140.398978
 33
0.0
  0
3DFACE
  8
0
  6
CONTINUOUS
 62
   249
 10
111.788629
 20
139.595861
 30
0.0
 11
111.801563
 21
139.58688
 31
0.0
 12
111.801563
 22
140.417114
 32
0.0
 13
111.788629
 23
140.408046
 33
0.0
  0
3DFACE
  8
0
  6
CONTINUOUS
 62
   249
 10
111.801563
 20
139.58688
 30
0.0
 11
111.814497
 21
139.577899
 31
0.0
 12
111.814497
 22
140.426181
 32
0.0
 13
111.801563
 23
140.417114
 33
0.0
  0
3DFACE
  8
0
  6
CONTINUOUS
 62
   249
 10
111.814497
 20
139.577899
 30
0.0
 11
111.827431
 21
139.568918
 31
0.0
 12
111.827431
 22
140.435249
 32
0.0
 13
111.814497
 23
140.426181
 33
0.0
  0
3DFACE
  8
0
  6
CONTINUOUS
 62
   249
 10
111.827431
 20
139.568918
 30
0.0
 11
111.840365
 21
139.559937
 31
0.0
 12
111.840365
 22
140.444317
 32
0.0
 13
111.827431
 23
140.435249
 33
0.0
  0
3DFACE
  8
0
  6
CONTINUOUS
 62
   249
 10
111.840365
 20
139.559937
 30
0.0
 11
111.853299
 21
139.550956
 31
0.0
 12
111.853299
 22
140.453384
 32
0.0
 13
111.840365
 23
140.444317
 33
0.0
  0
3DFACE
  8
0
  6
CONTINUOUS
 62
   249
 10
111.853299
 20
139.550956
 30
0.0
 11
111.866233
 21
139.541975
 31
0.0
 12
111.866233
 22
140.462452
 32
0.0
 13
111.853299
 23
140.453384
 33
0.0
  0
3DFACE
  8
0
  6
CONTINUOUS
 62
   249
 10
111.866233
 20
139.541975
 30
0.0
 11
111.879167
 21
139.532995
 31
0.0
 12
111.879167
 22
140.47152
 32
0.0
 13
111.866233
 23
140.462452
 33
0.0
  0
3DFACE
  8
0
  6
CONTINUOUS
 62
   249
 10
111.879167
 20
139.532995
 30
0.0
 11
111.892101
 21
139.524014
 31
0.0
 12
111.892101
 22
140.480588
 32
0.0
 13
111.879167
 23
140.47152
 33
0.0
  0
3DFACE
  8
0
  6
CONTINUOUS
 62
   249
 10
111.892101
 20
139.524014
 30
0.0
 11
111.905035
 21
139.515033
 31
0.0
 12
111.905035
 22
140.489655
 32
0.0
 13
111.892101
 23
140.480588
 33
0.0
  0
3DFACE
  8
0
  6
CONTINUOUS
 62
   249
 10
111.905035
 20
139.515033
 30
0.0
 11
111.917969
 21
139.506052
 31
0.0
 12
111.917969
 22
140.498723
 32
0.0
 13
111.905035
 23
140.489655
 33
0.0
  0
3DFACE
  8
0
  6
CONTINUOUS
 62
   249
 10
111.917969
 20
139.506052
 30
0.0
 11
111.930903
 21
139.497071
 31
0.0
 12
111.930903
 22
140.507791
 32
0.0
 13
111.917969
 23
140.498723
 33
0.0
  0
3DFACE
  8
0
  6
CONTINUOUS
 62
   249
 10
111.930903
 20
139.497071
 30
0.0
 11
111.943837
 21
139.48809
 31
0.0
 12
111.943837
 22
140.516858
 32
0.0
 13
111.930903
 23
140.507791
 33
0.0
  0
3DFACE
  8
0
  6
CONTINUOUS
 62
   249
 10
111.943837
 20
139.48809
 30
0.0
 11
111.956771
 21
139.479109
 31
0.0
 12
111.956771
 22
140.525926
 32
0.0
 13
111.943837
 23
140.516858
 33
0.0
  0
3DFACE
  8
0
  6
CONTINUOUS
 62
   249
 10
111.956771
 20
139.479109
 30
0.0
 11
111.969705
 21
139.470128
 31
0.0
 12
111.969705
 22
140.534994
 32
0.0
 13
111.956771
 23
140.525926
 33
0.0
  0
3DFACE
  8
0
  6
CONTINUOUS
 62
   249
 10
111.969705
 20
139.470128
 30
0.0
 11
111.982639
 21
139.461147
 31
0.0
 12
111.982639
 22
140.544061
 32
0.0
 13
111.969705
 23
140.534994
 33
0.0
  0
3DFACE
  8
0
  6
CONTINUOUS
 62
   249
 10
111.982639
 20
139.461147
 30
0.0
 11
111.995573
 21
139.452167
 31
0.0
 12
111.995573
 22
140.553129
 32
0.0
 13
111.982639
 23
140.544061
 33
0.0
  0
3DFACE
  8
0
  6
CONTINUOUS
 62
   249
 10
111.995573
 20
139.452167
 30
0.0
 11
112.008507
 21
139.443186
 31
0.0
 12
112.008507
 22
140.562197
 32
0.0
 13
111.995573
 23
140.553129
 33
0.0
  0
3DFACE
  8
0
  6
CONTINUOUS
 62
   249
 10
112.008507
 20
139.443186
 30
0.0
 11
112.021441
 21
139.434205
 31
0.0
 12
112.021441
 22
140.571264
 32
0.0
 13
112.008507
 23
140.562197
 33
0.0
  0
3DFACE
  8
0
  6
CONTINUOUS
 62
   249
 10
112.021441
 20
139.434205
 30
0.0
 11
112.034375
 21
139.425224
 31
0.0
 12
112.034375
 22
140.580332
 32
0.0
 13
112.021441
 23
140.571264
 33
0.0
  0
3DFACE
  8
0
  6
CONTINUOUS
 62
   249
 10
112.034375
 20
139.425224
 30
0.0
 11
112.047309
 21
139.416243
 31
0.0
 12
112.047309
 22
140.5894
 32
0.0
 13
112.034375
 23
140.580332
 33
0.0
  0
3DFACE
  8
0
  6
CONTINUOUS
 62
   249
 10
112.047309
 20
139.416243
 30
0.0
 11
112.060243
 21
139.407262
 31
0.0
 12
112.060243
 22
140.598467
 32
0.0
 13
112.047309
 23
140.5894
 33
0.0
  0
3DFACE
  8
0
  6
CONTINUOUS
 62
   249
 10
112.060243
 20
139.407262
 30
0.0
 11
112.073177
 21
139.398281
 31
0.0
 12
112.073177
 22
140.607535
 32
0.0
 13
112.060243
 23
140.598467
 33
0.0
  0
3DFACE
  8
0
  6
CONTINUOUS
 62
   249
 10
112.073177
 20
139.398281
 30
0.0
 11
112.086111
 21
139.3893
 31
0.0
 12
112.086111
 22
140.616603
 32
0.0
 13
112.073177
 23
140.607535
 33
0.0
  0
3DFACE
  8
0
  6
CONTINUOUS
 62
   249
 10
112.086111
 20
139.3893
 30
0.0
 11
112.099045
 21
139.38032
 31
0.0
 12
112.099045
 22
140.625671
 32
0.0
 13
112.086111
 23
140.616603
 33
0.0
  0
3DFACE
  8
0
  6
CONTINUOUS
 62
   249
 10
112.099045
 20
139.38032
 30
0.0
 11
112.111979
 21
139.371339
 31
0.0
 12
112.111979
 22
140.634738
 32
0.0
 13
112.099045
 23
140.625671
 33
0.0
  0
3DFACE
  8
0
  6
CONTINUOUS
 62
   249
 10
112.111979
 20
139.371339
 30
0.0
 11
112.124913
 21
139.362358
 31
0.0
 12
112.124913
 22
140.643806
 32
0.0
 13
112.111979
 23
140.634738
 33
0.0
  0
3DFACE
  8
0
  6
CONTINUOUS
 62
   249
 10
112.124913
 20
139.362358
 30
0.0
 11
112.137847
 21
139.353377
 31
0.0
 12
112.137847
 22
140.652874
 32
0.0
 13
112.124913
 23
140.643806
 33
0.0
  0
3DFACE
  8
0
  6
CONTINUOUS
 62
   249
 10
112.137847
 20
139.353377
 30
0.0
 11
112.150781
 21
139.344396
 31
0.0
 12
112.150781
 22
140.661941
 32
0.0
 13
112.137847
 23
140.652874
 33
0.0
  0
3DFACE
  8
0
  6
CONTINUOUS
 62
   249
 10
112.150781
 20
139.344396
 30
0.0
 11
112.163715
 21
139.335415
 31
0.0
 12
112.163715
 22
140.671009
 32
0.0
 13
112.150781
 23
140.661941
 33
0.0
  0
3DFACE
  8
0
  6
CONTINUOUS
 62
   249
 10
112.163715
 20
139.335415
 30
0.0
 11
112.176649
 21
139.326434
 31
0.0
 12
112.176649
 22
140.680077
 32
0.0
 13
112.163715
 23
140.671009
 33
0.0
  0
3DFACE
  8
0
  6
CONTINUOUS
 62
   249
 10
112.176649
 20
139.326434
 30
0.0
 11
112.189583
 21
139.317453
 31
0.0
 12
112.189583
 22
140.689144
 32
0.0
 13
112.176649
 23
140.680077
 33
0.0
  0
3DFACE
  8
0
  6
CONTINUOUS
 62
   249
 10
112.189583
 20
139.317453
 30
0.0
 11
112.202517
 21
139.308473
 31
0.0
 12
112.202517
 22
140.698212
 32
0.0
 13
112.189583
 23
140.689144
 33
0.0
  0
3DFACE
  8
0
  6
CONTINUOUS
 62
   249
 10
112.202517
 20
139.308473
 30
0.0
 11
112.215451
 21
139.299492
 31
0.0
 12
112.215451
 22
140.70728
 32
0.0
 13
112.202517
 23
140.698212
 33
0.0
  0
3DFACE
  8
0
  6
CONTINUOUS
 62
   249
 10
112.215451
 20
139.299492
 30
0.0
 11
112.228385
 21
139.290511
 31
0.0
 12
112.228385
 22
140.716347
 32
0.0
 13
112.215451
 23
140.70728
 33
0.0
  0
3DFACE
  8
0
  6
CONTINUOUS
 62
   249
 10
112.228385
 20
139.290511
 30
0.0
 11
112.241319
 21
139.28153
 31
0.0
 12
112.241319
 22
140.725415
 32
0.0
 13
112.228385
 23
140.716347
 33
0.0
  0
3DFACE
  8
0
  6
CONTINUOUS
 62
   249
 10
112.241319
 20
139.28153
 30
0.0
 11
112.254253
 21
139.272549
 31
0.0
 12
112.254253
 22
140.734483
 32
0.0
 13
112.241319
 23
140.725415
 33
0.0
  0
3DFACE
  8
0
  6
CONTINUOUS
 62
   249
 10
112.254253
 20
139.272549
 30
0.0
 11
112.267188
 21
139.263568
 31
0.0
 12
112.267188
 22
140.74355
 32
0.0
 13
112.254253
 23
140.734483
 33
0.0
  0
3DFACE
  8
0
  6
CONTINUOUS
 62
   249
 10
112.267188
 20
139.263568
 30
0.0
 11
112.280122
 21
139.254587
 31
0.0
 12
112.280122
 22
140.752618
 32
0.0
 13
112.267188
 23
140.74355
 33
0.0
  0
3DFACE
  8
0
  6
CONTINUOUS
 62
   249
 10
112.280122
 20
139.254587
 30
0.0
 11
112.293056
 21
139.245606
 31
0.0
 12
112.293056
 22
140.761686
 32
0.0
 13
112.280122
 23
140.752618
 33
0.0
  0
3DFACE
  8
0
  6
CONTINUOUS
 62
   249
 10
112.293056
 20
139.245606
 30
0.0
 11
112.30599
 21
139.236626
 31
0.0
 12
112.30599
 22
140.770754
 32
0.0
 13
112.293056
 23
140.761686
 33
0.0
  0
3DFACE
  8
0
  6
CONTINUOUS
 62
   249
 10
112.30599
 20
139.236626
 30
0.0
 11
112.318924
 21
139.227645
 31
0.0
 12
112.318924
 22
140.779821
 32
0.0
 13
112.30599
 23
140.770754
 33
0.0
  0
3DFACE
  8
0
  6
CONTINUOUS
 62
   249
 10
112.318924
 20
139.227645
 30
0.0
 11
112.331858
 21
139.218664
 31
0.0
 12
112.331858
 22
140.788889
 32
0.0
 13
112.318924
 23
140.779821
 33
0.0
  0
3DFACE
  8
0
  6
CONTINUOUS
 62
   249
 10
112.331858
 20
139.218664
 30
0.0
 11
112.344792
 21
139.209683
 31
0.0
 12
112.344792
 22
140.797957
 32
0.0
 13
112.331858
 23
140.788889
 33
0.0
  0
3DFACE
  8
0
  6
CONTINUOUS
 62
   249
 10
112.344792
 20
139.209683
 30
0.0
 11
112.357726
 21
139.200702
 31
0.0
 12
112.357726
 22
140.807024
 32
0.0
 13
112.344792
 23
140.797957
 33
0.0
  0
3DFACE
  8
0
  6
CONTINUOUS
 62
   249
 10
112.357726
 20
139.200702
 30
0.0
 11
112.37066
 21
139.191721
 31
0.0
 12
112.37066
 22
140.816092
 32
0.0
 13
112.357726
 23
140.807024
 33
0.0
  0
3DFACE
  8
0
  6
CONTINUOUS
 62
   249
 10
112.37066
 20
139.191721
 30
0.0
 11
112.383594
 21
139.18274
 31
0.0
 12
112.383594
 22
140.82516
 32
0.0
 13
112.37066
 23
140.816092
 33
0.0
  0
3DFACE
  8
0
  6
CONTINUOUS
 62
   249
 10
112.383594
 20
139.18274
 30
0.0
 11
112.396528
 21
139.173759
 31
0.0
 12
112.396528
 22
140.834227
 32
0.0
 13
112.383594
 23
140.82516
 33
0.0
  0
3DFACE
  8
0
  6
CONTINUOUS
 62
   249
 10
112.396528
 20
139.173759
 30
0.0
 11
112.409462
 21
139.164779
 31
0.0
 12
112.409462
 22
140.843295
 32
0.0
 13
112.396528
 23
140.834227
 33
0.0
  0
3DFACE
  8
0
  6
CONTINUOUS
 62
   249
 10
112.409462
 20
139.164779
 30
0.0
 11
112.422396
 21
139.155798
 31
0.0
 12
112.422396
 22
140.852363
 32
0.0
 13
112.409462
 23
140.843295
 33
0.0
  0
3DFACE
  8
0
  6
CONTINUOUS
 62
   249
 10
112.422396
 20
139.155798
 30
0.0
 11
112.43533
 21
139.146817
 31
0.0
 12
112.43533
 22
140.86143
 32
0.0
 13
112.422396
 23
140.852363
 33
0.0
  0
3DFACE
  8
0
  6
CONTINUOUS
 62
   249
 10
112.43533
 20
139.146817
 30
0.0
 11
112.448264
 21
139.137836
 31
0.0
 12
112.448264
 22
140.870498
 32
0.0
 13
112.43533
 23
140.86143
 33
0.0
  0
3DFACE
  8
0
  6
CONTINUOUS
 62
   249
 10
112.448264
 20
139.137836
 30
0.0
 11
112.461198
 21
139.128855
 31
0.0
 12
112.461198
 22
140.879566
 32
0.0
 13
112.448264
 23
140.870498
 33
0.0
  0
3DFACE
  8
0
  6
CONTINUOUS
 62
   249
 10
112.461198
 20
139.128855
 30
0.0
 11
112.474132
 21
139.119874
 31
0.0
 12
112.474132
 22
140.888633
 32
0.0
 13
112.461198
 23
140.879566
 33
0.0
  0
3DFACE
  8
0
  6
CONTINUOUS
 62
   249
 10
112.474132
 20
139.119874
 30
0.0
 11
112.487066
 21
139.110893
 31
0.0
 12
112.487066
 22
140.897701
 32
0.0
 13
112.474132
 23
140.888633
 33
0.0
  0
3DFACE
  8
0
  6
CONTINUOUS
 62
   249
 10
112.487066
 20
139.110893
 30
0.0
 11
112.5
 21
139.101912
 31
0.0
 12
112.5
 22
140.906769
 32
0.0
 13
112.487066
 23
140.897701
 33
0.0
  0
LINE
  8
0
  6
CONTINUOUS
 62
   249
 10
106.206597
 20
140.0
 30
0.0
 11
107.5
 21
140.0
 31
0.0
  0
3DFACE
  8
0
  6
CONTINUOUS
 62
   249
 10
106.206597
 20
140.0
 30
0.0
 11
106.219531
 21
139.991019
 31
0.0
 12
106.219531
 22
140.009068
 32
0.0
 13
106.206597
 23
140.0
 33
0.0
  0
3DFACE
  8
0
  6
CONTINUOUS
 62
   249
 10
106.219531
 20
139.991019
 30
0.0
 11
106.232465
 21
139.982038
 31
0.0
 12
106.232465
 22
140.018136
 32
0.0
 13
106.219531
 23
140.009068
 33
0.0
  0
3DFACE
  8
0
  6
CONTINUOUS
 62
   249
 10
106.232465
 20
139.982038
 30
0.0
 11
106.245399
 21
139.973057
 31
0.0
 12
106.245399
 22
140.027203
 32
0.0
 13
106.232465
 23
140.018136
 33
0.0
  0
3DFACE
  8
0
  6
CONTINUOUS
 62
   249
 10
106.245399
 20
139.973057
 30
0.0
 11
106.258333
 21
139.964077
 31
0.0
 12
106.258333
 22
140.036271
 32
0.0
 13
106.245399
 23
140.027203
 33
0.0
  0
3DFACE
  8
0
  6
CONTINUOUS
 62
   249
 10
106.258333
 20
139.964077
 30
0.0
 11
106.271267
 21
139.955096
 31
0.0
 12
106.271267
 22
140.045339
 32
0.0
 13
106.258333
 23
140.036271
 33
0.0
  0
3DFACE
  8
0
  6
CONTINUOUS
 62
   249
 10
106.271267
 20
139.955096
 30
0.0
 11
106.284202
 21
139.946115
 31
0.0
 12
106.284202
 22
140.054406
 32
0.0
 13
106.271267
 23
140.045339
 33
0.0
  0
3DFACE
  8
0
  6
CONTINUOUS
 62
   249
 10
106.284202
 20
139.946115
 30
0.0
 11
106.297136
 21
139.937134
 31
0.0
 12
106.297136
 22
140.063474
 32
0.0
 13
106.284202
 23
140.054406
 33
0.0
  0
3DFACE
  8
0
  6
CONTINUOUS
 62
   249
 10
106.297136
 20
139.937134
 30
0.0
 11
106.31007
 21
139.928153
 31
0.0
 12
106.31007
 22
140.072542
 32
0.0
 13
106.297136
 23
140.063474
 33
0.0
  0
3DFACE
  8
0
  6
CONTINUOUS
 62
   249
 10
106.31007
 20
139.928153
 30
0.0
 11
106.323004
 21
139.919172
 31
0.0
 12
106.323004
 22
140.081609
 32
0.0
 13
106.31007
 23
140.072542
 33
0.0
  0
3DFACE
  8
0
  6
CONTINUOUS
 62
   249
 10
106.323004
 20
139.919172
 30
0.0
 11
106.335938
 21
139.910191
 31
0.0
 12
106.335938
 22
140.090677
 32
0.0
 13
106.323004
 23
140.081609
 33
0.0
  0
3DFACE
  8
0
  6
CONTINUOUS
 62
   249
 10
106.335938
 20
139.910191
 30
0.0
 11
106.348872
 21
139.90121
 31
0.0
 12
106.348872
 22
140.099745
 32
0.0
 13
106.335938
 23
140.090677
 33
0.0
  0
3DFACE
  8
0
  6
CONTINUOUS
 62
   249
 10
106.348872
 20
139.90121
 30
0.0
 11
106.361806
 21
139.89223
 31
0.0
 12
106.361806
 22
140.108812
 32
0.0
 13
106.348872
 23
140.099745
 33
0.0
  0
3DFACE
  8
0
  6
CONTINUOUS
 62
   249
 10
106.361806
 20
139.89223
 30
0.0
 11
106.37474
 21
139.883249
 31
0.0
 12
106.37474
 22
140.11788
 32
0.0
 13
106.361806
 23
140.108812
 33
0.0
  0
3DFACE
  8
0
  6
CONTINUOUS
 62
   249
 10
106.37474
 20
139.883249
 30
0.0
 11
106.387674
 21
139.874268
 31
0.0
 12
106.387674
 22
140.126948
 32
0.0
 13
106.37474
 23
140.11788
 33
0.0
  0
3DFACE
  8
0
  6
CONTINUOUS
 62
   249
 10
106.387674
 20
139.874268
 30
0.0
 11
106.400608
 21
139.865287
 31
0.0
 12
106.400608
 22
140.136015
 32
0.0
 13
106.387674
 23
140.126948
 33
0.0
  0
3DFACE
  8
0
  6
CONTINUOUS
 62
   249
 10
106.400608
 20
139.865287
 30
0.0
 11
106.413542
 21
139.856306
 31
0.0
 12
106.413542
 22
140.145083
 32
0.0
 13
106.400608
 23
140.136015
 33
0.0
  0
3DFACE
  8
0
  6
CONTINUOUS
 62
   249
 10
106.413542
 20
139.856306
 30
0.0
 11
106.426476
 21
139.847325
 31
0.0
 12
106.426476
 22
140.154151
 32
0.0
 13
106.413542
 23
140.145083
 33
0.0
  0
3DFACE
  8
0
  6
CONTINUOUS
 62
   249
 10
106.426476
 20
139.847325
 30
0.0
 11
106.43941
 21
139.838344
 31
0.0
 12
106.43941
 22
140.163219
 32
0.0
 13
106.426476
 23
140.154151
 33
0.0
  0
3DFACE
  8
0
  6
CONTINUOUS
 62
   249
 10
106.43941
 20
139.838344
 30
0.0
 11
106.452344
 21
139.829363
 31
0.0
 12
106.452344
 22
140.172286
 32
0.0
 13
106.43941
 23
140.163219
 33
0.0
  0
3DFACE
  8
0
  6
CONTINUOUS
 62
   249
 10
106.452344
 20
139.829363
 30
0.0
 11
106.465278
 21
139.820383
 31
0.0
 12
106.465278
 22
140.181354
 32
0.0
 13
106.452344
 23
140.172286
 33
0.0
  0
3DFACE
  8
0
  6
CONTINUOUS
 62
   249
 10
106.465278
 20
139.820383
 30
0.0
 11
106.478212
 21
139.811402
 31
0.0
 12
106.478212
 22
140.190422
 32
0.0
 13
106.465278
 23
140.181354
 33
0.0
  0
3DFACE
  8
0
  6
CONTINUOUS
 62
   249
 10
106.478212
 20
139.811402
 30
0.0
 11
106.491146
 21
139.802421
 31
0.0
 12
106.491146
 22
140.199489
 32
0.0
 13
106.478212
 23
140.190422
 33
0.0
  0
3DFACE
  8
0
  6
CONTINUOUS
 62
   249
 10
106.491146
 20
139.802421
 30
0.0
 11
106.50408
 21
139.79344
 31
0.0
 12
106.50408
 22
140.208557
 32
0.0
 13
106.491146
 23
140.199489
 33
0.0
  0
3DFACE
  8
0
  6
CONTINUOUS
 62
   249
 10
106.50408
 20
139.79344
 30
0.0
 11
106.517014
 21
139.784459
 31
0.0
 12
106.517014
 22
140.217625
 32
0.0
 13
106.50408
 23
140.208557
 33
0.0
  0
3DFACE
  8
0
  6
CONTINUOUS
 62
   249
 10
106.517014
 20
139.784459
 30
0.0
 11
106.529948
 21
139.775478
 31
0.0
 12
106.529948
 22
140.226692
 32
0.0
 13
106.517014
 23
140.217625
 33
0.0
  0
3DFACE
  8
0
  6
CONTINUOUS
 62
   249
 10
106.529948
 20
139.775478
 30
0.0
 11
106.542882
 21
139.766497
 31
0.0
 12
106.542882
 22
140.23576
 32
0.0
 13
106.529948
 23
140.226692
 33
0.0
  0
3DFACE
  8
0
  6
CONTINUOUS
 62
   249
 10
106.542882
 20
139.766497
 30
0.0
 11
106.555816
 21
139.757516
 31
0.0
 12
106.555816
 22
140.244828
 32
0.0
 13
106.542882
 23
140.23576
 33
0.0
  0
3DFACE
  8
0
  6
CONTINUOUS
 62
   249
 10
106.555816
 20
139.757516
 30
0.0
 11
106.56875
 21
139.748536
 31
0.0
 12
106.56875
 22
140.253895
 32
0.0
 13
106.555816
 23
140.244828
 33
0.0
  0
3DFACE
  8
0
  6
CONTINUOUS
 62
   249
 10
106.56875
 20
139.748536
 30
0.0
 11
106.581684
 21
139.739555
 31
0.0
 12
106.581684
 22
140.262963
 32
0.0
 13
106.56875
 23
140.253895
 33
0.0
  0
3DFACE
  8
0
  6
CONTINUOUS
 62
   249
 10
106.581684
 20
139.739555
 30
0.0
 11
106.594618
 21
139.730574
 31
0.0
 12
106.594618
 22
140.272031
 32
0.0
 13
106.581684
 23
140.262963
 33
0.0
  0
3DFACE
  8
0
  6
CONTINUOUS
 62
   249
 10
106.594618
 20
139.730574
 30
0.0
 11
106.607552
 21
139.721593
 31
0.0
 12
106.607552
 22
140.281098
 32
0.0
 13
106.594618
 23
140.272031
 33
0.0
  0
3DFACE
  8
0
  6
CONTINUOUS
 62
   249
 10
106.607552
 20
139.721593
 30
0.0
 11
106.620486
 21
139.712612
 31
0.0
 12
106.620486
 22
140.290166
 32
0.0
 13
106.607552
 23
140.281098
 33
0.0
  0
3DFACE
  8
0
  6
CONTINUOUS
 62
   249
 10
106.620486
 20
139.712612
 30
0.0
 11
106.63342
 21
139.703631
 31
0.0
 12
106.63342
 22
140.299234
 32
0.0
 13
106.620486
 23
140.290166
 33
0.0
  0
3DFACE
  8
0
  6
CONTINUOUS
 62
   249
 10
106.63342
 20
139.703631
 30
0.0
 11
106.646354
 21
139.69465
 31
0.0
 12
106.646354
 22
140.308301
 32
0.0
 13
106.63342
 23
140.299234
 33
0.0
  0
3DFACE
  8
0
  6
CONTINUOUS
 62
   249
 10
106.646354
 20
139.69465
 30
0.0
 11
106.659288
 21
139.685669
 31
0.0
 12
106.659288
 22
140.317369
 32
0.0
 13
106.646354
 23
140.308301
 33
0.0
  0
3DFACE
  8
0
  6
CONTINUOUS
 62
   249
 10
106.659288
 20
139.685669
 30
0.0
 11
106.672222
 21
139.676689
 31
0.0
 12
106.672222
 22
140.326437
 32
0.0
 13
106.659288
 23
140.317369
 33
0.0
  0
3DFACE
  8
0
  6
CONTINUOUS
 62
   249
 10
106.672222
 20
139.676689
 30
0.0
 11
106.685156
 21
139.667708
 31
0.0
 12
106.685156
 22
140.335505
 32
0.0
 13
106.672222
 23
140.326437
 33
0.0
  0
3DFACE
  8
0
  6
CONTINUOUS
 62
   249
 10
106.685156
 20
139.667708
 30
0.0
 11
106.69809
 21
139.658727
 31
0.0
 12
106.69809
 22
140.344572
 32
0.0
 13
106.685156
 23
140.335505
 33
0.0
  0
3DFACE
  8
0
  6
CONTINUOUS
 62
   249
 10
106.69809
 20
139.658727
 30
0.0
 11
106.711024
 21
139.649746
 31
0.0
 12
106.711024
 22
140.35364
 32
0.0
 13
106.69809
 23
140.344572
 33
0.0
  0
3DFACE
  8
0
  6
CONTINUOUS
 62
   249
 10
106.711024
 20
139.649746
 30
0.0
 11
106.723958
 21
139.640765
 31
0.0
 12
106.723958
 22
140.362708
 32
0.0
 13
106.711024
 23
140.35364
 33
0.0
  0
3DFACE
  8
0
  6
CONTINUOUS
 62
   249
 10
106.723958
 20
139.640765
 30
0.0
 11
106.736892
 21
139.631784
 31
0.0
 12
106.736892
 22
140.371775
 32
0.0
 13
106.723958
 23
140.362708
 33
0.0
  0
3DFACE
  8
0
  6
CONTINUOUS
 62
   249
 10
106.736892
 20
139.631784
 30
0.0
 11
106.749826
 21
139.622803
 31
0.0
 12
106.749826
 22
140.380843
 32
0.0
 13
106.736892
 23
140.371775
 33
0.0
  0
3DFACE
  8
0
  6
CONTINUOUS
 62
   249
 10
106.749826
 20
139.622803
 30
0.0
 11
106.76276
 21
139.613822
 31
0.0
 12
106.76276
 22
140.389911
 32
0.0
 13
106.749826
 23
140.380843
 33
0.0
  0
3DFACE
  8
0
  6
CONTINUOUS
 62
   249
 10
106.76276
 20
139.613822
 30
0.0
 11
106.775695
 21
139.604842
 31
0.0
 12
106.775695
 22
140.398978
 32
0.0
 13
106.76276
 23
140.389911
 33
0.0
  0
3DFACE
  8
0
  6
CONTINUOUS
 62
   249
 10
106.775695
 20
139.604842
 30
0.0
 11
106.788629
 21
139.595861
 31
0.0
 12
106.788629
 22
140.408046
 32
0.0
 13
106.775695
 23
140.398978
 33
0.0
  0
3DFACE
  8
0
  6
CONTINUOUS
 62
   249
 10
106.788629
 20
139.595861
 30
0.0
 11
106.801563
 21
139.58688
 31
0.0
 12
106.801563
 22
140.417114
 32
0.0
 13
106.788629
 23
140.408046
 33
0.0
  0
3DFACE
  8
0
  6
CONTINUOUS
 62
   249
 10
106.801563
 20
139.58688
 30
0.0
 11
106.814497
 21
139.577899
 31
0.0
 12
106.814497
 22
140.426181
 32
0.0
 13
106.801563
 23
140.417114
 33
0.0
  0
3DFACE
  8
0
  6
CONTINUOUS
 62
   249
 10
106.814497
 20
139.577899
 30
0.0
 11
106.827431
 21
139.568918
 31
0.0
 12
106.827431
 22
140.435249
 32
0.0
 13
106.814497
 23
140.426181
 33
0.0
  0
3DFACE
  8
0
  6
CONTINUOUS
 62
   249
 10
106.827431
 20
139.568918
 30
0.0
 11
106.840365
 21
139.559937
 31
0.0
 12
106.840365
 22
140.444317
 32
0.0
 13
106.827431
 23
140.435249
 33
0.0
  0
3DFACE
  8
0
  6
CONTINUOUS
 62
   249
 10
106.840365
 20
139.559937
 30
0.0
 11
106.853299
 21
139.550956
 31
0.0
 12
106.853299
 22
140.453384
 32
0.0
 13
106.840365
 23
140.444317
 33
0.0
  0
3DFACE
  8
0
  6
CONTINUOUS
 62
   249
 10
106.853299
 20
139.550956
 30
0.0
 11
106.866233
 21
139.541975
 31
0.0
 12
106.866233
 22
140.462452
 32
0.0
 13
106.853299
 23
140.453384
 33
0.0
  0
3DFACE
  8
0
  6
CONTINUOUS
 62
   249
 10
106.866233
 20
139.541975
 30
0.0
 11
106.879167
 21
139.532995
 31
0.0
 12
106.879167
 22
140.47152
 32
0.0
 13
106.866233
 23
140.462452
 33
0.0
  0
3DFACE
  8
0
  6
CONTINUOUS
 62
   249
 10
106.879167
 20
139.532995
 30
0.0
 11
106.892101
 21
139.524014
 31
0.0
 12
106.892101
 22
140.480588
 32
0.0
 13
106.879167
 23
140.47152
 33
0.0
  0
3DFACE
  8
0
  6
CONTINUOUS
 62
   249
 10
106.892101
 20
139.524014
 30
0.0
 11
106.905035
 21
139.515033
 31
0.0
 12
106.905035
 22
140.489655
 32
0.0
 13
106.892101
 23
140.480588
 33
0.0
  0
3DFACE
  8
0
  6
CONTINUOUS
 62
   249
 10
106.905035
 20
139.515033
 30
0.0
 11
106.917969
 21
139.506052
 31
0.0
 12
106.917969
 22
140.498723
 32
0.0
 13
106.905035
 23
140.489655
 33
0.0
  0
3DFACE
  8
0
  6
CONTINUOUS
 62
   249
 10
106.917969
 20
139.506052
 30
0.0
 11
106.930903
 21
139.497071
 31
0.0
 12
106.930903
 22
140.507791
 32
0.0
 13
106.917969
 23
140.498723
 33
0.0
  0
3DFACE
  8
0
  6
CONTINUOUS
 62
   249
 10
106.930903
 20
139.497071
 30
0.0
 11
106.943837
 21
139.48809
 31
0.0
 12
106.943837
 22
140.516858
 32
0.0
 13
106.930903
 23
140.507791
 33
0.0
  0
3DFACE
  8
0
  6
CONTINUOUS
 62
   249
 10
106.943837
 20
139.48809
 30
0.0
 11
106.956771
 21
139.479109
 31
0.0
 12
106.956771
 22
140.525926
 32
0.0
 13
106.943837
 23
140.516858
 33
0.0
  0
3DFACE
  8
0
  6
CONTINUOUS
 62
   249
 10
106.956771
 20
139.479109
 30
0.0
 11
106.969705
 21
139.470128
 31
0.0
 12
106.969705
 22
140.534994
 32
0.0
 13
106.956771
 23
140.525926
 33
0.0
  0
3DFACE
  8
0
  6
CONTINUOUS
 62
   249
 10
106.969705
 20
139.470128
 30
0.0
 11
106.982639
 21
139.461147
 31
0.0
 12
106.982639
 22
140.544061
 32
0.0
 13
106.969705
 23
140.534994
 33
0.0
  0
3DFACE
  8
0
  6
CONTINUOUS
 62
   249
 10
106.982639
 20
139.461147
 30
0.0
 11
106.995573
 21
139.452167
 31
0.0
 12
106.995573
 22
140.553129
 32
0.0
 13
106.982639
 23
140.544061
 33
0.0
  0
3DFACE
  8
0
  6
CONTINUOUS
 62
   249
 10
106.995573
 20
139.452167
 30
0.0
 11
107.008507
 21
139.443186
 31
0.0
 12
107.008507
 22
140.562197
 32
0.0
 13
106.995573
 23
140.553129
 33
0.0
  0
3DFACE
  8
0
  6
CONTINUOUS
 62
   249
 10
107.008507
 20
139.443186
 30
0.0
 11
107.021441
 21
139.434205
 31
0.0
 12
107.021441
 22
140.571264
 32
0.0
 13
107.008507
 23
140.562197
 33
0.0
  0
3DFACE
  8
0
  6
CONTINUOUS
 62
   249
 10
107.021441
 20
139.434205
 30
0.0
 11
107.034375
 21
139.425224
 31
0.0
 12
107.034375
 22
140.580332
 32
0.0
 13
107.021441
 23
140.571264
 33
0.0
  0
3DFACE
  8
0
  6
CONTINUOUS
 62
   249
 10
107.034375
 20
139.425224
 30
0.0
 11
107.047309
 21
139.416243
 31
0.0
 12
107.047309
 22
140.5894
 32
0.0
 13
107.034375
 23
140.580332
 33
0.0
  0
3DFACE
  8
0
  6
CONTINUOUS
 62
   249
 10
107.047309
 20
139.416243
 30
0.0
 11
107.060243
 21
139.407262
 31
0.0
 12
107.060243
 22
140.598467
 32
0.0
 13
107.047309
 23
140.5894
 33
0.0
  0
3DFACE
  8
0
  6
CONTINUOUS
 62
   249
 10
107.060243
 20
139.407262
 30
0.0
 11
107.073177
 21
139.398281
 31
0.0
 12
107.073177
 22
140.607535
 32
0.0
 13
107.060243
 23
140.598467
 33
0.0
  0
3DFACE
  8
0
  6
CONTINUOUS
 62
   249
 10
107.073177
 20
139.398281
 30
0.0
 11
107.086111
 21
139.3893
 31
0.0
 12
107.086111
 22
140.616603
 32
0.0
 13
107.073177
 23
140.607535
 33
0.0
  0
3DFACE
  8
0
  6
CONTINUOUS
 62
   249
 10
107.086111
 20
139.3893
 30
0.0
 11
107.099045
 21
139.38032
 31
0.0
 12
107.099045
 22
140.625671
 32
0.0
 13
107.086111
 23
140.616603
 33
0.0
  0
3DFACE
  8
0
  6
CONTINUOUS
 62
   249
 10
107.099045
 20
139.38032
 30
0.0
 11
107.111979
 21
139.371339
 31
0.0
 12
107.111979
 22
140.634738
 32
0.0
 13
107.099045
 23
140.625671
 33
0.0
  0
3DFACE
  8
0
  6
CONTINUOUS
 62
   249
 10
107.111979
 20
139.371339
 30
0.0
 11
107.124913
 21
139.362358
 31
0.0
 12
107.124913
 22
140.643806
 32
0.0
 13
107.111979
 23
140.634738
 33
0.0
  0
3DFACE
  8
0
  6
CONTINUOUS
 62
   249
 10
107.124913
 20
139.362358
 30
0.0
 11
107.137847
 21
139.353377
 31
0.0
 12
107.137847
 22
140.652874
 32
0.0
 13
107.124913
 23
140.643806
 33
0.0
  0
3DFACE
  8
0
  6
CONTINUOUS
 62
   249
 10
107.137847
 20
139.353377
 30
0.0
 11
107.150781
 21
139.344396
 31
0.0
 12
107.150781
 22
140.661941
 32
0.0
 13
107.137847
 23
140.652874
 33
0.0
  0
3DFACE
  8
0
  6
CONTINUOUS
 62
   249
 10
107.150781
 20
139.344396
 30
0.0
 11
107.163715
 21
139.335415
 31
0.0
 12
107.163715
 22
140.671009
 32
0.0
 13
107.150781
 23
140.661941
 33
0.0
  0
3DFACE
  8
0
  6
CONTINUOUS
 62
   249
 10
107.163715
 20
139.335415
 30
0.0
 11
107.176649
 21
139.326434
 31
0.0
 12
107.176649
 22
140.680077
 32
0.0
 13
107.163715
 23
140.671009
 33
0.0
  0
3DFACE
  8
0
  6
CONTINUOUS
 62
   249
 10
107.176649
 20
139.326434
 30
0.0
 11
107.189583
 21
139.317453
 31
0.0
 12
107.189583
 22
140.689144
 32
0.0
 13
107.176649
 23
140.680077
 33
0.0
  0
3DFACE
  8
0
  6
CONTINUOUS
 62
   249
 10
107.189583
 20
139.317453
 30
0.0
 11
107.202517
 21
139.308473
 31
0.0
 12
107.202517
 22
140.698212
 32
0.0
 13
107.189583
 23
140.689144
 33
0.0
  0
3DFACE
  8
0
  6
CONTINUOUS
 62
   249
 10
107.202517
 20
139.308473
 30
0.0
 11
107.215451
 21
139.299492
 31
0.0
 12
107.215451
 22
140.70728
 32
0.0
 13
107.202517
 23
140.698212
 33
0.0
  0
3DFACE
  8
0
  6
CONTINUOUS
 62
   249
 10
107.215451
 20
139.299492
 30
0.0
 11
107.228385
 21
139.290511
 31
0.0
 12
107.228385
 22
140.716347
 32
0.0
 13
107.215451
 23
140.70728
 33
0.0
  0
3DFACE
  8
0
  6
CONTINUOUS
 62
   249
 10
107.228385
 20
139.290511
 30
0.0
 11
107.241319
 21
139.28153
 31
0.0
 12
107.241319
 22
140.725415
 32
0.0
 13
107.228385
 23
140.716347
 33
0.0
  0
3DFACE
  8
0
  6
CONTINUOUS
 62
   249
 10
107.241319
 20
139.28153
 30
0.0
 11
107.254253
 21
139.272549
 31
0.0
 12
107.254253
 22
140.734483
 32
0.0
 13
107.241319
 23
140.725415
 33
0.0
  0
3DFACE
  8
0
  6
CONTINUOUS
 62
   249
 10
107.254253
 20
139.272549
 30
0.0
 11
107.267188
 21
139.263568
 31
0.0
 12
107.267188
 22
140.74355
 32
0.0
 13
107.254253
 23
140.734483
 33
0.0
  0
3DFACE
  8
0
  6
CONTINUOUS
 62
   249
 10
107.267188
 20
139.263568
 30
0.0
 11
107.280122
 21
139.254587
 31
0.0
 12
107.280122
 22
140.752618
 32
0.0
 13
107.267188
 23
140.74355
 33
0.0
  0
3DFACE
  8
0
  6
CONTINUOUS
 62
   249
 10
107.280122
 20
139.254587
 30
0.0
 11
107.293056
 21
139.245606
 31
0.0
 12
107.293056
 22
140.761686
 32
0.0
 13
107.280122
 23
140.752618
 33
0.0
  0
3DFACE
  8
0
  6
CONTINUOUS
 62
   249
 10
107.293056
 20
139.245606
 30
0.0
 11
107.30599
 21
139.236626
 31
0.0
 12
107.30599
 22
140.770754
 32
0.0
 13
107.293056
 23
140.761686
 33
0.0
  0
3DFACE
  8
0
  6
CONTINUOUS
 62
   249
 10
107.30599
 20
139.236626
 30
0.0
 11
107.318924
 21
139.227645
 31
0.0
 12
107.318924
 22
140.779821
 32
0.0
 13
107.30599
 23
140.770754
 33
0.0
  0
3DFACE
  8
0
  6
CONTINUOUS
 62
   249
 10
107.318924
 20
139.227645
 30
0.0
 11
107.331858
 21
139.218664
 31
0.0
 12
107.331858
 22
140.788889
 32
0.0
 13
107.318924
 23
140.779821
 33
0.0
  0
3DFACE
  8
0
  6
CONTINUOUS
 62
   249
 10
107.331858
 20
139.218664
 30
0.0
 11
107.344792
 21
139.209683
 31
0.0
 12
107.344792
 22
140.797957
 32
0.0
 13
107.331858
 23
140.788889
 33
0.0
  0
3DFACE
  8
0
  6
CONTINUOUS
 62
   249
 10
107.344792
 20
139.209683
 30
0.0
 11
107.357726
 21
139.200702
 31
0.0
 12
107.357726
 22
140.807024
 32
0.0
 13
107.344792
 23
140.797957
 33
0.0
  0
3DFACE
  8
0
  6
CONTINUOUS
 62
   249
 10
107.357726
 20
139.200702
 30
0.0
 11
107.37066
 21
139.191721
 31
0.0
 12
107.37066
 22
140.816092
 32
0.0
 13
107.357726
 23
140.807024
 33
0.0
  0
3DFACE
  8
0
  6
CONTINUOUS
 62
   249
 10
107.37066
 20
139.191721
 30
0.0
 11
107.383594
 21
139.18274
 31
0.0
 12
107.383594
 22
140.82516
 32
0.0
 13
107.37066
 23
140.816092
 33
0.0
  0
3DFACE
  8
0
  6
CONTINUOUS
 62
   249
 10
107.383594
 20
139.18274
 30
0.0
 11
107.396528
 21
139.173759
 31
0.0
 12
107.396528
 22
140.834227
 32
0.0
 13
107.383594
 23
140.82516
 33
0.0
  0
3DFACE
  8
0
  6
CONTINUOUS
 62
   249
 10
107.396528
 20
139.173759
 30
0.0
 11
107.409462
 21
139.164779
 31
0.0
 12
107.409462
 22
140.843295
 32
0.0
 13
107.396528
 23
140.834227
 33
0.0
  0
3DFACE
  8
0
  6
CONTINUOUS
 62
   249
 10
107.409462
 20
139.164779
 30
0.0
 11
107.422396
 21
139.155798
 31
0.0
 12
107.422396
 22
140.852363
 32
0.0
 13
107.409462
 23
140.843295
 33
0.0
  0
3DFACE
  8
0
  6
CONTINUOUS
 62
   249
 10
107.422396
 20
139.155798
 30
0.0
 11
107.43533
 21
139.146817
 31
0.0
 12
107.43533
 22
140.86143
 32
0.0
 13
107.422396
 23
140.852363
 33
0.0
  0
3DFACE
  8
0
  6
CONTINUOUS
 62
   249
 10
107.43533
 20
139.146817
 30
0.0
 11
107.448264
 21
139.137836
 31
0.0
 12
107.448264
 22
140.870498
 32
0.0
 13
107.43533
 23
140.86143
 33
0.0
  0
3DFACE
  8
0
  6
CONTINUOUS
 62
   249
 10
107.448264
 20
139.137836
 30
0.0
 11
107.461198
 21
139.128855
 31
0.0
 12
107.461198
 22
140.879566
 32
0.0
 13
107.448264
 23
140.870498
 33
0.0
  0
3DFACE
  8
0
  6
CONTINUOUS
 62
   249
 10
107.461198
 20
139.128855
 30
0.0
 11
107.474132
 21
139.119874
 31
0.0
 12
107.474132
 22
140.888633
 32
0.0
 13
107.461198
 23
140.879566
 33
0.0
  0
3DFACE
  8
0
  6
CONTINUOUS
 62
   249
 10
107.474132
 20
139.119874
 30
0.0
 11
107.487066
 21
139.110893
 31
0.0
 12
107.487066
 22
140.897701
 32
0.0
 13
107.474132
 23
140.888633
 33
0.0
  0
3DFACE
  8
0
  6
CONTINUOUS
 62
   249
 10
107.487066
 20
139.110893
 30
0.0
 11
107.5
 21
139.101912
 31
0.0
 12
107.5
 22
140.906769
 32
0.0
 13
107.487066
 23
140.897701
 33
0.0
  0
3DFACE
  8
0
  6
CONTINUOUS
 62
   249
 10
116.206597
 20
140.0
 30
0.0
 11
116.219531
 21
139.991019
 31
0.0
 12
116.219531
 22
140.009068
 32
0.0
 13
116.206597
 23
140.0
 33
0.0
  0
3DFACE
  8
0
  6
CONTINUOUS
 62
   249
 10
116.219531
 20
139.991019
 30
0.0
 11
116.232465
 21
139.982038
 31
0.0
 12
116.232465
 22
140.018136
 32
0.0
 13
116.219531
 23
140.009068
 33
0.0
  0
3DFACE
  8
0
  6
CONTINUOUS
 62
   249
 10
116.232465
 20
139.982038
 30
0.0
 11
116.245399
 21
139.973057
 31
0.0
 12
116.245399
 22
140.027203
 32
0.0
 13
116.232465
 23
140.018136
 33
0.0
  0
3DFACE
  8
0
  6
CONTINUOUS
 62
   249
 10
116.245399
 20
139.973057
 30
0.0
 11
116.258333
 21
139.964077
 31
0.0
 12
116.258333
 22
140.036271
 32
0.0
 13
116.245399
 23
140.027203
 33
0.0
  0
3DFACE
  8
0
  6
CONTINUOUS
 62
   249
 10
116.258333
 20
139.964077
 30
0.0
 11
116.271267
 21
139.955096
 31
0.0
 12
116.271267
 22
140.045339
 32
0.0
 13
116.258333
 23
140.036271
 33
0.0
  0
3DFACE
  8
0
  6
CONTINUOUS
 62
   249
 10
116.271267
 20
139.955096
 30
0.0
 11
116.284202
 21
139.946115
 31
0.0
 12
116.284202
 22
140.054406
 32
0.0
 13
116.271267
 23
140.045339
 33
0.0
  0
3DFACE
  8
0
  6
CONTINUOUS
 62
   249
 10
116.284202
 20
139.946115
 30
0.0
 11
116.297136
 21
139.937134
 31
0.0
 12
116.297136
 22
140.063474
 32
0.0
 13
116.284202
 23
140.054406
 33
0.0
  0
3DFACE
  8
0
  6
CONTINUOUS
 62
   249
 10
116.297136
 20
139.937134
 30
0.0
 11
116.31007
 21
139.928153
 31
0.0
 12
116.31007
 22
140.072542
 32
0.0
 13
116.297136
 23
140.063474
 33
0.0
  0
3DFACE
  8
0
  6
CONTINUOUS
 62
   249
 10
116.31007
 20
139.928153
 30
0.0
 11
116.323004
 21
139.919172
 31
0.0
 12
116.323004
 22
140.081609
 32
0.0
 13
116.31007
 23
140.072542
 33
0.0
  0
3DFACE
  8
0
  6
CONTINUOUS
 62
   249
 10
116.323004
 20
139.919172
 30
0.0
 11
116.335938
 21
139.910191
 31
0.0
 12
116.335938
 22
140.090677
 32
0.0
 13
116.323004
 23
140.081609
 33
0.0
  0
3DFACE
  8
0
  6
CONTINUOUS
 62
   249
 10
116.335938
 20
139.910191
 30
0.0
 11
116.348872
 21
139.90121
 31
0.0
 12
116.348872
 22
140.099745
 32
0.0
 13
116.335938
 23
140.090677
 33
0.0
  0
3DFACE
  8
0
  6
CONTINUOUS
 62
   249
 10
116.348872
 20
139.90121
 30
0.0
 11
116.361806
 21
139.89223
 31
0.0
 12
116.361806
 22
140.108812
 32
0.0
 13
116.348872
 23
140.099745
 33
0.0
  0
3DFACE
  8
0
  6
CONTINUOUS
 62
   249
 10
116.361806
 20
139.89223
 30
0.0
 11
116.37474
 21
139.883249
 31
0.0
 12
116.37474
 22
140.11788
 32
0.0
 13
116.361806
 23
140.108812
 33
0.0
  0
3DFACE
  8
0
  6
CONTINUOUS
 62
   249
 10
116.37474
 20
139.883249
 30
0.0
 11
116.387674
 21
139.874268
 31
0.0
 12
116.387674
 22
140.126948
 32
0.0
 13
116.37474
 23
140.11788
 33
0.0
  0
3DFACE
  8
0
  6
CONTINUOUS
 62
   249
 10
116.387674
 20
139.874268
 30
0.0
 11
116.400608
 21
139.865287
 31
0.0
 12
116.400608
 22
140.136015
 32
0.0
 13
116.387674
 23
140.126948
 33
0.0
  0
3DFACE
  8
0
  6
CONTINUOUS
 62
   249
 10
116.400608
 20
139.865287
 30
0.0
 11
116.413542
 21
139.856306
 31
0.0
 12
116.413542
 22
140.145083
 32
0.0
 13
116.400608
 23
140.136015
 33
0.0
  0
3DFACE
  8
0
  6
CONTINUOUS
 62
   249
 10
116.413542
 20
139.856306
 30
0.0
 11
116.426476
 21
139.847325
 31
0.0
 12
116.426476
 22
140.154151
 32
0.0
 13
116.413542
 23
140.145083
 33
0.0
  0
3DFACE
  8
0
  6
CONTINUOUS
 62
   249
 10
116.426476
 20
139.847325
 30
0.0
 11
116.43941
 21
139.838344
 31
0.0
 12
116.43941
 22
140.163219
 32
0.0
 13
116.426476
 23
140.154151
 33
0.0
  0
3DFACE
  8
0
  6
CONTINUOUS
 62
   249
 10
116.43941
 20
139.838344
 30
0.0
 11
116.452344
 21
139.829363
 31
0.0
 12
116.452344
 22
140.172286
 32
0.0
 13
116.43941
 23
140.163219
 33
0.0
  0
3DFACE
  8
0
  6
CONTINUOUS
 62
   249
 10
116.452344
 20
139.829363
 30
0.0
 11
116.465278
 21
139.820383
 31
0.0
 12
116.465278
 22
140.181354
 32
0.0
 13
116.452344
 23
140.172286
 33
0.0
  0
3DFACE
  8
0
  6
CONTINUOUS
 62
   249
 10
116.465278
 20
139.820383
 30
0.0
 11
116.478212
 21
139.811402
 31
0.0
 12
116.478212
 22
140.190422
 32
0.0
 13
116.465278
 23
140.181354
 33
0.0
  0
3DFACE
  8
0
  6
CONTINUOUS
 62
   249
 10
116.478212
 20
139.811402
 30
0.0
 11
116.491146
 21
139.802421
 31
0.0
 12
116.491146
 22
140.199489
 32
0.0
 13
116.478212
 23
140.190422
 33
0.0
  0
3DFACE
  8
0
  6
CONTINUOUS
 62
   249
 10
116.491146
 20
139.802421
 30
0.0
 11
116.50408
 21
139.79344
 31
0.0
 12
116.50408
 22
140.208557
 32
0.0
 13
116.491146
 23
140.199489
 33
0.0
  0
3DFACE
  8
0
  6
CONTINUOUS
 62
   249
 10
116.50408
 20
139.79344
 30
0.0
 11
116.517014
 21
139.784459
 31
0.0
 12
116.517014
 22
140.217625
 32
0.0
 13
116.50408
 23
140.208557
 33
0.0
  0
3DFACE
  8
0
  6
CONTINUOUS
 62
   249
 10
116.517014
 20
139.784459
 30
0.0
 11
116.529948
 21
139.775478
 31
0.0
 12
116.529948
 22
140.226692
 32
0.0
 13
116.517014
 23
140.217625
 33
0.0
  0
3DFACE
  8
0
  6
CONTINUOUS
 62
   249
 10
116.529948
 20
139.775478
 30
0.0
 11
116.542882
 21
139.766497
 31
0.0
 12
116.542882
 22
140.23576
 32
0.0
 13
116.529948
 23
140.226692
 33
0.0
  0
3DFACE
  8
0
  6
CONTINUOUS
 62
   249
 10
116.542882
 20
139.766497
 30
0.0
 11
116.555816
 21
139.757516
 31
0.0
 12
116.555816
 22
140.244828
 32
0.0
 13
116.542882
 23
140.23576
 33
0.0
  0
3DFACE
  8
0
  6
CONTINUOUS
 62
   249
 10
116.555816
 20
139.757516
 30
0.0
 11
116.56875
 21
139.748536
 31
0.0
 12
116.56875
 22
140.253895
 32
0.0
 13
116.555816
 23
140.244828
 33
0.0
  0
3DFACE
  8
0
  6
CONTINUOUS
 62
   249
 10
116.56875
 20
139.748536
 30
0.0
 11
116.581684
 21
139.739555
 31
0.0
 12
116.581684
 22
140.262963
 32
0.0
 13
116.56875
 23
140.253895
 33
0.0
  0
3DFACE
  8
0
  6
CONTINUOUS
 62
   249
 10
116.581684
 20
139.739555
 30
0.0
 11
116.594618
 21
139.730574
 31
0.0
 12
116.594618
 22
140.272031
 32
0.0
 13
116.581684
 23
140.262963
 33
0.0
  0
3DFACE
  8
0
  6
CONTINUOUS
 62
   249
 10
116.594618
 20
139.730574
 30
0.0
 11
116.607552
 21
139.721593
 31
0.0
 12
116.607552
 22
140.281098
 32
0.0
 13
116.594618
 23
140.272031
 33
0.0
  0
3DFACE
  8
0
  6
CONTINUOUS
 62
   249
 10
116.607552
 20
139.721593
 30
0.0
 11
116.620486
 21
139.712612
 31
0.0
 12
116.620486
 22
140.290166
 32
0.0
 13
116.607552
 23
140.281098
 33
0.0
  0
3DFACE
  8
0
  6
CONTINUOUS
 62
   249
 10
116.620486
 20
139.712612
 30
0.0
 11
116.63342
 21
139.703631
 31
0.0
 12
116.63342
 22
140.299234
 32
0.0
 13
116.620486
 23
140.290166
 33
0.0
  0
3DFACE
  8
0
  6
CONTINUOUS
 62
   249
 10
116.63342
 20
139.703631
 30
0.0
 11
116.646354
 21
139.69465
 31
0.0
 12
116.646354
 22
140.308301
 32
0.0
 13
116.63342
 23
140.299234
 33
0.0
  0
3DFACE
  8
0
  6
CONTINUOUS
 62
   249
 10
116.646354
 20
139.69465
 30
0.0
 11
116.659288
 21
139.685669
 31
0.0
 12
116.659288
 22
140.317369
 32
0.0
 13
116.646354
 23
140.308301
 33
0.0
  0
3DFACE
  8
0
  6
CONTINUOUS
 62
   249
 10
116.659288
 20
139.685669
 30
0.0
 11
116.672222
 21
139.676689
 31
0.0
 12
116.672222
 22
140.326437
 32
0.0
 13
116.659288
 23
140.317369
 33
0.0
  0
3DFACE
  8
0
  6
CONTINUOUS
 62
   249
 10
116.672222
 20
139.676689
 30
0.0
 11
116.685156
 21
139.667708
 31
0.0
 12
116.685156
 22
140.335505
 32
0.0
 13
116.672222
 23
140.326437
 33
0.0
  0
3DFACE
  8
0
  6
CONTINUOUS
 62
   249
 10
116.685156
 20
139.667708
 30
0.0
 11
116.69809
 21
139.658727
 31
0.0
 12
116.69809
 22
140.344572
 32
0.0
 13
116.685156
 23
140.335505
 33
0.0
  0
3DFACE
  8
0
  6
CONTINUOUS
 62
   249
 10
116.69809
 20
139.658727
 30
0.0
 11
116.711024
 21
139.649746
 31
0.0
 12
116.711024
 22
140.35364
 32
0.0
 13
116.69809
 23
140.344572
 33
0.0
  0
3DFACE
  8
0
  6
CONTINUOUS
 62
   249
 10
116.711024
 20
139.649746
 30
0.0
 11
116.723958
 21
139.640765
 31
0.0
 12
116.723958
 22
140.362708
 32
0.0
 13
116.711024
 23
140.35364
 33
0.0
  0
3DFACE
  8
0
  6
CONTINUOUS
 62
   249
 10
116.723958
 20
139.640765
 30
0.0
 11
116.736892
 21
139.631784
 31
0.0
 12
116.736892
 22
140.371775
 32
0.0
 13
116.723958
 23
140.362708
 33
0.0
  0
3DFACE
  8
0
  6
CONTINUOUS
 62
   249
 10
116.736892
 20
139.631784
 30
0.0
 11
116.749826
 21
139.622803
 31
0.0
 12
116.749826
 22
140.380843
 32
0.0
 13
116.736892
 23
140.371775
 33
0.0
  0
3DFACE
  8
0
  6
CONTINUOUS
 62
   249
 10
116.749826
 20
139.622803
 30
0.0
 11
116.76276
 21
139.613822
 31
0.0
 12
116.76276
 22
140.389911
 32
0.0
 13
116.749826
 23
140.380843
 33
0.0
  0
3DFACE
  8
0
  6
CONTINUOUS
 62
   249
 10
116.76276
 20
139.613822
 30
0.0
 11
116.775695
 21
139.604842
 31
0.0
 12
116.775695
 22
140.398978
 32
0.0
 13
116.76276
 23
140.389911
 33
0.0
  0
3DFACE
  8
0
  6
CONTINUOUS
 62
   249
 10
116.775695
 20
139.604842
 30
0.0
 11
116.788629
 21
139.595861
 31
0.0
 12
116.788629
 22
140.408046
 32
0.0
 13
116.775695
 23
140.398978
 33
0.0
  0
3DFACE
  8
0
  6
CONTINUOUS
 62
   249
 10
116.788629
 20
139.595861
 30
0.0
 11
116.801563
 21
139.58688
 31
0.0
 12
116.801563
 22
140.417114
 32
0.0
 13
116.788629
 23
140.408046
 33
0.0
  0
3DFACE
  8
0
  6
CONTINUOUS
 62
   249
 10
116.801563
 20
139.58688
 30
0.0
 11
116.814497
 21
139.577899
 31
0.0
 12
116.814497
 22
140.426181
 32
0.0
 13
116.801563
 23
140.417114
 33
0.0
  0
3DFACE
  8
0
  6
CONTINUOUS
 62
   249
 10
116.814497
 20
139.577899
 30
0.0
 11
116.827431
 21
139.568918
 31
0.0
 12
116.827431
 22
140.435249
 32
0.0
 13
116.814497
 23
140.426181
 33
0.0
  0
3DFACE
  8
0
  6
CONTINUOUS
 62
   249
 10
116.827431
 20
139.568918
 30
0.0
 11
116.840365
 21
139.559937
 31
0.0
 12
116.840365
 22
140.444317
 32
0.0
 13
116.827431
 23
140.435249
 33
0.0
  0
3DFACE
  8
0
  6
CONTINUOUS
 62
   249
 10
116.840365
 20
139.559937
 30
0.0
 11
116.853299
 21
139.550956
 31
0.0
 12
116.853299
 22
140.453384
 32
0.0
 13
116.840365
 23
140.444317
 33
0.0
  0
3DFACE
  8
0
  6
CONTINUOUS
 62
   249
 10
116.853299
 20
139.550956
 30
0.0
 11
116.866233
 21
139.541975
 31
0.0
 12
116.866233
 22
140.462452
 32
0.0
 13
116.853299
 23
140.453384
 33
0.0
  0
3DFACE
  8
0
  6
CONTINUOUS
 62
   249
 10
116.866233
 20
139.541975
 30
0.0
 11
116.879167
 21
139.532995
 31
0.0
 12
116.879167
 22
140.47152
 32
0.0
 13
116.866233
 23
140.462452
 33
0.0
  0
3DFACE
  8
0
  6
CONTINUOUS
 62
   249
 10
116.879167
 20
139.532995
 30
0.0
 11
116.892101
 21
139.524014
 31
0.0
 12
116.892101
 22
140.480588
 32
0.0
 13
116.879167
 23
140.47152
 33
0.0
  0
3DFACE
  8
0
  6
CONTINUOUS
 62
   249
 10
116.892101
 20
139.524014
 30
0.0
 11
116.905035
 21
139.515033
 31
0.0
 12
116.905035
 22
140.489655
 32
0.0
 13
116.892101
 23
140.480588
 33
0.0
  0
3DFACE
  8
0
  6
CONTINUOUS
 62
   249
 10
116.905035
 20
139.515033
 30
0.0
 11
116.917969
 21
139.506052
 31
0.0
 12
116.917969
 22
140.498723
 32
0.0
 13
116.905035
 23
140.489655
 33
0.0
  0
3DFACE
  8
0
  6
CONTINUOUS
 62
   249
 10
116.917969
 20
139.506052
 30
0.0
 11
116.930903
 21
139.497071
 31
0.0
 12
116.930903
 22
140.507791
 32
0.0
 13
116.917969
 23
140.498723
 33
0.0
  0
3DFACE
  8
0
  6
CONTINUOUS
 62
   249
 10
116.930903
 20
139.497071
 30
0.0
 11
116.943837
 21
139.48809
 31
0.0
 12
116.943837
 22
140.516858
 32
0.0
 13
116.930903
 23
140.507791
 33
0.0
  0
3DFACE
  8
0
  6
CONTINUOUS
 62
   249
 10
116.943837
 20
139.48809
 30
0.0
 11
116.956771
 21
139.479109
 31
0.0
 12
116.956771
 22
140.525926
 32
0.0
 13
116.943837
 23
140.516858
 33
0.0
  0
3DFACE
  8
0
  6
CONTINUOUS
 62
   249
 10
116.956771
 20
139.479109
 30
0.0
 11
116.969705
 21
139.470128
 31
0.0
 12
116.969705
 22
140.534994
 32
0.0
 13
116.956771
 23
140.525926
 33
0.0
  0
3DFACE
  8
0
  6
CONTINUOUS
 62
   249
 10
116.969705
 20
139.470128
 30
0.0
 11
116.982639
 21
139.461147
 31
0.0
 12
116.982639
 22
140.544061
 32
0.0
 13
116.969705
 23
140.534994
 33
0.0
  0
3DFACE
  8
0
  6
CONTINUOUS
 62
   249
 10
116.982639
 20
139.461147
 30
0.0
 11
116.995573
 21
139.452167
 31
0.0
 12
116.995573
 22
140.553129
 32
0.0
 13
116.982639
 23
140.544061
 33
0.0
  0
3DFACE
  8
0
  6
CONTINUOUS
 62
   249
 10
116.995573
 20
139.452167
 30
0.0
 11
117.008507
 21
139.443186
 31
0.0
 12
117.008507
 22
140.562197
 32
0.0
 13
116.995573
 23
140.553129
 33
0.0
  0
3DFACE
  8
0
  6
CONTINUOUS
 62
   249
 10
117.008507
 20
139.443186
 30
0.0
 11
117.021441
 21
139.434205
 31
0.0
 12
117.021441
 22
140.571264
 32
0.0
 13
117.008507
 23
140.562197
 33
0.0
  0
3DFACE
  8
0
  6
CONTINUOUS
 62
   249
 10
117.021441
 20
139.434205
 30
0.0
 11
117.034375
 21
139.425224
 31
0.0
 12
117.034375
 22
140.580332
 32
0.0
 13
117.021441
 23
140.571264
 33
0.0
  0
3DFACE
  8
0
  6
CONTINUOUS
 62
   249
 10
117.034375
 20
139.425224
 30
0.0
 11
117.047309
 21
139.416243
 31
0.0
 12
117.047309
 22
140.5894
 32
0.0
 13
117.034375
 23
140.580332
 33
0.0
  0
3DFACE
  8
0
  6
CONTINUOUS
 62
   249
 10
117.047309
 20
139.416243
 30
0.0
 11
117.060243
 21
139.407262
 31
0.0
 12
117.060243
 22
140.598467
 32
0.0
 13
117.047309
 23
140.5894
 33
0.0
  0
3DFACE
  8
0
  6
CONTINUOUS
 62
   249
 10
117.060243
 20
139.407262
 30
0.0
 11
117.073177
 21
139.398281
 31
0.0
 12
117.073177
 22
140.607535
 32
0.0
 13
117.060243
 23
140.598467
 33
0.0
  0
3DFACE
  8
0
  6
CONTINUOUS
 62
   249
 10
117.073177
 20
139.398281
 30
0.0
 11
117.086111
 21
139.3893
 31
0.0
 12
117.086111
 22
140.616603
 32
0.0
 13
117.073177
 23
140.607535
 33
0.0
  0
3DFACE
  8
0
  6
CONTINUOUS
 62
   249
 10
117.086111
 20
139.3893
 30
0.0
 11
117.099045
 21
139.38032
 31
0.0
 12
117.099045
 22
140.625671
 32
0.0
 13
117.086111
 23
140.616603
 33
0.0
  0
3DFACE
  8
0
  6
CONTINUOUS
 62
   249
 10
117.099045
 20
139.38032
 30
0.0
 11
117.111979
 21
139.371339
 31
0.0
 12
117.111979
 22
140.634738
 32
0.0
 13
117.099045
 23
140.625671
 33
0.0
  0
3DFACE
  8
0
  6
CONTINUOUS
 62
   249
 10
117.111979
 20
139.371339
 30
0.0
 11
117.124913
 21
139.362358
 31
0.0
 12
117.124913
 22
140.643806
 32
0.0
 13
117.111979
 23
140.634738
 33
0.0
  0
3DFACE
  8
0
  6
CONTINUOUS
 62
   249
 10
117.124913
 20
139.362358
 30
0.0
 11
117.137847
 21
139.353377
 31
0.0
 12
117.137847
 22
140.652874
 32
0.0
 13
117.124913
 23
140.643806
 33
0.0
  0
3DFACE
  8
0
  6
CONTINUOUS
 62
   249
 10
117.137847
 20
139.353377
 30
0.0
 11
117.150781
 21
139.344396
 31
0.0
 12
117.150781
 22
140.661941
 32
0.0
 13
117.137847
 23
140.652874
 33
0.0
  0
3DFACE
  8
0
  6
CONTINUOUS
 62
   249
 10
117.150781
 20
139.344396
 30
0.0
 11
117.163715
 21
139.335415
 31
0.0
 12
117.163715
 22
140.671009
 32
0.0
 13
117.150781
 23
140.661941
 33
0.0
  0
3DFACE
  8
0
  6
CONTINUOUS
 62
   249
 10
117.163715
 20
139.335415
 30
0.0
 11
117.176649
 21
139.326434
 31
0.0
 12
117.176649
 22
140.680077
 32
0.0
 13
117.163715
 23
140.671009
 33
0.0
  0
3DFACE
  8
0
  6
CONTINUOUS
 62
   249
 10
117.176649
 20
139.326434
 30
0.0
 11
117.189583
 21
139.317453
 31
0.0
 12
117.189583
 22
140.689144
 32
0.0
 13
117.176649
 23
140.680077
 33
0.0
  0
3DFACE
  8
0
  6
CONTINUOUS
 62
   249
 10
117.189583
 20
139.317453
 30
0.0
 11
117.202517
 21
139.308473
 31
0.0
 12
117.202517
 22
140.698212
 32
0.0
 13
117.189583
 23
140.689144
 33
0.0
  0
3DFACE
  8
0
  6
CONTINUOUS
 62
   249
 10
117.202517
 20
139.308473
 30
0.0
 11
117.215451
 21
139.299492
 31
0.0
 12
117.215451
 22
140.70728
 32
0.0
 13
117.202517
 23
140.698212
 33
0.0
  0
3DFACE
  8
0
  6
CONTINUOUS
 62
   249
 10
117.215451
 20
139.299492
 30
0.0
 11
117.228385
 21
139.290511
 31
0.0
 12
117.228385
 22
140.716347
 32
0.0
 13
117.215451
 23
140.70728
 33
0.0
  0
3DFACE
  8
0
  6
CONTINUOUS
 62
   249
 10
117.228385
 20
139.290511
 30
0.0
 11
117.241319
 21
139.28153
 31
0.0
 12
117.241319
 22
140.725415
 32
0.0
 13
117.228385
 23
140.716347
 33
0.0
  0
3DFACE
  8
0
  6
CONTINUOUS
 62
   249
 10
117.241319
 20
139.28153
 30
0.0
 11
117.254253
 21
139.272549
 31
0.0
 12
117.254253
 22
140.734483
 32
0.0
 13
117.241319
 23
140.725415
 33
0.0
  0
3DFACE
  8
0
  6
CONTINUOUS
 62
   249
 10
117.254253
 20
139.272549
 30
0.0
 11
117.267188
 21
139.263568
 31
0.0
 12
117.267188
 22
140.74355
 32
0.0
 13
117.254253
 23
140.734483
 33
0.0
  0
3DFACE
  8
0
  6
CONTINUOUS
 62
   249
 10
117.267188
 20
139.263568
 30
0.0
 11
117.280122
 21
139.254587
 31
0.0
 12
117.280122
 22
140.752618
 32
0.0
 13
117.267188
 23
140.74355
 33
0.0
  0
3DFACE
  8
0
  6
CONTINUOUS
 62
   249
 10
117.280122
 20
139.254587
 30
0.0
 11
117.293056
 21
139.245606
 31
0.0
 12
117.293056
 22
140.761686
 32
0.0
 13
117.280122
 23
140.752618
 33
0.0
  0
3DFACE
  8
0
  6
CONTINUOUS
 62
   249
 10
117.293056
 20
139.245606
 30
0.0
 11
117.30599
 21
139.236626
 31
0.0
 12
117.30599
 22
140.770754
 32
0.0
 13
117.293056
 23
140.761686
 33
0.0
  0
3DFACE
  8
0
  6
CONTINUOUS
 62
   249
 10
117.30599
 20
139.236626
 30
0.0
 11
117.318924
 21
139.227645
 31
0.0
 12
117.318924
 22
140.779821
 32
0.0
 13
117.30599
 23
140.770754
 33
0.0
  0
3DFACE
  8
0
  6
CONTINUOUS
 62
   249
 10
117.318924
 20
139.227645
 30
0.0
 11
117.331858
 21
139.218664
 31
0.0
 12
117.331858
 22
140.788889
 32
0.0
 13
117.318924
 23
140.779821
 33
0.0
  0
3DFACE
  8
0
  6
CONTINUOUS
 62
   249
 10
117.331858
 20
139.218664
 30
0.0
 11
117.344792
 21
139.209683
 31
0.0
 12
117.344792
 22
140.797957
 32
0.0
 13
117.331858
 23
140.788889
 33
0.0
  0
3DFACE
  8
0
  6
CONTINUOUS
 62
   249
 10
117.344792
 20
139.209683
 30
0.0
 11
117.357726
 21
139.200702
 31
0.0
 12
117.357726
 22
140.807024
 32
0.0
 13
117.344792
 23
140.797957
 33
0.0
  0
3DFACE
  8
0
  6
CONTINUOUS
 62
   249
 10
117.357726
 20
139.200702
 30
0.0
 11
117.37066
 21
139.191721
 31
0.0
 12
117.37066
 22
140.816092
 32
0.0
 13
117.357726
 23
140.807024
 33
0.0
  0
3DFACE
  8
0
  6
CONTINUOUS
 62
   249
 10
117.37066
 20
139.191721
 30
0.0
 11
117.383594
 21
139.18274
 31
0.0
 12
117.383594
 22
140.82516
 32
0.0
 13
117.37066
 23
140.816092
 33
0.0
  0
3DFACE
  8
0
  6
CONTINUOUS
 62
   249
 10
117.383594
 20
139.18274
 30
0.0
 11
117.396528
 21
139.173759
 31
0.0
 12
117.396528
 22
140.834227
 32
0.0
 13
117.383594
 23
140.82516
 33
0.0
  0
3DFACE
  8
0
  6
CONTINUOUS
 62
   249
 10
117.396528
 20
139.173759
 30
0.0
 11
117.409462
 21
139.164779
 31
0.0
 12
117.409462
 22
140.843295
 32
0.0
 13
117.396528
 23
140.834227
 33
0.0
  0
3DFACE
  8
0
  6
CONTINUOUS
 62
   249
 10
117.409462
 20
139.164779
 30
0.0
 11
117.422396
 21
139.155798
 31
0.0
 12
117.422396
 22
140.852363
 32
0.0
 13
117.409462
 23
140.843295
 33
0.0
  0
3DFACE
  8
0
  6
CONTINUOUS
 62
   249
 10
117.422396
 20
139.155798
 30
0.0
 11
117.43533
 21
139.146817
 31
0.0
 12
117.43533
 22
140.86143
 32
0.0
 13
117.422396
 23
140.852363
 33
0.0
  0
3DFACE
  8
0
  6
CONTINUOUS
 62
   249
 10
117.43533
 20
139.146817
 30
0.0
 11
117.448264
 21
139.137836
 31
0.0
 12
117.448264
 22
140.870498
 32
0.0
 13
117.43533
 23
140.86143
 33
0.0
  0
3DFACE
  8
0
  6
CONTINUOUS
 62
   249
 10
117.448264
 20
139.137836
 30
0.0
 11
117.461198
 21
139.128855
 31
0.0
 12
117.461198
 22
140.879566
 32
0.0
 13
117.448264
 23
140.870498
 33
0.0
  0
3DFACE
  8
0
  6
CONTINUOUS
 62
   249
 10
117.461198
 20
139.128855
 30
0.0
 11
117.474132
 21
139.119874
 31
0.0
 12
117.474132
 22
140.888633
 32
0.0
 13
117.461198
 23
140.879566
 33
0.0
  0
3DFACE
  8
0
  6
CONTINUOUS
 62
   249
 10
117.474132
 20
139.119874
 30
0.0
 11
117.487066
 21
139.110893
 31
0.0
 12
117.487066
 22
140.897701
 32
0.0
 13
117.474132
 23
140.888633
 33
0.0
  0
3DFACE
  8
0
  6
CONTINUOUS
 62
   249
 10
117.487066
 20
139.110893
 30
0.0
 11
117.5
 21
139.101912
 31
0.0
 12
117.5
 22
140.906769
 32
0.0
 13
117.487066
 23
140.897701
 33
0.0
  0
3DFACE
  8
0
  6
CONTINUOUS
 62
   249
 10
121.206597
 20
140.0
 30
0.0
 11
121.219531
 21
139.991019
 31
0.0
 12
121.219531
 22
140.009068
 32
0.0
 13
121.206597
 23
140.0
 33
0.0
  0
3DFACE
  8
0
  6
CONTINUOUS
 62
   249
 10
121.219531
 20
139.991019
 30
0.0
 11
121.232465
 21
139.982038
 31
0.0
 12
121.232465
 22
140.018136
 32
0.0
 13
121.219531
 23
140.009068
 33
0.0
  0
3DFACE
  8
0
  6
CONTINUOUS
 62
   249
 10
121.232465
 20
139.982038
 30
0.0
 11
121.245399
 21
139.973057
 31
0.0
 12
121.245399
 22
140.027203
 32
0.0
 13
121.232465
 23
140.018136
 33
0.0
  0
3DFACE
  8
0
  6
CONTINUOUS
 62
   249
 10
121.245399
 20
139.973057
 30
0.0
 11
121.258333
 21
139.964077
 31
0.0
 12
121.258333
 22
140.036271
 32
0.0
 13
121.245399
 23
140.027203
 33
0.0
  0
3DFACE
  8
0
  6
CONTINUOUS
 62
   249
 10
121.258333
 20
139.964077
 30
0.0
 11
121.271267
 21
139.955096
 31
0.0
 12
121.271267
 22
140.045339
 32
0.0
 13
121.258333
 23
140.036271
 33
0.0
  0
3DFACE
  8
0
  6
CONTINUOUS
 62
   249
 10
121.271267
 20
139.955096
 30
0.0
 11
121.284202
 21
139.946115
 31
0.0
 12
121.284202
 22
140.054406
 32
0.0
 13
121.271267
 23
140.045339
 33
0.0
  0
3DFACE
  8
0
  6
CONTINUOUS
 62
   249
 10
121.284202
 20
139.946115
 30
0.0
 11
121.297136
 21
139.937134
 31
0.0
 12
121.297136
 22
140.063474
 32
0.0
 13
121.284202
 23
140.054406
 33
0.0
  0
3DFACE
  8
0
  6
CONTINUOUS
 62
   249
 10
121.297136
 20
139.937134
 30
0.0
 11
121.31007
 21
139.928153
 31
0.0
 12
121.31007
 22
140.072542
 32
0.0
 13
121.297136
 23
140.063474
 33
0.0
  0
3DFACE
  8
0
  6
CONTINUOUS
 62
   249
 10
121.31007
 20
139.928153
 30
0.0
 11
121.323004
 21
139.919172
 31
0.0
 12
121.323004
 22
140.081609
 32
0.0
 13
121.31007
 23
140.072542
 33
0.0
  0
3DFACE
  8
0
  6
CONTINUOUS
 62
   249
 10
121.323004
 20
139.919172
 30
0.0
 11
121.335938
 21
139.910191
 31
0.0
 12
121.335938
 22
140.090677
 32
0.0
 13
121.323004
 23
140.081609
 33
0.0
  0
3DFACE
  8
0
  6
CONTINUOUS
 62
   249
 10
121.335938
 20
139.910191
 30
0.0
 11
121.348872
 21
139.90121
 31
0.0
 12
121.348872
 22
140.099745
 32
0.0
 13
121.335938
 23
140.090677
 33
0.0
  0
3DFACE
  8
0
  6
CONTINUOUS
 62
   249
 10
121.348872
 20
139.90121
 30
0.0
 11
121.361806
 21
139.89223
 31
0.0
 12
121.361806
 22
140.108812
 32
0.0
 13
121.348872
 23
140.099745
 33
0.0
  0
3DFACE
  8
0
  6
CONTINUOUS
 62
   249
 10
121.361806
 20
139.89223
 30
0.0
 11
121.37474
 21
139.883249
 31
0.0
 12
121.37474
 22
140.11788
 32
0.0
 13
121.361806
 23
140.108812
 33
0.0
  0
3DFACE
  8
0
  6
CONTINUOUS
 62
   249
 10
121.37474
 20
139.883249
 30
0.0
 11
121.387674
 21
139.874268
 31
0.0
 12
121.387674
 22
140.126948
 32
0.0
 13
121.37474
 23
140.11788
 33
0.0
  0
3DFACE
  8
0
  6
CONTINUOUS
 62
   249
 10
121.387674
 20
139.874268
 30
0.0
 11
121.400608
 21
139.865287
 31
0.0
 12
121.400608
 22
140.136015
 32
0.0
 13
121.387674
 23
140.126948
 33
0.0
  0
3DFACE
  8
0
  6
CONTINUOUS
 62
   249
 10
121.400608
 20
139.865287
 30
0.0
 11
121.413542
 21
139.856306
 31
0.0
 12
121.413542
 22
140.145083
 32
0.0
 13
121.400608
 23
140.136015
 33
0.0
  0
3DFACE
  8
0
  6
CONTINUOUS
 62
   249
 10
121.413542
 20
139.856306
 30
0.0
 11
121.426476
 21
139.847325
 31
0.0
 12
121.426476
 22
140.154151
 32
0.0
 13
121.413542
 23
140.145083
 33
0.0
  0
3DFACE
  8
0
  6
CONTINUOUS
 62
   249
 10
121.426476
 20
139.847325
 30
0.0
 11
121.43941
 21
139.838344
 31
0.0
 12
121.43941
 22
140.163219
 32
0.0
 13
121.426476
 23
140.154151
 33
0.0
  0
3DFACE
  8
0
  6
CONTINUOUS
 62
   249
 10
121.43941
 20
139.838344
 30
0.0
 11
121.452344
 21
139.829363
 31
0.0
 12
121.452344
 22
140.172286
 32
0.0
 13
121.43941
 23
140.163219
 33
0.0
  0
3DFACE
  8
0
  6
CONTINUOUS
 62
   249
 10
121.452344
 20
139.829363
 30
0.0
 11
121.465278
 21
139.820383
 31
0.0
 12
121.465278
 22
140.181354
 32
0.0
 13
121.452344
 23
140.172286
 33
0.0
  0
3DFACE
  8
0
  6
CONTINUOUS
 62
   249
 10
121.465278
 20
139.820383
 30
0.0
 11
121.478212
 21
139.811402
 31
0.0
 12
121.478212
 22
140.190422
 32
0.0
 13
121.465278
 23
140.181354
 33
0.0
  0
3DFACE
  8
0
  6
CONTINUOUS
 62
   249
 10
121.478212
 20
139.811402
 30
0.0
 11
121.491146
 21
139.802421
 31
0.0
 12
121.491146
 22
140.199489
 32
0.0
 13
121.478212
 23
140.190422
 33
0.0
  0
3DFACE
  8
0
  6
CONTINUOUS
 62
   249
 10
121.491146
 20
139.802421
 30
0.0
 11
121.50408
 21
139.79344
 31
0.0
 12
121.50408
 22
140.208557
 32
0.0
 13
121.491146
 23
140.199489
 33
0.0
  0
3DFACE
  8
0
  6
CONTINUOUS
 62
   249
 10
121.50408
 20
139.79344
 30
0.0
 11
121.517014
 21
139.784459
 31
0.0
 12
121.517014
 22
140.217625
 32
0.0
 13
121.50408
 23
140.208557
 33
0.0
  0
3DFACE
  8
0
  6
CONTINUOUS
 62
   249
 10
121.517014
 20
139.784459
 30
0.0
 11
121.529948
 21
139.775478
 31
0.0
 12
121.529948
 22
140.226692
 32
0.0
 13
121.517014
 23
140.217625
 33
0.0
  0
3DFACE
  8
0
  6
CONTINUOUS
 62
   249
 10
121.529948
 20
139.775478
 30
0.0
 11
121.542882
 21
139.766497
 31
0.0
 12
121.542882
 22
140.23576
 32
0.0
 13
121.529948
 23
140.226692
 33
0.0
  0
3DFACE
  8
0
  6
CONTINUOUS
 62
   249
 10
121.542882
 20
139.766497
 30
0.0
 11
121.555816
 21
139.757516
 31
0.0
 12
121.555816
 22
140.244828
 32
0.0
 13
121.542882
 23
140.23576
 33
0.0
  0
3DFACE
  8
0
  6
CONTINUOUS
 62
   249
 10
121.555816
 20
139.757516
 30
0.0
 11
121.56875
 21
139.748536
 31
0.0
 12
121.56875
 22
140.253895
 32
0.0
 13
121.555816
 23
140.244828
 33
0.0
  0
3DFACE
  8
0
  6
CONTINUOUS
 62
   249
 10
121.56875
 20
139.748536
 30
0.0
 11
121.581684
 21
139.739555
 31
0.0
 12
121.581684
 22
140.262963
 32
0.0
 13
121.56875
 23
140.253895
 33
0.0
  0
3DFACE
  8
0
  6
CONTINUOUS
 62
   249
 10
121.581684
 20
139.739555
 30
0.0
 11
121.594618
 21
139.730574
 31
0.0
 12
121.594618
 22
140.272031
 32
0.0
 13
121.581684
 23
140.262963
 33
0.0
  0
3DFACE
  8
0
  6
CONTINUOUS
 62
   249
 10
121.594618
 20
139.730574
 30
0.0
 11
121.607552
 21
139.721593
 31
0.0
 12
121.607552
 22
140.281098
 32
0.0
 13
121.594618
 23
140.272031
 33
0.0
  0
3DFACE
  8
0
  6
CONTINUOUS
 62
   249
 10
121.607552
 20
139.721593
 30
0.0
 11
121.620486
 21
139.712612
 31
0.0
 12
121.620486
 22
140.290166
 32
0.0
 13
121.607552
 23
140.281098
 33
0.0
  0
3DFACE
  8
0
  6
CONTINUOUS
 62
   249
 10
121.620486
 20
139.712612
 30
0.0
 11
121.63342
 21
139.703631
 31
0.0
 12
121.63342
 22
140.299234
 32
0.0
 13
121.620486
 23
140.290166
 33
0.0
  0
3DFACE
  8
0
  6
CONTINUOUS
 62
   249
 10
121.63342
 20
139.703631
 30
0.0
 11
121.646354
 21
139.69465
 31
0.0
 12
121.646354
 22
140.308301
 32
0.0
 13
121.63342
 23
140.299234
 33
0.0
  0
3DFACE
  8
0
  6
CONTINUOUS
 62
   249
 10
121.646354
 20
139.69465
 30
0.0
 11
121.659288
 21
139.685669
 31
0.0
 12
121.659288
 22
140.317369
 32
0.0
 13
121.646354
 23
140.308301
 33
0.0
  0
3DFACE
  8
0
  6
CONTINUOUS
 62
   249
 10
121.659288
 20
139.685669
 30
0.0
 11
121.672222
 21
139.676689
 31
0.0
 12
121.672222
 22
140.326437
 32
0.0
 13
121.659288
 23
140.317369
 33
0.0
  0
3DFACE
  8
0
  6
CONTINUOUS
 62
   249
 10
121.672222
 20
139.676689
 30
0.0
 11
121.685156
 21
139.667708
 31
0.0
 12
121.685156
 22
140.335505
 32
0.0
 13
121.672222
 23
140.326437
 33
0.0
  0
3DFACE
  8
0
  6
CONTINUOUS
 62
   249
 10
121.685156
 20
139.667708
 30
0.0
 11
121.69809
 21
139.658727
 31
0.0
 12
121.69809
 22
140.344572
 32
0.0
 13
121.685156
 23
140.335505
 33
0.0
  0
3DFACE
  8
0
  6
CONTINUOUS
 62
   249
 10
121.69809
 20
139.658727
 30
0.0
 11
121.711024
 21
139.649746
 31
0.0
 12
121.711024
 22
140.35364
 32
0.0
 13
121.69809
 23
140.344572
 33
0.0
  0
3DFACE
  8
0
  6
CONTINUOUS
 62
   249
 10
121.711024
 20
139.649746
 30
0.0
 11
121.723958
 21
139.640765
 31
0.0
 12
121.723958
 22
140.362708
 32
0.0
 13
121.711024
 23
140.35364
 33
0.0
  0
3DFACE
  8
0
  6
CONTINUOUS
 62
   249
 10
121.723958
 20
139.640765
 30
0.0
 11
121.736892
 21
139.631784
 31
0.0
 12
121.736892
 22
140.371775
 32
0.0
 13
121.723958
 23
140.362708
 33
0.0
  0
3DFACE
  8
0
  6
CONTINUOUS
 62
   249
 10
121.736892
 20
139.631784
 30
0.0
 11
121.749826
 21
139.622803
 31
0.0
 12
121.749826
 22
140.380843
 32
0.0
 13
121.736892
 23
140.371775
 33
0.0
  0
3DFACE
  8
0
  6
CONTINUOUS
 62
   249
 10
121.749826
 20
139.622803
 30
0.0
 11
121.76276
 21
139.613822
 31
0.0
 12
121.76276
 22
140.389911
 32
0.0
 13
121.749826
 23
140.380843
 33
0.0
  0
3DFACE
  8
0
  6
CONTINUOUS
 62
   249
 10
121.76276
 20
139.613822
 30
0.0
 11
121.775695
 21
139.604842
 31
0.0
 12
121.775695
 22
140.398978
 32
0.0
 13
121.76276
 23
140.389911
 33
0.0
  0
3DFACE
  8
0
  6
CONTINUOUS
 62
   249
 10
121.775695
 20
139.604842
 30
0.0
 11
121.788629
 21
139.595861
 31
0.0
 12
121.788629
 22
140.408046
 32
0.0
 13
121.775695
 23
140.398978
 33
0.0
  0
3DFACE
  8
0
  6
CONTINUOUS
 62
   249
 10
121.788629
 20
139.595861
 30
0.0
 11
121.801563
 21
139.58688
 31
0.0
 12
121.801563
 22
140.417114
 32
0.0
 13
121.788629
 23
140.408046
 33
0.0
  0
3DFACE
  8
0
  6
CONTINUOUS
 62
   249
 10
121.801563
 20
139.58688
 30
0.0
 11
121.814497
 21
139.577899
 31
0.0
 12
121.814497
 22
140.426181
 32
0.0
 13
121.801563
 23
140.417114
 33
0.0
  0
3DFACE
  8
0
  6
CONTINUOUS
 62
   249
 10
121.814497
 20
139.577899
 30
0.0
 11
121.827431
 21
139.568918
 31
0.0
 12
121.827431
 22
140.435249
 32
0.0
 13
121.814497
 23
140.426181
 33
0.0
  0
3DFACE
  8
0
  6
CONTINUOUS
 62
   249
 10
121.827431
 20
139.568918
 30
0.0
 11
121.840365
 21
139.559937
 31
0.0
 12
121.840365
 22
140.444317
 32
0.0
 13
121.827431
 23
140.435249
 33
0.0
  0
3DFACE
  8
0
  6
CONTINUOUS
 62
   249
 10
121.840365
 20
139.559937
 30
0.0
 11
121.853299
 21
139.550956
 31
0.0
 12
121.853299
 22
140.453384
 32
0.0
 13
121.840365
 23
140.444317
 33
0.0
  0
3DFACE
  8
0
  6
CONTINUOUS
 62
   249
 10
121.853299
 20
139.550956
 30
0.0
 11
121.866233
 21
139.541975
 31
0.0
 12
121.866233
 22
140.462452
 32
0.0
 13
121.853299
 23
140.453384
 33
0.0
  0
3DFACE
  8
0
  6
CONTINUOUS
 62
   249
 10
121.866233
 20
139.541975
 30
0.0
 11
121.879167
 21
139.532995
 31
0.0
 12
121.879167
 22
140.47152
 32
0.0
 13
121.866233
 23
140.462452
 33
0.0
  0
3DFACE
  8
0
  6
CONTINUOUS
 62
   249
 10
121.879167
 20
139.532995
 30
0.0
 11
121.892101
 21
139.524014
 31
0.0
 12
121.892101
 22
140.480588
 32
0.0
 13
121.879167
 23
140.47152
 33
0.0
  0
3DFACE
  8
0
  6
CONTINUOUS
 62
   249
 10
121.892101
 20
139.524014
 30
0.0
 11
121.905035
 21
139.515033
 31
0.0
 12
121.905035
 22
140.489655
 32
0.0
 13
121.892101
 23
140.480588
 33
0.0
  0
3DFACE
  8
0
  6
CONTINUOUS
 62
   249
 10
121.905035
 20
139.515033
 30
0.0
 11
121.917969
 21
139.506052
 31
0.0
 12
121.917969
 22
140.498723
 32
0.0
 13
121.905035
 23
140.489655
 33
0.0
  0
3DFACE
  8
0
  6
CONTINUOUS
 62
   249
 10
121.917969
 20
139.506052
 30
0.0
 11
121.930903
 21
139.497071
 31
0.0
 12
121.930903
 22
140.507791
 32
0.0
 13
121.917969
 23
140.498723
 33
0.0
  0
3DFACE
  8
0
  6
CONTINUOUS
 62
   249
 10
121.930903
 20
139.497071
 30
0.0
 11
121.943837
 21
139.48809
 31
0.0
 12
121.943837
 22
140.516858
 32
0.0
 13
121.930903
 23
140.507791
 33
0.0
  0
3DFACE
  8
0
  6
CONTINUOUS
 62
   249
 10
121.943837
 20
139.48809
 30
0.0
 11
121.956771
 21
139.479109
 31
0.0
 12
121.956771
 22
140.525926
 32
0.0
 13
121.943837
 23
140.516858
 33
0.0
  0
3DFACE
  8
0
  6
CONTINUOUS
 62
   249
 10
121.956771
 20
139.479109
 30
0.0
 11
121.969705
 21
139.470128
 31
0.0
 12
121.969705
 22
140.534994
 32
0.0
 13
121.956771
 23
140.525926
 33
0.0
  0
3DFACE
  8
0
  6
CONTINUOUS
 62
   249
 10
121.969705
 20
139.470128
 30
0.0
 11
121.982639
 21
139.461147
 31
0.0
 12
121.982639
 22
140.544061
 32
0.0
 13
121.969705
 23
140.534994
 33
0.0
  0
3DFACE
  8
0
  6
CONTINUOUS
 62
   249
 10
121.982639
 20
139.461147
 30
0.0
 11
121.995573
 21
139.452167
 31
0.0
 12
121.995573
 22
140.553129
 32
0.0
 13
121.982639
 23
140.544061
 33
0.0
  0
3DFACE
  8
0
  6
CONTINUOUS
 62
   249
 10
121.995573
 20
139.452167
 30
0.0
 11
122.008507
 21
139.443186
 31
0.0
 12
122.008507
 22
140.562197
 32
0.0
 13
121.995573
 23
140.553129
 33
0.0
  0
3DFACE
  8
0
  6
CONTINUOUS
 62
   249
 10
122.008507
 20
139.443186
 30
0.0
 11
122.021441
 21
139.434205
 31
0.0
 12
122.021441
 22
140.571264
 32
0.0
 13
122.008507
 23
140.562197
 33
0.0
  0
3DFACE
  8
0
  6
CONTINUOUS
 62
   249
 10
122.021441
 20
139.434205
 30
0.0
 11
122.034375
 21
139.425224
 31
0.0
 12
122.034375
 22
140.580332
 32
0.0
 13
122.021441
 23
140.571264
 33
0.0
  0
3DFACE
  8
0
  6
CONTINUOUS
 62
   249
 10
122.034375
 20
139.425224
 30
0.0
 11
122.047309
 21
139.416243
 31
0.0
 12
122.047309
 22
140.5894
 32
0.0
 13
122.034375
 23
140.580332
 33
0.0
  0
3DFACE
  8
0
  6
CONTINUOUS
 62
   249
 10
122.047309
 20
139.416243
 30
0.0
 11
122.060243
 21
139.407262
 31
0.0
 12
122.060243
 22
140.598467
 32
0.0
 13
122.047309
 23
140.5894
 33
0.0
  0
3DFACE
  8
0
  6
CONTINUOUS
 62
   249
 10
122.060243
 20
139.407262
 30
0.0
 11
122.073177
 21
139.398281
 31
0.0
 12
122.073177
 22
140.607535
 32
0.0
 13
122.060243
 23
140.598467
 33
0.0
  0
3DFACE
  8
0
  6
CONTINUOUS
 62
   249
 10
122.073177
 20
139.398281
 30
0.0
 11
122.086111
 21
139.3893
 31
0.0
 12
122.086111
 22
140.616603
 32
0.0
 13
122.073177
 23
140.607535
 33
0.0
  0
3DFACE
  8
0
  6
CONTINUOUS
 62
   249
 10
122.086111
 20
139.3893
 30
0.0
 11
122.099045
 21
139.38032
 31
0.0
 12
122.099045
 22
140.625671
 32
0.0
 13
122.086111
 23
140.616603
 33
0.0
  0
3DFACE
  8
0
  6
CONTINUOUS
 62
   249
 10
122.099045
 20
139.38032
 30
0.0
 11
122.111979
 21
139.371339
 31
0.0
 12
122.111979
 22
140.634738
 32
0.0
 13
122.099045
 23
140.625671
 33
0.0
  0
3DFACE
  8
0
  6
CONTINUOUS
 62
   249
 10
122.111979
 20
139.371339
 30
0.0
 11
122.124913
 21
139.362358
 31
0.0
 12
122.124913
 22
140.643806
 32
0.0
 13
122.111979
 23
140.634738
 33
0.0
  0
3DFACE
  8
0
  6
CONTINUOUS
 62
   249
 10
122.124913
 20
139.362358
 30
0.0
 11
122.137847
 21
139.353377
 31
0.0
 12
122.137847
 22
140.652874
 32
0.0
 13
122.124913
 23
140.643806
 33
0.0
  0
3DFACE
  8
0
  6
CONTINUOUS
 62
   249
 10
122.137847
 20
139.353377
 30
0.0
 11
122.150781
 21
139.344396
 31
0.0
 12
122.150781
 22
140.661941
 32
0.0
 13
122.137847
 23
140.652874
 33
0.0
  0
3DFACE
  8
0
  6
CONTINUOUS
 62
   249
 10
122.150781
 20
139.344396
 30
0.0
 11
122.163715
 21
139.335415
 31
0.0
 12
122.163715
 22
140.671009
 32
0.0
 13
122.150781
 23
140.661941
 33
0.0
  0
3DFACE
  8
0
  6
CONTINUOUS
 62
   249
 10
122.163715
 20
139.335415
 30
0.0
 11
122.176649
 21
139.326434
 31
0.0
 12
122.176649
 22
140.680077
 32
0.0
 13
122.163715
 23
140.671009
 33
0.0
  0
3DFACE
  8
0
  6
CONTINUOUS
 62
   249
 10
122.176649
 20
139.326434
 30
0.0
 11
122.189583
 21
139.317453
 31
0.0
 12
122.189583
 22
140.689144
 32
0.0
 13
122.176649
 23
140.680077
 33
0.0
  0
3DFACE
  8
0
  6
CONTINUOUS
 62
   249
 10
122.189583
 20
139.317453
 30
0.0
 11
122.202517
 21
139.308473
 31
0.0
 12
122.202517
 22
140.698212
 32
0.0
 13
122.189583
 23
140.689144
 33
0.0
  0
3DFACE
  8
0
  6
CONTINUOUS
 62
   249
 10
122.202517
 20
139.308473
 30
0.0
 11
122.215451
 21
139.299492
 31
0.0
 12
122.215451
 22
140.70728
 32
0.0
 13
122.202517
 23
140.698212
 33
0.0
  0
3DFACE
  8
0
  6
CONTINUOUS
 62
   249
 10
122.215451
 20
139.299492
 30
0.0
 11
122.228385
 21
139.290511
 31
0.0
 12
122.228385
 22
140.716347
 32
0.0
 13
122.215451
 23
140.70728
 33
0.0
  0
3DFACE
  8
0
  6
CONTINUOUS
 62
   249
 10
122.228385
 20
139.290511
 30
0.0
 11
122.241319
 21
139.28153
 31
0.0
 12
122.241319
 22
140.725415
 32
0.0
 13
122.228385
 23
140.716347
 33
0.0
  0
3DFACE
  8
0
  6
CONTINUOUS
 62
   249
 10
122.241319
 20
139.28153
 30
0.0
 11
122.254253
 21
139.272549
 31
0.0
 12
122.254253
 22
140.734483
 32
0.0
 13
122.241319
 23
140.725415
 33
0.0
  0
3DFACE
  8
0
  6
CONTINUOUS
 62
   249
 10
122.254253
 20
139.272549
 30
0.0
 11
122.267188
 21
139.263568
 31
0.0
 12
122.267188
 22
140.74355
 32
0.0
 13
122.254253
 23
140.734483
 33
0.0
  0
3DFACE
  8
0
  6
CONTINUOUS
 62
   249
 10
122.267188
 20
139.263568
 30
0.0
 11
122.280122
 21
139.254587
 31
0.0
 12
122.280122
 22
140.752618
 32
0.0
 13
122.267188
 23
140.74355
 33
0.0
  0
3DFACE
  8
0
  6
CONTINUOUS
 62
   249
 10
122.280122
 20
139.254587
 30
0.0
 11
122.293056
 21
139.245606
 31
0.0
 12
122.293056
 22
140.761686
 32
0.0
 13
122.280122
 23
140.752618
 33
0.0
  0
3DFACE
  8
0
  6
CONTINUOUS
 62
   249
 10
122.293056
 20
139.245606
 30
0.0
 11
122.30599
 21
139.236626
 31
0.0
 12
122.30599
 22
140.770754
 32
0.0
 13
122.293056
 23
140.761686
 33
0.0
  0
3DFACE
  8
0
  6
CONTINUOUS
 62
   249
 10
122.30599
 20
139.236626
 30
0.0
 11
122.318924
 21
139.227645
 31
0.0
 12
122.318924
 22
140.779821
 32
0.0
 13
122.30599
 23
140.770754
 33
0.0
  0
3DFACE
  8
0
  6
CONTINUOUS
 62
   249
 10
122.318924
 20
139.227645
 30
0.0
 11
122.331858
 21
139.218664
 31
0.0
 12
122.331858
 22
140.788889
 32
0.0
 13
122.318924
 23
140.779821
 33
0.0
  0
3DFACE
  8
0
  6
CONTINUOUS
 62
   249
 10
122.331858
 20
139.218664
 30
0.0
 11
122.344792
 21
139.209683
 31
0.0
 12
122.344792
 22
140.797957
 32
0.0
 13
122.331858
 23
140.788889
 33
0.0
  0
3DFACE
  8
0
  6
CONTINUOUS
 62
   249
 10
122.344792
 20
139.209683
 30
0.0
 11
122.357726
 21
139.200702
 31
0.0
 12
122.357726
 22
140.807024
 32
0.0
 13
122.344792
 23
140.797957
 33
0.0
  0
3DFACE
  8
0
  6
CONTINUOUS
 62
   249
 10
122.357726
 20
139.200702
 30
0.0
 11
122.37066
 21
139.191721
 31
0.0
 12
122.37066
 22
140.816092
 32
0.0
 13
122.357726
 23
140.807024
 33
0.0
  0
3DFACE
  8
0
  6
CONTINUOUS
 62
   249
 10
122.37066
 20
139.191721
 30
0.0
 11
122.383594
 21
139.18274
 31
0.0
 12
122.383594
 22
140.82516
 32
0.0
 13
122.37066
 23
140.816092
 33
0.0
  0
3DFACE
  8
0
  6
CONTINUOUS
 62
   249
 10
122.383594
 20
139.18274
 30
0.0
 11
122.396528
 21
139.173759
 31
0.0
 12
122.396528
 22
140.834227
 32
0.0
 13
122.383594
 23
140.82516
 33
0.0
  0
3DFACE
  8
0
  6
CONTINUOUS
 62
   249
 10
122.396528
 20
139.173759
 30
0.0
 11
122.409462
 21
139.164779
 31
0.0
 12
122.409462
 22
140.843295
 32
0.0
 13
122.396528
 23
140.834227
 33
0.0
  0
3DFACE
  8
0
  6
CONTINUOUS
 62
   249
 10
122.409462
 20
139.164779
 30
0.0
 11
122.422396
 21
139.155798
 31
0.0
 12
122.422396
 22
140.852363
 32
0.0
 13
122.409462
 23
140.843295
 33
0.0
  0
3DFACE
  8
0
  6
CONTINUOUS
 62
   249
 10
122.422396
 20
139.155798
 30
0.0
 11
122.43533
 21
139.146817
 31
0.0
 12
122.43533
 22
140.86143
 32
0.0
 13
122.422396
 23
140.852363
 33
0.0
  0
3DFACE
  8
0
  6
CONTINUOUS
 62
   249
 10
122.43533
 20
139.146817
 30
0.0
 11
122.448264
 21
139.137836
 31
0.0
 12
122.448264
 22
140.870498
 32
0.0
 13
122.43533
 23
140.86143
 33
0.0
  0
3DFACE
  8
0
  6
CONTINUOUS
 62
   249
 10
122.448264
 20
139.137836
 30
0.0
 11
122.461198
 21
139.128855
 31
0.0
 12
122.461198
 22
140.879566
 32
0.0
 13
122.448264
 23
140.870498
 33
0.0
  0
3DFACE
  8
0
  6
CONTINUOUS
 62
   249
 10
122.461198
 20
139.128855
 30
0.0
 11
122.474132
 21
139.119874
 31
0.0
 12
122.474132
 22
140.888633
 32
0.0
 13
122.461198
 23
140.879566
 33
0.0
  0
3DFACE
  8
0
  6
CONTINUOUS
 62
   249
 10
122.474132
 20
139.119874
 30
0.0
 11
122.487066
 21
139.110893
 31
0.0
 12
122.487066
 22
140.897701
 32
0.0
 13
122.474132
 23
140.888633
 33
0.0
  0
3DFACE
  8
0
  6
CONTINUOUS
 62
   249
 10
122.487066
 20
139.110893
 30
0.0
 11
122.5
 21
139.101912
 31
0.0
 12
122.5
 22
140.906769
 32
0.0
 13
122.487066
 23
140.897701
 33
0.0
  0
ARC
  8
0
  6
CONTINUOUS
 62
   249
 10
150.0
 20
167.5
 30
0.0
 40
0.5
 50
180.0
 51
0.0
  0
ARC
  8
0
  6
CONTINUOUS
 62
   249
 10
150.0
 20
167.5
 30
0.0
 40
0.5
 50
0.0
 51
180.0
  0
ARC
  8
0
  6
CONTINUOUS
 62
   249
 10
172.5
 20
167.5
 30
0.0
 40
0.5
 50
180.0
 51
0.0
  0
ARC
  8
0
  6
CONTINUOUS
 62
   249
 10
172.5
 20
167.5
 30
0.0
 40
0.5
 50
0.0
 51
180.0
  0
ARC
  8
0
  6
CONTINUOUS
 62
   249
 10
145.0
 20
177.5
 30
0.0
 40
0.5
 50
180.0
 51
0.0
  0
ARC
  8
0
  6
CONTINUOUS
 62
   249
 10
145.0
 20
177.5
 30
0.0
 40
0.5
 50
0.0
 51
180.0
  0
ARC
  8
0
  6
CONTINUOUS
 62
   249
 10
140.0
 20
187.5
 30
0.0
 40
0.5
 50
180.0
 51
0.0
  0
ARC
  8
0
  6
CONTINUOUS
 62
   249
 10
140.0
 20
187.5
 30
0.0
 40
0.5
 50
0.0
 51
180.0
  0
ARC
  8
0
  6
CONTINUOUS
 62
   249
 10
162.5
 20
187.5
 30
0.0
 40
0.5
 50
180.0
 51
0.0
  0
ARC
  8
0
  6
CONTINUOUS
 62
   249
 10
162.5
 20
187.5
 30
0.0
 40
0.5
 50
0.0
 51
180.0
  0
ARC
  8
0
  6
CONTINUOUS
 62
   249
 10
157.5
 20
197.5
 30
0.0
 40
0.5
 50
180.0
 51
0.0
  0
ARC
  8
0
  6
CONTINUOUS
 62
   249
 10
157.5
 20
197.5
 30
0.0
 40
0.5
 50
0.0
 51
180.0
  0
ARC
  8
0
  6
CONTINUOUS
 62
   249
 10
185.0
 20
192.5
 30
0.0
 40
0.5
 50
180.0
 51
0.0
  0
ARC
  8
0
  6
CONTINUOUS
 62
   249
 10
185.0
 20
192.5
 30
0.0
 40
0.5
 50
0.0
 51
180.0
  0
ARC
  8
0
  6
CONTINUOUS
 62
   249
 10
167.5
 20
177.5
 30
0.0
 40
0.5
 50
180.0
 51
0.0
  0
ARC
  8
0
  6
CONTINUOUS
 62
   249
 10
167.5
 20
177.5
 30
0.0
 40
0.5
 50
0.0
 51
180.0
  0
ARC
  8
0
  6
CONTINUOUS
 62
   249
 10
87.5
 20
217.5
 30
0.0
 40
0.5
 50
180.0
 51
0.0
  0
ARC
  8
0
  6
CONTINUOUS
 62
   249
 10
87.5
 20
217.5
 30
0.0
 40
0.5
 50
0.0
 51
180.0
  0
ARC
  8
0
  6
CONTINUOUS
 62
   249
 10
237.5
 20
172.5
 30
0.0
 40
0.5
 50
180.0
 51
0.0
  0
ARC
  8
0
  6
CONTINUOUS
 62
   249
 10
237.5
 20
172.5
 30
0.0
 40
0.5
 50
0.0
 51
180.0
  0
ARC
  8
0
  6
CONTINUOUS
 62
   249
 10
242.5
 20
167.5
 30
0.0
 40
0.5
 50
180.0
 51
0.0
  0
ARC
  8
0
  6
CONTINUOUS
 62
   249
 10
242.5
 20
167.5
 30
0.0
 40
0.5
 50
0.0
 51
180.0
  0
ARC
  8
0
  6
CONTINUOUS
 62
   249
 10
227.5
 20
182.5
 30
0.0
 40
0.5
 50
180.0
 51
0.0
  0
ARC
  8
0
  6
CONTINUOUS
 62
   249
 10
227.5
 20
182.5
 30
0.0
 40
0.5
 50
0.0
 51
180.0
  0
ARC
  8
0
  6
CONTINUOUS
 62
   249
 10
217.5
 20
192.5
 30
0.0
 40
0.5
 50
180.0
 51
0.0
  0
ARC
  8
0
  6
CONTINUOUS
 62
   249
 10
217.5
 20
192.5
 30
0.0
 40
0.5
 50
0.0
 51
180.0
  0
ARC
  8
0
  6
CONTINUOUS
 62
   249
 10
222.5
 20
187.5
 30
0.0
 40
0.5
 50
180.0
 51
0.0
  0
ARC
  8
0
  6
CONTINUOUS
 62
   249
 10
222.5
 20
187.5
 30
0.0
 40
0.5
 50
0.0
 51
180.0
  0
ARC
  8
0
  6
CONTINUOUS
 62
   249
 10
207.5
 20
202.5
 30
0.0
 40
0.5
 50
180.0
 51
0.0
  0
ARC
  8
0
  6
CONTINUOUS
 62
   249
 10
207.5
 20
202.5
 30
0.0
 40
0.5
 50
0.0
 51
180.0
  0
ARC
  8
0
  6
CONTINUOUS
 62
   249
 10
212.5
 20
197.5
 30
0.0
 40
0.5
 50
180.0
 51
0.0
  0
ARC
  8
0
  6
CONTINUOUS
 62
   249
 10
212.5
 20
197.5
 30
0.0
 40
0.5
 50
0.0
 51
180.0
  0
ARC
  8
0
  6
CONTINUOUS
 62
   249
 10
232.5
 20
177.5
 30
0.0
 40
0.5
 50
180.0
 51
0.0
  0
ARC
  8
0
  6
CONTINUOUS
 62
   249
 10
232.5
 20
177.5
 30
0.0
 40
0.5
 50
0.0
 51
180.0
  0
ARC
  8
0
  6
CONTINUOUS
 62
   249
 10
255.0
 20
182.5
 30
0.0
 40
0.5
 50
180.0
 51
0.0
  0
ARC
  8
0
  6
CONTINUOUS
 62
   249
 10
255.0
 20
182.5
 30
0.0
 40
0.5
 50
0.0
 51
180.0
  0
LINE
  8
0
  6
CONTINUOUS
 62
   249
 10
297.328218
 20
171.189027
 30
0.0
 11
298.215104
 21
171.189027
 31
0.0
  0
LINE
  8
0
  6
CONTINUOUS
 62
   249
 10
296.997113
 20
171.80066
 30
0.0
 11
298.581684
 21
171.80066
 31
0.0
  0
LINE
  8
0
  6
CONTINUOUS
 62
   249
 10
297.813049
 20
172.422722
 30
0.0
 11
299.00739
 21
172.422722
 31
0.0
  0
LINE
  8
0
  6
CONTINUOUS
 62
   249
 10
296.618708
 20
172.422722
 30
0.0
 11
297.813049
 21
172.422722
 31
0.0
  0
LINE
  8
0
  6
CONTINUOUS
 62
   249
 10
297.828936
 20
173.776992
 30
0.0
 11
297.828936
 21
172.422722
 31
0.0
  0
ARC
  8
0
  6
CONTINUOUS
 62
   249
 10
260.0
 20
172.5
 30
0.0
 40
0.5
 50
180.0
 51
0.0
  0
ARC
  8
0
  6
CONTINUOUS
 62
   249
 10
260.0
 20
172.5
 30
0.0
 40
0.5
 50
0.0
 51
180.0
  0
LINE
  8
0
  6
CONTINUOUS
 62
   249
 10
297.328218
 20
166.212451
 30
0.0
 11
298.215104
 21
166.212451
 31
0.0
  0
LINE
  8
0
  6
CONTINUOUS
 62
   249
 10
296.997113
 20
166.824084
 30
0.0
 11
298.581684
 21
166.824084
 31
0.0
  0
LINE
  8
0
  6
CONTINUOUS
 62
   249
 10
297.813049
 20
167.446146
 30
0.0
 11
299.00739
 21
167.446146
 31
0.0
  0
LINE
  8
0
  6
CONTINUOUS
 62
   249
 10
296.618708
 20
167.446146
 30
0.0
 11
297.813049
 21
167.446146
 31
0.0
  0
LINE
  8
0
  6
CONTINUOUS
 62
   249
 10
297.828936
 20
168.800417
 30
0.0
 11
297.828936
 21
167.446146
 31
0.0
  0
LINE
  8
0
  6
CONTINUOUS
 62
   249
 10
297.328218
 20
180.847398
 30
0.0
 11
298.215104
 21
180.847398
 31
0.0
  0
LINE
  8
0
  6
CONTINUOUS
 62
   249
 10
296.997113
 20
181.459031
 30
0.0
 11
298.581684
 21
181.459031
 31
0.0
  0
LINE
  8
0
  6
CONTINUOUS
 62
   249
 10
297.813049
 20
182.081094
 30
0.0
 11
299.00739
 21
182.081094
 31
0.0
  0
LINE
  8
0
  6
CONTINUOUS
 62
   249
 10
296.618708
 20
182.081094
 30
0.0
 11
297.813049
 21
182.081094
 31
0.0
  0
LINE
  8
0
  6
CONTINUOUS
 62
   249
 10
297.828936
 20
183.435364
 30
0.0
 11
297.828936
 21
182.081094
 31
0.0
  0
LINE
  8
0
  6
CONTINUOUS
 62
   249
 10
297.328218
 20
175.879493
 30
0.0
 11
298.215104
 21
175.879493
 31
0.0
  0
LINE
  8
0
  6
CONTINUOUS
 62
   249
 10
296.997113
 20
176.491126
 30
0.0
 11
298.581684
 21
176.491126
 31
0.0
  0
LINE
  8
0
  6
CONTINUOUS
 62
   249
 10
297.813049
 20
177.113188
 30
0.0
 11
299.00739
 21
177.113188
 31
0.0
  0
LINE
  8
0
  6
CONTINUOUS
 62
   249
 10
296.618708
 20
177.113188
 30
0.0
 11
297.813049
 21
177.113188
 31
0.0
  0
LINE
  8
0
  6
CONTINUOUS
 62
   249
 10
297.828936
 20
178.467458
 30
0.0
 11
297.828936
 21
177.113188
 31
0.0
  0
ENDSEC
  0
EOF
