  0
SECTION
  2
HEADER
  9
$ACADVER
  1
AC1012
  9
$DWGCODEPAGE
  3
iso8859-1
  9
$INSBASE
 10
0.0
 20
0.0
 30
0.0
  9
$EXTMIN
 10
12.0
 20
10.0
 30
0.0
  9
$EXTMAX
 10
397.0
 20
283.0
 30
0.0
  9
$LIMMIN
 10
0.0
 20
0.0
  9
$LIMMAX
 10
12.0
 20
9.0
  9
$ORTHOMODE
 70
     0
  9
$REGENMODE
 70
     1
  9
$FILLMODE
 70
     1
  9
$QTEXTMODE
 70
     0
  9
$MIRRTEXT
 70
     1
  9
$DRAGMODE
 70
     2
  9
$LTSCALE
 40
1.0
  9
$OSMODE
 70
     0
  9
$ATTMODE
 70
     1
  9
$TEXTSIZE
 40
0.125
  9
$TRACEWID
 40
0.05
  9
$TEXTSTYLE
  7
STANDARD
  9
$CLAYER
  8
1
  9
$CELTYPE
  6
CONTINUOUS
  9
$CECOLOR
 62
     1
  9
$CELTSCALE
 40
1.0
  9
$DELOBJ
 70
     1
  9
$DISPSILH
 70
     0
  9
$DIMSCALE
 40
1.0
  9
$DIMASZ
 40
0.125
  9
$DIMEXO
 40
0.0625
  9
$DIMDLI
 40
0.25
  9
$DIMRND
 40
0.0
  9
$DIMDLE
 40
0.0
  9
$DIMEXE
 40
0.125
  9
$DIMTP
 40
0.005
  9
$DIMTM
 40
-0.005
  9
$DIMTXT
 40
3.0
  9
$DIMCEN
 40
0.09
  9
$DIMTSZ
 40
0.0
  9
$DIMTOL
 70
     0
  9
$DIMLIM
 70
     0
  9
$DIMTIH
 70
     1
  9
$DIMTOH
 70
     1
  9
$DIMSE1
 70
     0
  9
$DIMSE2
 70
     0
  9
$DIMTAD
 70
     0
  9
$DIMZIN
 70
     0
  9
$DIMBLK
  1

  9
$DIMASO
 70
     1
  9
$DIMSHO
 70
     1
  9
$DIMPOST
  1

  9
$DIMAPOST
  1

  9
$DIMALT
 70
     0
  9
$DIMALTD
 70
     0
  9
$DIMALTF
 40
25.4
  9
$DIMLFAC
 40
1.0
  9
$DIMTOFL
 70
     1
  9
$DIMTVP
 40
0.0
  9
$DIMTIX
 70
     0
  9
$DIMSOXD
 70
     0
  9
$DIMSAH
 70
     0
  9
$DIMBLK1
  1

  9
$DIMBLK2
  1

  9
$DIMSTYLE
  2
DSTYLE1
  9
$DIMCLRD
 70
     0
  9
$DIMCLRE
 70
     0
  9
$DIMCLRT
 70
     0
  9
$DIMTFAC
 40
1.0
  9
$DIMGAP
 40
0.0625
  9
$DIMJUST
 70
     0
  9
$DIMSD1
 70
     0
  9
$DIMSD2
 70
     0
  9
$DIMTOLJ
 70
     1
  9
$DIMTZIN
 70
     0
  9
$DIMALTZ
 70
     0
  9
$DIMALTTZ
 70
     0
  9
$DIMFIT
 70
     3
  9
$DIMUPT
 70
     0
  9
$DIMUNIT
 70
     2
  9
$DIMDEC
 70
     4
  9
$DIMTDEC
 70
     4
  9
$DIMALTU
 70
     2
  9
$DIMALTTD
 70
     2
  9
$DIMTXSTY
  7
STANDARD
  9
$DIMAUNIT
 70
     0
  9
$LUNITS
 70
     2
  9
$LUPREC
 70
     3
  9
$SKETCHINC
 40
0.1
  9
$FILLETRAD
 40
10.0
  9
$AUNITS
 70
     0
  9
$AUPREC
 70
     1
  9
$MENU
  1
acad
  9
$ELEVATION
 40
0.0
  9
$PELEVATION
 40
0.0
  9
$THICKNESS
 40
0.0
  9
$LIMCHECK
 70
     0
  9
$BLIPMODE
 70
     1
  9
$CHAMFERA
 40
6.0
  9
$CHAMFERB
 40
6.0
  9
$CHAMFERC
 40
0.0
  9
$CHAMFERD
 40
0.0
  9
$SKPOLY
 70
     0
  9
$TDCREATE
 40
2451064.717211689
  9
$TDUPDATE
 40
2451064.717211689
  9
$TDINDWG
 40
0.0056566319
  9
$TDUSRTIMER
 40
0.0056566319
  9
$USRTIMER
 70
     1
  9
$ANGBASE
 50
0.0
  9
$ANGDIR
 70
     0
  9
$PDMODE
 70
     2
  9
$PDSIZE
 40
-0.01
  9
$PLINEWID
 40
0.0
  9
$COORDS
 70
     1
  9
$SPLFRAME
 70
     0
  9
$SPLINETYPE
 70
     6
  9
$SPLINESEGS
 70
     8
  9
$ATTDIA
 70
     0
  9
$ATTREQ
 70
     1
  9
$HANDLING
 70
     1
  9
$HANDSEED
  5
ACB
  9
$SURFTAB1
 70
     6
  9
$SURFTAB2
 70
     6
  9
$SURFTYPE
 70
     6
  9
$SURFU
 70
     6
  9
$SURFV
 70
     6
  9
$UCSNAME
  2

  9
$UCSORG
 10
0.0
 20
0.0
 30
0.0
  9
$UCSXDIR
 10
1.0
 20
0.0
 30
0.0
  9
$UCSYDIR
 10
0.0
 20
1.0
 30
0.0
  9
$PUCSNAME
  2

  9
$PUCSORG
 10
0.0
 20
0.0
 30
0.0
  9
$PUCSXDIR
 10
1.0
 20
0.0
 30
0.0
  9
$PUCSYDIR
 10
0.0
 20
1.0
 30
0.0
  9
$USERI1
 70
     0
  9
$USERI2
 70
     0
  9
$USERI3
 70
     0
  9
$USERI4
 70
     0
  9
$USERI5
 70
     0
  9
$USERR1
 40
0.0
  9
$USERR2
 40
0.0
  9
$USERR3
 40
0.0
  9
$USERR4
 40
0.0
  9
$USERR5
 40
0.0
  9
$WORLDVIEW
 70
     1
  9
$SHADEDGE
 70
     3
  9
$SHADEDIF
 70
    70
  9
$TILEMODE
 70
     1
  9
$MAXACTVP
 70
    16
  9
$PINSBASE
 10
0.0
 20
0.0
 30
0.0
  9
$PLIMCHECK
 70
     0
  9
$PEXTMIN
 10
1.000000E+20
 20
1.000000E+20
 30
1.000000E+20
  9
$PEXTMAX
 10
-1.000000E+20
 20
-1.000000E+20
 30
-1.000000E+20
  9
$PLIMMIN
 10
0.0
 20
0.0
  9
$PLIMMAX
 10
12.0
 20
9.0
  9
$UNITMODE
 70
     0
  9
$VISRETAIN
 70
     0
  9
$PLINEGEN
 70
     0
  9
$PSLTSCALE
 70
     1
  9
$TREEDEPTH
 70
  3020
  9
$PICKSTYLE
 70
     1
  9
$CMLSTYLE
  2
STANDARD
  9
$CMLJUST
 70
     0
  9
$CMLSCALE
 40
1.0
  9
$SAVEIMAGES
 70
     0
  0
ENDSEC
  0
SECTION
  2
CLASSES
  0
ENDSEC
  0
SECTION
  2
TABLES
  0
TABLE
  2
VPORT
  5
8
100
AcDbSymbolTable
 70
     2
  0
VPORT
  5
ACA
100
AcDbSymbolTableRecord
100
AcDbViewportTableRecord
  2
*ACTIVE
 70
     0
 10
0.0
 20
0.0
 11
1.0
 21
1.0
 12
330.810253
 22
162.22554
 13
0.0
 23
0.0
 14
1.0
 24
1.0
 15
0.0
 25
0.0
 16
0.0
 26
0.0
 36
1.0
 17
0.0
 27
0.0
 37
0.0
 40
142.593509
 41
1.524768
 42
50.0
 43
0.0
 44
0.0
 50
0.0
 51
0.0
 71
     0
 72
   100
 73
     1
 74
     1
 75
     0
 76
     0
 77
     0
 78
     0
  0
ENDTAB
  0
TABLE
  2
LTYPE
  5
5
100
AcDbSymbolTable
 70
     3
  0
LTYPE
  5
13
100
AcDbSymbolTableRecord
100
AcDbLinetypeTableRecord
  2
BYBLOCK
 70
     0
  3

 72
    65
 73
     0
 40
0.0
  0
LTYPE
  5
14
100
AcDbSymbolTableRecord
100
AcDbLinetypeTableRecord
  2
BYLAYER
 70
     0
  3

 72
    65
 73
     0
 40
0.0
  0
LTYPE
  5
15
100
AcDbSymbolTableRecord
100
AcDbLinetypeTableRecord
  2
CONTINUOUS
 70
     0
  3
Solid line
 72
    65
 73
     0
 40
0.0
  0
LTYPE
  5
1F
100
AcDbSymbolTableRecord
100
AcDbLinetypeTableRecord
  2
HIDDEN
 70
    64
  3
_ 
 72
    65
 73
     2
 40
4.5
 49
3.0
 74
     0
 49
-1.5
 74
     0
  0
LTYPE
  5
20
100
AcDbSymbolTableRecord
100
AcDbLinetypeTableRecord
  2
CENTERLINE
 70
    64
  3
_ 
 72
    65
 73
     4
 40
30.0
 49
24.0
 74
     0
 49
-1.5
 74
     0
 49
3.0
 74
     0
 49
-1.5
 74
     0
  0
ENDTAB
  0
TABLE
  2
LAYER
  5
2
100
AcDbSymbolTable
 70
     4
  0
LAYER
  5
F
100
AcDbSymbolTableRecord
100
AcDbLayerTableRecord
  2
0
 70
     0
 62
     7
  6
CONTINUOUS
  0
LAYER
  5
1E
100
AcDbSymbolTableRecord
100
AcDbLayerTableRecord
  2
1
 70
     0
 62
     7
  6
CONTINUOUS
  0
LAYER
  5
21
100
AcDbSymbolTableRecord
100
AcDbLayerTableRecord
  2
V1L0
 70
     0
 62
     7
  6
CONTINUOUS
  0
LAYER
  5
2F
100
AcDbSymbolTableRecord
100
AcDbLayerTableRecord
  2
V0L1
 70
    64
 62
     7
  6
CONTINUOUS
  0
ENDTAB
  0
TABLE
  2
STYLE
  5
3
100
AcDbSymbolTable
 70
     1
  0
STYLE
  5
10
100
AcDbSymbolTableRecord
100
AcDbTextStyleTableRecord
  2
STANDARD
 70
     0
 40
0.0
 41
1.0
 50
0.0
 71
     0
 42
0.2
  3
txt
  4

  0
ENDTAB
  0
TABLE
  2
VIEW
  5
6
100
AcDbSymbolTable
 70
     0
  0
ENDTAB
  0
TABLE
  2
UCS
  5
7
100
AcDbSymbolTable
 70
     0
  0
ENDTAB
  0
TABLE
  2
APPID
  5
9
100
AcDbSymbolTable
 70
     1
  0
APPID
  5
11
100
AcDbSymbolTableRecord
100
AcDbRegAppTableRecord
  2
ACAD
 70
     0
  0
ENDTAB
  0
TABLE
  2
DIMSTYLE
  5
A
100
AcDbSymbolTable
 70
    11
  0
DIMSTYLE
105
22
100
AcDbSymbolTableRecord
100
AcDbDimStyleTableRecord
  2
DSTYLE1
 70
     0
  3

  4

  5

  6

  7

 40
1.0
 41
3.5001
 42
1.0
 43
0.25
 44
0.9999
 45
0.0
 46
0.0
 47
0.0
 48
0.0
140
2.4999
141
0.0
142
0.0
143
0.03937
144
1.0
145
0.0
146
1.0
147
0.9999
 71
     0
 72
     0
 73
     0
 74
     0
 75
     1
 76
     0
 77
     1
 78
    11
170
     0
171
     0
172
     0
173
     0
174
     0
175
     0
176
     0
177
     0
178
     0
270
     2
271
     4
272
     4
273
     2
274
     2
340
10
275
     0
280
     0
281
     0
282
     0
283
     1
284
     0
285
     0
286
     0
287
     3
288
     0
  0
DIMSTYLE
105
23
100
AcDbSymbolTableRecord
100
AcDbDimStyleTableRecord
  2
DSTYLE2
 70
     0
  3

  4

  5

  6

  7

 40
1.0
 41
3.5001
 42
1.0
 43
0.25
 44
0.9999
 45
0.0
 46
0.0
 47
0.0
 48
0.0
140
2.4999
141
0.0
142
0.0
143
0.03937
144
1.0
145
0.0
146
1.0
147
0.9999
 71
     0
 72
     0
 73
     0
 74
     0
 75
     0
 76
     1
 77
     1
 78
    11
170
     0
171
     0
172
     0
173
     0
174
     0
175
     0
176
     0
177
     0
178
     0
270
     2
271
     4
272
     4
273
     2
274
     2
340
10
275
     0
280
     0
281
     0
282
     0
283
     1
284
     0
285
     0
286
     0
287
     3
288
     0
  0
DIMSTYLE
105
24
100
AcDbSymbolTableRecord
100
AcDbDimStyleTableRecord
  2
DSTYLE3
 70
     0
  3

  4

  5

  6

  7

 40
1.0
 41
3.0
 42
1.5
 43
0.25
 44
3.0
 45
0.0
 46
0.0
 47
1.0
 48
1.0
140
3.0
141
0.0
142
0.0
143
0.03937
144
1.0
145
0.0
146
1.0
147
1.5
 71
     0
 72
     0
 73
     0
 74
     0
 75
     1
 76
     0
 77
     1
 78
    11
170
     0
171
     3
172
     0
173
     0
174
     0
175
     0
176
     0
177
     0
178
     0
270
     2
271
     4
272
     4
273
     2
274
     2
340
10
275
     0
280
     0
281
     0
282
     0
283
     1
284
     0
285
     0
286
     0
287
     3
288
     0
  0
DIMSTYLE
105
25
100
AcDbSymbolTableRecord
100
AcDbDimStyleTableRecord
  2
DSTYLE4
 70
     0
  3

  4

  5

  6

  7

 40
1.0
 41
3.5001
 42
1.0
 43
0.25
 44
0.9999
 45
0.0
 46
0.0
 47
0.0
 48
0.0
140
2.4999
141
0.0
142
0.0
143
0.03937
144
1.0
145
0.0
146
1.0
147
0.9999
 71
     0
 72
     0
 73
     0
 74
     0
 75
     1
 76
     1
 77
     1
 78
    11
170
     0
171
     0
172
     0
173
     0
174
     0
175
     0
176
     0
177
     0
178
     0
270
     2
271
     4
272
     4
273
     2
274
     2
340
10
275
     0
280
     0
281
     0
282
     0
283
     1
284
     0
285
     0
286
     0
287
     3
288
     0
  0
DIMSTYLE
105
26
100
AcDbSymbolTableRecord
100
AcDbDimStyleTableRecord
  2
DSTYLE5
 70
     0
  3

  4

  5

  6

  7

 40
1.0
 41
3.5001
 42
1.0
 43
0.25
 44
0.9999
 45
0.0
 46
0.0
 47
0.0
 48
0.0
140
2.4999
141
0.0
142
0.0
143
0.03937
144
1.0
145
0.0
146
1.0
147
0.9999
 71
     0
 72
     0
 73
     0
 74
     0
 75
     0
 76
     0
 77
     1
 78
    11
170
     0
171
     0
172
     0
173
     0
174
     0
175
     0
176
     0
177
     0
178
     0
270
     2
271
     4
272
     4
273
     2
274
     2
340
10
275
     0
280
     0
281
     0
282
     0
283
     1
284
     0
285
     0
286
     0
287
     3
288
     0
  0
DIMSTYLE
105
27
100
AcDbSymbolTableRecord
100
AcDbDimStyleTableRecord
  2
DSTYLE6
 70
     0
  3

  4

  5

  6

  7

 40
1.0
 41
3.5001
 42
1.0
 43
0.25
 44
0.9999
 45
0.0
 46
0.0
 47
0.0
 48
0.0
140
2.4999
141
0.0
142
0.0
143
0.03937
144
1.0
145
0.0
146
1.0
147
0.9999
 71
     0
 72
     0
 73
     0
 74
     0
 75
     1
 76
     0
 77
     1
 78
    11
170
     0
171
     0
172
     0
173
     0
174
     0
175
     0
176
     0
177
     0
178
     0
270
     2
271
     4
272
     4
273
     2
274
     2
340
10
275
     0
280
     0
281
     0
282
     0
283
     1
284
     0
285
     0
286
     0
287
     3
288
     0
  0
DIMSTYLE
105
28
100
AcDbSymbolTableRecord
100
AcDbDimStyleTableRecord
  2
DSTYLE7
 70
     0
  3

  4

  5

  6

  7

 40
1.0
 41
3.5001
 42
1.0
 43
0.25
 44
0.9999
 45
0.1
 46
0.0
 47
0.0
 48
0.0
140
2.4999
141
0.0
142
0.0
143
0.03937
144
1.0
145
0.0
146
1.0
147
0.9999
 71
     0
 72
     0
 73
     0
 74
     0
 75
     0
 76
     0
 77
     1
 78
    11
170
     0
171
     0
172
     0
173
     0
174
     0
175
     0
176
     0
177
     0
178
     0
270
     2
271
     4
272
     4
273
     2
274
     2
340
10
275
     0
280
     0
281
     0
282
     0
283
     1
284
     0
285
     0
286
     0
287
     3
288
     0
  0
DIMSTYLE
105
29
100
AcDbSymbolTableRecord
100
AcDbDimStyleTableRecord
  2
DSTYLE8
 70
     0
  3

  4

  5

  6

  7

 40
1.0
 41
3.5001
 42
1.0
 43
0.25
 44
0.9999
 45
0.01
 46
0.0
 47
0.0
 48
0.0
140
2.4999
141
0.0
142
0.0
143
0.03937
144
1.0
145
0.0
146
1.0
147
0.9999
 71
     0
 72
     0
 73
     0
 74
     0
 75
     0
 76
     0
 77
     1
 78
    11
170
     0
171
     0
172
     0
173
     0
174
     0
175
     0
176
     0
177
     0
178
     0
270
     2
271
     4
272
     4
273
     2
274
     2
340
10
275
     0
280
     0
281
     0
282
     0
283
     1
284
     0
285
     0
286
     0
287
     3
288
     0
  0
DIMSTYLE
105
2A
100
AcDbSymbolTableRecord
100
AcDbDimStyleTableRecord
  2
DSTYLE9
 70
     0
  3

  4

  5

  6

  7

 40
1.0
 41
3.5001
 42
1.0
 43
0.25
 44
0.9999
 45
0.01
 46
0.0
 47
0.0
 48
0.0
140
2.4999
141
0.0
142
0.0
143
0.03937
144
1.0
145
0.0
146
1.0
147
0.9999
 71
     0
 72
     0
 73
     0
 74
     0
 75
     1
 76
     1
 77
     1
 78
    11
170
     0
171
     0
172
     0
173
     0
174
     0
175
     0
176
     0
177
     0
178
     0
270
     2
271
     4
272
     4
273
     2
274
     2
340
10
275
     0
280
     0
281
     0
282
     0
283
     1
284
     0
285
     0
286
     0
287
     3
288
     0
  0
DIMSTYLE
105
2B
100
AcDbSymbolTableRecord
100
AcDbDimStyleTableRecord
  2
DSTYLE10
 70
     0
  3

  4

  5

  6

  7

 40
1.0
 41
3.5001
 42
1.0
 43
0.25
 44
0.9999
 45
0.01
 46
0.0
 47
0.0
 48
0.0
140
2.4999
141
0.0
142
0.0
143
0.03937
144
1.0
145
0.0
146
1.0
147
0.9999
 71
     0
 72
     0
 73
     0
 74
     0
 75
     0
 76
     1
 77
     1
 78
    11
170
     0
171
     0
172
     0
173
     0
174
     0
175
     0
176
     0
177
     0
178
     0
270
     2
271
     4
272
     4
273
     2
274
     2
340
10
275
     0
280
     0
281
     0
282
     0
283
     1
284
     0
285
     0
286
     0
287
     3
288
     0
  0
DIMSTYLE
105
2C
100
AcDbSymbolTableRecord
100
AcDbDimStyleTableRecord
  2
DSTYLE11
 70
     0
  3

  4

  5

  6

  7

 40
1.0
 41
3.5001
 42
1.0
 43
0.25
 44
0.9999
 45
0.1
 46
0.0
 47
0.0
 48
0.0
140
2.4999
141
0.0
142
0.0
143
0.03937
144
1.0
145
0.0
146
1.0
147
0.9999
 71
     0
 72
     0
 73
     0
 74
     0
 75
     1
 76
     0
 77
     1
 78
    11
170
     0
171
     0
172
     0
173
     0
174
     0
175
     0
176
     0
177
     0
178
     0
270
     2
271
     4
272
     4
273
     2
274
     2
340
10
275
     0
280
     0
281
     0
282
     0
283
     1
284
     0
285
     0
286
     0
287
     3
288
     0
  0
ENDTAB
  0
TABLE
  2
BLOCK_RECORD
  5
1
100
AcDbSymbolTable
 70
    41
  0
BLOCK_RECORD
  5
19
100
AcDbSymbolTableRecord
100
AcDbBlockTableRecord
  2
*MODEL_SPACE
  0
BLOCK_RECORD
  5
16
100
AcDbSymbolTableRecord
100
AcDbBlockTableRecord
  2
*PAPER_SPACE
  0
BLOCK_RECORD
  5
33
100
AcDbSymbolTableRecord
100
AcDbBlockTableRecord
  2
CADRE_A3
  0
ENDTAB
  0
ENDSEC
  0
SECTION
  2
BLOCKS
  0
BLOCK
  5
1A
100
AcDbEntity
  8
0
100
AcDbBlockBegin
  2
*MODEL_SPACE
 70
     0
 10
0.0
 20
0.0
 30
0.0
  3
*MODEL_SPACE
  1

  0
ENDBLK
  5
1B
100
AcDbEntity
  8
0
100
AcDbBlockEnd
  0
BLOCK
  5
17
100
AcDbEntity
 67
     1
  8
0
100
AcDbBlockBegin
  2
*PAPER_SPACE
 70
     0
 10
0.0
 20
0.0
 30
0.0
  3
*PAPER_SPACE
  1

  0
ENDBLK
  5
18
100
AcDbEntity
 67
     1
  8
0
100
AcDbBlockEnd
  0
BLOCK
  5
34
100
AcDbEntity
  8
0
100
AcDbBlockBegin
  2
CADRE_A3
 70
    64
 10
0.0
 20
0.0
 30
0.0
  3
CADRE_A3
  1

  0
POINT
  5
35
100
AcDbEntity
  8
V0L1
  6
CONTINUOUS
 62
     1
100
AcDbPoint
 10
393.0
 20
278.0
 30
0.0
  0
LINE
  5
36
100
AcDbEntity
  8
V0L1
  6
CONTINUOUS
 62
    40
100
AcDbLine
 10
228.56571
 20
23.0
 30
0.0
 11
230.3
 21
23.0
 31
0.0
  0
LINE
  5
37
100
AcDbEntity
  8
V0L1
  6
CONTINUOUS
 62
     3
100
AcDbLine
 10
228.0
 20
50.0
 30
0.0
 11
228.0
 21
54.0
 31
0.0
  0
LINE
  5
38
100
AcDbEntity
  8
V0L1
  6
CONTINUOUS
 62
    40
100
AcDbLine
 10
350.0
 20
50.0
 30
0.0
 11
393.0
 21
50.0
 31
0.0
  0
LINE
  5
39
100
AcDbEntity
  8
V0L1
  6
CONTINUOUS
 62
    40
100
AcDbLine
 10
230.3
 20
23.0
 30
0.0
 11
230.3
 21
26.32
 31
0.0
  0
LINE
  5
3A
100
AcDbEntity
  8
V0L1
  6
CONTINUOUS
 62
    40
100
AcDbLine
 10
230.3
 20
26.32
 30
0.0
 11
229.72771
 21
26.32
 31
0.0
  0
LINE
  5
3B
100
AcDbEntity
  8
V0L1
  6
CONTINUOUS
 62
    40
100
AcDbLine
 10
229.72771
 20
26.32
 30
0.0
 11
228.56571
 21
23.0
 31
0.0
  0
LINE
  5
3C
100
AcDbEntity
  8
V0L1
  6
CONTINUOUS
 62
    40
100
AcDbLine
 10
228.81941
 20
23.18
 30
0.0
 11
230.12
 21
23.18
 31
0.0
  0
LINE
  5
3D
100
AcDbEntity
  8
V0L1
  6
CONTINUOUS
 62
    40
100
AcDbLine
 10
230.12
 20
23.18
 30
0.0
 11
230.12
 21
26.14
 31
0.0
  0
LINE
  5
3E
100
AcDbEntity
  8
V0L1
  6
CONTINUOUS
 62
    40
100
AcDbLine
 10
230.12
 20
26.14
 30
0.0
 11
229.85541
 21
26.14
 31
0.0
  0
LINE
  5
3F
100
AcDbEntity
  8
V0L1
  6
CONTINUOUS
 62
    40
100
AcDbLine
 10
229.85541
 20
26.14
 30
0.0
 11
228.81941
 21
23.18
 31
0.0
  0
LINE
  5
40
100
AcDbEntity
  8
V0L1
  6
CONTINUOUS
 62
    40
100
AcDbLine
 10
229.07312
 20
23.36
 30
0.0
 11
229.94
 21
23.36
 31
0.0
  0
LINE
  5
41
100
AcDbEntity
  8
V0L1
  6
CONTINUOUS
 62
    40
100
AcDbLine
 10
229.94
 20
23.36
 30
0.0
 11
229.94
 21
25.836801
 31
0.0
  0
LINE
  5
42
100
AcDbEntity
  8
V0L1
  6
CONTINUOUS
 62
    40
100
AcDbLine
 10
229.94
 20
25.836801
 30
0.0
 11
229.07312
 21
23.36
 31
0.0
  0
LINE
  5
43
100
AcDbEntity
  8
V0L1
  6
CONTINUOUS
 62
    40
100
AcDbLine
 10
229.32683
 20
23.54
 30
0.0
 11
229.76
 21
23.54
 31
0.0
  0
LINE
  5
44
100
AcDbEntity
  8
V0L1
  6
CONTINUOUS
 62
    40
100
AcDbLine
 10
229.76
 20
23.54
 30
0.0
 11
229.76
 21
24.777639
 31
0.0
  0
LINE
  5
45
100
AcDbEntity
  8
V0L1
  6
CONTINUOUS
 62
    40
100
AcDbLine
 10
229.76
 20
24.777639
 30
0.0
 11
229.32683
 21
23.54
 31
0.0
  0
LINE
  5
46
100
AcDbEntity
  8
V0L1
  6
CONTINUOUS
 62
    40
100
AcDbLine
 10
229.53825
 20
23.69
 30
0.0
 11
229.61
 21
23.69
 31
0.0
  0
LINE
  5
47
100
AcDbEntity
  8
V0L1
  6
CONTINUOUS
 62
    40
100
AcDbLine
 10
229.61
 20
23.69
 30
0.0
 11
229.61
 21
23.895004
 31
0.0
  0
LINE
  5
48
100
AcDbEntity
  8
V0L1
  6
CONTINUOUS
 62
    40
100
AcDbLine
 10
229.61
 20
23.895004
 30
0.0
 11
229.53825
 21
23.69
 31
0.0
  0
LINE
  5
49
100
AcDbEntity
  8
V0L1
  6
CONTINUOUS
 62
    40
100
AcDbLine
 10
231.3
 20
23.0
 30
0.0
 11
231.3
 21
26.32
 31
0.0
  0
LINE
  5
4A
100
AcDbEntity
  8
V0L1
  6
CONTINUOUS
 62
    40
100
AcDbLine
 10
231.3
 20
26.32
 30
0.0
 11
231.87229
 21
26.32
 31
0.0
  0
LINE
  5
4B
100
AcDbEntity
  8
V0L1
  6
CONTINUOUS
 62
    40
100
AcDbLine
 10
231.87229
 20
26.32
 30
0.0
 11
233.03429
 21
23.0
 31
0.0
  0
LINE
  5
4C
100
AcDbEntity
  8
V0L1
  6
CONTINUOUS
 62
    40
100
AcDbLine
 10
233.03429
 20
23.0
 30
0.0
 11
231.3
 21
23.0
 31
0.0
  0
LINE
  5
4D
100
AcDbEntity
  8
V0L1
  6
CONTINUOUS
 62
    40
100
AcDbLine
 10
231.48
 20
23.18
 30
0.0
 11
231.48
 21
26.14
 31
0.0
  0
LINE
  5
4E
100
AcDbEntity
  8
V0L1
  6
CONTINUOUS
 62
    40
100
AcDbLine
 10
231.48
 20
26.14
 30
0.0
 11
231.74459
 21
26.14
 31
0.0
  0
LINE
  5
4F
100
AcDbEntity
  8
V0L1
  6
CONTINUOUS
 62
    40
100
AcDbLine
 10
231.74459
 20
26.14
 30
0.0
 11
232.78059
 21
23.18
 31
0.0
  0
LINE
  5
50
100
AcDbEntity
  8
V0L1
  6
CONTINUOUS
 62
    40
100
AcDbLine
 10
232.78059
 20
23.18
 30
0.0
 11
231.48
 21
23.18
 31
0.0
  0
LINE
  5
51
100
AcDbEntity
  8
V0L1
  6
CONTINUOUS
 62
    40
100
AcDbLine
 10
231.66
 20
23.36
 30
0.0
 11
231.66
 21
25.836801
 31
0.0
  0
LINE
  5
52
100
AcDbEntity
  8
V0L1
  6
CONTINUOUS
 62
    40
100
AcDbLine
 10
231.66
 20
25.836801
 30
0.0
 11
232.52688
 21
23.36
 31
0.0
  0
LINE
  5
53
100
AcDbEntity
  8
V0L1
  6
CONTINUOUS
 62
    40
100
AcDbLine
 10
232.52688
 20
23.36
 30
0.0
 11
231.66
 21
23.36
 31
0.0
  0
LINE
  5
54
100
AcDbEntity
  8
V0L1
  6
CONTINUOUS
 62
    40
100
AcDbLine
 10
231.84
 20
23.54
 30
0.0
 11
231.84
 21
24.777639
 31
0.0
  0
LINE
  5
55
100
AcDbEntity
  8
V0L1
  6
CONTINUOUS
 62
    40
100
AcDbLine
 10
231.84
 20
24.777639
 30
0.0
 11
232.27317
 21
23.54
 31
0.0
  0
LINE
  5
56
100
AcDbEntity
  8
V0L1
  6
CONTINUOUS
 62
    40
100
AcDbLine
 10
232.27317
 20
23.54
 30
0.0
 11
231.84
 21
23.54
 31
0.0
  0
LINE
  5
57
100
AcDbEntity
  8
V0L1
  6
CONTINUOUS
 62
    40
100
AcDbLine
 10
232.06175
 20
23.69
 30
0.0
 11
231.99
 21
23.69
 31
0.0
  0
LINE
  5
58
100
AcDbEntity
  8
V0L1
  6
CONTINUOUS
 62
    40
100
AcDbLine
 10
231.99
 20
23.69
 30
0.0
 11
231.99
 21
23.895004
 31
0.0
  0
LINE
  5
59
100
AcDbEntity
  8
V0L1
  6
CONTINUOUS
 62
    40
100
AcDbLine
 10
231.99
 20
23.895004
 30
0.0
 11
232.06175
 21
23.69
 31
0.0
  0
LINE
  5
5A
100
AcDbEntity
  8
V0L1
  6
CONTINUOUS
 62
    40
100
AcDbLine
 10
227.05371
 20
18.68
 30
0.0
 11
228.21571
 21
22.0
 31
0.0
  0
LINE
  5
5B
100
AcDbEntity
  8
V0L1
  6
CONTINUOUS
 62
     3
100
AcDbLine
 10
222.0
 20
15.0
 30
0.0
 11
222.0
 21
58.0
 31
0.0
  0
LINE
  5
5C
100
AcDbEntity
  8
V0L1
  6
CONTINUOUS
 62
     3
100
AcDbLine
 10
222.0
 20
58.0
 30
0.0
 11
393.0
 21
58.0
 31
0.0
  0
LINE
  5
5D
100
AcDbEntity
  8
V0L1
  6
CONTINUOUS
 62
     3
100
AcDbLine
 10
222.0
 20
54.0
 30
0.0
 11
393.0
 21
54.0
 31
0.0
  0
LINE
  5
5E
100
AcDbEntity
  8
V0L1
  6
CONTINUOUS
 62
     3
100
AcDbLine
 10
222.0
 20
50.0
 30
0.0
 11
350.0
 21
50.0
 31
0.0
  0
LINE
  5
5F
100
AcDbEntity
  8
V0L1
  6
CONTINUOUS
 62
    40
100
AcDbLine
 10
228.0
 20
46.0
 30
0.0
 11
335.0
 21
46.0
 31
0.0
  0
LINE
  5
60
100
AcDbEntity
  8
V0L1
  6
CONTINUOUS
 62
    40
100
AcDbLine
 10
228.0
 20
42.0
 30
0.0
 11
335.0
 21
42.0
 31
0.0
  0
LINE
  5
61
100
AcDbEntity
  8
V0L1
  6
CONTINUOUS
 62
    40
100
AcDbLine
 10
228.0
 20
38.0
 30
0.0
 11
335.0
 21
38.0
 31
0.0
  0
LINE
  5
62
100
AcDbEntity
  8
V0L1
  6
CONTINUOUS
 62
    40
100
AcDbLine
 10
228.0
 20
34.0
 30
0.0
 11
335.0
 21
34.0
 31
0.0
  0
LINE
  5
63
100
AcDbEntity
  8
V0L1
  6
CONTINUOUS
 62
     3
100
AcDbLine
 10
222.0
 20
30.0
 30
0.0
 11
393.0
 21
30.0
 31
0.0
  0
LINE
  5
64
100
AcDbEntity
  8
V0L1
  6
CONTINUOUS
 62
     3
100
AcDbLine
 10
252.0
 20
26.0
 30
0.0
 11
335.0
 21
26.0
 31
0.0
  0
LINE
  5
65
100
AcDbEntity
  8
V0L1
  6
CONTINUOUS
 62
     3
100
AcDbLine
 10
335.0
 20
23.0
 30
0.0
 11
393.0
 21
23.0
 31
0.0
  0
LINE
  5
66
100
AcDbEntity
  8
V0L1
  6
CONTINUOUS
 62
    40
100
AcDbLine
 10
228.0
 20
30.0
 30
0.0
 11
228.0
 21
50.0
 31
0.0
  0
LINE
  5
67
100
AcDbEntity
  8
V0L1
  6
CONTINUOUS
 62
     3
100
AcDbLine
 10
231.0
 20
54.0
 30
0.0
 11
231.0
 21
58.0
 31
0.0
  0
LINE
  5
68
100
AcDbEntity
  8
V0L1
  6
CONTINUOUS
 62
    40
100
AcDbLine
 10
235.0
 20
30.0
 30
0.0
 11
235.0
 21
50.0
 31
0.0
  0
LINE
  5
69
100
AcDbEntity
  8
V0L1
  6
CONTINUOUS
 62
     3
100
AcDbLine
 10
252.0
 20
15.0
 30
0.0
 11
252.0
 21
30.0
 31
0.0
  0
LINE
  5
6A
100
AcDbEntity
  8
V0L1
  6
CONTINUOUS
 62
     3
100
AcDbLine
 10
265.0
 20
54.0
 30
0.0
 11
265.0
 21
58.0
 31
0.0
  0
LINE
  5
6B
100
AcDbEntity
  8
V0L1
  6
CONTINUOUS
 62
     3
100
AcDbLine
 10
268.0
 20
50.0
 30
0.0
 11
268.0
 21
54.0
 31
0.0
  0
LINE
  5
6C
100
AcDbEntity
  8
V0L1
  6
CONTINUOUS
 62
     3
100
AcDbLine
 10
275.0
 20
54.0
 30
0.0
 11
275.0
 21
58.0
 31
0.0
  0
LINE
  5
6D
100
AcDbEntity
  8
V0L1
  6
CONTINUOUS
 62
     3
100
AcDbLine
 10
308.0
 20
50.0
 30
0.0
 11
308.0
 21
58.0
 31
0.0
  0
LINE
  5
6E
100
AcDbEntity
  8
V0L1
  6
CONTINUOUS
 62
     3
100
AcDbLine
 10
318.0
 20
54.0
 30
0.0
 11
318.0
 21
58.0
 31
0.0
  0
LINE
  5
6F
100
AcDbEntity
  8
V0L1
  6
CONTINUOUS
 62
     3
100
AcDbLine
 10
335.0
 20
15.0
 30
0.0
 11
335.0
 21
50.0
 31
0.0
  0
LINE
  5
70
100
AcDbEntity
  8
V0L1
  6
CONTINUOUS
 62
     3
100
AcDbLine
 10
341.0
 20
23.0
 30
0.0
 11
341.0
 21
26.107786
 31
0.0
  0
LINE
  5
71
100
AcDbEntity
  8
V0L1
  6
CONTINUOUS
 62
     3
100
AcDbLine
 10
347.0
 20
23.0
 30
0.0
 11
347.0
 21
30.0
 31
0.0
  0
LINE
  5
72
100
AcDbEntity
  8
V0L1
  6
CONTINUOUS
 62
     3
100
AcDbLine
 10
350.0
 20
30.0
 30
0.0
 11
350.0
 21
58.0
 31
0.0
  0
LINE
  5
73
100
AcDbEntity
  8
V0L1
  6
CONTINUOUS
 62
     3
100
AcDbLine
 10
353.0
 20
23.0
 30
0.0
 11
353.0
 21
26.107786
 31
0.0
  0
LINE
  5
74
100
AcDbEntity
  8
V0L1
  6
CONTINUOUS
 62
     3
100
AcDbLine
 10
16.0
 20
278.0
 30
0.0
 11
16.0
 21
15.0
 31
0.0
  0
LINE
  5
75
100
AcDbEntity
  8
V0L1
  6
CONTINUOUS
 62
     3
100
AcDbLine
 10
16.0
 20
15.0
 30
0.0
 11
393.0
 21
15.0
 31
0.0
  0
LINE
  5
76
100
AcDbEntity
  8
V0L1
  6
CONTINUOUS
 62
     3
100
AcDbLine
 10
359.0
 20
23.0
 30
0.0
 11
359.0
 21
30.0
 31
0.0
  0
LINE
  5
77
100
AcDbEntity
  8
V0L1
  6
CONTINUOUS
 62
     3
100
AcDbLine
 10
360.0
 20
54.0
 30
0.0
 11
360.0
 21
58.0
 31
0.0
  0
LINE
  5
78
100
AcDbEntity
  8
V0L1
  6
CONTINUOUS
 62
     3
100
AcDbLine
 10
370.0
 20
23.0
 30
0.0
 11
370.0
 21
30.0
 31
0.0
  0
LINE
  5
79
100
AcDbEntity
  8
V0L1
  6
CONTINUOUS
 62
     3
100
AcDbLine
 10
382.0
 20
23.0
 30
0.0
 11
382.0
 21
30.0
 31
0.0
  0
LINE
  5
7A
100
AcDbEntity
  8
V0L1
  6
CONTINUOUS
 62
    40
100
AcDbLine
 10
389.5
 20
53.5
 30
0.0
 11
392.5
 21
53.5
 31
0.0
  0
LINE
  5
7B
100
AcDbEntity
  8
V0L1
  6
CONTINUOUS
 62
    40
100
AcDbLine
 10
392.5
 20
53.5
 30
0.0
 11
392.5
 21
50.5
 31
0.0
  0
LINE
  5
7C
100
AcDbEntity
  8
V0L1
  6
CONTINUOUS
 62
    40
100
AcDbLine
 10
389.5
 20
50.5
 30
0.0
 11
392.5
 21
50.5
 31
0.0
  0
LINE
  5
7D
100
AcDbEntity
  8
V0L1
  6
CONTINUOUS
 62
    40
100
AcDbLine
 10
389.5
 20
53.5
 30
0.0
 11
389.5
 21
50.5
 31
0.0
  0
LINE
  5
7E
100
AcDbEntity
  8
V0L1
  6
CONTINUOUS
 62
    40
100
AcDbLine
 10
389.5
 20
49.5
 30
0.0
 11
389.5
 21
46.5
 31
0.0
  0
LINE
  5
7F
100
AcDbEntity
  8
V0L1
  6
CONTINUOUS
 62
    40
100
AcDbLine
 10
389.5
 20
46.5
 30
0.0
 11
392.5
 21
46.5
 31
0.0
  0
LINE
  5
80
100
AcDbEntity
  8
V0L1
  6
CONTINUOUS
 62
    40
100
AcDbLine
 10
392.5
 20
49.5
 30
0.0
 11
392.5
 21
46.5
 31
0.0
  0
LINE
  5
81
100
AcDbEntity
  8
V0L1
  6
CONTINUOUS
 62
    40
100
AcDbLine
 10
389.5
 20
49.5
 30
0.0
 11
392.5
 21
49.5
 31
0.0
  0
LINE
  5
82
100
AcDbEntity
  8
V0L1
  6
CONTINUOUS
 62
    40
100
AcDbLine
 10
389.5
 20
45.5
 30
0.0
 11
389.5
 21
42.5
 31
0.0
  0
LINE
  5
83
100
AcDbEntity
  8
V0L1
  6
CONTINUOUS
 62
    40
100
AcDbLine
 10
389.5
 20
42.5
 30
0.0
 11
392.5
 21
42.5
 31
0.0
  0
LINE
  5
84
100
AcDbEntity
  8
V0L1
  6
CONTINUOUS
 62
     3
100
AcDbLine
 10
393.0
 20
15.0
 30
0.0
 11
393.0
 21
278.0
 31
0.0
  0
LINE
  5
85
100
AcDbEntity
  8
V0L1
  6
CONTINUOUS
 62
     3
100
AcDbLine
 10
393.0
 20
278.0
 30
0.0
 11
16.0
 21
278.0
 31
0.0
  0
LINE
  5
86
100
AcDbEntity
  8
V0L1
  6
CONTINUOUS
 62
    40
100
AcDbLine
 10
392.5
 20
45.5
 30
0.0
 11
392.5
 21
42.5
 31
0.0
  0
LINE
  5
87
100
AcDbEntity
  8
V0L1
  6
CONTINUOUS
 62
    40
100
AcDbLine
 10
389.5
 20
45.5
 30
0.0
 11
392.5
 21
45.5
 31
0.0
  0
LINE
  5
88
100
AcDbEntity
  8
V0L1
  6
CONTINUOUS
 62
    40
100
AcDbLine
 10
393.0
 20
15.0
 30
0.0
 11
397.0
 21
15.0
 31
0.0
  0
LINE
  5
89
100
AcDbEntity
  8
V0L1
  6
CONTINUOUS
 62
    40
100
AcDbLine
 10
393.0
 20
18.0
 30
0.0
 11
397.0
 21
18.0
 31
0.0
  0
LINE
  5
8A
100
AcDbEntity
  8
V0L1
  6
CONTINUOUS
 62
    40
100
AcDbLine
 10
393.0
 20
21.0
 30
0.0
 11
397.0
 21
21.0
 31
0.0
  0
LINE
  5
8B
100
AcDbEntity
  8
V0L1
  6
CONTINUOUS
 62
    40
100
AcDbLine
 10
393.0
 20
24.0
 30
0.0
 11
397.0
 21
24.0
 31
0.0
  0
LINE
  5
8C
100
AcDbEntity
  8
V0L1
  6
CONTINUOUS
 62
    40
100
AcDbLine
 10
393.0
 20
27.0
 30
0.0
 11
397.0
 21
27.0
 31
0.0
  0
LINE
  5
8D
100
AcDbEntity
  8
V0L1
  6
CONTINUOUS
 62
    40
100
AcDbLine
 10
393.0
 20
30.0
 30
0.0
 11
397.0
 21
30.0
 31
0.0
  0
LINE
  5
8E
100
AcDbEntity
  8
V0L1
  6
CONTINUOUS
 62
    40
100
AcDbLine
 10
229.6
 20
26.5
 30
0.0
 11
230.48
 21
26.5
 31
0.0
  0
LINE
  5
8F
100
AcDbEntity
  8
V0L1
  6
CONTINUOUS
 62
    40
100
AcDbLine
 10
83.0
 20
278.0
 30
0.0
 11
83.0
 21
266.0
 31
0.0
  0
LINE
  5
90
100
AcDbEntity
  8
V0L1
  6
CONTINUOUS
 62
     3
100
AcDbLine
 10
150.0
 20
266.0
 30
0.0
 11
150.0
 21
278.0
 31
0.0
  0
LINE
  5
91
100
AcDbEntity
  8
V0L1
  6
CONTINUOUS
 62
     3
100
AcDbLine
 10
150.0
 20
266.0
 30
0.0
 11
16.0
 21
266.0
 31
0.0
  0
LINE
  5
92
100
AcDbEntity
  8
V0L1
  6
CONTINUOUS
 62
    40
100
AcDbLine
 10
228.8
 20
18.5
 30
0.0
 11
226.8
 21
18.5
 31
0.0
  0
LINE
  5
93
100
AcDbEntity
  8
V0L1
  6
CONTINUOUS
 62
    40
100
AcDbLine
 10
228.21571
 20
22.0
 30
0.0
 11
230.3
 21
22.0
 31
0.0
  0
LINE
  5
94
100
AcDbEntity
  8
V0L1
  6
CONTINUOUS
 62
    40
100
AcDbLine
 10
226.8
 20
18.5
 30
0.0
 11
228.088
 21
22.18
 31
0.0
  0
LINE
  5
95
100
AcDbEntity
  8
V0L1
  6
CONTINUOUS
 62
    40
100
AcDbLine
 10
232.0
 20
26.5
 30
0.0
 11
233.288
 21
22.82
 31
0.0
  0
LINE
  5
96
100
AcDbEntity
  8
V0L1
  6
CONTINUOUS
 62
    40
100
AcDbLine
 10
232.24
 20
20.1
 30
0.0
 11
232.8
 21
18.5
 31
0.0
  0
LINE
  5
97
100
AcDbEntity
  8
V0L1
  6
CONTINUOUS
 62
    40
100
AcDbLine
 10
228.8
 20
18.5
 30
0.0
 11
229.36
 21
20.1
 31
0.0
  0
LINE
  5
98
100
AcDbEntity
  8
V0L1
  6
CONTINUOUS
 62
    40
100
AcDbLine
 10
235.36
 20
18.5
 30
0.0
 11
237.44
 21
18.5
 31
0.0
  0
LINE
  5
99
100
AcDbEntity
  8
V0L1
  6
CONTINUOUS
 62
    40
100
AcDbLine
 10
235.36
 20
26.5
 30
0.0
 11
237.44
 21
26.5
 31
0.0
  0
LINE
  5
9A
100
AcDbEntity
  8
V0L1
  6
CONTINUOUS
 62
    40
100
AcDbLine
 10
229.36
 20
20.1
 30
0.0
 11
230.48
 21
20.1
 31
0.0
  0
LINE
  5
9B
100
AcDbEntity
  8
V0L1
  6
CONTINUOUS
 62
    40
100
AcDbLine
 10
232.8
 20
18.5
 30
0.0
 11
234.8
 21
18.5
 31
0.0
  0
LINE
  5
9C
100
AcDbEntity
  8
V0L1
  6
CONTINUOUS
 62
    40
100
AcDbLine
 10
228.088
 20
22.18
 30
0.0
 11
230.48
 21
22.18
 31
0.0
  0
LINE
  5
9D
100
AcDbEntity
  8
V0L1
  6
CONTINUOUS
 62
    40
100
AcDbLine
 10
228.312
 20
22.82
 30
0.0
 11
230.48
 21
22.82
 31
0.0
  0
LINE
  5
9E
100
AcDbEntity
  8
V0L1
  6
CONTINUOUS
 62
    40
100
AcDbLine
 10
57.69113
 20
271.18273
 30
0.0
 11
60.69113
 21
271.18273
 31
0.0
  0
LINE
  5
9F
100
AcDbEntity
  8
V0L1
  6
CONTINUOUS
 62
    40
100
AcDbLine
 10
60.69113
 20
271.18273
 30
0.0
 11
60.69113
 21
268.18273
 31
0.0
  0
LINE
  5
A0
100
AcDbEntity
  8
V0L1
  6
CONTINUOUS
 62
    40
100
AcDbLine
 10
230.48
 20
20.1
 30
0.0
 11
230.48
 21
22.18
 31
0.0
  0
LINE
  5
A1
100
AcDbEntity
  8
V0L1
  6
CONTINUOUS
 62
    40
100
AcDbLine
 10
231.12
 20
20.1
 30
0.0
 11
231.12
 21
22.18
 31
0.0
  0
LINE
  5
A2
100
AcDbEntity
  8
V0L1
  6
CONTINUOUS
 62
    40
100
AcDbLine
 10
231.12
 20
20.1
 30
0.0
 11
232.24
 21
20.1
 31
0.0
  0
LINE
  5
A3
100
AcDbEntity
  8
V0L1
  6
CONTINUOUS
 62
    40
100
AcDbLine
 10
231.12
 20
22.18
 30
0.0
 11
233.512
 21
22.18
 31
0.0
  0
LINE
  5
A4
100
AcDbEntity
  8
V0L1
  6
CONTINUOUS
 62
    40
100
AcDbLine
 10
228.312
 20
22.82
 30
0.0
 11
229.6
 21
26.5
 31
0.0
  0
LINE
  5
A5
100
AcDbEntity
  8
V0L1
  6
CONTINUOUS
 62
    40
100
AcDbLine
 10
231.12
 20
22.82
 30
0.0
 11
233.288
 21
22.82
 31
0.0
  0
LINE
  5
A6
100
AcDbEntity
  8
V0L1
  6
CONTINUOUS
 62
    40
100
AcDbLine
 10
231.12
 20
22.82
 30
0.0
 11
231.12
 21
26.5
 31
0.0
  0
LINE
  5
A7
100
AcDbEntity
  8
V0L1
  6
CONTINUOUS
 62
    40
100
AcDbLine
 10
230.48
 20
22.82
 30
0.0
 11
230.48
 21
26.5
 31
0.0
  0
LINE
  5
A8
100
AcDbEntity
  8
V0L1
  6
CONTINUOUS
 62
    40
100
AcDbLine
 10
232.0
 20
26.5
 30
0.0
 11
231.12
 21
26.5
 31
0.0
  0
LINE
  5
A9
100
AcDbEntity
  8
V0L1
  6
CONTINUOUS
 62
    40
100
AcDbLine
 10
233.512
 20
22.18
 30
0.0
 11
234.8
 21
18.5
 31
0.0
  0
LINE
  5
AA
100
AcDbEntity
  8
V0L1
  6
CONTINUOUS
 62
    40
100
AcDbLine
 10
235.36
 20
18.5
 30
0.0
 11
235.36
 21
22.18
 31
0.0
  0
LINE
  5
AB
100
AcDbEntity
  8
V0L1
  6
CONTINUOUS
 62
    40
100
AcDbLine
 10
57.69113
 20
268.18273
 30
0.0
 11
60.69113
 21
268.18273
 31
0.0
  0
LINE
  5
AC
100
AcDbEntity
  8
V0L1
  6
CONTINUOUS
 62
    40
100
AcDbLine
 10
57.69113
 20
271.18273
 30
0.0
 11
57.69113
 21
268.18273
 31
0.0
  0
LINE
  5
AD
100
AcDbEntity
  8
V0L1
  6
CONTINUOUS
 62
    40
100
AcDbLine
 10
48.21513
 20
271.18273
 30
0.0
 11
51.21513
 21
271.18273
 31
0.0
  0
ARC
  5
AE
100
AcDbEntity
  8
V0L1
  6
CONTINUOUS
 62
    40
100
AcDbCircle
 10
238.56
 20
24.7
 30
0.0
 40
1.8
100
AcDbArc
 50
299.38468
 51
90.0
  0
ARC
  5
AF
100
AcDbEntity
  8
V0L1
  6
CONTINUOUS
 62
    40
100
AcDbCircle
 10
238.56
 20
20.9
 30
0.0
 40
2.4
100
AcDbArc
 50
270.0
 51
32.23095
  0
LINE
  5
B0
100
AcDbEntity
  8
V0L1
  6
CONTINUOUS
 62
    40
100
AcDbLine
 10
51.21513
 20
271.18273
 30
0.0
 11
51.21513
 21
268.18273
 31
0.0
  0
LINE
  5
B1
100
AcDbEntity
  8
V0L1
  6
CONTINUOUS
 62
    40
100
AcDbLine
 10
48.21513
 20
268.18273
 30
0.0
 11
51.21513
 21
268.18273
 31
0.0
  0
LINE
  5
B2
100
AcDbEntity
  8
V0L1
  6
CONTINUOUS
 62
    40
100
AcDbLine
 10
240.0
 20
22.82
 30
0.0
 11
238.08
 21
22.82
 31
0.0
  0
LINE
  5
B3
100
AcDbEntity
  8
V0L1
  6
CONTINUOUS
 62
    40
100
AcDbLine
 10
240.59017
 20
22.18
 30
0.0
 11
238.08
 21
22.18
 31
0.0
  0
LINE
  5
B4
100
AcDbEntity
  8
V0L1
  6
CONTINUOUS
 62
    40
100
AcDbLine
 10
238.08
 20
18.5
 30
0.0
 11
238.08
 21
22.18
 31
0.0
  0
LINE
  5
B5
100
AcDbEntity
  8
V0L1
  6
CONTINUOUS
 62
    40
100
AcDbLine
 10
237.44
 20
18.5
 30
0.0
 11
237.44
 21
22.18
 31
0.0
  0
LINE
  5
B6
100
AcDbEntity
  8
V0L1
  6
CONTINUOUS
 62
    40
100
AcDbLine
 10
238.08
 20
26.5
 30
0.0
 11
238.56
 21
26.5
 31
0.0
  0
LINE
  5
B7
100
AcDbEntity
  8
V0L1
  6
CONTINUOUS
 62
    40
100
AcDbLine
 10
237.44
 20
22.82
 30
0.0
 11
235.36
 21
22.82
 31
0.0
  0
LINE
  5
B8
100
AcDbEntity
  8
V0L1
  6
CONTINUOUS
 62
    40
100
AcDbLine
 10
237.44
 20
22.18
 30
0.0
 11
235.36
 21
22.18
 31
0.0
  0
LINE
  5
B9
100
AcDbEntity
  8
V0L1
  6
CONTINUOUS
 62
    40
100
AcDbLine
 10
238.08
 20
18.5
 30
0.0
 11
238.56
 21
18.5
 31
0.0
  0
LINE
  5
BA
100
AcDbEntity
  8
V0L1
  6
CONTINUOUS
 62
    40
100
AcDbLine
 10
235.36
 20
22.82
 30
0.0
 11
235.36
 21
26.5
 31
0.0
  0
LINE
  5
BB
100
AcDbEntity
  8
V0L1
  6
CONTINUOUS
 62
    40
100
AcDbLine
 10
48.21513
 20
271.18273
 30
0.0
 11
48.21513
 21
268.18273
 31
0.0
  0
LINE
  5
BC
100
AcDbEntity
  8
V0L1
  6
CONTINUOUS
 62
    40
100
AcDbLine
 10
237.44
 20
22.82
 30
0.0
 11
237.44
 21
26.5
 31
0.0
  0
LINE
  5
BD
100
AcDbEntity
  8
V0L1
  6
CONTINUOUS
 62
    40
100
AcDbLine
 10
238.08
 20
22.82
 30
0.0
 11
238.08
 21
26.5
 31
0.0
  0
ARC
  5
BE
100
AcDbEntity
  8
V0L1
  6
CONTINUOUS
 62
    40
100
AcDbCircle
 10
238.56
 20
20.9
 30
0.0
 40
2.4
100
AcDbArc
 50
53.130102
 51
68.407484
  0
LINE
  5
BF
100
AcDbEntity
  8
V0L1
  6
CONTINUOUS
 62
    40
100
AcDbLine
 10
241.6
 20
18.5
 30
0.0
 11
241.6
 21
22.18
 31
0.0
  0
LINE
  5
C0
100
AcDbEntity
  8
V0L1
  6
CONTINUOUS
 62
    40
100
AcDbLine
 10
243.68
 20
22.18
 30
0.0
 11
241.6
 21
22.18
 31
0.0
  0
LINE
  5
C1
100
AcDbEntity
  8
V0L1
  6
CONTINUOUS
 62
    40
100
AcDbLine
 10
243.68
 20
18.5
 30
0.0
 11
243.68
 21
22.18
 31
0.0
  0
LINE
  5
C2
100
AcDbEntity
  8
V0L1
  6
CONTINUOUS
 62
    40
100
AcDbLine
 10
124.0
 20
269.0
 30
0.0
 11
127.0
 21
269.0
 31
0.0
  0
LINE
  5
C3
100
AcDbEntity
  8
V0L1
  6
CONTINUOUS
 62
    40
100
AcDbLine
 10
241.6
 20
18.5
 30
0.0
 11
243.68
 21
18.5
 31
0.0
  0
LINE
  5
C4
100
AcDbEntity
  8
V0L1
  6
CONTINUOUS
 62
    40
100
AcDbLine
 10
244.32
 20
18.5
 30
0.0
 11
244.32
 21
22.18
 31
0.0
  0
LINE
  5
C5
100
AcDbEntity
  8
V0L1
  6
CONTINUOUS
 62
    40
100
AcDbLine
 10
246.83017
 20
22.18
 30
0.0
 11
244.32
 21
22.18
 31
0.0
  0
LINE
  5
C6
100
AcDbEntity
  8
V0L1
  6
CONTINUOUS
 62
    40
100
AcDbLine
 10
127.0
 20
272.0
 30
0.0
 11
127.0
 21
269.0
 31
0.0
  0
LINE
  5
C7
100
AcDbEntity
  8
V0L1
  6
CONTINUOUS
 62
    40
100
AcDbLine
 10
124.0
 20
272.0
 30
0.0
 11
127.0
 21
272.0
 31
0.0
  0
LINE
  5
C8
100
AcDbEntity
  8
V0L1
  6
CONTINUOUS
 62
    40
100
AcDbLine
 10
124.0
 20
272.0
 30
0.0
 11
124.0
 21
269.0
 31
0.0
  0
ARC
  5
C9
100
AcDbEntity
  8
V0L1
  6
CONTINUOUS
 62
    40
100
AcDbCircle
 10
244.8
 20
20.9
 30
0.0
 40
2.4
100
AcDbArc
 50
270.0
 51
32.23095
  0
LINE
  5
CA
100
AcDbEntity
  8
V0L1
  6
CONTINUOUS
 62
    40
100
AcDbLine
 10
137.0
 20
269.0
 30
0.0
 11
140.0
 21
269.0
 31
0.0
  0
LINE
  5
CB
100
AcDbEntity
  8
V0L1
  6
CONTINUOUS
 62
    40
100
AcDbLine
 10
244.32
 20
18.5
 30
0.0
 11
244.8
 21
18.5
 31
0.0
  0
LINE
  5
CC
100
AcDbEntity
  8
V0L1
  6
CONTINUOUS
 62
    40
100
AcDbLine
 10
241.6
 20
22.82
 30
0.0
 11
241.6
 21
26.5
 31
0.0
  0
LINE
  5
CD
100
AcDbEntity
  8
V0L1
  6
CONTINUOUS
 62
    40
100
AcDbLine
 10
241.6
 20
26.5
 30
0.0
 11
243.68
 21
26.5
 31
0.0
  0
LINE
  5
CE
100
AcDbEntity
  8
V0L1
  6
CONTINUOUS
 62
    40
100
AcDbLine
 10
243.68
 20
22.82
 30
0.0
 11
243.68
 21
26.5
 31
0.0
  0
LINE
  5
CF
100
AcDbEntity
  8
V0L1
  6
CONTINUOUS
 62
    40
100
AcDbLine
 10
243.68
 20
22.82
 30
0.0
 11
241.6
 21
22.82
 31
0.0
  0
LINE
  5
D0
100
AcDbEntity
  8
V0L1
  6
CONTINUOUS
 62
    40
100
AcDbLine
 10
244.32
 20
22.82
 30
0.0
 11
244.32
 21
26.5
 31
0.0
  0
LINE
  5
D1
100
AcDbEntity
  8
V0L1
  6
CONTINUOUS
 62
    40
100
AcDbLine
 10
244.32
 20
26.5
 30
0.0
 11
244.8
 21
26.5
 31
0.0
  0
ARC
  5
D2
100
AcDbEntity
  8
V0L1
  6
CONTINUOUS
 62
    40
100
AcDbCircle
 10
244.8
 20
24.7
 30
0.0
 40
1.8
100
AcDbArc
 50
299.38468
 51
90.0
  0
LINE
  5
D3
100
AcDbEntity
  8
V0L1
  6
CONTINUOUS
 62
    40
100
AcDbLine
 10
140.0
 20
272.0
 30
0.0
 11
140.0
 21
269.0
 31
0.0
  0
ARC
  5
D4
100
AcDbEntity
  8
V0L1
  6
CONTINUOUS
 62
    40
100
AcDbCircle
 10
244.8
 20
20.9
 30
0.0
 40
2.4
100
AcDbArc
 50
53.130102
 51
68.407484
  0
LINE
  5
D5
100
AcDbEntity
  8
V0L1
  6
CONTINUOUS
 62
    40
100
AcDbLine
 10
246.24
 20
22.82
 30
0.0
 11
244.32
 21
22.82
 31
0.0
  0
LINE
  5
D6
100
AcDbEntity
  8
V0L1
  6
CONTINUOUS
 62
    40
100
AcDbLine
 10
137.0
 20
272.0
 30
0.0
 11
140.0
 21
272.0
 31
0.0
  0
TEXT
  5
D7
100
AcDbEntity
  8
V0L1
  6
CONTINUOUS
 62
    13
100
AcDbText
 10
28.042442
 20
273.05173
 30
0.0
 40
2.5
  1
Tolerances generales selon ISO 2768
 41
0.5
100
AcDbText
  0
TEXT
  5
D8
100
AcDbEntity
  8
V0L1
  6
CONTINUOUS
 62
    13
100
AcDbText
 10
19.029304
 20
268.29203
 30
0.0
 40
2.5
  1
Degre de precision   f      m       c       v
 41
0.5
100
AcDbText
  0
TEXT
  5
D9
100
AcDbEntity
  8
V0L1
  6
CONTINUOUS
 62
    13
100
AcDbText
 10
86.294943
 20
273.6093
 30
0.0
 40
2.5
  1
Tolerances generales sur pieces moulees selon
 41
0.5
100
AcDbText
  0
TEXT
  5
DA
100
AcDbEntity
  8
V0L1
  6
CONTINUOUS
 62
    13
100
AcDbText
 10
86.294943
 20
269.1093
 30
0.0
 40
2.5
  1
Din 16901 (FPTC 407364)   130       140   
 41
0.5
100
AcDbText
  0
LINE
  5
DB
100
AcDbEntity
  8
V0L1
  6
CONTINUOUS
 62
    40
100
AcDbLine
 10
230.3
 20
22.0
 30
0.0
 11
230.3
 21
20.28
 31
0.0
  0
LINE
  5
DC
100
AcDbEntity
  8
V0L1
  6
CONTINUOUS
 62
    40
100
AcDbLine
 10
67.16713
 20
268.18273
 30
0.0
 11
70.16713
 21
268.18273
 31
0.0
  0
LINE
  5
DD
100
AcDbEntity
  8
V0L1
  6
CONTINUOUS
 62
    40
100
AcDbLine
 10
137.0
 20
272.0
 30
0.0
 11
137.0
 21
269.0
 31
0.0
  0
LINE
  5
DE
100
AcDbEntity
  8
V0L1
  6
CONTINUOUS
 62
    40
100
AcDbLine
 10
230.3
 20
20.28
 30
0.0
 11
229.23229
 21
20.28
 31
0.0
  0
LINE
  5
DF
100
AcDbEntity
  8
V0L1
  6
CONTINUOUS
 62
    40
100
AcDbLine
 10
229.23229
 20
20.28
 30
0.0
 11
228.67229
 21
18.68
 31
0.0
  0
LINE
  5
E0
100
AcDbEntity
  8
V0L1
  6
CONTINUOUS
 62
    40
100
AcDbLine
 10
16.0
 20
278.0
 30
0.0
 11
17.5
 21
281.67156
 31
0.0
  0
LINE
  5
E1
100
AcDbEntity
  8
V0L1
  6
CONTINUOUS
 62
    40
100
AcDbLine
 10
17.5
 20
281.67156
 30
0.0
 11
19.0
 21
278.0
 31
0.0
  0
LINE
  5
E2
100
AcDbEntity
  8
V0L1
  6
CONTINUOUS
 62
    40
100
AcDbLine
 10
212.0
 20
278.0
 30
0.0
 11
213.5
 21
281.67156
 31
0.0
  0
LINE
  5
E3
100
AcDbEntity
  8
V0L1
  6
CONTINUOUS
 62
    40
100
AcDbLine
 10
213.5
 20
281.67156
 30
0.0
 11
215.0
 21
278.0
 31
0.0
  0
LINE
  5
E4
100
AcDbEntity
  8
V0L1
  6
CONTINUOUS
 62
    40
100
AcDbLine
 10
16.0
 20
15.0
 30
0.0
 11
17.5
 21
11.328442
 31
0.0
  0
LINE
  5
E5
100
AcDbEntity
  8
V0L1
  6
CONTINUOUS
 62
    40
100
AcDbLine
 10
17.5
 20
11.328442
 30
0.0
 11
19.0
 21
15.0
 31
0.0
  0
LINE
  5
E6
100
AcDbEntity
  8
V0L1
  6
CONTINUOUS
 62
    40
100
AcDbLine
 10
212.0
 20
15.0
 30
0.0
 11
213.5
 21
11.328442
 31
0.0
  0
LINE
  5
E7
100
AcDbEntity
  8
V0L1
  6
CONTINUOUS
 62
    40
100
AcDbLine
 10
213.5
 20
11.328442
 30
0.0
 11
215.0
 21
15.0
 31
0.0
  0
LINE
  5
E8
100
AcDbEntity
  8
V0L1
  6
CONTINUOUS
 62
    40
100
AcDbLine
 10
228.67229
 20
18.68
 30
0.0
 11
227.05371
 21
18.68
 31
0.0
  0
LINE
  5
E9
100
AcDbEntity
  8
V0L1
  6
CONTINUOUS
 62
    40
100
AcDbLine
 10
227.30741
 20
18.86
 30
0.0
 11
228.34341
 21
21.82
 31
0.0
  0
LINE
  5
EA
100
AcDbEntity
  8
V0L1
  6
CONTINUOUS
 62
    40
100
AcDbLine
 10
228.34341
 20
21.82
 30
0.0
 11
230.12
 21
21.82
 31
0.0
  0
LINE
  5
EB
100
AcDbEntity
  8
V0L1
  6
CONTINUOUS
 62
    40
100
AcDbLine
 10
230.12
 20
21.82
 30
0.0
 11
230.12
 21
20.46
 31
0.0
  0
LINE
  5
EC
100
AcDbEntity
  8
V0L1
  6
CONTINUOUS
 62
    40
100
AcDbLine
 10
230.12
 20
20.46
 30
0.0
 11
229.10459
 21
20.46
 31
0.0
  0
LINE
  5
ED
100
AcDbEntity
  8
V0L1
  6
CONTINUOUS
 62
    40
100
AcDbLine
 10
229.10459
 20
20.46
 30
0.0
 11
228.54459
 21
18.86
 31
0.0
  0
LINE
  5
EE
100
AcDbEntity
  8
V0L1
  6
CONTINUOUS
 62
    40
100
AcDbLine
 10
228.54459
 20
18.86
 30
0.0
 11
227.30741
 21
18.86
 31
0.0
  0
LINE
  5
EF
100
AcDbEntity
  8
V0L1
  6
CONTINUOUS
 62
    40
100
AcDbLine
 10
227.56112
 20
19.04
 30
0.0
 11
228.47112
 21
21.64
 31
0.0
  0
LINE
  5
F0
100
AcDbEntity
  8
V0L1
  6
CONTINUOUS
 62
    40
100
AcDbLine
 10
228.47112
 20
21.64
 30
0.0
 11
229.94
 21
21.64
 31
0.0
  0
LINE
  5
F1
100
AcDbEntity
  8
V0L1
  6
CONTINUOUS
 62
    40
100
AcDbLine
 10
229.94
 20
21.64
 30
0.0
 11
229.94
 21
20.64
 31
0.0
  0
LINE
  5
F2
100
AcDbEntity
  8
V0L1
  6
CONTINUOUS
 62
    40
100
AcDbLine
 10
229.94
 20
20.64
 30
0.0
 11
228.97688
 21
20.64
 31
0.0
  0
LINE
  5
F3
100
AcDbEntity
  8
V0L1
  6
CONTINUOUS
 62
    40
100
AcDbLine
 10
228.97688
 20
20.64
 30
0.0
 11
228.41688
 21
19.04
 31
0.0
  0
LINE
  5
F4
100
AcDbEntity
  8
V0L1
  6
CONTINUOUS
 62
    40
100
AcDbLine
 10
228.41688
 20
19.04
 30
0.0
 11
227.56112
 21
19.04
 31
0.0
  0
LINE
  5
F5
100
AcDbEntity
  8
V0L1
  6
CONTINUOUS
 62
    40
100
AcDbLine
 10
227.81483
 20
19.22
 30
0.0
 11
228.59883
 21
21.46
 31
0.0
  0
LINE
  5
F6
100
AcDbEntity
  8
V0L1
  6
CONTINUOUS
 62
    40
100
AcDbLine
 10
228.59883
 20
21.46
 30
0.0
 11
229.76
 21
21.46
 31
0.0
  0
LINE
  5
F7
100
AcDbEntity
  8
V0L1
  6
CONTINUOUS
 62
    40
100
AcDbLine
 10
229.76
 20
21.46
 30
0.0
 11
229.76
 21
20.82
 31
0.0
  0
LINE
  5
F8
100
AcDbEntity
  8
V0L1
  6
CONTINUOUS
 62
    40
100
AcDbLine
 10
229.76
 20
20.82
 30
0.0
 11
228.84917
 21
20.82
 31
0.0
  0
LINE
  5
F9
100
AcDbEntity
  8
V0L1
  6
CONTINUOUS
 62
    40
100
AcDbLine
 10
228.84917
 20
20.82
 30
0.0
 11
228.28917
 21
19.22
 31
0.0
  0
LINE
  5
FA
100
AcDbEntity
  8
V0L1
  6
CONTINUOUS
 62
    40
100
AcDbLine
 10
228.28917
 20
19.22
 30
0.0
 11
227.81483
 21
19.22
 31
0.0
  0
LINE
  5
FB
100
AcDbEntity
  8
V0L1
  6
CONTINUOUS
 62
    40
100
AcDbLine
 10
70.16713
 20
271.18273
 30
0.0
 11
70.16713
 21
268.18273
 31
0.0
  0
LINE
  5
FC
100
AcDbEntity
  8
V0L1
  6
CONTINUOUS
 62
    40
100
AcDbLine
 10
67.16713
 20
271.18273
 30
0.0
 11
70.16713
 21
271.18273
 31
0.0
  0
LINE
  5
FD
100
AcDbEntity
  8
V0L1
  6
CONTINUOUS
 62
    40
100
AcDbLine
 10
67.16713
 20
271.18273
 30
0.0
 11
67.16713
 21
268.18273
 31
0.0
  0
LINE
  5
FE
100
AcDbEntity
  8
V0L1
  6
CONTINUOUS
 62
    40
100
AcDbLine
 10
76.64313
 20
268.18273
 30
0.0
 11
79.64313
 21
268.18273
 31
0.0
  0
LINE
  5
FF
100
AcDbEntity
  8
V0L1
  6
CONTINUOUS
 62
    40
100
AcDbLine
 10
79.64313
 20
271.18273
 30
0.0
 11
79.64313
 21
268.18273
 31
0.0
  0
LINE
  5
100
100
AcDbEntity
  8
V0L1
  6
CONTINUOUS
 62
    40
100
AcDbLine
 10
228.06853
 20
19.4
 30
0.0
 11
228.72653
 21
21.28
 31
0.0
  0
LINE
  5
101
100
AcDbEntity
  8
V0L1
  6
CONTINUOUS
 62
    40
100
AcDbLine
 10
228.72653
 20
21.28
 30
0.0
 11
229.58
 21
21.28
 31
0.0
  0
TEXT
  5
102
100
AcDbEntity
  8
V0L1
  6
CONTINUOUS
 62
    13
100
AcDbText
 10
309.33055
 20
56.201294
 30
0.0
 40
1.45
  1
Controle
 41
0.6
100
AcDbText
  0
TEXT
  5
103
100
AcDbEntity
  8
V0L1
  6
CONTINUOUS
 62
    13
100
AcDbText
 10
309.33055
 20
54.461294
 30
0.0
 40
1.45
  1
Normes
 41
0.6
100
AcDbText
  0
TEXT
  5
104
100
AcDbEntity
  8
V0L1
  6
CONTINUOUS
 62
    13
100
AcDbText
 10
309.33055
 20
52.201294
 30
0.0
 40
1.45
  1
Remplace
 41
0.6
100
AcDbText
  0
TEXT
  5
105
100
AcDbEntity
  8
V0L1
  6
CONTINUOUS
 62
    13
100
AcDbText
 10
309.33055
 20
50.461294
 30
0.0
 40
1.45
  1
par :
 41
0.6
100
AcDbText
  0
TEXT
  5
106
100
AcDbEntity
  8
V0L1
  6
CONTINUOUS
 62
    13
100
AcDbText
 10
351.33055
 20
56.201294
 30
0.0
 40
1.45
  1
Bon pour
 41
0.6
100
AcDbText
  0
TEXT
  5
107
100
AcDbEntity
  8
V0L1
  6
CONTINUOUS
 62
    13
100
AcDbText
 10
351.33055
 20
54.461294
 30
0.0
 40
1.45
  1
execution
 41
0.6
100
AcDbText
  0
LINE
  5
108
100
AcDbEntity
  8
V0L1
  6
CONTINUOUS
 62
    40
100
AcDbLine
 10
76.64313
 20
271.18273
 30
0.0
 11
79.64313
 21
271.18273
 31
0.0
  0
LINE
  5
109
100
AcDbEntity
  8
V0L1
  6
CONTINUOUS
 62
    40
100
AcDbLine
 10
229.58
 20
21.28
 30
0.0
 11
229.58
 21
21.0
 31
0.0
  0
LINE
  5
10A
100
AcDbEntity
  8
V0L1
  6
CONTINUOUS
 62
    40
100
AcDbLine
 10
229.58
 20
21.0
 30
0.0
 11
228.72147
 21
21.0
 31
0.0
  0
LINE
  5
10B
100
AcDbEntity
  8
V0L1
  6
CONTINUOUS
 62
    40
100
AcDbLine
 10
228.72147
 20
21.0
 30
0.0
 11
228.16147
 21
19.4
 31
0.0
  0
LINE
  5
10C
100
AcDbEntity
  8
V0L1
  6
CONTINUOUS
 62
    40
100
AcDbLine
 10
228.16147
 20
19.4
 30
0.0
 11
228.06853
 21
19.4
 31
0.0
  0
LINE
  5
10D
100
AcDbEntity
  8
V0L1
  6
CONTINUOUS
 62
    40
100
AcDbLine
 10
229.58
 20
21.15
 30
0.0
 11
228.72147
 21
21.15
 31
0.0
  0
LINE
  5
10E
100
AcDbEntity
  8
V0L1
  6
CONTINUOUS
 62
    40
100
AcDbLine
 10
232.92771
 20
18.68
 30
0.0
 11
234.54629
 21
18.68
 31
0.0
  0
LINE
  5
10F
100
AcDbEntity
  8
V0L1
  6
CONTINUOUS
 62
    40
100
AcDbLine
 10
234.54629
 20
18.68
 30
0.0
 11
233.38429
 21
22.0
 31
0.0
  0
LINE
  5
110
100
AcDbEntity
  8
V0L1
  6
CONTINUOUS
 62
    40
100
AcDbLine
 10
233.38429
 20
22.0
 30
0.0
 11
231.3
 21
22.0
 31
0.0
  0
LINE
  5
111
100
AcDbEntity
  8
V0L1
  6
CONTINUOUS
 62
    40
100
AcDbLine
 10
231.3
 20
22.0
 30
0.0
 11
231.3
 21
20.28
 31
0.0
  0
LINE
  5
112
100
AcDbEntity
  8
V0L1
  6
CONTINUOUS
 62
    40
100
AcDbLine
 10
231.3
 20
20.28
 30
0.0
 11
232.36771
 21
20.28
 31
0.0
  0
LINE
  5
113
100
AcDbEntity
  8
V0L1
  6
CONTINUOUS
 62
    40
100
AcDbLine
 10
232.36771
 20
20.28
 30
0.0
 11
232.92771
 21
18.68
 31
0.0
  0
LINE
  5
114
100
AcDbEntity
  8
V0L1
  6
CONTINUOUS
 62
    40
100
AcDbLine
 10
233.05541
 20
18.86
 30
0.0
 11
234.29259
 21
18.86
 31
0.0
  0
LINE
  5
115
100
AcDbEntity
  8
V0L1
  6
CONTINUOUS
 62
    40
100
AcDbLine
 10
234.29259
 20
18.86
 30
0.0
 11
233.25659
 21
21.82
 31
0.0
  0
LINE
  5
116
100
AcDbEntity
  8
V0L1
  6
CONTINUOUS
 62
    40
100
AcDbLine
 10
233.25659
 20
21.82
 30
0.0
 11
231.48
 21
21.82
 31
0.0
  0
LINE
  5
117
100
AcDbEntity
  8
V0L1
  6
CONTINUOUS
 62
    40
100
AcDbLine
 10
231.48
 20
21.82
 30
0.0
 11
231.48
 21
20.46
 31
0.0
  0
LINE
  5
118
100
AcDbEntity
  8
V0L1
  6
CONTINUOUS
 62
    40
100
AcDbLine
 10
231.48
 20
20.46
 30
0.0
 11
232.49541
 21
20.46
 31
0.0
  0
LINE
  5
119
100
AcDbEntity
  8
V0L1
  6
CONTINUOUS
 62
    40
100
AcDbLine
 10
232.49541
 20
20.46
 30
0.0
 11
233.05541
 21
18.86
 31
0.0
  0
LINE
  5
11A
100
AcDbEntity
  8
V0L1
  6
CONTINUOUS
 62
    40
100
AcDbLine
 10
234.03888
 20
19.04
 30
0.0
 11
233.12888
 21
21.64
 31
0.0
  0
LINE
  5
11B
100
AcDbEntity
  8
V0L1
  6
CONTINUOUS
 62
    40
100
AcDbLine
 10
233.12888
 20
21.64
 30
0.0
 11
231.66
 21
21.64
 31
0.0
  0
LINE
  5
11C
100
AcDbEntity
  8
V0L1
  6
CONTINUOUS
 62
    40
100
AcDbLine
 10
231.66
 20
21.64
 30
0.0
 11
231.66
 21
20.64
 31
0.0
  0
LINE
  5
11D
100
AcDbEntity
  8
V0L1
  6
CONTINUOUS
 62
    40
100
AcDbLine
 10
231.66
 20
20.64
 30
0.0
 11
232.62312
 21
20.64
 31
0.0
  0
LINE
  5
11E
100
AcDbEntity
  8
V0L1
  6
CONTINUOUS
 62
    40
100
AcDbLine
 10
232.62312
 20
20.64
 30
0.0
 11
233.18312
 21
19.04
 31
0.0
  0
LINE
  5
11F
100
AcDbEntity
  8
V0L1
  6
CONTINUOUS
 62
    40
100
AcDbLine
 10
233.18312
 20
19.04
 30
0.0
 11
234.03888
 21
19.04
 31
0.0
  0
LINE
  5
120
100
AcDbEntity
  8
V0L1
  6
CONTINUOUS
 62
    40
100
AcDbLine
 10
233.78517
 20
19.22
 30
0.0
 11
233.00117
 21
21.46
 31
0.0
  0
LINE
  5
121
100
AcDbEntity
  8
V0L1
  6
CONTINUOUS
 62
    40
100
AcDbLine
 10
233.00117
 20
21.46
 30
0.0
 11
231.84
 21
21.46
 31
0.0
  0
LINE
  5
122
100
AcDbEntity
  8
V0L1
  6
CONTINUOUS
 62
    40
100
AcDbLine
 10
231.84
 20
21.46
 30
0.0
 11
231.84
 21
20.82
 31
0.0
  0
LINE
  5
123
100
AcDbEntity
  8
V0L1
  6
CONTINUOUS
 62
    40
100
AcDbLine
 10
231.84
 20
20.82
 30
0.0
 11
232.75083
 21
20.82
 31
0.0
  0
LINE
  5
124
100
AcDbEntity
  8
V0L1
  6
CONTINUOUS
 62
    40
100
AcDbLine
 10
232.75083
 20
20.82
 30
0.0
 11
233.31083
 21
19.22
 31
0.0
  0
LINE
  5
125
100
AcDbEntity
  8
V0L1
  6
CONTINUOUS
 62
    40
100
AcDbLine
 10
233.31083
 20
19.22
 30
0.0
 11
233.78517
 21
19.22
 31
0.0
  0
LINE
  5
126
100
AcDbEntity
  8
V0L1
  6
CONTINUOUS
 62
    40
100
AcDbLine
 10
233.53147
 20
19.4
 30
0.0
 11
232.87347
 21
21.28
 31
0.0
  0
LINE
  5
127
100
AcDbEntity
  8
V0L1
  6
CONTINUOUS
 62
    40
100
AcDbLine
 10
232.87347
 20
21.28
 30
0.0
 11
232.02
 21
21.28
 31
0.0
  0
LINE
  5
128
100
AcDbEntity
  8
V0L1
  6
CONTINUOUS
 62
    40
100
AcDbLine
 10
232.02
 20
21.28
 30
0.0
 11
232.02
 21
21.0
 31
0.0
  0
LINE
  5
129
100
AcDbEntity
  8
V0L1
  6
CONTINUOUS
 62
    40
100
AcDbLine
 10
232.02
 20
21.0
 30
0.0
 11
232.87853
 21
21.0
 31
0.0
  0
LINE
  5
12A
100
AcDbEntity
  8
V0L1
  6
CONTINUOUS
 62
    40
100
AcDbLine
 10
232.87853
 20
21.0
 30
0.0
 11
233.43853
 21
19.4
 31
0.0
  0
LINE
  5
12B
100
AcDbEntity
  8
V0L1
  6
CONTINUOUS
 62
    40
100
AcDbLine
 10
233.43853
 20
19.4
 30
0.0
 11
233.53147
 21
19.4
 31
0.0
  0
LINE
  5
12C
100
AcDbEntity
  8
V0L1
  6
CONTINUOUS
 62
    40
100
AcDbLine
 10
232.02
 20
21.15
 30
0.0
 11
232.87853
 21
21.15
 31
0.0
  0
LINE
  5
12D
100
AcDbEntity
  8
V0L1
  6
CONTINUOUS
 62
    40
100
AcDbLine
 10
235.54
 20
23.0
 30
0.0
 11
235.54
 21
26.32
 31
0.0
  0
LINE
  5
12E
100
AcDbEntity
  8
V0L1
  6
CONTINUOUS
 62
    40
100
AcDbLine
 10
235.54
 20
26.32
 30
0.0
 11
237.26
 21
26.32
 31
0.0
  0
LINE
  5
12F
100
AcDbEntity
  8
V0L1
  6
CONTINUOUS
 62
    40
100
AcDbLine
 10
237.26
 20
26.32
 30
0.0
 11
237.26
 21
23.0
 31
0.0
  0
LINE
  5
130
100
AcDbEntity
  8
V0L1
  6
CONTINUOUS
 62
    40
100
AcDbLine
 10
237.26
 20
23.0
 30
0.0
 11
235.54
 21
23.0
 31
0.0
  0
LINE
  5
131
100
AcDbEntity
  8
V0L1
  6
CONTINUOUS
 62
    40
100
AcDbLine
 10
237.08
 20
23.18
 30
0.0
 11
235.72
 21
23.18
 31
0.0
  0
LINE
  5
132
100
AcDbEntity
  8
V0L1
  6
CONTINUOUS
 62
    40
100
AcDbLine
 10
235.72
 20
23.18
 30
0.0
 11
235.72
 21
26.14
 31
0.0
  0
LINE
  5
133
100
AcDbEntity
  8
V0L1
  6
CONTINUOUS
 62
    40
100
AcDbLine
 10
350.0
 20
46.0
 30
0.0
 11
393.0
 21
46.0
 31
0.0
  0
LINE
  5
134
100
AcDbEntity
  8
V0L1
  6
CONTINUOUS
 62
    40
100
AcDbLine
 10
350.0
 20
42.0
 30
0.0
 11
393.0
 21
42.0
 31
0.0
  0
LINE
  5
135
100
AcDbEntity
  8
V0L1
  6
CONTINUOUS
 62
    40
100
AcDbLine
 10
350.0
 20
38.0
 30
0.0
 11
393.0
 21
38.0
 31
0.0
  0
LINE
  5
136
100
AcDbEntity
  8
V0L1
  6
CONTINUOUS
 62
    40
100
AcDbLine
 10
335.0
 20
34.0
 30
0.0
 11
393.0
 21
34.0
 31
0.0
  0
TEXT
  5
137
100
AcDbEntity
  8
V0L1
  6
CONTINUOUS
 62
    13
100
AcDbText
 10
223.19606
 20
54.832339
 30
0.0
 40
2.0
  1
Etabli
 41
0.5
100
AcDbText
  0
TEXT
  5
138
100
AcDbEntity
  8
V0L1
  6
CONTINUOUS
 62
    13
100
AcDbText
 10
229.19606
 20
50.832339
 30
0.0
 40
2.0
  1
Issu de :
 41
0.5
100
AcDbText
  0
TEXT
  5
139
100
AcDbEntity
  8
V0L1
  6
CONTINUOUS
 62
    13
100
AcDbText
 10
226.18532
 20
37.081261
 30
0.0
 40
2.2
  1
Modif.
 50
90.0
 41
0.5
100
AcDbText
  0
TEXT
  5
13A
100
AcDbEntity
  8
V0L1
  6
CONTINUOUS
 62
    13
100
AcDbText
 10
266.03012
 20
54.832339
 30
0.0
 40
2.0
  1
Controle
 41
0.5
100
AcDbText
  0
TEXT
  5
13B
100
AcDbEntity
  8
V0L1
  6
CONTINUOUS
 62
    13
100
AcDbText
 10
269.03012
 20
50.832339
 30
0.0
 40
2.0
  1
Remplace
 41
0.5
100
AcDbText
  0
LINE
  5
13C
100
AcDbEntity
  8
V0L1
  6
CONTINUOUS
 62
    40
100
AcDbLine
 10
235.72
 20
26.14
 30
0.0
 11
237.08
 21
26.14
 31
0.0
  0
LINE
  5
13D
100
AcDbEntity
  8
V0L1
  6
CONTINUOUS
 62
    40
100
AcDbLine
 10
237.08
 20
26.14
 30
0.0
 11
237.08
 21
23.18
 31
0.0
  0
LINE
  5
13E
100
AcDbEntity
  8
V0L1
  6
CONTINUOUS
 62
    40
100
AcDbLine
 10
235.9
 20
23.36
 30
0.0
 11
235.9
 21
25.96
 31
0.0
  0
TEXT
  5
13F
100
AcDbEntity
  8
V0L1
  6
CONTINUOUS
 62
    13
100
AcDbText
 10
338.54651
 20
46.906468
 30
0.0
 40
2.0
  1
Echelle
 41
0.5
100
AcDbText
  0
TEXT
  5
140
100
AcDbEntity
  8
V0L1
  6
CONTINUOUS
 62
    13
100
AcDbText
 10
351.28476
 20
43.201045
 30
0.0
 40
2.0
  1
Nomenclature separee de numero different
 41
0.45
100
AcDbText
  0
TEXT
  5
141
100
AcDbEntity
  8
V0L1
  6
CONTINUOUS
 62
    13
100
AcDbText
 10
351.28476
 20
47.201045
 30
0.0
 40
2.0
  1
Nomenclature separee de meme numero
 41
0.45
100
AcDbText
  0
TEXT
  5
142
100
AcDbEntity
  8
V0L1
  6
CONTINUOUS
 62
    13
100
AcDbText
 10
351.28476
 20
51.201045
 30
0.0
 40
2.0
  1
Sans nomenclature separee
 41
0.45
100
AcDbText
  0
TEXT
  5
143
100
AcDbEntity
  8
V0L1
  6
CONTINUOUS
 62
    13
100
AcDbText
 10
351.28476
 20
31.201045
 30
0.0
 40
2.0
  1
Service resp.: B E
 41
0.45
100
AcDbText
  0
TEXT
  5
144
100
AcDbEntity
  8
V0L1
  6
CONTINUOUS
 62
    13
100
AcDbText
 10
336.61841
 20
27.130883
 30
0.0
 40
2.2
  1
Doc. Type     Format     Langue     Feuil.No    Nb.feuil.
 41
0.45
100
AcDbText
  0
TEXT
  5
145
100
AcDbEntity
  8
V0L1
  6
CONTINUOUS
 62
    13
100
AcDbText
 10
363.90098
 20
23.606885
 30
0.0
 40
2.2
  1
F
 41
0.75
100
AcDbText
  0
TEXT
  5
146
100
AcDbEntity
  8
V0L1
  6
CONTINUOUS
 62
    13
100
AcDbText
 10
355.0488
 20
23.606885
 30
0.0
 40
2.2
  1
3
 41
0.75
100
AcDbText
  0
TEXT
  5
147
100
AcDbEntity
  8
V0L1
  6
CONTINUOUS
 62
     4
100
AcDbText
 10
253.50904
 20
26.746705
 30
0.0
 40
2.5
  1
ABB Control
 41
0.9
100
AcDbText
  0
TEXT
  5
148
100
AcDbEntity
  8
V0L1
  6
CONTINUOUS
 62
    13
100
AcDbText
 10
253.64853
 20
22.747949
 30
0.0
 40
2.0
  1
Titre
 41
0.75
100
AcDbText
  0
LINE
  5
149
100
AcDbEntity
  8
V0L1
  6
CONTINUOUS
 62
    40
100
AcDbLine
 10
29.0
 20
69.0
 30
0.0
 11
29.0
 21
15.0
 31
0.0
  0
LINE
  5
14A
100
AcDbEntity
  8
V0L1
  6
CONTINUOUS
 62
    40
100
AcDbLine
 10
16.0
 20
69.0
 30
0.0
 11
29.0
 21
69.0
 31
0.0
  0
LINE
  5
14B
100
AcDbEntity
  8
V0L1
  6
CONTINUOUS
 62
    40
100
AcDbLine
 10
235.9
 20
25.96
 30
0.0
 11
236.9
 21
25.96
 31
0.0
  0
LINE
  5
14C
100
AcDbEntity
  8
V0L1
  6
CONTINUOUS
 62
    40
100
AcDbLine
 10
16.0
 20
58.833333
 30
0.0
 11
12.0
 21
58.833333
 31
0.0
  0
LINE
  5
14D
100
AcDbEntity
  8
V0L1
  6
CONTINUOUS
 62
    40
100
AcDbLine
 10
16.0
 20
102.66667
 30
0.0
 11
12.0
 21
102.66667
 31
0.0
  0
LINE
  5
14E
100
AcDbEntity
  8
V0L1
  6
CONTINUOUS
 62
    40
100
AcDbLine
 10
16.0
 20
146.5
 30
0.0
 11
12.0
 21
146.5
 31
0.0
  0
LINE
  5
14F
100
AcDbEntity
  8
V0L1
  6
CONTINUOUS
 62
    40
100
AcDbLine
 10
16.0
 20
190.33333
 30
0.0
 11
12.0
 21
190.33333
 31
0.0
  0
LINE
  5
150
100
AcDbEntity
  8
V0L1
  6
CONTINUOUS
 62
    40
100
AcDbLine
 10
16.0
 20
234.16667
 30
0.0
 11
12.0
 21
234.16667
 31
0.0
  0
TEXT
  5
151
100
AcDbEntity
  8
V0L1
  6
CONTINUOUS
 62
    13
100
AcDbText
 10
13.5
 20
36.916667
 30
0.0
 40
2.0
  1
A
100
AcDbText
  0
TEXT
  5
152
100
AcDbEntity
  8
V0L1
  6
CONTINUOUS
 62
    13
100
AcDbText
 10
13.5
 20
80.75
 30
0.0
 40
2.0
  1
B
100
AcDbText
  0
TEXT
  5
153
100
AcDbEntity
  8
V0L1
  6
CONTINUOUS
 62
    13
100
AcDbText
 10
13.5
 20
124.58333
 30
0.0
 40
2.0
  1
C
100
AcDbText
  0
TEXT
  5
154
100
AcDbEntity
  8
V0L1
  6
CONTINUOUS
 62
    13
100
AcDbText
 10
13.5
 20
168.41667
 30
0.0
 40
2.0
  1
D
100
AcDbText
  0
TEXT
  5
155
100
AcDbEntity
  8
V0L1
  6
CONTINUOUS
 62
    13
100
AcDbText
 10
13.5
 20
212.25
 30
0.0
 40
2.0
  1
E
100
AcDbText
  0
TEXT
  5
156
100
AcDbEntity
  8
V0L1
  6
CONTINUOUS
 62
    13
100
AcDbText
 10
13.5
 20
256.08333
 30
0.0
 40
2.0
  1
F
100
AcDbText
  0
TEXT
  5
157
100
AcDbEntity
  8
V0L1
  6
CONTINUOUS
 62
    13
100
AcDbText
 10
394.14933
 20
36.799778
 30
0.0
 40
2.0
  1
A
100
AcDbText
  0
LINE
  5
158
100
AcDbEntity
  8
V0L1
  6
CONTINUOUS
 62
    40
100
AcDbLine
 10
397.0
 20
58.833333
 30
0.0
 11
393.0
 21
58.833333
 31
0.0
  0
TEXT
  5
159
100
AcDbEntity
  8
V0L1
  6
CONTINUOUS
 62
    13
100
AcDbText
 10
394.14933
 20
80.633111
 30
0.0
 40
2.0
  1
B
100
AcDbText
  0
LINE
  5
15A
100
AcDbEntity
  8
V0L1
  6
CONTINUOUS
 62
    40
100
AcDbLine
 10
397.0
 20
102.66667
 30
0.0
 11
393.0
 21
102.66667
 31
0.0
  0
TEXT
  5
15B
100
AcDbEntity
  8
V0L1
  6
CONTINUOUS
 62
    13
100
AcDbText
 10
394.14933
 20
124.46644
 30
0.0
 40
2.0
  1
C
100
AcDbText
  0
LINE
  5
15C
100
AcDbEntity
  8
V0L1
  6
CONTINUOUS
 62
    40
100
AcDbLine
 10
397.0
 20
146.5
 30
0.0
 11
393.0
 21
146.5
 31
0.0
  0
TEXT
  5
15D
100
AcDbEntity
  8
V0L1
  6
CONTINUOUS
 62
    13
100
AcDbText
 10
394.14933
 20
168.29978
 30
0.0
 40
2.0
  1
D
100
AcDbText
  0
LINE
  5
15E
100
AcDbEntity
  8
V0L1
  6
CONTINUOUS
 62
    40
100
AcDbLine
 10
397.0
 20
190.33333
 30
0.0
 11
393.0
 21
190.33333
 31
0.0
  0
TEXT
  5
15F
100
AcDbEntity
  8
V0L1
  6
CONTINUOUS
 62
    13
100
AcDbText
 10
394.14933
 20
212.13311
 30
0.0
 40
2.0
  1
E
100
AcDbText
  0
LINE
  5
160
100
AcDbEntity
  8
V0L1
  6
CONTINUOUS
 62
    40
100
AcDbLine
 10
397.0
 20
234.16667
 30
0.0
 11
393.0
 21
234.16667
 31
0.0
  0
TEXT
  5
161
100
AcDbEntity
  8
V0L1
  6
CONTINUOUS
 62
    13
100
AcDbText
 10
394.64933
 20
255.96644
 30
0.0
 40
2.0
  1
F
100
AcDbText
  0
LINE
  5
162
100
AcDbEntity
  8
V0L1
  6
CONTINUOUS
 62
    40
100
AcDbLine
 10
397.0
 20
15.0
 30
0.0
 11
397.0
 21
30.0
 31
0.0
  0
LINE
  5
163
100
AcDbEntity
  8
V0L1
  6
CONTINUOUS
 62
    40
100
AcDbLine
 10
344.125
 20
15.0
 30
0.0
 11
344.125
 21
10.0
 31
0.0
  0
LINE
  5
164
100
AcDbEntity
  8
V0L1
  6
CONTINUOUS
 62
    40
100
AcDbLine
 10
344.125
 20
278.0
 30
0.0
 11
344.125
 21
283.0
 31
0.0
  0
LINE
  5
165
100
AcDbEntity
  8
V0L1
  6
CONTINUOUS
 62
    40
100
AcDbLine
 10
295.25
 20
15.0
 30
0.0
 11
295.25
 21
10.0
 31
0.0
  0
LINE
  5
166
100
AcDbEntity
  8
V0L1
  6
CONTINUOUS
 62
    40
100
AcDbLine
 10
295.25
 20
278.0
 30
0.0
 11
295.25
 21
283.0
 31
0.0
  0
LINE
  5
167
100
AcDbEntity
  8
V0L1
  6
CONTINUOUS
 62
    40
100
AcDbLine
 10
246.375
 20
15.0
 30
0.0
 11
246.375
 21
10.0
 31
0.0
  0
LINE
  5
168
100
AcDbEntity
  8
V0L1
  6
CONTINUOUS
 62
    40
100
AcDbLine
 10
246.375
 20
278.0
 30
0.0
 11
246.375
 21
283.0
 31
0.0
  0
LINE
  5
169
100
AcDbEntity
  8
V0L1
  6
CONTINUOUS
 62
    40
100
AcDbLine
 10
197.5
 20
15.0
 30
0.0
 11
197.5
 21
10.0
 31
0.0
  0
LINE
  5
16A
100
AcDbEntity
  8
V0L1
  6
CONTINUOUS
 62
    40
100
AcDbLine
 10
197.5
 20
278.0
 30
0.0
 11
197.5
 21
283.0
 31
0.0
  0
LINE
  5
16B
100
AcDbEntity
  8
V0L1
  6
CONTINUOUS
 62
    40
100
AcDbLine
 10
149.625
 20
15.0
 30
0.0
 11
149.625
 21
10.0
 31
0.0
  0
LINE
  5
16C
100
AcDbEntity
  8
V0L1
  6
CONTINUOUS
 62
    40
100
AcDbLine
 10
149.625
 20
278.0
 30
0.0
 11
149.625
 21
283.0
 31
0.0
  0
LINE
  5
16D
100
AcDbEntity
  8
V0L1
  6
CONTINUOUS
 62
    40
100
AcDbLine
 10
100.75
 20
15.0
 30
0.0
 11
100.75
 21
10.0
 31
0.0
  0
LINE
  5
16E
100
AcDbEntity
  8
V0L1
  6
CONTINUOUS
 62
    40
100
AcDbLine
 10
100.75
 20
278.0
 30
0.0
 11
100.75
 21
283.0
 31
0.0
  0
LINE
  5
16F
100
AcDbEntity
  8
V0L1
  6
CONTINUOUS
 62
    40
100
AcDbLine
 10
51.875
 20
15.0
 30
0.0
 11
51.875
 21
10.0
 31
0.0
  0
LINE
  5
170
100
AcDbEntity
  8
V0L1
  6
CONTINUOUS
 62
    40
100
AcDbLine
 10
51.875
 20
278.0
 30
0.0
 11
51.875
 21
283.0
 31
0.0
  0
TEXT
  5
171
100
AcDbEntity
  8
V0L1
  6
CONTINUOUS
 62
    13
100
AcDbText
 10
368.5625
 20
11.249993
 30
0.0
 40
2.0
  1
1
100
AcDbText
  0
TEXT
  5
172
100
AcDbEntity
  8
V0L1
  6
CONTINUOUS
 62
    13
100
AcDbText
 10
319.6875
 20
11.249993
 30
0.0
 40
2.0
  1
2
100
AcDbText
  0
TEXT
  5
173
100
AcDbEntity
  8
V0L1
  6
CONTINUOUS
 62
    13
100
AcDbText
 10
270.8125
 20
11.249993
 30
0.0
 40
2.0
  1
3
100
AcDbText
  0
TEXT
  5
174
100
AcDbEntity
  8
V0L1
  6
CONTINUOUS
 62
    13
100
AcDbText
 10
221.9375
 20
11.249993
 30
0.0
 40
2.0
  1
4
100
AcDbText
  0
TEXT
  5
175
100
AcDbEntity
  8
V0L1
  6
CONTINUOUS
 62
    13
100
AcDbText
 10
174.0625
 20
11.249993
 30
0.0
 40
2.0
  1
5
100
AcDbText
  0
TEXT
  5
176
100
AcDbEntity
  8
V0L1
  6
CONTINUOUS
 62
    13
100
AcDbText
 10
125.1875
 20
11.249993
 30
0.0
 40
2.0
  1
6
100
AcDbText
  0
TEXT
  5
177
100
AcDbEntity
  8
V0L1
  6
CONTINUOUS
 62
    13
100
AcDbText
 10
76.3125
 20
11.249993
 30
0.0
 40
2.0
  1
7
100
AcDbText
  0
TEXT
  5
178
100
AcDbEntity
  8
V0L1
  6
CONTINUOUS
 62
    13
100
AcDbText
 10
27.4375
 20
11.249993
 30
0.0
 40
2.0
  1
8
100
AcDbText
  0
TEXT
  5
179
100
AcDbEntity
  8
V0L1
  6
CONTINUOUS
 62
    13
100
AcDbText
 10
368.5625
 20
279.24999
 30
0.0
 40
2.0
  1
1
100
AcDbText
  0
TEXT
  5
17A
100
AcDbEntity
  8
V0L1
  6
CONTINUOUS
 62
    13
100
AcDbText
 10
319.6875
 20
279.24999
 30
0.0
 40
2.0
  1
2
100
AcDbText
  0
TEXT
  5
17B
100
AcDbEntity
  8
V0L1
  6
CONTINUOUS
 62
    13
100
AcDbText
 10
270.8125
 20
279.24999
 30
0.0
 40
2.0
  1
3
100
AcDbText
  0
TEXT
  5
17C
100
AcDbEntity
  8
V0L1
  6
CONTINUOUS
 62
    13
100
AcDbText
 10
221.9375
 20
279.24999
 30
0.0
 40
2.0
  1
4
100
AcDbText
  0
TEXT
  5
17D
100
AcDbEntity
  8
V0L1
  6
CONTINUOUS
 62
    13
100
AcDbText
 10
174.0625
 20
279.24999
 30
0.0
 40
2.0
  1
5
100
AcDbText
  0
TEXT
  5
17E
100
AcDbEntity
  8
V0L1
  6
CONTINUOUS
 62
    13
100
AcDbText
 10
125.1875
 20
279.24999
 30
0.0
 40
2.0
  1
6
100
AcDbText
  0
TEXT
  5
17F
100
AcDbEntity
  8
V0L1
  6
CONTINUOUS
 62
    13
100
AcDbText
 10
76.3125
 20
279.24999
 30
0.0
 40
2.0
  1
7
100
AcDbText
  0
TEXT
  5
180
100
AcDbEntity
  8
V0L1
  6
CONTINUOUS
 62
    13
100
AcDbText
 10
27.4375
 20
279.24999
 30
0.0
 40
2.0
  1
8
100
AcDbText
  0
LINE
  5
181
100
AcDbEntity
  8
V0L1
  6
CONTINUOUS
 62
    40
100
AcDbLine
 10
236.9
 20
25.96
 30
0.0
 11
236.9
 21
23.36
 31
0.0
  0
LINE
  5
182
100
AcDbEntity
  8
V0L1
  6
CONTINUOUS
 62
    40
100
AcDbLine
 10
236.9
 20
23.36
 30
0.0
 11
235.9
 21
23.36
 31
0.0
  0
LINE
  5
183
100
AcDbEntity
  8
V0L1
  6
CONTINUOUS
 62
    40
100
AcDbLine
 10
236.08
 20
23.54
 30
0.0
 11
236.08
 21
25.78
 31
0.0
  0
LINE
  5
184
100
AcDbEntity
  8
V0L1
  6
CONTINUOUS
 62
    40
100
AcDbLine
 10
236.08
 20
25.78
 30
0.0
 11
236.72
 21
25.78
 31
0.0
  0
LINE
  5
185
100
AcDbEntity
  8
V0L1
  6
CONTINUOUS
 62
    40
100
AcDbLine
 10
236.72
 20
25.78
 30
0.0
 11
236.72
 21
23.54
 31
0.0
  0
LINE
  5
186
100
AcDbEntity
  8
V0L1
  6
CONTINUOUS
 62
    40
100
AcDbLine
 10
236.72
 20
23.54
 30
0.0
 11
236.08
 21
23.54
 31
0.0
  0
LINE
  5
187
100
AcDbEntity
  8
V0L1
  6
CONTINUOUS
 62
    40
100
AcDbLine
 10
236.26
 20
23.72
 30
0.0
 11
236.26
 21
25.6
 31
0.0
  0
LINE
  5
188
100
AcDbEntity
  8
V0L1
  6
CONTINUOUS
 62
    40
100
AcDbLine
 10
236.26
 20
25.6
 30
0.0
 11
236.54
 21
25.6
 31
0.0
  0
LINE
  5
189
100
AcDbEntity
  8
V0L1
  6
CONTINUOUS
 62
    40
100
AcDbLine
 10
236.54
 20
25.6
 30
0.0
 11
236.54
 21
23.72
 31
0.0
  0
LINE
  5
18A
100
AcDbEntity
  8
V0L1
  6
CONTINUOUS
 62
    40
100
AcDbLine
 10
236.54
 20
23.72
 30
0.0
 11
236.26
 21
23.72
 31
0.0
  0
LINE
  5
18B
100
AcDbEntity
  8
V0L1
  6
CONTINUOUS
 62
    40
100
AcDbLine
 10
236.42
 20
23.84
 30
0.0
 11
236.38
 21
23.84
 31
0.0
  0
LINE
  5
18C
100
AcDbEntity
  8
V0L1
  6
CONTINUOUS
 62
    40
100
AcDbLine
 10
236.38
 20
23.84
 30
0.0
 11
236.38
 21
25.48
 31
0.0
  0
LINE
  5
18D
100
AcDbEntity
  8
V0L1
  6
CONTINUOUS
 62
    40
100
AcDbLine
 10
236.38
 20
25.48
 30
0.0
 11
236.42
 21
25.48
 31
0.0
  0
LINE
  5
18E
100
AcDbEntity
  8
V0L1
  6
CONTINUOUS
 62
    40
100
AcDbLine
 10
236.42
 20
25.48
 30
0.0
 11
236.42
 21
23.84
 31
0.0
  0
LINE
  5
18F
100
AcDbEntity
  8
V0L1
  6
CONTINUOUS
 62
    40
100
AcDbLine
 10
235.54
 20
18.68
 30
0.0
 11
237.26
 21
18.68
 31
0.0
  0
LINE
  5
190
100
AcDbEntity
  8
V0L1
  6
CONTINUOUS
 62
    40
100
AcDbLine
 10
237.26
 20
18.68
 30
0.0
 11
237.26
 21
22.0
 31
0.0
  0
LINE
  5
191
100
AcDbEntity
  8
V0L1
  6
CONTINUOUS
 62
    40
100
AcDbLine
 10
237.26
 20
22.0
 30
0.0
 11
235.54
 21
22.0
 31
0.0
  0
LINE
  5
192
100
AcDbEntity
  8
V0L1
  6
CONTINUOUS
 62
    40
100
AcDbLine
 10
235.54
 20
22.0
 30
0.0
 11
235.54
 21
18.68
 31
0.0
  0
LINE
  5
193
100
AcDbEntity
  8
V0L1
  6
CONTINUOUS
 62
    40
100
AcDbLine
 10
235.72
 20
21.82
 30
0.0
 11
235.72
 21
18.86
 31
0.0
  0
LINE
  5
194
100
AcDbEntity
  8
V0L1
  6
CONTINUOUS
 62
    40
100
AcDbLine
 10
235.72
 20
18.86
 30
0.0
 11
237.08
 21
18.86
 31
0.0
  0
LINE
  5
195
100
AcDbEntity
  8
V0L1
  6
CONTINUOUS
 62
    40
100
AcDbLine
 10
237.08
 20
18.86
 30
0.0
 11
237.08
 21
21.82
 31
0.0
  0
LINE
  5
196
100
AcDbEntity
  8
V0L1
  6
CONTINUOUS
 62
    40
100
AcDbLine
 10
237.08
 20
21.82
 30
0.0
 11
235.72
 21
21.82
 31
0.0
  0
LINE
  5
197
100
AcDbEntity
  8
V0L1
  6
CONTINUOUS
 62
    40
100
AcDbLine
 10
235.9
 20
21.64
 30
0.0
 11
235.9
 21
19.04
 31
0.0
  0
LINE
  5
198
100
AcDbEntity
  8
V0L1
  6
CONTINUOUS
 62
    40
100
AcDbLine
 10
235.9
 20
19.04
 30
0.0
 11
236.9
 21
19.04
 31
0.0
  0
LINE
  5
199
100
AcDbEntity
  8
V0L1
  6
CONTINUOUS
 62
    40
100
AcDbLine
 10
236.9
 20
19.04
 30
0.0
 11
236.9
 21
21.64
 31
0.0
  0
LINE
  5
19A
100
AcDbEntity
  8
V0L1
  6
CONTINUOUS
 62
    40
100
AcDbLine
 10
236.9
 20
21.64
 30
0.0
 11
235.9
 21
21.64
 31
0.0
  0
LINE
  5
19B
100
AcDbEntity
  8
V0L1
  6
CONTINUOUS
 62
    40
100
AcDbLine
 10
236.08
 20
21.46
 30
0.0
 11
236.08
 21
19.22
 31
0.0
  0
LINE
  5
19C
100
AcDbEntity
  8
V0L1
  6
CONTINUOUS
 62
    40
100
AcDbLine
 10
236.08
 20
19.22
 30
0.0
 11
236.72
 21
19.22
 31
0.0
  0
LINE
  5
19D
100
AcDbEntity
  8
V0L1
  6
CONTINUOUS
 62
    40
100
AcDbLine
 10
236.72
 20
19.22
 30
0.0
 11
236.72
 21
21.46
 31
0.0
  0
LINE
  5
19E
100
AcDbEntity
  8
V0L1
  6
CONTINUOUS
 62
    40
100
AcDbLine
 10
236.72
 20
21.46
 30
0.0
 11
236.08
 21
21.46
 31
0.0
  0
LINE
  5
19F
100
AcDbEntity
  8
V0L1
  6
CONTINUOUS
 62
    40
100
AcDbLine
 10
236.26
 20
19.4
 30
0.0
 11
236.54
 21
19.4
 31
0.0
  0
LINE
  5
1A0
100
AcDbEntity
  8
V0L1
  6
CONTINUOUS
 62
    40
100
AcDbLine
 10
236.54
 20
19.4
 30
0.0
 11
236.54
 21
21.28
 31
0.0
  0
LINE
  5
1A1
100
AcDbEntity
  8
V0L1
  6
CONTINUOUS
 62
    40
100
AcDbLine
 10
236.54
 20
21.28
 30
0.0
 11
236.26
 21
21.28
 31
0.0
  0
LINE
  5
1A2
100
AcDbEntity
  8
V0L1
  6
CONTINUOUS
 62
    40
100
AcDbLine
 10
236.26
 20
21.28
 30
0.0
 11
236.26
 21
19.4
 31
0.0
  0
LINE
  5
1A3
100
AcDbEntity
  8
V0L1
  6
CONTINUOUS
 62
    40
100
AcDbLine
 10
236.38
 20
19.52
 30
0.0
 11
236.42
 21
19.52
 31
0.0
  0
LINE
  5
1A4
100
AcDbEntity
  8
V0L1
  6
CONTINUOUS
 62
    40
100
AcDbLine
 10
236.42
 20
19.52
 30
0.0
 11
236.42
 21
21.16
 31
0.0
  0
LINE
  5
1A5
100
AcDbEntity
  8
V0L1
  6
CONTINUOUS
 62
    40
100
AcDbLine
 10
236.42
 20
21.16
 30
0.0
 11
236.38
 21
21.16
 31
0.0
  0
LINE
  5
1A6
100
AcDbEntity
  8
V0L1
  6
CONTINUOUS
 62
    40
100
AcDbLine
 10
236.38
 20
21.16
 30
0.0
 11
236.38
 21
19.52
 31
0.0
  0
LINE
  5
1A7
100
AcDbEntity
  8
V0L1
  6
CONTINUOUS
 62
    40
100
AcDbLine
 10
238.26
 20
23.0
 30
0.0
 11
238.26
 21
26.32
 31
0.0
  0
LINE
  5
1A8
100
AcDbEntity
  8
V0L1
  6
CONTINUOUS
 62
    40
100
AcDbLine
 10
238.26
 20
26.32
 30
0.0
 11
238.56
 21
26.32
 31
0.0
  0
ARC
  5
1A9
100
AcDbEntity
  8
V0L1
  6
CONTINUOUS
 62
    40
100
AcDbCircle
 10
238.56
 20
24.7
 30
0.0
 40
1.62
100
AcDbArc
 50
299.38468
 51
90.0
  0
ARC
  5
1AA
100
AcDbEntity
  8
V0L1
  6
CONTINUOUS
 62
    40
100
AcDbCircle
 10
239.44321
 20
23.131579
 30
0.0
 40
0.18
100
AcDbArc
 50
119.38468
 51
226.9698
  0
LINE
  5
1AB
100
AcDbEntity
  8
V0L1
  6
CONTINUOUS
 62
    40
100
AcDbLine
 10
239.32038
 20
23.0
 30
0.0
 11
238.26
 21
23.0
 31
0.0
  0
LINE
  5
1AC
100
AcDbEntity
  8
V0L1
  6
CONTINUOUS
 62
    40
100
AcDbLine
 10
238.44
 20
23.18
 30
0.0
 11
238.44
 21
26.14
 31
0.0
  0
LINE
  5
1AD
100
AcDbEntity
  8
V0L1
  6
CONTINUOUS
 62
    40
100
AcDbLine
 10
238.44
 20
26.14
 30
0.0
 11
238.56
 21
26.14
 31
0.0
  0
ARC
  5
1AE
100
AcDbEntity
  8
V0L1
  6
CONTINUOUS
 62
    40
100
AcDbCircle
 10
238.56
 20
24.7
 30
0.0
 40
1.44
100
AcDbArc
 50
299.38468
 51
90.0
  0
ARC
  5
1AF
100
AcDbEntity
  8
V0L1
  6
CONTINUOUS
 62
    40
100
AcDbCircle
 10
239.44321
 20
23.131579
 30
0.0
 40
0.36
100
AcDbArc
 50
119.38468
 51
172.27012
  0
LINE
  5
1B0
100
AcDbEntity
  8
V0L1
  6
CONTINUOUS
 62
    40
100
AcDbLine
 10
239.08648
 20
23.18
 30
0.0
 11
238.44
 21
23.18
 31
0.0
  0
LINE
  5
1B1
100
AcDbEntity
  8
V0L1
  6
CONTINUOUS
 62
    40
100
AcDbLine
 10
238.62
 20
23.36
 30
0.0
 11
238.62
 21
25.958571
 31
0.0
  0
ARC
  5
1B2
100
AcDbEntity
  8
V0L1
  6
CONTINUOUS
 62
    40
100
AcDbCircle
 10
238.56
 20
24.7
 30
0.0
 40
1.26
100
AcDbArc
 50
299.38468
 51
87.2706
  0
ARC
  5
1B3
100
AcDbEntity
  8
V0L1
  6
CONTINUOUS
 62
    40
100
AcDbCircle
 10
239.44321
 20
23.131579
 30
0.0
 40
0.54
100
AcDbArc
 50
119.38468
 51
154.97574
  0
LINE
  5
1B4
100
AcDbEntity
  8
V0L1
  6
CONTINUOUS
 62
    40
100
AcDbLine
 10
238.9539
 20
23.36
 30
0.0
 11
238.62
 21
23.36
 31
0.0
  0
LINE
  5
1B5
100
AcDbEntity
  8
V0L1
  6
CONTINUOUS
 62
    40
100
AcDbLine
 10
238.8
 20
23.54
 30
0.0
 11
238.8
 21
25.752996
 31
0.0
  0
ARC
  5
1B6
100
AcDbEntity
  8
V0L1
  6
CONTINUOUS
 62
    40
100
AcDbCircle
 10
238.56
 20
24.7
 30
0.0
 40
1.08
100
AcDbArc
 50
299.38468
 51
77.16041
  0
ARC
  5
1B7
100
AcDbEntity
  8
V0L1
  6
CONTINUOUS
 62
    40
100
AcDbCircle
 10
239.44321
 20
23.131579
 30
0.0
 40
0.72
100
AcDbArc
 50
119.38468
 51
145.44122
  0
LINE
  5
1B8
100
AcDbEntity
  8
V0L1
  6
CONTINUOUS
 62
    40
100
AcDbLine
 10
238.85026
 20
23.54
 30
0.0
 11
238.8
 21
23.54
 31
0.0
  0
LINE
  5
1B9
100
AcDbEntity
  8
V0L1
  6
CONTINUOUS
 62
    40
100
AcDbLine
 10
238.98
 20
23.903226
 30
0.0
 11
238.98
 21
25.49599
 31
0.0
  0
ARC
  5
1BA
100
AcDbEntity
  8
V0L1
  6
CONTINUOUS
 62
    40
100
AcDbCircle
 10
238.56
 20
24.7
 30
0.0
 40
0.9
100
AcDbArc
 50
299.38468
 51
62.18186
  0
ARC
  5
1BB
100
AcDbEntity
  8
V0L1
  6
CONTINUOUS
 62
    40
100
AcDbCircle
 10
239.44321
 20
23.131579
 30
0.0
 40
0.9
100
AcDbArc
 50
119.38468
 51
120.97573
  0
LINE
  5
1BC
100
AcDbEntity
  8
V0L1
  6
CONTINUOUS
 62
    40
100
AcDbLine
 10
239.1
 20
24.13715
 30
0.0
 11
239.1
 21
25.26285
 31
0.0
  0
ARC
  5
1BD
100
AcDbEntity
  8
V0L1
  6
CONTINUOUS
 62
    40
100
AcDbCircle
 10
238.56
 20
24.7
 30
0.0
 40
0.78
100
AcDbArc
 50
313.81306
 51
46.18694
  0
LINE
  5
1BE
100
AcDbEntity
  8
V0L1
  6
CONTINUOUS
 62
    40
100
AcDbLine
 10
238.26
 20
18.68
 30
0.0
 11
238.26
 21
22.0
 31
0.0
  0
LINE
  5
1BF
100
AcDbEntity
  8
V0L1
  6
CONTINUOUS
 62
    40
100
AcDbLine
 10
238.26
 20
22.0
 30
0.0
 11
240.48832
 21
22.0
 31
0.0
  0
ARC
  5
1C0
100
AcDbEntity
  8
V0L1
  6
CONTINUOUS
 62
    40
100
AcDbCircle
 10
238.56
 20
20.9
 30
0.0
 40
2.22
100
AcDbArc
 50
270.0
 51
29.70243
  0
LINE
  5
1C1
100
AcDbEntity
  8
V0L1
  6
CONTINUOUS
 62
    40
100
AcDbLine
 10
238.56
 20
18.68
 30
0.0
 11
238.26
 21
18.68
 31
0.0
  0
LINE
  5
1C2
100
AcDbEntity
  8
V0L1
  6
CONTINUOUS
 62
    40
100
AcDbLine
 10
238.44
 20
18.86
 30
0.0
 11
238.44
 21
21.82
 31
0.0
  0
LINE
  5
1C3
100
AcDbEntity
  8
V0L1
  6
CONTINUOUS
 62
    40
100
AcDbLine
 10
238.44
 20
21.82
 30
0.0
 11
240.38077
 21
21.82
 31
0.0
  0
ARC
  5
1C4
100
AcDbEntity
  8
V0L1
  6
CONTINUOUS
 62
    40
100
AcDbCircle
 10
238.56
 20
20.9
 30
0.0
 40
2.04
100
AcDbArc
 50
270.0
 51
26.8066
  0
LINE
  5
1C5
100
AcDbEntity
  8
V0L1
  6
CONTINUOUS
 62
    40
100
AcDbLine
 10
238.56
 20
18.86
 30
0.0
 11
238.44
 21
18.86
 31
0.0
  0
LINE
  5
1C6
100
AcDbEntity
  8
V0L1
  6
CONTINUOUS
 62
    40
100
AcDbLine
 10
238.62
 20
19.040968
 30
0.0
 11
238.62
 21
21.64
 31
0.0
  0
LINE
  5
1C7
100
AcDbEntity
  8
V0L1
  6
CONTINUOUS
 62
    40
100
AcDbLine
 10
238.62
 20
21.64
 30
0.0
 11
240.26646
 21
21.64
 31
0.0
  0
ARC
  5
1C8
100
AcDbEntity
  8
V0L1
  6
CONTINUOUS
 62
    40
100
AcDbCircle
 10
238.56
 20
20.9
 30
0.0
 40
1.86
100
AcDbArc
 50
271.84857
 51
23.44381
  0
LINE
  5
1C9
100
AcDbEntity
  8
V0L1
  6
CONTINUOUS
 62
    40
100
AcDbLine
 10
238.8
 20
19.237231
 30
0.0
 11
238.8
 21
21.46
 31
0.0
  0
LINE
  5
1CA
100
AcDbEntity
  8
V0L1
  6
CONTINUOUS
 62
    40
100
AcDbLine
 10
238.8
 20
21.46
 30
0.0
 11
240.14392
 21
21.46
 31
0.0
  0
ARC
  5
1CB
100
AcDbEntity
  8
V0L1
  6
CONTINUOUS
 62
    40
100
AcDbCircle
 10
238.56
 20
20.9
 30
0.0
 40
1.68
100
AcDbArc
 50
278.21321
 51
19.47122
  0
LINE
  5
1CC
100
AcDbEntity
  8
V0L1
  6
CONTINUOUS
 62
    40
100
AcDbLine
 10
238.98
 20
19.46
 30
0.0
 11
238.98
 21
21.28
 31
0.0
  0
LINE
  5
1CD
100
AcDbEntity
  8
V0L1
  6
CONTINUOUS
 62
    40
100
AcDbLine
 10
238.98
 20
21.28
 30
0.0
 11
240.01107
 21
21.28
 31
0.0
  0
ARC
  5
1CE
100
AcDbEntity
  8
V0L1
  6
CONTINUOUS
 62
    40
100
AcDbCircle
 10
238.56
 20
20.9
 30
0.0
 40
1.5
100
AcDbArc
 50
286.2602
 51
14.67485
  0
LINE
  5
1CF
100
AcDbEntity
  8
V0L1
  6
CONTINUOUS
 62
    40
100
AcDbLine
 10
239.16
 20
19.724245
 30
0.0
 11
239.16
 21
21.1
 31
0.0
  0
LINE
  5
1D0
100
AcDbEntity
  8
V0L1
  6
CONTINUOUS
 62
    40
100
AcDbLine
 10
239.16
 20
21.1
 30
0.0
 11
239.86476
 21
21.1
 31
0.0
  0
ARC
  5
1D1
100
AcDbEntity
  8
V0L1
  6
CONTINUOUS
 62
    40
100
AcDbCircle
 10
238.56
 20
20.9
 30
0.0
 40
1.32
100
AcDbArc
 50
297.03569
 51
8.71474
  0
LINE
  5
1D2
100
AcDbEntity
  8
V0L1
  6
CONTINUOUS
 62
    40
100
AcDbLine
 10
239.31
 20
20.002002
 30
0.0
 11
239.31
 21
20.95
 31
0.0
  0
LINE
  5
1D3
100
AcDbEntity
  8
V0L1
  6
CONTINUOUS
 62
    40
100
AcDbLine
 10
239.31
 20
20.95
 30
0.0
 11
239.72893
 21
20.95
 31
0.0
  0
ARC
  5
1D4
100
AcDbEntity
  8
V0L1
  6
CONTINUOUS
 62
    40
100
AcDbCircle
 10
238.56
 20
20.9
 30
0.0
 40
1.17
100
AcDbArc
 50
309.86834
 51
2.44928
  0
LINE
  5
1D5
100
AcDbEntity
  8
V0L1
  6
CONTINUOUS
 62
    40
100
AcDbLine
 10
241.78
 20
23.0
 30
0.0
 11
241.78
 21
26.32
 31
0.0
  0
LINE
  5
1D6
100
AcDbEntity
  8
V0L1
  6
CONTINUOUS
 62
    40
100
AcDbLine
 10
241.78
 20
26.32
 30
0.0
 11
243.5
 21
26.32
 31
0.0
  0
LINE
  5
1D7
100
AcDbEntity
  8
V0L1
  6
CONTINUOUS
 62
    40
100
AcDbLine
 10
243.5
 20
26.32
 30
0.0
 11
243.5
 21
23.0
 31
0.0
  0
LINE
  5
1D8
100
AcDbEntity
  8
V0L1
  6
CONTINUOUS
 62
    40
100
AcDbLine
 10
243.5
 20
23.0
 30
0.0
 11
241.78
 21
23.0
 31
0.0
  0
LINE
  5
1D9
100
AcDbEntity
  8
V0L1
  6
CONTINUOUS
 62
    40
100
AcDbLine
 10
243.32
 20
23.18
 30
0.0
 11
241.96
 21
23.18
 31
0.0
  0
LINE
  5
1DA
100
AcDbEntity
  8
V0L1
  6
CONTINUOUS
 62
    40
100
AcDbLine
 10
241.96
 20
23.18
 30
0.0
 11
241.96
 21
26.14
 31
0.0
  0
LINE
  5
1DB
100
AcDbEntity
  8
V0L1
  6
CONTINUOUS
 62
    40
100
AcDbLine
 10
241.96
 20
26.14
 30
0.0
 11
243.32
 21
26.14
 31
0.0
  0
LINE
  5
1DC
100
AcDbEntity
  8
V0L1
  6
CONTINUOUS
 62
    40
100
AcDbLine
 10
243.32
 20
26.14
 30
0.0
 11
243.32
 21
23.18
 31
0.0
  0
LINE
  5
1DD
100
AcDbEntity
  8
V0L1
  6
CONTINUOUS
 62
    40
100
AcDbLine
 10
242.14
 20
23.36
 30
0.0
 11
242.14
 21
25.96
 31
0.0
  0
LINE
  5
1DE
100
AcDbEntity
  8
V0L1
  6
CONTINUOUS
 62
    40
100
AcDbLine
 10
242.14
 20
25.96
 30
0.0
 11
243.14
 21
25.96
 31
0.0
  0
LINE
  5
1DF
100
AcDbEntity
  8
V0L1
  6
CONTINUOUS
 62
    40
100
AcDbLine
 10
243.14
 20
25.96
 30
0.0
 11
243.14
 21
23.36
 31
0.0
  0
LINE
  5
1E0
100
AcDbEntity
  8
V0L1
  6
CONTINUOUS
 62
    40
100
AcDbLine
 10
243.14
 20
23.36
 30
0.0
 11
242.14
 21
23.36
 31
0.0
  0
LINE
  5
1E1
100
AcDbEntity
  8
V0L1
  6
CONTINUOUS
 62
    40
100
AcDbLine
 10
242.32
 20
23.54
 30
0.0
 11
242.32
 21
25.78
 31
0.0
  0
LINE
  5
1E2
100
AcDbEntity
  8
V0L1
  6
CONTINUOUS
 62
    40
100
AcDbLine
 10
242.32
 20
25.78
 30
0.0
 11
242.96
 21
25.78
 31
0.0
  0
LINE
  5
1E3
100
AcDbEntity
  8
V0L1
  6
CONTINUOUS
 62
    40
100
AcDbLine
 10
242.96
 20
25.78
 30
0.0
 11
242.96
 21
23.54
 31
0.0
  0
LINE
  5
1E4
100
AcDbEntity
  8
V0L1
  6
CONTINUOUS
 62
    40
100
AcDbLine
 10
242.96
 20
23.54
 30
0.0
 11
242.32
 21
23.54
 31
0.0
  0
LINE
  5
1E5
100
AcDbEntity
  8
V0L1
  6
CONTINUOUS
 62
    40
100
AcDbLine
 10
242.78
 20
23.72
 30
0.0
 11
242.5
 21
23.72
 31
0.0
  0
LINE
  5
1E6
100
AcDbEntity
  8
V0L1
  6
CONTINUOUS
 62
    40
100
AcDbLine
 10
242.5
 20
23.72
 30
0.0
 11
242.5
 21
25.6
 31
0.0
  0
LINE
  5
1E7
100
AcDbEntity
  8
V0L1
  6
CONTINUOUS
 62
    40
100
AcDbLine
 10
242.5
 20
25.6
 30
0.0
 11
242.78
 21
25.6
 31
0.0
  0
LINE
  5
1E8
100
AcDbEntity
  8
V0L1
  6
CONTINUOUS
 62
    40
100
AcDbLine
 10
242.78
 20
25.6
 30
0.0
 11
242.78
 21
23.72
 31
0.0
  0
LINE
  5
1E9
100
AcDbEntity
  8
V0L1
  6
CONTINUOUS
 62
    40
100
AcDbLine
 10
242.62
 20
23.84
 30
0.0
 11
242.62
 21
25.48
 31
0.0
  0
LINE
  5
1EA
100
AcDbEntity
  8
V0L1
  6
CONTINUOUS
 62
    40
100
AcDbLine
 10
242.62
 20
25.48
 30
0.0
 11
242.66
 21
25.48
 31
0.0
  0
LINE
  5
1EB
100
AcDbEntity
  8
V0L1
  6
CONTINUOUS
 62
    40
100
AcDbLine
 10
242.66
 20
25.48
 30
0.0
 11
242.66
 21
23.84
 31
0.0
  0
LINE
  5
1EC
100
AcDbEntity
  8
V0L1
  6
CONTINUOUS
 62
     1
100
AcDbLine
 10
242.66
 20
23.84
 30
0.0
 11
242.62
 21
23.84
 31
0.0
  0
LINE
  5
1ED
100
AcDbEntity
  8
V0L1
  6
CONTINUOUS
 62
    40
100
AcDbLine
 10
241.78
 20
18.68
 30
0.0
 11
243.5
 21
18.68
 31
0.0
  0
LINE
  5
1EE
100
AcDbEntity
  8
V0L1
  6
CONTINUOUS
 62
    40
100
AcDbLine
 10
243.5
 20
18.68
 30
0.0
 11
243.5
 21
22.0
 31
0.0
  0
LINE
  5
1EF
100
AcDbEntity
  8
V0L1
  6
CONTINUOUS
 62
    40
100
AcDbLine
 10
243.5
 20
22.0
 30
0.0
 11
241.78
 21
22.0
 31
0.0
  0
LINE
  5
1F0
100
AcDbEntity
  8
V0L1
  6
CONTINUOUS
 62
    40
100
AcDbLine
 10
241.78
 20
22.0
 30
0.0
 11
241.78
 21
18.68
 31
0.0
  0
LINE
  5
1F1
100
AcDbEntity
  8
V0L1
  6
CONTINUOUS
 62
    40
100
AcDbLine
 10
241.96
 20
21.82
 30
0.0
 11
241.96
 21
18.86
 31
0.0
  0
LINE
  5
1F2
100
AcDbEntity
  8
V0L1
  6
CONTINUOUS
 62
    40
100
AcDbLine
 10
241.96
 20
18.86
 30
0.0
 11
243.32
 21
18.86
 31
0.0
  0
LINE
  5
1F3
100
AcDbEntity
  8
V0L1
  6
CONTINUOUS
 62
    40
100
AcDbLine
 10
243.32
 20
18.86
 30
0.0
 11
243.32
 21
21.82
 31
0.0
  0
LINE
  5
1F4
100
AcDbEntity
  8
V0L1
  6
CONTINUOUS
 62
    40
100
AcDbLine
 10
243.32
 20
21.82
 30
0.0
 11
241.96
 21
21.82
 31
0.0
  0
LINE
  5
1F5
100
AcDbEntity
  8
V0L1
  6
CONTINUOUS
 62
    40
100
AcDbLine
 10
242.14
 20
21.64
 30
0.0
 11
242.14
 21
19.04
 31
0.0
  0
LINE
  5
1F6
100
AcDbEntity
  8
V0L1
  6
CONTINUOUS
 62
    40
100
AcDbLine
 10
242.14
 20
19.04
 30
0.0
 11
243.14
 21
19.04
 31
0.0
  0
LINE
  5
1F7
100
AcDbEntity
  8
V0L1
  6
CONTINUOUS
 62
    40
100
AcDbLine
 10
243.14
 20
19.04
 30
0.0
 11
243.14
 21
21.64
 31
0.0
  0
LINE
  5
1F8
100
AcDbEntity
  8
V0L1
  6
CONTINUOUS
 62
    40
100
AcDbLine
 10
243.14
 20
21.64
 30
0.0
 11
242.14
 21
21.64
 31
0.0
  0
LINE
  5
1F9
100
AcDbEntity
  8
V0L1
  6
CONTINUOUS
 62
    40
100
AcDbLine
 10
242.32
 20
19.22
 30
0.0
 11
242.96
 21
19.22
 31
0.0
  0
LINE
  5
1FA
100
AcDbEntity
  8
V0L1
  6
CONTINUOUS
 62
    40
100
AcDbLine
 10
242.96
 20
19.22
 30
0.0
 11
242.96
 21
21.46
 31
0.0
  0
LINE
  5
1FB
100
AcDbEntity
  8
V0L1
  6
CONTINUOUS
 62
    40
100
AcDbLine
 10
242.96
 20
21.46
 30
0.0
 11
242.32
 21
21.46
 31
0.0
  0
LINE
  5
1FC
100
AcDbEntity
  8
V0L1
  6
CONTINUOUS
 62
    40
100
AcDbLine
 10
242.32
 20
21.46
 30
0.0
 11
242.32
 21
19.22
 31
0.0
  0
LINE
  5
1FD
100
AcDbEntity
  8
V0L1
  6
CONTINUOUS
 62
    40
100
AcDbLine
 10
242.5
 20
21.28
 30
0.0
 11
242.5
 21
19.4
 31
0.0
  0
LINE
  5
1FE
100
AcDbEntity
  8
V0L1
  6
CONTINUOUS
 62
    40
100
AcDbLine
 10
242.5
 20
19.4
 30
0.0
 11
242.78
 21
19.4
 31
0.0
  0
LINE
  5
1FF
100
AcDbEntity
  8
V0L1
  6
CONTINUOUS
 62
    40
100
AcDbLine
 10
242.78
 20
19.4
 30
0.0
 11
242.78
 21
21.28
 31
0.0
  0
LINE
  5
200
100
AcDbEntity
  8
V0L1
  6
CONTINUOUS
 62
    40
100
AcDbLine
 10
242.78
 20
21.28
 30
0.0
 11
242.5
 21
21.28
 31
0.0
  0
LINE
  5
201
100
AcDbEntity
  8
V0L1
  6
CONTINUOUS
 62
    40
100
AcDbLine
 10
242.62
 20
21.16
 30
0.0
 11
242.62
 21
19.52
 31
0.0
  0
LINE
  5
202
100
AcDbEntity
  8
V0L1
  6
CONTINUOUS
 62
    40
100
AcDbLine
 10
242.62
 20
19.52
 30
0.0
 11
242.66
 21
19.52
 31
0.0
  0
LINE
  5
203
100
AcDbEntity
  8
V0L1
  6
CONTINUOUS
 62
    40
100
AcDbLine
 10
242.66
 20
19.52
 30
0.0
 11
242.66
 21
21.16
 31
0.0
  0
LINE
  5
204
100
AcDbEntity
  8
V0L1
  6
CONTINUOUS
 62
    40
100
AcDbLine
 10
242.66
 20
21.16
 30
0.0
 11
242.62
 21
21.16
 31
0.0
  0
LINE
  5
205
100
AcDbEntity
  8
V0L1
  6
CONTINUOUS
 62
    40
100
AcDbLine
 10
245.56038
 20
23.0
 30
0.0
 11
244.5
 21
23.0
 31
0.0
  0
LINE
  5
206
100
AcDbEntity
  8
V0L1
  6
CONTINUOUS
 62
    40
100
AcDbLine
 10
244.5
 20
23.0
 30
0.0
 11
244.5
 21
26.32
 31
0.0
  0
LINE
  5
207
100
AcDbEntity
  8
V0L1
  6
CONTINUOUS
 62
    40
100
AcDbLine
 10
244.5
 20
26.32
 30
0.0
 11
244.8
 21
26.32
 31
0.0
  0
ARC
  5
208
100
AcDbEntity
  8
V0L1
  6
CONTINUOUS
 62
    40
100
AcDbCircle
 10
244.8
 20
24.7
 30
0.0
 40
1.62
100
AcDbArc
 50
299.38468
 51
90.0
  0
ARC
  5
209
100
AcDbEntity
  8
V0L1
  6
CONTINUOUS
 62
    40
100
AcDbCircle
 10
245.68321
 20
23.131579
 30
0.0
 40
0.18
100
AcDbArc
 50
119.38468
 51
226.9698
  0
LINE
  5
20A
100
AcDbEntity
  8
V0L1
  6
CONTINUOUS
 62
    40
100
AcDbLine
 10
244.68
 20
23.18
 30
0.0
 11
244.68
 21
26.14
 31
0.0
  0
LINE
  5
20B
100
AcDbEntity
  8
V0L1
  6
CONTINUOUS
 62
    40
100
AcDbLine
 10
244.68
 20
26.14
 30
0.0
 11
244.8
 21
26.14
 31
0.0
  0
ARC
  5
20C
100
AcDbEntity
  8
V0L1
  6
CONTINUOUS
 62
    40
100
AcDbCircle
 10
244.8
 20
24.7
 30
0.0
 40
1.44
100
AcDbArc
 50
299.38468
 51
90.0
  0
ARC
  5
20D
100
AcDbEntity
  8
V0L1
  6
CONTINUOUS
 62
    40
100
AcDbCircle
 10
245.68321
 20
23.131579
 30
0.0
 40
0.36
100
AcDbArc
 50
119.38468
 51
172.27012
  0
LINE
  5
20E
100
AcDbEntity
  8
V0L1
  6
CONTINUOUS
 62
    40
100
AcDbLine
 10
245.32648
 20
23.18
 30
0.0
 11
244.68
 21
23.18
 31
0.0
  0
LINE
  5
20F
100
AcDbEntity
  8
V0L1
  6
CONTINUOUS
 62
    40
100
AcDbLine
 10
245.1939
 20
23.36
 30
0.0
 11
244.86
 21
23.36
 31
0.0
  0
LINE
  5
210
100
AcDbEntity
  8
V0L1
  6
CONTINUOUS
 62
    40
100
AcDbLine
 10
244.86
 20
23.36
 30
0.0
 11
244.86
 21
25.958571
 31
0.0
  0
ARC
  5
211
100
AcDbEntity
  8
V0L1
  6
CONTINUOUS
 62
    40
100
AcDbCircle
 10
244.8
 20
24.7
 30
0.0
 40
1.26
100
AcDbArc
 50
299.38468
 51
87.2706
  0
ARC
  5
212
100
AcDbEntity
  8
V0L1
  6
CONTINUOUS
 62
    40
100
AcDbCircle
 10
245.68321
 20
23.131579
 30
0.0
 40
0.54
100
AcDbArc
 50
119.38468
 51
154.97574
  0
LINE
  5
213
100
AcDbEntity
  8
V0L1
  6
CONTINUOUS
 62
    40
100
AcDbLine
 10
245.04
 20
23.54
 30
0.0
 11
245.04
 21
25.752996
 31
0.0
  0
ARC
  5
214
100
AcDbEntity
  8
V0L1
  6
CONTINUOUS
 62
    40
100
AcDbCircle
 10
244.8
 20
24.7
 30
0.0
 40
1.08
100
AcDbArc
 50
299.38468
 51
77.16041
  0
ARC
  5
215
100
AcDbEntity
  8
V0L1
  6
CONTINUOUS
 62
    40
100
AcDbCircle
 10
245.68321
 20
23.131579
 30
0.0
 40
0.72
100
AcDbArc
 50
119.38468
 51
145.44122
  0
LINE
  5
216
100
AcDbEntity
  8
V0L1
  6
CONTINUOUS
 62
    40
100
AcDbLine
 10
245.09026
 20
23.54
 30
0.0
 11
245.04
 21
23.54
 31
0.0
  0
LINE
  5
217
100
AcDbEntity
  8
V0L1
  6
CONTINUOUS
 62
    40
100
AcDbLine
 10
245.22
 20
23.903226
 30
0.0
 11
245.22
 21
25.49599
 31
0.0
  0
ARC
  5
218
100
AcDbEntity
  8
V0L1
  6
CONTINUOUS
 62
    40
100
AcDbCircle
 10
244.8
 20
24.7
 30
0.0
 40
0.9
100
AcDbArc
 50
299.38468
 51
62.18186
  0
ARC
  5
219
100
AcDbEntity
  8
V0L1
  6
CONTINUOUS
 62
    40
100
AcDbCircle
 10
245.68321
 20
23.131579
 30
0.0
 40
0.9
100
AcDbArc
 50
119.38468
 51
120.97573
  0
LINE
  5
21A
100
AcDbEntity
  8
V0L1
  6
CONTINUOUS
 62
    40
100
AcDbLine
 10
245.34
 20
24.13715
 30
0.0
 11
245.34
 21
25.26285
 31
0.0
  0
ARC
  5
21B
100
AcDbEntity
  8
V0L1
  6
CONTINUOUS
 62
    40
100
AcDbCircle
 10
244.8
 20
24.7
 30
0.0
 40
0.78
100
AcDbArc
 50
313.81306
 51
46.18694
  0
LINE
  5
21C
100
AcDbEntity
  8
V0L1
  6
CONTINUOUS
 62
    40
100
AcDbLine
 10
244.5
 20
18.68
 30
0.0
 11
244.5
 21
22.0
 31
0.0
  0
LINE
  5
21D
100
AcDbEntity
  8
V0L1
  6
CONTINUOUS
 62
    40
100
AcDbLine
 10
244.5
 20
22.0
 30
0.0
 11
246.72832
 21
22.0
 31
0.0
  0
ARC
  5
21E
100
AcDbEntity
  8
V0L1
  6
CONTINUOUS
 62
    40
100
AcDbCircle
 10
244.8
 20
20.9
 30
0.0
 40
2.22
100
AcDbArc
 50
270.0
 51
29.70243
  0
LINE
  5
21F
100
AcDbEntity
  8
V0L1
  6
CONTINUOUS
 62
    40
100
AcDbLine
 10
244.8
 20
18.68
 30
0.0
 11
244.5
 21
18.68
 31
0.0
  0
LINE
  5
220
100
AcDbEntity
  8
V0L1
  6
CONTINUOUS
 62
    40
100
AcDbLine
 10
244.68
 20
18.86
 30
0.0
 11
244.68
 21
21.82
 31
0.0
  0
LINE
  5
221
100
AcDbEntity
  8
V0L1
  6
CONTINUOUS
 62
    40
100
AcDbLine
 10
244.68
 20
21.82
 30
0.0
 11
246.62077
 21
21.82
 31
0.0
  0
ARC
  5
222
100
AcDbEntity
  8
V0L1
  6
CONTINUOUS
 62
    40
100
AcDbCircle
 10
244.8
 20
20.9
 30
0.0
 40
2.04
100
AcDbArc
 50
270.0
 51
26.8066
  0
LINE
  5
223
100
AcDbEntity
  8
V0L1
  6
CONTINUOUS
 62
    40
100
AcDbLine
 10
244.8
 20
18.86
 30
0.0
 11
244.68
 21
18.86
 31
0.0
  0
LINE
  5
224
100
AcDbEntity
  8
V0L1
  6
CONTINUOUS
 62
    40
100
AcDbLine
 10
244.86
 20
19.040968
 30
0.0
 11
244.86
 21
21.64
 31
0.0
  0
LINE
  5
225
100
AcDbEntity
  8
V0L1
  6
CONTINUOUS
 62
    40
100
AcDbLine
 10
244.86
 20
21.64
 30
0.0
 11
246.50646
 21
21.64
 31
0.0
  0
ARC
  5
226
100
AcDbEntity
  8
V0L1
  6
CONTINUOUS
 62
    40
100
AcDbCircle
 10
244.8
 20
20.9
 30
0.0
 40
1.86
100
AcDbArc
 50
271.84857
 51
23.44381
  0
LINE
  5
227
100
AcDbEntity
  8
V0L1
  6
CONTINUOUS
 62
    40
100
AcDbLine
 10
245.04
 20
19.237231
 30
0.0
 11
245.04
 21
21.46
 31
0.0
  0
LINE
  5
228
100
AcDbEntity
  8
V0L1
  6
CONTINUOUS
 62
    40
100
AcDbLine
 10
245.04
 20
21.46
 30
0.0
 11
246.38392
 21
21.46
 31
0.0
  0
ARC
  5
229
100
AcDbEntity
  8
V0L1
  6
CONTINUOUS
 62
    40
100
AcDbCircle
 10
244.8
 20
20.9
 30
0.0
 40
1.68
100
AcDbArc
 50
278.21321
 51
19.47122
  0
LINE
  5
22A
100
AcDbEntity
  8
V0L1
  6
CONTINUOUS
 62
    40
100
AcDbLine
 10
245.22
 20
19.46
 30
0.0
 11
245.22
 21
21.28
 31
0.0
  0
LINE
  5
22B
100
AcDbEntity
  8
V0L1
  6
CONTINUOUS
 62
    40
100
AcDbLine
 10
245.22
 20
21.28
 30
0.0
 11
246.25107
 21
21.28
 31
0.0
  0
ARC
  5
22C
100
AcDbEntity
  8
V0L1
  6
CONTINUOUS
 62
    40
100
AcDbCircle
 10
244.8
 20
20.9
 30
0.0
 40
1.5
100
AcDbArc
 50
286.2602
 51
14.67485
  0
LINE
  5
22D
100
AcDbEntity
  8
V0L1
  6
CONTINUOUS
 62
    40
100
AcDbLine
 10
245.4
 20
19.724245
 30
0.0
 11
245.4
 21
21.1
 31
0.0
  0
LINE
  5
22E
100
AcDbEntity
  8
V0L1
  6
CONTINUOUS
 62
    40
100
AcDbLine
 10
245.4
 20
21.1
 30
0.0
 11
246.10476
 21
21.1
 31
0.0
  0
ARC
  5
22F
100
AcDbEntity
  8
V0L1
  6
CONTINUOUS
 62
    40
100
AcDbCircle
 10
244.8
 20
20.9
 30
0.0
 40
1.32
100
AcDbArc
 50
297.03569
 51
8.71474
  0
LINE
  5
230
100
AcDbEntity
  8
V0L1
  6
CONTINUOUS
 62
    40
100
AcDbLine
 10
245.58
 20
20.068616
 30
0.0
 11
245.58
 21
20.92
 31
0.0
  0
LINE
  5
231
100
AcDbEntity
  8
V0L1
  6
CONTINUOUS
 62
    40
100
AcDbLine
 10
245.58
 20
20.92
 30
0.0
 11
245.93982
 21
20.92
 31
0.0
  0
ARC
  5
232
100
AcDbEntity
  8
V0L1
  6
CONTINUOUS
 62
    40
100
AcDbCircle
 10
244.8
 20
20.9
 30
0.0
 40
1.14
100
AcDbArc
 50
313.17355
 51
1.00524
  0
LINE
  5
233
100
AcDbEntity
  8
V0L1
  6
CONTINUOUS
 62
    40
100
AcDbLine
 10
239.42
 20
20.84
 30
0.0
 11
239.6183
 21
20.84
 31
0.0
  0
ARC
  5
234
100
AcDbEntity
  8
V0L1
  6
CONTINUOUS
 62
    40
100
AcDbCircle
 10
238.56
 20
20.9
 30
0.0
 40
1.06
100
AcDbArc
 50
324.22517
 51
356.75511
  0
LINE
  5
235
100
AcDbEntity
  8
V0L1
  6
CONTINUOUS
 62
    40
100
AcDbLine
 10
239.42
 20
20.280323
 30
0.0
 11
239.42
 21
20.84
 31
0.0
  0
LINE
  5
236
100
AcDbEntity
  8
V0L1
  6
CONTINUOUS
 62
    40
100
AcDbLine
 10
245.69
 20
20.381541
 30
0.0
 11
245.69
 21
20.81
 31
0.0
  0
LINE
  5
237
100
AcDbEntity
  8
V0L1
  6
CONTINUOUS
 62
    40
100
AcDbLine
 10
245.69
 20
20.81
 30
0.0
 11
245.82606
 21
20.81
 31
0.0
  0
ARC
  5
238
100
AcDbEntity
  8
V0L1
  6
CONTINUOUS
 62
    40
100
AcDbCircle
 10
244.8
 20
20.9
 30
0.0
 40
1.03
100
AcDbArc
 50
329.77755
 51
354.98718
  0
LINE
  5
239
100
AcDbEntity
  8
V0L1
  6
CONTINUOUS
 62
    40
100
AcDbLine
 10
76.64313
 20
271.18273
 30
0.0
 11
76.64313
 21
268.18273
 31
0.0
  0
TEXT
  5
23A
100
AcDbEntity
  8
V0L1
  6
CONTINUOUS
 62
    13
100
AcDbText
 10
18.894545
 20
17.473426
 30
0.0
 40
2.0
  1
Ce document, propriete exclusive de notre
 50
90.0
 41
0.6
100
AcDbText
  0
TEXT
  5
23B
100
AcDbEntity
  8
V0L1
  6
CONTINUOUS
 62
    13
100
AcDbText
 10
21.894545
 20
17.473426
 30
0.0
 40
2.0
  1
Societe, est strictement confidentiel. Il
 50
90.0
 41
0.6
100
AcDbText
  0
TEXT
  5
23C
100
AcDbEntity
  8
V0L1
  6
CONTINUOUS
 62
    13
100
AcDbText
 10
24.894545
 20
17.473426
 30
0.0
 40
2.0
  1
ne peut etre communique, copie ou
 50
90.0
 41
0.6
100
AcDbText
  0
TEXT
  5
23D
100
AcDbEntity
  8
V0L1
  6
CONTINUOUS
 62
    13
100
AcDbText
 10
27.894545
 20
17.473426
 30
0.0
 40
2.0
  1
reproduit sans son autorisation ecrite.
 50
90.0
 41
0.6
100
AcDbText
  0
ATTDEF
  5
23E
100
AcDbEntity
  8
V0L1
  6
CONTINUOUS
 62
     3
100
AcDbText
 10
337.07224
 20
15.8802
 30
0.0
 40
6.0
  1
 
 41
0.8
100
AcDbAttributeDefinition
  3
N_plan
  2
N_plan
 70
     0
  0
ATTDEF
  5
23F
100
AcDbEntity
  8
V0L1
  6
CONTINUOUS
 62
     5
100
AcDbText
 10
267.0845
 20
22.158328
 30
0.0
 40
2.5
  1
 
 41
0.8
100
AcDbAttributeDefinition
  3
Appareil
  2
Appareil
 70
     0
  0
ATTDEF
  5
240
100
AcDbEntity
  8
V0L1
  6
CONTINUOUS
 62
     3
100
AcDbText
 10
292.0125
 20
16.254832
 30
0.0
 40
3.5
  1
 
 41
0.85
 72
     1
 11
293.5
 21
16.254832
 31
0.0
100
AcDbAttributeDefinition
  3
Piece
  2
Piece
 70
     0
  0
ATTDEF
  5
241
100
AcDbEntity
  8
V0L1
  6
CONTINUOUS
 62
     3
100
AcDbText
 10
339.33956
 20
40.53937
 30
0.0
 40
8.0
  1
 
 41
0.7
 72
     1
 11
342.13956
 21
40.53937
 31
0.0
100
AcDbAttributeDefinition
  3
Echelle
  2
Echelle
 70
     0
  0
ATTDEF
  5
242
100
AcDbEntity
  8
V0L1
  6
CONTINUOUS
 62
    40
100
AcDbText
 10
232.00289
 20
54.925552
 30
0.0
 40
2.2
  1
 
 41
0.6
100
AcDbAttributeDefinition
  3
Etabli
  2
Etabli
 70
     0
  0
ATTDEF
  5
243
100
AcDbEntity
  8
V0L1
  6
CONTINUOUS
 62
    40
100
AcDbText
 10
276.25314
 20
54.847514
 30
0.0
 40
2.2
  1
 
 41
0.6
100
AcDbAttributeDefinition
  3
Controle
  2
Controle
 70
     0
  0
ATTDEF
  5
244
100
AcDbEntity
  8
V0L1
  6
CONTINUOUS
 62
    40
100
AcDbText
 10
361.40138
 20
54.716689
 30
0.0
 40
2.5
  1
 
 41
0.5
100
AcDbAttributeDefinition
  3
Execution
  2
Execution
 70
     0
  0
ATTDEF
  5
245
100
AcDbEntity
  8
V0L1
  6
CONTINUOUS
 62
    40
100
AcDbText
 10
239.16886
 20
50.869941
 30
0.0
 40
2.2
  1
 
 41
0.6
100
AcDbAttributeDefinition
  3
Issu
  2
Issu
 70
     0
  0
ATTDEF
  5
246
100
AcDbEntity
  8
V0L1
  6
CONTINUOUS
 62
    40
100
AcDbText
 10
278.55203
 20
50.832642
 30
0.0
 40
2.2
  1
 
 41
0.6
100
AcDbAttributeDefinition
  3
Remplace
  2
Remplace
 70
     0
  0
ATTDEF
  5
247
100
AcDbEntity
  8
V0L1
  6
CONTINUOUS
 62
    40
100
AcDbText
 10
318.14064
 20
50.943037
 30
0.0
 40
2.2
  1
 
 41
0.6
100
AcDbAttributeDefinition
  3
Remplace_par
  2
Remplace_par
 70
     0
  0
ATTDEF
  5
248
100
AcDbEntity
  8
V0L1
  6
CONTINUOUS
 62
    40
100
AcDbText
 10
230.23861
 20
31.961826
 30
0.0
 40
2.5
  1
 
 72
     1
 11
231.48861
 21
31.961826
 31
0.0
100
AcDbAttributeDefinition
  3
Indice
  2
Indice
 70
     0
  0
ATTDEF
  5
249
100
AcDbEntity
  8
V0L1
  6
CONTINUOUS
 62
    40
100
AcDbText
 10
393.91335
 20
16.513872
 30
0.0
 40
2.4
  1
 
 72
     1
 11
395.11335
 21
16.513872
 31
0.0
100
AcDbAttributeDefinition
  3
Indice_2
  2
Indice_2
 70
     0
  0
ATTDEF
  5
24A
100
AcDbEntity
  8
V0L1
  6
CONTINUOUS
 62
    40
100
AcDbText
 10
236.6432
 20
30.659267
 30
0.0
 40
2.5
  1
 
 41
0.5
100
AcDbAttributeDefinition
  3
Texte_indice
  2
Texte_indice
 70
     0
  0
ATTDEF
  5
24B
100
AcDbEntity
  8
V0L1
  6
CONTINUOUS
 62
    40
100
AcDbText
 10
389.16522
 20
51.998568
 30
0.0
 40
2.9
  1
 
 41
1.3
 72
     1
 11
391.05022
 21
51.998568
 31
0.0
100
AcDbAttributeDefinition
  3
Sans_nomenclature
  2
Sans_nomenclature
 70
     0
  0
ATTDEF
  5
24C
100
AcDbEntity
  8
V0L1
  6
CONTINUOUS
 62
    40
100
AcDbText
 10
389.25344
 20
47.984386
 30
0.0
 40
2.9
  1
 
 41
1.3
 72
     1
 11
391.13844
 21
47.984386
 31
0.0
100
AcDbAttributeDefinition
  3
Nomenc_meme_numero
  2
Nomenc_meme_numero
 70
     0
  0
ATTDEF
  5
24D
100
AcDbEntity
  8
V0L1
  6
CONTINUOUS
 62
    40
100
AcDbText
 10
389.20933
 20
43.926092
 30
0.0
 40
2.9
  1
 
 41
1.3
 72
     1
 11
391.09433
 21
43.926092
 31
0.0
100
AcDbAttributeDefinition
  3
Nomenc_numero_dif
  2
Nomenc_numero_dif
 70
     0
  0
ATTDEF
  5
24E
100
AcDbEntity
  8
V0L1
  6
CONTINUOUS
 62
    40
100
AcDbText
 10
47.710405
 20
269.67194
 30
0.0
 40
3.0
  1
 
 41
1.4
 72
     1
 11
49.810405
 21
269.67194
 31
0.0
100
AcDbAttributeDefinition
  3
f
  2
f
 70
     0
  0
ATTDEF
  5
24F
100
AcDbEntity
  8
V0L1
  6
CONTINUOUS
 62
    40
100
AcDbText
 10
57.186971
 20
269.68863
 30
0.0
 40
3.0
  1
 
 41
1.4
 72
     1
 11
59.286971
 21
269.68863
 31
0.0
100
AcDbAttributeDefinition
  3
m
  2
m
 70
     0
  0
ATTDEF
  5
250
100
AcDbEntity
  8
V0L1
  6
CONTINUOUS
 62
    40
100
AcDbText
 10
66.680531
 20
269.68698
 30
0.0
 40
3.0
  1
 
 41
1.4
 72
     1
 11
68.780531
 21
269.68698
 31
0.0
100
AcDbAttributeDefinition
  3
c
  2
c
 70
     0
  0
ATTDEF
  5
251
100
AcDbEntity
  8
V0L1
  6
CONTINUOUS
 62
    40
100
AcDbText
 10
76.155731
 20
269.67858
 30
0.0
 40
3.0
  1
 
 41
1.4
 72
     1
 11
78.255731
 21
269.67858
 31
0.0
100
AcDbAttributeDefinition
  3
v
  2
v
 70
     0
  0
ATTDEF
  5
252
100
AcDbEntity
  8
V0L1
  6
CONTINUOUS
 62
    40
100
AcDbText
 10
123.67797
 20
270.50796
 30
0.0
 40
2.9
  1
 
 41
1.3
 72
     1
 11
125.56297
 21
270.50796
 31
0.0
100
AcDbAttributeDefinition
  3
130
  2
130
 70
     0
  0
ATTDEF
  5
253
100
AcDbEntity
  8
V0L1
  6
CONTINUOUS
 62
    40
100
AcDbText
 10
136.66684
 20
270.48317
 30
0.0
 40
2.9
  1
 
 41
1.3
 72
     1
 11
138.55184
 21
270.48317
 31
0.0
100
AcDbAttributeDefinition
  3
140
  2
140
 70
     0
  0
POINT
  5
254
100
AcDbEntity
  8
V0L1
  6
CONTINUOUS
 62
     1
100
AcDbPoint
 10
393.0
 20
278.0
 30
0.0
  0
ENDBLK
  5
255
100
AcDbEntity
  8
0
100
AcDbBlockEnd
  0
ENDSEC
  0
SECTION
  2
ENTITIES
  0
LINE
  5
3F6
100
AcDbEntity
  8
1
  6
CONTINUOUS
 62
   250
100
AcDbLine
 10
171.49669
 20
200.29487
 30
0.0
 11
176.23794
 21
195.36835
 31
0.0
  0
LINE
  5
40F
100
AcDbEntity
  8
1
  6
CONTINUOUS
 62
   250
100
AcDbLine
 10
170.4159
 20
199.25472
 30
0.0
 11
175.15715
 21
194.32821
 31
0.0
  0
LINE
  5
410
100
AcDbEntity
  8
1
  6
CONTINUOUS
 62
   250
100
AcDbLine
 10
218.53462
 20
216.03846
 30
0.0
 11
218.53462
 21
198.78846
 31
0.0
  0
LINE
  5
411
100
AcDbEntity
  8
1
  6
CONTINUOUS
 62
   250
100
AcDbLine
 10
218.53462
 20
216.03846
 30
0.0
 11
226.53462
 21
216.03846
 31
0.0
  0
LINE
  5
412
100
AcDbEntity
  8
1
  6
CONTINUOUS
 62
   250
100
AcDbLine
 10
218.53462
 20
106.03846
 30
0.0
 11
226.53462
 21
106.03846
 31
0.0
  0
LINE
  5
413
100
AcDbEntity
  8
1
  6
CONTINUOUS
 62
   250
100
AcDbLine
 10
228.53462
 20
214.03846
 30
0.0
 11
228.53462
 21
207.03846
 31
0.0
  0
ARC
  5
414
100
AcDbEntity
  8
1
  6
CONTINUOUS
 62
   250
100
AcDbCircle
 10
226.53462
 20
214.03846
 30
0.0
 40
2.0
100
AcDbArc
 50
0.0
 51
90.0
  0
ARC
  5
415
100
AcDbEntity
  8
1
  6
CONTINUOUS
 62
   250
100
AcDbCircle
 10
226.53462
 20
108.03846
 30
0.0
 40
2.0
100
AcDbArc
 50
270.0
 51
0.0
  0
LINE
  5
416
100
AcDbEntity
  8
1
  6
CONTINUOUS
 62
   250
100
AcDbLine
 10
149.49669
 20
200.29487
 30
0.0
 11
154.23794
 21
195.36835
 31
0.0
  0
LINE
  5
417
100
AcDbEntity
  8
1
  6
CONTINUOUS
 62
   250
100
AcDbLine
 10
228.53462
 20
207.03846
 30
0.0
 11
249.53462
 21
207.03846
 31
0.0
  0
LINE
  5
418
100
AcDbEntity
  8
1
  6
CONTINUOUS
 62
   250
100
AcDbLine
 10
228.53462
 20
115.03846
 30
0.0
 11
249.53462
 21
115.03846
 31
0.0
  0
LINE
  5
419
100
AcDbEntity
  8
1
  6
CONTINUOUS
 62
   250
100
AcDbLine
 10
249.53462
 20
214.03846
 30
0.0
 11
249.53462
 21
207.03846
 31
0.0
  0
LINE
  5
41A
100
AcDbEntity
  8
1
  6
CONTINUOUS
 62
   250
100
AcDbLine
 10
251.53462
 20
216.03846
 30
0.0
 11
262.03461
 21
216.03846
 31
0.0
  0
LINE
  5
41B
100
AcDbEntity
  8
1
  6
CONTINUOUS
 62
   250
100
AcDbLine
 10
251.53462
 20
106.03846
 30
0.0
 11
262.03461
 21
106.03846
 31
0.0
  0
ARC
  5
41C
100
AcDbEntity
  8
1
  6
CONTINUOUS
 62
   250
100
AcDbCircle
 10
251.53462
 20
214.03846
 30
0.0
 40
2.0
100
AcDbArc
 50
90.0
 51
180.0
  0
ARC
  5
41D
100
AcDbEntity
  8
1
  6
CONTINUOUS
 62
   250
100
AcDbCircle
 10
251.53462
 20
108.03846
 30
0.0
 40
2.0
100
AcDbArc
 50
180.0
 51
270.0
  0
LINE
  5
41E
100
AcDbEntity
  8
1
  6
CONTINUOUS
 62
   250
100
AcDbLine
 10
249.53462
 20
115.03846
 30
0.0
 11
249.53462
 21
108.03846
 31
0.0
  0
LINE
  5
41F
100
AcDbEntity
  8
1
  6
CONTINUOUS
 62
   250
100
AcDbLine
 10
228.53462
 20
115.03846
 30
0.0
 11
228.53462
 21
108.03846
 31
0.0
  0
LINE
  5
420
100
AcDbEntity
  8
1
  6
CONTINUOUS
 62
   250
100
AcDbLine
 10
228.53462
 20
207.03846
 30
0.0
 11
226.44107
 21
204.94492
 31
0.0
  0
LINE
  5
421
100
AcDbEntity
  8
1
  6
CONTINUOUS
 62
   250
100
AcDbLine
 10
228.53462
 20
115.03846
 30
0.0
 11
226.44107
 21
117.13201
 31
0.0
  0
LINE
  5
422
100
AcDbEntity
  8
1
  6
CONTINUOUS
 62
   250
100
AcDbLine
 10
218.53462
 20
198.78846
 30
0.0
 11
219.03462
 21
198.78846
 31
0.0
  0
LINE
  5
423
100
AcDbEntity
  8
1
  6
CONTINUOUS
 62
   250
100
AcDbLine
 10
221.03462
 20
123.28846
 30
0.0
 11
224.53462
 21
123.28846
 31
0.0
  0
LINE
  5
424
100
AcDbEntity
  8
1
  6
CONTINUOUS
 62
   250
100
AcDbLine
 10
230.63461
 20
173.78846
 30
0.0
 11
230.63461
 21
170.28846
 31
0.0
  0
LINE
  5
425
100
AcDbEntity
  8
1
  6
CONTINUOUS
 62
   250
100
AcDbLine
 10
224.53462
 20
198.78846
 30
0.0
 11
224.53462
 21
196.48128
 31
0.0
  0
LINE
  5
426
100
AcDbEntity
  8
1
  6
CONTINUOUS
 62
   250
100
AcDbLine
 10
148.4159
 20
199.25472
 30
0.0
 11
153.15715
 21
194.32821
 31
0.0
  0
LINE
  5
427
100
AcDbEntity
  8
1
  6
CONTINUOUS
 62
   250
100
AcDbLine
 10
221.03462
 20
123.28846
 30
0.0
 11
218.53462
 21
122.61859
 31
0.0
  0
LINE
  5
428
100
AcDbEntity
  8
1
  6
CONTINUOUS
 62
   250
100
AcDbLine
 10
127.49669
 20
200.29487
 30
0.0
 11
132.23794
 21
195.36835
 31
0.0
  0
LINE
  5
429
100
AcDbEntity
  8
1
  6
CONTINUOUS
 62
   250
100
AcDbLine
 10
126.4159
 20
199.25472
 30
0.0
 11
131.15715
 21
194.32821
 31
0.0
  0
LINE
  5
42A
100
AcDbEntity
  8
1
  6
CONTINUOUS
 62
   250
100
AcDbLine
 10
127.49669
 20
128.29487
 30
0.0
 11
132.23794
 21
123.36835
 31
0.0
  0
LINE
  5
42B
100
AcDbEntity
  8
1
  6
CONTINUOUS
 62
   250
100
AcDbLine
 10
219.03462
 20
198.78846
 30
0.0
 11
219.03462
 21
195.78846
 31
0.0
  0
LINE
  5
42C
100
AcDbEntity
  8
1
  6
CONTINUOUS
 62
   250
100
AcDbLine
 10
218.53462
 20
122.61859
 30
0.0
 11
218.53462
 21
106.03846
 31
0.0
  0
LINE
  5
42D
100
AcDbEntity
  8
1
  6
CONTINUOUS
 62
   250
100
AcDbLine
 10
219.03462
 20
182.28846
 30
0.0
 11
221.53462
 21
183.73184
 31
0.0
  0
ARC
  5
42E
100
AcDbEntity
  8
1
  6
CONTINUOUS
 62
   250
100
AcDbCircle
 10
218.53462
 20
188.92799
 30
0.0
 40
6.0
100
AcDbArc
 50
300.0
 51
0.0
  0
LINE
  5
42F
100
AcDbEntity
  8
1
  6
CONTINUOUS
 62
   250
100
AcDbLine
 10
126.4159
 20
127.25472
 30
0.0
 11
131.15715
 21
122.32821
 31
0.0
  0
LINE
  5
430
100
AcDbEntity
  8
1
  6
CONTINUOUS
 62
   250
100
AcDbLine
 10
149.49669
 20
128.29487
 30
0.0
 11
154.23794
 21
123.36835
 31
0.0
  0
LINE
  5
431
100
AcDbEntity
  8
1
  6
CONTINUOUS
 62
   250
100
AcDbLine
 10
219.03462
 20
139.78846
 30
0.0
 11
221.53462
 21
138.34509
 31
0.0
  0
ARC
  5
432
100
AcDbEntity
  8
1
  6
CONTINUOUS
 62
   250
100
AcDbCircle
 10
218.53462
 20
133.14893
 30
0.0
 40
6.0
100
AcDbArc
 50
0.0
 51
60.0
  0
LINE
  5
433
100
AcDbEntity
  8
1
  6
CONTINUOUS
 62
   250
100
AcDbLine
 10
148.4159
 20
127.25472
 30
0.0
 11
153.15715
 21
122.32821
 31
0.0
  0
LINE
  5
434
100
AcDbEntity
  8
1
  6
CONTINUOUS
 62
   250
100
AcDbLine
 10
171.49669
 20
128.29487
 30
0.0
 11
176.23794
 21
123.36835
 31
0.0
  0
LINE
  5
435
100
AcDbEntity
  8
1
  6
CONTINUOUS
 62
   250
100
AcDbLine
 10
221.33462
 20
198.78846
 30
0.0
 11
220.53077
 21
195.78846
 31
0.0
  0
LINE
  5
436
100
AcDbEntity
  8
1
  6
CONTINUOUS
 62
   250
100
AcDbLine
 10
170.4159
 20
127.25472
 30
0.0
 11
175.15715
 21
122.32821
 31
0.0
  0
CIRCLE
  5
437
100
AcDbEntity
  8
1
  6
CONTINUOUS
 62
   250
100
AcDbCircle
 10
172.82692
 20
211.31154
 30
0.0
 40
2.95
  0
LINE
  5
438
100
AcDbEntity
  8
1
  6
CONTINUOUS
 62
   250
100
AcDbLine
 10
262.03461
 20
172.23846
 30
0.0
 11
265.43462
 21
172.23846
 31
0.0
  0
LINE
  5
439
100
AcDbEntity
  8
1
  6
CONTINUOUS
 62
   250
100
AcDbLine
 10
222.53462
 20
178.78846
 30
0.0
 11
222.53462
 21
177.28846
 31
0.0
  0
LINE
  5
43A
100
AcDbEntity
  8
1
  6
CONTINUOUS
 62
   250
100
AcDbLine
 10
265.43462
 20
172.23846
 30
0.0
 11
265.43462
 21
165.73846
 31
0.0
  0
LINE
  5
43B
100
AcDbEntity
  8
1
  6
CONTINUOUS
 62
   250
100
AcDbLine
 10
220.83462
 20
143.28846
 30
0.0
 11
219.03462
 21
142.80615
 31
0.0
  0
LINE
  5
43C
100
AcDbEntity
  8
1
  6
CONTINUOUS
 62
   250
100
AcDbLine
 10
220.83462
 20
143.28846
 30
0.0
 11
222.53462
 21
143.28846
 31
0.0
  0
LINE
  5
43D
100
AcDbEntity
  8
1
  6
CONTINUOUS
 62
   250
100
AcDbLine
 10
222.28462
 20
173.78846
 30
0.0
 11
224.03462
 21
173.78846
 31
0.0
  0
LINE
  5
43E
100
AcDbEntity
  8
1
  6
CONTINUOUS
 62
   250
100
AcDbLine
 10
224.03462
 20
148.28846
 30
0.0
 11
222.53462
 21
148.28846
 31
0.0
  0
LINE
  5
43F
100
AcDbEntity
  8
1
  6
CONTINUOUS
 62
   250
100
AcDbLine
 10
224.03462
 20
173.78846
 30
0.0
 11
224.03462
 21
148.28846
 31
0.0
  0
LINE
  5
440
100
AcDbEntity
  8
1
  6
CONTINUOUS
 62
   250
100
AcDbLine
 10
224.53462
 20
133.14893
 30
0.0
 11
224.53462
 21
123.82813
 31
0.0
  0
LINE
  5
441
100
AcDbEntity
  8
1
  6
CONTINUOUS
 62
   250
100
AcDbLine
 10
219.03462
 20
178.78846
 30
0.0
 11
221.33462
 21
178.78846
 31
0.0
  0
LINE
  5
442
100
AcDbEntity
  8
1
  6
CONTINUOUS
 62
   250
100
AcDbLine
 10
222.53462
 20
148.28846
 30
0.0
 11
222.53462
 21
143.62819
 31
0.0
  0
LINE
  5
443
100
AcDbEntity
  8
1
  6
CONTINUOUS
 62
   250
100
AcDbLine
 10
218.73461
 20
176.78846
 30
0.0
 11
220.17991
 21
176.78846
 31
0.0
  0
LINE
  5
444
100
AcDbEntity
  8
1
  6
CONTINUOUS
 62
   250
100
AcDbLine
 10
221.33462
 20
178.78846
 30
0.0
 11
220.17991
 21
176.78846
 31
0.0
  0
LINE
  5
445
100
AcDbEntity
  8
1
  6
CONTINUOUS
 62
   250
100
AcDbLine
 10
218.73461
 20
182.28846
 30
0.0
 11
218.73461
 21
176.78846
 31
0.0
  0
LINE
  5
446
100
AcDbEntity
  8
1
  6
CONTINUOUS
 62
   250
100
AcDbLine
 10
219.03462
 20
182.28846
 30
0.0
 11
218.73461
 21
182.28846
 31
0.0
  0
LINE
  5
447
100
AcDbEntity
  8
1
  6
CONTINUOUS
 62
   250
100
AcDbLine
 10
219.03462
 20
142.80615
 30
0.0
 11
219.03462
 21
142.51588
 31
0.0
  0
LINE
  5
448
100
AcDbEntity
  8
1
  6
CONTINUOUS
 62
   250
100
AcDbLine
 10
219.03462
 20
182.28846
 30
0.0
 11
219.03462
 21
176.78846
 31
0.0
  0
CIRCLE
  5
449
100
AcDbEntity
  8
1
  6
CONTINUOUS
 62
   250
100
AcDbCircle
 10
129.82692
 20
211.31154
 30
0.0
 40
2.95
  0
LINE
  5
44A
100
AcDbEntity
  8
1
  6
CONTINUOUS
 62
   250
100
AcDbLine
 10
235.93462
 20
161.03846
 30
0.0
 11
235.93462
 21
163.58846
 31
0.0
  0
LINE
  5
44B
100
AcDbEntity
  8
1
  6
CONTINUOUS
 62
   250
100
AcDbLine
 10
224.03462
 20
170.28846
 30
0.0
 11
230.63461
 21
170.28846
 31
0.0
  0
LINE
  5
44C
100
AcDbEntity
  8
1
  6
CONTINUOUS
 62
   250
100
AcDbLine
 10
224.03462
 20
154.28846
 30
0.0
 11
230.63461
 21
154.28846
 31
0.0
  0
LINE
  5
44D
100
AcDbEntity
  8
1
  6
CONTINUOUS
 62
   250
100
AcDbLine
 10
224.03462
 20
150.78846
 30
0.0
 11
230.63461
 21
150.78846
 31
0.0
  0
LINE
  5
44E
100
AcDbEntity
  8
1
  6
CONTINUOUS
 62
   250
100
AcDbLine
 10
230.63461
 20
154.28846
 30
0.0
 11
230.63461
 21
150.78846
 31
0.0
  0
CIRCLE
  5
44F
100
AcDbEntity
  8
1
  6
CONTINUOUS
 62
   250
100
AcDbCircle
 10
140.32692
 20
189.81154
 30
0.0
 40
2.95
  0
LINE
  5
450
100
AcDbEntity
  8
1
  6
CONTINUOUS
 62
   250
100
AcDbLine
 10
224.03462
 20
163.58846
 30
0.0
 11
235.93462
 21
163.58846
 31
0.0
  0
LINE
  5
451
100
AcDbEntity
  8
1
  6
CONTINUOUS
 62
   250
100
AcDbLine
 10
224.13461
 20
195.78846
 30
0.0
 11
224.13461
 21
193.78846
 31
0.0
  0
LINE
  5
452
100
AcDbEntity
  8
1
  6
CONTINUOUS
 62
   250
100
AcDbLine
 10
220.53077
 20
195.78846
 30
0.0
 11
218.98684
 21
195.78846
 31
0.0
  0
LINE
  5
453
100
AcDbEntity
  8
1
  6
CONTINUOUS
 62
   250
100
AcDbLine
 10
224.13461
 20
195.78846
 30
0.0
 11
224.53462
 21
196.48128
 31
0.0
  0
LINE
  5
454
100
AcDbEntity
  8
1
  6
CONTINUOUS
 62
   250
100
AcDbLine
 10
224.13461
 20
193.78846
 30
0.0
 11
224.53462
 21
193.09564
 31
0.0
  0
LINE
  5
455
100
AcDbEntity
  8
1
  6
CONTINUOUS
 62
   250
100
AcDbLine
 10
221.98461
 20
174.58846
 30
0.0
 11
221.98461
 21
174.08846
 31
0.0
  0
LINE
  5
456
100
AcDbEntity
  8
1
  6
CONTINUOUS
 62
   250
100
AcDbLine
 10
262.03461
 20
144.53846
 30
0.0
 11
263.03461
 21
144.53846
 31
0.0
  0
CIRCLE
  5
457
100
AcDbEntity
  8
1
  6
CONTINUOUS
 62
   250
100
AcDbCircle
 10
162.32692
 20
132.81154
 30
0.0
 40
2.95
  0
LINE
  5
458
100
AcDbEntity
  8
1
  6
HIDDEN
 62
   250
100
AcDbLine
 10
186.32692
 20
198.31154
 30
0.0
 11
198.32692
 21
198.31154
 31
0.0
  0
LINE
  5
459
100
AcDbEntity
  8
1
  6
CONTINUOUS
 62
   250
100
AcDbLine
 10
221.98461
 20
174.58846
 30
0.0
 11
222.53462
 21
177.28846
 31
0.0
  0
LINE
  5
45A
100
AcDbEntity
  8
1
  6
CONTINUOUS
 62
   250
100
AcDbLine
 10
221.98461
 20
174.08846
 30
0.0
 11
222.28462
 21
173.78846
 31
0.0
  0
LINE
  5
45B
100
AcDbEntity
  8
1
  6
HIDDEN
 62
   250
100
AcDbLine
 10
186.32692
 20
124.31154
 30
0.0
 11
198.32692
 21
124.31154
 31
0.0
  0
LINE
  5
45C
100
AcDbEntity
  8
1
  6
HIDDEN
 62
   250
100
AcDbLine
 10
198.32692
 20
198.31154
 30
0.0
 11
198.32692
 21
124.31154
 31
0.0
  0
LINE
  5
45D
100
AcDbEntity
  8
1
  6
CONTINUOUS
 62
   250
100
AcDbLine
 10
262.03461
 20
149.03846
 30
0.0
 11
263.03461
 21
149.03846
 31
0.0
  0
CIRCLE
  5
45F
100
AcDbEntity
  8
1
  6
CONTINUOUS
 62
   250
100
AcDbCircle
 10
151.32692
 20
111.31154
 30
0.0
 40
2.95
  0
LINE
  5
460
100
AcDbEntity
  8
1
  6
CONTINUOUS
 62
   250
100
AcDbLine
 10
121.32692
 20
115.31154
 30
0.0
 11
121.32692
 21
106.31154
 31
0.0
  0
ARC
  5
461
100
AcDbEntity
  8
1
  6
CONTINUOUS
 62
   250
100
AcDbCircle
 10
181.32692
 20
206.31154
 30
0.0
 40
3.1
100
AcDbArc
 50
136.53598
 51
161.18094
  0
ARC
  5
462
100
AcDbEntity
  8
1
  6
CONTINUOUS
 62
   250
100
AcDbCircle
 10
121.32692
 20
116.31154
 30
0.0
 40
3.1
100
AcDbArc
 50
316.53598
 51
341.18094
  0
LINE
  5
463
100
AcDbEntity
  8
1
  6
CONTINUOUS
 62
   250
100
AcDbLine
 10
126.85991
 20
111.31154
 30
0.0
 11
116.32692
 21
111.31154
 31
0.0
  0
ARC
  5
464
100
AcDbEntity
  8
1
  6
CONTINUOUS
 62
   250
100
AcDbCircle
 10
181.32692
 20
211.31154
 30
0.0
 40
3.1
100
AcDbArc
 50
316.53598
 51
223.46402
  0
ARC
  5
465
100
AcDbEntity
  8
1
  6
CONTINUOUS
 62
   250
100
AcDbCircle
 10
121.32692
 20
111.31154
 30
0.0
 40
3.1
100
AcDbArc
 50
136.53598
 51
43.46402
  0
LINE
  5
466
100
AcDbEntity
  8
1
  6
CONTINUOUS
 62
   250
100
AcDbLine
 10
179.07692
 20
209.17905
 30
0.0
 11
179.07692
 21
208.44402
 31
0.0
  0
LINE
  5
467
100
AcDbEntity
  8
1
  6
CONTINUOUS
 62
   250
100
AcDbLine
 10
183.57692
 20
209.17905
 30
0.0
 11
183.57692
 21
208.44402
 31
0.0
  0
LINE
  5
468
100
AcDbEntity
  8
1
  6
CONTINUOUS
 62
   250
100
AcDbLine
 10
123.57692
 20
114.17905
 30
0.0
 11
123.57692
 21
113.44402
 31
0.0
  0
LINE
  5
469
100
AcDbEntity
  8
1
  6
CONTINUOUS
 62
   250
100
AcDbLine
 10
119.07692
 20
114.17905
 30
0.0
 11
119.07692
 21
113.44402
 31
0.0
  0
ARC
  5
46A
100
AcDbEntity
  8
1
  6
CONTINUOUS
 62
   250
100
AcDbCircle
 10
162.32692
 20
112.81154
 30
0.0
 40
3.0
100
AcDbArc
 50
123.55731
 51
56.44269
  0
LINE
  5
46B
100
AcDbEntity
  8
1
  6
CONTINUOUS
 62
   250
100
AcDbLine
 10
314.88461
 20
184.78846
 30
0.0
 11
314.88461
 21
137.28846
 31
0.0
  0
LINE
  5
46C
100
AcDbEntity
  8
1
  6
CONTINUOUS
 62
   250
100
AcDbLine
 10
262.03461
 20
216.03846
 30
0.0
 11
276.53461
 21
216.03846
 31
0.0
  0
LINE
  5
46D
100
AcDbEntity
  8
1
  6
CONTINUOUS
 62
   250
100
AcDbLine
 10
164.5462
 20
114.06645
 30
0.0
 11
163.03213
 21
112.75971
 31
0.0
  0
LINE
  5
46E
100
AcDbEntity
  8
1
  6
CONTINUOUS
 62
   250
100
AcDbLine
 10
262.03461
 20
216.03846
 30
0.0
 11
262.03461
 21
172.08846
 31
0.0
  0
LINE
  5
46F
100
AcDbEntity
  8
1
  6
CONTINUOUS
 62
   250
100
AcDbLine
 10
163.89283
 20
114.82349
 30
0.0
 11
162.37875
 21
113.51674
 31
0.0
  0
LINE
  5
470
100
AcDbEntity
  8
1
  6
CONTINUOUS
 62
   250
100
AcDbLine
 10
268.03461
 20
207.03846
 30
0.0
 11
283.53461
 21
207.03846
 31
0.0
  0
LINE
  5
471
100
AcDbEntity
  8
1
  6
CONTINUOUS
 62
   250
100
AcDbLine
 10
262.03461
 20
115.03846
 30
0.0
 11
283.53461
 21
115.03846
 31
0.0
  0
LINE
  5
473
100
AcDbEntity
  8
1
  6
CONTINUOUS
 62
   250
100
AcDbLine
 10
263.03461
 20
149.03846
 30
0.0
 11
263.03461
 21
144.53846
 31
0.0
  0
LINE
  5
474
100
AcDbEntity
  8
1
  6
CONTINUOUS
 62
   250
100
AcDbLine
 10
289.53461
 20
165.73846
 30
0.0
 11
289.53461
 21
157.53846
 31
0.0
  0
LINE
  5
479
100
AcDbEntity
  8
1
  6
CONTINUOUS
 62
   250
100
AcDbLine
 10
164.01219
 20
111.62415
 30
0.0
 11
163.03213
 21
112.75971
 31
0.0
  0
LINE
  5
47A
100
AcDbEntity
  8
1
  6
CONTINUOUS
 62
   250
100
AcDbLine
 10
163.25515
 20
110.97078
 30
0.0
 11
162.27509
 21
112.10633
 31
0.0
  0
LINE
  5
47C
100
AcDbEntity
  8
1
  6
CONTINUOUS
 62
   250
100
AcDbLine
 10
269.93462
 20
184.88846
 30
0.0
 11
269.93462
 21
180.68846
 31
0.0
  0
LINE
  5
47D
100
AcDbEntity
  8
1
  6
CONTINUOUS
 62
   250
100
AcDbLine
 10
265.73462
 20
184.88846
 30
0.0
 11
265.73462
 21
180.68846
 31
0.0
  0
TEXT
  5
47E
100
AcDbEntity
  8
1
  6
CONTINUOUS
 62
   250
100
AcDbText
 10
210.56131
 20
173.58256
 30
0.0
 40
2.5
  1
35mm X 15 EN50022
 50
90.0
 41
0.75
 11
209.31131
 21
173.58256
 31
0.0
100
AcDbText
 73
     2
  0
LINE
  5
480
100
AcDbEntity
  8
1
  6
CONTINUOUS
 62
   250
100
AcDbLine
 10
283.53461
 20
215.03846
 30
0.0
 11
283.53461
 21
207.03846
 31
0.0
  0
LINE
  5
481
100
AcDbEntity
  8
1
  6
CONTINUOUS
 62
   250
100
AcDbLine
 10
276.53461
 20
216.03846
 30
0.0
 11
276.53461
 21
207.03846
 31
0.0
  0
LINE
  5
482
100
AcDbEntity
  8
1
  6
CONTINUOUS
 62
   250
100
AcDbLine
 10
212.42109
 20
171.04867
 30
0.0
 11
212.42109
 21
205.02586
 31
0.0
  0
LINE
  5
483
100
AcDbEntity
  8
1
  6
CONTINUOUS
 62
   250
100
AcDbLine
 10
283.53461
 20
215.03846
 30
0.0
 11
276.53461
 21
216.03846
 31
0.0
  0
LINE
  5
484
100
AcDbEntity
  8
1
  6
CONTINUOUS
 62
   250
100
AcDbLine
 10
268.03461
 20
216.03846
 30
0.0
 11
268.03461
 21
207.03846
 31
0.0
  0
LINE
  5
485
100
AcDbEntity
  8
1
  6
CONTINUOUS
 62
   250
100
AcDbLine
 10
262.03461
 20
106.03846
 30
0.0
 11
269.53461
 21
106.03846
 31
0.0
  0
LINE
  5
486
100
AcDbEntity
  8
1
  6
CONTINUOUS
 62
   250
100
AcDbLine
 10
283.53461
 20
107.03846
 30
0.0
 11
276.53461
 21
106.03846
 31
0.0
  0
LINE
  5
487
100
AcDbEntity
  8
1
  6
CONTINUOUS
 62
   250
100
AcDbLine
 10
283.53461
 20
107.03846
 30
0.0
 11
283.53461
 21
115.03846
 31
0.0
  0
LINE
  5
488
100
AcDbEntity
  8
1
  6
CONTINUOUS
 62
   250
100
AcDbLine
 10
276.53461
 20
106.03846
 30
0.0
 11
276.53461
 21
115.03846
 31
0.0
  0
LINE
  5
489
100
AcDbEntity
  8
1
  6
CONTINUOUS
 62
   250
100
AcDbLine
 10
268.03461
 20
106.03846
 30
0.0
 11
268.03461
 21
115.03846
 31
0.0
  0
LINE
  5
48A
100
AcDbEntity
  8
1
  6
CONTINUOUS
 62
   250
100
AcDbLine
 10
269.53461
 20
106.03846
 30
0.0
 11
269.53461
 21
108.03846
 31
0.0
  0
LINE
  5
48B
100
AcDbEntity
  8
1
  6
CONTINUOUS
 62
   250
100
AcDbLine
 10
269.53461
 20
106.03846
 30
0.0
 11
276.53461
 21
106.03846
 31
0.0
  0
TEXT
  5
48C
100
AcDbEntity
  8
1
  6
CONTINUOUS
 62
   250
100
AcDbText
 10
210.90684
 20
103.78535
 30
0.0
 40
2.5
  1
75mm EN50023
 50
90.0
 41
0.75
 11
209.65684
 21
103.78535
 31
0.0
100
AcDbText
 73
     2
  0
LINE
  5
48D
100
AcDbEntity
  8
1
  6
CONTINUOUS
 62
   250
100
AcDbLine
 10
312.88461
 20
207.03846
 30
0.0
 11
312.88461
 21
184.78846
 31
0.0
  0
LINE
  5
48E
100
AcDbEntity
  8
1
  6
CONTINUOUS
 62
   250
100
AcDbLine
 10
312.88461
 20
184.78846
 30
0.0
 11
314.88461
 21
184.78846
 31
0.0
  0
LINE
  5
48F
100
AcDbEntity
  8
1
  6
CONTINUOUS
 62
   250
100
AcDbLine
 10
312.88461
 20
137.28846
 30
0.0
 11
314.88461
 21
137.28846
 31
0.0
  0
LINE
  5
490
100
AcDbEntity
  8
1
  6
CONTINUOUS
 62
   250
100
AcDbLine
 10
312.88461
 20
137.28846
 30
0.0
 11
312.88461
 21
115.03846
 31
0.0
  0
LINE
  5
492
100
AcDbEntity
  8
1
  6
CONTINUOUS
 62
   250
100
AcDbLine
 10
116.32692
 20
214.31154
 30
0.0
 11
116.32692
 21
108.31154
 31
0.0
  0
LINE
  5
493
100
AcDbEntity
  8
1
  6
CONTINUOUS
 62
   250
100
AcDbLine
 10
184.32692
 20
106.31154
 30
0.0
 11
138.32692
 21
106.31154
 31
0.0
  0
LINE
  5
494
100
AcDbEntity
  8
1
  6
CONTINUOUS
 62
   250
100
AcDbLine
 10
186.32692
 20
214.31154
 30
0.0
 11
186.32692
 21
108.31154
 31
0.0
  0
LINE
  5
495
100
AcDbEntity
  8
1
  6
CONTINUOUS
 62
   250
100
AcDbLine
 10
118.32692
 20
216.31154
 30
0.0
 11
145.32692
 21
216.31154
 31
0.0
  0
ARC
  5
496
100
AcDbEntity
  8
1
  6
CONTINUOUS
 62
   250
100
AcDbCircle
 10
118.32692
 20
214.31154
 30
0.0
 40
2.0
100
AcDbArc
 50
90.0
 51
180.0
  0
ARC
  5
497
100
AcDbEntity
  8
1
  6
CONTINUOUS
 62
   250
100
AcDbCircle
 10
184.32692
 20
214.31154
 30
0.0
 40
2.0
100
AcDbArc
 50
0.0
 51
90.0
  0
ARC
  5
498
100
AcDbEntity
  8
1
  6
CONTINUOUS
 62
   250
100
AcDbCircle
 10
184.32692
 20
108.31154
 30
0.0
 40
2.0
100
AcDbArc
 50
270.0
 51
0.0
  0
ARC
  5
499
100
AcDbEntity
  8
1
  6
CONTINUOUS
 62
   250
100
AcDbCircle
 10
118.32692
 20
108.31154
 30
0.0
 40
2.0
100
AcDbArc
 50
180.0
 51
270.0
  0
LINE
  5
49A
100
AcDbEntity
  8
1
  6
CONTINUOUS
 62
   250
100
AcDbLine
 10
212.53626
 20
126.24484
 30
0.0
 11
212.53626
 21
104.0157
 31
0.0
  0
LINE
  5
49B
100
AcDbEntity
  8
1
  6
CONTINUOUS
 62
   250
100
AcDbLine
 10
184.32692
 20
207.31154
 30
0.0
 11
118.32692
 21
207.31154
 31
0.0
  0
LINE
  5
49C
100
AcDbEntity
  8
1
  6
CONTINUOUS
 62
   250
100
AcDbLine
 10
118.32692
 20
115.31154
 30
0.0
 11
184.32692
 21
115.31154
 31
0.0
  0
LINE
  5
49D
100
AcDbEntity
  8
1
  6
CENTERLINE
 62
   250
100
AcDbLine
 10
107.78563
 20
197.31154
 30
0.0
 11
181.80459
 21
197.31154
 31
0.0
  0
LINE
  5
49E
100
AcDbEntity
  8
1
  6
CENTERLINE
 62
   250
100
AcDbLine
 10
107.78563
 20
125.31154
 30
0.0
 11
181.80459
 21
125.31154
 31
0.0
  0
LINE
  5
49F
100
AcDbEntity
  8
1
  6
CENTERLINE
 62
   250
100
AcDbLine
 10
129.32692
 20
222.85084
 30
0.0
 11
129.32692
 21
80.522687
 31
0.0
  0
LINE
  5
4A0
100
AcDbEntity
  8
1
  6
CENTERLINE
 62
   250
100
AcDbLine
 10
151.32692
 20
222.85084
 30
0.0
 11
151.32692
 21
80.522687
 31
0.0
  0
ARC
  5
4A1
100
AcDbEntity
  8
1
  6
CONTINUOUS
 62
   250
100
AcDbCircle
 10
163.63367
 20
111.29747
 30
0.0
 40
0.5
100
AcDbArc
 50
220.79641
 51
40.79641
  0
LINE
  5
4A2
100
AcDbEntity
  8
1
  6
CENTERLINE
 62
   250
100
AcDbLine
 10
173.32692
 20
222.85084
 30
0.0
 11
173.32692
 21
100.0385
 31
0.0
  0
LINE
  5
4A3
100
AcDbEntity
  8
1
  6
CONTINUOUS
 62
   250
100
AcDbLine
 10
265.73462
 20
184.88846
 30
0.0
 11
269.93462
 21
184.88846
 31
0.0
  0
CIRCLE
  5
4A4
100
AcDbEntity
  8
1
  6
CONTINUOUS
 62
   250
100
AcDbCircle
 10
121.32692
 20
211.31154
 30
0.0
 40
2.25
  0
ARC
  5
4A5
100
AcDbEntity
  8
1
  6
CONTINUOUS
 62
   250
100
AcDbCircle
 10
164.21951
 20
114.44497
 30
0.0
 40
0.5
100
AcDbArc
 50
310.79641
 51
130.79641
  0
CIRCLE
  5
4A7
100
AcDbEntity
  8
1
  6
CONTINUOUS
 62
   250
100
AcDbCircle
 10
181.32692
 20
111.31154
 30
0.0
 40
2.25
  0
LINE
  5
4AC
100
AcDbEntity
  8
1
  6
CONTINUOUS
 62
   250
100
AcDbLine
 10
265.73462
 20
180.68846
 30
0.0
 11
269.93462
 21
180.68846
 31
0.0
  0
ARC
  5
4AE
100
AcDbEntity
  8
1
  6
CONTINUOUS
 62
   250
100
AcDbCircle
 10
161.02018
 20
114.32561
 30
0.0
 40
0.5
100
AcDbArc
 50
40.796406
 51
220.79641
  0
LINE
  5
4AF
100
AcDbEntity
  8
1
  6
HIDDEN
 62
   250
100
AcDbLine
 10
178.42692
 20
137.31154
 30
0.0
 11
178.42692
 21
119.01154
 31
0.0
  0
LINE
  5
4B0
100
AcDbEntity
  8
1
  6
HIDDEN
 62
   250
100
AcDbLine
 10
168.22692
 20
137.31154
 30
0.0
 11
168.22692
 21
117.01154
 31
0.0
  0
ARC
  5
4B1
100
AcDbEntity
  8
1
  6
CONTINUOUS
 62
   250
100
AcDbCircle
 10
160.43433
 20
111.17811
 30
0.0
 40
0.5
100
AcDbArc
 50
130.79641
 51
310.79641
  0
LINE
  5
4B2
100
AcDbEntity
  8
1
  6
CONTINUOUS
 62
   250
100
AcDbLine
 10
161.62172
 20
112.86337
 30
0.0
 11
160.10765
 21
111.55662
 31
0.0
  0
LINE
  5
4B3
100
AcDbEntity
  8
1
  6
HIDDEN
 62
   250
100
AcDbLine
 10
179.42692
 20
117.01154
 30
0.0
 11
168.22692
 21
117.01154
 31
0.0
  0
LINE
  5
4B4
100
AcDbEntity
  8
1
  6
CONTINUOUS
 62
   250
100
AcDbLine
 10
162.27509
 20
112.10633
 30
0.0
 11
160.76102
 21
110.79959
 31
0.0
  0
LINE
  5
4B5
100
AcDbEntity
  8
1
  6
CONTINUOUS
 62
   250
100
AcDbLine
 10
161.62172
 20
112.86337
 30
0.0
 11
160.64166
 21
113.99892
 31
0.0
  0
LINE
  5
4B6
100
AcDbEntity
  8
1
  6
CONTINUOUS
 62
   250
100
AcDbLine
 10
162.37875
 20
113.51674
 30
0.0
 11
161.39869
 21
114.6523
 31
0.0
  0
ARC
  5
4B7
100
AcDbEntity
  8
1
  6
CONTINUOUS
 62
   250
100
AcDbCircle
 10
162.32692
 20
209.81154
 30
0.0
 40
3.0
100
AcDbArc
 50
303.55731
 51
236.44269
  0
LINE
  5
4B8
100
AcDbEntity
  8
1
  6
CONTINUOUS
 62
   250
100
AcDbLine
 10
160.10765
 20
208.55662
 30
0.0
 11
161.62172
 21
209.86337
 31
0.0
  0
LINE
  5
4B9
100
AcDbEntity
  8
1
  6
CONTINUOUS
 62
   250
100
AcDbLine
 10
160.76102
 20
207.79959
 30
0.0
 11
162.27509
 21
209.10633
 31
0.0
  0
LINE
  5
4BA
100
AcDbEntity
  8
1
  6
HIDDEN
 62
   250
100
AcDbLine
 10
179.42692
 20
130.61154
 30
0.0
 11
178.42692
 21
130.61154
 31
0.0
  0
LINE
  5
4BB
100
AcDbEntity
  8
1
  6
CONTINUOUS
 62
   250
100
AcDbLine
 10
160.64166
 20
210.99892
 30
0.0
 11
161.62172
 21
209.86337
 31
0.0
  0
LINE
  5
4BC
100
AcDbEntity
  8
1
  6
HIDDEN
 62
   250
100
AcDbLine
 10
179.42692
 20
130.61154
 30
0.0
 11
179.42692
 21
117.01154
 31
0.0
  0
LINE
  5
4BD
100
AcDbEntity
  8
1
  6
HIDDEN
 62
   250
100
AcDbLine
 10
167.22692
 20
130.61154
 30
0.0
 11
167.22692
 21
119.01154
 31
0.0
  0
LINE
  5
4BE
100
AcDbEntity
  8
1
  6
CONTINUOUS
 62
   250
100
AcDbLine
 10
265.73462
 20
141.38846
 30
0.0
 11
269.93462
 21
141.38846
 31
0.0
  0
LINE
  5
4BF
100
AcDbEntity
  8
1
  6
HIDDEN
 62
   250
100
AcDbLine
 10
179.42692
 20
119.01154
 30
0.0
 11
178.42692
 21
119.01154
 31
0.0
  0
LINE
  5
4C0
100
AcDbEntity
  8
1
  6
CONTINUOUS
 62
   250
100
AcDbLine
 10
161.39869
 20
211.6523
 30
0.0
 11
162.37875
 21
210.51674
 31
0.0
  0
ARC
  5
4C1
100
AcDbEntity
  8
1
  6
CONTINUOUS
 62
   250
100
AcDbCircle
 10
161.02018
 20
211.32561
 30
0.0
 40
0.5
100
AcDbArc
 50
40.796406
 51
220.79641
  0
LINE
  5
4C2
100
AcDbEntity
  8
1
  6
HIDDEN
 62
   250
100
AcDbLine
 10
168.22692
 20
119.01154
 30
0.0
 11
167.22692
 21
119.01154
 31
0.0
  0
LINE
  5
4C3
100
AcDbEntity
  8
1
  6
HIDDEN
 62
   250
100
AcDbLine
 10
168.22692
 20
130.61154
 30
0.0
 11
167.22692
 21
130.61154
 31
0.0
  0
LINE
  5
4C5
100
AcDbEntity
  8
1
  6
CENTERLINE
 62
   250
100
AcDbLine
 10
173.32692
 20
89.269789
 30
0.0
 11
173.32692
 21
80.522687
 31
0.0
  0
LINE
  5
4C6
100
AcDbEntity
  8
1
  6
CONTINUOUS
 62
   250
100
AcDbLine
 10
265.73462
 20
137.18846
 30
0.0
 11
269.93462
 21
137.18846
 31
0.0
  0
ARC
  5
4C7
100
AcDbEntity
  8
1
  6
CONTINUOUS
 62
   250
100
AcDbCircle
 10
160.43433
 20
208.17811
 30
0.0
 40
0.5
100
AcDbArc
 50
130.79641
 51
310.79641
  0
ARC
  5
4C8
100
AcDbEntity
  8
1
  6
CONTINUOUS
 62
   250
100
AcDbCircle
 10
163.63367
 20
208.29747
 30
0.0
 40
0.5
100
AcDbArc
 50
220.79641
 51
40.79641
  0
ARC
  5
4C9
100
AcDbEntity
  8
1
  6
CONTINUOUS
 62
   250
100
AcDbCircle
 10
164.21951
 20
211.44497
 30
0.0
 40
0.5
100
AcDbArc
 50
310.79641
 51
130.79641
  0
LINE
  5
4CA
100
AcDbEntity
  8
1
  6
CONTINUOUS
 62
   250
100
AcDbLine
 10
163.03213
 20
209.75971
 30
0.0
 11
164.5462
 21
211.06645
 31
0.0
  0
LINE
  5
4CB
100
AcDbEntity
  8
1
  6
CONTINUOUS
 62
   250
100
AcDbLine
 10
162.37875
 20
210.51674
 30
0.0
 11
163.89283
 21
211.82349
 31
0.0
  0
LINE
  5
4CC
100
AcDbEntity
  8
1
  6
CONTINUOUS
 62
   250
100
AcDbLine
 10
163.03213
 20
209.75971
 30
0.0
 11
164.01219
 21
208.62415
 31
0.0
  0
ARC
  5
4CD
100
AcDbEntity
  8
1
  6
CONTINUOUS
 62
   250
100
AcDbCircle
 10
162.32692
 20
209.81154
 30
0.0
 40
3.65
100
AcDbArc
 50
316.76978
 51
223.23022
  0
LINE
  5
4CE
100
AcDbEntity
  8
1
  6
CONTINUOUS
 62
   250
100
AcDbLine
 10
162.27509
 20
209.10633
 30
0.0
 11
163.25515
 21
207.97078
 31
0.0
  0
ARC
  5
4CF
100
AcDbEntity
  8
1
  6
CONTINUOUS
 62
   250
100
AcDbCircle
 10
140.32692
 20
209.81154
 30
0.0
 40
3.0
100
AcDbArc
 50
303.55731
 51
236.44269
  0
ARC
  5
4D0
100
AcDbEntity
  8
1
  6
CONTINUOUS
 62
   250
100
AcDbCircle
 10
140.32692
 20
209.81154
 30
0.0
 40
3.65
100
AcDbArc
 50
316.76978
 51
223.23022
  0
LINE
  5
4D1
100
AcDbEntity
  8
1
  6
CONTINUOUS
 62
   250
100
AcDbLine
 10
138.10765
 20
208.55662
 30
0.0
 11
139.62172
 21
209.86337
 31
0.0
  0
LINE
  5
4D2
100
AcDbEntity
  8
1
  6
CONTINUOUS
 62
   250
100
AcDbLine
 10
138.76102
 20
207.79959
 30
0.0
 11
140.27509
 21
209.10633
 31
0.0
  0
ARC
  5
4D3
100
AcDbEntity
  8
1
  6
CONTINUOUS
 62
   250
100
AcDbCircle
 10
162.32692
 20
112.81154
 30
0.0
 40
3.65
100
AcDbArc
 50
136.76978
 51
43.23022
  0
LINE
  5
4D4
100
AcDbEntity
  8
1
  6
CONTINUOUS
 62
   250
100
AcDbLine
 10
138.64166
 20
210.99892
 30
0.0
 11
139.62172
 21
209.86337
 31
0.0
  0
LINE
  5
4D5
100
AcDbEntity
  8
1
  6
CONTINUOUS
 62
   250
100
AcDbLine
 10
139.39869
 20
211.6523
 30
0.0
 11
140.37875
 21
210.51674
 31
0.0
  0
ARC
  5
4D6
100
AcDbEntity
  8
1
  6
CONTINUOUS
 62
   250
100
AcDbCircle
 10
139.02018
 20
211.32561
 30
0.0
 40
0.5
100
AcDbArc
 50
40.796406
 51
220.79641
  0
ARC
  5
4D7
100
AcDbEntity
  8
1
  6
CONTINUOUS
 62
   250
100
AcDbCircle
 10
162.32692
 20
209.81154
 30
0.0
 40
5.5
100
AcDbArc
 50
332.96431
 51
207.03569
  0
ARC
  5
4D8
100
AcDbEntity
  8
1
  6
CONTINUOUS
 62
   250
100
AcDbCircle
 10
138.43433
 20
208.17811
 30
0.0
 40
0.5
100
AcDbArc
 50
130.79641
 51
310.79641
  0
ARC
  5
4D9
100
AcDbEntity
  8
1
  6
CONTINUOUS
 62
   250
100
AcDbCircle
 10
141.63367
 20
208.29747
 30
0.0
 40
0.5
100
AcDbArc
 50
220.79641
 51
40.79641
  0
ARC
  5
4DA
100
AcDbEntity
  8
1
  6
CONTINUOUS
 62
   250
100
AcDbCircle
 10
140.32692
 20
209.81154
 30
0.0
 40
5.5
100
AcDbArc
 50
332.96431
 51
207.03569
  0
ARC
  5
4DB
100
AcDbEntity
  8
1
  6
CONTINUOUS
 62
   250
100
AcDbCircle
 10
142.21951
 20
211.44497
 30
0.0
 40
0.5
100
AcDbArc
 50
310.79641
 51
130.79641
  0
LINE
  5
4DC
100
AcDbEntity
  8
1
  6
CONTINUOUS
 62
   250
100
AcDbLine
 10
141.03213
 20
209.75971
 30
0.0
 11
142.5462
 21
211.06645
 31
0.0
  0
ARC
  5
4DD
100
AcDbEntity
  8
1
  6
CONTINUOUS
 62
   250
100
AcDbCircle
 10
162.32692
 20
112.81154
 30
0.0
 40
5.5
100
AcDbArc
 50
152.96431
 51
27.03569
  0
LINE
  5
4DE
100
AcDbEntity
  8
1
  6
CONTINUOUS
 62
   250
100
AcDbLine
 10
140.37875
 20
210.51674
 30
0.0
 11
141.89283
 21
211.82349
 31
0.0
  0
LINE
  5
4DF
100
AcDbEntity
  8
1
  6
CONTINUOUS
 62
   250
100
AcDbLine
 10
134.32692
 20
215.31154
 30
0.0
 11
134.32692
 21
207.31154
 31
0.0
  0
LINE
  5
4E0
100
AcDbEntity
  8
1
  6
CONTINUOUS
 62
   250
100
AcDbLine
 10
168.32692
 20
215.31154
 30
0.0
 11
168.32692
 21
207.31154
 31
0.0
  0
LINE
  5
4E1
100
AcDbEntity
  8
1
  6
CONTINUOUS
 62
   250
100
AcDbLine
 10
156.32692
 20
215.31154
 30
0.0
 11
156.32692
 21
207.31154
 31
0.0
  0
LINE
  5
4E2
100
AcDbEntity
  8
1
  6
CONTINUOUS
 62
   250
100
AcDbLine
 10
146.32692
 20
215.31154
 30
0.0
 11
146.32692
 21
207.31154
 31
0.0
  0
LINE
  5
4E3
100
AcDbEntity
  8
1
  6
CONTINUOUS
 62
   250
100
AcDbLine
 10
168.32692
 20
115.31154
 30
0.0
 11
168.32692
 21
107.31154
 31
0.0
  0
LINE
  5
4E4
100
AcDbEntity
  8
1
  6
CONTINUOUS
 62
   250
100
AcDbLine
 10
156.32692
 20
115.31154
 30
0.0
 11
156.32692
 21
107.31154
 31
0.0
  0
ARC
  5
4E5
100
AcDbEntity
  8
1
  6
CONTINUOUS
 62
   250
100
AcDbCircle
 10
157.32692
 20
215.31154
 30
0.0
 40
1.0
100
AcDbArc
 50
90.0
 51
180.0
  0
ARC
  5
4E6
100
AcDbEntity
  8
1
  6
CONTINUOUS
 62
   250
100
AcDbCircle
 10
167.32692
 20
215.31154
 30
0.0
 40
1.0
100
AcDbArc
 50
0.0
 51
90.0
  0
ARC
  5
4E7
100
AcDbEntity
  8
1
  6
CONTINUOUS
 62
   250
100
AcDbCircle
 10
167.32692
 20
107.31154
 30
0.0
 40
1.0
100
AcDbArc
 50
270.0
 51
0.0
  0
ARC
  5
4E8
100
AcDbEntity
  8
1
  6
CONTINUOUS
 62
   250
100
AcDbCircle
 10
157.32692
 20
107.31154
 30
0.0
 40
1.0
100
AcDbArc
 50
180.0
 51
270.0
  0
ARC
  5
4E9
100
AcDbEntity
  8
1
  6
CONTINUOUS
 62
   250
100
AcDbCircle
 10
135.32692
 20
215.31154
 30
0.0
 40
1.0
100
AcDbArc
 50
90.0
 51
180.0
  0
ARC
  5
4EA
100
AcDbEntity
  8
1
  6
CONTINUOUS
 62
   250
100
AcDbCircle
 10
145.32692
 20
215.31154
 30
0.0
 40
1.0
100
AcDbArc
 50
0.0
 51
90.0
  0
LINE
  5
4EB
100
AcDbEntity
  8
1
  6
CONTINUOUS
 62
   250
100
AcDbLine
 10
141.03213
 20
209.75971
 30
0.0
 11
142.01219
 21
208.62415
 31
0.0
  0
LINE
  5
4EC
100
AcDbEntity
  8
1
  6
CONTINUOUS
 62
   250
100
AcDbLine
 10
140.27509
 20
209.10633
 30
0.0
 11
141.25515
 21
207.97078
 31
0.0
  0
LINE
  5
4ED
100
AcDbEntity
  8
1
  6
CONTINUOUS
 62
   250
100
AcDbLine
 10
145.32692
 20
216.31154
 30
0.0
 11
184.32692
 21
216.31154
 31
0.0
  0
ARC
  5
4EE
100
AcDbEntity
  8
1
  6
CONTINUOUS
 62
   250
100
AcDbCircle
 10
118.32692
 20
205.31154
 30
0.0
 40
2.0
100
AcDbArc
 50
90.0
 51
180.0
  0
ARC
  5
4EF
100
AcDbEntity
  8
1
  6
CONTINUOUS
 62
   250
100
AcDbCircle
 10
184.32692
 20
205.31154
 30
0.0
 40
2.0
100
AcDbArc
 50
0.0
 51
90.0
  0
ARC
  5
4F0
100
AcDbEntity
  8
1
  6
CONTINUOUS
 62
   250
100
AcDbCircle
 10
184.32692
 20
117.31154
 30
0.0
 40
2.0
100
AcDbArc
 50
270.0
 51
0.0
  0
ARC
  5
4F1
100
AcDbEntity
  8
1
  6
CONTINUOUS
 62
   250
100
AcDbCircle
 10
118.32692
 20
117.31154
 30
0.0
 40
2.0
100
AcDbArc
 50
180.0
 51
270.0
  0
LINE
  5
4F2
100
AcDbEntity
  8
1
  6
CONTINUOUS
 62
   250
100
AcDbLine
 10
269.93462
 20
141.38846
 30
0.0
 11
269.93462
 21
137.18846
 31
0.0
  0
LINE
  5
4F3
100
AcDbEntity
  8
1
  6
CONTINUOUS
 62
   250
100
AcDbLine
 10
265.73462
 20
141.38846
 30
0.0
 11
265.73462
 21
137.18846
 31
0.0
  0
LINE
  5
4F8
100
AcDbEntity
  8
1
  6
CONTINUOUS
 62
   250
100
AcDbLine
 10
169.47692
 20
115.31154
 30
0.0
 11
169.47692
 21
106.31154
 31
0.0
  0
LINE
  5
4F9
100
AcDbEntity
  8
1
  6
CONTINUOUS
 62
   250
100
AcDbLine
 10
174.78811
 20
212.86275
 30
0.0
 11
173.53147
 21
211.37165
 31
0.0
  0
LINE
  5
4FA
100
AcDbEntity
  8
1
  6
CONTINUOUS
 62
   250
100
AcDbLine
 10
178.32692
 20
106.31154
 30
0.0
 11
169.47692
 21
112.81154
 31
0.0
  0
LINE
  5
4FE
100
AcDbEntity
  8
1
  6
CONTINUOUS
 62
   250
100
AcDbLine
 10
122.32692
 20
211.31154
 30
0.0
 11
120.32692
 21
211.31154
 31
0.0
  0
LINE
  5
4FF
100
AcDbEntity
  8
1
  6
CONTINUOUS
 62
   250
100
AcDbLine
 10
121.32692
 20
212.31154
 30
0.0
 11
121.32692
 21
210.31154
 31
0.0
  0
LINE
  5
500
100
AcDbEntity
  8
1
  6
CONTINUOUS
 62
   250
100
AcDbLine
 10
123.32692
 20
211.31154
 30
0.0
 11
124.57692
 21
211.31154
 31
0.0
  0
LINE
  5
501
100
AcDbEntity
  8
1
  6
CONTINUOUS
 62
   250
100
AcDbLine
 10
121.32692
 20
213.31154
 30
0.0
 11
121.32692
 21
214.56154
 31
0.0
  0
LINE
  5
502
100
AcDbEntity
  8
1
  6
CONTINUOUS
 62
   250
100
AcDbLine
 10
119.32692
 20
211.31154
 30
0.0
 11
118.07692
 21
211.31154
 31
0.0
  0
LINE
  5
503
100
AcDbEntity
  8
1
  6
CONTINUOUS
 62
   250
100
AcDbLine
 10
121.32692
 20
209.31154
 30
0.0
 11
121.32692
 21
208.06154
 31
0.0
  0
LINE
  5
504
100
AcDbEntity
  8
1
  6
CONTINUOUS
 62
   250
100
AcDbLine
 10
259.38461
 20
172.08846
 30
0.0
 11
259.38461
 21
166.98846
 31
0.0
  0
ARC
  5
505
100
AcDbEntity
  8
1
  6
CONTINUOUS
 62
   250
100
AcDbCircle
 10
181.32692
 20
206.31154
 30
0.0
 40
3.1
100
AcDbArc
 50
18.819063
 51
43.464023
  0
ARC
  5
506
100
AcDbEntity
  8
1
  6
CONTINUOUS
 62
   250
100
AcDbCircle
 10
121.32692
 20
116.31154
 30
0.0
 40
3.1
100
AcDbArc
 50
198.81906
 51
223.46402
  0
LINE
  5
507
100
AcDbEntity
  8
1
  6
CONTINUOUS
 62
   250
100
AcDbLine
 10
116.32692
 20
205.31154
 30
0.0
 11
116.32692
 21
117.31154
 31
0.0
  0
LINE
  5
508
100
AcDbEntity
  8
1
  6
CONTINUOUS
 62
   250
100
AcDbLine
 10
186.32692
 20
205.31154
 30
0.0
 11
186.32692
 21
117.31154
 31
0.0
  0
LINE
  5
509
100
AcDbEntity
  8
1
  6
CONTINUOUS
 62
   250
100
AcDbLine
 10
174.02345
 20
213.50718
 30
0.0
 11
172.76681
 21
212.01608
 31
0.0
  0
LINE
  5
50A
100
AcDbEntity
  8
1
  6
CONTINUOUS
 62
   250
100
AcDbLine
 10
174.67846
 20
210.40501
 30
0.0
 11
173.53147
 21
211.37165
 31
0.0
  0
ARC
  5
50B
100
AcDbEntity
  8
1
  6
CONTINUOUS
 62
   250
100
AcDbCircle
 10
118.32692
 20
205.31154
 30
0.0
 40
2.0
100
AcDbArc
 50
90.0
 51
180.0
  0
ARC
  5
50C
100
AcDbEntity
  8
1
  6
CONTINUOUS
 62
   250
100
AcDbCircle
 10
184.32692
 20
205.31154
 30
0.0
 40
2.0
100
AcDbArc
 50
0.0
 51
90.0
  0
ARC
  5
50D
100
AcDbEntity
  8
1
  6
CONTINUOUS
 62
   250
100
AcDbCircle
 10
184.32692
 20
117.31154
 30
0.0
 40
2.0
100
AcDbArc
 50
270.0
 51
0.0
  0
ARC
  5
50E
100
AcDbEntity
  8
1
  6
CONTINUOUS
 62
   250
100
AcDbCircle
 10
118.32692
 20
117.31154
 30
0.0
 40
2.0
100
AcDbArc
 50
180.0
 51
270.0
  0
LINE
  5
50F
100
AcDbEntity
  8
1
  6
CONTINUOUS
 62
   250
100
AcDbLine
 10
174.03403
 20
209.64035
 30
0.0
 11
172.88704
 21
210.60699
 31
0.0
  0
LINE
  5
510
100
AcDbEntity
  8
1
  6
CONTINUOUS
 62
   250
100
AcDbLine
 10
259.38461
 20
166.98846
 30
0.0
 11
262.03461
 21
166.98846
 31
0.0
  0
TEXT
  5
511
100
AcDbEntity
  8
1
  6
CONTINUOUS
 62
   250
100
AcDbText
 10
255.771323
 20
17.117367
 30
0.0
 40
2.5
  1
encombrement-perçage
 41
0.75
 11
255.771323
 21
18.367367
 31
0.0
100
AcDbText
 73
     2
  0
LINE
  5
512
100
AcDbEntity
  8
1
  6
CONTINUOUS
 62
   250
100
AcDbLine
 10
259.38461
 20
172.08846
 30
0.0
 11
262.03461
 21
172.08846
 31
0.0
  0
LINE
  5
513
100
AcDbEntity
  8
1
  6
CONTINUOUS
 62
   250
100
AcDbLine
 10
262.03461
 20
166.98846
 30
0.0
 11
262.03461
 21
106.03846
 31
0.0
  0
LINE
  5
514
100
AcDbEntity
  8
1
  6
CONTINUOUS
 62
   250
100
AcDbLine
 10
246.03462
 20
149.03846
 30
0.0
 11
262.03461
 21
149.03846
 31
0.0
  0
ARC
  5
515
100
AcDbEntity
  8
1
  6
CONTINUOUS
 62
   250
100
AcDbCircle
 10
174.35625
 20
210.02268
 30
0.0
 40
0.5
100
AcDbArc
 50
229.87699
 51
49.87699
  0
CIRCLE
  5
516
100
AcDbEntity
  8
1
  6
CONTINUOUS
 62
   250
100
AcDbCircle
 10
173.32692
 20
197.31154
 30
0.0
 40
3.5
  0
LINE
  5
517
100
AcDbEntity
  8
1
  6
CONTINUOUS
 62
   250
100
AcDbLine
 10
246.03462
 20
144.53846
 30
0.0
 11
262.03461
 21
144.53846
 31
0.0
  0
LINE
  5
518
100
AcDbEntity
  8
1
  6
CONTINUOUS
 62
   250
100
AcDbLine
 10
246.03462
 20
149.03846
 30
0.0
 11
246.03462
 21
144.53846
 31
0.0
  0
CIRCLE
  5
519
100
AcDbEntity
  8
1
  6
CONTINUOUS
 62
   250
100
AcDbCircle
 10
151.32692
 20
197.31154
 30
0.0
 40
3.5
  0
ARC
  5
51A
100
AcDbEntity
  8
1
  6
CONTINUOUS
 62
   250
100
AcDbCircle
 10
171.2976
 20
212.6004
 30
0.0
 40
0.5
100
AcDbArc
 50
49.87699
 51
229.87699
  0
LINE
  5
51B
100
AcDbEntity
  8
1
  6
CONTINUOUS
 62
   250
100
AcDbLine
 10
289.53461
 20
164.53846
 30
0.0
 11
272.53461
 21
164.53846
 31
0.0
  0
CIRCLE
  5
51C
100
AcDbEntity
  8
1
  6
CONTINUOUS
 62
   250
100
AcDbCircle
 10
129.32692
 20
197.31154
 30
0.0
 40
3.5
  0
LINE
  5
51D
100
AcDbEntity
  8
1
  6
CONTINUOUS
 62
   250
100
AcDbLine
 10
272.53461
 20
164.53846
 30
0.0
 11
272.53461
 21
157.53846
 31
0.0
  0
ARC
  5
51E
100
AcDbEntity
  8
1
  6
CONTINUOUS
 62
   250
100
AcDbCircle
 10
174.40578
 20
213.18496
 30
0.0
 40
0.5
100
AcDbArc
 50
319.87699
 51
139.87699
  0
CIRCLE
  5
51F
100
AcDbEntity
  8
1
  6
CONTINUOUS
 62
   250
100
AcDbCircle
 10
173.32692
 20
125.31154
 30
0.0
 40
3.5
  0
LINE
  5
520
100
AcDbEntity
  8
1
  6
CONTINUOUS
 62
   250
100
AcDbLine
 10
275.53461
 20
164.53846
 30
0.0
 11
275.53461
 21
157.53846
 31
0.0
  0
ARC
  5
521
100
AcDbEntity
  8
1
  6
CONTINUOUS
 62
   250
100
AcDbCircle
 10
171.24807
 20
209.43811
 30
0.0
 40
0.5
100
AcDbArc
 50
139.87699
 51
319.87699
  0
CIRCLE
  5
522
100
AcDbEntity
  8
1
  6
CONTINUOUS
 62
   250
100
AcDbCircle
 10
151.32692
 20
125.31154
 30
0.0
 40
3.5
  0
LINE
  5
523
100
AcDbEntity
  8
1
  6
CONTINUOUS
 62
   250
100
AcDbLine
 10
172.12238
 20
211.25142
 30
0.0
 11
170.86574
 21
209.76033
 31
0.0
  0
LINE
  5
524
100
AcDbEntity
  8
1
  6
CONTINUOUS
 62
   250
100
AcDbLine
 10
172.88704
 20
210.60699
 30
0.0
 11
171.6304
 21
209.1159
 31
0.0
  0
CIRCLE
  5
525
100
AcDbEntity
  8
1
  6
CONTINUOUS
 62
   250
100
AcDbCircle
 10
129.32692
 20
125.31154
 30
0.0
 40
3.5
  0
LINE
  5
526
100
AcDbEntity
  8
1
  6
CONTINUOUS
 62
   250
100
AcDbLine
 10
172.76681
 20
212.01608
 30
0.0
 11
171.61981
 21
212.98273
 31
0.0
  0
LINE
  5
527
100
AcDbEntity
  8
1
  6
CONTINUOUS
 62
   250
100
AcDbLine
 10
183.32692
 20
156.61154
 30
0.0
 11
172.82692
 21
156.61154
 31
0.0
  0
LINE
  5
528
100
AcDbEntity
  8
1
  6
CONTINUOUS
 62
   250
100
AcDbLine
 10
183.32692
 20
165.21154
 30
0.0
 11
172.82692
 21
165.21154
 31
0.0
  0
LINE
  5
529
100
AcDbEntity
  8
1
  6
CONTINUOUS
 62
   250
100
AcDbLine
 10
183.32692
 20
165.21154
 30
0.0
 11
183.32692
 21
156.61154
 31
0.0
  0
LINE
  5
52A
100
AcDbEntity
  8
1
  6
CONTINUOUS
 62
   250
100
AcDbLine
 10
119.32692
 20
165.21154
 30
0.0
 11
119.32692
 21
156.61154
 31
0.0
  0
CIRCLE
  5
52B
100
AcDbEntity
  8
1
  6
CONTINUOUS
 62
   250
100
AcDbCircle
 10
206.61924
 20
149.01826
 30
0.0
 40
2.5
  0
LINE
  5
52C
100
AcDbEntity
  8
1
  6
CONTINUOUS
 62
   250
100
AcDbLine
 10
129.82692
 20
165.21154
 30
0.0
 11
119.32692
 21
165.21154
 31
0.0
  0
LINE
  5
52D
100
AcDbEntity
  8
1
  6
CONTINUOUS
 62
   250
100
AcDbLine
 10
129.82692
 20
156.61154
 30
0.0
 11
119.32692
 21
156.61154
 31
0.0
  0
LINE
  5
52F
100
AcDbEntity
  8
1
  6
CONTINUOUS
 62
   250
100
AcDbLine
 10
172.12238
 20
211.25142
 30
0.0
 11
170.97538
 21
212.21807
 31
0.0
  0
LINE
  5
530
100
AcDbEntity
  8
1
  6
CONTINUOUS
 62
   250
100
AcDbLine
 10
131.78811
 20
212.86275
 30
0.0
 11
130.53147
 21
211.37165
 31
0.0
  0
LINE
  5
531
100
AcDbEntity
  8
1
  6
CONTINUOUS
 62
   250
100
AcDbLine
 10
131.02345
 20
213.50718
 30
0.0
 11
129.76681
 21
212.01608
 31
0.0
  0
LINE
  5
532
100
AcDbEntity
  8
1
  6
CONTINUOUS
 62
   250
100
AcDbLine
 10
131.67846
 20
210.40501
 30
0.0
 11
130.53147
 21
211.37165
 31
0.0
  0
LINE
  5
533
100
AcDbEntity
  8
1
  6
CONTINUOUS
 62
   250
100
AcDbLine
 10
131.03403
 20
209.64035
 30
0.0
 11
129.88704
 21
210.60699
 31
0.0
  0
ARC
  5
534
100
AcDbEntity
  8
1
  6
CONTINUOUS
 62
   250
100
AcDbCircle
 10
131.35625
 20
210.02268
 30
0.0
 40
0.5
100
AcDbArc
 50
229.87699
 51
49.87699
  0
LINE
  5
535
100
AcDbEntity
  8
1
  6
CONTINUOUS
 62
   250
100
AcDbLine
 10
181.02692
 20
155.81154
 30
0.0
 11
174.62692
 21
155.81154
 31
0.0
  0
LINE
  5
536
100
AcDbEntity
  8
1
  6
CONTINUOUS
 62
   250
100
AcDbLine
 10
181.02692
 20
147.31154
 30
0.0
 11
174.62692
 21
147.31154
 31
0.0
  0
LINE
  5
537
100
AcDbEntity
  8
1
  6
CONTINUOUS
 62
   250
100
AcDbLine
 10
121.62692
 20
155.81154
 30
0.0
 11
121.62692
 21
147.31154
 31
0.0
  0
LINE
  5
538
100
AcDbEntity
  8
1
  6
CONTINUOUS
 62
   250
100
AcDbLine
 10
128.02692
 20
155.81154
 30
0.0
 11
128.02692
 21
147.31154
 31
0.0
  0
TEXT
  5
539
100
AcDbEntity
  8
1
  6
CONTINUOUS
 62
   250
100
AcDbText
 10
205.20344
 20
147.66271
 30
0.0
 40
3.0
  1
A
100
AcDbText
  0
LINE
  5
53A
100
AcDbEntity
  8
1
  6
CONTINUOUS
 62
   250
100
AcDbLine
 10
174.62692
 20
155.81154
 30
0.0
 11
174.62692
 21
147.31154
 31
0.0
  0
LINE
  5
53B
100
AcDbEntity
  8
1
  6
CONTINUOUS
 62
   250
100
AcDbLine
 10
181.02692
 20
155.81154
 30
0.0
 11
181.02692
 21
147.31154
 31
0.0
  0
LINE
  5
53C
100
AcDbEntity
  8
1
  6
CONTINUOUS
 62
   250
100
AcDbLine
 10
128.02692
 20
155.81154
 30
0.0
 11
121.62692
 21
155.81154
 31
0.0
  0
LINE
  5
53D
100
AcDbEntity
  8
1
  6
CONTINUOUS
 62
   250
100
AcDbLine
 10
128.02692
 20
147.31154
 30
0.0
 11
121.62692
 21
147.31154
 31
0.0
  0
LINE
  5
53E
100
AcDbEntity
  8
1
  6
CONTINUOUS
 62
   250
100
AcDbLine
 10
121.62692
 20
155.81154
 30
0.0
 11
122.47545
 21
154.96301
 31
0.0
  0
LINE
  5
53F
100
AcDbEntity
  8
1
  6
CONTINUOUS
 62
   250
100
AcDbLine
 10
128.02692
 20
155.81154
 30
0.0
 11
127.17839
 21
154.96301
 31
0.0
  0
LINE
  5
540
100
AcDbEntity
  8
1
  6
CONTINUOUS
 62
   250
100
AcDbLine
 10
121.62692
 20
147.31154
 30
0.0
 11
122.47545
 21
148.16007
 31
0.0
  0
LINE
  5
541
100
AcDbEntity
  8
1
  6
CONTINUOUS
 62
   250
100
AcDbLine
 10
128.02692
 20
147.31154
 30
0.0
 11
127.17839
 21
148.16007
 31
0.0
  0
LINE
  5
542
100
AcDbEntity
  8
1
  6
CONTINUOUS
 62
   250
100
AcDbLine
 10
174.62692
 20
155.81154
 30
0.0
 11
175.47545
 21
154.96301
 31
0.0
  0
LINE
  5
543
100
AcDbEntity
  8
1
  6
CONTINUOUS
 62
   250
100
AcDbLine
 10
181.02692
 20
155.81154
 30
0.0
 11
180.17839
 21
154.96301
 31
0.0
  0
LINE
  5
544
100
AcDbEntity
  8
1
  6
CONTINUOUS
 62
   250
100
AcDbLine
 10
181.02692
 20
147.31154
 30
0.0
 11
180.17839
 21
148.16007
 31
0.0
  0
LINE
  5
545
100
AcDbEntity
  8
1
  6
CONTINUOUS
 62
   250
100
AcDbLine
 10
174.62692
 20
147.31154
 30
0.0
 11
175.47545
 21
148.16007
 31
0.0
  0
LINE
  5
546
100
AcDbEntity
  8
1
  6
CONTINUOUS
 62
   250
100
AcDbLine
 10
186.32692
 20
137.31154
 30
0.0
 11
116.32692
 21
137.31154
 31
0.0
  0
LINE
  5
547
100
AcDbEntity
  8
1
  6
CONTINUOUS
 62
   250
100
AcDbLine
 10
116.32692
 20
137.31154
 30
0.0
 11
117.17545
 21
138.16007
 31
0.0
  0
LINE
  5
548
100
AcDbEntity
  8
1
  6
CONTINUOUS
 62
   250
100
AcDbLine
 10
186.32692
 20
137.31154
 30
0.0
 11
185.47839
 21
138.16007
 31
0.0
  0
LINE
  5
549
100
AcDbEntity
  8
1
  6
CONTINUOUS
 62
   250
100
AcDbLine
 10
186.32692
 20
179.31154
 30
0.0
 11
182.72692
 21
179.31154
 31
0.0
  0
LINE
  5
54A
100
AcDbEntity
  8
1
  6
CONTINUOUS
 62
   250
100
AcDbLine
 10
181.72692
 20
175.31154
 30
0.0
 11
173.92692
 21
175.31154
 31
0.0
  0
ARC
  5
54B
100
AcDbEntity
  8
1
  6
CONTINUOUS
 62
   250
100
AcDbCircle
 10
128.2976
 20
212.6004
 30
0.0
 40
0.5
100
AcDbArc
 50
49.87699
 51
229.87699
  0
ARC
  5
54C
100
AcDbEntity
  8
1
  6
CONTINUOUS
 62
   250
100
AcDbCircle
 10
131.40578
 20
213.18496
 30
0.0
 40
0.5
100
AcDbArc
 50
319.87699
 51
139.87699
  0
ARC
  5
54D
100
AcDbEntity
  8
1
  6
CONTINUOUS
 62
   250
100
AcDbCircle
 10
128.24807
 20
209.43811
 30
0.0
 40
0.5
100
AcDbArc
 50
139.87699
 51
319.87699
  0
LINE
  5
54E
100
AcDbEntity
  8
1
  6
CONTINUOUS
 62
   250
100
AcDbLine
 10
129.12238
 20
211.25142
 30
0.0
 11
127.86574
 21
209.76033
 31
0.0
  0
LINE
  5
54F
100
AcDbEntity
  8
1
  6
CONTINUOUS
 62
   250
100
AcDbLine
 10
129.88704
 20
210.60699
 30
0.0
 11
128.6304
 21
209.1159
 31
0.0
  0
LINE
  5
550
100
AcDbEntity
  8
1
  6
CONTINUOUS
 62
   250
100
AcDbLine
 10
129.76681
 20
212.01608
 30
0.0
 11
128.61981
 21
212.98273
 31
0.0
  0
LINE
  5
551
100
AcDbEntity
  8
1
  6
CONTINUOUS
 62
   250
100
AcDbLine
 10
120.92692
 20
178.31154
 30
0.0
 11
120.92692
 21
175.31154
 31
0.0
  0
LINE
  5
552
100
AcDbEntity
  8
1
  6
CONTINUOUS
 62
   250
100
AcDbLine
 10
128.72692
 20
177.01154
 30
0.0
 11
128.72692
 21
175.31154
 31
0.0
  0
LINE
  5
553
100
AcDbEntity
  8
1
  6
CONTINUOUS
 62
   250
100
AcDbLine
 10
173.92692
 20
177.01154
 30
0.0
 11
173.92692
 21
175.31154
 31
0.0
  0
LINE
  5
554
100
AcDbEntity
  8
1
  6
CONTINUOUS
 62
   250
100
AcDbLine
 10
181.72692
 20
178.31154
 30
0.0
 11
181.72692
 21
175.31154
 31
0.0
  0
LINE
  5
555
100
AcDbEntity
  8
1
  6
CONTINUOUS
 62
   250
100
AcDbLine
 10
129.12238
 20
211.25142
 30
0.0
 11
127.97538
 21
212.21807
 31
0.0
  0
LINE
  5
556
100
AcDbEntity
  8
1
  6
CONTINUOUS
 62
   250
100
AcDbLine
 10
129.82692
 20
177.31154
 30
0.0
 11
129.02692
 21
177.31154
 31
0.0
  0
LINE
  5
557
100
AcDbEntity
  8
1
  6
CONTINUOUS
 62
   250
100
AcDbLine
 10
173.62692
 20
177.31154
 30
0.0
 11
172.82692
 21
177.31154
 31
0.0
  0
LINE
  5
558
100
AcDbEntity
  8
1
  6
CONTINUOUS
 62
   250
100
AcDbLine
 10
119.92692
 20
179.31154
 30
0.0
 11
116.32692
 21
179.31154
 31
0.0
  0
LINE
  5
559
100
AcDbEntity
  8
1
  6
CONTINUOUS
 62
   250
100
AcDbLine
 10
128.72692
 20
175.31154
 30
0.0
 11
120.92692
 21
175.31154
 31
0.0
  0
ARC
  5
55A
100
AcDbEntity
  8
1
  6
CONTINUOUS
 62
   250
100
AcDbCircle
 10
129.02692
 20
177.01154
 30
0.0
 40
0.3
100
AcDbArc
 50
90.0
 51
180.0
  0
ARC
  5
55B
100
AcDbEntity
  8
1
  6
CONTINUOUS
 62
   250
100
AcDbCircle
 10
173.62692
 20
177.01154
 30
0.0
 40
0.3
100
AcDbArc
 50
0.0
 51
90.0
  0
ARC
  5
55C
100
AcDbEntity
  8
1
  6
CONTINUOUS
 62
   250
100
AcDbCircle
 10
182.72692
 20
178.31154
 30
0.0
 40
1.0
100
AcDbArc
 50
90.0
 51
180.0
  0
ARC
  5
55D
100
AcDbEntity
  8
1
  6
CONTINUOUS
 62
   250
100
AcDbCircle
 10
119.92692
 20
178.31154
 30
0.0
 40
1.0
100
AcDbArc
 50
0.0
 51
90.0
  0
LINE
  5
55E
100
AcDbEntity
  8
1
  6
CONTINUOUS
 62
   250
100
AcDbLine
 10
186.32692
 20
179.31154
 30
0.0
 11
185.47839
 21
178.46301
 31
0.0
  0
LINE
  5
55F
100
AcDbEntity
  8
1
  6
CONTINUOUS
 62
   250
100
AcDbLine
 10
116.32692
 20
179.31154
 30
0.0
 11
117.17545
 21
178.46301
 31
0.0
  0
LINE
  5
560
100
AcDbEntity
  8
1
  6
CONTINUOUS
 62
   250
100
AcDbLine
 10
181.72692
 20
175.31154
 30
0.0
 11
182.92692
 21
175.31154
 31
0.0
  0
LINE
  5
561
100
AcDbEntity
  8
1
  6
CONTINUOUS
 62
   250
100
AcDbLine
 10
120.92692
 20
175.31154
 30
0.0
 11
119.72692
 21
175.31154
 31
0.0
  0
LINE
  5
562
100
AcDbEntity
  8
1
  6
CONTINUOUS
 62
   250
100
AcDbLine
 10
179.82692
 20
172.81154
 30
0.0
 11
175.82692
 21
172.81154
 31
0.0
  0
LINE
  5
563
100
AcDbEntity
  8
1
  6
CONTINUOUS
 62
   250
100
AcDbLine
 10
179.82692
 20
170.71154
 30
0.0
 11
175.82692
 21
170.71154
 31
0.0
  0
LINE
  5
564
100
AcDbEntity
  8
1
  6
CONTINUOUS
 62
   250
100
AcDbLine
 10
122.82692
 20
172.81154
 30
0.0
 11
122.82692
 21
170.71154
 31
0.0
  0
LINE
  5
565
100
AcDbEntity
  8
1
  6
CONTINUOUS
 62
   250
100
AcDbLine
 10
126.82692
 20
172.81154
 30
0.0
 11
126.82692
 21
170.71154
 31
0.0
  0
LINE
  5
566
100
AcDbEntity
  8
1
  6
CONTINUOUS
 62
   250
100
AcDbLine
 10
175.82692
 20
172.81154
 30
0.0
 11
175.82692
 21
170.71154
 31
0.0
  0
LINE
  5
567
100
AcDbEntity
  8
1
  6
CONTINUOUS
 62
   250
100
AcDbLine
 10
179.82692
 20
172.81154
 30
0.0
 11
179.82692
 21
170.71154
 31
0.0
  0
LINE
  5
568
100
AcDbEntity
  8
1
  6
CONTINUOUS
 62
   250
100
AcDbLine
 10
126.82692
 20
172.81154
 30
0.0
 11
122.82692
 21
172.81154
 31
0.0
  0
LINE
  5
569
100
AcDbEntity
  8
1
  6
CONTINUOUS
 62
   250
100
AcDbLine
 10
126.82692
 20
170.71154
 30
0.0
 11
122.82692
 21
170.71154
 31
0.0
  0
LINE
  5
56A
100
AcDbEntity
  8
1
  6
CONTINUOUS
 62
   250
100
AcDbLine
 10
142.28811
 20
191.36275
 30
0.0
 11
141.03147
 21
189.87165
 31
0.0
  0
LINE
  5
56B
100
AcDbEntity
  8
1
  6
CONTINUOUS
 62
   250
100
AcDbLine
 10
141.52345
 20
192.00718
 30
0.0
 11
140.26681
 21
190.51608
 31
0.0
  0
LINE
  5
56C
100
AcDbEntity
  8
1
  6
CONTINUOUS
 62
   250
100
AcDbLine
 10
136.82692
 20
207.31154
 30
0.0
 11
136.82692
 21
189.81154
 31
0.0
  0
LINE
  5
56D
100
AcDbEntity
  8
1
  6
CONTINUOUS
 62
   250
100
AcDbLine
 10
143.82692
 20
207.31154
 30
0.0
 11
143.82692
 21
189.81154
 31
0.0
  0
LINE
  5
56E
100
AcDbEntity
  8
1
  6
CONTINUOUS
 62
   250
100
AcDbLine
 10
158.82692
 20
132.81154
 30
0.0
 11
158.82692
 21
115.31154
 31
0.0
  0
LINE
  5
56F
100
AcDbEntity
  8
1
  6
CONTINUOUS
 62
   250
100
AcDbLine
 10
165.82692
 20
132.81154
 30
0.0
 11
165.82692
 21
115.31154
 31
0.0
  0
LINE
  5
570
100
AcDbEntity
  8
1
  6
CONTINUOUS
 62
   250
100
AcDbLine
 10
142.17846
 20
188.90501
 30
0.0
 11
141.03147
 21
189.87165
 31
0.0
  0
LINE
  5
571
100
AcDbEntity
  8
1
  6
CONTINUOUS
 62
   250
100
AcDbLine
 10
141.53403
 20
188.14035
 30
0.0
 11
140.38704
 21
189.10699
 31
0.0
  0
ARC
  5
572
100
AcDbEntity
  8
1
  6
CONTINUOUS
 62
   250
100
AcDbCircle
 10
141.85625
 20
188.52268
 30
0.0
 40
0.5
100
AcDbArc
 50
229.87699
 51
49.87699
  0
ARC
  5
573
100
AcDbEntity
  8
1
  6
CONTINUOUS
 62
   250
100
AcDbCircle
 10
138.7976
 20
191.1004
 30
0.0
 40
0.5
100
AcDbArc
 50
49.87699
 51
229.87699
  0
LINE
  5
574
100
AcDbEntity
  8
1
  6
CONTINUOUS
 62
   250
100
AcDbLine
 10
279.53461
 20
164.53846
 30
0.0
 11
279.53461
 21
157.53846
 31
0.0
  0
ARC
  5
575
100
AcDbEntity
  8
1
  6
CONTINUOUS
 62
   250
100
AcDbCircle
 10
141.90578
 20
191.68496
 30
0.0
 40
0.5
100
AcDbArc
 50
319.87699
 51
139.87699
  0
ARC
  5
576
100
AcDbEntity
  8
1
  6
CONTINUOUS
 62
   250
100
AcDbCircle
 10
138.74807
 20
187.93811
 30
0.0
 40
0.5
100
AcDbArc
 50
139.87699
 51
319.87699
  0
LINE
  5
577
100
AcDbEntity
  8
1
  6
CONTINUOUS
 62
   250
100
AcDbLine
 10
284.53461
 20
164.53846
 30
0.0
 11
284.53461
 21
157.53846
 31
0.0
  0
LINE
  5
578
100
AcDbEntity
  8
1
  6
CONTINUOUS
 62
   250
100
AcDbLine
 10
139.62238
 20
189.75142
 30
0.0
 11
138.36574
 21
188.26033
 31
0.0
  0
LINE
  5
579
100
AcDbEntity
  8
1
  6
CONTINUOUS
 62
   250
100
AcDbLine
 10
140.38704
 20
189.10699
 30
0.0
 11
139.1304
 21
187.6159
 31
0.0
  0
ARC
  5
57A
100
AcDbEntity
  8
1
  6
CONTINUOUS
 62
   250
100
AcDbCircle
 10
162.32692
 20
132.81154
 30
0.0
 40
3.5
100
AcDbArc
 50
0.0
 51
180.0
  0
LINE
  5
57B
100
AcDbEntity
  8
1
  6
CONTINUOUS
 62
   250
100
AcDbLine
 10
140.26681
 20
190.51608
 30
0.0
 11
139.11981
 21
191.48273
 31
0.0
  0
LINE
  5
57C
100
AcDbEntity
  8
1
  6
CONTINUOUS
 62
   250
100
AcDbLine
 10
139.62238
 20
189.75142
 30
0.0
 11
138.47538
 21
190.71807
 31
0.0
  0
ARC
  5
57D
100
AcDbEntity
  8
1
  6
CONTINUOUS
 62
   250
100
AcDbCircle
 10
140.32692
 20
189.81154
 30
0.0
 40
3.5
100
AcDbArc
 50
180.0
 51
0.0
  0
LINE
  5
57E
100
AcDbEntity
  8
1
  6
CONTINUOUS
 62
   250
100
AcDbLine
 10
164.28811
 20
134.36275
 30
0.0
 11
163.03147
 21
132.87165
 31
0.0
  0
LINE
  5
57F
100
AcDbEntity
  8
1
  6
CONTINUOUS
 62
   250
100
AcDbLine
 10
288.53461
 20
164.53846
 30
0.0
 11
288.53461
 21
157.53846
 31
0.0
  0
LINE
  5
580
100
AcDbEntity
  8
1
  6
CONTINUOUS
 62
   250
100
AcDbLine
 10
259.03461
 20
149.03846
 30
0.0
 11
259.03461
 21
144.53846
 31
0.0
  0
LINE
  5
581
100
AcDbEntity
  8
1
  6
CONTINUOUS
 62
   250
100
AcDbLine
 10
255.03462
 20
149.03846
 30
0.0
 11
255.03462
 21
144.53846
 31
0.0
  0
LINE
  5
582
100
AcDbEntity
  8
1
  6
CONTINUOUS
 62
   250
100
AcDbLine
 10
254.03462
 20
149.03846
 30
0.0
 11
254.03462
 21
144.53846
 31
0.0
  0
LINE
  5
583
100
AcDbEntity
  8
1
  6
CONTINUOUS
 62
   250
100
AcDbLine
 10
252.03462
 20
149.03846
 30
0.0
 11
252.03462
 21
144.53846
 31
0.0
  0
LINE
  5
584
100
AcDbEntity
  8
1
  6
CONTINUOUS
 62
   250
100
AcDbLine
 10
163.52345
 20
135.00718
 30
0.0
 11
162.26681
 21
133.51608
 31
0.0
  0
LINE
  5
585
100
AcDbEntity
  8
1
  6
CONTINUOUS
 62
   250
100
AcDbLine
 10
319.88461
 20
178.53846
 30
0.0
 11
319.88461
 21
164.43846
 31
0.0
  0
LINE
  5
586
100
AcDbEntity
  8
1
  6
CONTINUOUS
 62
   250
100
AcDbLine
 10
311.88461
 20
207.03846
 30
0.0
 11
315.18462
 21
207.03846
 31
0.0
  0
LINE
  5
587
100
AcDbEntity
  8
1
  6
CONTINUOUS
 62
   250
100
AcDbLine
 10
164.17846
 20
131.90501
 30
0.0
 11
163.03147
 21
132.87165
 31
0.0
  0
LINE
  5
588
100
AcDbEntity
  8
1
  6
CONTINUOUS
 62
   250
100
AcDbLine
 10
163.53403
 20
131.14035
 30
0.0
 11
162.38704
 21
132.10699
 31
0.0
  0
ARC
  5
589
100
AcDbEntity
  8
1
  6
CONTINUOUS
 62
   250
100
AcDbCircle
 10
163.85625
 20
131.52268
 30
0.0
 40
0.5
100
AcDbArc
 50
229.87699
 51
49.87699
  0
ARC
  5
58A
100
AcDbEntity
  8
1
  6
CONTINUOUS
 62
   250
100
AcDbCircle
 10
160.7976
 20
134.1004
 30
0.0
 40
0.5
100
AcDbArc
 50
49.87699
 51
229.87699
  0
ARC
  5
58B
100
AcDbEntity
  8
1
  6
CONTINUOUS
 62
   250
100
AcDbCircle
 10
163.90578
 20
134.68496
 30
0.0
 40
0.5
100
AcDbArc
 50
319.87699
 51
139.87699
  0
ARC
  5
58C
100
AcDbEntity
  8
1
  6
CONTINUOUS
 62
   250
100
AcDbCircle
 10
160.74807
 20
130.93811
 30
0.0
 40
0.5
100
AcDbArc
 50
139.87699
 51
319.87699
  0
LINE
  5
58D
100
AcDbEntity
  8
1
  6
CONTINUOUS
 62
   250
100
AcDbLine
 10
161.62238
 20
132.75142
 30
0.0
 11
160.36574
 21
131.26033
 31
0.0
  0
LINE
  5
58E
100
AcDbEntity
  8
1
  6
CONTINUOUS
 62
   250
100
AcDbLine
 10
162.38704
 20
132.10699
 30
0.0
 11
161.1304
 21
130.6159
 31
0.0
  0
LINE
  5
58F
100
AcDbEntity
  8
1
  6
CONTINUOUS
 62
   250
100
AcDbLine
 10
162.26681
 20
133.51608
 30
0.0
 11
161.11981
 21
134.48273
 31
0.0
  0
LINE
  5
590
100
AcDbEntity
  8
1
  6
CONTINUOUS
 62
   250
100
AcDbLine
 10
161.62238
 20
132.75142
 30
0.0
 11
160.47538
 21
133.71807
 31
0.0
  0
LINE
  5
591
100
AcDbEntity
  8
1
  6
CONTINUOUS
 62
   250
100
AcDbLine
 10
153.28811
 20
112.86275
 30
0.0
 11
152.03147
 21
111.37165
 31
0.0
  0
LINE
  5
592
100
AcDbEntity
  8
1
  6
CONTINUOUS
 62
   250
100
AcDbLine
 10
152.52345
 20
113.50718
 30
0.0
 11
151.26681
 21
112.01608
 31
0.0
  0
LINE
  5
593
100
AcDbEntity
  8
1
  6
CONTINUOUS
 62
   250
100
AcDbLine
 10
153.17846
 20
110.40501
 30
0.0
 11
152.03147
 21
111.37165
 31
0.0
  0
LINE
  5
594
100
AcDbEntity
  8
1
  6
CONTINUOUS
 62
   250
100
AcDbLine
 10
152.53403
 20
109.64035
 30
0.0
 11
151.38704
 21
110.60699
 31
0.0
  0
ARC
  5
595
100
AcDbEntity
  8
1
  6
CONTINUOUS
 62
   250
100
AcDbCircle
 10
152.85625
 20
110.02268
 30
0.0
 40
0.5
100
AcDbArc
 50
229.87699
 51
49.87699
  0
ARC
  5
596
100
AcDbEntity
  8
1
  6
CONTINUOUS
 62
   250
100
AcDbCircle
 10
149.7976
 20
112.6004
 30
0.0
 40
0.5
100
AcDbArc
 50
49.87699
 51
229.87699
  0
ARC
  5
597
100
AcDbEntity
  8
1
  6
CONTINUOUS
 62
   250
100
AcDbCircle
 10
152.90578
 20
113.18496
 30
0.0
 40
0.5
100
AcDbArc
 50
319.87699
 51
139.87699
  0
ARC
  5
598
100
AcDbEntity
  8
1
  6
CONTINUOUS
 62
   250
100
AcDbCircle
 10
149.74807
 20
109.43811
 30
0.0
 40
0.5
100
AcDbArc
 50
139.87699
 51
319.87699
  0
LINE
  5
599
100
AcDbEntity
  8
1
  6
CONTINUOUS
 62
   250
100
AcDbLine
 10
150.62238
 20
111.25142
 30
0.0
 11
149.36574
 21
109.76033
 31
0.0
  0
LINE
  5
59A
100
AcDbEntity
  8
1
  6
CONTINUOUS
 62
   250
100
AcDbLine
 10
151.38704
 20
110.60699
 30
0.0
 11
150.1304
 21
109.1159
 31
0.0
  0
LINE
  5
59B
100
AcDbEntity
  8
1
  6
CONTINUOUS
 62
   250
100
AcDbLine
 10
151.26681
 20
112.01608
 30
0.0
 11
150.11981
 21
112.98273
 31
0.0
  0
LINE
  5
59C
100
AcDbEntity
  8
1
  6
CONTINUOUS
 62
   250
100
AcDbLine
 10
150.62238
 20
111.25142
 30
0.0
 11
149.47538
 21
112.21807
 31
0.0
  0
LINE
  5
59D
100
AcDbEntity
  8
1
  6
CONTINUOUS
 62
   250
100
AcDbLine
 10
311.88461
 20
115.03846
 30
0.0
 11
315.18462
 21
115.03846
 31
0.0
  0
LINE
  5
59E
100
AcDbEntity
  8
1
  6
CONTINUOUS
 62
   250
100
AcDbLine
 10
316.68462
 20
137.03846
 30
0.0
 11
319.38461
 21
137.03846
 31
0.0
  0
LINE
  5
59F
100
AcDbEntity
  8
1
  6
CONTINUOUS
 62
   250
100
AcDbLine
 10
316.68462
 20
179.03846
 30
0.0
 11
319.38461
 21
179.03846
 31
0.0
  0
ARC
  5
5A0
100
AcDbEntity
  8
1
  6
CONTINUOUS
 62
   250
100
AcDbCircle
 10
319.38461
 20
178.53846
 30
0.0
 40
0.5
100
AcDbArc
 50
0.0
 51
90.0
  0
ARC
  5
5A1
100
AcDbEntity
  8
1
  6
CONTINUOUS
 62
   250
100
AcDbCircle
 10
319.38461
 20
137.53846
 30
0.0
 40
0.5
100
AcDbArc
 50
270.0
 51
0.0
  0
LINE
  5
5A2
100
AcDbEntity
  8
1
  6
CONTINUOUS
 62
   250
100
AcDbLine
 10
316.18462
 20
206.03846
 30
0.0
 11
316.18462
 21
179.53846
 31
0.0
  0
LINE
  5
5A3
100
AcDbEntity
  8
1
  6
CONTINUOUS
 62
   250
100
AcDbLine
 10
316.18462
 20
136.53846
 30
0.0
 11
316.18462
 21
116.03846
 31
0.0
  0
ARC
  5
5A4
100
AcDbEntity
  8
1
  6
CONTINUOUS
 62
   250
100
AcDbCircle
 10
316.68462
 20
179.53846
 30
0.0
 40
0.5
100
AcDbArc
 50
180.0
 51
270.0
  0
ARC
  5
5A5
100
AcDbEntity
  8
1
  6
CONTINUOUS
 62
   250
100
AcDbCircle
 10
316.68462
 20
136.53846
 30
0.0
 40
0.5
100
AcDbArc
 50
90.0
 51
180.0
  0
LINE
  5
5A6
100
AcDbEntity
  8
1
  6
CONTINUOUS
 62
   250
100
AcDbLine
 10
319.88461
 20
155.53846
 30
0.0
 11
325.88461
 21
155.53846
 31
0.0
  0
LINE
  5
5A7
100
AcDbEntity
  8
1
  6
CONTINUOUS
 62
   250
100
AcDbLine
 10
319.88461
 20
147.03846
 30
0.0
 11
325.88461
 21
147.03846
 31
0.0
  0
LINE
  5
5A8
100
AcDbEntity
  8
1
  6
CONTINUOUS
 62
   250
100
AcDbLine
 10
325.88461
 20
155.53846
 30
0.0
 11
325.88461
 21
147.03846
 31
0.0
  0
LINE
  5
5A9
100
AcDbEntity
  8
1
  6
CONTINUOUS
 62
   250
100
AcDbLine
 10
322.93462
 20
155.53846
 30
0.0
 11
322.93462
 21
147.03846
 31
0.0
  0
LINE
  5
5AA
100
AcDbEntity
  8
1
  6
CONTINUOUS
 62
   250
100
AcDbLine
 10
319.88461
 20
156.73846
 30
0.0
 11
326.18462
 21
156.73846
 31
0.0
  0
LINE
  5
5AB
100
AcDbEntity
  8
1
  6
CONTINUOUS
 62
   250
100
AcDbLine
 10
319.88461
 20
158.43846
 30
0.0
 11
322.68462
 21
158.43846
 31
0.0
  0
LINE
  5
5AC
100
AcDbEntity
  8
1
  6
CONTINUOUS
 62
   250
100
AcDbLine
 10
323.68462
 20
164.43846
 30
0.0
 11
325.68462
 21
164.43846
 31
0.0
  0
LINE
  5
5AD
100
AcDbEntity
  8
1
  6
CONTINUOUS
 62
   250
100
AcDbLine
 10
326.18462
 20
156.73846
 30
0.0
 11
326.18462
 21
163.93846
 31
0.0
  0
LINE
  5
5AE
100
AcDbEntity
  8
1
  6
CONTINUOUS
 62
   250
100
AcDbLine
 10
323.18462
 20
158.93846
 30
0.0
 11
323.18462
 21
163.93846
 31
0.0
  0
ARC
  5
5AF
100
AcDbEntity
  8
1
  6
CONTINUOUS
 62
   250
100
AcDbCircle
 10
323.68462
 20
163.93846
 30
0.0
 40
0.5
100
AcDbArc
 50
90.0
 51
180.0
  0
ARC
  5
5B0
100
AcDbEntity
  8
1
  6
CONTINUOUS
 62
   250
100
AcDbCircle
 10
325.68462
 20
163.93846
 30
0.0
 40
0.5
100
AcDbArc
 50
0.0
 51
90.0
  0
ARC
  5
5B1
100
AcDbEntity
  8
1
  6
CONTINUOUS
 62
   250
100
AcDbCircle
 10
322.68462
 20
158.93846
 30
0.0
 40
0.5
100
AcDbArc
 50
270.0
 51
0.0
  0
LINE
  5
5B2
100
AcDbEntity
  8
1
  6
CONTINUOUS
 62
   250
100
AcDbLine
 10
323.68462
 20
164.43846
 30
0.0
 11
319.88461
 21
164.43846
 31
0.0
  0
LINE
  5
5B3
100
AcDbEntity
  8
1
  6
CONTINUOUS
 62
   250
100
AcDbLine
 10
123.12692
 20
157.01154
 30
0.0
 11
126.52692
 21
157.01154
 31
0.0
  0
LINE
  5
5B4
100
AcDbEntity
  8
1
  6
CONTINUOUS
 62
   250
100
AcDbLine
 10
123.12692
 20
164.71154
 30
0.0
 11
126.52692
 21
164.71154
 31
0.0
  0
LINE
  5
5B5
100
AcDbEntity
  8
1
  6
CONTINUOUS
 62
   250
100
AcDbLine
 10
175.82692
 20
164.41154
 30
0.0
 11
175.82692
 21
157.31154
 31
0.0
  0
LINE
  5
5B6
100
AcDbEntity
  8
1
  6
CONTINUOUS
 62
   250
100
AcDbLine
 10
179.82692
 20
164.41154
 30
0.0
 11
179.82692
 21
157.31154
 31
0.0
  0
LINE
  5
5B7
100
AcDbEntity
  8
1
  6
CONTINUOUS
 62
   250
100
AcDbLine
 10
122.82692
 20
164.41154
 30
0.0
 11
122.82692
 21
157.31154
 31
0.0
  0
LINE
  5
5B8
100
AcDbEntity
  8
1
  6
CONTINUOUS
 62
   250
100
AcDbLine
 10
126.82692
 20
164.41154
 30
0.0
 11
126.82692
 21
157.31154
 31
0.0
  0
LINE
  5
5B9
100
AcDbEntity
  8
1
  6
CONTINUOUS
 62
   250
100
AcDbLine
 10
176.12692
 20
164.71154
 30
0.0
 11
179.52692
 21
164.71154
 31
0.0
  0
LINE
  5
5BA
100
AcDbEntity
  8
1
  6
CONTINUOUS
 62
   250
100
AcDbLine
 10
176.12692
 20
157.01154
 30
0.0
 11
179.52692
 21
157.01154
 31
0.0
  0
ARC
  5
5BB
100
AcDbEntity
  8
1
  6
CONTINUOUS
 62
   250
100
AcDbCircle
 10
123.12692
 20
157.31154
 30
0.0
 40
0.3
100
AcDbArc
 50
180.0
 51
270.0
  0
ARC
  5
5BC
100
AcDbEntity
  8
1
  6
CONTINUOUS
 62
   250
100
AcDbCircle
 10
126.52692
 20
157.31154
 30
0.0
 40
0.3
100
AcDbArc
 50
270.0
 51
0.0
  0
ARC
  5
5BD
100
AcDbEntity
  8
1
  6
CONTINUOUS
 62
   250
100
AcDbCircle
 10
123.12692
 20
164.41154
 30
0.0
 40
0.3
100
AcDbArc
 50
90.0
 51
180.0
  0
ARC
  5
5BE
100
AcDbEntity
  8
1
  6
CONTINUOUS
 62
   250
100
AcDbCircle
 10
126.52692
 20
164.41154
 30
0.0
 40
0.3
100
AcDbArc
 50
0.0
 51
90.0
  0
ARC
  5
5BF
100
AcDbEntity
  8
1
  6
CONTINUOUS
 62
   250
100
AcDbCircle
 10
176.12692
 20
164.41154
 30
0.0
 40
0.3
100
AcDbArc
 50
90.0
 51
180.0
  0
ARC
  5
5C0
100
AcDbEntity
  8
1
  6
CONTINUOUS
 62
   250
100
AcDbCircle
 10
176.12692
 20
157.31154
 30
0.0
 40
0.3
100
AcDbArc
 50
180.0
 51
270.0
  0
ARC
  5
5C1
100
AcDbEntity
  8
1
  6
CONTINUOUS
 62
   250
100
AcDbCircle
 10
179.52692
 20
157.31154
 30
0.0
 40
0.3
100
AcDbArc
 50
270.0
 51
0.0
  0
ARC
  5
5C2
100
AcDbEntity
  8
1
  6
CONTINUOUS
 62
   250
100
AcDbCircle
 10
179.52692
 20
164.41154
 30
0.0
 40
0.3
100
AcDbArc
 50
0.0
 51
90.0
  0
LINE
  5
5C3
100
AcDbEntity
  8
1
  6
CONTINUOUS
 62
   250
100
AcDbLine
 10
235.93462
 20
161.03846
 30
0.0
 11
224.03462
 21
161.03846
 31
0.0
  0
LINE
  5
5C4
100
AcDbEntity
  8
1
  6
HIDDEN
 62
   250
100
AcDbLine
 10
296.23462
 20
128.43846
 30
0.0
 11
306.93462
 21
128.43846
 31
0.0
  0
LINE
  5
5C5
100
AcDbEntity
  8
1
  6
HIDDEN
 62
   250
100
AcDbLine
 10
296.23462
 20
120.63846
 30
0.0
 11
306.93462
 21
120.63846
 31
0.0
  0
LINE
  5
5C6
100
AcDbEntity
  8
1
  6
CONTINUOUS
 62
   250
100
AcDbLine
 10
262.03461
 20
216.03846
 30
0.0
 11
262.03461
 21
198.03846
 31
0.0
  0
LINE
  5
5C7
100
AcDbEntity
  8
1
  6
HIDDEN
 62
   250
100
AcDbLine
 10
290.43462
 20
135.03846
 30
0.0
 11
290.43462
 21
116.73846
 31
0.0
  0
LINE
  5
5C8
100
AcDbEntity
  8
1
  6
HIDDEN
 62
   250
100
AcDbLine
 10
292.93462
 20
135.03846
 30
0.0
 11
292.93462
 21
116.73846
 31
0.0
  0
LINE
  5
5C9
100
AcDbEntity
  8
1
  6
HIDDEN
 62
   250
100
AcDbLine
 10
294.58461
 20
130.33846
 30
0.0
 11
294.58461
 21
118.73846
 31
0.0
  0
LINE
  5
5CA
100
AcDbEntity
  8
1
  6
HIDDEN
 62
   250
100
AcDbLine
 10
296.23462
 20
130.33846
 30
0.0
 11
296.23462
 21
118.73846
 31
0.0
  0
LINE
  5
5CB
100
AcDbEntity
  8
1
  6
HIDDEN
 62
   250
100
AcDbLine
 10
275.93462
 20
130.33846
 30
0.0
 11
290.43462
 21
130.33846
 31
0.0
  0
LINE
  5
5CC
100
AcDbEntity
  8
1
  6
HIDDEN
 62
   250
100
AcDbLine
 10
308.43462
 20
127.57244
 30
0.0
 11
308.43462
 21
125.33846
 31
0.0
  0
LINE
  5
5CD
100
AcDbEntity
  8
1
  6
HIDDEN
 62
   250
100
AcDbLine
 10
306.93462
 20
128.43846
 30
0.0
 11
308.43462
 21
127.57244
 31
0.0
  0
LINE
  5
5CE
100
AcDbEntity
  8
1
  6
HIDDEN
 62
   250
100
AcDbLine
 10
306.93462
 20
120.63846
 30
0.0
 11
308.43462
 21
121.50449
 31
0.0
  0
LINE
  5
5CF
100
AcDbEntity
  8
1
  6
HIDDEN
 62
   250
100
AcDbLine
 10
308.43462
 20
127.57244
 30
0.0
 11
296.23462
 21
127.57244
 31
0.0
  0
LINE
  5
5D0
100
AcDbEntity
  8
1
  6
HIDDEN
 62
   250
100
AcDbLine
 10
308.43462
 20
121.50449
 30
0.0
 11
296.23462
 21
121.50449
 31
0.0
  0
LINE
  5
5D1
100
AcDbEntity
  8
1
  6
HIDDEN
 62
   250
100
AcDbLine
 10
306.43462
 20
125.33846
 30
0.0
 11
308.43462
 21
125.33846
 31
0.0
  0
LINE
  5
5D2
100
AcDbEntity
  8
1
  6
HIDDEN
 62
   250
100
AcDbLine
 10
306.43462
 20
123.73846
 30
0.0
 11
308.43462
 21
123.73846
 31
0.0
  0
LINE
  5
5D3
100
AcDbEntity
  8
1
  6
HIDDEN
 62
   250
100
AcDbLine
 10
306.43462
 20
125.33846
 30
0.0
 11
306.43462
 21
123.73846
 31
0.0
  0
LINE
  5
5D4
100
AcDbEntity
  8
1
  6
HIDDEN
 62
   250
100
AcDbLine
 10
308.43462
 20
123.73846
 30
0.0
 11
308.43462
 21
121.50449
 31
0.0
  0
LINE
  5
5D5
100
AcDbEntity
  8
1
  6
HIDDEN
 62
   250
100
AcDbLine
 10
277.43462
 20
130.33846
 30
0.0
 11
277.43462
 21
119.23846
 31
0.0
  0
LINE
  5
5D6
100
AcDbEntity
  8
1
  6
HIDDEN
 62
   250
100
AcDbLine
 10
275.93462
 20
130.33846
 30
0.0
 11
275.93462
 21
120.73846
 31
0.0
  0
LINE
  5
5D7
100
AcDbEntity
  8
1
  6
HIDDEN
 62
   250
100
AcDbLine
 10
265.43462
 20
118.73846
 30
0.0
 11
276.93462
 21
118.73846
 31
0.0
  0
LINE
  5
5D8
100
AcDbEntity
  8
1
  6
HIDDEN
 62
   250
100
AcDbLine
 10
265.43462
 20
120.23846
 30
0.0
 11
275.43462
 21
120.23846
 31
0.0
  0
LINE
  5
5D9
100
AcDbEntity
  8
1
  6
HIDDEN
 62
   250
100
AcDbLine
 10
265.43462
 20
118.73846
 30
0.0
 11
265.43462
 21
120.23846
 31
0.0
  0
ARC
  5
5DA
100
AcDbEntity
  8
1
  6
HIDDEN
 62
   250
100
AcDbCircle
 10
275.43462
 20
120.73846
 30
0.0
 40
0.5
100
AcDbArc
 50
270.0
 51
0.0
  0
ARC
  5
5DB
100
AcDbEntity
  8
1
  6
HIDDEN
 62
   250
100
AcDbCircle
 10
276.93462
 20
119.23846
 30
0.0
 40
0.5
100
AcDbArc
 50
270.0
 51
0.0
  0
LINE
  5
5DC
100
AcDbEntity
  8
1
  6
HIDDEN
 62
   250
100
AcDbLine
 10
276.93462
 20
118.73846
 30
0.0
 11
290.43462
 21
118.73846
 31
0.0
  0
LINE
  5
5DD
100
AcDbEntity
  8
1
  6
HIDDEN
 62
   250
100
AcDbLine
 10
292.93462
 20
130.33846
 30
0.0
 11
296.23462
 21
130.33846
 31
0.0
  0
LINE
  5
5DE
100
AcDbEntity
  8
1
  6
HIDDEN
 62
   250
100
AcDbLine
 10
292.93462
 20
118.73846
 30
0.0
 11
296.23462
 21
118.73846
 31
0.0
  0
LINE
  5
5DF
100
AcDbEntity
  8
1
  6
CENTERLINE
 62
   250
100
AcDbLine
 10
269.36705
 20
124.53846
 30
0.0
 11
312.88461
 21
124.53846
 31
0.0
  0
LINE
  5
5E0
100
AcDbEntity
  8
1
  6
HIDDEN
 62
   250
100
AcDbLine
 10
292.93462
 20
116.73846
 30
0.0
 11
290.43462
 21
116.73846
 31
0.0
  0
ARC
  5
5E1
100
AcDbEntity
  8
1
  6
HIDDEN
 62
   250
100
AcDbCircle
 10
24.230769
 20
214.86539
 30
0.0
 40
2.0
100
AcDbArc
 50
90.0
 51
180.0
  0
LINE
  5
5E2
100
AcDbEntity
  8
1
  6
HIDDEN
 62
   250
100
AcDbLine
 10
22.230769
 20
214.86539
 30
0.0
 11
22.230769
 21
108.86539
 31
0.0
  0
ARC
  5
5E3
100
AcDbEntity
  8
1
  6
HIDDEN
 62
   250
100
AcDbCircle
 10
24.230769
 20
108.86539
 30
0.0
 40
2.0
100
AcDbArc
 50
180.0
 51
270.0
  0
LINE
  5
5E4
100
AcDbEntity
  8
1
  6
HIDDEN
 62
   250
100
AcDbLine
 10
90.230769
 20
106.86539
 30
0.0
 11
24.230769
 21
106.86539
 31
0.0
  0
ARC
  5
5E5
100
AcDbEntity
  8
1
  6
HIDDEN
 62
   250
100
AcDbCircle
 10
90.230769
 20
108.86539
 30
0.0
 40
2.0
100
AcDbArc
 50
270.0
 51
0.0
  0
LINE
  5
5E6
100
AcDbEntity
  8
1
  6
HIDDEN
 62
   250
100
AcDbLine
 10
92.230769
 20
214.86539
 30
0.0
 11
92.230769
 21
108.86539
 31
0.0
  0
ARC
  5
5E7
100
AcDbEntity
  8
1
  6
HIDDEN
 62
   250
100
AcDbCircle
 10
90.230769
 20
214.86539
 30
0.0
 40
2.0
100
AcDbArc
 50
0.0
 51
90.0
  0
LINE
  5
5E8
100
AcDbEntity
  8
1
  6
HIDDEN
 62
   250
100
AcDbLine
 10
24.230769
 20
216.86539
 30
0.0
 11
90.230769
 21
216.86539
 31
0.0
  0
ARC
  5
5E9
100
AcDbEntity
  8
1
  6
CONTINUOUS
 62
   250
100
AcDbCircle
 10
87.230769
 20
211.86539
 30
0.0
 40
3.1
100
AcDbArc
 50
316.53598
 51
223.46402
  0
LINE
  5
5EA
100
AcDbEntity
  8
1
  6
CONTINUOUS
 62
   250
100
AcDbLine
 10
84.980769
 20
209.7329
 30
0.0
 11
84.980769
 21
208.99787
 31
0.0
  0
LINE
  5
5EB
100
AcDbEntity
  8
1
  6
CONTINUOUS
 62
   250
100
AcDbLine
 10
89.480769
 20
209.7329
 30
0.0
 11
89.480769
 21
208.99787
 31
0.0
  0
ARC
  5
5EC
100
AcDbEntity
  8
1
  6
CONTINUOUS
 62
   250
100
AcDbCircle
 10
87.230769
 20
206.86539
 30
0.0
 40
3.1
100
AcDbArc
 50
18.819063
 51
43.464023
  0
ARC
  5
5ED
100
AcDbEntity
  8
1
  6
CONTINUOUS
 62
   250
100
AcDbCircle
 10
87.230769
 20
206.86539
 30
0.0
 40
3.1
100
AcDbArc
 50
136.53598
 51
18.81906
  0
ARC
  5
5EE
100
AcDbEntity
  8
1
  6
CONTINUOUS
 62
   250
100
AcDbCircle
 10
27.230769
 20
116.86539
 30
0.0
 40
3.1
100
AcDbArc
 50
316.53598
 51
223.46402
  0
LINE
  5
5EF
100
AcDbEntity
  8
1
  6
CONTINUOUS
 62
   250
100
AcDbLine
 10
29.480769
 20
114.7329
 30
0.0
 11
29.480769
 21
113.99787
 31
0.0
  0
ARC
  5
5F0
100
AcDbEntity
  8
1
  6
CONTINUOUS
 62
   250
100
AcDbCircle
 10
27.230769
 20
111.86539
 30
0.0
 40
3.1
100
AcDbArc
 50
136.53598
 51
43.46402
  0
ARC
  5
5F1
100
AcDbEntity
  8
1
  6
CONTINUOUS
 62
   250
100
AcDbCircle
 10
27.230769
 20
116.86539
 30
0.0
 40
3.1
100
AcDbArc
 50
198.81906
 51
223.46402
  0
LINE
  5
5F2
100
AcDbEntity
  8
1
  6
CONTINUOUS
 62
   250
100
AcDbLine
 10
24.980769
 20
114.7329
 30
0.0
 11
24.980769
 21
113.99787
 31
0.0
  0
LINE
  5
5F3
100
AcDbEntity
  8
1
  6
CONTINUOUS
 62
   250
100
AcDbLine
 10
221.33462
 20
178.78846
 30
0.0
 11
222.53462
 21
178.78846
 31
0.0
  0
LINE
  5
5F4
100
AcDbEntity
  8
1
  6
CONTINUOUS
 62
   250
100
AcDbLine
 10
224.53462
 20
196.48128
 30
0.0
 11
224.53462
 21
193.09564
 31
0.0
  0
LINE
  5
5F5
100
AcDbEntity
  8
1
  6
CONTINUOUS
 62
   250
100
AcDbLine
 10
224.53462
 20
193.09564
 30
0.0
 11
224.53462
 21
188.92799
 31
0.0
  0
LINE
  5
5F6
100
AcDbEntity
  8
1
  6
CONTINUOUS
 62
   250
100
AcDbLine
 10
319.88461
 20
156.73846
 30
0.0
 11
319.88461
 21
155.53846
 31
0.0
  0
LINE
  5
5F7
100
AcDbEntity
  8
1
  6
CONTINUOUS
 62
   250
100
AcDbLine
 10
319.88461
 20
155.53846
 30
0.0
 11
319.88461
 21
147.03846
 31
0.0
  0
LINE
  5
5F8
100
AcDbEntity
  8
1
  6
CONTINUOUS
 62
   250
100
AcDbLine
 10
219.03462
 20
198.78846
 30
0.0
 11
221.33462
 21
198.78846
 31
0.0
  0
LINE
  5
5F9
100
AcDbEntity
  8
1
  6
CONTINUOUS
 62
   250
100
AcDbLine
 10
221.33462
 20
198.78846
 30
0.0
 11
224.53462
 21
198.78846
 31
0.0
  0
LINE
  5
5FA
100
AcDbEntity
  8
1
  6
CONTINUOUS
 62
   250
100
AcDbLine
 10
283.53461
 20
115.03846
 30
0.0
 11
312.88461
 21
115.03846
 31
0.0
  0
LINE
  5
5FB
100
AcDbEntity
  8
1
  6
CONTINUOUS
 62
   250
100
AcDbLine
 10
222.53462
 20
177.28846
 30
0.0
 11
222.53462
 21
173.78846
 31
0.0
  0
LINE
  5
5FC
100
AcDbEntity
  8
1
  6
CONTINUOUS
 62
   250
100
AcDbLine
 10
283.53461
 20
207.03846
 30
0.0
 11
312.88461
 21
207.03846
 31
0.0
  0
LINE
  5
5FD
100
AcDbEntity
  8
1
  6
CONTINUOUS
 62
   250
100
AcDbLine
 10
224.03462
 20
173.78846
 30
0.0
 11
230.63461
 21
173.78846
 31
0.0
  0
LINE
  5
5FE
100
AcDbEntity
  8
1
  6
CONTINUOUS
 62
   250
100
AcDbLine
 10
319.88461
 20
164.43846
 30
0.0
 11
319.88461
 21
156.73846
 31
0.0
  0
LINE
  5
5FF
100
AcDbEntity
  8
1
  6
CONTINUOUS
 62
   250
100
AcDbLine
 10
319.88461
 20
147.03846
 30
0.0
 11
319.88461
 21
137.53846
 31
0.0
  0
LINE
  5
600
100
AcDbEntity
  8
1
  6
CONTINUOUS
 62
   250
100
AcDbLine
 10
138.32692
 20
111.31154
 30
0.0
 11
138.32692
 21
106.31154
 31
0.0
  0
LINE
  5
601
100
AcDbEntity
  8
1
  6
CONTINUOUS
 62
   250
100
AcDbLine
 10
146.32692
 20
115.31154
 30
0.0
 11
146.32692
 21
107.31154
 31
0.0
  0
ARC
  5
602
100
AcDbEntity
  8
1
  6
CONTINUOUS
 62
   250
100
AcDbCircle
 10
147.32692
 20
107.31154
 30
0.0
 40
1.0
100
AcDbArc
 50
180.0
 51
270.0
  0
LINE
  5
603
100
AcDbEntity
  8
1
  6
CONTINUOUS
 62
   250
100
AcDbLine
 10
137.32692
 20
106.31154
 30
0.0
 11
118.32692
 21
106.31154
 31
0.0
  0
LINE
  5
604
100
AcDbEntity
  8
1
  6
CONTINUOUS
 62
   250
100
AcDbLine
 10
146.32692
 20
111.31154
 30
0.0
 11
138.32692
 21
111.31154
 31
0.0
  0
ARC
  5
605
100
AcDbEntity
  8
1
  6
CONTINUOUS
 62
   250
100
AcDbCircle
 10
137.32692
 20
107.31154
 30
0.0
 40
1.0
100
AcDbArc
 50
270.0
 51
0.0
  0
LINE
  5
606
100
AcDbEntity
  8
1
  6
CONTINUOUS
 62
   250
100
AcDbLine
 10
146.32692
 20
108.81154
 30
0.0
 11
141.22692
 21
108.81154
 31
0.0
  0
LINE
  5
607
100
AcDbEntity
  8
1
  6
CONTINUOUS
 62
   250
100
AcDbLine
 10
141.22692
 20
111.31154
 30
0.0
 11
141.22692
 21
108.81154
 31
0.0
  0
LINE
  5
608
100
AcDbEntity
  8
1
  6
CONTINUOUS
 62
   250
100
AcDbLine
 10
146.32692
 20
213.31154
 30
0.0
 11
156.32692
 21
213.31154
 31
0.0
  0
TEXT
  5
609
100
AcDbEntity
  8
1
  6
CONTINUOUS
 62
   250
100
AcDbText
 10
293.95388
 20
17.117367
 30
0.0
 40
2.5
  1
/dimension-drilling
 41
0.75
 11
293.95388
 21
18.367367
 31
0.0
100
AcDbText
 73
     2
  0
ARC
  5
60A
100
AcDbEntity
  8
1
  6
CONTINUOUS
 62
   250
100
AcDbCircle
 10
315.18462
 20
206.03846
 30
0.0
 40
1.0
100
AcDbArc
 50
0.0
 51
90.0
  0
ARC
  5
60B
100
AcDbEntity
  8
1
  6
CONTINUOUS
 62
   250
100
AcDbCircle
 10
315.18462
 20
116.03846
 30
0.0
 40
1.0
100
AcDbArc
 50
270.0
 51
0.0
  0
LINE
  5
60C
100
AcDbEntity
  8
1
  6
HIDDEN
 62
   250
100
AcDbLine
 10
191.82692
 20
198.31154
 30
0.0
 11
191.82692
 21
214.46917
 31
0.0
  0
LINE
  5
60D
100
AcDbEntity
  8
1
  6
HIDDEN
 62
   250
100
AcDbLine
 10
192.82692
 20
198.31154
 30
0.0
 11
192.82692
 21
214.46917
 31
0.0
  0
ARC
  5
60E
100
AcDbEntity
  8
1
  6
HIDDEN
 62
   250
100
AcDbCircle
 10
182.32692
 20
214.46917
 30
0.0
 40
9.5
100
AcDbArc
 50
0.0
 51
90.0
  0
ARC
  5
60F
100
AcDbEntity
  8
1
  6
HIDDEN
 62
   250
100
AcDbCircle
 10
182.32692
 20
214.46917
 30
0.0
 40
10.5
100
AcDbArc
 50
0.0
 51
90.0
  0
LINE
  5
610
100
AcDbEntity
  8
1
  6
HIDDEN
 62
   250
100
AcDbLine
 10
182.32692
 20
224.96917
 30
0.0
 11
164.86066
 21
224.96917
 31
0.0
  0
LINE
  5
611
100
AcDbEntity
  8
1
  6
CONTINUOUS
 62
   250
100
AcDbLine
 10
221.55416
 20
123.82813
 30
0.0
 11
224.53462
 21
123.82813
 31
0.0
  0
LINE
  5
612
100
AcDbEntity
  8
1
  6
CONTINUOUS
 62
   250
100
AcDbLine
 10
221.06176
 20
124.24131
 30
0.0
 11
220.78196
 21
125.82813
 31
0.0
  0
LINE
  5
613
100
AcDbEntity
  8
1
  6
CONTINUOUS
 62
   250
100
AcDbLine
 10
220.78196
 20
125.82813
 30
0.0
 11
218.53462
 21
122.61859
 31
0.0
  0
ARC
  5
614
100
AcDbEntity
  8
1
  6
CONTINUOUS
 62
   250
100
AcDbCircle
 10
221.55416
 20
124.32813
 30
0.0
 40
0.5
100
AcDbArc
 50
190.0
 51
270.0
  0
LINE
  5
615
100
AcDbEntity
  8
1
  6
HIDDEN
 62
   250
100
AcDbLine
 10
182.32692
 20
223.96917
 30
0.0
 11
164.86066
 21
223.96917
 31
0.0
  0
ARC
  5
616
100
AcDbEntity
  8
1
  6
HIDDEN
 62
   250
100
AcDbCircle
 10
164.86066
 20
219.46917
 30
0.0
 40
5.5
100
AcDbArc
 50
90.0
 51
180.0
  0
ARC
  5
617
100
AcDbEntity
  8
1
  6
HIDDEN
 62
   250
100
AcDbCircle
 10
164.86066
 20
219.46917
 30
0.0
 40
4.5
100
AcDbArc
 50
90.0
 51
180.0
  0
LINE
  5
618
100
AcDbEntity
  8
1
  6
HIDDEN
 62
   250
100
AcDbLine
 10
160.36066
 20
219.46917
 30
0.0
 11
160.36066
 21
216.31154
 31
0.0
  0
LINE
  5
619
100
AcDbEntity
  8
1
  6
HIDDEN
 62
   250
100
AcDbLine
 10
159.36066
 20
219.46917
 30
0.0
 11
159.36066
 21
216.31154
 31
0.0
  0
LINE
  5
61A
100
AcDbEntity
  8
1
  6
HIDDEN
 62
   250
100
AcDbLine
 10
182.32692
 20
97.65391
 30
0.0
 11
164.86066
 21
97.65391
 31
0.0
  0
LINE
  5
61B
100
AcDbEntity
  8
1
  6
CONTINUOUS
 62
   250
100
AcDbLine
 10
221.20384
 20
143.62819
 30
0.0
 11
222.53462
 21
143.62819
 31
0.0
  0
LINE
  5
61C
100
AcDbEntity
  8
1
  6
CONTINUOUS
 62
   250
100
AcDbLine
 10
221.20384
 20
143.62819
 30
0.0
 11
220.85118
 21
145.62819
 31
0.0
  0
LINE
  5
61D
100
AcDbEntity
  8
1
  6
CONTINUOUS
 62
   250
100
AcDbLine
 10
220.85118
 20
145.62819
 30
0.0
 11
218.10384
 21
143.3229
 31
0.0
  0
LINE
  5
61E
100
AcDbEntity
  8
1
  6
CONTINUOUS
 62
   250
100
AcDbLine
 10
218.10384
 20
143.3229
 30
0.0
 11
219.03462
 21
142.51588
 31
0.0
  0
LINE
  5
61F
100
AcDbEntity
  8
1
  6
HIDDEN
 62
   250
100
AcDbLine
 10
182.32692
 20
98.65391
 30
0.0
 11
164.86066
 21
98.65391
 31
0.0
  0
LINE
  5
620
100
AcDbEntity
  8
1
  6
CONTINUOUS
 62
   250
100
AcDbLine
 10
224.53462
 20
123.82813
 30
0.0
 11
224.53462
 21
123.28846
 31
0.0
  0
LINE
  5
621
100
AcDbEntity
  8
1
  6
CONTINUOUS
 62
   250
100
AcDbLine
 10
222.53462
 20
143.62819
 30
0.0
 11
222.53462
 21
143.28846
 31
0.0
  0
LINE
  5
622
100
AcDbEntity
  8
1
  6
CONTINUOUS
 62
   250
100
AcDbLine
 10
219.03462
 20
142.51588
 30
0.0
 11
219.03462
 21
139.78846
 31
0.0
  0
LINE
  5
623
100
AcDbEntity
  8
1
  6
CONTINUOUS
 62
   250
100
AcDbLine
 10
88.230769
 20
211.86539
 30
0.0
 11
86.230769
 21
211.86539
 31
0.0
  0
LINE
  5
624
100
AcDbEntity
  8
1
  6
CONTINUOUS
 62
   250
100
AcDbLine
 10
87.230769
 20
212.86539
 30
0.0
 11
87.230769
 21
210.86539
 31
0.0
  0
LINE
  5
625
100
AcDbEntity
  8
1
  6
CONTINUOUS
 62
   250
100
AcDbLine
 10
89.230769
 20
211.86539
 30
0.0
 11
91.330769
 21
211.86539
 31
0.0
  0
LINE
  5
626
100
AcDbEntity
  8
1
  6
CONTINUOUS
 62
   250
100
AcDbLine
 10
87.230769
 20
213.86539
 30
0.0
 11
87.230769
 21
215.96538
 31
0.0
  0
LINE
  5
627
100
AcDbEntity
  8
1
  6
CONTINUOUS
 62
   250
100
AcDbLine
 10
85.230769
 20
211.86539
 30
0.0
 11
83.130769
 21
211.86539
 31
0.0
  0
LINE
  5
628
100
AcDbEntity
  8
1
  6
CONTINUOUS
 62
   250
100
AcDbLine
 10
87.230769
 20
209.86539
 30
0.0
 11
87.230769
 21
207.76539
 31
0.0
  0
LINE
  5
629
100
AcDbEntity
  8
1
  6
CONTINUOUS
 62
   250
100
AcDbLine
 10
88.230769
 20
206.86539
 30
0.0
 11
86.230769
 21
206.86539
 31
0.0
  0
LINE
  5
62A
100
AcDbEntity
  8
1
  6
CONTINUOUS
 62
   250
100
AcDbLine
 10
87.230769
 20
207.86539
 30
0.0
 11
87.230769
 21
205.86539
 31
0.0
  0
LINE
  5
62B
100
AcDbEntity
  8
1
  6
CONTINUOUS
 62
   250
100
AcDbLine
 10
89.230769
 20
206.86539
 30
0.0
 11
91.330769
 21
206.86539
 31
0.0
  0
LINE
  5
62C
100
AcDbEntity
  8
1
  6
CONTINUOUS
 62
   250
100
AcDbLine
 10
87.230769
 20
208.86539
 30
0.0
 11
87.230769
 21
210.96538
 31
0.0
  0
LINE
  5
62D
100
AcDbEntity
  8
1
  6
CONTINUOUS
 62
   250
100
AcDbLine
 10
85.230769
 20
206.86539
 30
0.0
 11
83.130769
 21
206.86539
 31
0.0
  0
LINE
  5
62E
100
AcDbEntity
  8
1
  6
CENTERLINE
 62
   250
100
AcDbLine
 10
87.230769
 20
204.86539
 30
0.0
 11
87.230769
 21
88.314664
 31
0.0
  0
LINE
  5
62F
100
AcDbEntity
  8
1
  6
CONTINUOUS
 62
   250
100
AcDbLine
 10
28.230769
 20
116.86539
 30
0.0
 11
26.230769
 21
116.86539
 31
0.0
  0
LINE
  5
630
100
AcDbEntity
  8
1
  6
CONTINUOUS
 62
   250
100
AcDbLine
 10
27.230769
 20
117.86539
 30
0.0
 11
27.230769
 21
115.86539
 31
0.0
  0
LINE
  5
631
100
AcDbEntity
  8
1
  6
CONTINUOUS
 62
   250
100
AcDbLine
 10
29.230769
 20
116.86539
 30
0.0
 11
31.330769
 21
116.86539
 31
0.0
  0
LINE
  5
632
100
AcDbEntity
  8
1
  6
CONTINUOUS
 62
   250
100
AcDbLine
 10
27.230769
 20
118.86539
 30
0.0
 11
27.230769
 21
120.96538
 31
0.0
  0
LINE
  5
633
100
AcDbEntity
  8
1
  6
CONTINUOUS
 62
   250
100
AcDbLine
 10
25.230769
 20
116.86539
 30
0.0
 11
23.130769
 21
116.86539
 31
0.0
  0
LINE
  5
634
100
AcDbEntity
  8
1
  6
CONTINUOUS
 62
   250
100
AcDbLine
 10
27.230769
 20
114.86539
 30
0.0
 11
27.230769
 21
112.76538
 31
0.0
  0
LINE
  5
635
100
AcDbEntity
  8
1
  6
CONTINUOUS
 62
   250
100
AcDbLine
 10
28.230769
 20
111.86539
 30
0.0
 11
26.230769
 21
111.86539
 31
0.0
  0
LINE
  5
636
100
AcDbEntity
  8
1
  6
CONTINUOUS
 62
   250
100
AcDbLine
 10
27.230769
 20
112.86539
 30
0.0
 11
27.230769
 21
110.86539
 31
0.0
  0
LINE
  5
637
100
AcDbEntity
  8
1
  6
CONTINUOUS
 62
   250
100
AcDbLine
 10
29.230769
 20
111.86539
 30
0.0
 11
31.330769
 21
111.86539
 31
0.0
  0
LINE
  5
638
100
AcDbEntity
  8
1
  6
CONTINUOUS
 62
   250
100
AcDbLine
 10
27.230769
 20
113.86539
 30
0.0
 11
27.230769
 21
115.96538
 31
0.0
  0
LINE
  5
639
100
AcDbEntity
  8
1
  6
CONTINUOUS
 62
   250
100
AcDbLine
 10
25.230769
 20
111.86539
 30
0.0
 11
23.130769
 21
111.86539
 31
0.0
  0
LINE
  5
63A
100
AcDbEntity
  8
1
  6
CONTINUOUS
 62
   250
100
AcDbLine
 10
27.230769
 20
109.86539
 30
0.0
 11
27.230769
 21
107.76538
 31
0.0
  0
ARC
  5
63B
100
AcDbEntity
  8
1
  6
HIDDEN
 62
   250
100
AcDbCircle
 10
164.86066
 20
103.15391
 30
0.0
 40
5.5
100
AcDbArc
 50
180.0
 51
270.0
  0
ARC
  5
63C
100
AcDbEntity
  8
1
  6
HIDDEN
 62
   250
100
AcDbCircle
 10
164.86066
 20
103.15391
 30
0.0
 40
4.5
100
AcDbArc
 50
180.0
 51
270.0
  0
LINE
  5
63D
100
AcDbEntity
  8
1
  6
HIDDEN
 62
   250
100
AcDbLine
 10
160.36066
 20
103.15391
 30
0.0
 11
160.36066
 21
106.31154
 31
0.0
  0
LINE
  5
63E
100
AcDbEntity
  8
1
  6
HIDDEN
 62
   250
100
AcDbLine
 10
159.36066
 20
103.15391
 30
0.0
 11
159.36066
 21
106.31154
 31
0.0
  0
LINE
  5
63F
100
AcDbEntity
  8
1
  6
HIDDEN
 62
   250
100
AcDbLine
 10
191.82692
 20
124.31154
 30
0.0
 11
191.82692
 21
108.15391
 31
0.0
  0
LINE
  5
640
100
AcDbEntity
  8
1
  6
HIDDEN
 62
   250
100
AcDbLine
 10
192.82692
 20
124.31154
 30
0.0
 11
192.82692
 21
108.15391
 31
0.0
  0
ARC
  5
641
100
AcDbEntity
  8
1
  6
HIDDEN
 62
   250
100
AcDbCircle
 10
182.32692
 20
108.15391
 30
0.0
 40
9.5
100
AcDbArc
 50
270.0
 51
0.0
  0
ARC
  5
642
100
AcDbEntity
  8
1
  6
HIDDEN
 62
   250
100
AcDbCircle
 10
182.32692
 20
108.15391
 30
0.0
 40
10.5
100
AcDbArc
 50
270.0
 51
0.0
  0
LINE
  5
644
100
AcDbEntity
  8
1
  6
CONTINUOUS
 62
   250
100
AcDbLine
 10
268.03461
 20
114.03846
 30
0.0
 11
270.03461
 21
114.03846
 31
0.0
  0
LINE
  5
645
100
AcDbEntity
  8
1
  6
CONTINUOUS
 62
   250
100
AcDbLine
 10
268.03461
 20
108.03846
 30
0.0
 11
270.03461
 21
108.03846
 31
0.0
  0
LINE
  5
646
100
AcDbEntity
  8
1
  6
CONTINUOUS
 62
   250
100
AcDbLine
 10
270.03461
 20
108.03846
 30
0.0
 11
270.03461
 21
110.53846
 31
0.0
  0
LINE
  5
647
100
AcDbEntity
  8
1
  6
CONTINUOUS
 62
   250
100
AcDbLine
 10
269.53461
 20
114.03846
 30
0.0
 11
269.53461
 21
115.03846
 31
0.0
  0
LINE
  5
648
100
AcDbEntity
  8
1
  6
CONTINUOUS
 62
   250
100
AcDbLine
 10
270.03461
 20
111.53846
 30
0.0
 11
269.03461
 21
111.53846
 31
0.0
  0
LINE
  5
649
100
AcDbEntity
  8
1
  6
CONTINUOUS
 62
   250
100
AcDbLine
 10
270.03461
 20
110.53846
 30
0.0
 11
269.03461
 21
110.53846
 31
0.0
  0
LINE
  5
64A
100
AcDbEntity
  8
1
  6
CONTINUOUS
 62
   250
100
AcDbLine
 10
269.03461
 20
110.53846
 30
0.0
 11
269.03461
 21
111.53846
 31
0.0
  0
LINE
  5
64B
100
AcDbEntity
  8
1
  6
CONTINUOUS
 62
   250
100
AcDbLine
 10
270.03461
 20
111.53846
 30
0.0
 11
270.03461
 21
114.03846
 31
0.0
  0
LINE
  5
64C
100
AcDbEntity
  8
1
  6
CONTINUOUS
 62
   250
100
AcDbLine
 10
289.53461
 20
165.73846
 30
0.0
 11
265.43462
 21
165.73846
 31
0.0
  0
LINE
  5
64D
100
AcDbEntity
  8
1
  6
HIDDEN
 62
   250
 48
0.5
100
AcDbLine
 10
264.48462
 20
200.85477
 30
0.0
 11
264.48462
 21
213.43846
 31
0.0
  0
LINE
  5
64E
100
AcDbEntity
  8
1
  6
HIDDEN
 62
   250
 48
0.5
100
AcDbLine
 10
268.38461
 20
213.43846
 30
0.0
 11
264.48462
 21
213.43846
 31
0.0
  0
LINE
  5
64F
100
AcDbEntity
  8
1
  6
HIDDEN
 62
   250
 48
0.5
100
AcDbLine
 10
265.48462
 20
200.85477
 30
0.0
 11
265.48462
 21
213.43846
 31
0.0
  0
LINE
  5
650
100
AcDbEntity
  8
1
  6
HIDDEN
 62
   250
 48
0.5
100
AcDbLine
 10
268.38461
 20
205.63846
 30
0.0
 11
268.38461
 21
213.43846
 31
0.0
  0
LINE
  5
651
100
AcDbEntity
  8
1
  6
HIDDEN
 62
   250
 48
0.5
100
AcDbLine
 10
268.38461
 20
205.63846
 30
0.0
 11
265.48462
 21
205.63846
 31
0.0
  0
LINE
  5
652
100
AcDbEntity
  8
1
  6
HIDDEN
 62
   250
 48
0.5
100
AcDbLine
 10
270.88461
 20
206.50718
 30
0.0
 11
270.88461
 21
209.03846
 31
0.0
  0
LINE
  5
653
100
AcDbEntity
  8
1
  6
HIDDEN
 62
   250
 48
0.5
100
AcDbLine
 10
268.38461
 20
212.78846
 30
0.0
 11
270.88461
 21
212.56974
 31
0.0
  0
LINE
  5
654
100
AcDbEntity
  8
1
  6
HIDDEN
 62
   250
 48
0.5
100
AcDbLine
 10
268.38461
 20
206.28846
 30
0.0
 11
270.88461
 21
206.50718
 31
0.0
  0
LINE
  5
655
100
AcDbEntity
  8
1
  6
HIDDEN
 62
   250
 48
0.5
100
AcDbLine
 10
270.88461
 20
210.03846
 30
0.0
 11
269.68462
 21
210.03846
 31
0.0
  0
LINE
  5
656
100
AcDbEntity
  8
1
  6
HIDDEN
 62
   250
 48
0.5
100
AcDbLine
 10
270.88461
 20
209.03846
 30
0.0
 11
269.68462
 21
209.03846
 31
0.0
  0
LINE
  5
657
100
AcDbEntity
  8
1
  6
HIDDEN
 62
   250
 48
0.5
100
AcDbLine
 10
269.68462
 20
209.03846
 30
0.0
 11
269.68462
 21
210.03846
 31
0.0
  0
LINE
  5
658
100
AcDbEntity
  8
1
  6
HIDDEN
 62
   250
 48
0.5
100
AcDbLine
 10
270.88461
 20
210.03846
 30
0.0
 11
270.88461
 21
212.56974
 31
0.0
  0
LINE
  5
659
100
AcDbEntity
  8
1
  6
CONTINUOUS
 62
   250
100
AcDbLine
 10
289.53461
 20
157.53846
 30
0.0
 11
262.03461
 21
157.53846
 31
0.0
  0
LINE
  5
65B
100
AcDbEntity
  8
1
  6
CONTINUOUS
 62
   250
100
AcDbLine
 10
319.88461
 20
144.03846
 30
0.0
 11
319.88461
 21
143.91666
 31
0.0
  0
LINE
  5
65C
100
AcDbEntity
  8
1
  6
CONTINUOUS
 62
   250
100
AcDbLine
 10
329.88461
 20
216.93384
 30
0.0
 11
329.88461
 21
183.81316
 31
0.0
  0
LINE
  5
65D
100
AcDbEntity
  8
1
  6
CONTINUOUS
 62
   250
100
AcDbLine
 10
329.88461
 20
134.79924
 30
0.0
 11
329.88461
 21
101.67856
 31
0.0
  0
LINE
  5
660
100
AcDbEntity
  8
1
  6
CONTINUOUS
 62
   250
100
AcDbLine
 10
371.88461
 20
158.03846
 30
0.0
 11
378.38461
 21
158.03846
 31
0.0
  0
LINE
  5
661
100
AcDbEntity
  8
1
  6
CONTINUOUS
 62
   250
100
AcDbLine
 10
340.38461
 20
180.53846
 30
0.0
 11
356.88461
 21
180.53846
 31
0.0
  0
LINE
  5
662
100
AcDbEntity
  8
1
  6
CONTINUOUS
 62
   250
100
AcDbLine
 10
340.38461
 20
135.53846
 30
0.0
 11
371.88461
 21
135.53846
 31
0.0
  0
LINE
  5
663
100
AcDbEntity
  8
1
  6
CONTINUOUS
 62
   250
100
AcDbLine
 10
336.30949
 20
176.03846
 30
0.0
 11
338.88461
 21
176.03846
 31
0.0
  0
LINE
  5
664
100
AcDbEntity
  8
1
  6
CONTINUOUS
 62
   250
100
AcDbLine
 10
322.17233
 20
140.03846
 30
0.0
 11
338.88461
 21
140.03846
 31
0.0
  0
LINE
  5
665
100
AcDbEntity
  8
1
  6
CONTINUOUS
 62
   250
100
AcDbLine
 10
348.38461
 20
137.03846
 30
0.0
 11
348.38461
 21
179.03846
 31
0.0
  0
LINE
  5
666
100
AcDbEntity
  8
1
  6
CONTINUOUS
 62
   250
100
AcDbLine
 10
338.88461
 20
137.03846
 30
0.0
 11
338.88461
 21
140.03846
 31
0.0
  0
LINE
  5
667
100
AcDbEntity
  8
1
  6
CONTINUOUS
 62
   250
100
AcDbLine
 10
338.88461
 20
176.03846
 30
0.0
 11
338.88461
 21
179.03846
 31
0.0
  0
LINE
  5
668
100
AcDbEntity
  8
1
  6
CONTINUOUS
 62
   250
100
AcDbLine
 10
319.88461
 20
147.03846
 30
0.0
 11
320.68693
 21
141.3297
 31
0.0
  0
LINE
  5
669
100
AcDbEntity
  8
1
  6
CONTINUOUS
 62
   250
100
AcDbLine
 10
321.38461
 20
174.63846
 30
0.0
 11
324.88461
 21
174.63846
 31
0.0
  0
LINE
  5
66A
100
AcDbEntity
  8
1
  6
CONTINUOUS
 62
   250
100
AcDbLine
 10
333.88461
 20
174.63846
 30
0.0
 11
336.30949
 21
176.03846
 31
0.0
  0
ARC
  5
66B
100
AcDbEntity
  8
1
  6
CONTINUOUS
 62
   250
100
AcDbCircle
 10
321.38461
 20
173.13846
 30
0.0
 40
1.5
100
AcDbArc
 50
90.0
 51
180.0
  0
ARC
  5
66C
100
AcDbEntity
  8
1
  6
CONTINUOUS
 62
   250
100
AcDbCircle
 10
340.38461
 20
179.03846
 30
0.0
 40
1.5
100
AcDbArc
 50
90.0
 51
180.0
  0
ARC
  5
66D
100
AcDbEntity
  8
1
  6
CONTINUOUS
 62
   250
100
AcDbCircle
 10
346.88461
 20
179.03846
 30
0.0
 40
1.5
100
AcDbArc
 50
0.0
 51
90.0
  0
ARC
  5
66E
100
AcDbEntity
  8
1
  6
CONTINUOUS
 62
   250
100
AcDbCircle
 10
346.88461
 20
137.03846
 30
0.0
 40
1.5
100
AcDbArc
 50
270.0
 51
0.0
  0
ARC
  5
66F
100
AcDbEntity
  8
1
  6
CONTINUOUS
 62
   250
100
AcDbCircle
 10
340.38461
 20
137.03846
 30
0.0
 40
1.5
100
AcDbArc
 50
180.0
 51
270.0
  0
ARC
  5
670
100
AcDbEntity
  8
1
  6
CONTINUOUS
 62
   250
100
AcDbCircle
 10
322.17233
 20
141.53846
 30
0.0
 40
1.5
100
AcDbArc
 50
188.0
 51
270.0
  0
LINE
  5
671
100
AcDbEntity
  8
1
  6
CONTINUOUS
 62
   250
100
AcDbLine
 10
361.88461
 20
137.03846
 30
0.0
 11
361.88461
 21
174.74912
 31
0.0
  0
ARC
  5
672
100
AcDbEntity
  8
1
  6
CONTINUOUS
 62
   250
100
AcDbCircle
 10
360.38461
 20
179.03846
 30
0.0
 40
1.5
100
AcDbArc
 50
0.0
 51
90.0
  0
ARC
  5
673
100
AcDbEntity
  8
1
  6
CONTINUOUS
 62
   250
100
AcDbCircle
 10
360.38461
 20
137.03846
 30
0.0
 40
1.5
100
AcDbArc
 50
270.0
 51
0.0
  0
LINE
  5
674
100
AcDbEntity
  8
1
  6
CONTINUOUS
 62
   250
100
AcDbLine
 10
378.88461
 20
143.39202
 30
0.0
 11
378.88461
 21
172.68491
 31
0.0
  0
LINE
  5
675
100
AcDbEntity
  8
1
  6
CONTINUOUS
 62
   250
100
AcDbLine
 10
366.58461
 20
173.03846
 30
0.0
 11
378.53106
 21
173.03846
 31
0.0
  0
LINE
  5
676
100
AcDbEntity
  8
1
  6
CONTINUOUS
 62
   250
100
AcDbLine
 10
366.58461
 20
143.03846
 30
0.0
 11
371.88461
 21
143.03846
 31
0.0
  0
LINE
  5
677
100
AcDbEntity
  8
1
  6
CONTINUOUS
 62
   250
100
AcDbLine
 10
366.58461
 20
143.03846
 30
0.0
 11
366.58461
 21
151.53846
 31
0.0
  0
LINE
  5
678
100
AcDbEntity
  8
1
  6
CONTINUOUS
 62
   250
100
AcDbLine
 10
378.53106
 20
173.03846
 30
0.0
 11
378.88461
 21
172.68491
 31
0.0
  0
LINE
  5
679
100
AcDbEntity
  8
1
  6
CONTINUOUS
 62
   250
100
AcDbLine
 10
378.53106
 20
143.03846
 30
0.0
 11
378.88461
 21
143.39202
 31
0.0
  0
LINE
  5
67A
100
AcDbEntity
  8
1
  6
CONTINUOUS
 62
   250
100
AcDbLine
 10
371.88461
 20
135.53846
 30
0.0
 11
371.88461
 21
143.03846
 31
0.0
  0
LINE
  5
67B
100
AcDbEntity
  8
1
  6
CONTINUOUS
 62
   250
100
AcDbLine
 10
324.88461
 20
174.63846
 30
0.0
 11
324.88461
 21
175.63846
 31
0.0
  0
LINE
  5
67C
100
AcDbEntity
  8
1
  6
CONTINUOUS
 62
   250
100
AcDbLine
 10
324.88461
 20
175.63846
 30
0.0
 11
329.88461
 21
175.63846
 31
0.0
  0
LINE
  5
67D
100
AcDbEntity
  8
1
  6
CONTINUOUS
 62
   250
100
AcDbLine
 10
331.88461
 20
174.63846
 30
0.0
 11
331.88461
 21
178.63846
 31
0.0
  0
LINE
  5
67E
100
AcDbEntity
  8
1
  6
CONTINUOUS
 62
   250
100
AcDbLine
 10
329.88461
 20
178.63846
 30
0.0
 11
331.88461
 21
178.63846
 31
0.0
  0
LINE
  5
67F
100
AcDbEntity
  8
1
  6
CONTINUOUS
 62
   250
100
AcDbLine
 10
329.88461
 20
175.63846
 30
0.0
 11
329.88461
 21
178.63846
 31
0.0
  0
LINE
  5
680
100
AcDbEntity
  8
1
  6
CONTINUOUS
 62
   250
100
AcDbLine
 10
324.88461
 20
174.63846
 30
0.0
 11
331.88461
 21
174.63846
 31
0.0
  0
LINE
  5
681
100
AcDbEntity
  8
1
  6
CONTINUOUS
 62
   250
100
AcDbLine
 10
365.88461
 20
176.53846
 30
0.0
 11
365.88461
 21
182.53846
 31
0.0
  0
LINE
  5
682
100
AcDbEntity
  8
1
  6
CONTINUOUS
 62
   250
100
AcDbLine
 10
363.88461
 20
182.53846
 30
0.0
 11
365.88461
 21
182.53846
 31
0.0
  0
LINE
  5
683
100
AcDbEntity
  8
1
  6
CONTINUOUS
 62
   250
100
AcDbLine
 10
361.88461
 20
176.53846
 30
0.0
 11
365.88461
 21
176.53846
 31
0.0
  0
LINE
  5
684
100
AcDbEntity
  8
1
  6
CONTINUOUS
 62
   250
100
AcDbLine
 10
363.88461
 20
176.53846
 30
0.0
 11
363.88461
 21
181.57485
 31
0.0
  0
LINE
  5
685
100
AcDbEntity
  8
1
  6
CONTINUOUS
 62
   250
100
AcDbLine
 10
356.88461
 20
180.53846
 30
0.0
 11
363.88461
 21
181.57485
 31
0.0
  0
LINE
  5
686
100
AcDbEntity
  8
1
  6
CONTINUOUS
 62
   250
100
AcDbLine
 10
363.88461
 20
177.53846
 30
0.0
 11
365.88461
 21
177.53846
 31
0.0
  0
LINE
  5
687
100
AcDbEntity
  8
1
  6
CONTINUOUS
 62
   250
100
AcDbLine
 10
366.58461
 20
173.03846
 30
0.0
 11
361.88461
 21
174.74912
 31
0.0
  0
LINE
  5
688
100
AcDbEntity
  8
1
  6
CONTINUOUS
 62
   250
100
AcDbLine
 10
366.58461
 20
143.03846
 30
0.0
 11
361.88461
 21
141.3278
 31
0.0
  0
LINE
  5
689
100
AcDbEntity
  8
1
  6
CONTINUOUS
 62
   250
100
AcDbLine
 10
361.88461
 20
151.53846
 30
0.0
 11
371.88461
 21
151.53846
 31
0.0
  0
LINE
  5
68A
100
AcDbEntity
  8
1
  6
CONTINUOUS
 62
   250
100
AcDbLine
 10
361.88461
 20
160.53846
 30
0.0
 11
368.88461
 21
160.53846
 31
0.0
  0
LINE
  5
68B
100
AcDbEntity
  8
1
  6
CONTINUOUS
 62
   250
100
AcDbLine
 10
371.88461
 20
151.53846
 30
0.0
 11
371.88461
 21
163.53846
 31
0.0
  0
LINE
  5
68C
100
AcDbEntity
  8
1
  6
CONTINUOUS
 62
   250
100
AcDbLine
 10
368.88461
 20
151.53846
 30
0.0
 11
368.88461
 21
163.53846
 31
0.0
  0
LINE
  5
68D
100
AcDbEntity
  8
1
  6
CONTINUOUS
 62
   250
100
AcDbLine
 10
368.88461
 20
163.53846
 30
0.0
 11
371.88461
 21
163.53846
 31
0.0
  0
LINE
  5
68E
100
AcDbEntity
  8
1
  6
CONTINUOUS
 62
   250
100
AcDbLine
 10
366.58461
 20
160.53846
 30
0.0
 11
366.58461
 21
173.13846
 31
0.0
  0
LINE
  5
68F
100
AcDbEntity
  8
1
  6
CONTINUOUS
 62
   250
100
AcDbLine
 10
331.88461
 20
174.63846
 30
0.0
 11
333.88461
 21
174.63846
 31
0.0
  0
LINE
  5
690
100
AcDbEntity
  8
1
  6
CONTINUOUS
 62
   250
100
AcDbLine
 10
356.88461
 20
180.53846
 30
0.0
 11
360.38461
 21
180.53846
 31
0.0
  0
LINE
  5
691
100
AcDbEntity
  8
1
  6
CONTINUOUS
 62
   250
100
AcDbLine
 10
363.88461
 20
181.57485
 30
0.0
 11
363.88461
 21
182.53846
 31
0.0
  0
LINE
  5
692
100
AcDbEntity
  8
1
  6
CONTINUOUS
 62
   250
100
AcDbLine
 10
361.88461
 20
176.53846
 30
0.0
 11
361.88461
 21
179.03846
 31
0.0
  0
LINE
  5
693
100
AcDbEntity
  8
1
  6
CONTINUOUS
 62
   250
100
AcDbLine
 10
361.88461
 20
174.74912
 30
0.0
 11
361.88461
 21
176.53846
 31
0.0
  0
LINE
  5
694
100
AcDbEntity
  8
1
  6
CONTINUOUS
 62
   250
100
AcDbLine
 10
371.88461
 20
143.03846
 30
0.0
 11
378.53106
 21
143.03846
 31
0.0
  0
LINE
  5
695
100
AcDbEntity
  8
1
  6
CONTINUOUS
 62
   250
100
AcDbLine
 10
367.58461
 20
172.28073
 30
0.0
 11
378.88461
 21
172.28073
 31
0.0
  0
LINE
  5
696
100
AcDbEntity
  8
1
  6
CONTINUOUS
 62
   250
100
AcDbLine
 10
367.58461
 20
171.06654
 30
0.0
 11
378.38461
 21
171.06654
 31
0.0
  0
LINE
  5
697
100
AcDbEntity
  8
1
  6
CONTINUOUS
 62
   250
100
AcDbLine
 10
367.58461
 20
169.13482
 30
0.0
 11
378.38461
 21
169.13482
 31
0.0
  0
LINE
  5
698
100
AcDbEntity
  8
1
  6
CONTINUOUS
 62
   250
100
AcDbLine
 10
367.58461
 20
166.9164
 30
0.0
 11
378.38461
 21
166.9164
 31
0.0
  0
LINE
  5
699
100
AcDbEntity
  8
1
  6
CONTINUOUS
 62
   250
100
AcDbLine
 10
367.58461
 20
164.07025
 30
0.0
 11
378.38461
 21
164.07025
 31
0.0
  0
LINE
  5
69A
100
AcDbEntity
  8
1
  6
CONTINUOUS
 62
   250
100
AcDbLine
 10
371.88461
 20
158.03846
 30
0.0
 11
378.38461
 21
158.03846
 31
0.0
  0
LINE
  5
69B
100
AcDbEntity
  8
1
  6
CONTINUOUS
 62
   250
100
AcDbLine
 10
371.88461
 20
154.9939
 30
0.0
 11
378.38461
 21
154.9939
 31
0.0
  0
LINE
  5
69C
100
AcDbEntity
  8
1
  6
CONTINUOUS
 62
   250
100
AcDbLine
 10
367.58461
 20
145.79101
 30
0.0
 11
378.88461
 21
145.79101
 31
0.0
  0
LINE
  5
69D
100
AcDbEntity
  8
1
  6
CONTINUOUS
 62
   250
100
AcDbLine
 10
371.88461
 20
151.86831
 30
0.0
 11
378.38461
 21
151.86831
 31
0.0
  0
LINE
  5
69E
100
AcDbEntity
  8
1
  6
CONTINUOUS
 62
   250
100
AcDbLine
 10
367.58461
 20
149.28306
 30
0.0
 11
378.38461
 21
149.28306
 31
0.0
  0
LINE
  5
69F
100
AcDbEntity
  8
1
  6
CONTINUOUS
 62
   250
100
AcDbLine
 10
367.58461
 20
161.23117
 30
0.0
 11
367.58461
 21
164.07025
 31
0.0
  0
LINE
  5
6A0
100
AcDbEntity
  8
1
  6
CONTINUOUS
 62
   250
100
AcDbLine
 10
367.58461
 20
143.03846
 30
0.0
 11
367.58461
 21
145.79101
 31
0.0
  0
LINE
  5
6A1
100
AcDbEntity
  8
1
  6
CONTINUOUS
 62
   250
100
AcDbLine
 10
371.88461
 20
161.23117
 30
0.0
 11
378.38461
 21
161.23117
 31
0.0
  0
LINE
  5
6A2
100
AcDbEntity
  8
1
  6
CONTINUOUS
 62
   250
100
AcDbLine
 10
367.58461
 20
149.28306
 30
0.0
 11
367.58461
 21
151.53846
 31
0.0
  0
LINE
  5
6A3
100
AcDbEntity
  8
1
  6
CONTINUOUS
 62
   250
100
AcDbLine
 10
367.58461
 20
171.06654
 30
0.0
 11
367.58461
 21
172.28073
 31
0.0
  0
LINE
  5
6A4
100
AcDbEntity
  8
1
  6
CONTINUOUS
 62
   250
100
AcDbLine
 10
367.58461
 20
166.9164
 30
0.0
 11
367.58461
 21
169.13482
 31
0.0
  0
LINE
  5
6A5
100
AcDbEntity
  8
1
  6
CONTINUOUS
 62
   250
100
AcDbLine
 10
367.58461
 20
161.23117
 30
0.0
 11
368.88461
 21
161.23117
 31
0.0
  0
ARC
  5
6A6
100
AcDbEntity
  8
1
  6
CONTINUOUS
 62
   250
100
AcDbCircle
 10
378.27547
 20
171.67363
 30
0.0
 40
0.616825
100
AcDbArc
 50
280.19227
 51
79.80773
  0
ARC
  5
6A7
100
AcDbEntity
  8
1
  6
CONTINUOUS
 62
   250
100
AcDbCircle
 10
377.40651
 20
168.02561
 30
0.0
 40
1.478866
100
AcDbArc
 50
311.40603
 51
48.59397
  0
ARC
  5
6A8
100
AcDbEntity
  8
1
  6
CONTINUOUS
 62
   250
100
AcDbCircle
 10
376.62264
 20
162.65071
 30
0.0
 40
2.26266
100
AcDbArc
 50
321.14322
 51
38.85678
  0
ARC
  5
6A9
100
AcDbEntity
  8
1
  6
CONTINUOUS
 62
   250
100
AcDbCircle
 10
376.31763
 20
156.51618
 30
0.0
 40
2.567054
100
AcDbArc
 50
323.62935
 51
36.37065
  0
ARC
  5
6AA
100
AcDbEntity
  8
1
  6
CONTINUOUS
 62
   250
100
AcDbCircle
 10
376.96428
 20
150.57568
 30
0.0
 40
1.920472
100
AcDbArc
 50
317.69516
 51
42.30484
  0
LINE
  5
6AB
100
AcDbEntity
  8
1
  6
HIDDEN
 62
   250
 48
0.5
100
AcDbLine
 10
344.38461
 20
154.79343
 30
0.0
 11
344.38461
 21
141.53846
 31
0.0
  0
LINE
  5
6AC
100
AcDbEntity
  8
1
  6
HIDDEN
 62
   250
 48
0.5
100
AcDbLine
 10
345.38461
 20
154.7144
 30
0.0
 11
345.38461
 21
141.53846
 31
0.0
  0
LINE
  5
6AD
100
AcDbEntity
  8
1
  6
HIDDEN
 62
   250
 48
0.5
100
AcDbLine
 10
348.28461
 20
149.33846
 30
0.0
 11
348.28461
 21
141.53846
 31
0.0
  0
LINE
  5
6AE
100
AcDbEntity
  8
1
  6
HIDDEN
 62
   250
 48
0.5
100
AcDbLine
 10
348.28461
 20
149.33846
 30
0.0
 11
345.38461
 21
149.33846
 31
0.0
  0
LINE
  5
6AF
100
AcDbEntity
  8
1
  6
HIDDEN
 62
   250
 48
0.5
100
AcDbLine
 10
350.78461
 20
148.46974
 30
0.0
 11
350.78461
 21
145.93846
 31
0.0
  0
LINE
  5
6B0
100
AcDbEntity
  8
1
  6
HIDDEN
 62
   250
 48
0.5
100
AcDbLine
 10
348.28461
 20
142.18846
 30
0.0
 11
350.78461
 21
142.40718
 31
0.0
  0
LINE
  5
6B1
100
AcDbEntity
  8
1
  6
HIDDEN
 62
   250
 48
0.5
100
AcDbLine
 10
348.28461
 20
148.68846
 30
0.0
 11
350.78461
 21
148.46974
 31
0.0
  0
LINE
  5
6B2
100
AcDbEntity
  8
1
  6
HIDDEN
 62
   250
 48
0.5
100
AcDbLine
 10
350.78461
 20
144.93846
 30
0.0
 11
349.58461
 21
144.93846
 31
0.0
  0
LINE
  5
6B3
100
AcDbEntity
  8
1
  6
HIDDEN
 62
   250
 48
0.5
100
AcDbLine
 10
350.78461
 20
145.93846
 30
0.0
 11
349.58461
 21
145.93846
 31
0.0
  0
LINE
  5
6B4
100
AcDbEntity
  8
1
  6
HIDDEN
 62
   250
 48
0.5
100
AcDbLine
 10
349.58461
 20
145.93846
 30
0.0
 11
349.58461
 21
144.93846
 31
0.0
  0
LINE
  5
6B5
100
AcDbEntity
  8
1
  6
HIDDEN
 62
   250
 48
0.5
100
AcDbLine
 10
350.78461
 20
144.93846
 30
0.0
 11
350.78461
 21
142.40718
 31
0.0
  0
LINE
  5
6B6
100
AcDbEntity
  8
1
  6
HIDDEN
 62
   250
 48
0.5
100
AcDbLine
 10
348.28461
 20
141.53846
 30
0.0
 11
344.38461
 21
141.53846
 31
0.0
  0
LINE
  5
6B9
100
AcDbEntity
  8
1
  6
CONTINUOUS
 62
   250
100
AcDbLine
 10
142.32692
 20
185.81154
 30
0.0
 11
160.32692
 21
185.81154
 31
0.0
  0
LINE
  5
6BA
100
AcDbEntity
  8
1
  6
CONTINUOUS
 62
   250
100
AcDbLine
 10
160.32692
 20
183.81154
 30
0.0
 11
160.32692
 21
185.81154
 31
0.0
  0
LINE
  5
6BB
100
AcDbEntity
  8
1
  6
CONTINUOUS
 62
   250
100
AcDbLine
 10
160.32692
 20
183.81154
 30
0.0
 11
161.92692
 21
183.81154
 31
0.0
  0
LINE
  5
6BC
100
AcDbEntity
  8
1
  6
CONTINUOUS
 62
   250
100
AcDbLine
 10
161.92692
 20
183.81154
 30
0.0
 11
161.92692
 21
180.56154
 31
0.0
  0
LINE
  5
6BD
100
AcDbEntity
  8
1
  6
CONTINUOUS
 62
   250
100
AcDbLine
 10
160.32692
 20
180.56154
 30
0.0
 11
161.92692
 21
180.56154
 31
0.0
  0
LINE
  5
6BE
100
AcDbEntity
  8
1
  6
CONTINUOUS
 62
   250
100
AcDbLine
 10
142.32692
 20
183.81154
 30
0.0
 11
142.32692
 21
185.81154
 31
0.0
  0
LINE
  5
6BF
100
AcDbEntity
  8
1
  6
CONTINUOUS
 62
   250
100
AcDbLine
 10
162.67692
 20
179.31154
 30
0.0
 11
170.32692
 21
179.31154
 31
0.0
  0
LINE
  5
6C0
100
AcDbEntity
  8
1
  6
CONTINUOUS
 62
   250
100
AcDbLine
 10
139.97692
 20
179.31154
 30
0.0
 11
160.32692
 21
179.31154
 31
0.0
  0
LINE
  5
6C1
100
AcDbEntity
  8
1
  6
CONTINUOUS
 62
   250
100
AcDbLine
 10
160.32692
 20
179.31154
 30
0.0
 11
160.32692
 21
180.56154
 31
0.0
  0
LINE
  5
6C2
100
AcDbEntity
  8
1
  6
CONTINUOUS
 62
   250
100
AcDbLine
 10
142.32692
 20
180.81154
 30
0.0
 11
142.32692
 21
184.73046
 31
0.0
  0
LINE
  5
6C3
100
AcDbEntity
  8
1
  6
CONTINUOUS
 62
   250
100
AcDbLine
 10
144.32692
 20
181.61154
 30
0.0
 11
144.32692
 21
183.61154
 31
0.0
  0
LINE
  5
6C4
100
AcDbEntity
  8
1
  6
CONTINUOUS
 62
   250
100
AcDbLine
 10
144.32692
 20
181.61154
 30
0.0
 11
146.32692
 21
181.61154
 31
0.0
  0
LINE
  5
6C5
100
AcDbEntity
  8
1
  6
CONTINUOUS
 62
   250
100
AcDbLine
 10
146.32692
 20
181.61154
 30
0.0
 11
146.32692
 21
183.61154
 31
0.0
  0
LINE
  5
6C6
100
AcDbEntity
  8
1
  6
CONTINUOUS
 62
   250
100
AcDbLine
 10
144.32692
 20
183.61154
 30
0.0
 11
146.32692
 21
183.61154
 31
0.0
  0
LINE
  5
6C7
100
AcDbEntity
  8
1
  6
CONTINUOUS
 62
   250
100
AcDbLine
 10
156.32692
 20
181.61154
 30
0.0
 11
156.32692
 21
183.61154
 31
0.0
  0
LINE
  5
6C8
100
AcDbEntity
  8
1
  6
CONTINUOUS
 62
   250
100
AcDbLine
 10
156.32692
 20
183.61154
 30
0.0
 11
158.32692
 21
183.61154
 31
0.0
  0
LINE
  5
6C9
100
AcDbEntity
  8
1
  6
CONTINUOUS
 62
   250
100
AcDbLine
 10
156.32692
 20
181.61154
 30
0.0
 11
158.32692
 21
181.61154
 31
0.0
  0
LINE
  5
6CA
100
AcDbEntity
  8
1
  6
CONTINUOUS
 62
   250
100
AcDbLine
 10
158.32692
 20
181.61154
 30
0.0
 11
158.32692
 21
183.61154
 31
0.0
  0
LINE
  5
6CB
100
AcDbEntity
  8
1
  6
CONTINUOUS
 62
   250
100
AcDbLine
 10
132.32692
 20
166.81154
 30
0.0
 11
132.32692
 21
179.31154
 31
0.0
  0
LINE
  5
6CC
100
AcDbEntity
  8
1
  6
CONTINUOUS
 62
   250
100
AcDbLine
 10
130.82692
 20
166.81154
 30
0.0
 11
133.62692
 21
166.81154
 31
0.0
  0
LINE
  5
6CD
100
AcDbEntity
  8
1
  6
CONTINUOUS
 62
   250
100
AcDbLine
 10
133.62692
 20
166.81154
 30
0.0
 11
133.62692
 21
154.81154
 31
0.0
  0
LINE
  5
6CE
100
AcDbEntity
  8
1
  6
CONTINUOUS
 62
   250
100
AcDbLine
 10
130.82692
 20
154.81154
 30
0.0
 11
133.62692
 21
154.81154
 31
0.0
  0
LINE
  5
6CF
100
AcDbEntity
  8
1
  6
CONTINUOUS
 62
   250
100
AcDbLine
 10
130.82692
 20
166.81154
 30
0.0
 11
130.82692
 21
154.81154
 31
0.0
  0
LINE
  5
6D0
100
AcDbEntity
  8
1
  6
CONTINUOUS
 62
   250
100
AcDbLine
 10
132.32692
 20
143.31154
 30
0.0
 11
132.32692
 21
154.81154
 31
0.0
  0
LINE
  5
6D1
100
AcDbEntity
  8
1
  6
CONTINUOUS
 62
   250
100
AcDbLine
 10
129.82692
 20
183.81154
 30
0.0
 11
132.32692
 21
183.81154
 31
0.0
  0
LINE
  5
6D2
100
AcDbEntity
  8
1
  6
CONTINUOUS
 62
   250
100
AcDbLine
 10
132.32692
 20
179.31154
 30
0.0
 11
132.32692
 21
183.81154
 31
0.0
  0
LINE
  5
6D3
100
AcDbEntity
  8
1
  6
CONTINUOUS
 62
   250
100
AcDbLine
 10
129.82692
 20
183.81154
 30
0.0
 11
129.82692
 21
138.81154
 31
0.0
  0
LINE
  5
6D4
100
AcDbEntity
  8
1
  6
CONTINUOUS
 62
   250
100
AcDbLine
 10
132.32692
 20
179.31154
 30
0.0
 11
139.97692
 21
179.31154
 31
0.0
  0
LINE
  5
6D5
100
AcDbEntity
  8
1
  6
CONTINUOUS
 62
   250
100
AcDbLine
 10
139.97692
 20
180.56154
 30
0.0
 11
139.97692
 21
179.31154
 31
0.0
  0
LINE
  5
6D6
100
AcDbEntity
  8
1
  6
CONTINUOUS
 62
   250
100
AcDbLine
 10
140.72692
 20
183.81154
 30
0.0
 11
142.32692
 21
183.81154
 31
0.0
  0
LINE
  5
6D7
100
AcDbEntity
  8
1
  6
CONTINUOUS
 62
   250
100
AcDbLine
 10
140.72692
 20
183.81154
 30
0.0
 11
140.72692
 21
180.56154
 31
0.0
  0
LINE
  5
6D8
100
AcDbEntity
  8
1
  6
CONTINUOUS
 62
   250
100
AcDbLine
 10
139.97692
 20
180.56154
 30
0.0
 11
140.72692
 21
180.56154
 31
0.0
  0
LINE
  5
6D9
100
AcDbEntity
  8
1
  6
CONTINUOUS
 62
   250
100
AcDbLine
 10
140.72692
 20
180.56154
 30
0.0
 11
142.32692
 21
180.56154
 31
0.0
  0
LINE
  5
6DA
100
AcDbEntity
  8
1
  6
CONTINUOUS
 62
   250
100
AcDbLine
 10
142.32692
 20
179.31154
 30
0.0
 11
142.32692
 21
183.81154
 31
0.0
  0
LINE
  5
6DB
100
AcDbEntity
  8
1
  6
CONTINUOUS
 62
   250
100
AcDbLine
 10
170.32692
 20
179.31154
 30
0.0
 11
170.32692
 21
143.31154
 31
0.0
  0
LINE
  5
6DC
100
AcDbEntity
  8
1
  6
CONTINUOUS
 62
   250
100
AcDbLine
 10
170.32692
 20
143.31154
 30
0.0
 11
170.32692
 21
138.81154
 31
0.0
  0
LINE
  5
6DD
100
AcDbEntity
  8
1
  6
CONTINUOUS
 62
   250
100
AcDbLine
 10
170.32692
 20
183.81154
 30
0.0
 11
170.32692
 21
179.31154
 31
0.0
  0
LINE
  5
6DE
100
AcDbEntity
  8
1
  6
CONTINUOUS
 62
   250
100
AcDbLine
 10
170.32692
 20
183.81154
 30
0.0
 11
172.82692
 21
183.81154
 31
0.0
  0
LINE
  5
6DF
100
AcDbEntity
  8
1
  6
CONTINUOUS
 62
   250
100
AcDbLine
 10
172.82692
 20
183.81154
 30
0.0
 11
172.82692
 21
138.81154
 31
0.0
  0
LINE
  5
6E0
100
AcDbEntity
  8
1
  6
CONTINUOUS
 62
   250
100
AcDbLine
 10
170.32692
 20
138.81154
 30
0.0
 11
172.82692
 21
138.81154
 31
0.0
  0
LINE
  5
6E1
100
AcDbEntity
  8
1
  6
CONTINUOUS
 62
   250
100
AcDbLine
 10
162.67692
 20
143.31154
 30
0.0
 11
170.32692
 21
143.31154
 31
0.0
  0
LINE
  5
6E2
100
AcDbEntity
  8
1
  6
CONTINUOUS
 62
   250
100
AcDbLine
 10
161.92692
 20
142.06154
 30
0.0
 11
162.67692
 21
142.06154
 31
0.0
  0
LINE
  5
6E3
100
AcDbEntity
  8
1
  6
CONTINUOUS
 62
   250
100
AcDbLine
 10
162.67692
 20
143.31154
 30
0.0
 11
162.67692
 21
142.06154
 31
0.0
  0
LINE
  5
6E4
100
AcDbEntity
  8
1
  6
CONTINUOUS
 62
   250
100
AcDbLine
 10
161.92692
 20
142.06154
 30
0.0
 11
161.92692
 21
138.81154
 31
0.0
  0
LINE
  5
6E5
100
AcDbEntity
  8
1
  6
CONTINUOUS
 62
   250
100
AcDbLine
 10
159.92692
 20
142.06154
 30
0.0
 11
161.92692
 21
142.06154
 31
0.0
  0
LINE
  5
6E6
100
AcDbEntity
  8
1
  6
CONTINUOUS
 62
   250
100
AcDbLine
 10
159.92692
 20
142.06154
 30
0.0
 11
159.92692
 21
138.81154
 31
0.0
  0
LINE
  5
6E7
100
AcDbEntity
  8
1
  6
CONTINUOUS
 62
   250
100
AcDbLine
 10
159.92692
 20
138.81154
 30
0.0
 11
161.92692
 21
138.81154
 31
0.0
  0
LINE
  5
6E8
100
AcDbEntity
  8
1
  6
CONTINUOUS
 62
   250
100
AcDbLine
 10
156.87692
 20
142.06154
 30
0.0
 11
159.92692
 21
142.06154
 31
0.0
  0
LINE
  5
6E9
100
AcDbEntity
  8
1
  6
CONTINUOUS
 62
   250
100
AcDbLine
 10
156.87692
 20
143.31154
 30
0.0
 11
156.87692
 21
142.06154
 31
0.0
  0
LINE
  5
6EA
100
AcDbEntity
  8
1
  6
CONTINUOUS
 62
   250
100
AcDbLine
 10
155.32692
 20
143.31154
 30
0.0
 11
156.87692
 21
143.31154
 31
0.0
  0
LINE
  5
6EB
100
AcDbEntity
  8
1
  6
CONTINUOUS
 62
   250
100
AcDbLine
 10
152.82692
 20
143.31154
 30
0.0
 11
155.32692
 21
143.31154
 31
0.0
  0
LINE
  5
6EC
100
AcDbEntity
  8
1
  6
CONTINUOUS
 62
   250
100
AcDbLine
 10
155.32692
 20
138.81154
 30
0.0
 11
151.32692
 21
144.81154
 31
0.0
  0
LINE
  5
6ED
100
AcDbEntity
  8
1
  6
CONTINUOUS
 62
   250
100
AcDbLine
 10
152.82692
 20
145.81154
 30
0.0
 11
152.82692
 21
142.56154
 31
0.0
  0
LINE
  5
6EE
100
AcDbEntity
  8
1
  6
CONTINUOUS
 62
   250
100
AcDbLine
 10
149.82692
 20
145.81154
 30
0.0
 11
149.82692
 21
142.56154
 31
0.0
  0
LINE
  5
6EF
100
AcDbEntity
  8
1
  6
CONTINUOUS
 62
   250
100
AcDbLine
 10
147.32692
 20
143.31154
 30
0.0
 11
149.82692
 21
143.31154
 31
0.0
  0
LINE
  5
6F0
100
AcDbEntity
  8
1
  6
CONTINUOUS
 62
   250
100
AcDbLine
 10
145.77692
 20
143.31154
 30
0.0
 11
147.32692
 21
143.31154
 31
0.0
  0
LINE
  5
6F1
100
AcDbEntity
  8
1
  6
CONTINUOUS
 62
   250
100
AcDbLine
 10
145.77692
 20
143.31154
 30
0.0
 11
145.77692
 21
142.06154
 31
0.0
  0
LINE
  5
6F2
100
AcDbEntity
  8
1
  6
CONTINUOUS
 62
   250
100
AcDbLine
 10
142.72692
 20
142.06154
 30
0.0
 11
145.77692
 21
142.06154
 31
0.0
  0
LINE
  5
6F3
100
AcDbEntity
  8
1
  6
CONTINUOUS
 62
   250
100
AcDbLine
 10
142.72692
 20
142.06154
 30
0.0
 11
142.72692
 21
138.81154
 31
0.0
  0
LINE
  5
6F4
100
AcDbEntity
  8
1
  6
CONTINUOUS
 62
   250
100
AcDbLine
 10
140.72692
 20
138.81154
 30
0.0
 11
142.72692
 21
138.81154
 31
0.0
  0
LINE
  5
6F5
100
AcDbEntity
  8
1
  6
CONTINUOUS
 62
   250
100
AcDbLine
 10
140.72692
 20
142.06154
 30
0.0
 11
140.72692
 21
138.81154
 31
0.0
  0
LINE
  5
6F6
100
AcDbEntity
  8
1
  6
CONTINUOUS
 62
   250
100
AcDbLine
 10
139.97692
 20
142.06154
 30
0.0
 11
140.72692
 21
142.06154
 31
0.0
  0
LINE
  5
6F7
100
AcDbEntity
  8
1
  6
CONTINUOUS
 62
   250
100
AcDbLine
 10
139.97692
 20
143.31154
 30
0.0
 11
139.97692
 21
142.06154
 31
0.0
  0
LINE
  5
6F8
100
AcDbEntity
  8
1
  6
CONTINUOUS
 62
   250
100
AcDbLine
 10
132.32692
 20
143.31154
 30
0.0
 11
139.97692
 21
143.31154
 31
0.0
  0
LINE
  5
6F9
100
AcDbEntity
  8
1
  6
CONTINUOUS
 62
   250
100
AcDbLine
 10
151.32692
 20
144.81154
 30
0.0
 11
147.32692
 21
138.81154
 31
0.0
  0
LINE
  5
6FA
100
AcDbEntity
  8
1
  6
CONTINUOUS
 62
   250
100
AcDbLine
 10
147.32692
 20
143.31154
 30
0.0
 11
147.32692
 21
138.81154
 31
0.0
  0
LINE
  5
6FB
100
AcDbEntity
  8
1
  6
CONTINUOUS
 62
   250
100
AcDbLine
 10
147.32692
 20
138.81154
 30
0.0
 11
155.32692
 21
138.81154
 31
0.0
  0
LINE
  5
6FC
100
AcDbEntity
  8
1
  6
CONTINUOUS
 62
   250
100
AcDbLine
 10
155.32692
 20
143.31154
 30
0.0
 11
155.32692
 21
138.81154
 31
0.0
  0
LINE
  5
6FD
100
AcDbEntity
  8
1
  6
CONTINUOUS
 62
   250
100
AcDbLine
 10
132.32692
 20
143.31154
 30
0.0
 11
132.32692
 21
138.81154
 31
0.0
  0
LINE
  5
6FE
100
AcDbEntity
  8
1
  6
CONTINUOUS
 62
   250
100
AcDbLine
 10
129.82692
 20
138.81154
 30
0.0
 11
132.32692
 21
138.81154
 31
0.0
  0
CIRCLE
  5
6FF
100
AcDbEntity
  8
1
  6
CONTINUOUS
 62
   250
100
AcDbCircle
 10
151.32692
 20
161.31154
 30
0.0
 40
14.0
  0
ARC
  5
700
100
AcDbEntity
  8
1
  6
CONTINUOUS
 62
   250
100
AcDbCircle
 10
137.95032
 20
149.26719
 30
0.0
 40
3.5
100
AcDbArc
 50
13.998647
 51
70.001353
  0
ARC
  5
701
100
AcDbEntity
  8
1
  6
CONTINUOUS
 62
   250
100
AcDbCircle
 10
151.32692
 20
161.31154
 30
0.0
 40
15.0
100
AcDbArc
 50
228.28927
 51
232.20028
  0
ARC
  5
702
100
AcDbEntity
  8
1
  6
CONTINUOUS
 62
   250
100
AcDbCircle
 10
151.32692
 20
161.31154
 30
0.0
 40
15.5
100
AcDbArc
 50
232.48247
 51
264.47246
  0
LINE
  5
703
100
AcDbEntity
  8
1
  6
CONTINUOUS
 62
   250
100
AcDbLine
 10
142.13337
 20
149.45917
 30
0.0
 11
141.82692
 21
149.06409
 31
0.0
  0
ARC
  5
704
100
AcDbEntity
  8
1
  6
CONTINUOUS
 62
   250
100
AcDbCircle
 10
151.32692
 20
161.31154
 30
0.0
 40
15.9
100
AcDbArc
 50
275.41331
 51
264.58669
  0
CIRCLE
  5
705
100
AcDbEntity
  8
1
  6
CONTINUOUS
 62
   250
100
AcDbCircle
 10
136.82692
 20
148.31154
 30
0.0
 40
2.875
  0
CIRCLE
  5
706
100
AcDbEntity
  8
1
  6
CONTINUOUS
 62
   250
100
AcDbCircle
 10
136.82692
 20
148.31154
 30
0.0
 40
2.75
  0
CIRCLE
  5
717
100
AcDbEntity
  8
1
  6
CONTINUOUS
 62
   250
100
AcDbCircle
 10
143.32692
 20
145.31154
 30
0.0
 40
2.0
  0
LINE
  5
718
100
AcDbEntity
  8
1
  6
CONTINUOUS
 62
   250
100
AcDbLine
 10
149.82692
 20
145.81154
 30
0.0
 11
152.82692
 21
145.81154
 31
0.0
  0
ARC
  5
719
100
AcDbEntity
  8
1
  6
CONTINUOUS
 62
   250
100
AcDbCircle
 10
151.32692
 20
143.31154
 30
0.0
 40
3.5
100
AcDbArc
 50
61.998647
 51
114.16737
  0
ARC
  5
71A
100
AcDbEntity
  8
1
  6
CONTINUOUS
 62
   250
100
AcDbCircle
 10
158.64818
 20
144.86772
 30
0.0
 40
3.5
100
AcDbArc
 50
85.998647
 51
142.00135
  0
ARC
  5
71B
100
AcDbEntity
  8
1
  6
CONTINUOUS
 62
   250
100
AcDbCircle
 10
164.70353
 20
149.26719
 30
0.0
 40
3.5
100
AcDbArc
 50
109.99865
 51
166.00135
  0
ARC
  5
71C
100
AcDbEntity
  8
1
  6
CONTINUOUS
 62
   250
100
AcDbCircle
 10
151.32692
 20
161.31154
 30
0.0
 40
15.0
100
AcDbArc
 50
276.28927
 51
287.71073
  0
ARC
  5
71D
100
AcDbEntity
  8
1
  6
CONTINUOUS
 62
   250
100
AcDbCircle
 10
151.32692
 20
161.31154
 30
0.0
 40
15.0
100
AcDbArc
 50
300.28927
 51
311.71073
  0
ARC
  5
71E
100
AcDbEntity
  8
1
  6
CONTINUOUS
 62
   250
100
AcDbCircle
 10
151.32692
 20
161.31154
 30
0.0
 40
15.0
100
AcDbArc
 50
324.28927
 51
335.71073
  0
CIRCLE
  5
71F
100
AcDbEntity
  8
1
  6
CONTINUOUS
 62
   250
100
AcDbCircle
 10
165.82692
 20
148.31154
 30
0.0
 40
2.875
  0
CIRCLE
  5
720
100
AcDbEntity
  8
1
  6
CONTINUOUS
 62
   250
100
AcDbCircle
 10
165.82692
 20
148.31154
 30
0.0
 40
2.75
  0
CIRCLE
  5
731
100
AcDbEntity
  8
1
  6
CONTINUOUS
 62
   250
100
AcDbCircle
 10
159.32692
 20
145.31154
 30
0.0
 40
2.0
  0
LINE
  5
732
100
AcDbEntity
  8
1
  6
CONTINUOUS
 62
   250
100
AcDbLine
 10
149.89401
 20
146.50477
 30
0.0
 11
149.82692
 21
145.81154
 31
0.0
  0
ARC
  5
733
100
AcDbEntity
  8
1
  6
CONTINUOUS
 62
   250
100
AcDbCircle
 10
140.74679
 20
175.87384
 30
0.0
 40
3.5
100
AcDbArc
 50
277.99865
 51
334.00135
  0
ARC
  5
734
100
AcDbEntity
  8
1
  6
CONTINUOUS
 62
   250
100
AcDbCircle
 10
135.73847
 20
170.31154
 30
0.0
 40
3.5
100
AcDbArc
 50
301.99865
 51
358.00135
  0
ARC
  5
735
100
AcDbEntity
  8
1
  6
CONTINUOUS
 62
   250
100
AcDbCircle
 10
133.42553
 20
163.19305
 30
0.0
 40
3.5
100
AcDbArc
 50
325.99865
 51
22.00135
  0
ARC
  5
736
100
AcDbEntity
  8
1
  6
CONTINUOUS
 62
   250
100
AcDbCircle
 10
134.20791
 20
155.74923
 30
0.0
 40
3.5
100
AcDbArc
 50
349.99865
 51
46.00135
  0
ARC
  5
737
100
AcDbEntity
  8
1
  6
CONTINUOUS
 62
   250
100
AcDbCircle
 10
168.44594
 20
155.74923
 30
0.0
 40
3.5
100
AcDbArc
 50
133.99865
 51
190.00135
  0
ARC
  5
738
100
AcDbEntity
  8
1
  6
CONTINUOUS
 62
   250
100
AcDbCircle
 10
169.22832
 20
163.19305
 30
0.0
 40
3.5
100
AcDbArc
 50
157.99865
 51
214.00135
  0
ARC
  5
739
100
AcDbEntity
  8
1
  6
CONTINUOUS
 62
   250
100
AcDbCircle
 10
166.91538
 20
170.31154
 30
0.0
 40
3.5
100
AcDbArc
 50
181.99865
 51
238.00135
  0
ARC
  5
73A
100
AcDbEntity
  8
1
  6
CONTINUOUS
 62
   250
100
AcDbCircle
 10
161.90706
 20
175.87384
 30
0.0
 40
3.5
100
AcDbArc
 50
205.99865
 51
262.00135
  0
ARC
  5
73B
100
AcDbEntity
  8
1
  6
CONTINUOUS
 62
   250
100
AcDbCircle
 10
151.32692
 20
161.31154
 30
0.0
 40
15.0
100
AcDbArc
 50
132.28927
 51
143.71073
  0
ARC
  5
73C
100
AcDbEntity
  8
1
  6
CONTINUOUS
 62
   250
100
AcDbCircle
 10
151.32692
 20
161.31154
 30
0.0
 40
15.0
100
AcDbArc
 50
156.28927
 51
167.71073
  0
ARC
  5
73D
100
AcDbEntity
  8
1
  6
CONTINUOUS
 62
   250
100
AcDbCircle
 10
151.32692
 20
161.31154
 30
0.0
 40
15.0
100
AcDbArc
 50
180.28927
 51
191.71073
  0
ARC
  5
73E
100
AcDbEntity
  8
1
  6
CONTINUOUS
 62
   250
100
AcDbCircle
 10
151.32692
 20
161.31154
 30
0.0
 40
15.0
100
AcDbArc
 50
204.28927
 51
215.71073
  0
ARC
  5
73F
100
AcDbEntity
  8
1
  6
CONTINUOUS
 62
   250
100
AcDbCircle
 10
151.32692
 20
161.31154
 30
0.0
 40
15.0
100
AcDbArc
 50
348.28927
 51
359.71073
  0
ARC
  5
740
100
AcDbEntity
  8
1
  6
CONTINUOUS
 62
   250
100
AcDbCircle
 10
151.32692
 20
161.31154
 30
0.0
 40
15.0
100
AcDbArc
 50
12.289274
 51
23.710726
  0
ARC
  5
741
100
AcDbEntity
  8
1
  6
CONTINUOUS
 62
   250
100
AcDbCircle
 10
151.32692
 20
161.31154
 30
0.0
 40
15.0
100
AcDbArc
 50
36.289274
 51
47.710726
  0
CIRCLE
  5
742
100
AcDbEntity
  8
1
  6
CONTINUOUS
 62
   250
100
AcDbCircle
 10
165.82692
 20
174.31154
 30
0.0
 40
2.875
  0
CIRCLE
  5
743
100
AcDbEntity
  8
1
  6
CONTINUOUS
 62
   250
100
AcDbCircle
 10
165.82692
 20
174.31154
 30
0.0
 40
2.75
  0
CIRCLE
  5
74C
100
AcDbEntity
  8
1
  6
CONTINUOUS
 62
   250
100
AcDbCircle
 10
136.82692
 20
174.31154
 30
0.0
 40
2.875
  0
CIRCLE
  5
74D
100
AcDbEntity
  8
1
  6
CONTINUOUS
 62
   250
100
AcDbCircle
 10
136.82692
 20
174.31154
 30
0.0
 40
2.75
  0
ARC
  5
756
100
AcDbEntity
  8
1
  6
CONTINUOUS
 62
   250
100
AcDbCircle
 10
151.32692
 20
161.31154
 30
0.0
 40
15.0
100
AcDbArc
 50
84.289274
 51
95.710726
  0
ARC
  5
757
100
AcDbEntity
  8
1
  6
CONTINUOUS
 62
   250
100
AcDbCircle
 10
155.06933
 20
178.91819
 30
0.0
 40
3.5
100
AcDbArc
 50
229.99865
 51
286.00135
  0
ARC
  5
758
100
AcDbEntity
  8
1
  6
CONTINUOUS
 62
   250
100
AcDbCircle
 10
147.58451
 20
178.91819
 30
0.0
 40
3.5
100
AcDbArc
 50
253.99865
 51
310.00135
  0
ARC
  5
759
100
AcDbEntity
  8
1
  6
CONTINUOUS
 62
   250
100
AcDbCircle
 10
151.32692
 20
161.31154
 30
0.0
 40
15.0
100
AcDbArc
 50
108.28927
 51
119.71073
  0
ARC
  5
75A
100
AcDbEntity
  8
1
  6
CONTINUOUS
 62
   250
100
AcDbCircle
 10
151.32692
 20
161.31154
 30
0.0
 40
15.0
100
AcDbArc
 50
60.289274
 51
71.710726
  0
CIRCLE
  5
75B
100
AcDbEntity
  8
1
  6
CONTINUOUS
 62
   250
100
AcDbCircle
 10
159.32692
 20
177.31154
 30
0.0
 40
2.0
  0
CIRCLE
  5
76C
100
AcDbEntity
  8
1
  6
CONTINUOUS
 62
   250
100
AcDbCircle
 10
143.32692
 20
177.31154
 30
0.0
 40
2.0
  0
LINE
  5
76D
100
AcDbEntity
  8
1
  6
CONTINUOUS
 62
   250
100
AcDbLine
 10
160.32692
 20
179.31154
 30
0.0
 11
162.67692
 21
179.31154
 31
0.0
  0
LINE
  5
76E
100
AcDbEntity
  8
1
  6
CONTINUOUS
 62
   250
100
AcDbLine
 10
160.32692
 20
180.56154
 30
0.0
 11
160.32692
 21
183.81154
 31
0.0
  0
LINE
  5
770
100
AcDbEntity
  8
1
  6
CONTINUOUS
 62
   250
100
AcDbLine
 10
366.88461
 20
182.53846
 30
0.0
 11
387.82283
 21
182.53846
 31
0.0
  0
LINE
  5
771
100
AcDbEntity
  8
1
  6
CONTINUOUS
 62
   250
100
AcDbLine
 10
372.88461
 20
135.53846
 30
0.0
 11
387.82283
 21
135.53846
 31
0.0
  0
LINE
  5
772
100
AcDbEntity
  8
1
  6
CONTINUOUS
 62
   250
100
AcDbLine
 10
386.82293
 20
182.53846
 30
0.0
 11
386.24192
 21
179.03836
 31
0.0
  0
LINE
  5
773
100
AcDbEntity
  8
1
  6
CONTINUOUS
 62
   250
100
AcDbLine
 10
386.82293
 20
182.53846
 30
0.0
 11
387.40395
 21
179.03836
 31
0.0
  0
LINE
  5
774
100
AcDbEntity
  8
1
  6
CONTINUOUS
 62
   250
100
AcDbLine
 10
386.24192
 20
179.03836
 30
0.0
 11
387.40395
 21
179.03836
 31
0.0
  0
LINE
  5
775
100
AcDbEntity
  8
1
  6
CONTINUOUS
 62
   250
100
AcDbLine
 10
386.82293
 20
135.53846
 30
0.0
 11
386.24192
 21
139.03856
 31
0.0
  0
LINE
  5
776
100
AcDbEntity
  8
1
  6
CONTINUOUS
 62
   250
100
AcDbLine
 10
386.82293
 20
135.53846
 30
0.0
 11
387.40395
 21
139.03856
 31
0.0
  0
LINE
  5
777
100
AcDbEntity
  8
1
  6
CONTINUOUS
 62
   250
100
AcDbLine
 10
386.24192
 20
139.03856
 30
0.0
 11
387.40395
 21
139.03856
 31
0.0
  0
LINE
  5
778
100
AcDbEntity
  8
1
  6
CONTINUOUS
 62
   250
100
AcDbLine
 10
386.82293
 20
182.53846
 30
0.0
 11
386.82293
 21
159.03846
 31
0.0
  0
LINE
  5
779
100
AcDbEntity
  8
1
  6
CONTINUOUS
 62
   250
100
AcDbLine
 10
386.82293
 20
135.53846
 30
0.0
 11
386.82293
 21
159.03846
 31
0.0
  0
TEXT
  5
77A
100
AcDbEntity
  8
1
  6
CONTINUOUS
 62
   250
100
AcDbText
 10
385.82203
 20
157.16354
 30
0.0
 40
2.4999
  1
47
 50
90.0
 41
0.75
100
AcDbText
  0
LINE
  5
77B
100
AcDbEntity
  8
1
  6
CONTINUOUS
 62
   250
100
AcDbLine
 10
142.46605
 20
178.17241
 30
0.0
 11
144.1878
 21
176.45066
 31
0.0
  0
LINE
  5
77C
100
AcDbEntity
  8
1
  6
CONTINUOUS
 62
   250
100
AcDbLine
 10
141.94705
 20
175.93166
 30
0.0
 11
144.74114
 21
178.72575
 31
0.0
  0
LINE
  5
77D
100
AcDbEntity
  8
1
  6
CONTINUOUS
 62
   250
100
AcDbLine
 10
158.46605
 20
178.17241
 30
0.0
 11
160.1878
 21
176.45066
 31
0.0
  0
LINE
  5
77E
100
AcDbEntity
  8
1
  6
CONTINUOUS
 62
   250
100
AcDbLine
 10
157.94705
 20
175.93166
 30
0.0
 11
160.74114
 21
178.72575
 31
0.0
  0
LINE
  5
77F
100
AcDbEntity
  8
1
  6
CONTINUOUS
 62
   250
100
AcDbLine
 10
134.88238
 20
172.36699
 30
0.0
 11
138.77147
 21
176.25608
 31
0.0
  0
LINE
  5
780
100
AcDbEntity
  8
1
  6
CONTINUOUS
 62
   250
100
AcDbLine
 10
135.41271
 20
175.72575
 30
0.0
 11
138.24114
 21
172.89732
 31
0.0
  0
LINE
  5
781
100
AcDbEntity
  8
1
  6
CONTINUOUS
 62
   250
100
AcDbLine
 10
163.88238
 20
172.36699
 30
0.0
 11
167.77147
 21
176.25608
 31
0.0
  0
LINE
  5
782
100
AcDbEntity
  8
1
  6
CONTINUOUS
 62
   250
100
AcDbLine
 10
164.41271
 20
175.72575
 30
0.0
 11
167.24114
 21
172.89732
 31
0.0
  0
LINE
  5
783
100
AcDbEntity
  8
1
  6
CONTINUOUS
 62
   250
100
AcDbLine
 10
158.46605
 20
146.17241
 30
0.0
 11
160.1878
 21
144.45066
 31
0.0
  0
LINE
  5
784
100
AcDbEntity
  8
1
  6
CONTINUOUS
 62
   250
100
AcDbLine
 10
157.94705
 20
143.93166
 30
0.0
 11
160.74114
 21
146.72575
 31
0.0
  0
LINE
  5
785
100
AcDbEntity
  8
1
  6
CONTINUOUS
 62
   250
100
AcDbLine
 10
163.88238
 20
146.36699
 30
0.0
 11
167.77147
 21
150.25608
 31
0.0
  0
LINE
  5
786
100
AcDbEntity
  8
1
  6
CONTINUOUS
 62
   250
100
AcDbLine
 10
164.41271
 20
149.72575
 30
0.0
 11
167.24114
 21
146.89732
 31
0.0
  0
LINE
  5
787
100
AcDbEntity
  8
1
  6
CONTINUOUS
 62
   250
100
AcDbLine
 10
142.46605
 20
146.17241
 30
0.0
 11
144.1878
 21
144.45066
 31
0.0
  0
LINE
  5
788
100
AcDbEntity
  8
1
  6
CONTINUOUS
 62
   250
100
AcDbLine
 10
141.94705
 20
143.93166
 30
0.0
 11
144.74114
 21
146.72575
 31
0.0
  0
LINE
  5
789
100
AcDbEntity
  8
1
  6
CONTINUOUS
 62
   250
100
AcDbLine
 10
134.88238
 20
146.36699
 30
0.0
 11
138.77147
 21
150.25608
 31
0.0
  0
LINE
  5
78A
100
AcDbEntity
  8
1
  6
CONTINUOUS
 62
   250
100
AcDbLine
 10
135.41271
 20
149.72575
 30
0.0
 11
138.24114
 21
146.89732
 31
0.0
  0
LINE
  5
78B
100
AcDbEntity
  8
1
  6
CONTINUOUS
 62
   250
100
AcDbLine
 10
218.53462
 20
105.03846
 30
0.0
 11
218.53462
 21
69.402955
 31
0.0
  0
LINE
  5
78C
100
AcDbEntity
  8
1
  6
CONTINUOUS
 62
   250
100
AcDbLine
 10
345.38461
 20
140.53846
 30
0.0
 11
345.38461
 21
69.402955
 31
0.0
  0
LINE
  5
78D
100
AcDbEntity
  8
1
  6
CONTINUOUS
 62
   250
100
AcDbLine
 10
218.53462
 20
70.402855
 30
0.0
 11
222.03472
 21
69.821838
 31
0.0
  0
LINE
  5
78E
100
AcDbEntity
  8
1
  6
CONTINUOUS
 62
   250
100
AcDbLine
 10
218.53462
 20
70.402855
 30
0.0
 11
222.03472
 21
70.983872
 31
0.0
  0
LINE
  5
78F
100
AcDbEntity
  8
1
  6
CONTINUOUS
 62
   250
100
AcDbLine
 10
222.03472
 20
69.821838
 30
0.0
 11
222.03472
 21
70.983872
 31
0.0
  0
LINE
  5
790
100
AcDbEntity
  8
1
  6
CONTINUOUS
 62
   250
100
AcDbLine
 10
345.38461
 20
70.402855
 30
0.0
 11
341.88451
 21
69.821838
 31
0.0
  0
LINE
  5
791
100
AcDbEntity
  8
1
  6
CONTINUOUS
 62
   250
100
AcDbLine
 10
345.38461
 20
70.402855
 30
0.0
 11
341.88451
 21
70.983872
 31
0.0
  0
LINE
  5
792
100
AcDbEntity
  8
1
  6
CONTINUOUS
 62
   250
100
AcDbLine
 10
341.88451
 20
69.821838
 30
0.0
 11
341.88451
 21
70.983872
 31
0.0
  0
LINE
  5
793
100
AcDbEntity
  8
1
  6
CONTINUOUS
 62
   250
100
AcDbLine
 10
218.53462
 20
70.402855
 30
0.0
 11
281.95961
 21
70.402855
 31
0.0
  0
LINE
  5
794
100
AcDbEntity
  8
1
  6
CONTINUOUS
 62
   250
100
AcDbLine
 10
345.38461
 20
70.402855
 30
0.0
 11
281.95961
 21
70.402855
 31
0.0
  0
TEXT
  5
795
100
AcDbEntity
  8
1
  6
CONTINUOUS
 62
   250
100
AcDbText
 10
277.2723
 20
71.403755
 30
0.0
 40
2.4999
  1
126,9
 41
0.75
100
AcDbText
  0
LINE
  5
796
100
AcDbEntity
  8
1
  6
CONTINUOUS
 62
   250
100
AcDbLine
 10
378.88461
 20
173.68491
 30
0.0
 11
378.88461
 21
256.90308
 31
0.0
  0
LINE
  5
797
100
AcDbEntity
  8
1
  6
CONTINUOUS
 62
   250
100
AcDbLine
 10
218.53462
 20
217.03846
 30
0.0
 11
218.53462
 21
256.90308
 31
0.0
  0
LINE
  5
798
100
AcDbEntity
  8
1
  6
CONTINUOUS
 62
   250
100
AcDbLine
 10
378.88461
 20
255.90318
 30
0.0
 11
375.38451
 21
256.48419
 31
0.0
  0
LINE
  5
799
100
AcDbEntity
  8
1
  6
CONTINUOUS
 62
   250
100
AcDbLine
 10
378.88461
 20
255.90318
 30
0.0
 11
375.38451
 21
255.32216
 31
0.0
  0
LINE
  5
79A
100
AcDbEntity
  8
1
  6
CONTINUOUS
 62
   250
100
AcDbLine
 10
375.38451
 20
256.48419
 30
0.0
 11
375.38451
 21
255.32216
 31
0.0
  0
LINE
  5
79B
100
AcDbEntity
  8
1
  6
CONTINUOUS
 62
   250
100
AcDbLine
 10
218.53462
 20
255.90318
 30
0.0
 11
222.03472
 21
256.48419
 31
0.0
  0
LINE
  5
79C
100
AcDbEntity
  8
1
  6
CONTINUOUS
 62
   250
100
AcDbLine
 10
218.53462
 20
255.90318
 30
0.0
 11
222.03472
 21
255.32216
 31
0.0
  0
LINE
  5
79D
100
AcDbEntity
  8
1
  6
CONTINUOUS
 62
   250
100
AcDbLine
 10
222.03472
 20
256.48419
 30
0.0
 11
222.03472
 21
255.32216
 31
0.0
  0
LINE
  5
79E
100
AcDbEntity
  8
1
  6
CONTINUOUS
 62
   250
100
AcDbLine
 10
378.88461
 20
255.90318
 30
0.0
 11
298.70961
 21
255.90318
 31
0.0
  0
LINE
  5
79F
100
AcDbEntity
  8
1
  6
CONTINUOUS
 62
   250
100
AcDbLine
 10
218.53462
 20
255.90318
 30
0.0
 11
298.70961
 21
255.90318
 31
0.0
  0
TEXT
  5
7A0
100
AcDbEntity
  8
1
  6
CONTINUOUS
 62
   250
100
AcDbText
 10
294.0223
 20
256.90408
 30
0.0
 40
2.4999
  1
160,4
 41
0.75
100
AcDbText
  0
LINE
  5
7A1
100
AcDbEntity
  8
1
  6
CONTINUOUS
 62
   250
100
AcDbLine
 10
319.88461
 20
136.53846
 30
0.0
 11
319.88461
 21
81.537712
 31
0.0
  0
LINE
  5
7A2
100
AcDbEntity
  8
1
  6
CONTINUOUS
 62
   250
100
AcDbLine
 10
329.88461
 20
100.67856
 30
0.0
 11
329.88461
 21
81.537712
 31
0.0
  0
LINE
  5
7A3
100
AcDbEntity
  8
1
  6
CONTINUOUS
 62
   250
100
AcDbLine
 10
319.88461
 20
82.537612
 30
0.0
 11
316.38451
 21
83.118629
 31
0.0
  0
LINE
  5
7A4
100
AcDbEntity
  8
1
  6
CONTINUOUS
 62
   250
100
AcDbLine
 10
319.88461
 20
82.537612
 30
0.0
 11
316.38451
 21
81.956595
 31
0.0
  0
LINE
  5
7A5
100
AcDbEntity
  8
1
  6
CONTINUOUS
 62
   250
100
AcDbLine
 10
316.38451
 20
83.118629
 30
0.0
 11
316.38451
 21
81.956595
 31
0.0
  0
LINE
  5
7A6
100
AcDbEntity
  8
1
  6
CONTINUOUS
 62
   250
100
AcDbLine
 10
329.88461
 20
82.537612
 30
0.0
 11
333.38472
 21
83.118629
 31
0.0
  0
LINE
  5
7A7
100
AcDbEntity
  8
1
  6
CONTINUOUS
 62
   250
100
AcDbLine
 10
329.88461
 20
82.537612
 30
0.0
 11
333.38472
 21
81.956595
 31
0.0
  0
LINE
  5
7A8
100
AcDbEntity
  8
1
  6
CONTINUOUS
 62
   250
100
AcDbLine
 10
333.38472
 20
83.118629
 30
0.0
 11
333.38472
 21
81.956595
 31
0.0
  0
LINE
  5
7A9
100
AcDbEntity
  8
1
  6
CONTINUOUS
 62
   250
100
AcDbLine
 10
318.88471
 20
82.537612
 30
0.0
 11
319.88461
 21
82.537612
 31
0.0
  0
LINE
  5
7AA
100
AcDbEntity
  8
1
  6
CONTINUOUS
 62
   250
100
AcDbLine
 10
330.88452
 20
82.537612
 30
0.0
 11
319.88461
 21
82.537612
 31
0.0
  0
TEXT
  5
7AB
100
AcDbEntity
  8
1
  6
CONTINUOUS
 62
   250
100
AcDbText
 10
323.00969
 20
83.538512
 30
0.0
 40
2.4999
  1
10
 41
0.75
100
AcDbText
  0
LINE
  5
7AC
100
AcDbEntity
  8
V0L1
  6
CONTINUOUS
 62
   250
100
AcDbLine
 10
330.594841
 20
101.678561
 30
0.0
 11
335.099599
 21
106.183319
 31
0.0
  0
LINE
  5
7AD
100
AcDbEntity
  8
V0L1
  6
CONTINUOUS
 62
   250
100
AcDbLine
 10
329.884611
 20
106.625185
 30
0.0
 11
335.099599
 21
111.840173
 31
0.0
  0
LINE
  5
7AE
100
AcDbEntity
  8
V0L1
  6
CONTINUOUS
 62
   250
100
AcDbLine
 10
329.884611
 20
112.282039
 30
0.0
 11
335.099599
 21
117.497027
 31
0.0
  0
LINE
  5
7AF
100
AcDbEntity
  8
V0L1
  6
CONTINUOUS
 62
   250
100
AcDbLine
 10
329.884611
 20
117.938894
 30
0.0
 11
335.099599
 21
123.153882
 31
0.0
  0
LINE
  5
7B0
100
AcDbEntity
  8
V0L1
  6
CONTINUOUS
 62
   250
100
AcDbLine
 10
329.884611
 20
123.595748
 30
0.0
 11
335.099599
 21
128.810736
 31
0.0
  0
LINE
  5
7B1
100
AcDbEntity
  8
V0L1
  6
CONTINUOUS
 62
   250
100
AcDbLine
 10
329.884611
 20
129.252602
 30
0.0
 11
335.099599
 21
134.46759
 31
0.0
  0
LINE
  5
7B2
100
AcDbEntity
  8
V0L1
  6
CONTINUOUS
 62
   250
100
AcDbLine
 10
333.533484
 20
183.813163
 30
0.0
 11
335.099599
 21
185.379278
 31
0.0
  0
LINE
  5
7B3
100
AcDbEntity
  8
V0L1
  6
CONTINUOUS
 62
   250
100
AcDbLine
 10
329.884611
 20
185.821145
 30
0.0
 11
335.099599
 21
191.036133
 31
0.0
  0
LINE
  5
7B4
100
AcDbEntity
  8
V0L1
  6
CONTINUOUS
 62
   250
100
AcDbLine
 10
329.884611
 20
191.477999
 30
0.0
 11
335.099599
 21
196.692987
 31
0.0
  0
LINE
  5
7B5
100
AcDbEntity
  8
V0L1
  6
CONTINUOUS
 62
   250
100
AcDbLine
 10
329.884611
 20
197.134853
 30
0.0
 11
335.099599
 21
202.349841
 31
0.0
  0
LINE
  5
7B6
100
AcDbEntity
  8
V0L1
  6
CONTINUOUS
 62
   250
100
AcDbLine
 10
329.884611
 20
202.791707
 30
0.0
 11
335.099599
 21
208.0067
 31
0.0
  0
LINE
  5
7B7
100
AcDbEntity
  8
V0L1
  6
CONTINUOUS
 62
   250
100
AcDbLine
 10
329.884611
 20
208.44856
 30
0.0
 11
335.099599
 21
213.66355
 31
0.0
  0
LINE
  5
7B8
100
AcDbEntity
  8
V0L1
  6
CONTINUOUS
 62
   250
100
AcDbLine
 10
329.884611
 20
214.10542
 30
0.0
 11
332.713038
 21
216.93384
 31
0.0
  0
LINE
  5
7B9
100
AcDbEntity
  8
1
  6
CONTINUOUS
 62
   250
100
AcDbLine
 10
265.48462
 20
214.43846
 30
0.0
 11
265.48462
 21
237.58214
 31
0.0
  0
LINE
  5
7BA
100
AcDbEntity
  8
1
  6
CONTINUOUS
 62
   250
100
AcDbLine
 10
218.53462
 20
236.58224
 30
0.0
 11
222.03472
 21
236.00122
 31
0.0
  0
LINE
  5
7BB
100
AcDbEntity
  8
1
  6
CONTINUOUS
 62
   250
100
AcDbLine
 10
218.53462
 20
236.58224
 30
0.0
 11
222.03472
 21
237.16326
 31
0.0
  0
LINE
  5
7BC
100
AcDbEntity
  8
1
  6
CONTINUOUS
 62
   250
100
AcDbLine
 10
222.03472
 20
236.00122
 30
0.0
 11
222.03472
 21
237.16326
 31
0.0
  0
LINE
  5
7BD
100
AcDbEntity
  8
1
  6
CONTINUOUS
 62
   250
100
AcDbLine
 10
265.48462
 20
236.58224
 30
0.0
 11
261.98451
 21
236.00122
 31
0.0
  0
LINE
  5
7BE
100
AcDbEntity
  8
1
  6
CONTINUOUS
 62
   250
100
AcDbLine
 10
265.48462
 20
236.58224
 30
0.0
 11
261.98451
 21
237.16326
 31
0.0
  0
LINE
  5
7BF
100
AcDbEntity
  8
1
  6
CONTINUOUS
 62
   250
100
AcDbLine
 10
261.98451
 20
236.00122
 30
0.0
 11
261.98451
 21
237.16326
 31
0.0
  0
LINE
  5
7C0
100
AcDbEntity
  8
1
  6
CONTINUOUS
 62
   250
100
AcDbLine
 10
218.53462
 20
236.58224
 30
0.0
 11
242.00961
 21
236.58224
 31
0.0
  0
LINE
  5
7C1
100
AcDbEntity
  8
1
  6
CONTINUOUS
 62
   250
100
AcDbLine
 10
265.48462
 20
236.58224
 30
0.0
 11
242.00961
 21
236.58224
 31
0.0
  0
TEXT
  5
7C2
100
AcDbEntity
  8
1
  6
CONTINUOUS
 62
   250
100
AcDbText
 10
240.13469
 20
237.58314
 30
0.0
 40
2.4999
  1
47
 41
0.75
100
AcDbText
  0
TEXT
  5
7C3
100
AcDbEntity
  8
V0L1
  6
CONTINUOUS
 62
   250
100
AcDbText
 10
190.36539
 20
172.61923
 30
0.0
 40
5.0
  1
C
 41
0.75
 11
190.36539
 21
175.11923
 31
0.0
100
AcDbText
 73
     2
  0
TEXT
  5
7C4
100
AcDbEntity
  8
V0L1
  6
CONTINUOUS
 62
   250
100
AcDbText
 10
190.36539
 20
165.61923
 30
0.0
 40
5.0
  1
D
 41
0.75
 11
190.36539
 21
168.11923
 31
0.0
100
AcDbText
 73
     2
  0
TEXT
  5
7C5
100
AcDbEntity
  8
V0L1
  6
CONTINUOUS
 62
   250
100
AcDbText
 10
190.36539
 20
158.61923
 30
0.0
 40
5.0
  1
L 
 41
0.75
 11
190.36539
 21
161.11923
 31
0.0
100
AcDbText
 73
     2
  0
TEXT
  5
7C6
100
AcDbEntity
  8
V0L1
  6
CONTINUOUS
 62
   250
100
AcDbText
 10
190.36539
 20
151.61923
 30
0.0
 40
5.0
  1
 
 41
0.75
 11
190.36539
 21
154.11923
 31
0.0
100
AcDbText
 73
     2
  0
TEXT
  5
7C7
100
AcDbEntity
  8
V0L1
  6
CONTINUOUS
 62
   250
100
AcDbText
 10
190.36539
 20
144.61923
 30
0.0
 40
5.0
  1
5
 41
0.75
 11
190.36539
 21
147.11923
 31
0.0
100
AcDbText
 73
     2
  0
LINE
  5
7C8
100
AcDbEntity
  8
1
  6
CONTINUOUS
 62
   250
100
AcDbLine
 10
218.53462
 20
123.61859
 30
0.0
 11
218.53462
 21
147.51602
 31
0.0
  0
LINE
  5
7C9
100
AcDbEntity
  8
1
  6
CONTINUOUS
 62
   250
100
AcDbLine
 10
218.53462
 20
146.51612
 30
0.0
 11
215.03451
 21
147.09713
 31
0.0
  0
LINE
  5
7CA
100
AcDbEntity
  8
1
  6
CONTINUOUS
 62
   250
100
AcDbLine
 10
218.53462
 20
146.51612
 30
0.0
 11
215.03451
 21
145.9351
 31
0.0
  0
LINE
  5
7CB
100
AcDbEntity
  8
1
  6
CONTINUOUS
 62
   250
100
AcDbLine
 10
215.03451
 20
147.09713
 30
0.0
 11
215.03451
 21
145.9351
 31
0.0
  0
LINE
  5
7CC
100
AcDbEntity
  8
1
  6
CONTINUOUS
 62
   250
100
AcDbLine
 10
222.53462
 20
146.51612
 30
0.0
 11
226.03472
 21
147.09713
 31
0.0
  0
LINE
  5
7CD
100
AcDbEntity
  8
1
  6
CONTINUOUS
 62
   250
100
AcDbLine
 10
222.53462
 20
146.51612
 30
0.0
 11
226.03472
 21
145.9351
 31
0.0
  0
LINE
  5
7CE
100
AcDbEntity
  8
1
  6
CONTINUOUS
 62
   250
100
AcDbLine
 10
226.03472
 20
147.09713
 30
0.0
 11
226.03472
 21
145.9351
 31
0.0
  0
LINE
  5
7CF
100
AcDbEntity
  8
1
  6
CONTINUOUS
 62
   250
100
AcDbLine
 10
218.53462
 20
146.51612
 30
0.0
 11
208.80195
 21
146.51612
 31
0.0
  0
LINE
  5
7D0
100
AcDbEntity
  8
1
  6
CONTINUOUS
 62
   250
100
AcDbLine
 10
223.53452
 20
146.51612
 30
0.0
 11
218.53462
 21
146.51612
 31
0.0
  0
TEXT
  5
7D1
100
AcDbEntity
  8
1
  6
CONTINUOUS
 62
   250
100
AcDbText
 10
209.80185
 20
147.51702
 30
0.0
 40
2.4999
  1
4
 41
0.75
100
AcDbText
  0
LINE
  5
7D2
100
AcDbEntity
  8
1
  6
CONTINUOUS
 62
   250
100
AcDbLine
 10
87.230769
 20
89.314664
 30
0.0
 11
87.230769
 21
90.377147
 31
0.0
  0
LINE
  5
7D3
100
AcDbEntity
  8
1
  6
CONTINUOUS
 62
   250
100
AcDbLine
 10
92.230769
 20
107.86539
 30
0.0
 11
92.230769
 21
88.377347
 31
0.0
  0
LINE
  5
7D4
100
AcDbEntity
  8
1
  6
CONTINUOUS
 62
   250
100
AcDbLine
 10
92.230769
 20
89.377247
 30
0.0
 11
95.730869
 21
89.958264
 31
0.0
  0
LINE
  5
7D5
100
AcDbEntity
  8
1
  6
CONTINUOUS
 62
   250
100
AcDbLine
 10
92.230769
 20
89.377247
 30
0.0
 11
95.730869
 21
88.79623
 31
0.0
  0
LINE
  5
7D6
100
AcDbEntity
  8
1
  6
CONTINUOUS
 62
   250
100
AcDbLine
 10
95.730869
 20
89.958264
 30
0.0
 11
95.730869
 21
88.79623
 31
0.0
  0
LINE
  5
7D7
100
AcDbEntity
  8
1
  6
CONTINUOUS
 62
   250
100
AcDbLine
 10
86.230869
 20
89.377247
 30
0.0
 11
87.230769
 21
89.377247
 31
0.0
  0
LINE
  5
7D8
100
AcDbEntity
  8
1
  6
CONTINUOUS
 62
   250
100
AcDbLine
 10
93.230669
 20
89.377247
 30
0.0
 11
87.230769
 21
89.377247
 31
0.0
  0
TEXT
  5
7D9
100
AcDbEntity
  8
1
  6
CONTINUOUS
 62
   250
100
AcDbText
 10
88.793306
 20
90.378147
 30
0.0
 40
2.4999
  1
5
 41
0.75
100
AcDbText
  0
LINE
  5
7DA
100
AcDbEntity
  8
1
  6
CONTINUOUS
 62
   250
100
AcDbLine
 10
27.230769
 20
89.377247
 30
0.0
 11
30.730869
 21
88.79623
 31
0.0
  0
LINE
  5
7DB
100
AcDbEntity
  8
1
  6
CONTINUOUS
 62
   250
100
AcDbLine
 10
27.230769
 20
89.377247
 30
0.0
 11
30.730869
 21
89.958264
 31
0.0
  0
LINE
  5
7DC
100
AcDbEntity
  8
1
  6
CONTINUOUS
 62
   250
100
AcDbLine
 10
30.730869
 20
88.79623
 30
0.0
 11
30.730869
 21
89.958264
 31
0.0
  0
LINE
  5
7DD
100
AcDbEntity
  8
1
  6
CONTINUOUS
 62
   250
100
AcDbLine
 10
87.230769
 20
89.377247
 30
0.0
 11
83.730669
 21
88.79623
 31
0.0
  0
LINE
  5
7DE
100
AcDbEntity
  8
1
  6
CONTINUOUS
 62
   250
100
AcDbLine
 10
87.230769
 20
89.377247
 30
0.0
 11
83.730669
 21
89.958264
 31
0.0
  0
LINE
  5
7DF
100
AcDbEntity
  8
1
  6
CONTINUOUS
 62
   250
100
AcDbLine
 10
83.730669
 20
88.79623
 30
0.0
 11
83.730669
 21
89.958264
 31
0.0
  0
LINE
  5
7E0
100
AcDbEntity
  8
1
  6
CONTINUOUS
 62
   250
100
AcDbLine
 10
27.230769
 20
89.377247
 30
0.0
 11
57.230769
 21
89.377247
 31
0.0
  0
LINE
  5
7E1
100
AcDbEntity
  8
1
  6
CONTINUOUS
 62
   250
100
AcDbLine
 10
87.230769
 20
89.377247
 30
0.0
 11
57.230769
 21
89.377247
 31
0.0
  0
TEXT
  5
7E2
100
AcDbEntity
  8
1
  6
CONTINUOUS
 62
   250
100
AcDbText
 10
55.355844
 20
90.378147
 30
0.0
 40
2.4999
  1
60
 41
0.75
100
AcDbText
  0
LINE
  5
7E3
100
AcDbEntity
  8
1
  6
CONTINUOUS
 62
   250
100
AcDbLine
 10
22.230769
 20
107.86539
 30
0.0
 11
22.230769
 21
88.377347
 31
0.0
  0
LINE
  5
7E4
100
AcDbEntity
  8
1
  6
CONTINUOUS
 62
   250
100
AcDbLine
 10
27.230769
 20
106.76538
 30
0.0
 11
27.230769
 21
88.377347
 31
0.0
  0
LINE
  5
7E5
100
AcDbEntity
  8
1
  6
CONTINUOUS
 62
   250
100
AcDbLine
 10
22.230769
 20
89.377247
 30
0.0
 11
18.730669
 21
89.958264
 31
0.0
  0
LINE
  5
7E6
100
AcDbEntity
  8
1
  6
CONTINUOUS
 62
   250
100
AcDbLine
 10
22.230769
 20
89.377247
 30
0.0
 11
18.730669
 21
88.79623
 31
0.0
  0
LINE
  5
7E7
100
AcDbEntity
  8
1
  6
CONTINUOUS
 62
   250
100
AcDbLine
 10
18.730669
 20
89.958264
 30
0.0
 11
18.730669
 21
88.79623
 31
0.0
  0
LINE
  5
7E8
100
AcDbEntity
  8
1
  6
CONTINUOUS
 62
   250
100
AcDbLine
 10
21.230869
 20
89.377247
 30
0.0
 11
22.230769
 21
89.377247
 31
0.0
  0
LINE
  5
7E9
100
AcDbEntity
  8
1
  6
CONTINUOUS
 62
   250
100
AcDbLine
 10
28.230669
 20
89.377247
 30
0.0
 11
22.230769
 21
89.377247
 31
0.0
  0
TEXT
  5
7EA
100
AcDbEntity
  8
1
  6
CONTINUOUS
 62
   250
100
AcDbText
 10
23.793306
 20
90.378147
 30
0.0
 40
2.4999
  1
5
 41
0.75
100
AcDbText
  0
LINE
  5
7EB
100
AcDbEntity
  8
1
  6
CONTINUOUS
 62
   250
100
AcDbLine
 10
56.474215
 20
116.86539
 30
0.0
 11
57.055232
 21
120.36549
 31
0.0
  0
LINE
  5
7EC
100
AcDbEntity
  8
1
  6
CONTINUOUS
 62
   250
100
AcDbLine
 10
56.474215
 20
116.86539
 30
0.0
 11
55.893198
 21
120.36549
 31
0.0
  0
LINE
  5
7ED
100
AcDbEntity
  8
1
  6
CONTINUOUS
 62
   250
100
AcDbLine
 10
57.055232
 20
120.36549
 30
0.0
 11
55.893198
 21
120.36549
 31
0.0
  0
LINE
  5
7EE
100
AcDbEntity
  8
1
  6
CONTINUOUS
 62
   250
100
AcDbLine
 10
56.474215
 20
206.86539
 30
0.0
 11
57.055232
 21
203.36528
 31
0.0
  0
LINE
  5
7EF
100
AcDbEntity
  8
1
  6
CONTINUOUS
 62
   250
100
AcDbLine
 10
56.474215
 20
206.86539
 30
0.0
 11
55.893198
 21
203.36528
 31
0.0
  0
LINE
  5
7F0
100
AcDbEntity
  8
1
  6
CONTINUOUS
 62
   250
100
AcDbLine
 10
57.055232
 20
203.36528
 30
0.0
 11
55.893198
 21
203.36528
 31
0.0
  0
LINE
  5
7F1
100
AcDbEntity
  8
1
  6
CONTINUOUS
 62
   250
100
AcDbLine
 10
56.474215
 20
116.86539
 30
0.0
 11
56.474215
 21
161.86539
 31
0.0
  0
LINE
  5
7F2
100
AcDbEntity
  8
1
  6
CONTINUOUS
 62
   250
100
AcDbLine
 10
56.474215
 20
206.86539
 30
0.0
 11
56.474215
 21
161.86539
 31
0.0
  0
TEXT
  5
7F3
100
AcDbEntity
  8
1
  6
CONTINUOUS
 62
   250
100
AcDbText
 10
55.473315
 20
159.99046
 30
0.0
 40
2.4999
  1
90
 50
90.0
 41
0.75
100
AcDbText
  0
LINE
  5
7F4
100
AcDbEntity
  8
1
  6
CONTINUOUS
 62
   250
100
AcDbLine
 10
32.330769
 20
116.86539
 30
0.0
 11
57.474115
 21
116.86539
 31
0.0
  0
LINE
  5
7F5
100
AcDbEntity
  8
1
  6
CONTINUOUS
 62
   250
100
AcDbLine
 10
32.330769
 20
111.86539
 30
0.0
 11
57.474115
 21
111.86539
 31
0.0
  0
LINE
  5
7F6
100
AcDbEntity
  8
1
  6
CONTINUOUS
 62
   250
100
AcDbLine
 10
56.474215
 20
116.86539
 30
0.0
 11
57.055232
 21
120.36549
 31
0.0
  0
LINE
  5
7F7
100
AcDbEntity
  8
1
  6
CONTINUOUS
 62
   250
100
AcDbLine
 10
56.474215
 20
116.86539
 30
0.0
 11
55.893198
 21
120.36549
 31
0.0
  0
LINE
  5
7F8
100
AcDbEntity
  8
1
  6
CONTINUOUS
 62
   250
100
AcDbLine
 10
57.055232
 20
120.36549
 30
0.0
 11
55.893198
 21
120.36549
 31
0.0
  0
LINE
  5
7F9
100
AcDbEntity
  8
1
  6
CONTINUOUS
 62
   250
100
AcDbLine
 10
56.474215
 20
111.86539
 30
0.0
 11
57.055232
 21
108.36528
 31
0.0
  0
LINE
  5
7FA
100
AcDbEntity
  8
1
  6
CONTINUOUS
 62
   250
100
AcDbLine
 10
56.474215
 20
111.86539
 30
0.0
 11
55.893198
 21
108.36528
 31
0.0
  0
LINE
  5
7FB
100
AcDbEntity
  8
1
  6
CONTINUOUS
 62
   250
100
AcDbLine
 10
57.055232
 20
108.36528
 30
0.0
 11
55.893198
 21
108.36528
 31
0.0
  0
LINE
  5
7FC
100
AcDbEntity
  8
1
  6
CONTINUOUS
 62
   250
100
AcDbLine
 10
56.474215
 20
117.86529
 30
0.0
 11
56.474215
 21
116.86539
 31
0.0
  0
LINE
  5
7FD
100
AcDbEntity
  8
1
  6
CONTINUOUS
 62
   250
100
AcDbLine
 10
56.474215
 20
110.86548
 30
0.0
 11
56.474215
 21
116.86539
 31
0.0
  0
TEXT
  5
7FE
100
AcDbEntity
  8
1
  6
CONTINUOUS
 62
   250
100
AcDbText
 10
55.473315
 20
113.42792
 30
0.0
 40
2.4999
  1
5
 50
90.0
 41
0.75
100
AcDbText
  0
LINE
  5
7FF
100
AcDbEntity
  8
1
  6
CONTINUOUS
 62
   250
100
AcDbLine
 10
82.130769
 20
211.86539
 30
0.0
 11
55.474315
 21
211.86539
 31
0.0
  0
LINE
  5
800
100
AcDbEntity
  8
1
  6
CONTINUOUS
 62
   250
100
AcDbLine
 10
82.130769
 20
206.86539
 30
0.0
 11
55.474315
 21
206.86539
 31
0.0
  0
LINE
  5
801
100
AcDbEntity
  8
1
  6
CONTINUOUS
 62
   250
100
AcDbLine
 10
56.474215
 20
211.86539
 30
0.0
 11
57.055232
 21
215.36549
 31
0.0
  0
LINE
  5
802
100
AcDbEntity
  8
1
  6
CONTINUOUS
 62
   250
100
AcDbLine
 10
56.474215
 20
211.86539
 30
0.0
 11
55.893198
 21
215.36549
 31
0.0
  0
LINE
  5
803
100
AcDbEntity
  8
1
  6
CONTINUOUS
 62
   250
100
AcDbLine
 10
57.055232
 20
215.36549
 30
0.0
 11
55.893198
 21
215.36549
 31
0.0
  0
LINE
  5
804
100
AcDbEntity
  8
1
  6
CONTINUOUS
 62
   250
100
AcDbLine
 10
56.474215
 20
206.86539
 30
0.0
 11
57.055232
 21
203.36528
 31
0.0
  0
LINE
  5
805
100
AcDbEntity
  8
1
  6
CONTINUOUS
 62
   250
100
AcDbLine
 10
56.474215
 20
206.86539
 30
0.0
 11
55.893198
 21
203.36528
 31
0.0
  0
LINE
  5
806
100
AcDbEntity
  8
1
  6
CONTINUOUS
 62
   250
100
AcDbLine
 10
57.055232
 20
203.36528
 30
0.0
 11
55.893198
 21
203.36528
 31
0.0
  0
LINE
  5
807
100
AcDbEntity
  8
1
  6
CONTINUOUS
 62
   250
100
AcDbLine
 10
56.474215
 20
212.86529
 30
0.0
 11
56.474215
 21
211.86539
 31
0.0
  0
LINE
  5
808
100
AcDbEntity
  8
1
  6
CONTINUOUS
 62
   250
100
AcDbLine
 10
56.474215
 20
205.86548
 30
0.0
 11
56.474215
 21
211.86539
 31
0.0
  0
TEXT
  5
809
100
AcDbEntity
  8
1
  6
CONTINUOUS
 62
   250
100
AcDbText
 10
55.473315
 20
208.42792
 30
0.0
 40
2.4999
  1
5
 50
90.0
 41
0.75
100
AcDbText
  0
LINE
  5
80A
100
AcDbEntity
  8
1
  6
CONTINUOUS
 62
   250
100
AcDbLine
 10
84.130769
 20
214.45299
 30
0.0
 11
84.130769
 21
231.34857
 31
0.0
  0
LINE
  5
80B
100
AcDbEntity
  8
1
  6
CONTINUOUS
 62
   250
100
AcDbLine
 10
90.330769
 20
214.5855
 30
0.0
 11
90.330769
 21
231.34857
 31
0.0
  0
LINE
  5
80C
100
AcDbEntity
  8
1
  6
CONTINUOUS
 62
   250
100
AcDbLine
 10
84.130769
 20
230.34867
 30
0.0
 11
80.630669
 21
230.92969
 31
0.0
  0
LINE
  5
80D
100
AcDbEntity
  8
1
  6
CONTINUOUS
 62
   250
100
AcDbLine
 10
84.130769
 20
230.34867
 30
0.0
 11
80.630669
 21
229.76766
 31
0.0
  0
LINE
  5
80E
100
AcDbEntity
  8
1
  6
CONTINUOUS
 62
   250
100
AcDbLine
 10
80.630669
 20
230.92969
 30
0.0
 11
80.630669
 21
229.76766
 31
0.0
  0
LINE
  5
80F
100
AcDbEntity
  8
1
  6
CONTINUOUS
 62
   250
100
AcDbLine
 10
90.330769
 20
230.34867
 30
0.0
 11
93.830869
 21
230.92969
 31
0.0
  0
LINE
  5
810
100
AcDbEntity
  8
1
  6
CONTINUOUS
 62
   250
100
AcDbLine
 10
90.330769
 20
230.34867
 30
0.0
 11
93.830869
 21
229.76766
 31
0.0
  0
LINE
  5
811
100
AcDbEntity
  8
1
  6
CONTINUOUS
 62
   250
100
AcDbLine
 10
93.830869
 20
230.92969
 30
0.0
 11
93.830869
 21
229.76766
 31
0.0
  0
LINE
  5
812
100
AcDbEntity
  8
1
  6
CONTINUOUS
 62
   250
100
AcDbLine
 10
83.130869
 20
230.34867
 30
0.0
 11
84.130769
 21
230.34867
 31
0.0
  0
LINE
  5
813
100
AcDbEntity
  8
1
  6
CONTINUOUS
 62
   250
100
AcDbLine
 10
91.330669
 20
230.34867
 30
0.0
 11
84.130769
 21
230.34867
 31
0.0
  0
TEXT
  5
814
100
AcDbEntity
  8
1
  6
CONTINUOUS
 62
   250
100
AcDbText
 10
84.418381
 20
231.34957
 30
0.0
 40
2.4999
  1
6,2
 41
0.75
100
AcDbText
  0
LINE
  5
815
100
AcDbEntity
  8
1
  6
CONTINUOUS
 62
   250
100
AcDbLine
 10
168.22692
 20
116.01154
 30
0.0
 11
168.22692
 21
89.700569
 31
0.0
  0
LINE
  5
816
100
AcDbEntity
  8
1
  6
CONTINUOUS
 62
   250
100
AcDbLine
 10
178.42692
 20
118.01154
 30
0.0
 11
178.42692
 21
89.700569
 31
0.0
  0
LINE
  5
817
100
AcDbEntity
  8
1
  6
CONTINUOUS
 62
   250
100
AcDbLine
 10
168.22692
 20
90.700469
 30
0.0
 11
164.72682
 21
91.281486
 31
0.0
  0
LINE
  5
818
100
AcDbEntity
  8
1
  6
CONTINUOUS
 62
   250
100
AcDbLine
 10
168.22692
 20
90.700469
 30
0.0
 11
164.72682
 21
90.119452
 31
0.0
  0
LINE
  5
819
100
AcDbEntity
  8
1
  6
CONTINUOUS
 62
   250
100
AcDbLine
 10
164.72682
 20
91.281486
 30
0.0
 11
164.72682
 21
90.119452
 31
0.0
  0
LINE
  5
81A
100
AcDbEntity
  8
1
  6
CONTINUOUS
 62
   250
100
AcDbLine
 10
178.42692
 20
90.700469
 30
0.0
 11
181.92702
 21
91.281486
 31
0.0
  0
LINE
  5
81B
100
AcDbEntity
  8
1
  6
CONTINUOUS
 62
   250
100
AcDbLine
 10
178.42692
 20
90.700469
 30
0.0
 11
181.92702
 21
90.119452
 31
0.0
  0
LINE
  5
81C
100
AcDbEntity
  8
1
  6
CONTINUOUS
 62
   250
100
AcDbLine
 10
181.92702
 20
91.281486
 30
0.0
 11
181.92702
 21
90.119452
 31
0.0
  0
LINE
  5
81D
100
AcDbEntity
  8
1
  6
CONTINUOUS
 62
   250
100
AcDbLine
 10
167.22702
 20
90.700469
 30
0.0
 11
168.22692
 21
90.700469
 31
0.0
  0
LINE
  5
81E
100
AcDbEntity
  8
1
  6
CONTINUOUS
 62
   250
100
AcDbLine
 10
179.42682
 20
90.700469
 30
0.0
 11
168.22692
 21
90.700469
 31
0.0
  0
TEXT
  5
81F
100
AcDbEntity
  8
1
  6
CONTINUOUS
 62
   250
100
AcDbText
 10
169.57707
 20
91.701369
 30
0.0
 40
2.4999
  1
10,2
 41
0.75
100
AcDbText
  0
LINE
  5
820
100
AcDbEntity
  8
1
  6
CONTINUOUS
 62
   250
100
AcDbLine
 10
116.32692
 20
107.31154
 30
0.0
 11
116.32692
 21
63.092794
 31
0.0
  0
LINE
  5
821
100
AcDbEntity
  8
1
  6
CONTINUOUS
 62
   250
100
AcDbLine
 10
198.32692
 20
123.31154
 30
0.0
 11
198.32692
 21
63.092794
 31
0.0
  0
LINE
  5
822
100
AcDbEntity
  8
1
  6
CONTINUOUS
 62
   250
100
AcDbLine
 10
116.32692
 20
64.092694
 30
0.0
 11
119.82702
 21
63.511677
 31
0.0
  0
LINE
  5
823
100
AcDbEntity
  8
1
  6
CONTINUOUS
 62
   250
100
AcDbLine
 10
116.32692
 20
64.092694
 30
0.0
 11
119.82702
 21
64.673711
 31
0.0
  0
LINE
  5
824
100
AcDbEntity
  8
1
  6
CONTINUOUS
 62
   250
100
AcDbLine
 10
119.82702
 20
63.511677
 30
0.0
 11
119.82702
 21
64.673711
 31
0.0
  0
LINE
  5
825
100
AcDbEntity
  8
1
  6
CONTINUOUS
 62
   250
100
AcDbLine
 10
198.32692
 20
64.092694
 30
0.0
 11
194.82682
 21
63.511677
 31
0.0
  0
LINE
  5
826
100
AcDbEntity
  8
1
  6
CONTINUOUS
 62
   250
100
AcDbLine
 10
198.32692
 20
64.092694
 30
0.0
 11
194.82682
 21
64.673711
 31
0.0
  0
LINE
  5
827
100
AcDbEntity
  8
1
  6
CONTINUOUS
 62
   250
100
AcDbLine
 10
194.82682
 20
63.511677
 30
0.0
 11
194.82682
 21
64.673711
 31
0.0
  0
LINE
  5
828
100
AcDbEntity
  8
1
  6
CONTINUOUS
 62
   250
100
AcDbLine
 10
116.32692
 20
64.092694
 30
0.0
 11
157.32692
 21
64.092694
 31
0.0
  0
LINE
  5
829
100
AcDbEntity
  8
1
  6
CONTINUOUS
 62
   250
100
AcDbLine
 10
198.32692
 20
64.092694
 30
0.0
 11
157.32692
 21
64.092694
 31
0.0
  0
TEXT
  5
82A
100
AcDbEntity
  8
1
  6
CONTINUOUS
 62
   250
100
AcDbText
 10
152.63961
 20
65.093594
 30
0.0
 40
2.4999
  1
82
 41
0.75
100
AcDbText
  0
TEXT
  5
82B
100
AcDbEntity
  8
1
  6
CONTINUOUS
 62
   250
100
AcDbText
 10
156.38946
 20
65.093594
 30
0.0
 40
2.4999
  1
(2)
 41
0.75
100
AcDbText
  0
LINE
  5
82C
100
AcDbEntity
  8
1
  6
CONTINUOUS
 62
   250
100
AcDbLine
 10
186.32692
 20
107.31154
 30
0.0
 11
186.32692
 21
72.195454
 31
0.0
  0
LINE
  5
82D
100
AcDbEntity
  8
1
  6
CONTINUOUS
 62
   250
100
AcDbLine
 10
116.32692
 20
73.195354
 30
0.0
 11
119.82702
 21
72.614337
 31
0.0
  0
LINE
  5
82E
100
AcDbEntity
  8
1
  6
CONTINUOUS
 62
   250
100
AcDbLine
 10
116.32692
 20
73.195354
 30
0.0
 11
119.82702
 21
73.776371
 31
0.0
  0
LINE
  5
82F
100
AcDbEntity
  8
1
  6
CONTINUOUS
 62
   250
100
AcDbLine
 10
119.82702
 20
72.614337
 30
0.0
 11
119.82702
 21
73.776371
 31
0.0
  0
LINE
  5
830
100
AcDbEntity
  8
1
  6
CONTINUOUS
 62
   250
100
AcDbLine
 10
186.32692
 20
73.195354
 30
0.0
 11
182.82682
 21
72.614337
 31
0.0
  0
LINE
  5
831
100
AcDbEntity
  8
1
  6
CONTINUOUS
 62
   250
100
AcDbLine
 10
186.32692
 20
73.195354
 30
0.0
 11
182.82682
 21
73.776371
 31
0.0
  0
LINE
  5
832
100
AcDbEntity
  8
1
  6
CONTINUOUS
 62
   250
100
AcDbLine
 10
182.82682
 20
72.614337
 30
0.0
 11
182.82682
 21
73.776371
 31
0.0
  0
LINE
  5
833
100
AcDbEntity
  8
1
  6
CONTINUOUS
 62
   250
100
AcDbLine
 10
116.32692
 20
73.195354
 30
0.0
 11
151.32692
 21
73.195354
 31
0.0
  0
LINE
  5
834
100
AcDbEntity
  8
1
  6
CONTINUOUS
 62
   250
100
AcDbLine
 10
186.32692
 20
73.195354
 30
0.0
 11
151.32692
 21
73.195354
 31
0.0
  0
TEXT
  5
835
100
AcDbEntity
  8
1
  6
CONTINUOUS
 62
   250
100
AcDbText
 10
146.63961
 20
74.196254
 30
0.0
 40
2.4999
  1
70
 41
0.75
100
AcDbText
  0
TEXT
  5
836
100
AcDbEntity
  8
1
  6
CONTINUOUS
 62
   250
100
AcDbText
 10
150.38946
 20
74.196254
 30
0.0
 40
2.4999
  1
(1)
 41
0.75
100
AcDbText
  0
LINE
  5
837
100
AcDbEntity
  8
1
  6
CONTINUOUS
 62
   250
100
AcDbLine
 10
151.32692
 20
82.298014
 30
0.0
 11
154.82702
 21
81.716997
 31
0.0
  0
LINE
  5
838
100
AcDbEntity
  8
1
  6
CONTINUOUS
 62
   250
100
AcDbLine
 10
151.32692
 20
82.298014
 30
0.0
 11
154.82702
 21
82.879031
 31
0.0
  0
LINE
  5
839
100
AcDbEntity
  8
1
  6
CONTINUOUS
 62
   250
100
AcDbLine
 10
154.82702
 20
81.716997
 30
0.0
 11
154.82702
 21
82.879031
 31
0.0
  0
LINE
  5
83A
100
AcDbEntity
  8
1
  6
CONTINUOUS
 62
   250
100
AcDbLine
 10
173.32692
 20
82.298014
 30
0.0
 11
169.82682
 21
81.716997
 31
0.0
  0
LINE
  5
83B
100
AcDbEntity
  8
1
  6
CONTINUOUS
 62
   250
100
AcDbLine
 10
173.32692
 20
82.298014
 30
0.0
 11
169.82682
 21
82.879031
 31
0.0
  0
LINE
  5
83C
100
AcDbEntity
  8
1
  6
CONTINUOUS
 62
   250
100
AcDbLine
 10
169.82682
 20
81.716997
 30
0.0
 11
169.82682
 21
82.879031
 31
0.0
  0
LINE
  5
83D
100
AcDbEntity
  8
1
  6
CONTINUOUS
 62
   250
100
AcDbLine
 10
151.32692
 20
82.298014
 30
0.0
 11
162.32692
 21
82.298014
 31
0.0
  0
LINE
  5
83E
100
AcDbEntity
  8
1
  6
CONTINUOUS
 62
   250
100
AcDbLine
 10
173.32692
 20
82.298014
 30
0.0
 11
162.32692
 21
82.298014
 31
0.0
  0
TEXT
  5
83F
100
AcDbEntity
  8
1
  6
CONTINUOUS
 62
   250
100
AcDbText
 10
160.452
 20
83.298914
 30
0.0
 40
2.4999
  1
22
 41
0.75
100
AcDbText
  0
LINE
  5
840
100
AcDbEntity
  8
1
  6
CONTINUOUS
 62
   250
100
AcDbLine
 10
129.32692
 20
82.298014
 30
0.0
 11
132.82702
 21
81.716997
 31
0.0
  0
LINE
  5
841
100
AcDbEntity
  8
1
  6
CONTINUOUS
 62
   250
100
AcDbLine
 10
129.32692
 20
82.298014
 30
0.0
 11
132.82702
 21
82.879031
 31
0.0
  0
LINE
  5
842
100
AcDbEntity
  8
1
  6
CONTINUOUS
 62
   250
100
AcDbLine
 10
132.82702
 20
81.716997
 30
0.0
 11
132.82702
 21
82.879031
 31
0.0
  0
LINE
  5
843
100
AcDbEntity
  8
1
  6
CONTINUOUS
 62
   250
100
AcDbLine
 10
151.32692
 20
82.298014
 30
0.0
 11
147.82682
 21
81.716997
 31
0.0
  0
LINE
  5
844
100
AcDbEntity
  8
1
  6
CONTINUOUS
 62
   250
100
AcDbLine
 10
151.32692
 20
82.298014
 30
0.0
 11
147.82682
 21
82.879031
 31
0.0
  0
LINE
  5
845
100
AcDbEntity
  8
1
  6
CONTINUOUS
 62
   250
100
AcDbLine
 10
147.82682
 20
81.716997
 30
0.0
 11
147.82682
 21
82.879031
 31
0.0
  0
LINE
  5
846
100
AcDbEntity
  8
1
  6
CONTINUOUS
 62
   250
100
AcDbLine
 10
129.32692
 20
82.298014
 30
0.0
 11
140.32692
 21
82.298014
 31
0.0
  0
LINE
  5
847
100
AcDbEntity
  8
1
  6
CONTINUOUS
 62
   250
100
AcDbLine
 10
151.32692
 20
82.298014
 30
0.0
 11
140.32692
 21
82.298014
 31
0.0
  0
TEXT
  5
848
100
AcDbEntity
  8
1
  6
CONTINUOUS
 62
   250
100
AcDbText
 10
138.452
 20
83.298914
 30
0.0
 40
2.4999
  1
22
 41
0.75
100
AcDbText
  0
LINE
  5
849
100
AcDbEntity
  8
1
  6
CONTINUOUS
 62
   250
100
AcDbLine
 10
117.32692
 20
216.31154
 30
0.0
 11
101.44409
 21
216.31154
 31
0.0
  0
LINE
  5
84A
100
AcDbEntity
  8
1
  6
CONTINUOUS
 62
   250
100
AcDbLine
 10
117.32692
 20
106.31154
 30
0.0
 11
101.44409
 21
106.31154
 31
0.0
  0
LINE
  5
84B
100
AcDbEntity
  8
1
  6
CONTINUOUS
 62
   250
100
AcDbLine
 10
102.44399
 20
216.31154
 30
0.0
 11
101.86297
 21
212.81144
 31
0.0
  0
LINE
  5
84C
100
AcDbEntity
  8
1
  6
CONTINUOUS
 62
   250
100
AcDbLine
 10
102.44399
 20
216.31154
 30
0.0
 11
103.025
 21
212.81144
 31
0.0
  0
LINE
  5
84D
100
AcDbEntity
  8
1
  6
CONTINUOUS
 62
   250
100
AcDbLine
 10
101.86297
 20
212.81144
 30
0.0
 11
103.025
 21
212.81144
 31
0.0
  0
LINE
  5
84E
100
AcDbEntity
  8
1
  6
CONTINUOUS
 62
   250
100
AcDbLine
 10
102.44399
 20
106.31154
 30
0.0
 11
101.86297
 21
109.81164
 31
0.0
  0
LINE
  5
84F
100
AcDbEntity
  8
1
  6
CONTINUOUS
 62
   250
100
AcDbLine
 10
102.44399
 20
106.31154
 30
0.0
 11
103.025
 21
109.81164
 31
0.0
  0
LINE
  5
850
100
AcDbEntity
  8
1
  6
CONTINUOUS
 62
   250
100
AcDbLine
 10
101.86297
 20
109.81164
 30
0.0
 11
103.025
 21
109.81164
 31
0.0
  0
LINE
  5
851
100
AcDbEntity
  8
1
  6
CONTINUOUS
 62
   250
100
AcDbLine
 10
102.44399
 20
216.31154
 30
0.0
 11
102.44399
 21
161.31154
 31
0.0
  0
LINE
  5
852
100
AcDbEntity
  8
1
  6
CONTINUOUS
 62
   250
100
AcDbLine
 10
102.44399
 20
106.31154
 30
0.0
 11
102.44399
 21
161.31154
 31
0.0
  0
TEXT
  5
853
100
AcDbEntity
  8
1
  6
CONTINUOUS
 62
   250
100
AcDbText
 10
101.44309
 20
158.49915
 30
0.0
 40
2.4999
  1
110
 50
90.0
 41
0.75
100
AcDbText
  0
LINE
  5
854
100
AcDbEntity
  8
1
  6
CONTINUOUS
 62
   250
100
AcDbLine
 10
109.39031
 20
197.31154
 30
0.0
 11
108.8093
 21
193.81144
 31
0.0
  0
LINE
  5
855
100
AcDbEntity
  8
1
  6
CONTINUOUS
 62
   250
100
AcDbLine
 10
109.39031
 20
197.31154
 30
0.0
 11
109.97133
 21
193.81144
 31
0.0
  0
LINE
  5
856
100
AcDbEntity
  8
1
  6
CONTINUOUS
 62
   250
100
AcDbLine
 10
108.8093
 20
193.81144
 30
0.0
 11
109.97133
 21
193.81144
 31
0.0
  0
LINE
  5
857
100
AcDbEntity
  8
1
  6
CONTINUOUS
 62
   250
100
AcDbLine
 10
109.39031
 20
125.31154
 30
0.0
 11
108.8093
 21
128.81164
 31
0.0
  0
LINE
  5
858
100
AcDbEntity
  8
1
  6
CONTINUOUS
 62
   250
100
AcDbLine
 10
109.39031
 20
125.31154
 30
0.0
 11
109.97133
 21
128.81164
 31
0.0
  0
LINE
  5
859
100
AcDbEntity
  8
1
  6
CONTINUOUS
 62
   250
100
AcDbLine
 10
108.8093
 20
128.81164
 30
0.0
 11
109.97133
 21
128.81164
 31
0.0
  0
LINE
  5
85A
100
AcDbEntity
  8
1
  6
CONTINUOUS
 62
   250
100
AcDbLine
 10
109.39031
 20
197.31154
 30
0.0
 11
109.39031
 21
161.31154
 31
0.0
  0
LINE
  5
85B
100
AcDbEntity
  8
1
  6
CONTINUOUS
 62
   250
100
AcDbLine
 10
109.39031
 20
125.31154
 30
0.0
 11
109.39031
 21
161.31154
 31
0.0
  0
TEXT
  5
85C
100
AcDbEntity
  8
1
  6
CONTINUOUS
 62
   250
100
AcDbText
 10
108.38941
 20
159.43661
 30
0.0
 40
2.4999
  1
72
 50
90.0
 41
0.75
100
AcDbText
  0
LINE
  5
85D
100
AcDbEntity
  8
1
  6
CONTINUOUS
 62
   250
100
AcDbLine
 10
224.53462
 20
131.08228
 30
0.0
 11
212.42109
 21
126.4752
 31
0.0
  0
LINE
  5
85E
100
AcDbEntity
  8
1
  6
CONTINUOUS
 62
   250
100
AcDbLine
 10
224.53462
 20
131.08228
 30
0.0
 11
221.55354
 21
130.4813
 31
0.0
  0
LINE
  5
85F
100
AcDbEntity
  8
1
  6
CONTINUOUS
 62
   250
100
AcDbLine
 10
224.53462
 20
131.08228
 30
0.0
 11
221.9076
 21
129.55035
 31
0.0
  0
LINE
  5
860
100
AcDbEntity
  8
1
  6
CONTINUOUS
 62
   250
100
AcDbLine
 10
221.55354
 20
130.4813
 30
0.0
 11
221.9076
 21
129.55035
 31
0.0
  0
LINE
  5
861
100
AcDbEntity
  8
1
  6
CONTINUOUS
 62
   250
100
AcDbLine
 10
224.03462
 20
165.98088
 30
0.0
 11
212.30591
 21
171.3942
 31
0.0
  0
LINE
  5
862
100
AcDbEntity
  8
1
  6
CONTINUOUS
 62
   250
100
AcDbLine
 10
224.03462
 20
165.98088
 30
0.0
 11
221.51944
 21
167.69023
 31
0.0
  0
LINE
  5
863
100
AcDbEntity
  8
1
  6
CONTINUOUS
 62
   250
100
AcDbLine
 10
224.03462
 20
165.98088
 30
0.0
 11
221.10205
 21
166.78591
 31
0.0
  0
LINE
  5
864
100
AcDbEntity
  8
1
  6
CONTINUOUS
 62
   250
100
AcDbLine
 10
221.51944
 20
167.69023
 30
0.0
 11
221.10205
 21
166.78591
 31
0.0
  0
LINE
  5
865
100
AcDbEntity
  8
1
  6
CONTINUOUS
 62
   250
100
AcDbLine
 10
224.53462
 20
199.78846
 30
0.0
 11
224.53462
 21
229.37323
 31
0.0
  0
LINE
  5
866
100
AcDbEntity
  8
1
  6
CONTINUOUS
 62
   250
100
AcDbLine
 10
218.53462
 20
228.37333
 30
0.0
 11
215.03451
 21
228.95435
 31
0.0
  0
LINE
  5
867
100
AcDbEntity
  8
1
  6
CONTINUOUS
 62
   250
100
AcDbLine
 10
218.53462
 20
228.37333
 30
0.0
 11
215.03451
 21
227.79232
 31
0.0
  0
LINE
  5
868
100
AcDbEntity
  8
1
  6
CONTINUOUS
 62
   250
100
AcDbLine
 10
215.03451
 20
228.95435
 30
0.0
 11
215.03451
 21
227.79232
 31
0.0
  0
LINE
  5
869
100
AcDbEntity
  8
1
  6
CONTINUOUS
 62
   250
100
AcDbLine
 10
224.53462
 20
228.37333
 30
0.0
 11
228.03472
 21
228.95435
 31
0.0
  0
LINE
  5
86A
100
AcDbEntity
  8
1
  6
CONTINUOUS
 62
   250
100
AcDbLine
 10
224.53462
 20
228.37333
 30
0.0
 11
228.03472
 21
227.79232
 31
0.0
  0
LINE
  5
86B
100
AcDbEntity
  8
1
  6
CONTINUOUS
 62
   250
100
AcDbLine
 10
228.03472
 20
228.95435
 30
0.0
 11
228.03472
 21
227.79232
 31
0.0
  0
LINE
  5
86C
100
AcDbEntity
  8
1
  6
CONTINUOUS
 62
   250
100
AcDbLine
 10
217.53471
 20
228.37333
 30
0.0
 11
224.53462
 21
228.37333
 31
0.0
  0
LINE
  5
86D
100
AcDbEntity
  8
1
  6
CONTINUOUS
 62
   250
100
AcDbLine
 10
224.53462
 20
228.37333
 30
0.0
 11
234.71121
 21
228.37333
 31
0.0
  0
TEXT
  5
86E
100
AcDbEntity
  8
1
  6
CONTINUOUS
 62
   250
100
AcDbText
 10
231.83639
 20
229.37423
 30
0.0
 40
2.4999
  1
6
 41
0.75
100
AcDbText
  0
LINE
  5
86F
100
AcDbEntity
  8
1
  6
CONTINUOUS
 62
   250
100
AcDbLine
 10
290.43462
 20
115.73846
 30
0.0
 11
290.43462
 21
81.537712
 31
0.0
  0
LINE
  5
870
100
AcDbEntity
  8
1
  6
CONTINUOUS
 62
   250
100
AcDbLine
 10
218.53462
 20
82.537612
 30
0.0
 11
222.03472
 21
81.956595
 31
0.0
  0
LINE
  5
871
100
AcDbEntity
  8
1
  6
CONTINUOUS
 62
   250
100
AcDbLine
 10
218.53462
 20
82.537612
 30
0.0
 11
222.03472
 21
83.118629
 31
0.0
  0
LINE
  5
872
100
AcDbEntity
  8
1
  6
CONTINUOUS
 62
   250
100
AcDbLine
 10
222.03472
 20
81.956595
 30
0.0
 11
222.03472
 21
83.118629
 31
0.0
  0
LINE
  5
873
100
AcDbEntity
  8
1
  6
CONTINUOUS
 62
   250
100
AcDbLine
 10
290.43462
 20
82.537612
 30
0.0
 11
286.93451
 21
81.956595
 31
0.0
  0
LINE
  5
874
100
AcDbEntity
  8
1
  6
CONTINUOUS
 62
   250
100
AcDbLine
 10
290.43462
 20
82.537612
 30
0.0
 11
286.93451
 21
83.118629
 31
0.0
  0
LINE
  5
875
100
AcDbEntity
  8
1
  6
CONTINUOUS
 62
   250
100
AcDbLine
 10
286.93451
 20
81.956595
 30
0.0
 11
286.93451
 21
83.118629
 31
0.0
  0
LINE
  5
876
100
AcDbEntity
  8
1
  6
CONTINUOUS
 62
   250
100
AcDbLine
 10
218.53462
 20
82.537612
 30
0.0
 11
254.48461
 21
82.537612
 31
0.0
  0
LINE
  5
877
100
AcDbEntity
  8
1
  6
CONTINUOUS
 62
   250
100
AcDbLine
 10
290.43462
 20
82.537612
 30
0.0
 11
254.48461
 21
82.537612
 31
0.0
  0
TEXT
  5
878
100
AcDbEntity
  8
1
  6
CONTINUOUS
 62
   250
100
AcDbText
 10
252.60969
 20
83.538512
 30
0.0
 40
2.4999
  1
72
 41
0.75
100
AcDbText
  0
LINE
  5
879
100
AcDbEntity
  8
1
  6
CONTINUOUS
 62
   250
100
AcDbLine
 10
277.43462
 20
118.23846
 30
0.0
 11
277.43462
 21
92.658327
 31
0.0
  0
LINE
  5
87A
100
AcDbEntity
  8
1
  6
CONTINUOUS
 62
   250
100
AcDbLine
 10
277.43462
 20
93.658227
 30
0.0
 11
280.93472
 21
93.07721
 31
0.0
  0
LINE
  5
87B
100
AcDbEntity
  8
1
  6
CONTINUOUS
 62
   250
100
AcDbLine
 10
277.43462
 20
93.658227
 30
0.0
 11
280.93472
 21
94.239244
 31
0.0
  0
LINE
  5
87C
100
AcDbEntity
  8
1
  6
CONTINUOUS
 62
   250
100
AcDbLine
 10
280.93472
 20
93.07721
 30
0.0
 11
280.93472
 21
94.239244
 31
0.0
  0
LINE
  5
87D
100
AcDbEntity
  8
1
  6
CONTINUOUS
 62
   250
100
AcDbLine
 10
290.43462
 20
93.658227
 30
0.0
 11
286.93451
 21
93.07721
 31
0.0
  0
LINE
  5
87E
100
AcDbEntity
  8
1
  6
CONTINUOUS
 62
   250
100
AcDbLine
 10
290.43462
 20
93.658227
 30
0.0
 11
286.93451
 21
94.239244
 31
0.0
  0
LINE
  5
87F
100
AcDbEntity
  8
1
  6
CONTINUOUS
 62
   250
100
AcDbLine
 10
286.93451
 20
93.07721
 30
0.0
 11
286.93451
 21
94.239244
 31
0.0
  0
LINE
  5
880
100
AcDbEntity
  8
1
  6
CONTINUOUS
 62
   250
100
AcDbLine
 10
277.43462
 20
93.658227
 30
0.0
 11
283.93462
 21
93.658227
 31
0.0
  0
LINE
  5
881
100
AcDbEntity
  8
1
  6
CONTINUOUS
 62
   250
100
AcDbLine
 10
290.43462
 20
93.658227
 30
0.0
 11
283.93462
 21
93.658227
 31
0.0
  0
TEXT
  5
882
100
AcDbEntity
  8
1
  6
CONTINUOUS
 62
   250
100
AcDbText
 10
282.05969
 20
94.659127
 30
0.0
 40
2.4999
  1
13
 41
0.75
100
AcDbText
  0
LINE
  5
883
100
AcDbEntity
  8
1
  6
CONTINUOUS
 62
   250
100
AcDbLine
 10
228.53462
 20
107.03846
 30
0.0
 11
228.53462
 21
92.658327
 31
0.0
  0
LINE
  5
884
100
AcDbEntity
  8
1
  6
CONTINUOUS
 62
   250
100
AcDbLine
 10
218.53462
 20
93.658227
 30
0.0
 11
215.03451
 21
94.239244
 31
0.0
  0
LINE
  5
885
100
AcDbEntity
  8
1
  6
CONTINUOUS
 62
   250
100
AcDbLine
 10
218.53462
 20
93.658227
 30
0.0
 11
215.03451
 21
93.07721
 31
0.0
  0
LINE
  5
886
100
AcDbEntity
  8
1
  6
CONTINUOUS
 62
   250
100
AcDbLine
 10
215.03451
 20
94.239244
 30
0.0
 11
215.03451
 21
93.07721
 31
0.0
  0
LINE
  5
887
100
AcDbEntity
  8
1
  6
CONTINUOUS
 62
   250
100
AcDbLine
 10
228.53462
 20
93.658227
 30
0.0
 11
232.03472
 21
94.239244
 31
0.0
  0
LINE
  5
888
100
AcDbEntity
  8
1
  6
CONTINUOUS
 62
   250
100
AcDbLine
 10
228.53462
 20
93.658227
 30
0.0
 11
232.03472
 21
93.07721
 31
0.0
  0
LINE
  5
889
100
AcDbEntity
  8
1
  6
CONTINUOUS
 62
   250
100
AcDbLine
 10
232.03472
 20
94.239244
 30
0.0
 11
232.03472
 21
93.07721
 31
0.0
  0
LINE
  5
88A
100
AcDbEntity
  8
1
  6
CONTINUOUS
 62
   250
100
AcDbLine
 10
217.53471
 20
93.658227
 30
0.0
 11
218.53462
 21
93.658227
 31
0.0
  0
LINE
  5
88B
100
AcDbEntity
  8
1
  6
CONTINUOUS
 62
   250
100
AcDbLine
 10
229.53452
 20
93.658227
 30
0.0
 11
218.53462
 21
93.658227
 31
0.0
  0
TEXT
  5
88C
100
AcDbEntity
  8
1
  6
CONTINUOUS
 62
   250
100
AcDbText
 10
221.65969
 20
94.659127
 30
0.0
 40
2.4999
  1
10
 41
0.75
100
AcDbText
  0
LINE
  5
88D
100
AcDbEntity
  8
1
  6
CONTINUOUS
 62
   250
100
AcDbLine
 10
319.88461
 20
179.53846
 30
0.0
 11
319.88461
 21
229.37323
 31
0.0
  0
LINE
  5
88E
100
AcDbEntity
  8
1
  6
CONTINUOUS
 62
   250
100
AcDbLine
 10
326.18462
 20
228.37333
 30
0.0
 11
329.68472
 21
227.79232
 31
0.0
  0
LINE
  5
88F
100
AcDbEntity
  8
1
  6
CONTINUOUS
 62
   250
100
AcDbLine
 10
326.18462
 20
228.37333
 30
0.0
 11
329.68472
 21
228.95435
 31
0.0
  0
LINE
  5
890
100
AcDbEntity
  8
1
  6
CONTINUOUS
 62
   250
100
AcDbLine
 10
329.68472
 20
227.79232
 30
0.0
 11
329.68472
 21
228.95435
 31
0.0
  0
LINE
  5
891
100
AcDbEntity
  8
1
  6
CONTINUOUS
 62
   250
100
AcDbLine
 10
319.88461
 20
228.37333
 30
0.0
 11
316.38451
 21
227.79232
 31
0.0
  0
LINE
  5
892
100
AcDbEntity
  8
1
  6
CONTINUOUS
 62
   250
100
AcDbLine
 10
319.88461
 20
228.37333
 30
0.0
 11
316.38451
 21
228.95435
 31
0.0
  0
LINE
  5
893
100
AcDbEntity
  8
1
  6
CONTINUOUS
 62
   250
100
AcDbLine
 10
316.38451
 20
227.79232
 30
0.0
 11
316.38451
 21
228.95435
 31
0.0
  0
LINE
  5
894
100
AcDbEntity
  8
1
  6
CONTINUOUS
 62
   250
100
AcDbLine
 10
327.18452
 20
228.37333
 30
0.0
 11
319.88461
 21
228.37333
 31
0.0
  0
LINE
  5
895
100
AcDbEntity
  8
1
  6
CONTINUOUS
 62
   250
100
AcDbLine
 10
319.88461
 20
228.37333
 30
0.0
 11
308.44551
 21
228.37333
 31
0.0
  0
TEXT
  5
896
100
AcDbEntity
  8
1
  6
CONTINUOUS
 62
   250
100
AcDbText
 10
309.44541
 20
229.37423
 30
0.0
 40
2.4999
  1
6,5
 41
0.75
100
AcDbText
  0
LINE
  5
897
100
AcDbEntity
  8
1
  6
CONTINUOUS
 62
   250
100
AcDbLine
 10
326.18462
 20
164.93846
 30
0.0
 11
326.18462
 21
246.70098
 31
0.0
  0
LINE
  5
898
100
AcDbEntity
  8
1
  6
CONTINUOUS
 62
   250
100
AcDbLine
 10
218.53462
 20
245.70108
 30
0.0
 11
222.03472
 21
245.12006
 31
0.0
  0
LINE
  5
899
100
AcDbEntity
  8
1
  6
CONTINUOUS
 62
   250
100
AcDbLine
 10
218.53462
 20
245.70108
 30
0.0
 11
222.03472
 21
246.28209
 31
0.0
  0
LINE
  5
89A
100
AcDbEntity
  8
1
  6
CONTINUOUS
 62
   250
100
AcDbLine
 10
222.03472
 20
245.12006
 30
0.0
 11
222.03472
 21
246.28209
 31
0.0
  0
LINE
  5
89B
100
AcDbEntity
  8
1
  6
CONTINUOUS
 62
   250
100
AcDbLine
 10
326.18462
 20
245.70108
 30
0.0
 11
322.68451
 21
245.12006
 31
0.0
  0
LINE
  5
89C
100
AcDbEntity
  8
1
  6
CONTINUOUS
 62
   250
100
AcDbLine
 10
326.18462
 20
245.70108
 30
0.0
 11
322.68451
 21
246.28209
 31
0.0
  0
LINE
  5
89D
100
AcDbEntity
  8
1
  6
CONTINUOUS
 62
   250
100
AcDbLine
 10
322.68451
 20
245.12006
 30
0.0
 11
322.68451
 21
246.28209
 31
0.0
  0
LINE
  5
89E
100
AcDbEntity
  8
1
  6
CONTINUOUS
 62
   250
100
AcDbLine
 10
218.53462
 20
245.70108
 30
0.0
 11
272.35962
 21
245.70108
 31
0.0
  0
LINE
  5
89F
100
AcDbEntity
  8
1
  6
CONTINUOUS
 62
   250
100
AcDbLine
 10
326.18462
 20
245.70108
 30
0.0
 11
272.35962
 21
245.70108
 31
0.0
  0
TEXT
  5
8A0
100
AcDbEntity
  8
1
  6
CONTINUOUS
 62
   250
100
AcDbText
 10
269.54723
 20
246.70198
 30
0.0
 40
2.4999
  1
108
 41
0.75
100
AcDbText
  0
TEXT
  5
8A1
100
AcDbEntity
  8
V0L1
  6
CONTINUOUS
 62
   250
100
AcDbText
 10
134.88461
 20
42.519231
 30
0.0
 40
3.0
  1
(1) A50...75
 41
0.8
 11
134.88461
 21
44.019231
 31
0.0
100
AcDbText
 73
     2
  0
TEXT
  5
8A2
100
AcDbEntity
  8
V0L1
  6
CONTINUOUS
 62
   250
100
AcDbText
 10
134.88461
 20
36.519231
 30
0.0
 40
3.0
  1
(2) AE50...75
 41
0.8
 11
134.88461
 21
38.019231
 31
0.0
100
AcDbText
 73
     2
  0
POINT
  5
8A3
100
AcDbEntity
  8
V0L1
  6
CONTINUOUS
 62
   250
100
AcDbPoint
 10
393.0
 20
278.0
 30
0.0
  0
LINE
  5
8A4
100
AcDbEntity
  8
V0L1
  6
CONTINUOUS
 62
   250
100
AcDbLine
 10
228.56571
 20
23.0
 30
0.0
 11
230.3
 21
23.0
 31
0.0
  0
LINE
  5
8A5
100
AcDbEntity
  8
V0L1
  6
CONTINUOUS
 62
   250
100
AcDbLine
 10
228.0
 20
50.0
 30
0.0
 11
228.0
 21
54.0
 31
0.0
  0
LINE
  5
8A6
100
AcDbEntity
  8
V0L1
  6
CONTINUOUS
 62
   250
100
AcDbLine
 10
350.0
 20
50.0
 30
0.0
 11
393.0
 21
50.0
 31
0.0
  0
LINE
  5
8A7
100
AcDbEntity
  8
V0L1
  6
CONTINUOUS
 62
   250
100
AcDbLine
 10
230.3
 20
23.0
 30
0.0
 11
230.3
 21
26.32
 31
0.0
  0
LINE
  5
8A8
100
AcDbEntity
  8
V0L1
  6
CONTINUOUS
 62
   250
100
AcDbLine
 10
230.3
 20
26.32
 30
0.0
 11
229.72771
 21
26.32
 31
0.0
  0
LINE
  5
8A9
100
AcDbEntity
  8
V0L1
  6
CONTINUOUS
 62
   250
100
AcDbLine
 10
229.72771
 20
26.32
 30
0.0
 11
228.56571
 21
23.0
 31
0.0
  0
LINE
  5
8AA
100
AcDbEntity
  8
V0L1
  6
CONTINUOUS
 62
   250
100
AcDbLine
 10
228.81941
 20
23.18
 30
0.0
 11
230.12
 21
23.18
 31
0.0
  0
LINE
  5
8AB
100
AcDbEntity
  8
V0L1
  6
CONTINUOUS
 62
   250
100
AcDbLine
 10
230.12
 20
23.18
 30
0.0
 11
230.12
 21
26.14
 31
0.0
  0
LINE
  5
8AC
100
AcDbEntity
  8
V0L1
  6
CONTINUOUS
 62
   250
100
AcDbLine
 10
230.12
 20
26.14
 30
0.0
 11
229.85541
 21
26.14
 31
0.0
  0
LINE
  5
8AD
100
AcDbEntity
  8
V0L1
  6
CONTINUOUS
 62
   250
100
AcDbLine
 10
229.85541
 20
26.14
 30
0.0
 11
228.81941
 21
23.18
 31
0.0
  0
LINE
  5
8AE
100
AcDbEntity
  8
V0L1
  6
CONTINUOUS
 62
   250
100
AcDbLine
 10
229.07312
 20
23.36
 30
0.0
 11
229.94
 21
23.36
 31
0.0
  0
LINE
  5
8AF
100
AcDbEntity
  8
V0L1
  6
CONTINUOUS
 62
   250
100
AcDbLine
 10
229.94
 20
23.36
 30
0.0
 11
229.94
 21
25.836801
 31
0.0
  0
LINE
  5
8B0
100
AcDbEntity
  8
V0L1
  6
CONTINUOUS
 62
   250
100
AcDbLine
 10
229.94
 20
25.836801
 30
0.0
 11
229.07312
 21
23.36
 31
0.0
  0
LINE
  5
8B1
100
AcDbEntity
  8
V0L1
  6
CONTINUOUS
 62
   250
100
AcDbLine
 10
229.32683
 20
23.54
 30
0.0
 11
229.76
 21
23.54
 31
0.0
  0
LINE
  5
8B2
100
AcDbEntity
  8
V0L1
  6
CONTINUOUS
 62
   250
100
AcDbLine
 10
229.76
 20
23.54
 30
0.0
 11
229.76
 21
24.777639
 31
0.0
  0
LINE
  5
8B3
100
AcDbEntity
  8
V0L1
  6
CONTINUOUS
 62
   250
100
AcDbLine
 10
229.76
 20
24.777639
 30
0.0
 11
229.32683
 21
23.54
 31
0.0
  0
LINE
  5
8B4
100
AcDbEntity
  8
V0L1
  6
CONTINUOUS
 62
   250
100
AcDbLine
 10
229.53825
 20
23.69
 30
0.0
 11
229.61
 21
23.69
 31
0.0
  0
LINE
  5
8B5
100
AcDbEntity
  8
V0L1
  6
CONTINUOUS
 62
   250
100
AcDbLine
 10
229.61
 20
23.69
 30
0.0
 11
229.61
 21
23.895004
 31
0.0
  0
LINE
  5
8B6
100
AcDbEntity
  8
V0L1
  6
CONTINUOUS
 62
   250
100
AcDbLine
 10
229.61
 20
23.895004
 30
0.0
 11
229.53825
 21
23.69
 31
0.0
  0
LINE
  5
8B7
100
AcDbEntity
  8
V0L1
  6
CONTINUOUS
 62
   250
100
AcDbLine
 10
231.3
 20
23.0
 30
0.0
 11
231.3
 21
26.32
 31
0.0
  0
LINE
  5
8B8
100
AcDbEntity
  8
V0L1
  6
CONTINUOUS
 62
   250
100
AcDbLine
 10
231.3
 20
26.32
 30
0.0
 11
231.87229
 21
26.32
 31
0.0
  0
LINE
  5
8B9
100
AcDbEntity
  8
V0L1
  6
CONTINUOUS
 62
   250
100
AcDbLine
 10
231.87229
 20
26.32
 30
0.0
 11
233.03429
 21
23.0
 31
0.0
  0
LINE
  5
8BA
100
AcDbEntity
  8
V0L1
  6
CONTINUOUS
 62
   250
100
AcDbLine
 10
233.03429
 20
23.0
 30
0.0
 11
231.3
 21
23.0
 31
0.0
  0
LINE
  5
8BB
100
AcDbEntity
  8
V0L1
  6
CONTINUOUS
 62
   250
100
AcDbLine
 10
231.48
 20
23.18
 30
0.0
 11
231.48
 21
26.14
 31
0.0
  0
LINE
  5
8BC
100
AcDbEntity
  8
V0L1
  6
CONTINUOUS
 62
   250
100
AcDbLine
 10
231.48
 20
26.14
 30
0.0
 11
231.74459
 21
26.14
 31
0.0
  0
LINE
  5
8BD
100
AcDbEntity
  8
V0L1
  6
CONTINUOUS
 62
   250
100
AcDbLine
 10
231.74459
 20
26.14
 30
0.0
 11
232.78059
 21
23.18
 31
0.0
  0
LINE
  5
8BE
100
AcDbEntity
  8
V0L1
  6
CONTINUOUS
 62
   250
100
AcDbLine
 10
232.78059
 20
23.18
 30
0.0
 11
231.48
 21
23.18
 31
0.0
  0
LINE
  5
8BF
100
AcDbEntity
  8
V0L1
  6
CONTINUOUS
 62
   250
100
AcDbLine
 10
231.66
 20
23.36
 30
0.0
 11
231.66
 21
25.836801
 31
0.0
  0
LINE
  5
8C0
100
AcDbEntity
  8
V0L1
  6
CONTINUOUS
 62
   250
100
AcDbLine
 10
231.66
 20
25.836801
 30
0.0
 11
232.52688
 21
23.36
 31
0.0
  0
LINE
  5
8C1
100
AcDbEntity
  8
V0L1
  6
CONTINUOUS
 62
   250
100
AcDbLine
 10
232.52688
 20
23.36
 30
0.0
 11
231.66
 21
23.36
 31
0.0
  0
LINE
  5
8C2
100
AcDbEntity
  8
V0L1
  6
CONTINUOUS
 62
   250
100
AcDbLine
 10
231.84
 20
23.54
 30
0.0
 11
231.84
 21
24.777639
 31
0.0
  0
LINE
  5
8C3
100
AcDbEntity
  8
V0L1
  6
CONTINUOUS
 62
   250
100
AcDbLine
 10
231.84
 20
24.777639
 30
0.0
 11
232.27317
 21
23.54
 31
0.0
  0
LINE
  5
8C4
100
AcDbEntity
  8
V0L1
  6
CONTINUOUS
 62
   250
100
AcDbLine
 10
232.27317
 20
23.54
 30
0.0
 11
231.84
 21
23.54
 31
0.0
  0
LINE
  5
8C5
100
AcDbEntity
  8
V0L1
  6
CONTINUOUS
 62
   250
100
AcDbLine
 10
232.06175
 20
23.69
 30
0.0
 11
231.99
 21
23.69
 31
0.0
  0
LINE
  5
8C6
100
AcDbEntity
  8
V0L1
  6
CONTINUOUS
 62
   250
100
AcDbLine
 10
231.99
 20
23.69
 30
0.0
 11
231.99
 21
23.895004
 31
0.0
  0
LINE
  5
8C7
100
AcDbEntity
  8
V0L1
  6
CONTINUOUS
 62
   250
100
AcDbLine
 10
231.99
 20
23.895004
 30
0.0
 11
232.06175
 21
23.69
 31
0.0
  0
LINE
  5
8C8
100
AcDbEntity
  8
V0L1
  6
CONTINUOUS
 62
   250
100
AcDbLine
 10
227.05371
 20
18.68
 30
0.0
 11
228.21571
 21
22.0
 31
0.0
  0
LINE
  5
8C9
100
AcDbEntity
  8
V0L1
  6
CONTINUOUS
 62
   250
100
AcDbLine
 10
222.0
 20
15.0
 30
0.0
 11
222.0
 21
58.0
 31
0.0
  0
LINE
  5
8CA
100
AcDbEntity
  8
V0L1
  6
CONTINUOUS
 62
   250
100
AcDbLine
 10
222.0
 20
58.0
 30
0.0
 11
393.0
 21
58.0
 31
0.0
  0
LINE
  5
8CB
100
AcDbEntity
  8
V0L1
  6
CONTINUOUS
 62
   250
100
AcDbLine
 10
222.0
 20
54.0
 30
0.0
 11
393.0
 21
54.0
 31
0.0
  0
LINE
  5
8CC
100
AcDbEntity
  8
V0L1
  6
CONTINUOUS
 62
   250
100
AcDbLine
 10
222.0
 20
50.0
 30
0.0
 11
350.0
 21
50.0
 31
0.0
  0
LINE
  5
8CD
100
AcDbEntity
  8
V0L1
  6
CONTINUOUS
 62
   250
100
AcDbLine
 10
228.0
 20
46.0
 30
0.0
 11
335.0
 21
46.0
 31
0.0
  0
LINE
  5
8CE
100
AcDbEntity
  8
V0L1
  6
CONTINUOUS
 62
   250
100
AcDbLine
 10
228.0
 20
42.0
 30
0.0
 11
335.0
 21
42.0
 31
0.0
  0
LINE
  5
8CF
100
AcDbEntity
  8
V0L1
  6
CONTINUOUS
 62
   250
100
AcDbLine
 10
228.0
 20
38.0
 30
0.0
 11
335.0
 21
38.0
 31
0.0
  0
LINE
  5
8D0
100
AcDbEntity
  8
V0L1
  6
CONTINUOUS
 62
   250
100
AcDbLine
 10
228.0
 20
34.0
 30
0.0
 11
335.0
 21
34.0
 31
0.0
  0
LINE
  5
8D1
100
AcDbEntity
  8
V0L1
  6
CONTINUOUS
 62
   250
100
AcDbLine
 10
222.0
 20
30.0
 30
0.0
 11
393.0
 21
30.0
 31
0.0
  0
LINE
  5
8D2
100
AcDbEntity
  8
V0L1
  6
CONTINUOUS
 62
   250
100
AcDbLine
 10
252.0
 20
26.0
 30
0.0
 11
335.0
 21
26.0
 31
0.0
  0
LINE
  5
8D3
100
AcDbEntity
  8
V0L1
  6
CONTINUOUS
 62
   250
100
AcDbLine
 10
335.0
 20
23.0
 30
0.0
 11
393.0
 21
23.0
 31
0.0
  0
LINE
  5
8D4
100
AcDbEntity
  8
V0L1
  6
CONTINUOUS
 62
   250
100
AcDbLine
 10
228.0
 20
30.0
 30
0.0
 11
228.0
 21
50.0
 31
0.0
  0
LINE
  5
8D5
100
AcDbEntity
  8
V0L1
  6
CONTINUOUS
 62
   250
100
AcDbLine
 10
231.0
 20
54.0
 30
0.0
 11
231.0
 21
58.0
 31
0.0
  0
LINE
  5
8D6
100
AcDbEntity
  8
V0L1
  6
CONTINUOUS
 62
   250
100
AcDbLine
 10
235.0
 20
30.0
 30
0.0
 11
235.0
 21
50.0
 31
0.0
  0
LINE
  5
8D7
100
AcDbEntity
  8
V0L1
  6
CONTINUOUS
 62
   250
100
AcDbLine
 10
252.0
 20
15.0
 30
0.0
 11
252.0
 21
30.0
 31
0.0
  0
LINE
  5
8D8
100
AcDbEntity
  8
V0L1
  6
CONTINUOUS
 62
   250
100
AcDbLine
 10
265.0
 20
54.0
 30
0.0
 11
265.0
 21
58.0
 31
0.0
  0
LINE
  5
8D9
100
AcDbEntity
  8
V0L1
  6
CONTINUOUS
 62
   250
100
AcDbLine
 10
268.0
 20
50.0
 30
0.0
 11
268.0
 21
54.0
 31
0.0
  0
LINE
  5
8DA
100
AcDbEntity
  8
V0L1
  6
CONTINUOUS
 62
   250
100
AcDbLine
 10
275.0
 20
54.0
 30
0.0
 11
275.0
 21
58.0
 31
0.0
  0
LINE
  5
8DB
100
AcDbEntity
  8
V0L1
  6
CONTINUOUS
 62
   250
100
AcDbLine
 10
308.0
 20
50.0
 30
0.0
 11
308.0
 21
58.0
 31
0.0
  0
LINE
  5
8DC
100
AcDbEntity
  8
V0L1
  6
CONTINUOUS
 62
   250
100
AcDbLine
 10
318.0
 20
54.0
 30
0.0
 11
318.0
 21
58.0
 31
0.0
  0
LINE
  5
8DD
100
AcDbEntity
  8
V0L1
  6
CONTINUOUS
 62
   250
100
AcDbLine
 10
335.0
 20
15.0
 30
0.0
 11
335.0
 21
50.0
 31
0.0
  0
LINE
  5
8DE
100
AcDbEntity
  8
V0L1
  6
CONTINUOUS
 62
   250
100
AcDbLine
 10
341.0
 20
23.0
 30
0.0
 11
341.0
 21
26.107786
 31
0.0
  0
LINE
  5
8DF
100
AcDbEntity
  8
V0L1
  6
CONTINUOUS
 62
   250
100
AcDbLine
 10
347.0
 20
23.0
 30
0.0
 11
347.0
 21
30.0
 31
0.0
  0
LINE
  5
8E0
100
AcDbEntity
  8
V0L1
  6
CONTINUOUS
 62
   250
100
AcDbLine
 10
350.0
 20
30.0
 30
0.0
 11
350.0
 21
58.0
 31
0.0
  0
LINE
  5
8E1
100
AcDbEntity
  8
V0L1
  6
CONTINUOUS
 62
   250
100
AcDbLine
 10
353.0
 20
23.0
 30
0.0
 11
353.0
 21
26.107786
 31
0.0
  0
LINE
  5
8E2
100
AcDbEntity
  8
V0L1
  6
CONTINUOUS
 62
   250
100
AcDbLine
 10
16.0
 20
278.0
 30
0.0
 11
16.0
 21
15.0
 31
0.0
  0
LINE
  5
8E3
100
AcDbEntity
  8
V0L1
  6
CONTINUOUS
 62
   250
100
AcDbLine
 10
16.0
 20
15.0
 30
0.0
 11
393.0
 21
15.0
 31
0.0
  0
LINE
  5
8E4
100
AcDbEntity
  8
V0L1
  6
CONTINUOUS
 62
   250
100
AcDbLine
 10
359.0
 20
23.0
 30
0.0
 11
359.0
 21
30.0
 31
0.0
  0
LINE
  5
8E5
100
AcDbEntity
  8
V0L1
  6
CONTINUOUS
 62
   250
100
AcDbLine
 10
360.0
 20
54.0
 30
0.0
 11
360.0
 21
58.0
 31
0.0
  0
LINE
  5
8E6
100
AcDbEntity
  8
V0L1
  6
CONTINUOUS
 62
   250
100
AcDbLine
 10
370.0
 20
23.0
 30
0.0
 11
370.0
 21
30.0
 31
0.0
  0
LINE
  5
8E7
100
AcDbEntity
  8
V0L1
  6
CONTINUOUS
 62
   250
100
AcDbLine
 10
382.0
 20
23.0
 30
0.0
 11
382.0
 21
30.0
 31
0.0
  0
LINE
  5
8E8
100
AcDbEntity
  8
V0L1
  6
CONTINUOUS
 62
   250
100
AcDbLine
 10
389.5
 20
53.5
 30
0.0
 11
392.5
 21
53.5
 31
0.0
  0
LINE
  5
8E9
100
AcDbEntity
  8
V0L1
  6
CONTINUOUS
 62
   250
100
AcDbLine
 10
392.5
 20
53.5
 30
0.0
 11
392.5
 21
50.5
 31
0.0
  0
LINE
  5
8EA
100
AcDbEntity
  8
V0L1
  6
CONTINUOUS
 62
   250
100
AcDbLine
 10
389.5
 20
50.5
 30
0.0
 11
392.5
 21
50.5
 31
0.0
  0
LINE
  5
8EB
100
AcDbEntity
  8
V0L1
  6
CONTINUOUS
 62
   250
100
AcDbLine
 10
389.5
 20
53.5
 30
0.0
 11
389.5
 21
50.5
 31
0.0
  0
LINE
  5
8EC
100
AcDbEntity
  8
V0L1
  6
CONTINUOUS
 62
   250
100
AcDbLine
 10
389.5
 20
49.5
 30
0.0
 11
389.5
 21
46.5
 31
0.0
  0
LINE
  5
8ED
100
AcDbEntity
  8
V0L1
  6
CONTINUOUS
 62
   250
100
AcDbLine
 10
389.5
 20
46.5
 30
0.0
 11
392.5
 21
46.5
 31
0.0
  0
LINE
  5
8EE
100
AcDbEntity
  8
V0L1
  6
CONTINUOUS
 62
   250
100
AcDbLine
 10
392.5
 20
49.5
 30
0.0
 11
392.5
 21
46.5
 31
0.0
  0
LINE
  5
8EF
100
AcDbEntity
  8
V0L1
  6
CONTINUOUS
 62
   250
100
AcDbLine
 10
389.5
 20
49.5
 30
0.0
 11
392.5
 21
49.5
 31
0.0
  0
LINE
  5
8F0
100
AcDbEntity
  8
V0L1
  6
CONTINUOUS
 62
   250
100
AcDbLine
 10
389.5
 20
45.5
 30
0.0
 11
389.5
 21
42.5
 31
0.0
  0
LINE
  5
8F1
100
AcDbEntity
  8
V0L1
  6
CONTINUOUS
 62
   250
100
AcDbLine
 10
389.5
 20
42.5
 30
0.0
 11
392.5
 21
42.5
 31
0.0
  0
LINE
  5
8F2
100
AcDbEntity
  8
V0L1
  6
CONTINUOUS
 62
   250
100
AcDbLine
 10
393.0
 20
15.0
 30
0.0
 11
393.0
 21
278.0
 31
0.0
  0
LINE
  5
8F3
100
AcDbEntity
  8
V0L1
  6
CONTINUOUS
 62
   250
100
AcDbLine
 10
393.0
 20
278.0
 30
0.0
 11
16.0
 21
278.0
 31
0.0
  0
LINE
  5
8F4
100
AcDbEntity
  8
V0L1
  6
CONTINUOUS
 62
   250
100
AcDbLine
 10
392.5
 20
45.5
 30
0.0
 11
392.5
 21
42.5
 31
0.0
  0
LINE
  5
8F5
100
AcDbEntity
  8
V0L1
  6
CONTINUOUS
 62
   250
100
AcDbLine
 10
389.5
 20
45.5
 30
0.0
 11
392.5
 21
45.5
 31
0.0
  0
LINE
  5
8F6
100
AcDbEntity
  8
V0L1
  6
CONTINUOUS
 62
   250
100
AcDbLine
 10
393.0
 20
15.0
 30
0.0
 11
397.0
 21
15.0
 31
0.0
  0
LINE
  5
8F7
100
AcDbEntity
  8
V0L1
  6
CONTINUOUS
 62
   250
100
AcDbLine
 10
393.0
 20
18.0
 30
0.0
 11
397.0
 21
18.0
 31
0.0
  0
LINE
  5
8F8
100
AcDbEntity
  8
V0L1
  6
CONTINUOUS
 62
   250
100
AcDbLine
 10
393.0
 20
21.0
 30
0.0
 11
397.0
 21
21.0
 31
0.0
  0
LINE
  5
8F9
100
AcDbEntity
  8
V0L1
  6
CONTINUOUS
 62
   250
100
AcDbLine
 10
393.0
 20
24.0
 30
0.0
 11
397.0
 21
24.0
 31
0.0
  0
LINE
  5
8FA
100
AcDbEntity
  8
V0L1
  6
CONTINUOUS
 62
   250
100
AcDbLine
 10
393.0
 20
27.0
 30
0.0
 11
397.0
 21
27.0
 31
0.0
  0
LINE
  5
8FB
100
AcDbEntity
  8
V0L1
  6
CONTINUOUS
 62
   250
100
AcDbLine
 10
393.0
 20
30.0
 30
0.0
 11
397.0
 21
30.0
 31
0.0
  0
LINE
  5
8FC
100
AcDbEntity
  8
V0L1
  6
CONTINUOUS
 62
   250
100
AcDbLine
 10
229.6
 20
26.5
 30
0.0
 11
230.48
 21
26.5
 31
0.0
  0
LINE
  5
8FD
100
AcDbEntity
  8
V0L1
  6
CONTINUOUS
 62
   250
100
AcDbLine
 10
83.0
 20
278.0
 30
0.0
 11
83.0
 21
266.0
 31
0.0
  0
LINE
  5
8FE
100
AcDbEntity
  8
V0L1
  6
CONTINUOUS
 62
   250
100
AcDbLine
 10
150.0
 20
266.0
 30
0.0
 11
150.0
 21
278.0
 31
0.0
  0
LINE
  5
8FF
100
AcDbEntity
  8
V0L1
  6
CONTINUOUS
 62
   250
100
AcDbLine
 10
150.0
 20
266.0
 30
0.0
 11
16.0
 21
266.0
 31
0.0
  0
LINE
  5
900
100
AcDbEntity
  8
V0L1
  6
CONTINUOUS
 62
   250
100
AcDbLine
 10
228.8
 20
18.5
 30
0.0
 11
226.8
 21
18.5
 31
0.0
  0
LINE
  5
901
100
AcDbEntity
  8
V0L1
  6
CONTINUOUS
 62
   250
100
AcDbLine
 10
228.21571
 20
22.0
 30
0.0
 11
230.3
 21
22.0
 31
0.0
  0
LINE
  5
902
100
AcDbEntity
  8
V0L1
  6
CONTINUOUS
 62
   250
100
AcDbLine
 10
226.8
 20
18.5
 30
0.0
 11
228.088
 21
22.18
 31
0.0
  0
LINE
  5
903
100
AcDbEntity
  8
V0L1
  6
CONTINUOUS
 62
   250
100
AcDbLine
 10
232.0
 20
26.5
 30
0.0
 11
233.288
 21
22.82
 31
0.0
  0
LINE
  5
904
100
AcDbEntity
  8
V0L1
  6
CONTINUOUS
 62
   250
100
AcDbLine
 10
232.24
 20
20.1
 30
0.0
 11
232.8
 21
18.5
 31
0.0
  0
LINE
  5
905
100
AcDbEntity
  8
V0L1
  6
CONTINUOUS
 62
   250
100
AcDbLine
 10
228.8
 20
18.5
 30
0.0
 11
229.36
 21
20.1
 31
0.0
  0
LINE
  5
906
100
AcDbEntity
  8
V0L1
  6
CONTINUOUS
 62
   250
100
AcDbLine
 10
235.36
 20
18.5
 30
0.0
 11
237.44
 21
18.5
 31
0.0
  0
LINE
  5
907
100
AcDbEntity
  8
V0L1
  6
CONTINUOUS
 62
   250
100
AcDbLine
 10
235.36
 20
26.5
 30
0.0
 11
237.44
 21
26.5
 31
0.0
  0
LINE
  5
908
100
AcDbEntity
  8
V0L1
  6
CONTINUOUS
 62
   250
100
AcDbLine
 10
229.36
 20
20.1
 30
0.0
 11
230.48
 21
20.1
 31
0.0
  0
LINE
  5
909
100
AcDbEntity
  8
V0L1
  6
CONTINUOUS
 62
   250
100
AcDbLine
 10
232.8
 20
18.5
 30
0.0
 11
234.8
 21
18.5
 31
0.0
  0
LINE
  5
90A
100
AcDbEntity
  8
V0L1
  6
CONTINUOUS
 62
   250
100
AcDbLine
 10
228.088
 20
22.18
 30
0.0
 11
230.48
 21
22.18
 31
0.0
  0
LINE
  5
90B
100
AcDbEntity
  8
V0L1
  6
CONTINUOUS
 62
   250
100
AcDbLine
 10
228.312
 20
22.82
 30
0.0
 11
230.48
 21
22.82
 31
0.0
  0
LINE
  5
90C
100
AcDbEntity
  8
V0L1
  6
CONTINUOUS
 62
   250
100
AcDbLine
 10
57.69113
 20
271.18273
 30
0.0
 11
60.69113
 21
271.18273
 31
0.0
  0
LINE
  5
90D
100
AcDbEntity
  8
V0L1
  6
CONTINUOUS
 62
   250
100
AcDbLine
 10
60.69113
 20
271.18273
 30
0.0
 11
60.69113
 21
268.18273
 31
0.0
  0
LINE
  5
90E
100
AcDbEntity
  8
V0L1
  6
CONTINUOUS
 62
   250
100
AcDbLine
 10
230.48
 20
20.1
 30
0.0
 11
230.48
 21
22.18
 31
0.0
  0
LINE
  5
90F
100
AcDbEntity
  8
V0L1
  6
CONTINUOUS
 62
   250
100
AcDbLine
 10
231.12
 20
20.1
 30
0.0
 11
231.12
 21
22.18
 31
0.0
  0
LINE
  5
910
100
AcDbEntity
  8
V0L1
  6
CONTINUOUS
 62
   250
100
AcDbLine
 10
231.12
 20
20.1
 30
0.0
 11
232.24
 21
20.1
 31
0.0
  0
LINE
  5
911
100
AcDbEntity
  8
V0L1
  6
CONTINUOUS
 62
   250
100
AcDbLine
 10
231.12
 20
22.18
 30
0.0
 11
233.512
 21
22.18
 31
0.0
  0
LINE
  5
912
100
AcDbEntity
  8
V0L1
  6
CONTINUOUS
 62
   250
100
AcDbLine
 10
228.312
 20
22.82
 30
0.0
 11
229.6
 21
26.5
 31
0.0
  0
LINE
  5
913
100
AcDbEntity
  8
V0L1
  6
CONTINUOUS
 62
   250
100
AcDbLine
 10
231.12
 20
22.82
 30
0.0
 11
233.288
 21
22.82
 31
0.0
  0
LINE
  5
914
100
AcDbEntity
  8
V0L1
  6
CONTINUOUS
 62
   250
100
AcDbLine
 10
231.12
 20
22.82
 30
0.0
 11
231.12
 21
26.5
 31
0.0
  0
LINE
  5
915
100
AcDbEntity
  8
V0L1
  6
CONTINUOUS
 62
   250
100
AcDbLine
 10
230.48
 20
22.82
 30
0.0
 11
230.48
 21
26.5
 31
0.0
  0
LINE
  5
916
100
AcDbEntity
  8
V0L1
  6
CONTINUOUS
 62
   250
100
AcDbLine
 10
232.0
 20
26.5
 30
0.0
 11
231.12
 21
26.5
 31
0.0
  0
LINE
  5
917
100
AcDbEntity
  8
V0L1
  6
CONTINUOUS
 62
   250
100
AcDbLine
 10
233.512
 20
22.18
 30
0.0
 11
234.8
 21
18.5
 31
0.0
  0
LINE
  5
918
100
AcDbEntity
  8
V0L1
  6
CONTINUOUS
 62
   250
100
AcDbLine
 10
235.36
 20
18.5
 30
0.0
 11
235.36
 21
22.18
 31
0.0
  0
LINE
  5
919
100
AcDbEntity
  8
V0L1
  6
CONTINUOUS
 62
   250
100
AcDbLine
 10
57.69113
 20
268.18273
 30
0.0
 11
60.69113
 21
268.18273
 31
0.0
  0
LINE
  5
91A
100
AcDbEntity
  8
V0L1
  6
CONTINUOUS
 62
   250
100
AcDbLine
 10
57.69113
 20
271.18273
 30
0.0
 11
57.69113
 21
268.18273
 31
0.0
  0
LINE
  5
91B
100
AcDbEntity
  8
V0L1
  6
CONTINUOUS
 62
   250
100
AcDbLine
 10
48.21513
 20
271.18273
 30
0.0
 11
51.21513
 21
271.18273
 31
0.0
  0
ARC
  5
91C
100
AcDbEntity
  8
V0L1
  6
CONTINUOUS
 62
   250
100
AcDbCircle
 10
238.56
 20
24.7
 30
0.0
 40
1.8
100
AcDbArc
 50
299.38468
 51
90.0
  0
ARC
  5
91D
100
AcDbEntity
  8
V0L1
  6
CONTINUOUS
 62
   250
100
AcDbCircle
 10
238.56
 20
20.9
 30
0.0
 40
2.4
100
AcDbArc
 50
270.0
 51
32.23095
  0
LINE
  5
91E
100
AcDbEntity
  8
V0L1
  6
CONTINUOUS
 62
   250
100
AcDbLine
 10
51.21513
 20
271.18273
 30
0.0
 11
51.21513
 21
268.18273
 31
0.0
  0
LINE
  5
91F
100
AcDbEntity
  8
V0L1
  6
CONTINUOUS
 62
   250
100
AcDbLine
 10
48.21513
 20
268.18273
 30
0.0
 11
51.21513
 21
268.18273
 31
0.0
  0
LINE
  5
920
100
AcDbEntity
  8
V0L1
  6
CONTINUOUS
 62
   250
100
AcDbLine
 10
240.0
 20
22.82
 30
0.0
 11
238.08
 21
22.82
 31
0.0
  0
LINE
  5
921
100
AcDbEntity
  8
V0L1
  6
CONTINUOUS
 62
   250
100
AcDbLine
 10
240.59017
 20
22.18
 30
0.0
 11
238.08
 21
22.18
 31
0.0
  0
LINE
  5
922
100
AcDbEntity
  8
V0L1
  6
CONTINUOUS
 62
   250
100
AcDbLine
 10
238.08
 20
18.5
 30
0.0
 11
238.08
 21
22.18
 31
0.0
  0
LINE
  5
923
100
AcDbEntity
  8
V0L1
  6
CONTINUOUS
 62
   250
100
AcDbLine
 10
237.44
 20
18.5
 30
0.0
 11
237.44
 21
22.18
 31
0.0
  0
LINE
  5
924
100
AcDbEntity
  8
V0L1
  6
CONTINUOUS
 62
   250
100
AcDbLine
 10
238.08
 20
26.5
 30
0.0
 11
238.56
 21
26.5
 31
0.0
  0
LINE
  5
925
100
AcDbEntity
  8
V0L1
  6
CONTINUOUS
 62
   250
100
AcDbLine
 10
237.44
 20
22.82
 30
0.0
 11
235.36
 21
22.82
 31
0.0
  0
LINE
  5
926
100
AcDbEntity
  8
V0L1
  6
CONTINUOUS
 62
   250
100
AcDbLine
 10
237.44
 20
22.18
 30
0.0
 11
235.36
 21
22.18
 31
0.0
  0
LINE
  5
927
100
AcDbEntity
  8
V0L1
  6
CONTINUOUS
 62
   250
100
AcDbLine
 10
238.08
 20
18.5
 30
0.0
 11
238.56
 21
18.5
 31
0.0
  0
LINE
  5
928
100
AcDbEntity
  8
V0L1
  6
CONTINUOUS
 62
   250
100
AcDbLine
 10
235.36
 20
22.82
 30
0.0
 11
235.36
 21
26.5
 31
0.0
  0
LINE
  5
929
100
AcDbEntity
  8
V0L1
  6
CONTINUOUS
 62
   250
100
AcDbLine
 10
48.21513
 20
271.18273
 30
0.0
 11
48.21513
 21
268.18273
 31
0.0
  0
LINE
  5
92A
100
AcDbEntity
  8
V0L1
  6
CONTINUOUS
 62
   250
100
AcDbLine
 10
237.44
 20
22.82
 30
0.0
 11
237.44
 21
26.5
 31
0.0
  0
LINE
  5
92B
100
AcDbEntity
  8
V0L1
  6
CONTINUOUS
 62
   250
100
AcDbLine
 10
238.08
 20
22.82
 30
0.0
 11
238.08
 21
26.5
 31
0.0
  0
ARC
  5
92C
100
AcDbEntity
  8
V0L1
  6
CONTINUOUS
 62
   250
100
AcDbCircle
 10
238.56
 20
20.9
 30
0.0
 40
2.4
100
AcDbArc
 50
53.130102
 51
68.407484
  0
LINE
  5
92D
100
AcDbEntity
  8
V0L1
  6
CONTINUOUS
 62
   250
100
AcDbLine
 10
241.6
 20
18.5
 30
0.0
 11
241.6
 21
22.18
 31
0.0
  0
LINE
  5
92E
100
AcDbEntity
  8
V0L1
  6
CONTINUOUS
 62
   250
100
AcDbLine
 10
243.68
 20
22.18
 30
0.0
 11
241.6
 21
22.18
 31
0.0
  0
LINE
  5
92F
100
AcDbEntity
  8
V0L1
  6
CONTINUOUS
 62
   250
100
AcDbLine
 10
243.68
 20
18.5
 30
0.0
 11
243.68
 21
22.18
 31
0.0
  0
LINE
  5
930
100
AcDbEntity
  8
V0L1
  6
CONTINUOUS
 62
   250
100
AcDbLine
 10
124.0
 20
269.0
 30
0.0
 11
127.0
 21
269.0
 31
0.0
  0
LINE
  5
931
100
AcDbEntity
  8
V0L1
  6
CONTINUOUS
 62
   250
100
AcDbLine
 10
241.6
 20
18.5
 30
0.0
 11
243.68
 21
18.5
 31
0.0
  0
LINE
  5
932
100
AcDbEntity
  8
V0L1
  6
CONTINUOUS
 62
   250
100
AcDbLine
 10
244.32
 20
18.5
 30
0.0
 11
244.32
 21
22.18
 31
0.0
  0
LINE
  5
933
100
AcDbEntity
  8
V0L1
  6
CONTINUOUS
 62
   250
100
AcDbLine
 10
246.83017
 20
22.18
 30
0.0
 11
244.32
 21
22.18
 31
0.0
  0
LINE
  5
934
100
AcDbEntity
  8
V0L1
  6
CONTINUOUS
 62
   250
100
AcDbLine
 10
127.0
 20
272.0
 30
0.0
 11
127.0
 21
269.0
 31
0.0
  0
LINE
  5
935
100
AcDbEntity
  8
V0L1
  6
CONTINUOUS
 62
   250
100
AcDbLine
 10
124.0
 20
272.0
 30
0.0
 11
127.0
 21
272.0
 31
0.0
  0
LINE
  5
936
100
AcDbEntity
  8
V0L1
  6
CONTINUOUS
 62
   250
100
AcDbLine
 10
124.0
 20
272.0
 30
0.0
 11
124.0
 21
269.0
 31
0.0
  0
ARC
  5
937
100
AcDbEntity
  8
V0L1
  6
CONTINUOUS
 62
   250
100
AcDbCircle
 10
244.8
 20
20.9
 30
0.0
 40
2.4
100
AcDbArc
 50
270.0
 51
32.23095
  0
LINE
  5
938
100
AcDbEntity
  8
V0L1
  6
CONTINUOUS
 62
   250
100
AcDbLine
 10
137.0
 20
269.0
 30
0.0
 11
140.0
 21
269.0
 31
0.0
  0
LINE
  5
939
100
AcDbEntity
  8
V0L1
  6
CONTINUOUS
 62
   250
100
AcDbLine
 10
244.32
 20
18.5
 30
0.0
 11
244.8
 21
18.5
 31
0.0
  0
LINE
  5
93A
100
AcDbEntity
  8
V0L1
  6
CONTINUOUS
 62
   250
100
AcDbLine
 10
241.6
 20
22.82
 30
0.0
 11
241.6
 21
26.5
 31
0.0
  0
LINE
  5
93B
100
AcDbEntity
  8
V0L1
  6
CONTINUOUS
 62
   250
100
AcDbLine
 10
241.6
 20
26.5
 30
0.0
 11
243.68
 21
26.5
 31
0.0
  0
LINE
  5
93C
100
AcDbEntity
  8
V0L1
  6
CONTINUOUS
 62
   250
100
AcDbLine
 10
243.68
 20
22.82
 30
0.0
 11
243.68
 21
26.5
 31
0.0
  0
LINE
  5
93D
100
AcDbEntity
  8
V0L1
  6
CONTINUOUS
 62
   250
100
AcDbLine
 10
243.68
 20
22.82
 30
0.0
 11
241.6
 21
22.82
 31
0.0
  0
LINE
  5
93E
100
AcDbEntity
  8
V0L1
  6
CONTINUOUS
 62
   250
100
AcDbLine
 10
244.32
 20
22.82
 30
0.0
 11
244.32
 21
26.5
 31
0.0
  0
LINE
  5
93F
100
AcDbEntity
  8
V0L1
  6
CONTINUOUS
 62
   250
100
AcDbLine
 10
244.32
 20
26.5
 30
0.0
 11
244.8
 21
26.5
 31
0.0
  0
ARC
  5
940
100
AcDbEntity
  8
V0L1
  6
CONTINUOUS
 62
   250
100
AcDbCircle
 10
244.8
 20
24.7
 30
0.0
 40
1.8
100
AcDbArc
 50
299.38468
 51
90.0
  0
LINE
  5
941
100
AcDbEntity
  8
V0L1
  6
CONTINUOUS
 62
   250
100
AcDbLine
 10
140.0
 20
272.0
 30
0.0
 11
140.0
 21
269.0
 31
0.0
  0
ARC
  5
942
100
AcDbEntity
  8
V0L1
  6
CONTINUOUS
 62
   250
100
AcDbCircle
 10
244.8
 20
20.9
 30
0.0
 40
2.4
100
AcDbArc
 50
53.130102
 51
68.407484
  0
LINE
  5
943
100
AcDbEntity
  8
V0L1
  6
CONTINUOUS
 62
   250
100
AcDbLine
 10
246.24
 20
22.82
 30
0.0
 11
244.32
 21
22.82
 31
0.0
  0
LINE
  5
944
100
AcDbEntity
  8
V0L1
  6
CONTINUOUS
 62
   250
100
AcDbLine
 10
137.0
 20
272.0
 30
0.0
 11
140.0
 21
272.0
 31
0.0
  0
TEXT
  5
945
100
AcDbEntity
  8
V0L1
  6
CONTINUOUS
 62
   250
100
AcDbText
 10
28.042442
 20
273.05173
 30
0.0
 40
2.5
  1
Tolerances generales selon ISO 2768
 41
0.5
100
AcDbText
  0
TEXT
  5
946
100
AcDbEntity
  8
V0L1
  6
CONTINUOUS
 62
   250
100
AcDbText
 10
19.029304
 20
268.29203
 30
0.0
 40
2.5
  1
Degre de precision   f      m       c       v
 41
0.5
100
AcDbText
  0
TEXT
  5
947
100
AcDbEntity
  8
V0L1
  6
CONTINUOUS
 62
   250
100
AcDbText
 10
86.294943
 20
273.6093
 30
0.0
 40
2.5
  1
Tolerances generales sur pieces moulees selon
 41
0.5
100
AcDbText
  0
TEXT
  5
948
100
AcDbEntity
  8
V0L1
  6
CONTINUOUS
 62
   250
100
AcDbText
 10
86.294943
 20
269.1093
 30
0.0
 40
2.5
  1
Din 16901 (FPTC 407364)   130       140   
 41
0.5
100
AcDbText
  0
LINE
  5
949
100
AcDbEntity
  8
V0L1
  6
CONTINUOUS
 62
   250
100
AcDbLine
 10
230.3
 20
22.0
 30
0.0
 11
230.3
 21
20.28
 31
0.0
  0
LINE
  5
94A
100
AcDbEntity
  8
V0L1
  6
CONTINUOUS
 62
   250
100
AcDbLine
 10
67.16713
 20
268.18273
 30
0.0
 11
70.16713
 21
268.18273
 31
0.0
  0
LINE
  5
94B
100
AcDbEntity
  8
V0L1
  6
CONTINUOUS
 62
   250
100
AcDbLine
 10
137.0
 20
272.0
 30
0.0
 11
137.0
 21
269.0
 31
0.0
  0
LINE
  5
94C
100
AcDbEntity
  8
V0L1
  6
CONTINUOUS
 62
   250
100
AcDbLine
 10
230.3
 20
20.28
 30
0.0
 11
229.23229
 21
20.28
 31
0.0
  0
LINE
  5
94D
100
AcDbEntity
  8
V0L1
  6
CONTINUOUS
 62
   250
100
AcDbLine
 10
229.23229
 20
20.28
 30
0.0
 11
228.67229
 21
18.68
 31
0.0
  0
LINE
  5
94E
100
AcDbEntity
  8
V0L1
  6
CONTINUOUS
 62
   250
100
AcDbLine
 10
16.0
 20
278.0
 30
0.0
 11
17.5
 21
281.67156
 31
0.0
  0
LINE
  5
94F
100
AcDbEntity
  8
V0L1
  6
CONTINUOUS
 62
   250
100
AcDbLine
 10
17.5
 20
281.67156
 30
0.0
 11
19.0
 21
278.0
 31
0.0
  0
LINE
  5
950
100
AcDbEntity
  8
V0L1
  6
CONTINUOUS
 62
   250
100
AcDbLine
 10
212.0
 20
278.0
 30
0.0
 11
213.5
 21
281.67156
 31
0.0
  0
LINE
  5
951
100
AcDbEntity
  8
V0L1
  6
CONTINUOUS
 62
   250
100
AcDbLine
 10
213.5
 20
281.67156
 30
0.0
 11
215.0
 21
278.0
 31
0.0
  0
LINE
  5
952
100
AcDbEntity
  8
V0L1
  6
CONTINUOUS
 62
   250
100
AcDbLine
 10
16.0
 20
15.0
 30
0.0
 11
17.5
 21
11.328442
 31
0.0
  0
LINE
  5
953
100
AcDbEntity
  8
V0L1
  6
CONTINUOUS
 62
   250
100
AcDbLine
 10
17.5
 20
11.328442
 30
0.0
 11
19.0
 21
15.0
 31
0.0
  0
LINE
  5
954
100
AcDbEntity
  8
V0L1
  6
CONTINUOUS
 62
   250
100
AcDbLine
 10
212.0
 20
15.0
 30
0.0
 11
213.5
 21
11.328442
 31
0.0
  0
LINE
  5
955
100
AcDbEntity
  8
V0L1
  6
CONTINUOUS
 62
   250
100
AcDbLine
 10
213.5
 20
11.328442
 30
0.0
 11
215.0
 21
15.0
 31
0.0
  0
LINE
  5
956
100
AcDbEntity
  8
V0L1
  6
CONTINUOUS
 62
   250
100
AcDbLine
 10
228.67229
 20
18.68
 30
0.0
 11
227.05371
 21
18.68
 31
0.0
  0
LINE
  5
957
100
AcDbEntity
  8
V0L1
  6
CONTINUOUS
 62
   250
100
AcDbLine
 10
227.30741
 20
18.86
 30
0.0
 11
228.34341
 21
21.82
 31
0.0
  0
LINE
  5
958
100
AcDbEntity
  8
V0L1
  6
CONTINUOUS
 62
   250
100
AcDbLine
 10
228.34341
 20
21.82
 30
0.0
 11
230.12
 21
21.82
 31
0.0
  0
LINE
  5
959
100
AcDbEntity
  8
V0L1
  6
CONTINUOUS
 62
   250
100
AcDbLine
 10
230.12
 20
21.82
 30
0.0
 11
230.12
 21
20.46
 31
0.0
  0
LINE
  5
95A
100
AcDbEntity
  8
V0L1
  6
CONTINUOUS
 62
   250
100
AcDbLine
 10
230.12
 20
20.46
 30
0.0
 11
229.10459
 21
20.46
 31
0.0
  0
LINE
  5
95B
100
AcDbEntity
  8
V0L1
  6
CONTINUOUS
 62
   250
100
AcDbLine
 10
229.10459
 20
20.46
 30
0.0
 11
228.54459
 21
18.86
 31
0.0
  0
LINE
  5
95C
100
AcDbEntity
  8
V0L1
  6
CONTINUOUS
 62
   250
100
AcDbLine
 10
228.54459
 20
18.86
 30
0.0
 11
227.30741
 21
18.86
 31
0.0
  0
LINE
  5
95D
100
AcDbEntity
  8
V0L1
  6
CONTINUOUS
 62
   250
100
AcDbLine
 10
227.56112
 20
19.04
 30
0.0
 11
228.47112
 21
21.64
 31
0.0
  0
LINE
  5
95E
100
AcDbEntity
  8
V0L1
  6
CONTINUOUS
 62
   250
100
AcDbLine
 10
228.47112
 20
21.64
 30
0.0
 11
229.94
 21
21.64
 31
0.0
  0
LINE
  5
95F
100
AcDbEntity
  8
V0L1
  6
CONTINUOUS
 62
   250
100
AcDbLine
 10
229.94
 20
21.64
 30
0.0
 11
229.94
 21
20.64
 31
0.0
  0
LINE
  5
960
100
AcDbEntity
  8
V0L1
  6
CONTINUOUS
 62
   250
100
AcDbLine
 10
229.94
 20
20.64
 30
0.0
 11
228.97688
 21
20.64
 31
0.0
  0
LINE
  5
961
100
AcDbEntity
  8
V0L1
  6
CONTINUOUS
 62
   250
100
AcDbLine
 10
228.97688
 20
20.64
 30
0.0
 11
228.41688
 21
19.04
 31
0.0
  0
LINE
  5
962
100
AcDbEntity
  8
V0L1
  6
CONTINUOUS
 62
   250
100
AcDbLine
 10
228.41688
 20
19.04
 30
0.0
 11
227.56112
 21
19.04
 31
0.0
  0
LINE
  5
963
100
AcDbEntity
  8
V0L1
  6
CONTINUOUS
 62
   250
100
AcDbLine
 10
227.81483
 20
19.22
 30
0.0
 11
228.59883
 21
21.46
 31
0.0
  0
LINE
  5
964
100
AcDbEntity
  8
V0L1
  6
CONTINUOUS
 62
   250
100
AcDbLine
 10
228.59883
 20
21.46
 30
0.0
 11
229.76
 21
21.46
 31
0.0
  0
LINE
  5
965
100
AcDbEntity
  8
V0L1
  6
CONTINUOUS
 62
   250
100
AcDbLine
 10
229.76
 20
21.46
 30
0.0
 11
229.76
 21
20.82
 31
0.0
  0
LINE
  5
966
100
AcDbEntity
  8
V0L1
  6
CONTINUOUS
 62
   250
100
AcDbLine
 10
229.76
 20
20.82
 30
0.0
 11
228.84917
 21
20.82
 31
0.0
  0
LINE
  5
967
100
AcDbEntity
  8
V0L1
  6
CONTINUOUS
 62
   250
100
AcDbLine
 10
228.84917
 20
20.82
 30
0.0
 11
228.28917
 21
19.22
 31
0.0
  0
LINE
  5
968
100
AcDbEntity
  8
V0L1
  6
CONTINUOUS
 62
   250
100
AcDbLine
 10
228.28917
 20
19.22
 30
0.0
 11
227.81483
 21
19.22
 31
0.0
  0
LINE
  5
969
100
AcDbEntity
  8
V0L1
  6
CONTINUOUS
 62
   250
100
AcDbLine
 10
70.16713
 20
271.18273
 30
0.0
 11
70.16713
 21
268.18273
 31
0.0
  0
LINE
  5
96A
100
AcDbEntity
  8
V0L1
  6
CONTINUOUS
 62
   250
100
AcDbLine
 10
67.16713
 20
271.18273
 30
0.0
 11
70.16713
 21
271.18273
 31
0.0
  0
LINE
  5
96B
100
AcDbEntity
  8
V0L1
  6
CONTINUOUS
 62
   250
100
AcDbLine
 10
67.16713
 20
271.18273
 30
0.0
 11
67.16713
 21
268.18273
 31
0.0
  0
LINE
  5
96C
100
AcDbEntity
  8
V0L1
  6
CONTINUOUS
 62
   250
100
AcDbLine
 10
76.64313
 20
268.18273
 30
0.0
 11
79.64313
 21
268.18273
 31
0.0
  0
LINE
  5
96D
100
AcDbEntity
  8
V0L1
  6
CONTINUOUS
 62
   250
100
AcDbLine
 10
79.64313
 20
271.18273
 30
0.0
 11
79.64313
 21
268.18273
 31
0.0
  0
LINE
  5
96E
100
AcDbEntity
  8
V0L1
  6
CONTINUOUS
 62
   250
100
AcDbLine
 10
228.06853
 20
19.4
 30
0.0
 11
228.72653
 21
21.28
 31
0.0
  0
LINE
  5
96F
100
AcDbEntity
  8
V0L1
  6
CONTINUOUS
 62
   250
100
AcDbLine
 10
228.72653
 20
21.28
 30
0.0
 11
229.58
 21
21.28
 31
0.0
  0
TEXT
  5
970
100
AcDbEntity
  8
V0L1
  6
CONTINUOUS
 62
   250
100
AcDbText
 10
309.33055
 20
56.201294
 30
0.0
 40
1.45
  1
Controle
 41
0.6
100
AcDbText
  0
TEXT
  5
971
100
AcDbEntity
  8
V0L1
  6
CONTINUOUS
 62
   250
100
AcDbText
 10
309.33055
 20
54.461294
 30
0.0
 40
1.45
  1
Normes
 41
0.6
100
AcDbText
  0
TEXT
  5
972
100
AcDbEntity
  8
V0L1
  6
CONTINUOUS
 62
   250
100
AcDbText
 10
309.33055
 20
52.201294
 30
0.0
 40
1.45
  1
Remplace
 41
0.6
100
AcDbText
  0
TEXT
  5
973
100
AcDbEntity
  8
V0L1
  6
CONTINUOUS
 62
   250
100
AcDbText
 10
309.33055
 20
50.461294
 30
0.0
 40
1.45
  1
par :
 41
0.6
100
AcDbText
  0
TEXT
  5
974
100
AcDbEntity
  8
V0L1
  6
CONTINUOUS
 62
   250
100
AcDbText
 10
351.33055
 20
56.201294
 30
0.0
 40
1.45
  1
Bon pour
 41
0.6
100
AcDbText
  0
TEXT
  5
975
100
AcDbEntity
  8
V0L1
  6
CONTINUOUS
 62
   250
100
AcDbText
 10
351.33055
 20
54.461294
 30
0.0
 40
1.45
  1
execution
 41
0.6
100
AcDbText
  0
LINE
  5
976
100
AcDbEntity
  8
V0L1
  6
CONTINUOUS
 62
   250
100
AcDbLine
 10
76.64313
 20
271.18273
 30
0.0
 11
79.64313
 21
271.18273
 31
0.0
  0
LINE
  5
977
100
AcDbEntity
  8
V0L1
  6
CONTINUOUS
 62
   250
100
AcDbLine
 10
229.58
 20
21.28
 30
0.0
 11
229.58
 21
21.0
 31
0.0
  0
LINE
  5
978
100
AcDbEntity
  8
V0L1
  6
CONTINUOUS
 62
   250
100
AcDbLine
 10
229.58
 20
21.0
 30
0.0
 11
228.72147
 21
21.0
 31
0.0
  0
LINE
  5
979
100
AcDbEntity
  8
V0L1
  6
CONTINUOUS
 62
   250
100
AcDbLine
 10
228.72147
 20
21.0
 30
0.0
 11
228.16147
 21
19.4
 31
0.0
  0
LINE
  5
97A
100
AcDbEntity
  8
V0L1
  6
CONTINUOUS
 62
   250
100
AcDbLine
 10
228.16147
 20
19.4
 30
0.0
 11
228.06853
 21
19.4
 31
0.0
  0
LINE
  5
97B
100
AcDbEntity
  8
V0L1
  6
CONTINUOUS
 62
   250
100
AcDbLine
 10
229.58
 20
21.15
 30
0.0
 11
228.72147
 21
21.15
 31
0.0
  0
LINE
  5
97C
100
AcDbEntity
  8
V0L1
  6
CONTINUOUS
 62
   250
100
AcDbLine
 10
232.92771
 20
18.68
 30
0.0
 11
234.54629
 21
18.68
 31
0.0
  0
LINE
  5
97D
100
AcDbEntity
  8
V0L1
  6
CONTINUOUS
 62
   250
100
AcDbLine
 10
234.54629
 20
18.68
 30
0.0
 11
233.38429
 21
22.0
 31
0.0
  0
LINE
  5
97E
100
AcDbEntity
  8
V0L1
  6
CONTINUOUS
 62
   250
100
AcDbLine
 10
233.38429
 20
22.0
 30
0.0
 11
231.3
 21
22.0
 31
0.0
  0
LINE
  5
97F
100
AcDbEntity
  8
V0L1
  6
CONTINUOUS
 62
   250
100
AcDbLine
 10
231.3
 20
22.0
 30
0.0
 11
231.3
 21
20.28
 31
0.0
  0
LINE
  5
980
100
AcDbEntity
  8
V0L1
  6
CONTINUOUS
 62
   250
100
AcDbLine
 10
231.3
 20
20.28
 30
0.0
 11
232.36771
 21
20.28
 31
0.0
  0
LINE
  5
981
100
AcDbEntity
  8
V0L1
  6
CONTINUOUS
 62
   250
100
AcDbLine
 10
232.36771
 20
20.28
 30
0.0
 11
232.92771
 21
18.68
 31
0.0
  0
LINE
  5
982
100
AcDbEntity
  8
V0L1
  6
CONTINUOUS
 62
   250
100
AcDbLine
 10
233.05541
 20
18.86
 30
0.0
 11
234.29259
 21
18.86
 31
0.0
  0
LINE
  5
983
100
AcDbEntity
  8
V0L1
  6
CONTINUOUS
 62
   250
100
AcDbLine
 10
234.29259
 20
18.86
 30
0.0
 11
233.25659
 21
21.82
 31
0.0
  0
LINE
  5
984
100
AcDbEntity
  8
V0L1
  6
CONTINUOUS
 62
   250
100
AcDbLine
 10
233.25659
 20
21.82
 30
0.0
 11
231.48
 21
21.82
 31
0.0
  0
LINE
  5
985
100
AcDbEntity
  8
V0L1
  6
CONTINUOUS
 62
   250
100
AcDbLine
 10
231.48
 20
21.82
 30
0.0
 11
231.48
 21
20.46
 31
0.0
  0
LINE
  5
986
100
AcDbEntity
  8
V0L1
  6
CONTINUOUS
 62
   250
100
AcDbLine
 10
231.48
 20
20.46
 30
0.0
 11
232.49541
 21
20.46
 31
0.0
  0
LINE
  5
987
100
AcDbEntity
  8
V0L1
  6
CONTINUOUS
 62
   250
100
AcDbLine
 10
232.49541
 20
20.46
 30
0.0
 11
233.05541
 21
18.86
 31
0.0
  0
LINE
  5
988
100
AcDbEntity
  8
V0L1
  6
CONTINUOUS
 62
   250
100
AcDbLine
 10
234.03888
 20
19.04
 30
0.0
 11
233.12888
 21
21.64
 31
0.0
  0
LINE
  5
989
100
AcDbEntity
  8
V0L1
  6
CONTINUOUS
 62
   250
100
AcDbLine
 10
233.12888
 20
21.64
 30
0.0
 11
231.66
 21
21.64
 31
0.0
  0
LINE
  5
98A
100
AcDbEntity
  8
V0L1
  6
CONTINUOUS
 62
   250
100
AcDbLine
 10
231.66
 20
21.64
 30
0.0
 11
231.66
 21
20.64
 31
0.0
  0
LINE
  5
98B
100
AcDbEntity
  8
V0L1
  6
CONTINUOUS
 62
   250
100
AcDbLine
 10
231.66
 20
20.64
 30
0.0
 11
232.62312
 21
20.64
 31
0.0
  0
LINE
  5
98C
100
AcDbEntity
  8
V0L1
  6
CONTINUOUS
 62
   250
100
AcDbLine
 10
232.62312
 20
20.64
 30
0.0
 11
233.18312
 21
19.04
 31
0.0
  0
LINE
  5
98D
100
AcDbEntity
  8
V0L1
  6
CONTINUOUS
 62
   250
100
AcDbLine
 10
233.18312
 20
19.04
 30
0.0
 11
234.03888
 21
19.04
 31
0.0
  0
LINE
  5
98E
100
AcDbEntity
  8
V0L1
  6
CONTINUOUS
 62
   250
100
AcDbLine
 10
233.78517
 20
19.22
 30
0.0
 11
233.00117
 21
21.46
 31
0.0
  0
LINE
  5
98F
100
AcDbEntity
  8
V0L1
  6
CONTINUOUS
 62
   250
100
AcDbLine
 10
233.00117
 20
21.46
 30
0.0
 11
231.84
 21
21.46
 31
0.0
  0
LINE
  5
990
100
AcDbEntity
  8
V0L1
  6
CONTINUOUS
 62
   250
100
AcDbLine
 10
231.84
 20
21.46
 30
0.0
 11
231.84
 21
20.82
 31
0.0
  0
LINE
  5
991
100
AcDbEntity
  8
V0L1
  6
CONTINUOUS
 62
   250
100
AcDbLine
 10
231.84
 20
20.82
 30
0.0
 11
232.75083
 21
20.82
 31
0.0
  0
LINE
  5
992
100
AcDbEntity
  8
V0L1
  6
CONTINUOUS
 62
   250
100
AcDbLine
 10
232.75083
 20
20.82
 30
0.0
 11
233.31083
 21
19.22
 31
0.0
  0
LINE
  5
993
100
AcDbEntity
  8
V0L1
  6
CONTINUOUS
 62
   250
100
AcDbLine
 10
233.31083
 20
19.22
 30
0.0
 11
233.78517
 21
19.22
 31
0.0
  0
LINE
  5
994
100
AcDbEntity
  8
V0L1
  6
CONTINUOUS
 62
   250
100
AcDbLine
 10
233.53147
 20
19.4
 30
0.0
 11
232.87347
 21
21.28
 31
0.0
  0
LINE
  5
995
100
AcDbEntity
  8
V0L1
  6
CONTINUOUS
 62
   250
100
AcDbLine
 10
232.87347
 20
21.28
 30
0.0
 11
232.02
 21
21.28
 31
0.0
  0
LINE
  5
996
100
AcDbEntity
  8
V0L1
  6
CONTINUOUS
 62
   250
100
AcDbLine
 10
232.02
 20
21.28
 30
0.0
 11
232.02
 21
21.0
 31
0.0
  0
LINE
  5
997
100
AcDbEntity
  8
V0L1
  6
CONTINUOUS
 62
   250
100
AcDbLine
 10
232.02
 20
21.0
 30
0.0
 11
232.87853
 21
21.0
 31
0.0
  0
LINE
  5
998
100
AcDbEntity
  8
V0L1
  6
CONTINUOUS
 62
   250
100
AcDbLine
 10
232.87853
 20
21.0
 30
0.0
 11
233.43853
 21
19.4
 31
0.0
  0
LINE
  5
999
100
AcDbEntity
  8
V0L1
  6
CONTINUOUS
 62
   250
100
AcDbLine
 10
233.43853
 20
19.4
 30
0.0
 11
233.53147
 21
19.4
 31
0.0
  0
LINE
  5
99A
100
AcDbEntity
  8
V0L1
  6
CONTINUOUS
 62
   250
100
AcDbLine
 10
232.02
 20
21.15
 30
0.0
 11
232.87853
 21
21.15
 31
0.0
  0
LINE
  5
99B
100
AcDbEntity
  8
V0L1
  6
CONTINUOUS
 62
   250
100
AcDbLine
 10
235.54
 20
23.0
 30
0.0
 11
235.54
 21
26.32
 31
0.0
  0
LINE
  5
99C
100
AcDbEntity
  8
V0L1
  6
CONTINUOUS
 62
   250
100
AcDbLine
 10
235.54
 20
26.32
 30
0.0
 11
237.26
 21
26.32
 31
0.0
  0
LINE
  5
99D
100
AcDbEntity
  8
V0L1
  6
CONTINUOUS
 62
   250
100
AcDbLine
 10
237.26
 20
26.32
 30
0.0
 11
237.26
 21
23.0
 31
0.0
  0
LINE
  5
99E
100
AcDbEntity
  8
V0L1
  6
CONTINUOUS
 62
   250
100
AcDbLine
 10
237.26
 20
23.0
 30
0.0
 11
235.54
 21
23.0
 31
0.0
  0
LINE
  5
99F
100
AcDbEntity
  8
V0L1
  6
CONTINUOUS
 62
   250
100
AcDbLine
 10
237.08
 20
23.18
 30
0.0
 11
235.72
 21
23.18
 31
0.0
  0
LINE
  5
9A0
100
AcDbEntity
  8
V0L1
  6
CONTINUOUS
 62
   250
100
AcDbLine
 10
235.72
 20
23.18
 30
0.0
 11
235.72
 21
26.14
 31
0.0
  0
LINE
  5
9A1
100
AcDbEntity
  8
V0L1
  6
CONTINUOUS
 62
   250
100
AcDbLine
 10
350.0
 20
46.0
 30
0.0
 11
393.0
 21
46.0
 31
0.0
  0
LINE
  5
9A2
100
AcDbEntity
  8
V0L1
  6
CONTINUOUS
 62
   250
100
AcDbLine
 10
350.0
 20
42.0
 30
0.0
 11
393.0
 21
42.0
 31
0.0
  0
LINE
  5
9A3
100
AcDbEntity
  8
V0L1
  6
CONTINUOUS
 62
   250
100
AcDbLine
 10
350.0
 20
38.0
 30
0.0
 11
393.0
 21
38.0
 31
0.0
  0
LINE
  5
9A4
100
AcDbEntity
  8
V0L1
  6
CONTINUOUS
 62
   250
100
AcDbLine
 10
335.0
 20
34.0
 30
0.0
 11
393.0
 21
34.0
 31
0.0
  0
TEXT
  5
9A5
100
AcDbEntity
  8
V0L1
  6
CONTINUOUS
 62
   250
100
AcDbText
 10
223.19606
 20
54.832339
 30
0.0
 40
2.0
  1
Etabli
 41
0.5
100
AcDbText
  0
TEXT
  5
9A6
100
AcDbEntity
  8
V0L1
  6
CONTINUOUS
 62
   250
100
AcDbText
 10
229.19606
 20
50.832339
 30
0.0
 40
2.0
  1
Issu de :
 41
0.5
100
AcDbText
  0
TEXT
  5
9A7
100
AcDbEntity
  8
V0L1
  6
CONTINUOUS
 62
   250
100
AcDbText
 10
226.18532
 20
37.081261
 30
0.0
 40
2.2
  1
Modif.
 50
90.0
 41
0.5
100
AcDbText
  0
TEXT
  5
9A8
100
AcDbEntity
  8
V0L1
  6
CONTINUOUS
 62
   250
100
AcDbText
 10
266.03012
 20
54.832339
 30
0.0
 40
2.0
  1
Controle
 41
0.5
100
AcDbText
  0
TEXT
  5
9A9
100
AcDbEntity
  8
V0L1
  6
CONTINUOUS
 62
   250
100
AcDbText
 10
269.03012
 20
50.832339
 30
0.0
 40
2.0
  1
Remplace
 41
0.5
100
AcDbText
  0
LINE
  5
9AA
100
AcDbEntity
  8
V0L1
  6
CONTINUOUS
 62
   250
100
AcDbLine
 10
235.72
 20
26.14
 30
0.0
 11
237.08
 21
26.14
 31
0.0
  0
LINE
  5
9AB
100
AcDbEntity
  8
V0L1
  6
CONTINUOUS
 62
   250
100
AcDbLine
 10
237.08
 20
26.14
 30
0.0
 11
237.08
 21
23.18
 31
0.0
  0
LINE
  5
9AC
100
AcDbEntity
  8
V0L1
  6
CONTINUOUS
 62
   250
100
AcDbLine
 10
235.9
 20
23.36
 30
0.0
 11
235.9
 21
25.96
 31
0.0
  0
TEXT
  5
9AD
100
AcDbEntity
  8
V0L1
  6
CONTINUOUS
 62
   250
100
AcDbText
 10
338.54651
 20
46.906468
 30
0.0
 40
2.0
  1
Echelle
 41
0.5
100
AcDbText
  0
TEXT
  5
9AE
100
AcDbEntity
  8
V0L1
  6
CONTINUOUS
 62
   250
100
AcDbText
 10
351.28476
 20
43.201045
 30
0.0
 40
2.0
  1
Nomenclature separee de numero different
 41
0.45
100
AcDbText
  0
TEXT
  5
9AF
100
AcDbEntity
  8
V0L1
  6
CONTINUOUS
 62
   250
100
AcDbText
 10
351.28476
 20
47.201045
 30
0.0
 40
2.0
  1
Nomenclature separee de meme numero
 41
0.45
100
AcDbText
  0
TEXT
  5
9B0
100
AcDbEntity
  8
V0L1
  6
CONTINUOUS
 62
   250
100
AcDbText
 10
351.28476
 20
51.201045
 30
0.0
 40
2.0
  1
Sans nomenclature separee
 41
0.45
100
AcDbText
  0
TEXT
  5
9B1
100
AcDbEntity
  8
V0L1
  6
CONTINUOUS
 62
   250
100
AcDbText
 10
351.28476
 20
31.201045
 30
0.0
 40
2.0
  1
Service resp.: B E
 41
0.45
100
AcDbText
  0
TEXT
  5
9B2
100
AcDbEntity
  8
V0L1
  6
CONTINUOUS
 62
   250
100
AcDbText
 10
336.61841
 20
27.130883
 30
0.0
 40
2.2
  1
Doc. Type     Format     Langue     Feuil.No    Nb.feuil.
 41
0.45
100
AcDbText
  0
TEXT
  5
9B3
100
AcDbEntity
  8
V0L1
  6
CONTINUOUS
 62
   250
100
AcDbText
 10
363.90098
 20
23.606885
 30
0.0
 40
2.2
  1
F
 41
0.75
100
AcDbText
  0
TEXT
  5
9B4
100
AcDbEntity
  8
V0L1
  6
CONTINUOUS
 62
   250
100
AcDbText
 10
355.0488
 20
23.606885
 30
0.0
 40
2.2
  1
3
 41
0.75
100
AcDbText
  0
TEXT
  5
9B5
100
AcDbEntity
  8
V0L1
  6
CONTINUOUS
 62
   250
100
AcDbText
 10
253.50904
 20
26.746705
 30
0.0
 40
2.5
  1
ABB Control
 41
0.9
100
AcDbText
  0
TEXT
  5
9B6
100
AcDbEntity
  8
V0L1
  6
CONTINUOUS
 62
   250
100
AcDbText
 10
253.64853
 20
22.747949
 30
0.0
 40
2.0
  1
Titre
 41
0.75
100
AcDbText
  0
LINE
  5
9B7
100
AcDbEntity
  8
V0L1
  6
CONTINUOUS
 62
   250
100
AcDbLine
 10
29.0
 20
69.0
 30
0.0
 11
29.0
 21
15.0
 31
0.0
  0
LINE
  5
9B8
100
AcDbEntity
  8
V0L1
  6
CONTINUOUS
 62
   250
100
AcDbLine
 10
16.0
 20
69.0
 30
0.0
 11
29.0
 21
69.0
 31
0.0
  0
LINE
  5
9B9
100
AcDbEntity
  8
V0L1
  6
CONTINUOUS
 62
   250
100
AcDbLine
 10
235.9
 20
25.96
 30
0.0
 11
236.9
 21
25.96
 31
0.0
  0
LINE
  5
9BA
100
AcDbEntity
  8
V0L1
  6
CONTINUOUS
 62
   250
100
AcDbLine
 10
16.0
 20
58.833333
 30
0.0
 11
12.0
 21
58.833333
 31
0.0
  0
LINE
  5
9BB
100
AcDbEntity
  8
V0L1
  6
CONTINUOUS
 62
   250
100
AcDbLine
 10
16.0
 20
102.66667
 30
0.0
 11
12.0
 21
102.66667
 31
0.0
  0
LINE
  5
9BC
100
AcDbEntity
  8
V0L1
  6
CONTINUOUS
 62
   250
100
AcDbLine
 10
16.0
 20
146.5
 30
0.0
 11
12.0
 21
146.5
 31
0.0
  0
LINE
  5
9BD
100
AcDbEntity
  8
V0L1
  6
CONTINUOUS
 62
   250
100
AcDbLine
 10
16.0
 20
190.33333
 30
0.0
 11
12.0
 21
190.33333
 31
0.0
  0
LINE
  5
9BE
100
AcDbEntity
  8
V0L1
  6
CONTINUOUS
 62
   250
100
AcDbLine
 10
16.0
 20
234.16667
 30
0.0
 11
12.0
 21
234.16667
 31
0.0
  0
TEXT
  5
9BF
100
AcDbEntity
  8
V0L1
  6
CONTINUOUS
 62
   250
100
AcDbText
 10
13.5
 20
36.916667
 30
0.0
 40
2.0
  1
A
100
AcDbText
  0
TEXT
  5
9C0
100
AcDbEntity
  8
V0L1
  6
CONTINUOUS
 62
   250
100
AcDbText
 10
13.5
 20
80.75
 30
0.0
 40
2.0
  1
B
100
AcDbText
  0
TEXT
  5
9C1
100
AcDbEntity
  8
V0L1
  6
CONTINUOUS
 62
   250
100
AcDbText
 10
13.5
 20
124.58333
 30
0.0
 40
2.0
  1
C
100
AcDbText
  0
TEXT
  5
9C2
100
AcDbEntity
  8
V0L1
  6
CONTINUOUS
 62
   250
100
AcDbText
 10
13.5
 20
168.41667
 30
0.0
 40
2.0
  1
D
100
AcDbText
  0
TEXT
  5
9C3
100
AcDbEntity
  8
V0L1
  6
CONTINUOUS
 62
   250
100
AcDbText
 10
13.5
 20
212.25
 30
0.0
 40
2.0
  1
E
100
AcDbText
  0
TEXT
  5
9C4
100
AcDbEntity
  8
V0L1
  6
CONTINUOUS
 62
   250
100
AcDbText
 10
13.5
 20
256.08333
 30
0.0
 40
2.0
  1
F
100
AcDbText
  0
TEXT
  5
9C5
100
AcDbEntity
  8
V0L1
  6
CONTINUOUS
 62
   250
100
AcDbText
 10
394.14933
 20
36.799778
 30
0.0
 40
2.0
  1
A
100
AcDbText
  0
LINE
  5
9C6
100
AcDbEntity
  8
V0L1
  6
CONTINUOUS
 62
   250
100
AcDbLine
 10
397.0
 20
58.833333
 30
0.0
 11
393.0
 21
58.833333
 31
0.0
  0
TEXT
  5
9C7
100
AcDbEntity
  8
V0L1
  6
CONTINUOUS
 62
   250
100
AcDbText
 10
394.14933
 20
80.633111
 30
0.0
 40
2.0
  1
B
100
AcDbText
  0
LINE
  5
9C8
100
AcDbEntity
  8
V0L1
  6
CONTINUOUS
 62
   250
100
AcDbLine
 10
397.0
 20
102.66667
 30
0.0
 11
393.0
 21
102.66667
 31
0.0
  0
TEXT
  5
9C9
100
AcDbEntity
  8
V0L1
  6
CONTINUOUS
 62
   250
100
AcDbText
 10
394.14933
 20
124.46644
 30
0.0
 40
2.0
  1
C
100
AcDbText
  0
LINE
  5
9CA
100
AcDbEntity
  8
V0L1
  6
CONTINUOUS
 62
   250
100
AcDbLine
 10
397.0
 20
146.5
 30
0.0
 11
393.0
 21
146.5
 31
0.0
  0
TEXT
  5
9CB
100
AcDbEntity
  8
V0L1
  6
CONTINUOUS
 62
   250
100
AcDbText
 10
394.14933
 20
168.29978
 30
0.0
 40
2.0
  1
D
100
AcDbText
  0
LINE
  5
9CC
100
AcDbEntity
  8
V0L1
  6
CONTINUOUS
 62
   250
100
AcDbLine
 10
397.0
 20
190.33333
 30
0.0
 11
393.0
 21
190.33333
 31
0.0
  0
TEXT
  5
9CD
100
AcDbEntity
  8
V0L1
  6
CONTINUOUS
 62
   250
100
AcDbText
 10
394.14933
 20
212.13311
 30
0.0
 40
2.0
  1
E
100
AcDbText
  0
LINE
  5
9CE
100
AcDbEntity
  8
V0L1
  6
CONTINUOUS
 62
   250
100
AcDbLine
 10
397.0
 20
234.16667
 30
0.0
 11
393.0
 21
234.16667
 31
0.0
  0
TEXT
  5
9CF
100
AcDbEntity
  8
V0L1
  6
CONTINUOUS
 62
   250
100
AcDbText
 10
394.64933
 20
255.96644
 30
0.0
 40
2.0
  1
F
100
AcDbText
  0
LINE
  5
9D0
100
AcDbEntity
  8
V0L1
  6
CONTINUOUS
 62
   250
100
AcDbLine
 10
397.0
 20
15.0
 30
0.0
 11
397.0
 21
30.0
 31
0.0
  0
LINE
  5
9D1
100
AcDbEntity
  8
V0L1
  6
CONTINUOUS
 62
   250
100
AcDbLine
 10
344.125
 20
15.0
 30
0.0
 11
344.125
 21
10.0
 31
0.0
  0
LINE
  5
9D2
100
AcDbEntity
  8
V0L1
  6
CONTINUOUS
 62
   250
100
AcDbLine
 10
344.125
 20
278.0
 30
0.0
 11
344.125
 21
283.0
 31
0.0
  0
LINE
  5
9D3
100
AcDbEntity
  8
V0L1
  6
CONTINUOUS
 62
   250
100
AcDbLine
 10
295.25
 20
15.0
 30
0.0
 11
295.25
 21
10.0
 31
0.0
  0
LINE
  5
9D4
100
AcDbEntity
  8
V0L1
  6
CONTINUOUS
 62
   250
100
AcDbLine
 10
295.25
 20
278.0
 30
0.0
 11
295.25
 21
283.0
 31
0.0
  0
LINE
  5
9D5
100
AcDbEntity
  8
V0L1
  6
CONTINUOUS
 62
   250
100
AcDbLine
 10
246.375
 20
15.0
 30
0.0
 11
246.375
 21
10.0
 31
0.0
  0
LINE
  5
9D6
100
AcDbEntity
  8
V0L1
  6
CONTINUOUS
 62
   250
100
AcDbLine
 10
246.375
 20
278.0
 30
0.0
 11
246.375
 21
283.0
 31
0.0
  0
LINE
  5
9D7
100
AcDbEntity
  8
V0L1
  6
CONTINUOUS
 62
   250
100
AcDbLine
 10
197.5
 20
15.0
 30
0.0
 11
197.5
 21
10.0
 31
0.0
  0
LINE
  5
9D8
100
AcDbEntity
  8
V0L1
  6
CONTINUOUS
 62
   250
100
AcDbLine
 10
197.5
 20
278.0
 30
0.0
 11
197.5
 21
283.0
 31
0.0
  0
LINE
  5
9D9
100
AcDbEntity
  8
V0L1
  6
CONTINUOUS
 62
   250
100
AcDbLine
 10
149.625
 20
15.0
 30
0.0
 11
149.625
 21
10.0
 31
0.0
  0
LINE
  5
9DA
100
AcDbEntity
  8
V0L1
  6
CONTINUOUS
 62
   250
100
AcDbLine
 10
149.625
 20
278.0
 30
0.0
 11
149.625
 21
283.0
 31
0.0
  0
LINE
  5
9DB
100
AcDbEntity
  8
V0L1
  6
CONTINUOUS
 62
   250
100
AcDbLine
 10
100.75
 20
15.0
 30
0.0
 11
100.75
 21
10.0
 31
0.0
  0
LINE
  5
9DC
100
AcDbEntity
  8
V0L1
  6
CONTINUOUS
 62
   250
100
AcDbLine
 10
100.75
 20
278.0
 30
0.0
 11
100.75
 21
283.0
 31
0.0
  0
LINE
  5
9DD
100
AcDbEntity
  8
V0L1
  6
CONTINUOUS
 62
   250
100
AcDbLine
 10
51.875
 20
15.0
 30
0.0
 11
51.875
 21
10.0
 31
0.0
  0
LINE
  5
9DE
100
AcDbEntity
  8
V0L1
  6
CONTINUOUS
 62
   250
100
AcDbLine
 10
51.875
 20
278.0
 30
0.0
 11
51.875
 21
283.0
 31
0.0
  0
TEXT
  5
9DF
100
AcDbEntity
  8
V0L1
  6
CONTINUOUS
 62
   250
100
AcDbText
 10
368.5625
 20
11.249993
 30
0.0
 40
2.0
  1
1
100
AcDbText
  0
TEXT
  5
9E0
100
AcDbEntity
  8
V0L1
  6
CONTINUOUS
 62
   250
100
AcDbText
 10
319.6875
 20
11.249993
 30
0.0
 40
2.0
  1
2
100
AcDbText
  0
TEXT
  5
9E1
100
AcDbEntity
  8
V0L1
  6
CONTINUOUS
 62
   250
100
AcDbText
 10
270.8125
 20
11.249993
 30
0.0
 40
2.0
  1
3
100
AcDbText
  0
TEXT
  5
9E2
100
AcDbEntity
  8
V0L1
  6
CONTINUOUS
 62
   250
100
AcDbText
 10
221.9375
 20
11.249993
 30
0.0
 40
2.0
  1
4
100
AcDbText
  0
TEXT
  5
9E3
100
AcDbEntity
  8
V0L1
  6
CONTINUOUS
 62
   250
100
AcDbText
 10
174.0625
 20
11.249993
 30
0.0
 40
2.0
  1
5
100
AcDbText
  0
TEXT
  5
9E4
100
AcDbEntity
  8
V0L1
  6
CONTINUOUS
 62
   250
100
AcDbText
 10
125.1875
 20
11.249993
 30
0.0
 40
2.0
  1
6
100
AcDbText
  0
TEXT
  5
9E5
100
AcDbEntity
  8
V0L1
  6
CONTINUOUS
 62
   250
100
AcDbText
 10
76.3125
 20
11.249993
 30
0.0
 40
2.0
  1
7
100
AcDbText
  0
TEXT
  5
9E6
100
AcDbEntity
  8
V0L1
  6
CONTINUOUS
 62
   250
100
AcDbText
 10
27.4375
 20
11.249993
 30
0.0
 40
2.0
  1
8
100
AcDbText
  0
TEXT
  5
9E7
100
AcDbEntity
  8
V0L1
  6
CONTINUOUS
 62
   250
100
AcDbText
 10
368.5625
 20
279.24999
 30
0.0
 40
2.0
  1
1
100
AcDbText
  0
TEXT
  5
9E8
100
AcDbEntity
  8
V0L1
  6
CONTINUOUS
 62
   250
100
AcDbText
 10
319.6875
 20
279.24999
 30
0.0
 40
2.0
  1
2
100
AcDbText
  0
TEXT
  5
9E9
100
AcDbEntity
  8
V0L1
  6
CONTINUOUS
 62
   250
100
AcDbText
 10
270.8125
 20
279.24999
 30
0.0
 40
2.0
  1
3
100
AcDbText
  0
TEXT
  5
9EA
100
AcDbEntity
  8
V0L1
  6
CONTINUOUS
 62
   250
100
AcDbText
 10
221.9375
 20
279.24999
 30
0.0
 40
2.0
  1
4
100
AcDbText
  0
TEXT
  5
9EB
100
AcDbEntity
  8
V0L1
  6
CONTINUOUS
 62
   250
100
AcDbText
 10
174.0625
 20
279.24999
 30
0.0
 40
2.0
  1
5
100
AcDbText
  0
TEXT
  5
9EC
100
AcDbEntity
  8
V0L1
  6
CONTINUOUS
 62
   250
100
AcDbText
 10
125.1875
 20
279.24999
 30
0.0
 40
2.0
  1
6
100
AcDbText
  0
TEXT
  5
9ED
100
AcDbEntity
  8
V0L1
  6
CONTINUOUS
 62
   250
100
AcDbText
 10
76.3125
 20
279.24999
 30
0.0
 40
2.0
  1
7
100
AcDbText
  0
TEXT
  5
9EE
100
AcDbEntity
  8
V0L1
  6
CONTINUOUS
 62
   250
100
AcDbText
 10
27.4375
 20
279.24999
 30
0.0
 40
2.0
  1
8
100
AcDbText
  0
LINE
  5
9EF
100
AcDbEntity
  8
V0L1
  6
CONTINUOUS
 62
   250
100
AcDbLine
 10
236.9
 20
25.96
 30
0.0
 11
236.9
 21
23.36
 31
0.0
  0
LINE
  5
9F0
100
AcDbEntity
  8
V0L1
  6
CONTINUOUS
 62
   250
100
AcDbLine
 10
236.9
 20
23.36
 30
0.0
 11
235.9
 21
23.36
 31
0.0
  0
LINE
  5
9F1
100
AcDbEntity
  8
V0L1
  6
CONTINUOUS
 62
   250
100
AcDbLine
 10
236.08
 20
23.54
 30
0.0
 11
236.08
 21
25.78
 31
0.0
  0
LINE
  5
9F2
100
AcDbEntity
  8
V0L1
  6
CONTINUOUS
 62
   250
100
AcDbLine
 10
236.08
 20
25.78
 30
0.0
 11
236.72
 21
25.78
 31
0.0
  0
LINE
  5
9F3
100
AcDbEntity
  8
V0L1
  6
CONTINUOUS
 62
   250
100
AcDbLine
 10
236.72
 20
25.78
 30
0.0
 11
236.72
 21
23.54
 31
0.0
  0
LINE
  5
9F4
100
AcDbEntity
  8
V0L1
  6
CONTINUOUS
 62
   250
100
AcDbLine
 10
236.72
 20
23.54
 30
0.0
 11
236.08
 21
23.54
 31
0.0
  0
LINE
  5
9F5
100
AcDbEntity
  8
V0L1
  6
CONTINUOUS
 62
   250
100
AcDbLine
 10
236.26
 20
23.72
 30
0.0
 11
236.26
 21
25.6
 31
0.0
  0
LINE
  5
9F6
100
AcDbEntity
  8
V0L1
  6
CONTINUOUS
 62
   250
100
AcDbLine
 10
236.26
 20
25.6
 30
0.0
 11
236.54
 21
25.6
 31
0.0
  0
LINE
  5
9F7
100
AcDbEntity
  8
V0L1
  6
CONTINUOUS
 62
   250
100
AcDbLine
 10
236.54
 20
25.6
 30
0.0
 11
236.54
 21
23.72
 31
0.0
  0
LINE
  5
9F8
100
AcDbEntity
  8
V0L1
  6
CONTINUOUS
 62
   250
100
AcDbLine
 10
236.54
 20
23.72
 30
0.0
 11
236.26
 21
23.72
 31
0.0
  0
LINE
  5
9F9
100
AcDbEntity
  8
V0L1
  6
CONTINUOUS
 62
   250
100
AcDbLine
 10
236.42
 20
23.84
 30
0.0
 11
236.38
 21
23.84
 31
0.0
  0
LINE
  5
9FA
100
AcDbEntity
  8
V0L1
  6
CONTINUOUS
 62
   250
100
AcDbLine
 10
236.38
 20
23.84
 30
0.0
 11
236.38
 21
25.48
 31
0.0
  0
LINE
  5
9FB
100
AcDbEntity
  8
V0L1
  6
CONTINUOUS
 62
   250
100
AcDbLine
 10
236.38
 20
25.48
 30
0.0
 11
236.42
 21
25.48
 31
0.0
  0
LINE
  5
9FC
100
AcDbEntity
  8
V0L1
  6
CONTINUOUS
 62
   250
100
AcDbLine
 10
236.42
 20
25.48
 30
0.0
 11
236.42
 21
23.84
 31
0.0
  0
LINE
  5
9FD
100
AcDbEntity
  8
V0L1
  6
CONTINUOUS
 62
   250
100
AcDbLine
 10
235.54
 20
18.68
 30
0.0
 11
237.26
 21
18.68
 31
0.0
  0
LINE
  5
9FE
100
AcDbEntity
  8
V0L1
  6
CONTINUOUS
 62
   250
100
AcDbLine
 10
237.26
 20
18.68
 30
0.0
 11
237.26
 21
22.0
 31
0.0
  0
LINE
  5
9FF
100
AcDbEntity
  8
V0L1
  6
CONTINUOUS
 62
   250
100
AcDbLine
 10
237.26
 20
22.0
 30
0.0
 11
235.54
 21
22.0
 31
0.0
  0
LINE
  5
A00
100
AcDbEntity
  8
V0L1
  6
CONTINUOUS
 62
   250
100
AcDbLine
 10
235.54
 20
22.0
 30
0.0
 11
235.54
 21
18.68
 31
0.0
  0
LINE
  5
A01
100
AcDbEntity
  8
V0L1
  6
CONTINUOUS
 62
   250
100
AcDbLine
 10
235.72
 20
21.82
 30
0.0
 11
235.72
 21
18.86
 31
0.0
  0
LINE
  5
A02
100
AcDbEntity
  8
V0L1
  6
CONTINUOUS
 62
   250
100
AcDbLine
 10
235.72
 20
18.86
 30
0.0
 11
237.08
 21
18.86
 31
0.0
  0
LINE
  5
A03
100
AcDbEntity
  8
V0L1
  6
CONTINUOUS
 62
   250
100
AcDbLine
 10
237.08
 20
18.86
 30
0.0
 11
237.08
 21
21.82
 31
0.0
  0
LINE
  5
A04
100
AcDbEntity
  8
V0L1
  6
CONTINUOUS
 62
   250
100
AcDbLine
 10
237.08
 20
21.82
 30
0.0
 11
235.72
 21
21.82
 31
0.0
  0
LINE
  5
A05
100
AcDbEntity
  8
V0L1
  6
CONTINUOUS
 62
   250
100
AcDbLine
 10
235.9
 20
21.64
 30
0.0
 11
235.9
 21
19.04
 31
0.0
  0
LINE
  5
A06
100
AcDbEntity
  8
V0L1
  6
CONTINUOUS
 62
   250
100
AcDbLine
 10
235.9
 20
19.04
 30
0.0
 11
236.9
 21
19.04
 31
0.0
  0
LINE
  5
A07
100
AcDbEntity
  8
V0L1
  6
CONTINUOUS
 62
   250
100
AcDbLine
 10
236.9
 20
19.04
 30
0.0
 11
236.9
 21
21.64
 31
0.0
  0
LINE
  5
A08
100
AcDbEntity
  8
V0L1
  6
CONTINUOUS
 62
   250
100
AcDbLine
 10
236.9
 20
21.64
 30
0.0
 11
235.9
 21
21.64
 31
0.0
  0
LINE
  5
A09
100
AcDbEntity
  8
V0L1
  6
CONTINUOUS
 62
   250
100
AcDbLine
 10
236.08
 20
21.46
 30
0.0
 11
236.08
 21
19.22
 31
0.0
  0
LINE
  5
A0A
100
AcDbEntity
  8
V0L1
  6
CONTINUOUS
 62
   250
100
AcDbLine
 10
236.08
 20
19.22
 30
0.0
 11
236.72
 21
19.22
 31
0.0
  0
LINE
  5
A0B
100
AcDbEntity
  8
V0L1
  6
CONTINUOUS
 62
   250
100
AcDbLine
 10
236.72
 20
19.22
 30
0.0
 11
236.72
 21
21.46
 31
0.0
  0
LINE
  5
A0C
100
AcDbEntity
  8
V0L1
  6
CONTINUOUS
 62
   250
100
AcDbLine
 10
236.72
 20
21.46
 30
0.0
 11
236.08
 21
21.46
 31
0.0
  0
LINE
  5
A0D
100
AcDbEntity
  8
V0L1
  6
CONTINUOUS
 62
   250
100
AcDbLine
 10
236.26
 20
19.4
 30
0.0
 11
236.54
 21
19.4
 31
0.0
  0
LINE
  5
A0E
100
AcDbEntity
  8
V0L1
  6
CONTINUOUS
 62
   250
100
AcDbLine
 10
236.54
 20
19.4
 30
0.0
 11
236.54
 21
21.28
 31
0.0
  0
LINE
  5
A0F
100
AcDbEntity
  8
V0L1
  6
CONTINUOUS
 62
   250
100
AcDbLine
 10
236.54
 20
21.28
 30
0.0
 11
236.26
 21
21.28
 31
0.0
  0
LINE
  5
A10
100
AcDbEntity
  8
V0L1
  6
CONTINUOUS
 62
   250
100
AcDbLine
 10
236.26
 20
21.28
 30
0.0
 11
236.26
 21
19.4
 31
0.0
  0
LINE
  5
A11
100
AcDbEntity
  8
V0L1
  6
CONTINUOUS
 62
   250
100
AcDbLine
 10
236.38
 20
19.52
 30
0.0
 11
236.42
 21
19.52
 31
0.0
  0
LINE
  5
A12
100
AcDbEntity
  8
V0L1
  6
CONTINUOUS
 62
   250
100
AcDbLine
 10
236.42
 20
19.52
 30
0.0
 11
236.42
 21
21.16
 31
0.0
  0
LINE
  5
A13
100
AcDbEntity
  8
V0L1
  6
CONTINUOUS
 62
   250
100
AcDbLine
 10
236.42
 20
21.16
 30
0.0
 11
236.38
 21
21.16
 31
0.0
  0
LINE
  5
A14
100
AcDbEntity
  8
V0L1
  6
CONTINUOUS
 62
   250
100
AcDbLine
 10
236.38
 20
21.16
 30
0.0
 11
236.38
 21
19.52
 31
0.0
  0
LINE
  5
A15
100
AcDbEntity
  8
V0L1
  6
CONTINUOUS
 62
   250
100
AcDbLine
 10
238.26
 20
23.0
 30
0.0
 11
238.26
 21
26.32
 31
0.0
  0
LINE
  5
A16
100
AcDbEntity
  8
V0L1
  6
CONTINUOUS
 62
   250
100
AcDbLine
 10
238.26
 20
26.32
 30
0.0
 11
238.56
 21
26.32
 31
0.0
  0
ARC
  5
A17
100
AcDbEntity
  8
V0L1
  6
CONTINUOUS
 62
   250
100
AcDbCircle
 10
238.56
 20
24.7
 30
0.0
 40
1.62
100
AcDbArc
 50
299.38468
 51
90.0
  0
ARC
  5
A18
100
AcDbEntity
  8
V0L1
  6
CONTINUOUS
 62
   250
100
AcDbCircle
 10
239.44321
 20
23.131579
 30
0.0
 40
0.18
100
AcDbArc
 50
119.38468
 51
226.9698
  0
LINE
  5
A19
100
AcDbEntity
  8
V0L1
  6
CONTINUOUS
 62
   250
100
AcDbLine
 10
239.32038
 20
23.0
 30
0.0
 11
238.26
 21
23.0
 31
0.0
  0
LINE
  5
A1A
100
AcDbEntity
  8
V0L1
  6
CONTINUOUS
 62
   250
100
AcDbLine
 10
238.44
 20
23.18
 30
0.0
 11
238.44
 21
26.14
 31
0.0
  0
LINE
  5
A1B
100
AcDbEntity
  8
V0L1
  6
CONTINUOUS
 62
   250
100
AcDbLine
 10
238.44
 20
26.14
 30
0.0
 11
238.56
 21
26.14
 31
0.0
  0
ARC
  5
A1C
100
AcDbEntity
  8
V0L1
  6
CONTINUOUS
 62
   250
100
AcDbCircle
 10
238.56
 20
24.7
 30
0.0
 40
1.44
100
AcDbArc
 50
299.38468
 51
90.0
  0
ARC
  5
A1D
100
AcDbEntity
  8
V0L1
  6
CONTINUOUS
 62
   250
100
AcDbCircle
 10
239.44321
 20
23.131579
 30
0.0
 40
0.36
100
AcDbArc
 50
119.38468
 51
172.27012
  0
LINE
  5
A1E
100
AcDbEntity
  8
V0L1
  6
CONTINUOUS
 62
   250
100
AcDbLine
 10
239.08648
 20
23.18
 30
0.0
 11
238.44
 21
23.18
 31
0.0
  0
LINE
  5
A1F
100
AcDbEntity
  8
V0L1
  6
CONTINUOUS
 62
   250
100
AcDbLine
 10
238.62
 20
23.36
 30
0.0
 11
238.62
 21
25.958571
 31
0.0
  0
ARC
  5
A20
100
AcDbEntity
  8
V0L1
  6
CONTINUOUS
 62
   250
100
AcDbCircle
 10
238.56
 20
24.7
 30
0.0
 40
1.26
100
AcDbArc
 50
299.38468
 51
87.2706
  0
ARC
  5
A21
100
AcDbEntity
  8
V0L1
  6
CONTINUOUS
 62
   250
100
AcDbCircle
 10
239.44321
 20
23.131579
 30
0.0
 40
0.54
100
AcDbArc
 50
119.38468
 51
154.97574
  0
LINE
  5
A22
100
AcDbEntity
  8
V0L1
  6
CONTINUOUS
 62
   250
100
AcDbLine
 10
238.9539
 20
23.36
 30
0.0
 11
238.62
 21
23.36
 31
0.0
  0
LINE
  5
A23
100
AcDbEntity
  8
V0L1
  6
CONTINUOUS
 62
   250
100
AcDbLine
 10
238.8
 20
23.54
 30
0.0
 11
238.8
 21
25.752996
 31
0.0
  0
ARC
  5
A24
100
AcDbEntity
  8
V0L1
  6
CONTINUOUS
 62
   250
100
AcDbCircle
 10
238.56
 20
24.7
 30
0.0
 40
1.08
100
AcDbArc
 50
299.38468
 51
77.16041
  0
ARC
  5
A25
100
AcDbEntity
  8
V0L1
  6
CONTINUOUS
 62
   250
100
AcDbCircle
 10
239.44321
 20
23.131579
 30
0.0
 40
0.72
100
AcDbArc
 50
119.38468
 51
145.44122
  0
LINE
  5
A26
100
AcDbEntity
  8
V0L1
  6
CONTINUOUS
 62
   250
100
AcDbLine
 10
238.85026
 20
23.54
 30
0.0
 11
238.8
 21
23.54
 31
0.0
  0
LINE
  5
A27
100
AcDbEntity
  8
V0L1
  6
CONTINUOUS
 62
   250
100
AcDbLine
 10
238.98
 20
23.903226
 30
0.0
 11
238.98
 21
25.49599
 31
0.0
  0
ARC
  5
A28
100
AcDbEntity
  8
V0L1
  6
CONTINUOUS
 62
   250
100
AcDbCircle
 10
238.56
 20
24.7
 30
0.0
 40
0.9
100
AcDbArc
 50
299.38468
 51
62.18186
  0
ARC
  5
A29
100
AcDbEntity
  8
V0L1
  6
CONTINUOUS
 62
   250
100
AcDbCircle
 10
239.44321
 20
23.131579
 30
0.0
 40
0.9
100
AcDbArc
 50
119.38468
 51
120.97573
  0
LINE
  5
A2A
100
AcDbEntity
  8
V0L1
  6
CONTINUOUS
 62
   250
100
AcDbLine
 10
239.1
 20
24.13715
 30
0.0
 11
239.1
 21
25.26285
 31
0.0
  0
ARC
  5
A2B
100
AcDbEntity
  8
V0L1
  6
CONTINUOUS
 62
   250
100
AcDbCircle
 10
238.56
 20
24.7
 30
0.0
 40
0.78
100
AcDbArc
 50
313.81306
 51
46.18694
  0
LINE
  5
A2C
100
AcDbEntity
  8
V0L1
  6
CONTINUOUS
 62
   250
100
AcDbLine
 10
238.26
 20
18.68
 30
0.0
 11
238.26
 21
22.0
 31
0.0
  0
LINE
  5
A2D
100
AcDbEntity
  8
V0L1
  6
CONTINUOUS
 62
   250
100
AcDbLine
 10
238.26
 20
22.0
 30
0.0
 11
240.48832
 21
22.0
 31
0.0
  0
ARC
  5
A2E
100
AcDbEntity
  8
V0L1
  6
CONTINUOUS
 62
   250
100
AcDbCircle
 10
238.56
 20
20.9
 30
0.0
 40
2.22
100
AcDbArc
 50
270.0
 51
29.70243
  0
LINE
  5
A2F
100
AcDbEntity
  8
V0L1
  6
CONTINUOUS
 62
   250
100
AcDbLine
 10
238.56
 20
18.68
 30
0.0
 11
238.26
 21
18.68
 31
0.0
  0
LINE
  5
A30
100
AcDbEntity
  8
V0L1
  6
CONTINUOUS
 62
   250
100
AcDbLine
 10
238.44
 20
18.86
 30
0.0
 11
238.44
 21
21.82
 31
0.0
  0
LINE
  5
A31
100
AcDbEntity
  8
V0L1
  6
CONTINUOUS
 62
   250
100
AcDbLine
 10
238.44
 20
21.82
 30
0.0
 11
240.38077
 21
21.82
 31
0.0
  0
ARC
  5
A32
100
AcDbEntity
  8
V0L1
  6
CONTINUOUS
 62
   250
100
AcDbCircle
 10
238.56
 20
20.9
 30
0.0
 40
2.04
100
AcDbArc
 50
270.0
 51
26.8066
  0
LINE
  5
A33
100
AcDbEntity
  8
V0L1
  6
CONTINUOUS
 62
   250
100
AcDbLine
 10
238.56
 20
18.86
 30
0.0
 11
238.44
 21
18.86
 31
0.0
  0
LINE
  5
A34
100
AcDbEntity
  8
V0L1
  6
CONTINUOUS
 62
   250
100
AcDbLine
 10
238.62
 20
19.040968
 30
0.0
 11
238.62
 21
21.64
 31
0.0
  0
LINE
  5
A35
100
AcDbEntity
  8
V0L1
  6
CONTINUOUS
 62
   250
100
AcDbLine
 10
238.62
 20
21.64
 30
0.0
 11
240.26646
 21
21.64
 31
0.0
  0
ARC
  5
A36
100
AcDbEntity
  8
V0L1
  6
CONTINUOUS
 62
   250
100
AcDbCircle
 10
238.56
 20
20.9
 30
0.0
 40
1.86
100
AcDbArc
 50
271.84857
 51
23.44381
  0
LINE
  5
A37
100
AcDbEntity
  8
V0L1
  6
CONTINUOUS
 62
   250
100
AcDbLine
 10
238.8
 20
19.237231
 30
0.0
 11
238.8
 21
21.46
 31
0.0
  0
LINE
  5
A38
100
AcDbEntity
  8
V0L1
  6
CONTINUOUS
 62
   250
100
AcDbLine
 10
238.8
 20
21.46
 30
0.0
 11
240.14392
 21
21.46
 31
0.0
  0
ARC
  5
A39
100
AcDbEntity
  8
V0L1
  6
CONTINUOUS
 62
   250
100
AcDbCircle
 10
238.56
 20
20.9
 30
0.0
 40
1.68
100
AcDbArc
 50
278.21321
 51
19.47122
  0
LINE
  5
A3A
100
AcDbEntity
  8
V0L1
  6
CONTINUOUS
 62
   250
100
AcDbLine
 10
238.98
 20
19.46
 30
0.0
 11
238.98
 21
21.28
 31
0.0
  0
LINE
  5
A3B
100
AcDbEntity
  8
V0L1
  6
CONTINUOUS
 62
   250
100
AcDbLine
 10
238.98
 20
21.28
 30
0.0
 11
240.01107
 21
21.28
 31
0.0
  0
ARC
  5
A3C
100
AcDbEntity
  8
V0L1
  6
CONTINUOUS
 62
   250
100
AcDbCircle
 10
238.56
 20
20.9
 30
0.0
 40
1.5
100
AcDbArc
 50
286.2602
 51
14.67485
  0
LINE
  5
A3D
100
AcDbEntity
  8
V0L1
  6
CONTINUOUS
 62
   250
100
AcDbLine
 10
239.16
 20
19.724245
 30
0.0
 11
239.16
 21
21.1
 31
0.0
  0
LINE
  5
A3E
100
AcDbEntity
  8
V0L1
  6
CONTINUOUS
 62
   250
100
AcDbLine
 10
239.16
 20
21.1
 30
0.0
 11
239.86476
 21
21.1
 31
0.0
  0
ARC
  5
A3F
100
AcDbEntity
  8
V0L1
  6
CONTINUOUS
 62
   250
100
AcDbCircle
 10
238.56
 20
20.9
 30
0.0
 40
1.32
100
AcDbArc
 50
297.03569
 51
8.71474
  0
LINE
  5
A40
100
AcDbEntity
  8
V0L1
  6
CONTINUOUS
 62
   250
100
AcDbLine
 10
239.31
 20
20.002002
 30
0.0
 11
239.31
 21
20.95
 31
0.0
  0
LINE
  5
A41
100
AcDbEntity
  8
V0L1
  6
CONTINUOUS
 62
   250
100
AcDbLine
 10
239.31
 20
20.95
 30
0.0
 11
239.72893
 21
20.95
 31
0.0
  0
ARC
  5
A42
100
AcDbEntity
  8
V0L1
  6
CONTINUOUS
 62
   250
100
AcDbCircle
 10
238.56
 20
20.9
 30
0.0
 40
1.17
100
AcDbArc
 50
309.86834
 51
2.44928
  0
LINE
  5
A43
100
AcDbEntity
  8
V0L1
  6
CONTINUOUS
 62
   250
100
AcDbLine
 10
241.78
 20
23.0
 30
0.0
 11
241.78
 21
26.32
 31
0.0
  0
LINE
  5
A44
100
AcDbEntity
  8
V0L1
  6
CONTINUOUS
 62
   250
100
AcDbLine
 10
241.78
 20
26.32
 30
0.0
 11
243.5
 21
26.32
 31
0.0
  0
LINE
  5
A45
100
AcDbEntity
  8
V0L1
  6
CONTINUOUS
 62
   250
100
AcDbLine
 10
243.5
 20
26.32
 30
0.0
 11
243.5
 21
23.0
 31
0.0
  0
LINE
  5
A46
100
AcDbEntity
  8
V0L1
  6
CONTINUOUS
 62
   250
100
AcDbLine
 10
243.5
 20
23.0
 30
0.0
 11
241.78
 21
23.0
 31
0.0
  0
LINE
  5
A47
100
AcDbEntity
  8
V0L1
  6
CONTINUOUS
 62
   250
100
AcDbLine
 10
243.32
 20
23.18
 30
0.0
 11
241.96
 21
23.18
 31
0.0
  0
LINE
  5
A48
100
AcDbEntity
  8
V0L1
  6
CONTINUOUS
 62
   250
100
AcDbLine
 10
241.96
 20
23.18
 30
0.0
 11
241.96
 21
26.14
 31
0.0
  0
LINE
  5
A49
100
AcDbEntity
  8
V0L1
  6
CONTINUOUS
 62
   250
100
AcDbLine
 10
241.96
 20
26.14
 30
0.0
 11
243.32
 21
26.14
 31
0.0
  0
LINE
  5
A4A
100
AcDbEntity
  8
V0L1
  6
CONTINUOUS
 62
   250
100
AcDbLine
 10
243.32
 20
26.14
 30
0.0
 11
243.32
 21
23.18
 31
0.0
  0
LINE
  5
A4B
100
AcDbEntity
  8
V0L1
  6
CONTINUOUS
 62
   250
100
AcDbLine
 10
242.14
 20
23.36
 30
0.0
 11
242.14
 21
25.96
 31
0.0
  0
LINE
  5
A4C
100
AcDbEntity
  8
V0L1
  6
CONTINUOUS
 62
   250
100
AcDbLine
 10
242.14
 20
25.96
 30
0.0
 11
243.14
 21
25.96
 31
0.0
  0
LINE
  5
A4D
100
AcDbEntity
  8
V0L1
  6
CONTINUOUS
 62
   250
100
AcDbLine
 10
243.14
 20
25.96
 30
0.0
 11
243.14
 21
23.36
 31
0.0
  0
LINE
  5
A4E
100
AcDbEntity
  8
V0L1
  6
CONTINUOUS
 62
   250
100
AcDbLine
 10
243.14
 20
23.36
 30
0.0
 11
242.14
 21
23.36
 31
0.0
  0
LINE
  5
A4F
100
AcDbEntity
  8
V0L1
  6
CONTINUOUS
 62
   250
100
AcDbLine
 10
242.32
 20
23.54
 30
0.0
 11
242.32
 21
25.78
 31
0.0
  0
LINE
  5
A50
100
AcDbEntity
  8
V0L1
  6
CONTINUOUS
 62
   250
100
AcDbLine
 10
242.32
 20
25.78
 30
0.0
 11
242.96
 21
25.78
 31
0.0
  0
LINE
  5
A51
100
AcDbEntity
  8
V0L1
  6
CONTINUOUS
 62
   250
100
AcDbLine
 10
242.96
 20
25.78
 30
0.0
 11
242.96
 21
23.54
 31
0.0
  0
LINE
  5
A52
100
AcDbEntity
  8
V0L1
  6
CONTINUOUS
 62
   250
100
AcDbLine
 10
242.96
 20
23.54
 30
0.0
 11
242.32
 21
23.54
 31
0.0
  0
LINE
  5
A53
100
AcDbEntity
  8
V0L1
  6
CONTINUOUS
 62
   250
100
AcDbLine
 10
242.78
 20
23.72
 30
0.0
 11
242.5
 21
23.72
 31
0.0
  0
LINE
  5
A54
100
AcDbEntity
  8
V0L1
  6
CONTINUOUS
 62
   250
100
AcDbLine
 10
242.5
 20
23.72
 30
0.0
 11
242.5
 21
25.6
 31
0.0
  0
LINE
  5
A55
100
AcDbEntity
  8
V0L1
  6
CONTINUOUS
 62
   250
100
AcDbLine
 10
242.5
 20
25.6
 30
0.0
 11
242.78
 21
25.6
 31
0.0
  0
LINE
  5
A56
100
AcDbEntity
  8
V0L1
  6
CONTINUOUS
 62
   250
100
AcDbLine
 10
242.78
 20
25.6
 30
0.0
 11
242.78
 21
23.72
 31
0.0
  0
LINE
  5
A57
100
AcDbEntity
  8
V0L1
  6
CONTINUOUS
 62
   250
100
AcDbLine
 10
242.62
 20
23.84
 30
0.0
 11
242.62
 21
25.48
 31
0.0
  0
LINE
  5
A58
100
AcDbEntity
  8
V0L1
  6
CONTINUOUS
 62
   250
100
AcDbLine
 10
242.62
 20
25.48
 30
0.0
 11
242.66
 21
25.48
 31
0.0
  0
LINE
  5
A59
100
AcDbEntity
  8
V0L1
  6
CONTINUOUS
 62
   250
100
AcDbLine
 10
242.66
 20
25.48
 30
0.0
 11
242.66
 21
23.84
 31
0.0
  0
LINE
  5
A5A
100
AcDbEntity
  8
V0L1
  6
CONTINUOUS
 62
   250
100
AcDbLine
 10
242.66
 20
23.84
 30
0.0
 11
242.62
 21
23.84
 31
0.0
  0
LINE
  5
A5B
100
AcDbEntity
  8
V0L1
  6
CONTINUOUS
 62
   250
100
AcDbLine
 10
241.78
 20
18.68
 30
0.0
 11
243.5
 21
18.68
 31
0.0
  0
LINE
  5
A5C
100
AcDbEntity
  8
V0L1
  6
CONTINUOUS
 62
   250
100
AcDbLine
 10
243.5
 20
18.68
 30
0.0
 11
243.5
 21
22.0
 31
0.0
  0
LINE
  5
A5D
100
AcDbEntity
  8
V0L1
  6
CONTINUOUS
 62
   250
100
AcDbLine
 10
243.5
 20
22.0
 30
0.0
 11
241.78
 21
22.0
 31
0.0
  0
LINE
  5
A5E
100
AcDbEntity
  8
V0L1
  6
CONTINUOUS
 62
   250
100
AcDbLine
 10
241.78
 20
22.0
 30
0.0
 11
241.78
 21
18.68
 31
0.0
  0
LINE
  5
A5F
100
AcDbEntity
  8
V0L1
  6
CONTINUOUS
 62
   250
100
AcDbLine
 10
241.96
 20
21.82
 30
0.0
 11
241.96
 21
18.86
 31
0.0
  0
LINE
  5
A60
100
AcDbEntity
  8
V0L1
  6
CONTINUOUS
 62
   250
100
AcDbLine
 10
241.96
 20
18.86
 30
0.0
 11
243.32
 21
18.86
 31
0.0
  0
LINE
  5
A61
100
AcDbEntity
  8
V0L1
  6
CONTINUOUS
 62
   250
100
AcDbLine
 10
243.32
 20
18.86
 30
0.0
 11
243.32
 21
21.82
 31
0.0
  0
LINE
  5
A62
100
AcDbEntity
  8
V0L1
  6
CONTINUOUS
 62
   250
100
AcDbLine
 10
243.32
 20
21.82
 30
0.0
 11
241.96
 21
21.82
 31
0.0
  0
LINE
  5
A63
100
AcDbEntity
  8
V0L1
  6
CONTINUOUS
 62
   250
100
AcDbLine
 10
242.14
 20
21.64
 30
0.0
 11
242.14
 21
19.04
 31
0.0
  0
LINE
  5
A64
100
AcDbEntity
  8
V0L1
  6
CONTINUOUS
 62
   250
100
AcDbLine
 10
242.14
 20
19.04
 30
0.0
 11
243.14
 21
19.04
 31
0.0
  0
LINE
  5
A65
100
AcDbEntity
  8
V0L1
  6
CONTINUOUS
 62
   250
100
AcDbLine
 10
243.14
 20
19.04
 30
0.0
 11
243.14
 21
21.64
 31
0.0
  0
LINE
  5
A66
100
AcDbEntity
  8
V0L1
  6
CONTINUOUS
 62
   250
100
AcDbLine
 10
243.14
 20
21.64
 30
0.0
 11
242.14
 21
21.64
 31
0.0
  0
LINE
  5
A67
100
AcDbEntity
  8
V0L1
  6
CONTINUOUS
 62
   250
100
AcDbLine
 10
242.32
 20
19.22
 30
0.0
 11
242.96
 21
19.22
 31
0.0
  0
LINE
  5
A68
100
AcDbEntity
  8
V0L1
  6
CONTINUOUS
 62
   250
100
AcDbLine
 10
242.96
 20
19.22
 30
0.0
 11
242.96
 21
21.46
 31
0.0
  0
LINE
  5
A69
100
AcDbEntity
  8
V0L1
  6
CONTINUOUS
 62
   250
100
AcDbLine
 10
242.96
 20
21.46
 30
0.0
 11
242.32
 21
21.46
 31
0.0
  0
LINE
  5
A6A
100
AcDbEntity
  8
V0L1
  6
CONTINUOUS
 62
   250
100
AcDbLine
 10
242.32
 20
21.46
 30
0.0
 11
242.32
 21
19.22
 31
0.0
  0
LINE
  5
A6B
100
AcDbEntity
  8
V0L1
  6
CONTINUOUS
 62
   250
100
AcDbLine
 10
242.5
 20
21.28
 30
0.0
 11
242.5
 21
19.4
 31
0.0
  0
LINE
  5
A6C
100
AcDbEntity
  8
V0L1
  6
CONTINUOUS
 62
   250
100
AcDbLine
 10
242.5
 20
19.4
 30
0.0
 11
242.78
 21
19.4
 31
0.0
  0
LINE
  5
A6D
100
AcDbEntity
  8
V0L1
  6
CONTINUOUS
 62
   250
100
AcDbLine
 10
242.78
 20
19.4
 30
0.0
 11
242.78
 21
21.28
 31
0.0
  0
LINE
  5
A6E
100
AcDbEntity
  8
V0L1
  6
CONTINUOUS
 62
   250
100
AcDbLine
 10
242.78
 20
21.28
 30
0.0
 11
242.5
 21
21.28
 31
0.0
  0
LINE
  5
A6F
100
AcDbEntity
  8
V0L1
  6
CONTINUOUS
 62
   250
100
AcDbLine
 10
242.62
 20
21.16
 30
0.0
 11
242.62
 21
19.52
 31
0.0
  0
LINE
  5
A70
100
AcDbEntity
  8
V0L1
  6
CONTINUOUS
 62
   250
100
AcDbLine
 10
242.62
 20
19.52
 30
0.0
 11
242.66
 21
19.52
 31
0.0
  0
LINE
  5
A71
100
AcDbEntity
  8
V0L1
  6
CONTINUOUS
 62
   250
100
AcDbLine
 10
242.66
 20
19.52
 30
0.0
 11
242.66
 21
21.16
 31
0.0
  0
LINE
  5
A72
100
AcDbEntity
  8
V0L1
  6
CONTINUOUS
 62
   250
100
AcDbLine
 10
242.66
 20
21.16
 30
0.0
 11
242.62
 21
21.16
 31
0.0
  0
LINE
  5
A73
100
AcDbEntity
  8
V0L1
  6
CONTINUOUS
 62
   250
100
AcDbLine
 10
245.56038
 20
23.0
 30
0.0
 11
244.5
 21
23.0
 31
0.0
  0
LINE
  5
A74
100
AcDbEntity
  8
V0L1
  6
CONTINUOUS
 62
   250
100
AcDbLine
 10
244.5
 20
23.0
 30
0.0
 11
244.5
 21
26.32
 31
0.0
  0
LINE
  5
A75
100
AcDbEntity
  8
V0L1
  6
CONTINUOUS
 62
   250
100
AcDbLine
 10
244.5
 20
26.32
 30
0.0
 11
244.8
 21
26.32
 31
0.0
  0
ARC
  5
A76
100
AcDbEntity
  8
V0L1
  6
CONTINUOUS
 62
   250
100
AcDbCircle
 10
244.8
 20
24.7
 30
0.0
 40
1.62
100
AcDbArc
 50
299.38468
 51
90.0
  0
ARC
  5
A77
100
AcDbEntity
  8
V0L1
  6
CONTINUOUS
 62
   250
100
AcDbCircle
 10
245.68321
 20
23.131579
 30
0.0
 40
0.18
100
AcDbArc
 50
119.38468
 51
226.9698
  0
LINE
  5
A78
100
AcDbEntity
  8
V0L1
  6
CONTINUOUS
 62
   250
100
AcDbLine
 10
244.68
 20
23.18
 30
0.0
 11
244.68
 21
26.14
 31
0.0
  0
LINE
  5
A79
100
AcDbEntity
  8
V0L1
  6
CONTINUOUS
 62
   250
100
AcDbLine
 10
244.68
 20
26.14
 30
0.0
 11
244.8
 21
26.14
 31
0.0
  0
ARC
  5
A7A
100
AcDbEntity
  8
V0L1
  6
CONTINUOUS
 62
   250
100
AcDbCircle
 10
244.8
 20
24.7
 30
0.0
 40
1.44
100
AcDbArc
 50
299.38468
 51
90.0
  0
ARC
  5
A7B
100
AcDbEntity
  8
V0L1
  6
CONTINUOUS
 62
   250
100
AcDbCircle
 10
245.68321
 20
23.131579
 30
0.0
 40
0.36
100
AcDbArc
 50
119.38468
 51
172.27012
  0
LINE
  5
A7C
100
AcDbEntity
  8
V0L1
  6
CONTINUOUS
 62
   250
100
AcDbLine
 10
245.32648
 20
23.18
 30
0.0
 11
244.68
 21
23.18
 31
0.0
  0
LINE
  5
A7D
100
AcDbEntity
  8
V0L1
  6
CONTINUOUS
 62
   250
100
AcDbLine
 10
245.1939
 20
23.36
 30
0.0
 11
244.86
 21
23.36
 31
0.0
  0
LINE
  5
A7E
100
AcDbEntity
  8
V0L1
  6
CONTINUOUS
 62
   250
100
AcDbLine
 10
244.86
 20
23.36
 30
0.0
 11
244.86
 21
25.958571
 31
0.0
  0
ARC
  5
A7F
100
AcDbEntity
  8
V0L1
  6
CONTINUOUS
 62
   250
100
AcDbCircle
 10
244.8
 20
24.7
 30
0.0
 40
1.26
100
AcDbArc
 50
299.38468
 51
87.2706
  0
ARC
  5
A80
100
AcDbEntity
  8
V0L1
  6
CONTINUOUS
 62
   250
100
AcDbCircle
 10
245.68321
 20
23.131579
 30
0.0
 40
0.54
100
AcDbArc
 50
119.38468
 51
154.97574
  0
LINE
  5
A81
100
AcDbEntity
  8
V0L1
  6
CONTINUOUS
 62
   250
100
AcDbLine
 10
245.04
 20
23.54
 30
0.0
 11
245.04
 21
25.752996
 31
0.0
  0
ARC
  5
A82
100
AcDbEntity
  8
V0L1
  6
CONTINUOUS
 62
   250
100
AcDbCircle
 10
244.8
 20
24.7
 30
0.0
 40
1.08
100
AcDbArc
 50
299.38468
 51
77.16041
  0
ARC
  5
A83
100
AcDbEntity
  8
V0L1
  6
CONTINUOUS
 62
   250
100
AcDbCircle
 10
245.68321
 20
23.131579
 30
0.0
 40
0.72
100
AcDbArc
 50
119.38468
 51
145.44122
  0
LINE
  5
A84
100
AcDbEntity
  8
V0L1
  6
CONTINUOUS
 62
   250
100
AcDbLine
 10
245.09026
 20
23.54
 30
0.0
 11
245.04
 21
23.54
 31
0.0
  0
LINE
  5
A85
100
AcDbEntity
  8
V0L1
  6
CONTINUOUS
 62
   250
100
AcDbLine
 10
245.22
 20
23.903226
 30
0.0
 11
245.22
 21
25.49599
 31
0.0
  0
ARC
  5
A86
100
AcDbEntity
  8
V0L1
  6
CONTINUOUS
 62
   250
100
AcDbCircle
 10
244.8
 20
24.7
 30
0.0
 40
0.9
100
AcDbArc
 50
299.38468
 51
62.18186
  0
ARC
  5
A87
100
AcDbEntity
  8
V0L1
  6
CONTINUOUS
 62
   250
100
AcDbCircle
 10
245.68321
 20
23.131579
 30
0.0
 40
0.9
100
AcDbArc
 50
119.38468
 51
120.97573
  0
LINE
  5
A88
100
AcDbEntity
  8
V0L1
  6
CONTINUOUS
 62
   250
100
AcDbLine
 10
245.34
 20
24.13715
 30
0.0
 11
245.34
 21
25.26285
 31
0.0
  0
ARC
  5
A89
100
AcDbEntity
  8
V0L1
  6
CONTINUOUS
 62
   250
100
AcDbCircle
 10
244.8
 20
24.7
 30
0.0
 40
0.78
100
AcDbArc
 50
313.81306
 51
46.18694
  0
LINE
  5
A8A
100
AcDbEntity
  8
V0L1
  6
CONTINUOUS
 62
   250
100
AcDbLine
 10
244.5
 20
18.68
 30
0.0
 11
244.5
 21
22.0
 31
0.0
  0
LINE
  5
A8B
100
AcDbEntity
  8
V0L1
  6
CONTINUOUS
 62
   250
100
AcDbLine
 10
244.5
 20
22.0
 30
0.0
 11
246.72832
 21
22.0
 31
0.0
  0
ARC
  5
A8C
100
AcDbEntity
  8
V0L1
  6
CONTINUOUS
 62
   250
100
AcDbCircle
 10
244.8
 20
20.9
 30
0.0
 40
2.22
100
AcDbArc
 50
270.0
 51
29.70243
  0
LINE
  5
A8D
100
AcDbEntity
  8
V0L1
  6
CONTINUOUS
 62
   250
100
AcDbLine
 10
244.8
 20
18.68
 30
0.0
 11
244.5
 21
18.68
 31
0.0
  0
LINE
  5
A8E
100
AcDbEntity
  8
V0L1
  6
CONTINUOUS
 62
   250
100
AcDbLine
 10
244.68
 20
18.86
 30
0.0
 11
244.68
 21
21.82
 31
0.0
  0
LINE
  5
A8F
100
AcDbEntity
  8
V0L1
  6
CONTINUOUS
 62
   250
100
AcDbLine
 10
244.68
 20
21.82
 30
0.0
 11
246.62077
 21
21.82
 31
0.0
  0
ARC
  5
A90
100
AcDbEntity
  8
V0L1
  6
CONTINUOUS
 62
   250
100
AcDbCircle
 10
244.8
 20
20.9
 30
0.0
 40
2.04
100
AcDbArc
 50
270.0
 51
26.8066
  0
LINE
  5
A91
100
AcDbEntity
  8
V0L1
  6
CONTINUOUS
 62
   250
100
AcDbLine
 10
244.8
 20
18.86
 30
0.0
 11
244.68
 21
18.86
 31
0.0
  0
LINE
  5
A92
100
AcDbEntity
  8
V0L1
  6
CONTINUOUS
 62
   250
100
AcDbLine
 10
244.86
 20
19.040968
 30
0.0
 11
244.86
 21
21.64
 31
0.0
  0
LINE
  5
A93
100
AcDbEntity
  8
V0L1
  6
CONTINUOUS
 62
   250
100
AcDbLine
 10
244.86
 20
21.64
 30
0.0
 11
246.50646
 21
21.64
 31
0.0
  0
ARC
  5
A94
100
AcDbEntity
  8
V0L1
  6
CONTINUOUS
 62
   250
100
AcDbCircle
 10
244.8
 20
20.9
 30
0.0
 40
1.86
100
AcDbArc
 50
271.84857
 51
23.44381
  0
LINE
  5
A95
100
AcDbEntity
  8
V0L1
  6
CONTINUOUS
 62
   250
100
AcDbLine
 10
245.04
 20
19.237231
 30
0.0
 11
245.04
 21
21.46
 31
0.0
  0
LINE
  5
A96
100
AcDbEntity
  8
V0L1
  6
CONTINUOUS
 62
   250
100
AcDbLine
 10
245.04
 20
21.46
 30
0.0
 11
246.38392
 21
21.46
 31
0.0
  0
ARC
  5
A97
100
AcDbEntity
  8
V0L1
  6
CONTINUOUS
 62
   250
100
AcDbCircle
 10
244.8
 20
20.9
 30
0.0
 40
1.68
100
AcDbArc
 50
278.21321
 51
19.47122
  0
LINE
  5
A98
100
AcDbEntity
  8
V0L1
  6
CONTINUOUS
 62
   250
100
AcDbLine
 10
245.22
 20
19.46
 30
0.0
 11
245.22
 21
21.28
 31
0.0
  0
LINE
  5
A99
100
AcDbEntity
  8
V0L1
  6
CONTINUOUS
 62
   250
100
AcDbLine
 10
245.22
 20
21.28
 30
0.0
 11
246.25107
 21
21.28
 31
0.0
  0
ARC
  5
A9A
100
AcDbEntity
  8
V0L1
  6
CONTINUOUS
 62
   250
100
AcDbCircle
 10
244.8
 20
20.9
 30
0.0
 40
1.5
100
AcDbArc
 50
286.2602
 51
14.67485
  0
LINE
  5
A9B
100
AcDbEntity
  8
V0L1
  6
CONTINUOUS
 62
   250
100
AcDbLine
 10
245.4
 20
19.724245
 30
0.0
 11
245.4
 21
21.1
 31
0.0
  0
LINE
  5
A9C
100
AcDbEntity
  8
V0L1
  6
CONTINUOUS
 62
   250
100
AcDbLine
 10
245.4
 20
21.1
 30
0.0
 11
246.10476
 21
21.1
 31
0.0
  0
ARC
  5
A9D
100
AcDbEntity
  8
V0L1
  6
CONTINUOUS
 62
   250
100
AcDbCircle
 10
244.8
 20
20.9
 30
0.0
 40
1.32
100
AcDbArc
 50
297.03569
 51
8.71474
  0
LINE
  5
A9E
100
AcDbEntity
  8
V0L1
  6
CONTINUOUS
 62
   250
100
AcDbLine
 10
245.58
 20
20.068616
 30
0.0
 11
245.58
 21
20.92
 31
0.0
  0
LINE
  5
A9F
100
AcDbEntity
  8
V0L1
  6
CONTINUOUS
 62
   250
100
AcDbLine
 10
245.58
 20
20.92
 30
0.0
 11
245.93982
 21
20.92
 31
0.0
  0
ARC
  5
AA0
100
AcDbEntity
  8
V0L1
  6
CONTINUOUS
 62
   250
100
AcDbCircle
 10
244.8
 20
20.9
 30
0.0
 40
1.14
100
AcDbArc
 50
313.17355
 51
1.00524
  0
LINE
  5
AA1
100
AcDbEntity
  8
V0L1
  6
CONTINUOUS
 62
   250
100
AcDbLine
 10
239.42
 20
20.84
 30
0.0
 11
239.6183
 21
20.84
 31
0.0
  0
ARC
  5
AA2
100
AcDbEntity
  8
V0L1
  6
CONTINUOUS
 62
   250
100
AcDbCircle
 10
238.56
 20
20.9
 30
0.0
 40
1.06
100
AcDbArc
 50
324.22517
 51
356.75511
  0
LINE
  5
AA3
100
AcDbEntity
  8
V0L1
  6
CONTINUOUS
 62
   250
100
AcDbLine
 10
239.42
 20
20.280323
 30
0.0
 11
239.42
 21
20.84
 31
0.0
  0
LINE
  5
AA4
100
AcDbEntity
  8
V0L1
  6
CONTINUOUS
 62
   250
100
AcDbLine
 10
245.69
 20
20.381541
 30
0.0
 11
245.69
 21
20.81
 31
0.0
  0
LINE
  5
AA5
100
AcDbEntity
  8
V0L1
  6
CONTINUOUS
 62
   250
100
AcDbLine
 10
245.69
 20
20.81
 30
0.0
 11
245.82606
 21
20.81
 31
0.0
  0
ARC
  5
AA6
100
AcDbEntity
  8
V0L1
  6
CONTINUOUS
 62
   250
100
AcDbCircle
 10
244.8
 20
20.9
 30
0.0
 40
1.03
100
AcDbArc
 50
329.77755
 51
354.98718
  0
LINE
  5
AA7
100
AcDbEntity
  8
V0L1
  6
CONTINUOUS
 62
   250
100
AcDbLine
 10
76.64313
 20
271.18273
 30
0.0
 11
76.64313
 21
268.18273
 31
0.0
  0
TEXT
  5
AA8
100
AcDbEntity
  8
V0L1
  6
CONTINUOUS
 62
   250
100
AcDbText
 10
18.894545
 20
17.473426
 30
0.0
 40
2.0
  1
Ce document, propriete exclusive de notre
 50
90.0
 41
0.6
100
AcDbText
  0
TEXT
  5
AA9
100
AcDbEntity
  8
V0L1
  6
CONTINUOUS
 62
   250
100
AcDbText
 10
21.894545
 20
17.473426
 30
0.0
 40
2.0
  1
Societe, est strictement confidentiel. Il
 50
90.0
 41
0.6
100
AcDbText
  0
TEXT
  5
AAA
100
AcDbEntity
  8
V0L1
  6
CONTINUOUS
 62
   250
100
AcDbText
 10
24.894545
 20
17.473426
 30
0.0
 40
2.0
  1
ne peut etre communique, copie ou
 50
90.0
 41
0.6
100
AcDbText
  0
TEXT
  5
AAB
100
AcDbEntity
  8
V0L1
  6
CONTINUOUS
 62
   250
100
AcDbText
 10
27.894545
 20
17.473426
 30
0.0
 40
2.0
  1
reproduit sans son autorisation ecrite.
 50
90.0
 41
0.6
100
AcDbText
  0
ATTDEF
  5
AAC
100
AcDbEntity
  8
V0L1
  6
CONTINUOUS
 62
   250
100
AcDbText
 10
337.07224
 20
15.8802
 30
0.0
 40
6.0
  1
 
 41
0.8
100
AcDbAttributeDefinition
  3
N_plan
  2
FPTE307681
 70
     0
  0
ATTDEF
  5
AAD
100
AcDbEntity
  8
V0L1
  6
CONTINUOUS
 62
   250
100
AcDbText
 10
267.0845
 20
22.158328
 30
0.0
 40
2.5
  1
 
 41
0.8
100
AcDbAttributeDefinition
  3
Appareil
  2
A(E)50...75_+_TP
 70
     0
  0
ATTDEF
  5
AAF
100
AcDbEntity
  8
V0L1
  6
CONTINUOUS
 62
   250
100
AcDbText
 10
341.206227
 20
37.040143
 30
0.0
 40
8.0
  1
 
 41
0.7
 72
     1
 11
342.13956
 21
37.040143
 31
0.0
100
AcDbAttributeDefinition
  3
Echelle
  2
1
 70
     0
  0
ATTDEF
  5
AB0
100
AcDbEntity
  8
V0L1
  6
CONTINUOUS
 62
   250
100
AcDbText
 10
232.00289
 20
54.925552
 30
0.0
 40
2.2
  1
 
 41
0.6
100
AcDbAttributeDefinition
  3
Etabli
  2
VIOLO_16/10/96
 70
     0
  0
ATTDEF
  5
AB2
100
AcDbEntity
  8
V0L1
  6
CONTINUOUS
 62
   250
100
AcDbText
 10
361.40138
 20
54.716689
 30
0.0
 40
2.5
  1
 
 41
0.5
100
AcDbAttributeDefinition
  3
Execution
  2
17283
 70
     0
  0
ATTDEF
  5
AB6
100
AcDbEntity
  8
V0L1
  6
CONTINUOUS
 62
   250
100
AcDbText
 10
230.655277
 20
30.868317
 30
0.0
 40
2.5
  1
 
 72
     1
 11
231.48861
 21
30.868317
 31
0.0
100
AcDbAttributeDefinition
  3
Indice
  2
A
 70
     0
  0
ATTDEF
  5
AB8
100
AcDbEntity
  8
V0L1
  6
CONTINUOUS
 62
   250
100
AcDbText
 10
236.6432
 20
30.659267
 30
0.0
 40
2.5
  1
 
 41
0.5
100
AcDbAttributeDefinition
  3
Texte_indice
  2
MODIFICATION_COTE_SV_LE_16/10/96
 70
     0
  0
POINT
  5
AC2
100
AcDbEntity
  8
V0L1
  6
CONTINUOUS
 62
   250
100
AcDbPoint
 10
393.0
 20
278.0
 30
0.0
  0
LINE
  5
AC3
100
AcDbEntity
  8
1
  6
CONTINUOUS
 62
   250
100
AcDbLine
 10
392.556221
 20
53.410273
 30
0.0
 11
389.492768
 21
50.56715
 31
0.0
  0
LINE
  5
AC4
100
AcDbEntity
  8
1
  6
CONTINUOUS
 62
   250
100
AcDbLine
 10
389.492768
 20
53.410273
 30
0.0
 11
392.556221
 21
50.56715
 31
0.0
  0
ENDSEC
  0
SECTION
  2
OBJECTS
  0
DICTIONARY
  5
C
100
AcDbDictionary
  3
ACAD_GROUP
350
D
  3
ACAD_MLINESTYLE
350
E
  0
DICTIONARY
  5
D
102
{ACAD_REACTORS
330
C
102
}
100
AcDbDictionary
  0
DICTIONARY
  5
E
102
{ACAD_REACTORS
330
C
102
}
100
AcDbDictionary
  3
STANDARD
350
1C
  0
MLINESTYLE
  5
1C
102
{ACAD_REACTORS
330
E
102
}
100
AcDbMlineStyle
  2
STANDARD
 70
     0
  3

 62
     0
 51
90.0
 52
90.0
 71
     2
 49
0.5
 62
   256
  6
BYLAYER
 49
-0.5
 62
   256
  6
BYLAYER
  0
ENDSEC
  0
EOF
