ISO-10303-21;
HEADER;
FILE_DESCRIPTION(('CATIA V5 STEP Exchange'),'2;1');

FILE_NAME('H:\\STP 3D FORMULA\\1SDH001294R0003_1PA_001_00_A1_1p_EF_sup.stp','2014-12-04T15:40:46+00:00',('none'),('none'),'CATIA Version 5 Release 20 SP 1 (IN-10)','CATIA V5 STEP AP214','none');

FILE_SCHEMA(('AUTOMOTIVE_DESIGN { 1 0 10303 214 1 1 1 1 }'));

ENDSEC;
/* file written by CATIA V5R20 */
DATA;
#5=PRODUCT('1SDH001294R0003_1PA_001_00_A1_1p_EF_sup','','',(#2)) ;
#2=PRODUCT_CONTEXT(' ',#1,'mechanical') ;
#1=APPLICATION_CONTEXT('automotive design') ;
#10=PRODUCT_DEFINITION('',' ',#6,#3) ;
#3=PRODUCT_DEFINITION_CONTEXT('part definition',#1,' ') ;
#11=PRODUCT_DEFINITION_SHAPE(' ',' ',#10) ;
#450=MECHANICAL_DESIGN_GEOMETRIC_PRESENTATION_REPRESENTATION(' ',(#30),#17) ;
#20=SHAPE_REPRESENTATION(' ',(#19),#17) ;
#19=AXIS2_PLACEMENT_3D(' ',#18,$,$) ;
#35=AXIS2_PLACEMENT_3D('Plane Axis2P3D',#32,#33,#34) ;
#75=AXIS2_PLACEMENT_3D('Plane Axis2P3D',#72,#73,#74) ;
#106=AXIS2_PLACEMENT_3D('Plane Axis2P3D',#103,#104,#105) ;
#137=AXIS2_PLACEMENT_3D('Plane Axis2P3D',#134,#135,#136) ;
#168=AXIS2_PLACEMENT_3D('Plane Axis2P3D',#165,#166,#167) ;
#199=AXIS2_PLACEMENT_3D('Plane Axis2P3D',#196,#197,#198) ;
#230=AXIS2_PLACEMENT_3D('Plane Axis2P3D',#227,#228,#229) ;
#261=AXIS2_PLACEMENT_3D('Plane Axis2P3D',#258,#259,#260) ;
#283=AXIS2_PLACEMENT_3D('Cylinder Axis2P3D',#280,#281,#282) ;
#287=AXIS2_PLACEMENT_3D('Circle Axis2P3D',#285,#286,$) ;
#303=AXIS2_PLACEMENT_3D('Circle Axis2P3D',#301,#302,$) ;
#322=AXIS2_PLACEMENT_3D('Circle Axis2P3D',#320,#321,$) ;
#327=AXIS2_PLACEMENT_3D('Circle Axis2P3D',#325,#326,$) ;
#340=AXIS2_PLACEMENT_3D('Cylinder Axis2P3D',#337,#338,#339) ;
#344=AXIS2_PLACEMENT_3D('Circle Axis2P3D',#342,#343,$) ;
#360=AXIS2_PLACEMENT_3D('Circle Axis2P3D',#358,#359,$) ;
#379=AXIS2_PLACEMENT_3D('Circle Axis2P3D',#377,#378,$) ;
#384=AXIS2_PLACEMENT_3D('Circle Axis2P3D',#382,#383,$) ;
#397=AXIS2_PLACEMENT_3D('Plane Axis2P3D',#394,#395,#396) ;
#421=AXIS2_PLACEMENT_3D('Plane Axis2P3D',#418,#419,#420) ;
#447=AXIS2_PLACEMENT_3D('Sistema di assi.1',#444,#445,#446) ;
#18=CARTESIAN_POINT(' ',(0.,0.,0.)) ;
#32=CARTESIAN_POINT('Axis2P3D Location',(-7.75000000006,0.,82.2499999947)) ;
#37=CARTESIAN_POINT('Line Origine',(-4.75000000006,27.5,85.2499999947)) ;
#41=CARTESIAN_POINT('Vertex',(-4.75000000006,30.,85.2499999947)) ;
#43=CARTESIAN_POINT('Vertex',(-4.75000000006,25.,85.2499999947)) ;
#46=CARTESIAN_POINT('Line Origine',(-6.25000000006,30.,83.7499999947)) ;
#50=CARTESIAN_POINT('Vertex',(-7.75000000006,30.,82.2499999947)) ;
#53=CARTESIAN_POINT('Line Origine',(-7.75000000006,27.5,82.2499999947)) ;
#57=CARTESIAN_POINT('Vertex',(-7.75000000006,25.,82.2499999947)) ;
#60=CARTESIAN_POINT('Line Origine',(-6.25000000006,25.,83.7499999947)) ;
#72=CARTESIAN_POINT('Axis2P3D Location',(-7.75,0.,51.7499999948)) ;
#77=CARTESIAN_POINT('Line Origine',(-7.75,30.,66.9999999948)) ;
#81=CARTESIAN_POINT('Vertex',(-7.75,30.,51.7499999948)) ;
#84=CARTESIAN_POINT('Line Origine',(-7.75,27.5,51.7499999948)) ;
#88=CARTESIAN_POINT('Vertex',(-7.75,25.,51.7499999948)) ;
#91=CARTESIAN_POINT('Line Origine',(-7.75,25.,66.9999999948)) ;
#103=CARTESIAN_POINT('Axis2P3D Location',(-7.75000000006,0.,51.7499999948)) ;
#108=CARTESIAN_POINT('Line Origine',(-7.00000000006,30.,50.9999999948)) ;
#112=CARTESIAN_POINT('Vertex',(-6.25000000006,30.,50.2499999948)) ;
#115=CARTESIAN_POINT('Line Origine',(-6.25000000006,27.5,50.2499999948)) ;
#119=CARTESIAN_POINT('Vertex',(-6.25000000006,25.,50.2499999948)) ;
#122=CARTESIAN_POINT('Line Origine',(-7.00000000006,25.,50.9999999948)) ;
#134=CARTESIAN_POINT('Axis2P3D Location',(6.25000000013,0.,50.2499999947)) ;
#139=CARTESIAN_POINT('Line Origine',(1.28028254665E-010,30.,50.2499999947)) ;
#143=CARTESIAN_POINT('Vertex',(6.25000000013,30.,50.2499999947)) ;
#146=CARTESIAN_POINT('Line Origine',(6.25000000013,27.5,50.2499999947)) ;
#150=CARTESIAN_POINT('Vertex',(6.25000000013,25.,50.2499999947)) ;
#153=CARTESIAN_POINT('Line Origine',(1.28028254665E-010,25.,50.2499999947)) ;
#165=CARTESIAN_POINT('Axis2P3D Location',(7.75,0.,51.7499999947)) ;
#170=CARTESIAN_POINT('Line Origine',(7.,30.,50.9999999947)) ;
#174=CARTESIAN_POINT('Vertex',(7.75,30.,51.7499999947)) ;
#177=CARTESIAN_POINT('Line Origine',(7.75,27.5,51.7499999947)) ;
#181=CARTESIAN_POINT('Vertex',(7.75,25.,51.7499999947)) ;
#184=CARTESIAN_POINT('Line Origine',(7.,25.,50.9999999947)) ;
#196=CARTESIAN_POINT('Axis2P3D Location',(7.75,0.,82.2499999947)) ;
#201=CARTESIAN_POINT('Line Origine',(7.75,30.,66.9999999947)) ;
#205=CARTESIAN_POINT('Vertex',(7.75,30.,82.2499999947)) ;
#208=CARTESIAN_POINT('Line Origine',(7.75,27.5,82.2499999947)) ;
#212=CARTESIAN_POINT('Vertex',(7.75,25.,82.2499999947)) ;
#215=CARTESIAN_POINT('Line Origine',(7.75,25.,66.9999999947)) ;
#227=CARTESIAN_POINT('Axis2P3D Location',(4.75,0.,85.2499999947)) ;
#232=CARTESIAN_POINT('Line Origine',(6.25,30.,83.7499999947)) ;
#236=CARTESIAN_POINT('Vertex',(4.75,30.,85.2499999947)) ;
#239=CARTESIAN_POINT('Line Origine',(4.75,27.5,85.2499999947)) ;
#243=CARTESIAN_POINT('Vertex',(4.75,25.,85.2499999947)) ;
#246=CARTESIAN_POINT('Line Origine',(6.25,25.,83.7499999947)) ;
#258=CARTESIAN_POINT('Axis2P3D Location',(-4.74999999987,0.,85.2499999947)) ;
#263=CARTESIAN_POINT('Line Origine',(1.27993615706E-010,30.,85.2499999947)) ;
#268=CARTESIAN_POINT('Line Origine',(1.27993615706E-010,25.,85.2499999947)) ;
#280=CARTESIAN_POINT('Axis2P3D Location',(0.,27.5,76.7499999947)) ;
#285=CARTESIAN_POINT('Axis2P3D Location',(0.,25.,76.7499999947)) ;
#289=CARTESIAN_POINT('Vertex',(-4.25,25.,76.7499999947)) ;
#291=CARTESIAN_POINT('Vertex',(4.25,25.,76.7499999947)) ;
#294=CARTESIAN_POINT('Line Origine',(4.25,27.5,76.7499999947)) ;
#298=CARTESIAN_POINT('Vertex',(4.25,30.,76.7499999947)) ;
#301=CARTESIAN_POINT('Axis2P3D Location',(0.,30.,76.7499999947)) ;
#305=CARTESIAN_POINT('Vertex',(-4.25,30.,76.7499999947)) ;
#308=CARTESIAN_POINT('Line Origine',(-4.25,27.5,76.7499999947)) ;
#320=CARTESIAN_POINT('Axis2P3D Location',(0.,25.,76.7499999947)) ;
#325=CARTESIAN_POINT('Axis2P3D Location',(0.,30.,76.7499999947)) ;
#337=CARTESIAN_POINT('Axis2P3D Location',(0.,27.5,57.2499999947)) ;
#342=CARTESIAN_POINT('Axis2P3D Location',(0.,25.,57.2499999947)) ;
#346=CARTESIAN_POINT('Vertex',(-3.25,25.,57.2499999947)) ;
#348=CARTESIAN_POINT('Vertex',(3.25,25.,57.2499999947)) ;
#351=CARTESIAN_POINT('Line Origine',(3.25,27.5,57.2499999947)) ;
#355=CARTESIAN_POINT('Vertex',(3.25,30.,57.2499999947)) ;
#358=CARTESIAN_POINT('Axis2P3D Location',(0.,30.,57.2499999947)) ;
#362=CARTESIAN_POINT('Vertex',(-3.25,30.,57.2499999947)) ;
#365=CARTESIAN_POINT('Line Origine',(-3.25,27.5,57.2499999947)) ;
#377=CARTESIAN_POINT('Axis2P3D Location',(0.,25.,57.2499999947)) ;
#382=CARTESIAN_POINT('Axis2P3D Location',(0.,30.,57.2499999947)) ;
#394=CARTESIAN_POINT('Axis2P3D Location',(0.,30.,0.)) ;
#418=CARTESIAN_POINT('Axis2P3D Location',(0.,25.,0.)) ;
#444=CARTESIAN_POINT('Axis2P3D Location',(0.,0.,0.)) ;
#33=DIRECTION('Axis2P3D Direction',(0.707106781187,0.,-0.707106781187)) ;
#34=DIRECTION('Axis2P3D XDirection',(0.707106781187,0.,0.707106781187)) ;
#38=DIRECTION('Vector Direction',(0.,-1.,0.)) ;
#47=DIRECTION('Vector Direction',(0.707106781187,0.,0.707106781187)) ;
#54=DIRECTION('Vector Direction',(0.,-1.,0.)) ;
#61=DIRECTION('Vector Direction',(0.707106781187,0.,0.707106781187)) ;
#73=DIRECTION('Axis2P3D Direction',(1.,0.,-0.)) ;
#74=DIRECTION('Axis2P3D XDirection',(0.,0.,1.)) ;
#78=DIRECTION('Vector Direction',(0.,0.,1.)) ;
#85=DIRECTION('Vector Direction',(0.,-1.,0.)) ;
#92=DIRECTION('Vector Direction',(0.,0.,1.)) ;
#104=DIRECTION('Axis2P3D Direction',(-0.707106781187,-0.,-0.707106781187)) ;
#105=DIRECTION('Axis2P3D XDirection',(0.707106781187,0.,-0.707106781187)) ;
#109=DIRECTION('Vector Direction',(0.707106781187,0.,-0.707106781187)) ;
#116=DIRECTION('Vector Direction',(0.,-1.,0.)) ;
#123=DIRECTION('Vector Direction',(0.707106781187,0.,-0.707106781187)) ;
#135=DIRECTION('Axis2P3D Direction',(0.,0.,1.)) ;
#136=DIRECTION('Axis2P3D XDirection',(-1.,0.,0.)) ;
#140=DIRECTION('Vector Direction',(-1.,0.,0.)) ;
#147=DIRECTION('Vector Direction',(0.,-1.,0.)) ;
#154=DIRECTION('Vector Direction',(-1.,0.,0.)) ;
#166=DIRECTION('Axis2P3D Direction',(-0.707106781187,0.,0.707106781187)) ;
#167=DIRECTION('Axis2P3D XDirection',(-0.707106781187,0.,-0.707106781187)) ;
#171=DIRECTION('Vector Direction',(-0.707106781187,0.,-0.707106781187)) ;
#178=DIRECTION('Vector Direction',(0.,-1.,0.)) ;
#185=DIRECTION('Vector Direction',(-0.707106781187,0.,-0.707106781187)) ;
#197=DIRECTION('Axis2P3D Direction',(-1.,-0.,-0.)) ;
#198=DIRECTION('Axis2P3D XDirection',(0.,0.,-1.)) ;
#202=DIRECTION('Vector Direction',(0.,0.,-1.)) ;
#209=DIRECTION('Vector Direction',(0.,-1.,0.)) ;
#216=DIRECTION('Vector Direction',(0.,0.,-1.)) ;
#228=DIRECTION('Axis2P3D Direction',(-0.707106781187,-0.,-0.707106781187)) ;
#229=DIRECTION('Axis2P3D XDirection',(0.707106781187,0.,-0.707106781187)) ;
#233=DIRECTION('Vector Direction',(0.707106781187,0.,-0.707106781187)) ;
#240=DIRECTION('Vector Direction',(0.,-1.,0.)) ;
#247=DIRECTION('Vector Direction',(0.707106781187,0.,-0.707106781187)) ;
#259=DIRECTION('Axis2P3D Direction',(0.,0.,-1.)) ;
#260=DIRECTION('Axis2P3D XDirection',(1.,0.,0.)) ;
#264=DIRECTION('Vector Direction',(1.,0.,0.)) ;
#269=DIRECTION('Vector Direction',(1.,0.,0.)) ;
#281=DIRECTION('Axis2P3D Direction',(0.,-1.,0.)) ;
#282=DIRECTION('Axis2P3D XDirection',(1.,0.,0.)) ;
#286=DIRECTION('Axis2P3D Direction',(0.,-1.,0.)) ;
#295=DIRECTION('Vector Direction',(0.,-1.,0.)) ;
#302=DIRECTION('Axis2P3D Direction',(0.,-1.,0.)) ;
#309=DIRECTION('Vector Direction',(0.,-1.,0.)) ;
#321=DIRECTION('Axis2P3D Direction',(0.,-1.,0.)) ;
#326=DIRECTION('Axis2P3D Direction',(0.,-1.,0.)) ;
#338=DIRECTION('Axis2P3D Direction',(0.,-1.,0.)) ;
#339=DIRECTION('Axis2P3D XDirection',(1.,0.,0.)) ;
#343=DIRECTION('Axis2P3D Direction',(0.,-1.,0.)) ;
#352=DIRECTION('Vector Direction',(0.,-1.,0.)) ;
#359=DIRECTION('Axis2P3D Direction',(0.,-1.,0.)) ;
#366=DIRECTION('Vector Direction',(0.,-1.,0.)) ;
#378=DIRECTION('Axis2P3D Direction',(0.,-1.,0.)) ;
#383=DIRECTION('Axis2P3D Direction',(0.,-1.,0.)) ;
#395=DIRECTION('Axis2P3D Direction',(0.,-1.,0.)) ;
#396=DIRECTION('Axis2P3D XDirection',(1.,0.,0.)) ;
#419=DIRECTION('Axis2P3D Direction',(0.,-1.,0.)) ;
#420=DIRECTION('Axis2P3D XDirection',(1.,0.,0.)) ;
#445=DIRECTION('Axis2P3D Direction',(0.,0.,1.)) ;
#446=DIRECTION('Axis2P3D XDirection',(1.,0.,0.)) ;
#8=PRODUCT_RELATED_PRODUCT_CATEGORY('part',$,(#5)) ;
#7=PRODUCT_CATEGORY('part','specification') ;
#30=STYLED_ITEM(' ',(#29),#22) ;
#29=PRESENTATION_STYLE_ASSIGNMENT((#28)) ;
#28=SURFACE_STYLE_USAGE(.BOTH.,#27) ;
#27=SURFACE_SIDE_STYLE(' ',(#26)) ;
#26=SURFACE_STYLE_FILL_AREA(#25) ;
#25=FILL_AREA_STYLE(' ',(#24)) ;
#24=FILL_AREA_STYLE_COLOUR(' ',#23) ;
#39=VECTOR('Line Direction',#38,1.) ;
#48=VECTOR('Line Direction',#47,1.) ;
#55=VECTOR('Line Direction',#54,1.) ;
#62=VECTOR('Line Direction',#61,1.) ;
#79=VECTOR('Line Direction',#78,1.) ;
#86=VECTOR('Line Direction',#85,1.) ;
#93=VECTOR('Line Direction',#92,1.) ;
#110=VECTOR('Line Direction',#109,1.) ;
#117=VECTOR('Line Direction',#116,1.) ;
#124=VECTOR('Line Direction',#123,1.) ;
#141=VECTOR('Line Direction',#140,1.) ;
#148=VECTOR('Line Direction',#147,1.) ;
#155=VECTOR('Line Direction',#154,1.) ;
#172=VECTOR('Line Direction',#171,1.) ;
#179=VECTOR('Line Direction',#178,1.) ;
#186=VECTOR('Line Direction',#185,1.) ;
#203=VECTOR('Line Direction',#202,1.) ;
#210=VECTOR('Line Direction',#209,1.) ;
#217=VECTOR('Line Direction',#216,1.) ;
#234=VECTOR('Line Direction',#233,1.) ;
#241=VECTOR('Line Direction',#240,1.) ;
#248=VECTOR('Line Direction',#247,1.) ;
#265=VECTOR('Line Direction',#264,1.) ;
#270=VECTOR('Line Direction',#269,1.) ;
#296=VECTOR('Line Direction',#295,1.) ;
#310=VECTOR('Line Direction',#309,1.) ;
#353=VECTOR('Line Direction',#352,1.) ;
#367=VECTOR('Line Direction',#366,1.) ;
#16=UNCERTAINTY_MEASURE_WITH_UNIT(LENGTH_MEASURE(0.005),#12,'distance_accuracy_value','CONFUSED CURVE UNCERTAINTY') ;
#443=SHAPE_REPRESENTATION_RELATIONSHIP(' ',' ',#20,#442) ;
#66=ORIENTED_EDGE('',*,*,#45,.F.) ;
#67=ORIENTED_EDGE('',*,*,#52,.T.) ;
#68=ORIENTED_EDGE('',*,*,#59,.T.) ;
#69=ORIENTED_EDGE('',*,*,#64,.F.) ;
#97=ORIENTED_EDGE('',*,*,#59,.F.) ;
#98=ORIENTED_EDGE('',*,*,#83,.T.) ;
#99=ORIENTED_EDGE('',*,*,#90,.T.) ;
#100=ORIENTED_EDGE('',*,*,#95,.F.) ;
#128=ORIENTED_EDGE('',*,*,#90,.F.) ;
#129=ORIENTED_EDGE('',*,*,#114,.T.) ;
#130=ORIENTED_EDGE('',*,*,#121,.T.) ;
#131=ORIENTED_EDGE('',*,*,#126,.F.) ;
#159=ORIENTED_EDGE('',*,*,#121,.F.) ;
#160=ORIENTED_EDGE('',*,*,#145,.T.) ;
#161=ORIENTED_EDGE('',*,*,#152,.T.) ;
#162=ORIENTED_EDGE('',*,*,#157,.F.) ;
#190=ORIENTED_EDGE('',*,*,#152,.F.) ;
#191=ORIENTED_EDGE('',*,*,#176,.T.) ;
#192=ORIENTED_EDGE('',*,*,#183,.T.) ;
#193=ORIENTED_EDGE('',*,*,#188,.F.) ;
#221=ORIENTED_EDGE('',*,*,#183,.F.) ;
#222=ORIENTED_EDGE('',*,*,#207,.T.) ;
#223=ORIENTED_EDGE('',*,*,#214,.T.) ;
#224=ORIENTED_EDGE('',*,*,#219,.F.) ;
#252=ORIENTED_EDGE('',*,*,#214,.F.) ;
#253=ORIENTED_EDGE('',*,*,#238,.T.) ;
#254=ORIENTED_EDGE('',*,*,#245,.T.) ;
#255=ORIENTED_EDGE('',*,*,#250,.F.) ;
#274=ORIENTED_EDGE('',*,*,#245,.F.) ;
#275=ORIENTED_EDGE('',*,*,#267,.T.) ;
#276=ORIENTED_EDGE('',*,*,#45,.T.) ;
#277=ORIENTED_EDGE('',*,*,#272,.F.) ;
#314=ORIENTED_EDGE('',*,*,#293,.T.) ;
#315=ORIENTED_EDGE('',*,*,#300,.F.) ;
#316=ORIENTED_EDGE('',*,*,#307,.F.) ;
#317=ORIENTED_EDGE('',*,*,#312,.T.) ;
#331=ORIENTED_EDGE('',*,*,#324,.T.) ;
#332=ORIENTED_EDGE('',*,*,#312,.F.) ;
#333=ORIENTED_EDGE('',*,*,#329,.F.) ;
#334=ORIENTED_EDGE('',*,*,#300,.T.) ;
#371=ORIENTED_EDGE('',*,*,#350,.T.) ;
#372=ORIENTED_EDGE('',*,*,#357,.F.) ;
#373=ORIENTED_EDGE('',*,*,#364,.F.) ;
#374=ORIENTED_EDGE('',*,*,#369,.T.) ;
#388=ORIENTED_EDGE('',*,*,#381,.T.) ;
#389=ORIENTED_EDGE('',*,*,#369,.F.) ;
#390=ORIENTED_EDGE('',*,*,#386,.F.) ;
#391=ORIENTED_EDGE('',*,*,#357,.T.) ;
#400=ORIENTED_EDGE('',*,*,#267,.F.) ;
#401=ORIENTED_EDGE('',*,*,#238,.F.) ;
#402=ORIENTED_EDGE('',*,*,#207,.F.) ;
#403=ORIENTED_EDGE('',*,*,#176,.F.) ;
#404=ORIENTED_EDGE('',*,*,#145,.F.) ;
#405=ORIENTED_EDGE('',*,*,#114,.F.) ;
#406=ORIENTED_EDGE('',*,*,#83,.F.) ;
#407=ORIENTED_EDGE('',*,*,#52,.F.) ;
#410=ORIENTED_EDGE('',*,*,#329,.T.) ;
#411=ORIENTED_EDGE('',*,*,#307,.T.) ;
#414=ORIENTED_EDGE('',*,*,#386,.T.) ;
#415=ORIENTED_EDGE('',*,*,#364,.T.) ;
#424=ORIENTED_EDGE('',*,*,#64,.T.) ;
#425=ORIENTED_EDGE('',*,*,#95,.T.) ;
#426=ORIENTED_EDGE('',*,*,#126,.T.) ;
#427=ORIENTED_EDGE('',*,*,#157,.T.) ;
#428=ORIENTED_EDGE('',*,*,#188,.T.) ;
#429=ORIENTED_EDGE('',*,*,#219,.T.) ;
#430=ORIENTED_EDGE('',*,*,#250,.T.) ;
#431=ORIENTED_EDGE('',*,*,#272,.T.) ;
#434=ORIENTED_EDGE('',*,*,#293,.F.) ;
#435=ORIENTED_EDGE('',*,*,#324,.F.) ;
#438=ORIENTED_EDGE('',*,*,#350,.F.) ;
#439=ORIENTED_EDGE('',*,*,#381,.F.) ;
#412=FACE_BOUND('',#409,.T.) ;
#416=FACE_BOUND('',#413,.T.) ;
#436=FACE_BOUND('',#433,.T.) ;
#440=FACE_BOUND('',#437,.T.) ;
#31=CLOSED_SHELL('Closed Shell',(#71,#102,#133,#164,#195,#226,#257,#279,#319,#336,#376,#393,#417,#441)) ;
#442=ADVANCED_BREP_SHAPE_REPRESENTATION('NONE',(#22),#17) ;
#71=ADVANCED_FACE('Terminale anteriore prolungato EF superiore',(#70),#36,.F.) ;
#102=ADVANCED_FACE('Terminale anteriore prolungato EF superiore',(#101),#76,.F.) ;
#133=ADVANCED_FACE('Terminale anteriore prolungato EF superiore',(#132),#107,.T.) ;
#164=ADVANCED_FACE('Terminale anteriore prolungato EF superiore',(#163),#138,.F.) ;
#195=ADVANCED_FACE('Terminale anteriore prolungato EF superiore',(#194),#169,.F.) ;
#226=ADVANCED_FACE('Terminale anteriore prolungato EF superiore',(#225),#200,.F.) ;
#257=ADVANCED_FACE('Terminale anteriore prolungato EF superiore',(#256),#231,.F.) ;
#279=ADVANCED_FACE('Terminale anteriore prolungato EF superiore',(#278),#262,.F.) ;
#319=ADVANCED_FACE('Terminale anteriore prolungato EF superiore',(#318),#284,.F.) ;
#336=ADVANCED_FACE('Terminale anteriore prolungato EF superiore',(#335),#284,.F.) ;
#376=ADVANCED_FACE('Terminale anteriore prolungato EF superiore',(#375),#341,.F.) ;
#393=ADVANCED_FACE('Terminale anteriore prolungato EF superiore',(#392),#341,.F.) ;
#417=ADVANCED_FACE('Terminale anteriore prolungato EF superiore',(#408,#412,#416),#398,.F.) ;
#441=ADVANCED_FACE('Terminale anteriore prolungato EF superiore',(#432,#436,#440),#422,.T.) ;
#4=APPLICATION_PROTOCOL_DEFINITION('international standard','automotive_design',2001,#1) ;
#22=MANIFOLD_SOLID_BREP('Terminale anteriore prolungato EF superiore',#31) ;
#288=CIRCLE('generated circle',#287,4.25) ;
#304=CIRCLE('generated circle',#303,4.25) ;
#323=CIRCLE('generated circle',#322,4.25) ;
#328=CIRCLE('generated circle',#327,4.25) ;
#345=CIRCLE('generated circle',#344,3.25) ;
#361=CIRCLE('generated circle',#360,3.25) ;
#380=CIRCLE('generated circle',#379,3.25) ;
#385=CIRCLE('generated circle',#384,3.25) ;
#23=COLOUR_RGB('Colour',0.96862745098,0.462745098039,0.149019607843) ;
#448=CONSTRUCTIVE_GEOMETRY_REPRESENTATION('supplemental geometry',(#447),#17) ;
#449=CONSTRUCTIVE_GEOMETRY_REPRESENTATION_RELATIONSHIP('supplemental geometry','',#20,#448) ;
#284=CYLINDRICAL_SURFACE('generated cylinder',#283,4.25) ;
#341=CYLINDRICAL_SURFACE('generated cylinder',#340,3.25) ;
#45=EDGE_CURVE('',#42,#44,#40,.T.) ;
#52=EDGE_CURVE('',#42,#51,#49,.F.) ;
#59=EDGE_CURVE('',#51,#58,#56,.T.) ;
#64=EDGE_CURVE('',#44,#58,#63,.F.) ;
#83=EDGE_CURVE('',#51,#82,#80,.F.) ;
#90=EDGE_CURVE('',#82,#89,#87,.T.) ;
#95=EDGE_CURVE('',#58,#89,#94,.F.) ;
#114=EDGE_CURVE('',#82,#113,#111,.T.) ;
#121=EDGE_CURVE('',#113,#120,#118,.T.) ;
#126=EDGE_CURVE('',#89,#120,#125,.T.) ;
#145=EDGE_CURVE('',#113,#144,#142,.F.) ;
#152=EDGE_CURVE('',#144,#151,#149,.T.) ;
#157=EDGE_CURVE('',#120,#151,#156,.F.) ;
#176=EDGE_CURVE('',#144,#175,#173,.F.) ;
#183=EDGE_CURVE('',#175,#182,#180,.T.) ;
#188=EDGE_CURVE('',#151,#182,#187,.F.) ;
#207=EDGE_CURVE('',#175,#206,#204,.F.) ;
#214=EDGE_CURVE('',#206,#213,#211,.T.) ;
#219=EDGE_CURVE('',#182,#213,#218,.F.) ;
#238=EDGE_CURVE('',#206,#237,#235,.F.) ;
#245=EDGE_CURVE('',#237,#244,#242,.T.) ;
#250=EDGE_CURVE('',#213,#244,#249,.F.) ;
#267=EDGE_CURVE('',#237,#42,#266,.F.) ;
#272=EDGE_CURVE('',#244,#44,#271,.F.) ;
#293=EDGE_CURVE('',#290,#292,#288,.T.) ;
#300=EDGE_CURVE('',#299,#292,#297,.T.) ;
#307=EDGE_CURVE('',#306,#299,#304,.T.) ;
#312=EDGE_CURVE('',#306,#290,#311,.T.) ;
#324=EDGE_CURVE('',#292,#290,#323,.T.) ;
#329=EDGE_CURVE('',#299,#306,#328,.T.) ;
#350=EDGE_CURVE('',#347,#349,#345,.T.) ;
#357=EDGE_CURVE('',#356,#349,#354,.T.) ;
#364=EDGE_CURVE('',#363,#356,#361,.T.) ;
#369=EDGE_CURVE('',#363,#347,#368,.T.) ;
#381=EDGE_CURVE('',#349,#347,#380,.T.) ;
#386=EDGE_CURVE('',#356,#363,#385,.T.) ;
#65=EDGE_LOOP('',(#66,#67,#68,#69)) ;
#96=EDGE_LOOP('',(#97,#98,#99,#100)) ;
#127=EDGE_LOOP('',(#128,#129,#130,#131)) ;
#158=EDGE_LOOP('',(#159,#160,#161,#162)) ;
#189=EDGE_LOOP('',(#190,#191,#192,#193)) ;
#220=EDGE_LOOP('',(#221,#222,#223,#224)) ;
#251=EDGE_LOOP('',(#252,#253,#254,#255)) ;
#273=EDGE_LOOP('',(#274,#275,#276,#277)) ;
#313=EDGE_LOOP('',(#314,#315,#316,#317)) ;
#330=EDGE_LOOP('',(#331,#332,#333,#334)) ;
#370=EDGE_LOOP('',(#371,#372,#373,#374)) ;
#387=EDGE_LOOP('',(#388,#389,#390,#391)) ;
#399=EDGE_LOOP('',(#400,#401,#402,#403,#404,#405,#406,#407)) ;
#409=EDGE_LOOP('',(#410,#411)) ;
#413=EDGE_LOOP('',(#414,#415)) ;
#423=EDGE_LOOP('',(#424,#425,#426,#427,#428,#429,#430,#431)) ;
#433=EDGE_LOOP('',(#434,#435)) ;
#437=EDGE_LOOP('',(#438,#439)) ;
#70=FACE_OUTER_BOUND('',#65,.T.) ;
#101=FACE_OUTER_BOUND('',#96,.T.) ;
#132=FACE_OUTER_BOUND('',#127,.T.) ;
#163=FACE_OUTER_BOUND('',#158,.T.) ;
#194=FACE_OUTER_BOUND('',#189,.T.) ;
#225=FACE_OUTER_BOUND('',#220,.T.) ;
#256=FACE_OUTER_BOUND('',#251,.T.) ;
#278=FACE_OUTER_BOUND('',#273,.T.) ;
#318=FACE_OUTER_BOUND('',#313,.T.) ;
#335=FACE_OUTER_BOUND('',#330,.T.) ;
#375=FACE_OUTER_BOUND('',#370,.T.) ;
#392=FACE_OUTER_BOUND('',#387,.T.) ;
#408=FACE_OUTER_BOUND('',#399,.T.) ;
#432=FACE_OUTER_BOUND('',#423,.T.) ;
#40=LINE('Line',#37,#39) ;
#49=LINE('Line',#46,#48) ;
#56=LINE('Line',#53,#55) ;
#63=LINE('Line',#60,#62) ;
#80=LINE('Line',#77,#79) ;
#87=LINE('Line',#84,#86) ;
#94=LINE('Line',#91,#93) ;
#111=LINE('Line',#108,#110) ;
#118=LINE('Line',#115,#117) ;
#125=LINE('Line',#122,#124) ;
#142=LINE('Line',#139,#141) ;
#149=LINE('Line',#146,#148) ;
#156=LINE('Line',#153,#155) ;
#173=LINE('Line',#170,#172) ;
#180=LINE('Line',#177,#179) ;
#187=LINE('Line',#184,#186) ;
#204=LINE('Line',#201,#203) ;
#211=LINE('Line',#208,#210) ;
#218=LINE('Line',#215,#217) ;
#235=LINE('Line',#232,#234) ;
#242=LINE('Line',#239,#241) ;
#249=LINE('Line',#246,#248) ;
#266=LINE('Line',#263,#265) ;
#271=LINE('Line',#268,#270) ;
#297=LINE('Line',#294,#296) ;
#311=LINE('Line',#308,#310) ;
#354=LINE('Line',#351,#353) ;
#368=LINE('Line',#365,#367) ;
#36=PLANE('',#35) ;
#76=PLANE('',#75) ;
#107=PLANE('',#106) ;
#138=PLANE('',#137) ;
#169=PLANE('',#168) ;
#200=PLANE('',#199) ;
#231=PLANE('',#230) ;
#262=PLANE('',#261) ;
#398=PLANE('',#397) ;
#422=PLANE('',#421) ;
#14=PLANE_ANGLE_MEASURE_WITH_UNIT(PLANE_ANGLE_MEASURE(0.0174532925199),#13) ;
#9=PRODUCT_CATEGORY_RELATIONSHIP(' ',' ',#7,#8) ;
#6=PRODUCT_DEFINITION_FORMATION_WITH_SPECIFIED_SOURCE('',' ',#5,.NOT_KNOWN.) ;
#21=SHAPE_DEFINITION_REPRESENTATION(#11,#20) ;
#42=VERTEX_POINT('',#41) ;
#44=VERTEX_POINT('',#43) ;
#51=VERTEX_POINT('',#50) ;
#58=VERTEX_POINT('',#57) ;
#82=VERTEX_POINT('',#81) ;
#89=VERTEX_POINT('',#88) ;
#113=VERTEX_POINT('',#112) ;
#120=VERTEX_POINT('',#119) ;
#144=VERTEX_POINT('',#143) ;
#151=VERTEX_POINT('',#150) ;
#175=VERTEX_POINT('',#174) ;
#182=VERTEX_POINT('',#181) ;
#206=VERTEX_POINT('',#205) ;
#213=VERTEX_POINT('',#212) ;
#237=VERTEX_POINT('',#236) ;
#244=VERTEX_POINT('',#243) ;
#290=VERTEX_POINT('',#289) ;
#292=VERTEX_POINT('',#291) ;
#299=VERTEX_POINT('',#298) ;
#306=VERTEX_POINT('',#305) ;
#347=VERTEX_POINT('',#346) ;
#349=VERTEX_POINT('',#348) ;
#356=VERTEX_POINT('',#355) ;
#363=VERTEX_POINT('',#362) ;
#12=(LENGTH_UNIT()NAMED_UNIT(*)SI_UNIT(.MILLI.,.METRE.)) ;
#13=(NAMED_UNIT(*)PLANE_ANGLE_UNIT()SI_UNIT($,.RADIAN.)) ;
#15=(NAMED_UNIT(*)SI_UNIT($,.STERADIAN.)SOLID_ANGLE_UNIT()) ;
#17=(GEOMETRIC_REPRESENTATION_CONTEXT(3)GLOBAL_UNCERTAINTY_ASSIGNED_CONTEXT((#16))GLOBAL_UNIT_ASSIGNED_CONTEXT((#12,#13,#15))REPRESENTATION_CONTEXT(' ',' ')) ;
ENDSEC;
END-ISO-10303-21;
