  0
SECTION
  2
HEADER
  9
$ACADVER
  1
AC1009
  9
$INSBASE
 10
0.0
 20
0.0
 30
0.0
  9
$EXTMIN
 10
0.237099
 20
0.237999
 30
0.0
  9
$EXTMAX
 10
392.237099
 20
262.737999
 30
0.0
  9
$LIMMIN
 10
0.0
 20
0.0
  9
$LIMMAX
 10
12.0
 20
9.0
  9
$ORTHOMODE
 70
     1
  9
$REGENMODE
 70
     1
  9
$FILLMODE
 70
     1
  9
$QTEXTMODE
 70
     0
  9
$MIRRTEXT
 70
     1
  9
$DRAGMODE
 70
     2
  9
$LTSCALE
 40
5.0
  9
$OSMODE
 70
     0
  9
$ATTMODE
 70
     1
  9
$TEXTSIZE
 40
2.0
  9
$TRACEWID
 40
0.05
  9
$TEXTSTYLE
  7
STANDARD
  9
$CLAYER
  8
0
  9
$CELTYPE
  6
DASHED
  9
$CECOLOR
 62
   256
  9
$DIMSCALE
 40
1.0
  9
$DIMASZ
 40
0.18
  9
$DIMEXO
 40
0.0625
  9
$DIMDLI
 40
0.38
  9
$DIMRND
 40
0.0
  9
$DIMDLE
 40
0.0
  9
$DIMEXE
 40
0.18
  9
$DIMTP
 40
0.0
  9
$DIMTM
 40
0.0
  9
$DIMTXT
 40
0.18
  9
$DIMCEN
 40
0.09
  9
$DIMTSZ
 40
0.0
  9
$DIMTOL
 70
     0
  9
$DIMLIM
 70
     0
  9
$DIMTIH
 70
     1
  9
$DIMTOH
 70
     1
  9
$DIMSE1
 70
     0
  9
$DIMSE2
 70
     0
  9
$DIMTAD
 70
     0
  9
$DIMZIN
 70
     0
  9
$DIMBLK
  1

  9
$DIMASO
 70
     1
  9
$DIMSHO
 70
     1
  9
$DIMPOST
  1

  9
$DIMAPOST
  1

  9
$DIMALT
 70
     0
  9
$DIMALTD
 70
     2
  9
$DIMALTF
 40
25.4
  9
$DIMLFAC
 40
1.0
  9
$DIMTOFL
 70
     0
  9
$DIMTVP
 40
0.0
  9
$DIMTIX
 70
     0
  9
$DIMSOXD
 70
     0
  9
$DIMSAH
 70
     0
  9
$DIMBLK1
  1

  9
$DIMBLK2
  1

  9
$DIMSTYLE
  2
*UNNAMED
  9
$DIMCLRD
 70
     0
  9
$DIMCLRE
 70
     0
  9
$DIMCLRT
 70
     0
  9
$DIMTFAC
 40
1.0
  9
$DIMGAP
 40
0.09
  9
$LUNITS
 70
     2
  9
$LUPREC
 70
     4
  9
$SKETCHINC
 40
0.1
  9
$FILLETRAD
 40
0.0
  9
$AUNITS
 70
     0
  9
$AUPREC
 70
     0
  9
$MENU
  1
acad
  9
$ELEVATION
 40
0.0
  9
$PELEVATION
 40
0.0
  9
$THICKNESS
 40
0.0
  9
$LIMCHECK
 70
     0
  9
$BLIPMODE
 70
     1
  9
$CHAMFERA
 40
0.0
  9
$CHAMFERB
 40
0.0
  9
$SKPOLY
 70
     0
  9
$TDCREATE
 40
2448859.453412384
  9
$TDUPDATE
 40
2449018.792356712
  9
$TDINDWG
 40
0.0047677083
  9
$TDUSRTIMER
 40
0.0047677083
  9
$USRTIMER
 70
     1
  9
$ANGBASE
 50
0.0
  9
$ANGDIR
 70
     0
  9
$PDMODE
 70
     0
  9
$PDSIZE
 40
0.0
  9
$PLINEWID
 40
0.0
  9
$COORDS
 70
     2
  9
$SPLFRAME
 70
     0
  9
$SPLINETYPE
 70
     6
  9
$SPLINESEGS
 70
     8
  9
$ATTDIA
 70
     0
  9
$ATTREQ
 70
     1
  9
$HANDLING
 70
     0
  9
$HANDSEED
  5
0
  9
$SURFTAB1
 70
   250
  9
$SURFTAB2
 70
   250
  9
$SURFTYPE
 70
     6
  9
$SURFU
 70
     6
  9
$SURFV
 70
     6
  9
$UCSNAME
  2

  9
$UCSORG
 10
0.0
 20
0.0
 30
0.0
  9
$UCSXDIR
 10
1.0
 20
0.0
 30
0.0
  9
$UCSYDIR
 10
0.0
 20
1.0
 30
0.0
  9
$PUCSNAME
  2

  9
$PUCSORG
 10
0.0
 20
0.0
 30
0.0
  9
$PUCSXDIR
 10
1.0
 20
0.0
 30
0.0
  9
$PUCSYDIR
 10
0.0
 20
1.0
 30
0.0
  9
$USERI1
 70
     0
  9
$USERI2
 70
     0
  9
$USERI3
 70
     0
  9
$USERI4
 70
     0
  9
$USERI5
 70
     0
  9
$USERR1
 40
0.0
  9
$USERR2
 40
0.0
  9
$USERR3
 40
0.0
  9
$USERR4
 40
0.0
  9
$USERR5
 40
0.0
  9
$WORLDVIEW
 70
     1
  9
$SHADEDGE
 70
     3
  9
$SHADEDIF
 70
    70
  9
$TILEMODE
 70
     1
  9
$MAXACTVP
 70
    16
  9
$PINSBASE
 10
0.0
 20
0.0
 30
0.0
  9
$PLIMCHECK
 70
     0
  9
$PEXTMIN
 10
1.000000E+20
 20
1.000000E+20
 30
1.000000E+20
  9
$PEXTMAX
 10
-1.000000E+20
 20
-1.000000E+20
 30
-1.000000E+20
  9
$PLIMMIN
 10
0.0
 20
0.0
  9
$PLIMMAX
 10
12.0
 20
9.0
  9
$UNITMODE
 70
     0
  9
$VISRETAIN
 70
     0
  9
$PLINEGEN
 70
     0
  9
$PSLTSCALE
 70
     0
  9
$TREEDEPTH
 70
  3020
  9
$DWGCODEPAGE
  3
undefined
  0
ENDSEC
  0
SECTION
  2
TABLES
  0
TABLE
  2
VPORT
 70
     2
  0
VPORT
  2
*ACTIVE
 70
     0
 10
0.0
 20
0.0
 11
1.0
 21
1.0
 12
222.522843
 22
142.040485
 13
0.0
 23
0.0
 14
2.5
 24
2.5
 15
0.0
 25
0.0
 16
0.0
 26
0.0
 36
1.0
 17
0.0
 27
0.0
 37
0.0
 40
284.080971
 41
1.566616
 42
50.0
 43
0.0
 44
0.0
 50
0.0
 51
0.0
 71
     0
 72
   100
 73
     1
 74
     1
 75
     1
 76
     0
 77
     0
 78
     0
  0
ENDTAB
  0
TABLE
  2
LTYPE
 70
     4
  0
LTYPE
  2
CONTINUOUS
 70
    64
  3
Solid line
 72
    65
 73
     0
 40
0.0
  0
LTYPE
  2
DASHED
 70
    64
  3
__ __ __ __ __ __ __ __ __ __ __ __ __ __ __ __
 72
    65
 73
     2
 40
0.75
 49
0.5
 49
-0.25
  0
LTYPE
  2
CENTER
 70
    64
  3
____ _ ____ _ ____ _ ____ _ ____ _ ____ _ ____ 
 72
    65
 73
     4
 40
2.0
 49
1.25
 49
-0.25
 49
0.25
 49
-0.25
  0
LTYPE
  2
HIDDEN
 70
    64
  3
__ __ __ __ __ __ __ __ __ __ __ __ __ __ __ __
 72
    65
 73
     2
 40
0.375
 49
0.25
 49
-0.125
  0
ENDTAB
  0
TABLE
  2
LAYER
 70
    13
  0
LAYER
  2
0
 70
    64
 62
     7
  6
CONTINUOUS
  0
LAYER
  2
RAAMI
 70
    64
 62
    -4
  6
CONTINUOUS
  0
LAYER
  2
PAKSU
 70
    64
 62
    -3
  6
CONTINUOUS
  0
LAYER
  2
OHUT
 70
    64
 62
    -6
  6
CONTINUOUS
  0
LAYER
  2
SWEDEN
 70
    64
 62
    -7
  6
CONTINUOUS
  0
LAYER
  2
SWEDEN2
 70
    64
 62
    -5
  6
CONTINUOUS
  0
LAYER
  2
BASE
 70
    64
 62
    -7
  6
CONTINUOUS
  0
LAYER
  2
21
 70
    64
 62
    -2
  6
CONTINUOUS
  0
LAYER
  2
HEL035
 70
    64
 62
    -7
  6
CONTINUOUS
  0
LAYER
  2
MUO
 70
    64
 62
    -7
  6
CONTINUOUS
  0
LAYER
  2
1
 70
    64
 62
    -2
  6
CONTINUOUS
  0
LAYER
  2
BASE1
 70
    64
 62
    -1
  6
CONTINUOUS
  0
LAYER
  2
TEKS
 70
    64
 62
    -5
  6
CONTINUOUS
  0
ENDTAB
  0
TABLE
  2
STYLE
 70
     3
  0
STYLE
  2
STANDARD
 70
    64
 40
0.0
 41
1.0
 50
0.0
 71
     0
 42
2.0
  3
txt
  4

  0
STYLE
  2
ROMANS
 70
    64
 40
2.5
 41
1.0
 50
0.0
 71
     0
 42
2.5
  3
romans
  4

  0
STYLE
  2
GREEKS
 70
    64
 40
0.0
 41
1.0
 50
0.0
 71
     0
 42
3.0
  3
TXT
  4

  0
ENDTAB
  0
TABLE
  2
VIEW
 70
     0
  0
ENDTAB
  0
TABLE
  2
UCS
 70
     0
  0
ENDTAB
  0
TABLE
  2
APPID
 70
     1
  0
APPID
  2
ACAD
 70
    64
  0
ENDTAB
  0
TABLE
  2
DIMSTYLE
 70
     0
  0
ENDTAB
  0
ENDSEC
  0
SECTION
  2
BLOCKS
  0
BLOCK
  8
0
  2
1
 70
    64
 10
0.0
 20
0.0
 30
0.0
  3
1
  0
ENDBLK
  8
0
  0
BLOCK
  8
0
  2
BLC16
 70
     0
 10
0.0
 20
0.0
 30
0.0
  3
BLC16
  0
LINE
  8
0
  6
CONTINUOUS
 10
0.007689
 20
38.054928
 30
0.0
 11
19.983683
 21
38.054928
 31
0.0
  0
LINE
  8
0
  6
CONTINUOUS
 10
19.983683
 20
38.054928
 30
0.0
 11
19.983683
 21
-0.003751
 31
0.0
  0
LINE
  8
0
  6
CONTINUOUS
 10
19.983683
 20
-0.003751
 30
0.0
 11
0.007689
 21
-0.003751
 31
0.0
  0
LINE
  8
0
  6
CONTINUOUS
 10
0.007689
 20
-0.003751
 30
0.0
 11
0.007689
 21
38.054928
 31
0.0
  0
LINE
  8
0
  6
CONTINUOUS
 10
14.152643
 20
36.919738
 30
0.0
 11
14.152643
 21
33.528469
 31
0.0
  0
LINE
  8
0
  6
CONTINUOUS
 10
14.152643
 20
33.528469
 30
0.0
 11
11.560435
 21
33.528469
 31
0.0
  0
LINE
  8
0
  6
CONTINUOUS
 10
11.560435
 20
33.528469
 30
0.0
 11
11.560435
 21
30.778433
 31
0.0
  0
LINE
  8
0
  6
CONTINUOUS
 10
11.560435
 20
30.778433
 30
0.0
 11
14.152643
 21
30.778433
 31
0.0
  0
LINE
  8
0
  6
CONTINUOUS
 10
14.152643
 20
30.778433
 30
0.0
 11
14.152643
 21
27.387164
 31
0.0
  0
TEXT
  8
0
  6
CONTINUOUS
 10
6.558569
 20
30.805266
 30
0.0
 40
2.5
  1
2
 11
6.558569
 21
29.971932
 31
0.0
 73
     1
  0
TEXT
  8
0
  6
CONTINUOUS
 10
6.553289
 20
23.854078
 30
0.0
 40
2.5
  1
2 I
 11
6.553289
 21
23.020744
 31
0.0
 73
     1
  0
LINE
  8
0
  6
CONTINUOUS
 10
12.942534
 20
26.359129
 30
0.0
 11
15.288299
 21
25.023775
 31
0.0
  0
LINE
  8
0
  6
CONTINUOUS
 10
15.288299
 20
25.023775
 30
0.0
 11
12.942534
 21
23.833856
 31
0.0
  0
LINE
  8
0
  6
CONTINUOUS
 10
14.169823
 20
26.359129
 30
0.0
 11
16.515589
 21
25.023775
 31
0.0
  0
LINE
  8
0
  6
CONTINUOUS
 10
16.515589
 20
25.023775
 30
0.0
 11
14.169823
 21
23.833856
 31
0.0
  0
TEXT
  8
0
  6
CONTINUOUS
 10
11.566446
 20
19.235679
 30
0.0
 40
2.5
  1
I
 11
11.566446
 21
18.402346
 31
0.0
 73
     1
  0
TEXT
  8
0
  6
CONTINUOUS
 10
13.018181
 20
18.902346
 30
0.0
 40
1.5
  1
2
 11
13.018181
 21
18.402346
 31
0.0
 73
     1
  0
LINE
  8
0
  6
CONTINUOUS
 10
10.65733
 20
12.773825
 30
0.0
 11
13.003095
 21
13.963744
 31
0.0
  0
LINE
  8
0
  6
CONTINUOUS
 10
13.003095
 20
11.438471
 30
0.0
 11
10.65733
 21
12.773825
 31
0.0
  0
LINE
  8
0
  6
CONTINUOUS
 10
6.557002
 20
16.714658
 30
0.0
 11
15.281743
 21
16.714658
 31
0.0
  0
LINE
  8
0
  6
CONTINUOUS
 10
6.557002
 20
17.523984
 30
0.0
 11
6.557002
 21
15.908791
 31
0.0
  0
LINE
  8
0
  6
CONTINUOUS
 10
15.286518
 20
17.523984
 30
0.0
 11
15.286518
 21
15.908791
 31
0.0
  0
ARC
  8
0
  6
CONTINUOUS
 10
12.684846
 20
18.508045
 30
0.0
 40
2.922744
 50
193.105513
 51
283.105513
  0
TEXT
  8
0
  6
CONTINUOUS
 10
6.557002
 20
11.567974
 30
0.0
 40
2.5
  1
2I
 11
6.557002
 21
10.734641
 31
0.0
 73
     1
  0
LINE
  8
0
  6
CONTINUOUS
 10
6.557002
 20
9.441103
 30
0.0
 11
15.281743
 21
9.441103
 31
0.0
  0
LINE
  8
0
  6
CONTINUOUS
 10
15.286518
 20
10.250429
 30
0.0
 11
15.286518
 21
8.635236
 31
0.0
  0
LINE
  8
0
  6
CONTINUOUS
 10
6.557002
 20
10.250429
 30
0.0
 11
6.557002
 21
8.635236
 31
0.0
  0
TEXT
  8
0
  6
CONTINUOUS
 10
6.557002
 20
4.778631
 30
0.0
 40
2.5
  1
I
 11
6.557002
 21
3.945298
 31
0.0
 73
     1
  0
LINE
  8
0
  6
CONTINUOUS
 10
9.509029
 20
6.822462
 30
0.0
 11
9.509029
 21
5.477736
 31
0.0
  0
LINE
  8
0
  6
CONTINUOUS
 10
8.615065
 20
5.477736
 30
0.0
 11
9.52622
 21
5.477736
 31
0.0
  0
LINE
  8
0
  6
CONTINUOUS
 10
9.509029
 20
5.477736
 30
0.0
 11
10.402992
 21
5.477736
 31
0.0
  0
LINE
  8
0
  6
CONTINUOUS
 10
8.901592
 20
5.082328
 30
0.0
 11
9.509029
 21
5.082328
 31
0.0
  0
LINE
  8
0
  6
CONTINUOUS
 10
9.509029
 20
5.082328
 30
0.0
 11
10.150849
 21
5.082328
 31
0.0
  0
LINE
  8
0
  6
CONTINUOUS
 10
9.981861
 20
4.719969
 30
0.0
 11
9.072041
 21
4.719969
 31
0.0
  0
LINE
  8
0
  6
CONTINUOUS
 10
15.286518
 20
2.797924
 30
0.0
 11
15.286518
 21
1.182731
 31
0.0
  0
LINE
  8
0
  6
CONTINUOUS
 10
6.557002
 20
1.988598
 30
0.0
 11
15.281743
 21
1.988598
 31
0.0
  0
LINE
  8
0
  6
CONTINUOUS
 10
6.557002
 20
2.797924
 30
0.0
 11
6.557002
 21
1.182731
 31
0.0
  0
ENDBLK
  8
0
  0
BLOCK
  8
0
  2
BLC27
 70
     0
 10
0.0
 20
0.0
 30
0.0
  3
BLC27
  0
INSERT
  8
SWEDEN2
  6
CENTER
  2
BLC26
 10
0.08063
 20
0.037985
 30
0.0
 41
1.006225
 42
1.006225
 43
1.006225
  0
ENDBLK
  8
0
  0
BLOCK
  8
0
  2
BLC26
 70
    64
 10
0.0
 20
0.0
 30
0.0
  3
BLC26
  0
ARC
  8
0
  6
CONTINUOUS
 10
-0.180576
 20
1.17922
 30
0.0
 40
1.196859
 50
90.0
 51
265.706237
  0
LINE
  8
0
  6
CONTINUOUS
 10
-0.186638
 20
-0.01092
 30
0.0
 11
0.458942
 21
-0.01092
 31
0.0
  0
LINE
  8
0
  6
CONTINUOUS
 10
-0.186638
 20
2.375671
 30
0.0
 11
0.45288
 21
2.375671
 31
0.0
  0
LINE
  8
0
  6
CONTINUOUS
 10
-0.185509
 20
-2.404629
 30
0.0
 11
0.460071
 21
-2.404629
 31
0.0
  0
ARC
  8
0
  6
CONTINUOUS
 10
-0.180576
 20
-1.207779
 30
0.0
 40
1.196859
 50
90.0
 51
270.0
  0
LINE
  8
0
  6
CONTINUOUS
 10
0.451525
 20
-2.404586
 30
0.0
 11
1.401805
 21
-2.404586
 31
0.0
  0
LINE
  8
0
  6
CONTINUOUS
 10
0.446785
 20
2.375674
 30
0.0
 11
1.418544
 21
2.375674
 31
0.0
  0
LINE
  8
0
  6
CONTINUOUS
 10
0.456627
 20
-0.010911
 30
0.0
 11
1.422749
 21
-0.010911
 31
0.0
  0
ENDBLK
  8
0
  0
BLOCK
  8
0
  2
BLC28
 70
     0
 10
0.0
 20
0.0
 30
0.0
  3
BLC28
  0
LINE
  8
0
  6
CONTINUOUS
 10
0.484576
 20
2.400948
 30
0.0
 11
1.456712
 21
2.400948
 31
0.0
  0
LINE
  8
0
  6
CONTINUOUS
 10
0.474673
 20
4.802388
 30
0.0
 11
1.452481
 21
4.802388
 31
0.0
  0
LINE
  8
0
  6
CONTINUOUS
 10
0.479442
 20
-0.007627
 30
0.0
 11
1.435637
 21
-0.007627
 31
0.0
  0
ARC
  8
0
  6
CONTINUOUS
 10
-0.156593
 20
1.19663
 30
0.0
 40
1.204309
 50
90.0
 51
270.0
  0
LINE
  8
0
  6
CONTINUOUS
 10
-0.161557
 20
-0.007671
 30
0.0
 11
0.488041
 21
-0.007671
 31
0.0
  0
LINE
  8
0
  6
CONTINUOUS
 10
-0.162693
 20
4.802386
 30
0.0
 11
0.480806
 21
4.802386
 31
0.0
  0
LINE
  8
0
  6
CONTINUOUS
 10
-0.162693
 20
2.400939
 30
0.0
 11
0.486905
 21
2.400939
 31
0.0
  0
ARC
  8
0
  6
CONTINUOUS
 10
-0.156593
 20
3.598487
 30
0.0
 40
1.204309
 50
90.0
 51
265.706237
  0
LINE
  8
0
  6
CONTINUOUS
 10
0.484576
 20
-2.362961
 30
0.0
 11
1.456712
 21
-2.362961
 31
0.0
  0
LINE
  8
0
  6
CONTINUOUS
 10
0.479442
 20
-4.771537
 30
0.0
 11
1.435637
 21
-4.771537
 31
0.0
  0
ARC
  8
0
  6
CONTINUOUS
 10
-0.156593
 20
-3.567279
 30
0.0
 40
1.204309
 50
90.0
 51
270.0
  0
LINE
  8
0
  6
CONTINUOUS
 10
-0.161557
 20
-4.77158
 30
0.0
 11
0.488041
 21
-4.77158
 31
0.0
  0
LINE
  8
0
  6
CONTINUOUS
 10
-0.162693
 20
-2.36297
 30
0.0
 11
0.486905
 21
-2.36297
 31
0.0
  0
ARC
  8
0
  6
CONTINUOUS
 10
-0.156593
 20
-1.165422
 30
0.0
 40
1.204309
 50
101.28465
 51
265.706237
  0
ENDBLK
  8
0
  0
BLOCK
  8
0
  2
BLC22
 70
     0
 10
0.0
 20
0.0
 30
0.0
  3
BLC22
  0
LINE
  8
HEL035
 10
0.0
 20
-0.00155
 30
0.0
 11
0.0
 21
9.99845
 31
0.0
  0
LINE
  8
21
 10
2.5
 20
10.0
 30
0.0
 11
5.0
 21
10.0
 31
0.0
  0
LINE
  8
HEL035
 10
0.0
 20
9.99845
 30
0.0
 11
2.5
 21
9.99845
 31
0.0
  0
LINE
  8
HEL035
 10
-2.5
 20
5.0
 30
0.0
 11
2.5
 21
5.0
 31
0.0
  0
LINE
  8
21
 10
2.5
 20
5.0
 30
0.0
 11
5.0
 21
5.0
 31
0.0
  0
LINE
  8
21
 10
5.0
 20
5.0
 30
0.0
 11
5.0
 21
7.9
 31
0.0
  0
LINE
  8
HEL035
 10
3.88095
 20
6.944425
 30
0.0
 11
4.560313
 21
6.008681
 31
0.0
  0
LINE
  8
21
 10
10.0
 20
10.0
 30
0.0
 11
4.2
 21
6.5
 31
0.0
  0
LINE
  8
HEL035
 10
2.5
 20
-0.00155
 30
0.0
 11
0.0
 21
-0.00155
 31
0.0
  0
LINE
  8
21
 10
2.5
 20
0.0
 30
0.0
 11
5.0
 21
0.0
 31
0.0
  0
ENDBLK
  8
0
  0
BLOCK
  8
0
  2
BLC18
 70
     0
 10
0.0
 20
0.0
 30
0.0
  3
BLC18
  0
LINE
  8
MUO
 10
-0.056268
 20
0.849555
 30
0.0
 11
8.307242
 21
9.215502
 31
0.0
  0
LINE
  8
MUO
 10
0.928025
 20
-0.107047
 30
0.0
 11
9.268386
 21
8.2307
 31
0.0
  0
LINE
  8
MUO
 10
-0.056268
 20
-0.107047
 30
0.0
 11
-0.056268
 21
9.215502
 31
0.0
  0
LINE
  8
MUO
 10
9.268386
 20
-0.107047
 30
0.0
 11
-0.056268
 21
-0.107047
 31
0.0
  0
LINE
  8
MUO
 10
9.268386
 20
9.215502
 30
0.0
 11
9.268386
 21
-0.107047
 31
0.0
  0
LINE
  8
MUO
 10
-0.056268
 20
9.215502
 30
0.0
 11
9.268386
 21
9.215502
 31
0.0
  0
ENDBLK
  8
0
  0
BLOCK
  8
0
  2
BLC29
 70
    64
 10
0.0
 20
0.0
 30
0.0
  3
BLC29
  0
LINE
  8
0
  6
CONTINUOUS
 10
0.004865
 20
1.206889
 30
0.0
 11
2.350631
 21
-0.128465
 31
0.0
  0
LINE
  8
0
  6
CONTINUOUS
 10
2.350631
 20
-0.128465
 30
0.0
 11
0.004865
 21
-1.318384
 31
0.0
  0
ENDBLK
  8
0
  0
BLOCK
  8
0
  2
WKU130
 70
    64
 10
190.0
 20
250.0
 30
0.0
  3
WKU130
  0
ARC
  8
21
 10
191.083333
 20
249.916667
 30
0.0
 40
1.086534
 50
32.471192
 51
175.601295
  0
ARC
  8
21
 10
192.916667
 20
251.083333
 30
0.0
 40
1.086534
 50
212.471192
 51
355.601295
  0
ENDBLK
  8
0
  0
BLOCK
  8
0
  2
BLC15
 70
    64
 10
0.0
 20
0.0
 30
0.0
  3
BLC15
  0
LINE
  8
0
  6
CONTINUOUS
 10
0.142084
 20
3.490022
 30
0.0
 11
0.142084
 21
0.844365
 31
0.0
  0
LINE
  8
0
  6
CONTINUOUS
 10
-0.461611
 20
-0.937188
 30
0.0
 11
0.745779
 21
-0.937188
 31
0.0
  0
LINE
  8
0
  6
CONTINUOUS
 10
-0.894108
 20
-0.049675
 30
0.0
 11
1.169267
 21
-0.049675
 31
0.0
  0
LINE
  8
0
  6
CONTINUOUS
 10
-1.389679
 20
0.844365
 30
0.0
 11
1.673848
 21
0.844365
 31
0.0
  0
ENDBLK
  8
0
  0
BLOCK
  8
0
  2
BLC5
 70
     0
 10
0.0
 20
0.0
 30
0.0
  3
BLC5
  0
TEXT
  8
0
 10
-3.043704
 20
-6.645912
 30
0.0
 40
3.2
  1
PE
  0
LINE
  8
0
 10
-2.946392
 20
1.181176
 30
0.0
 11
2.135458
 21
1.181176
 31
0.0
  0
LINE
  8
0
 10
-0.48656
 20
2.238362
 30
0.0
 11
-0.48656
 21
6.930438
 31
0.0
  0
LINE
  8
0
 10
-1.973271
 20
0.065258
 30
0.0
 11
1.225411
 21
0.065258
 31
0.0
  0
LINE
  8
0
 10
2.685091
 20
2.238362
 30
0.0
 11
1.68494
 21
2.238362
 31
0.0
  0
LINE
  8
0
 10
-3.505035
 20
2.238362
 30
0.0
 11
2.649049
 21
2.238362
 31
0.0
  0
CIRCLE
  8
0
 10
-0.47755
 20
1.422632
 30
0.0
 40
3.804563
  0
ENDBLK
  8
0
  0
BLOCK
  8
0
  2
BLC43
 70
    64
 10
0.0
 20
0.0
 30
0.0
  3
BLC43
  0
TEXT
  8
SWEDEN2
  6
CONTINUOUS
 10
-0.646672
 20
-0.986365
 30
0.0
 40
2.0
  1
+
  0
ENDBLK
  8
0
  0
BLOCK
  8
0
  2
BLC42
 70
    64
 10
0.0
 20
0.0
 30
0.0
  3
BLC42
  0
TEXT
  8
SWEDEN2
  6
CONTINUOUS
 10
-0.655237
 20
-0.99442
 30
0.0
 40
2.0
  1
-
  0
ENDBLK
  8
0
  0
BLOCK
  8
0
  2
BLC44
 70
    64
 10
0.0
 20
0.0
 30
0.0
  3
BLC44
  0
LINE
  8
HEL035
 10
-2.520993
 20
1.697877
 30
0.0
 11
1.479007
 21
1.697877
 31
0.0
  0
INSERT
  8
HEL035
  2
WKU130
 10
-2.181043
 20
-0.027675
 30
0.0
 41
0.8
 42
0.8
 43
0.8
  0
ENDBLK
  8
0
  0
BLOCK
  8
0
  2
BLC25
 70
     0
 10
0.0
 20
0.0
 30
0.0
  3
BLC25
  0
TEXT
  8
0
  6
CONTINUOUS
 10
2.0
 20
30.666667
 30
0.0
 40
2.0
  1
1)
 11
2.0
 21
30.0
 31
0.0
 73
     1
  0
TEXT
  8
0
 10
6.0
 20
2.0
 30
0.0
 40
2.0
  1
7B    27     26
 11
6.0
 21
1.333333
 31
0.0
 73
     1
  0
TEXT
  8
0
 10
6.0
 20
5.333333
 30
0.0
 40
2.0
  1
5B     9      8
 11
6.0
 21
4.666667
 31
0.0
 73
     1
  0
TEXT
  8
0
 10
6.0
 20
8.666667
 30
0.0
 40
2.0
  1
3B     3      2
 11
6.0
 21
8.0
 31
0.0
 73
     1
  0
TEXT
  8
0
 10
32.0
 20
12.666667
 30
0.0
 40
2.0
  1
In=5A
 11
32.0
 21
12.0
 31
0.0
 73
     1
  0
TEXT
  8
0
 10
16.0
 20
12.666667
 30
0.0
 40
2.0
  1
In=1A 
 11
16.0
 21
12.0
 31
0.0
 73
     1
  0
TEXT
  8
0
 10
26.0
 20
18.666667
 30
0.0
 40
2.0
  1
108:
 11
26.0
 21
18.0
 31
0.0
 73
     1
  0
TEXT
  8
0
 10
6.0
 20
18.666667
 30
0.0
 40
2.0
  1
101:       
 11
6.0
 21
18.0
 31
0.0
 73
     1
  0
TEXT
  8
0
 10
6.0
 20
24.666667
 30
0.0
 40
2.0
  1
TERMINALS / UTTAG
 11
6.0
 21
24.0
 31
0.0
 73
     1
  0
LINE
  8
0
 10
0.0
 20
12.0
 30
0.0
 11
44.0
 21
12.0
 31
0.0
  0
LINE
  8
0
 10
28.0
 20
18.0
 30
0.0
 11
28.0
 21
0.0
 31
0.0
  0
LINE
  8
0
 10
14.0
 20
18.0
 30
0.0
 11
44.0
 21
18.0
 31
0.0
  0
LINE
  8
0
 10
14.0
 20
24.0
 30
0.0
 11
14.0
 21
0.0
 31
0.0
  0
LINE
  8
0
 10
0.0
 20
24.0
 30
0.0
 11
44.0
 21
24.0
 31
0.0
  0
LINE
  8
0
 10
44.0
 20
0.0
 30
0.0
 11
44.0
 21
30.0
 31
0.0
  0
LINE
  8
0
 10
0.0
 20
0.0
 30
0.0
 11
44.0
 21
0.0
 31
0.0
  0
LINE
  8
0
 10
0.0
 20
30.0
 30
0.0
 11
0.0
 21
0.0
 31
0.0
  0
LINE
  8
0
 10
44.0
 20
30.0
 30
0.0
 11
0.0
 21
30.0
 31
0.0
  0
ENDBLK
  8
0
  0
BLOCK
  8
0
  2
ABBA3V
 70
    64
 10
0.0
 20
0.0
 30
0.0
  3
ABBA3V
  0
TEXT
  8
RAAMI
  6
DASHED
 10
292.217194
 20
11.813359
 30
0.0
 40
3.0
  1
A3
  7
GREEKS
  0
TEXT
  8
RAAMI
  6
DASHED
 10
351.818577
 20
15.69253
 30
0.0
 40
1.4
  1
LEHTI SHEET
  7
GREEKS
  0
LINE
  8
PAKSU
 10
0.237099
 20
262.737999
 30
0.0
 11
392.237099
 21
262.737999
 31
0.0
  0
LINE
  8
RAAMI
 10
18.237099
 20
0.237999
 30
0.0
 11
0.237099
 21
0.237999
 31
0.0
  0
LINE
  8
PAKSU
 10
209.237099
 20
0.237999
 30
0.0
 11
392.237099
 21
0.237999
 31
0.0
  0
LINE
  8
PAKSU
 10
209.237099
 20
0.237999
 30
0.0
 11
209.237099
 21
35.237999
 31
0.0
  0
LINE
  8
PAKSU
 10
392.237099
 20
0.237999
 30
0.0
 11
392.237099
 21
35.237999
 31
0.0
  0
LINE
  8
OHUT
 10
209.237099
 20
18.237999
 30
0.0
 11
392.237099
 21
18.237999
 31
0.0
  0
LINE
  8
OHUT
 10
209.237099
 20
9.737999
 30
0.0
 11
392.237099
 21
9.737999
 31
0.0
  0
LINE
  8
OHUT
 10
209.237099
 20
26.737999
 30
0.0
 11
307.237099
 21
26.737999
 31
0.0
  0
LINE
  8
PAKSU
 10
209.237099
 20
35.237999
 30
0.0
 11
392.237099
 21
35.237999
 31
0.0
  0
TEXT
  8
RAAMI
 10
210.237099
 20
23.971333
 30
0.0
 40
1.4
  1
TARKASTI  CHECKED
  7
ROMANS
  0
TEXT
  8
RAAMI
 10
209.979934
 20
15.704666
 30
0.0
 40
1.4
  1
HYVÄKSYI  APPROVED
  7
ROMANS
  0
LINE
  8
OHUT
 10
307.237099
 20
0.237999
 30
0.0
 11
307.237099
 21
35.237999
 31
0.0
  0
TEXT
  8
RAAMI
 10
259.237099
 20
32.737999
 30
0.0
 40
1.4
  1
LIITTYY  CONCERNING
  7
ROMANS
  0
TEXT
  8
RAAMI
 10
259.237099
 20
23.737999
 30
0.0
 40
1.4
  1
TOLERANSSIT  TOLERANCES
  7
ROMANS
  0
TEXT
  8
RAAMI
 10
259.237099
 20
15.737999
 30
0.0
 40
1.4
  1
SUHDE  SCALE
  7
ROMANS
  0
TEXT
  8
RAAMI
 10
309.237099
 20
32.737999
 30
0.0
 40
1.4
  1
NIMITYS  NAME
  7
ROMANS
  0
TEXT
  8
RAAMI
 10
309.237099
 20
15.737999
 30
0.0
 40
1.4
  1
KOODI  CODE
  7
ROMANS
  0
TEXT
  8
RAAMI
 10
309.237099
 20
7.237999
 30
0.0
 40
1.4
  1
PIIRUSTUS NO  DRAWING NR
  7
ROMANS
  0
LINE
  8
OHUT
 10
349.737099
 20
9.737999
 30
0.0
 11
349.737099
 21
18.237999
 31
0.0
  0
TEXT
  8
RAAMI
 10
371.237099
 20
7.237999
 30
0.0
 40
1.4
  1
PAINOS  REVISION
  7
ROMANS
  0
LINE
  8
OHUT
 10
369.737099
 20
9.737999
 30
0.0
 11
369.737099
 21
0.237999
 31
0.0
  0
LINE
  8
RAAMI
 10
210.187099
 20
1.737999
 30
0.0
 11
211.937099
 21
1.737999
 31
0.0
  0
LINE
  8
RAAMI
 10
215.437099
 20
1.737999
 30
0.0
 11
217.187099
 21
1.737999
 31
0.0
  0
LINE
  8
RAAMI
 10
212.637099
 20
8.737999
 30
0.0
 11
211.459571
 21
5.373634
 31
0.0
  0
LINE
  8
RAAMI
 10
212.425886
 20
3.137999
 30
0.0
 11
213.547099
 21
3.137999
 31
0.0
  0
LINE
  8
RAAMI
 10
212.425889
 20
3.134542
 30
0.0
 11
211.937099
 21
1.737999
 31
0.0
  0
LINE
  8
RAAMI
 10
214.737099
 20
8.737999
 30
0.0
 11
215.913452
 21
5.376991
 31
0.0
  0
LINE
  8
RAAMI
 10
214.948197
 20
3.134863
 30
0.0
 11
215.437099
 21
1.737999
 31
0.0
  0
LINE
  8
RAAMI
 10
214.737099
 20
8.737999
 30
0.0
 11
213.827099
 21
8.737999
 31
0.0
  0
LINE
  8
RAAMI
 10
213.547099
 20
8.737999
 30
0.0
 11
213.547099
 21
5.377999
 31
0.0
  0
LINE
  8
RAAMI
 10
213.827099
 20
8.737999
 30
0.0
 11
213.827099
 21
5.377999
 31
0.0
  0
LINE
  8
RAAMI
 10
213.827099
 20
3.137999
 30
0.0
 11
214.946992
 21
3.137999
 31
0.0
  0
LINE
  8
RAAMI
 10
213.547099
 20
8.737999
 30
0.0
 11
212.637099
 21
8.737999
 31
0.0
  0
LINE
  8
RAAMI
 10
211.45904
 20
5.377999
 30
0.0
 11
213.547099
 21
5.377999
 31
0.0
  0
LINE
  8
RAAMI
 10
211.360082
 20
5.097999
 30
0.0
 11
213.547099
 21
5.097999
 31
0.0
  0
LINE
  8
RAAMI
 10
216.011591
 20
5.096594
 30
0.0
 11
217.187099
 21
1.737999
 31
0.0
  0
LINE
  8
RAAMI
 10
213.827099
 20
5.377999
 30
0.0
 11
215.912213
 21
5.377999
 31
0.0
  0
LINE
  8
RAAMI
 10
213.827099
 20
5.097999
 30
0.0
 11
216.010356
 21
5.097999
 31
0.0
  0
LINE
  8
RAAMI
 10
213.827099
 20
5.097999
 30
0.0
 11
213.827099
 21
3.137999
 31
0.0
  0
LINE
  8
RAAMI
 10
213.547099
 20
5.097999
 30
0.0
 11
213.547099
 21
3.137999
 31
0.0
  0
LINE
  8
RAAMI
 10
211.356988
 20
5.080538
 30
0.0
 11
210.187099
 21
1.737999
 31
0.0
  0
INSERT
  8
RAAMI
  2
*X16
 10
210.187099
 20
1.737999
 30
0.0
 41
0.7
 42
0.7
 43
0.7
  0
INSERT
  8
RAAMI
  2
*X17
 10
210.187099
 20
1.737999
 30
0.0
 41
0.7
 42
0.7
 43
0.7
  0
INSERT
  8
RAAMI
  2
*X18
 10
210.187099
 20
1.737999
 30
0.0
 41
0.7
 42
0.7
 43
0.7
  0
INSERT
  8
RAAMI
  2
*X19
 10
210.187099
 20
1.737999
 30
0.0
 41
0.7
 42
0.7
 43
0.7
  0
LINE
  8
RAAMI
 10
217.677099
 20
1.737999
 30
0.0
 11
217.677099
 21
5.097999
 31
0.0
  0
LINE
  8
RAAMI
 10
217.677099
 20
8.737999
 30
0.0
 11
219.637099
 21
8.737999
 31
0.0
  0
LINE
  8
RAAMI
 10
219.637099
 20
8.737999
 30
0.0
 11
219.637099
 21
5.377999
 31
0.0
  0
LINE
  8
RAAMI
 10
219.637099
 20
5.377999
 30
0.0
 11
217.677099
 21
5.377999
 31
0.0
  0
LINE
  8
RAAMI
 10
217.677099
 20
5.097999
 30
0.0
 11
219.637099
 21
5.097999
 31
0.0
  0
LINE
  8
RAAMI
 10
219.637099
 20
5.097999
 30
0.0
 11
219.637099
 21
1.737999
 31
0.0
  0
LINE
  8
RAAMI
 10
219.637099
 20
1.737999
 30
0.0
 11
217.677099
 21
1.737999
 31
0.0
  0
LINE
  8
RAAMI
 10
217.677099
 20
5.377999
 30
0.0
 11
217.677099
 21
8.737999
 31
0.0
  0
ARC
  8
RAAMI
 10
220.477099
 20
7.162999
 30
0.0
 40
1.575
 50
298.455859
 51
90.052437
  0
LINE
  8
RAAMI
 10
219.917099
 20
8.737999
 30
0.0
 11
220.475658
 21
8.737999
 31
0.0
  0
LINE
  8
RAAMI
 10
219.917099
 20
8.737999
 30
0.0
 11
219.917099
 21
5.377999
 31
0.0
  0
LINE
  8
RAAMI
 10
219.917099
 20
5.377999
 30
0.0
 11
221.901542
 21
5.377999
 31
0.0
  0
LINE
  8
RAAMI
 10
222.157099
 20
5.097999
 30
0.0
 11
219.917099
 21
5.097999
 31
0.0
  0
LINE
  8
RAAMI
 10
219.917099
 20
5.097999
 30
0.0
 11
219.917099
 21
1.737999
 31
0.0
  0
ARC
  8
RAAMI
 10
220.477099
 20
3.837999
 30
0.0
 40
2.1
 50
269.937724
 51
37.056553
  0
LINE
  8
RAAMI
 10
219.917099
 20
1.737999
 30
0.0
 11
220.474817
 21
1.738
 31
0.0
  0
ARC
  8
RAAMI
 10
220.477099
 20
3.837999
 30
0.0
 40
2.1
 50
47.28622
 51
68.787999
  0
INSERT
  8
RAAMI
  2
*X20
 10
210.187099
 20
1.737999
 30
0.0
 41
0.7
 42
0.7
 43
0.7
  0
INSERT
  8
RAAMI
  2
*X21
 10
210.187099
 20
1.737999
 30
0.0
 41
0.7
 42
0.7
 43
0.7
  0
INSERT
  8
RAAMI
  2
*X22
 10
210.187099
 20
1.737999
 30
0.0
 41
0.7
 42
0.7
 43
0.7
  0
INSERT
  8
RAAMI
  2
*X23
 10
210.187099
 20
1.737999
 30
0.0
 41
0.7
 42
0.7
 43
0.7
  0
INSERT
  8
RAAMI
  2
*X23
 10
215.647099
 20
1.737999
 30
0.0
 41
0.7
 42
0.7
 43
0.7
  0
INSERT
  8
RAAMI
  2
*X22
 10
215.647099
 20
1.737999
 30
0.0
 41
0.7
 42
0.7
 43
0.7
  0
INSERT
  8
RAAMI
  2
*X21
 10
215.647099
 20
1.737999
 30
0.0
 41
0.7
 42
0.7
 43
0.7
  0
INSERT
  8
RAAMI
  2
*X20
 10
215.647099
 20
1.737999
 30
0.0
 41
0.7
 42
0.7
 43
0.7
  0
ARC
  8
RAAMI
 10
225.937099
 20
3.837999
 30
0.0
 40
2.1
 50
47.28622
 51
68.787999
  0
LINE
  8
RAAMI
 10
225.377099
 20
1.737999
 30
0.0
 11
225.934817
 21
1.738
 31
0.0
  0
ARC
  8
RAAMI
 10
225.937099
 20
3.837999
 30
0.0
 40
2.1
 50
269.937724
 51
37.056553
  0
LINE
  8
RAAMI
 10
225.377099
 20
5.097999
 30
0.0
 11
225.377099
 21
1.737999
 31
0.0
  0
LINE
  8
RAAMI
 10
227.617099
 20
5.097999
 30
0.0
 11
225.377099
 21
5.097999
 31
0.0
  0
LINE
  8
RAAMI
 10
225.377099
 20
5.377999
 30
0.0
 11
227.361542
 21
5.377999
 31
0.0
  0
LINE
  8
RAAMI
 10
225.377099
 20
8.737999
 30
0.0
 11
225.377099
 21
5.377999
 31
0.0
  0
LINE
  8
RAAMI
 10
225.377099
 20
8.737999
 30
0.0
 11
225.935658
 21
8.737999
 31
0.0
  0
ARC
  8
RAAMI
 10
225.937099
 20
7.162999
 30
0.0
 40
1.575
 50
298.455859
 51
90.052437
  0
LINE
  8
RAAMI
 10
223.137099
 20
5.377999
 30
0.0
 11
223.137099
 21
8.737999
 31
0.0
  0
LINE
  8
RAAMI
 10
225.097099
 20
1.737999
 30
0.0
 11
223.137099
 21
1.737999
 31
0.0
  0
LINE
  8
RAAMI
 10
225.097099
 20
5.097999
 30
0.0
 11
225.097099
 21
1.737999
 31
0.0
  0
LINE
  8
RAAMI
 10
223.137099
 20
5.097999
 30
0.0
 11
225.097099
 21
5.097999
 31
0.0
  0
LINE
  8
RAAMI
 10
225.097099
 20
5.377999
 30
0.0
 11
223.137099
 21
5.377999
 31
0.0
  0
LINE
  8
RAAMI
 10
225.097099
 20
8.737999
 30
0.0
 11
225.097099
 21
5.377999
 31
0.0
  0
LINE
  8
RAAMI
 10
223.137099
 20
8.737999
 30
0.0
 11
225.097099
 21
8.737999
 31
0.0
  0
LINE
  8
RAAMI
 10
223.137099
 20
1.737999
 30
0.0
 11
223.137099
 21
5.097999
 31
0.0
  0
TEXT
  8
RAAMI
 10
229.737099
 20
1.737999
 30
0.0
 40
3.0
  1
ABB 
 41
0.8
  7
ROMANS
  0
TEXT
  8
RAAMI
 10
237.737099
 20
1.737999
 30
0.0
 40
3.0
  1
Strömberg
 41
0.8
  7
ROMANS
  0
LINE
  8
OHUT
 10
282.237099
 20
9.737999
 30
0.0
 11
282.237099
 21
18.237999
 31
0.0
  0
TEXT
  8
RAAMI
 10
27.737099
 20
4.737999
 30
0.0
 40
1.4
  1
MUUTOS
  7
ROMANS
  0
TEXT
  8
RAAMI
 10
27.737099
 20
2.471333
 30
0.0
 40
1.4
  1
REVISION
  7
ROMANS
  0
LINE
  8
OHUT
 10
46.737099
 20
9.237999
 30
0.0
 11
209.237099
 21
9.237999
 31
0.0
  0
LINE
  8
OHUT
 10
46.737099
 20
0.237999
 30
0.0
 11
46.737099
 21
9.237999
 31
0.0
  0
LINE
  8
OHUT
 10
40.737099
 20
4.737999
 30
0.0
 11
209.237099
 21
4.737999
 31
0.0
  0
LINE
  8
OHUT
 10
257.237099
 20
9.737999
 30
0.0
 11
257.237099
 21
35.237999
 31
0.0
  0
LINE
  8
OHUT
 10
271.237099
 20
9.737999
 30
0.0
 11
271.237099
 21
0.237999
 31
0.0
  0
TEXT
  8
RAAMI
 10
210.237099
 20
32.237999
 30
0.0
 40
1.4
  1
TEKI  PREPARED
  7
ROMANS
  0
TEXT
  8
RAAMI
 10
273.237099
 20
7.237999
 30
0.0
 40
1.4
  1
VAST.OSASTO RESP.DEPT.
  7
ROMANS
  0
TEXT
  8
RAAMI
 10
257.407006
 20
1.741783
 30
0.0
 40
3.0
  1
Power
 41
0.8
  7
ROMANS
  0
TEXT
  8
RAAMI
 10
42.237099
 20
1.195292
 30
0.0
 40
2.5
  1
B
  7
ROMANS
  0
TEXT
  8
RAAMI
 10
42.237099
 20
5.587508
 30
0.0
 40
2.5
  1
C
  7
ROMANS
  0
LINE
  8
PAKSU
 10
0.237099
 20
0.237999
 30
0.0
 11
392.237099
 21
0.237999
 31
0.0
  0
LINE
  8
PAKSU
 10
392.237099
 20
262.737999
 30
0.0
 11
392.237099
 21
0.237999
 31
0.0
  0
LINE
  8
PAKSU
 10
0.237099
 20
0.237999
 30
0.0
 11
0.237099
 21
262.737999
 31
0.0
  0
ENDBLK
  8
0
  0
BLOCK
  8
0
  2
*X16
 70
    65
 10
0.0
 20
0.0
 30
0.0
  3
*X
  0
LINE
  8
0
 62
     0
 10
2.284499
 20
6.52714
 30
0.0
 11
4.8
 21
9.042641
 31
0.0
  0
LINE
  8
0
 62
     0
 10
2.379686
 20
6.799104
 30
0.0
 11
4.8
 21
9.219417
 31
0.0
  0
LINE
  8
0
 62
     0
 10
2.474874
 20
7.071068
 30
0.0
 11
4.8
 21
9.396194
 31
0.0
  0
LINE
  8
0
 62
     0
 10
2.570061
 20
7.343032
 30
0.0
 11
4.8
 21
9.572971
 31
0.0
  0
LINE
  8
0
 62
     0
 10
2.665249
 20
7.614996
 30
0.0
 11
4.8
 21
9.749747
 31
0.0
  0
LINE
  8
0
 62
     0
 10
2.760436
 20
7.88696
 30
0.0
 11
4.8
 21
9.926524
 31
0.0
  0
LINE
  8
0
 62
     0
 10
2.855624
 20
8.158924
 30
0.0
 11
4.696699
 21
10.0
 31
0.0
  0
LINE
  8
0
 62
     0
 10
2.950811
 20
8.430889
 30
0.0
 11
4.519922
 21
10.0
 31
0.0
  0
LINE
  8
0
 62
     0
 10
3.045998
 20
8.702853
 30
0.0
 11
4.343146
 21
10.0
 31
0.0
  0
LINE
  8
0
 62
     0
 10
3.141186
 20
8.974817
 30
0.0
 11
4.166369
 21
10.0
 31
0.0
  0
LINE
  8
0
 62
     0
 10
3.236373
 20
9.246781
 30
0.0
 11
3.989592
 21
10.0
 31
0.0
  0
LINE
  8
0
 62
     0
 10
3.331561
 20
9.518745
 30
0.0
 11
3.812816
 21
10.0
 31
0.0
  0
LINE
  8
0
 62
     0
 10
3.426748
 20
9.790709
 30
0.0
 11
3.636039
 21
10.0
 31
0.0
  0
LINE
  8
0
 62
     0
 10
2.189311
 20
6.255175
 30
0.0
 11
4.8
 21
8.865864
 31
0.0
  0
LINE
  8
0
 62
     0
 10
2.094124
 20
5.983211
 30
0.0
 11
4.8
 21
8.689087
 31
0.0
  0
LINE
  8
0
 62
     0
 10
1.998936
 20
5.711247
 30
0.0
 11
4.8
 21
8.512311
 31
0.0
  0
LINE
  8
0
 62
     0
 10
1.903749
 20
5.439283
 30
0.0
 11
4.8
 21
8.335534
 31
0.0
  0
LINE
  8
0
 62
     0
 10
1.841243
 20
5.2
 30
0.0
 11
4.8
 21
8.158757
 31
0.0
  0
LINE
  8
0
 62
     0
 10
2.018019
 20
5.2
 30
0.0
 11
4.8
 21
7.981981
 31
0.0
  0
LINE
  8
0
 62
     0
 10
2.194796
 20
5.2
 30
0.0
 11
4.8
 21
7.805204
 31
0.0
  0
LINE
  8
0
 62
     0
 10
2.371573
 20
5.2
 30
0.0
 11
4.8
 21
7.628427
 31
0.0
  0
LINE
  8
0
 62
     0
 10
2.54835
 20
5.2
 30
0.0
 11
4.8
 21
7.45165
 31
0.0
  0
LINE
  8
0
 62
     0
 10
2.725126
 20
5.2
 30
0.0
 11
4.8
 21
7.274874
 31
0.0
  0
LINE
  8
0
 62
     0
 10
2.901903
 20
5.2
 30
0.0
 11
4.8
 21
7.098097
 31
0.0
  0
LINE
  8
0
 62
     0
 10
3.07868
 20
5.2
 30
0.0
 11
4.8
 21
6.92132
 31
0.0
  0
LINE
  8
0
 62
     0
 10
3.255456
 20
5.2
 30
0.0
 11
4.8
 21
6.744544
 31
0.0
  0
LINE
  8
0
 62
     0
 10
3.432233
 20
5.2
 30
0.0
 11
4.8
 21
6.567767
 31
0.0
  0
LINE
  8
0
 62
     0
 10
3.60901
 20
5.2
 30
0.0
 11
4.8
 21
6.39099
 31
0.0
  0
LINE
  8
0
 62
     0
 10
3.785786
 20
5.2
 30
0.0
 11
4.8
 21
6.214214
 31
0.0
  0
LINE
  8
0
 62
     0
 10
3.962563
 20
5.2
 30
0.0
 11
4.8
 21
6.037437
 31
0.0
  0
LINE
  8
0
 62
     0
 10
4.13934
 20
5.2
 30
0.0
 11
4.8
 21
5.86066
 31
0.0
  0
LINE
  8
0
 62
     0
 10
4.316117
 20
5.2
 30
0.0
 11
4.8
 21
5.683883
 31
0.0
  0
LINE
  8
0
 62
     0
 10
4.492893
 20
5.2
 30
0.0
 11
4.8
 21
5.507107
 31
0.0
  0
LINE
  8
0
 62
     0
 10
4.66967
 20
5.2
 30
0.0
 11
4.8
 21
5.33033
 31
0.0
  0
ENDBLK
  8
0
  0
BLOCK
  8
0
  2
*X17
 70
    65
 10
0.0
 20
0.0
 30
0.0
  3
*X
  0
LINE
  8
0
 62
     0
 10
5.2
 20
6.083883
 30
0.0
 11
7.178252
 21
8.062136
 31
0.0
  0
LINE
  8
0
 62
     0
 10
5.2
 20
6.26066
 30
0.0
 11
7.132421
 21
8.193082
 31
0.0
  0
LINE
  8
0
 62
     0
 10
5.2
 20
6.437437
 30
0.0
 11
7.08659
 21
8.324027
 31
0.0
  0
LINE
  8
0
 62
     0
 10
5.2
 20
6.614214
 30
0.0
 11
7.040759
 21
8.454973
 31
0.0
  0
LINE
  8
0
 62
     0
 10
5.2
 20
6.79099
 30
0.0
 11
6.994928
 21
8.585919
 31
0.0
  0
LINE
  8
0
 62
     0
 10
5.2
 20
6.967767
 30
0.0
 11
6.949097
 21
8.716864
 31
0.0
  0
LINE
  8
0
 62
     0
 10
5.2
 20
7.144544
 30
0.0
 11
6.903266
 21
8.84781
 31
0.0
  0
LINE
  8
0
 62
     0
 10
5.2
 20
7.32132
 30
0.0
 11
6.857435
 21
8.978756
 31
0.0
  0
LINE
  8
0
 62
     0
 10
5.2
 20
7.498097
 30
0.0
 11
6.811604
 21
9.109702
 31
0.0
  0
LINE
  8
0
 62
     0
 10
5.2
 20
7.674874
 30
0.0
 11
6.765773
 21
9.240647
 31
0.0
  0
LINE
  8
0
 62
     0
 10
5.2
 20
7.85165
 30
0.0
 11
6.719942
 21
9.371593
 31
0.0
  0
LINE
  8
0
 62
     0
 10
5.2
 20
8.028427
 30
0.0
 11
6.674111
 21
9.502539
 31
0.0
  0
LINE
  8
0
 62
     0
 10
5.2
 20
8.205204
 30
0.0
 11
6.62828
 21
9.633484
 31
0.0
  0
LINE
  8
0
 62
     0
 10
5.2
 20
8.381981
 30
0.0
 11
6.582449
 21
9.76443
 31
0.0
  0
LINE
  8
0
 62
     0
 10
5.2
 20
8.558757
 30
0.0
 11
6.536619
 21
9.895376
 31
0.0
  0
LINE
  8
0
 62
     0
 10
5.2
 20
8.735534
 30
0.0
 11
6.464466
 21
10.0
 31
0.0
  0
LINE
  8
0
 62
     0
 10
5.2
 20
8.912311
 30
0.0
 11
6.287689
 21
10.0
 31
0.0
  0
LINE
  8
0
 62
     0
 10
5.2
 20
9.089087
 30
0.0
 11
6.110913
 21
10.0
 31
0.0
  0
LINE
  8
0
 62
     0
 10
5.2
 20
9.265864
 30
0.0
 11
5.934136
 21
10.0
 31
0.0
  0
LINE
  8
0
 62
     0
 10
5.2
 20
9.442641
 30
0.0
 11
5.757359
 21
10.0
 31
0.0
  0
LINE
  8
0
 62
     0
 10
5.2
 20
9.619417
 30
0.0
 11
5.580583
 21
10.0
 31
0.0
  0
LINE
  8
0
 62
     0
 10
5.2
 20
9.796194
 30
0.0
 11
5.403806
 21
10.0
 31
0.0
  0
LINE
  8
0
 62
     0
 10
5.2
 20
9.972971
 30
0.0
 11
5.227029
 21
10.0
 31
0.0
  0
LINE
  8
0
 62
     0
 10
5.2
 20
5.907107
 30
0.0
 11
7.224083
 21
7.93119
 31
0.0
  0
LINE
  8
0
 62
     0
 10
5.2
 20
5.73033
 30
0.0
 11
7.269914
 21
7.800245
 31
0.0
  0
LINE
  8
0
 62
     0
 10
5.2
 20
5.553553
 30
0.0
 11
7.315745
 21
7.669299
 31
0.0
  0
LINE
  8
0
 62
     0
 10
5.2
 20
5.376777
 30
0.0
 11
7.361576
 21
7.538353
 31
0.0
  0
LINE
  8
0
 62
     0
 10
5.2
 20
5.2
 30
0.0
 11
7.407407
 21
7.407407
 31
0.0
  0
LINE
  8
0
 62
     0
 10
5.376777
 20
5.2
 30
0.0
 11
7.453238
 21
7.276462
 31
0.0
  0
LINE
  8
0
 62
     0
 10
5.553553
 20
5.2
 30
0.0
 11
7.499069
 21
7.145516
 31
0.0
  0
LINE
  8
0
 62
     0
 10
5.73033
 20
5.2
 30
0.0
 11
7.5449
 21
7.01457
 31
0.0
  0
LINE
  8
0
 62
     0
 10
5.907107
 20
5.2
 30
0.0
 11
7.590731
 21
6.883625
 31
0.0
  0
LINE
  8
0
 62
     0
 10
6.083883
 20
5.2
 30
0.0
 11
7.636562
 21
6.752679
 31
0.0
  0
LINE
  8
0
 62
     0
 10
6.26066
 20
5.2
 30
0.0
 11
7.682393
 21
6.621733
 31
0.0
  0
LINE
  8
0
 62
     0
 10
6.437437
 20
5.2
 30
0.0
 11
7.728224
 21
6.490788
 31
0.0
  0
LINE
  8
0
 62
     0
 10
6.614214
 20
5.2
 30
0.0
 11
7.774055
 21
6.359842
 31
0.0
  0
LINE
  8
0
 62
     0
 10
6.79099
 20
5.2
 30
0.0
 11
7.819886
 21
6.228896
 31
0.0
  0
LINE
  8
0
 62
     0
 10
6.967767
 20
5.2
 30
0.0
 11
7.865717
 21
6.09795
 31
0.0
  0
LINE
  8
0
 62
     0
 10
7.144544
 20
5.2
 30
0.0
 11
7.911548
 21
5.967005
 31
0.0
  0
LINE
  8
0
 62
     0
 10
7.32132
 20
5.2
 30
0.0
 11
7.957379
 21
5.836059
 31
0.0
  0
LINE
  8
0
 62
     0
 10
7.498097
 20
5.2
 30
0.0
 11
8.00321
 21
5.705113
 31
0.0
  0
LINE
  8
0
 62
     0
 10
7.674874
 20
5.2
 30
0.0
 11
8.049041
 21
5.574168
 31
0.0
  0
LINE
  8
0
 62
     0
 10
7.85165
 20
5.2
 30
0.0
 11
8.094872
 21
5.443222
 31
0.0
  0
LINE
  8
0
 62
     0
 10
8.028427
 20
5.2
 30
0.0
 11
8.140703
 21
5.312276
 31
0.0
  0
ENDBLK
  8
0
  0
BLOCK
  8
0
  2
*X18
 70
    65
 10
0.0
 20
0.0
 30
0.0
  3
*X
  0
LINE
  8
0
 62
     0
 10
0.0
 20
0.0
 30
0.0
 11
4.8
 21
4.8
 31
0.0
  0
LINE
  8
0
 62
     0
 10
0.095187
 20
0.271964
 30
0.0
 11
4.623223
 21
4.8
 31
0.0
  0
LINE
  8
0
 62
     0
 10
0.190375
 20
0.543928
 30
0.0
 11
4.446447
 21
4.8
 31
0.0
  0
LINE
  8
0
 62
     0
 10
0.285562
 20
0.815892
 30
0.0
 11
4.26967
 21
4.8
 31
0.0
  0
LINE
  8
0
 62
     0
 10
0.38075
 20
1.087857
 30
0.0
 11
4.092893
 21
4.8
 31
0.0
  0
LINE
  8
0
 62
     0
 10
0.475937
 20
1.359821
 30
0.0
 11
3.916117
 21
4.8
 31
0.0
  0
LINE
  8
0
 62
     0
 10
0.571125
 20
1.631785
 30
0.0
 11
3.73934
 21
4.8
 31
0.0
  0
LINE
  8
0
 62
     0
 10
0.666312
 20
1.903749
 30
0.0
 11
3.562563
 21
4.8
 31
0.0
  0
LINE
  8
0
 62
     0
 10
0.7615
 20
2.175713
 30
0.0
 11
3.385786
 21
4.8
 31
0.0
  0
LINE
  8
0
 62
     0
 10
0.856687
 20
2.447677
 30
0.0
 11
3.20901
 21
4.8
 31
0.0
  0
LINE
  8
0
 62
     0
 10
0.951875
 20
2.719641
 30
0.0
 11
3.032233
 21
4.8
 31
0.0
  0
LINE
  8
0
 62
     0
 10
1.047062
 20
2.991606
 30
0.0
 11
2.855456
 21
4.8
 31
0.0
  0
LINE
  8
0
 62
     0
 10
1.142249
 20
3.26357
 30
0.0
 11
2.67868
 21
4.8
 31
0.0
  0
LINE
  8
0
 62
     0
 10
1.237437
 20
3.535534
 30
0.0
 11
2.501903
 21
4.8
 31
0.0
  0
LINE
  8
0
 62
     0
 10
1.332624
 20
3.807498
 30
0.0
 11
2.325126
 21
4.8
 31
0.0
  0
LINE
  8
0
 62
     0
 10
1.427812
 20
4.079462
 30
0.0
 11
2.14835
 21
4.8
 31
0.0
  0
LINE
  8
0
 62
     0
 10
1.522999
 20
4.351426
 30
0.0
 11
1.971573
 21
4.8
 31
0.0
  0
LINE
  8
0
 62
     0
 10
1.618187
 20
4.62339
 30
0.0
 11
1.794796
 21
4.8
 31
0.0
  0
LINE
  8
0
 62
     0
 10
0.176777
 20
0.0
 30
0.0
 11
4.8
 21
4.623223
 31
0.0
  0
LINE
  8
0
 62
     0
 10
0.353553
 20
0.0
 30
0.0
 11
4.8
 21
4.446447
 31
0.0
  0
LINE
  8
0
 62
     0
 10
0.53033
 20
0.0
 30
0.0
 11
4.8
 21
4.26967
 31
0.0
  0
LINE
  8
0
 62
     0
 10
0.707107
 20
0.0
 30
0.0
 11
4.8
 21
4.092893
 31
0.0
  0
LINE
  8
0
 62
     0
 10
0.883883
 20
0.0
 30
0.0
 11
4.8
 21
3.916117
 31
0.0
  0
LINE
  8
0
 62
     0
 10
1.06066
 20
0.0
 30
0.0
 11
4.8
 21
3.73934
 31
0.0
  0
LINE
  8
0
 62
     0
 10
1.237437
 20
0.0
 30
0.0
 11
3.179842
 21
1.942405
 31
0.0
  0
LINE
  8
0
 62
     0
 10
3.237437
 20
2.0
 30
0.0
 11
4.8
 21
3.562563
 31
0.0
  0
LINE
  8
0
 62
     0
 10
1.414214
 20
0.0
 30
0.0
 11
3.084654
 21
1.670441
 31
0.0
  0
LINE
  8
0
 62
     0
 10
3.414214
 20
2.0
 30
0.0
 11
4.8
 21
3.385786
 31
0.0
  0
LINE
  8
0
 62
     0
 10
1.59099
 20
0.0
 30
0.0
 11
2.989467
 21
1.398477
 31
0.0
  0
LINE
  8
0
 62
     0
 10
3.59099
 20
2.0
 30
0.0
 11
4.8
 21
3.20901
 31
0.0
  0
LINE
  8
0
 62
     0
 10
1.767767
 20
0.0
 30
0.0
 11
2.894279
 21
1.126512
 31
0.0
  0
LINE
  8
0
 62
     0
 10
3.767767
 20
2.0
 30
0.0
 11
4.8
 21
3.032233
 31
0.0
  0
LINE
  8
0
 62
     0
 10
1.944544
 20
0.0
 30
0.0
 11
2.799092
 21
0.854548
 31
0.0
  0
LINE
  8
0
 62
     0
 10
3.944544
 20
2.0
 30
0.0
 11
4.8
 21
2.855456
 31
0.0
  0
LINE
  8
0
 62
     0
 10
2.12132
 20
0.0
 30
0.0
 11
2.703904
 21
0.582584
 31
0.0
  0
LINE
  8
0
 62
     0
 10
4.12132
 20
2.0
 30
0.0
 11
4.8
 21
2.67868
 31
0.0
  0
LINE
  8
0
 62
     0
 10
2.298097
 20
0.0
 30
0.0
 11
2.608717
 21
0.31062
 31
0.0
  0
LINE
  8
0
 62
     0
 10
4.298097
 20
2.0
 30
0.0
 11
4.8
 21
2.501903
 31
0.0
  0
LINE
  8
0
 62
     0
 10
2.474874
 20
0.0
 30
0.0
 11
2.51353
 21
0.038656
 31
0.0
  0
LINE
  8
0
 62
     0
 10
4.474874
 20
2.0
 30
0.0
 11
4.8
 21
2.325126
 31
0.0
  0
LINE
  8
0
 62
     0
 10
4.65165
 20
2.0
 30
0.0
 11
4.8
 21
2.14835
 31
0.0
  0
ENDBLK
  8
0
  0
BLOCK
  8
0
  2
*X19
 70
    65
 10
0.0
 20
0.0
 30
0.0
  3
*X
  0
LINE
  8
0
 62
     0
 10
6.884654
 20
1.75813
 30
0.0
 11
8.736506
 21
3.609982
 31
0.0
  0
LINE
  8
0
 62
     0
 10
6.838823
 20
1.889076
 30
0.0
 11
8.690675
 21
3.740928
 31
0.0
  0
LINE
  8
0
 62
     0
 10
6.772971
 20
2.0
 30
0.0
 11
8.644844
 21
3.871874
 31
0.0
  0
LINE
  8
0
 62
     0
 10
6.596194
 20
2.0
 30
0.0
 11
8.599013
 21
4.002819
 31
0.0
  0
LINE
  8
0
 62
     0
 10
6.419417
 20
2.0
 30
0.0
 11
8.553182
 21
4.133765
 31
0.0
  0
LINE
  8
0
 62
     0
 10
6.242641
 20
2.0
 30
0.0
 11
8.507351
 21
4.264711
 31
0.0
  0
LINE
  8
0
 62
     0
 10
6.065864
 20
2.0
 30
0.0
 11
8.46152
 21
4.395656
 31
0.0
  0
LINE
  8
0
 62
     0
 10
5.889087
 20
2.0
 30
0.0
 11
8.415689
 21
4.526602
 31
0.0
  0
LINE
  8
0
 62
     0
 10
5.712311
 20
2.0
 30
0.0
 11
8.369858
 21
4.657548
 31
0.0
  0
LINE
  8
0
 62
     0
 10
5.535534
 20
2.0
 30
0.0
 11
8.324027
 21
4.788493
 31
0.0
  0
LINE
  8
0
 62
     0
 10
5.358757
 20
2.0
 30
0.0
 11
8.158757
 21
4.8
 31
0.0
  0
LINE
  8
0
 62
     0
 10
5.2
 20
2.018019
 30
0.0
 11
7.981981
 21
4.8
 31
0.0
  0
LINE
  8
0
 62
     0
 10
5.2
 20
2.194796
 30
0.0
 11
7.805204
 21
4.8
 31
0.0
  0
LINE
  8
0
 62
     0
 10
5.2
 20
2.371573
 30
0.0
 11
7.628427
 21
4.8
 31
0.0
  0
LINE
  8
0
 62
     0
 10
5.2
 20
2.54835
 30
0.0
 11
7.45165
 21
4.8
 31
0.0
  0
LINE
  8
0
 62
     0
 10
5.2
 20
2.725126
 30
0.0
 11
7.274874
 21
4.8
 31
0.0
  0
LINE
  8
0
 62
     0
 10
5.2
 20
2.901903
 30
0.0
 11
7.098097
 21
4.8
 31
0.0
  0
LINE
  8
0
 62
     0
 10
5.2
 20
3.07868
 30
0.0
 11
6.92132
 21
4.8
 31
0.0
  0
LINE
  8
0
 62
     0
 10
5.2
 20
3.255456
 30
0.0
 11
6.744544
 21
4.8
 31
0.0
  0
LINE
  8
0
 62
     0
 10
5.2
 20
3.432233
 30
0.0
 11
6.567767
 21
4.8
 31
0.0
  0
LINE
  8
0
 62
     0
 10
5.2
 20
3.60901
 30
0.0
 11
6.39099
 21
4.8
 31
0.0
  0
LINE
  8
0
 62
     0
 10
5.2
 20
3.785786
 30
0.0
 11
6.214214
 21
4.8
 31
0.0
  0
LINE
  8
0
 62
     0
 10
5.2
 20
3.962563
 30
0.0
 11
6.037437
 21
4.8
 31
0.0
  0
LINE
  8
0
 62
     0
 10
5.2
 20
4.13934
 30
0.0
 11
5.86066
 21
4.8
 31
0.0
  0
LINE
  8
0
 62
     0
 10
5.2
 20
4.316117
 30
0.0
 11
5.683883
 21
4.8
 31
0.0
  0
LINE
  8
0
 62
     0
 10
5.2
 20
4.492893
 30
0.0
 11
5.507107
 21
4.8
 31
0.0
  0
LINE
  8
0
 62
     0
 10
5.2
 20
4.66967
 30
0.0
 11
5.33033
 21
4.8
 31
0.0
  0
LINE
  8
0
 62
     0
 10
6.930485
 20
1.627185
 30
0.0
 11
8.782337
 21
3.479036
 31
0.0
  0
LINE
  8
0
 62
     0
 10
6.976316
 20
1.496239
 30
0.0
 11
8.828168
 21
3.348091
 31
0.0
  0
LINE
  8
0
 62
     0
 10
7.022147
 20
1.365293
 30
0.0
 11
8.873999
 21
3.217145
 31
0.0
  0
LINE
  8
0
 62
     0
 10
7.067978
 20
1.234347
 30
0.0
 11
8.91983
 21
3.086199
 31
0.0
  0
LINE
  8
0
 62
     0
 10
7.113809
 20
1.103402
 30
0.0
 11
8.965661
 21
2.955254
 31
0.0
  0
LINE
  8
0
 62
     0
 10
7.15964
 20
0.972456
 30
0.0
 11
9.011492
 21
2.824308
 31
0.0
  0
LINE
  8
0
 62
     0
 10
7.205471
 20
0.84151
 30
0.0
 11
9.057323
 21
2.693362
 31
0.0
  0
LINE
  8
0
 62
     0
 10
7.251302
 20
0.710565
 30
0.0
 11
9.103154
 21
2.562416
 31
0.0
  0
LINE
  8
0
 62
     0
 10
7.297133
 20
0.579619
 30
0.0
 11
9.148985
 21
2.431471
 31
0.0
  0
LINE
  8
0
 62
     0
 10
7.342964
 20
0.448673
 30
0.0
 11
9.194816
 21
2.300525
 31
0.0
  0
LINE
  8
0
 62
     0
 10
7.388795
 20
0.317728
 30
0.0
 11
9.240647
 21
2.169579
 31
0.0
  0
LINE
  8
0
 62
     0
 10
7.434626
 20
0.186782
 30
0.0
 11
9.286478
 21
2.038634
 31
0.0
  0
LINE
  8
0
 62
     0
 10
7.480457
 20
0.055836
 30
0.0
 11
9.332309
 21
1.907688
 31
0.0
  0
LINE
  8
0
 62
     0
 10
7.601398
 20
0.0
 30
0.0
 11
9.37814
 21
1.776742
 31
0.0
  0
LINE
  8
0
 62
     0
 10
7.778175
 20
0.0
 30
0.0
 11
9.423971
 21
1.645797
 31
0.0
  0
LINE
  8
0
 62
     0
 10
7.954951
 20
0.0
 30
0.0
 11
9.469802
 21
1.514851
 31
0.0
  0
LINE
  8
0
 62
     0
 10
8.131728
 20
0.0
 30
0.0
 11
9.515633
 21
1.383905
 31
0.0
  0
LINE
  8
0
 62
     0
 10
8.308505
 20
0.0
 30
0.0
 11
9.561464
 21
1.252959
 31
0.0
  0
LINE
  8
0
 62
     0
 10
8.485281
 20
0.0
 30
0.0
 11
9.607295
 21
1.122014
 31
0.0
  0
LINE
  8
0
 62
     0
 10
8.662058
 20
0.0
 30
0.0
 11
9.653126
 21
0.991068
 31
0.0
  0
LINE
  8
0
 62
     0
 10
8.838835
 20
0.0
 30
0.0
 11
9.698957
 21
0.860122
 31
0.0
  0
LINE
  8
0
 62
     0
 10
9.015611
 20
0.0
 30
0.0
 11
9.744788
 21
0.729177
 31
0.0
  0
LINE
  8
0
 62
     0
 10
9.192388
 20
0.0
 30
0.0
 11
9.790619
 21
0.598231
 31
0.0
  0
LINE
  8
0
 62
     0
 10
9.369165
 20
0.0
 30
0.0
 11
9.83645
 21
0.467285
 31
0.0
  0
LINE
  8
0
 62
     0
 10
9.545942
 20
0.0
 30
0.0
 11
9.882281
 21
0.33634
 31
0.0
  0
LINE
  8
0
 62
     0
 10
9.722718
 20
0.0
 30
0.0
 11
9.928112
 21
0.205394
 31
0.0
  0
LINE
  8
0
 62
     0
 10
9.899495
 20
0.0
 30
0.0
 11
9.973943
 21
0.074448
 31
0.0
  0
ENDBLK
  8
0
  0
BLOCK
  8
0
  2
*X20
 70
    65
 10
0.0
 20
0.0
 30
0.0
  3
*X
  0
LINE
  8
0
 62
     0
 10
10.7
 20
6.280583
 30
0.0
 11
13.5
 21
9.080583
 31
0.0
  0
LINE
  8
0
 62
     0
 10
10.7
 20
6.457359
 30
0.0
 11
13.5
 21
9.257359
 31
0.0
  0
LINE
  8
0
 62
     0
 10
10.7
 20
6.634136
 30
0.0
 11
13.5
 21
9.434136
 31
0.0
  0
LINE
  8
0
 62
     0
 10
10.7
 20
6.810913
 30
0.0
 11
13.5
 21
9.610913
 31
0.0
  0
LINE
  8
0
 62
     0
 10
10.7
 20
6.987689
 30
0.0
 11
13.5
 21
9.787689
 31
0.0
  0
LINE
  8
0
 62
     0
 10
10.7
 20
7.164466
 30
0.0
 11
13.5
 21
9.964466
 31
0.0
  0
LINE
  8
0
 62
     0
 10
10.7
 20
7.341243
 30
0.0
 11
13.358757
 21
10.0
 31
0.0
  0
LINE
  8
0
 62
     0
 10
10.7
 20
7.518019
 30
0.0
 11
13.181981
 21
10.0
 31
0.0
  0
LINE
  8
0
 62
     0
 10
10.7
 20
7.694796
 30
0.0
 11
13.005204
 21
10.0
 31
0.0
  0
LINE
  8
0
 62
     0
 10
10.7
 20
7.871573
 30
0.0
 11
12.828427
 21
10.0
 31
0.0
  0
LINE
  8
0
 62
     0
 10
10.7
 20
8.04835
 30
0.0
 11
12.65165
 21
10.0
 31
0.0
  0
LINE
  8
0
 62
     0
 10
10.7
 20
8.225126
 30
0.0
 11
12.474874
 21
10.0
 31
0.0
  0
LINE
  8
0
 62
     0
 10
10.7
 20
8.401903
 30
0.0
 11
12.298097
 21
10.0
 31
0.0
  0
LINE
  8
0
 62
     0
 10
10.7
 20
8.57868
 30
0.0
 11
12.12132
 21
10.0
 31
0.0
  0
LINE
  8
0
 62
     0
 10
10.7
 20
8.755456
 30
0.0
 11
11.944544
 21
10.0
 31
0.0
  0
LINE
  8
0
 62
     0
 10
10.7
 20
8.932233
 30
0.0
 11
11.767767
 21
10.0
 31
0.0
  0
LINE
  8
0
 62
     0
 10
10.7
 20
9.10901
 30
0.0
 11
11.59099
 21
10.0
 31
0.0
  0
LINE
  8
0
 62
     0
 10
10.7
 20
9.285786
 30
0.0
 11
11.414214
 21
10.0
 31
0.0
  0
LINE
  8
0
 62
     0
 10
10.7
 20
9.462563
 30
0.0
 11
11.237437
 21
10.0
 31
0.0
  0
LINE
  8
0
 62
     0
 10
10.7
 20
9.63934
 30
0.0
 11
11.06066
 21
10.0
 31
0.0
  0
LINE
  8
0
 62
     0
 10
10.7
 20
9.816117
 30
0.0
 11
10.883883
 21
10.0
 31
0.0
  0
LINE
  8
0
 62
     0
 10
10.7
 20
9.992893
 30
0.0
 11
10.707107
 21
10.0
 31
0.0
  0
LINE
  8
0
 62
     0
 10
10.7
 20
6.103806
 30
0.0
 11
13.5
 21
8.903806
 31
0.0
  0
LINE
  8
0
 62
     0
 10
10.7
 20
5.927029
 30
0.0
 11
13.5
 21
8.727029
 31
0.0
  0
LINE
  8
0
 62
     0
 10
10.7
 20
5.750253
 30
0.0
 11
13.5
 21
8.550253
 31
0.0
  0
LINE
  8
0
 62
     0
 10
10.7
 20
5.573476
 30
0.0
 11
13.5
 21
8.373476
 31
0.0
  0
LINE
  8
0
 62
     0
 10
10.7
 20
5.396699
 30
0.0
 11
13.5
 21
8.196699
 31
0.0
  0
LINE
  8
0
 62
     0
 10
10.7
 20
5.219922
 30
0.0
 11
13.5
 21
8.019922
 31
0.0
  0
LINE
  8
0
 62
     0
 10
10.856854
 20
5.2
 30
0.0
 11
13.5
 21
7.843146
 31
0.0
  0
LINE
  8
0
 62
     0
 10
11.033631
 20
5.2
 30
0.0
 11
13.5
 21
7.666369
 31
0.0
  0
LINE
  8
0
 62
     0
 10
11.210408
 20
5.2
 30
0.0
 11
13.5
 21
7.489592
 31
0.0
  0
LINE
  8
0
 62
     0
 10
11.387184
 20
5.2
 30
0.0
 11
13.5
 21
7.312816
 31
0.0
  0
LINE
  8
0
 62
     0
 10
11.563961
 20
5.2
 30
0.0
 11
13.5
 21
7.136039
 31
0.0
  0
LINE
  8
0
 62
     0
 10
11.740738
 20
5.2
 30
0.0
 11
13.5
 21
6.959262
 31
0.0
  0
LINE
  8
0
 62
     0
 10
11.917514
 20
5.2
 30
0.0
 11
13.5
 21
6.782486
 31
0.0
  0
LINE
  8
0
 62
     0
 10
12.094291
 20
5.2
 30
0.0
 11
13.5
 21
6.605709
 31
0.0
  0
LINE
  8
0
 62
     0
 10
12.271068
 20
5.2
 30
0.0
 11
13.5
 21
6.428932
 31
0.0
  0
LINE
  8
0
 62
     0
 10
12.447845
 20
5.2
 30
0.0
 11
13.5
 21
6.252155
 31
0.0
  0
LINE
  8
0
 62
     0
 10
12.624621
 20
5.2
 30
0.0
 11
13.5
 21
6.075379
 31
0.0
  0
LINE
  8
0
 62
     0
 10
12.801398
 20
5.2
 30
0.0
 11
13.5
 21
5.898602
 31
0.0
  0
LINE
  8
0
 62
     0
 10
12.978175
 20
5.2
 30
0.0
 11
13.5
 21
5.721825
 31
0.0
  0
LINE
  8
0
 62
     0
 10
13.154951
 20
5.2
 30
0.0
 11
13.5
 21
5.545049
 31
0.0
  0
LINE
  8
0
 62
     0
 10
13.331728
 20
5.2
 30
0.0
 11
13.5
 21
5.368272
 31
0.0
  0
ENDBLK
  8
0
  0
BLOCK
  8
0
  2
*X21
 70
    65
 10
0.0
 20
0.0
 30
0.0
  3
*X
  0
LINE
  8
0
 62
     0
 10
10.7
 20
1.154058
 30
0.0
 11
13.5
 21
3.954058
 31
0.0
  0
LINE
  8
0
 62
     0
 10
10.7
 20
1.330835
 30
0.0
 11
13.5
 21
4.130835
 31
0.0
  0
LINE
  8
0
 62
     0
 10
10.7
 20
1.507612
 30
0.0
 11
13.5
 21
4.307612
 31
0.0
  0
LINE
  8
0
 62
     0
 10
10.7
 20
1.684389
 30
0.0
 11
13.5
 21
4.484389
 31
0.0
  0
LINE
  8
0
 62
     0
 10
10.7
 20
1.861165
 30
0.0
 11
13.5
 21
4.661165
 31
0.0
  0
LINE
  8
0
 62
     0
 10
10.7
 20
2.037942
 30
0.0
 11
13.462058
 21
4.8
 31
0.0
  0
LINE
  8
0
 62
     0
 10
10.7
 20
2.214719
 30
0.0
 11
13.285281
 21
4.8
 31
0.0
  0
LINE
  8
0
 62
     0
 10
10.7
 20
2.391495
 30
0.0
 11
13.108505
 21
4.8
 31
0.0
  0
LINE
  8
0
 62
     0
 10
10.7
 20
2.568272
 30
0.0
 11
12.931728
 21
4.8
 31
0.0
  0
LINE
  8
0
 62
     0
 10
10.7
 20
2.745049
 30
0.0
 11
12.754951
 21
4.8
 31
0.0
  0
LINE
  8
0
 62
     0
 10
10.7
 20
2.921825
 30
0.0
 11
12.578175
 21
4.8
 31
0.0
  0
LINE
  8
0
 62
     0
 10
10.7
 20
3.098602
 30
0.0
 11
12.401398
 21
4.8
 31
0.0
  0
LINE
  8
0
 62
     0
 10
10.7
 20
3.275379
 30
0.0
 11
12.224621
 21
4.8
 31
0.0
  0
LINE
  8
0
 62
     0
 10
10.7
 20
3.452155
 30
0.0
 11
12.047845
 21
4.8
 31
0.0
  0
LINE
  8
0
 62
     0
 10
10.7
 20
3.628932
 30
0.0
 11
11.871068
 21
4.8
 31
0.0
  0
LINE
  8
0
 62
     0
 10
10.7
 20
3.805709
 30
0.0
 11
11.694291
 21
4.8
 31
0.0
  0
LINE
  8
0
 62
     0
 10
10.7
 20
3.982486
 30
0.0
 11
11.517514
 21
4.8
 31
0.0
  0
LINE
  8
0
 62
     0
 10
10.7
 20
4.159262
 30
0.0
 11
11.340738
 21
4.8
 31
0.0
  0
LINE
  8
0
 62
     0
 10
10.7
 20
4.336039
 30
0.0
 11
11.163961
 21
4.8
 31
0.0
  0
LINE
  8
0
 62
     0
 10
10.7
 20
4.512816
 30
0.0
 11
10.987184
 21
4.8
 31
0.0
  0
LINE
  8
0
 62
     0
 10
10.7
 20
4.689592
 30
0.0
 11
10.810408
 21
4.8
 31
0.0
  0
LINE
  8
0
 62
     0
 10
10.7
 20
0.977282
 30
0.0
 11
13.5
 21
3.777282
 31
0.0
  0
LINE
  8
0
 62
     0
 10
10.7
 20
0.800505
 30
0.0
 11
13.5
 21
3.600505
 31
0.0
  0
LINE
  8
0
 62
     0
 10
10.7
 20
0.623728
 30
0.0
 11
13.5
 21
3.423728
 31
0.0
  0
LINE
  8
0
 62
     0
 10
10.7
 20
0.446952
 30
0.0
 11
13.5
 21
3.246952
 31
0.0
  0
LINE
  8
0
 62
     0
 10
10.7
 20
0.270175
 30
0.0
 11
13.5
 21
3.070175
 31
0.0
  0
LINE
  8
0
 62
     0
 10
10.7
 20
0.093398
 30
0.0
 11
13.5
 21
2.893398
 31
0.0
  0
LINE
  8
0
 62
     0
 10
10.783378
 20
0.0
 30
0.0
 11
13.5
 21
2.716622
 31
0.0
  0
LINE
  8
0
 62
     0
 10
10.960155
 20
0.0
 30
0.0
 11
13.5
 21
2.539845
 31
0.0
  0
LINE
  8
0
 62
     0
 10
11.136932
 20
0.0
 30
0.0
 11
13.5
 21
2.363068
 31
0.0
  0
LINE
  8
0
 62
     0
 10
11.313708
 20
0.0
 30
0.0
 11
13.5
 21
2.186292
 31
0.0
  0
LINE
  8
0
 62
     0
 10
11.490485
 20
0.0
 30
0.0
 11
13.5
 21
2.009515
 31
0.0
  0
LINE
  8
0
 62
     0
 10
11.667262
 20
0.0
 30
0.0
 11
13.5
 21
1.832738
 31
0.0
  0
LINE
  8
0
 62
     0
 10
11.844039
 20
0.0
 30
0.0
 11
13.5
 21
1.655961
 31
0.0
  0
LINE
  8
0
 62
     0
 10
12.020815
 20
0.0
 30
0.0
 11
13.5
 21
1.479185
 31
0.0
  0
LINE
  8
0
 62
     0
 10
12.197592
 20
0.0
 30
0.0
 11
13.5
 21
1.302408
 31
0.0
  0
LINE
  8
0
 62
     0
 10
12.374369
 20
0.0
 30
0.0
 11
13.5
 21
1.125631
 31
0.0
  0
LINE
  8
0
 62
     0
 10
12.551145
 20
0.0
 30
0.0
 11
13.5
 21
0.948855
 31
0.0
  0
LINE
  8
0
 62
     0
 10
12.727922
 20
0.0
 30
0.0
 11
13.5
 21
0.772078
 31
0.0
  0
LINE
  8
0
 62
     0
 10
12.904699
 20
0.0
 30
0.0
 11
13.5
 21
0.595301
 31
0.0
  0
LINE
  8
0
 62
     0
 10
13.081475
 20
0.0
 30
0.0
 11
13.5
 21
0.418525
 31
0.0
  0
LINE
  8
0
 62
     0
 10
13.258252
 20
0.0
 30
0.0
 11
13.5
 21
0.241748
 31
0.0
  0
LINE
  8
0
 62
     0
 10
13.435029
 20
0.0
 30
0.0
 11
13.5
 21
0.064971
 31
0.0
  0
ENDBLK
  8
0
  0
BLOCK
  8
0
  2
*X22
 70
    65
 10
0.0
 20
0.0
 30
0.0
  3
*X
  0
LINE
  8
0
 62
     0
 10
13.9
 20
6.298602
 30
0.0
 11
16.582995
 21
8.981597
 31
0.0
  0
LINE
  8
0
 62
     0
 10
13.9
 20
6.475379
 30
0.0
 11
16.510503
 21
9.085882
 31
0.0
  0
LINE
  8
0
 62
     0
 10
13.9
 20
6.652155
 30
0.0
 11
16.432927
 21
9.185083
 31
0.0
  0
LINE
  8
0
 62
     0
 10
13.9
 20
6.828932
 30
0.0
 11
16.350372
 21
9.279304
 31
0.0
  0
LINE
  8
0
 62
     0
 10
13.9
 20
7.005709
 30
0.0
 11
16.262892
 21
9.368601
 31
0.0
  0
LINE
  8
0
 62
     0
 10
13.9
 20
7.182486
 30
0.0
 11
16.170495
 21
9.452981
 31
0.0
  0
LINE
  8
0
 62
     0
 10
13.9
 20
7.359262
 30
0.0
 11
16.073145
 21
9.532407
 31
0.0
  0
LINE
  8
0
 62
     0
 10
13.9
 20
7.536039
 30
0.0
 11
15.970755
 21
9.606794
 31
0.0
  0
LINE
  8
0
 62
     0
 10
13.9
 20
7.712816
 30
0.0
 11
15.863189
 21
9.676004
 31
0.0
  0
LINE
  8
0
 62
     0
 10
13.9
 20
7.889592
 30
0.0
 11
15.75025
 21
9.739843
 31
0.0
  0
LINE
  8
0
 62
     0
 10
13.9
 20
8.066369
 30
0.0
 11
15.631675
 21
9.798044
 31
0.0
  0
LINE
  8
0
 62
     0
 10
13.9
 20
8.243146
 30
0.0
 11
15.50711
 21
9.850256
 31
0.0
  0
LINE
  8
0
 62
     0
 10
13.9
 20
8.419922
 30
0.0
 11
15.376096
 21
9.896018
 31
0.0
  0
LINE
  8
0
 62
     0
 10
13.9
 20
8.596699
 30
0.0
 11
15.238027
 21
9.934726
 31
0.0
  0
LINE
  8
0
 62
     0
 10
13.9
 20
8.773476
 30
0.0
 11
15.092096
 21
9.965572
 31
0.0
  0
LINE
  8
0
 62
     0
 10
13.9
 20
8.950253
 30
0.0
 11
14.937209
 21
9.987461
 31
0.0
  0
LINE
  8
0
 62
     0
 10
13.9
 20
9.127029
 30
0.0
 11
14.771824
 21
9.998853
 31
0.0
  0
LINE
  8
0
 62
     0
 10
13.9
 20
9.303806
 30
0.0
 11
14.596193
 21
9.999999
 31
0.0
  0
LINE
  8
0
 62
     0
 10
13.9
 20
9.480583
 30
0.0
 11
14.419417
 21
9.999999
 31
0.0
  0
LINE
  8
0
 62
     0
 10
13.9
 20
9.657359
 30
0.0
 11
14.24264
 21
10.0
 31
0.0
  0
LINE
  8
0
 62
     0
 10
13.9
 20
9.834136
 30
0.0
 11
14.065864
 21
10.0
 31
0.0
  0
LINE
  8
0
 62
     0
 10
13.9
 20
6.121825
 30
0.0
 11
16.650245
 21
8.872071
 31
0.0
  0
LINE
  8
0
 62
     0
 10
13.9
 20
5.945049
 30
0.0
 11
16.712035
 21
8.757083
 31
0.0
  0
LINE
  8
0
 62
     0
 10
13.9
 20
5.768272
 30
0.0
 11
16.768067
 21
8.636339
 31
0.0
  0
LINE
  8
0
 62
     0
 10
13.9
 20
5.591495
 30
0.0
 11
16.817955
 21
8.509451
 31
0.0
  0
LINE
  8
0
 62
     0
 10
13.9
 20
5.414719
 30
0.0
 11
16.861189
 21
8.375908
 31
0.0
  0
LINE
  8
0
 62
     0
 10
13.9
 20
5.237942
 30
0.0
 11
16.897097
 21
8.235039
 31
0.0
  0
LINE
  8
0
 62
     0
 10
14.038835
 20
5.2
 30
0.0
 11
16.924779
 21
8.085944
 31
0.0
  0
LINE
  8
0
 62
     0
 10
14.215611
 20
5.2
 30
0.0
 11
16.942997
 21
7.927385
 31
0.0
  0
LINE
  8
0
 62
     0
 10
14.392388
 20
5.2
 30
0.0
 11
16.949987
 21
7.757599
 31
0.0
  0
LINE
  8
0
 62
     0
 10
14.569165
 20
5.2
 30
0.0
 11
16.943101
 21
7.573936
 31
0.0
  0
LINE
  8
0
 62
     0
 10
14.745942
 20
5.2
 30
0.0
 11
16.918037
 21
7.372095
 31
0.0
  0
LINE
  8
0
 62
     0
 10
14.922718
 20
5.2
 30
0.0
 11
16.866909
 21
7.144191
 31
0.0
  0
LINE
  8
0
 62
     0
 10
15.099495
 20
5.2
 30
0.0
 11
16.771715
 21
6.87222
 31
0.0
  0
LINE
  8
0
 62
     0
 10
15.276272
 20
5.2
 30
0.0
 11
15.847951
 21
5.77168
 31
0.0
  0
LINE
  8
0
 62
     0
 10
15.96673
 20
5.890458
 30
0.0
 11
16.559542
 21
6.48327
 31
0.0
  0
LINE
  8
0
 62
     0
 10
15.453048
 20
5.2
 30
0.0
 11
15.970661
 21
5.717613
 31
0.0
  0
LINE
  8
0
 62
     0
 10
15.629825
 20
5.2
 30
0.0
 11
16.088934
 21
5.659109
 31
0.0
  0
LINE
  8
0
 62
     0
 10
15.806602
 20
5.2
 30
0.0
 11
16.202964
 21
5.596363
 31
0.0
  0
LINE
  8
0
 62
     0
 10
15.983378
 20
5.2
 30
0.0
 11
16.312909
 21
5.529531
 31
0.0
  0
LINE
  8
0
 62
     0
 10
16.160155
 20
5.2
 30
0.0
 11
16.418895
 21
5.45874
 31
0.0
  0
LINE
  8
0
 62
     0
 10
16.336932
 20
5.2
 30
0.0
 11
16.521021
 21
5.384089
 31
0.0
  0
LINE
  8
0
 62
     0
 10
16.513708
 20
5.2
 30
0.0
 11
16.619363
 21
5.305655
 31
0.0
  0
LINE
  8
0
 62
     0
 10
16.690485
 20
5.2
 30
0.0
 11
16.713975
 21
5.22349
 31
0.0
  0
ENDBLK
  8
0
  0
BLOCK
  8
0
  2
*X23
 70
    65
 10
0.0
 20
0.0
 30
0.0
  3
*X
  0
LINE
  8
0
 62
     0
 10
13.9
 20
0.818525
 30
0.0
 11
17.39645
 21
4.314974
 31
0.0
  0
LINE
  8
0
 62
     0
 10
13.9
 20
0.995301
 30
0.0
 11
17.336354
 21
4.431655
 31
0.0
  0
LINE
  8
0
 62
     0
 10
13.9
 20
1.172078
 30
0.0
 11
17.272078
 21
4.544156
 31
0.0
  0
LINE
  8
0
 62
     0
 10
13.9
 20
1.348855
 30
0.0
 11
17.203766
 21
4.652621
 31
0.0
  0
LINE
  8
0
 62
     0
 10
13.9
 20
1.525631
 30
0.0
 11
17.131535
 21
4.757167
 31
0.0
  0
LINE
  8
0
 62
     0
 10
13.9
 20
1.702408
 30
0.0
 11
16.997592
 21
4.8
 31
0.0
  0
LINE
  8
0
 62
     0
 10
13.9
 20
1.879185
 30
0.0
 11
16.820815
 21
4.8
 31
0.0
  0
LINE
  8
0
 62
     0
 10
13.9
 20
2.055961
 30
0.0
 11
16.644039
 21
4.8
 31
0.0
  0
LINE
  8
0
 62
     0
 10
13.9
 20
2.232738
 30
0.0
 11
16.467262
 21
4.8
 31
0.0
  0
LINE
  8
0
 62
     0
 10
13.9
 20
2.409515
 30
0.0
 11
16.290485
 21
4.8
 31
0.0
  0
LINE
  8
0
 62
     0
 10
13.9
 20
2.586292
 30
0.0
 11
16.113708
 21
4.8
 31
0.0
  0
LINE
  8
0
 62
     0
 10
13.9
 20
2.763068
 30
0.0
 11
15.936932
 21
4.8
 31
0.0
  0
LINE
  8
0
 62
     0
 10
13.9
 20
2.939845
 30
0.0
 11
15.760155
 21
4.8
 31
0.0
  0
LINE
  8
0
 62
     0
 10
13.9
 20
3.116622
 30
0.0
 11
15.583378
 21
4.8
 31
0.0
  0
LINE
  8
0
 62
     0
 10
13.9
 20
3.293398
 30
0.0
 11
15.406602
 21
4.8
 31
0.0
  0
LINE
  8
0
 62
     0
 10
13.9
 20
3.470175
 30
0.0
 11
15.229825
 21
4.8
 31
0.0
  0
LINE
  8
0
 62
     0
 10
13.9
 20
3.646952
 30
0.0
 11
15.053048
 21
4.8
 31
0.0
  0
LINE
  8
0
 62
     0
 10
13.9
 20
3.823728
 30
0.0
 11
14.876272
 21
4.8
 31
0.0
  0
LINE
  8
0
 62
     0
 10
13.9
 20
4.000505
 30
0.0
 11
14.699495
 21
4.8
 31
0.0
  0
LINE
  8
0
 62
     0
 10
13.9
 20
4.177282
 30
0.0
 11
14.522718
 21
4.8
 31
0.0
  0
LINE
  8
0
 62
     0
 10
13.9
 20
4.354058
 30
0.0
 11
14.345942
 21
4.8
 31
0.0
  0
LINE
  8
0
 62
     0
 10
13.9
 20
4.530835
 30
0.0
 11
14.169165
 21
4.8
 31
0.0
  0
LINE
  8
0
 62
     0
 10
13.9
 20
4.707612
 30
0.0
 11
13.992388
 21
4.8
 31
0.0
  0
LINE
  8
0
 62
     0
 10
13.9
 20
0.641748
 30
0.0
 11
17.452185
 21
4.193933
 31
0.0
  0
LINE
  8
0
 62
     0
 10
13.9
 20
0.464971
 30
0.0
 11
17.503339
 21
4.068311
 31
0.0
  0
LINE
  8
0
 62
     0
 10
13.9
 20
0.288194
 30
0.0
 11
17.549642
 21
3.937837
 31
0.0
  0
LINE
  8
0
 62
     0
 10
13.9
 20
0.111418
 30
0.0
 11
17.590762
 21
3.80218
 31
0.0
  0
LINE
  8
0
 62
     0
 10
13.965359
 20
0.0
 30
0.0
 11
17.62629
 21
3.660931
 31
0.0
  0
LINE
  8
0
 62
     0
 10
14.142136
 20
0.000001
 30
0.0
 11
17.655713
 21
3.513577
 31
0.0
  0
LINE
  8
0
 62
     0
 10
14.318913
 20
0.000001
 30
0.0
 11
17.678385
 21
3.359473
 31
0.0
  0
LINE
  8
0
 62
     0
 10
14.49569
 20
0.000001
 30
0.0
 11
17.693473
 21
3.197784
 31
0.0
  0
LINE
  8
0
 62
     0
 10
14.672467
 20
0.000002
 30
0.0
 11
17.699875
 21
3.027409
 31
0.0
  0
LINE
  8
0
 62
     0
 10
14.853154
 20
0.003912
 30
0.0
 11
17.696088
 21
2.846846
 31
0.0
  0
LINE
  8
0
 62
     0
 10
15.046044
 20
0.020025
 30
0.0
 11
17.679975
 21
2.653956
 31
0.0
  0
LINE
  8
0
 62
     0
 10
15.254483
 20
0.051687
 30
0.0
 11
17.648313
 21
2.445517
 31
0.0
  0
LINE
  8
0
 62
     0
 10
15.483762
 20
0.10419
 30
0.0
 11
17.59581
 21
2.216238
 31
0.0
  0
LINE
  8
0
 62
     0
 10
15.743786
 20
0.187437
 30
0.0
 11
17.512563
 21
1.956214
 31
0.0
  0
LINE
  8
0
 62
     0
 10
16.058176
 20
0.32505
 30
0.0
 11
17.37495
 21
1.641824
 31
0.0
  0
LINE
  8
0
 62
     0
 10
16.54193
 20
0.632028
 30
0.0
 11
17.067972
 21
1.15807
 31
0.0
  0
ENDBLK
  8
0
  0
BLOCK
  8
0
  2
B117
 70
     0
 10
0.0
 20
0.0
 30
0.0
  3
B117
  0
LINE
  8
0
  6
DASHED
 10
0.0
 20
37.5
 30
0.0
 11
0.0
 21
5.132058
 31
0.0
  0
CIRCLE
  8
0
  6
CONTINUOUS
 10
0.0
 20
22.440007
 30
0.0
 40
4.398585
  0
CIRCLE
  8
0
  6
CONTINUOUS
 10
0.0
 20
-6.055075
 30
0.0
 40
4.398585
  0
CIRCLE
  8
0
  6
CONTINUOUS
 10
0.0
 20
0.733473
 30
0.0
 40
4.398585
  0
LINE
  8
0
  6
CONTINUOUS
 10
2.330189
 20
-1.600047
 30
0.0
 11
-0.003212
 21
0.733355
 31
0.0
  0
LINE
  8
0
  6
CONTINUOUS
 10
-0.003212
 20
0.733355
 30
0.0
 11
-2.336614
 21
-1.600047
 31
0.0
  0
LINE
  8
0
  6
CONTINUOUS
 10
-0.003212
 20
0.733355
 30
0.0
 11
-0.003212
 21
3.066756
 31
0.0
  0
LINE
  8
0
  6
DASHED
 10
0.0
 20
0.733473
 30
0.0
 11
12.5
 21
0.733473
 31
0.0
  0
INSERT
  8
0
  6
DASHED
  2
B97
 10
14.158425
 20
0.733484
 30
0.0
 50
90.0
  0
ENDBLK
  8
0
  0
BLOCK
  8
0
  2
B97
 70
    64
 10
0.0
 20
0.0
 30
0.0
  3
B97
  0
INSERT
  8
0
  6
DASHED
  2
BLC15
 10
-0.142087
 20
-2.191142
 30
0.0
  0
ENDBLK
  8
0
  0
BLOCK
  8
0
  2
B23
 70
     0
 10
0.0
 20
0.0
 30
0.0
  3
B23
  0
LINE
  8
BASE
  6
CONTINUOUS
 10
-10.000117
 20
0.000025
 30
0.0
 11
0.011081
 21
0.000025
 31
0.0
  0
LINE
  8
BASE
  6
CONTINUOUS
 10
-1.699434
 20
-1.629748
 30
0.0
 11
-2.676073
 21
-2.79366
 31
0.0
  0
LINE
  8
BASE
  6
CONTINUOUS
 10
-0.531219
 20
-2.609996
 30
0.0
 11
-1.699434
 21
-1.629748
 31
0.0
  0
LINE
  8
BASE
  6
CONTINUOUS
 10
-1.507858
 20
-3.773909
 30
0.0
 11
-0.531219
 21
-2.609996
 31
0.0
  0
LINE
  8
BASE
  6
CONTINUOUS
 10
-2.676073
 20
-2.79366
 30
0.0
 11
-1.507858
 21
-3.773909
 31
0.0
  0
LINE
  8
BASE
  6
CONTINUOUS
 10
-27.5
 20
-0.008493
 30
0.0
 11
-17.5
 21
-0.008493
 31
0.0
  0
LINE
  8
BASE
  6
CONTINUOUS
 10
-11.481965
 20
-0.006589
 30
0.0
 11
-18.162841
 21
2.434804
 31
0.0
  0
LINE
  8
BASE
  6
CONTINUOUS
 10
-17.5
 20
-0.008493
 30
0.0
 11
-17.5
 21
2.765661
 31
0.0
  0
LINE
  8
BASE
  6
CONTINUOUS
 10
-18.162841
 20
2.434804
 30
0.0
 11
-18.607734
 21
1.549106
 31
0.0
  0
CIRCLE
  8
BASE
  6
CONTINUOUS
 10
-10.741055
 20
0.0
 30
0.0
 40
0.740939
  0
ENDBLK
  8
0
  0
BLOCK
  8
0
  2
B37
 70
     0
 10
0.0
 20
0.0
 30
0.0
  3
B37
  0
LINE
  8
BASE
  6
CONTINUOUS
 10
-0.006589
 20
-6.018035
 30
0.0
 11
2.434804
 21
0.662841
 31
0.0
  0
LINE
  8
BASE
  6
CONTINUOUS
 10
0.0
 20
0.0
 30
0.0
 11
2.765661
 21
0.0
 31
0.0
  0
LINE
  8
BASE
  6
CONTINUOUS
 10
2.434804
 20
0.662841
 30
0.0
 11
1.549106
 21
1.107734
 31
0.0
  0
CIRCLE
  8
BASE
  6
CONTINUOUS
 10
0.0
 20
-6.758945
 30
0.0
 40
0.740939
  0
ENDBLK
  8
0
  0
BLOCK
  8
0
  2
B102
 70
     0
 10
0.0
 20
0.0
 30
0.0
  3
B102
  0
TEXT
  8
BASE
  6
CONTINUOUS
 10
18.519596
 20
-15.712155
 30
0.0
 40
2.0
  1
101
 50
90.0
  0
TEXT
  8
BASE
  6
CONTINUOUS
 10
-1.480404
 20
-15.712155
 30
0.0
 40
2.0
  1
101
 50
90.0
  0
TEXT
  8
BASE
  6
CONTINUOUS
 10
30.710796
 20
-24.069736
 30
0.0
 40
2.0
  1
18A
 50
90.0
  0
TEXT
  8
BASE
  6
CONTINUOUS
 10
23.042942
 20
-24.069736
 30
0.0
 40
2.0
  1
1A
 50
90.0
  0
TEXT
  8
BASE
  6
CONTINUOUS
 10
13.078553
 20
-24.069736
 30
0.0
 40
2.0
  1
2A
 50
90.0
  0
TEXT
  8
BASE
  6
CONTINUOUS
 10
2.77957
 20
-24.069736
 30
0.0
 40
2.0
  1
13A
 50
90.0
  0
LINE
  8
BASE
  6
CONTINUOUS
 10
27.5
 20
-17.5
 30
0.0
 11
27.5
 21
-25.0
 31
0.0
  0
LINE
  8
BASE
  6
CONTINUOUS
 10
27.5
 20
-5.0
 30
0.0
 11
27.5
 21
-10.0
 31
0.0
  0
LINE
  8
BASE
  6
CONTINUOUS
 10
11.365905
 20
-4.186459
 30
0.0
 11
11.365905
 21
-2.499494
 31
0.0
  0
LINE
  8
BASE
  6
CONTINUOUS
 10
11.365905
 20
-2.499494
 30
0.0
 11
13.033279
 21
-2.499494
 31
0.0
  0
LINE
  8
BASE
  6
CONTINUOUS
 10
13.033279
 20
-2.499494
 30
0.0
 11
13.033279
 21
-4.186459
 31
0.0
  0
LINE
  8
BASE
  6
CONTINUOUS
 10
13.033279
 20
-4.186459
 30
0.0
 11
11.365905
 21
-4.186459
 31
0.0
  0
LINE
  8
BASE
  6
CONTINUOUS
 10
2.615221
 20
-2.655356
 30
0.0
 11
0.947848
 21
-2.655356
 31
0.0
  0
LINE
  8
BASE
  6
CONTINUOUS
 10
2.615221
 20
-0.968391
 30
0.0
 11
2.615221
 21
-2.655356
 31
0.0
  0
LINE
  8
BASE
  6
CONTINUOUS
 10
0.947848
 20
-0.968391
 30
0.0
 11
2.615221
 21
-0.968391
 31
0.0
  0
LINE
  8
BASE
  6
CONTINUOUS
 10
0.947848
 20
-2.655356
 30
0.0
 11
0.947848
 21
-0.968391
 31
0.0
  0
TEXT
  8
BASE
  6
DASHED
 10
30.718527
 20
-8.15218
 30
0.0
 40
2.0
  1
18B-
 50
90.0
  0
TEXT
  8
BASE
  6
DASHED
 10
23.045377
 20
-8.15218
 30
0.0
 40
2.0
  1
1B+
 50
90.0
  0
TEXT
  8
BASE
  6
DASHED
 10
13.214777
 20
-8.15218
 30
0.0
 40
2.0
  1
2B
 50
90.0
  0
TEXT
  8
BASE
  6
DASHED
 10
2.775535
 20
-8.15218
 30
0.0
 40
2.0
  1
13B
 50
90.0
  0
LINE
  8
BASE
  6
DASHED
 10
15.0
 20
0.0
 30
0.0
 11
15.0
 21
-25.0
 31
0.0
  0
POLYLINE
  8
BASE
  6
CONTINUOUS
 66
     1
 10
0.0
 20
0.0
 30
0.0
 70
     1
 40
0.25
 41
0.25
 71
     2
 72
   151
  0
VERTEX
  8
BASE
  6
CONTINUOUS
 10
9.625
 20
-5.0
 30
0.0
 42
1.0
  0
VERTEX
  8
BASE
  6
CONTINUOUS
 10
10.375
 20
-5.0
 30
0.0
 42
1.0
  0
SEQEND
  8
BASE
  6
CONTINUOUS
  0
LINE
  8
BASE
  6
CONTINUOUS
 10
5.0
 20
-5.0
 30
0.0
 11
10.0
 21
-5.0
 31
0.0
  0
LINE
  8
BASE
  6
CONTINUOUS
 10
5.0
 20
0.0
 30
0.0
 11
5.0
 21
-5.0
 31
0.0
  0
LINE
  8
BASE
  6
CONTINUOUS
 10
20.0
 20
0.0
 30
0.0
 11
20.0
 21
-10.0
 31
0.0
  0
CIRCLE
  8
BASE
  6
CONTINUOUS
 10
20.0
 20
-16.758945
 30
0.0
 40
0.740939
  0
LINE
  8
BASE
  6
CONTINUOUS
 10
20.0
 20
-17.5
 30
0.0
 11
20.0
 21
-25.0
 31
0.0
  0
LINE
  8
BASE
  6
CONTINUOUS
 10
0.0
 20
-17.5
 30
0.0
 11
0.0
 21
-25.0
 31
0.0
  0
CIRCLE
  8
BASE
  6
CONTINUOUS
 10
0.0
 20
-16.758945
 30
0.0
 40
0.740939
  0
LINE
  8
BASE
  6
CONTINUOUS
 10
-0.006589
 20
-16.018035
 30
0.0
 11
2.434804
 21
-9.337159
 31
0.0
  0
LINE
  8
BASE
  6
CONTINUOUS
 10
0.0
 20
-10.0
 30
0.0
 11
2.765661
 21
-10.0
 31
0.0
  0
LINE
  8
BASE
  6
CONTINUOUS
 10
2.434804
 20
-9.337159
 30
0.0
 11
1.549106
 21
-8.892266
 31
0.0
  0
LINE
  8
BASE
  6
CONTINUOUS
 10
0.0
 20
0.0
 30
0.0
 11
0.0
 21
-10.0
 31
0.0
  0
LINE
  8
BASE
  6
CONTINUOUS
 10
10.0
 20
-17.5
 30
0.0
 11
10.0
 21
-25.0
 31
0.0
  0
CIRCLE
  8
BASE
  6
CONTINUOUS
 10
10.0
 20
-16.758945
 30
0.0
 40
0.740939
  0
LINE
  8
BASE
  6
CONTINUOUS
 10
10.0
 20
0.0
 30
0.0
 11
10.0
 21
-10.0
 31
0.0
  0
LINE
  8
BASE
  6
CONTINUOUS
 10
9.993411
 20
-16.018035
 30
0.0
 11
12.434804
 21
-9.337159
 31
0.0
  0
LINE
  8
BASE
  6
CONTINUOUS
 10
10.0
 20
-10.0
 30
0.0
 11
12.765661
 21
-10.0
 31
0.0
  0
LINE
  8
BASE
  6
CONTINUOUS
 10
22.434804
 20
-9.337159
 30
0.0
 11
21.549106
 21
-8.892266
 31
0.0
  0
LINE
  8
BASE
  6
CONTINUOUS
 10
20.0
 20
-10.0
 30
0.0
 11
22.765661
 21
-10.0
 31
0.0
  0
LINE
  8
BASE
  6
CONTINUOUS
 10
19.993411
 20
-16.018035
 30
0.0
 11
22.434804
 21
-9.337159
 31
0.0
  0
LINE
  8
BASE
  6
CONTINUOUS
 10
27.493411
 20
-16.018035
 30
0.0
 11
29.934804
 21
-9.337159
 31
0.0
  0
LINE
  8
BASE
  6
CONTINUOUS
 10
27.5
 20
-10.0
 30
0.0
 11
30.265661
 21
-10.0
 31
0.0
  0
LINE
  8
BASE
  6
CONTINUOUS
 10
29.934804
 20
-9.337159
 30
0.0
 11
29.049106
 21
-8.892266
 31
0.0
  0
CIRCLE
  8
BASE
  6
CONTINUOUS
 10
27.5
 20
-16.758945
 30
0.0
 40
0.740939
  0
ENDBLK
  8
0
  0
ENDSEC
  0
SECTION
  2
ENTITIES
  0
INSERT
  8
0
  2
1
 10
65.405438
 20
98.713066
 30
0.0
  0
INSERT
  8
0
  2
1
 10
72.541652
 20
49.71056
 30
0.0
  0
INSERT
  8
0
  2
1
 10
85.390443
 20
73.497234
 30
0.0
  0
LINE
  8
0
  6
CENTER
 62
     7
 10
260.0
 20
242.5
 30
0.0
 11
260.0
 21
105.0
 31
0.0
  0
LINE
  8
0
  6
CENTER
 62
     7
 10
260.0
 20
105.0
 30
0.0
 11
260.0
 21
82.5
 31
0.0
  0
LINE
  8
0
  6
CONTINUOUS
 62
     7
 10
242.5
 20
97.5
 30
0.0
 11
252.5
 21
97.5
 31
0.0
  0
LINE
  8
0
  6
CONTINUOUS
 62
     7
 10
242.5
 20
97.5
 30
0.0
 11
245.0
 21
100.0
 31
0.0
  0
LINE
  8
0
  6
CONTINUOUS
 62
     7
 10
247.5
 20
97.5
 30
0.0
 11
250.0
 21
100.0
 31
0.0
  0
LINE
  8
0
  6
CONTINUOUS
 62
     7
 10
252.5
 20
97.5
 30
0.0
 11
255.0
 21
100.0
 31
0.0
  0
LINE
  8
0
  6
CONTINUOUS
 62
     7
 10
247.5
 20
97.5
 30
0.0
 11
247.5
 21
82.5
 31
0.0
  0
LINE
  8
0
  6
CONTINUOUS
 62
     7
 10
235.0
 20
100.0
 30
0.0
 11
235.0
 21
82.5
 31
0.0
  0
LINE
  8
0
  6
CONTINUOUS
 62
     7
 10
230.0
 20
100.0
 30
0.0
 11
230.0
 21
82.5
 31
0.0
  0
LINE
  8
0
  6
DASHED
 62
     7
 10
235.0
 20
57.5
 30
0.0
 11
235.0
 21
50.0
 31
0.0
  0
LINE
  8
0
  6
DASHED
 62
     7
 10
247.5
 20
57.5
 30
0.0
 11
247.5
 21
50.0
 31
0.0
  0
LINE
  8
0
  6
DASHED
 62
     7
 10
230.0
 20
57.5
 30
0.0
 11
230.0
 21
50.0
 31
0.0
  0
LINE
  8
0
  6
DASHED
 62
     7
 10
215.0
 20
57.5
 30
0.0
 11
215.0
 21
50.0
 31
0.0
  0
LINE
  8
0
  6
DASHED
 62
     7
 10
190.0
 20
57.5
 30
0.0
 11
190.0
 21
50.0
 31
0.0
  0
LINE
  8
0
  6
CONTINUOUS
 62
     7
 10
197.5
 20
197.732891
 30
0.0
 11
227.950615
 21
197.732891
 31
0.0
  0
TEXT
  8
0
  6
CONTINUOUS
 62
     7
 10
209.408766
 20
193.795815
 30
0.0
 40
2.5
  1
IRF
 11
209.408766
 21
192.962481
 31
0.0
 73
     1
  0
LINE
  8
0
  6
CONTINUOUS
 62
     7
 10
227.950615
 20
192.5
 30
0.0
 11
197.5
 21
192.5
 31
0.0
  0
LINE
  8
0
  6
CONTINUOUS
 62
     7
 10
227.950615
 20
204.709828
 30
0.0
 11
227.950615
 21
192.5
 31
0.0
  0
LINE
  8
0
  6
CONTINUOUS
 62
     7
 10
227.950615
 20
227.5
 30
0.0
 11
227.950615
 21
204.68832
 31
0.0
  0
LINE
  8
0
  6
CONTINUOUS
 62
     7
 10
197.5
 20
202.5
 30
0.0
 11
227.950615
 21
202.5
 31
0.0
  0
LINE
  8
0
  6
CONTINUOUS
 62
     7
 10
225.906026
 20
214.497804
 30
0.0
 11
223.56026
 21
213.307885
 31
0.0
  0
LINE
  8
0
  6
CONTINUOUS
 62
     7
 10
223.56026
 20
215.833158
 30
0.0
 11
225.906026
 21
214.497804
 31
0.0
  0
LINE
  8
0
  6
CONTINUOUS
 62
     7
 10
208.926606
 20
217.820238
 30
0.0
 11
208.926606
 21
216.032107
 31
0.0
  0
LINE
  8
0
  6
CONTINUOUS
 62
     7
 10
208.957637
 20
216.97496
 30
0.0
 11
216.745842
 21
216.97496
 31
0.0
  0
LINE
  8
0
  6
CONTINUOUS
 62
     7
 10
211.341782
 20
215.807357
 30
0.0
 11
214.217892
 21
218.635916
 31
0.0
  0
LINE
  8
0
  6
CONTINUOUS
 62
     7
 10
213.787189
 20
219.173123
 30
0.0
 11
214.687866
 21
218.049374
 31
0.0
  0
LINE
  8
0
  6
CONTINUOUS
 62
     7
 10
216.741301
 20
217.820238
 30
0.0
 11
216.741301
 21
216.032107
 31
0.0
  0
ARC
  8
0
  6
HIDDEN
 62
     7
 10
215.652505
 20
220.903504
 30
0.0
 40
4.998196
 50
206.402922
 51
282.21115
  0
TEXT
  8
0
  6
CONTINUOUS
 62
     7
 10
199.300457
 20
211.065833
 30
0.0
 40
2.5
  1
I
 11
199.300457
 21
210.2325
 31
0.0
 73
     1
  0
LINE
  8
0
  6
CONTINUOUS
 62
     7
 10
203.455418
 20
212.246469
 30
0.0
 11
201.109652
 21
211.05655
 31
0.0
  0
LINE
  8
0
  6
CONTINUOUS
 62
     7
 10
205.424901
 20
212.246469
 30
0.0
 11
203.079135
 21
211.05655
 31
0.0
  0
LINE
  8
0
  6
CONTINUOUS
 62
     7
 10
201.109652
 20
213.581823
 30
0.0
 11
203.455418
 21
212.246469
 31
0.0
  0
LINE
  8
0
  6
CONTINUOUS
 62
     7
 10
203.079135
 20
213.581823
 30
0.0
 11
205.424901
 21
212.246469
 31
0.0
  0
TEXT
  8
0
  6
CONTINUOUS
 62
     7
 10
199.300457
 20
215.746654
 30
0.0
 40
2.5
  1
I
 11
199.300457
 21
214.913321
 31
0.0
 73
     1
  0
LINE
  8
0
  6
CONTINUOUS
 62
     7
 10
203.455418
 20
216.92729
 30
0.0
 11
201.109652
 21
215.737371
 31
0.0
  0
LINE
  8
0
  6
CONTINUOUS
 62
     7
 10
201.109652
 20
218.262644
 30
0.0
 11
203.455418
 21
216.92729
 31
0.0
  0
LINE
  8
0
  6
CONTINUOUS
 62
     7
 10
197.5
 20
217.5
 30
0.0
 11
197.5
 21
202.5
 31
0.0
  0
LINE
  8
0
  6
CONTINUOUS
 62
     7
 10
197.5
 20
217.5
 30
0.0
 11
197.5
 21
222.5
 31
0.0
  0
LINE
  8
0
  6
CONTINUOUS
 62
     7
 10
197.5
 20
202.5
 30
0.0
 11
197.5
 21
192.5
 31
0.0
  0
TEXT
  8
0
  6
CONTINUOUS
 62
     7
 10
219.077329
 20
213.359446
 30
0.0
 40
2.5
  1
3I
  0
LINE
  8
0
  6
CENTER
 62
     7
 10
67.5
 20
242.5
 30
0.0
 11
67.5
 21
82.5
 31
0.0
  0
TEXT
  8
0
  6
DASHED
 62
     7
 10
90.697373
 20
145.903492
 30
0.0
 40
2.0
  1
A
  0
TEXT
  8
0
  6
DASHED
 62
     7
 10
109.143373
 20
136.274588
 30
0.0
 40
2.0
  1
B
  0
TEXT
  8
0
  6
DASHED
 62
     7
 10
126.055109
 20
125.634364
 30
0.0
 40
2.0
  1
C
  0
TEXT
  8
0
  6
DASHED
 62
     7
 10
143.484014
 20
115.755752
 30
0.0
 40
2.0
  1
D
  0
TEXT
  8
0
  6
DASHED
 62
     7
 10
158.171573
 20
105.864654
 30
0.0
 40
2.0
  1
E
  0
LINE
  8
0
  6
CENTER
 62
     7
 10
67.5
 20
82.5
 30
0.0
 11
260.0
 21
82.5
 31
0.0
  0
LINE
  8
0
  6
CENTER
 62
     7
 10
260.0
 20
242.5
 30
0.0
 11
67.5
 21
242.5
 31
0.0
  0
LINE
  8
0
  6
DASHED
 62
     7
 10
195.0
 20
57.5
 30
0.0
 11
195.0
 21
50.0
 31
0.0
  0
LINE
  8
0
  6
DASHED
 62
     7
 10
200.0
 20
57.5
 30
0.0
 11
200.0
 21
50.0
 31
0.0
  0
ARC
  8
0
  6
CONTINUOUS
 62
     7
 10
262.5
 20
157.5
 30
0.0
 40
2.5
 50
90.0
 51
270.0
  0
TEXT
  8
0
  6
DASHED
 62
     7
 10
348.943359
 20
240.768474
 30
0.0
 40
2.5
  1
3I
  0
LINE
  8
0
  6
CONTINUOUS
 62
     7
 10
353.350579
 20
243.316754
 30
0.0
 11
355.696345
 21
241.9814
 31
0.0
  0
LINE
  8
0
  6
CONTINUOUS
 62
     7
 10
355.696345
 20
241.9814
 30
0.0
 11
353.350579
 21
240.791481
 31
0.0
  0
LINE
  8
0
  6
CONTINUOUS
 62
     7
 10
348.100275
 20
237.706143
 30
0.0
 11
348.100275
 21
235.918012
 31
0.0
  0
LINE
  8
0
  6
CONTINUOUS
 62
     7
 10
348.131307
 20
236.860865
 30
0.0
 11
355.919512
 21
236.860865
 31
0.0
  0
LINE
  8
0
  6
CONTINUOUS
 62
     7
 10
352.960859
 20
239.059027
 30
0.0
 11
353.861536
 21
237.935278
 31
0.0
  0
ARC
  8
0
  6
HIDDEN
 62
     7
 10
354.826175
 20
240.789409
 30
0.0
 40
4.998196
 50
206.402922
 51
282.21115
  0
LINE
  8
0
  6
CONTINUOUS
 62
     7
 10
350.515452
 20
235.693262
 30
0.0
 11
353.391562
 21
238.521821
 31
0.0
  0
LINE
  8
0
  6
CONTINUOUS
 62
     7
 10
355.914971
 20
237.706143
 30
0.0
 11
355.914971
 21
235.918012
 31
0.0
  0
TEXT
  8
0
  6
DASHED
 62
     7
 10
348.943359
 20
230.782752
 30
0.0
 40
2.5
  1
3I
  0
LINE
  8
0
  6
CONTINUOUS
 62
     7
 10
355.938869
 20
232.00956
 30
0.0
 11
353.593104
 21
230.819641
 31
0.0
  0
LINE
  8
0
  6
CONTINUOUS
 62
     7
 10
353.593104
 20
233.344914
 30
0.0
 11
355.938869
 21
232.00956
 31
0.0
  0
LINE
  8
0
  6
CONTINUOUS
 62
     7
 10
355.550616
 20
233.344914
 30
0.0
 11
357.896381
 21
232.00956
 31
0.0
  0
LINE
  8
0
  6
CONTINUOUS
 62
     7
 10
357.896381
 20
232.00956
 30
0.0
 11
355.550616
 21
230.819641
 31
0.0
  0
LINE
  8
0
  6
CONTINUOUS
 62
     7
 10
355.914971
 20
228.052173
 30
0.0
 11
355.914971
 21
226.264041
 31
0.0
  0
LINE
  8
0
  6
CONTINUOUS
 62
     7
 10
352.960859
 20
229.405057
 30
0.0
 11
353.861536
 21
228.281308
 31
0.0
  0
LINE
  8
0
  6
CONTINUOUS
 62
     7
 10
350.515452
 20
226.039291
 30
0.0
 11
353.391562
 21
228.86785
 31
0.0
  0
LINE
  8
0
  6
CONTINUOUS
 62
     7
 10
348.131307
 20
227.206894
 30
0.0
 11
355.919512
 21
227.206894
 31
0.0
  0
LINE
  8
0
  6
CONTINUOUS
 62
     7
 10
348.100275
 20
228.052173
 30
0.0
 11
348.100275
 21
226.264041
 31
0.0
  0
TEXT
  8
0
  6
DASHED
 62
     7
 10
14.369019
 20
230.0
 30
0.0
 40
2.0
  1
1)
  0
LINE
  8
0
  6
CONTINUOUS
 62
     7
 10
197.5
 20
210.0
 30
0.0
 11
217.5
 21
210.0
 31
0.0
  0
LINE
  8
0
  6
CONTINUOUS
 62
     7
 10
207.5
 20
220.521206
 30
0.0
 11
210.0
 21
220.521206
 31
0.0
  0
LINE
  8
0
  6
CONTINUOUS
 62
     7
 10
207.5
 20
220.521206
 30
0.0
 11
205.275553
 21
219.960564
 31
0.0
  0
LINE
  8
0
  6
CONTINUOUS
 62
     7
 10
202.5
 20
220.521206
 30
0.0
 11
205.0
 21
220.521206
 31
0.0
  0
TEXT
  8
0
  6
CONTINUOUS
 62
     7
 10
198.406909
 20
219.763189
 30
0.0
 40
1.5
  1
EN
  0
TEXT
  8
0
  6
CONTINUOUS
 62
     7
 10
199.320715
 20
203.550653
 30
0.0
 40
2.5
  1
I
 11
199.320715
 21
202.71732
 31
0.0
 73
     1
  0
LINE
  8
0
  6
CONTINUOUS
 62
     7
 10
205.527612
 20
204.74318
 30
0.0
 11
203.181847
 21
203.55326
 31
0.0
  0
LINE
  8
0
  6
CONTINUOUS
 62
     7
 10
203.181847
 20
206.078533
 30
0.0
 11
205.527612
 21
204.74318
 31
0.0
  0
LINE
  8
0
  6
CONTINUOUS
 62
     7
 10
201.212364
 20
206.078533
 30
0.0
 11
203.558129
 21
204.74318
 31
0.0
  0
LINE
  8
0
  6
CONTINUOUS
 62
     7
 10
203.558129
 20
204.74318
 30
0.0
 11
201.212364
 21
203.55326
 31
0.0
  0
CIRCLE
  8
0
  6
CONTINUOUS
 62
     7
 10
196.512659
 20
220.516691
 30
0.0
 40
1.0
  0
LINE
  8
0
  6
CONTINUOUS
 62
     7
 10
208.653232
 20
204.957095
 30
0.0
 11
208.653232
 21
203.168963
 31
0.0
  0
LINE
  8
0
  6
CONTINUOUS
 62
     7
 10
208.684263
 20
204.111816
 30
0.0
 11
216.472468
 21
204.111816
 31
0.0
  0
LINE
  8
0
  6
CONTINUOUS
 62
     7
 10
211.068408
 20
202.944214
 30
0.0
 11
213.944519
 21
205.772772
 31
0.0
  0
LINE
  8
0
  6
CONTINUOUS
 62
     7
 10
213.490396
 20
206.309979
 30
0.0
 11
214.391073
 21
205.18623
 31
0.0
  0
LINE
  8
0
  6
CONTINUOUS
 62
     7
 10
216.467927
 20
204.957095
 30
0.0
 11
216.467927
 21
203.168963
 31
0.0
  0
LINE
  8
0
  6
CONTINUOUS
 62
     7
 10
197.5
 20
215.0
 30
0.0
 11
217.5
 21
215.0
 31
0.0
  0
LINE
  8
0
  6
CONTINUOUS
 62
     7
 10
197.5
 20
222.5
 30
0.0
 11
217.5
 21
222.5
 31
0.0
  0
LINE
  8
0
  6
CONTINUOUS
 62
     7
 10
197.5
 20
222.5
 30
0.0
 11
197.5
 21
227.5
 31
0.0
  0
LINE
  8
0
  6
CONTINUOUS
 62
     7
 10
197.5
 20
227.5
 30
0.0
 11
227.950615
 21
227.5
 31
0.0
  0
LINE
  8
0
  6
CONTINUOUS
 62
     7
 10
217.5
 20
202.5
 30
0.0
 11
217.5
 21
227.5
 31
0.0
  0
CIRCLE
  8
0
  6
CONTINUOUS
 62
     7
 10
196.512659
 20
208.284079
 30
0.0
 40
1.0
  0
TEXT
  8
0
  6
CONTINUOUS
 62
     7
 10
198.406909
 20
207.530577
 30
0.0
 40
1.5
  1
EN
  0
LINE
  8
0
  6
CONTINUOUS
 62
     7
 10
202.5
 20
208.288594
 30
0.0
 11
205.0
 21
208.288594
 31
0.0
  0
LINE
  8
0
  6
CONTINUOUS
 62
     7
 10
207.5
 20
208.288594
 30
0.0
 11
205.275553
 21
207.727951
 31
0.0
  0
LINE
  8
0
  6
CONTINUOUS
 62
     7
 10
207.5
 20
208.288594
 30
0.0
 11
210.0
 21
208.288594
 31
0.0
  0
TEXT
  8
0
  6
CONTINUOUS
 62
     7
 10
199.300457
 20
223.765669
 30
0.0
 40
2.5
  1
I
 11
199.300457
 21
222.932336
 31
0.0
 73
     1
  0
LINE
  8
0
  6
CONTINUOUS
 62
     7
 10
203.455418
 20
224.946305
 30
0.0
 11
201.109652
 21
223.756386
 31
0.0
  0
LINE
  8
0
  6
CONTINUOUS
 62
     7
 10
201.109652
 20
226.281659
 30
0.0
 11
203.455418
 21
224.946305
 31
0.0
  0
LINE
  8
0
  6
CONTINUOUS
 62
     7
 10
165.0
 20
160.0
 30
0.0
 11
165.0
 21
155.0
 31
0.0
  0
LINE
  8
0
  6
CONTINUOUS
 62
     7
 10
165.0
 20
195.825312
 30
0.0
 11
165.0
 21
160.0
 31
0.0
  0
LINE
  8
0
  6
CONTINUOUS
 62
     7
 10
142.5
 20
162.5
 30
0.0
 11
157.5
 21
162.5
 31
0.0
  0
LINE
  8
0
  6
CONTINUOUS
 62
     7
 10
142.5
 20
167.5
 30
0.0
 11
142.5
 21
162.5
 31
0.0
  0
LINE
  8
0
  6
CONTINUOUS
 62
     7
 10
157.5
 20
167.5
 30
0.0
 11
142.5
 21
167.5
 31
0.0
  0
LINE
  8
0
  6
CONTINUOUS
 62
     7
 10
150.0
 20
160.0
 30
0.0
 11
150.0
 21
155.0
 31
0.0
  0
LINE
  8
0
  6
CONTINUOUS
 62
     7
 10
150.0
 20
162.5
 30
0.0
 11
150.0
 21
160.0
 31
0.0
  0
LINE
  8
0
  6
CONTINUOUS
 62
     7
 10
149.724743
 20
165.289195
 30
0.0
 11
147.378977
 21
164.099276
 31
0.0
  0
LINE
  8
0
  6
CONTINUOUS
 62
     7
 10
147.370935
 20
163.299262
 30
0.0
 11
149.754396
 21
164.487454
 31
0.0
  0
LINE
  8
0
  6
CONTINUOUS
 62
     7
 10
147.378977
 20
166.624549
 30
0.0
 11
149.724743
 21
165.289195
 31
0.0
  0
TEXT
  8
0
  6
CONTINUOUS
 62
     7
 10
151.812839
 20
163.964455
 30
0.0
 40
2.5
  1
1
 11
151.812839
 21
163.131122
 31
0.0
 73
     1
  0
LINE
  8
0
  6
CONTINUOUS
 62
     7
 10
157.5
 20
167.5
 30
0.0
 11
157.5
 21
162.5
 31
0.0
  0
LINE
  8
0
  6
CONTINUOUS
 62
     7
 10
145.0
 20
167.5
 30
0.0
 11
145.0
 21
170.0
 31
0.0
  0
LINE
  8
0
  6
CONTINUOUS
 62
     7
 10
150.0
 20
167.5
 30
0.0
 11
150.0
 21
170.0
 31
0.0
  0
LINE
  8
0
  6
CONTINUOUS
 62
     7
 10
155.0
 20
167.5
 30
0.0
 11
155.0
 21
170.0
 31
0.0
  0
LINE
  8
0
  6
CONTINUOUS
 62
     7
 10
137.5
 20
167.5
 30
0.0
 11
137.5
 21
162.5
 31
0.0
  0
TEXT
  8
0
  6
CONTINUOUS
 62
     7
 10
134.312839
 20
163.964455
 30
0.0
 40
2.5
  1
1
 11
134.312839
 21
163.131122
 31
0.0
 73
     1
  0
LINE
  8
0
  6
CONTINUOUS
 62
     7
 10
129.878977
 20
166.624549
 30
0.0
 11
132.224743
 21
165.289195
 31
0.0
  0
LINE
  8
0
  6
CONTINUOUS
 62
     7
 10
129.870935
 20
163.299262
 30
0.0
 11
132.254396
 21
164.487454
 31
0.0
  0
LINE
  8
0
  6
CONTINUOUS
 62
     7
 10
132.224743
 20
165.289195
 30
0.0
 11
129.878977
 21
164.099276
 31
0.0
  0
LINE
  8
0
  6
CONTINUOUS
 62
     7
 10
132.5
 20
162.5
 30
0.0
 11
132.5
 21
160.0
 31
0.0
  0
LINE
  8
0
  6
CONTINUOUS
 62
     7
 10
132.5
 20
160.0
 30
0.0
 11
132.5
 21
155.0
 31
0.0
  0
LINE
  8
0
  6
CONTINUOUS
 62
     7
 10
137.5
 20
167.5
 30
0.0
 11
127.5
 21
167.5
 31
0.0
  0
LINE
  8
0
  6
CONTINUOUS
 62
     7
 10
127.5
 20
167.5
 30
0.0
 11
127.5
 21
162.5
 31
0.0
  0
LINE
  8
0
  6
CONTINUOUS
 62
     7
 10
127.5
 20
162.5
 30
0.0
 11
137.5
 21
162.5
 31
0.0
  0
LINE
  8
0
  6
CONTINUOUS
 62
     7
 10
117.5
 20
167.5
 30
0.0
 11
117.5
 21
170.0
 31
0.0
  0
LINE
  8
0
  6
CONTINUOUS
 62
     7
 10
112.5
 20
167.5
 30
0.0
 11
112.5
 21
170.0
 31
0.0
  0
LINE
  8
0
  6
CONTINUOUS
 62
     7
 10
120.0
 20
167.5
 30
0.0
 11
120.0
 21
162.5
 31
0.0
  0
TEXT
  8
0
  6
CONTINUOUS
 62
     7
 10
116.855307
 20
163.964455
 30
0.0
 40
2.5
  1
1
 11
116.855307
 21
163.131122
 31
0.0
 73
     1
  0
LINE
  8
0
  6
CONTINUOUS
 62
     7
 10
112.421446
 20
166.624549
 30
0.0
 11
114.767211
 21
165.289195
 31
0.0
  0
LINE
  8
0
  6
CONTINUOUS
 62
     7
 10
112.413404
 20
163.299262
 30
0.0
 11
114.796864
 21
164.487454
 31
0.0
  0
LINE
  8
0
  6
CONTINUOUS
 62
     7
 10
114.767211
 20
165.289195
 30
0.0
 11
112.421446
 21
164.099276
 31
0.0
  0
LINE
  8
0
  6
CONTINUOUS
 62
     7
 10
115.0
 20
162.5
 30
0.0
 11
115.0
 21
160.0
 31
0.0
  0
LINE
  8
0
  6
CONTINUOUS
 62
     7
 10
115.0
 20
160.0
 30
0.0
 11
115.0
 21
155.0
 31
0.0
  0
LINE
  8
0
  6
CONTINUOUS
 62
     7
 10
120.0
 20
167.5
 30
0.0
 11
110.0
 21
167.5
 31
0.0
  0
LINE
  8
0
  6
CONTINUOUS
 62
     7
 10
110.0
 20
167.5
 30
0.0
 11
110.0
 21
162.5
 31
0.0
  0
LINE
  8
0
  6
CONTINUOUS
 62
     7
 10
110.0
 20
162.5
 30
0.0
 11
120.0
 21
162.5
 31
0.0
  0
LINE
  8
0
  6
CONTINUOUS
 62
     7
 10
157.5
 20
115.0
 30
0.0
 11
195.0
 21
115.0
 31
0.0
  0
LINE
  8
0
  6
CONTINUOUS
 62
     7
 10
127.5
 20
135.0
 30
0.0
 11
205.0
 21
135.0
 31
0.0
  0
LINE
  8
0
  6
CONTINUOUS
 62
     7
 10
140.0
 20
125.0
 30
0.0
 11
200.0
 21
125.0
 31
0.0
  0
LINE
  8
0
  6
CONTINUOUS
 62
     7
 10
112.5
 20
135.0
 30
0.0
 11
67.5
 21
135.0
 31
0.0
  0
LINE
  8
0
  6
CONTINUOUS
 62
     7
 10
125.0
 20
125.0
 30
0.0
 11
67.5
 21
125.0
 31
0.0
  0
LINE
  8
0
  6
CONTINUOUS
 62
     7
 10
140.0
 20
115.0
 30
0.0
 11
67.5
 21
115.0
 31
0.0
  0
LINE
  8
0
  6
CONTINUOUS
 62
     7
 10
155.0
 20
105.0
 30
0.0
 11
67.5
 21
105.0
 31
0.0
  0
LINE
  8
0
  6
CONTINUOUS
 62
     7
 10
155.0
 20
100.0
 30
0.0
 11
67.5
 21
100.0
 31
0.0
  0
LINE
  8
0
  6
DASHED
 62
     7
 10
165.0
 20
155.0
 30
0.0
 11
165.0
 21
102.5
 31
0.0
  0
LINE
  8
0
  6
DASHED
 62
     7
 10
150.0
 20
155.0
 30
0.0
 11
150.0
 21
112.5
 31
0.0
  0
LINE
  8
0
  6
DASHED
 62
     7
 10
132.5
 20
155.0
 30
0.0
 11
132.5
 21
122.5
 31
0.0
  0
LINE
  8
0
  6
DASHED
 62
     7
 10
115.0
 20
155.0
 30
0.0
 11
115.0
 21
132.5
 31
0.0
  0
LINE
  8
0
  6
DASHED
 62
     7
 10
97.5
 20
155.0
 30
0.0
 11
97.5
 21
142.5
 31
0.0
  0
LINE
  8
0
  6
CONTINUOUS
 62
     7
 10
150.0
 20
212.5
 30
0.0
 11
197.5
 21
212.5
 31
0.0
  0
LINE
  8
0
  6
CONTINUOUS
 62
     7
 10
145.0
 20
225.0
 30
0.0
 11
197.5
 21
225.0
 31
0.0
  0
LINE
  8
0
  6
CONTINUOUS
 62
     7
 10
155.0
 20
175.0
 30
0.0
 11
155.0
 21
204.493304
 31
0.0
  0
LINE
  8
0
  6
CONTINUOUS
 62
     7
 10
90.0
 20
230.0
 30
0.0
 11
115.0
 21
230.0
 31
0.0
  0
LINE
  8
0
  6
CONTINUOUS
 62
     7
 10
120.0
 20
230.0
 30
0.0
 11
177.5
 21
230.0
 31
0.0
  0
LINE
  8
0
  6
CONTINUOUS
 62
     7
 10
177.5
 20
230.0
 30
0.0
 11
177.5
 21
208.325312
 31
0.0
  0
LINE
  8
0
  6
CONTINUOUS
 62
     7
 10
120.0
 20
230.0
 30
0.0
 11
114.835918
 21
228.718969
 31
0.0
  0
LINE
  8
0
  6
CONTINUOUS
 62
     7
 10
150.0
 20
175.0
 30
0.0
 11
150.0
 21
212.5
 31
0.0
  0
LINE
  8
0
  6
CONTINUOUS
 62
     7
 10
150.0
 20
170.0
 30
0.0
 11
148.285914
 21
175.086297
 31
0.0
  0
LINE
  8
0
  6
CONTINUOUS
 62
     7
 10
155.0
 20
170.0
 30
0.0
 11
153.285914
 21
175.086297
 31
0.0
  0
LINE
  8
0
  6
CONTINUOUS
 62
     7
 10
145.0
 20
170.0
 30
0.0
 11
143.285914
 21
175.086297
 31
0.0
  0
LINE
  8
0
  6
CONTINUOUS
 62
     7
 10
95.0
 20
175.0
 30
0.0
 11
95.0
 21
216.993304
 31
0.0
  0
LINE
  8
0
  6
CONTINUOUS
 62
     7
 10
95.0
 20
216.993304
 30
0.0
 11
197.5
 21
216.993304
 31
0.0
  0
LINE
  8
0
  6
CONTINUOUS
 62
     7
 10
100.0
 20
204.493304
 30
0.0
 11
197.5
 21
204.493304
 31
0.0
  0
LINE
  8
0
  6
CONTINUOUS
 62
     7
 10
117.5
 20
170.0
 30
0.0
 11
117.5
 21
204.493304
 31
0.0
  0
LINE
  8
0
  6
CONTINUOUS
 62
     7
 10
145.0
 20
175.0
 30
0.0
 11
145.0
 21
225.0
 31
0.0
  0
LINE
  8
0
  6
CONTINUOUS
 62
     7
 10
195.513814
 20
220.468636
 30
0.0
 11
177.5
 21
220.468636
 31
0.0
  0
LINE
  8
0
  6
CONTINUOUS
 62
     7
 10
195.513509
 20
208.325312
 30
0.0
 11
177.5
 21
208.325312
 31
0.0
  0
LINE
  8
0
  6
CONTINUOUS
 62
     7
 10
240.0
 20
195.0
 30
0.0
 11
240.0
 21
180.0
 31
0.0
  0
LINE
  8
0
  6
CONTINUOUS
 62
     7
 10
240.0
 20
225.0
 30
0.0
 11
240.0
 21
195.0
 31
0.0
  0
LINE
  8
0
  6
CONTINUOUS
 62
     7
 10
240.0
 20
225.0
 30
0.0
 11
241.0
 21
226.0
 31
0.0
  0
LINE
  8
0
  6
CONTINUOUS
 62
     7
 10
240.0
 20
180.0
 30
0.0
 11
241.0
 21
179.0
 31
0.0
  0
LINE
  8
0
  6
CONTINUOUS
 62
     7
 10
240.0
 20
202.5
 30
0.0
 11
232.5
 21
202.5
 31
0.0
  0
LINE
  8
0
  6
CONTINUOUS
 62
     7
 10
232.5
 20
202.5
 30
0.0
 11
232.5
 21
215.0
 31
0.0
  0
LINE
  8
0
  6
CONTINUOUS
 62
     7
 10
232.5
 20
215.0
 30
0.0
 11
227.950615
 21
215.0
 31
0.0
  0
LINE
  8
0
  6
CONTINUOUS
 62
     7
 10
227.950615
 20
200.0
 30
0.0
 11
232.5
 21
200.0
 31
0.0
  0
LINE
  8
0
  6
CONTINUOUS
 62
     7
 10
232.5
 20
200.0
 30
0.0
 11
232.5
 21
157.5
 31
0.0
  0
LINE
  8
0
  6
CONTINUOUS
 62
     7
 10
342.5
 20
225.0
 30
0.0
 11
362.5
 21
225.0
 31
0.0
  0
LINE
  8
0
  6
CONTINUOUS
 62
     7
 10
342.5
 20
245.0
 30
0.0
 11
362.5
 21
245.0
 31
0.0
  0
LINE
  8
0
  6
CONTINUOUS
 62
     7
 10
362.5
 20
245.0
 30
0.0
 11
362.5
 21
225.0
 31
0.0
  0
LINE
  8
0
  6
CONTINUOUS
 62
     7
 10
342.5
 20
225.0
 30
0.0
 11
342.5
 21
245.0
 31
0.0
  0
TEXT
  8
0
  6
CONTINUOUS
 62
     7
 10
340.0
 20
220.0
 30
0.0
 40
2.0
  1
OVERCURRENT RELAY
  0
TEXT
  8
0
  6
CONTINUOUS
 62
     7
 10
340.0
 20
216.666667
 30
0.0
 40
2.0
  1
ÖVERSTRÖMSRELÄ
  0
TEXT
  8
0
  6
CONTINUOUS
 62
     7
 10
342.5
 20
147.5
 30
0.0
 40
2.0
  1
EXTERNAL BLOCKING
  0
TEXT
  8
0
  6
CONTINUOUS
 62
     7
 10
342.5
 20
144.166667
 30
0.0
 40
2.0
  1
EXTERN BLOCKERING
  0
TEXT
  8
0
  6
CONTINUOUS
 62
     7
 10
342.5
 20
124.166667
 30
0.0
 40
2.0
  1
TRIP
  0
TEXT
  8
0
  6
CONTINUOUS
 62
     7
 10
342.5
 20
120.833333
 30
0.0
 40
2.0
  1
UTLÖSNING
  0
TEXT
  8
0
  6
CONTINUOUS
 62
     7
 10
342.5
 20
112.5
 30
0.0
 40
2.0
  1
ALARM ETC.
  0
TEXT
  8
0
  6
CONTINUOUS
 62
     7
 10
342.5
 20
109.166667
 30
0.0
 40
2.0
  1
SIGNAL MM.
  0
TEXT
  8
0
  6
CONTINUOUS
 62
     7
 10
342.5
 20
100.833333
 30
0.0
 40
2.0
  1
START, BLOCKING ETC.
  0
TEXT
  8
0
  6
CONTINUOUS
 62
     7
 10
342.5
 20
97.5
 30
0.0
 40
2.0
  1
START, BLOCKERING MM.
  0
TEXT
  8
0
  6
CONTINUOUS
 62
     7
 10
335.0
 20
147.701531
 30
0.0
 40
2.0
  1
1)
  0
TEXT
  8
0
  6
CONTINUOUS
 62
     7
 10
335.0
 20
135.827468
 30
0.0
 40
2.0
  1
2)
  0
TEXT
  8
0
  6
CONTINUOUS
 62
     7
 10
335.0
 20
124.172532
 30
0.0
 40
2.0
  1
3)
  0
TEXT
  8
0
  6
CONTINUOUS
 62
     7
 10
335.0
 20
112.5
 30
0.0
 40
2.0
  1
4)
  0
TEXT
  8
0
  6
CONTINUOUS
 62
     7
 10
335.0
 20
100.815972
 30
0.0
 40
2.0
  1
5)
  0
TEXT
  8
0
  6
CONTINUOUS
 62
     7
 10
335.0
 20
89.184028
 30
0.0
 40
2.0
  1
6)
  0
LINE
  8
0
  6
DASHED
 62
     7
 10
40.0
 20
232.5
 30
0.0
 11
30.0
 21
232.5
 31
0.0
  0
LINE
  8
0
  6
DASHED
 62
     7
 10
40.0
 20
227.5
 30
0.0
 11
30.0
 21
227.5
 31
0.0
  0
LINE
  8
0
  6
DASHED
 62
     7
 10
265.0
 20
157.5
 30
0.0
 11
292.5
 21
157.5
 31
0.0
  0
LINE
  8
0
  6
CONTINUOUS
 62
     7
 10
256.063198
 20
156.75712
 30
0.0
 11
257.279906
 21
158.167057
 31
0.0
  0
TEXT
  8
0
  6
CONTINUOUS
 62
     7
 10
257.036564
 20
159.070297
 30
0.0
 40
2.0
  1
9
  0
LINE
  8
0
  6
DASHED
 62
     7
 10
40.0
 20
145.0
 30
0.0
 11
30.0
 21
145.0
 31
0.0
  0
LINE
  8
0
  6
DASHED
 62
     7
 10
40.0
 20
135.0
 30
0.0
 11
30.0
 21
135.0
 31
0.0
  0
LINE
  8
0
  6
DASHED
 62
     7
 10
40.0
 20
125.0
 30
0.0
 11
30.0
 21
125.0
 31
0.0
  0
LINE
  8
0
  6
DASHED
 62
     7
 10
40.0
 20
115.0
 30
0.0
 11
30.0
 21
115.0
 31
0.0
  0
LINE
  8
0
  6
DASHED
 62
     7
 10
40.0
 20
100.0
 30
0.0
 11
30.0
 21
100.0
 31
0.0
  0
LINE
  8
0
  6
CONTINUOUS
 62
     7
 10
27.5
 20
145.5
 30
0.0
 11
27.5
 21
134.5
 31
0.0
  0
LINE
  8
0
  6
CONTINUOUS
 62
     7
 10
27.5
 20
145.5
 30
0.0
 11
28.5
 21
146.5
 31
0.0
  0
LINE
  8
0
  6
CONTINUOUS
 62
     7
 10
27.5
 20
134.5
 30
0.0
 11
28.5
 21
133.5
 31
0.0
  0
TEXT
  8
0
  6
CONTINUOUS
 62
     7
 10
20.0
 20
139.032746
 30
0.0
 40
2.0
  1
3)
  0
TEXT
  8
0
  6
CONTINUOUS
 62
     7
 10
20.0
 20
123.900841
 30
0.0
 40
2.0
  1
4)
  0
TEXT
  8
0
  6
CONTINUOUS
 62
     7
 10
20.0
 20
114.015243
 30
0.0
 40
2.0
  1
5)
  0
TEXT
  8
0
  6
CONTINUOUS
 62
     7
 10
20.0
 20
98.991877
 30
0.0
 40
2.0
  1
6)
  0
LINE
  8
0
  6
CONTINUOUS
 62
     7
 10
90.0
 20
145.0
 30
0.0
 11
67.5
 21
145.0
 31
0.0
  0
LINE
  8
0
  6
CONTINUOUS
 62
     7
 10
77.5
 20
227.5
 30
0.0
 11
67.5
 21
227.5
 31
0.0
  0
LINE
  8
0
  6
CONTINUOUS
 62
     7
 10
80.298812
 20
227.5
 30
0.0
 11
75.598812
 21
227.5
 31
0.0
  0
LINE
  8
0
  6
CONTINUOUS
 62
     7
 10
77.5
 20
232.5
 30
0.0
 11
67.5
 21
232.5
 31
0.0
  0
LINE
  8
0
  6
CONTINUOUS
 62
     7
 10
80.298812
 20
232.5
 30
0.0
 11
75.598812
 21
232.5
 31
0.0
  0
LINE
  8
0
 62
     7
 10
80.298812
 20
234.089925
 30
0.0
 11
80.298812
 21
225.9
 31
0.0
  0
LINE
  8
0
 62
     7
 10
84.504853
 20
234.09384
 30
0.0
 11
82.59105
 21
231.815018
 31
0.0
  0
LINE
  8
0
 62
     7
 10
85.996971
 20
234.09384
 30
0.0
 11
84.142636
 21
231.815018
 31
0.0
  0
LINE
  8
0
 62
     7
 10
87.721556
 20
234.089925
 30
0.0
 11
80.298812
 21
234.089925
 31
0.0
  0
LINE
  8
0
 62
     7
 10
80.298812
 20
225.9
 30
0.0
 11
87.721556
 21
225.9
 31
0.0
  0
LINE
  8
0
 62
     7
 10
87.721556
 20
225.9
 30
0.0
 11
87.721556
 21
234.089925
 31
0.0
  0
LINE
  8
0
  6
CONTINUOUS
 62
     7
 10
87.721556
 20
230.0
 30
0.0
 11
90.598812
 21
230.0
 31
0.0
  0
LINE
  8
0
 62
     7
 10
245.0
 20
220.0
 30
0.0
 11
243.480133
 21
220.0
 31
0.0
  0
ARC
  8
0
 62
     7
 10
245.065849
 20
221.25
 30
0.0
 40
1.251733
 50
266.984476
 51
93.015524
  0
LINE
  8
0
 62
     7
 10
245.0
 20
222.5
 30
0.0
 11
243.480133
 21
222.5
 31
0.0
  0
LINE
  8
0
 62
     7
 10
245.0
 20
225.0
 30
0.0
 11
243.480133
 21
225.0
 31
0.0
  0
ARC
  8
0
 62
     7
 10
245.065849
 20
223.75
 30
0.0
 40
1.251733
 50
266.984476
 51
93.015524
  0
LINE
  8
0
 62
     7
 10
250.0
 20
217.5
 30
0.0
 11
252.5
 21
217.5
 31
0.0
  0
ARC
  8
0
 62
     7
 10
249.934151
 20
218.75
 30
0.0
 40
1.251733
 50
86.984476
 51
273.015524
  0
ARC
  8
0
 62
     7
 10
249.934151
 20
221.25
 30
0.0
 40
1.251733
 50
86.984476
 51
273.015524
  0
LINE
  8
0
 62
     7
 10
250.0
 20
220.0
 30
0.0
 11
252.5
 21
220.0
 31
0.0
  0
LINE
  8
0
 62
     7
 10
250.0
 20
222.5
 30
0.0
 11
252.5
 21
222.5
 31
0.0
  0
LINE
  8
0
 62
     7
 10
252.5
 20
222.5
 30
0.0
 11
255.0
 21
222.5
 31
0.0
  0
LINE
  8
0
 62
     7
 10
252.5
 20
217.5
 30
0.0
 11
260.0
 21
217.5
 31
0.0
  0
LINE
  8
0
 62
     7
 10
252.5
 20
222.5
 30
0.0
 11
260.0
 21
222.5
 31
0.0
  0
LINE
  8
0
 62
     7
 10
252.5
 20
227.5
 30
0.0
 11
260.0
 21
227.5
 31
0.0
  0
LINE
  8
0
 62
     7
 10
250.0
 20
227.5
 30
0.0
 11
252.5
 21
227.5
 31
0.0
  0
LINE
  8
0
 62
     7
 10
250.0
 20
225.0
 30
0.0
 11
252.5
 21
225.0
 31
0.0
  0
ARC
  8
0
 62
     7
 10
249.934151
 20
226.25
 30
0.0
 40
1.251733
 50
86.984476
 51
273.015524
  0
ARC
  8
0
 62
     7
 10
249.934151
 20
223.75
 30
0.0
 40
1.251733
 50
86.984476
 51
273.015524
  0
LINE
  8
0
 62
     7
 10
250.0
 20
222.5
 30
0.0
 11
252.5
 21
222.5
 31
0.0
  0
LINE
  8
0
 62
     7
 10
245.0
 20
200.0
 30
0.0
 11
243.480133
 21
200.0
 31
0.0
  0
ARC
  8
0
 62
     7
 10
245.065849
 20
201.25
 30
0.0
 40
1.251733
 50
266.984476
 51
93.015524
  0
LINE
  8
0
 62
     7
 10
245.0
 20
202.5
 30
0.0
 11
243.480133
 21
202.5
 31
0.0
  0
LINE
  8
0
 62
     7
 10
245.0
 20
205.0
 30
0.0
 11
243.480133
 21
205.0
 31
0.0
  0
ARC
  8
0
 62
     7
 10
245.065849
 20
203.75
 30
0.0
 40
1.251733
 50
266.984476
 51
93.015524
  0
LINE
  8
0
 62
     7
 10
250.0
 20
197.5
 30
0.0
 11
252.5
 21
197.5
 31
0.0
  0
ARC
  8
0
 62
     7
 10
249.934151
 20
198.75
 30
0.0
 40
1.251733
 50
86.984476
 51
273.015524
  0
ARC
  8
0
 62
     7
 10
249.934151
 20
201.25
 30
0.0
 40
1.251733
 50
86.984476
 51
273.015524
  0
LINE
  8
0
 62
     7
 10
250.0
 20
200.0
 30
0.0
 11
252.5
 21
200.0
 31
0.0
  0
LINE
  8
0
 62
     7
 10
250.0
 20
202.5
 30
0.0
 11
252.5
 21
202.5
 31
0.0
  0
LINE
  8
0
 62
     7
 10
252.5
 20
202.5
 30
0.0
 11
255.0
 21
202.5
 31
0.0
  0
LINE
  8
0
 62
     7
 10
252.5
 20
197.5
 30
0.0
 11
260.0
 21
197.5
 31
0.0
  0
LINE
  8
0
 62
     7
 10
252.5
 20
202.5
 30
0.0
 11
260.0
 21
202.5
 31
0.0
  0
LINE
  8
0
 62
     7
 10
252.5
 20
207.5
 30
0.0
 11
260.0
 21
207.5
 31
0.0
  0
LINE
  8
0
 62
     7
 10
250.0
 20
207.5
 30
0.0
 11
252.5
 21
207.5
 31
0.0
  0
LINE
  8
0
 62
     7
 10
250.0
 20
205.0
 30
0.0
 11
252.5
 21
205.0
 31
0.0
  0
ARC
  8
0
 62
     7
 10
249.934151
 20
206.25
 30
0.0
 40
1.251733
 50
86.984476
 51
273.015524
  0
ARC
  8
0
 62
     7
 10
249.934151
 20
203.75
 30
0.0
 40
1.251733
 50
86.984476
 51
273.015524
  0
LINE
  8
0
 62
     7
 10
250.0
 20
202.5
 30
0.0
 11
252.5
 21
202.5
 31
0.0
  0
LINE
  8
0
 62
     7
 10
245.0
 20
180.0
 30
0.0
 11
243.480133
 21
180.0
 31
0.0
  0
ARC
  8
0
 62
     7
 10
245.065849
 20
181.25
 30
0.0
 40
1.251733
 50
266.984476
 51
93.015524
  0
LINE
  8
0
 62
     7
 10
245.0
 20
182.5
 30
0.0
 11
243.480133
 21
182.5
 31
0.0
  0
LINE
  8
0
 62
     7
 10
245.0
 20
185.0
 30
0.0
 11
243.480133
 21
185.0
 31
0.0
  0
ARC
  8
0
 62
     7
 10
245.065849
 20
183.75
 30
0.0
 40
1.251733
 50
266.984476
 51
93.015524
  0
LINE
  8
0
 62
     7
 10
250.0
 20
177.5
 30
0.0
 11
252.5
 21
177.5
 31
0.0
  0
ARC
  8
0
 62
     7
 10
249.934151
 20
178.75
 30
0.0
 40
1.251733
 50
86.984476
 51
273.015524
  0
ARC
  8
0
 62
     7
 10
249.934151
 20
181.25
 30
0.0
 40
1.251733
 50
86.984476
 51
273.015524
  0
LINE
  8
0
 62
     7
 10
250.0
 20
180.0
 30
0.0
 11
252.5
 21
180.0
 31
0.0
  0
LINE
  8
0
 62
     7
 10
250.0
 20
182.5
 30
0.0
 11
252.5
 21
182.5
 31
0.0
  0
LINE
  8
0
 62
     7
 10
252.5
 20
182.5
 30
0.0
 11
255.0
 21
182.5
 31
0.0
  0
LINE
  8
0
 62
     7
 10
252.5
 20
177.5
 30
0.0
 11
260.0
 21
177.5
 31
0.0
  0
LINE
  8
0
 62
     7
 10
252.5
 20
182.5
 30
0.0
 11
260.0
 21
182.5
 31
0.0
  0
LINE
  8
0
 62
     7
 10
252.5
 20
187.5
 30
0.0
 11
260.0
 21
187.5
 31
0.0
  0
LINE
  8
0
 62
     7
 10
250.0
 20
187.5
 30
0.0
 11
252.5
 21
187.5
 31
0.0
  0
LINE
  8
0
 62
     7
 10
250.0
 20
185.0
 30
0.0
 11
252.5
 21
185.0
 31
0.0
  0
ARC
  8
0
 62
     7
 10
249.934151
 20
186.25
 30
0.0
 40
1.251733
 50
86.984476
 51
273.015524
  0
ARC
  8
0
 62
     7
 10
249.934151
 20
183.75
 30
0.0
 40
1.251733
 50
86.984476
 51
273.015524
  0
LINE
  8
0
 62
     7
 10
250.0
 20
182.5
 30
0.0
 11
252.5
 21
182.5
 31
0.0
  0
TEXT
  8
0
  6
CONTINUOUS
 62
     7
 10
255.0
 20
223.985611
 30
0.0
 40
2.0
  1
3
  0
TEXT
  8
0
  6
CONTINUOUS
 62
     7
 10
255.0
 20
218.987639
 30
0.0
 40
2.0
  1
2
  0
TEXT
  8
0
  6
CONTINUOUS
 62
     7
 10
255.0
 20
214.327797
 30
0.0
 40
2.0
  1
1
  0
TEXT
  8
0
  6
CONTINUOUS
 62
     7
 10
255.0
 20
203.98044
 30
0.0
 40
2.0
  1
6
  0
TEXT
  8
0
  6
CONTINUOUS
 62
     7
 10
255.0
 20
198.991138
 30
0.0
 40
2.0
  1
5
  0
TEXT
  8
0
  6
CONTINUOUS
 62
     7
 10
255.0
 20
194.357306
 30
0.0
 40
2.0
  1
4
  0
TEXT
  8
0
  6
CONTINUOUS
 62
     7
 10
255.0
 20
183.983938
 30
0.0
 40
2.0
  1
9
  0
TEXT
  8
0
  6
CONTINUOUS
 62
     7
 10
254.904233
 20
178.933947
 30
0.0
 40
2.0
  1
8
  0
TEXT
  8
0
  6
CONTINUOUS
 62
     7
 10
255.0
 20
174.031345
 30
0.0
 40
2.0
  1
7
  0
INSERT
  8
0
  6
CONTINUOUS
 62
     7
  2
BLC29
 10
241.529446
 20
157.371533
 30
0.0
 41
-1.0
 50
180.0
  0
LINE
  8
0
  6
CONTINUOUS
 62
     7
 10
260.0
 20
157.5
 30
0.0
 11
232.5
 21
157.5
 31
0.0
  0
TEXT
  8
0
  6
CONTINUOUS
 62
     7
 10
247.5
 20
152.5
 30
0.0
 40
2.0
  1
RX/TX
  0
LINE
  8
0
  6
DASHED
 62
     7
 10
210.0
 20
57.5
 30
0.0
 11
210.0
 21
50.0
 31
0.0
  0
LINE
  8
0
  6
CONTINUOUS
 62
     7
 10
190.0
 20
82.5
 30
0.0
 11
190.0
 21
105.0
 31
0.0
  0
LINE
  8
0
  6
CONTINUOUS
 62
     7
 10
195.0
 20
82.5
 30
0.0
 11
195.0
 21
115.0
 31
0.0
  0
LINE
  8
0
  6
CONTINUOUS
 62
     7
 10
200.0
 20
82.5
 30
0.0
 11
200.0
 21
125.0
 31
0.0
  0
LINE
  8
0
  6
CONTINUOUS
 62
     7
 10
205.0
 20
82.5
 30
0.0
 11
205.0
 21
135.0
 31
0.0
  0
LINE
  8
0
  6
CONTINUOUS
 62
     7
 10
210.0
 20
82.5
 30
0.0
 11
210.0
 21
145.0
 31
0.0
  0
LINE
  8
0
  6
CONTINUOUS
 62
     7
 10
155.0
 20
105.0
 30
0.0
 11
160.0
 21
105.0
 31
0.0
  0
LINE
  8
0
  6
CONTINUOUS
 62
     7
 10
162.5
 20
100.0
 30
0.0
 11
155.0
 21
100.0
 31
0.0
  0
LINE
  8
0
  6
CONTINUOUS
 62
     7
 10
162.5
 20
100.0
 30
0.0
 11
162.5
 21
102.5
 31
0.0
  0
LINE
  8
0
  6
CONTINUOUS
 62
     7
 10
167.5
 20
105.0
 30
0.0
 11
190.0
 21
105.0
 31
0.0
  0
TEXT
  8
0
  6
CONTINUOUS
 62
     7
 10
342.5
 20
135.83101
 30
0.0
 40
2.0
  1
BUS CONNECTION MODULE
  0
TEXT
  8
0
  6
CONTINUOUS
 62
     7
 10
342.5
 20
132.497677
 30
0.0
 40
2.0
  1
BUSSANSLUTNINGSMODUL
  0
TEXT
  8
0
  6
CONTINUOUS
 62
     7
 10
342.5
 20
89.179249
 30
0.0
 40
2.0
  1
INTERNAL RELAY FAULT
  0
TEXT
  8
0
  6
CONTINUOUS
 62
     7
 10
342.5
 20
85.845916
 30
0.0
 40
2.0
  1
INTERNT RELÄFEL
  0
LINE
  8
0
  6
CONTINUOUS
 62
     7
 10
387.5
 20
75.0
 30
0.0
 11
387.5
 21
42.5
 31
0.0
  0
TEXT
  8
0
  6
CONTINUOUS
 62
     7
 10
372.5
 20
60.0
 30
0.0
 40
2.0
  1
In=5A
  0
TEXT
  8
0
  6
CONTINUOUS
 62
     7
 10
355.0
 20
60.0
 30
0.0
 40
2.0
  1
In=1A
  0
TEXT
  8
0
  6
CONTINUOUS
 62
     7
 10
355.0
 20
71.510768
 30
0.0
 40
2.0
  1
TERMINALS/UTTAG
  0
LINE
  8
0
  6
CONTINUOUS
 62
     7
 10
367.5
 20
65.0
 30
0.0
 11
367.5
 21
42.5
 31
0.0
  0
LINE
  8
0
  6
CONTINUOUS
 62
     7
 10
337.5
 20
57.5
 30
0.0
 11
387.5
 21
57.5
 31
0.0
  0
LINE
  8
0
  6
CONTINUOUS
 62
     7
 10
350.0
 20
65.0
 30
0.0
 11
387.5
 21
65.0
 31
0.0
  0
LINE
  8
0
  6
CONTINUOUS
 62
     7
 10
337.5
 20
42.5
 30
0.0
 11
387.5
 21
42.5
 31
0.0
  0
LINE
  8
0
  6
CONTINUOUS
 62
     7
 10
337.5
 20
75.0
 30
0.0
 11
387.5
 21
75.0
 31
0.0
  0
LINE
  8
0
  6
CONTINUOUS
 62
     7
 10
350.0
 20
75.0
 30
0.0
 11
350.0
 21
42.5
 31
0.0
  0
LINE
  8
0
  6
CONTINUOUS
 62
     7
 10
337.5
 20
75.0
 30
0.0
 11
337.5
 21
42.5
 31
0.0
  0
TEXT
  8
0
  6
CONTINUOUS
 62
     7
 10
70.0
 20
224.317099
 30
0.0
 40
2.0
  1
11
  0
TEXT
  8
0
  6
CONTINUOUS
 62
     7
 10
70.0
 20
141.531955
 30
0.0
 40
2.0
  1
65
  0
TEXT
  8
0
  6
CONTINUOUS
 62
     7
 10
70.0
 20
131.479378
 30
0.0
 40
2.0
  1
68
  0
TEXT
  8
0
  6
CONTINUOUS
 62
     7
 10
70.0
 20
121.440084
 30
0.0
 40
2.0
  1
80
  0
TEXT
  8
0
  6
CONTINUOUS
 62
     7
 10
70.0
 20
111.41813
 30
0.0
 40
2.0
  1
77
  0
TEXT
  8
0
  6
CONTINUOUS
 62
     7
 10
70.0
 20
101.700333
 30
0.0
 40
2.0
  1
70
  0
TEXT
  8
0
  6
CONTINUOUS
 62
     7
 10
70.0
 20
96.213799
 30
0.0
 40
2.0
  1
71
  0
TEXT
  8
0
  6
CONTINUOUS
 62
     7
 10
193.665298
 20
84.035271
 30
0.0
 40
2.0
  1
72
 50
90.0
  0
TEXT
  8
0
  6
CONTINUOUS
 62
     7
 10
198.671834
 20
84.035271
 30
0.0
 40
2.0
  1
78
 50
90.0
  0
TEXT
  8
0
  6
CONTINUOUS
 62
     7
 10
203.621233
 20
84.035271
 30
0.0
 40
2.0
  1
81
 50
90.0
  0
TEXT
  8
0
  6
CONTINUOUS
 62
     7
 10
208.54669
 20
84.035271
 30
0.0
 40
2.0
  1
69
 50
90.0
  0
TEXT
  8
0
  6
CONTINUOUS
 62
     7
 10
213.627769
 20
84.035271
 30
0.0
 40
2.0
  1
66
 50
90.0
  0
TEXT
  8
0
  6
CONTINUOUS
 62
     7
 10
233.684389
 20
84.035271
 30
0.0
 40
2.0
  1
61
 50
90.0
  0
TEXT
  8
0
  6
CONTINUOUS
 62
     7
 10
238.621817
 20
84.035271
 30
0.0
 40
2.0
  1
62
 50
90.0
  0
TEXT
  8
0
  6
CONTINUOUS
 62
     7
 10
335.0
 20
77.5
 30
0.0
 40
2.0
  1
7)
  0
LINE
  8
0
  6
CONTINUOUS
 62
     7
 10
292.5
 20
222.5
 30
0.0
 11
302.5
 21
222.5
 31
0.0
  0
LINE
  8
0
  6
CONTINUOUS
 62
     7
 10
292.5
 20
202.5
 30
0.0
 11
302.5
 21
202.5
 31
0.0
  0
LINE
  8
0
  6
CONTINUOUS
 62
     7
 10
292.5
 20
182.5
 30
0.0
 11
302.5
 21
182.5
 31
0.0
  0
LINE
  8
0
  6
CONTINUOUS
 62
     7
 10
292.5
 20
192.5
 30
0.0
 11
302.5
 21
192.5
 31
0.0
  0
LINE
  8
0
  6
CONTINUOUS
 62
     7
 10
292.5
 20
212.5
 30
0.0
 11
302.5
 21
212.5
 31
0.0
  0
LINE
  8
0
  6
CONTINUOUS
 62
     7
 10
292.5
 20
232.5
 30
0.0
 11
302.5
 21
232.5
 31
0.0
  0
LINE
  8
0
  6
CONTINUOUS
 62
     7
 10
307.5
 20
182.5
 30
0.0
 11
306.5
 21
181.5
 31
0.0
  0
LINE
  8
0
  6
CONTINUOUS
 62
     7
 10
307.5
 20
182.5
 30
0.0
 11
307.5
 21
212.5
 31
0.0
  0
LINE
  8
0
  6
CONTINUOUS
 62
     7
 10
307.5
 20
212.5
 30
0.0
 11
307.5
 21
232.5
 31
0.0
  0
LINE
  8
0
  6
CONTINUOUS
 62
     7
 10
307.5
 20
232.5
 30
0.0
 11
306.5
 21
233.5
 31
0.0
  0
LINE
  8
0
  6
DASHED
 62
     7
 10
307.5
 20
207.5
 30
0.0
 11
320.0
 21
207.5
 31
0.0
  0
LINE
  8
0
  6
DASHED
 62
     7
 10
325.0
 20
222.5
 30
0.0
 11
325.0
 21
197.632058
 31
0.0
  0
CIRCLE
  8
0
  6
CONTINUOUS
 62
     7
 10
325.0
 20
207.440007
 30
0.0
 40
4.398585
  0
LINE
  8
0
  6
CONTINUOUS
 62
     7
 10
324.996788
 20
193.233355
 30
0.0
 11
324.996788
 21
195.566756
 31
0.0
  0
LINE
  8
0
  6
CONTINUOUS
 62
     7
 10
100.0
 20
145.0
 30
0.0
 11
94.256076
 21
141.785297
 31
0.0
  0
LINE
  8
0
  6
CONTINUOUS
 62
     7
 10
90.0
 20
145.0
 30
0.0
 11
95.0
 21
145.0
 31
0.0
  0
LINE
  8
0
  6
CONTINUOUS
 62
     7
 10
100.0
 20
145.0
 30
0.0
 11
105.0
 21
145.0
 31
0.0
  0
LINE
  8
0
  6
CONTINUOUS
 62
     7
 10
117.5
 20
135.0
 30
0.0
 11
127.5
 21
135.0
 31
0.0
  0
LINE
  8
0
  6
CONTINUOUS
 62
     7
 10
125.0
 20
125.0
 30
0.0
 11
130.0
 21
125.0
 31
0.0
  0
LINE
  8
0
  6
CONTINUOUS
 62
     7
 10
135.0
 20
125.0
 30
0.0
 11
140.0
 21
125.0
 31
0.0
  0
LINE
  8
0
  6
CONTINUOUS
 62
     7
 10
140.0
 20
115.0
 30
0.0
 11
147.5
 21
115.0
 31
0.0
  0
LINE
  8
0
  6
CONTINUOUS
 62
     7
 10
152.5
 20
115.0
 30
0.0
 11
157.5
 21
115.0
 31
0.0
  0
LINE
  8
0
  6
CONTINUOUS
 62
     7
 10
117.5
 20
135.0
 30
0.0
 11
111.756076
 21
131.785297
 31
0.0
  0
LINE
  8
0
  6
CONTINUOUS
 62
     7
 10
135.0
 20
125.0
 30
0.0
 11
129.256076
 21
121.785297
 31
0.0
  0
LINE
  8
0
  6
CONTINUOUS
 62
     7
 10
152.5
 20
115.0
 30
0.0
 11
146.756076
 21
111.785297
 31
0.0
  0
LINE
  8
0
  6
CONTINUOUS
 62
     7
 10
167.5
 20
105.0
 30
0.0
 11
161.756076
 21
101.785297
 31
0.0
  0
TEXT
  8
0
  6
DASHED
 62
     7
 10
201.426232
 20
198.582908
 30
0.0
 40
2.5
  1
SERIAL I/O
  0
TEXT
  8
0
  6
DASHED
 62
     7
 10
372.5
 20
12.5
 30
0.0
 40
2.0
  1
1
  0
LINE
  8
0
  6
CONTINUOUS
 62
     7
 10
92.5
 20
162.5
 30
0.0
 11
102.5
 21
162.5
 31
0.0
  0
LINE
  8
0
  6
CONTINUOUS
 62
     7
 10
92.5
 20
167.5
 30
0.0
 11
92.5
 21
162.5
 31
0.0
  0
LINE
  8
0
  6
CONTINUOUS
 62
     7
 10
95.0
 20
167.5
 30
0.0
 11
95.0
 21
176.152485
 31
0.0
  0
LINE
  8
0
  6
CONTINUOUS
 62
     7
 10
102.5
 20
167.5
 30
0.0
 11
102.5
 21
162.5
 31
0.0
  0
LINE
  8
0
  6
CONTINUOUS
 62
     7
 10
102.5
 20
167.5
 30
0.0
 11
92.5
 21
167.5
 31
0.0
  0
LINE
  8
0
  6
CONTINUOUS
 62
     7
 10
97.5
 20
160.0
 30
0.0
 11
97.5
 21
155.0
 31
0.0
  0
LINE
  8
0
  6
CONTINUOUS
 62
     7
 10
100.0
 20
167.5
 30
0.0
 11
100.0
 21
170.0
 31
0.0
  0
LINE
  8
0
  6
CONTINUOUS
 62
     7
 10
97.5
 20
162.5
 30
0.0
 11
97.5
 21
160.0
 31
0.0
  0
LINE
  8
0
  6
CONTINUOUS
 62
     7
 10
97.251902
 20
165.289195
 30
0.0
 11
94.906137
 21
164.099276
 31
0.0
  0
LINE
  8
0
  6
CONTINUOUS
 62
     7
 10
94.898095
 20
163.299262
 30
0.0
 11
97.281556
 21
164.487454
 31
0.0
  0
LINE
  8
0
  6
CONTINUOUS
 62
     7
 10
94.906137
 20
166.624549
 30
0.0
 11
97.251902
 21
165.289195
 31
0.0
  0
TEXT
  8
0
  6
CONTINUOUS
 62
     7
 10
99.339999
 20
163.964455
 30
0.0
 40
2.5
  1
1
 11
99.339999
 21
163.131122
 31
0.0
 73
     1
  0
LINE
  8
0
  6
CONTINUOUS
 62
     7
 10
100.0
 20
170.0
 30
0.0
 11
98.285914
 21
175.086297
 31
0.0
  0
LINE
  8
0
  6
CONTINUOUS
 62
     7
 10
100.0
 20
175.0
 30
0.0
 11
100.0
 21
204.493304
 31
0.0
  0
LINE
  8
0
  6
CONTINUOUS
 62
     7
 10
105.0
 20
145.0
 30
0.0
 11
210.0
 21
145.0
 31
0.0
  0
LINE
  8
0
  6
CONTINUOUS
 62
     7
 10
112.5
 20
170.0
 30
0.0
 11
110.785914
 21
175.086297
 31
0.0
  0
LINE
  8
0
  6
CONTINUOUS
 62
     7
 10
112.5
 20
175.0
 30
0.0
 11
112.5
 21
216.993304
 31
0.0
  0
LINE
  8
0
  6
CONTINUOUS
 62
     7
 10
130.0
 20
170.0
 30
0.0
 11
128.285914
 21
175.086297
 31
0.0
  0
LINE
  8
0
  6
CONTINUOUS
 62
     7
 10
130.0
 20
175.0
 30
0.0
 11
130.0
 21
216.993304
 31
0.0
  0
LINE
  8
0
  6
CONTINUOUS
 62
     7
 10
130.0
 20
167.5
 30
0.0
 11
130.0
 21
170.0
 31
0.0
  0
LINE
  8
0
  6
CONTINUOUS
 62
     7
 10
135.0
 20
170.0
 30
0.0
 11
133.285914
 21
175.086297
 31
0.0
  0
LINE
  8
0
  6
CONTINUOUS
 62
     7
 10
135.0
 20
175.0
 30
0.0
 11
135.0
 21
204.493304
 31
0.0
  0
LINE
  8
0
  6
CONTINUOUS
 62
     7
 10
135.0
 20
167.5
 30
0.0
 11
135.0
 21
170.0
 31
0.0
  0
CIRCLE
  8
0
  6
CONTINUOUS
 62
     7
 10
196.512659
 20
195.784079
 30
0.0
 40
1.0
  0
LINE
  8
0
  6
CONTINUOUS
 62
     7
 10
195.513509
 20
195.825312
 30
0.0
 11
165.0
 21
195.825312
 31
0.0
  0
TEXT
  8
0
  6
DASHED
 62
     7
 10
213.290744
 20
28.36388
 30
0.0
 40
2.0
  1
1992-08-13 HJ / RITU
  0
TEXT
  8
0
  6
DASHED
 62
     7
 10
377.5
 20
2.5
 30
0.0
 40
2.0
  1
B
  0
TEXT
  8
0
  6
DASHED
 62
     7
 10
49.324905
 20
1.209739
 30
0.0
 40
2.0
  1
REDRAWN WITH AUTOCAD 1992-08-13 HJ / RITU
  0
TEXT
  8
0
  6
DASHED
 62
     7
 10
98.859929
 20
177.281039
 30
0.0
 40
2.0
  1
SGR/6
 50
90.0
  0
TEXT
  8
0
  6
DASHED
 62
     7
 10
111.42742
 20
177.281039
 30
0.0
 40
2.0
  1
SGR/8
 50
90.0
  0
TEXT
  8
0
  6
DASHED
 62
     7
 10
128.675516
 20
177.281039
 30
0.0
 40
2.0
  1
SGR/7
 50
90.0
  0
TEXT
  8
0
  6
DASHED
 62
     7
 10
133.677425
 20
177.281039
 30
0.0
 40
2.0
  1
SGR/5
 50
90.0
  0
TEXT
  8
0
  6
DASHED
 62
     7
 10
143.66112
 20
177.281039
 30
0.0
 40
2.0
  1
SGR/3
 50
90.0
  0
TEXT
  8
0
  6
DASHED
 62
     7
 10
148.792799
 20
177.281039
 30
0.0
 40
2.0
  1
SGR/2
 50
90.0
  0
TEXT
  8
0
  6
DASHED
 62
     7
 10
153.924478
 20
177.281039
 30
0.0
 40
2.0
  1
SGR/4
 50
90.0
  0
TEXT
  8
0
 62
     7
 10
245.965704
 20
41.854458
 30
0.0
 40
1.92
  1
PE
  0
LINE
  8
0
 62
     7
 10
246.024091
 20
46.550711
 30
0.0
 11
249.073201
 21
46.550711
 31
0.0
  0
LINE
  8
0
 62
     7
 10
247.49999
 20
47.185023
 30
0.0
 11
247.49999
 21
50.000268
 31
0.0
  0
LINE
  8
0
 62
     7
 10
246.607964
 20
45.88116
 30
0.0
 11
248.527173
 21
45.88116
 31
0.0
  0
LINE
  8
0
 62
     7
 10
249.402981
 20
47.185023
 30
0.0
 11
248.80289
 21
47.185023
 31
0.0
  0
LINE
  8
0
 62
     7
 10
245.688906
 20
47.185023
 30
0.0
 11
249.381356
 21
47.185023
 31
0.0
  0
CIRCLE
  8
0
 62
     7
 10
247.505397
 20
46.695585
 30
0.0
 40
2.282738
  0
CIRCLE
  8
0
 62
     7
 10
251.040014
 20
85.818016
 30
0.0
 40
2.282738
  0
LINE
  8
0
 62
     7
 10
250.550576
 20
84.001525
 30
0.0
 11
250.550576
 21
87.693975
 31
0.0
  0
LINE
  8
0
 62
     7
 10
250.550576
 20
85.2156
 30
0.0
 11
250.550576
 21
84.61551
 31
0.0
  0
LINE
  8
0
 62
     7
 10
251.854438
 20
84.920583
 30
0.0
 11
251.854438
 21
86.839792
 31
0.0
  0
LINE
  8
0
 62
     7
 10
250.550576
 20
85.81261
 30
0.0
 11
249.154038
 21
85.81261
 31
0.0
  0
LINE
  8
0
 62
     7
 10
251.184888
 20
84.336711
 30
0.0
 11
251.184888
 21
87.385821
 31
0.0
  0
TEXT
  8
0
  6
DASHED
 62
     7
 10
112.710211
 20
232.110071
 30
0.0
 40
2.0
  1
SGR/1
  0
TEXT
  8
0
  6
DASHED
 62
     7
 10
70.0
 20
229.280391
 30
0.0
 40
2.0
  1
10
  0
TEXT
  8
0
  6
CONTINUOUS
 62
     7
 10
268.134884
 20
194.812536
 30
0.0
 40
2.0
  1
SI
  0
TEXT
  8
0
  6
CONTINUOUS
 62
     7
 10
268.134884
 20
204.968381
 30
0.0
 40
2.0
  1
SI
  0
TEXT
  8
0
  6
CONTINUOUS
 62
     7
 10
272.887383
 20
236.586709
 30
0.0
 40
2.0
  1
101
  0
TEXT
  8
0
  6
CONTINUOUS
 62
     7
 10
268.173717
 20
214.864177
 30
0.0
 40
2.0
  1
RI
  0
TEXT
  8
0
  6
CONTINUOUS
 62
     7
 10
268.173717
 20
184.755008
 30
0.0
 40
2.0
  1
TI
  0
TEXT
  8
0
  6
CONTINUOUS
 62
     7
 10
268.173717
 20
174.573925
 30
0.0
 40
2.0
  1
TI
  0
TEXT
  8
0
  6
CONTINUOUS
 62
     7
 10
268.173717
 20
224.715999
 30
0.0
 40
2.0
  1
RI
  0
LINE
  8
0
  6
CONTINUOUS
 62
     7
 10
266.0
 20
189.0
 30
0.0
 11
265.0
 21
190.0
 31
0.0
  0
LINE
  8
0
  6
CONTINUOUS
 62
     7
 10
266.0
 20
189.0
 30
0.0
 11
266.0
 21
182.0
 31
0.0
  0
LINE
  8
0
  6
CONTINUOUS
 62
     7
 10
266.0
 20
182.0
 30
0.0
 11
265.0
 21
181.0
 31
0.0
  0
TEXT
  8
0
  6
DASHED
 62
     7
 10
274.717817
 20
174.386254
 30
0.0
 40
2.0
  1
8B
 11
274.717817
 21
173.719587
 31
0.0
 73
     1
  0
TEXT
  8
0
  6
DASHED
 62
     7
 10
274.538363
 20
184.408775
 30
0.0
 40
2.0
  1
7B
 11
274.538363
 21
183.742108
 31
0.0
 73
     1
  0
TEXT
  8
0
  6
DASHED
 62
     7
 10
274.538363
 20
194.431297
 30
0.0
 40
2.0
  1
6B
 11
274.538363
 21
193.76463
 31
0.0
 73
     1
  0
TEXT
  8
0
  6
DASHED
 62
     7
 10
274.538363
 20
204.271858
 30
0.0
 40
2.0
  1
5B
 11
274.538363
 21
203.605192
 31
0.0
 73
     1
  0
TEXT
  8
0
  6
DASHED
 62
     7
 10
274.538363
 20
214.285715
 30
0.0
 40
2.0
  1
4B
 11
274.538363
 21
213.619049
 31
0.0
 73
     1
  0
TEXT
  8
0
  6
DASHED
 62
     7
 10
274.538363
 20
224.134942
 30
0.0
 40
2.0
  1
3B
 11
274.538363
 21
223.468275
 31
0.0
 73
     1
  0
LINE
  8
0
  6
CONTINUOUS
 62
     7
 10
270.0
 20
207.5
 30
0.0
 11
266.0
 21
207.5
 31
0.0
  0
LINE
  8
0
  6
CONTINUOUS
 62
     7
 10
270.0
 20
187.5
 30
0.0
 11
266.0
 21
187.5
 31
0.0
  0
LINE
  8
0
  6
CONTINUOUS
 62
     7
 10
266.0
 20
202.0
 30
0.0
 11
265.0
 21
201.0
 31
0.0
  0
LINE
  8
0
  6
CONTINUOUS
 62
     7
 10
266.0
 20
209.0
 30
0.0
 11
266.0
 21
202.0
 31
0.0
  0
LINE
  8
0
  6
CONTINUOUS
 62
     7
 10
266.0
 20
209.0
 30
0.0
 11
265.0
 21
210.0
 31
0.0
  0
LINE
  8
0
  6
CONTINUOUS
 62
     7
 10
266.0
 20
229.0
 30
0.0
 11
265.0
 21
230.0
 31
0.0
  0
LINE
  8
0
  6
CONTINUOUS
 62
     7
 10
266.0
 20
222.0
 30
0.0
 11
265.0
 21
221.0
 31
0.0
  0
LINE
  8
0
  6
CONTINUOUS
 62
     7
 10
266.0
 20
229.0
 30
0.0
 11
266.0
 21
222.0
 31
0.0
  0
LINE
  8
0
 62
     7
 10
276.38095
 20
179.444425
 30
0.0
 11
277.060313
 21
178.508681
 31
0.0
  0
LINE
  8
0
 62
     7
 10
275.0
 20
177.5
 30
0.0
 11
277.5
 21
177.5
 31
0.0
  0
CIRCLE
  8
0
  6
CONTINUOUS
 62
     7
 10
283.449551
 20
182.471218
 30
0.0
 40
1.0
  0
LINE
  8
0
 62
     7
 10
277.5
 20
177.5
 30
0.0
 11
277.5
 21
180.4
 31
0.0
  0
LINE
  8
0
 62
     7
 10
282.449552
 20
182.469558
 30
0.0
 11
276.7
 21
179.0
 31
0.0
  0
CIRCLE
  8
0
  6
CONTINUOUS
 62
     7
 10
283.449551
 20
192.471218
 30
0.0
 40
1.0
  0
LINE
  8
0
 62
     7
 10
275.0
 20
182.498451
 30
0.0
 11
277.5
 21
182.498451
 31
0.0
  0
LINE
  8
0
 62
     7
 10
275.0
 20
182.49845
 30
0.0
 11
272.5
 21
182.49845
 31
0.0
  0
LINE
  8
0
 62
     7
 10
272.5
 20
182.49845
 30
0.0
 11
272.5
 21
192.49845
 31
0.0
  0
LINE
  8
0
 62
     7
 10
282.449552
 20
192.469558
 30
0.0
 11
276.7
 21
189.0
 31
0.0
  0
LINE
  8
0
 62
     7
 10
276.38095
 20
189.444425
 30
0.0
 11
277.060313
 21
188.508681
 31
0.0
  0
LINE
  8
0
 62
     7
 10
277.5
 20
187.5
 30
0.0
 11
277.5
 21
190.4
 31
0.0
  0
LINE
  8
0
 62
     7
 10
275.0
 20
187.5
 30
0.0
 11
277.5
 21
187.5
 31
0.0
  0
LINE
  8
0
 62
     7
 10
270.0
 20
187.5
 30
0.0
 11
275.0
 21
187.5
 31
0.0
  0
LINE
  8
0
 62
     7
 10
272.5
 20
192.49845
 30
0.0
 11
275.0
 21
192.49845
 31
0.0
  0
LINE
  8
0
 62
     7
 10
275.0
 20
192.5
 30
0.0
 11
277.5
 21
192.5
 31
0.0
  0
CIRCLE
  8
0
  6
CONTINUOUS
 62
     7
 10
283.449551
 20
202.471218
 30
0.0
 40
1.0
  0
LINE
  8
0
 62
     7
 10
275.0
 20
197.5
 30
0.0
 11
277.5
 21
197.5
 31
0.0
  0
LINE
  8
0
 62
     7
 10
277.5
 20
197.5
 30
0.0
 11
277.5
 21
200.4
 31
0.0
  0
LINE
  8
0
 62
     7
 10
282.449552
 20
202.469558
 30
0.0
 11
276.7
 21
199.0
 31
0.0
  0
LINE
  8
0
 62
     7
 10
276.38095
 20
199.444425
 30
0.0
 11
277.060313
 21
198.508681
 31
0.0
  0
LINE
  8
0
 62
     7
 10
275.0
 20
202.5
 30
0.0
 11
277.5
 21
202.5
 31
0.0
  0
LINE
  8
0
 62
     7
 10
275.0
 20
202.49845
 30
0.0
 11
272.5
 21
202.49845
 31
0.0
  0
LINE
  8
0
 62
     7
 10
272.5
 20
202.49845
 30
0.0
 11
272.5
 21
212.49845
 31
0.0
  0
CIRCLE
  8
0
  6
CONTINUOUS
 62
     7
 10
283.449551
 20
212.471218
 30
0.0
 40
1.0
  0
LINE
  8
0
 62
     7
 10
275.0
 20
212.5
 30
0.0
 11
277.5
 21
212.5
 31
0.0
  0
LINE
  8
0
 62
     7
 10
272.5
 20
212.49845
 30
0.0
 11
275.0
 21
212.49845
 31
0.0
  0
LINE
  8
0
 62
     7
 10
270.0
 20
207.5
 30
0.0
 11
275.0
 21
207.5
 31
0.0
  0
LINE
  8
0
 62
     7
 10
275.0
 20
207.5
 30
0.0
 11
277.5
 21
207.5
 31
0.0
  0
LINE
  8
0
 62
     7
 10
277.5
 20
207.5
 30
0.0
 11
277.5
 21
210.4
 31
0.0
  0
LINE
  8
0
 62
     7
 10
276.38095
 20
209.444425
 30
0.0
 11
277.060313
 21
208.508681
 31
0.0
  0
LINE
  8
0
 62
     7
 10
282.449552
 20
212.469558
 30
0.0
 11
276.7
 21
209.0
 31
0.0
  0
CIRCLE
  8
0
  6
CONTINUOUS
 62
     7
 10
283.449551
 20
222.471218
 30
0.0
 40
1.0
  0
LINE
  8
0
 62
     7
 10
277.5
 20
217.5
 30
0.0
 11
277.5
 21
220.4
 31
0.0
  0
LINE
  8
0
 62
     7
 10
275.0
 20
217.5
 30
0.0
 11
277.5
 21
217.5
 31
0.0
  0
LINE
  8
0
 62
     7
 10
276.38095
 20
219.444425
 30
0.0
 11
277.060313
 21
218.508681
 31
0.0
  0
LINE
  8
0
 62
     7
 10
282.449552
 20
222.469558
 30
0.0
 11
276.7
 21
219.0
 31
0.0
  0
LINE
  8
0
  6
CONTINUOUS
 62
     7
 10
270.0
 20
227.5
 30
0.0
 11
266.0
 21
227.5
 31
0.0
  0
LINE
  8
0
 62
     7
 10
275.0
 20
222.5
 30
0.0
 11
277.5
 21
222.5
 31
0.0
  0
LINE
  8
0
 62
     7
 10
275.0
 20
222.49845
 30
0.0
 11
272.5
 21
222.49845
 31
0.0
  0
LINE
  8
0
 62
     7
 10
282.449552
 20
232.469558
 30
0.0
 11
276.7
 21
229.0
 31
0.0
  0
LINE
  8
0
 62
     7
 10
276.38095
 20
229.444425
 30
0.0
 11
277.060313
 21
228.508681
 31
0.0
  0
LINE
  8
0
 62
     7
 10
277.5
 20
227.5
 30
0.0
 11
277.5
 21
230.4
 31
0.0
  0
LINE
  8
0
 62
     7
 10
275.0
 20
227.5
 30
0.0
 11
277.5
 21
227.5
 31
0.0
  0
LINE
  8
0
 62
     7
 10
270.0
 20
227.5
 30
0.0
 11
275.0
 21
227.5
 31
0.0
  0
LINE
  8
0
 62
     7
 10
272.5
 20
232.49845
 30
0.0
 11
275.0
 21
232.49845
 31
0.0
  0
LINE
  8
0
 62
     7
 10
275.0
 20
232.5
 30
0.0
 11
277.5
 21
232.5
 31
0.0
  0
LINE
  8
0
 62
     7
 10
272.5
 20
222.49845
 30
0.0
 11
272.5
 21
232.49845
 31
0.0
  0
CIRCLE
  8
0
  6
CONTINUOUS
 62
     7
 10
283.449551
 20
232.471218
 30
0.0
 40
1.0
  0
LINE
  8
0
  6
CONTINUOUS
 62
     7
 10
275.0
 20
177.5
 30
0.0
 11
260.0
 21
177.5
 31
0.0
  0
LINE
  8
0
  6
CONTINUOUS
 62
     7
 10
260.0
 20
182.5
 30
0.0
 11
264.266471
 21
182.5
 31
0.0
  0
LINE
  8
0
  6
CONTINUOUS
 62
     7
 10
260.0
 20
187.5
 30
0.0
 11
264.266471
 21
187.5
 31
0.0
  0
LINE
  8
0
  6
CONTINUOUS
 62
     7
 10
275.0
 20
197.5
 30
0.0
 11
260.0
 21
197.5
 31
0.0
  0
LINE
  8
0
  6
CONTINUOUS
 62
     7
 10
260.0
 20
202.5
 30
0.0
 11
264.266471
 21
202.5
 31
0.0
  0
LINE
  8
0
  6
CONTINUOUS
 62
     7
 10
260.0
 20
207.5
 30
0.0
 11
264.266471
 21
207.5
 31
0.0
  0
LINE
  8
0
  6
CONTINUOUS
 62
     7
 10
260.0
 20
217.5
 30
0.0
 11
275.0
 21
217.5
 31
0.0
  0
LINE
  8
0
  6
CONTINUOUS
 62
     7
 10
260.0
 20
222.5
 30
0.0
 11
264.266471
 21
222.5
 31
0.0
  0
LINE
  8
0
  6
CONTINUOUS
 62
     7
 10
260.0
 20
227.5
 30
0.0
 11
264.266471
 21
227.5
 31
0.0
  0
TEXT
  8
0
  6
DASHED
 62
     7
 10
287.5
 20
229.765533
 30
0.0
 40
2.0
  1
3A
 11
287.5
 21
229.098866
 31
0.0
 73
     1
  0
TEXT
  8
0
  6
DASHED
 62
     7
 10
287.5
 20
219.833333
 30
0.0
 40
2.0
  1
4A
 11
287.5
 21
219.166667
 31
0.0
 73
     1
  0
TEXT
  8
0
  6
DASHED
 62
     7
 10
287.5
 20
209.537215
 30
0.0
 40
2.0
  1
5A
 11
287.5
 21
208.870548
 31
0.0
 73
     1
  0
TEXT
  8
0
  6
DASHED
 62
     7
 10
287.5
 20
199.786975
 30
0.0
 40
2.0
  1
6A
 11
287.5
 21
199.120309
 31
0.0
 73
     1
  0
TEXT
  8
0
  6
DASHED
 62
     7
 10
287.5
 20
189.833333
 30
0.0
 40
2.0
  1
7A
 11
287.5
 21
189.166667
 31
0.0
 73
     1
  0
TEXT
  8
0
  6
DASHED
 62
     7
 10
287.5
 20
179.545879
 30
0.0
 40
2.0
  1
8A
 11
287.5
 21
178.879213
 31
0.0
 73
     1
  0
LINE
  8
0
  6
CONTINUOUS
 62
     7
 10
284.449137
 20
182.5
 30
0.0
 11
292.5
 21
182.5
 31
0.0
  0
LINE
  8
0
  6
CONTINUOUS
 62
     7
 10
284.449137
 20
192.5
 30
0.0
 11
292.5
 21
192.5
 31
0.0
  0
LINE
  8
0
  6
CONTINUOUS
 62
     7
 10
284.449137
 20
202.5
 30
0.0
 11
292.5
 21
202.5
 31
0.0
  0
LINE
  8
0
  6
CONTINUOUS
 62
     7
 10
284.449137
 20
212.5
 30
0.0
 11
292.5
 21
212.5
 31
0.0
  0
LINE
  8
0
  6
CONTINUOUS
 62
     7
 10
284.449137
 20
222.5
 30
0.0
 11
292.5
 21
222.5
 31
0.0
  0
LINE
  8
0
  6
CONTINUOUS
 62
     7
 10
284.449137
 20
232.5
 30
0.0
 11
292.5
 21
232.5
 31
0.0
  0
TEXT
  8
0
  6
DASHED
 62
     7
 10
267.038499
 20
228.267895
 30
0.0
 40
2.0
  1
7)
  0
TEXT
  8
0
  6
DASHED
 62
     7
 10
267.038499
 20
208.314186
 30
0.0
 40
2.0
  1
7)
  0
TEXT
  8
0
  6
DASHED
 62
     7
 10
267.038499
 20
188.351807
 30
0.0
 40
2.0
  1
7)
  0
TEXT
  8
0
  6
CONTINUOUS
 62
     7
 10
188.519596
 20
66.787845
 30
0.0
 40
2.0
  1
101
 50
90.0
  0
TEXT
  8
0
  6
CONTINUOUS
 62
     7
 10
218.210796
 20
58.430264
 30
0.0
 40
2.0
  1
18A
 50
90.0
  0
TEXT
  8
0
  6
CONTINUOUS
 62
     7
 10
213.042942
 20
58.430264
 30
0.0
 40
2.0
  1
1A
 50
90.0
  0
TEXT
  8
0
  6
CONTINUOUS
 62
     7
 10
203.078553
 20
58.430264
 30
0.0
 40
2.0
  1
2A
 50
90.0
  0
TEXT
  8
0
  6
CONTINUOUS
 62
     7
 10
197.77957
 20
58.430264
 30
0.0
 40
2.0
  1
13A
 50
90.0
  0
LINE
  8
0
  6
CONTINUOUS
 62
     7
 10
215.0
 20
65.0
 30
0.0
 11
215.0
 21
57.5
 31
0.0
  0
CIRCLE
  8
0
  6
CONTINUOUS
 62
     7
 10
215.0
 20
65.741055
 30
0.0
 40
0.740939
  0
LINE
  8
0
  6
CONTINUOUS
 62
     7
 10
215.0
 20
77.5
 30
0.0
 11
215.0
 21
72.5
 31
0.0
  0
LINE
  8
0
  6
CONTINUOUS
 62
     7
 10
201.365905
 20
78.313541
 30
0.0
 11
201.365905
 21
80.000506
 31
0.0
  0
LINE
  8
0
  6
CONTINUOUS
 62
     7
 10
201.365905
 20
80.000506
 30
0.0
 11
203.033279
 21
80.000506
 31
0.0
  0
LINE
  8
0
  6
CONTINUOUS
 62
     7
 10
203.033279
 20
80.000506
 30
0.0
 11
203.033279
 21
78.313541
 31
0.0
  0
LINE
  8
0
  6
CONTINUOUS
 62
     7
 10
203.033279
 20
78.313541
 30
0.0
 11
201.365905
 21
78.313541
 31
0.0
  0
LINE
  8
0
  6
CONTINUOUS
 62
     7
 10
197.615221
 20
79.844644
 30
0.0
 11
195.947848
 21
79.844644
 31
0.0
  0
LINE
  8
0
  6
CONTINUOUS
 62
     7
 10
197.615221
 20
81.531609
 30
0.0
 11
197.615221
 21
79.844644
 31
0.0
  0
LINE
  8
0
  6
CONTINUOUS
 62
     7
 10
195.947848
 20
81.531609
 30
0.0
 11
197.615221
 21
81.531609
 31
0.0
  0
LINE
  8
0
  6
CONTINUOUS
 62
     7
 10
195.947848
 20
79.844644
 30
0.0
 11
195.947848
 21
81.531609
 31
0.0
  0
TEXT
  8
0
  6
DASHED
 62
     7
 10
218.218527
 20
74.34782
 30
0.0
 40
2.0
  1
18B-
 50
90.0
  0
TEXT
  8
0
  6
DASHED
 62
     7
 10
213.045377
 20
74.34782
 30
0.0
 40
2.0
  1
1B+
 50
90.0
  0
TEXT
  8
0
  6
DASHED
 62
     7
 10
203.214777
 20
74.34782
 30
0.0
 40
2.0
  1
2B
 50
90.0
  0
TEXT
  8
0
  6
DASHED
 62
     7
 10
197.775535
 20
74.34782
 30
0.0
 40
2.0
  1
13B
 50
90.0
  0
LINE
  8
0
  6
DASHED
 62
     7
 10
190.0
 20
82.5
 30
0.0
 11
190.0
 21
57.5
 31
0.0
  0
LINE
  8
0
  6
CONTINUOUS
 62
     7
 10
205.0
 20
77.5
 30
0.0
 11
210.0
 21
77.5
 31
0.0
  0
LINE
  8
0
  6
CONTINUOUS
 62
     7
 10
205.0
 20
82.5
 30
0.0
 11
205.0
 21
77.5
 31
0.0
  0
LINE
  8
0
  6
CONTINUOUS
 62
     7
 10
210.0
 20
82.5
 30
0.0
 11
210.0
 21
72.5
 31
0.0
  0
CIRCLE
  8
0
  6
CONTINUOUS
 62
     7
 10
210.0
 20
65.741055
 30
0.0
 40
0.740939
  0
LINE
  8
0
  6
CONTINUOUS
 62
     7
 10
210.0
 20
65.0
 30
0.0
 11
210.0
 21
57.5
 31
0.0
  0
LINE
  8
0
  6
CONTINUOUS
 62
     7
 10
195.0
 20
65.0
 30
0.0
 11
195.0
 21
57.5
 31
0.0
  0
CIRCLE
  8
0
  6
CONTINUOUS
 62
     7
 10
195.0
 20
65.741055
 30
0.0
 40
0.740939
  0
LINE
  8
0
  6
CONTINUOUS
 62
     7
 10
195.0
 20
82.5
 30
0.0
 11
195.0
 21
72.5
 31
0.0
  0
LINE
  8
0
  6
CONTINUOUS
 62
     7
 10
200.0
 20
65.0
 30
0.0
 11
200.0
 21
57.5
 31
0.0
  0
CIRCLE
  8
0
  6
CONTINUOUS
 62
     7
 10
200.0
 20
65.741055
 30
0.0
 40
0.740939
  0
LINE
  8
0
  6
CONTINUOUS
 62
     7
 10
200.0
 20
82.5
 30
0.0
 11
200.0
 21
72.5
 31
0.0
  0
LINE
  8
0
  6
DASHED
 62
     7
 10
230.0
 20
82.5
 30
0.0
 11
230.0
 21
57.5
 31
0.0
  0
LINE
  8
0
  6
DASHED
 62
     7
 10
235.0
 20
82.5
 30
0.0
 11
235.0
 21
57.5
 31
0.0
  0
LINE
  8
0
  6
DASHED
 62
     7
 10
247.5
 20
82.5
 30
0.0
 11
247.5
 21
57.5
 31
0.0
  0
LINE
  8
0
  6
CONTINUOUS
 62
     7
 10
235.0
 20
102.929605
 30
0.0
 11
235.0
 21
100.0
 31
0.0
  0
LINE
  8
0
  6
CONTINUOUS
 62
     7
 10
230.0
 20
102.929605
 30
0.0
 11
230.0
 21
100.0
 31
0.0
  0
LINE
  8
0
  6
CONTINUOUS
 62
     7
 10
235.0
 20
117.5
 30
0.0
 11
235.0
 21
112.252154
 31
0.0
  0
LINE
  8
0
  6
CONTINUOUS
 62
     7
 10
230.0
 20
117.5
 30
0.0
 11
230.0
 21
112.252154
 31
0.0
  0
LINE
  8
0
 62
     7
 10
232.466311
 20
105.22844
 30
0.0
 11
236.466311
 21
105.22844
 31
0.0
  0
LINE
  8
0
 62
     7
 10
228.709901
 20
110.174464
 30
0.0
 11
232.709901
 21
110.174464
 31
0.0
  0
LINE
  8
0
 62
     7
 10
227.795103
 20
103.886207
 30
0.0
 11
236.158613
 21
112.252154
 31
0.0
  0
LINE
  8
0
 62
     7
 10
228.779395
 20
102.929605
 30
0.0
 11
237.119756
 21
111.267352
 31
0.0
  0
LINE
  8
0
 62
     7
 10
227.795103
 20
102.929605
 30
0.0
 11
227.795103
 21
112.252154
 31
0.0
  0
LINE
  8
0
 62
     7
 10
237.119756
 20
102.929605
 30
0.0
 11
227.795103
 21
102.929605
 31
0.0
  0
LINE
  8
0
 62
     7
 10
237.119756
 20
112.252154
 30
0.0
 11
237.119756
 21
102.929605
 31
0.0
  0
LINE
  8
0
 62
     7
 10
227.795103
 20
112.252154
 30
0.0
 11
237.119756
 21
112.252154
 31
0.0
  0
TEXT
  8
0
  6
CONTINUOUS
 62
     7
 10
229.366734
 20
118.05315
 30
0.0
 40
2.0
  1
+
  0
TEXT
  8
0
  6
CONTINUOUS
 62
     7
 10
234.297086
 20
118.077719
 30
0.0
 40
2.0
  1
-
  0
ARC
  8
0
 62
     7
 10
233.672927
 20
103.436221
 30
0.0
 40
0.869227
 50
32.471192
 51
175.601295
  0
ARC
  8
0
 62
     7
 10
235.139595
 20
104.369554
 30
0.0
 40
0.869227
 50
212.471192
 51
355.601295
  0
CIRCLE
  8
0
  6
CONTINUOUS
 62
     7
 10
64.550439
 20
142.459732
 30
0.0
 40
0.600944
  0
CIRCLE
  8
0
  6
CONTINUOUS
 62
     7
 10
64.550439
 20
142.459732
 30
0.0
 40
1.252595
  0
LINE
  8
0
  6
CONTINUOUS
 62
     7
 10
57.30333
 20
145.000025
 30
0.0
 11
67.511081
 21
145.000025
 31
0.0
  0
CIRCLE
  8
0
  6
CONTINUOUS
 62
     7
 10
56.562416
 20
145.006164
 30
0.0
 40
0.740939
  0
LINE
  8
0
  6
CONTINUOUS
 62
     7
 10
40.0
 20
144.991507
 30
0.0
 11
50.0
 21
144.991507
 31
0.0
  0
CIRCLE
  8
0
  6
CONTINUOUS
 62
     7
 10
56.562416
 20
135.006164
 30
0.0
 40
0.740939
  0
LINE
  8
0
  6
CONTINUOUS
 62
     7
 10
57.30333
 20
135.000025
 30
0.0
 11
67.511081
 21
135.000025
 31
0.0
  0
LINE
  8
0
  6
CONTINUOUS
 62
     7
 10
40.0
 20
134.991507
 30
0.0
 11
50.0
 21
134.991507
 31
0.0
  0
LINE
  8
0
  6
CONTINUOUS
 62
     7
 10
57.30333
 20
232.500025
 30
0.0
 11
67.511081
 21
232.500025
 31
0.0
  0
LINE
  8
0
  6
CONTINUOUS
 62
     7
 10
64.435888
 20
231.390452
 30
0.0
 11
63.45925
 21
230.226539
 31
0.0
  0
LINE
  8
0
  6
CONTINUOUS
 62
     7
 10
65.604103
 20
230.410203
 30
0.0
 11
64.435888
 21
231.390452
 31
0.0
  0
LINE
  8
0
  6
CONTINUOUS
 62
     7
 10
64.627465
 20
229.246291
 30
0.0
 11
65.604103
 21
230.410203
 31
0.0
  0
LINE
  8
0
  6
CONTINUOUS
 62
     7
 10
63.45925
 20
230.226539
 30
0.0
 11
64.627465
 21
229.246291
 31
0.0
  0
CIRCLE
  8
0
  6
CONTINUOUS
 62
     7
 10
56.562416
 20
232.506164
 30
0.0
 40
0.740939
  0
LINE
  8
0
  6
CONTINUOUS
 62
     7
 10
40.0
 20
232.491507
 30
0.0
 11
50.0
 21
232.491507
 31
0.0
  0
TEXT
  8
0
  6
DASHED
 62
     7
 10
42.5
 20
229.280391
 30
0.0
 40
2.0
  1
14A
  0
TEXT
  8
0
  6
DASHED
 62
     7
 10
42.5
 20
141.501937
 30
0.0
 40
2.0
  1
17A
  0
TEXT
  8
0
  6
DASHED
 62
     7
 10
42.5
 20
131.483583
 30
0.0
 40
2.0
  1
16A
  0
TEXT
  8
0
  6
DASHED
 62
     7
 10
57.5
 20
229.280391
 30
0.0
 40
2.0
  1
14B
  0
TEXT
  8
0
  6
DASHED
 62
     7
 10
57.5
 20
141.501937
 30
0.0
 40
2.0
  1
17B
  0
TEXT
  8
0
  6
DASHED
 62
     7
 10
57.5
 20
131.483583
 30
0.0
 40
2.0
  1
16B
  0
LINE
  8
0
  6
DASHED
 62
     7
 10
67.5
 20
125.0
 30
0.0
 11
40.0
 21
125.0
 31
0.0
  0
LINE
  8
0
  6
DASHED
 62
     7
 10
67.5
 20
115.0
 30
0.0
 11
40.0
 21
115.0
 31
0.0
  0
LINE
  8
0
  6
DASHED
 62
     7
 10
67.5
 20
100.0
 30
0.0
 11
40.0
 21
100.0
 31
0.0
  0
LINE
  8
0
  6
DASHED
 62
     7
 10
67.5
 20
227.5
 30
0.0
 11
40.0
 21
227.5
 31
0.0
  0
LINE
  8
0
  6
CENTER
 62
     7
 10
292.5
 20
250.0
 30
0.0
 11
292.5
 21
57.5
 31
0.0
  0
LINE
  8
0
  6
CENTER
 62
     7
 10
292.5
 20
57.5
 30
0.0
 11
40.0
 21
57.5
 31
0.0
  0
LINE
  8
0
  6
CENTER
 62
     7
 10
40.0
 20
57.5
 30
0.0
 11
40.0
 21
250.0
 31
0.0
  0
LINE
  8
0
  6
CENTER
 62
     7
 10
40.0
 20
250.0
 30
0.0
 11
292.5
 21
250.0
 31
0.0
  0
TEXT
  8
0
  6
CENTER
 62
     7
 10
75.0
 20
245.0
 30
0.0
 40
2.0
  1
108
  0
TEXT
  8
0
  6
CENTER
 62
     7
 10
50.0
 20
150.0
 30
0.0
 40
2.0
  1
101
  0
TEXT
  8
0
  6
CENTER
 62
     7
 10
47.5
 20
252.5
 30
0.0
 40
2.0
  1
101
  0
TEXT
  8
0
  6
CONTINUOUS
 62
     7
 10
371.078259
 20
181.374636
 30
0.0
 40
2.0
  1
4S
  0
TEXT
  8
0
  6
CONTINUOUS
 62
     7
 10
342.5
 20
187.5
 30
0.0
 40
2.0
  1
101  108
  0
LINE
  8
0
  6
CONTINUOUS
 62
     7
 10
350.0
 20
190.0
 30
0.0
 11
350.0
 21
172.5
 31
0.0
  0
LINE
  8
0
  6
CONTINUOUS
 62
     7
 10
347.5
 20
190.0
 30
0.0
 11
347.5
 21
172.5
 31
0.0
  0
LINE
  8
0
  6
CONTINUOUS
 62
     7
 10
340.0
 20
172.5
 30
0.0
 11
340.0
 21
190.0
 31
0.0
  0
LINE
  8
0
  6
CONTINUOUS
 62
     7
 10
370.0
 20
172.5
 30
0.0
 11
340.0
 21
172.5
 31
0.0
  0
LINE
  8
0
  6
CONTINUOUS
 62
     7
 10
370.0
 20
190.0
 30
0.0
 11
370.0
 21
172.5
 31
0.0
  0
LINE
  8
0
  6
CONTINUOUS
 62
     7
 10
340.0
 20
190.0
 30
0.0
 11
370.0
 21
190.0
 31
0.0
  0
TEXT
  8
0
  6
CENTER
 62
     7
 10
357.5
 20
191.291151
 30
0.0
 40
2.0
  1
30C
  0
TEXT
  8
0
  6
CENTER
 62
     7
 10
342.5
 20
168.481456
 30
0.0
 40
2.0
  1
101 RTXP 18
  0
TEXT
  8
0
  6
CENTER
 62
     7
 10
342.5
 20
165.148123
 30
0.0
 40
2.0
  1
RK 926 115-AD
  0
TEXT
  8
0
  6
CENTER
 62
     7
 10
342.5
 20
161.814789
 30
0.0
 40
2.0
  1
108 SPAJ 131 C
  0
LINE
  8
0
  6
DASHED
 62
     7
 10
292.5
 20
157.5
 30
0.0
 11
307.5
 21
157.5
 31
0.0
  0
TEXT
  8
0
  6
DASHED
 62
     7
 10
310.0
 20
156.291829
 30
0.0
 40
2.0
  1
2)
  0
TEXT
  8
0
  6
DASHED
 62
     7
 10
342.5
 20
52.5
 30
0.0
 40
2.0
  1
3B
  0
TEXT
  8
0
  6
DASHED
 62
     7
 10
342.5
 20
49.166667
 30
0.0
 40
2.0
  1
5B
  0
TEXT
  8
0
  6
DASHED
 62
     7
 10
342.5
 20
45.833333
 30
0.0
 40
2.0
  1
7B
  0
TEXT
  8
0
  6
DASHED
 62
     7
 10
340.0
 20
62.5
 30
0.0
 40
2.0
  1
101:
  0
LINE
  8
0
  6
CONTINUOUS
 62
     7
 10
350.0
 20
70.0
 30
0.0
 11
387.5
 21
70.0
 31
0.0
  0
TEXT
  8
0
  6
DASHED
 62
     7
 10
365.0
 20
66.540288
 30
0.0
 40
2.0
  1
108:
  0
TEXT
  8
0
  6
DASHED
 62
     7
 10
322.5
 20
27.5
 30
0.0
 40
2.0
  1
CIRCUIT DIAGRAM / KRETSSCHEMA
  0
TEXT
  8
0
  6
DASHED
 62
     7
 10
322.5
 20
24.166667
 30
0.0
 40
2.0
  1
SPAJ 131 C WITH TEST SWITCH
  0
TEXT
  8
0
  6
DASHED
 62
     7
 10
322.5
 20
20.833333
 30
0.0
 40
2.0
  1
SPAJ 131 C MED PROVDON
  0
TEXT
  8
0
  6
DASHED
 62
     7
 10
322.5
 20
2.5
 30
0.0
 40
2.5
  1
RS 10091-AA
  0
TEXT
  8
0
  6
DASHED
 62
     7
 10
357.5
 20
52.5
 30
0.0
 40
2.0
  1
3
  0
TEXT
  8
0
  6
DASHED
 62
     7
 10
357.5
 20
49.166667
 30
0.0
 40
2.0
  1
6
  0
TEXT
  8
0
  6
DASHED
 62
     7
 10
357.5
 20
45.833333
 30
0.0
 40
2.0
  1
9
  0
TEXT
  8
0
  6
DASHED
 62
     7
 10
375.0
 20
52.5
 30
0.0
 40
2.0
  1
2
  0
TEXT
  8
0
  6
DASHED
 62
     7
 10
375.0
 20
49.166667
 30
0.0
 40
2.0
  1
5
  0
TEXT
  8
0
  6
DASHED
 62
     7
 10
375.0
 20
45.833333
 30
0.0
 40
2.0
  1
8
  0
LINE
  8
0
  6
CONTINUOUS
 62
     7
 10
49.337159
 20
234.934804
 30
0.0
 11
48.892266
 21
234.049106
 31
0.0
  0
LINE
  8
0
  6
CONTINUOUS
 62
     7
 10
50.0
 20
232.491507
 30
0.0
 11
50.0
 21
235.265661
 31
0.0
  0
LINE
  8
0
  6
CONTINUOUS
 62
     7
 10
55.82377
 20
232.564401
 30
0.0
 11
49.337159
 21
234.934804
 31
0.0
  0
LINE
  8
0
  6
CONTINUOUS
 62
     7
 10
50.0
 20
144.991507
 30
0.0
 11
50.0
 21
147.765661
 31
0.0
  0
LINE
  8
0
  6
CONTINUOUS
 62
     7
 10
55.82377
 20
145.064401
 30
0.0
 11
49.337159
 21
147.434804
 31
0.0
  0
LINE
  8
0
  6
CONTINUOUS
 62
     7
 10
50.0
 20
134.991507
 30
0.0
 11
50.0
 21
137.765661
 31
0.0
  0
LINE
  8
0
  6
CONTINUOUS
 62
     7
 10
55.82377
 20
135.064401
 30
0.0
 11
49.337159
 21
137.434804
 31
0.0
  0
LINE
  8
0
  6
CONTINUOUS
 62
     7
 10
194.993411
 20
66.481965
 30
0.0
 11
197.434804
 21
73.162841
 31
0.0
  0
LINE
  8
0
  6
CONTINUOUS
 62
     7
 10
195.0
 20
72.5
 30
0.0
 11
197.765661
 21
72.5
 31
0.0
  0
LINE
  8
0
  6
CONTINUOUS
 62
     7
 10
197.434804
 20
73.162841
 30
0.0
 11
196.549106
 21
73.607734
 31
0.0
  0
LINE
  8
0
  6
CONTINUOUS
 62
     7
 10
199.993411
 20
66.481965
 30
0.0
 11
202.434804
 21
73.162841
 31
0.0
  0
LINE
  8
0
  6
CONTINUOUS
 62
     7
 10
200.0
 20
72.5
 30
0.0
 11
202.765661
 21
72.5
 31
0.0
  0
LINE
  8
0
  6
CONTINUOUS
 62
     7
 10
214.993411
 20
66.481965
 30
0.0
 11
217.434804
 21
73.162841
 31
0.0
  0
LINE
  8
0
  6
CONTINUOUS
 62
     7
 10
215.0
 20
72.5
 30
0.0
 11
217.765661
 21
72.5
 31
0.0
  0
LINE
  8
0
  6
CONTINUOUS
 62
     7
 10
217.434804
 20
73.162841
 30
0.0
 11
216.549106
 21
73.607734
 31
0.0
  0
LINE
  8
0
  6
CONTINUOUS
 62
     7
 10
209.993411
 20
66.481965
 30
0.0
 11
212.434804
 21
73.162841
 31
0.0
  0
LINE
  8
0
  6
CONTINUOUS
 62
     7
 10
210.0
 20
72.5
 30
0.0
 11
212.765661
 21
72.5
 31
0.0
  0
LINE
  8
0
  6
CONTINUOUS
 62
     7
 10
212.434804
 20
73.162841
 30
0.0
 11
211.549106
 21
73.607734
 31
0.0
  0
CIRCLE
  8
0
  6
CONTINUOUS
 62
     7
 10
64.550439
 20
132.459732
 30
0.0
 40
1.252595
  0
CIRCLE
  8
0
  6
CONTINUOUS
 62
     7
 10
64.550439
 20
132.459732
 30
0.0
 40
0.600944
  0
TEXT
  8
0
  6
DASHED
 62
     7
 10
292.217194
 20
11.813359
 30
0.0
 40
3.0
  1
A3
  7
GREEKS
  0
TEXT
  8
0
  6
DASHED
 62
     7
 10
351.818577
 20
15.69253
 30
0.0
 40
1.4
  1
LEHTI SHEET
  7
GREEKS
  0
LINE
  8
0
 62
     7
 10
0.237099
 20
262.737999
 30
0.0
 11
392.237099
 21
262.737999
 31
0.0
  0
LINE
  8
0
 62
     7
 10
18.237099
 20
0.237999
 30
0.0
 11
0.237099
 21
0.237999
 31
0.0
  0
LINE
  8
0
 62
     7
 10
209.237099
 20
0.237999
 30
0.0
 11
392.237099
 21
0.237999
 31
0.0
  0
LINE
  8
0
 62
     7
 10
209.237099
 20
0.237999
 30
0.0
 11
209.237099
 21
35.237999
 31
0.0
  0
LINE
  8
0
 62
     7
 10
392.237099
 20
0.237999
 30
0.0
 11
392.237099
 21
35.237999
 31
0.0
  0
LINE
  8
0
 62
     7
 10
209.237099
 20
18.237999
 30
0.0
 11
392.237099
 21
18.237999
 31
0.0
  0
LINE
  8
0
 62
     7
 10
209.237099
 20
9.737999
 30
0.0
 11
392.237099
 21
9.737999
 31
0.0
  0
LINE
  8
0
 62
     7
 10
209.237099
 20
26.737999
 30
0.0
 11
307.237099
 21
26.737999
 31
0.0
  0
LINE
  8
0
 62
     7
 10
209.237099
 20
35.237999
 30
0.0
 11
392.237099
 21
35.237999
 31
0.0
  0
TEXT
  8
0
 62
     7
 10
210.237099
 20
23.971333
 30
0.0
 40
1.4
  1
TARKASTI  CHECKED
  7
ROMANS
  0
TEXT
  8
0
 62
     7
 10
209.979934
 20
15.704666
 30
0.0
 40
1.4
  1
HYVÄKSYI  APPROVED
  7
ROMANS
  0
LINE
  8
0
 62
     7
 10
307.237099
 20
0.237999
 30
0.0
 11
307.237099
 21
35.237999
 31
0.0
  0
TEXT
  8
0
 62
     7
 10
259.237099
 20
32.737999
 30
0.0
 40
1.4
  1
LIITTYY  CONCERNING
  7
ROMANS
  0
TEXT
  8
0
 62
     7
 10
259.237099
 20
23.737999
 30
0.0
 40
1.4
  1
TOLERANSSIT  TOLERANCES
  7
ROMANS
  0
TEXT
  8
0
 62
     7
 10
259.237099
 20
15.737999
 30
0.0
 40
1.4
  1
SUHDE  SCALE
  7
ROMANS
  0
TEXT
  8
0
 62
     7
 10
309.237099
 20
32.737999
 30
0.0
 40
1.4
  1
NIMITYS  NAME
  7
ROMANS
  0
TEXT
  8
0
 62
     7
 10
309.237099
 20
15.737999
 30
0.0
 40
1.4
  1
KOODI  CODE
  7
ROMANS
  0
TEXT
  8
0
 62
     7
 10
309.237099
 20
7.237999
 30
0.0
 40
1.4
  1
PIIRUSTUS NO  DRAWING NR
  7
ROMANS
  0
LINE
  8
0
 62
     7
 10
349.737099
 20
9.737999
 30
0.0
 11
349.737099
 21
18.237999
 31
0.0
  0
TEXT
  8
0
 62
     7
 10
371.237099
 20
7.237999
 30
0.0
 40
1.4
  1
PAINOS  REVISION
  7
ROMANS
  0
LINE
  8
0
 62
     7
 10
369.737099
 20
9.737999
 30
0.0
 11
369.737099
 21
0.237999
 31
0.0
  0
LINE
  8
0
 62
     7
 10
210.187099
 20
1.737999
 30
0.0
 11
211.937099
 21
1.737999
 31
0.0
  0
LINE
  8
0
 62
     7
 10
215.437099
 20
1.737999
 30
0.0
 11
217.187099
 21
1.737999
 31
0.0
  0
LINE
  8
0
 62
     7
 10
212.637099
 20
8.737999
 30
0.0
 11
211.459571
 21
5.373634
 31
0.0
  0
LINE
  8
0
 62
     7
 10
212.425886
 20
3.137999
 30
0.0
 11
213.547099
 21
3.137999
 31
0.0
  0
LINE
  8
0
 62
     7
 10
212.425889
 20
3.134542
 30
0.0
 11
211.937099
 21
1.737999
 31
0.0
  0
LINE
  8
0
 62
     7
 10
214.737099
 20
8.737999
 30
0.0
 11
215.913452
 21
5.376991
 31
0.0
  0
LINE
  8
0
 62
     7
 10
214.948197
 20
3.134863
 30
0.0
 11
215.437099
 21
1.737999
 31
0.0
  0
LINE
  8
0
 62
     7
 10
214.737099
 20
8.737999
 30
0.0
 11
213.827099
 21
8.737999
 31
0.0
  0
LINE
  8
0
 62
     7
 10
213.547099
 20
8.737999
 30
0.0
 11
213.547099
 21
5.377999
 31
0.0
  0
LINE
  8
0
 62
     7
 10
213.827099
 20
8.737999
 30
0.0
 11
213.827099
 21
5.377999
 31
0.0
  0
LINE
  8
0
 62
     7
 10
213.827099
 20
3.137999
 30
0.0
 11
214.946992
 21
3.137999
 31
0.0
  0
LINE
  8
0
 62
     7
 10
213.547099
 20
8.737999
 30
0.0
 11
212.637099
 21
8.737999
 31
0.0
  0
LINE
  8
0
 62
     7
 10
211.45904
 20
5.377999
 30
0.0
 11
213.547099
 21
5.377999
 31
0.0
  0
LINE
  8
0
 62
     7
 10
211.360082
 20
5.097999
 30
0.0
 11
213.547099
 21
5.097999
 31
0.0
  0
LINE
  8
0
 62
     7
 10
216.011591
 20
5.096594
 30
0.0
 11
217.187099
 21
1.737999
 31
0.0
  0
LINE
  8
0
 62
     7
 10
213.827099
 20
5.377999
 30
0.0
 11
215.912213
 21
5.377999
 31
0.0
  0
LINE
  8
0
 62
     7
 10
213.827099
 20
5.097999
 30
0.0
 11
216.010356
 21
5.097999
 31
0.0
  0
LINE
  8
0
 62
     7
 10
213.827099
 20
5.097999
 30
0.0
 11
213.827099
 21
3.137999
 31
0.0
  0
LINE
  8
0
 62
     7
 10
213.547099
 20
5.097999
 30
0.0
 11
213.547099
 21
3.137999
 31
0.0
  0
LINE
  8
0
 62
     7
 10
211.356988
 20
5.080538
 30
0.0
 11
210.187099
 21
1.737999
 31
0.0
  0
INSERT
  8
0
 62
     7
  2
*X16
 10
210.187099
 20
1.737999
 30
0.0
 41
0.7
 42
0.7
 43
0.7
  0
INSERT
  8
0
 62
     7
  2
*X17
 10
210.187099
 20
1.737999
 30
0.0
 41
0.7
 42
0.7
 43
0.7
  0
INSERT
  8
0
 62
     7
  2
*X18
 10
210.187099
 20
1.737999
 30
0.0
 41
0.7
 42
0.7
 43
0.7
  0
INSERT
  8
0
 62
     7
  2
*X19
 10
210.187099
 20
1.737999
 30
0.0
 41
0.7
 42
0.7
 43
0.7
  0
LINE
  8
0
 62
     7
 10
217.677099
 20
1.737999
 30
0.0
 11
217.677099
 21
5.097999
 31
0.0
  0
LINE
  8
0
 62
     7
 10
217.677099
 20
8.737999
 30
0.0
 11
219.637099
 21
8.737999
 31
0.0
  0
LINE
  8
0
 62
     7
 10
219.637099
 20
8.737999
 30
0.0
 11
219.637099
 21
5.377999
 31
0.0
  0
LINE
  8
0
 62
     7
 10
219.637099
 20
5.377999
 30
0.0
 11
217.677099
 21
5.377999
 31
0.0
  0
LINE
  8
0
 62
     7
 10
217.677099
 20
5.097999
 30
0.0
 11
219.637099
 21
5.097999
 31
0.0
  0
LINE
  8
0
 62
     7
 10
219.637099
 20
5.097999
 30
0.0
 11
219.637099
 21
1.737999
 31
0.0
  0
LINE
  8
0
 62
     7
 10
219.637099
 20
1.737999
 30
0.0
 11
217.677099
 21
1.737999
 31
0.0
  0
LINE
  8
0
 62
     7
 10
217.677099
 20
5.377999
 30
0.0
 11
217.677099
 21
8.737999
 31
0.0
  0
ARC
  8
0
 62
     7
 10
220.477099
 20
7.162999
 30
0.0
 40
1.575
 50
298.455859
 51
90.052437
  0
LINE
  8
0
 62
     7
 10
219.917099
 20
8.737999
 30
0.0
 11
220.475658
 21
8.737999
 31
0.0
  0
LINE
  8
0
 62
     7
 10
219.917099
 20
8.737999
 30
0.0
 11
219.917099
 21
5.377999
 31
0.0
  0
LINE
  8
0
 62
     7
 10
219.917099
 20
5.377999
 30
0.0
 11
221.901542
 21
5.377999
 31
0.0
  0
LINE
  8
0
 62
     7
 10
222.157099
 20
5.097999
 30
0.0
 11
219.917099
 21
5.097999
 31
0.0
  0
LINE
  8
0
 62
     7
 10
219.917099
 20
5.097999
 30
0.0
 11
219.917099
 21
1.737999
 31
0.0
  0
ARC
  8
0
 62
     7
 10
220.477099
 20
3.837999
 30
0.0
 40
2.1
 50
269.937724
 51
37.056553
  0
LINE
  8
0
 62
     7
 10
219.917099
 20
1.737999
 30
0.0
 11
220.474817
 21
1.738
 31
0.0
  0
ARC
  8
0
 62
     7
 10
220.477099
 20
3.837999
 30
0.0
 40
2.1
 50
47.28622
 51
68.787999
  0
INSERT
  8
0
 62
     7
  2
*X20
 10
210.187099
 20
1.737999
 30
0.0
 41
0.7
 42
0.7
 43
0.7
  0
INSERT
  8
0
 62
     7
  2
*X21
 10
210.187099
 20
1.737999
 30
0.0
 41
0.7
 42
0.7
 43
0.7
  0
INSERT
  8
0
 62
     7
  2
*X22
 10
210.187099
 20
1.737999
 30
0.0
 41
0.7
 42
0.7
 43
0.7
  0
INSERT
  8
0
 62
     7
  2
*X23
 10
210.187099
 20
1.737999
 30
0.0
 41
0.7
 42
0.7
 43
0.7
  0
INSERT
  8
0
 62
     7
  2
*X23
 10
215.647099
 20
1.737999
 30
0.0
 41
0.7
 42
0.7
 43
0.7
  0
INSERT
  8
0
 62
     7
  2
*X22
 10
215.647099
 20
1.737999
 30
0.0
 41
0.7
 42
0.7
 43
0.7
  0
INSERT
  8
0
 62
     7
  2
*X21
 10
215.647099
 20
1.737999
 30
0.0
 41
0.7
 42
0.7
 43
0.7
  0
INSERT
  8
0
 62
     7
  2
*X20
 10
215.647099
 20
1.737999
 30
0.0
 41
0.7
 42
0.7
 43
0.7
  0
ARC
  8
0
 62
     7
 10
225.937099
 20
3.837999
 30
0.0
 40
2.1
 50
47.28622
 51
68.787999
  0
LINE
  8
0
 62
     7
 10
225.377099
 20
1.737999
 30
0.0
 11
225.934817
 21
1.738
 31
0.0
  0
ARC
  8
0
 62
     7
 10
225.937099
 20
3.837999
 30
0.0
 40
2.1
 50
269.937724
 51
37.056553
  0
LINE
  8
0
 62
     7
 10
225.377099
 20
5.097999
 30
0.0
 11
225.377099
 21
1.737999
 31
0.0
  0
LINE
  8
0
 62
     7
 10
227.617099
 20
5.097999
 30
0.0
 11
225.377099
 21
5.097999
 31
0.0
  0
LINE
  8
0
 62
     7
 10
225.377099
 20
5.377999
 30
0.0
 11
227.361542
 21
5.377999
 31
0.0
  0
LINE
  8
0
 62
     7
 10
225.377099
 20
8.737999
 30
0.0
 11
225.377099
 21
5.377999
 31
0.0
  0
LINE
  8
0
 62
     7
 10
225.377099
 20
8.737999
 30
0.0
 11
225.935658
 21
8.737999
 31
0.0
  0
ARC
  8
0
 62
     7
 10
225.937099
 20
7.162999
 30
0.0
 40
1.575
 50
298.455859
 51
90.052437
  0
LINE
  8
0
 62
     7
 10
223.137099
 20
5.377999
 30
0.0
 11
223.137099
 21
8.737999
 31
0.0
  0
LINE
  8
0
 62
     7
 10
225.097099
 20
1.737999
 30
0.0
 11
223.137099
 21
1.737999
 31
0.0
  0
LINE
  8
0
 62
     7
 10
225.097099
 20
5.097999
 30
0.0
 11
225.097099
 21
1.737999
 31
0.0
  0
LINE
  8
0
 62
     7
 10
223.137099
 20
5.097999
 30
0.0
 11
225.097099
 21
5.097999
 31
0.0
  0
LINE
  8
0
 62
     7
 10
225.097099
 20
5.377999
 30
0.0
 11
223.137099
 21
5.377999
 31
0.0
  0
LINE
  8
0
 62
     7
 10
225.097099
 20
8.737999
 30
0.0
 11
225.097099
 21
5.377999
 31
0.0
  0
LINE
  8
0
 62
     7
 10
223.137099
 20
8.737999
 30
0.0
 11
225.097099
 21
8.737999
 31
0.0
  0
LINE
  8
0
 62
     7
 10
223.137099
 20
1.737999
 30
0.0
 11
223.137099
 21
5.097999
 31
0.0
  0
TEXT
  8
0
 62
     7
 10
229.737099
 20
1.737999
 30
0.0
 40
3.0
  1
ABB 
 41
0.8
  7
ROMANS
  0
TEXT
  8
0
 62
     7
 10
237.737099
 20
1.737999
 30
0.0
 40
3.0
  1
Strömberg
 41
0.8
  7
ROMANS
  0
LINE
  8
0
 62
     7
 10
282.237099
 20
9.737999
 30
0.0
 11
282.237099
 21
18.237999
 31
0.0
  0
TEXT
  8
0
 62
     7
 10
27.737099
 20
4.737999
 30
0.0
 40
1.4
  1
MUUTOS
  7
ROMANS
  0
TEXT
  8
0
 62
     7
 10
27.737099
 20
2.471333
 30
0.0
 40
1.4
  1
REVISION
  7
ROMANS
  0
LINE
  8
0
 62
     7
 10
46.737099
 20
9.237999
 30
0.0
 11
209.237099
 21
9.237999
 31
0.0
  0
LINE
  8
0
 62
     7
 10
46.737099
 20
0.237999
 30
0.0
 11
46.737099
 21
9.237999
 31
0.0
  0
LINE
  8
0
 62
     7
 10
40.737099
 20
4.737999
 30
0.0
 11
209.237099
 21
4.737999
 31
0.0
  0
LINE
  8
0
 62
     7
 10
257.237099
 20
9.737999
 30
0.0
 11
257.237099
 21
35.237999
 31
0.0
  0
LINE
  8
0
 62
     7
 10
271.237099
 20
9.737999
 30
0.0
 11
271.237099
 21
0.237999
 31
0.0
  0
TEXT
  8
0
 62
     7
 10
210.237099
 20
32.237999
 30
0.0
 40
1.4
  1
TEKI  PREPARED
  7
ROMANS
  0
TEXT
  8
0
 62
     7
 10
273.237099
 20
7.237999
 30
0.0
 40
1.4
  1
VAST.OSASTO RESP.DEPT.
  7
ROMANS
  0
TEXT
  8
0
 62
     7
 10
257.407006
 20
1.741783
 30
0.0
 40
3.0
  1
Power
 41
0.8
  7
ROMANS
  0
TEXT
  8
0
 62
     7
 10
42.237099
 20
1.195292
 30
0.0
 40
2.5
  1
B
  7
ROMANS
  0
TEXT
  8
0
 62
     7
 10
42.237099
 20
5.587508
 30
0.0
 40
2.5
  1
C
  7
ROMANS
  0
LINE
  8
0
 62
     7
 10
0.237099
 20
0.237999
 30
0.0
 11
392.237099
 21
0.237999
 31
0.0
  0
LINE
  8
0
 62
     7
 10
392.237099
 20
262.737999
 30
0.0
 11
392.237099
 21
0.237999
 31
0.0
  0
LINE
  8
PAKSU
 10
0.237099
 20
0.237999
 30
0.0
 11
0.237099
 21
262.737999
 31
0.0
  0
TEXT
  8
0
  6
CONTINUOUS
 62
     7
 10
189.353328
 20
44.013635
 30
0.0
 40
2.0
  1
+
  0
TEXT
  8
0
  6
CONTINUOUS
 62
     7
 10
194.353328
 20
44.013635
 30
0.0
 40
2.0
  1
+
  0
LINE
  8
0
 62
     7
 10
18.502721
 20
230.635937
 30
0.0
 11
22.502721
 21
230.635937
 31
0.0
  0
INSERT
  8
0
 62
     7
  2
WKU130
 10
18.84267
 20
228.910384
 30
0.0
 41
0.8
 42
0.8
 43
0.8
  0
TEXT
  8
0
  6
CONTINUOUS
 62
     7
 10
23.856411
 20
226.50558
 30
0.0
 40
2.0
  1
-
  0
TEXT
  8
0
  6
CONTINUOUS
 62
     7
 10
23.864976
 20
231.513635
 30
0.0
 40
2.0
  1
+
  0
LINE
  8
0
  6
CONTINUOUS
 62
     7
 10
188.898107
 20
211.164636
 30
0.0
 11
186.552341
 21
212.49999
 31
0.0
  0
LINE
  8
0
  6
CONTINUOUS
 62
     7
 10
186.552341
 20
212.49999
 30
0.0
 11
188.898107
 21
213.689909
 31
0.0
  0
ARC
  8
0
  6
DASHED
 62
     7
 10
135.0
 20
204.493304
 30
0.0
 40
0.5
 50
180.0
 51
0.0
  0
ARC
  8
0
  6
DASHED
 62
     7
 10
135.0
 20
204.493304
 30
0.0
 40
0.5
 50
0.0
 51
180.0
  0
ARC
  8
0
  6
DASHED
 62
     7
 10
117.5
 20
204.493304
 30
0.0
 40
0.5
 50
180.0
 51
0.0
  0
ARC
  8
0
  6
DASHED
 62
     7
 10
117.5
 20
204.493304
 30
0.0
 40
0.5
 50
0.0
 51
180.0
  0
ARC
  8
0
  6
DASHED
 62
     7
 10
155.0
 20
204.493304
 30
0.0
 40
0.5
 50
180.0
 51
0.0
  0
ARC
  8
0
  6
DASHED
 62
     7
 10
155.0
 20
204.493304
 30
0.0
 40
0.5
 50
0.0
 51
180.0
  0
LINE
  8
0
  6
CONTINUOUS
 62
     7
 10
188.898107
 20
203.15795
 30
0.0
 11
186.552341
 21
204.493304
 31
0.0
  0
LINE
  8
0
  6
CONTINUOUS
 62
     7
 10
186.552341
 20
204.493304
 30
0.0
 11
188.898107
 21
205.683223
 31
0.0
  0
LINE
  8
0
  6
CONTINUOUS
 62
     7
 10
188.904193
 20
194.489958
 30
0.0
 11
186.558427
 21
195.825312
 31
0.0
  0
LINE
  8
0
  6
CONTINUOUS
 62
     7
 10
186.558427
 20
195.825312
 30
0.0
 11
188.904193
 21
197.015231
 31
0.0
  0
ARC
  8
0
  6
DASHED
 62
     7
 10
112.5
 20
216.993304
 30
0.0
 40
0.5
 50
180.0
 51
0.0
  0
ARC
  8
0
  6
DASHED
 62
     7
 10
112.5
 20
216.993304
 30
0.0
 40
0.5
 50
0.0
 51
180.0
  0
ARC
  8
0
  6
DASHED
 62
     7
 10
130.0
 20
216.993304
 30
0.0
 40
0.5
 50
180.0
 51
0.0
  0
ARC
  8
0
  6
DASHED
 62
     7
 10
130.0
 20
216.993304
 30
0.0
 40
0.5
 50
0.0
 51
180.0
  0
ARC
  8
0
  6
DASHED
 62
     7
 10
177.5
 20
220.468636
 30
0.0
 40
0.5
 50
180.0
 51
0.0
  0
ARC
  8
0
  6
DASHED
 62
     7
 10
177.5
 20
220.468636
 30
0.0
 40
0.5
 50
0.0
 51
180.0
  0
LINE
  8
0
  6
CONTINUOUS
 62
     7
 10
188.898107
 20
223.664646
 30
0.0
 11
186.552341
 21
225.0
 31
0.0
  0
LINE
  8
0
  6
CONTINUOUS
 62
     7
 10
186.552341
 20
225.0
 30
0.0
 11
188.898107
 21
226.189919
 31
0.0
  0
LINE
  8
0
  6
CONTINUOUS
 62
     7
 10
188.898107
 20
215.65795
 30
0.0
 11
186.552341
 21
216.993304
 31
0.0
  0
LINE
  8
0
  6
CONTINUOUS
 62
     7
 10
186.552341
 20
216.993304
 30
0.0
 11
188.898107
 21
218.183223
 31
0.0
  0
TEXT
  8
0
  6
CONTINUOUS
 62
     7
 10
199.353328
 20
44.013635
 30
0.0
 40
2.0
  1
+
  0
TEXT
  8
0
  6
CONTINUOUS
 62
     7
 10
209.353328
 20
44.013635
 30
0.0
 40
2.0
  1
+
  0
TEXT
  8
0
  6
CONTINUOUS
 62
     7
 10
214.344763
 20
44.00558
 30
0.0
 40
2.0
  1
-
  0
LINE
  8
0
 62
     7
 10
230.565579
 20
43.283527
 30
0.0
 11
234.565579
 21
43.283527
 31
0.0
  0
INSERT
  8
0
 62
     7
  2
WKU130
 10
230.905529
 20
41.557974
 30
0.0
 41
0.8
 42
0.8
 43
0.8
  0
TEXT
  8
0
  6
CONTINUOUS
 62
     7
 10
234.344763
 20
44.00558
 30
0.0
 40
2.0
  1
-
  0
TEXT
  8
0
  6
CONTINUOUS
 62
     7
 10
229.353328
 20
44.013635
 30
0.0
 40
2.0
  1
+
  0
ARC
  8
0
  6
DASHED
 62
     7
 10
210.0
 20
77.5
 30
0.0
 40
0.5
 50
180.0
 51
0.0
  0
ARC
  8
0
  6
DASHED
 62
     7
 10
210.0
 20
77.5
 30
0.0
 40
0.5
 50
0.0
 51
180.0
  0
LINE
  8
0
  6
CONTINUOUS
 62
     7
 10
238.465688
 20
156.164644
 30
0.0
 11
236.119923
 21
157.499998
 31
0.0
  0
LINE
  8
0
  6
CONTINUOUS
 62
     7
 10
236.119923
 20
157.499998
 30
0.0
 11
238.465688
 21
158.689917
 31
0.0
  0
LINE
  8
0
  6
CONTINUOUS
 62
     7
 10
235.965688
 20
201.164635
 30
0.0
 11
233.619923
 21
202.499989
 31
0.0
  0
LINE
  8
0
  6
CONTINUOUS
 62
     7
 10
233.619923
 20
202.499989
 30
0.0
 11
235.965688
 21
203.689908
 31
0.0
  0
3DFACE
  8
0
  6
CONTINUOUS
 62
     7
 10
261.634024
 20
158.06
 30
0.0
 11
261.649704
 21
158.06
 31
0.0
 12
261.649704
 22
156.94
 32
0.0
 13
261.634024
 23
156.94
 33
0.0
  0
3DFACE
  8
0
  6
CONTINUOUS
 62
     7
 10
261.649704
 20
158.06
 30
0.0
 11
261.665384
 21
158.06
 31
0.0
 12
261.665384
 22
156.94
 32
0.0
 13
261.649704
 23
156.94
 33
0.0
  0
3DFACE
  8
0
  6
CONTINUOUS
 62
     7
 10
261.665384
 20
158.06
 30
0.0
 11
261.681064
 21
158.06
 31
0.0
 12
261.681064
 22
156.94
 32
0.0
 13
261.665384
 23
156.94
 33
0.0
  0
3DFACE
  8
0
  6
CONTINUOUS
 62
     7
 10
261.681064
 20
158.06
 30
0.0
 11
261.696744
 21
158.06
 31
0.0
 12
261.696744
 22
156.94
 32
0.0
 13
261.681064
 23
156.94
 33
0.0
  0
3DFACE
  8
0
  6
CONTINUOUS
 62
     7
 10
261.696744
 20
158.06
 30
0.0
 11
261.712424
 21
158.06
 31
0.0
 12
261.712424
 22
156.94
 32
0.0
 13
261.696744
 23
156.94
 33
0.0
  0
3DFACE
  8
0
  6
CONTINUOUS
 62
     7
 10
261.712424
 20
158.06
 30
0.0
 11
261.728104
 21
158.06
 31
0.0
 12
261.728104
 22
156.94
 32
0.0
 13
261.712424
 23
156.94
 33
0.0
  0
3DFACE
  8
0
  6
CONTINUOUS
 62
     7
 10
261.728104
 20
158.06
 30
0.0
 11
261.743784
 21
158.06
 31
0.0
 12
261.743784
 22
156.94
 32
0.0
 13
261.728104
 23
156.94
 33
0.0
  0
3DFACE
  8
0
  6
CONTINUOUS
 62
     7
 10
261.743784
 20
158.06
 30
0.0
 11
261.759464
 21
158.06
 31
0.0
 12
261.759464
 22
156.94
 32
0.0
 13
261.743784
 23
156.94
 33
0.0
  0
3DFACE
  8
0
  6
CONTINUOUS
 62
     7
 10
261.759464
 20
158.06
 30
0.0
 11
261.775144
 21
158.06
 31
0.0
 12
261.775144
 22
156.94
 32
0.0
 13
261.759464
 23
156.94
 33
0.0
  0
3DFACE
  8
0
  6
CONTINUOUS
 62
     7
 10
261.775144
 20
158.06
 30
0.0
 11
261.790824
 21
158.06
 31
0.0
 12
261.790824
 22
156.94
 32
0.0
 13
261.775144
 23
156.94
 33
0.0
  0
3DFACE
  8
0
  6
CONTINUOUS
 62
     7
 10
261.790824
 20
158.06
 30
0.0
 11
261.806504
 21
158.06
 31
0.0
 12
261.806504
 22
156.94
 32
0.0
 13
261.790824
 23
156.94
 33
0.0
  0
3DFACE
  8
0
  6
CONTINUOUS
 62
     7
 10
261.806504
 20
158.06
 30
0.0
 11
261.822184
 21
158.06
 31
0.0
 12
261.822184
 22
156.94
 32
0.0
 13
261.806504
 23
156.94
 33
0.0
  0
3DFACE
  8
0
  6
CONTINUOUS
 62
     7
 10
261.822184
 20
158.06
 30
0.0
 11
261.837864
 21
158.06
 31
0.0
 12
261.837864
 22
156.94
 32
0.0
 13
261.822184
 23
156.94
 33
0.0
  0
3DFACE
  8
0
  6
CONTINUOUS
 62
     7
 10
261.837864
 20
158.06
 30
0.0
 11
261.853544
 21
158.06
 31
0.0
 12
261.853544
 22
156.94
 32
0.0
 13
261.837864
 23
156.94
 33
0.0
  0
3DFACE
  8
0
  6
CONTINUOUS
 62
     7
 10
261.853544
 20
158.06
 30
0.0
 11
261.869224
 21
158.06
 31
0.0
 12
261.869224
 22
156.94
 32
0.0
 13
261.853544
 23
156.94
 33
0.0
  0
3DFACE
  8
0
  6
CONTINUOUS
 62
     7
 10
261.869224
 20
158.06
 30
0.0
 11
261.884904
 21
158.06
 31
0.0
 12
261.884904
 22
156.94
 32
0.0
 13
261.869224
 23
156.94
 33
0.0
  0
3DFACE
  8
0
  6
CONTINUOUS
 62
     7
 10
261.884904
 20
158.06
 30
0.0
 11
261.900584
 21
158.06
 31
0.0
 12
261.900584
 22
156.94
 32
0.0
 13
261.884904
 23
156.94
 33
0.0
  0
3DFACE
  8
0
  6
CONTINUOUS
 62
     7
 10
261.900584
 20
158.06
 30
0.0
 11
261.916264
 21
158.06
 31
0.0
 12
261.916264
 22
156.94
 32
0.0
 13
261.900584
 23
156.94
 33
0.0
  0
3DFACE
  8
0
  6
CONTINUOUS
 62
     7
 10
261.916264
 20
158.06
 30
0.0
 11
261.931944
 21
158.06
 31
0.0
 12
261.931944
 22
156.94
 32
0.0
 13
261.916264
 23
156.94
 33
0.0
  0
3DFACE
  8
0
  6
CONTINUOUS
 62
     7
 10
261.931944
 20
158.06
 30
0.0
 11
261.947624
 21
158.06
 31
0.0
 12
261.947624
 22
156.94
 32
0.0
 13
261.931944
 23
156.94
 33
0.0
  0
3DFACE
  8
0
  6
CONTINUOUS
 62
     7
 10
261.947624
 20
158.06
 30
0.0
 11
261.963304
 21
158.06
 31
0.0
 12
261.963304
 22
156.94
 32
0.0
 13
261.947624
 23
156.94
 33
0.0
  0
3DFACE
  8
0
  6
CONTINUOUS
 62
     7
 10
261.963304
 20
158.06
 30
0.0
 11
261.978984
 21
158.06
 31
0.0
 12
261.978984
 22
156.94
 32
0.0
 13
261.963304
 23
156.94
 33
0.0
  0
3DFACE
  8
0
  6
CONTINUOUS
 62
     7
 10
261.978984
 20
158.06
 30
0.0
 11
261.994664
 21
158.06
 31
0.0
 12
261.994664
 22
156.94
 32
0.0
 13
261.978984
 23
156.94
 33
0.0
  0
3DFACE
  8
0
  6
CONTINUOUS
 62
     7
 10
261.994664
 20
158.06
 30
0.0
 11
262.010344
 21
158.06
 31
0.0
 12
262.010344
 22
156.94
 32
0.0
 13
261.994664
 23
156.94
 33
0.0
  0
3DFACE
  8
0
  6
CONTINUOUS
 62
     7
 10
262.010344
 20
158.06
 30
0.0
 11
262.026024
 21
158.06
 31
0.0
 12
262.026024
 22
156.94
 32
0.0
 13
262.010344
 23
156.94
 33
0.0
  0
3DFACE
  8
0
  6
CONTINUOUS
 62
     7
 10
262.026024
 20
158.06
 30
0.0
 11
262.041704
 21
158.06
 31
0.0
 12
262.041704
 22
156.94
 32
0.0
 13
262.026024
 23
156.94
 33
0.0
  0
3DFACE
  8
0
  6
CONTINUOUS
 62
     7
 10
262.041704
 20
158.06
 30
0.0
 11
262.057384
 21
158.06
 31
0.0
 12
262.057384
 22
156.94
 32
0.0
 13
262.041704
 23
156.94
 33
0.0
  0
3DFACE
  8
0
  6
CONTINUOUS
 62
     7
 10
262.057384
 20
158.06
 30
0.0
 11
262.073064
 21
158.06
 31
0.0
 12
262.073064
 22
156.94
 32
0.0
 13
262.057384
 23
156.94
 33
0.0
  0
3DFACE
  8
0
  6
CONTINUOUS
 62
     7
 10
262.073064
 20
158.06
 30
0.0
 11
262.088744
 21
158.06
 31
0.0
 12
262.088744
 22
156.94
 32
0.0
 13
262.073064
 23
156.94
 33
0.0
  0
3DFACE
  8
0
  6
CONTINUOUS
 62
     7
 10
262.088744
 20
158.06
 30
0.0
 11
262.104424
 21
158.06
 31
0.0
 12
262.104424
 22
156.94
 32
0.0
 13
262.088744
 23
156.94
 33
0.0
  0
3DFACE
  8
0
  6
CONTINUOUS
 62
     7
 10
262.104424
 20
158.06
 30
0.0
 11
262.120104
 21
158.06
 31
0.0
 12
262.120104
 22
156.94
 32
0.0
 13
262.104424
 23
156.94
 33
0.0
  0
3DFACE
  8
0
  6
CONTINUOUS
 62
     7
 10
262.120104
 20
158.06
 30
0.0
 11
262.135784
 21
158.06
 31
0.0
 12
262.135784
 22
156.94
 32
0.0
 13
262.120104
 23
156.94
 33
0.0
  0
3DFACE
  8
0
  6
CONTINUOUS
 62
     7
 10
262.135784
 20
158.06
 30
0.0
 11
262.151464
 21
158.06
 31
0.0
 12
262.151464
 22
156.94
 32
0.0
 13
262.135784
 23
156.94
 33
0.0
  0
3DFACE
  8
0
  6
CONTINUOUS
 62
     7
 10
262.151464
 20
158.06
 30
0.0
 11
262.167144
 21
158.06
 31
0.0
 12
262.167144
 22
156.94
 32
0.0
 13
262.151464
 23
156.94
 33
0.0
  0
3DFACE
  8
0
  6
CONTINUOUS
 62
     7
 10
262.167144
 20
158.06
 30
0.0
 11
262.182824
 21
158.06
 31
0.0
 12
262.182824
 22
156.94
 32
0.0
 13
262.167144
 23
156.94
 33
0.0
  0
3DFACE
  8
0
  6
CONTINUOUS
 62
     7
 10
262.182824
 20
158.06
 30
0.0
 11
262.198504
 21
158.06
 31
0.0
 12
262.198504
 22
156.94
 32
0.0
 13
262.182824
 23
156.94
 33
0.0
  0
3DFACE
  8
0
  6
CONTINUOUS
 62
     7
 10
262.198504
 20
158.06
 30
0.0
 11
262.214184
 21
158.06
 31
0.0
 12
262.214184
 22
156.94
 32
0.0
 13
262.198504
 23
156.94
 33
0.0
  0
3DFACE
  8
0
  6
CONTINUOUS
 62
     7
 10
262.214184
 20
158.06
 30
0.0
 11
262.229864
 21
158.06
 31
0.0
 12
262.229864
 22
156.94
 32
0.0
 13
262.214184
 23
156.94
 33
0.0
  0
3DFACE
  8
0
  6
CONTINUOUS
 62
     7
 10
262.229864
 20
158.06
 30
0.0
 11
262.245544
 21
158.06
 31
0.0
 12
262.245544
 22
156.94
 32
0.0
 13
262.229864
 23
156.94
 33
0.0
  0
3DFACE
  8
0
  6
CONTINUOUS
 62
     7
 10
262.245544
 20
158.06
 30
0.0
 11
262.261224
 21
158.06
 31
0.0
 12
262.261224
 22
156.94
 32
0.0
 13
262.245544
 23
156.94
 33
0.0
  0
3DFACE
  8
0
  6
CONTINUOUS
 62
     7
 10
262.261224
 20
158.06
 30
0.0
 11
262.276904
 21
158.06
 31
0.0
 12
262.276904
 22
156.94
 32
0.0
 13
262.261224
 23
156.94
 33
0.0
  0
3DFACE
  8
0
  6
CONTINUOUS
 62
     7
 10
262.276904
 20
158.06
 30
0.0
 11
262.292584
 21
158.06
 31
0.0
 12
262.292584
 22
156.94
 32
0.0
 13
262.276904
 23
156.94
 33
0.0
  0
3DFACE
  8
0
  6
CONTINUOUS
 62
     7
 10
262.292584
 20
158.06
 30
0.0
 11
262.308264
 21
158.06
 31
0.0
 12
262.308264
 22
156.94
 32
0.0
 13
262.292584
 23
156.94
 33
0.0
  0
3DFACE
  8
0
  6
CONTINUOUS
 62
     7
 10
262.308264
 20
158.06
 30
0.0
 11
262.323944
 21
158.06
 31
0.0
 12
262.323944
 22
156.94
 32
0.0
 13
262.308264
 23
156.94
 33
0.0
  0
3DFACE
  8
0
  6
CONTINUOUS
 62
     7
 10
262.323944
 20
158.06
 30
0.0
 11
262.339624
 21
158.06
 31
0.0
 12
262.339624
 22
156.94
 32
0.0
 13
262.323944
 23
156.94
 33
0.0
  0
3DFACE
  8
0
  6
CONTINUOUS
 62
     7
 10
262.339624
 20
158.06
 30
0.0
 11
262.355304
 21
158.06
 31
0.0
 12
262.355304
 22
156.94
 32
0.0
 13
262.339624
 23
156.94
 33
0.0
  0
3DFACE
  8
0
  6
CONTINUOUS
 62
     7
 10
262.355304
 20
158.06
 30
0.0
 11
262.370984
 21
158.06
 31
0.0
 12
262.370984
 22
156.94
 32
0.0
 13
262.355304
 23
156.94
 33
0.0
  0
3DFACE
  8
0
  6
CONTINUOUS
 62
     7
 10
262.370984
 20
158.06
 30
0.0
 11
262.386664
 21
158.06
 31
0.0
 12
262.386664
 22
156.94
 32
0.0
 13
262.370984
 23
156.94
 33
0.0
  0
3DFACE
  8
0
  6
CONTINUOUS
 62
     7
 10
262.386664
 20
158.06
 30
0.0
 11
262.402344
 21
158.06
 31
0.0
 12
262.402344
 22
156.94
 32
0.0
 13
262.386664
 23
156.94
 33
0.0
  0
3DFACE
  8
0
  6
CONTINUOUS
 62
     7
 10
262.402344
 20
158.06
 30
0.0
 11
262.418024
 21
158.06
 31
0.0
 12
262.418024
 22
156.94
 32
0.0
 13
262.402344
 23
156.94
 33
0.0
  0
3DFACE
  8
0
  6
CONTINUOUS
 62
     7
 10
262.418024
 20
158.06
 30
0.0
 11
262.433704
 21
158.06
 31
0.0
 12
262.433704
 22
156.94
 32
0.0
 13
262.418024
 23
156.94
 33
0.0
  0
3DFACE
  8
0
  6
CONTINUOUS
 62
     7
 10
262.433704
 20
158.06
 30
0.0
 11
262.449384
 21
158.06
 31
0.0
 12
262.449384
 22
156.94
 32
0.0
 13
262.433704
 23
156.94
 33
0.0
  0
3DFACE
  8
0
  6
CONTINUOUS
 62
     7
 10
262.449384
 20
158.06
 30
0.0
 11
262.465064
 21
158.06
 31
0.0
 12
262.465064
 22
156.94
 32
0.0
 13
262.449384
 23
156.94
 33
0.0
  0
3DFACE
  8
0
  6
CONTINUOUS
 62
     7
 10
262.465064
 20
158.06
 30
0.0
 11
262.480744
 21
158.06
 31
0.0
 12
262.480744
 22
156.94
 32
0.0
 13
262.465064
 23
156.94
 33
0.0
  0
3DFACE
  8
0
  6
CONTINUOUS
 62
     7
 10
262.480744
 20
158.06
 30
0.0
 11
262.496424
 21
158.06
 31
0.0
 12
262.496424
 22
156.94
 32
0.0
 13
262.480744
 23
156.94
 33
0.0
  0
3DFACE
  8
0
  6
CONTINUOUS
 62
     7
 10
262.496424
 20
158.06
 30
0.0
 11
262.512104
 21
158.06
 31
0.0
 12
262.512104
 22
156.94
 32
0.0
 13
262.496424
 23
156.94
 33
0.0
  0
3DFACE
  8
0
  6
CONTINUOUS
 62
     7
 10
262.512104
 20
158.06
 30
0.0
 11
262.527784
 21
158.06
 31
0.0
 12
262.527784
 22
156.94
 32
0.0
 13
262.512104
 23
156.94
 33
0.0
  0
3DFACE
  8
0
  6
CONTINUOUS
 62
     7
 10
262.527784
 20
158.06
 30
0.0
 11
262.543464
 21
158.06
 31
0.0
 12
262.543464
 22
156.94
 32
0.0
 13
262.527784
 23
156.94
 33
0.0
  0
3DFACE
  8
0
  6
CONTINUOUS
 62
     7
 10
262.543464
 20
158.06
 30
0.0
 11
262.559144
 21
158.06
 31
0.0
 12
262.559144
 22
156.94
 32
0.0
 13
262.543464
 23
156.94
 33
0.0
  0
3DFACE
  8
0
  6
CONTINUOUS
 62
     7
 10
262.559144
 20
158.06
 30
0.0
 11
262.574824
 21
158.06
 31
0.0
 12
262.574824
 22
156.94
 32
0.0
 13
262.559144
 23
156.94
 33
0.0
  0
3DFACE
  8
0
  6
CONTINUOUS
 62
     7
 10
262.574824
 20
158.06
 30
0.0
 11
262.590504
 21
158.06
 31
0.0
 12
262.590504
 22
156.94
 32
0.0
 13
262.574824
 23
156.94
 33
0.0
  0
3DFACE
  8
0
  6
CONTINUOUS
 62
     7
 10
262.590504
 20
158.06
 30
0.0
 11
262.606184
 21
158.06
 31
0.0
 12
262.606184
 22
156.94
 32
0.0
 13
262.590504
 23
156.94
 33
0.0
  0
3DFACE
  8
0
  6
CONTINUOUS
 62
     7
 10
262.606184
 20
158.06
 30
0.0
 11
262.621864
 21
158.06
 31
0.0
 12
262.621864
 22
156.94
 32
0.0
 13
262.606184
 23
156.94
 33
0.0
  0
3DFACE
  8
0
  6
CONTINUOUS
 62
     7
 10
262.621864
 20
158.06
 30
0.0
 11
262.637544
 21
158.06
 31
0.0
 12
262.637544
 22
156.94
 32
0.0
 13
262.621864
 23
156.94
 33
0.0
  0
3DFACE
  8
0
  6
CONTINUOUS
 62
     7
 10
262.637544
 20
158.06
 30
0.0
 11
262.653224
 21
158.06
 31
0.0
 12
262.653224
 22
156.94
 32
0.0
 13
262.637544
 23
156.94
 33
0.0
  0
3DFACE
  8
0
  6
CONTINUOUS
 62
     7
 10
262.653224
 20
158.06
 30
0.0
 11
262.668904
 21
158.06
 31
0.0
 12
262.668904
 22
156.94
 32
0.0
 13
262.653224
 23
156.94
 33
0.0
  0
3DFACE
  8
0
  6
CONTINUOUS
 62
     7
 10
262.668904
 20
158.06
 30
0.0
 11
262.684584
 21
158.06
 31
0.0
 12
262.684584
 22
156.94
 32
0.0
 13
262.668904
 23
156.94
 33
0.0
  0
3DFACE
  8
0
  6
CONTINUOUS
 62
     7
 10
262.684584
 20
158.06
 30
0.0
 11
262.700264
 21
158.06
 31
0.0
 12
262.700264
 22
156.94
 32
0.0
 13
262.684584
 23
156.94
 33
0.0
  0
3DFACE
  8
0
  6
CONTINUOUS
 62
     7
 10
262.700264
 20
158.06
 30
0.0
 11
262.715944
 21
158.06
 31
0.0
 12
262.715944
 22
156.94
 32
0.0
 13
262.700264
 23
156.94
 33
0.0
  0
3DFACE
  8
0
  6
CONTINUOUS
 62
     7
 10
262.715944
 20
158.06
 30
0.0
 11
262.731624
 21
158.06
 31
0.0
 12
262.731624
 22
156.94
 32
0.0
 13
262.715944
 23
156.94
 33
0.0
  0
3DFACE
  8
0
  6
CONTINUOUS
 62
     7
 10
262.731624
 20
158.06
 30
0.0
 11
262.747304
 21
158.06
 31
0.0
 12
262.747304
 22
156.94
 32
0.0
 13
262.731624
 23
156.94
 33
0.0
  0
3DFACE
  8
0
  6
CONTINUOUS
 62
     7
 10
262.747304
 20
158.06
 30
0.0
 11
262.762984
 21
158.06
 31
0.0
 12
262.762984
 22
156.94
 32
0.0
 13
262.747304
 23
156.94
 33
0.0
  0
3DFACE
  8
0
  6
CONTINUOUS
 62
     7
 10
262.762984
 20
158.06
 30
0.0
 11
262.778664
 21
158.06
 31
0.0
 12
262.778664
 22
156.94
 32
0.0
 13
262.762984
 23
156.94
 33
0.0
  0
3DFACE
  8
0
  6
CONTINUOUS
 62
     7
 10
262.778664
 20
158.06
 30
0.0
 11
262.794344
 21
158.06
 31
0.0
 12
262.794344
 22
156.94
 32
0.0
 13
262.778664
 23
156.94
 33
0.0
  0
3DFACE
  8
0
  6
CONTINUOUS
 62
     7
 10
262.794344
 20
158.06
 30
0.0
 11
262.810024
 21
158.06
 31
0.0
 12
262.810024
 22
156.94
 32
0.0
 13
262.794344
 23
156.94
 33
0.0
  0
3DFACE
  8
0
  6
CONTINUOUS
 62
     7
 10
262.810024
 20
158.06
 30
0.0
 11
262.825704
 21
158.06
 31
0.0
 12
262.825704
 22
156.94
 32
0.0
 13
262.810024
 23
156.94
 33
0.0
  0
3DFACE
  8
0
  6
CONTINUOUS
 62
     7
 10
262.825704
 20
158.06
 30
0.0
 11
262.841384
 21
158.06
 31
0.0
 12
262.841384
 22
156.94
 32
0.0
 13
262.825704
 23
156.94
 33
0.0
  0
3DFACE
  8
0
  6
CONTINUOUS
 62
     7
 10
262.841384
 20
158.06
 30
0.0
 11
262.857064
 21
158.06
 31
0.0
 12
262.857064
 22
156.94
 32
0.0
 13
262.841384
 23
156.94
 33
0.0
  0
3DFACE
  8
0
  6
CONTINUOUS
 62
     7
 10
262.857064
 20
158.06
 30
0.0
 11
262.872744
 21
158.06
 31
0.0
 12
262.872744
 22
156.94
 32
0.0
 13
262.857064
 23
156.94
 33
0.0
  0
3DFACE
  8
0
  6
CONTINUOUS
 62
     7
 10
262.872744
 20
158.06
 30
0.0
 11
262.888424
 21
158.06
 31
0.0
 12
262.888424
 22
156.94
 32
0.0
 13
262.872744
 23
156.94
 33
0.0
  0
3DFACE
  8
0
  6
CONTINUOUS
 62
     7
 10
262.888424
 20
158.06
 30
0.0
 11
262.904104
 21
158.06
 31
0.0
 12
262.904104
 22
156.94
 32
0.0
 13
262.888424
 23
156.94
 33
0.0
  0
3DFACE
  8
0
  6
CONTINUOUS
 62
     7
 10
262.904104
 20
158.06
 30
0.0
 11
262.919784
 21
158.06
 31
0.0
 12
262.919784
 22
156.94
 32
0.0
 13
262.904104
 23
156.94
 33
0.0
  0
3DFACE
  8
0
  6
CONTINUOUS
 62
     7
 10
262.919784
 20
158.06
 30
0.0
 11
262.935464
 21
158.06
 31
0.0
 12
262.935464
 22
156.94
 32
0.0
 13
262.919784
 23
156.94
 33
0.0
  0
3DFACE
  8
0
  6
CONTINUOUS
 62
     7
 10
262.935464
 20
158.06
 30
0.0
 11
262.951144
 21
158.06
 31
0.0
 12
262.951144
 22
156.94
 32
0.0
 13
262.935464
 23
156.94
 33
0.0
  0
3DFACE
  8
0
  6
CONTINUOUS
 62
     7
 10
262.951144
 20
158.06
 30
0.0
 11
262.966824
 21
158.06
 31
0.0
 12
262.966824
 22
156.94
 32
0.0
 13
262.951144
 23
156.94
 33
0.0
  0
3DFACE
  8
0
  6
CONTINUOUS
 62
     7
 10
262.966824
 20
158.06
 30
0.0
 11
262.982504
 21
158.06
 31
0.0
 12
262.982504
 22
156.94
 32
0.0
 13
262.966824
 23
156.94
 33
0.0
  0
3DFACE
  8
0
  6
CONTINUOUS
 62
     7
 10
262.982504
 20
158.06
 30
0.0
 11
262.998184
 21
158.06
 31
0.0
 12
262.998184
 22
156.94
 32
0.0
 13
262.982504
 23
156.94
 33
0.0
  0
3DFACE
  8
0
  6
CONTINUOUS
 62
     7
 10
262.998184
 20
158.06
 30
0.0
 11
263.013864
 21
158.06
 31
0.0
 12
263.013864
 22
156.94
 32
0.0
 13
262.998184
 23
156.94
 33
0.0
  0
3DFACE
  8
0
  6
CONTINUOUS
 62
     7
 10
263.013864
 20
158.06
 30
0.0
 11
263.029544
 21
158.06
 31
0.0
 12
263.029544
 22
156.94
 32
0.0
 13
263.013864
 23
156.94
 33
0.0
  0
3DFACE
  8
0
  6
CONTINUOUS
 62
     7
 10
263.029544
 20
158.06
 30
0.0
 11
263.045224
 21
158.06
 31
0.0
 12
263.045224
 22
156.94
 32
0.0
 13
263.029544
 23
156.94
 33
0.0
  0
3DFACE
  8
0
  6
CONTINUOUS
 62
     7
 10
263.045224
 20
158.06
 30
0.0
 11
263.060904
 21
158.06
 31
0.0
 12
263.060904
 22
156.94
 32
0.0
 13
263.045224
 23
156.94
 33
0.0
  0
3DFACE
  8
0
  6
CONTINUOUS
 62
     7
 10
263.060904
 20
158.06
 30
0.0
 11
263.076584
 21
158.06
 31
0.0
 12
263.076584
 22
156.94
 32
0.0
 13
263.060904
 23
156.94
 33
0.0
  0
3DFACE
  8
0
  6
CONTINUOUS
 62
     7
 10
263.076584
 20
158.06
 30
0.0
 11
263.092264
 21
158.06
 31
0.0
 12
263.092264
 22
156.94
 32
0.0
 13
263.076584
 23
156.94
 33
0.0
  0
3DFACE
  8
0
  6
CONTINUOUS
 62
     7
 10
263.092264
 20
158.06
 30
0.0
 11
263.107944
 21
158.06
 31
0.0
 12
263.107944
 22
156.94
 32
0.0
 13
263.092264
 23
156.94
 33
0.0
  0
3DFACE
  8
0
  6
CONTINUOUS
 62
     7
 10
263.107944
 20
158.06
 30
0.0
 11
263.123624
 21
158.06
 31
0.0
 12
263.123624
 22
156.94
 32
0.0
 13
263.107944
 23
156.94
 33
0.0
  0
3DFACE
  8
0
  6
CONTINUOUS
 62
     7
 10
263.123624
 20
158.06
 30
0.0
 11
263.139304
 21
158.06
 31
0.0
 12
263.139304
 22
156.94
 32
0.0
 13
263.123624
 23
156.94
 33
0.0
  0
3DFACE
  8
0
  6
CONTINUOUS
 62
     7
 10
263.139304
 20
158.06
 30
0.0
 11
263.154984
 21
158.06
 31
0.0
 12
263.154984
 22
156.94
 32
0.0
 13
263.139304
 23
156.94
 33
0.0
  0
3DFACE
  8
0
  6
CONTINUOUS
 62
     7
 10
263.154984
 20
158.06
 30
0.0
 11
263.170664
 21
158.06
 31
0.0
 12
263.170664
 22
156.94
 32
0.0
 13
263.154984
 23
156.94
 33
0.0
  0
3DFACE
  8
0
  6
CONTINUOUS
 62
     7
 10
263.170664
 20
158.06
 30
0.0
 11
263.186344
 21
158.06
 31
0.0
 12
263.186344
 22
156.94
 32
0.0
 13
263.170664
 23
156.94
 33
0.0
  0
3DFACE
  8
0
  6
CONTINUOUS
 62
     7
 10
263.186344
 20
158.06
 30
0.0
 11
263.202024
 21
158.06
 31
0.0
 12
263.202024
 22
156.94
 32
0.0
 13
263.186344
 23
156.94
 33
0.0
  0
3DFACE
  8
0
  6
CONTINUOUS
 62
     7
 10
263.202024
 20
158.06
 30
0.0
 11
263.217704
 21
158.06
 31
0.0
 12
263.217704
 22
156.94
 32
0.0
 13
263.202024
 23
156.94
 33
0.0
  0
3DFACE
  8
0
  6
CONTINUOUS
 62
     7
 10
263.217704
 20
158.06
 30
0.0
 11
263.233384
 21
158.06
 31
0.0
 12
263.233384
 22
156.94
 32
0.0
 13
263.217704
 23
156.94
 33
0.0
  0
3DFACE
  8
0
  6
CONTINUOUS
 62
     7
 10
263.233384
 20
158.06
 30
0.0
 11
263.249064
 21
158.06
 31
0.0
 12
263.249064
 22
156.94
 32
0.0
 13
263.233384
 23
156.94
 33
0.0
  0
3DFACE
  8
0
  6
CONTINUOUS
 62
     7
 10
263.249064
 20
158.06
 30
0.0
 11
263.264744
 21
158.06
 31
0.0
 12
263.264744
 22
156.94
 32
0.0
 13
263.249064
 23
156.94
 33
0.0
  0
3DFACE
  8
0
  6
CONTINUOUS
 62
     7
 10
263.264744
 20
158.06
 30
0.0
 11
263.280424
 21
158.06
 31
0.0
 12
263.280424
 22
156.94
 32
0.0
 13
263.264744
 23
156.94
 33
0.0
  0
3DFACE
  8
0
  6
CONTINUOUS
 62
     7
 10
263.280424
 20
158.06
 30
0.0
 11
263.296104
 21
158.06
 31
0.0
 12
263.296104
 22
156.94
 32
0.0
 13
263.280424
 23
156.94
 33
0.0
  0
3DFACE
  8
0
  6
CONTINUOUS
 62
     7
 10
263.296104
 20
158.06
 30
0.0
 11
263.311784
 21
158.06
 31
0.0
 12
263.311784
 22
156.94
 32
0.0
 13
263.296104
 23
156.94
 33
0.0
  0
3DFACE
  8
0
  6
CONTINUOUS
 62
     7
 10
263.311784
 20
158.06
 30
0.0
 11
263.327464
 21
158.06
 31
0.0
 12
263.327464
 22
156.94
 32
0.0
 13
263.311784
 23
156.94
 33
0.0
  0
3DFACE
  8
0
  6
CONTINUOUS
 62
     7
 10
263.327464
 20
158.06
 30
0.0
 11
263.343144
 21
158.06
 31
0.0
 12
263.343144
 22
156.94
 32
0.0
 13
263.327464
 23
156.94
 33
0.0
  0
3DFACE
  8
0
  6
CONTINUOUS
 62
     7
 10
263.343144
 20
158.06
 30
0.0
 11
263.358824
 21
158.06
 31
0.0
 12
263.358824
 22
156.94
 32
0.0
 13
263.343144
 23
156.94
 33
0.0
  0
3DFACE
  8
0
  6
CONTINUOUS
 62
     7
 10
263.358824
 20
158.06
 30
0.0
 11
263.374504
 21
158.06
 31
0.0
 12
263.374504
 22
156.94
 32
0.0
 13
263.358824
 23
156.94
 33
0.0
  0
3DFACE
  8
0
  6
CONTINUOUS
 62
     7
 10
263.374504
 20
158.06
 30
0.0
 11
263.390184
 21
158.06
 31
0.0
 12
263.390184
 22
156.94
 32
0.0
 13
263.374504
 23
156.94
 33
0.0
  0
3DFACE
  8
0
  6
CONTINUOUS
 62
     7
 10
263.390184
 20
158.06
 30
0.0
 11
263.405864
 21
158.06
 31
0.0
 12
263.405864
 22
156.94
 32
0.0
 13
263.390184
 23
156.94
 33
0.0
  0
3DFACE
  8
0
  6
CONTINUOUS
 62
     7
 10
263.405864
 20
158.06
 30
0.0
 11
263.421544
 21
158.06
 31
0.0
 12
263.421544
 22
156.94
 32
0.0
 13
263.405864
 23
156.94
 33
0.0
  0
3DFACE
  8
0
  6
CONTINUOUS
 62
     7
 10
263.421544
 20
158.06
 30
0.0
 11
263.437224
 21
158.06
 31
0.0
 12
263.437224
 22
156.94
 32
0.0
 13
263.421544
 23
156.94
 33
0.0
  0
3DFACE
  8
0
  6
CONTINUOUS
 62
     7
 10
263.437224
 20
158.06
 30
0.0
 11
263.452904
 21
158.06
 31
0.0
 12
263.452904
 22
156.94
 32
0.0
 13
263.437224
 23
156.94
 33
0.0
  0
3DFACE
  8
0
  6
CONTINUOUS
 62
     7
 10
263.452904
 20
158.06
 30
0.0
 11
263.468584
 21
158.06
 31
0.0
 12
263.468584
 22
156.94
 32
0.0
 13
263.452904
 23
156.94
 33
0.0
  0
3DFACE
  8
0
  6
CONTINUOUS
 62
     7
 10
263.468584
 20
158.06
 30
0.0
 11
263.484264
 21
158.06
 31
0.0
 12
263.484264
 22
156.94
 32
0.0
 13
263.468584
 23
156.94
 33
0.0
  0
3DFACE
  8
0
  6
CONTINUOUS
 62
     7
 10
263.484264
 20
158.06
 30
0.0
 11
263.499944
 21
158.06
 31
0.0
 12
263.499944
 22
156.94
 32
0.0
 13
263.484264
 23
156.94
 33
0.0
  0
3DFACE
  8
0
  6
CONTINUOUS
 62
     7
 10
263.499944
 20
158.06
 30
0.0
 11
263.515624
 21
158.06
 31
0.0
 12
263.515624
 22
156.94
 32
0.0
 13
263.499944
 23
156.94
 33
0.0
  0
3DFACE
  8
0
  6
CONTINUOUS
 62
     7
 10
263.515624
 20
158.06
 30
0.0
 11
263.531304
 21
158.06
 31
0.0
 12
263.531304
 22
156.94
 32
0.0
 13
263.515624
 23
156.94
 33
0.0
  0
3DFACE
  8
0
  6
CONTINUOUS
 62
     7
 10
263.531304
 20
158.06
 30
0.0
 11
263.546984
 21
158.06
 31
0.0
 12
263.546984
 22
156.94
 32
0.0
 13
263.531304
 23
156.94
 33
0.0
  0
3DFACE
  8
0
  6
CONTINUOUS
 62
     7
 10
263.546984
 20
158.06
 30
0.0
 11
263.562664
 21
158.06
 31
0.0
 12
263.562664
 22
156.94
 32
0.0
 13
263.546984
 23
156.94
 33
0.0
  0
3DFACE
  8
0
  6
CONTINUOUS
 62
     7
 10
263.562664
 20
158.06
 30
0.0
 11
263.578344
 21
158.06
 31
0.0
 12
263.578344
 22
156.94
 32
0.0
 13
263.562664
 23
156.94
 33
0.0
  0
3DFACE
  8
0
  6
CONTINUOUS
 62
     7
 10
263.578344
 20
158.06
 30
0.0
 11
263.594024
 21
158.06
 31
0.0
 12
263.594024
 22
156.94
 32
0.0
 13
263.578344
 23
156.94
 33
0.0
  0
3DFACE
  8
0
  6
CONTINUOUS
 62
     7
 10
263.594024
 20
158.06
 30
0.0
 11
263.609704
 21
158.06
 31
0.0
 12
263.609704
 22
156.94
 32
0.0
 13
263.594024
 23
156.94
 33
0.0
  0
3DFACE
  8
0
  6
CONTINUOUS
 62
     7
 10
263.609704
 20
158.06
 30
0.0
 11
263.625384
 21
158.06
 31
0.0
 12
263.625384
 22
156.94
 32
0.0
 13
263.609704
 23
156.94
 33
0.0
  0
3DFACE
  8
0
  6
CONTINUOUS
 62
     7
 10
263.625384
 20
158.06
 30
0.0
 11
263.641064
 21
158.06
 31
0.0
 12
263.641064
 22
156.94
 32
0.0
 13
263.625384
 23
156.94
 33
0.0
  0
3DFACE
  8
0
  6
CONTINUOUS
 62
     7
 10
263.641064
 20
158.06
 30
0.0
 11
263.656744
 21
158.06
 31
0.0
 12
263.656744
 22
156.94
 32
0.0
 13
263.641064
 23
156.94
 33
0.0
  0
3DFACE
  8
0
  6
CONTINUOUS
 62
     7
 10
263.656744
 20
158.06
 30
0.0
 11
263.672424
 21
158.06
 31
0.0
 12
263.672424
 22
156.94
 32
0.0
 13
263.656744
 23
156.94
 33
0.0
  0
3DFACE
  8
0
  6
CONTINUOUS
 62
     7
 10
263.672424
 20
158.06
 30
0.0
 11
263.688104
 21
158.06
 31
0.0
 12
263.688104
 22
156.94
 32
0.0
 13
263.672424
 23
156.94
 33
0.0
  0
3DFACE
  8
0
  6
CONTINUOUS
 62
     7
 10
263.688104
 20
158.06
 30
0.0
 11
263.703784
 21
158.06
 31
0.0
 12
263.703784
 22
156.94
 32
0.0
 13
263.688104
 23
156.94
 33
0.0
  0
3DFACE
  8
0
  6
CONTINUOUS
 62
     7
 10
263.703784
 20
158.06
 30
0.0
 11
263.719464
 21
158.06
 31
0.0
 12
263.719464
 22
156.94
 32
0.0
 13
263.703784
 23
156.94
 33
0.0
  0
3DFACE
  8
0
  6
CONTINUOUS
 62
     7
 10
263.719464
 20
158.06
 30
0.0
 11
263.735144
 21
158.06
 31
0.0
 12
263.735144
 22
156.94
 32
0.0
 13
263.719464
 23
156.94
 33
0.0
  0
3DFACE
  8
0
  6
CONTINUOUS
 62
     7
 10
263.735144
 20
158.06
 30
0.0
 11
263.750824
 21
158.06
 31
0.0
 12
263.750824
 22
156.94
 32
0.0
 13
263.735144
 23
156.94
 33
0.0
  0
3DFACE
  8
0
  6
CONTINUOUS
 62
     7
 10
263.750824
 20
158.06
 30
0.0
 11
263.766504
 21
158.06
 31
0.0
 12
263.766504
 22
156.94
 32
0.0
 13
263.750824
 23
156.94
 33
0.0
  0
3DFACE
  8
0
  6
CONTINUOUS
 62
     7
 10
263.766504
 20
158.06
 30
0.0
 11
263.782184
 21
158.06
 31
0.0
 12
263.782184
 22
156.94
 32
0.0
 13
263.766504
 23
156.94
 33
0.0
  0
3DFACE
  8
0
  6
CONTINUOUS
 62
     7
 10
263.782184
 20
158.06
 30
0.0
 11
263.797864
 21
158.06
 31
0.0
 12
263.797864
 22
156.94
 32
0.0
 13
263.782184
 23
156.94
 33
0.0
  0
3DFACE
  8
0
  6
CONTINUOUS
 62
     7
 10
263.797864
 20
158.06
 30
0.0
 11
263.813544
 21
158.06
 31
0.0
 12
263.813544
 22
156.94
 32
0.0
 13
263.797864
 23
156.94
 33
0.0
  0
3DFACE
  8
0
  6
CONTINUOUS
 62
     7
 10
263.813544
 20
158.06
 30
0.0
 11
263.829224
 21
158.06
 31
0.0
 12
263.829224
 22
156.94
 32
0.0
 13
263.813544
 23
156.94
 33
0.0
  0
3DFACE
  8
0
  6
CONTINUOUS
 62
     7
 10
263.829224
 20
158.06
 30
0.0
 11
263.844904
 21
158.06
 31
0.0
 12
263.844904
 22
156.94
 32
0.0
 13
263.829224
 23
156.94
 33
0.0
  0
3DFACE
  8
0
  6
CONTINUOUS
 62
     7
 10
263.844904
 20
158.06
 30
0.0
 11
263.860584
 21
158.06
 31
0.0
 12
263.860584
 22
156.94
 32
0.0
 13
263.844904
 23
156.94
 33
0.0
  0
3DFACE
  8
0
  6
CONTINUOUS
 62
     7
 10
263.860584
 20
158.06
 30
0.0
 11
263.876264
 21
158.06
 31
0.0
 12
263.876264
 22
156.94
 32
0.0
 13
263.860584
 23
156.94
 33
0.0
  0
3DFACE
  8
0
  6
CONTINUOUS
 62
     7
 10
263.876264
 20
158.06
 30
0.0
 11
263.891944
 21
158.06
 31
0.0
 12
263.891944
 22
156.94
 32
0.0
 13
263.876264
 23
156.94
 33
0.0
  0
3DFACE
  8
0
  6
CONTINUOUS
 62
     7
 10
263.891944
 20
158.06
 30
0.0
 11
263.907624
 21
158.06
 31
0.0
 12
263.907624
 22
156.94
 32
0.0
 13
263.891944
 23
156.94
 33
0.0
  0
3DFACE
  8
0
  6
CONTINUOUS
 62
     7
 10
263.907624
 20
158.06
 30
0.0
 11
263.923304
 21
158.06
 31
0.0
 12
263.923304
 22
156.94
 32
0.0
 13
263.907624
 23
156.94
 33
0.0
  0
3DFACE
  8
0
  6
CONTINUOUS
 62
     7
 10
263.923304
 20
158.06
 30
0.0
 11
263.938984
 21
158.06
 31
0.0
 12
263.938984
 22
156.94
 32
0.0
 13
263.923304
 23
156.94
 33
0.0
  0
3DFACE
  8
0
  6
CONTINUOUS
 62
     7
 10
263.938984
 20
158.06
 30
0.0
 11
263.954664
 21
158.06
 31
0.0
 12
263.954664
 22
156.94
 32
0.0
 13
263.938984
 23
156.94
 33
0.0
  0
3DFACE
  8
0
  6
CONTINUOUS
 62
     7
 10
263.954664
 20
158.06
 30
0.0
 11
263.970344
 21
158.06
 31
0.0
 12
263.970344
 22
156.94
 32
0.0
 13
263.954664
 23
156.94
 33
0.0
  0
3DFACE
  8
0
  6
CONTINUOUS
 62
     7
 10
263.970344
 20
158.06
 30
0.0
 11
263.986024
 21
158.06
 31
0.0
 12
263.986024
 22
156.94
 32
0.0
 13
263.970344
 23
156.94
 33
0.0
  0
3DFACE
  8
0
  6
CONTINUOUS
 62
     7
 10
263.986024
 20
158.06
 30
0.0
 11
264.001704
 21
158.06
 31
0.0
 12
264.001704
 22
156.94
 32
0.0
 13
263.986024
 23
156.94
 33
0.0
  0
3DFACE
  8
0
  6
CONTINUOUS
 62
     7
 10
264.001704
 20
158.06
 30
0.0
 11
264.017384
 21
158.06
 31
0.0
 12
264.017384
 22
156.94
 32
0.0
 13
264.001704
 23
156.94
 33
0.0
  0
3DFACE
  8
0
  6
CONTINUOUS
 62
     7
 10
264.017384
 20
158.06
 30
0.0
 11
264.033064
 21
158.06
 31
0.0
 12
264.033064
 22
156.94
 32
0.0
 13
264.017384
 23
156.94
 33
0.0
  0
3DFACE
  8
0
  6
CONTINUOUS
 62
     7
 10
264.033064
 20
158.06
 30
0.0
 11
264.048744
 21
158.06
 31
0.0
 12
264.048744
 22
156.94
 32
0.0
 13
264.033064
 23
156.94
 33
0.0
  0
3DFACE
  8
0
  6
CONTINUOUS
 62
     7
 10
264.048744
 20
158.06
 30
0.0
 11
264.064424
 21
158.06
 31
0.0
 12
264.064424
 22
156.94
 32
0.0
 13
264.048744
 23
156.94
 33
0.0
  0
3DFACE
  8
0
  6
CONTINUOUS
 62
     7
 10
264.064424
 20
158.06
 30
0.0
 11
264.080104
 21
158.06
 31
0.0
 12
264.080104
 22
156.94
 32
0.0
 13
264.064424
 23
156.94
 33
0.0
  0
3DFACE
  8
0
  6
CONTINUOUS
 62
     7
 10
264.080104
 20
158.06
 30
0.0
 11
264.095784
 21
158.06
 31
0.0
 12
264.095784
 22
156.94
 32
0.0
 13
264.080104
 23
156.94
 33
0.0
  0
3DFACE
  8
0
  6
CONTINUOUS
 62
     7
 10
264.095784
 20
158.06
 30
0.0
 11
264.111464
 21
158.06
 31
0.0
 12
264.111464
 22
156.94
 32
0.0
 13
264.095784
 23
156.94
 33
0.0
  0
3DFACE
  8
0
  6
CONTINUOUS
 62
     7
 10
264.111464
 20
158.06
 30
0.0
 11
264.127144
 21
158.06
 31
0.0
 12
264.127144
 22
156.94
 32
0.0
 13
264.111464
 23
156.94
 33
0.0
  0
3DFACE
  8
0
  6
CONTINUOUS
 62
     7
 10
264.127144
 20
158.06
 30
0.0
 11
264.142824
 21
158.06
 31
0.0
 12
264.142824
 22
156.94
 32
0.0
 13
264.127144
 23
156.94
 33
0.0
  0
3DFACE
  8
0
  6
CONTINUOUS
 62
     7
 10
264.142824
 20
158.06
 30
0.0
 11
264.158504
 21
158.06
 31
0.0
 12
264.158504
 22
156.94
 32
0.0
 13
264.142824
 23
156.94
 33
0.0
  0
3DFACE
  8
0
  6
CONTINUOUS
 62
     7
 10
264.158504
 20
158.06
 30
0.0
 11
264.174184
 21
158.06
 31
0.0
 12
264.174184
 22
156.94
 32
0.0
 13
264.158504
 23
156.94
 33
0.0
  0
3DFACE
  8
0
  6
CONTINUOUS
 62
     7
 10
264.174184
 20
158.06
 30
0.0
 11
264.189864
 21
158.06
 31
0.0
 12
264.189864
 22
156.94
 32
0.0
 13
264.174184
 23
156.94
 33
0.0
  0
3DFACE
  8
0
  6
CONTINUOUS
 62
     7
 10
264.189864
 20
158.06
 30
0.0
 11
264.205544
 21
158.06
 31
0.0
 12
264.205544
 22
156.94
 32
0.0
 13
264.189864
 23
156.94
 33
0.0
  0
3DFACE
  8
0
  6
CONTINUOUS
 62
     7
 10
264.205544
 20
158.06
 30
0.0
 11
264.221224
 21
158.06
 31
0.0
 12
264.221224
 22
156.94
 32
0.0
 13
264.205544
 23
156.94
 33
0.0
  0
3DFACE
  8
0
  6
CONTINUOUS
 62
     7
 10
264.221224
 20
158.06
 30
0.0
 11
264.236904
 21
158.06
 31
0.0
 12
264.236904
 22
156.94
 32
0.0
 13
264.221224
 23
156.94
 33
0.0
  0
3DFACE
  8
0
  6
CONTINUOUS
 62
     7
 10
264.236904
 20
158.06
 30
0.0
 11
264.252584
 21
158.06
 31
0.0
 12
264.252584
 22
156.94
 32
0.0
 13
264.236904
 23
156.94
 33
0.0
  0
3DFACE
  8
0
  6
CONTINUOUS
 62
     7
 10
264.252584
 20
158.06
 30
0.0
 11
264.268264
 21
158.06
 31
0.0
 12
264.268264
 22
156.94
 32
0.0
 13
264.252584
 23
156.94
 33
0.0
  0
3DFACE
  8
0
  6
CONTINUOUS
 62
     7
 10
264.268264
 20
158.06
 30
0.0
 11
264.283944
 21
158.06
 31
0.0
 12
264.283944
 22
156.94
 32
0.0
 13
264.268264
 23
156.94
 33
0.0
  0
3DFACE
  8
0
  6
CONTINUOUS
 62
     7
 10
264.283944
 20
158.06
 30
0.0
 11
264.299624
 21
158.06
 31
0.0
 12
264.299624
 22
156.94
 32
0.0
 13
264.283944
 23
156.94
 33
0.0
  0
3DFACE
  8
0
  6
CONTINUOUS
 62
     7
 10
264.299624
 20
158.06
 30
0.0
 11
264.315304
 21
158.06
 31
0.0
 12
264.315304
 22
156.94
 32
0.0
 13
264.299624
 23
156.94
 33
0.0
  0
3DFACE
  8
0
  6
CONTINUOUS
 62
     7
 10
264.315304
 20
158.06
 30
0.0
 11
264.330984
 21
158.06
 31
0.0
 12
264.330984
 22
156.94
 32
0.0
 13
264.315304
 23
156.94
 33
0.0
  0
3DFACE
  8
0
  6
CONTINUOUS
 62
     7
 10
264.330984
 20
158.06
 30
0.0
 11
264.346664
 21
158.06
 31
0.0
 12
264.346664
 22
156.94
 32
0.0
 13
264.330984
 23
156.94
 33
0.0
  0
3DFACE
  8
0
  6
CONTINUOUS
 62
     7
 10
264.346664
 20
158.06
 30
0.0
 11
264.362344
 21
158.06
 31
0.0
 12
264.362344
 22
156.94
 32
0.0
 13
264.346664
 23
156.94
 33
0.0
  0
3DFACE
  8
0
  6
CONTINUOUS
 62
     7
 10
264.362344
 20
158.06
 30
0.0
 11
264.378024
 21
158.06
 31
0.0
 12
264.378024
 22
156.94
 32
0.0
 13
264.362344
 23
156.94
 33
0.0
  0
3DFACE
  8
0
  6
CONTINUOUS
 62
     7
 10
264.378024
 20
158.06
 30
0.0
 11
264.393704
 21
158.06
 31
0.0
 12
264.393704
 22
156.94
 32
0.0
 13
264.378024
 23
156.94
 33
0.0
  0
3DFACE
  8
0
  6
CONTINUOUS
 62
     7
 10
264.393704
 20
158.06
 30
0.0
 11
264.409384
 21
158.06
 31
0.0
 12
264.409384
 22
156.94
 32
0.0
 13
264.393704
 23
156.94
 33
0.0
  0
3DFACE
  8
0
  6
CONTINUOUS
 62
     7
 10
264.409384
 20
158.06
 30
0.0
 11
264.425064
 21
158.06
 31
0.0
 12
264.425064
 22
156.94
 32
0.0
 13
264.409384
 23
156.94
 33
0.0
  0
3DFACE
  8
0
  6
CONTINUOUS
 62
     7
 10
264.425064
 20
158.06
 30
0.0
 11
264.440744
 21
158.06
 31
0.0
 12
264.440744
 22
156.94
 32
0.0
 13
264.425064
 23
156.94
 33
0.0
  0
3DFACE
  8
0
  6
CONTINUOUS
 62
     7
 10
264.440744
 20
158.06
 30
0.0
 11
264.456424
 21
158.06
 31
0.0
 12
264.456424
 22
156.94
 32
0.0
 13
264.440744
 23
156.94
 33
0.0
  0
3DFACE
  8
0
  6
CONTINUOUS
 62
     7
 10
264.456424
 20
158.06
 30
0.0
 11
264.472104
 21
158.06
 31
0.0
 12
264.472104
 22
156.94
 32
0.0
 13
264.456424
 23
156.94
 33
0.0
  0
3DFACE
  8
0
  6
CONTINUOUS
 62
     7
 10
264.472104
 20
158.06
 30
0.0
 11
264.487784
 21
158.06
 31
0.0
 12
264.487784
 22
156.94
 32
0.0
 13
264.472104
 23
156.94
 33
0.0
  0
3DFACE
  8
0
  6
CONTINUOUS
 62
     7
 10
264.487784
 20
158.06
 30
0.0
 11
264.503464
 21
158.06
 31
0.0
 12
264.503464
 22
156.94
 32
0.0
 13
264.487784
 23
156.94
 33
0.0
  0
3DFACE
  8
0
  6
CONTINUOUS
 62
     7
 10
264.503464
 20
158.06
 30
0.0
 11
264.519144
 21
158.06
 31
0.0
 12
264.519144
 22
156.94
 32
0.0
 13
264.503464
 23
156.94
 33
0.0
  0
3DFACE
  8
0
  6
CONTINUOUS
 62
     7
 10
264.519144
 20
158.06
 30
0.0
 11
264.534824
 21
158.06
 31
0.0
 12
264.534824
 22
156.94
 32
0.0
 13
264.519144
 23
156.94
 33
0.0
  0
3DFACE
  8
0
  6
CONTINUOUS
 62
     7
 10
264.534824
 20
158.06
 30
0.0
 11
264.550504
 21
158.06
 31
0.0
 12
264.550504
 22
156.94
 32
0.0
 13
264.534824
 23
156.94
 33
0.0
  0
3DFACE
  8
0
  6
CONTINUOUS
 62
     7
 10
264.550504
 20
158.06
 30
0.0
 11
264.566184
 21
158.06
 31
0.0
 12
264.566184
 22
156.94
 32
0.0
 13
264.550504
 23
156.94
 33
0.0
  0
3DFACE
  8
0
  6
CONTINUOUS
 62
     7
 10
264.566184
 20
158.06
 30
0.0
 11
264.581864
 21
158.06
 31
0.0
 12
264.581864
 22
156.94
 32
0.0
 13
264.566184
 23
156.94
 33
0.0
  0
3DFACE
  8
0
  6
CONTINUOUS
 62
     7
 10
264.581864
 20
158.06
 30
0.0
 11
264.597544
 21
158.06
 31
0.0
 12
264.597544
 22
156.94
 32
0.0
 13
264.581864
 23
156.94
 33
0.0
  0
3DFACE
  8
0
  6
CONTINUOUS
 62
     7
 10
264.597544
 20
158.06
 30
0.0
 11
264.613224
 21
158.06
 31
0.0
 12
264.613224
 22
156.94
 32
0.0
 13
264.597544
 23
156.94
 33
0.0
  0
3DFACE
  8
0
  6
CONTINUOUS
 62
     7
 10
264.613224
 20
158.06
 30
0.0
 11
264.628904
 21
158.06
 31
0.0
 12
264.628904
 22
156.94
 32
0.0
 13
264.613224
 23
156.94
 33
0.0
  0
3DFACE
  8
0
  6
CONTINUOUS
 62
     7
 10
264.628904
 20
158.06
 30
0.0
 11
264.644584
 21
158.06
 31
0.0
 12
264.644584
 22
156.94
 32
0.0
 13
264.628904
 23
156.94
 33
0.0
  0
3DFACE
  8
0
  6
CONTINUOUS
 62
     7
 10
264.644584
 20
158.06
 30
0.0
 11
264.660264
 21
158.06
 31
0.0
 12
264.660264
 22
156.94
 32
0.0
 13
264.644584
 23
156.94
 33
0.0
  0
3DFACE
  8
0
  6
CONTINUOUS
 62
     7
 10
264.660264
 20
158.06
 30
0.0
 11
264.675944
 21
158.06
 31
0.0
 12
264.675944
 22
156.94
 32
0.0
 13
264.660264
 23
156.94
 33
0.0
  0
3DFACE
  8
0
  6
CONTINUOUS
 62
     7
 10
264.675944
 20
158.06
 30
0.0
 11
264.691624
 21
158.06
 31
0.0
 12
264.691624
 22
156.94
 32
0.0
 13
264.675944
 23
156.94
 33
0.0
  0
3DFACE
  8
0
  6
CONTINUOUS
 62
     7
 10
264.691624
 20
158.06
 30
0.0
 11
264.707304
 21
158.06
 31
0.0
 12
264.707304
 22
156.94
 32
0.0
 13
264.691624
 23
156.94
 33
0.0
  0
3DFACE
  8
0
  6
CONTINUOUS
 62
     7
 10
264.707304
 20
158.06
 30
0.0
 11
264.722984
 21
158.06
 31
0.0
 12
264.722984
 22
156.94
 32
0.0
 13
264.707304
 23
156.94
 33
0.0
  0
3DFACE
  8
0
  6
CONTINUOUS
 62
     7
 10
264.722984
 20
158.06
 30
0.0
 11
264.738664
 21
158.06
 31
0.0
 12
264.738664
 22
156.94
 32
0.0
 13
264.722984
 23
156.94
 33
0.0
  0
3DFACE
  8
0
  6
CONTINUOUS
 62
     7
 10
264.738664
 20
158.06
 30
0.0
 11
264.754344
 21
158.06
 31
0.0
 12
264.754344
 22
156.94
 32
0.0
 13
264.738664
 23
156.94
 33
0.0
  0
3DFACE
  8
0
  6
CONTINUOUS
 62
     7
 10
264.754344
 20
158.06
 30
0.0
 11
264.770024
 21
158.06
 31
0.0
 12
264.770024
 22
156.94
 32
0.0
 13
264.754344
 23
156.94
 33
0.0
  0
3DFACE
  8
0
  6
CONTINUOUS
 62
     7
 10
264.770024
 20
158.06
 30
0.0
 11
264.785704
 21
158.06
 31
0.0
 12
264.785704
 22
156.94
 32
0.0
 13
264.770024
 23
156.94
 33
0.0
  0
3DFACE
  8
0
  6
CONTINUOUS
 62
     7
 10
264.785704
 20
158.06
 30
0.0
 11
264.801384
 21
158.06
 31
0.0
 12
264.801384
 22
156.94
 32
0.0
 13
264.785704
 23
156.94
 33
0.0
  0
3DFACE
  8
0
  6
CONTINUOUS
 62
     7
 10
264.801384
 20
158.06
 30
0.0
 11
264.817064
 21
158.06
 31
0.0
 12
264.817064
 22
156.94
 32
0.0
 13
264.801384
 23
156.94
 33
0.0
  0
3DFACE
  8
0
  6
CONTINUOUS
 62
     7
 10
264.817064
 20
158.06
 30
0.0
 11
264.832744
 21
158.06
 31
0.0
 12
264.832744
 22
156.94
 32
0.0
 13
264.817064
 23
156.94
 33
0.0
  0
3DFACE
  8
0
  6
CONTINUOUS
 62
     7
 10
264.832744
 20
158.06
 30
0.0
 11
264.848424
 21
158.06
 31
0.0
 12
264.848424
 22
156.94
 32
0.0
 13
264.832744
 23
156.94
 33
0.0
  0
3DFACE
  8
0
  6
CONTINUOUS
 62
     7
 10
264.848424
 20
158.06
 30
0.0
 11
264.864104
 21
158.06
 31
0.0
 12
264.864104
 22
156.94
 32
0.0
 13
264.848424
 23
156.94
 33
0.0
  0
3DFACE
  8
0
  6
CONTINUOUS
 62
     7
 10
264.864104
 20
158.06
 30
0.0
 11
264.879784
 21
158.06
 31
0.0
 12
264.879784
 22
156.94
 32
0.0
 13
264.864104
 23
156.94
 33
0.0
  0
3DFACE
  8
0
  6
CONTINUOUS
 62
     7
 10
264.879784
 20
158.06
 30
0.0
 11
264.895464
 21
158.06
 31
0.0
 12
264.895464
 22
156.94
 32
0.0
 13
264.879784
 23
156.94
 33
0.0
  0
3DFACE
  8
0
  6
CONTINUOUS
 62
     7
 10
264.895464
 20
158.06
 30
0.0
 11
264.911144
 21
158.06
 31
0.0
 12
264.911144
 22
156.94
 32
0.0
 13
264.895464
 23
156.94
 33
0.0
  0
3DFACE
  8
0
  6
CONTINUOUS
 62
     7
 10
264.911144
 20
158.06
 30
0.0
 11
264.926824
 21
158.06
 31
0.0
 12
264.926824
 22
156.94
 32
0.0
 13
264.911144
 23
156.94
 33
0.0
  0
3DFACE
  8
0
  6
CONTINUOUS
 62
     7
 10
264.926824
 20
158.06
 30
0.0
 11
264.942504
 21
158.06
 31
0.0
 12
264.942504
 22
156.94
 32
0.0
 13
264.926824
 23
156.94
 33
0.0
  0
3DFACE
  8
0
  6
CONTINUOUS
 62
     7
 10
264.942504
 20
158.06
 30
0.0
 11
264.958184
 21
158.06
 31
0.0
 12
264.958184
 22
156.94
 32
0.0
 13
264.942504
 23
156.94
 33
0.0
  0
3DFACE
  8
0
  6
CONTINUOUS
 62
     7
 10
264.958184
 20
158.06
 30
0.0
 11
264.973864
 21
158.06
 31
0.0
 12
264.973864
 22
156.94
 32
0.0
 13
264.958184
 23
156.94
 33
0.0
  0
3DFACE
  8
0
  6
CONTINUOUS
 62
     7
 10
264.973864
 20
158.06
 30
0.0
 11
264.989544
 21
158.06
 31
0.0
 12
264.989544
 22
156.94
 32
0.0
 13
264.973864
 23
156.94
 33
0.0
  0
3DFACE
  8
0
  6
CONTINUOUS
 62
     7
 10
264.989544
 20
158.06
 30
0.0
 11
265.005224
 21
158.06
 31
0.0
 12
265.005224
 22
156.94
 32
0.0
 13
264.989544
 23
156.94
 33
0.0
  0
3DFACE
  8
0
  6
CONTINUOUS
 62
     7
 10
265.005224
 20
158.06
 30
0.0
 11
265.020904
 21
158.06
 31
0.0
 12
265.020904
 22
156.94
 32
0.0
 13
265.005224
 23
156.94
 33
0.0
  0
3DFACE
  8
0
  6
CONTINUOUS
 62
     7
 10
265.020904
 20
158.06
 30
0.0
 11
265.036584
 21
158.06
 31
0.0
 12
265.036584
 22
156.94
 32
0.0
 13
265.020904
 23
156.94
 33
0.0
  0
3DFACE
  8
0
  6
CONTINUOUS
 62
     7
 10
265.036584
 20
158.06
 30
0.0
 11
265.052264
 21
158.06
 31
0.0
 12
265.052264
 22
156.94
 32
0.0
 13
265.036584
 23
156.94
 33
0.0
  0
3DFACE
  8
0
  6
CONTINUOUS
 62
     7
 10
265.052264
 20
158.06
 30
0.0
 11
265.067944
 21
158.06
 31
0.0
 12
265.067944
 22
156.94
 32
0.0
 13
265.052264
 23
156.94
 33
0.0
  0
3DFACE
  8
0
  6
CONTINUOUS
 62
     7
 10
265.067944
 20
158.06
 30
0.0
 11
265.083624
 21
158.06
 31
0.0
 12
265.083624
 22
156.94
 32
0.0
 13
265.067944
 23
156.94
 33
0.0
  0
3DFACE
  8
0
  6
CONTINUOUS
 62
     7
 10
265.083624
 20
158.06
 30
0.0
 11
265.099304
 21
158.06
 31
0.0
 12
265.099304
 22
156.94
 32
0.0
 13
265.083624
 23
156.94
 33
0.0
  0
3DFACE
  8
0
  6
CONTINUOUS
 62
     7
 10
265.099304
 20
158.06
 30
0.0
 11
265.114984
 21
158.06
 31
0.0
 12
265.114984
 22
156.94
 32
0.0
 13
265.099304
 23
156.94
 33
0.0
  0
3DFACE
  8
0
  6
CONTINUOUS
 62
     7
 10
265.114984
 20
158.06
 30
0.0
 11
265.130664
 21
158.06
 31
0.0
 12
265.130664
 22
156.94
 32
0.0
 13
265.114984
 23
156.94
 33
0.0
  0
3DFACE
  8
0
  6
CONTINUOUS
 62
     7
 10
265.130664
 20
158.06
 30
0.0
 11
265.146344
 21
158.06
 31
0.0
 12
265.146344
 22
156.94
 32
0.0
 13
265.130664
 23
156.94
 33
0.0
  0
3DFACE
  8
0
  6
CONTINUOUS
 62
     7
 10
265.146344
 20
158.06
 30
0.0
 11
265.162024
 21
158.06
 31
0.0
 12
265.162024
 22
156.94
 32
0.0
 13
265.146344
 23
156.94
 33
0.0
  0
3DFACE
  8
0
  6
CONTINUOUS
 62
     7
 10
265.162024
 20
158.06
 30
0.0
 11
265.177704
 21
158.06
 31
0.0
 12
265.177704
 22
156.94
 32
0.0
 13
265.162024
 23
156.94
 33
0.0
  0
3DFACE
  8
0
  6
CONTINUOUS
 62
     7
 10
265.177704
 20
158.06
 30
0.0
 11
265.193384
 21
158.06
 31
0.0
 12
265.193384
 22
156.94
 32
0.0
 13
265.177704
 23
156.94
 33
0.0
  0
3DFACE
  8
0
  6
CONTINUOUS
 62
     7
 10
265.193384
 20
158.06
 30
0.0
 11
265.209064
 21
158.06
 31
0.0
 12
265.209064
 22
156.94
 32
0.0
 13
265.193384
 23
156.94
 33
0.0
  0
3DFACE
  8
0
  6
CONTINUOUS
 62
     7
 10
265.209064
 20
158.06
 30
0.0
 11
265.224744
 21
158.06
 31
0.0
 12
265.224744
 22
156.94
 32
0.0
 13
265.209064
 23
156.94
 33
0.0
  0
3DFACE
  8
0
  6
CONTINUOUS
 62
     7
 10
265.224744
 20
158.06
 30
0.0
 11
265.240424
 21
158.06
 31
0.0
 12
265.240424
 22
156.94
 32
0.0
 13
265.224744
 23
156.94
 33
0.0
  0
3DFACE
  8
0
  6
CONTINUOUS
 62
     7
 10
265.240424
 20
158.06
 30
0.0
 11
265.256104
 21
158.06
 31
0.0
 12
265.256104
 22
156.94
 32
0.0
 13
265.240424
 23
156.94
 33
0.0
  0
3DFACE
  8
0
  6
CONTINUOUS
 62
     7
 10
265.256104
 20
158.06
 30
0.0
 11
265.271784
 21
158.06
 31
0.0
 12
265.271784
 22
156.94
 32
0.0
 13
265.256104
 23
156.94
 33
0.0
  0
3DFACE
  8
0
  6
CONTINUOUS
 62
     7
 10
265.271784
 20
158.06
 30
0.0
 11
265.287464
 21
158.06
 31
0.0
 12
265.287464
 22
156.94
 32
0.0
 13
265.271784
 23
156.94
 33
0.0
  0
3DFACE
  8
0
  6
CONTINUOUS
 62
     7
 10
265.287464
 20
158.06
 30
0.0
 11
265.303144
 21
158.06
 31
0.0
 12
265.303144
 22
156.94
 32
0.0
 13
265.287464
 23
156.94
 33
0.0
  0
3DFACE
  8
0
  6
CONTINUOUS
 62
     7
 10
265.303144
 20
158.06
 30
0.0
 11
265.318824
 21
158.06
 31
0.0
 12
265.318824
 22
156.94
 32
0.0
 13
265.303144
 23
156.94
 33
0.0
  0
3DFACE
  8
0
  6
CONTINUOUS
 62
     7
 10
265.318824
 20
158.06
 30
0.0
 11
265.334504
 21
158.06
 31
0.0
 12
265.334504
 22
156.94
 32
0.0
 13
265.318824
 23
156.94
 33
0.0
  0
3DFACE
  8
0
  6
CONTINUOUS
 62
     7
 10
265.334504
 20
158.06
 30
0.0
 11
265.350184
 21
158.06
 31
0.0
 12
265.350184
 22
156.94
 32
0.0
 13
265.334504
 23
156.94
 33
0.0
  0
3DFACE
  8
0
  6
CONTINUOUS
 62
     7
 10
265.350184
 20
158.06
 30
0.0
 11
265.365864
 21
158.06
 31
0.0
 12
265.365864
 22
156.94
 32
0.0
 13
265.350184
 23
156.94
 33
0.0
  0
3DFACE
  8
0
  6
CONTINUOUS
 62
     7
 10
265.365864
 20
158.06
 30
0.0
 11
265.381544
 21
158.06
 31
0.0
 12
265.381544
 22
156.94
 32
0.0
 13
265.365864
 23
156.94
 33
0.0
  0
3DFACE
  8
0
  6
CONTINUOUS
 62
     7
 10
265.381544
 20
158.06
 30
0.0
 11
265.397224
 21
158.06
 31
0.0
 12
265.397224
 22
156.94
 32
0.0
 13
265.381544
 23
156.94
 33
0.0
  0
3DFACE
  8
0
  6
CONTINUOUS
 62
     7
 10
265.397224
 20
158.06
 30
0.0
 11
265.412904
 21
158.06
 31
0.0
 12
265.412904
 22
156.94
 32
0.0
 13
265.397224
 23
156.94
 33
0.0
  0
3DFACE
  8
0
  6
CONTINUOUS
 62
     7
 10
265.412904
 20
158.06
 30
0.0
 11
265.428584
 21
158.06
 31
0.0
 12
265.428584
 22
156.94
 32
0.0
 13
265.412904
 23
156.94
 33
0.0
  0
3DFACE
  8
0
  6
CONTINUOUS
 62
     7
 10
265.428584
 20
158.06
 30
0.0
 11
265.444264
 21
158.06
 31
0.0
 12
265.444264
 22
156.94
 32
0.0
 13
265.428584
 23
156.94
 33
0.0
  0
3DFACE
  8
0
  6
CONTINUOUS
 62
     7
 10
265.444264
 20
158.06
 30
0.0
 11
265.459944
 21
158.06
 31
0.0
 12
265.459944
 22
156.94
 32
0.0
 13
265.444264
 23
156.94
 33
0.0
  0
3DFACE
  8
0
  6
CONTINUOUS
 62
     7
 10
265.459944
 20
158.06
 30
0.0
 11
265.475624
 21
158.06
 31
0.0
 12
265.475624
 22
156.94
 32
0.0
 13
265.459944
 23
156.94
 33
0.0
  0
3DFACE
  8
0
  6
CONTINUOUS
 62
     7
 10
265.475624
 20
158.06
 30
0.0
 11
265.491304
 21
158.06
 31
0.0
 12
265.491304
 22
156.94
 32
0.0
 13
265.475624
 23
156.94
 33
0.0
  0
3DFACE
  8
0
  6
CONTINUOUS
 62
     7
 10
265.491304
 20
158.06
 30
0.0
 11
265.506984
 21
158.06
 31
0.0
 12
265.506984
 22
156.94
 32
0.0
 13
265.491304
 23
156.94
 33
0.0
  0
3DFACE
  8
0
  6
CONTINUOUS
 62
     7
 10
265.506984
 20
158.06
 30
0.0
 11
265.522664
 21
158.06
 31
0.0
 12
265.522664
 22
156.94
 32
0.0
 13
265.506984
 23
156.94
 33
0.0
  0
3DFACE
  8
0
  6
CONTINUOUS
 62
     7
 10
265.522664
 20
158.06
 30
0.0
 11
265.538344
 21
158.06
 31
0.0
 12
265.538344
 22
156.94
 32
0.0
 13
265.522664
 23
156.94
 33
0.0
  0
3DFACE
  8
0
  6
CONTINUOUS
 62
     7
 10
265.538344
 20
158.06
 30
0.0
 11
265.554024
 21
158.06
 31
0.0
 12
265.554024
 22
156.94
 32
0.0
 13
265.538344
 23
156.94
 33
0.0
  0
ENDSEC
  0
EOF
