  0
SECTION
  2
HEADER
  9
$ACADVER
  1
AC1009
  9
$DWGCODEPAGE
  3
iso8859-1
  9
$INSBASE
 10
0.0
 20
0.0
 30
0.0
  9
$EXTMIN
 10
1.0E20
 20
1.0E20
  9
$EXTMAX
 10
-1.0E20
 20
-1.0E20
  9
$LIMMIN
 10
0.0
 20
0.0
  9
$LIMMAX
 10
12.0
 20
9.0
  9
$ORTHOMODE
 70
     0
  9
$REGENMODE
 70
     1
  9
$FILLMODE
 70
     1
  9
$QTEXTMODE
 70
     0
  9
$MIRRTEXT
 70
     1
  9
$DRAGMODE
 70
     2
  9
$LTSCALE
 40
15.0
  9
$OSMODE
 70
     0
  9
$ATTMODE
 70
     1
  9
$TEXTSIZE
 40
0.2
  9
$TRACEWID
 40
0.05
  9
$TEXTSTYLE
  7
STANDARD
  9
$CLAYER
  8
0
  9
$CELTYPE
  6
DASHED
  9
$CECOLOR
 62
   256
  9
$DIMSCALE
 40
1.0
  9
$DIMASZ
 40
0.18
  9
$DIMEXO
 40
0.0625
  9
$DIMDLI
 40
0.38
  9
$DIMRND
 40
0.0
  9
$DIMDLE
 40
0.0
  9
$DIMEXE
 40
0.18
  9
$DIMTP
 40
0.0
  9
$DIMTM
 40
0.0
  9
$DIMTXT
 40
0.18
  9
$DIMCEN
 40
0.09
  9
$DIMTSZ
 40
0.0
  9
$DIMTOL
 70
     0
  9
$DIMLIM
 70
     0
  9
$DIMTIH
 70
     1
  9
$DIMTOH
 70
     1
  9
$DIMSE1
 70
     0
  9
$DIMSE2
 70
     0
  9
$DIMTAD
 70
     0
  9
$DIMZIN
 70
     0
  9
$DIMBLK
  1

  9
$DIMASO
 70
     1
  9
$DIMSHO
 70
     1
  9
$DIMPOST
  1

  9
$DIMAPOST
  1

  9
$DIMALT
 70
     0
  9
$DIMALTD
 70
     2
  9
$DIMALTF
 40
25.4
  9
$DIMLFAC
 40
1.0
  9
$DIMTOFL
 70
     0
  9
$DIMTVP
 40
0.0
  9
$DIMTIX
 70
     0
  9
$DIMSOXD
 70
     0
  9
$DIMSAH
 70
     0
  9
$DIMBLK1
  1

  9
$DIMBLK2
  1

  9
$DIMSTYLE
  2
STANDARD
  9
$DIMCLRD
 70
     0
  9
$DIMCLRE
 70
     0
  9
$DIMCLRT
 70
     0
  9
$DIMTFAC
 40
1.0
  9
$DIMGAP
 40
0.09
  9
$LUNITS
 70
     2
  9
$LUPREC
 70
     4
  9
$AXISMODE
 70
     0
  9
$AXISUNIT
 10
0.0
 20
0.0
  9
$SKETCHINC
 40
0.1
  9
$FILLETRAD
 40
0.0
  9
$AUNITS
 70
     0
  9
$AUPREC
 70
     0
  9
$MENU
  1
acad
  9
$ELEVATION
 40
0.0
  9
$PELEVATION
 40
0.0
  9
$THICKNESS
 40
0.0
  9
$LIMCHECK
 70
     0
  9
$BLIPMODE
 70
     1
  9
$CHAMFERA
 40
0.0
  9
$CHAMFERB
 40
0.0
  9
$SKPOLY
 70
     0
  9
$TDCREATE
 40
0.000000000
  9
$TDUPDATE
 40
0.000000000
  9
$TDINDWG
 40
0.0
  9
$TDUSRTIMER
 40
0.0
  9
$USRTIMER
 70
     1
  9
$ANGBASE
 50
0.0
  9
$ANGDIR
 70
     0
  9
$PDMODE
 70
     0
  9
$PDSIZE
 40
0.0
  9
$PLINEWID
 40
0.0
  9
$COORDS
 70
     1
  9
$SPLFRAME
 70
     0
  9
$SPLINETYPE
 70
     6
  9
$SPLINESEGS
 70
     8
  9
$ATTDIA
 70
     0
  9
$ATTREQ
 70
     1
  9
$HANDLING
 70
     1
  9
$HANDSEED
  5
   760
  9
$SURFTAB1
 70
     6
  9
$SURFTAB2
 70
     6
  9
$SURFTYPE
 70
     6
  9
$SURFU
 70
     6
  9
$SURFV
 70
     6
  9
$UCSNAME
  2

  9
$UCSORG
 10
0.0
 20
0.0
 30
0.0
  9
$UCSXDIR
 10
1.0
 20
0.0
 30
0.0
  9
$UCSYDIR
 10
0.0
 20
1.0
 30
0.0
  9
$PUCSNAME
  2

  9
$PUCSORG
 10
0.0
 20
0.0
 30
0.0
  9
$PUCSXDIR
 10
1.0
 20
0.0
 30
0.0
  9
$PUCSYDIR
 10
0.0
 20
1.0
 30
0.0
  9
$USERI1
 70
     0
  9
$USERI2
 70
     0
  9
$USERI3
 70
     0
  9
$USERI4
 70
     0
  9
$USERI5
 70
     0
  9
$USERR1
 40
0.0
  9
$USERR2
 40
0.0
  9
$USERR3
 40
0.0
  9
$USERR4
 40
0.0
  9
$USERR5
 40
0.0
  9
$WORLDVIEW
 70
     1
  9
$SHADEDGE
 70
     3
  9
$SHADEDIF
 70
    70
  9
$TILEMODE
 70
     1
  9
$MAXACTVP
 70
    16
  9
$PINSBASE
 10
0.0
 20
0.0
 30
0.0
  9
$PLIMCHECK
 70
     0
  9
$PEXTMIN
 10
1.0E20
 20
1.0E20
 30
1.0E20
  9
$PEXTMAX
 10
-1.0E20
 20
-1.0E20
 30
-1.0E20
  9
$PLIMMIN
 10
0.0
 20
0.0
  9
$PLIMMAX
 10
12.0
 20
9.0
  9
$UNITMODE
 70
     0
  9
$VISRETAIN
 70
     0
  0
ENDSEC
  0
SECTION
  2
TABLES
  0
TABLE
  2
VPORT
 70
     1
  0
VPORT
  2
*ACTIVE
 70
     0
 10
0.0
 20
0.0
 11
1.0
 21
1.0
 12
6.801242
 22
4.5
 13
0.0
 23
0.0
 14
1.0
 24
1.0
 15
0.0
 25
0.0
 16
0.0
 26
0.0
 36
1.0
 17
0.0
 27
0.0
 37
0.0
 40
9.0
 41
1.511387
 42
50.0
 43
0.0
 44
0.0
 50
0.0
 51
0.0
 71
     0
 72
   100
 73
     1
 74
     1
 75
     0
 76
     0
 77
     0
 78
     0
  0
ENDTAB
  0
TABLE
  2
LTYPE
 70
    41
  0
LTYPE
  2
BYBLOCK
 70
     0
  3

 72
    65
 73
     0
 40
0.0
  0
LTYPE
  2
BYLAYER
 70
     0
  3

 72
    65
 73
     0
 40
0.0
  0
LTYPE
  2
CONTINUOUS
 70
     0
  3
Solid line
 72
    65
 73
     0
 40
0.0
  0
LTYPE
  2
BORDER
 70
    64
  3
__ __ . __ __ . __ __ . __ __ . __ __ . __ __ .
 72
    65
 73
     6
 40
1.75
 49
0.5
 49
-0.25
 49
0.5
 49
-0.25
 49
0.0
 49
-0.25
  0
LTYPE
  2
BORDER2
 70
    64
  3
__.__.__.__.__.__.__.__.__.__.__.__.__.__.__.__
 72
    65
 73
     6
 40
0.875
 49
0.25
 49
-0.125
 49
0.25
 49
-0.125
 49
0.0
 49
-0.125
  0
LTYPE
  2
BORDERX2
 70
    64
  3
____  ____  .  ____  ____  .  ____  ____  .  __
 72
    65
 73
     6
 40
3.5
 49
1.0
 49
-0.5
 49
1.0
 49
-0.5
 49
0.0
 49
-0.5
  0
LTYPE
  2
CENTER
 70
    64
  3
____ _ ____ _ ____ _ ____ _ ____ _ ____ _ ____
 72
    65
 73
     4
 40
2.0
 49
1.25
 49
-0.25
 49
0.25
 49
-0.25
  0
LTYPE
  2
CENTER2
 70
    64
  3
___ _ ___ _ ___ _ ___ _ ___ _ ___ _ ___ _ ___ _
 72
    65
 73
     4
 40
1.125
 49
0.75
 49
-0.125
 49
0.125
 49
-0.125
  0
LTYPE
  2
CENTERX2
 70
    64
  3
________  __  ________  __  ________  __  _____
 72
    65
 73
     4
 40
4.0
 49
2.5
 49
-0.5
 49
0.5
 49
-0.5
  0
LTYPE
  2
DASHDOT
 70
    64
  3
__ . __ . __ . __ . __ . __ . __ . __ . __ . __
 72
    65
 73
     4
 40
1.0
 49
0.5
 49
-0.25
 49
0.0
 49
-0.25
  0
LTYPE
  2
DASHDOT2
 70
    64
  3
_._._._._._._._._._._._._._._._._._._._._._._._
 72
    65
 73
     4
 40
0.5
 49
0.25
 49
-0.125
 49
0.0
 49
-0.125
  0
LTYPE
  2
DASHDOTX2
 70
    64
  3
____  .  ____  .  ____  .  ____  .  ____  .  __
 72
    65
 73
     4
 40
2.0
 49
1.0
 49
-0.5
 49
0.0
 49
-0.5
  0
LTYPE
  2
DASHED
 70
    64
  3
__ __ __ __ __ __ __ __ __ __ __ __ __ __ __ __
 72
    65
 73
     2
 40
0.75
 49
0.5
 49
-0.25
  0
LTYPE
  2
DASHED2
 70
    64
  3
_ _ _ _ _ _ _ _ _ _ _ _ _ _ _ _ _ _ _ _ _ _ _ _
 72
    65
 73
     2
 40
0.375
 49
0.25
 49
-0.125
  0
LTYPE
  2
DASHEDX2
 70
    64
  3
____  ____  ____  ____  ____  ____  ____  ____
 72
    65
 73
     2
 40
1.5
 49
1.0
 49
-0.5
  0
LTYPE
  2
DIVIDE
 70
    64
  3
____ . . ____ . . ____ . . ____ . . ____ . . __
 72
    65
 73
     6
 40
1.25
 49
0.5
 49
-0.25
 49
0.0
 49
-0.25
 49
0.0
 49
-0.25
  0
LTYPE
  2
DIVIDE2
 70
    64
  3
__..__..__..__..__..__..__..__..__..__..__..__.
 72
    65
 73
     6
 40
0.625
 49
0.25
 49
-0.125
 49
0.0
 49
-0.125
 49
0.0
 49
-0.125
  0
LTYPE
  2
DIVIDEX2
 70
    64
  3
________  .  .  ________  .  .  ________  .  .
 72
    65
 73
     6
 40
2.5
 49
1.0
 49
-0.5
 49
0.0
 49
-0.5
 49
0.0
 49
-0.5
  0
LTYPE
  2
DOT
 70
    64
  3
. . . . . . . . . . . . . . . . . . . . . . . .
 72
    65
 73
     2
 40
0.25
 49
0.0
 49
-0.25
  0
LTYPE
  2
DOT2
 70
    64
  3
...............................................
 72
    65
 73
     2
 40
0.125
 49
0.0
 49
-0.125
  0
LTYPE
  2
DOTX2
 70
    64
  3
.  .  .  .  .  .  .  .  .  .  .  .  .  .  .  .
 72
    65
 73
     2
 40
0.5
 49
0.0
 49
-0.5
  0
LTYPE
  2
HIDDEN
 70
    64
  3
__ __ __ __ __ __ __ __ __ __ __ __ __ __ __ __
 72
    65
 73
     2
 40
0.375
 49
0.25
 49
-0.125
  0
LTYPE
  2
HIDDEN2
 70
    64
  3
_ _ _ _ _ _ _ _ _ _ _ _ _ _ _ _ _ _ _ _ _ _ _ _
 72
    65
 73
     2
 40
0.1875
 49
0.125
 49
-0.0625
  0
LTYPE
  2
HIDDENX2
 70
    64
  3
____ ____ ____ ____ ____ ____ ____ ____ ____ __
 72
    65
 73
     2
 40
0.75
 49
0.5
 49
-0.25
  0
LTYPE
  2
PHANTOM
 70
    64
  3
______  __  __  ______  __  __  ______  __  __
 72
    65
 73
     6
 40
2.5
 49
1.25
 49
-0.25
 49
0.25
 49
-0.25
 49
0.25
 49
-0.25
  0
LTYPE
  2
PHANTOM2
 70
    64
  3
___ _ _ ___ _ _ ___ _ _ ___ _ _ ___ _ _ ___ _ _
 72
    65
 73
     6
 40
1.25
 49
0.625
 49
-0.125
 49
0.125
 49
-0.125
 49
0.125
 49
-0.125
  0
LTYPE
  2
PHANTOMX2
 70
    64
  3
____________    ____    ____    ____________
 72
    65
 73
     6
 40
5.0
 49
2.5
 49
-0.5
 49
0.5
 49
-0.5
 49
0.5
 49
-0.5
  0
LTYPE
  2
ACAD_ISO02W100
 70
    64
  3
__ __ __ __ __ __ __ __ __ __ __ __ __ __ __ __
 72
    65
 73
     2
 40
15.0
 49
12.0
 49
-3.0
  0
LTYPE
  2
ACAD_ISO03W100
 70
    64
  3
__    __    __    __    __    __    __    __
 72
    65
 73
     2
 40
30.0
 49
12.0
 49
-18.0
  0
LTYPE
  2
ACAD_ISO04W100
 70
    64
  3
____ . ____ . ____ . ____ . ____ . ____ . ____
 72
    65
 73
     4
 40
30.5
 49
24.0
 49
-3.0
 49
0.5
 49
-3.0
  0
LTYPE
  2
ACAD_ISO05W100
 70
    64
  3
____ .. ____ .. ____ .. ____ .. ____ .. ____ ..
 72
    65
 73
     6
 40
34.0
 49
24.0
 49
-3.0
 49
0.5
 49
-3.0
 49
0.5
 49
-3.0
  0
LTYPE
  2
ACAD_ISO06W100
 70
    64
  3
____ ... ____ ... ____ ... ____ ... ____ ... __
 72
    65
 73
     8
 40
37.5
 49
24.0
 49
-3.0
 49
0.5
 49
-3.0
 49
0.5
 49
-3.0
 49
0.5
 49
-3.0
  0
LTYPE
  2
ACAD_ISO07W100
 70
    64
  3
. . . . . . . . . . . . . . . . . . . . . . . .
 72
    65
 73
     2
 40
3.5
 49
0.5
 49
-3.0
  0
LTYPE
  2
ACAD_ISO08W100
 70
    64
  3
____ __ ____ __ ____ __ ____ ____ __ __ ____ __
 72
    65
 73
     4
 40
36.0
 49
24.0
 49
-3.0
 49
6.0
 49
-3.0
  0
LTYPE
  2
ACAD_ISO09W100
 70
    64
  3
____ __ __ ____ __ __ ____ __ __ ____ __ __ ___
 72
    65
 73
     6
 40
45.0
 49
24.0
 49
-3.0
 49
6.0
 49
-3.0
 49
6.0
 49
-3.0
  0
LTYPE
  2
ACAD_ISO10W100
 70
    64
  3
__ . __ . __ . __ . __ . __ . __ . __ . __ . __
 72
    65
 73
     4
 40
18.5
 49
12.0
 49
-3.0
 49
0.5
 49
-3.0
  0
LTYPE
  2
ACAD_ISO11W100
 70
    64
  3
__ __ . __ __ . __ __ . __ __ . __ __ . __ __ .
 72
    65
 73
     6
 40
33.5
 49
12.0
 49
-3.0
 49
12.0
 49
-3.0
 49
0.5
 49
-3.0
  0
LTYPE
  2
ACAD_ISO12W100
 70
    64
  3
__ . . __ . . __ . . __ . . __ . . __ . . __ .
 72
    65
 73
     6
 40
22.0
 49
12.0
 49
-3.0
 49
0.5
 49
-3.0
 49
0.5
 49
-3.0
  0
LTYPE
  2
ACAD_ISO13W100
 70
    64
  3
__ __ . . __ __ . . __ __ . . __ __ . . __ __ .
 72
    65
 73
     8
 40
37.0
 49
12.0
 49
-3.0
 49
12.0
 49
-3.0
 49
0.5
 49
-3.0
 49
0.5
 49
-3.0
  0
LTYPE
  2
ACAD_ISO14W100
 70
    64
  3
__ . . . __ . . . __ . . . __ . . . __ . . . __
 72
    65
 73
     8
 40
25.5
 49
12.0
 49
-3.0
 49
0.5
 49
-3.0
 49
0.5
 49
-3.0
 49
0.5
 49
-3.0
  0
LTYPE
  2
ACAD_ISO15W100
 70
    64
  3
__ __ . . . __ __ . . . __ __ . . . __ __ . . .
 72
    65
 73
    10
 40
40.5
 49
12.0
 49
-3.0
 49
12.0
 49
-3.0
 49
0.5
 49
-3.0
 49
0.5
 49
-3.0
 49
0.5
 49
-3.0
  0
ENDTAB
  0
TABLE
  2
STYLE
 70
     4
  0
STYLE
  2
STANDARD
 70
    64
 40
0.0
 41
1.0
 50
0.0
 71
     0
 42
0.2
  3
txt
  4

  0
STYLE
  2
TOLERANCE
 70
    64
 40
0.0
 41
1.0
 50
0.0
 71
     0
 42
0.2
  3
../igesfont/iges1003.shx
  4

  0
STYLE
  2
ROMANS
 70
    64
 40
0.0
 41
1.0
 50
0.0
 71
     0
 42
0.2
  3
romans.shx
  4

  0
STYLE
  2
ROMANC
 70
    64
 40
0.0
 41
1.0
 50
0.0
 71
     0
 42
0.2
  3
romanc.shx
  4

  0
ENDTAB
  0
TABLE
  2
DIMSTYLE
 70
     2
  0
DIMSTYLE
  2
UNNAMED
 70
     0
  3

  4

  5

  6

  7

 40
1.0
 41
0.18
 42
0.0625
 43
0.38
 44
0.18
 45
0.0
 46
0.0
 47
0.0
 48
0.0
140
0.18
141
0.09
142
0.0
143
25.4
144
1.0
145
0.0
146
1.0
147
0.09
 71
     0
 72
     0
 73
     1
 74
     1
 75
     0
 76
     0
 77
     0
 78
     0
170
     0
171
     2
172
     0
173
     0
174
     0
175
     0
176
     0
177
     0
178
     0
  0
DIMSTYLE
  2
STANDARD
 70
     0
  3

  4

  5

  6

  7

 40
1.0
 41
0.18
 42
0.0625
 43
0.38
 44
0.18
 45
0.0
 46
0.0
 47
0.0
 48
0.0
140
0.18
141
0.09
142
0.0
143
25.4
144
1.0
145
0.0
146
1.0
147
0.09
 71
     0
 72
     0
 73
     1
 74
     1
 75
     0
 76
     0
 77
     0
 78
     0
170
     0
171
     2
172
     0
173
     0
174
     0
175
     0
176
     0
177
     0
178
     0
  0
ENDTAB
  0
TABLE
  2
LAYER
 70
     2
  0
LAYER
  2
0
 70
     0
 62
     7
  6
CONTINUOUS
  0
LAYER
  2
255
 70
     0
 62
     7
  6
CONTINUOUS
  0
ENDTAB
  0
ENDSEC
  0
SECTION
  2
BLOCKS
  0
BLOCK
  5
     B
  8
0
  6
CONTINUOUS
 62
     0
  2
SSS
 70
    64
 10
0.0
 20
0.0
 30
0.0
  3
SSS
  0
ARC
  5
     C
  8
0
  6
CONTINUOUS
 62
     0
 10
2.55000000000001
 20
2.55
 30
0.0
 40
2.0
 50
178.557523870135
 51
271.442476129865
  0
CIRCLE
  5
     D
  8
0
  6
CONTINUOUS
 62
     0
 10
0.0
 20
0.0
 30
0.0
 40
3.750066744417
  0
ARC
  5
     E
  8
0
  6
CONTINUOUS
 62
     0
 10
-2.54999999999998
 20
2.55
 30
0.0
 40
2.0
 50
268.557523870135
 51
361.442476129865
  0
ARC
  5
     F
  8
0
  6
CONTINUOUS
 62
     0
 10
1.4210854715202E-14
 20
0.0
 30
0.0
 40
2.6580067720004
 50
78.0440027883074
 51
101.955997211693
  0
ARC
  5
    10
  8
0
  6
CONTINUOUS
 62
     0
 10
1.4210854715202E-14
 20
7.105427357601E-15
 30
0.0
 40
2.6580067720004
 50
168.044002788308
 51
191.955997211693
  0
ARC
  5
    11
  8
0
  6
CONTINUOUS
 62
     0
 10
1.4210854715202E-14
 20
7.105427357601E-15
 30
0.0
 40
2.6580067720004
 50
348.044002788307
 51
371.955997211692
  0
ARC
  5
    12
  8
0
  6
CONTINUOUS
 62
     0
 10
2.55000000000001
 20
-2.55
 30
0.0
 40
2.0
 50
88.5575238701351
 51
181.442476129865
  0
ARC
  5
    13
  8
0
  6
CONTINUOUS
 62
     0
 10
-2.54999999999998
 20
-2.55
 30
0.0
 40
2.0
 50
358.557523870135
 51
451.442476129865
  0
ARC
  5
    14
  8
0
  6
CONTINUOUS
 62
     0
 10
1.4210854715202E-14
 20
7.105427357601E-15
 30
0.0
 40
2.6580067720004
 50
258.044002788307
 51
281.955997211693
  0
LINE
  5
    15
  8
0
  6
DASHDOT
 62
     0
 10
0.0
 20
-7.09703996472144
 30
0.0
 11
0.0
 21
6.57754269255699
 31
0.0
  0
LINE
  5
    16
  8
0
  6
DASHDOT
 62
     0
 10
-5.94194554671462
 20
0.0
 30
0.0
 11
6.4715804966361
 21
0.0
 31
0.0
  0
ENDBLK
  5
    17
  8
0
  6
CONTINUOUS
 62
     0
  0
BLOCK
  5
    18
  8
0
  6
CONTINUOUS
 62
     7
  2
*UDIM1250
 70
    65
 10
0.0
 20
0.0
 30
0.0
  3
*UDIM1250
  0
TEXT
  5
    19
  8
0
  6
CONTINUOUS
 62
     7
 10
59.5090896606466
 20
205.752078123103
 30
0.0
 40
3.5
  1
162
 41
0.933333333333333
 72
     1
 11
64.0590896606466
 21
207.502078123103
 31
0.0
 73
     2
  0
LINE
  5
    1A
  8
0
  6
CONTINUOUS
 62
     7
 10
-16.9408950805623
 20
164.462531569451
 30
0.0
 11
-16.9408950805623
 21
206.752078123103
 31
0.0
  0
LINE
  5
    1B
  8
0
  6
CONTINUOUS
 62
     7
 10
145.059074401855
 20
153.16255569458
 30
0.0
 11
145.059074401855
 21
206.752078123103
 31
0.0
  0
LINE
  5
    1C
  8
0
  6
CONTINUOUS
 62
     7
 10
-16.9408950805623
 20
204.752078123103
 30
0.0
 11
145.059074401855
 21
204.752078123103
 31
0.0
  0
LINE
  5
    1D
  8
0
  6
CONTINUOUS
 62
     3
 10
-14.0431176073518
 20
205.528535279521
 30
0.0
 11
-16.9408950805623
 21
204.752078123103
 31
0.0
  0
LINE
  5
    1E
  8
0
  6
CONTINUOUS
 62
     3
 10
-16.9408950805623
 20
204.752078123103
 30
0.0
 11
-14.0431176073518
 21
203.975620966684
 31
0.0
  0
LINE
  5
    1F
  8
0
  6
CONTINUOUS
 62
     3
 10
142.161296928645
 20
203.975620966684
 30
0.0
 11
145.059074401855
 21
204.752078123103
 31
0.0
  0
LINE
  5
    20
  8
0
  6
CONTINUOUS
 62
     3
 10
145.059074401855
 20
204.752078123103
 30
0.0
 11
142.161296928645
 21
205.528535279521
 31
0.0
  0
ENDBLK
  5
    21
  8
0
  6
CONTINUOUS
 62
     7
  0
BLOCK
  5
    22
  8
0
  6
CONTINUOUS
 62
     7
  2
*UDIM1251
 70
    65
 10
0.0
 20
0.0
 30
0.0
  3
*UDIM1251
  0
TEXT
  5
    23
  8
0
  6
CONTINUOUS
 62
     7
 10
187.66505290704
 20
102.135307502749
 30
0.0
 40
3.5
  1
124
 50
90.0
 41
0.933333333333333
 72
     1
 11
185.915052907035
 21
106.685307502747
 31
0.0
 73
     2
  0
LINE
  5
    24
  8
0
  6
CONTINUOUS
 62
     7
 10
144.759074401855
 20
46.4625549316406
 30
0.0
 11
190.665052907035
 21
46.4625549316406
 31
0.0
  0
LINE
  5
    25
  8
0
  6
CONTINUOUS
 62
     7
 10
144.759074401855
 20
170.462554931641
 30
0.0
 11
190.665052907035
 21
170.462554931641
 31
0.0
  0
LINE
  5
    26
  8
0
  6
CONTINUOUS
 62
     7
 10
188.665052907035
 20
46.4625549316406
 30
0.0
 11
188.665052907035
 21
170.462554931641
 31
0.0
  0
LINE
  5
    27
  8
0
  6
CONTINUOUS
 62
     3
 10
187.888595750616
 20
49.3603324048512
 30
0.0
 11
188.665052907035
 21
46.4625549316406
 31
0.0
  0
LINE
  5
    28
  8
0
  6
CONTINUOUS
 62
     3
 10
188.665052907035
 20
46.4625549316406
 30
0.0
 11
189.441510063453
 21
49.3603324048512
 31
0.0
  0
LINE
  5
    29
  8
0
  6
CONTINUOUS
 62
     3
 10
189.441510063453
 20
167.56477745843
 30
0.0
 11
188.665052907035
 21
170.462554931641
 31
0.0
  0
LINE
  5
    2A
  8
0
  6
CONTINUOUS
 62
     3
 10
188.665052907035
 20
170.462554931641
 30
0.0
 11
187.888595750616
 21
167.56477745843
 31
0.0
  0
ENDBLK
  5
    2B
  8
0
  6
CONTINUOUS
 62
     7
  0
BLOCK
  5
    2C
  8
0
  6
CONTINUOUS
 62
     7
  2
*UDIM1252
 70
    65
 10
0.0
 20
0.0
 30
0.0
  3
*UDIM1252
  0
TEXT
  5
    2D
  8
0
  6
CONTINUOUS
 62
     7
 10
19.1545945576707
 20
197.150177263182
 30
0.0
 40
3.5
  1
78
 41
0.933333333333333
 72
     1
 11
22.0712612243374
 21
198.900177263182
 31
0.0
 73
     2
  0
TEXT
  5
    2E
  8
0
  6
CONTINUOUS
 62
     7
 10
-0.445405442329278
 20
191.650177263182
 30
0.0
 40
3.5
  1
=            =
 41
0.933333333333333
 72
     1
 11
22.0712612243374
 21
193.400177263182
 31
0.0
 73
     2
  0
LINE
  5
    2F
  8
0
  6
CONTINUOUS
 62
     7
 10
-16.9408950805623
 20
164.462531569451
 30
0.0
 11
-16.9408950805623
 21
198.150177263182
 31
0.0
  0
LINE
  5
    30
  8
0
  6
CONTINUOUS
 62
     7
 10
61.0590438842742
 20
171.462554931641
 30
0.0
 11
61.0590438842742
 21
198.150177263182
 31
0.0
  0
LINE
  5
    31
  8
0
  6
CONTINUOUS
 62
     7
 10
-16.9408950805623
 20
196.150177263182
 30
0.0
 11
61.0590438842742
 21
196.150177263182
 31
0.0
  0
LINE
  5
    32
  8
0
  6
CONTINUOUS
 62
     3
 10
-14.0431176073518
 20
196.926634419601
 30
0.0
 11
-16.9408950805623
 21
196.150177263182
 31
0.0
  0
LINE
  5
    33
  8
0
  6
CONTINUOUS
 62
     3
 10
-16.9408950805623
 20
196.150177263182
 30
0.0
 11
-14.0431176073518
 21
195.373720106764
 31
0.0
  0
LINE
  5
    34
  8
0
  6
CONTINUOUS
 62
     3
 10
58.1612664110637
 20
195.373720106764
 30
0.0
 11
61.0590438842742
 21
196.150177263182
 31
0.0
  0
LINE
  5
    35
  8
0
  6
CONTINUOUS
 62
     3
 10
61.0590438842742
 20
196.150177263182
 30
0.0
 11
58.1612664110637
 21
196.926634419601
 31
0.0
  0
ENDBLK
  5
    36
  8
0
  6
CONTINUOUS
 62
     7
  0
BLOCK
  5
    37
  8
0
  6
CONTINUOUS
 62
     7
  2
*UDIM1253
 70
    65
 10
0.0
 20
0.0
 30
0.0
  3
*UDIM1253
  0
TEXT
  5
    38
  8
0
  6
CONTINUOUS
 62
     7
 10
165.888086673971
 20
93.3156970342022
 30
0.0
 40
3.5
  1
45
 50
90.0
 41
0.933333333333333
 72
     1
 11
164.138086673967
 21
96.2323637008667
 31
0.0
 73
     2
  0
TEXT
  5
    39
  8
0
  6
CONTINUOUS
 62
     7
 10
171.388086673988
 20
80.2490303675356
 30
0.0
 40
3.5
  1
=        =
 50
90.0
 41
0.933333333333333
 72
     1
 11
169.638086673967
 21
96.2323637008667
 31
0.0
 73
     2
  0
LINE
  5
    3A
  8
0
  6
CONTINUOUS
 62
     7
 10
146.059074401855
 20
73.9625549316406
 30
0.0
 11
168.888086673967
 21
73.9625549316406
 31
0.0
  0
LINE
  5
    3B
  8
0
  6
CONTINUOUS
 62
     7
 10
146.059074401855
 20
118.962554931641
 30
0.0
 11
168.888086673967
 21
118.962554931641
 31
0.0
  0
LINE
  5
    3C
  8
0
  6
CONTINUOUS
 62
     7
 10
166.888086673968
 20
73.9625549316406
 30
0.0
 11
166.888086673968
 21
118.962554931641
 31
0.0
  0
LINE
  5
    3D
  8
0
  6
CONTINUOUS
 62
     3
 10
166.111629517549
 20
76.8603324048512
 30
0.0
 11
166.888086673968
 21
73.9625549316406
 31
0.0
  0
LINE
  5
    3E
  8
0
  6
CONTINUOUS
 62
     3
 10
166.888086673968
 20
73.9625549316406
 30
0.0
 11
167.664543830386
 21
76.8603324048512
 31
0.0
  0
LINE
  5
    3F
  8
0
  6
CONTINUOUS
 62
     3
 10
167.664543830386
 20
116.06477745843
 30
0.0
 11
166.888086673968
 21
118.962554931641
 31
0.0
  0
LINE
  5
    40
  8
0
  6
CONTINUOUS
 62
     3
 10
166.888086673968
 20
118.962554931641
 30
0.0
 11
166.111629517549
 21
116.06477745843
 31
0.0
  0
ENDBLK
  5
    41
  8
0
  6
CONTINUOUS
 62
     7
  0
BLOCK
  5
    42
  8
0
  6
CONTINUOUS
 62
     7
  2
*UDIM1254
 70
    65
 10
0.0
 20
0.0
 30
0.0
  3
*UDIM1254
  0
TEXT
  5
    43
  8
0
  6
CONTINUOUS
 62
     7
 10
177.538763608662
 20
68.489955523364
 30
0.0
 40
3.5
  1
50
 50
90.0
 41
0.933333333333333
 72
     1
 11
175.788763608658
 21
71.4066221900284
 31
0.0
 73
     2
  0
LINE
  5
    44
  8
0
  6
CONTINUOUS
 62
     7
 10
144.759074401855
 20
46.4625549316406
 30
0.0
 11
180.538763608658
 21
46.4625549316406
 31
0.0
  0
LINE
  5
    45
  8
0
  6
CONTINUOUS
 62
     7
 10
154.2774827783
 20
96.4625549316406
 30
0.0
 11
180.538763608658
 21
96.4625549316406
 31
0.0
  0
LINE
  5
    46
  8
0
  6
CONTINUOUS
 62
     7
 10
178.538763608658
 20
46.4625549316406
 30
0.0
 11
178.538763608658
 21
96.4625549316406
 31
0.0
  0
LINE
  5
    47
  8
0
  6
CONTINUOUS
 62
     3
 10
177.76230645224
 20
49.3603324048512
 30
0.0
 11
178.538763608658
 21
46.4625549316406
 31
0.0
  0
LINE
  5
    48
  8
0
  6
CONTINUOUS
 62
     3
 10
178.538763608658
 20
46.4625549316406
 30
0.0
 11
179.315220765077
 21
49.3603324048512
 31
0.0
  0
LINE
  5
    49
  8
0
  6
CONTINUOUS
 62
     3
 10
179.315220765077
 20
93.5647774584301
 30
0.0
 11
178.538763608658
 21
96.4625549316406
 31
0.0
  0
LINE
  5
    4A
  8
0
  6
CONTINUOUS
 62
     3
 10
178.538763608658
 20
96.4625549316406
 30
0.0
 11
177.76230645224
 21
93.5647774584301
 31
0.0
  0
ENDBLK
  5
    4B
  8
0
  6
CONTINUOUS
 62
     7
  0
BLOCK
  5
    4C
  8
0
  6
CONTINUOUS
 62
     7
  2
*UDIM1255
 70
    65
 10
0.0
 20
0.0
 30
0.0
  3
*UDIM1255
  0
TEXT
  5
    4D
  8
0
  6
CONTINUOUS
 62
     7
 10
-61.7545482531765
 20
105.449861717229
 30
0.0
 40
3.5
  1
120
 50
90.0
 41
0.933333333333333
 72
     1
 11
-63.5045482531822
 21
109.999861717227
 31
0.0
 73
     2
  0
LINE
  5
    4E
  8
0
  6
CONTINUOUS
 62
     7
 10
-39.4409368133502
 20
48.4625396728534
 30
0.0
 11
-62.7545482531822
 21
48.4625396728534
 31
0.0
  0
LINE
  5
    4F
  8
0
  6
CONTINUOUS
 62
     7
 10
-39.4409368133502
 20
168.462524414066
 30
0.0
 11
-62.7545482531822
 21
168.462524414066
 31
0.0
  0
LINE
  5
    50
  8
0
  6
CONTINUOUS
 62
     7
 10
-60.7545482531822
 20
48.4625396728534
 30
0.0
 11
-60.7545482531822
 21
168.462524414066
 31
0.0
  0
LINE
  5
    51
  8
0
  6
CONTINUOUS
 62
     3
 10
-61.5310054096007
 20
51.3603171460639
 30
0.0
 11
-60.7545482531822
 21
48.4625396728534
 31
0.0
  0
LINE
  5
    52
  8
0
  6
CONTINUOUS
 62
     3
 10
-60.7545482531822
 20
48.4625396728534
 30
0.0
 11
-59.9780910967636
 21
51.3603171460639
 31
0.0
  0
LINE
  5
    53
  8
0
  6
CONTINUOUS
 62
     3
 10
-59.9780910967636
 20
165.564746940855
 30
0.0
 11
-60.7545482531822
 21
168.462524414066
 31
0.0
  0
LINE
  5
    54
  8
0
  6
CONTINUOUS
 62
     3
 10
-60.7545482531822
 20
168.462524414066
 30
0.0
 11
-61.5310054096007
 21
165.564746940855
 31
0.0
  0
ENDBLK
  5
    55
  8
0
  6
CONTINUOUS
 62
     7
  0
BLOCK
  5
    56
  8
0
  6
CONTINUOUS
 62
     7
  2
*UDIM1256
 70
    65
 10
0.0
 20
0.0
 30
0.0
  3
*UDIM1256
  0
TEXT
  5
    57
  8
0
  6
CONTINUOUS
 62
     7
 10
-51.9549134482982
 20
69.0823889275423
 30
0.0
 40
3.5
  1
48
 50
90.0
 41
0.933333333333333
 72
     1
 11
-53.7049134483019
 21
71.9990555942068
 31
0.0
 73
     2
  0
LINE
  5
    58
  8
0
  6
CONTINUOUS
 62
     7
 10
-39.4409368133502
 20
48.4625396728534
 30
0.0
 11
-52.9549134483019
 21
48.4625396728534
 31
0.0
  0
LINE
  5
    59
  8
0
  6
CONTINUOUS
 62
     7
 10
-49.5594471626645
 20
96.4625549316406
 30
0.0
 11
-52.9549134483019
 21
96.4625549316406
 31
0.0
  0
LINE
  5
    5A
  8
0
  6
CONTINUOUS
 62
     7
 10
-50.9549134483019
 20
48.4625396728534
 30
0.0
 11
-50.9549134483019
 21
96.4625549316406
 31
0.0
  0
LINE
  5
    5B
  8
0
  6
CONTINUOUS
 62
     3
 10
-51.7313706047205
 20
51.3603171460639
 30
0.0
 11
-50.9549134483019
 21
48.4625396728534
 31
0.0
  0
LINE
  5
    5C
  8
0
  6
CONTINUOUS
 62
     3
 10
-50.9549134483019
 20
48.4625396728534
 30
0.0
 11
-50.1784562918834
 21
51.3603171460639
 31
0.0
  0
LINE
  5
    5D
  8
0
  6
CONTINUOUS
 62
     3
 10
-50.1784562918834
 20
93.5647774584301
 30
0.0
 11
-50.9549134483019
 21
96.4625549316406
 31
0.0
  0
LINE
  5
    5E
  8
0
  6
CONTINUOUS
 62
     3
 10
-50.9549134483019
 20
96.4625549316406
 30
0.0
 11
-51.7313706047205
 21
93.5647774584301
 31
0.0
  0
ENDBLK
  5
    5F
  8
0
  6
CONTINUOUS
 62
     7
  0
BLOCK
  5
    60
  8
0
  6
CONTINUOUS
 62
     7
  2
*UDIM1257
 70
    65
 10
0.0
 20
0.0
 30
0.0
  3
*UDIM1257
  0
TEXT
  5
    61
  8
0
  6
CONTINUOUS
 62
     7
 10
-12.2775745821696
 20
36.4137523339422
 30
0.0
 40
3.5
  1
64
 41
0.933333333333333
 72
     1
 11
-9.36090791550293
 21
38.1637523339422
 31
0.0
 73
     2
  0
LINE
  5
    62
  8
0
  6
CONTINUOUS
 62
     7
 10
-41.9408950805608
 20
52.4625430135429
 30
0.0
 11
-41.9408950805608
 21
33.4137523339422
 31
0.0
  0
LINE
  5
    63
  8
0
  6
CONTINUOUS
 62
     7
 10
22.0591041976751
 20
41.7055234698581
 30
0.0
 11
22.0591041976751
 21
33.4137523339422
 31
0.0
  0
LINE
  5
    64
  8
0
  6
CONTINUOUS
 62
     7
 10
-41.9408950805608
 20
35.4137523339422
 30
0.0
 11
22.0591041976751
 21
35.4137523339422
 31
0.0
  0
LINE
  5
    65
  8
0
  6
CONTINUOUS
 62
     3
 10
-39.0431176073503
 20
36.1902094903607
 30
0.0
 11
-41.9408950805608
 21
35.4137523339422
 31
0.0
  0
LINE
  5
    66
  8
0
  6
CONTINUOUS
 62
     3
 10
-41.9408950805608
 20
35.4137523339422
 30
0.0
 11
-39.0431176073503
 21
34.6372951775236
 31
0.0
  0
LINE
  5
    67
  8
0
  6
CONTINUOUS
 62
     3
 10
19.1613267244645
 20
34.6372951775236
 30
0.0
 11
22.0591041976751
 21
35.4137523339422
 31
0.0
  0
LINE
  5
    68
  8
0
  6
CONTINUOUS
 62
     3
 10
22.0591041976751
 20
35.4137523339422
 30
0.0
 11
19.1613267244645
 21
36.1902094903607
 31
0.0
  0
ENDBLK
  5
    69
  8
0
  6
CONTINUOUS
 62
     7
  0
BLOCK
  5
    6A
  8
0
  6
CONTINUOUS
 62
     7
  2
*UDIM1258
 70
    65
 10
0.0
 20
0.0
 30
0.0
  3
*UDIM1258
  0
TEXT
  5
    6B
  8
0
  6
CONTINUOUS
 62
     7
 10
48.371215534213
 20
28.5740444900379
 30
0.0
 40
3.5
  1
187
 41
0.933333333333333
 72
     1
 11
52.921215534213
 21
30.324044490038
 31
0.0
 73
     2
  0
LINE
  5
    6C
  8
0
  6
CONTINUOUS
 62
     7
 10
-41.9408950805608
 20
52.4625430135429
 30
0.0
 11
-41.9408950805608
 21
25.574044490038
 31
0.0
  0
LINE
  5
    6D
  8
0
  6
CONTINUOUS
 62
     7
 10
145.059074401855
 20
72.9625549316406
 30
0.0
 11
145.059074401855
 21
25.574044490038
 31
0.0
  0
LINE
  5
    6E
  8
0
  6
CONTINUOUS
 62
     7
 10
-41.9408950805608
 20
27.574044490038
 30
0.0
 11
145.059074401855
 21
27.574044490038
 31
0.0
  0
LINE
  5
    6F
  8
0
  6
CONTINUOUS
 62
     3
 10
-39.0431176073503
 20
28.3505016464565
 30
0.0
 11
-41.9408950805608
 21
27.574044490038
 31
0.0
  0
LINE
  5
    70
  8
0
  6
CONTINUOUS
 62
     3
 10
-41.9408950805608
 20
27.574044490038
 30
0.0
 11
-39.0431176073503
 21
26.7975873336194
 31
0.0
  0
LINE
  5
    71
  8
0
  6
CONTINUOUS
 62
     3
 10
142.161296928645
 20
26.7975873336194
 30
0.0
 11
145.059074401855
 21
27.574044490038
 31
0.0
  0
LINE
  5
    72
  8
0
  6
CONTINUOUS
 62
     3
 10
145.059074401855
 20
27.574044490038
 30
0.0
 11
142.161296928645
 21
28.3505016464565
 31
0.0
  0
ENDBLK
  5
    73
  8
0
  6
CONTINUOUS
 62
     7
  0
BLOCK
  5
    74
  8
0
  6
CONTINUOUS
 62
     7
  2
*UDIM1259
 70
    65
 10
0.0
 20
0.0
 30
0.0
  3
*UDIM1259
  0
TEXT
  5
    75
  8
0
  6
CONTINUOUS
 62
     7
 10
-61.65235140604
 20
172.654157344505
 30
0.0
 40
3.5
  1
24.5
 50
90.0
 41
0.933333333333333
 72
     1
 11
-63.4023514060478
 21
178.837490677836
 31
0.0
 73
     2
  0
LINE
  5
    76
  8
0
  6
CONTINUOUS
 62
     7
 10
-14.4409368133502
 20
168.462528228763
 30
0.0
 11
-62.6523514060478
 21
168.462528228763
 31
0.0
  0
LINE
  5
    77
  8
0
  6
CONTINUOUS
 62
     7
 10
7.80911054255836
 20
192.962528228762
 30
0.0
 11
-62.6523514060478
 21
192.962528228762
 31
0.0
  0
LINE
  5
    78
  8
0
  6
CONTINUOUS
 62
     7
 10
-60.6523514060478
 20
168.462528228763
 30
0.0
 11
-60.6523514060478
 21
192.962528228762
 31
0.0
  0
LINE
  5
    79
  8
0
  6
CONTINUOUS
 62
     3
 10
-61.4288085624663
 20
171.360305701973
 30
0.0
 11
-60.6523514060478
 21
168.462528228763
 31
0.0
  0
LINE
  5
    7A
  8
0
  6
CONTINUOUS
 62
     3
 10
-60.6523514060478
 20
168.462528228763
 30
0.0
 11
-59.8758942496293
 21
171.360305701973
 31
0.0
  0
LINE
  5
    7B
  8
0
  6
CONTINUOUS
 62
     3
 10
-59.8758942496293
 20
190.064750755551
 30
0.0
 11
-60.6523514060478
 21
192.962528228762
 31
0.0
  0
LINE
  5
    7C
  8
0
  6
CONTINUOUS
 62
     3
 10
-60.6523514060478
 20
192.962528228762
 30
0.0
 11
-61.4288085624663
 21
190.064750755551
 31
0.0
  0
ENDBLK
  5
    7D
  8
0
  6
CONTINUOUS
 62
     7
  0
BLOCK
  5
    7E
  8
0
  6
CONTINUOUS
 62
     3
  2
*HATCH824
 70
    65
 10
0.0
 20
0.0
 30
0.0
  3
*HATCH824
  0
LINE
  5
    7F
  8
0
  6
CONTINUOUS
 62
     7
 10
-2.59645748138428
 20
-31.3446865081787
 30
0.0
 11
-2.24040460586548
 21
-31.7007389068604
 31
0.0
  0
ENDBLK
  5
    80
  8
0
  6
CONTINUOUS
 62
     3
  0
BLOCK
  5
    81
  8
0
  6
CONTINUOUS
 62
     7
  2
*HATCH825
 70
    65
 10
0.0
 20
0.0
 30
0.0
  3
*HATCH825
  0
LINE
  5
    82
  8
0
  6
CONTINUOUS
 62
     7
 10
-2.40004777908325
 20
-2.40004777908325
 30
0.0
 11
-2.50002670288086
 21
-2.50002646446228
 31
0.0
  0
ENDBLK
  5
    83
  8
0
  6
CONTINUOUS
 62
     7
  0
BLOCK
  5
    84
  8
0
  6
CONTINUOUS
 62
     7
  2
*HATCH826
 70
    65
 10
0.0
 20
0.0
 30
0.0
  3
*HATCH826
  0
LINE
  5
    85
  8
0
  6
CONTINUOUS
 62
     7
 10
-3.52946472167969
 20
-20.5000267028809
 30
0.0
 11
-3.6000018119812
 21
-20.5705642700195
 31
0.0
  0
LINE
  5
    86
  8
0
  6
CONTINUOUS
 62
     7
 10
-2.40004777908325
 20
-23.6132507324219
 30
0.0
 11
-3.6000018119812
 21
-24.8132038116455
 31
0.0
  0
LINE
  5
    87
  8
0
  6
CONTINUOUS
 62
     7
 10
-2.40004777908325
 20
-27.8558921813965
 30
0.0
 11
-3.6000018119812
 21
-29.0558433532715
 31
0.0
  0
LINE
  5
    88
  8
0
  6
CONTINUOUS
 62
     7
 10
-2.40004777908325
 20
-32.0985336303711
 30
0.0
 11
-3.6000018119812
 21
-33.2984848022461
 31
0.0
  0
ENDBLK
  5
    89
  8
0
  6
CONTINUOUS
 62
     7
  0
BLOCK
  5
    8A
  8
0
  6
CONTINUOUS
 62
     7
  2
*HATCH827
 70
    65
 10
0.0
 20
0.0
 30
0.0
  3
*HATCH827
  0
LINE
  5
    8B
  8
0
  6
CONTINUOUS
 62
     7
 10
-2.40004777908325
 20
-44.8264541625977
 30
0.0
 11
-3.6877498626709
 21
-46.1141548156738
 31
0.0
  0
ENDBLK
  5
    8C
  8
0
  6
CONTINUOUS
 62
     7
  0
BLOCK
  5
    8D
  8
0
  6
CONTINUOUS
 62
     7
  2
*HATCH828
 70
    65
 10
0.0
 20
0.0
 30
0.0
  3
*HATCH828
  0
LINE
  5
    8E
  8
0
  6
CONTINUOUS
 62
     7
 10
-2.40001606941223
 20
-53.3117027282715
 30
0.0
 11
-3.6000018119812
 21
-54.5116882324219
 31
0.0
  0
ENDBLK
  5
    8F
  8
0
  6
CONTINUOUS
 62
     7
  0
BLOCK
  5
    90
  8
0
  6
CONTINUOUS
 62
     3
  2
*HATCH829
 70
    65
 10
0.0
 20
0.0
 30
0.0
  3
*HATCH829
  0
LINE
  5
    91
  8
0
  6
CONTINUOUS
 62
     7
 10
-2.59645748138428
 20
-31.3446865081787
 30
0.0
 11
-2.24040460586548
 21
-31.7007389068604
 31
0.0
  0
ENDBLK
  5
    92
  8
0
  6
CONTINUOUS
 62
     3
  0
BLOCK
  5
    93
  8
0
  6
CONTINUOUS
 62
     3
  2
*HATCH830
 70
    65
 10
0.0
 20
0.0
 30
0.0
  3
*HATCH830
  0
LINE
  5
    94
  8
0
  6
CONTINUOUS
 62
     7
 10
-2.59601783752441
 20
-44.073055267334
 30
0.0
 11
-2.17350578308105
 21
-44.4955673217773
 31
0.0
  0
ENDBLK
  5
    95
  8
0
  6
CONTINUOUS
 62
     3
  0
BLOCK
  5
    96
  8
0
  6
CONTINUOUS
 62
     3
  2
*HATCH831
 70
    65
 10
0.0
 20
0.0
 30
0.0
  3
*HATCH831
  0
LINE
  5
    97
  8
0
  6
CONTINUOUS
 62
   210
 10
-0.793899476528168
 20
-43.7538528442383
 30
0.0
 11
-0.392414540052414
 21
-44.1553382873535
 31
0.0
  0
ENDBLK
  5
    98
  8
0
  6
CONTINUOUS
 62
     3
  0
BLOCK
  5
    99
  8
0
  6
CONTINUOUS
 62
     3
  2
*HATCH832
 70
    65
 10
0.0
 20
0.0
 30
0.0
  3
*HATCH832
  0
LINE
  5
    9A
  8
0
  6
CONTINUOUS
 62
   210
 10
-1.09645795822144
 20
-39.2086524963379
 30
0.0
 11
-0.654154121875763
 21
-39.6509552001953
 31
0.0
  0
ENDBLK
  5
    9B
  8
0
  6
CONTINUOUS
 62
     3
  0
BLOCK
  5
    9C
  8
0
  6
CONTINUOUS
 62
     3
  2
*HATCH833
 70
    65
 10
0.0
 20
0.0
 30
0.0
  3
*HATCH833
  0
LINE
  5
    9D
  8
0
  6
CONTINUOUS
 62
   210
 10
-0.830833554267883
 20
-37.352954864502
 30
0.0
 11
-0.403591841459274
 21
-37.7801971435547
 31
0.0
  0
ENDBLK
  5
    9E
  8
0
  6
CONTINUOUS
 62
     3
  0
BLOCK
  5
    9F
  8
0
  6
CONTINUOUS
 62
     3
  2
*HATCH834
 70
    65
 10
0.0
 20
0.0
 30
0.0
  3
*HATCH834
  0
LINE
  5
    A0
  8
0
  6
CONTINUOUS
 62
   210
 10
-1.09645795822144
 20
-32.8446884155273
 30
0.0
 11
-0.677002429962158
 21
-33.2641448974609
 31
0.0
  0
ENDBLK
  5
    A1
  8
0
  6
CONTINUOUS
 62
     3
  0
BLOCK
  5
    A2
  8
0
  6
CONTINUOUS
 62
     3
  2
*HATCH835
 70
    65
 10
0.0
 20
0.0
 30
0.0
  3
*HATCH835
  0
LINE
  5
    A3
  8
0
  6
CONTINUOUS
 62
   210
 10
-0.853675007820129
 20
-30.9661483764648
 30
0.0
 11
-0.403591841459274
 21
-31.4162330627441
 31
0.0
  0
ENDBLK
  5
    A4
  8
0
  6
CONTINUOUS
 62
     3
  0
BLOCK
  5
    A5
  8
0
  6
CONTINUOUS
 62
     3
  2
*HATCH836
 70
    65
 10
0.0
 20
0.0
 30
0.0
  3
*HATCH836
  0
LINE
  5
    A6
  8
0
  6
CONTINUOUS
 62
   210
 10
-4.94111394882202
 20
-29.0000267028809
 30
0.0
 11
-4.88759756088257
 21
-29.0535430908203
 31
0.0
  0
ENDBLK
  5
    A7
  8
0
  6
CONTINUOUS
 62
     3
  0
BLOCK
  5
    A8
  8
0
  6
CONTINUOUS
 62
     3
  2
*HATCH837
 70
    65
 10
0.0
 20
0.0
 30
0.0
  3
*HATCH837
  0
LINE
  5
    A9
  8
0
  6
CONTINUOUS
 62
   210
 10
-5.59645795822144
 20
-30.4660034179688
 30
0.0
 11
-5.1905083656311
 21
-30.8719539642334
 31
0.0
  0
ENDBLK
  5
    AA
  8
0
  6
CONTINUOUS
 62
     3
  0
BLOCK
  5
    AB
  8
0
  6
CONTINUOUS
 62
     3
  2
*HATCH838
 70
    65
 10
0.0
 20
0.0
 30
0.0
  3
*HATCH838
  0
LINE
  5
    AC
  8
0
  6
CONTINUOUS
 62
   210
 10
-5.3443431854248
 20
-34.9607620239258
 30
0.0
 11
-4.90359163284302
 21
-35.4015121459961
 31
0.0
  0
ENDBLK
  5
    AD
  8
0
  6
CONTINUOUS
 62
     3
  0
BLOCK
  5
    AE
  8
0
  6
CONTINUOUS
 62
     3
  2
*HATCH839
 70
    65
 10
0.0
 20
0.0
 30
0.0
  3
*HATCH839
  0
LINE
  5
    AF
  8
0
  6
CONTINUOUS
 62
   210
 10
-5.59645795822144
 20
-36.8299674987793
 30
0.0
 11
-5.16767072677612
 21
-37.2587547302246
 31
0.0
  0
ENDBLK
  5
    B0
  8
0
  6
CONTINUOUS
 62
     3
  0
BLOCK
  5
    B1
  8
0
  6
CONTINUOUS
 62
     3
  2
*HATCH840
 70
    65
 10
0.0
 20
0.0
 30
0.0
  3
*HATCH840
  0
LINE
  5
    B2
  8
0
  6
CONTINUOUS
 62
   210
 10
-5.32150220870972
 20
-41.3475685119629
 30
0.0
 11
-4.90359163284302
 21
-41.7654800415039
 31
0.0
  0
ENDBLK
  5
    B3
  8
0
  6
CONTINUOUS
 62
     3
  0
BLOCK
  5
    B4
  8
0
  6
CONTINUOUS
 62
     3
  2
*HATCH841
 70
    65
 10
0.0
 20
0.0
 30
0.0
  3
*HATCH841
  0
LINE
  5
    B5
  8
0
  6
CONTINUOUS
 62
   210
 10
-5.59645795822144
 20
-43.1939315795898
 30
0.0
 11
-5.14482545852661
 21
-43.645565032959
 31
0.0
  0
ENDBLK
  5
    B6
  8
0
  6
CONTINUOUS
 62
     3
  0
BLOCK
  5
    B7
  8
0
  6
CONTINUOUS
 62
     7
  2
*HATCH842
 70
    65
 10
0.0
 20
0.0
 30
0.0
  3
*HATCH842
  0
LINE
  5
    B8
  8
0
  6
CONTINUOUS
 62
     7
 10
-1.96218597888947
 20
-27.7363147735596
 30
0.0
 11
-1.04660403728485
 21
-28.6518974304199
 31
0.0
  0
LINE
  5
    B9
  8
0
  6
CONTINUOUS
 62
     7
 10
-1.2000321149826
 20
-24.2558269500732
 30
0.0
 11
-1.71661376953125E-5
 21
-25.4558429718018
 31
0.0
  0
LINE
  5
    BA
  8
0
  6
CONTINUOUS
 62
     7
 10
-1.2000321149826
 20
-20.01318359375
 30
0.0
 11
-1.71661376953125E-5
 21
-21.2131996154785
 31
0.0
  0
LINE
  5
    BB
  8
0
  6
CONTINUOUS
 62
     7
 10
-0.470546126365662
 20
-16.5000267028809
 30
0.0
 11
-1.71661376953125E-5
 21
-16.9705562591553
 31
0.0
  0
ENDBLK
  5
    BC
  8
0
  6
CONTINUOUS
 62
     7
  0
BLOCK
  5
    BD
  8
0
  6
CONTINUOUS
 62
     7
  2
*HATCH843
 70
    65
 10
0.0
 20
0.0
 30
0.0
  3
*HATCH843
  0
LINE
  5
    BE
  8
0
  6
CONTINUOUS
 62
     7
 10
-6.14109420776367
 20
-27.8000450134277
 30
0.0
 11
-4.94111394882202
 21
-29.0000267028809
 31
0.0
  0
ENDBLK
  5
    BF
  8
0
  6
CONTINUOUS
 62
     7
  0
BLOCK
  5
    C0
  8
0
  6
CONTINUOUS
 62
     7
  2
*HATCH844
 70
    65
 10
0.0
 20
0.0
 30
0.0
  3
*HATCH844
  0
LINE
  5
    C1
  8
0
  6
CONTINUOUS
 62
     7
 10
-6.1543288230896
 20
-49.0000267028809
 30
0.0
 11
-4.95433330535889
 21
-50.200023651123
 31
0.0
  0
ENDBLK
  5
    C2
  8
0
  6
CONTINUOUS
 62
     7
  0
BLOCK
  5
    C3
  8
0
  6
CONTINUOUS
 62
     7
  2
*HATCH845
 70
    65
 10
0.0
 20
0.0
 30
0.0
  3
*HATCH845
  0
LINE
  5
    C4
  8
0
  6
CONTINUOUS
 62
     7
 10
-1.20003223419189
 20
-70.9249038696289
 30
0.0
 11
-3.84867265820503E-2
 21
-72.0864486694336
 31
0.0
  0
LINE
  5
    C5
  8
0
  6
CONTINUOUS
 62
     7
 10
-1.20003223419189
 20
-66.682258605957
 30
0.0
 11
-2.93496814265382E-5
 21
-67.8822631835938
 31
0.0
  0
LINE
  5
    C6
  8
0
  6
CONTINUOUS
 62
     7
 10
-1.20003223419189
 20
-62.4396133422852
 30
0.0
 11
-2.62511530308984E-5
 21
-63.6396217346191
 31
0.0
  0
LINE
  5
    C7
  8
0
  6
CONTINUOUS
 62
     7
 10
-1.20003223419189
 20
-58.1969680786133
 30
0.0
 11
-2.31526246352587E-5
 21
-59.3969802856445
 31
0.0
  0
LINE
  5
    C8
  8
0
  6
CONTINUOUS
 62
     7
 10
-1.20003223419189
 20
-53.9543228149414
 30
0.0
 11
-2.0054096239619E-5
 21
-55.1543388366699
 31
0.0
  0
LINE
  5
    C9
  8
0
  6
CONTINUOUS
 62
     7
 10
-1.80615484714508
 20
-49.1055641174316
 30
0.0
 11
-0.105551064014435
 21
-50.8061676025391
 31
0.0
  0
ENDBLK
  5
    CA
  8
0
  6
CONTINUOUS
 62
     7
  0
BLOCK
  5
    CB
  8
0
  6
CONTINUOUS
 62
     3
  2
*HATCH846
 70
    65
 10
0.0
 20
0.0
 30
0.0
  3
*HATCH846
  0
LINE
  5
    CC
  8
0
  6
CONTINUOUS
 62
     7
 10
-2.59645748138428
 20
-31.3446865081787
 30
0.0
 11
-2.24040460586548
 21
-31.7007389068604
 31
0.0
  0
ENDBLK
  5
    CD
  8
0
  6
CONTINUOUS
 62
     3
  0
BLOCK
  5
    CE
  8
0
  6
CONTINUOUS
 62
     3
  2
*HATCH847
 70
    65
 10
0.0
 20
0.0
 30
0.0
  3
*HATCH847
  0
LINE
  5
    CF
  8
0
  6
CONTINUOUS
 62
     7
 10
-2.59601783752441
 20
-44.073055267334
 30
0.0
 11
-2.17350578308105
 21
-44.4955673217773
 31
0.0
  0
ENDBLK
  5
    D0
  8
0
  6
CONTINUOUS
 62
     3
  0
BLOCK
  5
    D1
  8
0
  6
CONTINUOUS
 62
     3
  2
*HATCH848
 70
    65
 10
0.0
 20
0.0
 30
0.0
  3
*HATCH848
  0
LINE
  5
    D2
  8
0
  6
CONTINUOUS
 62
   210
 10
-0.793899476528168
 20
-43.7538528442383
 30
0.0
 11
-0.392414540052414
 21
-44.1553382873535
 31
0.0
  0
ENDBLK
  5
    D3
  8
0
  6
CONTINUOUS
 62
     3
  0
BLOCK
  5
    D4
  8
0
  6
CONTINUOUS
 62
     3
  2
*HATCH849
 70
    65
 10
0.0
 20
0.0
 30
0.0
  3
*HATCH849
  0
LINE
  5
    D5
  8
0
  6
CONTINUOUS
 62
   210
 10
-1.09645795822144
 20
-39.2086524963379
 30
0.0
 11
-0.654154121875763
 21
-39.6509552001953
 31
0.0
  0
ENDBLK
  5
    D6
  8
0
  6
CONTINUOUS
 62
     3
  0
BLOCK
  5
    D7
  8
0
  6
CONTINUOUS
 62
     3
  2
*HATCH850
 70
    65
 10
0.0
 20
0.0
 30
0.0
  3
*HATCH850
  0
LINE
  5
    D8
  8
0
  6
CONTINUOUS
 62
   210
 10
-0.830833554267883
 20
-37.352954864502
 30
0.0
 11
-0.403591841459274
 21
-37.7801971435547
 31
0.0
  0
ENDBLK
  5
    D9
  8
0
  6
CONTINUOUS
 62
     3
  0
BLOCK
  5
    DA
  8
0
  6
CONTINUOUS
 62
     3
  2
*HATCH851
 70
    65
 10
0.0
 20
0.0
 30
0.0
  3
*HATCH851
  0
LINE
  5
    DB
  8
0
  6
CONTINUOUS
 62
   210
 10
-1.09645795822144
 20
-32.8446884155273
 30
0.0
 11
-0.677002429962158
 21
-33.2641448974609
 31
0.0
  0
ENDBLK
  5
    DC
  8
0
  6
CONTINUOUS
 62
     3
  0
BLOCK
  5
    DD
  8
0
  6
CONTINUOUS
 62
     3
  2
*HATCH852
 70
    65
 10
0.0
 20
0.0
 30
0.0
  3
*HATCH852
  0
LINE
  5
    DE
  8
0
  6
CONTINUOUS
 62
   210
 10
-0.853675007820129
 20
-30.9661483764648
 30
0.0
 11
-0.403591841459274
 21
-31.4162330627441
 31
0.0
  0
ENDBLK
  5
    DF
  8
0
  6
CONTINUOUS
 62
     3
  0
BLOCK
  5
    E0
  8
0
  6
CONTINUOUS
 62
     3
  2
*HATCH853
 70
    65
 10
0.0
 20
0.0
 30
0.0
  3
*HATCH853
  0
LINE
  5
    E1
  8
0
  6
CONTINUOUS
 62
   210
 10
-4.94111394882202
 20
-29.0000267028809
 30
0.0
 11
-4.88759756088257
 21
-29.0535430908203
 31
0.0
  0
ENDBLK
  5
    E2
  8
0
  6
CONTINUOUS
 62
     3
  0
BLOCK
  5
    E3
  8
0
  6
CONTINUOUS
 62
     3
  2
*HATCH854
 70
    65
 10
0.0
 20
0.0
 30
0.0
  3
*HATCH854
  0
LINE
  5
    E4
  8
0
  6
CONTINUOUS
 62
   210
 10
-5.59645795822144
 20
-30.4660034179688
 30
0.0
 11
-5.1905083656311
 21
-30.8719539642334
 31
0.0
  0
ENDBLK
  5
    E5
  8
0
  6
CONTINUOUS
 62
     3
  0
BLOCK
  5
    E6
  8
0
  6
CONTINUOUS
 62
     3
  2
*HATCH855
 70
    65
 10
0.0
 20
0.0
 30
0.0
  3
*HATCH855
  0
LINE
  5
    E7
  8
0
  6
CONTINUOUS
 62
   210
 10
-5.3443431854248
 20
-34.9607620239258
 30
0.0
 11
-4.90359163284302
 21
-35.4015121459961
 31
0.0
  0
ENDBLK
  5
    E8
  8
0
  6
CONTINUOUS
 62
     3
  0
BLOCK
  5
    E9
  8
0
  6
CONTINUOUS
 62
     3
  2
*HATCH856
 70
    65
 10
0.0
 20
0.0
 30
0.0
  3
*HATCH856
  0
LINE
  5
    EA
  8
0
  6
CONTINUOUS
 62
   210
 10
-5.59645795822144
 20
-36.8299674987793
 30
0.0
 11
-5.16767072677612
 21
-37.2587547302246
 31
0.0
  0
ENDBLK
  5
    EB
  8
0
  6
CONTINUOUS
 62
     3
  0
BLOCK
  5
    EC
  8
0
  6
CONTINUOUS
 62
     3
  2
*HATCH857
 70
    65
 10
0.0
 20
0.0
 30
0.0
  3
*HATCH857
  0
LINE
  5
    ED
  8
0
  6
CONTINUOUS
 62
   210
 10
-5.32150220870972
 20
-41.3475685119629
 30
0.0
 11
-4.90359163284302
 21
-41.7654800415039
 31
0.0
  0
ENDBLK
  5
    EE
  8
0
  6
CONTINUOUS
 62
     3
  0
BLOCK
  5
    EF
  8
0
  6
CONTINUOUS
 62
     3
  2
*HATCH858
 70
    65
 10
0.0
 20
0.0
 30
0.0
  3
*HATCH858
  0
LINE
  5
    F0
  8
0
  6
CONTINUOUS
 62
   210
 10
-5.59645795822144
 20
-43.1939315795898
 30
0.0
 11
-5.14482545852661
 21
-43.645565032959
 31
0.0
  0
ENDBLK
  5
    F1
  8
0
  6
CONTINUOUS
 62
     3
  0
BLOCK
  5
    F2
  8
0
  6
CONTINUOUS
 62
     7
  2
*UDIM1260
 70
    65
 10
0.0
 20
0.0
 30
0.0
  3
*UDIM1260
  0
TEXT
  5
    F3
  8
0
  6
CONTINUOUS
 62
     7
 10
199.263350727923
 20
103.862541628937
 30
0.0
 40
3.00000002980232
  1
=
 50
90.0
 41
0.933333333333334
 72
     1
 11
197.763350713021
 21
104.962541639863
 31
0.0
 73
     2
  0
LINE
  5
    F4
  8
0
  6
CONTINUOUS
 62
     3
 10
210.870848655701
 20
113.462528348085
 30
0.0
 11
198.263350727922
 21
113.462528348085
 31
0.0
  0
LINE
  5
    F5
  8
0
  6
CONTINUOUS
 62
     3
 10
200.263350727922
 20
96.4625549316407
 30
0.0
 11
200.263350727922
 21
113.462528348085
 31
0.0
  0
LINE
  5
    F6
  8
0
  6
CONTINUOUS
 62
     3
 10
199.74240629797
 20
99.4169782088477
 30
0.0
 11
200.263350727922
 21
96.4625549316407
 31
0.0
  0
LINE
  5
    F7
  8
0
  6
CONTINUOUS
 62
     3
 10
200.263350727922
 20
96.4625549316407
 30
0.0
 11
200.784295157874
 21
99.4169782088477
 31
0.0
  0
LINE
  5
    F8
  8
0
  6
CONTINUOUS
 62
     3
 10
200.784295157874
 20
110.508105070879
 30
0.0
 11
200.263350727922
 21
113.462528348085
 31
0.0
  0
LINE
  5
    F9
  8
0
  6
CONTINUOUS
 62
     3
 10
200.263350727922
 20
113.462528348085
 30
0.0
 11
199.74240629797
 21
110.508105070879
 31
0.0
  0
ENDBLK
  5
    FA
  8
0
  6
CONTINUOUS
 62
     7
  0
BLOCK
  5
    FB
  8
0
  6
CONTINUOUS
 62
     7
  2
*UDIM1261
 70
    65
 10
0.0
 20
0.0
 30
0.0
  3
*UDIM1261
  0
TEXT
  5
    FC
  8
0
  6
CONTINUOUS
 62
     7
 10
199.263350727923
 20
86.1125416289374
 30
0.0
 40
3.00000002980232
  1
=
 50
90.0
 41
0.933333333333334
 72
     1
 11
197.763350713021
 21
87.2125416398631
 31
0.0
 73
     2
  0
LINE
  5
    FD
  8
0
  6
CONTINUOUS
 62
     3
 10
210.870848655701
 20
77.9625283480855
 30
0.0
 11
198.263350727922
 21
77.9625283480855
 31
0.0
  0
LINE
  5
    FE
  8
0
  6
CONTINUOUS
 62
     3
 10
205.200056868249
 20
96.4625549316407
 30
0.0
 11
198.263350727922
 21
96.4625549316407
 31
0.0
  0
LINE
  5
    FF
  8
0
  6
CONTINUOUS
 62
     3
 10
200.263350727922
 20
77.9625283480855
 30
0.0
 11
200.263350727922
 21
96.4625549316407
 31
0.0
  0
LINE
  5
   100
  8
0
  6
CONTINUOUS
 62
     3
 10
199.74240629797
 20
80.9169516252924
 30
0.0
 11
200.263350727922
 21
77.9625283480855
 31
0.0
  0
LINE
  5
   101
  8
0
  6
CONTINUOUS
 62
     3
 10
200.263350727922
 20
77.9625283480855
 30
0.0
 11
200.784295157874
 21
80.9169516252924
 31
0.0
  0
LINE
  5
   102
  8
0
  6
CONTINUOUS
 62
     3
 10
200.784295157874
 20
93.5081316544337
 30
0.0
 11
200.263350727922
 21
96.4625549316407
 31
0.0
  0
LINE
  5
   103
  8
0
  6
CONTINUOUS
 62
     3
 10
200.263350727922
 20
96.4625549316407
 30
0.0
 11
199.74240629797
 21
93.5081316544337
 31
0.0
  0
ENDBLK
  5
   104
  8
0
  6
CONTINUOUS
 62
     7
  0
BLOCK
  5
   105
  8
0
  6
CONTINUOUS
 62
     3
  2
*UDIM1262
 70
    65
 10
0.0
 20
0.0
 30
0.0
  3
*UDIM1262
  0
TEXT
  5
   106
  8
0
  6
CONTINUOUS
 62
     3
 10
206.12084950308
 20
30.5547639759567
 30
0.0
 40
3.00000002980232
  1
3
 41
0.933333333333334
 72
     1
 11
207.220849514008
 21
32.0547639908579
 31
0.0
 73
     2
  0
LINE
  5
   107
  8
0
  6
CONTINUOUS
 62
     3
 10
211.870848655701
 20
77.9625283480855
 30
0.0
 11
211.870848655701
 21
27.5547639759567
 31
0.0
  0
LINE
  5
   108
  8
0
  6
CONTINUOUS
 62
     3
 10
214.870862960815
 20
51.4625397921773
 30
0.0
 11
214.870862960815
 21
27.5547639759567
 31
0.0
  0
LINE
  5
   109
  8
0
  6
CONTINUOUS
 62
     3
 10
206.12084950308
 20
29.5547639759567
 30
0.0
 11
214.870862960815
 21
29.5547639759567
 31
0.0
  0
LINE
  5
   10A
  8
0
  6
CONTINUOUS
 62
     3
 10
208.916425378494
 20
29.033819546005
 30
0.0
 11
211.870848655701
 21
29.5547639759567
 31
0.0
  0
LINE
  5
   10B
  8
0
  6
CONTINUOUS
 62
     3
 10
211.870848655701
 20
29.5547639759567
 30
0.0
 11
208.916425378494
 21
30.0757084059084
 31
0.0
  0
LINE
  5
   10C
  8
0
  6
CONTINUOUS
 62
     3
 10
217.825286238022
 20
30.0757084059084
 30
0.0
 11
214.870862960815
 21
29.5547639759567
 31
0.0
  0
LINE
  5
   10D
  8
0
  6
CONTINUOUS
 62
     3
 10
214.870862960815
 20
29.5547639759567
 30
0.0
 11
217.825286238022
 21
29.033819546005
 31
0.0
  0
ENDBLK
  5
   10E
  8
0
  6
CONTINUOUS
 62
     3
  0
BLOCK
  5
   10F
  8
0
  6
CONTINUOUS
 62
     7
  2
*UDIM1263
 70
    65
 10
0.0
 20
0.0
 30
0.0
  3
*UDIM1263
  0
TEXT
  5
   110
  8
0
  6
CONTINUOUS
 62
     7
 10
257.954209645589
 20
206.078732586138
 30
0.0
 40
3.5
  1
92
 41
0.933333333333333
 72
     1
 11
260.870876312256
 21
207.828732586137
 31
0.0
 73
     2
  0
LINE
  5
   111
  8
0
  6
CONTINUOUS
 62
     7
 10
214.870872497559
 20
192.962528228762
 30
0.0
 11
214.870872497559
 21
207.078732586137
 31
0.0
  0
LINE
  5
   112
  8
0
  6
CONTINUOUS
 62
     7
 10
306.870880126953
 20
119.962554931641
 30
0.0
 11
306.870880126953
 21
207.078732586137
 31
0.0
  0
LINE
  5
   113
  8
0
  6
CONTINUOUS
 62
     7
 10
214.870872497559
 20
205.078732586137
 30
0.0
 11
306.870880126953
 21
205.078732586137
 31
0.0
  0
LINE
  5
   114
  8
0
  6
CONTINUOUS
 62
     3
 10
217.768649970769
 20
205.855189742556
 30
0.0
 11
214.870872497559
 21
205.078732586137
 31
0.0
  0
LINE
  5
   115
  8
0
  6
CONTINUOUS
 62
     3
 10
214.870872497559
 20
205.078732586137
 30
0.0
 11
217.768649970769
 21
204.302275429719
 31
0.0
  0
LINE
  5
   116
  8
0
  6
CONTINUOUS
 62
     3
 10
303.973102653743
 20
204.302275429719
 30
0.0
 11
306.870880126953
 21
205.078732586137
 31
0.0
  0
LINE
  5
   117
  8
0
  6
CONTINUOUS
 62
     3
 10
306.870880126953
 20
205.078732586137
 30
0.0
 11
303.973102653743
 21
205.855189742556
 31
0.0
  0
ENDBLK
  5
   118
  8
0
  6
CONTINUOUS
 62
     7
  0
BLOCK
  5
   119
  8
0
  6
CONTINUOUS
 62
     7
  2
*UDIM1264
 70
    65
 10
0.0
 20
0.0
 30
0.0
  3
*UDIM1264
  0
TEXT
  5
   11A
  8
0
  6
CONTINUOUS
 62
     7
 10
244.763842980067
 20
196.823522800147
 30
0.0
 40
3.5
  1
70.2
 41
0.933333333333333
 72
     1
 11
250.9471763134
 21
198.573522800147
 31
0.0
 73
     2
  0
LINE
  5
   11B
  8
0
  6
CONTINUOUS
 62
     7
 10
214.870872497559
 20
192.962528228762
 30
0.0
 11
214.870872497559
 21
197.823522800147
 31
0.0
  0
LINE
  5
   11C
  8
0
  6
CONTINUOUS
 62
     7
 10
285.070880126953
 20
153.16255569458
 30
0.0
 11
285.070880126953
 21
197.823522800147
 31
0.0
  0
LINE
  5
   11D
  8
0
  6
CONTINUOUS
 62
     7
 10
214.870872497559
 20
195.823522800147
 30
0.0
 11
285.070880126953
 21
195.823522800147
 31
0.0
  0
LINE
  5
   11E
  8
0
  6
CONTINUOUS
 62
     3
 10
217.768649970769
 20
196.599979956566
 30
0.0
 11
214.870872497559
 21
195.823522800147
 31
0.0
  0
LINE
  5
   11F
  8
0
  6
CONTINUOUS
 62
     3
 10
214.870872497559
 20
195.823522800147
 30
0.0
 11
217.768649970769
 21
195.047065643729
 31
0.0
  0
LINE
  5
   120
  8
0
  6
CONTINUOUS
 62
     3
 10
282.173102653743
 20
195.047065643729
 30
0.0
 11
285.070880126953
 21
195.823522800147
 31
0.0
  0
LINE
  5
   121
  8
0
  6
CONTINUOUS
 62
     3
 10
285.070880126953
 20
195.823522800147
 30
0.0
 11
282.173102653743
 21
196.599979956566
 31
0.0
  0
ENDBLK
  5
   122
  8
0
  6
CONTINUOUS
 62
     7
  0
BLOCK
  5
   123
  8
0
  6
CONTINUOUS
 62
     7
  2
*UDIM1265
 70
    65
 10
0.0
 20
0.0
 30
0.0
  3
*UDIM1265
  0
TEXT
  5
   124
  8
0
  6
CONTINUOUS
 62
     7
 10
291.713538551331
 20
184.072303360482
 30
0.0
 40
3.5
  1
6.7
 41
0.933333333333333
 72
     1
 11
296.263538551331
 21
185.822303360482
 31
0.0
 73
     2
  0
LINE
  5
   125
  8
0
  6
CONTINUOUS
 62
     7
 10
306.870880126953
 20
113.462554931641
 30
0.0
 11
306.870880126953
 21
185.072303360482
 31
0.0
  0
LINE
  5
   126
  8
0
  6
CONTINUOUS
 62
     7
 10
313.520880126953
 20
104.458625793457
 30
0.0
 11
313.520880126953
 21
185.072303360482
 31
0.0
  0
LINE
  5
   127
  8
0
  6
CONTINUOUS
 62
     7
 10
291.713538551331
 20
183.072303360482
 30
0.0
 11
318.520880126953
 21
183.072303360482
 31
0.0
  0
LINE
  5
   128
  8
0
  6
CONTINUOUS
 62
     3
 10
303.973102653743
 20
182.295846204064
 30
0.0
 11
306.870880126953
 21
183.072303360482
 31
0.0
  0
LINE
  5
   129
  8
0
  6
CONTINUOUS
 62
     3
 10
306.870880126953
 20
183.072303360482
 30
0.0
 11
303.973102653743
 21
183.848760516901
 31
0.0
  0
LINE
  5
   12A
  8
0
  6
CONTINUOUS
 62
     3
 10
316.418657600164
 20
183.848760516901
 30
0.0
 11
313.520880126953
 21
183.072303360482
 31
0.0
  0
LINE
  5
   12B
  8
0
  6
CONTINUOUS
 62
     3
 10
313.520880126953
 20
183.072303360482
 30
0.0
 11
316.418657600164
 21
182.295846204064
 31
0.0
  0
ENDBLK
  5
   12C
  8
0
  6
CONTINUOUS
 62
     7
  0
BLOCK
  5
   12D
  8
0
  6
CONTINUOUS
 62
     7
  2
*UDIM1266
 70
    65
 10
0.0
 20
0.0
 30
0.0
  3
*UDIM1266
  0
TEXT
  5
   12E
  8
0
  6
CONTINUOUS
 62
     7
 10
-45.1106245591203
 20
16.360382318331
 30
0.0
 40
3.5
  1
25
 41
0.933333333333333
 72
     1
 11
-42.1939578924537
 21
18.110382318331
 31
0.0
 73
     2
  0
TEXT
  5
   12F
  8
0
  6
CONTINUOUS
 62
     7
 10
-37.177291225787
 20
16.8853823391926
 30
0.0
 40
2.44999995827675
  1
±0.15
 41
0.933333333333333
 72
     1
 11
-31.7056246523023
 21
18.110382318331
 31
0.0
 73
     2
  0
LINE
  5
   130
  8
0
  6
CONTINUOUS
 62
     7
 10
-24.502783347953
 20
15.1921827342831
 30
0.0
 11
-24.502783347953
 21
17.360382318331
 31
0.0
  0
LINE
  5
   131
  8
0
  6
CONTINUOUS
 62
     7
 10
-45.1106245591203
 20
15.360382318331
 30
0.0
 11
-12.0027604411079
 21
15.360382318331
 31
0.0
  0
LINE
  5
   132
  8
0
  6
CONTINUOUS
 62
     3
 10
-21.6050058747425
 20
16.1368394747495
 30
0.0
 11
-24.502783347953
 21
15.360382318331
 31
0.0
  0
LINE
  5
   133
  8
0
  6
CONTINUOUS
 62
     3
 10
-24.502783347953
 20
15.360382318331
 30
0.0
 11
-21.6050058747425
 21
14.5839251619124
 31
0.0
  0
CIRCLE
  5
   134
  8
0
  6
CONTINUOUS
 62
     3
 10
-12.0027604411079
 20
15.360382318331
 30
0.0
 40
0.5
  0
ENDBLK
  5
   135
  8
0
  6
CONTINUOUS
 62
     7
  0
BLOCK
  5
   136
  8
0
  6
CONTINUOUS
 62
     7
  2
*UDIM1267
 70
    65
 10
0.0
 20
0.0
 30
0.0
  3
*UDIM1267
  0
TEXT
  5
   137
  8
0
  6
CONTINUOUS
 62
     7
 10
-13.9394118046057
 20
18.1103822766077
 30
0.0
 40
3.5
  1
38.5
 41
0.933333333333333
 72
     1
 11
-7.75607847127232
 21
19.8603822766077
 31
0.0
 73
     2
  0
TEXT
  5
   138
  8
0
  6
CONTINUOUS
 62
     7
 10
0.527254862061015
 20
20.9103822766077
 30
0.0
 40
2.44999995827675
  1
+0.2
 41
0.933333333333333
 72
     1
 11
4.85558812168327
 21
22.1353822557461
 31
0.0
 73
     2
  0
TEXT
  5
   139
  8
0
  6
CONTINUOUS
 62
     7
 10
0.527254862061014
 20
16.360382318331
 30
0.0
 40
2.44999995827675
  1
 0
 41
0.933333333333333
 72
     1
 11
2.5689214939583
 21
17.5853822974693
 31
0.0
 73
     2
  0
LINE
  5
   13A
  8
0
  6
CONTINUOUS
 62
     7
 10
-13.9394118046057
 20
15.360382318331
 30
0.0
 11
9.18392138130552
 21
15.360382318331
 31
0.0
  0
CIRCLE
  5
   13B
  8
0
  6
CONTINUOUS
 62
     3
 10
-12.0027604411079
 20
15.360382318331
 30
0.0
 40
0.5
  0
LINE
  5
   13C
  8
0
  6
CONTINUOUS
 62
     3
 10
10.1450474910183
 20
16.1368394747495
 30
0.0
 11
7.24727001780778
 21
15.360382318331
 31
0.0
  0
LINE
  5
   13D
  8
0
  6
CONTINUOUS
 62
     3
 10
7.24727001780778
 20
15.360382318331
 30
0.0
 11
10.1450474910183
 21
14.5839251619124
 31
0.0
  0
ENDBLK
  5
   13E
  8
0
  6
CONTINUOUS
 62
     7
  0
BLOCK
  5
   13F
  8
0
  6
CONTINUOUS
 62
     7
  2
*UDIM1268
 70
    65
 10
0.0
 20
0.0
 30
0.0
  3
*UDIM1268
  0
TEXT
  5
   140
  8
0
  6
CONTINUOUS
 62
     7
 10
14.7199871569327
 20
16.360382318331
 30
0.0
 40
3.5
  1
66
 41
0.933333333333333
 72
     1
 11
17.6366538235993
 21
18.110382318331
 31
0.0
 73
     2
  0
TEXT
  5
   141
  8
0
  6
CONTINUOUS
 62
     7
 10
22.653320490266
 20
16.8853823391926
 30
0.0
 40
2.44999995827675
  1
±0.15
 41
0.933333333333333
 72
     1
 11
28.1249870637507
 21
18.110382318331
 31
0.0
 73
     2
  0
LINE
  5
   142
  8
0
  6
CONTINUOUS
 62
     7
 10
7.24727001780778
 20
15.360382318331
 30
0.0
 11
40.2472700178078
 21
15.360382318331
 31
0.0
  0
LINE
  5
   143
  8
0
  6
CONTINUOUS
 62
     3
 10
10.1450474910183
 20
16.1368394747495
 30
0.0
 11
7.24727001780778
 21
15.360382318331
 31
0.0
  0
LINE
  5
   144
  8
0
  6
CONTINUOUS
 62
     3
 10
7.24727001780778
 20
15.360382318331
 30
0.0
 11
10.1450474910183
 21
14.5839251619124
 31
0.0
  0
LINE
  5
   145
  8
0
  6
CONTINUOUS
 62
     3
 10
37.3494925445973
 20
14.5839251619124
 30
0.0
 11
40.2472700178078
 21
15.360382318331
 31
0.0
  0
LINE
  5
   146
  8
0
  6
CONTINUOUS
 62
     3
 10
40.2472700178078
 20
15.360382318331
 30
0.0
 11
37.3494925445973
 21
16.1368394747495
 31
0.0
  0
ENDBLK
  5
   147
  8
0
  6
CONTINUOUS
 62
     7
  0
BLOCK
  5
   148
  8
0
  6
CONTINUOUS
 62
     7
  2
*UDIM1269
 70
    65
 10
0.0
 20
0.0
 30
0.0
  3
*UDIM1269
  0
TEXT
  5
   149
  8
0
  6
CONTINUOUS
 62
     7
 10
-42.0076472186213
 20
-29.9576807288956
 30
0.0
 40
3.5
  1
100
 50
90.0
 41
0.933333333333333
 72
     1
 11
-43.757647218627
 21
-25.4076807288978
 31
0.0
 73
     2
  0
TEXT
  5
   14A
  8
0
  6
CONTINUOUS
 62
     7
 10
-42.5326472394818
 20
-18.7576807288963
 30
0.0
 40
2.44999995827675
  1
±0.15
 50
90.0
 41
0.933333333333333
 72
     1
 11
-43.757647218627
 21
-13.2860141554131
 31
0.0
 73
     2
  0
LINE
  5
   14B
  8
0
  6
CONTINUOUS
 62
     7
 10
-39.6121809329896
 20
-43.8860186627576
 30
0.0
 11
-43.007647218627
 21
-43.8860186627576
 31
0.0
  0
LINE
  5
   14C
  8
0
  6
CONTINUOUS
 62
     7
 10
-40.9187989069737
 20
6.11399035193141
 30
0.0
 11
-43.007647218627
 21
6.11399035193141
 31
0.0
  0
LINE
  5
   14D
  8
0
  6
CONTINUOUS
 62
     7
 10
-41.007647218627
 20
-43.8860186627576
 30
0.0
 11
-41.007647218627
 21
6.11399035193141
 31
0.0
  0
LINE
  5
   14E
  8
0
  6
CONTINUOUS
 62
     3
 10
-41.7841043750455
 20
-40.9882411895471
 30
0.0
 11
-41.007647218627
 21
-43.8860186627576
 31
0.0
  0
LINE
  5
   14F
  8
0
  6
CONTINUOUS
 62
     3
 10
-41.007647218627
 20
-43.8860186627576
 30
0.0
 11
-40.2311900622085
 21
-40.9882411895471
 31
0.0
  0
LINE
  5
   150
  8
0
  6
CONTINUOUS
 62
     3
 10
-40.2311900622085
 20
3.21621287872087
 30
0.0
 11
-41.007647218627
 21
6.11399035193141
 31
0.0
  0
LINE
  5
   151
  8
0
  6
CONTINUOUS
 62
     3
 10
-41.007647218627
 20
6.11399035193141
 30
0.0
 11
-41.7841043750455
 21
3.21621287872087
 31
0.0
  0
ENDBLK
  5
   152
  8
0
  6
CONTINUOUS
 62
     7
  0
BLOCK
  5
   153
  8
0
  6
CONTINUOUS
 62
     7
  2
*UDIM1270
 70
    65
 10
0.0
 20
0.0
 30
0.0
  3
*UDIM1270
  0
TEXT
  5
   154
  8
0
  6
CONTINUOUS
 62
     7
 10
26.1702705657481
 20
-28.3243716370203
 30
0.0
 40
3.5
  1
80
 50
90.0
 41
0.933333333333333
 72
     1
 11
24.4202705657444
 21
-25.4077049703558
 31
0.0
 73
     2
  0
TEXT
  5
   155
  8
0
  6
CONTINUOUS
 62
     7
 10
25.6452705448897
 20
-20.3910383036876
 30
0.0
 40
2.44999995827675
  1
±0.15
 50
90.0
 41
0.933333333333333
 72
     1
 11
24.4202705657444
 21
-14.9193717302044
 31
0.0
 73
     2
  0
LINE
  5
   156
  8
0
  6
CONTINUOUS
 62
     7
 10
27.1702705657444
 20
-38.8860383968711
 30
0.0
 11
27.1702705657444
 21
1.11396160312892
 31
0.0
  0
LINE
  5
   157
  8
0
  6
CONTINUOUS
 62
     3
 10
26.3938134093259
 20
-35.9882609236606
 30
0.0
 11
27.1702705657444
 21
-38.8860383968711
 31
0.0
  0
LINE
  5
   158
  8
0
  6
CONTINUOUS
 62
     3
 10
27.1702705657444
 20
-38.8860383968711
 30
0.0
 11
27.946727722163
 21
-35.9882609236606
 31
0.0
  0
LINE
  5
   159
  8
0
  6
CONTINUOUS
 62
     3
 10
27.946727722163
 20
-1.78381587008162
 30
0.0
 11
27.1702705657444
 21
1.11396160312892
 31
0.0
  0
LINE
  5
   15A
  8
0
  6
CONTINUOUS
 62
     3
 10
27.1702705657444
 20
1.11396160312892
 30
0.0
 11
26.3938134093259
 21
-1.78381587008162
 31
0.0
  0
ENDBLK
  5
   15B
  8
0
  6
CONTINUOUS
 62
     7
  0
BLOCK
  5
   15C
  8
0
  6
CONTINUOUS
 62
     7
  2
*UDIM1271
 70
    65
 10
0.0
 20
0.0
 30
0.0
  3
*UDIM1271
  0
TEXT
  5
   15D
  8
0
  6
CONTINUOUS
 62
     7
 10
2.66062699480754
 20
-56.5101726377977
 30
0.0
 40
3.5
  1
4.5
 50
316.31135029606
 41
0.933333333333333
 72
     1
 11
7.15954373556727
 21
-58.387603904106
 31
0.0
 73
     2
  0
TEXT
  5
   15E
  8
0
  6
CONTINUOUS
 62
     7
 10
-0.593340985177662
 20
-53.401846338126
 30
0.0
 40
3.5
  1
Ø
 50
316.31135029606
 41
1.2
 72
     1
 11
1.88088456802185
 21
-53.3452079068753
 31
0.0
 73
     2
  0
TEXT
  5
   15F
  8
0
  6
CONTINUOUS
 62
     7
 10
-7.89669134028328
 20
-46.4253806433362
 30
0.0
 40
3.5
  1
M4-
 50
316.31135029606
 41
0.933333333333333
 72
     1
 11
-3.39777459952356
 21
-48.3028119096445
 31
0.0
 73
     2
  0
LINE
  5
   160
  8
0
  6
CONTINUOUS
 62
     7
 10
-16.4317724138771
 20
-39.6552411993278
 30
0.0
 11
8.5501341766559
 21
-63.5190031504279
 31
0.0
  0
LINE
  5
   161
  8
0
  6
CONTINUOUS
 62
     3
 10
-15.4479762829577
 20
-41.6687879310136
 30
0.0
 11
-12.8162524361062
 21
-43.108937087842
 31
0.0
  0
LINE
  5
   162
  8
0
  6
CONTINUOUS
 62
     3
 10
-12.8162524361062
 20
-43.108937087842
 30
0.0
 11
-14.3753175274656
 21
-40.5458693866478
 31
0.0
  0
LINE
  5
   163
  8
0
  6
CONTINUOUS
 62
     3
 10
-8.55754459925814
 20
-46.1032493945016
 30
0.0
 11
-11.1892684461096
 21
-44.6631002376732
 31
0.0
  0
LINE
  5
   164
  8
0
  6
CONTINUOUS
 62
     3
 10
-11.1892684461096
 20
-44.6631002376732
 30
0.0
 11
-9.63020335475021
 21
-47.2261679388673
 31
0.0
  0
ENDBLK
  5
   165
  8
0
  6
CONTINUOUS
 62
     7
  0
BLOCK
  5
   166
  8
0
  6
CONTINUOUS
 62
     7
  2
*UDIM1272
 70
    65
 10
0.0
 20
0.0
 30
0.0
  3
*UDIM1272
  0
TEXT
  5
   167
  8
0
  6
CONTINUOUS
 62
     7
 10
-34.4945938682152
 20
-14.2035344785667
 30
0.0
 40
3.5
  1
62
 50
90.0
 41
0.933333333333333
 72
     1
 11
-36.2445938682188
 21
-11.2868678119022
 31
0.0
 73
     2
  0
LINE
  5
   168
  8
0
  6
CONTINUOUS
 62
     7
 10
-33.4945938682188
 20
-24.8860096480686
 30
0.0
 11
-33.4945938682188
 21
6.11399035193141
 31
0.0
  0
LINE
  5
   169
  8
0
  6
CONTINUOUS
 62
     3
 10
-34.2710510246374
 20
-21.9882321748581
 30
0.0
 11
-33.4945938682188
 21
-24.8860096480686
 31
0.0
  0
LINE
  5
   16A
  8
0
  6
CONTINUOUS
 62
     3
 10
-33.4945938682188
 20
-24.8860096480686
 30
0.0
 11
-32.7181367118003
 21
-21.9882321748581
 31
0.0
  0
LINE
  5
   16B
  8
0
  6
CONTINUOUS
 62
     3
 10
-32.7181367118003
 20
3.21621287872087
 30
0.0
 11
-33.4945938682188
 21
6.11399035193141
 31
0.0
  0
LINE
  5
   16C
  8
0
  6
CONTINUOUS
 62
     3
 10
-33.4945938682188
 20
6.11399035193141
 30
0.0
 11
-34.2710510246374
 21
3.21621287872087
 31
0.0
  0
ENDBLK
  5
   16D
  8
0
  6
CONTINUOUS
 62
     7
  0
BLOCK
  5
   16E
  8
0
  6
CONTINUOUS
 62
     7
  2
*UDIM1273
 70
    65
 10
0.0
 20
0.0
 30
0.0
  3
*UDIM1273
  0
TEXT
  5
   16F
  8
0
  6
CONTINUOUS
 62
     7
 10
34.1028497659467
 20
-15.1834979100701
 30
0.0
 40
3.5
  1
52
 50
90.0
 41
0.933333333333333
 72
     1
 11
32.3528497659431
 21
-12.2668312434057
 31
0.0
 73
     2
  0
LINE
  5
   170
  8
0
  6
CONTINUOUS
 62
     7
 10
35.102849765943
 20
-24.8860096480686
 30
0.0
 11
35.102849765943
 21
1.11396160312892
 31
0.0
  0
LINE
  5
   171
  8
0
  6
CONTINUOUS
 62
     3
 10
34.3263926095245
 20
-21.9882321748581
 30
0.0
 11
35.102849765943
 21
-24.8860096480686
 31
0.0
  0
LINE
  5
   172
  8
0
  6
CONTINUOUS
 62
     3
 10
35.102849765943
 20
-24.8860096480686
 30
0.0
 11
35.8793069223616
 21
-21.9882321748581
 31
0.0
  0
LINE
  5
   173
  8
0
  6
CONTINUOUS
 62
     3
 10
35.8793069223616
 20
-1.78381587008162
 30
0.0
 11
35.102849765943
 21
1.11396160312892
 31
0.0
  0
LINE
  5
   174
  8
0
  6
CONTINUOUS
 62
     3
 10
35.102849765943
 20
1.11396160312892
 30
0.0
 11
34.3263926095245
 21
-1.78381587008162
 31
0.0
  0
ENDBLK
  5
   175
  8
0
  6
CONTINUOUS
 62
     7
  0
BLOCK
  5
   176
  8
0
  6
CONTINUOUS
 62
     7
  2
*HATCH859
 70
    65
 10
0.0
 20
0.0
 30
0.0
  3
*HATCH859
  0
LINE
  5
   177
  8
0
  6
CONTINUOUS
 62
     7
 10
-6.72705316543579
 20
2.18249082565308
 30
0.0
 11
-7.30467510223389
 21
1.60486936569214
 31
0.0
  0
LINE
  5
   178
  8
0
  6
CONTINUOUS
 62
     7
 10
-6.27154493331909
 20
2.21373534202576
 30
0.0
 11
-7.22455787658691
 21
1.26072216033936
 31
0.0
  0
LINE
  5
   179
  8
0
  6
CONTINUOUS
 62
     7
 10
-5.84726810455322
 20
2.21374821662903
 30
0.0
 11
-6.39466667175293
 21
1.66634941101074
 31
0.0
  0
LINE
  5
   17A
  8
0
  6
CONTINUOUS
 62
     7
 10
-6.66426229476929
 20
1.39675414562225
 30
0.0
 11
-7.0505313873291
 21
1.01048505306244
 31
0.0
  0
LINE
  5
   17B
  8
0
  6
CONTINUOUS
 62
     7
 10
-5.806396484375
 20
1.83035564422607
 30
0.0
 11
-5.97040271759033
 21
1.66634941101074
 31
0.0
  0
LINE
  5
   17C
  8
0
  6
CONTINUOUS
 62
     7
 10
-6.29627180099487
 20
1.34048020839691
 30
0.0
 11
-6.75053644180298
 21
0.886215686798096
 31
0.0
  0
LINE
  5
   17D
  8
0
  6
CONTINUOUS
 62
     7
 10
-7.08935260772705
 20
0.547399520874023
 30
0.0
 11
-7.25539398193359
 21
0.381358295679092
 31
0.0
  0
LINE
  5
   17E
  8
0
  6
CONTINUOUS
 62
     7
 10
-5.99627304077148
 20
1.2162150144577
 30
0.0
 11
-6.38071584701538
 21
0.83177250623703
 31
0.0
  0
LINE
  5
   17F
  8
0
  6
CONTINUOUS
 62
     7
 10
-6.66508865356445
 20
0.547399520874023
 30
0.0
 11
-7.21248769760132
 21
5.17343551109661E-7
 31
0.0
  0
LINE
  5
   180
  8
0
  6
CONTINUOUS
 62
     7
 10
-5.83309316635132
 20
0.955130934715271
 30
0.0
 11
-6.78821849822998
 21
5.63298863198725E-6
 31
0.0
  0
LINE
  5
   181
  8
0
  6
CONTINUOUS
 62
     7
 10
-5.76708984375
 20
0.596870422363281
 30
0.0
 11
-6.32275247573853
 21
4.12076637148857E-2
 31
0.0
  0
ENDBLK
  5
   182
  8
0
  6
CONTINUOUS
 62
     7
  0
BLOCK
  5
   183
  8
0
  6
CONTINUOUS
 62
     7
  2
*HATCH860
 70
    65
 10
0.0
 20
0.0
 30
0.0
  3
*HATCH860
  0
LINE
  5
   184
  8
0
  6
CONTINUOUS
 62
     7
 10
-4.99874639511108
 20
2.21374201774597
 30
0.0
 11
-5.11600208282471
 21
2.09648633003235
 31
0.0
  0
LINE
  5
   185
  8
0
  6
CONTINUOUS
 62
     7
 10
-4.5744776725769
 20
2.21374702453613
 30
0.0
 11
-5.29006290435791
 21
1.49816131591797
 31
0.0
  0
LINE
  5
   186
  8
0
  6
CONTINUOUS
 62
     7
 10
-4.31070804595947
 20
2.05325198173523
 30
0.0
 11
-5.46412372589111
 21
0.899836301803589
 31
0.0
  0
LINE
  5
   187
  8
0
  6
CONTINUOUS
 62
     7
 10
-4.21509790420532
 20
1.72459805011749
 30
0.0
 11
-4.65671157836914
 21
1.28298437595367
 31
0.0
  0
LINE
  5
   188
  8
0
  6
CONTINUOUS
 62
     7
 10
-4.8342022895813
 20
1.10549378395081
 30
0.0
 11
-5.63818502426147
 21
0.301511287689209
 31
0.0
  0
LINE
  5
   189
  8
0
  6
CONTINUOUS
 62
     7
 10
-4.11948823928833
 20
1.39594399929047
 30
0.0
 11
-5.51543140411377
 21
5.84804922709736E-7
 31
0.0
  0
LINE
  5
   18A
  8
0
  6
CONTINUOUS
 62
     7
 10
-4.02387809753418
 20
1.06729006767273
 30
0.0
 11
-4.64841794967651
 21
0.442750215530396
 31
0.0
  0
LINE
  5
   18B
  8
0
  6
CONTINUOUS
 62
     7
 10
-3.92826819419861
 20
0.738636076450348
 30
0.0
 11
-4.36988687515259
 21
0.297017365694046
 31
0.0
  0
LINE
  5
   18C
  8
0
  6
CONTINUOUS
 62
     7
 10
-3.83265805244446
 20
0.409982055425644
 30
0.0
 11
-4.24264001846313
 21
-1.59405963984227E-8
 31
0.0
  0
LINE
  5
   18D
  8
0
  6
CONTINUOUS
 62
     7
 10
-3.73704814910889
 20
8.13280642032623E-2
 30
0.0
 11
-3.81837606430054
 21
-1.81517350483773E-7
 31
0.0
  0
ENDBLK
  5
   18E
  8
0
  6
CONTINUOUS
 62
     7
  0
BLOCK
  5
   18F
  8
0
  6
CONTINUOUS
 62
     7
  2
*HATCH861
 70
    65
 10
0.0
 20
0.0
 30
0.0
  3
*HATCH861
  0
LINE
  5
   190
  8
0
  6
CONTINUOUS
 62
     7
 10
-2.9884078502655
 20
2.10276007652283
 30
0.0
 11
-3.5777416229248
 21
1.51342642307281
 31
0.0
  0
LINE
  5
   191
  8
0
  6
CONTINUOUS
 62
     7
 10
-2.51154756546021
 20
2.15535640716553
 30
0.0
 11
-3.66166138648987
 21
1.00524282455444
 31
0.0
  0
LINE
  5
   192
  8
0
  6
CONTINUOUS
 62
     7
 10
-2.14052557945251
 20
2.10211443901062
 30
0.0
 11
-2.58813261985779
 21
1.65450739860535
 31
0.0
  0
LINE
  5
   193
  8
0
  6
CONTINUOUS
 62
     7
 10
-3.09122323989868
 20
1.15141689777374
 30
0.0
 11
-3.58603048324585
 21
0.65660959482193
 31
0.0
  0
LINE
  5
   194
  8
0
  6
CONTINUOUS
 62
     7
 10
-1.91638314723969
 20
1.90199279785156
 30
0.0
 11
-2.31821155548096
 21
1.50016450881958
 31
0.0
  0
LINE
  5
   195
  8
0
  6
CONTINUOUS
 62
     7
 10
-3.04562044143677
 20
0.772755563259125
 30
0.0
 11
-3.43465447425842
 21
0.383721768856049
 31
0.0
  0
LINE
  5
   196
  8
0
  6
CONTINUOUS
 62
     7
 10
-1.69224071502686
 20
1.70187127590179
 30
0.0
 11
-1.84102010726929
 21
1.55309188365936
 31
0.0
  0
LINE
  5
   197
  8
0
  6
CONTINUOUS
 62
     7
 10
-2.80736231803894
 20
0.586749851703644
 30
0.0
 11
-3.20844173431396
 21
0.185670480132103
 31
0.0
  0
LINE
  5
   198
  8
0
  6
CONTINUOUS
 62
     7
 10
-2.35260963439941
 20
0.617238461971283
 30
0.0
 11
-2.92059206962585
 21
4.92561422288418E-2
 31
0.0
  0
LINE
  5
   199
  8
0
  6
CONTINUOUS
 62
     7
 10
-1.86875593662262
 20
0.676828145980835
 30
0.0
 11
-2.53638815879822
 21
9.19588841497898E-3
 31
0.0
  0
ENDBLK
  5
   19A
  8
0
  6
CONTINUOUS
 62
     7
  0
BLOCK
  5
   19B
  8
0
  6
CONTINUOUS
 62
     7
  2
*HATCH862
 70
    65
 10
0.0
 20
0.0
 30
0.0
  3
*HATCH862
  0
LINE
  5
   19C
  8
0
  6
CONTINUOUS
 62
     7
 10
-1.18036293983459
 20
2.21374893188477
 30
0.0
 11
-1.44899749755859
 21
1.94511449337006
 31
0.0
  0
LINE
  5
   19D
  8
0
  6
CONTINUOUS
 62
     7
 10
-0.756098747253418
 20
2.21374917030334
 30
0.0
 11
-1.44899749755859
 21
1.52085041999817
 31
0.0
  0
LINE
  5
   19E
  8
0
  6
CONTINUOUS
 62
     7
 10
-0.331834644079208
 20
2.21374940872192
 30
0.0
 11
-0.879234552383423
 21
1.66634941101074
 31
0.0
  0
LINE
  5
   19F
  8
0
  6
CONTINUOUS
 62
     7
 10
-0.901596069335938
 20
1.64398789405823
 30
0.0
 11
-1.44899749755859
 21
1.09658646583557
 31
0.0
  0
LINE
  5
   1A0
  8
0
  6
CONTINUOUS
 62
     7
 10
1.8455197529913E-16
 20
2.12132000923157
 30
0.0
 11
-0.45497053861618
 21
1.66634941101074
 31
0.0
  0
LINE
  5
   1A1
  8
0
  6
CONTINUOUS
 62
     7
 10
-0.740745306015015
 20
1.38057470321655
 30
0.0
 11
-1.44899749755859
 21
0.672322511672974
 31
0.0
  0
LINE
  5
   1A2
  8
0
  6
CONTINUOUS
 62
     7
 10
1.24556434776123E-17
 20
1.69705593585968
 30
0.0
 11
-3.07065322995186E-2
 21
1.66634941101074
 31
0.0
  0
LINE
  5
   1A3
  8
0
  6
CONTINUOUS
 62
     7
 10
-0.31648126244545
 20
1.38057470321655
 30
0.0
 11
-0.863881289958954
 21
0.833174705505371
 31
0.0
  0
LINE
  5
   1A4
  8
0
  6
CONTINUOUS
 62
     7
 10
-0.901596069335938
 20
0.795459926128387
 30
0.0
 11
-1.44899749755859
 21
0.248058557510376
 31
0.0
  0
LINE
  5
   1A5
  8
0
  6
CONTINUOUS
 62
     7
 10
-0.120750427246094
 20
1.15204155445099
 30
0.0
 11
-0.439617276191711
 21
0.833174705505371
 31
0.0
  0
LINE
  5
   1A6
  8
0
  6
CONTINUOUS
 62
     7
 10
-0.725392460823059
 20
0.547399520874023
 30
0.0
 11
-1.27279210090637
 21
1.13804191595359E-15
 31
0.0
  0
LINE
  5
   1A7
  8
0
  6
CONTINUOUS
 62
     7
 10
-0.301128476858139
 20
0.547399520874023
 30
0.0
 11
-0.848528027534485
 21
7.58694610635728E-16
 31
0.0
  0
LINE
  5
   1A8
  8
0
  6
CONTINUOUS
 62
     7
 10
0.0
 20
0.42426398396492
 30
0.0
 11
-0.424264013767242
 21
3.79347305317864E-16
 31
0.0
  0
LINE
  5
   1A9
  8
0
  6
CONTINUOUS
 62
     7
 10
0.0
 20
0.0
 30
0.0
 11
0.0
 21
2.64697796016969E-23
 31
0.0
  0
ENDBLK
  5
   1AA
  8
0
  6
CONTINUOUS
 62
     7
  0
BLOCK
  5
   1AB
  8
0
  6
CONTINUOUS
 62
     7
  2
*HATCH863
 70
    65
 10
0.0
 20
0.0
 30
0.0
  3
*HATCH863
  0
LINE
  5
   1AC
  8
0
  6
CONTINUOUS
 62
     7
 10
3.48652029037476
 20
2.2137279510498
 30
0.0
 11
2.70458126068115
 21
1.43178904056549
 31
0.0
  0
LINE
  5
   1AD
  8
0
  6
CONTINUOUS
 62
     7
 10
3.91079711914063
 20
2.21374082565308
 30
0.0
 11
3.36340570449829
 21
1.66634941101074
 31
0.0
  0
LINE
  5
   1AE
  8
0
  6
CONTINUOUS
 62
     7
 10
3.21820473670959
 20
1.52114868164063
 30
0.0
 11
2.82884836196899
 21
1.13179218769073
 31
0.0
  0
LINE
  5
   1AF
  8
0
  6
CONTINUOUS
 62
     7
 10
4.193603515625
 20
2.07228326797485
 30
0.0
 11
3.78766965866089
 21
1.66634941101074
 31
0.0
  0
LINE
  5
   1B0
  8
0
  6
CONTINUOUS
 62
     7
 10
3.51397061347961
 20
1.39265036582947
 30
0.0
 11
3.07839775085449
 21
0.95707768201828
 31
0.0
  0
LINE
  5
   1B1
  8
0
  6
CONTINUOUS
 62
     7
 10
3.8326587677002
 20
1.28707456588745
 30
0.0
 11
3.39083480834961
 21
0.84525054693222
 31
0.0
  0
LINE
  5
   1B2
  8
0
  6
CONTINUOUS
 62
     7
 10
3.09298372268677
 20
0.547399520874023
 30
0.0
 11
2.74460601806641
 21
0.199021905660629
 31
0.0
  0
LINE
  5
   1B3
  8
0
  6
CONTINUOUS
 62
     7
 10
4.0960488319397
 20
1.12620043754578
 30
0.0
 11
3.71637558937073
 21
0.746527493000031
 31
0.0
  0
LINE
  5
   1B4
  8
0
  6
CONTINUOUS
 62
     7
 10
3.51724767684937
 20
0.547399520874023
 30
0.0
 11
2.96985077857971
 21
2.7158998818777E-6
 31
0.0
  0
LINE
  5
   1B5
  8
0
  6
CONTINUOUS
 62
     7
 10
4.22031116485596
 20
0.826198935508728
 30
0.0
 11
3.39411997795105
 21
7.83154519012896E-6
 31
0.0
  0
LINE
  5
   1B6
  8
0
  6
CONTINUOUS
 62
     7
 10
4.10397624969482
 20
0.285600155591965
 30
0.0
 11
3.98851370811462
 21
0.17013755440712
 31
0.0
  0
ENDBLK
  5
   1B7
  8
0
  6
CONTINUOUS
 62
     7
  0
BLOCK
  5
   1B8
  8
0
  6
CONTINUOUS
 62
     7
  2
$5SACE
 70
    64
 10
0.0
 20
0.0
 30
0.0
  3
$5SACE
  0
LINE
  5
   1B9
  8
0
  6
CONTINUOUS
 62
     7
 10
-6.65164184570313
 20
0.84524965286255
 30
0.0
 11
-6.42221832275391
 21
0.84524965286255
 31
0.0
  0
LINE
  5
   1BA
  8
0
  6
CONTINUOUS
 62
     7
 10
-6.42220611590814
 20
0.845254519188986
 30
0.0
 11
-6.33467408742227
 21
0.816812141576352
 31
0.0
  0
LINE
  5
   1BB
  8
0
  6
CONTINUOUS
 62
     7
 10
-6.33467505266625
 20
0.816811912229196
 30
0.0
 11
-6.28057502527593
 21
0.742349507885549
 31
0.0
  0
LINE
  5
   1BC
  8
0
  6
CONTINUOUS
 62
     7
 10
-6.28058624267578
 20
0.650304317474365
 30
0.0
 11
-6.28058624267578
 21
0.742344856262207
 31
0.0
  0
LINE
  5
   1BD
  8
0
  6
CONTINUOUS
 62
     7
 10
-6.33467905122843
 20
0.575845194549703
 30
0.0
 11
-6.28057902383813
 21
0.65030759889333
 31
0.0
  0
LINE
  5
   1BE
  8
0
  6
CONTINUOUS
 62
     7
 10
-6.42220857841173
 20
0.5474028190401
 30
0.0
 11
-6.33467654992582
 21
0.575845196652747
 31
0.0
  0
LINE
  5
   1BF
  8
0
  6
CONTINUOUS
 62
     7
 10
-7.25539398193359
 20
0.547399520874025
 30
0.0
 11
-6.42221832275391
 21
0.547399520874025
 31
0.0
  0
LINE
  5
   1C0
  8
0
  6
CONTINUOUS
 62
     7
 10
-7.25539398193359
 20
0.0
 30
0.0
 11
-7.25539398193359
 21
0.547399520874023
 31
0.0
  0
LINE
  5
   1C1
  8
0
  6
CONTINUOUS
 62
     7
 10
-7.25539398193359
 20
1.29559252739714E-15
 30
0.0
 11
-6.42221832275391
 21
1.29559252739714E-15
 31
0.0
  0
LINE
  5
   1C2
  8
0
  6
CONTINUOUS
 62
     7
 10
-6.65164184570313
 20
1.39264965057373
 30
0.0
 11
-6.42221832275391
 21
1.39264965057373
 31
0.0
  0
LINE
  5
   1C3
  8
0
  6
CONTINUOUS
 62
     7
 10
-6.73207774966845
 20
1.41878793231365
 30
0.0
 11
-6.65163341489544
 21
1.39265201188207
 31
0.0
  0
LINE
  5
   1C4
  8
0
  6
CONTINUOUS
 62
     7
 10
-6.78179637679859
 20
1.48720936665429
 30
0.0
 11
-6.73208324200653
 21
1.41878418569267
 31
0.0
  0
LINE
  5
   1C5
  8
0
  6
CONTINUOUS
 62
     7
 10
-6.78179931640625
 20
1.48721075057983
 30
0.0
 11
-6.78179931640625
 21
1.57178831100464
 31
0.0
  0
LINE
  5
   1C6
  8
0
  6
CONTINUOUS
 62
     7
 10
-6.78178899286177
 20
1.57178600254942
 30
0.0
 11
-6.73207585806973
 21
1.64021118351102
 31
0.0
  0
LINE
  5
   1C7
  8
0
  6
CONTINUOUS
 62
     7
 10
-6.73207464437523
 20
1.64021722966892
 30
0.0
 11
-6.65163030960224
 21
1.66635315010049
 31
0.0
  0
LINE
  5
   1C8
  8
0
  6
CONTINUOUS
 62
     7
 10
-6.65164184570313
 20
1.66634941101074
 30
0.0
 11
-5.806396484375
 21
1.66634941101074
 31
0.0
  0
LINE
  5
   1C9
  8
0
  6
CONTINUOUS
 62
     7
 10
-5.806396484375
 20
1.66634941101074
 30
0.0
 11
-5.806396484375
 21
2.21374940872192
 31
0.0
  0
LINE
  5
   1CA
  8
0
  6
CONTINUOUS
 62
     7
 10
-6.65164184570313
 20
2.21374940872193
 30
0.0
 11
-5.806396484375
 21
2.21374940872193
 31
0.0
  0
LINE
  5
   1CB
  8
0
  6
CONTINUOUS
 62
     7
 10
-5.72589874267578
 20
1.29559252739714E-15
 30
0.0
 11
-5.15579986572266
 21
1.29559252739714E-15
 31
0.0
  0
LINE
  5
   1CC
  8
0
  6
CONTINUOUS
 62
     7
 10
-5.1557939203843
 20
1.58409603323584E-6
 30
0.0
 11
-5.02699448583549
 21
0.442751079827253
 31
0.0
  0
LINE
  5
   1CD
  8
0
  6
CONTINUOUS
 62
     7
 10
-5.02700042724609
 20
0.442749500274659
 30
0.0
 11
-4.41228485107422
 21
0.442749500274659
 31
0.0
  0
LINE
  5
   1CE
  8
0
  6
CONTINUOUS
 62
     7
 10
-4.41228013668901
 20
0.44275068065938
 30
0.0
 11
-4.2834807021402
 21
1.18492813605542E-6
 31
0.0
  0
LINE
  5
   1CF
  8
0
  6
CONTINUOUS
 62
     7
 10
-4.28348541259766
 20
1.29559252739714E-15
 30
0.0
 11
-3.71339416503906
 21
1.29559252739714E-15
 31
0.0
  0
LINE
  5
   1D0
  8
0
  6
CONTINUOUS
 62
     7
 10
-4.35739354898064
 20
2.21374974704771
 30
0.0
 11
-3.71338855826095
 21
-2.22490754153704E-7
 31
0.0
  0
LINE
  5
   1D1
  8
0
  6
CONTINUOUS
 62
     7
 10
-5.08189392089844
 20
2.21374940872193
 30
0.0
 11
-4.35739898681641
 21
2.21374940872193
 31
0.0
  0
LINE
  5
   1D2
  8
0
  6
CONTINUOUS
 62
     7
 10
-5.72589584497131
 20
-8.9938235985354E-6
 30
0.0
 11
-5.08189085425162
 21
2.21374097571487
 31
0.0
  0
LINE
  5
   1D3
  8
0
  6
CONTINUOUS
 62
     7
 10
-4.71963825721332
 20
1.49929173564375
 30
0.0
 11
-4.57152874572855
 21
0.990149564360234
 31
0.0
  0
LINE
  5
   1D4
  8
0
  6
CONTINUOUS
 62
     7
 10
-4.86775970458984
 20
0.990149497985841
 30
0.0
 11
-4.571533203125
 21
0.990149497985841
 31
0.0
  0
LINE
  5
   1D5
  8
0
  6
CONTINUOUS
 62
     7
 10
-4.86775077081381
 20
0.990150342992026
 30
0.0
 11
-4.71963371649822
 21
1.4992922341155
 31
0.0
  0
LINE
  5
   1D6
  8
0
  6
CONTINUOUS
 62
     7
 10
-3.56278593292238
 20
0.549459587100848
 30
0.0
 11
-3.38675290737703
 21
0.321762682109787
 31
0.0
  0
LINE
  5
   1D7
  8
0
  6
CONTINUOUS
 62
     7
 10
-3.38674988776631
 20
0.321757463405608
 30
0.0
 11
-3.15795960623514
 21
0.14714302843915
 31
0.0
  0
LINE
  5
   1D8
  8
0
  6
CONTINUOUS
 62
     7
 10
-3.15796427280975
 20
0.147145556821385
 30
0.0
 11
-2.89188914343168
 21
3.74196068128748E-2
 31
0.0
  0
LINE
  5
   1D9
  8
0
  6
CONTINUOUS
 62
     7
 10
-2.8918863014344
 20
3.74182762057862E-2
 30
0.0
 11
-2.60651643426088
 21
-8.77137409371898E-8
 31
0.0
  0
LINE
  5
   1DA
  8
0
  6
CONTINUOUS
 62
     7
 10
-2.6065123212118
 20
9.81649358466896E-7
 30
0.0
 11
-2.32114245403815
 21
3.74193455689014E-2
 31
0.0
  0
LINE
  5
   1DB
  8
0
  6
CONTINUOUS
 62
     7
 10
-2.32115153010861
 20
3.74184405847323E-2
 30
0.0
 11
-2.05507640073053
 21
0.147144390593243
 31
0.0
  0
LINE
  5
   1DC
  8
0
  6
CONTINUOUS
 62
     7
 10
-2.05506873210346
 20
0.147150154788858
 30
0.0
 11
-1.82627845057229
 21
0.321764589755317
 31
0.0
  0
LINE
  5
   1DD
  8
0
  6
CONTINUOUS
 62
     7
 10
-1.82628033847405
 20
0.321759408316239
 30
0.0
 11
-1.65023969094006
 21
0.549456298035748
 31
0.0
  0
LINE
  5
   1DE
  8
0
  6
CONTINUOUS
 62
     7
 10
-2.12316137878389
 20
0.825127035253691
 30
0.0
 11
-1.65023815182741
 21
0.549457975118036
 31
0.0
  0
LINE
  5
   1DF
  8
0
  6
CONTINUOUS
 62
     7
 10
-2.24808598157176
 20
0.677293469343914
 30
0.0
 11
-2.12316989668348
 21
0.825121583594019
 31
0.0
  0
LINE
  5
   1E0
  8
0
  6
CONTINUOUS
 62
     7
 10
-2.41589982592873
 20
0.580876247378224
 30
0.0
 11
-2.24808363129394
 21
0.677297507055141
 31
0.0
  0
LINE
  5
   1E1
  8
0
  6
CONTINUOUS
 62
     7
 10
-2.60651568365088
 20
0.547399641475173
 30
0.0
 11
-2.41589523762909
 21
0.580875516622462
 31
0.0
  0
LINE
  5
   1E2
  8
0
  6
CONTINUOUS
 62
     7
 10
-2.79714562109014
 20
0.580875730809506
 30
0.0
 11
-2.60652517506844
 21
0.547399855662232
 31
0.0
  0
LINE
  5
   1E3
  8
0
  6
CONTINUOUS
 62
     7
 10
-2.96495823289931
 20
0.677298823896134
 30
0.0
 11
-2.7971420382645
 21
0.580877564219204
 31
0.0
  0
LINE
  5
   1E4
  8
0
  6
CONTINUOUS
 62
     7
 10
-3.08987367938059
 20
0.825127877682344
 30
0.0
 11
-2.96495759449232
 21
0.677299763432247
 31
0.0
  0
LINE
  5
   1E5
  8
0
  6
CONTINUOUS
 62
     7
 10
-2.12315784078463
 20
1.38863138085445
 30
0.0
 11
-1.65023461382815
 21
1.6643004409901
 31
0.0
  0
LINE
  5
   1E6
  8
0
  6
CONTINUOUS
 62
     7
 10
-1.44899749755859
 20
0.0
 30
0.0
 11
-1.44899749755859
 21
2.21374893188477
 31
0.0
  0
LINE
  5
   1E7
  8
0
  6
CONTINUOUS
 62
     7
 10
-1.44899749755859
 20
1.29559252739714E-15
 30
0.0
 11
7.93321620838069E-32
 21
1.29559252739714E-15
 31
0.0
  0
LINE
  5
   1E8
  8
0
  6
CONTINUOUS
 62
     7
 10
0.0
 20
0.0
 30
0.0
 11
0.0
 21
0.547399520874023
 31
0.0
  0
LINE
  5
   1E9
  8
0
  6
CONTINUOUS
 62
     7
 10
-0.901596069335938
 20
0.547399520874025
 30
0.0
 11
3.35185535546584E-17
 21
0.547399520874025
 31
0.0
  0
LINE
  5
   1EA
  8
0
  6
CONTINUOUS
 62
     7
 10
-0.901596069335938
 20
0.547399520874023
 30
0.0
 11
-0.901596069335938
 21
0.833174705505371
 31
0.0
  0
LINE
  5
   1EB
  8
0
  6
CONTINUOUS
 62
     7
 10
-0.901596069335938
 20
0.833174705505373
 30
0.0
 11
-0.120750427246094
 21
0.833174705505373
 31
0.0
  0
LINE
  5
   1EC
  8
0
  6
CONTINUOUS
 62
     7
 10
-0.120750427246094
 20
0.833174705505371
 30
0.0
 11
-0.120750427246094
 21
1.38057470321655
 31
0.0
  0
LINE
  5
   1ED
  8
0
  6
CONTINUOUS
 62
     7
 10
-0.901596069335937
 20
1.38057470321655
 30
0.0
 11
-0.120750427246094
 21
1.38057470321655
 31
0.0
  0
LINE
  5
   1EE
  8
0
  6
CONTINUOUS
 62
     7
 10
-0.901596069335938
 20
1.38057470321655
 30
0.0
 11
-0.901596069335938
 21
1.66634938120842
 31
0.0
  0
LINE
  5
   1EF
  8
0
  6
CONTINUOUS
 62
     7
 10
-0.901596069335937
 20
1.66634941101074
 30
0.0
 11
1.02034473622769E-16
 21
1.66634941101074
 31
0.0
  0
LINE
  5
   1F0
  8
0
  6
CONTINUOUS
 62
     7
 10
0.0
 20
1.66634941101074
 30
0.0
 11
0.0
 21
2.21374940872192
 31
0.0
  0
LINE
  5
   1F1
  8
0
  6
CONTINUOUS
 62
     7
 10
-1.44899749755859
 20
2.21374940872193
 30
0.0
 11
1.35553056375283E-16
 21
2.21374940872193
 31
0.0
  0
ARC
  5
   1F2
  8
0
  6
CONTINUOUS
 62
     7
 10
-6.65167272329478
 20
1.52950251971625
 30
0.0
 40
0.684221325991138
 50
89.9975452090749
 51
270.002590974911
  0
ARC
  5
   1F3
  8
0
  6
CONTINUOUS
 62
     7
 10
-6.4222121249208
 20
0.696328140844565
 30
0.0
 40
0.696318094728419
 50
269.999920898491
 51
449.999499220325
  0
ARC
  5
   1F4
  8
0
  6
CONTINUOUS
 62
     7
 10
-2.60648164577671
 20
1.10683590907698
 30
0.0
 40
1.10692783346537
 50
30.24104526357
 51
210.235617348036
  0
ARC
  5
   1F5
  8
0
  6
CONTINUOUS
 62
     7
 10
-2.60650097665835
 20
1.10686381958204
 30
0.0
 40
0.5594873152035
 50
30.2406197505008
 51
210.236398393491
  0
INSERT
  5
   1F6
  8
0
  6
CONTINUOUS
 62
     7
  2
*HATCH859
 10
0.0
 20
0.0
 30
0.0
  0
INSERT
  5
   1F7
  8
0
  6
CONTINUOUS
 62
     7
  2
*HATCH860
 10
0.0
 20
0.0
 30
0.0
  0
INSERT
  5
   1F8
  8
0
  6
CONTINUOUS
 62
     7
  2
*HATCH861
 10
0.0
 20
0.0
 30
0.0
  0
INSERT
  5
   1F9
  8
0
  6
CONTINUOUS
 62
     7
  2
*HATCH862
 10
0.0
 20
0.0
 30
0.0
  0
INSERT
  5
   1FA
  8
0
  6
CONTINUOUS
 62
     7
  2
*HATCH863
 10
0.0
 20
0.0
 30
0.0
  0
LINE
  5
   1FB
  8
0
  6
CONTINUOUS
 62
     7
 10
3.34835815429688
 20
1.66634941101074
 30
0.0
 11
4.193603515625
 21
1.66634941101074
 31
0.0
  0
LINE
  5
   1FC
  8
0
  6
CONTINUOUS
 62
     7
 10
4.193603515625
 20
1.66634941101074
 30
0.0
 11
4.193603515625
 21
2.21374940872192
 31
0.0
  0
LINE
  5
   1FD
  8
0
  6
CONTINUOUS
 62
     7
 10
3.34835815429688
 20
2.21374940872193
 30
0.0
 11
4.193603515625
 21
2.21374940872193
 31
0.0
  0
ARC
  5
   1FE
  8
0
  6
CONTINUOUS
 62
     7
 10
3.34832727670522
 20
1.52950251971625
 30
0.0
 40
0.684221325991138
 50
89.9975452090749
 51
270.002590974911
  0
LINE
  5
   1FF
  8
0
  6
CONTINUOUS
 62
     7
 10
3.21820068359375
 20
1.48721075057983
 30
0.0
 11
3.21820068359375
 21
1.57178831100464
 31
0.0
  0
LINE
  5
   200
  8
0
  6
CONTINUOUS
 62
     7
 10
3.34835815429688
 20
1.39264965057373
 30
0.0
 11
3.57778167724609
 21
1.39264965057373
 31
0.0
  0
ARC
  5
   201
  8
0
  6
CONTINUOUS
 62
     7
 10
3.5777878750792
 20
0.696328140844565
 30
0.0
 40
0.696318094728419
 50
269.999920898491
 51
449.999499220325
  0
LINE
  5
   202
  8
0
  6
CONTINUOUS
 62
     7
 10
3.66532494733375
 20
0.8168119122292
 30
0.0
 11
3.71942497472407
 21
0.742349507885553
 31
0.0
  0
LINE
  5
   203
  8
0
  6
CONTINUOUS
 62
     7
 10
2.74460601806641
 20
0.547399520874025
 30
0.0
 11
3.57778167724609
 21
0.547399520874025
 31
0.0
  0
LINE
  5
   204
  8
0
  6
CONTINUOUS
 62
     7
 10
2.74460601806641
 20
1.29559252739714E-15
 30
0.0
 11
3.57778167724609
 21
1.29559252739714E-15
 31
0.0
  0
LINE
  5
   205
  8
0
  6
CONTINUOUS
 62
     7
 10
2.74460601806641
 20
0.0
 30
0.0
 11
2.74460601806641
 21
0.547399520874023
 31
0.0
  0
LINE
  5
   206
  8
0
  6
CONTINUOUS
 62
     7
 10
3.57779388409186
 20
0.845254519188985
 30
0.0
 11
3.66532591257773
 21
0.816812141576352
 31
0.0
  0
LINE
  5
   207
  8
0
  6
CONTINUOUS
 62
     7
 10
3.66532094877157
 20
0.5758451945497
 30
0.0
 11
3.71942097616187
 21
0.650307598893327
 31
0.0
  0
LINE
  5
   208
  8
0
  6
CONTINUOUS
 62
     7
 10
3.26792535562477
 20
1.64021722966892
 30
0.0
 11
3.34836969039776
 21
1.66635315010049
 31
0.0
  0
LINE
  5
   209
  8
0
  6
CONTINUOUS
 62
     7
 10
3.26792225033155
 20
1.41878793231365
 30
0.0
 11
3.34836658510456
 21
1.39265201188207
 31
0.0
  0
LINE
  5
   20A
  8
0
  6
CONTINUOUS
 62
     7
 10
3.66532094877157
 20
0.5758451945497
 30
0.0
 11
3.71942097616187
 21
0.650307598893327
 31
0.0
  0
ENDBLK
  5
   20B
  8
0
  6
CONTINUOUS
 62
     7
  0
BLOCK
  5
   20C
  8
0
  6
CONTINUOUS
 62
     7
  2
*HATCH864
 70
    65
 10
0.0
 20
0.0
 30
0.0
  3
*HATCH864
  0
LINE
  5
   20D
  8
0
  6
CONTINUOUS
 62
     7
 10
-3.7039635181427
 20
2.659996509552
 30
0.0
 11
-4.09285688400269
 21
2.27110314369202
 31
0.0
  0
LINE
  5
   20E
  8
0
  6
CONTINUOUS
 62
     7
 10
-3.6409957408905
 20
2.2987003326416
 30
0.0
 11
-4.3212947845459
 21
1.61840128898621
 31
0.0
  0
LINE
  5
   20F
  8
0
  6
CONTINUOUS
 62
     7
 10
-3.6409957408905
 20
1.87443625926971
 30
0.0
 11
-4.10218858718872
 21
1.41324353218079
 31
0.0
  0
LINE
  5
   210
  8
0
  6
CONTINUOUS
 62
     7
 10
-3.6409957408905
 20
1.45017230510712
 30
0.0
 11
-3.67792463302612
 21
1.41324353218079
 31
0.0
  0
ENDBLK
  5
   211
  8
0
  6
CONTINUOUS
 62
     7
  0
BLOCK
  5
   212
  8
0
  6
CONTINUOUS
 62
     7
  2
*HATCH865
 70
    65
 10
0.0
 20
0.0
 30
0.0
  3
*HATCH865
  0
LINE
  5
   213
  8
0
  6
CONTINUOUS
 62
     7
 10
-4.26868629455566
 20
1.24674582481384
 30
0.0
 11
-4.54975318908691
 21
0.965678870677948
 31
0.0
  0
LINE
  5
   214
  8
0
  6
CONTINUOUS
 62
     7
 10
-3.84442234039307
 20
1.24674582481384
 30
0.0
 11
-4.77821111679077
 21
0.312956929206848
 31
0.0
  0
LINE
  5
   215
  8
0
  6
CONTINUOUS
 62
     7
 10
-3.6409957408905
 20
1.02590835094452
 30
0.0
 11
-4.66690492630005
 21
-4.98909855650709E-7
 31
0.0
  0
LINE
  5
   216
  8
0
  6
CONTINUOUS
 62
     7
 10
-3.6409957408905
 20
0.601644337177277
 30
0.0
 11
-3.71064043045044
 21
0.531999588012695
 31
0.0
  0
LINE
  5
   217
  8
0
  6
CONTINUOUS
 62
     7
 10
-4.21202754974365
 20
3.06128244847059E-2
 30
0.0
 11
-4.24264144897461
 21
-1.45736464673973E-6
 31
0.0
  0
ENDBLK
  5
   218
  8
0
  6
CONTINUOUS
 62
     7
  0
BLOCK
  5
   219
  8
0
  6
CONTINUOUS
 62
     7
  2
*HATCH866
 70
    65
 10
0.0
 20
0.0
 30
0.0
  3
*HATCH866
  0
LINE
  5
   21A
  8
0
  6
CONTINUOUS
 62
     7
 10
-3.42015838623047
 20
1.24674582481384
 30
0.0
 11
-3.47449803352356
 21
1.19240605831146
 31
0.0
  0
LINE
  5
   21B
  8
0
  6
CONTINUOUS
 62
     7
 10
-2.99589443206787
 20
1.24674582481384
 30
0.0
 11
-3.47449803352356
 21
0.768142104148865
 31
0.0
  0
LINE
  5
   21C
  8
0
  6
CONTINUOUS
 62
     7
 10
-2.64012384414673
 20
1.17825222015381
 30
0.0
 11
-3.28637623786926
 21
0.532000005245209
 31
0.0
  0
LINE
  5
   21D
  8
0
  6
CONTINUOUS
 62
     7
 10
-2.53012871742249
 20
0.863983333110809
 30
0.0
 11
-3.02272534370422
 21
0.371386826038361
 31
0.0
  0
LINE
  5
   21E
  8
0
  6
CONTINUOUS
 62
     7
 10
-2.42013359069824
 20
0.54971444606781
 30
0.0
 11
-2.91273474693298
 21
0.057113379240036
 31
0.0
  0
LINE
  5
   21F
  8
0
  6
CONTINUOUS
 62
     7
 10
-2.310138463974
 20
0.235445529222488
 30
0.0
 11
-2.54558539390564
 21
-1.36076994294854E-6
 31
0.0
  0
ENDBLK
  5
   220
  8
0
  6
CONTINUOUS
 62
     7
  0
BLOCK
  5
   221
  8
0
  6
CONTINUOUS
 62
     7
  2
*HATCH867
 70
    65
 10
0.0
 20
0.0
 30
0.0
  3
*HATCH867
  0
LINE
  5
   222
  8
0
  6
CONTINUOUS
 62
     7
 10
-3.27970123291016
 20
2.65999484062195
 30
0.0
 11
-3.47449803352356
 21
2.46519804000854
 31
0.0
  0
LINE
  5
   223
  8
0
  6
CONTINUOUS
 62
     7
 10
-3.08010387420654
 20
2.43532824516296
 30
0.0
 11
-3.47449803352356
 21
2.04093408584595
 31
0.0
  0
LINE
  5
   224
  8
0
  6
CONTINUOUS
 62
     7
 10
-2.97010922431946
 20
2.12105894088745
 30
0.0
 11
-3.47449803352356
 21
1.61667013168335
 31
0.0
  0
LINE
  5
   225
  8
0
  6
CONTINUOUS
 62
     7
 10
-2.86011457443237
 20
1.80678939819336
 30
0.0
 11
-3.25366044044495
 21
1.41324353218079
 31
0.0
  0
LINE
  5
   226
  8
0
  6
CONTINUOUS
 62
     7
 10
-2.75011992454529
 20
1.49252009391785
 30
0.0
 11
-2.82939648628235
 21
1.41324353218079
 31
0.0
  0
ENDBLK
  5
   227
  8
0
  6
CONTINUOUS
 62
     7
  0
BLOCK
  5
   228
  8
0
  6
CONTINUOUS
 62
     7
  2
*HATCH868
 70
    65
 10
0.0
 20
0.0
 30
0.0
  3
*HATCH868
  0
LINE
  5
   229
  8
0
  6
CONTINUOUS
 62
     7
 10
-2.00690746307373
 20
2.659996509552
 30
0.0
 11
-2.06149291992188
 21
2.60541105270386
 31
0.0
  0
LINE
  5
   22A
  8
0
  6
CONTINUOUS
 62
     7
 10
-1.58264350891113
 20
2.659996509552
 30
0.0
 11
-2.06149291992188
 21
2.18114709854126
 31
0.0
  0
LINE
  5
   22B
  8
0
  6
CONTINUOUS
 62
     7
 10
-1.34674525260925
 20
2.47163057327271
 30
0.0
 11
-2.06149291992188
 21
1.75688314437866
 31
0.0
  0
LINE
  5
   22C
  8
0
  6
CONTINUOUS
 62
     7
 10
-1.34674525260925
 20
2.04736661911011
 30
0.0
 11
-1.98086845874786
 21
1.41324353218079
 31
0.0
  0
LINE
  5
   22D
  8
0
  6
CONTINUOUS
 62
     7
 10
-1.34674525260925
 20
1.62310266494751
 30
0.0
 11
-1.55660438537598
 21
1.41324353218079
 31
0.0
  0
ENDBLK
  5
   22E
  8
0
  6
CONTINUOUS
 62
     7
  0
BLOCK
  5
   22F
  8
0
  6
CONTINUOUS
 62
     7
  2
*HATCH869
 70
    65
 10
0.0
 20
0.0
 30
0.0
  3
*HATCH869
  0
LINE
  5
   230
  8
0
  6
CONTINUOUS
 62
     7
 10
-1.72310221195221
 20
1.24674582481384
 30
0.0
 11
-2.06149291992188
 21
0.908355116844177
 31
0.0
  0
LINE
  5
   231
  8
0
  6
CONTINUOUS
 62
     7
 10
-1.34674525260925
 20
1.19883871078491
 30
0.0
 11
-2.06149291992188
 21
0.484091132879257
 31
0.0
  0
LINE
  5
   232
  8
0
  6
CONTINUOUS
 62
     7
 10
-1.34674525260925
 20
0.774574756622314
 30
0.0
 11
-2.06149291992188
 21
5.98271489143372E-2
 31
0.0
  0
LINE
  5
   233
  8
0
  6
CONTINUOUS
 62
     7
 10
-1.34674525260925
 20
0.350310742855072
 30
0.0
 11
-1.69705605506897
 21
6.53578086579266E-16
 31
0.0
  0
ENDBLK
  5
   234
  8
0
  6
CONTINUOUS
 62
     7
  0
BLOCK
  5
   235
  8
0
  6
CONTINUOUS
 62
     7
  2
*HATCH870
 70
    65
 10
0.0
 20
0.0
 30
0.0
  3
*HATCH870
  0
LINE
  5
   236
  8
0
  6
CONTINUOUS
 62
     7
 10
-1.15837943553925
 20
2.659996509552
 30
0.0
 11
-1.18024754524231
 21
2.63812851905823
 31
0.0
  0
LINE
  5
   237
  8
0
  6
CONTINUOUS
 62
     7
 10
-0.823453903198242
 20
2.57065796852112
 30
0.0
 11
-1.18024754524231
 21
2.21386456489563
 31
0.0
  0
LINE
  5
   238
  8
0
  6
CONTINUOUS
 62
     7
 10
-0.5418501496315
 20
2.42799782752991
 30
0.0
 11
-1.18024754524231
 21
1.78960049152374
 31
0.0
  0
LINE
  5
   239
  8
0
  6
CONTINUOUS
 62
     7
 10
-0.449764907360077
 20
2.09581899642944
 30
0.0
 11
-1.13234043121338
 21
1.41324353218079
 31
0.0
  0
LINE
  5
   23A
  8
0
  6
CONTINUOUS
 62
     7
 10
-0.638074100017548
 20
1.48324584960938
 30
0.0
 11
-0.708076417446136
 21
1.41324353218079
 31
0.0
  0
ENDBLK
  5
   23B
  8
0
  6
CONTINUOUS
 62
     7
  0
BLOCK
  5
   23C
  8
0
  6
CONTINUOUS
 62
     7
  2
*HATCH871
 70
    65
 10
0.0
 20
0.0
 30
0.0
  3
*HATCH871
  0
LINE
  5
   23D
  8
0
  6
CONTINUOUS
 62
     7
 10
-0.874574244022369
 20
1.24674582481384
 30
0.0
 11
-1.18024754524231
 21
0.941072523593903
 31
0.0
  0
LINE
  5
   23E
  8
0
  6
CONTINUOUS
 62
     7
 10
-0.450310230255127
 20
1.24674582481384
 30
0.0
 11
-1.18024754524231
 21
0.51680850982666
 31
0.0
  0
LINE
  5
   23F
  8
0
  6
CONTINUOUS
 62
     7
 10
-0.281659334897995
 20
0.991132616996765
 30
0.0
 11
-1.18024754524231
 21
9.25445482134819E-2
 31
0.0
  0
LINE
  5
   240
  8
0
  6
CONTINUOUS
 62
     7
 10
-0.263972669839859
 20
0.584555327892303
 30
0.0
 11
-0.764747977256775
 21
8.37800353765488E-2
 31
0.0
  0
ENDBLK
  5
   241
  8
0
  6
CONTINUOUS
 62
     7
  0
BLOCK
  5
   242
  8
0
  6
CONTINUOUS
 62
     7
  2
*HATCH872
 70
    65
 10
0.0
 20
0.0
 30
0.0
  3
*HATCH872
  0
LINE
  5
   243
  8
0
  6
CONTINUOUS
 62
     7
 10
0.114412605762482
 20
2.659996509552
 30
0.0
 11
0.0
 21
2.54558396339417
 31
0.0
  0
LINE
  5
   244
  8
0
  6
CONTINUOUS
 62
     7
 10
0.538676619529724
 20
2.659996509552
 30
0.0
 11
0.0
 21
2.12132000923157
 31
0.0
  0
LINE
  5
   245
  8
0
  6
CONTINUOUS
 62
     7
 10
0.714747607707977
 20
2.41180348396301
 30
0.0
 11
0.0
 21
1.69705593585968
 31
0.0
  0
LINE
  5
   246
  8
0
  6
CONTINUOUS
 62
     7
 10
0.714747607707977
 20
1.98753952980042
 30
0.0
 11
0.140451639890671
 21
1.41324353218079
 31
0.0
  0
LINE
  5
   247
  8
0
  6
CONTINUOUS
 62
     7
 10
0.714747607707977
 20
1.56327557563782
 30
0.0
 11
0.564715623855591
 21
1.41324353218079
 31
0.0
  0
ENDBLK
  5
   248
  8
0
  6
CONTINUOUS
 62
     7
  0
BLOCK
  5
   249
  8
0
  6
CONTINUOUS
 62
     7
  2
*HATCH873
 70
    65
 10
0.0
 20
0.0
 30
0.0
  3
*HATCH873
  0
LINE
  5
   24A
  8
0
  6
CONTINUOUS
 62
     7
 10
0.962940633296967
 20
2.659996509552
 30
0.0
 11
0.88124543428421
 21
2.57830119132996
 31
0.0
  0
LINE
  5
   24B
  8
0
  6
CONTINUOUS
 62
     7
 10
1.2789386510849
 20
2.55173063278198
 30
0.0
 11
0.88124543428421
 21
2.15403723716736
 31
0.0
  0
LINE
  5
   24C
  8
0
  6
CONTINUOUS
 62
     7
 10
1.53262805938721
 20
2.3811559677124
 30
0.0
 11
0.88124543428421
 21
1.72977328300476
 31
0.0
  0
LINE
  5
   24D
  8
0
  6
CONTINUOUS
 62
     7
 10
1.62471330165863
 20
2.04897713661194
 30
0.0
 11
0.988979697227478
 21
1.41324353218079
 31
0.0
  0
LINE
  5
   24E
  8
0
  6
CONTINUOUS
 62
     7
 10
1.46331548690796
 20
1.46331536769867
 30
0.0
 11
1.41324365139008
 21
1.41324353218079
 31
0.0
  0
ENDBLK
  5
   24F
  8
0
  6
CONTINUOUS
 62
     7
  0
BLOCK
  5
   250
  8
0
  6
CONTINUOUS
 62
     7
  2
*HATCH874
 70
    65
 10
0.0
 20
0.0
 30
0.0
  3
*HATCH874
  0
LINE
  5
   251
  8
0
  6
CONTINUOUS
 62
     7
 10
0.39821782708168
 20
1.24674582481384
 30
0.0
 11
0.0
 21
0.84852796792984
 31
0.0
  0
LINE
  5
   252
  8
0
  6
CONTINUOUS
 62
     7
 10
0.714747607707977
 20
1.13901150226593
 30
0.0
 11
0.0
 21
0.42426398396492
 31
0.0
  0
LINE
  5
   253
  8
0
  6
CONTINUOUS
 62
     7
 10
0.714747607707977
 20
0.714747548103333
 30
0.0
 11
0.0
 21
0.0
 31
0.0
  0
LINE
  5
   254
  8
0
  6
CONTINUOUS
 62
     7
 10
0.714747607707977
 20
0.290483593940735
 30
0.0
 11
0.424264013767242
 21
7.91553348000328E-16
 31
0.0
  0
ENDBLK
  5
   255
  8
0
  6
CONTINUOUS
 62
     7
  0
BLOCK
  5
   256
  8
0
  6
CONTINUOUS
 62
     7
  2
*HATCH875
 70
    65
 10
0.0
 20
0.0
 30
0.0
  3
*HATCH875
  0
LINE
  5
   257
  8
0
  6
CONTINUOUS
 62
     7
 10
1.24674582481384
 20
1.24674582481384
 30
0.0
 11
0.88124543428421
 21
0.881245374679565
 31
0.0
  0
LINE
  5
   258
  8
0
  6
CONTINUOUS
 62
     7
 10
1.67100977897644
 20
1.24674582481384
 30
0.0
 11
0.88124543428421
 21
0.456981390714645
 31
0.0
  0
LINE
  5
   259
  8
0
  6
CONTINUOUS
 62
     7
 10
1.79262113571167
 20
0.944092988967896
 30
0.0
 11
0.88124543428421
 21
3.27173843979836E-2
 31
0.0
  0
LINE
  5
   25A
  8
0
  6
CONTINUOUS
 62
     7
 10
1.73607635498047
 20
0.463284254074097
 30
0.0
 11
1.39401113986969
 21
0.121219135820866
 31
0.0
  0
ENDBLK
  5
   25B
  8
0
  6
CONTINUOUS
 62
     7
  0
BLOCK
  5
   25C
  8
0
  6
CONTINUOUS
 62
     7
  2
$5ABB
 70
    64
 10
0.0
 20
0.0
 30
0.0
  3
$5ABB
  0
LINE
  5
   25D
  8
0
  6
CONTINUOUS
 62
     7
 10
-4.39309755866065
 20
1.41324357986451
 30
0.0
 11
-3.95674135031761
 21
2.65999238488041
 31
0.0
  0
LINE
  5
   25E
  8
0
  6
CONTINUOUS
 62
     7
 10
-4.88774871826172
 20
1.33351129624183E-15
 30
0.0
 11
-4.22274780273438
 21
1.33351129624183E-15
 31
0.0
  0
LINE
  5
   25F
  8
0
  6
CONTINUOUS
 62
     7
 10
-4.22274218828809
 20
-1.50231959361591E-6
 30
0.0
 11
-4.0365391926282
 21
0.531998110619613
 31
0.0
  0
LINE
  5
   260
  8
0
  6
CONTINUOUS
 62
     7
 10
-4.03654479980469
 20
0.531999588012697
 30
0.0
 11
-3.64099578857422
 21
0.531999588012697
 31
0.0
  0
LINE
  5
   261
  8
0
  6
CONTINUOUS
 62
     7
 10
-4.88774327593104
 20
-2.42794669125246E-6
 30
0.0
 11
-4.45137756989492
 21
1.24674577713013
 31
0.0
  0
LINE
  5
   262
  8
0
  6
CONTINUOUS
 62
     7
 10
-2.66409674425225
 20
1.24674577713013
 30
0.0
 11
-2.22773097566292
 21
-2.60666856599645E-6
 31
0.0
  0
LINE
  5
   263
  8
0
  6
CONTINUOUS
 62
     7
 10
-3.47449798583984
 20
0.531999588012697
 30
0.0
 11
-3.07894897460938
 21
0.531999588012697
 31
0.0
  0
LINE
  5
   264
  8
0
  6
CONTINUOUS
 62
     7
 10
-3.07893739163377
 20
0.532000427880589
 30
0.0
 11
-2.89273439597387
 21
8.14941383042722E-7
 31
0.0
  0
LINE
  5
   265
  8
0
  6
CONTINUOUS
 62
     7
 10
-2.89274597167969
 20
1.33351129624183E-15
 30
0.0
 11
-2.22774505615234
 21
1.33351129624183E-15
 31
0.0
  0
LINE
  5
   266
  8
0
  6
CONTINUOUS
 62
     7
 10
-3.15873717506253
 20
2.65999387867798
 30
0.0
 11
-2.72237316510625
 21
1.4132435798645
 31
0.0
  0
LINE
  5
   267
  8
0
  6
CONTINUOUS
 62
     7
 10
-2.06149291992188
 20
1.33351129624183E-15
 30
0.0
 11
-1.34674530029297
 21
1.33351129624183E-15
 31
0.0
  0
LINE
  5
   268
  8
0
  6
CONTINUOUS
 62
     7
 10
-0.698249011125256
 20
1.51330638523267
 30
0.0
 11
-0.497944258065633
 21
1.4132435798645
 31
0.0
  0
LINE
  5
   269
  8
0
  6
CONTINUOUS
 62
     7
 10
-1.18024749755859
 20
1.33351129624183E-15
 30
0.0
 11
-0.982933044433594
 21
1.33351129624183E-15
 31
0.0
  0
LINE
  5
   26A
  8
0
  6
CONTINUOUS
 62
     7
 10
-2.06149291992188
 20
0.0
 30
0.0
 11
-2.06149291992188
 21
1.24674577713013
 31
0.0
  0
LINE
  5
   26B
  8
0
  6
CONTINUOUS
 62
     7
 10
-3.95674896240234
 20
2.659996509552
 30
0.0
 11
-3.64099578857422
 21
2.659996509552
 31
0.0
  0
LINE
  5
   26C
  8
0
  6
CONTINUOUS
 62
     7
 10
-3.47449798583984
 20
2.659996509552
 30
0.0
 11
-3.15874481201172
 21
2.659996509552
 31
0.0
  0
LINE
  5
   26D
  8
0
  6
CONTINUOUS
 62
     7
 10
-2.06149291992188
 20
2.659996509552
 30
0.0
 11
-1.34674530029297
 21
2.659996509552
 31
0.0
  0
LINE
  5
   26E
  8
0
  6
CONTINUOUS
 62
     7
 10
-1.18024749755859
 20
2.659996509552
 30
0.0
 11
-1.01650238037109
 21
2.659996509552
 31
0.0
  0
LINE
  5
   26F
  8
0
  6
CONTINUOUS
 62
     7
 10
-3.47449798583984
 20
1.4132435798645
 30
0.0
 11
-3.47449798583984
 21
2.659996509552
 31
0.0
  0
LINE
  5
   270
  8
0
  6
CONTINUOUS
 62
     7
 10
-3.47449798583984
 20
0.531999588012695
 30
0.0
 11
-3.47449798583984
 21
1.24674577713013
 31
0.0
  0
LINE
  5
   271
  8
0
  6
CONTINUOUS
 62
     7
 10
-3.64099578857422
 20
1.4132435798645
 30
0.0
 11
-3.64099578857422
 21
2.659996509552
 31
0.0
  0
LINE
  5
   272
  8
0
  6
CONTINUOUS
 62
     7
 10
-3.64099578857422
 20
0.531999588012695
 30
0.0
 11
-3.64099578857422
 21
1.24674577713013
 31
0.0
  0
LINE
  5
   273
  8
0
  6
CONTINUOUS
 62
     7
 10
-4.39309755866065
 20
1.4132435798645
 30
0.0
 11
-3.64099578857422
 21
1.4132435798645
 31
0.0
  0
LINE
  5
   274
  8
0
  6
CONTINUOUS
 62
     7
 10
-4.45137756989492
 20
1.24674577713013
 30
0.0
 11
-3.64099578857422
 21
1.24674577713013
 31
0.0
  0
LINE
  5
   275
  8
0
  6
CONTINUOUS
 62
     7
 10
-3.47449798583984
 20
1.24674577713013
 30
0.0
 11
-2.66409674425225
 21
1.24674577713013
 31
0.0
  0
LINE
  5
   276
  8
0
  6
CONTINUOUS
 62
     7
 10
-1.34674530029297
 20
1.4132435798645
 30
0.0
 11
-1.34674530029297
 21
2.659996509552
 31
0.0
  0
LINE
  5
   277
  8
0
  6
CONTINUOUS
 62
     7
 10
-2.06149291992188
 20
1.4132435798645
 30
0.0
 11
-1.34674530029297
 21
1.4132435798645
 31
0.0
  0
LINE
  5
   278
  8
0
  6
CONTINUOUS
 62
     7
 10
-1.18024749755859
 20
1.4132435798645
 30
0.0
 11
-1.18024749755859
 21
2.659996509552
 31
0.0
  0
LINE
  5
   279
  8
0
  6
CONTINUOUS
 62
     7
 10
-1.18024749755859
 20
1.4132435798645
 30
0.0
 11
-0.497944258065633
 21
1.4132435798645
 31
0.0
  0
LINE
  5
   27A
  8
0
  6
CONTINUOUS
 62
     7
 10
-2.06149291992188
 20
1.24674577713013
 30
0.0
 11
-1.34674530029297
 21
1.24674577713013
 31
0.0
  0
LINE
  5
   27B
  8
0
  6
CONTINUOUS
 62
     7
 10
-1.18024749755859
 20
1.24674577713013
 30
0.0
 11
-0.351146494976341
 21
1.24674577713013
 31
0.0
  0
LINE
  5
   27C
  8
0
  6
CONTINUOUS
 62
     7
 10
-1.18024749755859
 20
0.0
 30
0.0
 11
-1.18024749755859
 21
1.24674577713013
 31
0.0
  0
LINE
  5
   27D
  8
0
  6
CONTINUOUS
 62
     7
 10
-1.34674530029297
 20
0.0
 30
0.0
 11
-1.34674530029297
 21
1.24674577713013
 31
0.0
  0
ARC
  5
   27E
  8
0
  6
CONTINUOUS
 62
     7
 10
-1.01636629288394
 20
2.0426469527994
 30
0.0
 40
0.617302755021266
 50
300.988438672012
 51
450.0
  0
ARC
  5
   27F
  8
0
  6
CONTINUOUS
 62
     7
 10
-0.983116632612569
 20
0.783417365308862
 30
0.0
 40
0.783619468916367
 50
270.01347311298
 51
396.246977192996
  0
LINE
  5
   280
  8
0
  6
CONTINUOUS
 62
     7
 10
-2.06149291992188
 20
1.4132435798645
 30
0.0
 11
-2.06149291992188
 21
2.659996509552
 31
0.0
  0
LINE
  5
   281
  8
0
  6
CONTINUOUS
 62
     7
 10
-3.47449798583984
 20
1.4132435798645
 30
0.0
 11
-2.72237316510625
 21
1.4132435798645
 31
0.0
  0
LINE
  5
   282
  8
0
  6
CONTINUOUS
 62
     7
 10
0.0
 20
1.33351129624183E-15
 30
0.0
 11
0.714747619628906
 21
1.33351129624183E-15
 31
0.0
  0
LINE
  5
   283
  8
0
  6
CONTINUOUS
 62
     7
 10
1.36324390879662
 20
1.51330638523267
 30
0.0
 11
1.56354866185624
 21
1.4132435798645
 31
0.0
  0
LINE
  5
   284
  8
0
  6
CONTINUOUS
 62
     7
 10
0.881245422363281
 20
1.33351129624183E-15
 30
0.0
 11
1.07855987548828
 21
1.33351129624183E-15
 31
0.0
  0
LINE
  5
   285
  8
0
  6
CONTINUOUS
 62
     7
 10
0.0
 20
0.0
 30
0.0
 11
0.0
 21
1.24674577713013
 31
0.0
  0
LINE
  5
   286
  8
0
  6
CONTINUOUS
 62
     7
 10
0.0
 20
2.659996509552
 30
0.0
 11
0.714747619628906
 21
2.659996509552
 31
0.0
  0
LINE
  5
   287
  8
0
  6
CONTINUOUS
 62
     7
 10
0.881245422363281
 20
2.659996509552
 30
0.0
 11
1.04499053955078
 21
2.659996509552
 31
0.0
  0
LINE
  5
   288
  8
0
  6
CONTINUOUS
 62
     7
 10
0.714747619628906
 20
1.4132435798645
 30
0.0
 11
0.714747619628906
 21
2.659996509552
 31
0.0
  0
LINE
  5
   289
  8
0
  6
CONTINUOUS
 62
     7
 10
0.0
 20
1.4132435798645
 30
0.0
 11
0.714747619628906
 21
1.4132435798645
 31
0.0
  0
LINE
  5
   28A
  8
0
  6
CONTINUOUS
 62
     7
 10
0.881245422363281
 20
1.4132435798645
 30
0.0
 11
0.881245422363281
 21
2.659996509552
 31
0.0
  0
LINE
  5
   28B
  8
0
  6
CONTINUOUS
 62
     7
 10
0.881245422363281
 20
1.4132435798645
 30
0.0
 11
1.56354866185624
 21
1.4132435798645
 31
0.0
  0
LINE
  5
   28C
  8
0
  6
CONTINUOUS
 62
     7
 10
0.0
 20
1.24674577713013
 30
0.0
 11
0.714747619628906
 21
1.24674577713013
 31
0.0
  0
LINE
  5
   28D
  8
0
  6
CONTINUOUS
 62
     7
 10
0.881245422363281
 20
1.24674577713013
 30
0.0
 11
1.71034642494553
 21
1.24674577713013
 31
0.0
  0
LINE
  5
   28E
  8
0
  6
CONTINUOUS
 62
     7
 10
0.881245422363281
 20
0.0
 30
0.0
 11
0.881245422363281
 21
1.24674577713013
 31
0.0
  0
LINE
  5
   28F
  8
0
  6
CONTINUOUS
 62
     7
 10
0.714747619628906
 20
0.0
 30
0.0
 11
0.714747619628906
 21
1.24674577713013
 31
0.0
  0
ARC
  5
   290
  8
0
  6
CONTINUOUS
 62
     7
 10
1.04512662703793
 20
2.0426469527994
 30
0.0
 40
0.617302755021266
 50
300.988438672012
 51
450.0
  0
ARC
  5
   291
  8
0
  6
CONTINUOUS
 62
     7
 10
1.07837628730931
 20
0.783417365308862
 30
0.0
 40
0.783619468916367
 50
270.01347311298
 51
396.246977192996
  0
LINE
  5
   292
  8
0
  6
CONTINUOUS
 62
     7
 10
0.0
 20
1.4132435798645
 30
0.0
 11
0.0
 21
2.659996509552
 31
0.0
  0
INSERT
  5
   293
  8
0
  6
CONTINUOUS
 62
     7
  2
*HATCH864
 10
0.0
 20
0.0
 30
0.0
  0
INSERT
  5
   294
  8
0
  6
CONTINUOUS
 62
     7
  2
*HATCH865
 10
0.0
 20
0.0
 30
0.0
  0
INSERT
  5
   295
  8
0
  6
CONTINUOUS
 62
     7
  2
*HATCH866
 10
0.0
 20
0.0
 30
0.0
  0
INSERT
  5
   296
  8
0
  6
CONTINUOUS
 62
     7
  2
*HATCH867
 10
0.0
 20
0.0
 30
0.0
  0
INSERT
  5
   297
  8
0
  6
CONTINUOUS
 62
     7
  2
*HATCH868
 10
0.0
 20
0.0
 30
0.0
  0
INSERT
  5
   298
  8
0
  6
CONTINUOUS
 62
     7
  2
*HATCH869
 10
0.0
 20
0.0
 30
0.0
  0
INSERT
  5
   299
  8
0
  6
CONTINUOUS
 62
     7
  2
*HATCH870
 10
0.0
 20
0.0
 30
0.0
  0
INSERT
  5
   29A
  8
0
  6
CONTINUOUS
 62
     7
  2
*HATCH871
 10
0.0
 20
0.0
 30
0.0
  0
INSERT
  5
   29B
  8
0
  6
CONTINUOUS
 62
     7
  2
*HATCH872
 10
0.0
 20
0.0
 30
0.0
  0
INSERT
  5
   29C
  8
0
  6
CONTINUOUS
 62
     7
  2
*HATCH873
 10
0.0
 20
0.0
 30
0.0
  0
INSERT
  5
   29D
  8
0
  6
CONTINUOUS
 62
     7
  2
*HATCH874
 10
0.0
 20
0.0
 30
0.0
  0
INSERT
  5
   29E
  8
0
  6
CONTINUOUS
 62
     7
  2
*HATCH875
 10
0.0
 20
0.0
 30
0.0
  0
ENDBLK
  5
   29F
  8
0
  6
CONTINUOUS
 62
     7
  0
ENDSEC
  0
SECTION
  2
ENTITIES
  0
LINE
  5
   2A0
  8
0
  6
CONTINUOUS
 62
     7
 10
-41.9408950805608
 20
53.4625430135429
 30
0.0
 11
-41.9408950805608
 21
163.462527754754
 31
0.0
  0
LINE
  5
   2A1
  8
0
  6
CONTINUOUS
 62
     7
 10
-41.9408920288121
 20
73.9625549316475
 30
0.0
 11
-21.7514885564932
 21
73.9625549316475
 31
0.0
  0
LINE
  5
   2A2
  8
0
  6
CONTINUOUS
 62
     7
 10
-41.9408988952657
 20
118.962554931636
 30
0.0
 11
-21.7514885564932
 21
118.962554931636
 31
0.0
  0
LINE
  5
   2A3
  8
0
  6
CONTINUOUS
 62
     7
 10
-40.9409347534119
 20
62.9625431661261
 30
0.0
 11
-21.7514885564932
 21
62.9625431661261
 31
0.0
  0
ARC
  5
   2A4
  8
0
  6
CONTINUOUS
 62
     7
 10
-38.4409368133502
 20
167.462527907337
 30
0.0
 40
1.0
 50
90.0
 51
180.00000874264
  0
ARC
  5
   2A5
  8
0
  6
CONTINUOUS
 62
     7
 10
-38.4409368133502
 20
49.4625279073371
 30
0.0
 40
1.0
 50
179.99999125736
 51
270.0
  0
LINE
  5
   2A6
  8
0
  6
CONTINUOUS
 62
     7
 10
-41.9408905792257
 20
64.4625431661261
 30
0.0
 11
-21.7514885564932
 21
64.4625431661261
 31
0.0
  0
LINE
  5
   2A7
  8
0
  6
CONTINUOUS
 62
     7
 10
-40.9409300231874
 20
62.9625431661261
 30
0.0
 11
-40.9409300231874
 21
64.4625431661261
 31
0.0
  0
LINE
  5
   2A8
  8
0
  6
CONTINUOUS
 62
     7
 10
-40.9409255981385
 20
152.462512648548
 30
0.0
 11
-40.9409255981385
 21
153.962512648548
 31
0.0
  0
LINE
  5
   2A9
  8
0
  6
CONTINUOUS
 62
     7
 10
-40.9409347534119
 20
153.962512648548
 30
0.0
 11
-21.7514885564932
 21
153.962512648548
 31
0.0
  0
LINE
  5
   2AA
  8
0
  6
CONTINUOUS
 62
     7
 10
-41.9409040069526
 20
152.462512648548
 30
0.0
 11
-21.7514885564932
 21
152.462512648548
 31
0.0
  0
LINE
  5
   2AB
  8
0
  6
CONTINUOUS
 62
     7
 10
-39.4409255981385
 20
153.962512648548
 30
0.0
 11
-39.4409255981385
 21
167.462527754749
 31
0.0
  0
LINE
  5
   2AC
  8
0
  6
CONTINUOUS
 62
     7
 10
-40.9409362029988
 20
164.462527907337
 30
0.0
 11
-39.4409363555867
 21
164.462527907337
 31
0.0
  0
LINE
  5
   2AD
  8
0
  6
CONTINUOUS
 62
     7
 10
-40.9409194183367
 20
52.4625431661261
 30
0.0
 11
-39.4409363555843
 21
52.4625431661261
 31
0.0
  0
ARC
  5
   2AE
  8
0
  6
CONTINUOUS
 62
     7
 10
-40.9409362029988
 20
163.462527907337
 30
0.0
 40
1.0
 50
90.0
 51
180.00000874264
  0
ARC
  5
   2AF
  8
0
  6
CONTINUOUS
 62
     7
 10
-40.9409194183367
 20
53.4625431661261
 30
0.0
 40
1.0
 50
180.00000874264
 51
270.0
  0
LINE
  5
   2B0
  8
0
  6
CONTINUOUS
 62
     7
 10
-39.4409300231875
 20
49.4625280599249
 30
0.0
 11
-39.4409300231875
 21
62.9625431661261
 31
0.0
  0
CIRCLE
  5
   2B1
  8
0
  6
CONTINUOUS
 62
     7
 10
-27.9409553939659
 20
57.262516040826
 30
0.0
 40
3.0
  0
CIRCLE
  5
   2B2
  8
0
  6
CONTINUOUS
 62
     7
 10
-27.9409398300043
 20
51.4625396728534
 30
0.0
 40
1.25
  0
LINE
  5
   2B3
  8
0
  6
CONTINUOUS
 62
     7
 10
-38.4409368133502
 20
48.4625396728534
 30
0.0
 11
-21.7514885564932
 21
48.4625396728534
 31
0.0
  0
CIRCLE
  5
   2B4
  8
0
  6
CONTINUOUS
 62
     7
 10
-27.940917622381
 20
165.462515258799
 30
0.0
 40
1.25
  0
CIRCLE
  5
   2B5
  8
0
  6
CONTINUOUS
 62
     7
 10
-27.9409553939659
 20
159.662532787303
 30
0.0
 40
3.0
  0
LINE
  5
   2B6
  8
0
  6
CONTINUOUS
 62
     7
 10
-38.4409368133502
 20
168.462524414066
 30
0.0
 11
-21.7514885564932
 21
168.462524414066
 31
0.0
  0
LINE
  5
   2B7
  8
0
  6
DASHDOT
 62
     7
 10
-27.9409553939659
 20
45.8155625600831
 30
0.0
 11
-27.9409553939659
 21
61.6549966447882
 31
0.0
  0
LINE
  5
   2B8
  8
0
  6
DASHDOT
 62
     7
 10
-40.9409553939659
 20
57.262516040826
 30
0.0
 11
-22.7033359462582
 21
57.262516040826
 31
0.0
  0
LINE
  5
   2B9
  8
0
  6
DASHDOT
 62
     7
 10
-27.9409255981445
 20
154.315987966489
 30
0.0
 11
-27.9409255981445
 21
172.162532787303
 31
0.0
  0
LINE
  5
   2BA
  8
0
  6
DASHDOT
 62
     7
 10
-34.0848044631014
 20
159.662532787303
 30
0.0
 11
-22.6248430599351
 21
159.662532787303
 31
0.0
  0
LINE
  5
   2BB
  8
0
  6
CONTINUOUS
 62
     7
 10
-22.3409561157239
 20
64.4625431661261
 30
0.0
 11
-22.3409561157239
 21
152.462512648548
 31
0.0
  0
LINE
  5
   2BC
  8
0
  6
CONTINUOUS
 62
     7
 10
-23.6409561157238
 20
64.4625431661261
 30
0.0
 11
-23.6409561157238
 21
152.462512648548
 31
0.0
  0
LINE
  5
   2BD
  8
0
  6
CONTINUOUS
 62
     7
 10
-24.1409561157238
 20
64.4625431661261
 30
0.0
 11
-24.1409561157238
 21
152.462512648548
 31
0.0
  0
LINE
  5
   2BE
  8
0
  6
CONTINUOUS
 62
     7
 10
-25.4409561157238
 20
64.4625431661261
 30
0.0
 11
-25.4409561157238
 21
152.462512648548
 31
0.0
  0
LINE
  5
   2BF
  8
0
  6
CONTINUOUS
 62
     7
 10
-25.9409561157238
 20
64.4625431661261
 30
0.0
 11
-25.9409561157238
 21
152.462512648548
 31
0.0
  0
LINE
  5
   2C0
  8
0
  6
CONTINUOUS
 62
     7
 10
-27.2409561157238
 20
64.4625431661261
 30
0.0
 11
-27.2409561157238
 21
152.462512648548
 31
0.0
  0
LINE
  5
   2C1
  8
0
  6
CONTINUOUS
 62
     7
 10
-27.7409561157239
 20
64.4625431661261
 30
0.0
 11
-27.7409561157239
 21
152.462512648548
 31
0.0
  0
LINE
  5
   2C2
  8
0
  6
CONTINUOUS
 62
     7
 10
-29.0409561157238
 20
64.4625431661261
 30
0.0
 11
-29.0409561157238
 21
152.462512648548
 31
0.0
  0
LINE
  5
   2C3
  8
0
  6
CONTINUOUS
 62
     7
 10
-29.5409561157238
 20
64.4625431661261
 30
0.0
 11
-29.5409561157238
 21
152.462512648548
 31
0.0
  0
LINE
  5
   2C4
  8
0
  6
CONTINUOUS
 62
     7
 10
-30.8409561157238
 20
64.4625431661261
 30
0.0
 11
-30.8409561157238
 21
152.462512648548
 31
0.0
  0
LINE
  5
   2C5
  8
0
  6
CONTINUOUS
 62
     7
 10
-31.3409561157237
 20
64.4625431661261
 30
0.0
 11
-31.3409561157237
 21
152.462512648548
 31
0.0
  0
LINE
  5
   2C6
  8
0
  6
CONTINUOUS
 62
     7
 10
-33.1409561157237
 20
64.4625431661261
 30
0.0
 11
-33.1409561157237
 21
152.462512648548
 31
0.0
  0
LINE
  5
   2C7
  8
0
  6
CONTINUOUS
 62
     7
 10
-32.6409561157237
 20
64.4625431661261
 30
0.0
 11
-32.6409561157237
 21
152.462512648548
 31
0.0
  0
LINE
  5
   2C8
  8
0
  6
CONTINUOUS
 62
     7
 10
-34.4409561157237
 20
64.4625431661261
 30
0.0
 11
-34.4409561157237
 21
152.462512648548
 31
0.0
  0
LINE
  5
   2C9
  8
0
  6
CONTINUOUS
 62
     7
 10
-34.9409561157237
 20
64.4625431661261
 30
0.0
 11
-34.9409561157237
 21
152.462512648548
 31
0.0
  0
LINE
  5
   2CA
  8
0
  6
CONTINUOUS
 62
     7
 10
-36.2409561157236
 20
64.4625431661261
 30
0.0
 11
-36.2409561157236
 21
152.462512648548
 31
0.0
  0
LINE
  5
   2CB
  8
0
  6
CONTINUOUS
 62
     7
 10
-36.7409561157236
 20
64.4625431661261
 30
0.0
 11
-36.7409561157236
 21
152.462512648548
 31
0.0
  0
LINE
  5
   2CC
  8
0
  6
CONTINUOUS
 62
     7
 10
-38.0409561157236
 20
64.4625431661261
 30
0.0
 11
-38.0409561157236
 21
152.462512648548
 31
0.0
  0
LINE
  5
   2CD
  8
0
  6
CONTINUOUS
 62
     7
 10
-38.0409561157236
 20
64.4625431661261
 30
0.0
 11
-38.0409561157236
 21
152.462512648548
 31
0.0
  0
LINE
  5
   2CE
  8
0
  6
CONTINUOUS
 62
     7
 10
-38.5409561157236
 20
64.4625431661261
 30
0.0
 11
-38.5409561157236
 21
152.462512648548
 31
0.0
  0
LINE
  5
   2CF
  8
0
  6
CONTINUOUS
 62
     7
 10
-39.8409561157236
 20
64.4625431661261
 30
0.0
 11
-39.8409561157236
 21
152.462512648548
 31
0.0
  0
LINE
  5
   2D0
  8
0
  6
CONTINUOUS
 62
     7
 10
-40.3409561157236
 20
64.4625431661261
 30
0.0
 11
-40.3409561157236
 21
152.462512648548
 31
0.0
  0
TEXT
  5
   2D1
  8
0
  6
CONTINUOUS
 62
     2
 10
-50.8571803442262
 20
99.0268813559121
 30
0.0
 40
3.00000002980232
  1
X
 41
0.916666674282816
 72
     1
 11
-49.7571803054832
 21
100.526881370813
 31
0.0
 73
     2
  0
LINE
  5
   2D2
  8
0
  6
DASHDOT
 62
     7
 10
-27.940917622381
 20
163.212515258799
 30
0.0
 11
-27.940917622381
 21
167.712515258799
 31
0.0
  0
LINE
  5
   2D3
  8
0
  6
DASHDOT
 62
     7
 10
-30.190917622381
 20
165.462515258799
 30
0.0
 11
-25.690917622381
 21
165.462515258799
 31
0.0
  0
LINE
  5
   2D4
  8
0
  6
CONTINUOUS
 62
   130
 10
67.0590744018555
 20
168.462554931641
 30
0.0
 11
67.0590744018555
 21
168.462554931641
 31
0.0
  0
LINE
  5
   2D5
  8
0
  6
CONTINUOUS
 62
   130
 10
67.0590744018555
 20
168.462554931641
 30
0.0
 11
67.0590744018555
 21
168.462554931641
 31
0.0
  0
LINE
  5
   2D6
  8
0
  6
CONTINUOUS
 62
   130
 10
67.0590744018555
 20
168.462554931641
 30
0.0
 11
67.0590744018555
 21
168.462554931641
 31
0.0
  0
LINE
  5
   2D7
  8
0
  6
CONTINUOUS
 62
   130
 10
67.0590744018555
 20
168.462554931641
 30
0.0
 11
67.0590744018555
 21
168.462554931641
 31
0.0
  0
LINE
  5
   2D8
  8
0
  6
CONTINUOUS
 62
   130
 10
67.0590744018555
 20
168.462554931641
 30
0.0
 11
67.0590744018555
 21
168.462554931641
 31
0.0
  0
LINE
  5
   2D9
  8
0
  6
CONTINUOUS
 62
   130
 10
67.0590744018555
 20
168.462554931641
 30
0.0
 11
67.0590744018555
 21
168.462554931641
 31
0.0
  0
LINE
  5
   2DA
  8
0
  6
CONTINUOUS
 62
   130
 10
67.0590744018555
 20
168.462554931641
 30
0.0
 11
67.0590744018555
 21
168.462554931641
 31
0.0
  0
LINE
  5
   2DB
  8
0
  6
CONTINUOUS
 62
   130
 10
67.0590744018555
 20
168.462554931641
 30
0.0
 11
67.0590744018555
 21
168.462554931641
 31
0.0
  0
LINE
  5
   2DC
  8
0
  6
CONTINUOUS
 62
   130
 10
67.0590744018555
 20
168.462554931641
 30
0.0
 11
67.0590744018555
 21
168.462554931641
 31
0.0
  0
LINE
  5
   2DD
  8
0
  6
CONTINUOUS
 62
   130
 10
67.0590744018555
 20
168.462554931641
 30
0.0
 11
67.0590744018555
 21
168.462554931641
 31
0.0
  0
LINE
  5
   2DE
  8
0
  6
CONTINUOUS
 62
   130
 10
67.0590744018555
 20
168.462554931641
 30
0.0
 11
67.0590744018555
 21
168.462554931641
 31
0.0
  0
LINE
  5
   2DF
  8
0
  6
CONTINUOUS
 62
   130
 10
67.0590744018555
 20
168.462554931641
 30
0.0
 11
67.0590744018555
 21
168.462554931641
 31
0.0
  0
LINE
  5
   2E0
  8
0
  6
CONTINUOUS
 62
   130
 10
67.0590744018555
 20
168.462554931641
 30
0.0
 11
67.0590744018555
 21
168.462554931641
 31
0.0
  0
LINE
  5
   2E1
  8
0
  6
CONTINUOUS
 62
   130
 10
67.0590744018555
 20
168.462554931641
 30
0.0
 11
67.0590744018555
 21
168.462554931641
 31
0.0
  0
LINE
  5
   2E2
  8
0
  6
CONTINUOUS
 62
   130
 10
67.0590744018555
 20
168.462554931641
 30
0.0
 11
67.0590744018555
 21
168.462554931641
 31
0.0
  0
LINE
  5
   2E3
  8
0
  6
CONTINUOUS
 62
   130
 10
67.0590744018555
 20
168.462554931641
 30
0.0
 11
67.0590744018555
 21
168.462554931641
 31
0.0
  0
LINE
  5
   2E4
  8
0
  6
CONTINUOUS
 62
   130
 10
67.0590744018555
 20
168.462554931641
 30
0.0
 11
67.0590744018555
 21
168.462554931641
 31
0.0
  0
LINE
  5
   2E5
  8
0
  6
CONTINUOUS
 62
   130
 10
67.0590744018555
 20
168.462554931641
 30
0.0
 11
67.0590744018555
 21
168.462554931641
 31
0.0
  0
LINE
  5
   2E6
  8
0
  6
CONTINUOUS
 62
   130
 10
67.0590744018555
 20
168.462554931641
 30
0.0
 11
67.0590744018555
 21
168.462554931641
 31
0.0
  0
LINE
  5
   2E7
  8
0
  6
CONTINUOUS
 62
   130
 10
67.0590744018555
 20
168.462554931641
 30
0.0
 11
67.0590744018555
 21
168.462554931641
 31
0.0
  0
LINE
  5
   2E8
  8
0
  6
CONTINUOUS
 62
   130
 10
67.0590744018555
 20
168.462554931641
 30
0.0
 11
67.0590744018555
 21
168.462554931641
 31
0.0
  0
LINE
  5
   2E9
  8
0
  6
CONTINUOUS
 62
   130
 10
67.0590744018555
 20
168.462554931641
 30
0.0
 11
67.0590744018555
 21
168.462554931641
 31
0.0
  0
LINE
  5
   2EA
  8
0
  6
CONTINUOUS
 62
   130
 10
67.0590744018555
 20
168.462554931641
 30
0.0
 11
67.0590744018555
 21
168.462554931641
 31
0.0
  0
LINE
  5
   2EB
  8
0
  6
CONTINUOUS
 62
   130
 10
67.0590744018555
 20
168.462554931641
 30
0.0
 11
67.0590744018555
 21
168.462554931641
 31
0.0
  0
LINE
  5
   2EC
  8
0
  6
CONTINUOUS
 62
   130
 10
67.0590744018555
 20
168.462554931641
 30
0.0
 11
67.0590744018555
 21
168.462554931641
 31
0.0
  0
LINE
  5
   2ED
  8
0
  6
CONTINUOUS
 62
   130
 10
67.0590744018555
 20
168.462554931641
 30
0.0
 11
67.0590744018555
 21
168.462554931641
 31
0.0
  0
LINE
  5
   2EE
  8
0
  6
CONTINUOUS
 62
   130
 10
67.0590744018555
 20
168.462554931641
 30
0.0
 11
67.0590744018555
 21
168.462554931641
 31
0.0
  0
LINE
  5
   2EF
  8
0
  6
CONTINUOUS
 62
   130
 10
67.0590744018555
 20
168.462554931641
 30
0.0
 11
67.0590744018555
 21
168.462554931641
 31
0.0
  0
LINE
  5
   2F0
  8
0
  6
CONTINUOUS
 62
   130
 10
67.0590744018555
 20
168.462554931641
 30
0.0
 11
67.0590744018555
 21
168.462554931641
 31
0.0
  0
LINE
  5
   2F1
  8
0
  6
CONTINUOUS
 62
   130
 10
67.0590744018555
 20
168.462554931641
 30
0.0
 11
67.0590744018555
 21
168.462554931641
 31
0.0
  0
LINE
  5
   2F2
  8
0
  6
CONTINUOUS
 62
   130
 10
67.0590744018555
 20
168.462554931641
 30
0.0
 11
67.0590744018555
 21
168.462554931641
 31
0.0
  0
LINE
  5
   2F3
  8
0
  6
CONTINUOUS
 62
   130
 10
67.0590744018555
 20
168.462554931641
 30
0.0
 11
67.0590744018555
 21
168.462554931641
 31
0.0
  0
LINE
  5
   2F4
  8
0
  6
CONTINUOUS
 62
   130
 10
67.0590744018555
 20
168.462554931641
 30
0.0
 11
67.0590744018555
 21
168.462554931641
 31
0.0
  0
LINE
  5
   2F5
  8
0
  6
CONTINUOUS
 62
   130
 10
67.0590744018555
 20
168.462554931641
 30
0.0
 11
67.0590744018555
 21
168.462554931641
 31
0.0
  0
LINE
  5
   2F6
  8
0
  6
CONTINUOUS
 62
   130
 10
67.0590744018555
 20
168.462554931641
 30
0.0
 11
67.0590744018555
 21
168.462554931641
 31
0.0
  0
LINE
  5
   2F7
  8
0
  6
CONTINUOUS
 62
   130
 10
67.0590744018555
 20
168.462554931641
 30
0.0
 11
67.0590744018555
 21
168.462554931641
 31
0.0
  0
LINE
  5
   2F8
  8
0
  6
CONTINUOUS
 62
   130
 10
11.0590600967407
 20
48.4625434875506
 30
0.0
 11
24.5590601699958
 21
48.4625434875506
 31
0.0
  0
LINE
  5
   2F9
  8
0
  6
CONTINUOUS
 62
   130
 10
-13.4409368133502
 20
168.462528228763
 30
0.0
 11
8.80911054255836
 21
168.462528228763
 31
0.0
  0
LINE
  5
   2FA
  8
0
  6
CONTINUOUS
 62
   130
 10
10.3091105425584
 20
168.462528228762
 30
0.0
 11
24.5590446060341
 21
168.462528228762
 31
0.0
  0
LINE
  5
   2FB
  8
0
  6
CONTINUOUS
 62
   130
 10
-16.9408950805623
 20
53.4625468282311
 30
0.0
 11
-16.9408950805623
 21
163.462531569451
 31
0.0
  0
LINE
  5
   2FC
  8
0
  6
CONTINUOUS
 62
   130
 10
-16.9408920288121
 20
73.9625587463447
 30
0.0
 11
22.0590774536103
 21
73.9625587463447
 31
0.0
  0
LINE
  5
   2FD
  8
0
  6
CONTINUOUS
 62
   130
 10
12.0590600967407
 20
50.4625282287616
 30
0.0
 11
12.0590600967407
 21
51.9625434875507
 31
0.0
  0
LINE
  5
   2FE
  8
0
  6
CONTINUOUS
 62
   130
 10
11.0590600967407
 20
48.4625434875506
 30
0.0
 11
11.0590600967407
 21
49.7125434875506
 31
0.0
  0
LINE
  5
   2FF
  8
0
  6
CONTINUOUS
 62
   130
 10
8.05906009674072
 20
48.4625434875506
 30
0.0
 11
8.05906009674072
 21
49.7125587463397
 31
0.0
  0
LINE
  5
   300
  8
0
  6
CONTINUOUS
 62
   130
 10
7.05906009674072
 20
50.4625282287616
 30
0.0
 11
7.05906009674072
 21
51.9625434875507
 31
0.0
  0
LINE
  5
   301
  8
0
  6
CONTINUOUS
 62
   130
 10
7.05905914306641
 20
164.962528228762
 30
0.0
 11
7.05905914306641
 21
166.212528228762
 31
0.0
  0
LINE
  5
   302
  8
0
  6
CONTINUOUS
 62
   130
 10
8.05905914306641
 20
167.212528228762
 30
0.0
 11
8.05905914306641
 21
168.462528228762
 31
0.0
  0
LINE
  5
   303
  8
0
  6
CONTINUOUS
 62
   130
 10
11.0590591430664
 20
167.212528228762
 30
0.0
 11
11.0590591430664
 21
168.462528228762
 31
0.0
  0
LINE
  5
   304
  8
0
  6
CONTINUOUS
 62
   130
 10
12.0590057373297
 20
164.962520599428
 30
0.0
 11
12.0590057373297
 21
166.212520599428
 31
0.0
  0
LINE
  5
   305
  8
0
  6
CONTINUOUS
 62
   130
 10
20.8090591430664
 20
168.462543487551
 30
0.0
 11
23.3090581893921
 21
168.462543487551
 31
0.0
  0
CIRCLE
  5
   306
  8
0
  6
CONTINUOUS
 62
   130
 10
9.55903826115085
 20
158.462594122442
 30
0.0
 40
4.4999575073053
  0
LINE
  5
   307
  8
0
  6
CONTINUOUS
 62
   130
 10
-16.9408988952657
 20
118.962558746333
 30
0.0
 11
22.0590705871567
 21
118.962558746333
 31
0.0
  0
CIRCLE
  5
   308
  8
0
  6
CONTINUOUS
 62
   130
 10
-2.94093983000425
 20
51.4625434875506
 30
0.0
 40
1.25
  0
ARC
  5
   309
  8
0
  6
CONTINUOUS
 62
   130
 10
22.0590601699958
 20
51.4625434875506
 30
0.0
 40
1.25
 50
89.9999999999996
 51
270.0
  0
ARC
  5
   30A
  8
0
  6
CONTINUOUS
 62
   130
 10
22.0590446060341
 20
165.462528228762
 30
0.0
 40
1.25
 50
90.0
 51
270.0
  0
CIRCLE
  5
   30B
  8
0
  6
CONTINUOUS
 62
   130
 10
-2.94091762238097
 20
165.462519073496
 30
0.0
 40
1.25
  0
LINE
  5
   30C
  8
0
  6
CONTINUOUS
 62
   130
 10
14.5590594621266
 20
110.598562187548
 30
0.0
 11
28.7035050075164
 21
110.598562187548
 31
0.0
  0
LINE
  5
   30D
  8
0
  6
CONTINUOUS
 62
   130
 10
11.0590310226762
 20
166.462528228762
 30
0.0
 11
11.0590310226762
 21
168.462528228762
 31
0.0
  0
LINE
  5
   30E
  8
0
  6
CONTINUOUS
 62
   130
 10
8.05903102267617
 20
166.462528228762
 30
0.0
 11
8.05903102267617
 21
168.462528228762
 31
0.0
  0
LINE
  5
   30F
  8
0
  6
CONTINUOUS
 62
   130
 10
7.0590853821619
 20
164.962516784733
 30
0.0
 11
7.0590853821619
 21
166.462528228762
 31
0.0
  0
LINE
  5
   310
  8
0
  6
CONTINUOUS
 62
   130
 10
12.0590310226762
 20
164.962528228762
 30
0.0
 11
12.0590310226762
 21
166.462528228762
 31
0.0
  0
LINE
  5
   311
  8
0
  6
CONTINUOUS
 62
   130
 10
7.05903102267617
 20
164.962528228762
 30
0.0
 11
12.0590591430664
 21
164.962528228762
 31
0.0
  0
LINE
  5
   312
  8
0
  6
CONTINUOUS
 62
   130
 10
11.0590310226762
 20
166.462528228762
 30
0.0
 11
12.0590310226762
 21
166.462528228762
 31
0.0
  0
LINE
  5
   313
  8
0
  6
CONTINUOUS
 62
   130
 10
7.05903006901244
 20
166.462528228762
 30
0.0
 11
8.05903102267617
 21
166.462528228762
 31
0.0
  0
LINE
  5
   314
  8
0
  6
CONTINUOUS
 62
   130
 10
8.05903102267617
 20
48.4625282287616
 30
0.0
 11
8.05903102267617
 21
50.4625282287616
 31
0.0
  0
LINE
  5
   315
  8
0
  6
CONTINUOUS
 62
   130
 10
11.0590310226762
 20
48.4625282287616
 30
0.0
 11
11.0590310226762
 21
50.4625282287616
 31
0.0
  0
LINE
  5
   316
  8
0
  6
CONTINUOUS
 62
   130
 10
7.05903006901244
 20
50.4625282287616
 30
0.0
 11
8.05903102267617
 21
50.4625282287616
 31
0.0
  0
LINE
  5
   317
  8
0
  6
CONTINUOUS
 62
   130
 10
11.0590310226762
 20
50.4625282287616
 30
0.0
 11
12.0590310226762
 21
50.4625282287616
 31
0.0
  0
LINE
  5
   318
  8
0
  6
CONTINUOUS
 62
   130
 10
14.5590600967414
 20
85.5507079517037
 30
0.0
 11
14.5590600967414
 21
112.462558746333
 31
0.0
  0
LINE
  5
   319
  8
0
  6
CONTINUOUS
 62
   130
 10
14.559060417627
 20
85.5507079517037
 30
0.0
 11
15.5590604176269
 21
85.5507079517037
 31
0.0
  0
LINE
  5
   31A
  8
0
  6
CONTINUOUS
 62
   130
 10
14.5590604032759
 20
85.9269114368976
 30
0.0
 11
15.5590604032759
 21
85.9269114368976
 31
0.0
  0
LINE
  5
   31B
  8
0
  6
CONTINUOUS
 62
   130
 10
-16.9408976745629
 20
110.962558746333
 30
0.0
 11
10.5590600967413
 21
110.962558746333
 31
0.0
  0
LINE
  5
   31C
  8
0
  6
CONTINUOUS
 62
   130
 10
-16.9408930206332
 20
80.4625587463447
 30
0.0
 11
-3.54092330932684
 21
80.4625587463447
 31
0.0
  0
LINE
  5
   31D
  8
0
  6
CONTINUOUS
 62
   130
 10
-16.940893249515
 20
81.9625587463447
 30
0.0
 11
15.559060554504
 21
81.9625587463447
 31
0.0
  0
LINE
  5
   31E
  8
0
  6
CONTINUOUS
 62
   130
 10
6.45907669067316
 20
80.4625587463447
 30
0.0
 11
24.1697653549804
 21
80.4625587463447
 31
0.0
  0
LINE
  5
   31F
  8
0
  6
CONTINUOUS
 62
   130
 10
15.5590600967414
 20
82.3298918056334
 30
0.0
 11
15.5590600967414
 21
90.7429030019046
 31
0.0
  0
LINE
  5
   320
  8
0
  6
CONTINUOUS
 62
   130
 10
67.0590744018555
 20
168.462554931641
 30
0.0
 11
67.0590744018555
 21
168.462554931641
 31
0.0
  0
LINE
  5
   321
  8
0
  6
CONTINUOUS
 62
   130
 10
67.0590744018555
 20
168.462554931641
 30
0.0
 11
67.0590744018555
 21
168.462554931641
 31
0.0
  0
LINE
  5
   322
  8
0
  6
CONTINUOUS
 62
   130
 10
67.0590744018555
 20
168.462554931641
 30
0.0
 11
67.0590744018555
 21
168.462554931641
 31
0.0
  0
LINE
  5
   323
  8
0
  6
CONTINUOUS
 62
   130
 10
67.0590744018555
 20
168.462554931641
 30
0.0
 11
67.0590744018555
 21
168.462554931641
 31
0.0
  0
CIRCLE
  5
   324
  8
0
  6
CONTINUOUS
 62
   130
 10
22.0590446060341
 20
159.662536602
 30
0.0
 40
3.0
  0
CIRCLE
  5
   325
  8
0
  6
CONTINUOUS
 62
   130
 10
22.0590446060341
 20
57.2625198555232
 30
0.0
 40
3.0
  0
LINE
  5
   326
  8
0
  6
CONTINUOUS
 62
   130
 10
67.0590744018555
 20
168.462554931641
 30
0.0
 11
67.0590744018555
 21
168.462554931641
 31
0.0
  0
LINE
  5
   327
  8
0
  6
CONTINUOUS
 62
   130
 10
67.0590744018555
 20
168.462554931641
 30
0.0
 11
67.0590744018555
 21
168.462554931641
 31
0.0
  0
LINE
  5
   328
  8
0
  6
CONTINUOUS
 62
   130
 10
67.0590744018555
 20
168.462554931641
 30
0.0
 11
67.0590744018555
 21
168.462554931641
 31
0.0
  0
ARC
  5
   329
  8
0
  6
CONTINUOUS
 62
   130
 10
-13.4409368133502
 20
167.462531722034
 30
0.0
 40
1.0
 50
90.0
 51
180.00000874264
  0
LINE
  5
   32A
  8
0
  6
CONTINUOUS
 62
   130
 10
-15.9409255981399
 20
152.462516463245
 30
0.0
 11
-15.9409255981399
 21
153.962516463245
 31
0.0
  0
LINE
  5
   32B
  8
0
  6
CONTINUOUS
 62
   130
 10
-15.9409347534119
 20
153.962516463245
 30
0.0
 11
22.0590446060341
 21
153.962516463245
 31
0.0
  0
LINE
  5
   32C
  8
0
  6
CONTINUOUS
 62
   130
 10
-16.9409040069526
 20
152.462516463245
 30
0.0
 11
22.0590744018555
 21
152.462516463245
 31
0.0
  0
LINE
  5
   32D
  8
0
  6
CONTINUOUS
 62
   130
 10
-14.4409255981399
 20
164.462531722034
 30
0.0
 11
-14.4409255981399
 21
167.462531569446
 31
0.0
  0
LINE
  5
   32E
  8
0
  6
CONTINUOUS
 62
   130
 10
-15.9409362029988
 20
164.462531722034
 30
0.0
 11
-14.4409363555867
 21
164.462531722034
 31
0.0
  0
ARC
  5
   32F
  8
0
  6
CONTINUOUS
 62
   130
 10
-15.9409362029988
 20
163.462531722034
 30
0.0
 40
1.0
 50
90.0
 51
180.00000874264
  0
CIRCLE
  5
   330
  8
0
  6
CONTINUOUS
 62
   130
 10
-2.94095539396587
 20
159.662536602
 30
0.0
 40
3.0
  0
CIRCLE
  5
   331
  8
0
  6
CONTINUOUS
 62
   130
 10
-2.94095539396587
 20
57.2625198555232
 30
0.0
 40
3.0
  0
LINE
  5
   332
  8
0
  6
CONTINUOUS
 62
   130
 10
67.0590744018555
 20
168.462554931641
 30
0.0
 11
67.0590744018555
 21
168.462554931641
 31
0.0
  0
LINE
  5
   333
  8
0
  6
CONTINUOUS
 62
   130
 10
67.0590744018555
 20
168.462554931641
 30
0.0
 11
67.0590744018555
 21
168.462554931641
 31
0.0
  0
LINE
  5
   334
  8
0
  6
CONTINUOUS
 62
   130
 10
67.0590744018555
 20
168.462554931641
 30
0.0
 11
67.0590744018555
 21
168.462554931641
 31
0.0
  0
LINE
  5
   335
  8
0
  6
CONTINUOUS
 62
   130
 10
67.0590744018555
 20
168.462554931641
 30
0.0
 11
67.0590744018555
 21
168.462554931641
 31
0.0
  0
LINE
  5
   336
  8
0
  6
CONTINUOUS
 62
   130
 10
67.0590744018555
 20
168.462554931641
 30
0.0
 11
67.0590744018555
 21
168.462554931641
 31
0.0
  0
LINE
  5
   337
  8
0
  6
CONTINUOUS
 62
   130
 10
67.0590744018555
 20
168.462554931641
 30
0.0
 11
67.0590744018555
 21
168.462554931641
 31
0.0
  0
LINE
  5
   338
  8
0
  6
CONTINUOUS
 62
   130
 10
67.0590744018555
 20
168.462554931641
 30
0.0
 11
67.0590744018555
 21
168.462554931641
 31
0.0
  0
LINE
  5
   339
  8
0
  6
CONTINUOUS
 62
   130
 10
67.0590744018555
 20
168.462554931641
 30
0.0
 11
67.0590744018555
 21
168.462554931641
 31
0.0
  0
LINE
  5
   33A
  8
0
  6
CONTINUOUS
 62
   130
 10
19.5590886337134
 20
48.4625434875506
 30
0.0
 11
33.0590887069685
 21
48.4625434875506
 31
0.0
  0
LINE
  5
   33B
  8
0
  6
CONTINUOUS
 62
   130
 10
36.0590887069685
 20
48.4625434875506
 30
0.0
 11
57.5590856170594
 21
48.4625434875506
 31
0.0
  0
LINE
  5
   33C
  8
0
  6
CONTINUOUS
 62
   130
 10
35.3091105425584
 20
168.462528228763
 30
0.0
 11
57.5590856170594
 21
168.462528228763
 31
0.0
  0
LINE
  5
   33D
  8
0
  6
CONTINUOUS
 62
   130
 10
19.5591041976751
 20
168.462528228762
 30
0.0
 11
33.8091105425584
 21
168.462528228762
 31
0.0
  0
LINE
  5
   33E
  8
0
  6
CONTINUOUS
 62
   252
 10
61.0590438842742
 20
112.462554931641
 30
0.0
 11
61.0590438842742
 21
170.462554931641
 31
0.0
  0
LINE
  5
   33F
  8
0
  6
CONTINUOUS
 62
   130
 10
32.0590887069685
 20
50.4625282287616
 30
0.0
 11
32.0590887069685
 21
51.9625434875507
 31
0.0
  0
LINE
  5
   340
  8
0
  6
CONTINUOUS
 62
   130
 10
33.0590887069685
 20
48.4625434875506
 30
0.0
 11
33.0590887069685
 21
49.7125434875506
 31
0.0
  0
LINE
  5
   341
  8
0
  6
CONTINUOUS
 62
   130
 10
36.0590887069685
 20
48.4625434875506
 30
0.0
 11
36.0590887069685
 21
49.7125587463397
 31
0.0
  0
LINE
  5
   342
  8
0
  6
CONTINUOUS
 62
   130
 10
37.0590887069685
 20
50.4625282287616
 30
0.0
 11
37.0590887069685
 21
51.9625434875507
 31
0.0
  0
LINE
  5
   343
  8
0
  6
CONTINUOUS
 62
   130
 10
37.0590896606428
 20
164.962528228762
 30
0.0
 11
37.0590896606428
 21
166.212528228762
 31
0.0
  0
LINE
  5
   344
  8
0
  6
CONTINUOUS
 62
   130
 10
36.0590896606428
 20
167.212528228762
 30
0.0
 11
36.0590896606428
 21
168.462528228762
 31
0.0
  0
LINE
  5
   345
  8
0
  6
CONTINUOUS
 62
   130
 10
33.0590896606428
 20
167.212528228762
 30
0.0
 11
33.0590896606428
 21
168.462528228762
 31
0.0
  0
LINE
  5
   346
  8
0
  6
CONTINUOUS
 62
   130
 10
32.059143066447
 20
164.962520599428
 30
0.0
 11
32.059143066447
 21
166.212520599428
 31
0.0
  0
LINE
  5
   347
  8
0
  6
CONTINUOUS
 62
   130
 10
20.8090906143171
 20
168.462543487551
 30
0.0
 11
23.3090896606428
 21
168.462543487551
 31
0.0
  0
CIRCLE
  5
   348
  8
0
  6
CONTINUOUS
 62
   130
 10
34.5591105425584
 20
158.462594122442
 30
0.0
 40
4.4999575073053
  0
CIRCLE
  5
   349
  8
0
  6
CONTINUOUS
 62
   130
 10
47.0590886337135
 20
51.4625434875506
 30
0.0
 40
1.25
  0
ARC
  5
   34A
  8
0
  6
CONTINUOUS
 62
   130
 10
22.0590886337135
 20
51.4625434875506
 30
0.0
 40
1.25
 50
270.0
 51
450.0
  0
ARC
  5
   34B
  8
0
  6
CONTINUOUS
 62
   130
 10
22.0591041976751
 20
165.462528228762
 30
0.0
 40
1.25
 50
270.0
 51
450.0
  0
CIRCLE
  5
   34C
  8
0
  6
CONTINUOUS
 62
   130
 10
47.0590664260902
 20
165.462519073496
 30
0.0
 40
1.25
  0
LINE
  5
   34D
  8
0
  6
CONTINUOUS
 62
   130
 10
28.5590893415826
 20
110.598562187548
 30
0.0
 11
29.5590893415826
 21
110.598562187548
 31
0.0
  0
LINE
  5
   34E
  8
0
  6
CONTINUOUS
 62
   130
 10
33.059117781033
 20
166.462528228762
 30
0.0
 11
33.059117781033
 21
168.462528228762
 31
0.0
  0
LINE
  5
   34F
  8
0
  6
CONTINUOUS
 62
   130
 10
36.059117781033
 20
166.462528228762
 30
0.0
 11
36.059117781033
 21
168.462528228762
 31
0.0
  0
LINE
  5
   350
  8
0
  6
CONTINUOUS
 62
   130
 10
37.0590634216147
 20
164.962516784733
 30
0.0
 11
37.0590634216147
 21
166.462528228762
 31
0.0
  0
LINE
  5
   351
  8
0
  6
CONTINUOUS
 62
   130
 10
32.059117781033
 20
164.962528228762
 30
0.0
 11
32.059117781033
 21
166.462528228762
 31
0.0
  0
LINE
  5
   352
  8
0
  6
CONTINUOUS
 62
   130
 10
32.059117781033
 20
166.462528228762
 30
0.0
 11
33.059117781033
 21
166.462528228762
 31
0.0
  0
LINE
  5
   353
  8
0
  6
CONTINUOUS
 62
   130
 10
36.059117781033
 20
166.462528228762
 30
0.0
 11
37.0591187346968
 21
166.462528228762
 31
0.0
  0
LINE
  5
   354
  8
0
  6
CONTINUOUS
 62
   130
 10
36.059117781033
 20
48.4625282287616
 30
0.0
 11
36.059117781033
 21
50.4625282287616
 31
0.0
  0
LINE
  5
   355
  8
0
  6
CONTINUOUS
 62
   130
 10
33.059117781033
 20
48.4625282287616
 30
0.0
 11
33.059117781033
 21
50.4625282287616
 31
0.0
  0
LINE
  5
   356
  8
0
  6
CONTINUOUS
 62
   130
 10
36.059117781033
 20
50.4625282287616
 30
0.0
 11
37.0591187346968
 21
50.4625282287616
 31
0.0
  0
LINE
  5
   357
  8
0
  6
CONTINUOUS
 62
   130
 10
32.059117781033
 20
50.4625282287616
 30
0.0
 11
33.059117781033
 21
50.4625282287616
 31
0.0
  0
LINE
  5
   358
  8
0
  6
CONTINUOUS
 62
   130
 10
29.559088706968
 20
85.5507079517037
 30
0.0
 11
29.559088706968
 21
94.8668559208572
 31
0.0
  0
LINE
  5
   359
  8
0
  6
CONTINUOUS
 62
   130
 10
28.5590883860823
 20
85.5507079517037
 30
0.0
 11
29.5590883860823
 21
85.5507079517037
 31
0.0
  0
LINE
  5
   35A
  8
0
  6
CONTINUOUS
 62
   130
 10
28.5590884004333
 20
85.9269114368976
 30
0.0
 11
29.5590884004333
 21
85.9269114368976
 31
0.0
  0
LINE
  5
   35B
  8
0
  6
CONTINUOUS
 62
   130
 10
-16.9408979034447
 20
112.462558746333
 30
0.0
 11
61.0590467071538
 21
112.462558746333
 31
0.0
  0
LINE
  5
   35C
  8
0
  6
CONTINUOUS
 62
   130
 10
33.559088706968
 20
110.962558746333
 30
0.0
 11
35.0590744018555
 21
110.962558746333
 31
0.0
  0
LINE
  5
   35D
  8
0
  6
CONTINUOUS
 62
   130
 10
28.559088706968
 20
82.3298918056334
 30
0.0
 11
28.559088706968
 21
90.7429030019046
 31
0.0
  0
LINE
  5
   35E
  8
0
  6
CONTINUOUS
 62
   130
 10
67.0590744018555
 20
168.462554931641
 30
0.0
 11
67.0590744018555
 21
168.462554931641
 31
0.0
  0
LINE
  5
   35F
  8
0
  6
CONTINUOUS
 62
   130
 10
67.0590744018555
 20
168.462554931641
 30
0.0
 11
67.0590744018555
 21
168.462554931641
 31
0.0
  0
LINE
  5
   360
  8
0
  6
CONTINUOUS
 62
   130
 10
67.0590744018555
 20
168.462554931641
 30
0.0
 11
67.0590744018555
 21
168.462554931641
 31
0.0
  0
LINE
  5
   361
  8
0
  6
CONTINUOUS
 62
   130
 10
67.0590744018555
 20
168.462554931641
 30
0.0
 11
67.0590744018555
 21
168.462554931641
 31
0.0
  0
CIRCLE
  5
   362
  8
0
  6
CONTINUOUS
 62
   130
 10
22.0591041976751
 20
159.662536602
 30
0.0
 40
3.0
  0
LINE
  5
   363
  8
0
  6
CONTINUOUS
 62
   130
 10
67.0590744018555
 20
168.462554931641
 30
0.0
 11
67.0590744018555
 21
168.462554931641
 31
0.0
  0
LINE
  5
   364
  8
0
  6
CONTINUOUS
 62
   130
 10
22.0590677261335
 20
62.9625469808234
 30
0.0
 11
60.0590835571211
 21
62.9625469808234
 31
0.0
  0
ARC
  5
   365
  8
0
  6
CONTINUOUS
 62
   130
 10
57.5590856170594
 20
167.462531722034
 30
0.0
 40
1.0
 50
359.99999125736
 51
450.0
  0
ARC
  5
   366
  8
0
  6
CONTINUOUS
 62
   130
 10
57.5590856170594
 20
49.4625317220343
 30
0.0
 40
1.0
 50
270.0
 51
360.00000874264
  0
LINE
  5
   367
  8
0
  6
CONTINUOUS
 62
   130
 10
22.0590886337135
 20
64.4625469808234
 30
0.0
 11
61.0590393829348
 21
64.4625469808234
 31
0.0
  0
LINE
  5
   368
  8
0
  6
CONTINUOUS
 62
   130
 10
60.0590788269008
 20
62.9625469808234
 30
0.0
 11
60.0590788269008
 21
64.4625469808234
 31
0.0
  0
LINE
  5
   369
  8
0
  6
CONTINUOUS
 62
   130
 10
60.0590744018518
 20
152.462516463245
 30
0.0
 11
60.0590744018518
 21
153.962516463245
 31
0.0
  0
LINE
  5
   36A
  8
0
  6
CONTINUOUS
 62
   130
 10
22.0591041976751
 20
153.962516463245
 30
0.0
 11
60.0590835571211
 21
153.962516463245
 31
0.0
  0
LINE
  5
   36B
  8
0
  6
CONTINUOUS
 62
   130
 10
22.0590744018537
 20
152.462516463245
 30
0.0
 11
61.0590528106617
 21
152.462516463245
 31
0.0
  0
LINE
  5
   36C
  8
0
  6
CONTINUOUS
 62
   130
 10
58.5590744018518
 20
164.462531722034
 30
0.0
 11
58.5590744018518
 21
167.462531569446
 31
0.0
  0
LINE
  5
   36D
  8
0
  6
CONTINUOUS
 62
   130
 10
58.5590851592959
 20
164.462531722034
 30
0.0
 11
60.059085006708
 21
164.462531722034
 31
0.0
  0
LINE
  5
   36E
  8
0
  6
CONTINUOUS
 62
   130
 10
58.5590851592935
 20
52.4625469808234
 30
0.0
 11
60.0590682220459
 21
52.4625469808234
 31
0.0
  0
ARC
  5
   36F
  8
0
  6
CONTINUOUS
 62
   130
 10
60.059085006708
 20
163.462531722034
 30
0.0
 40
1.0
 50
359.99999125736
 51
450.0
  0
ARC
  5
   370
  8
0
  6
CONTINUOUS
 62
   130
 10
60.0590682220459
 20
53.4625469808234
 30
0.0
 40
1.0
 50
270.0
 51
359.99999125736
  0
CIRCLE
  5
   371
  8
0
  6
CONTINUOUS
 62
   130
 10
47.0591041976751
 20
159.662536602
 30
0.0
 40
3.0
  0
CIRCLE
  5
   372
  8
0
  6
CONTINUOUS
 62
   130
 10
47.0591041976751
 20
57.2625198555232
 30
0.0
 40
3.0
  0
LINE
  5
   373
  8
0
  6
DASHDOT
 62
   130
 10
-2.94095539396587
 20
152.752283337847
 30
0.0
 11
-2.94095539396587
 21
167.378776406863
 31
0.0
  0
LINE
  5
   374
  8
0
  6
DASHDOT
 62
   130
 10
-12.6327154624772
 20
159.662536602
 30
0.0
 11
5.05904460603413
 21
159.662536602
 31
0.0
  0
LINE
  5
   375
  8
0
  6
DASHDOT
 62
   130
 10
47.0591041976751
 20
151.593749233371
 30
0.0
 11
47.0591041976751
 21
167.958043459101
 31
0.0
  0
LINE
  5
   376
  8
0
  6
DASHDOT
 62
   130
 10
39.0591041976751
 20
159.662536602
 30
0.0
 11
56.3000637538736
 21
159.662536602
 31
0.0
  0
LINE
  5
   377
  8
0
  6
DASHDOT
 62
   130
 10
-2.94095539396587
 20
44.2625198555232
 30
0.0
 11
-2.94095539396587
 21
61.8680278791343
 31
0.0
  0
LINE
  5
   378
  8
0
  6
DASHDOT
 62
   130
 10
-15.9409553939659
 20
57.2625198555232
 30
0.0
 11
10.0590446060341
 21
57.2625198555232
 31
0.0
  0
LINE
  5
   379
  8
0
  6
DASHDOT
 62
   130
 10
9.05904460603413
 20
57.2625198555232
 30
0.0
 11
35.0590446060341
 21
57.2625198555232
 31
0.0
  0
LINE
  5
   37A
  8
0
  6
DASHDOT
 62
   130
 10
47.0591041976751
 20
44.2625198555232
 30
0.0
 11
47.0591041976751
 21
62.1142482558474
 31
0.0
  0
LINE
  5
   37B
  8
0
  6
DASHDOT
 62
   130
 10
39.0591041976751
 20
57.2625198555232
 30
0.0
 11
57.6034146214097
 21
57.2625198555232
 31
0.0
  0
LINE
  5
   37C
  8
0
  6
CONTINUOUS
 62
   130
 10
15.5590602195603
 20
90.7429030019046
 30
0.0
 11
28.5590885841489
 21
90.7429030019046
 31
0.0
  0
LINE
  5
   37D
  8
0
  6
CONTINUOUS
 62
   130
 10
16.0590604482819
 20
85.247106845138
 30
0.0
 11
28.0590883554273
 21
85.247106845138
 31
0.0
  0
LINE
  5
   37E
  8
0
  6
CONTINUOUS
 62
   130
 10
16.0590605404914
 20
81.8298918247069
 30
0.0
 11
28.0590882632178
 21
81.8298918247069
 31
0.0
  0
LINE
  5
   37F
  8
0
  6
CONTINUOUS
 62
   130
 10
33.0951448685031
 20
81.9625587463447
 30
0.0
 11
61.0590420532241
 21
81.9625587463447
 31
0.0
  0
ARC
  5
   380
  8
0
  6
CONTINUOUS
 62
   130
 10
16.0590605404914
 20
82.3298918247069
 30
0.0
 40
0.5
 50
180.000002185662
 51
270.0
  0
ARC
  5
   381
  8
0
  6
CONTINUOUS
 62
   130
 10
28.0590882632178
 20
82.3298918247069
 30
0.0
 40
0.5
 50
270.0
 51
359.999997814338
  0
ARC
  5
   382
  8
0
  6
CONTINUOUS
 62
   130
 10
28.0590883554273
 20
84.747106845138
 30
0.0
 40
0.5
 50
359.999997814338
 51
450.0
  0
ARC
  5
   383
  8
0
  6
CONTINUOUS
 62
   130
 10
16.0590604482819
 20
84.747106845138
 30
0.0
 40
0.5
 50
90.0
 51
180.000002185662
  0
CIRCLE
  5
   384
  8
0
  6
CONTINUOUS
 62
   130
 10
9.55915635624854
 20
58.4625760930639
 30
0.0
 40
4.4999575073053
  0
LINE
  5
   385
  8
0
  6
CONTINUOUS
 62
   130
 10
22.0590713500989
 20
73.9625587463447
 30
0.0
 11
61.0590408325212
 21
73.9625587463447
 31
0.0
  0
LINE
  5
   386
  8
0
  6
CONTINUOUS
 62
   130
 10
22.0590782165525
 20
118.962558746333
 30
0.0
 11
61.0590476989749
 21
118.962558746333
 31
0.0
  0
LINE
  5
   387
  8
0
  6
CONTINUOUS
 62
   130
 10
-13.7012251889144
 20
116.529692174197
 30
0.0
 11
-13.2473678761964
 21
117.826444807618
 31
0.0
  0
LINE
  5
   388
  8
0
  6
CONTINUOUS
 62
   130
 10
-13.7012329101563
 20
116.529696002603
 30
0.0
 11
-12.8816223144531
 21
116.529696002603
 31
0.0
  0
LINE
  5
   389
  8
0
  6
CONTINUOUS
 62
   130
 10
-13.2473754882813
 20
117.82644893229
 30
0.0
 11
-12.8816223144531
 21
117.82644893229
 31
0.0
  0
LINE
  5
   38A
  8
0
  6
CONTINUOUS
 62
   130
 10
-14.1783752441406
 20
115.166452422738
 30
0.0
 11
-13.5133743286133
 21
115.166452422738
 31
0.0
  0
LINE
  5
   38B
  8
0
  6
CONTINUOUS
 62
   130
 10
-13.5133687141669
 20
115.166450920419
 30
0.0
 11
-13.327165718507
 21
115.698450533358
 31
0.0
  0
LINE
  5
   38C
  8
0
  6
CONTINUOUS
 62
   130
 10
-13.3271713256836
 20
115.698452010751
 30
0.0
 11
-12.8816223144531
 21
115.698452010751
 31
0.0
  0
LINE
  5
   38D
  8
0
  6
CONTINUOUS
 62
   130
 10
-13.7245101928711
 20
116.463198199868
 30
0.0
 11
-12.8816223144531
 21
116.463198199868
 31
0.0
  0
LINE
  5
   38E
  8
0
  6
CONTINUOUS
 62
   130
 10
-14.1783698018099
 20
115.166449994791
 30
0.0
 11
-13.7245048861693
 21
116.463195502275
 31
0.0
  0
LINE
  5
   38F
  8
0
  6
CONTINUOUS
 62
   130
 10
-11.9722224171824
 20
116.463195323553
 30
0.0
 11
-11.5183575015418
 21
115.166449816069
 31
0.0
  0
LINE
  5
   390
  8
0
  6
CONTINUOUS
 62
   130
 10
-12.8151245117188
 20
116.463198199868
 30
0.0
 11
-11.9722366333008
 21
116.463198199868
 31
0.0
  0
LINE
  5
   391
  8
0
  6
CONTINUOUS
 62
   130
 10
-12.8151245117188
 20
115.698452010751
 30
0.0
 11
-12.8151245117188
 21
116.463198199868
 31
0.0
  0
LINE
  5
   392
  8
0
  6
CONTINUOUS
 62
   130
 10
-12.8151245117188
 20
115.698452010751
 30
0.0
 11
-12.3695755004883
 21
115.698452010751
 31
0.0
  0
LINE
  5
   393
  8
0
  6
CONTINUOUS
 62
   130
 10
-12.3695639175126
 20
115.698452850619
 30
0.0
 11
-12.1833609218527
 21
115.166453237679
 31
0.0
  0
LINE
  5
   394
  8
0
  6
CONTINUOUS
 62
   130
 10
-12.1833724975586
 20
115.166452422738
 30
0.0
 11
-11.5183715820313
 21
115.166452422738
 31
0.0
  0
LINE
  5
   395
  8
0
  6
CONTINUOUS
 62
   130
 10
-12.8151245117188
 20
117.82644893229
 30
0.0
 11
-12.4493713378906
 21
117.82644893229
 31
0.0
  0
LINE
  5
   396
  8
0
  6
CONTINUOUS
 62
   130
 10
-12.8151245117188
 20
116.529696002603
 30
0.0
 11
-12.8151245117188
 21
117.82644893229
 31
0.0
  0
LINE
  5
   397
  8
0
  6
CONTINUOUS
 62
   130
 10
-12.8151245117188
 20
116.529696002603
 30
0.0
 11
-11.9955062866211
 21
116.529696002603
 31
0.0
  0
LINE
  5
   398
  8
0
  6
CONTINUOUS
 62
   130
 10
-12.4493637009414
 20
117.826446301416
 30
0.0
 11
-11.9954987514101
 21
116.529693479143
 31
0.0
  0
LINE
  5
   399
  8
0
  6
CONTINUOUS
 62
   130
 10
-11.3521194458008
 20
116.529696002603
 30
0.0
 11
-10.5873718261719
 21
116.529696002603
 31
0.0
  0
LINE
  5
   39A
  8
0
  6
CONTINUOUS
 62
   130
 10
-10.5873718261719
 20
116.529696002603
 30
0.0
 11
-10.5873718261719
 21
117.82644893229
 31
0.0
  0
LINE
  5
   39B
  8
0
  6
CONTINUOUS
 62
   130
 10
-11.3521194458008
 20
117.82644893229
 30
0.0
 11
-10.5873718261719
 21
117.82644893229
 31
0.0
  0
LINE
  5
   39C
  8
0
  6
CONTINUOUS
 62
   130
 10
-11.3521194458008
 20
115.166452422738
 30
0.0
 11
-10.5873718261719
 21
115.166452422738
 31
0.0
  0
LINE
  5
   39D
  8
0
  6
CONTINUOUS
 62
   130
 10
-10.5873718261719
 20
115.166452422738
 30
0.0
 11
-10.5873718261719
 21
116.463198199868
 31
0.0
  0
LINE
  5
   39E
  8
0
  6
CONTINUOUS
 62
   130
 10
-11.3521194458008
 20
116.463198199868
 30
0.0
 11
-10.5873718261719
 21
116.463198199868
 31
0.0
  0
LINE
  5
   39F
  8
0
  6
CONTINUOUS
 62
   130
 10
-9.29062652587891
 20
116.529696002603
 30
0.0
 11
-9.29062652587891
 21
117.82644893229
 31
0.0
  0
LINE
  5
   3A0
  8
0
  6
CONTINUOUS
 62
   130
 10
-9.29062652587891
 20
116.529696002603
 30
0.0
 11
-8.52587127685547
 21
116.529696002603
 31
0.0
  0
LINE
  5
   3A1
  8
0
  6
CONTINUOUS
 62
   130
 10
-8.52587127685547
 20
116.529696002603
 30
0.0
 11
-8.52587127685547
 21
117.82644893229
 31
0.0
  0
LINE
  5
   3A2
  8
0
  6
CONTINUOUS
 62
   130
 10
-9.29062652587891
 20
117.82644893229
 30
0.0
 11
-8.52587127685547
 21
117.82644893229
 31
0.0
  0
LINE
  5
   3A3
  8
0
  6
CONTINUOUS
 62
   130
 10
-9.29062652587891
 20
115.166452422738
 30
0.0
 11
-8.52587127685547
 21
115.166452422738
 31
0.0
  0
LINE
  5
   3A4
  8
0
  6
CONTINUOUS
 62
   130
 10
-8.52587127685547
 20
115.166452422738
 30
0.0
 11
-8.52587127685547
 21
116.463198199868
 31
0.0
  0
LINE
  5
   3A5
  8
0
  6
CONTINUOUS
 62
   130
 10
-9.29062652587891
 20
116.463198199868
 30
0.0
 11
-8.52587127685547
 21
116.463198199868
 31
0.0
  0
LINE
  5
   3A6
  8
0
  6
CONTINUOUS
 62
   130
 10
-9.29062652587891
 20
115.166452422738
 30
0.0
 11
-9.29062652587891
 21
116.463198199868
 31
0.0
  0
LINE
  5
   3A7
  8
0
  6
CONTINUOUS
 62
   130
 10
-8.45937347412109
 20
117.82644893229
 30
0.0
 11
-8.24563598632813
 21
117.82644893229
 31
0.0
  0
LINE
  5
   3A8
  8
0
  6
CONTINUOUS
 62
   130
 10
-8.45937347412109
 20
116.529696002603
 30
0.0
 11
-8.45937347412109
 21
117.82644893229
 31
0.0
  0
LINE
  5
   3A9
  8
0
  6
CONTINUOUS
 62
   130
 10
-8.45937347412109
 20
116.529696002603
 30
0.0
 11
-7.68519592285156
 21
116.529696002603
 31
0.0
  0
LINE
  5
   3AA
  8
0
  6
CONTINUOUS
 62
   130
 10
-7.79941102546393
 20
116.615834224517
 30
0.0
 11
-7.68519897370906
 21
116.529698347321
 31
0.0
  0
LINE
  5
   3AB
  8
0
  6
CONTINUOUS
 62
   130
 10
-7.9273735093293
 20
116.679758659196
 30
0.0
 11
-7.79940565613741
 21
116.615831956551
 31
0.0
  0
LINE
  5
   3AC
  8
0
  6
CONTINUOUS
 62
   130
 10
-7.9273719492701
 20
116.67975481993
 30
0.0
 11
-7.77505110169652
 21
116.809088297485
 31
0.0
  0
LINE
  5
   3AD
  8
0
  6
CONTINUOUS
 62
   130
 10
-7.77504655567404
 20
116.809086845252
 30
0.0
 11
-7.67200396457042
 21
116.98029045282
 31
0.0
  0
LINE
  5
   3AE
  8
0
  6
CONTINUOUS
 62
   130
 10
-7.67200632020997
 20
116.98029106631
 30
0.0
 11
-7.62902994594872
 21
117.175428066932
 31
0.0
  0
LINE
  5
   3AF
  8
0
  6
CONTINUOUS
 62
   130
 10
-7.65061507300706
 20
117.374084795946
 30
0.0
 11
-7.62903152227349
 21
117.175430579222
 31
0.0
  0
LINE
  5
   3B0
  8
0
  6
CONTINUOUS
 62
   130
 10
-7.73450572506047
 20
117.555439912286
 30
0.0
 11
-7.65062051907618
 21
117.374089182277
 31
0.0
  0
LINE
  5
   3B1
  8
0
  6
CONTINUOUS
 62
   130
 10
-7.87191408271431
 20
117.700522110054
 30
0.0
 11
-7.73450867416511
 21
117.555441534544
 31
0.0
  0
LINE
  5
   3B2
  8
0
  6
CONTINUOUS
 62
   130
 10
-8.0484431865992
 20
117.794106632348
 30
0.0
 11
-7.87190661903867
 21
117.700509212569
 31
0.0
  0
LINE
  5
   3B3
  8
0
  6
CONTINUOUS
 62
   130
 10
-8.45937347412109
 20
116.463198199868
 30
0.0
 11
-7.62021636962891
 21
116.463198199868
 31
0.0
  0
LINE
  5
   3B4
  8
0
  6
CONTINUOUS
 62
   130
 10
-8.45937347412109
 20
115.166452422738
 30
0.0
 11
-8.45937347412109
 21
116.463198199868
 31
0.0
  0
LINE
  5
   3B5
  8
0
  6
CONTINUOUS
 62
   130
 10
-8.45937347412109
 20
115.166452422738
 30
0.0
 11
-8.21205902099609
 21
115.166452422738
 31
0.0
  0
LINE
  5
   3B6
  8
0
  6
CONTINUOUS
 62
   130
 10
-8.2120558017377
 20
115.16645096368
 30
0.0
 11
-7.99129161775922
 21
115.198198302119
 31
0.0
  0
LINE
  5
   3B7
  8
0
  6
CONTINUOUS
 62
   130
 10
-7.99129283324677
 20
115.198198798168
 30
0.0
 11
-7.78841959064341
 21
115.290867809833
 31
0.0
  0
LINE
  5
   3B8
  8
0
  6
CONTINUOUS
 62
   130
 10
-7.7884214811761
 20
115.290867184592
 30
0.0
 11
-7.61988814038688
 21
115.436947683258
 31
0.0
  0
LINE
  5
   3B9
  8
0
  6
CONTINUOUS
 62
   130
 10
-7.61988681873756
 20
115.436948287608
 30
0.0
 11
-7.49934238571745
 21
115.62460087326
 31
0.0
  0
LINE
  5
   3BA
  8
0
  6
CONTINUOUS
 62
   130
 10
-7.49933394098107
 20
115.624598321398
 30
0.0
 11
-7.43655928449631
 21
115.838613794647
 31
0.0
  0
LINE
  5
   3BB
  8
0
  6
CONTINUOUS
 62
   130
 10
-7.43663453552315
 20
116.061651604381
 30
0.0
 11
-7.43656587097556
 21
115.838618165602
 31
0.0
  0
LINE
  5
   3BC
  8
0
  6
CONTINUOUS
 62
   130
 10
-7.49954506166884
 20
116.275629037994
 30
0.0
 11
-7.43663307906181
 21
116.061653120765
 31
0.0
  0
LINE
  5
   3BD
  8
0
  6
CONTINUOUS
 62
   130
 10
-7.62021453400571
 20
116.463195400446
 30
0.0
 11
-7.49954803139322
 21
116.275623877837
 31
0.0
  0
LINE
  5
   3BE
  8
0
  6
CONTINUOUS
 62
   130
 10
-10.5208740234375
 20
117.82644893229
 30
0.0
 11
-10.30712890625
 21
117.82644893229
 31
0.0
  0
LINE
  5
   3BF
  8
0
  6
CONTINUOUS
 62
   130
 10
-10.5208740234375
 20
116.529696002603
 30
0.0
 11
-10.5208740234375
 21
117.82644893229
 31
0.0
  0
LINE
  5
   3C0
  8
0
  6
CONTINUOUS
 62
   130
 10
-10.5208740234375
 20
116.529696002603
 30
0.0
 11
-9.74669647216797
 21
116.529696002603
 31
0.0
  0
LINE
  5
   3C1
  8
0
  6
CONTINUOUS
 62
   130
 10
-9.86090661475706
 20
116.615830342762
 30
0.0
 11
-9.74669456300218
 21
116.529694465566
 31
0.0
  0
LINE
  5
   3C2
  8
0
  6
CONTINUOUS
 62
   130
 10
-9.98887553700416
 20
116.679758807971
 30
0.0
 11
-9.86090768381229
 21
116.615832105325
 31
0.0
  0
LINE
  5
   3C3
  8
0
  6
CONTINUOUS
 62
   130
 10
-9.98887362845826
 20
116.679758808522
 30
0.0
 11
-9.83655278088467
 21
116.809092286078
 31
0.0
  0
LINE
  5
   3C4
  8
0
  6
CONTINUOUS
 62
   130
 10
-9.83655019780805
 20
116.809089123058
 30
0.0
 11
-9.73350760670445
 21
116.980292730625
 31
0.0
  0
LINE
  5
   3C5
  8
0
  6
CONTINUOUS
 62
   130
 10
-9.73350812461391
 20
116.980291893733
 30
0.0
 11
-9.69052411940787
 21
117.175428905743
 31
0.0
  0
LINE
  5
   3C6
  8
0
  6
CONTINUOUS
 62
   130
 10
-9.71210711586696
 20
117.374088095917
 30
0.0
 11
-9.69052356513338
 21
117.175433879193
 31
0.0
  0
LINE
  5
   3C7
  8
0
  6
CONTINUOUS
 62
   130
 10
-9.79600324063657
 20
117.555433846916
 30
0.0
 11
-9.71211041241379
 21
117.374083125541
 31
0.0
  0
LINE
  5
   3C8
  8
0
  6
CONTINUOUS
 62
   130
 10
-9.93341154308797
 20
117.700525587519
 30
0.0
 11
-9.79600613453879
 21
117.555445012009
 31
0.0
  0
LINE
  5
   3C9
  8
0
  6
CONTINUOUS
 62
   130
 10
-10.1099487191717
 20
117.794109045691
 30
0.0
 11
-9.93341215161119
 21
117.700511625912
 31
0.0
  0
LINE
  5
   3CA
  8
0
  6
CONTINUOUS
 62
   130
 10
-10.3071295314544
 20
117.826449432959
 30
0.0
 11
-10.1099477880824
 21
117.794116059961
 31
0.0
  0
LINE
  5
   3CB
  8
0
  6
CONTINUOUS
 62
   130
 10
-10.5208740234375
 20
116.463198199868
 30
0.0
 11
-9.68171691894531
 21
116.463198199868
 31
0.0
  0
LINE
  5
   3CC
  8
0
  6
CONTINUOUS
 62
   130
 10
-10.5208740234375
 20
115.166452422738
 30
0.0
 11
-10.5208740234375
 21
116.463198199868
 31
0.0
  0
LINE
  5
   3CD
  8
0
  6
CONTINUOUS
 62
   130
 10
-10.5208740234375
 20
115.166452422738
 30
0.0
 11
-10.2735595703125
 21
115.166452422738
 31
0.0
  0
LINE
  5
   3CE
  8
0
  6
CONTINUOUS
 62
   130
 10
-10.2735589362551
 20
115.166446057592
 30
0.0
 11
-10.0527947522766
 21
115.198193396032
 31
0.0
  0
LINE
  5
   3CF
  8
0
  6
CONTINUOUS
 62
   130
 10
-10.0527931681106
 20
115.198197490822
 30
0.0
 11
-9.84991992550725
 21
115.290866502487
 31
0.0
  0
LINE
  5
   3D0
  8
0
  6
CONTINUOUS
 62
   130
 10
-9.84992145475719
 20
115.290866210222
 30
0.0
 11
-9.681388113968
 21
115.436946708888
 31
0.0
  0
LINE
  5
   3D1
  8
0
  6
CONTINUOUS
 62
   130
 10
-9.68138840167239
 20
115.436948543985
 30
0.0
 11
-9.56084396865229
 21
115.624601129636
 31
0.0
  0
LINE
  5
   3D2
  8
0
  6
CONTINUOUS
 62
   130
 10
-9.56083873916243
 20
115.624601127831
 30
0.0
 11
-9.49805644685073
 21
115.838616624161
 31
0.0
  0
LINE
  5
   3D3
  8
0
  6
CONTINUOUS
 62
   130
 10
-9.49813743018174
 20
116.061651836137
 30
0.0
 11
-9.49806113627373
 21
115.838618394866
 31
0.0
  0
LINE
  5
   3D4
  8
0
  6
CONTINUOUS
 62
   130
 10
-9.56104374806061
 20
116.27562893594
 30
0.0
 11
-9.49813176545358
 21
116.061653018711
 31
0.0
  0
LINE
  5
   3D5
  8
0
  6
CONTINUOUS
 62
   130
 10
-9.68171308601268
 20
116.463195910476
 30
0.0
 11
-9.5610465834002
 21
116.275624387867
 31
0.0
  0
LINE
  5
   3D6
  8
0
  6
CONTINUOUS
 62
   130
 10
-11.3521194458008
 20
115.166452422738
 30
0.0
 11
-11.3521194458008
 21
117.82644893229
 31
0.0
  0
LINE
  5
   3D7
  8
0
  6
CONTINUOUS
 62
   130
 10
-16.9408980560325
 20
113.462558746333
 30
0.0
 11
11.0590593528737
 21
113.462558746333
 31
0.0
  0
LINE
  5
   3D8
  8
0
  6
CONTINUOUS
 62
   130
 10
11.5590600967414
 20
112.462558746333
 30
0.0
 11
11.5590600967414
 21
115.462558746333
 31
0.0
  0
LINE
  5
   3D9
  8
0
  6
CONTINUOUS
 62
   130
 10
32.559088706968
 20
112.462558746333
 30
0.0
 11
32.559088706968
 21
115.462558746333
 31
0.0
  0
LINE
  5
   3DA
  8
0
  6
CONTINUOUS
 62
   130
 10
11.5590592765798
 20
115.462558746333
 30
0.0
 11
32.5590895271294
 21
115.462558746333
 31
0.0
  0
LINE
  5
   3DB
  8
0
  6
CONTINUOUS
 62
   130
 10
33.0590894508354
 20
113.462558746333
 30
0.0
 11
61.0590468597417
 21
113.462558746333
 31
0.0
  0
LINE
  5
   3DC
  8
0
  6
CONTINUOUS
 62
   130
 10
11.0590592575062
 20
115.962558746333
 30
0.0
 11
33.0590895462029
 21
115.962558746333
 31
0.0
  0
LINE
  5
   3DD
  8
0
  6
CONTINUOUS
 62
   130
 10
33.059088706968
 20
112.462558746333
 30
0.0
 11
33.059088706968
 21
115.962558746333
 31
0.0
  0
LINE
  5
   3DE
  8
0
  6
CONTINUOUS
 62
   130
 10
11.0590600967413
 20
112.462558746333
 30
0.0
 11
11.0590600967413
 21
115.962558746333
 31
0.0
  0
LINE
  5
   3DF
  8
0
  6
CONTINUOUS
 62
   130
 10
58.5590744018518
 20
153.962516463245
 30
0.0
 11
58.5590744018518
 21
164.462531722034
 31
0.0
  0
LINE
  5
   3E0
  8
0
  6
CONTINUOUS
 62
   130
 10
-14.4409255981399
 20
153.962516463245
 30
0.0
 11
-14.4409255981399
 21
164.462531722034
 31
0.0
  0
LINE
  5
   3E1
  8
0
  6
CONTINUOUS
 62
   130
 10
58.5590788269008
 20
49.4625318746222
 30
0.0
 11
58.5590788269008
 21
62.9625469808234
 31
0.0
  0
INSERT
  5
   3E2
  8
0
  6
CONTINUOUS
 62
     3
  2
SSS
 10
34.5591563562486
 20
58.4625760930639
 30
0.0
 50
359.999999792138
  0
INSERT
  5
   3E3
  8
0
  6
CONTINUOUS
 62
     3
  2
SSS
 10
9.55911054255836
 20
158.462594122442
 30
0.0
 50
359.999999792138
  0
CIRCLE
  5
   3E4
  8
0
  6
CONTINUOUS
 62
   130
 10
34.5591563562485
 20
58.4625760930639
 30
0.0
 40
4.4999575073053
  0
LINE
  5
   3E5
  8
0
  6
CONTINUOUS
 62
   130
 10
11.5590600967414
 20
83.5507079517038
 30
0.0
 11
11.5590600967414
 21
86.5507079517037
 31
0.0
  0
LINE
  5
   3E6
  8
0
  6
CONTINUOUS
 62
   130
 10
11.5590603794799
 20
86.5507079517037
 30
0.0
 11
14.5590603794799
 21
86.5507079517037
 31
0.0
  0
LINE
  5
   3E7
  8
0
  6
CONTINUOUS
 62
   130
 10
11.5590604939209
 20
83.5507079517038
 30
0.0
 11
15.5590604939209
 21
83.5507079517038
 31
0.0
  0
LINE
  5
   3E8
  8
0
  6
CONTINUOUS
 62
   130
 10
32.0591492522837
 20
164.962528228762
 30
0.0
 11
37.059177372674
 21
164.962528228762
 31
0.0
  0
LINE
  5
   3E9
  8
0
  6
CONTINUOUS
 62
   130
 10
7.05903102267617
 20
51.9625587463397
 30
0.0
 11
12.0590591430664
 21
51.9625587463397
 31
0.0
  0
LINE
  5
   3EA
  8
0
  6
CONTINUOUS
 62
   130
 10
32.0591492522837
 20
51.9625587463397
 30
0.0
 11
37.059177372674
 21
51.9625587463397
 31
0.0
  0
LINE
  5
   3EB
  8
0
  6
CONTINUOUS
 62
   130
 10
6.45907669067316
 20
76.7125434875507
 30
0.0
 11
6.45907669067316
 21
81.2125434875506
 31
0.0
  0
LINE
  5
   3EC
  8
0
  6
CONTINUOUS
 62
   130
 10
-3.54092330932684
 20
76.7125434875507
 30
0.0
 11
-3.54092330932684
 21
81.2125434875506
 31
0.0
  0
LINE
  5
   3ED
  8
0
  6
CONTINUOUS
 62
   130
 10
-3.54092330932684
 20
81.2125434875506
 30
0.0
 11
6.45907669067316
 21
81.2125434875506
 31
0.0
  0
LINE
  5
   3EE
  8
0
  6
CONTINUOUS
 62
   130
 10
-3.54092330932684
 20
76.7125434875507
 30
0.0
 11
6.45907669067316
 21
76.7125434875507
 31
0.0
  0
LINE
  5
   3EF
  8
0
  6
CONTINUOUS
 62
   130
 10
-16.9408905792256
 20
64.4625469808234
 30
0.0
 11
22.0590601699958
 21
64.4625469808234
 31
0.0
  0
LINE
  5
   3F0
  8
0
  6
CONTINUOUS
 62
   130
 10
-15.9408751617709
 20
62.9625469808234
 30
0.0
 11
22.0590810775757
 21
62.9625469808234
 31
0.0
  0
LINE
  5
   3F1
  8
0
  6
CONTINUOUS
 62
   130
 10
-13.4408772217075
 20
48.4625434875506
 30
0.0
 11
8.05903102267617
 21
48.4625434875506
 31
0.0
  0
LINE
  5
   3F2
  8
0
  6
CONTINUOUS
 62
     7
 10
145.059074401855
 20
142.962554931641
 30
0.0
 11
156.059074401855
 21
142.962554931641
 31
0.0
  0
LINE
  5
   3F3
  8
0
  6
CONTINUOUS
 62
     7
 10
145.059074401855
 20
140.962554931641
 30
0.0
 11
156.059074401855
 21
140.962554931641
 31
0.0
  0
LINE
  5
   3F4
  8
0
  6
CONTINUOUS
 62
     7
 10
145.059074401855
 20
140.462554931641
 30
0.0
 11
156.059074401855
 21
140.462554931641
 31
0.0
  0
LINE
  5
   3F5
  8
0
  6
CONTINUOUS
 62
     7
 10
145.059074401855
 20
138.462554931641
 30
0.0
 11
156.059074401855
 21
138.462554931641
 31
0.0
  0
LINE
  5
   3F6
  8
0
  6
CONTINUOUS
 62
     7
 10
145.059074401855
 20
137.962554931641
 30
0.0
 11
156.059074401855
 21
137.962554931641
 31
0.0
  0
LINE
  5
   3F7
  8
0
  6
CONTINUOUS
 62
     7
 10
145.059074401855
 20
135.962554931641
 30
0.0
 11
156.059074401855
 21
135.962554931641
 31
0.0
  0
LINE
  5
   3F8
  8
0
  6
CONTINUOUS
 62
     7
 10
145.059074401855
 20
135.462554931641
 30
0.0
 11
156.059074401855
 21
135.462554931641
 31
0.0
  0
LINE
  5
   3F9
  8
0
  6
CONTINUOUS
 62
     7
 10
145.059074401855
 20
133.462554931641
 30
0.0
 11
156.059074401855
 21
133.462554931641
 31
0.0
  0
ARC
  5
   3FA
  8
0
  6
CONTINUOUS
 62
     7
 10
156.059074401855
 20
141.962554931641
 30
0.0
 40
1.0
 50
270.0
 51
450.0
  0
ARC
  5
   3FB
  8
0
  6
CONTINUOUS
 62
     7
 10
156.059074401855
 20
139.462554931641
 30
0.0
 40
1.0
 50
270.0
 51
450.0
  0
ARC
  5
   3FC
  8
0
  6
CONTINUOUS
 62
     7
 10
156.059074401855
 20
136.962554931641
 30
0.0
 40
1.0
 50
270.0
 51
450.0
  0
ARC
  5
   3FD
  8
0
  6
CONTINUOUS
 62
     7
 10
156.059074401855
 20
134.462554931641
 30
0.0
 40
1.0
 50
270.0
 51
450.0
  0
LINE
  5
   3FE
  8
0
  6
CONTINUOUS
 62
   252
 10
67.0591005295511
 20
152.16255569458
 30
0.0
 11
67.0591005295511
 21
152.462524414063
 31
0.0
  0
LINE
  5
   3FF
  8
0
  6
CONTINUOUS
 62
   252
 10
67.0591005295249
 20
64.4625244140625
 30
0.0
 11
67.0591005295249
 21
64.7625579833984
 31
0.0
  0
LINE
  5
   400
  8
0
  6
CONTINUOUS
 62
   252
 10
29.0590744018555
 20
85.5834117244116
 30
0.0
 11
29.3403091430664
 21
85.5834117244116
 31
0.0
  0
LINE
  5
   401
  8
0
  6
CONTINUOUS
 62
   130
 10
19.2352830320048
 20
91.9206322536116
 30
0.0
 11
22.8409657924015
 21
91.3485521754524
 31
0.0
  0
ARC
  5
   402
  8
0
  6
CONTINUOUS
 62
   130
 10
22.9976670259263
 20
92.3361982271334
 30
0.0
 40
0.999999999994522
 50
260.984524434776
 51
299.484697160587
  0
LINE
  5
   403
  8
0
  6
CONTINUOUS
 62
   130
 10
23.4898581095696
 20
91.4657110433239
 30
0.0
 11
29.3014287908684
 21
94.7516725311374
 31
0.0
  0
ARC
  5
   404
  8
0
  6
CONTINUOUS
 62
   130
 10
30.039714021148
 20
93.4459409665518
 30
0.0
 40
1.50000000000006
 50
29.4846255575321
 51
119.484635939135
  0
LINE
  5
   405
  8
0
  6
CONTINUOUS
 62
   130
 10
31.3454457195029
 20
94.1842259602458
 30
0.0
 11
33.8063932392126
 21
89.8317798020052
 31
0.0
  0
ARC
  5
   406
  8
0
  6
CONTINUOUS
 62
   130
 10
32.5006590673556
 20
89.0934991829612
 30
0.0
 40
1.50000000000007
 50
299.484492926009
 51
389.484433597134
  0
LINE
  5
   407
  8
0
  6
CONTINUOUS
 62
   130
 10
29.1904908498911
 20
85.4987027779013
 30
0.0
 11
33.2389410384634
 21
87.7877657755842
 31
0.0
  0
ARC
  5
   408
  8
0
  6
CONTINUOUS
 62
   130
 10
28.6982999313361
 20
86.3691900548564
 30
0.0
 40
0.999999999821211
 50
291.971812800874
 51
299.48468629967
  0
LINE
  5
   409
  8
0
  6
CONTINUOUS
 62
   130
 10
23.3966518400799
 20
81.8298918247068
 30
0.0
 11
23.7205163981219
 21
81.2571030755968
 31
0.0
  0
ARC
  5
   40A
  8
0
  6
CONTINUOUS
 62
   130
 10
27.2024689150738
 20
83.2258607218541
 30
0.0
 40
4.00000000000003
 50
209.484587103331
 51
299.484557514029
  0
LINE
  5
   40B
  8
0
  6
CONTINUOUS
 62
   130
 10
29.1712247631428
 20
79.7439071881761
 30
0.0
 11
41.9482773251455
 21
86.9682712971102
 31
0.0
  0
LINE
  5
   40C
  8
0
  6
CONTINUOUS
 62
   130
 10
32.4986611189279
 20
102.303343985679
 30
0.0
 11
35.0590741676422
 21
102.571756689748
 31
0.0
  0
LINE
  5
   40D
  8
0
  6
CONTINUOUS
 62
   130
 10
19.0454284326506
 20
94.696656683168
 30
0.0
 11
32.4986611132347
 21
102.303344599267
 31
0.0
  0
LINE
  5
   40E
  8
0
  6
CONTINUOUS
 62
   130
 10
41.9482775872021
 20
86.9682715379796
 30
0.0
 11
44.5405617257314
 21
87.9625548020477
 31
0.0
  0
ARC
  5
   40F
  8
0
  6
CONTINUOUS
 62
   130
 10
19.3919838993926
 20
92.90827836339
 30
0.0
 40
0.999999999999915
 50
170.984518027921
 51
260.984545675236
  0
LINE
  5
   410
  8
0
  6
CONTINUOUS
 62
   252
 10
66.0590744018555
 20
87.9625549316406
 30
0.0
 11
67.0590744018555
 21
87.9625549316406
 31
0.0
  0
LINE
  5
   411
  8
0
  6
CONTINUOUS
 62
   252
 10
66.0590744018555
 20
112.462554931641
 30
0.0
 11
67.0590744018555
 21
112.462554931641
 31
0.0
  0
LINE
  5
   412
  8
0
  6
CONTINUOUS
 62
   252
 10
67.0590744018512
 20
112.462554931641
 30
0.0
 11
67.0590744018512
 21
118.962554931641
 31
0.0
  0
LINE
  5
   413
  8
0
  6
CONTINUOUS
 62
   252
 10
67.0590744018512
 20
87.9625549316406
 30
0.0
 11
67.0590744018512
 21
112.462554931641
 31
0.0
  0
LINE
  5
   414
  8
0
  6
CONTINUOUS
 62
   252
 10
67.0590744018512
 20
73.9625549316406
 30
0.0
 11
67.0590744018512
 21
87.9625549316406
 31
0.0
  0
LINE
  5
   415
  8
0
  6
CONTINUOUS
 62
   252
 10
61.0590438842742
 20
118.962554931641
 30
0.0
 11
145.059074401855
 21
118.962554931641
 31
0.0
  0
LINE
  5
   416
  8
0
  6
CONTINUOUS
 62
   252
 10
61.0590438842742
 20
73.9625549316406
 30
0.0
 11
145.059074401855
 21
73.9625549316406
 31
0.0
  0
LINE
  5
   417
  8
0
  6
CONTINUOUS
 62
   252
 10
53.7193288803101
 20
87.9625549316406
 30
0.0
 11
66.0590744018555
 21
87.9625549316406
 31
0.0
  0
LINE
  5
   418
  8
0
  6
CONTINUOUS
 62
   252
 10
53.7193288803101
 20
112.462554931641
 30
0.0
 11
66.0590744018555
 21
112.462554931641
 31
0.0
  0
LINE
  5
   419
  8
0
  6
CONTINUOUS
 62
   252
 10
68.5590744018555
 20
80.4625549316406
 30
0.0
 11
68.5590744018555
 21
81.9625549316406
 31
0.0
  0
LINE
  5
   41A
  8
0
  6
CONTINUOUS
 62
   252
 10
68.5590744018555
 20
81.9625549316406
 30
0.0
 11
143.559074401855
 21
81.9625549316406
 31
0.0
  0
LINE
  5
   41B
  8
0
  6
CONTINUOUS
 62
   252
 10
68.5590744018555
 20
80.4625549316406
 30
0.0
 11
143.559074401855
 21
80.4625549316406
 31
0.0
  0
LINE
  5
   41C
  8
0
  6
CONTINUOUS
 62
   252
 10
143.559074401855
 20
80.4625549316406
 30
0.0
 11
143.559074401855
 21
81.9625549316406
 31
0.0
  0
LINE
  5
   41D
  8
0
  6
CONTINUOUS
 62
   252
 10
68.5590744018555
 20
110.962554931641
 30
0.0
 11
68.5590744018555
 21
112.462554931641
 31
0.0
  0
LINE
  5
   41E
  8
0
  6
CONTINUOUS
 62
   252
 10
68.5590744018555
 20
112.462554931641
 30
0.0
 11
143.559074401855
 21
112.462554931641
 31
0.0
  0
LINE
  5
   41F
  8
0
  6
CONTINUOUS
 62
   252
 10
68.5590744018555
 20
110.962554931641
 30
0.0
 11
143.559074401855
 21
110.962554931641
 31
0.0
  0
LINE
  5
   420
  8
0
  6
CONTINUOUS
 62
   252
 10
143.559074401855
 20
110.962554931641
 30
0.0
 11
143.559074401855
 21
112.462554931641
 31
0.0
  0
LINE
  5
   421
  8
0
  6
CONTINUOUS
 62
   252
 10
53.7193284396999
 20
87.9625549316406
 30
0.0
 11
53.7193284396999
 21
112.462554931641
 31
0.0
  0
LINE
  5
   422
  8
0
  6
CONTINUOUS
 62
   252
 10
35.0590744018555
 20
87.9625549316406
 30
0.0
 11
35.0590744018555
 21
112.462554931641
 31
0.0
  0
LINE
  5
   423
  8
0
  6
CONTINUOUS
 62
   252
 10
35.0590744018555
 20
87.9625549316406
 30
0.0
 11
53.7193288803101
 21
87.9625549316406
 31
0.0
  0
LINE
  5
   424
  8
0
  6
CONTINUOUS
 62
   252
 10
35.0590744018555
 20
112.462554931641
 30
0.0
 11
53.7193288803101
 21
112.462554931641
 31
0.0
  0
LINE
  5
   425
  8
0
  6
CONTINUOUS
 62
   252
 10
145.059074401855
 20
154.162554740906
 30
0.0
 11
145.059074401855
 21
169.162554931641
 31
0.0
  0
LINE
  5
   426
  8
0
  6
CONTINUOUS
 62
   252
 10
67.0590744018555
 20
154.162554740906
 30
0.0
 11
67.0590744018555
 21
170.462554931641
 31
0.0
  0
LINE
  5
   427
  8
0
  6
CONTINUOUS
 62
   252
 10
145.059074401855
 20
118.962554931641
 30
0.0
 11
145.059074401855
 21
152.16255569458
 31
0.0
  0
LINE
  5
   428
  8
0
  6
CONTINUOUS
 62
   252
 10
67.0590744018555
 20
118.962554931641
 30
0.0
 11
67.0590744018555
 21
152.16255569458
 31
0.0
  0
LINE
  5
   429
  8
0
  6
CONTINUOUS
 62
   252
 10
145.059074401855
 20
64.7625579833984
 30
0.0
 11
145.059074401855
 21
73.9625549316406
 31
0.0
  0
LINE
  5
   42A
  8
0
  6
CONTINUOUS
 62
   252
 10
67.0590744018555
 20
64.7625579833984
 30
0.0
 11
67.0590744018555
 21
73.9625396728516
 31
0.0
  0
LINE
  5
   42B
  8
0
  6
CONTINUOUS
 62
   252
 10
145.059074401855
 20
47.7625549316406
 30
0.0
 11
145.059074401855
 21
62.7625579833984
 31
0.0
  0
LINE
  5
   42C
  8
0
  6
CONTINUOUS
 62
   252
 10
67.0590744018555
 20
46.4625549316406
 30
0.0
 11
67.0590744018555
 21
62.7625579833984
 31
0.0
  0
LINE
  5
   42D
  8
0
  6
CONTINUOUS
 62
   252
 10
67.0590744018555
 20
152.162554931641
 30
0.0
 11
136.968193054199
 21
152.162554931641
 31
0.0
  0
LINE
  5
   42E
  8
0
  6
CONTINUOUS
 62
   252
 10
141.150245666504
 20
152.162554931641
 30
0.0
 11
145.059074401855
 21
152.162554931641
 31
0.0
  0
LINE
  5
   42F
  8
0
  6
CONTINUOUS
 62
   252
 10
67.0590744018555
 20
64.7625549316406
 30
0.0
 11
70.9681146144867
 21
64.7625549316406
 31
0.0
  0
LINE
  5
   430
  8
0
  6
CONTINUOUS
 62
   252
 10
75.1503095626831
 20
64.7625549316406
 30
0.0
 11
145.059074401855
 21
64.7625549316406
 31
0.0
  0
LINE
  5
   431
  8
0
  6
CONTINUOUS
 62
   252
 10
133.309074401855
 20
86.208625793457
 30
0.0
 11
133.309074401855
 21
106.708625793457
 31
0.0
  0
LINE
  5
   432
  8
0
  6
CONTINUOUS
 62
   252
 10
133.309074401855
 20
86.2086238118062
 30
0.0
 11
135.809074401856
 21
86.2086238118062
 31
0.0
  0
LINE
  5
   433
  8
0
  6
CONTINUOUS
 62
   252
 10
133.309074401855
 20
106.708623811806
 30
0.0
 11
135.809074401856
 21
106.708623811806
 31
0.0
  0
LINE
  5
   434
  8
0
  6
CONTINUOUS
 62
   252
 10
135.809074401856
 20
86.208625793457
 30
0.0
 11
135.809074401856
 21
106.708625793457
 31
0.0
  0
LINE
  5
   435
  8
0
  6
CONTINUOUS
 62
   252
 10
67.0590744018555
 20
62.7625579833984
 30
0.0
 11
67.0590744018555
 21
64.4625244140625
 31
0.0
  0
LINE
  5
   436
  8
0
  6
CONTINUOUS
 62
   252
 10
67.0590744018555
 20
62.7625549316406
 30
0.0
 11
145.059074401855
 21
62.7625549316406
 31
0.0
  0
LINE
  5
   437
  8
0
  6
CONTINUOUS
 62
   252
 10
145.059074401855
 20
62.7625579833984
 30
0.0
 11
145.059074401855
 21
64.7625579833984
 31
0.0
  0
LINE
  5
   438
  8
0
  6
CONTINUOUS
 62
   252
 10
67.0590744018555
 20
152.462524414063
 30
0.0
 11
67.0590744018555
 21
154.162554740906
 31
0.0
  0
LINE
  5
   439
  8
0
  6
CONTINUOUS
 62
   252
 10
67.0590744018555
 20
154.162554931641
 30
0.0
 11
145.059074401855
 21
154.162554931641
 31
0.0
  0
LINE
  5
   43A
  8
0
  6
CONTINUOUS
 62
   252
 10
145.059074401855
 20
152.16255569458
 30
0.0
 11
145.059074401855
 21
154.162554740906
 31
0.0
  0
LINE
  5
   43B
  8
0
  6
CONTINUOUS
 62
   252
 10
61.0590438842742
 20
46.4625549316406
 30
0.0
 11
67.0590744018555
 21
46.4625549316406
 31
0.0
  0
LINE
  5
   43C
  8
0
  6
CONTINUOUS
 62
   252
 10
61.0590438842742
 20
170.462554931641
 30
0.0
 11
67.0590744018555
 21
170.462554931641
 31
0.0
  0
LINE
  5
   43D
  8
0
  6
CONTINUOUS
 62
   252
 10
145.059074401855
 20
73.9625549316406
 30
0.0
 11
145.059074401855
 21
118.962554931641
 31
0.0
  0
ARC
  5
   43E
  8
0
  6
CONTINUOUS
 62
   130
 10
19.5376168960053
 20
93.826168017798
 30
0.0
 40
0.999999999998836
 50
119.484524691914
 51
170.984353195392
  0
LINE
  5
   43F
  8
0
  6
CONTINUOUS
 62
   130
 10
18.4043378652281
 20
93.0649797073523
 30
0.0
 11
18.5499713126486
 21
93.9828722030863
 31
0.0
  0
LINE
  5
   440
  8
0
  6
DASHDOT
 62
     7
 10
139.05921727408
 20
60.4625366248368
 30
0.0
 11
139.05921727408
 21
76.4625366248367
 31
0.0
  0
LINE
  5
   441
  8
0
  6
DASHDOT
 62
     7
 10
73.0592172740799
 20
140.462536624837
 30
0.0
 11
73.0592172740799
 21
156.462536624837
 31
0.0
  0
LINE
  5
   442
  8
0
  6
DASHDOT
 62
     7
 10
22.0591115871543
 20
48.7123913830119
 30
0.0
 11
22.0591115871543
 21
66.2123913830119
 31
0.0
  0
ARC
  5
   443
  8
0
  6
CONTINUOUS
 62
     7
 10
143.759074401855
 20
169.162554931641
 30
0.0
 40
1.3
 50
0.0
 51
90.0
  0
ARC
  5
   444
  8
0
  6
CONTINUOUS
 62
     7
 10
68.3590744018555
 20
169.162554931641
 30
0.0
 40
1.3
 50
90.0
 51
180.0
  0
ARC
  5
   445
  8
0
  6
CONTINUOUS
 62
     7
 10
68.3590744018555
 20
47.7625549316406
 30
0.0
 40
1.3
 50
180.0
 51
270.0
  0
ARC
  5
   446
  8
0
  6
CONTINUOUS
 62
     7
 10
143.759074401855
 20
47.7625549316406
 30
0.0
 40
1.3
 50
270.0
 51
360.0
  0
LINE
  5
   447
  8
0
  6
CONTINUOUS
 62
     7
 10
68.9090744018555
 20
154.162554931641
 30
0.0
 11
68.9090744018555
 21
170.462554931641
 31
0.0
  0
LINE
  5
   448
  8
0
  6
CONTINUOUS
 62
     7
 10
69.4090744018555
 20
154.162554931641
 30
0.0
 11
69.4090744018555
 21
170.462554931641
 31
0.0
  0
LINE
  5
   449
  8
0
  6
CONTINUOUS
 62
     7
 10
71.2090744018555
 20
154.162554931641
 30
0.0
 11
71.2090744018555
 21
170.462554931641
 31
0.0
  0
LINE
  5
   44A
  8
0
  6
CONTINUOUS
 62
     7
 10
70.7090744018555
 20
154.162554931641
 30
0.0
 11
70.7090744018555
 21
170.462554931641
 31
0.0
  0
LINE
  5
   44B
  8
0
  6
CONTINUOUS
 62
     7
 10
72.5090744018555
 20
154.162554931641
 30
0.0
 11
72.5090744018555
 21
170.462554931641
 31
0.0
  0
LINE
  5
   44C
  8
0
  6
CONTINUOUS
 62
     7
 10
73.0090744018555
 20
154.162554931641
 30
0.0
 11
73.0090744018555
 21
170.462554931641
 31
0.0
  0
LINE
  5
   44D
  8
0
  6
CONTINUOUS
 62
     7
 10
74.8090744018555
 20
154.162554931641
 30
0.0
 11
74.8090744018555
 21
170.462554931641
 31
0.0
  0
LINE
  5
   44E
  8
0
  6
CONTINUOUS
 62
     7
 10
74.3090744018555
 20
154.162554931641
 30
0.0
 11
74.3090744018555
 21
170.462554931641
 31
0.0
  0
LINE
  5
   44F
  8
0
  6
CONTINUOUS
 62
     7
 10
76.1090744018555
 20
154.162554931641
 30
0.0
 11
76.1090744018555
 21
170.462554931641
 31
0.0
  0
LINE
  5
   450
  8
0
  6
CONTINUOUS
 62
     7
 10
76.6090744018555
 20
154.162554931641
 30
0.0
 11
76.6090744018555
 21
170.462554931641
 31
0.0
  0
LINE
  5
   451
  8
0
  6
CONTINUOUS
 62
     7
 10
78.4090744018555
 20
154.162554931641
 30
0.0
 11
78.4090744018555
 21
170.462554931641
 31
0.0
  0
LINE
  5
   452
  8
0
  6
CONTINUOUS
 62
     7
 10
77.9090744018555
 20
154.162554931641
 30
0.0
 11
77.9090744018555
 21
170.462554931641
 31
0.0
  0
LINE
  5
   453
  8
0
  6
CONTINUOUS
 62
     7
 10
79.7090744018555
 20
154.162554931641
 30
0.0
 11
79.7090744018555
 21
170.462554931641
 31
0.0
  0
LINE
  5
   454
  8
0
  6
CONTINUOUS
 62
     7
 10
80.2090744018555
 20
154.162554931641
 30
0.0
 11
80.2090744018555
 21
170.462554931641
 31
0.0
  0
LINE
  5
   455
  8
0
  6
CONTINUOUS
 62
     7
 10
82.0090744018555
 20
154.162554931641
 30
0.0
 11
82.0090744018555
 21
170.462554931641
 31
0.0
  0
LINE
  5
   456
  8
0
  6
CONTINUOUS
 62
     7
 10
81.5090744018555
 20
154.162554931641
 30
0.0
 11
81.5090744018555
 21
170.462554931641
 31
0.0
  0
LINE
  5
   457
  8
0
  6
CONTINUOUS
 62
     7
 10
83.3090744018555
 20
154.162554931641
 30
0.0
 11
83.3090744018555
 21
170.462554931641
 31
0.0
  0
LINE
  5
   458
  8
0
  6
CONTINUOUS
 62
     7
 10
83.8090744018555
 20
154.162554931641
 30
0.0
 11
83.8090744018555
 21
170.462554931641
 31
0.0
  0
LINE
  5
   459
  8
0
  6
CONTINUOUS
 62
     7
 10
85.6090744018555
 20
154.162554931641
 30
0.0
 11
85.6090744018555
 21
170.462554931641
 31
0.0
  0
LINE
  5
   45A
  8
0
  6
CONTINUOUS
 62
     7
 10
85.1090744018555
 20
154.162554931641
 30
0.0
 11
85.1090744018555
 21
170.462554931641
 31
0.0
  0
LINE
  5
   45B
  8
0
  6
CONTINUOUS
 62
     7
 10
86.9090744018555
 20
154.162554931641
 30
0.0
 11
86.9090744018555
 21
170.462554931641
 31
0.0
  0
LINE
  5
   45C
  8
0
  6
CONTINUOUS
 62
     7
 10
87.4090744018555
 20
154.162554931641
 30
0.0
 11
87.4090744018555
 21
170.462554931641
 31
0.0
  0
LINE
  5
   45D
  8
0
  6
CONTINUOUS
 62
     7
 10
89.2090744018555
 20
154.162554931641
 30
0.0
 11
89.2090744018555
 21
170.462554931641
 31
0.0
  0
LINE
  5
   45E
  8
0
  6
CONTINUOUS
 62
     7
 10
88.7090744018555
 20
154.162554931641
 30
0.0
 11
88.7090744018555
 21
170.462554931641
 31
0.0
  0
LINE
  5
   45F
  8
0
  6
CONTINUOUS
 62
     7
 10
90.5090744018555
 20
154.162554931641
 30
0.0
 11
90.5090744018555
 21
170.462554931641
 31
0.0
  0
LINE
  5
   460
  8
0
  6
CONTINUOUS
 62
     7
 10
91.0090744018555
 20
154.162554931641
 30
0.0
 11
91.0090744018555
 21
170.462554931641
 31
0.0
  0
LINE
  5
   461
  8
0
  6
CONTINUOUS
 62
     7
 10
92.8090744018555
 20
154.162554931641
 30
0.0
 11
92.8090744018555
 21
170.462554931641
 31
0.0
  0
LINE
  5
   462
  8
0
  6
CONTINUOUS
 62
     7
 10
92.3090744018555
 20
154.162554931641
 30
0.0
 11
92.3090744018555
 21
170.462554931641
 31
0.0
  0
LINE
  5
   463
  8
0
  6
CONTINUOUS
 62
     7
 10
94.1090744018555
 20
154.162554931641
 30
0.0
 11
94.1090744018555
 21
170.462554931641
 31
0.0
  0
LINE
  5
   464
  8
0
  6
CONTINUOUS
 62
     7
 10
94.6090744018555
 20
154.162554931641
 30
0.0
 11
94.6090744018555
 21
170.462554931641
 31
0.0
  0
LINE
  5
   465
  8
0
  6
CONTINUOUS
 62
     7
 10
96.4090744018555
 20
154.162554931641
 30
0.0
 11
96.4090744018555
 21
170.462554931641
 31
0.0
  0
LINE
  5
   466
  8
0
  6
CONTINUOUS
 62
     7
 10
95.9090744018555
 20
154.162554931641
 30
0.0
 11
95.9090744018555
 21
170.462554931641
 31
0.0
  0
LINE
  5
   467
  8
0
  6
CONTINUOUS
 62
     7
 10
97.7090744018555
 20
154.162554931641
 30
0.0
 11
97.7090744018555
 21
170.462554931641
 31
0.0
  0
LINE
  5
   468
  8
0
  6
CONTINUOUS
 62
     7
 10
98.2090744018555
 20
154.162554931641
 30
0.0
 11
98.2090744018555
 21
170.462554931641
 31
0.0
  0
LINE
  5
   469
  8
0
  6
CONTINUOUS
 62
     7
 10
100.009074401856
 20
154.162554931641
 30
0.0
 11
100.009074401856
 21
170.462554931641
 31
0.0
  0
LINE
  5
   46A
  8
0
  6
CONTINUOUS
 62
     7
 10
99.5090744018555
 20
154.162554931641
 30
0.0
 11
99.5090744018555
 21
170.462554931641
 31
0.0
  0
LINE
  5
   46B
  8
0
  6
CONTINUOUS
 62
     7
 10
101.309074401855
 20
154.162554931641
 30
0.0
 11
101.309074401855
 21
170.462554931641
 31
0.0
  0
LINE
  5
   46C
  8
0
  6
CONTINUOUS
 62
     7
 10
101.809074401855
 20
154.162554931641
 30
0.0
 11
101.809074401855
 21
170.462554931641
 31
0.0
  0
LINE
  5
   46D
  8
0
  6
CONTINUOUS
 62
     7
 10
103.609074401855
 20
154.162554931641
 30
0.0
 11
103.609074401855
 21
170.462554931641
 31
0.0
  0
LINE
  5
   46E
  8
0
  6
CONTINUOUS
 62
     7
 10
103.109074401855
 20
154.162554931641
 30
0.0
 11
103.109074401855
 21
170.462554931641
 31
0.0
  0
LINE
  5
   46F
  8
0
  6
CONTINUOUS
 62
     7
 10
104.909074401855
 20
154.162554931641
 30
0.0
 11
104.909074401855
 21
170.462554931641
 31
0.0
  0
LINE
  5
   470
  8
0
  6
CONTINUOUS
 62
     7
 10
105.409074401855
 20
154.162554931641
 30
0.0
 11
105.409074401855
 21
170.462554931641
 31
0.0
  0
LINE
  5
   471
  8
0
  6
CONTINUOUS
 62
     7
 10
107.209074401855
 20
154.162554931641
 30
0.0
 11
107.209074401855
 21
170.462554931641
 31
0.0
  0
LINE
  5
   472
  8
0
  6
CONTINUOUS
 62
     7
 10
106.709074401855
 20
154.162554931641
 30
0.0
 11
106.709074401855
 21
170.462554931641
 31
0.0
  0
LINE
  5
   473
  8
0
  6
CONTINUOUS
 62
     7
 10
108.509074401855
 20
154.162554931641
 30
0.0
 11
108.509074401855
 21
170.462554931641
 31
0.0
  0
LINE
  5
   474
  8
0
  6
CONTINUOUS
 62
     7
 10
109.009074401855
 20
154.162554931641
 30
0.0
 11
109.009074401855
 21
170.462554931641
 31
0.0
  0
LINE
  5
   475
  8
0
  6
CONTINUOUS
 62
     7
 10
110.809074401855
 20
154.162554931641
 30
0.0
 11
110.809074401855
 21
170.462554931641
 31
0.0
  0
LINE
  5
   476
  8
0
  6
CONTINUOUS
 62
     7
 10
110.309074401855
 20
154.162554931641
 30
0.0
 11
110.309074401855
 21
170.462554931641
 31
0.0
  0
LINE
  5
   477
  8
0
  6
CONTINUOUS
 62
     7
 10
112.109074401855
 20
154.162554931641
 30
0.0
 11
112.109074401855
 21
170.462554931641
 31
0.0
  0
LINE
  5
   478
  8
0
  6
CONTINUOUS
 62
     7
 10
112.609074401855
 20
154.162554931641
 30
0.0
 11
112.609074401855
 21
170.462554931641
 31
0.0
  0
LINE
  5
   479
  8
0
  6
CONTINUOUS
 62
     7
 10
114.409074401855
 20
154.162554931641
 30
0.0
 11
114.409074401855
 21
170.462554931641
 31
0.0
  0
LINE
  5
   47A
  8
0
  6
CONTINUOUS
 62
     7
 10
113.909074401855
 20
154.162554931641
 30
0.0
 11
113.909074401855
 21
170.462554931641
 31
0.0
  0
LINE
  5
   47B
  8
0
  6
CONTINUOUS
 62
     7
 10
115.709074401855
 20
154.162554931641
 30
0.0
 11
115.709074401855
 21
170.462554931641
 31
0.0
  0
LINE
  5
   47C
  8
0
  6
CONTINUOUS
 62
     7
 10
116.209074401855
 20
154.162554931641
 30
0.0
 11
116.209074401855
 21
170.462554931641
 31
0.0
  0
LINE
  5
   47D
  8
0
  6
CONTINUOUS
 62
     7
 10
118.009074401855
 20
154.162554931641
 30
0.0
 11
118.009074401855
 21
170.462554931641
 31
0.0
  0
LINE
  5
   47E
  8
0
  6
CONTINUOUS
 62
     7
 10
117.509074401855
 20
154.162554931641
 30
0.0
 11
117.509074401855
 21
170.462554931641
 31
0.0
  0
LINE
  5
   47F
  8
0
  6
CONTINUOUS
 62
     7
 10
119.309074401855
 20
154.162554931641
 30
0.0
 11
119.309074401855
 21
170.462554931641
 31
0.0
  0
LINE
  5
   480
  8
0
  6
CONTINUOUS
 62
     7
 10
119.809074401855
 20
154.162554931641
 30
0.0
 11
119.809074401855
 21
170.462554931641
 31
0.0
  0
LINE
  5
   481
  8
0
  6
CONTINUOUS
 62
     7
 10
121.609074401855
 20
154.162554931641
 30
0.0
 11
121.609074401855
 21
170.462554931641
 31
0.0
  0
LINE
  5
   482
  8
0
  6
CONTINUOUS
 62
     7
 10
121.109074401855
 20
154.162554931641
 30
0.0
 11
121.109074401855
 21
170.462554931641
 31
0.0
  0
LINE
  5
   483
  8
0
  6
CONTINUOUS
 62
     7
 10
122.909074401855
 20
154.162554931641
 30
0.0
 11
122.909074401855
 21
170.462554931641
 31
0.0
  0
LINE
  5
   484
  8
0
  6
CONTINUOUS
 62
     7
 10
123.409074401855
 20
154.162554931641
 30
0.0
 11
123.409074401855
 21
170.462554931641
 31
0.0
  0
LINE
  5
   485
  8
0
  6
CONTINUOUS
 62
     7
 10
125.209074401855
 20
154.162554931641
 30
0.0
 11
125.209074401855
 21
170.462554931641
 31
0.0
  0
LINE
  5
   486
  8
0
  6
CONTINUOUS
 62
     7
 10
124.709074401855
 20
154.162554931641
 30
0.0
 11
124.709074401855
 21
170.462554931641
 31
0.0
  0
LINE
  5
   487
  8
0
  6
CONTINUOUS
 62
     7
 10
126.509074401855
 20
154.162554931641
 30
0.0
 11
126.509074401855
 21
170.462554931641
 31
0.0
  0
LINE
  5
   488
  8
0
  6
CONTINUOUS
 62
     7
 10
127.009074401855
 20
154.162554931641
 30
0.0
 11
127.009074401855
 21
170.462554931641
 31
0.0
  0
LINE
  5
   489
  8
0
  6
CONTINUOUS
 62
     7
 10
128.809074401855
 20
154.162554931641
 30
0.0
 11
128.809074401855
 21
170.462554931641
 31
0.0
  0
LINE
  5
   48A
  8
0
  6
CONTINUOUS
 62
     7
 10
128.309074401855
 20
154.162554931641
 30
0.0
 11
128.309074401855
 21
170.462554931641
 31
0.0
  0
LINE
  5
   48B
  8
0
  6
CONTINUOUS
 62
     7
 10
130.109074401855
 20
154.162554931641
 30
0.0
 11
130.109074401855
 21
170.462554931641
 31
0.0
  0
LINE
  5
   48C
  8
0
  6
CONTINUOUS
 62
     7
 10
130.609074401855
 20
154.162554931641
 30
0.0
 11
130.609074401855
 21
170.462554931641
 31
0.0
  0
LINE
  5
   48D
  8
0
  6
CONTINUOUS
 62
     7
 10
132.409074401855
 20
154.162554931641
 30
0.0
 11
132.409074401855
 21
170.462554931641
 31
0.0
  0
LINE
  5
   48E
  8
0
  6
CONTINUOUS
 62
     7
 10
131.909074401855
 20
154.162554931641
 30
0.0
 11
131.909074401855
 21
170.462554931641
 31
0.0
  0
LINE
  5
   48F
  8
0
  6
CONTINUOUS
 62
     7
 10
133.709074401855
 20
154.162554931641
 30
0.0
 11
133.709074401855
 21
170.462554931641
 31
0.0
  0
LINE
  5
   490
  8
0
  6
CONTINUOUS
 62
     7
 10
134.209074401855
 20
154.162554931641
 30
0.0
 11
134.209074401855
 21
170.462554931641
 31
0.0
  0
LINE
  5
   491
  8
0
  6
CONTINUOUS
 62
     7
 10
136.009074401855
 20
154.162554931641
 30
0.0
 11
136.009074401855
 21
170.462554931641
 31
0.0
  0
LINE
  5
   492
  8
0
  6
CONTINUOUS
 62
     7
 10
135.509074401855
 20
154.162554931641
 30
0.0
 11
135.509074401855
 21
170.462554931641
 31
0.0
  0
LINE
  5
   493
  8
0
  6
CONTINUOUS
 62
     7
 10
137.309074401855
 20
154.162554931641
 30
0.0
 11
137.309074401855
 21
170.462554931641
 31
0.0
  0
LINE
  5
   494
  8
0
  6
CONTINUOUS
 62
     7
 10
137.809074401855
 20
154.162554931641
 30
0.0
 11
137.809074401855
 21
170.462554931641
 31
0.0
  0
LINE
  5
   495
  8
0
  6
CONTINUOUS
 62
     7
 10
139.609074401855
 20
154.162554931641
 30
0.0
 11
139.609074401855
 21
170.462554931641
 31
0.0
  0
LINE
  5
   496
  8
0
  6
CONTINUOUS
 62
     7
 10
139.109074401855
 20
154.162554931641
 30
0.0
 11
139.109074401855
 21
170.462554931641
 31
0.0
  0
LINE
  5
   497
  8
0
  6
CONTINUOUS
 62
     7
 10
140.909074401855
 20
154.162554931641
 30
0.0
 11
140.909074401855
 21
170.462554931641
 31
0.0
  0
LINE
  5
   498
  8
0
  6
CONTINUOUS
 62
     7
 10
141.409074401855
 20
154.162554931641
 30
0.0
 11
141.409074401855
 21
170.462554931641
 31
0.0
  0
LINE
  5
   499
  8
0
  6
CONTINUOUS
 62
     7
 10
143.209074401855
 20
154.162554931641
 30
0.0
 11
143.209074401855
 21
170.462554931641
 31
0.0
  0
LINE
  5
   49A
  8
0
  6
CONTINUOUS
 62
     7
 10
142.709074401855
 20
154.162554931641
 30
0.0
 11
142.709074401855
 21
170.462554931641
 31
0.0
  0
LINE
  5
   49B
  8
0
  6
CONTINUOUS
 62
     7
 10
142.709074401855
 20
46.4625549316406
 30
0.0
 11
142.709074401855
 21
62.7625549316406
 31
0.0
  0
LINE
  5
   49C
  8
0
  6
CONTINUOUS
 62
     7
 10
143.209074401855
 20
46.4625549316406
 30
0.0
 11
143.209074401855
 21
62.7625549316406
 31
0.0
  0
LINE
  5
   49D
  8
0
  6
CONTINUOUS
 62
     7
 10
141.409074401855
 20
46.4625549316406
 30
0.0
 11
141.409074401855
 21
62.7625549316406
 31
0.0
  0
LINE
  5
   49E
  8
0
  6
CONTINUOUS
 62
     7
 10
140.909074401855
 20
46.4625549316406
 30
0.0
 11
140.909074401855
 21
62.7625549316406
 31
0.0
  0
LINE
  5
   49F
  8
0
  6
CONTINUOUS
 62
     7
 10
139.109074401855
 20
46.4625549316406
 30
0.0
 11
139.109074401855
 21
62.7625549316406
 31
0.0
  0
LINE
  5
   4A0
  8
0
  6
CONTINUOUS
 62
     7
 10
139.609074401855
 20
46.4625549316406
 30
0.0
 11
139.609074401855
 21
62.7625549316406
 31
0.0
  0
LINE
  5
   4A1
  8
0
  6
CONTINUOUS
 62
     7
 10
137.809074401855
 20
46.4625549316406
 30
0.0
 11
137.809074401855
 21
62.7625549316406
 31
0.0
  0
LINE
  5
   4A2
  8
0
  6
CONTINUOUS
 62
     7
 10
137.309074401855
 20
46.4625549316406
 30
0.0
 11
137.309074401855
 21
62.7625549316406
 31
0.0
  0
LINE
  5
   4A3
  8
0
  6
CONTINUOUS
 62
     7
 10
135.509074401855
 20
46.4625549316406
 30
0.0
 11
135.509074401855
 21
62.7625549316406
 31
0.0
  0
LINE
  5
   4A4
  8
0
  6
CONTINUOUS
 62
     7
 10
136.009074401855
 20
46.4625549316406
 30
0.0
 11
136.009074401855
 21
62.7625549316406
 31
0.0
  0
LINE
  5
   4A5
  8
0
  6
CONTINUOUS
 62
     7
 10
134.209074401855
 20
46.4625549316406
 30
0.0
 11
134.209074401855
 21
62.7625549316406
 31
0.0
  0
LINE
  5
   4A6
  8
0
  6
CONTINUOUS
 62
     7
 10
133.709074401855
 20
46.4625549316406
 30
0.0
 11
133.709074401855
 21
62.7625549316406
 31
0.0
  0
LINE
  5
   4A7
  8
0
  6
CONTINUOUS
 62
     7
 10
131.909074401855
 20
46.4625549316406
 30
0.0
 11
131.909074401855
 21
62.7625549316406
 31
0.0
  0
LINE
  5
   4A8
  8
0
  6
CONTINUOUS
 62
     7
 10
132.409074401855
 20
46.4625549316406
 30
0.0
 11
132.409074401855
 21
62.7625549316406
 31
0.0
  0
LINE
  5
   4A9
  8
0
  6
CONTINUOUS
 62
     7
 10
130.609074401855
 20
46.4625549316406
 30
0.0
 11
130.609074401855
 21
62.7625549316406
 31
0.0
  0
LINE
  5
   4AA
  8
0
  6
CONTINUOUS
 62
     7
 10
130.109074401855
 20
46.4625549316406
 30
0.0
 11
130.109074401855
 21
62.7625549316406
 31
0.0
  0
LINE
  5
   4AB
  8
0
  6
CONTINUOUS
 62
     7
 10
128.309074401855
 20
46.4625549316406
 30
0.0
 11
128.309074401855
 21
62.7625549316406
 31
0.0
  0
LINE
  5
   4AC
  8
0
  6
CONTINUOUS
 62
     7
 10
128.809074401855
 20
46.4625549316406
 30
0.0
 11
128.809074401855
 21
62.7625549316406
 31
0.0
  0
LINE
  5
   4AD
  8
0
  6
CONTINUOUS
 62
     7
 10
127.009074401855
 20
46.4625549316406
 30
0.0
 11
127.009074401855
 21
62.7625549316406
 31
0.0
  0
LINE
  5
   4AE
  8
0
  6
CONTINUOUS
 62
     7
 10
126.509074401855
 20
46.4625549316406
 30
0.0
 11
126.509074401855
 21
62.7625549316406
 31
0.0
  0
LINE
  5
   4AF
  8
0
  6
CONTINUOUS
 62
     7
 10
124.709074401855
 20
46.4625549316406
 30
0.0
 11
124.709074401855
 21
62.7625549316406
 31
0.0
  0
LINE
  5
   4B0
  8
0
  6
CONTINUOUS
 62
     7
 10
125.209074401855
 20
46.4625549316406
 30
0.0
 11
125.209074401855
 21
62.7625549316406
 31
0.0
  0
LINE
  5
   4B1
  8
0
  6
CONTINUOUS
 62
     7
 10
123.409074401855
 20
46.4625549316406
 30
0.0
 11
123.409074401855
 21
62.7625549316406
 31
0.0
  0
LINE
  5
   4B2
  8
0
  6
CONTINUOUS
 62
     7
 10
122.909074401855
 20
46.4625549316406
 30
0.0
 11
122.909074401855
 21
62.7625549316406
 31
0.0
  0
LINE
  5
   4B3
  8
0
  6
CONTINUOUS
 62
     7
 10
121.109074401855
 20
46.4625549316406
 30
0.0
 11
121.109074401855
 21
62.7625549316406
 31
0.0
  0
LINE
  5
   4B4
  8
0
  6
CONTINUOUS
 62
     7
 10
121.609074401855
 20
46.4625549316406
 30
0.0
 11
121.609074401855
 21
62.7625549316406
 31
0.0
  0
LINE
  5
   4B5
  8
0
  6
CONTINUOUS
 62
     7
 10
119.809074401855
 20
46.4625549316406
 30
0.0
 11
119.809074401855
 21
62.7625549316406
 31
0.0
  0
LINE
  5
   4B6
  8
0
  6
CONTINUOUS
 62
     7
 10
119.309074401855
 20
46.4625549316406
 30
0.0
 11
119.309074401855
 21
62.7625549316406
 31
0.0
  0
LINE
  5
   4B7
  8
0
  6
CONTINUOUS
 62
     7
 10
117.509074401855
 20
46.4625549316406
 30
0.0
 11
117.509074401855
 21
62.7625549316406
 31
0.0
  0
LINE
  5
   4B8
  8
0
  6
CONTINUOUS
 62
     7
 10
118.009074401855
 20
46.4625549316406
 30
0.0
 11
118.009074401855
 21
62.7625549316406
 31
0.0
  0
LINE
  5
   4B9
  8
0
  6
CONTINUOUS
 62
     7
 10
116.209074401855
 20
46.4625549316406
 30
0.0
 11
116.209074401855
 21
62.7625549316406
 31
0.0
  0
LINE
  5
   4BA
  8
0
  6
CONTINUOUS
 62
     7
 10
115.709074401855
 20
46.4625549316406
 30
0.0
 11
115.709074401855
 21
62.7625549316406
 31
0.0
  0
LINE
  5
   4BB
  8
0
  6
CONTINUOUS
 62
     7
 10
113.909074401855
 20
46.4625549316406
 30
0.0
 11
113.909074401855
 21
62.7625549316406
 31
0.0
  0
LINE
  5
   4BC
  8
0
  6
CONTINUOUS
 62
     7
 10
114.409074401855
 20
46.4625549316406
 30
0.0
 11
114.409074401855
 21
62.7625549316406
 31
0.0
  0
LINE
  5
   4BD
  8
0
  6
CONTINUOUS
 62
     7
 10
112.609074401855
 20
46.4625549316406
 30
0.0
 11
112.609074401855
 21
62.7625549316406
 31
0.0
  0
LINE
  5
   4BE
  8
0
  6
CONTINUOUS
 62
     7
 10
112.109074401855
 20
46.4625549316406
 30
0.0
 11
112.109074401855
 21
62.7625549316406
 31
0.0
  0
LINE
  5
   4BF
  8
0
  6
CONTINUOUS
 62
     7
 10
110.309074401855
 20
46.4625549316406
 30
0.0
 11
110.309074401855
 21
62.7625549316406
 31
0.0
  0
LINE
  5
   4C0
  8
0
  6
CONTINUOUS
 62
     7
 10
110.809074401855
 20
46.4625549316406
 30
0.0
 11
110.809074401855
 21
62.7625549316406
 31
0.0
  0
LINE
  5
   4C1
  8
0
  6
CONTINUOUS
 62
     7
 10
109.009074401855
 20
46.4625549316406
 30
0.0
 11
109.009074401855
 21
62.7625549316406
 31
0.0
  0
LINE
  5
   4C2
  8
0
  6
CONTINUOUS
 62
     7
 10
108.509074401855
 20
46.4625549316406
 30
0.0
 11
108.509074401855
 21
62.7625549316406
 31
0.0
  0
LINE
  5
   4C3
  8
0
  6
CONTINUOUS
 62
     7
 10
106.709074401855
 20
46.4625549316406
 30
0.0
 11
106.709074401855
 21
62.7625549316406
 31
0.0
  0
LINE
  5
   4C4
  8
0
  6
CONTINUOUS
 62
     7
 10
107.209074401855
 20
46.4625549316406
 30
0.0
 11
107.209074401855
 21
62.7625549316406
 31
0.0
  0
LINE
  5
   4C5
  8
0
  6
CONTINUOUS
 62
     7
 10
105.409074401855
 20
46.4625549316406
 30
0.0
 11
105.409074401855
 21
62.7625549316406
 31
0.0
  0
LINE
  5
   4C6
  8
0
  6
CONTINUOUS
 62
     7
 10
104.909074401855
 20
46.4625549316406
 30
0.0
 11
104.909074401855
 21
62.7625549316406
 31
0.0
  0
LINE
  5
   4C7
  8
0
  6
CONTINUOUS
 62
     7
 10
103.109074401855
 20
46.4625549316406
 30
0.0
 11
103.109074401855
 21
62.7625549316406
 31
0.0
  0
LINE
  5
   4C8
  8
0
  6
CONTINUOUS
 62
     7
 10
103.609074401855
 20
46.4625549316406
 30
0.0
 11
103.609074401855
 21
62.7625549316406
 31
0.0
  0
LINE
  5
   4C9
  8
0
  6
CONTINUOUS
 62
     7
 10
101.809074401855
 20
46.4625549316406
 30
0.0
 11
101.809074401855
 21
62.7625549316406
 31
0.0
  0
LINE
  5
   4CA
  8
0
  6
CONTINUOUS
 62
     7
 10
101.309074401855
 20
46.4625549316406
 30
0.0
 11
101.309074401855
 21
62.7625549316406
 31
0.0
  0
LINE
  5
   4CB
  8
0
  6
CONTINUOUS
 62
     7
 10
99.5090744018555
 20
46.4625549316406
 30
0.0
 11
99.5090744018555
 21
62.7625549316406
 31
0.0
  0
LINE
  5
   4CC
  8
0
  6
CONTINUOUS
 62
     7
 10
100.009074401856
 20
46.4625549316406
 30
0.0
 11
100.009074401856
 21
62.7625549316406
 31
0.0
  0
LINE
  5
   4CD
  8
0
  6
CONTINUOUS
 62
     7
 10
98.2090744018555
 20
46.4625549316406
 30
0.0
 11
98.2090744018555
 21
62.7625549316406
 31
0.0
  0
LINE
  5
   4CE
  8
0
  6
CONTINUOUS
 62
     7
 10
97.7090744018555
 20
46.4625549316406
 30
0.0
 11
97.7090744018555
 21
62.7625549316406
 31
0.0
  0
LINE
  5
   4CF
  8
0
  6
CONTINUOUS
 62
     7
 10
95.9090744018555
 20
46.4625549316406
 30
0.0
 11
95.9090744018555
 21
62.7625549316406
 31
0.0
  0
LINE
  5
   4D0
  8
0
  6
CONTINUOUS
 62
     7
 10
96.4090744018555
 20
46.4625549316406
 30
0.0
 11
96.4090744018555
 21
62.7625549316406
 31
0.0
  0
LINE
  5
   4D1
  8
0
  6
CONTINUOUS
 62
     7
 10
94.6090744018555
 20
46.4625549316406
 30
0.0
 11
94.6090744018555
 21
62.7625549316406
 31
0.0
  0
LINE
  5
   4D2
  8
0
  6
CONTINUOUS
 62
     7
 10
94.1090744018555
 20
46.4625549316406
 30
0.0
 11
94.1090744018555
 21
62.7625549316406
 31
0.0
  0
LINE
  5
   4D3
  8
0
  6
CONTINUOUS
 62
     7
 10
92.3090744018555
 20
46.4625549316406
 30
0.0
 11
92.3090744018555
 21
62.7625549316406
 31
0.0
  0
LINE
  5
   4D4
  8
0
  6
CONTINUOUS
 62
     7
 10
92.8090744018555
 20
46.4625549316406
 30
0.0
 11
92.8090744018555
 21
62.7625549316406
 31
0.0
  0
LINE
  5
   4D5
  8
0
  6
CONTINUOUS
 62
     7
 10
91.0090744018555
 20
46.4625549316406
 30
0.0
 11
91.0090744018555
 21
62.7625549316406
 31
0.0
  0
LINE
  5
   4D6
  8
0
  6
CONTINUOUS
 62
     7
 10
90.5090744018555
 20
46.4625549316406
 30
0.0
 11
90.5090744018555
 21
62.7625549316406
 31
0.0
  0
LINE
  5
   4D7
  8
0
  6
CONTINUOUS
 62
     7
 10
88.7090744018555
 20
46.4625549316406
 30
0.0
 11
88.7090744018555
 21
62.7625549316406
 31
0.0
  0
LINE
  5
   4D8
  8
0
  6
CONTINUOUS
 62
     7
 10
89.2090744018555
 20
46.4625549316406
 30
0.0
 11
89.2090744018555
 21
62.7625549316406
 31
0.0
  0
LINE
  5
   4D9
  8
0
  6
CONTINUOUS
 62
     7
 10
87.4090744018555
 20
46.4625549316406
 30
0.0
 11
87.4090744018555
 21
62.7625549316406
 31
0.0
  0
LINE
  5
   4DA
  8
0
  6
CONTINUOUS
 62
     7
 10
86.9090744018555
 20
46.4625549316406
 30
0.0
 11
86.9090744018555
 21
62.7625549316406
 31
0.0
  0
LINE
  5
   4DB
  8
0
  6
CONTINUOUS
 62
     7
 10
85.1090744018555
 20
46.4625549316406
 30
0.0
 11
85.1090744018555
 21
62.7625549316406
 31
0.0
  0
LINE
  5
   4DC
  8
0
  6
CONTINUOUS
 62
     7
 10
85.6090744018555
 20
46.4625549316406
 30
0.0
 11
85.6090744018555
 21
62.7625549316406
 31
0.0
  0
LINE
  5
   4DD
  8
0
  6
CONTINUOUS
 62
     7
 10
83.8090744018555
 20
46.4625549316406
 30
0.0
 11
83.8090744018555
 21
62.7625549316406
 31
0.0
  0
LINE
  5
   4DE
  8
0
  6
CONTINUOUS
 62
     7
 10
83.3090744018555
 20
46.4625549316406
 30
0.0
 11
83.3090744018555
 21
62.7625549316406
 31
0.0
  0
LINE
  5
   4DF
  8
0
  6
CONTINUOUS
 62
     7
 10
81.5090744018555
 20
46.4625549316406
 30
0.0
 11
81.5090744018555
 21
62.7625549316406
 31
0.0
  0
LINE
  5
   4E0
  8
0
  6
CONTINUOUS
 62
     7
 10
82.0090744018555
 20
46.4625549316406
 30
0.0
 11
82.0090744018555
 21
62.7625549316406
 31
0.0
  0
LINE
  5
   4E1
  8
0
  6
CONTINUOUS
 62
     7
 10
80.2090744018555
 20
46.4625549316406
 30
0.0
 11
80.2090744018555
 21
62.7625549316406
 31
0.0
  0
LINE
  5
   4E2
  8
0
  6
CONTINUOUS
 62
     7
 10
79.7090744018555
 20
46.4625549316406
 30
0.0
 11
79.7090744018555
 21
62.7625549316406
 31
0.0
  0
LINE
  5
   4E3
  8
0
  6
CONTINUOUS
 62
     7
 10
77.9090744018555
 20
46.4625549316406
 30
0.0
 11
77.9090744018555
 21
62.7625549316406
 31
0.0
  0
LINE
  5
   4E4
  8
0
  6
CONTINUOUS
 62
     7
 10
78.4090744018555
 20
46.4625549316406
 30
0.0
 11
78.4090744018555
 21
62.7625549316406
 31
0.0
  0
LINE
  5
   4E5
  8
0
  6
CONTINUOUS
 62
     7
 10
76.6090744018555
 20
46.4625549316406
 30
0.0
 11
76.6090744018555
 21
62.7625549316406
 31
0.0
  0
LINE
  5
   4E6
  8
0
  6
CONTINUOUS
 62
     7
 10
76.1090744018555
 20
46.4625549316406
 30
0.0
 11
76.1090744018555
 21
62.7625549316406
 31
0.0
  0
LINE
  5
   4E7
  8
0
  6
CONTINUOUS
 62
     7
 10
74.3090744018555
 20
46.4625549316406
 30
0.0
 11
74.3090744018555
 21
62.7625549316406
 31
0.0
  0
LINE
  5
   4E8
  8
0
  6
CONTINUOUS
 62
     7
 10
74.8090744018555
 20
46.4625549316406
 30
0.0
 11
74.8090744018555
 21
62.7625549316406
 31
0.0
  0
LINE
  5
   4E9
  8
0
  6
CONTINUOUS
 62
     7
 10
73.0090744018555
 20
46.4625549316406
 30
0.0
 11
73.0090744018555
 21
62.7625549316406
 31
0.0
  0
LINE
  5
   4EA
  8
0
  6
CONTINUOUS
 62
     7
 10
72.5090744018555
 20
46.4625549316406
 30
0.0
 11
72.5090744018555
 21
62.7625549316406
 31
0.0
  0
LINE
  5
   4EB
  8
0
  6
CONTINUOUS
 62
     7
 10
70.7090744018555
 20
46.4625549316406
 30
0.0
 11
70.7090744018555
 21
62.7625549316406
 31
0.0
  0
LINE
  5
   4EC
  8
0
  6
CONTINUOUS
 62
     7
 10
71.2090744018555
 20
46.4625549316406
 30
0.0
 11
71.2090744018555
 21
62.7625549316406
 31
0.0
  0
LINE
  5
   4ED
  8
0
  6
CONTINUOUS
 62
     7
 10
69.4090744018555
 20
46.4625549316406
 30
0.0
 11
69.4090744018555
 21
62.7625549316406
 31
0.0
  0
LINE
  5
   4EE
  8
0
  6
CONTINUOUS
 62
     7
 10
68.9090744018555
 20
46.4625549316406
 30
0.0
 11
68.9090744018555
 21
62.7625549316406
 31
0.0
  0
LINE
  5
   4EF
  8
0
  6
CONTINUOUS
 62
   130
 10
-14.4408704315479
 20
49.4625436401385
 30
0.0
 11
-14.4408704315479
 21
62.9625469808234
 31
0.0
  0
LINE
  5
   4F0
  8
0
  6
CONTINUOUS
 62
   130
 10
-15.9408598266958
 20
52.4625469808234
 30
0.0
 11
-14.4408767639434
 21
52.4625469808234
 31
0.0
  0
ARC
  5
   4F1
  8
0
  6
CONTINUOUS
 62
   130
 10
-15.9408598266958
 20
53.4625469808234
 30
0.0
 40
1.0
 50
180.00000874264
 51
270.0
  0
ARC
  5
   4F2
  8
0
  6
CONTINUOUS
 62
     7
 10
-13.4408772217075
 20
49.4625434875507
 30
0.0
 40
1.0
 50
179.99999125736
 51
270.0
  0
LINE
  5
   4F3
  8
0
  6
CONTINUOUS
 62
   130
 10
-15.9408704315479
 20
62.9625469808234
 30
0.0
 11
-15.9408704315479
 21
64.4625469808234
 31
0.0
  0
LINE
  5
   4F4
  8
0
  6
CONTINUOUS
 62
   252
 10
61.0590438842742
 20
46.4625549316406
 30
0.0
 11
61.0590438842742
 21
87.9625549316406
 31
0.0
  0
LINE
  5
   4F5
  8
0
  6
CONTINUOUS
 62
   130
 10
29.559088706968
 20
100.64126007043
 30
0.0
 11
29.559088706968
 21
112.462558746333
 31
0.0
  0
LINE
  5
   4F6
  8
0
  6
CONTINUOUS
 62
   130
 10
30.442236106706
 20
80.4625587463447
 30
0.0
 11
61.0590418243423
 21
80.4625587463447
 31
0.0
  0
LINE
  5
   4F7
  8
0
  6
CONTINUOUS
 62
   252
 10
68.3590744018555
 20
46.4625549316406
 30
0.0
 11
143.759074401855
 21
46.4625549316406
 31
0.0
  0
LINE
  5
   4F8
  8
0
  6
CONTINUOUS
 62
   252
 10
68.3590744018555
 20
170.462554931641
 30
0.0
 11
143.759074401855
 21
170.462554931641
 31
0.0
  0
LINE
  5
   4F9
  8
0
  6
CONTINUOUS
 62
     7
 10
62.0090438842742
 20
112.462554931641
 30
0.0
 11
62.0090438842742
 21
170.462554931641
 31
0.0
  0
LINE
  5
   4FA
  8
0
  6
CONTINUOUS
 62
     7
 10
62.5090438842742
 20
112.462554931641
 30
0.0
 11
62.5090438842742
 21
170.462554931641
 31
0.0
  0
LINE
  5
   4FB
  8
0
  6
CONTINUOUS
 62
     7
 10
62.0090438842742
 20
46.4625549316406
 30
0.0
 11
62.0090438842742
 21
87.9625549316406
 31
0.0
  0
LINE
  5
   4FC
  8
0
  6
CONTINUOUS
 62
     7
 10
62.5090438842742
 20
46.4625549316406
 30
0.0
 11
62.5090438842742
 21
87.9625549316406
 31
0.0
  0
LINE
  5
   4FD
  8
0
  6
CONTINUOUS
 62
     7
 10
64.3090438842742
 20
112.462554931641
 30
0.0
 11
64.3090438842742
 21
170.462554931641
 31
0.0
  0
LINE
  5
   4FE
  8
0
  6
CONTINUOUS
 62
     7
 10
66.1090438842742
 20
112.462554931641
 30
0.0
 11
66.1090438842742
 21
170.462554931641
 31
0.0
  0
LINE
  5
   4FF
  8
0
  6
CONTINUOUS
 62
     7
 10
63.8090438842742
 20
112.462554931641
 30
0.0
 11
63.8090438842742
 21
170.462554931641
 31
0.0
  0
LINE
  5
   500
  8
0
  6
CONTINUOUS
 62
     7
 10
65.6090438842742
 20
112.462554931641
 30
0.0
 11
65.6090438842742
 21
170.462554931641
 31
0.0
  0
LINE
  5
   501
  8
0
  6
CONTINUOUS
 62
     7
 10
64.3090438842742
 20
46.4625549316406
 30
0.0
 11
64.3090438842742
 21
87.9625549316406
 31
0.0
  0
LINE
  5
   502
  8
0
  6
CONTINUOUS
 62
     7
 10
66.1090438842742
 20
46.4625549316406
 30
0.0
 11
66.1090438842742
 21
87.9625549316406
 31
0.0
  0
LINE
  5
   503
  8
0
  6
CONTINUOUS
 62
     7
 10
63.8090438842742
 20
46.4625549316406
 30
0.0
 11
63.8090438842742
 21
87.9625549316406
 31
0.0
  0
LINE
  5
   504
  8
0
  6
CONTINUOUS
 62
     7
 10
65.6090438842742
 20
46.4625549316406
 30
0.0
 11
65.6090438842742
 21
87.9625549316406
 31
0.0
  0
LINE
  5
   505
  8
0
  6
DASHDOT
 62
     7
 10
22.0591041976751
 20
42.7055234698581
 30
0.0
 11
22.0591041976751
 21
174.302787641158
 31
0.0
  0
LINE
  5
   506
  8
0
  6
DASHDOT
 62
     7
 10
14.0591041976751
 20
159.662536602
 30
0.0
 11
30.0591041976751
 21
159.662536602
 31
0.0
  0
LINE
  5
   507
  8
0
  6
CONTINUOUS
 62
     7
 10
-15.6908950805623
 20
150.462516463245
 30
0.0
 11
59.8090438842742
 21
150.462516463245
 31
0.0
  0
LINE
  5
   508
  8
0
  6
CONTINUOUS
 62
     7
 10
-15.6908950805623
 20
139.962516463245
 30
0.0
 11
59.8090438842742
 21
139.962516463245
 31
0.0
  0
LINE
  5
   509
  8
0
  6
CONTINUOUS
 62
     7
 10
-15.6908950805623
 20
139.962516463245
 30
0.0
 11
-15.6908950805623
 21
150.462516463245
 31
0.0
  0
LINE
  5
   50A
  8
0
  6
CONTINUOUS
 62
     7
 10
59.8090438842742
 20
139.962516463245
 30
0.0
 11
59.8090438842742
 21
150.462516463245
 31
0.0
  0
CIRCLE
  5
   50B
  8
0
  6
CONTINUOUS
 62
     3
 10
73.0592172740799
 20
148.462536624837
 30
0.0
 40
3.0
  0
LINE
  5
   50C
  8
0
  6
CONTINUOUS
 62
     3
 10
71.5092172740799
 20
148.092536624837
 30
0.0
 11
71.5092172740799
 21
148.832536624837
 31
0.0
  0
LINE
  5
   50D
  8
0
  6
CONTINUOUS
 62
     3
 10
74.6092172740799
 20
148.092536624837
 30
0.0
 11
74.6092172740799
 21
148.832536624837
 31
0.0
  0
LINE
  5
   50E
  8
0
  6
CONTINUOUS
 62
     3
 10
72.6892172740799
 20
146.912536624837
 30
0.0
 11
73.4292172740799
 21
146.912536624837
 31
0.0
  0
LINE
  5
   50F
  8
0
  6
CONTINUOUS
 62
     3
 10
72.6892172740799
 20
150.012536624837
 30
0.0
 11
73.4292172740799
 21
150.012536624837
 31
0.0
  0
LINE
  5
   510
  8
0
  6
CONTINUOUS
 62
     3
 10
72.6892172740799
 20
146.912536624837
 30
0.0
 11
72.6892172740799
 21
148.092536624837
 31
0.0
  0
LINE
  5
   511
  8
0
  6
CONTINUOUS
 62
     3
 10
73.4292172740799
 20
146.912536624837
 30
0.0
 11
73.4292172740799
 21
148.092536624837
 31
0.0
  0
LINE
  5
   512
  8
0
  6
CONTINUOUS
 62
     3
 10
73.4292172740799
 20
148.092536624837
 30
0.0
 11
74.6092172740799
 21
148.092536624837
 31
0.0
  0
LINE
  5
   513
  8
0
  6
CONTINUOUS
 62
     3
 10
73.4292172740799
 20
148.832536624837
 30
0.0
 11
74.6092172740799
 21
148.832536624837
 31
0.0
  0
LINE
  5
   514
  8
0
  6
CONTINUOUS
 62
     3
 10
71.5092172740799
 20
148.092536624837
 30
0.0
 11
72.6892172740799
 21
148.092536624837
 31
0.0
  0
LINE
  5
   515
  8
0
  6
CONTINUOUS
 62
     3
 10
71.5092172740799
 20
148.832536624837
 30
0.0
 11
72.6892172740799
 21
148.832536624837
 31
0.0
  0
LINE
  5
   516
  8
0
  6
CONTINUOUS
 62
     3
 10
72.6892172740799
 20
148.832536624837
 30
0.0
 11
72.6892172740799
 21
150.012536624837
 31
0.0
  0
LINE
  5
   517
  8
0
  6
CONTINUOUS
 62
     3
 10
73.4292172740799
 20
148.832536624837
 30
0.0
 11
73.4292172740799
 21
150.012536624837
 31
0.0
  0
LINE
  5
   518
  8
0
  6
DASHDOT
 62
     7
 10
68.0592172740799
 20
148.462536624837
 30
0.0
 11
78.0592172740799
 21
148.462536624837
 31
0.0
  0
CIRCLE
  5
   519
  8
0
  6
CONTINUOUS
 62
     3
 10
139.05921727408
 20
148.462536624837
 30
0.0
 40
4.0
  0
LINE
  5
   51A
  8
0
  6
CONTINUOUS
 62
     3
 10
136.75921727408
 20
149.027536624837
 30
0.0
 11
138.49421727408
 21
149.027536624837
 31
0.0
  0
LINE
  5
   51B
  8
0
  6
CONTINUOUS
 62
     3
 10
136.75921727408
 20
147.897536624837
 30
0.0
 11
138.49421727408
 21
147.897536624837
 31
0.0
  0
LINE
  5
   51C
  8
0
  6
CONTINUOUS
 62
     3
 10
138.49421727408
 20
146.162536624837
 30
0.0
 11
138.49421727408
 21
147.897536624837
 31
0.0
  0
LINE
  5
   51D
  8
0
  6
CONTINUOUS
 62
     3
 10
139.62421727408
 20
146.162536624837
 30
0.0
 11
139.62421727408
 21
147.897536624837
 31
0.0
  0
LINE
  5
   51E
  8
0
  6
CONTINUOUS
 62
     3
 10
138.49421727408
 20
150.762536624837
 30
0.0
 11
139.62421727408
 21
150.762536624837
 31
0.0
  0
LINE
  5
   51F
  8
0
  6
CONTINUOUS
 62
     3
 10
138.49421727408
 20
146.162536624837
 30
0.0
 11
139.62421727408
 21
146.162536624837
 31
0.0
  0
LINE
  5
   520
  8
0
  6
CONTINUOUS
 62
     3
 10
136.75921727408
 20
147.897536624837
 30
0.0
 11
136.75921727408
 21
149.027536624837
 31
0.0
  0
LINE
  5
   521
  8
0
  6
CONTINUOUS
 62
     3
 10
141.35921727408
 20
147.897536624837
 30
0.0
 11
141.35921727408
 21
149.027536624837
 31
0.0
  0
LINE
  5
   522
  8
0
  6
CONTINUOUS
 62
     3
 10
139.62421727408
 20
149.027536624837
 30
0.0
 11
141.35921727408
 21
149.027536624837
 31
0.0
  0
LINE
  5
   523
  8
0
  6
CONTINUOUS
 62
     3
 10
139.62421727408
 20
147.897536624837
 30
0.0
 11
141.35921727408
 21
147.897536624837
 31
0.0
  0
LINE
  5
   524
  8
0
  6
CONTINUOUS
 62
     3
 10
139.62421727408
 20
149.027536624837
 30
0.0
 11
139.62421727408
 21
150.762536624837
 31
0.0
  0
LINE
  5
   525
  8
0
  6
CONTINUOUS
 62
     3
 10
138.49421727408
 20
149.027536624837
 30
0.0
 11
138.49421727408
 21
150.762536624837
 31
0.0
  0
LINE
  5
   526
  8
0
  6
DASHDOT
 62
     7
 10
139.05921727408
 20
142.462536624837
 30
0.0
 11
139.05921727408
 21
154.462536624837
 31
0.0
  0
LINE
  5
   527
  8
0
  6
DASHDOT
 62
     7
 10
133.05921727408
 20
148.462536624837
 30
0.0
 11
145.05921727408
 21
148.462536624837
 31
0.0
  0
CIRCLE
  5
   528
  8
0
  6
CONTINUOUS
 62
     3
 10
139.05921727408
 20
68.4625366248368
 30
0.0
 40
3.0
  0
LINE
  5
   529
  8
0
  6
CONTINUOUS
 62
     3
 10
138.68921727408
 20
70.0125366248368
 30
0.0
 11
139.42921727408
 21
70.0125366248368
 31
0.0
  0
LINE
  5
   52A
  8
0
  6
CONTINUOUS
 62
     3
 10
138.68921727408
 20
66.9125366248368
 30
0.0
 11
139.42921727408
 21
66.9125366248368
 31
0.0
  0
LINE
  5
   52B
  8
0
  6
CONTINUOUS
 62
     3
 10
137.50921727408
 20
68.0925366248368
 30
0.0
 11
137.50921727408
 21
68.8325366248368
 31
0.0
  0
LINE
  5
   52C
  8
0
  6
CONTINUOUS
 62
     3
 10
140.60921727408
 20
68.0925366248368
 30
0.0
 11
140.60921727408
 21
68.8325366248368
 31
0.0
  0
LINE
  5
   52D
  8
0
  6
CONTINUOUS
 62
     3
 10
137.50921727408
 20
68.8325366248368
 30
0.0
 11
138.68921727408
 21
68.8325366248368
 31
0.0
  0
LINE
  5
   52E
  8
0
  6
CONTINUOUS
 62
     3
 10
137.50921727408
 20
68.0925366248368
 30
0.0
 11
138.68921727408
 21
68.0925366248368
 31
0.0
  0
LINE
  5
   52F
  8
0
  6
CONTINUOUS
 62
     3
 10
138.68921727408
 20
66.9125366248368
 30
0.0
 11
138.68921727408
 21
68.0925366248368
 31
0.0
  0
LINE
  5
   530
  8
0
  6
CONTINUOUS
 62
     3
 10
139.42921727408
 20
66.9125366248368
 30
0.0
 11
139.42921727408
 21
68.0925366248368
 31
0.0
  0
LINE
  5
   531
  8
0
  6
CONTINUOUS
 62
     3
 10
138.68921727408
 20
68.8325366248368
 30
0.0
 11
138.68921727408
 21
70.0125366248368
 31
0.0
  0
LINE
  5
   532
  8
0
  6
CONTINUOUS
 62
     3
 10
139.42921727408
 20
68.8325366248368
 30
0.0
 11
139.42921727408
 21
70.0125366248368
 31
0.0
  0
LINE
  5
   533
  8
0
  6
CONTINUOUS
 62
     3
 10
139.42921727408
 20
68.8325366248368
 30
0.0
 11
140.60921727408
 21
68.8325366248368
 31
0.0
  0
LINE
  5
   534
  8
0
  6
CONTINUOUS
 62
     3
 10
139.42921727408
 20
68.0925366248368
 30
0.0
 11
140.60921727408
 21
68.0925366248368
 31
0.0
  0
LINE
  5
   535
  8
0
  6
DASHDOT
 62
     7
 10
134.05921727408
 20
68.4625366248368
 30
0.0
 11
144.05921727408
 21
68.4625366248368
 31
0.0
  0
CIRCLE
  5
   536
  8
0
  6
CONTINUOUS
 62
     3
 10
73.0592172740799
 20
68.4625366248369
 30
0.0
 40
4.0
  0
LINE
  5
   537
  8
0
  6
CONTINUOUS
 62
     3
 10
70.7592172740799
 20
69.0275366248369
 30
0.0
 11
72.4942172740799
 21
69.0275366248369
 31
0.0
  0
LINE
  5
   538
  8
0
  6
CONTINUOUS
 62
     3
 10
70.7592172740799
 20
67.8975366248369
 30
0.0
 11
72.4942172740799
 21
67.8975366248369
 31
0.0
  0
LINE
  5
   539
  8
0
  6
CONTINUOUS
 62
     3
 10
72.4942172740799
 20
66.1625366248369
 30
0.0
 11
72.4942172740799
 21
67.8975366248369
 31
0.0
  0
LINE
  5
   53A
  8
0
  6
CONTINUOUS
 62
     3
 10
73.6242172740799
 20
66.1625366248369
 30
0.0
 11
73.6242172740799
 21
67.8975366248369
 31
0.0
  0
LINE
  5
   53B
  8
0
  6
CONTINUOUS
 62
     3
 10
72.4942172740799
 20
70.7625366248369
 30
0.0
 11
73.6242172740799
 21
70.7625366248369
 31
0.0
  0
LINE
  5
   53C
  8
0
  6
CONTINUOUS
 62
     3
 10
72.4942172740799
 20
66.1625366248369
 30
0.0
 11
73.6242172740799
 21
66.1625366248369
 31
0.0
  0
LINE
  5
   53D
  8
0
  6
CONTINUOUS
 62
     3
 10
70.7592172740799
 20
67.8975366248369
 30
0.0
 11
70.7592172740799
 21
69.0275366248369
 31
0.0
  0
LINE
  5
   53E
  8
0
  6
CONTINUOUS
 62
     3
 10
75.3592172740799
 20
67.8975366248369
 30
0.0
 11
75.3592172740799
 21
69.0275366248369
 31
0.0
  0
LINE
  5
   53F
  8
0
  6
CONTINUOUS
 62
     3
 10
73.6242172740799
 20
69.0275366248369
 30
0.0
 11
75.3592172740799
 21
69.0275366248369
 31
0.0
  0
LINE
  5
   540
  8
0
  6
CONTINUOUS
 62
     3
 10
73.6242172740799
 20
67.8975366248369
 30
0.0
 11
75.3592172740799
 21
67.8975366248369
 31
0.0
  0
LINE
  5
   541
  8
0
  6
CONTINUOUS
 62
     3
 10
73.6242172740799
 20
69.0275366248369
 30
0.0
 11
73.6242172740799
 21
70.7625366248369
 31
0.0
  0
LINE
  5
   542
  8
0
  6
CONTINUOUS
 62
     3
 10
72.4942172740799
 20
69.0275366248369
 30
0.0
 11
72.4942172740799
 21
70.7625366248369
 31
0.0
  0
LINE
  5
   543
  8
0
  6
DASHDOT
 62
     7
 10
73.0592172740799
 20
62.4625366248369
 30
0.0
 11
73.0592172740799
 21
74.4625366248369
 31
0.0
  0
LINE
  5
   544
  8
0
  6
DASHDOT
 62
     7
 10
67.0592172740799
 20
68.4625366248369
 30
0.0
 11
80.6598027854464
 21
68.4625366248369
 31
0.0
  0
ARC
  5
   545
  8
0
  6
CONTINUOUS
 62
     3
 10
37.1091105425584
 20
161.012594122442
 30
0.0
 40
2.0
 50
178.557523870135
 51
271.442476129865
  0
CIRCLE
  5
   546
  8
0
  6
CONTINUOUS
 62
     3
 10
34.5591105425584
 20
158.462594122442
 30
0.0
 40
3.750066744417
  0
ARC
  5
   547
  8
0
  6
CONTINUOUS
 62
     3
 10
32.0091105425584
 20
161.012594122442
 30
0.0
 40
2.0
 50
268.557523870135
 51
361.442476129865
  0
ARC
  5
   548
  8
0
  6
CONTINUOUS
 62
     3
 10
34.5591105425584
 20
158.462594122442
 30
0.0
 40
2.6580067720004
 50
78.0440027883074
 51
101.955997211693
  0
ARC
  5
   549
  8
0
  6
CONTINUOUS
 62
     3
 10
34.5591105425584
 20
158.462594122442
 30
0.0
 40
2.6580067720004
 50
168.044002788308
 51
191.955997211693
  0
ARC
  5
   54A
  8
0
  6
CONTINUOUS
 62
     3
 10
34.5591105425584
 20
158.462594122442
 30
0.0
 40
2.6580067720004
 50
348.044002788307
 51
371.955997211692
  0
ARC
  5
   54B
  8
0
  6
CONTINUOUS
 62
     3
 10
37.1091105425584
 20
155.912594122442
 30
0.0
 40
2.0
 50
88.5575238701351
 51
181.442476129865
  0
ARC
  5
   54C
  8
0
  6
CONTINUOUS
 62
     3
 10
32.0091105425584
 20
155.912594122442
 30
0.0
 40
2.0
 50
358.557523870135
 51
451.442476129865
  0
ARC
  5
   54D
  8
0
  6
CONTINUOUS
 62
     3
 10
34.5591105425584
 20
158.462594122442
 30
0.0
 40
2.6580067720004
 50
258.044002788307
 51
281.955997211693
  0
LINE
  5
   54E
  8
0
  6
DASHDOT
 62
     3
 10
34.5591105425584
 20
151.365554157721
 30
0.0
 11
34.5591105425584
 21
165.040136814999
 31
0.0
  0
LINE
  5
   54F
  8
0
  6
DASHDOT
 62
     3
 10
28.6171649958437
 20
158.462594122442
 30
0.0
 11
41.0306910391945
 21
158.462594122442
 31
0.0
  0
ARC
  5
   550
  8
0
  6
CONTINUOUS
 62
     3
 10
12.1091563562486
 20
61.0125760930639
 30
0.0
 40
2.0
 50
178.557523870135
 51
271.442476129865
  0
CIRCLE
  5
   551
  8
0
  6
CONTINUOUS
 62
     3
 10
9.55915635624855
 20
58.4625760930639
 30
0.0
 40
3.750066744417
  0
ARC
  5
   552
  8
0
  6
CONTINUOUS
 62
     3
 10
7.00915635624857
 20
61.0125760930639
 30
0.0
 40
2.0
 50
268.557523870135
 51
361.442476129865
  0
ARC
  5
   553
  8
0
  6
CONTINUOUS
 62
     3
 10
9.55915635624856
 20
58.4625760930639
 30
0.0
 40
2.6580067720004
 50
78.0440027883074
 51
101.955997211693
  0
ARC
  5
   554
  8
0
  6
CONTINUOUS
 62
     3
 10
9.55915635624856
 20
58.4625760930639
 30
0.0
 40
2.6580067720004
 50
168.044002788308
 51
191.955997211693
  0
ARC
  5
   555
  8
0
  6
CONTINUOUS
 62
     3
 10
9.55915635624856
 20
58.4625760930639
 30
0.0
 40
2.6580067720004
 50
348.044002788307
 51
371.955997211692
  0
ARC
  5
   556
  8
0
  6
CONTINUOUS
 62
     3
 10
12.1091563562486
 20
55.9125760930639
 30
0.0
 40
2.0
 50
88.5575238701351
 51
181.442476129865
  0
ARC
  5
   557
  8
0
  6
CONTINUOUS
 62
     3
 10
7.00915635624857
 20
55.9125760930639
 30
0.0
 40
2.0
 50
358.557523870135
 51
451.442476129865
  0
ARC
  5
   558
  8
0
  6
CONTINUOUS
 62
     3
 10
9.55915635624856
 20
58.4625760930639
 30
0.0
 40
2.6580067720004
 50
258.044002788307
 51
281.955997211693
  0
LINE
  5
   559
  8
0
  6
DASHDOT
 62
     3
 10
9.55915635624855
 20
51.3655361283425
 30
0.0
 11
9.55915635624855
 21
65.0401187856209
 31
0.0
  0
LINE
  5
   55A
  8
0
  6
DASHDOT
 62
     3
 10
3.61721080953396
 20
58.4625760930639
 30
0.0
 11
16.0307368528847
 21
58.4625760930639
 31
0.0
  0
INSERT
  5
   55B
  8
0
  6
CONTINUOUS
 62
     7
  2
*UDIM1250
 10
0.0
 20
0.0
 30
0.0
  0
INSERT
  5
   55C
  8
0
  6
CONTINUOUS
 62
     7
  2
*UDIM1251
 10
0.0
 20
0.0
 30
0.0
  0
INSERT
  5
   55D
  8
0
  6
CONTINUOUS
 62
     7
  2
*UDIM1252
 10
0.0
 20
0.0
 30
0.0
  0
LINE
  5
   55E
  8
0
  6
DASHDOT
 62
     7
 10
-48.5594471626645
 20
96.4625549316406
 30
0.0
 11
153.2774827783
 21
96.4625549316406
 31
0.0
  0
TEXT
  5
   55F
  8
0
  6
CONTINUOUS
 62
     2
 10
20.5701582284062
 20
37.3178273338101
 30
0.0
 40
3.5
  1
Y
 41
0.933333333333334
 72
     1
 11
21.8534915617395
 21
39.0678273338101
 31
0.0
 73
     2
  0
TEXT
  5
   560
  8
0
  6
CONTINUOUS
 62
     2
 10
20.5701582284062
 20
177.888144368259
 30
0.0
 40
3.5
  1
Y
 41
0.933333333333334
 72
     1
 11
21.8534915617395
 21
179.638144368259
 31
0.0
 73
     2
  0
TEXT
  5
   561
  8
0
  6
CONTINUOUS
 62
     2
 10
155.696233704589
 20
98.8377569422251
 30
0.0
 40
3.5
  1
X
 41
0.933333333333334
 72
     1
 11
156.979567037922
 21
100.587756942225
 31
0.0
 73
     2
  0
INSERT
  5
   562
  8
0
  6
CONTINUOUS
 62
     7
  2
*UDIM1253
 10
0.0
 20
0.0
 30
0.0
  0
INSERT
  5
   563
  8
0
  6
CONTINUOUS
 62
     7
  2
*UDIM1254
 10
0.0
 20
0.0
 30
0.0
  0
LINE
  5
   564
  8
0
  6
CONTINUOUS
 62
     7
 10
-21.7514885564932
 20
42.9268056843504
 30
0.0
 11
-21.7514885564932
 21
173.044178926927
 31
0.0
  0
INSERT
  5
   565
  8
0
  6
CONTINUOUS
 62
     7
  2
*UDIM1255
 10
0.0
 20
0.0
 30
0.0
  0
INSERT
  5
   566
  8
0
  6
CONTINUOUS
 62
     7
  2
*UDIM1256
 10
0.0
 20
0.0
 30
0.0
  0
INSERT
  5
   567
  8
0
  6
CONTINUOUS
 62
     7
  2
*UDIM1257
 10
0.0
 20
0.0
 30
0.0
  0
INSERT
  5
   568
  8
0
  6
CONTINUOUS
 62
     7
  2
*UDIM1258
 10
0.0
 20
0.0
 30
0.0
  0
LINE
  5
   569
  8
0
  6
CONTINUOUS
 62
     7
 10
10.5590600967413
 20
110.962558746333
 30
0.0
 11
10.5590600967413
 21
112.462558746333
 31
0.0
  0
LINE
  5
   56A
  8
0
  6
CONTINUOUS
 62
     7
 10
33.559088706968
 20
110.962558746333
 30
0.0
 11
33.559088706968
 21
112.462558746333
 31
0.0
  0
LINE
  5
   56B
  8
0
  6
CONTINUOUS
 62
     7
 10
8.80911054255836
 20
192.962528228762
 30
0.0
 11
10.3091105425584
 21
192.962528228762
 31
0.0
  0
LINE
  5
   56C
  8
0
  6
CONTINUOUS
 62
     7
 10
10.3091105425584
 20
168.462528228762
 30
0.0
 11
10.3091105425584
 21
192.962528228762
 31
0.0
  0
LINE
  5
   56D
  8
0
  6
CONTINUOUS
 62
     7
 10
8.80911054255836
 20
168.462528228763
 30
0.0
 11
8.80911054255836
 21
192.962528228762
 31
0.0
  0
LINE
  5
   56E
  8
0
  6
CONTINUOUS
 62
     7
 10
11.7591105425584
 20
164.962528228762
 30
0.0
 11
11.7591105425584
 21
166.462528228762
 31
0.0
  0
LINE
  5
   56F
  8
0
  6
CONTINUOUS
 62
     7
 10
7.35911054255835
 20
164.962528228762
 30
0.0
 11
7.35911054255835
 21
166.462528228762
 31
0.0
  0
LINE
  5
   570
  8
0
  6
CONTINUOUS
 62
     7
 10
35.3091105425584
 20
168.462528228762
 30
0.0
 11
35.3091105425584
 21
192.962528228762
 31
0.0
  0
LINE
  5
   571
  8
0
  6
CONTINUOUS
 62
     7
 10
33.8091105425584
 20
168.462528228763
 30
0.0
 11
33.8091105425584
 21
192.962528228762
 31
0.0
  0
LINE
  5
   572
  8
0
  6
CONTINUOUS
 62
     7
 10
33.8091105425584
 20
192.962528228762
 30
0.0
 11
35.3091105425584
 21
192.962528228762
 31
0.0
  0
LINE
  5
   573
  8
0
  6
CONTINUOUS
 62
     7
 10
36.7591105425584
 20
164.962528228762
 30
0.0
 11
36.7591105425584
 21
166.462528228762
 31
0.0
  0
LINE
  5
   574
  8
0
  6
CONTINUOUS
 62
     7
 10
32.3591105425584
 20
164.962528228762
 30
0.0
 11
32.3591105425584
 21
166.462528228762
 31
0.0
  0
INSERT
  5
   575
  8
0
  6
CONTINUOUS
 62
     7
  2
*UDIM1259
 10
0.0
 20
0.0
 30
0.0
  0
INSERT
  5
   576
  8
0
  6
CONTINUOUS
 62
     3
  2
*HATCH824
 10
214.870880126953
 20
168.462554931641
 30
0.0
  0
LINE
  5
   577
  8
0
  6
CONTINUOUS
 62
   130
 10
213.670847892761
 20
151.962528348085
 30
0.0
 11
214.870862960815
 21
151.962528348085
 31
0.0
  0
LINE
  5
   578
  8
0
  6
CONTINUOUS
 62
   130
 10
213.670847892761
 20
163.462528348086
 30
0.0
 11
214.870862960815
 21
163.462528348086
 31
0.0
  0
LINE
  5
   579
  8
0
  6
CONTINUOUS
 62
   130
 10
213.670847892761
 20
51.4625397921773
 30
0.0
 11
214.870862960815
 21
51.4625397921773
 31
0.0
  0
LINE
  5
   57A
  8
0
  6
CONTINUOUS
 62
   130
 10
213.670847892761
 20
141.662450472987
 30
0.0
 11
213.670847892761
 21
163.462528348086
 31
0.0
  0
LINE
  5
   57B
  8
0
  6
CONTINUOUS
 62
   130
 10
213.670847892761
 20
51.4625436068745
 30
0.0
 11
213.670847892761
 21
71.9625588656636
 31
0.0
  0
LINE
  5
   57C
  8
0
  6
CONTINUOUS
 62
   130
 10
214.870862960815
 20
51.4625397921773
 30
0.0
 11
214.870862960815
 21
191.962528228762
 31
0.0
  0
LINE
  5
   57D
  8
0
  6
CONTINUOUS
 62
   130
 10
212.470832252502
 20
140.662510037539
 30
0.0
 11
212.670847892761
 21
140.662510037539
 31
0.0
  0
LINE
  5
   57E
  8
0
  6
CONTINUOUS
 62
   130
 10
212.470832252502
 20
139.462528348085
 30
0.0
 11
212.670847702026
 21
139.462528348085
 31
0.0
  0
LINE
  5
   57F
  8
0
  6
CONTINUOUS
 62
   130
 10
206.870848655701
 20
139.462528348085
 30
0.0
 11
206.870848655701
 21
140.662510037539
 31
0.0
  0
LINE
  5
   580
  8
0
  6
CONTINUOUS
 62
   130
 10
206.870848655701
 20
118.262531399843
 30
0.0
 11
206.870848655701
 21
119.462528348085
 31
0.0
  0
LINE
  5
   581
  8
0
  6
CONTINUOUS
 62
   130
 10
206.870848655701
 20
75.4625283480855
 30
0.0
 11
206.870848655701
 21
80.4625283480855
 31
0.0
  0
LINE
  5
   582
  8
0
  6
CONTINUOUS
 62
   130
 10
206.870848655701
 20
80.4625283480855
 30
0.0
 11
210.20099067688
 21
80.4625283480855
 31
0.0
  0
LINE
  5
   583
  8
0
  6
CONTINUOUS
 62
   130
 10
210.20096123477
 20
80.4625260657119
 30
0.0
 11
210.870833772515
 21
77.9625285841421
 31
0.0
  0
LINE
  5
   584
  8
0
  6
CONTINUOUS
 62
   130
 10
210.870848655701
 20
77.9625283480855
 30
0.0
 11
211.870848655701
 21
77.9625283480855
 31
0.0
  0
LINE
  5
   585
  8
0
  6
CONTINUOUS
 62
   130
 10
211.870848655701
 20
77.9625283480855
 30
0.0
 11
211.870848655701
 21
113.462528348085
 31
0.0
  0
LINE
  5
   586
  8
0
  6
CONTINUOUS
 62
   130
 10
210.870848655701
 20
113.462528348085
 30
0.0
 11
211.870848655701
 21
113.462528348085
 31
0.0
  0
LINE
  5
   587
  8
0
  6
CONTINUOUS
 62
   130
 10
206.870833059307
 20
114.534344778312
 30
0.0
 11
209.861464496102
 21
113.732999360073
 31
0.0
  0
LINE
  5
   588
  8
0
  6
CONTINUOUS
 62
   130
 10
206.870848655701
 20
114.534336209414
 30
0.0
 11
206.870848655701
 21
116.462528348085
 31
0.0
  0
LINE
  5
   589
  8
0
  6
DOT
 62
   130
 10
213.670847892761
 20
119.962528348085
 30
0.0
 11
214.602913796902
 21
119.962528348085
 31
0.0
  0
LINE
  5
   58A
  8
0
  6
CONTINUOUS
 62
   130
 10
210.370862960815
 20
71.962538838503
 30
0.0
 11
214.870862960815
 21
71.962538838503
 31
0.0
  0
LINE
  5
   58B
  8
0
  6
CONTINUOUS
 62
   130
 10
211.270878219604
 20
167.962528348085
 30
0.0
 11
212.470832252502
 21
167.962528348085
 31
0.0
  0
LINE
  5
   58C
  8
0
  6
CONTINUOUS
 62
   130
 10
212.470832252502
 20
112.64099514496
 30
0.0
 11
212.470832252502
 21
113.462513089296
 31
0.0
  0
LINE
  5
   58D
  8
0
  6
CONTINUOUS
 62
   130
 10
212.470832252502
 20
113.462528348085
 30
0.0
 11
212.470832252502
 21
139.462497830507
 31
0.0
  0
LINE
  5
   58E
  8
0
  6
CONTINUOUS
 62
   130
 10
212.470832252502
 20
139.462528348085
 30
0.0
 11
212.470832252502
 21
167.962528348085
 31
0.0
  0
LINE
  5
   58F
  8
0
  6
CONTINUOUS
 62
   130
 10
210.310131611188
 20
108.89842531901
 30
0.0
 11
212.470901714641
 21
112.640995514694
 31
0.0
  0
LINE
  5
   590
  8
0
  6
CONTINUOUS
 62
   130
 10
209.270861055785
 20
109.498406420348
 30
0.0
 11
210.310051965178
 21
108.898423133793
 31
0.0
  0
LINE
  5
   591
  8
0
  6
CONTINUOUS
 62
   130
 10
209.270848342468
 20
109.498417614679
 30
0.0
 11
211.27084829216
 21
112.962513520471
 31
0.0
  0
LINE
  5
   592
  8
0
  6
CONTINUOUS
 62
   130
 10
211.270878219604
 20
139.462528348085
 30
0.0
 11
211.270878219604
 21
167.962528348085
 31
0.0
  0
LINE
  5
   593
  8
0
  6
CONTINUOUS
 62
   130
 10
211.270878219604
 20
123.033596159951
 30
0.0
 11
211.270878219604
 21
139.462528348085
 31
0.0
  0
LINE
  5
   594
  8
0
  6
CONTINUOUS
 62
   130
 10
211.270878219604
 20
112.962528348085
 30
0.0
 11
211.270878219604
 21
113.757312893984
 31
0.0
  0
LINE
  5
   595
  8
0
  6
CONTINUOUS
 62
   130
 10
212.470832824707
 20
54.9625397921773
 30
0.0
 11
212.670847892761
 21
54.9625397921773
 31
0.0
  0
LINE
  5
   596
  8
0
  6
CONTINUOUS
 62
   130
 10
212.470832824707
 20
59.962538838503
 30
0.0
 11
212.670847892761
 21
59.962538838503
 31
0.0
  0
ARC
  5
   597
  8
0
  6
CONTINUOUS
 62
   130
 10
210.370799743529
 20
116.462536031834
 30
0.0
 40
3.49996037873244
 50
149.049876462408
 51
179.999945358486
  0
LINE
  5
   598
  8
0
  6
CONTINUOUS
 62
   130
 10
211.170847702026
 20
139.462528348085
 30
0.0
 11
211.170847702026
 21
140.662510037539
 31
0.0
  0
LINE
  5
   599
  8
0
  6
CONTINUOUS
 62
   130
 10
211.170847702026
 20
118.262531399843
 30
0.0
 11
211.170847702026
 21
119.462528348085
 31
0.0
  0
LINE
  5
   59A
  8
0
  6
CONTINUOUS
 62
   130
 10
212.570862770081
 20
139.462528348085
 30
0.0
 11
212.570862770081
 21
140.662510037539
 31
0.0
  0
LINE
  5
   59B
  8
0
  6
CONTINUOUS
 62
   130
 10
212.570862770081
 20
118.262531399843
 30
0.0
 11
212.570862770081
 21
119.462528348085
 31
0.0
  0
LINE
  5
   59C
  8
0
  6
CONTINUOUS
 62
   130
 10
206.870849609375
 20
140.662510037539
 30
0.0
 11
211.170847702026
 21
140.662510037539
 31
0.0
  0
LINE
  5
   59D
  8
0
  6
CONTINUOUS
 62
   130
 10
206.870849609375
 20
139.462528348085
 30
0.0
 11
211.170847702026
 21
139.462528348085
 31
0.0
  0
LINE
  5
   59E
  8
0
  6
CONTINUOUS
 62
   130
 10
206.870848655701
 20
119.462528348085
 30
0.0
 11
211.170847702026
 21
119.462528348085
 31
0.0
  0
LINE
  5
   59F
  8
0
  6
CONTINUOUS
 62
   130
 10
206.870848655701
 20
118.262531399843
 30
0.0
 11
211.170847702026
 21
118.262531399843
 31
0.0
  0
LINE
  5
   5A0
  8
0
  6
CONTINUOUS
 62
   130
 10
210.795121420598
 20
119.632227501814
 30
0.0
 11
211.26082725319
 21
122.892168329958
 31
0.0
  0
LINE
  5
   5A1
  8
0
  6
CONTINUOUS
 62
   130
 10
211.983060812992
 20
119.462521874329
 30
0.0
 11
212.460827062455
 21
122.806885620575
 31
0.0
  0
LINE
  5
   5A2
  8
0
  6
CONTINUOUS
 62
   130
 10
210.795121420598
 20
119.632227501814
 30
0.0
 11
211.983060812992
 21
119.462521874329
 31
0.0
  0
ARC
  5
   5A3
  8
0
  6
CONTINUOUS
 62
   130
 10
210.270878219605
 20
123.033596159951
 30
0.0
 40
1.0
 50
351.869897645844
 51
360.0
  0
ARC
  5
   5A4
  8
0
  6
CONTINUOUS
 62
   130
 10
211.470832252502
 20
122.948313450568
 30
0.0
 40
1.0
 50
351.869897645844
 51
360.0
  0
LINE
  5
   5A5
  8
0
  6
CONTINUOUS
 62
   130
 10
212.470832252502
 20
119.462528348085
 30
0.0
 11
212.670847702026
 21
119.462528348085
 31
0.0
  0
LINE
  5
   5A6
  8
0
  6
CONTINUOUS
 62
   130
 10
212.470832252502
 20
118.262531399843
 30
0.0
 11
212.670847892761
 21
118.262531399843
 31
0.0
  0
LINE
  5
   5A7
  8
0
  6
DOT
 62
   130
 10
211.270878219604
 20
119.564268784294
 30
0.0
 11
211.270878219604
 21
123.033596159951
 31
0.0
  0
LINE
  5
   5A8
  8
0
  6
CONTINUOUS
 62
   130
 10
211.270878219604
 20
113.757284177098
 30
0.0
 11
211.270878219604
 21
119.564268784294
 31
0.0
  0
LINE
  5
   5A9
  8
0
  6
CONTINUOUS
 62
   130
 10
211.270878219604
 20
165.962528348085
 30
0.0
 11
212.470832252502
 21
165.962528348085
 31
0.0
  0
LINE
  5
   5AA
  8
0
  6
CONTINUOUS
 62
   130
 10
211.270878219604
 20
147.962528348085
 30
0.0
 11
212.470832252502
 21
147.962528348085
 31
0.0
  0
LINE
  5
   5AB
  8
0
  6
CONTINUOUS
 62
   130
 10
211.270878219604
 20
132.462528348085
 30
0.0
 11
212.470832252502
 21
132.462528348085
 31
0.0
  0
LINE
  5
   5AC
  8
0
  6
CONTINUOUS
 62
   130
 10
211.270878219604
 20
125.462528348085
 30
0.0
 11
212.470832252502
 21
125.462528348085
 31
0.0
  0
LINE
  5
   5AD
  8
0
  6
CONTINUOUS
 62
   130
 10
211.270878219604
 20
117.962531399843
 30
0.0
 11
212.470832252502
 21
117.962531399843
 31
0.0
  0
INSERT
  5
   5AE
  8
0
  6
CONTINUOUS
 62
     7
  2
*HATCH825
 10
214.870880126953
 20
168.462554931641
 30
0.0
  0
INSERT
  5
   5AF
  8
0
  6
CONTINUOUS
 62
     7
  2
*HATCH826
 10
214.870880126953
 20
168.462554931641
 30
0.0
  0
INSERT
  5
   5B0
  8
0
  6
CONTINUOUS
 62
     7
  2
*HATCH827
 10
214.870880126953
 20
168.462554931641
 30
0.0
  0
INSERT
  5
   5B1
  8
0
  6
CONTINUOUS
 62
     7
  2
*HATCH828
 10
214.870880126953
 20
168.462554931641
 30
0.0
  0
ARC
  5
   5B2
  8
0
  6
CONTINUOUS
 62
   130
 10
212.670847892761
 20
117.262531399843
 30
0.0
 40
1.0
 50
4.73805202541488E-14
 51
90.0
  0
ARC
  5
   5B3
  8
0
  6
CONTINUOUS
 62
   130
 10
212.670847702026
 20
117.262528348085
 30
0.0
 40
2.19999904632568
 50
4.73805202541488E-14
 51
90.0
  0
LINE
  5
   5B4
  8
0
  6
CONTINUOUS
 62
   130
 10
212.470832252502
 20
119.962528348085
 30
0.0
 11
213.670847892761
 21
119.962528348085
 31
0.0
  0
ARC
  5
   5B5
  8
0
  6
CONTINUOUS
 62
   130
 10
210.370799743529
 20
116.462536031834
 30
0.0
 40
3.49996037873244
 50
107.486019218245
 51
121.001855307785
  0
ARC
  5
   5B6
  8
0
  6
DOT
 62
   130
 10
210.370799743529
 20
116.462536031834
 30
0.0
 40
3.49996037873244
 50
121.001855307785
 51
149.049876462408
  0
ARC
  5
   5B7
  8
0
  6
CONTINUOUS
 62
   130
 10
210.370799743529
 20
116.462536031834
 30
0.0
 40
3.49996037873244
 50
90.0
 51
107.486019218245
  0
LINE
  5
   5B8
  8
0
  6
CONTINUOUS
 62
   130
 10
210.370850503445
 20
119.962528348085
 30
0.0
 11
210.842291532244
 21
119.962528348085
 31
0.0
  0
LINE
  5
   5B9
  8
0
  6
CONTINUOUS
 62
   130
 10
209.861464496102
 20
113.732999360073
 30
0.0
 11
210.87083459263
 21
113.462536710544
 31
0.0
  0
ARC
  5
   5BA
  8
0
  6
CONTINUOUS
 62
   130
 10
210.370794160491
 20
75.462510225564
 30
0.0
 40
3.49994520846391
 50
180.000159781254
 51
270.000829632805
  0
ARC
  5
   5BB
  8
0
  6
CONTINUOUS
 62
   130
 10
212.670847702026
 20
141.662513089296
 30
0.0
 40
2.19999904632568
 50
270.0
 51
360.0
  0
LINE
  5
   5BC
  8
0
  6
DOT
 62
   130
 10
213.670847892761
 20
117.262531399843
 30
0.0
 11
213.670847892761
 21
119.222120044978
 31
0.0
  0
LINE
  5
   5BD
  8
0
  6
CONTINUOUS
 62
   130
 10
213.670847892761
 20
96.063646360539
 30
0.0
 11
213.670847892761
 21
117.262531399843
 31
0.0
  0
LINE
  5
   5BE
  8
0
  6
CONTINUOUS
 62
   130
 10
213.670847892761
 20
119.222120044978
 30
0.0
 11
213.670847892761
 21
139.702936651193
 31
0.0
  0
LINE
  5
   5BF
  8
0
  6
DOT
 62
   130
 10
213.670847892761
 20
139.702936651193
 30
0.0
 11
213.670847892761
 21
141.662450472987
 31
0.0
  0
LINE
  5
   5C0
  8
0
  6
CONTINUOUS
 62
   130
 10
213.670847892761
 20
62.9625397921773
 30
0.0
 11
214.870862960815
 21
62.9625397921773
 31
0.0
  0
ARC
  5
   5C1
  8
0
  6
CONTINUOUS
 62
   130
 10
212.670847443592
 20
141.662537871129
 30
0.0
 40
1.00003107655773
 50
270.000702922647
 51
359.997118426408
  0
ARC
  5
   5C2
  8
0
  6
CONTINUOUS
 62
   130
 10
212.67084784515
 20
60.9625376947873
 30
0.0
 40
0.999999854264095
 50
270.000056857099
 51
359.999980768838
  0
ARC
  5
   5C3
  8
0
  6
CONTINUOUS
 62
   130
 10
212.670849002672
 20
53.9625413459534
 30
0.0
 40
0.999999781581745
 50
359.999963924677
 51
449.999994772631
  0
LINE
  5
   5C4
  8
0
  6
DASHDOT
 62
   130
 10
211.159373965519
 20
57.4625397921773
 30
0.0
 11
216.122990129658
 21
57.4625397921773
 31
0.0
  0
LINE
  5
   5C5
  8
0
  6
DOT
 62
   130
 10
212.470832824707
 20
58.9625397921773
 30
0.0
 11
214.870862960815
 21
58.9625397921773
 31
0.0
  0
LINE
  5
   5C6
  8
0
  6
DOT
 62
   130
 10
212.470832824707
 20
55.9625397921773
 30
0.0
 11
214.870862960815
 21
55.9625397921773
 31
0.0
  0
LINE
  5
   5C7
  8
0
  6
DOT
 62
   130
 10
212.470832824707
 20
59.4625397921773
 30
0.0
 11
214.870862960815
 21
59.4625397921773
 31
0.0
  0
LINE
  5
   5C8
  8
0
  6
DOT
 62
   130
 10
212.470832824707
 20
55.4625397921773
 30
0.0
 11
214.870862960815
 21
55.4625397921773
 31
0.0
  0
LINE
  5
   5C9
  8
0
  6
CONTINUOUS
 62
   130
 10
212.470832824707
 20
54.9625397921773
 30
0.0
 11
212.470832824707
 21
59.962538838503
 31
0.0
  0
ARC
  5
   5CA
  8
0
  6
CONTINUOUS
 62
   130
 10
212.670849002672
 20
160.962522979612
 30
0.0
 40
0.999999781581745
 50
270.000005227369
 51
360.000036075322
  0
LINE
  5
   5CB
  8
0
  6
CONTINUOUS
 62
   130
 10
212.470832824707
 20
159.962524533388
 30
0.0
 11
212.670847892761
 21
159.962524533388
 31
0.0
  0
LINE
  5
   5CC
  8
0
  6
CONTINUOUS
 62
   130
 10
212.470832824707
 20
154.962525487063
 30
0.0
 11
212.470832824707
 21
159.962524533388
 31
0.0
  0
LINE
  5
   5CD
  8
0
  6
CONTINUOUS
 62
   130
 10
212.470832824707
 20
154.962525487063
 30
0.0
 11
212.670847892761
 21
154.962525487063
 31
0.0
  0
ARC
  5
   5CE
  8
0
  6
CONTINUOUS
 62
   130
 10
212.67084784515
 20
153.962526630778
 30
0.0
 40
0.999999854264095
 50
1.92311620988667E-5
 51
89.9998885013881
  0
LINE
  5
   5CF
  8
0
  6
DOT
 62
   130
 10
212.470832824707
 20
155.462524533388
 30
0.0
 11
214.870862960815
 21
155.462524533388
 31
0.0
  0
LINE
  5
   5D0
  8
0
  6
DOT
 62
   130
 10
212.470832824707
 20
155.962524533388
 30
0.0
 11
214.870862960815
 21
155.962524533388
 31
0.0
  0
LINE
  5
   5D1
  8
0
  6
DASHDOT
 62
   130
 10
211.159373965519
 20
157.462524533388
 30
0.0
 11
216.122990129658
 21
157.462524533388
 31
0.0
  0
LINE
  5
   5D2
  8
0
  6
DOT
 62
   130
 10
212.470832824707
 20
158.962524533388
 30
0.0
 11
214.870862960815
 21
158.962524533388
 31
0.0
  0
LINE
  5
   5D3
  8
0
  6
DOT
 62
   130
 10
212.470832824707
 20
159.462524533388
 30
0.0
 11
214.870862960815
 21
159.462524533388
 31
0.0
  0
LINE
  5
   5D4
  8
0
  6
CONTINUOUS
 62
   130
 10
212.470832252502
 20
123.962528348085
 30
0.0
 11
214.191408503867
 21
123.962528348085
 31
0.0
  0
LINE
  5
   5D5
  8
0
  6
DASHDOT
 62
   130
 10
209.620862865448
 20
121.896906857138
 30
0.0
 11
209.620862865448
 21
142.062440600757
 31
0.0
  0
LINE
  5
   5D6
  8
0
  6
DASHDOT
 62
   130
 10
214.120862865448
 20
122.382362513353
 30
0.0
 11
214.120862865448
 21
142.188938028133
 31
0.0
  0
CIRCLE
  5
   5D7
  8
0
  6
CONTINUOUS
 62
   130
 10
209.620862865448
 20
125.156258348085
 30
0.0
 40
0.39999988079071
  0
CIRCLE
  5
   5D8
  8
0
  6
CONTINUOUS
 62
   130
 10
209.620862865448
 20
126.756258348085
 30
0.0
 40
0.39999988079071
  0
CIRCLE
  5
   5D9
  8
0
  6
CONTINUOUS
 62
   130
 10
209.620862865448
 20
128.356258348085
 30
0.0
 40
0.39999988079071
  0
CIRCLE
  5
   5DA
  8
0
  6
CONTINUOUS
 62
   130
 10
209.620862865448
 20
129.956243089296
 30
0.0
 40
0.39999988079071
  0
CIRCLE
  5
   5DB
  8
0
  6
CONTINUOUS
 62
   130
 10
209.620862865448
 20
131.556243089296
 30
0.0
 40
0.39999988079071
  0
CIRCLE
  5
   5DC
  8
0
  6
CONTINUOUS
 62
   130
 10
209.620862865448
 20
133.156258348085
 30
0.0
 40
0.39999988079071
  0
CIRCLE
  5
   5DD
  8
0
  6
CONTINUOUS
 62
   130
 10
209.620862865448
 20
134.756258348085
 30
0.0
 40
0.39999988079071
  0
CIRCLE
  5
   5DE
  8
0
  6
CONTINUOUS
 62
   130
 10
209.620862865448
 20
136.356258348085
 30
0.0
 40
0.39999988079071
  0
CIRCLE
  5
   5DF
  8
0
  6
CONTINUOUS
 62
   130
 10
209.620862865448
 20
137.956243089296
 30
0.0
 40
0.39999988079071
  0
ARC
  5
   5E0
  8
0
  6
CONTINUOUS
 62
   130
 10
209.620862865448
 20
139.556243089296
 30
0.0
 40
0.39999988079071
 50
193.551673260582
 51
269.999945358487
  0
CIRCLE
  5
   5E1
  8
0
  6
CONTINUOUS
 62
   130
 10
214.120862865448
 20
125.956243089296
 30
0.0
 40
0.39999988079071
  0
ARC
  5
   5E2
  8
0
  6
CONTINUOUS
 62
   130
 10
214.120862865448
 20
124.356258348085
 30
0.0
 40
0.39999988079071
 50
280.158049843883
 51
619.841895514604
  0
CIRCLE
  5
   5E3
  8
0
  6
CONTINUOUS
 62
   130
 10
214.120862865448
 20
127.556243089296
 30
0.0
 40
0.39999988079071
  0
CIRCLE
  5
   5E4
  8
0
  6
CONTINUOUS
 62
   130
 10
214.120862865448
 20
129.156258348085
 30
0.0
 40
0.39999988079071
  0
CIRCLE
  5
   5E5
  8
0
  6
CONTINUOUS
 62
   130
 10
214.120862865448
 20
130.756258348085
 30
0.0
 40
0.39999988079071
  0
CIRCLE
  5
   5E6
  8
0
  6
CONTINUOUS
 62
   130
 10
214.120862865448
 20
132.356258348085
 30
0.0
 40
0.39999988079071
  0
CIRCLE
  5
   5E7
  8
0
  6
CONTINUOUS
 62
   130
 10
214.120862865448
 20
133.956243089296
 30
0.0
 40
0.39999988079071
  0
CIRCLE
  5
   5E8
  8
0
  6
CONTINUOUS
 62
   130
 10
214.120862865448
 20
135.556243089296
 30
0.0
 40
0.39999988079071
  0
LINE
  5
   5E9
  8
0
  6
CONTINUOUS
 62
   130
 10
212.470849946531
 20
124.469184463391
 30
0.0
 11
214.050866754475
 21
124.750076340358
 31
0.0
  0
LINE
  5
   5EA
  8
0
  6
CONTINUOUS
 62
   130
 10
212.470834923299
 20
125.256638156539
 30
0.0
 11
214.190878399017
 21
125.562423663333
 31
0.0
  0
LINE
  5
   5EB
  8
0
  6
CONTINUOUS
 62
   130
 10
212.470877322198
 20
126.069204828216
 30
0.0
 11
214.050849060446
 21
126.350088692793
 31
0.0
  0
LINE
  5
   5EC
  8
0
  6
CONTINUOUS
 62
   130
 10
212.470862298966
 20
126.856658521364
 30
0.0
 11
214.190845681757
 21
127.162433344971
 31
0.0
  0
LINE
  5
   5ED
  8
0
  6
CONTINUOUS
 62
   130
 10
212.470864969763
 20
127.669187134187
 30
0.0
 11
214.05082168478
 21
127.950068327968
 31
0.0
  0
LINE
  5
   5EE
  8
0
  6
CONTINUOUS
 62
   130
 10
212.470849946531
 20
128.456640827335
 30
0.0
 11
214.190878399017
 21
128.762423663333
 31
0.0
  0
LINE
  5
   5EF
  8
0
  6
CONTINUOUS
 62
   130
 10
212.470834923299
 20
129.269181792594
 30
0.0
 11
214.050851731243
 21
129.550073669562
 31
0.0
  0
LINE
  5
   5F0
  8
0
  6
CONTINUOUS
 62
   130
 10
212.470877322198
 20
130.05666119216
 30
0.0
 11
214.190860704989
 21
130.362436015768
 31
0.0
  0
LINE
  5
   5F1
  8
0
  6
CONTINUOUS
 62
   130
 10
212.470862298966
 20
130.869202157419
 30
0.0
 11
214.050834037215
 21
131.150086021997
 31
0.0
  0
LINE
  5
   5F2
  8
0
  6
CONTINUOUS
 62
   130
 10
212.470862298966
 20
131.656658521364
 30
0.0
 11
214.190890751452
 21
131.962441357361
 31
0.0
  0
LINE
  5
   5F3
  8
0
  6
CONTINUOUS
 62
   130
 10
212.470849946531
 20
132.469184463391
 30
0.0
 11
214.050866754475
 21
132.750076340358
 31
0.0
  0
LINE
  5
   5F4
  8
0
  6
CONTINUOUS
 62
   130
 10
212.470834923299
 20
133.256638156539
 30
0.0
 11
214.190878399017
 21
133.562423663333
 31
0.0
  0
LINE
  5
   5F5
  8
0
  6
CONTINUOUS
 62
   130
 10
212.470877322197
 20
134.069204828216
 30
0.0
 11
214.050849060446
 21
134.350088692793
 31
0.0
  0
LINE
  5
   5F6
  8
0
  6
CONTINUOUS
 62
   130
 10
212.470862298966
 20
134.856658521364
 30
0.0
 11
214.190845681757
 21
135.162433344971
 31
0.0
  0
LINE
  5
   5F7
  8
0
  6
CONTINUOUS
 62
   130
 10
212.470864969763
 20
135.669187134187
 30
0.0
 11
214.05082168478
 21
135.950068327968
 31
0.0
  0
LINE
  5
   5F8
  8
0
  6
CONTINUOUS
 62
   130
 10
212.470849946531
 20
136.456640827335
 30
0.0
 11
214.190893422249
 21
136.76242633413
 31
0.0
  0
LINE
  5
   5F9
  8
0
  6
CONTINUOUS
 62
   130
 10
212.470832252503
 20
137.269196815825
 30
0.0
 11
214.050864083678
 21
137.55009136359
 31
0.0
  0
LINE
  5
   5FA
  8
0
  6
CONTINUOUS
 62
   130
 10
212.470877322198
 20
138.05666119216
 30
0.0
 11
214.190860704989
 21
138.362436015768
 31
0.0
  0
LINE
  5
   5FB
  8
0
  6
CONTINUOUS
 62
   130
 10
212.470879992994
 20
138.869189804984
 30
0.0
 11
214.050836708011
 21
139.150070998765
 31
0.0
  0
LINE
  5
   5FC
  8
0
  6
CONTINUOUS
 62
   130
 10
209.690893422249
 20
139.16242633413
 30
0.0
 11
211.270865160498
 21
139.443310198707
 31
0.0
  0
CIRCLE
  5
   5FD
  8
0
  6
CONTINUOUS
 62
   130
 10
214.120862865448
 20
137.156258348085
 30
0.0
 40
0.39999988079071
  0
CIRCLE
  5
   5FE
  8
0
  6
CONTINUOUS
 62
   130
 10
214.120862865448
 20
138.756258348085
 30
0.0
 40
0.39999988079071
  0
ARC
  5
   5FF
  8
0
  6
CONTINUOUS
 62
   130
 10
209.620862865448
 20
139.556243089296
 30
0.0
 40
0.39999988079071
 50
270.0
 51
346.448162814878
  0
LINE
  5
   600
  8
0
  6
CONTINUOUS
 62
   130
 10
209.550836708011
 20
138.350070998765
 30
0.0
 11
211.270880183729
 21
138.655856505559
 31
0.0
  0
LINE
  5
   601
  8
0
  6
CONTINUOUS
 62
   130
 10
209.690860704989
 20
137.562436015768
 30
0.0
 11
211.270877512932
 21
137.843327892736
 31
0.0
  0
LINE
  5
   602
  8
0
  6
CONTINUOUS
 62
   130
 10
209.550864083678
 20
136.75009136359
 30
0.0
 11
211.270832443238
 21
137.055863516401
 31
0.0
  0
LINE
  5
   603
  8
0
  6
CONTINUOUS
 62
   130
 10
209.690893422249
 20
135.96242633413
 30
0.0
 11
211.270850137266
 21
136.24330752791
 31
0.0
  0
LINE
  5
   604
  8
0
  6
CONTINUOUS
 62
   130
 10
209.55082168478
 20
135.150068327968
 30
0.0
 11
211.270865160498
 21
135.455853834762
 31
0.0
  0
LINE
  5
   605
  8
0
  6
CONTINUOUS
 62
   130
 10
209.690845681757
 20
134.362433344971
 30
0.0
 11
211.270877512932
 21
134.643327892736
 31
0.0
  0
LINE
  5
   606
  8
0
  6
CONTINUOUS
 62
   130
 10
209.550849060446
 20
133.550088692793
 30
0.0
 11
211.270832443238
 21
133.855863516401
 31
0.0
  0
LINE
  5
   607
  8
0
  6
CONTINUOUS
 62
   130
 10
209.690878399017
 20
132.762423663333
 30
0.0
 11
211.270835114034
 21
133.043304857114
 31
0.0
  0
LINE
  5
   608
  8
0
  6
CONTINUOUS
 62
   130
 10
209.550866754475
 20
131.950076340358
 30
0.0
 11
211.270850137266
 21
132.255851163966
 31
0.0
  0
LINE
  5
   609
  8
0
  6
CONTINUOUS
 62
   130
 10
209.690890751452
 20
131.162441357361
 30
0.0
 11
211.270862489701
 21
131.443325221939
 31
0.0
  0
LINE
  5
   60A
  8
0
  6
CONTINUOUS
 62
   130
 10
209.550834037215
 20
130.350086021997
 30
0.0
 11
211.270877512932
 21
130.655871528791
 31
0.0
  0
LINE
  5
   60B
  8
0
  6
CONTINUOUS
 62
   130
 10
209.690860704989
 20
129.562436015768
 30
0.0
 11
211.270877512932
 21
129.843327892736
 31
0.0
  0
LINE
  5
   60C
  8
0
  6
CONTINUOUS
 62
   130
 10
209.550866754475
 20
128.750076340358
 30
0.0
 11
211.270835114034
 21
129.055848493169
 31
0.0
  0
LINE
  5
   60D
  8
0
  6
CONTINUOUS
 62
   130
 10
209.690893422249
 20
127.96242633413
 30
0.0
 11
211.270850137266
 21
128.24330752791
 31
0.0
  0
LINE
  5
   60E
  8
0
  6
CONTINUOUS
 62
   130
 10
209.55082168478
 20
127.150068327968
 30
0.0
 11
211.270865160498
 21
127.455853834762
 31
0.0
  0
LINE
  5
   60F
  8
0
  6
CONTINUOUS
 62
   130
 10
209.690845681757
 20
126.362433344971
 30
0.0
 11
211.270877512932
 21
126.643327892736
 31
0.0
  0
LINE
  5
   610
  8
0
  6
CONTINUOUS
 62
   130
 10
209.550849060446
 20
125.550088692793
 30
0.0
 11
211.270877512932
 21
125.855871528791
 31
0.0
  0
LINE
  5
   611
  8
0
  6
CONTINUOUS
 62
   130
 10
209.690878399017
 20
124.762423663333
 30
0.0
 11
211.270835114034
 21
125.043304857114
 31
0.0
  0
LINE
  5
   612
  8
0
  6
CONTINUOUS
 62
   130
 10
209.620824792262
 20
123.962513324854
 30
0.0
 11
211.270850137266
 21
124.255851163966
 31
0.0
  0
LINE
  5
   613
  8
0
  6
CONTINUOUS
 62
   130
 10
209.620852639043
 20
123.962528348085
 30
0.0
 11
211.270878219604
 21
123.962528348085
 31
0.0
  0
INSERT
  5
   614
  8
0
  6
CONTINUOUS
 62
     3
  2
*HATCH829
 10
214.870880126953
 20
168.462554931641
 30
0.0
  0
INSERT
  5
   615
  8
0
  6
CONTINUOUS
 62
     3
  2
*HATCH830
 10
214.870880126953
 20
168.462554931641
 30
0.0
  0
INSERT
  5
   616
  8
0
  6
CONTINUOUS
 62
     3
  2
*HATCH831
 10
214.870880126953
 20
168.462554931641
 30
0.0
  0
INSERT
  5
   617
  8
0
  6
CONTINUOUS
 62
     3
  2
*HATCH832
 10
214.870880126953
 20
168.462554931641
 30
0.0
  0
INSERT
  5
   618
  8
0
  6
CONTINUOUS
 62
     3
  2
*HATCH833
 10
214.870880126953
 20
168.462554931641
 30
0.0
  0
INSERT
  5
   619
  8
0
  6
CONTINUOUS
 62
     3
  2
*HATCH834
 10
214.870880126953
 20
168.462554931641
 30
0.0
  0
INSERT
  5
   61A
  8
0
  6
CONTINUOUS
 62
     3
  2
*HATCH835
 10
214.870880126953
 20
168.462554931641
 30
0.0
  0
INSERT
  5
   61B
  8
0
  6
CONTINUOUS
 62
     3
  2
*HATCH836
 10
214.870880126953
 20
168.462554931641
 30
0.0
  0
INSERT
  5
   61C
  8
0
  6
CONTINUOUS
 62
     3
  2
*HATCH837
 10
214.870880126953
 20
168.462554931641
 30
0.0
  0
INSERT
  5
   61D
  8
0
  6
CONTINUOUS
 62
     3
  2
*HATCH838
 10
214.870880126953
 20
168.462554931641
 30
0.0
  0
INSERT
  5
   61E
  8
0
  6
CONTINUOUS
 62
     3
  2
*HATCH839
 10
214.870880126953
 20
168.462554931641
 30
0.0
  0
INSERT
  5
   61F
  8
0
  6
CONTINUOUS
 62
     3
  2
*HATCH840
 10
214.870880126953
 20
168.462554931641
 30
0.0
  0
INSERT
  5
   620
  8
0
  6
CONTINUOUS
 62
     3
  2
*HATCH841
 10
214.870880126953
 20
168.462554931641
 30
0.0
  0
POLYLINE
  5
   621
  8
0
  6
CONTINUOUS
 62
   130
 66
     1
 10
0.0
 20
0.0
 30
0.0
  0
VERTEX
  5
   622
  8
0
  6
CONTINUOUS
 10
214.870936922899
 20
96.3699147910432
 30
0.0
 40
0.0
 41
0.0
  0
VERTEX
  5
   623
  8
0
  6
CONTINUOUS
 10
214.769836970992
 20
96.3859246396438
 30
0.0
 40
0.0
 41
0.0
  0
VERTEX
  5
   624
  8
0
  6
CONTINUOUS
 10
214.669858776886
 20
96.3985801653404
 30
0.0
 40
0.0
 41
0.0
  0
VERTEX
  5
   625
  8
0
  6
CONTINUOUS
 10
214.620323325767
 20
96.4032783001493
 30
0.0
 40
0.0
 41
0.0
  0
VERTEX
  5
   626
  8
0
  6
CONTINUOUS
 10
214.521680768346
 20
96.4086676766743
 30
0.0
 40
0.0
 41
0.0
  0
VERTEX
  5
   627
  8
0
  6
CONTINUOUS
 10
214.424286018222
 20
96.4076078625158
 30
0.0
 40
0.0
 41
0.0
  0
VERTEX
  5
   628
  8
0
  6
CONTINUOUS
 10
214.37603586412
 20
96.4042830495346
 30
0.0
 40
0.0
 41
0.0
  0
VERTEX
  5
   629
  8
0
  6
CONTINUOUS
 10
214.328066614139
 20
96.398906595927
 30
0.0
 40
0.0
 41
0.0
  0
VERTEX
  5
   62A
  8
0
  6
CONTINUOUS
 10
214.280362426119
 20
96.3913490829168
 30
0.0
 40
0.0
 41
0.0
  0
VERTEX
  5
   62B
  8
0
  6
CONTINUOUS
 10
214.232905791767
 20
96.3814933925802
 30
0.0
 40
0.0
 41
0.0
  0
VERTEX
  5
   62C
  8
0
  6
CONTINUOUS
 10
214.185678088065
 20
96.3692370527278
 30
0.0
 40
0.0
 41
0.0
  0
VERTEX
  5
   62D
  8
0
  6
CONTINUOUS
 10
214.138660128672
 20
96.3544945817861
 30
0.0
 40
0.0
 41
0.0
  0
VERTEX
  5
   62E
  8
0
  6
CONTINUOUS
 10
214.091832715334
 20
96.3371998336795
 30
0.0
 40
0.0
 41
0.0
  0
VERTEX
  5
   62F
  8
0
  6
CONTINUOUS
 10
214.045177189285
 20
96.3173083427125
 30
0.0
 40
0.0
 41
0.0
  0
VERTEX
  5
   630
  8
0
  6
CONTINUOUS
 10
213.998675982653
 20
96.2947996684508
 30
0.0
 40
0.0
 41
0.0
  0
VERTEX
  5
   631
  8
0
  6
CONTINUOUS
 10
213.952313169868
 20
96.269679740604
 30
0.0
 40
0.0
 41
0.0
  0
VERTEX
  5
   632
  8
0
  6
CONTINUOUS
 10
213.906075019065
 20
96.2419832039068
 30
0.0
 40
0.0
 41
0.0
  0
VERTEX
  5
   633
  8
0
  6
CONTINUOUS
 10
213.859950543487
 20
96.2117757630011
 30
0.0
 40
0.0
 41
0.0
  0
VERTEX
  5
   634
  8
0
  6
CONTINUOUS
 10
213.768015704975
 20
96.1442603559589
 30
0.0
 40
0.0
 41
0.0
  0
VERTEX
  5
   635
  8
0
  6
CONTINUOUS
 10
213.676496615904
 20
96.0683694602668
 30
0.0
 40
0.0
 41
0.0
  0
VERTEX
  5
   636
  8
0
  6
CONTINUOUS
 10
213.571212283311
 20
95.9726166003195
 30
0.0
 40
0.0
 41
0.0
  0
VERTEX
  5
   637
  8
0
  6
CONTINUOUS
 10
213.363646483194
 20
95.7719865841228
 30
0.0
 40
0.0
 41
0.0
  0
VERTEX
  5
   638
  8
0
  6
CONTINUOUS
 10
213.262130346554
 20
95.6773772198762
 30
0.0
 40
0.0
 41
0.0
  0
VERTEX
  5
   639
  8
0
  6
CONTINUOUS
 10
213.212117936105
 20
95.6338894001084
 30
0.0
 40
0.0
 41
0.0
  0
VERTEX
  5
   63A
  8
0
  6
CONTINUOUS
 10
213.162664764685
 20
95.5938389825189
 30
0.0
 40
0.0
 41
0.0
  0
VERTEX
  5
   63B
  8
0
  6
CONTINUOUS
 10
213.113810399451
 20
95.5578590912905
 30
0.0
 40
0.0
 41
0.0
  0
VERTEX
  5
   63C
  8
0
  6
CONTINUOUS
 10
213.065586541021
 20
95.5265386441277
 30
0.0
 40
0.0
 41
0.0
  0
VERTEX
  5
   63D
  8
0
  6
CONTINUOUS
 10
213.018015156812
 20
95.500409844373
 30
0.0
 40
0.0
 41
0.0
  0
VERTEX
  5
   63E
  8
0
  6
CONTINUOUS
 10
212.971106614369
 20
95.4799356731235
 30
0.0
 40
0.0
 41
0.0
  0
VERTEX
  5
   63F
  8
0
  6
CONTINUOUS
 10
212.924857814712
 20
95.4654973813478
 30
0.0
 40
0.0
 41
0.0
  0
VERTEX
  5
   640
  8
0
  6
CONTINUOUS
 10
212.879250325663
 20
95.4573819820021
 30
0.0
 40
0.0
 41
0.0
  0
VERTEX
  5
   641
  8
0
  6
CONTINUOUS
 10
212.834248515186
 20
95.4557697421469
 30
0.0
 40
0.0
 41
0.0
  0
VERTEX
  5
   642
  8
0
  6
CONTINUOUS
 10
212.789797684725
 20
95.4607216750638
 30
0.0
 40
0.0
 41
0.0
  0
VERTEX
  5
   643
  8
0
  6
CONTINUOUS
 10
212.745822202538
 20
95.4721670323719
 30
0.0
 40
0.0
 41
0.0
  0
VERTEX
  5
   644
  8
0
  6
CONTINUOUS
 10
212.702223637033
 20
95.4898907961443
 30
0.0
 40
0.0
 41
0.0
  0
VERTEX
  5
   645
  8
0
  6
CONTINUOUS
 10
212.673853885905
 20
95.5047077283901
 30
0.0
 40
0.0
 41
0.0
  0
VERTEX
  5
   646
  8
0
  6
CONTINUOUS
 10
212.617279593208
 20
95.5413378808747
 30
0.0
 40
0.0
 41
0.0
  0
VERTEX
  5
   647
  8
0
  6
CONTINUOUS
 10
212.588982919008
 20
95.5627878548684
 30
0.0
 40
0.0
 41
0.0
  0
VERTEX
  5
   648
  8
0
  6
CONTINUOUS
 10
212.532119921747
 20
95.6108839079792
 30
0.0
 40
0.0
 41
0.0
  0
VERTEX
  5
   649
  8
0
  6
CONTINUOUS
 10
212.474546017003
 20
95.6642782846797
 30
0.0
 40
0.0
 41
0.0
  0
VERTEX
  5
   64A
  8
0
  6
CONTINUOUS
 10
212.355593477568
 20
95.7784189995484
 30
0.0
 40
0.0
 41
0.0
  0
VERTEX
  5
   64B
  8
0
  6
CONTINUOUS
 10
212.293454204459
 20
95.8347735992401
 30
0.0
 40
0.0
 41
0.0
  0
VERTEX
  5
   64C
  8
0
  6
CONTINUOUS
 10
212.229131660913
 20
95.8878464673276
 30
0.0
 40
0.0
 41
0.0
  0
VERTEX
  5
   64D
  8
0
  6
CONTINUOUS
 10
212.162430949295
 20
95.9357791997055
 30
0.0
 40
0.0
 41
0.0
  0
VERTEX
  5
   64E
  8
0
  6
CONTINUOUS
 10
212.093275363095
 20
95.9770314579049
 30
0.0
 40
0.0
 41
0.0
  0
VERTEX
  5
   64F
  8
0
  6
CONTINUOUS
 10
212.050285436946
 20
95.9982435600094
 30
0.0
 40
0.0
 41
0.0
  0
VERTEX
  5
   650
  8
0
  6
CONTINUOUS
 10
212.006462200184
 20
96.0164302707275
 30
0.0
 40
0.0
 41
0.0
  0
VERTEX
  5
   651
  8
0
  6
CONTINUOUS
 10
211.961867642158
 20
96.0314922848894
 30
0.0
 40
0.0
 41
0.0
  0
VERTEX
  5
   652
  8
0
  6
CONTINUOUS
 10
211.916580975635
 20
96.0433870007074
 30
0.0
 40
0.0
 41
0.0
  0
VERTEX
  5
   653
  8
0
  6
CONTINUOUS
 10
211.87069605667
 20
96.0521220021047
 30
0.0
 40
0.0
 41
0.0
  0
SEQEND
  5
   654
  8
0
  6
CONTINUOUS
 62
   130
  0
LINE
  5
   655
  8
0
  6
DOT
 62
   130
 10
213.670847892761
 20
71.962538838503
 30
0.0
 11
213.670847892761
 21
96.063646360539
 31
0.0
  0
LINE
  5
   656
  8
0
  6
CONTINUOUS
 62
   130
 10
210.970832824707
 20
140.662510037539
 30
0.0
 11
211.270878219604
 21
140.662510037539
 31
0.0
  0
LINE
  5
   657
  8
0
  6
CONTINUOUS
 62
   130
 10
210.970832824707
 20
139.462528348085
 30
0.0
 11
211.270878219604
 21
139.462528348085
 31
0.0
  0
LINE
  5
   658
  8
0
  6
CONTINUOUS
 62
   130
 10
211.170847702026
 20
119.462528348085
 30
0.0
 11
211.270878219604
 21
119.462528348085
 31
0.0
  0
LINE
  5
   659
  8
0
  6
CONTINUOUS
 62
   130
 10
211.170847702026
 20
118.262531399843
 30
0.0
 11
211.270878219604
 21
118.262531399843
 31
0.0
  0
LINE
  5
   65A
  8
0
  6
CONTINUOUS
 62
   130
 10
210.842291532244
 20
119.962528348085
 30
0.0
 11
211.270878219604
 21
119.962528348085
 31
0.0
  0
LINE
  5
   65B
  8
0
  6
DOT
 62
   130
 10
211.270878219604
 20
119.962528348085
 30
0.0
 11
212.470832252502
 21
119.962528348085
 31
0.0
  0
INSERT
  5
   65C
  8
0
  6
CONTINUOUS
 62
     7
  2
*HATCH842
 10
214.870880126953
 20
168.462554931641
 30
0.0
  0
INSERT
  5
   65D
  8
0
  6
CONTINUOUS
 62
     7
  2
*HATCH843
 10
214.870880126953
 20
168.462554931641
 30
0.0
  0
INSERT
  5
   65E
  8
0
  6
CONTINUOUS
 62
     7
  2
*HATCH844
 10
214.870880126953
 20
168.462554931641
 30
0.0
  0
INSERT
  5
   65F
  8
0
  6
CONTINUOUS
 62
     7
  2
*HATCH845
 10
214.870880126953
 20
168.462554931641
 30
0.0
  0
INSERT
  5
   660
  8
0
  6
CONTINUOUS
 62
     3
  2
*HATCH846
 10
214.870880126953
 20
168.462554931641
 30
0.0
  0
INSERT
  5
   661
  8
0
  6
CONTINUOUS
 62
     3
  2
*HATCH847
 10
214.870880126953
 20
168.462554931641
 30
0.0
  0
INSERT
  5
   662
  8
0
  6
CONTINUOUS
 62
     3
  2
*HATCH848
 10
214.870880126953
 20
168.462554931641
 30
0.0
  0
INSERT
  5
   663
  8
0
  6
CONTINUOUS
 62
     3
  2
*HATCH849
 10
214.870880126953
 20
168.462554931641
 30
0.0
  0
INSERT
  5
   664
  8
0
  6
CONTINUOUS
 62
     3
  2
*HATCH850
 10
214.870880126953
 20
168.462554931641
 30
0.0
  0
INSERT
  5
   665
  8
0
  6
CONTINUOUS
 62
     3
  2
*HATCH851
 10
214.870880126953
 20
168.462554931641
 30
0.0
  0
INSERT
  5
   666
  8
0
  6
CONTINUOUS
 62
     3
  2
*HATCH852
 10
214.870880126953
 20
168.462554931641
 30
0.0
  0
INSERT
  5
   667
  8
0
  6
CONTINUOUS
 62
     3
  2
*HATCH853
 10
214.870880126953
 20
168.462554931641
 30
0.0
  0
INSERT
  5
   668
  8
0
  6
CONTINUOUS
 62
     3
  2
*HATCH854
 10
214.870880126953
 20
168.462554931641
 30
0.0
  0
INSERT
  5
   669
  8
0
  6
CONTINUOUS
 62
     3
  2
*HATCH855
 10
214.870880126953
 20
168.462554931641
 30
0.0
  0
INSERT
  5
   66A
  8
0
  6
CONTINUOUS
 62
     3
  2
*HATCH856
 10
214.870880126953
 20
168.462554931641
 30
0.0
  0
INSERT
  5
   66B
  8
0
  6
CONTINUOUS
 62
     3
  2
*HATCH857
 10
214.870880126953
 20
168.462554931641
 30
0.0
  0
INSERT
  5
   66C
  8
0
  6
CONTINUOUS
 62
     3
  2
*HATCH858
 10
214.870880126953
 20
168.462554931641
 30
0.0
  0
LINE
  5
   66D
  8
0
  6
DASHDOT
 62
   130
 10
206.200056868249
 20
96.4625549316407
 30
0.0
 11
317.090497199581
 21
96.4625549316407
 31
0.0
  0
POINT
  5
   66E
  8
0
  6
CONTINUOUS
 62
   130
 10
211.870848655701
 20
113.462528348085
 30
0.0
  0
POINT
  5
   66F
  8
0
  6
CONTINUOUS
 62
   130
 10
211.870848655701
 20
77.9625283480855
 30
0.0
  0
INSERT
  5
   670
  8
0
  6
CONTINUOUS
 62
     7
  2
*UDIM1260
 10
0.0
 20
0.0
 30
0.0
  0
INSERT
  5
   671
  8
0
  6
CONTINUOUS
 62
     7
  2
*UDIM1261
 10
0.0
 20
0.0
 30
0.0
  0
INSERT
  5
   672
  8
0
  6
CONTINUOUS
 62
     3
  2
*UDIM1262
 10
0.0
 20
0.0
 30
0.0
  0
LINE
  5
   673
  8
0
  6
CONTINUOUS
 62
   130
 10
285.070873933415
 20
64.4625701904297
 30
0.0
 11
285.070873933415
 21
73.9625701904297
 31
0.0
  0
LINE
  5
   674
  8
0
  6
CONTINUOUS
 62
   130
 10
285.070873933415
 20
118.96257019043
 30
0.0
 11
285.070873933415
 21
152.46257019043
 31
0.0
  0
LINE
  5
   675
  8
0
  6
CONTINUOUS
 62
   130
 10
258.370874404907
 20
52.4625701904297
 30
0.0
 11
258.370874404907
 21
164.46257019043
 31
0.0
  0
LINE
  5
   676
  8
0
  6
CONTINUOUS
 62
   130
 10
285.070873933415
 20
118.96257019043
 30
0.0
 11
290.170874118805
 21
118.96257019043
 31
0.0
  0
LINE
  5
   677
  8
0
  6
CONTINUOUS
 62
   130
 10
285.070873933415
 20
73.9625701904297
 30
0.0
 11
290.170874118805
 21
73.9625701904297
 31
0.0
  0
LINE
  5
   678
  8
0
  6
CONTINUOUS
 62
   130
 10
279.070873737335
 20
48.4625701904297
 30
0.0
 11
282.37087392807
 21
48.4625701904297
 31
0.0
  0
LINE
  5
   679
  8
0
  6
CONTINUOUS
 62
   130
 10
279.070873737335
 20
52.4625701904297
 30
0.0
 11
279.070873737335
 21
62.9625701904297
 31
0.0
  0
LINE
  5
   67A
  8
0
  6
CONTINUOUS
 62
   130
 10
279.070873737335
 20
62.9625701904297
 30
0.0
 11
279.070873737335
 21
64.4625701904297
 31
0.0
  0
LINE
  5
   67B
  8
0
  6
CONTINUOUS
 62
   130
 10
258.370874404907
 20
52.4625701904297
 30
0.0
 11
279.070873737335
 21
52.4625701904297
 31
0.0
  0
LINE
  5
   67C
  8
0
  6
CONTINUOUS
 62
   130
 10
258.370874404907
 20
48.4625701904297
 30
0.0
 11
279.070873737335
 21
48.4625701904297
 31
0.0
  0
LINE
  5
   67D
  8
0
  6
CONTINUOUS
 62
   130
 10
258.370874404907
 20
48.4625701904297
 30
0.0
 11
258.370874404907
 21
52.4625701904297
 31
0.0
  0
LINE
  5
   67E
  8
0
  6
CONTINUOUS
 62
   130
 10
283.87087392807
 20
62.9625701904297
 30
0.0
 11
283.87087392807
 21
64.4625701904297
 31
0.0
  0
LINE
  5
   67F
  8
0
  6
CONTINUOUS
 62
   130
 10
279.070873737335
 20
168.462570190417
 30
0.0
 11
282.37087392807
 21
168.462570190417
 31
0.0
  0
LINE
  5
   680
  8
0
  6
CONTINUOUS
 62
   130
 10
279.070873737335
 20
153.96257019043
 30
0.0
 11
279.070873737335
 21
164.46257019043
 31
0.0
  0
LINE
  5
   681
  8
0
  6
CONTINUOUS
 62
   130
 10
279.070873737335
 20
152.46257019043
 30
0.0
 11
279.070873737335
 21
153.96257019043
 31
0.0
  0
LINE
  5
   682
  8
0
  6
CONTINUOUS
 62
   130
 10
258.370874404907
 20
164.46257019043
 30
0.0
 11
279.070873737335
 21
164.46257019043
 31
0.0
  0
LINE
  5
   683
  8
0
  6
CONTINUOUS
 62
   130
 10
258.370874404907
 20
168.462570190417
 30
0.0
 11
279.070873737335
 21
168.462570190417
 31
0.0
  0
LINE
  5
   684
  8
0
  6
CONTINUOUS
 62
   130
 10
258.370874404907
 20
164.46257019043
 30
0.0
 11
258.370874404907
 21
168.462570190417
 31
0.0
  0
LINE
  5
   685
  8
0
  6
CONTINUOUS
 62
   130
 10
283.87087392807
 20
152.46257019043
 30
0.0
 11
283.87087392807
 21
153.96257019043
 31
0.0
  0
LINE
  5
   686
  8
0
  6
CONTINUOUS
 62
   130
 10
258.370874404907
 20
52.4625701904297
 30
0.0
 11
258.370874404907
 21
164.46257019043
 31
0.0
  0
LINE
  5
   687
  8
0
  6
CONTINUOUS
 62
   130
 10
214.870872497559
 20
111.46257019043
 30
0.0
 11
214.870872497559
 21
164.46257019043
 31
0.0
  0
LINE
  5
   688
  8
0
  6
CONTINUOUS
 62
   130
 10
214.870872497559
 20
52.4625701904297
 30
0.0
 11
214.870872497559
 21
105.46257019043
 31
0.0
  0
LINE
  5
   689
  8
0
  6
CONTINUOUS
 62
   130
 10
258.370874404907
 20
164.46257019043
 30
0.0
 11
258.370874404907
 21
168.462570190417
 31
0.0
  0
LINE
  5
   68A
  8
0
  6
CONTINUOUS
 62
   130
 10
214.870872497559
 20
168.462570190417
 30
0.0
 11
258.370874404907
 21
168.462570190417
 31
0.0
  0
LINE
  5
   68B
  8
0
  6
CONTINUOUS
 62
   130
 10
214.870872497559
 20
164.46257019043
 30
0.0
 11
214.870872497559
 21
168.462570190417
 31
0.0
  0
LINE
  5
   68C
  8
0
  6
CONTINUOUS
 62
   130
 10
214.870872497559
 20
164.46257019043
 30
0.0
 11
258.370874404907
 21
164.46257019043
 31
0.0
  0
LINE
  5
   68D
  8
0
  6
CONTINUOUS
 62
   130
 10
214.870872497559
 20
48.4625701904297
 30
0.0
 11
258.370874404907
 21
48.4625701904297
 31
0.0
  0
LINE
  5
   68E
  8
0
  6
CONTINUOUS
 62
   130
 10
258.370874404907
 20
48.4625701904297
 30
0.0
 11
258.370874404907
 21
52.4625701904297
 31
0.0
  0
LINE
  5
   68F
  8
0
  6
CONTINUOUS
 62
   130
 10
214.870872497559
 20
48.4625701904297
 30
0.0
 11
214.870872497559
 21
52.4625701904297
 31
0.0
  0
LINE
  5
   690
  8
0
  6
CONTINUOUS
 62
   130
 10
214.870872497559
 20
52.4625701904297
 30
0.0
 11
258.370874404907
 21
52.4625701904297
 31
0.0
  0
LINE
  5
   691
  8
0
  6
CONTINUOUS
 62
   130
 10
214.870872497559
 20
111.46257019043
 30
0.0
 11
218.370872497559
 21
110.46257019043
 31
0.0
  0
LINE
  5
   692
  8
0
  6
CONTINUOUS
 62
   130
 10
218.370872497559
 20
106.46257019043
 30
0.0
 11
218.370872497559
 21
110.46257019043
 31
0.0
  0
LINE
  5
   693
  8
0
  6
CONTINUOUS
 62
   130
 10
214.870872497559
 20
105.46257019043
 30
0.0
 11
218.370872497559
 21
106.46257019043
 31
0.0
  0
LINE
  5
   694
  8
0
  6
CONTINUOUS
 62
   130
 10
279.070873737335
 20
64.4625701904297
 30
0.0
 11
285.070873933415
 21
64.4625701904297
 31
0.0
  0
LINE
  5
   695
  8
0
  6
CONTINUOUS
 62
   130
 10
279.070873737335
 20
62.9625701904297
 30
0.0
 11
283.87087392807
 21
62.9625701904297
 31
0.0
  0
LINE
  5
   696
  8
0
  6
CONTINUOUS
 62
   130
 10
282.37087392807
 20
48.4625701904297
 30
0.0
 11
282.37087392807
 21
62.9625701904297
 31
0.0
  0
LINE
  5
   697
  8
0
  6
CONTINUOUS
 62
   130
 10
279.070873737335
 20
152.46257019043
 30
0.0
 11
285.070873933415
 21
152.46257019043
 31
0.0
  0
LINE
  5
   698
  8
0
  6
CONTINUOUS
 62
   130
 10
279.070873737335
 20
153.96257019043
 30
0.0
 11
283.87087392807
 21
153.96257019043
 31
0.0
  0
LINE
  5
   699
  8
0
  6
CONTINUOUS
 62
   130
 10
282.37087392807
 20
153.96257019043
 30
0.0
 11
282.37087392807
 21
168.462570190417
 31
0.0
  0
LINE
  5
   69A
  8
0
  6
CONTINUOUS
 62
   130
 10
290.570795015345
 20
108.162586212158
 30
0.0
 11
290.570795015345
 21
118.96257019043
 31
0.0
  0
LINE
  5
   69B
  8
0
  6
CONTINUOUS
 62
   130
 10
290.570795015345
 20
92.7625885009766
 30
0.0
 11
290.570795015345
 21
106.162586212158
 31
0.0
  0
LINE
  5
   69C
  8
0
  6
CONTINUOUS
 62
   130
 10
290.570795015345
 20
73.9625701904297
 30
0.0
 11
290.570795015345
 21
90.7625885009766
 31
0.0
  0
LINE
  5
   69D
  8
0
  6
CONTINUOUS
 62
   130
 10
290.570953369141
 20
106.162586212158
 30
0.0
 11
290.570953369141
 21
108.162586212158
 31
0.0
  0
LINE
  5
   69E
  8
0
  6
CONTINUOUS
 62
   130
 10
290.570953369141
 20
90.7625885009766
 30
0.0
 11
290.570953369141
 21
92.7625885009766
 31
0.0
  0
LINE
  5
   69F
  8
0
  6
CONTINUOUS
 62
   130
 10
285.070948468591
 20
73.9625701904177
 30
0.0
 11
290.570795059204
 21
73.9625701904177
 31
0.0
  0
LINE
  5
   6A0
  8
0
  6
CONTINUOUS
 62
   130
 10
285.070795015345
 20
118.962570190418
 30
0.0
 11
290.570795059204
 21
118.962570190418
 31
0.0
  0
LINE
  5
   6A1
  8
0
  6
DASHDOT
 62
   130
 10
214.870872497559
 20
36.0788340033493
 30
0.0
 11
214.870872497559
 21
191.962528228762
 31
0.0
  0
TEXT
  5
   6A2
  8
0
  6
CONTINUOUS
 62
     2
 10
153.444374084473
 20
-34.5945282280445
 30
0.0
 40
2.50000005960464
  1
97-08-19
 41
1.09999991695086
 11
153.444374084473
 21
-33.3445281982421
 31
0.0
 73
     2
  0
TEXT
  5
   6A3
  8
0
  6
CONTINUOUS
 62
     2
 10
153.444374084473
 20
-38.5945282280445
 30
0.0
 40
2.50000005960464
  1
MAZZOLENI
 41
1.09799996061325
 11
153.444374084473
 21
-37.3445281982421
 31
0.0
 73
     2
  0
TEXT
  5
   6A4
  8
0
  6
CONTINUOUS
 62
     2
 10
164.911109924316
 20
-51.279929190874
 30
0.0
 40
2.50000005960464
  1
M4375 97-09-15
 41
0.64999958527089
 11
164.911109924316
 21
-50.0299291610717
 31
0.0
 73
     2
  0
TEXT
  5
   6A5
  8
0
  6
CONTINUOUS
 62
     2
 10
254.916104124487
 20
-62.8633660972118
 30
0.0
 40
4.49999994039536
  1
601855/401
 41
1.09999994414824
 72
     1
 11
278.841102600098
 21
-60.6133661270141
 31
0.0
 73
     2
  0
TEXT
  5
   6A6
  8
0
  6
CONTINUOUS
 62
     2
 10
262.9244365563
 20
-53.3966160118579
 30
0.0
 40
2.50000005960464
  1
S1 III IV
 41
1.09999991695086
 72
     1
 11
274.841102600098
 21
-52.1466159820556
 31
0.0
 73
     2
  0
TEXT
  5
   6A7
  8
0
  6
CONTINUOUS
 62
     2
 10
249.504435666104
 20
-38.5465027242898
 30
0.0
 40
2.20000007748604
  1
SIDE BY SIDE REMOTE CONTROL
 41
0.86666664481163
 72
     1
 11
274.841102600098
 21
-37.4465026855468
 31
0.0
 73
     2
  0
TEXT
  5
   6A8
  8
0
  6
CONTINUOUS
 62
     2
 10
248.551102323234
 20
-42.5465027242898
 30
0.0
 40
2.20000007748604
  1
COMANDO SOLENOIDE AFFIANCATO
 41
0.86666664481163
 72
     1
 11
274.841102600098
 21
-41.4465026855468
 31
0.0
 73
     2
  0
TEXT
  5
   6A9
  8
0
  6
CONTINUOUS
 62
     2
 10
314.42909006079
 20
-64.1687012016773
 30
0.0
 40
2.50000005960464
  1
1/1
 41
1.09999991695086
 72
     1
 11
318.095756530762
 21
-62.9187011718749
 31
0.0
 73
     2
  0
TEXT
  5
   6AA
  8
0
  6
CONTINUOUS
 62
     2
 10
314.42909006079
 20
-55.7019043266773
 30
0.0
 40
2.50000005960464
  1
1:1
 41
1.09999991695086
 72
     1
 11
318.095756530762
 21
-54.4519042968749
 31
0.0
 73
     2
  0
TEXT
  5
   6AB
  8
0
  6
CONTINUOUS
 62
     2
 10
315.804089989762
 20
-47.2351227104663
 30
0.0
 40
2.50000005960464
  1
IT
 41
1.09999991695086
 72
     1
 11
318.095756530762
 21
-45.985122680664
 31
0.0
 73
     2
  0
TEXT
  5
   6AC
  8
0
  6
CONTINUOUS
 62
     2
 10
153.444374084473
 20
-47.0612282280445
 30
0.0
 40
2.50000005960464
  1
GIUPPONI
 41
1.09799996061325
 11
153.444374084473
 21
-45.8112281982421
 31
0.0
 73
     2
  0
TEXT
  5
   6AD
  8
0
  6
CONTINUOUS
 62
     2
 10
153.444374084473
 20
-43.0612282280445
 30
0.0
 40
2.50000005960464
  1
97-08-19
 41
1.09999991695086
 11
153.444374084473
 21
-41.8112281982421
 31
0.0
 73
     2
  0
LINE
  5
   6AE
  8
0
  6
CONTINUOUS
 62
     3
 10
297.170829772949
 20
97.9206695556641
 30
0.0
 11
297.570877075195
 21
97.9206695556641
 31
0.0
  0
LINE
  5
   6AF
  8
0
  6
CONTINUOUS
 62
     3
 10
297.170829772949
 20
109.604442596436
 30
0.0
 11
297.570877075195
 21
109.604442596436
 31
0.0
  0
LINE
  5
   6B0
  8
0
  6
CONTINUOUS
 62
     7
 10
293.170829772949
 20
98.7760238647461
 30
0.0
 11
294.170829772949
 21
98.7760238647461
 31
0.0
  0
LINE
  5
   6B1
  8
0
  6
CONTINUOUS
 62
     7
 10
293.170829772949
 20
108.749088287354
 30
0.0
 11
294.170829772949
 21
108.749088287354
 31
0.0
  0
LINE
  5
   6B2
  8
0
  6
CONTINUOUS
 62
     7
 10
293.120880126953
 20
106.146648406982
 30
0.0
 11
293.170829772949
 21
106.146648406982
 31
0.0
  0
LINE
  5
   6B3
  8
0
  6
CONTINUOUS
 62
     7
 10
290.670829772949
 20
106.146648406982
 30
0.0
 11
291.120880126953
 21
106.146648406982
 31
0.0
  0
LINE
  5
   6B4
  8
0
  6
CONTINUOUS
 62
     7
 10
293.120880126953
 20
101.378463745117
 30
0.0
 11
293.170829772949
 21
101.378463745117
 31
0.0
  0
LINE
  5
   6B5
  8
0
  6
CONTINUOUS
 62
     7
 10
290.670829772949
 20
101.378463745117
 30
0.0
 11
291.120880126953
 21
101.378463745117
 31
0.0
  0
LINE
  5
   6B6
  8
0
  6
CONTINUOUS
 62
   252
 10
269.870880126953
 20
170.462554931641
 30
0.0
 11
285.070877075195
 21
170.462554931641
 31
0.0
  0
LINE
  5
   6B7
  8
0
  6
CONTINUOUS
 62
   252
 10
269.870880126953
 20
46.4625549316406
 30
0.0
 11
285.070877075195
 21
46.4625549316406
 31
0.0
  0
LINE
  5
   6B8
  8
0
  6
CONTINUOUS
 62
     7
 10
293.170829417342
 20
103.762557983398
 30
0.0
 11
293.170829417342
 21
108.749088287354
 31
0.0
  0
LINE
  5
   6B9
  8
0
  6
CONTINUOUS
 62
     7
 10
293.170829417342
 20
98.7760238647461
 30
0.0
 11
293.170829417342
 21
103.762557983398
 31
0.0
  0
LINE
  5
   6BA
  8
0
  6
CONTINUOUS
 62
     7
 10
290.670829417342
 20
101.378463745117
 30
0.0
 11
290.670829417342
 21
103.749404907227
 31
0.0
  0
LINE
  5
   6BB
  8
0
  6
CONTINUOUS
 62
     7
 10
290.670829417342
 20
103.749404907227
 30
0.0
 11
290.670829417342
 21
106.146648406982
 31
0.0
  0
LINE
  5
   6BC
  8
0
  6
CONTINUOUS
 62
    98
 10
306.870880126953
 20
86.4586238118063
 30
0.0
 11
310.520881652832
 21
86.4586238118063
 31
0.0
  0
LINE
  5
   6BD
  8
0
  6
CONTINUOUS
 62
    98
 10
306.870880126953
 20
106.458623811806
 30
0.0
 11
310.520881652832
 21
106.458623811806
 31
0.0
  0
LINE
  5
   6BE
  8
0
  6
CONTINUOUS
 62
   130
 10
293.120880126953
 20
100.10570526123
 30
0.0
 11
293.170829772949
 21
100.086585998535
 31
0.0
  0
LINE
  5
   6BF
  8
0
  6
CONTINUOUS
 62
   130
 10
294.170829417342
 20
83.8681640625
 30
0.0
 11
294.170829417342
 21
83.8821716308594
 31
0.0
  0
ARC
  5
   6C0
  8
0
  6
CONTINUOUS
 62
    98
 10
310.520880126953
 20
103.458623811806
 30
0.0
 40
2.99999999999993
 50
3.78463518413777E-5
 51
89.9999708578404
  0
LINE
  5
   6C1
  8
0
  6
CONTINUOUS
 62
    98
 10
313.520880126953
 20
89.458625793457
 30
0.0
 11
313.520880126953
 21
103.458625793457
 31
0.0
  0
ARC
  5
   6C2
  8
0
  6
CONTINUOUS
 62
    98
 10
310.520880126953
 20
89.458623811806
 30
0.0
 40
2.99999999999967
 50
270.000029142154
 51
360.000037846352
  0
ARC
  5
   6C3
  8
0
  6
CONTINUOUS
 62
    98
 10
309.520880126953
 20
92.958623811806
 30
0.0
 40
1.49999999999999
 50
179.999924307296
 51
360.000075692704
  0
LINE
  5
   6C4
  8
0
  6
CONTINUOUS
 62
    98
 10
308.020880126953
 20
92.958625793457
 30
0.0
 11
308.020880126953
 21
99.958625793457
 31
0.0
  0
ARC
  5
   6C5
  8
0
  6
CONTINUOUS
 62
    98
 10
309.520880126953
 20
99.958623811806
 30
0.0
 40
1.5
 50
7.56927036827596E-5
 51
179.999924307296
  0
LINE
  5
   6C6
  8
0
  6
CONTINUOUS
 62
    98
 10
311.020880126953
 20
92.958625793457
 30
0.0
 11
311.020880126953
 21
99.958625793457
 31
0.0
  0
LINE
  5
   6C7
  8
0
  6
CONTINUOUS
 62
    98
 10
290.570795015345
 20
110.462554931641
 30
0.0
 11
293.120880126953
 21
110.462554931641
 31
0.0
  0
LINE
  5
   6C8
  8
0
  6
CONTINUOUS
 62
    98
 10
293.120880126953
 20
108.462554931641
 30
0.0
 11
293.120880126953
 21
110.462554931641
 31
0.0
  0
LINE
  5
   6C9
  8
0
  6
CONTINUOUS
 62
    98
 10
291.120880126953
 20
108.462554931641
 30
0.0
 11
291.120880126953
 21
110.462554931641
 31
0.0
  0
LINE
  5
   6CA
  8
0
  6
CONTINUOUS
 62
    98
 10
290.570795015345
 20
94.9625549316407
 30
0.0
 11
293.120880126953
 21
94.9625549316407
 31
0.0
  0
LINE
  5
   6CB
  8
0
  6
CONTINUOUS
 62
    98
 10
291.120880126953
 20
96.9625549316406
 30
0.0
 11
291.120880126953
 21
108.462554931641
 31
0.0
  0
LINE
  5
   6CC
  8
0
  6
CONTINUOUS
 62
    98
 10
293.120880126953
 20
96.9625549316406
 30
0.0
 11
293.120880126953
 21
108.462554931641
 31
0.0
  0
LINE
  5
   6CD
  8
0
  6
CONTINUOUS
 62
    98
 10
293.120880126953
 20
94.9625549316406
 30
0.0
 11
293.120880126953
 21
96.9625549316406
 31
0.0
  0
LINE
  5
   6CE
  8
0
  6
CONTINUOUS
 62
    98
 10
291.120880126953
 20
94.9625549316406
 30
0.0
 11
291.120880126953
 21
96.9625549316406
 31
0.0
  0
LINE
  5
   6CF
  8
0
  6
CONTINUOUS
 62
   252
 10
290.570880126953
 20
87.9625549316406
 30
0.0
 11
290.570880126953
 21
88.4625549316406
 31
0.0
  0
LINE
  5
   6D0
  8
0
  6
CONTINUOUS
 62
   252
 10
285.070877075195
 20
118.962554931641
 30
0.0
 11
305.870880126953
 21
118.962554931641
 31
0.0
  0
LINE
  5
   6D1
  8
0
  6
CONTINUOUS
 62
   252
 10
285.070877075195
 20
73.9625549316406
 30
0.0
 11
305.870880126953
 21
73.9625549316406
 31
0.0
  0
LINE
  5
   6D2
  8
0
  6
CONTINUOUS
 62
   252
 10
291.397741459473
 20
90.4625549316409
 30
0.0
 11
294.170829772949
 21
90.4625549316409
 31
0.0
  0
LINE
  5
   6D3
  8
0
  6
CONTINUOUS
 62
   252
 10
297.170829772949
 20
90.4625549316409
 30
0.0
 11
297.570877075195
 21
90.4625549316409
 31
0.0
  0
LINE
  5
   6D4
  8
0
  6
CONTINUOUS
 62
   252
 10
290.570880126953
 20
88.4625549316406
 30
0.0
 11
290.570880126953
 21
90.4625549316406
 31
0.0
  0
LINE
  5
   6D5
  8
0
  6
CONTINUOUS
 62
   252
 10
305.870880126953
 20
118.962554931641
 30
0.0
 11
306.870880126953
 21
118.962554931641
 31
0.0
  0
LINE
  5
   6D6
  8
0
  6
CONTINUOUS
 62
   252
 10
305.870880126953
 20
73.9625549316406
 30
0.0
 11
306.870880126953
 21
73.9625549316406
 31
0.0
  0
LINE
  5
   6D7
  8
0
  6
CONTINUOUS
 62
   252
 10
306.870880126953
 20
112.462554931641
 30
0.0
 11
306.870880126953
 21
118.962554931641
 31
0.0
  0
LINE
  5
   6D8
  8
0
  6
CONTINUOUS
 62
   252
 10
306.870880126953
 20
73.9625549316406
 30
0.0
 11
306.870880126953
 21
87.9625549316406
 31
0.0
  0
LINE
  5
   6D9
  8
0
  6
CONTINUOUS
 62
   252
 10
297.570877075195
 20
112.462554931641
 30
0.0
 11
301.870880126953
 21
112.462554931641
 31
0.0
  0
LINE
  5
   6DA
  8
0
  6
CONTINUOUS
 62
   252
 10
297.570880126953
 20
109.962554931641
 30
0.0
 11
297.570880126953
 21
112.462554931641
 31
0.0
  0
LINE
  5
   6DB
  8
0
  6
CONTINUOUS
 62
   252
 10
297.570880126953
 20
90.4625549316406
 30
0.0
 11
297.570880126953
 21
109.962554931641
 31
0.0
  0
LINE
  5
   6DC
  8
0
  6
CONTINUOUS
 62
   252
 10
297.570880126953
 20
88.7880302215529
 30
0.0
 11
297.570880126953
 21
90.4625549316406
 31
0.0
  0
LINE
  5
   6DD
  8
0
  6
CONTINUOUS
 62
   252
 10
306.870880126953
 20
87.9625549316406
 30
0.0
 11
306.870880126953
 21
112.462554931641
 31
0.0
  0
LINE
  5
   6DE
  8
0
  6
CONTINUOUS
 62
   252
 10
301.870880126953
 20
87.9625549316406
 30
0.0
 11
301.870880126953
 21
112.462554931641
 31
0.0
  0
LINE
  5
   6DF
  8
0
  6
CONTINUOUS
 62
   252
 10
300.613996421689
 20
87.9625549316406
 30
0.0
 11
306.870880126953
 21
87.9625549316406
 31
0.0
  0
LINE
  5
   6E0
  8
0
  6
CONTINUOUS
 62
   252
 10
301.870880126953
 20
112.462554931641
 30
0.0
 11
306.870880126953
 21
112.462554931641
 31
0.0
  0
LINE
  5
   6E1
  8
0
  6
CONTINUOUS
 62
   252
 10
285.070880126953
 20
154.162554740906
 30
0.0
 11
285.070880126953
 21
170.462554931641
 31
0.0
  0
LINE
  5
   6E2
  8
0
  6
CONTINUOUS
 62
   252
 10
285.070880126953
 20
118.962554931641
 30
0.0
 11
285.070880126953
 21
152.16255569458
 31
0.0
  0
LINE
  5
   6E3
  8
0
  6
CONTINUOUS
 62
   252
 10
285.070880126953
 20
64.7625579833984
 30
0.0
 11
285.070880126953
 21
73.9625549316406
 31
0.0
  0
LINE
  5
   6E4
  8
0
  6
CONTINUOUS
 62
   252
 10
285.070880126953
 20
46.4625549316406
 30
0.0
 11
285.070880126953
 21
62.7625579833984
 31
0.0
  0
LINE
  5
   6E5
  8
0
  6
CONTINUOUS
 62
   252
 10
290.570795015345
 20
112.462554931641
 30
0.0
 11
297.570877075195
 21
112.462554931641
 31
0.0
  0
LINE
  5
   6E6
  8
0
  6
CONTINUOUS
 62
   252
 10
269.870880126953
 20
46.4625549316406
 30
0.0
 11
269.870880126953
 21
48.4625701904297
 31
0.0
  0
LINE
  5
   6E7
  8
0
  6
CONTINUOUS
 62
   252
 10
283.870880126953
 20
62.7625579833984
 30
0.0
 11
283.870880126953
 21
64.7625579833984
 31
0.0
  0
LINE
  5
   6E8
  8
0
  6
CONTINUOUS
 62
   252
 10
283.870880126953
 20
62.7625549316406
 30
0.0
 11
285.070877075195
 21
62.7625549316406
 31
0.0
  0
LINE
  5
   6E9
  8
0
  6
CONTINUOUS
 62
   252
 10
283.870880126953
 20
64.7625549316406
 30
0.0
 11
285.070877075195
 21
64.7625549316406
 31
0.0
  0
LINE
  5
   6EA
  8
0
  6
CONTINUOUS
 62
   252
 10
283.870880126953
 20
152.16255569458
 30
0.0
 11
283.870880126953
 21
154.162554740906
 31
0.0
  0
LINE
  5
   6EB
  8
0
  6
CONTINUOUS
 62
   252
 10
283.870880126953
 20
152.162554931641
 30
0.0
 11
285.070877075195
 21
152.162554931641
 31
0.0
  0
LINE
  5
   6EC
  8
0
  6
CONTINUOUS
 62
   252
 10
283.870880126953
 20
154.162554931641
 30
0.0
 11
285.070877075195
 21
154.162554931641
 31
0.0
  0
LINE
  5
   6ED
  8
0
  6
CONTINUOUS
 62
     7
 10
269.870879609291
 20
168.462570190417
 30
0.0
 11
269.870879609291
 21
170.462554931641
 31
0.0
  0
LINE
  5
   6EE
  8
0
  6
CONTINUOUS
 62
     7
 10
214.870721773157
 20
170.462554931641
 30
0.0
 11
269.870880126953
 21
170.462554931641
 31
0.0
  0
LINE
  5
   6EF
  8
0
  6
CONTINUOUS
 62
     7
 10
214.870865487183
 20
46.4625549316407
 30
0.0
 11
269.870880126953
 21
46.4625549316407
 31
0.0
  0
LINE
  5
   6F0
  8
0
  6
DASHDOT
 62
     7
 10
288.670829417342
 20
103.762554931641
 30
0.0
 11
299.570877075195
 21
103.762554931641
 31
0.0
  0
LINE
  5
   6F1
  8
0
  6
CONTINUOUS
 62
     7
 10
302.416696548462
 20
83.3321838378906
 30
0.0
 11
303.887172698975
 21
83.6120529174804
 31
0.0
  0
LINE
  5
   6F2
  8
0
  6
CONTINUOUS
 62
     7
 10
303.887172698975
 20
83.6120529174805
 30
0.0
 11
304.747919082642
 21
84.8253555297851
 31
0.0
  0
LINE
  5
   6F3
  8
0
  6
CONTINUOUS
 62
     7
 10
304.527946472168
 20
86.2935714721683
 30
0.0
 11
304.747919082642
 21
84.8253555297855
 31
0.0
  0
LINE
  5
   6F4
  8
0
  6
CONTINUOUS
 62
     7
 10
303.356119155884
 20
87.2187271118164
 30
0.0
 11
304.527946472168
 21
86.293571472168
 31
0.0
  0
LINE
  5
   6F5
  8
0
  6
CONTINUOUS
 62
     7
 10
290.570795015345
 20
85.8501094106589
 30
0.0
 11
302.416696548462
 21
83.3321838378906
 31
0.0
  0
LINE
  5
   6F6
  8
0
  6
CONTINUOUS
 62
     7
 10
290.570953369141
 20
90.6868293505134
 30
0.0
 11
303.356119155884
 21
87.2187271118164
 31
0.0
  0
LINE
  5
   6F7
  8
0
  6
CONTINUOUS
 62
     1
 10
294.170829772949
 20
82.3674087524414
 30
0.0
 11
297.170829772949
 21
82.3587341308594
 31
0.0
  0
LINE
  5
   6F8
  8
0
  6
CONTINUOUS
 62
     1
 10
297.170829772949
 20
88.8965478232371
 30
0.0
 11
297.170829772949
 21
89.7040634155274
 31
0.0
  0
LINE
  5
   6F9
  8
0
  6
CONTINUOUS
 62
     1
 10
297.170829772949
 20
90.5055389404297
 30
0.0
 11
297.170829772949
 21
91.6887054443359
 31
0.0
  0
LINE
  5
   6FA
  8
0
  6
CONTINUOUS
 62
     1
 10
297.170829772949
 20
89.7040634155274
 30
0.0
 11
297.170829772949
 21
90.5055389404297
 31
0.0
  0
LINE
  5
   6FB
  8
0
  6
CONTINUOUS
 62
     1
 10
297.170829772949
 20
91.6887054443359
 30
0.0
 11
297.170829772949
 21
94.1863174438477
 31
0.0
  0
LINE
  5
   6FC
  8
0
  6
CONTINUOUS
 62
     1
 10
297.170829772949
 20
99.1125640869141
 30
0.0
 11
297.170829772949
 21
104.227348327637
 31
0.0
  0
LINE
  5
   6FD
  8
0
  6
CONTINUOUS
 62
     1
 10
297.170829772949
 20
104.227348327637
 30
0.0
 11
297.170829772949
 21
104.374320983887
 31
0.0
  0
LINE
  5
   6FE
  8
0
  6
CONTINUOUS
 62
     1
 10
297.170829772949
 20
104.374320983887
 30
0.0
 11
297.170829772949
 21
111.118309020996
 31
0.0
  0
LINE
  5
   6FF
  8
0
  6
CONTINUOUS
 62
     1
 10
297.170829772949
 20
111.263767242432
 30
0.0
 11
297.170829772949
 21
112.008815765381
 31
0.0
  0
LINE
  5
   700
  8
0
  6
CONTINUOUS
 62
     1
 10
297.170829772949
 20
111.118309020996
 30
0.0
 11
297.170829772949
 21
111.263767242432
 31
0.0
  0
LINE
  5
   701
  8
0
  6
CONTINUOUS
 62
     1
 10
297.170829772949
 20
112.008815765381
 30
0.0
 11
297.170829772949
 21
112.470489501953
 31
0.0
  0
LINE
  5
   702
  8
0
  6
CONTINUOUS
 62
     1
 10
297.170829772949
 20
112.470489501953
 30
0.0
 11
297.170829772949
 21
112.739292144775
 31
0.0
  0
LINE
  5
   703
  8
0
  6
CONTINUOUS
 62
     1
 10
297.170829772949
 20
82.3587341308594
 30
0.0
 11
297.170829772949
 21
82.3820495605469
 31
0.0
  0
LINE
  5
   704
  8
0
  6
CONTINUOUS
 62
     1
 10
291.170829772949
 20
99.0490036010742
 30
0.0
 11
292.656578063965
 21
98.9332885742187
 31
0.0
  0
LINE
  5
   705
  8
0
  6
CONTINUOUS
 62
     1
 10
292.656578063965
 20
98.9332885742187
 30
0.0
 11
293.754051208496
 21
98.6379776000976
 31
0.0
  0
LINE
  5
   706
  8
0
  6
CONTINUOUS
 62
     1
 10
293.754051208496
 20
98.6379776000977
 30
0.0
 11
294.170829772949
 21
98.2311401367188
 31
0.0
  0
LINE
  5
   707
  8
0
  6
CONTINUOUS
 62
     1
 10
294.170829772949
 20
112.470489501953
 30
0.0
 11
294.170829772949
 21
112.739292144775
 31
0.0
  0
LINE
  5
   708
  8
0
  6
CONTINUOUS
 62
     1
 10
294.170829772949
 20
112.008815765381
 30
0.0
 11
294.170829772949
 21
112.470489501953
 31
0.0
  0
LINE
  5
   709
  8
0
  6
CONTINUOUS
 62
     1
 10
294.170829772949
 20
111.118309020996
 30
0.0
 11
294.170829772949
 21
111.265628814697
 31
0.0
  0
LINE
  5
   70A
  8
0
  6
CONTINUOUS
 62
     1
 10
294.170829772949
 20
111.265628814697
 30
0.0
 11
294.170829772949
 21
112.008815765381
 31
0.0
  0
LINE
  5
   70B
  8
0
  6
CONTINUOUS
 62
     1
 10
294.170829772949
 20
104.374320983887
 30
0.0
 11
294.170829772949
 21
111.118309020996
 31
0.0
  0
LINE
  5
   70C
  8
0
  6
CONTINUOUS
 62
     1
 10
294.170829772949
 20
104.227348327637
 30
0.0
 11
294.170829772949
 21
104.374320983887
 31
0.0
  0
LINE
  5
   70D
  8
0
  6
CONTINUOUS
 62
     1
 10
294.170829772949
 20
98.0549621582031
 30
0.0
 11
294.170829772949
 21
104.227348327637
 31
0.0
  0
LINE
  5
   70E
  8
0
  6
CONTINUOUS
 62
     1
 10
294.170829772949
 20
96.2824249267578
 30
0.0
 11
294.170829772949
 21
97.3101348876953
 31
0.0
  0
LINE
  5
   70F
  8
0
  6
CONTINUOUS
 62
     1
 10
294.170829772949
 20
97.3101348876953
 30
0.0
 11
294.170829772949
 21
98.0549621582031
 31
0.0
  0
LINE
  5
   710
  8
0
  6
CONTINUOUS
 62
     1
 10
294.170829772949
 20
95.917121887207
 30
0.0
 11
294.170829772949
 21
96.2824249267578
 31
0.0
  0
LINE
  5
   711
  8
0
  6
CONTINUOUS
 62
     1
 10
294.170829772949
 20
94.8684768676758
 30
0.0
 11
294.170829772949
 21
95.2669830322266
 31
0.0
  0
LINE
  5
   712
  8
0
  6
CONTINUOUS
 62
     1
 10
294.170829772949
 20
95.2669830322266
 30
0.0
 11
294.170829772949
 21
95.917121887207
 31
0.0
  0
LINE
  5
   713
  8
0
  6
CONTINUOUS
 62
     1
 10
294.170829772949
 20
94.1863174438477
 30
0.0
 11
294.170829772949
 21
94.8684768676758
 31
0.0
  0
LINE
  5
   714
  8
0
  6
CONTINUOUS
 62
     1
 10
294.170829772949
 20
91.6887054443359
 30
0.0
 11
294.170829772949
 21
94.1863174438477
 31
0.0
  0
LINE
  5
   715
  8
0
  6
CONTINUOUS
 62
     1
 10
294.170829772949
 20
89.7103273932196
 30
0.0
 11
294.170829772949
 21
90.577278137207
 31
0.0
  0
LINE
  5
   716
  8
0
  6
CONTINUOUS
 62
     1
 10
294.170829772949
 20
90.577278137207
 30
0.0
 11
294.170829772949
 21
91.6887054443359
 31
0.0
  0
LINE
  5
   717
  8
0
  6
CONTINUOUS
 62
     1
 10
294.170829772949
 20
82.3674087524414
 30
0.0
 11
294.170829772949
 21
82.7459869384766
 31
0.0
  0
LINE
  5
   718
  8
0
  6
CONTINUOUS
 62
     1
 10
294.170829772949
 20
82.7459869384766
 30
0.0
 11
294.170829772949
 21
83.978759765625
 31
0.0
  0
LINE
  5
   719
  8
0
  6
CONTINUOUS
 62
     1
 10
294.170829772949
 20
83.978759765625
 30
0.0
 11
294.170829772949
 21
85.0848979530349
 31
0.0
  0
LINE
  5
   71A
  8
0
  6
CONTINUOUS
 62
     1
 10
294.170829772949
 20
94.1863174438477
 30
0.0
 11
297.170829772949
 21
94.1863174438477
 31
0.0
  0
LINE
  5
   71B
  8
0
  6
CONTINUOUS
 62
     1
 10
297.170829772949
 20
94.1863174438477
 30
0.0
 11
297.170829772949
 21
94.2916030883789
 31
0.0
  0
LINE
  5
   71C
  8
0
  6
CONTINUOUS
 62
     1
 10
297.170829772949
 20
94.4747085571289
 30
0.0
 11
297.170829772949
 21
94.8684768676758
 31
0.0
  0
LINE
  5
   71D
  8
0
  6
CONTINUOUS
 62
     1
 10
297.170829772949
 20
94.2916030883789
 30
0.0
 11
297.170829772949
 21
94.4747085571289
 31
0.0
  0
LINE
  5
   71E
  8
0
  6
CONTINUOUS
 62
     1
 10
297.170829772949
 20
94.8684768676758
 30
0.0
 11
297.170829772949
 21
95.2661209106445
 31
0.0
  0
LINE
  5
   71F
  8
0
  6
CONTINUOUS
 62
     1
 10
297.170829772949
 20
95.2661209106445
 30
0.0
 11
297.170829772949
 21
95.917121887207
 31
0.0
  0
LINE
  5
   720
  8
0
  6
CONTINUOUS
 62
     1
 10
297.170829772949
 20
95.917121887207
 30
0.0
 11
297.170829772949
 21
96.2824096679688
 31
0.0
  0
LINE
  5
   721
  8
0
  6
CONTINUOUS
 62
     1
 10
297.170829772949
 20
96.2824096679688
 30
0.0
 11
297.170829772949
 21
97.3143615722656
 31
0.0
  0
LINE
  5
   722
  8
0
  6
CONTINUOUS
 62
     1
 10
297.170829772949
 20
97.3143615722656
 30
0.0
 11
297.170829772949
 21
98.0549621582031
 31
0.0
  0
LINE
  5
   723
  8
0
  6
CONTINUOUS
 62
     1
 10
294.170829772949
 20
104.227348327637
 30
0.0
 11
297.170829772949
 21
104.227348327637
 31
0.0
  0
LINE
  5
   724
  8
0
  6
CONTINUOUS
 62
     1
 10
297.170829772949
 20
98.0549621582031
 30
0.0
 11
297.170829772949
 21
98.4175033569336
 31
0.0
  0
LINE
  5
   725
  8
0
  6
CONTINUOUS
 62
     1
 10
297.170829772949
 20
98.4175033569336
 30
0.0
 11
297.170829772949
 21
98.6874313354492
 31
0.0
  0
LINE
  5
   726
  8
0
  6
CONTINUOUS
 62
     1
 10
297.170829772949
 20
98.6874313354492
 30
0.0
 11
297.170829772949
 21
98.8426361083985
 31
0.0
  0
LINE
  5
   727
  8
0
  6
CONTINUOUS
 62
     1
 10
297.170829772949
 20
98.8426361083985
 30
0.0
 11
297.170829772949
 21
99.1125640869141
 31
0.0
  0
LINE
  5
   728
  8
0
  6
CONTINUOUS
 62
     1
 10
294.170829772949
 20
104.374320983887
 30
0.0
 11
297.170829772949
 21
104.374320983887
 31
0.0
  0
LINE
  5
   729
  8
0
  6
CONTINUOUS
 62
     1
 10
294.170829772949
 20
111.118309020996
 30
0.0
 11
297.170829772949
 21
111.118309020996
 31
0.0
  0
LINE
  5
   72A
  8
0
  6
CONTINUOUS
 62
     1
 10
294.170829772949
 20
112.470489501953
 30
0.0
 11
297.170829772949
 21
112.470489501953
 31
0.0
  0
LINE
  5
   72B
  8
0
  6
CONTINUOUS
 62
     1
 10
297.170829772949
 20
82.8934173583984
 30
0.0
 11
297.170829772949
 21
83.9977416992187
 31
0.0
  0
LINE
  5
   72C
  8
0
  6
CONTINUOUS
 62
     1
 10
297.170829772949
 20
83.9977416992187
 30
0.0
 11
297.170829772949
 21
84.4472278949826
 31
0.0
  0
LINE
  5
   72D
  8
0
  6
CONTINUOUS
 62
     1
 10
297.170829772949
 20
82.3820495605469
 30
0.0
 11
297.170829772949
 21
82.497917175293
 31
0.0
  0
LINE
  5
   72E
  8
0
  6
CONTINUOUS
 62
     1
 10
297.170829772949
 20
82.497917175293
 30
0.0
 11
297.170829772949
 21
82.6084442138672
 31
0.0
  0
LINE
  5
   72F
  8
0
  6
CONTINUOUS
 62
     1
 10
297.170829772949
 20
82.6084442138672
 30
0.0
 11
297.170829772949
 21
82.7494430541992
 31
0.0
  0
LINE
  5
   730
  8
0
  6
CONTINUOUS
 62
     1
 10
297.170829772949
 20
82.7494430541992
 30
0.0
 11
297.170829772949
 21
82.8934173583984
 31
0.0
  0
INSERT
  5
   731
  8
0
  6
CONTINUOUS
 62
     7
  2
*UDIM1263
 10
0.0
 20
0.0
 30
0.0
  0
INSERT
  5
   732
  8
0
  6
CONTINUOUS
 62
     7
  2
*UDIM1264
 10
0.0
 20
0.0
 30
0.0
  0
TEXT
  5
   733
  8
0
  6
CONTINUOUS
 62
     7
 10
191.460698270947
 20
94.5192372401963
 30
0.0
 40
3.5
  1
X
 41
0.933333333333334
 72
     1
 11
192.74403160428
 21
96.2692372401963
 31
0.0
 73
     2
  0
TEXT
  5
   734
  8
0
  6
CONTINUOUS
 62
     7
 10
318.311514749516
 20
94.5192372401963
 30
0.0
 40
3.5
  1
X
 41
0.933333333333334
 72
     1
 11
319.594848082849
 21
96.2692372401963
 31
0.0
 73
     2
  0
INSERT
  5
   735
  8
0
  6
CONTINUOUS
 62
     7
  2
*UDIM1265
 10
0.0
 20
0.0
 30
0.0
  0
LINE
  5
   736
  8
0
  6
CONTINUOUS
 62
     7
 10
215.870872497559
 20
192.962528228762
 30
0.0
 11
263.870872497559
 21
192.962528228762
 31
0.0
  0
LINE
  5
   737
  8
0
  6
CONTINUOUS
 62
     7
 10
264.870872497559
 20
170.462554931641
 30
0.0
 11
264.870872497559
 21
191.962528228762
 31
0.0
  0
ARC
  5
   738
  8
0
  6
CONTINUOUS
 62
     7
 10
215.870872497559
 20
191.962528228762
 30
0.0
 40
1.0
 50
90.0
 51
180.0
  0
ARC
  5
   739
  8
0
  6
CONTINUOUS
 62
     7
 10
263.870872497559
 20
191.962528228762
 30
0.0
 40
1.0
 50
0.0
 51
90.0
  0
LINE
  5
   73A
  8
0
  6
CONTINUOUS
 62
   252
 10
4.24721164553026
 20
-40.8860445022583
 30
0.0
 11
4.24721164553026
 21
-40.7360277175903
 31
0.0
  0
POINT
  5
   73B
  8
0
  6
CONTINUOUS
 62
     7
 10
40.2472700178078
 20
1.11396160312892
 30
0.0
  0
POINT
  5
   73C
  8
0
  6
CONTINUOUS
 62
     7
 10
7.24727001780778
 20
-38.8860383968711
 30
0.0
  0
POINT
  5
   73D
  8
0
  6
CONTINUOUS
 62
     7
 10
-12.0027604411079
 20
-43.8860186627576
 30
0.0
  0
POINT
  5
   73E
  8
0
  6
CONTINUOUS
 62
     7
 10
-24.502783347953
 20
6.11399035193141
 30
0.0
  0
LINE
  5
   73F
  8
0
  6
DASHDOT
 62
     7
 10
40.2472700178078
 20
0.113961603128919
 30
0.0
 11
40.2472700178078
 21
19.963078786046
 31
0.0
  0
LINE
  5
   740
  8
0
  6
DASHDOT
 62
     7
 10
25.1943301298975
 20
1.11396160312892
 30
0.0
 11
41.2472700178078
 21
1.11396160312892
 31
0.0
  0
LINE
  5
   741
  8
0
  6
DASHDOT
 62
     7
 10
7.24727001780778
 20
-39.8860383968711
 30
0.0
 11
7.24727001780778
 21
20.5075029418726
 31
0.0
  0
LINE
  5
   742
  8
0
  6
DASHDOT
 62
     7
 10
6.24727001780778
 20
-38.8860383968711
 30
0.0
 11
30.0941475323376
 21
-38.8860383968711
 31
0.0
  0
LINE
  5
   743
  8
0
  6
DASHDOT
 62
     7
 10
-12.0027604411079
 20
-49.0233205121498
 30
0.0
 11
-12.0027604411079
 21
20.0719636172113
 31
0.0
  0
LINE
  5
   744
  8
0
  6
DASHDOT
 62
     7
 10
-38.6121809329896
 20
-43.8860186627576
 30
0.0
 11
-11.0027604411079
 21
-43.8860186627576
 31
0.0
  0
LINE
  5
   745
  8
0
  6
DASHDOT
 62
     7
 10
-24.502783347953
 20
1.17258665507029
 30
0.0
 11
-24.502783347953
 21
14.1921827342831
 31
0.0
  0
LINE
  5
   746
  8
0
  6
DASHDOT
 62
     7
 10
-39.9187989069737
 20
6.11399035193141
 30
0.0
 11
-23.502783347953
 21
6.11399035193141
 31
0.0
  0
LINE
  5
   747
  8
0
  6
CONTINUOUS
 62
     7
 10
-26.3408855411481
 20
-46.3161629317343
 30
0.0
 11
44.6409442485693
 21
-46.6379300658672
 31
0.0
  0
LINE
  5
   748
  8
0
  6
CONTINUOUS
 62
     7
 10
-27.2389446745559
 20
11.7583276953008
 30
0.0
 11
43.5588221348087
 21
10.3280697799601
 31
0.0
  0
LINE
  5
   749
  8
0
  6
CONTINUOUS
 62
     7
 10
43.5588221348087
 20
10.3280697799602
 30
0.0
 11
44.6409442485693
 21
-46.6379300658672
 31
0.0
  0
LINE
  5
   74A
  8
0
  6
CONTINUOUS
 62
     7
 10
-27.2389446745559
 20
11.758327695301
 30
0.0
 11
-26.3408855411481
 21
-46.316162931734
 31
0.0
  0
INSERT
  5
   74B
  8
0
  6
CONTINUOUS
 62
     7
  2
*UDIM1266
 10
0.0
 20
0.0
 30
0.0
  0
INSERT
  5
   74C
  8
0
  6
CONTINUOUS
 62
     7
  2
*UDIM1267
 10
0.0
 20
0.0
 30
0.0
  0
INSERT
  5
   74D
  8
0
  6
CONTINUOUS
 62
     7
  2
*UDIM1268
 10
0.0
 20
0.0
 30
0.0
  0
INSERT
  5
   74E
  8
0
  6
CONTINUOUS
 62
     7
  2
*UDIM1269
 10
0.0
 20
0.0
 30
0.0
  0
INSERT
  5
   74F
  8
0
  6
CONTINUOUS
 62
     7
  2
*UDIM1270
 10
0.0
 20
0.0
 30
0.0
  0
CIRCLE
  5
   750
  8
0
  6
CONTINUOUS
 62
     7
 10
40.2472700178078
 20
1.11396160312892
 30
0.0
 40
1.125
  0
CIRCLE
  5
   751
  8
0
  6
CONTINUOUS
 62
     7
 10
7.24727001780778
 20
-38.8860383968711
 30
0.0
 40
1.125
  0
CIRCLE
  5
   752
  8
0
  6
CONTINUOUS
 62
     7
 10
-24.502783347953
 20
6.11399035193141
 30
0.0
 40
1.125
  0
CIRCLE
  5
   753
  8
0
  6
CONTINUOUS
 62
     7
 10
-12.0027604411079
 20
-43.8860186627576
 30
0.0
 40
1.125
  0
INSERT
  5
   754
  8
0
  6
CONTINUOUS
 62
     7
  2
*UDIM1271
 10
0.0
 20
0.0
 30
0.0
  0
LINE
  5
   755
  8
0
  6
DASHDOT
 62
     7
 10
-18.2527718945305
 20
-50.4388233172991
 30
0.0
 11
-18.2527718945305
 21
13.7271100031563
 31
0.0
  0
LINE
  5
   756
  8
0
  6
DASHDOT
 62
     7
 10
-32.6235152188961
 20
-24.8860096480686
 30
0.0
 11
49.0401081551061
 21
-24.8860096480686
 31
0.0
  0
INSERT
  5
   757
  8
0
  6
CONTINUOUS
 62
     7
  2
*UDIM1272
 10
0.0
 20
0.0
 30
0.0
  0
INSERT
  5
   758
  8
0
  6
CONTINUOUS
 62
     7
  2
*UDIM1273
 10
0.0
 20
0.0
 30
0.0
  0
TEXT
  5
   759
  8
0
  6
CONTINUOUS
 62
     2
 10
-38.6977811235043
 20
-26.6474716540726
 30
0.0
 40
3.5
  1
X
 41
0.933333333333334
 72
     1
 11
-37.4144477901709
 21
-24.8974716540726
 31
0.0
 73
     2
  0
TEXT
  5
   75A
  8
0
  6
CONTINUOUS
 62
     2
 10
52.5477073930476
 20
-27.0830109787339
 30
0.0
 40
3.5
  1
X
 41
0.933333333333334
 72
     1
 11
53.8310407263809
 21
-25.3330109787339
 31
0.0
 73
     2
  0
TEXT
  5
   75B
  8
0
  6
CONTINUOUS
 62
     2
 10
-19.6429356695704
 20
-57.4618788738628
 30
0.0
 40
3.5
  1
Y
 41
0.933333333333334
 72
     1
 11
-18.3596023362371
 21
-55.7118788738628
 31
0.0
 73
     2
  0
TEXT
  5
   75C
  8
0
  6
CONTINUOUS
 62
     2
 10
-19.5794893658504
 20
19.8168171159949
 30
0.0
 40
3.5
  1
Y
 41
0.933333333333334
 72
     1
 11
-18.296156032517
 21
21.5668171159949
 31
0.0
 73
     2
  0
INSERT
  5
   75D
  8
255
  6
CONTINUOUS
 62
     7
  2
$5SACE
 10
138.789207131642
 20
114.713891676916
 30
0.0
 41
1.2
 42
1.2
 50
359.999999792138
 43
1.2
  0
INSERT
  5
   75E
  8
255
  6
CONTINUOUS
 62
     7
  2
$5ABB
 10
76.4503459279339
 20
114.646480128043
 30
0.0
 41
1.2
 42
1.2
 50
359.999999792138
 43
1.2
  0
LINE
  5
   75F
  8
0
  6
DASHDOT
 62
     7
 10
67.3795928955079
 20
113.462558746338
 30
0.0
 11
145.379592895508
 21
113.462558746338
 31
0.0
  0
ENDSEC
  0
EOF
