ISO-10303-21;
HEADER;
FILE_DESCRIPTION(('CATIA V5 STEP'),'2;1');

FILE_NAME('C:\\Users\\ITROBOL\\Desktop\\TN CON TRAVERSA MARCO ROSSI LUCA SAVOLDELLI\\3D SEMPLIFICATI\\STEP\\1SDH001252R0364_1PA_001_00_E4.2_III_F_INSULATING_SHEET.stp','2014-10-29T16:49:02+00:00',('none'),('none'),'CATIA Version 5 Release 20 SP 6 (IN-10)','CATIA V5 STEP AP214','none');

FILE_SCHEMA(('AUTOMOTIVE_DESIGN { 1 0 10303 214 1 1 1 1 }'));

ENDSEC;
/* file written by CATIA V5R20 */
DATA;
#5=PRODUCT('1SDH001252R0364_1PA_001_00_E4.2_III_F_INSULATING_SHEET','','',(#2)) ;
#2=PRODUCT_CONTEXT(' ',#1,'mechanical') ;
#1=APPLICATION_CONTEXT('automotive design') ;
#10=PRODUCT_DEFINITION('',' ',#6,#3) ;
#3=PRODUCT_DEFINITION_CONTEXT('part definition',#1,' ') ;
#11=PRODUCT_DEFINITION_SHAPE(' ',' ',#10) ;
#309=MECHANICAL_DESIGN_GEOMETRIC_PRESENTATION_REPRESENTATION(' ',(#30),#17) ;
#20=SHAPE_REPRESENTATION(' ',(#19),#17) ;
#19=AXIS2_PLACEMENT_3D(' ',#18,$,$) ;
#35=AXIS2_PLACEMENT_3D('Plane Axis2P3D',#32,#33,#34) ;
#75=AXIS2_PLACEMENT_3D('Plane Axis2P3D',#72,#73,#74) ;
#106=AXIS2_PLACEMENT_3D('Plane Axis2P3D',#103,#104,#105) ;
#137=AXIS2_PLACEMENT_3D('Plane Axis2P3D',#134,#135,#136) ;
#168=AXIS2_PLACEMENT_3D('Plane Axis2P3D',#165,#166,#167) ;
#199=AXIS2_PLACEMENT_3D('Plane Axis2P3D',#196,#197,#198) ;
#230=AXIS2_PLACEMENT_3D('Plane Axis2P3D',#227,#228,#229) ;
#278=AXIS2_PLACEMENT_3D('Plane Axis2P3D',#275,#276,#277) ;
#294=AXIS2_PLACEMENT_3D('Plane Axis2P3D',#291,#292,#293) ;
#18=CARTESIAN_POINT(' ',(0.,0.,0.)) ;
#32=CARTESIAN_POINT('Axis2P3D Location',(2.,21.4690532684,39.)) ;
#37=CARTESIAN_POINT('Line Origine',(2.,22.4690532684,39.)) ;
#41=CARTESIAN_POINT('Vertex',(2.,21.4690532684,39.)) ;
#43=CARTESIAN_POINT('Vertex',(2.,23.4690532684,39.)) ;
#46=CARTESIAN_POINT('Line Origine',(2.,21.4690532684,183.)) ;
#50=CARTESIAN_POINT('Vertex',(2.,21.4690532684,327.)) ;
#53=CARTESIAN_POINT('Line Origine',(2.,22.4690532684,327.)) ;
#57=CARTESIAN_POINT('Vertex',(2.,23.4690532684,327.)) ;
#60=CARTESIAN_POINT('Line Origine',(2.,23.4690532684,183.)) ;
#72=CARTESIAN_POINT('Axis2P3D Location',(2.,21.4690532684,327.)) ;
#77=CARTESIAN_POINT('Line Origine',(-192.,21.4690532684,327.)) ;
#81=CARTESIAN_POINT('Vertex',(-386.,21.4690532684,327.)) ;
#84=CARTESIAN_POINT('Line Origine',(-386.,22.4690532684,327.)) ;
#88=CARTESIAN_POINT('Vertex',(-386.,23.4690532684,327.)) ;
#91=CARTESIAN_POINT('Line Origine',(-192.,23.4690532684,327.)) ;
#103=CARTESIAN_POINT('Axis2P3D Location',(-386.,21.4690532684,327.)) ;
#108=CARTESIAN_POINT('Line Origine',(-386.,21.4690532684,183.)) ;
#112=CARTESIAN_POINT('Vertex',(-386.,21.4690532684,39.)) ;
#115=CARTESIAN_POINT('Line Origine',(-386.,22.4690532684,39.)) ;
#119=CARTESIAN_POINT('Vertex',(-386.,23.4690532684,39.)) ;
#122=CARTESIAN_POINT('Line Origine',(-386.,23.4690532684,183.)) ;
#134=CARTESIAN_POINT('Axis2P3D Location',(-386.,21.4690532684,39.)) ;
#139=CARTESIAN_POINT('Line Origine',(-412.5,21.4690532684,39.)) ;
#143=CARTESIAN_POINT('Vertex',(-439.,21.4690532684,39.)) ;
#146=CARTESIAN_POINT('Line Origine',(-439.,22.4690532684,39.)) ;
#150=CARTESIAN_POINT('Vertex',(-439.,23.4690532684,39.)) ;
#153=CARTESIAN_POINT('Line Origine',(-412.5,23.4690532684,39.)) ;
#165=CARTESIAN_POINT('Axis2P3D Location',(-439.,21.4690532684,39.)) ;
#170=CARTESIAN_POINT('Line Origine',(-439.,21.4690532684,266.5)) ;
#174=CARTESIAN_POINT('Vertex',(-439.,21.4690532684,494.)) ;
#177=CARTESIAN_POINT('Line Origine',(-439.,22.4690532684,494.)) ;
#181=CARTESIAN_POINT('Vertex',(-439.,23.4690532684,494.)) ;
#184=CARTESIAN_POINT('Line Origine',(-439.,23.4690532684,266.5)) ;
#196=CARTESIAN_POINT('Axis2P3D Location',(-439.,21.4690532684,494.)) ;
#201=CARTESIAN_POINT('Line Origine',(-192.,21.4690532684,494.)) ;
#205=CARTESIAN_POINT('Vertex',(55.,21.4690532684,494.)) ;
#208=CARTESIAN_POINT('Line Origine',(55.,22.4690532684,494.)) ;
#212=CARTESIAN_POINT('Vertex',(55.,23.4690532684,494.)) ;
#215=CARTESIAN_POINT('Line Origine',(-192.,23.4690532684,494.)) ;
#227=CARTESIAN_POINT('Axis2P3D Location',(55.,21.4690532684,494.)) ;
#232=CARTESIAN_POINT('Line Origine',(55.,21.4690532684,266.5)) ;
#236=CARTESIAN_POINT('Vertex',(55.,21.4690532684,39.)) ;
#239=CARTESIAN_POINT('Line Origine',(55.,22.4690532684,39.)) ;
#243=CARTESIAN_POINT('Vertex',(55.,23.4690532684,39.)) ;
#246=CARTESIAN_POINT('Line Origine',(55.,23.4690532684,266.5)) ;
#258=CARTESIAN_POINT('Line Origine',(28.5,21.4690532684,39.)) ;
#263=CARTESIAN_POINT('Line Origine',(28.5,23.4690532684,39.)) ;
#275=CARTESIAN_POINT('Axis2P3D Location',(-192.,21.4690532684,-6.)) ;
#291=CARTESIAN_POINT('Axis2P3D Location',(-192.,23.4690532684,-6.)) ;
#33=DIRECTION('Axis2P3D Direction',(-1.,5.89805981832E-017,0.)) ;
#34=DIRECTION('Axis2P3D XDirection',(0.,0.,1.)) ;
#38=DIRECTION('Vector Direction',(0.,1.,0.)) ;
#47=DIRECTION('Vector Direction',(0.,0.,1.)) ;
#54=DIRECTION('Vector Direction',(0.,1.,0.)) ;
#61=DIRECTION('Vector Direction',(0.,0.,1.)) ;
#73=DIRECTION('Axis2P3D Direction',(0.,0.,-1.)) ;
#74=DIRECTION('Axis2P3D XDirection',(-1.,1.21430643318E-016,0.)) ;
#78=DIRECTION('Vector Direction',(-1.,1.19034221197E-016,0.)) ;
#85=DIRECTION('Vector Direction',(0.,1.,0.)) ;
#92=DIRECTION('Vector Direction',(-1.,1.19034221197E-016,0.)) ;
#104=DIRECTION('Axis2P3D Direction',(1.,-5.89805981832E-017,0.)) ;
#105=DIRECTION('Axis2P3D XDirection',(0.,0.,-1.)) ;
#109=DIRECTION('Vector Direction',(0.,0.,-1.)) ;
#116=DIRECTION('Vector Direction',(0.,1.,0.)) ;
#123=DIRECTION('Vector Direction',(0.,0.,-1.)) ;
#135=DIRECTION('Axis2P3D Direction',(0.,0.,-1.)) ;
#136=DIRECTION('Axis2P3D XDirection',(-1.,1.21430643318E-016,0.)) ;
#140=DIRECTION('Vector Direction',(-1.,1.34064667125E-016,0.)) ;
#147=DIRECTION('Vector Direction',(0.,1.,0.)) ;
#154=DIRECTION('Vector Direction',(-1.,1.34064667125E-016,0.)) ;
#166=DIRECTION('Axis2P3D Direction',(-1.,5.89805981832E-017,0.)) ;
#167=DIRECTION('Axis2P3D XDirection',(0.,0.,1.)) ;
#171=DIRECTION('Vector Direction',(0.,0.,1.)) ;
#178=DIRECTION('Vector Direction',(0.,1.,0.)) ;
#185=DIRECTION('Vector Direction',(0.,0.,1.)) ;
#197=DIRECTION('Axis2P3D Direction',(-0.,0.,1.)) ;
#198=DIRECTION('Axis2P3D XDirection',(1.,-1.21430643318E-016,0.)) ;
#202=DIRECTION('Vector Direction',(1.,-1.22259377611E-016,0.)) ;
#209=DIRECTION('Vector Direction',(0.,1.,0.)) ;
#216=DIRECTION('Vector Direction',(1.,-1.22259377611E-016,0.)) ;
#228=DIRECTION('Axis2P3D Direction',(1.,-5.89805981832E-017,0.)) ;
#229=DIRECTION('Axis2P3D XDirection',(0.,0.,-1.)) ;
#233=DIRECTION('Vector Direction',(0.,0.,-1.)) ;
#240=DIRECTION('Vector Direction',(0.,1.,0.)) ;
#247=DIRECTION('Vector Direction',(0.,0.,-1.)) ;
#259=DIRECTION('Vector Direction',(-1.,1.34064667125E-016,0.)) ;
#264=DIRECTION('Vector Direction',(-1.,1.34064667125E-016,0.)) ;
#276=DIRECTION('Axis2P3D Direction',(1.21430643318E-016,1.,-0.)) ;
#277=DIRECTION('Axis2P3D XDirection',(-1.,1.21430643318E-016,0.)) ;
#292=DIRECTION('Axis2P3D Direction',(1.21430643318E-016,1.,-0.)) ;
#293=DIRECTION('Axis2P3D XDirection',(-1.,1.21430643318E-016,0.)) ;
#8=PRODUCT_RELATED_PRODUCT_CATEGORY('part',$,(#5)) ;
#7=PRODUCT_CATEGORY('part','specification') ;
#30=STYLED_ITEM(' ',(#29),#22) ;
#29=PRESENTATION_STYLE_ASSIGNMENT((#28)) ;
#28=SURFACE_STYLE_USAGE(.BOTH.,#27) ;
#27=SURFACE_SIDE_STYLE(' ',(#26)) ;
#26=SURFACE_STYLE_FILL_AREA(#25) ;
#25=FILL_AREA_STYLE(' ',(#24)) ;
#24=FILL_AREA_STYLE_COLOUR(' ',#23) ;
#39=VECTOR('Line Direction',#38,1.) ;
#48=VECTOR('Line Direction',#47,1.) ;
#55=VECTOR('Line Direction',#54,1.) ;
#62=VECTOR('Line Direction',#61,1.) ;
#79=VECTOR('Line Direction',#78,1.) ;
#86=VECTOR('Line Direction',#85,1.) ;
#93=VECTOR('Line Direction',#92,1.) ;
#110=VECTOR('Line Direction',#109,1.) ;
#117=VECTOR('Line Direction',#116,1.) ;
#124=VECTOR('Line Direction',#123,1.) ;
#141=VECTOR('Line Direction',#140,1.) ;
#148=VECTOR('Line Direction',#147,1.) ;
#155=VECTOR('Line Direction',#154,1.) ;
#172=VECTOR('Line Direction',#171,1.) ;
#179=VECTOR('Line Direction',#178,1.) ;
#186=VECTOR('Line Direction',#185,1.) ;
#203=VECTOR('Line Direction',#202,1.) ;
#210=VECTOR('Line Direction',#209,1.) ;
#217=VECTOR('Line Direction',#216,1.) ;
#234=VECTOR('Line Direction',#233,1.) ;
#241=VECTOR('Line Direction',#240,1.) ;
#248=VECTOR('Line Direction',#247,1.) ;
#260=VECTOR('Line Direction',#259,1.) ;
#265=VECTOR('Line Direction',#264,1.) ;
#16=UNCERTAINTY_MEASURE_WITH_UNIT(LENGTH_MEASURE(0.005),#12,'distance_accuracy_value','CONFUSED CURVE UNCERTAINTY') ;
#308=SHAPE_REPRESENTATION_RELATIONSHIP(' ',' ',#20,#307) ;
#66=ORIENTED_EDGE('',*,*,#45,.F.) ;
#67=ORIENTED_EDGE('',*,*,#52,.T.) ;
#68=ORIENTED_EDGE('',*,*,#59,.T.) ;
#69=ORIENTED_EDGE('',*,*,#64,.F.) ;
#97=ORIENTED_EDGE('',*,*,#59,.F.) ;
#98=ORIENTED_EDGE('',*,*,#83,.T.) ;
#99=ORIENTED_EDGE('',*,*,#90,.T.) ;
#100=ORIENTED_EDGE('',*,*,#95,.F.) ;
#128=ORIENTED_EDGE('',*,*,#90,.F.) ;
#129=ORIENTED_EDGE('',*,*,#114,.T.) ;
#130=ORIENTED_EDGE('',*,*,#121,.T.) ;
#131=ORIENTED_EDGE('',*,*,#126,.F.) ;
#159=ORIENTED_EDGE('',*,*,#121,.F.) ;
#160=ORIENTED_EDGE('',*,*,#145,.T.) ;
#161=ORIENTED_EDGE('',*,*,#152,.T.) ;
#162=ORIENTED_EDGE('',*,*,#157,.F.) ;
#190=ORIENTED_EDGE('',*,*,#152,.F.) ;
#191=ORIENTED_EDGE('',*,*,#176,.T.) ;
#192=ORIENTED_EDGE('',*,*,#183,.T.) ;
#193=ORIENTED_EDGE('',*,*,#188,.F.) ;
#221=ORIENTED_EDGE('',*,*,#183,.F.) ;
#222=ORIENTED_EDGE('',*,*,#207,.T.) ;
#223=ORIENTED_EDGE('',*,*,#214,.T.) ;
#224=ORIENTED_EDGE('',*,*,#219,.F.) ;
#252=ORIENTED_EDGE('',*,*,#214,.F.) ;
#253=ORIENTED_EDGE('',*,*,#238,.T.) ;
#254=ORIENTED_EDGE('',*,*,#245,.T.) ;
#255=ORIENTED_EDGE('',*,*,#250,.F.) ;
#269=ORIENTED_EDGE('',*,*,#245,.F.) ;
#270=ORIENTED_EDGE('',*,*,#262,.T.) ;
#271=ORIENTED_EDGE('',*,*,#45,.T.) ;
#272=ORIENTED_EDGE('',*,*,#267,.F.) ;
#281=ORIENTED_EDGE('',*,*,#262,.F.) ;
#282=ORIENTED_EDGE('',*,*,#238,.F.) ;
#283=ORIENTED_EDGE('',*,*,#207,.F.) ;
#284=ORIENTED_EDGE('',*,*,#176,.F.) ;
#285=ORIENTED_EDGE('',*,*,#145,.F.) ;
#286=ORIENTED_EDGE('',*,*,#114,.F.) ;
#287=ORIENTED_EDGE('',*,*,#83,.F.) ;
#288=ORIENTED_EDGE('',*,*,#52,.F.) ;
#297=ORIENTED_EDGE('',*,*,#64,.T.) ;
#298=ORIENTED_EDGE('',*,*,#95,.T.) ;
#299=ORIENTED_EDGE('',*,*,#126,.T.) ;
#300=ORIENTED_EDGE('',*,*,#157,.T.) ;
#301=ORIENTED_EDGE('',*,*,#188,.T.) ;
#302=ORIENTED_EDGE('',*,*,#219,.T.) ;
#303=ORIENTED_EDGE('',*,*,#250,.T.) ;
#304=ORIENTED_EDGE('',*,*,#267,.T.) ;
#31=CLOSED_SHELL('Closed Shell',(#71,#102,#133,#164,#195,#226,#257,#274,#290,#306)) ;
#307=ADVANCED_BREP_SHAPE_REPRESENTATION('NONE',(#22),#17) ;
#71=ADVANCED_FACE('RX1297010_1PA_001_00_PIASTRA_E4.2_III_F_TERM_FRONT.1\\PartBody',(#70),#36,.T.) ;
#102=ADVANCED_FACE('RX1297010_1PA_001_00_PIASTRA_E4.2_III_F_TERM_FRONT.1\\PartBody',(#101),#76,.T.) ;
#133=ADVANCED_FACE('RX1297010_1PA_001_00_PIASTRA_E4.2_III_F_TERM_FRONT.1\\PartBody',(#132),#107,.T.) ;
#164=ADVANCED_FACE('RX1297010_1PA_001_00_PIASTRA_E4.2_III_F_TERM_FRONT.1\\PartBody',(#163),#138,.T.) ;
#195=ADVANCED_FACE('RX1297010_1PA_001_00_PIASTRA_E4.2_III_F_TERM_FRONT.1\\PartBody',(#194),#169,.T.) ;
#226=ADVANCED_FACE('RX1297010_1PA_001_00_PIASTRA_E4.2_III_F_TERM_FRONT.1\\PartBody',(#225),#200,.T.) ;
#257=ADVANCED_FACE('RX1297010_1PA_001_00_PIASTRA_E4.2_III_F_TERM_FRONT.1\\PartBody',(#256),#231,.T.) ;
#274=ADVANCED_FACE('RX1297010_1PA_001_00_PIASTRA_E4.2_III_F_TERM_FRONT.1\\PartBody',(#273),#138,.T.) ;
#290=ADVANCED_FACE('RX1297010_1PA_001_00_PIASTRA_E4.2_III_F_TERM_FRONT.1\\PartBody',(#289),#279,.F.) ;
#306=ADVANCED_FACE('RX1297010_1PA_001_00_PIASTRA_E4.2_III_F_TERM_FRONT.1\\PartBody',(#305),#295,.T.) ;
#4=APPLICATION_PROTOCOL_DEFINITION('international standard','automotive_design',2001,#1) ;
#22=MANIFOLD_SOLID_BREP('RX1297010_1PA_001_00_PIASTRA_E4.2_III_F_TERM_FRONT.1\\PartBody',#31) ;
#23=COLOUR_RGB('Colour',0.337254901961,0.360784313725,0.36862745098) ;
#45=EDGE_CURVE('',#42,#44,#40,.T.) ;
#52=EDGE_CURVE('',#42,#51,#49,.T.) ;
#59=EDGE_CURVE('',#51,#58,#56,.T.) ;
#64=EDGE_CURVE('',#44,#58,#63,.T.) ;
#83=EDGE_CURVE('',#51,#82,#80,.T.) ;
#90=EDGE_CURVE('',#82,#89,#87,.T.) ;
#95=EDGE_CURVE('',#58,#89,#94,.T.) ;
#114=EDGE_CURVE('',#82,#113,#111,.T.) ;
#121=EDGE_CURVE('',#113,#120,#118,.T.) ;
#126=EDGE_CURVE('',#89,#120,#125,.T.) ;
#145=EDGE_CURVE('',#113,#144,#142,.T.) ;
#152=EDGE_CURVE('',#144,#151,#149,.T.) ;
#157=EDGE_CURVE('',#120,#151,#156,.T.) ;
#176=EDGE_CURVE('',#144,#175,#173,.T.) ;
#183=EDGE_CURVE('',#175,#182,#180,.T.) ;
#188=EDGE_CURVE('',#151,#182,#187,.T.) ;
#207=EDGE_CURVE('',#175,#206,#204,.T.) ;
#214=EDGE_CURVE('',#206,#213,#211,.T.) ;
#219=EDGE_CURVE('',#182,#213,#218,.T.) ;
#238=EDGE_CURVE('',#206,#237,#235,.T.) ;
#245=EDGE_CURVE('',#237,#244,#242,.T.) ;
#250=EDGE_CURVE('',#213,#244,#249,.T.) ;
#262=EDGE_CURVE('',#237,#42,#261,.T.) ;
#267=EDGE_CURVE('',#244,#44,#266,.T.) ;
#65=EDGE_LOOP('',(#66,#67,#68,#69)) ;
#96=EDGE_LOOP('',(#97,#98,#99,#100)) ;
#127=EDGE_LOOP('',(#128,#129,#130,#131)) ;
#158=EDGE_LOOP('',(#159,#160,#161,#162)) ;
#189=EDGE_LOOP('',(#190,#191,#192,#193)) ;
#220=EDGE_LOOP('',(#221,#222,#223,#224)) ;
#251=EDGE_LOOP('',(#252,#253,#254,#255)) ;
#268=EDGE_LOOP('',(#269,#270,#271,#272)) ;
#280=EDGE_LOOP('',(#281,#282,#283,#284,#285,#286,#287,#288)) ;
#296=EDGE_LOOP('',(#297,#298,#299,#300,#301,#302,#303,#304)) ;
#70=FACE_OUTER_BOUND('',#65,.T.) ;
#101=FACE_OUTER_BOUND('',#96,.T.) ;
#132=FACE_OUTER_BOUND('',#127,.T.) ;
#163=FACE_OUTER_BOUND('',#158,.T.) ;
#194=FACE_OUTER_BOUND('',#189,.T.) ;
#225=FACE_OUTER_BOUND('',#220,.T.) ;
#256=FACE_OUTER_BOUND('',#251,.T.) ;
#273=FACE_OUTER_BOUND('',#268,.T.) ;
#289=FACE_OUTER_BOUND('',#280,.T.) ;
#305=FACE_OUTER_BOUND('',#296,.T.) ;
#40=LINE('Line',#37,#39) ;
#49=LINE('Line',#46,#48) ;
#56=LINE('Line',#53,#55) ;
#63=LINE('Line',#60,#62) ;
#80=LINE('Line',#77,#79) ;
#87=LINE('Line',#84,#86) ;
#94=LINE('Line',#91,#93) ;
#111=LINE('Line',#108,#110) ;
#118=LINE('Line',#115,#117) ;
#125=LINE('Line',#122,#124) ;
#142=LINE('Line',#139,#141) ;
#149=LINE('Line',#146,#148) ;
#156=LINE('Line',#153,#155) ;
#173=LINE('Line',#170,#172) ;
#180=LINE('Line',#177,#179) ;
#187=LINE('Line',#184,#186) ;
#204=LINE('Line',#201,#203) ;
#211=LINE('Line',#208,#210) ;
#218=LINE('Line',#215,#217) ;
#235=LINE('Line',#232,#234) ;
#242=LINE('Line',#239,#241) ;
#249=LINE('Line',#246,#248) ;
#261=LINE('Line',#258,#260) ;
#266=LINE('Line',#263,#265) ;
#36=PLANE('',#35) ;
#76=PLANE('',#75) ;
#107=PLANE('',#106) ;
#138=PLANE('',#137) ;
#169=PLANE('',#168) ;
#200=PLANE('',#199) ;
#231=PLANE('',#230) ;
#279=PLANE('',#278) ;
#295=PLANE('',#294) ;
#14=PLANE_ANGLE_MEASURE_WITH_UNIT(PLANE_ANGLE_MEASURE(0.0174532925199),#13) ;
#9=PRODUCT_CATEGORY_RELATIONSHIP(' ',' ',#7,#8) ;
#6=PRODUCT_DEFINITION_FORMATION_WITH_SPECIFIED_SOURCE('',' ',#5,.NOT_KNOWN.) ;
#21=SHAPE_DEFINITION_REPRESENTATION(#11,#20) ;
#42=VERTEX_POINT('',#41) ;
#44=VERTEX_POINT('',#43) ;
#51=VERTEX_POINT('',#50) ;
#58=VERTEX_POINT('',#57) ;
#82=VERTEX_POINT('',#81) ;
#89=VERTEX_POINT('',#88) ;
#113=VERTEX_POINT('',#112) ;
#120=VERTEX_POINT('',#119) ;
#144=VERTEX_POINT('',#143) ;
#151=VERTEX_POINT('',#150) ;
#175=VERTEX_POINT('',#174) ;
#182=VERTEX_POINT('',#181) ;
#206=VERTEX_POINT('',#205) ;
#213=VERTEX_POINT('',#212) ;
#237=VERTEX_POINT('',#236) ;
#244=VERTEX_POINT('',#243) ;
#12=(LENGTH_UNIT()NAMED_UNIT(*)SI_UNIT(.MILLI.,.METRE.)) ;
#13=(NAMED_UNIT(*)PLANE_ANGLE_UNIT()SI_UNIT($,.RADIAN.)) ;
#15=(NAMED_UNIT(*)SI_UNIT($,.STERADIAN.)SOLID_ANGLE_UNIT()) ;
#17=(GEOMETRIC_REPRESENTATION_CONTEXT(3)GLOBAL_UNCERTAINTY_ASSIGNED_CONTEXT((#16))GLOBAL_UNIT_ASSIGNED_CONTEXT((#12,#13,#15))REPRESENTATION_CONTEXT(' ',' ')) ;
ENDSEC;
END-ISO-10303-21;
