  0
SECTION
  2
HEADER
  9
$ACADVER
  1
AC1009
  9
$DWGCODEPAGE
  3
iso8859-1
  9
$INSBASE
 10
0.0
 20
0.0
 30
0.0
  9
$EXTMIN
 10
1.0E20
 20
1.0E20
  9
$EXTMAX
 10
-1.0E20
 20
-1.0E20
  9
$LIMMIN
 10
0.0
 20
0.0
  9
$LIMMAX
 10
12.0
 20
9.0
  9
$ORTHOMODE
 70
     0
  9
$REGENMODE
 70
     1
  9
$FILLMODE
 70
     1
  9
$QTEXTMODE
 70
     0
  9
$MIRRTEXT
 70
     1
  9
$DRAGMODE
 70
     2
  9
$LTSCALE
 40
15.0
  9
$OSMODE
 70
     0
  9
$ATTMODE
 70
     1
  9
$TEXTSIZE
 40
0.2
  9
$TRACEWID
 40
0.05
  9
$TEXTSTYLE
  7
STANDARD
  9
$CLAYER
  8
0
  9
$CELTYPE
  6
DASHED
  9
$CECOLOR
 62
   256
  9
$DIMSCALE
 40
1.0
  9
$DIMASZ
 40
0.18
  9
$DIMEXO
 40
0.0625
  9
$DIMDLI
 40
0.38
  9
$DIMRND
 40
0.0
  9
$DIMDLE
 40
0.0
  9
$DIMEXE
 40
0.18
  9
$DIMTP
 40
0.0
  9
$DIMTM
 40
0.0
  9
$DIMTXT
 40
0.18
  9
$DIMCEN
 40
0.09
  9
$DIMTSZ
 40
0.0
  9
$DIMTOL
 70
     0
  9
$DIMLIM
 70
     0
  9
$DIMTIH
 70
     1
  9
$DIMTOH
 70
     1
  9
$DIMSE1
 70
     0
  9
$DIMSE2
 70
     0
  9
$DIMTAD
 70
     0
  9
$DIMZIN
 70
     0
  9
$DIMBLK
  1

  9
$DIMASO
 70
     1
  9
$DIMSHO
 70
     1
  9
$DIMPOST
  1

  9
$DIMAPOST
  1

  9
$DIMALT
 70
     0
  9
$DIMALTD
 70
     2
  9
$DIMALTF
 40
25.4
  9
$DIMLFAC
 40
1.0
  9
$DIMTOFL
 70
     0
  9
$DIMTVP
 40
0.0
  9
$DIMTIX
 70
     0
  9
$DIMSOXD
 70
     0
  9
$DIMSAH
 70
     0
  9
$DIMBLK1
  1

  9
$DIMBLK2
  1

  9
$DIMSTYLE
  2
STANDARD
  9
$DIMCLRD
 70
     0
  9
$DIMCLRE
 70
     0
  9
$DIMCLRT
 70
     0
  9
$DIMTFAC
 40
1.0
  9
$DIMGAP
 40
0.09
  9
$LUNITS
 70
     2
  9
$LUPREC
 70
     4
  9
$AXISMODE
 70
     0
  9
$AXISUNIT
 10
0.0
 20
0.0
  9
$SKETCHINC
 40
0.1
  9
$FILLETRAD
 40
0.0
  9
$AUNITS
 70
     0
  9
$AUPREC
 70
     0
  9
$MENU
  1
acad
  9
$ELEVATION
 40
0.0
  9
$PELEVATION
 40
0.0
  9
$THICKNESS
 40
0.0
  9
$LIMCHECK
 70
     0
  9
$BLIPMODE
 70
     1
  9
$CHAMFERA
 40
0.0
  9
$CHAMFERB
 40
0.0
  9
$SKPOLY
 70
     0
  9
$TDCREATE
 40
0.000000000
  9
$TDUPDATE
 40
0.000000000
  9
$TDINDWG
 40
0.0
  9
$TDUSRTIMER
 40
0.0
  9
$USRTIMER
 70
     1
  9
$ANGBASE
 50
0.0
  9
$ANGDIR
 70
     0
  9
$PDMODE
 70
     0
  9
$PDSIZE
 40
0.0
  9
$PLINEWID
 40
0.0
  9
$COORDS
 70
     1
  9
$SPLFRAME
 70
     0
  9
$SPLINETYPE
 70
     6
  9
$SPLINESEGS
 70
     8
  9
$ATTDIA
 70
     0
  9
$ATTREQ
 70
     1
  9
$HANDLING
 70
     1
  9
$HANDSEED
  5
   75C
  9
$SURFTAB1
 70
     6
  9
$SURFTAB2
 70
     6
  9
$SURFTYPE
 70
     6
  9
$SURFU
 70
     6
  9
$SURFV
 70
     6
  9
$UCSNAME
  2

  9
$UCSORG
 10
0.0
 20
0.0
 30
0.0
  9
$UCSXDIR
 10
1.0
 20
0.0
 30
0.0
  9
$UCSYDIR
 10
0.0
 20
1.0
 30
0.0
  9
$PUCSNAME
  2

  9
$PUCSORG
 10
0.0
 20
0.0
 30
0.0
  9
$PUCSXDIR
 10
1.0
 20
0.0
 30
0.0
  9
$PUCSYDIR
 10
0.0
 20
1.0
 30
0.0
  9
$USERI1
 70
     0
  9
$USERI2
 70
     0
  9
$USERI3
 70
     0
  9
$USERI4
 70
     0
  9
$USERI5
 70
     0
  9
$USERR1
 40
0.0
  9
$USERR2
 40
0.0
  9
$USERR3
 40
0.0
  9
$USERR4
 40
0.0
  9
$USERR5
 40
0.0
  9
$WORLDVIEW
 70
     1
  9
$SHADEDGE
 70
     3
  9
$SHADEDIF
 70
    70
  9
$TILEMODE
 70
     1
  9
$MAXACTVP
 70
    16
  9
$PINSBASE
 10
0.0
 20
0.0
 30
0.0
  9
$PLIMCHECK
 70
     0
  9
$PEXTMIN
 10
1.0E20
 20
1.0E20
 30
1.0E20
  9
$PEXTMAX
 10
-1.0E20
 20
-1.0E20
 30
-1.0E20
  9
$PLIMMIN
 10
0.0
 20
0.0
  9
$PLIMMAX
 10
12.0
 20
9.0
  9
$UNITMODE
 70
     0
  9
$VISRETAIN
 70
     0
  0
ENDSEC
  0
SECTION
  2
TABLES
  0
TABLE
  2
VPORT
 70
     1
  0
VPORT
  2
*ACTIVE
 70
     0
 10
0.0
 20
0.0
 11
1.0
 21
1.0
 12
6.801242
 22
4.5
 13
0.0
 23
0.0
 14
1.0
 24
1.0
 15
0.0
 25
0.0
 16
0.0
 26
0.0
 36
1.0
 17
0.0
 27
0.0
 37
0.0
 40
9.0
 41
1.511387
 42
50.0
 43
0.0
 44
0.0
 50
0.0
 51
0.0
 71
     0
 72
   100
 73
     1
 74
     1
 75
     0
 76
     0
 77
     0
 78
     0
  0
ENDTAB
  0
TABLE
  2
LTYPE
 70
    41
  0
LTYPE
  2
BYBLOCK
 70
     0
  3

 72
    65
 73
     0
 40
0.0
  0
LTYPE
  2
BYLAYER
 70
     0
  3

 72
    65
 73
     0
 40
0.0
  0
LTYPE
  2
CONTINUOUS
 70
     0
  3
Solid line
 72
    65
 73
     0
 40
0.0
  0
LTYPE
  2
BORDER
 70
    64
  3
__ __ . __ __ . __ __ . __ __ . __ __ . __ __ .
 72
    65
 73
     6
 40
1.75
 49
0.5
 49
-0.25
 49
0.5
 49
-0.25
 49
0.0
 49
-0.25
  0
LTYPE
  2
BORDER2
 70
    64
  3
__.__.__.__.__.__.__.__.__.__.__.__.__.__.__.__
 72
    65
 73
     6
 40
0.875
 49
0.25
 49
-0.125
 49
0.25
 49
-0.125
 49
0.0
 49
-0.125
  0
LTYPE
  2
BORDERX2
 70
    64
  3
____  ____  .  ____  ____  .  ____  ____  .  __
 72
    65
 73
     6
 40
3.5
 49
1.0
 49
-0.5
 49
1.0
 49
-0.5
 49
0.0
 49
-0.5
  0
LTYPE
  2
CENTER
 70
    64
  3
____ _ ____ _ ____ _ ____ _ ____ _ ____ _ ____
 72
    65
 73
     4
 40
2.0
 49
1.25
 49
-0.25
 49
0.25
 49
-0.25
  0
LTYPE
  2
CENTER2
 70
    64
  3
___ _ ___ _ ___ _ ___ _ ___ _ ___ _ ___ _ ___ _
 72
    65
 73
     4
 40
1.125
 49
0.75
 49
-0.125
 49
0.125
 49
-0.125
  0
LTYPE
  2
CENTERX2
 70
    64
  3
________  __  ________  __  ________  __  _____
 72
    65
 73
     4
 40
4.0
 49
2.5
 49
-0.5
 49
0.5
 49
-0.5
  0
LTYPE
  2
DASHDOT
 70
    64
  3
__ . __ . __ . __ . __ . __ . __ . __ . __ . __
 72
    65
 73
     4
 40
1.0
 49
0.5
 49
-0.25
 49
0.0
 49
-0.25
  0
LTYPE
  2
DASHDOT2
 70
    64
  3
_._._._._._._._._._._._._._._._._._._._._._._._
 72
    65
 73
     4
 40
0.5
 49
0.25
 49
-0.125
 49
0.0
 49
-0.125
  0
LTYPE
  2
DASHDOTX2
 70
    64
  3
____  .  ____  .  ____  .  ____  .  ____  .  __
 72
    65
 73
     4
 40
2.0
 49
1.0
 49
-0.5
 49
0.0
 49
-0.5
  0
LTYPE
  2
DASHED
 70
    64
  3
__ __ __ __ __ __ __ __ __ __ __ __ __ __ __ __
 72
    65
 73
     2
 40
0.75
 49
0.5
 49
-0.25
  0
LTYPE
  2
DASHED2
 70
    64
  3
_ _ _ _ _ _ _ _ _ _ _ _ _ _ _ _ _ _ _ _ _ _ _ _
 72
    65
 73
     2
 40
0.375
 49
0.25
 49
-0.125
  0
LTYPE
  2
DASHEDX2
 70
    64
  3
____  ____  ____  ____  ____  ____  ____  ____
 72
    65
 73
     2
 40
1.5
 49
1.0
 49
-0.5
  0
LTYPE
  2
DIVIDE
 70
    64
  3
____ . . ____ . . ____ . . ____ . . ____ . . __
 72
    65
 73
     6
 40
1.25
 49
0.5
 49
-0.25
 49
0.0
 49
-0.25
 49
0.0
 49
-0.25
  0
LTYPE
  2
DIVIDE2
 70
    64
  3
__..__..__..__..__..__..__..__..__..__..__..__.
 72
    65
 73
     6
 40
0.625
 49
0.25
 49
-0.125
 49
0.0
 49
-0.125
 49
0.0
 49
-0.125
  0
LTYPE
  2
DIVIDEX2
 70
    64
  3
________  .  .  ________  .  .  ________  .  .
 72
    65
 73
     6
 40
2.5
 49
1.0
 49
-0.5
 49
0.0
 49
-0.5
 49
0.0
 49
-0.5
  0
LTYPE
  2
DOT
 70
    64
  3
. . . . . . . . . . . . . . . . . . . . . . . .
 72
    65
 73
     2
 40
0.25
 49
0.0
 49
-0.25
  0
LTYPE
  2
DOT2
 70
    64
  3
...............................................
 72
    65
 73
     2
 40
0.125
 49
0.0
 49
-0.125
  0
LTYPE
  2
DOTX2
 70
    64
  3
.  .  .  .  .  .  .  .  .  .  .  .  .  .  .  .
 72
    65
 73
     2
 40
0.5
 49
0.0
 49
-0.5
  0
LTYPE
  2
HIDDEN
 70
    64
  3
__ __ __ __ __ __ __ __ __ __ __ __ __ __ __ __
 72
    65
 73
     2
 40
0.375
 49
0.25
 49
-0.125
  0
LTYPE
  2
HIDDEN2
 70
    64
  3
_ _ _ _ _ _ _ _ _ _ _ _ _ _ _ _ _ _ _ _ _ _ _ _
 72
    65
 73
     2
 40
0.1875
 49
0.125
 49
-0.0625
  0
LTYPE
  2
HIDDENX2
 70
    64
  3
____ ____ ____ ____ ____ ____ ____ ____ ____ __
 72
    65
 73
     2
 40
0.75
 49
0.5
 49
-0.25
  0
LTYPE
  2
PHANTOM
 70
    64
  3
______  __  __  ______  __  __  ______  __  __
 72
    65
 73
     6
 40
2.5
 49
1.25
 49
-0.25
 49
0.25
 49
-0.25
 49
0.25
 49
-0.25
  0
LTYPE
  2
PHANTOM2
 70
    64
  3
___ _ _ ___ _ _ ___ _ _ ___ _ _ ___ _ _ ___ _ _
 72
    65
 73
     6
 40
1.25
 49
0.625
 49
-0.125
 49
0.125
 49
-0.125
 49
0.125
 49
-0.125
  0
LTYPE
  2
PHANTOMX2
 70
    64
  3
____________    ____    ____    ____________
 72
    65
 73
     6
 40
5.0
 49
2.5
 49
-0.5
 49
0.5
 49
-0.5
 49
0.5
 49
-0.5
  0
LTYPE
  2
ACAD_ISO02W100
 70
    64
  3
__ __ __ __ __ __ __ __ __ __ __ __ __ __ __ __
 72
    65
 73
     2
 40
15.0
 49
12.0
 49
-3.0
  0
LTYPE
  2
ACAD_ISO03W100
 70
    64
  3
__    __    __    __    __    __    __    __
 72
    65
 73
     2
 40
30.0
 49
12.0
 49
-18.0
  0
LTYPE
  2
ACAD_ISO04W100
 70
    64
  3
____ . ____ . ____ . ____ . ____ . ____ . ____
 72
    65
 73
     4
 40
30.5
 49
24.0
 49
-3.0
 49
0.5
 49
-3.0
  0
LTYPE
  2
ACAD_ISO05W100
 70
    64
  3
____ .. ____ .. ____ .. ____ .. ____ .. ____ ..
 72
    65
 73
     6
 40
34.0
 49
24.0
 49
-3.0
 49
0.5
 49
-3.0
 49
0.5
 49
-3.0
  0
LTYPE
  2
ACAD_ISO06W100
 70
    64
  3
____ ... ____ ... ____ ... ____ ... ____ ... __
 72
    65
 73
     8
 40
37.5
 49
24.0
 49
-3.0
 49
0.5
 49
-3.0
 49
0.5
 49
-3.0
 49
0.5
 49
-3.0
  0
LTYPE
  2
ACAD_ISO07W100
 70
    64
  3
. . . . . . . . . . . . . . . . . . . . . . . .
 72
    65
 73
     2
 40
3.5
 49
0.5
 49
-3.0
  0
LTYPE
  2
ACAD_ISO08W100
 70
    64
  3
____ __ ____ __ ____ __ ____ ____ __ __ ____ __
 72
    65
 73
     4
 40
36.0
 49
24.0
 49
-3.0
 49
6.0
 49
-3.0
  0
LTYPE
  2
ACAD_ISO09W100
 70
    64
  3
____ __ __ ____ __ __ ____ __ __ ____ __ __ ___
 72
    65
 73
     6
 40
45.0
 49
24.0
 49
-3.0
 49
6.0
 49
-3.0
 49
6.0
 49
-3.0
  0
LTYPE
  2
ACAD_ISO10W100
 70
    64
  3
__ . __ . __ . __ . __ . __ . __ . __ . __ . __
 72
    65
 73
     4
 40
18.5
 49
12.0
 49
-3.0
 49
0.5
 49
-3.0
  0
LTYPE
  2
ACAD_ISO11W100
 70
    64
  3
__ __ . __ __ . __ __ . __ __ . __ __ . __ __ .
 72
    65
 73
     6
 40
33.5
 49
12.0
 49
-3.0
 49
12.0
 49
-3.0
 49
0.5
 49
-3.0
  0
LTYPE
  2
ACAD_ISO12W100
 70
    64
  3
__ . . __ . . __ . . __ . . __ . . __ . . __ .
 72
    65
 73
     6
 40
22.0
 49
12.0
 49
-3.0
 49
0.5
 49
-3.0
 49
0.5
 49
-3.0
  0
LTYPE
  2
ACAD_ISO13W100
 70
    64
  3
__ __ . . __ __ . . __ __ . . __ __ . . __ __ .
 72
    65
 73
     8
 40
37.0
 49
12.0
 49
-3.0
 49
12.0
 49
-3.0
 49
0.5
 49
-3.0
 49
0.5
 49
-3.0
  0
LTYPE
  2
ACAD_ISO14W100
 70
    64
  3
__ . . . __ . . . __ . . . __ . . . __ . . . __
 72
    65
 73
     8
 40
25.5
 49
12.0
 49
-3.0
 49
0.5
 49
-3.0
 49
0.5
 49
-3.0
 49
0.5
 49
-3.0
  0
LTYPE
  2
ACAD_ISO15W100
 70
    64
  3
__ __ . . . __ __ . . . __ __ . . . __ __ . . .
 72
    65
 73
    10
 40
40.5
 49
12.0
 49
-3.0
 49
12.0
 49
-3.0
 49
0.5
 49
-3.0
 49
0.5
 49
-3.0
 49
0.5
 49
-3.0
  0
ENDTAB
  0
TABLE
  2
STYLE
 70
     4
  0
STYLE
  2
STANDARD
 70
    64
 40
0.0
 41
1.0
 50
0.0
 71
     0
 42
0.2
  3
txt
  4

  0
STYLE
  2
TOLERANCE
 70
    64
 40
0.0
 41
1.0
 50
0.0
 71
     0
 42
0.2
  3
../igesfont/iges1003.shx
  4

  0
STYLE
  2
ROMANS
 70
    64
 40
0.0
 41
1.0
 50
0.0
 71
     0
 42
0.2
  3
romans.shx
  4

  0
STYLE
  2
ROMANC
 70
    64
 40
0.0
 41
1.0
 50
0.0
 71
     0
 42
0.2
  3
romanc.shx
  4

  0
ENDTAB
  0
TABLE
  2
DIMSTYLE
 70
     2
  0
DIMSTYLE
  2
UNNAMED
 70
     0
  3

  4

  5

  6

  7

 40
1.0
 41
0.18
 42
0.0625
 43
0.38
 44
0.18
 45
0.0
 46
0.0
 47
0.0
 48
0.0
140
0.18
141
0.09
142
0.0
143
25.4
144
1.0
145
0.0
146
1.0
147
0.09
 71
     0
 72
     0
 73
     1
 74
     1
 75
     0
 76
     0
 77
     0
 78
     0
170
     0
171
     2
172
     0
173
     0
174
     0
175
     0
176
     0
177
     0
178
     0
  0
DIMSTYLE
  2
STANDARD
 70
     0
  3

  4

  5

  6

  7

 40
1.0
 41
0.18
 42
0.0625
 43
0.38
 44
0.18
 45
0.0
 46
0.0
 47
0.0
 48
0.0
140
0.18
141
0.09
142
0.0
143
25.4
144
1.0
145
0.0
146
1.0
147
0.09
 71
     0
 72
     0
 73
     1
 74
     1
 75
     0
 76
     0
 77
     0
 78
     0
170
     0
171
     2
172
     0
173
     0
174
     0
175
     0
176
     0
177
     0
178
     0
  0
ENDTAB
  0
TABLE
  2
LAYER
 70
     2
  0
LAYER
  2
0
 70
     0
 62
     7
  6
CONTINUOUS
  0
LAYER
  2
255
 70
     0
 62
     7
  6
CONTINUOUS
  0
ENDTAB
  0
ENDSEC
  0
SECTION
  2
BLOCKS
  0
BLOCK
  5
     B
  8
0
  6
CONTINUOUS
 62
     7
  2
*UDIM72
 70
    65
 10
0.0
 20
0.0
 30
0.0
  3
*UDIM72
  0
TEXT
  5
     C
  8
0
  6
CONTINUOUS
 62
     7
 10
-280.342474762076
 20
-29.4898458459338
 30
0.0
 40
2.99999994933605
  1
105,25
 50
449.999999896069
 41
0.933333333333333
 72
     1
 11
-281.842474722102
 21
-21.389845980015
 31
0.0
 73
     2
  0
LINE
  5
     D
  8
0
  6
CONTINUOUS
 62
     7
 10
-264.574846832083
 20
-10.3360722213984
 30
0.0
 11
-281.342474747434
 21
-10.3360722213984
 31
0.0
  0
LINE
  5
     E
  8
0
  6
CONTINUOUS
 62
     7
 10
-279.342474747434
 20
-10.3360722213984
 30
0.0
 11
-279.342474747434
 21
-31.3860725350678
 31
0.0
  0
LINE
  5
     F
  8
0
  6
CONTINUOUS
 62
     7
 10
-278.821530317482
 20
-13.2904954986053
 30
0.0
 11
-279.342474747434
 21
-10.3360722213984
 31
0.0
  0
LINE
  5
    10
  8
0
  6
CONTINUOUS
 62
     7
 10
-279.342474747434
 20
-10.3360722213984
 30
0.0
 11
-279.863419177385
 21
-13.2904954986053
 31
0.0
  0
LINE
  5
    11
  8
0
  6
CONTINUOUS
 62
     7
 10
-279.863419177385
 20
-28.4316492578608
 30
0.0
 11
-279.342474747434
 21
-31.3860725350678
 31
0.0
  0
LINE
  5
    12
  8
0
  6
CONTINUOUS
 62
     7
 10
-279.342474747434
 20
-31.3860725350678
 30
0.0
 11
-278.821530317482
 21
-28.4316492578608
 31
0.0
  0
ENDBLK
  5
    13
  8
0
  6
CONTINUOUS
 62
     7
  0
BLOCK
  5
    14
  8
0
  6
CONTINUOUS
 62
     7
  2
*UDIM73
 70
    65
 10
0.0
 20
0.0
 30
0.0
  3
*UDIM73
  0
TEXT
  5
    15
  8
0
  6
CONTINUOUS
 62
     7
 10
-259.968510501441
 20
-44.7624460357858
 30
0.0
 40
2.99999994933605
  1
70
 50
359.999999896069
 41
0.933333333333333
 72
     1
 11
-257.468510540947
 21
-43.2624460656401
 31
0.0
 73
     2
  0
LINE
  5
    16
  8
0
  6
CONTINUOUS
 62
     7
 10
-250.193511910737
 20
-45.7624460403081
 30
0.0
 11
-264.193512119353
 21
-45.7624460403081
 31
0.0
  0
LINE
  5
    17
  8
0
  6
CONTINUOUS
 62
     7
 10
-253.147935187944
 20
-46.2833904702597
 30
0.0
 11
-250.193511910737
 21
-45.7624460403081
 31
0.0
  0
LINE
  5
    18
  8
0
  6
CONTINUOUS
 62
     7
 10
-250.193511910737
 20
-45.7624460403081
 30
0.0
 11
-253.147935187944
 21
-45.2415016103564
 31
0.0
  0
LINE
  5
    19
  8
0
  6
CONTINUOUS
 62
     7
 10
-261.239088842146
 20
-45.2415016103564
 30
0.0
 11
-264.193512119353
 21
-45.7624460403081
 31
0.0
  0
LINE
  5
    1A
  8
0
  6
CONTINUOUS
 62
     7
 10
-264.193512119353
 20
-45.7624460403081
 30
0.0
 11
-261.239088842146
 21
-46.2833904702597
 31
0.0
  0
ENDBLK
  5
    1B
  8
0
  6
CONTINUOUS
 62
     7
  0
BLOCK
  5
    1C
  8
0
  6
CONTINUOUS
 62
     7
  2
*UDIM74
 70
    65
 10
0.0
 20
0.0
 30
0.0
  3
*UDIM74
  0
TEXT
  5
    1D
  8
0
  6
CONTINUOUS
 62
     7
 10
-243.736388846014
 20
-24.2553610693797
 30
0.0
 40
2.99999994933605
  1
17,5
 50
359.999999896069
 41
0.933333333333333
 72
     1
 11
-238.436388932807
 21
-22.755361104299
 31
0.0
 73
     2
  0
LINE
  5
    1E
  8
0
  6
CONTINUOUS
 62
     7
 10
-233.136389022314
 20
-25.255361078967
 30
0.0
 11
-253.693511962891
 21
-25.255361078967
 31
0.0
  0
LINE
  5
    1F
  8
0
  6
CONTINUOUS
 62
     7
 10
-247.23908863353
 20
-24.7344166490153
 30
0.0
 11
-250.193511910737
 21
-25.255361078967
 31
0.0
  0
LINE
  5
    20
  8
0
  6
CONTINUOUS
 62
     7
 10
-250.193511910737
 20
-25.255361078967
 30
0.0
 11
-247.23908863353
 21
-25.7763055089186
 31
0.0
  0
LINE
  5
    21
  8
0
  6
CONTINUOUS
 62
     7
 10
-256.647935240098
 20
-25.7763055089186
 30
0.0
 11
-253.693511962891
 21
-25.255361078967
 31
0.0
  0
LINE
  5
    22
  8
0
  6
CONTINUOUS
 62
     7
 10
-253.693511962891
 20
-25.255361078967
 30
0.0
 11
-256.647935240098
 21
-24.7344166490153
 31
0.0
  0
ENDBLK
  5
    23
  8
0
  6
CONTINUOUS
 62
     7
  0
BLOCK
  5
    24
  8
0
  6
CONTINUOUS
 62
     7
  2
*UDIM75
 70
    65
 10
0.0
 20
0.0
 30
0.0
  3
*UDIM75
  0
TEXT
  5
    25
  8
0
  6
CONTINUOUS
 62
     7
 10
-240.162335526724
 20
-13.2242344173623
 30
0.0
 40
2.99999994933605
  1
5,5
 50
338.440679311644
 41
0.933333333333333
 72
     1
 11
-235.983992401973
 21
-13.2622888799604
 31
0.0
 73
     2
  0
TEXT
  5
    26
  8
0
  6
CONTINUOUS
 62
     7
 10
-243.091953973905
 20
-12.0667218063021
 30
0.0
 40
2.99999994933605
  1
Ø
 50
338.440679311644
 41
0.933333333333333
 72
     1
 11
-241.517716128615
 21
-11.0758761626275
 31
0.0
 73
     2
  0
TEXT
  5
    27
  8
0
  6
CONTINUOUS
 62
     7
 10
-232.396521541198
 20
-16.2925615090295
 30
0.0
 40
2.99999994933605
  1
 - M5
 50
338.440679311644
 41
0.933333333333333
 72
     1
 11
-225.614073136988
 21
-17.3595160779004
 31
0.0
 73
     2
  0
LINE
  5
    28
  8
0
  6
CONTINUOUS
 62
     7
 10
-220.301482024999
 20
-22.1466210520939
 30
0.0
 11
-250.705032607257
 21
-10.1339668378812
 31
0.0
  0
LINE
  5
    29
  8
0
  6
CONTINUOUS
 62
     7
 10
-246.742837937324
 20
-11.1393248538755
 30
0.0
 11
-249.681991214216
 21
-10.5381776049155
 31
0.0
  0
LINE
  5
    2A
  8
0
  6
CONTINUOUS
 62
     7
 10
-249.681991214216
 20
-10.5381776049155
 30
0.0
 11
-247.125694927279
 21
-12.1083206854626
 31
0.0
  0
LINE
  5
    2B
  8
0
  6
CONTINUOUS
 62
     7
 10
-253.644185884149
 20
-9.53281958892122
 30
0.0
 11
-250.705032607257
 21
-10.1339668378812
 31
0.0
  0
LINE
  5
    2C
  8
0
  6
CONTINUOUS
 62
     7
 10
-250.705032607257
 20
-10.1339668378812
 30
0.0
 11
-253.261328894194
 21
-8.5638237573341
 31
0.0
  0
ENDBLK
  5
    2D
  8
0
  6
CONTINUOUS
 62
     7
  0
BLOCK
  5
    2E
  8
0
  6
CONTINUOUS
 62
     7
  2
*UDIM76
 70
    65
 10
0.0
 20
0.0
 30
0.0
  3
*UDIM76
  0
TEXT
  5
    2F
  8
0
  6
CONTINUOUS
 62
     7
 10
-289.037381500259
 20
-35.9110706323404
 30
0.0
 40
2.99999994933605
  1
214
 50
449.999999896069
 41
0.933333333333333
 72
     1
 11
-290.537381467877
 21
-32.011070695492
 31
0.0
 73
     2
  0
LINE
  5
    30
  8
0
  6
CONTINUOUS
 62
     7
 10
-264.574846832083
 20
-10.3360719074819
 30
0.0
 11
-290.037381493209
 21
-10.3360639143728
 31
0.0
  0
LINE
  5
    31
  8
0
  6
CONTINUOUS
 62
     7
 10
-263.897474858558
 20
-53.1360725452516
 30
0.0
 11
-290.037381493209
 21
-53.1360643395043
 31
0.0
  0
LINE
  5
    32
  8
0
  6
CONTINUOUS
 62
     7
 10
-288.037381493209
 20
-10.3360645422057
 30
0.0
 11
-288.037381493209
 21
-53.1360649673372
 31
0.0
  0
LINE
  5
    33
  8
0
  6
CONTINUOUS
 62
     7
 10
-287.516437063257
 20
-13.2904878194127
 30
0.0
 11
-288.037381493209
 21
-10.3360645422057
 31
0.0
  0
LINE
  5
    34
  8
0
  6
CONTINUOUS
 62
     7
 10
-288.037381493209
 20
-10.3360645422057
 30
0.0
 11
-288.558325923161
 21
-13.2904878194127
 31
0.0
  0
LINE
  5
    35
  8
0
  6
CONTINUOUS
 62
     7
 10
-288.558325923161
 20
-50.1816416901303
 30
0.0
 11
-288.037381493209
 21
-53.1360649673372
 31
0.0
  0
LINE
  5
    36
  8
0
  6
CONTINUOUS
 62
     7
 10
-288.037381493209
 20
-53.1360649673372
 30
0.0
 11
-287.516437063257
 21
-50.1816416901303
 31
0.0
  0
ENDBLK
  5
    37
  8
0
  6
CONTINUOUS
 62
     7
  0
BLOCK
  5
    38
  8
0
  6
CONTINUOUS
 62
     0
  2
ON-OFF
 70
    64
 10
0.0
 20
0.0
 30
0.0
  3
ON-OFF
  0
LINE
  5
    39
  8
0
  6
CONTINUOUS
 62
     0
 10
5.09999999999999
 20
-29.65
 30
0.0
 11
5.54999999999999
 21
-29.65
 31
0.0
  0
LINE
  5
    3A
  8
0
  6
CONTINUOUS
 62
     0
 10
3.79999999999999
 20
-37.35
 30
0.0
 11
4.59999999999999
 21
-37.35
 31
0.0
  0
LINE
  5
    3B
  8
0
  6
CONTINUOUS
 62
     0
 10
-2.6
 20
-34.75
 30
0.0
 11
-2.6
 21
-34.25
 31
0.0
  0
LINE
  5
    3C
  8
0
  6
CONTINUOUS
 62
     0
 10
2.6
 20
-34.75
 30
0.0
 11
2.6
 21
-34.25
 31
0.0
  0
ARC
  5
    3D
  8
0
  6
CONTINUOUS
 62
     0
 10
-3.5527136788005E-15
 20
-34.25
 30
0.0
 40
2.6
 50
0.0
 51
180.0
  0
ARC
  5
    3E
  8
0
  6
CONTINUOUS
 62
     0
 10
-3.5527136788005E-15
 20
-34.75
 30
0.0
 40
2.6
 50
180.0
 51
360.0
  0
ARC
  5
    3F
  8
0
  6
CONTINUOUS
 62
     0
 10
-3.5527136788005E-15
 20
-34.25
 30
0.0
 40
1.8
 50
0.0
 51
180.0
  0
ARC
  5
    40
  8
0
  6
CONTINUOUS
 62
     0
 10
-3.5527136788005E-15
 20
-34.75
 30
0.0
 40
1.8
 50
180.0
 51
360.0
  0
LINE
  5
    41
  8
0
  6
CONTINUOUS
 62
     0
 10
-1.8
 20
-34.75
 30
0.0
 11
-1.8
 21
-34.25
 31
0.0
  0
LINE
  5
    42
  8
0
  6
CONTINUOUS
 62
     0
 10
1.8
 20
-34.75
 30
0.0
 11
1.8
 21
-34.25
 31
0.0
  0
LINE
  5
    43
  8
0
  6
CONTINUOUS
 62
     0
 10
2.84999999999999
 20
-32.85
 30
0.0
 11
2.84999999999999
 21
-32.05
 31
0.0
  0
LINE
  5
    44
  8
0
  6
CONTINUOUS
 62
     0
 10
2.84999999999999
 20
-32.85
 30
0.0
 11
3.79999999999999
 21
-32.85
 31
0.0
  0
LINE
  5
    45
  8
0
  6
CONTINUOUS
 62
     0
 10
5.54999999999999
 20
-32.85
 30
0.0
 11
5.54999999999999
 21
-32.05
 31
0.0
  0
LINE
  5
    46
  8
0
  6
CONTINUOUS
 62
     0
 10
2.84999999999999
 20
-32.05
 30
0.0
 11
3.79999999999999
 21
-32.05
 31
0.0
  0
LINE
  5
    47
  8
0
  6
CONTINUOUS
 62
     0
 10
3.79999999999999
 20
-37.35
 30
0.0
 11
3.79999999999999
 21
-32.85
 31
0.0
  0
LINE
  5
    48
  8
0
  6
CONTINUOUS
 62
     0
 10
4.59999999999999
 20
-37.35
 30
0.0
 11
4.59999999999999
 21
-32.85
 31
0.0
  0
LINE
  5
    49
  8
0
  6
CONTINUOUS
 62
     0
 10
4.59999999999999
 20
-32.85
 30
0.0
 11
5.54999999999999
 21
-32.85
 31
0.0
  0
LINE
  5
    4A
  8
0
  6
CONTINUOUS
 62
     0
 10
4.59999999999999
 20
-32.05
 30
0.0
 11
5.54999999999999
 21
-32.05
 31
0.0
  0
LINE
  5
    4B
  8
0
  6
CONTINUOUS
 62
     0
 10
3.79999999999999
 20
-32.05
 30
0.0
 11
3.79999999999999
 21
-30.95
 31
0.0
  0
LINE
  5
    4C
  8
0
  6
CONTINUOUS
 62
     0
 10
4.59999999999999
 20
-32.05
 30
0.0
 11
4.59999999999999
 21
-30.95
 31
0.0
  0
ARC
  5
    4D
  8
0
  6
CONTINUOUS
 62
     0
 10
5.09999999999999
 20
-30.95
 30
0.0
 40
1.3
 50
89.9999999999999
 51
180.0
  0
ARC
  5
    4E
  8
0
  6
CONTINUOUS
 62
     0
 10
5.09999999999999
 20
-30.95
 30
0.0
 40
0.5
 50
89.9999999999999
 51
180.0
  0
LINE
  5
    4F
  8
0
  6
CONTINUOUS
 62
     0
 10
5.54999999999999
 20
-30.45
 30
0.0
 11
5.54999999999999
 21
-29.65
 31
0.0
  0
LINE
  5
    50
  8
0
  6
CONTINUOUS
 62
     0
 10
5.09999999999999
 20
-30.45
 30
0.0
 11
5.54999999999999
 21
-30.45
 31
0.0
  0
LINE
  5
    51
  8
0
  6
CONTINUOUS
 62
     0
 10
8.29999999999998
 20
-29.65
 30
0.0
 11
8.74999999999999
 21
-29.65
 31
0.0
  0
LINE
  5
    52
  8
0
  6
CONTINUOUS
 62
     0
 10
6.99999999999999
 20
-37.35
 30
0.0
 11
7.79999999999999
 21
-37.35
 31
0.0
  0
LINE
  5
    53
  8
0
  6
CONTINUOUS
 62
     0
 10
6.04999999999999
 20
-32.85
 30
0.0
 11
6.04999999999999
 21
-32.05
 31
0.0
  0
LINE
  5
    54
  8
0
  6
CONTINUOUS
 62
     0
 10
6.04999999999999
 20
-32.85
 30
0.0
 11
6.99999999999999
 21
-32.85
 31
0.0
  0
LINE
  5
    55
  8
0
  6
CONTINUOUS
 62
     0
 10
8.74999999999999
 20
-32.85
 30
0.0
 11
8.74999999999999
 21
-32.05
 31
0.0
  0
LINE
  5
    56
  8
0
  6
CONTINUOUS
 62
     0
 10
6.04999999999999
 20
-32.05
 30
0.0
 11
6.99999999999999
 21
-32.05
 31
0.0
  0
LINE
  5
    57
  8
0
  6
CONTINUOUS
 62
     0
 10
6.99999999999999
 20
-37.35
 30
0.0
 11
6.99999999999999
 21
-32.85
 31
0.0
  0
LINE
  5
    58
  8
0
  6
CONTINUOUS
 62
     0
 10
7.79999999999999
 20
-37.35
 30
0.0
 11
7.79999999999999
 21
-32.85
 31
0.0
  0
LINE
  5
    59
  8
0
  6
CONTINUOUS
 62
     0
 10
7.79999999999999
 20
-32.85
 30
0.0
 11
8.74999999999999
 21
-32.85
 31
0.0
  0
LINE
  5
    5A
  8
0
  6
CONTINUOUS
 62
     0
 10
7.79999999999999
 20
-32.05
 30
0.0
 11
8.74999999999999
 21
-32.05
 31
0.0
  0
LINE
  5
    5B
  8
0
  6
CONTINUOUS
 62
     0
 10
6.99999999999999
 20
-32.05
 30
0.0
 11
6.99999999999999
 21
-30.95
 31
0.0
  0
LINE
  5
    5C
  8
0
  6
CONTINUOUS
 62
     0
 10
7.79999999999999
 20
-32.05
 30
0.0
 11
7.79999999999999
 21
-30.95
 31
0.0
  0
ARC
  5
    5D
  8
0
  6
CONTINUOUS
 62
     0
 10
8.29999999999998
 20
-30.95
 30
0.0
 40
1.3
 50
89.9999999999999
 51
180.0
  0
ARC
  5
    5E
  8
0
  6
CONTINUOUS
 62
     0
 10
8.29999999999998
 20
-30.95
 30
0.0
 40
0.5
 50
89.9999999999999
 51
180.0
  0
LINE
  5
    5F
  8
0
  6
CONTINUOUS
 62
     0
 10
8.74999999999999
 20
-30.45
 30
0.0
 11
8.74999999999999
 21
-29.65
 31
0.0
  0
LINE
  5
    60
  8
0
  6
CONTINUOUS
 62
     0
 10
8.29999999999998
 20
-30.45
 30
0.0
 11
8.74999999999999
 21
-30.45
 31
0.0
  0
LINE
  5
    61
  8
0
  6
CONTINUOUS
 62
     0
 10
3.4
 20
-2.85000000000002
 30
0.0
 11
4.19999999999999
 21
-2.85000000000002
 31
0.0
  0
ARC
  5
    62
  8
0
  6
CONTINUOUS
 62
     0
 10
-3.5527136788005E-15
 20
0.249999999999979
 30
0.0
 40
2.6
 50
0.0
 51
180.0
  0
ARC
  5
    63
  8
0
  6
CONTINUOUS
 62
     0
 10
-3.5527136788005E-15
 20
0.249999999999979
 30
0.0
 40
1.8
 50
0.0
 51
180.0
  0
ARC
  5
    64
  8
0
  6
CONTINUOUS
 62
     0
 10
-3.5527136788005E-15
 20
-0.250000000000018
 30
0.0
 40
2.6
 50
180.0
 51
360.0
  0
ARC
  5
    65
  8
0
  6
CONTINUOUS
 62
     0
 10
-3.5527136788005E-15
 20
-0.250000000000018
 30
0.0
 40
1.8
 50
180.0
 51
360.0
  0
LINE
  5
    66
  8
0
  6
CONTINUOUS
 62
     0
 10
1.8
 20
-0.250000000000018
 30
0.0
 11
1.8
 21
0.249999999999979
 31
0.0
  0
LINE
  5
    67
  8
0
  6
CONTINUOUS
 62
     0
 10
2.6
 20
-0.250000000000018
 30
0.0
 11
2.6
 21
0.249999999999979
 31
0.0
  0
LINE
  5
    68
  8
0
  6
CONTINUOUS
 62
     0
 10
-1.8
 20
-0.250000000000032
 30
0.0
 11
-1.8
 21
0.249999999999964
 31
0.0
  0
LINE
  5
    69
  8
0
  6
CONTINUOUS
 62
     0
 10
-2.6
 20
-0.250000000000018
 30
0.0
 11
-2.6
 21
0.249999999999979
 31
0.0
  0
LINE
  5
    6A
  8
0
  6
CONTINUOUS
 62
     0
 10
3.4
 20
-2.85000000000002
 30
0.0
 11
3.4
 21
2.84999999999998
 31
0.0
  0
LINE
  5
    6B
  8
0
  6
CONTINUOUS
 62
     0
 10
4.19999999999999
 20
-2.85000000000002
 30
0.0
 11
4.19999999999999
 21
0.649999999999981
 31
0.0
  0
LINE
  5
    6C
  8
0
  6
CONTINUOUS
 62
     0
 10
6.99999999999999
 20
-2.85000000000002
 30
0.0
 11
6.99999999999999
 21
0.649999999999981
 31
0.0
  0
LINE
  5
    6D
  8
0
  6
CONTINUOUS
 62
     0
 10
7.79999999999999
 20
-2.85000000000002
 30
0.0
 11
7.79999999999999
 21
0.84999999999998
 31
0.0
  0
LINE
  5
    6E
  8
0
  6
CONTINUOUS
 62
     0
 10
3.4
 20
2.84999999999998
 30
0.0
 11
4.19999999999999
 21
2.84999999999998
 31
0.0
  0
ARC
  5
    6F
  8
0
  6
CONTINUOUS
 62
     0
 10
5.59999999999999
 20
0.649999999999981
 30
0.0
 40
1.4
 50
0.0
 51
180.0
  0
LINE
  5
    70
  8
0
  6
CONTINUOUS
 62
     0
 10
4.19999999999999
 20
2.05
 30
0.0
 11
4.19999999999999
 21
2.84999999999998
 31
0.0
  0
ARC
  5
    71
  8
0
  6
CONTINUOUS
 62
     0
 10
5.79999999999999
 20
0.84999999999998
 30
0.0
 40
2.0
 50
0.0
 51
143.130102354155
  0
LINE
  5
    72
  8
0
  6
CONTINUOUS
 62
     0
 10
6.99999999999999
 20
-2.85000000000002
 30
0.0
 11
7.79999999999999
 21
-2.85000000000002
 31
0.0
  0
ENDBLK
  5
    73
  8
0
  6
CONTINUOUS
 62
     0
  0
BLOCK
  5
    74
  8
0
  6
CONTINUOUS
 62
     7
  2
COPRITERMINALI
 70
    64
 10
0.0
 20
0.0
 30
0.0
  3
COPRITERMINALI
  0
LINE
  5
    75
  8
0
  6
CONTINUOUS
 62
     3
 10
-67.3620591556077
 20
-26.500002349857
 30
0.0
 11
51.499997307872
 21
-26.4999847412093
 31
0.0
  0
LINE
  5
    76
  8
0
  6
CONTINUOUS
 62
     3
 10
-48.204234418284
 20
-3.2146989469386E-15
 30
0.0
 11
51.2499820490807
 21
-3.2146989469386E-15
 31
0.0
  0
LINE
  5
    77
  8
0
  6
CONTINUOUS
 62
     3
 10
52.5000359267571
 20
-25.4999999999854
 30
0.0
 11
52.5000359267571
 21
-1.24999999998545
 31
0.0
  0
LINE
  5
    78
  8
0
  6
CONTINUOUS
 62
     3
 10
51.2499875325437
 20
6.62021609443286E-6
 30
0.0
 11
52.1338681534683
 21
-0.366112771113006
 31
0.0
  0
LINE
  5
    79
  8
0
  6
CONTINUOUS
 62
     3
 10
52.1338651254927
 20
-0.366107818105295
 30
0.0
 11
52.4999845168218
 21
-1.24998843902992
 31
0.0
  0
LINE
  5
    7A
  8
0
  6
CONTINUOUS
 62
     3
 10
48.3499881525963
 20
-25.5
 30
0.0
 11
48.3499881525963
 21
-0.310653686523438
 31
0.0
  0
LINE
  5
    7B
  8
0
  6
CONTINUOUS
 62
     3
 10
44.7499820490806
 20
-25.5
 30
0.0
 11
44.7499820490806
 21
-0.310653686523438
 31
0.0
  0
LINE
  5
    7C
  8
0
  6
CONTINUOUS
 62
     3
 10
41.1499835749596
 20
-25.5
 30
0.0
 11
41.1499835749596
 21
-0.310653686523438
 31
0.0
  0
LINE
  5
    7D
  8
0
  6
CONTINUOUS
 62
     3
 10
37.5499851008385
 20
-25.5
 30
0.0
 11
37.5499851008385
 21
-0.310653686523438
 31
0.0
  0
LINE
  5
    7E
  8
0
  6
CONTINUOUS
 62
     3
 10
33.9499866267174
 20
-25.5
 30
0.0
 11
33.9499866267174
 21
-0.310653686523438
 31
0.0
  0
LINE
  5
    7F
  8
0
  6
CONTINUOUS
 62
     3
 10
30.3499881525963
 20
-25.5
 30
0.0
 11
30.3499881525963
 21
-0.310653686523438
 31
0.0
  0
LINE
  5
    80
  8
0
  6
CONTINUOUS
 62
     3
 10
26.7499820490806
 20
-25.5
 30
0.0
 11
26.7499820490806
 21
-0.310653686523438
 31
0.0
  0
LINE
  5
    81
  8
0
  6
CONTINUOUS
 62
     3
 10
23.1499835749596
 20
-25.5
 30
0.0
 11
23.1499835749596
 21
-0.310653686523438
 31
0.0
  0
LINE
  5
    82
  8
0
  6
CONTINUOUS
 62
     3
 10
19.5499851008385
 20
-25.5
 30
0.0
 11
19.5499851008385
 21
-0.310653686523438
 31
0.0
  0
LINE
  5
    83
  8
0
  6
CONTINUOUS
 62
     3
 10
15.9499866267174
 20
-25.5
 30
0.0
 11
15.9499866267174
 21
-0.310653686523438
 31
0.0
  0
LINE
  5
    84
  8
0
  6
CONTINUOUS
 62
     3
 10
12.3499881525963
 20
-25.5
 30
0.0
 11
12.3499881525963
 21
-0.310653686523438
 31
0.0
  0
LINE
  5
    85
  8
0
  6
CONTINUOUS
 62
     3
 10
8.74998586377791
 20
-25.5
 30
0.0
 11
8.74998586377791
 21
-0.310653686523438
 31
0.0
  0
LINE
  5
    86
  8
0
  6
CONTINUOUS
 62
     3
 10
5.14998738965681
 20
-25.5
 30
0.0
 11
5.14998738965681
 21
-0.310653686523438
 31
0.0
  0
LINE
  5
    87
  8
0
  6
CONTINUOUS
 62
     3
 10
1.54998510083846
 20
-25.5
 30
0.0
 11
1.54998510083846
 21
-0.310653686523438
 31
0.0
  0
LINE
  5
    88
  8
0
  6
CONTINUOUS
 62
     3
 10
-2.05001337328264
 20
-25.5
 30
0.0
 11
-2.05001337328264
 21
-0.310653686523438
 31
0.0
  0
LINE
  5
    89
  8
0
  6
CONTINUOUS
 62
     3
 10
-5.650015662101
 20
-25.5
 30
0.0
 11
-5.650015662101
 21
-0.310653686523438
 31
0.0
  0
LINE
  5
    8A
  8
0
  6
CONTINUOUS
 62
     3
 10
-9.25001413622209
 20
-25.5
 30
0.0
 11
-9.25001413622209
 21
-0.310653686523438
 31
0.0
  0
LINE
  5
    8B
  8
0
  6
CONTINUOUS
 62
     3
 10
-31.0500133732826
 20
-25.5
 30
0.0
 11
-31.0500133732826
 21
-0.310653686523438
 31
0.0
  0
LINE
  5
    8C
  8
0
  6
CONTINUOUS
 62
     3
 10
-52.8500126103432
 20
-25.5
 30
0.0
 11
-52.8500126103432
 21
-10.5526452153014
 31
0.0
  0
LINE
  5
    8D
  8
0
  6
CONTINUOUS
 62
     3
 10
-56.4500148991615
 20
-25.5
 30
0.0
 11
-56.4500148991615
 21
-11.7502612748529
 31
0.0
  0
LINE
  5
    8E
  8
0
  6
CONTINUOUS
 62
     3
 10
-60.0500133732826
 20
-25.5
 30
0.0
 11
-60.0500133732826
 21
-20.2083545248035
 31
0.0
  0
LINE
  5
    8F
  8
0
  6
CONTINUOUS
 62
     3
 10
-63.6500137547524
 20
-25.5
 30
0.0
 11
-63.6500137547524
 21
-22.6912873624742
 31
0.0
  0
LINE
  5
    90
  8
0
  6
CONTINUOUS
 62
     3
 10
51.4999973078697
 20
-26.4999847412109
 30
0.0
 11
51.4999973078697
 21
-25.4999847412109
 31
0.0
  0
LINE
  5
    91
  8
0
  6
CONTINUOUS
 62
     3
 10
51.4999973323171
 20
-25.4999847240978
 30
0.0
 11
52.4999897029225
 21
-25.4999999828869
 31
0.0
  0
LINE
  5
    92
  8
0
  6
CONTINUOUS
 62
     3
 10
-67.1497200056689
 20
-25.5000021667411
 30
0.0
 11
51.499997307872
 21
-25.4999847412093
 31
0.0
  0
LINE
  5
    93
  8
0
  6
CONTINUOUS
 62
     3
 10
-27.4500148991615
 20
-25.5
 30
0.0
 11
-27.4500148991615
 21
-0.310653686523438
 31
0.0
  0
LINE
  5
    94
  8
0
  6
CONTINUOUS
 62
     3
 10
-23.8500126103432
 20
-25.5
 30
0.0
 11
-23.8500126103432
 21
-0.310653686523438
 31
0.0
  0
LINE
  5
    95
  8
0
  6
CONTINUOUS
 62
     3
 10
-20.2500141362221
 20
-25.5
 30
0.0
 11
-20.2500141362221
 21
-0.310653686523438
 31
0.0
  0
LINE
  5
    96
  8
0
  6
CONTINUOUS
 62
     3
 10
-16.6500141362221
 20
-25.5
 30
0.0
 11
-16.6500141362221
 21
-0.310653686523438
 31
0.0
  0
LINE
  5
    97
  8
0
  6
CONTINUOUS
 62
     3
 10
-13.0500141362221
 20
-25.5
 30
0.0
 11
-13.0500141362221
 21
-0.310653686523438
 31
0.0
  0
LINE
  5
    98
  8
0
  6
CONTINUOUS
 62
     3
 10
-34.6500133732826
 20
-25.5
 30
0.0
 11
-34.6500133732826
 21
-0.310653686523438
 31
0.0
  0
LINE
  5
    99
  8
0
  6
CONTINUOUS
 62
     3
 10
-38.2500133732826
 20
-25.5
 30
0.0
 11
-38.2500133732826
 21
-0.310653686523438
 31
0.0
  0
LINE
  5
    9A
  8
0
  6
CONTINUOUS
 62
     3
 10
-41.8500133732826
 20
-25.5
 30
0.0
 11
-41.8500133732826
 21
-0.310653686523438
 31
0.0
  0
LINE
  5
    9B
  8
0
  6
CONTINUOUS
 62
     3
 10
-45.4500133732826
 20
-25.5
 30
0.0
 11
-45.4500133732826
 21
-0.310653686523438
 31
0.0
  0
LINE
  5
    9C
  8
0
  6
CONTINUOUS
 62
     3
 10
-49.0500133732826
 20
-25.5
 30
0.0
 11
-49.0500133732826
 21
-6.05307151234209
 31
0.0
  0
POLYLINE
  5
    9D
  8
0
  6
CONTINUOUS
 62
     3
 66
     1
 10
0.0
 20
0.0
 30
0.0
  0
VERTEX
  5
    9E
  8
0
  6
CONTINUOUS
 10
-46.876787240646
 20
0.854569660673267
 30
0.0
 40
0.0
 41
0.0
  0
VERTEX
  5
    9F
  8
0
  6
CONTINUOUS
 10
-46.9721723301049
 20
0.814458521844115
 30
0.0
 40
0.0
 41
0.0
  0
VERTEX
  5
    A0
  8
0
  6
CONTINUOUS
 10
-47.066998293645
 20
0.772002007537208
 30
0.0
 40
0.0
 41
0.0
  0
VERTEX
  5
    A1
  8
0
  6
CONTINUOUS
 10
-47.16125591826
 20
0.727198910056833
 30
0.0
 40
0.0
 41
0.0
  0
VERTEX
  5
    A2
  8
0
  6
CONTINUOUS
 10
-47.2549212501342
 20
0.680046089394138
 30
0.0
 40
0.0
 41
0.0
  0
VERTEX
  5
    A3
  8
0
  6
CONTINUOUS
 10
-47.3479482242371
 20
0.630537507070556
 30
0.0
 40
0.0
 41
0.0
  0
VERTEX
  5
    A4
  8
0
  6
CONTINUOUS
 10
-47.4402612939189
 20
0.578663259981243
 30
0.0
 40
0.0
 41
0.0
  0
VERTEX
  5
    A5
  8
0
  6
CONTINUOUS
 10
-47.5317480605055
 20
0.524408614238501
 30
0.0
 40
0.0
 41
0.0
  0
VERTEX
  5
    A6
  8
0
  6
CONTINUOUS
 10
-47.6222519028934
 20
0.467753039015211
 30
0.0
 40
0.0
 41
0.0
  0
VERTEX
  5
    A7
  8
0
  6
CONTINUOUS
 10
-47.7115646071452
 20
0.408669240388261
 30
0.0
 40
0.0
 41
0.0
  0
VERTEX
  5
    A8
  8
0
  6
CONTINUOUS
 10
-47.7994189960847
 20
0.347122195181976
 30
0.0
 40
0.0
 41
0.0
  0
VERTEX
  5
    A9
  8
0
  6
CONTINUOUS
 10
-47.8744094036274
 20
0.291538104300929
 30
0.0
 40
0.0
 41
0.0
  0
VERTEX
  5
    AA
  8
0
  6
CONTINUOUS
 10
-47.9477851957828
 20
0.234022888600338
 30
0.0
 40
0.0
 41
0.0
  0
VERTEX
  5
    AB
  8
0
  6
CONTINUOUS
 10
-48.0192619240741
 20
0.174540805801248
 30
0.0
 40
0.0
 41
0.0
  0
VERTEX
  5
    AC
  8
0
  6
CONTINUOUS
 10
-48.0885474289283
 20
0.113057574682874
 30
0.0
 40
0.0
 41
0.0
  0
VERTEX
  5
    AD
  8
0
  6
CONTINUOUS
 10
-48.1553590975857
 20
4.95438732895123E-2
 30
0.0
 40
0.0
 41
0.0
  0
VERTEX
  5
    AE
  8
0
  6
CONTINUOUS
 10
-48.2194411220097
 20
-1.60211628625482E-2
 30
0.0
 40
0.0
 41
0.0
  0
VERTEX
  5
    AF
  8
0
  6
CONTINUOUS
 10
-48.2805817567964
 20
-8.36464425781117E-2
 30
0.0
 40
0.0
 41
0.0
  0
VERTEX
  5
    B0
  8
0
  6
CONTINUOUS
 10
-48.3386305770846
 20
-0.153325420776165
 30
0.0
 40
0.0
 41
0.0
  0
VERTEX
  5
    B1
  8
0
  6
CONTINUOUS
 10
-48.3935157364654
 20
-0.225032600282964
 30
0.0
 40
0.0
 41
0.0
  0
VERTEX
  5
    B2
  8
0
  6
CONTINUOUS
 10
-48.4452612248918
 20
-0.298720033625123
 30
0.0
 40
0.0
 41
0.0
  0
VERTEX
  5
    B3
  8
0
  6
CONTINUOUS
 10
-48.4945971743327
 20
-0.375274090034215
 30
0.0
 40
0.0
 41
0.0
  0
VERTEX
  5
    B4
  8
0
  6
CONTINUOUS
 10
-48.5411199712386
 20
-0.453677416963222
 30
0.0
 40
0.0
 41
0.0
  0
VERTEX
  5
    B5
  8
0
  6
CONTINUOUS
 10
-48.5851955010915
 20
-0.533799511234888
 30
0.0
 40
0.0
 41
0.0
  0
VERTEX
  5
    B6
  8
0
  6
CONTINUOUS
 10
-48.6272544551347
 20
-0.615490141070743
 30
0.0
 40
0.0
 41
0.0
  0
VERTEX
  5
    B7
  8
0
  6
CONTINUOUS
 10
-48.7071527912846
 20
-0.782911109456327
 30
0.0
 40
0.0
 41
0.0
  0
VERTEX
  5
    B8
  8
0
  6
CONTINUOUS
 10
-48.8604455148392
 20
-1.12908861351996
 30
0.0
 40
0.0
 41
0.0
  0
VERTEX
  5
    B9
  8
0
  6
CONTINUOUS
 10
-48.942363984087
 20
-1.32160002840039
 30
0.0
 40
0.0
 41
0.0
  0
VERTEX
  5
    BA
  8
0
  6
CONTINUOUS
 10
-48.9815702511215
 20
-1.41831744205082
 30
0.0
 40
0.0
 41
0.0
  0
VERTEX
  5
    BB
  8
0
  6
CONTINUOUS
 10
-49.0185023284674
 20
-1.5152229170637
 30
0.0
 40
0.0
 41
0.0
  0
VERTEX
  5
    BC
  8
0
  6
CONTINUOUS
 10
-49.0521693675626
 20
-1.61225337717485
 30
0.0
 40
0.0
 41
0.0
  0
VERTEX
  5
    BD
  8
0
  6
CONTINUOUS
 10
-49.0815320854607
 20
-1.70936097859737
 30
0.0
 40
0.0
 41
0.0
  0
VERTEX
  5
    BE
  8
0
  6
CONTINUOUS
 10
-49.1055701962376
 20
-1.8065079832067
 30
0.0
 40
0.0
 41
0.0
  0
VERTEX
  5
    BF
  8
0
  6
CONTINUOUS
 10
-49.1233498423979
 20
-1.90366163172566
 30
0.0
 40
0.0
 41
0.0
  0
VERTEX
  5
    C0
  8
0
  6
CONTINUOUS
 10
-49.1340910262817
 20
-2.00078901690942
 30
0.0
 40
0.0
 41
0.0
  0
VERTEX
  5
    C1
  8
0
  6
CONTINUOUS
 10
-49.1372350414708
 20
-2.09785195673061
 30
0.0
 40
0.0
 41
0.0
  0
VERTEX
  5
    C2
  8
0
  6
CONTINUOUS
 10
-49.1358232619671
 20
-2.14710524229059
 30
0.0
 40
0.0
 41
0.0
  0
VERTEX
  5
    C3
  8
0
  6
CONTINUOUS
 10
-49.1323739713713
 20
-2.1963219487161
 30
0.0
 40
0.0
 41
0.0
  0
VERTEX
  5
    C4
  8
0
  6
CONTINUOUS
 10
-49.1194594478628
 20
-2.29461102766857
 30
0.0
 40
0.0
 41
0.0
  0
VERTEX
  5
    C5
  8
0
  6
CONTINUOUS
 10
-49.0988760300133
 20
-2.39264518092583
 30
0.0
 40
0.0
 41
0.0
  0
VERTEX
  5
    C6
  8
0
  6
CONTINUOUS
 10
-49.0712752613472
 20
-2.49034743073488
 30
0.0
 40
0.0
 41
0.0
  0
VERTEX
  5
    C7
  8
0
  6
CONTINUOUS
 10
-49.0375196427265
 20
-2.58764461480102
 30
0.0
 40
0.0
 41
0.0
  0
VERTEX
  5
    C8
  8
0
  6
CONTINUOUS
 10
-48.9986266052311
 20
-2.68447416683697
 30
0.0
 40
0.0
 41
0.0
  0
VERTEX
  5
    C9
  8
0
  6
CONTINUOUS
 10
-48.9557124830401
 20
-2.78079089711194
 30
0.0
 40
0.0
 41
0.0
  0
VERTEX
  5
    CA
  8
0
  6
CONTINUOUS
 10
-48.9099364863125
 20
-2.87657377300071
 30
0.0
 40
0.0
 41
0.0
  0
VERTEX
  5
    CB
  8
0
  6
CONTINUOUS
 10
-48.7020288292589
 20
-3.29180058338533
 30
0.0
 40
0.0
 41
0.0
  0
VERTEX
  5
    CC
  8
0
  6
CONTINUOUS
 10
-48.6495225791305
 20
-3.40425499016458
 30
0.0
 40
0.0
 41
0.0
  0
VERTEX
  5
    CD
  8
0
  6
CONTINUOUS
 10
-48.6005048396674
 20
-3.51708301702234
 30
0.0
 40
0.0
 41
0.0
  0
VERTEX
  5
    CE
  8
0
  6
CONTINUOUS
 10
-48.5554864155453
 20
-3.63065813177049
 30
0.0
 40
0.0
 41
0.0
  0
VERTEX
  5
    CF
  8
0
  6
CONTINUOUS
 10
-48.5148078551671
 20
-3.74533661348495
 30
0.0
 40
0.0
 41
0.0
  0
VERTEX
  5
    D0
  8
0
  6
CONTINUOUS
 10
-48.4786891897255
 20
-3.86142713837128
 30
0.0
 40
0.0
 41
0.0
  0
VERTEX
  5
    D1
  8
0
  6
CONTINUOUS
 10
-48.4472796722663
 20
-3.97916036563029
 30
0.0
 40
0.0
 41
0.0
  0
VERTEX
  5
    D2
  8
0
  6
CONTINUOUS
 10
-48.4207075167511
 20
-4.09865852332369
 30
0.0
 40
0.0
 41
0.0
  0
VERTEX
  5
    D3
  8
0
  6
CONTINUOUS
 10
-48.3991296371198
 20
-4.21990499423965
 30
0.0
 40
0.0
 41
0.0
  0
VERTEX
  5
    D4
  8
0
  6
CONTINUOUS
 10
-48.3828459265565
 20
-4.34212376266901
 30
0.0
 40
0.0
 41
0.0
  0
VERTEX
  5
    D5
  8
0
  6
CONTINUOUS
 10
-48.3720784841544
 20
-4.4655282211303
 30
0.0
 40
0.0
 41
0.0
  0
VERTEX
  5
    D6
  8
0
  6
CONTINUOUS
 10
-48.3672532284227
 20
-4.58960084911821
 30
0.0
 40
0.0
 41
0.0
  0
VERTEX
  5
    D7
  8
0
  6
CONTINUOUS
 10
-48.3688488551705
 20
-4.71370894500943
 30
0.0
 40
0.0
 41
0.0
  0
VERTEX
  5
    D8
  8
0
  6
CONTINUOUS
 10
-48.3773603547595
 20
-4.8371449754347
 30
0.0
 40
0.0
 41
0.0
  0
VERTEX
  5
    D9
  8
0
  6
CONTINUOUS
 10
-48.3932625293561
 20
-4.95916692465084
 30
0.0
 40
0.0
 41
0.0
  0
VERTEX
  5
    DA
  8
0
  6
CONTINUOUS
 10
-48.4041189970733
 20
-5.01941623983992
 30
0.0
 40
0.0
 41
0.0
  0
VERTEX
  5
    DB
  8
0
  6
CONTINUOUS
 10
-48.4169735101835
 20
-5.07903864391286
 30
0.0
 40
0.0
 41
0.0
  0
VERTEX
  5
    DC
  8
0
  6
CONTINUOUS
 10
-48.4318634948038
 20
-5.13794965481385
 30
0.0
 40
0.0
 41
0.0
  0
VERTEX
  5
    DD
  8
0
  6
CONTINUOUS
 10
-48.4488182747742
 20
-5.19607020084598
 30
0.0
 40
0.0
 41
0.0
  0
VERTEX
  5
    DE
  8
0
  6
CONTINUOUS
 10
-48.4678579315712
 20
-5.25332788158911
 30
0.0
 40
0.0
 41
0.0
  0
VERTEX
  5
    DF
  8
0
  6
CONTINUOUS
 10
-48.4889921642223
 20
-5.30965822881773
 30
0.0
 40
0.0
 41
0.0
  0
VERTEX
  5
    E0
  8
0
  6
CONTINUOUS
 10
-48.5122191492199
 20
-5.36500596741888
 30
0.0
 40
0.0
 41
0.0
  0
VERTEX
  5
    E1
  8
0
  6
CONTINUOUS
 10
-48.5375244004356
 20
-5.41932627630998
 30
0.0
 40
0.0
 41
0.0
  0
VERTEX
  5
    E2
  8
0
  6
CONTINUOUS
 10
-48.5677587154249
 20
-5.4779122789146
 30
0.0
 40
0.0
 41
0.0
  0
VERTEX
  5
    E3
  8
0
  6
CONTINUOUS
 10
-48.6004204523439
 20
-5.53518589695186
 30
0.0
 40
0.0
 41
0.0
  0
VERTEX
  5
    E4
  8
0
  6
CONTINUOUS
 10
-48.6354318661118
 20
-5.59113801743105
 30
0.0
 40
0.0
 41
0.0
  0
VERTEX
  5
    E5
  8
0
  6
CONTINUOUS
 10
-48.6726973557968
 20
-5.64577577440599
 30
0.0
 40
0.0
 41
0.0
  0
VERTEX
  5
    E6
  8
0
  6
CONTINUOUS
 10
-48.7121055206197
 20
-5.69912113438762
 30
0.0
 40
0.0
 41
0.0
  0
VERTEX
  5
    E7
  8
0
  6
CONTINUOUS
 10
-48.7535312159572
 20
-5.75120948175672
 30
0.0
 40
0.0
 41
0.0
  0
VERTEX
  5
    E8
  8
0
  6
CONTINUOUS
 10
-48.7968376093459
 20
-5.80208820417647
 30
0.0
 40
0.0
 41
0.0
  0
VERTEX
  5
    E9
  8
0
  6
CONTINUOUS
 10
-48.8418782364854
 20
-5.8518152780052
 30
0.0
 40
0.0
 41
0.0
  0
VERTEX
  5
    EA
  8
0
  6
CONTINUOUS
 10
-48.9365405116538
 20
-5.94809084127414
 30
0.0
 40
0.0
 41
0.0
  0
VERTEX
  5
    EB
  8
0
  6
CONTINUOUS
 10
-49.0362318184611
 20
-6.04065800201248
 30
0.0
 40
0.0
 41
0.0
  0
VERTEX
  5
    EC
  8
0
  6
CONTINUOUS
 10
-49.1396434087467
 20
-6.1302174762001
 30
0.0
 40
0.0
 41
0.0
  0
VERTEX
  5
    ED
  8
0
  6
CONTINUOUS
 10
-49.2455098013047
 20
-6.21750359855253
 30
0.0
 40
0.0
 41
0.0
  0
VERTEX
  5
    EE
  8
0
  6
CONTINUOUS
 10
-49.6312746214166
 20
-6.52355755212585
 30
0.0
 40
0.0
 41
0.0
  0
VERTEX
  5
    EF
  8
0
  6
CONTINUOUS
 10
-49.7997765043331
 20
-6.65978873310561
 30
0.0
 40
0.0
 41
0.0
  0
VERTEX
  5
    F0
  8
0
  6
CONTINUOUS
 10
-49.9654295618095
 20
-6.79769668643006
 30
0.0
 40
0.0
 41
0.0
  0
VERTEX
  5
    F1
  8
0
  6
CONTINUOUS
 10
-50.1287786859521
 20
-6.93771867655301
 30
0.0
 40
0.0
 41
0.0
  0
VERTEX
  5
    F2
  8
0
  6
CONTINUOUS
 10
-50.2905247357692
 20
-7.08006343609966
 30
0.0
 40
0.0
 41
0.0
  0
VERTEX
  5
    F3
  8
0
  6
CONTINUOUS
 10
-50.4744209257413
 20
-7.24655558620616
 30
0.0
 40
0.0
 41
0.0
  0
VERTEX
  5
    F4
  8
0
  6
CONTINUOUS
 10
-50.6555677915854
 20
-7.41700050538541
 30
0.0
 40
0.0
 41
0.0
  0
VERTEX
  5
    F5
  8
0
  6
CONTINUOUS
 10
-50.832212467677
 20
-7.59205176567915
 30
0.0
 40
0.0
 41
0.0
  0
VERTEX
  5
    F6
  8
0
  6
CONTINUOUS
 10
-50.9183248965502
 20
-7.68143067467104
 30
0.0
 40
0.0
 41
0.0
  0
VERTEX
  5
    F7
  8
0
  6
CONTINUOUS
 10
-51.0028019981568
 20
-7.77203700499503
 30
0.0
 40
0.0
 41
0.0
  0
VERTEX
  5
    F8
  8
0
  6
CONTINUOUS
 10
-51.167024903436
 20
-7.95656360376644
 30
0.0
 40
0.0
 41
0.0
  0
VERTEX
  5
    F9
  8
0
  6
CONTINUOUS
 10
-51.4361655821791
 20
-8.2733871536075
 30
0.0
 40
0.0
 41
0.0
  0
VERTEX
  5
    FA
  8
0
  6
CONTINUOUS
 10
-51.5727316250447
 20
-8.43117900952498
 30
0.0
 40
0.0
 41
0.0
  0
VERTEX
  5
    FB
  8
0
  6
CONTINUOUS
 10
-51.713695709368
 20
-8.58694114170117
 30
0.0
 40
0.0
 41
0.0
  0
VERTEX
  5
    FC
  8
0
  6
CONTINUOUS
 10
-52.008949861537
 20
-8.89875184225645
 30
0.0
 40
0.0
 41
0.0
  0
VERTEX
  5
    FD
  8
0
  6
CONTINUOUS
 10
-52.0819666457296
 20
-8.97903083253852
 30
0.0
 40
0.0
 41
0.0
  0
VERTEX
  5
    FE
  8
0
  6
CONTINUOUS
 10
-52.1521085243137
 20
-9.06103296813225
 30
0.0
 40
0.0
 41
0.0
  0
VERTEX
  5
    FF
  8
0
  6
CONTINUOUS
 10
-52.2181709241192
 20
-9.14540479306699
 30
0.0
 40
0.0
 41
0.0
  0
VERTEX
  5
   100
  8
0
  6
CONTINUOUS
 10
-52.2790567687472
 20
-9.23272497901959
 30
0.0
 40
0.0
 41
0.0
  0
VERTEX
  5
   101
  8
0
  6
CONTINUOUS
 10
-52.3338845840438
 20
-9.32344385262423
 30
0.0
 40
0.0
 41
0.0
  0
VERTEX
  5
   102
  8
0
  6
CONTINUOUS
 10
-52.382096603575
 20
-9.41782292278212
 30
0.0
 40
0.0
 41
0.0
  0
VERTEX
  5
   103
  8
0
  6
CONTINUOUS
 10
-52.4235668741009
 20
-9.51587440797125
 30
0.0
 40
0.0
 41
0.0
  0
VERTEX
  5
   104
  8
0
  6
CONTINUOUS
 10
-52.4587093610502
 20
-9.61730076355612
 30
0.0
 40
0.0
 41
0.0
  0
VERTEX
  5
   105
  8
0
  6
CONTINUOUS
 10
-52.4955000691671
 20
-9.74809695400102
 30
0.0
 40
0.0
 41
0.0
  0
VERTEX
  5
   106
  8
0
  6
CONTINUOUS
 10
-52.5596582263839
 20
-10.0131261654084
 30
0.0
 40
0.0
 41
0.0
  0
VERTEX
  5
   107
  8
0
  6
CONTINUOUS
 10
-52.5772361364227
 20
-10.0779737770645
 30
0.0
 40
0.0
 41
0.0
  0
VERTEX
  5
   108
  8
0
  6
CONTINUOUS
 10
-52.5966644004176
 20
-10.1414927576059
 30
0.0
 40
0.0
 41
0.0
  0
VERTEX
  5
   109
  8
0
  6
CONTINUOUS
 10
-52.618501728714
 20
-10.2033242934322
 30
0.0
 40
0.0
 41
0.0
  0
VERTEX
  5
   10A
  8
0
  6
CONTINUOUS
 10
-52.6432357121379
 20
-10.2631429923632
 30
0.0
 40
0.0
 41
0.0
  0
VERTEX
  5
   10B
  8
0
  6
CONTINUOUS
 10
-52.6691443135657
 20
-10.3166454704866
 30
0.0
 40
0.0
 41
0.0
  0
VERTEX
  5
   10C
  8
0
  6
CONTINUOUS
 10
-52.6981210083247
 20
-10.3679886199315
 30
0.0
 40
0.0
 41
0.0
  0
VERTEX
  5
   10D
  8
0
  6
CONTINUOUS
 10
-52.7303147164829
 20
-10.417031440941
 30
0.0
 40
0.0
 41
0.0
  0
VERTEX
  5
   10E
  8
0
  6
CONTINUOUS
 10
-52.7658000219236
 20
-10.4636713000283
 30
0.0
 40
0.0
 41
0.0
  0
VERTEX
  5
   10F
  8
0
  6
CONTINUOUS
 10
-52.8045838915856
 20
-10.5078414093533
 30
0.0
 40
0.0
 41
0.0
  0
VERTEX
  5
   110
  8
0
  6
CONTINUOUS
 10
-52.8466123947047
 20
-10.5495083060998
 30
0.0
 40
0.0
 41
0.0
  0
VERTEX
  5
   111
  8
0
  6
CONTINUOUS
 10
-52.8917774220537
 20
-10.5886693318526
 30
0.0
 40
0.0
 41
0.0
  0
VERTEX
  5
   112
  8
0
  6
CONTINUOUS
 10
-52.9399234051833
 20
-10.625350111974
 30
0.0
 40
0.0
 41
0.0
  0
VERTEX
  5
   113
  8
0
  6
CONTINUOUS
 10
-52.9908540356628
 20
-10.6596020349809
 30
0.0
 40
0.0
 41
0.0
  0
VERTEX
  5
   114
  8
0
  6
CONTINUOUS
 10
-53.0443389843207
 20
-10.6914997319222
 30
0.0
 40
0.0
 41
0.0
  0
VERTEX
  5
   115
  8
0
  6
CONTINUOUS
 10
-53.1001206204854
 20
-10.7211385557551
 30
0.0
 40
0.0
 41
0.0
  0
VERTEX
  5
   116
  8
0
  6
CONTINUOUS
 10
-53.1579207312257
 20
-10.7486320607222
 30
0.0
 40
0.0
 41
0.0
  0
VERTEX
  5
   117
  8
0
  6
CONTINUOUS
 10
-53.2174472405918
 20
-10.7741094817288
 30
0.0
 40
0.0
 41
0.0
  0
VERTEX
  5
   118
  8
0
  6
CONTINUOUS
 10
-53.2784009288556
 20
-10.7977132137193
 30
0.0
 40
0.0
 41
0.0
  0
VERTEX
  5
   119
  8
0
  6
CONTINUOUS
 10
-53.4033975597173
 20
-10.8399198668889
 30
0.0
 40
0.0
 41
0.0
  0
VERTEX
  5
   11A
  8
0
  6
CONTINUOUS
 10
-53.530629321569
 20
-10.8765585968987
 30
0.0
 40
0.0
 41
0.0
  0
VERTEX
  5
   11B
  8
0
  6
CONTINUOUS
 10
-53.6581306431205
 20
-10.9089852211703
 30
0.0
 40
0.0
 41
0.0
  0
VERTEX
  5
   11C
  8
0
  6
CONTINUOUS
 10
-54.1360283944759
 20
-11.017646180962
 30
0.0
 40
0.0
 41
0.0
  0
VERTEX
  5
   11D
  8
0
  6
CONTINUOUS
 10
-54.2896405438277
 20
-11.0544657914475
 30
0.0
 40
0.0
 41
0.0
  0
VERTEX
  5
   11E
  8
0
  6
CONTINUOUS
 10
-54.5784857748733
 20
-11.1300584480822
 30
0.0
 40
0.0
 41
0.0
  0
VERTEX
  5
   11F
  8
0
  6
CONTINUOUS
 10
-54.8540094310194
 20
-11.2055160258634
 30
0.0
 40
0.0
 41
0.0
  0
VERTEX
  5
   120
  8
0
  6
CONTINUOUS
 10
-55.1343414518224
 20
-11.2780379233458
 30
0.0
 40
0.0
 41
0.0
  0
VERTEX
  5
   121
  8
0
  6
CONTINUOUS
 10
-55.5316379407962
 20
-11.372272226925
 30
0.0
 40
0.0
 41
0.0
  0
VERTEX
  5
   122
  8
0
  6
CONTINUOUS
 10
-55.7273204325452
 20
-11.4226562541322
 30
0.0
 40
0.0
 41
0.0
  0
VERTEX
  5
   123
  8
0
  6
CONTINUOUS
 10
-55.8235439610079
 20
-11.4508578562996
 30
0.0
 40
0.0
 41
0.0
  0
VERTEX
  5
   124
  8
0
  6
CONTINUOUS
 10
-55.9183784697148
 20
-11.4819290068923
 30
0.0
 40
0.0
 41
0.0
  0
VERTEX
  5
   125
  8
0
  6
CONTINUOUS
 10
-56.0116213921944
 20
-11.5164355053387
 30
0.0
 40
0.0
 41
0.0
  0
VERTEX
  5
   126
  8
0
  6
CONTINUOUS
 10
-56.1031047950331
 20
-11.5548274499774
 30
0.0
 40
0.0
 41
0.0
  0
VERTEX
  5
   127
  8
0
  6
CONTINUOUS
 10
-56.2059067970184
 20
-11.6041173400154
 30
0.0
 40
0.0
 41
0.0
  0
VERTEX
  5
   128
  8
0
  6
CONTINUOUS
 10
-56.3061126763002
 20
-11.6590648526259
 30
0.0
 40
0.0
 41
0.0
  0
VERTEX
  5
   129
  8
0
  6
CONTINUOUS
 10
-56.4036967655598
 20
-11.7195213839729
 30
0.0
 40
0.0
 41
0.0
  0
VERTEX
  5
   12A
  8
0
  6
CONTINUOUS
 10
-56.4987105525829
 20
-11.785095496122
 30
0.0
 40
0.0
 41
0.0
  0
VERTEX
  5
   12B
  8
0
  6
CONTINUOUS
 10
-56.5912759928138
 20
-11.8552057326018
 30
0.0
 40
0.0
 41
0.0
  0
VERTEX
  5
   12C
  8
0
  6
CONTINUOUS
 10
-56.6815788219087
 20
-11.9291334339649
 30
0.0
 40
0.0
 41
0.0
  0
VERTEX
  5
   12D
  8
0
  6
CONTINUOUS
 10
-56.7698618682894
 20
-12.006075553349
 30
0.0
 40
0.0
 41
0.0
  0
VERTEX
  5
   12E
  8
0
  6
CONTINUOUS
 10
-56.8564183656966
 20
-12.0851974720373
 30
0.0
 40
0.0
 41
0.0
  0
VERTEX
  5
   12F
  8
0
  6
CONTINUOUS
 10
-57.2796119009183
 20
-12.4918383998786
 30
0.0
 40
0.0
 41
0.0
  0
VERTEX
  5
   130
  8
0
  6
CONTINUOUS
 10
-57.4079466278769
 20
-12.6117155924002
 30
0.0
 40
0.0
 41
0.0
  0
VERTEX
  5
   131
  8
0
  6
CONTINUOUS
 10
-57.5385394029979
 20
-12.7297207853732
 30
0.0
 40
0.0
 41
0.0
  0
VERTEX
  5
   132
  8
0
  6
CONTINUOUS
 10
-57.8570302533775
 20
-13.0073151067949
 30
0.0
 40
0.0
 41
0.0
  0
VERTEX
  5
   133
  8
0
  6
CONTINUOUS
 10
-58.0402364310749
 20
-13.1716228200656
 30
0.0
 40
0.0
 41
0.0
  0
VERTEX
  5
   134
  8
0
  6
CONTINUOUS
 10
-58.1286691568917
 20
-13.256356918105
 30
0.0
 40
0.0
 41
0.0
  0
VERTEX
  5
   135
  8
0
  6
CONTINUOUS
 10
-58.2136408196092
 20
-13.3434626291575
 30
0.0
 40
0.0
 41
0.0
  0
VERTEX
  5
   136
  8
0
  6
CONTINUOUS
 10
-58.2941919241894
 20
-13.4333724310396
 30
0.0
 40
0.0
 41
0.0
  0
VERTEX
  5
   137
  8
0
  6
CONTINUOUS
 10
-58.3694842207708
 20
-13.5264456250909
 30
0.0
 40
0.0
 41
0.0
  0
VERTEX
  5
   138
  8
0
  6
CONTINUOUS
 10
-58.4388676618016
 20
-13.6229447632713
 30
0.0
 40
0.0
 41
0.0
  0
VERTEX
  5
   139
  8
0
  6
CONTINUOUS
 10
-58.5019473591737
 20
-13.7230120752584
 30
0.0
 40
0.0
 41
0.0
  0
VERTEX
  5
   13A
  8
0
  6
CONTINUOUS
 10
-58.5358624317258
 20
-13.7831755180109
 30
0.0
 40
0.0
 41
0.0
  0
VERTEX
  5
   13B
  8
0
  6
CONTINUOUS
 10
-58.5676330892729
 20
-13.8445360253167
 30
0.0
 40
0.0
 41
0.0
  0
VERTEX
  5
   13C
  8
0
  6
CONTINUOUS
 10
-58.5973423361025
 20
-13.9070508693606
 30
0.0
 40
0.0
 41
0.0
  0
VERTEX
  5
   13D
  8
0
  6
CONTINUOUS
 10
-58.6251087585445
 20
-13.9706617735877
 30
0.0
 40
0.0
 41
0.0
  0
VERTEX
  5
   13E
  8
0
  6
CONTINUOUS
 10
-58.675435754757
 20
-14.1008729669627
 30
0.0
 40
0.0
 41
0.0
  0
VERTEX
  5
   13F
  8
0
  6
CONTINUOUS
 10
-58.7200867461478
 20
-14.2344687620318
 30
0.0
 40
0.0
 41
0.0
  0
VERTEX
  5
   140
  8
0
  6
CONTINUOUS
 10
-58.7607876492137
 20
-14.3706281146139
 30
0.0
 40
0.0
 41
0.0
  0
VERTEX
  5
   141
  8
0
  6
CONTINUOUS
 10
-58.8769290409358
 20
-14.7858241441825
 30
0.0
 40
0.0
 41
0.0
  0
VERTEX
  5
   142
  8
0
  6
CONTINUOUS
 10
-58.9186225935464
 20
-14.9238734031226
 30
0.0
 40
0.0
 41
0.0
  0
VERTEX
  5
   143
  8
0
  6
CONTINUOUS
 10
-58.9632632368931
 20
-15.0608281206445
 30
0.0
 40
0.0
 41
0.0
  0
VERTEX
  5
   144
  8
0
  6
CONTINUOUS
 10
-59.0324608318663
 20
-15.2559322737805
 30
0.0
 40
0.0
 41
0.0
  0
VERTEX
  5
   145
  8
0
  6
CONTINUOUS
 10
-59.1746884604719
 20
-15.6410099666828
 30
0.0
 40
0.0
 41
0.0
  0
VERTEX
  5
   146
  8
0
  6
CONTINUOUS
 10
-59.2071212836522
 20
-15.7373110324778
 30
0.0
 40
0.0
 41
0.0
  0
VERTEX
  5
   147
  8
0
  6
CONTINUOUS
 10
-59.2368880125135
 20
-15.8340565302503
 30
0.0
 40
0.0
 41
0.0
  0
VERTEX
  5
   148
  8
0
  6
CONTINUOUS
 10
-59.2633942447427
 20
-15.9314346261064
 30
0.0
 40
0.0
 41
0.0
  0
VERTEX
  5
   149
  8
0
  6
CONTINUOUS
 10
-59.2861843512966
 20
-16.0295914638552
 30
0.0
 40
0.0
 41
0.0
  0
VERTEX
  5
   14A
  8
0
  6
CONTINUOUS
 10
-59.3056866962201
 20
-16.1327874726206
 30
0.0
 40
0.0
 41
0.0
  0
VERTEX
  5
   14B
  8
0
  6
CONTINUOUS
 10
-59.3207992808675
 20
-16.2369450571471
 30
0.0
 40
0.0
 41
0.0
  0
VERTEX
  5
   14C
  8
0
  6
CONTINUOUS
 10
-59.3316886577972
 20
-16.342013091211
 30
0.0
 40
0.0
 41
0.0
  0
VERTEX
  5
   14D
  8
0
  6
CONTINUOUS
 10
-59.3387087480678
 20
-16.4478833952309
 30
0.0
 40
0.0
 41
0.0
  0
VERTEX
  5
   14E
  8
0
  6
CONTINUOUS
 10
-59.3423584351225
 20
-16.5544062595768
 30
0.0
 40
0.0
 41
0.0
  0
VERTEX
  5
   14F
  8
0
  6
CONTINUOUS
 10
-59.343239158674
 20
-16.6614059678782
 30
0.0
 40
0.0
 41
0.0
  0
VERTEX
  5
   150
  8
0
  6
CONTINUOUS
 10
-59.3393578187727
 20
-16.8760961570168
 30
0.0
 40
0.0
 41
0.0
  0
VERTEX
  5
   151
  8
0
  6
CONTINUOUS
 10
-59.3271704528649
 20
-17.2665435303121
 30
0.0
 40
0.0
 41
0.0
  0
VERTEX
  5
   152
  8
0
  6
CONTINUOUS
 10
-59.3241344747255
 20
-17.4418257019242
 30
0.0
 40
0.0
 41
0.0
  0
VERTEX
  5
   153
  8
0
  6
CONTINUOUS
 10
-59.3238300644854
 20
-17.6167653196172
 30
0.0
 40
0.0
 41
0.0
  0
VERTEX
  5
   154
  8
0
  6
CONTINUOUS
 10
-59.3264889990811
 20
-17.7917622505967
 30
0.0
 40
0.0
 41
0.0
  0
VERTEX
  5
   155
  8
0
  6
CONTINUOUS
 10
-59.3323159390686
 20
-17.9671181502765
 30
0.0
 40
0.0
 41
0.0
  0
VERTEX
  5
   156
  8
0
  6
CONTINUOUS
 10
-59.3453829603276
 20
-18.1929905227059
 30
0.0
 40
0.0
 41
0.0
  0
VERTEX
  5
   157
  8
0
  6
CONTINUOUS
 10
-59.3549439116289
 20
-18.3058793285854
 30
0.0
 40
0.0
 41
0.0
  0
VERTEX
  5
   158
  8
0
  6
CONTINUOUS
 10
-59.3670565093288
 20
-18.4184782750455
 30
0.0
 40
0.0
 41
0.0
  0
VERTEX
  5
   159
  8
0
  6
CONTINUOUS
 10
-59.382167394954
 20
-18.5305471914244
 30
0.0
 40
0.0
 41
0.0
  0
VERTEX
  5
   15A
  8
0
  6
CONTINUOUS
 10
-59.4007253909322
 20
-18.6418288170663
 30
0.0
 40
0.0
 41
0.0
  0
VERTEX
  5
   15B
  8
0
  6
CONTINUOUS
 10
-59.4231522333009
 20
-18.7520655371682
 30
0.0
 40
0.0
 41
0.0
  0
VERTEX
  5
   15C
  8
0
  6
CONTINUOUS
 10
-59.4498133044163
 20
-18.861016118628
 30
0.0
 40
0.0
 41
0.0
  0
VERTEX
  5
   15D
  8
0
  6
CONTINUOUS
 10
-59.4809883656617
 20
-18.9684724458921
 30
0.0
 40
0.0
 41
0.0
  0
VERTEX
  5
   15E
  8
0
  6
CONTINUOUS
 10
-59.5168422901563
 20
-19.0742762568029
 30
0.0
 40
0.0
 41
0.0
  0
VERTEX
  5
   15F
  8
0
  6
CONTINUOUS
 10
-59.5508282768014
 20
-19.1623758082511
 30
0.0
 40
0.0
 41
0.0
  0
VERTEX
  5
   160
  8
0
  6
CONTINUOUS
 10
-59.588100928146
 20
-19.2492135707165
 30
0.0
 40
0.0
 41
0.0
  0
VERTEX
  5
   161
  8
0
  6
CONTINUOUS
 10
-59.6285106506373
 20
-19.3348107440423
 30
0.0
 40
0.0
 41
0.0
  0
VERTEX
  5
   162
  8
0
  6
CONTINUOUS
 10
-59.6718493372476
 20
-19.419215240711
 30
0.0
 40
0.0
 41
0.0
  0
VERTEX
  5
   163
  8
0
  6
CONTINUOUS
 10
-59.7178654276163
 20
-19.5024937490753
 30
0.0
 40
0.0
 41
0.0
  0
VERTEX
  5
   164
  8
0
  6
CONTINUOUS
 10
-59.766278968193
 20
-19.5847237965891
 30
0.0
 40
0.0
 41
0.0
  0
VERTEX
  5
   165
  8
0
  6
CONTINUOUS
 10
-59.816796672379
 20
-19.6659858130387
 30
0.0
 40
0.0
 41
0.0
  0
VERTEX
  5
   166
  8
0
  6
CONTINUOUS
 10
-59.8691269806699
 20
-19.7463551937734
 30
0.0
 40
0.0
 41
0.0
  0
VERTEX
  5
   167
  8
0
  6
CONTINUOUS
 10
-59.9781581678757
 20
-19.9046448366978
 30
0.0
 40
0.0
 41
0.0
  0
VERTEX
  5
   168
  8
0
  6
CONTINUOUS
 10
-60.0915082969296
 20
-20.0596236999003
 30
0.0
 40
0.0
 41
0.0
  0
VERTEX
  5
   169
  8
0
  6
CONTINUOUS
 10
-60.2083641707162
 20
-20.211240387609
 30
0.0
 40
0.0
 41
0.0
  0
VERTEX
  5
   16A
  8
0
  6
CONTINUOUS
 10
-60.3284147719052
 20
-20.3590569763764
 30
0.0
 40
0.0
 41
0.0
  0
VERTEX
  5
   16B
  8
0
  6
CONTINUOUS
 10
-60.4516229385372
 20
-20.5028026638838
 30
0.0
 40
0.0
 41
0.0
  0
VERTEX
  5
   16C
  8
0
  6
CONTINUOUS
 10
-60.5778688089108
 20
-20.6427502410487
 30
0.0
 40
0.0
 41
0.0
  0
VERTEX
  5
   16D
  8
0
  6
CONTINUOUS
 10
-60.9380960971257
 20
-21.0246334865642
 30
0.0
 40
0.0
 41
0.0
  0
VERTEX
  5
   16E
  8
0
  6
CONTINUOUS
 10
-61.0581709105919
 20
-21.1552642191847
 30
0.0
 40
0.0
 41
0.0
  0
VERTEX
  5
   16F
  8
0
  6
CONTINUOUS
 10
-61.288878430415
 20
-21.4133115971157
 30
0.0
 40
0.0
 41
0.0
  0
VERTEX
  5
   170
  8
0
  6
CONTINUOUS
 10
-61.4022141217159
 20
-21.5353075679826
 30
0.0
 40
0.0
 41
0.0
  0
VERTEX
  5
   171
  8
0
  6
CONTINUOUS
 10
-61.4603690062895
 20
-21.5939233843692
 30
0.0
 40
0.0
 41
0.0
  0
VERTEX
  5
   172
  8
0
  6
CONTINUOUS
 10
-61.5199233516786
 20
-21.6501879383873
 30
0.0
 40
0.0
 41
0.0
  0
VERTEX
  5
   173
  8
0
  6
CONTINUOUS
 10
-61.5811662776662
 20
-21.7035631153289
 30
0.0
 40
0.0
 41
0.0
  0
VERTEX
  5
   174
  8
0
  6
CONTINUOUS
 10
-61.6443521304584
 20
-21.7535776643201
 30
0.0
 40
0.0
 41
0.0
  0
VERTEX
  5
   175
  8
0
  6
CONTINUOUS
 10
-61.7096828089487
 20
-21.7998600864867
 30
0.0
 40
0.0
 41
0.0
  0
VERTEX
  5
   176
  8
0
  6
CONTINUOUS
 10
-61.7772900909812
 20
-21.8421715231191
 30
0.0
 40
0.0
 41
0.0
  0
VERTEX
  5
   177
  8
0
  6
CONTINUOUS
 10
-61.8649971123245
 20
-21.8893514512912
 30
0.0
 40
0.0
 41
0.0
  0
VERTEX
  5
   178
  8
0
  6
CONTINUOUS
 10
-61.9561914685274
 20
-21.9304900829859
 30
0.0
 40
0.0
 41
0.0
  0
VERTEX
  5
   179
  8
0
  6
CONTINUOUS
 10
-62.0505341649051
 20
-21.9662406906271
 30
0.0
 40
0.0
 41
0.0
  0
VERTEX
  5
   17A
  8
0
  6
CONTINUOUS
 10
-62.1475168247707
 20
-21.9975704040302
 30
0.0
 40
0.0
 41
0.0
  0
VERTEX
  5
   17B
  8
0
  6
CONTINUOUS
 10
-62.2465053904025
 20
-22.0256755970331
 30
0.0
 40
0.0
 41
0.0
  0
VERTEX
  5
   17C
  8
0
  6
CONTINUOUS
 10
-62.5481984494615
 20
-22.1042695716197
 30
0.0
 40
0.0
 41
0.0
  0
VERTEX
  5
   17D
  8
0
  6
CONTINUOUS
 10
-62.6478859740875
 20
-22.1330638339555
 30
0.0
 40
0.0
 41
0.0
  0
VERTEX
  5
   17E
  8
0
  6
CONTINUOUS
 10
-62.7460534341918
 20
-22.1650926375226
 30
0.0
 40
0.0
 41
0.0
  0
VERTEX
  5
   17F
  8
0
  6
CONTINUOUS
 10
-62.8380422604624
 20
-22.1994720960271
 30
0.0
 40
0.0
 41
0.0
  0
VERTEX
  5
   180
  8
0
  6
CONTINUOUS
 10
-62.9279402935778
 20
-22.2379486651124
 30
0.0
 40
0.0
 41
0.0
  0
VERTEX
  5
   181
  8
0
  6
CONTINUOUS
 10
-63.0156115600922
 20
-22.2806690824789
 30
0.0
 40
0.0
 41
0.0
  0
VERTEX
  5
   182
  8
0
  6
CONTINUOUS
 10
-63.1010386836134
 20
-22.3275523161831
 30
0.0
 40
0.0
 41
0.0
  0
VERTEX
  5
   183
  8
0
  6
CONTINUOUS
 10
-63.1843069222687
 20
-22.3783272868815
 30
0.0
 40
0.0
 41
0.0
  0
VERTEX
  5
   184
  8
0
  6
CONTINUOUS
 10
-63.2655882061707
 20
-22.4325705900748
 30
0.0
 40
0.0
 41
0.0
  0
VERTEX
  5
   185
  8
0
  6
CONTINUOUS
 10
-63.3451251748836
 20
-22.4897442183515
 30
0.0
 40
0.0
 41
0.0
  0
VERTEX
  5
   186
  8
0
  6
CONTINUOUS
 10
-63.4232152148889
 20
-22.5492332836324
 30
0.0
 40
0.0
 41
0.0
  0
VERTEX
  5
   187
  8
0
  6
CONTINUOUS
 10
-63.5764220140867
 20
-22.6725401030139
 30
0.0
 40
0.0
 41
0.0
  0
VERTEX
  5
   188
  8
0
  6
CONTINUOUS
 10
-63.8113339206481
 20
-22.8649186198633
 30
0.0
 40
0.0
 41
0.0
  0
VERTEX
  5
   189
  8
0
  6
CONTINUOUS
 10
-63.9304683194442
 20
-22.958104372728
 30
0.0
 40
0.0
 41
0.0
  0
VERTEX
  5
   18A
  8
0
  6
CONTINUOUS
 10
-64.0519279349322
 20
-23.0478603207112
 30
0.0
 40
0.0
 41
0.0
  0
VERTEX
  5
   18B
  8
0
  6
CONTINUOUS
 10
-64.1761326551218
 20
-23.1338559807333
 30
0.0
 40
0.0
 41
0.0
  0
VERTEX
  5
   18C
  8
0
  6
CONTINUOUS
 10
-64.2735498321719
 20
-23.1976656539615
 30
0.0
 40
0.0
 41
0.0
  0
VERTEX
  5
   18D
  8
0
  6
CONTINUOUS
 10
-64.3722544227116
 20
-23.2598517346376
 30
0.0
 40
0.0
 41
0.0
  0
VERTEX
  5
   18E
  8
0
  6
CONTINUOUS
 10
-64.5715916876636
 20
-23.3819012399772
 30
0.0
 40
0.0
 41
0.0
  0
VERTEX
  5
   18F
  8
0
  6
CONTINUOUS
 10
-64.7695122125136
 20
-23.5058843095658
 30
0.0
 40
0.0
 41
0.0
  0
VERTEX
  5
   190
  8
0
  6
CONTINUOUS
 10
-64.8664668704031
 20
-23.5704260530012
 30
0.0
 40
0.0
 41
0.0
  0
VERTEX
  5
   191
  8
0
  6
CONTINUOUS
 10
-64.9614733277003
 20
-23.6374192413284
 30
0.0
 40
0.0
 41
0.0
  0
VERTEX
  5
   192
  8
0
  6
CONTINUOUS
 10
-65.054285209774
 20
-23.7071701689618
 30
0.0
 40
0.0
 41
0.0
  0
VERTEX
  5
   193
  8
0
  6
CONTINUOUS
 10
-65.1448959983324
 20
-23.7796982095404
 30
0.0
 40
0.0
 41
0.0
  0
VERTEX
  5
   194
  8
0
  6
CONTINUOUS
 10
-65.2641888251843
 20
-23.8812747908382
 30
0.0
 40
0.0
 41
0.0
  0
VERTEX
  5
   195
  8
0
  6
CONTINUOUS
 10
-65.49940018567
 20
-24.0894852112582
 30
0.0
 40
0.0
 41
0.0
  0
VERTEX
  5
   196
  8
0
  6
CONTINUOUS
 10
-65.619794639565
 20
-24.1908008907433
 30
0.0
 40
0.0
 41
0.0
  0
VERTEX
  5
   197
  8
0
  6
CONTINUOUS
 10
-65.7446066393677
 20
-24.2871456750317
 30
0.0
 40
0.0
 41
0.0
  0
VERTEX
  5
   198
  8
0
  6
CONTINUOUS
 10
-65.84604246744
 20
-24.3584216148119
 30
0.0
 40
0.0
 41
0.0
  0
VERTEX
  5
   199
  8
0
  6
CONTINUOUS
 10
-65.9504811476783
 20
-24.4261189384386
 30
0.0
 40
0.0
 41
0.0
  0
VERTEX
  5
   19A
  8
0
  6
CONTINUOUS
 10
-66.057223671759
 20
-24.4909392225542
 30
0.0
 40
0.0
 41
0.0
  0
VERTEX
  5
   19B
  8
0
  6
CONTINUOUS
 10
-66.2730625710444
 20
-24.6167274749574
 30
0.0
 40
0.0
 41
0.0
  0
VERTEX
  5
   19C
  8
0
  6
CONTINUOUS
 10
-66.3793318322096
 20
-24.6806884942493
 30
0.0
 40
0.0
 41
0.0
  0
VERTEX
  5
   19D
  8
0
  6
CONTINUOUS
 10
-66.4824724089502
 20
-24.7475035104286
 30
0.0
 40
0.0
 41
0.0
  0
VERTEX
  5
   19E
  8
0
  6
CONTINUOUS
 10
-66.5810212949853
 20
-24.8186988010266
 30
0.0
 40
0.0
 41
0.0
  0
VERTEX
  5
   19F
  8
0
  6
CONTINUOUS
 10
-66.6281627838984
 20
-24.8563599822619
 30
0.0
 40
0.0
 41
0.0
  0
VERTEX
  5
   1A0
  8
0
  6
CONTINUOUS
 10
-66.6736952341597
 20
-24.8955829853369
 30
0.0
 40
0.0
 41
0.0
  0
VERTEX
  5
   1A1
  8
0
  6
CONTINUOUS
 10
-66.7175045110198
 20
-24.9364764552129
 30
0.0
 40
0.0
 41
0.0
  0
VERTEX
  5
   1A2
  8
0
  6
CONTINUOUS
 10
-66.7595015703502
 20
-24.9791194916107
 30
0.0
 40
0.0
 41
0.0
  0
VERTEX
  5
   1A3
  8
0
  6
CONTINUOUS
 10
-66.8080687210611
 20
-25.0334237968855
 30
0.0
 40
0.0
 41
0.0
  0
VERTEX
  5
   1A4
  8
0
  6
CONTINUOUS
 10
-66.853816873738
 20
-25.0903948029959
 30
0.0
 40
0.0
 41
0.0
  0
VERTEX
  5
   1A5
  8
0
  6
CONTINUOUS
 10
-66.8967584589399
 20
-25.1499727390513
 30
0.0
 40
0.0
 41
0.0
  0
VERTEX
  5
   1A6
  8
0
  6
CONTINUOUS
 10
-66.9369582415151
 20
-25.2120371572073
 30
0.0
 40
0.0
 41
0.0
  0
VERTEX
  5
   1A7
  8
0
  6
CONTINUOUS
 10
-66.9745244088504
 20
-25.2764176957828
 30
0.0
 40
0.0
 41
0.0
  0
VERTEX
  5
   1A8
  8
0
  6
CONTINUOUS
 10
-67.0095996591198
 20
-25.3429048423786
 30
0.0
 40
0.0
 41
0.0
  0
VERTEX
  5
   1A9
  8
0
  6
CONTINUOUS
 10
-67.042352289534
 20
-25.4112606969944
 30
0.0
 40
0.0
 41
0.0
  0
VERTEX
  5
   1AA
  8
0
  6
CONTINUOUS
 10
-67.0729672845889
 20
-25.4812297351467
 30
0.0
 40
0.0
 41
0.0
  0
VERTEX
  5
   1AB
  8
0
  6
CONTINUOUS
 10
-67.1016374043149
 20
-25.5525495709867
 30
0.0
 40
0.0
 41
0.0
  0
VERTEX
  5
   1AC
  8
0
  6
CONTINUOUS
 10
-67.1285542725257
 20
-25.6249617204178
 30
0.0
 40
0.0
 41
0.0
  0
VERTEX
  5
   1AD
  8
0
  6
CONTINUOUS
 10
-67.1740701678125
 20
-25.7601717168483
 30
0.0
 40
0.0
 41
0.0
  0
VERTEX
  5
   1AE
  8
0
  6
CONTINUOUS
 10
-67.2152397124185
 20
-25.8969522846526
 30
0.0
 40
0.0
 41
0.0
  0
VERTEX
  5
   1AF
  8
0
  6
CONTINUOUS
 10
-67.2528487937167
 20
-26.034249424305
 30
0.0
 40
0.0
 41
0.0
  0
VERTEX
  5
   1B0
  8
0
  6
CONTINUOUS
 10
-67.2875098618665
 20
-26.1712417430715
 30
0.0
 40
0.0
 41
0.0
  0
VERTEX
  5
   1B1
  8
0
  6
CONTINUOUS
 10
-67.3497006512032
 20
-26.4420149258769
 30
0.0
 40
0.0
 41
0.0
  0
VERTEX
  5
   1B2
  8
0
  6
CONTINUOUS
 10
-67.4040667642018
 20
-26.7062479447742
 30
0.0
 40
0.0
 41
0.0
  0
VERTEX
  5
   1B3
  8
0
  6
CONTINUOUS
 10
-67.4514753869293
 20
-26.9627777658039
 30
0.0
 40
0.0
 41
0.0
  0
SEQEND
  5
   1B4
  8
0
  6
CONTINUOUS
 62
     3
  0
ENDBLK
  5
   1B5
  8
0
  6
CONTINUOUS
 62
     7
  0
BLOCK
  5
   1B6
  8
0
  6
CONTINUOUS
 62
     7
  2
*UDIM77
 70
    65
 10
0.0
 20
0.0
 30
0.0
  3
*UDIM77
  0
TEXT
  5
   1B7
  8
0
  6
CONTINUOUS
 62
     7
 10
-462.002937320427
 20
-13.150959823896
 30
0.0
 40
3.00000002980232
  1
161
 50
89.9999999480344
 41
0.933333333333333
 72
     1
 11
-463.502937331796
 21
-9.25095978379443
 31
0.0
 73
     2
  0
LINE
  5
   1B8
  8
0
  6
CONTINUOUS
 62
     7
 10
-476.301333737211
 20
-49.2259616851826
 30
0.0
 11
-459.002937316895
 21
-49.2259616851826
 31
0.0
  0
LINE
  5
   1B9
  8
0
  6
CONTINUOUS
 62
     7
 10
-476.301333737211
 20
31.2740364074688
 30
0.0
 11
-459.002937316895
 21
31.2740364074688
 31
0.0
  0
LINE
  5
   1BA
  8
0
  6
CONTINUOUS
 62
     7
 10
-461.002937316895
 20
-49.2259616851826
 30
0.0
 11
-461.002937316895
 21
31.2740364074688
 31
0.0
  0
LINE
  5
   1BB
  8
0
  6
CONTINUOUS
 62
     7
 10
-461.523881746846
 20
-46.2715384079756
 30
0.0
 11
-461.002937316895
 21
-49.2259616851826
 31
0.0
  0
LINE
  5
   1BC
  8
0
  6
CONTINUOUS
 62
     7
 10
-461.002937316895
 20
-49.2259616851826
 30
0.0
 11
-460.481992886943
 21
-46.2715384079756
 31
0.0
  0
LINE
  5
   1BD
  8
0
  6
CONTINUOUS
 62
     7
 10
-460.481992886943
 20
28.3196131302618
 30
0.0
 11
-461.002937316895
 21
31.2740364074688
 31
0.0
  0
LINE
  5
   1BE
  8
0
  6
CONTINUOUS
 62
     7
 10
-461.002937316895
 20
31.2740364074688
 30
0.0
 11
-461.523881746846
 21
28.3196131302618
 31
0.0
  0
ENDBLK
  5
   1BF
  8
0
  6
CONTINUOUS
 62
     7
  0
BLOCK
  5
   1C0
  8
0
  6
CONTINUOUS
 62
     7
  2
*UDIM78
 70
    65
 10
0.0
 20
0.0
 30
0.0
  3
*UDIM78
  0
TEXT
  5
   1C1
  8
0
  6
CONTINUOUS
 62
     7
 10
-510.101330594419
 20
103.79317474717
 30
0.0
 40
3.00000002980232
  1
117
 50
359.999999948034
 41
0.933333333333333
 72
     1
 11
-506.201330554323
 21
105.293174758554
 31
0.0
 73
     2
  0
LINE
  5
   1C2
  8
0
  6
CONTINUOUS
 62
     7
 10
-476.676333737211
 20
31.6490364074688
 30
0.0
 11
-476.676333737211
 21
104.793174743652
 31
0.0
  0
LINE
  5
   1C3
  8
0
  6
CONTINUOUS
 62
     7
 10
-535.176333737211
 20
31.6490364074688
 30
0.0
 11
-535.176333737211
 21
104.793174743652
 31
0.0
  0
LINE
  5
   1C4
  8
0
  6
CONTINUOUS
 62
     7
 10
-476.676333737211
 20
102.793174743652
 30
0.0
 11
-535.176333737211
 21
102.793174743652
 31
0.0
  0
LINE
  5
   1C5
  8
0
  6
CONTINUOUS
 62
     7
 10
-479.630757014418
 20
102.272230313701
 30
0.0
 11
-476.676333737211
 21
102.793174743652
 31
0.0
  0
LINE
  5
   1C6
  8
0
  6
CONTINUOUS
 62
     7
 10
-476.676333737211
 20
102.793174743652
 30
0.0
 11
-479.630757014418
 21
103.314119173604
 31
0.0
  0
LINE
  5
   1C7
  8
0
  6
CONTINUOUS
 62
     7
 10
-532.221910460004
 20
103.314119173604
 30
0.0
 11
-535.176333737211
 21
102.793174743652
 31
0.0
  0
LINE
  5
   1C8
  8
0
  6
CONTINUOUS
 62
     7
 10
-535.176333737211
 20
102.793174743652
 30
0.0
 11
-532.221910460004
 21
102.272230313701
 31
0.0
  0
ENDBLK
  5
   1C9
  8
0
  6
CONTINUOUS
 62
     7
  0
BLOCK
  5
   1CA
  8
0
  6
CONTINUOUS
 62
     7
  2
*UDIM79
 70
    65
 10
0.0
 20
0.0
 30
0.0
  3
*UDIM79
  0
TEXT
  5
   1CB
  8
0
  6
CONTINUOUS
 62
     7
 10
-560.19896865917
 20
70.7147761468871
 30
0.0
 40
3.00000002980232
  1
8,5
 50
336.880132574389
 41
0.933333333333333
 72
     1
 11
-556.023211499704
 21
70.5629456754346
 31
0.0
 73
     2
  0
TEXT
  5
   1CC
  8
0
  6
CONTINUOUS
 62
     7
 10
-563.095977675223
 20
71.9516426811163
 30
0.0
 40
3.00000002980232
  1
Ø
 50
336.880132574389
 41
0.933333333333334
 72
     1
 11
-561.495339656723
 21
72.8992491408219
 31
0.0
 73
     2
  0
LINE
  5
   1CD
  8
0
  6
CONTINUOUS
 62
     7
 10
-538.971968530623
 20
60.5646640835307
 30
0.0
 11
-563.48863371648
 21
71.031957280966
 31
0.0
  0
LINE
  5
   1CE
  8
0
  6
CONTINUOUS
 62
     7
 10
-536.050276602953
 20
59.8836969185437
 30
0.0
 11
-538.971968530623
 21
60.5646640835307
 31
0.0
  0
LINE
  5
   1CF
  8
0
  6
CONTINUOUS
 62
     7
 10
-538.971968530623
 20
60.5646640835307
 30
0.0
 11
-536.459380559003
 21
58.9254869470161
 31
0.0
  0
LINE
  5
   1D0
  8
0
  6
CONTINUOUS
 62
     7
 10
-545.802323402793
 20
62.9144194274926
 30
0.0
 11
-542.880631475124
 21
62.2334522625056
 31
0.0
  0
LINE
  5
   1D1
  8
0
  6
CONTINUOUS
 62
     7
 10
-542.880631475124
 20
62.2334522625056
 30
0.0
 11
-545.393219446743
 21
63.8726293990202
 31
0.0
  0
ENDBLK
  5
   1D2
  8
0
  6
CONTINUOUS
 62
     7
  0
BLOCK
  5
   1D3
  8
0
  6
CONTINUOUS
 62
     7
  2
*UDIM80
 70
    65
 10
0.0
 20
0.0
 30
0.0
  3
*UDIM80
  0
TEXT
  5
   1D4
  8
0
  6
CONTINUOUS
 62
     7
 10
-543.530510353647
 20
76.5266494773525
 30
0.0
 40
3.00000002980232
  1
20
 50
359.999999948034
 41
0.933333333333333
 72
     1
 11
-541.030510327459
 21
78.0266494899988
 31
0.0
 73
     2
  0
LINE
  5
   1D5
  8
0
  6
CONTINUOUS
 62
     7
 10
-535.926300002873
 20
68.6490581730181
 30
0.0
 11
-535.926300002873
 21
77.5266494750977
 31
0.0
  0
LINE
  5
   1D6
  8
0
  6
CONTINUOUS
 62
     7
 10
-545.926300002873
 20
68.6490581730181
 30
0.0
 11
-545.926300002873
 21
77.5266494750977
 31
0.0
  0
LINE
  5
   1D7
  8
0
  6
CONTINUOUS
 62
     7
 10
-535.926300002873
 20
75.5266494750977
 30
0.0
 11
-545.926300002873
 21
75.5266494750977
 31
0.0
  0
LINE
  5
   1D8
  8
0
  6
CONTINUOUS
 62
     7
 10
-538.88072328008
 20
75.005705045146
 30
0.0
 11
-535.926300002873
 21
75.5266494750977
 31
0.0
  0
LINE
  5
   1D9
  8
0
  6
CONTINUOUS
 62
     7
 10
-535.926300002873
 20
75.5266494750977
 30
0.0
 11
-538.88072328008
 21
76.0475939050493
 31
0.0
  0
LINE
  5
   1DA
  8
0
  6
CONTINUOUS
 62
     7
 10
-542.971876725666
 20
76.0475939050493
 30
0.0
 11
-545.926300002873
 21
75.5266494750977
 31
0.0
  0
LINE
  5
   1DB
  8
0
  6
CONTINUOUS
 62
     7
 10
-545.926300002873
 20
75.5266494750977
 30
0.0
 11
-542.971876725666
 21
75.005705045146
 31
0.0
  0
ENDBLK
  5
   1DC
  8
0
  6
CONTINUOUS
 62
     7
  0
BLOCK
  5
   1DD
  8
0
  6
CONTINUOUS
 62
     7
  2
*UDIM81
 70
    65
 10
0.0
 20
0.0
 30
0.0
  3
*UDIM81
  0
TEXT
  5
   1DE
  8
0
  6
CONTINUOUS
 62
     7
 10
-454.21010589826
 20
72.8740707272639
 30
0.0
 40
3.00000002980232
  1
83
 50
89.9999999480344
 41
0.933333333333333
 72
     1
 11
-455.710105910897
 21
75.3740707534577
 31
0.0
 73
     2
  0
LINE
  5
   1DF
  8
0
  6
CONTINUOUS
 62
     7
 10
-479.301350117973
 20
54.8990734416272
 30
0.0
 11
-451.210105895996
 21
54.8990734416272
 31
0.0
  0
LINE
  5
   1E0
  8
0
  6
CONTINUOUS
 62
     7
 10
-495.676305570273
 20
96.3990734416273
 30
0.0
 11
-451.210105895996
 21
96.3990734416273
 31
0.0
  0
LINE
  5
   1E1
  8
0
  6
CONTINUOUS
 62
     7
 10
-453.210105895996
 20
54.8990734416272
 30
0.0
 11
-453.210105895996
 21
96.3990734416273
 31
0.0
  0
LINE
  5
   1E2
  8
0
  6
CONTINUOUS
 62
     7
 10
-453.731050325948
 20
57.8534967188342
 30
0.0
 11
-453.210105895996
 21
54.8990734416272
 31
0.0
  0
LINE
  5
   1E3
  8
0
  6
CONTINUOUS
 62
     7
 10
-453.210105895996
 20
54.8990734416272
 30
0.0
 11
-452.689161466045
 21
57.8534967188342
 31
0.0
  0
LINE
  5
   1E4
  8
0
  6
CONTINUOUS
 62
     7
 10
-452.689161466045
 20
93.4446501644203
 30
0.0
 11
-453.210105895996
 21
96.3990734416273
 31
0.0
  0
LINE
  5
   1E5
  8
0
  6
CONTINUOUS
 62
     7
 10
-453.210105895996
 20
96.3990734416273
 30
0.0
 11
-453.731050325948
 21
93.4446501644203
 31
0.0
  0
ENDBLK
  5
   1E6
  8
0
  6
CONTINUOUS
 62
     7
  0
BLOCK
  5
   1E7
  8
0
  6
CONTINUOUS
 62
     7
  2
*UDIM82
 70
    65
 10
0.0
 20
0.0
 30
0.0
  3
*UDIM82
  0
TEXT
  5
   1E8
  8
0
  6
CONTINUOUS
 62
     7
 10
-469.948562629407
 20
14.5865630324023
 30
0.0
 40
3.00000002980232
  1
127,75
 50
89.9999999480344
 41
0.933333333333333
 72
     1
 11
-471.448562636972
 21
22.6865631142271
 31
0.0
 73
     2
  0
LINE
  5
   1E9
  8
0
  6
CONTINUOUS
 62
     7
 10
-475.24311271785
 20
-8.97594451904298
 30
0.0
 11
-466.94856262207
 21
-8.97594451904298
 31
0.0
  0
LINE
  5
   1EA
  8
0
  6
CONTINUOUS
 62
     7
 10
-479.301350117973
 20
54.8990734416272
 30
0.0
 11
-466.94856262207
 21
54.8990734416272
 31
0.0
  0
LINE
  5
   1EB
  8
0
  6
CONTINUOUS
 62
     7
 10
-468.94856262207
 20
-8.97594451904298
 30
0.0
 11
-468.94856262207
 21
54.8990734416272
 31
0.0
  0
LINE
  5
   1EC
  8
0
  6
CONTINUOUS
 62
     7
 10
-469.469507052022
 20
-6.02152124183602
 30
0.0
 11
-468.94856262207
 21
-8.97594451904298
 31
0.0
  0
LINE
  5
   1ED
  8
0
  6
CONTINUOUS
 62
     7
 10
-468.94856262207
 20
-8.97594451904298
 30
0.0
 11
-468.427618192119
 21
-6.02152124183602
 31
0.0
  0
LINE
  5
   1EE
  8
0
  6
CONTINUOUS
 62
     7
 10
-468.427618192119
 20
51.9446501644202
 30
0.0
 11
-468.94856262207
 21
54.8990734416272
 31
0.0
  0
LINE
  5
   1EF
  8
0
  6
CONTINUOUS
 62
     7
 10
-468.94856262207
 20
54.8990734416272
 30
0.0
 11
-469.469507052022
 21
51.9446501644202
 31
0.0
  0
ENDBLK
  5
   1F0
  8
0
  6
CONTINUOUS
 62
     7
  0
BLOCK
  5
   1F1
  8
0
  6
CONTINUOUS
 62
     7
  2
*UDIM83
 70
    65
 10
0.0
 20
0.0
 30
0.0
  3
*UDIM83
  0
TEXT
  5
   1F2
  8
0
  6
CONTINUOUS
 62
     7
 10
-454.210105899528
 20
-14.0259369316251
 30
0.0
 40
3.00000002980232
  1
259
 50
89.9999999480344
 41
0.933333333333333
 72
     1
 11
-455.710105910897
 21
-10.1259368915235
 31
0.0
 73
     2
  0
LINE
  5
   1F3
  8
0
  6
CONTINUOUS
 62
     7
 10
-481.676288787003
 20
-74.6009538884734
 30
0.0
 11
-451.210105895996
 21
-74.6009538884734
 31
0.0
  0
LINE
  5
   1F4
  8
0
  6
CONTINUOUS
 62
     7
 10
-479.301350117973
 20
54.8990734416272
 30
0.0
 11
-451.210105895996
 21
54.8990734416272
 31
0.0
  0
LINE
  5
   1F5
  8
0
  6
CONTINUOUS
 62
     7
 10
-453.210105895996
 20
-74.6009538884734
 30
0.0
 11
-453.210105895996
 21
54.8990734416272
 31
0.0
  0
LINE
  5
   1F6
  8
0
  6
CONTINUOUS
 62
     7
 10
-453.731050325948
 20
-71.6465306112664
 30
0.0
 11
-453.210105895996
 21
-74.6009538884734
 31
0.0
  0
LINE
  5
   1F7
  8
0
  6
CONTINUOUS
 62
     7
 10
-453.210105895996
 20
-74.6009538884734
 30
0.0
 11
-452.689161466045
 21
-71.6465306112664
 31
0.0
  0
LINE
  5
   1F8
  8
0
  6
CONTINUOUS
 62
     7
 10
-452.689161466045
 20
51.9446501644202
 30
0.0
 11
-453.210105895996
 21
54.8990734416272
 31
0.0
  0
LINE
  5
   1F9
  8
0
  6
CONTINUOUS
 62
     7
 10
-453.210105895996
 20
54.8990734416272
 30
0.0
 11
-453.731050325948
 21
51.9446501644202
 31
0.0
  0
ENDBLK
  5
   1FA
  8
0
  6
CONTINUOUS
 62
     7
  0
BLOCK
  5
   1FB
  8
0
  6
CONTINUOUS
 62
     5
  2
*UDIM84
 70
    65
 10
0.0
 20
0.0
 30
0.0
  3
*UDIM84
  0
TEXT
  5
   1FC
  8
0
  6
CONTINUOUS
 62
     5
 10
-565.012353010361
 20
13.9615401286269
 30
0.0
 40
3.00000002980232
  1
125,25
 50
89.9999999480344
 41
0.933333333333333
 72
     1
 11
-566.512353017926
 21
22.0615402104517
 31
0.0
 73
     2
  0
LINE
  5
   1FD
  8
0
  6
CONTINUOUS
 62
     5
 10
-548.926302707287
 20
53.6490155939381
 30
0.0
 11
-566.012353003025
 21
53.6490155939381
 31
0.0
  0
LINE
  5
   1FE
  8
0
  6
CONTINUOUS
 62
     5
 10
-564.012353003025
 20
-8.97594451904298
 30
0.0
 11
-564.012353003025
 21
53.6490155939381
 31
0.0
  0
LINE
  5
   1FF
  8
0
  6
CONTINUOUS
 62
     5
 10
-564.533297432977
 20
-6.02152124183602
 30
0.0
 11
-564.012353003025
 21
-8.97594451904298
 31
0.0
  0
LINE
  5
   200
  8
0
  6
CONTINUOUS
 62
     5
 10
-564.012353003025
 20
-8.97594451904298
 30
0.0
 11
-563.491408573073
 21
-6.02152124183602
 31
0.0
  0
LINE
  5
   201
  8
0
  6
CONTINUOUS
 62
     5
 10
-563.491408573073
 20
50.6945923167311
 30
0.0
 11
-564.012353003025
 21
53.6490155939381
 31
0.0
  0
LINE
  5
   202
  8
0
  6
CONTINUOUS
 62
     5
 10
-564.012353003025
 20
53.6490155939381
 30
0.0
 11
-564.533297432977
 21
50.6945923167311
 31
0.0
  0
ENDBLK
  5
   203
  8
0
  6
CONTINUOUS
 62
     5
  0
BLOCK
  5
   204
  8
0
  6
CONTINUOUS
 62
     7
  2
*UDIM85
 70
    65
 10
0.0
 20
0.0
 30
0.0
  3
*UDIM85
  0
TEXT
  5
   205
  8
0
  6
CONTINUOUS
 62
     7
 10
-510.10130009833
 20
-100.380424495994
 30
0.0
 40
3.00000002980232
  1
105
 50
359.999999948034
 41
0.933333333333333
 72
     1
 11
-506.201300058234
 21
-98.8804244846106
 31
0.0
 73
     2
  0
LINE
  5
   206
  8
0
  6
CONTINUOUS
 62
     7
 10
-479.676319304581
 20
40.3990325927734
 30
0.0
 11
-479.676319304581
 21
-103.380424499512
 31
0.0
  0
LINE
  5
   207
  8
0
  6
CONTINUOUS
 62
     7
 10
-532.176288786989
 20
-3.2259521484375
 30
0.0
 11
-532.176288786989
 21
-103.380424499512
 31
0.0
  0
LINE
  5
   208
  8
0
  6
CONTINUOUS
 62
     7
 10
-479.676319304581
 20
-101.380424499512
 30
0.0
 11
-532.176288786989
 21
-101.380424499512
 31
0.0
  0
LINE
  5
   209
  8
0
  6
CONTINUOUS
 62
     7
 10
-482.630742581788
 20
-101.901368929463
 30
0.0
 11
-479.676319304581
 21
-101.380424499512
 31
0.0
  0
LINE
  5
   20A
  8
0
  6
CONTINUOUS
 62
     7
 10
-479.676319304581
 20
-101.380424499512
 30
0.0
 11
-482.630742581788
 21
-100.85948006956
 31
0.0
  0
LINE
  5
   20B
  8
0
  6
CONTINUOUS
 62
     7
 10
-529.221865509782
 20
-100.85948006956
 30
0.0
 11
-532.176288786989
 21
-101.380424499512
 31
0.0
  0
LINE
  5
   20C
  8
0
  6
CONTINUOUS
 62
     7
 10
-532.176288786989
 20
-101.380424499512
 30
0.0
 11
-529.221865509782
 21
-101.901368929463
 31
0.0
  0
ENDBLK
  5
   20D
  8
0
  6
CONTINUOUS
 62
     7
  0
BLOCK
  5
   20E
  8
0
  6
CONTINUOUS
 62
     7
  2
*UDIM86
 70
    65
 10
0.0
 20
0.0
 30
0.0
  3
*UDIM86
  0
TEXT
  5
   20F
  8
0
  6
CONTINUOUS
 62
     7
 10
-499.951292436394
 20
-84.7236137367588
 30
0.0
 40
3.00000002980232
  1
35
 50
359.999999948034
 41
0.933333333333333
 72
     1
 11
-497.451292410206
 21
-83.2236137241125
 31
0.0
 73
     2
  0
LINE
  5
   210
  8
0
  6
CONTINUOUS
 62
     7
 10
-488.426288850006
 20
-69.1009417266065
 30
0.0
 11
-488.426297183942
 21
-87.7236137390135
 31
0.0
  0
LINE
  5
   211
  8
0
  6
CONTINUOUS
 62
     7
 10
-505.92629152802
 20
-80.7296003407966
 30
0.0
 11
-505.926297415248
 21
-87.723613739013
 31
0.0
  0
LINE
  5
   212
  8
0
  6
CONTINUOUS
 62
     7
 10
-488.426296288911
 20
-85.7236137390137
 30
0.0
 11
-505.926295731743
 21
-85.7236137390137
 31
0.0
  0
LINE
  5
   213
  8
0
  6
CONTINUOUS
 62
     7
 10
-491.380719566118
 20
-86.2445581689653
 30
0.0
 11
-488.426296288911
 21
-85.7236137390137
 31
0.0
  0
LINE
  5
   214
  8
0
  6
CONTINUOUS
 62
     7
 10
-488.426296288911
 20
-85.7236137390137
 30
0.0
 11
-491.380719566118
 21
-85.202669309062
 31
0.0
  0
LINE
  5
   215
  8
0
  6
CONTINUOUS
 62
     7
 10
-502.971872454536
 20
-85.202669309062
 30
0.0
 11
-505.926295731743
 21
-85.7236137390137
 31
0.0
  0
LINE
  5
   216
  8
0
  6
CONTINUOUS
 62
     7
 10
-505.926295731743
 20
-85.7236137390137
 30
0.0
 11
-502.971872454536
 21
-86.2445581689653
 31
0.0
  0
ENDBLK
  5
   217
  8
0
  6
CONTINUOUS
 62
     7
  0
BLOCK
  5
   218
  8
0
  6
CONTINUOUS
 62
     7
  2
*UDIM87
 70
    65
 10
0.0
 20
0.0
 30
0.0
  3
*UDIM87
  0
TEXT
  5
   219
  8
0
  6
CONTINUOUS
 62
     7
 10
-517.451288640559
 20
-84.7236137367588
 30
0.0
 40
3.00000002980232
  1
35
 50
359.999999948034
 41
0.933333333333333
 72
     1
 11
-514.951288614371
 21
-83.2236137241125
 31
0.0
 73
     2
  0
LINE
  5
   21A
  8
0
  6
CONTINUOUS
 62
     7
 10
-523.426289357708
 20
-69.1009444938117
 30
0.0
 11
-523.426301238463
 21
-87.7236137390133
 31
0.0
  0
LINE
  5
   21B
  8
0
  6
CONTINUOUS
 62
     7
 10
-505.926295731743
 20
-85.7236137390137
 30
0.0
 11
-523.426299962518
 21
-85.7236137390137
 31
0.0
  0
LINE
  5
   21C
  8
0
  6
CONTINUOUS
 62
     7
 10
-508.88071900895
 20
-86.2445581689653
 30
0.0
 11
-505.926295731743
 21
-85.7236137390137
 31
0.0
  0
LINE
  5
   21D
  8
0
  6
CONTINUOUS
 62
     7
 10
-505.926295731743
 20
-85.7236137390137
 30
0.0
 11
-508.88071900895
 21
-85.202669309062
 31
0.0
  0
LINE
  5
   21E
  8
0
  6
CONTINUOUS
 62
     7
 10
-520.471876685311
 20
-85.202669309062
 30
0.0
 11
-523.426299962518
 21
-85.7236137390137
 31
0.0
  0
LINE
  5
   21F
  8
0
  6
CONTINUOUS
 62
     7
 10
-523.426299962518
 20
-85.7236137390137
 30
0.0
 11
-520.471876685311
 21
-86.2445581689653
 31
0.0
  0
ENDBLK
  5
   220
  8
0
  6
CONTINUOUS
 62
     7
  0
BLOCK
  5
   221
  8
0
  6
CONTINUOUS
 62
     7
  2
*UDIM88
 70
    65
 10
0.0
 20
0.0
 30
0.0
  3
*UDIM88
  0
TEXT
  5
   222
  8
0
  6
CONTINUOUS
 62
     7
 10
-534.951284817237
 20
-84.7236137367588
 30
0.0
 40
3.00000002980232
  1
35
 50
359.999999948034
 41
0.933333333333333
 72
     1
 11
-532.451284791049
 21
-83.2236137241125
 31
0.0
 73
     2
  0
LINE
  5
   223
  8
0
  6
CONTINUOUS
 62
     7
 10
-540.926290449635
 20
-78.0509465583505
 30
0.0
 11
-540.92630046823
 21
-87.7236137390126
 31
0.0
  0
LINE
  5
   224
  8
0
  6
CONTINUOUS
 62
     7
 10
-523.426299962518
 20
-85.7236137390137
 30
0.0
 11
-540.926298396703
 21
-85.7236137390137
 31
0.0
  0
LINE
  5
   225
  8
0
  6
CONTINUOUS
 62
     7
 10
-526.380723239725
 20
-86.2445581689653
 30
0.0
 11
-523.426299962518
 21
-85.7236137390137
 31
0.0
  0
LINE
  5
   226
  8
0
  6
CONTINUOUS
 62
     7
 10
-523.426299962518
 20
-85.7236137390137
 30
0.0
 11
-526.380723239725
 21
-85.202669309062
 31
0.0
  0
LINE
  5
   227
  8
0
  6
CONTINUOUS
 62
     7
 10
-537.971875119496
 20
-85.202669309062
 30
0.0
 11
-540.926298396703
 21
-85.7236137390137
 31
0.0
  0
LINE
  5
   228
  8
0
  6
CONTINUOUS
 62
     7
 10
-540.926298396703
 20
-85.7236137390137
 30
0.0
 11
-537.971875119496
 21
-86.2445581689653
 31
0.0
  0
ENDBLK
  5
   229
  8
0
  6
CONTINUOUS
 62
     7
  0
BLOCK
  5
   22A
  8
0
  6
CONTINUOUS
 62
     7
  2
*UDIM89
 70
    65
 10
0.0
 20
0.0
 30
0.0
  3
*UDIM89
  0
TEXT
  5
   22B
  8
0
  6
CONTINUOUS
 62
     7
 10
-498.376376395714
 20
-92.328351969707
 30
0.0
 40
3.00000002980232
  1
52,5
 50
359.999999948034
 41
0.933333333333333
 72
     1
 11
-493.07637634171
 21
-90.8283519595861
 31
0.0
 73
     2
  0
LINE
  5
   22C
  8
0
  6
CONTINUOUS
 62
     7
 10
-479.676319643778
 20
40.3990325927735
 30
0.0
 11
-479.676365682114
 21
-95.3283519744872
 31
0.0
  0
LINE
  5
   22D
  8
0
  6
CONTINUOUS
 62
     7
 10
-505.926341482124
 20
44.9490404255978
 30
0.0
 11
-505.926389121862
 21
-95.3283519744872
 31
0.0
  0
LINE
  5
   22E
  8
0
  6
CONTINUOUS
 62
     7
 10
-479.67636500372
 20
-93.3283519744873
 30
0.0
 11
-505.92638844264
 21
-93.3283519744873
 31
0.0
  0
LINE
  5
   22F
  8
0
  6
CONTINUOUS
 62
     7
 10
-482.630788280927
 20
-93.849296404439
 30
0.0
 11
-479.67636500372
 21
-93.3283519744873
 31
0.0
  0
LINE
  5
   230
  8
0
  6
CONTINUOUS
 62
     7
 10
-479.67636500372
 20
-93.3283519744873
 30
0.0
 11
-482.630788280927
 21
-92.8074075445356
 31
0.0
  0
LINE
  5
   231
  8
0
  6
CONTINUOUS
 62
     7
 10
-502.971965165433
 20
-92.8074075445356
 30
0.0
 11
-505.92638844264
 21
-93.3283519744873
 31
0.0
  0
LINE
  5
   232
  8
0
  6
CONTINUOUS
 62
     7
 10
-505.92638844264
 20
-93.3283519744873
 30
0.0
 11
-502.971965165433
 21
-93.849296404439
 31
0.0
  0
ENDBLK
  5
   233
  8
0
  6
CONTINUOUS
 62
     7
  0
BLOCK
  5
   234
  8
0
  6
CONTINUOUS
 62
     7
  2
*UDIM90
 70
    65
 10
0.0
 20
0.0
 30
0.0
  3
*UDIM90
  0
TEXT
  5
   235
  8
0
  6
CONTINUOUS
 62
     7
 10
-518.851303914041
 20
110.669181827248
 30
0.0
 40
3.00000002980232
  1
140
 50
359.999999948034
 41
0.933333333333333
 72
     1
 11
-514.951303873945
 21
112.169181838632
 31
0.0
 73
     2
  0
LINE
  5
   236
  8
0
  6
CONTINUOUS
 62
     7
 10
-479.676318990665
 20
53.2490310668945
 30
0.0
 11
-479.676300651617
 21
111.66918182373
 31
0.0
  0
LINE
  5
   237
  8
0
  6
CONTINUOUS
 62
     7
 10
-549.676296043164
 20
53.2490234374999
 30
0.0
 11
-549.676274238801
 21
111.66918182373
 31
0.0
  0
LINE
  5
   238
  8
0
  6
CONTINUOUS
 62
     7
 10
-479.67630127945
 20
109.66918182373
 30
0.0
 11
-549.676274985268
 21
109.66918182373
 31
0.0
  0
LINE
  5
   239
  8
0
  6
CONTINUOUS
 62
     7
 10
-482.630724556657
 20
109.148237393779
 30
0.0
 11
-479.67630127945
 21
109.66918182373
 31
0.0
  0
LINE
  5
   23A
  8
0
  6
CONTINUOUS
 62
     7
 10
-479.67630127945
 20
109.66918182373
 30
0.0
 11
-482.630724556657
 21
110.190126253682
 31
0.0
  0
LINE
  5
   23B
  8
0
  6
CONTINUOUS
 62
     7
 10
-546.721851708061
 20
110.190126253682
 30
0.0
 11
-549.676274985268
 21
109.66918182373
 31
0.0
  0
LINE
  5
   23C
  8
0
  6
CONTINUOUS
 62
     7
 10
-549.676274985268
 20
109.66918182373
 30
0.0
 11
-546.721851708061
 21
109.148237393779
 31
0.0
  0
ENDBLK
  5
   23D
  8
0
  6
CONTINUOUS
 62
     7
  0
BLOCK
  5
   23E
  8
0
  6
CONTINUOUS
 62
     7
  2
*UDIM91
 70
    65
 10
0.0
 20
0.0
 30
0.0
  3
*UDIM91
  0
TEXT
  5
   23F
  8
0
  6
CONTINUOUS
 62
     7
 10
-573.96138763781
 20
-14.02597124969
 30
0.0
 40
3.00000002980232
  1
254
 50
89.9999999480344
 41
0.933333333333333
 72
     1
 11
-575.461387649179
 21
-10.1259712095884
 31
0.0
 73
     2
  0
LINE
  5
   240
  8
0
  6
CONTINUOUS
 62
     7
 10
-548.926288787001
 20
-73.3509538884734
 30
0.0
 11
-574.961387634277
 21
-73.3509538884734
 31
0.0
  0
LINE
  5
   241
  8
0
  6
CONTINUOUS
 62
     7
 10
-548.926302707287
 20
53.6490155939381
 30
0.0
 11
-574.961387634277
 21
53.6490155939381
 31
0.0
  0
LINE
  5
   242
  8
0
  6
CONTINUOUS
 62
     7
 10
-572.961387634277
 20
-73.3509538884734
 30
0.0
 11
-572.961387634277
 21
53.6490155939381
 31
0.0
  0
LINE
  5
   243
  8
0
  6
CONTINUOUS
 62
     7
 10
-573.482332064229
 20
-70.3965306112664
 30
0.0
 11
-572.961387634277
 21
-73.3509538884734
 31
0.0
  0
LINE
  5
   244
  8
0
  6
CONTINUOUS
 62
     7
 10
-572.961387634277
 20
-73.3509538884734
 30
0.0
 11
-572.440443204326
 21
-70.3965306112664
 31
0.0
  0
LINE
  5
   245
  8
0
  6
CONTINUOUS
 62
     7
 10
-572.440443204326
 20
50.6945923167311
 30
0.0
 11
-572.961387634277
 21
53.6490155939381
 31
0.0
  0
LINE
  5
   246
  8
0
  6
CONTINUOUS
 62
     7
 10
-572.961387634277
 20
53.6490155939381
 30
0.0
 11
-573.482332064229
 21
50.6945923167311
 31
0.0
  0
ENDBLK
  5
   247
  8
0
  6
CONTINUOUS
 62
     7
  0
BLOCK
  5
   248
  8
0
  6
CONTINUOUS
 62
     7
  2
MOSTRINA
 70
    64
 10
0.0
 20
0.0
 30
0.0
  3
MOSTRINA
  0
LINE
  5
   249
  8
0
  6
CONTINUOUS
 62
     3
 10
173.338256835938
 20
30.7306251525879
 30
0.0
 11
173.338256835938
 21
189.230621337891
 31
0.0
  0
LINE
  5
   24A
  8
0
  6
CONTINUOUS
 62
     3
 10
57.5882568359375
 20
29.4806251525879
 30
0.0
 11
172.088256835938
 21
29.4806251525879
 31
0.0
  0
LINE
  5
   24B
  8
0
  6
CONTINUOUS
 62
     3
 10
56.3382568359375
 20
30.7306251525879
 30
0.0
 11
56.3382568359375
 21
189.230621337891
 31
0.0
  0
LINE
  5
   24C
  8
0
  6
CONTINUOUS
 62
     3
 10
57.5882568359375
 20
190.480621337891
 30
0.0
 11
172.088256835938
 21
190.480621337891
 31
0.0
  0
LINE
  5
   24D
  8
0
  6
CONTINUOUS
 62
     3
 10
167.838256835938
 20
56.9806251525879
 30
0.0
 11
167.838256835938
 21
162.980625152588
 31
0.0
  0
LINE
  5
   24E
  8
0
  6
CONTINUOUS
 62
     3
 10
61.8382568359375
 20
56.9806251525879
 30
0.0
 11
167.838256835938
 21
56.9806251525879
 31
0.0
  0
LINE
  5
   24F
  8
0
  6
CONTINUOUS
 62
     3
 10
61.8382568359375
 20
56.9806251525879
 30
0.0
 11
61.8382568359375
 21
162.980625152588
 31
0.0
  0
LINE
  5
   250
  8
0
  6
CONTINUOUS
 62
     3
 10
61.8382568359375
 20
162.980621337891
 30
0.0
 11
167.838256835938
 21
162.980621337891
 31
0.0
  0
LINE
  5
   251
  8
0
  6
CONTINUOUS
 62
     3
 10
168.838256835938
 20
48.4806251525879
 30
0.0
 11
168.838256835938
 21
49.4806251525879
 31
0.0
  0
LINE
  5
   252
  8
0
  6
CONTINUOUS
 62
     3
 10
61.8382568359375
 20
50.4806251525879
 30
0.0
 11
167.838256835938
 21
50.4806251525879
 31
0.0
  0
LINE
  5
   253
  8
0
  6
CONTINUOUS
 62
     3
 10
60.8382568359375
 20
48.4806251525879
 30
0.0
 11
60.8382568359375
 21
49.4806251525879
 31
0.0
  0
LINE
  5
   254
  8
0
  6
CONTINUOUS
 62
     3
 10
61.8382568359375
 20
49.4806251525879
 30
0.0
 11
167.838256835938
 21
49.4806251525879
 31
0.0
  0
LINE
  5
   255
  8
0
  6
CONTINUOUS
 62
     3
 10
60.8382568359375
 20
29.4806251525879
 30
0.0
 11
60.8382568359375
 21
48.4806251525879
 31
0.0
  0
LINE
  5
   256
  8
0
  6
CONTINUOUS
 62
     3
 10
60.8382568359375
 20
49.4806213378906
 30
0.0
 11
60.8382568359375
 21
190.480621337891
 31
0.0
  0
LINE
  5
   257
  8
0
  6
CONTINUOUS
 62
     3
 10
61.8382568359375
 20
29.4806251525879
 30
0.0
 11
61.8382568359375
 21
49.4806251525879
 31
0.0
  0
LINE
  5
   258
  8
0
  6
CONTINUOUS
 62
     3
 10
61.8382568359375
 20
162.980621337891
 30
0.0
 11
61.8382568359375
 21
169.480621337891
 31
0.0
  0
LINE
  5
   259
  8
0
  6
CONTINUOUS
 62
     3
 10
61.8382568359375
 20
50.4806251525879
 30
0.0
 11
61.8382568359375
 21
56.9806251525879
 31
0.0
  0
LINE
  5
   25A
  8
0
  6
CONTINUOUS
 62
     3
 10
168.838256835938
 20
29.4806251525879
 30
0.0
 11
168.838256835938
 21
48.4806251525879
 31
0.0
  0
LINE
  5
   25B
  8
0
  6
CONTINUOUS
 62
     3
 10
168.838256835938
 20
49.4806251525879
 30
0.0
 11
168.838256835938
 21
190.480621337891
 31
0.0
  0
LINE
  5
   25C
  8
0
  6
CONTINUOUS
 62
     3
 10
167.838256835938
 20
50.4806251525879
 30
0.0
 11
167.838256835938
 21
56.9806251525879
 31
0.0
  0
LINE
  5
   25D
  8
0
  6
CONTINUOUS
 62
     3
 10
167.838256835938
 20
162.980621337891
 30
0.0
 11
167.838256835938
 21
169.480621337891
 31
0.0
  0
LINE
  5
   25E
  8
0
  6
CONTINUOUS
 62
     3
 10
167.838256835938
 20
29.4806251525879
 30
0.0
 11
167.838256835938
 21
49.4806251525879
 31
0.0
  0
LINE
  5
   25F
  8
0
  6
CONTINUOUS
 62
     3
 10
60.8382568359375
 20
170.480621337891
 30
0.0
 11
168.838256835938
 21
170.480621337891
 31
0.0
  0
LINE
  5
   260
  8
0
  6
CONTINUOUS
 62
     3
 10
61.8382568359375
 20
169.480621337891
 30
0.0
 11
167.838256835938
 21
169.480621337891
 31
0.0
  0
ARC
  5
   261
  8
0
  6
CONTINUOUS
 62
     3
 10
57.5882568359375
 20
30.7306251525879
 30
0.0
 40
1.25
 50
180.0
 51
270.0
  0
ARC
  5
   262
  8
0
  6
CONTINUOUS
 62
     3
 10
172.088256835938
 20
30.7306251525879
 30
0.0
 40
1.25
 50
270.0
 51
360.0
  0
ARC
  5
   263
  8
0
  6
CONTINUOUS
 62
     3
 10
172.088256835938
 20
189.230621337891
 30
0.0
 40
1.25
 50
0.0
 51
90.0
  0
ARC
  5
   264
  8
0
  6
CONTINUOUS
 62
     3
 10
57.5882568359375
 20
189.230621337891
 30
0.0
 40
1.25
 50
90.0
 51
180.0
  0
LINE
  5
   265
  8
0
  6
DOT
 62
     3
 10
60.3382577409677
 20
179.7306252571
 30
0.0
 11
60.8382568359375
 21
179.7306252571
 31
0.0
  0
LINE
  5
   266
  8
0
  6
DOT
 62
     3
 10
60.3382577409676
 20
181.2306252571
 30
0.0
 11
60.8382568359375
 21
181.2306252571
 31
0.0
  0
LINE
  5
   267
  8
0
  6
CONTINUOUS
 62
     3
 10
168.338257745313
 20
179.730625257273
 30
0.0
 11
168.838256835938
 21
179.730625257273
 31
0.0
  0
LINE
  5
   268
  8
0
  6
CONTINUOUS
 62
     3
 10
168.338257745314
 20
181.230625257273
 30
0.0
 11
168.838256835938
 21
181.230625257273
 31
0.0
  0
ARC
  5
   269
  8
0
  6
DOT
 62
     3
 10
60.3382577401871
 20
180.480625257147
 30
0.0
 40
0.749999999345164
 50
90.0
 51
270.0
  0
ARC
  5
   26A
  8
0
  6
CONTINUOUS
 62
     3
 10
61.338257740822
 20
180.480625256974
 30
0.0
 40
0.750000000009701
 50
270.0
 51
450.0
  0
LINE
  5
   26B
  8
0
  6
CONTINUOUS
 62
     3
 10
60.8382568359375
 20
181.2306252571
 30
0.0
 11
61.3382577409688
 21
181.2306252571
 31
0.0
  0
LINE
  5
   26C
  8
0
  6
CONTINUOUS
 62
     3
 10
60.8382568359375
 20
179.7306252571
 30
0.0
 11
61.3382577409689
 21
179.7306252571
 31
0.0
  0
ARC
  5
   26D
  8
0
  6
CONTINUOUS
 62
     3
 10
168.338257745503
 20
180.480625256952
 30
0.0
 40
0.750000000048506
 50
90.0000000038822
 51
269.999999996024
  0
ARC
  5
   26E
  8
0
  6
DOT
 62
     3
 10
169.338257745421
 20
180.480625256965
 30
0.0
 40
0.750000000029104
 50
270.000000002449
 51
449.999999997486
  0
LINE
  5
   26F
  8
0
  6
DOT
 62
     3
 10
168.838256835938
 20
181.230625257273
 30
0.0
 11
169.338257745315
 21
181.230625257273
 31
0.0
  0
LINE
  5
   270
  8
0
  6
DOT
 62
     3
 10
168.838256835938
 20
179.730625257273
 30
0.0
 11
169.338257745315
 21
179.730625257273
 31
0.0
  0
POINT
  5
   271
  8
0
  6
CONTINUOUS
 62
     3
 10
114.838256835938
 20
109.980621337891
 30
0.0
  0
ENDBLK
  5
   272
  8
0
  6
CONTINUOUS
 62
     7
  0
BLOCK
  5
   273
  8
0
  6
CONTINUOUS
 62
     7
  2
*UDIM92
 70
    65
 10
0.0
 20
0.0
 30
0.0
  3
*UDIM92
  0
TEXT
  5
   274
  8
0
  6
CONTINUOUS
 62
     7
 10
-281.369590115407
 20
6.44311955427571
 30
0.0
 40
3.00000002980232
  1
7
 50
407.076230773331
 41
0.933333333333334
 72
     1
 11
-281.71885359826
 21
8.27014311413732
 31
0.0
 73
     2
  0
TEXT
  5
   275
  8
0
  6
CONTINUOUS
 62
     7
 10
-283.514817942073
 20
4.13649916195174
 30
0.0
 40
3.00000002980232
  1
Ø
 50
407.076230773331
 41
0.933333333333334
 72
     1
 11
-283.864081424926
 21
5.96352272181335
 31
0.0
 73
     2
  0
LINE
  5
   276
  8
0
  6
CONTINUOUS
 62
     7
 10
-263.097615346252
 20
24.6213797402048
 30
0.0
 11
-282.782557497414
 21
3.45547445816987
 31
0.0
  0
LINE
  5
   277
  8
0
  6
CONTINUOUS
 62
     7
 10
-261.467047103579
 20
27.1395630548159
 30
0.0
 11
-263.097615346252
 21
24.6213797402048
 31
0.0
  0
LINE
  5
   278
  8
0
  6
CONTINUOUS
 62
     7
 10
-263.097615346252
 20
24.6213797402048
 30
0.0
 11
-260.704113108909
 21
26.4300110016386
 31
0.0
  0
LINE
  5
   279
  8
0
  6
CONTINUOUS
 62
     7
 10
-265.919976822203
 20
20.8217406561216
 30
0.0
 11
-264.28940857953
 21
23.3399239707327
 31
0.0
  0
LINE
  5
   27A
  8
0
  6
CONTINUOUS
 62
     7
 10
-264.28940857953
 20
23.3399239707327
 30
0.0
 11
-266.682910816872
 21
21.5312927092989
 31
0.0
  0
ENDBLK
  5
   27B
  8
0
  6
CONTINUOUS
 62
     7
  0
BLOCK
  5
   27C
  8
0
  6
CONTINUOUS
 62
     7
  2
*UDIM93
 70
    65
 10
0.0
 20
0.0
 30
0.0
  3
*UDIM93
  0
TEXT
  5
   27D
  8
0
  6
CONTINUOUS
 62
     7
 10
-256.46851199776
 20
72.2668304511257
 30
0.0
 40
3.00000002980232
  1
80
 50
359.999999844103
 41
0.933333333333333
 72
     1
 11
-253.968511968851
 21
73.7668304592371
 31
0.0
 73
     2
  0
LINE
  5
   27E
  8
0
  6
CONTINUOUS
 62
     7
 10
-263.693511962891
 20
62.1056518554688
 30
0.0
 11
-263.693511962891
 21
73.2668304443359
 31
0.0
  0
LINE
  5
   27F
  8
0
  6
CONTINUOUS
 62
     7
 10
-243.693511962891
 20
62.1056518554688
 30
0.0
 11
-243.693511962891
 21
73.2668304443359
 31
0.0
  0
LINE
  5
   280
  8
0
  6
CONTINUOUS
 62
     7
 10
-263.693511962891
 20
71.2668304443359
 30
0.0
 11
-243.693511962891
 21
71.2668304443359
 31
0.0
  0
LINE
  5
   281
  8
0
  6
CONTINUOUS
 62
     7
 10
-260.739088685684
 20
71.7877748742876
 30
0.0
 11
-263.693511962891
 21
71.2668304443359
 31
0.0
  0
LINE
  5
   282
  8
0
  6
CONTINUOUS
 62
     7
 10
-263.693511962891
 20
71.2668304443359
 30
0.0
 11
-260.739088685684
 21
70.7458860143843
 31
0.0
  0
LINE
  5
   283
  8
0
  6
CONTINUOUS
 62
     7
 10
-246.647935240098
 20
70.7458860143843
 30
0.0
 11
-243.693511962891
 21
71.2668304443359
 31
0.0
  0
LINE
  5
   284
  8
0
  6
CONTINUOUS
 62
     7
 10
-243.693511962891
 20
71.2668304443359
 30
0.0
 11
-246.647935240098
 21
71.7877748742876
 31
0.0
  0
ENDBLK
  5
   285
  8
0
  6
CONTINUOUS
 62
     7
  0
BLOCK
  5
   286
  8
0
  6
CONTINUOUS
 62
     7
  2
*UDIM94
 70
    65
 10
0.0
 20
0.0
 30
0.0
  3
*UDIM94
  0
TEXT
  5
   287
  8
0
  6
CONTINUOUS
 62
     7
 10
-257.868512011668
 20
78.7064895735802
 30
0.0
 40
3.00000002980232
  1
112
 50
359.999999844103
 41
0.933333333333333
 72
     1
 11
-253.968511968851
 21
80.2064895778894
 31
0.0
 73
     2
  0
LINE
  5
   288
  8
0
  6
CONTINUOUS
 62
     7
 10
-267.693511962891
 20
56.7306518554688
 30
0.0
 11
-267.693511962891
 21
79.7064895629883
 31
0.0
  0
LINE
  5
   289
  8
0
  6
CONTINUOUS
 62
     7
 10
-239.693511962891
 20
56.7306518554688
 30
0.0
 11
-239.693511962891
 21
79.7064895629883
 31
0.0
  0
LINE
  5
   28A
  8
0
  6
CONTINUOUS
 62
     7
 10
-267.693511962891
 20
77.7064895629883
 30
0.0
 11
-239.693511962891
 21
77.7064895629883
 31
0.0
  0
LINE
  5
   28B
  8
0
  6
CONTINUOUS
 62
     7
 10
-264.739088685684
 20
78.22743399294
 30
0.0
 11
-267.693511962891
 21
77.7064895629883
 31
0.0
  0
LINE
  5
   28C
  8
0
  6
CONTINUOUS
 62
     7
 10
-267.693511962891
 20
77.7064895629883
 30
0.0
 11
-264.739088685684
 21
77.1855451330366
 31
0.0
  0
LINE
  5
   28D
  8
0
  6
CONTINUOUS
 62
     7
 10
-242.647935240098
 20
77.1855451330366
 30
0.0
 11
-239.693511962891
 21
77.7064895629883
 31
0.0
  0
LINE
  5
   28E
  8
0
  6
CONTINUOUS
 62
     7
 10
-239.693511962891
 20
77.7064895629883
 30
0.0
 11
-242.647935240098
 21
78.22743399294
 31
0.0
  0
ENDBLK
  5
   28F
  8
0
  6
CONTINUOUS
 62
     7
  0
BLOCK
  5
   290
  8
0
  6
CONTINUOUS
 62
     7
  2
*UDIM95
 70
    65
 10
0.0
 20
0.0
 30
0.0
  3
*UDIM95
  0
TEXT
  5
   291
  8
0
  6
CONTINUOUS
 62
     7
 10
-283.847349177457
 20
37.5556518066933
 30
0.0
 40
3.00000002980232
  1
112
 50
449.999999844103
 41
0.933333333333333
 72
     1
 11
-285.347349181771
 21
41.4556518495083
 31
0.0
 73
     2
  0
LINE
  5
   292
  8
0
  6
CONTINUOUS
 62
     7
 10
-268.693511962891
 20
55.7306518554688
 30
0.0
 11
-284.84734916687
 21
55.7306518554688
 31
0.0
  0
LINE
  5
   293
  8
0
  6
CONTINUOUS
 62
     7
 10
-268.693511962891
 20
27.7306518554688
 30
0.0
 11
-284.84734916687
 21
27.7306518554688
 31
0.0
  0
LINE
  5
   294
  8
0
  6
CONTINUOUS
 62
     7
 10
-282.84734916687
 20
55.7306518554688
 30
0.0
 11
-282.84734916687
 21
27.7306518554688
 31
0.0
  0
LINE
  5
   295
  8
0
  6
CONTINUOUS
 62
     7
 10
-282.326404736918
 20
52.7762285782618
 30
0.0
 11
-282.84734916687
 21
55.7306518554688
 31
0.0
  0
LINE
  5
   296
  8
0
  6
CONTINUOUS
 62
     7
 10
-282.84734916687
 20
55.7306518554688
 30
0.0
 11
-283.368293596822
 21
52.7762285782618
 31
0.0
  0
LINE
  5
   297
  8
0
  6
CONTINUOUS
 62
     7
 10
-283.368293596822
 20
30.6850751326757
 30
0.0
 11
-282.84734916687
 21
27.7306518554688
 31
0.0
  0
LINE
  5
   298
  8
0
  6
CONTINUOUS
 62
     7
 10
-282.84734916687
 20
27.7306518554688
 30
0.0
 11
-282.326404736918
 21
30.6850751326757
 31
0.0
  0
ENDBLK
  5
   299
  8
0
  6
CONTINUOUS
 62
     7
  0
BLOCK
  5
   29A
  8
0
  6
CONTINUOUS
 62
     7
  2
*UDIM96
 70
    65
 10
0.0
 20
0.0
 30
0.0
  3
*UDIM96
  0
TEXT
  5
   29B
  8
0
  6
CONTINUOUS
 62
     7
 10
-294.101612101652
 20
37.5556518066933
 30
0.0
 40
3.00000002980232
  1
142
 50
449.999999844103
 41
0.933333333333333
 72
     1
 11
-295.601612105966
 21
41.4556518495083
 31
0.0
 73
     2
  0
LINE
  5
   29C
  8
0
  6
CONTINUOUS
 62
     7
 10
-266.318511962891
 20
59.4806518554688
 30
0.0
 11
-295.101612091064
 21
59.4806518554688
 31
0.0
  0
LINE
  5
   29D
  8
0
  6
CONTINUOUS
 62
     7
 10
-266.318511962891
 20
23.9806518554688
 30
0.0
 11
-295.101612091064
 21
23.9806518554688
 31
0.0
  0
LINE
  5
   29E
  8
0
  6
CONTINUOUS
 62
     7
 10
-293.101612091064
 20
59.4806518554688
 30
0.0
 11
-293.101612091064
 21
23.9806518554688
 31
0.0
  0
LINE
  5
   29F
  8
0
  6
CONTINUOUS
 62
     7
 10
-292.580667661113
 20
56.5262285782618
 30
0.0
 11
-293.101612091064
 21
59.4806518554688
 31
0.0
  0
LINE
  5
   2A0
  8
0
  6
CONTINUOUS
 62
     7
 10
-293.101612091064
 20
59.4806518554688
 30
0.0
 11
-293.622556521016
 21
56.5262285782618
 31
0.0
  0
LINE
  5
   2A1
  8
0
  6
CONTINUOUS
 62
     7
 10
-293.622556521016
 20
26.9350751326757
 30
0.0
 11
-293.101612091064
 21
23.9806518554688
 31
0.0
  0
LINE
  5
   2A2
  8
0
  6
CONTINUOUS
 62
     7
 10
-293.101612091064
 20
23.9806518554688
 30
0.0
 11
-292.580667661113
 21
26.9350751326757
 31
0.0
  0
ENDBLK
  5
   2A3
  8
0
  6
CONTINUOUS
 62
     7
  0
BLOCK
  5
   2A4
  8
0
  6
CONTINUOUS
 62
     7
  2
*HATCH150
 70
    65
 10
0.0
 20
0.0
 30
0.0
  3
*HATCH150
  0
LINE
  5
   2A5
  8
0
  6
CONTINUOUS
 62
     3
 10
204.218536376953
 20
77.9999618530274
 30
0.0
 11
202.237045288086
 21
76.0184707641602
 31
0.0
  0
LINE
  5
   2A6
  8
0
  6
CONTINUOUS
 62
     3
 10
206.237045288086
 20
77.8971557617188
 30
0.0
 11
202.237045288086
 21
73.8971557617188
 31
0.0
  0
LINE
  5
   2A7
  8
0
  6
CONTINUOUS
 62
     3
 10
206.237045288086
 20
75.7758331298828
 30
0.0
 11
202.237045288086
 21
71.7758331298828
 31
0.0
  0
LINE
  5
   2A8
  8
0
  6
CONTINUOUS
 62
     3
 10
206.237045288086
 20
73.6545104980469
 30
0.0
 11
202.237045288086
 21
69.6545104980469
 31
0.0
  0
LINE
  5
   2A9
  8
0
  6
CONTINUOUS
 62
     3
 10
206.237045288086
 20
71.5331878662109
 30
0.0
 11
202.237045288086
 21
67.5331878662109
 31
0.0
  0
LINE
  5
   2AA
  8
0
  6
CONTINUOUS
 62
     3
 10
206.237045288086
 20
69.4118728637695
 30
0.0
 11
202.819671630859
 21
65.994499206543
 31
0.0
  0
LINE
  5
   2AB
  8
0
  6
CONTINUOUS
 62
     3
 10
206.237045288086
 20
67.2905502319336
 30
0.0
 11
204.279418945313
 21
65.3329238891602
 31
0.0
  0
LINE
  5
   2AC
  8
0
  6
CONTINUOUS
 62
     3
 10
206.237045288086
 20
65.1692276000977
 30
0.0
 11
205.739166259766
 21
64.6713485717773
 31
0.0
  0
ENDBLK
  5
   2AD
  8
0
  6
CONTINUOUS
 62
     7
  0
BLOCK
  5
   2AE
  8
0
  6
CONTINUOUS
 62
     7
  2
*HATCH151
 70
    65
 10
0.0
 20
0.0
 30
0.0
  3
*HATCH151
  0
LINE
  5
   2AF
  8
0
  6
CONTINUOUS
 62
     3
 10
197.431854248047
 20
90.3051605224609
 30
0.0
 11
196.745819091797
 21
89.6191329956055
 31
0.0
  0
LINE
  5
   2B0
  8
0
  6
CONTINUOUS
 62
     3
 10
198.492523193359
 20
89.2445068359375
 30
0.0
 11
196.745819091797
 21
87.4978103637695
 31
0.0
  0
LINE
  5
   2B1
  8
0
  6
CONTINUOUS
 62
     3
 10
199.553192138672
 20
88.1838531494141
 30
0.0
 11
196.745819091797
 21
85.3764877319336
 31
0.0
  0
LINE
  5
   2B2
  8
0
  6
CONTINUOUS
 62
     3
 10
199.737045288086
 20
86.2463912963867
 30
0.0
 11
196.745819091797
 21
83.2551727294922
 31
0.0
  0
LINE
  5
   2B3
  8
0
  6
CONTINUOUS
 62
     3
 10
199.737045288086
 20
84.1250762939453
 30
0.0
 11
198.611923217773
 21
82.9999618530274
 31
0.0
  0
ENDBLK
  5
   2B4
  8
0
  6
CONTINUOUS
 62
     7
  0
BLOCK
  5
   2B5
  8
0
  6
CONTINUOUS
 62
     7
  2
*HATCH152
 70
    65
 10
0.0
 20
0.0
 30
0.0
  3
*HATCH152
  0
LINE
  5
   2B6
  8
0
  6
CONTINUOUS
 62
   210
 10
-10.7629547119141
 20
80.7665863037109
 30
0.0
 11
-7.99633836746216
 21
77.9999618530274
 31
0.0
  0
LINE
  5
   2B7
  8
0
  6
CONTINUOUS
 62
   210
 10
-8.75369358062744
 20
82.9999618530274
 30
0.0
 11
-4.76300573348999
 21
79.0092697143555
 31
0.0
  0
ENDBLK
  5
   2B8
  8
0
  6
CONTINUOUS
 62
     7
  0
BLOCK
  5
   2B9
  8
0
  6
CONTINUOUS
 62
     7
  2
*HATCH153
 70
    65
 10
0.0
 20
0.0
 30
0.0
  3
*HATCH153
  0
LINE
  5
   2BA
  8
0
  6
CONTINUOUS
 62
   210
 10
3.23699402809143
 20
81.6158676147461
 30
0.0
 11
6.8528938293457
 21
77.9999618530274
 31
0.0
  0
LINE
  5
   2BB
  8
0
  6
CONTINUOUS
 62
   210
 10
6.09554004669189
 20
82.9999618530274
 30
0.0
 11
11.095531463623
 21
77.9999618530274
 31
0.0
  0
LINE
  5
   2BC
  8
0
  6
CONTINUOUS
 62
   210
 10
10.3381776809692
 20
82.9999618530274
 30
0.0
 11
15.3381690979004
 21
77.9999618530274
 31
0.0
  0
LINE
  5
   2BD
  8
0
  6
CONTINUOUS
 62
   210
 10
14.5808153152466
 20
82.9999618530274
 30
0.0
 11
19.5808067321777
 21
77.9999618530274
 31
0.0
  0
LINE
  5
   2BE
  8
0
  6
CONTINUOUS
 62
   210
 10
18.8234539031982
 20
82.9999618530274
 30
0.0
 11
19.7282676696777
 21
82.0951461791992
 31
0.0
  0
ENDBLK
  5
   2BF
  8
0
  6
CONTINUOUS
 62
     7
  0
BLOCK
  5
   2C0
  8
0
  6
CONTINUOUS
 62
     7
  2
*HATCH154
 70
    65
 10
0.0
 20
0.0
 30
0.0
  3
*HATCH154
  0
LINE
  5
   2C1
  8
0
  6
CONTINUOUS
 62
     3
 10
17.0864696502686
 20
102.999938964844
 30
0.0
 11
15.2370948791504
 21
101.150566101074
 31
0.0
  0
LINE
  5
   2C2
  8
0
  6
CONTINUOUS
 62
     3
 10
18.1471290588379
 20
102.999938964844
 30
0.0
 11
14.2369937896729
 21
99.0898056030274
 31
0.0
  0
LINE
  5
   2C3
  8
0
  6
CONTINUOUS
 62
     3
 10
18.2369937896729
 20
100.968482971191
 30
0.0
 11
14.2369937896729
 21
96.9684829711914
 31
0.0
  0
LINE
  5
   2C4
  8
0
  6
CONTINUOUS
 62
     3
 10
18.2369937896729
 20
98.8471603393555
 30
0.0
 11
14.2369937896729
 21
94.8471603393555
 31
0.0
  0
LINE
  5
   2C5
  8
0
  6
CONTINUOUS
 62
     3
 10
18.2369937896729
 20
96.7258377075195
 30
0.0
 11
14.2369937896729
 21
92.7258377075195
 31
0.0
  0
LINE
  5
   2C6
  8
0
  6
CONTINUOUS
 62
     3
 10
18.2369937896729
 20
94.6045150756836
 30
0.0
 11
14.2369937896729
 21
90.6045150756836
 31
0.0
  0
LINE
  5
   2C7
  8
0
  6
CONTINUOUS
 62
     3
 10
18.2369937896729
 20
92.4831924438477
 30
0.0
 11
14.2369937896729
 21
88.4831924438477
 31
0.0
  0
LINE
  5
   2C8
  8
0
  6
CONTINUOUS
 62
     3
 10
18.2369937896729
 20
90.3618698120117
 30
0.0
 11
14.2369937896729
 21
86.3618698120117
 31
0.0
  0
LINE
  5
   2C9
  8
0
  6
CONTINUOUS
 62
     3
 10
18.2369937896729
 20
88.2405471801758
 30
0.0
 11
14.2369937896729
 21
84.2405471801758
 31
0.0
  0
LINE
  5
   2CA
  8
0
  6
CONTINUOUS
 62
     3
 10
18.2369937896729
 20
86.1192398071289
 30
0.0
 11
15.117714881897
 21
82.9999618530274
 31
0.0
  0
LINE
  5
   2CB
  8
0
  6
CONTINUOUS
 62
     3
 10
18.2369937896729
 20
83.997917175293
 30
0.0
 11
17.23903465271
 21
82.9999618530274
 31
0.0
  0
ENDBLK
  5
   2CC
  8
0
  6
CONTINUOUS
 62
     7
  0
BLOCK
  5
   2CD
  8
0
  6
CONTINUOUS
 62
     7
  2
*HATCH155
 70
    65
 10
0.0
 20
0.0
 30
0.0
  3
*HATCH155
  0
LINE
  5
   2CE
  8
0
  6
CONTINUOUS
 62
     3
 10
12.2390375137329
 20
77.9999618530274
 30
0.0
 11
10.2369937896729
 21
75.997917175293
 31
0.0
  0
LINE
  5
   2CF
  8
0
  6
CONTINUOUS
 62
     3
 10
14.2369937896729
 20
77.8766021728516
 30
0.0
 11
10.2369937896729
 21
73.8766021728516
 31
0.0
  0
LINE
  5
   2D0
  8
0
  6
CONTINUOUS
 62
     3
 10
14.2369937896729
 20
75.7552795410156
 30
0.0
 11
10.2369937896729
 21
71.7552795410156
 31
0.0
  0
LINE
  5
   2D1
  8
0
  6
CONTINUOUS
 62
     3
 10
14.2369937896729
 20
73.6339569091797
 30
0.0
 11
10.2369937896729
 21
69.6339569091797
 31
0.0
  0
LINE
  5
   2D2
  8
0
  6
CONTINUOUS
 62
     3
 10
14.2369937896729
 20
71.5126342773438
 30
0.0
 11
10.2369937896729
 21
67.5126342773438
 31
0.0
  0
LINE
  5
   2D3
  8
0
  6
CONTINUOUS
 62
     3
 10
14.2369937896729
 20
69.3913116455078
 30
0.0
 11
10.2369937896729
 21
65.3913116455078
 31
0.0
  0
LINE
  5
   2D4
  8
0
  6
CONTINUOUS
 62
     3
 10
14.2369937896729
 20
67.2699890136719
 30
0.0
 11
10.2369937896729
 21
63.2699890136719
 31
0.0
  0
LINE
  5
   2D5
  8
0
  6
CONTINUOUS
 62
     3
 10
14.2369937896729
 20
65.148681640625
 30
0.0
 11
10.8553380966187
 21
61.7670249938965
 31
0.0
  0
LINE
  5
   2D6
  8
0
  6
CONTINUOUS
 62
     3
 10
14.2369937896729
 20
63.0273590087891
 30
0.0
 11
13.7800302505493
 21
62.5703964233398
 31
0.0
  0
ENDBLK
  5
   2D7
  8
0
  6
CONTINUOUS
 62
     7
  0
BLOCK
  5
   2D8
  8
0
  6
CONTINUOUS
 62
     7
  2
*HATCH156
 70
    65
 10
0.0
 20
0.0
 30
0.0
  3
*HATCH156
  0
LINE
  5
   2D9
  8
0
  6
CONTINUOUS
 62
     3
 10
185.858123779297
 20
-4.00005149841309
 30
0.0
 11
184.480621337891
 21
-5.37755584716797
 31
0.0
  0
LINE
  5
   2DA
  8
0
  6
CONTINUOUS
 62
     3
 10
187.979446411133
 20
-4.00005149841309
 30
0.0
 11
185.979446411133
 21
-6.00005149841309
 31
0.0
  0
LINE
  5
   2DB
  8
0
  6
CONTINUOUS
 62
     3
 10
190.10075378418
 20
-4.00005149841309
 30
0.0
 11
188.10075378418
 21
-6.00005149841309
 31
0.0
  0
LINE
  5
   2DC
  8
0
  6
CONTINUOUS
 62
     3
 10
192.222061157227
 20
-4.00005149841309
 30
0.0
 11
190.222061157227
 21
-6.00005149841309
 31
0.0
  0
LINE
  5
   2DD
  8
0
  6
CONTINUOUS
 62
     3
 10
194.343368530273
 20
-4.00005149841309
 30
0.0
 11
192.343368530273
 21
-6.00005149841309
 31
0.0
  0
LINE
  5
   2DE
  8
0
  6
CONTINUOUS
 62
     3
 10
196.46467590332
 20
-4.00005149841309
 30
0.0
 11
194.46467590332
 21
-6.00005149841309
 31
0.0
  0
LINE
  5
   2DF
  8
0
  6
CONTINUOUS
 62
     3
 10
198.585983276367
 20
-4.00005149841309
 30
0.0
 11
196.585983276367
 21
-6.00005149841309
 31
0.0
  0
LINE
  5
   2E0
  8
0
  6
CONTINUOUS
 62
     3
 10
200.707290649414
 20
-4.00005149841309
 30
0.0
 11
198.707290649414
 21
-6.00005149841309
 31
0.0
  0
LINE
  5
   2E1
  8
0
  6
CONTINUOUS
 62
     3
 10
202.828598022461
 20
-4.00005149841309
 30
0.0
 11
200.828598022461
 21
-6.00005149841309
 31
0.0
  0
LINE
  5
   2E2
  8
0
  6
CONTINUOUS
 62
     3
 10
204.949905395508
 20
-4.00005149841309
 30
0.0
 11
202.949905395508
 21
-6.00005149841309
 31
0.0
  0
LINE
  5
   2E3
  8
0
  6
CONTINUOUS
 62
     3
 10
207.071212768555
 20
-4.00005149841309
 30
0.0
 11
205.071212768555
 21
-6.00005149841309
 31
0.0
  0
LINE
  5
   2E4
  8
0
  6
CONTINUOUS
 62
     3
 10
209.192520141602
 20
-4.00005149841309
 30
0.0
 11
207.192520141602
 21
-6.00005149841309
 31
0.0
  0
LINE
  5
   2E5
  8
0
  6
CONTINUOUS
 62
     3
 10
211.313827514648
 20
-4.00005149841309
 30
0.0
 11
209.313827514648
 21
-6.00005149841309
 31
0.0
  0
LINE
  5
   2E6
  8
0
  6
CONTINUOUS
 62
     3
 10
213.435134887695
 20
-4.00005149841309
 30
0.0
 11
211.435134887695
 21
-6.00005149841309
 31
0.0
  0
LINE
  5
   2E7
  8
0
  6
CONTINUOUS
 62
     3
 10
215.556442260742
 20
-4.00005149841309
 30
0.0
 11
213.556442260742
 21
-6.00005149841309
 31
0.0
  0
LINE
  5
   2E8
  8
0
  6
CONTINUOUS
 62
     3
 10
217.677749633789
 20
-4.00005149841309
 30
0.0
 11
215.677749633789
 21
-6.00005149841309
 31
0.0
  0
LINE
  5
   2E9
  8
0
  6
CONTINUOUS
 62
     3
 10
219.799057006836
 20
-4.00005149841309
 30
0.0
 11
217.799057006836
 21
-6.00005149841309
 31
0.0
  0
LINE
  5
   2EA
  8
0
  6
CONTINUOUS
 62
     3
 10
221.920364379883
 20
-4.00005149841309
 30
0.0
 11
219.920364379883
 21
-6.00005149841309
 31
0.0
  0
LINE
  5
   2EB
  8
0
  6
CONTINUOUS
 62
     3
 10
224.04167175293
 20
-4.00005149841309
 30
0.0
 11
222.04167175293
 21
-6.00005149841309
 31
0.0
  0
LINE
  5
   2EC
  8
0
  6
CONTINUOUS
 62
     3
 10
226.162979125977
 20
-4.00005149841309
 30
0.0
 11
224.162979125977
 21
-6.00005149841309
 31
0.0
  0
LINE
  5
   2ED
  8
0
  6
CONTINUOUS
 62
     3
 10
228.284286499023
 20
-4.00005149841309
 30
0.0
 11
226.284286499023
 21
-6.00005149841309
 31
0.0
  0
LINE
  5
   2EE
  8
0
  6
CONTINUOUS
 62
     3
 10
230.40559387207
 20
-4.00005149841309
 30
0.0
 11
228.40559387207
 21
-6.00005149841309
 31
0.0
  0
LINE
  5
   2EF
  8
0
  6
CONTINUOUS
 62
     3
 10
232.526901245117
 20
-4.00005149841309
 30
0.0
 11
230.526901245117
 21
-6.00005149841309
 31
0.0
  0
LINE
  5
   2F0
  8
0
  6
CONTINUOUS
 62
     3
 10
234.648208618164
 20
-4.00005149841309
 30
0.0
 11
232.648208618164
 21
-6.00005149841309
 31
0.0
  0
LINE
  5
   2F1
  8
0
  6
CONTINUOUS
 62
     3
 10
236.769515991211
 20
-4.00005149841309
 30
0.0
 11
234.769515991211
 21
-6.00005149841309
 31
0.0
  0
LINE
  5
   2F2
  8
0
  6
CONTINUOUS
 62
     3
 10
238.890823364258
 20
-4.00005149841309
 30
0.0
 11
236.890823364258
 21
-6.00005149841309
 31
0.0
  0
LINE
  5
   2F3
  8
0
  6
CONTINUOUS
 62
     3
 10
241.012130737305
 20
-4.00005149841309
 30
0.0
 11
239.012130737305
 21
-6.00005149841309
 31
0.0
  0
LINE
  5
   2F4
  8
0
  6
CONTINUOUS
 62
     3
 10
243.133438110352
 20
-4.00005149841309
 30
0.0
 11
241.133438110352
 21
-6.00005149841309
 31
0.0
  0
LINE
  5
   2F5
  8
0
  6
CONTINUOUS
 62
     3
 10
245.254745483398
 20
-4.00005149841309
 30
0.0
 11
243.254745483398
 21
-6.00005149841309
 31
0.0
  0
LINE
  5
   2F6
  8
0
  6
CONTINUOUS
 62
     3
 10
247.376052856445
 20
-4.00005149841309
 30
0.0
 11
245.376052856445
 21
-6.00005149841309
 31
0.0
  0
LINE
  5
   2F7
  8
0
  6
CONTINUOUS
 62
     3
 10
248.910140991211
 20
-4.58765363693237
 30
0.0
 11
247.497741699219
 21
-6.00005149841309
 31
0.0
  0
LINE
  5
   2F8
  8
0
  6
CONTINUOUS
 62
     3
 10
249.653274536133
 20
-5.96583604812622
 30
0.0
 11
249.619049072266
 21
-6.00005149841309
 31
0.0
  0
ENDBLK
  5
   2F9
  8
0
  6
CONTINUOUS
 62
     7
  0
BLOCK
  5
   2FA
  8
0
  6
CONTINUOUS
 62
     7
  2
*HATCH157
 70
    65
 10
0.0
 20
0.0
 30
0.0
  3
*HATCH157
  0
LINE
  5
   2FB
  8
0
  6
CONTINUOUS
 62
     3
 10
167.826889038086
 20
-4.00005149841309
 30
0.0
 11
165.980621337891
 21
-5.84633255004883
 31
0.0
  0
LINE
  5
   2FC
  8
0
  6
CONTINUOUS
 62
     3
 10
169.948211669922
 20
-4.00005149841309
 30
0.0
 11
167.948211669922
 21
-6.00005149841309
 31
0.0
  0
LINE
  5
   2FD
  8
0
  6
CONTINUOUS
 62
     3
 10
172.069519042969
 20
-4.00005149841309
 30
0.0
 11
170.069519042969
 21
-6.00005149841309
 31
0.0
  0
LINE
  5
   2FE
  8
0
  6
CONTINUOUS
 62
     3
 10
174.190826416016
 20
-4.00005149841309
 30
0.0
 11
172.190826416016
 21
-6.00005149841309
 31
0.0
  0
LINE
  5
   2FF
  8
0
  6
CONTINUOUS
 62
     3
 10
176.312133789062
 20
-4.00005149841309
 30
0.0
 11
174.312133789063
 21
-6.00005149841309
 31
0.0
  0
LINE
  5
   300
  8
0
  6
CONTINUOUS
 62
     3
 10
177.480621337891
 20
-4.95293474197388
 30
0.0
 11
176.433502197266
 21
-6.00005149841309
 31
0.0
  0
ENDBLK
  5
   301
  8
0
  6
CONTINUOUS
 62
     7
  0
BLOCK
  5
   302
  8
0
  6
CONTINUOUS
 62
     7
  2
*HATCH158
 70
    65
 10
0.0
 20
0.0
 30
0.0
  3
*HATCH158
  0
LINE
  5
   303
  8
0
  6
CONTINUOUS
 62
     3
 10
43.7296600341797
 20
-4.00005149841309
 30
0.0
 11
42.4806251525879
 21
-5.24908351898193
 31
0.0
  0
LINE
  5
   304
  8
0
  6
CONTINUOUS
 62
     3
 10
45.8509788513184
 20
-4.00005149841309
 30
0.0
 11
43.8509788513184
 21
-6.00005149841309
 31
0.0
  0
LINE
  5
   305
  8
0
  6
CONTINUOUS
 62
     3
 10
47.9723014831543
 20
-4.00005149841309
 30
0.0
 11
45.9723014831543
 21
-6.00005149841309
 31
0.0
  0
LINE
  5
   306
  8
0
  6
CONTINUOUS
 62
     3
 10
50.0936241149902
 20
-4.00005149841309
 30
0.0
 11
48.0936241149902
 21
-6.00005149841309
 31
0.0
  0
LINE
  5
   307
  8
0
  6
CONTINUOUS
 62
     3
 10
52.2149467468262
 20
-4.00005149841309
 30
0.0
 11
50.2149467468262
 21
-6.00005149841309
 31
0.0
  0
LINE
  5
   308
  8
0
  6
CONTINUOUS
 62
     3
 10
53.9806251525879
 20
-4.35568618774414
 30
0.0
 11
52.3362579345703
 21
-6.00005149841309
 31
0.0
  0
ENDBLK
  5
   309
  8
0
  6
CONTINUOUS
 62
     7
  0
BLOCK
  5
   30A
  8
0
  6
CONTINUOUS
 62
     7
  2
*HATCH159
 70
    65
 10
0.0
 20
0.0
 30
0.0
  3
*HATCH159
  0
LINE
  5
   30B
  8
0
  6
CONTINUOUS
 62
     3
 10
-24.1525974273682
 20
-4.00005149841309
 30
0.0
 11
-25.3908443450928
 21
-5.23830080032349
 31
0.0
  0
LINE
  5
   30C
  8
0
  6
CONTINUOUS
 62
     3
 10
-22.0312747955322
 20
-4.00005149841309
 30
0.0
 11
-24.0312747955322
 21
-6.00005149841309
 31
0.0
  0
LINE
  5
   30D
  8
0
  6
CONTINUOUS
 62
     3
 10
-19.9099559783936
 20
-4.00005149841309
 30
0.0
 11
-21.9099559783936
 21
-6.00005149841309
 31
0.0
  0
LINE
  5
   30E
  8
0
  6
CONTINUOUS
 62
     3
 10
-17.7886371612549
 20
-4.00005149841309
 30
0.0
 11
-19.7886371612549
 21
-6.00005149841309
 31
0.0
  0
LINE
  5
   30F
  8
0
  6
CONTINUOUS
 62
     3
 10
-15.6673173904419
 20
-4.00005149841309
 30
0.0
 11
-17.6673183441162
 21
-6.00005149841309
 31
0.0
  0
LINE
  5
   310
  8
0
  6
CONTINUOUS
 62
     3
 10
-13.5459966659546
 20
-4.00005149841309
 30
0.0
 11
-15.5459985733032
 21
-6.00005149841309
 31
0.0
  0
LINE
  5
   311
  8
0
  6
CONTINUOUS
 62
     3
 10
-11.4246759414673
 20
-4.00005149841309
 30
0.0
 11
-13.4246778488159
 21
-6.00005149841309
 31
0.0
  0
LINE
  5
   312
  8
0
  6
CONTINUOUS
 62
     3
 10
-9.30335521697998
 20
-4.00005149841309
 30
0.0
 11
-11.3033571243286
 21
-6.00005149841309
 31
0.0
  0
LINE
  5
   313
  8
0
  6
CONTINUOUS
 62
     3
 10
-7.18203449249268
 20
-4.00005149841309
 30
0.0
 11
-9.18203639984131
 21
-6.00005149841309
 31
0.0
  0
LINE
  5
   314
  8
0
  6
CONTINUOUS
 62
     3
 10
-5.06071376800537
 20
-4.00005149841309
 30
0.0
 11
-7.060715675354
 21
-6.00005149841309
 31
0.0
  0
LINE
  5
   315
  8
0
  6
CONTINUOUS
 62
     3
 10
-2.93939328193665
 20
-4.00005149841309
 30
0.0
 11
-4.9393949508667
 21
-6.00005149841309
 31
0.0
  0
LINE
  5
   316
  8
0
  6
CONTINUOUS
 62
     3
 10
-0.818073034286499
 20
-4.00005149841309
 30
0.0
 11
-2.81807422637939
 21
-6.00005149841309
 31
0.0
  0
LINE
  5
   317
  8
0
  6
CONTINUOUS
 62
     3
 10
1.30324721336365
 20
-4.00005149841309
 30
0.0
 11
-0.696753740310669
 21
-6.00005149841309
 31
0.0
  0
LINE
  5
   318
  8
0
  6
CONTINUOUS
 62
     3
 10
3.42456746101379
 20
-4.00005149841309
 30
0.0
 11
1.42456674575806
 21
-6.00005149841309
 31
0.0
  0
LINE
  5
   319
  8
0
  6
CONTINUOUS
 62
     3
 10
5.54588794708252
 20
-4.00005149841309
 30
0.0
 11
3.54588747024536
 21
-6.00005149841309
 31
0.0
  0
LINE
  5
   31A
  8
0
  6
CONTINUOUS
 62
     3
 10
7.66720867156982
 20
-4.00005149841309
 30
0.0
 11
5.66720819473267
 21
-6.00005149841309
 31
0.0
  0
LINE
  5
   31B
  8
0
  6
CONTINUOUS
 62
     3
 10
9.78852939605713
 20
-4.00005149841309
 30
0.0
 11
7.78852891921997
 21
-6.00005149841309
 31
0.0
  0
LINE
  5
   31C
  8
0
  6
CONTINUOUS
 62
     3
 10
11.9098501205444
 20
-4.00005149841309
 30
0.0
 11
9.90984916687012
 21
-6.00005149841309
 31
0.0
  0
LINE
  5
   31D
  8
0
  6
CONTINUOUS
 62
     3
 10
14.0311708450317
 20
-4.00005149841309
 30
0.0
 11
12.0311698913574
 21
-6.00005149841309
 31
0.0
  0
LINE
  5
   31E
  8
0
  6
CONTINUOUS
 62
     3
 10
16.1524906158447
 20
-4.00005149841309
 30
0.0
 11
14.1524906158447
 21
-6.00005149841309
 31
0.0
  0
LINE
  5
   31F
  8
0
  6
CONTINUOUS
 62
     3
 10
18.2738094329834
 20
-4.00005149841309
 30
0.0
 11
16.273811340332
 21
-6.00005149841309
 31
0.0
  0
LINE
  5
   320
  8
0
  6
CONTINUOUS
 62
     3
 10
20.3951282501221
 20
-4.00005149841309
 30
0.0
 11
18.3951301574707
 21
-6.00005149841309
 31
0.0
  0
LINE
  5
   321
  8
0
  6
CONTINUOUS
 62
     3
 10
22.5164470672607
 20
-4.00005149841309
 30
0.0
 11
20.5164489746094
 21
-6.00005149841309
 31
0.0
  0
LINE
  5
   322
  8
0
  6
CONTINUOUS
 62
     3
 10
24.6377658843994
 20
-4.00005149841309
 30
0.0
 11
22.637767791748
 21
-6.00005149841309
 31
0.0
  0
LINE
  5
   323
  8
0
  6
CONTINUOUS
 62
     3
 10
26.7590847015381
 20
-4.00005149841309
 30
0.0
 11
24.7590866088867
 21
-6.00005149841309
 31
0.0
  0
LINE
  5
   324
  8
0
  6
CONTINUOUS
 62
     3
 10
28.8804035186768
 20
-4.00005149841309
 30
0.0
 11
26.8804054260254
 21
-6.00005149841309
 31
0.0
  0
LINE
  5
   325
  8
0
  6
CONTINUOUS
 62
     3
 10
31.0017223358154
 20
-4.00005149841309
 30
0.0
 11
29.0017242431641
 21
-6.00005149841309
 31
0.0
  0
LINE
  5
   326
  8
0
  6
CONTINUOUS
 62
     3
 10
33.1230430603027
 20
-4.00005149841309
 30
0.0
 11
31.1230430603027
 21
-6.00005149841309
 31
0.0
  0
LINE
  5
   327
  8
0
  6
CONTINUOUS
 62
     3
 10
35.2443656921387
 20
-4.00005149841309
 30
0.0
 11
33.2443656921387
 21
-6.00005149841309
 31
0.0
  0
LINE
  5
   328
  8
0
  6
CONTINUOUS
 62
     3
 10
35.4806251525879
 20
-5.88512229919434
 30
0.0
 11
35.3656959533691
 21
-6.00005149841309
 31
0.0
  0
ENDBLK
  5
   329
  8
0
  6
CONTINUOUS
 62
     7
  0
BLOCK
  5
   32A
  8
0
  6
CONTINUOUS
 62
     2
  2
*HATCH160
 70
    65
 10
0.0
 20
0.0
 30
0.0
  3
*HATCH160
  0
LINE
  5
   32B
  8
0
  6
CONTINUOUS
 62
   210
 10
225.128433227539
 20
82.9999618530274
 30
0.0
 11
221.237091064453
 21
79.1086196899414
 31
0.0
  0
LINE
  5
   32C
  8
0
  6
CONTINUOUS
 62
   210
 10
227.237045288086
 20
80.8659286499024
 30
0.0
 11
225.371078491211
 21
78.9999618530273
 31
0.0
  0
ENDBLK
  5
   32D
  8
0
  6
CONTINUOUS
 62
     2
  0
BLOCK
  5
   32E
  8
0
  6
CONTINUOUS
 62
     2
  2
*HATCH161
 70
    65
 10
0.0
 20
0.0
 30
0.0
  3
*HATCH161
  0
LINE
  5
   32F
  8
0
  6
CONTINUOUS
 62
   210
 10
199.672592163086
 20
82.9999618530274
 30
0.0
 11
196.745819091797
 21
80.0731887817383
 31
0.0
  0
LINE
  5
   330
  8
0
  6
CONTINUOUS
 62
   210
 10
203.915237426758
 20
82.9999618530274
 30
0.0
 11
198.915237426758
 21
77.9999618530274
 31
0.0
  0
LINE
  5
   331
  8
0
  6
CONTINUOUS
 62
   210
 10
208.15788269043
 20
82.9999618530274
 30
0.0
 11
203.15788269043
 21
77.9999618530274
 31
0.0
  0
LINE
  5
   332
  8
0
  6
CONTINUOUS
 62
   210
 10
212.400512695313
 20
82.9999618530274
 30
0.0
 11
208.400512695313
 21
78.9999618530273
 31
0.0
  0
LINE
  5
   333
  8
0
  6
CONTINUOUS
 62
   210
 10
213.237091064453
 20
79.5939025878906
 30
0.0
 11
212.643157958984
 21
78.9999618530273
 31
0.0
  0
ENDBLK
  5
   334
  8
0
  6
CONTINUOUS
 62
     2
  0
BLOCK
  5
   335
  8
0
  6
CONTINUOUS
 62
     2
  2
*HATCH162
 70
    65
 10
0.0
 20
0.0
 30
0.0
  3
*HATCH162
  0
LINE
  5
   336
  8
0
  6
CONTINUOUS
 62
   210
 10
207.237091064453
 20
74.8984298706055
 30
0.0
 11
210.135559082031
 21
71.9999618530273
 31
0.0
  0
LINE
  5
   337
  8
0
  6
CONTINUOUS
 62
   210
 10
208.378204345703
 20
77.9999618530274
 30
0.0
 11
212.987091064453
 21
73.3910598754883
 31
0.0
  0
LINE
  5
   338
  8
0
  6
CONTINUOUS
 62
   210
 10
212.620849609375
 20
77.9999618530274
 30
0.0
 11
212.987091064453
 21
77.6337051391602
 31
0.0
  0
ENDBLK
  5
   339
  8
0
  6
CONTINUOUS
 62
     2
  0
BLOCK
  5
   33A
  8
0
  6
CONTINUOUS
 62
     2
  2
*HATCH163
 70
    65
 10
0.0
 20
0.0
 30
0.0
  3
*HATCH163
  0
LINE
  5
   33B
  8
0
  6
CONTINUOUS
 62
   210
 10
221.487091064453
 20
75.4976654052734
 30
0.0
 11
224.984786987305
 21
71.9999618530273
 31
0.0
  0
LINE
  5
   33C
  8
0
  6
CONTINUOUS
 62
   210
 10
223.227432250977
 20
77.9999618530274
 30
0.0
 11
229.227432250977
 21
71.9999618530273
 31
0.0
  0
LINE
  5
   33D
  8
0
  6
CONTINUOUS
 62
   210
 10
227.470077514648
 20
77.9999618530274
 30
0.0
 11
233.470077514648
 21
71.9999618530273
 31
0.0
  0
LINE
  5
   33E
  8
0
  6
CONTINUOUS
 62
   210
 10
231.71272277832
 20
77.9999618530274
 30
0.0
 11
237.71272277832
 21
71.9999618530273
 31
0.0
  0
LINE
  5
   33F
  8
0
  6
CONTINUOUS
 62
   210
 10
235.955368041992
 20
77.9999618530274
 30
0.0
 11
241.955368041992
 21
71.9999618530273
 31
0.0
  0
LINE
  5
   340
  8
0
  6
CONTINUOUS
 62
   210
 10
240.198013305664
 20
77.9999618530274
 30
0.0
 11
246.198013305664
 21
71.9999618530273
 31
0.0
  0
LINE
  5
   341
  8
0
  6
CONTINUOUS
 62
   210
 10
244.440628051758
 20
77.9999618530274
 30
0.0
 11
246.487091064453
 21
75.9534912109375
 31
0.0
  0
ENDBLK
  5
   342
  8
0
  6
CONTINUOUS
 62
     2
  0
BLOCK
  5
   343
  8
0
  6
CONTINUOUS
 62
     2
  2
*HATCH164
 70
    65
 10
0.0
 20
0.0
 30
0.0
  3
*HATCH164
  0
LINE
  5
   344
  8
0
  6
CONTINUOUS
 62
   210
 10
254.987091064453
 20
75.9387664794922
 30
0.0
 11
258.925872802734
 21
71.9999618530273
 31
0.0
  0
LINE
  5
   345
  8
0
  6
CONTINUOUS
 62
   210
 10
257.168548583984
 20
77.9999618530274
 30
0.0
 11
263.168518066406
 21
71.9999618530273
 31
0.0
  0
LINE
  5
   346
  8
0
  6
CONTINUOUS
 62
   210
 10
261.411163330078
 20
77.9999618530274
 30
0.0
 11
263.237091064453
 21
76.1740417480469
 31
0.0
  0
ENDBLK
  5
   347
  8
0
  6
CONTINUOUS
 62
     2
  0
BLOCK
  5
   348
  8
0
  6
CONTINUOUS
 62
     7
  2
PROLUNGATI
 70
    64
 10
0.0
 20
0.0
 30
0.0
  3
PROLUNGATI
  0
LINE
  5
   349
  8
0
  6
CONTINUOUS
 62
     3
 10
-0.999999995575894
 20
20.5000305395807
 30
0.0
 11
4.42410552636829E-9
 21
20.5000457983697
 31
0.0
  0
LINE
  5
   34A
  8
0
  6
CONTINUOUS
 62
     3
 10
1.10387083651631E-6
 20
20.500041095613
 30
0.0
 11
1.0000010696423
 21
19.5000411298415
 31
0.0
  0
LINE
  5
   34B
  8
0
  6
CONTINUOUS
 62
     3
 10
1.0
 20
18.0000457763672
 30
0.0
 11
1.0
 21
19.5000457763672
 31
0.0
  0
LINE
  5
   34C
  8
0
  6
CONTINUOUS
 62
     3
 10
-0.999999998894022
 20
18.000030523006
 30
0.0
 11
1.00000000110598
 21
18.0000457817951
 31
0.0
  0
LINE
  5
   34D
  8
0
  6
CONTINUOUS
 62
     3
 10
-1.00000000000001
 20
18.0
 30
0.0
 11
0.99999999999999
 21
18.0
 31
0.0
  0
LINE
  5
   34E
  8
0
  6
CONTINUOUS
 62
     3
 10
-0.5
 20
-8.5
 30
0.0
 11
-0.5
 21
8.5
 31
0.0
  0
LINE
  5
   34F
  8
0
  6
CONTINUOUS
 62
     3
 10
-4.25000286102296
 20
11.5
 30
0.0
 11
-1.00000000000001
 21
11.5
 31
0.0
  0
LINE
  5
   350
  8
0
  6
CONTINUOUS
 62
     3
 10
-1.0
 20
11.5
 30
0.0
 11
-1.0
 21
18.0
 31
0.0
  0
LINE
  5
   351
  8
0
  6
CONTINUOUS
 62
     3
 10
-16.5
 20
-10.0
 30
0.0
 11
-15.0
 21
-10.0
 31
0.0
  0
LINE
  5
   352
  8
0
  6
CONTINUOUS
 62
     3
 10
-16.5
 20
-10.0000152587891
 30
0.0
 11
-15.0
 21
-10.0000152587891
 31
0.0
  0
LINE
  5
   353
  8
0
  6
CONTINUOUS
 62
     3
 10
-16.5
 20
20.5000152587891
 30
0.0
 11
-1.00000000000001
 21
20.5000152587891
 31
0.0
  0
LINE
  5
   354
  8
0
  6
CONTINUOUS
 62
     3
 10
-16.5
 20
-10.0
 30
0.0
 11
-16.5
 21
20.5000152587891
 31
0.0
  0
LINE
  5
   355
  8
0
  6
CONTINUOUS
 62
     3
 10
-1.0
 20
18.0000152587891
 30
0.0
 11
-1.0
 21
20.5000152587891
 31
0.0
  0
LINE
  5
   356
  8
0
  6
CONTINUOUS
 62
     3
 10
-2.00000000000001
 20
14.8000183105469
 30
0.0
 11
-1.00000000000001
 21
14.8000183105469
 31
0.0
  0
LINE
  5
   357
  8
0
  6
CONTINUOUS
 62
     3
 10
-2.39999850008332
 20
15.2000076486687
 30
0.0
 11
-1.99999886783133
 21
14.8000137483419
 31
0.0
  0
LINE
  5
   358
  8
0
  6
CONTINUOUS
 62
     3
 10
-14.9999995594845
 20
-10.0000004523688
 30
0.0
 11
-0.999999868097963
 21
18.0000157236966
 31
0.0
  0
LINE
  5
   359
  8
0
  6
CONTINUOUS
 62
   210
 10
0.0
 20
-6.5
 30
0.0
 11
0.0
 21
6.5
 31
0.0
  0
LINE
  5
   35A
  8
0
  6
CONTINUOUS
 62
     3
 10
-14.2500057220459
 20
-8.5
 30
0.0
 11
-0.500000000000011
 21
-8.5
 31
0.0
  0
LINE
  5
   35B
  8
0
  6
CONTINUOUS
 62
     3
 10
-5.75000476837159
 20
8.5
 30
0.0
 11
-0.50000000000001
 21
8.5
 31
0.0
  0
LINE
  5
   35C
  8
0
  6
CONTINUOUS
 62
     3
 10
-16.5
 20
19.5000152587891
 30
0.0
 11
-1.00000000000001
 21
19.5000152587891
 31
0.0
  0
LINE
  5
   35D
  8
0
  6
CONTINUOUS
 62
     3
 10
-16.5
 20
-8.99998474121094
 30
0.0
 11
-14.5
 21
-8.99998474121094
 31
0.0
  0
LINE
  5
   35E
  8
0
  6
CONTINUOUS
 62
   210
 10
-0.500000000000011
 20
6.5
 30
0.0
 11
-1.05356783140903E-14
 21
6.5
 31
0.0
  0
LINE
  5
   35F
  8
0
  6
CONTINUOUS
 62
   210
 10
-0.500000000000011
 20
-6.5
 30
0.0
 11
-1.13316987335361E-14
 21
-6.5
 31
0.0
  0
POINT
  5
   360
  8
0
  6
CONTINUOUS
 62
     7
 10
-1.0
 20
20.5000305395806
 30
0.0
  0
POINT
  5
   361
  8
0
  6
CONTINUOUS
 62
     7
 10
-1.0
 20
20.5000305395806
 30
0.0
  0
POINT
  5
   362
  8
0
  6
CONTINUOUS
 62
     7
 10
0.0
 20
0.0
 30
0.0
  0
ENDBLK
  5
   363
  8
0
  6
CONTINUOUS
 62
     7
  0
BLOCK
  5
   364
  8
0
  6
CONTINUOUS
 62
     7
  2
*UDIM97
 70
    65
 10
0.0
 20
0.0
 30
0.0
  3
*UDIM97
  0
TEXT
  5
   365
  8
0
  6
CONTINUOUS
 62
     7
 10
-420.355266572041
 20
-72.1009338284037
 30
0.0
 40
3.00000002980232
  1
8
 50
89.9999999480344
 41
0.933333333333334
 72
     1
 11
-421.855266585946
 21
-71.0009338161176
 31
0.0
 73
     2
  0
TEXT
  5
   366
  8
0
  6
CONTINUOUS
 62
     7
 10
-420.355266572041
 20
-74.8509338621797
 30
0.0
 40
3.00000002980232
  1
M
 50
89.9999999480344
 41
0.933333333333334
 72
     1
 11
-421.855266585946
 21
-73.7509338498936
 31
0.0
 73
     2
  0
LINE
  5
   367
  8
0
  6
CONTINUOUS
 62
     7
 10
-397.60316203629
 20
-66.3509341975874
 30
0.0
 11
-421.355266571045
 21
-66.3509341975874
 31
0.0
  0
LINE
  5
   368
  8
0
  6
CONTINUOUS
 62
     7
 10
-397.60316203629
 20
-62.3509341975874
 30
0.0
 11
-421.355266571045
 21
-62.3509341975874
 31
0.0
  0
LINE
  5
   369
  8
0
  6
CONTINUOUS
 62
     7
 10
-419.355266571045
 20
-74.8509338608211
 30
0.0
 11
-419.355266571045
 21
-62.3509341975874
 31
0.0
  0
LINE
  5
   36A
  8
0
  6
CONTINUOUS
 62
     7
 10
-418.834322141093
 20
-69.3053574747943
 30
0.0
 11
-419.355266571045
 21
-66.3509341975874
 31
0.0
  0
LINE
  5
   36B
  8
0
  6
CONTINUOUS
 62
     7
 10
-419.355266571045
 20
-66.3509341975874
 30
0.0
 11
-419.876211000997
 21
-69.3053574747943
 31
0.0
  0
LINE
  5
   36C
  8
0
  6
CONTINUOUS
 62
     7
 10
-419.876211000997
 20
-59.3965109203804
 30
0.0
 11
-419.355266571045
 21
-62.3509341975874
 31
0.0
  0
LINE
  5
   36D
  8
0
  6
CONTINUOUS
 62
     7
 10
-419.355266571045
 20
-62.3509341975874
 30
0.0
 11
-418.834322141093
 21
-59.3965109203804
 31
0.0
  0
ENDBLK
  5
   36E
  8
0
  6
CONTINUOUS
 62
     7
  0
BLOCK
  5
   36F
  8
0
  6
CONTINUOUS
 62
     7
  2
*UDIM98
 70
    65
 10
0.0
 20
0.0
 30
0.0
  3
*UDIM98
  0
TEXT
  5
   370
  8
0
  6
CONTINUOUS
 62
     7
 10
-390.103160713426
 20
79.9696350107578
 30
0.0
 40
3.00000002980232
  1
6
 50
359.999999948034
 41
0.933333333333334
 72
     1
 11
-389.003160701146
 21
81.4696350246668
 31
0.0
 73
     2
  0
LINE
  5
   371
  8
0
  6
CONTINUOUS
 62
     7
 10
-393.10316203629
 20
68.6490658024127
 30
0.0
 11
-393.10316203629
 21
80.9696350097656
 31
0.0
  0
LINE
  5
   372
  8
0
  6
CONTINUOUS
 62
     7
 10
-396.10316203629
 20
68.6490658024127
 30
0.0
 11
-396.10316203629
 21
80.9696350097656
 31
0.0
  0
LINE
  5
   373
  8
0
  6
CONTINUOUS
 62
     7
 10
-387.903160690218
 20
78.9696350097656
 30
0.0
 11
-396.10316203629
 21
78.9696350097656
 31
0.0
  0
LINE
  5
   374
  8
0
  6
CONTINUOUS
 62
     7
 10
-390.148738759083
 20
79.4905794397173
 30
0.0
 11
-393.10316203629
 21
78.9696350097656
 31
0.0
  0
LINE
  5
   375
  8
0
  6
CONTINUOUS
 62
     7
 10
-393.10316203629
 20
78.9696350097656
 30
0.0
 11
-390.148738759083
 21
78.448690579814
 31
0.0
  0
LINE
  5
   376
  8
0
  6
CONTINUOUS
 62
     7
 10
-399.057585313497
 20
78.448690579814
 30
0.0
 11
-396.10316203629
 21
78.9696350097656
 31
0.0
  0
LINE
  5
   377
  8
0
  6
CONTINUOUS
 62
     7
 10
-396.10316203629
 20
78.9696350097656
 30
0.0
 11
-399.057585313497
 21
79.4905794397173
 31
0.0
  0
ENDBLK
  5
   378
  8
0
  6
CONTINUOUS
 62
     7
  0
BLOCK
  5
   379
  8
0
  6
CONTINUOUS
 62
     7
  2
*UDIM99
 70
    65
 10
0.0
 20
0.0
 30
0.0
  3
*UDIM99
  0
TEXT
  5
   37A
  8
0
  6
CONTINUOUS
 62
     7
 10
-405.128157068627
 20
79.9696350120205
 30
0.0
 40
3.00000002980232
  1
25
 50
359.999999948034
 41
0.933333333333333
 72
     1
 11
-402.628157042439
 21
81.4696350246668
 31
0.0
 73
     2
  0
LINE
  5
   37B
  8
0
  6
CONTINUOUS
 62
     7
 10
-408.603149414063
 20
63.2051453736248
 30
0.0
 11
-408.603149414063
 21
80.9696350097656
 31
0.0
  0
LINE
  5
   37C
  8
0
  6
CONTINUOUS
 62
     7
 10
-396.10316203629
 20
78.9696350097656
 30
0.0
 11
-408.603149414063
 21
78.9696350097656
 31
0.0
  0
LINE
  5
   37D
  8
0
  6
CONTINUOUS
 62
     7
 10
-399.057585313497
 20
78.448690579814
 30
0.0
 11
-396.10316203629
 21
78.9696350097656
 31
0.0
  0
LINE
  5
   37E
  8
0
  6
CONTINUOUS
 62
     7
 10
-396.10316203629
 20
78.9696350097656
 30
0.0
 11
-399.057585313497
 21
79.4905794397173
 31
0.0
  0
LINE
  5
   37F
  8
0
  6
CONTINUOUS
 62
     7
 10
-405.648726136856
 20
79.4905794397173
 30
0.0
 11
-408.603149414063
 21
78.9696350097656
 31
0.0
  0
LINE
  5
   380
  8
0
  6
CONTINUOUS
 62
     7
 10
-408.603149414063
 20
78.9696350097656
 30
0.0
 11
-405.648726136856
 21
78.448690579814
 31
0.0
  0
ENDBLK
  5
   381
  8
0
  6
CONTINUOUS
 62
     7
  0
BLOCK
  5
   382
  8
0
  6
CONTINUOUS
 62
     7
  2
*UDIM100
 70
    65
 10
0.0
 20
0.0
 30
0.0
  3
*UDIM100
  0
TEXT
  5
   383
  8
0
  6
CONTINUOUS
 62
     7
 10
-430.654975895914
 20
47.8297164341309
 30
0.0
 40
3.00000002980232
  1
33,5
 50
89.9999999480344
 41
0.933333333333333
 72
     1
 11
-432.154975906014
 21
53.1297164881402
 31
0.0
 73
     2
  0
LINE
  5
   384
  8
0
  6
CONTINUOUS
 62
     7
 10
-403.317832613578
 20
44.6490658024126
 30
0.0
 11
-431.654975891113
 21
44.6490658024126
 31
0.0
  0
LINE
  5
   385
  8
0
  6
CONTINUOUS
 62
     7
 10
-399.074260949616
 20
61.3990658024127
 30
0.0
 11
-431.654975891113
 21
61.3990658024127
 31
0.0
  0
LINE
  5
   386
  8
0
  6
CONTINUOUS
 62
     7
 10
-429.654975891113
 20
44.6490658024126
 30
0.0
 11
-429.654975891113
 21
61.3990658024127
 31
0.0
  0
LINE
  5
   387
  8
0
  6
CONTINUOUS
 62
     7
 10
-430.175920321065
 20
47.6034890796196
 30
0.0
 11
-429.654975891113
 21
44.6490658024126
 31
0.0
  0
LINE
  5
   388
  8
0
  6
CONTINUOUS
 62
     7
 10
-429.654975891113
 20
44.6490658024126
 30
0.0
 11
-429.134031461162
 21
47.6034890796196
 31
0.0
  0
LINE
  5
   389
  8
0
  6
CONTINUOUS
 62
     7
 10
-429.134031461162
 20
58.4446425252057
 30
0.0
 11
-429.654975891113
 21
61.3990658024127
 31
0.0
  0
LINE
  5
   38A
  8
0
  6
CONTINUOUS
 62
     7
 10
-429.654975891113
 20
61.3990658024127
 30
0.0
 11
-430.175920321065
 21
58.4446425252057
 31
0.0
  0
ENDBLK
  5
   38B
  8
0
  6
CONTINUOUS
 62
     7
  0
BLOCK
  5
   38C
  8
0
  6
CONTINUOUS
 62
     7
  2
*UDIM101
 70
    65
 10
0.0
 20
0.0
 30
0.0
  3
*UDIM101
  0
TEXT
  5
   38D
  8
0
  6
CONTINUOUS
 62
     7
 10
-430.654975895914
 20
70.5740632688501
 30
0.0
 40
3.00000002980232
  1
12,5
 50
89.9999999480344
 41
0.933333333333333
 72
     1
 11
-432.154975906014
 21
75.8740633228594
 31
0.0
 73
     2
  0
LINE
  5
   38E
  8
0
  6
CONTINUOUS
 62
     7
 10
-397.10316203629
 20
67.6490658024127
 30
0.0
 11
-431.654975891113
 21
67.6490658024127
 31
0.0
  0
LINE
  5
   38F
  8
0
  6
CONTINUOUS
 62
     7
 10
-429.654975891113
 20
61.3990658024127
 30
0.0
 11
-429.654975891113
 21
81.1740633755102
 31
0.0
  0
LINE
  5
   390
  8
0
  6
CONTINUOUS
 62
     7
 10
-430.175920321065
 20
64.3534890796196
 30
0.0
 11
-429.654975891113
 21
61.3990658024127
 31
0.0
  0
LINE
  5
   391
  8
0
  6
CONTINUOUS
 62
     7
 10
-429.654975891113
 20
61.3990658024127
 30
0.0
 11
-429.134031461162
 21
64.3534890796196
 31
0.0
  0
LINE
  5
   392
  8
0
  6
CONTINUOUS
 62
     7
 10
-429.134031461162
 20
64.6946425252057
 30
0.0
 11
-429.654975891113
 21
67.6490658024127
 31
0.0
  0
LINE
  5
   393
  8
0
  6
CONTINUOUS
 62
     7
 10
-429.654975891113
 20
67.6490658024127
 30
0.0
 11
-430.175920321065
 21
64.6946425252057
 31
0.0
  0
ENDBLK
  5
   394
  8
0
  6
CONTINUOUS
 62
     7
  0
BLOCK
  5
   395
  8
0
  6
CONTINUOUS
 62
     7
  2
*UDIM102
 70
    65
 10
0.0
 20
0.0
 30
0.0
  3
*UDIM102
  0
TEXT
  5
   396
  8
0
  6
CONTINUOUS
 62
     7
 10
-380.869757030717
 20
-93.319459914169
 30
0.0
 40
3.00000002980232
  1
5
 50
359.999999948034
 41
0.933333333333334
 72
     1
 11
-379.769757018437
 21
-91.81945990026
 31
0.0
 73
     2
  0
TEXT
  5
   397
  8
0
  6
CONTINUOUS
 62
     7
 10
-392.01975714794
 20
-93.3194599103808
 30
0.0
 40
3.00000002980232
  1
min.
 50
359.999999948034
 41
0.933333333333333
 72
     1
 11
-386.719757093936
 21
-91.81945990026
 31
0.0
 73
     2
  0
LINE
  5
   398
  8
0
  6
CONTINUOUS
 62
     7
 10
-393.60316203629
 20
-69.8509341975874
 30
0.0
 11
-393.60316203629
 21
-96.3194599151611
 31
0.0
  0
LINE
  5
   399
  8
0
  6
CONTINUOUS
 62
     7
 10
-396.103161082615
 20
-70.350959777832
 30
0.0
 11
-396.103161082615
 21
-96.3194599151611
 31
0.0
  0
LINE
  5
   39A
  8
0
  6
CONTINUOUS
 62
     7
 10
-378.669757007509
 20
-94.3194599151611
 30
0.0
 11
-396.103161082615
 21
-94.3194599151611
 31
0.0
  0
LINE
  5
   39B
  8
0
  6
CONTINUOUS
 62
     7
 10
-390.648738759083
 20
-93.7985154852095
 30
0.0
 11
-393.60316203629
 21
-94.3194599151611
 31
0.0
  0
LINE
  5
   39C
  8
0
  6
CONTINUOUS
 62
     7
 10
-393.60316203629
 20
-94.3194599151611
 30
0.0
 11
-390.648738759083
 21
-94.8404043451128
 31
0.0
  0
LINE
  5
   39D
  8
0
  6
CONTINUOUS
 62
     7
 10
-399.057584359822
 20
-94.8404043451128
 30
0.0
 11
-396.103161082615
 21
-94.3194599151611
 31
0.0
  0
LINE
  5
   39E
  8
0
  6
CONTINUOUS
 62
     7
 10
-396.103161082615
 20
-94.3194599151611
 30
0.0
 11
-399.057584359822
 21
-93.7985154852095
 31
0.0
  0
ENDBLK
  5
   39F
  8
0
  6
CONTINUOUS
 62
     7
  0
BLOCK
  5
   3A0
  8
0
  6
CONTINUOUS
 62
     7
  2
*UDIM103
 70
    65
 10
0.0
 20
0.0
 30
0.0
  3
*UDIM103
  0
TEXT
  5
   3A1
  8
0
  6
CONTINUOUS
 62
     7
 10
-404.353160713426
 20
-93.319459914169
 30
0.0
 40
3.00000002980232
  1
5
 50
359.999999948034
 41
0.933333333333334
 72
     1
 11
-403.253160701146
 21
-91.81945990026
 31
0.0
 73
     2
  0
LINE
  5
   3A2
  8
0
  6
CONTINUOUS
 62
     7
 10
-398.603161082615
 20
-70.350959777832
 30
0.0
 11
-398.603161082615
 21
-96.3194599151611
 31
0.0
  0
LINE
  5
   3A3
  8
0
  6
CONTINUOUS
 62
     7
 10
-396.103161082615
 20
-94.3194599151611
 30
0.0
 11
-404.353160712073
 21
-94.3194599151611
 31
0.0
  0
LINE
  5
   3A4
  8
0
  6
CONTINUOUS
 62
     7
 10
-393.148737805408
 20
-93.7985154852095
 30
0.0
 11
-396.103161082615
 21
-94.3194599151611
 31
0.0
  0
LINE
  5
   3A5
  8
0
  6
CONTINUOUS
 62
     7
 10
-396.103161082615
 20
-94.3194599151611
 30
0.0
 11
-393.148737805408
 21
-94.8404043451128
 31
0.0
  0
LINE
  5
   3A6
  8
0
  6
CONTINUOUS
 62
     7
 10
-401.557584359822
 20
-94.8404043451128
 30
0.0
 11
-398.603161082615
 21
-94.3194599151611
 31
0.0
  0
LINE
  5
   3A7
  8
0
  6
CONTINUOUS
 62
     7
 10
-398.603161082615
 20
-94.3194599151611
 30
0.0
 11
-401.557584359822
 21
-93.7985154852095
 31
0.0
  0
ENDBLK
  5
   3A8
  8
0
  6
CONTINUOUS
 62
     7
  0
BLOCK
  5
   3A9
  8
0
  6
CONTINUOUS
 62
     7
  2
*UDIM104
 70
    65
 10
0.0
 20
0.0
 30
0.0
  3
*UDIM104
  0
TEXT
  5
   3AA
  8
0
  6
CONTINUOUS
 62
     7
 10
-422.441755433219
 20
-85.9850349403721
 30
0.0
 40
3.00000002980232
  1
20
 50
359.999999948034
 41
0.933333333333333
 72
     1
 11
-419.94175540703
 21
-84.4850349277258
 31
0.0
 73
     2
  0
LINE
  5
   3AB
  8
0
  6
CONTINUOUS
 62
     7
 10
-398.603161082615
 20
-70.350959777832
 30
0.0
 11
-398.603161082615
 21
-88.985034942627
 31
0.0
  0
LINE
  5
   3AC
  8
0
  6
CONTINUOUS
 62
     7
 10
-408.603149414063
 20
-83.9422856285646
 30
0.0
 11
-408.603149414063
 21
-88.985034942627
 31
0.0
  0
LINE
  5
   3AD
  8
0
  6
CONTINUOUS
 62
     7
 10
-398.603161082615
 20
-86.985034942627
 30
0.0
 11
-422.441755431866
 21
-86.985034942627
 31
0.0
  0
LINE
  5
   3AE
  8
0
  6
CONTINUOUS
 62
     7
 10
-401.557584359822
 20
-87.5059793725786
 30
0.0
 11
-398.603161082615
 21
-86.985034942627
 31
0.0
  0
LINE
  5
   3AF
  8
0
  6
CONTINUOUS
 62
     7
 10
-398.603161082615
 20
-86.985034942627
 30
0.0
 11
-401.557584359822
 21
-86.4640905126753
 31
0.0
  0
LINE
  5
   3B0
  8
0
  6
CONTINUOUS
 62
     7
 10
-405.648726136856
 20
-86.4640905126753
 30
0.0
 11
-408.603149414063
 21
-86.985034942627
 31
0.0
  0
LINE
  5
   3B1
  8
0
  6
CONTINUOUS
 62
     7
 10
-408.603149414063
 20
-86.985034942627
 30
0.0
 11
-405.648726136856
 21
-87.5059793725786
 31
0.0
  0
ENDBLK
  5
   3B2
  8
0
  6
CONTINUOUS
 62
     7
  0
BLOCK
  5
   3B3
  8
0
  6
CONTINUOUS
 62
     5
  2
*UDIM105
 70
    65
 10
0.0
 20
0.0
 30
0.0
  3
*UDIM105
  0
TEXT
  5
   3B4
  8
0
  6
CONTINUOUS
 62
     5
 10
-430.644798286145
 20
9.46156301913881
 30
0.0
 40
3.00000002980232
  1
107,25
 50
89.9999999480344
 41
0.933333333333333
 72
     1
 11
-432.14479829371
 21
17.5615631009637
 31
0.0
 73
     2
  0
LINE
  5
   3B5
  8
0
  6
CONTINUOUS
 62
     5
 10
-417.482286587099
 20
-8.97594268800594
 30
0.0
 11
-431.644798278809
 21
-8.97594268800594
 31
0.0
  0
LINE
  5
   3B6
  8
0
  6
CONTINUOUS
 62
     5
 10
-403.317832613578
 20
44.6490658024126
 30
0.0
 11
-431.644798278809
 21
44.6490658024126
 31
0.0
  0
LINE
  5
   3B7
  8
0
  6
CONTINUOUS
 62
     5
 10
-429.644798278809
 20
-8.97594268800594
 30
0.0
 11
-429.644798278809
 21
44.6490658024126
 31
0.0
  0
LINE
  5
   3B8
  8
0
  6
CONTINUOUS
 62
     5
 10
-430.16574270876
 20
-6.02151941079898
 30
0.0
 11
-429.644798278809
 21
-8.97594268800594
 31
0.0
  0
LINE
  5
   3B9
  8
0
  6
CONTINUOUS
 62
     5
 10
-429.644798278809
 20
-8.97594268800594
 30
0.0
 11
-429.123853848857
 21
-6.02151941079898
 31
0.0
  0
LINE
  5
   3BA
  8
0
  6
CONTINUOUS
 62
     5
 10
-429.123853848857
 20
41.6946425252057
 30
0.0
 11
-429.644798278809
 21
44.6490658024126
 31
0.0
  0
LINE
  5
   3BB
  8
0
  6
CONTINUOUS
 62
     5
 10
-429.644798278809
 20
44.6490658024126
 30
0.0
 11
-430.16574270876
 21
41.6946425252057
 31
0.0
  0
ENDBLK
  5
   3BC
  8
0
  6
CONTINUOUS
 62
     5
  0
BLOCK
  5
   3BD
  8
0
  6
CONTINUOUS
 62
     7
  2
*UDIM106
 70
    65
 10
0.0
 20
0.0
 30
0.0
  3
*UDIM106
  0
TEXT
  5
   3BE
  8
0
  6
CONTINUOUS
 62
     7
 10
-351.103154290082
 20
-115.169929503402
 30
0.0
 40
3.00000002980232
  1
2
 50
359.999999948034
 41
0.933333333333334
 72
     1
 11
-350.003154277802
 21
-113.669929489493
 31
0.0
 73
     2
  0
LINE
  5
   3BF
  8
0
  6
CONTINUOUS
 62
     7
 10
-354.103154182434
 20
-77.4311262993392
 30
0.0
 11
-354.103154182434
 21
-118.169929504395
 31
0.0
  0
LINE
  5
   3C0
  8
0
  6
CONTINUOUS
 62
     7
 10
-355.103154182434
 20
-78.0449194027874
 30
0.0
 11
-355.103154182434
 21
-118.169929504395
 31
0.0
  0
LINE
  5
   3C1
  8
0
  6
CONTINUOUS
 62
     7
 10
-348.903154266874
 20
-116.169929504395
 30
0.0
 11
-355.103154182434
 21
-116.169929504395
 31
0.0
  0
LINE
  5
   3C2
  8
0
  6
CONTINUOUS
 62
     7
 10
-351.148730905227
 20
-115.648985074443
 30
0.0
 11
-354.103154182434
 21
-116.169929504395
 31
0.0
  0
LINE
  5
   3C3
  8
0
  6
CONTINUOUS
 62
     7
 10
-354.103154182434
 20
-116.169929504395
 30
0.0
 11
-351.148730905227
 21
-116.690873934346
 31
0.0
  0
LINE
  5
   3C4
  8
0
  6
CONTINUOUS
 62
     7
 10
-358.057577459641
 20
-116.690873934346
 30
0.0
 11
-355.103154182434
 21
-116.169929504395
 31
0.0
  0
LINE
  5
   3C5
  8
0
  6
CONTINUOUS
 62
     7
 10
-355.103154182434
 20
-116.169929504395
 30
0.0
 11
-358.057577459641
 21
-115.648985074443
 31
0.0
  0
ENDBLK
  5
   3C6
  8
0
  6
CONTINUOUS
 62
     7
  0
BLOCK
  5
   3C7
  8
0
  6
CONTINUOUS
 62
     7
  2
*UDIM107
 70
    65
 10
0.0
 20
0.0
 30
0.0
  3
*UDIM107
  0
TEXT
  5
   3C8
  8
0
  6
CONTINUOUS
 62
     7
 10
-386.028153274816
 20
-115.169929500877
 30
0.0
 40
3.00000002980232
  1
107
 50
359.999999948034
 41
0.933333333333333
 72
     1
 11
-382.12815323472
 21
-113.669929489493
 31
0.0
 73
     2
  0
LINE
  5
   3C9
  8
0
  6
CONTINUOUS
 62
     7
 10
-408.603149414063
 20
-83.9422856285646
 30
0.0
 11
-408.603149414063
 21
-118.169929504395
 31
0.0
  0
LINE
  5
   3CA
  8
0
  6
CONTINUOUS
 62
     7
 10
-355.103154182434
 20
-116.169929504395
 30
0.0
 11
-408.603149414063
 21
-116.169929504395
 31
0.0
  0
LINE
  5
   3CB
  8
0
  6
CONTINUOUS
 62
     7
 10
-358.057577459641
 20
-116.690873934346
 30
0.0
 11
-355.103154182434
 21
-116.169929504395
 31
0.0
  0
LINE
  5
   3CC
  8
0
  6
CONTINUOUS
 62
     7
 10
-355.103154182434
 20
-116.169929504395
 30
0.0
 11
-358.057577459641
 21
-115.648985074443
 31
0.0
  0
LINE
  5
   3CD
  8
0
  6
CONTINUOUS
 62
     7
 10
-405.648726136856
 20
-115.648985074443
 30
0.0
 11
-408.603149414063
 21
-116.169929504395
 31
0.0
  0
LINE
  5
   3CE
  8
0
  6
CONTINUOUS
 62
     7
 10
-408.603149414063
 20
-116.169929504395
 30
0.0
 11
-405.648726136856
 21
-116.690873934346
 31
0.0
  0
ENDBLK
  5
   3CF
  8
0
  6
CONTINUOUS
 62
     7
  0
BLOCK
  5
   3D0
  8
0
  6
CONTINUOUS
 62
     7
  2
*UDIM108
 70
    65
 10
0.0
 20
0.0
 30
0.0
  3
*UDIM108
  0
TEXT
  5
   3D1
  8
0
  6
CONTINUOUS
 62
     7
 10
-389.703149495829
 20
-108.14110946051
 30
0.0
 40
3.00000002980232
  1
103,5
 50
359.999999948034
 41
0.933333333333333
 72
     1
 11
-383.003149427917
 21
-106.641109451652
 31
0.0
 73
     2
  0
LINE
  5
   3D2
  8
0
  6
CONTINUOUS
 62
     7
 10
-356.853157357374
 20
-36.2259274292168
 30
0.0
 11
-356.853180874484
 21
-111.141109466553
 31
0.0
  0
LINE
  5
   3D3
  8
0
  6
CONTINUOUS
 62
     7
 10
-408.603149727979
 20
-83.9422856285645
 30
0.0
 11
-408.603158266138
 21
-111.141109466553
 31
0.0
  0
LINE
  5
   3D4
  8
0
  6
CONTINUOUS
 62
     7
 10
-356.853180246651
 20
-109.141109466553
 30
0.0
 11
-408.603157638305
 21
-109.141109466553
 31
0.0
  0
LINE
  5
   3D5
  8
0
  6
CONTINUOUS
 62
     7
 10
-359.807603523858
 20
-109.662053896504
 30
0.0
 11
-356.853180246651
 21
-109.141109466553
 31
0.0
  0
LINE
  5
   3D6
  8
0
  6
CONTINUOUS
 62
     7
 10
-356.853180246651
 20
-109.141109466553
 30
0.0
 11
-359.807603523858
 21
-108.620165036601
 31
0.0
  0
LINE
  5
   3D7
  8
0
  6
CONTINUOUS
 62
     7
 10
-405.648734361098
 20
-108.620165036601
 30
0.0
 11
-408.603157638305
 21
-109.141109466553
 31
0.0
  0
LINE
  5
   3D8
  8
0
  6
CONTINUOUS
 62
     7
 10
-408.603157638305
 20
-109.141109466553
 30
0.0
 11
-405.648734361098
 21
-109.662053896504
 31
0.0
  0
ENDBLK
  5
   3D9
  8
0
  6
CONTINUOUS
 62
     7
  0
BLOCK
  5
   3DA
  8
0
  6
CONTINUOUS
 62
     7
  2
*UDIM109
 70
    65
 10
0.0
 20
0.0
 30
0.0
  3
*UDIM109
  0
TEXT
  5
   3DB
  8
0
  6
CONTINUOUS
 62
     7
 10
-415.853145825024
 20
-108.141109465561
 30
0.0
 40
3.00000002980232
  1
3
 50
359.999999948034
 41
0.933333333333334
 72
     1
 11
-414.753145812743
 21
-106.641109451652
 31
0.0
 73
     2
  0
TEXT
  5
   3DC
  8
0
  6
CONTINUOUS
 62
     7
 10
-418.6031458588
 20
-108.141109465561
 30
0.0
 40
3.00000002980232
  1
_
 50
359.999999948034
 41
0.933333333333334
 72
     1
 11
-417.503145846519
 21
-106.641109451652
 31
0.0
 73
     2
  0
LINE
  5
   3DD
  8
0
  6
CONTINUOUS
 62
     7
 10
-410.103149727979
 20
-83.9422856285645
 30
0.0
 11
-410.103158266138
 21
-111.141109466553
 31
0.0
  0
LINE
  5
   3DE
  8
0
  6
CONTINUOUS
 62
     7
 10
-408.603157638305
 20
-109.141109466553
 30
0.0
 11
-418.603145857447
 21
-109.141109466553
 31
0.0
  0
LINE
  5
   3DF
  8
0
  6
CONTINUOUS
 62
     7
 10
-405.648734361098
 20
-108.620165036601
 30
0.0
 11
-408.603157638305
 21
-109.141109466553
 31
0.0
  0
LINE
  5
   3E0
  8
0
  6
CONTINUOUS
 62
     7
 10
-408.603157638305
 20
-109.141109466553
 30
0.0
 11
-405.648734361098
 21
-109.662053896504
 31
0.0
  0
LINE
  5
   3E1
  8
0
  6
CONTINUOUS
 62
     7
 10
-413.057580915512
 20
-109.662053896504
 30
0.0
 11
-410.103157638305
 21
-109.141109466553
 31
0.0
  0
LINE
  5
   3E2
  8
0
  6
CONTINUOUS
 62
     7
 10
-410.103157638305
 20
-109.141109466553
 30
0.0
 11
-413.057580915512
 21
-108.620165036601
 31
0.0
  0
ENDBLK
  5
   3E3
  8
0
  6
CONTINUOUS
 62
     7
  0
BLOCK
  5
   3E4
  8
0
  6
CONTINUOUS
 62
     7
  2
*UDIM110
 70
    65
 10
0.0
 20
0.0
 30
0.0
  3
*UDIM110
  0
TEXT
  5
   3E5
  8
0
  6
CONTINUOUS
 62
     7
 10
-349.527763368964
 20
-64.385451501891
 30
0.0
 40
3.00000002980232
  1
11
 50
89.9999999480344
 41
0.933333333333333
 72
     1
 11
-351.0277633816
 21
-61.8854514756972
 31
0.0
 73
     2
  0
LINE
  5
   3E6
  8
0
  6
CONTINUOUS
 62
     7
 10
-387.251190596139
 20
-64.3509853580767
 30
0.0
 11
-346.527763366699
 21
-64.3509853580767
 31
0.0
  0
LINE
  5
   3E7
  8
0
  6
CONTINUOUS
 62
     7
 10
-386.901766583934
 20
-58.8509853580767
 30
0.0
 11
-346.527763366699
 21
-58.8509853580767
 31
0.0
  0
LINE
  5
   3E8
  8
0
  6
CONTINUOUS
 62
     7
 10
-348.527763366699
 20
-64.3854515005325
 30
0.0
 11
-348.527763366699
 21
-58.8509853580767
 31
0.0
  0
LINE
  5
   3E9
  8
0
  6
CONTINUOUS
 62
     7
 10
-348.006818936748
 20
-67.3054086352837
 30
0.0
 11
-348.527763366699
 21
-64.3509853580767
 31
0.0
  0
LINE
  5
   3EA
  8
0
  6
CONTINUOUS
 62
     7
 10
-348.527763366699
 20
-64.3509853580767
 30
0.0
 11
-349.048707796651
 21
-67.3054086352837
 31
0.0
  0
LINE
  5
   3EB
  8
0
  6
CONTINUOUS
 62
     7
 10
-349.048707796651
 20
-55.8965620808697
 30
0.0
 11
-348.527763366699
 21
-58.8509853580767
 31
0.0
  0
LINE
  5
   3EC
  8
0
  6
CONTINUOUS
 62
     7
 10
-348.527763366699
 20
-58.8509853580767
 30
0.0
 11
-348.006818936748
 21
-55.8965620808697
 31
0.0
  0
ENDBLK
  5
   3ED
  8
0
  6
CONTINUOUS
 62
     7
  0
BLOCK
  5
   3EE
  8
0
  6
CONTINUOUS
 62
     7
  2
*UDIM111
 70
    65
 10
0.0
 20
0.0
 30
0.0
  3
*UDIM111
  0
TEXT
  5
   3EF
  8
0
  6
CONTINUOUS
 62
     7
 10
-427.515052797674
 20
-72.8759859564752
 30
0.0
 40
3.00000002980232
  1
15
 50
89.9999999480344
 41
0.933333333333333
 72
     1
 11
-429.015052810311
 21
-70.3759859302813
 31
0.0
 73
     2
  0
LINE
  5
   3F0
  8
0
  6
CONTINUOUS
 62
     7
 10
-403.317832613578
 20
-64.3509853580767
 30
0.0
 11
-428.51505279541
 21
-64.3509853580767
 31
0.0
  0
LINE
  5
   3F1
  8
0
  6
CONTINUOUS
 62
     7
 10
-408.6031498909
 20
-56.8509853580767
 30
0.0
 11
-428.51505279541
 21
-56.8509853580767
 31
0.0
  0
LINE
  5
   3F2
  8
0
  6
CONTINUOUS
 62
     7
 10
-426.51505279541
 20
-72.8759859551166
 30
0.0
 11
-426.51505279541
 21
-56.8509853580767
 31
0.0
  0
LINE
  5
   3F3
  8
0
  6
CONTINUOUS
 62
     7
 10
-425.994108365459
 20
-67.3054086352837
 30
0.0
 11
-426.51505279541
 21
-64.3509853580767
 31
0.0
  0
LINE
  5
   3F4
  8
0
  6
CONTINUOUS
 62
     7
 10
-426.51505279541
 20
-64.3509853580767
 30
0.0
 11
-427.035997225362
 21
-67.3054086352837
 31
0.0
  0
LINE
  5
   3F5
  8
0
  6
CONTINUOUS
 62
     7
 10
-427.035997225362
 20
-53.8965620808698
 30
0.0
 11
-426.51505279541
 21
-56.8509853580767
 31
0.0
  0
LINE
  5
   3F6
  8
0
  6
CONTINUOUS
 62
     7
 10
-426.51505279541
 20
-56.8509853580767
 30
0.0
 11
-425.994108365459
 21
-53.8965620808698
 31
0.0
  0
ENDBLK
  5
   3F7
  8
0
  6
CONTINUOUS
 62
     7
  0
BLOCK
  5
   3F8
  8
0
  6
CONTINUOUS
 62
     7
  2
*UDIM112
 70
    65
 10
0.0
 20
0.0
 30
0.0
  3
*UDIM112
  0
TEXT
  5
   3F9
  8
0
  6
CONTINUOUS
 62
     7
 10
-393.564397549236
 20
-100.806690210021
 30
0.0
 40
3.00000002980232
  1
101,5
 50
359.999999948034
 41
0.933333333333333
 72
     1
 11
-386.864397481325
 21
-99.3066902011633
 31
0.0
 73
     2
  0
LINE
  5
   3FA
  8
0
  6
CONTINUOUS
 62
     7
 10
-357.853157357374
 20
16.2740573119941
 30
0.0
 11
-357.853195052699
 21
-103.806690216064
 31
0.0
  0
LINE
  5
   3FB
  8
0
  6
CONTINUOUS
 62
     7
 10
-408.603149727979
 20
-83.9422856285645
 30
0.0
 11
-408.603155963743
 21
-103.806690216064
 31
0.0
  0
LINE
  5
   3FC
  8
0
  6
CONTINUOUS
 62
     7
 10
-357.853194424866
 20
-101.806690216064
 30
0.0
 11
-408.60315533591
 21
-101.806690216064
 31
0.0
  0
LINE
  5
   3FD
  8
0
  6
CONTINUOUS
 62
     7
 10
-360.807617702073
 20
-102.327634646016
 30
0.0
 11
-357.853194424866
 21
-101.806690216064
 31
0.0
  0
LINE
  5
   3FE
  8
0
  6
CONTINUOUS
 62
     7
 10
-357.853194424866
 20
-101.806690216064
 30
0.0
 11
-360.807617702073
 21
-101.285745786113
 31
0.0
  0
LINE
  5
   3FF
  8
0
  6
CONTINUOUS
 62
     7
 10
-405.648732058703
 20
-101.285745786113
 30
0.0
 11
-408.60315533591
 21
-101.806690216064
 31
0.0
  0
LINE
  5
   400
  8
0
  6
CONTINUOUS
 62
     7
 10
-408.60315533591
 20
-101.806690216064
 30
0.0
 11
-405.648732058703
 21
-102.327634646016
 31
0.0
  0
ENDBLK
  5
   401
  8
0
  6
CONTINUOUS
 62
     7
  0
BLOCK
  5
   402
  8
0
  6
CONTINUOUS
 62
     7
  2
*UDIM113
 70
    65
 10
0.0
 20
0.0
 30
0.0
  3
*UDIM113
  0
TEXT
  5
   403
  8
0
  6
CONTINUOUS
 62
     7
 10
-327.907157900214
 20
39.4657455172053
 30
0.0
 40
3.00000002980232
  1
11
 50
89.9999999480344
 41
0.933333333333333
 72
     1
 11
-329.40715791285
 21
41.9657455433992
 31
0.0
 73
     2
  0
LINE
  5
   404
  8
0
  6
CONTINUOUS
 62
     7
 10
-388.32602562093
 20
39.149040222168
 30
0.0
 11
-324.907157897949
 21
39.149040222168
 31
0.0
  0
LINE
  5
   405
  8
0
  6
CONTINUOUS
 62
     7
 10
-387.251190596139
 20
44.6490658024126
 30
0.0
 11
-324.907157897949
 21
44.6490658024126
 31
0.0
  0
LINE
  5
   406
  8
0
  6
CONTINUOUS
 62
     7
 10
-326.907157897949
 20
39.149040222168
 30
0.0
 11
-326.907157897949
 21
44.6490658024126
 31
0.0
  0
LINE
  5
   407
  8
0
  6
CONTINUOUS
 62
     7
 10
-326.386213467998
 20
36.194616944961
 30
0.0
 11
-326.907157897949
 21
39.149040222168
 31
0.0
  0
LINE
  5
   408
  8
0
  6
CONTINUOUS
 62
     7
 10
-326.907157897949
 20
39.149040222168
 30
0.0
 11
-327.428102327901
 21
36.194616944961
 31
0.0
  0
LINE
  5
   409
  8
0
  6
CONTINUOUS
 62
     7
 10
-327.428102327901
 20
47.6034890796196
 30
0.0
 11
-326.907157897949
 21
44.6490658024126
 31
0.0
  0
LINE
  5
   40A
  8
0
  6
CONTINUOUS
 62
     7
 10
-326.907157897949
 20
44.6490658024126
 30
0.0
 11
-326.386213467998
 21
47.6034890796196
 31
0.0
  0
ENDBLK
  5
   40B
  8
0
  6
CONTINUOUS
 62
     7
  0
BLOCK
  5
   40C
  8
0
  6
CONTINUOUS
 62
     7
  2
*UDIM114
 70
    65
 10
0.0
 20
0.0
 30
0.0
  3
*UDIM114
  0
TEXT
  5
   40D
  8
0
  6
CONTINUOUS
 62
     7
 10
-440.230537418083
 20
-14.0259636385914
 30
0.0
 40
3.00000002980232
  1
218
 50
89.9999999480344
 41
0.933333333333333
 72
     1
 11
-441.730537429452
 21
-10.1259635984898
 31
0.0
 73
     2
  0
LINE
  5
   40E
  8
0
  6
CONTINUOUS
 62
     7
 10
-403.317832613578
 20
-64.3509853580767
 30
0.0
 11
-441.230537414551
 21
-64.3509853580767
 31
0.0
  0
LINE
  5
   40F
  8
0
  6
CONTINUOUS
 62
     7
 10
-403.317832613578
 20
44.6490658024126
 30
0.0
 11
-441.230537414551
 21
44.6490658024126
 31
0.0
  0
LINE
  5
   410
  8
0
  6
CONTINUOUS
 62
     7
 10
-439.230537414551
 20
-64.3509853580767
 30
0.0
 11
-439.230537414551
 21
44.6490658024126
 31
0.0
  0
LINE
  5
   411
  8
0
  6
CONTINUOUS
 62
     7
 10
-439.751481844502
 20
-61.3965620808698
 30
0.0
 11
-439.230537414551
 21
-64.3509853580767
 31
0.0
  0
LINE
  5
   412
  8
0
  6
CONTINUOUS
 62
     7
 10
-439.230537414551
 20
-64.3509853580767
 30
0.0
 11
-438.709592984599
 21
-61.3965620808698
 31
0.0
  0
LINE
  5
   413
  8
0
  6
CONTINUOUS
 62
     7
 10
-438.709592984599
 20
41.6946425252057
 30
0.0
 11
-439.230537414551
 21
44.6490658024126
 31
0.0
  0
LINE
  5
   414
  8
0
  6
CONTINUOUS
 62
     7
 10
-439.230537414551
 20
44.6490658024126
 30
0.0
 11
-439.751481844502
 21
41.6946425252057
 31
0.0
  0
ENDBLK
  5
   415
  8
0
  6
CONTINUOUS
 62
     7
  0
BLOCK
  5
   416
  8
0
  6
CONTINUOUS
 62
     7
  2
*UDIM115
 70
    65
 10
0.0
 20
0.0
 30
0.0
  3
*UDIM115
  0
TEXT
  5
   417
  8
0
  6
CONTINUOUS
 62
     7
 10
-379.017134517058
 20
-122.657165523826
 30
0.0
 40
3.00000002980232
  1
135
 50
359.999999948034
 41
0.933333333333333
 72
     1
 11
-375.117134476962
 21
-121.157165512443
 31
0.0
 73
     2
  0
LINE
  5
   418
  8
0
  6
CONTINUOUS
 62
     7
 10
-341.081116114467
 20
-15.1009274292168
 30
0.0
 11
-341.081157686024
 21
-125.657165527344
 31
0.0
  0
LINE
  5
   419
  8
0
  6
CONTINUOUS
 62
     7
 10
-408.603149727979
 20
-83.9422856285645
 30
0.0
 11
-408.603162822967
 21
-125.657165527344
 31
0.0
  0
LINE
  5
   41A
  8
0
  6
CONTINUOUS
 62
     7
 10
-341.081156933981
 20
-123.657165527344
 30
0.0
 11
-408.603162195134
 21
-123.657165527344
 31
0.0
  0
LINE
  5
   41B
  8
0
  6
CONTINUOUS
 62
     7
 10
-344.035580211188
 20
-124.178109957295
 30
0.0
 11
-341.081156933981
 21
-123.657165527344
 31
0.0
  0
LINE
  5
   41C
  8
0
  6
CONTINUOUS
 62
     7
 10
-341.081156933981
 20
-123.657165527344
 30
0.0
 11
-344.035580211188
 21
-123.136221097392
 31
0.0
  0
LINE
  5
   41D
  8
0
  6
CONTINUOUS
 62
     7
 10
-405.648738917927
 20
-123.136221097392
 30
0.0
 11
-408.603162195134
 21
-123.657165527344
 31
0.0
  0
LINE
  5
   41E
  8
0
  6
CONTINUOUS
 62
     7
 10
-408.603162195134
 20
-123.657165527344
 30
0.0
 11
-405.648738917927
 21
-124.178109957295
 31
0.0
  0
ENDBLK
  5
   41F
  8
0
  6
CONTINUOUS
 62
     7
  0
BLOCK
  5
   420
  8
0
  6
CONTINUOUS
 62
     7
  2
*UDIM116
 70
    65
 10
0.0
 20
0.0
 30
0.0
  3
*UDIM116
  0
TEXT
  5
   421
  8
0
  6
CONTINUOUS
 62
     7
 10
-326.927301410393
 20
-13.1509369226151
 30
0.0
 40
3.00000002980232
  1
105
 50
89.9999999480344
 41
0.933333333333333
 72
     1
 11
-328.427301421762
 21
-9.25093688251354
 31
0.0
 73
     2
  0
LINE
  5
   422
  8
0
  6
CONTINUOUS
 62
     7
 10
-354.103154182434
 20
-35.2259274292169
 30
0.0
 11
-323.92730140686
 21
-35.2259274292169
 31
0.0
  0
LINE
  5
   423
  8
0
  6
CONTINUOUS
 62
     7
 10
-354.103154182434
 20
17.2740573119941
 30
0.0
 11
-323.92730140686
 21
17.2740573119941
 31
0.0
  0
LINE
  5
   424
  8
0
  6
CONTINUOUS
 62
     7
 10
-325.92730140686
 20
-35.2259274292169
 30
0.0
 11
-325.92730140686
 21
17.2740573119941
 31
0.0
  0
LINE
  5
   425
  8
0
  6
CONTINUOUS
 62
     7
 10
-326.448245836812
 20
-32.2715041520099
 30
0.0
 11
-325.92730140686
 21
-35.2259274292169
 31
0.0
  0
LINE
  5
   426
  8
0
  6
CONTINUOUS
 62
     7
 10
-325.92730140686
 20
-35.2259274292169
 30
0.0
 11
-325.406356976909
 21
-32.2715041520099
 31
0.0
  0
LINE
  5
   427
  8
0
  6
CONTINUOUS
 62
     7
 10
-325.406356976909
 20
14.3196340347871
 30
0.0
 11
-325.92730140686
 21
17.2740573119941
 31
0.0
  0
LINE
  5
   428
  8
0
  6
CONTINUOUS
 62
     7
 10
-325.92730140686
 20
17.2740573119941
 30
0.0
 11
-326.448245836812
 21
14.3196340347871
 31
0.0
  0
ENDBLK
  5
   429
  8
0
  6
CONTINUOUS
 62
     7
  0
ENDSEC
  0
SECTION
  2
ENTITIES
  0
LINE
  5
   42A
  8
0
  6
DASHDOT
 62
     3
 10
-253.693511962891
 20
-4.88435485240838
 30
0.0
 11
-253.693511962891
 21
-58.7614795158841
 31
0.0
  0
LINE
  5
   42B
  8
0
  6
DASHDOT
 62
     3
 10
-244.139481745549
 20
-10.3360722213984
 30
0.0
 11
-263.574846832083
 21
-10.3360722213984
 31
0.0
  0
LINE
  5
   42C
  8
0
  6
DASHDOT
 62
     3
 10
-243.74000596629
 20
-53.1360728591681
 30
0.0
 11
-262.897474858558
 21
-53.1360728591681
 31
0.0
  0
LINE
  5
   42D
  8
0
  6
CONTINUOUS
 62
     7
 10
-242.693511798978
 20
-5.50963096053414
 30
0.0
 11
-242.693511798978
 21
-58.414118944076
 31
0.0
  0
LINE
  5
   42E
  8
0
  6
CONTINUOUS
 62
     7
 10
-241.881575167131
 20
-57.1360729187727
 30
0.0
 11
-271.097683249145
 21
-57.1360729187727
 31
0.0
  0
LINE
  5
   42F
  8
0
  6
CONTINUOUS
 62
     7
 10
-241.204203193606
 20
-6.33607216179371
 30
0.0
 11
-271.229766738578
 21
-6.33607216179371
 31
0.0
  0
CIRCLE
  5
   430
  8
0
  6
CONTINUOUS
 62
     7
 10
-250.193511910737
 20
-10.3360722213984
 30
0.0
 40
0.550000008195639
  0
CIRCLE
  5
   431
  8
0
  6
CONTINUOUS
 62
     7
 10
-250.193511910737
 20
-53.1360728591681
 30
0.0
 40
0.550000008195639
  0
LINE
  5
   432
  8
0
  6
DASHDOT
 62
     3
 10
-250.193511910737
 20
-4.88435485240838
 30
0.0
 11
-250.193511910737
 21
-55.3993230186163
 31
0.0
  0
LINE
  5
   433
  8
0
  6
DASHDOT
 62
     3
 10
-264.193512119353
 20
-4.88435485240838
 30
0.0
 11
-264.193512119353
 21
-55.6172919751929
 31
0.0
  0
CIRCLE
  5
   434
  8
0
  6
CONTINUOUS
 62
     7
 10
-264.193512119353
 20
-10.3360722213984
 30
0.0
 40
0.550000008195639
  0
CIRCLE
  5
   435
  8
0
  6
CONTINUOUS
 62
     7
 10
-264.193512119353
 20
-53.1360728591681
 30
0.0
 40
0.550000008195639
  0
LINE
  5
   436
  8
0
  6
CONTINUOUS
 62
     7
 10
-269.644764865377
 20
-4.91562818601806
 30
0.0
 11
-269.644764865377
 21
-57.5508987252411
 31
0.0
  0
LINE
  5
   437
  8
0
  6
DASHDOT
 62
     2
 10
-236.121326571785
 20
-31.3860725350678
 30
0.0
 11
-287.458663858293
 21
-31.3860725350678
 31
0.0
  0
INSERT
  5
   438
  8
0
  6
CONTINUOUS
 62
     7
  2
*UDIM72
 10
0.0
 20
0.0
 30
0.0
  0
TEXT
  5
   439
  8
0
  6
CONTINUOUS
 62
     7
 10
-254.473389306098
 20
-5.66549099975653
 30
0.0
 40
2.99999994933605
  1
Y
 50
359.999999896069
 41
0.916666607525612
 72
     2
 11
-252.273389487892
 21
-5.66549100373615
 31
0.0
  0
INSERT
  5
   43A
  8
0
  6
CONTINUOUS
 62
     7
  2
*UDIM73
 10
0.0
 20
0.0
 30
0.0
  0
INSERT
  5
   43B
  8
0
  6
CONTINUOUS
 62
     7
  2
*UDIM74
 10
0.0
 20
0.0
 30
0.0
  0
INSERT
  5
   43C
  8
0
  6
CONTINUOUS
 62
     7
  2
*UDIM75
 10
0.0
 20
0.0
 30
0.0
  0
INSERT
  5
   43D
  8
0
  6
CONTINUOUS
 62
     7
  2
*UDIM76
 10
0.0
 20
0.0
 30
0.0
  0
TEXT
  5
   43E
  8
0
  6
CONTINUOUS
 62
     7
 10
-295.574851090661
 20
-32.9040150796534
 30
0.0
 40
2.99999994933605
  1
X
 50
359.999999896069
 41
0.916666607525612
 72
     2
 11
-293.374851272455
 21
-32.904015083633
 31
0.0
  0
TEXT
  5
   43F
  8
0
  6
CONTINUOUS
 62
     7
 10
-232.209910266079
 20
-33.6862983020647
 30
0.0
 40
2.99999994933605
  1
X
 50
359.999999896069
 41
0.916666607525612
 72
     2
 11
-230.009910447873
 21
-33.6862983060443
 31
0.0
  0
TEXT
  5
   440
  8
0
  6
CONTINUOUS
 62
     7
 10
-254.491114821728
 20
-63.8283306115676
 30
0.0
 40
2.99999994933605
  1
Y
 50
359.999999896069
 41
0.916666607525612
 72
     2
 11
-252.291115003522
 21
-63.8283306155472
 31
0.0
  0
LINE
  5
   441
  8
0
  6
CONTINUOUS
 62
     7
 10
-519.676288787003
 20
-35.225944519043
 30
0.0
 11
-524.676288787003
 21
-35.225944519043
 31
0.0
  0
LINE
  5
   442
  8
0
  6
CONTINUOUS
 62
     7
 10
-532.176288787003
 20
16.274040222168
 30
0.0
 11
-532.176288787003
 21
17.274040222168
 31
0.0
  0
LINE
  5
   443
  8
0
  6
CONTINUOUS
 62
     7
 10
-524.676288787003
 20
-35.225944519043
 30
0.0
 11
-532.176288787003
 21
-35.225944519043
 31
0.0
  0
LINE
  5
   444
  8
0
  6
CONTINUOUS
 62
     7
 10
-505.926304045792
 20
-35.225944519043
 30
0.0
 11
-519.676288787003
 21
-35.225944519043
 31
0.0
  0
LINE
  5
   445
  8
0
  6
CONTINUOUS
 62
    52
 10
-487.176319304581
 20
-35.225944519043
 30
0.0
 11
-492.176319304581
 21
-35.225944519043
 31
0.0
  0
LINE
  5
   446
  8
0
  6
CONTINUOUS
 62
    52
 10
-479.676319304581
 20
-35.225944519043
 30
0.0
 11
-487.176319304581
 21
-35.225944519043
 31
0.0
  0
LINE
  5
   447
  8
0
  6
CONTINUOUS
 62
    52
 10
-492.176319304581
 20
-35.225944519043
 30
0.0
 11
-505.926304045792
 21
-35.225944519043
 31
0.0
  0
LINE
  5
   448
  8
0
  6
CONTINUOUS
 62
     7
 10
-517.301297676304
 20
41.64902496337
 30
0.0
 11
-549.676296416397
 21
41.64902496337
 31
0.0
  0
LINE
  5
   449
  8
0
  6
CONTINUOUS
 62
     7
 10
-499.801313105698
 20
41.6490249633789
 30
0.0
 11
-512.051305476303
 21
41.6490249633789
 31
0.0
  0
LINE
  5
   44A
  8
0
  6
CONTINUOUS
 62
     7
 10
-480.926319304581
 20
41.6490325927734
 30
0.0
 11
-494.551319304581
 21
41.6490325927734
 31
0.0
  0
LINE
  5
   44B
  8
0
  6
CONTINUOUS
 62
     7
 10
-548.279847546967
 20
53.5025642583423
 30
0.0
 11
-547.926301413367
 21
53.6490104751812
 31
0.0
  0
LINE
  5
   44C
  8
0
  6
CONTINUOUS
 62
     7
 10
-548.426294498917
 20
53.1490115265571
 30
0.0
 11
-548.279840663546
 21
53.5025652825236
 31
0.0
  0
LINE
  5
   44D
  8
0
  6
CONTINUOUS
 62
     7
 10
-548.426294955438
 20
41.3990163600493
 30
0.0
 11
-548.426302000458
 21
52.2490234375
 31
0.0
  0
LINE
  5
   44E
  8
0
  6
CONTINUOUS
 62
     7
 10
-499.801313522908
 20
41.6490246356227
 30
0.0
 11
-499.801315907093
 21
43.6490246356227
 31
0.0
  0
LINE
  5
   44F
  8
0
  6
CONTINUOUS
 62
     7
 10
-479.676319304581
 20
41.3990325927734
 30
0.0
 11
-479.676319304581
 21
52.2490310668945
 31
0.0
  0
LINE
  5
   450
  8
0
  6
CONTINUOUS
 62
     7
 10
-549.676296416397
 20
41.3990173339844
 30
0.0
 11
-549.676296416397
 21
52.2490234375
 31
0.0
  0
LINE
  5
   451
  8
0
  6
CONTINUOUS
 62
     7
 10
-548.426296416397
 20
52.2490234375
 30
0.0
 11
-549.676296416397
 21
52.2490234375
 31
0.0
  0
LINE
  5
   452
  8
0
  6
CONTINUOUS
 62
     7
 10
-549.676288787003
 20
17.2740249633789
 30
0.0
 11
-549.676288787003
 21
41.399040222168
 31
0.0
  0
LINE
  5
   453
  8
0
  6
CONTINUOUS
 62
     7
 10
-505.926304045792
 20
41.399040222168
 30
0.0
 11
-549.676296416397
 21
41.399040222168
 31
0.0
  0
LINE
  5
   454
  8
0
  6
CONTINUOUS
 62
     7
 10
-479.676319304581
 20
31.2740364074688
 30
0.0
 11
-479.676319304581
 21
41.399040222168
 31
0.0
  0
LINE
  5
   455
  8
0
  6
CONTINUOUS
 62
     7
 10
-479.676319304581
 20
41.399040222168
 30
0.0
 11
-505.926304045792
 21
41.399040222168
 31
0.0
  0
LINE
  5
   456
  8
0
  6
DASHDOT
 62
     7
 10
-505.926296006903
 20
-48.8895698421108
 30
0.0
 11
-505.926319567995
 21
39.6387535014966
 31
0.0
  0
LINE
  5
   457
  8
0
  6
CONTINUOUS
 62
     3
 10
-549.676288787003
 20
-71.9509445428848
 30
0.0
 11
-549.676288787003
 21
-35.2259445190416
 31
0.0
  0
LINE
  5
   458
  8
0
  6
CONTINUOUS
 62
     3
 10
-548.426288787003
 20
-71.9509445428848
 30
0.0
 11
-549.676288787003
 21
-71.9509445428848
 31
0.0
  0
LINE
  5
   459
  8
0
  6
CONTINUOUS
 62
     3
 10
-515.551288787003
 20
-73.3509445190425
 30
0.0
 11
-531.301288787001
 21
-73.3509445190425
 31
0.0
  0
LINE
  5
   45A
  8
0
  6
CONTINUOUS
 62
     3
 10
-498.051288787003
 20
-73.3509445190427
 30
0.0
 11
-513.801288787003
 21
-73.3509445190427
 31
0.0
  0
LINE
  5
   45B
  8
0
  6
CONTINUOUS
 62
     3
 10
-481.426288787003
 20
-73.3509445190421
 30
0.0
 11
-496.301288787003
 21
-73.3509445190421
 31
0.0
  0
LINE
  5
   45C
  8
0
  6
CONTINUOUS
 62
     3
 10
-480.926288787003
 20
-72.850944519043
 30
0.0
 11
-480.926288787003
 21
-71.9509445428848
 31
0.0
  0
LINE
  5
   45D
  8
0
  6
CONTINUOUS
 62
     3
 10
-479.676288787003
 20
-71.9509445428848
 30
0.0
 11
-480.926288787003
 21
-71.9509445428848
 31
0.0
  0
LINE
  5
   45E
  8
0
  6
CONTINUOUS
 62
     7
 10
-548.426288787003
 20
-71.9509445428848
 30
0.0
 11
-548.426288787003
 21
-61.850944519043
 31
0.0
  0
LINE
  5
   45F
  8
0
  6
CONTINUOUS
 62
     7
 10
-499.801288787003
 20
-61.350944519043
 30
0.0
 11
-512.051288787003
 21
-61.350944519043
 31
0.0
  0
LINE
  5
   460
  8
0
  6
CONTINUOUS
 62
     7
 10
-499.801288787003
 20
-63.350944519043
 30
0.0
 11
-499.801288787003
 21
-61.350944519043
 31
0.0
  0
LINE
  5
   461
  8
0
  6
CONTINUOUS
 62
     7
 10
-494.551288787003
 20
-63.350944519043
 30
0.0
 11
-494.551288787003
 21
-61.350944519043
 31
0.0
  0
LINE
  5
   462
  8
0
  6
CONTINUOUS
 62
     7
 10
-482.926288787003
 20
-61.350944519043
 30
0.0
 11
-494.551288787003
 21
-61.350944519043
 31
0.0
  0
LINE
  5
   463
  8
0
  6
CONTINUOUS
 62
     7
 10
-480.926288787003
 20
-71.9509445428848
 30
0.0
 11
-480.926288787003
 21
-61.850944519043
 31
0.0
  0
LINE
  5
   464
  8
0
  6
CONTINUOUS
 62
     7
 10
-513.426288787003
 20
-66.600944519043
 30
0.0
 11
-513.426288787003
 21
-65.6591996115196
 31
0.0
  0
LINE
  5
   465
  8
0
  6
CONTINUOUS
 62
     7
 10
-515.926288787003
 20
-66.600944519043
 30
0.0
 11
-515.926288787003
 21
-65.659198882136
 31
0.0
  0
LINE
  5
   466
  8
0
  6
CONTINUOUS
 62
     7
 10
-513.426288787003
 20
-66.600944519043
 30
0.0
 11
-515.926288787003
 21
-66.600944519043
 31
0.0
  0
LINE
  5
   467
  8
0
  6
CONTINUOUS
 62
     7
 10
-498.426288787003
 20
-66.600944519043
 30
0.0
 11
-498.426288787003
 21
-65.6121196746826
 31
0.0
  0
LINE
  5
   468
  8
0
  6
CONTINUOUS
 62
     7
 10
-486.676288787003
 20
-61.350944519043
 30
0.0
 11
-486.676288787003
 21
-61.100944519043
 31
0.0
  0
LINE
  5
   469
  8
0
  6
CONTINUOUS
 62
     7
 10
-480.551288787003
 20
-61.850944519043
 30
0.0
 11
-480.551288787003
 21
-61.100944519043
 31
0.0
  0
LINE
  5
   46A
  8
0
  6
CONTINUOUS
 62
     7
 10
-548.801288787003
 20
-61.850944519043
 30
0.0
 11
-548.801288787003
 21
-61.100944519043
 31
0.0
  0
LINE
  5
   46B
  8
0
  6
CONTINUOUS
 62
     7
 10
-482.926288787003
 20
-61.850944519043
 30
0.0
 11
-482.926288787003
 21
-61.100944519043
 31
0.0
  0
LINE
  5
   46C
  8
0
  6
CONTINUOUS
 62
     3
 10
-513.426288787003
 20
-71.850944519043
 30
0.0
 11
-513.426288787003
 21
-70.100944519043
 31
0.0
  0
LINE
  5
   46D
  8
0
  6
CONTINUOUS
 62
     3
 10
-515.926288787003
 20
-71.8509446382523
 30
0.0
 11
-515.926288787003
 21
-70.100944519043
 31
0.0
  0
LINE
  5
   46E
  8
0
  6
CONTINUOUS
 62
     3
 10
-513.801288787003
 20
-73.3509445190427
 30
0.0
 11
-513.801288787003
 21
-71.8509445190427
 31
0.0
  0
LINE
  5
   46F
  8
0
  6
CONTINUOUS
 62
     3
 10
-513.426288787003
 20
-71.850944519043
 30
0.0
 11
-513.801288787003
 21
-71.850944519043
 31
0.0
  0
LINE
  5
   470
  8
0
  6
CONTINUOUS
 62
     3
 10
-515.551288787003
 20
-73.3509445190427
 30
0.0
 11
-515.551288787003
 21
-71.8509445190427
 31
0.0
  0
LINE
  5
   471
  8
0
  6
CONTINUOUS
 62
     3
 10
-515.551288787003
 20
-71.850944519043
 30
0.0
 11
-515.926288787003
 21
-71.850944519043
 31
0.0
  0
LINE
  5
   472
  8
0
  6
CONTINUOUS
 62
     3
 10
-495.926288787003
 20
-71.850944519043
 30
0.0
 11
-495.926288787003
 21
-70.100944519043
 31
0.0
  0
LINE
  5
   473
  8
0
  6
CONTINUOUS
 62
     3
 10
-498.426288787003
 20
-71.8509446382523
 30
0.0
 11
-498.426288787003
 21
-70.100944519043
 31
0.0
  0
LINE
  5
   474
  8
0
  6
CONTINUOUS
 62
     3
 10
-496.301288787003
 20
-73.3509445190427
 30
0.0
 11
-496.301288787003
 21
-71.8509445190427
 31
0.0
  0
LINE
  5
   475
  8
0
  6
CONTINUOUS
 62
     3
 10
-495.926288787003
 20
-71.850944519043
 30
0.0
 11
-496.301288787003
 21
-71.850944519043
 31
0.0
  0
LINE
  5
   476
  8
0
  6
CONTINUOUS
 62
     3
 10
-498.051288787003
 20
-73.3509445190427
 30
0.0
 11
-498.051288787003
 21
-71.8509445190427
 31
0.0
  0
LINE
  5
   477
  8
0
  6
CONTINUOUS
 62
     3
 10
-498.051288787003
 20
-71.850944519043
 30
0.0
 11
-498.426288787003
 21
-71.850944519043
 31
0.0
  0
CIRCLE
  5
   478
  8
0
  6
CONTINUOUS
 62
     7
 10
-523.426288719735
 20
-64.3509465573912
 30
0.0
 40
2.74999793642075
  0
CIRCLE
  5
   479
  8
0
  6
CONTINUOUS
 62
     7
 10
-514.676287917927
 20
-63.3509418414184
 30
0.0
 40
1.37499758123315
  0
ARC
  5
   47A
  8
0
  6
CONTINUOUS
 62
     7
 10
-514.676288113559
 20
-63.3509357573523
 30
0.0
 40
2.62499149271879
 50
298.436973936778
 51
418.997218532549
  0
CIRCLE
  5
   47B
  8
0
  6
CONTINUOUS
 62
     7
 10
-505.926288561113
 20
-64.3509428454494
 30
0.0
 40
2.74999836975995
  0
ARC
  5
   47C
  8
0
  6
CONTINUOUS
 62
     7
 10
-497.176287429104
 20
-63.3509369043469
 30
0.0
 40
2.6249925524032
 50
298.436944421718
 51
418.99722864746
  0
CIRCLE
  5
   47D
  8
0
  6
CONTINUOUS
 62
     7
 10
-488.426288402491
 20
-64.350943111265
 30
0.0
 40
2.74999861534155
  0
CIRCLE
  5
   47E
  8
0
  6
CONTINUOUS
 62
     7
 10
-488.426289014784
 20
-71.3509432891766
 30
0.0
 40
0.699998731101407
  0
CIRCLE
  5
   47F
  8
0
  6
CONTINUOUS
 62
     7
 10
-505.926290686267
 20
-71.3509439487847
 30
0.0
 40
0.699999655882045
  0
CIRCLE
  5
   480
  8
0
  6
CONTINUOUS
 62
     7
 10
-523.426289413871
 20
-71.3509455316596
 30
0.0
 40
0.700001026691361
  0
ARC
  5
   481
  8
0
  6
CONTINUOUS
 62
     3
 10
-481.426285620891
 20
-72.850948507782
 30
0.0
 40
0.499995810037669
 50
269.999758026082
 51
360.000419025074
  0
ARC
  5
   482
  8
0
  6
CONTINUOUS
 62
     3
 10
-547.926288647773
 20
-72.8509443133301
 30
0.0
 40
0.50000021494898
 50
180.000023420064
 51
269.999992853049
  0
LINE
  5
   483
  8
0
  6
DASHDOT
 62
     3
 10
-523.426288719735
 20
-68.1009444938119
 30
0.0
 11
-523.426288719735
 21
-60.6009486209704
 31
0.0
  0
LINE
  5
   484
  8
0
  6
DASHDOT
 62
     3
 10
-519.676290783314
 20
-64.3509465573912
 30
0.0
 11
-527.176286656156
 21
-64.3509465573912
 31
0.0
  0
LINE
  5
   485
  8
0
  6
DASHDOT
 62
     3
 10
-514.676288113559
 20
-74.9453136094761
 30
0.0
 11
-514.676288113559
 21
-52.2296330909358
 31
0.0
  0
LINE
  5
   486
  8
0
  6
DASHDOT
 62
     3
 10
-511.05129662084
 20
-63.3509357573523
 30
0.0
 11
-518.301279606278
 21
-63.3509357573523
 31
0.0
  0
LINE
  5
   487
  8
0
  6
DASHDOT
 62
     3
 10
-505.926288561113
 20
-68.1009412152093
 30
0.0
 11
-505.926288561113
 21
-32.56375653026
 31
0.0
  0
LINE
  5
   488
  8
0
  6
DASHDOT
 62
     3
 10
-502.176290191353
 20
-64.3509428454494
 30
0.0
 11
-509.676286930873
 21
-64.3509428454494
 31
0.0
  0
LINE
  5
   489
  8
0
  6
DASHDOT
 62
     3
 10
-497.176287429104
 20
-73.568132036435
 30
0.0
 11
-497.176287429104
 21
-53.264437474456
 31
0.0
  0
LINE
  5
   48A
  8
0
  6
DASHDOT
 62
     3
 10
-493.551294876701
 20
-63.3509369043469
 30
0.0
 11
-500.801279981507
 21
-63.3509369043469
 31
0.0
  0
LINE
  5
   48B
  8
0
  6
DASHDOT
 62
     3
 10
-488.426288402491
 20
-68.1009417266066
 30
0.0
 11
-488.426288402491
 21
-60.6009444959235
 31
0.0
  0
LINE
  5
   48C
  8
0
  6
DASHDOT
 62
     3
 10
-484.676289787149
 20
-64.350943111265
 30
0.0
 11
-492.176287017832
 21
-64.350943111265
 31
0.0
  0
LINE
  5
   48D
  8
0
  6
DASHDOT
 62
     3
 10
-488.426289014784
 20
-73.050942020278
 30
0.0
 11
-488.426289014784
 21
-69.6509445580752
 31
0.0
  0
LINE
  5
   48E
  8
0
  6
DASHDOT
 62
     3
 10
-486.726290283682
 20
-71.3509432891766
 30
0.0
 11
-490.126287745885
 21
-71.3509432891766
 31
0.0
  0
LINE
  5
   48F
  8
0
  6
DASHDOT
 62
     3
 10
-505.926290686267
 20
-79.729600340797
 30
0.0
 11
-505.926290686267
 21
-69.6509442929027
 31
0.0
  0
LINE
  5
   490
  8
0
  6
DASHDOT
 62
     3
 10
-504.226291030385
 20
-71.3509439487847
 30
0.0
 11
-507.626290342149
 21
-71.3509439487847
 31
0.0
  0
LINE
  5
   491
  8
0
  6
DASHDOT
 62
     3
 10
-523.426289413871
 20
-73.050946558351
 30
0.0
 11
-523.426289413871
 21
-69.6509445049683
 31
0.0
  0
LINE
  5
   492
  8
0
  6
DASHDOT
 62
     3
 10
-521.72628838718
 20
-71.3509455316596
 30
0.0
 11
-525.126290440563
 21
-71.3509455316596
 31
0.0
  0
LINE
  5
   493
  8
0
  6
DASHDOT
 62
     3
 10
-511.801294874292
 20
-35.1009359845749
 30
0.0
 11
-517.551282238794
 21
-35.1009359845749
 31
0.0
  0
LINE
  5
   494
  8
0
  6
DASHDOT
 62
     3
 10
-494.301091787537
 20
-35.1011571075868
 30
0.0
 11
-500.051449364816
 21
-35.1011571075868
 31
0.0
  0
LINE
  5
   495
  8
0
  6
CONTINUOUS
 62
     3
 10
-548.426288787003
 20
-72.850944519043
 30
0.0
 11
-548.426288787003
 21
-71.9509445428848
 31
0.0
  0
LINE
  5
   496
  8
0
  6
CONTINUOUS
 62
     3
 10
-480.926288787003
 20
-72.850944519043
 30
0.0
 11
-480.926288787003
 21
-71.9509445428848
 31
0.0
  0
LINE
  5
   497
  8
0
  6
CONTINUOUS
 62
     3
 10
-479.676288787003
 20
-71.9509429931641
 30
0.0
 11
-479.676288787003
 21
-49.2259616851826
 31
0.0
  0
LINE
  5
   498
  8
0
  6
CONTINUOUS
 62
     7
 10
-546.426288787003
 20
-61.850944519043
 30
0.0
 11
-548.801288787003
 21
-61.850944519043
 31
0.0
  0
LINE
  5
   499
  8
0
  6
CONTINUOUS
 62
     7
 10
-517.301288787003
 20
-63.350944519043
 30
0.0
 11
-517.301288787003
 21
-61.350944519043
 31
0.0
  0
LINE
  5
   49A
  8
0
  6
CONTINUOUS
 62
     7
 10
-512.051288787003
 20
-63.350944519043
 30
0.0
 11
-512.051288787003
 21
-61.350944519043
 31
0.0
  0
LINE
  5
   49B
  8
0
  6
CONTINUOUS
 62
     7
 10
-495.926288787003
 20
-66.600944519043
 30
0.0
 11
-495.926288787003
 21
-65.6592023342569
 31
0.0
  0
LINE
  5
   49C
  8
0
  6
CONTINUOUS
 62
     7
 10
-495.926288787003
 20
-66.600944519043
 30
0.0
 11
-498.426288787003
 21
-66.600944519043
 31
0.0
  0
LINE
  5
   49D
  8
0
  6
CONTINUOUS
 62
     7
 10
-525.176288787003
 20
-61.350944519043
 30
0.0
 11
-525.176288787003
 21
-61.100944519043
 31
0.0
  0
LINE
  5
   49E
  8
0
  6
CONTINUOUS
 62
     7
 10
-546.426288787003
 20
-61.850944519043
 30
0.0
 11
-546.426288787003
 21
-61.100944519043
 31
0.0
  0
LINE
  5
   49F
  8
0
  6
CONTINUOUS
 62
     3
 10
-495.926288787003
 20
-71.850944519043
 30
0.0
 11
-495.926288787003
 21
-70.100944519043
 31
0.0
  0
LINE
  5
   4A0
  8
0
  6
CONTINUOUS
 62
     3
 10
-496.301288787003
 20
-73.3509445190427
 30
0.0
 11
-496.301288787003
 21
-71.8509445190427
 31
0.0
  0
LINE
  5
   4A1
  8
0
  6
CONTINUOUS
 62
     3
 10
-495.926288787003
 20
-71.850944519043
 30
0.0
 11
-496.301288787003
 21
-71.850944519043
 31
0.0
  0
LINE
  5
   4A2
  8
0
  6
CONTINUOUS
 62
     3
 10
-498.051288787003
 20
-71.850944519043
 30
0.0
 11
-498.426288787003
 21
-71.850944519043
 31
0.0
  0
CIRCLE
  5
   4A3
  8
0
  6
CONTINUOUS
 62
     7
 10
-497.176287042504
 20
-63.3509429304599
 30
0.0
 40
1.37499852437043
  0
ARC
  5
   4A4
  8
0
  6
CONTINUOUS
 62
     3
 10
-547.926288647773
 20
-72.8509443133301
 30
0.0
 40
0.50000021494898
 50
180.000023420064
 51
269.999992853049
  0
LINE
  5
   4A5
  8
0
  6
DASHDOT
 62
     3
 10
-511.05129662084
 20
-63.3509357573523
 30
0.0
 11
-518.301279606278
 21
-63.3509357573523
 31
0.0
  0
LINE
  5
   4A6
  8
0
  6
DASHDOT
 62
     3
 10
-502.176290191353
 20
-64.3509428454494
 30
0.0
 11
-509.676286930873
 21
-64.3509428454494
 31
0.0
  0
LINE
  5
   4A7
  8
0
  6
DASHDOT
 62
     3
 10
-497.176287429104
 20
-73.568132036435
 30
0.0
 11
-497.176287429104
 21
-52.4579716792449
 31
0.0
  0
LINE
  5
   4A8
  8
0
  6
DASHDOT
 62
     3
 10
-493.551294876701
 20
-63.3509369043469
 30
0.0
 11
-500.801279981507
 21
-63.3509369043469
 31
0.0
  0
LINE
  5
   4A9
  8
0
  6
CONTINUOUS
 62
     7
 10
-517.301288787003
 20
-61.350944519043
 30
0.0
 11
-529.551288787003
 21
-61.350944519043
 31
0.0
  0
LINE
  5
   4AA
  8
0
  6
CONTINUOUS
 62
     7
 10
-480.551288787003
 20
-61.850944519043
 30
0.0
 11
-482.926288787003
 21
-61.850944519043
 31
0.0
  0
LINE
  5
   4AB
  8
0
  6
CONTINUOUS
 62
     7
 10
-479.676319304581
 20
-61.100944519043
 30
0.0
 11
-549.676288787003
 21
-61.100944519043
 31
0.0
  0
ARC
  5
   4AC
  8
0
  6
CONTINUOUS
 62
     7
 10
-514.676288113559
 20
-63.3509357573523
 30
0.0
 40
2.62499149271879
 50
121.002781363519
 51
241.56299252681
  0
ARC
  5
   4AD
  8
0
  6
CONTINUOUS
 62
     7
 10
-497.176287429104
 20
-63.3509369043469
 30
0.0
 40
2.6249925524032
 50
121.002771248608
 51
241.562988062779
  0
LINE
  5
   4AE
  8
0
  6
CONTINUOUS
 62
     7
 10
-519.676296416397
 20
-35.225944519043
 30
0.0
 11
-524.676288787003
 21
-35.225944519043
 31
0.0
  0
LINE
  5
   4AF
  8
0
  6
CONTINUOUS
 62
     7
 10
-487.176304045792
 20
-35.225944519043
 30
0.0
 11
-492.176304045792
 21
-35.225944519043
 31
0.0
  0
LINE
  5
   4B0
  8
0
  6
CONTINUOUS
 62
     7
 10
-479.676288787003
 20
-34.975944519043
 30
0.0
 11
-479.676288787003
 21
-25.9759521484375
 31
0.0
  0
LINE
  5
   4B1
  8
0
  6
CONTINUOUS
 62
     7
 10
-532.176288787003
 20
-34.975944519043
 30
0.0
 11
-532.176288787003
 21
-25.9759521484375
 31
0.0
  0
LINE
  5
   4B2
  8
0
  6
CONTINUOUS
 62
     7
 10
-479.926288787003
 20
17.274055480957
 30
0.0
 11
-531.926288786989
 21
17.274055480957
 31
0.0
  0
LINE
  5
   4B3
  8
0
  6
CONTINUOUS
 62
     7
 10
-524.676288787003
 20
-35.225944519043
 30
0.0
 11
-531.926288787003
 21
-35.225944519043
 31
0.0
  0
LINE
  5
   4B4
  8
0
  6
CONTINUOUS
 62
     7
 10
-492.176304045792
 20
-35.225944519043
 30
0.0
 11
-519.676296416397
 21
-35.225944519043
 31
0.0
  0
LINE
  5
   4B5
  8
0
  6
CONTINUOUS
 62
     7
 10
-479.926288787003
 20
-35.225944519043
 30
0.0
 11
-487.176304045792
 21
-35.225944519043
 31
0.0
  0
LINE
  5
   4B6
  8
0
  6
CONTINUOUS
 62
     7
 10
-500.551288787003
 20
-24.1009521484375
 30
0.0
 11
-500.551288787003
 21
-4.10095977783203
 31
0.0
  0
LINE
  5
   4B7
  8
0
  6
CONTINUOUS
 62
     7
 10
-511.301288787003
 20
-24.1009521484375
 30
0.0
 11
-511.301288787003
 21
-4.10095977783203
 31
0.0
  0
LINE
  5
   4B8
  8
0
  6
CONTINUOUS
 62
     7
 10
-479.676288787003
 20
11.274040222168
 30
0.0
 11
-532.176288787003
 21
11.274040222168
 31
0.0
  0
LINE
  5
   4B9
  8
0
  6
CONTINUOUS
 62
     7
 10
-479.676288787003
 20
16.274040222168
 30
0.0
 11
-532.176288787003
 21
16.274040222168
 31
0.0
  0
LINE
  5
   4BA
  8
0
  6
CONTINUOUS
 62
     7
 10
-500.551288787003
 20
-4.23319244384766
 30
0.0
 11
-511.301288787003
 21
-4.23319244384766
 31
0.0
  0
LINE
  5
   4BB
  8
0
  6
CONTINUOUS
 62
     7
 10
-500.551288787003
 20
-4.10095977783204
 30
0.0
 11
-511.301288787003
 21
-4.10095977783204
 31
0.0
  0
LINE
  5
   4BC
  8
0
  6
CONTINUOUS
 62
     7
 10
-500.551288787003
 20
-24.1009521484375
 30
0.0
 11
-511.301288787003
 21
-24.1009521484375
 31
0.0
  0
LINE
  5
   4BD
  8
0
  6
CONTINUOUS
 62
     7
 10
-500.551288787003
 20
-23.9687042236328
 30
0.0
 11
-511.301288787003
 21
-23.9687042236328
 31
0.0
  0
LINE
  5
   4BE
  8
0
  6
DASHDOT
 62
     7
 10
-505.926288787003
 20
-36.8525854587224
 30
0.0
 11
-505.926288787003
 21
6.375257624802
 31
0.0
  0
LINE
  5
   4BF
  8
0
  6
CONTINUOUS
 62
     7
 10
-479.676296416397
 20
-25.4759521484375
 30
0.0
 11
-479.676296416397
 21
-19.4759561250568
 31
0.0
  0
LINE
  5
   4C0
  8
0
  6
CONTINUOUS
 62
     7
 10
-479.676296416397
 20
-2.2259521484375
 30
0.0
 11
-479.676296416397
 21
17.024055480957
 31
0.0
  0
LINE
  5
   4C1
  8
0
  6
CONTINUOUS
 62
     7
 10
-479.676296416397
 20
-18.9759561250567
 30
0.0
 11
-479.676296416397
 21
-9.2259521484375
 31
0.0
  0
LINE
  5
   4C2
  8
0
  6
CONTINUOUS
 62
     7
 10
-479.676296416397
 20
-8.7259521484375
 30
0.0
 11
-479.676296416397
 21
-2.7259521484375
 31
0.0
  0
LINE
  5
   4C3
  8
0
  6
CONTINUOUS
 62
     7
 10
-532.176288787005
 20
-25.4759521484375
 30
0.0
 11
-532.176288787005
 21
-19.4759521484364
 31
0.0
  0
LINE
  5
   4C4
  8
0
  6
CONTINUOUS
 62
     7
 10
-532.176288787015
 20
-18.9759521484364
 30
0.0
 11
-532.176288787015
 21
-9.2259521484375
 31
0.0
  0
LINE
  5
   4C5
  8
0
  6
CONTINUOUS
 62
     7
 10
-532.176288787
 20
-8.7259521484375
 30
0.0
 11
-532.176288787
 21
-2.7259521484375
 31
0.0
  0
LINE
  5
   4C6
  8
0
  6
CONTINUOUS
 62
     7
 10
-532.176288786989
 20
-2.2259521484375
 30
0.0
 11
-532.176288786989
 21
17.024055480957
 31
0.0
  0
LINE
  5
   4C7
  8
0
  6
CONTINUOUS
 62
     7
 10
-511.301292773865
 20
-19.4759521484385
 30
0.0
 11
-531.676288816805
 21
-19.4759521484385
 31
0.0
  0
LINE
  5
   4C8
  8
0
  6
CONTINUOUS
 62
     7
 10
-479.676296416397
 20
-19.4759368896495
 30
0.0
 11
-480.176296416398
 21
-19.4759368896495
 31
0.0
  0
LINE
  5
   4C9
  8
0
  6
CONTINUOUS
 62
     7
 10
-511.301302553409
 20
-18.9759521484386
 30
0.0
 11
-531.676288816805
 21
-18.9759521484386
 31
0.0
  0
LINE
  5
   4CA
  8
0
  6
CONTINUOUS
 62
     7
 10
-479.676296416397
 20
-18.9759368896495
 30
0.0
 11
-480.176296416398
 21
-18.9759368896495
 31
0.0
  0
LINE
  5
   4CB
  8
0
  6
CONTINUOUS
 62
     7
 10
-531.676288816805
 20
-19.4759521484375
 30
0.0
 11
-531.676288816805
 21
-18.9759521484375
 31
0.0
  0
LINE
  5
   4CC
  8
0
  6
CONTINUOUS
 62
     7
 10
-480.176296416398
 20
-19.4759521484375
 30
0.0
 11
-480.176296416398
 21
-18.9759521484375
 31
0.0
  0
LINE
  5
   4CD
  8
0
  6
CONTINUOUS
 62
     7
 10
-479.676288787003
 20
-25.9759521484375
 30
0.0
 11
-480.176296416398
 21
-25.9759521484375
 31
0.0
  0
LINE
  5
   4CE
  8
0
  6
CONTINUOUS
 62
     7
 10
-479.676296416397
 20
-25.4759521484375
 30
0.0
 11
-480.176296416398
 21
-25.4759521484375
 31
0.0
  0
LINE
  5
   4CF
  8
0
  6
CONTINUOUS
 62
     7
 10
-531.676288816805
 20
-25.9759521484375
 30
0.0
 11
-531.676288816805
 21
-25.4759521484375
 31
0.0
  0
LINE
  5
   4D0
  8
0
  6
CONTINUOUS
 62
     7
 10
-480.176296416398
 20
-25.9759521484375
 30
0.0
 11
-480.176296416398
 21
-25.4759521484375
 31
0.0
  0
LINE
  5
   4D1
  8
0
  6
CONTINUOUS
 62
     7
 10
-479.676296416397
 20
-2.72595214843751
 30
0.0
 11
-480.176296416398
 21
-2.72595214843751
 31
0.0
  0
LINE
  5
   4D2
  8
0
  6
CONTINUOUS
 62
     7
 10
-479.676296416397
 20
-2.22595214843751
 30
0.0
 11
-480.176296416398
 21
-2.22595214843751
 31
0.0
  0
LINE
  5
   4D3
  8
0
  6
CONTINUOUS
 62
     7
 10
-531.676288816805
 20
-2.7259521484375
 30
0.0
 11
-531.676288816805
 21
-2.2259521484375
 31
0.0
  0
LINE
  5
   4D4
  8
0
  6
CONTINUOUS
 62
     7
 10
-480.176296416398
 20
-2.7259521484375
 30
0.0
 11
-480.176296416398
 21
-2.2259521484375
 31
0.0
  0
LINE
  5
   4D5
  8
0
  6
CONTINUOUS
 62
     7
 10
-511.301292750712
 20
-9.22595214843751
 30
0.0
 11
-531.676288816805
 21
-9.22595214843751
 31
0.0
  0
LINE
  5
   4D6
  8
0
  6
CONTINUOUS
 62
     7
 10
-479.676296416397
 20
-9.22595214843751
 30
0.0
 11
-480.176296416398
 21
-9.22595214843751
 31
0.0
  0
LINE
  5
   4D7
  8
0
  6
CONTINUOUS
 62
     7
 10
-511.301288787003
 20
-8.72595214843751
 30
0.0
 11
-531.676288816805
 21
-8.72595214843751
 31
0.0
  0
LINE
  5
   4D8
  8
0
  6
CONTINUOUS
 62
     7
 10
-479.676296416397
 20
-8.72595214843751
 30
0.0
 11
-480.176296416398
 21
-8.72595214843751
 31
0.0
  0
LINE
  5
   4D9
  8
0
  6
CONTINUOUS
 62
     7
 10
-531.676288816805
 20
-9.2259521484375
 30
0.0
 11
-531.676288816805
 21
-8.7259521484375
 31
0.0
  0
LINE
  5
   4DA
  8
0
  6
CONTINUOUS
 62
     7
 10
-480.176296416398
 20
-9.2259521484375
 30
0.0
 11
-480.176296416398
 21
-8.7259521484375
 31
0.0
  0
ARC
  5
   4DB
  8
0
  6
CONTINUOUS
 62
     7
 10
-531.926288787003
 20
-34.975944519043
 30
0.0
 40
0.25
 50
179.999999948034
 51
269.999999948034
  0
ARC
  5
   4DC
  8
0
  6
CONTINUOUS
 62
     7
 10
-479.926288787003
 20
-34.975944519043
 30
0.0
 40
0.25
 50
269.999999948034
 51
359.999999948034
  0
ARC
  5
   4DD
  8
0
  6
CONTINUOUS
 62
     7
 10
-479.926288787003
 20
17.024055480957
 30
0.0
 40
0.25
 50
359.999999948034
 51
449.999999948034
  0
ARC
  5
   4DE
  8
0
  6
CONTINUOUS
 62
     7
 10
-531.926288786989
 20
17.024055480957
 30
0.0
 40
0.25
 50
449.999999948034
 51
539.999999948034
  0
INSERT
  5
   4DF
  8
255
  6
CONTINUOUS
 62
     7
  2
ON-OFF
 10
-495.926293669816
 20
-5.72595214843749
 30
0.0
 41
0.5
 42
0.5
 50
359.999999792137
 43
0.5
  0
LINE
  5
   4E0
  8
0
  6
CONTINUOUS
 62
     7
 10
-517.176288787003
 20
-3.47595214843751
 30
0.0
 11
-517.926288787003
 21
-3.47595214843751
 31
0.0
  0
LINE
  5
   4E1
  8
0
  6
CONTINUOUS
 62
     7
 10
-517.176288787003
 20
-7.97595214843751
 30
0.0
 11
-517.926288787003
 21
-7.97595214843751
 31
0.0
  0
CIRCLE
  5
   4E2
  8
0
  6
CONTINUOUS
 62
     7
 10
-517.551288787003
 20
-22.4759521484375
 30
0.0
 40
2.25
  0
CIRCLE
  5
   4E3
  8
0
  6
CONTINUOUS
 62
     7
 10
-517.551288787003
 20
-22.4759521484375
 30
0.0
 40
1.5
  0
LINE
  5
   4E4
  8
0
  6
CONTINUOUS
 62
     7
 10
-517.926288787003
 20
-7.9759521484375
 30
0.0
 11
-517.926288787003
 21
-3.4759521484375
 31
0.0
  0
LINE
  5
   4E5
  8
0
  6
CONTINUOUS
 62
     7
 10
-517.176288787003
 20
-7.9759521484375
 30
0.0
 11
-517.176288787003
 21
-3.4759521484375
 31
0.0
  0
LINE
  5
   4E6
  8
0
  6
CONTINUOUS
 62
     7
 10
-512.676288787003
 20
-25.4759521484375
 30
0.0
 11
-512.676288787003
 21
-19.4759450038547
 31
0.0
  0
LINE
  5
   4E7
  8
0
  6
CONTINUOUS
 62
     7
 10
-499.176288787003
 20
-25.4759521484375
 30
0.0
 11
-499.176288787003
 21
-19.4759489804779
 31
0.0
  0
LINE
  5
   4E8
  8
0
  6
CONTINUOUS
 62
     7
 10
-499.176288787003
 20
-8.7259521484375
 30
0.0
 11
-499.176288787003
 21
-2.7259521484375
 31
0.0
  0
LINE
  5
   4E9
  8
0
  6
CONTINUOUS
 62
     7
 10
-512.676288787003
 20
-8.7259521484375
 30
0.0
 11
-512.676288787003
 21
-2.7259521484375
 31
0.0
  0
LINE
  5
   4EA
  8
0
  6
DASHDOT
 62
     7
 10
-505.92632323277
 20
36.8985036442794
 30
0.0
 11
-505.92632323277
 21
52.399016363682
 31
0.0
  0
LINE
  5
   4EB
  8
0
  6
DASHDOT
 62
     7
 10
-505.926341142513
 20
45.9490404255978
 30
0.0
 11
-505.926341142513
 21
57.3490772053945
 31
0.0
  0
LINE
  5
   4EC
  8
0
  6
CONTINUOUS
 62
     7
 10
-500.551288787003
 20
-19.5113089707171
 30
0.0
 11
-511.301288787003
 21
-19.5113089707171
 31
0.0
  0
LINE
  5
   4ED
  8
0
  6
CONTINUOUS
 62
     7
 10
-500.551288787003
 20
-23.4717851477651
 30
0.0
 11
-511.301288787003
 21
-23.4717851477651
 31
0.0
  0
LINE
  5
   4EE
  8
0
  6
CONTINUOUS
 62
     7
 10
-500.551288787003
 20
-19.5113093214442
 30
0.0
 11
-511.301288787003
 21
-19.5113093214442
 31
0.0
  0
LINE
  5
   4EF
  8
0
  6
CONTINUOUS
 62
     7
 10
-500.551288787003
 20
-17.0382487334724
 30
0.0
 11
-511.301288787003
 21
-17.0382487334724
 31
0.0
  0
LINE
  5
   4F0
  8
0
  6
CONTINUOUS
 62
     7
 10
-480.426319371126
 20
38.899040222168
 30
0.0
 11
-531.426319371127
 21
38.899040222168
 31
0.0
  0
LINE
  5
   4F1
  8
0
  6
CONTINUOUS
 62
     7
 10
-531.426317341795
 20
31.2740364074688
 30
0.0
 11
-531.426319371127
 21
38.8990402221679
 31
0.0
  0
LINE
  5
   4F2
  8
0
  6
CONTINUOUS
 62
     7
 10
-480.426317341793
 20
31.2740364074688
 30
0.0
 11
-480.426319371126
 21
38.8990402221679
 31
0.0
  0
LINE
  5
   4F3
  8
0
  6
CONTINUOUS
 62
     3
 10
-513.426288787003
 20
-70.100944519043
 30
0.0
 11
-515.926288787003
 21
-70.100944519043
 31
0.0
  0
LINE
  5
   4F4
  8
0
  6
CONTINUOUS
 62
     3
 10
-495.926288787003
 20
-70.100944519043
 30
0.0
 11
-498.426288787003
 21
-70.100944519043
 31
0.0
  0
LINE
  5
   4F5
  8
0
  6
CONTINUOUS
 62
     7
 10
-531.676288816805
 20
-2.22595214843751
 30
0.0
 11
-532.176288786989
 21
-2.22595214843751
 31
0.0
  0
LINE
  5
   4F6
  8
0
  6
CONTINUOUS
 62
     7
 10
-531.676288816805
 20
-2.72595214843751
 30
0.0
 11
-532.176288787
 21
-2.72595214843751
 31
0.0
  0
LINE
  5
   4F7
  8
0
  6
CONTINUOUS
 62
     7
 10
-531.676288816805
 20
-8.72595214843751
 30
0.0
 11
-532.176288787
 21
-8.72595214843751
 31
0.0
  0
LINE
  5
   4F8
  8
0
  6
CONTINUOUS
 62
     7
 10
-531.676288816805
 20
-9.22595214843751
 30
0.0
 11
-532.176288787015
 21
-9.22595214843751
 31
0.0
  0
LINE
  5
   4F9
  8
0
  6
CONTINUOUS
 62
     7
 10
-531.676288816805
 20
-18.9759521484386
 30
0.0
 11
-532.176288787015
 21
-18.9759521484386
 31
0.0
  0
LINE
  5
   4FA
  8
0
  6
CONTINUOUS
 62
     7
 10
-531.676288816805
 20
-19.4759521484385
 30
0.0
 11
-532.176288787005
 21
-19.4759521484385
 31
0.0
  0
LINE
  5
   4FB
  8
0
  6
CONTINUOUS
 62
     7
 10
-531.676288816805
 20
-25.4759521484375
 30
0.0
 11
-532.176288787005
 21
-25.4759521484375
 31
0.0
  0
LINE
  5
   4FC
  8
0
  6
CONTINUOUS
 62
     7
 10
-531.676288816805
 20
-25.9759521484375
 30
0.0
 11
-532.176288787003
 21
-25.9759521484375
 31
0.0
  0
LINE
  5
   4FD
  8
0
  6
CONTINUOUS
 62
     7
 10
-480.176296416398
 20
-25.4759521484375
 30
0.0
 11
-531.676288816805
 21
-25.4759521484375
 31
0.0
  0
LINE
  5
   4FE
  8
0
  6
CONTINUOUS
 62
     7
 10
-480.176296416398
 20
-25.9759521484375
 30
0.0
 11
-531.676288816805
 21
-25.9759521484375
 31
0.0
  0
LINE
  5
   4FF
  8
0
  6
CONTINUOUS
 62
     7
 10
-480.176296416398
 20
-18.9759368896495
 30
0.0
 11
-500.551290279382
 21
-18.9759368896495
 31
0.0
  0
LINE
  5
   500
  8
0
  6
CONTINUOUS
 62
     7
 10
-480.176296416398
 20
-19.4759368896495
 30
0.0
 11
-500.551290462577
 21
-19.4759368896495
 31
0.0
  0
LINE
  5
   501
  8
0
  6
CONTINUOUS
 62
     7
 10
-480.176296416398
 20
-8.72595214843751
 30
0.0
 11
-500.551288787003
 21
-8.72595214843751
 31
0.0
  0
LINE
  5
   502
  8
0
  6
CONTINUOUS
 62
     7
 10
-480.176296416398
 20
-9.22595214843751
 30
0.0
 11
-500.551288787003
 21
-9.22595214843751
 31
0.0
  0
LINE
  5
   503
  8
0
  6
CONTINUOUS
 62
     7
 10
-480.176296416398
 20
-2.22595214843751
 30
0.0
 11
-531.676288816805
 21
-2.22595214843751
 31
0.0
  0
LINE
  5
   504
  8
0
  6
CONTINUOUS
 62
     7
 10
-480.176296416398
 20
-2.72595214843751
 30
0.0
 11
-531.676288816805
 21
-2.72595214843751
 31
0.0
  0
LINE
  5
   505
  8
0
  6
CONTINUOUS
 62
     7
 10
-548.426302000458
 20
52.2490234375
 30
0.0
 11
-548.426302584832
 21
53.1490163600493
 31
0.0
  0
LINE
  5
   506
  8
0
  6
CONTINUOUS
 62
     7
 10
-533.051288787003
 20
52.1489944458005
 30
0.0
 11
-533.051288787003
 21
53.6489944458005
 31
0.0
  0
LINE
  5
   507
  8
0
  6
CONTINUOUS
 62
     7
 10
-531.301288787003
 20
52.1489944458005
 30
0.0
 11
-531.301288787003
 21
53.6489944458005
 31
0.0
  0
LINE
  5
   508
  8
0
  6
CONTINUOUS
 62
     7
 10
-533.051288787003
 20
52.1489944458008
 30
0.0
 11
-533.426288787003
 21
52.1489944458008
 31
0.0
  0
LINE
  5
   509
  8
0
  6
CONTINUOUS
 62
     7
 10
-533.426288787003
 20
50.3989944458008
 30
0.0
 11
-533.426288787003
 21
52.1489945650101
 31
0.0
  0
LINE
  5
   50A
  8
0
  6
CONTINUOUS
 62
     7
 10
-531.976804765817
 20
50.3989944458008
 30
0.0
 11
-533.426288787003
 21
50.3989944458008
 31
0.0
  0
LINE
  5
   50B
  8
0
  6
CONTINUOUS
 62
     7
 10
-530.926288787003
 20
51.4856583208823
 30
0.0
 11
-530.926288787003
 21
52.1489944458008
 31
0.0
  0
LINE
  5
   50C
  8
0
  6
CONTINUOUS
 62
     7
 10
-530.926288787003
 20
52.1489944458008
 30
0.0
 11
-531.301288787003
 21
52.1489944458008
 31
0.0
  0
CIRCLE
  5
   50D
  8
0
  6
CONTINUOUS
 62
     7
 10
-540.926351866909
 20
44.6486763355415
 30
0.0
 40
2.75032955665546
  0
CIRCLE
  5
   50E
  8
0
  6
CONTINUOUS
 62
     7
 10
-540.926300002873
 20
51.6490240832203
 30
0.0
 40
0.699999862369895
  0
CIRCLE
  5
   50F
  8
0
  6
CONTINUOUS
 62
     7
 10
-540.926289413871
 20
-71.3509455316596
 30
0.0
 40
0.700001026691361
  0
CIRCLE
  5
   510
  8
0
  6
CONTINUOUS
 62
     7
 10
-540.926288719735
 20
-64.3509465573912
 30
0.0
 40
2.74999793642075
  0
LINE
  5
   511
  8
0
  6
CONTINUOUS
 62
     7
 10
-534.801288787003
 20
-63.350944519043
 30
0.0
 11
-534.801288787003
 21
-61.350944519043
 31
0.0
  0
ARC
  5
   512
  8
0
  6
CONTINUOUS
 62
     7
 10
-532.176288113559
 20
-63.3509357573523
 30
0.0
 40
2.62499149271879
 50
121.002781363519
 51
241.56299252681
  0
CIRCLE
  5
   513
  8
0
  6
CONTINUOUS
 62
     7
 10
-532.176287917927
 20
-63.3509418414184
 30
0.0
 40
1.37499758123315
  0
LINE
  5
   514
  8
0
  6
CONTINUOUS
 62
     7
 10
-530.926288787003
 20
-66.600944519043
 30
0.0
 11
-533.426288787003
 21
-66.600944519043
 31
0.0
  0
LINE
  5
   515
  8
0
  6
CONTINUOUS
 62
     7
 10
-530.926288787003
 20
-66.600944519043
 30
0.0
 11
-530.926288787003
 21
-65.6591996115196
 31
0.0
  0
LINE
  5
   516
  8
0
  6
CONTINUOUS
 62
     7
 10
-533.426288787003
 20
-66.600944519043
 30
0.0
 11
-533.426288787003
 21
-65.659198882136
 31
0.0
  0
LINE
  5
   517
  8
0
  6
CONTINUOUS
 62
     7
 10
-529.551288787003
 20
-63.350944519043
 30
0.0
 11
-529.551288787003
 21
-61.350944519043
 31
0.0
  0
ARC
  5
   518
  8
0
  6
CONTINUOUS
 62
     7
 10
-532.176288113559
 20
-63.3509357573523
 30
0.0
 40
2.62499149271879
 50
298.436973936778
 51
418.997218532549
  0
LINE
  5
   519
  8
0
  6
CONTINUOUS
 62
     7
 10
-533.051288787
 20
53.6490155939381
 30
0.0
 11
-547.926302707288
 21
53.6490155939381
 31
0.0
  0
LINE
  5
   51A
  8
0
  6
CONTINUOUS
 62
     3
 10
-533.051288787
 20
-73.3509538884734
 30
0.0
 11
-547.926288787
 21
-73.3509538884734
 31
0.0
  0
LINE
  5
   51B
  8
0
  6
CONTINUOUS
 62
     3
 10
-530.926288787001
 20
-71.8509538884739
 30
0.0
 11
-530.926288787001
 21
-70.1009538884739
 31
0.0
  0
LINE
  5
   51C
  8
0
  6
CONTINUOUS
 62
     3
 10
-533.426288787
 20
-71.8509540076832
 30
0.0
 11
-533.426288787
 21
-70.1009538884739
 31
0.0
  0
LINE
  5
   51D
  8
0
  6
CONTINUOUS
 62
     3
 10
-530.926288787001
 20
-70.1009538884739
 30
0.0
 11
-533.426288787
 21
-70.1009538884739
 31
0.0
  0
LINE
  5
   51E
  8
0
  6
CONTINUOUS
 62
     3
 10
-531.301288787001
 20
-73.3509538884737
 30
0.0
 11
-531.301288787001
 21
-71.8509538884737
 31
0.0
  0
LINE
  5
   51F
  8
0
  6
CONTINUOUS
 62
     3
 10
-533.051288787
 20
-73.3509538884737
 30
0.0
 11
-533.051288787
 21
-71.8509538884737
 31
0.0
  0
LINE
  5
   520
  8
0
  6
CONTINUOUS
 62
     3
 10
-533.051288787
 20
-71.8509538884739
 30
0.0
 11
-533.426288787
 21
-71.8509538884739
 31
0.0
  0
LINE
  5
   521
  8
0
  6
CONTINUOUS
 62
     3
 10
-530.926288787001
 20
-71.8509538884739
 30
0.0
 11
-531.301288787001
 21
-71.8509538884739
 31
0.0
  0
LINE
  5
   522
  8
0
  6
CONTINUOUS
 62
     7
 10
-534.801288787003
 20
-61.350944519043
 30
0.0
 11
-546.426288787003
 21
-61.350944519043
 31
0.0
  0
LINE
  5
   523
  8
0
  6
CONTINUOUS
 62
     7
 10
-542.676288787003
 20
-61.350944519043
 30
0.0
 11
-542.676288787003
 21
-61.100944519043
 31
0.0
  0
LINE
  5
   524
  8
0
  6
DASHDOT
 62
     7
 10
-540.926300002873
 20
45.9490242208504
 30
0.0
 11
-540.926300002873
 21
57.3490239455902
 31
0.0
  0
LINE
  5
   525
  8
0
  6
DASHDOT
 62
     7
 10
-535.226300140503
 20
51.6490240832203
 30
0.0
 11
-546.626299865243
 21
51.6490240832203
 31
0.0
  0
LINE
  5
   526
  8
0
  6
DASHDOT
 62
     7
 10
-540.926351866909
 20
36.898346778886
 30
0.0
 11
-540.926351866909
 21
52.3990058921969
 31
0.0
  0
LINE
  5
   527
  8
0
  6
DASHDOT
 62
     7
 10
-533.176022310254
 20
44.6486763355415
 30
0.0
 11
-548.676681423565
 21
44.6486763355415
 31
0.0
  0
LINE
  5
   528
  8
0
  6
DASHDOT
 62
     7
 10
-532.176305902951
 20
36.0240614971473
 30
0.0
 11
-532.176305902951
 21
51.2740230917821
 31
0.0
  0
LINE
  5
   529
  8
0
  6
DASHDOT
 62
     7
 10
-540.926288719735
 20
-72.1009444938119
 30
0.0
 11
-540.926288719735
 21
-56.6009486209704
 31
0.0
  0
LINE
  5
   52A
  8
0
  6
DASHDOT
 62
     7
 10
-533.176290783314
 20
-64.3509465573912
 30
0.0
 11
-548.676286656156
 21
-64.3509465573912
 31
0.0
  0
LINE
  5
   52B
  8
0
  6
DASHDOT
 62
     7
 10
-532.176287917927
 20
-69.7259394226515
 30
0.0
 11
-532.176287917927
 21
-56.9759442601852
 31
0.0
  0
LINE
  5
   52C
  8
0
  6
DASHDOT
 62
     7
 10
-525.801290336694
 20
-63.3509418414184
 30
0.0
 11
-538.55128549916
 21
-63.3509418414184
 31
0.0
  0
LINE
  5
   52D
  8
0
  6
DASHDOT
 62
     7
 10
-540.926289413871
 20
-77.050946558351
 30
0.0
 11
-540.926289413871
 21
-65.6509445049683
 31
0.0
  0
LINE
  5
   52E
  8
0
  6
DASHDOT
 62
     7
 10
-535.22628838718
 20
-71.3509455316596
 30
0.0
 11
-546.626290440563
 21
-71.3509455316596
 31
0.0
  0
LINE
  5
   52F
  8
0
  6
CONTINUOUS
 62
     7
 10
-540.176311819356
 20
10.5240539949933
 30
0.0
 11
-540.176312484711
 21
13.0240539949932
 31
0.0
  0
LINE
  5
   530
  8
0
  6
CONTINUOUS
 62
     7
 10
-538.926311819356
 20
10.5240631103518
 30
0.0
 11
-540.176311819356
 21
10.5240631103518
 31
0.0
  0
LINE
  5
   531
  8
0
  6
CONTINUOUS
 62
     7
 10
-538.926311819356
 20
10.5240543276706
 30
0.0
 11
-538.926312484711
 21
13.0240543276705
 31
0.0
  0
LINE
  5
   532
  8
0
  6
CONTINUOUS
 62
     7
 10
-538.926312484711
 20
13.0240631103517
 30
0.0
 11
-540.176312484711
 21
13.0240631103517
 31
0.0
  0
LINE
  5
   533
  8
0
  6
CONTINUOUS
 62
     7
 10
-540.176299377225
 20
-36.225946005005
 30
0.0
 11
-540.176300574863
 21
-31.7259460050052
 31
0.0
  0
LINE
  5
   534
  8
0
  6
CONTINUOUS
 62
     7
 10
-538.926299377225
 20
-36.2259368896465
 30
0.0
 11
-540.176299377225
 21
-36.2259368896465
 31
0.0
  0
LINE
  5
   535
  8
0
  6
CONTINUOUS
 62
     7
 10
-538.926303827688
 20
-36.2259460407436
 30
0.0
 11
-538.92631265472
 21
-31.7259460407458
 31
0.0
  0
LINE
  5
   536
  8
0
  6
CONTINUOUS
 62
     7
 10
-538.926308204258
 20
-31.7259368896467
 30
0.0
 11
-540.176300574863
 21
-31.7259368896467
 31
0.0
  0
LINE
  5
   537
  8
0
  6
CONTINUOUS
 62
     7
 10
-540.176299643364
 20
-35.2259445190411
 30
0.0
 11
-549.426299643364
 21
-35.2259445190411
 31
0.0
  0
LINE
  5
   538
  8
0
  6
CONTINUOUS
 62
     2
 10
-549.676299643364
 20
-35.2259561627472
 30
0.0
 11
-549.676313615811
 21
17.2740438372509
 31
0.0
  0
LINE
  5
   539
  8
0
  6
CONTINUOUS
 62
     2
 10
-549.676313615811
 20
17.2740438372509
 30
0.0
 11
-549.676320036486
 21
41.3990514666446
 31
0.0
  0
LINE
  5
   53A
  8
0
  6
DASHDOT
 62
     2
 10
-505.926295110283
 20
-52.258527084004
 30
0.0
 11
-505.926320408122
 21
42.7954416644888
 31
0.0
  0
LINE
  5
   53B
  8
0
  6
CONTINUOUS
 62
     7
 10
-539.426299377225
 20
-36.2259458053986
 30
0.0
 11
-539.426300574863
 21
-31.7259458053988
 31
0.0
  0
LINE
  5
   53C
  8
0
  6
CONTINUOUS
 62
     7
 10
-539.426311819356
 20
10.5240541945997
 30
0.0
 11
-539.426312484711
 21
13.0240541945996
 31
0.0
  0
LINE
  5
   53D
  8
0
  6
CONTINUOUS
 62
     7
 10
-540.451301169245
 20
-35.2259460781945
 30
0.0
 11
-540.451315141691
 21
17.2740462924091
 31
0.0
  0
LINE
  5
   53E
  8
0
  6
CONTINUOUS
 62
     7
 10
-542.251299929469
 20
-35.2259465572495
 30
0.0
 11
-542.251313901914
 21
17.2740458133541
 31
0.0
  0
LINE
  5
   53F
  8
0
  6
CONTINUOUS
 62
     7
 10
-544.051300120204
 20
-35.2259470363049
 30
0.0
 11
-544.051314092649
 21
17.2740453342987
 31
0.0
  0
LINE
  5
   540
  8
0
  6
CONTINUOUS
 62
     7
 10
-545.851292947681
 20
-61.100944519043
 30
0.0
 11
-545.851313806546
 21
17.2740448552435
 31
0.0
  0
LINE
  5
   541
  8
0
  6
CONTINUOUS
 62
     7
 10
-536.851302695124
 20
-35.2259451200842
 30
0.0
 11
-536.85131666757
 21
17.2740472505194
 31
0.0
  0
LINE
  5
   542
  8
0
  6
CONTINUOUS
 62
     7
 10
-538.651305746882
 20
-35.2259455991404
 30
0.0
 11
-538.651319719327
 21
17.2740467714632
 31
0.0
  0
LINE
  5
   543
  8
0
  6
CONTINUOUS
 62
     7
 10
-547.401300024836
 20
-35.2259479278801
 30
0.0
 11
-547.401313997281
 21
17.2740444427235
 31
0.0
  0
LINE
  5
   544
  8
0
  6
CONTINUOUS
 62
     7
 10
-548.551300120203
 20
-35.2259482339432
 30
0.0
 11
-548.551314092649
 21
17.2740441366604
 31
0.0
  0
LINE
  5
   545
  8
0
  6
CONTINUOUS
 62
     7
 10
-533.251297334583
 20
-61.100944519043
 30
0.0
 11
-533.251300495013
 21
-49.2259616851826
 31
0.0
  0
LINE
  5
   546
  8
0
  6
CONTINUOUS
 62
     7
 10
-535.051300386341
 20
-61.100944519043
 30
0.0
 11
-535.051303613296
 21
-48.9760018470423
 31
0.0
  0
LINE
  5
   547
  8
0
  6
CONTINUOUS
 62
     7
 10
-544.051293167248
 20
-61.350944519043
 30
0.0
 11
-544.051300120204
 21
-35.22594658927
 31
0.0
  0
LINE
  5
   548
  8
0
  6
CONTINUOUS
 62
     7
 10
-540.451294282825
 20
-61.100944519043
 30
0.0
 11
-540.451301169245
 21
-35.2259456311596
 31
0.0
  0
LINE
  5
   549
  8
0
  6
CONTINUOUS
 62
     7
 10
-542.251293043049
 20
-61.100944519043
 30
0.0
 11
-542.251299929469
 21
-35.2259461102147
 31
0.0
  0
LINE
  5
   54A
  8
0
  6
CONTINUOUS
 62
     7
 10
-536.851295808704
 20
-61.100944519043
 30
0.0
 11
-536.851302695124
 21
-35.2259446730494
 31
0.0
  0
LINE
  5
   54B
  8
0
  6
CONTINUOUS
 62
     7
 10
-538.651298860462
 20
-61.100944519043
 30
0.0
 11
-538.651305746882
 21
-35.2259451521055
 31
0.0
  0
LINE
  5
   54C
  8
0
  6
CONTINUOUS
 62
     7
 10
-547.401293138416
 20
-61.100944519043
 30
0.0
 11
-547.401300024836
 21
-35.2259474808452
 31
0.0
  0
LINE
  5
   54D
  8
0
  6
CONTINUOUS
 62
     7
 10
-548.551293710621
 20
-61.100944519043
 30
0.0
 11
-548.551300597041
 21
-35.2259478274591
 31
0.0
  0
LINE
  5
   54E
  8
0
  6
CONTINUOUS
 62
     7
 10
-547.401313997281
 20
17.2740444427235
 30
0.0
 11
-547.401320417953
 21
41.3990444427227
 31
0.0
  0
LINE
  5
   54F
  8
0
  6
CONTINUOUS
 62
     7
 10
-548.551314092649
 20
17.2740441366604
 30
0.0
 11
-548.551320513321
 21
41.3990441366595
 31
0.0
  0
LINE
  5
   550
  8
0
  6
CONTINUOUS
 62
     7
 10
-533.251321919431
 20
31.2740364074688
 30
0.0
 11
-533.251324614121
 21
41.3990482086288
 31
0.0
  0
LINE
  5
   551
  8
0
  6
CONTINUOUS
 62
     7
 10
-535.051324904657
 20
31.0240481839184
 30
0.0
 11
-535.051327665879
 21
41.3990477295726
 31
0.0
  0
LINE
  5
   552
  8
0
  6
CONTINUOUS
 62
     7
 10
-536.85131666757
 20
17.2740472505194
 30
0.0
 11
-536.851323088242
 21
41.3990472505185
 31
0.0
  0
LINE
  5
   553
  8
0
  6
CONTINUOUS
 62
     7
 10
-538.651319719327
 20
17.2740467714632
 30
0.0
 11
-538.65132614
 21
41.3990467714624
 31
0.0
  0
LINE
  5
   554
  8
0
  6
CONTINUOUS
 62
     7
 10
-540.451315141691
 20
17.2740462924091
 30
0.0
 11
-540.451321562363
 21
41.3990462924082
 31
0.0
  0
LINE
  5
   555
  8
0
  6
CONTINUOUS
 62
     7
 10
-542.251313901914
 20
17.2740458133541
 30
0.0
 11
-542.251320322586
 21
41.3990458133532
 31
0.0
  0
LINE
  5
   556
  8
0
  6
CONTINUOUS
 62
     7
 10
-544.051314092649
 20
17.2740453342987
 30
0.0
 11
-544.051320513321
 21
41.3990453342979
 31
0.0
  0
LINE
  5
   557
  8
0
  6
CONTINUOUS
 62
     7
 10
-545.851313806546
 20
17.2740448552435
 30
0.0
 11
-545.851320227219
 21
41.3990448552426
 31
0.0
  0
ARC
  5
   558
  8
0
  6
CONTINUOUS
 62
     7
 10
-549.426313549276
 20
17.0240439037864
 30
0.0
 40
0.25
 50
90.0000151968393
 51
180.000015196839
  0
ARC
  5
   559
  8
0
  6
CONTINUOUS
 62
     2
 10
-479.926321178673
 20
17.0240624006432
 30
0.0
 40
0.25
 50
360.000015196839
 51
450.000015196839
  0
ARC
  5
   55A
  8
0
  6
CONTINUOUS
 62
     7
 10
-549.4262997099
 20
-34.9759560962118
 30
0.0
 40
0.25
 50
180.000015196839
 51
270.000015196839
  0
LINE
  5
   55B
  8
0
  6
CONTINUOUS
 62
     7
 10
-535.176333737211
 20
17.2740439037864
 30
0.0
 11
-549.426313549276
 21
17.2740439037864
 31
0.0
  0
LINE
  5
   55C
  8
0
  6
CONTINUOUS
 62
     7
 10
-535.176333737211
 20
-35.225944519043
 30
0.0
 11
-538.926305789254
 21
-35.225944519043
 31
0.0
  0
LINE
  5
   55D
  8
0
  6
CONTINUOUS
 62
     7
 10
-535.176333737211
 20
-43.350944519043
 30
0.0
 11
-549.676288787003
 21
-43.350944519043
 31
0.0
  0
LINE
  5
   55E
  8
0
  6
DASHDOT
 62
     2
 10
-476.24311271785
 20
-8.97594451904298
 30
0.0
 11
-567.79023848892
 21
-8.97594451904298
 31
0.0
  0
LINE
  5
   55F
  8
0
  6
CONTINUOUS
 62
     3
 10
-482.676288787003
 20
-74.6009538884734
 30
0.0
 11
-482.676288787003
 21
-73.3509445190421
 31
0.0
  0
LINE
  5
   560
  8
0
  6
CONTINUOUS
 62
     3
 10
-546.676288787003
 20
-74.6009538884734
 30
0.0
 11
-546.676288787003
 21
-73.3509538884734
 31
0.0
  0
LINE
  5
   561
  8
0
  6
CONTINUOUS
 62
     3
 10
-482.676288787003
 20
-74.6009538884734
 30
0.0
 11
-546.676288787003
 21
-74.6009538884734
 31
0.0
  0
INSERT
  5
   562
  8
255
  6
CONTINUOUS
 62
     7
  2
COPRITERMINALI
 10
-505.926341142513
 20
54.8990734416272
 30
0.0
 41
0.5
 42
0.5
 50
3.50835464724173E-15
 43
0.5
  0
LINE
  5
   563
  8
0
  6
CONTINUOUS
 62
     7
 10
-530.460411825502
 20
53.6489944458005
 30
0.0
 11
-531.301288787003
 21
53.6489944458005
 31
0.0
  0
LINE
  5
   564
  8
0
  6
CONTINUOUS
 62
     2
 10
-545.926300002873
 20
53.6490155939381
 30
0.0
 11
-545.926300002873
 21
67.6490581730181
 31
0.0
  0
LINE
  5
   565
  8
0
  6
CONTINUOUS
 62
     2
 10
-535.926300002873
 20
53.6490155939381
 30
0.0
 11
-535.926300002873
 21
67.6490581730181
 31
0.0
  0
LINE
  5
   566
  8
0
  6
CONTINUOUS
 62
     2
 10
-535.926300002873
 20
67.6490581730181
 30
0.0
 11
-545.926300002873
 21
67.6490581730181
 31
0.0
  0
CIRCLE
  5
   567
  8
0
  6
CONTINUOUS
 62
     2
 10
-540.926300002873
 20
61.3990581730181
 30
0.0
 40
2.125
  0
LINE
  5
   568
  8
0
  6
CONTINUOUS
 62
     2
 10
-518.426300002873
 20
67.6490581730181
 30
0.0
 11
-528.426300002873
 21
67.6490581730181
 31
0.0
  0
LINE
  5
   569
  8
0
  6
CONTINUOUS
 62
     2
 10
-518.426300002873
 20
54.8990734416272
 30
0.0
 11
-518.426300002873
 21
67.6490581730181
 31
0.0
  0
LINE
  5
   56A
  8
0
  6
CONTINUOUS
 62
     2
 10
-528.426300002873
 20
54.8990734416272
 30
0.0
 11
-528.426300002873
 21
67.6490581730181
 31
0.0
  0
CIRCLE
  5
   56B
  8
0
  6
CONTINUOUS
 62
     2
 10
-523.426300002873
 20
61.3990581730181
 30
0.0
 40
2.125
  0
CIRCLE
  5
   56C
  8
0
  6
CONTINUOUS
 62
     2
 10
-505.926300002873
 20
61.3990581730181
 30
0.0
 40
2.125
  0
LINE
  5
   56D
  8
0
  6
CONTINUOUS
 62
     2
 10
-500.926300002873
 20
54.8990734416272
 30
0.0
 11
-500.926300002873
 21
67.6490581730181
 31
0.0
  0
LINE
  5
   56E
  8
0
  6
CONTINUOUS
 62
     2
 10
-500.926300002873
 20
67.6490581730181
 30
0.0
 11
-510.926300002873
 21
67.6490581730181
 31
0.0
  0
LINE
  5
   56F
  8
0
  6
CONTINUOUS
 62
     2
 10
-510.926300002873
 20
54.8990734416272
 30
0.0
 11
-510.926300002873
 21
67.6490581730181
 31
0.0
  0
CIRCLE
  5
   570
  8
0
  6
CONTINUOUS
 62
     2
 10
-488.426300002873
 20
61.3990581730181
 30
0.0
 40
2.125
  0
LINE
  5
   571
  8
0
  6
CONTINUOUS
 62
     2
 10
-483.426300002873
 20
54.8990734416272
 30
0.0
 11
-483.426300002873
 21
67.6490581730181
 31
0.0
  0
LINE
  5
   572
  8
0
  6
CONTINUOUS
 62
     2
 10
-483.426300002873
 20
67.6490581730181
 30
0.0
 11
-493.426300002873
 21
67.6490581730181
 31
0.0
  0
LINE
  5
   573
  8
0
  6
CONTINUOUS
 62
     2
 10
-493.426300002873
 20
54.8990734416272
 30
0.0
 11
-493.426300002873
 21
67.6490581730181
 31
0.0
  0
LINE
  5
   574
  8
0
  6
DASHDOT
 62
     2
 10
-488.426300002873
 20
56.7740581730181
 30
0.0
 11
-488.426300002873
 21
66.0240581730181
 31
0.0
  0
LINE
  5
   575
  8
0
  6
DASHDOT
 62
     2
 10
-483.801300002873
 20
61.3990581730181
 30
0.0
 11
-493.051300002873
 21
61.3990581730181
 31
0.0
  0
LINE
  5
   576
  8
0
  6
DASHDOT
 62
     2
 10
-505.926300002873
 20
56.7740581730181
 30
0.0
 11
-505.926300002873
 21
82.9822698633971
 31
0.0
  0
LINE
  5
   577
  8
0
  6
DASHDOT
 62
     2
 10
-501.301300002873
 20
61.3990581730181
 30
0.0
 11
-510.551300002873
 21
61.3990581730181
 31
0.0
  0
LINE
  5
   578
  8
0
  6
DASHDOT
 62
     2
 10
-523.426300002873
 20
56.7740581730181
 30
0.0
 11
-523.426300002873
 21
66.0240581730181
 31
0.0
  0
LINE
  5
   579
  8
0
  6
DASHDOT
 62
     2
 10
-518.801300002873
 20
61.3990581730181
 30
0.0
 11
-528.051300002873
 21
61.3990581730181
 31
0.0
  0
LINE
  5
   57A
  8
0
  6
DASHDOT
 62
     2
 10
-540.926300002873
 20
56.7740581730181
 30
0.0
 11
-540.926300002873
 21
66.0240581730181
 31
0.0
  0
LINE
  5
   57B
  8
0
  6
DASHDOT
 62
     2
 10
-536.301300002873
 20
61.3990581730181
 30
0.0
 11
-545.551300002873
 21
61.3990581730181
 31
0.0
  0
LINE
  5
   57C
  8
0
  6
CONTINUOUS
 62
     1
 10
-529.426305570273
 20
54.8990734416272
 30
0.0
 11
-529.426305570273
 21
56.3990734416273
 31
0.0
  0
LINE
  5
   57D
  8
0
  6
CONTINUOUS
 62
     1
 10
-532.926305570273
 20
56.3990734416273
 30
0.0
 11
-534.926305570273
 21
56.3990734416273
 31
0.0
  0
LINE
  5
   57E
  8
0
  6
CONTINUOUS
 62
     1
 10
-529.426305570273
 20
56.3990734416273
 30
0.0
 11
-531.426305570273
 21
56.3990734416273
 31
0.0
  0
LINE
  5
   57F
  8
0
  6
CONTINUOUS
 62
     1
 10
-534.926305570273
 20
53.6490734416273
 30
0.0
 11
-534.926305570273
 21
56.3990734416273
 31
0.0
  0
LINE
  5
   580
  8
0
  6
CONTINUOUS
 62
     1
 10
-530.028458351655
 20
54.8990734416273
 30
0.0
 11
-534.926305570273
 21
54.8990734416273
 31
0.0
  0
LINE
  5
   581
  8
0
  6
CONTINUOUS
 62
     1
 10
-532.926305570273
 20
52.2490732270505
 30
0.0
 11
-533.301305570273
 21
52.2490732270505
 31
0.0
  0
LINE
  5
   582
  8
0
  6
CONTINUOUS
 62
     1
 10
-533.301305570273
 20
50.6490732032087
 30
0.0
 11
-533.301305570273
 21
52.2490732270505
 31
0.0
  0
LINE
  5
   583
  8
0
  6
CONTINUOUS
 62
     1
 10
-531.743372686193
 20
50.6490732032087
 30
0.0
 11
-533.301305570273
 21
50.6490732032087
 31
0.0
  0
LINE
  5
   584
  8
0
  6
CONTINUOUS
 62
     1
 10
-531.051305570273
 20
51.3770816518422
 30
0.0
 11
-531.051305570273
 21
52.2490732270505
 31
0.0
  0
LINE
  5
   585
  8
0
  6
CONTINUOUS
 62
     1
 10
-531.051305570273
 20
52.2490732270505
 30
0.0
 11
-531.426305570273
 21
52.2490732270505
 31
0.0
  0
LINE
  5
   586
  8
0
  6
CONTINUOUS
 62
     1
 10
-531.426305570273
 20
52.2490731078412
 30
0.0
 11
-531.426305570273
 21
54.8990732032087
 31
0.0
  0
LINE
  5
   587
  8
0
  6
CONTINUOUS
 62
     1
 10
-532.926305570273
 20
52.2490732270505
 30
0.0
 11
-532.926305570273
 21
54.8990732032087
 31
0.0
  0
LINE
  5
   588
  8
0
  6
CONTINUOUS
 62
     1
 10
-532.926305570273
 20
51.7490732270505
 30
0.0
 11
-532.926305570273
 21
52.2490732270505
 31
0.0
  0
LINE
  5
   589
  8
0
  6
CONTINUOUS
 62
     1
 10
-531.426305570273
 20
51.7490732270505
 30
0.0
 11
-531.426305570273
 21
52.2490732270505
 31
0.0
  0
LINE
  5
   58A
  8
0
  6
CONTINUOUS
 62
     1
 10
-532.926305570273
 20
51.7490732270505
 30
0.0
 11
-533.301305570273
 21
51.7490732270505
 31
0.0
  0
LINE
  5
   58B
  8
0
  6
CONTINUOUS
 62
     1
 10
-531.051305570273
 20
51.7490732270505
 30
0.0
 11
-531.426305570273
 21
51.7490732270505
 31
0.0
  0
LINE
  5
   58C
  8
0
  6
CONTINUOUS
 62
     1
 10
-529.426305570273
 20
55.3990734416273
 30
0.0
 11
-534.926305570273
 21
55.3990734416273
 31
0.0
  0
LINE
  5
   58D
  8
0
  6
CONTINUOUS
 62
     1
 10
-530.460437319737
 20
53.6490734416273
 30
0.0
 11
-531.426305570273
 21
53.6490734416273
 31
0.0
  0
LINE
  5
   58E
  8
0
  6
CONTINUOUS
 62
     1
 10
-532.926305570273
 20
53.6490734416273
 30
0.0
 11
-534.926305570273
 21
53.6490734416273
 31
0.0
  0
LINE
  5
   58F
  8
0
  6
CONTINUOUS
 62
     1
 10
-531.676305570273
 20
96.3990734416273
 30
0.0
 11
-532.676305570273
 21
96.3990734416273
 31
0.0
  0
LINE
  5
   590
  8
0
  6
CONTINUOUS
 62
     1
 10
-531.426305570273
 20
56.3990734416273
 30
0.0
 11
-531.676305570273
 21
96.3990734416273
 31
0.0
  0
LINE
  5
   591
  8
0
  6
CONTINUOUS
 62
     1
 10
-532.926305570273
 20
56.3990734416273
 30
0.0
 11
-532.676305570273
 21
96.3990734416273
 31
0.0
  0
LINE
  5
   592
  8
0
  6
CONTINUOUS
 62
     1
 10
-514.176305570273
 20
96.3990734416273
 30
0.0
 11
-515.176305570273
 21
96.3990734416273
 31
0.0
  0
LINE
  5
   593
  8
0
  6
CONTINUOUS
 62
     1
 10
-513.926305570273
 20
56.3990734416273
 30
0.0
 11
-514.176305570273
 21
96.3990734416273
 31
0.0
  0
LINE
  5
   594
  8
0
  6
CONTINUOUS
 62
     1
 10
-515.426305570273
 20
56.3990734416273
 30
0.0
 11
-515.176305570273
 21
96.3990734416273
 31
0.0
  0
LINE
  5
   595
  8
0
  6
CONTINUOUS
 62
     1
 10
-515.426305570273
 20
56.3990734416273
 30
0.0
 11
-517.426305570273
 21
56.3990734416273
 31
0.0
  0
LINE
  5
   596
  8
0
  6
CONTINUOUS
 62
     1
 10
-511.926305570273
 20
56.3990734416273
 30
0.0
 11
-513.926305570273
 21
56.3990734416273
 31
0.0
  0
LINE
  5
   597
  8
0
  6
CONTINUOUS
 62
     1
 10
-511.926305570273
 20
54.8990734416272
 30
0.0
 11
-511.926305570273
 21
56.3990734416273
 31
0.0
  0
LINE
  5
   598
  8
0
  6
CONTINUOUS
 62
     1
 10
-517.426305570273
 20
54.8990734416272
 30
0.0
 11
-517.426305570273
 21
56.3990734416273
 31
0.0
  0
LINE
  5
   599
  8
0
  6
CONTINUOUS
 62
     1
 10
-511.926305570273
 20
55.3990734416273
 30
0.0
 11
-517.426305570273
 21
55.3990734416273
 31
0.0
  0
LINE
  5
   59A
  8
0
  6
CONTINUOUS
 62
     1
 10
-496.426305570273
 20
56.3990734416273
 30
0.0
 11
-496.676305570273
 21
96.3990734416273
 31
0.0
  0
LINE
  5
   59B
  8
0
  6
CONTINUOUS
 62
     1
 10
-497.926305570273
 20
56.3990734416273
 30
0.0
 11
-497.676305570273
 21
96.3990734416273
 31
0.0
  0
LINE
  5
   59C
  8
0
  6
CONTINUOUS
 62
     1
 10
-494.426305570273
 20
56.3990734416273
 30
0.0
 11
-496.426305570273
 21
56.3990734416273
 31
0.0
  0
LINE
  5
   59D
  8
0
  6
CONTINUOUS
 62
     1
 10
-497.926305570273
 20
56.3990734416273
 30
0.0
 11
-499.926305570273
 21
56.3990734416273
 31
0.0
  0
LINE
  5
   59E
  8
0
  6
CONTINUOUS
 62
     1
 10
-499.926305570273
 20
54.8990734416272
 30
0.0
 11
-499.926305570273
 21
56.3990734416273
 31
0.0
  0
LINE
  5
   59F
  8
0
  6
CONTINUOUS
 62
     1
 10
-494.426305570273
 20
54.8990734416272
 30
0.0
 11
-494.426305570273
 21
56.3990734416273
 31
0.0
  0
LINE
  5
   5A0
  8
0
  6
CONTINUOUS
 62
     1
 10
-494.426305570273
 20
55.3990734416273
 30
0.0
 11
-499.926305570273
 21
55.3990734416273
 31
0.0
  0
LINE
  5
   5A1
  8
0
  6
CONTINUOUS
 62
     1
 10
-496.676305570273
 20
96.3990734416273
 30
0.0
 11
-497.676305570273
 21
96.3990734416273
 31
0.0
  0
TEXT
  5
   5A2
  8
0
  6
CONTINUOUS
 62
     7
 10
-458.558128369138
 20
-20.8183348833199
 30
0.0
 40
3.00000002980232
  1
=        =
 50
89.9999999480344
 41
0.916666604744064
 72
     2
 11
-458.558128344729
 21
6.13166355950874
 31
0.0
  0
TEXT
  5
   5A3
  8
0
  6
CONTINUOUS
 62
     7
 10
-507.14827322499
 20
-106.543498919804
 30
0.0
 40
3.00000002980232
  1
Y
 50
359.999999948034
 41
0.916666604744064
 72
     2
 11
-504.94827335612
 21
-106.543498921788
 31
0.0
  0
INSERT
  5
   5A4
  8
0
  6
CONTINUOUS
 62
     7
  2
*UDIM77
 10
0.0
 20
0.0
 30
0.0
  0
INSERT
  5
   5A5
  8
0
  6
CONTINUOUS
 62
     7
  2
*UDIM78
 10
0.0
 20
0.0
 30
0.0
  0
INSERT
  5
   5A6
  8
0
  6
CONTINUOUS
 62
     7
  2
*UDIM79
 10
0.0
 20
0.0
 30
0.0
  0
INSERT
  5
   5A7
  8
0
  6
CONTINUOUS
 62
     7
  2
*UDIM80
 10
0.0
 20
0.0
 30
0.0
  0
INSERT
  5
   5A8
  8
0
  6
CONTINUOUS
 62
     7
  2
*UDIM81
 10
0.0
 20
0.0
 30
0.0
  0
INSERT
  5
   5A9
  8
0
  6
CONTINUOUS
 62
     7
  2
*UDIM82
 10
0.0
 20
0.0
 30
0.0
  0
INSERT
  5
   5AA
  8
0
  6
CONTINUOUS
 62
     7
  2
*UDIM83
 10
0.0
 20
0.0
 30
0.0
  0
INSERT
  5
   5AB
  8
0
  6
CONTINUOUS
 62
     5
  2
*UDIM84
 10
0.0
 20
0.0
 30
0.0
  0
TEXT
  5
   5AC
  8
0
  6
CONTINUOUS
 62
     7
 10
-520.44232171313
 20
-105.174468361435
 30
0.0
 40
3.00000002980232
  1
=         =
 50
359.999999948034
 41
0.916666604744064
 72
     2
 11
-490.74232342875
 21
-105.174468388223
 31
0.0
  0
INSERT
  5
   5AD
  8
0
  6
CONTINUOUS
 62
     7
  2
*UDIM85
 10
0.0
 20
0.0
 30
0.0
  0
TEXT
  5
   5AE
  8
0
  6
CONTINUOUS
 62
     7
 10
-585.786703427004
 20
-9.99969326934082
 30
0.0
 40
3.00000002980232
  1
X
 50
359.999999948034
 41
0.916666604744064
 72
     2
 11
-583.586703558134
 21
-9.99969327132509
 31
0.0
  0
INSERT
  5
   5AF
  8
0
  6
CONTINUOUS
 62
     7
  2
*UDIM86
 10
0.0
 20
0.0
 30
0.0
  0
INSERT
  5
   5B0
  8
0
  6
CONTINUOUS
 62
     7
  2
*UDIM87
 10
0.0
 20
0.0
 30
0.0
  0
INSERT
  5
   5B1
  8
0
  6
CONTINUOUS
 62
     7
  2
*UDIM88
 10
0.0
 20
0.0
 30
0.0
  0
INSERT
  5
   5B2
  8
0
  6
CONTINUOUS
 62
     7
  2
*UDIM89
 10
0.0
 20
0.0
 30
0.0
  0
INSERT
  5
   5B3
  8
0
  6
CONTINUOUS
 62
     7
  2
*UDIM90
 10
0.0
 20
0.0
 30
0.0
  0
INSERT
  5
   5B4
  8
0
  6
CONTINUOUS
 62
     7
  2
*UDIM91
 10
0.0
 20
0.0
 30
0.0
  0
TEXT
  5
   5B5
  8
0
  6
CONTINUOUS
 62
     7
 10
-449.542694003743
 20
-10.556785338424
 30
0.0
 40
3.00000002980232
  1
X
 50
359.999999948034
 41
0.916666604744064
 72
     1
 11
-448.442694067955
 21
-9.05678532451502
 31
0.0
 73
     2
  0
TEXT
  5
   5B6
  8
0
  6
CONTINUOUS
 62
     7
 10
-507.648017795247
 20
84.9752581186072
 30
0.0
 40
3.00000002980232
  1
Y
 50
359.999999948034
 41
0.916666604744064
 72
     1
 11
-506.548017859459
 21
86.4752581325162
 31
0.0
 73
     2
  0
INSERT
  5
   5B7
  8
255
  6
CONTINUOUS
 62
     7
  2
MOSTRINA
 10
-563.345462155179
 20
-63.9662742614765
 30
0.0
 41
0.5
 42
0.5
 50
3.50835464724173E-15
 43
0.5
  0
LINE
  5
   5B8
  8
0
  6
CONTINUOUS
 62
     7
 10
-267.693511962891
 20
27.7306518554688
 30
0.0
 11
-239.693511962891
 21
27.7306518554688
 31
0.0
  0
LINE
  5
   5B9
  8
0
  6
CONTINUOUS
 62
     7
 10
-267.693511962891
 20
55.7306518554688
 30
0.0
 11
-239.693511962891
 21
55.7306518554688
 31
0.0
  0
LINE
  5
   5BA
  8
0
  6
CONTINUOUS
 62
     7
 10
-267.693511962891
 20
55.7306518554688
 30
0.0
 11
-267.693511962891
 21
27.7306518554688
 31
0.0
  0
LINE
  5
   5BB
  8
0
  6
CONTINUOUS
 62
     7
 10
-239.693511962891
 20
55.7306518554688
 30
0.0
 11
-239.693511962891
 21
27.7306518554688
 31
0.0
  0
CIRCLE
  5
   5BC
  8
0
  6
CONTINUOUS
 62
     7
 10
-263.693511962891
 20
59.4806518554688
 30
0.0
 40
0.875
  0
CIRCLE
  5
   5BD
  8
0
  6
CONTINUOUS
 62
     7
 10
-243.693511962891
 20
59.4806518554688
 30
0.0
 40
0.875
  0
CIRCLE
  5
   5BE
  8
0
  6
CONTINUOUS
 62
     7
 10
-263.693511962891
 20
23.9806518554688
 30
0.0
 40
0.875
  0
CIRCLE
  5
   5BF
  8
0
  6
CONTINUOUS
 62
     7
 10
-243.693511962891
 20
23.9806518554688
 30
0.0
 40
0.875
  0
LINE
  5
   5C0
  8
0
  6
DASHDOT
 62
     7
 10
-263.693511962891
 20
61.1056518554688
 30
0.0
 11
-263.693511962891
 21
57.8556518554688
 31
0.0
  0
LINE
  5
   5C1
  8
0
  6
DASHDOT
 62
     7
 10
-265.318511962891
 20
59.4806518554688
 30
0.0
 11
-262.068511962891
 21
59.4806518554688
 31
0.0
  0
LINE
  5
   5C2
  8
0
  6
DASHDOT
 62
     7
 10
-243.693511962891
 20
61.1056518554688
 30
0.0
 11
-243.693511962891
 21
57.8556518554688
 31
0.0
  0
LINE
  5
   5C3
  8
0
  6
DASHDOT
 62
     7
 10
-245.318511962891
 20
59.4806518554688
 30
0.0
 11
-242.068511962891
 21
59.4806518554688
 31
0.0
  0
LINE
  5
   5C4
  8
0
  6
DASHDOT
 62
     7
 10
-243.693511962891
 20
25.6056518554688
 30
0.0
 11
-243.693511962891
 21
22.3556518554688
 31
0.0
  0
LINE
  5
   5C5
  8
0
  6
DASHDOT
 62
     7
 10
-245.318511962891
 20
23.9806518554688
 30
0.0
 11
-242.068511962891
 21
23.9806518554688
 31
0.0
  0
LINE
  5
   5C6
  8
0
  6
DASHDOT
 62
     7
 10
-263.693511962891
 20
25.6056518554688
 30
0.0
 11
-263.693511962891
 21
22.3556518554688
 31
0.0
  0
LINE
  5
   5C7
  8
0
  6
DASHDOT
 62
     7
 10
-265.318511962891
 20
23.9806518554688
 30
0.0
 11
-262.068511962891
 21
23.9806518554688
 31
0.0
  0
LINE
  5
   5C8
  8
0
  6
DASHDOT
 62
     7
 10
-253.693511962891
 20
69.1007641408058
 30
0.0
 11
-253.693511962891
 21
12.6074010106477
 31
0.0
  0
LINE
  5
   5C9
  8
0
  6
CONTINUOUS
 62
     7
 10
-270.514088506556
 20
62.1318375106748
 30
0.0
 11
-236.559528283249
 21
62.1318375106748
 31
0.0
  0
LINE
  5
   5CA
  8
0
  6
CONTINUOUS
 62
     7
 10
-270.514088506556
 20
20.5667724097295
 30
0.0
 11
-236.559528283249
 21
20.5667724097295
 31
0.0
  0
LINE
  5
   5CB
  8
0
  6
CONTINUOUS
 62
     7
 10
-236.559528283249
 20
62.1318375106748
 30
0.0
 11
-236.559528283249
 21
20.5667724097295
 31
0.0
  0
LINE
  5
   5CC
  8
0
  6
CONTINUOUS
 62
     7
 10
-270.514088506556
 20
62.1318375106748
 30
0.0
 11
-270.514088506556
 21
20.5667724097295
 31
0.0
  0
LINE
  5
   5CD
  8
0
  6
DASHDOT
 62
     7
 10
-277.855143846668
 20
41.7306518554688
 30
0.0
 11
-229.552179128805
 21
41.7306518554688
 31
0.0
  0
TEXT
  5
   5CE
  8
0
  6
CONTINUOUS
 62
     5
 10
-290.133271154539
 20
31.8089936424345
 30
0.0
 40
3.00000002980232
  1
=     =
 50
449.999999844103
 41
0.916666604744064
 72
     2
 11
-290.133271103776
 21
50.5089925606102
 31
0.0
  0
TEXT
  5
   5CF
  8
0
  6
CONTINUOUS
 62
     5
 10
-279.069464620726
 20
31.134371106729
 30
0.0
 40
3.00000002980232
  1
=     =
 50
449.999999844103
 41
0.916666604744064
 72
     2
 11
-279.069464569962
 21
49.8343700249047
 31
0.0
  0
INSERT
  5
   5D0
  8
0
  6
CONTINUOUS
 62
     7
  2
*UDIM92
 10
0.0
 20
0.0
 30
0.0
  0
TEXT
  5
   5D1
  8
0
  6
CONTINUOUS
 62
     7
 10
-260.594053955975
 20
74.9549977217458
 30
0.0
 40
3.00000002980232
  1
=   =
 50
359.999999844103
 41
0.916666604744064
 72
     2
 11
-247.394054720901
 21
74.9549976858961
 31
0.0
  0
TEXT
  5
   5D2
  8
0
  6
CONTINUOUS
 62
     7
 10
-260.652596207562
 20
68.3982560072683
 30
0.0
 40
3.00000002980232
  1
=   =
 50
359.999999844103
 41
0.916666604744064
 72
     2
 11
-247.452596972488
 21
68.3982559714186
 31
0.0
  0
INSERT
  5
   5D3
  8
0
  6
CONTINUOUS
 62
     7
  2
*UDIM93
 10
0.0
 20
0.0
 30
0.0
  0
INSERT
  5
   5D4
  8
0
  6
CONTINUOUS
 62
     7
  2
*UDIM94
 10
0.0
 20
0.0
 30
0.0
  0
INSERT
  5
   5D5
  8
0
  6
CONTINUOUS
 62
     7
  2
*UDIM95
 10
0.0
 20
0.0
 30
0.0
  0
INSERT
  5
   5D6
  8
0
  6
CONTINUOUS
 62
     7
  2
*UDIM96
 10
0.0
 20
0.0
 30
0.0
  0
TEXT
  5
   5D7
  8
0
  6
CONTINUOUS
 62
     7
 10
-254.881791959308
 20
5.7555579447797
 30
0.0
 40
3.00000002980232
  1
Y
 50
359.999999844103
 41
0.916666604744064
 72
     2
 11
-252.681792090439
 21
5.75555793880475
 31
0.0
  0
TEXT
  5
   5D8
  8
0
  6
CONTINUOUS
 62
     7
 10
-253.945114503406
 20
84.4950141215375
 30
0.0
 40
3.00000002980232
  1
Y
 50
359.999999844103
 41
0.916666604744064
 72
     2
 11
-251.745114634537
 21
84.4950141155626
 31
0.0
  0
TEXT
  5
   5D9
  8
0
  6
CONTINUOUS
 62
     7
 10
-227.714746366047
 20
39.86025982142
 30
0.0
 40
3.00000002980232
  1
X
 50
359.999999844103
 41
0.916666604744064
 72
     2
 11
-225.514746497177
 21
39.8602598154451
 31
0.0
  0
TEXT
  5
   5DA
  8
0
  6
CONTINUOUS
 62
     7
 10
-302.058135877155
 20
40.2650332951596
 30
0.0
 40
3.00000002980232
  1
X
 50
359.999999844103
 41
0.916666604744064
 72
     2
 11
-299.858136008285
 21
40.2650332891847
 31
0.0
  0
LINE
  5
   5DB
  8
0
  6
CONTINUOUS
 62
     7
 10
-407.603164672852
 20
4.8990478515625
 30
0.0
 11
-407.603164672852
 21
5.14903259277344
 31
0.0
  0
LINE
  5
   5DC
  8
0
  6
CONTINUOUS
 62
     7
 10
-407.603164672852
 20
12.6490325927734
 30
0.0
 11
-407.603164672852
 21
22.6490173339844
 31
0.0
  0
LINE
  5
   5DD
  8
0
  6
CONTINUOUS
 62
     7
 10
-406.353149414063
 20
5.14903259277344
 30
0.0
 11
-406.353149414063
 21
12.6490325927734
 31
0.0
  0
LINE
  5
   5DE
  8
0
  6
CONTINUOUS
 62
     7
 10
-406.353149414063
 20
5.14903259277344
 30
0.0
 11
-407.603164672852
 21
5.14903259277344
 31
0.0
  0
LINE
  5
   5DF
  8
0
  6
CONTINUOUS
 62
     7
 10
-406.353149414063
 20
12.6490325927734
 30
0.0
 11
-407.603164672852
 21
12.6490325927734
 31
0.0
  0
LINE
  5
   5E0
  8
0
  6
CONTINUOUS
 62
     7
 10
-406.353149414063
 20
22.6490173339844
 30
0.0
 11
-406.353149414063
 21
30.1490173339844
 31
0.0
  0
LINE
  5
   5E1
  8
0
  6
CONTINUOUS
 62
     7
 10
-406.353149414063
 20
22.6490173339844
 30
0.0
 11
-407.603164672852
 21
22.6490173339844
 31
0.0
  0
LINE
  5
   5E2
  8
0
  6
CONTINUOUS
 62
     7
 10
-406.353149414063
 20
30.1490173339844
 30
0.0
 11
-407.603164672852
 21
30.1490173339844
 31
0.0
  0
LINE
  5
   5E3
  8
0
  6
CONTINUOUS
 62
     7
 10
-373.353172302246
 20
4.89903259277344
 30
0.0
 11
-373.353172302246
 21
32.3990173339844
 31
0.0
  0
LINE
  5
   5E4
  8
0
  6
CONTINUOUS
 62
     2
 10
-406.853161082615
 20
53.649040222168
 30
0.0
 11
-407.603149414062
 21
53.649040222168
 31
0.0
  0
LINE
  5
   5E5
  8
0
  6
CONTINUOUS
 62
     2
 10
-407.603195190662
 20
32.1490173339844
 30
0.0
 11
-407.603195190662
 21
42.4563293457031
 31
0.0
  0
LINE
  5
   5E6
  8
0
  6
CONTINUOUS
 62
     7
 10
-371.603164672852
 20
41.1490173339844
 30
0.0
 11
-373.353164672852
 21
41.1490173339844
 31
0.0
  0
LINE
  5
   5E7
  8
0
  6
CONTINUOUS
 62
     7
 10
-373.353218078968
 20
32.3990129743776
 30
0.0
 11
-373.353218078968
 21
41.1490129743776
 31
0.0
  0
LINE
  5
   5E8
  8
0
  6
CONTINUOUS
 62
     7
 10
-405.603164672852
 20
33.3990173339844
 30
0.0
 11
-407.603164672852
 21
33.3990173339844
 31
0.0
  0
LINE
  5
   5E9
  8
0
  6
CONTINUOUS
 62
     7
 10
-405.603163401469
 20
33.399010985748
 30
0.0
 11
-405.603160847102
 21
34.4034292779529
 31
0.0
  0
LINE
  5
   5EA
  8
0
  6
CONTINUOUS
 62
     7
 10
-373.353172302246
 20
0.149040222167969
 30
0.0
 11
-373.353172302246
 21
4.8990478515625
 31
0.0
  0
LINE
  5
   5EB
  8
0
  6
CONTINUOUS
 62
     7
 10
-407.60315957319
 20
-30.3509470592075
 30
0.0
 11
-407.603144314402
 21
-30.2038295040389
 31
0.0
  0
LINE
  5
   5EC
  8
0
  6
CONTINUOUS
 62
     7
 10
-407.603149414202
 20
-22.4980663986737
 30
0.0
 11
-407.603149414202
 21
4.89904358667785
 31
0.0
  0
LINE
  5
   5ED
  8
0
  6
CONTINUOUS
 62
     7
 10
-372.103164672852
 20
-23.6009521484375
 30
0.0
 11
-406.10318145752
 21
-23.6009521484375
 31
0.0
  0
LINE
  5
   5EE
  8
0
  6
CONTINUOUS
 62
     7
 10
-372.103164672852
 20
-29.1009521484375
 30
0.0
 11
-406.10318145752
 21
-29.1009521484375
 31
0.0
  0
LINE
  5
   5EF
  8
0
  6
CONTINUOUS
 62
     7
 10
-403.487135174727
 20
-23.6009470638261
 30
0.0
 11
-407.603147571732
 21
-22.4980613507577
 31
0.0
  0
LINE
  5
   5F0
  8
0
  6
CONTINUOUS
 62
     7
 10
-407.603145264741
 20
-30.2038337784739
 30
0.0
 11
-403.487132772963
 21
-29.1009516140777
 31
0.0
  0
LINE
  5
   5F1
  8
0
  6
CONTINUOUS
 62
     7
 10
-371.603172302246
 20
-22.1009521484375
 30
0.0
 11
-375.603172302246
 21
-22.1009521484375
 31
0.0
  0
LINE
  5
   5F2
  8
0
  6
CONTINUOUS
 62
     7
 10
-375.603172302246
 20
-22.1009521484375
 30
0.0
 11
-375.603172302246
 21
-0.850959777832031
 31
0.0
  0
LINE
  5
   5F3
  8
0
  6
CONTINUOUS
 62
     7
 10
-407.103149414063
 20
-26.1009521484375
 30
0.0
 11
-407.103149414063
 21
-22.6320419311523
 31
0.0
  0
LINE
  5
   5F4
  8
0
  6
CONTINUOUS
 62
     7
 10
-407.103156456563
 20
-30.0698573950568
 30
0.0
 11
-407.103148827175
 21
-29.6009471759839
 31
0.0
  0
LINE
  5
   5F5
  8
0
  6
CONTINUOUS
 62
     2
 10
-407.603149414062
 20
-22.1009521484375
 30
0.0
 11
-408.603149414063
 21
-22.1009521484375
 31
0.0
  0
LINE
  5
   5F6
  8
0
  6
CONTINUOUS
 62
     2
 10
-407.603149414062
 20
-19.3509521484375
 30
0.0
 11
-408.603149414063
 21
-19.3509521484375
 31
0.0
  0
LINE
  5
   5F7
  8
0
  6
CONTINUOUS
 62
     7
 10
-371.603183107245
 20
-29.6009326353408
 30
0.0
 11
-372.103175461552
 21
-29.1009402810333
 31
0.0
  0
LINE
  5
   5F8
  8
0
  6
CONTINUOUS
 62
     7
 10
-372.103170991114
 20
-23.6009514474592
 30
0.0
 11
-371.603171008228
 21
-23.1009514645735
 31
0.0
  0
LINE
  5
   5F9
  8
0
  6
CONTINUOUS
 62
     7
 10
-373.353172302246
 20
-0.850959777832031
 30
0.0
 11
-373.353172302246
 21
0.149040222167969
 31
0.0
  0
LINE
  5
   5FA
  8
0
  6
CONTINUOUS
 62
     2
 10
-406.603149414063
 20
-39.3509368896478
 30
0.0
 11
-408.603149414063
 21
-39.3509368896478
 31
0.0
  0
LINE
  5
   5FB
  8
0
  6
CONTINUOUS
 62
     7
 10
-407.603164672852
 20
-32.3509521484375
 30
0.0
 11
-407.603164672852
 21
-30.3509521484375
 31
0.0
  0
LINE
  5
   5FC
  8
0
  6
CONTINUOUS
 62
     7
 10
-371.603172302246
 20
-36.8509368896484
 30
0.0
 11
-376.603164672852
 21
-36.8509368896484
 31
0.0
  0
LINE
  5
   5FD
  8
0
  6
CONTINUOUS
 62
     7
 10
-376.603164672852
 20
-39.3509368896484
 30
0.0
 11
-376.603164672852
 21
-36.8509368896484
 31
0.0
  0
LINE
  5
   5FE
  8
0
  6
CONTINUOUS
 62
     7
 10
-407.603164672852
 20
-38.1009274292171
 30
0.0
 11
-407.603164672852
 21
-32.3509521484375
 31
0.0
  0
LINE
  5
   5FF
  8
0
  6
CONTINUOUS
 62
     2
 10
-407.603164672852
 20
32.1490173339844
 30
0.0
 11
-407.853149414063
 21
32.1490173339844
 31
0.0
  0
LINE
  5
   600
  8
0
  6
CONTINUOUS
 62
     7
 10
-407.603157043457
 20
-3.1009521484375
 30
0.0
 11
-407.853149414063
 21
-3.1009521484375
 31
0.0
  0
LINE
  5
   601
  8
0
  6
CONTINUOUS
 62
     7
 10
-407.603149414062
 20
-19.1009502410889
 30
0.0
 11
-407.853149414063
 21
-19.1009502410889
 31
0.0
  0
LINE
  5
   602
  8
0
  6
CONTINUOUS
 62
     7
 10
-407.103149414063
 20
-22.8509516716003
 30
0.0
 11
-407.853149414063
 21
-22.8509516716003
 31
0.0
  0
LINE
  5
   603
  8
0
  6
CONTINUOUS
 62
     7
 10
-407.603164672852
 20
-30.850944519043
 30
0.0
 11
-407.853149414063
 21
-30.850944519043
 31
0.0
  0
LINE
  5
   604
  8
0
  6
CONTINUOUS
 62
     2
 10
-407.853149414063
 20
-37.6509321141922
 30
0.0
 11
-407.853149414063
 21
-22.100959777832
 31
0.0
  0
LINE
  5
   605
  8
0
  6
CONTINUOUS
 62
     2
 10
-407.853149414063
 20
-19.350959777832
 30
0.0
 11
-407.853149414063
 21
32.1490097045898
 31
0.0
  0
LINE
  5
   606
  8
0
  6
CONTINUOUS
 62
     7
 10
-407.103149414063
 20
22.649040222168
 30
0.0
 11
-407.103149414063
 21
30.1490173339844
 31
0.0
  0
LINE
  5
   607
  8
0
  6
CONTINUOUS
 62
     7
 10
-407.103149414063
 20
5.14906311035156
 30
0.0
 11
-407.103149414063
 21
12.649055480957
 31
0.0
  0
LINE
  5
   608
  8
0
  6
CONTINUOUS
 62
     7
 10
-407.103149414063
 20
-29.6009140014648
 30
0.0
 11
-407.103149414063
 21
-26.1009140014648
 31
0.0
  0
LINE
  5
   609
  8
0
  6
CONTINUOUS
 62
     2
 10
-407.653153318579
 20
-37.8509282096761
 30
0.0
 11
-407.853150264516
 21
-37.6509312637392
 31
0.0
  0
LINE
  5
   60A
  8
0
  6
CONTINUOUS
 62
     2
 10
-407.603149414062
 20
40.1490173339844
 30
0.0
 11
-408.603149414063
 21
40.1490173339844
 31
0.0
  0
LINE
  5
   60B
  8
0
  6
CONTINUOUS
 62
     2
 10
-407.603149414062
 20
45.6490173339844
 30
0.0
 11
-408.603149414063
 21
45.6490173339844
 31
0.0
  0
LINE
  5
   60C
  8
0
  6
CONTINUOUS
 62
     2
 10
-407.603149414062
 20
44.3048400878906
 30
0.0
 11
-408.603149414063
 21
44.3048400878906
 31
0.0
  0
LINE
  5
   60D
  8
0
  6
CONTINUOUS
 62
     2
 10
-407.603149414062
 20
42.4563293457031
 30
0.0
 11
-408.603149414063
 21
42.4563293457031
 31
0.0
  0
LINE
  5
   60E
  8
0
  6
CONTINUOUS
 62
     7
 10
-373.103179931641
 20
6.39901524534223
 30
0.0
 11
-373.103179931641
 21
33.6490381335258
 31
0.0
  0
LINE
  5
   60F
  8
0
  6
CONTINUOUS
 62
     7
 10
-359.10320281983
 20
41.6490318807091
 30
0.0
 11
-359.10320281983
 21
53.6490318807091
 31
0.0
  0
LINE
  5
   610
  8
0
  6
CONTINUOUS
 62
     7
 10
-359.103164672852
 20
41.6490344238105
 30
0.0
 11
-359.353164672852
 21
41.6490344238105
 31
0.0
  0
LINE
  5
   611
  8
0
  6
CONTINUOUS
 62
     7
 10
-359.353164672852
 20
41.3990344238105
 30
0.0
 11
-359.353164672852
 21
41.6490344238105
 31
0.0
  0
LINE
  5
   612
  8
0
  6
CONTINUOUS
 62
     7
 10
-371.603164672852
 20
40.8990267944159
 30
0.0
 11
-371.603164672852
 21
41.3990344238105
 31
0.0
  0
LINE
  5
   613
  8
0
  6
CONTINUOUS
 62
     7
 10
-359.10316085816
 20
53.6490496825914
 30
0.0
 11
-371.60316085816
 21
53.6490496825914
 31
0.0
  0
LINE
  5
   614
  8
0
  6
CONTINUOUS
 62
     7
 10
-360.353164672852
 20
41.3990344238105
 30
0.0
 11
-360.503166198731
 21
41.3990344238105
 31
0.0
  0
LINE
  5
   615
  8
0
  6
CONTINUOUS
 62
     7
 10
-371.603164672852
 20
40.899042053205
 30
0.0
 11
-373.103164672852
 21
40.899042053205
 31
0.0
  0
LINE
  5
   616
  8
0
  6
CONTINUOUS
 62
     7
 10
-373.103164672852
 20
33.649042053205
 30
0.0
 11
-373.103164672852
 21
40.899042053205
 31
0.0
  0
LINE
  5
   617
  8
0
  6
CONTINUOUS
 62
     7
 10
-371.603187561035
 20
-36.3509503174005
 30
0.0
 11
-371.603187561035
 21
-32.712644653338
 31
0.0
  0
LINE
  5
   618
  8
0
  6
CONTINUOUS
 62
     7
 10
-373.103172302246
 20
0.399034423810463
 30
0.0
 11
-373.103172302246
 21
6.3990191650214
 31
0.0
  0
LINE
  5
   619
  8
0
  6
CONTINUOUS
 62
     7
 10
-373.103172302246
 20
-0.850980834978593
 30
0.0
 11
-373.603172302246
 21
-0.850980834978593
 31
0.0
  0
LINE
  5
   61A
  8
0
  6
CONTINUOUS
 62
     7
 10
-360.503181835538
 20
-37.8509350586008
 30
0.0
 11
-371.603187939054
 21
-37.8509350586008
 31
0.0
  0
LINE
  5
   61B
  8
0
  6
CONTINUOUS
 62
     7
 10
-371.603187561035
 20
-37.8509503174005
 30
0.0
 11
-371.603187561035
 21
-36.3509503174005
 31
0.0
  0
LINE
  5
   61C
  8
0
  6
CONTINUOUS
 62
     7
 10
-371.603179931641
 20
-32.712644653338
 30
0.0
 11
-371.603179931641
 21
-29.2259457122587
 31
0.0
  0
LINE
  5
   61D
  8
0
  6
CONTINUOUS
 62
     7
 10
-360.353187561035
 20
-39.350957946795
 30
0.0
 11
-360.353187561035
 21
-37.850957946795
 31
0.0
  0
LINE
  5
   61E
  8
0
  6
CONTINUOUS
 62
     7
 10
-360.353187561035
 20
-37.850957946795
 30
0.0
 11
-360.503181427717
 21
-37.850957946795
 31
0.0
  0
LINE
  5
   61F
  8
0
  6
CONTINUOUS
 62
     7
 10
-373.603172302246
 20
-0.850980834978593
 30
0.0
 11
-375.603172302246
 21
-0.850980834978593
 31
0.0
  0
LINE
  5
   620
  8
0
  6
CONTINUOUS
 62
     7
 10
-373.103172302246
 20
-0.850980834978593
 30
0.0
 11
-373.103172302246
 21
0.399034423810463
 31
0.0
  0
LINE
  5
   621
  8
0
  6
CONTINUOUS
 62
     7
 10
-360.503183536697
 20
-29.2259350586028
 30
0.0
 11
-371.603182010818
 21
-29.2259350586028
 31
0.0
  0
LINE
  5
   622
  8
0
  6
CONTINUOUS
 62
     7
 10
-360.503187213927
 20
-23.4759350586042
 30
0.0
 11
-371.603185688048
 21
-23.4759350586042
 31
0.0
  0
LINE
  5
   623
  8
0
  6
CONTINUOUS
 62
     7
 10
-370.953667207979
 20
-35.975941759071
 30
0.0
 11
-370.853188097745
 21
-35.600941764248
 31
0.0
  0
LINE
  5
   624
  8
0
  6
CONTINUOUS
 62
     7
 10
-371.228182890095
 20
-36.2504662918004
 30
0.0
 11
-370.953669663594
 21
-35.9759454290813
 31
0.0
  0
LINE
  5
   625
  8
0
  6
CONTINUOUS
 62
     7
 10
-371.603196203734
 20
-36.3509385995605
 30
0.0
 11
-371.22818858946
 21
-36.2504594816791
 31
0.0
  0
LINE
  5
   626
  8
0
  6
CONTINUOUS
 62
     7
 10
-371.228184411577
 20
-30.4514283551535
 30
0.0
 11
-371.603184408827
 21
-30.3509416086262
 31
0.0
  0
LINE
  5
   627
  8
0
  6
CONTINUOUS
 62
     7
 10
-370.953671821235
 20
-30.7259457838625
 30
0.0
 11
-371.228185051555
 21
-30.4514325535425
 31
0.0
  0
LINE
  5
   628
  8
0
  6
CONTINUOUS
 62
     7
 10
-370.853193287667
 20
-31.1009450886964
 30
0.0
 11
-370.953680034194
 21
-30.725945091446
 31
0.0
  0
LINE
  5
   629
  8
0
  6
CONTINUOUS
 62
     7
 10
-370.85319179957
 20
-35.6009473490829
 30
0.0
 11
-370.853184170176
 21
-31.1009473490829
 31
0.0
  0
LINE
  5
   62A
  8
0
  6
CONTINUOUS
 62
     7
 10
-360.50318145752
 20
-37.850957946795
 30
0.0
 11
-360.50318145752
 21
41.3990281674178
 31
0.0
  0
LINE
  5
   62B
  8
0
  6
CONTINUOUS
 62
     7
 10
-360.503158569336
 20
52.2490405273261
 30
0.0
 11
-371.31188742292
 21
52.2490405273261
 31
0.0
  0
LINE
  5
   62C
  8
0
  6
CONTINUOUS
 62
     7
 10
-360.503211975104
 20
41.3990309783274
 30
0.0
 11
-360.503211975104
 21
52.2490370818431
 31
0.0
  0
LINE
  5
   62D
  8
0
  6
CONTINUOUS
 62
     7
 10
-371.603164672852
 20
41.399042053205
 30
0.0
 11
-371.603164672852
 21
51.6063513694117
 31
0.0
  0
LINE
  5
   62E
  8
0
  6
CONTINUOUS
 62
     7
 10
-352.353157043457
 20
-35.2259274292169
 30
0.0
 11
-352.353157043457
 21
-25.975944519043
 31
0.0
  0
LINE
  5
   62F
  8
0
  6
CONTINUOUS
 62
     7
 10
-352.353157043457
 20
16.1490573119941
 30
0.0
 11
-352.353157043457
 21
16.2740573119941
 31
0.0
  0
LINE
  5
   630
  8
0
  6
CONTINUOUS
 62
     7
 10
-355.103154182434
 20
17.2740573119941
 30
0.0
 11
-356.853157043457
 21
17.2740573119941
 31
0.0
  0
LINE
  5
   631
  8
0
  6
CONTINUOUS
 62
     7
 10
-355.103154182434
 20
-35.2259274292169
 30
0.0
 11
-356.853157043457
 21
-35.2259274292169
 31
0.0
  0
LINE
  5
   632
  8
0
  6
CONTINUOUS
 62
     7
 10
-360.353157043457
 20
-43.3509274292169
 30
0.0
 11
-360.353157043457
 21
-37.850957946795
 31
0.0
  0
LINE
  5
   633
  8
0
  6
CONTINUOUS
 62
     7
 10
-357.853157043457
 20
-43.3509274292169
 30
0.0
 11
-357.853157043457
 21
-35.2259274292169
 31
0.0
  0
LINE
  5
   634
  8
0
  6
CONTINUOUS
 62
     7
 10
-357.853157043457
 20
17.2740573119941
 30
0.0
 11
-357.853157043457
 21
41.3990573119941
 31
0.0
  0
LINE
  5
   635
  8
0
  6
CONTINUOUS
 62
     7
 10
-357.853157043457
 20
41.3990573119941
 30
0.0
 11
-360.353157043457
 21
41.3990573119941
 31
0.0
  0
LINE
  5
   636
  8
0
  6
CONTINUOUS
 62
     7
 10
-357.853157043457
 20
-43.3509274292169
 30
0.0
 11
-360.353157043457
 21
-43.3509274292169
 31
0.0
  0
LINE
  5
   637
  8
0
  6
CONTINUOUS
 62
     7
 10
-356.853157043457
 20
-35.2259274292169
 30
0.0
 11
-356.853157043457
 21
17.2740573119941
 31
0.0
  0
LINE
  5
   638
  8
0
  6
CONTINUOUS
 62
     7
 10
-356.853157043457
 20
-35.2259274292169
 30
0.0
 11
-357.853157043457
 21
-35.2259274292169
 31
0.0
  0
LINE
  5
   639
  8
0
  6
CONTINUOUS
 62
     7
 10
-356.853157043457
 20
17.2740573119941
 30
0.0
 11
-357.853157043457
 21
17.2740573119941
 31
0.0
  0
LINE
  5
   63A
  8
0
  6
CONTINUOUS
 62
     7
 10
-360.503193037635
 20
-23.2009656245864
 30
0.0
 11
-360.353191518711
 21
-23.187843067599
 31
0.0
  0
LINE
  5
   63B
  8
0
  6
CONTINUOUS
 62
     7
 10
-360.353165732676
 20
-29.5140783401417
 30
0.0
 11
-360.503167255794
 21
-29.5009481537354
 31
0.0
  0
LINE
  5
   63C
  8
0
  6
CONTINUOUS
 62
     7
 10
-371.603179931641
 20
-23.4759457122574
 30
0.0
 11
-371.603179931641
 21
-22.1009655761895
 31
0.0
  0
LINE
  5
   63D
  8
0
  6
CONTINUOUS
 62
   218
 10
-360.503159046173
 20
-71.9509278106868
 30
0.0
 11
-384.303398190309
 21
-71.9509278106868
 31
0.0
  0
LINE
  5
   63E
  8
0
  6
CONTINUOUS
 62
     2
 10
-406.603149414063
 20
-38.1009274292171
 30
0.0
 11
-408.603149414063
 21
-38.1009274292171
 31
0.0
  0
LINE
  5
   63F
  8
0
  6
CONTINUOUS
 62
     7
 10
-360.503150939942
 20
-38.1009274292171
 30
0.0
 11
-369.103157043457
 21
-38.1009274292171
 31
0.0
  0
LINE
  5
   640
  8
0
  6
CONTINUOUS
 62
   218
 10
-359.103149414062
 20
-73.3509274292171
 30
0.0
 11
-359.103149414062
 21
-61.3509350586116
 31
0.0
  0
LINE
  5
   641
  8
0
  6
CONTINUOUS
 62
     2
 10
-406.603149414063
 20
-39.3509274292171
 30
0.0
 11
-406.603149414063
 21
-38.1009274292171
 31
0.0
  0
LINE
  5
   642
  8
0
  6
CONTINUOUS
 62
   218
 10
-360.50315504131
 20
-59.3509350590594
 30
0.0
 11
-360.353157043847
 21
-59.3509332984576
 31
0.0
  0
LINE
  5
   643
  8
0
  6
CONTINUOUS
 62
   218
 10
-359.103149414063
 20
-61.3509350586116
 30
0.0
 11
-360.503150939942
 21
-61.3509350586116
 31
0.0
  0
LINE
  5
   644
  8
0
  6
CONTINUOUS
 62
   218
 10
-360.503150939941
 20
-71.9509259033382
 30
0.0
 11
-360.503150939941
 21
-59.3509274292171
 31
0.0
  0
LINE
  5
   645
  8
0
  6
CONTINUOUS
 62
   218
 10
-360.503150939941
 20
-59.3509274292171
 30
0.0
 11
-360.503150939941
 21
-38.1009274292171
 31
0.0
  0
LINE
  5
   646
  8
0
  6
CONTINUOUS
 62
     7
 10
-360.353157043457
 20
-43.8509274292171
 30
0.0
 11
-360.503150939942
 21
-43.8509274292171
 31
0.0
  0
LINE
  5
   647
  8
0
  6
CONTINUOUS
 62
   218
 10
-408.603149414104
 20
-56.3509350581169
 30
0.0
 11
-407.603149890964
 21
-56.3509274287224
 31
0.0
  0
LINE
  5
   648
  8
0
  6
CONTINUOUS
 62
   218
 10
-407.6031498909
 20
-73.3509274292169
 30
0.0
 11
-407.6031498909
 21
-56.3509350586114
 31
0.0
  0
LINE
  5
   649
  8
0
  6
CONTINUOUS
 62
   218
 10
-407.603149414062
 20
-61.7259350586116
 30
0.0
 11
-408.603149414063
 21
-61.7259350586116
 31
0.0
  0
LINE
  5
   64A
  8
0
  6
CONTINUOUS
 62
     7
 10
-371.603162764426
 20
-38.1009274264962
 30
0.0
 11
-371.603155135032
 21
-37.1009274264733
 31
0.0
  0
LINE
  5
   64B
  8
0
  6
CONTINUOUS
 62
     7
 10
-371.603149414063
 20
-37.1009274292171
 30
0.0
 11
-376.603149414063
 21
-37.1009274292171
 31
0.0
  0
LINE
  5
   64C
  8
0
  6
CONTINUOUS
 62
     7
 10
-369.103157043457
 20
-38.1009274292171
 30
0.0
 11
-371.603157043457
 21
-38.1009274292171
 31
0.0
  0
LINE
  5
   64D
  8
0
  6
CONTINUOUS
 62
   218
 10
-407.603149414063
 20
-66.0847307014644
 30
0.0
 11
-408.603149414063
 21
-66.0847307014644
 31
0.0
  0
LINE
  5
   64E
  8
0
  6
CONTINUOUS
 62
   218
 10
-407.603149414062
 20
-64.858236389178
 30
0.0
 11
-408.603149414063
 21
-64.858236389178
 31
0.0
  0
LINE
  5
   64F
  8
0
  6
CONTINUOUS
 62
   218
 10
-407.603149414062
 20
-61.7898236084163
 30
0.0
 11
-408.603149414063
 21
-61.7898236084163
 31
0.0
  0
LINE
  5
   650
  8
0
  6
CONTINUOUS
 62
     7
 10
-357.853157043457
 20
-43.6009274292169
 30
0.0
 11
-360.353157043457
 21
-43.6009274292169
 31
0.0
  0
LINE
  5
   651
  8
0
  6
CONTINUOUS
 62
     7
 10
-357.853157043457
 20
-61.1009274292169
 30
0.0
 11
-360.353157043457
 21
-61.1009274292169
 31
0.0
  0
LINE
  5
   652
  8
0
  6
CONTINUOUS
 62
     7
 10
-357.853157043457
 20
-61.1009274292169
 30
0.0
 11
-357.853157043457
 21
-43.6009274292169
 31
0.0
  0
LINE
  5
   653
  8
0
  6
CONTINUOUS
 62
     7
 10
-358.853157043457
 20
-61.1009274292169
 30
0.0
 11
-358.853157043457
 21
-43.6009274292169
 31
0.0
  0
LINE
  5
   654
  8
0
  6
CONTINUOUS
 62
     7
 10
-360.353157043457
 20
-61.1009274292169
 30
0.0
 11
-360.353157043457
 21
-43.6009274292169
 31
0.0
  0
ARC
  5
   655
  8
0
  6
CONTINUOUS
 62
     7
 10
-342.015630658201
 20
-19.9978681617483
 30
0.0
 40
0.499999897877905
 50
348.623573369035
 51
436.688788706936
  0
ARC
  5
   656
  8
0
  6
CONTINUOUS
 62
     7
 10
-342.614002858119
 20
-22.9717771457472
 30
0.0
 40
0.50000037262337
 50
260.593992196011
 51
348.623573369035
  0
LINE
  5
   657
  8
0
  6
DASHDOT
 62
     7
 10
-334.615338332427
 20
-23.0521987996456
 30
0.0
 11
-359.673681566881
 21
-18.0102786317473
 31
0.0
  0
LINE
  5
   658
  8
0
  6
CONTINUOUS
 62
     7
 10
-341.900510685854
 20
-19.5113016920496
 30
0.0
 11
-352.353157043457
 21
-17.0382411040778
 31
0.0
  0
LINE
  5
   659
  8
0
  6
CONTINUOUS
 62
     7
 10
-342.123826413239
 20
-23.0704041970307
 30
0.0
 11
-341.525454377614
 21
-20.096495179975
 31
0.0
  0
LINE
  5
   65A
  8
0
  6
CONTINUOUS
 62
     7
 10
-342.695717596712
 20
-23.4650548686186
 30
0.0
 11
-352.353157043457
 21
-21.8652357337173
 31
0.0
  0
LINE
  5
   65B
  8
0
  6
CONTINUOUS
 62
     7
 10
-406.10318145752
 20
-29.1009521484375
 30
0.0
 11
-406.10318145752
 21
-23.6009521484375
 31
0.0
  0
LINE
  5
   65C
  8
0
  6
CONTINUOUS
 62
     7
 10
-396.10316203629
 20
49.649040222168
 30
0.0
 11
-398.603161082615
 21
49.649040222168
 31
0.0
  0
LINE
  5
   65D
  8
0
  6
DASHDOT
 62
     7
 10
-388.251190596139
 20
44.6490658024126
 30
0.0
 11
-402.317832613578
 21
44.6490658024126
 31
0.0
  0
LINE
  5
   65E
  8
0
  6
CONTINUOUS
 62
     7
 10
-396.60316203629
 20
46.6490658024126
 30
0.0
 11
-398.603161082615
 21
46.6490658024126
 31
0.0
  0
LINE
  5
   65F
  8
0
  6
CONTINUOUS
 62
     7
 10
-396.60316203629
 20
42.6490658024126
 30
0.0
 11
-398.603161082615
 21
42.6490658024126
 31
0.0
  0
LINE
  5
   660
  8
0
  6
CONTINUOUS
 62
     7
 10
-391.476814209102
 20
34.403429272783
 30
0.0
 11
-389.205386145392
 21
39.415225387549
 31
0.0
  0
LINE
  5
   661
  8
0
  6
CONTINUOUS
 62
     7
 10
-396.10316203629
 20
34.4034292727831
 30
0.0
 11
-396.10316203629
 21
39.6490658024127
 31
0.0
  0
LINE
  5
   662
  8
0
  6
CONTINUOUS
 62
     7
 10
-398.603161082615
 20
34.4034292727831
 30
0.0
 11
-398.603161082615
 21
42.6490658024126
 31
0.0
  0
LINE
  5
   663
  8
0
  6
CONTINUOUS
 62
     2
 10
-407.603195190662
 20
44.3048400878906
 30
0.0
 11
-407.603195190662
 21
53.6490396836284
 31
0.0
  0
LINE
  5
   664
  8
0
  6
CONTINUOUS
 62
     7
 10
-389.32602562093
 20
39.149040222168
 30
0.0
 11
-396.10316203629
 21
39.149040222168
 31
0.0
  0
LINE
  5
   665
  8
0
  6
CONTINUOUS
 62
     7
 10
-390.232458369468
 20
37.149040222168
 30
0.0
 11
-396.10316203629
 21
37.149040222168
 31
0.0
  0
INSERT
  5
   666
  8
0
  6
CONTINUOUS
 62
     7
  2
*HATCH150
 10
-357.103179931641
 20
-63.969482421875
 30
0.0
 41
0.5
 42
0.5
 50
89.9999999480344
 43
0.5
  0
LINE
  5
   667
  8
0
  6
CONTINUOUS
 62
     2
 10
-371.603179931641
 20
53.649040222168
 30
0.0
 11
-392.978161082615
 21
53.649040222168
 31
0.0
  0
LINE
  5
   668
  8
0
  6
DASHDOT
 62
     7
 10
-408.603149414063
 20
-82.9422856285646
 30
0.0
 11
-408.603149414063
 21
62.2051453736248
 31
0.0
  0
LINE
  5
   669
  8
0
  6
DASHDOT
 62
     7
 10
-410.103149414063
 20
-82.9422856285646
 30
0.0
 11
-410.103149414063
 21
62.2051453736248
 31
0.0
  0
LINE
  5
   66A
  8
0
  6
CONTINUOUS
 62
     7
 10
-407.038288788496
 20
62.2051453736248
 30
0.0
 11
-412.107184660524
 21
62.2051453736248
 31
0.0
  0
LINE
  5
   66B
  8
0
  6
CONTINUOUS
 62
     7
 10
-405.2279688342
 20
-82.9422856285646
 30
0.0
 11
-414.520944599585
 21
-82.9422856285646
 31
0.0
  0
ARC
  5
   66C
  8
0
  6
CONTINUOUS
 62
     7
 10
-379.103157043457
 20
-14.1009274292169
 30
0.0
 40
38.0220413050115
 50
333.082565820193
 51
379.93594827737
  0
LINE
  5
   66D
  8
0
  6
CONTINUOUS
 62
     7
 10
-341.081115738446
 20
-14.1009274292169
 30
0.0
 11
-341.081115738446
 21
7.57371208621539
 31
0.0
  0
LINE
  5
   66E
  8
0
  6
CONTINUOUS
 62
     7
 10
-391.476814209102
 20
34.4034292727831
 30
0.0
 11
-409.807234295177
 21
34.4034292727831
 31
0.0
  0
LINE
  5
   66F
  8
0
  6
CONTINUOUS
 62
     7
 10
-398.603161082615
 20
35.899040222168
 30
0.0
 11
-401.103161082615
 21
35.899040222168
 31
0.0
  0
LINE
  5
   670
  8
0
  6
CONTINUOUS
 62
     7
 10
-402.598772032
 20
34.4034292727831
 30
0.0
 11
-401.103161082616
 21
35.8990402221679
 31
0.0
  0
INSERT
  5
   671
  8
0
  6
CONTINUOUS
 62
     7
  2
*HATCH151
 10
-357.103179931641
 20
-63.969482421875
 30
0.0
 41
0.5
 42
0.5
 50
89.9999999480344
 43
0.5
  0
LINE
  5
   672
  8
0
  6
DASHDOT
 62
     7
 10
-388.251190596139
 20
-64.3509853580767
 30
0.0
 11
-402.317832613578
 21
-64.3509853580767
 31
0.0
  0
LINE
  5
   673
  8
0
  6
CONTINUOUS
 62
     7
 10
-396.103161082615
 20
-69.350959777832
 30
0.0
 11
-398.603161082615
 21
-69.350959777832
 31
0.0
  0
LINE
  5
   674
  8
0
  6
CONTINUOUS
 62
     7
 10
-398.603161082615
 20
-69.350959777832
 30
0.0
 11
-398.603161082615
 21
-54.1053488284472
 31
0.0
  0
LINE
  5
   675
  8
0
  6
CONTINUOUS
 62
     7
 10
-396.10316203629
 20
-62.3509853580767
 30
0.0
 11
-398.603161082615
 21
-62.3509853580767
 31
0.0
  0
LINE
  5
   676
  8
0
  6
CONTINUOUS
 62
     7
 10
-396.10316203629
 20
-66.3509853580767
 30
0.0
 11
-398.603161082615
 21
-66.3509853580767
 31
0.0
  0
LINE
  5
   677
  8
0
  6
CONTINUOUS
 62
     7
 10
-396.10316203629
 20
-62.3509341975874
 30
0.0
 11
-396.10316203629
 21
-54.1053488284472
 31
0.0
  0
LINE
  5
   678
  8
0
  6
CONTINUOUS
 62
     7
 10
-388.171533724185
 20
-54.1053488284472
 30
0.0
 11
-413.157433831387
 21
-54.1053488284472
 31
0.0
  0
LINE
  5
   679
  8
0
  6
CONTINUOUS
 62
     7
 10
-383.491512187077
 20
-74.9066173780058
 30
0.0
 11
-389.409225370362
 21
-53.3630471617342
 31
0.0
  0
LINE
  5
   67A
  8
0
  6
CONTINUOUS
 62
   218
 10
-359.1031498909
 20
-73.3509274292169
 30
0.0
 11
-398.103161082615
 21
-73.3509274292169
 31
0.0
  0
INSERT
  5
   67B
  8
0
  6
CONTINUOUS
 62
     7
  2
*HATCH152
 10
-357.103179931641
 20
-63.969482421875
 30
0.0
 41
0.5
 42
0.5
 50
89.9999999480344
 43
0.5
  0
INSERT
  5
   67C
  8
0
  6
CONTINUOUS
 62
     7
  2
*HATCH153
 10
-357.103179931641
 20
-63.969482421875
 30
0.0
 41
0.5
 42
0.5
 50
89.9999999480344
 43
0.5
  0
LINE
  5
   67D
  8
0
  6
CONTINUOUS
 62
     7
 10
-398.603161082615
 20
-56.8509853580767
 30
0.0
 11
-407.6031498909
 21
-56.8509853580767
 31
0.0
  0
LINE
  5
   67E
  8
0
  6
CONTINUOUS
 62
     7
 10
-398.603161082615
 20
-54.8509853580767
 30
0.0
 11
-408.603149414063
 21
-54.8509853580767
 31
0.0
  0
LINE
  5
   67F
  8
0
  6
CONTINUOUS
 62
     7
 10
-387.901766583934
 20
-58.8509853580767
 30
0.0
 11
-396.10316203629
 21
-58.8509853580767
 31
0.0
  0
INSERT
  5
   680
  8
0
  6
CONTINUOUS
 62
     7
  2
*HATCH154
 10
-357.103179931641
 20
-63.969482421875
 30
0.0
 41
0.5
 42
0.5
 50
89.9999999480344
 43
0.5
  0
LINE
  5
   681
  8
0
  6
CONTINUOUS
 62
     7
 10
-388.451138217686
 20
-56.8509853580767
 30
0.0
 11
-396.10316203629
 21
-56.8509853580767
 31
0.0
  0
INSERT
  5
   682
  8
0
  6
CONTINUOUS
 62
     7
  2
*HATCH155
 10
-357.103179931641
 20
-63.969482421875
 30
0.0
 41
0.5
 42
0.5
 50
89.9999999480344
 43
0.5
  0
LINE
  5
   683
  8
0
  6
CONTINUOUS
 62
     7
 10
-376.603164672852
 20
-39.3509368896478
 30
0.0
 11
-406.603149414063
 21
-39.3509368896478
 31
0.0
  0
LINE
  5
   684
  8
0
  6
CONTINUOUS
 62
     7
 10
-352.353157043457
 20
-2.22594451904297
 30
0.0
 11
-352.353157043457
 21
17.2740573119941
 31
0.0
  0
LINE
  5
   685
  8
0
  6
CONTINUOUS
 62
     7
 10
-352.353157043457
 20
-8.72594451904297
 30
0.0
 11
-352.353157043457
 21
-2.72594451904297
 31
0.0
  0
LINE
  5
   686
  8
0
  6
CONTINUOUS
 62
     7
 10
-352.353157043457
 20
-18.975929260255
 30
0.0
 11
-352.353157043457
 21
-9.22594451904297
 31
0.0
  0
LINE
  5
   687
  8
0
  6
CONTINUOUS
 62
     7
 10
-352.353157043457
 20
-25.475944519043
 30
0.0
 11
-352.353157043457
 21
-19.4759292602549
 31
0.0
  0
LINE
  5
   688
  8
0
  6
CONTINUOUS
 62
     1
 10
-355.103154182434
 20
-36.4791698455811
 30
0.0
 11
-355.103154182434
 21
-35.4791698455811
 31
0.0
  0
LINE
  5
   689
  8
0
  6
CONTINUOUS
 62
     1
 10
-354.103154182434
 20
-36.4791698455811
 30
0.0
 11
-355.103154182434
 21
-36.4791698455811
 31
0.0
  0
LINE
  5
   68A
  8
0
  6
CONTINUOUS
 62
     1
 10
-355.103154182434
 20
17.5208282470703
 30
0.0
 11
-355.103154182434
 21
18.5208282470703
 31
0.0
  0
LINE
  5
   68B
  8
0
  6
CONTINUOUS
 62
     1
 10
-354.103154182434
 20
18.5208282470703
 30
0.0
 11
-355.103154182434
 21
18.5208282470703
 31
0.0
  0
LINE
  5
   68C
  8
0
  6
CONTINUOUS
 62
     1
 10
-355.103154182434
 20
-35.4791698455811
 30
0.0
 11
-355.103154182434
 21
17.5208301544189
 31
0.0
  0
LINE
  5
   68D
  8
0
  6
CONTINUOUS
 62
     1
 10
-357.353154182434
 20
25.3095016479492
 30
0.0
 11
-357.353154182434
 21
27.7321548461914
 31
0.0
  0
LINE
  5
   68E
  8
0
  6
CONTINUOUS
 62
     1
 10
-354.103154182434
 20
-49.7291698455811
 30
0.0
 11
-354.103154182434
 21
31.7708301544189
 31
0.0
  0
LINE
  5
   68F
  8
0
  6
CONTINUOUS
 62
     1
 10
-352.353154182434
 20
-49.7291698455811
 30
0.0
 11
-354.103154182434
 21
-49.7291698455811
 31
0.0
  0
LINE
  5
   690
  8
0
  6
CONTINUOUS
 62
     1
 10
-352.353154182434
 20
-49.7291717529297
 30
0.0
 11
-352.353154182434
 21
31.7708282470703
 31
0.0
  0
LINE
  5
   691
  8
0
  6
CONTINUOUS
 62
     1
 10
-352.353154182434
 20
31.7708282470703
 30
0.0
 11
-352.853154182434
 21
31.7708282470703
 31
0.0
  0
LINE
  5
   692
  8
0
  6
CONTINUOUS
 62
     1
 10
-353.353154182434
 20
31.7708282470703
 30
0.0
 11
-354.103154182434
 21
31.7708282470703
 31
0.0
  0
LINE
  5
   693
  8
0
  6
CONTINUOUS
 62
     1
 10
-354.103154182434
 20
25.0208282470703
 30
0.0
 11
-356.853155780748
 21
25.0208282470703
 31
0.0
  0
LINE
  5
   694
  8
0
  6
CONTINUOUS
 62
     1
 10
-354.103154182434
 20
28.0208282470703
 30
0.0
 11
-356.85315254417
 21
28.0208282470703
 31
0.0
  0
LINE
  5
   695
  8
0
  6
CONTINUOUS
 62
     1
 10
-356.853154189284
 20
25.0208282470703
 30
0.0
 11
-356.853154189284
 21
25.135009765625
 31
0.0
  0
LINE
  5
   696
  8
0
  6
CONTINUOUS
 62
     1
 10
-356.853153791423
 20
25.0208270985396
 30
0.0
 11
-357.353153807886
 21
25.3095005030378
 31
0.0
  0
LINE
  5
   697
  8
0
  6
CONTINUOUS
 62
     1
 10
-356.853154189284
 20
25.135009765625
 30
0.0
 11
-356.853154189284
 21
25.4601669311523
 31
0.0
  0
LINE
  5
   698
  8
0
  6
CONTINUOUS
 62
     1
 10
-356.853154189284
 20
25.4601669311523
 30
0.0
 11
-356.853154189284
 21
25.9468078613281
 31
0.0
  0
LINE
  5
   699
  8
0
  6
CONTINUOUS
 62
     1
 10
-356.853154189284
 20
25.9468078613281
 30
0.0
 11
-356.853154189284
 21
26.5208282470703
 31
0.0
  0
LINE
  5
   69A
  8
0
  6
CONTINUOUS
 62
     1
 10
-356.853154189284
 20
26.5208282470703
 30
0.0
 11
-356.853154189284
 21
27.094856262207
 31
0.0
  0
LINE
  5
   69B
  8
0
  6
CONTINUOUS
 62
     1
 10
-356.853154189284
 20
27.094856262207
 30
0.0
 11
-356.853154189284
 21
27.5814895629883
 31
0.0
  0
LINE
  5
   69C
  8
0
  6
CONTINUOUS
 62
     1
 10
-356.853154189284
 20
27.5814895629883
 30
0.0
 11
-356.853154189284
 21
27.9066467285156
 31
0.0
  0
LINE
  5
   69D
  8
0
  6
CONTINUOUS
 62
     1
 10
-356.853154189284
 20
27.9066467285156
 30
0.0
 11
-356.853154189284
 21
28.0208282470703
 31
0.0
  0
LINE
  5
   69E
  8
0
  6
CONTINUOUS
 62
     1
 10
-357.353154617023
 20
27.7321536553224
 30
0.0
 11
-356.85315460056
 21
28.0208270598206
 31
0.0
  0
LINE
  5
   69F
  8
0
  6
CONTINUOUS
 62
     1
 10
-354.103154182434
 20
-42.9791698455811
 30
0.0
 11
-356.853153186729
 21
-42.9791698455811
 31
0.0
  0
LINE
  5
   6A0
  8
0
  6
CONTINUOUS
 62
     1
 10
-354.103154182434
 20
-45.9791698455811
 30
0.0
 11
-356.853154172627
 21
-45.9791698455811
 31
0.0
  0
LINE
  5
   6A1
  8
0
  6
CONTINUOUS
 62
     1
 10
-356.853154172626
 20
-43.0933513641358
 30
0.0
 11
-356.853154172626
 21
-42.9791698455811
 31
0.0
  0
LINE
  5
   6A2
  8
0
  6
CONTINUOUS
 62
     1
 10
-356.853154172639
 20
-43.4185104370117
 30
0.0
 11
-356.853154172639
 21
-43.0933513641358
 31
0.0
  0
LINE
  5
   6A3
  8
0
  6
CONTINUOUS
 62
     1
 10
-356.853154172625
 20
-43.905143737793
 30
0.0
 11
-356.853154172625
 21
-43.4185104370117
 31
0.0
  0
LINE
  5
   6A4
  8
0
  6
CONTINUOUS
 62
     1
 10
-356.85315417266
 20
-44.4791698455811
 30
0.0
 11
-356.85315417266
 21
-43.905143737793
 31
0.0
  0
LINE
  5
   6A5
  8
0
  6
CONTINUOUS
 62
     1
 10
-356.853154172598
 20
-45.0531940460205
 30
0.0
 11
-356.853154172598
 21
-44.4791698455811
 31
0.0
  0
LINE
  5
   6A6
  8
0
  6
CONTINUOUS
 62
     1
 10
-356.853154172625
 20
-45.5398292541504
 30
0.0
 11
-356.853154172625
 21
-45.0531940460205
 31
0.0
  0
LINE
  5
   6A7
  8
0
  6
CONTINUOUS
 62
     1
 10
-356.853154172638
 20
-45.9791698455811
 30
0.0
 11
-356.853154172638
 21
-45.5398292541504
 31
0.0
  0
LINE
  5
   6A8
  8
0
  6
CONTINUOUS
 62
     1
 10
-356.853154172627
 20
-45.9791698455811
 30
0.0
 11
-356.853154172627
 21
-45.8649883270264
 31
0.0
  0
LINE
  5
   6A9
  8
0
  6
CONTINUOUS
 62
     1
 10
-352.853154182434
 20
31.7708282470703
 30
0.0
 11
-353.353154182434
 21
31.7708282470703
 31
0.0
  0
LINE
  5
   6AA
  8
0
  6
CONTINUOUS
 62
     7
 10
-357.353154443509
 20
-43.2678458539345
 30
0.0
 11
-356.853154427044
 21
-42.9791705616779
 31
0.0
  0
LINE
  5
   6AB
  8
0
  6
CONTINUOUS
 62
     7
 10
-356.853153965464
 20
-45.9791704593306
 30
0.0
 11
-357.353153981929
 21
-45.690495167074
 31
0.0
  0
LINE
  5
   6AC
  8
0
  6
CONTINUOUS
 62
     7
 10
-355.103154182434
 20
-77.0449194027874
 30
0.0
 11
-355.103154182434
 21
-45.9791698455811
 31
0.0
  0
LINE
  5
   6AD
  8
0
  6
CONTINUOUS
 62
     7
 10
-354.103154182434
 20
-76.4311262993392
 30
0.0
 11
-354.103154182434
 21
-49.7291698455811
 31
0.0
  0
LINE
  5
   6AE
  8
0
  6
CONTINUOUS
 62
     7
 10
-354.103154182434
 20
28.2708282470703
 30
0.0
 11
-354.103154182434
 21
60.8663796174157
 31
0.0
  0
LINE
  5
   6AF
  8
0
  6
CONTINUOUS
 62
     7
 10
-354.103154182434
 20
-36.9791698455811
 30
0.0
 11
-355.103154182434
 21
-36.9791698455811
 31
0.0
  0
LINE
  5
   6B0
  8
0
  6
CONTINUOUS
 62
     7
 10
-354.103154182434
 20
19.0208282470703
 30
0.0
 11
-355.103154182434
 21
19.0208282470703
 31
0.0
  0
LINE
  5
   6B1
  8
0
  6
CONTINUOUS
 62
     7
 10
-354.103154182434
 20
28.2708282470703
 30
0.0
 11
-355.103154182434
 21
28.2708282470703
 31
0.0
  0
LINE
  5
   6B2
  8
0
  6
CONTINUOUS
 62
     7
 10
-354.103154182434
 20
24.7708282470703
 30
0.0
 11
-355.103154182434
 21
24.7708282470703
 31
0.0
  0
LINE
  5
   6B3
  8
0
  6
CONTINUOUS
 62
     7
 10
-354.103154182434
 20
-42.7291698455811
 30
0.0
 11
-355.103154182434
 21
-42.7291698455811
 31
0.0
  0
LINE
  5
   6B4
  8
0
  6
CONTINUOUS
 62
     7
 10
-354.103154182434
 20
-46.2291698455811
 30
0.0
 11
-355.103154182434
 21
-46.2291698455811
 31
0.0
  0
LINE
  5
   6B5
  8
0
  6
CONTINUOUS
 62
     7
 10
-355.103154182434
 20
-42.9791698455811
 30
0.0
 11
-355.103154182434
 21
25.0208282470703
 31
0.0
  0
LINE
  5
   6B6
  8
0
  6
CONTINUOUS
 62
     7
 10
-355.103154182434
 20
28.0208282470703
 30
0.0
 11
-355.103154182434
 21
60.3271639311412
 31
0.0
  0
LINE
  5
   6B7
  8
0
  6
CONTINUOUS
 62
     7
 10
-356.300048946101
 20
59.6817794997521
 30
0.0
 11
-352.645896860731
 21
61.6521556242163
 31
0.0
  0
LINE
  5
   6B8
  8
0
  6
CONTINUOUS
 62
     7
 10
-356.765774211884
 20
-78.0654241105186
 30
0.0
 11
-351.571146247387
 21
-74.876997290931
 31
0.0
  0
INSERT
  5
   6B9
  8
0
  6
CONTINUOUS
 62
     7
  2
*HATCH156
 10
-357.103179931641
 20
-63.969482421875
 30
0.0
 41
0.5
 42
0.5
 50
89.9999999480344
 43
0.5
  0
INSERT
  5
   6BA
  8
0
  6
CONTINUOUS
 62
     7
  2
*HATCH157
 10
-357.103179931641
 20
-63.969482421875
 30
0.0
 41
0.5
 42
0.5
 50
89.9999999480344
 43
0.5
  0
INSERT
  5
   6BB
  8
0
  6
CONTINUOUS
 62
     7
  2
*HATCH158
 10
-357.103179931641
 20
-63.969482421875
 30
0.0
 41
0.5
 42
0.5
 50
89.9999999480344
 43
0.5
  0
INSERT
  5
   6BC
  8
0
  6
CONTINUOUS
 62
     7
  2
*HATCH159
 10
-357.103179931641
 20
-63.969482421875
 30
0.0
 41
0.5
 42
0.5
 50
89.9999999480344
 43
0.5
  0
LINE
  5
   6BD
  8
0
  6
CONTINUOUS
 62
     7
 10
-357.353153981929
 20
-45.690495167074
 30
0.0
 11
-357.353154443509
 21
-43.2678458539345
 31
0.0
  0
LINE
  5
   6BE
  8
0
  6
DASHDOT
 62
     7
 10
-329.20913398927
 20
-8.97594268800594
 30
0.0
 11
-416.482286587099
 21
-8.97594268800594
 31
0.0
  0
LINE
  5
   6BF
  8
0
  6
CONTINUOUS
 62
     7
 10
-398.603161082615
 20
46.6490658024126
 30
0.0
 11
-398.603161082615
 21
49.649040222168
 31
0.0
  0
LINE
  5
   6C0
  8
0
  6
CONTINUOUS
 62
     7
 10
-377.128382588608
 20
39.415225387549
 30
0.0
 11
-389.205386145392
 21
39.415225387549
 31
0.0
  0
LINE
  5
   6C1
  8
0
  6
CONTINUOUS
 62
     7
 10
-377.128382588608
 20
39.415225387549
 30
0.0
 11
-369.670100650755
 21
55.8715635988111
 31
0.0
  0
LINE
  5
   6C2
  8
0
  6
CONTINUOUS
 62
     2
 10
-393.10316203629
 20
39.6490658024127
 30
0.0
 11
-396.60316203629
 21
39.6490658024127
 31
0.0
  0
LINE
  5
   6C3
  8
0
  6
CONTINUOUS
 62
     2
 10
-393.10316203629
 20
39.6490658024127
 30
0.0
 11
-393.10316203629
 21
67.6490658024127
 31
0.0
  0
LINE
  5
   6C4
  8
0
  6
CONTINUOUS
 62
     2
 10
-393.10316203629
 20
67.6490658024127
 30
0.0
 11
-396.10316203629
 21
67.6490658024127
 31
0.0
  0
LINE
  5
   6C5
  8
0
  6
CONTINUOUS
 62
     2
 10
-396.10316203629
 20
39.6490658024127
 30
0.0
 11
-396.10316203629
 21
42.6490658024126
 31
0.0
  0
LINE
  5
   6C6
  8
0
  6
CONTINUOUS
 62
     2
 10
-393.10316203629
 20
46.7740658024127
 30
0.0
 11
-396.10316203629
 21
46.7740658024127
 31
0.0
  0
LINE
  5
   6C7
  8
0
  6
CONTINUOUS
 62
     2
 10
-393.10316203629
 20
42.5240658024127
 30
0.0
 11
-396.10316203629
 21
42.5240658024127
 31
0.0
  0
LINE
  5
   6C8
  8
0
  6
DASHDOT
 62
     7
 10
-392.458163786785
 20
61.3990658024127
 30
0.0
 11
-398.074260949616
 21
61.3990658024127
 31
0.0
  0
LINE
  5
   6C9
  8
0
  6
CONTINUOUS
 62
     2
 10
-393.10316203629
 20
63.5240658024127
 30
0.0
 11
-396.10316203629
 21
63.5240658024127
 31
0.0
  0
LINE
  5
   6CA
  8
0
  6
CONTINUOUS
 62
     2
 10
-393.10316203629
 20
59.2740658024127
 30
0.0
 11
-396.10316203629
 21
59.2740658024127
 31
0.0
  0
LINE
  5
   6CB
  8
0
  6
CONTINUOUS
 62
     1
 10
-357.85320281983
 20
55.3990404617678
 30
0.0
 11
-357.85320281983
 21
56.3990404617678
 31
0.0
  0
LINE
  5
   6CC
  8
0
  6
CONTINUOUS
 62
     1
 10
-357.85320281983
 20
56.3990813106215
 30
0.0
 11
-393.10316203629
 21
56.3990813106215
 31
0.0
  0
LINE
  5
   6CD
  8
0
  6
CONTINUOUS
 62
     1
 10
-408.353160620679
 20
55.3990813106215
 30
0.0
 11
-408.353160620679
 21
56.3990813106215
 31
0.0
  0
LINE
  5
   6CE
  8
0
  6
CONTINUOUS
 62
     1
 10
-406.853161082615
 20
54.8990813106215
 30
0.0
 11
-407.853160605778
 21
54.8990813106215
 31
0.0
  0
LINE
  5
   6CF
  8
0
  6
CONTINUOUS
 62
     1
 10
-396.10316203629
 20
54.8990813106215
 30
0.0
 11
-398.603155491082
 21
54.8990813106215
 31
0.0
  0
LINE
  5
   6D0
  8
0
  6
CONTINUOUS
 62
     1
 10
-396.10316203629
 20
52.2490810960448
 30
0.0
 11
-398.228161082615
 21
52.2490810960448
 31
0.0
  0
LINE
  5
   6D1
  8
0
  6
CONTINUOUS
 62
     1
 10
-396.10316203629
 20
50.6490810722029
 30
0.0
 11
-398.728161082615
 21
50.6490810722029
 31
0.0
  0
LINE
  5
   6D2
  8
0
  6
CONTINUOUS
 62
     1
 10
-392.978161082615
 20
50.6490810722029
 30
0.0
 11
-392.978161082615
 21
54.8990810722029
 31
0.0
  0
LINE
  5
   6D3
  8
0
  6
CONTINUOUS
 62
     1
 10
-398.728161082615
 20
50.6490811467088
 30
0.0
 11
-398.728161082615
 21
53.6490811467088
 31
0.0
  0
LINE
  5
   6D4
  8
0
  6
CONTINUOUS
 62
     1
 10
-408.353160620679
 20
56.3990813106215
 30
0.0
 11
-408.353160620679
 21
96.3990813106215
 31
0.0
  0
LINE
  5
   6D5
  8
0
  6
CONTINUOUS
 62
     1
 10
-357.85320281983
 20
56.3990404617678
 30
0.0
 11
-357.85320281983
 21
96.3990404617678
 31
0.0
  0
LINE
  5
   6D6
  8
0
  6
CONTINUOUS
 62
     1
 10
-392.978161487154
 20
51.7490812742472
 30
0.0
 11
-393.10316203629
 21
51.8740818233829
 31
0.0
  0
LINE
  5
   6D7
  8
0
  6
CONTINUOUS
 62
     1
 10
-398.728161307026
 20
51.7490810645974
 30
0.0
 11
-398.22816132414
 21
52.2490810474831
 31
0.0
  0
LINE
  5
   6D8
  8
0
  6
CONTINUOUS
 62
     1
 10
-358.353203453058
 20
54.899040222168
 30
0.0
 11
-357.853203470172
 21
55.3990402050537
 31
0.0
  0
LINE
  5
   6D9
  8
0
  6
CONTINUOUS
 62
     1
 10
-407.853160616401
 20
54.8990812806716
 30
0.0
 11
-408.353160599287
 21
55.3990812635573
 31
0.0
  0
LINE
  5
   6DA
  8
0
  6
CONTINUOUS
 62
     1
 10
-357.85320281983
 20
96.3990813106215
 30
0.0
 11
-408.353160620679
 21
96.3990813106215
 31
0.0
  0
LINE
  5
   6DB
  8
0
  6
CONTINUOUS
 62
     3
 10
-399.103161080889
 20
54.899081072203
 30
0.0
 11
-398.603161080893
 21
54.8990887015975
 31
0.0
  0
LINE
  5
   6DC
  8
0
  6
CONTINUOUS
 62
     3
 10
-398.103160547794
 20
54.3990863673334
 30
0.0
 11
-398.60316053068
 21
54.8990863502191
 31
0.0
  0
LINE
  5
   6DD
  8
0
  6
CONTINUOUS
 62
     3
 10
-398.103161082615
 20
53.6490886905962
 30
0.0
 11
-398.103161082615
 21
54.3990886905963
 31
0.0
  0
LINE
  5
   6DE
  8
0
  6
CONTINUOUS
 62
     3
 10
-399.103161081881
 20
53.6490810639156
 30
0.0
 11
-398.103161081897
 21
53.6490886933102
 31
0.0
  0
LINE
  5
   6DF
  8
0
  6
CONTINUOUS
 62
     3
 10
-398.103161082615
 20
53.6490658024127
 30
0.0
 11
-399.103161082615
 21
53.6490658024127
 31
0.0
  0
LINE
  5
   6E0
  8
0
  6
CONTINUOUS
 62
     3
 10
-398.853161082615
 20
40.3990658024127
 30
0.0
 11
-398.853161082615
 21
48.8990658024127
 31
0.0
  0
LINE
  5
   6E1
  8
0
  6
CONTINUOUS
 62
     3
 10
-399.103161082615
 20
50.3990658024127
 30
0.0
 11
-400.728162513127
 21
50.3990658024127
 31
0.0
  0
LINE
  5
   6E2
  8
0
  6
CONTINUOUS
 62
     3
 10
-399.103161082615
 20
50.3990658024127
 30
0.0
 11
-399.103161082615
 21
53.6490658024127
 31
0.0
  0
LINE
  5
   6E3
  8
0
  6
CONTINUOUS
 62
     3
 10
-406.103161082615
 20
39.6490658024127
 30
0.0
 11
-406.853161082615
 21
39.6490658024127
 31
0.0
  0
LINE
  5
   6E4
  8
0
  6
CONTINUOUS
 62
     3
 10
-406.103161082615
 20
39.6490581730181
 30
0.0
 11
-406.853161082615
 21
39.6490581730181
 31
0.0
  0
LINE
  5
   6E5
  8
0
  6
CONTINUOUS
 62
     3
 10
-399.103161082615
 20
54.8990734318072
 30
0.0
 11
-406.853161082615
 21
54.8990734318072
 31
0.0
  0
LINE
  5
   6E6
  8
0
  6
CONTINUOUS
 62
     3
 10
-406.853161082615
 20
39.6490658024127
 30
0.0
 11
-406.853161082615
 21
54.8990734318072
 31
0.0
  0
LINE
  5
   6E7
  8
0
  6
CONTINUOUS
 62
     3
 10
-399.103161082615
 20
53.6490734318072
 30
0.0
 11
-399.103161082615
 21
54.8990734318072
 31
0.0
  0
LINE
  5
   6E8
  8
0
  6
CONTINUOUS
 62
     3
 10
-399.103161082615
 20
52.0490749576861
 30
0.0
 11
-399.603161082615
 21
52.0490749576861
 31
0.0
  0
LINE
  5
   6E9
  8
0
  6
CONTINUOUS
 62
     3
 10
-399.603160516531
 20
52.0490726765836
 30
0.0
 11
-399.803160332657
 21
52.249069626747
 31
0.0
  0
LINE
  5
   6EA
  8
0
  6
CONTINUOUS
 62
     3
 10
-406.103160862358
 20
39.6490655762283
 30
0.0
 11
-399.103161016664
 21
53.649073664261
 31
0.0
  0
LINE
  5
   6EB
  8
0
  6
CONTINUOUS
 62
   210
 10
-398.603161082615
 20
41.3990658024127
 30
0.0
 11
-398.603161082615
 21
47.8990658024127
 31
0.0
  0
LINE
  5
   6EC
  8
0
  6
CONTINUOUS
 62
     3
 10
-398.853161082615
 20
40.3990658024127
 30
0.0
 11
-405.728163943638
 21
40.3990658024127
 31
0.0
  0
LINE
  5
   6ED
  8
0
  6
CONTINUOUS
 62
     3
 10
-398.853161082615
 20
48.8990658024127
 30
0.0
 11
-401.478163466801
 21
48.8990658024127
 31
0.0
  0
LINE
  5
   6EE
  8
0
  6
CONTINUOUS
 62
     3
 10
-399.103161082615
 20
54.3990734318072
 30
0.0
 11
-406.853161082615
 21
54.3990734318072
 31
0.0
  0
LINE
  5
   6EF
  8
0
  6
CONTINUOUS
 62
     3
 10
-405.853161082615
 20
40.1490734318072
 30
0.0
 11
-406.853161082615
 21
40.1490734318072
 31
0.0
  0
LINE
  5
   6F0
  8
0
  6
CONTINUOUS
 62
   210
 10
-398.603161082615
 20
47.8990658024127
 30
0.0
 11
-398.853161082615
 21
47.8990658024127
 31
0.0
  0
LINE
  5
   6F1
  8
0
  6
CONTINUOUS
 62
   210
 10
-398.603161082615
 20
41.3990658024127
 30
0.0
 11
-398.853161082615
 21
41.3990658024127
 31
0.0
  0
LINE
  5
   6F2
  8
0
  6
CONTINUOUS
 62
     1
 10
-358.353162604204
 20
54.8990810710217
 30
0.0
 11
-393.10316203629
 21
54.8990810710217
 31
0.0
  0
LINE
  5
   6F3
  8
0
  6
CONTINUOUS
 62
     1
 10
-392.978161082615
 20
50.6490810722029
 30
0.0
 11
-393.10316203629
 21
50.6490810722029
 31
0.0
  0
LINE
  5
   6F4
  8
0
  6
CONTINUOUS
 62
     1
 10
-396.10316203629
 20
56.3990813106215
 30
0.0
 11
-408.353160620679
 21
56.3990813106215
 31
0.0
  0
LINE
  5
   6F5
  8
0
  6
CONTINUOUS
 62
     2
 10
-358.47820281983
 20
54.899040222168
 30
0.0
 11
-383.853202564697
 21
54.899040222168
 31
0.0
  0
LINE
  5
   6F6
  8
0
  6
CONTINUOUS
 62
     2
 10
-357.85320281983
 20
41.8990573119941
 30
0.0
 11
-357.85320281983
 21
54.274040222168
 31
0.0
  0
ARC
  5
   6F7
  8
0
  6
CONTINUOUS
 62
     2
 10
-358.47820281983
 20
54.274040222168
 30
0.0
 40
0.625
 50
359.999999948034
 51
449.999999948034
  0
LINE
  5
   6F8
  8
0
  6
CONTINUOUS
 62
     2
 10
-357.853157043457
 20
41.8990573119941
 30
0.0
 11
-358.35320281983
 21
41.8990573119941
 31
0.0
  0
LINE
  5
   6F9
  8
0
  6
CONTINUOUS
 62
     2
 10
-358.35320281983
 20
41.3990573119941
 30
0.0
 11
-358.35320281983
 21
41.8990573119941
 31
0.0
  0
INSERT
  5
   6FA
  8
0
  6
CONTINUOUS
 62
     2
  2
*HATCH160
 10
-357.103179931641
 20
-63.969482421875
 30
0.0
 41
0.5
 42
0.5
 50
89.9999999480344
 43
0.5
  0
INSERT
  5
   6FB
  8
0
  6
CONTINUOUS
 62
     2
  2
*HATCH161
 10
-357.103179931641
 20
-63.969482421875
 30
0.0
 41
0.5
 42
0.5
 50
89.9999999480344
 43
0.5
  0
INSERT
  5
   6FC
  8
0
  6
CONTINUOUS
 62
     2
  2
*HATCH162
 10
-357.103179931641
 20
-63.969482421875
 30
0.0
 41
0.5
 42
0.5
 50
89.9999999480344
 43
0.5
  0
INSERT
  5
   6FD
  8
0
  6
CONTINUOUS
 62
     2
  2
*HATCH163
 10
-357.103179931641
 20
-63.969482421875
 30
0.0
 41
0.5
 42
0.5
 50
89.9999999480344
 43
0.5
  0
INSERT
  5
   6FE
  8
0
  6
CONTINUOUS
 62
     2
  2
*HATCH164
 10
-357.103179931641
 20
-63.969482421875
 30
0.0
 41
0.5
 42
0.5
 50
89.9999999480344
 43
0.5
  0
LINE
  5
   6FF
  8
0
  6
CONTINUOUS
 62
     7
 10
-392.60316203629
 20
40.1490658024127
 30
0.0
 11
-392.60316203629
 21
49.1490658024127
 31
0.0
  0
LINE
  5
   700
  8
0
  6
CONTINUOUS
 62
     7
 10
-392.60316203629
 20
49.1490658024127
 30
0.0
 11
-393.10316203629
 21
49.1490658024127
 31
0.0
  0
LINE
  5
   701
  8
0
  6
CONTINUOUS
 62
     7
 10
-392.60316203629
 20
40.1490658024127
 30
0.0
 11
-393.10316203629
 21
40.1490658024127
 31
0.0
  0
LINE
  5
   702
  8
0
  6
CONTINUOUS
 62
     2
 10
-396.10316203629
 20
46.6490658024127
 30
0.0
 11
-396.10316203629
 21
67.6490658024127
 31
0.0
  0
INSERT
  5
   703
  8
255
  6
CONTINUOUS
 62
     7
  2
PROLUNGATI
 10
-398.603161082615
 20
-64.3509853580767
 30
0.0
 41
0.5
 42
-0.5
 50
1.03931142803049E-7
 43
0.5
  0
LINE
  5
   704
  8
0
  6
CONTINUOUS
 62
     7
 10
-406.853161082615
 20
-73.3509274292169
 30
0.0
 11
-407.6031498909
 21
-73.3509274292169
 31
0.0
  0
LINE
  5
   705
  8
0
  6
CONTINUOUS
 62
     7
 10
-393.10316203629
 20
-68.8509341975874
 30
0.0
 11
-393.10316203629
 21
-59.8509341975874
 31
0.0
  0
LINE
  5
   706
  8
0
  6
CONTINUOUS
 62
     7
 10
-393.10316203629
 20
-68.8509341975874
 30
0.0
 11
-393.60316203629
 21
-68.8509341975874
 31
0.0
  0
LINE
  5
   707
  8
0
  6
CONTINUOUS
 62
     7
 10
-393.10316203629
 20
-59.8509341975874
 30
0.0
 11
-393.60316203629
 21
-59.8509341975874
 31
0.0
  0
LINE
  5
   708
  8
0
  6
CONTINUOUS
 62
     7
 10
-393.60316203629
 20
-66.3509341975874
 30
0.0
 11
-396.60316203629
 21
-66.3509341975874
 31
0.0
  0
LINE
  5
   709
  8
0
  6
CONTINUOUS
 62
     7
 10
-393.60316203629
 20
-62.3509341975874
 30
0.0
 11
-396.60316203629
 21
-62.3509341975874
 31
0.0
  0
LINE
  5
   70A
  8
0
  6
CONTINUOUS
 62
     7
 10
-393.60316203629
 20
-68.8509341975874
 30
0.0
 11
-393.60316203629
 21
-59.8509341975874
 31
0.0
  0
LINE
  5
   70B
  8
0
  6
CONTINUOUS
 62
     7
 10
-396.103161082615
 20
-69.350959777832
 30
0.0
 11
-396.103161082615
 21
-66.3509341975874
 31
0.0
  0
LINE
  5
   70C
  8
0
  6
CONTINUOUS
 62
     1
 10
-392.40316203629
 20
41.0540658024127
 30
0.0
 11
-392.40316203629
 21
48.2440658024127
 31
0.0
  0
ARC
  5
   70D
  8
0
  6
CONTINUOUS
 62
     1
 10
-391.226329846734
 20
41.9528158024126
 30
0.0
 40
1.37316781044413
 50
319.117607838934
 51
400.882392057134
  0
ARC
  5
   70E
  8
0
  6
CONTINUOUS
 62
     1
 10
-391.226329846734
 20
47.3453158024127
 30
0.0
 40
1.37316781044413
 50
319.117607838934
 51
400.882392057134
  0
LINE
  5
   70F
  8
0
  6
CONTINUOUS
 62
     1
 10
-390.161564279558
 20
42.8515658024127
 30
0.0
 11
-392.40316203629
 21
42.8515658024127
 31
0.0
  0
ARC
  5
   710
  8
0
  6
CONTINUOUS
 62
     1
 10
-395.24566203629
 20
44.6490658024126
 30
0.0
 40
5.3925
 50
340.528779313544
 51
379.471220582525
  0
LINE
  5
   711
  8
0
  6
CONTINUOUS
 62
     1
 10
-390.161564279558
 20
46.4465658024127
 30
0.0
 11
-392.40316203629
 21
46.4465658024127
 31
0.0
  0
LINE
  5
   712
  8
0
  6
CONTINUOUS
 62
     1
 10
-390.188139944481
 20
41.0540658024127
 30
0.0
 11
-392.40316203629
 21
41.0540658024127
 31
0.0
  0
LINE
  5
   713
  8
0
  6
CONTINUOUS
 62
     1
 10
-390.188139944481
 20
48.2440658024127
 30
0.0
 11
-392.40316203629
 21
48.2440658024127
 31
0.0
  0
LINE
  5
   714
  8
0
  6
CONTINUOUS
 62
     1
 10
-392.40316203629
 20
41.5990658024127
 30
0.0
 11
-392.60316203629
 21
41.5990658024127
 31
0.0
  0
LINE
  5
   715
  8
0
  6
CONTINUOUS
 62
     1
 10
-392.40316203629
 20
47.6990658024126
 30
0.0
 11
-392.60316203629
 21
47.6990658024126
 31
0.0
  0
LINE
  5
   716
  8
0
  6
CONTINUOUS
 62
     7
 10
-394.35316203629
 20
43.0324595524127
 30
0.0
 11
-398.603161082615
 21
43.0324595524127
 31
0.0
  0
LINE
  5
   717
  8
0
  6
CONTINUOUS
 62
     7
 10
-394.35316203629
 20
46.2656720524127
 30
0.0
 11
-398.603161082615
 21
46.2656720524127
 31
0.0
  0
LINE
  5
   718
  8
0
  6
CONTINUOUS
 62
     1
 10
-393.10316203629
 20
46.6490658024127
 30
0.0
 11
-398.10316203629
 21
46.6490658024127
 31
0.0
  0
LINE
  5
   719
  8
0
  6
CONTINUOUS
 62
     1
 10
-393.10316203629
 20
42.6490658024127
 30
0.0
 11
-398.10316203629
 21
42.6490658024127
 31
0.0
  0
LINE
  5
   71A
  8
0
  6
CONTINUOUS
 62
     1
 10
-394.35316203629
 20
42.6490658024127
 30
0.0
 11
-394.35316203629
 21
46.6490658024127
 31
0.0
  0
LINE
  5
   71B
  8
0
  6
CONTINUOUS
 62
     1
 10
-389.85316203629
 20
41.9528158024126
 30
0.0
 11
-389.85316203629
 21
47.3453158024127
 31
0.0
  0
LINE
  5
   71C
  8
0
  6
DASHDOT
 62
     7
 10
-388.35316203629
 20
44.6490658024126
 30
0.0
 11
-400.10316203629
 21
44.6490658024126
 31
0.0
  0
LINE
  5
   71D
  8
0
  6
CONTINUOUS
 62
     1
 10
-392.90316203629
 20
-67.9459853580767
 30
0.0
 11
-392.90316203629
 21
-60.7559853580767
 31
0.0
  0
ARC
  5
   71E
  8
0
  6
CONTINUOUS
 62
     1
 10
-391.726329846734
 20
-67.0472353580767
 30
0.0
 40
1.37316781044413
 50
319.117607838934
 51
400.882392057134
  0
ARC
  5
   71F
  8
0
  6
CONTINUOUS
 62
     1
 10
-391.726329846734
 20
-61.6547353580767
 30
0.0
 40
1.37316781044413
 50
319.117607838934
 51
400.882392057134
  0
LINE
  5
   720
  8
0
  6
CONTINUOUS
 62
     1
 10
-390.661564279558
 20
-66.1484853580767
 30
0.0
 11
-392.90316203629
 21
-66.1484853580767
 31
0.0
  0
ARC
  5
   721
  8
0
  6
CONTINUOUS
 62
     1
 10
-395.74566203629
 20
-64.3509853580767
 30
0.0
 40
5.3925
 50
340.528779313544
 51
379.471220582525
  0
LINE
  5
   722
  8
0
  6
CONTINUOUS
 62
     1
 10
-390.661564279558
 20
-62.5534853580767
 30
0.0
 11
-392.90316203629
 21
-62.5534853580767
 31
0.0
  0
LINE
  5
   723
  8
0
  6
CONTINUOUS
 62
     1
 10
-390.688139944481
 20
-67.9459853580767
 30
0.0
 11
-392.90316203629
 21
-67.9459853580767
 31
0.0
  0
LINE
  5
   724
  8
0
  6
CONTINUOUS
 62
     1
 10
-390.688139944481
 20
-60.7559853580767
 30
0.0
 11
-392.90316203629
 21
-60.7559853580767
 31
0.0
  0
LINE
  5
   725
  8
0
  6
CONTINUOUS
 62
     1
 10
-392.90316203629
 20
-67.4009853580767
 30
0.0
 11
-393.10316203629
 21
-67.4009853580767
 31
0.0
  0
LINE
  5
   726
  8
0
  6
CONTINUOUS
 62
     1
 10
-392.90316203629
 20
-61.3009853580767
 30
0.0
 11
-393.10316203629
 21
-61.3009853580767
 31
0.0
  0
LINE
  5
   727
  8
0
  6
CONTINUOUS
 62
     7
 10
-394.35316203629
 20
-65.9675916080767
 30
0.0
 11
-398.603161082615
 21
-65.9675916080767
 31
0.0
  0
LINE
  5
   728
  8
0
  6
CONTINUOUS
 62
     7
 10
-394.35316203629
 20
-62.7343791080767
 30
0.0
 11
-398.603161082615
 21
-62.7343791080767
 31
0.0
  0
LINE
  5
   729
  8
0
  6
CONTINUOUS
 62
     1
 10
-393.60316203629
 20
-62.3509853580767
 30
0.0
 11
-398.10316203629
 21
-62.3509853580767
 31
0.0
  0
LINE
  5
   72A
  8
0
  6
CONTINUOUS
 62
     1
 10
-393.60316203629
 20
-66.3509853580767
 30
0.0
 11
-398.10316203629
 21
-66.3509853580767
 31
0.0
  0
LINE
  5
   72B
  8
0
  6
CONTINUOUS
 62
     1
 10
-394.35316203629
 20
-66.3509853580767
 30
0.0
 11
-394.35316203629
 21
-62.3509853580767
 31
0.0
  0
LINE
  5
   72C
  8
0
  6
CONTINUOUS
 62
     1
 10
-390.35316203629
 20
-67.0472353580767
 30
0.0
 11
-390.35316203629
 21
-61.6547353580767
 31
0.0
  0
LINE
  5
   72D
  8
0
  6
DASHDOT
 62
     7
 10
-388.35316203629
 20
-64.3509853580767
 30
0.0
 11
-400.10316203629
 21
-64.3509853580767
 31
0.0
  0
LINE
  5
   72E
  8
0
  6
CONTINUOUS
 62
     7
 10
-396.60316203629
 20
46.6490658024127
 30
0.0
 11
-396.60316203629
 21
49.649040222168
 31
0.0
  0
LINE
  5
   72F
  8
0
  6
CONTINUOUS
 62
     7
 10
-396.60316203629
 20
39.6490658024127
 30
0.0
 11
-396.60316203629
 21
42.6490658024127
 31
0.0
  0
LINE
  5
   730
  8
0
  6
DASHDOT
 62
     7
 10
-405.077955081777
 20
43.6490573119941
 30
0.0
 11
-418.21879713521
 21
43.6490573119941
 31
0.0
  0
LINE
  5
   731
  8
0
  6
CONTINUOUS
 62
     1
 10
-412.103149414063
 20
41.6490573119941
 30
0.0
 11
-412.103149414063
 21
45.6490573119941
 31
0.0
  0
LINE
  5
   732
  8
0
  6
CONTINUOUS
 62
     1
 10
-410.103149414063
 20
45.6490573119941
 30
0.0
 11
-412.103149414063
 21
45.6490573119941
 31
0.0
  0
LINE
  5
   733
  8
0
  6
CONTINUOUS
 62
     1
 10
-410.103149414063
 20
41.6490573119941
 30
0.0
 11
-412.103149414063
 21
41.6490573119941
 31
0.0
  0
LINE
  5
   734
  8
0
  6
CONTINUOUS
 62
     1
 10
-410.103149414063
 20
44.8990573119941
 30
0.0
 11
-414.103149414063
 21
44.8990573119941
 31
0.0
  0
LINE
  5
   735
  8
0
  6
CONTINUOUS
 62
     1
 10
-410.103149414063
 20
42.3990573119941
 30
0.0
 11
-414.103149414063
 21
42.3990573119941
 31
0.0
  0
LINE
  5
   736
  8
0
  6
CONTINUOUS
 62
     1
 10
-414.103149414063
 20
42.3990573119941
 30
0.0
 11
-414.103149414063
 21
44.8990573119941
 31
0.0
  0
LINE
  5
   737
  8
0
  6
CONTINUOUS
 62
     1
 10
-410.103149414063
 20
-61.3509426880059
 30
0.0
 11
-412.103149414063
 21
-61.3509426880059
 31
0.0
  0
LINE
  5
   738
  8
0
  6
CONTINUOUS
 62
     1
 10
-410.103149414063
 20
-62.1009426880059
 30
0.0
 11
-414.103149414063
 21
-62.1009426880059
 31
0.0
  0
LINE
  5
   739
  8
0
  6
DASHDOT
 62
     7
 10
-405.077955081777
 20
-63.3509426880059
 30
0.0
 11
-418.21879713521
 21
-63.3509426880059
 31
0.0
  0
LINE
  5
   73A
  8
0
  6
CONTINUOUS
 62
     1
 10
-410.103149414063
 20
-64.6009426880059
 30
0.0
 11
-414.103149414063
 21
-64.6009426880059
 31
0.0
  0
LINE
  5
   73B
  8
0
  6
CONTINUOUS
 62
     1
 10
-410.103149414063
 20
-65.350942688006
 30
0.0
 11
-412.103149414063
 21
-65.350942688006
 31
0.0
  0
LINE
  5
   73C
  8
0
  6
CONTINUOUS
 62
     1
 10
-412.103149414063
 20
-65.350942688006
 30
0.0
 11
-412.103149414063
 21
-61.3509426880059
 31
0.0
  0
LINE
  5
   73D
  8
0
  6
CONTINUOUS
 62
     1
 10
-414.103149414063
 20
-64.6009426880059
 30
0.0
 11
-414.103149414063
 21
-62.1009426880059
 31
0.0
  0
CIRCLE
  5
   73E
  8
0
  6
CONTINUOUS
 62
     7
 10
-411.342775130507
 20
43.2773803714317
 30
0.0
 40
0.1
  0
TEXT
  5
   73F
  8
0
  6
CONTINUOUS
 62
     1
 10
-334.608488513686
 20
-146.220890080534
 30
0.0
 40
2.00000008940697
  1
N0035 00-03-15
 50
359.999999948034
 41
0.749999861419206
 72
     1
 11
-324.258489966393
 21
-145.220890045166
 31
0.0
 73
     2
  0
INSERT
  5
   740
  8
0
  6
CONTINUOUS
 62
     7
  2
*UDIM97
 10
0.0
 20
0.0
 30
0.0
  0
INSERT
  5
   741
  8
0
  6
CONTINUOUS
 62
     7
  2
*UDIM98
 10
0.0
 20
0.0
 30
0.0
  0
INSERT
  5
   742
  8
0
  6
CONTINUOUS
 62
     7
  2
*UDIM99
 10
0.0
 20
0.0
 30
0.0
  0
INSERT
  5
   743
  8
0
  6
CONTINUOUS
 62
     7
  2
*UDIM100
 10
0.0
 20
0.0
 30
0.0
  0
INSERT
  5
   744
  8
0
  6
CONTINUOUS
 62
     7
  2
*UDIM101
 10
0.0
 20
0.0
 30
0.0
  0
INSERT
  5
   745
  8
0
  6
CONTINUOUS
 62
     7
  2
*UDIM102
 10
0.0
 20
0.0
 30
0.0
  0
INSERT
  5
   746
  8
0
  6
CONTINUOUS
 62
     7
  2
*UDIM103
 10
0.0
 20
0.0
 30
0.0
  0
INSERT
  5
   747
  8
0
  6
CONTINUOUS
 62
     7
  2
*UDIM104
 10
0.0
 20
0.0
 30
0.0
  0
INSERT
  5
   748
  8
0
  6
CONTINUOUS
 62
     5
  2
*UDIM105
 10
0.0
 20
0.0
 30
0.0
  0
TEXT
  5
   749
  8
0
  6
CONTINUOUS
 62
     5
 10
-322.71849061279
 20
-25.7079528032418
 30
0.0
 40
3.00000002980232
  1
=        =
 50
89.9999999480344
 41
0.916666604744064
 72
     2
 11
-322.718490588381
 21
1.24204563958687
 31
0.0
  0
INSERT
  5
   74A
  8
0
  6
CONTINUOUS
 62
     7
  2
*UDIM106
 10
0.0
 20
0.0
 30
0.0
  0
INSERT
  5
   74B
  8
0
  6
CONTINUOUS
 62
     7
  2
*UDIM107
 10
0.0
 20
0.0
 30
0.0
  0
INSERT
  5
   74C
  8
0
  6
CONTINUOUS
 62
     7
  2
*UDIM108
 10
0.0
 20
0.0
 30
0.0
  0
INSERT
  5
   74D
  8
0
  6
CONTINUOUS
 62
     7
  2
*UDIM109
 10
0.0
 20
0.0
 30
0.0
  0
INSERT
  5
   74E
  8
0
  6
CONTINUOUS
 62
     7
  2
*UDIM110
 10
0.0
 20
0.0
 30
0.0
  0
INSERT
  5
   74F
  8
0
  6
CONTINUOUS
 62
     7
  2
*UDIM111
 10
0.0
 20
0.0
 30
0.0
  0
INSERT
  5
   750
  8
0
  6
CONTINUOUS
 62
     7
  2
*UDIM112
 10
0.0
 20
0.0
 30
0.0
  0
INSERT
  5
   751
  8
0
  6
CONTINUOUS
 62
     7
  2
*UDIM113
 10
0.0
 20
0.0
 30
0.0
  0
INSERT
  5
   752
  8
0
  6
CONTINUOUS
 62
     7
  2
*UDIM114
 10
0.0
 20
0.0
 30
0.0
  0
INSERT
  5
   753
  8
0
  6
CONTINUOUS
 62
     7
  2
*UDIM115
 10
0.0
 20
0.0
 30
0.0
  0
INSERT
  5
   754
  8
0
  6
CONTINUOUS
 62
     7
  2
*UDIM116
 10
0.0
 20
0.0
 30
0.0
  0
TEXT
  5
   755
  8
0
  6
CONTINUOUS
 62
     7
 10
-322.87108603255
 20
-10.0983840875849
 30
0.0
 40
3.00000002980232
  1
X
 50
359.999999948034
 41
0.916666604744064
 72
     1
 11
-321.771086096762
 21
-8.59838407367583
 31
0.0
 73
     2
  0
TEXT
  5
   756
  8
0
  6
CONTINUOUS
 62
     1
 10
-265.271728430006
 20
-157.171065643224
 30
0.0
 40
4.00000017881393
  1
601812/091
 50
359.999999948034
 41
0.937499973922969
 72
     2
 11
-228.521727830234
 21
-157.17106567637
 31
0.0
  0
TEXT
  5
   757
  8
0
  6
CONTINUOUS
 62
     1
 10
-247.186035092036
 20
-148.189483561962
 30
0.0
 40
3.00000002980232
  1
S4
 50
359.999999948034
 41
0.916666604744064
 72
     2
 11
-242.236035381615
 21
-148.189483566427
 31
0.0
  0
TEXT
  5
   758
  8
0
  6
CONTINUOUS
 62
     1
 10
-275.720454947064
 20
-129.879211450795
 30
0.0
 40
2.00000008940697
  1
4POLE LOW VOLTAGE M.C.C.B SERIES ISOMAX
 50
359.999999948034
 41
0.749999861419206
 72
     1
 11
-246.6204590261
 21
-128.879211432338
 31
0.0
 73
     2
  0
TEXT
  5
   759
  8
0
  6
CONTINUOUS
 62
     1
 10
-279.470454290664
 20
-132.879211447413
 30
0.0
 40
2.00000008940697
  1
FIXED VERSION FRONT+EXTENDED FRONT TERMINALS
 50
359.999999948034
 41
0.749999861419206
 72
     1
 11
-246.620458894966
 21
-131.879211432338
 31
0.0
 73
     2
  0
TEXT
  5
   75A
  8
0
  6
CONTINUOUS
 62
     1
 10
-272.518063314418
 20
-137.949478180516
 30
0.0
 40
2.00000008940697
  1
INTERR.AUTOMATICO SERIE ISOMAX
 50
359.999999948034
 41
0.749999861419206
 72
     1
 11
-250.168066447975
 21
-136.949478155971
 31
0.0
 73
     2
  0
TEXT
  5
   75B
  8
0
  6
CONTINUOUS
 62
     1
 10
-286.768061187273
 20
-140.949478167663
 30
0.0
 40
2.00000008940697
  1
TETRAP.ESECUZIONE FISSA TERMINALI ANT.E ANT.PROL.
 50
359.999999948034
 41
0.749999861419206
 72
     1
 11
-250.168066316841
 21
-139.949478155971
 31
0.0
 73
     2
  0
ENDSEC
  0
EOF
