  0
SECTION
  2
HEADER
  9
$ACADVER
  1
AC1009
  9
$DWGCODEPAGE
  3
iso8859-1
  9
$INSBASE
 10
0.0
 20
0.0
 30
0.0
  9
$EXTMIN
 10
1.0E20
 20
1.0E20
  9
$EXTMAX
 10
-1.0E20
 20
-1.0E20
  9
$LIMMIN
 10
0.0
 20
0.0
  9
$LIMMAX
 10
12.0
 20
9.0
  9
$ORTHOMODE
 70
     0
  9
$REGENMODE
 70
     1
  9
$FILLMODE
 70
     1
  9
$QTEXTMODE
 70
     0
  9
$MIRRTEXT
 70
     1
  9
$DRAGMODE
 70
     2
  9
$LTSCALE
 40
15.0
  9
$OSMODE
 70
     0
  9
$ATTMODE
 70
     1
  9
$TEXTSIZE
 40
0.2
  9
$TRACEWID
 40
0.05
  9
$TEXTSTYLE
  7
STANDARD
  9
$CLAYER
  8
0
  9
$CELTYPE
  6
DASHED
  9
$CECOLOR
 62
   256
  9
$DIMSCALE
 40
1.0
  9
$DIMASZ
 40
0.18
  9
$DIMEXO
 40
0.0625
  9
$DIMDLI
 40
0.38
  9
$DIMRND
 40
0.0
  9
$DIMDLE
 40
0.0
  9
$DIMEXE
 40
0.18
  9
$DIMTP
 40
0.0
  9
$DIMTM
 40
0.0
  9
$DIMTXT
 40
0.18
  9
$DIMCEN
 40
0.09
  9
$DIMTSZ
 40
0.0
  9
$DIMTOL
 70
     0
  9
$DIMLIM
 70
     0
  9
$DIMTIH
 70
     1
  9
$DIMTOH
 70
     1
  9
$DIMSE1
 70
     0
  9
$DIMSE2
 70
     0
  9
$DIMTAD
 70
     0
  9
$DIMZIN
 70
     0
  9
$DIMBLK
  1

  9
$DIMASO
 70
     1
  9
$DIMSHO
 70
     1
  9
$DIMPOST
  1

  9
$DIMAPOST
  1

  9
$DIMALT
 70
     0
  9
$DIMALTD
 70
     2
  9
$DIMALTF
 40
25.4
  9
$DIMLFAC
 40
1.0
  9
$DIMTOFL
 70
     0
  9
$DIMTVP
 40
0.0
  9
$DIMTIX
 70
     0
  9
$DIMSOXD
 70
     0
  9
$DIMSAH
 70
     0
  9
$DIMBLK1
  1

  9
$DIMBLK2
  1

  9
$DIMSTYLE
  2
STANDARD
  9
$DIMCLRD
 70
     0
  9
$DIMCLRE
 70
     0
  9
$DIMCLRT
 70
     0
  9
$DIMTFAC
 40
1.0
  9
$DIMGAP
 40
0.09
  9
$LUNITS
 70
     2
  9
$LUPREC
 70
     4
  9
$AXISMODE
 70
     0
  9
$AXISUNIT
 10
0.0
 20
0.0
  9
$SKETCHINC
 40
0.1
  9
$FILLETRAD
 40
0.0
  9
$AUNITS
 70
     0
  9
$AUPREC
 70
     0
  9
$MENU
  1
acad
  9
$ELEVATION
 40
0.0
  9
$PELEVATION
 40
0.0
  9
$THICKNESS
 40
0.0
  9
$LIMCHECK
 70
     0
  9
$BLIPMODE
 70
     1
  9
$CHAMFERA
 40
0.0
  9
$CHAMFERB
 40
0.0
  9
$SKPOLY
 70
     0
  9
$TDCREATE
 40
0.000000000
  9
$TDUPDATE
 40
0.000000000
  9
$TDINDWG
 40
0.0
  9
$TDUSRTIMER
 40
0.0
  9
$USRTIMER
 70
     1
  9
$ANGBASE
 50
0.0
  9
$ANGDIR
 70
     0
  9
$PDMODE
 70
     0
  9
$PDSIZE
 40
0.0
  9
$PLINEWID
 40
0.0
  9
$COORDS
 70
     1
  9
$SPLFRAME
 70
     0
  9
$SPLINETYPE
 70
     6
  9
$SPLINESEGS
 70
     8
  9
$ATTDIA
 70
     0
  9
$ATTREQ
 70
     1
  9
$HANDLING
 70
     1
  9
$HANDSEED
  5
   5C5
  9
$SURFTAB1
 70
     6
  9
$SURFTAB2
 70
     6
  9
$SURFTYPE
 70
     6
  9
$SURFU
 70
     6
  9
$SURFV
 70
     6
  9
$UCSNAME
  2

  9
$UCSORG
 10
0.0
 20
0.0
 30
0.0
  9
$UCSXDIR
 10
1.0
 20
0.0
 30
0.0
  9
$UCSYDIR
 10
0.0
 20
1.0
 30
0.0
  9
$PUCSNAME
  2

  9
$PUCSORG
 10
0.0
 20
0.0
 30
0.0
  9
$PUCSXDIR
 10
1.0
 20
0.0
 30
0.0
  9
$PUCSYDIR
 10
0.0
 20
1.0
 30
0.0
  9
$USERI1
 70
     0
  9
$USERI2
 70
     0
  9
$USERI3
 70
     0
  9
$USERI4
 70
     0
  9
$USERI5
 70
     0
  9
$USERR1
 40
0.0
  9
$USERR2
 40
0.0
  9
$USERR3
 40
0.0
  9
$USERR4
 40
0.0
  9
$USERR5
 40
0.0
  9
$WORLDVIEW
 70
     1
  9
$SHADEDGE
 70
     3
  9
$SHADEDIF
 70
    70
  9
$TILEMODE
 70
     1
  9
$MAXACTVP
 70
    16
  9
$PINSBASE
 10
0.0
 20
0.0
 30
0.0
  9
$PLIMCHECK
 70
     0
  9
$PEXTMIN
 10
1.0E20
 20
1.0E20
 30
1.0E20
  9
$PEXTMAX
 10
-1.0E20
 20
-1.0E20
 30
-1.0E20
  9
$PLIMMIN
 10
0.0
 20
0.0
  9
$PLIMMAX
 10
12.0
 20
9.0
  9
$UNITMODE
 70
     0
  9
$VISRETAIN
 70
     0
  0
ENDSEC
  0
SECTION
  2
TABLES
  0
TABLE
  2
VPORT
 70
     1
  0
VPORT
  2
*ACTIVE
 70
     0
 10
0.0
 20
0.0
 11
1.0
 21
1.0
 12
6.801242
 22
4.5
 13
0.0
 23
0.0
 14
1.0
 24
1.0
 15
0.0
 25
0.0
 16
0.0
 26
0.0
 36
1.0
 17
0.0
 27
0.0
 37
0.0
 40
9.0
 41
1.511387
 42
50.0
 43
0.0
 44
0.0
 50
0.0
 51
0.0
 71
     0
 72
   100
 73
     1
 74
     1
 75
     0
 76
     0
 77
     0
 78
     0
  0
ENDTAB
  0
TABLE
  2
LTYPE
 70
    41
  0
LTYPE
  2
BYBLOCK
 70
     0
  3

 72
    65
 73
     0
 40
0.0
  0
LTYPE
  2
BYLAYER
 70
     0
  3

 72
    65
 73
     0
 40
0.0
  0
LTYPE
  2
CONTINUOUS
 70
     0
  3
Solid line
 72
    65
 73
     0
 40
0.0
  0
LTYPE
  2
BORDER
 70
    64
  3
__ __ . __ __ . __ __ . __ __ . __ __ . __ __ .
 72
    65
 73
     6
 40
1.75
 49
0.5
 49
-0.25
 49
0.5
 49
-0.25
 49
0.0
 49
-0.25
  0
LTYPE
  2
BORDER2
 70
    64
  3
__.__.__.__.__.__.__.__.__.__.__.__.__.__.__.__
 72
    65
 73
     6
 40
0.875
 49
0.25
 49
-0.125
 49
0.25
 49
-0.125
 49
0.0
 49
-0.125
  0
LTYPE
  2
BORDERX2
 70
    64
  3
____  ____  .  ____  ____  .  ____  ____  .  __
 72
    65
 73
     6
 40
3.5
 49
1.0
 49
-0.5
 49
1.0
 49
-0.5
 49
0.0
 49
-0.5
  0
LTYPE
  2
CENTER
 70
    64
  3
____ _ ____ _ ____ _ ____ _ ____ _ ____ _ ____
 72
    65
 73
     4
 40
2.0
 49
1.25
 49
-0.25
 49
0.25
 49
-0.25
  0
LTYPE
  2
CENTER2
 70
    64
  3
___ _ ___ _ ___ _ ___ _ ___ _ ___ _ ___ _ ___ _
 72
    65
 73
     4
 40
1.125
 49
0.75
 49
-0.125
 49
0.125
 49
-0.125
  0
LTYPE
  2
CENTERX2
 70
    64
  3
________  __  ________  __  ________  __  _____
 72
    65
 73
     4
 40
4.0
 49
2.5
 49
-0.5
 49
0.5
 49
-0.5
  0
LTYPE
  2
DASHDOT
 70
    64
  3
__ . __ . __ . __ . __ . __ . __ . __ . __ . __
 72
    65
 73
     4
 40
1.0
 49
0.5
 49
-0.25
 49
0.0
 49
-0.25
  0
LTYPE
  2
DASHDOT2
 70
    64
  3
_._._._._._._._._._._._._._._._._._._._._._._._
 72
    65
 73
     4
 40
0.5
 49
0.25
 49
-0.125
 49
0.0
 49
-0.125
  0
LTYPE
  2
DASHDOTX2
 70
    64
  3
____  .  ____  .  ____  .  ____  .  ____  .  __
 72
    65
 73
     4
 40
2.0
 49
1.0
 49
-0.5
 49
0.0
 49
-0.5
  0
LTYPE
  2
DASHED
 70
    64
  3
__ __ __ __ __ __ __ __ __ __ __ __ __ __ __ __
 72
    65
 73
     2
 40
0.75
 49
0.5
 49
-0.25
  0
LTYPE
  2
DASHED2
 70
    64
  3
_ _ _ _ _ _ _ _ _ _ _ _ _ _ _ _ _ _ _ _ _ _ _ _
 72
    65
 73
     2
 40
0.375
 49
0.25
 49
-0.125
  0
LTYPE
  2
DASHEDX2
 70
    64
  3
____  ____  ____  ____  ____  ____  ____  ____
 72
    65
 73
     2
 40
1.5
 49
1.0
 49
-0.5
  0
LTYPE
  2
DIVIDE
 70
    64
  3
____ . . ____ . . ____ . . ____ . . ____ . . __
 72
    65
 73
     6
 40
1.25
 49
0.5
 49
-0.25
 49
0.0
 49
-0.25
 49
0.0
 49
-0.25
  0
LTYPE
  2
DIVIDE2
 70
    64
  3
__..__..__..__..__..__..__..__..__..__..__..__.
 72
    65
 73
     6
 40
0.625
 49
0.25
 49
-0.125
 49
0.0
 49
-0.125
 49
0.0
 49
-0.125
  0
LTYPE
  2
DIVIDEX2
 70
    64
  3
________  .  .  ________  .  .  ________  .  .
 72
    65
 73
     6
 40
2.5
 49
1.0
 49
-0.5
 49
0.0
 49
-0.5
 49
0.0
 49
-0.5
  0
LTYPE
  2
DOT
 70
    64
  3
. . . . . . . . . . . . . . . . . . . . . . . .
 72
    65
 73
     2
 40
0.25
 49
0.0
 49
-0.25
  0
LTYPE
  2
DOT2
 70
    64
  3
...............................................
 72
    65
 73
     2
 40
0.125
 49
0.0
 49
-0.125
  0
LTYPE
  2
DOTX2
 70
    64
  3
.  .  .  .  .  .  .  .  .  .  .  .  .  .  .  .
 72
    65
 73
     2
 40
0.5
 49
0.0
 49
-0.5
  0
LTYPE
  2
HIDDEN
 70
    64
  3
__ __ __ __ __ __ __ __ __ __ __ __ __ __ __ __
 72
    65
 73
     2
 40
0.375
 49
0.25
 49
-0.125
  0
LTYPE
  2
HIDDEN2
 70
    64
  3
_ _ _ _ _ _ _ _ _ _ _ _ _ _ _ _ _ _ _ _ _ _ _ _
 72
    65
 73
     2
 40
0.1875
 49
0.125
 49
-0.0625
  0
LTYPE
  2
HIDDENX2
 70
    64
  3
____ ____ ____ ____ ____ ____ ____ ____ ____ __
 72
    65
 73
     2
 40
0.75
 49
0.5
 49
-0.25
  0
LTYPE
  2
PHANTOM
 70
    64
  3
______  __  __  ______  __  __  ______  __  __
 72
    65
 73
     6
 40
2.5
 49
1.25
 49
-0.25
 49
0.25
 49
-0.25
 49
0.25
 49
-0.25
  0
LTYPE
  2
PHANTOM2
 70
    64
  3
___ _ _ ___ _ _ ___ _ _ ___ _ _ ___ _ _ ___ _ _
 72
    65
 73
     6
 40
1.25
 49
0.625
 49
-0.125
 49
0.125
 49
-0.125
 49
0.125
 49
-0.125
  0
LTYPE
  2
PHANTOMX2
 70
    64
  3
____________    ____    ____    ____________
 72
    65
 73
     6
 40
5.0
 49
2.5
 49
-0.5
 49
0.5
 49
-0.5
 49
0.5
 49
-0.5
  0
LTYPE
  2
ACAD_ISO02W100
 70
    64
  3
__ __ __ __ __ __ __ __ __ __ __ __ __ __ __ __
 72
    65
 73
     2
 40
15.0
 49
12.0
 49
-3.0
  0
LTYPE
  2
ACAD_ISO03W100
 70
    64
  3
__    __    __    __    __    __    __    __
 72
    65
 73
     2
 40
30.0
 49
12.0
 49
-18.0
  0
LTYPE
  2
ACAD_ISO04W100
 70
    64
  3
____ . ____ . ____ . ____ . ____ . ____ . ____
 72
    65
 73
     4
 40
30.5
 49
24.0
 49
-3.0
 49
0.5
 49
-3.0
  0
LTYPE
  2
ACAD_ISO05W100
 70
    64
  3
____ .. ____ .. ____ .. ____ .. ____ .. ____ ..
 72
    65
 73
     6
 40
34.0
 49
24.0
 49
-3.0
 49
0.5
 49
-3.0
 49
0.5
 49
-3.0
  0
LTYPE
  2
ACAD_ISO06W100
 70
    64
  3
____ ... ____ ... ____ ... ____ ... ____ ... __
 72
    65
 73
     8
 40
37.5
 49
24.0
 49
-3.0
 49
0.5
 49
-3.0
 49
0.5
 49
-3.0
 49
0.5
 49
-3.0
  0
LTYPE
  2
ACAD_ISO07W100
 70
    64
  3
. . . . . . . . . . . . . . . . . . . . . . . .
 72
    65
 73
     2
 40
3.5
 49
0.5
 49
-3.0
  0
LTYPE
  2
ACAD_ISO08W100
 70
    64
  3
____ __ ____ __ ____ __ ____ ____ __ __ ____ __
 72
    65
 73
     4
 40
36.0
 49
24.0
 49
-3.0
 49
6.0
 49
-3.0
  0
LTYPE
  2
ACAD_ISO09W100
 70
    64
  3
____ __ __ ____ __ __ ____ __ __ ____ __ __ ___
 72
    65
 73
     6
 40
45.0
 49
24.0
 49
-3.0
 49
6.0
 49
-3.0
 49
6.0
 49
-3.0
  0
LTYPE
  2
ACAD_ISO10W100
 70
    64
  3
__ . __ . __ . __ . __ . __ . __ . __ . __ . __
 72
    65
 73
     4
 40
18.5
 49
12.0
 49
-3.0
 49
0.5
 49
-3.0
  0
LTYPE
  2
ACAD_ISO11W100
 70
    64
  3
__ __ . __ __ . __ __ . __ __ . __ __ . __ __ .
 72
    65
 73
     6
 40
33.5
 49
12.0
 49
-3.0
 49
12.0
 49
-3.0
 49
0.5
 49
-3.0
  0
LTYPE
  2
ACAD_ISO12W100
 70
    64
  3
__ . . __ . . __ . . __ . . __ . . __ . . __ .
 72
    65
 73
     6
 40
22.0
 49
12.0
 49
-3.0
 49
0.5
 49
-3.0
 49
0.5
 49
-3.0
  0
LTYPE
  2
ACAD_ISO13W100
 70
    64
  3
__ __ . . __ __ . . __ __ . . __ __ . . __ __ .
 72
    65
 73
     8
 40
37.0
 49
12.0
 49
-3.0
 49
12.0
 49
-3.0
 49
0.5
 49
-3.0
 49
0.5
 49
-3.0
  0
LTYPE
  2
ACAD_ISO14W100
 70
    64
  3
__ . . . __ . . . __ . . . __ . . . __ . . . __
 72
    65
 73
     8
 40
25.5
 49
12.0
 49
-3.0
 49
0.5
 49
-3.0
 49
0.5
 49
-3.0
 49
0.5
 49
-3.0
  0
LTYPE
  2
ACAD_ISO15W100
 70
    64
  3
__ __ . . . __ __ . . . __ __ . . . __ __ . . .
 72
    65
 73
    10
 40
40.5
 49
12.0
 49
-3.0
 49
12.0
 49
-3.0
 49
0.5
 49
-3.0
 49
0.5
 49
-3.0
 49
0.5
 49
-3.0
  0
ENDTAB
  0
TABLE
  2
STYLE
 70
     4
  0
STYLE
  2
STANDARD
 70
    64
 40
0.0
 41
1.0
 50
0.0
 71
     0
 42
0.2
  3
txt
  4

  0
STYLE
  2
TOLERANCE
 70
    64
 40
0.0
 41
1.0
 50
0.0
 71
     0
 42
0.2
  3
../igesfont/iges1003.shx
  4

  0
STYLE
  2
ROMANS
 70
    64
 40
0.0
 41
1.0
 50
0.0
 71
     0
 42
0.2
  3
romans.shx
  4

  0
STYLE
  2
ROMANC
 70
    64
 40
0.0
 41
1.0
 50
0.0
 71
     0
 42
0.2
  3
romanc.shx
  4

  0
ENDTAB
  0
TABLE
  2
DIMSTYLE
 70
     2
  0
DIMSTYLE
  2
UNNAMED
 70
     0
  3

  4

  5

  6

  7

 40
1.0
 41
0.18
 42
0.0625
 43
0.38
 44
0.18
 45
0.0
 46
0.0
 47
0.0
 48
0.0
140
0.18
141
0.09
142
0.0
143
25.4
144
1.0
145
0.0
146
1.0
147
0.09
 71
     0
 72
     0
 73
     1
 74
     1
 75
     0
 76
     0
 77
     0
 78
     0
170
     0
171
     2
172
     0
173
     0
174
     0
175
     0
176
     0
177
     0
178
     0
  0
DIMSTYLE
  2
STANDARD
 70
     0
  3

  4

  5

  6

  7

 40
1.0
 41
0.18
 42
0.0625
 43
0.38
 44
0.18
 45
0.0
 46
0.0
 47
0.0
 48
0.0
140
0.18
141
0.09
142
0.0
143
25.4
144
1.0
145
0.0
146
1.0
147
0.09
 71
     0
 72
     0
 73
     1
 74
     1
 75
     0
 76
     0
 77
     0
 78
     0
170
     0
171
     2
172
     0
173
     0
174
     0
175
     0
176
     0
177
     0
178
     0
  0
ENDTAB
  0
TABLE
  2
LAYER
 70
     2
  0
LAYER
  2
0
 70
     0
 62
     7
  6
CONTINUOUS
  0
LAYER
  2
255
 70
     0
 62
     7
  6
CONTINUOUS
  0
ENDTAB
  0
ENDSEC
  0
SECTION
  2
BLOCKS
  0
BLOCK
  5
     B
  8
0
  6
CONTINUOUS
 62
     7
  2
MOSTRA
 70
    64
 10
0.0
 20
0.0
 30
0.0
  3
MOSTRA
  0
LINE
  5
     C
  8
0
  6
CONTINUOUS
 62
     1
 10
75.9999847412109
 20
-24.000020980835
 30
0.0
 11
75.9999847412109
 21
169.499979019165
 31
0.0
  0
LINE
  5
     D
  8
0
  6
CONTINUOUS
 62
     1
 10
-71.5000076293913
 20
170.749954223637
 30
0.0
 11
71.4999923706087
 21
170.749984741215
 31
0.0
  0
LINE
  5
     E
  8
0
  6
CONTINUOUS
 62
     1
 10
71.4999923722532
 20
170.749969484304
 30
0.0
 11
74.7499847428587
 21
170.749984743093
 31
0.0
  0
LINE
  5
     F
  8
0
  6
CONTINUOUS
 62
     1
 10
-74.7500152650933
 20
170.749938972373
 30
0.0
 11
-71.5000076356988
 21
170.74996948995
 31
0.0
  0
LINE
  5
    10
  8
0
  6
CONTINUOUS
 62
     1
 10
-76.0000152587891
 20
-24.0000553131103
 30
0.0
 11
-76.0000152587891
 21
169.49994468689
 31
0.0
  0
LINE
  5
    11
  8
0
  6
CONTINUOUS
 62
     1
 10
-74.7500152587851
 20
-25.250055313111
 30
0.0
 11
74.7499847412149
 21
-25.2500209808356
 31
0.0
  0
LINE
  5
    12
  8
0
  6
CONTINUOUS
 62
     1
 10
-70.50000762559
 20
2.24997818470003
 30
0.0
 11
70.49999237441
 21
2.24997818470002
 31
0.0
  0
LINE
  5
    13
  8
0
  6
CONTINUOUS
 62
     1
 10
-70.5000074412761
 20
2.24997806549074
 30
0.0
 11
-70.5000074412761
 21
93.0689001568776
 31
0.0
  0
LINE
  5
    14
  8
0
  6
CONTINUOUS
 62
     1
 10
-70.5000152587891
 20
108.431043142038
 30
0.0
 11
-70.5000152587891
 21
143.249984741211
 31
0.0
  0
LINE
  5
    15
  8
0
  6
CONTINUOUS
 62
     1
 10
-70.500015258789
 20
143.249984741211
 30
0.0
 11
70.4999694824219
 21
143.249984741211
 31
0.0
  0
LINE
  5
    16
  8
0
  6
CONTINUOUS
 62
     1
 10
70.499992735838
 20
2.24997854232794
 30
0.0
 11
70.499992735838
 21
143.249978542328
 31
0.0
  0
LINE
  5
    17
  8
0
  6
CONTINUOUS
 62
     1
 10
-71.5000076293945
 20
150.749984741211
 30
0.0
 11
-71.5000076293945
 21
170.749969482422
 31
0.0
  0
LINE
  5
    18
  8
0
  6
CONTINUOUS
 62
     1
 10
71.4999923706055
 20
150.749984741211
 30
0.0
 11
71.4999923706055
 21
170.749969482422
 31
0.0
  0
LINE
  5
    19
  8
0
  6
CONTINUOUS
 62
     1
 10
-71.5000076293945
 20
150.749984741211
 30
0.0
 11
71.4999923706055
 21
150.749984741211
 31
0.0
  0
LINE
  5
    1A
  8
0
  6
CONTINUOUS
 62
     1
 10
-70.5000152587891
 20
-4.25005340576171
 30
0.0
 11
70.4999847412109
 21
-4.25005340576172
 31
0.0
  0
LINE
  5
    1B
  8
0
  6
CONTINUOUS
 62
     1
 10
-70.5000152587891
 20
-5.25005340576171
 30
0.0
 11
70.4999847412109
 21
-5.25005340576172
 31
0.0
  0
LINE
  5
    1C
  8
0
  6
CONTINUOUS
 62
     1
 10
-70.5000305175649
 20
149.74993896486
 30
0.0
 11
70.4999694824351
 21
149.750000000014
 31
0.0
  0
LINE
  5
    1D
  8
0
  6
CONTINUOUS
 62
     1
 10
71.4999858357699
 20
-25.2500247955323
 30
0.0
 11
71.4999858357699
 21
150.749990463257
 31
0.0
  0
LINE
  5
    1E
  8
0
  6
CONTINUOUS
 62
     1
 10
70.4999847412109
 20
-25.2500247955322
 30
0.0
 11
70.4999847412109
 21
-5.25005340576172
 31
0.0
  0
LINE
  5
    1F
  8
0
  6
CONTINUOUS
 62
     1
 10
70.4999847412595
 20
-4.25005341252316
 30
0.0
 11
70.4999923706543
 21
2.24997805388479
 31
0.0
  0
LINE
  5
    20
  8
0
  6
CONTINUOUS
 62
     1
 10
70.4999694824219
 20
143.249984741211
 30
0.0
 11
70.4999694824219
 21
149.75
 31
0.0
  0
LINE
  5
    21
  8
0
  6
CONTINUOUS
 62
     1
 10
-71.5000141642294
 20
-25.2500457763669
 30
0.0
 11
-71.5000141642294
 21
150.749984741211
 31
0.0
  0
LINE
  5
    22
  8
0
  6
CONTINUOUS
 62
     1
 10
-70.5000152587891
 20
-25.2500419616699
 30
0.0
 11
-70.5000152587891
 21
-5.25005340576171
 31
0.0
  0
LINE
  5
    23
  8
0
  6
CONTINUOUS
 62
     1
 10
-70.5000152588376
 20
-4.25005339719544
 30
0.0
 11
-70.5000076294428
 21
2.24997808131977
 31
0.0
  0
LINE
  5
    24
  8
0
  6
CONTINUOUS
 62
     1
 10
-70.5000305177719
 20
149.749938959778
 30
0.0
 11
-70.5000152589833
 21
143.249984736586
 31
0.0
  0
LINE
  5
    25
  8
0
  6
CONTINUOUS
 62
     1
 10
-71.5000076293945
 20
159.999984741211
 30
0.0
 11
-71.0
 21
159.999984741211
 31
0.0
  0
LINE
  5
    26
  8
0
  6
CONTINUOUS
 62
     1
 10
-71.5000076293945
 20
161.499984741211
 30
0.0
 11
-71.0
 21
161.499984741211
 31
0.0
  0
LINE
  5
    27
  8
0
  6
CONTINUOUS
 62
     1
 10
70.9999923706055
 20
159.999984741211
 30
0.0
 11
71.4999923706055
 21
159.999984741211
 31
0.0
  0
LINE
  5
    28
  8
0
  6
CONTINUOUS
 62
     1
 10
70.9999923706055
 20
161.499984741211
 30
0.0
 11
71.4999923706055
 21
161.499984741211
 31
0.0
  0
ARC
  5
    29
  8
0
  6
CONTINUOUS
 62
     1
 10
-74.7500446175772
 20
169.499966747805
 30
0.0
 40
1.2499712385188
 50
89.9986335430652
 51
180.000984426699
  0
ARC
  5
    2A
  8
0
  6
CONTINUOUS
 62
     1
 10
-71.0000555065448
 20
160.749933035418
 30
0.0
 40
0.750060676953542
 50
270.004052802733
 51
449.996390805965
  0
ARC
  5
    2B
  8
0
  6
CONTINUOUS
 62
     1
 10
71.0004519501049
 20
160.749941254871
 30
0.0
 40
0.750296104915764
 50
90.0
 51
270.0
  0
ARC
  5
    2C
  8
0
  6
CONTINUOUS
 62
     1
 10
74.7499844400411
 20
169.499990278414
 30
0.0
 40
1.25000142315613
 50
2.89360398659739E-4
 51
89.9998353051498
  0
ARC
  5
    2D
  8
0
  6
CONTINUOUS
 62
     1
 10
74.7499756668578
 20
-24.0000128113076
 30
0.0
 40
1.25000813012569
 50
270.000329889624
 51
359.999635393882
  0
ARC
  5
    2E
  8
0
  6
CONTINUOUS
 62
     1
 10
-74.7500061806411
 20
-24.0000471426785
 30
0.0
 40
1.25000813391971
 50
180.000364647548
 51
269.999670038333
  0
ARC
  5
    2F
  8
0
  6
CONTINUOUS
 62
     1
 10
-41.5002621522514
 20
100.749971717654
 30
0.0
 40
29.9997423066705
 50
165.164904903841
 51
194.835095365634
  0
ARC
  5
    30
  8
0
  6
DOT
 62
     1
 10
-71.9999597522443
 20
160.749933035418
 30
0.0
 40
0.750060676953542
 50
90.003609194035
 51
269.995947197267
  0
LINE
  5
    31
  8
0
  6
DOT
 62
     1
 10
-72.0000152587891
 20
161.499984741211
 30
0.0
 11
-71.5000076293945
 21
161.499984741211
 31
0.0
  0
LINE
  5
    32
  8
0
  6
DOT
 62
     1
 10
-72.0000152587891
 20
159.999984741211
 30
0.0
 11
-71.5000076293945
 21
159.999984741211
 31
0.0
  0
LINE
  5
    33
  8
0
  6
DOT
 62
     1
 10
71.4999923706055
 20
161.499984741211
 30
0.0
 11
71.9999923706055
 21
161.499984741211
 31
0.0
  0
LINE
  5
    34
  8
0
  6
DOT
 62
     1
 10
71.4999923706055
 20
159.999984741211
 30
0.0
 11
71.9999923706055
 21
159.999984741211
 31
0.0
  0
ARC
  5
    35
  8
0
  6
DOT
 62
     1
 10
71.999532791106
 20
160.749941254871
 30
0.0
 40
0.750296104915764
 50
270.0
 51
450.0
  0
POINT
  5
    36
  8
0
  6
CONTINUOUS
 62
     1
 10
-2.28881835892954E-5
 20
72.7499785423279
 30
0.0
  0
ENDBLK
  5
    37
  8
0
  6
CONTINUOUS
 62
     7
  0
BLOCK
  5
    38
  8
0
  6
CONTINUOUS
 62
     7
  2
*UDIM535
 70
    65
 10
0.0
 20
0.0
 30
0.0
  3
*UDIM535
  0
TEXT
  5
    39
  8
0
  6
CONTINUOUS
 62
     7
 10
152.721240928572
 20
71.2410499122779
 30
0.0
 40
2.4999999335834
  1
196
 50
89.9999999480344
 41
0.933333333333333
 72
     1
 11
151.471240964724
 21
74.4910498270684
 31
0.0
 73
     2
  0
LINE
  5
    3A
  8
0
  6
CONTINUOUS
 62
     7
 10
132.219997341932
 20
40.4202159702797
 30
0.0
 11
155.721240931515
 21
40.4202159702797
 31
0.0
  0
LINE
  5
    3B
  8
0
  6
CONTINUOUS
 62
     7
 10
131.082500031592
 20
109.020217472315
 30
0.0
 11
155.721240931515
 21
109.020217472315
 31
0.0
  0
LINE
  5
    3C
  8
0
  6
CONTINUOUS
 62
     7
 10
153.721240931515
 20
40.4202159702797
 30
0.0
 11
153.721240931515
 21
109.020217472315
 31
0.0
  0
LINE
  5
    3D
  8
0
  6
CONTINUOUS
 62
     7
 10
153.200296413515
 20
43.3746392319613
 30
0.0
 11
153.721240931515
 21
40.4202159702797
 31
0.0
  0
LINE
  5
    3E
  8
0
  6
CONTINUOUS
 62
     7
 10
153.721240931515
 20
40.4202159702797
 30
0.0
 11
154.242185449516
 21
43.3746392319613
 31
0.0
  0
LINE
  5
    3F
  8
0
  6
CONTINUOUS
 62
     7
 10
154.242185449516
 20
106.065794210633
 30
0.0
 11
153.721240931515
 21
109.020217472315
 31
0.0
  0
LINE
  5
    40
  8
0
  6
CONTINUOUS
 62
     7
 10
153.721240931515
 20
109.020217472315
 30
0.0
 11
153.200296413515
 21
106.065794210633
 31
0.0
  0
ENDBLK
  5
    41
  8
0
  6
CONTINUOUS
 62
     7
  0
BLOCK
  5
    42
  8
0
  6
CONTINUOUS
 62
     7
  2
*UDIM536
 70
    65
 10
0.0
 20
0.0
 30
0.0
  3
*UDIM536
  0
TEXT
  5
    43
  8
0
  6
CONTINUOUS
 62
     7
 10
60.6052943903252
 20
42.9202236966344
 30
0.0
 40
2.4999999335834
  1
148,5
 50
89.9999999480344
 41
0.933333333333333
 72
     1
 11
59.3552944285904
 21
48.5035568827695
 31
0.0
 73
     2
  0
LINE
  5
    44
  8
0
  6
CONTINUOUS
 62
     7
 10
68.7074851099433
 20
22.7452274531163
 30
0.0
 11
59.6052943953821
 21
22.7452274531163
 31
0.0
  0
LINE
  5
    45
  8
0
  6
CONTINUOUS
 62
     7
 10
61.6052943953821
 20
22.7452274531163
 30
0.0
 11
61.6052943953821
 21
74.7202212274078
 31
0.0
  0
LINE
  5
    46
  8
0
  6
CONTINUOUS
 62
     7
 10
61.0843498773817
 20
25.6996507147979
 30
0.0
 11
61.6052943953821
 21
22.7452274531163
 31
0.0
  0
LINE
  5
    47
  8
0
  6
CONTINUOUS
 62
     7
 10
61.6052943953821
 20
22.7452274531163
 30
0.0
 11
62.1262389133824
 21
25.6996507147979
 31
0.0
  0
LINE
  5
    48
  8
0
  6
CONTINUOUS
 62
     7
 10
62.1262389133824
 20
71.7657979657262
 30
0.0
 11
61.6052943953821
 21
74.7202212274078
 31
0.0
  0
LINE
  5
    49
  8
0
  6
CONTINUOUS
 62
     7
 10
61.6052943953821
 20
74.7202212274078
 30
0.0
 11
61.0843498773817
 21
71.7657979657262
 31
0.0
  0
ENDBLK
  5
    4A
  8
0
  6
CONTINUOUS
 62
     7
  0
BLOCK
  5
    4B
  8
0
  6
CONTINUOUS
 62
     7
  2
*UDIM537
 70
    65
 10
0.0
 20
0.0
 30
0.0
  3
*UDIM537
  0
TEXT
  5
    4C
  8
0
  6
CONTINUOUS
 62
     7
 10
146.84150164882
 20
71.2410525825655
 30
0.0
 40
2.4999999335834
  1
140
 50
89.9999999480344
 41
0.933333333333333
 72
     1
 11
145.591501684972
 21
74.4910524973561
 31
0.0
 73
     2
  0
LINE
  5
    4D
  8
0
  6
CONTINUOUS
 62
     7
 10
130.382494702935
 20
50.2202193915848
 30
0.0
 11
149.841501651764
 21
50.2202193915848
 31
0.0
  0
LINE
  5
    4E
  8
0
  6
CONTINUOUS
 62
     7
 10
130.382494702935
 20
99.2202208101753
 30
0.0
 11
149.841501651764
 21
99.2202208101753
 31
0.0
  0
LINE
  5
    4F
  8
0
  6
CONTINUOUS
 62
     7
 10
147.841501651764
 20
50.2202193915848
 30
0.0
 11
147.841501651764
 21
99.2202208101753
 31
0.0
  0
LINE
  5
    50
  8
0
  6
CONTINUOUS
 62
     7
 10
147.320557133763
 20
53.1746426532664
 30
0.0
 11
147.841501651764
 21
50.2202193915848
 31
0.0
  0
LINE
  5
    51
  8
0
  6
CONTINUOUS
 62
     7
 10
147.841501651764
 20
50.2202193915848
 30
0.0
 11
148.362446169764
 21
53.1746426532664
 31
0.0
  0
LINE
  5
    52
  8
0
  6
CONTINUOUS
 62
     7
 10
148.362446169764
 20
96.2657975484937
 30
0.0
 11
147.841501651764
 21
99.2202208101753
 31
0.0
  0
LINE
  5
    53
  8
0
  6
CONTINUOUS
 62
     7
 10
147.841501651764
 20
99.2202208101753
 30
0.0
 11
147.320557133763
 21
96.2657975484937
 31
0.0
  0
ENDBLK
  5
    54
  8
0
  6
CONTINUOUS
 62
     7
  0
BLOCK
  5
    55
  8
0
  6
CONTINUOUS
 62
     7
  2
*UDIM538
 70
    65
 10
0.0
 20
0.0
 30
0.0
  3
*UDIM538
  0
TEXT
  5
    56
  8
0
  6
CONTINUOUS
 62
     7
 10
101.578329142638
 20
17.4878346793062
 30
0.0
 40
2.4999999335834
  1
140
 50
359.999999948034
 41
0.933333333333333
 72
     1
 11
104.828329057424
 21
18.7378346431666
 31
0.0
 73
     2
  0
LINE
  5
    57
  8
0
  6
CONTINUOUS
 62
     7
 10
129.557494699955
 20
49.3952193886046
 30
0.0
 11
129.557494699955
 21
14.4878346763749
 31
0.0
  0
LINE
  5
    58
  8
0
  6
CONTINUOUS
 62
     7
 10
80.55749553442
 20
49.3952193886046
 30
0.0
 11
80.55749553442
 21
14.4878346763749
 31
0.0
  0
LINE
  5
    59
  8
0
  6
CONTINUOUS
 62
     7
 10
129.557494699955
 20
16.4878346763749
 30
0.0
 11
80.55749553442
 21
16.4878346763749
 31
0.0
  0
LINE
  5
    5A
  8
0
  6
CONTINUOUS
 62
     7
 10
126.603071438273
 20
15.9668901583745
 30
0.0
 11
129.557494699955
 21
16.4878346763749
 31
0.0
  0
LINE
  5
    5B
  8
0
  6
CONTINUOUS
 62
     7
 10
129.557494699955
 20
16.4878346763749
 30
0.0
 11
126.603071438273
 21
17.0087791943752
 31
0.0
  0
LINE
  5
    5C
  8
0
  6
CONTINUOUS
 62
     7
 10
83.5119187961016
 20
17.0087791943752
 30
0.0
 11
80.55749553442
 21
16.4878346763749
 31
0.0
  0
LINE
  5
    5D
  8
0
  6
CONTINUOUS
 62
     7
 10
80.55749553442
 20
16.4878346763749
 30
0.0
 11
83.5119187961016
 21
15.9668901583745
 31
0.0
  0
ENDBLK
  5
    5E
  8
0
  6
CONTINUOUS
 62
     7
  0
BLOCK
  5
    5F
  8
0
  6
CONTINUOUS
 62
     7
  2
*UDIM539
 70
    65
 10
0.0
 20
0.0
 30
0.0
  3
*UDIM539
  0
TEXT
  5
    60
  8
0
  6
CONTINUOUS
 62
     7
 10
101.578331812926
 20
11.3709391078171
 30
0.0
 40
2.4999999335834
  1
152
 50
359.999999948034
 41
0.933333333333333
 72
     1
 11
104.828331727712
 21
12.6209390716775
 31
0.0
 73
     2
  0
LINE
  5
    61
  8
0
  6
CONTINUOUS
 62
     7
 10
131.65749733448
 20
39.8577219709757
 30
0.0
 11
131.65749733448
 21
8.37093910488579
 31
0.0
  0
LINE
  5
    62
  8
0
  6
CONTINUOUS
 62
     7
 10
78.4574982404709
 20
39.8577099546796
 30
0.0
 11
78.4574982404709
 21
8.37093910488579
 31
0.0
  0
LINE
  5
    63
  8
0
  6
CONTINUOUS
 62
     7
 10
131.65749733448
 20
10.3709391048858
 30
0.0
 11
78.4574982404709
 21
10.3709391048858
 31
0.0
  0
LINE
  5
    64
  8
0
  6
CONTINUOUS
 62
     7
 10
128.703074072799
 20
9.84999458688545
 30
0.0
 11
131.65749733448
 21
10.3709391048858
 31
0.0
  0
LINE
  5
    65
  8
0
  6
CONTINUOUS
 62
     7
 10
131.65749733448
 20
10.3709391048858
 30
0.0
 11
128.703074072799
 21
10.8918836228861
 31
0.0
  0
LINE
  5
    66
  8
0
  6
CONTINUOUS
 62
     7
 10
81.4119215021525
 20
10.8918836228861
 30
0.0
 11
78.4574982404709
 21
10.3709391048858
 31
0.0
  0
LINE
  5
    67
  8
0
  6
CONTINUOUS
 62
     7
 10
78.4574982404709
 20
10.3709391048858
 30
0.0
 11
81.4119215021525
 21
9.84999458688545
 31
0.0
  0
ENDBLK
  5
    68
  8
0
  6
CONTINUOUS
 62
     7
  0
BLOCK
  5
    69
  8
0
  6
CONTINUOUS
 62
     7
  2
*UDIM540
 70
    65
 10
0.0
 20
0.0
 30
0.0
  3
*UDIM540
  0
TEXT
  5
    6A
  8
0
  6
CONTINUOUS
 62
     7
 10
53.2011757898922
 20
90.3160656091611
 30
0.0
 40
2.4999999335834
  1
406
 50
89.9999999480344
 41
0.933333333333333
 72
     1
 11
51.9511758260441
 21
93.5660655239517
 31
0.0
 73
     2
  0
LINE
  5
    6B
  8
0
  6
CONTINUOUS
 62
     7
 10
68.7074851099433
 20
22.7452274531163
 30
0.0
 11
52.2011757928358
 21
22.7452274531163
 31
0.0
  0
LINE
  5
    6C
  8
0
  6
CONTINUOUS
 62
     7
 10
68.5325000878956
 20
164.84524105489
 30
0.0
 11
52.2011757928358
 21
164.84524105489
 31
0.0
  0
LINE
  5
    6D
  8
0
  6
CONTINUOUS
 62
     7
 10
54.2011757928358
 20
22.7452274531163
 30
0.0
 11
54.2011757928358
 21
164.84524105489
 31
0.0
  0
LINE
  5
    6E
  8
0
  6
CONTINUOUS
 62
     7
 10
53.6802312748355
 20
25.6996507147979
 30
0.0
 11
54.2011757928358
 21
22.7452274531163
 31
0.0
  0
LINE
  5
    6F
  8
0
  6
CONTINUOUS
 62
     7
 10
54.2011757928358
 20
22.7452274531163
 30
0.0
 11
54.7221203108361
 21
25.6996507147979
 31
0.0
  0
LINE
  5
    70
  8
0
  6
CONTINUOUS
 62
     7
 10
54.7221203108361
 20
161.890817793209
 30
0.0
 11
54.2011757928358
 21
164.84524105489
 31
0.0
  0
LINE
  5
    71
  8
0
  6
CONTINUOUS
 62
     7
 10
54.2011757928358
 20
164.84524105489
 30
0.0
 11
53.6802312748355
 21
161.890817793209
 31
0.0
  0
ENDBLK
  5
    72
  8
0
  6
CONTINUOUS
 62
     7
  0
BLOCK
  5
    73
  8
0
  6
CONTINUOUS
 62
     7
  2
*UDIM541
 70
    65
 10
0.0
 20
0.0
 30
0.0
  3
*UDIM541
  0
TEXT
  5
    74
  8
0
  6
CONTINUOUS
 62
     7
 10
101.578337141626
 20
174.68352063143
 30
0.0
 40
2.4999999335834
  1
210
 50
359.999999948034
 41
0.933333333333333
 72
     1
 11
104.828337056411
 21
175.93352059529
 31
0.0
 73
     2
  0
LINE
  5
    75
  8
0
  6
CONTINUOUS
 62
     7
 10
141.80750228171
 20
164.795235732198
 30
0.0
 11
141.80750228171
 21
175.683520628499
 31
0.0
  0
LINE
  5
    76
  8
0
  6
CONTINUOUS
 62
     7
 10
68.3075035334076
 20
164.795235732198
 30
0.0
 11
68.3075035334076
 21
175.683520628499
 31
0.0
  0
LINE
  5
    77
  8
0
  6
CONTINUOUS
 62
     7
 10
141.80750228171
 20
173.683520628499
 30
0.0
 11
68.3075035334076
 21
173.683520628499
 31
0.0
  0
LINE
  5
    78
  8
0
  6
CONTINUOUS
 62
     7
 10
138.853079020028
 20
173.162576110498
 30
0.0
 11
141.80750228171
 21
173.683520628499
 31
0.0
  0
LINE
  5
    79
  8
0
  6
CONTINUOUS
 62
     7
 10
141.80750228171
 20
173.683520628499
 30
0.0
 11
138.853079020028
 21
174.204465146499
 31
0.0
  0
LINE
  5
    7A
  8
0
  6
CONTINUOUS
 62
     7
 10
71.2619267950892
 20
174.204465146499
 30
0.0
 11
68.3075035334076
 21
173.683520628499
 31
0.0
  0
LINE
  5
    7B
  8
0
  6
CONTINUOUS
 62
     7
 10
68.3075035334076
 20
173.683520628499
 30
0.0
 11
71.2619267950892
 21
173.162576110498
 31
0.0
  0
ENDBLK
  5
    7C
  8
0
  6
CONTINUOUS
 62
     7
  0
BLOCK
  5
    7D
  8
0
  6
CONTINUOUS
 62
     7
  2
*HATCH72
 70
    65
 10
0.0
 20
0.0
 30
0.0
  3
*HATCH72
  0
LINE
  5
    7E
  8
0
  6
CONTINUOUS
 62
    52
 10
139.993118286133
 20
335.154571533203
 30
0.0
 11
137.963439941406
 21
333.124908447266
 31
0.0
  0
LINE
  5
    7F
  8
0
  6
CONTINUOUS
 62
    52
 10
139.992172241211
 20
330.910980224609
 30
0.0
 11
137.964385986328
 21
328.883209228516
 31
0.0
  0
LINE
  5
    80
  8
0
  6
CONTINUOUS
 62
    52
 10
139.991226196289
 20
326.667388916016
 30
0.0
 11
137.96533203125
 21
324.641510009766
 31
0.0
  0
LINE
  5
    81
  8
0
  6
CONTINUOUS
 62
    52
 10
139.990280151367
 20
322.423797607422
 30
0.0
 11
137.966278076172
 21
320.399810791016
 31
0.0
  0
LINE
  5
    82
  8
0
  6
CONTINUOUS
 62
    52
 10
139.989334106445
 20
318.180206298828
 30
0.0
 11
137.967224121094
 21
316.158111572266
 31
0.0
  0
LINE
  5
    83
  8
0
  6
CONTINUOUS
 62
    52
 10
139.988388061523
 20
313.936614990234
 30
0.0
 11
137.968170166016
 21
311.916412353516
 31
0.0
  0
LINE
  5
    84
  8
0
  6
CONTINUOUS
 62
    52
 10
139.987442016602
 20
309.693023681641
 30
0.0
 11
137.969116210938
 21
307.674713134766
 31
0.0
  0
LINE
  5
    85
  8
0
  6
CONTINUOUS
 62
    52
 10
139.98649597168
 20
305.449432373047
 30
0.0
 11
137.970062255859
 21
303.433013916016
 31
0.0
  0
LINE
  5
    86
  8
0
  6
CONTINUOUS
 62
    52
 10
139.985549926758
 20
301.205841064453
 30
0.0
 11
137.971008300781
 21
299.191314697266
 31
0.0
  0
LINE
  5
    87
  8
0
  6
CONTINUOUS
 62
    52
 10
139.984603881836
 20
296.962249755859
 30
0.0
 11
137.971954345703
 21
294.949615478516
 31
0.0
  0
LINE
  5
    88
  8
0
  6
CONTINUOUS
 62
    52
 10
139.983657836914
 20
292.718658447266
 30
0.0
 11
137.972900390625
 21
290.707916259766
 31
0.0
  0
LINE
  5
    89
  8
0
  6
CONTINUOUS
 62
    52
 10
139.982711791992
 20
288.475067138672
 30
0.0
 11
137.973846435547
 21
286.466217041016
 31
0.0
  0
LINE
  5
    8A
  8
0
  6
CONTINUOUS
 62
    52
 10
139.98176574707
 20
284.231475830078
 30
0.0
 11
137.974792480469
 21
282.224517822266
 31
0.0
  0
LINE
  5
    8B
  8
0
  6
CONTINUOUS
 62
    52
 10
139.980819702148
 20
279.987884521484
 30
0.0
 11
137.975738525391
 21
277.982818603516
 31
0.0
  0
LINE
  5
    8C
  8
0
  6
CONTINUOUS
 62
    52
 10
139.979873657227
 20
275.744293212891
 30
0.0
 11
137.976684570313
 21
273.741119384766
 31
0.0
  0
LINE
  5
    8D
  8
0
  6
CONTINUOUS
 62
    52
 10
139.978927612305
 20
271.500701904297
 30
0.0
 11
137.977630615234
 21
269.499420166016
 31
0.0
  0
LINE
  5
    8E
  8
0
  6
CONTINUOUS
 62
    52
 10
139.977981567383
 20
267.257110595703
 30
0.0
 11
137.978576660156
 21
265.257720947266
 31
0.0
  0
LINE
  5
    8F
  8
0
  6
CONTINUOUS
 62
    52
 10
139.977035522461
 20
263.013519287109
 30
0.0
 11
137.979522705078
 21
261.016021728516
 31
0.0
  0
LINE
  5
    90
  8
0
  6
CONTINUOUS
 62
    52
 10
139.976089477539
 20
258.769927978516
 30
0.0
 11
137.98046875
 21
256.774322509766
 31
0.0
  0
LINE
  5
    91
  8
0
  6
CONTINUOUS
 62
    52
 10
139.975143432617
 20
254.526336669922
 30
0.0
 11
137.981414794922
 21
252.532623291016
 31
0.0
  0
LINE
  5
    92
  8
0
  6
CONTINUOUS
 62
    52
 10
139.974197387695
 20
250.282745361328
 30
0.0
 11
137.982360839844
 21
248.290924072266
 31
0.0
  0
LINE
  5
    93
  8
0
  6
CONTINUOUS
 62
    52
 10
139.973251342773
 20
246.039154052734
 30
0.0
 11
137.983306884766
 21
244.049224853516
 31
0.0
  0
LINE
  5
    94
  8
0
  6
CONTINUOUS
 62
    52
 10
139.972305297852
 20
241.795562744141
 30
0.0
 11
137.984252929688
 21
239.807525634766
 31
0.0
  0
LINE
  5
    95
  8
0
  6
CONTINUOUS
 62
    52
 10
139.97135925293
 20
237.551971435547
 30
0.0
 11
137.985198974609
 21
235.565826416016
 31
0.0
  0
LINE
  5
    96
  8
0
  6
CONTINUOUS
 62
    52
 10
139.970413208008
 20
233.308380126953
 30
0.0
 11
137.986145019531
 21
231.324127197266
 31
0.0
  0
LINE
  5
    97
  8
0
  6
CONTINUOUS
 62
    52
 10
139.969467163086
 20
229.064788818359
 30
0.0
 11
137.987091064453
 21
227.082427978516
 31
0.0
  0
LINE
  5
    98
  8
0
  6
CONTINUOUS
 62
    52
 10
139.968521118164
 20
224.821197509766
 30
0.0
 11
137.988037109375
 21
222.840728759766
 31
0.0
  0
LINE
  5
    99
  8
0
  6
CONTINUOUS
 62
    52
 10
139.967575073242
 20
220.577606201172
 30
0.0
 11
137.988983154297
 21
218.599029541016
 31
0.0
  0
LINE
  5
    9A
  8
0
  6
CONTINUOUS
 62
    52
 10
139.96662902832
 20
216.334014892578
 30
0.0
 11
137.989929199219
 21
214.357330322266
 31
0.0
  0
LINE
  5
    9B
  8
0
  6
CONTINUOUS
 62
    52
 10
139.965682983398
 20
212.090423583984
 30
0.0
 11
137.990875244141
 21
210.115631103516
 31
0.0
  0
LINE
  5
    9C
  8
0
  6
CONTINUOUS
 62
    52
 10
139.964736938477
 20
207.846832275391
 30
0.0
 11
137.991821289063
 21
205.873931884766
 31
0.0
  0
LINE
  5
    9D
  8
0
  6
CONTINUOUS
 62
    52
 10
139.963790893555
 20
203.603240966797
 30
0.0
 11
137.992767333984
 21
201.632232666016
 31
0.0
  0
LINE
  5
    9E
  8
0
  6
CONTINUOUS
 62
    52
 10
139.962844848633
 20
199.359649658203
 30
0.0
 11
137.993713378906
 21
197.390533447266
 31
0.0
  0
LINE
  5
    9F
  8
0
  6
CONTINUOUS
 62
    52
 10
139.961898803711
 20
195.116058349609
 30
0.0
 11
137.994659423828
 21
193.148834228516
 31
0.0
  0
LINE
  5
    A0
  8
0
  6
CONTINUOUS
 62
    52
 10
139.960952758789
 20
190.872467041016
 30
0.0
 11
137.99560546875
 21
188.907135009766
 31
0.0
  0
LINE
  5
    A1
  8
0
  6
CONTINUOUS
 62
    52
 10
139.960006713867
 20
186.628875732422
 30
0.0
 11
137.996551513672
 21
184.665435791016
 31
0.0
  0
LINE
  5
    A2
  8
0
  6
CONTINUOUS
 62
    52
 10
139.959060668945
 20
182.385284423828
 30
0.0
 11
137.997497558594
 21
180.423736572266
 31
0.0
  0
LINE
  5
    A3
  8
0
  6
CONTINUOUS
 62
    52
 10
139.958114624023
 20
178.141693115234
 30
0.0
 11
137.998443603516
 21
176.182037353516
 31
0.0
  0
LINE
  5
    A4
  8
0
  6
CONTINUOUS
 62
    52
 10
139.957168579102
 20
173.898101806641
 30
0.0
 11
137.999389648438
 21
171.940338134766
 31
0.0
  0
LINE
  5
    A5
  8
0
  6
CONTINUOUS
 62
    52
 10
139.95622253418
 20
169.654510498047
 30
0.0
 11
138.000335693359
 21
167.698638916016
 31
0.0
  0
LINE
  5
    A6
  8
0
  6
CONTINUOUS
 62
    52
 10
139.955276489258
 20
165.410919189453
 30
0.0
 11
138.001281738281
 21
163.456939697266
 31
0.0
  0
LINE
  5
    A7
  8
0
  6
CONTINUOUS
 62
    52
 10
139.954330444336
 20
161.167327880859
 30
0.0
 11
138.002227783203
 21
159.215240478516
 31
0.0
  0
LINE
  5
    A8
  8
0
  6
CONTINUOUS
 62
    52
 10
139.953384399414
 20
156.923736572266
 30
0.0
 11
138.003173828125
 21
154.973541259766
 31
0.0
  0
ENDBLK
  5
    A9
  8
0
  6
CONTINUOUS
 62
     7
  0
BLOCK
  5
    AA
  8
0
  6
CONTINUOUS
 62
     7
  2
*HATCH73
 70
    65
 10
0.0
 20
0.0
 30
0.0
  3
*HATCH73
  0
LINE
  5
    AB
  8
0
  6
CONTINUOUS
 62
    52
 10
139.814422607422
 20
6.17123985290527
 30
0.0
 11
137.852127075195
 21
4.2089467048645
 31
0.0
  0
LINE
  5
    AC
  8
0
  6
CONTINUOUS
 62
    52
 10
139.825103759766
 20
1.93928360939026
 30
0.0
 11
137.841537475586
 21
-4.42690849304199E-2
 31
0.0
  0
LINE
  5
    AD
  8
0
  6
CONTINUOUS
 62
    52
 10
139.835784912109
 20
-2.29267239570618
 30
0.0
 11
137.830947875977
 21
-4.29748487472534
 31
0.0
  0
LINE
  5
    AE
  8
0
  6
CONTINUOUS
 62
    52
 10
139.846466064453
 20
-6.52462863922119
 30
0.0
 11
137.820358276367
 21
-8.55070114135742
 31
0.0
  0
LINE
  5
    AF
  8
0
  6
CONTINUOUS
 62
    52
 10
139.857147216797
 20
-10.7565851211548
 30
0.0
 11
137.809768676758
 21
-12.8039169311523
 31
0.0
  0
LINE
  5
    B0
  8
0
  6
CONTINUOUS
 62
    52
 10
139.867828369141
 20
-14.9885416030884
 30
0.0
 11
137.799179077148
 21
-17.0571327209473
 31
0.0
  0
LINE
  5
    B1
  8
0
  6
CONTINUOUS
 62
    52
 10
139.878509521484
 20
-19.2204971313477
 30
0.0
 11
137.788589477539
 21
-21.3103485107422
 31
0.0
  0
LINE
  5
    B2
  8
0
  6
CONTINUOUS
 62
    52
 10
139.889190673828
 20
-23.4524536132813
 30
0.0
 11
137.77799987793
 21
-25.5635643005371
 31
0.0
  0
LINE
  5
    B3
  8
0
  6
CONTINUOUS
 62
    52
 10
139.899871826172
 20
-27.6844100952148
 30
0.0
 11
137.76741027832
 21
-29.816780090332
 31
0.0
  0
LINE
  5
    B4
  8
0
  6
CONTINUOUS
 62
    52
 10
139.910552978516
 20
-31.9163665771484
 30
0.0
 11
137.756820678711
 21
-34.069995880127
 31
0.0
  0
LINE
  5
    B5
  8
0
  6
CONTINUOUS
 62
    52
 10
139.921234130859
 20
-36.148323059082
 30
0.0
 11
137.746231079102
 21
-38.3232116699219
 31
0.0
  0
LINE
  5
    B6
  8
0
  6
CONTINUOUS
 62
    52
 10
139.931915283203
 20
-40.3802795410156
 30
0.0
 11
137.735641479492
 21
-42.5764312744141
 31
0.0
  0
LINE
  5
    B7
  8
0
  6
CONTINUOUS
 62
    52
 10
139.942596435547
 20
-44.6122360229492
 30
0.0
 11
137.725051879883
 21
-46.8296508789062
 31
0.0
  0
LINE
  5
    B8
  8
0
  6
CONTINUOUS
 62
    52
 10
139.953277587891
 20
-48.8441925048828
 30
0.0
 11
137.714462280273
 21
-51.0828704833984
 31
0.0
  0
LINE
  5
    B9
  8
0
  6
CONTINUOUS
 62
    52
 10
139.963958740234
 20
-53.0761489868164
 30
0.0
 11
137.703872680664
 21
-55.3360900878906
 31
0.0
  0
LINE
  5
    BA
  8
0
  6
CONTINUOUS
 62
    52
 10
139.974639892578
 20
-57.30810546875
 30
0.0
 11
137.693283081055
 21
-59.5893096923828
 31
0.0
  0
LINE
  5
    BB
  8
0
  6
CONTINUOUS
 62
    52
 10
139.985321044922
 20
-61.5400619506836
 30
0.0
 11
137.682693481445
 21
-63.842529296875
 31
0.0
  0
LINE
  5
    BC
  8
0
  6
CONTINUOUS
 62
    52
 10
139.996002197266
 20
-65.7720184326172
 30
0.0
 11
137.672103881836
 21
-68.0957489013672
 31
0.0
  0
LINE
  5
    BD
  8
0
  6
CONTINUOUS
 62
    52
 10
140.006683349609
 20
-70.0039672851563
 30
0.0
 11
137.661514282227
 21
-72.3489685058594
 31
0.0
  0
LINE
  5
    BE
  8
0
  6
CONTINUOUS
 62
    52
 10
140.017364501953
 20
-74.2359161376953
 30
0.0
 11
137.650924682617
 21
-76.6021881103516
 31
0.0
  0
LINE
  5
    BF
  8
0
  6
CONTINUOUS
 62
    52
 10
140.028045654297
 20
-78.4678649902344
 30
0.0
 11
137.640335083008
 21
-80.8554077148438
 31
0.0
  0
ENDBLK
  5
    C0
  8
0
  6
CONTINUOUS
 62
     7
  0
BLOCK
  5
    C1
  8
0
  6
CONTINUOUS
 62
     7
  2
*HATCH74
 70
    65
 10
0.0
 20
0.0
 30
0.0
  3
*HATCH74
  0
LINE
  5
    C2
  8
0
  6
CONTINUOUS
 62
   210
 10
139.999374389648
 20
-14.8415689468384
 30
0.0
 11
142.157836914063
 21
-17.0000438690186
 31
0.0
  0
LINE
  5
    C3
  8
0
  6
CONTINUOUS
 62
   210
 10
139.999374389648
 20
-10.5989246368408
 30
0.0
 11
143.499374389648
 21
-14.0989294052124
 31
0.0
  0
LINE
  5
    C4
  8
0
  6
CONTINUOUS
 62
   210
 10
139.999374389648
 20
-6.35628128051758
 30
0.0
 11
143.499374389648
 21
-9.85628604888916
 31
0.0
  0
LINE
  5
    C5
  8
0
  6
CONTINUOUS
 62
   210
 10
139.999374389648
 20
-2.11363792419434
 30
0.0
 11
143.499374389648
 21
-5.61364269256592
 31
0.0
  0
LINE
  5
    C6
  8
0
  6
CONTINUOUS
 62
   210
 10
139.999374389648
 20
2.12900543212891
 30
0.0
 11
143.499374389648
 21
-1.37099933624268
 31
0.0
  0
LINE
  5
    C7
  8
0
  6
CONTINUOUS
 62
   210
 10
139.999374389648
 20
6.37164878845215
 30
0.0
 11
143.499374389648
 21
2.87164402008057
 31
0.0
  0
LINE
  5
    C8
  8
0
  6
CONTINUOUS
 62
   210
 10
139.999374389648
 20
8.49296951293945
 30
0.0
 11
143.499374389648
 21
4.99296569824219
 31
0.0
  0
LINE
  5
    C9
  8
0
  6
CONTINUOUS
 62
   210
 10
142.23503112793
 20
10.4999561309814
 30
0.0
 11
143.499374389648
 21
9.23560905456543
 31
0.0
  0
ENDBLK
  5
    CA
  8
0
  6
CONTINUOUS
 62
     7
  0
BLOCK
  5
    CB
  8
0
  6
CONTINUOUS
 62
     7
  2
*HATCH75
 70
    65
 10
0.0
 20
0.0
 30
0.0
  3
*HATCH75
  0
LINE
  5
    CC
  8
0
  6
CONTINUOUS
 62
   210
 10
139.242248535156
 20
153.499969482422
 30
0.0
 11
141.242248535156
 21
151.499954223633
 31
0.0
  0
LINE
  5
    CD
  8
0
  6
CONTINUOUS
 62
   210
 10
139.999374389648
 20
156.985488891602
 30
0.0
 11
143.499374389648
 21
153.485488891602
 31
0.0
  0
LINE
  5
    CE
  8
0
  6
CONTINUOUS
 62
   210
 10
139.999374389648
 20
161.228134155273
 30
0.0
 11
143.499374389648
 21
157.728134155273
 31
0.0
  0
LINE
  5
    CF
  8
0
  6
CONTINUOUS
 62
   210
 10
139.999374389648
 20
165.470779418945
 30
0.0
 11
143.499374389648
 21
161.970779418945
 31
0.0
  0
LINE
  5
    D0
  8
0
  6
CONTINUOUS
 62
   210
 10
139.999374389648
 20
169.713424682617
 30
0.0
 11
143.499374389648
 21
166.213424682617
 31
0.0
  0
LINE
  5
    D1
  8
0
  6
CONTINUOUS
 62
   210
 10
139.999374389648
 20
173.956069946289
 30
0.0
 11
143.499374389648
 21
170.456069946289
 31
0.0
  0
LINE
  5
    D2
  8
0
  6
CONTINUOUS
 62
   210
 10
139.999374389648
 20
178.198715209961
 30
0.0
 11
143.499374389648
 21
174.698715209961
 31
0.0
  0
LINE
  5
    D3
  8
0
  6
CONTINUOUS
 62
   210
 10
143.440765380859
 20
178.999954223633
 30
0.0
 11
143.499374389648
 21
178.941345214844
 31
0.0
  0
ENDBLK
  5
    D4
  8
0
  6
CONTINUOUS
 62
     7
  0
BLOCK
  5
    D5
  8
0
  6
CONTINUOUS
 62
     7
  2
*HATCH76
 70
    65
 10
0.0
 20
0.0
 30
0.0
  3
*HATCH76
  0
LINE
  5
    D6
  8
0
  6
CONTINUOUS
 62
   210
 10
128.499374389648
 20
155.757568359375
 30
0.0
 11
130.999374389648
 21
153.257553100586
 31
0.0
  0
LINE
  5
    D7
  8
0
  6
CONTINUOUS
 62
   210
 10
128.499374389648
 20
160.000213623047
 30
0.0
 11
130.999374389648
 21
157.500198364258
 31
0.0
  0
LINE
  5
    D8
  8
0
  6
CONTINUOUS
 62
   210
 10
128.682418823242
 20
164.059814453125
 30
0.0
 11
130.999374389648
 21
161.74284362793
 31
0.0
  0
LINE
  5
    D9
  8
0
  6
CONTINUOUS
 62
   210
 10
130.747482299805
 20
166.237380981445
 30
0.0
 11
132.984893798828
 21
163.999969482422
 31
0.0
  0
LINE
  5
    DA
  8
0
  6
CONTINUOUS
 62
   210
 10
134.696350097656
 20
166.531158447266
 30
0.0
 11
136.537536621094
 21
164.689971923828
 31
0.0
  0
LINE
  5
    DB
  8
0
  6
CONTINUOUS
 62
   210
 10
135.499374389648
 20
169.970764160156
 30
0.0
 11
137.995986938477
 21
167.474166870117
 31
0.0
  0
LINE
  5
    DC
  8
0
  6
CONTINUOUS
 62
   210
 10
135.499374389648
 20
174.213409423828
 30
0.0
 11
137.999374389648
 21
171.713424682617
 31
0.0
  0
ENDBLK
  5
    DD
  8
0
  6
CONTINUOUS
 62
     7
  0
BLOCK
  5
    DE
  8
0
  6
CONTINUOUS
 62
     7
  2
*UDIM542
 70
    65
 10
0.0
 20
0.0
 30
0.0
  3
*UDIM542
  0
TEXT
  5
    DF
  8
0
  6
CONTINUOUS
 62
     7
 10
179.222140380258
 20
177.762191840718
 30
0.0
 40
2.4999999335834
  1
3
 41
0.933333333333333
 72
     1
 11
180.138807022572
 21
179.012191807509
 31
0.0
 73
     2
  0
TEXT
  5
    E0
  8
0
  6
CONTINUOUS
 62
     7
 10
176.930473782165
 20
177.762191840718
 30
0.0
 40
2.4999999335834
  1
_
 41
0.933333333333333
 72
     1
 11
177.847140424479
 21
179.012191807509
 31
0.0
 73
     2
  0
LINE
  5
    E1
  8
0
  6
CONTINUOUS
 62
     7
 10
184.513806948066
 20
172.962430069427
 30
0.0
 11
184.513806948066
 21
178.762191840718
 31
0.0
  0
LINE
  5
    E2
  8
0
  6
CONTINUOUS
 62
     7
 10
185.563812270761
 20
173.107850750742
 30
0.0
 11
185.563812270761
 21
178.762191840718
 31
0.0
  0
LINE
  5
    E3
  8
0
  6
CONTINUOUS
 62
     7
 10
176.930473782165
 20
176.762191840718
 30
0.0
 11
185.563812270761
 21
176.762191840718
 31
0.0
  0
LINE
  5
    E4
  8
0
  6
CONTINUOUS
 62
     7
 10
181.559383686384
 20
176.241247322717
 30
0.0
 11
184.513806948066
 21
176.762191840718
 31
0.0
  0
LINE
  5
    E5
  8
0
  6
CONTINUOUS
 62
     7
 10
184.513806948066
 20
176.762191840718
 30
0.0
 11
181.559383686384
 21
177.283136358718
 31
0.0
  0
LINE
  5
    E6
  8
0
  6
CONTINUOUS
 62
     7
 10
188.518235532442
 20
177.283136358718
 30
0.0
 11
185.563812270761
 21
176.762191840718
 31
0.0
  0
LINE
  5
    E7
  8
0
  6
CONTINUOUS
 62
     7
 10
185.563812270761
 20
176.762191840718
 30
0.0
 11
188.518235532442
 21
176.241247322717
 31
0.0
  0
ENDBLK
  5
    E8
  8
0
  6
CONTINUOUS
 62
     7
  0
BLOCK
  5
    E9
  8
0
  6
CONTINUOUS
 62
     7
  2
*UDIM543
 70
    65
 10
0.0
 20
0.0
 30
0.0
  3
*UDIM543
  0
TEXT
  5
    EA
  8
0
  6
CONTINUOUS
 62
     7
 10
197.863800638658
 20
177.762191840718
 30
0.0
 40
2.4999999335834
  1
103,5
 41
0.933333333333333
 72
     1
 11
203.447133823661
 21
179.012191807509
 31
0.0
 73
     2
  0
LINE
  5
    EB
  8
0
  6
CONTINUOUS
 62
     7
 10
221.788790291547
 20
92.0827262893322
 30
0.0
 11
221.788790291547
 21
178.762191840718
 31
0.0
  0
LINE
  5
    EC
  8
0
  6
CONTINUOUS
 62
     7
 10
185.563812270761
 20
176.762191840718
 30
0.0
 11
221.788790291547
 21
176.762191840718
 31
0.0
  0
LINE
  5
    ED
  8
0
  6
CONTINUOUS
 62
     7
 10
188.518235532442
 20
177.283136358718
 30
0.0
 11
185.563812270761
 21
176.762191840718
 31
0.0
  0
LINE
  5
    EE
  8
0
  6
CONTINUOUS
 62
     7
 10
185.563812270761
 20
176.762191840718
 30
0.0
 11
188.518235532442
 21
176.241247322717
 31
0.0
  0
LINE
  5
    EF
  8
0
  6
CONTINUOUS
 62
     7
 10
218.834367029865
 20
176.241247322717
 30
0.0
 11
221.788790291547
 21
176.762191840718
 31
0.0
  0
LINE
  5
    F0
  8
0
  6
CONTINUOUS
 62
     7
 10
221.788790291547
 20
176.762191840718
 30
0.0
 11
218.834367029865
 21
177.283136358718
 31
0.0
  0
ENDBLK
  5
    F1
  8
0
  6
CONTINUOUS
 62
     7
  0
BLOCK
  5
    F2
  8
0
  6
CONTINUOUS
 62
     7
  2
*UDIM544
 70
    65
 10
0.0
 20
0.0
 30
0.0
  3
*UDIM544
  0
TEXT
  5
    F3
  8
0
  6
CONTINUOUS
 62
     7
 10
225.9511900672
 20
177.762191840718
 30
0.0
 40
2.4999999335834
  1
37
 41
0.933333333333333
 72
     1
 11
228.034523345186
 21
179.012191807509
 31
0.0
 73
     2
  0
LINE
  5
    F4
  8
0
  6
CONTINUOUS
 62
     7
 10
234.738591772767
 20
165.502082023067
 30
0.0
 11
234.738591772767
 21
178.762191840718
 31
0.0
  0
LINE
  5
    F5
  8
0
  6
CONTINUOUS
 62
     7
 10
221.788790291547
 20
176.762191840718
 30
0.0
 11
234.738591772767
 21
176.762191840718
 31
0.0
  0
LINE
  5
    F6
  8
0
  6
CONTINUOUS
 62
     7
 10
224.743213553228
 20
177.283136358718
 30
0.0
 11
221.788790291547
 21
176.762191840718
 31
0.0
  0
LINE
  5
    F7
  8
0
  6
CONTINUOUS
 62
     7
 10
221.788790291547
 20
176.762191840718
 30
0.0
 11
224.743213553228
 21
176.241247322717
 31
0.0
  0
LINE
  5
    F8
  8
0
  6
CONTINUOUS
 62
     7
 10
231.784168511085
 20
176.241247322717
 30
0.0
 11
234.738591772767
 21
176.762191840718
 31
0.0
  0
LINE
  5
    F9
  8
0
  6
CONTINUOUS
 62
     7
 10
234.738591772767
 20
176.762191840718
 30
0.0
 11
231.784168511085
 21
177.283136358718
 31
0.0
  0
ENDBLK
  5
    FA
  8
0
  6
CONTINUOUS
 62
     7
  0
BLOCK
  5
    FB
  8
0
  6
CONTINUOUS
 62
     7
  2
*UDIM545
 70
    65
 10
0.0
 20
0.0
 30
0.0
  3
*UDIM545
  0
TEXT
  5
    FC
  8
0
  6
CONTINUOUS
 62
     7
 10
238.438591464185
 20
177.762191840718
 30
0.0
 40
2.4999999335834
  1
2
 41
0.933333333333333
 72
     1
 11
239.355258106499
 21
179.012191807509
 31
0.0
 73
     2
  0
LINE
  5
    FD
  8
0
  6
CONTINUOUS
 62
     7
 10
235.438591760846
 20
165.28614635423
 30
0.0
 11
235.438591760846
 21
178.762191840718
 31
0.0
  0
LINE
  5
    FE
  8
0
  6
CONTINUOUS
 62
     7
 10
234.738591772767
 20
176.762191840718
 30
0.0
 11
240.271924748813
 21
176.762191840718
 31
0.0
  0
LINE
  5
    FF
  8
0
  6
CONTINUOUS
 62
     7
 10
231.784168511085
 20
176.241247322717
 30
0.0
 11
234.738591772767
 21
176.762191840718
 31
0.0
  0
LINE
  5
   100
  8
0
  6
CONTINUOUS
 62
     7
 10
234.738591772767
 20
176.762191840718
 30
0.0
 11
231.784168511085
 21
177.283136358718
 31
0.0
  0
LINE
  5
   101
  8
0
  6
CONTINUOUS
 62
     7
 10
238.393015022528
 20
177.283136358718
 30
0.0
 11
235.438591760846
 21
176.762191840718
 31
0.0
  0
LINE
  5
   102
  8
0
  6
CONTINUOUS
 62
     7
 10
235.438591760846
 20
176.762191840718
 30
0.0
 11
238.393015022528
 21
176.241247322717
 31
0.0
  0
ENDBLK
  5
   103
  8
0
  6
CONTINUOUS
 62
     7
  0
BLOCK
  5
   104
  8
0
  6
CONTINUOUS
 62
     7
  2
*UDIM546
 70
    65
 10
0.0
 20
0.0
 30
0.0
  3
*UDIM546
  0
TEXT
  5
   105
  8
0
  6
CONTINUOUS
 62
     7
 10
224.523168493061
 20
11.4620706951307
 30
0.0
 40
2.4999999335834
  1
42,5
 41
0.933333333333333
 72
     1
 11
228.939835042392
 21
12.7120706619224
 31
0.0
 73
     2
  0
LINE
  5
   106
  8
0
  6
CONTINUOUS
 62
     7
 10
221.788790291547
 20
53.332732255757
 30
0.0
 11
221.788790291547
 21
8.46207069513071
 31
0.0
  0
LINE
  5
   107
  8
0
  6
CONTINUOUS
 62
     7
 10
236.663591739984
 20
39.4202266669823
 30
0.0
 11
236.663591739984
 21
8.46207069513071
 31
0.0
  0
LINE
  5
   108
  8
0
  6
CONTINUOUS
 62
     7
 10
221.788790291547
 20
10.4620706951307
 30
0.0
 11
236.663591739984
 21
10.4620706951307
 31
0.0
  0
LINE
  5
   109
  8
0
  6
CONTINUOUS
 62
     7
 10
224.743213553228
 20
10.983015213131
 30
0.0
 11
221.788790291547
 21
10.4620706951307
 31
0.0
  0
LINE
  5
   10A
  8
0
  6
CONTINUOUS
 62
     7
 10
221.788790291547
 20
10.4620706951307
 30
0.0
 11
224.743213553228
 21
9.94112617713036
 31
0.0
  0
LINE
  5
   10B
  8
0
  6
CONTINUOUS
 62
     7
 10
233.709168478303
 20
9.94112617713036
 30
0.0
 11
236.663591739984
 21
10.4620706951307
 31
0.0
  0
LINE
  5
   10C
  8
0
  6
CONTINUOUS
 62
     7
 10
236.663591739984
 20
10.4620706951307
 30
0.0
 11
233.709168478303
 21
10.983015213131
 31
0.0
  0
ENDBLK
  5
   10D
  8
0
  6
CONTINUOUS
 62
     7
  0
BLOCK
  5
   10E
  8
0
  6
CONTINUOUS
 62
     7
  2
*UDIM547
 70
    65
 10
0.0
 20
0.0
 30
0.0
  3
*UDIM547
  0
TEXT
  5
   10F
  8
0
  6
CONTINUOUS
 62
     7
 10
249.923263724681
 20
-40.6432362272409
 30
0.0
 40
2.50000001341104
  1
70
 50
359.999999896069
 41
0.933333333333333
 72
     1
 11
252.006597071451
 21
-39.3932362243039
 31
0.0
 73
     2
  0
LINE
  5
   110
  8
0
  6
CONTINUOUS
 62
     7
 10
259.235763758421
 20
-36.006482783705
 30
0.0
 11
259.235763758421
 21
-43.6432362310094
 31
0.0
  0
LINE
  5
   111
  8
0
  6
CONTINUOUS
 62
     7
 10
259.235763758421
 20
-41.6432362310094
 30
0.0
 11
245.235763549805
 21
-41.6432362310094
 31
0.0
  0
LINE
  5
   112
  8
0
  6
CONTINUOUS
 62
     7
 10
256.281340496739
 20
-42.1641807490098
 30
0.0
 11
259.235763758421
 21
-41.6432362310094
 31
0.0
  0
LINE
  5
   113
  8
0
  6
CONTINUOUS
 62
     7
 10
259.235763758421
 20
-41.6432362310094
 30
0.0
 11
256.281340496739
 21
-41.1222917130091
 31
0.0
  0
LINE
  5
   114
  8
0
  6
CONTINUOUS
 62
     7
 10
248.190186811486
 20
-41.1222917130091
 30
0.0
 11
245.235763549805
 21
-41.6432362310094
 31
0.0
  0
LINE
  5
   115
  8
0
  6
CONTINUOUS
 62
     7
 10
245.235763549805
 20
-41.6432362310094
 30
0.0
 11
248.190186811486
 21
-42.1641807490098
 31
0.0
  0
ENDBLK
  5
   116
  8
0
  6
CONTINUOUS
 62
     7
  0
BLOCK
  5
   117
  8
0
  6
CONTINUOUS
 62
     7
  2
*UDIM548
 70
    65
 10
0.0
 20
0.0
 30
0.0
  3
*UDIM548
  0
TEXT
  5
   118
  8
0
  6
CONTINUOUS
 62
     7
 10
235.923262753125
 20
-40.6432362272409
 30
0.0
 40
2.50000001341104
  1
70
 50
359.999999896069
 41
0.933333333333333
 72
     1
 11
238.006596099896
 21
-39.3932362243039
 31
0.0
 73
     2
  0
LINE
  5
   119
  8
0
  6
CONTINUOUS
 62
     7
 10
231.235763341188
 20
-34.8564827665687
 30
0.0
 11
231.235763341188
 21
-43.6432362310094
 31
0.0
  0
LINE
  5
   11A
  8
0
  6
CONTINUOUS
 62
     7
 10
245.235763549805
 20
-41.6432362310094
 30
0.0
 11
231.235763341188
 21
-41.6432362310094
 31
0.0
  0
LINE
  5
   11B
  8
0
  6
CONTINUOUS
 62
     7
 10
242.281340288123
 20
-42.1641807490098
 30
0.0
 11
245.235763549805
 21
-41.6432362310094
 31
0.0
  0
LINE
  5
   11C
  8
0
  6
CONTINUOUS
 62
     7
 10
245.235763549805
 20
-41.6432362310094
 30
0.0
 11
242.281340288123
 21
-41.1222917130091
 31
0.0
  0
LINE
  5
   11D
  8
0
  6
CONTINUOUS
 62
     7
 10
234.19018660287
 20
-41.1222917130091
 30
0.0
 11
231.235763341188
 21
-41.6432362310094
 31
0.0
  0
LINE
  5
   11E
  8
0
  6
CONTINUOUS
 62
     7
 10
231.235763341188
 20
-41.6432362310094
 30
0.0
 11
234.19018660287
 21
-42.1641807490098
 31
0.0
  0
ENDBLK
  5
   11F
  8
0
  6
CONTINUOUS
 62
     7
  0
BLOCK
  5
   120
  8
0
  6
CONTINUOUS
 62
     7
  2
*UDIM549
 70
    65
 10
0.0
 20
0.0
 30
0.0
  3
*UDIM549
  0
TEXT
  5
   121
  8
0
  6
CONTINUOUS
 62
     7
 10
245.761352032886
 20
-59.8322868874043
 30
0.0
 40
2.50000001341104
  1
5,5
 50
337.56167642378
 41
0.933333333333333
 72
     1
 11
249.242408472438
 21
-59.9174114710467
 31
0.0
 73
     2
  0
TEXT
  5
   122
  8
0
  6
CONTINUOUS
 62
     7
 10
243.335088286376
 20
-58.8303540611577
 30
0.0
 40
2.50000001341104
  1
Ø
 50
337.56167642378
 41
0.933333333333333
 72
     1
 11
244.659465856019
 21
-58.0248716860662
 31
0.0
 73
     2
  0
TEXT
  5
   123
  8
0
  6
CONTINUOUS
 62
     7
 10
252.192876504105
 20
-62.4882040477564
 30
0.0
 40
2.50000001341104
  1
-M5
 50
337.56167642378
 41
0.933333333333333
 72
     1
 11
255.673932943657
 21
-62.5733286313988
 31
0.0
 73
     2
  0
LINE
  5
   124
  8
0
  6
CONTINUOUS
 62
     7
 10
257.819078953162
 20
-65.8934715110654
 30
0.0
 11
237.727403420933
 21
-57.5965543392391
 31
0.0
  0
LINE
  5
   125
  8
0
  6
CONTINUOUS
 62
     7
 10
241.673708755834
 20
-58.6625775624114
 30
0.0
 11
238.74412347006
 21
-58.0164119076639
 31
0.0
  0
LINE
  5
   126
  8
0
  6
CONTINUOUS
 62
     7
 10
238.74412347006
 20
-58.0164119076639
 30
0.0
 11
241.276031491557
 21
-59.6255861588502
 31
0.0
  0
LINE
  5
   127
  8
0
  6
CONTINUOUS
 62
     7
 10
234.797818135159
 20
-56.9503886844916
 30
0.0
 11
237.727403420933
 21
-57.5965543392391
 31
0.0
  0
LINE
  5
   128
  8
0
  6
CONTINUOUS
 62
     7
 10
237.727403420933
 20
-57.5965543392391
 30
0.0
 11
235.195495399436
 21
-55.9873800880527
 31
0.0
  0
ENDBLK
  5
   129
  8
0
  6
CONTINUOUS
 62
     7
  0
BLOCK
  5
   12A
  8
0
  6
CONTINUOUS
 62
     7
  2
*UDIM550
 70
    65
 10
0.0
 20
0.0
 30
0.0
  3
*UDIM550
  0
TEXT
  5
   12B
  8
0
  6
CONTINUOUS
 62
     7
 10
268.31052028104
 20
-34.6163781759726
 30
0.0
 40
2.50000001341104
  1
35
 50
326.487613132109
 41
0.933333333333333
 72
     1
 11
270.737680355212
 21
-34.7244143525646
 31
0.0
 73
     2
  0
TEXT
  5
   12C
  8
0
  6
CONTINUOUS
 62
     7
 10
266.121883246615
 20
-33.1670703799943
 30
0.0
 40
2.50000001341104
  1
Ø
 50
326.487613132109
 41
0.933333333333333
 72
     1
 11
267.576315757403
 21
-32.6309697596647
 31
0.0
 73
     2
  0
LINE
  5
   12D
  8
0
  6
CONTINUOUS
 62
     7
 10
271.232430047057
 20
-37.750633213939
 30
0.0
 11
256.317581036944
 21
-27.8740723023054
 31
0.0
  0
LINE
  5
   12E
  8
0
  6
CONTINUOUS
 62
     7
 10
259.403024943571
 20
-30.5420511402065
 30
0.0
 11
262.153946479898
 21
-31.7388931101325
 31
0.0
  0
LINE
  5
   12F
  8
0
  6
CONTINUOUS
 62
     7
 10
262.153946479898
 20
-31.7388931101325
 30
0.0
 11
259.978269852969
 21
-29.6733589867073
 31
0.0
  0
LINE
  5
   130
  8
0
  6
CONTINUOUS
 62
     7
 10
259.068502573271
 20
-29.0709142722314
 30
0.0
 11
256.317581036944
 21
-27.8740723023054
 31
0.0
  0
LINE
  5
   131
  8
0
  6
CONTINUOUS
 62
     7
 10
256.317581036944
 20
-27.8740723023054
 30
0.0
 11
258.493257663873
 21
-29.9396064257306
 31
0.0
  0
ENDBLK
  5
   132
  8
0
  6
CONTINUOUS
 62
     7
  0
BLOCK
  5
   133
  8
0
  6
CONTINUOUS
 62
     7
  2
*UDIM551
 70
    65
 10
0.0
 20
0.0
 30
0.0
  3
*UDIM551
  0
TEXT
  5
   134
  8
0
  6
CONTINUOUS
 62
     7
 10
275.179770352688
 20
-95.5856505945445
 30
0.0
 40
2.50000001341104
  1
135
 50
449.999999896069
 41
0.933333333333333
 72
     1
 11
273.929770351857
 21
-92.3356505748506
 31
0.0
 73
     2
  0
LINE
  5
   135
  8
0
  6
CONTINUOUS
 62
     7
 10
264.449378834183
 20
-78.6064834333956
 30
0.0
 11
278.179770358563
 21
-78.6064834333956
 31
0.0
  0
LINE
  5
   136
  8
0
  6
CONTINUOUS
 62
     7
 10
265.435763835907
 20
-105.606483835727
 30
0.0
 11
278.179770358563
 21
-105.606483835727
 31
0.0
  0
LINE
  5
   137
  8
0
  6
CONTINUOUS
 62
     7
 10
276.179770358563
 20
-78.6064834333956
 30
0.0
 11
276.179770358563
 21
-105.606483835727
 31
0.0
  0
LINE
  5
   138
  8
0
  6
CONTINUOUS
 62
     7
 10
276.700714876563
 20
-81.5609066950772
 30
0.0
 11
276.179770358563
 21
-78.6064834333956
 31
0.0
  0
LINE
  5
   139
  8
0
  6
CONTINUOUS
 62
     7
 10
276.179770358563
 20
-78.6064834333956
 30
0.0
 11
275.658825840562
 21
-81.5609066950772
 31
0.0
  0
LINE
  5
   13A
  8
0
  6
CONTINUOUS
 62
     7
 10
275.658825840562
 20
-102.652060574045
 30
0.0
 11
276.179770358563
 21
-105.606483835727
 31
0.0
  0
LINE
  5
   13B
  8
0
  6
CONTINUOUS
 62
     7
 10
276.179770358563
 20
-105.606483835727
 30
0.0
 11
276.700714876563
 21
-102.652060574045
 31
0.0
  0
ENDBLK
  5
   13C
  8
0
  6
CONTINUOUS
 62
     7
  0
BLOCK
  5
   13D
  8
0
  6
CONTINUOUS
 62
     7
  2
*UDIM552
 70
    65
 10
0.0
 20
0.0
 30
0.0
  3
*UDIM552
  0
TEXT
  5
   13E
  8
0
  6
CONTINUOUS
 62
     7
 10
213.452733910422
 20
-71.1856502309561
 30
0.0
 40
2.50000001341104
  1
375
 50
449.999999896069
 41
0.933333333333333
 72
     1
 11
212.202733909592
 21
-67.9356502112622
 31
0.0
 73
     2
  0
LINE
  5
   13F
  8
0
  6
CONTINUOUS
 62
     7
 10
234.671252693255
 20
-30.2064827121794
 30
0.0
 11
212.452733916297
 21
-30.2064827121794
 31
0.0
  0
LINE
  5
   140
  8
0
  6
CONTINUOUS
 62
     7
 10
234.533330798437
 20
-105.206483829767
 30
0.0
 11
212.452733916297
 21
-105.206483829767
 31
0.0
  0
LINE
  5
   141
  8
0
  6
CONTINUOUS
 62
     7
 10
214.452733916297
 20
-30.2064827121794
 30
0.0
 11
214.452733916297
 21
-105.206483829767
 31
0.0
  0
LINE
  5
   142
  8
0
  6
CONTINUOUS
 62
     7
 10
214.973678434297
 20
-33.160905973861
 30
0.0
 11
214.452733916297
 21
-30.2064827121794
 31
0.0
  0
LINE
  5
   143
  8
0
  6
CONTINUOUS
 62
     7
 10
214.452733916297
 20
-30.2064827121794
 30
0.0
 11
213.931789398297
 21
-33.160905973861
 31
0.0
  0
LINE
  5
   144
  8
0
  6
CONTINUOUS
 62
     7
 10
213.931789398297
 20
-102.252060568085
 30
0.0
 11
214.452733916297
 21
-105.206483829767
 31
0.0
  0
LINE
  5
   145
  8
0
  6
CONTINUOUS
 62
     7
 10
214.452733916297
 20
-105.206483829767
 30
0.0
 11
214.973678434297
 21
-102.252060568085
 31
0.0
  0
ENDBLK
  5
   146
  8
0
  6
CONTINUOUS
 62
     7
  0
BLOCK
  5
   147
  8
0
  6
CONTINUOUS
 62
     7
  2
*UDIM553
 70
    65
 10
0.0
 20
0.0
 30
0.0
  3
*UDIM553
  0
TEXT
  5
   148
  8
0
  6
CONTINUOUS
 62
     7
 10
219.280463794625
 20
-71.6856502384067
 30
0.0
 40
2.50000001341104
  1
104
 50
449.999999896069
 41
0.933333333333333
 72
     1
 11
218.030463793795
 21
-68.4356502187128
 31
0.0
 73
     2
  0
LINE
  5
   149
  8
0
  6
CONTINUOUS
 62
     7
 10
234.671252693255
 20
-57.8064831234515
 30
0.0
 11
218.2804638005
 21
-57.8064831234515
 31
0.0
  0
LINE
  5
   14A
  8
0
  6
CONTINUOUS
 62
     7
 10
220.2804638005
 20
-57.8064831234515
 30
0.0
 11
220.2804638005
 21
-78.6064834333956
 31
0.0
  0
LINE
  5
   14B
  8
0
  6
CONTINUOUS
 62
     7
 10
220.801408318501
 20
-60.7609063851331
 30
0.0
 11
220.2804638005
 21
-57.8064831234515
 31
0.0
  0
LINE
  5
   14C
  8
0
  6
CONTINUOUS
 62
     7
 10
220.2804638005
 20
-57.8064831234515
 30
0.0
 11
219.7595192825
 21
-60.7609063851331
 31
0.0
  0
LINE
  5
   14D
  8
0
  6
CONTINUOUS
 62
     7
 10
219.7595192825
 20
-75.652060171714
 30
0.0
 11
220.2804638005
 21
-78.6064834333956
 31
0.0
  0
LINE
  5
   14E
  8
0
  6
CONTINUOUS
 62
     7
 10
220.2804638005
 20
-78.6064834333956
 30
0.0
 11
220.801408318501
 21
-75.652060171714
 31
0.0
  0
ENDBLK
  5
   14F
  8
0
  6
CONTINUOUS
 62
     7
  0
BLOCK
  5
   150
  8
0
  6
CONTINUOUS
 62
     7
  2
*UDIM554
 70
    65
 10
0.0
 20
0.0
 30
0.0
  3
*UDIM554
  0
TEXT
  5
   151
  8
0
  6
CONTINUOUS
 62
     7
 10
219.280463794625
 20
-95.3856505915642
 30
0.0
 40
2.50000001341104
  1
133
 50
449.999999896069
 41
0.933333333333333
 72
     1
 11
218.030463793795
 21
-92.1356505718703
 31
0.0
 73
     2
  0
LINE
  5
   152
  8
0
  6
CONTINUOUS
 62
     7
 10
234.533330798437
 20
-105.206483829767
 30
0.0
 11
218.2804638005
 21
-105.206483829767
 31
0.0
  0
LINE
  5
   153
  8
0
  6
CONTINUOUS
 62
     7
 10
220.2804638005
 20
-78.6064834333956
 30
0.0
 11
220.2804638005
 21
-105.206483829767
 31
0.0
  0
LINE
  5
   154
  8
0
  6
CONTINUOUS
 62
     7
 10
220.801408318501
 20
-81.5609066950772
 30
0.0
 11
220.2804638005
 21
-78.6064834333956
 31
0.0
  0
LINE
  5
   155
  8
0
  6
CONTINUOUS
 62
     7
 10
220.2804638005
 20
-78.6064834333956
 30
0.0
 11
219.7595192825
 21
-81.5609066950772
 31
0.0
  0
LINE
  5
   156
  8
0
  6
CONTINUOUS
 62
     7
 10
219.7595192825
 20
-102.252060568085
 30
0.0
 11
220.2804638005
 21
-105.206483829767
 31
0.0
  0
LINE
  5
   157
  8
0
  6
CONTINUOUS
 62
     7
 10
220.2804638005
 20
-105.206483829767
 30
0.0
 11
220.801408318501
 21
-102.252060568085
 31
0.0
  0
ENDBLK
  5
   158
  8
0
  6
CONTINUOUS
 62
     7
  0
BLOCK
  5
   159
  8
0
  6
CONTINUOUS
 62
     7
  2
*UDIM555
 70
    65
 10
0.0
 20
0.0
 30
0.0
  3
*UDIM555
  0
TEXT
  5
   15A
  8
0
  6
CONTINUOUS
 62
     7
 10
269.304280462225
 20
-99.1064839867001
 30
0.0
 40
2.50000001341104
  1
8
 50
449.999999896069
 41
0.933333333333333
 72
     1
 11
268.054280457177
 21
-98.1898173128565
 31
0.0
 73
     2
  0
LINE
  5
   15B
  8
0
  6
CONTINUOUS
 62
     7
 10
260.235763758421
 20
-102.106483783573
 30
0.0
 11
272.304280463882
 21
-102.106483783573
 31
0.0
  0
LINE
  5
   15C
  8
0
  6
CONTINUOUS
 62
     7
 10
256.735763706267
 20
-103.706483807415
 30
0.0
 11
272.304280463882
 21
-103.706483807415
 31
0.0
  0
LINE
  5
   15D
  8
0
  6
CONTINUOUS
 62
     7
 10
270.304280463882
 20
-97.2731506412725
 30
0.0
 11
270.304280463882
 21
-103.706483807415
 31
0.0
  0
LINE
  5
   15E
  8
0
  6
CONTINUOUS
 62
     7
 10
269.783335945882
 20
-99.1520605218913
 30
0.0
 11
270.304280463882
 21
-102.106483783573
 31
0.0
  0
LINE
  5
   15F
  8
0
  6
CONTINUOUS
 62
     7
 10
270.304280463882
 20
-102.106483783573
 30
0.0
 11
270.825224981882
 21
-99.1520605218913
 31
0.0
  0
LINE
  5
   160
  8
0
  6
CONTINUOUS
 62
     7
 10
270.825224981882
 20
-106.660907069096
 30
0.0
 11
270.304280463882
 21
-103.706483807415
 31
0.0
  0
LINE
  5
   161
  8
0
  6
CONTINUOUS
 62
     7
 10
270.304280463882
 20
-103.706483807415
 30
0.0
 11
269.783335945882
 21
-106.660907069096
 31
0.0
  0
ENDBLK
  5
   162
  8
0
  6
CONTINUOUS
 62
     7
  0
BLOCK
  5
   163
  8
0
  6
CONTINUOUS
 62
     7
  2
*UDIM556
 70
    65
 10
0.0
 20
0.0
 30
0.0
  3
*UDIM556
  0
TEXT
  5
   164
  8
0
  6
CONTINUOUS
 62
     7
 10
280.988208549592
 20
-71.1856502309561
 30
0.0
 40
2.50000001341104
  1
379
 50
449.999999896069
 41
0.933333333333333
 72
     1
 11
279.738208548761
 21
-67.9356502112622
 31
0.0
 73
     2
  0
LINE
  5
   165
  8
0
  6
CONTINUOUS
 62
     7
 10
265.435763835907
 20
-29.806482706219
 30
0.0
 11
283.988208555467
 21
-29.806482706219
 31
0.0
  0
LINE
  5
   166
  8
0
  6
CONTINUOUS
 62
     7
 10
265.435763835907
 20
-105.606483835727
 30
0.0
 11
283.988208555467
 21
-105.606483835727
 31
0.0
  0
LINE
  5
   167
  8
0
  6
CONTINUOUS
 62
     7
 10
281.988208555467
 20
-29.806482706219
 30
0.0
 11
281.988208555467
 21
-105.606483835727
 31
0.0
  0
LINE
  5
   168
  8
0
  6
CONTINUOUS
 62
     7
 10
282.509153073467
 20
-32.7609059679006
 30
0.0
 11
281.988208555467
 21
-29.806482706219
 31
0.0
  0
LINE
  5
   169
  8
0
  6
CONTINUOUS
 62
     7
 10
281.988208555467
 20
-29.806482706219
 30
0.0
 11
281.467264037466
 21
-32.7609059679006
 31
0.0
  0
LINE
  5
   16A
  8
0
  6
CONTINUOUS
 62
     7
 10
281.467264037466
 20
-102.652060574045
 30
0.0
 11
281.988208555467
 21
-105.606483835727
 31
0.0
  0
LINE
  5
   16B
  8
0
  6
CONTINUOUS
 62
     7
 10
281.988208555467
 20
-105.606483835727
 30
0.0
 11
282.509153073467
 21
-102.652060574045
 31
0.0
  0
ENDBLK
  5
   16C
  8
0
  6
CONTINUOUS
 62
     7
  0
BLOCK
  5
   16D
  8
0
  6
CONTINUOUS
 62
     7
  2
*UDIM557
 70
    65
 10
0.0
 20
0.0
 30
0.0
  3
*UDIM557
  0
TEXT
  5
   16E
  8
0
  6
CONTINUOUS
 62
     7
 10
242.923263620373
 20
-72.2760817388698
 30
0.0
 40
2.50000001341104
  1
70
 50
359.999999896069
 41
0.933333333333333
 72
     1
 11
245.006596967143
 21
-71.0260817359328
 31
0.0
 73
     2
  0
LINE
  5
   16F
  8
0
  6
CONTINUOUS
 62
     7
 10
252.235763654113
 20
-73.2760817426383
 30
0.0
 11
238.235763445497
 21
-73.2760817426383
 31
0.0
  0
LINE
  5
   170
  8
0
  6
CONTINUOUS
 62
     7
 10
249.281340392431
 20
-73.7970262606387
 30
0.0
 11
252.235763654113
 21
-73.2760817426383
 31
0.0
  0
LINE
  5
   171
  8
0
  6
CONTINUOUS
 62
     7
 10
252.235763654113
 20
-73.2760817426383
 30
0.0
 11
249.281340392431
 21
-72.755137224638
 31
0.0
  0
LINE
  5
   172
  8
0
  6
CONTINUOUS
 62
     7
 10
241.190186707178
 20
-72.755137224638
 30
0.0
 11
238.235763445497
 21
-73.2760817426383
 31
0.0
  0
LINE
  5
   173
  8
0
  6
CONTINUOUS
 62
     7
 10
238.235763445497
 20
-73.2760817426383
 30
0.0
 11
241.190186707178
 21
-73.7970262606387
 31
0.0
  0
ENDBLK
  5
   174
  8
0
  6
CONTINUOUS
 62
     7
  0
BLOCK
  5
   175
  8
0
  6
CONTINUOUS
 62
     7
  2
*UDIM558
 70
    65
 10
0.0
 20
0.0
 30
0.0
  3
*UDIM558
  0
TEXT
  5
   176
  8
0
  6
CONTINUOUS
 62
     7
 10
84.0529216785372
 20
-72.281884682669
 30
0.0
 40
2.50000001341104
  1
2,75
 50
359.999999844103
 41
0.933333333333333
 72
     1
 11
88.4695883722915
 21
-71.0318846879587
 31
0.0
 73
     2
  0
LINE
  5
   177
  8
0
  6
CONTINUOUS
 62
     7
 10
94.5074951089919
 20
-62.8299832178652
 30
0.0
 11
94.5074951089919
 21
-75.2818846946642
 31
0.0
  0
LINE
  5
   178
  8
0
  6
CONTINUOUS
 62
     7
 10
84.052921681932
 20
-73.2818846946642
 30
0.0
 11
95.0574951171875
 21
-73.2818846946642
 31
0.0
  0
LINE
  5
   179
  8
0
  6
CONTINUOUS
 62
     7
 10
91.5530718473103
 20
-73.8028292126645
 30
0.0
 11
94.5074951089919
 21
-73.2818846946642
 31
0.0
  0
LINE
  5
   17A
  8
0
  6
CONTINUOUS
 62
     7
 10
94.5074951089919
 20
-73.2818846946642
 30
0.0
 11
91.5530718473103
 21
-72.7609401766639
 31
0.0
  0
LINE
  5
   17B
  8
0
  6
CONTINUOUS
 62
     7
 10
98.0119183788691
 20
-72.7609401766639
 30
0.0
 11
95.0574951171875
 21
-73.2818846946642
 31
0.0
  0
LINE
  5
   17C
  8
0
  6
CONTINUOUS
 62
     7
 10
95.0574951171875
 20
-73.2818846946642
 30
0.0
 11
98.0119183788691
 21
-73.8028292126645
 31
0.0
  0
ENDBLK
  5
   17D
  8
0
  6
CONTINUOUS
 62
     7
  0
BLOCK
  5
   17E
  8
0
  6
CONTINUOUS
 62
     7
  2
*UDIM559
 70
    65
 10
0.0
 20
0.0
 30
0.0
  3
*UDIM559
  0
TEXT
  5
   17F
  8
0
  6
CONTINUOUS
 62
     7
 10
119.906885145155
 20
-71.8064832626316
 30
0.0
 40
2.50000001341104
  1
90
 50
449.999999844103
 41
0.933333333333333
 72
     1
 11
118.656885144105
 21
-69.7231499147291
 31
0.0
 73
     2
  0
LINE
  5
   180
  8
0
  6
CONTINUOUS
 62
     7
 10
105.84349526301
 20
-60.4939831979573
 30
0.0
 11
122.906885150811
 21
-60.4939831979573
 31
0.0
  0
LINE
  5
   181
  8
0
  6
CONTINUOUS
 62
     7
 10
118.161730086063
 20
-78.4939834661782
 30
0.0
 11
122.906885150811
 21
-78.4939834661782
 31
0.0
  0
LINE
  5
   182
  8
0
  6
CONTINUOUS
 62
     7
 10
120.906885150811
 20
-60.4939831979573
 30
0.0
 11
120.906885150811
 21
-78.4939834661782
 31
0.0
  0
LINE
  5
   183
  8
0
  6
CONTINUOUS
 62
     7
 10
121.427829668811
 20
-63.4484064596389
 30
0.0
 11
120.906885150811
 21
-60.4939831979573
 31
0.0
  0
LINE
  5
   184
  8
0
  6
CONTINUOUS
 62
     7
 10
120.906885150811
 20
-60.4939831979573
 30
0.0
 11
120.385940632811
 21
-63.4484064596389
 31
0.0
  0
LINE
  5
   185
  8
0
  6
CONTINUOUS
 62
     7
 10
120.385940632811
 20
-75.5395602044966
 30
0.0
 11
120.906885150811
 21
-78.4939834661782
 31
0.0
  0
LINE
  5
   186
  8
0
  6
CONTINUOUS
 62
     7
 10
120.906885150811
 20
-78.4939834661782
 30
0.0
 11
121.427829668811
 21
-75.5395602044966
 31
0.0
  0
ENDBLK
  5
   187
  8
0
  6
CONTINUOUS
 62
     7
  0
BLOCK
  5
   188
  8
0
  6
CONTINUOUS
 62
     7
  2
*UDIM560
 70
    65
 10
0.0
 20
0.0
 30
0.0
  3
*UDIM560
  0
TEXT
  5
   189
  8
0
  6
CONTINUOUS
 62
     7
 10
96.9470837885404
 20
-52.4054592219259
 30
0.0
 40
2.50000001341104
  1
45
 50
359.999999844103
 41
0.933333333333333
 72
     1
 11
99.0304171364445
 21
-51.1554592208784
 31
0.0
 73
     2
  0
LINE
  5
   18A
  8
0
  6
CONTINUOUS
 62
     7
 10
94.5074951089919
 20
-58.1579831780493
 30
0.0
 11
94.5074951089919
 21
-51.405459227584
 31
0.0
  0
LINE
  5
   18B
  8
0
  6
CONTINUOUS
 62
     7
 10
103.507495243102
 20
-58.1579831780493
 30
0.0
 11
103.507495243102
 21
-51.405459227584
 31
0.0
  0
LINE
  5
   18C
  8
0
  6
CONTINUOUS
 62
     7
 10
94.5074951089919
 20
-53.4054592275839
 30
0.0
 11
103.507495243102
 21
-53.4054592275839
 31
0.0
  0
LINE
  5
   18D
  8
0
  6
CONTINUOUS
 62
     7
 10
97.4619183706735
 20
-52.8845147095836
 30
0.0
 11
94.5074951089919
 21
-53.4054592275839
 31
0.0
  0
LINE
  5
   18E
  8
0
  6
CONTINUOUS
 62
     7
 10
94.5074951089919
 20
-53.4054592275839
 30
0.0
 11
97.4619183706735
 21
-53.9264037455843
 31
0.0
  0
LINE
  5
   18F
  8
0
  6
CONTINUOUS
 62
     7
 10
100.553071981421
 20
-53.9264037455843
 30
0.0
 11
103.507495243102
 21
-53.4054592275839
 31
0.0
  0
LINE
  5
   190
  8
0
  6
CONTINUOUS
 62
     7
 10
103.507495243102
 20
-53.4054592275839
 30
0.0
 11
100.553071981421
 21
-52.8845147095836
 31
0.0
  0
ENDBLK
  5
   191
  8
0
  6
CONTINUOUS
 62
     7
  0
BLOCK
  5
   192
  8
0
  6
CONTINUOUS
 62
     7
  2
*UDIM561
 70
    65
 10
0.0
 20
0.0
 30
0.0
  3
*UDIM561
  0
TEXT
  5
   193
  8
0
  6
CONTINUOUS
 62
     7
 10
70.861651425998
 20
-104.578177369282
 30
0.0
 40
2.50000001341104
  1
7
 50
397.208926617964
 41
0.933333333333333
 72
     1
 11
70.8358134881525
 21
-103.028303114858
 31
0.0
 73
     2
  0
TEXT
  5
   194
  8
0
  6
CONTINUOUS
 62
     7
 10
68.7710076613594
 20
-106.165575808653
 30
0.0
 40
2.50000001341104
  1
Ø
 50
397.208926617964
 41
0.933333333333333
 72
     1
 11
68.7451697235139
 21
-104.61570155423
 31
0.0
 73
     2
  0
LINE
  5
   195
  8
0
  6
CONTINUOUS
 62
     7
 10
84.1149999517268
 20
-95.7706774779119
 30
0.0
 11
69.3757308737237
 21
-106.962011519433
 31
0.0
  0
LINE
  5
   196
  8
0
  6
CONTINUOUS
 62
     7
 10
86.1529809021006
 20
-93.5691703473503
 30
0.0
 11
84.1149999517268
 21
-95.7706774779119
 31
0.0
  0
LINE
  5
   197
  8
0
  6
CONTINUOUS
 62
     7
 10
84.1149999517268
 20
-95.7706774779119
 30
0.0
 11
86.7830353824933
 21
-94.3989679823647
 31
0.0
  0
LINE
  5
   198
  8
0
  6
CONTINUOUS
 62
     7
 10
80.9620089895477
 20
-98.8187971125071
 30
0.0
 11
82.9999899399215
 21
-96.6172899819455
 31
0.0
  0
LINE
  5
   199
  8
0
  6
CONTINUOUS
 62
     7
 10
82.9999899399215
 20
-96.6172899819455
 30
0.0
 11
80.331954509155
 21
-97.9889994774928
 31
0.0
  0
ENDBLK
  5
   19A
  8
0
  6
CONTINUOUS
 62
     7
  0
BLOCK
  5
   19B
  8
0
  6
CONTINUOUS
 62
     7
  2
*UDIM562
 70
    65
 10
0.0
 20
0.0
 30
0.0
  3
*UDIM562
  0
TEXT
  5
   19C
  8
0
  6
CONTINUOUS
 62
     7
 10
91.578328156069
 20
-112.854860449113
 30
0.0
 40
2.50000001341104
  1
147
 50
359.999999844103
 41
0.933333333333333
 72
     1
 11
94.8283281768983
 21
-111.604860451235
 31
0.0
 73
     2
  0
LINE
  5
   19D
  8
0
  6
CONTINUOUS
 62
     7
 10
80.3574948981404
 20
-94.1939836852253
 30
0.0
 11
80.3574948981404
 21
-115.85486045794
 31
0.0
  0
LINE
  5
   19E
  8
0
  6
CONTINUOUS
 62
     7
 10
109.757495336235
 20
-94.1939836852253
 30
0.0
 11
109.757495336235
 21
-115.85486045794
 31
0.0
  0
LINE
  5
   19F
  8
0
  6
CONTINUOUS
 62
     7
 10
80.3574948981404
 20
-113.85486045794
 30
0.0
 11
109.757495336235
 21
-113.85486045794
 31
0.0
  0
LINE
  5
   1A0
  8
0
  6
CONTINUOUS
 62
     7
 10
83.311918159822
 20
-113.33391593994
 30
0.0
 11
80.3574948981404
 21
-113.85486045794
 31
0.0
  0
LINE
  5
   1A1
  8
0
  6
CONTINUOUS
 62
     7
 10
80.3574948981404
 20
-113.85486045794
 30
0.0
 11
83.311918159822
 21
-114.37580497594
 31
0.0
  0
LINE
  5
   1A2
  8
0
  6
CONTINUOUS
 62
     7
 10
106.803072074553
 20
-114.37580497594
 30
0.0
 11
109.757495336235
 21
-113.85486045794
 31
0.0
  0
LINE
  5
   1A3
  8
0
  6
CONTINUOUS
 62
     7
 10
109.757495336235
 20
-113.85486045794
 30
0.0
 11
106.803072074553
 21
-113.33391593994
 31
0.0
  0
ENDBLK
  5
   1A4
  8
0
  6
CONTINUOUS
 62
     7
  0
BLOCK
  5
   1A5
  8
0
  6
CONTINUOUS
 62
     7
  2
*UDIM563
 70
    65
 10
0.0
 20
0.0
 30
0.0
  3
*UDIM563
  0
TEXT
  5
   1A6
  8
0
  6
CONTINUOUS
 62
     7
 10
91.578328156069
 20
-106.262541625294
 30
0.0
 40
2.50000001341104
  1
115
 50
359.999999844103
 41
0.933333333333333
 72
     1
 11
94.8283281768983
 21
-105.012541627415
 31
0.0
 73
     2
  0
LINE
  5
   1A7
  8
0
  6
CONTINUOUS
 62
     7
 10
83.5574949458242
 20
-63.0939832217991
 30
0.0
 11
83.5574949458242
 21
-109.262541634121
 31
0.0
  0
LINE
  5
   1A8
  8
0
  6
CONTINUOUS
 62
     7
 10
106.557495288551
 20
-63.0939832217991
 30
0.0
 11
106.557495288551
 21
-109.262541634121
 31
0.0
  0
LINE
  5
   1A9
  8
0
  6
CONTINUOUS
 62
     7
 10
83.5574949458242
 20
-107.262541634121
 30
0.0
 11
106.557495288551
 21
-107.262541634121
 31
0.0
  0
LINE
  5
   1AA
  8
0
  6
CONTINUOUS
 62
     7
 10
86.5119182075058
 20
-106.741597116121
 30
0.0
 11
83.5574949458242
 21
-107.262541634121
 31
0.0
  0
LINE
  5
   1AB
  8
0
  6
CONTINUOUS
 62
     7
 10
83.5574949458242
 20
-107.262541634121
 30
0.0
 11
86.5119182075058
 21
-107.783486152121
 31
0.0
  0
LINE
  5
   1AC
  8
0
  6
CONTINUOUS
 62
     7
 10
103.603072026869
 20
-107.783486152121
 30
0.0
 11
106.557495288551
 21
-107.262541634121
 31
0.0
  0
LINE
  5
   1AD
  8
0
  6
CONTINUOUS
 62
     7
 10
106.557495288551
 20
-107.262541634121
 30
0.0
 11
103.603072026869
 21
-106.741597116121
 31
0.0
  0
ENDBLK
  5
   1AE
  8
0
  6
CONTINUOUS
 62
     7
  0
BLOCK
  5
   1AF
  8
0
  6
CONTINUOUS
 62
     7
  2
*UDIM564
 70
    65
 10
0.0
 20
0.0
 30
0.0
  3
*UDIM564
  0
TEXT
  5
   1B0
  8
0
  6
CONTINUOUS
 62
     7
 10
62.040902224054
 20
-81.9731504272951
 30
0.0
 40
2.50000001341104
  1
177
 50
449.999999844103
 41
0.933333333333333
 72
     1
 11
60.790902226171
 21
-78.7231504064674
 31
0.0
 73
     2
  0
LINE
  5
   1B1
  8
0
  6
CONTINUOUS
 62
     7
 10
81.2574949264526
 20
-60.7939832024276
 30
0.0
 11
61.0409022328765
 21
-60.7939832024276
 31
0.0
  0
LINE
  5
   1B2
  8
0
  6
CONTINUOUS
 62
     7
 10
81.2574949264526
 20
-96.1939837299287
 30
0.0
 11
61.0409022328765
 21
-96.1939837299287
 31
0.0
  0
LINE
  5
   1B3
  8
0
  6
CONTINUOUS
 62
     7
 10
63.0409022328765
 20
-60.7939832024276
 30
0.0
 11
63.0409022328765
 21
-96.1939837299287
 31
0.0
  0
LINE
  5
   1B4
  8
0
  6
CONTINUOUS
 62
     7
 10
63.5618467508769
 20
-63.7484064641092
 30
0.0
 11
63.0409022328765
 21
-60.7939832024276
 31
0.0
  0
LINE
  5
   1B5
  8
0
  6
CONTINUOUS
 62
     7
 10
63.0409022328765
 20
-60.7939832024276
 30
0.0
 11
62.5199577148762
 21
-63.7484064641092
 31
0.0
  0
LINE
  5
   1B6
  8
0
  6
CONTINUOUS
 62
     7
 10
62.5199577148762
 20
-93.2395604682471
 30
0.0
 11
63.0409022328765
 21
-96.1939837299287
 31
0.0
  0
LINE
  5
   1B7
  8
0
  6
CONTINUOUS
 62
     7
 10
63.0409022328765
 20
-96.1939837299287
 30
0.0
 11
63.5618467508769
 21
-93.2395604682471
 31
0.0
  0
ENDBLK
  5
   1B8
  8
0
  6
CONTINUOUS
 62
     7
  0
BLOCK
  5
   1B9
  8
0
  6
CONTINUOUS
 62
     7
  2
*UDIM565
 70
    65
 10
0.0
 20
0.0
 30
0.0
  3
*UDIM565
  0
TEXT
  5
   1BA
  8
0
  6
CONTINUOUS
 62
     7
 10
69.5387493206439
 20
-81.9731504272951
 30
0.0
 40
2.50000001341104
  1
147
 50
449.999999844103
 41
0.933333333333333
 72
     1
 11
68.2887493227609
 21
-78.7231504064674
 31
0.0
 73
     2
  0
LINE
  5
   1BB
  8
0
  6
CONTINUOUS
 62
     7
 10
79.3574948981404
 20
-63.7939832471311
 30
0.0
 11
68.5387493294664
 21
-63.7939832471311
 31
0.0
  0
LINE
  5
   1BC
  8
0
  6
CONTINUOUS
 62
     7
 10
79.3574948981404
 20
-93.1939836852253
 30
0.0
 11
68.5387493294664
 21
-93.1939836852253
 31
0.0
  0
LINE
  5
   1BD
  8
0
  6
CONTINUOUS
 62
     7
 10
70.5387493294664
 20
-63.7939832471311
 30
0.0
 11
70.5387493294664
 21
-93.1939836852253
 31
0.0
  0
LINE
  5
   1BE
  8
0
  6
CONTINUOUS
 62
     7
 10
71.0596938474668
 20
-66.7484065088127
 30
0.0
 11
70.5387493294664
 21
-63.7939832471311
 31
0.0
  0
LINE
  5
   1BF
  8
0
  6
CONTINUOUS
 62
     7
 10
70.5387493294664
 20
-63.7939832471311
 30
0.0
 11
70.0178048114661
 21
-66.7484065088127
 31
0.0
  0
LINE
  5
   1C0
  8
0
  6
CONTINUOUS
 62
     7
 10
70.0178048114661
 20
-90.2395604235436
 30
0.0
 11
70.5387493294664
 21
-93.1939836852253
 31
0.0
  0
LINE
  5
   1C1
  8
0
  6
CONTINUOUS
 62
     7
 10
70.5387493294664
 20
-93.1939836852253
 30
0.0
 11
71.0596938474668
 21
-90.2395604235436
 31
0.0
  0
ENDBLK
  5
   1C2
  8
0
  6
CONTINUOUS
 62
     7
  0
BLOCK
  5
   1C3
  8
0
  6
CONTINUOUS
 62
     7
  2
*HATCH77
 70
    65
 10
0.0
 20
0.0
 30
0.0
  3
*HATCH77
  0
LINE
  5
   1C4
  8
0
  6
CONTINUOUS
 62
    52
 10
-11.7279224395752
 20
1.0
 30
0.0
 11
-11.9763488769531
 21
0.75157368183136
 31
0.0
  0
LINE
  5
   1C5
  8
0
  6
CONTINUOUS
 62
    52
 10
-9.60660171508789
 20
1.0
 30
0.0
 11
-11.6066026687622
 21
-1.0
 31
0.0
  0
LINE
  5
   1C6
  8
0
  6
CONTINUOUS
 62
    52
 10
-7.48528146743774
 20
1.0
 30
0.0
 11
-9.48528289794922
 21
-1.0
 31
0.0
  0
LINE
  5
   1C7
  8
0
  6
CONTINUOUS
 62
    52
 10
-5.3639612197876
 20
1.0
 30
0.0
 11
-7.36396265029907
 21
-1.0
 31
0.0
  0
LINE
  5
   1C8
  8
0
  6
CONTINUOUS
 62
    52
 10
-3.47947335243225
 20
0.763167560100555
 30
0.0
 11
-5.24264097213745
 21
-1.0
 31
0.0
  0
LINE
  5
   1C9
  8
0
  6
CONTINUOUS
 62
    52
 10
-2.51160907745361
 20
-0.390288293361664
 30
0.0
 11
-3.1213207244873
 21
-1.0
 31
0.0
  0
ENDBLK
  5
   1CA
  8
0
  6
CONTINUOUS
 62
     7
  0
BLOCK
  5
   1CB
  8
0
  6
CONTINUOUS
 62
     7
  2
*HATCH78
 70
    65
 10
0.0
 20
0.0
 30
0.0
  3
*HATCH78
  0
LINE
  5
   1CC
  8
0
  6
CONTINUOUS
 62
    52
 10
5.24264097213745
 20
1.0
 30
0.0
 11
3.24264073371887
 21
-1.0
 31
0.0
  0
LINE
  5
   1CD
  8
0
  6
CONTINUOUS
 62
    52
 10
7.3639612197876
 20
1.0
 30
0.0
 11
5.3639612197876
 21
-1.0
 31
0.0
  0
LINE
  5
   1CE
  8
0
  6
CONTINUOUS
 62
    52
 10
9.48528099060059
 20
1.0
 30
0.0
 11
7.4852819442749
 21
-1.0
 31
0.0
  0
ENDBLK
  5
   1CF
  8
0
  6
CONTINUOUS
 62
     7
  0
BLOCK
  5
   1D0
  8
0
  6
CONTINUOUS
 62
     7
  2
*UDIM566
 70
    65
 10
0.0
 20
0.0
 30
0.0
  3
*UDIM566
  0
TEXT
  5
   1D1
  8
0
  6
CONTINUOUS
 62
     7
 10
74.1199356765954
 20
-37.1648262079729
 30
0.0
 40
2.50000005960464
  1
80
 50
449.375116932104
 41
0.933333333333333
 72
     1
 11
72.8927309273431
 21
-35.06798416274
 31
0.0
 73
     2
  0
TEXT
  5
   1D2
  8
0
  6
CONTINUOUS
 62
     7
 10
73.6654072721332
 20
-32.9929542208136
 30
0.0
 40
2.50000005960464
  1
°
 50
449.375116932104
 41
0.933333333333333
 72
     1
 11
72.425478796692
 21
-32.0627094851978
 31
0.0
 73
     2
  0
LINE
  5
   1D3
  8
0
  6
CONTINUOUS
 62
     7
 10
57.0419157199744
 20
-38.243205194795
 30
0.0
 11
71.2438828862049
 21
-50.1600706059709
 31
0.0
  0
LINE
  5
   1D4
  8
0
  6
CONTINUOUS
 62
     7
 10
57.0419157199744
 20
-29.6012314507128
 30
0.0
 11
71.2438828862049
 21
-17.684366039537
 31
0.0
  0
ARC
  5
   1D5
  8
0
  6
CONTINUOUS
 62
     7
 10
51.8923640916671
 20
-33.9222183227539
 30
0.0
 40
23.2616136940404
 50
319.999999815233
 51
399.999999769042
  0
LINE
  5
   1D6
  8
0
  6
CONTINUOUS
 62
     7
 10
71.2117940131582
 20
-46.2764191828604
 30
0.0
 11
69.711793999967
 21
-48.8744953865978
 31
0.0
  0
LINE
  5
   1D7
  8
0
  6
CONTINUOUS
 62
     7
 10
69.711793999967
 20
-48.8744953865978
 30
0.0
 11
72.0099273195331
 21
-46.9461325458699
 31
0.0
  0
LINE
  5
   1D8
  8
0
  6
CONTINUOUS
 62
     7
 10
72.0099273195331
 20
-20.8983040996379
 30
0.0
 11
69.711793999967
 21
-18.96994125891
 31
0.0
  0
LINE
  5
   1D9
  8
0
  6
CONTINUOUS
 62
     7
 10
69.711793999967
 20
-18.96994125891
 30
0.0
 11
71.2117940131582
 21
-21.5680174626474
 31
0.0
  0
ENDBLK
  5
   1DA
  8
0
  6
CONTINUOUS
 62
     7
  0
BLOCK
  5
   1DB
  8
0
  6
CONTINUOUS
 62
     7
  2
*UDIM567
 70
    65
 10
0.0
 20
0.0
 30
0.0
  3
*UDIM567
  0
TEXT
  5
   1DC
  8
0
  6
CONTINUOUS
 62
     7
 10
33.8302040043543
 20
-27.1163181199787
 30
0.0
 40
2.50000005960464
  1
Ø4
 50
449.999999844103
 41
0.933333333333333
 72
     1
 11
32.5802039802074
 21
-25.0329847335815
 31
0.0
 73
     2
  0
LINE
  5
   1DD
  8
0
  6
CONTINUOUS
 62
     7
 10
53.2758712768555
 20
-31.9222183227539
 30
0.0
 11
32.8302040100098
 21
-31.9222183227539
 31
0.0
  0
LINE
  5
   1DE
  8
0
  6
CONTINUOUS
 62
     7
 10
53.2758712768555
 20
-35.9222183227539
 30
0.0
 11
32.8302040100098
 21
-35.9222183227539
 31
0.0
  0
LINE
  5
   1DF
  8
0
  6
CONTINUOUS
 62
     7
 10
34.8302040100098
 20
-22.9496513505777
 30
0.0
 11
34.8302040100098
 21
-35.9222183227539
 31
0.0
  0
LINE
  5
   1E0
  8
0
  6
CONTINUOUS
 62
     7
 10
34.3092594920094
 20
-28.9677950610723
 30
0.0
 11
34.8302040100098
 21
-31.9222183227539
 31
0.0
  0
LINE
  5
   1E1
  8
0
  6
CONTINUOUS
 62
     7
 10
34.8302040100098
 20
-31.9222183227539
 30
0.0
 11
35.3511485280101
 21
-28.9677950610723
 31
0.0
  0
LINE
  5
   1E2
  8
0
  6
CONTINUOUS
 62
     7
 10
35.3511485280101
 20
-38.8766415844355
 30
0.0
 11
34.8302040100098
 21
-35.9222183227539
 31
0.0
  0
LINE
  5
   1E3
  8
0
  6
CONTINUOUS
 62
     7
 10
34.8302040100098
 20
-35.9222183227539
 30
0.0
 11
34.3092594920094
 21
-38.8766415844355
 31
0.0
  0
ENDBLK
  5
   1E4
  8
0
  6
CONTINUOUS
 62
     7
  0
ENDSEC
  0
SECTION
  2
ENTITIES
  0
LINE
  5
   1E5
  8
0
  6
CONTINUOUS
 62
     1
 10
129.714977607429
 20
54.3327399328352
 30
0.0
 11
129.714977607429
 21
91.082712604106
 31
0.0
  0
LINE
  5
   1E6
  8
0
  6
DASHDOT
 62
     7
 10
105.057495117188
 20
2.50192792629804
 30
0.0
 11
105.057495117188
 21
9.16979211949344
 31
0.0
  0
LINE
  5
   1E7
  8
0
  6
DASHDOT
 62
     7
 10
160.780255457138
 20
74.7202212274078
 30
0.0
 11
48.9828200973892
 21
74.7202212274078
 31
0.0
  0
LINE
  5
   1E8
  8
0
  6
CONTINUOUS
 62
     7
 10
117.132489570975
 20
52.0577189430599
 30
0.0
 11
117.132489570975
 21
89.3327183082704
 31
0.0
  0
LINE
  5
   1E9
  8
0
  6
CONTINUOUS
 62
     7
 10
117.132489570975
 20
85.3272595446958
 30
0.0
 11
81.7824928432704
 21
85.3272595446958
 31
0.0
  0
LINE
  5
   1EA
  8
0
  6
CONTINUOUS
 62
     7
 10
117.132489570975
 20
85.6772595387354
 30
0.0
 11
81.7824928432704
 21
85.6772595387354
 31
0.0
  0
LINE
  5
   1EB
  8
0
  6
CONTINUOUS
 62
     7
 10
97.7074952423573
 20
56.6707723770733
 30
0.0
 11
97.7074952423573
 21
84.3696622099294
 31
0.0
  0
LINE
  5
   1EC
  8
0
  6
CONTINUOUS
 62
     7
 10
112.407494992018
 20
56.6707723770733
 30
0.0
 11
112.407494992018
 21
84.3696622099294
 31
0.0
  0
LINE
  5
   1ED
  8
0
  6
CONTINUOUS
 62
     7
 10
97.7074952423573
 20
78.6772596579447
 30
0.0
 11
81.7824928432704
 21
78.6772596579447
 31
0.0
  0
LINE
  5
   1EE
  8
0
  6
CONTINUOUS
 62
     7
 10
117.132489570975
 20
78.6772596579447
 30
0.0
 11
112.407494992018
 21
78.6772596579447
 31
0.0
  0
LINE
  5
   1EF
  8
0
  6
CONTINUOUS
 62
     7
 10
113.369994975626
 20
79.0272596519842
 30
0.0
 11
112.407494992018
 21
79.0272596519842
 31
0.0
  0
LINE
  5
   1F0
  8
0
  6
CONTINUOUS
 62
     7
 10
97.7074952423573
 20
79.0272596519842
 30
0.0
 11
81.7824928432704
 21
79.0272596519842
 31
0.0
  0
LINE
  5
   1F1
  8
0
  6
CONTINUOUS
 62
     7
 10
117.132489570975
 20
62.2868567617176
 30
0.0
 11
112.407494992018
 21
62.2868567617176
 31
0.0
  0
LINE
  5
   1F2
  8
0
  6
CONTINUOUS
 62
     7
 10
97.7074952423573
 20
62.2868567617176
 30
0.0
 11
81.7824928432704
 21
62.2868567617176
 31
0.0
  0
LINE
  5
   1F3
  8
0
  6
CONTINUOUS
 62
     7
 10
97.7074952423573
 20
61.936856767678
 30
0.0
 11
81.7824928432704
 21
61.936856767678
 31
0.0
  0
LINE
  5
   1F4
  8
0
  6
CONTINUOUS
 62
     7
 10
117.132489570975
 20
61.936856767678
 30
0.0
 11
112.407494992018
 21
61.936856767678
 31
0.0
  0
LINE
  5
   1F5
  8
0
  6
CONTINUOUS
 62
     7
 10
117.132489570975
 20
55.6368568749664
 30
0.0
 11
81.7824928432704
 21
55.6368568749664
 31
0.0
  0
LINE
  5
   1F6
  8
0
  6
CONTINUOUS
 62
     7
 10
117.132489570975
 20
55.2868568809269
 30
0.0
 11
81.7824928432704
 21
55.2868568809269
 31
0.0
  0
LINE
  5
   1F7
  8
0
  6
CONTINUOUS
 62
     7
 10
112.407494992018
 20
83.9874932558664
 30
0.0
 11
97.7074952423573
 21
83.9874932558664
 31
0.0
  0
LINE
  5
   1F8
  8
0
  6
CONTINUOUS
 62
     7
 10
112.407494992018
 20
84.3696622099294
 30
0.0
 11
97.7074952423573
 21
84.3696622099294
 31
0.0
  0
LINE
  5
   1F9
  8
0
  6
CONTINUOUS
 62
     7
 10
112.407494992018
 20
56.6707723770733
 30
0.0
 11
97.7074952423573
 21
56.6707723770733
 31
0.0
  0
LINE
  5
   1FA
  8
0
  6
CONTINUOUS
 62
     7
 10
112.407494992018
 20
57.0529406635642
 30
0.0
 11
97.7074952423573
 21
57.0529406635642
 31
0.0
  0
LINE
  5
   1FB
  8
0
  6
CONTINUOUS
 62
     7
 10
94.0324939697981
 20
83.7522595715179
 30
0.0
 11
93.5074939787388
 21
83.7522595715179
 31
0.0
  0
LINE
  5
   1FC
  8
0
  6
CONTINUOUS
 62
     7
 10
94.0324939697981
 20
80.6022596251621
 30
0.0
 11
93.5074939787388
 21
80.6022596251621
 31
0.0
  0
LINE
  5
   1FD
  8
0
  6
CONTINUOUS
 62
     7
 10
94.0324939697981
 20
80.6022596251621
 30
0.0
 11
94.0324939697981
 21
83.7522595715179
 31
0.0
  0
LINE
  5
   1FE
  8
0
  6
CONTINUOUS
 62
     7
 10
93.5074939787388
 20
80.6022596251621
 30
0.0
 11
93.5074939787388
 21
83.7522595715179
 31
0.0
  0
CIRCLE
  5
   1FF
  8
0
  6
CONTINUOUS
 62
     7
 10
93.7699939742685
 20
58.7868568213222
 30
0.0
 40
1.13749998062849
  0
CIRCLE
  5
   200
  8
0
  6
CONTINUOUS
 62
     7
 10
93.7699939742685
 20
58.7868568213222
 30
0.0
 40
1.66249997168779
  0
LINE
  5
   201
  8
0
  6
CONTINUOUS
 62
     7
 10
113.369994975626
 20
79.0272596519842
 30
0.0
 11
113.369994975626
 21
85.3272595446958
 31
0.0
  0
LINE
  5
   202
  8
0
  6
CONTINUOUS
 62
     7
 10
96.7449952587485
 20
79.0272596519842
 30
0.0
 11
96.7449952587485
 21
85.3272595446958
 31
0.0
  0
LINE
  5
   203
  8
0
  6
CONTINUOUS
 62
     7
 10
117.132489570975
 20
79.0272596519842
 30
0.0
 11
113.369994975626
 21
79.0272596519842
 31
0.0
  0
LINE
  5
   204
  8
0
  6
CONTINUOUS
 62
     7
 10
113.369994975626
 20
55.6368568749664
 30
0.0
 11
113.369994975626
 21
61.936856767678
 31
0.0
  0
LINE
  5
   205
  8
0
  6
CONTINUOUS
 62
     7
 10
96.7449952587485
 20
55.6368568749664
 30
0.0
 11
96.7449952587485
 21
61.936856767678
 31
0.0
  0
LINE
  5
   206
  8
0
  6
CONTINUOUS
 62
     7
 10
129.382494702935
 20
99.2202208101753
 30
0.0
 11
80.7324955314398
 21
99.2202208101753
 31
0.0
  0
LINE
  5
   207
  8
0
  6
CONTINUOUS
 62
     7
 10
129.382494702935
 20
50.2202193915848
 30
0.0
 11
80.7324955314398
 21
50.2202193915848
 31
0.0
  0
LINE
  5
   208
  8
0
  6
CONTINUOUS
 62
     7
 10
126.407494753599
 20
91.6077182695274
 30
0.0
 11
126.407494753599
 21
92.657718251646
 31
0.0
  0
LINE
  5
   209
  8
0
  6
CONTINUOUS
 62
     7
 10
127.457494735718
 20
91.6077182695274
 30
0.0
 11
127.457494735718
 21
92.657718251646
 31
0.0
  0
LINE
  5
   20A
  8
0
  6
DOT
 62
     7
 10
120.702484436631
 20
53.8709299717514
 30
0.0
 11
120.702484436631
 21
56.7195084716718
 31
0.0
  0
LINE
  5
   20B
  8
0
  6
DOT
 62
     7
 10
125.112483827472
 20
53.8709299717514
 30
0.0
 11
125.112483827472
 21
56.7195084716718
 31
0.0
  0
LINE
  5
   20C
  8
0
  6
CONTINUOUS
 62
     7
 10
127.457484054566
 20
61.8577668413516
 30
0.0
 11
126.407484072447
 21
61.8577668413516
 31
0.0
  0
LINE
  5
   20D
  8
0
  6
CONTINUOUS
 62
     7
 10
126.232484075427
 20
60.807766859233
 30
0.0
 11
126.232484075427
 21
61.6827668443318
 31
0.0
  0
LINE
  5
   20E
  8
0
  6
CONTINUOUS
 62
     7
 10
126.232484075427
 20
60.1077662035819
 30
0.0
 11
126.232484075427
 21
60.807766859233
 31
0.0
  0
LINE
  5
   20F
  8
0
  6
CONTINUOUS
 62
     7
 10
126.232484075427
 20
59.4077662155028
 30
0.0
 11
126.232484075427
 21
60.1077662035819
 31
0.0
  0
LINE
  5
   210
  8
0
  6
CONTINUOUS
 62
     7
 10
126.232484075427
 20
58.7077662274238
 30
0.0
 11
126.232484075427
 21
59.4077662155028
 31
0.0
  0
LINE
  5
   211
  8
0
  6
CONTINUOUS
 62
     7
 10
126.232484075427
 20
57.8327662423249
 30
0.0
 11
126.232484075427
 21
58.7077662274238
 31
0.0
  0
LINE
  5
   212
  8
0
  6
CONTINUOUS
 62
     7
 10
127.457484054566
 20
57.6577662453051
 30
0.0
 11
126.407484072447
 21
57.6577662453051
 31
0.0
  0
LINE
  5
   213
  8
0
  6
CONTINUOUS
 62
     7
 10
127.632484051585
 20
57.8327662423249
 30
0.0
 11
127.632484051585
 21
58.7077662274238
 31
0.0
  0
LINE
  5
   214
  8
0
  6
CONTINUOUS
 62
     7
 10
127.632484051585
 20
58.7077662274238
 30
0.0
 11
127.632484051585
 21
59.4077662155028
 31
0.0
  0
LINE
  5
   215
  8
0
  6
CONTINUOUS
 62
     7
 10
127.632484051585
 20
59.4077662155028
 30
0.0
 11
127.632484051585
 21
60.1077662035819
 31
0.0
  0
LINE
  5
   216
  8
0
  6
CONTINUOUS
 62
     7
 10
127.632484051585
 20
60.1077662035819
 30
0.0
 11
127.632484051585
 21
60.807765524089
 31
0.0
  0
LINE
  5
   217
  8
0
  6
CONTINUOUS
 62
     7
 10
127.632484051585
 20
60.807765524089
 30
0.0
 11
127.632484051585
 21
61.6827668443318
 31
0.0
  0
ARC
  5
   218
  8
0
  6
CONTINUOUS
 62
     7
 10
126.932494549293
 20
92.6577175913421
 30
0.0
 40
0.524999347025833
 50
359.999973013555
 51
540.000043615088
  0
ARC
  5
   219
  8
0
  6
CONTINUOUS
 62
     7
 10
126.932461855201
 20
91.6077627455516
 30
0.0
 40
0.525051792022374
 50
180.004949696118
 51
359.995034083139
  0
ARC
  5
   21A
  8
0
  6
DOT
 62
     7
 10
122.907484874207
 20
55.2952205785296
 30
0.0
 40
2.62500161529754
 50
392.859977017252
 51
507.140082588953
  0
ARC
  5
   21B
  8
0
  6
DOT
 62
     7
 10
122.907484874207
 20
55.2952205785296
 30
0.0
 40
2.62500161529754
 50
212.859917307116
 51
327.140022878817
  0
ARC
  5
   21C
  8
0
  6
CONTINUOUS
 62
     7
 10
126.407484214012
 20
61.6827672539722
 30
0.0
 40
0.174999826669375
 50
449.999889462241
 51
540.000025360212
  0
ARC
  5
   21D
  8
0
  6
CONTINUOUS
 62
     7
 10
127.457484904034
 20
61.6827675299839
 30
0.0
 40
0.174999381341623
 50
359.999829068822
 51
450.000145163477
  0
ARC
  5
   21E
  8
0
  6
CONTINUOUS
 62
     7
 10
127.457484712548
 20
57.8327660898528
 30
0.0
 40
0.174999652581377
 50
269.999943873992
 51
360.000134042801
  0
ARC
  5
   21F
  8
0
  6
CONTINUOUS
 62
     7
 10
126.407483961923
 20
57.8327659222883
 30
0.0
 40
0.17499965433343
 50
179.999866090912
 51
270.000166521604
  0
ARC
  5
   220
  8
0
  6
CONTINUOUS
 62
     7
 10
129.382494702935
 20
50.3952193886046
 30
0.0
 40
0.174999997019768
 50
269.999999948034
 51
359.999999948034
  0
ARC
  5
   221
  8
0
  6
CONTINUOUS
 62
     7
 10
129.382494702935
 20
99.0452208131556
 30
0.0
 40
0.174999997019768
 50
359.999999948034
 51
449.999999948034
  0
LINE
  5
   222
  8
0
  6
DASHDOT
 62
     7
 10
126.932494549293
 20
89.7702182845494
 30
0.0
 11
126.932494549293
 21
91.5202169666801
 31
0.0
  0
LINE
  5
   223
  8
0
  6
DASHDOT
 62
     7
 10
127.807493890358
 20
92.6577175913421
 30
0.0
 11
126.057495208227
 21
92.6577175913421
 31
0.0
  0
LINE
  5
   224
  8
0
  6
DASHDOT
 62
     7
 10
126.932461855201
 20
66.3833182699451
 30
0.0
 11
126.932461855201
 21
94.4953144973408
 31
0.0
  0
LINE
  5
   225
  8
0
  6
DASHDOT
 62
     7
 10
127.807513641263
 20
91.6077627455516
 30
0.0
 11
126.057410069139
 21
91.6077627455516
 31
0.0
  0
LINE
  5
   226
  8
0
  6
DASHDOT
 62
     7
 10
122.907484874207
 20
52.3202189691925
 30
0.0
 11
122.907484874207
 21
58.2702221878667
 31
0.0
  0
LINE
  5
   227
  8
0
  6
DASHDOT
 62
     7
 10
125.882486483544
 20
55.2952205785296
 30
0.0
 11
119.93248326487
 21
55.2952205785296
 31
0.0
  0
LINE
  5
   228
  8
0
  6
DASHDOT
 62
     7
 10
127.369995074859
 20
50.5702195342494
 30
0.0
 11
127.369995074859
 21
54.2452193011444
 31
0.0
  0
LINE
  5
   229
  8
0
  6
DASHDOT
 62
     7
 10
129.207494958307
 20
52.4077194176969
 30
0.0
 11
125.532495191412
 21
52.4077194176969
 31
0.0
  0
LINE
  5
   22A
  8
0
  6
DASHDOT
 62
     7
 10
128.970684029976
 20
59.7577665433284
 30
0.0
 11
125.401411724822
 21
59.7577665433284
 31
0.0
  0
LINE
  5
   22B
  8
0
  6
DASHDOT
 62
     7
 10
126.932484063506
 20
57.0039150769644
 30
0.0
 11
126.932484063506
 21
62.3766091784061
 31
0.0
  0
ARC
  5
   22C
  8
0
  6
CONTINUOUS
 62
     7
 10
80.7324955314398
 20
50.3952193886046
 30
0.0
 40
0.174999997019768
 50
179.999999948034
 51
269.999999948034
  0
ARC
  5
   22D
  8
0
  6
CONTINUOUS
 62
     7
 10
80.7324955314398
 20
99.0452208131556
 30
0.0
 40
0.174999997019768
 50
89.9999999480344
 51
179.999999948034
  0
LINE
  5
   22E
  8
0
  6
CONTINUOUS
 62
     7
 10
129.382494702935
 20
99.2202208101753
 30
0.0
 11
80.7324955314398
 21
99.2202208101753
 31
0.0
  0
LINE
  5
   22F
  8
0
  6
CONTINUOUS
 62
     7
 10
129.382494702935
 20
50.2202193915848
 30
0.0
 11
80.7324955314398
 21
50.2202193915848
 31
0.0
  0
LINE
  5
   230
  8
0
  6
CONTINUOUS
 62
     7
 10
129.294994704425
 20
95.0202208817009
 30
0.0
 11
80.8199955299497
 21
95.0202208817009
 31
0.0
  0
LINE
  5
   231
  8
0
  6
CONTINUOUS
 62
     7
 10
129.294994704425
 20
98.5202208220962
 30
0.0
 11
80.8199955299497
 21
98.5202208220962
 31
0.0
  0
LINE
  5
   232
  8
0
  6
CONTINUOUS
 62
     7
 10
80.55749553442
 20
50.3952193886046
 30
0.0
 11
80.55749553442
 21
99.0452208131556
 31
0.0
  0
LINE
  5
   233
  8
0
  6
CONTINUOUS
 62
     7
 10
129.557494699955
 20
50.3952193886046
 30
0.0
 11
129.557494699955
 21
99.0452208131556
 31
0.0
  0
LINE
  5
   234
  8
0
  6
CONTINUOUS
 62
     7
 10
116.782489576936
 20
93.9702182292942
 30
0.0
 11
82.1324928373099
 21
93.9702182292942
 31
0.0
  0
LINE
  5
   235
  8
0
  6
CONTINUOUS
 62
     7
 10
116.957489573956
 20
51.4452187865977
 30
0.0
 11
82.1324928373099
 21
51.4452187865977
 31
0.0
  0
LINE
  5
   236
  8
0
  6
CONTINUOUS
 62
     7
 10
81.7824928432704
 20
51.7952187806372
 30
0.0
 11
81.7824928432704
 21
93.6202182352547
 31
0.0
  0
LINE
  5
   237
  8
0
  6
CONTINUOUS
 62
     7
 10
117.132489570975
 20
51.6202187836174
 30
0.0
 11
117.132489570975
 21
93.6202182352547
 31
0.0
  0
LINE
  5
   238
  8
0
  6
CONTINUOUS
 62
     7
 10
127.457497406006
 20
76.7327185228471
 30
0.0
 11
127.457497406006
 21
77.4326918080458
 31
0.0
  0
LINE
  5
   239
  8
0
  6
CONTINUOUS
 62
     7
 10
127.457500076294
 20
74.8077185556297
 30
0.0
 11
127.457500076294
 21
75.5077185437087
 31
0.0
  0
LINE
  5
   23A
  8
0
  6
CONTINUOUS
 62
     7
 10
126.407489413645
 20
69.9952173026811
 30
0.0
 11
126.407494754221
 21
70.6952186259012
 31
0.0
  0
LINE
  5
   23B
  8
0
  6
CONTINUOUS
 62
     7
 10
126.407477174201
 20
69.9952173024569
 30
0.0
 11
126.407477174201
 21
79.4452158063804
 31
0.0
  0
LINE
  5
   23C
  8
0
  6
CONTINUOUS
 62
     7
 10
127.457508087158
 20
69.995217302442
 30
0.0
 11
126.407494753599
 21
69.995217302442
 31
0.0
  0
LINE
  5
   23D
  8
0
  6
CONTINUOUS
 62
     7
 10
127.457508087172
 20
69.9952173077329
 30
0.0
 11
127.45749740602
 21
79.4451917785041
 31
0.0
  0
LINE
  5
   23E
  8
0
  6
CONTINUOUS
 62
     7
 10
127.457497417737
 20
79.4451917816802
 30
0.0
 11
126.407502776167
 21
79.4452158142726
 31
0.0
  0
LINE
  5
   23F
  8
0
  6
CONTINUOUS
 62
     7
 10
97.7074952423573
 20
57.0529406635642
 30
0.0
 11
97.7074952423573
 21
83.9874925882944
 31
0.0
  0
LINE
  5
   240
  8
0
  6
CONTINUOUS
 62
     7
 10
112.407494992018
 20
57.0529406635642
 30
0.0
 11
112.407494992018
 21
83.9874925882944
 31
0.0
  0
LINE
  5
   241
  8
0
  6
CONTINUOUS
 62
     7
 10
112.407494992018
 20
57.0529406635642
 30
0.0
 11
97.7074952423573
 21
57.0529406635642
 31
0.0
  0
LINE
  5
   242
  8
0
  6
CONTINUOUS
 62
     7
 10
112.407494992018
 20
57.3077195212249
 30
0.0
 11
97.7074952423573
 21
57.3077195212249
 31
0.0
  0
LINE
  5
   243
  8
0
  6
CONTINUOUS
 62
     7
 10
112.407494992018
 20
83.7327157333498
 30
0.0
 11
97.7074952423573
 21
83.7327157333498
 31
0.0
  0
LINE
  5
   244
  8
0
  6
CONTINUOUS
 62
     7
 10
112.407494992018
 20
83.9874932558664
 30
0.0
 11
97.7074952423573
 21
83.9874932558664
 31
0.0
  0
CIRCLE
  5
   245
  8
0
  6
CONTINUOUS
 62
     7
 10
127.36999024208
 20
52.4077192983676
 30
0.0
 40
0.91000257013118
  0
CIRCLE
  5
   246
  8
0
  6
CONTINUOUS
 62
     7
 10
127.369989722309
 20
52.4077185594442
 30
0.0
 40
1.48750411169073
  0
LINE
  5
   247
  8
0
  6
CONTINUOUS
 62
     7
 10
129.294994704425
 20
50.6577193841342
 30
0.0
 11
129.294994704425
 21
98.7827208176259
 31
0.0
  0
LINE
  5
   248
  8
0
  6
CONTINUOUS
 62
     7
 10
129.119994707406
 20
50.4827193871145
 30
0.0
 11
80.9949955269694
 21
50.4827193871145
 31
0.0
  0
LINE
  5
   249
  8
0
  6
CONTINUOUS
 62
     7
 10
80.8199955299497
 20
50.6577193841342
 30
0.0
 11
80.8199955299497
 21
98.7827208176259
 31
0.0
  0
LINE
  5
   24A
  8
0
  6
CONTINUOUS
 62
     7
 10
129.119994707406
 20
98.9577208146457
 30
0.0
 11
80.9949955269694
 21
98.9577208146457
 31
0.0
  0
ARC
  5
   24B
  8
0
  6
CONTINUOUS
 62
     7
 10
80.9949955269694
 20
98.7827208176259
 30
0.0
 40
0.174999997019768
 50
89.9999999480344
 51
179.999999948034
  0
ARC
  5
   24C
  8
0
  6
CONTINUOUS
 62
     7
 10
129.119994707406
 20
98.7827208176259
 30
0.0
 40
0.174999997019768
 50
359.999999948034
 51
449.999999948034
  0
ARC
  5
   24D
  8
0
  6
CONTINUOUS
 62
     7
 10
129.119994707406
 20
50.6577193841342
 30
0.0
 40
0.174999997019768
 50
269.999999948034
 51
359.999999948034
  0
ARC
  5
   24E
  8
0
  6
CONTINUOUS
 62
     7
 10
80.9949955269694
 20
50.6577193841342
 30
0.0
 40
0.174999997019768
 50
179.999999948034
 51
269.999999948034
  0
ARC
  5
   24F
  8
0
  6
CONTINUOUS
 62
     7
 10
82.1324928373099
 20
51.7952187806372
 30
0.0
 40
0.349999994039536
 50
179.999999948034
 51
269.999999948034
  0
ARC
  5
   250
  8
0
  6
CONTINUOUS
 62
     7
 10
82.1324928373099
 20
93.6202182352547
 30
0.0
 40
0.349999994039536
 50
89.9999999480344
 51
179.999999948034
  0
ARC
  5
   251
  8
0
  6
CONTINUOUS
 62
     7
 10
116.782489576936
 20
93.6202182352547
 30
0.0
 40
0.349999994039536
 50
359.999999948034
 51
449.999999948034
  0
LINE
  5
   252
  8
0
  6
CONTINUOUS
 62
     7
 10
116.959659573919
 20
51.2680487896149
 30
0.0
 11
81.9553228403271
 21
51.2680487896149
 31
0.0
  0
LINE
  5
   253
  8
0
  6
CONTINUOUS
 62
     7
 10
81.6053228462875
 20
51.6180487836544
 30
0.0
 11
81.6053228462875
 21
93.7973882322375
 31
0.0
  0
LINE
  5
   254
  8
0
  6
CONTINUOUS
 62
     7
 10
117.309659567958
 20
51.6180487836544
 30
0.0
 11
117.309659567958
 21
93.7973882322375
 31
0.0
  0
LINE
  5
   255
  8
0
  6
CONTINUOUS
 62
     7
 10
116.959659573919
 20
94.147388226277
 30
0.0
 11
81.9553228403271
 21
94.147388226277
 31
0.0
  0
ARC
  5
   256
  8
0
  6
CONTINUOUS
 62
     7
 10
116.959659573919
 20
93.7973882322375
 30
0.0
 40
0.349999994039536
 50
359.999999948034
 51
449.999999948034
  0
ARC
  5
   257
  8
0
  6
CONTINUOUS
 62
     7
 10
116.959659573919
 20
51.6180487836544
 30
0.0
 40
0.349999994039536
 50
269.999999948034
 51
359.999999948034
  0
ARC
  5
   258
  8
0
  6
CONTINUOUS
 62
     7
 10
81.9553228403271
 20
51.6180487836544
 30
0.0
 40
0.349999994039536
 50
179.999999948034
 51
269.999999948034
  0
ARC
  5
   259
  8
0
  6
CONTINUOUS
 62
     7
 10
81.9553228403271
 20
93.7973882322375
 30
0.0
 40
0.349999994039536
 50
89.9999999480344
 51
179.999999948034
  0
LINE
  5
   25A
  8
0
  6
CONTINUOUS
 62
     7
 10
116.782489576936
 20
53.0286316546846
 30
0.0
 11
116.782489576936
 21
85.820662332897
 31
0.0
  0
LINE
  5
   25B
  8
0
  6
DASHDOT
 62
     7
 10
125.532495191412
 20
52.4077194176969
 30
0.0
 11
117.790583969134
 21
52.4077194176969
 31
0.0
  0
LINE
  5
   25C
  8
0
  6
CONTINUOUS
 62
     7
 10
127.352489663959
 20
60.9827668562527
 30
0.0
 11
127.352489663959
 21
61.6827668443318
 31
0.0
  0
LINE
  5
   25D
  8
0
  6
CONTINUOUS
 62
     7
 10
127.632484051585
 20
61.6827668443318
 30
0.0
 11
127.352489663959
 21
61.6827668443318
 31
0.0
  0
LINE
  5
   25E
  8
0
  6
CONTINUOUS
 62
     7
 10
127.632484051585
 20
60.9827668562527
 30
0.0
 11
127.352489663959
 21
60.9827668562527
 31
0.0
  0
LINE
  5
   25F
  8
0
  6
CONTINUOUS
 62
     7
 10
126.512485138774
 20
57.8327662423249
 30
0.0
 11
126.512485138774
 21
58.532766230404
 31
0.0
  0
LINE
  5
   260
  8
0
  6
CONTINUOUS
 62
     7
 10
126.512485138774
 20
57.8327662423249
 30
0.0
 11
126.232485410571
 21
57.8327662423249
 31
0.0
  0
LINE
  5
   261
  8
0
  6
CONTINUOUS
 62
     7
 10
126.512485138774
 20
58.532766230404
 30
0.0
 11
126.232485410571
 21
58.532766230404
 31
0.0
  0
ARC
  5
   262
  8
0
  6
CONTINUOUS
 62
     7
 10
116.957489573956
 20
51.6202187836174
 30
0.0
 40
0.174999997019768
 50
269.999999948034
 51
359.999999948034
  0
LINE
  5
   263
  8
0
  6
DASHDOT
 62
     7
 10
101.032629067965
 20
109.300148909685
 30
0.0
 11
101.032629067965
 21
114.340310249551
 31
0.0
  0
LINE
  5
   264
  8
0
  6
CONTINUOUS
 62
     1
 10
141.7200022832
 20
107.970226001739
 30
0.0
 11
131.65749733448
 21
107.970226001739
 31
0.0
  0
LINE
  5
   265
  8
0
  6
CONTINUOUS
 62
     1
 10
141.80750228171
 20
46.3702270507812
 30
0.0
 11
131.65749733448
 21
46.3702270507812
 31
0.0
  0
LINE
  5
   266
  8
0
  6
CONTINUOUS
 62
     1
 10
68.3950035319175
 20
54.5077215716243
 30
0.0
 11
68.3950035319175
 21
90.907720951736
 31
0.0
  0
LINE
  5
   267
  8
0
  6
CONTINUOUS
 62
     1
 10
141.7200022832
 20
54.5077215716243
 30
0.0
 11
141.7200022832
 21
90.907720951736
 31
0.0
  0
LINE
  5
   268
  8
0
  6
CONTINUOUS
 62
     1
 10
141.54500228618
 20
54.3327215746045
 30
0.0
 11
131.65749733448
 21
54.3327215746045
 31
0.0
  0
LINE
  5
   269
  8
0
  6
CONTINUOUS
 62
     1
 10
141.54500228618
 20
91.0827209487558
 30
0.0
 11
131.65749733448
 21
91.0827209487558
 31
0.0
  0
LINE
  5
   26A
  8
0
  6
CONTINUOUS
 62
     1
 10
141.80750228171
 20
46.7202270239591
 30
0.0
 11
131.65749733448
 21
46.7202270239591
 31
0.0
  0
LINE
  5
   26B
  8
0
  6
CONTINUOUS
 62
     1
 10
140.249998035773
 20
91.0827209487558
 30
0.0
 11
140.249998035773
 21
107.970226001739
 31
0.0
  0
LINE
  5
   26C
  8
0
  6
CONTINUOUS
 62
     1
 10
141.054999090179
 20
91.0827209487558
 30
0.0
 11
141.054999090179
 21
107.970226001739
 31
0.0
  0
LINE
  5
   26D
  8
0
  6
CONTINUOUS
 62
     1
 10
135.210000257834
 20
91.0827209487558
 30
0.0
 11
135.210000257834
 21
107.970226001739
 31
0.0
  0
LINE
  5
   26E
  8
0
  6
CONTINUOUS
 62
     1
 10
136.469997032031
 20
91.0827209487558
 30
0.0
 11
136.469997032031
 21
107.970226001739
 31
0.0
  0
LINE
  5
   26F
  8
0
  6
CONTINUOUS
 62
     1
 10
137.729999146804
 20
91.0827209487558
 30
0.0
 11
137.729999146804
 21
107.970226001739
 31
0.0
  0
LINE
  5
   270
  8
0
  6
CONTINUOUS
 62
     1
 10
138.990001261577
 20
91.0827209487558
 30
0.0
 11
138.990001261577
 21
107.970226001739
 31
0.0
  0
LINE
  5
   271
  8
0
  6
CONTINUOUS
 62
     1
 10
132.690001368865
 20
91.0827209487558
 30
0.0
 11
132.690001368865
 21
107.970226001739
 31
0.0
  0
LINE
  5
   272
  8
0
  6
CONTINUOUS
 62
     1
 10
133.949998143062
 20
91.0827209487558
 30
0.0
 11
133.949998143062
 21
107.970226001739
 31
0.0
  0
LINE
  5
   273
  8
0
  6
CONTINUOUS
 62
     1
 10
136.469997032031
 20
54.3327215746045
 30
0.0
 11
136.469997032031
 21
91.0827209487558
 31
0.0
  0
LINE
  5
   274
  8
0
  6
CONTINUOUS
 62
     1
 10
138.990001261577
 20
54.3327215746045
 30
0.0
 11
138.990001261577
 21
91.0827209487558
 31
0.0
  0
LINE
  5
   275
  8
0
  6
CONTINUOUS
 62
     1
 10
137.729999146804
 20
54.3327215746045
 30
0.0
 11
137.729999146804
 21
91.0827209487558
 31
0.0
  0
LINE
  5
   276
  8
0
  6
CONTINUOUS
 62
     1
 10
133.949998143062
 20
54.3327215746045
 30
0.0
 11
133.949998143062
 21
91.0827209487558
 31
0.0
  0
LINE
  5
   277
  8
0
  6
CONTINUOUS
 62
     1
 10
132.690001368865
 20
54.3327215746045
 30
0.0
 11
132.690001368865
 21
91.0827209487558
 31
0.0
  0
LINE
  5
   278
  8
0
  6
CONTINUOUS
 62
     1
 10
140.249998035773
 20
54.3327215746045
 30
0.0
 11
140.249998035773
 21
91.0827209487558
 31
0.0
  0
LINE
  5
   279
  8
0
  6
CONTINUOUS
 62
     1
 10
141.054999090179
 20
54.3327215746045
 30
0.0
 11
141.054999090179
 21
91.0827209487558
 31
0.0
  0
LINE
  5
   27A
  8
0
  6
CONTINUOUS
 62
     1
 10
140.249998035773
 20
46.7202270239591
 30
0.0
 11
140.249998035773
 21
54.3327215537429
 31
0.0
  0
LINE
  5
   27B
  8
0
  6
CONTINUOUS
 62
     1
 10
141.054999090179
 20
46.7202270239591
 30
0.0
 11
141.054999090179
 21
54.3327215537429
 31
0.0
  0
LINE
  5
   27C
  8
0
  6
CONTINUOUS
 62
     1
 10
135.210000257834
 20
46.7202270239591
 30
0.0
 11
135.210000257834
 21
91.0827209487558
 31
0.0
  0
LINE
  5
   27D
  8
0
  6
CONTINUOUS
 62
     1
 10
136.469997032031
 20
46.7202270239591
 30
0.0
 11
136.469997032031
 21
54.3327215537429
 31
0.0
  0
LINE
  5
   27E
  8
0
  6
CONTINUOUS
 62
     1
 10
137.729999146804
 20
46.7202270239591
 30
0.0
 11
137.729999146804
 21
54.3327215537429
 31
0.0
  0
LINE
  5
   27F
  8
0
  6
CONTINUOUS
 62
     1
 10
138.990001261577
 20
46.7202270239591
 30
0.0
 11
138.990001261577
 21
54.3327215537429
 31
0.0
  0
LINE
  5
   280
  8
0
  6
CONTINUOUS
 62
     1
 10
132.690001368865
 20
46.7202270239591
 30
0.0
 11
132.690001368865
 21
54.3327215537429
 31
0.0
  0
LINE
  5
   281
  8
0
  6
CONTINUOUS
 62
     1
 10
133.949998143062
 20
46.7202270239591
 30
0.0
 11
133.949998143062
 21
54.3327215537429
 31
0.0
  0
LINE
  5
   282
  8
0
  6
CONTINUOUS
 62
     1
 10
69.8650034401263
 20
91.0827209487558
 30
0.0
 11
69.8650034401263
 21
107.970226001739
 31
0.0
  0
LINE
  5
   283
  8
0
  6
CONTINUOUS
 62
     1
 10
69.0600033870782
 20
91.0827209487558
 30
0.0
 11
69.0600033870782
 21
107.970226001739
 31
0.0
  0
LINE
  5
   284
  8
0
  6
CONTINUOUS
 62
     1
 10
74.9050002167072
 20
91.0827209487558
 30
0.0
 11
74.9050002167072
 21
107.970226001739
 31
0.0
  0
LINE
  5
   285
  8
0
  6
CONTINUOUS
 62
     1
 10
73.6450034425105
 20
91.0827209487558
 30
0.0
 11
73.6450034425105
 21
107.970226001739
 31
0.0
  0
LINE
  5
   286
  8
0
  6
CONTINUOUS
 62
     1
 10
72.3850033304538
 20
91.0827209487558
 30
0.0
 11
72.3850033304538
 21
107.970226001739
 31
0.0
  0
LINE
  5
   287
  8
0
  6
CONTINUOUS
 62
     1
 10
71.125003218397
 20
91.0827209487558
 30
0.0
 11
71.125003218397
 21
107.970226001739
 31
0.0
  0
LINE
  5
   288
  8
0
  6
CONTINUOUS
 62
     1
 10
77.4249991056766
 20
91.0827209487558
 30
0.0
 11
77.4249991056766
 21
107.970226001739
 31
0.0
  0
LINE
  5
   289
  8
0
  6
CONTINUOUS
 62
     1
 10
76.1650023314799
 20
91.0827209487558
 30
0.0
 11
76.1650023314799
 21
107.970226001739
 31
0.0
  0
LINE
  5
   28A
  8
0
  6
CONTINUOUS
 62
     1
 10
73.6450031087245
 20
54.3327215746045
 30
0.0
 11
73.6450031087245
 21
91.0827209487558
 31
0.0
  0
LINE
  5
   28B
  8
0
  6
CONTINUOUS
 62
     1
 10
74.9050002167072
 20
54.3327215746045
 30
0.0
 11
74.9050002167072
 21
91.0827209487558
 31
0.0
  0
LINE
  5
   28C
  8
0
  6
CONTINUOUS
 62
     1
 10
71.125003218397
 20
54.3327215746045
 30
0.0
 11
71.125003218397
 21
91.0827209487558
 31
0.0
  0
LINE
  5
   28D
  8
0
  6
CONTINUOUS
 62
     1
 10
72.3850033304538
 20
54.3327215746045
 30
0.0
 11
72.3850033304538
 21
91.0827209487558
 31
0.0
  0
LINE
  5
   28E
  8
0
  6
CONTINUOUS
 62
     1
 10
76.1650023314799
 20
54.3327215746045
 30
0.0
 11
76.1650023314799
 21
91.0827209487558
 31
0.0
  0
LINE
  5
   28F
  8
0
  6
CONTINUOUS
 62
     1
 10
77.4249991056766
 20
54.3327215746045
 30
0.0
 11
77.4249991056766
 21
91.0827209487558
 31
0.0
  0
LINE
  5
   290
  8
0
  6
CONTINUOUS
 62
     1
 10
69.8650034401263
 20
54.3327215746045
 30
0.0
 11
69.8650034401263
 21
91.0827209487558
 31
0.0
  0
LINE
  5
   291
  8
0
  6
CONTINUOUS
 62
     1
 10
69.0600033870782
 20
54.3327215746045
 30
0.0
 11
69.0600033870782
 21
91.0827209487558
 31
0.0
  0
LINE
  5
   292
  8
0
  6
CONTINUOUS
 62
     1
 10
69.8650034401263
 20
46.7202270239591
 30
0.0
 11
69.8650034401263
 21
54.3327215537429
 31
0.0
  0
LINE
  5
   293
  8
0
  6
CONTINUOUS
 62
     1
 10
69.0600033870782
 20
46.7202270239591
 30
0.0
 11
69.0600033870782
 21
54.3327215537429
 31
0.0
  0
LINE
  5
   294
  8
0
  6
CONTINUOUS
 62
     1
 10
74.9050002167072
 20
46.7202270239591
 30
0.0
 11
74.9050002167072
 21
54.3327215537429
 31
0.0
  0
LINE
  5
   295
  8
0
  6
CONTINUOUS
 62
     1
 10
73.6450034425105
 20
46.7202270239591
 30
0.0
 11
73.6450034425105
 21
54.3327215537429
 31
0.0
  0
LINE
  5
   296
  8
0
  6
CONTINUOUS
 62
     1
 10
72.3850033304538
 20
46.7202270239591
 30
0.0
 11
72.3850033304538
 21
54.3327215537429
 31
0.0
  0
LINE
  5
   297
  8
0
  6
CONTINUOUS
 62
     1
 10
71.125003218397
 20
46.7202270239591
 30
0.0
 11
71.125003218397
 21
54.3327215537429
 31
0.0
  0
LINE
  5
   298
  8
0
  6
CONTINUOUS
 62
     1
 10
77.4249991056766
 20
46.7202270239591
 30
0.0
 11
77.4249991056766
 21
54.3327215537429
 31
0.0
  0
LINE
  5
   299
  8
0
  6
CONTINUOUS
 62
     1
 10
76.1650023314799
 20
46.7202270239591
 30
0.0
 11
76.1650023314799
 21
54.3327215537429
 31
0.0
  0
ARC
  5
   29A
  8
0
  6
CONTINUOUS
 62
     1
 10
68.5700035289372
 20
90.907720951736
 30
0.0
 40
0.174999997019768
 50
89.9999999480344
 51
179.999999948034
  0
ARC
  5
   29B
  8
0
  6
CONTINUOUS
 62
     1
 10
141.54500228618
 20
90.907720951736
 30
0.0
 40
0.174999997019768
 50
359.999999948034
 51
449.999999948034
  0
ARC
  5
   29C
  8
0
  6
CONTINUOUS
 62
     1
 10
141.54500228618
 20
54.5077215716243
 30
0.0
 40
0.174999997019768
 50
269.999999948034
 51
359.999999948034
  0
ARC
  5
   29D
  8
0
  6
CONTINUOUS
 62
     1
 10
68.5700035289372
 20
54.5077215716243
 30
0.0
 40
0.174999997019768
 50
179.999999948034
 51
269.999999948034
  0
LINE
  5
   29E
  8
0
  6
CONTINUOUS
 62
     1
 10
69.182485118884
 20
23.7252271693967
 30
0.0
 11
68.3950035319175
 21
23.7252271693967
 31
0.0
  0
LINE
  5
   29F
  8
0
  6
CONTINUOUS
 62
     3
 10
69.182485118884
 20
23.2702271103881
 30
0.0
 11
69.182485118884
 21
23.7252271693967
 31
0.0
  0
LINE
  5
   2A0
  8
0
  6
CONTINUOUS
 62
     3
 10
92.0199793893876
 20
22.7452274531163
 30
0.0
 11
69.7074851099433
 21
22.7452274531163
 31
0.0
  0
LINE
  5
   2A1
  8
0
  6
CONTINUOUS
 62
     3
 10
116.519984312731
 20
22.7452274531155
 30
0.0
 11
93.5949847031416
 21
22.7452274531155
 31
0.0
  0
LINE
  5
   2A2
  8
0
  6
CONTINUOUS
 62
     3
 10
140.407478565353
 20
22.7452274530959
 30
0.0
 11
118.094984285909
 21
22.7452274530959
 31
0.0
  0
LINE
  5
   2A3
  8
0
  6
CONTINUOUS
 62
     3
 10
140.932478556413
 20
23.2702274441741
 30
0.0
 11
140.932478556413
 21
23.7252271693967
 31
0.0
  0
LINE
  5
   2A4
  8
0
  6
CONTINUOUS
 62
     1
 10
141.7200022832
 20
23.7252271693967
 30
0.0
 11
140.932478556413
 21
23.7252271693967
 31
0.0
  0
LINE
  5
   2A5
  8
0
  6
CONTINUOUS
 62
     1
 10
140.932473215818
 20
23.7252269678312
 30
0.0
 11
140.932473215818
 21
31.3202273070849
 31
0.0
  0
LINE
  5
   2A6
  8
0
  6
CONTINUOUS
 62
     1
 10
69.182485118884
 20
23.7252271693967
 30
0.0
 11
69.182485118884
 21
31.3202273070849
 31
0.0
  0
LINE
  5
   2A7
  8
0
  6
CONTINUOUS
 62
     1
 10
133.582481666396
 20
29.5702217950243
 30
0.0
 11
131.664755564615
 21
29.5702271355987
 31
0.0
  0
LINE
  5
   2A8
  8
0
  6
CONTINUOUS
 62
     1
 10
127.450202566313
 20
29.570217510181
 30
0.0
 11
125.532476463639
 21
29.5702228507554
 31
0.0
  0
LINE
  5
   2A9
  8
0
  6
CONTINUOUS
 62
     1
 10
127.450204921268
 20
25.3702274084114
 30
0.0
 11
125.532478818673
 21
25.3702274084114
 31
0.0
  0
LINE
  5
   2AA
  8
0
  6
CONTINUOUS
 62
     1
 10
133.582478681582
 20
25.3702274084114
 30
0.0
 11
131.664757919563
 21
25.3702274084114
 31
0.0
  0
LINE
  5
   2AB
  8
0
  6
CONTINUOUS
 62
     1
 10
84.582482502957
 20
29.5702193975621
 30
0.0
 11
82.6647564002835
 21
29.5702247381365
 31
0.0
  0
LINE
  5
   2AC
  8
0
  6
CONTINUOUS
 62
     1
 10
78.4502034010954
 20
29.5702204532949
 30
0.0
 11
76.5324772984219
 21
29.5702257938692
 31
0.0
  0
LINE
  5
   2AD
  8
0
  6
CONTINUOUS
 62
     1
 10
78.4502057557334
 20
25.3702274084114
 30
0.0
 11
76.5324796531381
 21
25.3702274084114
 31
0.0
  0
LINE
  5
   2AE
  8
0
  6
CONTINUOUS
 62
     1
 10
84.5824795160475
 20
25.3702274084114
 30
0.0
 11
82.6647587540283
 21
25.3702274084114
 31
0.0
  0
LINE
  5
   2AF
  8
0
  6
CONTINUOUS
 62
     1
 10
109.082482084676
 20
29.5702205962932
 30
0.0
 11
107.164755982003
 21
29.5702259368676
 31
0.0
  0
LINE
  5
   2B0
  8
0
  6
CONTINUOUS
 62
     1
 10
102.950202983708
 20
29.570221652026
 30
0.0
 11
101.032476881034
 21
29.5702269926003
 31
0.0
  0
LINE
  5
   2B1
  8
0
  6
CONTINUOUS
 62
     1
 10
102.950205338501
 20
25.3702274084114
 30
0.0
 11
101.032479235906
 21
25.3702274084114
 31
0.0
  0
LINE
  5
   2B2
  8
0
  6
CONTINUOUS
 62
     1
 10
109.082479098815
 20
25.3702274084114
 30
0.0
 11
107.164758336796
 21
25.3702274084114
 31
0.0
  0
LINE
  5
   2B3
  8
0
  6
CONTINUOUS
 62
     3
 10
118.532484278458
 20
23.6202274382137
 30
0.0
 11
118.532484278458
 21
25.1952274113916
 31
0.0
  0
LINE
  5
   2B4
  8
0
  6
CONTINUOUS
 62
     3
 10
118.532484278458
 20
23.6202274382137
 30
0.0
 11
118.094984285909
 21
23.6202274382137
 31
0.0
  0
LINE
  5
   2B5
  8
0
  6
CONTINUOUS
 62
     3
 10
118.094984285909
 20
22.745227453109
 30
0.0
 11
118.094984285909
 21
23.6202274382078
 31
0.0
  0
LINE
  5
   2B6
  8
0
  6
CONTINUOUS
 62
     3
 10
116.519984312731
 20
22.7452274531155
 30
0.0
 11
116.519984312731
 21
23.6202274382143
 31
0.0
  0
LINE
  5
   2B7
  8
0
  6
CONTINUOUS
 62
     3
 10
116.519984312731
 20
23.6202274382137
 30
0.0
 11
116.082484320182
 21
23.6202274382137
 31
0.0
  0
LINE
  5
   2B8
  8
0
  6
CONTINUOUS
 62
     3
 10
116.082484320182
 20
23.6202274382137
 30
0.0
 11
116.082484320182
 21
25.1952274113916
 31
0.0
  0
LINE
  5
   2B9
  8
0
  6
CONTINUOUS
 62
     3
 10
118.532484278458
 20
25.1952274113916
 30
0.0
 11
116.082484320182
 21
25.1952274113916
 31
0.0
  0
LINE
  5
   2BA
  8
0
  6
CONTINUOUS
 62
     3
 10
91.5824793968382
 20
23.6202274382137
 30
0.0
 11
91.5824793968382
 21
25.1952274113916
 31
0.0
  0
LINE
  5
   2BB
  8
0
  6
CONTINUOUS
 62
     3
 10
92.0199793893876
 20
23.6202274382137
 30
0.0
 11
91.5824793968382
 21
23.6202274382137
 31
0.0
  0
LINE
  5
   2BC
  8
0
  6
CONTINUOUS
 62
     3
 10
92.0199793893876
 20
22.745227453109
 30
0.0
 11
92.0199793893876
 21
23.6202274382078
 31
0.0
  0
LINE
  5
   2BD
  8
0
  6
CONTINUOUS
 62
     3
 10
93.5949793625655
 20
22.7452274531155
 30
0.0
 11
93.5949793625655
 21
23.6202274382143
 31
0.0
  0
LINE
  5
   2BE
  8
0
  6
CONTINUOUS
 62
     3
 10
94.0324793551149
 20
23.6202274382137
 30
0.0
 11
93.5949793625655
 21
23.6202274382137
 31
0.0
  0
LINE
  5
   2BF
  8
0
  6
CONTINUOUS
 62
     3
 10
94.0324793551149
 20
23.6202274382137
 30
0.0
 11
94.0324793551149
 21
25.1952274113916
 31
0.0
  0
LINE
  5
   2C0
  8
0
  6
CONTINUOUS
 62
     3
 10
94.0324793551149
 20
25.1952274113916
 30
0.0
 11
91.5824793968382
 21
25.1952274113916
 31
0.0
  0
ARC
  5
   2C1
  8
0
  6
CONTINUOUS
 62
     3
 10
69.7074833943975
 20
23.2702264846179
 30
0.0
 40
0.524998573004765
 50
179.999941123702
 51
270.000103159103
  0
CIRCLE
  5
   2C2
  8
0
  6
CONTINUOUS
 62
     1
 10
70.5824843199083
 20
24.1452269303336
 30
0.0
 40
0.49000039187499
  0
ARC
  5
   2C3
  8
0
  6
CONTINUOUS
 62
     1
 10
76.5324734685559
 20
27.4702227197307
 30
0.0
 40
2.09999798521424
 50
90.0001399327154
 51
270.000100332566
  0
ARC
  5
   2C4
  8
0
  6
CONTINUOUS
 62
     1
 10
80.5574760704966
 20
27.4702594831751
 30
0.0
 40
2.97503256700413
 50
404.899302393594
 51
495.100813987516
  0
ARC
  5
   2C5
  8
0
  6
CONTINUOUS
 62
     1
 10
84.582480973568
 20
27.4702248526267
 30
0.0
 40
2.09999509708851
 50
269.999747131106
 51
450.000048027357
  0
CIRCLE
  5
   2C6
  8
0
  6
CONTINUOUS
 62
     1
 10
92.8074839458011
 20
28.1702399089068
 30
0.0
 40
1.83749026298616
  0
CIRCLE
  5
   2C7
  8
0
  6
CONTINUOUS
 62
     1
 10
92.8074742902954
 20
28.1702165394522
 30
0.0
 40
0.962507390421093
  0
ARC
  5
   2C8
  8
0
  6
CONTINUOUS
 62
     1
 10
101.032449190941
 20
27.4702066226879
 30
0.0
 40
2.09996804617799
 50
449.999680793011
 51
630.000858183329
  0
ARC
  5
   2C9
  8
0
  6
CONTINUOUS
 62
     1
 10
105.057495117188
 20
27.4702324755757
 30
0.0
 40
2.97499672471136
 50
404.900757179708
 51
495.099359217673
  0
ARC
  5
   2CA
  8
0
  6
CONTINUOUS
 62
     1
 10
109.082479809272
 20
27.4702253323861
 30
0.0
 40
2.09999630096849
 50
269.999783457987
 51
450.000092622467
  0
CIRCLE
  5
   2CB
  8
0
  6
CONTINUOUS
 62
     1
 10
117.307518661368
 20
28.170176199558
 30
0.0
 40
1.83755586507084
  0
CIRCLE
  5
   2CC
  8
0
  6
CONTINUOUS
 62
     1
 10
117.30746409746
 20
28.1702464166554
 30
0.0
 40
0.962478285897051
  0
ARC
  5
   2CD
  8
0
  6
CONTINUOUS
 62
     1
 10
125.532465861095
 20
27.4702263653091
 30
0.0
 40
2.09999328114419
 50
90.0003609959681
 51
270.000490903722
  0
ARC
  5
   2CE
  8
0
  6
CONTINUOUS
 62
     1
 10
133.58242961255
 20
27.4702339997734
 30
0.0
 40
2.10004126020305
 50
270.001034630644
 51
449.998799421533
  0
ARC
  5
   2CF
  8
0
  6
CONTINUOUS
 62
     1
 10
129.557451777672
 20
27.4702106268705
 30
0.0
 40
2.97500388320602
 50
404.901246442185
 51
495.09901516511
  0
CIRCLE
  5
   2D0
  8
0
  6
CONTINUOUS
 62
     1
 10
139.532478398935
 20
24.1452248011596
 30
0.0
 40
0.489998730940279
  0
ARC
  5
   2D1
  8
0
  6
CONTINUOUS
 62
     1
 10
129.557451777672
 20
27.4702106268705
 30
0.0
 40
2.97500388320602
 50
224.900341297451
 51
315.099658598617
  0
ARC
  5
   2D2
  8
0
  6
CONTINUOUS
 62
     1
 10
105.057495117188
 20
27.4702324755757
 30
0.0
 40
2.97499672471136
 50
224.901072739214
 51
315.098927156855
  0
ARC
  5
   2D3
  8
0
  6
CONTINUOUS
 62
     1
 10
80.5574760704966
 20
27.4702594831751
 30
0.0
 40
2.97503256700413
 50
224.901119153159
 51
315.09888074291
  0
LINE
  5
   2D4
  8
0
  6
DASHDOT
 62
     2
 10
84.5825086196193
 20
27.4702594831751
 30
0.0
 11
76.5324435213738
 21
27.4702594831751
 31
0.0
  0
LINE
  5
   2D5
  8
0
  6
DASHDOT
 62
     2
 10
84.582480973568
 20
24.3202297734196
 30
0.0
 11
84.582480973568
 21
30.6202199318339
 31
0.0
  0
LINE
  5
   2D6
  8
0
  6
DASHDOT
 62
     2
 10
87.7324760527751
 20
27.4702248526267
 30
0.0
 11
81.4324858943609
 21
27.4702248526267
 31
0.0
  0
LINE
  5
   2D7
  8
0
  6
DASHDOT
 62
     2
 10
76.5324734685559
 20
24.3202247523979
 30
0.0
 11
76.5324734685559
 21
30.6202206870636
 31
0.0
  0
LINE
  5
   2D8
  8
0
  6
DASHDOT
 62
     2
 10
79.6824714358888
 20
27.4702227197307
 30
0.0
 11
73.3824755012231
 21
27.4702227197307
 31
0.0
  0
LINE
  5
   2D9
  8
0
  6
DASHDOT
 62
     2
 10
101.032449190941
 20
24.3202385943913
 30
0.0
 11
101.032449190941
 21
30.6201746509845
 31
0.0
  0
LINE
  5
   2DA
  8
0
  6
DASHDOT
 62
     2
 10
104.182417219238
 20
27.4702066226879
 30
0.0
 11
97.8824811626443
 21
27.4702066226879
 31
0.0
  0
LINE
  5
   2DB
  8
0
  6
DASHDOT
 62
     2
 10
109.082491824018
 20
27.4702324755757
 30
0.0
 11
101.032498410358
 21
27.4702324755757
 31
0.0
  0
LINE
  5
   2DC
  8
0
  6
DASHDOT
 62
     2
 10
109.082479809272
 20
24.320229049299
 30
0.0
 11
109.082479809272
 21
30.6202216154732
 31
0.0
  0
LINE
  5
   2DD
  8
0
  6
DASHDOT
 62
     2
 10
112.232476092359
 20
27.4702253323861
 30
0.0
 11
105.932483526185
 21
27.4702253323861
 31
0.0
  0
LINE
  5
   2DE
  8
0
  6
DASHDOT
 62
     2
 10
117.307518661368
 20
25.2826203523686
 30
0.0
 11
117.307518661368
 21
31.0577320467475
 31
0.0
  0
LINE
  5
   2DF
  8
0
  6
DASHDOT
 62
     2
 10
125.532465861095
 20
24.3202331020463
 30
0.0
 11
125.532465861095
 21
30.6202196285719
 31
0.0
  0
LINE
  5
   2E0
  8
0
  6
DASHDOT
 62
     2
 10
128.682459124358
 20
27.4702263653091
 30
0.0
 11
122.382472597832
 21
27.4702263653091
 31
0.0
  0
LINE
  5
   2E1
  8
0
  6
DASHDOT
 62
     2
 10
129.557451777672
 20
21.182533050468
 30
0.0
 11
129.557451777672
 21
31.3978068544282
 31
0.0
  0
LINE
  5
   2E2
  8
0
  6
DASHDOT
 62
     2
 10
133.582455642996
 20
27.4702106268705
 30
0.0
 11
125.532447912347
 21
27.4702106268705
 31
0.0
  0
LINE
  5
   2E3
  8
0
  6
DASHDOT
 62
     2
 10
133.58242961255
 20
24.3201927574517
 30
0.0
 11
133.58242961255
 21
30.6202752420951
 31
0.0
  0
LINE
  5
   2E4
  8
0
  6
DASHDOT
 62
     2
 10
136.732470854871
 20
27.4702339997734
 30
0.0
 11
130.432388370228
 21
27.4702339997734
 31
0.0
  0
LINE
  5
   2E5
  8
0
  6
DASHDOT
 62
     2
 10
139.532478398935
 20
22.6052260881008
 30
0.0
 11
139.532478398935
 21
25.6852235142185
 31
0.0
  0
LINE
  5
   2E6
  8
0
  6
DASHDOT
 62
     2
 10
70.5824843199083
 20
22.60522655634
 30
0.0
 11
70.5824843199083
 21
25.6852273043272
 31
0.0
  0
LINE
  5
   2E7
  8
0
  6
DASHDOT
 62
     2
 10
72.1224846939019
 20
24.1452269303336
 30
0.0
 11
69.0424839459147
 21
24.1452269303336
 31
0.0
  0
ARC
  5
   2E8
  8
0
  6
CONTINUOUS
 62
     3
 10
140.407463635117
 20
23.2702228740474
 30
0.0
 40
0.525005873581529
 50
270.001088208967
 51
360.000070595423
  0
LINE
  5
   2E9
  8
0
  6
DASHDOT
 62
     2
 10
104.035146987294
 20
28.1702399089068
 30
0.0
 11
97.6800744924687
 21
28.1702399089068
 31
0.0
  0
LINE
  5
   2EA
  8
0
  6
DASHDOT
 62
     2
 10
120.389459421531
 20
28.1702399089068
 30
0.0
 11
105.97574021998
 21
28.1702399089068
 31
0.0
  0
LINE
  5
   2EB
  8
0
  6
CONTINUOUS
 62
     1
 10
80.55749553442
 20
32.5452272862195
 30
0.0
 11
80.55749553442
 21
46.1952270537614
 31
0.0
  0
LINE
  5
   2EC
  8
0
  6
CONTINUOUS
 62
     1
 10
129.557494699955
 20
32.5452272862195
 30
0.0
 11
129.557494699955
 21
40.4202159702797
 31
0.0
  0
LINE
  5
   2ED
  8
0
  6
CONTINUOUS
 62
     1
 10
78.4574982404709
 20
91.0827209487558
 30
0.0
 11
68.5700035289372
 21
91.0827209487558
 31
0.0
  0
LINE
  5
   2EE
  8
0
  6
CONTINUOUS
 62
     1
 10
78.4574982404709
 20
54.3327215746045
 30
0.0
 11
68.5700035289372
 21
54.3327215746045
 31
0.0
  0
LINE
  5
   2EF
  8
0
  6
CONTINUOUS
 62
     7
 10
87.3490849927068
 20
81.4518050652399
 30
0.0
 11
87.1454486325383
 21
81.4518050652399
 31
0.0
  0
ARC
  5
   2F0
  8
0
  6
CONTINUOUS
 62
     7
 10
86.2449941024184
 20
82.2408959608927
 30
0.0
 40
0.661818170547486
 50
359.999999948034
 51
539.999999948034
  0
ARC
  5
   2F1
  8
0
  6
CONTINUOUS
 62
     7
 10
86.2449941024184
 20
82.2408959608927
 30
0.0
 40
0.458181810379029
 50
359.999999948034
 51
539.999999948034
  0
ARC
  5
   2F2
  8
0
  6
CONTINUOUS
 62
     7
 10
86.2449941024184
 20
82.1136232357874
 30
0.0
 40
0.661818170547485
 50
179.999999948034
 51
359.999999948034
  0
ARC
  5
   2F3
  8
0
  6
CONTINUOUS
 62
     7
 10
86.2449941024184
 20
82.1136232357874
 30
0.0
 40
0.458181810379028
 50
179.999999948034
 51
359.999999948034
  0
LINE
  5
   2F4
  8
0
  6
CONTINUOUS
 62
     7
 10
86.7031759127975
 20
82.1136232357873
 30
0.0
 11
86.7031759127975
 21
82.2408959608926
 31
0.0
  0
LINE
  5
   2F5
  8
0
  6
CONTINUOUS
 62
     7
 10
86.9068122729659
 20
82.1136232357873
 30
0.0
 11
86.9068122729659
 21
82.2408959608926
 31
0.0
  0
LINE
  5
   2F6
  8
0
  6
CONTINUOUS
 62
     7
 10
85.7868122920394
 20
82.1136232357873
 30
0.0
 11
85.7868122920394
 21
82.2408959608926
 31
0.0
  0
LINE
  5
   2F7
  8
0
  6
CONTINUOUS
 62
     7
 10
85.583175931871
 20
82.1136232357873
 30
0.0
 11
85.583175931871
 21
82.2408959608926
 31
0.0
  0
LINE
  5
   2F8
  8
0
  6
CONTINUOUS
 62
     7
 10
87.1454486325383
 20
81.4518050652399
 30
0.0
 11
87.1454486325383
 21
82.9027141314401
 31
0.0
  0
LINE
  5
   2F9
  8
0
  6
CONTINUOUS
 62
     7
 10
87.3490849927068
 20
81.4518050652399
 30
0.0
 11
87.3490849927068
 21
82.3427141409769
 31
0.0
  0
LINE
  5
   2FA
  8
0
  6
CONTINUOUS
 62
     7
 10
88.0618122532964
 20
81.4518050652399
 30
0.0
 11
88.0618122532964
 21
82.3427141409769
 31
0.0
  0
LINE
  5
   2FB
  8
0
  6
CONTINUOUS
 62
     7
 10
88.2654486134648
 20
81.4518050652399
 30
0.0
 11
88.2654486134648
 21
82.393623231019
 31
0.0
  0
LINE
  5
   2FC
  8
0
  6
CONTINUOUS
 62
     7
 10
87.3490849927068
 20
82.9027141314402
 30
0.0
 11
87.1454486325383
 21
82.9027141314402
 31
0.0
  0
ARC
  5
   2FD
  8
0
  6
CONTINUOUS
 62
     7
 10
87.7054486230016
 20
82.3427141409769
 30
0.0
 40
0.356363630294799
 50
359.999999948034
 51
539.999999948034
  0
LINE
  5
   2FE
  8
0
  6
CONTINUOUS
 62
     7
 10
87.3490849927068
 20
82.6990777712717
 30
0.0
 11
87.3490849927068
 21
82.9027141314401
 31
0.0
  0
ARC
  5
   2FF
  8
0
  6
CONTINUOUS
 62
     7
 10
87.7563577130437
 20
82.393623231019
 30
0.0
 40
0.509090900421142
 50
359.999999948034
 51
503.13010230219
  0
LINE
  5
   300
  8
0
  6
CONTINUOUS
 62
     7
 10
88.2654486134649
 20
81.4518050652399
 30
0.0
 11
88.0618122532964
 21
81.4518050652399
 31
0.0
  0
LINE
  5
   301
  8
0
  6
CONTINUOUS
 62
     7
 10
87.6927213504911
 20
59.7668568046329
 30
0.0
 11
87.5781758978963
 21
59.7668568046329
 31
0.0
  0
LINE
  5
   302
  8
0
  6
CONTINUOUS
 62
     7
 10
87.450903172791
 20
57.8068568380115
 30
0.0
 11
87.2472668126226
 21
57.8068568380115
 31
0.0
  0
LINE
  5
   303
  8
0
  6
CONTINUOUS
 62
     7
 10
85.583175931871
 20
58.468675008559
 30
0.0
 11
85.583175931871
 21
58.5959477336643
 31
0.0
  0
LINE
  5
   304
  8
0
  6
CONTINUOUS
 62
     7
 10
86.9068122729659
 20
58.468675008559
 30
0.0
 11
86.9068122729659
 21
58.5959477336643
 31
0.0
  0
ARC
  5
   305
  8
0
  6
CONTINUOUS
 62
     7
 10
86.2449941024184
 20
58.5959477336643
 30
0.0
 40
0.661818170547486
 50
359.999999948034
 51
539.999999948034
  0
ARC
  5
   306
  8
0
  6
CONTINUOUS
 62
     7
 10
86.2449941024184
 20
58.468675008559
 30
0.0
 40
0.661818170547485
 50
179.999999948034
 51
359.999999948034
  0
ARC
  5
   307
  8
0
  6
CONTINUOUS
 62
     7
 10
86.2449941024184
 20
58.5959477336643
 30
0.0
 40
0.458181810379029
 50
359.999999948034
 51
539.999999948034
  0
ARC
  5
   308
  8
0
  6
CONTINUOUS
 62
     7
 10
86.2449941024184
 20
58.468675008559
 30
0.0
 40
0.458181810379028
 50
179.999999948034
 51
359.999999948034
  0
LINE
  5
   309
  8
0
  6
CONTINUOUS
 62
     7
 10
85.7868122920394
 20
58.468675008559
 30
0.0
 11
85.7868122920394
 21
58.5959477336643
 31
0.0
  0
LINE
  5
   30A
  8
0
  6
CONTINUOUS
 62
     7
 10
86.7031759127975
 20
58.468675008559
 30
0.0
 11
86.7031759127975
 21
58.5959477336643
 31
0.0
  0
LINE
  5
   30B
  8
0
  6
CONTINUOUS
 62
     7
 10
87.0054486349225
 20
58.9523113639591
 30
0.0
 11
87.0054486349225
 21
59.1559477241275
 31
0.0
  0
LINE
  5
   30C
  8
0
  6
CONTINUOUS
 62
     7
 10
87.2472668126226
 20
58.9523113639591
 30
0.0
 11
87.0054486349225
 21
58.9523113639591
 31
0.0
  0
LINE
  5
   30D
  8
0
  6
CONTINUOUS
 62
     7
 10
87.6927213504911
 20
58.9523113639591
 30
0.0
 11
87.6927213504911
 21
59.1559477241275
 31
0.0
  0
LINE
  5
   30E
  8
0
  6
CONTINUOUS
 62
     7
 10
87.2472668126226
 20
59.1559477241275
 30
0.0
 11
87.0054486349225
 21
59.1559477241275
 31
0.0
  0
LINE
  5
   30F
  8
0
  6
CONTINUOUS
 62
     7
 10
87.2472668126226
 20
57.8068568380115
 30
0.0
 11
87.2472668126226
 21
58.9523113639591
 31
0.0
  0
LINE
  5
   310
  8
0
  6
CONTINUOUS
 62
     7
 10
87.450903172791
 20
57.8068568380115
 30
0.0
 11
87.450903172791
 21
58.9523113639591
 31
0.0
  0
LINE
  5
   311
  8
0
  6
CONTINUOUS
 62
     7
 10
87.6927213504911
 20
58.9523113639591
 30
0.0
 11
87.450903172791
 21
58.9523113639591
 31
0.0
  0
LINE
  5
   312
  8
0
  6
CONTINUOUS
 62
     7
 10
87.6927213504911
 20
59.1559477241275
 30
0.0
 11
87.450903172791
 21
59.1559477241275
 31
0.0
  0
LINE
  5
   313
  8
0
  6
CONTINUOUS
 62
     7
 10
87.2472668126226
 20
59.1559477241275
 30
0.0
 11
87.2472668126226
 21
59.4359477193592
 31
0.0
  0
LINE
  5
   314
  8
0
  6
CONTINUOUS
 62
     7
 10
87.450903172791
 20
59.1559477241275
 30
0.0
 11
87.450903172791
 21
59.4359477193592
 31
0.0
  0
ARC
  5
   315
  8
0
  6
CONTINUOUS
 62
     7
 10
87.5781758978963
 20
59.4359477193592
 30
0.0
 40
0.330909085273743
 50
449.999999948034
 51
539.999999948034
  0
ARC
  5
   316
  8
0
  6
CONTINUOUS
 62
     7
 10
87.5781758978963
 20
59.4359477193592
 30
0.0
 40
0.127272725105286
 50
449.999999948034
 51
539.999999948034
  0
LINE
  5
   317
  8
0
  6
CONTINUOUS
 62
     7
 10
87.6927213504911
 20
59.5632204444644
 30
0.0
 11
87.6927213504911
 21
59.7668568046329
 31
0.0
  0
LINE
  5
   318
  8
0
  6
CONTINUOUS
 62
     7
 10
87.6927213504911
 20
59.5632204444644
 30
0.0
 11
87.5781758978963
 21
59.5632204444644
 31
0.0
  0
LINE
  5
   319
  8
0
  6
CONTINUOUS
 62
     7
 10
88.5422667905688
 20
59.7668568046329
 30
0.0
 11
88.4277213379741
 21
59.7668568046329
 31
0.0
  0
LINE
  5
   31A
  8
0
  6
CONTINUOUS
 62
     7
 10
88.3004486128688
 20
57.8068568380115
 30
0.0
 11
88.0968122527003
 21
57.8068568380115
 31
0.0
  0
LINE
  5
   31B
  8
0
  6
CONTINUOUS
 62
     7
 10
87.8549940750003
 20
58.9523113639591
 30
0.0
 11
87.8549940750003
 21
59.1559477241275
 31
0.0
  0
LINE
  5
   31C
  8
0
  6
CONTINUOUS
 62
     7
 10
88.0968122527003
 20
58.9523113639591
 30
0.0
 11
87.8549940750003
 21
58.9523113639591
 31
0.0
  0
LINE
  5
   31D
  8
0
  6
CONTINUOUS
 62
     7
 10
88.5422667905688
 20
58.9523113639591
 30
0.0
 11
88.5422667905688
 21
59.1559477241275
 31
0.0
  0
LINE
  5
   31E
  8
0
  6
CONTINUOUS
 62
     7
 10
88.0968122527003
 20
59.1559477241275
 30
0.0
 11
87.8549940750003
 21
59.1559477241275
 31
0.0
  0
LINE
  5
   31F
  8
0
  6
CONTINUOUS
 62
     7
 10
88.0968122527003
 20
57.8068568380115
 30
0.0
 11
88.0968122527003
 21
58.9523113639591
 31
0.0
  0
LINE
  5
   320
  8
0
  6
CONTINUOUS
 62
     7
 10
88.3004486128688
 20
57.8068568380115
 30
0.0
 11
88.3004486128688
 21
58.9523113639591
 31
0.0
  0
LINE
  5
   321
  8
0
  6
CONTINUOUS
 62
     7
 10
88.5422667905688
 20
58.9523113639591
 30
0.0
 11
88.3004486128688
 21
58.9523113639591
 31
0.0
  0
LINE
  5
   322
  8
0
  6
CONTINUOUS
 62
     7
 10
88.5422667905688
 20
59.1559477241275
 30
0.0
 11
88.3004486128688
 21
59.1559477241275
 31
0.0
  0
LINE
  5
   323
  8
0
  6
CONTINUOUS
 62
     7
 10
88.0968122527003
 20
59.1559477241275
 30
0.0
 11
88.0968122527003
 21
59.4359477193592
 31
0.0
  0
LINE
  5
   324
  8
0
  6
CONTINUOUS
 62
     7
 10
88.3004486128688
 20
59.1559477241275
 30
0.0
 11
88.3004486128688
 21
59.4359477193592
 31
0.0
  0
ARC
  5
   325
  8
0
  6
CONTINUOUS
 62
     7
 10
88.4277213379741
 20
59.4359477193592
 30
0.0
 40
0.330909085273743
 50
449.999999948034
 51
539.999999948034
  0
ARC
  5
   326
  8
0
  6
CONTINUOUS
 62
     7
 10
88.4277213379741
 20
59.4359477193592
 30
0.0
 40
0.127272725105286
 50
449.999999948034
 51
539.999999948034
  0
LINE
  5
   327
  8
0
  6
CONTINUOUS
 62
     7
 10
88.5422667905688
 20
59.5632204444644
 30
0.0
 11
88.5422667905688
 21
59.7668568046329
 31
0.0
  0
LINE
  5
   328
  8
0
  6
CONTINUOUS
 62
     7
 10
88.5422667905688
 20
59.5632204444644
 30
0.0
 11
88.4277213379741
 21
59.5632204444644
 31
0.0
  0
INSERT
  5
   329
  8
255
  6
CONTINUOUS
 62
     7
  2
MOSTRA
 10
105.057503128052
 20
49.2577291712167
 30
0.0
 41
0.349999994039536
 42
0.349999994039536
 50
359.999999792138
 43
0.349999994039536
  0
LINE
  5
   32A
  8
0
  6
DASHDOT
 62
     7
 10
80.5574760704966
 20
23.4452269340524
 30
0.0
 11
80.5574760704966
 21
31.4952920322978
 31
0.0
  0
LINE
  5
   32B
  8
0
  6
CONTINUOUS
 62
     1
 10
78.4574982404709
 20
46.3702270507812
 30
0.0
 11
68.3075035334076
 21
46.3702270507812
 31
0.0
  0
LINE
  5
   32C
  8
0
  6
CONTINUOUS
 62
     1
 10
78.4574982404709
 20
46.7202270239591
 30
0.0
 11
68.3075035334076
 21
46.7202270239591
 31
0.0
  0
LINE
  5
   32D
  8
0
  6
CONTINUOUS
 62
     1
 10
78.4574982404709
 20
107.970226001739
 30
0.0
 11
68.3950035319174
 21
107.970226001739
 31
0.0
  0
LINE
  5
   32E
  8
0
  6
CONTINUOUS
 62
     1
 10
84.5827188016405
 20
162.22023575902
 30
0.0
 11
82.6647750376415
 21
162.22023575902
 31
0.0
  0
LINE
  5
   32F
  8
0
  6
CONTINUOUS
 62
     1
 10
84.5827188016405
 20
158.020235830546
 30
0.0
 11
82.6647750376415
 21
158.020235830546
 31
0.0
  0
LINE
  5
   330
  8
0
  6
CONTINUOUS
 62
     1
 10
78.4502345618275
 20
158.020235680753
 30
0.0
 11
76.5326685467748
 21
158.020242213085
 31
0.0
  0
LINE
  5
   331
  8
0
  6
CONTINUOUS
 62
     1
 10
76.5326685499219
 20
162.220229376928
 30
0.0
 11
78.4502372519295
 21
162.220235909291
 31
0.0
  0
LINE
  5
   332
  8
0
  6
CONTINUOUS
 62
     7
 10
69.1825170904394
 20
156.270253258097
 30
0.0
 11
69.1825170904394
 21
163.795235732198
 31
0.0
  0
LINE
  5
   333
  8
0
  6
CONTINUOUS
 62
     1
 10
102.950217282896
 20
162.22023575902
 30
0.0
 11
101.032629067965
 21
162.22023575902
 31
0.0
  0
LINE
  5
   334
  8
0
  6
CONTINUOUS
 62
     1
 10
102.949841822332
 20
158.020235830546
 30
0.0
 11
101.032629067965
 21
158.020235830546
 31
0.0
  0
LINE
  5
   335
  8
0
  6
CONTINUOUS
 62
     1
 10
107.164773432744
 20
158.020232328386
 30
0.0
 11
109.082542658546
 21
158.020238861432
 31
0.0
  0
LINE
  5
   336
  8
0
  6
CONTINUOUS
 62
     1
 10
109.082542663122
 20
162.220232728893
 30
0.0
 11
107.16477343148
 21
162.220239261939
 31
0.0
  0
LINE
  5
   337
  8
0
  6
CONTINUOUS
 62
     3
 10
140.932473143936
 20
163.795235732198
 30
0.0
 11
140.932473143936
 21
164.495235720277
 31
0.0
  0
LINE
  5
   338
  8
0
  6
CONTINUOUS
 62
     1
 10
127.450210189943
 20
162.22023575902
 30
0.0
 11
125.532412857131
 21
162.22023575902
 31
0.0
  0
LINE
  5
   339
  8
0
  6
CONTINUOUS
 62
     1
 10
127.450210189943
 20
158.020235830546
 30
0.0
 11
125.532412857131
 21
158.020235830546
 31
0.0
  0
LINE
  5
   33A
  8
0
  6
CONTINUOUS
 62
     1
 10
131.664755999601
 20
158.020235680754
 30
0.0
 11
133.582540416046
 21
158.02024221383
 31
0.0
  0
LINE
  5
   33B
  8
0
  6
CONTINUOUS
 62
     1
 10
133.582556429578
 20
162.22022937644
 30
0.0
 11
131.664753312703
 21
162.22023590958
 31
0.0
  0
LINE
  5
   33C
  8
0
  6
DASHDOT
 62
     7
 10
103.552710071684
 20
160.120239268495
 30
0.0
 11
98.512548398032
 21
160.120239268495
 31
0.0
  0
LINE
  5
   33D
  8
0
  6
DASHDOT
 62
     7
 10
101.032629067965
 20
157.600158598562
 30
0.0
 11
101.032629067965
 21
162.640319938428
 31
0.0
  0
ARC
  5
   33E
  8
0
  6
CONTINUOUS
 62
     1
 10
101.032629067965
 20
160.120239268495
 30
0.0
 40
2.10006689115832
 50
90.0036557603355
 51
269.996301839899
  0
LINE
  5
   33F
  8
0
  6
DASHDOT
 62
     7
 10
108.62762288738
 20
160.120093993202
 30
0.0
 11
101.487290520209
 21
160.120093993202
 31
0.0
  0
ARC
  5
   340
  8
0
  6
CONTINUOUS
 62
     1
 10
105.057456703805
 20
160.120093993202
 30
0.0
 40
2.97513848632147
 50
224.89430374687
 51
315.105491686916
  0
LINE
  5
   341
  8
0
  6
DASHDOT
 62
     7
 10
111.602475204085
 20
160.120293326879
 30
0.0
 11
106.562595143907
 21
160.120293326879
 31
0.0
  0
LINE
  5
   342
  8
0
  6
DASHDOT
 62
     7
 10
109.082535507785
 20
157.600351764718
 30
0.0
 11
109.082535507785
 21
162.640231157325
 31
0.0
  0
ARC
  5
   343
  8
0
  6
CONTINUOUS
 62
     1
 10
109.082535507782
 20
160.120293326879
 30
0.0
 40
2.09994941313343
 50
269.999007927624
 51
450.00105270767
  0
LINE
  5
   344
  8
0
  6
DASHDOT
 62
     7
 10
128.052309773844
 20
160.120256174804
 30
0.0
 11
123.012494578114
 21
160.120256174804
 31
0.0
  0
LINE
  5
   345
  8
0
  6
DASHDOT
 62
     7
 10
125.532412857131
 20
157.600343236362
 30
0.0
 11
125.532412857131
 21
162.640169113245
 31
0.0
  0
ARC
  5
   346
  8
0
  6
CONTINUOUS
 62
     1
 10
125.532412857131
 20
160.120256174804
 30
0.0
 40
2.09992678112893
 50
449.999999948034
 51
630.002376467854
  0
LINE
  5
   347
  8
0
  6
DASHDOT
 62
     7
 10
133.127521502158
 20
160.12020627718
 30
0.0
 11
125.987462908018
 21
160.12020627718
 31
0.0
  0
ARC
  5
   348
  8
0
  6
CONTINUOUS
 62
     1
 10
129.557497545664
 20
160.12020627718
 30
0.0
 40
2.97502441422517
 50
404.901045292561
 51
495.098630845462
  0
LINE
  5
   349
  8
0
  6
DASHDOT
 62
     7
 10
136.102542072826
 20
160.120225333578
 30
0.0
 11
131.062535123226
 21
160.120225333578
 31
0.0
  0
LINE
  5
   34A
  8
0
  6
DASHDOT
 62
     7
 10
133.582538598026
 20
157.600216518202
 30
0.0
 11
133.582538598026
 21
162.640234148954
 31
0.0
  0
ARC
  5
   34B
  8
0
  6
CONTINUOUS
 62
     1
 10
133.582538598026
 20
160.120225333578
 30
0.0
 40
2.10000667857487
 50
269.998338346111
 51
450.001473300288
  0
LINE
  5
   34C
  8
0
  6
DASHDOT
 62
     7
 10
79.0528188959374
 20
160.120251518408
 30
0.0
 11
74.012553882486
 21
160.120251518408
 31
0.0
  0
LINE
  5
   34D
  8
0
  6
DASHDOT
 62
     7
 10
76.5326863892117
 20
157.600113671106
 30
0.0
 11
76.5326863892117
 21
162.64038936571
 31
0.0
  0
ARC
  5
   34E
  8
0
  6
CONTINUOUS
 62
     1
 10
76.5326863892117
 20
160.120251518408
 30
0.0
 40
2.1001148727515
 50
90.0052836333811
 51
269.995265213079
  0
LINE
  5
   34F
  8
0
  6
DASHDOT
 62
     7
 10
84.1275726134026
 20
160.120296558337
 30
0.0
 11
76.9874239083067
 21
160.120296558337
 31
0.0
  0
ARC
  5
   350
  8
0
  6
CONTINUOUS
 62
     1
 10
80.5575116122949
 20
160.120296558337
 30
0.0
 40
2.97505973521659
 50
224.901380849089
 51
315.098568474349
  0
LINE
  5
   351
  8
0
  6
DASHDOT
 62
     7
 10
87.102540654257
 20
160.120251699926
 30
0.0
 11
82.0628969490241
 21
160.120251699926
 31
0.0
  0
LINE
  5
   352
  8
0
  6
DASHDOT
 62
     7
 10
84.5827188016405
 20
157.600424506734
 30
0.0
 11
84.5827188016405
 21
162.640078893119
 31
0.0
  0
ARC
  5
   353
  8
0
  6
CONTINUOUS
 62
     1
 10
84.5827188016405
 20
160.120251699926
 30
0.0
 40
2.09985599432712
 50
269.999999948034
 51
449.999945306521
  0
ARC
  5
   354
  8
0
  6
CONTINUOUS
 62
     1
 10
80.5575116122949
 20
160.120296558337
 30
0.0
 40
2.97505973521659
 50
404.897963373026
 51
495.101923170488
  0
ARC
  5
   355
  8
0
  6
CONTINUOUS
 62
     1
 10
105.057456703805
 20
160.120093993202
 30
0.0
 40
2.97513848632147
 50
404.902109287098
 51
495.097767281763
  0
ARC
  5
   356
  8
0
  6
CONTINUOUS
 62
     1
 10
129.557497545664
 20
160.12020627718
 30
0.0
 40
2.97502441422517
 50
224.899545375473
 51
315.100341172749
  0
LINE
  5
   357
  8
0
  6
CONTINUOUS
 62
     1
 10
141.80750228171
 20
107.970236513161
 30
0.0
 11
131.65749733448
 21
107.970236513161
 31
0.0
  0
LINE
  5
   358
  8
0
  6
CONTINUOUS
 62
     1
 10
117.307412009485
 20
155.832770471401
 30
0.0
 11
117.307412009485
 21
163.007770349212
 31
0.0
  0
LINE
  5
   359
  8
0
  6
DASHDOT
 62
     7
 10
120.89491194839
 20
159.420270410306
 30
0.0
 11
113.71991207058
 21
159.420270410306
 31
0.0
  0
LINE
  5
   35A
  8
0
  6
DASHDOT
 62
     7
 10
92.8075782248901
 20
155.832770471401
 30
0.0
 11
92.8075782248901
 21
163.007770349212
 31
0.0
  0
LINE
  5
   35B
  8
0
  6
DASHDOT
 62
     7
 10
96.3950781637953
 20
159.420270410306
 30
0.0
 11
89.2200782859849
 21
159.420270410306
 31
0.0
  0
LINE
  5
   35C
  8
0
  6
CONTINUOUS
 62
     3
 10
92.0199793893876
 20
164.84524105489
 30
0.0
 11
69.5325000878956
 21
164.84524105489
 31
0.0
  0
ARC
  5
   35D
  8
0
  6
CONTINUOUS
 62
     3
 10
69.532515956445
 20
164.495233953419
 30
0.0
 40
0.349996002028132
 50
90.0005173512766
 51
180.001122723422
  0
LINE
  5
   35E
  8
0
  6
CONTINUOUS
 62
     3
 10
69.1825170904394
 20
163.795235732198
 30
0.0
 11
69.1825170904394
 21
164.495235720277
 31
0.0
  0
LINE
  5
   35F
  8
0
  6
CONTINUOUS
 62
     3
 10
69.1825170904394
 20
163.795235732198
 30
0.0
 11
68.3075035334076
 21
163.795235732198
 31
0.0
  0
LINE
  5
   360
  8
0
  6
CONTINUOUS
 62
     3
 10
92.0199793893876
 20
163.9702465801
 30
0.0
 11
92.0199793893876
 21
164.845246565199
 31
0.0
  0
LINE
  5
   361
  8
0
  6
CONTINUOUS
 62
     3
 10
92.0199793893876
 20
163.970246580094
 30
0.0
 11
91.5824793968382
 21
163.970246580094
 31
0.0
  0
LINE
  5
   362
  8
0
  6
CONTINUOUS
 62
     3
 10
91.5824793968382
 20
162.395246606916
 30
0.0
 11
91.5824793968382
 21
163.970246580094
 31
0.0
  0
LINE
  5
   363
  8
0
  6
CONTINUOUS
 62
     3
 10
94.0324793551149
 20
162.395246606916
 30
0.0
 11
91.5824793968382
 21
162.395246606916
 31
0.0
  0
LINE
  5
   364
  8
0
  6
CONTINUOUS
 62
     3
 10
94.0324793551149
 20
162.395246606916
 30
0.0
 11
94.0324793551149
 21
163.970246580094
 31
0.0
  0
LINE
  5
   365
  8
0
  6
CONTINUOUS
 62
     3
 10
94.0324793551149
 20
163.970246580094
 30
0.0
 11
93.5949793625655
 21
163.970246580094
 31
0.0
  0
LINE
  5
   366
  8
0
  6
CONTINUOUS
 62
     3
 10
93.5949793625655
 20
163.970246580094
 30
0.0
 11
93.5949793625655
 21
164.845246565193
 31
0.0
  0
LINE
  5
   367
  8
0
  6
CONTINUOUS
 62
     3
 10
116.519984312731
 20
164.845235714314
 30
0.0
 11
93.5949793625655
 21
164.845235714314
 31
0.0
  0
LINE
  5
   368
  8
0
  6
CONTINUOUS
 62
     3
 10
116.519984312731
 20
163.970246580094
 30
0.0
 11
116.519984312731
 21
164.845246565193
 31
0.0
  0
LINE
  5
   369
  8
0
  6
CONTINUOUS
 62
     3
 10
116.519984312731
 20
163.970246580094
 30
0.0
 11
116.082484320182
 21
163.970246580094
 31
0.0
  0
LINE
  5
   36A
  8
0
  6
CONTINUOUS
 62
     3
 10
116.082484320182
 20
162.395246606916
 30
0.0
 11
116.082484320182
 21
163.970246580094
 31
0.0
  0
LINE
  5
   36B
  8
0
  6
CONTINUOUS
 62
     3
 10
118.532484278458
 20
162.395246606916
 30
0.0
 11
116.082484320182
 21
162.395246606916
 31
0.0
  0
LINE
  5
   36C
  8
0
  6
CONTINUOUS
 62
     3
 10
118.532484278458
 20
162.395246606916
 30
0.0
 11
118.532484278458
 21
163.970246580094
 31
0.0
  0
LINE
  5
   36D
  8
0
  6
CONTINUOUS
 62
     3
 10
118.532484278458
 20
163.970246580094
 30
0.0
 11
118.094984285909
 21
163.970246580094
 31
0.0
  0
LINE
  5
   36E
  8
0
  6
CONTINUOUS
 62
     3
 10
118.094984285909
 20
163.9702465801
 30
0.0
 11
118.094984285909
 21
164.845246565199
 31
0.0
  0
LINE
  5
   36F
  8
0
  6
CONTINUOUS
 62
     3
 10
140.582490146479
 20
164.84524105489
 30
0.0
 11
118.094984285909
 21
164.84524105489
 31
0.0
  0
ARC
  5
   370
  8
0
  6
CONTINUOUS
 62
     3
 10
140.582475897661
 20
164.495227725582
 30
0.0
 40
0.349999722807106
 50
360.000054589548
 51
449.999945306521
  0
LINE
  5
   371
  8
0
  6
CONTINUOUS
 62
     7
 10
140.932486495376
 20
156.270235860353
 30
0.0
 11
140.932486495376
 21
164.495227725582
 31
0.0
  0
LINE
  5
   372
  8
0
  6
CONTINUOUS
 62
     3
 10
141.80750228171
 20
163.795235732198
 30
0.0
 11
140.932473143936
 21
163.795235732198
 31
0.0
  0
LINE
  5
   373
  8
0
  6
CONTINUOUS
 62
     1
 10
140.932486495376
 20
156.270235860353
 30
0.0
 11
140.932486495376
 21
164.495227725582
 31
0.0
  0
LINE
  5
   374
  8
0
  6
CONTINUOUS
 62
     7
 10
140.93249183595
 20
156.445244556243
 30
0.0
 11
69.1825170904394
 21
156.445244556243
 31
0.0
  0
LINE
  5
   375
  8
0
  6
CONTINUOUS
 62
     7
 10
140.93249183595
 20
156.445244556243
 30
0.0
 11
69.1825170904394
 21
156.445244556243
 31
0.0
  0
LINE
  5
   376
  8
0
  6
CONTINUOUS
 62
     1
 10
141.80750228171
 20
156.270235690617
 30
0.0
 11
68.3950035319174
 21
156.270235690617
 31
0.0
  0
LINE
  5
   377
  8
0
  6
CONTINUOUS
 62
     1
 10
141.80750228171
 20
108.075242021678
 30
0.0
 11
131.65749733448
 21
108.075242021678
 31
0.0
  0
LINE
  5
   378
  8
0
  6
CONTINUOUS
 62
     3
 10
68.745003525957
 20
108.075242021678
 30
0.0
 11
68.745003525957
 21
108.425242015717
 31
0.0
  0
LINE
  5
   379
  8
0
  6
CONTINUOUS
 62
     3
 10
141.370002289161
 20
108.075242021678
 30
0.0
 11
141.370002289161
 21
108.425242015717
 31
0.0
  0
LINE
  5
   37A
  8
0
  6
CONTINUOUS
 62
     1
 10
141.054999090179
 20
108.425242015717
 30
0.0
 11
141.054999090179
 21
156.270235690617
 31
0.0
  0
LINE
  5
   37B
  8
0
  6
CONTINUOUS
 62
     1
 10
140.249998035773
 20
108.425242015717
 30
0.0
 11
140.249998035773
 21
156.270235690617
 31
0.0
  0
LINE
  5
   37C
  8
0
  6
CONTINUOUS
 62
     1
 10
138.990001261577
 20
108.425242015717
 30
0.0
 11
138.990001261577
 21
156.270235690617
 31
0.0
  0
LINE
  5
   37D
  8
0
  6
CONTINUOUS
 62
     1
 10
137.729999146804
 20
108.425242015717
 30
0.0
 11
137.729999146804
 21
156.270235690617
 31
0.0
  0
LINE
  5
   37E
  8
0
  6
CONTINUOUS
 62
     1
 10
135.210000257834
 20
108.425242015717
 30
0.0
 11
135.210000257834
 21
156.270235690617
 31
0.0
  0
LINE
  5
   37F
  8
0
  6
CONTINUOUS
 62
     1
 10
133.949998143062
 20
108.425242015717
 30
0.0
 11
133.949998143062
 21
156.270235690617
 31
0.0
  0
LINE
  5
   380
  8
0
  6
CONTINUOUS
 62
     1
 10
132.690001368865
 20
108.425242015717
 30
0.0
 11
132.690001368865
 21
156.270235690617
 31
0.0
  0
LINE
  5
   381
  8
0
  6
CONTINUOUS
 62
     1
 10
131.429999254092
 20
108.966529177226
 30
0.0
 11
131.429999254092
 21
156.270235690617
 31
0.0
  0
LINE
  5
   382
  8
0
  6
CONTINUOUS
 62
     1
 10
69.0600033870782
 20
108.425242015717
 30
0.0
 11
69.0600033870782
 21
156.270235690617
 31
0.0
  0
LINE
  5
   383
  8
0
  6
CONTINUOUS
 62
     1
 10
69.8650034401263
 20
108.425242015717
 30
0.0
 11
69.8650034401263
 21
156.270235690617
 31
0.0
  0
LINE
  5
   384
  8
0
  6
CONTINUOUS
 62
     1
 10
71.125003218397
 20
108.425242015717
 30
0.0
 11
71.125003218397
 21
156.270235690617
 31
0.0
  0
LINE
  5
   385
  8
0
  6
CONTINUOUS
 62
     1
 10
72.3850033304538
 20
108.425242015717
 30
0.0
 11
72.3850033304538
 21
156.270235690617
 31
0.0
  0
LINE
  5
   386
  8
0
  6
CONTINUOUS
 62
     1
 10
73.6450034425105
 20
108.425242015717
 30
0.0
 11
73.6450034425105
 21
156.270235690617
 31
0.0
  0
LINE
  5
   387
  8
0
  6
CONTINUOUS
 62
     1
 10
74.9050002167072
 20
108.425242015717
 30
0.0
 11
74.9050002167072
 21
156.270235690617
 31
0.0
  0
LINE
  5
   388
  8
0
  6
CONTINUOUS
 62
     1
 10
76.1650023314799
 20
108.425242015717
 30
0.0
 11
76.1650023314799
 21
156.270235690617
 31
0.0
  0
LINE
  5
   389
  8
0
  6
CONTINUOUS
 62
     1
 10
77.4249991056766
 20
108.425242015717
 30
0.0
 11
77.4249991056766
 21
156.270235690617
 31
0.0
  0
LINE
  5
   38A
  8
0
  6
CONTINUOUS
 62
     1
 10
78.6850012204494
 20
108.966517259576
 30
0.0
 11
78.6850012204494
 21
156.270235690617
 31
0.0
  0
LINE
  5
   38B
  8
0
  6
CONTINUOUS
 62
     1
 10
79.9450033352221
 20
109.020216653348
 30
0.0
 11
79.9450033352221
 21
156.270235690617
 31
0.0
  0
ARC
  5
   38C
  8
0
  6
CONTINUOUS
 62
     1
 10
76.5326863892117
 20
160.120296558337
 30
0.0
 40
2.86999995112419
 50
449.679006550204
 51
629.999999948034
  0
ARC
  5
   38D
  8
0
  6
CONTINUOUS
 62
     1
 10
80.5575008749961
 20
160.120296558337
 30
0.0
 40
3.56999993920326
 50
413.505022838263
 51
486.494981956033
  0
LINE
  5
   38E
  8
0
  6
CONTINUOUS
 62
     1
 10
78.4342349063489
 20
162.990251469532
 30
0.0
 11
76.5487651689183
 21
162.990251469532
 31
0.0
  0
LINE
  5
   38F
  8
0
  6
CONTINUOUS
 62
     1
 10
84.5827188016405
 20
162.990251651051
 30
0.0
 11
82.6807665982903
 21
162.990251651051
 31
0.0
  0
LINE
  5
   390
  8
0
  6
CONTINUOUS
 62
     1
 10
84.5666724544679
 20
157.250296607212
 30
0.0
 11
82.6807059631726
 21
157.250296607212
 31
0.0
  0
LINE
  5
   391
  8
0
  6
CONTINUOUS
 62
     1
 10
78.4343566699916
 20
157.250251567284
 30
0.0
 11
76.5326863892117
 21
157.250251567284
 31
0.0
  0
ARC
  5
   392
  8
0
  6
CONTINUOUS
 62
     1
 10
80.5575008749961
 20
160.120296558337
 30
0.0
 40
3.56999993920326
 50
233.507448791235
 51
306.493766547859
  0
ARC
  5
   393
  8
0
  6
CONTINUOUS
 62
     1
 10
84.5827188016405
 20
160.120251699926
 30
0.0
 40
2.86999995112419
 50
269.679654033286
 51
449.999999948034
  0
ARC
  5
   394
  8
0
  6
CONTINUOUS
 62
     1
 10
109.082718384408
 20
160.120251699926
 30
0.0
 40
2.86999995112419
 50
269.679654033286
 51
449.999999948034
  0
LINE
  5
   395
  8
0
  6
CONTINUOUS
 62
     1
 10
109.082718384408
 20
162.990251651051
 30
0.0
 11
107.180766181058
 21
162.990251651051
 31
0.0
  0
LINE
  5
   396
  8
0
  6
CONTINUOUS
 62
     1
 10
109.066672037235
 20
157.250296607212
 30
0.0
 11
107.18070554594
 21
157.250296607212
 31
0.0
  0
ARC
  5
   397
  8
0
  6
CONTINUOUS
 62
     1
 10
105.057500457764
 20
160.120296558337
 30
0.0
 40
3.56999993920326
 50
233.507448791235
 51
306.493766547859
  0
ARC
  5
   398
  8
0
  6
CONTINUOUS
 62
     1
 10
105.057500457764
 20
160.120296558337
 30
0.0
 40
3.56999993920326
 50
413.505022838263
 51
486.494981956033
  0
LINE
  5
   399
  8
0
  6
CONTINUOUS
 62
     1
 10
102.934234489116
 20
162.990251469532
 30
0.0
 11
101.048764751686
 21
162.990251469532
 31
0.0
  0
ARC
  5
   39A
  8
0
  6
CONTINUOUS
 62
     1
 10
101.032685971979
 20
160.120296558337
 30
0.0
 40
2.86999995112419
 50
449.679006550204
 51
629.999999948034
  0
LINE
  5
   39B
  8
0
  6
CONTINUOUS
 62
     1
 10
102.934356252759
 20
157.250251567284
 30
0.0
 11
101.032685971979
 21
157.250251567284
 31
0.0
  0
ARC
  5
   39C
  8
0
  6
CONTINUOUS
 62
     1
 10
133.582717967175
 20
160.120251699926
 30
0.0
 40
2.86999995112419
 50
269.679654033286
 51
449.999999948034
  0
LINE
  5
   39D
  8
0
  6
CONTINUOUS
 62
     1
 10
133.582717967175
 20
162.990251651051
 30
0.0
 11
131.680765763825
 21
162.990251651051
 31
0.0
  0
LINE
  5
   39E
  8
0
  6
CONTINUOUS
 62
     1
 10
133.566671620003
 20
157.250296607212
 30
0.0
 11
131.680705128708
 21
157.250296607212
 31
0.0
  0
ARC
  5
   39F
  8
0
  6
CONTINUOUS
 62
     1
 10
129.557500040531
 20
160.120296558337
 30
0.0
 40
3.56999993920326
 50
233.507448791235
 51
306.493766547859
  0
ARC
  5
   3A0
  8
0
  6
CONTINUOUS
 62
     1
 10
129.557500040531
 20
160.120296558337
 30
0.0
 40
3.56999993920326
 50
413.505022838263
 51
486.494981956033
  0
LINE
  5
   3A1
  8
0
  6
CONTINUOUS
 62
     1
 10
127.434234071884
 20
162.990251469532
 30
0.0
 11
125.548764334453
 21
162.990251469532
 31
0.0
  0
LINE
  5
   3A2
  8
0
  6
CONTINUOUS
 62
     1
 10
127.434355835527
 20
157.250251567284
 30
0.0
 11
125.532685554747
 21
157.250251567284
 31
0.0
  0
ARC
  5
   3A3
  8
0
  6
CONTINUOUS
 62
     1
 10
125.532685554747
 20
160.120296558337
 30
0.0
 40
2.86999995112419
 50
449.679006550204
 51
629.999999948034
  0
ARC
  5
   3A4
  8
0
  6
CONTINUOUS
 62
     1
 10
92.4575782308506
 20
159.420270410306
 30
0.0
 40
1.04999998211861
 50
89.9999999480344
 51
269.999999948034
  0
ARC
  5
   3A5
  8
0
  6
CONTINUOUS
 62
     1
 10
93.1575782189296
 20
159.420270410306
 30
0.0
 40
1.04999998211861
 50
269.999999948034
 51
449.999999948034
  0
LINE
  5
   3A6
  8
0
  6
CONTINUOUS
 62
     1
 10
93.1575782189296
 20
160.470270392425
 30
0.0
 11
92.4575782308506
 21
160.470270392425
 31
0.0
  0
LINE
  5
   3A7
  8
0
  6
CONTINUOUS
 62
     1
 10
93.1575782189296
 20
158.370270428188
 30
0.0
 11
92.4575782308506
 21
158.370270428188
 31
0.0
  0
ARC
  5
   3A8
  8
0
  6
CONTINUOUS
 62
     1
 10
117.657577801697
 20
159.420270410306
 30
0.0
 40
1.04999998211861
 50
269.999999948034
 51
449.999999948034
  0
LINE
  5
   3A9
  8
0
  6
CONTINUOUS
 62
     1
 10
117.657577801697
 20
160.470270392425
 30
0.0
 11
116.957577813618
 21
160.470270392425
 31
0.0
  0
LINE
  5
   3AA
  8
0
  6
CONTINUOUS
 62
     1
 10
117.657577801697
 20
158.370270428188
 30
0.0
 11
116.957577813618
 21
158.370270428188
 31
0.0
  0
ARC
  5
   3AB
  8
0
  6
CONTINUOUS
 62
     1
 10
116.957577813618
 20
159.420270410306
 30
0.0
 40
1.04999998211861
 50
89.9999999480344
 51
269.999999948034
  0
CIRCLE
  5
   3AC
  8
0
  6
CONTINUOUS
 62
     1
 10
70.5824957042933
 20
163.445241078732
 30
0.0
 40
0.769999986886978
  0
CIRCLE
  5
   3AD
  8
0
  6
CONTINUOUS
 62
     1
 10
90.357495367527
 20
163.445241078732
 30
0.0
 40
0.769999986886978
  0
CIRCLE
  5
   3AE
  8
0
  6
CONTINUOUS
 62
     1
 10
119.757494866848
 20
163.445241078732
 30
0.0
 40
0.769999986886978
  0
CIRCLE
  5
   3AF
  8
0
  6
CONTINUOUS
 62
     1
 10
139.532494530082
 20
163.445241078732
 30
0.0
 40
0.769999986886978
  0
LINE
  5
   3B0
  8
0
  6
CONTINUOUS
 62
     3
 10
68.3075035334076
 20
108.425242015717
 30
0.0
 11
68.3075035334076
 21
163.795235732198
 31
0.0
  0
LINE
  5
   3B1
  8
0
  6
CONTINUOUS
 62
     3
 10
68.745003525957
 20
108.425242015717
 30
0.0
 11
68.3075035334076
 21
108.425242015717
 31
0.0
  0
LINE
  5
   3B2
  8
0
  6
CONTINUOUS
 62
     3
 10
68.745003525957
 20
108.075242021678
 30
0.0
 11
68.3075035334076
 21
108.075242021678
 31
0.0
  0
LINE
  5
   3B3
  8
0
  6
CONTINUOUS
 62
     3
 10
141.80750228171
 20
108.425242015717
 30
0.0
 11
141.80750228171
 21
163.795235732198
 31
0.0
  0
LINE
  5
   3B4
  8
0
  6
CONTINUOUS
 62
     3
 10
141.80750228171
 20
108.425242015717
 30
0.0
 11
141.370002289161
 21
108.425242015717
 31
0.0
  0
LINE
  5
   3B5
  8
0
  6
CONTINUOUS
 62
     3
 10
141.80750228171
 20
108.075242021678
 30
0.0
 11
141.370002289161
 21
108.075242021678
 31
0.0
  0
LINE
  5
   3B6
  8
0
  6
CONTINUOUS
 62
     1
 10
129.032494708896
 20
154.520235890148
 30
0.0
 11
81.0824955254794
 21
154.520235890148
 31
0.0
  0
LINE
  5
   3B7
  8
0
  6
CONTINUOUS
 62
     1
 10
129.032494708896
 20
147.170236015318
 30
0.0
 11
81.0824955254794
 21
147.170236015318
 31
0.0
  0
LINE
  5
   3B8
  8
0
  6
CONTINUOUS
 62
     1
 10
81.0824955254794
 20
147.170236015318
 30
0.0
 11
81.0824955254794
 21
154.520235890148
 31
0.0
  0
LINE
  5
   3B9
  8
0
  6
CONTINUOUS
 62
     1
 10
129.032494708896
 20
147.170236015318
 30
0.0
 11
129.032494708896
 21
154.520235890148
 31
0.0
  0
LINE
  5
   3BA
  8
0
  6
CONTINUOUS
 62
     3
 10
104.969995118678
 20
109.720241993664
 30
0.0
 11
104.969995118678
 21
112.695241943
 31
0.0
  0
LINE
  5
   3BB
  8
0
  6
CONTINUOUS
 62
     3
 10
105.599995107949
 20
109.720241993664
 30
0.0
 11
105.599995107949
 21
112.695241943
 31
0.0
  0
LINE
  5
   3BC
  8
0
  6
CONTINUOUS
 62
     3
 10
106.22999509722
 20
109.720241993664
 30
0.0
 11
106.22999509722
 21
113.920241922138
 31
0.0
  0
LINE
  5
   3BD
  8
0
  6
CONTINUOUS
 62
     3
 10
106.859995086491
 20
109.720241993664
 30
0.0
 11
106.859995086491
 21
113.920241922138
 31
0.0
  0
LINE
  5
   3BE
  8
0
  6
CONTINUOUS
 62
     3
 10
107.489995075762
 20
109.720241993664
 30
0.0
 11
107.489995075762
 21
113.920241922138
 31
0.0
  0
LINE
  5
   3BF
  8
0
  6
CONTINUOUS
 62
     3
 10
108.119995065033
 20
109.720241993664
 30
0.0
 11
108.119995065033
 21
113.920241922138
 31
0.0
  0
LINE
  5
   3C0
  8
0
  6
CONTINUOUS
 62
     3
 10
108.749995054305
 20
109.720241993664
 30
0.0
 11
108.749995054305
 21
113.920241922138
 31
0.0
  0
LINE
  5
   3C1
  8
0
  6
CONTINUOUS
 62
     3
 10
109.379995043576
 20
109.720241993664
 30
0.0
 11
109.379995043576
 21
113.920241922138
 31
0.0
  0
LINE
  5
   3C2
  8
0
  6
CONTINUOUS
 62
     3
 10
110.009995032847
 20
109.720241993664
 30
0.0
 11
110.009995032847
 21
113.920241922138
 31
0.0
  0
LINE
  5
   3C3
  8
0
  6
CONTINUOUS
 62
     3
 10
110.639995022118
 20
109.720241993664
 30
0.0
 11
110.639995022118
 21
113.920241922138
 31
0.0
  0
LINE
  5
   3C4
  8
0
  6
CONTINUOUS
 62
     1
 10
141.80750228171
 20
108.425242015717
 30
0.0
 11
131.65749733448
 21
108.425242015717
 31
0.0
  0
LINE
  5
   3C5
  8
0
  6
CONTINUOUS
 62
     3
 10
104.339995129406
 20
109.720241993664
 30
0.0
 11
104.339995129406
 21
112.695241943
 31
0.0
  0
LINE
  5
   3C6
  8
0
  6
CONTINUOUS
 62
     3
 10
103.709995140135
 20
109.720241993664
 30
0.0
 11
103.709995140135
 21
112.695241943
 31
0.0
  0
LINE
  5
   3C7
  8
0
  6
CONTINUOUS
 62
     3
 10
103.079995150864
 20
109.720241993664
 30
0.0
 11
103.079995150864
 21
113.920241922138
 31
0.0
  0
LINE
  5
   3C8
  8
0
  6
CONTINUOUS
 62
     3
 10
102.449995161593
 20
109.720241993664
 30
0.0
 11
102.449995161593
 21
113.920241922138
 31
0.0
  0
LINE
  5
   3C9
  8
0
  6
CONTINUOUS
 62
     3
 10
101.819995172322
 20
109.720241993664
 30
0.0
 11
101.819995172322
 21
113.920241922138
 31
0.0
  0
LINE
  5
   3CA
  8
0
  6
CONTINUOUS
 62
     3
 10
101.189995183051
 20
109.720241993664
 30
0.0
 11
101.189995183051
 21
113.920241922138
 31
0.0
  0
LINE
  5
   3CB
  8
0
  6
CONTINUOUS
 62
     3
 10
100.559995193779
 20
109.720241993664
 30
0.0
 11
100.559995193779
 21
113.920241922138
 31
0.0
  0
LINE
  5
   3CC
  8
0
  6
CONTINUOUS
 62
     3
 10
99.9299952045083
 20
109.720241993664
 30
0.0
 11
99.9299952045083
 21
113.920241922138
 31
0.0
  0
LINE
  5
   3CD
  8
0
  6
CONTINUOUS
 62
     3
 10
99.2999952152372
 20
109.720241993664
 30
0.0
 11
99.2999952152372
 21
113.920241922138
 31
0.0
  0
LINE
  5
   3CE
  8
0
  6
CONTINUOUS
 62
     3
 10
105.599995107949
 20
109.720241993664
 30
0.0
 11
104.969995118678
 21
109.720241993664
 31
0.0
  0
LINE
  5
   3CF
  8
0
  6
CONTINUOUS
 62
     3
 10
105.599995107949
 20
112.695241943
 30
0.0
 11
104.969995118678
 21
112.695241943
 31
0.0
  0
LINE
  5
   3D0
  8
0
  6
CONTINUOUS
 62
     3
 10
104.339995129406
 20
112.695241943
 30
0.0
 11
103.709995140135
 21
112.695241943
 31
0.0
  0
LINE
  5
   3D1
  8
0
  6
CONTINUOUS
 62
     3
 10
103.079995150864
 20
113.920241922138
 30
0.0
 11
102.449995161593
 21
113.920241922138
 31
0.0
  0
LINE
  5
   3D2
  8
0
  6
CONTINUOUS
 62
     3
 10
101.819995172322
 20
113.920241922138
 30
0.0
 11
101.189995183051
 21
113.920241922138
 31
0.0
  0
LINE
  5
   3D3
  8
0
  6
CONTINUOUS
 62
     3
 10
100.559995193779
 20
113.920241922138
 30
0.0
 11
99.9299952045083
 21
113.920241922138
 31
0.0
  0
LINE
  5
   3D4
  8
0
  6
CONTINUOUS
 62
     3
 10
106.859995086491
 20
113.920241922138
 30
0.0
 11
106.22999509722
 21
113.920241922138
 31
0.0
  0
LINE
  5
   3D5
  8
0
  6
CONTINUOUS
 62
     3
 10
108.119995065033
 20
113.920241922138
 30
0.0
 11
107.489995075762
 21
113.920241922138
 31
0.0
  0
LINE
  5
   3D6
  8
0
  6
CONTINUOUS
 62
     3
 10
109.379995043576
 20
113.920241922138
 30
0.0
 11
108.749995054305
 21
113.920241922138
 31
0.0
  0
LINE
  5
   3D7
  8
0
  6
CONTINUOUS
 62
     3
 10
110.639995022118
 20
113.920241922138
 30
0.0
 11
110.009995032847
 21
113.920241922138
 31
0.0
  0
LINE
  5
   3D8
  8
0
  6
CONTINUOUS
 62
     3
 10
98.669995225966
 20
109.720241993664
 30
0.0
 11
98.669995225966
 21
113.920241922138
 31
0.0
  0
LINE
  5
   3D9
  8
0
  6
CONTINUOUS
 62
     3
 10
99.2999952152372
 20
113.920241922138
 30
0.0
 11
98.669995225966
 21
113.920241922138
 31
0.0
  0
LINE
  5
   3DA
  8
0
  6
CONTINUOUS
 62
     3
 10
99.2999952152372
 20
109.720241993664
 30
0.0
 11
98.669995225966
 21
109.720241993664
 31
0.0
  0
LINE
  5
   3DB
  8
0
  6
CONTINUOUS
 62
     3
 10
100.559995193779
 20
109.720241993664
 30
0.0
 11
99.9299952045083
 21
109.720241993664
 31
0.0
  0
LINE
  5
   3DC
  8
0
  6
CONTINUOUS
 62
     3
 10
101.819995172322
 20
109.720241993664
 30
0.0
 11
101.189995183051
 21
109.720241993664
 31
0.0
  0
LINE
  5
   3DD
  8
0
  6
CONTINUOUS
 62
     3
 10
103.079995150864
 20
109.720241993664
 30
0.0
 11
102.449995161593
 21
109.720241993664
 31
0.0
  0
LINE
  5
   3DE
  8
0
  6
CONTINUOUS
 62
     3
 10
104.339995129406
 20
109.720241993664
 30
0.0
 11
103.709995140135
 21
109.720241993664
 31
0.0
  0
LINE
  5
   3DF
  8
0
  6
CONTINUOUS
 62
     3
 10
106.859995086491
 20
109.720241993664
 30
0.0
 11
106.22999509722
 21
109.720241993664
 31
0.0
  0
LINE
  5
   3E0
  8
0
  6
CONTINUOUS
 62
     3
 10
108.119995065033
 20
109.720241993664
 30
0.0
 11
107.489995075762
 21
109.720241993664
 31
0.0
  0
LINE
  5
   3E1
  8
0
  6
CONTINUOUS
 62
     3
 10
109.379995043576
 20
109.720241993664
 30
0.0
 11
108.749995054305
 21
109.720241993664
 31
0.0
  0
LINE
  5
   3E2
  8
0
  6
CONTINUOUS
 62
     3
 10
110.639995022118
 20
109.720241993664
 30
0.0
 11
110.009995032847
 21
109.720241993664
 31
0.0
  0
LINE
  5
   3E3
  8
0
  6
CONTINUOUS
 62
     3
 10
135.209994603694
 20
109.720241993664
 30
0.0
 11
135.209994603694
 21
113.920241922138
 31
0.0
  0
LINE
  5
   3E4
  8
0
  6
CONTINUOUS
 62
     3
 10
135.209994603694
 20
109.720241993664
 30
0.0
 11
134.579994614422
 21
109.720241993664
 31
0.0
  0
LINE
  5
   3E5
  8
0
  6
CONTINUOUS
 62
     3
 10
133.949994625151
 20
109.720241993664
 30
0.0
 11
133.31999463588
 21
109.720241993664
 31
0.0
  0
LINE
  5
   3E6
  8
0
  6
CONTINUOUS
 62
     3
 10
132.689994646609
 20
109.720241993664
 30
0.0
 11
132.059994657338
 21
109.720241993664
 31
0.0
  0
LINE
  5
   3E7
  8
0
  6
CONTINUOUS
 62
     3
 10
131.429994668067
 20
109.720241993664
 30
0.0
 11
130.799994678795
 21
109.720241993664
 31
0.0
  0
LINE
  5
   3E8
  8
0
  6
CONTINUOUS
 62
     3
 10
128.909994710982
 20
109.720241993664
 30
0.0
 11
128.279994721711
 21
109.720241993664
 31
0.0
  0
LINE
  5
   3E9
  8
0
  6
CONTINUOUS
 62
     3
 10
127.64999473244
 20
109.720241993664
 30
0.0
 11
127.019994743168
 21
109.720241993664
 31
0.0
  0
LINE
  5
   3EA
  8
0
  6
CONTINUOUS
 62
     3
 10
126.389994753897
 20
109.720241993664
 30
0.0
 11
125.759994764626
 21
109.720241993664
 31
0.0
  0
LINE
  5
   3EB
  8
0
  6
CONTINUOUS
 62
     3
 10
125.129994775355
 20
109.720241993664
 30
0.0
 11
124.499994786084
 21
109.720241993664
 31
0.0
  0
LINE
  5
   3EC
  8
0
  6
CONTINUOUS
 62
     3
 10
123.869994796813
 20
109.720241993664
 30
0.0
 11
123.239994807541
 21
109.720241993664
 31
0.0
  0
LINE
  5
   3ED
  8
0
  6
CONTINUOUS
 62
     3
 10
123.869994796813
 20
113.920241922138
 30
0.0
 11
123.239994807541
 21
113.920241922138
 31
0.0
  0
LINE
  5
   3EE
  8
0
  6
CONTINUOUS
 62
     3
 10
123.239994807541
 20
109.720241993664
 30
0.0
 11
123.239994807541
 21
113.920241922138
 31
0.0
  0
LINE
  5
   3EF
  8
0
  6
CONTINUOUS
 62
     3
 10
135.209994603694
 20
113.920241922138
 30
0.0
 11
134.579994614422
 21
113.920241922138
 31
0.0
  0
LINE
  5
   3F0
  8
0
  6
CONTINUOUS
 62
     3
 10
133.949994625151
 20
113.920241922138
 30
0.0
 11
133.31999463588
 21
113.920241922138
 31
0.0
  0
LINE
  5
   3F1
  8
0
  6
CONTINUOUS
 62
     3
 10
132.689994646609
 20
113.920241922138
 30
0.0
 11
132.059994657338
 21
113.920241922138
 31
0.0
  0
LINE
  5
   3F2
  8
0
  6
CONTINUOUS
 62
     3
 10
131.429994668067
 20
113.920241922138
 30
0.0
 11
130.799994678795
 21
113.920241922138
 31
0.0
  0
LINE
  5
   3F3
  8
0
  6
CONTINUOUS
 62
     3
 10
125.129994775355
 20
113.920241922138
 30
0.0
 11
124.499994786084
 21
113.920241922138
 31
0.0
  0
LINE
  5
   3F4
  8
0
  6
CONTINUOUS
 62
     3
 10
126.389994753897
 20
113.920241922138
 30
0.0
 11
125.759994764626
 21
113.920241922138
 31
0.0
  0
LINE
  5
   3F5
  8
0
  6
CONTINUOUS
 62
     3
 10
127.64999473244
 20
113.920241922138
 30
0.0
 11
127.019994743168
 21
113.920241922138
 31
0.0
  0
LINE
  5
   3F6
  8
0
  6
CONTINUOUS
 62
     3
 10
128.909994710982
 20
112.695241943
 30
0.0
 11
128.279994721711
 21
112.695241943
 31
0.0
  0
LINE
  5
   3F7
  8
0
  6
CONTINUOUS
 62
     3
 10
130.169994689524
 20
112.695241943
 30
0.0
 11
129.539994700253
 21
112.695241943
 31
0.0
  0
LINE
  5
   3F8
  8
0
  6
CONTINUOUS
 62
     3
 10
130.169994689524
 20
109.720241993664
 30
0.0
 11
129.539994700253
 21
109.720241993664
 31
0.0
  0
LINE
  5
   3F9
  8
0
  6
CONTINUOUS
 62
     3
 10
123.869994796813
 20
109.720241993664
 30
0.0
 11
123.869994796813
 21
113.920241922138
 31
0.0
  0
LINE
  5
   3FA
  8
0
  6
CONTINUOUS
 62
     3
 10
124.499994786084
 20
109.720241993664
 30
0.0
 11
124.499994786084
 21
113.920241922138
 31
0.0
  0
LINE
  5
   3FB
  8
0
  6
CONTINUOUS
 62
     3
 10
125.129994775355
 20
109.720241993664
 30
0.0
 11
125.129994775355
 21
113.920241922138
 31
0.0
  0
LINE
  5
   3FC
  8
0
  6
CONTINUOUS
 62
     3
 10
125.759994764626
 20
109.720241993664
 30
0.0
 11
125.759994764626
 21
113.920241922138
 31
0.0
  0
LINE
  5
   3FD
  8
0
  6
CONTINUOUS
 62
     3
 10
126.389994753897
 20
109.720241993664
 30
0.0
 11
126.389994753897
 21
113.920241922138
 31
0.0
  0
LINE
  5
   3FE
  8
0
  6
CONTINUOUS
 62
     3
 10
127.019994743168
 20
109.720241993664
 30
0.0
 11
127.019994743168
 21
113.920241922138
 31
0.0
  0
LINE
  5
   3FF
  8
0
  6
CONTINUOUS
 62
     3
 10
127.64999473244
 20
109.720241993664
 30
0.0
 11
127.64999473244
 21
113.920241922138
 31
0.0
  0
LINE
  5
   400
  8
0
  6
CONTINUOUS
 62
     3
 10
128.279994721711
 20
109.720241993664
 30
0.0
 11
128.279994721711
 21
112.695241943
 31
0.0
  0
LINE
  5
   401
  8
0
  6
CONTINUOUS
 62
     3
 10
128.909994710982
 20
109.720241993664
 30
0.0
 11
128.909994710982
 21
112.695241943
 31
0.0
  0
LINE
  5
   402
  8
0
  6
CONTINUOUS
 62
     3
 10
135.209994603694
 20
109.720241993664
 30
0.0
 11
135.209994603694
 21
113.920241922138
 31
0.0
  0
LINE
  5
   403
  8
0
  6
CONTINUOUS
 62
     3
 10
134.579994614422
 20
109.720241993664
 30
0.0
 11
134.579994614422
 21
113.920241922138
 31
0.0
  0
LINE
  5
   404
  8
0
  6
CONTINUOUS
 62
     3
 10
133.949994625151
 20
109.720241993664
 30
0.0
 11
133.949994625151
 21
113.920241922138
 31
0.0
  0
LINE
  5
   405
  8
0
  6
CONTINUOUS
 62
     3
 10
133.31999463588
 20
109.720241993664
 30
0.0
 11
133.31999463588
 21
113.920241922138
 31
0.0
  0
LINE
  5
   406
  8
0
  6
CONTINUOUS
 62
     3
 10
132.689994646609
 20
109.720241993664
 30
0.0
 11
132.689994646609
 21
113.920241922138
 31
0.0
  0
LINE
  5
   407
  8
0
  6
CONTINUOUS
 62
     3
 10
132.059994657338
 20
109.720241993664
 30
0.0
 11
132.059994657338
 21
113.920241922138
 31
0.0
  0
LINE
  5
   408
  8
0
  6
CONTINUOUS
 62
     3
 10
131.429994668067
 20
109.720241993664
 30
0.0
 11
131.429994668067
 21
113.920241922138
 31
0.0
  0
LINE
  5
   409
  8
0
  6
CONTINUOUS
 62
     3
 10
130.799994678795
 20
109.720241993664
 30
0.0
 11
130.799994678795
 21
113.920241922138
 31
0.0
  0
LINE
  5
   40A
  8
0
  6
CONTINUOUS
 62
     3
 10
130.169994689524
 20
109.020217472315
 30
0.0
 11
130.169994689524
 21
156.270235690617
 31
0.0
  0
LINE
  5
   40B
  8
0
  6
CONTINUOUS
 62
     3
 10
129.539994700253
 20
109.720241993664
 30
0.0
 11
129.539994700253
 21
112.695241943
 31
0.0
  0
LINE
  5
   40C
  8
0
  6
CONTINUOUS
 62
     3
 10
86.2449954375625
 20
109.720241993664
 30
0.0
 11
85.6149954482913
 21
109.720241993664
 31
0.0
  0
LINE
  5
   40D
  8
0
  6
CONTINUOUS
 62
     3
 10
84.9849954590202
 20
109.720241993664
 30
0.0
 11
84.354995469749
 21
109.720241993664
 31
0.0
  0
LINE
  5
   40E
  8
0
  6
CONTINUOUS
 62
     3
 10
83.7249954804778
 20
109.720241993664
 30
0.0
 11
83.0949954912067
 21
109.720241993664
 31
0.0
  0
LINE
  5
   40F
  8
0
  6
CONTINUOUS
 62
     3
 10
82.4649955019355
 20
109.720241993664
 30
0.0
 11
81.8349955126643
 21
109.720241993664
 31
0.0
  0
LINE
  5
   410
  8
0
  6
CONTINUOUS
 62
     3
 10
79.9449955448509
 20
109.720241993664
 30
0.0
 11
79.3149955555797
 21
109.720241993664
 31
0.0
  0
LINE
  5
   411
  8
0
  6
CONTINUOUS
 62
     3
 10
78.6849955663085
 20
109.720241993664
 30
0.0
 11
78.0549955770373
 21
109.720241993664
 31
0.0
  0
LINE
  5
   412
  8
0
  6
CONTINUOUS
 62
     3
 10
77.4249955877662
 20
109.720241993664
 30
0.0
 11
76.794995598495
 21
109.720241993664
 31
0.0
  0
LINE
  5
   413
  8
0
  6
CONTINUOUS
 62
     3
 10
76.1649956092239
 20
109.720241993664
 30
0.0
 11
75.5349956199527
 21
109.720241993664
 31
0.0
  0
LINE
  5
   414
  8
0
  6
CONTINUOUS
 62
     3
 10
74.9049956306815
 20
109.720241993664
 30
0.0
 11
74.2749956414104
 21
109.720241993664
 31
0.0
  0
LINE
  5
   415
  8
0
  6
CONTINUOUS
 62
     3
 10
74.9049956306815
 20
113.920241922138
 30
0.0
 11
74.2749956414104
 21
113.920241922138
 31
0.0
  0
LINE
  5
   416
  8
0
  6
CONTINUOUS
 62
     3
 10
74.2749956414104
 20
109.720241993664
 30
0.0
 11
74.2749956414104
 21
113.920241922138
 31
0.0
  0
LINE
  5
   417
  8
0
  6
CONTINUOUS
 62
     3
 10
86.2449954375625
 20
113.920241922138
 30
0.0
 11
85.6149954482913
 21
113.920241922138
 31
0.0
  0
LINE
  5
   418
  8
0
  6
CONTINUOUS
 62
     3
 10
84.9849954590202
 20
113.920241922138
 30
0.0
 11
84.354995469749
 21
113.920241922138
 31
0.0
  0
LINE
  5
   419
  8
0
  6
CONTINUOUS
 62
     3
 10
83.7249954804778
 20
113.920241922138
 30
0.0
 11
83.0949954912067
 21
113.920241922138
 31
0.0
  0
LINE
  5
   41A
  8
0
  6
CONTINUOUS
 62
     3
 10
82.4649955019355
 20
113.920241922138
 30
0.0
 11
81.8349955126643
 21
113.920241922138
 31
0.0
  0
LINE
  5
   41B
  8
0
  6
CONTINUOUS
 62
     3
 10
76.1649956092239
 20
113.920241922138
 30
0.0
 11
75.5349956199527
 21
113.920241922138
 31
0.0
  0
LINE
  5
   41C
  8
0
  6
CONTINUOUS
 62
     3
 10
77.4249955877662
 20
113.920241922138
 30
0.0
 11
76.794995598495
 21
113.920241922138
 31
0.0
  0
LINE
  5
   41D
  8
0
  6
CONTINUOUS
 62
     3
 10
78.6849955663085
 20
113.920241922138
 30
0.0
 11
78.0549955770373
 21
113.920241922138
 31
0.0
  0
LINE
  5
   41E
  8
0
  6
CONTINUOUS
 62
     3
 10
79.9449955448509
 20
112.695241943
 30
0.0
 11
79.3149955555797
 21
112.695241943
 31
0.0
  0
LINE
  5
   41F
  8
0
  6
CONTINUOUS
 62
     3
 10
81.2049955233932
 20
112.695241943
 30
0.0
 11
80.574995534122
 21
112.695241943
 31
0.0
  0
LINE
  5
   420
  8
0
  6
CONTINUOUS
 62
     3
 10
81.2049955233932
 20
109.720241993664
 30
0.0
 11
80.574995534122
 21
109.720241993664
 31
0.0
  0
LINE
  5
   421
  8
0
  6
CONTINUOUS
 62
     3
 10
74.9049956306815
 20
109.720241993664
 30
0.0
 11
74.9049956306815
 21
113.920241922138
 31
0.0
  0
LINE
  5
   422
  8
0
  6
CONTINUOUS
 62
     3
 10
75.5349956199527
 20
109.720241993664
 30
0.0
 11
75.5349956199527
 21
113.920241922138
 31
0.0
  0
LINE
  5
   423
  8
0
  6
CONTINUOUS
 62
     3
 10
76.1649956092239
 20
109.720241993664
 30
0.0
 11
76.1649956092239
 21
113.920241922138
 31
0.0
  0
LINE
  5
   424
  8
0
  6
CONTINUOUS
 62
     3
 10
76.794995598495
 20
109.720241993664
 30
0.0
 11
76.794995598495
 21
113.920241922138
 31
0.0
  0
LINE
  5
   425
  8
0
  6
CONTINUOUS
 62
     3
 10
77.4249955877662
 20
109.720241993664
 30
0.0
 11
77.4249955877662
 21
113.920241922138
 31
0.0
  0
LINE
  5
   426
  8
0
  6
CONTINUOUS
 62
     3
 10
78.0549955770373
 20
109.720241993664
 30
0.0
 11
78.0549955770373
 21
113.920241922138
 31
0.0
  0
LINE
  5
   427
  8
0
  6
CONTINUOUS
 62
     3
 10
78.6849955663085
 20
109.720241993664
 30
0.0
 11
78.6849955663085
 21
113.920241922138
 31
0.0
  0
LINE
  5
   428
  8
0
  6
CONTINUOUS
 62
     3
 10
79.3149955555797
 20
109.720241993664
 30
0.0
 11
79.3149955555797
 21
112.695241943
 31
0.0
  0
LINE
  5
   429
  8
0
  6
CONTINUOUS
 62
     3
 10
79.9449955448509
 20
109.020216653275
 30
0.0
 11
79.9449955448509
 21
112.695241943
 31
0.0
  0
LINE
  5
   42A
  8
0
  6
CONTINUOUS
 62
     3
 10
86.2449954375625
 20
109.720241993664
 30
0.0
 11
86.2449954375625
 21
113.920241922138
 31
0.0
  0
LINE
  5
   42B
  8
0
  6
CONTINUOUS
 62
     3
 10
85.6149954482913
 20
109.720241993664
 30
0.0
 11
85.6149954482913
 21
113.920241922138
 31
0.0
  0
LINE
  5
   42C
  8
0
  6
CONTINUOUS
 62
     3
 10
84.9849954590202
 20
109.720241993664
 30
0.0
 11
84.9849954590202
 21
113.920241922138
 31
0.0
  0
LINE
  5
   42D
  8
0
  6
CONTINUOUS
 62
     3
 10
84.354995469749
 20
109.720241993664
 30
0.0
 11
84.354995469749
 21
113.920241922138
 31
0.0
  0
LINE
  5
   42E
  8
0
  6
CONTINUOUS
 62
     3
 10
83.7249954804778
 20
109.720241993664
 30
0.0
 11
83.7249954804778
 21
113.920241922138
 31
0.0
  0
LINE
  5
   42F
  8
0
  6
CONTINUOUS
 62
     3
 10
83.0949954912067
 20
109.720241993664
 30
0.0
 11
83.0949954912067
 21
113.920241922138
 31
0.0
  0
LINE
  5
   430
  8
0
  6
CONTINUOUS
 62
     3
 10
82.4649955019355
 20
109.720241993664
 30
0.0
 11
82.4649955019355
 21
113.920241922138
 31
0.0
  0
LINE
  5
   431
  8
0
  6
CONTINUOUS
 62
     3
 10
81.8349955126643
 20
109.720241993664
 30
0.0
 11
81.8349955126643
 21
113.920241922138
 31
0.0
  0
LINE
  5
   432
  8
0
  6
CONTINUOUS
 62
     3
 10
81.2049955233932
 20
109.720241993664
 30
0.0
 11
81.2049955233932
 21
112.695241943
 31
0.0
  0
LINE
  5
   433
  8
0
  6
CONTINUOUS
 62
     3
 10
80.574995534122
 20
109.720241993664
 30
0.0
 11
80.574995534122
 21
112.695241943
 31
0.0
  0
LINE
  5
   434
  8
0
  6
CONTINUOUS
 62
     3
 10
68.3075035334076
 20
23.7252271693967
 30
0.0
 11
68.3075035334076
 21
108.075242021678
 31
0.0
  0
LINE
  5
   435
  8
0
  6
CONTINUOUS
 62
     3
 10
69.182485118884
 20
23.7252271693967
 30
0.0
 11
68.3075035334076
 21
23.7252271693967
 31
0.0
  0
LINE
  5
   436
  8
0
  6
CONTINUOUS
 62
     3
 10
141.80750228171
 20
23.7252271693967
 30
0.0
 11
141.80750228171
 21
108.075242021678
 31
0.0
  0
LINE
  5
   437
  8
0
  6
CONTINUOUS
 62
     3
 10
141.80750228171
 20
23.7252271693967
 30
0.0
 11
140.932473215818
 21
23.7252271693967
 31
0.0
  0
LINE
  5
   438
  8
0
  6
CONTINUOUS
 62
     1
 10
136.469997032031
 20
108.425242015717
 30
0.0
 11
136.469997032031
 21
156.270235690617
 31
0.0
  0
LINE
  5
   439
  8
0
  6
DASHDOT
 62
     7
 10
105.057495117188
 20
129.125674663189
 30
0.0
 11
105.057495117188
 21
169.665464601276
 31
0.0
  0
LINE
  5
   43A
  8
0
  6
CONTINUOUS
 62
     1
 10
141.80750228171
 20
31.3202273070849
 30
0.0
 11
68.3075035334076
 21
31.3202273070849
 31
0.0
  0
LINE
  5
   43B
  8
0
  6
CONTINUOUS
 62
     7
 10
68.745003525957
 20
46.3702270507812
 30
0.0
 11
68.745003525957
 21
46.7202270239591
 31
0.0
  0
LINE
  5
   43C
  8
0
  6
CONTINUOUS
 62
     7
 10
68.745003525957
 20
46.7202270239591
 30
0.0
 11
68.3075035334076
 21
46.7202270239591
 31
0.0
  0
LINE
  5
   43D
  8
0
  6
CONTINUOUS
 62
     7
 10
68.745003525957
 20
46.3702270507812
 30
0.0
 11
68.3075035334076
 21
46.3702270507812
 31
0.0
  0
LINE
  5
   43E
  8
0
  6
CONTINUOUS
 62
     7
 10
141.370002289161
 20
46.3702270507812
 30
0.0
 11
141.370002289161
 21
46.7202270239591
 31
0.0
  0
LINE
  5
   43F
  8
0
  6
CONTINUOUS
 62
     7
 10
141.80750228171
 20
46.7202270239591
 30
0.0
 11
141.370002289161
 21
46.7202270239591
 31
0.0
  0
LINE
  5
   440
  8
0
  6
CONTINUOUS
 62
     7
 10
141.80750228171
 20
46.3702270507812
 30
0.0
 11
141.370002289161
 21
46.3702270507812
 31
0.0
  0
LINE
  5
   441
  8
0
  6
CONTINUOUS
 62
     1
 10
132.690001368865
 20
31.3202273070849
 30
0.0
 11
132.690001368865
 21
46.3702270507812
 31
0.0
  0
LINE
  5
   442
  8
0
  6
CONTINUOUS
 62
     1
 10
133.949998143062
 20
31.3202273070849
 30
0.0
 11
133.949998143062
 21
46.3702270507812
 31
0.0
  0
LINE
  5
   443
  8
0
  6
CONTINUOUS
 62
     1
 10
135.210000257834
 20
31.3202273070849
 30
0.0
 11
135.210000257834
 21
46.3702270507812
 31
0.0
  0
LINE
  5
   444
  8
0
  6
CONTINUOUS
 62
     1
 10
136.469997032031
 20
31.3202273070849
 30
0.0
 11
136.469997032031
 21
46.3702270507812
 31
0.0
  0
LINE
  5
   445
  8
0
  6
CONTINUOUS
 62
     1
 10
137.729999146804
 20
31.3202273070849
 30
0.0
 11
137.729999146804
 21
46.3702270507812
 31
0.0
  0
LINE
  5
   446
  8
0
  6
CONTINUOUS
 62
     1
 10
138.990001261577
 20
31.3202273070849
 30
0.0
 11
138.990001261577
 21
46.3702270507812
 31
0.0
  0
LINE
  5
   447
  8
0
  6
CONTINUOUS
 62
     1
 10
140.249998035773
 20
31.3202273070849
 30
0.0
 11
140.249998035773
 21
46.3702270507812
 31
0.0
  0
LINE
  5
   448
  8
0
  6
CONTINUOUS
 62
     1
 10
141.054999090179
 20
31.3202273070849
 30
0.0
 11
141.054999090179
 21
46.3702270507812
 31
0.0
  0
LINE
  5
   449
  8
0
  6
CONTINUOUS
 62
     1
 10
69.0600033870782
 20
31.3202273070849
 30
0.0
 11
69.0600033870782
 21
46.3702270507812
 31
0.0
  0
LINE
  5
   44A
  8
0
  6
CONTINUOUS
 62
     1
 10
69.8650034401263
 20
31.3202273070849
 30
0.0
 11
69.8650034401263
 21
46.3702270507812
 31
0.0
  0
LINE
  5
   44B
  8
0
  6
CONTINUOUS
 62
     1
 10
71.125003218397
 20
31.3202273070849
 30
0.0
 11
71.125003218397
 21
46.3702270507812
 31
0.0
  0
LINE
  5
   44C
  8
0
  6
CONTINUOUS
 62
     1
 10
72.3850033304538
 20
31.3202273070849
 30
0.0
 11
72.3850033304538
 21
46.3702270507812
 31
0.0
  0
LINE
  5
   44D
  8
0
  6
CONTINUOUS
 62
     1
 10
73.6450034425105
 20
31.3202273070849
 30
0.0
 11
73.6450034425105
 21
46.3702270507812
 31
0.0
  0
LINE
  5
   44E
  8
0
  6
CONTINUOUS
 62
     1
 10
74.9050002167072
 20
31.3202273070849
 30
0.0
 11
74.9050002167072
 21
46.3702270507812
 31
0.0
  0
LINE
  5
   44F
  8
0
  6
CONTINUOUS
 62
     1
 10
76.1650023314799
 20
31.3202273070849
 30
0.0
 11
76.1650023314799
 21
46.3702270507812
 31
0.0
  0
LINE
  5
   450
  8
0
  6
CONTINUOUS
 62
     1
 10
77.4249991056766
 20
31.3202273070849
 30
0.0
 11
77.4249991056766
 21
46.3702270507812
 31
0.0
  0
LINE
  5
   451
  8
0
  6
CONTINUOUS
 62
     1
 10
78.6849990842189
 20
31.3202273070849
 30
0.0
 11
78.6849990842189
 21
40.4739058869414
 31
0.0
  0
LINE
  5
   452
  8
0
  6
CONTINUOUS
 62
     1
 10
79.9449990627613
 20
31.3202273070849
 30
0.0
 11
79.9449990627613
 21
40.4202159702797
 31
0.0
  0
LINE
  5
   453
  8
0
  6
CONTINUOUS
 62
     1
 10
131.430001390323
 20
31.3202273070849
 30
0.0
 11
131.430001390323
 21
40.4739205845897
 31
0.0
  0
LINE
  5
   454
  8
0
  6
CONTINUOUS
 62
     1
 10
130.17000141178
 20
31.3202273070849
 30
0.0
 11
130.17000141178
 21
40.4202159702797
 31
0.0
  0
CIRCLE
  5
   455
  8
0
  6
CONTINUOUS
 62
     3
 10
92.8075782248901
 20
111.120236629246
 30
0.0
 40
1.39999997615814
  0
CIRCLE
  5
   456
  8
0
  6
CONTINUOUS
 62
     3
 10
117.307412009485
 20
111.120236629246
 30
0.0
 40
1.39999997615814
  0
LINE
  5
   457
  8
0
  6
DASHDOT
 62
     7
 10
92.8074839458011
 20
25.6327496578416
 30
0.0
 11
92.8074839458011
 21
30.7077301599721
 31
0.0
  0
LINE
  5
   458
  8
0
  6
DASHDOT
 62
     7
 10
95.3449741968663
 20
28.1702399089068
 30
0.0
 11
90.2699936947359
 21
28.1702399089068
 31
0.0
  0
LINE
  5
   459
  8
0
  6
CONTINUOUS
 62
     1
 10
78.4574982404709
 20
108.425242015717
 30
0.0
 11
68.9375035226787
 21
108.425242015717
 31
0.0
  0
LINE
  5
   45A
  8
0
  6
CONTINUOUS
 62
     1
 10
78.4574982404709
 20
108.075242021678
 30
0.0
 11
68.3075035334076
 21
108.075242021678
 31
0.0
  0
LINE
  5
   45B
  8
0
  6
CONTINUOUS
 62
     1
 10
78.4574982404709
 20
107.970236513161
 30
0.0
 11
68.3075035334076
 21
107.970236513161
 31
0.0
  0
LINE
  5
   45C
  8
0
  6
DASHDOT
 62
     7
 10
105.057495117188
 20
20.7950111696863
 30
0.0
 11
105.057495117188
 21
120.861309565483
 31
0.0
  0
TEXT
  5
   45D
  8
0
  6
CONTINUOUS
 62
     7
 10
161.421135264232
 20
73.2167083492421
 30
0.0
 40
2.99999997871263
  1
X
 50
359.999999948034
 41
0.91666663951344
 72
     1
 11
162.521135233441
 21
74.7167083376062
 31
0.0
 73
     2
  0
TEXT
  5
   45E
  8
0
  6
CONTINUOUS
 62
     7
 10
44.3792865195176
 20
73.6657613276154
 30
0.0
 40
2.99999997871263
  1
X
 50
359.999999948034
 41
0.91666663951344
 72
     2
 11
46.5792864552298
 21
73.6657613256311
 31
0.0
  0
TEXT
  5
   45F
  8
0
  6
CONTINUOUS
 62
     7
 10
104.626015666164
 20
-1.59145726402524
 30
0.0
 40
2.99999997871263
  1
Y
 50
359.999999948034
 41
0.91666663951344
 72
     2
 11
106.826015601876
 21
-1.59145726600952
 31
0.0
  0
INSERT
  5
   460
  8
0
  6
CONTINUOUS
 62
     7
  2
*UDIM535
 10
0.0
 20
0.0
 30
0.0
  0
INSERT
  5
   461
  8
0
  6
CONTINUOUS
 62
     7
  2
*UDIM536
 10
0.0
 20
0.0
 30
0.0
  0
INSERT
  5
   462
  8
0
  6
CONTINUOUS
 62
     7
  2
*UDIM537
 10
0.0
 20
0.0
 30
0.0
  0
INSERT
  5
   463
  8
0
  6
CONTINUOUS
 62
     7
  2
*UDIM538
 10
0.0
 20
0.0
 30
0.0
  0
INSERT
  5
   464
  8
0
  6
CONTINUOUS
 62
     7
  2
*UDIM539
 10
0.0
 20
0.0
 30
0.0
  0
INSERT
  5
   465
  8
0
  6
CONTINUOUS
 62
     7
  2
*UDIM540
 10
0.0
 20
0.0
 30
0.0
  0
INSERT
  5
   466
  8
0
  6
CONTINUOUS
 62
     7
  2
*UDIM541
 10
0.0
 20
0.0
 30
0.0
  0
TEXT
  5
   467
  8
0
  6
CONTINUOUS
 62
     7
 10
103.7832655629
 20
169.287296448193
 30
0.0
 40
2.99999997871263
  1
Y
 50
359.999999948034
 41
0.91666663951344
 72
     2
 11
105.983265498612
 21
169.287296446209
 31
0.0
  0
LINE
  5
   468
  8
0
  6
DASHDOT
 62
   130
 10
185.563812270761
 20
47.0702484011649
 30
0.0
 11
185.563812270761
 21
123.807851573286
 31
0.0
  0
LINE
  5
   469
  8
0
  6
CONTINUOUS
 62
     3
 10
185.913812306523
 20
75.2452479213475
 30
0.0
 11
185.913812306523
 21
79.7952478438615
 31
0.0
  0
LINE
  5
   46A
  8
0
  6
CONTINUOUS
 62
   130
 10
185.563812604547
 20
161.170246458054
 30
0.0
 11
186.438812255859
 21
161.170246458054
 31
0.0
  0
LINE
  5
   46B
  8
0
  6
CONTINUOUS
 62
   130
 10
185.563812604547
 20
157.670241177082
 30
0.0
 11
186.438812255859
 21
157.670241177082
 31
0.0
  0
LINE
  5
   46C
  8
0
  6
CONTINUOUS
 62
   130
 10
185.563812604547
 20
157.670241177082
 30
0.0
 11
185.563812604547
 21
158.138075641771
 31
0.0
  0
LINE
  5
   46D
  8
0
  6
CONTINUOUS
 62
   130
 10
185.563812604547
 20
158.138107685228
 30
0.0
 11
185.563812604547
 21
158.742949288697
 31
0.0
  0
LINE
  5
   46E
  8
0
  6
CONTINUOUS
 62
   130
 10
185.563812604547
 20
158.742992013305
 30
0.0
 11
185.563812604547
 21
161.170246124268
 31
0.0
  0
LINE
  5
   46F
  8
0
  6
CONTINUOUS
 62
     3
 10
186.08881226182
 20
47.0702480673789
 30
0.0
 11
186.438812234998
 21
47.0702480673789
 31
0.0
  0
LINE
  5
   470
  8
0
  6
CONTINUOUS
 62
     3
 10
186.08881226182
 20
75.4924418258292
 30
0.0
 11
186.08881226182
 21
79.7952478438615
 31
0.0
  0
LINE
  5
   471
  8
0
  6
CONTINUOUS
 62
   130
 10
186.08881226182
 20
152.595246610828
 30
0.0
 11
186.438812255859
 21
152.595241270252
 31
0.0
  0
LINE
  5
   472
  8
0
  6
CONTINUOUS
 62
   130
 10
186.438811621232
 20
152.805997561227
 30
0.0
 11
186.438812309665
 21
152.595231726198
 31
0.0
  0
LINE
  5
   473
  8
0
  6
CONTINUOUS
 62
   130
 10
186.438812255859
 20
152.595241263509
 30
0.0
 11
186.438812255859
 21
164.845241054893
 31
0.0
  0
LINE
  5
   474
  8
0
  6
CONTINUOUS
 62
     3
 10
186.438812234998
 20
47.0702480673789
 30
0.0
 11
202.001240253663
 21
47.0702480673789
 31
0.0
  0
LINE
  5
   475
  8
0
  6
CONTINUOUS
 62
     3
 10
186.08881094025
 20
70.0984197241227
 30
0.0
 11
186.438812255859
 21
70.1921990396338
 31
0.0
  0
LINE
  5
   476
  8
0
  6
CONTINUOUS
 62
     3
 10
186.088814839416
 20
75.4924368604958
 30
0.0
 11
188.970618365656
 21
74.7202324607835
 31
0.0
  0
LINE
  5
   477
  8
0
  6
CONTINUOUS
 62
     3
 10
187.313789810537
 20
74.7202324902584
 30
0.0
 11
219.233789266943
 21
74.720247647852
 31
0.0
  0
LINE
  5
   478
  8
0
  6
CONTINUOUS
 62
     3
 10
187.313789810537
 20
70.8702218746382
 30
0.0
 11
219.233789266943
 21
70.870237031379
 31
0.0
  0
LINE
  5
   479
  8
0
  6
CONTINUOUS
 62
     3
 10
186.438812255859
 20
70.1921817537386
 30
0.0
 11
186.438812255859
 21
75.2452479213475
 31
0.0
  0
LINE
  5
   47A
  8
0
  6
DASHDOT
 62
   130
 10
185.563812270761
 20
33.2452432960272
 30
0.0
 11
185.563812270761
 21
172.107850750742
 31
0.0
  0
LINE
  5
   47B
  8
0
  6
CONTINUOUS
 62
     3
 10
185.563812270761
 20
52.320248311758
 30
0.0
 11
186.088811928034
 21
52.320248311758
 31
0.0
  0
LINE
  5
   47C
  8
0
  6
CONTINUOUS
 62
     3
 10
185.563812382022
 20
47.070248401165
 30
0.0
 11
186.088812373082
 21
47.070248067379
 31
0.0
  0
LINE
  5
   47D
  8
0
  6
CONTINUOUS
 62
     3
 10
202.001231832433
 20
47.0702464743405
 30
0.0
 11
202.188792849408
 21
46.3702468509929
 31
0.0
  0
LINE
  5
   47E
  8
0
  6
CONTINUOUS
 62
     3
 10
202.013806650043
 20
46.3702484130858
 30
0.0
 11
213.388790434599
 21
46.3702484130858
 31
0.0
  0
LINE
  5
   47F
  8
0
  6
CONTINUOUS
 62
     3
 10
211.463790467382
 20
70.7827266350391
 30
0.0
 11
211.463790467382
 21
70.8702373147012
 31
0.0
  0
LINE
  5
   480
  8
0
  6
CONTINUOUS
 62
     3
 10
211.463790467382
 20
74.7202479302882
 30
0.0
 11
211.463790467382
 21
74.8077265664938
 31
0.0
  0
LINE
  5
   481
  8
0
  6
CONTINUOUS
 62
     3
 10
211.463790467382
 20
74.8077265664938
 30
0.0
 11
219.233789266943
 21
74.8077265664938
 31
0.0
  0
LINE
  5
   482
  8
0
  6
CONTINUOUS
 62
     3
 10
211.463787068712
 20
70.7827246943282
 30
0.0
 11
219.233789266943
 21
70.7826815815471
 31
0.0
  0
LINE
  5
   483
  8
0
  6
CONTINUOUS
 62
     3
 10
185.913812598586
 20
79.7952478438615
 30
0.0
 11
186.088812929392
 21
79.7952478438615
 31
0.0
  0
LINE
  5
   484
  8
0
  6
CONTINUOUS
 62
     3
 10
185.913812577724
 20
75.2452479213475
 30
0.0
 11
186.438812234998
 21
75.2452479213475
 31
0.0
  0
LINE
  5
   485
  8
0
  6
CONTINUOUS
 62
     3
 10
221.088790303468
 20
46.7202323853971
 30
0.0
 11
221.088790303468
 21
54.332732255757
 31
0.0
  0
LINE
  5
   486
  8
0
  6
CONTINUOUS
 62
     3
 10
221.088790303468
 20
108.425242015719
 30
0.0
 11
221.088790303468
 21
156.270225179196
 31
0.0
  0
LINE
  5
   487
  8
0
  6
CONTINUOUS
 62
     7
 10
219.33879033327
 20
107.97022600174
 30
0.0
 11
221.088790303468
 21
107.97022600174
 31
0.0
  0
LINE
  5
   488
  8
0
  6
CONTINUOUS
 62
     3
 10
220.213806607127
 20
46.3702323913576
 30
0.0
 11
220.738790309428
 21
46.3702323913576
 31
0.0
  0
LINE
  5
   489
  8
0
  6
CONTINUOUS
 62
     3
 10
221.788790291547
 20
54.332732255757
 30
0.0
 11
221.788790291547
 21
91.0827262893322
 31
0.0
  0
LINE
  5
   48A
  8
0
  6
CONTINUOUS
 62
     3
 10
221.088790303468
 20
54.332732255757
 30
0.0
 11
221.788790291547
 21
54.332732255757
 31
0.0
  0
LINE
  5
   48B
  8
0
  6
CONTINUOUS
 62
     3
 10
221.088790303468
 20
91.0827262893322
 30
0.0
 11
221.788790291547
 21
91.0827262893322
 31
0.0
  0
LINE
  5
   48C
  8
0
  6
CONTINUOUS
 62
     3
 10
212.338790452479
 20
81.1952405217456
 30
0.0
 11
212.338790452479
 21
105.778378964094
 31
0.0
  0
LINE
  5
   48D
  8
0
  6
CONTINUOUS
 62
     3
 10
212.338789610358
 20
81.1952406621034
 30
0.0
 11
213.388789893991
 21
81.0202353486283
 31
0.0
  0
LINE
  5
   48E
  8
0
  6
CONTINUOUS
 62
     3
 10
212.338790119387
 20
81.1952380847065
 30
0.0
 11
212.338790453173
 21
81.3702327413131
 31
0.0
  0
LINE
  5
   48F
  8
0
  6
CONTINUOUS
 62
     3
 10
186.438812255859
 20
163.795253167211
 30
0.0
 11
219.233789266943
 21
163.795225672062
 31
0.0
  0
LINE
  5
   490
  8
0
  6
CONTINUOUS
 62
     3
 10
213.388790434598
 20
164.845241054893
 30
0.0
 11
220.038790321349
 21
164.845241054893
 31
0.0
  0
LINE
  5
   491
  8
0
  6
CONTINUOUS
 62
     3
 10
213.388790434598
 20
46.3702484130858
 30
0.0
 11
219.338784992694
 21
46.3702484130858
 31
0.0
  0
LINE
  5
   492
  8
0
  6
CONTINUOUS
 62
     3
 10
213.388790434598
 20
47.0702430605888
 30
0.0
 11
219.233789266943
 21
47.0702430605888
 31
0.0
  0
LINE
  5
   493
  8
0
  6
CONTINUOUS
 62
     3
 10
213.388790434598
 20
46.3702484130858
 30
0.0
 11
213.388790434598
 21
70.7827140132181
 31
0.0
  0
LINE
  5
   494
  8
0
  6
CONTINUOUS
 62
     3
 10
220.038790321349
 20
164.845241054893
 30
0.0
 11
220.213790318369
 21
164.845241054893
 31
0.0
  0
LINE
  5
   495
  8
0
  6
CONTINUOUS
 62
     3
 10
220.213790318369
 20
156.270241200924
 30
0.0
 11
220.213790318369
 21
164.845241054893
 31
0.0
  0
LINE
  5
   496
  8
0
  6
CONTINUOUS
 62
     3
 10
219.233789266943
 20
74.8077265664938
 30
0.0
 11
219.233789266943
 21
163.795225672062
 31
0.0
  0
LINE
  5
   497
  8
0
  6
CONTINUOUS
 62
     3
 10
219.233789266943
 20
47.0702430605888
 30
0.0
 11
219.233789266943
 21
70.7826815815471
 31
0.0
  0
LINE
  5
   498
  8
0
  6
CONTINUOUS
 62
     3
 10
220.738790309428
 20
107.970236682892
 30
0.0
 11
221.088790303468
 21
107.970236682892
 31
0.0
  0
LINE
  5
   499
  8
0
  6
CONTINUOUS
 62
     3
 10
221.088790303468
 20
91.0827369704844
 30
0.0
 11
221.788790291547
 21
91.0827369704844
 31
0.0
  0
LINE
  5
   49A
  8
0
  6
CONTINUOUS
 62
     3
 10
219.33879033327
 20
46.3702323913576
 30
0.0
 11
219.33879033327
 21
107.97022600174
 31
0.0
  0
LINE
  5
   49B
  8
0
  6
CONTINUOUS
 62
     3
 10
219.233790902417
 20
66.8277274454695
 30
0.0
 11
219.338791965319
 21
66.8092136759159
 31
0.0
  0
LINE
  5
   49C
  8
0
  6
CONTINUOUS
 62
     3
 10
219.233791178812
 20
47.0702484142553
 30
0.0
 11
219.338786899098
 21
47.0011520451384
 31
0.0
  0
LINE
  5
   49D
  8
0
  6
CONTINUOUS
 62
     3
 10
219.233787542437
 20
78.7627307416329
 30
0.0
 11
219.338788605068
 21
78.781246517432
 31
0.0
  0
LINE
  5
   49E
  8
0
  6
CONTINUOUS
 62
     3
 10
219.233787811609
 20
153.407860337838
 30
0.0
 11
219.338783531472
 21
153.363159722135
 31
0.0
  0
LINE
  5
   49F
  8
0
  6
CONTINUOUS
 62
     3
 10
219.233793520182
 20
154.932621867277
 30
0.0
 11
219.338789245464
 21
154.977317142693
 31
0.0
  0
LINE
  5
   4A0
  8
0
  6
CONTINUOUS
 62
     2
 10
185.563812270761
 20
26.420243412256
 30
0.0
 11
186.263806918264
 21
26.420243412256
 31
0.0
  0
LINE
  5
   4A1
  8
0
  6
CONTINUOUS
 62
     2
 10
185.563812270761
 20
26.420243412256
 30
0.0
 11
185.563812270761
 21
33.2452432960272
 31
0.0
  0
LINE
  5
   4A2
  8
0
  6
CONTINUOUS
 62
     3
 10
185.563806930184
 20
46.8952430635688
 30
0.0
 11
202.013806650043
 21
46.8952430635688
 31
0.0
  0
LINE
  5
   4A3
  8
0
  6
CONTINUOUS
 62
     2
 10
220.213806340099
 20
22.7452434748409
 30
0.0
 11
220.213806340099
 21
31.1452379912137
 31
0.0
  0
LINE
  5
   4A4
  8
0
  6
CONTINUOUS
 62
     3
 10
185.563806930184
 20
21.6952402512365
 30
0.0
 11
185.563806930184
 21
46.8952430635688
 31
0.0
  0
LINE
  5
   4A5
  8
0
  6
CONTINUOUS
 62
     2
 10
219.233806623817
 20
31.1452379912137
 30
0.0
 11
220.213806340099
 21
31.1452379912137
 31
0.0
  0
LINE
  5
   4A6
  8
0
  6
CONTINUOUS
 62
     3
 10
219.233806623817
 20
23.7252445262668
 30
0.0
 11
219.233806623817
 21
31.1452379912137
 31
0.0
  0
LINE
  5
   4A7
  8
0
  6
CONTINUOUS
 62
     3
 10
202.013806650043
 20
46.3702377319335
 30
0.0
 11
202.013806650043
 21
46.8952430635688
 31
0.0
  0
LINE
  5
   4A8
  8
0
  6
CONTINUOUS
 62
     2
 10
219.233806623817
 20
32.5452379673718
 30
0.0
 11
219.233806623817
 21
46.3702377319335
 31
0.0
  0
LINE
  5
   4A9
  8
0
  6
CONTINUOUS
 62
     2
 10
186.263806918264
 20
22.7452434748419
 30
0.0
 11
186.263806918264
 21
26.420243412256
 31
0.0
  0
LINE
  5
   4AA
  8
0
  6
CONTINUOUS
 62
     7
 10
221.088806592226
 20
32.5452377976411
 30
0.0
 11
221.088806592226
 21
46.195237565183
 31
0.0
  0
LINE
  5
   4AB
  8
0
  6
CONTINUOUS
 62
     7
 10
219.233806623817
 20
46.195237565183
 30
0.0
 11
220.213806607127
 21
46.195237565183
 31
0.0
  0
LINE
  5
   4AC
  8
0
  6
CONTINUOUS
 62
     7
 10
219.233806623817
 20
32.5452377976411
 30
0.0
 11
221.088806592226
 21
32.5452377976411
 31
0.0
  0
LINE
  5
   4AD
  8
0
  6
CONTINUOUS
 62
     7
 10
220.213806607127
 20
32.5452377976411
 30
0.0
 11
220.213806607127
 21
46.195237565183
 31
0.0
  0
LINE
  5
   4AE
  8
0
  6
CONTINUOUS
 62
     3
 10
213.388790434598
 20
74.8077265664938
 30
0.0
 11
213.388790434598
 21
81.0202211201195
 31
0.0
  0
LINE
  5
   4AF
  8
0
  6
CONTINUOUS
 62
     3
 10
219.233789266943
 20
70.870237031379
 30
0.0
 11
219.233789266943
 21
74.720247647852
 31
0.0
  0
LINE
  5
   4B0
  8
0
  6
CONTINUOUS
 62
     3
 10
187.313789810537
 20
70.870237031379
 30
0.0
 11
187.313789810537
 21
74.7202324902584
 31
0.0
  0
LINE
  5
   4B1
  8
0
  6
DASHDOT
 62
     7
 10
184.513806948066
 20
21.6952402512365
 30
0.0
 11
184.513806948066
 21
171.962430069427
 31
0.0
  0
LINE
  5
   4B2
  8
0
  6
CONTINUOUS
 62
     3
 10
186.438812255859
 20
70.1921990396338
 30
0.0
 11
188.969342408244
 21
70.870229021201
 31
0.0
  0
LINE
  5
   4B3
  8
0
  6
CONTINUOUS
 62
     3
 10
186.438812255859
 20
75.2452479213475
 30
0.0
 11
186.438812255859
 21
75.3986559692721
 31
0.0
  0
LINE
  5
   4B4
  8
0
  6
CONTINUOUS
 62
     3
 10
186.08881226182
 20
115.495241895319
 30
0.0
 11
186.08881226182
 21
151.549011530694
 31
0.0
  0
LINE
  5
   4B5
  8
0
  6
CONTINUOUS
 62
     3
 10
186.08881226182
 20
52.320248311758
 30
0.0
 11
186.08881226182
 21
70.0984172594858
 31
0.0
  0
LINE
  5
   4B6
  8
0
  6
CONTINUOUS
 62
     2
 10
219.233806623817
 20
31.1452379912137
 30
0.0
 11
219.233806623817
 21
32.5452379673718
 31
0.0
  0
LINE
  5
   4B7
  8
0
  6
CONTINUOUS
 62
   130
 10
186.438812255859
 20
164.845241054893
 30
0.0
 11
213.388811796904
 21
164.845241054893
 31
0.0
  0
LINE
  5
   4B8
  8
0
  6
DASHDOT
 62
   218
 10
179.331620329686
 20
159.420225125552
 30
0.0
 11
185.991401071039
 21
159.420225125552
 31
0.0
  0
LINE
  5
   4B9
  8
0
  6
CONTINUOUS
 62
     7
 10
183.113806971908
 20
109.720225971937
 30
0.0
 11
183.113806971908
 21
112.520225924254
 31
0.0
  0
LINE
  5
   4BA
  8
0
  6
CONTINUOUS
 62
     7
 10
181.71380699575
 20
110.245225962997
 30
0.0
 11
181.71380699575
 21
111.995225933194
 31
0.0
  0
LINE
  5
   4BB
  8
0
  6
CONTINUOUS
 62
     7
 10
183.113806971908
 20
112.520225924254
 30
0.0
 11
184.513806948066
 21
112.520225924254
 31
0.0
  0
LINE
  5
   4BC
  8
0
  6
CONTINUOUS
 62
     7
 10
183.113806971908
 20
109.720225971937
 30
0.0
 11
184.513806948066
 21
109.720225971937
 31
0.0
  0
LINE
  5
   4BD
  8
0
  6
CONTINUOUS
 62
     7
 10
181.71380699575
 20
111.995225933194
 30
0.0
 11
184.513806948066
 21
111.995225933194
 31
0.0
  0
LINE
  5
   4BE
  8
0
  6
CONTINUOUS
 62
     7
 10
181.71380699575
 20
110.245225962997
 30
0.0
 11
184.513806948066
 21
110.245225962997
 31
0.0
  0
LINE
  5
   4BF
  8
0
  6
CONTINUOUS
 62
     7
 10
183.113806971908
 20
29.5702273368838
 30
0.0
 11
184.513806948066
 21
29.5702273368838
 31
0.0
  0
LINE
  5
   4C0
  8
0
  6
CONTINUOUS
 62
     7
 10
181.71380699575
 20
29.0452273458245
 30
0.0
 11
184.513806948066
 21
29.0452273458245
 31
0.0
  0
LINE
  5
   4C1
  8
0
  6
CONTINUOUS
 62
     7
 10
181.71380699575
 20
27.2952273756268
 30
0.0
 11
184.513806948066
 21
27.2952273756268
 31
0.0
  0
LINE
  5
   4C2
  8
0
  6
CONTINUOUS
 62
     7
 10
183.113806971908
 20
26.7702273845675
 30
0.0
 11
184.513806948066
 21
26.7702273845675
 31
0.0
  0
LINE
  5
   4C3
  8
0
  6
CONTINUOUS
 62
     7
 10
183.113806971908
 20
26.7702273845675
 30
0.0
 11
183.113806971908
 21
29.5702273368838
 31
0.0
  0
LINE
  5
   4C4
  8
0
  6
CONTINUOUS
 62
     7
 10
181.71380699575
 20
27.2952273756268
 30
0.0
 11
181.71380699575
 21
29.0452273458245
 31
0.0
  0
CIRCLE
  5
   4C5
  8
0
  6
CONTINUOUS
 62
     7
 10
183.58816392905
 20
110.89755732531
 30
0.0
 40
0.139999997615814
  0
LINE
  5
   4C6
  8
0
  6
CONTINUOUS
 62
     3
 10
221.088790303468
 20
91.0827262893322
 30
0.0
 11
221.088790303468
 21
107.97022600174
 31
0.0
  0
LINE
  5
   4C7
  8
0
  6
CONTINUOUS
 62
     3
 10
220.213790318369
 20
156.270241200924
 30
0.0
 11
221.088790303468
 21
156.270241200924
 31
0.0
  0
LINE
  5
   4C8
  8
0
  6
CONTINUOUS
 62
     7
 10
219.33879033327
 20
108.07524202168
 30
0.0
 11
219.33879033327
 21
164.845241054893
 31
0.0
  0
LINE
  5
   4C9
  8
0
  6
CONTINUOUS
 62
     7
 10
219.33879033327
 20
108.07524202168
 30
0.0
 11
220.738790309428
 21
108.07524202168
 31
0.0
  0
LINE
  5
   4CA
  8
0
  6
CONTINUOUS
 62
     7
 10
219.33879033327
 20
108.425242015719
 30
0.0
 11
220.738790309428
 21
108.425242015719
 31
0.0
  0
LINE
  5
   4CB
  8
0
  6
CONTINUOUS
 62
     3
 10
220.738790309428
 20
107.970236682892
 30
0.0
 11
220.738790309428
 21
108.425242015719
 31
0.0
  0
LINE
  5
   4CC
  8
0
  6
CONTINUOUS
 62
     3
 10
186.08881226182
 20
115.495241895319
 30
0.0
 11
219.33879033327
 21
115.495241895319
 31
0.0
  0
LINE
  5
   4CD
  8
0
  6
CONTINUOUS
 62
     3
 10
213.388790434598
 20
105.870242059232
 30
0.0
 11
213.388790434598
 21
117.070241868497
 31
0.0
  0
LINE
  5
   4CE
  8
0
  6
CONTINUOUS
 62
     3
 10
212.338790452479
 20
117.070241868497
 30
0.0
 11
213.388790434598
 21
117.070241868497
 31
0.0
  0
LINE
  5
   4CF
  8
0
  6
CONTINUOUS
 62
     3
 10
212.338790452479
 20
117.070241868497
 30
0.0
 11
212.338790452479
 21
153.120241254569
 31
0.0
  0
LINE
  5
   4D0
  8
0
  6
CONTINUOUS
 62
     3
 10
212.338790452479
 20
153.120241254569
 30
0.0
 11
213.388790434598
 21
153.120241254569
 31
0.0
  0
LINE
  5
   4D1
  8
0
  6
CONTINUOUS
 62
     3
 10
213.388790434598
 20
153.120241254569
 30
0.0
 11
213.388790434598
 21
164.845241054893
 31
0.0
  0
LINE
  5
   4D2
  8
0
  6
CONTINUOUS
 62
     3
 10
212.338790452479
 20
105.778378964094
 30
0.0
 11
213.388790434598
 21
105.870242059232
 31
0.0
  0
LINE
  5
   4D3
  8
0
  6
CONTINUOUS
 62
     7
 10
183.113806971908
 20
160.82022510171
 30
0.0
 11
184.513806948066
 21
160.82022510171
 31
0.0
  0
LINE
  5
   4D4
  8
0
  6
CONTINUOUS
 62
     7
 10
181.71380699575
 20
160.29522511065
 30
0.0
 11
184.513806948066
 21
160.29522511065
 31
0.0
  0
LINE
  5
   4D5
  8
0
  6
CONTINUOUS
 62
     7
 10
181.71380699575
 20
158.545225140453
 30
0.0
 11
181.71380699575
 21
160.29522511065
 31
0.0
  0
LINE
  5
   4D6
  8
0
  6
CONTINUOUS
 62
     7
 10
181.71380699575
 20
158.545225140453
 30
0.0
 11
184.513806948066
 21
158.545225140453
 31
0.0
  0
LINE
  5
   4D7
  8
0
  6
CONTINUOUS
 62
     7
 10
183.113806971908
 20
158.020225149393
 30
0.0
 11
184.513806948066
 21
158.020225149393
 31
0.0
  0
LINE
  5
   4D8
  8
0
  6
CONTINUOUS
 62
     7
 10
183.113806971908
 20
158.020225149393
 30
0.0
 11
183.113806971908
 21
160.82022510171
 31
0.0
  0
LINE
  5
   4D9
  8
0
  6
DASHDOT
 62
   218
 10
179.331620329686
 20
111.120225948096
 30
0.0
 11
185.991401071039
 21
111.120225948096
 31
0.0
  0
LINE
  5
   4DA
  8
0
  6
CONTINUOUS
 62
     3
 10
185.563812604547
 20
112.870247280598
 30
0.0
 11
186.438812255859
 21
112.870247280598
 31
0.0
  0
LINE
  5
   4DB
  8
0
  6
CONTINUOUS
 62
     3
 10
185.563812604547
 20
109.370241999626
 30
0.0
 11
186.438812255859
 21
109.370241999626
 31
0.0
  0
LINE
  5
   4DC
  8
0
  6
CONTINUOUS
 62
     3
 10
186.438812255859
 20
104.295242086053
 30
0.0
 11
186.438812255859
 21
115.495241895319
 31
0.0
  0
LINE
  5
   4DD
  8
0
  6
CONTINUOUS
 62
     3
 10
186.08881226182
 20
104.295247433372
 30
0.0
 11
186.438812255859
 21
104.295242092796
 31
0.0
  0
LINE
  5
   4DE
  8
0
  6
CONTINUOUS
 62
     3
 10
186.08881226182
 20
79.7952478438615
 30
0.0
 11
186.08881226182
 21
104.295247426629
 31
0.0
  0
LINE
  5
   4DF
  8
0
  6
CONTINUOUS
 62
   130
 10
186.08881226182
 20
151.549011530694
 30
0.0
 11
186.08881226182
 21
152.595246604085
 31
0.0
  0
LINE
  5
   4E0
  8
0
  6
CONTINUOUS
 62
     3
 10
219.33879033327
 20
46.7202323853971
 30
0.0
 11
220.738790309428
 21
46.7202323853971
 31
0.0
  0
LINE
  5
   4E1
  8
0
  6
CONTINUOUS
 62
     3
 10
220.738790309428
 20
46.3702323913576
 30
0.0
 11
220.738790309428
 21
46.7202323853971
 31
0.0
  0
LINE
  5
   4E2
  8
0
  6
CONTINUOUS
 62
     3
 10
220.738790309428
 20
108.425242015719
 30
0.0
 11
221.088790303468
 21
108.425242015719
 31
0.0
  0
LINE
  5
   4E3
  8
0
  6
CONTINUOUS
 62
     3
 10
220.738790309428
 20
46.7202323853971
 30
0.0
 11
221.088790303468
 21
46.7202323853971
 31
0.0
  0
LINE
  5
   4E4
  8
0
  6
CONTINUOUS
 62
     3
 10
220.213806607127
 20
46.195237565183
 30
0.0
 11
220.213806607127
 21
46.3702323913576
 31
0.0
  0
LINE
  5
   4E5
  8
0
  6
CONTINUOUS
 62
     7
 10
220.213806607127
 20
46.195237565183
 30
0.0
 11
221.088806592226
 21
46.195237565183
 31
0.0
  0
LINE
  5
   4E6
  8
0
  6
CONTINUOUS
 62
     7
 10
219.233806623817
 20
46.3702375622027
 30
0.0
 11
220.213806607127
 21
46.3702375622027
 31
0.0
  0
LINE
  5
   4E7
  8
0
  6
CONTINUOUS
 62
     3
 10
186.08881226182
 20
115.495241895319
 30
0.0
 11
186.438812255859
 21
115.495241895319
 31
0.0
  0
LINE
  5
   4E8
  8
0
  6
CONTINUOUS
 62
     7
 10
219.33879033327
 20
156.270241200924
 30
0.0
 11
220.213790318369
 21
156.270241200924
 31
0.0
  0
LINE
  5
   4E9
  8
0
  6
CONTINUOUS
 62
     2
 10
186.263806918264
 20
22.7452434748409
 30
0.0
 11
220.213806340099
 21
22.7452434748409
 31
0.0
  0
LINE
  5
   4EA
  8
0
  6
CONTINUOUS
 62
     3
 10
186.263806918264
 20
23.7252445262668
 30
0.0
 11
219.233806623817
 21
23.7252445262668
 31
0.0
  0
LINE
  5
   4EB
  8
0
  6
CONTINUOUS
 62
     1
 10
235.438591760846
 20
109.020228897548
 30
0.0
 11
236.663591739984
 21
109.020225498995
 31
0.0
  0
LINE
  5
   4EC
  8
0
  6
CONTINUOUS
 62
     1
 10
235.438591760846
 20
40.4202300655353
 30
0.0
 11
236.663591739984
 21
40.4202266669823
 31
0.0
  0
LINE
  5
   4ED
  8
0
  6
CONTINUOUS
 62
     1
 10
234.738591772767
 20
50.0452318436898
 30
0.0
 11
236.663591739984
 21
50.0452265031066
 31
0.0
  0
LINE
  5
   4EE
  8
0
  6
CONTINUOUS
 62
     1
 10
234.738591772767
 20
99.3952310034543
 30
0.0
 11
236.663591739984
 21
99.395225662871
 31
0.0
  0
LINE
  5
   4EF
  8
0
  6
CONTINUOUS
 62
     1
 10
234.738591772767
 20
100.095230991536
 30
0.0
 11
235.438591760846
 21
100.095229049506
 31
0.0
  0
LINE
  5
   4F0
  8
0
  6
CONTINUOUS
 62
     1
 10
234.738591772767
 20
49.5202318526372
 30
0.0
 11
235.438591760846
 21
49.5202299106069
 31
0.0
  0
LINE
  5
   4F1
  8
0
  6
CONTINUOUS
 62
     7
 10
234.738590801752
 20
49.170231858599
 30
0.0
 11
235.438590789831
 21
49.1702299165688
 31
0.0
  0
LINE
  5
   4F2
  8
0
  6
CONTINUOUS
 62
     1
 10
234.738592743782
 20
100.445230985574
 30
0.0
 11
235.438592731861
 21
100.445229043544
 31
0.0
  0
LINE
  5
   4F3
  8
0
  6
DASHDOT
 62
     2
 10
181.37871118677
 20
74.7203794614364
 30
0.0
 11
260.209912543065
 21
74.7201607577481
 31
0.0
  0
LINE
  5
   4F4
  8
0
  6
CONTINUOUS
 62
   212
 10
221.088790303468
 20
99.2202688754827
 30
0.0
 11
236.31359271696
 21
99.2202266368717
 31
0.0
  0
LINE
  5
   4F5
  8
0
  6
CONTINUOUS
 62
   212
 10
221.088790303468
 20
50.2202697097591
 30
0.0
 11
236.31359077493
 21
50.2202274711536
 31
0.0
  0
LINE
  5
   4F6
  8
0
  6
CONTINUOUS
 62
   212
 10
236.663591739984
 20
47.6827275143656
 30
0.0
 11
236.663591739984
 21
72.605990288617
 31
0.0
  0
ARC
  5
   4F7
  8
0
  6
CONTINUOUS
 62
   212
 10
236.313591745945
 20
50.5702274651918
 30
0.0
 40
0.349999994039536
 50
269.999841042657
 51
360.0
  0
ARC
  5
   4F8
  8
0
  6
CONTINUOUS
 62
   212
 10
236.313591745945
 20
98.8702266428335
 30
0.0
 40
0.349999994039536
 50
0.0
 51
89.999841042657
  0
LINE
  5
   4F9
  8
0
  6
CONTINUOUS
 62
     7
 10
226.163795557616
 20
50.2202556300248
 30
0.0
 11
226.163795557616
 21
99.2202547957484
 31
0.0
  0
LINE
  5
   4FA
  8
0
  6
CONTINUOUS
 62
     1
 10
234.738591772767
 20
99.2202310064425
 30
0.0
 11
234.738591772767
 21
100.095230991536
 31
0.0
  0
LINE
  5
   4FB
  8
0
  6
CONTINUOUS
 62
     1
 10
235.438591760846
 20
40.4202300655353
 30
0.0
 11
235.438591760846
 21
49.5202299106069
 31
0.0
  0
LINE
  5
   4FC
  8
0
  6
CONTINUOUS
 62
     1
 10
236.663591739984
 20
40.4202266669823
 30
0.0
 11
236.663591739984
 21
109.020225498995
 31
0.0
  0
LINE
  5
   4FD
  8
0
  6
CONTINUOUS
 62
     7
 10
235.438591760846
 20
109.020228897548
 30
0.0
 11
235.438591760846
 21
164.28614635423
 31
0.0
  0
LINE
  5
   4FE
  8
0
  6
CONTINUOUS
 62
     7
 10
235.438591760846
 20
18.1211575827187
 30
0.0
 11
235.438591760846
 21
40.4202300655353
 31
0.0
  0
LINE
  5
   4FF
  8
0
  6
CONTINUOUS
 62
     7
 10
234.738591772767
 20
99.2202310064425
 30
0.0
 11
234.738591772767
 21
164.502082023067
 31
0.0
  0
LINE
  5
   500
  8
0
  6
CONTINUOUS
 62
     7
 10
234.738591772767
 20
17.7119885352456
 30
0.0
 11
234.738591772767
 21
50.220231840719
 31
0.0
  0
INSERT
  5
   501
  8
0
  6
CONTINUOUS
 62
     7
  2
*HATCH72
 10
186.438812255859
 20
46.3702430725098
 30
0.0
 41
0.349999994039536
 42
0.349999994039536
 43
0.349999994039536
  0
INSERT
  5
   502
  8
0
  6
CONTINUOUS
 62
     7
  2
*HATCH73
 10
186.438812255859
 20
46.3702430725098
 30
0.0
 41
0.349999994039536
 42
0.349999994039536
 43
0.349999994039536
  0
LINE
  5
   503
  8
0
  6
CONTINUOUS
 62
     7
 10
236.663591739984
 20
79.4452541694226
 30
0.0
 11
238.413591710182
 21
79.4452541694226
 31
0.0
  0
LINE
  5
   504
  8
0
  6
CONTINUOUS
 62
     7
 10
236.663591739984
 20
69.9952556575921
 30
0.0
 11
238.413591710182
 21
69.9952556575921
 31
0.0
  0
LINE
  5
   505
  8
0
  6
CONTINUOUS
 62
     7
 10
238.413591710182
 20
69.9952556575921
 30
0.0
 11
238.413591710182
 21
79.4452541694226
 31
0.0
  0
LINE
  5
   506
  8
0
  6
CONTINUOUS
 62
     7
 10
231.413592496963
 20
99.74523099752
 30
0.0
 11
232.288594484778
 21
99.74523099752
 31
0.0
  0
LINE
  5
   507
  8
0
  6
CONTINUOUS
 62
     7
 10
231.413592496963
 20
99.74523099752
 30
0.0
 11
231.413592496963
 21
103.420230934935
 31
0.0
  0
LINE
  5
   508
  8
0
  6
CONTINUOUS
 62
     7
 10
232.638594478818
 20
104.645230914074
 30
0.0
 11
233.513594463917
 21
104.645230914074
 31
0.0
  0
LINE
  5
   509
  8
0
  6
CONTINUOUS
 62
     7
 10
233.863594457956
 20
104.995230908113
 30
0.0
 11
233.863594457956
 21
107.795230860429
 31
0.0
  0
LINE
  5
   50A
  8
0
  6
CONTINUOUS
 62
     7
 10
233.863594457956
 20
107.795230860429
 30
0.0
 11
234.738591772767
 21
107.795230860429
 31
0.0
  0
LINE
  5
   50B
  8
0
  6
CONTINUOUS
 62
     7
 10
232.638594478818
 20
103.770230928975
 30
0.0
 11
233.513594463917
 21
103.770230928975
 31
0.0
  0
LINE
  5
   50C
  8
0
  6
CONTINUOUS
 62
     7
 10
232.288594484778
 20
99.74523099752
 30
0.0
 11
232.288594484778
 21
103.420230934935
 31
0.0
  0
ARC
  5
   50D
  8
0
  6
CONTINUOUS
 62
     7
 10
233.513595915465
 20
104.995230673145
 30
0.0
 40
0.349998936269242
 50
269.99984089121
 51
360.00025299209
  0
ARC
  5
   50E
  8
0
  6
CONTINUOUS
 62
     7
 10
232.638599607545
 20
103.420226494729
 30
0.0
 40
1.2250064377287
 50
90.000186890172
 51
179.999680705376
  0
ARC
  5
   50F
  8
0
  6
CONTINUOUS
 62
     7
 10
232.638578991966
 20
103.420245248109
 30
0.0
 40
0.349982431475061
 50
89.997764198722
 51
180.00116981594
  0
ARC
  5
   510
  8
0
  6
CONTINUOUS
 62
     7
 10
233.51360123725
 20
104.995219691686
 30
0.0
 40
1.22498984871903
 50
269.999653399338
 51
360.000420324806
  0
LINE
  5
   511
  8
0
  6
CONTINUOUS
 62
     7
 10
232.81359180555
 20
101.670236305312
 30
0.0
 11
233.513591793629
 21
101.670234363282
 31
0.0
  0
LINE
  5
   512
  8
0
  6
CONTINUOUS
 62
     7
 10
233.513591793629
 20
99.2202344049955
 30
0.0
 11
233.513591793629
 21
101.670234363282
 31
0.0
  0
LINE
  5
   513
  8
0
  6
CONTINUOUS
 62
     7
 10
232.81359180555
 20
99.2202344049955
 30
0.0
 11
232.81359180555
 21
101.670234363282
 31
0.0
  0
LINE
  5
   514
  8
0
  6
CONTINUOUS
 62
     1
 10
235.438591760846
 20
100.095229049506
 30
0.0
 11
235.438591760846
 21
109.020228897548
 31
0.0
  0
LINE
  5
   515
  8
0
  6
CONTINUOUS
 62
     7
 10
232.671350362472
 20
165.139783686184
 30
0.0
 11
237.53353190389
 21
163.639900198993
 31
0.0
  0
LINE
  5
   516
  8
0
  6
CONTINUOUS
 62
     7
 10
233.325327996697
 20
16.8858973882021
 30
0.0
 11
238.287027873759
 21
19.7861460269428
 31
0.0
  0
INSERT
  5
   517
  8
0
  6
CONTINUOUS
 62
     7
  2
*HATCH74
 10
186.438812255859
 20
46.3702430725098
 30
0.0
 41
0.349999994039536
 42
0.349999994039536
 43
0.349999994039536
  0
INSERT
  5
   518
  8
0
  6
CONTINUOUS
 62
     7
  2
*HATCH75
 10
186.438812255859
 20
46.3702430725098
 30
0.0
 41
0.349999994039536
 42
0.349999994039536
 43
0.349999994039536
  0
INSERT
  5
   519
  8
0
  6
CONTINUOUS
 62
     7
  2
*HATCH76
 10
186.438812255859
 20
46.3702430725098
 30
0.0
 41
0.349999994039536
 42
0.349999994039536
 43
0.349999994039536
  0
TEXT
  5
   51A
  8
0
  6
CONTINUOUS
 62
     1
 10
233.05940246582
 20
-195.708282449416
 30
0.0
 40
2.99999997871263
  1
   S6X III
 41
0.91666663951344
 72
     2
 11
260.009401492775
 21
-195.708282449416
 31
0.0
  0
TEXT
  5
   51B
  8
0
  6
CONTINUOUS
 62
     7
 10
260.926815993935
 20
73.1241449243166
 30
0.0
 40
2.99999997871263
  1
X
 41
0.91666663951344
 72
     1
 11
262.026815961791
 21
74.6241449136729
 31
0.0
 73
     2
  0
TEXT
  5
   51C
  8
0
  6
CONTINUOUS
 62
     1
 10
219.724979222875
 20
-177.398010271149
 30
0.0
 40
2.00000003448554
  1
3POLE LOW VOLTAGE M.C.C.B SER.ISOMAX SUPERLIMIT.
 41
0.649999976158142
 72
     1
 11
250.774978637695
 21
-176.398010253906
 31
0.0
 73
     2
  0
TEXT
  5
   51D
  8
0
  6
CONTINUOUS
 62
     1
 10
224.324978647583
 20
-180.398010271149
 30
0.0
 40
2.00000003448554
  1
FIXED VERSION EXTENDED FRONT TERMINALS
 41
0.699999987110495
 72
     1
 11
250.774978637695
 21
-179.398010253906
 31
0.0
 73
     2
  0
TEXT
  5
   51E
  8
0
  6
CONTINUOUS
 62
     1
 10
212.877375726881
 20
-185.468276994782
 30
0.0
 40
2.00000003448554
  1
INTERR.AUTOMATICO SERIE ISOMAX SUPERLIMITATORE
 41
0.749999888539317
 72
     1
 11
247.22737121582
 21
-184.468276977539
 31
0.0
 73
     2
  0
TEXT
  5
   51F
  8
0
  6
CONTINUOUS
 62
     1
 10
219.627374840123
 20
-188.468276994782
 30
0.0
 40
2.00000003448554
  1
TRIPOLARE  FISSO FRONTALE PER BLOCCHI
 41
0.749999888539317
 72
     1
 11
247.22737121582
 21
-187.468276977539
 31
0.0
 73
     2
  0
LINE
  5
   520
  8
0
  6
DASHDOT
 62
     2
 10
180.108868468923
 20
28.1702273607257
 30
0.0
 11
188.381320623092
 21
28.1702273607257
 31
0.0
  0
TEXT
  5
   521
  8
0
  6
CONTINUOUS
 62
     1
 10
162.6225813142
 20
-193.442703264313
 30
0.0
 40
2.00000003448554
  1
M4371 97-07-07
 41
0.749999888539317
 72
     1
 11
172.972579956055
 21
-192.44270324707
 31
0.0
 73
     2
  0
TEXT
  5
   522
  8
0
  6
CONTINUOUS
 62
     1
 10
130.357192993164
 20
-178.689422641907
 30
0.0
 40
2.00000003448554
  1
96-11-14 ZANCHI.
 41
0.749999888539317
 72
     2
 11
154.05718988276
 21
-178.689422641907
 31
0.0
  0
INSERT
  5
   523
  8
0
  6
CONTINUOUS
 62
     7
  2
*UDIM542
 10
0.0
 20
0.0
 30
0.0
  0
INSERT
  5
   524
  8
0
  6
CONTINUOUS
 62
     7
  2
*UDIM543
 10
0.0
 20
0.0
 30
0.0
  0
INSERT
  5
   525
  8
0
  6
CONTINUOUS
 62
     7
  2
*UDIM544
 10
0.0
 20
0.0
 30
0.0
  0
INSERT
  5
   526
  8
0
  6
CONTINUOUS
 62
     7
  2
*UDIM545
 10
0.0
 20
0.0
 30
0.0
  0
INSERT
  5
   527
  8
0
  6
CONTINUOUS
 62
     7
  2
*UDIM546
 10
0.0
 20
0.0
 30
0.0
  0
TEXT
  5
   528
  8
0
  6
CONTINUOUS
 62
     1
 10
136.882583843682
 20
-193.442695395769
 30
0.0
 40
2.00000003448554
  1
M 4352 96-12-17
 41
0.749999888539317
 72
     1
 11
147.982582387009
 21
-192.442695378526
 31
0.0
 73
     2
  0
TEXT
  5
   529
  8
0
  6
CONTINUOUS
 62
     1
 10
231.973706979957
 20
-204.689867759807
 30
0.0
 40
4.00000006897109
  1
605031/121
 41
0.937499981746078
 72
     2
 11
268.723706883472
 21
-204.689867759807
 31
0.0
  0
LINE
  5
   52A
  8
0
  6
DASHDOT
 62
     2
 10
254.15278659887
 20
-57.8064831234515
 30
0.0
 11
235.671252693255
 21
-57.8064831234515
 31
0.0
  0
LINE
  5
   52B
  8
0
  6
DASHDOT
 62
     2
 10
254.911357020369
 20
-105.206483829767
 30
0.0
 11
235.533330798437
 21
-105.206483829767
 31
0.0
  0
LINE
  5
   52C
  8
0
  6
DASHDOT
 62
     2
 10
238.235763445497
 20
-25.8667936255522
 30
0.0
 11
238.235763445497
 21
-106.168414683315
 31
0.0
  0
LINE
  5
   52D
  8
0
  6
DASHDOT
 62
     2
 10
252.235763654113
 20
-26.0892176555758
 30
0.0
 11
252.235763654113
 21
-106.030492788497
 31
0.0
  0
LINE
  5
   52E
  8
0
  6
DASHDOT
 62
     2
 10
245.235763549805
 20
-52.3788757042863
 30
0.0
 11
245.235763549805
 21
-112.236978055308
 31
0.0
  0
CIRCLE
  5
   52F
  8
0
  6
CONTINUOUS
 62
     7
 10
252.235763654113
 20
-57.8064831234515
 30
0.0
 40
0.550000008195639
  0
CIRCLE
  5
   530
  8
0
  6
CONTINUOUS
 62
     7
 10
238.235763445497
 20
-57.8064831234515
 30
0.0
 40
0.550000008195639
  0
CIRCLE
  5
   531
  8
0
  6
CONTINUOUS
 62
     7
 10
238.235763445497
 20
-105.206483829767
 30
0.0
 40
0.550000008195639
  0
CIRCLE
  5
   532
  8
0
  6
CONTINUOUS
 62
     7
 10
252.235763654113
 20
-105.206483829767
 30
0.0
 40
0.550000008195639
  0
LINE
  5
   533
  8
0
  6
DASHDOT
 62
     2
 10
263.449378834183
 20
-78.6064834333956
 30
0.0
 11
209.984482289035
 21
-78.6064834333956
 31
0.0
  0
LINE
  5
   534
  8
0
  6
DASHDOT
 62
     7
 10
231.235763341188
 20
-23.4564826115966
 30
0.0
 11
231.235763341188
 21
-33.8564827665687
 31
0.0
  0
LINE
  5
   535
  8
0
  6
DASHDOT
 62
     7
 10
236.435763418674
 20
-29.806482706219
 30
0.0
 11
226.035763263702
 21
-29.806482706219
 31
0.0
  0
LINE
  5
   536
  8
0
  6
DASHDOT
 62
     7
 10
245.235763549805
 20
-18.6711427971945
 30
0.0
 11
245.235763549805
 21
-61.4564831778407
 31
0.0
  0
LINE
  5
   537
  8
0
  6
DASHDOT
 62
     7
 10
250.435763627291
 20
-29.806482706219
 30
0.0
 11
240.035763472319
 21
-29.806482706219
 31
0.0
  0
LINE
  5
   538
  8
0
  6
DASHDOT
 62
     7
 10
259.235763758421
 20
-24.6064826287329
 30
0.0
 11
259.235763758421
 21
-35.006482783705
 31
0.0
  0
LINE
  5
   539
  8
0
  6
DASHDOT
 62
     7
 10
264.435763835907
 20
-29.806482706219
 30
0.0
 11
254.035763680935
 21
-29.806482706219
 31
0.0
  0
LINE
  5
   53A
  8
0
  6
DASHDOT
 62
     7
 10
259.235763758421
 20
-99.2564837411046
 30
0.0
 11
259.235763758421
 21
-109.656483896077
 31
0.0
  0
LINE
  5
   53B
  8
0
  6
DASHDOT
 62
     7
 10
264.435763835907
 20
-105.606483835727
 30
0.0
 11
254.035763680935
 21
-105.606483835727
 31
0.0
  0
LINE
  5
   53C
  8
0
  6
DASHDOT
 62
     7
 10
245.235763549805
 20
-99.2564837411046
 30
0.0
 11
245.235763549805
 21
-116.145108851718
 31
0.0
  0
LINE
  5
   53D
  8
0
  6
DASHDOT
 62
     7
 10
250.435763627291
 20
-105.606483835727
 30
0.0
 11
240.035763472319
 21
-105.606483835727
 31
0.0
  0
LINE
  5
   53E
  8
0
  6
DASHDOT
 62
     7
 10
231.235763341188
 20
-99.2564837411046
 30
0.0
 11
231.235763341188
 21
-109.656483896077
 31
0.0
  0
LINE
  5
   53F
  8
0
  6
DASHDOT
 62
     7
 10
236.435763418674
 20
-105.606483835727
 30
0.0
 11
226.035763263702
 21
-105.606483835727
 31
0.0
  0
LINE
  5
   540
  8
0
  6
CONTINUOUS
 62
     7
 10
225.415216178175
 20
-20.6175865169941
 30
0.0
 11
225.415216178175
 21
-111.226899924378
 31
0.0
  0
CIRCLE
  5
   541
  8
0
  6
CONTINUOUS
 62
     7
 10
227.144874110193
 20
-25.729040556843
 30
0.0
 40
0.175
  0
LINE
  5
   542
  8
0
  6
CONTINUOUS
 62
     7
 10
264.826608755044
 20
-21.5667427922534
 30
0.0
 11
225.415216178175
 21
-21.5667427922534
 31
0.0
  0
LINE
  5
   543
  8
0
  6
CONTINUOUS
 62
     7
 10
264.826608755044
 20
-111.226899924378
 30
0.0
 11
225.415216178175
 21
-111.226899924378
 31
0.0
  0
LINE
  5
   544
  8
0
  6
CONTINUOUS
 62
     7
 10
264.826608755044
 20
-20.7287985320059
 30
0.0
 11
264.826608755044
 21
-111.226899924378
 31
0.0
  0
ARC
  5
   545
  8
0
  6
CONTINUOUS
 62
     7
 10
231.235763341188
 20
-29.806482706219
 30
0.0
 40
3.50000005215406
 50
359.999999896069
 51
629.999999896069
  0
ARC
  5
   546
  8
0
  6
CONTINUOUS
 62
     7
 10
245.235763549805
 20
-29.806482706219
 30
0.0
 40
3.50000005215406
 50
359.999999896069
 51
539.999999896069
  0
ARC
  5
   547
  8
0
  6
CONTINUOUS
 62
     7
 10
259.235763758421
 20
-29.806482706219
 30
0.0
 40
3.50000005215406
 50
269.999999896069
 51
539.999999896069
  0
ARC
  5
   548
  8
0
  6
CONTINUOUS
 62
     7
 10
231.235763341188
 20
-105.606483835727
 30
0.0
 40
3.50000005215406
 50
449.999999896069
 51
719.999999896069
  0
ARC
  5
   549
  8
0
  6
CONTINUOUS
 62
     7
 10
245.235763549805
 20
-105.606483835727
 30
0.0
 40
3.50000005215406
 50
179.999999896069
 51
359.999999896069
  0
ARC
  5
   54A
  8
0
  6
CONTINUOUS
 62
     7
 10
259.235763758421
 20
-105.606483835727
 30
0.0
 40
3.50000005215406
 50
179.999999896069
 51
449.999999896069
  0
LINE
  5
   54B
  8
0
  6
CONTINUOUS
 62
     7
 10
259.235763758421
 20
-33.306482758373
 30
0.0
 11
231.235763341188
 21
-33.306482758373
 31
0.0
  0
LINE
  5
   54C
  8
0
  6
CONTINUOUS
 62
     7
 10
259.235763758421
 20
-102.106483783573
 30
0.0
 11
231.235763341188
 21
-102.106483783573
 31
0.0
  0
LINE
  5
   54D
  8
0
  6
CONTINUOUS
 62
     7
 10
255.735763706267
 20
-103.706483807415
 30
0.0
 11
248.735763601959
 21
-103.706483807415
 31
0.0
  0
LINE
  5
   54E
  8
0
  6
CONTINUOUS
 62
     7
 10
255.735763706267
 20
-31.7064827345312
 30
0.0
 11
248.735763601959
 21
-31.7064827345312
 31
0.0
  0
LINE
  5
   54F
  8
0
  6
CONTINUOUS
 62
     7
 10
234.735763393343
 20
-29.806482706219
 30
0.0
 11
234.735763393343
 21
-31.7064827345312
 31
0.0
  0
LINE
  5
   550
  8
0
  6
CONTINUOUS
 62
     7
 10
241.735763497651
 20
-29.806482706219
 30
0.0
 11
241.735763497651
 21
-31.7064827345312
 31
0.0
  0
LINE
  5
   551
  8
0
  6
CONTINUOUS
 62
     7
 10
248.735763601959
 20
-29.806482706219
 30
0.0
 11
248.735763601959
 21
-31.7064827345312
 31
0.0
  0
LINE
  5
   552
  8
0
  6
CONTINUOUS
 62
     7
 10
255.735763706267
 20
-29.806482706219
 30
0.0
 11
255.735763706267
 21
-31.7064827345312
 31
0.0
  0
LINE
  5
   553
  8
0
  6
CONTINUOUS
 62
     7
 10
241.735763497651
 20
-31.7064827345312
 30
0.0
 11
234.735763393343
 21
-31.7064827345312
 31
0.0
  0
LINE
  5
   554
  8
0
  6
CONTINUOUS
 62
     7
 10
234.735763393343
 20
-103.706483807415
 30
0.0
 11
234.735763393343
 21
-105.606483835727
 31
0.0
  0
LINE
  5
   555
  8
0
  6
CONTINUOUS
 62
     7
 10
241.735763497651
 20
-103.706483807415
 30
0.0
 11
241.735763497651
 21
-105.606483835727
 31
0.0
  0
LINE
  5
   556
  8
0
  6
CONTINUOUS
 62
     7
 10
248.735763601959
 20
-103.706483807415
 30
0.0
 11
248.735763601959
 21
-105.606483835727
 31
0.0
  0
LINE
  5
   557
  8
0
  6
CONTINUOUS
 62
     7
 10
255.735763706267
 20
-103.706483807415
 30
0.0
 11
255.735763706267
 21
-105.606483835727
 31
0.0
  0
LINE
  5
   558
  8
0
  6
CONTINUOUS
 62
     7
 10
241.735763497651
 20
-103.706483807415
 30
0.0
 11
234.735763393343
 21
-103.706483807415
 31
0.0
  0
ARC
  5
   559
  8
0
  6
CONTINUOUS
 62
     7
 10
259.235763758421
 20
-105.606483835727
 30
0.0
 40
3.50000005215406
 50
483.928032185622
 51
547.491880120627
  0
CIRCLE
  5
   55A
  8
0
  6
CONTINUOUS
 62
     7
 10
238.235763445497
 20
-30.2064827121794
 30
0.0
 40
0.550000008195639
  0
CIRCLE
  5
   55B
  8
0
  6
CONTINUOUS
 62
     7
 10
252.235763654113
 20
-30.2064827121794
 30
0.0
 40
0.550000008195639
  0
LINE
  5
   55C
  8
0
  6
DASHDOT
 62
     2
 10
254.15278659887
 20
-30.2064827121794
 30
0.0
 11
235.671252693255
 21
-30.2064827121794
 31
0.0
  0
LINE
  5
   55D
  8
0
  6
CONTINUOUS
 62
     7
 10
292.50061728503
 20
-12.5914328996395
 30
0.0
 11
212.43388917765
 21
-12.5914328996395
 31
0.0
  0
LINE
  5
   55E
  8
0
  6
CONTINUOUS
 62
     7
 10
259.589753584451
 20
-12.5914328996395
 30
0.0
 11
259.589753584451
 21
-24.7630342758974
 31
0.0
  0
LINE
  5
   55F
  8
0
  6
CONTINUOUS
 62
     7
 10
259.589753584451
 20
-24.7630342758974
 30
0.0
 11
258.892072994103
 21
-22.1592548652645
 31
0.0
  0
LINE
  5
   560
  8
0
  6
CONTINUOUS
 62
     7
 10
260.2874341748
 20
-22.1592548652579
 30
0.0
 11
259.589753584451
 21
-24.7630342758974
 31
0.0
  0
TEXT
  5
   561
  8
0
  6
CONTINUOUS
 62
     7
 10
243.802582622305
 20
-17.3103202418874
 30
0.0
 40
2.99999994933605
  1
Y
 50
359.999999896069
 41
0.916666607525612
 72
     1
 11
244.902582534122
 21
-15.8103202692092
 31
0.0
 73
     2
  0
TEXT
  5
   562
  8
0
  6
CONTINUOUS
 62
     7
 10
244.183597007374
 20
-120.684679942129
 30
0.0
 40
2.99999994933605
  1
Y
 50
359.999999896069
 41
0.916666607525612
 72
     2
 11
246.38359682558
 21
-120.684679946109
 31
0.0
  0
TEXT
  5
   563
  8
0
  6
CONTINUOUS
 62
     7
 10
174.380014599973
 20
73.3092717888613
 30
0.0
 40
2.99999994933605
  1
X
 50
359.999999896069
 41
0.933333333333333
 72
     1
 11
175.48001458411
 21
74.8092717615395
 31
0.0
 73
     2
  0
INSERT
  5
   564
  8
0
  6
CONTINUOUS
 62
     7
  2
*UDIM547
 10
0.0
 20
0.0
 30
0.0
  0
INSERT
  5
   565
  8
0
  6
CONTINUOUS
 62
     7
  2
*UDIM548
 10
0.0
 20
0.0
 30
0.0
  0
TEXT
  5
   566
  8
0
  6
CONTINUOUS
 62
     1
 10
213.221663149811
 20
-7.99804729857142
 30
0.0
 40
2.00000007748604
  1
FORATURA DA ESEGUIRE PER ESECUZIONE TERM. POSTERIORI
 50
359.999999896069
 41
0.749999997615814
 72
     1
 11
252.071664526849
 21
-6.99804733010478
 31
0.0
 73
     2
  0
TEXT
  5
   567
  8
0
  6
CONTINUOUS
 62
     1
 10
218.471663336523
 20
-10.9980473080682
 30
0.0
 40
2.00000007748604
  1
REAR TERMINAL EXECTION ONLY DRILLING TEMPLATE
 50
359.999999896069
 41
0.749999997615814
 72
     1
 11
252.071664526849
 21
-9.99804733010478
 31
0.0
 73
     2
  0
INSERT
  5
   568
  8
0
  6
CONTINUOUS
 62
     7
  2
*UDIM549
 10
0.0
 20
0.0
 30
0.0
  0
INSERT
  5
   569
  8
0
  6
CONTINUOUS
 62
     7
  2
*UDIM550
 10
0.0
 20
0.0
 30
0.0
  0
INSERT
  5
   56A
  8
0
  6
CONTINUOUS
 62
     7
  2
*UDIM551
 10
0.0
 20
0.0
 30
0.0
  0
INSERT
  5
   56B
  8
0
  6
CONTINUOUS
 62
     7
  2
*UDIM552
 10
0.0
 20
0.0
 30
0.0
  0
INSERT
  5
   56C
  8
0
  6
CONTINUOUS
 62
     7
  2
*UDIM553
 10
0.0
 20
0.0
 30
0.0
  0
INSERT
  5
   56D
  8
0
  6
CONTINUOUS
 62
     7
  2
*UDIM554
 10
0.0
 20
0.0
 30
0.0
  0
INSERT
  5
   56E
  8
0
  6
CONTINUOUS
 62
     7
  2
*UDIM555
 10
0.0
 20
0.0
 30
0.0
  0
INSERT
  5
   56F
  8
0
  6
CONTINUOUS
 62
     7
  2
*UDIM556
 10
0.0
 20
0.0
 30
0.0
  0
TEXT
  5
   570
  8
0
  6
CONTINUOUS
 62
     7
 10
205.539556290533
 20
-79.4922980159861
 30
0.0
 40
2.99999994933605
  1
X
 50
359.999999896069
 41
0.916666607525612
 72
     2
 11
207.739556108739
 21
-79.4922980199657
 31
0.0
  0
TEXT
  5
   571
  8
0
  6
CONTINUOUS
 62
     7
 10
278.011261472008
 20
-79.2648768242428
 30
0.0
 40
2.99999994933605
  1
X
 50
359.999999896069
 41
0.916666607525612
 72
     2
 11
280.211261290214
 21
-79.2648768282224
 31
0.0
  0
TEXT
  5
   572
  8
0
  6
CONTINUOUS
 62
     7
 10
248.831337025963
 20
-77.079917761533
 30
0.0
 40
2.99999994933605
  1
=
 50
359.999999896069
 41
0.916666607525612
 72
     2
 11
251.031336844168
 21
-77.0799177655126
 31
0.0
  0
TEXT
  5
   573
  8
0
  6
CONTINUOUS
 62
     7
 10
240.582679676485
 20
-77.079917761533
 30
0.0
 40
2.99999994933605
  1
=
 50
359.999999896069
 41
0.916666607525612
 72
     2
 11
242.782679494691
 21
-77.0799177655126
 31
0.0
  0
INSERT
  5
   574
  8
0
  6
CONTINUOUS
 62
     7
  2
*UDIM557
 10
0.0
 20
0.0
 30
0.0
  0
LINE
  5
   575
  8
0
  6
CONTINUOUS
 62
     7
 10
80.3574948981404
 20
-93.1939836852253
 30
0.0
 11
109.757495336235
 21
-93.1939836852253
 31
0.0
  0
LINE
  5
   576
  8
0
  6
CONTINUOUS
 62
     7
 10
80.3574948981404
 20
-63.7939832471311
 30
0.0
 11
109.757495336235
 21
-63.7939832471311
 31
0.0
  0
LINE
  5
   577
  8
0
  6
CONTINUOUS
 62
     7
 10
80.3574948981404
 20
-63.7939832471311
 30
0.0
 11
80.3574948981404
 21
-93.1939836852253
 31
0.0
  0
LINE
  5
   578
  8
0
  6
CONTINUOUS
 62
     7
 10
109.757495336235
 20
-63.7939832471311
 30
0.0
 11
109.757495336235
 21
-93.1939836852253
 31
0.0
  0
LINE
  5
   579
  8
0
  6
DASHDOT
 62
     7
 10
95.0574951171875
 20
-47.3823000925702
 30
0.0
 11
95.0574951171875
 21
-103.146715617336
 31
0.0
  0
CIRCLE
  5
   57A
  8
0
  6
CONTINUOUS
 62
     7
 10
83.5574949458242
 20
-60.7939832024276
 30
0.0
 40
0.700000010430813
  0
CIRCLE
  5
   57B
  8
0
  6
CONTINUOUS
 62
     7
 10
106.557495288551
 20
-60.7939832024276
 30
0.0
 40
0.700000010430813
  0
CIRCLE
  5
   57C
  8
0
  6
CONTINUOUS
 62
     7
 10
106.557495288551
 20
-96.1939837299287
 30
0.0
 40
0.700000010430813
  0
CIRCLE
  5
   57D
  8
0
  6
CONTINUOUS
 62
     7
 10
83.5574949458242
 20
-96.1939837299287
 30
0.0
 40
0.700000010430813
  0
LINE
  5
   57E
  8
0
  6
CONTINUOUS
 62
     3
 10
77.1858983153484
 20
-58.9141429365828
 30
0.0
 11
112.828594262454
 21
-58.9141429365828
 31
0.0
  0
LINE
  5
   57F
  8
0
  6
CONTINUOUS
 62
     3
 10
77.1858983153484
 20
-98.8783684319004
 30
0.0
 11
112.828594262454
 21
-98.8783684319004
 31
0.0
  0
LINE
  5
   580
  8
0
  6
CONTINUOUS
 62
     3
 10
112.828594262454
 20
-58.9141429365828
 30
0.0
 11
112.828594262454
 21
-98.8783684319004
 31
0.0
  0
LINE
  5
   581
  8
0
  6
CONTINUOUS
 62
     3
 10
77.1858983153484
 20
-58.9141429365828
 30
0.0
 11
77.1858983153484
 21
-98.8783684319004
 31
0.0
  0
LINE
  5
   582
  8
0
  6
DASHDOT
 62
     7
 10
106.557495288551
 20
-59.4939831830561
 30
0.0
 11
106.557495288551
 21
-62.0939832217991
 31
0.0
  0
LINE
  5
   583
  8
0
  6
DASHDOT
 62
     7
 10
105.257495269179
 20
-60.7939832024276
 30
0.0
 11
107.857495307922
 21
-60.7939832024276
 31
0.0
  0
LINE
  5
   584
  8
0
  6
DASHDOT
 62
     7
 10
83.5574949458242
 20
-59.4939831830561
 30
0.0
 11
83.5574949458242
 21
-62.0939832217991
 31
0.0
  0
LINE
  5
   585
  8
0
  6
DASHDOT
 62
     7
 10
82.2574949264526
 20
-60.7939832024276
 30
0.0
 11
84.8574949651957
 21
-60.7939832024276
 31
0.0
  0
LINE
  5
   586
  8
0
  6
DASHDOT
 62
     7
 10
83.5574949458242
 20
-94.8939837105572
 30
0.0
 11
83.5574949458242
 21
-97.4939837493002
 31
0.0
  0
LINE
  5
   587
  8
0
  6
DASHDOT
 62
     7
 10
82.2574949264526
 20
-96.1939837299287
 30
0.0
 11
84.8574949651957
 21
-96.1939837299287
 31
0.0
  0
LINE
  5
   588
  8
0
  6
DASHDOT
 62
     7
 10
106.557495288551
 20
-94.8939837105572
 30
0.0
 11
106.557495288551
 21
-97.4939837493002
 31
0.0
  0
LINE
  5
   589
  8
0
  6
DASHDOT
 62
     7
 10
105.257495269179
 20
-96.1939837299287
 30
0.0
 11
107.857495307922
 21
-96.1939837299287
 31
0.0
  0
LINE
  5
   58A
  8
0
  6
DASHDOT
 62
     7
 10
74.7648087721177
 20
-78.4939834661782
 30
0.0
 11
117.161730086063
 21
-78.4939834661782
 31
0.0
  0
CIRCLE
  5
   58B
  8
0
  6
CONTINUOUS
 62
     7
 10
103.507495243102
 20
-60.4939831979573
 30
0.0
 40
0.400000005960464
  0
CIRCLE
  5
   58C
  8
0
  6
CONTINUOUS
 62
     7
 10
94.5074951089919
 20
-60.4939831979573
 30
0.0
 40
0.400000005960464
  0
CIRCLE
  5
   58D
  8
0
  6
CONTINUOUS
 62
     7
 10
94.5074951089919
 20
-60.4939831979573
 30
0.0
 40
0.736000010967255
  0
CIRCLE
  5
   58E
  8
0
  6
CONTINUOUS
 62
     7
 10
103.507495243102
 20
-60.4939831979573
 30
0.0
 40
0.736000010967255
  0
LINE
  5
   58F
  8
0
  6
DASHDOT
 62
     7
 10
103.507495243102
 20
-59.1579831780493
 30
0.0
 11
103.507495243102
 21
-61.8299832178652
 31
0.0
  0
LINE
  5
   590
  8
0
  6
DASHDOT
 62
     7
 10
102.171495223194
 20
-60.4939831979573
 30
0.0
 11
104.84349526301
 21
-60.4939831979573
 31
0.0
  0
LINE
  5
   591
  8
0
  6
DASHDOT
 62
     7
 10
94.5074951089919
 20
-59.1579831780493
 30
0.0
 11
94.5074951089919
 21
-61.8299832178652
 31
0.0
  0
LINE
  5
   592
  8
0
  6
DASHDOT
 62
     7
 10
93.1714950890839
 20
-60.4939831979573
 30
0.0
 11
95.8434951288998
 21
-60.4939831979573
 31
0.0
  0
LINE
  5
   593
  8
0
  6
DASHDOT
 62
     7
 10
94.5074951089919
 20
-59.3579831810296
 30
0.0
 11
94.5074951089919
 21
-61.629983214885
 31
0.0
  0
LINE
  5
   594
  8
0
  6
DASHDOT
 62
     7
 10
93.3714950920641
 20
-60.4939831979573
 30
0.0
 11
95.6434951259196
 21
-60.4939831979573
 31
0.0
  0
CIRCLE
  5
   595
  8
0
  6
CONTINUOUS
 62
     7
 10
94.5074951089919
 20
-60.4939831979573
 30
0.0
 40
1.73600002586842
  0
CIRCLE
  5
   596
  8
0
  6
CONTINUOUS
 62
     7
 10
103.507495243102
 20
-60.4939831979573
 30
0.0
 40
0.736000010967256
  0
CIRCLE
  5
   597
  8
0
  6
CONTINUOUS
 62
     7
 10
103.507495243102
 20
-60.4939831979573
 30
0.0
 40
1.73600002586842
  0
TEXT
  5
   598
  8
0
  6
CONTINUOUS
 62
     7
 10
94.4636702944734
 20
-46.4788249531555
 30
0.0
 40
2.99999994933605
  1
Y
 50
359.999999844103
 41
0.916666607525612
 72
     2
 11
96.6636701126792
 21
-46.4788249591305
 31
0.0
  0
INSERT
  5
   599
  8
0
  6
CONTINUOUS
 62
     7
  2
*UDIM558
 10
0.0
 20
0.0
 30
0.0
  0
INSERT
  5
   59A
  8
0
  6
CONTINUOUS
 62
     7
  2
*UDIM559
 10
0.0
 20
0.0
 30
0.0
  0
INSERT
  5
   59B
  8
0
  6
CONTINUOUS
 62
     7
  2
*UDIM560
 10
0.0
 20
0.0
 30
0.0
  0
TEXT
  5
   59C
  8
0
  6
CONTINUOUS
 62
     7
 10
86.9291107124303
 20
-108.918910971969
 30
0.0
 40
2.99999994933605
  1
=   =
 50
359.999999844103
 41
0.916666607525612
 72
     2
 11
100.129109635176
 21
-108.918911007819
 31
0.0
  0
TEXT
  5
   59D
  8
0
  6
CONTINUOUS
 62
     7
 10
84.8856001283415
 20
-115.971361694951
 30
0.0
 40
2.99999994933605
  1
=    =
 50
359.999999844103
 41
0.916666607525612
 72
     2
 11
100.835598827222
 21
-115.971361738269
 31
0.0
  0
TEXT
  5
   59E
  8
0
  6
CONTINUOUS
 62
     7
 10
73.810536512255
 20
-90.5551022647934
 30
0.0
 40
2.99999994933605
  1
=     =
 50
449.999999844103
 41
0.916666607525612
 72
     2
 11
73.8105365630186
 21
-71.8551037897783
 31
0.0
  0
TEXT
  5
   59F
  8
0
  6
CONTINUOUS
 62
     7
 10
66.040040543119
 20
-93.3286117556834
 30
0.0
 40
2.99999994933605
  1
=       =
 50
449.999999844103
 41
0.916666607525612
 72
     2
 11
66.040040608813
 21
-69.1286137283985
 31
0.0
  0
INSERT
  5
   5A0
  8
0
  6
CONTINUOUS
 62
     7
  2
*UDIM561
 10
0.0
 20
0.0
 30
0.0
  0
INSERT
  5
   5A1
  8
0
  6
CONTINUOUS
 62
     7
  2
*UDIM562
 10
0.0
 20
0.0
 30
0.0
  0
INSERT
  5
   5A2
  8
0
  6
CONTINUOUS
 62
     7
  2
*UDIM563
 10
0.0
 20
0.0
 30
0.0
  0
INSERT
  5
   5A3
  8
0
  6
CONTINUOUS
 62
     7
  2
*UDIM564
 10
0.0
 20
0.0
 30
0.0
  0
INSERT
  5
   5A4
  8
0
  6
CONTINUOUS
 62
     7
  2
*UDIM565
 10
0.0
 20
0.0
 30
0.0
  0
TEXT
  5
   5A5
  8
0
  6
CONTINUOUS
 62
     7
 10
93.8634773177275
 20
-120.563683258882
 30
0.0
 40
2.99999994933605
  1
Y
 50
359.999999844103
 41
0.916666607525612
 72
     2
 11
96.0634771359334
 21
-120.563683264857
 31
0.0
  0
TEXT
  5
   5A6
  8
0
  6
CONTINUOUS
 62
     7
 10
122.523676147203
 20
-79.5560088120652
 30
0.0
 40
2.99999994933605
  1
X
 50
359.999999844103
 41
0.916666607525612
 72
     2
 11
124.723675965408
 21
-79.5560088180402
 31
0.0
  0
TEXT
  5
   5A7
  8
0
  6
CONTINUOUS
 62
     7
 10
54.9742458193485
 20
-79.6208991023388
 30
0.0
 40
2.99999994933605
  1
X
 50
359.999999844103
 41
0.916666607525612
 72
     2
 11
57.1742456375544
 21
-79.6208991083137
 31
0.0
  0
LINE
  5
   5A8
  8
0
  6
CONTINUOUS
 62
     7
 10
56.2758712768555
 20
-21.9639575796525
 30
0.0
 11
56.2758712768555
 21
-45.8804790658553
 31
0.0
  0
LINE
  5
   5A9
  8
0
  6
CONTINUOUS
 62
     7
 10
54.2758712768555
 20
-21.9639575796525
 30
0.0
 11
54.2758712768555
 21
-45.8804790658553
 31
0.0
  0
LINE
  5
   5AA
  8
0
  6
DASHDOT
 62
     7
 10
51.0732681744585
 20
-33.9222183227539
 30
0.0
 11
59.4994873668958
 21
-33.9222183227539
 31
0.0
  0
POINT
  5
   5AB
  8
0
  6
CONTINUOUS
 62
     7
 10
54.2758712768555
 20
-31.9222183227539
 30
0.0
  0
POINT
  5
   5AC
  8
0
  6
CONTINUOUS
 62
     7
 10
54.2758712768555
 20
-35.9222183227539
 30
0.0
  0
LINE
  5
   5AD
  8
0
  6
CONTINUOUS
 62
     7
 10
56.2758712768555
 20
-30.2440190603993
 30
0.0
 11
54.2758712768555
 21
-31.9222183227539
 31
0.0
  0
LINE
  5
   5AE
  8
0
  6
CONTINUOUS
 62
     7
 10
54.2758712768555
 20
-35.9222183227539
 30
0.0
 11
56.2758712768555
 21
-37.6004175851085
 31
0.0
  0
LINE
  5
   5AF
  8
0
  6
CONTINUOUS
 62
     7
 10
54.2758712768555
 20
-43.4222183227539
 30
0.0
 11
56.2758712768555
 21
-43.4222183227539
 31
0.0
  0
CIRCLE
  5
   5B0
  8
0
  6
CONTINUOUS
 62
     7
 10
55.2758712768555
 20
-33.9222183227539
 30
0.0
 40
12.0
  0
LINE
  5
   5B1
  8
0
  6
CONTINUOUS
 62
     7
 10
48.27587890625
 20
-38.4222183227539
 30
0.0
 11
50.77587890625
 21
-38.4222183227539
 31
0.0
  0
LINE
  5
   5B2
  8
0
  6
CONTINUOUS
 62
     7
 10
51.77587890625
 20
-29.4222183227539
 30
0.0
 11
51.77587890625
 21
-37.4222183227539
 31
0.0
  0
LINE
  5
   5B3
  8
0
  6
CONTINUOUS
 62
     7
 10
51.77587890625
 20
-29.4222183227539
 30
0.0
 11
54.2758712768555
 21
-29.4222183227539
 31
0.0
  0
LINE
  5
   5B4
  8
0
  6
CONTINUOUS
 62
     7
 10
48.27587890625
 20
-40.9222183227539
 30
0.0
 11
50.77587890625
 21
-40.9222183227539
 31
0.0
  0
LINE
  5
   5B5
  8
0
  6
CONTINUOUS
 62
     7
 10
47.27587890625
 20
-41.9222183227539
 30
0.0
 11
47.27587890625
 21
-42.8664970566851
 31
0.0
  0
ARC
  5
   5B6
  8
0
  6
CONTINUOUS
 62
     7
 10
50.77588305353
 20
-37.4222189940926
 30
0.0
 40
0.999996977799109
 50
629.999840735313
 51
720.000252836193
  0
ARC
  5
   5B7
  8
0
  6
CONTINUOUS
 62
     7
 10
48.2758935597567
 20
-41.9222310090584
 30
0.0
 40
3.50001845311552
 50
450.000186734275
 51
513.408761128067
  0
ARC
  5
   5B8
  8
0
  6
CONTINUOUS
 62
     7
 10
48.2758346581001
 20
-41.9221774279715
 30
0.0
 40
0.999949821243504
 50
449.997764042825
 51
540.001169660043
  0
ARC
  5
   5B9
  8
0
  6
CONTINUOUS
 62
     7
 10
50.7758982586317
 20
-37.4222503696882
 30
0.0
 40
3.49997105594423
 50
629.999653243441
 51
720.000420168909
  0
INSERT
  5
   5BA
  8
0
  6
CONTINUOUS
 62
     7
  2
*HATCH77
 10
55.2758712768555
 20
-33.9222183227539
 30
0.0
 50
269.999999844103
  0
INSERT
  5
   5BB
  8
0
  6
CONTINUOUS
 62
     7
  2
*HATCH78
 10
55.2758712768555
 20
-33.9222183227539
 30
0.0
 50
269.999999844103
  0
LINE
  5
   5BC
  8
0
  6
CONTINUOUS
 62
     7
 10
55.2758712768555
 20
-33.9222183227539
 30
0.0
 11
66.7268179046
 21
-50.9830464272474
 31
0.0
  0
LINE
  5
   5BD
  8
0
  6
CONTINUOUS
 62
     7
 10
66.7268179046
 20
-50.9830464272474
 30
0.0
 11
102.285541911196
 21
-59.2608870360705
 31
0.0
  0
LINE
  5
   5BE
  8
0
  6
CONTINUOUS
 62
     7
 10
66.7268179046
 20
-50.9830464272474
 30
0.0
 11
93.0463585965886
 21
-59.556552570157
 31
0.0
  0
LINE
  5
   5BF
  8
0
  6
CONTINUOUS
 62
     7
 10
90.050588262738
 20
-59.3973040008632
 30
0.0
 11
93.0463585965885
 21
-59.556552570157
 31
0.0
  0
LINE
  5
   5C0
  8
0
  6
CONTINUOUS
 62
     7
 10
90.5315696682173
 20
-57.9207540967071
 30
0.0
 11
93.0463585965886
 21
-59.556552570157
 31
0.0
  0
LINE
  5
   5C1
  8
0
  6
CONTINUOUS
 62
     7
 10
102.285541911197
 20
-59.2608870360705
 30
0.0
 11
99.2871831369919
 21
-59.3601073018913
 31
0.0
  0
LINE
  5
   5C2
  8
0
  6
CONTINUOUS
 62
     7
 10
99.6392769101647
 20
-57.8476349197391
 30
0.0
 11
102.285541911197
 21
-59.2608870360705
 31
0.0
  0
INSERT
  5
   5C3
  8
0
  6
CONTINUOUS
 62
     7
  2
*UDIM566
 10
0.0
 20
0.0
 30
0.0
  0
INSERT
  5
   5C4
  8
0
  6
CONTINUOUS
 62
     7
  2
*UDIM567
 10
0.0
 20
0.0
 30
0.0
  0
ENDSEC
  0
EOF
