  0
SECTION
  2
HEADER
  9
$ACADVER
  1
AC1009
  9
$DWGCODEPAGE
  3
iso8859-1
  9
$INSBASE
 10
0.0
 20
0.0
 30
0.0
  9
$EXTMIN
 10
1.0E20
 20
1.0E20
  9
$EXTMAX
 10
-1.0E20
 20
-1.0E20
  9
$LIMMIN
 10
0.0
 20
0.0
  9
$LIMMAX
 10
12.0
 20
9.0
  9
$ORTHOMODE
 70
     0
  9
$REGENMODE
 70
     1
  9
$FILLMODE
 70
     1
  9
$QTEXTMODE
 70
     0
  9
$MIRRTEXT
 70
     1
  9
$DRAGMODE
 70
     2
  9
$LTSCALE
 40
15.0
  9
$OSMODE
 70
     0
  9
$ATTMODE
 70
     1
  9
$TEXTSIZE
 40
0.2
  9
$TRACEWID
 40
0.05
  9
$TEXTSTYLE
  7
STANDARD
  9
$CLAYER
  8
0
  9
$CELTYPE
  6
DASHED
  9
$CECOLOR
 62
   256
  9
$DIMSCALE
 40
1.0
  9
$DIMASZ
 40
0.18
  9
$DIMEXO
 40
0.0625
  9
$DIMDLI
 40
0.38
  9
$DIMRND
 40
0.0
  9
$DIMDLE
 40
0.0
  9
$DIMEXE
 40
0.18
  9
$DIMTP
 40
0.0
  9
$DIMTM
 40
0.0
  9
$DIMTXT
 40
0.18
  9
$DIMCEN
 40
0.09
  9
$DIMTSZ
 40
0.0
  9
$DIMTOL
 70
     0
  9
$DIMLIM
 70
     0
  9
$DIMTIH
 70
     1
  9
$DIMTOH
 70
     1
  9
$DIMSE1
 70
     0
  9
$DIMSE2
 70
     0
  9
$DIMTAD
 70
     0
  9
$DIMZIN
 70
     0
  9
$DIMBLK
  1

  9
$DIMASO
 70
     1
  9
$DIMSHO
 70
     1
  9
$DIMPOST
  1

  9
$DIMAPOST
  1

  9
$DIMALT
 70
     0
  9
$DIMALTD
 70
     2
  9
$DIMALTF
 40
25.4
  9
$DIMLFAC
 40
1.0
  9
$DIMTOFL
 70
     0
  9
$DIMTVP
 40
0.0
  9
$DIMTIX
 70
     0
  9
$DIMSOXD
 70
     0
  9
$DIMSAH
 70
     0
  9
$DIMBLK1
  1

  9
$DIMBLK2
  1

  9
$DIMSTYLE
  2
STANDARD
  9
$DIMCLRD
 70
     0
  9
$DIMCLRE
 70
     0
  9
$DIMCLRT
 70
     0
  9
$DIMTFAC
 40
1.0
  9
$DIMGAP
 40
0.09
  9
$LUNITS
 70
     2
  9
$LUPREC
 70
     4
  9
$AXISMODE
 70
     0
  9
$AXISUNIT
 10
0.0
 20
0.0
  9
$SKETCHINC
 40
0.1
  9
$FILLETRAD
 40
0.0
  9
$AUNITS
 70
     0
  9
$AUPREC
 70
     0
  9
$MENU
  1
acad
  9
$ELEVATION
 40
0.0
  9
$PELEVATION
 40
0.0
  9
$THICKNESS
 40
0.0
  9
$LIMCHECK
 70
     0
  9
$BLIPMODE
 70
     1
  9
$CHAMFERA
 40
0.0
  9
$CHAMFERB
 40
0.0
  9
$SKPOLY
 70
     0
  9
$TDCREATE
 40
0.000000000
  9
$TDUPDATE
 40
0.000000000
  9
$TDINDWG
 40
0.0
  9
$TDUSRTIMER
 40
0.0
  9
$USRTIMER
 70
     1
  9
$ANGBASE
 50
0.0
  9
$ANGDIR
 70
     0
  9
$PDMODE
 70
     0
  9
$PDSIZE
 40
0.0
  9
$PLINEWID
 40
0.0
  9
$COORDS
 70
     1
  9
$SPLFRAME
 70
     0
  9
$SPLINETYPE
 70
     6
  9
$SPLINESEGS
 70
     8
  9
$ATTDIA
 70
     0
  9
$ATTREQ
 70
     1
  9
$HANDLING
 70
     1
  9
$HANDSEED
  5
   396
  9
$SURFTAB1
 70
     6
  9
$SURFTAB2
 70
     6
  9
$SURFTYPE
 70
     6
  9
$SURFU
 70
     6
  9
$SURFV
 70
     6
  9
$UCSNAME
  2

  9
$UCSORG
 10
0.0
 20
0.0
 30
0.0
  9
$UCSXDIR
 10
1.0
 20
0.0
 30
0.0
  9
$UCSYDIR
 10
0.0
 20
1.0
 30
0.0
  9
$PUCSNAME
  2

  9
$PUCSORG
 10
0.0
 20
0.0
 30
0.0
  9
$PUCSXDIR
 10
1.0
 20
0.0
 30
0.0
  9
$PUCSYDIR
 10
0.0
 20
1.0
 30
0.0
  9
$USERI1
 70
     0
  9
$USERI2
 70
     0
  9
$USERI3
 70
     0
  9
$USERI4
 70
     0
  9
$USERI5
 70
     0
  9
$USERR1
 40
0.0
  9
$USERR2
 40
0.0
  9
$USERR3
 40
0.0
  9
$USERR4
 40
0.0
  9
$USERR5
 40
0.0
  9
$WORLDVIEW
 70
     1
  9
$SHADEDGE
 70
     3
  9
$SHADEDIF
 70
    70
  9
$TILEMODE
 70
     1
  9
$MAXACTVP
 70
    16
  9
$PINSBASE
 10
0.0
 20
0.0
 30
0.0
  9
$PLIMCHECK
 70
     0
  9
$PEXTMIN
 10
1.0E20
 20
1.0E20
 30
1.0E20
  9
$PEXTMAX
 10
-1.0E20
 20
-1.0E20
 30
-1.0E20
  9
$PLIMMIN
 10
0.0
 20
0.0
  9
$PLIMMAX
 10
12.0
 20
9.0
  9
$UNITMODE
 70
     0
  9
$VISRETAIN
 70
     0
  0
ENDSEC
  0
SECTION
  2
TABLES
  0
TABLE
  2
VPORT
 70
     1
  0
VPORT
  2
*ACTIVE
 70
     0
 10
0.0
 20
0.0
 11
1.0
 21
1.0
 12
6.801242
 22
4.5
 13
0.0
 23
0.0
 14
1.0
 24
1.0
 15
0.0
 25
0.0
 16
0.0
 26
0.0
 36
1.0
 17
0.0
 27
0.0
 37
0.0
 40
9.0
 41
1.511387
 42
50.0
 43
0.0
 44
0.0
 50
0.0
 51
0.0
 71
     0
 72
   100
 73
     1
 74
     1
 75
     0
 76
     0
 77
     0
 78
     0
  0
ENDTAB
  0
TABLE
  2
LTYPE
 70
    41
  0
LTYPE
  2
BYBLOCK
 70
     0
  3

 72
    65
 73
     0
 40
0.0
  0
LTYPE
  2
BYLAYER
 70
     0
  3

 72
    65
 73
     0
 40
0.0
  0
LTYPE
  2
CONTINUOUS
 70
     0
  3
Solid line
 72
    65
 73
     0
 40
0.0
  0
LTYPE
  2
BORDER
 70
    64
  3
__ __ . __ __ . __ __ . __ __ . __ __ . __ __ .
 72
    65
 73
     6
 40
1.75
 49
0.5
 49
-0.25
 49
0.5
 49
-0.25
 49
0.0
 49
-0.25
  0
LTYPE
  2
BORDER2
 70
    64
  3
__.__.__.__.__.__.__.__.__.__.__.__.__.__.__.__
 72
    65
 73
     6
 40
0.875
 49
0.25
 49
-0.125
 49
0.25
 49
-0.125
 49
0.0
 49
-0.125
  0
LTYPE
  2
BORDERX2
 70
    64
  3
____  ____  .  ____  ____  .  ____  ____  .  __
 72
    65
 73
     6
 40
3.5
 49
1.0
 49
-0.5
 49
1.0
 49
-0.5
 49
0.0
 49
-0.5
  0
LTYPE
  2
CENTER
 70
    64
  3
____ _ ____ _ ____ _ ____ _ ____ _ ____ _ ____
 72
    65
 73
     4
 40
2.0
 49
1.25
 49
-0.25
 49
0.25
 49
-0.25
  0
LTYPE
  2
CENTER2
 70
    64
  3
___ _ ___ _ ___ _ ___ _ ___ _ ___ _ ___ _ ___ _
 72
    65
 73
     4
 40
1.125
 49
0.75
 49
-0.125
 49
0.125
 49
-0.125
  0
LTYPE
  2
CENTERX2
 70
    64
  3
________  __  ________  __  ________  __  _____
 72
    65
 73
     4
 40
4.0
 49
2.5
 49
-0.5
 49
0.5
 49
-0.5
  0
LTYPE
  2
DASHDOT
 70
    64
  3
__ . __ . __ . __ . __ . __ . __ . __ . __ . __
 72
    65
 73
     4
 40
1.0
 49
0.5
 49
-0.25
 49
0.0
 49
-0.25
  0
LTYPE
  2
DASHDOT2
 70
    64
  3
_._._._._._._._._._._._._._._._._._._._._._._._
 72
    65
 73
     4
 40
0.5
 49
0.25
 49
-0.125
 49
0.0
 49
-0.125
  0
LTYPE
  2
DASHDOTX2
 70
    64
  3
____  .  ____  .  ____  .  ____  .  ____  .  __
 72
    65
 73
     4
 40
2.0
 49
1.0
 49
-0.5
 49
0.0
 49
-0.5
  0
LTYPE
  2
DASHED
 70
    64
  3
__ __ __ __ __ __ __ __ __ __ __ __ __ __ __ __
 72
    65
 73
     2
 40
0.75
 49
0.5
 49
-0.25
  0
LTYPE
  2
DASHED2
 70
    64
  3
_ _ _ _ _ _ _ _ _ _ _ _ _ _ _ _ _ _ _ _ _ _ _ _
 72
    65
 73
     2
 40
0.375
 49
0.25
 49
-0.125
  0
LTYPE
  2
DASHEDX2
 70
    64
  3
____  ____  ____  ____  ____  ____  ____  ____
 72
    65
 73
     2
 40
1.5
 49
1.0
 49
-0.5
  0
LTYPE
  2
DIVIDE
 70
    64
  3
____ . . ____ . . ____ . . ____ . . ____ . . __
 72
    65
 73
     6
 40
1.25
 49
0.5
 49
-0.25
 49
0.0
 49
-0.25
 49
0.0
 49
-0.25
  0
LTYPE
  2
DIVIDE2
 70
    64
  3
__..__..__..__..__..__..__..__..__..__..__..__.
 72
    65
 73
     6
 40
0.625
 49
0.25
 49
-0.125
 49
0.0
 49
-0.125
 49
0.0
 49
-0.125
  0
LTYPE
  2
DIVIDEX2
 70
    64
  3
________  .  .  ________  .  .  ________  .  .
 72
    65
 73
     6
 40
2.5
 49
1.0
 49
-0.5
 49
0.0
 49
-0.5
 49
0.0
 49
-0.5
  0
LTYPE
  2
DOT
 70
    64
  3
. . . . . . . . . . . . . . . . . . . . . . . .
 72
    65
 73
     2
 40
0.25
 49
0.0
 49
-0.25
  0
LTYPE
  2
DOT2
 70
    64
  3
...............................................
 72
    65
 73
     2
 40
0.125
 49
0.0
 49
-0.125
  0
LTYPE
  2
DOTX2
 70
    64
  3
.  .  .  .  .  .  .  .  .  .  .  .  .  .  .  .
 72
    65
 73
     2
 40
0.5
 49
0.0
 49
-0.5
  0
LTYPE
  2
HIDDEN
 70
    64
  3
__ __ __ __ __ __ __ __ __ __ __ __ __ __ __ __
 72
    65
 73
     2
 40
0.375
 49
0.25
 49
-0.125
  0
LTYPE
  2
HIDDEN2
 70
    64
  3
_ _ _ _ _ _ _ _ _ _ _ _ _ _ _ _ _ _ _ _ _ _ _ _
 72
    65
 73
     2
 40
0.1875
 49
0.125
 49
-0.0625
  0
LTYPE
  2
HIDDENX2
 70
    64
  3
____ ____ ____ ____ ____ ____ ____ ____ ____ __
 72
    65
 73
     2
 40
0.75
 49
0.5
 49
-0.25
  0
LTYPE
  2
PHANTOM
 70
    64
  3
______  __  __  ______  __  __  ______  __  __
 72
    65
 73
     6
 40
2.5
 49
1.25
 49
-0.25
 49
0.25
 49
-0.25
 49
0.25
 49
-0.25
  0
LTYPE
  2
PHANTOM2
 70
    64
  3
___ _ _ ___ _ _ ___ _ _ ___ _ _ ___ _ _ ___ _ _
 72
    65
 73
     6
 40
1.25
 49
0.625
 49
-0.125
 49
0.125
 49
-0.125
 49
0.125
 49
-0.125
  0
LTYPE
  2
PHANTOMX2
 70
    64
  3
____________    ____    ____    ____________
 72
    65
 73
     6
 40
5.0
 49
2.5
 49
-0.5
 49
0.5
 49
-0.5
 49
0.5
 49
-0.5
  0
LTYPE
  2
ACAD_ISO02W100
 70
    64
  3
__ __ __ __ __ __ __ __ __ __ __ __ __ __ __ __
 72
    65
 73
     2
 40
15.0
 49
12.0
 49
-3.0
  0
LTYPE
  2
ACAD_ISO03W100
 70
    64
  3
__    __    __    __    __    __    __    __
 72
    65
 73
     2
 40
30.0
 49
12.0
 49
-18.0
  0
LTYPE
  2
ACAD_ISO04W100
 70
    64
  3
____ . ____ . ____ . ____ . ____ . ____ . ____
 72
    65
 73
     4
 40
30.5
 49
24.0
 49
-3.0
 49
0.5
 49
-3.0
  0
LTYPE
  2
ACAD_ISO05W100
 70
    64
  3
____ .. ____ .. ____ .. ____ .. ____ .. ____ ..
 72
    65
 73
     6
 40
34.0
 49
24.0
 49
-3.0
 49
0.5
 49
-3.0
 49
0.5
 49
-3.0
  0
LTYPE
  2
ACAD_ISO06W100
 70
    64
  3
____ ... ____ ... ____ ... ____ ... ____ ... __
 72
    65
 73
     8
 40
37.5
 49
24.0
 49
-3.0
 49
0.5
 49
-3.0
 49
0.5
 49
-3.0
 49
0.5
 49
-3.0
  0
LTYPE
  2
ACAD_ISO07W100
 70
    64
  3
. . . . . . . . . . . . . . . . . . . . . . . .
 72
    65
 73
     2
 40
3.5
 49
0.5
 49
-3.0
  0
LTYPE
  2
ACAD_ISO08W100
 70
    64
  3
____ __ ____ __ ____ __ ____ ____ __ __ ____ __
 72
    65
 73
     4
 40
36.0
 49
24.0
 49
-3.0
 49
6.0
 49
-3.0
  0
LTYPE
  2
ACAD_ISO09W100
 70
    64
  3
____ __ __ ____ __ __ ____ __ __ ____ __ __ ___
 72
    65
 73
     6
 40
45.0
 49
24.0
 49
-3.0
 49
6.0
 49
-3.0
 49
6.0
 49
-3.0
  0
LTYPE
  2
ACAD_ISO10W100
 70
    64
  3
__ . __ . __ . __ . __ . __ . __ . __ . __ . __
 72
    65
 73
     4
 40
18.5
 49
12.0
 49
-3.0
 49
0.5
 49
-3.0
  0
LTYPE
  2
ACAD_ISO11W100
 70
    64
  3
__ __ . __ __ . __ __ . __ __ . __ __ . __ __ .
 72
    65
 73
     6
 40
33.5
 49
12.0
 49
-3.0
 49
12.0
 49
-3.0
 49
0.5
 49
-3.0
  0
LTYPE
  2
ACAD_ISO12W100
 70
    64
  3
__ . . __ . . __ . . __ . . __ . . __ . . __ .
 72
    65
 73
     6
 40
22.0
 49
12.0
 49
-3.0
 49
0.5
 49
-3.0
 49
0.5
 49
-3.0
  0
LTYPE
  2
ACAD_ISO13W100
 70
    64
  3
__ __ . . __ __ . . __ __ . . __ __ . . __ __ .
 72
    65
 73
     8
 40
37.0
 49
12.0
 49
-3.0
 49
12.0
 49
-3.0
 49
0.5
 49
-3.0
 49
0.5
 49
-3.0
  0
LTYPE
  2
ACAD_ISO14W100
 70
    64
  3
__ . . . __ . . . __ . . . __ . . . __ . . . __
 72
    65
 73
     8
 40
25.5
 49
12.0
 49
-3.0
 49
0.5
 49
-3.0
 49
0.5
 49
-3.0
 49
0.5
 49
-3.0
  0
LTYPE
  2
ACAD_ISO15W100
 70
    64
  3
__ __ . . . __ __ . . . __ __ . . . __ __ . . .
 72
    65
 73
    10
 40
40.5
 49
12.0
 49
-3.0
 49
12.0
 49
-3.0
 49
0.5
 49
-3.0
 49
0.5
 49
-3.0
 49
0.5
 49
-3.0
  0
ENDTAB
  0
TABLE
  2
STYLE
 70
     4
  0
STYLE
  2
STANDARD
 70
    64
 40
0.0
 41
1.0
 50
0.0
 71
     0
 42
0.2
  3
txt
  4

  0
STYLE
  2
TOLERANCE
 70
    64
 40
0.0
 41
1.0
 50
0.0
 71
     0
 42
0.2
  3
../igesfont/iges1003.shx
  4

  0
STYLE
  2
ROMANS
 70
    64
 40
0.0
 41
1.0
 50
0.0
 71
     0
 42
0.2
  3
romans.shx
  4

  0
STYLE
  2
ROMANC
 70
    64
 40
0.0
 41
1.0
 50
0.0
 71
     0
 42
0.2
  3
romanc.shx
  4

  0
ENDTAB
  0
TABLE
  2
DIMSTYLE
 70
     2
  0
DIMSTYLE
  2
UNNAMED
 70
     0
  3

  4

  5

  6

  7

 40
1.0
 41
0.18
 42
0.0625
 43
0.38
 44
0.18
 45
0.0
 46
0.0
 47
0.0
 48
0.0
140
0.18
141
0.09
142
0.0
143
25.4
144
1.0
145
0.0
146
1.0
147
0.09
 71
     0
 72
     0
 73
     1
 74
     1
 75
     0
 76
     0
 77
     0
 78
     0
170
     0
171
     2
172
     0
173
     0
174
     0
175
     0
176
     0
177
     0
178
     0
  0
DIMSTYLE
  2
STANDARD
 70
     0
  3

  4

  5

  6

  7

 40
1.0
 41
0.18
 42
0.0625
 43
0.38
 44
0.18
 45
0.0
 46
0.0
 47
0.0
 48
0.0
140
0.18
141
0.09
142
0.0
143
25.4
144
1.0
145
0.0
146
1.0
147
0.09
 71
     0
 72
     0
 73
     1
 74
     1
 75
     0
 76
     0
 77
     0
 78
     0
170
     0
171
     2
172
     0
173
     0
174
     0
175
     0
176
     0
177
     0
178
     0
  0
ENDTAB
  0
TABLE
  2
LAYER
 70
     2
  0
LAYER
  2
0
 70
     0
 62
     7
  6
CONTINUOUS
  0
LAYER
  2
255
 70
     0
 62
     7
  6
CONTINUOUS
  0
ENDTAB
  0
ENDSEC
  0
SECTION
  2
BLOCKS
  0
BLOCK
  5
     B
  8
0
  6
CONTINUOUS
 62
     0
  2
ON-OFF
 70
    64
 10
0.0
 20
0.0
 30
0.0
  3
ON-OFF
  0
LINE
  5
     C
  8
0
  6
CONTINUOUS
 62
     0
 10
3.80909090909089
 20
-13.2
 30
0.0
 11
4.13636363636363
 21
-13.2
 31
0.0
  0
LINE
  5
     D
  8
0
  6
CONTINUOUS
 62
     0
 10
2.86363636363635
 20
-18.8
 30
0.0
 11
3.44545454545454
 21
-18.8
 31
0.0
  0
LINE
  5
     E
  8
0
  6
CONTINUOUS
 62
     0
 10
-1.89090909090909
 20
-16.9090909090909
 30
0.0
 11
-1.89090909090909
 21
-16.5454545454546
 31
0.0
  0
LINE
  5
     F
  8
0
  6
CONTINUOUS
 62
     0
 10
1.89090909090909
 20
-16.9090909090909
 30
0.0
 11
1.89090909090909
 21
-16.5454545454546
 31
0.0
  0
ARC
  5
    10
  8
0
  6
CONTINUOUS
 62
     0
 10
-3.5527136788005E-15
 20
-16.5454545454546
 30
0.0
 40
1.89090909090909
 50
360.0
 51
540.0
  0
ARC
  5
    11
  8
0
  6
CONTINUOUS
 62
     0
 10
-3.5527136788005E-15
 20
-16.9090909090909
 30
0.0
 40
1.89090909090909
 50
180.0
 51
360.0
  0
ARC
  5
    12
  8
0
  6
CONTINUOUS
 62
     0
 10
-3.5527136788005E-15
 20
-16.5454545454546
 30
0.0
 40
1.30909090909091
 50
360.0
 51
540.0
  0
ARC
  5
    13
  8
0
  6
CONTINUOUS
 62
     0
 10
-3.5527136788005E-15
 20
-16.9090909090909
 30
0.0
 40
1.30909090909091
 50
180.0
 51
360.0
  0
LINE
  5
    14
  8
0
  6
CONTINUOUS
 62
     0
 10
-1.30909090909091
 20
-16.909090909091
 30
0.0
 11
-1.30909090909091
 21
-16.5454545454546
 31
0.0
  0
LINE
  5
    15
  8
0
  6
CONTINUOUS
 62
     0
 10
1.30909090909091
 20
-16.9090909090909
 30
0.0
 11
1.30909090909091
 21
-16.5454545454546
 31
0.0
  0
LINE
  5
    16
  8
0
  6
CONTINUOUS
 62
     0
 10
2.17272727272726
 20
-15.5272727272728
 30
0.0
 11
2.17272727272726
 21
-14.9454545454546
 31
0.0
  0
LINE
  5
    17
  8
0
  6
CONTINUOUS
 62
     0
 10
2.17272727272727
 20
-15.5272727272727
 30
0.0
 11
2.86363636363635
 21
-15.5272727272727
 31
0.0
  0
LINE
  5
    18
  8
0
  6
CONTINUOUS
 62
     0
 10
4.13636363636363
 20
-15.5272727272728
 30
0.0
 11
4.13636363636363
 21
-14.9454545454546
 31
0.0
  0
LINE
  5
    19
  8
0
  6
CONTINUOUS
 62
     0
 10
2.17272727272727
 20
-14.9454545454546
 30
0.0
 11
2.86363636363635
 21
-14.9454545454546
 31
0.0
  0
LINE
  5
    1A
  8
0
  6
CONTINUOUS
 62
     0
 10
2.86363636363635
 20
-18.8
 30
0.0
 11
2.86363636363635
 21
-15.5272727272728
 31
0.0
  0
LINE
  5
    1B
  8
0
  6
CONTINUOUS
 62
     0
 10
3.44545454545453
 20
-18.8
 30
0.0
 11
3.44545454545453
 21
-15.5272727272728
 31
0.0
  0
LINE
  5
    1C
  8
0
  6
CONTINUOUS
 62
     0
 10
3.44545454545454
 20
-15.5272727272727
 30
0.0
 11
4.13636363636363
 21
-15.5272727272727
 31
0.0
  0
LINE
  5
    1D
  8
0
  6
CONTINUOUS
 62
     0
 10
3.44545454545454
 20
-14.9454545454546
 30
0.0
 11
4.13636363636363
 21
-14.9454545454546
 31
0.0
  0
LINE
  5
    1E
  8
0
  6
CONTINUOUS
 62
     0
 10
2.86363636363635
 20
-14.9454545454546
 30
0.0
 11
2.86363636363635
 21
-14.1454545454546
 31
0.0
  0
LINE
  5
    1F
  8
0
  6
CONTINUOUS
 62
     0
 10
3.44545454545453
 20
-14.9454545454546
 30
0.0
 11
3.44545454545453
 21
-14.1454545454546
 31
0.0
  0
ARC
  5
    20
  8
0
  6
CONTINUOUS
 62
     0
 10
3.80909090909089
 20
-14.1454545454545
 30
0.0
 40
0.945454545454545
 50
89.9999999999998
 51
180.0
  0
ARC
  5
    21
  8
0
  6
CONTINUOUS
 62
     0
 10
3.80909090909089
 20
-14.1454545454545
 30
0.0
 40
0.363636363636363
 50
89.9999999999998
 51
180.0
  0
LINE
  5
    22
  8
0
  6
CONTINUOUS
 62
     0
 10
4.13636363636363
 20
-13.7818181818182
 30
0.0
 11
4.13636363636363
 21
-13.2
 31
0.0
  0
LINE
  5
    23
  8
0
  6
CONTINUOUS
 62
     0
 10
3.80909090909089
 20
-13.7818181818182
 30
0.0
 11
4.13636363636363
 21
-13.7818181818182
 31
0.0
  0
LINE
  5
    24
  8
0
  6
CONTINUOUS
 62
     0
 10
6.23636363636362
 20
-13.2
 30
0.0
 11
6.56363636363635
 21
-13.2
 31
0.0
  0
LINE
  5
    25
  8
0
  6
CONTINUOUS
 62
     0
 10
5.29090909090908
 20
-18.8
 30
0.0
 11
5.87272727272726
 21
-18.8
 31
0.0
  0
LINE
  5
    26
  8
0
  6
CONTINUOUS
 62
     0
 10
4.59999999999999
 20
-15.5272727272728
 30
0.0
 11
4.59999999999999
 21
-14.9454545454546
 31
0.0
  0
LINE
  5
    27
  8
0
  6
CONTINUOUS
 62
     0
 10
4.59999999999999
 20
-15.5272727272727
 30
0.0
 11
5.29090909090908
 21
-15.5272727272727
 31
0.0
  0
LINE
  5
    28
  8
0
  6
CONTINUOUS
 62
     0
 10
6.56363636363635
 20
-15.5272727272728
 30
0.0
 11
6.56363636363635
 21
-14.9454545454546
 31
0.0
  0
LINE
  5
    29
  8
0
  6
CONTINUOUS
 62
     0
 10
4.59999999999999
 20
-14.9454545454546
 30
0.0
 11
5.29090909090908
 21
-14.9454545454546
 31
0.0
  0
LINE
  5
    2A
  8
0
  6
CONTINUOUS
 62
     0
 10
5.29090909090908
 20
-18.8
 30
0.0
 11
5.29090909090908
 21
-15.5272727272728
 31
0.0
  0
LINE
  5
    2B
  8
0
  6
CONTINUOUS
 62
     0
 10
5.87272727272726
 20
-18.8
 30
0.0
 11
5.87272727272726
 21
-15.5272727272728
 31
0.0
  0
LINE
  5
    2C
  8
0
  6
CONTINUOUS
 62
     0
 10
5.87272727272726
 20
-15.5272727272727
 30
0.0
 11
6.56363636363635
 21
-15.5272727272727
 31
0.0
  0
LINE
  5
    2D
  8
0
  6
CONTINUOUS
 62
     0
 10
5.87272727272726
 20
-14.9454545454546
 30
0.0
 11
6.56363636363635
 21
-14.9454545454546
 31
0.0
  0
LINE
  5
    2E
  8
0
  6
CONTINUOUS
 62
     0
 10
5.29090909090908
 20
-14.9454545454546
 30
0.0
 11
5.29090909090908
 21
-14.1454545454546
 31
0.0
  0
LINE
  5
    2F
  8
0
  6
CONTINUOUS
 62
     0
 10
5.87272727272726
 20
-14.9454545454546
 30
0.0
 11
5.87272727272726
 21
-14.1454545454546
 31
0.0
  0
ARC
  5
    30
  8
0
  6
CONTINUOUS
 62
     0
 10
6.23636363636362
 20
-14.1454545454545
 30
0.0
 40
0.945454545454545
 50
89.9999999999998
 51
180.0
  0
ARC
  5
    31
  8
0
  6
CONTINUOUS
 62
     0
 10
6.23636363636362
 20
-14.1454545454545
 30
0.0
 40
0.363636363636363
 50
89.9999999999998
 51
180.0
  0
LINE
  5
    32
  8
0
  6
CONTINUOUS
 62
     0
 10
6.56363636363635
 20
-13.7818181818182
 30
0.0
 11
6.56363636363635
 21
-13.2
 31
0.0
  0
LINE
  5
    33
  8
0
  6
CONTINUOUS
 62
     0
 10
6.23636363636362
 20
-13.7818181818182
 30
0.0
 11
6.56363636363635
 21
-13.7818181818182
 31
0.0
  0
LINE
  5
    34
  8
0
  6
CONTINUOUS
 62
     0
 10
2.57272727272726
 20
-2.07272727272728
 30
0.0
 11
3.15454545454544
 21
-2.07272727272728
 31
0.0
  0
ARC
  5
    35
  8
0
  6
CONTINUOUS
 62
     0
 10
-3.5527136788005E-15
 20
0.181818181818169
 30
0.0
 40
1.89090909090909
 50
360.0
 51
540.0
  0
ARC
  5
    36
  8
0
  6
CONTINUOUS
 62
     0
 10
-3.5527136788005E-15
 20
0.181818181818169
 30
0.0
 40
1.30909090909091
 50
360.0
 51
540.0
  0
ARC
  5
    37
  8
0
  6
CONTINUOUS
 62
     0
 10
-3.5527136788005E-15
 20
-0.181818181818194
 30
0.0
 40
1.89090909090909
 50
180.0
 51
360.0
  0
ARC
  5
    38
  8
0
  6
CONTINUOUS
 62
     0
 10
-3.5527136788005E-15
 20
-0.181818181818194
 30
0.0
 40
1.30909090909091
 50
180.0
 51
360.0
  0
LINE
  5
    39
  8
0
  6
CONTINUOUS
 62
     0
 10
1.30909090909091
 20
-0.18181818181823
 30
0.0
 11
1.30909090909091
 21
0.181818181818134
 31
0.0
  0
LINE
  5
    3A
  8
0
  6
CONTINUOUS
 62
     0
 10
1.89090909090909
 20
-0.18181818181823
 30
0.0
 11
1.89090909090909
 21
0.181818181818134
 31
0.0
  0
LINE
  5
    3B
  8
0
  6
CONTINUOUS
 62
     0
 10
-1.30909090909091
 20
-0.18181818181824
 30
0.0
 11
-1.30909090909091
 21
0.181818181818123
 31
0.0
  0
LINE
  5
    3C
  8
0
  6
CONTINUOUS
 62
     0
 10
-1.89090909090909
 20
-0.18181818181823
 30
0.0
 11
-1.89090909090909
 21
0.181818181818134
 31
0.0
  0
LINE
  5
    3D
  8
0
  6
CONTINUOUS
 62
     0
 10
2.57272727272726
 20
-2.07272727272732
 30
0.0
 11
2.57272727272726
 21
2.07272727272723
 31
0.0
  0
LINE
  5
    3E
  8
0
  6
CONTINUOUS
 62
     0
 10
3.15454545454545
 20
-2.07272727272732
 30
0.0
 11
3.15454545454545
 21
0.472727272727226
 31
0.0
  0
LINE
  5
    3F
  8
0
  6
CONTINUOUS
 62
     0
 10
5.19090909090908
 20
-2.07272727272732
 30
0.0
 11
5.19090909090908
 21
0.472727272727226
 31
0.0
  0
LINE
  5
    40
  8
0
  6
CONTINUOUS
 62
     0
 10
5.77272727272726
 20
-2.07272727272732
 30
0.0
 11
5.77272727272726
 21
0.618181818181771
 31
0.0
  0
LINE
  5
    41
  8
0
  6
CONTINUOUS
 62
     0
 10
2.57272727272726
 20
2.07272727272726
 30
0.0
 11
3.15454545454544
 21
2.07272727272726
 31
0.0
  0
ARC
  5
    42
  8
0
  6
CONTINUOUS
 62
     0
 10
4.17272727272726
 20
0.472727272727262
 30
0.0
 40
1.01818181818182
 50
360.0
 51
540.0
  0
LINE
  5
    43
  8
0
  6
CONTINUOUS
 62
     0
 10
3.15454545454545
 20
1.49090909090906
 30
0.0
 11
3.15454545454545
 21
2.07272727272723
 31
0.0
  0
ARC
  5
    44
  8
0
  6
CONTINUOUS
 62
     0
 10
4.31818181818181
 20
0.618181818181807
 30
0.0
 40
1.45454545454545
 50
360.0
 51
503.130102354155
  0
LINE
  5
    45
  8
0
  6
CONTINUOUS
 62
     0
 10
5.19090909090908
 20
-2.07272727272728
 30
0.0
 11
5.77272727272726
 21
-2.07272727272728
 31
0.0
  0
ENDBLK
  5
    46
  8
0
  6
CONTINUOUS
 62
     0
  0
BLOCK
  5
    47
  8
0
  6
CONTINUOUS
 62
     7
  2
*HATCH50
 70
    65
 10
0.0
 20
0.0
 30
0.0
  3
*HATCH50
  0
LINE
  5
    48
  8
0
  6
CONTINUOUS
 62
    92
 10
168.737045288086
 20
-160.251968383789
 30
0.0
 11
175.823318481445
 21
-167.338256835938
 31
0.0
  0
LINE
  5
    49
  8
0
  6
CONTINUOUS
 62
    92
 10
174.565963745117
 20
-161.838256835938
 30
0.0
 11
180.065963745117
 21
-167.338256835938
 31
0.0
  0
LINE
  5
    4A
  8
0
  6
CONTINUOUS
 62
    92
 10
178.808609008789
 20
-161.838256835938
 30
0.0
 11
184.308609008789
 21
-167.338256835938
 31
0.0
  0
LINE
  5
    4B
  8
0
  6
CONTINUOUS
 62
    92
 10
183.051254272461
 20
-161.838256835938
 30
0.0
 11
188.551254272461
 21
-167.338256835938
 31
0.0
  0
LINE
  5
    4C
  8
0
  6
CONTINUOUS
 62
    92
 10
187.293899536133
 20
-161.838256835938
 30
0.0
 11
192.793899536133
 21
-167.338256835938
 31
0.0
  0
LINE
  5
    4D
  8
0
  6
CONTINUOUS
 62
    92
 10
191.536514282227
 20
-161.838256835938
 30
0.0
 11
194.737045288086
 21
-165.038787841797
 31
0.0
  0
LINE
  5
    4E
  8
0
  6
CONTINUOUS
 62
    92
 10
195.779159545898
 20
-161.838256835938
 30
0.0
 11
197.237045288086
 21
-163.296157836914
 31
0.0
  0
LINE
  5
    4F
  8
0
  6
CONTINUOUS
 62
    92
 10
174.76448059082
 20
-132.338256835938
 30
0.0
 11
180.264465332031
 21
-137.838256835938
 31
0.0
  0
LINE
  5
    50
  8
0
  6
CONTINUOUS
 62
    92
 10
183.249771118164
 20
-132.338256835938
 30
0.0
 11
188.749755859375
 21
-137.838256835938
 31
0.0
  0
LINE
  5
    51
  8
0
  6
CONTINUOUS
 62
    92
 10
191.735061645508
 20
-132.338256835938
 30
0.0
 11
197.235046386719
 21
-137.838256835938
 31
0.0
  0
ENDBLK
  5
    52
  8
0
  6
CONTINUOUS
 62
     7
  0
BLOCK
  5
    53
  8
0
  6
CONTINUOUS
 62
     7
  2
*HATCH51
 70
    65
 10
0.0
 20
0.0
 30
0.0
  3
*HATCH51
  0
LINE
  5
    54
  8
0
  6
CONTINUOUS
 62
    92
 10
29.7370376586914
 20
-165.501663208008
 30
0.0
 11
31.5736255645752
 21
-167.338256835938
 31
0.0
  0
LINE
  5
    55
  8
0
  6
CONTINUOUS
 62
    92
 10
34.5589065551758
 20
-161.838256835938
 30
0.0
 11
40.0588989257813
 21
-167.338256835938
 31
0.0
  0
LINE
  5
    56
  8
0
  6
CONTINUOUS
 62
    92
 10
43.0441818237305
 20
-161.838256835938
 30
0.0
 11
48.5441741943359
 21
-167.338256835938
 31
0.0
  0
LINE
  5
    57
  8
0
  6
CONTINUOUS
 62
    92
 10
27.2370376586914
 20
-137.545791625977
 30
0.0
 11
27.5294895172119
 21
-137.838256835938
 31
0.0
  0
LINE
  5
    58
  8
0
  6
CONTINUOUS
 62
    92
 10
27.2370376586914
 20
-133.303146362305
 30
0.0
 11
31.7721271514893
 21
-137.838256835938
 31
0.0
  0
LINE
  5
    59
  8
0
  6
CONTINUOUS
 62
    92
 10
30.5147724151611
 20
-132.338256835938
 30
0.0
 11
36.0147666931152
 21
-137.838256835938
 31
0.0
  0
LINE
  5
    5A
  8
0
  6
CONTINUOUS
 62
    92
 10
34.7574119567871
 20
-132.338256835938
 30
0.0
 11
40.2574043273926
 21
-137.838256835938
 31
0.0
  0
LINE
  5
    5B
  8
0
  6
CONTINUOUS
 62
    92
 10
39.0000495910645
 20
-132.338256835938
 30
0.0
 11
44.5000419616699
 21
-137.838256835938
 31
0.0
  0
LINE
  5
    5C
  8
0
  6
CONTINUOUS
 62
    92
 10
43.2426872253418
 20
-132.338256835938
 30
0.0
 11
48.7426795959473
 21
-137.838256835938
 31
0.0
  0
LINE
  5
    5D
  8
0
  6
CONTINUOUS
 62
    92
 10
47.4853248596191
 20
-132.338256835938
 30
0.0
 11
55.7370376586914
 21
-140.589981079102
 31
0.0
  0
ENDBLK
  5
    5E
  8
0
  6
CONTINUOUS
 62
     7
  0
BLOCK
  5
    5F
  8
0
  6
CONTINUOUS
 62
     7
  2
*UDIM225
 70
    65
 10
0.0
 20
0.0
 30
0.0
  3
*UDIM225
  0
TEXT
  5
    60
  8
0
  6
CONTINUOUS
 62
     7
 10
-478.940673831657
 20
41.6905671612744
 30
0.0
 40
3.00000002980232
  1
170
 50
89.9999999480344
 41
0.933333333333333
 72
     1
 11
-480.440673843026
 21
45.590567201376
 31
0.0
 73
     2
  0
LINE
  5
    61
  8
0
  6
CONTINUOUS
 62
     7
 10
-518.191226315336
 20
3.36556339264115
 30
0.0
 11
-475.940673828125
 21
3.36556339264115
 31
0.0
  0
LINE
  5
    62
  8
0
  6
CONTINUOUS
 62
     7
 10
-518.191226315336
 20
88.3655710220318
 30
0.0
 11
-475.940673828125
 21
88.3655710220318
 31
0.0
  0
LINE
  5
    63
  8
0
  6
CONTINUOUS
 62
     7
 10
-477.940673828125
 20
3.36556339264115
 30
0.0
 11
-477.940673828125
 21
88.3655710220318
 31
0.0
  0
LINE
  5
    64
  8
0
  6
CONTINUOUS
 62
     7
 10
-478.461618258077
 20
6.31998666984811
 30
0.0
 11
-477.940673828125
 21
3.36556339264115
 31
0.0
  0
LINE
  5
    65
  8
0
  6
CONTINUOUS
 62
     7
 10
-477.940673828125
 20
3.36556339264115
 30
0.0
 11
-477.419729398173
 21
6.31998666984811
 31
0.0
  0
LINE
  5
    66
  8
0
  6
CONTINUOUS
 62
     7
 10
-477.419729398173
 20
85.4111477448248
 30
0.0
 11
-477.940673828125
 21
88.3655710220318
 31
0.0
  0
LINE
  5
    67
  8
0
  6
CONTINUOUS
 62
     7
 10
-477.940673828125
 20
88.3655710220318
 30
0.0
 11
-478.461618258077
 21
85.4111477448248
 31
0.0
  0
ENDBLK
  5
    68
  8
0
  6
CONTINUOUS
 62
     7
  0
BLOCK
  5
    69
  8
0
  6
CONTINUOUS
 62
     7
  2
*UDIM226
 70
    65
 10
0.0
 20
0.0
 30
0.0
  3
*UDIM226
  0
TEXT
  5
    6A
  8
0
  6
CONTINUOUS
 62
     7
 10
-485.887725836146
 20
59.5780747628515
 30
0.0
 40
3.00000002980232
  1
87,25
 50
89.9999999480344
 41
0.933333333333333
 72
     1
 11
-487.387725844979
 21
66.2780748307686
 31
0.0
 73
     2
  0
LINE
  5
    6B
  8
0
  6
CONTINUOUS
 62
     7
 10
-509.560910915989
 20
44.7405710220318
 30
0.0
 11
-482.887725830078
 21
44.7405710220318
 31
0.0
  0
LINE
  5
    6C
  8
0
  6
CONTINUOUS
 62
     7
 10
-518.191226315336
 20
88.3655710220318
 30
0.0
 11
-482.887725830078
 21
88.3655710220318
 31
0.0
  0
LINE
  5
    6D
  8
0
  6
CONTINUOUS
 62
     7
 10
-484.887725830078
 20
44.7405710220318
 30
0.0
 11
-484.887725830078
 21
88.3655710220318
 31
0.0
  0
LINE
  5
    6E
  8
0
  6
CONTINUOUS
 62
     7
 10
-485.40867026003
 20
47.6949942992387
 30
0.0
 11
-484.887725830078
 21
44.7405710220318
 31
0.0
  0
LINE
  5
    6F
  8
0
  6
CONTINUOUS
 62
     7
 10
-484.887725830078
 20
44.7405710220318
 30
0.0
 11
-484.366781400126
 21
47.6949942992387
 31
0.0
  0
LINE
  5
    70
  8
0
  6
CONTINUOUS
 62
     7
 10
-484.366781400126
 20
85.4111477448248
 30
0.0
 11
-484.887725830078
 21
88.3655710220318
 31
0.0
  0
LINE
  5
    71
  8
0
  6
CONTINUOUS
 62
     7
 10
-484.887725830078
 20
88.3655710220318
 30
0.0
 11
-485.40867026003
 21
85.4111477448248
 31
0.0
  0
ENDBLK
  5
    72
  8
0
  6
CONTINUOUS
 62
     7
  0
BLOCK
  5
    73
  8
0
  6
CONTINUOUS
 62
     7
  2
*UDIM227
 70
    65
 10
0.0
 20
0.0
 30
0.0
  3
*UDIM227
  0
TEXT
  5
    74
  8
0
  6
CONTINUOUS
 62
     7
 10
-492.383674625114
 20
41.6905671612744
 30
0.0
 40
3.00000002980232
  1
143
 50
89.9999999480344
 41
0.933333333333333
 72
     1
 11
-493.883674636483
 21
45.590567201376
 31
0.0
 73
     2
  0
LINE
  5
    75
  8
0
  6
CONTINUOUS
 62
     7
 10
-517.983640341694
 20
10.1155633926411
 30
0.0
 11
-489.383674621582
 21
10.1155633926411
 31
0.0
  0
LINE
  5
    76
  8
0
  6
CONTINUOUS
 62
     7
 10
-517.983640341694
 20
81.6155710220318
 30
0.0
 11
-489.383674621582
 21
81.6155710220318
 31
0.0
  0
LINE
  5
    77
  8
0
  6
CONTINUOUS
 62
     7
 10
-491.383674621582
 20
10.1155633926411
 30
0.0
 11
-491.383674621582
 21
81.6155710220318
 31
0.0
  0
LINE
  5
    78
  8
0
  6
CONTINUOUS
 62
     7
 10
-491.904619051534
 20
13.0699866698481
 30
0.0
 11
-491.383674621582
 21
10.1155633926411
 31
0.0
  0
LINE
  5
    79
  8
0
  6
CONTINUOUS
 62
     7
 10
-491.383674621582
 20
10.1155633926411
 30
0.0
 11
-490.86273019163
 21
13.0699866698481
 31
0.0
  0
LINE
  5
    7A
  8
0
  6
CONTINUOUS
 62
     7
 10
-490.86273019163
 20
78.6611477448248
 30
0.0
 11
-491.383674621582
 21
81.6155710220318
 31
0.0
  0
LINE
  5
    7B
  8
0
  6
CONTINUOUS
 62
     7
 10
-491.383674621582
 20
81.6155710220318
 30
0.0
 11
-491.904619051534
 21
78.6611477448248
 31
0.0
  0
ENDBLK
  5
    7C
  8
0
  6
CONTINUOUS
 62
     7
  0
BLOCK
  5
    7D
  8
0
  6
CONTINUOUS
 62
     7
  2
*UDIM228
 70
    65
 10
0.0
 20
0.0
 30
0.0
  3
*UDIM228
  0
TEXT
  5
    7E
  8
0
  6
CONTINUOUS
 62
     7
 10
-508.540863039374
 20
68.0905675626104
 30
0.0
 40
3.00000002980232
  1
10
 50
89.9999999480344
 41
0.933333333333333
 72
     1
 11
-510.040863052011
 21
70.5905675888042
 31
0.0
 73
     2
  0
LINE
  5
    7F
  8
0
  6
CONTINUOUS
 62
     7
 10
-519.191226315336
 20
76.6155710220318
 30
0.0
 11
-505.540863037109
 21
76.6155710220318
 31
0.0
  0
LINE
  5
    80
  8
0
  6
CONTINUOUS
 62
     7
 10
-517.983640341694
 20
81.6155710220318
 30
0.0
 11
-505.540863037109
 21
81.6155710220318
 31
0.0
  0
LINE
  5
    81
  8
0
  6
CONTINUOUS
 62
     7
 10
-507.540863037109
 20
68.090567563969
 30
0.0
 11
-507.540863037109
 21
81.6155710220318
 31
0.0
  0
LINE
  5
    82
  8
0
  6
CONTINUOUS
 62
     7
 10
-507.019918607158
 20
73.6611477448248
 30
0.0
 11
-507.540863037109
 21
76.6155710220318
 31
0.0
  0
LINE
  5
    83
  8
0
  6
CONTINUOUS
 62
     7
 10
-507.540863037109
 20
76.6155710220318
 30
0.0
 11
-508.061807467061
 21
73.6611477448248
 31
0.0
  0
LINE
  5
    84
  8
0
  6
CONTINUOUS
 62
     7
 10
-508.061807467061
 20
84.5699942992387
 30
0.0
 11
-507.540863037109
 21
81.6155710220318
 31
0.0
  0
LINE
  5
    85
  8
0
  6
CONTINUOUS
 62
     7
 10
-507.540863037109
 20
81.6155710220318
 30
0.0
 11
-507.019918607158
 21
84.5699942992387
 31
0.0
  0
ENDBLK
  5
    86
  8
0
  6
CONTINUOUS
 62
     7
  0
BLOCK
  5
    87
  8
0
  6
CONTINUOUS
 62
     7
  2
*UDIM229
 70
    65
 10
0.0
 20
0.0
 30
0.0
  3
*UDIM229
  0
TEXT
  5
    88
  8
0
  6
CONTINUOUS
 62
     7
 10
-500.752716070521
 20
56.2030747628515
 30
0.0
 40
3.00000002980232
  1
73,75
 50
89.9999999480344
 41
0.933333333333333
 72
     1
 11
-502.252716079354
 21
62.9030748307686
 31
0.0
 73
     2
  0
LINE
  5
    89
  8
0
  6
CONTINUOUS
 62
     7
 10
-509.560910915989
 20
44.7405710220318
 30
0.0
 11
-497.752716064453
 21
44.7405710220318
 31
0.0
  0
LINE
  5
    8A
  8
0
  6
CONTINUOUS
 62
     7
 10
-517.983640341694
 20
81.6155710220318
 30
0.0
 11
-497.752716064453
 21
81.6155710220318
 31
0.0
  0
LINE
  5
    8B
  8
0
  6
CONTINUOUS
 62
     7
 10
-499.752716064453
 20
44.7405710220318
 30
0.0
 11
-499.752716064453
 21
81.6155710220318
 31
0.0
  0
LINE
  5
    8C
  8
0
  6
CONTINUOUS
 62
     7
 10
-500.273660494405
 20
47.6949942992387
 30
0.0
 11
-499.752716064453
 21
44.7405710220318
 31
0.0
  0
LINE
  5
    8D
  8
0
  6
CONTINUOUS
 62
     7
 10
-499.752716064453
 20
44.7405710220318
 30
0.0
 11
-499.231771634502
 21
47.6949942992387
 31
0.0
  0
LINE
  5
    8E
  8
0
  6
CONTINUOUS
 62
     7
 10
-499.231771634502
 20
78.6611477448248
 30
0.0
 11
-499.752716064453
 21
81.6155710220318
 31
0.0
  0
LINE
  5
    8F
  8
0
  6
CONTINUOUS
 62
     7
 10
-499.752716064453
 20
81.6155710220318
 30
0.0
 11
-500.273660494405
 21
78.6611477448248
 31
0.0
  0
ENDBLK
  5
    90
  8
0
  6
CONTINUOUS
 62
     7
  0
BLOCK
  5
    91
  8
0
  6
CONTINUOUS
 62
     7
  2
*UDIM230
 70
    65
 10
0.0
 20
0.0
 30
0.0
  3
*UDIM230
  0
TEXT
  5
    92
  8
0
  6
CONTINUOUS
 62
     7
 10
-605.50333118792
 20
41.6905671612744
 30
0.0
 40
3.00000002980232
  1
175
 50
89.9999999480344
 41
0.933333333333333
 72
     1
 11
-607.003331199288
 21
45.590567201376
 31
0.0
 73
     2
  0
LINE
  5
    93
  8
0
  6
CONTINUOUS
 62
     7
 10
-588.182334627413
 20
2.1155672073365
 30
0.0
 11
-606.503331184387
 21
2.1155672073365
 31
0.0
  0
LINE
  5
    94
  8
0
  6
CONTINUOUS
 62
     7
 10
-588.182334627413
 20
89.6155672073364
 30
0.0
 11
-606.503331184387
 21
89.6155672073364
 31
0.0
  0
LINE
  5
    95
  8
0
  6
CONTINUOUS
 62
     7
 10
-604.503331184387
 20
2.1155672073365
 30
0.0
 11
-604.503331184387
 21
89.6155672073364
 31
0.0
  0
LINE
  5
    96
  8
0
  6
CONTINUOUS
 62
     7
 10
-605.024275614339
 20
5.06999048454346
 30
0.0
 11
-604.503331184387
 21
2.1155672073365
 31
0.0
  0
LINE
  5
    97
  8
0
  6
CONTINUOUS
 62
     7
 10
-604.503331184387
 20
2.1155672073365
 30
0.0
 11
-603.982386754436
 21
5.06999048454346
 31
0.0
  0
LINE
  5
    98
  8
0
  6
CONTINUOUS
 62
     7
 10
-603.982386754436
 20
86.6611439301295
 30
0.0
 11
-604.503331184387
 21
89.6155672073364
 31
0.0
  0
LINE
  5
    99
  8
0
  6
CONTINUOUS
 62
     7
 10
-604.503331184387
 20
89.6155672073364
 30
0.0
 11
-605.024275614339
 21
86.6611439301295
 31
0.0
  0
ENDBLK
  5
    9A
  8
0
  6
CONTINUOUS
 62
     7
  0
BLOCK
  5
    9B
  8
0
  6
CONTINUOUS
 62
     7
  2
*UDIM231
 70
    65
 10
0.0
 20
0.0
 30
0.0
  3
*UDIM231
  0
TEXT
  5
    9C
  8
0
  6
CONTINUOUS
 62
     7
 10
-596.741662508357
 20
60.2030671334579
 30
0.0
 40
3.00000002980232
  1
89,75
 50
89.9999999480344
 41
0.933333333333333
 72
     1
 11
-598.24166251719
 21
66.903067201375
 31
0.0
 73
     2
  0
LINE
  5
    9D
  8
0
  6
CONTINUOUS
 62
     7
 10
-588.182334627413
 20
89.6155672073364
 30
0.0
 11
-597.741662502289
 21
89.6155672073364
 31
0.0
  0
LINE
  5
    9E
  8
0
  6
CONTINUOUS
 62
     7
 10
-595.741662502289
 20
44.7405710220318
 30
0.0
 11
-595.741662502289
 21
89.6155672073364
 31
0.0
  0
LINE
  5
    9F
  8
0
  6
CONTINUOUS
 62
     7
 10
-596.262606932241
 20
47.6949942992387
 30
0.0
 11
-595.741662502289
 21
44.7405710220318
 31
0.0
  0
LINE
  5
    A0
  8
0
  6
CONTINUOUS
 62
     7
 10
-595.741662502289
 20
44.7405710220318
 30
0.0
 11
-595.220718072337
 21
47.6949942992387
 31
0.0
  0
LINE
  5
    A1
  8
0
  6
CONTINUOUS
 62
     7
 10
-595.220718072337
 20
86.6611439301295
 30
0.0
 11
-595.741662502289
 21
89.6155672073364
 31
0.0
  0
LINE
  5
    A2
  8
0
  6
CONTINUOUS
 62
     7
 10
-595.741662502289
 20
89.6155672073364
 30
0.0
 11
-596.262606932241
 21
86.6611439301295
 31
0.0
  0
ENDBLK
  5
    A3
  8
0
  6
CONTINUOUS
 62
     7
  0
BLOCK
  5
    A4
  8
0
  6
CONTINUOUS
 62
     7
  2
*UDIM232
 70
    65
 10
0.0
 20
0.0
 30
0.0
  3
*UDIM232
  0
TEXT
  5
    A5
  8
0
  6
CONTINUOUS
 62
     7
 10
-536.141223186451
 20
110.012059216511
 30
0.0
 40
3.00000002980232
  1
52,5
 50
359.999999948034
 41
0.933333333333333
 72
     1
 11
-530.841223132448
 21
111.512059226632
 31
0.0
 73
     2
  0
LINE
  5
    A6
  8
0
  6
CONTINUOUS
 62
     7
 10
-517.441226315336
 20
88.1155710220318
 30
0.0
 11
-517.441226315336
 21
111.012059211731
 31
0.0
  0
LINE
  5
    A7
  8
0
  6
CONTINUOUS
 62
     7
 10
-543.691226315336
 20
94.9231549305957
 30
0.0
 11
-543.691226315336
 21
111.012059211731
 31
0.0
  0
LINE
  5
    A8
  8
0
  6
CONTINUOUS
 62
     7
 10
-517.441226315336
 20
109.012059211731
 30
0.0
 11
-543.691226315336
 21
109.012059211731
 31
0.0
  0
LINE
  5
    A9
  8
0
  6
CONTINUOUS
 62
     7
 10
-520.395649592543
 20
108.491114781779
 30
0.0
 11
-517.441226315336
 21
109.012059211731
 31
0.0
  0
LINE
  5
    AA
  8
0
  6
CONTINUOUS
 62
     7
 10
-517.441226315336
 20
109.012059211731
 30
0.0
 11
-520.395649592543
 21
109.533003641683
 31
0.0
  0
LINE
  5
    AB
  8
0
  6
CONTINUOUS
 62
     7
 10
-540.736803038129
 20
109.533003641683
 30
0.0
 11
-543.691226315336
 21
109.012059211731
 31
0.0
  0
LINE
  5
    AC
  8
0
  6
CONTINUOUS
 62
     7
 10
-543.691226315336
 20
109.012059211731
 30
0.0
 11
-540.736803038129
 21
108.491114781779
 31
0.0
  0
ENDBLK
  5
    AD
  8
0
  6
CONTINUOUS
 62
     7
  0
BLOCK
  5
    AE
  8
0
  6
CONTINUOUS
 62
     7
  2
*UDIM233
 70
    65
 10
0.0
 20
0.0
 30
0.0
  3
*UDIM233
  0
TEXT
  5
    AF
  8
0
  6
CONTINUOUS
 62
     7
 10
-537.716223158636
 20
101.639798166623
 30
0.0
 40
3.00000002980232
  1
35
 50
359.999999948034
 41
0.933333333333333
 72
     1
 11
-535.216223132448
 21
103.139798179269
 31
0.0
 73
     2
  0
LINE
  5
    B0
  8
0
  6
CONTINUOUS
 62
     7
 10
-526.191226315336
 20
95.4288939753261
 30
0.0
 11
-526.191226315336
 21
102.639798164368
 31
0.0
  0
LINE
  5
    B1
  8
0
  6
CONTINUOUS
 62
     7
 10
-543.691226315336
 20
94.9231549305957
 30
0.0
 11
-543.691226315336
 21
102.639798164368
 31
0.0
  0
LINE
  5
    B2
  8
0
  6
CONTINUOUS
 62
     7
 10
-526.191226315336
 20
100.639798164368
 30
0.0
 11
-543.691226315336
 21
100.639798164368
 31
0.0
  0
LINE
  5
    B3
  8
0
  6
CONTINUOUS
 62
     7
 10
-529.145649592543
 20
100.118853734416
 30
0.0
 11
-526.191226315336
 21
100.639798164368
 31
0.0
  0
LINE
  5
    B4
  8
0
  6
CONTINUOUS
 62
     7
 10
-526.191226315336
 20
100.639798164368
 30
0.0
 11
-529.145649592543
 21
101.160742594319
 31
0.0
  0
LINE
  5
    B5
  8
0
  6
CONTINUOUS
 62
     7
 10
-540.736803038129
 20
101.160742594319
 30
0.0
 11
-543.691226315336
 21
100.639798164368
 31
0.0
  0
LINE
  5
    B6
  8
0
  6
CONTINUOUS
 62
     7
 10
-543.691226315336
 20
100.639798164368
 30
0.0
 11
-540.736803038129
 21
100.118853734416
 31
0.0
  0
ENDBLK
  5
    B7
  8
0
  6
CONTINUOUS
 62
     7
  0
BLOCK
  5
    B8
  8
0
  6
CONTINUOUS
 62
     7
  2
*UDIM234
 70
    65
 10
0.0
 20
0.0
 30
0.0
  3
*UDIM234
  0
TEXT
  5
    B9
  8
0
  6
CONTINUOUS
 62
     7
 10
-555.216223158636
 20
101.639798166623
 30
0.0
 40
3.00000002980232
  1
35
 50
359.999999948034
 41
0.933333333333333
 72
     1
 11
-552.716223132448
 21
103.139798179269
 31
0.0
 73
     2
  0
LINE
  5
    BA
  8
0
  6
CONTINUOUS
 62
     7
 10
-561.191226315336
 20
95.4288939753261
 30
0.0
 11
-561.191226315336
 21
102.639798164368
 31
0.0
  0
LINE
  5
    BB
  8
0
  6
CONTINUOUS
 62
     7
 10
-543.691226315336
 20
100.639798164368
 30
0.0
 11
-561.191226315336
 21
100.639798164368
 31
0.0
  0
LINE
  5
    BC
  8
0
  6
CONTINUOUS
 62
     7
 10
-546.645649592543
 20
100.118853734416
 30
0.0
 11
-543.691226315336
 21
100.639798164368
 31
0.0
  0
LINE
  5
    BD
  8
0
  6
CONTINUOUS
 62
     7
 10
-543.691226315336
 20
100.639798164368
 30
0.0
 11
-546.645649592543
 21
101.160742594319
 31
0.0
  0
LINE
  5
    BE
  8
0
  6
CONTINUOUS
 62
     7
 10
-558.236803038129
 20
101.160742594319
 30
0.0
 11
-561.191226315336
 21
100.639798164368
 31
0.0
  0
LINE
  5
    BF
  8
0
  6
CONTINUOUS
 62
     7
 10
-561.191226315336
 20
100.639798164368
 30
0.0
 11
-558.236803038129
 21
100.118853734416
 31
0.0
  0
ENDBLK
  5
    C0
  8
0
  6
CONTINUOUS
 62
     7
  0
BLOCK
  5
    C1
  8
0
  6
CONTINUOUS
 62
     7
  2
*UDIM235
 70
    65
 10
0.0
 20
0.0
 30
0.0
  3
*UDIM235
  0
TEXT
  5
    C2
  8
0
  6
CONTINUOUS
 62
     7
 10
-572.716223158636
 20
101.639798166623
 30
0.0
 40
3.00000002980232
  1
35
 50
359.999999948034
 41
0.933333333333333
 72
     1
 11
-570.216223132448
 21
103.139798179269
 31
0.0
 73
     2
  0
LINE
  5
    C3
  8
0
  6
CONTINUOUS
 62
     7
 10
-578.691226315336
 20
95.4288939753261
 30
0.0
 11
-578.691226315336
 21
102.639798164368
 31
0.0
  0
LINE
  5
    C4
  8
0
  6
CONTINUOUS
 62
     7
 10
-561.191226315336
 20
100.639798164368
 30
0.0
 11
-578.691226315336
 21
100.639798164368
 31
0.0
  0
LINE
  5
    C5
  8
0
  6
CONTINUOUS
 62
     7
 10
-564.145649592543
 20
100.118853734416
 30
0.0
 11
-561.191226315336
 21
100.639798164368
 31
0.0
  0
LINE
  5
    C6
  8
0
  6
CONTINUOUS
 62
     7
 10
-561.191226315336
 20
100.639798164368
 30
0.0
 11
-564.145649592543
 21
101.160742594319
 31
0.0
  0
LINE
  5
    C7
  8
0
  6
CONTINUOUS
 62
     7
 10
-575.736803038129
 20
101.160742594319
 30
0.0
 11
-578.691226315336
 21
100.639798164368
 31
0.0
  0
LINE
  5
    C8
  8
0
  6
CONTINUOUS
 62
     7
 10
-578.691226315336
 20
100.639798164368
 30
0.0
 11
-575.736803038129
 21
100.118853734416
 31
0.0
  0
ENDBLK
  5
    C9
  8
0
  6
CONTINUOUS
 62
     7
  0
BLOCK
  5
    CA
  8
0
  6
CONTINUOUS
 62
     7
  2
*UDIM236
 70
    65
 10
0.0
 20
0.0
 30
0.0
  3
*UDIM236
  0
TEXT
  5
    CB
  8
0
  6
CONTINUOUS
 62
     7
 10
-515.918345624405
 20
96.5125932741284
 30
0.0
 40
3.00000002980232
  1
17,5
 50
359.999999948034
 41
0.933333333333333
 72
     1
 11
-510.618345570402
 21
98.0125932842493
 31
0.0
 73
     2
  0
LINE
  5
    CC
  8
0
  6
CONTINUOUS
 62
     7
 10
-521.816226315336
 20
85.8655710220318
 30
0.0
 11
-521.816226315336
 21
97.5125932693481
 31
0.0
  0
LINE
  5
    CD
  8
0
  6
CONTINUOUS
 62
     7
 10
-530.566226315336
 20
85.8655710220318
 30
0.0
 11
-530.566226315336
 21
97.5125932693481
 31
0.0
  0
LINE
  5
    CE
  8
0
  6
CONTINUOUS
 62
     7
 10
-505.318345517751
 20
95.5125932693482
 30
0.0
 11
-530.566226315336
 21
95.5125932693482
 31
0.0
  0
LINE
  5
    CF
  8
0
  6
CONTINUOUS
 62
     7
 10
-518.861803038129
 20
96.0335376992998
 30
0.0
 11
-521.816226315336
 21
95.5125932693482
 31
0.0
  0
LINE
  5
    D0
  8
0
  6
CONTINUOUS
 62
     7
 10
-521.816226315336
 20
95.5125932693482
 30
0.0
 11
-518.861803038129
 21
94.9916488393965
 31
0.0
  0
LINE
  5
    D1
  8
0
  6
CONTINUOUS
 62
     7
 10
-533.520649592543
 20
94.9916488393965
 30
0.0
 11
-530.566226315336
 21
95.5125932693482
 31
0.0
  0
LINE
  5
    D2
  8
0
  6
CONTINUOUS
 62
     7
 10
-530.566226315336
 20
95.5125932693482
 30
0.0
 11
-533.520649592543
 21
96.0335376992998
 31
0.0
  0
ENDBLK
  5
    D3
  8
0
  6
CONTINUOUS
 62
     7
  0
BLOCK
  5
    D4
  8
0
  6
CONTINUOUS
 62
     7
  2
*UDIM237
 70
    65
 10
0.0
 20
0.0
 30
0.0
  3
*UDIM237
  0
TEXT
  5
    D5
  8
0
  6
CONTINUOUS
 62
     7
 10
-556.616230813128
 20
-27.1891832316509
 30
0.0
 40
3.00000002980232
  1
140
 50
359.999999948034
 41
0.933333333333333
 72
     1
 11
-552.716230773032
 21
-25.6891832202673
 31
0.0
 73
     2
  0
LINE
  5
    D6
  8
0
  6
CONTINUOUS
 62
     7
 10
-517.441226315336
 20
3.61556339264115
 30
0.0
 11
-517.441226315336
 21
-30.1891832351685
 31
0.0
  0
LINE
  5
    D7
  8
0
  6
CONTINUOUS
 62
     7
 10
-587.441244278714
 20
1.74056720732922
 30
0.0
 11
-587.441244278714
 21
-30.1891832351685
 31
0.0
  0
LINE
  5
    D8
  8
0
  6
CONTINUOUS
 62
     7
 10
-517.441226315336
 20
-28.1891832351685
 30
0.0
 11
-587.441244278714
 21
-28.1891832351685
 31
0.0
  0
LINE
  5
    D9
  8
0
  6
CONTINUOUS
 62
     7
 10
-520.395649592543
 20
-28.7101276651201
 30
0.0
 11
-517.441226315336
 21
-28.1891832351685
 31
0.0
  0
LINE
  5
    DA
  8
0
  6
CONTINUOUS
 62
     7
 10
-517.441226315336
 20
-28.1891832351685
 30
0.0
 11
-520.395649592543
 21
-27.6682388052168
 31
0.0
  0
LINE
  5
    DB
  8
0
  6
CONTINUOUS
 62
     7
 10
-584.486821001507
 20
-27.6682388052168
 30
0.0
 11
-587.441244278714
 21
-28.1891832351685
 31
0.0
  0
LINE
  5
    DC
  8
0
  6
CONTINUOUS
 62
     7
 10
-587.441244278714
 20
-28.1891832351685
 30
0.0
 11
-584.486821001507
 21
-28.7101276651201
 31
0.0
  0
ENDBLK
  5
    DD
  8
0
  6
CONTINUOUS
 62
     7
  0
BLOCK
  5
    DE
  8
0
  6
CONTINUOUS
 62
     7
  2
*UDIM238
 70
    65
 10
0.0
 20
0.0
 30
0.0
  3
*UDIM238
  0
TEXT
  5
    DF
  8
0
  6
CONTINUOUS
 62
     7
 10
-547.866234627826
 20
-19.4659337962261
 30
0.0
 40
3.00000002980232
  1
105
 50
359.999999948034
 41
0.933333333333333
 72
     1
 11
-543.96623458773
 21
-17.9659337848425
 31
0.0
 73
     2
  0
LINE
  5
    E0
  8
0
  6
CONTINUOUS
 62
     7
 10
-517.441226315336
 20
3.61556339264115
 30
0.0
 11
-517.441226315336
 21
-22.4659337997437
 31
0.0
  0
LINE
  5
    E1
  8
0
  6
CONTINUOUS
 62
     7
 10
-569.941244278714
 20
1.74056720732922
 30
0.0
 11
-569.941244278714
 21
-22.4659337997437
 31
0.0
  0
LINE
  5
    E2
  8
0
  6
CONTINUOUS
 62
     7
 10
-517.441226315336
 20
-20.4659337997437
 30
0.0
 11
-569.941244278714
 21
-20.4659337997437
 31
0.0
  0
LINE
  5
    E3
  8
0
  6
CONTINUOUS
 62
     7
 10
-520.395649592543
 20
-20.9868782296953
 30
0.0
 11
-517.441226315336
 21
-20.4659337997437
 31
0.0
  0
LINE
  5
    E4
  8
0
  6
CONTINUOUS
 62
     7
 10
-517.441226315336
 20
-20.4659337997437
 30
0.0
 11
-520.395649592543
 21
-19.944989369792
 31
0.0
  0
LINE
  5
    E5
  8
0
  6
CONTINUOUS
 62
     7
 10
-566.986821001507
 20
-19.944989369792
 30
0.0
 11
-569.941244278714
 21
-20.4659337997437
 31
0.0
  0
LINE
  5
    E6
  8
0
  6
CONTINUOUS
 62
     7
 10
-569.941244278714
 20
-20.4659337997437
 30
0.0
 11
-566.986821001507
 21
-20.9868782296953
 31
0.0
  0
ENDBLK
  5
    E7
  8
0
  6
CONTINUOUS
 62
     7
  0
BLOCK
  5
    E8
  8
0
  6
CONTINUOUS
 62
     7
  2
*UDIM239
 70
    65
 10
0.0
 20
0.0
 30
0.0
  3
*UDIM239
  0
TEXT
  5
    E9
  8
0
  6
CONTINUOUS
 62
     7
 10
-528.966223158636
 20
-11.7426853157383
 30
0.0
 40
3.00000002980232
  1
24
 50
359.999999948034
 41
0.933333333333333
 72
     1
 11
-526.466223132448
 21
-10.242685303092
 31
0.0
 73
     2
  0
LINE
  5
    EA
  8
0
  6
CONTINUOUS
 62
     7
 10
-520.191226315336
 20
2.36556339264115
 30
0.0
 11
-520.191226315336
 21
-14.7426853179932
 31
0.0
  0
LINE
  5
    EB
  8
0
  6
CONTINUOUS
 62
     7
 10
-532.191226315336
 20
2.36556339264115
 30
0.0
 11
-532.191226315336
 21
-14.7426853179932
 31
0.0
  0
LINE
  5
    EC
  8
0
  6
CONTINUOUS
 62
     7
 10
-520.191226315336
 20
-12.7426853179932
 30
0.0
 11
-532.191226315336
 21
-12.7426853179932
 31
0.0
  0
LINE
  5
    ED
  8
0
  6
CONTINUOUS
 62
     7
 10
-523.145649592543
 20
-13.2636297479448
 30
0.0
 11
-520.191226315336
 21
-12.7426853179932
 31
0.0
  0
LINE
  5
    EE
  8
0
  6
CONTINUOUS
 62
     7
 10
-520.191226315336
 20
-12.7426853179932
 30
0.0
 11
-523.145649592543
 21
-12.2217408880415
 31
0.0
  0
LINE
  5
    EF
  8
0
  6
CONTINUOUS
 62
     7
 10
-529.236803038129
 20
-12.2217408880415
 30
0.0
 11
-532.191226315336
 21
-12.7426853179932
 31
0.0
  0
LINE
  5
    F0
  8
0
  6
CONTINUOUS
 62
     7
 10
-532.191226315336
 20
-12.7426853179932
 30
0.0
 11
-529.236803038129
 21
-13.2636297479448
 31
0.0
  0
ENDBLK
  5
    F1
  8
0
  6
CONTINUOUS
 62
     7
  0
BLOCK
  5
    F2
  8
0
  6
CONTINUOUS
 62
     7
  2
*UDIM240
 70
    65
 10
0.0
 20
0.0
 30
0.0
  3
*UDIM240
  0
TEXT
  5
    F3
  8
0
  6
CONTINUOUS
 62
     7
 10
-511.394187672136
 20
-3.88963403613496
 30
0.0
 40
3.00000002980232
  1
8
 50
359.999999948034
 41
0.933333333333334
 72
     1
 11
-510.294187659856
 21
-2.38963402222594
 31
0.0
 73
     2
  0
TEXT
  5
    F4
  8
0
  6
CONTINUOUS
 62
     7
 10
-514.54418768207
 20
-3.88963403613496
 30
0.0
 40
3.00000002980232
  1
Ø
 50
359.999999948034
 41
0.933333333333334
 72
     1
 11
-513.44418766979
 21
-2.38963402222594
 31
0.0
 73
     2
  0
TEXT
  5
    F5
  8
0
  6
CONTINUOUS
 62
     7
 10
-508.64418763836
 20
-3.88963403234679
 30
0.0
 40
3.00000002980232
  1
 C11
 50
359.999999948034
 41
0.933333333333333
 72
     1
 11
-503.344187584357
 21
-2.38963402222594
 31
0.0
 73
     2
  0
LINE
  5
    F6
  8
0
  6
CONTINUOUS
 62
     7
 10
-524.191226315336
 20
9.11556339264116
 30
0.0
 11
-524.191226315336
 21
-6.8896340371271
 31
0.0
  0
LINE
  5
    F7
  8
0
  6
CONTINUOUS
 62
     7
 10
-528.191226315336
 20
9.11556339264114
 30
0.0
 11
-528.191226315336
 21
-6.8896340371271
 31
0.0
  0
LINE
  5
    F8
  8
0
  6
CONTINUOUS
 62
     7
 10
-498.044187531706
 20
-4.8896340371271
 30
0.0
 11
-528.191226315336
 21
-4.8896340371271
 31
0.0
  0
LINE
  5
    F9
  8
0
  6
CONTINUOUS
 62
     7
 10
-521.236803038129
 20
-4.36868960717543
 30
0.0
 11
-524.191226315336
 21
-4.8896340371271
 31
0.0
  0
LINE
  5
    FA
  8
0
  6
CONTINUOUS
 62
     7
 10
-524.191226315336
 20
-4.8896340371271
 30
0.0
 11
-521.236803038129
 21
-5.41057846707876
 31
0.0
  0
LINE
  5
    FB
  8
0
  6
CONTINUOUS
 62
     7
 10
-531.145649592543
 20
-5.41057846707876
 30
0.0
 11
-528.191226315336
 21
-4.8896340371271
 31
0.0
  0
LINE
  5
    FC
  8
0
  6
CONTINUOUS
 62
     7
 10
-528.191226315336
 20
-4.8896340371271
 30
0.0
 11
-531.145649592543
 21
-4.36868960717543
 31
0.0
  0
ENDBLK
  5
    FD
  8
0
  6
CONTINUOUS
 62
     7
  0
BLOCK
  5
    FE
  8
0
  6
CONTINUOUS
 62
     7
  2
*HATCH52
 70
    65
 10
0.0
 20
0.0
 30
0.0
  3
*HATCH52
  0
LINE
  5
    FF
  8
0
  6
CONTINUOUS
 62
   210
 10
23.5807666778564
 20
74.0
 30
0.0
 11
26.0807647705078
 21
71.5
 31
0.0
  0
LINE
  5
   100
  8
0
  6
CONTINUOUS
 62
   210
 10
27.8234043121338
 20
74.0
 30
0.0
 11
30.3234024047852
 21
71.5
 31
0.0
  0
LINE
  5
   101
  8
0
  6
CONTINUOUS
 62
   210
 10
32.0660438537598
 20
74.0
 30
0.0
 11
34.5660400390625
 21
71.5
 31
0.0
  0
ENDBLK
  5
   102
  8
0
  6
CONTINUOUS
 62
     7
  0
BLOCK
  5
   103
  8
0
  6
CONTINUOUS
 62
     7
  2
*HATCH53
 70
    65
 10
0.0
 20
0.0
 30
0.0
  3
*HATCH53
  0
LINE
  5
   104
  8
0
  6
CONTINUOUS
 62
   210
 10
9.1102123260498
 20
71.5
 30
0.0
 11
13.0013122558594
 21
67.6088943481445
 31
0.0
  0
ENDBLK
  5
   105
  8
0
  6
CONTINUOUS
 62
     7
  0
BLOCK
  5
   106
  8
0
  6
CONTINUOUS
 62
     7
  2
*HATCH54
 70
    65
 10
0.0
 20
0.0
 30
0.0
  3
*HATCH54
  0
LINE
  5
   107
  8
0
  6
CONTINUOUS
 62
   210
 10
20.8751125335693
 20
93.0
 30
0.0
 11
18.0013122558594
 21
90.1261978149414
 31
0.0
  0
LINE
  5
   108
  8
0
  6
CONTINUOUS
 62
   210
 10
23.0013122558594
 20
90.8835601806641
 30
0.0
 11
20.1177539825439
 21
88.0
 31
0.0
  0
ENDBLK
  5
   109
  8
0
  6
CONTINUOUS
 62
     7
  0
BLOCK
  5
   10A
  8
0
  6
CONTINUOUS
 62
     7
  2
*HATCH55
 70
    65
 10
0.0
 20
0.0
 30
0.0
  3
*HATCH55
  0
LINE
  5
   10B
  8
0
  6
CONTINUOUS
 62
   210
 10
20.6030349731445
 20
80.0
 30
0.0
 11
18.0013122558594
 21
77.3982772827148
 31
0.0
  0
LINE
  5
   10C
  8
0
  6
CONTINUOUS
 62
   210
 10
23.0013122558594
 20
78.1556396484375
 30
0.0
 11
13.2146215438843
 21
68.3689498901367
 31
0.0
  0
LINE
  5
   10D
  8
0
  6
CONTINUOUS
 62
   210
 10
22.9879207611084
 20
73.8996047973633
 30
0.0
 11
16.5227603912354
 21
67.4344482421875
 31
0.0
  0
ENDBLK
  5
   10E
  8
0
  6
CONTINUOUS
 62
     7
  0
BLOCK
  5
   10F
  8
0
  6
CONTINUOUS
 62
     7
  2
*UDIM241
 70
    65
 10
0.0
 20
0.0
 30
0.0
  3
*UDIM241
  0
TEXT
  5
   110
  8
0
  6
CONTINUOUS
 62
     7
 10
-409.55883486718
 20
-6.14767837524414
 30
0.0
 40
3.00000002980232
  1
108
 41
0.933333333333333
 72
     1
 11
-405.658834828437
 21
-4.64767836034298
 31
0.0
 73
     2
  0
LINE
  5
   111
  8
0
  6
CONTINUOUS
 62
     7
 10
-432.383834822477
 20
7.36556625366211
 30
0.0
 11
-432.383834822477
 21
-9.14767837524414
 31
0.0
  0
LINE
  5
   112
  8
0
  6
CONTINUOUS
 62
     7
 10
-378.383835299314
 20
17.7405662415903
 30
0.0
 11
-378.383835299314
 21
-9.14767837524414
 31
0.0
  0
LINE
  5
   113
  8
0
  6
CONTINUOUS
 62
     7
 10
-432.383834822477
 20
-7.14767837524414
 30
0.0
 11
-378.383835299314
 21
-7.14767837524414
 31
0.0
  0
LINE
  5
   114
  8
0
  6
CONTINUOUS
 62
     7
 10
-429.42941154527
 20
-6.62673394529248
 30
0.0
 11
-432.383834822477
 21
-7.14767837524414
 31
0.0
  0
LINE
  5
   115
  8
0
  6
CONTINUOUS
 62
     7
 10
-432.383834822477
 20
-7.14767837524414
 30
0.0
 11
-429.42941154527
 21
-7.6686228051958
 31
0.0
  0
LINE
  5
   116
  8
0
  6
CONTINUOUS
 62
     7
 10
-381.338258576521
 20
-7.6686228051958
 30
0.0
 11
-378.383835299314
 21
-7.14767837524414
 31
0.0
  0
LINE
  5
   117
  8
0
  6
CONTINUOUS
 62
     7
 10
-378.383835299314
 20
-7.14767837524414
 30
0.0
 11
-381.338258576521
 21
-6.62673394529248
 31
0.0
  0
ENDBLK
  5
   118
  8
0
  6
CONTINUOUS
 62
     7
  0
BLOCK
  5
   119
  8
0
  6
CONTINUOUS
 62
     7
  2
*UDIM242
 70
    65
 10
0.0
 20
0.0
 30
0.0
  3
*UDIM242
  0
TEXT
  5
   11A
  8
0
  6
CONTINUOUS
 62
     7
 10
-373.183834718169
 20
-6.14767837524414
 30
0.0
 40
3.00000002980232
  1
4,5
 41
0.933333333333333
 72
     1
 11
-369.283834679426
 21
-4.64767836034298
 31
0.0
 73
     2
  0
LINE
  5
   11B
  8
0
  6
CONTINUOUS
 62
     7
 10
-376.133834822477
 20
31.3655586242676
 30
0.0
 11
-376.133834822477
 21
-9.14767837524414
 31
0.0
  0
LINE
  5
   11C
  8
0
  6
CONTINUOUS
 62
     7
 10
-378.383835299314
 20
-7.14767837524414
 30
0.0
 11
-365.383834640683
 21
-7.14767837524414
 31
0.0
  0
LINE
  5
   11D
  8
0
  6
CONTINUOUS
 62
     7
 10
-381.338258576521
 20
-7.6686228051958
 30
0.0
 11
-378.383835299314
 21
-7.14767837524414
 31
0.0
  0
LINE
  5
   11E
  8
0
  6
CONTINUOUS
 62
     7
 10
-378.383835299314
 20
-7.14767837524414
 30
0.0
 11
-381.338258576521
 21
-6.62673394529248
 31
0.0
  0
LINE
  5
   11F
  8
0
  6
CONTINUOUS
 62
     7
 10
-373.17941154527
 20
-6.62673394529248
 30
0.0
 11
-376.133834822477
 21
-7.14767837524414
 31
0.0
  0
LINE
  5
   120
  8
0
  6
CONTINUOUS
 62
     7
 10
-376.133834822477
 20
-7.14767837524414
 30
0.0
 11
-373.17941154527
 21
-7.6686228051958
 31
0.0
  0
ENDBLK
  5
   121
  8
0
  6
CONTINUOUS
 62
     7
  0
BLOCK
  5
   122
  8
0
  6
CONTINUOUS
 62
     7
  2
*UDIM243
 70
    65
 10
0.0
 20
0.0
 30
0.0
  3
*UDIM243
  0
TEXT
  5
   123
  8
0
  6
CONTINUOUS
 62
     7
 10
-440.908834465842
 20
99.4815826416016
 30
0.0
 40
3.00000002980232
  1
20
 41
0.933333333333333
 72
     1
 11
-438.408834441007
 21
100.981582656503
 31
0.0
 73
     2
  0
LINE
  5
   124
  8
0
  6
CONTINUOUS
 62
     7
 10
-432.383834822477
 20
85.1155662536621
 30
0.0
 11
-432.383834822477
 21
100.481582641602
 31
0.0
  0
LINE
  5
   125
  8
0
  6
CONTINUOUS
 62
     7
 10
-422.383834822477
 20
87.1155662536621
 30
0.0
 11
-422.383834822477
 21
100.481582641602
 31
0.0
  0
LINE
  5
   126
  8
0
  6
CONTINUOUS
 62
     7
 10
-440.908834465842
 20
98.4815826416016
 30
0.0
 11
-422.383834822477
 21
98.4815826416016
 31
0.0
  0
LINE
  5
   127
  8
0
  6
CONTINUOUS
 62
     7
 10
-429.42941154527
 20
99.0025270715532
 30
0.0
 11
-432.383834822477
 21
98.4815826416016
 31
0.0
  0
LINE
  5
   128
  8
0
  6
CONTINUOUS
 62
     7
 10
-432.383834822477
 20
98.4815826416016
 30
0.0
 11
-429.42941154527
 21
97.9606382116499
 31
0.0
  0
LINE
  5
   129
  8
0
  6
CONTINUOUS
 62
     7
 10
-425.338258099684
 20
97.9606382116499
 30
0.0
 11
-422.383834822477
 21
98.4815826416016
 31
0.0
  0
LINE
  5
   12A
  8
0
  6
CONTINUOUS
 62
     7
 10
-422.383834822477
 20
98.4815826416016
 30
0.0
 11
-425.338258099684
 21
99.0025270715532
 31
0.0
  0
ENDBLK
  5
   12B
  8
0
  6
CONTINUOUS
 62
     7
  0
BLOCK
  5
   12C
  8
0
  6
CONTINUOUS
 62
     7
  2
*UDIM244
 70
    65
 10
0.0
 20
0.0
 30
0.0
  3
*UDIM244
  0
TEXT
  5
   12D
  8
0
  6
CONTINUOUS
 62
     7
 10
-416.883834928772
 20
99.4815826416016
 30
0.0
 40
3.00000002980232
  1
5
 41
0.933333333333334
 72
     1
 11
-415.783834917844
 21
100.981582656503
 31
0.0
 73
     2
  0
LINE
  5
   12E
  8
0
  6
CONTINUOUS
 62
     7
 10
-419.883834822477
 20
87.1155662536621
 30
0.0
 11
-419.883834822477
 21
100.481582641602
 31
0.0
  0
LINE
  5
   12F
  8
0
  6
CONTINUOUS
 62
     7
 10
-422.383834822477
 20
98.4815826416016
 30
0.0
 11
-414.683834906917
 21
98.4815826416016
 31
0.0
  0
LINE
  5
   130
  8
0
  6
CONTINUOUS
 62
     7
 10
-425.338258099684
 20
97.9606382116499
 30
0.0
 11
-422.383834822477
 21
98.4815826416016
 31
0.0
  0
LINE
  5
   131
  8
0
  6
CONTINUOUS
 62
     7
 10
-422.383834822477
 20
98.4815826416016
 30
0.0
 11
-425.338258099684
 21
99.0025270715532
 31
0.0
  0
LINE
  5
   132
  8
0
  6
CONTINUOUS
 62
     7
 10
-416.92941154527
 20
99.0025270715532
 30
0.0
 11
-419.883834822477
 21
98.4815826416016
 31
0.0
  0
LINE
  5
   133
  8
0
  6
CONTINUOUS
 62
     7
 10
-419.883834822477
 20
98.4815826416016
 30
0.0
 11
-416.92941154527
 21
97.9606382116499
 31
0.0
  0
ENDBLK
  5
   134
  8
0
  6
CONTINUOUS
 62
     7
  0
BLOCK
  5
   135
  8
0
  6
CONTINUOUS
 62
     7
  2
*UDIM245
 70
    65
 10
0.0
 20
0.0
 30
0.0
  3
*UDIM245
  0
TEXT
  5
   136
  8
0
  6
CONTINUOUS
 62
     7
 10
-452.668716430656
 20
22.7655665685752
 30
0.0
 40
3.00000002980232
  1
10,25
 50
90.0
 41
0.933333333333333
 72
     1
 11
-454.168716445565
 21
29.4655666351318
 31
0.0
 73
     2
  0
LINE
  5
   137
  8
0
  6
CONTINUOUS
 62
     7
 10
-451.668716430664
 20
22.7655665685733
 30
0.0
 11
-451.668716430664
 21
44.7405662536621
 31
0.0
  0
LINE
  5
   138
  8
0
  6
CONTINUOUS
 62
     7
 10
-451.147772000712
 20
36.6611429764551
 30
0.0
 11
-451.668716430664
 21
39.6155662536621
 31
0.0
  0
LINE
  5
   139
  8
0
  6
CONTINUOUS
 62
     7
 10
-451.668716430664
 20
39.6155662536621
 30
0.0
 11
-452.189660860616
 21
36.6611429764551
 31
0.0
  0
LINE
  5
   13A
  8
0
  6
CONTINUOUS
 62
     7
 10
-452.189660860616
 20
47.6949895308691
 30
0.0
 11
-451.668716430664
 21
44.7405662536621
 31
0.0
  0
LINE
  5
   13B
  8
0
  6
CONTINUOUS
 62
     7
 10
-451.668716430664
 20
44.7405662536621
 30
0.0
 11
-451.147772000712
 21
47.6949895308691
 31
0.0
  0
ENDBLK
  5
   13C
  8
0
  6
CONTINUOUS
 62
     7
  0
BLOCK
  5
   13D
  8
0
  6
CONTINUOUS
 62
     7
  2
*UDIM246
 70
    65
 10
0.0
 20
0.0
 30
0.0
  3
*UDIM246
  0
TEXT
  5
   13E
  8
0
  6
CONTINUOUS
 62
     7
 10
-402.797894338905
 20
-15.6332817077637
 30
0.0
 40
3.00000002980232
  1
135
 41
0.933333333333333
 72
     1
 11
-398.897894300162
 21
-14.1332816928625
 31
0.0
 73
     2
  0
LINE
  5
   13F
  8
0
  6
CONTINUOUS
 62
     7
 10
-432.383834822477
 20
7.36556625366211
 30
0.0
 11
-432.383834822477
 21
-18.6332817077637
 31
0.0
  0
LINE
  5
   140
  8
0
  6
CONTINUOUS
 62
     7
 10
-364.861956269321
 20
38.6155662536621
 30
0.0
 11
-364.861956269321
 21
-18.6332817077637
 31
0.0
  0
LINE
  5
   141
  8
0
  6
CONTINUOUS
 62
     7
 10
-432.383834822477
 20
-16.6332817077637
 30
0.0
 11
-364.861956269321
 21
-16.6332817077637
 31
0.0
  0
LINE
  5
   142
  8
0
  6
CONTINUOUS
 62
     7
 10
-429.42941154527
 20
-16.112337277812
 30
0.0
 11
-432.383834822477
 21
-16.6332817077637
 31
0.0
  0
LINE
  5
   143
  8
0
  6
CONTINUOUS
 62
     7
 10
-432.383834822477
 20
-16.6332817077637
 30
0.0
 11
-429.42941154527
 21
-17.1542261377153
 31
0.0
  0
LINE
  5
   144
  8
0
  6
CONTINUOUS
 62
     7
 10
-367.816379546528
 20
-17.1542261377153
 30
0.0
 11
-364.861956269321
 21
-16.6332817077637
 31
0.0
  0
LINE
  5
   145
  8
0
  6
CONTINUOUS
 62
     7
 10
-364.861956269321
 20
-16.6332817077637
 30
0.0
 11
-367.816379546528
 21
-16.112337277812
 31
0.0
  0
ENDBLK
  5
   146
  8
0
  6
CONTINUOUS
 62
     7
  0
BLOCK
  5
   147
  8
0
  6
CONTINUOUS
 62
     7
  2
*UDIM247
 70
    65
 10
0.0
 20
0.0
 30
0.0
  3
*UDIM247
  0
TEXT
  5
   148
  8
0
  6
CONTINUOUS
 62
     7
 10
-348.2825012207
 20
36.8405662228683
 30
0.0
 40
3.00000002980232
  1
45
 50
90.0
 41
0.933333333333333
 72
     1
 11
-349.782501235604
 21
39.3405662477016
 31
0.0
 73
     2
  0
LINE
  5
   149
  8
0
  6
CONTINUOUS
 62
     7
 10
-375.258834822477
 20
28.3655662536621
 30
0.0
 11
-345.282501220703
 21
28.3655662536621
 31
0.0
  0
LINE
  5
   14A
  8
0
  6
CONTINUOUS
 62
     7
 10
-375.258834822477
 20
50.8655662536621
 30
0.0
 11
-345.282501220703
 21
50.8655662536621
 31
0.0
  0
LINE
  5
   14B
  8
0
  6
CONTINUOUS
 62
     7
 10
-347.282501220703
 20
28.3655662536621
 30
0.0
 11
-347.282501220703
 21
50.8655662536621
 31
0.0
  0
LINE
  5
   14C
  8
0
  6
CONTINUOUS
 62
     7
 10
-347.803445650655
 20
31.3199895308691
 30
0.0
 11
-347.282501220703
 21
28.3655662536621
 31
0.0
  0
LINE
  5
   14D
  8
0
  6
CONTINUOUS
 62
     7
 10
-347.282501220703
 20
28.3655662536621
 30
0.0
 11
-346.761556790751
 21
31.3199895308691
 31
0.0
  0
LINE
  5
   14E
  8
0
  6
CONTINUOUS
 62
     7
 10
-346.761556790751
 20
47.9111429764551
 30
0.0
 11
-347.282501220703
 21
50.8655662536621
 31
0.0
  0
LINE
  5
   14F
  8
0
  6
CONTINUOUS
 62
     7
 10
-347.282501220703
 20
50.8655662536621
 30
0.0
 11
-347.803445650655
 21
47.9111429764551
 31
0.0
  0
ENDBLK
  5
   150
  8
0
  6
CONTINUOUS
 62
     7
  0
BLOCK
  5
   151
  8
0
  6
CONTINUOUS
 62
     7
  2
*UDIM248
 70
    65
 10
0.0
 20
0.0
 30
0.0
  3
*UDIM248
  0
TEXT
  5
   152
  8
0
  6
CONTINUOUS
 62
     7
 10
-356.49265289306
 20
39.9453074585355
 30
0.0
 40
3.00000002980232
  1
22,5
 50
90.0
 41
0.933333333333333
 72
     1
 11
-357.992652907968
 21
45.2453075111844
 31
0.0
 73
     2
  0
LINE
  5
   153
  8
0
  6
CONTINUOUS
 62
     7
 10
-360.781165807483
 20
39.6155662536621
 30
0.0
 11
-353.492652893066
 21
39.6155662536621
 31
0.0
  0
LINE
  5
   154
  8
0
  6
CONTINUOUS
 62
     7
 10
-375.258834822477
 20
50.8655662536621
 30
0.0
 11
-353.492652893066
 21
50.8655662536621
 31
0.0
  0
LINE
  5
   155
  8
0
  6
CONTINUOUS
 62
     7
 10
-355.492652893066
 20
39.6155662536621
 30
0.0
 11
-355.492652893066
 21
50.8655662536621
 31
0.0
  0
LINE
  5
   156
  8
0
  6
CONTINUOUS
 62
     7
 10
-354.971708463115
 20
36.6611429764551
 30
0.0
 11
-355.492652893066
 21
39.6155662536621
 31
0.0
  0
LINE
  5
   157
  8
0
  6
CONTINUOUS
 62
     7
 10
-355.492652893066
 20
39.6155662536621
 30
0.0
 11
-356.013597323018
 21
36.6611429764551
 31
0.0
  0
LINE
  5
   158
  8
0
  6
CONTINUOUS
 62
     7
 10
-356.013597323018
 20
53.8199895308691
 30
0.0
 11
-355.492652893066
 21
50.8655662536621
 31
0.0
  0
LINE
  5
   159
  8
0
  6
CONTINUOUS
 62
     7
 10
-355.492652893066
 20
50.8655662536621
 30
0.0
 11
-354.971708463115
 21
53.8199895308691
 31
0.0
  0
ENDBLK
  5
   15A
  8
0
  6
CONTINUOUS
 62
     7
  0
ENDSEC
  0
SECTION
  2
ENTITIES
  0
LINE
  5
   15B
  8
0
  6
CONTINUOUS
 62
     7
 10
-534.941226315336
 20
76.3655672073364
 30
0.0
 11
-569.941226315322
 21
76.3655672073364
 31
0.0
  0
LINE
  5
   15C
  8
0
  6
CONTINUOUS
 62
     7
 10
-534.941226315336
 20
15.7405786514263
 30
0.0
 11
-569.941226315336
 21
15.7405786514263
 31
0.0
  0
LINE
  5
   15D
  8
0
  6
CONTINUOUS
 62
     7
 10
-534.941226315336
 20
76.2405672073364
 30
0.0
 11
-569.941226315322
 21
76.2405672073364
 31
0.0
  0
LINE
  5
   15E
  8
0
  6
CONTINUOUS
 62
     7
 10
-569.441226315336
 20
16.2405791282635
 30
0.0
 11
-569.941226315336
 21
16.2405791282635
 31
0.0
  0
LINE
  5
   15F
  8
0
  6
CONTINUOUS
 62
     7
 10
-534.941226315336
 20
16.2405786514263
 30
0.0
 11
-543.316226315336
 21
16.2405786514263
 31
0.0
  0
LINE
  5
   160
  8
0
  6
CONTINUOUS
 62
     7
 10
-544.066226315336
 20
16.2405786881061
 30
0.0
 11
-569.941226315336
 21
16.2405786881061
 31
0.0
  0
LINE
  5
   161
  8
0
  6
DASHDOT
 62
     7
 10
-543.691226315336
 20
-12.9373891458201
 30
0.0
 11
-543.691226315336
 21
93.9231549305957
 31
0.0
  0
LINE
  5
   162
  8
0
  6
CONTINUOUS
 62
     7
 10
-543.316226315336
 20
16.1155786514263
 30
0.0
 11
-543.316226315336
 21
16.2405786514263
 31
0.0
  0
LINE
  5
   163
  8
0
  6
CONTINUOUS
 62
     7
 10
-544.066226315336
 20
16.1155786514263
 30
0.0
 11
-544.066226315336
 21
16.2405786514263
 31
0.0
  0
ARC
  5
   164
  8
0
  6
CONTINUOUS
 62
     7
 10
-543.691269167169
 20
17.8656775209367
 30
0.0
 40
1.37489930370096
 50
152.967149289834
 51
387.032850606235
  0
ARC
  5
   165
  8
0
  6
CONTINUOUS
 62
     7
 10
-543.691245633807
 20
16.1155641949591
 30
0.0
 40
0.37497169829528
 50
179.998288849771
 51
360.003191354729
  0
LINE
  5
   166
  8
0
  6
DASHDOT
 62
     7
 10
-541.684296578671
 20
17.8656775209367
 30
0.0
 11
-545.512135526856
 21
17.8656775209367
 31
0.0
  0
LINE
  5
   167
  8
0
  6
DASHDOT
 62
     7
 10
-542.919644602858
 20
16.1155641949591
 30
0.0
 11
-544.381183110347
 21
16.1155641949591
 31
0.0
  0
LINE
  5
   168
  8
0
  6
CONTINUOUS
 62
     7
 10
-517.441226315336
 20
4.61556339264115
 30
0.0
 11
-517.441226315336
 21
18.7405710220318
 31
0.0
  0
LINE
  5
   169
  8
0
  6
CONTINUOUS
 62
     7
 10
-538.316226315336
 20
30.6460816814326
 30
0.0
 11
-538.316226315336
 21
36.6782237473469
 31
0.0
  0
LINE
  5
   16A
  8
0
  6
CONTINUOUS
 62
     7
 10
-549.066226315336
 20
30.6460816814326
 30
0.0
 11
-549.066226315336
 21
36.6782237473469
 31
0.0
  0
LINE
  5
   16B
  8
0
  6
CONTINUOUS
 62
     7
 10
-569.941226315322
 20
14.8655671988585
 30
0.0
 11
-569.941226315322
 21
18.7405710220318
 31
0.0
  0
LINE
  5
   16C
  8
0
  6
CONTINUOUS
 62
     7
 10
-534.591231198148
 20
47.8655633926372
 30
0.0
 11
-534.591231198148
 21
48.1155633926372
 31
0.0
  0
LINE
  5
   16D
  8
0
  6
CONTINUOUS
 62
     7
 10
-538.316226315336
 20
36.6782237473469
 30
0.0
 11
-549.066226315336
 21
36.6782237473469
 31
0.0
  0
LINE
  5
   16E
  8
0
  6
CONTINUOUS
 62
     7
 10
-538.316226315336
 20
33.6199909945385
 30
0.0
 11
-549.066226315336
 21
33.6199909945385
 31
0.0
  0
LINE
  5
   16F
  8
0
  6
CONTINUOUS
 62
     7
 10
-538.316226315336
 20
30.6460816814326
 30
0.0
 11
-549.066226315336
 21
30.6460816814326
 31
0.0
  0
LINE
  5
   170
  8
0
  6
DASHDOT
 62
     5
 10
-510.560910915989
 20
44.7405710220318
 30
0.0
 11
-613.059059827336
 21
44.7405710220318
 31
0.0
  0
LINE
  5
   171
  8
0
  6
CONTINUOUS
 62
     7
 10
-569.941226315322
 20
70.7405710220318
 30
0.0
 11
-569.941226315322
 21
76.8655672158144
 31
0.0
  0
LINE
  5
   172
  8
0
  6
CONTINUOUS
 62
     7
 10
-517.441226315336
 20
70.7405710220318
 30
0.0
 11
-517.441226315336
 21
87.1155710220318
 31
0.0
  0
LINE
  5
   173
  8
0
  6
CONTINUOUS
 62
     3
 10
-534.941226315336
 20
76.3655710220357
 30
0.0
 11
-569.44122496927
 21
76.3655710220357
 31
0.0
  0
LINE
  5
   174
  8
0
  6
CONTINUOUS
 62
     3
 10
-534.941226315336
 20
89.6155672073364
 30
0.0
 11
-569.682334627413
 21
89.6155672073364
 31
0.0
  0
LINE
  5
   175
  8
0
  6
CONTINUOUS
 62
     3
 10
-535.716233001977
 20
76.8655672073364
 30
0.0
 11
-535.716233001977
 21
89.4602403640747
 31
0.0
  0
LINE
  5
   176
  8
0
  6
CONTINUOUS
 62
     3
 10
-537.516232239038
 20
76.8655672073364
 30
0.0
 11
-537.516232239038
 21
89.4602403640747
 31
0.0
  0
LINE
  5
   177
  8
0
  6
CONTINUOUS
 62
     3
 10
-539.316233383447
 20
76.8655672073364
 30
0.0
 11
-539.316233383447
 21
89.4602403640747
 31
0.0
  0
LINE
  5
   178
  8
0
  6
CONTINUOUS
 62
     3
 10
-541.116232620507
 20
76.8655672073364
 30
0.0
 11
-541.116232620507
 21
89.4602403640747
 31
0.0
  0
LINE
  5
   179
  8
0
  6
CONTINUOUS
 62
     3
 10
-542.916233764916
 20
76.8655672073364
 30
0.0
 11
-542.916233764916
 21
89.4602403640747
 31
0.0
  0
LINE
  5
   17A
  8
0
  6
CONTINUOUS
 62
     3
 10
-544.716233001977
 20
76.8655672073364
 30
0.0
 11
-544.716233001977
 21
89.4602403640747
 31
0.0
  0
LINE
  5
   17B
  8
0
  6
CONTINUOUS
 62
     3
 10
-546.516234146386
 20
76.8655672073364
 30
0.0
 11
-546.516234146386
 21
89.4602403640747
 31
0.0
  0
LINE
  5
   17C
  8
0
  6
CONTINUOUS
 62
     3
 10
-548.316233383447
 20
76.8655672073364
 30
0.0
 11
-548.316233383447
 21
89.4602403640747
 31
0.0
  0
LINE
  5
   17D
  8
0
  6
CONTINUOUS
 62
     3
 10
-559.216233001977
 20
76.8655672073364
 30
0.0
 11
-559.216233001977
 21
89.4602403640747
 31
0.0
  0
LINE
  5
   17E
  8
0
  6
CONTINUOUS
 62
     3
 10
-534.941226315336
 20
76.8655710549496
 30
0.0
 11
-569.44122496927
 21
76.8655710549496
 31
0.0
  0
LINE
  5
   17F
  8
0
  6
CONTINUOUS
 62
     3
 10
-557.416233764916
 20
76.8655672073364
 30
0.0
 11
-557.416233764916
 21
89.4602403640747
 31
0.0
  0
LINE
  5
   180
  8
0
  6
CONTINUOUS
 62
     3
 10
-555.616232620507
 20
76.8655672073364
 30
0.0
 11
-555.616232620507
 21
89.4602403640747
 31
0.0
  0
LINE
  5
   181
  8
0
  6
CONTINUOUS
 62
     3
 10
-553.816233383447
 20
76.8655672073364
 30
0.0
 11
-553.816233383447
 21
89.4602403640747
 31
0.0
  0
LINE
  5
   182
  8
0
  6
CONTINUOUS
 62
     3
 10
-552.016233383447
 20
76.8655672073364
 30
0.0
 11
-552.016233383447
 21
89.4602403640747
 31
0.0
  0
LINE
  5
   183
  8
0
  6
CONTINUOUS
 62
     3
 10
-550.216233383447
 20
76.8655672073364
 30
0.0
 11
-550.216233383447
 21
89.4602403640747
 31
0.0
  0
LINE
  5
   184
  8
0
  6
CONTINUOUS
 62
     3
 10
-561.016233001977
 20
76.8655672073364
 30
0.0
 11
-561.016233001977
 21
89.4602403640747
 31
0.0
  0
LINE
  5
   185
  8
0
  6
CONTINUOUS
 62
     3
 10
-562.816233001977
 20
76.8655672073364
 30
0.0
 11
-562.816233001977
 21
89.4602403640747
 31
0.0
  0
LINE
  5
   186
  8
0
  6
CONTINUOUS
 62
     3
 10
-564.616233001977
 20
76.8655672073364
 30
0.0
 11
-564.616233001977
 21
89.4602403640747
 31
0.0
  0
LINE
  5
   187
  8
0
  6
CONTINUOUS
 62
     3
 10
-566.416233001977
 20
76.8655672073364
 30
0.0
 11
-566.416233001977
 21
89.4602403640747
 31
0.0
  0
LINE
  5
   188
  8
0
  6
CONTINUOUS
 62
     3
 10
-568.216233001977
 20
76.8655672073364
 30
0.0
 11
-568.216233001977
 21
89.6155672073364
 31
0.0
  0
LINE
  5
   189
  8
0
  6
CONTINUOUS
 62
     3
 10
-569.941218573747
 20
88.9905729878214
 30
0.0
 11
-569.682334627413
 21
89.6155672073364
 31
0.0
  0
LINE
  5
   18A
  8
0
  6
CONTINUOUS
 62
     3
 10
-569.941244278714
 20
76.8655672073437
 30
0.0
 11
-569.941244278714
 21
88.9905672073437
 31
0.0
  0
LINE
  5
   18B
  8
0
  6
CONTINUOUS
 62
     3
 10
-569.941221167069
 20
76.865567215893
 30
0.0
 11
-569.441224981741
 21
76.8655748452875
 31
0.0
  0
LINE
  5
   18C
  8
0
  6
CONTINUOUS
 62
     3
 10
-569.44122496927
 20
76.3655748367309
 30
0.0
 11
-569.44122496927
 21
76.8655748367309
 31
0.0
  0
LINE
  5
   18D
  8
0
  6
CONTINUOUS
 62
     3
 10
-534.941226315336
 20
15.3655633926372
 30
0.0
 11
-569.44122496927
 21
15.3655633926372
 31
0.0
  0
LINE
  5
   18E
  8
0
  6
CONTINUOUS
 62
     3
 10
-534.941226315336
 20
2.1155672073365
 30
0.0
 11
-569.682334627413
 21
2.1155672073365
 31
0.0
  0
LINE
  5
   18F
  8
0
  6
CONTINUOUS
 62
     3
 10
-535.716233001977
 20
2.27089405059822
 30
0.0
 11
-535.716233001977
 21
14.8655672073365
 31
0.0
  0
LINE
  5
   190
  8
0
  6
CONTINUOUS
 62
     3
 10
-537.516232239038
 20
2.27089405059822
 30
0.0
 11
-537.516232239038
 21
14.8655672073365
 31
0.0
  0
LINE
  5
   191
  8
0
  6
CONTINUOUS
 62
     3
 10
-539.316233383447
 20
2.27089405059822
 30
0.0
 11
-539.316233383447
 21
14.8655672073365
 31
0.0
  0
LINE
  5
   192
  8
0
  6
CONTINUOUS
 62
     3
 10
-541.116232620507
 20
2.27089405059822
 30
0.0
 11
-541.116232620507
 21
14.8655672073365
 31
0.0
  0
LINE
  5
   193
  8
0
  6
CONTINUOUS
 62
     3
 10
-542.916233764916
 20
2.27089405059822
 30
0.0
 11
-542.916233764916
 21
14.8655672073365
 31
0.0
  0
LINE
  5
   194
  8
0
  6
CONTINUOUS
 62
     3
 10
-544.716233001977
 20
2.27089405059822
 30
0.0
 11
-544.716233001977
 21
14.8655672073365
 31
0.0
  0
LINE
  5
   195
  8
0
  6
CONTINUOUS
 62
     3
 10
-546.516234146386
 20
2.27089405059822
 30
0.0
 11
-546.516234146386
 21
14.8655672073365
 31
0.0
  0
LINE
  5
   196
  8
0
  6
CONTINUOUS
 62
     3
 10
-548.316233383447
 20
2.27089405059822
 30
0.0
 11
-548.316233383447
 21
14.8655672073365
 31
0.0
  0
LINE
  5
   197
  8
0
  6
CONTINUOUS
 62
     3
 10
-559.216233001977
 20
2.27089405059822
 30
0.0
 11
-559.216233001977
 21
14.8655672073365
 31
0.0
  0
LINE
  5
   198
  8
0
  6
CONTINUOUS
 62
     3
 10
-534.941226315336
 20
14.8655633597233
 30
0.0
 11
-569.44122496927
 21
14.8655633597233
 31
0.0
  0
LINE
  5
   199
  8
0
  6
CONTINUOUS
 62
     3
 10
-557.416233764916
 20
2.27089405059822
 30
0.0
 11
-557.416233764916
 21
14.8655672073365
 31
0.0
  0
LINE
  5
   19A
  8
0
  6
CONTINUOUS
 62
     3
 10
-555.616232620507
 20
2.27089405059822
 30
0.0
 11
-555.616232620507
 21
14.8655672073365
 31
0.0
  0
LINE
  5
   19B
  8
0
  6
CONTINUOUS
 62
     3
 10
-553.816233383447
 20
2.27089405059822
 30
0.0
 11
-553.816233383447
 21
14.8655672073365
 31
0.0
  0
LINE
  5
   19C
  8
0
  6
CONTINUOUS
 62
     3
 10
-552.016233383447
 20
2.27089405059822
 30
0.0
 11
-552.016233383447
 21
14.8655672073365
 31
0.0
  0
LINE
  5
   19D
  8
0
  6
CONTINUOUS
 62
     3
 10
-550.216233383447
 20
2.27089405059822
 30
0.0
 11
-550.216233383447
 21
14.8655672073365
 31
0.0
  0
LINE
  5
   19E
  8
0
  6
CONTINUOUS
 62
     3
 10
-561.016233001977
 20
2.27089405059822
 30
0.0
 11
-561.016233001977
 21
14.8655672073365
 31
0.0
  0
LINE
  5
   19F
  8
0
  6
CONTINUOUS
 62
     3
 10
-562.816233001977
 20
2.27089405059822
 30
0.0
 11
-562.816233001977
 21
14.8655672073365
 31
0.0
  0
LINE
  5
   1A0
  8
0
  6
CONTINUOUS
 62
     3
 10
-564.616233001977
 20
2.27089405059822
 30
0.0
 11
-564.616233001977
 21
14.8655672073365
 31
0.0
  0
LINE
  5
   1A1
  8
0
  6
CONTINUOUS
 62
     3
 10
-566.416233001977
 20
2.27089405059822
 30
0.0
 11
-566.416233001977
 21
14.8655672073365
 31
0.0
  0
LINE
  5
   1A2
  8
0
  6
CONTINUOUS
 62
     3
 10
-568.216233001977
 20
2.1155672073365
 30
0.0
 11
-568.216233001977
 21
14.8655672073365
 31
0.0
  0
LINE
  5
   1A3
  8
0
  6
CONTINUOUS
 62
     3
 10
-569.682334627413
 20
2.1155672073365
 30
0.0
 11
-569.941218573747
 21
2.74056142685145
 31
0.0
  0
LINE
  5
   1A4
  8
0
  6
CONTINUOUS
 62
     3
 10
-569.941244278714
 20
2.74056720732922
 30
0.0
 11
-569.941244278714
 21
14.8655672073292
 31
0.0
  0
LINE
  5
   1A5
  8
0
  6
CONTINUOUS
 62
     3
 10
-569.441224981597
 20
14.8655595693854
 30
0.0
 11
-569.941221166925
 21
14.8655671987799
 31
0.0
  0
LINE
  5
   1A6
  8
0
  6
CONTINUOUS
 62
     3
 10
-569.44122496927
 20
14.865559577942
 30
0.0
 11
-569.44122496927
 21
15.365559577942
 31
0.0
  0
LINE
  5
   1A7
  8
0
  6
CONTINUOUS
 62
   210
 10
-517.441218685941
 20
50.8655633926372
 30
0.0
 11
-569.941218685941
 21
50.8655633926372
 31
0.0
  0
LINE
  5
   1A8
  8
0
  6
CONTINUOUS
 62
   210
 10
-517.691218685941
 20
70.9905710220318
 30
0.0
 11
-569.691218685941
 21
70.9905710220318
 31
0.0
  0
LINE
  5
   1A9
  8
0
  6
CONTINUOUS
 62
   210
 10
-517.691218685941
 20
18.4905710220318
 30
0.0
 11
-569.691218685941
 21
18.4905710220318
 31
0.0
  0
LINE
  5
   1AA
  8
0
  6
CONTINUOUS
 62
   210
 10
-517.441218685941
 20
28.3655710220318
 30
0.0
 11
-569.941218685941
 21
28.3655710220318
 31
0.0
  0
LINE
  5
   1AB
  8
0
  6
CONTINUOUS
 62
   210
 10
-569.941218685941
 20
18.7405710220318
 30
0.0
 11
-569.941218685941
 21
70.7405710220318
 31
0.0
  0
LINE
  5
   1AC
  8
0
  6
CONTINUOUS
 62
   210
 10
-517.441218685941
 20
18.7405710220318
 30
0.0
 11
-517.441218685941
 21
70.7405710220318
 31
0.0
  0
LINE
  5
   1AD
  8
0
  6
CONTINUOUS
 62
   210
 10
-538.316226315336
 20
29.8655710220318
 30
0.0
 11
-538.316226315336
 21
49.3655633926372
 31
0.0
  0
LINE
  5
   1AE
  8
0
  6
CONTINUOUS
 62
   210
 10
-549.066226315336
 20
29.8655710220318
 30
0.0
 11
-549.066226315336
 21
49.3655633926372
 31
0.0
  0
LINE
  5
   1AF
  8
0
  6
CONTINUOUS
 62
   210
 10
-538.566226315336
 20
29.6155710220318
 30
0.0
 11
-548.816226315336
 21
29.6155710220318
 31
0.0
  0
LINE
  5
   1B0
  8
0
  6
CONTINUOUS
 62
   210
 10
-538.566226315336
 20
29.8835201263409
 30
0.0
 11
-548.816226315336
 21
29.8835201263409
 31
0.0
  0
LINE
  5
   1B1
  8
0
  6
CONTINUOUS
 62
   210
 10
-538.566226315336
 20
49.4392442703228
 30
0.0
 11
-548.816226315336
 21
49.4392442703228
 31
0.0
  0
LINE
  5
   1B2
  8
0
  6
CONTINUOUS
 62
   210
 10
-538.566226315336
 20
49.6155633926372
 30
0.0
 11
-548.816226315336
 21
49.6155633926372
 31
0.0
  0
CIRCLE
  5
   1B3
  8
0
  6
CONTINUOUS
 62
   210
 10
-526.191440654754
 20
67.8657875440402
 30
0.0
 40
2.12470561496198
  0
CIRCLE
  5
   1B4
  8
0
  6
CONTINUOUS
 62
   210
 10
-561.191218976215
 20
67.8654868510607
 30
0.0
 40
2.12506419908317
  0
ARC
  5
   1B5
  8
0
  6
CONTINUOUS
 62
   210
 10
-569.691218685941
 20
70.7405710220318
 30
0.0
 40
0.25
 50
89.9999999480344
 51
179.999999948034
  0
ARC
  5
   1B6
  8
0
  6
CONTINUOUS
 62
   210
 10
-517.691218685941
 20
70.7405710220318
 30
0.0
 40
0.25
 50
359.999999948034
 51
449.999999948034
  0
ARC
  5
   1B7
  8
0
  6
CONTINUOUS
 62
   210
 10
-517.691218685941
 20
18.7405710220318
 30
0.0
 40
0.25
 50
269.999999948034
 51
359.999999948034
  0
ARC
  5
   1B8
  8
0
  6
CONTINUOUS
 62
   210
 10
-569.691218685941
 20
18.7405710220318
 30
0.0
 40
0.25
 50
179.999999948034
 51
269.999999948034
  0
LINE
  5
   1B9
  8
0
  6
CONTINUOUS
 62
   210
 10
-569.94121868594
 20
18.7405710220318
 30
0.0
 11
-569.94121868594
 21
70.7405633926372
 31
0.0
  0
LINE
  5
   1BA
  8
0
  6
CONTINUOUS
 62
   210
 10
-517.441226315336
 20
18.7405710220318
 30
0.0
 11
-517.441226315336
 21
70.7405710220318
 31
0.0
  0
LINE
  5
   1BB
  8
0
  6
CONTINUOUS
 62
   210
 10
-517.441226315336
 20
46.8655633926372
 30
0.0
 11
-538.316226315336
 21
46.8655633926372
 31
0.0
  0
LINE
  5
   1BC
  8
0
  6
CONTINUOUS
 62
   210
 10
-549.066230338649
 20
46.8655633926372
 30
0.0
 11
-569.889442008571
 21
46.8655633926372
 31
0.0
  0
LINE
  5
   1BD
  8
0
  6
CONTINUOUS
 62
   210
 10
-549.066226315336
 20
47.3655633926372
 30
0.0
 11
-569.889437985258
 21
47.3655633926372
 31
0.0
  0
LINE
  5
   1BE
  8
0
  6
CONTINUOUS
 62
   210
 10
-517.441226315336
 20
47.3655633926372
 30
0.0
 11
-538.316226315336
 21
47.3655633926372
 31
0.0
  0
LINE
  5
   1BF
  8
0
  6
CONTINUOUS
 62
   210
 10
-517.441226315336
 20
31.8655633926372
 30
0.0
 11
-538.316226315336
 21
31.8655633926372
 31
0.0
  0
LINE
  5
   1C0
  8
0
  6
CONTINUOUS
 62
   210
 10
-549.066230338649
 20
31.8655633926372
 30
0.0
 11
-569.94121868594
 21
31.8655633926372
 31
0.0
  0
LINE
  5
   1C1
  8
0
  6
CONTINUOUS
 62
   210
 10
-549.066226315336
 20
32.3655633926372
 30
0.0
 11
-569.94121868594
 21
32.3655633926372
 31
0.0
  0
LINE
  5
   1C2
  8
0
  6
CONTINUOUS
 62
   210
 10
-517.441226315336
 20
32.3655633926372
 30
0.0
 11
-538.316226315336
 21
32.3655633926372
 31
0.0
  0
LINE
  5
   1C3
  8
0
  6
CONTINUOUS
 62
   210
 10
-552.566226315336
 20
45.0780633926372
 30
0.0
 11
-553.066226315336
 21
45.0780633926372
 31
0.0
  0
LINE
  5
   1C4
  8
0
  6
CONTINUOUS
 62
   210
 10
-552.566226315336
 20
42.1530633926372
 30
0.0
 11
-553.066226315336
 21
42.1530633926372
 31
0.0
  0
LINE
  5
   1C5
  8
0
  6
CONTINUOUS
 62
   210
 10
-552.566226315336
 20
42.1530633926372
 30
0.0
 11
-552.566226315336
 21
45.0780633926372
 31
0.0
  0
LINE
  5
   1C6
  8
0
  6
CONTINUOUS
 62
   210
 10
-553.066226315336
 20
42.1530633926372
 30
0.0
 11
-553.066226315336
 21
45.0780633926372
 31
0.0
  0
CIRCLE
  5
   1C7
  8
0
  6
CONTINUOUS
 62
   210
 10
-552.816226315336
 20
35.6155710220318
 30
0.0
 40
1.4625
  0
CIRCLE
  5
   1C8
  8
0
  6
CONTINUOUS
 62
   210
 10
-552.816226315336
 20
35.6155710220318
 30
0.0
 40
0.9625
  0
INSERT
  5
   1C9
  8
255
  6
CONTINUOUS
 62
   210
  2
ON-OFF
 10
-535.691226315336
 20
43.6155633926372
 30
0.0
 41
0.5
 42
0.5
 50
359.999999792138
 43
0.5
  0
LINE
  5
   1CA
  8
0
  6
CONTINUOUS
 62
   210
 10
-550.191226315336
 20
47.3655633926372
 30
0.0
 11
-550.191226315336
 21
50.8655633926372
 31
0.0
  0
LINE
  5
   1CB
  8
0
  6
CONTINUOUS
 62
   210
 10
-537.191226315336
 20
47.3655633926372
 30
0.0
 11
-537.191226315336
 21
50.8655633926372
 31
0.0
  0
LINE
  5
   1CC
  8
0
  6
CONTINUOUS
 62
   210
 10
-537.191226315336
 20
28.3655710220318
 30
0.0
 11
-537.191226315336
 21
31.8655633926372
 31
0.0
  0
LINE
  5
   1CD
  8
0
  6
CONTINUOUS
 62
   210
 10
-550.191226315336
 20
28.3655710220318
 30
0.0
 11
-550.191226315336
 21
31.8655633926372
 31
0.0
  0
LINE
  5
   1CE
  8
0
  6
CONTINUOUS
 62
   210
 10
-550.691226315336
 20
47.3655633926372
 30
0.0
 11
-550.691226315336
 21
50.8655633926372
 31
0.0
  0
LINE
  5
   1CF
  8
0
  6
CONTINUOUS
 62
   210
 10
-536.691226315336
 20
47.3655633926372
 30
0.0
 11
-536.691226315336
 21
50.8655633926372
 31
0.0
  0
LINE
  5
   1D0
  8
0
  6
CONTINUOUS
 62
   210
 10
-517.441226315336
 20
47.8655633926372
 30
0.0
 11
-536.691226315336
 21
47.8655633926372
 31
0.0
  0
LINE
  5
   1D1
  8
0
  6
CONTINUOUS
 62
   210
 10
-550.691226315336
 20
47.8655633926372
 30
0.0
 11
-569.94121868594
 21
47.8655633926372
 31
0.0
  0
LINE
  5
   1D2
  8
0
  6
DASHDOT
 62
   210
 10
-561.191218976215
 20
64.7404226519776
 30
0.0
 11
-561.191218976215
 21
70.9905510501439
 31
0.0
  0
LINE
  5
   1D3
  8
0
  6
DASHDOT
 62
   210
 10
-558.066154777132
 20
67.8654868510607
 30
0.0
 11
-564.316283175298
 21
67.8654868510607
 31
0.0
  0
LINE
  5
   1D4
  8
0
  6
DASHDOT
 62
   210
 10
-526.191440654754
 20
64.7410819290782
 30
0.0
 11
-526.191440654754
 21
70.9904931590021
 31
0.0
  0
LINE
  5
   1D5
  8
0
  6
DASHDOT
 62
   210
 10
-523.066735039792
 20
67.8657875440402
 30
0.0
 11
-529.316146269716
 21
67.8657875440402
 31
0.0
  0
LINE
  5
   1D6
  8
0
  6
CONTINUOUS
 62
   210
 10
-525.941239666655
 20
29.115544125627
 30
0.0
 11
-525.94123356314
 21
31.1155441255869
 31
0.0
  0
LINE
  5
   1D7
  8
0
  6
CONTINUOUS
 62
   210
 10
-525.69123934833
 20
28.8655433654453
 30
0.0
 11
-520.19123934833
 21
28.8655503590553
 31
0.0
  0
LINE
  5
   1D8
  8
0
  6
CONTINUOUS
 62
   210
 10
-519.94123966661
 20
29.1155495967684
 30
0.0
 11
-519.941233563095
 21
31.1155495967283
 31
0.0
  0
LINE
  5
   1D9
  8
0
  6
CONTINUOUS
 62
   210
 10
-525.691233874586
 20
31.3655433654543
 30
0.0
 11
-520.191233874586
 21
31.3655503590643
 31
0.0
  0
ARC
  5
   1DA
  8
0
  6
CONTINUOUS
 62
   210
 10
-538.566226315336
 20
49.3655633926372
 30
0.0
 40
0.25
 50
359.999999948034
 51
449.999999948034
  0
ARC
  5
   1DB
  8
0
  6
CONTINUOUS
 62
   210
 10
-538.566226315336
 20
29.8655710220318
 30
0.0
 40
0.25
 50
269.999999948034
 51
359.999999948034
  0
ARC
  5
   1DC
  8
0
  6
CONTINUOUS
 62
   210
 10
-548.816226315336
 20
29.8655710220318
 30
0.0
 40
0.25
 50
179.999999948034
 51
269.999999948034
  0
ARC
  5
   1DD
  8
0
  6
CONTINUOUS
 62
   210
 10
-548.816226315336
 20
49.3655633926372
 30
0.0
 40
0.25
 50
89.9999999480344
 51
179.999999948034
  0
ARC
  5
   1DE
  8
0
  6
CONTINUOUS
 62
   210
 10
-538.566226315336
 20
49.1892442703228
 30
0.0
 40
0.25
 50
359.999999948034
 51
449.999999948034
  0
ARC
  5
   1DF
  8
0
  6
CONTINUOUS
 62
   210
 10
-538.566226315336
 20
30.1335201263409
 30
0.0
 40
0.25
 50
269.999999948034
 51
359.999999948034
  0
ARC
  5
   1E0
  8
0
  6
CONTINUOUS
 62
   210
 10
-548.816226315336
 20
30.1335201263409
 30
0.0
 40
0.25
 50
179.999999948034
 51
269.999999948034
  0
ARC
  5
   1E1
  8
0
  6
CONTINUOUS
 62
   210
 10
-548.816226315336
 20
49.1892442703228
 30
0.0
 40
0.25
 50
89.9999999480344
 51
179.999999948034
  0
ARC
  5
   1E2
  8
0
  6
CONTINUOUS
 62
   210
 10
-520.191233563094
 20
31.1155503590645
 30
0.0
 40
0.25
 50
359.999825095202
 51
449.999999948034
  0
ARC
  5
   1E3
  8
0
  6
CONTINUOUS
 62
   210
 10
-520.191239666609
 20
29.1155503590551
 30
0.0
 40
0.25
 50
270.000072803368
 51
359.999825095202
  0
ARC
  5
   1E4
  8
0
  6
CONTINUOUS
 62
   210
 10
-525.691239666656
 20
29.1155433654451
 30
0.0
 40
0.25
 50
179.999825095202
 51
270.000072803368
  0
ARC
  5
   1E5
  8
0
  6
CONTINUOUS
 62
   210
 10
-525.691233563141
 20
31.1155433654545
 30
0.0
 40
0.25
 50
89.9999999480344
 51
179.999825095202
  0
LINE
  5
   1E6
  8
0
  6
CONTINUOUS
 62
     3
 10
-587.441218573747
 20
88.9905729878214
 30
0.0
 11
-587.182334627413
 21
89.6155672073364
 31
0.0
  0
LINE
  5
   1E7
  8
0
  6
CONTINUOUS
 62
     3
 10
-572.44121868594
 20
89.6155672073364
 30
0.0
 11
-587.182334627413
 21
89.6155672073364
 31
0.0
  0
LINE
  5
   1E8
  8
0
  6
CONTINUOUS
 62
     3
 10
-587.441244278714
 20
76.8655672073437
 30
0.0
 11
-587.441244278714
 21
88.9905672073437
 31
0.0
  0
LINE
  5
   1E9
  8
0
  6
CONTINUOUS
 62
     3
 10
-587.441221167103
 20
76.865567215893
 30
0.0
 11
-586.941224981775
 21
76.8655748452875
 31
0.0
  0
LINE
  5
   1EA
  8
0
  6
CONTINUOUS
 62
     3
 10
-586.94122496927
 20
76.3655748367309
 30
0.0
 11
-586.94122496927
 21
76.8655748367309
 31
0.0
  0
LINE
  5
   1EB
  8
0
  6
CONTINUOUS
 62
     3
 10
-572.44121868594
 20
76.3655710220357
 30
0.0
 11
-586.94122496927
 21
76.3655710220357
 31
0.0
  0
LINE
  5
   1EC
  8
0
  6
CONTINUOUS
 62
     7
 10
-587.441226315322
 20
70.7405710220318
 30
0.0
 11
-587.441226315322
 21
76.8655672158144
 31
0.0
  0
ARC
  5
   1ED
  8
0
  6
CONTINUOUS
 62
   210
 10
-587.191218685941
 20
70.7405710220318
 30
0.0
 40
0.25
 50
89.9999999480344
 51
179.999999948034
  0
LINE
  5
   1EE
  8
0
  6
CONTINUOUS
 62
   210
 10
-587.44121868594
 20
18.7405710220318
 30
0.0
 11
-587.44121868594
 21
70.7405633926372
 31
0.0
  0
ARC
  5
   1EF
  8
0
  6
CONTINUOUS
 62
   210
 10
-587.191218685941
 20
18.7405710220318
 30
0.0
 40
0.25
 50
179.999999948034
 51
269.999999948034
  0
LINE
  5
   1F0
  8
0
  6
CONTINUOUS
 62
   210
 10
-572.44121868594
 20
18.4905710220318
 30
0.0
 11
-587.191218685941
 21
18.4905710220318
 31
0.0
  0
LINE
  5
   1F1
  8
0
  6
CONTINUOUS
 62
     7
 10
-572.44121868594
 20
16.2405786881061
 30
0.0
 11
-587.441226315336
 21
16.2405786881061
 31
0.0
  0
LINE
  5
   1F2
  8
0
  6
CONTINUOUS
 62
     7
 10
-572.44121868594
 20
15.7405786514263
 30
0.0
 11
-587.441226315336
 21
15.7405786514263
 31
0.0
  0
LINE
  5
   1F3
  8
0
  6
CONTINUOUS
 62
     3
 10
-572.44121868594
 20
15.3655633926372
 30
0.0
 11
-586.94122496927
 21
15.3655633926372
 31
0.0
  0
LINE
  5
   1F4
  8
0
  6
CONTINUOUS
 62
     3
 10
-586.94122496927
 20
14.865559577942
 30
0.0
 11
-586.94122496927
 21
15.365559577942
 31
0.0
  0
LINE
  5
   1F5
  8
0
  6
CONTINUOUS
 62
     3
 10
-586.941224981631
 20
14.8655595693854
 30
0.0
 11
-587.441221166959
 21
14.8655671987799
 31
0.0
  0
LINE
  5
   1F6
  8
0
  6
CONTINUOUS
 62
     7
 10
-587.441226315322
 20
14.8655671988585
 30
0.0
 11
-587.441226315322
 21
18.7405710220318
 31
0.0
  0
LINE
  5
   1F7
  8
0
  6
CONTINUOUS
 62
     3
 10
-587.441244278714
 20
2.74056720732922
 30
0.0
 11
-587.441244278714
 21
14.8655672073292
 31
0.0
  0
LINE
  5
   1F8
  8
0
  6
CONTINUOUS
 62
     3
 10
-587.182334627413
 20
2.1155672073365
 30
0.0
 11
-587.441218573747
 21
2.74056142685145
 31
0.0
  0
LINE
  5
   1F9
  8
0
  6
CONTINUOUS
 62
     3
 10
-572.44121868594
 20
2.1155672073365
 30
0.0
 11
-587.182334627413
 21
2.1155672073365
 31
0.0
  0
LINE
  5
   1FA
  8
0
  6
CONTINUOUS
 62
   210
 10
-572.44121868594
 20
70.9905710220318
 30
0.0
 11
-587.191218685941
 21
70.9905710220318
 31
0.0
  0
LINE
  5
   1FB
  8
0
  6
CONTINUOUS
 62
     3
 10
-572.44121868594
 20
76.8655710549496
 30
0.0
 11
-586.94122496927
 21
76.8655710549496
 31
0.0
  0
LINE
  5
   1FC
  8
0
  6
CONTINUOUS
 62
     3
 10
-585.716233001977
 20
76.8655672073364
 30
0.0
 11
-585.716233001977
 21
89.6155672073364
 31
0.0
  0
LINE
  5
   1FD
  8
0
  6
CONTINUOUS
 62
     3
 10
-583.916233001977
 20
76.8655672073364
 30
0.0
 11
-583.916233001977
 21
89.4602403640747
 31
0.0
  0
LINE
  5
   1FE
  8
0
  6
CONTINUOUS
 62
     3
 10
-582.116233001977
 20
76.8655672073364
 30
0.0
 11
-582.116233001977
 21
89.4602403640747
 31
0.0
  0
LINE
  5
   1FF
  8
0
  6
CONTINUOUS
 62
     3
 10
-580.316233001977
 20
76.8655672073364
 30
0.0
 11
-580.316233001977
 21
89.4602403640747
 31
0.0
  0
LINE
  5
   200
  8
0
  6
CONTINUOUS
 62
     3
 10
-578.516233001977
 20
76.8655672073364
 30
0.0
 11
-578.516233001977
 21
89.4602403640747
 31
0.0
  0
LINE
  5
   201
  8
0
  6
CONTINUOUS
 62
     3
 10
-576.716233001977
 20
76.8655672073364
 30
0.0
 11
-576.716233001977
 21
89.4602403640747
 31
0.0
  0
LINE
  5
   202
  8
0
  6
CONTINUOUS
 62
     3
 10
-574.916233764916
 20
76.8655672073364
 30
0.0
 11
-574.916233764916
 21
89.4602403640747
 31
0.0
  0
LINE
  5
   203
  8
0
  6
CONTINUOUS
 62
     3
 10
-573.116232620507
 20
76.8655672073364
 30
0.0
 11
-573.116232620507
 21
89.4602403640747
 31
0.0
  0
LINE
  5
   204
  8
0
  6
CONTINUOUS
 62
     3
 10
-585.716233001977
 20
2.1155672073365
 30
0.0
 11
-585.716233001977
 21
14.8655672073365
 31
0.0
  0
LINE
  5
   205
  8
0
  6
CONTINUOUS
 62
     3
 10
-583.916233001977
 20
2.27089405059822
 30
0.0
 11
-583.916233001977
 21
14.8655672073365
 31
0.0
  0
LINE
  5
   206
  8
0
  6
CONTINUOUS
 62
     3
 10
-582.116233001977
 20
2.27089405059822
 30
0.0
 11
-582.116233001977
 21
14.8655672073365
 31
0.0
  0
LINE
  5
   207
  8
0
  6
CONTINUOUS
 62
     3
 10
-580.316233001977
 20
2.27089405059822
 30
0.0
 11
-580.316233001977
 21
14.8655672073365
 31
0.0
  0
LINE
  5
   208
  8
0
  6
CONTINUOUS
 62
     3
 10
-578.516233001977
 20
2.27089405059822
 30
0.0
 11
-578.516233001977
 21
14.8655672073365
 31
0.0
  0
LINE
  5
   209
  8
0
  6
CONTINUOUS
 62
     3
 10
-576.716233001977
 20
2.27089405059822
 30
0.0
 11
-576.716233001977
 21
14.8655672073365
 31
0.0
  0
LINE
  5
   20A
  8
0
  6
CONTINUOUS
 62
     3
 10
-574.916233764916
 20
2.27089405059822
 30
0.0
 11
-574.916233764916
 21
14.8655672073365
 31
0.0
  0
LINE
  5
   20B
  8
0
  6
CONTINUOUS
 62
     3
 10
-573.116232620507
 20
2.27089405059822
 30
0.0
 11
-573.116232620507
 21
14.8655672073365
 31
0.0
  0
LINE
  5
   20C
  8
0
  6
CONTINUOUS
 62
   210
 10
-585.716233001977
 20
16.2405786881061
 30
0.0
 11
-585.716233001977
 21
76.3655710220357
 31
0.0
  0
LINE
  5
   20D
  8
0
  6
CONTINUOUS
 62
   210
 10
-583.916233001977
 20
16.2405786881061
 30
0.0
 11
-583.916233001977
 21
76.3655710220357
 31
0.0
  0
LINE
  5
   20E
  8
0
  6
CONTINUOUS
 62
   210
 10
-582.116233001977
 20
16.2405786881061
 30
0.0
 11
-582.116233001977
 21
76.3655710220357
 31
0.0
  0
LINE
  5
   20F
  8
0
  6
CONTINUOUS
 62
   210
 10
-580.316233001977
 20
16.2405786881061
 30
0.0
 11
-580.316233001977
 21
76.3655710220357
 31
0.0
  0
LINE
  5
   210
  8
0
  6
CONTINUOUS
 62
   210
 10
-578.516233001977
 20
16.2405786881061
 30
0.0
 11
-578.516233001977
 21
76.3655710220357
 31
0.0
  0
LINE
  5
   211
  8
0
  6
CONTINUOUS
 62
   210
 10
-576.716233001977
 20
16.2405786881061
 30
0.0
 11
-576.716233001977
 21
76.3655710220357
 31
0.0
  0
LINE
  5
   212
  8
0
  6
CONTINUOUS
 62
   210
 10
-574.916233764916
 20
16.2405786881061
 30
0.0
 11
-574.916233764916
 21
76.3655710220357
 31
0.0
  0
LINE
  5
   213
  8
0
  6
CONTINUOUS
 62
   210
 10
-573.116232620507
 20
16.2405786881061
 30
0.0
 11
-573.116232620507
 21
76.3655710220357
 31
0.0
  0
LINE
  5
   214
  8
0
  6
CONTINUOUS
 62
     5
 10
-538.691226315336
 20
-0.259432792663501
 30
0.0
 11
-538.691226315336
 21
2.1155672073365
 31
0.0
  0
LINE
  5
   215
  8
0
  6
CONTINUOUS
 62
     5
 10
-548.691226315336
 20
-0.259432792663501
 30
0.0
 11
-548.691226315336
 21
2.1155672073365
 31
0.0
  0
LINE
  5
   216
  8
0
  6
CONTINUOUS
 62
     5
 10
-540.191226315336
 20
-1.7594327926635
 30
0.0
 11
-547.191226315336
 21
-1.7594327926635
 31
0.0
  0
LINE
  5
   217
  8
0
  6
CONTINUOUS
 62
     5
 10
-541.691226315336
 20
0.240567207336499
 30
0.0
 11
-545.691226315336
 21
0.240567207336499
 31
0.0
  0
LINE
  5
   218
  8
0
  6
CONTINUOUS
 62
     5
 10
-541.191226315336
 20
0.740567207336499
 30
0.0
 11
-541.191226315336
 21
2.1155672073365
 31
0.0
  0
LINE
  5
   219
  8
0
  6
CONTINUOUS
 62
     5
 10
-546.191226315336
 20
0.740567207336499
 30
0.0
 11
-546.191226315336
 21
2.1155672073365
 31
0.0
  0
ARC
  5
   21A
  8
0
  6
CONTINUOUS
 62
     5
 10
-541.691226315336
 20
0.740567207336499
 30
0.0
 40
0.5
 50
269.999999948034
 51
359.999999948034
  0
ARC
  5
   21B
  8
0
  6
CONTINUOUS
 62
     5
 10
-545.691226315336
 20
0.740567207336499
 30
0.0
 40
0.5
 50
179.999999948034
 51
269.999999948034
  0
ARC
  5
   21C
  8
0
  6
CONTINUOUS
 62
     5
 10
-547.191226315336
 20
-0.259432792663501
 30
0.0
 40
1.5
 50
179.999999948034
 51
269.999999948034
  0
ARC
  5
   21D
  8
0
  6
CONTINUOUS
 62
     5
 10
-540.191226315336
 20
-0.259432792663501
 30
0.0
 40
1.5
 50
269.999999948034
 51
359.999999948034
  0
LINE
  5
   21E
  8
0
  6
CONTINUOUS
 62
   210
 10
-558.691226315336
 20
0.740567207336499
 30
0.0
 11
-558.691226315336
 21
2.1155672073365
 31
0.0
  0
ARC
  5
   21F
  8
0
  6
CONTINUOUS
 62
   210
 10
-559.191226315336
 20
0.740567207336499
 30
0.0
 40
0.5
 50
269.999999948034
 51
359.999999948034
  0
LINE
  5
   220
  8
0
  6
CONTINUOUS
 62
   210
 10
-559.191226315336
 20
0.240567207336499
 30
0.0
 11
-563.191226315336
 21
0.240567207336499
 31
0.0
  0
ARC
  5
   221
  8
0
  6
CONTINUOUS
 62
   210
 10
-563.191226315336
 20
0.740567207336499
 30
0.0
 40
0.5
 50
179.999999948034
 51
269.999999948034
  0
LINE
  5
   222
  8
0
  6
CONTINUOUS
 62
   210
 10
-563.691226315336
 20
0.740567207336499
 30
0.0
 11
-563.691226315336
 21
2.1155672073365
 31
0.0
  0
LINE
  5
   223
  8
0
  6
CONTINUOUS
 62
   210
 10
-557.691226315336
 20
-1.7594327926635
 30
0.0
 11
-564.691226315336
 21
-1.7594327926635
 31
0.0
  0
ARC
  5
   224
  8
0
  6
CONTINUOUS
 62
   210
 10
-557.691226315336
 20
-0.259432792663501
 30
0.0
 40
1.5
 50
269.999999948034
 51
359.999999948034
  0
LINE
  5
   225
  8
0
  6
CONTINUOUS
 62
   210
 10
-556.191226315336
 20
-0.259432792663501
 30
0.0
 11
-556.191226315336
 21
2.1155672073365
 31
0.0
  0
LINE
  5
   226
  8
0
  6
CONTINUOUS
 62
   210
 10
-566.191226315336
 20
-0.259432792663501
 30
0.0
 11
-566.191226315336
 21
2.1155672073365
 31
0.0
  0
ARC
  5
   227
  8
0
  6
CONTINUOUS
 62
   210
 10
-564.691226315336
 20
-0.259432792663501
 30
0.0
 40
1.5
 50
179.999999948034
 51
269.999999948034
  0
CIRCLE
  5
   228
  8
0
  6
CONTINUOUS
 62
   210
 10
-526.191440654754
 20
67.8657875440402
 30
0.0
 40
2.0
  0
LINE
  5
   229
  8
0
  6
CONTINUOUS
 62
   210
 10
-526.473940654754
 20
68.1482875440402
 30
0.0
 11
-527.341440654754
 21
68.1482875440402
 31
0.0
  0
LINE
  5
   22A
  8
0
  6
CONTINUOUS
 62
   210
 10
-526.473940654754
 20
67.5832875440402
 30
0.0
 11
-527.341440654754
 21
67.5832875440402
 31
0.0
  0
LINE
  5
   22B
  8
0
  6
CONTINUOUS
 62
   210
 10
-526.473940654754
 20
66.7157875440402
 30
0.0
 11
-526.473940654754
 21
67.5832875440402
 31
0.0
  0
LINE
  5
   22C
  8
0
  6
CONTINUOUS
 62
   210
 10
-525.908940654754
 20
66.7157875440402
 30
0.0
 11
-525.908940654754
 21
67.5832875440402
 31
0.0
  0
LINE
  5
   22D
  8
0
  6
CONTINUOUS
 62
   210
 10
-525.908940654754
 20
69.0157875440402
 30
0.0
 11
-526.473940654754
 21
69.0157875440402
 31
0.0
  0
LINE
  5
   22E
  8
0
  6
CONTINUOUS
 62
   210
 10
-525.908940654754
 20
66.7157875440402
 30
0.0
 11
-526.473940654754
 21
66.7157875440402
 31
0.0
  0
LINE
  5
   22F
  8
0
  6
CONTINUOUS
 62
   210
 10
-527.341440654754
 20
67.5832875440402
 30
0.0
 11
-527.341440654754
 21
68.1482875440402
 31
0.0
  0
LINE
  5
   230
  8
0
  6
CONTINUOUS
 62
   210
 10
-525.041440654754
 20
67.5832875440402
 30
0.0
 11
-525.041440654754
 21
68.1482875440402
 31
0.0
  0
LINE
  5
   231
  8
0
  6
CONTINUOUS
 62
   210
 10
-525.041440654754
 20
68.1482875440402
 30
0.0
 11
-525.908940654754
 21
68.1482875440402
 31
0.0
  0
LINE
  5
   232
  8
0
  6
CONTINUOUS
 62
   210
 10
-525.041440654754
 20
67.5832875440402
 30
0.0
 11
-525.908940654754
 21
67.5832875440402
 31
0.0
  0
LINE
  5
   233
  8
0
  6
CONTINUOUS
 62
   210
 10
-525.908940654754
 20
68.1482875440402
 30
0.0
 11
-525.908940654754
 21
69.0157875440402
 31
0.0
  0
LINE
  5
   234
  8
0
  6
CONTINUOUS
 62
   210
 10
-526.473940654754
 20
68.1482875440402
 30
0.0
 11
-526.473940654754
 21
69.0157875440402
 31
0.0
  0
CIRCLE
  5
   235
  8
0
  6
CONTINUOUS
 62
   210
 10
-561.191011975918
 20
67.8657875440402
 30
0.0
 40
2.0
  0
LINE
  5
   236
  8
0
  6
CONTINUOUS
 62
   210
 10
-560.041011975918
 20
68.1482875440402
 30
0.0
 11
-560.908511975918
 21
68.1482875440402
 31
0.0
  0
LINE
  5
   237
  8
0
  6
CONTINUOUS
 62
   210
 10
-560.041011975918
 20
67.5832875440402
 30
0.0
 11
-560.908511975918
 21
67.5832875440402
 31
0.0
  0
LINE
  5
   238
  8
0
  6
CONTINUOUS
 62
   210
 10
-560.908511975918
 20
66.7157875440402
 30
0.0
 11
-560.908511975918
 21
67.5832875440402
 31
0.0
  0
LINE
  5
   239
  8
0
  6
CONTINUOUS
 62
   210
 10
-561.473511975918
 20
66.7157875440402
 30
0.0
 11
-561.473511975918
 21
67.5832875440402
 31
0.0
  0
LINE
  5
   23A
  8
0
  6
CONTINUOUS
 62
   210
 10
-560.908511975918
 20
69.0157875440402
 30
0.0
 11
-561.473511975918
 21
69.0157875440402
 31
0.0
  0
LINE
  5
   23B
  8
0
  6
CONTINUOUS
 62
   210
 10
-560.908511975918
 20
66.7157875440402
 30
0.0
 11
-561.473511975918
 21
66.7157875440402
 31
0.0
  0
LINE
  5
   23C
  8
0
  6
CONTINUOUS
 62
   210
 10
-560.041011975918
 20
67.5832875440402
 30
0.0
 11
-560.041011975918
 21
68.1482875440402
 31
0.0
  0
LINE
  5
   23D
  8
0
  6
CONTINUOUS
 62
   210
 10
-562.341011975918
 20
67.5832875440402
 30
0.0
 11
-562.341011975918
 21
68.1482875440402
 31
0.0
  0
LINE
  5
   23E
  8
0
  6
CONTINUOUS
 62
   210
 10
-561.473511975918
 20
68.1482875440402
 30
0.0
 11
-562.341011975918
 21
68.1482875440402
 31
0.0
  0
LINE
  5
   23F
  8
0
  6
CONTINUOUS
 62
   210
 10
-561.473511975918
 20
67.5832875440402
 30
0.0
 11
-562.341011975918
 21
67.5832875440402
 31
0.0
  0
LINE
  5
   240
  8
0
  6
CONTINUOUS
 62
   210
 10
-561.473511975918
 20
68.1482875440402
 30
0.0
 11
-561.473511975918
 21
69.0157875440402
 31
0.0
  0
LINE
  5
   241
  8
0
  6
CONTINUOUS
 62
   210
 10
-560.908511975918
 20
68.1482875440402
 30
0.0
 11
-560.908511975918
 21
69.0157875440402
 31
0.0
  0
LINE
  5
   242
  8
0
  6
DASHDOT
 62
     7
 10
-526.191226315336
 20
73.7474087763201
 30
0.0
 11
-526.191226315336
 21
94.4288939753261
 31
0.0
  0
LINE
  5
   243
  8
0
  6
DASHDOT
 62
     7
 10
-518.983640341694
 20
81.6155710220318
 30
0.0
 11
-532.969932874581
 21
81.6155710220318
 31
0.0
  0
LINE
  5
   244
  8
0
  6
CONTINUOUS
 62
     7
 10
-519.191226315336
 20
88.3655710220318
 30
0.0
 11
-520.191226315336
 21
88.3655710220318
 31
0.0
  0
LINE
  5
   245
  8
0
  6
CONTINUOUS
 62
     7
 10
-534.941226315336
 20
74.1155710220318
 30
0.0
 11
-534.941226315336
 21
91.4844113368236
 31
0.0
  0
LINE
  5
   246
  8
0
  6
CONTINUOUS
 62
     7
 10
-520.191226315336
 20
76.6155710220318
 30
0.0
 11
-532.191226315336
 21
76.6155710220318
 31
0.0
  0
LINE
  5
   247
  8
0
  6
CONTINUOUS
 62
     7
 10
-515.197876949333
 20
74.1155710220318
 30
0.0
 11
-534.941226315336
 21
74.1155710220318
 31
0.0
  0
LINE
  5
   248
  8
0
  6
CONTINUOUS
 62
     7
 10
-518.691226315336
 20
87.1155710220318
 30
0.0
 11
-518.691226315336
 21
87.8655710220318
 31
0.0
  0
LINE
  5
   249
  8
0
  6
CONTINUOUS
 62
     7
 10
-517.441226315336
 20
87.1155710220318
 30
0.0
 11
-518.691226315336
 21
87.1155710220318
 31
0.0
  0
ARC
  5
   24A
  8
0
  6
CONTINUOUS
 62
     7
 10
-519.191226315336
 20
87.8655710220318
 30
0.0
 40
0.5
 50
359.999999948034
 51
449.999999948034
  0
LINE
  5
   24B
  8
0
  6
CONTINUOUS
 62
     7
 10
-520.191226315336
 20
76.6155710220318
 30
0.0
 11
-520.191226315336
 21
88.3655710220318
 31
0.0
  0
LINE
  5
   24C
  8
0
  6
CONTINUOUS
 62
     7
 10
-532.191226315336
 20
76.6155710220318
 30
0.0
 11
-532.191226315336
 21
88.3655710220318
 31
0.0
  0
LINE
  5
   24D
  8
0
  6
CONTINUOUS
 62
     7
 10
-521.816226315336
 20
76.6155710220318
 30
0.0
 11
-521.816226315336
 21
84.8655710220318
 31
0.0
  0
LINE
  5
   24E
  8
0
  6
CONTINUOUS
 62
     7
 10
-530.566226315336
 20
76.6155710220318
 30
0.0
 11
-530.566226315336
 21
84.8655710220318
 31
0.0
  0
LINE
  5
   24F
  8
0
  6
CONTINUOUS
 62
     7
 10
-523.566226315336
 20
86.6155710220318
 30
0.0
 11
-528.816226315336
 21
86.6155710220318
 31
0.0
  0
LINE
  5
   250
  8
0
  6
CONTINUOUS
 62
     7
 10
-521.816226315336
 20
84.8655710220318
 30
0.0
 11
-523.566226315336
 21
86.6155710220318
 31
0.0
  0
LINE
  5
   251
  8
0
  6
CONTINUOUS
 62
     7
 10
-530.566226315336
 20
84.8655710220318
 30
0.0
 11
-528.816226315336
 21
86.6155710220318
 31
0.0
  0
CIRCLE
  5
   252
  8
0
  6
CONTINUOUS
 62
     7
 10
-526.191226315336
 20
81.6155710220318
 30
0.0
 40
2.0
  0
INSERT
  5
   253
  8
0
  6
CONTINUOUS
 62
     7
  2
*HATCH50
 10
-601.1103515625
 20
-10.2529554367065
 30
0.0
 41
0.5
 42
0.5
 50
89.9999999480344
 43
0.5
  0
LINE
  5
   254
  8
0
  6
CONTINUOUS
 62
     7
 10
-532.191226315336
 20
88.3655710220318
 30
0.0
 11
-534.941226315336
 21
88.3655710220318
 31
0.0
  0
LINE
  5
   255
  8
0
  6
CONTINUOUS
 62
     7
 10
-534.941226315336
 20
0.246723077849339
 30
0.0
 11
-534.941226315336
 21
17.6155633926412
 31
0.0
  0
LINE
  5
   256
  8
0
  6
CONTINUOUS
 62
     7
 10
-515.197876949333
 20
17.6155633926412
 30
0.0
 11
-534.941226315336
 21
17.6155633926412
 31
0.0
  0
LINE
  5
   257
  8
0
  6
CONTINUOUS
 62
     7
 10
-532.191226315336
 20
3.36556339264115
 30
0.0
 11
-534.941226315336
 21
3.36556339264115
 31
0.0
  0
LINE
  5
   258
  8
0
  6
CONTINUOUS
 62
     7
 10
-532.191226315336
 20
3.36556339264115
 30
0.0
 11
-532.191226315336
 21
15.1155633926412
 31
0.0
  0
LINE
  5
   259
  8
0
  6
CONTINUOUS
 62
     7
 10
-520.191226315336
 20
15.1155633926412
 30
0.0
 11
-532.191226315336
 21
15.1155633926412
 31
0.0
  0
LINE
  5
   25A
  8
0
  6
CONTINUOUS
 62
     7
 10
-520.191226315336
 20
3.36556339264115
 30
0.0
 11
-520.191226315336
 21
15.1155633926412
 31
0.0
  0
LINE
  5
   25B
  8
0
  6
CONTINUOUS
 62
     7
 10
-519.191226315336
 20
3.36556339264115
 30
0.0
 11
-520.191226315336
 21
3.36556339264115
 31
0.0
  0
ARC
  5
   25C
  8
0
  6
CONTINUOUS
 62
     7
 10
-519.191226315336
 20
3.86556339264115
 30
0.0
 40
0.5
 50
269.999999948034
 51
359.999999948034
  0
LINE
  5
   25D
  8
0
  6
CONTINUOUS
 62
     7
 10
-518.691226315336
 20
3.86556339264115
 30
0.0
 11
-518.691226315336
 21
4.61556339264115
 31
0.0
  0
LINE
  5
   25E
  8
0
  6
CONTINUOUS
 62
     7
 10
-517.441226315336
 20
4.61556339264115
 30
0.0
 11
-518.691226315336
 21
4.61556339264115
 31
0.0
  0
LINE
  5
   25F
  8
0
  6
CONTINUOUS
 62
     7
 10
-530.566226315336
 20
6.86556339264115
 30
0.0
 11
-530.566226315336
 21
15.1155633926412
 31
0.0
  0
LINE
  5
   260
  8
0
  6
CONTINUOUS
 62
     7
 10
-528.816226315336
 20
5.11556339264115
 30
0.0
 11
-530.566226315336
 21
6.86556339264115
 31
0.0
  0
LINE
  5
   261
  8
0
  6
CONTINUOUS
 62
     7
 10
-523.566226315336
 20
5.11556339264115
 30
0.0
 11
-528.816226315336
 21
5.11556339264115
 31
0.0
  0
LINE
  5
   262
  8
0
  6
CONTINUOUS
 62
     7
 10
-523.566226315336
 20
5.11556339264115
 30
0.0
 11
-521.816226315336
 21
6.86556339264114
 31
0.0
  0
LINE
  5
   263
  8
0
  6
CONTINUOUS
 62
     7
 10
-521.816226315336
 20
6.86556339264114
 30
0.0
 11
-521.816226315336
 21
15.1155633926412
 31
0.0
  0
CIRCLE
  5
   264
  8
0
  6
CONTINUOUS
 62
     7
 10
-526.191226315336
 20
10.1155633926411
 30
0.0
 40
2.0
  0
LINE
  5
   265
  8
0
  6
DASHDOT
 62
     7
 10
-518.983640341694
 20
10.1155633926411
 30
0.0
 11
-532.969932874581
 21
10.1155633926411
 31
0.0
  0
LINE
  5
   266
  8
0
  6
DASHDOT
 62
     7
 10
-526.191226315336
 20
-2.69775956065322
 30
0.0
 11
-526.191226315336
 21
17.9837256383528
 31
0.0
  0
INSERT
  5
   267
  8
0
  6
CONTINUOUS
 62
     7
  2
*HATCH51
 10
-601.1103515625
 20
-10.2529554367065
 30
0.0
 41
0.5
 42
0.5
 50
89.9999999480344
 43
0.5
  0
LINE
  5
   268
  8
0
  6
CONTINUOUS
 62
   210
 10
-572.44121868594
 20
50.8655633926372
 30
0.0
 11
-587.441226315336
 21
50.8655633926372
 31
0.0
  0
LINE
  5
   269
  8
0
  6
CONTINUOUS
 62
   210
 10
-572.44121868594
 20
28.3655710220318
 30
0.0
 11
-587.441226315336
 21
28.3655710220318
 31
0.0
  0
LINE
  5
   26A
  8
0
  6
CONTINUOUS
 62
   210
 10
-514.420398617588
 20
58.3655710220318
 30
0.0
 11
-517.441226315336
 21
58.3655710220318
 31
0.0
  0
LINE
  5
   26B
  8
0
  6
CONTINUOUS
 62
   210
 10
-514.420398617588
 20
20.8655710220318
 30
0.0
 11
-517.441226315336
 21
20.8655710220318
 31
0.0
  0
LINE
  5
   26C
  8
0
  6
CONTINUOUS
 62
   210
 10
-514.420398617588
 20
50.6155710220318
 30
0.0
 11
-517.441226315336
 21
50.6155710220318
 31
0.0
  0
LINE
  5
   26D
  8
0
  6
CONTINUOUS
 62
   210
 10
-514.420398617588
 20
28.6155710220318
 30
0.0
 11
-517.441226315336
 21
28.6155710220318
 31
0.0
  0
LINE
  5
   26E
  8
0
  6
CONTINUOUS
 62
   210
 10
-587.44121868594
 20
58.3655710220318
 30
0.0
 11
-590.225056528925
 21
58.3655710220318
 31
0.0
  0
LINE
  5
   26F
  8
0
  6
CONTINUOUS
 62
   210
 10
-587.44121868594
 20
50.6155710220318
 30
0.0
 11
-590.225056528925
 21
50.6155710220318
 31
0.0
  0
LINE
  5
   270
  8
0
  6
CONTINUOUS
 62
   210
 10
-587.44121868594
 20
28.6155710220318
 30
0.0
 11
-590.225056528925
 21
28.6155710220318
 31
0.0
  0
LINE
  5
   271
  8
0
  6
CONTINUOUS
 62
   210
 10
-587.44121868594
 20
20.8655710220318
 30
0.0
 11
-590.225056528925
 21
20.8655710220318
 31
0.0
  0
LINE
  5
   272
  8
0
  6
CONTINUOUS
 62
     7
 10
-514.420398617588
 20
18.3450124922488
 30
0.0
 11
-514.420398617588
 21
60.3361200852584
 31
0.0
  0
LINE
  5
   273
  8
0
  6
CONTINUOUS
 62
     7
 10
-590.225056528925
 20
19.1887287190017
 30
0.0
 11
-590.225056528925
 21
60.2063175888349
 31
0.0
  0
LINE
  5
   274
  8
0
  6
DASHDOT
 62
     7
 10
-536.483640341694
 20
81.6155710220318
 30
0.0
 11
-550.469932874581
 21
81.6155710220318
 31
0.0
  0
LINE
  5
   275
  8
0
  6
DASHDOT
 62
     7
 10
-553.983640341694
 20
81.6155710220318
 30
0.0
 11
-567.969932874581
 21
81.6155710220318
 31
0.0
  0
LINE
  5
   276
  8
0
  6
DASHDOT
 62
     7
 10
-536.483640341694
 20
10.1155633926411
 30
0.0
 11
-550.469932874581
 21
10.1155633926411
 31
0.0
  0
LINE
  5
   277
  8
0
  6
DASHDOT
 62
     7
 10
-553.983640341694
 20
10.1155633926411
 30
0.0
 11
-567.969932874581
 21
10.1155633926411
 31
0.0
  0
LINE
  5
   278
  8
0
  6
DASHDOT
 62
     7
 10
-561.191226315336
 20
73.7474087763201
 30
0.0
 11
-561.191226315336
 21
94.4288939753261
 31
0.0
  0
LINE
  5
   279
  8
0
  6
DASHDOT
 62
     7
 10
-561.191226315336
 20
-2.69775956065322
 30
0.0
 11
-561.191226315336
 21
17.9837256383528
 31
0.0
  0
LINE
  5
   27A
  8
0
  6
DASHDOT
 62
     7
 10
-571.483640341694
 20
81.6155710220318
 30
0.0
 11
-585.469932874581
 21
81.6155710220318
 31
0.0
  0
LINE
  5
   27B
  8
0
  6
DASHDOT
 62
     7
 10
-578.691226315336
 20
73.7474087763201
 30
0.0
 11
-578.691226315336
 21
94.4288939753261
 31
0.0
  0
LINE
  5
   27C
  8
0
  6
DASHDOT
 62
     7
 10
-578.691226315336
 20
-2.69775956065322
 30
0.0
 11
-578.691226315336
 21
17.9837256383528
 31
0.0
  0
LINE
  5
   27D
  8
0
  6
DASHDOT
 62
     7
 10
-571.483640341694
 20
10.1155633926411
 30
0.0
 11
-585.469932874581
 21
10.1155633926411
 31
0.0
  0
LINE
  5
   27E
  8
0
  6
CONTINUOUS
 62
     3
 10
-572.44121868594
 20
14.8655672073365
 30
0.0
 11
-586.94122496927
 21
14.8655672073365
 31
0.0
  0
INSERT
  5
   27F
  8
0
  6
CONTINUOUS
 62
     7
  2
*UDIM225
 10
0.0
 20
0.0
 30
0.0
  0
INSERT
  5
   280
  8
0
  6
CONTINUOUS
 62
     7
  2
*UDIM226
 10
0.0
 20
0.0
 30
0.0
  0
TEXT
  5
   281
  8
0
  6
CONTINUOUS
 62
     7
 10
-545.037452454726
 20
-36.8144807084393
 30
0.0
 40
3.00000002980232
  1
Y
 50
359.999999948034
 41
0.916666604744064
 72
     2
 11
-542.837452585856
 21
-36.8144807104235
 31
0.0
  0
INSERT
  5
   282
  8
0
  6
CONTINUOUS
 62
     7
  2
*UDIM227
 10
0.0
 20
0.0
 30
0.0
  0
INSERT
  5
   283
  8
0
  6
CONTINUOUS
 62
     7
  2
*UDIM228
 10
0.0
 20
0.0
 30
0.0
  0
INSERT
  5
   284
  8
0
  6
CONTINUOUS
 62
     7
  2
*UDIM229
 10
0.0
 20
0.0
 30
0.0
  0
INSERT
  5
   285
  8
0
  6
CONTINUOUS
 62
     7
  2
*UDIM230
 10
0.0
 20
0.0
 30
0.0
  0
INSERT
  5
   286
  8
0
  6
CONTINUOUS
 62
     7
  2
*UDIM231
 10
0.0
 20
0.0
 30
0.0
  0
INSERT
  5
   287
  8
0
  6
CONTINUOUS
 62
     7
  2
*UDIM232
 10
0.0
 20
0.0
 30
0.0
  0
INSERT
  5
   288
  8
0
  6
CONTINUOUS
 62
     7
  2
*UDIM233
 10
0.0
 20
0.0
 30
0.0
  0
INSERT
  5
   289
  8
0
  6
CONTINUOUS
 62
     7
  2
*UDIM234
 10
0.0
 20
0.0
 30
0.0
  0
INSERT
  5
   28A
  8
0
  6
CONTINUOUS
 62
     7
  2
*UDIM235
 10
0.0
 20
0.0
 30
0.0
  0
INSERT
  5
   28B
  8
0
  6
CONTINUOUS
 62
     7
  2
*UDIM236
 10
0.0
 20
0.0
 30
0.0
  0
INSERT
  5
   28C
  8
0
  6
CONTINUOUS
 62
     7
  2
*UDIM237
 10
0.0
 20
0.0
 30
0.0
  0
INSERT
  5
   28D
  8
0
  6
CONTINUOUS
 62
     7
  2
*UDIM238
 10
0.0
 20
0.0
 30
0.0
  0
INSERT
  5
   28E
  8
0
  6
CONTINUOUS
 62
     7
  2
*UDIM239
 10
0.0
 20
0.0
 30
0.0
  0
INSERT
  5
   28F
  8
0
  6
CONTINUOUS
 62
     7
  2
*UDIM240
 10
0.0
 20
0.0
 30
0.0
  0
TEXT
  5
   290
  8
0
  6
CONTINUOUS
 62
     7
 10
-543.824011166262
 20
115.616034155281
 30
0.0
 40
3.00000002980232
  1
Y
 50
359.999999948034
 41
0.916666604744064
 72
     2
 11
-541.624011297392
 21
115.616034153297
 31
0.0
  0
TEXT
  5
   291
  8
0
  6
CONTINUOUS
 62
     7
 10
-619.221239407229
 20
44.1308656982495
 30
0.0
 40
3.00000002980232
  1
X
 50
359.999999948034
 41
0.916666604744064
 72
     2
 11
-617.021239538359
 21
44.1308656962652
 31
0.0
  0
LINE
  5
   292
  8
0
  6
CONTINUOUS
 62
     3
 10
-431.384490013123
 20
4.76557350158691
 30
0.0
 11
-395.384490013123
 21
4.76557350158691
 31
0.0
  0
LINE
  5
   293
  8
0
  6
CONTINUOUS
 62
     7
 10
-431.384490013123
 20
2.1155662536621
 30
0.0
 11
-431.384490013123
 21
23.5126824480408
 31
0.0
  0
LINE
  5
   294
  8
0
  6
CONTINUOUS
 62
     7
 10
-431.384490013123
 20
23.5126686096191
 30
0.0
 11
-431.384490013123
 21
88.3655662536621
 31
0.0
  0
LINE
  5
   295
  8
0
  6
CONTINUOUS
 62
     7
 10
-397.134501457089
 20
56.990565081541
 30
0.0
 11
-397.1344917736
 21
52.8655532281186
 31
0.0
  0
LINE
  5
   296
  8
0
  6
CONTINUOUS
 62
     7
 10
-395.884519624291
 20
80.1155627696245
 30
0.0
 11
-395.530958231866
 21
80.2620089750377
 31
0.0
  0
LINE
  5
   297
  8
0
  6
CONTINUOUS
 62
     7
 10
-395.530951860309
 20
80.2619984119984
 30
0.0
 11
-395.384505643431
 21
80.6155521612233
 31
0.0
  0
LINE
  5
   298
  8
0
  6
CONTINUOUS
 62
     7
 10
-397.134498187417
 20
76.6155657111175
 30
0.0
 11
-397.134490558023
 21
80.1155657113975
 31
0.0
  0
LINE
  5
   299
  8
0
  6
CONTINUOUS
 62
     7
 10
-397.134490013123
 20
80.1155662536621
 30
0.0
 11
-395.884505271912
 21
80.1155662536621
 31
0.0
  0
LINE
  5
   29A
  8
0
  6
CONTINUOUS
 62
     7
 10
-397.134497642517
 20
56.9905662536621
 30
0.0
 11
-397.134497642517
 21
76.6155662536621
 31
0.0
  0
LINE
  5
   29B
  8
0
  6
CONTINUOUS
 62
     7
 10
-399.384490013123
 20
31.6155662536621
 30
0.0
 11
-399.384490013123
 21
51.8655662536621
 31
0.0
  0
LINE
  5
   29C
  8
0
  6
CONTINUOUS
 62
     7
 10
-399.384475032018
 20
51.8655937922346
 30
0.0
 11
-399.250502874754
 21
52.3655937785408
 31
0.0
  0
LINE
  5
   29D
  8
0
  6
CONTINUOUS
 62
     7
 10
-399.250485841007
 20
52.3656128060781
 30
0.0
 11
-398.884465657
 21
52.7316406108994
 31
0.0
  0
LINE
  5
   29E
  8
0
  6
CONTINUOUS
 62
     7
 10
-398.884517405623
 20
52.7315810709131
 30
0.0
 11
-398.384509803044
 21
52.8655532281186
 31
0.0
  0
LINE
  5
   29F
  8
0
  6
CONTINUOUS
 62
     7
 10
-399.384490013123
 20
31.6155662536621
 30
0.0
 11
-395.384490013123
 21
31.6155662536621
 31
0.0
  0
LINE
  5
   2A0
  8
0
  6
CONTINUOUS
 62
     7
 10
-395.884549483206
 20
24.6155598598378
 30
0.0
 11
-395.384511356695
 21
24.1155598776812
 31
0.0
  0
LINE
  5
   2A1
  8
0
  6
CONTINUOUS
 62
     7
 10
-395.884537722349
 20
30.1155715567817
 30
0.0
 11
-395.384491966939
 21
30.6155715386276
 31
0.0
  0
LINE
  5
   2A2
  8
0
  6
CONTINUOUS
 62
     7
 10
-427.268447530319
 20
30.1155534822853
 30
0.0
 11
-395.884544026901
 21
30.1155687410735
 31
0.0
  0
LINE
  5
   2A3
  8
0
  6
CONTINUOUS
 62
     7
 10
-427.26847076416
 20
24.6155662536621
 30
0.0
 11
-395.884536743164
 21
24.6155662536621
 31
0.0
  0
LINE
  5
   2A4
  8
0
  6
CONTINUOUS
 62
     7
 10
-429.134492273184
 20
30.6155519313184
 30
0.0
 11
-427.26844976488
 21
30.115544302737
 31
0.0
  0
LINE
  5
   2A5
  8
0
  6
CONTINUOUS
 62
     7
 10
-430.884492295257
 20
31.0844643321371
 30
0.0
 11
-429.134476101443
 21
30.6155465400089
 31
0.0
  0
LINE
  5
   2A6
  8
0
  6
CONTINUOUS
 62
     7
 10
-431.384489457444
 20
23.5126841903282
 30
0.0
 11
-427.268469755451
 21
24.6155665585982
 31
0.0
  0
LINE
  5
   2A7
  8
0
  6
CONTINUOUS
 62
     7
 10
-431.384483512621
 20
32.2627180507392
 30
0.0
 11
-430.884484969792
 21
32.3966902080078
 31
0.0
  0
LINE
  5
   2A8
  8
0
  6
CONTINUOUS
 62
     7
 10
-431.384490013123
 20
20.3655586242676
 30
0.0
 11
-429.38449048996
 21
20.3655586242676
 31
0.0
  0
LINE
  5
   2A9
  8
0
  6
CONTINUOUS
 62
     7
 10
-429.38449048996
 20
9.36555862426758
 30
0.0
 11
-429.38449048996
 21
20.3655586242676
 31
0.0
  0
LINE
  5
   2AA
  8
0
  6
CONTINUOUS
 62
     7
 10
-430.884490013123
 20
23.6466484069824
 30
0.0
 11
-430.884490013123
 21
45.8655586242676
 31
0.0
  0
LINE
  5
   2AB
  8
0
  6
CONTINUOUS
 62
     7
 10
-429.134490013123
 20
30.6155662536621
 30
0.0
 11
-429.134490013123
 21
43.1155662536621
 31
0.0
  0
LINE
  5
   2AC
  8
0
  6
CONTINUOUS
 62
     7
 10
-431.38449048996
 20
45.8655586242676
 30
0.0
 11
-429.884490966797
 21
45.8655586242676
 31
0.0
  0
LINE
  5
   2AD
  8
0
  6
CONTINUOUS
 62
     7
 10
-429.884485815652
 20
45.8655536677047
 30
0.0
 11
-429.509484882156
 21
45.7650745497615
 31
0.0
  0
LINE
  5
   2AE
  8
0
  6
CONTINUOUS
 62
     7
 10
-429.884485815652
 20
45.8655536677047
 30
0.0
 11
-429.509484882156
 21
45.7650745497615
 31
0.0
  0
LINE
  5
   2AF
  8
0
  6
CONTINUOUS
 62
     7
 10
-429.509488396208
 20
45.7650720243832
 30
0.0
 11
-429.234969434365
 21
45.4905511650356
 31
0.0
  0
LINE
  5
   2B0
  8
0
  6
CONTINUOUS
 62
     7
 10
-429.234978061847
 20
45.4905445664113
 30
0.0
 11
-429.134497509208
 21
45.1155445676026
 31
0.0
  0
LINE
  5
   2B1
  8
0
  6
CONTINUOUS
 62
     7
 10
-429.134480953217
 20
43.1155593991331
 30
0.0
 11
-429.134480953217
 21
45.1155517697385
 31
0.0
  0
LINE
  5
   2B2
  8
0
  6
CONTINUOUS
 62
     7
 10
-429.234967116946
 20
42.740555450563
 30
0.0
 11
-429.187355887416
 21
42.9182440465056
 31
0.0
  0
LINE
  5
   2B3
  8
0
  6
CONTINUOUS
 62
     7
 10
-429.187356804576
 20
42.9182392035638
 30
0.0
 11
-429.134487485914
 21
43.1155582310665
 31
0.0
  0
LINE
  5
   2B4
  8
0
  6
CONTINUOUS
 62
     7
 10
-429.509490167613
 20
42.4660197442599
 30
0.0
 11
-429.23497074256
 21
42.7405406040128
 31
0.0
  0
LINE
  5
   2B5
  8
0
  6
CONTINUOUS
 62
     7
 10
-429.884496439254
 20
42.3655482356474
 30
0.0
 11
-429.509496444431
 21
42.4660273458814
 31
0.0
  0
LINE
  5
   2B6
  8
0
  6
CONTINUOUS
 62
     7
 10
-430.884490013123
 20
42.3655586242676
 30
0.0
 11
-429.88449048996
 21
42.3655586242676
 31
0.0
  0
LINE
  5
   2B7
  8
0
  6
CONTINUOUS
 62
     7
 10
-429.134501777754
 20
24.8655605570367
 30
0.0
 11
-427.734983339969
 21
24.4905605860557
 31
0.0
  0
LINE
  5
   2B8
  8
0
  6
CONTINUOUS
 62
     7
 10
-429.134506702423
 20
24.8655653238346
 30
0.0
 11
-429.134506702423
 21
29.8655653238346
 31
0.0
  0
LINE
  5
   2B9
  8
0
  6
CONTINUOUS
 62
     7
 10
-429.134506556157
 20
29.8655586367083
 30
0.0
 11
-427.734976200618
 21
30.2405586333596
 31
0.0
  0
LINE
  5
   2BA
  8
0
  6
CONTINUOUS
 62
     7
 10
-429.234965423235
 20
42.4759093217475
 30
0.0
 11
-429.134485353705
 21
42.9182463431339
 31
0.0
  0
LINE
  5
   2BB
  8
0
  6
CONTINUOUS
 62
     7
 10
-429.187359809876
 20
42.9182472229004
 30
0.0
 11
-429.134490966797
 21
42.9182472229004
 31
0.0
  0
LINE
  5
   2BC
  8
0
  6
CONTINUOUS
 62
     7
 10
-429.201478401235
 20
35.8655534717273
 30
0.0
 11
-429.134492322131
 21
35.9152818633072
 31
0.0
  0
LINE
  5
   2BD
  8
0
  6
CONTINUOUS
 62
     7
 10
-429.234968417172
 20
35.8904001098244
 30
0.0
 11
-429.201473947103
 21
35.8655359149274
 31
0.0
  0
LINE
  5
   2BE
  8
0
  6
CONTINUOUS
 62
     7
 10
-429.234971046448
 20
40.8655662536621
 30
0.0
 11
-429.13449048996
 21
40.8655662536621
 31
0.0
  0
LINE
  5
   2BF
  8
0
  6
CONTINUOUS
 62
     7
 10
-429.234973779892
 20
37.8406729383511
 30
0.0
 11
-429.201479309823
 21
37.8655371332481
 31
0.0
  0
LINE
  5
   2C0
  8
0
  6
CONTINUOUS
 62
     7
 10
-429.201474469278
 20
37.8655499896437
 30
0.0
 11
-429.134488390174
 21
37.8158215980638
 31
0.0
  0
LINE
  5
   2C1
  8
0
  6
CONTINUOUS
 62
     7
 10
-429.234973874673
 20
42.0314881803525
 30
0.0
 11
-429.180387005142
 21
41.7266023195815
 31
0.0
  0
LINE
  5
   2C2
  8
0
  6
CONTINUOUS
 62
     7
 10
-429.180384558192
 20
41.7266058534922
 30
0.0
 11
-429.134490890099
 21
40.865567678322
 31
0.0
  0
LINE
  5
   2C3
  8
0
  6
CONTINUOUS
 62
     7
 10
-429.492653155027
 20
35.9416691340449
 30
0.0
 11
-429.234973221534
 21
35.8904148671905
 31
0.0
  0
LINE
  5
   2C4
  8
0
  6
CONTINUOUS
 62
     7
 10
-429.509491276079
 20
35.9529255083017
 30
0.0
 11
-429.492651771943
 21
35.9416721521111
 31
0.0
  0
LINE
  5
   2C5
  8
0
  6
CONTINUOUS
 62
     7
 10
-429.509498687638
 20
37.7781791272084
 30
0.0
 11
-429.492658230407
 21
37.7894324836313
 31
0.0
  0
LINE
  5
   2C6
  8
0
  6
CONTINUOUS
 62
     7
 10
-429.492654933281
 20
37.7894300877084
 30
0.0
 11
-429.234975952888
 21
37.8406843465865
 31
0.0
  0
LINE
  5
   2C7
  8
0
  6
CONTINUOUS
 62
     7
 10
-429.50949048996
 20
40.8655662536621
 30
0.0
 11
-429.234971046448
 21
40.8655662536621
 31
0.0
  0
LINE
  5
   2C8
  8
0
  6
CONTINUOUS
 62
     7
 10
-429.884492724325
 20
36.0200572681012
 30
0.0
 11
-429.509492733029
 21
35.9529186116955
 31
0.0
  0
LINE
  5
   2C9
  8
0
  6
CONTINUOUS
 62
     7
 10
-429.884493304614
 20
37.7110420918783
 30
0.0
 11
-429.509493313317
 21
37.778180748284
 31
0.0
  0
LINE
  5
   2CA
  8
0
  6
CONTINUOUS
 62
     7
 10
-429.88449048996
 20
40.8655662536621
 30
0.0
 11
-429.50949048996
 21
40.8655662536621
 31
0.0
  0
LINE
  5
   2CB
  8
0
  6
CONTINUOUS
 62
     7
 10
-430.884490013123
 20
37.7110481262207
 30
0.0
 11
-429.88449048996
 21
37.7110481262207
 31
0.0
  0
LINE
  5
   2CC
  8
0
  6
CONTINUOUS
 62
     7
 10
-430.884490013123
 20
40.8655662536621
 30
0.0
 11
-429.88449048996
 21
40.8655662536621
 31
0.0
  0
LINE
  5
   2CD
  8
0
  6
CONTINUOUS
 62
     7
 10
-430.884490013123
 20
36.0200691223145
 30
0.0
 11
-429.88449048996
 21
36.0200691223145
 31
0.0
  0
LINE
  5
   2CE
  8
0
  6
CONTINUOUS
 62
     7
 10
-431.384490013123
 20
88.3655662536621
 30
0.0
 11
-413.642078597081
 21
88.3655662536621
 31
0.0
  0
LINE
  5
   2CF
  8
0
  6
CONTINUOUS
 62
     3
 10
-413.642078597081
 20
86.9655723571777
 30
0.0
 11
-384.284491538405
 21
86.9655723571777
 31
0.0
  0
LINE
  5
   2D0
  8
0
  6
CONTINUOUS
 62
     3
 10
-395.384490012526
 20
4.76557350158691
 30
0.0
 11
-384.284491538405
 21
4.76557350158691
 31
0.0
  0
LINE
  5
   2D1
  8
0
  6
CONTINUOUS
 62
     3
 10
-431.384490013123
 20
3.36557388305664
 30
0.0
 11
-382.884490012526
 21
3.36557388305664
 31
0.0
  0
LINE
  5
   2D2
  8
0
  6
CONTINUOUS
 62
     3
 10
-395.384490012526
 20
3.36557388305664
 30
0.0
 11
-395.384490012526
 21
24.4905662536621
 31
0.0
  0
LINE
  5
   2D3
  8
0
  6
CONTINUOUS
 62
     3
 10
-395.384490012525
 20
30.2405586242676
 30
0.0
 11
-395.384490012525
 21
31.6155967712402
 31
0.0
  0
LINE
  5
   2D4
  8
0
  6
CONTINUOUS
 62
     3
 10
-395.384490013123
 20
80.6155898962643
 30
0.0
 11
-395.384490013123
 21
88.3655662536621
 31
0.0
  0
LINE
  5
   2D5
  8
0
  6
CONTINUOUS
 62
     3
 10
-380.634490012526
 20
52.3400001525879
 30
0.0
 11
-380.634490012526
 21
57.115406036377
 31
0.0
  0
LINE
  5
   2D6
  8
0
  6
CONTINUOUS
 62
     3
 10
-380.634517076969
 20
26.8907776637851
 30
0.0
 11
-380.634494188787
 21
23.6154180331321
 31
0.0
  0
LINE
  5
   2D7
  8
0
  6
CONTINUOUS
 62
     3
 10
-382.884490012526
 20
76.2405662536621
 30
0.0
 11
-382.884490012526
 21
88.3655662536621
 31
0.0
  0
LINE
  5
   2D8
  8
0
  6
CONTINUOUS
 62
     3
 10
-384.284491538405
 20
80.2405738830566
 30
0.0
 11
-382.884490012526
 21
80.2405738830566
 31
0.0
  0
LINE
  5
   2D9
  8
0
  6
CONTINUOUS
 62
     3
 10
-382.884490012526
 20
3.36557388305664
 30
0.0
 11
-382.884490012526
 21
15.7405747686112
 31
0.0
  0
LINE
  5
   2DA
  8
0
  6
CONTINUOUS
 62
     3
 10
-384.284491538405
 20
11.4905738830566
 30
0.0
 11
-382.884490012526
 21
11.4905738830566
 31
0.0
  0
LINE
  5
   2DB
  8
0
  6
CONTINUOUS
 62
     3
 10
-384.284491538405
 20
4.76557540893555
 30
0.0
 11
-384.284491538405
 21
15.7405751500814
 31
0.0
  0
LINE
  5
   2DC
  8
0
  6
CONTINUOUS
 62
     3
 10
-395.384491541933
 20
30.2405662536621
 30
0.0
 11
-384.284493067812
 21
30.2405662536621
 31
0.0
  0
LINE
  5
   2DD
  8
0
  6
CONTINUOUS
 62
     3
 10
-395.384491196728
 20
24.4905662536621
 30
0.0
 11
-384.284492722607
 21
24.4905662536621
 31
0.0
  0
LINE
  5
   2DE
  8
0
  6
CONTINUOUS
 62
     1
 10
-384.284491538405
 20
76.2405662536621
 30
0.0
 11
-381.634490489364
 21
76.2405662536621
 31
0.0
  0
LINE
  5
   2DF
  8
0
  6
CONTINUOUS
 62
     1
 10
-383.134490012526
 20
15.7405743598938
 30
0.0
 11
-382.884490012526
 21
15.7405743598938
 31
0.0
  0
LINE
  5
   2E0
  8
0
  6
CONTINUOUS
 62
     1
 10
-384.284491538405
 20
15.7405751500814
 30
0.0
 11
-381.634490489364
 21
15.7405744280134
 31
0.0
  0
LINE
  5
   2E1
  8
0
  6
CONTINUOUS
 62
     2
 10
-380.633834822477
 20
18.4905662554896
 30
0.0
 11
-380.633834822477
 21
70.9905662554896
 31
0.0
  0
LINE
  5
   2E2
  8
0
  6
CONTINUOUS
 62
     2
 10
-381.634490489364
 20
70.9905662536621
 30
0.0
 11
-380.633834822477
 21
70.9905662536621
 31
0.0
  0
LINE
  5
   2E3
  8
0
  6
CONTINUOUS
 62
     2
 10
-381.634490489364
 20
18.4905662548421
 30
0.0
 11
-380.633834822477
 21
18.4905662548421
 31
0.0
  0
LINE
  5
   2E4
  8
0
  6
CONTINUOUS
 62
     7
 10
-398.384509803044
 20
52.8655532281186
 30
0.0
 11
-397.134493827695
 21
52.8655532281186
 31
0.0
  0
LINE
  5
   2E5
  8
0
  6
CONTINUOUS
 62
     7
 10
-381.634490489364
 20
70.9905662536621
 30
0.0
 11
-381.634490489364
 21
76.2405662536621
 31
0.0
  0
LINE
  5
   2E6
  8
0
  6
CONTINUOUS
 62
     7
 10
-381.634490489364
 20
15.7405744280134
 30
0.0
 11
-381.634490489364
 21
18.4905662548421
 31
0.0
  0
LINE
  5
   2E7
  8
0
  6
CONTINUOUS
 62
     3
 10
-384.284491538405
 20
76.2405662536621
 30
0.0
 11
-384.284491538405
 21
86.9655723571777
 31
0.0
  0
LINE
  5
   2E8
  8
0
  6
CONTINUOUS
 62
     3
 10
-384.284491538405
 20
15.7405751500814
 30
0.0
 11
-384.284491538405
 21
76.2405662536621
 31
0.0
  0
ARC
  5
   2E9
  8
0
  6
CONTINUOUS
 62
     7
 10
-365.796470108449
 20
33.7186254283761
 30
0.0
 40
0.499999897877905
 50
348.623601768641
 51
436.688817106542
  0
ARC
  5
   2EA
  8
0
  6
CONTINUOUS
 62
     7
 10
-366.394840836997
 20
30.7447161483271
 30
0.0
 40
0.50000037262337
 50
260.594020595617
 51
348.623601768641
  0
LINE
  5
   2EB
  8
0
  6
DASHDOT
 62
     7
 10
-383.454522000506
 20
35.7062062218855
 30
0.0
 11
-358.396176271516
 21
30.6642984518453
 31
0.0
  0
LINE
  5
   2EC
  8
0
  6
CONTINUOUS
 62
     7
 10
-376.133930476002
 20
36.6782314054772
 30
0.0
 11
-365.681350376836
 21
34.2051919550314
 31
0.0
  0
LINE
  5
   2ED
  8
0
  6
CONTINUOUS
 62
     7
 10
-365.90466434332
 20
30.6460893395629
 30
0.0
 11
-365.306293779066
 21
33.6199986526687
 31
0.0
  0
LINE
  5
   2EE
  8
0
  6
CONTINUOUS
 62
     7
 10
-376.133905412332
 20
31.8512378066763
 30
0.0
 11
-366.476555331536
 21
30.2514383850266
 31
0.0
  0
ARC
  5
   2EF
  8
0
  6
DASHDOT
 62
     7
 10
-402.884091069075
 20
39.6155662536621
 30
0.0
 40
38.0221347997541
 50
337.492314756863
 51
360.0
  0
LINE
  5
   2F0
  8
0
  6
DASHDOT
 62
     7
 10
-364.861956269321
 20
39.6155662536621
 30
0.0
 11
-364.861956269321
 21
42.4906660710308
 31
0.0
  0
LINE
  5
   2F1
  8
0
  6
DASHDOT
 62
     7
 10
-462.828810089942
 20
44.7405662536621
 30
0.0
 11
-361.781165807483
 21
44.7405662536621
 31
0.0
  0
LINE
  5
   2F2
  8
0
  6
CONTINUOUS
 62
     2
 10
-381.634490012526
 20
76.7405662536621
 30
0.0
 11
-381.634490012526
 21
88.9905662536621
 31
0.0
  0
LINE
  5
   2F3
  8
0
  6
CONTINUOUS
 62
     2
 10
-413.642078597081
 20
89.6155662536621
 30
0.0
 11
-382.259490012526
 21
89.6155662536621
 31
0.0
  0
ARC
  5
   2F4
  8
0
  6
CONTINUOUS
 62
     2
 10
-382.259490012526
 20
88.9905662536621
 30
0.0
 40
0.625
 50
0.0
 51
90.0
  0
LINE
  5
   2F5
  8
0
  6
CONTINUOUS
 62
     2
 10
-382.134490012526
 20
76.7405662536621
 30
0.0
 11
-381.634490012526
 21
76.7405662536621
 31
0.0
  0
LINE
  5
   2F6
  8
0
  6
CONTINUOUS
 62
     2
 10
-382.134490012526
 20
76.2405662536621
 30
0.0
 11
-382.134490012526
 21
76.7405662536621
 31
0.0
  0
LINE
  5
   2F7
  8
0
  6
CONTINUOUS
 62
     2
 10
-431.384490013123
 20
2.1155662536621
 30
0.0
 11
-382.259490012526
 21
2.1155662536621
 31
0.0
  0
ARC
  5
   2F8
  8
0
  6
CONTINUOUS
 62
     2
 10
-382.259490012526
 20
2.7405662536621
 30
0.0
 40
0.625
 50
270.0
 51
360.0
  0
LINE
  5
   2F9
  8
0
  6
CONTINUOUS
 62
     2
 10
-381.634490012526
 20
2.7405662536621
 30
0.0
 11
-381.634490012526
 21
14.9905662536621
 31
0.0
  0
LINE
  5
   2FA
  8
0
  6
CONTINUOUS
 62
     2
 10
-382.134490012526
 20
14.9905662536621
 30
0.0
 11
-381.634490012526
 21
14.9905662536621
 31
0.0
  0
LINE
  5
   2FB
  8
0
  6
CONTINUOUS
 62
     2
 10
-382.134490012526
 20
14.9905662536621
 30
0.0
 11
-382.134490012526
 21
15.4905662536621
 31
0.0
  0
LINE
  5
   2FC
  8
0
  6
CONTINUOUS
 62
     7
 10
-382.884490012526
 20
15.4905662536621
 30
0.0
 11
-382.134490012526
 21
15.4905662536621
 31
0.0
  0
LINE
  5
   2FD
  8
0
  6
CONTINUOUS
 62
     7
 10
-431.384490013123
 20
9.36555862426758
 30
0.0
 11
-429.38449048996
 21
9.36555862426758
 31
0.0
  0
LINE
  5
   2FE
  8
0
  6
DASHDOT
 62
     7
 10
-440.854137649774
 20
80.6155662536621
 30
0.0
 11
-405.071923156683
 21
80.6155662536621
 31
0.0
  0
LINE
  5
   2FF
  8
0
  6
DASHDOT
 62
     7
 10
-440.854137649774
 20
11.1155662536621
 30
0.0
 11
-405.071923156683
 21
11.1155662536621
 31
0.0
  0
LINE
  5
   300
  8
0
  6
CONTINUOUS
 62
     7
 10
-432.383834822477
 20
77.8655662536621
 30
0.0
 11
-432.383834822477
 21
83.3655662536621
 31
0.0
  0
LINE
  5
   301
  8
0
  6
CONTINUOUS
 62
     7
 10
-432.383834822477
 20
8.36556625366211
 30
0.0
 11
-432.383834822477
 21
13.8655662536621
 31
0.0
  0
LINE
  5
   302
  8
0
  6
CONTINUOUS
 62
     7
 10
-432.383834822477
 20
13.8655662536621
 30
0.0
 11
-431.384490013123
 21
13.8655662536621
 31
0.0
  0
LINE
  5
   303
  8
0
  6
CONTINUOUS
 62
     7
 10
-432.383834822477
 20
8.36556625366211
 30
0.0
 11
-431.384490013123
 21
8.36556625366211
 31
0.0
  0
LINE
  5
   304
  8
0
  6
CONTINUOUS
 62
     7
 10
-432.383834822477
 20
83.3655662536621
 30
0.0
 11
-431.384490013123
 21
83.3655662536621
 31
0.0
  0
LINE
  5
   305
  8
0
  6
CONTINUOUS
 62
     7
 10
-432.383834822477
 20
77.8655662536621
 30
0.0
 11
-431.384490013123
 21
77.8655662536621
 31
0.0
  0
LINE
  5
   306
  8
0
  6
DASHDOT
 62
     7
 10
-450.913129927458
 20
39.6155662536621
 30
0.0
 11
-361.781165807483
 21
39.6155662536621
 31
0.0
  0
LINE
  5
   307
  8
0
  6
DASHDOT
 62
     7
 10
-345.387848272689
 20
44.7405662536621
 30
0.0
 11
-332.619675207229
 21
44.7405662536621
 31
0.0
  0
LINE
  5
   308
  8
0
  6
CONTINUOUS
 62
   210
 10
-378.3838360664
 20
50.8655662536621
 30
0.0
 11
-378.3838360664
 21
70.7405662477387
 31
0.0
  0
LINE
  5
   309
  8
0
  6
CONTINUOUS
 62
   210
 10
-380.633834822477
 20
70.9905662536621
 30
0.0
 11
-378.6338348284
 21
70.9905662536621
 31
0.0
  0
LINE
  5
   30A
  8
0
  6
CONTINUOUS
 62
   210
 10
-380.633834822477
 20
18.4905662536621
 30
0.0
 11
-380.633834822477
 21
70.9905662536621
 31
0.0
  0
LINE
  5
   30B
  8
0
  6
CONTINUOUS
 62
   210
 10
-380.633834822477
 20
18.4905662536621
 30
0.0
 11
-378.633835287242
 21
18.4905662536621
 31
0.0
  0
LINE
  5
   30C
  8
0
  6
CONTINUOUS
 62
   210
 10
-378.383835299314
 20
18.7405662415903
 30
0.0
 11
-378.383835299314
 21
28.3655662536621
 31
0.0
  0
LINE
  5
   30D
  8
0
  6
CONTINUOUS
 62
   210
 10
-376.133834822477
 20
28.4905662536621
 30
0.0
 11
-376.133834822477
 21
31.8655586242676
 31
0.0
  0
LINE
  5
   30E
  8
0
  6
CONTINUOUS
 62
   210
 10
-376.633834822477
 20
47.3655586242676
 30
0.0
 11
-376.133834822477
 21
47.3655586242676
 31
0.0
  0
LINE
  5
   30F
  8
0
  6
CONTINUOUS
 62
   210
 10
-376.633834822477
 20
46.8655586242676
 30
0.0
 11
-376.133834822477
 21
46.8655586242676
 31
0.0
  0
LINE
  5
   310
  8
0
  6
CONTINUOUS
 62
   210
 10
-376.633834822477
 20
32.3655586242676
 30
0.0
 11
-376.133834822477
 21
32.3655586242676
 31
0.0
  0
LINE
  5
   311
  8
0
  6
CONTINUOUS
 62
   210
 10
-376.633834822477
 20
31.8655586242676
 30
0.0
 11
-376.133834822477
 21
31.8655586242676
 31
0.0
  0
LINE
  5
   312
  8
0
  6
CONTINUOUS
 62
   210
 10
-376.633834822477
 20
31.8655586242676
 30
0.0
 11
-376.633834822477
 21
32.3655586242676
 31
0.0
  0
LINE
  5
   313
  8
0
  6
CONTINUOUS
 62
   210
 10
-376.633834822477
 20
46.8655586242676
 30
0.0
 11
-376.633834822477
 21
47.3655586242676
 31
0.0
  0
LINE
  5
   314
  8
0
  6
CONTINUOUS
 62
   210
 10
-376.133834822477
 20
32.3655586242676
 30
0.0
 11
-376.133834822477
 21
46.8655586242676
 31
0.0
  0
LINE
  5
   315
  8
0
  6
CONTINUOUS
 62
   210
 10
-376.133834822477
 20
47.3655586242676
 30
0.0
 11
-376.133834822477
 21
50.740559048308
 31
0.0
  0
ARC
  5
   316
  8
0
  6
CONTINUOUS
 62
   210
 10
-376.258834822477
 20
50.740559048308
 30
0.0
 40
0.125
 50
0.0
 51
89.9998057191013
  0
ARC
  5
   317
  8
0
  6
CONTINUOUS
 62
   210
 10
-376.258834822477
 20
28.4905662536621
 30
0.0
 40
0.125
 50
270.0
 51
360.0
  0
ARC
  5
   318
  8
0
  6
CONTINUOUS
 62
   210
 10
-378.6338348284
 20
70.7405662536621
 30
0.0
 40
0.25
 50
0.0
 51
90.0
  0
ARC
  5
   319
  8
0
  6
CONTINUOUS
 62
   210
 10
-378.633835287242
 20
18.7405662536621
 30
0.0
 40
0.25
 50
270.0
 51
360.0
  0
LINE
  5
   31A
  8
0
  6
CONTINUOUS
 62
   210
 10
-378.3838360664
 20
50.8655662536621
 30
0.0
 11
-376.258834822477
 21
50.8655662536621
 31
0.0
  0
LINE
  5
   31B
  8
0
  6
CONTINUOUS
 62
   210
 10
-378.3838360664
 20
28.3655662536621
 30
0.0
 11
-376.258834822477
 21
28.3655662536621
 31
0.0
  0
LINE
  5
   31C
  8
0
  6
CONTINUOUS
 62
     3
 10
-432.013696603805
 20
73.3327888724585
 30
0.0
 11
-413.642078597081
 21
73.3327888724585
 31
0.0
  0
LINE
  5
   31D
  8
0
  6
CONTINUOUS
 62
     3
 10
-413.642078597081
 20
73.3327888724585
 30
0.0
 11
-413.642078597081
 21
91.0468256692572
 31
0.0
  0
LINE
  5
   31E
  8
0
  6
CONTINUOUS
 62
     7
 10
-422.162132836706
 20
73.3327888724585
 30
0.0
 11
-420.634199786569
 21
74.8298505764873
 31
0.0
  0
LINE
  5
   31F
  8
0
  6
CONTINUOUS
 62
     7
 10
-420.218770789473
 20
75.3655662536621
 30
0.0
 11
-413.642078597081
 21
75.3655662536621
 31
0.0
  0
INSERT
  5
   320
  8
0
  6
CONTINUOUS
 62
     7
  2
*HATCH52
 10
-431.384490966797
 20
39.6155662536621
 30
0.0
 41
0.5
 42
0.5
 43
0.5
  0
LINE
  5
   321
  8
0
  6
CONTINUOUS
 62
     7
 10
-419.883834822477
 20
76.6155662536621
 30
0.0
 11
-413.934188581277
 21
76.6155662536621
 31
0.0
  0
LINE
  5
   322
  8
0
  6
DASHDOT
 62
     7
 10
-425.047348935461
 20
81.6155662536621
 30
0.0
 11
-416.717525371163
 21
81.6155662536621
 31
0.0
  0
ARC
  5
   323
  8
0
  6
CONTINUOUS
 62
     7
 10
-422.383834822477
 20
76.615565346859
 30
0.0
 40
2.5
 50
314.415292725986
 51
360.0
  0
LINE
  5
   324
  8
0
  6
CONTINUOUS
 62
     7
 10
-419.883834822477
 20
76.6155662536621
 30
0.0
 11
-419.883834822477
 21
86.1155662536621
 31
0.0
  0
LINE
  5
   325
  8
0
  6
CONTINUOUS
 62
     7
 10
-422.383834822477
 20
86.1155662536621
 30
0.0
 11
-419.883834822477
 21
86.1155662536621
 31
0.0
  0
LINE
  5
   326
  8
0
  6
CONTINUOUS
 62
     7
 10
-422.383834822477
 20
76.6155662536621
 30
0.0
 11
-422.383834822477
 21
86.1155662536621
 31
0.0
  0
LINE
  5
   327
  8
0
  6
CONTINUOUS
 62
     7
 10
-424.133470318985
 20
74.9012814139187
 30
0.0
 11
-422.383834901934
 21
76.6155663561132
 31
0.0
  0
ARC
  5
   328
  8
0
  6
CONTINUOUS
 62
     7
 10
-422.38383522471
 20
73.1155670522979
 30
0.0
 40
2.49999952145068
 50
134.415297555408
 51
175.015356116964
  0
LINE
  5
   329
  8
0
  6
CONTINUOUS
 62
     7
 10
-426.883834822477
 20
75.3655662536621
 30
0.0
 11
-423.659611406023
 21
75.3655662536621
 31
0.0
  0
LINE
  5
   32A
  8
0
  6
CONTINUOUS
 62
     7
 10
-424.883834822477
 20
73.3327888724585
 30
0.0
 11
-424.883834822477
 21
75.3655662536621
 31
0.0
  0
INSERT
  5
   32B
  8
0
  6
CONTINUOUS
 62
     7
  2
*HATCH53
 10
-431.384490966797
 20
39.6155662536621
 30
0.0
 41
0.5
 42
0.5
 43
0.5
  0
LINE
  5
   32C
  8
0
  6
CONTINUOUS
 62
     7
 10
-426.883834822477
 20
73.3327888724585
 30
0.0
 11
-426.883834822477
 21
75.3655662536621
 31
0.0
  0
LINE
  5
   32D
  8
0
  6
CONTINUOUS
 62
     7
 10
-422.383834822477
 20
83.6155662536621
 30
0.0
 11
-419.883834822477
 21
83.6155662536621
 31
0.0
  0
LINE
  5
   32E
  8
0
  6
CONTINUOUS
 62
     7
 10
-422.383834822477
 20
79.6155662536621
 30
0.0
 11
-419.883834822477
 21
79.6155662536621
 31
0.0
  0
INSERT
  5
   32F
  8
0
  6
CONTINUOUS
 62
     7
  2
*HATCH54
 10
-431.384490966797
 20
39.6155662536621
 30
0.0
 41
0.5
 42
0.5
 43
0.5
  0
INSERT
  5
   330
  8
0
  6
CONTINUOUS
 62
     7
  2
*HATCH55
 10
-431.384490966797
 20
39.6155662536621
 30
0.0
 41
0.5
 42
0.5
 43
0.5
  0
LINE
  5
   331
  8
0
  6
CONTINUOUS
 62
     3
 10
-413.642078597081
 20
88.3655662536621
 30
0.0
 11
-382.884490012526
 21
88.3655662536621
 31
0.0
  0
LINE
  5
   332
  8
0
  6
CONTINUOUS
 62
     7
 10
-465.4794219606
 20
18.9710104595417
 30
0.0
 11
-448.398827997466
 21
18.9710104595417
 31
0.0
  0
LINE
  5
   333
  8
0
  6
CONTINUOUS
 62
     7
 10
-444.605113890293
 20
18.9710104595417
 30
0.0
 11
-435.638153273338
 21
18.9710104595417
 31
0.0
  0
POINT
  5
   334
  8
0
  6
CONTINUOUS
 62
     7
 10
-435.638153273338
 20
18.9710104595417
 30
0.0
  0
CIRCLE
  5
   335
  8
0
  6
CONTINUOUS
 62
     7
 10
-435.638153273338
 20
18.9710104595417
 30
0.0
 40
0.2
  0
LINE
  5
   336
  8
0
  6
CONTINUOUS
 62
     7
 10
-432.383834822477
 20
8.61555910110474
 30
0.0
 11
-432.383834822477
 21
13.6155586242676
 31
0.0
  0
LINE
  5
   337
  8
0
  6
CONTINUOUS
 62
     7
 10
-432.383834822477
 20
83.0303688049317
 30
0.0
 11
-432.383834822477
 21
83.1155509948731
 31
0.0
  0
LINE
  5
   338
  8
0
  6
CONTINUOUS
 62
   130
 10
-433.133834822477
 20
84.1155662536621
 30
0.0
 11
-432.383834822477
 21
84.1155662536621
 31
0.0
  0
LINE
  5
   339
  8
0
  6
CONTINUOUS
 62
   130
 10
-432.383834822477
 20
8.36556625366211
 30
0.0
 11
-432.383834822477
 21
84.1155662536621
 31
0.0
  0
ARC
  5
   33A
  8
0
  6
CONTINUOUS
 62
   130
 10
-433.383834822477
 20
82.8655662536621
 30
0.0
 40
0.25
 50
270.0
 51
360.0
  0
LINE
  5
   33B
  8
0
  6
CONTINUOUS
 62
   130
 10
-433.883834822477
 20
82.6155662536621
 30
0.0
 11
-433.383834822477
 21
82.6155662536621
 31
0.0
  0
LINE
  5
   33C
  8
0
  6
CONTINUOUS
 62
   130
 10
-433.883834822477
 20
78.6155662536621
 30
0.0
 11
-433.383834822477
 21
78.6155662536621
 31
0.0
  0
ARC
  5
   33D
  8
0
  6
CONTINUOUS
 62
   130
 10
-433.383834822477
 20
78.3655662536621
 30
0.0
 40
0.25
 50
0.0
 51
90.0
  0
LINE
  5
   33E
  8
0
  6
CONTINUOUS
 62
   130
 10
-435.883834822477
 20
61.3655662536621
 30
0.0
 11
-432.383834822477
 21
61.3655662536621
 31
0.0
  0
ARC
  5
   33F
  8
0
  6
CONTINUOUS
 62
   130
 10
-435.883834822477
 20
59.6155662536621
 30
0.0
 40
1.75
 50
90.0
 51
180.0
  0
LINE
  5
   340
  8
0
  6
CONTINUOUS
 62
   130
 10
-436.303707803555
 20
55.8655662536621
 30
0.0
 11
-435.633834822477
 21
58.3655662536621
 31
0.0
  0
LINE
  5
   341
  8
0
  6
CONTINUOUS
 62
   130
 10
-437.633834822477
 20
55.8655662536621
 30
0.0
 11
-436.303707803555
 21
55.8655662536621
 31
0.0
  0
LINE
  5
   342
  8
0
  6
CONTINUOUS
 62
   130
 10
-437.633834822477
 20
55.8655662536621
 30
0.0
 11
-437.633834822477
 21
59.6155662536621
 31
0.0
  0
LINE
  5
   343
  8
0
  6
CONTINUOUS
 62
   130
 10
-434.133834822477
 20
20.6155662536621
 30
0.0
 11
-434.133834822477
 21
58.3655662536621
 31
0.0
  0
LINE
  5
   344
  8
0
  6
CONTINUOUS
 62
   130
 10
-435.633834822477
 20
58.3655662536621
 30
0.0
 11
-434.133834822477
 21
58.3655662536621
 31
0.0
  0
LINE
  5
   345
  8
0
  6
CONTINUOUS
 62
   130
 10
-437.633834822477
 20
20.0796678687999
 30
0.0
 11
-435.633834822477
 21
20.6155662536621
 31
0.0
  0
LINE
  5
   346
  8
0
  6
CONTINUOUS
 62
   130
 10
-437.633834822477
 20
19.3655662536621
 30
0.0
 11
-437.633834822477
 21
20.0796678687999
 31
0.0
  0
ARC
  5
   347
  8
0
  6
CONTINUOUS
 62
   130
 10
-435.883834822477
 20
19.3655662536621
 30
0.0
 40
1.75
 50
180.0
 51
224.415308597193
  0
ARC
  5
   348
  8
0
  6
CONTINUOUS
 62
   130
 10
-435.883834822477
 20
19.3655662536621
 30
0.0
 40
1.75
 50
224.415308597193
 51
270.0
  0
LINE
  5
   349
  8
0
  6
CONTINUOUS
 62
   130
 10
-437.133834822477
 20
17.6155662536621
 30
0.0
 11
-432.383834822477
 21
17.6155662536621
 31
0.0
  0
LINE
  5
   34A
  8
0
  6
CONTINUOUS
 62
   130
 10
-437.133834822477
 20
17.6155662536621
 30
0.0
 11
-437.133834822477
 21
18.1408213822705
 31
0.0
  0
LINE
  5
   34B
  8
0
  6
CONTINUOUS
 62
   130
 10
-433.133834822477
 20
8.36556625366211
 30
0.0
 11
-433.133834822477
 21
17.6155662536621
 31
0.0
  0
ARC
  5
   34C
  8
0
  6
CONTINUOUS
 62
   130
 10
-433.383834822477
 20
13.3655662536621
 30
0.0
 40
0.25
 50
270.0
 51
360.0
  0
LINE
  5
   34D
  8
0
  6
CONTINUOUS
 62
   130
 10
-433.883834822477
 20
13.1155662536621
 30
0.0
 11
-433.383834822477
 21
13.1155662536621
 31
0.0
  0
LINE
  5
   34E
  8
0
  6
CONTINUOUS
 62
   130
 10
-433.883834822477
 20
9.11556625366211
 30
0.0
 11
-433.383834822477
 21
9.11556625366211
 31
0.0
  0
ARC
  5
   34F
  8
0
  6
CONTINUOUS
 62
   130
 10
-433.383834822477
 20
8.86556625366211
 30
0.0
 40
0.25
 50
0.0
 51
90.0
  0
ARC
  5
   350
  8
0
  6
CONTINUOUS
 62
   130
 10
-433.883834822477
 20
8.36556625366211
 30
0.0
 40
1.5
 50
270.0
 51
360.0
  0
ARC
  5
   351
  8
0
  6
CONTINUOUS
 62
   130
 10
-433.883834822477
 20
8.36556625366211
 30
0.0
 40
0.75
 50
270.0
 51
360.0
  0
LINE
  5
   352
  8
0
  6
CONTINUOUS
 62
   130
 10
-433.133834822477
 20
8.36556625366211
 30
0.0
 11
-432.383834822477
 21
8.36556625366211
 31
0.0
  0
LINE
  5
   353
  8
0
  6
CONTINUOUS
 62
   130
 10
-437.133834822477
 20
7.6155662536621
 30
0.0
 11
-433.883834822477
 21
7.6155662536621
 31
0.0
  0
LINE
  5
   354
  8
0
  6
CONTINUOUS
 62
   130
 10
-437.133834822477
 20
6.8655662536621
 30
0.0
 11
-437.133834822477
 21
7.6155662536621
 31
0.0
  0
LINE
  5
   355
  8
0
  6
CONTINUOUS
 62
   130
 10
-435.633834822477
 20
20.6155662536621
 30
0.0
 11
-434.133834822477
 21
20.6155662536621
 31
0.0
  0
LINE
  5
   356
  8
0
  6
CONTINUOUS
 62
     2
 10
-435.633834822477
 20
58.3655662536621
 30
0.0
 11
-434.133834822477
 21
58.3655662536621
 31
0.0
  0
LINE
  5
   357
  8
0
  6
CONTINUOUS
 62
     2
 10
-435.633834822477
 20
20.8655662536621
 30
0.0
 11
-434.133834822477
 21
20.8655662536621
 31
0.0
  0
LINE
  5
   358
  8
0
  6
CONTINUOUS
 62
     2
 10
-435.633834822477
 20
53.6155662536621
 30
0.0
 11
-435.633834822477
 21
58.3655662536621
 31
0.0
  0
ARC
  5
   359
  8
0
  6
CONTINUOUS
 62
     2
 10
-437.133834822477
 20
53.6155662536621
 30
0.0
 40
3.0
 50
270.0
 51
360.0
  0
ARC
  5
   35A
  8
0
  6
CONTINUOUS
 62
     2
 10
-437.133834822477
 20
53.6155662536621
 30
0.0
 40
1.5
 50
270.0
 51
360.0
  0
LINE
  5
   35B
  8
0
  6
CONTINUOUS
 62
     2
 10
-443.633834822477
 20
50.6155662536621
 30
0.0
 11
-437.133834822477
 21
50.6155662536621
 31
0.0
  0
LINE
  5
   35C
  8
0
  6
CONTINUOUS
 62
     2
 10
-443.633834822477
 20
52.1155662536621
 30
0.0
 11
-437.133834822477
 21
52.1155662536621
 31
0.0
  0
ARC
  5
   35D
  8
0
  6
CONTINUOUS
 62
     2
 10
-443.633834822477
 20
49.1155662536621
 30
0.0
 40
3.0
 50
90.0
 51
180.0
  0
ARC
  5
   35E
  8
0
  6
CONTINUOUS
 62
     2
 10
-443.633834822477
 20
49.1155662536621
 30
0.0
 40
1.5
 50
90.0
 51
180.0
  0
LINE
  5
   35F
  8
0
  6
CONTINUOUS
 62
     2
 10
-445.133834822477
 20
30.1155662536621
 30
0.0
 11
-445.133834822477
 21
49.1155662536621
 31
0.0
  0
LINE
  5
   360
  8
0
  6
CONTINUOUS
 62
     2
 10
-446.633834822477
 20
30.1155662536621
 30
0.0
 11
-446.633834822477
 21
49.1155662536621
 31
0.0
  0
ARC
  5
   361
  8
0
  6
CONTINUOUS
 62
     2
 10
-443.633834822477
 20
30.1155662536621
 30
0.0
 40
1.5
 50
180.0
 51
270.0
  0
LINE
  5
   362
  8
0
  6
CONTINUOUS
 62
     2
 10
-443.633834822477
 20
28.6155662536621
 30
0.0
 11
-437.133834822477
 21
28.6155662536621
 31
0.0
  0
ARC
  5
   363
  8
0
  6
CONTINUOUS
 62
     2
 10
-437.133834822477
 20
25.6155662536621
 30
0.0
 40
3.0
 50
1.40334185970697E-14
 51
90.0
  0
ARC
  5
   364
  8
0
  6
CONTINUOUS
 62
     2
 10
-437.133834822477
 20
25.6155662536621
 30
0.0
 40
1.5
 50
1.40334185970697E-14
 51
90.0
  0
LINE
  5
   365
  8
0
  6
CONTINUOUS
 62
     2
 10
-435.633834822477
 20
20.8655662536621
 30
0.0
 11
-435.633834822477
 21
25.6155662536621
 31
0.0
  0
LINE
  5
   366
  8
0
  6
CONTINUOUS
 62
     2
 10
-443.633834822477
 20
27.1155662536621
 30
0.0
 11
-437.133834822477
 21
27.1155662536621
 31
0.0
  0
ARC
  5
   367
  8
0
  6
CONTINUOUS
 62
     2
 10
-443.633834822477
 20
30.1155662536621
 30
0.0
 40
3.0
 50
180.0
 51
270.0
  0
LINE
  5
   368
  8
0
  6
CONTINUOUS
 62
     2
 10
-434.133834822477
 20
53.6155662536621
 30
0.0
 11
-434.133834822477
 21
58.3655662536621
 31
0.0
  0
LINE
  5
   369
  8
0
  6
CONTINUOUS
 62
     2
 10
-434.133834822477
 20
20.8655662536621
 30
0.0
 11
-434.133834822477
 21
25.6155662536621
 31
0.0
  0
LINE
  5
   36A
  8
0
  6
CONTINUOUS
 62
     5
 10
-435.969852372901
 20
21.2660163765548
 30
0.0
 11
-435.424059914683
 21
20.6155662536621
 31
0.0
  0
LINE
  5
   36B
  8
0
  6
CONTINUOUS
 62
     5
 10
-436.54438570524
 20
20.7839256692899
 30
0.0
 11
-436.261903001527
 21
20.4472758922939
 31
0.0
  0
LINE
  5
   36C
  8
0
  6
CONTINUOUS
 62
     5
 10
-435.033834822477
 20
-1.76627877203973
 30
0.0
 11
-435.033834822477
 21
6.8655662536621
 31
0.0
  0
LINE
  5
   36D
  8
0
  6
CONTINUOUS
 62
     5
 10
-434.283834822477
 20
-1.76627877203973
 30
0.0
 11
-434.283834822477
 21
6.8655662536621
 31
0.0
  0
LINE
  5
   36E
  8
0
  6
CONTINUOUS
 62
     5
 10
-436.54438570524
 20
20.7839256692899
 30
0.0
 11
-435.969852372901
 21
21.2660163765548
 31
0.0
  0
LINE
  5
   36F
  8
0
  6
CONTINUOUS
 62
     5
 10
-435.033834822477
 20
-1.76627877203973
 30
0.0
 11
-434.283834822477
 21
-1.76627877203973
 31
0.0
  0
LINE
  5
   370
  8
0
  6
CONTINUOUS
 62
     5
 10
-435.283834822477
 20
15.7084660993519
 30
0.0
 11
-435.033834822477
 21
14.4837212279603
 31
0.0
  0
LINE
  5
   371
  8
0
  6
CONTINUOUS
 62
     5
 10
-435.283834822477
 20
15.7084660993519
 30
0.0
 11
-435.033834822477
 21
15.7594971356599
 31
0.0
  0
LINE
  5
   372
  8
0
  6
CONTINUOUS
 62
     1
 10
-436.883834822477
 20
81.8655662536621
 30
0.0
 11
-433.883834822477
 21
81.8655662536621
 31
0.0
  0
LINE
  5
   373
  8
0
  6
CONTINUOUS
 62
     1
 10
-436.883834822477
 20
79.3655662536621
 30
0.0
 11
-433.883834822477
 21
79.3655662536621
 31
0.0
  0
LINE
  5
   374
  8
0
  6
CONTINUOUS
 62
     7
 10
-436.883834822477
 20
81.6201942536621
 30
0.0
 11
-433.883834822477
 21
81.6201942536621
 31
0.0
  0
LINE
  5
   375
  8
0
  6
CONTINUOUS
 62
     7
 10
-436.883834822477
 20
79.6109382536621
 30
0.0
 11
-433.883834822477
 21
79.6109382536621
 31
0.0
  0
LINE
  5
   376
  8
0
  6
CONTINUOUS
 62
     1
 10
-436.883834822477
 20
79.3655662536621
 30
0.0
 11
-436.883834822477
 21
81.8655662536621
 31
0.0
  0
LINE
  5
   377
  8
0
  6
CONTINUOUS
 62
   130
 10
-437.133834822477
 20
6.8655662536621
 30
0.0
 11
-433.883834822477
 21
6.8655662536621
 31
0.0
  0
LINE
  5
   378
  8
0
  6
CONTINUOUS
 62
     5
 10
-434.283834822477
 20
7.6155662536621
 30
0.0
 11
-434.283834822477
 21
9.8655662536621
 31
0.0
  0
LINE
  5
   379
  8
0
  6
CONTINUOUS
 62
     5
 10
-435.033834822477
 20
7.6155662536621
 30
0.0
 11
-435.033834822477
 21
9.8655662536621
 31
0.0
  0
LINE
  5
   37A
  8
0
  6
CONTINUOUS
 62
   130
 10
-433.133834822477
 20
61.3655662536621
 30
0.0
 11
-433.133834822477
 21
84.1155662536621
 31
0.0
  0
LINE
  5
   37B
  8
0
  6
CONTINUOUS
 62
     1
 10
-436.883834822477
 20
12.3655662536621
 30
0.0
 11
-433.883834822477
 21
12.3655662536621
 31
0.0
  0
LINE
  5
   37C
  8
0
  6
CONTINUOUS
 62
     1
 10
-436.883834822477
 20
9.8655662536621
 30
0.0
 11
-433.883834822477
 21
9.8655662536621
 31
0.0
  0
LINE
  5
   37D
  8
0
  6
CONTINUOUS
 62
     7
 10
-436.883834822477
 20
12.1201942536621
 30
0.0
 11
-433.883834822477
 21
12.1201942536621
 31
0.0
  0
LINE
  5
   37E
  8
0
  6
CONTINUOUS
 62
     7
 10
-436.883834822477
 20
10.1109382536621
 30
0.0
 11
-433.883834822477
 21
10.1109382536621
 31
0.0
  0
LINE
  5
   37F
  8
0
  6
CONTINUOUS
 62
     1
 10
-436.883834822477
 20
9.8655662536621
 30
0.0
 11
-436.883834822477
 21
12.3655662536621
 31
0.0
  0
LINE
  5
   380
  8
0
  6
CONTINUOUS
 62
     7
 10
-433.883834822477
 20
9.11556625366211
 30
0.0
 11
-433.883834822477
 21
13.1155662536621
 31
0.0
  0
LINE
  5
   381
  8
0
  6
CONTINUOUS
 62
     5
 10
-434.283834822477
 20
12.3655662536621
 30
0.0
 11
-434.283834822477
 21
17.6155662536621
 31
0.0
  0
LINE
  5
   382
  8
0
  6
CONTINUOUS
 62
     5
 10
-435.033834822477
 20
12.3655662536621
 30
0.0
 11
-435.033834822477
 21
17.6155662536621
 31
0.0
  0
LINE
  5
   383
  8
0
  6
CONTINUOUS
 62
     7
 10
-433.883834822477
 20
78.6155662536621
 30
0.0
 11
-433.883834822477
 21
82.6155662536621
 31
0.0
  0
TEXT
  5
   384
  8
0
  6
CONTINUOUS
 62
     1
 10
-400.339493447542
 20
-138.210468292236
 30
0.0
 40
2.00000008940697
  1
M 3076 95-01-16
 41
0.749999861419206
 72
     2
 11
-378.139496564865
 21
-138.210468292236
 31
0.0
  0
INSERT
  5
   385
  8
0
  6
CONTINUOUS
 62
     7
  2
*UDIM241
 10
0.0
 20
0.0
 30
0.0
  0
INSERT
  5
   386
  8
0
  6
CONTINUOUS
 62
     7
  2
*UDIM242
 10
0.0
 20
0.0
 30
0.0
  0
TEXT
  5
   387
  8
0
  6
CONTINUOUS
 62
     2
 10
-427.760910853744
 20
42.5918501913547
 30
0.0
 40
4.00000017881393
  1
X
 41
0.915624995566905
 72
     1
 11
-426.295910805464
 21
44.5918502807617
 31
0.0
 73
     2
  0
INSERT
  5
   388
  8
0
  6
CONTINUOUS
 62
     7
  2
*UDIM243
 10
0.0
 20
0.0
 30
0.0
  0
INSERT
  5
   389
  8
0
  6
CONTINUOUS
 62
     7
  2
*UDIM244
 10
0.0
 20
0.0
 30
0.0
  0
INSERT
  5
   38A
  8
0
  6
CONTINUOUS
 62
     7
  2
*UDIM245
 10
0.0
 20
0.0
 30
0.0
  0
INSERT
  5
   38B
  8
0
  6
CONTINUOUS
 62
     7
  2
*UDIM246
 10
0.0
 20
0.0
 30
0.0
  0
INSERT
  5
   38C
  8
0
  6
CONTINUOUS
 62
     7
  2
*UDIM247
 10
0.0
 20
0.0
 30
0.0
  0
INSERT
  5
   38D
  8
0
  6
CONTINUOUS
 62
     7
  2
*UDIM248
 10
0.0
 20
0.0
 30
0.0
  0
TEXT
  5
   38E
  8
0
  6
CONTINUOUS
 62
     7
 10
-332.140464603901
 20
42.9645846547691
 30
0.0
 40
3.00000002980232
  1
X
 41
0.916666604744064
 72
     2
 11
-329.940464735031
 21
42.9645846547691
 31
0.0
  0
TEXT
  5
   38F
  8
0
  6
CONTINUOUS
 62
     1
 10
-406.690109165507
 20
-123.287310541835
 30
0.0
 40
2.00000008940697
  1
93-11-15 BARCELLA
 41
0.749999861419206
 72
     2
 11
-381.490112703043
 21
-123.287310541835
 31
0.0
  0
TEXT
  5
   390
  8
0
  6
CONTINUOUS
 62
     1
 10
-305.69555646578
 20
-149.360414984774
 30
0.0
 40
4.00000017881393
  1
601812/431
 41
0.937499973922969
 72
     2
 11
-268.945555866008
 21
-149.360414984774
 31
0.0
  0
TEXT
  5
   391
  8
0
  6
CONTINUOUS
 62
     1
 10
-287.609863150116
 20
-140.378833584183
 30
0.0
 40
3.00000002980232
  1
S3
 41
0.916666604744064
 72
     2
 11
-282.659863439695
 21
-140.378833584183
 31
0.0
  0
TEXT
  5
   392
  8
0
  6
CONTINUOUS
 62
     1
 10
-317.644282926623
 20
-122.068561611772
 30
0.0
 40
2.00000008940697
  1
3/4POLE LOW VOLTAGE M.C.C.B SERIES ISOMAX
 41
0.749999861419206
 72
     1
 11
-287.044287216667
 21
-121.068561567069
 31
0.0
 73
     2
  0
TEXT
  5
   393
  8
0
  6
CONTINUOUS
 62
     1
 10
-312.394283399727
 20
-125.068561611772
 30
0.0
 40
2.00000008940697
  1
FIXED VERSION DIN CHANNEL ASSEMBLY
 41
0.749999861419206
 72
     1
 11
-287.044286954399
 21
-124.068561567069
 31
0.0
 73
     2
  0
TEXT
  5
   394
  8
0
  6
CONTINUOUS
 62
     1
 10
-312.941891504083
 20
-130.138828335405
 30
0.0
 40
2.00000008940697
  1
INTERR.AUTOMATICO SERIE ISOMAX
 41
0.749999861419206
 72
     1
 11
-290.591894638542
 21
-129.138828290701
 31
0.0
 73
     2
  0
TEXT
  5
   395
  8
0
  6
CONTINUOUS
 62
     1
 10
-324.191889666017
 20
-133.138828335405
 30
0.0
 40
2.00000008940697
  1
TRIP./TETRAP.ESECUZIONE FISSA SU PROFLATO DIN
 41
0.749999861419206
 72
     1
 11
-290.591894376274
 21
-132.138828290701
 31
0.0
 73
     2
  0
ENDSEC
  0
EOF
