ISO-10303-21;
HEADER;
FILE_DESCRIPTION(('CATIA V5 STEP'),'2;1');

FILE_NAME('C:\\Users\\ITLUGRI2\\Desktop\\Modelli semplificati Emax\\E4.2\\1SDH001336R0199_E4.2_IV_F_FLOOR_FIXING_EXTERNAL_UL.stp','2014-09-20T08:57:39+00:00',('none'),('none'),'CATIA Version 5 Release 20 SP 6 (IN-10)','CATIA V5 STEP AP214','none');

FILE_SCHEMA(('AUTOMOTIVE_DESIGN { 1 0 10303 214 1 1 1 1 }'));

ENDSEC;
/* file written by CATIA V5R20 */
DATA;
#5=PRODUCT('E4.2_IV_F_FLOOR_FIXING_EXTERNAL','','',(#2)) ;
#2=PRODUCT_CONTEXT(' ',#1,'mechanical') ;
#1=APPLICATION_CONTEXT('automotive design') ;
#10=PRODUCT_DEFINITION('',' ',#6,#3) ;
#3=PRODUCT_DEFINITION_CONTEXT('part definition',#1,' ') ;
#11=PRODUCT_DEFINITION_SHAPE(' ',' ',#10) ;
#442=MECHANICAL_DESIGN_GEOMETRIC_PRESENTATION_REPRESENTATION(' ',(#30),#17) ;
#20=SHAPE_REPRESENTATION(' ',(#19),#17) ;
#19=AXIS2_PLACEMENT_3D(' ',#18,$,$) ;
#35=AXIS2_PLACEMENT_3D('Cylinder Axis2P3D',#32,#33,#34) ;
#39=AXIS2_PLACEMENT_3D('Circle Axis2P3D',#37,#38,$) ;
#55=AXIS2_PLACEMENT_3D('Circle Axis2P3D',#53,#54,$) ;
#74=AXIS2_PLACEMENT_3D('Circle Axis2P3D',#72,#73,$) ;
#79=AXIS2_PLACEMENT_3D('Circle Axis2P3D',#77,#78,$) ;
#92=AXIS2_PLACEMENT_3D('Plane Axis2P3D',#89,#90,#91) ;
#134=AXIS2_PLACEMENT_3D('Circle Axis2P3D',#132,#133,$) ;
#143=AXIS2_PLACEMENT_3D('Circle Axis2P3D',#141,#142,$) ;
#152=AXIS2_PLACEMENT_3D('Circle Axis2P3D',#150,#151,$) ;
#161=AXIS2_PLACEMENT_3D('Circle Axis2P3D',#159,#160,$) ;
#170=AXIS2_PLACEMENT_3D('Circle Axis2P3D',#168,#169,$) ;
#179=AXIS2_PLACEMENT_3D('Circle Axis2P3D',#177,#178,$) ;
#190=AXIS2_PLACEMENT_3D('Plane Axis2P3D',#187,#188,#189) ;
#232=AXIS2_PLACEMENT_3D('Circle Axis2P3D',#230,#231,$) ;
#241=AXIS2_PLACEMENT_3D('Circle Axis2P3D',#239,#240,$) ;
#250=AXIS2_PLACEMENT_3D('Circle Axis2P3D',#248,#249,$) ;
#259=AXIS2_PLACEMENT_3D('Circle Axis2P3D',#257,#258,$) ;
#268=AXIS2_PLACEMENT_3D('Circle Axis2P3D',#266,#267,$) ;
#277=AXIS2_PLACEMENT_3D('Circle Axis2P3D',#275,#276,$) ;
#288=AXIS2_PLACEMENT_3D('Cylinder Axis2P3D',#285,#286,#287) ;
#317=AXIS2_PLACEMENT_3D('Cylinder Axis2P3D',#314,#315,#316) ;
#346=AXIS2_PLACEMENT_3D('Cylinder Axis2P3D',#343,#344,#345) ;
#375=AXIS2_PLACEMENT_3D('Plane Axis2P3D',#372,#373,#374) ;
#397=AXIS2_PLACEMENT_3D('Plane Axis2P3D',#394,#395,#396) ;
#414=AXIS2_PLACEMENT_3D('Plane Axis2P3D',#411,#412,#413) ;
#431=AXIS2_PLACEMENT_3D('Plane Axis2P3D',#428,#429,#430) ;
#18=CARTESIAN_POINT(' ',(0.,0.,0.)) ;
#32=CARTESIAN_POINT('Axis2P3D Location',(-400.,23.,-6.1)) ;
#37=CARTESIAN_POINT('Axis2P3D Location',(-400.,23.,-6.)) ;
#41=CARTESIAN_POINT('Vertex',(-395.39269155,20.4830159223,-6.)) ;
#43=CARTESIAN_POINT('Vertex',(-404.60730845,25.5169840777,-6.)) ;
#46=CARTESIAN_POINT('Line Origine',(-404.60730845,25.5169840777,-10.8449999999)) ;
#50=CARTESIAN_POINT('Vertex',(-404.60730845,25.5169840777,-16.)) ;
#53=CARTESIAN_POINT('Axis2P3D Location',(-400.,23.,-16.)) ;
#57=CARTESIAN_POINT('Vertex',(-395.39269155,20.4830159223,-16.)) ;
#60=CARTESIAN_POINT('Line Origine',(-395.39269155,20.4830159223,-10.8449999999)) ;
#72=CARTESIAN_POINT('Axis2P3D Location',(-400.,23.,-6.)) ;
#77=CARTESIAN_POINT('Axis2P3D Location',(-400.,23.,-16.)) ;
#89=CARTESIAN_POINT('Axis2P3D Location',(-66.,98.,-16.)) ;
#94=CARTESIAN_POINT('Line Origine',(-116.,218.,-16.)) ;
#98=CARTESIAN_POINT('Vertex',(184.,218.,-16.)) ;
#100=CARTESIAN_POINT('Vertex',(-416.,218.,-16.)) ;
#103=CARTESIAN_POINT('Line Origine',(184.,98.,-16.)) ;
#107=CARTESIAN_POINT('Vertex',(184.,-22.,-16.)) ;
#110=CARTESIAN_POINT('Line Origine',(-116.,-22.,-16.)) ;
#114=CARTESIAN_POINT('Vertex',(-416.,-22.,-16.)) ;
#117=CARTESIAN_POINT('Line Origine',(-416.,98.,-16.)) ;
#132=CARTESIAN_POINT('Axis2P3D Location',(142.,23.,-16.)) ;
#136=CARTESIAN_POINT('Vertex',(146.60730845,20.4830159223,-16.)) ;
#138=CARTESIAN_POINT('Vertex',(137.39269155,25.5169840777,-16.)) ;
#141=CARTESIAN_POINT('Axis2P3D Location',(142.,23.,-16.)) ;
#150=CARTESIAN_POINT('Axis2P3D Location',(142.,173.,-16.)) ;
#154=CARTESIAN_POINT('Vertex',(146.60730845,170.483015922,-16.)) ;
#156=CARTESIAN_POINT('Vertex',(137.39269155,175.516984078,-16.)) ;
#159=CARTESIAN_POINT('Axis2P3D Location',(142.,173.,-16.)) ;
#168=CARTESIAN_POINT('Axis2P3D Location',(-400.,173.,-16.)) ;
#172=CARTESIAN_POINT('Vertex',(-395.39269155,170.483015922,-16.)) ;
#174=CARTESIAN_POINT('Vertex',(-404.60730845,175.516984078,-16.)) ;
#177=CARTESIAN_POINT('Axis2P3D Location',(-400.,173.,-16.)) ;
#187=CARTESIAN_POINT('Axis2P3D Location',(-66.,98.,-6.)) ;
#192=CARTESIAN_POINT('Line Origine',(-416.,98.,-6.)) ;
#196=CARTESIAN_POINT('Vertex',(-416.,218.,-6.)) ;
#198=CARTESIAN_POINT('Vertex',(-416.,-22.,-6.)) ;
#201=CARTESIAN_POINT('Line Origine',(-116.,-22.,-6.)) ;
#205=CARTESIAN_POINT('Vertex',(184.,-22.,-6.)) ;
#208=CARTESIAN_POINT('Line Origine',(184.,98.,-6.)) ;
#212=CARTESIAN_POINT('Vertex',(184.,218.,-6.)) ;
#215=CARTESIAN_POINT('Line Origine',(-116.,218.,-6.)) ;
#230=CARTESIAN_POINT('Axis2P3D Location',(142.,23.,-6.)) ;
#234=CARTESIAN_POINT('Vertex',(137.39269155,25.5169840777,-6.)) ;
#236=CARTESIAN_POINT('Vertex',(146.60730845,20.4830159223,-6.)) ;
#239=CARTESIAN_POINT('Axis2P3D Location',(142.,23.,-6.)) ;
#248=CARTESIAN_POINT('Axis2P3D Location',(142.,173.,-6.)) ;
#252=CARTESIAN_POINT('Vertex',(137.39269155,175.516984078,-6.)) ;
#254=CARTESIAN_POINT('Vertex',(146.60730845,170.483015922,-6.)) ;
#257=CARTESIAN_POINT('Axis2P3D Location',(142.,173.,-6.)) ;
#266=CARTESIAN_POINT('Axis2P3D Location',(-400.,173.,-6.)) ;
#270=CARTESIAN_POINT('Vertex',(-404.60730845,175.516984078,-6.)) ;
#272=CARTESIAN_POINT('Vertex',(-395.39269155,170.483015922,-6.)) ;
#275=CARTESIAN_POINT('Axis2P3D Location',(-400.,173.,-6.)) ;
#285=CARTESIAN_POINT('Axis2P3D Location',(-400.,173.,-6.1)) ;
#290=CARTESIAN_POINT('Line Origine',(-395.39269155,170.483015922,-10.8449999999)) ;
#295=CARTESIAN_POINT('Line Origine',(-404.60730845,175.516984078,-10.8449999999)) ;
#314=CARTESIAN_POINT('Axis2P3D Location',(142.,173.,-6.1)) ;
#319=CARTESIAN_POINT('Line Origine',(146.60730845,170.483015922,-10.8449999999)) ;
#324=CARTESIAN_POINT('Line Origine',(137.39269155,175.516984078,-10.8449999999)) ;
#343=CARTESIAN_POINT('Axis2P3D Location',(142.,23.,-6.1)) ;
#348=CARTESIAN_POINT('Line Origine',(146.60730845,20.4830159223,-10.8449999999)) ;
#353=CARTESIAN_POINT('Line Origine',(137.39269155,25.5169840777,-10.8449999999)) ;
#372=CARTESIAN_POINT('Axis2P3D Location',(-416.,218.,-6.)) ;
#377=CARTESIAN_POINT('Line Origine',(-416.,218.,-11.)) ;
#382=CARTESIAN_POINT('Line Origine',(184.,218.,-11.)) ;
#394=CARTESIAN_POINT('Axis2P3D Location',(184.,-22.,-6.)) ;
#399=CARTESIAN_POINT('Line Origine',(184.,-22.,-11.)) ;
#411=CARTESIAN_POINT('Axis2P3D Location',(184.,-22.,-6.)) ;
#416=CARTESIAN_POINT('Line Origine',(-416.,-22.,-11.)) ;
#428=CARTESIAN_POINT('Axis2P3D Location',(-416.,218.,-6.)) ;
#33=DIRECTION('Axis2P3D Direction',(0.,0.,-1.)) ;
#34=DIRECTION('Axis2P3D XDirection',(0.87758256189,-0.479425538604,0.)) ;
#38=DIRECTION('Axis2P3D Direction',(0.,0.,-1.)) ;
#47=DIRECTION('Vector Direction',(0.,0.,-1.)) ;
#54=DIRECTION('Axis2P3D Direction',(0.,0.,-1.)) ;
#61=DIRECTION('Vector Direction',(0.,0.,-1.)) ;
#73=DIRECTION('Axis2P3D Direction',(0.,0.,-1.)) ;
#78=DIRECTION('Axis2P3D Direction',(0.,0.,-1.)) ;
#90=DIRECTION('Axis2P3D Direction',(0.,0.,1.)) ;
#91=DIRECTION('Axis2P3D XDirection',(1.,0.,0.)) ;
#95=DIRECTION('Vector Direction',(1.,0.,0.)) ;
#104=DIRECTION('Vector Direction',(0.,1.,0.)) ;
#111=DIRECTION('Vector Direction',(-1.,0.,0.)) ;
#118=DIRECTION('Vector Direction',(0.,-1.,0.)) ;
#133=DIRECTION('Axis2P3D Direction',(0.,0.,1.)) ;
#142=DIRECTION('Axis2P3D Direction',(0.,0.,1.)) ;
#151=DIRECTION('Axis2P3D Direction',(0.,0.,1.)) ;
#160=DIRECTION('Axis2P3D Direction',(0.,0.,1.)) ;
#169=DIRECTION('Axis2P3D Direction',(0.,0.,1.)) ;
#178=DIRECTION('Axis2P3D Direction',(0.,0.,1.)) ;
#188=DIRECTION('Axis2P3D Direction',(0.,0.,1.)) ;
#189=DIRECTION('Axis2P3D XDirection',(1.,0.,0.)) ;
#193=DIRECTION('Vector Direction',(0.,-1.,0.)) ;
#202=DIRECTION('Vector Direction',(-1.,0.,0.)) ;
#209=DIRECTION('Vector Direction',(0.,1.,0.)) ;
#216=DIRECTION('Vector Direction',(1.,0.,0.)) ;
#231=DIRECTION('Axis2P3D Direction',(0.,0.,1.)) ;
#240=DIRECTION('Axis2P3D Direction',(0.,0.,1.)) ;
#249=DIRECTION('Axis2P3D Direction',(0.,0.,1.)) ;
#258=DIRECTION('Axis2P3D Direction',(0.,0.,1.)) ;
#267=DIRECTION('Axis2P3D Direction',(0.,0.,1.)) ;
#276=DIRECTION('Axis2P3D Direction',(0.,0.,1.)) ;
#286=DIRECTION('Axis2P3D Direction',(0.,0.,-1.)) ;
#287=DIRECTION('Axis2P3D XDirection',(0.87758256189,-0.479425538604,0.)) ;
#291=DIRECTION('Vector Direction',(0.,0.,-1.)) ;
#296=DIRECTION('Vector Direction',(0.,0.,-1.)) ;
#315=DIRECTION('Axis2P3D Direction',(0.,0.,-1.)) ;
#316=DIRECTION('Axis2P3D XDirection',(0.87758256189,-0.479425538604,0.)) ;
#320=DIRECTION('Vector Direction',(0.,0.,-1.)) ;
#325=DIRECTION('Vector Direction',(0.,0.,-1.)) ;
#344=DIRECTION('Axis2P3D Direction',(0.,0.,-1.)) ;
#345=DIRECTION('Axis2P3D XDirection',(0.87758256189,-0.479425538604,0.)) ;
#349=DIRECTION('Vector Direction',(0.,0.,-1.)) ;
#354=DIRECTION('Vector Direction',(0.,0.,-1.)) ;
#373=DIRECTION('Axis2P3D Direction',(-0.,1.,0.)) ;
#374=DIRECTION('Axis2P3D XDirection',(1.,0.,0.)) ;
#378=DIRECTION('Vector Direction',(0.,0.,-1.)) ;
#383=DIRECTION('Vector Direction',(0.,0.,-1.)) ;
#395=DIRECTION('Axis2P3D Direction',(-1.,0.,0.)) ;
#396=DIRECTION('Axis2P3D XDirection',(0.,1.,0.)) ;
#400=DIRECTION('Vector Direction',(0.,0.,-1.)) ;
#412=DIRECTION('Axis2P3D Direction',(-0.,-1.,-0.)) ;
#413=DIRECTION('Axis2P3D XDirection',(-1.,0.,0.)) ;
#417=DIRECTION('Vector Direction',(0.,0.,-1.)) ;
#429=DIRECTION('Axis2P3D Direction',(1.,0.,0.)) ;
#430=DIRECTION('Axis2P3D XDirection',(0.,-1.,0.)) ;
#8=PRODUCT_RELATED_PRODUCT_CATEGORY('part',$,(#5)) ;
#7=PRODUCT_CATEGORY('part','specification') ;
#30=STYLED_ITEM(' ',(#29),#22) ;
#29=PRESENTATION_STYLE_ASSIGNMENT((#28)) ;
#28=SURFACE_STYLE_USAGE(.BOTH.,#27) ;
#27=SURFACE_SIDE_STYLE(' ',(#26)) ;
#26=SURFACE_STYLE_FILL_AREA(#25) ;
#25=FILL_AREA_STYLE(' ',(#24)) ;
#24=FILL_AREA_STYLE_COLOUR(' ',#23) ;
#48=VECTOR('Line Direction',#47,1.) ;
#62=VECTOR('Line Direction',#61,1.) ;
#96=VECTOR('Line Direction',#95,1.) ;
#105=VECTOR('Line Direction',#104,1.) ;
#112=VECTOR('Line Direction',#111,1.) ;
#119=VECTOR('Line Direction',#118,1.) ;
#194=VECTOR('Line Direction',#193,1.) ;
#203=VECTOR('Line Direction',#202,1.) ;
#210=VECTOR('Line Direction',#209,1.) ;
#217=VECTOR('Line Direction',#216,1.) ;
#292=VECTOR('Line Direction',#291,1.) ;
#297=VECTOR('Line Direction',#296,1.) ;
#321=VECTOR('Line Direction',#320,1.) ;
#326=VECTOR('Line Direction',#325,1.) ;
#350=VECTOR('Line Direction',#349,1.) ;
#355=VECTOR('Line Direction',#354,1.) ;
#379=VECTOR('Line Direction',#378,1.) ;
#384=VECTOR('Line Direction',#383,1.) ;
#401=VECTOR('Line Direction',#400,1.) ;
#418=VECTOR('Line Direction',#417,1.) ;
#16=UNCERTAINTY_MEASURE_WITH_UNIT(LENGTH_MEASURE(0.005),#12,'distance_accuracy_value','CONFUSED CURVE UNCERTAINTY') ;
#441=SHAPE_REPRESENTATION_RELATIONSHIP(' ',' ',#20,#440) ;
#66=ORIENTED_EDGE('',*,*,#45,.T.) ;
#67=ORIENTED_EDGE('',*,*,#52,.F.) ;
#68=ORIENTED_EDGE('',*,*,#59,.T.) ;
#69=ORIENTED_EDGE('',*,*,#64,.T.) ;
#83=ORIENTED_EDGE('',*,*,#76,.T.) ;
#84=ORIENTED_EDGE('',*,*,#64,.F.) ;
#85=ORIENTED_EDGE('',*,*,#81,.T.) ;
#86=ORIENTED_EDGE('',*,*,#52,.T.) ;
#123=ORIENTED_EDGE('',*,*,#102,.F.) ;
#124=ORIENTED_EDGE('',*,*,#109,.F.) ;
#125=ORIENTED_EDGE('',*,*,#116,.F.) ;
#126=ORIENTED_EDGE('',*,*,#121,.F.) ;
#129=ORIENTED_EDGE('',*,*,#81,.F.) ;
#130=ORIENTED_EDGE('',*,*,#59,.F.) ;
#147=ORIENTED_EDGE('',*,*,#140,.F.) ;
#148=ORIENTED_EDGE('',*,*,#145,.F.) ;
#165=ORIENTED_EDGE('',*,*,#158,.F.) ;
#166=ORIENTED_EDGE('',*,*,#163,.F.) ;
#183=ORIENTED_EDGE('',*,*,#176,.F.) ;
#184=ORIENTED_EDGE('',*,*,#181,.F.) ;
#221=ORIENTED_EDGE('',*,*,#200,.T.) ;
#222=ORIENTED_EDGE('',*,*,#207,.T.) ;
#223=ORIENTED_EDGE('',*,*,#214,.T.) ;
#224=ORIENTED_EDGE('',*,*,#219,.T.) ;
#227=ORIENTED_EDGE('',*,*,#76,.F.) ;
#228=ORIENTED_EDGE('',*,*,#45,.F.) ;
#245=ORIENTED_EDGE('',*,*,#238,.F.) ;
#246=ORIENTED_EDGE('',*,*,#243,.F.) ;
#263=ORIENTED_EDGE('',*,*,#256,.F.) ;
#264=ORIENTED_EDGE('',*,*,#261,.F.) ;
#281=ORIENTED_EDGE('',*,*,#274,.F.) ;
#282=ORIENTED_EDGE('',*,*,#279,.F.) ;
#301=ORIENTED_EDGE('',*,*,#274,.T.) ;
#302=ORIENTED_EDGE('',*,*,#294,.F.) ;
#303=ORIENTED_EDGE('',*,*,#176,.T.) ;
#304=ORIENTED_EDGE('',*,*,#299,.T.) ;
#308=ORIENTED_EDGE('',*,*,#279,.T.) ;
#309=ORIENTED_EDGE('',*,*,#299,.F.) ;
#310=ORIENTED_EDGE('',*,*,#181,.T.) ;
#311=ORIENTED_EDGE('',*,*,#294,.T.) ;
#330=ORIENTED_EDGE('',*,*,#256,.T.) ;
#331=ORIENTED_EDGE('',*,*,#323,.F.) ;
#332=ORIENTED_EDGE('',*,*,#158,.T.) ;
#333=ORIENTED_EDGE('',*,*,#328,.T.) ;
#337=ORIENTED_EDGE('',*,*,#261,.T.) ;
#338=ORIENTED_EDGE('',*,*,#328,.F.) ;
#339=ORIENTED_EDGE('',*,*,#163,.T.) ;
#340=ORIENTED_EDGE('',*,*,#323,.T.) ;
#359=ORIENTED_EDGE('',*,*,#238,.T.) ;
#360=ORIENTED_EDGE('',*,*,#352,.F.) ;
#361=ORIENTED_EDGE('',*,*,#140,.T.) ;
#362=ORIENTED_EDGE('',*,*,#357,.T.) ;
#366=ORIENTED_EDGE('',*,*,#243,.T.) ;
#367=ORIENTED_EDGE('',*,*,#357,.F.) ;
#368=ORIENTED_EDGE('',*,*,#145,.T.) ;
#369=ORIENTED_EDGE('',*,*,#352,.T.) ;
#388=ORIENTED_EDGE('',*,*,#102,.T.) ;
#389=ORIENTED_EDGE('',*,*,#381,.F.) ;
#390=ORIENTED_EDGE('',*,*,#219,.F.) ;
#391=ORIENTED_EDGE('',*,*,#386,.T.) ;
#405=ORIENTED_EDGE('',*,*,#109,.T.) ;
#406=ORIENTED_EDGE('',*,*,#386,.F.) ;
#407=ORIENTED_EDGE('',*,*,#214,.F.) ;
#408=ORIENTED_EDGE('',*,*,#403,.T.) ;
#422=ORIENTED_EDGE('',*,*,#116,.T.) ;
#423=ORIENTED_EDGE('',*,*,#403,.F.) ;
#424=ORIENTED_EDGE('',*,*,#207,.F.) ;
#425=ORIENTED_EDGE('',*,*,#420,.T.) ;
#434=ORIENTED_EDGE('',*,*,#121,.T.) ;
#435=ORIENTED_EDGE('',*,*,#420,.F.) ;
#436=ORIENTED_EDGE('',*,*,#200,.F.) ;
#437=ORIENTED_EDGE('',*,*,#381,.T.) ;
#131=FACE_BOUND('',#128,.T.) ;
#149=FACE_BOUND('',#146,.T.) ;
#167=FACE_BOUND('',#164,.T.) ;
#185=FACE_BOUND('',#182,.T.) ;
#229=FACE_BOUND('',#226,.T.) ;
#247=FACE_BOUND('',#244,.T.) ;
#265=FACE_BOUND('',#262,.T.) ;
#283=FACE_BOUND('',#280,.T.) ;
#31=CLOSED_SHELL('Closed Shell',(#71,#88,#186,#284,#306,#313,#335,#342,#364,#371,#393,#410,#427,#439)) ;
#440=ADVANCED_BREP_SHAPE_REPRESENTATION('NONE',(#22),#17) ;
#71=ADVANCED_FACE('Body.2',(#70),#36,.F.) ;
#88=ADVANCED_FACE('Body.2',(#87),#36,.F.) ;
#186=ADVANCED_FACE('Body.2',(#127,#131,#149,#167,#185),#93,.F.) ;
#284=ADVANCED_FACE('Body.2',(#225,#229,#247,#265,#283),#191,.T.) ;
#306=ADVANCED_FACE('Body.2',(#305),#289,.F.) ;
#313=ADVANCED_FACE('Body.2',(#312),#289,.F.) ;
#335=ADVANCED_FACE('Body.2',(#334),#318,.F.) ;
#342=ADVANCED_FACE('Body.2',(#341),#318,.F.) ;
#364=ADVANCED_FACE('Body.2',(#363),#347,.F.) ;
#371=ADVANCED_FACE('Body.2',(#370),#347,.F.) ;
#393=ADVANCED_FACE('Body.2',(#392),#376,.T.) ;
#410=ADVANCED_FACE('Body.2',(#409),#398,.F.) ;
#427=ADVANCED_FACE('Body.2',(#426),#415,.T.) ;
#439=ADVANCED_FACE('Body.2',(#438),#432,.F.) ;
#4=APPLICATION_PROTOCOL_DEFINITION('international standard','automotive_design',2001,#1) ;
#22=MANIFOLD_SOLID_BREP('Body.2',#31) ;
#40=CIRCLE('generated circle',#39,5.25) ;
#56=CIRCLE('generated circle',#55,5.25) ;
#75=CIRCLE('generated circle',#74,5.25) ;
#80=CIRCLE('generated circle',#79,5.25) ;
#135=CIRCLE('generated circle',#134,5.25) ;
#144=CIRCLE('generated circle',#143,5.25) ;
#153=CIRCLE('generated circle',#152,5.25) ;
#162=CIRCLE('generated circle',#161,5.25) ;
#171=CIRCLE('generated circle',#170,5.25) ;
#180=CIRCLE('generated circle',#179,5.25) ;
#233=CIRCLE('generated circle',#232,5.25) ;
#242=CIRCLE('generated circle',#241,5.25) ;
#251=CIRCLE('generated circle',#250,5.25) ;
#260=CIRCLE('generated circle',#259,5.25) ;
#269=CIRCLE('generated circle',#268,5.25) ;
#278=CIRCLE('generated circle',#277,5.25) ;
#23=COLOUR_RGB('Colour',0.752941176471,0.76862745098,0.749019607843) ;
#36=CYLINDRICAL_SURFACE('generated cylinder',#35,5.25) ;
#289=CYLINDRICAL_SURFACE('generated cylinder',#288,5.25) ;
#318=CYLINDRICAL_SURFACE('generated cylinder',#317,5.25) ;
#347=CYLINDRICAL_SURFACE('generated cylinder',#346,5.25) ;
#45=EDGE_CURVE('',#42,#44,#40,.F.) ;
#52=EDGE_CURVE('',#51,#44,#49,.F.) ;
#59=EDGE_CURVE('',#51,#58,#56,.T.) ;
#64=EDGE_CURVE('',#58,#42,#63,.F.) ;
#76=EDGE_CURVE('',#44,#42,#75,.F.) ;
#81=EDGE_CURVE('',#58,#51,#80,.T.) ;
#102=EDGE_CURVE('',#99,#101,#97,.F.) ;
#109=EDGE_CURVE('',#108,#99,#106,.T.) ;
#116=EDGE_CURVE('',#115,#108,#113,.F.) ;
#121=EDGE_CURVE('',#101,#115,#120,.T.) ;
#140=EDGE_CURVE('',#137,#139,#135,.F.) ;
#145=EDGE_CURVE('',#139,#137,#144,.F.) ;
#158=EDGE_CURVE('',#155,#157,#153,.F.) ;
#163=EDGE_CURVE('',#157,#155,#162,.F.) ;
#176=EDGE_CURVE('',#173,#175,#171,.F.) ;
#181=EDGE_CURVE('',#175,#173,#180,.F.) ;
#200=EDGE_CURVE('',#197,#199,#195,.T.) ;
#207=EDGE_CURVE('',#199,#206,#204,.F.) ;
#214=EDGE_CURVE('',#206,#213,#211,.T.) ;
#219=EDGE_CURVE('',#213,#197,#218,.F.) ;
#238=EDGE_CURVE('',#235,#237,#233,.T.) ;
#243=EDGE_CURVE('',#237,#235,#242,.T.) ;
#256=EDGE_CURVE('',#253,#255,#251,.T.) ;
#261=EDGE_CURVE('',#255,#253,#260,.T.) ;
#274=EDGE_CURVE('',#271,#273,#269,.T.) ;
#279=EDGE_CURVE('',#273,#271,#278,.T.) ;
#294=EDGE_CURVE('',#173,#273,#293,.F.) ;
#299=EDGE_CURVE('',#175,#271,#298,.F.) ;
#323=EDGE_CURVE('',#155,#255,#322,.F.) ;
#328=EDGE_CURVE('',#157,#253,#327,.F.) ;
#352=EDGE_CURVE('',#137,#237,#351,.F.) ;
#357=EDGE_CURVE('',#139,#235,#356,.F.) ;
#381=EDGE_CURVE('',#197,#101,#380,.T.) ;
#386=EDGE_CURVE('',#213,#99,#385,.T.) ;
#403=EDGE_CURVE('',#206,#108,#402,.T.) ;
#420=EDGE_CURVE('',#199,#115,#419,.T.) ;
#65=EDGE_LOOP('',(#66,#67,#68,#69)) ;
#82=EDGE_LOOP('',(#83,#84,#85,#86)) ;
#122=EDGE_LOOP('',(#123,#124,#125,#126)) ;
#128=EDGE_LOOP('',(#129,#130)) ;
#146=EDGE_LOOP('',(#147,#148)) ;
#164=EDGE_LOOP('',(#165,#166)) ;
#182=EDGE_LOOP('',(#183,#184)) ;
#220=EDGE_LOOP('',(#221,#222,#223,#224)) ;
#226=EDGE_LOOP('',(#227,#228)) ;
#244=EDGE_LOOP('',(#245,#246)) ;
#262=EDGE_LOOP('',(#263,#264)) ;
#280=EDGE_LOOP('',(#281,#282)) ;
#300=EDGE_LOOP('',(#301,#302,#303,#304)) ;
#307=EDGE_LOOP('',(#308,#309,#310,#311)) ;
#329=EDGE_LOOP('',(#330,#331,#332,#333)) ;
#336=EDGE_LOOP('',(#337,#338,#339,#340)) ;
#358=EDGE_LOOP('',(#359,#360,#361,#362)) ;
#365=EDGE_LOOP('',(#366,#367,#368,#369)) ;
#387=EDGE_LOOP('',(#388,#389,#390,#391)) ;
#404=EDGE_LOOP('',(#405,#406,#407,#408)) ;
#421=EDGE_LOOP('',(#422,#423,#424,#425)) ;
#433=EDGE_LOOP('',(#434,#435,#436,#437)) ;
#70=FACE_OUTER_BOUND('',#65,.T.) ;
#87=FACE_OUTER_BOUND('',#82,.T.) ;
#127=FACE_OUTER_BOUND('',#122,.T.) ;
#225=FACE_OUTER_BOUND('',#220,.T.) ;
#305=FACE_OUTER_BOUND('',#300,.T.) ;
#312=FACE_OUTER_BOUND('',#307,.T.) ;
#334=FACE_OUTER_BOUND('',#329,.T.) ;
#341=FACE_OUTER_BOUND('',#336,.T.) ;
#363=FACE_OUTER_BOUND('',#358,.T.) ;
#370=FACE_OUTER_BOUND('',#365,.T.) ;
#392=FACE_OUTER_BOUND('',#387,.T.) ;
#409=FACE_OUTER_BOUND('',#404,.T.) ;
#426=FACE_OUTER_BOUND('',#421,.T.) ;
#438=FACE_OUTER_BOUND('',#433,.T.) ;
#49=LINE('Line',#46,#48) ;
#63=LINE('Line',#60,#62) ;
#97=LINE('Line',#94,#96) ;
#106=LINE('Line',#103,#105) ;
#113=LINE('Line',#110,#112) ;
#120=LINE('Line',#117,#119) ;
#195=LINE('Line',#192,#194) ;
#204=LINE('Line',#201,#203) ;
#211=LINE('Line',#208,#210) ;
#218=LINE('Line',#215,#217) ;
#293=LINE('Line',#290,#292) ;
#298=LINE('Line',#295,#297) ;
#322=LINE('Line',#319,#321) ;
#327=LINE('Line',#324,#326) ;
#351=LINE('Line',#348,#350) ;
#356=LINE('Line',#353,#355) ;
#380=LINE('Line',#377,#379) ;
#385=LINE('Line',#382,#384) ;
#402=LINE('Line',#399,#401) ;
#419=LINE('Line',#416,#418) ;
#93=PLANE('',#92) ;
#191=PLANE('',#190) ;
#376=PLANE('',#375) ;
#398=PLANE('',#397) ;
#415=PLANE('',#414) ;
#432=PLANE('',#431) ;
#14=PLANE_ANGLE_MEASURE_WITH_UNIT(PLANE_ANGLE_MEASURE(0.0174532925199),#13) ;
#9=PRODUCT_CATEGORY_RELATIONSHIP(' ',' ',#7,#8) ;
#6=PRODUCT_DEFINITION_FORMATION_WITH_SPECIFIED_SOURCE('',' ',#5,.NOT_KNOWN.) ;
#21=SHAPE_DEFINITION_REPRESENTATION(#11,#20) ;
#42=VERTEX_POINT('',#41) ;
#44=VERTEX_POINT('',#43) ;
#51=VERTEX_POINT('',#50) ;
#58=VERTEX_POINT('',#57) ;
#99=VERTEX_POINT('',#98) ;
#101=VERTEX_POINT('',#100) ;
#108=VERTEX_POINT('',#107) ;
#115=VERTEX_POINT('',#114) ;
#137=VERTEX_POINT('',#136) ;
#139=VERTEX_POINT('',#138) ;
#155=VERTEX_POINT('',#154) ;
#157=VERTEX_POINT('',#156) ;
#173=VERTEX_POINT('',#172) ;
#175=VERTEX_POINT('',#174) ;
#197=VERTEX_POINT('',#196) ;
#199=VERTEX_POINT('',#198) ;
#206=VERTEX_POINT('',#205) ;
#213=VERTEX_POINT('',#212) ;
#235=VERTEX_POINT('',#234) ;
#237=VERTEX_POINT('',#236) ;
#253=VERTEX_POINT('',#252) ;
#255=VERTEX_POINT('',#254) ;
#271=VERTEX_POINT('',#270) ;
#273=VERTEX_POINT('',#272) ;
#12=(LENGTH_UNIT()NAMED_UNIT(*)SI_UNIT(.MILLI.,.METRE.)) ;
#13=(NAMED_UNIT(*)PLANE_ANGLE_UNIT()SI_UNIT($,.RADIAN.)) ;
#15=(NAMED_UNIT(*)SI_UNIT($,.STERADIAN.)SOLID_ANGLE_UNIT()) ;
#17=(GEOMETRIC_REPRESENTATION_CONTEXT(3)GLOBAL_UNCERTAINTY_ASSIGNED_CONTEXT((#16))GLOBAL_UNIT_ASSIGNED_CONTEXT((#12,#13,#15))REPRESENTATION_CONTEXT(' ',' ')) ;
ENDSEC;
END-ISO-10303-21;
