  0
SECTION
  2
HEADER
  9
$ACADVER
  1
AC1009
999
I-DEAS Drafting Master Series 7m3 Not Encoded
  9
$EXTMIN
 10
0.0
 20
0.0
  9
$EXTMAX
 10
2.811E+002
 20
1.8506E+002
  9
$TEXTSIZE
 40
1.25E-001
  9
$LTSCALE
 40
1.0
  9
$CLAYER
  8
V1L0
  9
$CECOLOR
 62
2
  9
$DIMASZ
 40
1.25E-001
  9
$DIMEXO
 40
6.25E-002
  9
$DIMDLI
 40
2.5E-001
  9
$DIMEXE
 40
1.25E-001
  9
$DIMTP
 40
5.0E-003
  9
$DIMTM
 40
-5.0E-003
  9
$DIMTXT
 40
3.0
  9
$DIMLIM
 70
0
  9
$DIMTIH
 70
1
  9
$DIMTOH
 70
1
  9
$DIMSE1
 70
0
  9
$DIMSE2
 70
0
  9
$DIMTAD
 70
0
  9
$DIMASO
 70
1
  9
$DIMALT
 70
0
  9
$DIMALTD
 70
0
  9
$DIMTOFL
 70
1
  9
$DIMTIX
 70
0
  9
$DIMSAH
 70
0
  9
$DIMTFAC
 40
1.0
  9
$DIMGAP
 40
6.25E-002
  9
$LUNITS
 70
2
  9
$LUPREC
 70
3
  9
$FILLETRAD
 40
1.0E+001
  9
$AUNITS
 70
0
  9
$AUPREC
 70
1
  9
$CHAMFERA
 40
6.0
  9
$CHAMFERB
 40
6.0
  9
$ANGBASE
 50
0.0
  9
$ANGDIR
 70
0
  9
$PDMODE
 70
2
  9
$PDSIZE
 40
-1.0E-002
  9
$SPLINETYPE
 70
6
  0
ENDSEC
  0
SECTION
  2
TABLES
  0
TABLE
  2
LTYPE
 70
8
  0
LTYPE
  2
HIDDENNEW00
  3
_ 
 70
64
 72
65
 73
2
 40
4.5
 49
3.0
 49
-1.5
  0
LTYPE
  2
HIDDENNEW01
  3
_ 
 70
64
 72
65
 73
2
 40
4.5
 49
3.0
 49
-1.5
  0
LTYPE
  2
HIDDEN
  3
_ 
 70
64
 72
65
 73
2
 40
4.5
 49
3.0
 49
-1.5
  0
LTYPE
  2
CENTERLINE
  3
_ 
 70
64
 72
65
 73
4
 40
3.0E+001
 49
2.4E+001
 49
-1.5
 49
3.0
 49
-1.5
  0
LTYPE
  2
PHANTOM
  3
_ 
 70
64
 72
65
 73
6
 40
2.95E+001
 49
1.9E+001
 49
-1.5
 49
3.0
 49
-1.5
 49
3.0
 49
-1.5
  0
LTYPE
  2
SHORT_DASH
  3
_ 
 70
64
 72
65
 73
2
 40
3.0
 49
1.5
 49
-1.5
  0
LTYPE
  2
LONG_DASH
  3
_ 
 70
64
 72
65
 73
2
 40
9.0
 49
4.5
 49
-4.5
  0
LTYPE
  2
DASHED
  3
_ 
 70
64
 72
65
 73
2
 40
1.375
 49
1.125
 49
-2.5E-001
  0
ENDTAB
  0
TABLE
  2
LAYER
 70
258
  0
LAYER
  2
V1L0
 70
0
 62
7
  6
HIDDENNEW00
  0
LAYER
  2
Drafting_Hidden_Entities
 70
1
 62
7
  6
CONTINUOUS
  0
ENDTAB
  0
TABLE
  2
STYLE
 70
1
  0
STYLE
  2
STANDARD
 70
64
 40
0.0
 41
1.0
 50
0.0
 71
0
 42
1.0
  3
monotxt.shx
  4

  0
ENDTAB
  0
TABLE
  2
VIEW
 70
0
  0
ENDTAB
  0
TABLE
  2
DIMSTYLE
 70
0
  0
ENDTAB
  0
ENDSEC
  0
SECTION
  2
BLOCKS
  0
ENDSEC
  0
SECTION
  2
ENTITIES
  0
LINE
  8
V1L0
  6
CONTINUOUS
 62
40
 10
1.046E+002
 20
1.0
 11
2.606E+002
 21
1.0
  0
LINE
  8
V1L0
  6
CONTINUOUS
 62
40
 10
8.51E+001
 20
7.2E+001
 11
2.801E+002
 21
7.2E+001
  0
LINE
  8
V1L0
  6
CONTINUOUS
 62
40
 10
2.636E+002
 20
4.0
 11
2.636E+002
 21
7.2E+001
  0
LINE
  8
V1L0
  6
CONTINUOUS
 62
40
 10
1.016E+002
 20
4.0
 11
1.016E+002
 21
7.2E+001
  0
LINE
  8
V1L0
  6
CONTINUOUS
 62
40
 10
2.801E+002
 20
4.0
 11
2.801E+002
 21
7.2E+001
  0
LINE
  8
V1L0
  6
CONTINUOUS
 62
40
 10
8.51E+001
 20
4.0
 11
8.51E+001
 21
7.2E+001
  0
LINE
  8
V1L0
  6
CONTINUOUS
 62
40
 10
8.51E+001
 20
4.0
 11
1.046E+002
 21
4.0
  0
LINE
  8
V1L0
  6
CONTINUOUS
 62
40
 10
1.046E+002
 20
1.0
 11
1.046E+002
 21
4.0
  0
LINE
  8
V1L0
  6
CONTINUOUS
 62
40
 10
2.606E+002
 20
4.0
 11
2.801E+002
 21
4.0
  0
LINE
  8
V1L0
  6
CONTINUOUS
 62
40
 10
2.606E+002
 20
1.0
 11
2.606E+002
 21
4.0
  0
CIRCLE
  8
V1L0
  6
CONTINUOUS
 62
40
 10
9.26E+001
 20
4.7E+001
 40
3.5
  0
CIRCLE
  8
V1L0
  6
CONTINUOUS
 62
40
 10
2.726E+002
 20
4.7E+001
 40
3.5
  0
LINE
  8
V1L0
  6
CONTINUOUS
 62
40
 10
2.705E+002
 20
4.42E+001
 11
2.754E+002
 21
4.91E+001
  0
LINE
  8
V1L0
  6
CONTINUOUS
 62
40
 10
2.6979E+002
 20
4.491E+001
 11
2.7469E+002
 21
4.981E+001
  0
LINE
  8
V1L0
  6
CONTINUOUS
 62
40
 10
8.979E+001
 20
4.491E+001
 11
9.469E+001
 21
4.981E+001
  0
LINE
  8
V1L0
  6
CONTINUOUS
 62
40
 10
9.05E+001
 20
4.42E+001
 11
9.54E+001
 21
4.91E+001
  0
TEXT
  8
V1L0
  6
CONTINUOUS
 62
40
 10
1.6548E+002
 20
4.42
 40
4.0
  1
OESAZX 75
  0
CIRCLE
  8
V1L0
  6
CONTINUOUS
 62
40
 10
2.726E+002
 20
9.3E+001
 40
3.5
  0
LINE
  8
V1L0
  6
CONTINUOUS
 62
40
 10
2.656E+002
 20
1.0E+002
 11
2.796E+002
 21
1.0E+002
  0
LINE
  8
V1L0
  6
LONG_DASH
 62
40
 10
2.656E+002
 20
4.0E+001
 11
2.796E+002
 21
4.0E+001
  0
LINE
  8
V1L0
  6
LONG_DASH
 62
40
 10
2.796E+002
 20
4.0E+001
 11
2.796E+002
 21
7.2E+001
  0
LINE
  8
V1L0
  6
LONG_DASH
 62
40
 10
2.656E+002
 20
4.0E+001
 11
2.656E+002
 21
7.2E+001
  0
LINE
  8
V1L0
  6
CONTINUOUS
 62
40
 10
2.656E+002
 20
7.2E+001
 11
2.656E+002
 21
1.0E+002
  0
LINE
  8
V1L0
  6
LONG_DASH
 62
40
 10
9.96E+001
 20
4.0E+001
 11
9.96E+001
 21
7.2E+001
  0
LINE
  8
V1L0
  6
LONG_DASH
 62
40
 10
8.56E+001
 20
4.0E+001
 11
9.96E+001
 21
4.0E+001
  0
LINE
  8
V1L0
  6
CONTINUOUS
 62
40
 10
9.96E+001
 20
7.2E+001
 11
9.96E+001
 21
1.0E+002
  0
LINE
  8
V1L0
  6
LONG_DASH
 62
40
 10
8.56E+001
 20
4.0E+001
 11
8.56E+001
 21
7.2E+001
  0
LINE
  8
V1L0
  6
CONTINUOUS
 62
40
 10
8.56E+001
 20
1.0E+002
 11
9.96E+001
 21
1.0E+002
  0
CIRCLE
  8
V1L0
  6
CONTINUOUS
 62
40
 10
9.26E+001
 20
9.3E+001
 40
3.5
  0
LINE
  8
V1L0
  6
CONTINUOUS
 62
40
 10
8.56E+001
 20
7.2E+001
 11
8.56E+001
 21
1.0E+002
  0
LINE
  8
V1L0
  6
CONTINUOUS
 62
40
 10
2.796E+002
 20
7.2E+001
 11
2.796E+002
 21
1.0E+002
  0
LINE
  8
V1L0
  6
CONTINUOUS
 62
40
 10
5.96E+001
 20
4.0
 11
5.96E+001
 21
7.2E+001
  0
LINE
  8
V1L0
  6
CONTINUOUS
 62
40
 10
6.11E+001
 20
4.0
 11
6.11E+001
 21
7.2E+001
  0
LINE
  8
V1L0
  6
CONTINUOUS
 62
40
 10
6.31E+001
 20
4.0E+001
 11
6.31E+001
 21
1.0E+002
  0
LINE
  8
V1L0
  6
CONTINUOUS
 62
40
 10
6.11E+001
 20
7.2E+001
 11
6.11E+001
 21
1.0E+002
  0
LINE
  8
V1L0
  6
CONTINUOUS
 62
40
 10
1.1
 20
3.0
 11
1.1
 21
7.2E+001
  0
LINE
  8
V1L0
  6
CONTINUOUS
 62
40
 10
4.71E+001
 20
1.0
 11
4.71E+001
 21
2.5
  0
LINE
  8
V1L0
  6
CONTINUOUS
 62
40
 10
2.6
 20
3.5
 11
2.6
 21
4.0
  0
LINE
  8
V1L0
  6
CONTINUOUS
 62
40
 10
3.1
 20
1.0
 11
4.71E+001
 21
1.0
  0
LINE
  8
V1L0
  6
CONTINUOUS
 62
40
 10
1.1
 20
4.0
 11
6.11E+001
 21
4.0
  0
LINE
  8
V1L0
  6
CONTINUOUS
 62
40
 10
1.1
 20
7.2E+001
 11
6.11E+001
 21
7.2E+001
  0
LINE
  8
V1L0
  6
CONTINUOUS
 62
40
 10
6.11E+001
 20
4.0E+001
 11
6.31E+001
 21
4.0E+001
  0
LINE
  8
V1L0
  6
CONTINUOUS
 62
40
 10
6.11E+001
 20
1.0E+002
 11
6.31E+001
 21
1.0E+002
  0
LINE
  8
V1L0
  6
LONG_DASH
 62
40
 10
6.11E+001
 20
9.65E+001
 11
6.31E+001
 21
9.65E+001
  0
LINE
  8
V1L0
  6
LONG_DASH
 62
40
 10
6.11E+001
 20
8.95E+001
 11
6.31E+001
 21
8.95E+001
  0
LINE
  8
V1L0
  6
CONTINUOUS
 62
40
 10
3.6
 20
2.5
 11
4.71E+001
 21
2.5
  0
ARC
  8
V1L0
  6
CONTINUOUS
 62
40
 10
3.1
 20
3.0
 40
2.0
 50
1.8E+002
 51
2.7E+002
  0
ARC
  8
V1L0
  6
CONTINUOUS
 62
40
 10
3.6
 20
3.5
 40
1.0
 50
1.8E+002
 51
2.7E+002
  0
LINE
  8
V1L0
  6
CONTINUOUS
 62
40
 10
5.76E+001
 20
5.05E+001
 11
5.96E+001
 21
5.05E+001
  0
LINE
  8
V1L0
  6
CONTINUOUS
 62
40
 10
5.76E+001
 20
4.35E+001
 11
5.96E+001
 21
4.35E+001
  0
LINE
  8
V1L0
  6
CONTINUOUS
 62
40
 10
5.71E+001
 20
4.4E+001
 11
5.71E+001
 21
5.0E+001
  0
LINE
  8
V1L0
  6
CONTINUOUS
 62
40
 10
6.51E+001
 20
4.5E+001
 11
6.51E+001
 21
4.9E+001
  0
LINE
  8
V1L0
  6
CONTINUOUS
 62
40
 10
6.31E+001
 20
4.5E+001
 11
6.51E+001
 21
4.5E+001
  0
LINE
  8
V1L0
  6
CONTINUOUS
 62
40
 10
6.31E+001
 20
4.9E+001
 11
6.51E+001
 21
4.9E+001
  0
ARC
  8
V1L0
  6
CONTINUOUS
 62
40
 10
5.76E+001
 20
5.0E+001
 40
5.0E-001
 50
9.0E+001
 51
1.8E+002
  0
ARC
  8
V1L0
  6
CONTINUOUS
 62
40
 10
5.76E+001
 20
4.4E+001
 40
5.0E-001
 50
1.8E+002
 51
2.7E+002
  0
LINE
  8
V1L0
  6
CONTINUOUS
 62
40
 10
8.56E+001
 20
1.22E+002
 11
8.56E+001
 21
1.24E+002
  0
LINE
  8
V1L0
  6
CONTINUOUS
 62
40
 10
9.96E+001
 20
1.22E+002
 11
9.96E+001
 21
1.24E+002
  0
LINE
  8
V1L0
  6
CONTINUOUS
 62
40
 10
2.656E+002
 20
1.22E+002
 11
2.656E+002
 21
1.24E+002
  0
LINE
  8
V1L0
  6
CONTINUOUS
 62
40
 10
2.796E+002
 20
1.22E+002
 11
2.796E+002
 21
1.24E+002
  0
LINE
  8
V1L0
  6
CONTINUOUS
 62
40
 10
2.656E+002
 20
1.24E+002
 11
2.796E+002
 21
1.24E+002
  0
LINE
  8
V1L0
  6
CONTINUOUS
 62
40
 10
2.656E+002
 20
1.22E+002
 11
2.796E+002
 21
1.22E+002
  0
LINE
  8
V1L0
  6
CONTINUOUS
 62
40
 10
8.56E+001
 20
1.24E+002
 11
9.96E+001
 21
1.24E+002
  0
LINE
  8
V1L0
  6
CONTINUOUS
 62
40
 10
8.56E+001
 20
1.22E+002
 11
9.96E+001
 21
1.22E+002
  0
LINE
  8
V1L0
  6
CONTINUOUS
 62
40
 10
8.51E+001
 20
1.24E+002
 11
8.51E+001
 21
1.255E+002
  0
LINE
  8
V1L0
  6
CONTINUOUS
 62
40
 10
2.801E+002
 20
1.24E+002
 11
2.801E+002
 21
1.255E+002
  0
LINE
  8
V1L0
  6
CONTINUOUS
 62
40
 10
8.51E+001
 20
1.24E+002
 11
1.011E+002
 21
1.24E+002
  0
LINE
  8
V1L0
  6
CONTINUOUS
 62
40
 10
8.51E+001
 20
1.255E+002
 11
1.006E+002
 21
1.255E+002
  0
LINE
  8
V1L0
  6
CONTINUOUS
 62
40
 10
1.016E+002
 20
1.265E+002
 11
1.016E+002
 21
1.82E+002
  0
LINE
  8
V1L0
  6
CONTINUOUS
 62
40
 10
2.636E+002
 20
1.265E+002
 11
2.636E+002
 21
1.82E+002
  0
LINE
  8
V1L0
  6
CONTINUOUS
 62
40
 10
1.036E+002
 20
1.84E+002
 11
2.616E+002
 21
1.84E+002
  0
LINE
  8
V1L0
  6
CONTINUOUS
 62
40
 10
2.641E+002
 20
1.24E+002
 11
2.801E+002
 21
1.24E+002
  0
LINE
  8
V1L0
  6
CONTINUOUS
 62
40
 10
2.646E+002
 20
1.255E+002
 11
2.801E+002
 21
1.255E+002
  0
LINE
  8
V1L0
  6
CONTINUOUS
 62
40
 10
1.046E+002
 20
1.38E+002
 11
1.046E+002
 21
1.84E+002
  0
LINE
  8
V1L0
  6
CONTINUOUS
 62
40
 10
2.606E+002
 20
1.38E+002
 11
2.606E+002
 21
1.84E+002
  0
LINE
  8
V1L0
  6
CONTINUOUS
 62
40
 10
2.621E+002
 20
1.26E+002
 11
2.621E+002
 21
1.815E+002
  0
LINE
  8
V1L0
  6
CONTINUOUS
 62
40
 10
2.606E+002
 20
1.825E+002
 11
2.611E+002
 21
1.825E+002
  0
ARC
  8
V1L0
  6
CONTINUOUS
 62
40
 10
2.611E+002
 20
1.815E+002
 40
1.0
 50
0.0
 51
9.0E+001
  0
ARC
  8
V1L0
  6
CONTINUOUS
 62
40
 10
2.646E+002
 20
1.265E+002
 40
1.0
 50
1.8E+002
 51
2.7E+002
  0
ARC
  8
V1L0
  6
CONTINUOUS
 62
40
 10
2.641E+002
 20
1.26E+002
 40
2.0
 50
1.8E+002
 51
2.7E+002
  0
ARC
  8
V1L0
  6
CONTINUOUS
 62
40
 10
2.616E+002
 20
1.82E+002
 40
2.0
 50
0.0
 51
9.0E+001
  0
ARC
  8
V1L0
  6
CONTINUOUS
 62
40
 10
1.036E+002
 20
1.82E+002
 40
2.0
 50
9.0E+001
 51
1.8E+002
  0
LINE
  8
V1L0
  6
CONTINUOUS
 62
40
 10
1.031E+002
 20
1.26E+002
 11
1.031E+002
 21
1.815E+002
  0
LINE
  8
V1L0
  6
CONTINUOUS
 62
40
 10
1.041E+002
 20
1.825E+002
 11
1.046E+002
 21
1.825E+002
  0
ARC
  8
V1L0
  6
CONTINUOUS
 62
40
 10
1.041E+002
 20
1.815E+002
 40
1.0
 50
9.0E+001
 51
1.8E+002
  0
ARC
  8
V1L0
  6
CONTINUOUS
 62
40
 10
1.006E+002
 20
1.265E+002
 40
1.0
 50
2.7E+002
 51
3.6E+002
  0
ARC
  8
V1L0
  6
CONTINUOUS
 62
40
 10
1.011E+002
 20
1.26E+002
 40
2.0
 50
2.7E+002
 51
3.6E+002
  0
LINE
  8
V1L0
  6
CONTINUOUS
 62
40
 10
1.911E+002
 20
1.38E+002
 11
1.911E+002
 21
1.6E+002
  0
LINE
  8
V1L0
  6
CONTINUOUS
 62
40
 10
1.741E+002
 20
1.38E+002
 11
1.741E+002
 21
1.6E+002
  0
LINE
  8
V1L0
  6
CONTINUOUS
 62
40
 10
1.741E+002
 20
1.6E+002
 11
1.911E+002
 21
1.6E+002
  0
LINE
  8
V1L0
  6
CONTINUOUS
 62
40
 10
2.216E+002
 20
1.38E+002
 11
2.216E+002
 21
1.6E+002
  0
LINE
  8
V1L0
  6
CONTINUOUS
 62
40
 10
2.386E+002
 20
1.38E+002
 11
2.386E+002
 21
1.6E+002
  0
LINE
  8
V1L0
  6
CONTINUOUS
 62
40
 10
2.216E+002
 20
1.6E+002
 11
2.386E+002
 21
1.6E+002
  0
LINE
  8
V1L0
  6
CONTINUOUS
 62
40
 10
2.2485E+002
 20
1.665E+002
 11
2.3535E+002
 21
1.665E+002
  0
LINE
  8
V1L0
  6
CONTINUOUS
 62
40
 10
2.2485E+002
 20
1.71E+002
 11
2.3535E+002
 21
1.71E+002
  0
LINE
  8
V1L0
  6
CONTINUOUS
 62
40
 10
2.3535E+002
 20
1.665E+002
 11
2.3535E+002
 21
1.71E+002
  0
LINE
  8
V1L0
  6
CONTINUOUS
 62
40
 10
2.2485E+002
 20
1.665E+002
 11
2.2485E+002
 21
1.71E+002
  0
LINE
  8
V1L0
  6
CONTINUOUS
 62
40
 10
2.386E+002
 20
1.38E+002
 11
2.606E+002
 21
1.38E+002
  0
LINE
  8
V1L0
  6
CONTINUOUS
 62
40
 10
1.911E+002
 20
1.38E+002
 11
2.216E+002
 21
1.38E+002
  0
LINE
  8
V1L0
  6
CONTINUOUS
 62
40
 10
1.2985E+002
 20
1.71E+002
 11
1.4035E+002
 21
1.71E+002
  0
LINE
  8
V1L0
  6
CONTINUOUS
 62
40
 10
1.4035E+002
 20
1.665E+002
 11
1.4035E+002
 21
1.71E+002
  0
LINE
  8
V1L0
  6
CONTINUOUS
 62
40
 10
1.2985E+002
 20
1.665E+002
 11
1.4035E+002
 21
1.665E+002
  0
LINE
  8
V1L0
  6
CONTINUOUS
 62
40
 10
1.2985E+002
 20
1.665E+002
 11
1.2985E+002
 21
1.71E+002
  0
LINE
  8
V1L0
  6
CONTINUOUS
 62
40
 10
1.436E+002
 20
1.38E+002
 11
1.436E+002
 21
1.6E+002
  0
LINE
  8
V1L0
  6
CONTINUOUS
 62
40
 10
1.266E+002
 20
1.38E+002
 11
1.266E+002
 21
1.6E+002
  0
LINE
  8
V1L0
  6
CONTINUOUS
 62
40
 10
1.266E+002
 20
1.6E+002
 11
1.436E+002
 21
1.6E+002
  0
LINE
  8
V1L0
  6
CONTINUOUS
 62
40
 10
1.046E+002
 20
1.38E+002
 11
1.266E+002
 21
1.38E+002
  0
LINE
  8
V1L0
  6
CONTINUOUS
 62
40
 10
1.436E+002
 20
1.38E+002
 11
1.741E+002
 21
1.38E+002
  0
LINE
  8
V1L0
  6
CONTINUOUS
 62
40
 10
1.7735E+002
 20
1.71E+002
 11
1.8785E+002
 21
1.71E+002
  0
LINE
  8
V1L0
  6
CONTINUOUS
 62
40
 10
1.7735E+002
 20
1.665E+002
 11
1.7735E+002
 21
1.71E+002
  0
LINE
  8
V1L0
  6
CONTINUOUS
 62
40
 10
1.7735E+002
 20
1.665E+002
 11
1.8785E+002
 21
1.665E+002
  0
LINE
  8
V1L0
  6
CONTINUOUS
 62
40
 10
1.8785E+002
 20
1.665E+002
 11
1.8785E+002
 21
1.71E+002
  0
LINE
  8
V1L0
  6
CONTINUOUS
 62
40
 10
2.761E+002
 20
1.255E+002
 11
2.761E+002
 21
1.275E+002
  0
LINE
  8
V1L0
  6
CONTINUOUS
 62
40
 10
2.691E+002
 20
1.255E+002
 11
2.691E+002
 21
1.275E+002
  0
LINE
  8
V1L0
  6
CONTINUOUS
 62
40
 10
2.696E+002
 20
1.28E+002
 11
2.756E+002
 21
1.28E+002
  0
LINE
  8
V1L0
  6
CONTINUOUS
 62
40
 10
2.706E+002
 20
1.2E+002
 11
2.746E+002
 21
1.2E+002
  0
LINE
  8
V1L0
  6
CONTINUOUS
 62
40
 10
2.746E+002
 20
1.2E+002
 11
2.746E+002
 21
1.22E+002
  0
LINE
  8
V1L0
  6
CONTINUOUS
 62
40
 10
2.706E+002
 20
1.2E+002
 11
2.706E+002
 21
1.22E+002
  0
ARC
  8
V1L0
  6
CONTINUOUS
 62
40
 10
2.696E+002
 20
1.275E+002
 40
5.0E-001
 50
9.0E+001
 51
1.8E+002
  0
ARC
  8
V1L0
  6
CONTINUOUS
 62
40
 10
2.756E+002
 20
1.275E+002
 40
5.0E-001
 50
0.0
 51
9.0E+001
  0
LINE
  8
V1L0
  6
CONTINUOUS
 62
40
 10
9.06E+001
 20
1.2E+002
 11
9.06E+001
 21
1.22E+002
  0
LINE
  8
V1L0
  6
CONTINUOUS
 62
40
 10
9.06E+001
 20
1.2E+002
 11
9.46E+001
 21
1.2E+002
  0
LINE
  8
V1L0
  6
CONTINUOUS
 62
40
 10
9.46E+001
 20
1.2E+002
 11
9.46E+001
 21
1.22E+002
  0
LINE
  8
V1L0
  6
CONTINUOUS
 62
40
 10
8.91E+001
 20
1.255E+002
 11
8.91E+001
 21
1.275E+002
  0
ARC
  8
V1L0
  6
CONTINUOUS
 62
40
 10
8.96E+001
 20
1.275E+002
 40
5.0E-001
 50
9.0E+001
 51
1.8E+002
  0
LINE
  8
V1L0
  6
CONTINUOUS
 62
40
 10
8.96E+001
 20
1.28E+002
 11
9.56E+001
 21
1.28E+002
  0
ARC
  8
V1L0
  6
CONTINUOUS
 62
40
 10
9.56E+001
 20
1.275E+002
 40
5.0E-001
 50
0.0
 51
9.0E+001
  0
LINE
  8
V1L0
  6
CONTINUOUS
 62
40
 10
9.61E+001
 20
1.255E+002
 11
9.61E+001
 21
1.275E+002
  0
LINE
  8
V1L0
  6
CONTINUOUS
 62
40
 10
1.626E+002
 20
2.05E+001
 11
2.026E+002
 21
2.05E+001
  0
LINE
  8
V1L0
  6
CONTINUOUS
 62
40
 10
1.626E+002
 20
5.25E+001
 11
2.026E+002
 21
5.25E+001
  0
LINE
  8
V1L0
  6
CONTINUOUS
 62
40
 10
2.026E+002
 20
2.05E+001
 11
2.026E+002
 21
5.25E+001
  0
LINE
  8
V1L0
  6
CONTINUOUS
 62
40
 10
1.626E+002
 20
2.05E+001
 11
1.626E+002
 21
5.25E+001
  0
LINE
  8
V1L0
  6
CONTINUOUS
 62
40
 10
1.7121E+002
 20
2.45E+001
 11
1.9399E+002
 21
2.45E+001
  0
LINE
  8
V1L0
  6
CONTINUOUS
 62
40
 10
1.6991E+002
 20
2.676E+001
 11
1.813E+002
 21
4.628E+001
  0
LINE
  8
V1L0
  6
CONTINUOUS
 62
40
 10
1.8389E+002
 20
4.628E+001
 11
1.9528E+002
 21
2.676E+001
  0
ARC
  8
V1L0
  6
CONTINUOUS
 62
40
 10
1.826E+002
 20
4.553E+001
 40
1.5
 50
3.026E+001
 51
1.4974E+002
  0
ARC
  8
V1L0
  6
CONTINUOUS
 62
40
 10
1.9399E+002
 20
2.6E+001
 40
1.5
 50
2.7E+002
 51
3.9026E+002
  0
ARC
  8
V1L0
  6
CONTINUOUS
 62
40
 10
1.7121E+002
 20
2.6E+001
 40
1.5
 50
1.4974E+002
 51
2.7E+002
  0
LINE
  8
V1L0
  6
CONTINUOUS
 62
40
 10
1.8199E+002
 20
4.29E+001
 11
1.8298E+002
 21
4.272E+001
  0
LINE
  8
V1L0
  6
CONTINUOUS
 62
40
 10
1.8069E+002
 20
3.401E+001
 11
1.8199E+002
 21
4.29E+001
  0
LINE
  8
V1L0
  6
CONTINUOUS
 62
40
 10
1.8128E+002
 20
3.45E+001
 11
1.8298E+002
 21
4.272E+001
  0
LINE
  8
V1L0
  6
CONTINUOUS
 62
40
 10
1.827E+002
 20
2.853E+001
 11
1.8366E+002
 21
3.498E+001
  0
LINE
  8
V1L0
  6
CONTINUOUS
 62
40
 10
1.833E+002
 20
2.842E+001
 11
1.8485E+002
 21
3.595E+001
  0
LINE
  8
V1L0
  6
CONTINUOUS
 62
40
 10
1.8128E+002
 20
3.45E+001
 11
1.8485E+002
 21
3.595E+001
  0
LINE
  8
V1L0
  6
CONTINUOUS
 62
40
 10
1.8069E+002
 20
3.401E+001
 11
1.8366E+002
 21
3.498E+001
  0
LINE
  8
V1L0
  6
CONTINUOUS
 62
40
 10
1.8202E+002
 20
2.864E+001
 11
1.8253E+002
 21
2.578E+001
  0
LINE
  8
V1L0
  6
CONTINUOUS
 62
40
 10
1.8253E+002
 20
2.578E+001
 11
1.8398E+002
 21
2.83E+001
  0
LINE
  8
V1L0
  6
CONTINUOUS
 62
40
 10
1.8202E+002
 20
2.864E+001
 11
1.827E+002
 21
2.853E+001
  0
LINE
  8
V1L0
  6
CONTINUOUS
 62
40
 10
1.833E+002
 20
2.842E+001
 11
1.8398E+002
 21
2.83E+001
  0
ENDSEC
  0
EOF
