  0
SECTION
  2
HEADER
  9
$ACADVER
  1
AC1014
  9
$ACADMAINTVER
 70
     0
  9
$DWGCODEPAGE
  3
ANSI_1252
  9
$INSBASE
 10
0.0
 20
0.0
 30
0.0
  9
$EXTMIN
 10
0.0
 20
0.0
 30
0.0
  9
$EXTMAX
 10
317.797424
 20
361.910645
 30
2.0
  9
$LIMMIN
 10
0.0
 20
0.0
  9
$LIMMAX
 10
420.0
 20
297.0
  9
$ORTHOMODE
 70
     0
  9
$REGENMODE
 70
     1
  9
$FILLMODE
 70
     1
  9
$QTEXTMODE
 70
     0
  9
$MIRRTEXT
 70
     1
  9
$DRAGMODE
 70
     2
  9
$LTSCALE
 40
1.0
  9
$OSMODE
 70
     0
  9
$ATTMODE
 70
     1
  9
$TEXTSIZE
 40
2.5
  9
$TRACEWID
 40
1.0
  9
$TEXTSTYLE
  7
STANDARD
  9
$CLAYER
  8
0
  9
$CELTYPE
  6
BYLAYER
  9
$CECOLOR
 62
   256
  9
$CELTSCALE
 40
1.0
  9
$DELOBJ
 70
     1
  9
$DISPSILH
 70
     0
  9
$DIMSCALE
 40
1.0
  9
$DIMASZ
 40
2.5
  9
$DIMEXO
 40
0.625
  9
$DIMDLI
 40
3.75
  9
$DIMRND
 40
0.0
  9
$DIMDLE
 40
0.0
  9
$DIMEXE
 40
1.25
  9
$DIMTP
 40
0.0
  9
$DIMTM
 40
0.0
  9
$DIMTXT
 40
2.5
  9
$DIMCEN
 40
2.5
  9
$DIMTSZ
 40
0.0
  9
$DIMTOL
 70
     0
  9
$DIMLIM
 70
     0
  9
$DIMTIH
 70
     0
  9
$DIMTOH
 70
     0
  9
$DIMSE1
 70
     0
  9
$DIMSE2
 70
     0
  9
$DIMTAD
 70
     1
  9
$DIMZIN
 70
     8
  9
$DIMBLK
  1

  9
$DIMASO
 70
     1
  9
$DIMSHO
 70
     1
  9
$DIMPOST
  1

  9
$DIMAPOST
  1

  9
$DIMALT
 70
     0
  9
$DIMALTD
 70
     3
  9
$DIMALTF
 40
0.03937
  9
$DIMLFAC
 40
1.0
  9
$DIMTOFL
 70
     1
  9
$DIMTVP
 40
0.0
  9
$DIMTIX
 70
     0
  9
$DIMSOXD
 70
     0
  9
$DIMSAH
 70
     0
  9
$DIMBLK1
  1

  9
$DIMBLK2
  1

  9
$DIMSTYLE
  2
STANDARD
  9
$DIMCLRD
 70
     0
  9
$DIMCLRE
 70
     0
  9
$DIMCLRT
 70
     0
  9
$DIMTFAC
 40
1.0
  9
$DIMGAP
 40
0.625
  9
$DIMJUST
 70
     0
  9
$DIMSD1
 70
     0
  9
$DIMSD2
 70
     0
  9
$DIMTOLJ
 70
     0
  9
$DIMTZIN
 70
     8
  9
$DIMALTZ
 70
     0
  9
$DIMALTTZ
 70
     0
  9
$DIMFIT
 70
     0
  9
$DIMUPT
 70
     0
  9
$DIMUNIT
 70
     2
  9
$DIMDEC
 70
     2
  9
$DIMTDEC
 70
     2
  9
$DIMALTU
 70
     2
  9
$DIMALTTD
 70
     3
  9
$DIMTXSTY
  7
STANDARD
  9
$DIMAUNIT
 70
     0
  9
$LUNITS
 70
     2
  9
$LUPREC
 70
     4
  9
$SKETCHINC
 40
1.0
  9
$FILLETRAD
 40
2.5
  9
$AUNITS
 70
     0
  9
$AUPREC
 70
     0
  9
$MENU
  1
.
  9
$ELEVATION
 40
0.0
  9
$PELEVATION
 40
0.0
  9
$THICKNESS
 40
0.0
  9
$LIMCHECK
 70
     0
  9
$BLIPMODE
 70
     1
  9
$CHAMFERA
 40
2.5
  9
$CHAMFERB
 40
2.5
  9
$CHAMFERC
 40
0.0
  9
$CHAMFERD
 40
0.0
  9
$SKPOLY
 70
     0
  9
$TDCREATE
 40
0.000000000
  9
$TDUPDATE
 40
0.000000000
  9
$TDINDWG
 40
0.0000000000
  9
$TDUSRTIMER
 40
0.0000000000
  9
$USRTIMER
 70
     1
  9
$ANGBASE
 50
0.0
  9
$ANGDIR
 70
     0
  9
$PDMODE
 70
     0
  9
$PDSIZE
 40
0.0
  9
$PLINEWID
 40
0.0
  9
$COORDS
 70
     0
  9
$SPLFRAME
 70
     0
  9
$SPLINETYPE
 70
     6
  9
$SPLINESEGS
 70
     8
  9
$ATTDIA
 70
     0
  9
$ATTREQ
 70
     1
  9
$HANDLING
 70
     1
  9
$HANDSEED
  5
673
  9
$SURFTAB1
 70
     6
  9
$SURFTAB2
 70
     6
  9
$SURFTYPE
 70
     6
  9
$SURFU
 70
     6
  9
$SURFV
 70
     6
  9
$UCSNAME
  2

  9
$UCSORG
 10
0.0
 20
0.0
 30
0.0
  9
$UCSXDIR
 10
1.0
 20
0.0
 30
0.0
  9
$UCSYDIR
 10
0.0
 20
1.0
 30
0.0
  9
$PUCSNAME
  2

  9
$PUCSORG
 10
0.0
 20
0.0
 30
0.0
  9
$PUCSXDIR
 10
1.0
 20
0.0
 30
0.0
  9
$PUCSYDIR
 10
0.0
 20
1.0
 30
0.0
  9
$USERI1
 70
     0
  9
$USERI2
 70
     0
  9
$USERI3
 70
     0
  9
$USERI4
 70
     0
  9
$USERI5
 70
     0
  9
$USERR1
 40
0.0
  9
$USERR2
 40
0.0
  9
$USERR3
 40
0.0
  9
$USERR4
 40
0.0
  9
$USERR5
 40
0.0
  9
$WORLDVIEW
 70
     1
  9
$SHADEDGE
 70
     3
  9
$SHADEDIF
 70
    70
  9
$TILEMODE
 70
     1
  9
$MAXACTVP
 70
    48
  9
$PINSBASE
 10
0.0
 20
0.0
 30
0.0
  9
$PLIMCHECK
 70
     0
  9
$PEXTMIN
 10
0.0
 20
0.0
 30
0.0
  9
$PEXTMAX
 10
317.797424
 20
361.910645
 30
2.0
  9
$PLIMMIN
 10
0.0
 20
0.0
  9
$PLIMMAX
 10
420.0
 20
297.0
  9
$UNITMODE
 70
     0
  9
$VISRETAIN
 70
     0
  9
$PLINEGEN
 70
     0
  9
$PSLTSCALE
 70
     1
  9
$TREEDEPTH
 70
  3020
  9
$PICKSTYLE
 70
     1
  9
$CMLSTYLE
  2
STANDARD
  9
$CMLJUST
 70
     0
  9
$CMLSCALE
 40
20.0
  9
$PROXYGRAPHICS
 70
     1
  9
$MEASUREMENT
 70
     1
  0
ENDSEC
  0
SECTION
  2
CLASSES
  0
CLASS
  1
LWPOLYLINE
  2
AcDbPolyline
  3
"AutoCAD"
 90
        0
280
     0
281
     1
  0
CLASS
  1
IMAGE
  2
AcDbRasterImage
  3
ISM
 90
      127
280
     0
281
     1
  0
CLASS
  1
OLE2FRAME
  2
AcDbOle2Frame
  3
""
 90
        0
280
     0
281
     1
  0
CLASS
  1
HATCH
  2
AcDbHatch
  3
"ACAD_SEDONA"
 90
        0
280
     0
281
     1
  0
CLASS
  1
DICTIONARYVAR
  2
AcDbDictionaryVar
  3
"AutoCAD"
 90
        0
280
     0
281
     0
  0
CLASS
  1
RASTERVARIABLES
  2
AcDbRasterVariables
  3
ISM
 90
        0
280
     0
281
     0
  0
CLASS
  1
IMAGEDEF
  2
AcDbRasterImageDef
  3
ISM
 90
        0
280
     0
281
     0
  0
CLASS
  1
IMAGEDEF_REACTOR
  2
AcDbRasterImageDefReactor
  3
ISM
 90
        1
280
     0
281
     0
  0
CLASS
  1
IDBUFFER
  2
AcDbIdBuffer
  3
"Acad"
 90
        0
280
     0
281
     0
  0
CLASS
  1
SPATIAL_FILTER
  2
AcDbSpatialFilter
  3
"Acad"
 90
        0
280
     0
281
     0
  0
CLASS
  1
XRECORD
  2
AcDbXrecord
  3
"<Built In>"
 90
        0
280
     0
281
     0
  0
CLASS
  1
SORTENTSTABLE
  2
AcDbSortentsTable
  3
"AutoCAD"
 90
        0
280
     0
281
     0
  0
CLASS
  1
LAYER_INDEX
  2
AcDbLayerIndex
  3
"Acad"
 90
        0
280
     0
281
     0
  0
CLASS
  1
SPATIAL_INDEX
  2
AcDbSpatialIndex
  3
"Acad"
 90
        0
280
     0
281
     0
  0
CLASS
  1
OBJECT_PTR
  2
CAseDLPNTableRecord
  3
"ASE-LPNTableRecord"
 90
        1
280
     0
281
     0
  0
CLASS
  1
LAYOUT
  2
AcDbLayout
  3
"AutoCAD 2000"
 90
        0
280
     0
281
     0
  0
CLASS
  1
PLOTSETTINGS
  2
AcDbPlotSettings
  3
"AutoCAD 2000"
 90
        0
280
     0
281
     0
  0
CLASS
  1
ACDBDICTIONARYWDFLT
  2
AcDbDictionaryWithDefault
  3
"AutoCAD 2000"
 90
        0
280
     0
281
     0
  0
CLASS
  1
ACDBPLACEHOLDER
  2
AcDbPlaceHolder
  3
"AutoCAD 2000"
 90
        0
280
     0
281
     0
  0
CLASS
  1
VBA_PROJECT
  2
AcDbVbaProject
  3
"acadvba"
 90
        0
280
     0
281
     0
  0
CLASS
  1
WIPEOUT
  2
AcDbWipeout
  3
WipeOut|AutoCAD Express Tool|expresstools@autodesk.com
 90
      127
280
     0
281
     1
  0
CLASS
  1
WIPEOUTVARIABLES
  2
AcDbWipeoutVariables
  3
WipeOut|AutoCAD Express Tool|expresstools@autodesk.com
 90
        0
280
     0
281
     0
  0
CLASS
  1
RTEXT
  2
RText
  3
RText|AutoCAD Express Tool|expresstools@autodesk.com
 90
        0
280
     0
281
     1
  0
CLASS
  1
ARCALIGNEDTEXT
  2
AcDbArcAlignedText
  3
ATEXT|AutoCAD Express Tool|expresstools@autodesk.com
 90
        0
280
     0
281
     1
  0
ENDSEC
  0
SECTION
  2
TABLES
  0
TABLE
  2
VPORT
  5
7
100
AcDbSymbolTable
 70
     1
  0
VPORT
  5
15
100
AcDbSymbolTableRecord
100
AcDbViewportTableRecord
  2
*ACTIVE
 70
     0
 10
0.0
 20
0.0
 11
1.0
 21
1.0
 12
6.591288
 22
4.579184
 13
0.0
 23
0.0
 14
1.0
 24
1.0
 15
0.0
 25
0.0
 16
0.0
 26
0.0
 36
1.0
 17
0.0
 27
0.0
 37
0.0
 40
9.158369
 41
0.688564
 42
50.0
 43
0.0
 44
0.0
 50
0.0
 51
0.0
 71
     0
 72
   100
 73
     1
 74
     1
 75
     0
 76
     0
 77
     0
 78
     0
  0
ENDTAB
  0
TABLE
  2
LTYPE
  5
4
100
AcDbSymbolTable
 70
    10
  0
LTYPE
  5
11
100
AcDbSymbolTableRecord
100
AcDbLinetypeTableRecord
  2
BYBLOCK
 70
    64
  3

 72
    65
 73
     0
 40
0.0
  0
LTYPE
  5
12
100
AcDbSymbolTableRecord
100
AcDbLinetypeTableRecord
  2
BYLAYER
 70
    64
  3

 72
    65
 73
     0
 40
0.0
  0
LTYPE
  5
13
100
AcDbSymbolTableRecord
100
AcDbLinetypeTableRecord
  2
CONTINUOUS
 70
    64
  3
Solid line
 72
    65
 73
     0
 40
0.0
  0
LTYPE
  5
1D
100
AcDbSymbolTableRecord
100
AcDbLinetypeTableRecord
  2
DASHED
 70
     0
  3
__ __ __ __ __ __ __ __ __ __ __ __ __ __ __ __
 72
    65
 73
     2
 40
15.0
 49
12.0
 74
     0
 49
-3.0
 74
     0
  0
LTYPE
  5
1E
100
AcDbSymbolTableRecord
100
AcDbLinetypeTableRecord
  2
DASHDOT
 70
     0
  3
 __ . __ . __ . __ . __ . __ . __ . 
 72
    65
 73
     4
 40
18.5
 49
12.0
 74
     0
 49
-3.0
 74
     0
 49
0.5
 74
     0
 49
-3.0
 74
     0
  0
LTYPE
  5
1F
100
AcDbSymbolTableRecord
100
AcDbLinetypeTableRecord
  2
DOT
 70
     0
  3
 . . . . . . . . . . . . . . . .
 72
    65
 73
     2
 40
3.5
 49
0.5
 74
     0
 49
-3.0
 74
     0
  0
LTYPE
  5
20
100
AcDbSymbolTableRecord
100
AcDbLinetypeTableRecord
  2
DASHSPACE
 70
     0
  3
__    __    __    __    __   
 72
    65
 73
     2
 40
30.0
 49
12.0
 74
     0
 49
-18.0
 74
     0
  0
LTYPE
  5
21
100
AcDbSymbolTableRecord
100
AcDbLinetypeTableRecord
  2
DASHDOT2
 70
     0
  3
__ . . __ . . __ . . __ 
 72
    65
 73
     6
 40
22.0
 49
12.0
 74
     0
 49
-3.0
 74
     0
 49
0.5
 74
     0
 49
-3.0
 74
     0
 49
0.5
 74
     0
 49
-3.0
 74
     0
  0
LTYPE
  5
22
100
AcDbSymbolTableRecord
100
AcDbLinetypeTableRecord
  2
PHANTOM
 70
     0
  3
____________    ____    ____   _
 72
    65
 73
     6
 40
20.0
 49
10.0
 74
     0
 49
-2.0
 74
     0
 49
2.0
 74
     0
 49
-2.0
 74
     0
 49
2.0
 74
     0
 49
-2.0
 74
     0
  0
LTYPE
  5
23
100
AcDbSymbolTableRecord
100
AcDbLinetypeTableRecord
  2
AXES
 70
     0
  3
________  __  ________  __  _____
 72
    65
 73
     4
 40
24.0
 49
15.0
 74
     0
 49
-3.0
 74
     0
 49
3.0
 74
     0
 49
-3.0
 74
     0
  0
ENDTAB
  0
TABLE
  2
LAYER
  5
2
100
AcDbSymbolTable
 70
     1
  0
LAYER
  5
14
100
AcDbSymbolTableRecord
100
AcDbLayerTableRecord
  2
0
 70
     0
 62
     7
  6
CONTINUOUS
  0
ENDTAB
  0
TABLE
  2
STYLE
  5
3
100
AcDbSymbolTable
 70
     2
  0
STYLE
  5
17
100
AcDbSymbolTableRecord
100
AcDbTextStyleTableRecord
  2
STANDARD
 70
     0
 40
0.0
 41
1.0
 50
0.0
 71
     0
 42
0.0
  3
isocp.shx
  4

  0
STYLE
  5
24
100
AcDbSymbolTableRecord
100
AcDbTextStyleTableRecord
  2
GDT
 70
     0
 40
0.0
 41
1.0
 50
0.0
 71
     0
 42
0.0
  3
amgdt.shx
  4

  0
ENDTAB
  0
TABLE
  2
VIEW
  5
5
100
AcDbSymbolTable
 70
     0
  0
ENDTAB
  0
TABLE
  2
UCS
  5
6
100
AcDbSymbolTable
 70
     0
  0
ENDTAB
  0
TABLE
  2
APPID
  5
8
100
AcDbSymbolTable
 70
     1
  0
APPID
  5
16
100
AcDbSymbolTableRecord
100
AcDbRegAppTableRecord
  2
ACAD
 70
     0
  0
ENDTAB
  0
TABLE
  2
DIMSTYLE
  5
9
100
AcDbSymbolTable
 70
     1
  0
DIMSTYLE
105
18
100
AcDbSymbolTableRecord
100
AcDbDimStyleTableRecord
  2
STANDARD
 70
     0
  3

  4

  5

  6

  7

 40
1.0
 41
2.5
 42
0.625
 43
3.75
 44
1.25
 45
0.0
 46
0.0
 47
0.0
 48
0.0
 71
     0
 72
     0
 73
     0
 74
     0
 75
     0
 76
     0
 77
     1
 78
     8
140
2.5
141
2.5
142
0.0
143
0.03937
144
1.0
145
0.0
146
1.0
147
0.625
170
     0
171
     3
172
     1
173
     0
174
     0
175
     0
176
     0
177
     0
178
     0
270
     2
271
     2
272
     2
273
     2
274
     3
275
     0
280
     0
281
     0
282
     0
283
     0
284
     8
285
     0
286
     0
287
     0
288
     0
340
0
  0
ENDTAB
  0
TABLE
  2
BLOCK_RECORD
  5
1
100
AcDbSymbolTable
 70
    47
  0
BLOCK_RECORD
  5
A
100
AcDbSymbolTableRecord
100
AcDbBlockTableRecord
  2
*MODEL_SPACE
  0
BLOCK_RECORD
  5
B
100
AcDbSymbolTableRecord
100
AcDbBlockTableRecord
  2
*PAPER_SPACE
  0
BLOCK_RECORD
  5
44E
100
AcDbSymbolTableRecord
100
AcDbBlockTableRecord
  2
BLOCK0
  0
BLOCK_RECORD
  5
44F
100
AcDbSymbolTableRecord
100
AcDbBlockTableRecord
  2
BLOCK1
  0
BLOCK_RECORD
  5
450
100
AcDbSymbolTableRecord
100
AcDbBlockTableRecord
  2
BLOCK2
  0
BLOCK_RECORD
  5
451
100
AcDbSymbolTableRecord
100
AcDbBlockTableRecord
  2
BLOCK3
  0
BLOCK_RECORD
  5
452
100
AcDbSymbolTableRecord
100
AcDbBlockTableRecord
  2
BLOCK4
  0
BLOCK_RECORD
  5
453
100
AcDbSymbolTableRecord
100
AcDbBlockTableRecord
  2
BLOCK5
  0
BLOCK_RECORD
  5
454
100
AcDbSymbolTableRecord
100
AcDbBlockTableRecord
  2
BLOCK6
  0
BLOCK_RECORD
  5
455
100
AcDbSymbolTableRecord
100
AcDbBlockTableRecord
  2
BLOCK7
  0
BLOCK_RECORD
  5
456
100
AcDbSymbolTableRecord
100
AcDbBlockTableRecord
  2
BLOCK8
  0
BLOCK_RECORD
  5
457
100
AcDbSymbolTableRecord
100
AcDbBlockTableRecord
  2
BLOCK9
  0
BLOCK_RECORD
  5
458
100
AcDbSymbolTableRecord
100
AcDbBlockTableRecord
  2
BLOCK10
  0
BLOCK_RECORD
  5
459
100
AcDbSymbolTableRecord
100
AcDbBlockTableRecord
  2
BLOCK11
  0
BLOCK_RECORD
  5
45A
100
AcDbSymbolTableRecord
100
AcDbBlockTableRecord
  2
BLOCK12
  0
BLOCK_RECORD
  5
45B
100
AcDbSymbolTableRecord
100
AcDbBlockTableRecord
  2
BLOCK13
  0
BLOCK_RECORD
  5
45C
100
AcDbSymbolTableRecord
100
AcDbBlockTableRecord
  2
BLOCK14
  0
BLOCK_RECORD
  5
45D
100
AcDbSymbolTableRecord
100
AcDbBlockTableRecord
  2
BLOCK15
  0
BLOCK_RECORD
  5
45E
100
AcDbSymbolTableRecord
100
AcDbBlockTableRecord
  2
BLOCK16
  0
BLOCK_RECORD
  5
45F
100
AcDbSymbolTableRecord
100
AcDbBlockTableRecord
  2
BLOCK17
  0
BLOCK_RECORD
  5
460
100
AcDbSymbolTableRecord
100
AcDbBlockTableRecord
  2
BLOCK18
  0
BLOCK_RECORD
  5
461
100
AcDbSymbolTableRecord
100
AcDbBlockTableRecord
  2
BLOCK19
  0
BLOCK_RECORD
  5
462
100
AcDbSymbolTableRecord
100
AcDbBlockTableRecord
  2
BLOCK20
  0
BLOCK_RECORD
  5
463
100
AcDbSymbolTableRecord
100
AcDbBlockTableRecord
  2
BLOCK21
  0
BLOCK_RECORD
  5
464
100
AcDbSymbolTableRecord
100
AcDbBlockTableRecord
  2
BLOCK22
  0
BLOCK_RECORD
  5
465
100
AcDbSymbolTableRecord
100
AcDbBlockTableRecord
  2
BLOCK23
  0
BLOCK_RECORD
  5
466
100
AcDbSymbolTableRecord
100
AcDbBlockTableRecord
  2
BLOCK24
  0
BLOCK_RECORD
  5
467
100
AcDbSymbolTableRecord
100
AcDbBlockTableRecord
  2
BLOCK25
  0
BLOCK_RECORD
  5
468
100
AcDbSymbolTableRecord
100
AcDbBlockTableRecord
  2
BLOCK26
  0
BLOCK_RECORD
  5
469
100
AcDbSymbolTableRecord
100
AcDbBlockTableRecord
  2
BLOCK27
  0
BLOCK_RECORD
  5
46A
100
AcDbSymbolTableRecord
100
AcDbBlockTableRecord
  2
BLOCK28
  0
BLOCK_RECORD
  5
46B
100
AcDbSymbolTableRecord
100
AcDbBlockTableRecord
  2
BLOCK29
  0
BLOCK_RECORD
  5
46C
100
AcDbSymbolTableRecord
100
AcDbBlockTableRecord
  2
BLOCK30
  0
BLOCK_RECORD
  5
46D
100
AcDbSymbolTableRecord
100
AcDbBlockTableRecord
  2
BLOCK31
  0
BLOCK_RECORD
  5
46E
100
AcDbSymbolTableRecord
100
AcDbBlockTableRecord
  2
BLOCK32
  0
BLOCK_RECORD
  5
46F
100
AcDbSymbolTableRecord
100
AcDbBlockTableRecord
  2
BLOCK33
  0
BLOCK_RECORD
  5
470
100
AcDbSymbolTableRecord
100
AcDbBlockTableRecord
  2
BLOCK34
  0
BLOCK_RECORD
  5
471
100
AcDbSymbolTableRecord
100
AcDbBlockTableRecord
  2
BLOCK35
  0
BLOCK_RECORD
  5
472
100
AcDbSymbolTableRecord
100
AcDbBlockTableRecord
  2
BLOCK36
  0
BLOCK_RECORD
  5
473
100
AcDbSymbolTableRecord
100
AcDbBlockTableRecord
  2
BLOCK37
  0
BLOCK_RECORD
  5
474
100
AcDbSymbolTableRecord
100
AcDbBlockTableRecord
  2
BLOCK38
  0
BLOCK_RECORD
  5
475
100
AcDbSymbolTableRecord
100
AcDbBlockTableRecord
  2
BLOCK39
  0
BLOCK_RECORD
  5
476
100
AcDbSymbolTableRecord
100
AcDbBlockTableRecord
  2
BLOCK40
  0
BLOCK_RECORD
  5
477
100
AcDbSymbolTableRecord
100
AcDbBlockTableRecord
  2
BLOCK41
  0
BLOCK_RECORD
  5
478
100
AcDbSymbolTableRecord
100
AcDbBlockTableRecord
  2
BLOCK42
  0
BLOCK_RECORD
  5
479
100
AcDbSymbolTableRecord
100
AcDbBlockTableRecord
  2
BLOCK43
  0
BLOCK_RECORD
  5
47A
100
AcDbSymbolTableRecord
100
AcDbBlockTableRecord
  2
BLOCK44
  0
BLOCK_RECORD
  5
47B
100
AcDbSymbolTableRecord
100
AcDbBlockTableRecord
  2
BLOCK45
  0
BLOCK_RECORD
  5
47C
100
AcDbSymbolTableRecord
100
AcDbBlockTableRecord
  2
BLOCK46
  0
ENDTAB
  0
ENDSEC
  0
SECTION
  2
BLOCKS
  0
BLOCK
  5
D
100
AcDbEntity
  8
0
100
AcDbBlockBegin
  2
*MODEL_SPACE
 70
     0
 10
0.0
 20
0.0
 30
0.0
  3
*MODEL_SPACE
  1

  0
ENDBLK
  5
E
100
AcDbEntity
  8
0
100
AcDbBlockEnd
  0
BLOCK
  5
F
100
AcDbEntity
 67
     1
  8
0
100
AcDbBlockBegin
  2
*PAPER_SPACE
 70
     0
 10
0.0
 20
0.0
 30
0.0
  3
*PAPER_SPACE
  1

  0
ENDBLK
  5
10
100
AcDbEntity
 67
     1
  8
0
100
AcDbBlockEnd
  0
BLOCK
  5
47D
100
AcDbEntity
  8
0
100
AcDbBlockBegin
  2
BLOCK0
 70
     0
 10
0.0
 20
0.0
 30
0.0
  3
BLOCK0
  1

  0
TEXT
  5
47E
100
AcDbEntity
  8
0
 62
     7
100
AcDbText
 10
273.398682
 20
333.25
 30
0.0
 40
3.5
  1
RH0013147
 50
0.000005
 41
1.023
 72
     5
 11
306.601349
 21
333.25
 31
0.0
100
AcDbText
  0
ENDBLK
  5
47F
100
AcDbEntity
  8
0
100
AcDbBlockEnd
  0
BLOCK
  5
480
100
AcDbEntity
  8
0
100
AcDbBlockBegin
  2
BLOCK1
 70
     0
 10
0.0
 20
0.0
 30
0.0
  3
BLOCK1
  1

  0
TEXT
  5
481
100
AcDbEntity
  8
0
 62
     7
100
AcDbText
 10
287.0
 20
341.0
 30
0.0
 40
3.0
  1
T3
 50
0.000005
 72
     5
 11
292.754608
 21
341.0
 31
0.0
100
AcDbText
  0
ENDBLK
  5
482
100
AcDbEntity
  8
0
100
AcDbBlockEnd
  0
BLOCK
  5
483
100
AcDbEntity
  8
0
100
AcDbBlockBegin
  2
BLOCK2
 70
     0
 10
0.0
 20
0.0
 30
0.0
  3
BLOCK2
  1

  0
TEXT
  5
484
100
AcDbEntity
  8
0
 62
     7
100
AcDbText
 10
171.0
 20
343.952454
 30
0.0
 40
2.0
  1
N0216 2007-12-07
 72
     5
 11
195.757919
 21
343.952454
 31
0.0
100
AcDbText
  0
ENDBLK
  5
485
100
AcDbEntity
  8
0
100
AcDbBlockEnd
  0
BLOCK
  5
486
100
AcDbEntity
  8
0
100
AcDbBlockBegin
  2
BLOCK3
 70
     0
 10
0.0
 20
0.0
 30
0.0
  3
BLOCK3
  1

  0
TEXT
  5
487
100
AcDbEntity
  8
0
 62
     7
100
AcDbText
 10
256.202606
 20
359.135437
 30
0.0
 40
2.0
  1
3-4 POLE LOW VOLTAGE M.C.C.B. SERIES "T"
 72
     5
 11
317.797424
 21
359.135437
 31
0.0
100
AcDbText
  0
TEXT
  5
488
100
AcDbEntity
  8
0
 62
     7
100
AcDbText
 10
265.411835
 20
355.680115
 30
0.0
 40
2.0
  1
FIXED VERS. IP 42 PROTECTION
 72
     5
 11
308.588196
 21
355.680115
 31
0.0
100
AcDbText
  0
TEXT
  5
489
100
AcDbEntity
  8
0
 62
     7
100
AcDbText
 10
265.411835
 20
352.224762
 30
0.0
 40
2.0
  1
INTERR. AUTOMATICO SERIE "T"
 72
     5
 11
308.588196
 21
352.224762
 31
0.0
100
AcDbText
  0
TEXT
  5
48A
100
AcDbEntity
  8
0
 62
     7
100
AcDbText
 10
257.737488
 20
348.76944
 30
0.0
 40
2.0
  1
TRIP.-TERTR. ES.FISSA PROTEZIONE IP 42
 72
     5
 11
316.262543
 21
348.76944
 31
0.0
100
AcDbText
  0
ENDBLK
  5
48B
100
AcDbEntity
  8
0
100
AcDbBlockEnd
  0
BLOCK
  5
48C
100
AcDbEntity
  8
0
100
AcDbBlockBegin
  2
BLOCK4
 70
     0
 10
0.0
 20
0.0
 30
0.0
  3
BLOCK4
  1

  0
TEXT
  5
48D
100
AcDbEntity
  8
0
 62
     7
100
AcDbText
 10
-61.518013
 20
15.25
 30
0.0
 40
3.5
  1
X
 72
     5
 11
-58.481991
 21
15.25
 31
0.0
100
AcDbText
  0
ENDBLK
  5
48E
100
AcDbEntity
  8
0
100
AcDbBlockEnd
  0
BLOCK
  5
48F
100
AcDbEntity
  8
0
100
AcDbBlockBegin
  2
BLOCK5
 70
     0
 10
0.0
 20
0.0
 30
0.0
  3
BLOCK5
  1

  0
TEXT
  5
490
100
AcDbEntity
  8
0
 62
     7
100
AcDbText
 10
-1.518012
 20
70.25
 30
0.0
 40
3.5
  1
Y
 72
     5
 11
1.518012
 21
70.25
 31
0.0
100
AcDbText
  0
ENDBLK
  5
491
100
AcDbEntity
  8
0
100
AcDbBlockEnd
  0
BLOCK
  5
492
100
AcDbEntity
  8
0
100
AcDbBlockBegin
  2
BLOCK6
 70
     0
 10
0.0
 20
0.0
 30
0.0
  3
BLOCK6
  1

  0
TEXT
  5
493
100
AcDbEntity
  8
0
 62
     7
100
AcDbText
 10
52.481987
 20
15.25
 30
0.0
 40
3.5
  1
X
 72
     5
 11
55.518009
 21
15.25
 31
0.0
100
AcDbText
  0
ENDBLK
  5
494
100
AcDbEntity
  8
0
100
AcDbBlockEnd
  0
BLOCK
  5
495
100
AcDbEntity
  8
0
100
AcDbBlockBegin
  2
BLOCK7
 70
     0
 10
0.0
 20
0.0
 30
0.0
  3
BLOCK7
  1

  0
TEXT
  5
496
100
AcDbEntity
  8
0
 62
     7
100
AcDbText
 10
-2.222187
 20
-49.14669
 30
0.0
 40
3.5
  1
Y
 72
     5
 11
0.813836
 21
-49.14669
 31
0.0
100
AcDbText
  0
ENDBLK
  5
497
100
AcDbEntity
  8
0
100
AcDbBlockEnd
  0
BLOCK
  5
498
100
AcDbEntity
  8
0
100
AcDbBlockBegin
  2
BLOCK8
 70
     0
 10
0.0
 20
0.0
 30
0.0
  3
BLOCK8
  1

  0
TEXT
  5
499
100
AcDbEntity
  8
0
 62
     7
100
AcDbText
 10
-96.029854
 20
9.990105
 30
0.0
 40
3.5
  1
68
 50
90.000003
 72
     5
 11
-96.029854
 21
16.76215
 31
0.0
100
AcDbText
  0
LINE
  5
49A
100
AcDbEntity
  8
0
 62
     7
100
AcDbLine
 10
-36.0
 20
-23.0
 30
0.0
 11
-96.029854
 21
-23.0
 31
0.0
210
0.0
220
0.0
230
1.0
  0
LINE
  5
49B
100
AcDbEntity
  8
0
 62
     7
100
AcDbLine
 10
-36.0
 20
45.0
 30
0.0
 11
-96.029854
 21
45.0
 31
0.0
210
0.0
220
0.0
230
1.0
  0
POLYLINE
  5
49C
100
AcDbEntity
  8
0
 62
     7
100
AcDb2dPolyline
 66
     1
 10
0.0
 20
0.0
 30
0.0
 71
     3
  0
VERTEX
  5
49D
100
AcDbEntity
  8
0
100
AcDbVertex
100
AcDb2dVertex
 10
-93.512215
 20
43.06815
 30
0.0
  0
VERTEX
  5
49E
100
AcDbEntity
  8
0
100
AcDbVertex
100
AcDb2dVertex
 10
-94.029854
 20
45.0
 30
0.0
  0
VERTEX
  5
49F
100
AcDbEntity
  8
0
100
AcDbVertex
100
AcDb2dVertex
 10
-94.547493
 20
43.06815
 30
0.0
  0
SEQEND
  5
4A0
100
AcDbEntity
  8
0
  0
POLYLINE
  5
4A1
100
AcDbEntity
  8
0
 62
     7
100
AcDb2dPolyline
 66
     1
 10
0.0
 20
0.0
 30
0.0
 71
     3
  0
VERTEX
  5
4A2
100
AcDbEntity
  8
0
100
AcDbVertex
100
AcDb2dVertex
 10
-94.547493
 20
-21.068148
 30
0.0
  0
VERTEX
  5
4A3
100
AcDbEntity
  8
0
100
AcDbVertex
100
AcDb2dVertex
 10
-94.029854
 20
-23.0
 30
0.0
  0
VERTEX
  5
4A4
100
AcDbEntity
  8
0
100
AcDbVertex
100
AcDb2dVertex
 10
-93.512215
 20
-21.068148
 30
0.0
  0
SEQEND
  5
4A5
100
AcDbEntity
  8
0
  0
LINE
  5
4A6
100
AcDbEntity
  8
0
 62
     7
100
AcDbLine
 10
-94.029854
 20
-23.0
 30
0.0
 11
-94.029854
 21
45.0
 31
0.0
210
0.0
220
0.0
230
1.0
  0
ENDBLK
  5
4A7
100
AcDbEntity
  8
0
100
AcDbBlockEnd
  0
BLOCK
  5
4A8
100
AcDbEntity
  8
0
100
AcDbBlockBegin
  2
BLOCK9
 70
     0
 10
0.0
 20
0.0
 30
0.0
  3
BLOCK9
  1

  0
TEXT
  5
4A9
100
AcDbEntity
  8
0
 62
     7
100
AcDbText
 10
-2.795239
 20
85.21434
 30
0.0
 40
3.5
  1
68
 72
     5
 11
3.976807
 21
85.21434
 31
0.0
100
AcDbText
  0
LINE
  5
4AA
100
AcDbEntity
  8
0
 62
     7
100
AcDbLine
 10
-34.0
 20
47.0
 30
0.0
 11
-34.0
 21
85.21434
 31
0.0
210
0.0
220
0.0
230
1.0
  0
LINE
  5
4AB
100
AcDbEntity
  8
0
 62
     7
100
AcDbLine
 10
34.0
 20
47.0
 30
0.0
 11
34.0
 21
85.21434
 31
0.0
210
0.0
220
0.0
230
1.0
  0
POLYLINE
  5
4AC
100
AcDbEntity
  8
0
 62
     7
100
AcDb2dPolyline
 66
     1
 10
0.0
 20
0.0
 30
0.0
 71
     3
  0
VERTEX
  5
4AD
100
AcDbEntity
  8
0
100
AcDbVertex
100
AcDb2dVertex
 10
32.06815
 20
82.696701
 30
0.0
  0
VERTEX
  5
4AE
100
AcDbEntity
  8
0
100
AcDbVertex
100
AcDb2dVertex
 10
34.0
 20
83.21434
 30
0.0
  0
VERTEX
  5
4AF
100
AcDbEntity
  8
0
100
AcDbVertex
100
AcDb2dVertex
 10
32.06815
 20
83.731979
 30
0.0
  0
SEQEND
  5
4B0
100
AcDbEntity
  8
0
  0
POLYLINE
  5
4B1
100
AcDbEntity
  8
0
 62
     7
100
AcDb2dPolyline
 66
     1
 10
0.0
 20
0.0
 30
0.0
 71
     3
  0
VERTEX
  5
4B2
100
AcDbEntity
  8
0
100
AcDbVertex
100
AcDb2dVertex
 10
-32.06815
 20
83.731979
 30
0.0
  0
VERTEX
  5
4B3
100
AcDbEntity
  8
0
100
AcDbVertex
100
AcDb2dVertex
 10
-34.0
 20
83.21434
 30
0.0
  0
VERTEX
  5
4B4
100
AcDbEntity
  8
0
100
AcDbVertex
100
AcDb2dVertex
 10
-32.06815
 20
82.696701
 30
0.0
  0
SEQEND
  5
4B5
100
AcDbEntity
  8
0
  0
LINE
  5
4B6
100
AcDbEntity
  8
0
 62
     7
100
AcDbLine
 10
-34.0
 20
83.21434
 30
0.0
 11
34.0
 21
83.21434
 31
0.0
210
0.0
220
0.0
230
1.0
  0
ENDBLK
  5
4B7
100
AcDbEntity
  8
0
100
AcDbBlockEnd
  0
BLOCK
  5
4B8
100
AcDbEntity
  8
0
100
AcDbBlockBegin
  2
BLOCK10
 70
     0
 10
0.0
 20
0.0
 30
0.0
  3
BLOCK10
  1

  0
TEXT
  5
4B9
100
AcDbEntity
  8
0
 62
     7
100
AcDbText
 10
-75.128479
 20
27.613977
 30
0.0
 40
3.5
  1
28
 50
90.000003
 72
     5
 11
-75.128479
 21
34.386024
 31
0.0
100
AcDbText
  0
LINE
  5
4BA
100
AcDbEntity
  8
0
 62
     7
 48
0.417877
100
AcDbLine
 10
-58.413395
 20
17.0
 30
0.0
 11
-75.128479
 21
17.0
 31
0.0
210
0.0
220
0.0
230
1.0
  0
LINE
  5
4BB
100
AcDbEntity
  8
0
 62
     7
100
AcDbLine
 10
-36.0
 20
45.0
 30
0.0
 11
-75.128479
 21
45.0
 31
0.0
210
0.0
220
0.0
230
1.0
  0
POLYLINE
  5
4BC
100
AcDbEntity
  8
0
 62
     7
100
AcDb2dPolyline
 66
     1
 10
0.0
 20
0.0
 30
0.0
 71
     3
  0
VERTEX
  5
4BD
100
AcDbEntity
  8
0
100
AcDbVertex
100
AcDb2dVertex
 10
-72.61084
 20
43.06815
 30
0.0
  0
VERTEX
  5
4BE
100
AcDbEntity
  8
0
100
AcDbVertex
100
AcDb2dVertex
 10
-73.128479
 20
45.0
 30
0.0
  0
VERTEX
  5
4BF
100
AcDbEntity
  8
0
100
AcDbVertex
100
AcDb2dVertex
 10
-73.646118
 20
43.06815
 30
0.0
  0
SEQEND
  5
4C0
100
AcDbEntity
  8
0
  0
POLYLINE
  5
4C1
100
AcDbEntity
  8
0
 62
     7
100
AcDb2dPolyline
 66
     1
 10
0.0
 20
0.0
 30
0.0
 71
     3
  0
VERTEX
  5
4C2
100
AcDbEntity
  8
0
100
AcDbVertex
100
AcDb2dVertex
 10
-73.646118
 20
18.931852
 30
0.0
  0
VERTEX
  5
4C3
100
AcDbEntity
  8
0
100
AcDbVertex
100
AcDb2dVertex
 10
-73.128479
 20
17.0
 30
0.0
  0
VERTEX
  5
4C4
100
AcDbEntity
  8
0
100
AcDbVertex
100
AcDb2dVertex
 10
-72.61084
 20
18.931852
 30
0.0
  0
SEQEND
  5
4C5
100
AcDbEntity
  8
0
  0
LINE
  5
4C6
100
AcDbEntity
  8
0
 62
     7
100
AcDbLine
 10
-73.128479
 20
17.0
 30
0.0
 11
-73.128479
 21
45.0
 31
0.0
210
0.0
220
0.0
230
1.0
  0
ENDBLK
  5
4C7
100
AcDbEntity
  8
0
100
AcDbBlockEnd
  0
BLOCK
  5
4C8
100
AcDbEntity
  8
0
100
AcDbBlockBegin
  2
BLOCK11
 70
     0
 10
0.0
 20
0.0
 30
0.0
  3
BLOCK11
  1

  0
POINT
  5
4C9
100
AcDbEntity
  8
0
 62
     7
100
AcDbPoint
 10
-1.999999
 20
157.0
 30
0.0
210
0.0
220
0.0
230
1.0
  0
ARC
  5
4CA
100
AcDbEntity
  8
0
 62
     7
100
AcDbCircle
 10
-7.089999
 20
157.0
 30
0.0
 40
5.09
210
0.0
220
0.0
230
1.0
100
AcDbArc
 50
334.391473
 51
25.608533
  0
ARC
  5
4CB
100
AcDbEntity
  8
0
 62
     7
100
AcDbCircle
 10
-7.089999
 20
157.0
 30
0.0
 40
5.09
210
0.0
220
0.0
230
1.0
100
AcDbArc
 50
334.391473
 51
25.608533
  0
ARC
  5
4CC
100
AcDbEntity
  8
0
 62
     7
100
AcDbCircle
 10
-2.947224
 20
160.035004
 30
0.0
 40
0.947225
210
0.0
220
0.0
230
1.0
100
AcDbArc
 50
298.173439
 51
61.826552
  0
LINE
  5
4CD
100
AcDbEntity
  8
0
 62
     7
 48
0.075
100
AcDbLine
 10
-5.499999
 20
160.869995
 30
0.0
 11
-2.499999
 21
160.869995
 31
0.0
210
0.0
220
0.0
230
1.0
  0
ARC
  5
4CE
100
AcDbEntity
  8
0
 62
     7
100
AcDbCircle
 10
-5.052773
 20
160.035004
 30
0.0
 40
0.947225
210
0.0
220
0.0
230
1.0
100
AcDbArc
 50
118.173447
 51
241.826563
  0
ARC
  5
4CF
100
AcDbEntity
  8
0
 62
     7
100
AcDbCircle
 10
-0.909999
 20
157.0
 30
0.0
 40
5.09
210
0.0
220
0.0
230
1.0
100
AcDbArc
 50
154.391467
 51
205.608528
  0
LINE
  5
4D0
100
AcDbEntity
  8
0
 62
     7
 48
0.1
100
AcDbLine
 10
-9.999999
 20
158.5
 30
0.0
 11
-5.999999
 21
158.5
 31
0.0
210
0.0
220
0.0
230
1.0
  0
LINE
  5
4D1
100
AcDbEntity
  8
0
 62
     7
 48
0.0875
100
AcDbLine
 10
-9.499999
 20
159.0
 30
0.0
 11
-5.999999
 21
159.0
 31
0.0
210
0.0
220
0.0
230
1.0
  0
LINE
  5
4D2
100
AcDbEntity
  8
0
 62
     7
 48
0.075
100
AcDbLine
 10
-9.999999
 20
155.5
 30
0.0
 11
-9.999999
 21
158.5
 31
0.0
210
0.0
220
0.0
230
1.0
  0
LINE
  5
4D3
100
AcDbEntity
  8
0
  6
DASHDOT
 62
     7
 48
0.238675
100
AcDbLine
 10
-11.546988
 20
157.0
 30
0.0
 11
-1.999999
 21
157.0
 31
0.0
210
0.0
220
0.0
230
1.0
  0
LINE
  5
4D4
100
AcDbEntity
  8
0
 62
     7
 48
0.017678
100
AcDbLine
 10
-9.999999
 20
158.5
 30
0.0
 11
-9.499999
 21
159.0
 31
0.0
210
0.0
220
0.0
230
1.0
  0
LINE
  5
4D5
100
AcDbEntity
  8
0
 62
     7
 48
0.1
100
AcDbLine
 10
-9.499999
 20
155.0
 30
0.0
 11
-9.499999
 21
159.0
 31
0.0
210
0.0
220
0.0
230
1.0
  0
LINE
  5
4D6
100
AcDbEntity
  8
0
 62
     7
 48
0.017678
100
AcDbLine
 10
-9.999999
 20
155.5
 30
0.0
 11
-9.499999
 21
155.0
 31
0.0
210
0.0
220
0.0
230
1.0
  0
LINE
  5
4D7
100
AcDbEntity
  8
0
 62
     7
 48
0.0875
100
AcDbLine
 10
-9.499999
 20
155.0
 30
0.0
 11
-5.999999
 21
155.0
 31
0.0
210
0.0
220
0.0
230
1.0
  0
ARC
  5
4D8
100
AcDbEntity
  8
0
 62
     7
100
AcDbCircle
 10
-5.052773
 20
153.964996
 30
0.0
 40
0.947225
210
0.0
220
0.0
230
1.0
100
AcDbArc
 50
118.173447
 51
241.826563
  0
LINE
  5
4D9
100
AcDbEntity
  8
0
 62
     7
 48
0.15175
100
AcDbLine
 10
-5.999999
 20
153.964996
 30
0.0
 11
-5.999999
 21
160.035004
 31
0.0
210
0.0
220
0.0
230
1.0
  0
LINE
  5
4DA
100
AcDbEntity
  8
0
 62
     7
 48
0.075
100
AcDbLine
 10
-5.499999
 20
154.800003
 30
0.0
 11
-2.499999
 21
154.800003
 31
0.0
210
0.0
220
0.0
230
1.0
  0
ARC
  5
4DB
100
AcDbEntity
  8
0
 62
     7
100
AcDbCircle
 10
-2.947224
 20
153.964996
 30
0.0
 40
0.947225
210
0.0
220
0.0
230
1.0
100
AcDbArc
 50
298.173439
 51
61.826552
  0
ARC
  5
4DC
100
AcDbEntity
  8
0
 62
     7
100
AcDbCircle
 10
-2.947224
 20
153.964996
 30
0.0
 40
0.947225
210
0.0
220
0.0
230
1.0
100
AcDbArc
 50
298.173439
 51
61.826552
  0
LINE
  5
4DD
100
AcDbEntity
  8
0
 62
     7
 48
0.075
100
AcDbLine
 10
-5.499999
 20
153.130005
 30
0.0
 11
-2.499999
 21
153.130005
 31
0.0
210
0.0
220
0.0
230
1.0
  0
LINE
  5
4DE
100
AcDbEntity
  8
0
 62
     7
 48
0.075
100
AcDbLine
 10
-5.499999
 20
159.199997
 30
0.0
 11
-2.499999
 21
159.199997
 31
0.0
210
0.0
220
0.0
230
1.0
  0
LINE
  5
4DF
100
AcDbEntity
  8
0
 62
     7
 48
0.15175
100
AcDbLine
 10
-1.999999
 20
153.964996
 30
0.0
 11
-1.999999
 21
160.035004
 31
0.0
210
0.0
220
0.0
230
1.0
  0
LINE
  5
4E0
100
AcDbEntity
  8
0
 62
     7
 48
0.1
100
AcDbLine
 10
-9.999999
 20
155.5
 30
0.0
 11
-5.999999
 21
155.5
 31
0.0
210
0.0
220
0.0
230
1.0
  0
ENDBLK
  5
4E1
100
AcDbEntity
  8
0
100
AcDbBlockEnd
  0
BLOCK
  5
4E2
100
AcDbEntity
  8
0
100
AcDbBlockBegin
  2
BLOCK12
 70
     0
 10
0.0
 20
0.0
 30
0.0
  3
BLOCK12
  1

  0
POINT
  5
4E3
100
AcDbEntity
  8
0
 62
     7
100
AcDbPoint
 10
-1.999999
 20
35.0
 30
0.0
210
0.0
220
0.0
230
1.0
  0
ARC
  5
4E4
100
AcDbEntity
  8
0
 62
     7
100
AcDbCircle
 10
-7.089999
 20
35.0
 30
0.0
 40
5.09
210
0.0
220
0.0
230
1.0
100
AcDbArc
 50
334.391473
 51
25.608533
  0
ARC
  5
4E5
100
AcDbEntity
  8
0
 62
     7
100
AcDbCircle
 10
-7.089999
 20
35.0
 30
0.0
 40
5.09
210
0.0
220
0.0
230
1.0
100
AcDbArc
 50
334.391473
 51
25.608533
  0
ARC
  5
4E6
100
AcDbEntity
  8
0
 62
     7
100
AcDbCircle
 10
-2.947224
 20
38.035
 30
0.0
 40
0.947225
210
0.0
220
0.0
230
1.0
100
AcDbArc
 50
298.173439
 51
61.826552
  0
LINE
  5
4E7
100
AcDbEntity
  8
0
 62
     7
 48
0.075
100
AcDbLine
 10
-5.499999
 20
38.869999
 30
0.0
 11
-2.499999
 21
38.869999
 31
0.0
210
0.0
220
0.0
230
1.0
  0
ARC
  5
4E8
100
AcDbEntity
  8
0
 62
     7
100
AcDbCircle
 10
-5.052773
 20
38.035
 30
0.0
 40
0.947225
210
0.0
220
0.0
230
1.0
100
AcDbArc
 50
118.173447
 51
241.826563
  0
ARC
  5
4E9
100
AcDbEntity
  8
0
 62
     7
100
AcDbCircle
 10
-0.909999
 20
35.0
 30
0.0
 40
5.09
210
0.0
220
0.0
230
1.0
100
AcDbArc
 50
154.391467
 51
205.608528
  0
LINE
  5
4EA
100
AcDbEntity
  8
0
 62
     7
 48
0.1
100
AcDbLine
 10
-9.999999
 20
36.5
 30
0.0
 11
-5.999999
 21
36.5
 31
0.0
210
0.0
220
0.0
230
1.0
  0
LINE
  5
4EB
100
AcDbEntity
  8
0
 62
     7
 48
0.0875
100
AcDbLine
 10
-9.499999
 20
37.0
 30
0.0
 11
-5.999999
 21
37.0
 31
0.0
210
0.0
220
0.0
230
1.0
  0
LINE
  5
4EC
100
AcDbEntity
  8
0
 62
     7
 48
0.075
100
AcDbLine
 10
-9.999999
 20
33.5
 30
0.0
 11
-9.999999
 21
36.5
 31
0.0
210
0.0
220
0.0
230
1.0
  0
LINE
  5
4ED
100
AcDbEntity
  8
0
  6
DASHDOT
 62
     7
 48
0.238675
100
AcDbLine
 10
-11.546988
 20
35.0
 30
0.0
 11
-1.999999
 21
35.0
 31
0.0
210
0.0
220
0.0
230
1.0
  0
LINE
  5
4EE
100
AcDbEntity
  8
0
 62
     7
 48
0.017678
100
AcDbLine
 10
-9.999999
 20
36.5
 30
0.0
 11
-9.499999
 21
37.0
 31
0.0
210
0.0
220
0.0
230
1.0
  0
LINE
  5
4EF
100
AcDbEntity
  8
0
 62
     7
 48
0.1
100
AcDbLine
 10
-9.499999
 20
33.0
 30
0.0
 11
-9.499999
 21
37.0
 31
0.0
210
0.0
220
0.0
230
1.0
  0
LINE
  5
4F0
100
AcDbEntity
  8
0
 62
     7
 48
0.017678
100
AcDbLine
 10
-9.999999
 20
33.5
 30
0.0
 11
-9.499999
 21
33.0
 31
0.0
210
0.0
220
0.0
230
1.0
  0
LINE
  5
4F1
100
AcDbEntity
  8
0
 62
     7
 48
0.0875
100
AcDbLine
 10
-9.499999
 20
33.0
 30
0.0
 11
-5.999999
 21
33.0
 31
0.0
210
0.0
220
0.0
230
1.0
  0
ARC
  5
4F2
100
AcDbEntity
  8
0
 62
     7
100
AcDbCircle
 10
-5.052773
 20
31.965
 30
0.0
 40
0.947225
210
0.0
220
0.0
230
1.0
100
AcDbArc
 50
118.173447
 51
241.826563
  0
LINE
  5
4F3
100
AcDbEntity
  8
0
 62
     7
 48
0.15175
100
AcDbLine
 10
-5.999999
 20
31.965
 30
0.0
 11
-5.999999
 21
38.035
 31
0.0
210
0.0
220
0.0
230
1.0
  0
LINE
  5
4F4
100
AcDbEntity
  8
0
 62
     7
 48
0.075
100
AcDbLine
 10
-5.499999
 20
32.799999
 30
0.0
 11
-2.499999
 21
32.799999
 31
0.0
210
0.0
220
0.0
230
1.0
  0
ARC
  5
4F5
100
AcDbEntity
  8
0
 62
     7
100
AcDbCircle
 10
-2.947224
 20
31.965
 30
0.0
 40
0.947225
210
0.0
220
0.0
230
1.0
100
AcDbArc
 50
298.173439
 51
61.826552
  0
ARC
  5
4F6
100
AcDbEntity
  8
0
 62
     7
100
AcDbCircle
 10
-2.947224
 20
31.965
 30
0.0
 40
0.947225
210
0.0
220
0.0
230
1.0
100
AcDbArc
 50
298.173439
 51
61.826552
  0
LINE
  5
4F7
100
AcDbEntity
  8
0
 62
     7
 48
0.075
100
AcDbLine
 10
-5.499999
 20
31.130001
 30
0.0
 11
-2.499999
 21
31.130001
 31
0.0
210
0.0
220
0.0
230
1.0
  0
LINE
  5
4F8
100
AcDbEntity
  8
0
 62
     7
 48
0.075
100
AcDbLine
 10
-5.499999
 20
37.200001
 30
0.0
 11
-2.499999
 21
37.200001
 31
0.0
210
0.0
220
0.0
230
1.0
  0
LINE
  5
4F9
100
AcDbEntity
  8
0
 62
     7
 48
0.15175
100
AcDbLine
 10
-1.999999
 20
31.965
 30
0.0
 11
-1.999999
 21
38.035
 31
0.0
210
0.0
220
0.0
230
1.0
  0
LINE
  5
4FA
100
AcDbEntity
  8
0
 62
     7
 48
0.1
100
AcDbLine
 10
-9.999999
 20
33.5
 30
0.0
 11
-5.999999
 21
33.5
 31
0.0
210
0.0
220
0.0
230
1.0
  0
ENDBLK
  5
4FB
100
AcDbEntity
  8
0
100
AcDbBlockEnd
  0
BLOCK
  5
4FC
100
AcDbEntity
  8
0
100
AcDbBlockBegin
  2
BLOCK13
 70
     0
 10
0.0
 20
0.0
 30
0.0
  3
BLOCK13
  1

  0
TEXT
  5
4FD
100
AcDbEntity
  8
0
 62
     7
100
AcDbText
 10
105.421844
 20
97.242477
 30
0.0
 40
3.5
  1
X
 72
     5
 11
108.45787
 21
97.242477
 31
0.0
100
AcDbText
  0
ENDBLK
  5
4FE
100
AcDbEntity
  8
0
100
AcDbBlockEnd
  0
BLOCK
  5
4FF
100
AcDbEntity
  8
0
100
AcDbBlockBegin
  2
BLOCK14
 70
     0
 10
0.0
 20
0.0
 30
0.0
  3
BLOCK14
  1

  0
TEXT
  5
500
100
AcDbEntity
  8
0
 62
     7
100
AcDbText
 10
-8.819227
 20
96.970718
 30
0.0
 40
3.5
  1
X
 72
     5
 11
-5.783204
 21
96.970718
 31
0.0
100
AcDbText
  0
ENDBLK
  5
501
100
AcDbEntity
  8
0
100
AcDbBlockEnd
  0
BLOCK
  5
502
100
AcDbEntity
  8
0
100
AcDbBlockBegin
  2
BLOCK15
 70
     0
 10
0.0
 20
0.0
 30
0.0
  3
BLOCK15
  1

  0
TEXT
  5
503
100
AcDbEntity
  8
0
 62
     7
100
AcDbText
 10
131.097916
 20
86.613968
 30
0.0
 40
3.5
  1
76
 50
89.999968
 72
     5
 11
131.097916
 21
93.386017
 31
0.0
100
AcDbText
  0
LINE
  5
504
100
AcDbEntity
  8
0
 62
     7
100
AcDbLine
 10
90.499962
 20
51.999992
 30
0.0
 11
135.0979
 21
51.999992
 31
0.0
210
0.0
220
0.0
230
1.0
  0
LINE
  5
505
100
AcDbEntity
  8
0
 62
     7
100
AcDbLine
 10
90.5
 20
127.999992
 30
0.0
 11
135.097931
 21
127.999992
 31
0.0
210
0.0
220
0.0
230
1.0
  0
POLYLINE
  5
506
100
AcDbEntity
  8
0
 62
     7
100
AcDb2dPolyline
 66
     1
 10
0.0
 20
0.0
 30
0.0
 71
     3
  0
VERTEX
  5
507
100
AcDbEntity
  8
0
100
AcDbVertex
100
AcDb2dVertex
 10
133.61557
 20
126.068138
 30
0.0
  0
VERTEX
  5
508
100
AcDbEntity
  8
0
100
AcDbVertex
100
AcDb2dVertex
 10
133.097931
 20
127.999992
 30
0.0
  0
VERTEX
  5
509
100
AcDbEntity
  8
0
100
AcDbVertex
100
AcDb2dVertex
 10
132.580292
 20
126.068138
 30
0.0
  0
SEQEND
  5
50A
100
AcDbEntity
  8
0
  0
POLYLINE
  5
50B
100
AcDbEntity
  8
0
 62
     7
100
AcDb2dPolyline
 66
     1
 10
0.0
 20
0.0
 30
0.0
 71
     3
  0
VERTEX
  5
50C
100
AcDbEntity
  8
0
100
AcDbVertex
100
AcDb2dVertex
 10
132.580261
 20
53.931843
 30
0.0
  0
VERTEX
  5
50D
100
AcDbEntity
  8
0
100
AcDbVertex
100
AcDb2dVertex
 10
133.0979
 20
51.999992
 30
0.0
  0
VERTEX
  5
50E
100
AcDbEntity
  8
0
100
AcDbVertex
100
AcDb2dVertex
 10
133.61554
 20
53.931843
 30
0.0
  0
SEQEND
  5
50F
100
AcDbEntity
  8
0
  0
LINE
  5
510
100
AcDbEntity
  8
0
 62
     7
100
AcDbLine
 10
133.0979
 20
51.999992
 30
0.0
 11
133.097931
 21
127.999992
 31
0.0
210
0.0
220
0.0
230
1.0
  0
ENDBLK
  5
511
100
AcDbEntity
  8
0
100
AcDbBlockEnd
  0
BLOCK
  5
512
100
AcDbEntity
  8
0
100
AcDbBlockBegin
  2
BLOCK16
 70
     0
 10
0.0
 20
0.0
 30
0.0
  3
BLOCK16
  1

  0
TEXT
  5
513
100
AcDbEntity
  8
0
 62
     7
100
AcDbText
 10
-10.036022
 20
-1.39829
 30
0.0
 40
3.5
  1
3
 72
     5
 11
-6.999999
 21
-1.39829
 31
0.0
100
AcDbText
  0
TEXT
  5
514
100
AcDbEntity
  8
0
 62
     7
100
AcDbText
 10
-13.136023
 20
-1.39829
 30
0.0
 40
3.5
  1
\U+2265
 72
     5
 11
-11.036022
 21
-1.39829
 31
0.0
100
AcDbText
  0
LINE
  5
515
100
AcDbEntity
  8
0
 62
     7
 48
0.408892
100
AcDbLine
 10
-1.999999
 20
10.957378
 30
0.0
 11
-1.999999
 21
-5.39829
 31
0.0
210
0.0
220
0.0
230
1.0
  0
LINE
  5
516
100
AcDbEntity
  8
0
 62
     7
 48
0.384937
100
AcDbLine
 10
1.000001
 20
9.999204
 30
0.0
 11
1.000001
 21
-5.39829
 31
0.0
210
0.0
220
0.0
230
1.0
  0
POLYLINE
  5
517
100
AcDbEntity
  8
0
 62
     7
100
AcDb2dPolyline
 66
     1
 10
0.0
 20
0.0
 30
0.0
 71
     3
  0
VERTEX
  5
518
100
AcDbEntity
  8
0
100
AcDbVertex
100
AcDb2dVertex
 10
-3.93185
 20
-3.915928
 30
0.0
  0
VERTEX
  5
519
100
AcDbEntity
  8
0
100
AcDbVertex
100
AcDb2dVertex
 10
-1.999999
 20
-3.39829
 30
0.0
  0
VERTEX
  5
51A
100
AcDbEntity
  8
0
100
AcDbVertex
100
AcDb2dVertex
 10
-3.93185
 20
-2.880652
 30
0.0
  0
SEQEND
  5
51B
100
AcDbEntity
  8
0
  0
POLYLINE
  5
51C
100
AcDbEntity
  8
0
 62
     7
100
AcDb2dPolyline
 66
     1
 10
0.0
 20
0.0
 30
0.0
 71
     3
  0
VERTEX
  5
51D
100
AcDbEntity
  8
0
100
AcDbVertex
100
AcDb2dVertex
 10
2.931853
 20
-2.880652
 30
0.0
  0
VERTEX
  5
51E
100
AcDbEntity
  8
0
100
AcDbVertex
100
AcDb2dVertex
 10
1.000001
 20
-3.39829
 30
0.0
  0
VERTEX
  5
51F
100
AcDbEntity
  8
0
100
AcDbVertex
100
AcDb2dVertex
 10
2.931853
 20
-3.915928
 30
0.0
  0
SEQEND
  5
520
100
AcDbEntity
  8
0
  0
LINE
  5
521
100
AcDbEntity
  8
0
 62
     7
 48
0.478401
100
AcDbLine
 10
-13.136022
 20
-3.39829
 30
0.0
 11
6.000001
 21
-3.39829
 31
0.0
210
0.0
220
0.0
230
1.0
  0
ENDBLK
  5
522
100
AcDbEntity
  8
0
100
AcDbBlockEnd
  0
BLOCK
  5
523
100
AcDbEntity
  8
0
100
AcDbBlockBegin
  2
BLOCK17
 70
     0
 10
0.0
 20
0.0
 30
0.0
  3
BLOCK17
  1

  0
TEXT
  5
524
100
AcDbEntity
  8
0
 62
     7
100
AcDbText
 10
32.612576
 20
-1.39829
 30
0.0
 40
3.5
  1
70
 72
     5
 11
39.384624
 21
-1.39829
 31
0.0
100
AcDbText
  0
LINE
  5
525
100
AcDbEntity
  8
0
 62
     7
 48
0.384937
100
AcDbLine
 10
1.000001
 20
9.999204
 30
0.0
 11
1.000001
 21
-5.39829
 31
0.0
210
0.0
220
0.0
230
1.0
  0
LINE
  5
526
100
AcDbEntity
  8
0
 62
     7
100
AcDbLine
 10
70.9972
 20
43.700001
 30
0.0
 11
70.9972
 21
-5.39829
 31
0.0
210
0.0
220
0.0
230
1.0
  0
POLYLINE
  5
527
100
AcDbEntity
  8
0
 62
     7
100
AcDb2dPolyline
 66
     1
 10
0.0
 20
0.0
 30
0.0
 71
     3
  0
VERTEX
  5
528
100
AcDbEntity
  8
0
100
AcDbVertex
100
AcDb2dVertex
 10
2.931853
 20
-2.880652
 30
0.0
  0
VERTEX
  5
529
100
AcDbEntity
  8
0
100
AcDbVertex
100
AcDb2dVertex
 10
1.000001
 20
-3.39829
 30
0.0
  0
VERTEX
  5
52A
100
AcDbEntity
  8
0
100
AcDbVertex
100
AcDb2dVertex
 10
2.931853
 20
-3.915928
 30
0.0
  0
SEQEND
  5
52B
100
AcDbEntity
  8
0
  0
POLYLINE
  5
52C
100
AcDbEntity
  8
0
 62
     7
100
AcDb2dPolyline
 66
     1
 10
0.0
 20
0.0
 30
0.0
 71
     3
  0
VERTEX
  5
52D
100
AcDbEntity
  8
0
100
AcDbVertex
100
AcDb2dVertex
 10
69.065346
 20
-3.915928
 30
0.0
  0
VERTEX
  5
52E
100
AcDbEntity
  8
0
100
AcDbVertex
100
AcDb2dVertex
 10
70.9972
 20
-3.39829
 30
0.0
  0
VERTEX
  5
52F
100
AcDbEntity
  8
0
100
AcDbVertex
100
AcDb2dVertex
 10
69.065346
 20
-2.880652
 30
0.0
  0
SEQEND
  5
530
100
AcDbEntity
  8
0
  0
LINE
  5
531
100
AcDbEntity
  8
0
 62
     7
100
AcDbLine
 10
1.000001
 20
-3.39829
 30
0.0
 11
70.9972
 21
-3.39829
 31
0.0
210
0.0
220
0.0
230
1.0
  0
ENDBLK
  5
532
100
AcDbEntity
  8
0
100
AcDbBlockEnd
  0
BLOCK
  5
533
100
AcDbEntity
  8
0
100
AcDbBlockBegin
  2
BLOCK18
 70
     0
 10
0.0
 20
0.0
 30
0.0
  3
BLOCK18
  1

  0
TEXT
  5
534
100
AcDbEntity
  8
0
 62
     7
100
AcDbText
 10
38.127934
 20
-12.703659
 30
0.0
 40
3.5
  1
88.5
 72
     5
 11
52.372028
 21
-12.703659
 31
0.0
100
AcDbText
  0
LINE
  5
535
100
AcDbEntity
  8
0
 62
     7
100
AcDbLine
 10
1.000001
 20
9.999204
 30
0.0
 11
1.000001
 21
-16.703659
 31
0.0
210
0.0
220
0.0
230
1.0
  0
LINE
  5
536
100
AcDbEntity
  8
0
 62
     7
100
AcDbLine
 10
89.499954
 20
32.324764
 30
0.0
 11
89.499954
 21
-16.703659
 31
0.0
210
0.0
220
0.0
230
1.0
  0
POLYLINE
  5
537
100
AcDbEntity
  8
0
 62
     7
100
AcDb2dPolyline
 66
     1
 10
0.0
 20
0.0
 30
0.0
 71
     3
  0
VERTEX
  5
538
100
AcDbEntity
  8
0
100
AcDbVertex
100
AcDb2dVertex
 10
2.931853
 20
-14.186021
 30
0.0
  0
VERTEX
  5
539
100
AcDbEntity
  8
0
100
AcDbVertex
100
AcDb2dVertex
 10
1.000001
 20
-14.703659
 30
0.0
  0
VERTEX
  5
53A
100
AcDbEntity
  8
0
100
AcDbVertex
100
AcDb2dVertex
 10
2.931853
 20
-15.221297
 30
0.0
  0
SEQEND
  5
53B
100
AcDbEntity
  8
0
  0
POLYLINE
  5
53C
100
AcDbEntity
  8
0
 62
     7
100
AcDb2dPolyline
 66
     1
 10
0.0
 20
0.0
 30
0.0
 71
     3
  0
VERTEX
  5
53D
100
AcDbEntity
  8
0
100
AcDbVertex
100
AcDb2dVertex
 10
87.568108
 20
-15.221297
 30
0.0
  0
VERTEX
  5
53E
100
AcDbEntity
  8
0
100
AcDbVertex
100
AcDb2dVertex
 10
89.499954
 20
-14.703659
 30
0.0
  0
VERTEX
  5
53F
100
AcDbEntity
  8
0
100
AcDbVertex
100
AcDb2dVertex
 10
87.568108
 20
-14.186021
 30
0.0
  0
SEQEND
  5
540
100
AcDbEntity
  8
0
  0
LINE
  5
541
100
AcDbEntity
  8
0
 62
     7
100
AcDbLine
 10
1.000001
 20
-14.703659
 30
0.0
 11
89.499954
 21
-14.703659
 31
0.0
210
0.0
220
0.0
230
1.0
  0
ENDBLK
  5
542
100
AcDbEntity
  8
0
100
AcDbBlockEnd
  0
BLOCK
  5
543
100
AcDbEntity
  8
0
100
AcDbBlockBegin
  2
BLOCK19
 70
     0
 10
0.0
 20
0.0
 30
0.0
  3
BLOCK19
  1

  0
TEXT
  5
544
100
AcDbEntity
  8
0
 62
     7
100
AcDbText
 10
95.164803
 20
-12.703659
 30
0.0
 40
3.5
  1
2
 72
     5
 11
98.200829
 21
-12.703659
 31
0.0
100
AcDbText
  0
LINE
  5
545
100
AcDbEntity
  8
0
 62
     7
100
AcDbLine
 10
89.499954
 20
32.324764
 30
0.0
 11
89.499954
 21
-16.703659
 31
0.0
210
0.0
220
0.0
230
1.0
  0
LINE
  5
546
100
AcDbEntity
  8
0
 62
     7
100
AcDbLine
 10
91.499954
 20
33.080021
 30
0.0
 11
91.499954
 21
-16.703659
 31
0.0
210
0.0
220
0.0
230
1.0
  0
POLYLINE
  5
547
100
AcDbEntity
  8
0
 62
     7
100
AcDb2dPolyline
 66
     1
 10
0.0
 20
0.0
 30
0.0
 71
     3
  0
VERTEX
  5
548
100
AcDbEntity
  8
0
100
AcDbVertex
100
AcDb2dVertex
 10
87.568108
 20
-15.221297
 30
0.0
  0
VERTEX
  5
549
100
AcDbEntity
  8
0
100
AcDbVertex
100
AcDb2dVertex
 10
89.499954
 20
-14.703659
 30
0.0
  0
VERTEX
  5
54A
100
AcDbEntity
  8
0
100
AcDbVertex
100
AcDb2dVertex
 10
87.568108
 20
-14.186021
 30
0.0
  0
SEQEND
  5
54B
100
AcDbEntity
  8
0
  0
POLYLINE
  5
54C
100
AcDbEntity
  8
0
 62
     7
100
AcDb2dPolyline
 66
     1
 10
0.0
 20
0.0
 30
0.0
 71
     3
  0
VERTEX
  5
54D
100
AcDbEntity
  8
0
100
AcDbVertex
100
AcDb2dVertex
 10
93.431808
 20
-14.186021
 30
0.0
  0
VERTEX
  5
54E
100
AcDbEntity
  8
0
100
AcDbVertex
100
AcDb2dVertex
 10
91.499954
 20
-14.703659
 30
0.0
  0
VERTEX
  5
54F
100
AcDbEntity
  8
0
100
AcDbVertex
100
AcDb2dVertex
 10
93.431808
 20
-15.221297
 30
0.0
  0
SEQEND
  5
550
100
AcDbEntity
  8
0
  0
LINE
  5
551
100
AcDbEntity
  8
0
 62
     7
 48
0.342522
100
AcDbLine
 10
84.499954
 20
-14.703659
 30
0.0
 11
98.200829
 21
-14.703659
 31
0.0
210
0.0
220
0.0
230
1.0
  0
ENDBLK
  5
552
100
AcDbEntity
  8
0
100
AcDbBlockEnd
  0
BLOCK
  5
553
100
AcDbEntity
  8
0
100
AcDbBlockBegin
  2
BLOCK20
 70
     0
 10
0.0
 20
0.0
 30
0.0
  3
BLOCK20
  1

  0
TEXT
  5
554
100
AcDbEntity
  8
0
 62
     7
100
AcDbText
 10
43.609932
 20
-26.691849
 30
0.0
 40
3.5
  1
103.2
 72
     5
 11
61.59005
 21
-26.691849
 31
0.0
100
AcDbText
  0
LINE
  5
555
100
AcDbEntity
  8
0
 62
     7
100
AcDbLine
 10
1.000001
 20
9.999204
 30
0.0
 11
1.000001
 21
-30.691849
 31
0.0
210
0.0
220
0.0
230
1.0
  0
LINE
  5
556
100
AcDbEntity
  8
0
 62
     7
100
AcDbLine
 10
104.199982
 20
85.067345
 30
0.0
 11
104.199982
 21
-30.691849
 31
0.0
210
0.0
220
0.0
230
1.0
  0
POLYLINE
  5
557
100
AcDbEntity
  8
0
 62
     7
100
AcDb2dPolyline
 66
     1
 10
0.0
 20
0.0
 30
0.0
 71
     3
  0
VERTEX
  5
558
100
AcDbEntity
  8
0
100
AcDbVertex
100
AcDb2dVertex
 10
2.931853
 20
-28.174212
 30
0.0
  0
VERTEX
  5
559
100
AcDbEntity
  8
0
100
AcDbVertex
100
AcDb2dVertex
 10
1.000001
 20
-28.691849
 30
0.0
  0
VERTEX
  5
55A
100
AcDbEntity
  8
0
100
AcDbVertex
100
AcDb2dVertex
 10
2.931853
 20
-29.209486
 30
0.0
  0
SEQEND
  5
55B
100
AcDbEntity
  8
0
  0
POLYLINE
  5
55C
100
AcDbEntity
  8
0
 62
     7
100
AcDb2dPolyline
 66
     1
 10
0.0
 20
0.0
 30
0.0
 71
     3
  0
VERTEX
  5
55D
100
AcDbEntity
  8
0
100
AcDbVertex
100
AcDb2dVertex
 10
102.268127
 20
-29.209486
 30
0.0
  0
VERTEX
  5
55E
100
AcDbEntity
  8
0
100
AcDbVertex
100
AcDb2dVertex
 10
104.199982
 20
-28.691849
 30
0.0
  0
VERTEX
  5
55F
100
AcDbEntity
  8
0
100
AcDbVertex
100
AcDb2dVertex
 10
102.268127
 20
-28.174212
 30
0.0
  0
SEQEND
  5
560
100
AcDbEntity
  8
0
  0
LINE
  5
561
100
AcDbEntity
  8
0
 62
     7
100
AcDbLine
 10
1.000001
 20
-28.691849
 30
0.0
 11
104.199982
 21
-28.691849
 31
0.0
210
0.0
220
0.0
230
1.0
  0
ENDBLK
  5
562
100
AcDbEntity
  8
0
100
AcDbBlockEnd
  0
BLOCK
  5
563
100
AcDbEntity
  8
0
100
AcDbBlockBegin
  2
BLOCK21
 70
     0
 10
0.0
 20
0.0
 30
0.0
  3
BLOCK21
  1

  0
TEXT
  5
564
100
AcDbEntity
  8
0
 62
     7
100
AcDbText
 10
100.555473
 20
138.705231
 30
0.0
 40
3.5
  1
1
 72
     5
 11
103.591499
 21
138.705231
 31
0.0
100
AcDbText
  0
TEXT
  5
565
100
AcDbEntity
  8
0
 62
     7
100
AcDbText
 10
96.519447
 20
138.705231
 30
0.0
 40
3.5
  1
(
 72
     5
 11
99.555473
 21
138.705231
 31
0.0
100
AcDbText
  0
TEXT
  5
566
100
AcDbEntity
  8
0
 62
     7
100
AcDbText
 10
104.591499
 20
138.705231
 30
0.0
 40
3.5
  1
)
 72
     5
 11
107.627525
 21
138.705231
 31
0.0
100
AcDbText
  0
LINE
  5
567
100
AcDbEntity
  8
0
 62
     7
 48
0.250107
100
AcDbLine
 10
90.5
 20
128.700958
 30
0.0
 11
90.5
 21
138.705231
 31
0.0
210
0.0
220
0.0
230
1.0
  0
POLYLINE
  5
568
100
AcDbEntity
  8
0
 62
     7
100
AcDb2dPolyline
 66
     1
 10
0.0
 20
0.0
 30
0.0
 71
     3
  0
VERTEX
  5
569
100
AcDbEntity
  8
0
100
AcDbVertex
100
AcDb2dVertex
 10
87.568153
 20
136.187592
 30
0.0
  0
VERTEX
  5
56A
100
AcDbEntity
  8
0
100
AcDbVertex
100
AcDb2dVertex
 10
89.500008
 20
136.705231
 30
0.0
  0
VERTEX
  5
56B
100
AcDbEntity
  8
0
100
AcDbVertex
100
AcDb2dVertex
 10
87.568153
 20
137.22287
 30
0.0
  0
SEQEND
  5
56C
100
AcDbEntity
  8
0
  0
POLYLINE
  5
56D
100
AcDbEntity
  8
0
 62
     7
100
AcDb2dPolyline
 66
     1
 10
0.0
 20
0.0
 30
0.0
 71
     3
  0
VERTEX
  5
56E
100
AcDbEntity
  8
0
100
AcDbVertex
100
AcDb2dVertex
 10
92.431854
 20
137.22287
 30
0.0
  0
VERTEX
  5
56F
100
AcDbEntity
  8
0
100
AcDbVertex
100
AcDb2dVertex
 10
90.5
 20
136.705231
 30
0.0
  0
VERTEX
  5
570
100
AcDbEntity
  8
0
100
AcDbVertex
100
AcDb2dVertex
 10
92.431854
 20
136.187592
 30
0.0
  0
SEQEND
  5
571
100
AcDbEntity
  8
0
  0
LINE
  5
572
100
AcDbEntity
  8
0
 62
     7
100
AcDbLine
 10
84.500008
 20
136.705231
 30
0.0
 11
107.627518
 21
136.705231
 31
0.0
210
0.0
220
0.0
230
1.0
  0
ENDBLK
  5
573
100
AcDbEntity
  8
0
100
AcDbBlockEnd
  0
BLOCK
  5
574
100
AcDbEntity
  8
0
100
AcDbBlockBegin
  2
BLOCK22
 70
     0
 10
0.0
 20
0.0
 30
0.0
  3
BLOCK22
  1

  0
TEXT
  5
575
100
AcDbEntity
  8
0
 62
     7
100
AcDbText
 10
118.729187
 20
108.613968
 30
0.0
 40
3.5
  1
32
 50
90.000003
 72
     5
 11
118.729187
 21
115.386017
 31
0.0
100
AcDbText
  0
LINE
  5
576
100
AcDbEntity
  8
0
 62
     7
100
AcDbLine
 10
76.699997
 20
96.0
 30
0.0
 11
122.729187
 21
96.0
 31
0.0
210
0.0
220
0.0
230
1.0
  0
LINE
  5
577
100
AcDbEntity
  8
0
 62
     7
100
AcDbLine
 10
90.5
 20
127.999992
 30
0.0
 11
122.729187
 21
127.999992
 31
0.0
210
0.0
220
0.0
230
1.0
  0
POLYLINE
  5
578
100
AcDbEntity
  8
0
 62
     7
100
AcDb2dPolyline
 66
     1
 10
0.0
 20
0.0
 30
0.0
 71
     3
  0
VERTEX
  5
579
100
AcDbEntity
  8
0
100
AcDbVertex
100
AcDb2dVertex
 10
120.211548
 20
97.931854
 30
0.0
  0
VERTEX
  5
57A
100
AcDbEntity
  8
0
100
AcDbVertex
100
AcDb2dVertex
 10
120.729187
 20
96.0
 30
0.0
  0
VERTEX
  5
57B
100
AcDbEntity
  8
0
100
AcDbVertex
100
AcDb2dVertex
 10
121.246826
 20
97.931854
 30
0.0
  0
SEQEND
  5
57C
100
AcDbEntity
  8
0
  0
POLYLINE
  5
57D
100
AcDbEntity
  8
0
 62
     7
100
AcDb2dPolyline
 66
     1
 10
0.0
 20
0.0
 30
0.0
 71
     3
  0
VERTEX
  5
57E
100
AcDbEntity
  8
0
100
AcDbVertex
100
AcDb2dVertex
 10
121.246826
 20
126.068138
 30
0.0
  0
VERTEX
  5
57F
100
AcDbEntity
  8
0
100
AcDbVertex
100
AcDb2dVertex
 10
120.729187
 20
127.999992
 30
0.0
  0
VERTEX
  5
580
100
AcDbEntity
  8
0
100
AcDbVertex
100
AcDb2dVertex
 10
120.211548
 20
126.068138
 30
0.0
  0
SEQEND
  5
581
100
AcDbEntity
  8
0
  0
LINE
  5
582
100
AcDbEntity
  8
0
 62
     7
100
AcDbLine
 10
120.729187
 20
96.0
 30
0.0
 11
120.729187
 21
127.999992
 31
0.0
210
0.0
220
0.0
230
1.0
  0
ENDBLK
  5
583
100
AcDbEntity
  8
0
100
AcDbBlockEnd
  0
BLOCK
  5
584
100
AcDbEntity
  8
0
100
AcDbBlockBegin
  2
BLOCK23
 70
     0
 10
0.0
 20
0.0
 30
0.0
  3
BLOCK23
  1

  0
TEXT
  5
585
100
AcDbEntity
  8
0
 62
     7
100
AcDbText
 10
-45.518013
 20
14.25
 30
0.0
 40
3.5
  1
Y
 72
     5
 11
-42.481991
 21
14.25
 31
0.0
100
AcDbText
  0
ENDBLK
  5
586
100
AcDbEntity
  8
0
100
AcDbBlockEnd
  0
BLOCK
  5
587
100
AcDbEntity
  8
0
100
AcDbBlockBegin
  2
BLOCK24
 70
     0
 10
0.0
 20
0.0
 30
0.0
  3
BLOCK24
  1

  0
TEXT
  5
588
100
AcDbEntity
  8
0
 62
     7
100
AcDbText
 10
-138.182602
 20
97.615646
 30
0.0
 40
3.5
  1
X
 72
     5
 11
-135.146576
 21
97.615646
 31
0.0
100
AcDbText
  0
ENDBLK
  5
589
100
AcDbEntity
  8
0
100
AcDbBlockEnd
  0
BLOCK
  5
58A
100
AcDbEntity
  8
0
100
AcDbBlockBegin
  2
BLOCK25
 70
     0
 10
0.0
 20
0.0
 30
0.0
  3
BLOCK25
  1

  0
TEXT
  5
58B
100
AcDbEntity
  8
0
 62
     7
100
AcDbText
 10
15.481989
 20
94.25
 30
0.0
 40
3.5
  1
X
 72
     5
 11
18.518013
 21
94.25
 31
0.0
100
AcDbText
  0
ENDBLK
  5
58C
100
AcDbEntity
  8
0
100
AcDbBlockEnd
  0
BLOCK
  5
58D
100
AcDbEntity
  8
0
100
AcDbBlockBegin
  2
BLOCK26
 70
     0
 10
0.0
 20
0.0
 30
0.0
  3
BLOCK26
  1

  0
TEXT
  5
58E
100
AcDbEntity
  8
0
 62
     7
100
AcDbText
 10
-45.518013
 20
174.25
 30
0.0
 40
3.5
  1
Y
 72
     5
 11
-42.481991
 21
174.25
 31
0.0
100
AcDbText
  0
ENDBLK
  5
58F
100
AcDbEntity
  8
0
100
AcDbBlockEnd
  0
BLOCK
  5
590
100
AcDbEntity
  8
0
100
AcDbBlockBegin
  2
BLOCK27
 70
     0
 10
0.0
 20
0.0
 30
0.0
  3
BLOCK27
  1

  0
TEXT
  5
591
100
AcDbEntity
  8
0
 62
     7
100
AcDbText
 10
-29.800848
 20
185.357178
 30
0.0
 40
3.5
  1
35
 72
     5
 11
-23.028803
 21
185.357178
 31
0.0
100
AcDbText
  0
LINE
  5
592
100
AcDbEntity
  8
0
 62
     7
 48
0.133784
100
AcDbLine
 10
-43.914825
 20
180.005814
 30
0.0
 11
-43.914825
 21
185.357178
 31
0.0
210
0.0
220
0.0
230
1.0
  0
LINE
  5
593
100
AcDbEntity
  8
0
 62
     7
 48
0.294989
100
AcDbLine
 10
-8.914825
 20
173.557602
 30
0.0
 11
-8.914825
 21
185.357178
 31
0.0
210
0.0
220
0.0
230
1.0
  0
POLYLINE
  5
594
100
AcDbEntity
  8
0
 62
     7
100
AcDb2dPolyline
 66
     1
 10
0.0
 20
0.0
 30
0.0
 71
     3
  0
VERTEX
  5
595
100
AcDbEntity
  8
0
100
AcDbVertex
100
AcDb2dVertex
 10
-10.846677
 20
182.839539
 30
0.0
  0
VERTEX
  5
596
100
AcDbEntity
  8
0
100
AcDbVertex
100
AcDb2dVertex
 10
-8.914825
 20
183.357178
 30
0.0
  0
VERTEX
  5
597
100
AcDbEntity
  8
0
100
AcDbVertex
100
AcDb2dVertex
 10
-10.846677
 20
183.874817
 30
0.0
  0
SEQEND
  5
598
100
AcDbEntity
  8
0
  0
POLYLINE
  5
599
100
AcDbEntity
  8
0
 62
     7
100
AcDb2dPolyline
 66
     1
 10
0.0
 20
0.0
 30
0.0
 71
     3
  0
VERTEX
  5
59A
100
AcDbEntity
  8
0
100
AcDbVertex
100
AcDb2dVertex
 10
-41.982975
 20
183.874817
 30
0.0
  0
VERTEX
  5
59B
100
AcDbEntity
  8
0
100
AcDbVertex
100
AcDb2dVertex
 10
-43.914825
 20
183.357178
 30
0.0
  0
VERTEX
  5
59C
100
AcDbEntity
  8
0
100
AcDbVertex
100
AcDb2dVertex
 10
-41.982975
 20
182.839539
 30
0.0
  0
SEQEND
  5
59D
100
AcDbEntity
  8
0
  0
LINE
  5
59E
100
AcDbEntity
  8
0
 62
     7
100
AcDbLine
 10
-43.914825
 20
183.357178
 30
0.0
 11
-8.914825
 21
183.357178
 31
0.0
210
0.0
220
0.0
230
1.0
  0
ENDBLK
  5
59F
100
AcDbEntity
  8
0
100
AcDbBlockEnd
  0
BLOCK
  5
5A0
100
AcDbEntity
  8
0
100
AcDbBlockBegin
  2
BLOCK28
 70
     0
 10
0.0
 20
0.0
 30
0.0
  3
BLOCK28
  1

  0
TEXT
  5
5A1
100
AcDbEntity
  8
0
 62
     7
100
AcDbText
 10
-64.80085
 20
185.357178
 30
0.0
 40
3.5
  1
35
 72
     5
 11
-58.028801
 21
185.357178
 31
0.0
100
AcDbText
  0
LINE
  5
5A2
100
AcDbEntity
  8
0
 62
     7
 48
0.264024
100
AcDbLine
 10
-78.914825
 20
174.796234
 30
0.0
 11
-78.914825
 21
185.357178
 31
0.0
210
0.0
220
0.0
230
1.0
  0
LINE
  5
5A3
100
AcDbEntity
  8
0
 62
     7
 48
0.142974
100
AcDbLine
 10
-43.914825
 20
179.638229
 30
0.0
 11
-43.914825
 21
185.357178
 31
0.0
210
0.0
220
0.0
230
1.0
  0
POLYLINE
  5
5A4
100
AcDbEntity
  8
0
 62
     7
100
AcDb2dPolyline
 66
     1
 10
0.0
 20
0.0
 30
0.0
 71
     3
  0
VERTEX
  5
5A5
100
AcDbEntity
  8
0
100
AcDbVertex
100
AcDb2dVertex
 10
-45.846676
 20
182.839539
 30
0.0
  0
VERTEX
  5
5A6
100
AcDbEntity
  8
0
100
AcDbVertex
100
AcDb2dVertex
 10
-43.914825
 20
183.357178
 30
0.0
  0
VERTEX
  5
5A7
100
AcDbEntity
  8
0
100
AcDbVertex
100
AcDb2dVertex
 10
-45.846676
 20
183.874817
 30
0.0
  0
SEQEND
  5
5A8
100
AcDbEntity
  8
0
  0
POLYLINE
  5
5A9
100
AcDbEntity
  8
0
 62
     7
100
AcDb2dPolyline
 66
     1
 10
0.0
 20
0.0
 30
0.0
 71
     3
  0
VERTEX
  5
5AA
100
AcDbEntity
  8
0
100
AcDbVertex
100
AcDb2dVertex
 10
-76.982971
 20
183.874817
 30
0.0
  0
VERTEX
  5
5AB
100
AcDbEntity
  8
0
100
AcDbVertex
100
AcDb2dVertex
 10
-78.914825
 20
183.357178
 30
0.0
  0
VERTEX
  5
5AC
100
AcDbEntity
  8
0
100
AcDbVertex
100
AcDb2dVertex
 10
-76.982971
 20
182.839539
 30
0.0
  0
SEQEND
  5
5AD
100
AcDbEntity
  8
0
  0
LINE
  5
5AE
100
AcDbEntity
  8
0
 62
     7
100
AcDbLine
 10
-78.914825
 20
183.357178
 30
0.0
 11
-43.914825
 21
183.357178
 31
0.0
210
0.0
220
0.0
230
1.0
  0
ENDBLK
  5
5AF
100
AcDbEntity
  8
0
100
AcDbBlockEnd
  0
BLOCK
  5
5B0
100
AcDbEntity
  8
0
100
AcDbBlockBegin
  2
BLOCK29
 70
     0
 10
0.0
 20
0.0
 30
0.0
  3
BLOCK29
  1

  0
TEXT
  5
5B1
100
AcDbEntity
  8
0
 62
     7
100
AcDbText
 10
-99.80085
 20
185.357178
 30
0.0
 40
3.5
  1
35
 72
     5
 11
-93.028801
 21
185.357178
 31
0.0
100
AcDbText
  0
LINE
  5
5B2
100
AcDbEntity
  8
0
 62
     7
 48
0.269141
100
AcDbLine
 10
-113.914825
 20
174.591553
 30
0.0
 11
-113.914825
 21
185.357178
 31
0.0
210
0.0
220
0.0
230
1.0
  0
LINE
  5
5B3
100
AcDbEntity
  8
0
 62
     7
 48
0.264024
100
AcDbLine
 10
-78.914825
 20
174.796234
 30
0.0
 11
-78.914825
 21
185.357178
 31
0.0
210
0.0
220
0.0
230
1.0
  0
POLYLINE
  5
5B4
100
AcDbEntity
  8
0
 62
     7
100
AcDb2dPolyline
 66
     1
 10
0.0
 20
0.0
 30
0.0
 71
     3
  0
VERTEX
  5
5B5
100
AcDbEntity
  8
0
100
AcDbVertex
100
AcDb2dVertex
 10
-80.84668
 20
182.839539
 30
0.0
  0
VERTEX
  5
5B6
100
AcDbEntity
  8
0
100
AcDbVertex
100
AcDb2dVertex
 10
-78.914825
 20
183.357178
 30
0.0
  0
VERTEX
  5
5B7
100
AcDbEntity
  8
0
100
AcDbVertex
100
AcDb2dVertex
 10
-80.84668
 20
183.874817
 30
0.0
  0
SEQEND
  5
5B8
100
AcDbEntity
  8
0
  0
POLYLINE
  5
5B9
100
AcDbEntity
  8
0
 62
     7
100
AcDb2dPolyline
 66
     1
 10
0.0
 20
0.0
 30
0.0
 71
     3
  0
VERTEX
  5
5BA
100
AcDbEntity
  8
0
100
AcDbVertex
100
AcDb2dVertex
 10
-111.982971
 20
183.874817
 30
0.0
  0
VERTEX
  5
5BB
100
AcDbEntity
  8
0
100
AcDbVertex
100
AcDb2dVertex
 10
-113.914825
 20
183.357178
 30
0.0
  0
VERTEX
  5
5BC
100
AcDbEntity
  8
0
100
AcDbVertex
100
AcDb2dVertex
 10
-111.982971
 20
182.839539
 30
0.0
  0
SEQEND
  5
5BD
100
AcDbEntity
  8
0
  0
LINE
  5
5BE
100
AcDbEntity
  8
0
 62
     7
100
AcDbLine
 10
-113.914825
 20
183.357178
 30
0.0
 11
-78.914825
 21
183.357178
 31
0.0
210
0.0
220
0.0
230
1.0
  0
ENDBLK
  5
5BF
100
AcDbEntity
  8
0
100
AcDbBlockEnd
  0
BLOCK
  5
5C0
100
AcDbEntity
  8
0
100
AcDbBlockBegin
  2
BLOCK30
 70
     0
 10
0.0
 20
0.0
 30
0.0
  3
BLOCK30
  1

  0
TEXT
  5
5C1
100
AcDbEntity
  8
0
 62
     7
100
AcDbText
 10
-49.168861
 20
198.277435
 30
0.0
 40
3.5
  1
105
 72
     5
 11
-38.660789
 21
198.277435
 31
0.0
100
AcDbText
  0
LINE
  5
5C2
100
AcDbEntity
  8
0
 62
     7
 48
0.298449
100
AcDbLine
 10
-96.414825
 20
167.0
 30
0.0
 11
-96.414825
 21
178.937973
 31
0.0
210
0.0
220
0.0
230
1.0
  0
LINE
  5
5C3
100
AcDbEntity
  8
0
 62
     7
 48
0.145828
100
AcDbLine
 10
-96.414825
 20
192.444305
 30
0.0
 11
-96.414825
 21
198.277435
 31
0.0
210
0.0
220
0.0
230
1.0
  0
LINE
  5
5C4
100
AcDbEntity
  8
0
 62
     7
100
AcDbLine
 10
8.585175
 20
167.0
 30
0.0
 11
8.585175
 21
198.277435
 31
0.0
210
0.0
220
0.0
230
1.0
  0
POLYLINE
  5
5C5
100
AcDbEntity
  8
0
 62
     7
100
AcDb2dPolyline
 66
     1
 10
0.0
 20
0.0
 30
0.0
 71
     3
  0
VERTEX
  5
5C6
100
AcDbEntity
  8
0
100
AcDbVertex
100
AcDb2dVertex
 10
6.653323
 20
195.759796
 30
0.0
  0
VERTEX
  5
5C7
100
AcDbEntity
  8
0
100
AcDbVertex
100
AcDb2dVertex
 10
8.585175
 20
196.277435
 30
0.0
  0
VERTEX
  5
5C8
100
AcDbEntity
  8
0
100
AcDbVertex
100
AcDb2dVertex
 10
6.653323
 20
196.795074
 30
0.0
  0
SEQEND
  5
5C9
100
AcDbEntity
  8
0
  0
POLYLINE
  5
5CA
100
AcDbEntity
  8
0
 62
     7
100
AcDb2dPolyline
 66
     1
 10
0.0
 20
0.0
 30
0.0
 71
     3
  0
VERTEX
  5
5CB
100
AcDbEntity
  8
0
100
AcDbVertex
100
AcDb2dVertex
 10
-94.482971
 20
196.795074
 30
0.0
  0
VERTEX
  5
5CC
100
AcDbEntity
  8
0
100
AcDbVertex
100
AcDb2dVertex
 10
-96.414825
 20
196.277435
 30
0.0
  0
VERTEX
  5
5CD
100
AcDbEntity
  8
0
100
AcDbVertex
100
AcDb2dVertex
 10
-94.482971
 20
195.759796
 30
0.0
  0
SEQEND
  5
5CE
100
AcDbEntity
  8
0
  0
LINE
  5
5CF
100
AcDbEntity
  8
0
 62
     7
100
AcDbLine
 10
-96.414825
 20
196.277435
 30
0.0
 11
8.585175
 21
196.277435
 31
0.0
210
0.0
220
0.0
230
1.0
  0
ENDBLK
  5
5D0
100
AcDbEntity
  8
0
100
AcDbBlockEnd
  0
BLOCK
  5
5D1
100
AcDbEntity
  8
0
100
AcDbBlockBegin
  2
BLOCK31
 70
     0
 10
0.0
 20
0.0
 30
0.0
  3
BLOCK31
  1

  0
TEXT
  5
5D2
100
AcDbEntity
  8
0
 62
     7
100
AcDbText
 10
-66.668861
 20
209.337463
 30
0.0
 40
3.5
  1
140
 72
     5
 11
-56.160789
 21
209.337463
 31
0.0
100
AcDbText
  0
LINE
  5
5D3
100
AcDbEntity
  8
0
 62
     7
100
AcDbLine
 10
-131.414825
 20
167.0
 30
0.0
 11
-131.414825
 21
209.337463
 31
0.0
210
0.0
220
0.0
230
1.0
  0
LINE
  5
5D4
100
AcDbEntity
  8
0
 62
     7
100
AcDbLine
 10
8.585175
 20
167.0
 30
0.0
 11
8.585175
 21
209.337463
 31
0.0
210
0.0
220
0.0
230
1.0
  0
POLYLINE
  5
5D5
100
AcDbEntity
  8
0
 62
     7
100
AcDb2dPolyline
 66
     1
 10
0.0
 20
0.0
 30
0.0
 71
     3
  0
VERTEX
  5
5D6
100
AcDbEntity
  8
0
100
AcDbVertex
100
AcDb2dVertex
 10
6.653323
 20
206.819824
 30
0.0
  0
VERTEX
  5
5D7
100
AcDbEntity
  8
0
100
AcDbVertex
100
AcDb2dVertex
 10
8.585175
 20
207.337463
 30
0.0
  0
VERTEX
  5
5D8
100
AcDbEntity
  8
0
100
AcDbVertex
100
AcDb2dVertex
 10
6.653323
 20
207.855103
 30
0.0
  0
SEQEND
  5
5D9
100
AcDbEntity
  8
0
  0
POLYLINE
  5
5DA
100
AcDbEntity
  8
0
 62
     7
100
AcDb2dPolyline
 66
     1
 10
0.0
 20
0.0
 30
0.0
 71
     3
  0
VERTEX
  5
5DB
100
AcDbEntity
  8
0
100
AcDbVertex
100
AcDb2dVertex
 10
-129.482971
 20
207.855103
 30
0.0
  0
VERTEX
  5
5DC
100
AcDbEntity
  8
0
100
AcDbVertex
100
AcDb2dVertex
 10
-131.414825
 20
207.337463
 30
0.0
  0
VERTEX
  5
5DD
100
AcDbEntity
  8
0
100
AcDbVertex
100
AcDb2dVertex
 10
-129.482971
 20
206.819824
 30
0.0
  0
SEQEND
  5
5DE
100
AcDbEntity
  8
0
  0
LINE
  5
5DF
100
AcDbEntity
  8
0
 62
     7
100
AcDbLine
 10
-131.414825
 20
207.337463
 30
0.0
 11
8.585175
 21
207.337463
 31
0.0
210
0.0
220
0.0
230
1.0
  0
ENDBLK
  5
5E0
100
AcDbEntity
  8
0
100
AcDbBlockEnd
  0
BLOCK
  5
5E1
100
AcDbEntity
  8
0
100
AcDbBlockBegin
  2
BLOCK32
 70
     0
 10
0.0
 20
0.0
 30
0.0
  3
BLOCK32
  1

  0
TEXT
  5
5E2
100
AcDbEntity
  8
0
 62
     7
100
AcDbText
 10
-149.568634
 20
130.113983
 30
0.0
 40
3.5
  1
75
 50
90.000003
 72
     5
 11
-149.568634
 21
136.886017
 31
0.0
100
AcDbText
  0
LINE
  5
5E3
100
AcDbEntity
  8
0
 62
     7
 48
0.356013
100
AcDbLine
 10
-135.328094
 20
96.0
 30
0.0
 11
-149.568634
 21
96.0
 31
0.0
210
0.0
220
0.0
230
1.0
  0
LINE
  5
5E4
100
AcDbEntity
  8
0
 62
     7
 48
0.466346
100
AcDbLine
 10
-130.91481
 20
171.0
 30
0.0
 11
-149.568634
 21
171.0
 31
0.0
210
0.0
220
0.0
230
1.0
  0
POLYLINE
  5
5E5
100
AcDbEntity
  8
0
 62
     7
100
AcDb2dPolyline
 66
     1
 10
0.0
 20
0.0
 30
0.0
 71
     3
  0
VERTEX
  5
5E6
100
AcDbEntity
  8
0
100
AcDbVertex
100
AcDb2dVertex
 10
-147.050995
 20
169.068146
 30
0.0
  0
VERTEX
  5
5E7
100
AcDbEntity
  8
0
100
AcDbVertex
100
AcDb2dVertex
 10
-147.568634
 20
171.0
 30
0.0
  0
VERTEX
  5
5E8
100
AcDbEntity
  8
0
100
AcDbVertex
100
AcDb2dVertex
 10
-148.086273
 20
169.068146
 30
0.0
  0
SEQEND
  5
5E9
100
AcDbEntity
  8
0
  0
POLYLINE
  5
5EA
100
AcDbEntity
  8
0
 62
     7
100
AcDb2dPolyline
 66
     1
 10
0.0
 20
0.0
 30
0.0
 71
     3
  0
VERTEX
  5
5EB
100
AcDbEntity
  8
0
100
AcDbVertex
100
AcDb2dVertex
 10
-148.086273
 20
97.931854
 30
0.0
  0
VERTEX
  5
5EC
100
AcDbEntity
  8
0
100
AcDbVertex
100
AcDb2dVertex
 10
-147.568634
 20
96.0
 30
0.0
  0
VERTEX
  5
5ED
100
AcDbEntity
  8
0
100
AcDbVertex
100
AcDb2dVertex
 10
-147.050995
 20
97.931854
 30
0.0
  0
SEQEND
  5
5EE
100
AcDbEntity
  8
0
  0
LINE
  5
5EF
100
AcDbEntity
  8
0
 62
     7
100
AcDbLine
 10
-147.568634
 20
96.0
 30
0.0
 11
-147.568634
 21
171.0
 31
0.0
210
0.0
220
0.0
230
1.0
  0
ENDBLK
  5
5F0
100
AcDbEntity
  8
0
100
AcDbBlockEnd
  0
BLOCK
  5
5F1
100
AcDbEntity
  8
0
100
AcDbBlockBegin
  2
BLOCK33
 70
     0
 10
0.0
 20
0.0
 30
0.0
  3
BLOCK33
  1

  0
TEXT
  5
5F2
100
AcDbEntity
  8
0
 62
     7
100
AcDbText
 10
-160.201355
 20
90.745964
 30
0.0
 40
3.5
  1
150
 50
90.000003
 72
     5
 11
-160.201355
 21
101.254036
 31
0.0
100
AcDbText
  0
LINE
  5
5F3
100
AcDbEntity
  8
0
 62
     7
100
AcDbLine
 10
-130.91481
 20
21.0
 30
0.0
 11
-160.201355
 21
21.0
 31
0.0
210
0.0
220
0.0
230
1.0
  0
LINE
  5
5F4
100
AcDbEntity
  8
0
 62
     7
100
AcDbLine
 10
-130.91481
 20
171.0
 30
0.0
 11
-160.201355
 21
171.0
 31
0.0
210
0.0
220
0.0
230
1.0
  0
POLYLINE
  5
5F5
100
AcDbEntity
  8
0
 62
     7
100
AcDb2dPolyline
 66
     1
 10
0.0
 20
0.0
 30
0.0
 71
     3
  0
VERTEX
  5
5F6
100
AcDbEntity
  8
0
100
AcDbVertex
100
AcDb2dVertex
 10
-157.683716
 20
169.068146
 30
0.0
  0
VERTEX
  5
5F7
100
AcDbEntity
  8
0
100
AcDbVertex
100
AcDb2dVertex
 10
-158.201355
 20
171.0
 30
0.0
  0
VERTEX
  5
5F8
100
AcDbEntity
  8
0
100
AcDbVertex
100
AcDb2dVertex
 10
-158.718994
 20
169.068146
 30
0.0
  0
SEQEND
  5
5F9
100
AcDbEntity
  8
0
  0
POLYLINE
  5
5FA
100
AcDbEntity
  8
0
 62
     7
100
AcDb2dPolyline
 66
     1
 10
0.0
 20
0.0
 30
0.0
 71
     3
  0
VERTEX
  5
5FB
100
AcDbEntity
  8
0
100
AcDbVertex
100
AcDb2dVertex
 10
-158.718994
 20
22.931852
 30
0.0
  0
VERTEX
  5
5FC
100
AcDbEntity
  8
0
100
AcDbVertex
100
AcDb2dVertex
 10
-158.201355
 20
21.0
 30
0.0
  0
VERTEX
  5
5FD
100
AcDbEntity
  8
0
100
AcDbVertex
100
AcDb2dVertex
 10
-157.683716
 20
22.931852
 30
0.0
  0
SEQEND
  5
5FE
100
AcDbEntity
  8
0
  0
LINE
  5
5FF
100
AcDbEntity
  8
0
 62
     7
100
AcDbLine
 10
-158.201355
 20
21.0
 30
0.0
 11
-158.201355
 21
171.0
 31
0.0
210
0.0
220
0.0
230
1.0
  0
ENDBLK
  5
600
100
AcDbEntity
  8
0
100
AcDbBlockEnd
  0
BLOCK
  5
601
100
AcDbEntity
  8
0
100
AcDbBlockBegin
  2
BLOCK34
 70
     0
 10
0.0
 20
0.0
 30
0.0
  3
BLOCK34
  1

  0
LINE
  5
602
100
AcDbEntity
  8
0
  6
DASHDOT
 62
     7
 48
0.27625
100
AcDbLine
 10
-20.889826
 20
157.0
 30
0.0
 11
-31.939825
 21
157.0
 31
0.0
210
0.0
220
0.0
230
1.0
  0
LINE
  5
603
100
AcDbEntity
  8
0
  6
DASHDOT
 62
     7
 48
0.27625
100
AcDbLine
 10
-26.414825
 20
162.524994
 30
0.0
 11
-26.414825
 21
151.475006
 31
0.0
210
0.0
220
0.0
230
1.0
  0
ENDBLK
  5
604
100
AcDbEntity
  8
0
100
AcDbBlockEnd
  0
BLOCK
  5
605
100
AcDbEntity
  8
0
100
AcDbBlockBegin
  2
BLOCK35
 70
     0
 10
0.0
 20
0.0
 30
0.0
  3
BLOCK35
  1

  0
LINE
  5
606
100
AcDbEntity
  8
0
  6
DASHDOT
 62
     7
 48
0.27625
100
AcDbLine
 10
-55.889824
 20
157.0
 30
0.0
 11
-66.939827
 21
157.0
 31
0.0
210
0.0
220
0.0
230
1.0
  0
LINE
  5
607
100
AcDbEntity
  8
0
  6
DASHDOT
 62
     7
 48
0.27625
100
AcDbLine
 10
-61.414825
 20
162.524994
 30
0.0
 11
-61.414825
 21
151.475006
 31
0.0
210
0.0
220
0.0
230
1.0
  0
ENDBLK
  5
608
100
AcDbEntity
  8
0
100
AcDbBlockEnd
  0
BLOCK
  5
609
100
AcDbEntity
  8
0
100
AcDbBlockBegin
  2
BLOCK36
 70
     0
 10
0.0
 20
0.0
 30
0.0
  3
BLOCK36
  1

  0
LINE
  5
60A
100
AcDbEntity
  8
0
  6
DASHDOT
 62
     7
 48
0.407523
100
AcDbLine
 10
-35.76437
 20
154.0
 30
0.0
 11
-52.065281
 21
154.0
 31
0.0
210
0.0
220
0.0
230
1.0
  0
LINE
  5
60B
100
AcDbEntity
  8
0
  6
DASHDOT
 62
     7
100
AcDbLine
 10
-43.914825
 20
172.796234
 30
0.0
 11
-43.914825
 21
18.904146
 31
0.0
210
0.0
220
0.0
230
1.0
  0
ENDBLK
  5
60C
100
AcDbEntity
  8
0
100
AcDbBlockEnd
  0
BLOCK
  5
60D
100
AcDbEntity
  8
0
100
AcDbBlockBegin
  2
BLOCK37
 70
     0
 10
0.0
 20
0.0
 30
0.0
  3
BLOCK37
  1

  0
LINE
  5
60E
100
AcDbEntity
  8
0
  6
DASHDOT
 62
     7
 48
0.39
100
AcDbLine
 10
-106.114822
 20
154.0
 30
0.0
 11
-121.714828
 21
154.0
 31
0.0
210
0.0
220
0.0
230
1.0
  0
LINE
  5
60F
100
AcDbEntity
  8
0
  6
DASHDOT
 62
     7
100
AcDbLine
 10
-113.914825
 20
172.591553
 30
0.0
 11
-113.914825
 21
142.267792
 31
0.0
210
0.0
220
0.0
230
1.0
  0
ENDBLK
  5
610
100
AcDbEntity
  8
0
100
AcDbBlockEnd
  0
BLOCK
  5
611
100
AcDbEntity
  8
0
100
AcDbBlockBegin
  2
BLOCK38
 70
     0
 10
0.0
 20
0.0
 30
0.0
  3
BLOCK38
  1

  0
LINE
  5
612
100
AcDbEntity
  8
0
  6
DASHDOT
 62
     7
 48
0.39
100
AcDbLine
 10
-1.114825
 20
154.0
 30
0.0
 11
-16.714825
 21
154.0
 31
0.0
210
0.0
220
0.0
230
1.0
  0
LINE
  5
613
100
AcDbEntity
  8
0
  6
DASHDOT
 62
     7
100
AcDbLine
 10
-8.914825
 20
171.557602
 30
0.0
 11
-8.914825
 21
142.445679
 31
0.0
210
0.0
220
0.0
230
1.0
  0
ENDBLK
  5
614
100
AcDbEntity
  8
0
100
AcDbBlockEnd
  0
BLOCK
  5
615
100
AcDbEntity
  8
0
100
AcDbBlockBegin
  2
BLOCK39
 70
     0
 10
0.0
 20
0.0
 30
0.0
  3
BLOCK39
  1

  0
LINE
  5
616
100
AcDbEntity
  8
0
  6
DASHDOT
 62
     7
 48
0.39
100
AcDbLine
 10
-1.114825
 20
38.0
 30
0.0
 11
-16.714825
 21
38.0
 31
0.0
210
0.0
220
0.0
230
1.0
  0
LINE
  5
617
100
AcDbEntity
  8
0
  6
DASHDOT
 62
     7
 48
0.39
100
AcDbLine
 10
-8.914825
 20
45.799999
 30
0.0
 11
-8.914825
 21
30.200001
 31
0.0
210
0.0
220
0.0
230
1.0
  0
ENDBLK
  5
618
100
AcDbEntity
  8
0
100
AcDbBlockEnd
  0
BLOCK
  5
619
100
AcDbEntity
  8
0
100
AcDbBlockBegin
  2
BLOCK40
 70
     0
 10
0.0
 20
0.0
 30
0.0
  3
BLOCK40
  1

  0
LINE
  5
61A
100
AcDbEntity
  8
0
  6
DASHDOT
 62
     7
 48
0.39
100
AcDbLine
 10
-106.114822
 20
38.0
 30
0.0
 11
-121.714828
 21
38.0
 31
0.0
210
0.0
220
0.0
230
1.0
  0
LINE
  5
61B
100
AcDbEntity
  8
0
  6
DASHDOT
 62
     7
 48
0.450983
100
AcDbLine
 10
-113.914825
 20
45.799999
 30
0.0
 11
-113.914825
 21
27.760664
 31
0.0
210
0.0
220
0.0
230
1.0
  0
ENDBLK
  5
61C
100
AcDbEntity
  8
0
100
AcDbBlockEnd
  0
BLOCK
  5
61D
100
AcDbEntity
  8
0
100
AcDbBlockBegin
  2
BLOCK41
 70
     0
 10
0.0
 20
0.0
 30
0.0
  3
BLOCK41
  1

  0
LINE
  5
61E
100
AcDbEntity
  8
0
  6
DASHDOT
 62
     7
 48
0.39
100
AcDbLine
 10
-36.114826
 20
38.0
 30
0.0
 11
-51.714825
 21
38.0
 31
0.0
210
0.0
220
0.0
230
1.0
  0
LINE
  5
61F
100
AcDbEntity
  8
0
  6
DASHDOT
 62
     7
 48
0.39
100
AcDbLine
 10
-43.914825
 20
45.799999
 30
0.0
 11
-43.914825
 21
30.200001
 31
0.0
210
0.0
220
0.0
230
1.0
  0
ENDBLK
  5
620
100
AcDbEntity
  8
0
100
AcDbBlockEnd
  0
BLOCK
  5
621
100
AcDbEntity
  8
0
100
AcDbBlockBegin
  2
BLOCK42
 70
     0
 10
0.0
 20
0.0
 30
0.0
  3
BLOCK42
  1

  0
LINE
  5
622
100
AcDbEntity
  8
0
  6
DASHDOT
 62
     7
 48
0.39
100
AcDbLine
 10
-71.114822
 20
38.0
 30
0.0
 11
-86.714828
 21
38.0
 31
0.0
210
0.0
220
0.0
230
1.0
  0
LINE
  5
623
100
AcDbEntity
  8
0
  6
DASHDOT
 62
     7
 48
0.39
100
AcDbLine
 10
-78.914825
 20
45.799999
 30
0.0
 11
-78.914825
 21
30.200001
 31
0.0
210
0.0
220
0.0
230
1.0
  0
ENDBLK
  5
624
100
AcDbEntity
  8
0
100
AcDbBlockEnd
  0
BLOCK
  5
625
100
AcDbEntity
  8
0
100
AcDbBlockBegin
  2
BLOCK43
 70
     0
 10
0.0
 20
0.0
 30
0.0
  3
BLOCK43
  1

  0
LINE
  5
626
100
AcDbEntity
  8
0
  6
DASHDOT
 62
     7
 48
0.407523
100
AcDbLine
 10
-70.764366
 20
154.0
 30
0.0
 11
-87.065285
 21
154.0
 31
0.0
210
0.0
220
0.0
230
1.0
  0
LINE
  5
627
100
AcDbEntity
  8
0
  6
DASHDOT
 62
     7
100
AcDbLine
 10
-78.914825
 20
172.796234
 30
0.0
 11
-78.914825
 21
143.513535
 31
0.0
210
0.0
220
0.0
230
1.0
  0
ENDBLK
  5
628
100
AcDbEntity
  8
0
100
AcDbBlockEnd
  0
BLOCK
  5
629
100
AcDbEntity
  8
0
100
AcDbBlockBegin
  2
BLOCK44
 70
     0
 10
0.0
 20
0.0
 30
0.0
  3
BLOCK44
  1

  0
LINE
  5
62A
100
AcDbEntity
  8
0
  6
DASHDOT
 62
     7
100
AcDbLine
 10
-19.40987
 20
89.999992
 30
0.0
 11
-68.419868
 21
89.999992
 31
0.0
210
0.0
220
0.0
230
1.0
  0
LINE
  5
62B
100
AcDbEntity
  8
0
  6
DASHDOT
 62
     7
100
AcDbLine
 10
-43.914871
 20
114.504997
 30
0.0
 11
-43.914871
 21
65.494995
 31
0.0
210
0.0
220
0.0
230
1.0
  0
ENDBLK
  5
62C
100
AcDbEntity
  8
0
100
AcDbBlockEnd
  0
BLOCK
  5
62D
100
AcDbEntity
  8
0
100
AcDbBlockBegin
  2
BLOCK45
 70
     0
 10
0.0
 20
0.0
 30
0.0
  3
BLOCK45
  1

  0
LINE
  5
62E
100
AcDbEntity
  8
0
 62
     2
100
AcDbLine
 10
-82.5
 20
45.700001
 30
0.0
 11
-82.5
 21
146.300003
 31
0.0
210
0.0
220
0.0
230
1.0
  0
LINE
  5
62F
100
AcDbEntity
  8
0
 62
     2
100
AcDbLine
 10
-84.0
 20
45.700001
 30
0.0
 11
-84.0
 21
146.300003
 31
0.0
210
0.0
220
0.0
230
1.0
  0
LINE
  5
630
100
AcDbEntity
  8
0
 62
     2
100
AcDbLine
 10
-85.5
 20
45.700001
 30
0.0
 11
-85.5
 21
146.300003
 31
0.0
210
0.0
220
0.0
230
1.0
  0
LINE
  5
631
100
AcDbEntity
  8
0
 62
     2
100
AcDbLine
 10
-87.0
 20
45.700001
 30
0.0
 11
-87.0
 21
146.300003
 31
0.0
210
0.0
220
0.0
230
1.0
  0
LINE
  5
632
100
AcDbEntity
  8
0
 62
     2
100
AcDbLine
 10
-88.5
 20
45.700001
 30
0.0
 11
-88.5
 21
146.300003
 31
0.0
210
0.0
220
0.0
230
1.0
  0
LINE
  5
633
100
AcDbEntity
  8
0
 62
     2
100
AcDbLine
 10
-90.0
 20
45.700001
 30
0.0
 11
-90.0
 21
146.300003
 31
0.0
210
0.0
220
0.0
230
1.0
  0
LINE
  5
634
100
AcDbEntity
  8
0
 62
     2
100
AcDbLine
 10
-91.5
 20
45.700001
 30
0.0
 11
-91.5
 21
146.300003
 31
0.0
210
0.0
220
0.0
230
1.0
  0
LINE
  5
635
100
AcDbEntity
  8
0
 62
     2
100
AcDbLine
 10
-93.0
 20
45.700001
 30
0.0
 11
-93.0
 21
146.300003
 31
0.0
210
0.0
220
0.0
230
1.0
  0
LINE
  5
636
100
AcDbEntity
  8
0
 62
     2
100
AcDbLine
 10
-94.5
 20
45.700001
 30
0.0
 11
-94.5
 21
146.300003
 31
0.0
210
0.0
220
0.0
230
1.0
  0
LINE
  5
637
100
AcDbEntity
  8
0
 62
     2
100
AcDbLine
 10
-96.0
 20
45.700001
 30
0.0
 11
-96.0
 21
146.300003
 31
0.0
210
0.0
220
0.0
230
1.0
  0
ENDBLK
  5
638
100
AcDbEntity
  8
0
100
AcDbBlockEnd
  0
BLOCK
  5
639
100
AcDbEntity
  8
0
100
AcDbBlockBegin
  2
BLOCK46
 70
     0
 10
0.0
 20
0.0
 30
0.0
  3
BLOCK46
  1

  0
LINE
  5
63A
100
AcDbEntity
  8
0
 62
     2
100
AcDbLine
 10
7.5
 20
45.700001
 30
0.0
 11
7.5
 21
146.300003
 31
0.0
210
0.0
220
0.0
230
1.0
  0
LINE
  5
63B
100
AcDbEntity
  8
0
 62
     2
100
AcDbLine
 10
6.0
 20
45.700001
 30
0.0
 11
6.0
 21
146.300003
 31
0.0
210
0.0
220
0.0
230
1.0
  0
LINE
  5
63C
100
AcDbEntity
  8
0
 62
     2
100
AcDbLine
 10
4.5
 20
45.700001
 30
0.0
 11
4.5
 21
146.300003
 31
0.0
210
0.0
220
0.0
230
1.0
  0
LINE
  5
63D
100
AcDbEntity
  8
0
 62
     2
100
AcDbLine
 10
3.0
 20
45.700001
 30
0.0
 11
3.0
 21
146.300003
 31
0.0
210
0.0
220
0.0
230
1.0
  0
LINE
  5
63E
100
AcDbEntity
  8
0
 62
     2
100
AcDbLine
 10
1.5
 20
45.700001
 30
0.0
 11
1.5
 21
146.300003
 31
0.0
210
0.0
220
0.0
230
1.0
  0
LINE
  5
63F
100
AcDbEntity
  8
0
 62
     2
100
AcDbLine
 10
0.0
 20
45.700001
 30
0.0
 11
0.0
 21
146.300003
 31
0.0
210
0.0
220
0.0
230
1.0
  0
LINE
  5
640
100
AcDbEntity
  8
0
 62
     2
100
AcDbLine
 10
-1.5
 20
45.700001
 30
0.0
 11
-1.5
 21
146.300003
 31
0.0
210
0.0
220
0.0
230
1.0
  0
LINE
  5
641
100
AcDbEntity
  8
0
 62
     2
100
AcDbLine
 10
-3.0
 20
45.700001
 30
0.0
 11
-3.0
 21
146.300003
 31
0.0
210
0.0
220
0.0
230
1.0
  0
LINE
  5
642
100
AcDbEntity
  8
0
 62
     2
100
AcDbLine
 10
-4.5
 20
45.700001
 30
0.0
 11
-4.5
 21
146.300003
 31
0.0
210
0.0
220
0.0
230
1.0
  0
ENDBLK
  5
643
100
AcDbEntity
  8
0
100
AcDbBlockEnd
  0
ENDSEC
  0
SECTION
  2
ENTITIES
  0
VIEWPORT
  5
44D
100
AcDbEntity
 67
     1
  8
0
 62
     0
 48
0.0
100
AcDbViewport
 10
0.0
 20
0.0
 30
0.0
 40
1000.0
 41
1000.0
 68
     1
 69
     1
1001
ACAD
1000
MVIEW
1002
{
1070
    16
1010
0.0
1020
0.0
1030
0.0
1010
0.0
1020
0.0
1030
1.0
1040
0.0
1040
1000.0
1040
0.0
1040
0.0
1040
50.0
1040
0.0
1040
0.0
1070
     0
1070
   100
1070
     1
1070
     1
1070
     0
1070
     0
1070
     0
1070
     0
1040
0.0
1040
0.0
1040
0.0
1040
1.0
1040
1.0
1040
1.0
1040
1.0
1070
     0
1002
{
1002
}
1002
}
  0
LINE
  5
25
100
AcDbEntity
  8
0
  6
DASHDOT
 62
     7
100
AcDbLine
 10
372.699879
 20
568.379616
 30
0.0
 11
372.699879
 21
420.379372
 31
0.0
210
0.0
220
0.0
230
1.0
  0
LINE
  5
26
100
AcDbEntity
  8
0
  6
DASHDOT
 62
     7
100
AcDbLine
 10
316.286484
 20
497.584183
 30
0.0
 11
423.013687
 21
497.584183
 31
0.0
210
0.0
220
0.0
230
1.0
  0
POLYLINE
  5
27
100
AcDbEntity
  8
0
 62
     7
100
AcDb2dPolyline
 66
     1
 10
0.0
 20
0.0
 30
0.0
 71
    21
  0
VERTEX
  5
28
100
AcDbEntity
  8
0
100
AcDbVertex
100
AcDb2dVertex
 10
327.699879
 20
540.584183
 30
0.0
  0
VERTEX
  5
29
100
AcDbEntity
  8
0
100
AcDbVertex
100
AcDb2dVertex
 10
327.699879
 20
524.584183
 30
0.0
  0
VERTEX
  5
2A
100
AcDbEntity
  8
0
100
AcDbVertex
100
AcDb2dVertex
 10
329.699879
 20
523.584183
 30
0.0
  0
VERTEX
  5
2B
100
AcDbEntity
  8
0
100
AcDbVertex
100
AcDb2dVertex
 10
325.699879
 20
522.584183
 30
0.0
  0
VERTEX
  5
2C
100
AcDbEntity
  8
0
100
AcDbVertex
100
AcDb2dVertex
 10
327.699879
 20
521.584183
 30
0.0
  0
VERTEX
  5
2D
100
AcDbEntity
  8
0
100
AcDbVertex
100
AcDb2dVertex
 10
327.699879
 20
505.584183
 30
0.0
  0
VERTEX
  5
2E
100
AcDbEntity
  8
0
100
AcDbVertex
100
AcDb2dVertex
 10
329.699879
 20
504.584183
 30
0.0
  0
VERTEX
  5
2F
100
AcDbEntity
  8
0
100
AcDbVertex
100
AcDb2dVertex
 10
325.699879
 20
503.584183
 30
0.0
  0
VERTEX
  5
30
100
AcDbEntity
  8
0
100
AcDbVertex
100
AcDb2dVertex
 10
327.699879
 20
502.584183
 30
0.0
  0
VERTEX
  5
31
100
AcDbEntity
  8
0
100
AcDbVertex
100
AcDb2dVertex
 10
327.699879
 20
486.584183
 30
0.0
  0
VERTEX
  5
32
100
AcDbEntity
  8
0
100
AcDbVertex
100
AcDb2dVertex
 10
329.699879
 20
485.584183
 30
0.0
  0
VERTEX
  5
33
100
AcDbEntity
  8
0
100
AcDbVertex
100
AcDb2dVertex
 10
325.699879
 20
484.584183
 30
0.0
  0
VERTEX
  5
34
100
AcDbEntity
  8
0
100
AcDbVertex
100
AcDb2dVertex
 10
327.699879
 20
483.584183
 30
0.0
  0
VERTEX
  5
35
100
AcDbEntity
  8
0
100
AcDbVertex
100
AcDb2dVertex
 10
327.699879
 20
467.584183
 30
0.0
  0
VERTEX
  5
36
100
AcDbEntity
  8
0
100
AcDbVertex
100
AcDb2dVertex
 10
329.699879
 20
466.584183
 30
0.0
  0
VERTEX
  5
37
100
AcDbEntity
  8
0
100
AcDbVertex
100
AcDb2dVertex
 10
325.699879
 20
465.584183
 30
0.0
  0
VERTEX
  5
38
100
AcDbEntity
  8
0
100
AcDbVertex
100
AcDb2dVertex
 10
327.699879
 20
464.584183
 30
0.0
  0
VERTEX
  5
39
100
AcDbEntity
  8
0
100
AcDbVertex
100
AcDb2dVertex
 10
327.699879
 20
448.584183
 30
0.0
  0
VERTEX
  5
3A
100
AcDbEntity
  8
0
100
AcDbVertex
100
AcDb2dVertex
 10
329.699879
 20
447.584183
 30
0.0
  0
VERTEX
  5
3B
100
AcDbEntity
  8
0
100
AcDbVertex
100
AcDb2dVertex
 10
325.699879
 20
446.584183
 30
0.0
  0
VERTEX
  5
3C
100
AcDbEntity
  8
0
100
AcDbVertex
100
AcDb2dVertex
 10
327.699879
 20
445.584183
 30
0.0
  0
SEQEND
  5
3D
100
AcDbEntity
  8
0
  0
POLYLINE
  5
3E
100
AcDbEntity
  8
0
 62
     7
100
AcDb2dPolyline
 66
     1
 10
0.0
 20
0.0
 30
0.0
 71
    18
  0
VERTEX
  5
3F
100
AcDbEntity
  8
0
100
AcDbVertex
100
AcDb2dVertex
 10
417.699879
 20
445.584183
 30
0.0
  0
VERTEX
  5
40
100
AcDbEntity
  8
0
100
AcDbVertex
100
AcDb2dVertex
 10
401.699879
 20
445.584183
 30
0.0
  0
VERTEX
  5
41
100
AcDbEntity
  8
0
100
AcDbVertex
100
AcDb2dVertex
 10
400.699879
 20
443.584183
 30
0.0
  0
VERTEX
  5
42
100
AcDbEntity
  8
0
100
AcDbVertex
100
AcDb2dVertex
 10
399.699879
 20
447.584183
 30
0.0
  0
VERTEX
  5
43
100
AcDbEntity
  8
0
100
AcDbVertex
100
AcDb2dVertex
 10
398.699879
 20
445.584183
 30
0.0
  0
VERTEX
  5
44
100
AcDbEntity
  8
0
100
AcDbVertex
100
AcDb2dVertex
 10
382.699879
 20
445.584183
 30
0.0
  0
VERTEX
  5
45
100
AcDbEntity
  8
0
100
AcDbVertex
100
AcDb2dVertex
 10
381.699879
 20
443.584183
 30
0.0
  0
VERTEX
  5
46
100
AcDbEntity
  8
0
100
AcDbVertex
100
AcDb2dVertex
 10
380.699879
 20
447.584183
 30
0.0
  0
VERTEX
  5
47
100
AcDbEntity
  8
0
100
AcDbVertex
100
AcDb2dVertex
 10
379.699879
 20
445.584183
 30
0.0
  0
VERTEX
  5
48
100
AcDbEntity
  8
0
100
AcDbVertex
100
AcDb2dVertex
 10
363.699879
 20
445.584183
 30
0.0
  0
VERTEX
  5
49
100
AcDbEntity
  8
0
100
AcDbVertex
100
AcDb2dVertex
 10
362.699879
 20
443.584183
 30
0.0
  0
VERTEX
  5
4A
100
AcDbEntity
  8
0
100
AcDbVertex
100
AcDb2dVertex
 10
361.699879
 20
447.584183
 30
0.0
  0
VERTEX
  5
4B
100
AcDbEntity
  8
0
100
AcDbVertex
100
AcDb2dVertex
 10
360.699879
 20
445.584183
 30
0.0
  0
VERTEX
  5
4C
100
AcDbEntity
  8
0
100
AcDbVertex
100
AcDb2dVertex
 10
344.699879
 20
445.584183
 30
0.0
  0
VERTEX
  5
4D
100
AcDbEntity
  8
0
100
AcDbVertex
100
AcDb2dVertex
 10
343.699879
 20
443.584183
 30
0.0
  0
VERTEX
  5
4E
100
AcDbEntity
  8
0
100
AcDbVertex
100
AcDb2dVertex
 10
342.699879
 20
447.584183
 30
0.0
  0
VERTEX
  5
4F
100
AcDbEntity
  8
0
100
AcDbVertex
100
AcDb2dVertex
 10
341.699879
 20
445.584183
 30
0.0
  0
VERTEX
  5
50
100
AcDbEntity
  8
0
100
AcDbVertex
100
AcDb2dVertex
 10
327.699879
 20
445.584183
 30
0.0
  0
SEQEND
  5
51
100
AcDbEntity
  8
0
  0
POLYLINE
  5
52
100
AcDbEntity
  8
0
 62
     7
100
AcDb2dPolyline
 66
     1
 10
0.0
 20
0.0
 30
0.0
 71
    21
  0
VERTEX
  5
53
100
AcDbEntity
  8
0
100
AcDbVertex
100
AcDb2dVertex
 10
417.699879
 20
445.584183
 30
0.0
  0
VERTEX
  5
54
100
AcDbEntity
  8
0
100
AcDbVertex
100
AcDb2dVertex
 10
417.699879
 20
461.584183
 30
0.0
  0
VERTEX
  5
55
100
AcDbEntity
  8
0
100
AcDbVertex
100
AcDb2dVertex
 10
415.699879
 20
462.584183
 30
0.0
  0
VERTEX
  5
56
100
AcDbEntity
  8
0
100
AcDbVertex
100
AcDb2dVertex
 10
419.699879
 20
463.584183
 30
0.0
  0
VERTEX
  5
57
100
AcDbEntity
  8
0
100
AcDbVertex
100
AcDb2dVertex
 10
417.699879
 20
464.584183
 30
0.0
  0
VERTEX
  5
58
100
AcDbEntity
  8
0
100
AcDbVertex
100
AcDb2dVertex
 10
417.699879
 20
480.584183
 30
0.0
  0
VERTEX
  5
59
100
AcDbEntity
  8
0
100
AcDbVertex
100
AcDb2dVertex
 10
415.699879
 20
481.584183
 30
0.0
  0
VERTEX
  5
5A
100
AcDbEntity
  8
0
100
AcDbVertex
100
AcDb2dVertex
 10
419.699879
 20
482.584183
 30
0.0
  0
VERTEX
  5
5B
100
AcDbEntity
  8
0
100
AcDbVertex
100
AcDb2dVertex
 10
417.699879
 20
483.584183
 30
0.0
  0
VERTEX
  5
5C
100
AcDbEntity
  8
0
100
AcDbVertex
100
AcDb2dVertex
 10
417.699879
 20
499.584183
 30
0.0
  0
VERTEX
  5
5D
100
AcDbEntity
  8
0
100
AcDbVertex
100
AcDb2dVertex
 10
415.699879
 20
500.584183
 30
0.0
  0
VERTEX
  5
5E
100
AcDbEntity
  8
0
100
AcDbVertex
100
AcDb2dVertex
 10
419.699879
 20
501.584183
 30
0.0
  0
VERTEX
  5
5F
100
AcDbEntity
  8
0
100
AcDbVertex
100
AcDb2dVertex
 10
417.699879
 20
502.584183
 30
0.0
  0
VERTEX
  5
60
100
AcDbEntity
  8
0
100
AcDbVertex
100
AcDb2dVertex
 10
417.699879
 20
518.584183
 30
0.0
  0
VERTEX
  5
61
100
AcDbEntity
  8
0
100
AcDbVertex
100
AcDb2dVertex
 10
415.699879
 20
519.584183
 30
0.0
  0
VERTEX
  5
62
100
AcDbEntity
  8
0
100
AcDbVertex
100
AcDb2dVertex
 10
419.699879
 20
520.584183
 30
0.0
  0
VERTEX
  5
63
100
AcDbEntity
  8
0
100
AcDbVertex
100
AcDb2dVertex
 10
417.699879
 20
521.584183
 30
0.0
  0
VERTEX
  5
64
100
AcDbEntity
  8
0
100
AcDbVertex
100
AcDb2dVertex
 10
417.699879
 20
537.584183
 30
0.0
  0
VERTEX
  5
65
100
AcDbEntity
  8
0
100
AcDbVertex
100
AcDb2dVertex
 10
415.699879
 20
538.584183
 30
0.0
  0
VERTEX
  5
66
100
AcDbEntity
  8
0
100
AcDbVertex
100
AcDb2dVertex
 10
419.699879
 20
539.584183
 30
0.0
  0
VERTEX
  5
67
100
AcDbEntity
  8
0
100
AcDbVertex
100
AcDb2dVertex
 10
417.699879
 20
540.584183
 30
0.0
  0
SEQEND
  5
68
100
AcDbEntity
  8
0
  0
POLYLINE
  5
69
100
AcDbEntity
  8
0
 62
     7
100
AcDb2dPolyline
 66
     1
 10
0.0
 20
0.0
 30
0.0
 71
    18
  0
VERTEX
  5
6A
100
AcDbEntity
  8
0
100
AcDbVertex
100
AcDb2dVertex
 10
327.699879
 20
540.584183
 30
0.0
  0
VERTEX
  5
6B
100
AcDbEntity
  8
0
100
AcDbVertex
100
AcDb2dVertex
 10
343.699879
 20
540.584183
 30
0.0
  0
VERTEX
  5
6C
100
AcDbEntity
  8
0
100
AcDbVertex
100
AcDb2dVertex
 10
344.699879
 20
542.584183
 30
0.0
  0
VERTEX
  5
6D
100
AcDbEntity
  8
0
100
AcDbVertex
100
AcDb2dVertex
 10
345.699879
 20
538.584183
 30
0.0
  0
VERTEX
  5
6E
100
AcDbEntity
  8
0
100
AcDbVertex
100
AcDb2dVertex
 10
346.699879
 20
540.584183
 30
0.0
  0
VERTEX
  5
6F
100
AcDbEntity
  8
0
100
AcDbVertex
100
AcDb2dVertex
 10
362.699879
 20
540.584183
 30
0.0
  0
VERTEX
  5
70
100
AcDbEntity
  8
0
100
AcDbVertex
100
AcDb2dVertex
 10
363.699879
 20
542.584183
 30
0.0
  0
VERTEX
  5
71
100
AcDbEntity
  8
0
100
AcDbVertex
100
AcDb2dVertex
 10
364.699879
 20
538.584183
 30
0.0
  0
VERTEX
  5
72
100
AcDbEntity
  8
0
100
AcDbVertex
100
AcDb2dVertex
 10
365.699879
 20
540.584183
 30
0.0
  0
VERTEX
  5
73
100
AcDbEntity
  8
0
100
AcDbVertex
100
AcDb2dVertex
 10
381.699879
 20
540.584183
 30
0.0
  0
VERTEX
  5
74
100
AcDbEntity
  8
0
100
AcDbVertex
100
AcDb2dVertex
 10
382.699879
 20
542.584183
 30
0.0
  0
VERTEX
  5
75
100
AcDbEntity
  8
0
100
AcDbVertex
100
AcDb2dVertex
 10
383.699879
 20
538.584183
 30
0.0
  0
VERTEX
  5
76
100
AcDbEntity
  8
0
100
AcDbVertex
100
AcDb2dVertex
 10
384.699879
 20
540.584183
 30
0.0
  0
VERTEX
  5
77
100
AcDbEntity
  8
0
100
AcDbVertex
100
AcDb2dVertex
 10
400.699879
 20
540.584183
 30
0.0
  0
VERTEX
  5
78
100
AcDbEntity
  8
0
100
AcDbVertex
100
AcDb2dVertex
 10
401.699879
 20
542.584183
 30
0.0
  0
VERTEX
  5
79
100
AcDbEntity
  8
0
100
AcDbVertex
100
AcDb2dVertex
 10
402.699879
 20
538.584183
 30
0.0
  0
VERTEX
  5
7A
100
AcDbEntity
  8
0
100
AcDbVertex
100
AcDb2dVertex
 10
403.699879
 20
540.584183
 30
0.0
  0
VERTEX
  5
7B
100
AcDbEntity
  8
0
100
AcDbVertex
100
AcDb2dVertex
 10
417.699879
 20
540.584183
 30
0.0
  0
SEQEND
  5
7C
100
AcDbEntity
  8
0
  0
LINE
  5
7D
100
AcDbEntity
  8
0
 62
     7
100
AcDbLine
 10
406.699879
 20
457.584183
 30
0.0
 11
338.699879
 21
457.584183
 31
0.0
210
0.0
220
0.0
230
1.0
  0
LINE
  5
7E
100
AcDbEntity
  8
0
 62
     7
100
AcDbLine
 10
338.699879
 20
525.584183
 30
0.0
 11
338.699879
 21
457.584183
 31
0.0
210
0.0
220
0.0
230
1.0
  0
LINE
  5
7F
100
AcDbEntity
  8
0
 62
     7
100
AcDbLine
 10
406.699879
 20
525.584183
 30
0.0
 11
338.699879
 21
525.584183
 31
0.0
210
0.0
220
0.0
230
1.0
  0
LINE
  5
80
100
AcDbEntity
  8
0
 62
     7
100
AcDbLine
 10
406.699879
 20
457.584183
 30
0.0
 11
406.699879
 21
525.584183
 31
0.0
210
0.0
220
0.0
230
1.0
  0
LINE
  5
81
100
AcDbEntity
  8
0
  6
DASHDOT
 62
     7
100
AcDbLine
 10
92.660596
 20
497.584183
 30
0.0
 11
173.060593
 21
497.584183
 31
0.0
210
0.0
220
0.0
230
1.0
  0
LINE
  5
82
100
AcDbEntity
  8
0
  6
DASHDOT
 62
     7
 48
0.235292
100
AcDbLine
 10
170.722664
 20
460.584183
 30
0.0
 11
180.134361
 21
460.584179
 31
0.0
210
0.0
220
0.0
230
1.0
  0
LINE
  5
83
100
AcDbEntity
  8
0
  6
DASHDOT
 62
     7
 48
0.462024
100
AcDbLine
 10
183.070091
 20
491.584175
 30
0.0
 11
201.551041
 21
491.584167
 31
0.0
210
0.0
220
0.0
230
1.0
  0
LINE
  5
84
100
AcDbEntity
  8
0
  6
DASHDOT
 62
     7
 48
0.131452
100
AcDbLine
 10
170.569054
 20
522.584183
 30
0.0
 11
175.827126
 21
522.584183
 31
0.0
210
0.0
220
0.0
230
1.0
  0
LINE
  5
85
100
AcDbEntity
  8
0
  6
DASHDOT
 62
     7
100
AcDbLine
 10
96.360597
 20
414.541561
 30
0.0
 11
96.360597
 21
583.2276
 31
0.0
210
0.0
220
0.0
230
1.0
  0
POLYLINE
  5
86
100
AcDbEntity
  8
0
 62
     7
100
AcDb2dPolyline
 66
     1
 10
0.0
 20
0.0
 30
0.0
 71
     5
  0
VERTEX
  5
87
100
AcDbEntity
  8
0
100
AcDbVertex
100
AcDb2dVertex
 10
94.404394
 20
583.528091
 30
0.0
  0
VERTEX
  5
88
100
AcDbEntity
  8
0
100
AcDbVertex
100
AcDb2dVertex
 10
98.882395
 20
582.84021
 30
0.0
  0
VERTEX
  5
89
100
AcDbEntity
  8
0
100
AcDbVertex
100
AcDb2dVertex
 10
100.174468
 20
584.665192
 30
0.0
  0
VERTEX
  5
8A
100
AcDbEntity
  8
0
100
AcDbVertex
100
AcDb2dVertex
 10
100.55554
 20
580.559723
 30
0.0
  0
VERTEX
  5
8B
100
AcDbEntity
  8
0
100
AcDbVertex
100
AcDb2dVertex
 10
101.847613
 20
582.384705
 30
0.0
  0
SEQEND
  5
8C
100
AcDbEntity
  8
0
  0
POLYLINE
  5
8D
100
AcDbEntity
  8
0
 62
     7
100
AcDb2dPolyline
 66
     1
 10
0.0
 20
0.0
 30
0.0
 71
     5
  0
VERTEX
  5
8E
100
AcDbEntity
  8
0
100
AcDbVertex
100
AcDb2dVertex
 10
94.728771
 20
415.062753
 30
0.0
  0
VERTEX
  5
8F
100
AcDbEntity
  8
0
100
AcDbVertex
100
AcDb2dVertex
 10
98.174334
 20
413.962269
 30
0.0
  0
VERTEX
  5
90
100
AcDbEntity
  8
0
100
AcDbVertex
100
AcDb2dVertex
 10
99.735426
 20
415.563203
 30
0.0
  0
VERTEX
  5
91
100
AcDbEntity
  8
0
100
AcDbVertex
100
AcDb2dVertex
 10
99.471018
 20
411.448585
 30
0.0
  0
VERTEX
  5
92
100
AcDbEntity
  8
0
100
AcDbVertex
100
AcDb2dVertex
 10
101.03211
 20
413.049519
 30
0.0
  0
SEQEND
  5
93
100
AcDbEntity
  8
0
  0
ARC
  5
94
100
AcDbEntity
  8
0
 62
     7
100
AcDbCircle
 10
121.860598
 20
481.584183
 30
0.0
 40
24.5
210
0.0
220
0.0
230
1.0
100
AcDbArc
 50
139.055426
 51
139.227192
  0
LINE
  5
95
100
AcDbEntity
  8
0
 62
     7
 48
0.00625
100
AcDbLine
 10
100.560596
 20
497.584183
 30
0.0
 11
100.560596
 21
497.834183
 31
0.0
210
0.0
220
0.0
230
1.0
  0
LINE
  5
96
100
AcDbEntity
  8
0
 62
     7
 48
0.0075
100
AcDbLine
 10
103.060596
 20
499.584183
 30
0.0
 11
103.360596
 21
499.584183
 31
0.0
210
0.0
220
0.0
230
1.0
  0
LINE
  5
97
100
AcDbEntity
  8
0
 62
     7
100
AcDbLine
 10
149.360596
 20
503.584183
 30
0.0
 11
149.360596
 21
566.584183
 31
0.0
210
0.0
220
0.0
230
1.0
  0
LINE
  5
98
100
AcDbEntity
  8
0
 62
     7
 48
0.03
100
AcDbLine
 10
99.360596
 20
497.584183
 30
0.0
 11
100.560596
 21
497.584183
 31
0.0
210
0.0
220
0.0
230
1.0
  0
LINE
  5
99
100
AcDbEntity
  8
0
 62
     7
100
AcDbLine
 10
103.360596
 20
497.584183
 30
0.0
 11
103.360596
 21
539.084183
 31
0.0
210
0.0
220
0.0
230
1.0
  0
LINE
  5
9A
100
AcDbEntity
  8
0
 62
     7
 48
0.07
100
AcDbLine
 10
100.560596
 20
497.584183
 30
0.0
 11
103.360596
 21
497.584183
 31
0.0
210
0.0
220
0.0
230
1.0
  0
LINE
  5
9B
100
AcDbEntity
  8
0
 62
     7
100
AcDbLine
 10
99.360596
 20
422.584183
 30
0.0
 11
99.360596
 21
477.084183
 31
0.0
210
0.0
220
0.0
230
1.0
  0
LINE
  5
9C
100
AcDbEntity
  8
0
 62
     7
 48
0.25
100
AcDbLine
 10
99.360596
 20
487.584183
 30
0.0
 11
99.360596
 21
497.584183
 31
0.0
210
0.0
220
0.0
230
1.0
  0
LINE
  5
9D
100
AcDbEntity
  8
0
 62
     7
100
AcDbLine
 10
148.660595
 20
504.28418
 30
0.0
 11
148.660595
 21
566.584183
 31
0.0
210
0.0
220
0.0
230
1.0
  0
LINE
  5
9E
100
AcDbEntity
  8
0
 62
     7
100
AcDbLine
 10
148.660595
 20
428.584183
 30
0.0
 11
148.660595
 21
471.884186
 31
0.0
210
0.0
220
0.0
230
1.0
  0
LINE
  5
9F
100
AcDbEntity
  8
0
 62
     7
 48
0.0175
100
AcDbLine
 10
149.360596
 20
471.884186
 30
0.0
 11
149.360596
 21
472.584183
 31
0.0
210
0.0
220
0.0
230
1.0
  0
LINE
  5
A0
100
AcDbEntity
  8
0
 62
     7
 48
0.00625
100
AcDbLine
 10
101.360596
 20
497.584183
 30
0.0
 11
101.360596
 21
497.834183
 31
0.0
210
0.0
220
0.0
230
1.0
  0
LINE
  5
A1
100
AcDbEntity
  8
0
 62
     7
 48
0.294924
100
AcDbLine
 10
135.660599
 20
493.681129
 30
0.0
 11
140.832035
 21
504.28418
 31
0.0
210
0.0
220
0.0
230
1.0
  0
LINE
  5
A2
100
AcDbEntity
  8
0
 62
     7
 48
0.195714
100
AcDbLine
 10
140.832035
 20
504.28418
 30
0.0
 11
148.660595
 21
504.28418
 31
0.0
210
0.0
220
0.0
230
1.0
  0
LINE
  5
A3
100
AcDbEntity
  8
0
 62
     7
 48
0.325
100
AcDbLine
 10
135.660599
 20
471.884186
 30
0.0
 11
148.660595
 21
471.884186
 31
0.0
210
0.0
220
0.0
230
1.0
  0
LINE
  5
A4
100
AcDbEntity
  8
0
 62
     7
 48
0.13
100
AcDbLine
 10
135.660599
 20
471.884186
 30
0.0
 11
135.660599
 21
477.084183
 31
0.0
210
0.0
220
0.0
230
1.0
  0
LINE
  5
A5
100
AcDbEntity
  8
0
 62
     7
 48
0.152424
100
AcDbLine
 10
135.660599
 20
487.584183
 30
0.0
 11
135.660599
 21
493.681129
 31
0.0
210
0.0
220
0.0
230
1.0
  0
LINE
  5
A6
100
AcDbEntity
  8
0
 62
     7
100
AcDbLine
 10
99.360596
 20
477.084183
 30
0.0
 11
135.660599
 21
477.084183
 31
0.0
210
0.0
220
0.0
230
1.0
  0
LINE
  5
A7
100
AcDbEntity
  8
0
 62
     7
 48
0.0175
100
AcDbLine
 10
135.660599
 20
476.884186
 30
0.0
 11
136.360596
 21
476.884186
 31
0.0
210
0.0
220
0.0
230
1.0
  0
LINE
  5
A8
100
AcDbEntity
  8
0
 62
     7
 48
0.2625
100
AcDbLine
 10
99.360596
 20
477.084183
 30
0.0
 11
99.360596
 21
487.584183
 31
0.0
210
0.0
220
0.0
230
1.0
  0
LINE
  5
A9
100
AcDbEntity
  8
0
 62
     7
 48
0.2625
100
AcDbLine
 10
136.360596
 20
477.084183
 30
0.0
 11
136.360596
 21
487.584183
 31
0.0
210
0.0
220
0.0
230
1.0
  0
LINE
  5
AA
100
AcDbEntity
  8
0
 62
     7
 48
0.0175
100
AcDbLine
 10
135.660599
 20
487.78418
 30
0.0
 11
136.360596
 21
487.78418
 31
0.0
210
0.0
220
0.0
230
1.0
  0
LINE
  5
AB
100
AcDbEntity
  8
0
 62
     7
100
AcDbLine
 10
99.360596
 20
487.584183
 30
0.0
 11
135.660599
 21
487.584183
 31
0.0
210
0.0
220
0.0
230
1.0
  0
LINE
  5
AC
100
AcDbEntity
  8
0
 62
     7
 48
0.00625
100
AcDbLine
 10
101.860596
 20
497.584183
 30
0.0
 11
101.860596
 21
497.834183
 31
0.0
210
0.0
220
0.0
230
1.0
  0
LINE
  5
AD
100
AcDbEntity
  8
0
 62
     7
 48
0.2
100
AcDbLine
 10
158.360596
 20
572.584183
 30
0.0
 11
166.360596
 21
572.584183
 31
0.0
210
0.0
220
0.0
230
1.0
  0
LINE
  5
AE
100
AcDbEntity
  8
0
 62
     7
 48
0.325
100
AcDbLine
 10
136.360596
 20
472.584183
 30
0.0
 11
149.360596
 21
472.584183
 31
0.0
210
0.0
220
0.0
230
1.0
  0
LINE
  5
AF
100
AcDbEntity
  8
0
 62
     7
 48
0.1125
100
AcDbLine
 10
136.360596
 20
472.584183
 30
0.0
 11
136.360596
 21
477.084183
 31
0.0
210
0.0
220
0.0
230
1.0
  0
LINE
  5
B0
100
AcDbEntity
  8
0
 62
     7
 48
0.148384
100
AcDbLine
 10
136.360596
 20
487.584183
 30
0.0
 11
136.360596
 21
493.519524
 31
0.0
210
0.0
220
0.0
230
1.0
  0
LINE
  5
B1
100
AcDbEntity
  8
0
 62
     7
 48
0.279949
100
AcDbLine
 10
136.360596
 20
493.519524
 30
0.0
 11
141.269444
 21
503.584183
 31
0.0
210
0.0
220
0.0
230
1.0
  0
LINE
  5
B2
100
AcDbEntity
  8
0
 62
     7
 48
0.202279
100
AcDbLine
 10
141.269444
 20
503.584183
 30
0.0
 11
149.360596
 21
503.584183
 31
0.0
210
0.0
220
0.0
230
1.0
  0
LINE
  5
B3
100
AcDbEntity
  8
0
 62
     7
 48
0.025
100
AcDbLine
 10
167.360596
 20
566.584183
 30
0.0
 11
167.360596
 21
567.584183
 31
0.0
210
0.0
220
0.0
230
1.0
  0
LINE
  5
B4
100
AcDbEntity
  8
0
 62
     7
 48
0.0125
100
AcDbLine
 10
158.060596
 20
487.084183
 30
0.0
 11
158.060596
 21
487.584183
 31
0.0
210
0.0
220
0.0
230
1.0
  0
LINE
  5
B5
100
AcDbEntity
  8
0
 62
     7
 48
0.075
100
AcDbLine
 10
167.360596
 20
567.584183
 30
0.0
 11
167.360596
 21
570.584183
 31
0.0
210
0.0
220
0.0
230
1.0
  0
LINE
  5
B6
100
AcDbEntity
  8
0
 62
     7
 48
0.475
100
AcDbLine
 10
161.360596
 20
547.584183
 30
0.0
 11
161.360596
 21
566.584183
 31
0.0
210
0.0
220
0.0
230
1.0
  0
LINE
  5
B7
100
AcDbEntity
  8
0
 62
     7
100
AcDbLine
 10
161.360596
 20
488.584183
 30
0.0
 11
161.360596
 21
541.584183
 31
0.0
210
0.0
220
0.0
230
1.0
  0
LINE
  5
B8
100
AcDbEntity
  8
0
 62
     7
 48
0.0875
100
AcDbLine
 10
161.360596
 20
472.584183
 30
0.0
 11
161.360596
 21
476.084183
 31
0.0
210
0.0
220
0.0
230
1.0
  0
LINE
  5
B9
100
AcDbEntity
  8
0
 62
     7
 48
0.3
100
AcDbLine
 10
149.360596
 20
472.584183
 30
0.0
 11
161.360596
 21
472.584183
 31
0.0
210
0.0
220
0.0
230
1.0
  0
LINE
  5
BA
100
AcDbEntity
  8
0
 62
     7
 48
0.325
100
AcDbLine
 10
136.360596
 20
477.084183
 30
0.0
 11
149.360596
 21
477.084183
 31
0.0
210
0.0
220
0.0
230
1.0
  0
LINE
  5
BB
100
AcDbEntity
  8
0
 62
     7
 48
0.275
100
AcDbLine
 10
149.360596
 20
477.084183
 30
0.0
 11
160.360596
 21
477.084183
 31
0.0
210
0.0
220
0.0
230
1.0
  0
LINE
  5
BC
100
AcDbEntity
  8
0
 62
     7
 48
0.2625
100
AcDbLine
 10
136.360596
 20
477.084183
 30
0.0
 11
136.360596
 21
487.584183
 31
0.0
210
0.0
220
0.0
230
1.0
  0
LINE
  5
BD
100
AcDbEntity
  8
0
 62
     7
 48
0.325
100
AcDbLine
 10
136.360596
 20
487.584183
 30
0.0
 11
149.360596
 21
487.584183
 31
0.0
210
0.0
220
0.0
230
1.0
  0
LINE
  5
BE
100
AcDbEntity
  8
0
 62
     7
 48
0.275
100
AcDbLine
 10
149.360596
 20
487.584183
 30
0.0
 11
160.360596
 21
487.584183
 31
0.0
210
0.0
220
0.0
230
1.0
  0
LINE
  5
BF
100
AcDbEntity
  8
0
 62
     7
 48
0.025
100
AcDbLine
 10
160.360596
 20
476.084183
 30
0.0
 11
160.360596
 21
477.084183
 31
0.0
210
0.0
220
0.0
230
1.0
  0
LINE
  5
C0
100
AcDbEntity
  8
0
 62
     7
 48
0.025
100
AcDbLine
 10
160.360596
 20
487.584183
 30
0.0
 11
160.360596
 21
488.584183
 31
0.0
210
0.0
220
0.0
230
1.0
  0
LINE
  5
C1
100
AcDbEntity
  8
0
 62
     7
 48
0.025
100
AcDbLine
 10
160.360596
 20
476.084183
 30
0.0
 11
161.360596
 21
476.084183
 31
0.0
210
0.0
220
0.0
230
1.0
  0
LINE
  5
C2
100
AcDbEntity
  8
0
 62
     7
 48
0.025
100
AcDbLine
 10
160.360596
 20
488.584183
 30
0.0
 11
161.360596
 21
488.584183
 31
0.0
210
0.0
220
0.0
230
1.0
  0
LINE
  5
C3
100
AcDbEntity
  8
0
 62
     7
 48
0.2625
100
AcDbLine
 10
156.360596
 20
477.084183
 30
0.0
 11
156.360596
 21
487.584183
 31
0.0
210
0.0
220
0.0
230
1.0
  0
LINE
  5
C4
100
AcDbEntity
  8
0
 62
     7
 48
0.25
100
AcDbLine
 10
158.060596
 20
477.084183
 30
0.0
 11
158.060596
 21
487.084183
 31
0.0
210
0.0
220
0.0
230
1.0
  0
LINE
  5
C5
100
AcDbEntity
  8
0
 62
     7
 48
0.03
100
AcDbLine
 10
156.860596
 20
487.084183
 30
0.0
 11
158.060596
 21
487.084183
 31
0.0
210
0.0
220
0.0
230
1.0
  0
LINE
  5
C6
100
AcDbEntity
  8
0
 62
     7
 48
0.0125
100
AcDbLine
 10
156.860596
 20
487.084183
 30
0.0
 11
156.860596
 21
487.584183
 31
0.0
210
0.0
220
0.0
230
1.0
  0
LINE
  5
C7
100
AcDbEntity
  8
0
 62
     7
 48
0.01743
100
AcDbLine
 10
161.360596
 20
524.084183
 30
0.0
 11
162.057793
 21
524.084183
 31
0.0
210
0.0
220
0.0
230
1.0
  0
LINE
  5
C8
100
AcDbEntity
  8
0
 62
     7
 48
0.15
100
AcDbLine
 10
161.360596
 20
541.584183
 30
0.0
 11
161.360596
 21
547.584183
 31
0.0
210
0.0
220
0.0
230
1.0
  0
LINE
  5
C9
100
AcDbEntity
  8
0
 62
     7
 48
0.01743
100
AcDbLine
 10
161.360596
 20
546.384186
 30
0.0
 11
162.057793
 21
546.384186
 31
0.0
210
0.0
220
0.0
230
1.0
  0
LINE
  5
CA
100
AcDbEntity
  8
0
 62
     7
100
AcDbLine
 10
103.060596
 20
497.834183
 30
0.0
 11
103.060596
 21
539.084183
 31
0.0
210
0.0
220
0.0
230
1.0
  0
LINE
  5
CB
100
AcDbEntity
  8
0
 62
     7
100
AcDbLine
 10
99.360596
 20
497.834183
 30
0.0
 11
99.360596
 21
539.084183
 31
0.0
210
0.0
220
0.0
230
1.0
  0
LINE
  5
CC
100
AcDbEntity
  8
0
 62
     7
 48
0.0925
100
AcDbLine
 10
99.360596
 20
497.834183
 30
0.0
 11
103.060596
 21
497.834183
 31
0.0
210
0.0
220
0.0
230
1.0
  0
LINE
  5
CD
100
AcDbEntity
  8
0
 62
     7
100
AcDbLine
 10
99.360596
 20
539.084183
 30
0.0
 11
99.360596
 21
572.584183
 31
0.0
210
0.0
220
0.0
230
1.0
  0
LINE
  5
CE
100
AcDbEntity
  8
0
 62
     7
 48
0.12493
100
AcDbLine
 10
161.360596
 20
446.584183
 30
0.0
 11
166.357796
 21
446.584183
 31
0.0
210
0.0
220
0.0
230
1.0
  0
LINE
  5
CF
100
AcDbEntity
  8
0
 62
     7
 48
0.12493
100
AcDbLine
 10
161.360596
 20
548.584183
 30
0.0
 11
166.357796
 21
548.584183
 31
0.0
210
0.0
220
0.0
230
1.0
  0
LINE
  5
D0
100
AcDbEntity
  8
0
 62
     7
 48
0.1075
100
AcDbLine
 10
162.057793
 20
447.284184
 30
0.0
 11
166.357796
 21
447.284184
 31
0.0
210
0.0
220
0.0
230
1.0
  0
LINE
  5
D1
100
AcDbEntity
  8
0
 62
     7
 48
0.1075
100
AcDbLine
 10
162.057793
 20
547.884186
 30
0.0
 11
166.357796
 21
547.884186
 31
0.0
210
0.0
220
0.0
230
1.0
  0
LINE
  5
D2
100
AcDbEntity
  8
0
 62
     7
 48
0.1
100
AcDbLine
 10
161.360596
 20
566.584183
 30
0.0
 11
165.360596
 21
566.584183
 31
0.0
210
0.0
220
0.0
230
1.0
  0
LINE
  5
D3
100
AcDbEntity
  8
0
 62
     7
 48
0.1
100
AcDbLine
 10
161.360596
 20
428.584183
 30
0.0
 11
165.360596
 21
428.584183
 31
0.0
210
0.0
220
0.0
230
1.0
  0
LINE
  5
D4
100
AcDbEntity
  8
0
 62
     7
 48
0.125
100
AcDbLine
 10
162.057793
 20
534.084183
 30
0.0
 11
162.057793
 21
539.084183
 31
0.0
210
0.0
220
0.0
230
1.0
  0
LINE
  5
D5
100
AcDbEntity
  8
0
 62
     7
 48
0.22
100
AcDbLine
 10
162.057793
 20
539.084183
 30
0.0
 11
162.057793
 21
547.884186
 31
0.0
210
0.0
220
0.0
230
1.0
  0
LINE
  5
D6
100
AcDbEntity
  8
0
 62
     7
100
AcDbLine
 10
162.057793
 20
447.284184
 30
0.0
 11
162.057793
 21
534.084183
 31
0.0
210
0.0
220
0.0
230
1.0
  0
LINE
  5
D7
100
AcDbEntity
  8
0
 62
     3
 48
0.4
100
AcDbLine
 10
166.357796
 20
510.084183
 30
0.0
 11
182.35778
 21
510.084183
 31
0.0
210
0.0
220
0.0
230
1.0
  0
LINE
  5
D8
100
AcDbEntity
  8
0
 62
     7
 48
0.399999
100
AcDbLine
 10
166.357796
 20
465.084183
 30
0.0
 11
182.357765
 21
465.084183
 31
0.0
210
0.0
220
0.0
230
1.0
  0
LINE
  5
D9
100
AcDbEntity
  8
0
 62
     7
 48
0.025
100
AcDbLine
 10
165.360596
 20
566.584183
 30
0.0
 11
166.360596
 21
566.584183
 31
0.0
210
0.0
220
0.0
230
1.0
  0
LINE
  5
DA
100
AcDbEntity
  8
0
 62
     7
 48
0.025
100
AcDbLine
 10
165.360596
 20
428.584183
 30
0.0
 11
166.360596
 21
428.584183
 31
0.0
210
0.0
220
0.0
230
1.0
  0
LINE
  5
DB
100
AcDbEntity
  8
0
 62
     7
 48
0.3125
100
AcDbLine
 10
161.357792
 20
476.084183
 30
0.0
 11
161.357792
 21
488.584183
 31
0.0
210
0.0
220
0.0
230
1.0
  0
LINE
  5
DC
100
AcDbEntity
  8
0
 62
     7
 48
0.0175
100
AcDbLine
 10
160.357792
 20
471.884186
 30
0.0
 11
160.357792
 21
472.584183
 31
0.0
210
0.0
220
0.0
230
1.0
  0
LINE
  5
DD
100
AcDbEntity
  8
0
 62
     7
 48
0.0175
100
AcDbLine
 10
168.657791
 20
547.884186
 30
0.0
 11
168.657791
 21
548.584183
 31
0.0
210
0.0
220
0.0
230
1.0
  0
LINE
  5
DE
100
AcDbEntity
  8
0
 62
     7
 48
0.0575
100
AcDbLine
 10
166.357796
 20
548.584183
 30
0.0
 11
168.657791
 21
548.584183
 31
0.0
210
0.0
220
0.0
230
1.0
  0
LINE
  5
DF
100
AcDbEntity
  8
0
 62
     7
 48
0.0175
100
AcDbLine
 10
168.657791
 20
446.584183
 30
0.0
 11
168.657791
 21
447.284184
 31
0.0
210
0.0
220
0.0
230
1.0
  0
LINE
  5
E0
100
AcDbEntity
  8
0
 62
     7
 48
0.0575
100
AcDbLine
 10
166.357796
 20
446.584183
 30
0.0
 11
168.657791
 21
446.584183
 31
0.0
210
0.0
220
0.0
230
1.0
  0
LINE
  5
E1
100
AcDbEntity
  8
0
 62
     7
 48
0.45
100
AcDbLine
 10
167.360596
 20
428.584183
 30
0.0
 11
167.360596
 21
446.584183
 31
0.0
210
0.0
220
0.0
230
1.0
  0
LINE
  5
E2
100
AcDbEntity
  8
0
 62
     7
 48
0.025
100
AcDbLine
 10
166.360596
 20
428.584183
 30
0.0
 11
167.360596
 21
428.584183
 31
0.0
210
0.0
220
0.0
230
1.0
  0
LINE
  5
E3
100
AcDbEntity
  8
0
 62
     7
 48
0.45
100
AcDbLine
 10
167.360596
 20
548.584183
 30
0.0
 11
167.360596
 21
566.584183
 31
0.0
210
0.0
220
0.0
230
1.0
  0
LINE
  5
E4
100
AcDbEntity
  8
0
 62
     7
 48
0.025
100
AcDbLine
 10
166.360596
 20
566.584183
 30
0.0
 11
167.360596
 21
566.584183
 31
0.0
210
0.0
220
0.0
230
1.0
  0
LINE
  5
E5
100
AcDbEntity
  8
0
 62
     7
 48
0.07487
100
AcDbLine
 10
166.357796
 20
547.884186
 30
0.0
 11
169.352577
 21
547.884186
 31
0.0
210
0.0
220
0.0
230
1.0
  0
LINE
  5
E6
100
AcDbEntity
  8
0
 62
     7
 48
0.010611
100
AcDbLine
 10
168.927078
 20
510.084183
 30
0.0
 11
169.351532
 21
510.084183
 31
0.0
210
0.0
220
0.0
230
1.0
  0
LINE
  5
E7
100
AcDbEntity
  8
0
 62
     7
 48
0.074739
100
AcDbLine
 10
166.357796
 20
447.284184
 30
0.0
 11
169.347359
 21
447.284184
 31
0.0
210
0.0
220
0.0
230
1.0
  0
LINE
  5
E8
100
AcDbEntity
  8
0
 62
     7
 48
0.010751
100
AcDbLine
 10
168.927765
 20
465.084183
 30
0.0
 11
169.357796
 21
465.084183
 31
0.0
210
0.0
220
0.0
230
1.0
  0
LINE
  5
E9
100
AcDbEntity
  8
0
 62
     7
 48
0.00013
100
AcDbLine
 10
169.352577
 20
547.884186
 30
0.0
 11
169.357796
 21
547.884186
 31
0.0
210
0.0
220
0.0
230
1.0
  0
LINE
  5
EA
100
AcDbEntity
  8
0
 62
     7
100
AcDbLine
 10
169.357796
 20
510.084183
 30
0.0
 11
169.357796
 21
547.884186
 31
0.0
210
0.0
220
0.0
230
1.0
  0
LINE
  5
EB
100
AcDbEntity
  8
0
 62
     7
 48
0.445
100
AcDbLine
 10
169.347359
 20
447.284184
 30
0.0
 11
169.347359
 21
465.084183
 31
0.0
210
0.0
220
0.0
230
1.0
  0
LINE
  5
EC
100
AcDbEntity
  8
0
 62
     7
 48
0.000261
100
AcDbLine
 10
169.347359
 20
447.284184
 30
0.0
 11
169.357796
 21
447.284184
 31
0.0
210
0.0
220
0.0
230
1.0
  0
LINE
  5
ED
100
AcDbEntity
  8
0
 62
     7
 48
0.445
100
AcDbLine
 10
169.357796
 20
447.284184
 30
0.0
 11
169.357796
 21
465.084183
 31
0.0
210
0.0
220
0.0
230
1.0
  0
LINE
  5
EE
100
AcDbEntity
  8
0
 62
     7
 48
0.01743
100
AcDbLine
 10
161.360596
 20
547.084183
 30
0.0
 11
162.057793
 21
547.084183
 31
0.0
210
0.0
220
0.0
230
1.0
  0
LINE
  5
EF
100
AcDbEntity
  8
0
 62
     7
 48
0.01743
100
AcDbLine
 10
161.360596
 20
524.084183
 30
0.0
 11
162.057793
 21
524.084183
 31
0.0
210
0.0
220
0.0
230
1.0
  0
LINE
  5
F0
100
AcDbEntity
  8
0
 62
     7
 48
0.01743
100
AcDbLine
 10
161.360596
 20
524.084183
 30
0.0
 11
162.057793
 21
524.084183
 31
0.0
210
0.0
220
0.0
230
1.0
  0
LINE
  5
F1
100
AcDbEntity
  8
0
 62
     7
 48
0.01743
100
AcDbLine
 10
161.360596
 20
542.78418
 30
0.0
 11
162.057793
 21
542.78418
 31
0.0
210
0.0
220
0.0
230
1.0
  0
LINE
  5
F2
100
AcDbEntity
  8
0
 62
     7
 48
0.2
100
AcDbLine
 10
158.360596
 20
422.584183
 30
0.0
 11
166.360596
 21
422.584183
 31
0.0
210
0.0
220
0.0
230
1.0
  0
LINE
  5
F3
100
AcDbEntity
  8
0
 62
     7
 48
0.075
100
AcDbLine
 10
158.360596
 20
428.584183
 30
0.0
 11
161.360596
 21
428.584183
 31
0.0
210
0.0
220
0.0
230
1.0
  0
LINE
  5
F4
100
AcDbEntity
  8
0
 62
     7
 48
0.075
100
AcDbLine
 10
158.360596
 20
427.584183
 30
0.0
 11
161.360596
 21
427.584183
 31
0.0
210
0.0
220
0.0
230
1.0
  0
LINE
  5
F5
100
AcDbEntity
  8
0
 62
     7
 48
0.075
100
AcDbLine
 10
167.360596
 20
424.584183
 30
0.0
 11
167.360596
 21
427.584183
 31
0.0
210
0.0
220
0.0
230
1.0
  0
LINE
  5
F6
100
AcDbEntity
  8
0
 62
     7
 48
0.2
100
AcDbLine
 10
158.360596
 20
424.584183
 30
0.0
 11
166.360596
 21
424.584183
 31
0.0
210
0.0
220
0.0
230
1.0
  0
LINE
  5
F7
100
AcDbEntity
  8
0
 62
     7
 48
0.025
100
AcDbLine
 10
167.360596
 20
427.584183
 30
0.0
 11
167.360596
 21
428.584183
 31
0.0
210
0.0
220
0.0
230
1.0
  0
LINE
  5
F8
100
AcDbEntity
  8
0
 62
     7
100
AcDbLine
 10
161.360596
 20
428.584183
 30
0.0
 11
161.360596
 21
452.584183
 31
0.0
210
0.0
220
0.0
230
1.0
  0
LINE
  5
F9
100
AcDbEntity
  8
0
 62
     7
 48
0.025
100
AcDbLine
 10
161.360596
 20
427.584183
 30
0.0
 11
161.360596
 21
428.584183
 31
0.0
210
0.0
220
0.0
230
1.0
  0
ARC
  5
FA
100
AcDbEntity
  8
0
 62
     7
100
AcDbCircle
 10
166.360596
 20
423.584183
 30
0.0
 40
1.0
210
0.0
220
0.0
230
1.0
100
AcDbArc
 50
270.000001
 51
360.0
  0
LINE
  5
FB
100
AcDbEntity
  8
0
 62
     7
 48
0.025
100
AcDbLine
 10
167.360596
 20
423.584183
 30
0.0
 11
167.360596
 21
424.584183
 31
0.0
210
0.0
220
0.0
230
1.0
  0
LINE
  5
FC
100
AcDbEntity
  8
0
 62
     7
 48
0.025
100
AcDbLine
 10
166.360596
 20
424.584183
 30
0.0
 11
167.360596
 21
424.584183
 31
0.0
210
0.0
220
0.0
230
1.0
  0
LINE
  5
FD
100
AcDbEntity
  8
0
 62
     7
 48
0.4625
100
AcDbLine
 10
161.360596
 20
452.584183
 30
0.0
 11
161.360596
 21
471.084183
 31
0.0
210
0.0
220
0.0
230
1.0
  0
LINE
  5
FE
100
AcDbEntity
  8
0
 62
     7
100
AcDbLine
 10
149.360596
 20
428.584183
 30
0.0
 11
149.360596
 21
471.084183
 31
0.0
210
0.0
220
0.0
230
1.0
  0
LINE
  5
FF
100
AcDbEntity
  8
0
 62
     7
 48
0.02
100
AcDbLine
 10
149.360596
 20
471.084183
 30
0.0
 11
149.360596
 21
471.884186
 31
0.0
210
0.0
220
0.0
230
1.0
  0
LINE
  5
100
100
AcDbEntity
  8
0
 62
     7
 48
0.275
100
AcDbLine
 10
149.360596
 20
471.884186
 30
0.0
 11
160.360596
 21
471.884186
 31
0.0
210
0.0
220
0.0
230
1.0
  0
LINE
  5
101
100
AcDbEntity
  8
0
 62
     7
 48
0.0175
100
AcDbLine
 10
160.357792
 20
471.884186
 30
0.0
 11
160.357792
 21
472.584183
 31
0.0
210
0.0
220
0.0
230
1.0
  0
LINE
  5
102
100
AcDbEntity
  8
0
 62
     7
 48
0.0175
100
AcDbLine
 10
149.360596
 20
471.884186
 30
0.0
 11
149.360596
 21
472.584183
 31
0.0
210
0.0
220
0.0
230
1.0
  0
LINE
  5
103
100
AcDbEntity
  8
0
 62
     7
 48
0.02
100
AcDbLine
 10
161.360596
 20
471.084183
 30
0.0
 11
161.360596
 21
471.884186
 31
0.0
210
0.0
220
0.0
230
1.0
  0
LINE
  5
104
100
AcDbEntity
  8
0
 62
     7
 48
0.025
100
AcDbLine
 10
160.360596
 20
471.884186
 30
0.0
 11
161.360596
 21
471.884186
 31
0.0
210
0.0
220
0.0
230
1.0
  0
LINE
  5
105
100
AcDbEntity
  8
0
  6
DASHDOT
 62
     7
100
AcDbLine
 10
99.360597
 20
413.583386
 30
0.0
 11
99.360597
 21
582.766754
 31
0.0
210
0.0
220
0.0
230
1.0
  0
LINE
  5
106
100
AcDbEntity
  8
0
 62
     7
 48
0.1
100
AcDbLine
 10
161.360596
 20
566.584183
 30
0.0
 11
165.360596
 21
566.584183
 31
0.0
210
0.0
220
0.0
230
1.0
  0
LINE
  5
107
100
AcDbEntity
  8
0
 62
     7
 48
0.025
100
AcDbLine
 10
165.360596
 20
566.584183
 30
0.0
 11
166.360596
 21
566.584183
 31
0.0
210
0.0
220
0.0
230
1.0
  0
LINE
  5
108
100
AcDbEntity
  8
0
 62
     7
 48
0.025
100
AcDbLine
 10
166.360596
 20
566.584183
 30
0.0
 11
167.360596
 21
566.584183
 31
0.0
210
0.0
220
0.0
230
1.0
  0
LINE
  5
109
100
AcDbEntity
  8
0
 62
     7
100
AcDbLine
 10
99.360596
 20
572.584183
 30
0.0
 11
166.360596
 21
572.584183
 31
0.0
210
0.0
220
0.0
230
1.0
  0
LINE
  5
10A
100
AcDbEntity
  8
0
 62
     7
100
AcDbLine
 10
99.360596
 20
566.584183
 30
0.0
 11
161.360596
 21
566.584183
 31
0.0
210
0.0
220
0.0
230
1.0
  0
LINE
  5
10B
100
AcDbEntity
  8
0
 62
     7
100
AcDbLine
 10
99.360596
 20
567.584183
 30
0.0
 11
161.360596
 21
567.584183
 31
0.0
210
0.0
220
0.0
230
1.0
  0
LINE
  5
10C
100
AcDbEntity
  8
0
 62
     7
 48
0.075
100
AcDbLine
 10
167.360596
 20
570.584183
 30
0.0
 11
167.360596
 21
567.584183
 31
0.0
210
0.0
220
0.0
230
1.0
  0
LINE
  5
10D
100
AcDbEntity
  8
0
 62
     7
100
AcDbLine
 10
99.360596
 20
570.584183
 30
0.0
 11
166.360596
 21
570.584183
 31
0.0
210
0.0
220
0.0
230
1.0
  0
LINE
  5
10E
100
AcDbEntity
  8
0
 62
     7
 48
0.025
100
AcDbLine
 10
167.360596
 20
567.584183
 30
0.0
 11
167.360596
 21
566.584183
 31
0.0
210
0.0
220
0.0
230
1.0
  0
LINE
  5
10F
100
AcDbEntity
  8
0
 62
     7
 48
0.025
100
AcDbLine
 10
161.360596
 20
567.584183
 30
0.0
 11
161.360596
 21
566.584183
 31
0.0
210
0.0
220
0.0
230
1.0
  0
ARC
  5
110
100
AcDbEntity
  8
0
 62
     7
100
AcDbCircle
 10
166.360596
 20
571.584183
 30
0.0
 40
1.0
210
0.0
220
0.0
230
1.0
100
AcDbArc
 50
0.0
 51
90.000003
  0
LINE
  5
111
100
AcDbEntity
  8
0
 62
     7
 48
0.025
100
AcDbLine
 10
167.360596
 20
571.584183
 30
0.0
 11
167.360596
 21
570.584183
 31
0.0
210
0.0
220
0.0
230
1.0
  0
LINE
  5
112
100
AcDbEntity
  8
0
 62
     7
 48
0.025
100
AcDbLine
 10
166.360596
 20
570.584183
 30
0.0
 11
167.360596
 21
570.584183
 31
0.0
210
0.0
220
0.0
230
1.0
  0
LINE
  5
113
100
AcDbEntity
  8
0
 62
     7
 48
0.2
100
AcDbLine
 10
158.360596
 20
422.584183
 30
0.0
 11
166.360596
 21
422.584183
 31
0.0
210
0.0
220
0.0
230
1.0
  0
LINE
  5
114
100
AcDbEntity
  8
0
 62
     7
 48
0.025
100
AcDbLine
 10
167.360596
 20
428.584183
 30
0.0
 11
167.360596
 21
427.584183
 31
0.0
210
0.0
220
0.0
230
1.0
  0
LINE
  5
115
100
AcDbEntity
  8
0
 62
     7
 48
0.075
100
AcDbLine
 10
167.360596
 20
427.584183
 30
0.0
 11
167.360596
 21
424.584183
 31
0.0
210
0.0
220
0.0
230
1.0
  0
LINE
  5
116
100
AcDbEntity
  8
0
 62
     7
 48
0.1
100
AcDbLine
 10
161.360596
 20
428.584183
 30
0.0
 11
165.360596
 21
428.584183
 31
0.0
210
0.0
220
0.0
230
1.0
  0
LINE
  5
117
100
AcDbEntity
  8
0
 62
     7
 48
0.025
100
AcDbLine
 10
165.360596
 20
428.584183
 30
0.0
 11
166.360596
 21
428.584183
 31
0.0
210
0.0
220
0.0
230
1.0
  0
LINE
  5
118
100
AcDbEntity
  8
0
 62
     7
 48
0.025
100
AcDbLine
 10
166.360596
 20
428.584183
 30
0.0
 11
167.360596
 21
428.584183
 31
0.0
210
0.0
220
0.0
230
1.0
  0
LINE
  5
119
100
AcDbEntity
  8
0
 62
     7
 48
0.1
100
AcDbLine
 10
161.360596
 20
428.584183
 30
0.0
 11
165.360596
 21
428.584183
 31
0.0
210
0.0
220
0.0
230
1.0
  0
LINE
  5
11A
100
AcDbEntity
  8
0
 62
     7
 48
0.025
100
AcDbLine
 10
165.360596
 20
428.584183
 30
0.0
 11
166.360596
 21
428.584183
 31
0.0
210
0.0
220
0.0
230
1.0
  0
LINE
  5
11B
100
AcDbEntity
  8
0
 62
     7
 48
0.025
100
AcDbLine
 10
166.360596
 20
428.584183
 30
0.0
 11
167.360596
 21
428.584183
 31
0.0
210
0.0
220
0.0
230
1.0
  0
LINE
  5
11C
100
AcDbEntity
  8
0
 62
     7
100
AcDbLine
 10
99.360596
 20
422.584183
 30
0.0
 11
166.360596
 21
422.584183
 31
0.0
210
0.0
220
0.0
230
1.0
  0
LINE
  5
11D
100
AcDbEntity
  8
0
 62
     7
100
AcDbLine
 10
99.360596
 20
428.584183
 30
0.0
 11
161.360596
 21
428.584183
 31
0.0
210
0.0
220
0.0
230
1.0
  0
LINE
  5
11E
100
AcDbEntity
  8
0
 62
     7
100
AcDbLine
 10
99.360596
 20
427.584183
 30
0.0
 11
161.360596
 21
427.584183
 31
0.0
210
0.0
220
0.0
230
1.0
  0
LINE
  5
11F
100
AcDbEntity
  8
0
 62
     7
 48
0.075
100
AcDbLine
 10
167.360596
 20
424.584183
 30
0.0
 11
167.360596
 21
427.584183
 31
0.0
210
0.0
220
0.0
230
1.0
  0
LINE
  5
120
100
AcDbEntity
  8
0
 62
     7
100
AcDbLine
 10
99.360596
 20
424.584183
 30
0.0
 11
166.360596
 21
424.584183
 31
0.0
210
0.0
220
0.0
230
1.0
  0
LINE
  5
121
100
AcDbEntity
  8
0
 62
     7
 48
0.025
100
AcDbLine
 10
167.360596
 20
427.584183
 30
0.0
 11
167.360596
 21
428.584183
 31
0.0
210
0.0
220
0.0
230
1.0
  0
LINE
  5
122
100
AcDbEntity
  8
0
 62
     7
 48
0.025
100
AcDbLine
 10
161.360596
 20
427.584183
 30
0.0
 11
161.360596
 21
428.584183
 31
0.0
210
0.0
220
0.0
230
1.0
  0
ARC
  5
123
100
AcDbEntity
  8
0
 62
     7
100
AcDbCircle
 10
166.360596
 20
423.584183
 30
0.0
 40
1.0
210
0.0
220
0.0
230
1.0
100
AcDbArc
 50
270.000001
 51
360.0
  0
LINE
  5
124
100
AcDbEntity
  8
0
 62
     7
 48
0.025
100
AcDbLine
 10
167.360596
 20
423.584183
 30
0.0
 11
167.360596
 21
424.584183
 31
0.0
210
0.0
220
0.0
230
1.0
  0
LINE
  5
125
100
AcDbEntity
  8
0
 62
     7
 48
0.025
100
AcDbLine
 10
166.360596
 20
424.584183
 30
0.0
 11
167.360596
 21
424.584183
 31
0.0
210
0.0
220
0.0
230
1.0
  0
LINE
  5
126
100
AcDbEntity
  8
0
 62
     7
 48
0.1
100
AcDbLine
 10
103.360596
 20
539.084183
 30
0.0
 11
99.360596
 21
539.084183
 31
0.0
210
0.0
220
0.0
230
1.0
  0
LINE
  5
127
100
AcDbEntity
  8
0
  6
DASHSPACE
 62
     7
 48
0.05
100
AcDbLine
 10
187.860596
 20
525.584175
 30
0.0
 11
189.860596
 21
525.584175
 31
0.0
210
0.0
220
0.0
230
1.0
  0
LINE
  5
128
100
AcDbEntity
  8
0
  6
DASHSPACE
 62
     7
 48
0.05
100
AcDbLine
 10
187.860565
 20
457.584175
 30
0.0
 11
189.860565
 21
457.584175
 31
0.0
210
0.0
220
0.0
230
1.0
  0
LINE
  5
129
100
AcDbEntity
  8
0
  6
DASHSPACE
 62
     7
100
AcDbLine
 10
187.860603
 20
548.064774
 30
0.0
 11
187.86055
 21
435.908947
 31
0.0
210
0.0
220
0.0
230
1.0
  0
LINE
  5
12A
100
AcDbEntity
  8
0
  6
DASHSPACE
 62
     7
100
AcDbLine
 10
189.86055
 20
436.664204
 30
0.0
 11
189.860603
 21
547.687149
 31
0.0
210
0.0
220
0.0
230
1.0
  0
POLYLINE
  5
12B
100
AcDbEntity
  8
0
 62
     7
100
AcDb2dPolyline
 66
     1
 10
0.0
 20
0.0
 30
0.0
 71
     5
  0
VERTEX
  5
12C
100
AcDbEntity
  8
0
100
AcDbVertex
100
AcDb2dVertex
 10
184.467819
 20
434.62775
 30
0.0
  0
VERTEX
  5
12D
100
AcDbEntity
  8
0
100
AcDbVertex
100
AcDb2dVertex
 10
190.266014
 20
436.817314
 30
0.0
  0
VERTEX
  5
12E
100
AcDbEntity
  8
0
100
AcDbVertex
100
AcDb2dVertex
 10
190.494972
 20
439.04163
 30
0.0
  0
VERTEX
  5
12F
100
AcDbEntity
  8
0
100
AcDbVertex
100
AcDb2dVertex
 10
192.843605
 20
435.652836
 30
0.0
  0
VERTEX
  5
130
100
AcDbEntity
  8
0
100
AcDbVertex
100
AcDb2dVertex
 10
193.072563
 20
437.877151
 30
0.0
  0
SEQEND
  5
131
100
AcDbEntity
  8
0
  0
POLYLINE
  5
132
100
AcDbEntity
  8
0
 62
     7
100
AcDb2dPolyline
 66
     1
 10
0.0
 20
0.0
 30
0.0
 71
     5
  0
VERTEX
  5
133
100
AcDbEntity
  8
0
100
AcDbVertex
100
AcDb2dVertex
 10
191.983002
 20
547.286407
 30
0.0
  0
VERTEX
  5
134
100
AcDbEntity
  8
0
100
AcDbVertex
100
AcDb2dVertex
 10
187.651115
 20
548.104324
 30
0.0
  0
VERTEX
  5
135
100
AcDbEntity
  8
0
100
AcDbVertex
100
AcDb2dVertex
 10
186.297409
 20
546.324585
 30
0.0
  0
VERTEX
  5
136
100
AcDbEntity
  8
0
100
AcDbVertex
100
AcDb2dVertex
 10
186.056908
 20
550.440659
 30
0.0
  0
VERTEX
  5
137
100
AcDbEntity
  8
0
100
AcDbVertex
100
AcDb2dVertex
 10
184.703201
 20
548.660919
 30
0.0
  0
SEQEND
  5
138
100
AcDbEntity
  8
0
  0
ARC
  5
139
100
AcDbEntity
  8
0
  6
DASHDOT
 62
     7
100
AcDbCircle
 10
138.651955
 20
490.002724
 30
0.0
 40
64.0
210
0.0
220
0.0
230
1.0
100
AcDbArc
 50
346.299088
 51
16.65086
  0
LINE
  5
13A
100
AcDbEntity
  8
0
 62
     7
 48
0.125
100
AcDbLine
 10
177.360588
 20
508.484177
 30
0.0
 11
182.360588
 21
508.484177
 31
0.0
210
0.0
220
0.0
230
1.0
  0
LINE
  5
13B
100
AcDbEntity
  8
0
 62
     7
 48
0.0025
100
AcDbLine
 10
180.860565
 20
466.584175
 30
0.0
 11
180.860565
 21
466.684181
 31
0.0
210
0.0
220
0.0
230
1.0
  0
LINE
  5
13C
100
AcDbEntity
  8
0
 62
     7
 48
0.125
100
AcDbLine
 10
177.360565
 20
466.684181
 30
0.0
 11
182.360565
 21
466.684174
 31
0.0
210
0.0
220
0.0
230
1.0
  0
LINE
  5
13D
100
AcDbEntity
  8
0
 62
     7
100
AcDbLine
 10
177.360565
 20
466.684181
 30
0.0
 11
177.360588
 21
508.484177
 31
0.0
210
0.0
220
0.0
230
1.0
  0
LINE
  5
13E
100
AcDbEntity
  8
0
 62
     7
 48
0.002887
100
AcDbLine
 10
181.860565
 20
466.684174
 30
0.0
 11
181.802826
 21
466.584175
 31
0.0
210
0.0
220
0.0
230
1.0
  0
LINE
  5
13F
100
AcDbEntity
  8
0
 62
     7
100
AcDbLine
 10
184.360558
 20
453.584175
 30
0.0
 11
184.360596
 21
529.584175
 31
0.0
210
0.0
220
0.0
230
1.0
  0
LINE
  5
140
100
AcDbEntity
  8
0
 62
     7
 48
0.0775
100
AcDbLine
 10
182.360588
 20
511.584175
 30
0.0
 11
182.360588
 21
508.484177
 31
0.0
210
0.0
220
0.0
230
1.0
  0
LINE
  5
141
100
AcDbEntity
  8
0
 62
     7
 48
0.0775
100
AcDbLine
 10
182.360565
 20
466.684174
 30
0.0
 11
182.360565
 21
463.584175
 31
0.0
210
0.0
220
0.0
230
1.0
  0
LINE
  5
142
100
AcDbEntity
  8
0
 62
     7
100
AcDbLine
 10
184.360558
 20
453.584175
 30
0.0
 11
184.360596
 21
529.584175
 31
0.0
210
0.0
220
0.0
230
1.0
  0
ARC
  5
143
100
AcDbEntity
  8
0
 62
     7
100
AcDbCircle
 10
188.610596
 20
528.285133
 30
0.0
 40
0.25
210
0.0
220
0.0
230
1.0
100
AcDbArc
 50
359.999983
 51
59.999974
  0
ARC
  5
144
100
AcDbEntity
  8
0
 62
     7
100
AcDbCircle
 10
188.610565
 20
454.883213
 30
0.0
 40
0.25
210
0.0
220
0.0
230
1.0
100
AcDbArc
 50
299.999967
 51
359.999983
  0
LINE
  5
145
100
AcDbEntity
  8
0
 62
     7
 48
0.054127
100
AcDbLine
 10
186.860558
 20
453.584175
 30
0.0
 11
188.735565
 21
454.666706
 31
0.0
210
0.0
220
0.0
230
1.0
  0
LINE
  5
146
100
AcDbEntity
  8
0
 62
     7
 48
0.054127
100
AcDbLine
 10
186.860596
 20
529.584175
 30
0.0
 11
188.735596
 21
528.50164
 31
0.0
210
0.0
220
0.0
230
1.0
  0
LINE
  5
147
100
AcDbEntity
  8
0
 62
     7
100
AcDbLine
 10
186.860558
 20
453.584175
 30
0.0
 11
186.860596
 21
529.584175
 31
0.0
210
0.0
220
0.0
230
1.0
  0
LINE
  5
148
100
AcDbEntity
  8
0
 62
     7
 48
0.43757
100
AcDbLine
 10
186.860596
 20
529.584175
 30
0.0
 11
169.357796
 21
529.584183
 31
0.0
210
0.0
220
0.0
230
1.0
  0
LINE
  5
149
100
AcDbEntity
  8
0
 62
     7
 48
0.0625
100
AcDbLine
 10
186.860558
 20
453.584175
 30
0.0
 11
184.360558
 21
453.584175
 31
0.0
210
0.0
220
0.0
230
1.0
  0
LINE
  5
14A
100
AcDbEntity
  8
0
 62
     7
 48
0.05696
100
AcDbLine
 10
201.830299
 20
487.854576
 30
0.0
 11
199.56057
 21
487.655998
 31
0.0
210
0.0
220
0.0
230
1.0
  0
LINE
  5
14B
100
AcDbEntity
  8
0
 62
     7
 48
0.146632
100
AcDbLine
 10
202.560577
 20
494.516808
 30
0.0
 11
202.560577
 21
488.651527
 31
0.0
210
0.0
220
0.0
230
1.0
  0
LINE
  5
14C
100
AcDbEntity
  8
0
 62
     7
 48
0.05696
100
AcDbLine
 10
199.56057
 20
495.512337
 30
0.0
 11
201.830307
 21
495.313759
 31
0.0
210
0.0
220
0.0
230
1.0
  0
ARC
  5
14D
100
AcDbEntity
  8
0
 62
     7
100
AcDbCircle
 10
201.760582
 20
494.516808
 30
0.0
 40
0.8
210
0.0
220
0.0
230
1.0
100
AcDbArc
 50
359.999983
 51
84.999976
  0
LINE
  5
14E
100
AcDbEntity
  8
0
 62
     7
 48
0.00306
100
AcDbLine
 10
178.696465
 20
461.461761
 30
0.0
 11
178.696465
 21
461.584179
 31
0.0
210
0.0
220
0.0
230
1.0
  0
LINE
  5
14F
100
AcDbEntity
  8
0
 62
     7
 48
0.00331
100
AcDbLine
 10
178.696465
 20
461.329346
 30
0.0
 11
178.696465
 21
461.461761
 31
0.0
210
0.0
220
0.0
230
1.0
  0
LINE
  5
150
100
AcDbEntity
  8
0
 62
     7
 48
0.003077
100
AcDbLine
 10
182.160568
 20
463.46109
 30
0.0
 11
182.160568
 21
463.584175
 31
0.0
210
0.0
220
0.0
230
1.0
  0
LINE
  5
151
100
AcDbEntity
  8
0
 62
     7
100
AcDbLine
 10
188.860565
 20
454.883213
 30
0.0
 11
188.860596
 21
528.285133
 31
0.0
210
0.0
220
0.0
230
1.0
  0
LINE
  5
152
100
AcDbEntity
  8
0
 62
     7
 48
0.256271
100
AcDbLine
 10
188.860565
 20
454.883213
 30
0.0
 11
188.860565
 21
465.134064
 31
0.0
210
0.0
220
0.0
230
1.0
  0
LINE
  5
153
100
AcDbEntity
  8
0
 62
     7
 48
0.256273
100
AcDbLine
 10
188.860588
 20
518.034233
 30
0.0
 11
188.860596
 21
528.285133
 31
0.0
210
0.0
220
0.0
230
1.0
  0
LINE
  5
154
100
AcDbEntity
  8
0
 62
     7
 48
0.172501
100
AcDbLine
 10
188.860565
 20
518.034172
 30
0.0
 11
195.76059
 21
518.034172
 31
0.0
210
0.0
220
0.0
230
1.0
  0
LINE
  5
155
100
AcDbEntity
  8
0
 62
     7
 48
0.172501
100
AcDbLine
 10
188.860542
 20
465.134174
 30
0.0
 11
195.760567
 21
465.134171
 31
0.0
210
0.0
220
0.0
230
1.0
  0
ARC
  5
156
100
AcDbEntity
  8
0
 62
     7
100
AcDbCircle
 10
195.76059
 20
514.234169
 30
0.0
 40
3.8
210
0.0
220
0.0
230
1.0
100
AcDbArc
 50
359.999983
 51
89.999975
  0
LINE
  5
157
100
AcDbEntity
  8
0
 62
     7
100
AcDbLine
 10
199.56057
 20
480.725182
 30
0.0
 11
199.560585
 21
514.234169
 31
0.0
210
0.0
220
0.0
230
1.0
  0
LINE
  5
158
100
AcDbEntity
  8
0
 62
     7
 48
0.294775
100
AcDbLine
 10
199.560585
 20
502.443161
 30
0.0
 11
199.560585
 21
514.234169
 31
0.0
210
0.0
220
0.0
230
1.0
  0
ARC
  5
159
100
AcDbEntity
  8
0
 62
     7
100
AcDbCircle
 10
195.760567
 20
468.934174
 30
0.0
 40
3.8
210
0.0
220
0.0
230
1.0
100
AcDbArc
 50
269.999973
 51
359.999983
  0
LINE
  5
15A
100
AcDbEntity
  8
0
 62
     7
 48
0.468046
100
AcDbLine
 10
199.56057
 20
468.934166
 30
0.0
 11
199.560577
 21
487.655998
 31
0.0
210
0.0
220
0.0
230
1.0
  0
LINE
  5
15B
100
AcDbEntity
  8
0
 62
     7
 48
0.173271
100
AcDbLine
 10
199.560577
 20
495.512337
 30
0.0
 11
199.560585
 21
502.443161
 31
0.0
210
0.0
220
0.0
230
1.0
  0
LINE
  5
15C
100
AcDbEntity
  8
0
 62
     7
 48
0.294775
100
AcDbLine
 10
199.56057
 20
468.934166
 30
0.0
 11
199.56057
 21
480.725182
 31
0.0
210
0.0
220
0.0
230
1.0
  0
ARC
  5
15D
100
AcDbEntity
  8
0
 62
     7
100
AcDbCircle
 10
201.760574
 20
488.651527
 30
0.0
 40
0.8
210
0.0
220
0.0
230
1.0
100
AcDbArc
 50
274.999972
 51
359.999983
  0
LINE
  5
15E
100
AcDbEntity
  8
0
 62
     7
 48
0.051875
100
AcDbLine
 10
172.160591
 20
521.584183
 30
0.0
 11
174.23558
 21
521.584183
 31
0.0
210
0.0
220
0.0
230
1.0
  0
LINE
  5
15F
100
AcDbEntity
  8
0
 62
     7
 48
0.01125
100
AcDbLine
 10
172.160591
 20
523.584183
 30
0.0
 11
172.61058
 21
523.584183
 31
0.0
210
0.0
220
0.0
230
1.0
  0
LINE
  5
160
100
AcDbEntity
  8
0
 62
     7
 48
0.163397
100
AcDbLine
 10
172.160568
 20
461.584183
 30
0.0
 11
178.696465
 21
461.584179
 31
0.0
210
0.0
220
0.0
230
1.0
  0
LINE
  5
161
100
AcDbEntity
  8
0
 62
     7
 48
0.1
100
AcDbLine
 10
178.696465
 20
461.584179
 30
0.0
 11
182.160568
 21
463.584175
 31
0.0
210
0.0
220
0.0
230
1.0
  0
LINE
  5
162
100
AcDbEntity
  8
0
 62
     7
 48
0.011248
100
AcDbLine
 10
172.160591
 20
523.584183
 30
0.0
 11
172.610504
 21
523.584183
 31
0.0
210
0.0
220
0.0
230
1.0
  0
LINE
  5
163
100
AcDbEntity
  8
0
 62
     7
 48
0.163397
100
AcDbLine
 10
172.160568
 20
461.584183
 30
0.0
 11
178.696465
 21
461.584179
 31
0.0
210
0.0
220
0.0
230
1.0
  0
LINE
  5
164
100
AcDbEntity
  8
0
 62
     7
 48
0.0925
100
AcDbLine
 10
172.160561
 20
459.584183
 30
0.0
 11
175.860565
 21
459.584179
 31
0.0
210
0.0
220
0.0
230
1.0
  0
LINE
  5
165
100
AcDbEntity
  8
0
 62
     7
 48
0.1
100
AcDbLine
 10
178.696465
 20
461.584179
 30
0.0
 11
182.160568
 21
463.584175
 31
0.0
210
0.0
220
0.0
230
1.0
  0
LINE
  5
166
100
AcDbEntity
  8
0
 62
     7
 48
0.075
100
AcDbLine
 10
179.35778
 20
508.584175
 30
0.0
 11
182.35778
 21
508.584175
 31
0.0
210
0.0
220
0.0
230
1.0
  0
LINE
  5
167
100
AcDbEntity
  8
0
 62
     7
 48
0.05
100
AcDbLine
 10
177.35778
 20
508.584183
 30
0.0
 11
179.35778
 21
508.584175
 31
0.0
210
0.0
220
0.0
230
1.0
  0
LINE
  5
168
100
AcDbEntity
  8
0
 62
     7
 48
0.0025
100
AcDbLine
 10
180.657761
 20
466.584175
 30
0.0
 11
180.657761
 21
466.684174
 31
0.0
210
0.0
220
0.0
230
1.0
  0
LINE
  5
169
100
AcDbEntity
  8
0
 62
     7
 48
0.0025
100
AcDbLine
 10
180.657784
 20
508.484177
 30
0.0
 11
180.657784
 21
508.584175
 31
0.0
210
0.0
220
0.0
230
1.0
  0
LINE
  5
16A
100
AcDbEntity
  8
0
 62
     7
 48
0.0375
100
AcDbLine
 10
182.35778
 20
508.584175
 30
0.0
 11
182.35778
 21
510.084175
 31
0.0
210
0.0
220
0.0
230
1.0
  0
LINE
  5
16B
100
AcDbEntity
  8
0
 62
     7
 48
0.075
100
AcDbLine
 10
179.35778
 20
510.084175
 30
0.0
 11
182.35778
 21
510.084175
 31
0.0
210
0.0
220
0.0
230
1.0
  0
LINE
  5
16C
100
AcDbEntity
  8
0
 62
     7
 48
0.05
100
AcDbLine
 10
175.35778
 20
510.084183
 30
0.0
 11
177.35778
 21
510.084183
 31
0.0
210
0.0
220
0.0
230
1.0
  0
LINE
  5
16D
100
AcDbEntity
  8
0
 62
     7
 48
0.05
100
AcDbLine
 10
177.35778
 20
510.084183
 30
0.0
 11
179.35778
 21
510.084175
 31
0.0
210
0.0
220
0.0
230
1.0
  0
LINE
  5
16E
100
AcDbEntity
  8
0
 62
     7
100
AcDbLine
 10
177.357765
 20
466.584183
 30
0.0
 11
177.35778
 21
508.584183
 31
0.0
210
0.0
220
0.0
230
1.0
  0
LINE
  5
16F
100
AcDbEntity
  8
0
 62
     7
 48
0.05
100
AcDbLine
 10
177.357765
 20
466.584183
 30
0.0
 11
179.357765
 21
466.584175
 31
0.0
210
0.0
220
0.0
230
1.0
  0
LINE
  5
170
100
AcDbEntity
  8
0
 62
     7
 48
0.05
100
AcDbLine
 10
177.357765
 20
465.084179
 30
0.0
 11
179.357765
 21
465.084179
 31
0.0
210
0.0
220
0.0
230
1.0
  0
LINE
  5
171
100
AcDbEntity
  8
0
 62
     7
 48
0.05
100
AcDbLine
 10
175.357765
 20
465.084179
 30
0.0
 11
177.357765
 21
465.084179
 31
0.0
210
0.0
220
0.0
230
1.0
  0
LINE
  5
172
100
AcDbEntity
  8
0
 62
     7
 48
0.075
100
AcDbLine
 10
179.357765
 20
466.584175
 30
0.0
 11
182.357765
 21
466.584175
 31
0.0
210
0.0
220
0.0
230
1.0
  0
LINE
  5
173
100
AcDbEntity
  8
0
 62
     7
 48
0.075
100
AcDbLine
 10
179.357765
 20
465.084179
 30
0.0
 11
182.357765
 21
465.084175
 31
0.0
210
0.0
220
0.0
230
1.0
  0
LINE
  5
174
100
AcDbEntity
  8
0
 62
     7
 48
0.0375
100
AcDbLine
 10
182.357765
 20
465.084175
 30
0.0
 11
182.357765
 21
466.584175
 31
0.0
210
0.0
220
0.0
230
1.0
  0
LINE
  5
175
100
AcDbEntity
  8
0
 62
     7
100
AcDbLine
 10
169.360596
 20
527.584183
 30
0.0
 11
182.360588
 21
511.584175
 31
0.0
210
0.0
220
0.0
230
1.0
  0
LINE
  5
176
100
AcDbEntity
  8
0
 62
     7
 48
0.051875
100
AcDbLine
 10
172.160591
 20
521.584183
 30
0.0
 11
174.23558
 21
521.584183
 31
0.0
210
0.0
220
0.0
230
1.0
  0
LINE
  5
177
100
AcDbEntity
  8
0
 62
     7
 48
0.01125
100
AcDbLine
 10
172.160591
 20
523.584183
 30
0.0
 11
172.61058
 21
523.584183
 31
0.0
210
0.0
220
0.0
230
1.0
  0
ARC
  5
178
100
AcDbEntity
  8
0
 62
     7
100
AcDbCircle
 10
172.160591
 20
522.584183
 30
0.0
 40
1.0
210
0.0
220
0.0
230
1.0
100
AcDbArc
 50
179.999978
 51
269.999973
  0
ARC
  5
179
100
AcDbEntity
  8
0
 62
     7
100
AcDbCircle
 10
172.160591
 20
522.584183
 30
0.0
 40
1.0
210
0.0
220
0.0
230
1.0
100
AcDbArc
 50
89.999975
 51
179.999978
  0
ARC
  5
17A
100
AcDbEntity
  8
0
 62
     7
100
AcDbCircle
 10
172.160591
 20
522.584183
 30
0.0
 40
1.0
210
0.0
220
0.0
230
1.0
100
AcDbArc
 50
89.999975
 51
179.999978
  0
LINE
  5
17B
100
AcDbEntity
  8
0
 62
     7
 48
0.011248
100
AcDbLine
 10
172.160591
 20
523.584183
 30
0.0
 11
172.610504
 21
523.584183
 31
0.0
210
0.0
220
0.0
230
1.0
  0
ARC
  5
17C
100
AcDbEntity
  8
0
 62
     7
100
AcDbCircle
 10
172.160561
 20
460.584183
 30
0.0
 40
1.0
210
0.0
220
0.0
230
1.0
100
AcDbArc
 50
89.999975
 51
179.999978
  0
ARC
  5
17D
100
AcDbEntity
  8
0
 62
     7
100
AcDbCircle
 10
172.160561
 20
460.584183
 30
0.0
 40
1.0
210
0.0
220
0.0
230
1.0
100
AcDbArc
 50
89.999975
 51
179.999978
  0
ARC
  5
17E
100
AcDbEntity
  8
0
 62
     7
100
AcDbCircle
 10
172.160561
 20
460.584183
 30
0.0
 40
1.0
210
0.0
220
0.0
230
1.0
100
AcDbArc
 50
179.999978
 51
269.999973
  0
LINE
  5
17F
100
AcDbEntity
  8
0
 62
     7
 48
0.146772
100
AcDbLine
 10
177.360565
 20
460.507256
 30
0.0
 11
182.360565
 21
463.584175
 31
0.0
210
0.0
220
0.0
230
1.0
  0
LINE
  5
180
100
AcDbEntity
  8
0
 62
     7
 48
0.173077
100
AcDbLine
 10
177.360558
 20
453.584179
 30
0.0
 11
177.360565
 21
460.507256
 31
0.0
210
0.0
220
0.0
230
1.0
  0
LINE
  5
181
100
AcDbEntity
  8
0
 62
     7
 48
0.003077
100
AcDbLine
 10
182.160568
 20
463.46109
 30
0.0
 11
182.160568
 21
463.584175
 31
0.0
210
0.0
220
0.0
230
1.0
  0
LINE
  5
182
100
AcDbEntity
  8
0
 62
     7
 48
0.00306
100
AcDbLine
 10
178.696465
 20
461.461761
 30
0.0
 11
178.696465
 21
461.584179
 31
0.0
210
0.0
220
0.0
230
1.0
  0
LINE
  5
183
100
AcDbEntity
  8
0
 62
     7
 48
0.00331
100
AcDbLine
 10
178.696465
 20
461.329346
 30
0.0
 11
178.696465
 21
461.461761
 31
0.0
210
0.0
220
0.0
230
1.0
  0
LINE
  5
184
100
AcDbEntity
  8
0
 62
     7
 48
0.1
100
AcDbLine
 10
178.696465
 20
461.584179
 30
0.0
 11
182.160568
 21
463.584175
 31
0.0
210
0.0
220
0.0
230
1.0
  0
LINE
  5
185
100
AcDbEntity
  8
0
 62
     7
 48
0.1
100
AcDbLine
 10
178.696465
 20
461.584179
 30
0.0
 11
182.160568
 21
463.584175
 31
0.0
210
0.0
220
0.0
230
1.0
  0
LINE
  5
186
100
AcDbEntity
  8
0
 62
     7
 48
0.163397
100
AcDbLine
 10
172.160568
 20
461.584183
 30
0.0
 11
178.696465
 21
461.584179
 31
0.0
210
0.0
220
0.0
230
1.0
  0
LINE
  5
187
100
AcDbEntity
  8
0
 62
     7
 48
0.13
100
AcDbLine
 10
172.160561
 20
459.584183
 30
0.0
 11
177.360558
 21
459.584179
 31
0.0
210
0.0
220
0.0
230
1.0
  0
LINE
  5
188
100
AcDbEntity
  8
0
 62
     7
 48
0.163397
100
AcDbLine
 10
172.160568
 20
461.584183
 30
0.0
 11
178.696465
 21
461.584179
 31
0.0
210
0.0
220
0.0
230
1.0
  0
ARC
  5
189
100
AcDbEntity
  8
0
 62
     7
100
AcDbCircle
 10
172.160561
 20
460.584183
 30
0.0
 40
1.0
210
0.0
220
0.0
230
1.0
100
AcDbArc
 50
89.999975
 51
179.999978
  0
ARC
  5
18A
100
AcDbEntity
  8
0
 62
     7
100
AcDbCircle
 10
172.160561
 20
460.584183
 30
0.0
 40
1.0
210
0.0
220
0.0
230
1.0
100
AcDbArc
 50
179.999978
 51
269.999973
  0
ARC
  5
18B
100
AcDbEntity
  8
0
 62
     7
100
AcDbCircle
 10
172.160561
 20
460.584183
 30
0.0
 40
1.0
210
0.0
220
0.0
230
1.0
100
AcDbArc
 50
89.999975
 51
179.999978
  0
LINE
  5
18C
100
AcDbEntity
  8
0
 62
     7
 48
0.175
100
AcDbLine
 10
184.360558
 20
453.584175
 30
0.0
 11
177.360558
 21
453.584179
 31
0.0
210
0.0
220
0.0
230
1.0
  0
LINE
  5
18D
100
AcDbEntity
  8
0
  6
DASHDOT
 62
     7
100
AcDbLine
 10
-97.282913
 20
497.584183
 30
0.0
 11
47.489834
 21
497.584183
 31
0.0
210
0.0
220
0.0
230
1.0
  0
CIRCLE
  5
18E
100
AcDbEntity
  8
0
 62
     7
100
AcDbCircle
 10
-7.869644
 20
555.584183
 30
0.0
 40
6.0
210
0.0
220
0.0
230
1.0
  0
ARC
  5
18F
100
AcDbEntity
  8
0
 62
     7
100
AcDbCircle
 10
9.630356
 20
558.584183
 30
0.0
 40
2.1
210
0.0
220
0.0
230
1.0
100
AcDbArc
 50
134.944799
 51
223.50775
  0
ARC
  5
190
100
AcDbEntity
  8
0
 62
     7
100
AcDbCircle
 10
9.630356
 20
558.584183
 30
0.0
 40
2.1
210
0.0
220
0.0
230
1.0
100
AcDbArc
 50
224.703157
 51
226.804464
  0
ARC
  5
191
100
AcDbEntity
  8
0
 62
     7
100
AcDbCircle
 10
-25.369644
 20
558.584183
 30
0.0
 40
2.1
210
0.0
220
0.0
230
1.0
100
AcDbArc
 50
311.954902
 51
54.307148
  0
ARC
  5
192
100
AcDbEntity
  8
0
 62
     7
100
AcDbCircle
 10
-25.369644
 20
558.584183
 30
0.0
 40
2.1
210
0.0
220
0.0
230
1.0
100
AcDbArc
 50
224.703157
 51
227.648483
  0
ARC
  5
193
100
AcDbEntity
  8
0
 62
     7
100
AcDbCircle
 10
-25.369644
 20
558.584183
 30
0.0
 40
2.1
210
0.0
220
0.0
230
1.0
100
AcDbArc
 50
134.944688
 51
223.50775
  0
ARC
  5
194
100
AcDbEntity
  8
0
 62
     7
100
AcDbCircle
 10
9.630356
 20
436.584183
 30
0.0
 40
2.1
210
0.0
220
0.0
230
1.0
100
AcDbArc
 50
314.99999
 51
64.984395
  0
ARC
  5
195
100
AcDbEntity
  8
0
 62
     7
100
AcDbCircle
 10
9.630356
 20
436.584183
 30
0.0
 40
2.1
210
0.0
220
0.0
230
1.0
100
AcDbArc
 50
108.301808
 51
224.999995
  0
ARC
  5
196
100
AcDbEntity
  8
0
 62
     7
100
AcDbCircle
 10
-25.369644
 20
436.584183
 30
0.0
 40
2.1
210
0.0
220
0.0
230
1.0
100
AcDbArc
 50
314.99999
 51
64.984395
  0
ARC
  5
197
100
AcDbEntity
  8
0
 62
     7
100
AcDbCircle
 10
-25.369644
 20
436.584183
 30
0.0
 40
2.1
210
0.0
220
0.0
230
1.0
100
AcDbArc
 50
108.301808
 51
224.999995
  0
ARC
  5
198
100
AcDbEntity
  8
0
 62
     7
100
AcDbCircle
 10
-25.369644
 20
558.584183
 30
0.0
 40
2.1
210
0.0
220
0.0
230
1.0
100
AcDbArc
 50
288.301793
 51
314.972727
  0
ARC
  5
199
100
AcDbEntity
  8
0
 62
     7
100
AcDbCircle
 10
-25.369644
 20
558.584183
 30
0.0
 40
2.1
210
0.0
220
0.0
230
1.0
100
AcDbArc
 50
225.568706
 51
244.984433
  0
LINE
  5
19A
100
AcDbEntity
  8
0
 62
     7
100
AcDbLine
 10
-57.369644
 20
446.584183
 30
0.0
 11
41.630356
 21
446.584183
 31
0.0
210
0.0
220
0.0
230
1.0
  0
LINE
  5
19B
100
AcDbEntity
  8
0
 62
     7
100
AcDbLine
 10
-57.369644
 20
548.584183
 30
0.0
 11
9.630356
 21
548.584183
 31
0.0
210
0.0
220
0.0
230
1.0
  0
LINE
  5
19C
100
AcDbEntity
  8
0
 62
     7
 48
0.0325
100
AcDbLine
 10
-48.119644
 20
447.284184
 30
0.0
 11
-46.819641
 21
447.284184
 31
0.0
210
0.0
220
0.0
230
1.0
  0
LINE
  5
19D
100
AcDbEntity
  8
0
 62
     7
 48
0.0325
100
AcDbLine
 10
-53.519645
 20
447.284184
 30
0.0
 11
-52.219642
 21
447.284184
 31
0.0
210
0.0
220
0.0
230
1.0
  0
LINE
  5
19E
100
AcDbEntity
  8
0
 62
     7
 48
0.0325
100
AcDbLine
 10
-57.119644
 20
447.284184
 30
0.0
 11
-55.819641
 21
447.284184
 31
0.0
210
0.0
220
0.0
230
1.0
  0
LINE
  5
19F
100
AcDbEntity
  8
0
 62
     7
 48
0.0325
100
AcDbLine
 10
-49.919647
 20
447.284184
 30
0.0
 11
-48.619644
 21
447.284184
 31
0.0
210
0.0
220
0.0
230
1.0
  0
LINE
  5
1A0
100
AcDbEntity
  8
0
 62
     7
 48
0.0325
100
AcDbLine
 10
40.080356
 20
447.284184
 30
0.0
 11
41.380356
 21
447.284184
 31
0.0
210
0.0
220
0.0
230
1.0
  0
LINE
  5
1A1
100
AcDbEntity
  8
0
 62
     7
100
AcDbLine
 10
-46.319641
 20
447.284184
 30
0.0
 11
30.580356
 21
447.284184
 31
0.0
210
0.0
220
0.0
230
1.0
  0
LINE
  5
1A2
100
AcDbEntity
  8
0
 62
     7
 48
0.0325
100
AcDbLine
 10
-51.719642
 20
447.284184
 30
0.0
 11
-50.419647
 21
447.284184
 31
0.0
210
0.0
220
0.0
230
1.0
  0
LINE
  5
1A3
100
AcDbEntity
  8
0
 62
     7
 48
0.0325
100
AcDbLine
 10
38.280356
 20
447.284184
 30
0.0
 11
39.580356
 21
447.284184
 31
0.0
210
0.0
220
0.0
230
1.0
  0
LINE
  5
1A4
100
AcDbEntity
  8
0
 62
     7
 48
0.0325
100
AcDbLine
 10
36.480356
 20
447.284184
 30
0.0
 11
37.780356
 21
447.284184
 31
0.0
210
0.0
220
0.0
230
1.0
  0
LINE
  5
1A5
100
AcDbEntity
  8
0
 62
     7
 48
0.0325
100
AcDbLine
 10
31.080356
 20
447.284184
 30
0.0
 11
32.380356
 21
447.284184
 31
0.0
210
0.0
220
0.0
230
1.0
  0
LINE
  5
1A6
100
AcDbEntity
  8
0
 62
     7
 48
0.0325
100
AcDbLine
 10
32.880356
 20
447.284184
 30
0.0
 11
34.180356
 21
447.284184
 31
0.0
210
0.0
220
0.0
230
1.0
  0
LINE
  5
1A7
100
AcDbEntity
  8
0
 62
     7
 48
0.0325
100
AcDbLine
 10
34.680356
 20
447.284184
 30
0.0
 11
35.980356
 21
447.284184
 31
0.0
210
0.0
220
0.0
230
1.0
  0
LINE
  5
1A8
100
AcDbEntity
  8
0
 62
     7
 48
0.0325
100
AcDbLine
 10
-55.319641
 20
447.284184
 30
0.0
 11
-54.019645
 21
447.284184
 31
0.0
210
0.0
220
0.0
230
1.0
  0
LINE
  5
1A9
100
AcDbEntity
  8
0
 62
     7
 48
0.0325
100
AcDbLine
 10
-53.519645
 20
547.884186
 30
0.0
 11
-52.219642
 21
547.884186
 31
0.0
210
0.0
220
0.0
230
1.0
  0
LINE
  5
1AA
100
AcDbEntity
  8
0
 62
     7
 48
0.0325
100
AcDbLine
 10
-48.119644
 20
547.884186
 30
0.0
 11
-46.819641
 21
547.884186
 31
0.0
210
0.0
220
0.0
230
1.0
  0
LINE
  5
1AB
100
AcDbEntity
  8
0
 62
     7
 48
0.0325
100
AcDbLine
 10
-49.919647
 20
547.884186
 30
0.0
 11
-48.619644
 21
547.884186
 31
0.0
210
0.0
220
0.0
230
1.0
  0
LINE
  5
1AC
100
AcDbEntity
  8
0
 62
     7
 48
0.0325
100
AcDbLine
 10
-51.719642
 20
547.884186
 30
0.0
 11
-50.419647
 21
547.884186
 31
0.0
210
0.0
220
0.0
230
1.0
  0
LINE
  5
1AD
100
AcDbEntity
  8
0
 62
     7
100
AcDbLine
 10
-46.319641
 20
547.884186
 30
0.0
 11
43.737624
 21
547.884186
 31
0.0
210
0.0
220
0.0
230
1.0
  0
LINE
  5
1AE
100
AcDbEntity
  8
0
 62
     7
 48
0.0325
100
AcDbLine
 10
-55.319641
 20
547.884186
 30
0.0
 11
-54.019645
 21
547.884186
 31
0.0
210
0.0
220
0.0
230
1.0
  0
LINE
  5
1AF
100
AcDbEntity
  8
0
 62
     7
 48
0.0325
100
AcDbLine
 10
-57.119644
 20
547.884186
 30
0.0
 11
-55.819641
 21
547.884186
 31
0.0
210
0.0
220
0.0
230
1.0
  0
LINE
  5
1B0
100
AcDbEntity
  8
0
 62
     7
 48
0.0325
100
AcDbLine
 10
-57.119644
 20
510.084183
 30
0.0
 11
-55.819641
 21
510.084183
 31
0.0
210
0.0
220
0.0
230
1.0
  0
LINE
  5
1B1
100
AcDbEntity
  8
0
 62
     7
 48
0.00875
100
AcDbLine
 10
-46.319641
 20
510.084183
 30
0.0
 11
-45.969642
 21
510.084183
 31
0.0
210
0.0
220
0.0
230
1.0
  0
LINE
  5
1B2
100
AcDbEntity
  8
0
 62
     7
 48
0.0325
100
AcDbLine
 10
-49.919647
 20
510.084183
 30
0.0
 11
-48.619644
 21
510.084183
 31
0.0
210
0.0
220
0.0
230
1.0
  0
LINE
  5
1B3
100
AcDbEntity
  8
0
 62
     7
 48
0.0325
100
AcDbLine
 10
-51.719642
 20
510.084183
 30
0.0
 11
-50.419647
 21
510.084183
 31
0.0
210
0.0
220
0.0
230
1.0
  0
LINE
  5
1B4
100
AcDbEntity
  8
0
 62
     7
 48
0.0325
100
AcDbLine
 10
-53.519645
 20
510.084183
 30
0.0
 11
-52.219642
 21
510.084183
 31
0.0
210
0.0
220
0.0
230
1.0
  0
LINE
  5
1B5
100
AcDbEntity
  8
0
 62
     7
 48
0.0325
100
AcDbLine
 10
-55.319641
 20
510.084183
 30
0.0
 11
-54.019645
 21
510.084183
 31
0.0
210
0.0
220
0.0
230
1.0
  0
LINE
  5
1B6
100
AcDbEntity
  8
0
 62
     7
 48
0.0325
100
AcDbLine
 10
-48.119644
 20
510.084183
 30
0.0
 11
-46.819641
 21
510.084183
 31
0.0
210
0.0
220
0.0
230
1.0
  0
LINE
  5
1B7
100
AcDbEntity
  8
0
 62
     7
 48
0.00875
100
AcDbLine
 10
30.230356
 20
510.084183
 30
0.0
 11
30.580356
 21
510.084183
 31
0.0
210
0.0
220
0.0
230
1.0
  0
LINE
  5
1B8
100
AcDbEntity
  8
0
 62
     7
 48
0.0325
100
AcDbLine
 10
31.080356
 20
510.084183
 30
0.0
 11
32.380356
 21
510.084183
 31
0.0
210
0.0
220
0.0
230
1.0
  0
LINE
  5
1B9
100
AcDbEntity
  8
0
 62
     7
 48
0.0325
100
AcDbLine
 10
40.080356
 20
510.084183
 30
0.0
 11
41.380356
 21
510.084183
 31
0.0
210
0.0
220
0.0
230
1.0
  0
LINE
  5
1BA
100
AcDbEntity
  8
0
 62
     7
 48
0.0325
100
AcDbLine
 10
32.880356
 20
510.084183
 30
0.0
 11
34.180356
 21
510.084183
 31
0.0
210
0.0
220
0.0
230
1.0
  0
LINE
  5
1BB
100
AcDbEntity
  8
0
 62
     7
 48
0.0325
100
AcDbLine
 10
34.680356
 20
510.084183
 30
0.0
 11
35.980356
 21
510.084183
 31
0.0
210
0.0
220
0.0
230
1.0
  0
LINE
  5
1BC
100
AcDbEntity
  8
0
 62
     7
 48
0.0325
100
AcDbLine
 10
36.480356
 20
510.084183
 30
0.0
 11
37.780356
 21
510.084183
 31
0.0
210
0.0
220
0.0
230
1.0
  0
LINE
  5
1BD
100
AcDbEntity
  8
0
 62
     7
 48
0.0325
100
AcDbLine
 10
38.280356
 20
510.084183
 30
0.0
 11
39.580356
 21
510.084183
 31
0.0
210
0.0
220
0.0
230
1.0
  0
LINE
  5
1BE
100
AcDbEntity
  8
0
 62
     7
 48
0.0325
100
AcDbLine
 10
-55.319641
 20
465.084183
 30
0.0
 11
-54.019645
 21
465.084183
 31
0.0
210
0.0
220
0.0
230
1.0
  0
LINE
  5
1BF
100
AcDbEntity
  8
0
 62
     7
 48
0.0325
100
AcDbLine
 10
-49.919647
 20
465.084183
 30
0.0
 11
-48.619644
 21
465.084183
 31
0.0
210
0.0
220
0.0
230
1.0
  0
LINE
  5
1C0
100
AcDbEntity
  8
0
 62
     7
 48
0.0325
100
AcDbLine
 10
-51.719642
 20
465.084183
 30
0.0
 11
-50.419647
 21
465.084183
 31
0.0
210
0.0
220
0.0
230
1.0
  0
LINE
  5
1C1
100
AcDbEntity
  8
0
 62
     7
 48
0.0325
100
AcDbLine
 10
-53.519645
 20
465.084183
 30
0.0
 11
-52.219642
 21
465.084183
 31
0.0
210
0.0
220
0.0
230
1.0
  0
LINE
  5
1C2
100
AcDbEntity
  8
0
 62
     7
 48
0.0325
100
AcDbLine
 10
-57.119644
 20
465.084183
 30
0.0
 11
-55.819641
 21
465.084183
 31
0.0
210
0.0
220
0.0
230
1.0
  0
LINE
  5
1C3
100
AcDbEntity
  8
0
 62
     7
 48
0.00875
100
AcDbLine
 10
-46.319641
 20
465.084183
 30
0.0
 11
-45.969642
 21
465.084183
 31
0.0
210
0.0
220
0.0
230
1.0
  0
LINE
  5
1C4
100
AcDbEntity
  8
0
 62
     7
 48
0.0325
100
AcDbLine
 10
-48.119644
 20
465.084183
 30
0.0
 11
-46.819641
 21
465.084183
 31
0.0
210
0.0
220
0.0
230
1.0
  0
LINE
  5
1C5
100
AcDbEntity
  8
0
 62
     7
 48
0.0325
100
AcDbLine
 10
36.480356
 20
465.084183
 30
0.0
 11
37.780356
 21
465.084183
 31
0.0
210
0.0
220
0.0
230
1.0
  0
LINE
  5
1C6
100
AcDbEntity
  8
0
 62
     7
 48
0.0325
100
AcDbLine
 10
38.280356
 20
465.084183
 30
0.0
 11
39.580356
 21
465.084183
 31
0.0
210
0.0
220
0.0
230
1.0
  0
LINE
  5
1C7
100
AcDbEntity
  8
0
 62
     7
 48
0.0325
100
AcDbLine
 10
34.680356
 20
465.084183
 30
0.0
 11
35.980356
 21
465.084183
 31
0.0
210
0.0
220
0.0
230
1.0
  0
LINE
  5
1C8
100
AcDbEntity
  8
0
 62
     7
 48
0.0325
100
AcDbLine
 10
32.880356
 20
465.084183
 30
0.0
 11
34.180356
 21
465.084183
 31
0.0
210
0.0
220
0.0
230
1.0
  0
LINE
  5
1C9
100
AcDbEntity
  8
0
 62
     7
 48
0.00875
100
AcDbLine
 10
30.230356
 20
465.084183
 30
0.0
 11
30.580356
 21
465.084183
 31
0.0
210
0.0
220
0.0
230
1.0
  0
LINE
  5
1CA
100
AcDbEntity
  8
0
 62
     7
 48
0.0325
100
AcDbLine
 10
40.080356
 20
465.084183
 30
0.0
 11
41.380356
 21
465.084183
 31
0.0
210
0.0
220
0.0
230
1.0
  0
LINE
  5
1CB
100
AcDbEntity
  8
0
 62
     7
 48
0.0325
100
AcDbLine
 10
31.080356
 20
465.084183
 30
0.0
 11
32.380356
 21
465.084183
 31
0.0
210
0.0
220
0.0
230
1.0
  0
LINE
  5
1CC
100
AcDbEntity
  8
0
 62
     7
 48
0.0025
100
AcDbLine
 10
-44.269645
 20
466.584183
 30
0.0
 11
-44.269645
 21
466.684181
 31
0.0
210
0.0
220
0.0
230
1.0
  0
LINE
  5
1CD
100
AcDbEntity
  8
0
 62
     7
 48
0.0025
100
AcDbLine
 10
-44.269645
 20
508.484184
 30
0.0
 11
-44.269645
 21
508.584183
 31
0.0
210
0.0
220
0.0
230
1.0
  0
LINE
  5
1CE
100
AcDbEntity
  8
0
 62
     7
 48
0.0025
100
AcDbLine
 10
-40.869644
 20
466.584183
 30
0.0
 11
-40.869644
 21
466.684181
 31
0.0
210
0.0
220
0.0
230
1.0
  0
LINE
  5
1CF
100
AcDbEntity
  8
0
 62
     7
 48
0.0025
100
AcDbLine
 10
-34.869644
 20
466.584183
 30
0.0
 11
-34.869644
 21
466.684181
 31
0.0
210
0.0
220
0.0
230
1.0
  0
LINE
  5
1D0
100
AcDbEntity
  8
0
 62
     7
 48
0.0025
100
AcDbLine
 10
-40.869644
 20
508.484184
 30
0.0
 11
-40.869644
 21
508.584183
 31
0.0
210
0.0
220
0.0
230
1.0
  0
LINE
  5
1D1
100
AcDbEntity
  8
0
 62
     7
 48
0.0025
100
AcDbLine
 10
-34.869644
 20
508.484184
 30
0.0
 11
-34.869644
 21
508.584183
 31
0.0
210
0.0
220
0.0
230
1.0
  0
CIRCLE
  5
1D2
100
AcDbEntity
  8
0
 62
     7
100
AcDbCircle
 10
-25.369644
 20
436.584183
 30
0.0
 40
2.1
210
0.0
220
0.0
230
1.0
  0
CIRCLE
  5
1D3
100
AcDbEntity
  8
0
 62
     7
100
AcDbCircle
 10
-25.369644
 20
436.584183
 30
0.0
 40
4.5
210
0.0
220
0.0
230
1.0
  0
ARC
  5
1D4
100
AcDbEntity
  8
0
 62
     7
100
AcDbCircle
 10
9.630377
 20
558.584167
 30
0.0
 40
2.10005
210
0.0
220
0.0
230
1.0
100
AcDbArc
 50
90.00059
 51
179.99939
  0
ARC
  5
1D5
100
AcDbEntity
  8
0
 62
     7
100
AcDbCircle
 10
9.630377
 20
558.584198
 30
0.0
 40
2.10005
210
0.0
220
0.0
230
1.0
100
AcDbArc
 50
180.000606
 51
269.9994
  0
CIRCLE
  5
1D6
100
AcDbEntity
  8
0
 62
     7
100
AcDbCircle
 10
-25.369644
 20
558.584183
 30
0.0
 40
4.25
210
0.0
220
0.0
230
1.0
  0
CIRCLE
  5
1D7
100
AcDbEntity
  8
0
 62
     7
100
AcDbCircle
 10
9.630356
 20
436.584183
 30
0.0
 40
4.25
210
0.0
220
0.0
230
1.0
  0
LINE
  5
1D8
100
AcDbEntity
  8
0
 62
     7
100
AcDbLine
 10
-57.869644
 20
566.584183
 30
0.0
 11
12.630356
 21
566.584183
 31
0.0
210
0.0
220
0.0
230
1.0
  0
LINE
  5
1D9
100
AcDbEntity
  8
0
 62
     7
100
AcDbLine
 10
-57.869644
 20
428.584183
 30
0.0
 11
42.130356
 21
428.584183
 31
0.0
210
0.0
220
0.0
230
1.0
  0
CIRCLE
  5
1DA
100
AcDbEntity
  8
0
  6
DASHSPACE
 62
     7
100
AcDbCircle
 10
-77.869644
 20
439.584183
 30
0.0
 40
6.0
210
0.0
220
0.0
230
1.0
  0
CIRCLE
  5
1DB
100
AcDbEntity
  8
0
  6
DASHSPACE
 62
     7
100
AcDbCircle
 10
-77.869644
 20
555.584183
 30
0.0
 40
6.0
210
0.0
220
0.0
230
1.0
  0
CIRCLE
  5
1DC
100
AcDbEntity
  8
0
 62
     7
100
AcDbCircle
 10
-7.869644
 20
439.584183
 30
0.0
 40
6.0
210
0.0
220
0.0
230
1.0
  0
CIRCLE
  5
1DD
100
AcDbEntity
  8
0
 62
     7
100
AcDbCircle
 10
-7.869644
 20
555.584183
 30
0.0
 40
6.0
210
0.0
220
0.0
230
1.0
  0
CIRCLE
  5
1DE
100
AcDbEntity
  8
0
 62
     7
100
AcDbCircle
 10
27.130356
 20
439.584183
 30
0.0
 40
6.0
210
0.0
220
0.0
230
1.0
  0
LINE
  5
1DF
100
AcDbEntity
  8
0
 62
     7
 48
0.0175
100
AcDbLine
 10
-59.669647
 20
547.884186
 30
0.0
 11
-59.669647
 21
548.584183
 31
0.0
210
0.0
220
0.0
230
1.0
  0
LINE
  5
1E0
100
AcDbEntity
  8
0
 62
     7
 48
0.0575
100
AcDbLine
 10
-59.669647
 20
548.584183
 30
0.0
 11
-57.369644
 21
548.584183
 31
0.0
210
0.0
220
0.0
230
1.0
  0
LINE
  5
1E1
100
AcDbEntity
  8
0
 62
     7
 48
0.0175
100
AcDbLine
 10
-59.669647
 20
446.584183
 30
0.0
 11
-59.669647
 21
447.284184
 31
0.0
210
0.0
220
0.0
230
1.0
  0
LINE
  5
1E2
100
AcDbEntity
  8
0
 62
     7
 48
0.0575
100
AcDbLine
 10
-59.669647
 20
446.584183
 30
0.0
 11
-57.369644
 21
446.584183
 31
0.0
210
0.0
220
0.0
230
1.0
  0
LINE
  5
1E3
100
AcDbEntity
  8
0
 62
     7
 48
0.0175
100
AcDbLine
 10
43.930357
 20
446.584183
 30
0.0
 11
43.930357
 21
447.284184
 31
0.0
210
0.0
220
0.0
230
1.0
  0
LINE
  5
1E4
100
AcDbEntity
  8
0
 62
     7
 48
0.0575
100
AcDbLine
 10
41.630356
 20
446.584183
 30
0.0
 11
43.930357
 21
446.584183
 31
0.0
210
0.0
220
0.0
230
1.0
  0
LINE
  5
1E5
100
AcDbEntity
  8
0
 62
     7
 48
0.45
100
AcDbLine
 10
-58.869644
 20
428.584183
 30
0.0
 11
-58.869644
 21
446.584183
 31
0.0
210
0.0
220
0.0
230
1.0
  0
LINE
  5
1E6
100
AcDbEntity
  8
0
 62
     7
 48
0.025
100
AcDbLine
 10
-58.869644
 20
428.584183
 30
0.0
 11
-57.869644
 21
428.584183
 31
0.0
210
0.0
220
0.0
230
1.0
  0
LINE
  5
1E7
100
AcDbEntity
  8
0
 62
     7
 48
0.45
100
AcDbLine
 10
-58.869644
 20
548.584183
 30
0.0
 11
-58.869644
 21
566.584183
 31
0.0
210
0.0
220
0.0
230
1.0
  0
LINE
  5
1E8
100
AcDbEntity
  8
0
 62
     7
 48
0.025
100
AcDbLine
 10
-58.869644
 20
566.584183
 30
0.0
 11
-57.869644
 21
566.584183
 31
0.0
210
0.0
220
0.0
230
1.0
  0
LINE
  5
1E9
100
AcDbEntity
  8
0
 62
     7
 48
0.45
100
AcDbLine
 10
43.130356
 20
428.584183
 30
0.0
 11
43.130356
 21
446.584183
 31
0.0
210
0.0
220
0.0
230
1.0
  0
LINE
  5
1EA
100
AcDbEntity
  8
0
 62
     7
 48
0.025
100
AcDbLine
 10
42.130356
 20
428.584183
 30
0.0
 11
43.130356
 21
428.584183
 31
0.0
210
0.0
220
0.0
230
1.0
  0
LINE
  5
1EB
100
AcDbEntity
  8
0
 62
     7
 48
0.0125
100
AcDbLine
 10
37.780356
 20
510.084183
 30
0.0
 11
38.280356
 21
510.084183
 31
0.0
210
0.0
220
0.0
230
1.0
  0
LINE
  5
1EC
100
AcDbEntity
  8
0
 62
     7
 48
0.0125
100
AcDbLine
 10
37.780356
 20
465.084183
 30
0.0
 11
38.280356
 21
465.084183
 31
0.0
210
0.0
220
0.0
230
1.0
  0
LINE
  5
1ED
100
AcDbEntity
  8
0
 62
     7
 48
0.0125
100
AcDbLine
 10
35.980356
 20
510.084183
 30
0.0
 11
36.480356
 21
510.084183
 31
0.0
210
0.0
220
0.0
230
1.0
  0
LINE
  5
1EE
100
AcDbEntity
  8
0
 62
     7
 48
0.0125
100
AcDbLine
 10
35.980356
 20
465.084183
 30
0.0
 11
36.480356
 21
465.084183
 31
0.0
210
0.0
220
0.0
230
1.0
  0
LINE
  5
1EF
100
AcDbEntity
  8
0
 62
     7
 48
0.0125
100
AcDbLine
 10
39.580356
 20
510.084183
 30
0.0
 11
40.080356
 21
510.084183
 31
0.0
210
0.0
220
0.0
230
1.0
  0
LINE
  5
1F0
100
AcDbEntity
  8
0
 62
     7
 48
0.0125
100
AcDbLine
 10
39.580356
 20
465.084183
 30
0.0
 11
40.080356
 21
465.084183
 31
0.0
210
0.0
220
0.0
230
1.0
  0
LINE
  5
1F1
100
AcDbEntity
  8
0
 62
     7
 48
0.0125
100
AcDbLine
 10
34.180356
 20
510.084183
 30
0.0
 11
34.680356
 21
510.084183
 31
0.0
210
0.0
220
0.0
230
1.0
  0
LINE
  5
1F2
100
AcDbEntity
  8
0
 62
     7
 48
0.0125
100
AcDbLine
 10
34.180356
 20
465.084183
 30
0.0
 11
34.680356
 21
465.084183
 31
0.0
210
0.0
220
0.0
230
1.0
  0
LINE
  5
1F3
100
AcDbEntity
  8
0
 62
     7
 48
0.0125
100
AcDbLine
 10
32.380356
 20
510.084183
 30
0.0
 11
32.880356
 21
510.084183
 31
0.0
210
0.0
220
0.0
230
1.0
  0
LINE
  5
1F4
100
AcDbEntity
  8
0
 62
     7
 48
0.0125
100
AcDbLine
 10
32.380356
 20
465.084183
 30
0.0
 11
32.880356
 21
465.084183
 31
0.0
210
0.0
220
0.0
230
1.0
  0
LINE
  5
1F5
100
AcDbEntity
  8
0
 62
     7
 48
0.0125
100
AcDbLine
 10
30.580356
 20
510.084183
 30
0.0
 11
31.080356
 21
510.084183
 31
0.0
210
0.0
220
0.0
230
1.0
  0
LINE
  5
1F6
100
AcDbEntity
  8
0
 62
     7
 48
0.0125
100
AcDbLine
 10
30.580356
 20
465.084183
 30
0.0
 11
31.080356
 21
465.084183
 31
0.0
210
0.0
220
0.0
230
1.0
  0
LINE
  5
1F7
100
AcDbEntity
  8
0
 62
     7
 48
0.0125
100
AcDbLine
 10
-54.019645
 20
510.084183
 30
0.0
 11
-53.519645
 21
510.084183
 31
0.0
210
0.0
220
0.0
230
1.0
  0
LINE
  5
1F8
100
AcDbEntity
  8
0
 62
     7
 48
0.0125
100
AcDbLine
 10
-54.019645
 20
465.084183
 30
0.0
 11
-53.519645
 21
465.084183
 31
0.0
210
0.0
220
0.0
230
1.0
  0
LINE
  5
1F9
100
AcDbEntity
  8
0
 62
     7
 48
0.0125
100
AcDbLine
 10
-52.219642
 20
510.084183
 30
0.0
 11
-51.719642
 21
510.084183
 31
0.0
210
0.0
220
0.0
230
1.0
  0
LINE
  5
1FA
100
AcDbEntity
  8
0
 62
     7
 48
0.0125
100
AcDbLine
 10
-52.219642
 20
465.084183
 30
0.0
 11
-51.719642
 21
465.084183
 31
0.0
210
0.0
220
0.0
230
1.0
  0
LINE
  5
1FB
100
AcDbEntity
  8
0
 62
     7
 48
0.0125
100
AcDbLine
 10
-55.819641
 20
510.084183
 30
0.0
 11
-55.319641
 21
510.084183
 31
0.0
210
0.0
220
0.0
230
1.0
  0
LINE
  5
1FC
100
AcDbEntity
  8
0
 62
     7
 48
0.0125
100
AcDbLine
 10
-55.819641
 20
465.084183
 30
0.0
 11
-55.319641
 21
465.084183
 31
0.0
210
0.0
220
0.0
230
1.0
  0
LINE
  5
1FD
100
AcDbEntity
  8
0
 62
     7
 48
0.0125
100
AcDbLine
 10
-50.419647
 20
510.084183
 30
0.0
 11
-49.919647
 21
510.084183
 31
0.0
210
0.0
220
0.0
230
1.0
  0
LINE
  5
1FE
100
AcDbEntity
  8
0
 62
     7
 48
0.0125
100
AcDbLine
 10
-50.419647
 20
465.084183
 30
0.0
 11
-49.919647
 21
465.084183
 31
0.0
210
0.0
220
0.0
230
1.0
  0
LINE
  5
1FF
100
AcDbEntity
  8
0
 62
     7
 48
0.0125
100
AcDbLine
 10
-48.619644
 20
510.084183
 30
0.0
 11
-48.119644
 21
510.084183
 31
0.0
210
0.0
220
0.0
230
1.0
  0
LINE
  5
200
100
AcDbEntity
  8
0
 62
     7
 48
0.0125
100
AcDbLine
 10
-48.619644
 20
465.084183
 30
0.0
 11
-48.119644
 21
465.084183
 31
0.0
210
0.0
220
0.0
230
1.0
  0
LINE
  5
201
100
AcDbEntity
  8
0
 62
     7
 48
0.0125
100
AcDbLine
 10
-46.819641
 20
510.084183
 30
0.0
 11
-46.319641
 21
510.084183
 31
0.0
210
0.0
220
0.0
230
1.0
  0
LINE
  5
202
100
AcDbEntity
  8
0
 62
     7
 48
0.0125
100
AcDbLine
 10
-46.819641
 20
465.084183
 30
0.0
 11
-46.319641
 21
465.084183
 31
0.0
210
0.0
220
0.0
230
1.0
  0
LINE
  5
203
100
AcDbEntity
  8
0
 62
     7
 48
0.0125
100
AcDbLine
 10
-50.419647
 20
547.884186
 30
0.0
 11
-49.919647
 21
547.884186
 31
0.0
210
0.0
220
0.0
230
1.0
  0
LINE
  5
204
100
AcDbEntity
  8
0
 62
     7
 48
0.0125
100
AcDbLine
 10
-52.219642
 20
547.884186
 30
0.0
 11
-51.719642
 21
547.884186
 31
0.0
210
0.0
220
0.0
230
1.0
  0
LINE
  5
205
100
AcDbEntity
  8
0
 62
     7
 48
0.0125
100
AcDbLine
 10
-46.819641
 20
547.884186
 30
0.0
 11
-46.319641
 21
547.884186
 31
0.0
210
0.0
220
0.0
230
1.0
  0
LINE
  5
206
100
AcDbEntity
  8
0
 62
     7
 48
0.0125
100
AcDbLine
 10
-48.619644
 20
547.884186
 30
0.0
 11
-48.119644
 21
547.884186
 31
0.0
210
0.0
220
0.0
230
1.0
  0
LINE
  5
207
100
AcDbEntity
  8
0
 62
     7
 48
0.0125
100
AcDbLine
 10
-54.019645
 20
547.884186
 30
0.0
 11
-53.519645
 21
547.884186
 31
0.0
210
0.0
220
0.0
230
1.0
  0
LINE
  5
208
100
AcDbEntity
  8
0
 62
     7
 48
0.0125
100
AcDbLine
 10
-55.819641
 20
547.884186
 30
0.0
 11
-55.319641
 21
547.884186
 31
0.0
210
0.0
220
0.0
230
1.0
  0
LINE
  5
209
100
AcDbEntity
  8
0
 62
     7
 48
0.0125
100
AcDbLine
 10
34.180356
 20
447.284184
 30
0.0
 11
34.680356
 21
447.284184
 31
0.0
210
0.0
220
0.0
230
1.0
  0
LINE
  5
20A
100
AcDbEntity
  8
0
 62
     7
 48
0.0125
100
AcDbLine
 10
35.980356
 20
447.284184
 30
0.0
 11
36.480356
 21
447.284184
 31
0.0
210
0.0
220
0.0
230
1.0
  0
LINE
  5
20B
100
AcDbEntity
  8
0
 62
     7
 48
0.0125
100
AcDbLine
 10
30.580356
 20
447.284184
 30
0.0
 11
31.080356
 21
447.284184
 31
0.0
210
0.0
220
0.0
230
1.0
  0
LINE
  5
20C
100
AcDbEntity
  8
0
 62
     7
 48
0.0125
100
AcDbLine
 10
32.380356
 20
447.284184
 30
0.0
 11
32.880356
 21
447.284184
 31
0.0
210
0.0
220
0.0
230
1.0
  0
LINE
  5
20D
100
AcDbEntity
  8
0
 62
     7
 48
0.0125
100
AcDbLine
 10
37.780356
 20
447.284184
 30
0.0
 11
38.280356
 21
447.284184
 31
0.0
210
0.0
220
0.0
230
1.0
  0
LINE
  5
20E
100
AcDbEntity
  8
0
 62
     7
 48
0.0125
100
AcDbLine
 10
39.580356
 20
447.284184
 30
0.0
 11
40.080356
 21
447.284184
 31
0.0
210
0.0
220
0.0
230
1.0
  0
LINE
  5
20F
100
AcDbEntity
  8
0
 62
     7
 48
0.0125
100
AcDbLine
 10
-50.419647
 20
447.284184
 30
0.0
 11
-49.919647
 21
447.284184
 31
0.0
210
0.0
220
0.0
230
1.0
  0
LINE
  5
210
100
AcDbEntity
  8
0
 62
     7
 48
0.0125
100
AcDbLine
 10
-52.219642
 20
447.284184
 30
0.0
 11
-51.719642
 21
447.284184
 31
0.0
210
0.0
220
0.0
230
1.0
  0
LINE
  5
211
100
AcDbEntity
  8
0
 62
     7
 48
0.0125
100
AcDbLine
 10
-46.819641
 20
447.284184
 30
0.0
 11
-46.319641
 21
447.284184
 31
0.0
210
0.0
220
0.0
230
1.0
  0
LINE
  5
212
100
AcDbEntity
  8
0
 62
     7
 48
0.0125
100
AcDbLine
 10
-48.619644
 20
447.284184
 30
0.0
 11
-48.119644
 21
447.284184
 31
0.0
210
0.0
220
0.0
230
1.0
  0
LINE
  5
213
100
AcDbEntity
  8
0
 62
     7
 48
0.0125
100
AcDbLine
 10
-54.019645
 20
447.284184
 30
0.0
 11
-53.519645
 21
447.284184
 31
0.0
210
0.0
220
0.0
230
1.0
  0
LINE
  5
214
100
AcDbEntity
  8
0
 62
     7
 48
0.0125
100
AcDbLine
 10
-55.819641
 20
447.284184
 30
0.0
 11
-55.319641
 21
447.284184
 31
0.0
210
0.0
220
0.0
230
1.0
  0
LINE
  5
215
100
AcDbEntity
  8
0
 62
     7
100
AcDbLine
 10
44.630356
 20
510.084183
 30
0.0
 11
44.630356
 21
547.884186
 31
0.0
210
0.0
220
0.0
230
1.0
  0
LINE
  5
216
100
AcDbEntity
  8
0
 62
     7
100
AcDbLine
 10
44.630356
 20
465.084183
 30
0.0
 11
44.630356
 21
510.084183
 31
0.0
210
0.0
220
0.0
230
1.0
  0
LINE
  5
217
100
AcDbEntity
  8
0
 62
     7
 48
0.004356
100
AcDbLine
 10
44.456098
 20
510.084183
 30
0.0
 11
44.630356
 21
510.084183
 31
0.0
210
0.0
220
0.0
230
1.0
  0
LINE
  5
218
100
AcDbEntity
  8
0
 62
     7
 48
0.00429
100
AcDbLine
 10
44.458766
 20
465.084183
 30
0.0
 11
44.630356
 21
465.084183
 31
0.0
210
0.0
220
0.0
230
1.0
  0
LINE
  5
219
100
AcDbEntity
  8
0
 62
     7
 48
0.064394
100
AcDbLine
 10
41.880356
 20
510.084183
 30
0.0
 11
44.456098
 21
510.084183
 31
0.0
210
0.0
220
0.0
230
1.0
  0
LINE
  5
21A
100
AcDbEntity
  8
0
 62
     7
 48
0.06446
100
AcDbLine
 10
41.880356
 20
465.084183
 30
0.0
 11
44.458766
 21
465.084183
 31
0.0
210
0.0
220
0.0
230
1.0
  0
LINE
  5
21B
100
AcDbEntity
  8
0
 62
     7
 48
0.06875
100
AcDbLine
 10
41.880356
 20
447.284184
 30
0.0
 11
44.630356
 21
447.284184
 31
0.0
210
0.0
220
0.0
230
1.0
  0
LINE
  5
21C
100
AcDbEntity
  8
0
 62
     7
 48
0.445
100
AcDbLine
 10
44.630356
 20
447.284184
 30
0.0
 11
44.630356
 21
465.084183
 31
0.0
210
0.0
220
0.0
230
1.0
  0
LINE
  5
21D
100
AcDbEntity
  8
0
 62
     7
 48
0.06875
100
AcDbLine
 10
-60.369644
 20
547.884186
 30
0.0
 11
-57.619644
 21
547.884186
 31
0.0
210
0.0
220
0.0
230
1.0
  0
LINE
  5
21E
100
AcDbEntity
  8
0
 62
     7
100
AcDbLine
 10
-60.369644
 20
510.084183
 30
0.0
 11
-60.369644
 21
547.884186
 31
0.0
210
0.0
220
0.0
230
1.0
  0
LINE
  5
21F
100
AcDbEntity
  8
0
 62
     7
100
AcDbLine
 10
-60.369644
 20
465.084183
 30
0.0
 11
-60.369644
 21
510.084183
 31
0.0
210
0.0
220
0.0
230
1.0
  0
LINE
  5
220
100
AcDbEntity
  8
0
 62
     7
 48
0.00429
100
AcDbLine
 10
-60.369644
 20
510.084183
 30
0.0
 11
-60.198051
 21
510.084183
 31
0.0
210
0.0
220
0.0
230
1.0
  0
LINE
  5
221
100
AcDbEntity
  8
0
 62
     7
 48
0.00429
100
AcDbLine
 10
-60.369644
 20
465.084183
 30
0.0
 11
-60.198051
 21
465.084183
 31
0.0
210
0.0
220
0.0
230
1.0
  0
LINE
  5
222
100
AcDbEntity
  8
0
 62
     7
 48
0.06446
100
AcDbLine
 10
-60.198051
 20
510.084183
 30
0.0
 11
-57.619644
 21
510.084183
 31
0.0
210
0.0
220
0.0
230
1.0
  0
LINE
  5
223
100
AcDbEntity
  8
0
 62
     7
 48
0.06446
100
AcDbLine
 10
-60.198051
 20
465.084183
 30
0.0
 11
-57.619644
 21
465.084183
 31
0.0
210
0.0
220
0.0
230
1.0
  0
LINE
  5
224
100
AcDbEntity
  8
0
 62
     7
 48
0.06875
100
AcDbLine
 10
-60.369644
 20
447.284184
 30
0.0
 11
-57.619644
 21
447.284184
 31
0.0
210
0.0
220
0.0
230
1.0
  0
LINE
  5
225
100
AcDbEntity
  8
0
 62
     7
 48
0.445
100
AcDbLine
 10
-60.369644
 20
447.284184
 30
0.0
 11
-60.369644
 21
465.084183
 31
0.0
210
0.0
220
0.0
230
1.0
  0
LINE
  5
226
100
AcDbEntity
  8
0
 62
     7
 48
0.0125
100
AcDbLine
 10
41.380356
 20
447.284184
 30
0.0
 11
41.880356
 21
447.284184
 31
0.0
210
0.0
220
0.0
230
1.0
  0
LINE
  5
227
100
AcDbEntity
  8
0
 62
     7
 48
0.0125
100
AcDbLine
 10
41.380356
 20
510.084183
 30
0.0
 11
41.880356
 21
510.084183
 31
0.0
210
0.0
220
0.0
230
1.0
  0
LINE
  5
228
100
AcDbEntity
  8
0
 62
     7
 48
0.0125
100
AcDbLine
 10
41.380356
 20
465.084183
 30
0.0
 11
41.880356
 21
465.084183
 31
0.0
210
0.0
220
0.0
230
1.0
  0
LINE
  5
229
100
AcDbEntity
  8
0
 62
     7
 48
0.0125
100
AcDbLine
 10
-57.619644
 20
547.884186
 30
0.0
 11
-57.119644
 21
547.884186
 31
0.0
210
0.0
220
0.0
230
1.0
  0
LINE
  5
22A
100
AcDbEntity
  8
0
 62
     7
 48
0.0125
100
AcDbLine
 10
-57.619644
 20
510.084183
 30
0.0
 11
-57.119644
 21
510.084183
 31
0.0
210
0.0
220
0.0
230
1.0
  0
LINE
  5
22B
100
AcDbEntity
  8
0
 62
     7
 48
0.0125
100
AcDbLine
 10
-57.619644
 20
465.084183
 30
0.0
 11
-57.119644
 21
465.084183
 31
0.0
210
0.0
220
0.0
230
1.0
  0
LINE
  5
22C
100
AcDbEntity
  8
0
 62
     7
 48
0.0125
100
AcDbLine
 10
-57.619644
 20
447.284184
 30
0.0
 11
-57.119644
 21
447.284184
 31
0.0
210
0.0
220
0.0
230
1.0
  0
LINE
  5
22D
100
AcDbEntity
  8
0
 62
     7
100
AcDbLine
 10
-56.869644
 20
566.584183
 30
0.0
 11
-28.369644
 21
566.584183
 31
0.0
210
0.0
220
0.0
230
1.0
  0
LINE
  5
22E
100
AcDbEntity
  8
0
 62
     7
100
AcDbLine
 10
-22.369644
 20
566.584183
 30
0.0
 11
6.630356
 21
566.584183
 31
0.0
210
0.0
220
0.0
230
1.0
  0
LINE
  5
22F
100
AcDbEntity
  8
0
 62
     7
 48
0.025
100
AcDbLine
 10
-56.869644
 20
566.584183
 30
0.0
 11
-56.869644
 21
567.584183
 31
0.0
210
0.0
220
0.0
230
1.0
  0
ARC
  5
230
100
AcDbEntity
  8
0
 62
     7
100
AcDbCircle
 10
-25.369644
 20
558.584183
 30
0.0
 40
2.1
210
0.0
220
0.0
230
1.0
100
AcDbArc
 50
0.0
 51
180.000005
  0
ARC
  5
231
100
AcDbEntity
  8
0
 62
     7
100
AcDbCircle
 10
-25.369644
 20
558.584183
 30
0.0
 40
2.1
210
0.0
220
0.0
230
1.0
100
AcDbArc
 50
180.000005
 51
225.584647
  0
ARC
  5
232
100
AcDbEntity
  8
0
 62
     7
100
AcDbCircle
 10
-25.369644
 20
558.584183
 30
0.0
 40
2.1
210
0.0
220
0.0
230
1.0
100
AcDbArc
 50
225.584647
 51
314.417048
  0
ARC
  5
233
100
AcDbEntity
  8
0
 62
     7
100
AcDbCircle
 10
-25.369644
 20
558.584183
 30
0.0
 40
2.1
210
0.0
220
0.0
230
1.0
100
AcDbArc
 50
314.417048
 51
360.0
  0
CIRCLE
  5
234
100
AcDbEntity
  8
0
 62
     7
100
AcDbCircle
 10
-7.869644
 20
569.584183
 30
0.0
 40
1.1
210
0.0
220
0.0
230
1.0
  0
LINE
  5
235
100
AcDbEntity
  8
0
 62
     7
 48
0.025
100
AcDbLine
 10
-57.869644
 20
570.584183
 30
0.0
 11
-56.869644
 21
570.584183
 31
0.0
210
0.0
220
0.0
230
1.0
  0
LINE
  5
236
100
AcDbEntity
  8
0
 62
     7
 48
0.075
100
AcDbLine
 10
-56.869644
 20
567.584183
 30
0.0
 11
-56.869644
 21
570.584183
 31
0.0
210
0.0
220
0.0
230
1.0
  0
LINE
  5
237
100
AcDbEntity
  8
0
 62
     7
 48
0.0375
100
AcDbLine
 10
-58.369644
 20
567.584183
 30
0.0
 11
-56.869644
 21
567.584183
 31
0.0
210
0.0
220
0.0
230
1.0
  0
LINE
  5
238
100
AcDbEntity
  8
0
 62
     7
 48
0.025
100
AcDbLine
 10
-58.369644
 20
566.584183
 30
0.0
 11
-58.369644
 21
567.584183
 31
0.0
210
0.0
220
0.0
230
1.0
  0
LINE
  5
239
100
AcDbEntity
  8
0
 62
     7
 48
0.0375
100
AcDbLine
 10
-60.369644
 20
566.584183
 30
0.0
 11
-58.869644
 21
566.584183
 31
0.0
210
0.0
220
0.0
230
1.0
  0
LINE
  5
23A
100
AcDbEntity
  8
0
 62
     7
 48
0.4675
100
AcDbLine
 10
-60.369644
 20
547.884186
 30
0.0
 11
-60.369644
 21
566.584183
 31
0.0
210
0.0
220
0.0
230
1.0
  0
LINE
  5
23B
100
AcDbEntity
  8
0
 62
     7
100
AcDbLine
 10
-22.369644
 20
572.584183
 30
0.0
 11
6.630356
 21
572.584183
 31
0.0
210
0.0
220
0.0
230
1.0
  0
LINE
  5
23C
100
AcDbEntity
  8
0
 62
     7
 48
0.025
100
AcDbLine
 10
-58.869644
 20
570.584183
 30
0.0
 11
-58.869644
 21
571.584183
 31
0.0
210
0.0
220
0.0
230
1.0
  0
LINE
  5
23D
100
AcDbEntity
  8
0
 62
     7
 48
0.025
100
AcDbLine
 10
-58.869644
 20
570.584183
 30
0.0
 11
-57.869644
 21
570.584183
 31
0.0
210
0.0
220
0.0
230
1.0
  0
ARC
  5
23E
100
AcDbEntity
  8
0
 62
     7
100
AcDbCircle
 10
-57.869628
 20
571.584167
 30
0.0
 40
1.000027
210
0.0
220
0.0
230
1.0
100
AcDbArc
 50
90.00072
 51
179.999281
  0
LINE
  5
23F
100
AcDbEntity
  8
0
 62
     7
100
AcDbLine
 10
-57.869644
 20
572.584183
 30
0.0
 11
-28.369644
 21
572.584183
 31
0.0
210
0.0
220
0.0
230
1.0
  0
LINE
  5
240
100
AcDbEntity
  8
0
 62
     7
 48
0.125
100
AcDbLine
 10
-22.369644
 20
566.584183
 30
0.0
 11
-22.369644
 21
571.584183
 31
0.0
210
0.0
220
0.0
230
1.0
  0
LINE
  5
241
100
AcDbEntity
  8
0
 62
     7
 48
0.025
100
AcDbLine
 10
-22.369644
 20
571.584183
 30
0.0
 11
-22.369644
 21
572.584183
 31
0.0
210
0.0
220
0.0
230
1.0
  0
LINE
  5
242
100
AcDbEntity
  8
0
 62
     7
 48
0.125
100
AcDbLine
 10
-28.369644
 20
566.584183
 30
0.0
 11
-28.369644
 21
571.584183
 31
0.0
210
0.0
220
0.0
230
1.0
  0
LINE
  5
243
100
AcDbEntity
  8
0
 62
     7
 48
0.025
100
AcDbLine
 10
-28.369644
 20
571.584183
 30
0.0
 11
-28.369644
 21
572.584183
 31
0.0
210
0.0
220
0.0
230
1.0
  0
LINE
  5
244
100
AcDbEntity
  8
0
 62
     7
 48
0.15
100
AcDbLine
 10
-28.369644
 20
568.584183
 30
0.0
 11
-22.369644
 21
568.584183
 31
0.0
210
0.0
220
0.0
230
1.0
  0
LINE
  5
245
100
AcDbEntity
  8
0
 62
     7
 48
0.0375
100
AcDbLine
 10
-28.369644
 20
572.584183
 30
0.0
 11
-26.869644
 21
572.584183
 31
0.0
210
0.0
220
0.0
230
1.0
  0
LINE
  5
246
100
AcDbEntity
  8
0
 62
     7
 48
0.0375
100
AcDbLine
 10
-28.369644
 20
570.584183
 30
0.0
 11
-26.869644
 21
570.584183
 31
0.0
210
0.0
220
0.0
230
1.0
  0
LINE
  5
247
100
AcDbEntity
  8
0
 62
     7
 48
0.05
100
AcDbLine
 10
-26.869644
 20
570.584183
 30
0.0
 11
-26.869644
 21
572.584183
 31
0.0
210
0.0
220
0.0
230
1.0
  0
LINE
  5
248
100
AcDbEntity
  8
0
 62
     7
 48
0.0375
100
AcDbLine
 10
-23.869644
 20
572.584183
 30
0.0
 11
-22.369644
 21
572.584183
 31
0.0
210
0.0
220
0.0
230
1.0
  0
LINE
  5
249
100
AcDbEntity
  8
0
 62
     7
 48
0.05
100
AcDbLine
 10
-23.869644
 20
570.584183
 30
0.0
 11
-23.869644
 21
572.584183
 31
0.0
210
0.0
220
0.0
230
1.0
  0
LINE
  5
24A
100
AcDbEntity
  8
0
 62
     7
 48
0.0375
100
AcDbLine
 10
-23.869644
 20
570.584183
 30
0.0
 11
-22.369644
 21
570.584183
 31
0.0
210
0.0
220
0.0
230
1.0
  0
LINE
  5
24B
100
AcDbEntity
  8
0
 62
     7
 48
0.125
100
AcDbLine
 10
6.630356
 20
566.584183
 30
0.0
 11
6.630356
 21
571.584183
 31
0.0
210
0.0
220
0.0
230
1.0
  0
LINE
  5
24C
100
AcDbEntity
  8
0
 62
     7
 48
0.025
100
AcDbLine
 10
6.630356
 20
571.584183
 30
0.0
 11
6.630356
 21
572.584183
 31
0.0
210
0.0
220
0.0
230
1.0
  0
LINE
  5
24D
100
AcDbEntity
  8
0
 62
     7
 48
0.075
100
AcDbLine
 10
6.630356
 20
568.584183
 30
0.0
 11
9.630356
 21
568.584183
 31
0.0
210
0.0
220
0.0
230
1.0
  0
LINE
  5
24E
100
AcDbEntity
  8
0
 62
     7
 48
0.0375
100
AcDbLine
 10
6.630356
 20
572.584183
 30
0.0
 11
8.130356
 21
572.584183
 31
0.0
210
0.0
220
0.0
230
1.0
  0
LINE
  5
24F
100
AcDbEntity
  8
0
 62
     7
 48
0.05
100
AcDbLine
 10
8.130356
 20
570.584183
 30
0.0
 11
8.130356
 21
572.584183
 31
0.0
210
0.0
220
0.0
230
1.0
  0
LINE
  5
250
100
AcDbEntity
  8
0
 62
     7
 48
0.0375
100
AcDbLine
 10
6.630356
 20
570.584183
 30
0.0
 11
8.130356
 21
570.584183
 31
0.0
210
0.0
220
0.0
230
1.0
  0
LINE
  5
251
100
AcDbEntity
  8
0
 62
     7
 48
0.0025
100
AcDbLine
 10
-40.369644
 20
508.484184
 30
0.0
 11
-40.369644
 21
508.584183
 31
0.0
210
0.0
220
0.0
230
1.0
  0
LINE
  5
252
100
AcDbEntity
  8
0
 62
     7
 48
0.0025
100
AcDbLine
 10
-35.369644
 20
508.484184
 30
0.0
 11
-35.369644
 21
508.584183
 31
0.0
210
0.0
220
0.0
230
1.0
  0
LINE
  5
253
100
AcDbEntity
  8
0
 62
     7
 48
0.0025
100
AcDbLine
 10
-40.369644
 20
466.584183
 30
0.0
 11
-40.369644
 21
466.684181
 31
0.0
210
0.0
220
0.0
230
1.0
  0
LINE
  5
254
100
AcDbEntity
  8
0
 62
     7
 48
0.0025
100
AcDbLine
 10
-35.369644
 20
466.584183
 30
0.0
 11
-35.369644
 21
466.684181
 31
0.0
210
0.0
220
0.0
230
1.0
  0
ARC
  5
255
100
AcDbEntity
  8
0
 62
     7
100
AcDbCircle
 10
-25.369644
 20
436.584183
 30
0.0
 40
2.1
210
0.0
220
0.0
230
1.0
100
AcDbArc
 50
56.853822
 51
123.000137
  0
ARC
  5
256
100
AcDbEntity
  8
0
 62
     7
100
AcDbCircle
 10
-25.369644
 20
436.584183
 30
0.0
 40
2.1
210
0.0
220
0.0
230
1.0
100
AcDbArc
 50
180.001453
 51
359.999382
  0
ARC
  5
257
100
AcDbEntity
  8
0
 62
     7
100
AcDbCircle
 10
-25.369644
 20
436.584183
 30
0.0
 40
2.1
210
0.0
220
0.0
230
1.0
100
AcDbArc
 50
134.706398
 51
179.998229
  0
ARC
  5
258
100
AcDbEntity
  8
0
 62
     7
100
AcDbCircle
 10
-25.369644
 20
436.584183
 30
0.0
 40
2.1
210
0.0
220
0.0
230
1.0
100
AcDbArc
 50
0.001769
 51
45.294413
  0
LINE
  5
259
100
AcDbEntity
  8
0
 62
     7
 48
0.05
100
AcDbLine
 10
-26.869644
 20
422.584183
 30
0.0
 11
-26.869644
 21
424.584183
 31
0.0
210
0.0
220
0.0
230
1.0
  0
LINE
  5
25A
100
AcDbEntity
  8
0
 62
     7
 48
0.03125
100
AcDbLine
 10
-28.119644
 20
424.584183
 30
0.0
 11
-26.869644
 21
424.584183
 31
0.0
210
0.0
220
0.0
230
1.0
  0
LINE
  5
25B
100
AcDbEntity
  8
0
 62
     7
 48
0.1375
100
AcDbLine
 10
-28.119644
 20
426.584183
 30
0.0
 11
-22.619644
 21
426.584183
 31
0.0
210
0.0
220
0.0
230
1.0
  0
LINE
  5
25C
100
AcDbEntity
  8
0
 62
     7
 48
0.05
100
AcDbLine
 10
-23.869644
 20
422.584183
 30
0.0
 11
-23.869644
 21
424.584183
 31
0.0
210
0.0
220
0.0
230
1.0
  0
LINE
  5
25D
100
AcDbEntity
  8
0
 62
     7
 48
0.03125
100
AcDbLine
 10
-23.869644
 20
424.584183
 30
0.0
 11
-22.619644
 21
424.584183
 31
0.0
210
0.0
220
0.0
230
1.0
  0
LINE
  5
25E
100
AcDbEntity
  8
0
 62
     7
 48
0.025
100
AcDbLine
 10
-22.619644
 20
422.584183
 30
0.0
 11
-22.619644
 21
423.584183
 31
0.0
210
0.0
220
0.0
230
1.0
  0
LINE
  5
25F
100
AcDbEntity
  8
0
 62
     7
 48
0.025
100
AcDbLine
 10
-28.119644
 20
422.584183
 30
0.0
 11
-28.119644
 21
423.584183
 31
0.0
210
0.0
220
0.0
230
1.0
  0
LINE
  5
260
100
AcDbEntity
  8
0
 62
     7
 48
0.1375
100
AcDbLine
 10
6.880356
 20
426.584183
 30
0.0
 11
12.380356
 21
426.584183
 31
0.0
210
0.0
220
0.0
230
1.0
  0
LINE
  5
261
100
AcDbEntity
  8
0
 62
     7
 48
0.05
100
AcDbLine
 10
11.130356
 20
422.584183
 30
0.0
 11
11.130356
 21
424.584183
 31
0.0
210
0.0
220
0.0
230
1.0
  0
LINE
  5
262
100
AcDbEntity
  8
0
 62
     7
 48
0.03125
100
AcDbLine
 10
11.130356
 20
424.584183
 30
0.0
 11
12.380356
 21
424.584183
 31
0.0
210
0.0
220
0.0
230
1.0
  0
LINE
  5
263
100
AcDbEntity
  8
0
 62
     7
 48
0.05
100
AcDbLine
 10
8.130356
 20
422.584183
 30
0.0
 11
8.130356
 21
424.584183
 31
0.0
210
0.0
220
0.0
230
1.0
  0
LINE
  5
264
100
AcDbEntity
  8
0
 62
     7
 48
0.03125
100
AcDbLine
 10
6.880356
 20
424.584183
 30
0.0
 11
8.130356
 21
424.584183
 31
0.0
210
0.0
220
0.0
230
1.0
  0
LINE
  5
265
100
AcDbEntity
  8
0
 62
     7
 48
0.025
100
AcDbLine
 10
6.880356
 20
422.584183
 30
0.0
 11
6.880356
 21
423.584183
 31
0.0
210
0.0
220
0.0
230
1.0
  0
LINE
  5
266
100
AcDbEntity
  8
0
 62
     7
 48
0.025
100
AcDbLine
 10
12.380356
 20
422.584183
 30
0.0
 11
12.380356
 21
423.584183
 31
0.0
210
0.0
220
0.0
230
1.0
  0
LINE
  5
267
100
AcDbEntity
  8
0
 62
     7
 48
0.025
100
AcDbLine
 10
42.130356
 20
424.584183
 30
0.0
 11
43.130356
 21
424.584183
 31
0.0
210
0.0
220
0.0
230
1.0
  0
LINE
  5
268
100
AcDbEntity
  8
0
 62
     7
 48
0.025
100
AcDbLine
 10
43.130356
 20
423.584183
 30
0.0
 11
43.130356
 21
424.584183
 31
0.0
210
0.0
220
0.0
230
1.0
  0
ARC
  5
269
100
AcDbEntity
  8
0
 62
     7
100
AcDbCircle
 10
42.130344
 20
423.584196
 30
0.0
 40
1.000027
210
0.0
220
0.0
230
1.0
100
AcDbArc
 50
270.000711
 51
359.999272
  0
ARC
  5
26A
100
AcDbEntity
  8
0
 62
     7
100
AcDbCircle
 10
-57.869628
 20
423.584196
 30
0.0
 40
1.000027
210
0.0
220
0.0
230
1.0
100
AcDbArc
 50
180.000715
 51
269.99929
  0
LINE
  5
26B
100
AcDbEntity
  8
0
 62
     7
 48
0.025
100
AcDbLine
 10
-58.869644
 20
423.584183
 30
0.0
 11
-58.869644
 21
424.584183
 31
0.0
210
0.0
220
0.0
230
1.0
  0
ARC
  5
26C
100
AcDbEntity
  8
0
 62
     7
100
AcDbCircle
 10
9.630356
 20
436.584183
 30
0.0
 40
2.1
210
0.0
220
0.0
230
1.0
100
AcDbArc
 50
180.000005
 51
360.0
  0
ARC
  5
26D
100
AcDbEntity
  8
0
 62
     7
100
AcDbCircle
 10
9.630356
 20
436.584183
 30
0.0
 40
2.1
210
0.0
220
0.0
230
1.0
100
AcDbArc
 50
0.0
 51
45.584688
  0
ARC
  5
26E
100
AcDbEntity
  8
0
 62
     7
100
AcDbCircle
 10
9.630356
 20
436.584183
 30
0.0
 40
2.1
210
0.0
220
0.0
230
1.0
100
AcDbArc
 50
134.416976
 51
180.000005
  0
ARC
  5
26F
100
AcDbEntity
  8
0
 62
     7
100
AcDbCircle
 10
9.630356
 20
436.584183
 30
0.0
 40
2.1
210
0.0
220
0.0
230
1.0
100
AcDbArc
 50
45.584688
 51
134.416976
  0
ARC
  5
270
100
AcDbEntity
  8
0
 62
     7
100
AcDbCircle
 10
-56.869644
 20
445.084183
 30
0.0
 40
3.0
210
0.0
220
0.0
230
1.0
100
AcDbArc
 50
148.078831
 51
225.932045
  0
ARC
  5
271
100
AcDbEntity
  8
0
 62
     7
100
AcDbCircle
 10
41.130356
 20
445.084183
 30
0.0
 40
3.0
210
0.0
220
0.0
230
1.0
100
AcDbArc
 50
314.046608
 51
31.929382
  0
LINE
  5
272
100
AcDbEntity
  8
0
 62
     7
 48
0.4675
100
AcDbLine
 10
44.630356
 20
428.584183
 30
0.0
 11
44.630356
 21
447.284184
 31
0.0
210
0.0
220
0.0
230
1.0
  0
LINE
  5
273
100
AcDbEntity
  8
0
 62
     7
 48
0.0375
100
AcDbLine
 10
43.130356
 20
428.584183
 30
0.0
 11
44.630356
 21
428.584183
 31
0.0
210
0.0
220
0.0
230
1.0
  0
LINE
  5
274
100
AcDbEntity
  8
0
 62
     7
 48
0.025
100
AcDbLine
 10
42.630356
 20
427.584183
 30
0.0
 11
42.630356
 21
428.584183
 31
0.0
210
0.0
220
0.0
230
1.0
  0
LINE
  5
275
100
AcDbEntity
  8
0
 62
     7
 48
0.0375
100
AcDbLine
 10
41.130356
 20
427.584183
 30
0.0
 11
42.630356
 21
427.584183
 31
0.0
210
0.0
220
0.0
230
1.0
  0
LINE
  5
276
100
AcDbEntity
  8
0
 62
     7
 48
0.025
100
AcDbLine
 10
-58.369644
 20
427.584183
 30
0.0
 11
-58.369644
 21
428.584183
 31
0.0
210
0.0
220
0.0
230
1.0
  0
LINE
  5
277
100
AcDbEntity
  8
0
 62
     7
 48
0.0375
100
AcDbLine
 10
-60.369644
 20
428.584183
 30
0.0
 11
-58.869644
 21
428.584183
 31
0.0
210
0.0
220
0.0
230
1.0
  0
LINE
  5
278
100
AcDbEntity
  8
0
 62
     7
 48
0.4675
100
AcDbLine
 10
-60.369644
 20
428.584183
 30
0.0
 11
-60.369644
 21
447.284184
 31
0.0
210
0.0
220
0.0
230
1.0
  0
LINE
  5
279
100
AcDbEntity
  8
0
 62
     7
100
AcDbLine
 10
12.380356
 20
422.584183
 30
0.0
 11
42.130356
 21
422.584183
 31
0.0
210
0.0
220
0.0
230
1.0
  0
LINE
  5
27A
100
AcDbEntity
  8
0
 62
     7
100
AcDbLine
 10
-57.869644
 20
422.584183
 30
0.0
 11
-28.119644
 21
422.584183
 31
0.0
210
0.0
220
0.0
230
1.0
  0
LINE
  5
27B
100
AcDbEntity
  8
0
 62
     7
100
AcDbLine
 10
-22.619644
 20
422.584183
 30
0.0
 11
6.880356
 21
422.584183
 31
0.0
210
0.0
220
0.0
230
1.0
  0
LINE
  5
27C
100
AcDbEntity
  8
0
 62
     7
 48
0.03125
100
AcDbLine
 10
-28.119644
 20
422.584183
 30
0.0
 11
-26.869644
 21
422.584183
 31
0.0
210
0.0
220
0.0
230
1.0
  0
LINE
  5
27D
100
AcDbEntity
  8
0
 62
     7
 48
0.03125
100
AcDbLine
 10
-23.869644
 20
422.584183
 30
0.0
 11
-22.619644
 21
422.584183
 31
0.0
210
0.0
220
0.0
230
1.0
  0
LINE
  5
27E
100
AcDbEntity
  8
0
 62
     7
 48
0.03125
100
AcDbLine
 10
11.130356
 20
422.584183
 30
0.0
 11
12.380356
 21
422.584183
 31
0.0
210
0.0
220
0.0
230
1.0
  0
LINE
  5
27F
100
AcDbEntity
  8
0
 62
     7
 48
0.03125
100
AcDbLine
 10
6.880356
 20
422.584183
 30
0.0
 11
8.130356
 21
422.584183
 31
0.0
210
0.0
220
0.0
230
1.0
  0
LINE
  5
280
100
AcDbEntity
  8
0
 62
     7
 48
0.025
100
AcDbLine
 10
-58.869644
 20
424.584183
 30
0.0
 11
-57.869644
 21
424.584183
 31
0.0
210
0.0
220
0.0
230
1.0
  0
LINE
  5
281
100
AcDbEntity
  8
0
 62
     7
 48
0.0375
100
AcDbLine
 10
-58.369644
 20
427.584183
 30
0.0
 11
-56.869644
 21
427.584183
 31
0.0
210
0.0
220
0.0
230
1.0
  0
CIRCLE
  5
282
100
AcDbEntity
  8
0
 62
     7
100
AcDbCircle
 10
-7.869644
 20
425.584183
 30
0.0
 40
1.1
210
0.0
220
0.0
230
1.0
  0
LINE
  5
283
100
AcDbEntity
  8
0
 62
     7
 48
0.125
100
AcDbLine
 10
-22.619644
 20
423.584183
 30
0.0
 11
-22.619644
 21
428.584183
 31
0.0
210
0.0
220
0.0
230
1.0
  0
LINE
  5
284
100
AcDbEntity
  8
0
 62
     7
 48
0.125
100
AcDbLine
 10
-28.119644
 20
423.584183
 30
0.0
 11
-28.119644
 21
428.584183
 31
0.0
210
0.0
220
0.0
230
1.0
  0
LINE
  5
285
100
AcDbEntity
  8
0
 62
     7
 48
0.125
100
AcDbLine
 10
6.880356
 20
423.584183
 30
0.0
 11
6.880356
 21
428.584183
 31
0.0
210
0.0
220
0.0
230
1.0
  0
LINE
  5
286
100
AcDbEntity
  8
0
 62
     7
 48
0.125
100
AcDbLine
 10
12.380356
 20
423.584183
 30
0.0
 11
12.380356
 21
428.584183
 31
0.0
210
0.0
220
0.0
230
1.0
  0
LINE
  5
287
100
AcDbEntity
  8
0
 62
     7
 48
0.075
100
AcDbLine
 10
41.130356
 20
424.584183
 30
0.0
 11
41.130356
 21
427.584183
 31
0.0
210
0.0
220
0.0
230
1.0
  0
LINE
  5
288
100
AcDbEntity
  8
0
 62
     7
 48
0.025
100
AcDbLine
 10
41.130356
 20
424.584183
 30
0.0
 11
42.130356
 21
424.584183
 31
0.0
210
0.0
220
0.0
230
1.0
  0
LINE
  5
289
100
AcDbEntity
  8
0
 62
     7
 48
0.025
100
AcDbLine
 10
-56.869644
 20
427.584183
 30
0.0
 11
-56.869644
 21
428.584183
 31
0.0
210
0.0
220
0.0
230
1.0
  0
LINE
  5
28A
100
AcDbEntity
  8
0
 62
     7
 48
0.025
100
AcDbLine
 10
41.130356
 20
427.584183
 30
0.0
 11
41.130356
 21
428.584183
 31
0.0
210
0.0
220
0.0
230
1.0
  0
LINE
  5
28B
100
AcDbEntity
  8
0
 62
     7
100
AcDbLine
 10
-22.619644
 20
428.584183
 30
0.0
 11
6.880356
 21
428.584183
 31
0.0
210
0.0
220
0.0
230
1.0
  0
LINE
  5
28C
100
AcDbEntity
  8
0
 62
     7
100
AcDbLine
 10
-56.869644
 20
428.584183
 30
0.0
 11
-28.119644
 21
428.584183
 31
0.0
210
0.0
220
0.0
230
1.0
  0
LINE
  5
28D
100
AcDbEntity
  8
0
 62
     7
100
AcDbLine
 10
12.380356
 20
428.584183
 30
0.0
 11
41.130356
 21
428.584183
 31
0.0
210
0.0
220
0.0
230
1.0
  0
LINE
  5
28E
100
AcDbEntity
  8
0
 62
     7
 48
0.025
100
AcDbLine
 10
-57.869644
 20
424.584183
 30
0.0
 11
-56.869644
 21
424.584183
 31
0.0
210
0.0
220
0.0
230
1.0
  0
LINE
  5
28F
100
AcDbEntity
  8
0
 62
     7
 48
0.075
100
AcDbLine
 10
-56.869644
 20
424.584183
 30
0.0
 11
-56.869644
 21
427.584183
 31
0.0
210
0.0
220
0.0
230
1.0
  0
LINE
  5
290
100
AcDbEntity
  8
0
  6
DASHDOT
 62
     7
 48
0.12705
100
AcDbLine
 10
7.110356
 20
558.584183
 30
0.0
 11
12.192357
 21
558.584183
 31
0.0
210
0.0
220
0.0
230
1.0
  0
LINE
  5
291
100
AcDbEntity
  8
0
  6
DASHDOT
 62
     7
 48
0.126
100
AcDbLine
 10
9.630356
 20
556.064178
 30
0.0
 11
9.630356
 21
561.104187
 31
0.0
210
0.0
220
0.0
230
1.0
  0
LINE
  5
292
100
AcDbEntity
  8
0
  6
DASHDOT
 62
     7
 48
0.12705
100
AcDbLine
 10
-27.889644
 20
558.584183
 30
0.0
 11
-22.807643
 21
558.584183
 31
0.0
210
0.0
220
0.0
230
1.0
  0
LINE
  5
293
100
AcDbEntity
  8
0
  6
DASHDOT
 62
     7
 48
0.126
100
AcDbLine
 10
-25.369644
 20
556.064178
 30
0.0
 11
-25.369644
 21
561.104187
 31
0.0
210
0.0
220
0.0
230
1.0
  0
LINE
  5
294
100
AcDbEntity
  8
0
  6
DASHDOT
 62
     7
 48
0.12705
100
AcDbLine
 10
7.110356
 20
436.584183
 30
0.0
 11
12.192357
 21
436.584183
 31
0.0
210
0.0
220
0.0
230
1.0
  0
LINE
  5
295
100
AcDbEntity
  8
0
  6
DASHDOT
 62
     7
 48
0.126
100
AcDbLine
 10
9.630356
 20
434.064182
 30
0.0
 11
9.630356
 21
439.104183
 31
0.0
210
0.0
220
0.0
230
1.0
  0
LINE
  5
296
100
AcDbEntity
  8
0
  6
DASHDOT
 62
     7
 48
0.12705
100
AcDbLine
 10
-27.889644
 20
436.584183
 30
0.0
 11
-22.807643
 21
436.584183
 31
0.0
210
0.0
220
0.0
230
1.0
  0
LINE
  5
297
100
AcDbEntity
  8
0
  6
DASHDOT
 62
     7
 48
0.126
100
AcDbLine
 10
-25.369644
 20
434.064182
 30
0.0
 11
-25.369644
 21
439.104183
 31
0.0
210
0.0
220
0.0
230
1.0
  0
LINE
  5
298
100
AcDbEntity
  8
0
  6
DASHDOT
 62
     7
 48
0.12705
100
AcDbLine
 10
-27.889644
 20
436.584183
 30
0.0
 11
-22.807643
 21
436.584183
 31
0.0
210
0.0
220
0.0
230
1.0
  0
LINE
  5
299
100
AcDbEntity
  8
0
  6
DASHDOT
 62
     7
 48
0.126
100
AcDbLine
 10
-25.369644
 20
434.064182
 30
0.0
 11
-25.369644
 21
439.104183
 31
0.0
210
0.0
220
0.0
230
1.0
  0
LINE
  5
29A
100
AcDbEntity
  8
0
  6
DASHDOT
 62
     7
 48
0.12705
100
AcDbLine
 10
-27.889644
 20
436.584183
 30
0.0
 11
-22.807643
 21
436.584183
 31
0.0
210
0.0
220
0.0
230
1.0
  0
LINE
  5
29B
100
AcDbEntity
  8
0
  6
DASHDOT
 62
     7
 48
0.126
100
AcDbLine
 10
-25.369644
 20
434.064182
 30
0.0
 11
-25.369644
 21
439.104183
 31
0.0
210
0.0
220
0.0
230
1.0
  0
LINE
  5
29C
100
AcDbEntity
  8
0
  6
DASHDOT
 62
     7
 48
0.27225
100
AcDbLine
 10
-30.769645
 20
436.584183
 30
0.0
 11
-19.879642
 21
436.584183
 31
0.0
210
0.0
220
0.0
230
1.0
  0
LINE
  5
29D
100
AcDbEntity
  8
0
  6
DASHDOT
 62
     7
 48
0.27
100
AcDbLine
 10
-25.369644
 20
431.184183
 30
0.0
 11
-25.369644
 21
441.984184
 31
0.0
210
0.0
220
0.0
230
1.0
  0
LINE
  5
29E
100
AcDbEntity
  8
0
  6
DASHDOT
 62
     7
 48
0.257125
100
AcDbLine
 10
-30.469642
 20
558.584183
 30
0.0
 11
-20.184642
 21
558.584183
 31
0.0
210
0.0
220
0.0
230
1.0
  0
LINE
  5
29F
100
AcDbEntity
  8
0
  6
DASHDOT
 62
     7
 48
0.255
100
AcDbLine
 10
-25.369644
 20
553.484177
 30
0.0
 11
-25.369644
 21
563.684189
 31
0.0
210
0.0
220
0.0
230
1.0
  0
LINE
  5
2A0
100
AcDbEntity
  8
0
  6
DASHDOT
 62
     7
 48
0.257125
100
AcDbLine
 10
4.530356
 20
436.584183
 30
0.0
 11
14.815356
 21
436.584183
 31
0.0
210
0.0
220
0.0
230
1.0
  0
LINE
  5
2A1
100
AcDbEntity
  8
0
  6
DASHDOT
 62
     7
 48
0.255
100
AcDbLine
 10
9.630356
 20
431.484182
 30
0.0
 11
9.630356
 21
441.684181
 31
0.0
210
0.0
220
0.0
230
1.0
  0
LINE
  5
2A2
100
AcDbEntity
  8
0
  6
DASHDOT
 62
     7
 48
0.36
100
AcDbLine
 10
-7.869644
 20
432.384182
 30
0.0
 11
-7.869644
 21
446.784184
 31
0.0
210
0.0
220
0.0
230
1.0
  0
LINE
  5
2A3
100
AcDbEntity
  8
0
  6
DASHDOT
 62
     7
 48
0.12705
100
AcDbLine
 10
-27.889644
 20
558.584183
 30
0.0
 11
-22.807643
 21
558.584183
 31
0.0
210
0.0
220
0.0
230
1.0
  0
LINE
  5
2A4
100
AcDbEntity
  8
0
  6
DASHDOT
 62
     7
 48
0.126
100
AcDbLine
 10
-25.369644
 20
556.064178
 30
0.0
 11
-25.369644
 21
561.104187
 31
0.0
210
0.0
220
0.0
230
1.0
  0
LINE
  5
2A5
100
AcDbEntity
  8
0
  6
DASHDOT
 62
     7
 48
0.12705
100
AcDbLine
 10
-27.889644
 20
558.584183
 30
0.0
 11
-22.807643
 21
558.584183
 31
0.0
210
0.0
220
0.0
230
1.0
  0
LINE
  5
2A6
100
AcDbEntity
  8
0
  6
DASHDOT
 62
     7
 48
0.126
100
AcDbLine
 10
-25.369644
 20
556.064178
 30
0.0
 11
-25.369644
 21
561.104187
 31
0.0
210
0.0
220
0.0
230
1.0
  0
LINE
  5
2A7
100
AcDbEntity
  8
0
  6
DASHDOT
 62
     7
 48
0.06655
100
AcDbLine
 10
-9.189643
 20
569.584183
 30
0.0
 11
-6.527645
 21
569.584183
 31
0.0
210
0.0
220
0.0
230
1.0
  0
LINE
  5
2A8
100
AcDbEntity
  8
0
  6
DASHDOT
 62
     7
 48
0.066
100
AcDbLine
 10
-7.869644
 20
568.264175
 30
0.0
 11
-7.869644
 21
570.90419
 31
0.0
210
0.0
220
0.0
230
1.0
  0
LINE
  5
2A9
100
AcDbEntity
  8
0
  6
DASHDOT
 62
     7
 48
0.12705
100
AcDbLine
 10
-27.889644
 20
436.584183
 30
0.0
 11
-22.807643
 21
436.584183
 31
0.0
210
0.0
220
0.0
230
1.0
  0
LINE
  5
2AA
100
AcDbEntity
  8
0
  6
DASHDOT
 62
     7
 48
0.126
100
AcDbLine
 10
-25.369644
 20
434.064182
 30
0.0
 11
-25.369644
 21
439.104183
 31
0.0
210
0.0
220
0.0
230
1.0
  0
LINE
  5
2AB
100
AcDbEntity
  8
0
  6
DASHDOT
 62
     7
 48
0.12705
100
AcDbLine
 10
-27.889644
 20
436.584183
 30
0.0
 11
-22.807643
 21
436.584183
 31
0.0
210
0.0
220
0.0
230
1.0
  0
LINE
  5
2AC
100
AcDbEntity
  8
0
  6
DASHDOT
 62
     7
 48
0.126
100
AcDbLine
 10
-25.369644
 20
434.064182
 30
0.0
 11
-25.369644
 21
439.104183
 31
0.0
210
0.0
220
0.0
230
1.0
  0
LINE
  5
2AD
100
AcDbEntity
  8
0
  6
DASHDOT
 62
     7
 48
0.12705
100
AcDbLine
 10
7.110356
 20
436.584183
 30
0.0
 11
12.192357
 21
436.584183
 31
0.0
210
0.0
220
0.0
230
1.0
  0
LINE
  5
2AE
100
AcDbEntity
  8
0
  6
DASHDOT
 62
     7
 48
0.126
100
AcDbLine
 10
9.630356
 20
434.064182
 30
0.0
 11
9.630356
 21
439.104183
 31
0.0
210
0.0
220
0.0
230
1.0
  0
LINE
  5
2AF
100
AcDbEntity
  8
0
  6
DASHDOT
 62
     7
 48
0.12705
100
AcDbLine
 10
7.110356
 20
436.584183
 30
0.0
 11
12.192357
 21
436.584183
 31
0.0
210
0.0
220
0.0
230
1.0
  0
LINE
  5
2B0
100
AcDbEntity
  8
0
  6
DASHDOT
 62
     7
 48
0.126
100
AcDbLine
 10
9.630356
 20
434.064182
 30
0.0
 11
9.630356
 21
439.104183
 31
0.0
210
0.0
220
0.0
230
1.0
  0
LINE
  5
2B1
100
AcDbEntity
  8
0
  6
DASHDOT
 62
     7
 48
0.06655
100
AcDbLine
 10
-9.189643
 20
425.584183
 30
0.0
 11
-6.527645
 21
425.584183
 31
0.0
210
0.0
220
0.0
230
1.0
  0
LINE
  5
2B2
100
AcDbEntity
  8
0
  6
DASHDOT
 62
     7
 48
0.066
100
AcDbLine
 10
-7.869644
 20
424.264183
 30
0.0
 11
-7.869644
 21
426.904182
 31
0.0
210
0.0
220
0.0
230
1.0
  0
ARC
  5
2B3
100
AcDbEntity
  8
0
 62
     7
100
AcDbCircle
 10
9.630356
 20
558.584183
 30
0.0
 40
2.1
210
0.0
220
0.0
230
1.0
100
AcDbArc
 50
125.692856
 51
228.045101
  0
ARC
  5
2B4
100
AcDbEntity
  8
0
 62
     7
100
AcDbCircle
 10
9.630356
 20
558.584183
 30
0.0
 40
2.1
210
0.0
220
0.0
230
1.0
100
AcDbArc
 50
312.351517
 51
315.296833
  0
ARC
  5
2B5
100
AcDbEntity
  8
0
 62
     7
100
AcDbCircle
 10
9.630356
 20
558.584183
 30
0.0
 40
2.1
210
0.0
220
0.0
230
1.0
100
AcDbArc
 50
316.492253
 51
45.055309
  0
ARC
  5
2B6
100
AcDbEntity
  8
0
 62
     7
100
AcDbCircle
 10
9.630356
 20
558.584183
 30
0.0
 40
2.1
210
0.0
220
0.0
230
1.0
100
AcDbArc
 50
225.027264
 51
251.698181
  0
ARC
  5
2B7
100
AcDbEntity
  8
0
 62
     7
100
AcDbCircle
 10
9.630356
 20
558.584183
 30
0.0
 40
2.1
210
0.0
220
0.0
230
1.0
100
AcDbArc
 50
295.015568
 51
314.431282
  0
CIRCLE
  5
2B8
100
AcDbEntity
  8
0
 62
     7
100
AcDbCircle
 10
9.630356
 20
558.584183
 30
0.0
 40
4.25
210
0.0
220
0.0
230
1.0
  0
ARC
  5
2B9
100
AcDbEntity
  8
0
 62
     7
100
AcDbCircle
 10
9.630356
 20
558.584183
 30
0.0
 40
2.1
210
0.0
220
0.0
230
1.0
100
AcDbArc
 50
0.0
 51
180.000005
  0
ARC
  5
2BA
100
AcDbEntity
  8
0
 62
     7
100
AcDbCircle
 10
9.630356
 20
558.584183
 30
0.0
 40
2.1
210
0.0
220
0.0
230
1.0
100
AcDbArc
 50
314.415356
 51
360.0
  0
ARC
  5
2BB
100
AcDbEntity
  8
0
 62
     7
100
AcDbCircle
 10
9.630356
 20
558.584183
 30
0.0
 40
2.1
210
0.0
220
0.0
230
1.0
100
AcDbArc
 50
225.582952
 51
314.415356
  0
ARC
  5
2BC
100
AcDbEntity
  8
0
 62
     7
100
AcDbCircle
 10
9.630356
 20
558.584183
 30
0.0
 40
2.1
210
0.0
220
0.0
230
1.0
100
AcDbArc
 50
180.000005
 51
225.582952
  0
LINE
  5
2BD
100
AcDbEntity
  8
0
  6
DASHDOT
 62
     7
 48
0.12705
100
AcDbLine
 10
12.150357
 20
558.584183
 30
0.0
 11
7.068356
 21
558.584183
 31
0.0
210
0.0
220
0.0
230
1.0
  0
LINE
  5
2BE
100
AcDbEntity
  8
0
  6
DASHDOT
 62
     7
 48
0.126
100
AcDbLine
 10
9.630356
 20
556.064178
 30
0.0
 11
9.630356
 21
561.104187
 31
0.0
210
0.0
220
0.0
230
1.0
  0
LINE
  5
2BF
100
AcDbEntity
  8
0
  6
DASHDOT
 62
     7
 48
0.257125
100
AcDbLine
 10
14.730357
 20
558.584183
 30
0.0
 11
4.445357
 21
558.584183
 31
0.0
210
0.0
220
0.0
230
1.0
  0
LINE
  5
2C0
100
AcDbEntity
  8
0
  6
DASHDOT
 62
     7
 48
0.12705
100
AcDbLine
 10
12.150357
 20
558.584183
 30
0.0
 11
7.068356
 21
558.584183
 31
0.0
210
0.0
220
0.0
230
1.0
  0
LINE
  5
2C1
100
AcDbEntity
  8
0
  6
DASHDOT
 62
     7
 48
0.126
100
AcDbLine
 10
9.630356
 20
556.064178
 30
0.0
 11
9.630356
 21
561.104187
 31
0.0
210
0.0
220
0.0
230
1.0
  0
LINE
  5
2C2
100
AcDbEntity
  8
0
  6
DASHDOT
 62
     7
 48
0.12705
100
AcDbLine
 10
12.150357
 20
558.584183
 30
0.0
 11
7.068356
 21
558.584183
 31
0.0
210
0.0
220
0.0
230
1.0
  0
LINE
  5
2C3
100
AcDbEntity
  8
0
  6
DASHDOT
 62
     7
 48
0.126
100
AcDbLine
 10
9.630356
 20
556.064178
 30
0.0
 11
9.630356
 21
561.104187
 31
0.0
210
0.0
220
0.0
230
1.0
  0
ARC
  5
2C4
100
AcDbEntity
  8
0
 62
     7
100
AcDbCircle
 10
9.630356
 20
558.584183
 30
0.0
 40
2.1
210
0.0
220
0.0
230
1.0
100
AcDbArc
 50
125.692856
 51
228.045101
  0
ARC
  5
2C5
100
AcDbEntity
  8
0
 62
     7
100
AcDbCircle
 10
9.630356
 20
558.584183
 30
0.0
 40
2.1
210
0.0
220
0.0
230
1.0
100
AcDbArc
 50
312.351517
 51
315.296833
  0
ARC
  5
2C6
100
AcDbEntity
  8
0
 62
     7
100
AcDbCircle
 10
9.630356
 20
558.584183
 30
0.0
 40
2.1
210
0.0
220
0.0
230
1.0
100
AcDbArc
 50
316.492253
 51
45.055309
  0
ARC
  5
2C7
100
AcDbEntity
  8
0
 62
     7
100
AcDbCircle
 10
9.630356
 20
558.584183
 30
0.0
 40
2.1
210
0.0
220
0.0
230
1.0
100
AcDbArc
 50
225.027264
 51
251.698181
  0
ARC
  5
2C8
100
AcDbEntity
  8
0
 62
     7
100
AcDbCircle
 10
9.630356
 20
558.584183
 30
0.0
 40
2.1
210
0.0
220
0.0
230
1.0
100
AcDbArc
 50
295.015568
 51
314.431282
  0
LINE
  5
2C9
100
AcDbEntity
  8
0
 62
     7
 48
0.0325
100
AcDbLine
 10
37.780358
 20
547.884186
 30
0.0
 11
36.480355
 21
547.884186
 31
0.0
210
0.0
220
0.0
230
1.0
  0
LINE
  5
2CA
100
AcDbEntity
  8
0
 62
     7
 48
0.0325
100
AcDbLine
 10
32.380356
 20
547.884186
 30
0.0
 11
31.080353
 21
547.884186
 31
0.0
210
0.0
220
0.0
230
1.0
  0
LINE
  5
2CB
100
AcDbEntity
  8
0
 62
     7
 48
0.0325
100
AcDbLine
 10
34.180359
 20
547.884186
 30
0.0
 11
32.880356
 21
547.884186
 31
0.0
210
0.0
220
0.0
230
1.0
  0
LINE
  5
2CC
100
AcDbEntity
  8
0
 62
     7
 48
0.0325
100
AcDbLine
 10
35.980355
 20
547.884186
 30
0.0
 11
34.680359
 21
547.884186
 31
0.0
210
0.0
220
0.0
230
1.0
  0
LINE
  5
2CD
100
AcDbEntity
  8
0
 62
     7
 48
0.0325
100
AcDbLine
 10
39.580353
 20
547.884186
 30
0.0
 11
38.280358
 21
547.884186
 31
0.0
210
0.0
220
0.0
230
1.0
  0
LINE
  5
2CE
100
AcDbEntity
  8
0
 62
     7
 48
0.11375
100
AcDbLine
 10
44.630356
 20
547.884186
 30
0.0
 11
40.080353
 21
547.884186
 31
0.0
210
0.0
220
0.0
230
1.0
  0
CIRCLE
  5
2CF
100
AcDbEntity
  8
0
 62
     7
100
AcDbCircle
 10
9.630356
 20
558.584183
 30
0.0
 40
4.25
210
0.0
220
0.0
230
1.0
  0
CIRCLE
  5
2D0
100
AcDbEntity
  8
0
 62
     7
100
AcDbCircle
 10
27.130356
 20
555.584183
 30
0.0
 40
6.0
210
0.0
220
0.0
230
1.0
  0
LINE
  5
2D1
100
AcDbEntity
  8
0
 62
     7
 48
0.0175
100
AcDbLine
 10
43.930357
 20
547.884186
 30
0.0
 11
43.930357
 21
548.584183
 31
0.0
210
0.0
220
0.0
230
1.0
  0
LINE
  5
2D2
100
AcDbEntity
  8
0
 62
     7
 48
0.0575
100
AcDbLine
 10
43.930359
 20
548.584183
 30
0.0
 11
41.630356
 21
548.584183
 31
0.0
210
0.0
220
0.0
230
1.0
  0
LINE
  5
2D3
100
AcDbEntity
  8
0
 62
     7
 48
0.45
100
AcDbLine
 10
43.130356
 20
548.584183
 30
0.0
 11
43.130356
 21
566.584183
 31
0.0
210
0.0
220
0.0
230
1.0
  0
LINE
  5
2D4
100
AcDbEntity
  8
0
 62
     7
 48
0.05
100
AcDbLine
 10
43.130356
 20
566.584183
 30
0.0
 11
41.130356
 21
566.584183
 31
0.0
210
0.0
220
0.0
230
1.0
  0
LINE
  5
2D5
100
AcDbEntity
  8
0
 62
     7
 48
0.0125
100
AcDbLine
 10
34.680359
 20
547.884186
 30
0.0
 11
34.180359
 21
547.884186
 31
0.0
210
0.0
220
0.0
230
1.0
  0
LINE
  5
2D6
100
AcDbEntity
  8
0
 62
     7
 48
0.0125
100
AcDbLine
 10
36.480355
 20
547.884186
 30
0.0
 11
35.980355
 21
547.884186
 31
0.0
210
0.0
220
0.0
230
1.0
  0
LINE
  5
2D7
100
AcDbEntity
  8
0
 62
     7
 48
0.0125
100
AcDbLine
 10
31.080353
 20
547.884186
 30
0.0
 11
30.580353
 21
547.884186
 31
0.0
210
0.0
220
0.0
230
1.0
  0
LINE
  5
2D8
100
AcDbEntity
  8
0
 62
     7
 48
0.0125
100
AcDbLine
 10
32.880356
 20
547.884186
 30
0.0
 11
32.380356
 21
547.884186
 31
0.0
210
0.0
220
0.0
230
1.0
  0
LINE
  5
2D9
100
AcDbEntity
  8
0
 62
     7
 48
0.0125
100
AcDbLine
 10
38.280358
 20
547.884186
 30
0.0
 11
37.780358
 21
547.884186
 31
0.0
210
0.0
220
0.0
230
1.0
  0
LINE
  5
2DA
100
AcDbEntity
  8
0
 62
     7
 48
0.0125
100
AcDbLine
 10
40.080353
 20
547.884186
 30
0.0
 11
39.580353
 21
547.884186
 31
0.0
210
0.0
220
0.0
230
1.0
  0
LINE
  5
2DB
100
AcDbEntity
  8
0
 62
     7
 48
0.06875
100
AcDbLine
 10
44.630356
 20
547.884186
 30
0.0
 11
41.880356
 21
547.884186
 31
0.0
210
0.0
220
0.0
230
1.0
  0
LINE
  5
2DC
100
AcDbEntity
  8
0
 62
     7
 48
0.0125
100
AcDbLine
 10
41.880356
 20
547.884186
 30
0.0
 11
41.380356
 21
547.884186
 31
0.0
210
0.0
220
0.0
230
1.0
  0
LINE
  5
2DD
100
AcDbEntity
  8
0
 62
     7
100
AcDbLine
 10
41.130356
 20
566.584183
 30
0.0
 11
12.630356
 21
566.584183
 31
0.0
210
0.0
220
0.0
230
1.0
  0
LINE
  5
2DE
100
AcDbEntity
  8
0
 62
     7
 48
0.025
100
AcDbLine
 10
41.130356
 20
566.584183
 30
0.0
 11
41.130356
 21
567.584183
 31
0.0
210
0.0
220
0.0
230
1.0
  0
ARC
  5
2DF
100
AcDbEntity
  8
0
 62
     7
100
AcDbCircle
 10
9.630356
 20
558.584183
 30
0.0
 40
2.1
210
0.0
220
0.0
230
1.0
100
AcDbArc
 50
0.0
 51
180.000005
  0
ARC
  5
2E0
100
AcDbEntity
  8
0
 62
     7
100
AcDbCircle
 10
9.630356
 20
558.584183
 30
0.0
 40
2.1
210
0.0
220
0.0
230
1.0
100
AcDbArc
 50
314.415356
 51
360.0
  0
ARC
  5
2E1
100
AcDbEntity
  8
0
 62
     7
100
AcDbCircle
 10
9.630356
 20
558.584183
 30
0.0
 40
2.1
210
0.0
220
0.0
230
1.0
100
AcDbArc
 50
225.582952
 51
314.415356
  0
ARC
  5
2E2
100
AcDbEntity
  8
0
 62
     7
100
AcDbCircle
 10
9.630356
 20
558.584183
 30
0.0
 40
2.1
210
0.0
220
0.0
230
1.0
100
AcDbArc
 50
180.000005
 51
225.582952
  0
LINE
  5
2E3
100
AcDbEntity
  8
0
 62
     7
 48
0.025
100
AcDbLine
 10
42.130356
 20
570.584183
 30
0.0
 11
41.130356
 21
570.584183
 31
0.0
210
0.0
220
0.0
230
1.0
  0
LINE
  5
2E4
100
AcDbEntity
  8
0
 62
     7
 48
0.075
100
AcDbLine
 10
41.130356
 20
567.584183
 30
0.0
 11
41.130356
 21
570.584183
 31
0.0
210
0.0
220
0.0
230
1.0
  0
LINE
  5
2E5
100
AcDbEntity
  8
0
 62
     7
 48
0.0375
100
AcDbLine
 10
42.630356
 20
567.584183
 30
0.0
 11
41.130356
 21
567.584183
 31
0.0
210
0.0
220
0.0
230
1.0
  0
LINE
  5
2E6
100
AcDbEntity
  8
0
 62
     7
 48
0.025
100
AcDbLine
 10
42.630356
 20
566.584183
 30
0.0
 11
42.630356
 21
567.584183
 31
0.0
210
0.0
220
0.0
230
1.0
  0
LINE
  5
2E7
100
AcDbEntity
  8
0
 62
     7
 48
0.0375
100
AcDbLine
 10
44.630356
 20
566.584183
 30
0.0
 11
43.130356
 21
566.584183
 31
0.0
210
0.0
220
0.0
230
1.0
  0
LINE
  5
2E8
100
AcDbEntity
  8
0
 62
     7
 48
0.4675
100
AcDbLine
 10
44.630356
 20
547.884186
 30
0.0
 11
44.630356
 21
566.584183
 31
0.0
210
0.0
220
0.0
230
1.0
  0
LINE
  5
2E9
100
AcDbEntity
  8
0
 62
     7
 48
0.025
100
AcDbLine
 10
43.130356
 20
570.584183
 30
0.0
 11
43.130356
 21
571.584183
 31
0.0
210
0.0
220
0.0
230
1.0
  0
LINE
  5
2EA
100
AcDbEntity
  8
0
 62
     7
 48
0.025
100
AcDbLine
 10
43.130356
 20
570.584183
 30
0.0
 11
42.130356
 21
570.584183
 31
0.0
210
0.0
220
0.0
230
1.0
  0
ARC
  5
2EB
100
AcDbEntity
  8
0
 62
     7
100
AcDbCircle
 10
42.130344
 20
571.584167
 30
0.0
 40
1.000027
210
0.0
220
0.0
230
1.0
100
AcDbArc
 50
0.000717
 51
89.999285
  0
LINE
  5
2EC
100
AcDbEntity
  8
0
 62
     7
100
AcDbLine
 10
42.130356
 20
572.584183
 30
0.0
 11
12.630356
 21
572.584183
 31
0.0
210
0.0
220
0.0
230
1.0
  0
LINE
  5
2ED
100
AcDbEntity
  8
0
 62
     7
 48
0.125
100
AcDbLine
 10
6.630356
 20
566.584183
 30
0.0
 11
6.630356
 21
571.584183
 31
0.0
210
0.0
220
0.0
230
1.0
  0
LINE
  5
2EE
100
AcDbEntity
  8
0
 62
     7
 48
0.025
100
AcDbLine
 10
6.630356
 20
571.584183
 30
0.0
 11
6.630356
 21
572.584183
 31
0.0
210
0.0
220
0.0
230
1.0
  0
LINE
  5
2EF
100
AcDbEntity
  8
0
 62
     7
 48
0.125
100
AcDbLine
 10
12.630356
 20
566.584183
 30
0.0
 11
12.630356
 21
571.584183
 31
0.0
210
0.0
220
0.0
230
1.0
  0
LINE
  5
2F0
100
AcDbEntity
  8
0
 62
     7
 48
0.025
100
AcDbLine
 10
12.630356
 20
571.584183
 30
0.0
 11
12.630356
 21
572.584183
 31
0.0
210
0.0
220
0.0
230
1.0
  0
LINE
  5
2F1
100
AcDbEntity
  8
0
 62
     7
 48
0.15
100
AcDbLine
 10
12.630356
 20
568.584183
 30
0.0
 11
6.630356
 21
568.584183
 31
0.0
210
0.0
220
0.0
230
1.0
  0
LINE
  5
2F2
100
AcDbEntity
  8
0
 62
     7
 48
0.0375
100
AcDbLine
 10
12.630356
 20
572.584183
 30
0.0
 11
11.130356
 21
572.584183
 31
0.0
210
0.0
220
0.0
230
1.0
  0
LINE
  5
2F3
100
AcDbEntity
  8
0
 62
     7
 48
0.0375
100
AcDbLine
 10
12.630356
 20
570.584183
 30
0.0
 11
11.130356
 21
570.584183
 31
0.0
210
0.0
220
0.0
230
1.0
  0
LINE
  5
2F4
100
AcDbEntity
  8
0
 62
     7
 48
0.05
100
AcDbLine
 10
11.130356
 20
570.584183
 30
0.0
 11
11.130356
 21
572.584183
 31
0.0
210
0.0
220
0.0
230
1.0
  0
LINE
  5
2F5
100
AcDbEntity
  8
0
 62
     7
 48
0.0375
100
AcDbLine
 10
8.130356
 20
572.584183
 30
0.0
 11
6.630356
 21
572.584183
 31
0.0
210
0.0
220
0.0
230
1.0
  0
LINE
  5
2F6
100
AcDbEntity
  8
0
 62
     7
 48
0.05
100
AcDbLine
 10
8.130356
 20
570.584183
 30
0.0
 11
8.130356
 21
572.584183
 31
0.0
210
0.0
220
0.0
230
1.0
  0
LINE
  5
2F7
100
AcDbEntity
  8
0
 62
     7
 48
0.0375
100
AcDbLine
 10
8.130356
 20
570.584183
 30
0.0
 11
6.630356
 21
570.584183
 31
0.0
210
0.0
220
0.0
230
1.0
  0
LINE
  5
2F8
100
AcDbEntity
  8
0
  6
DASHDOT
 62
     7
 48
0.126
100
AcDbLine
 10
9.630356
 20
556.064178
 30
0.0
 11
9.630356
 21
561.104187
 31
0.0
210
0.0
220
0.0
230
1.0
  0
LINE
  5
2F9
100
AcDbEntity
  8
0
 62
     7
100
AcDbLine
 10
41.630356
 20
548.584183
 30
0.0
 11
-25.369644
 21
548.584183
 31
0.0
210
0.0
220
0.0
230
1.0
  0
LINE
  5
2FA
100
AcDbEntity
  8
0
 62
     7
100
AcDbLine
 10
-32.27156
 20
529.584183
 30
0.0
 11
3.699364
 21
529.584183
 31
0.0
210
0.0
220
0.0
230
1.0
  0
LINE
  5
2FB
100
AcDbEntity
  8
0
 62
     7
 48
0.0025
100
AcDbLine
 10
19.630312
 20
508.484215
 30
0.0
 11
19.630312
 21
508.584213
 31
0.0
210
0.0
220
0.0
230
1.0
  0
LINE
  5
2FC
100
AcDbEntity
  8
0
 62
     7
100
AcDbLine
 10
30.230312
 20
466.884209
 30
0.0
 11
30.230312
 21
508.28421
 31
0.0
210
0.0
220
0.0
230
1.0
  0
LINE
  5
2FD
100
AcDbEntity
  8
0
 62
     7
100
AcDbLine
 10
-45.969688
 20
466.884209
 30
0.0
 11
-45.969688
 21
508.28421
 31
0.0
210
0.0
220
0.0
230
1.0
  0
LINE
  5
2FE
100
AcDbEntity
  8
0
 62
     7
 48
0.0375
100
AcDbLine
 10
30.230312
 20
508.584213
 30
0.0
 11
30.230312
 21
510.084213
 31
0.0
210
0.0
220
0.0
230
1.0
  0
LINE
  5
2FF
100
AcDbEntity
  8
0
 62
     7
 48
0.0375
100
AcDbLine
 10
30.230312
 20
465.084213
 30
0.0
 11
30.230312
 21
466.584213
 31
0.0
210
0.0
220
0.0
230
1.0
  0
LINE
  5
300
100
AcDbEntity
  8
0
 62
     7
 48
0.0025
100
AcDbLine
 10
19.130312
 20
508.484215
 30
0.0
 11
19.130312
 21
508.584213
 31
0.0
210
0.0
220
0.0
230
1.0
  0
LINE
  5
301
100
AcDbEntity
  8
0
 62
     7
 48
0.0375
100
AcDbLine
 10
-45.969688
 20
508.584213
 30
0.0
 11
-45.969688
 21
510.084213
 31
0.0
210
0.0
220
0.0
230
1.0
  0
LINE
  5
302
100
AcDbEntity
  8
0
 62
     7
 48
0.0375
100
AcDbLine
 10
-45.969688
 20
465.084213
 30
0.0
 11
-45.969688
 21
466.584213
 31
0.0
210
0.0
220
0.0
230
1.0
  0
LINE
  5
303
100
AcDbEntity
  8
0
 62
     7
 48
0.00875
100
AcDbLine
 10
30.23031
 20
510.084213
 30
0.0
 11
30.580313
 21
510.084213
 31
0.0
210
0.0
220
0.0
230
1.0
  0
LINE
  5
304
100
AcDbEntity
  8
0
 62
     7
 48
0.00875
100
AcDbLine
 10
30.23031
 20
465.084213
 30
0.0
 11
30.580313
 21
465.084213
 31
0.0
210
0.0
220
0.0
230
1.0
  0
LINE
  5
305
100
AcDbEntity
  8
0
 62
     7
100
AcDbLine
 10
30.130312
 20
529.584183
 30
0.0
 11
-45.869689
 21
529.584183
 31
0.0
210
0.0
220
0.0
230
1.0
  0
LINE
  5
306
100
AcDbEntity
  8
0
 62
     7
100
AcDbLine
 10
30.130312
 20
453.584183
 30
0.0
 11
30.130312
 21
529.584183
 31
0.0
210
0.0
220
0.0
230
1.0
  0
LINE
  5
307
100
AcDbEntity
  8
0
 62
     7
 48
0.007621
100
AcDbLine
 10
-44.569686
 20
454.884182
 30
0.0
 11
-44.354141
 21
455.099728
 31
0.0
210
0.0
220
0.0
230
1.0
  0
LINE
  5
308
100
AcDbEntity
  8
0
 62
     7
 48
0.007621
100
AcDbLine
 10
-44.569686
 20
528.28418
 30
0.0
 11
-44.354141
 21
528.068634
 31
0.0
210
0.0
220
0.0
230
1.0
  0
LINE
  5
309
100
AcDbEntity
  8
0
 62
     7
 48
0.007655
100
AcDbLine
 10
-44.570648
 20
528.285141
 30
0.0
 11
-44.787155
 21
528.501648
 31
0.0
210
0.0
220
0.0
230
1.0
  0
LINE
  5
30A
100
AcDbEntity
  8
0
 62
     7
 48
0.007655
100
AcDbLine
 10
-44.787155
 20
454.666714
 30
0.0
 11
-44.570648
 21
454.883221
 31
0.0
210
0.0
220
0.0
230
1.0
  0
LINE
  5
30B
100
AcDbEntity
  8
0
 62
     7
 48
0.038273
100
AcDbLine
 10
28.614768
 20
455.099728
 30
0.0
 11
27.532236
 21
456.182259
 31
0.0
210
0.0
220
0.0
230
1.0
  0
LINE
  5
30C
100
AcDbEntity
  8
0
 62
     7
100
AcDbLine
 10
27.532236
 20
456.182259
 30
0.0
 11
-43.271614
 21
456.182259
 31
0.0
210
0.0
220
0.0
230
1.0
  0
LINE
  5
30D
100
AcDbEntity
  8
0
 62
     7
 48
0.038273
100
AcDbLine
 10
-44.354141
 20
455.099728
 30
0.0
 11
-43.271614
 21
456.182259
 31
0.0
210
0.0
220
0.0
230
1.0
  0
LINE
  5
30E
100
AcDbEntity
  8
0
 62
     7
 48
0.038273
100
AcDbLine
 10
-45.869689
 20
453.584183
 30
0.0
 11
-44.787155
 21
454.666714
 31
0.0
210
0.0
220
0.0
230
1.0
  0
LINE
  5
30F
100
AcDbEntity
  8
0
 62
     7
 48
0.038273
100
AcDbLine
 10
-45.869689
 20
529.584183
 30
0.0
 11
-44.787155
 21
528.501648
 31
0.0
210
0.0
220
0.0
230
1.0
  0
LINE
  5
310
100
AcDbEntity
  8
0
 62
     7
100
AcDbLine
 10
-45.869689
 20
453.584183
 30
0.0
 11
-45.869689
 21
529.584183
 31
0.0
210
0.0
220
0.0
230
1.0
  0
LINE
  5
311
100
AcDbEntity
  8
0
 62
     7
 48
0.007621
100
AcDbLine
 10
28.614768
 20
528.068634
 30
0.0
 11
28.830312
 21
528.28418
 31
0.0
210
0.0
220
0.0
230
1.0
  0
LINE
  5
312
100
AcDbEntity
  8
0
 62
     7
 48
0.007621
100
AcDbLine
 10
28.830312
 20
454.884182
 30
0.0
 11
28.614768
 21
455.099728
 31
0.0
210
0.0
220
0.0
230
1.0
  0
LINE
  5
313
100
AcDbEntity
  8
0
 62
     7
 48
0.007655
100
AcDbLine
 10
28.831274
 20
454.883221
 30
0.0
 11
29.04778
 21
454.666714
 31
0.0
210
0.0
220
0.0
230
1.0
  0
LINE
  5
314
100
AcDbEntity
  8
0
 62
     7
 48
0.007655
100
AcDbLine
 10
28.831274
 20
528.285141
 30
0.0
 11
29.04778
 21
528.501648
 31
0.0
210
0.0
220
0.0
230
1.0
  0
LINE
  5
315
100
AcDbEntity
  8
0
 62
     7
100
AcDbLine
 10
30.130312
 20
453.584183
 30
0.0
 11
30.130312
 21
529.584183
 31
0.0
210
0.0
220
0.0
230
1.0
  0
LINE
  5
316
100
AcDbEntity
  8
0
 62
     7
 48
0.038273
100
AcDbLine
 10
30.130312
 20
529.584183
 30
0.0
 11
29.04778
 21
528.501648
 31
0.0
210
0.0
220
0.0
230
1.0
  0
LINE
  5
317
100
AcDbEntity
  8
0
 62
     7
 48
0.038273
100
AcDbLine
 10
30.130312
 20
453.584183
 30
0.0
 11
29.04778
 21
454.666714
 31
0.0
210
0.0
220
0.0
230
1.0
  0
LINE
  5
318
100
AcDbEntity
  8
0
 62
     7
100
AcDbLine
 10
27.532236
 20
453.584183
 30
0.0
 11
-43.271614
 21
453.584183
 31
0.0
210
0.0
220
0.0
230
1.0
  0
LINE
  5
319
100
AcDbEntity
  8
0
 62
     7
 48
0.064952
100
AcDbLine
 10
27.532236
 20
453.584183
 30
0.0
 11
30.130312
 21
453.584183
 31
0.0
210
0.0
220
0.0
230
1.0
  0
LINE
  5
31A
100
AcDbEntity
  8
0
 62
     7
 48
0.064952
100
AcDbLine
 10
-45.869689
 20
453.584183
 30
0.0
 11
-43.271614
 21
453.584183
 31
0.0
210
0.0
220
0.0
230
1.0
  0
LINE
  5
31B
100
AcDbEntity
  8
0
 62
     7
100
AcDbLine
 10
-43.271614
 20
529.584183
 30
0.0
 11
27.532236
 21
529.584183
 31
0.0
210
0.0
220
0.0
230
1.0
  0
LINE
  5
31C
100
AcDbEntity
  8
0
 62
     7
 48
0.064952
100
AcDbLine
 10
27.532236
 20
529.584183
 30
0.0
 11
30.130312
 21
529.584183
 31
0.0
210
0.0
220
0.0
230
1.0
  0
LINE
  5
31D
100
AcDbEntity
  8
0
 62
     7
 48
0.064952
100
AcDbLine
 10
-45.869689
 20
529.584183
 30
0.0
 11
-43.271614
 21
529.584183
 31
0.0
210
0.0
220
0.0
230
1.0
  0
LINE
  5
31E
100
AcDbEntity
  8
0
 62
     7
100
AcDbLine
 10
-43.271614
 20
456.182259
 30
0.0
 11
-43.271614
 21
526.986107
 31
0.0
210
0.0
220
0.0
230
1.0
  0
LINE
  5
31F
100
AcDbEntity
  8
0
 62
     7
 48
0.038273
100
AcDbLine
 10
-44.354141
 20
528.068634
 30
0.0
 11
-43.271614
 21
526.986107
 31
0.0
210
0.0
220
0.0
230
1.0
  0
LINE
  5
320
100
AcDbEntity
  8
0
 62
     7
100
AcDbLine
 10
27.532236
 20
526.986107
 30
0.0
 11
-43.271614
 21
526.986107
 31
0.0
210
0.0
220
0.0
230
1.0
  0
LINE
  5
321
100
AcDbEntity
  8
0
 62
     7
 48
0.038273
100
AcDbLine
 10
28.614768
 20
528.068634
 30
0.0
 11
27.532236
 21
526.986107
 31
0.0
210
0.0
220
0.0
230
1.0
  0
LINE
  5
322
100
AcDbEntity
  8
0
 62
     7
100
AcDbLine
 10
27.532236
 20
456.182259
 30
0.0
 11
27.532236
 21
526.986107
 31
0.0
210
0.0
220
0.0
230
1.0
  0
LINE
  5
323
100
AcDbEntity
  8
0
 62
     7
 48
0.002507
100
AcDbLine
 10
-45.969688
 20
508.584183
 30
0.0
 11
-45.869392
 21
508.584183
 31
0.0
210
0.0
220
0.0
230
1.0
  0
LINE
  5
324
100
AcDbEntity
  8
0
 62
     7
 48
0.002507
100
AcDbLine
 10
30.130017
 20
508.584183
 30
0.0
 11
30.230312
 21
508.584183
 31
0.0
210
0.0
220
0.0
230
1.0
  0
LINE
  5
325
100
AcDbEntity
  8
0
 62
     7
 48
0.0375
100
AcDbLine
 10
-45.969688
 20
508.584183
 30
0.0
 11
-45.969688
 21
510.084183
 31
0.0
210
0.0
220
0.0
230
1.0
  0
LINE
  5
326
100
AcDbEntity
  8
0
 62
     7
 48
0.002507
100
AcDbLine
 10
-45.969688
 20
510.084183
 30
0.0
 11
-45.869392
 21
510.084183
 31
0.0
210
0.0
220
0.0
230
1.0
  0
LINE
  5
327
100
AcDbEntity
  8
0
 62
     7
100
AcDbLine
 10
-45.969688
 20
466.58419
 30
0.0
 11
-45.969688
 21
508.58419
 31
0.0
210
0.0
220
0.0
230
1.0
  0
LINE
  5
328
100
AcDbEntity
  8
0
 62
     7
 48
0.0375
100
AcDbLine
 10
-45.969688
 20
465.084187
 30
0.0
 11
-45.969688
 21
466.584183
 31
0.0
210
0.0
220
0.0
230
1.0
  0
LINE
  5
329
100
AcDbEntity
  8
0
 62
     7
100
AcDbLine
 10
30.230312
 20
466.58419
 30
0.0
 11
30.230312
 21
508.58419
 31
0.0
210
0.0
220
0.0
230
1.0
  0
LINE
  5
32A
100
AcDbEntity
  8
0
 62
     7
 48
0.0375
100
AcDbLine
 10
30.230312
 20
465.084187
 30
0.0
 11
30.230312
 21
466.584183
 31
0.0
210
0.0
220
0.0
230
1.0
  0
LINE
  5
32B
100
AcDbEntity
  8
0
 62
     7
 48
0.0375
100
AcDbLine
 10
30.230312
 20
508.584183
 30
0.0
 11
30.230312
 21
510.084183
 31
0.0
210
0.0
220
0.0
230
1.0
  0
LINE
  5
32C
100
AcDbEntity
  8
0
 62
     7
 48
0.002507
100
AcDbLine
 10
30.130017
 20
510.084183
 30
0.0
 11
30.230312
 21
510.084183
 31
0.0
210
0.0
220
0.0
230
1.0
  0
LINE
  5
32D
100
AcDbEntity
  8
0
 62
     7
 48
0.002507
100
AcDbLine
 10
30.130017
 20
466.584183
 30
0.0
 11
30.230312
 21
466.584183
 31
0.0
210
0.0
220
0.0
230
1.0
  0
LINE
  5
32E
100
AcDbEntity
  8
0
 62
     7
 48
0.002507
100
AcDbLine
 10
-45.969688
 20
466.584183
 30
0.0
 11
-45.869392
 21
466.584183
 31
0.0
210
0.0
220
0.0
230
1.0
  0
LINE
  5
32F
100
AcDbEntity
  8
0
 62
     7
 48
0.002507
100
AcDbLine
 10
30.130017
 20
465.084187
 30
0.0
 11
30.230312
 21
465.084187
 31
0.0
210
0.0
220
0.0
230
1.0
  0
LINE
  5
330
100
AcDbEntity
  8
0
 62
     7
 48
0.002507
100
AcDbLine
 10
-45.969688
 20
465.084187
 30
0.0
 11
-45.869392
 21
465.084187
 31
0.0
210
0.0
220
0.0
230
1.0
  0
LINE
  5
331
100
AcDbEntity
  8
0
  6
DASHSPACE
 62
     7
 48
0.025
100
AcDbLine
 10
-92.869644
 20
570.584183
 30
0.0
 11
-91.869644
 21
570.584183
 31
0.0
210
0.0
220
0.0
230
1.0
  0
LINE
  5
332
100
AcDbEntity
  8
0
  6
DASHSPACE
 62
     7
 48
0.075
100
AcDbLine
 10
-91.869644
 20
567.584183
 30
0.0
 11
-91.869644
 21
570.584183
 31
0.0
210
0.0
220
0.0
230
1.0
  0
LINE
  5
333
100
AcDbEntity
  8
0
  6
DASHSPACE
 62
     7
 48
0.0375
100
AcDbLine
 10
-93.369644
 20
567.584183
 30
0.0
 11
-91.869644
 21
567.584183
 31
0.0
210
0.0
220
0.0
230
1.0
  0
LINE
  5
334
100
AcDbEntity
  8
0
  6
DASHSPACE
 62
     7
 48
0.025
100
AcDbLine
 10
-93.369644
 20
566.584183
 30
0.0
 11
-93.369644
 21
567.584183
 31
0.0
210
0.0
220
0.0
230
1.0
  0
LINE
  5
335
100
AcDbEntity
  8
0
  6
DASHSPACE
 62
     7
 48
0.05
100
AcDbLine
 10
-95.369644
 20
566.584183
 30
0.0
 11
-93.369644
 21
566.584183
 31
0.0
210
0.0
220
0.0
230
1.0
  0
LINE
  5
336
100
AcDbEntity
  8
0
  6
DASHSPACE
 62
     7
 48
0.025
100
AcDbLine
 10
-93.869644
 20
570.584183
 30
0.0
 11
-93.869644
 21
571.584183
 31
0.0
210
0.0
220
0.0
230
1.0
  0
LINE
  5
337
100
AcDbEntity
  8
0
  6
DASHSPACE
 62
     7
 48
0.025
100
AcDbLine
 10
-93.869644
 20
570.584183
 30
0.0
 11
-92.869644
 21
570.584183
 31
0.0
210
0.0
220
0.0
230
1.0
  0
ARC
  5
338
100
AcDbEntity
  8
0
  6
DASHSPACE
 62
     7
100
AcDbCircle
 10
-92.869628
 20
571.584152
 30
0.0
 40
1.000027
210
0.0
220
0.0
230
1.0
100
AcDbArc
 50
90.000003
 51
179.999281
  0
LINE
  5
339
100
AcDbEntity
  8
0
  6
DASHSPACE
 62
     7
100
AcDbLine
 10
-95.369644
 20
428.584183
 30
0.0
 11
-95.369644
 21
566.584183
 31
0.0
210
0.0
220
0.0
230
1.0
  0
LINE
  5
33A
100
AcDbEntity
  8
0
  6
DASHSPACE
 62
     7
100
AcDbLine
 10
-92.869628
 20
572.584183
 30
0.0
 11
-59.118141
 21
572.584183
 31
0.0
210
0.0
220
0.0
230
1.0
  0
ARC
  5
33B
100
AcDbEntity
  8
0
  6
DASHSPACE
 62
     7
100
AcDbCircle
 10
-92.869628
 20
423.584209
 30
0.0
 40
1.000027
210
0.0
220
0.0
230
1.0
100
AcDbArc
 50
180.000715
 51
270.000001
  0
LINE
  5
33C
100
AcDbEntity
  8
0
  6
DASHSPACE
 62
     7
 48
0.025
100
AcDbLine
 10
-93.869644
 20
423.584183
 30
0.0
 11
-93.869644
 21
424.584183
 31
0.0
210
0.0
220
0.0
230
1.0
  0
LINE
  5
33D
100
AcDbEntity
  8
0
  6
DASHSPACE
 62
     7
 48
0.025
100
AcDbLine
 10
-93.369644
 20
427.584183
 30
0.0
 11
-93.369644
 21
428.584183
 31
0.0
210
0.0
220
0.0
230
1.0
  0
LINE
  5
33E
100
AcDbEntity
  8
0
  6
DASHSPACE
 62
     7
 48
0.05
100
AcDbLine
 10
-95.369644
 20
428.584183
 30
0.0
 11
-93.369644
 21
428.584183
 31
0.0
210
0.0
220
0.0
230
1.0
  0
LINE
  5
33F
100
AcDbEntity
  8
0
  6
DASHSPACE
 62
     7
 48
0.025
100
AcDbLine
 10
-93.869644
 20
424.584183
 30
0.0
 11
-92.869644
 21
424.584183
 31
0.0
210
0.0
220
0.0
230
1.0
  0
LINE
  5
340
100
AcDbEntity
  8
0
  6
DASHSPACE
 62
     7
 48
0.0375
100
AcDbLine
 10
-93.369644
 20
427.584183
 30
0.0
 11
-91.869644
 21
427.584183
 31
0.0
210
0.0
220
0.0
230
1.0
  0
LINE
  5
341
100
AcDbEntity
  8
0
  6
DASHSPACE
 62
     7
 48
0.025
100
AcDbLine
 10
-92.869644
 20
424.584183
 30
0.0
 11
-91.869644
 21
424.584183
 31
0.0
210
0.0
220
0.0
230
1.0
  0
LINE
  5
342
100
AcDbEntity
  8
0
  6
DASHSPACE
 62
     7
 48
0.075
100
AcDbLine
 10
-91.869644
 20
424.584183
 30
0.0
 11
-91.869644
 21
427.584183
 31
0.0
210
0.0
220
0.0
230
1.0
  0
LINE
  5
343
100
AcDbEntity
  8
0
  6
DASHSPACE
 62
     7
100
AcDbLine
 10
-92.869628
 20
422.584183
 30
0.0
 11
-58.587028
 21
422.584183
 31
0.0
210
0.0
220
0.0
230
1.0
  0
CIRCLE
  5
344
100
AcDbEntity
  8
0
 62
     7
100
AcDbCircle
 10
-42.869644
 20
439.584183
 30
0.0
 40
6.0
210
0.0
220
0.0
230
1.0
  0
CIRCLE
  5
345
100
AcDbEntity
  8
0
 62
     7
100
AcDbCircle
 10
-42.869644
 20
555.584183
 30
0.0
 40
6.0
210
0.0
220
0.0
230
1.0
  0
CIRCLE
  5
346
100
AcDbEntity
  8
0
 62
     7
100
AcDbCircle
 10
22.130311
 20
501.484184
 30
0.0
 40
1.75
210
0.0
220
0.0
230
1.0
  0
CIRCLE
  5
347
100
AcDbEntity
  8
0
 62
     7
100
AcDbCircle
 10
22.130311
 20
501.484184
 30
0.0
 40
1.0
210
0.0
220
0.0
230
1.0
  0
CIRCLE
  5
348
100
AcDbEntity
  8
0
 62
     7
100
AcDbCircle
 10
21.130311
 20
477.834183
 30
0.0
 40
1.75
210
0.0
220
0.0
230
1.0
  0
CIRCLE
  5
349
100
AcDbEntity
  8
0
 62
     7
100
AcDbCircle
 10
21.130311
 20
477.834183
 30
0.0
 40
1.0
210
0.0
220
0.0
230
1.0
  0
ARC
  5
34A
100
AcDbEntity
  8
0
 62
     7
100
AcDbCircle
 10
25.880311
 20
501.734039
 30
0.0
 40
0.75
210
0.0
220
0.0
230
1.0
100
AcDbArc
 50
0.011021
 51
179.988981
  0
LINE
  5
34B
100
AcDbEntity
  8
0
 62
     7
 48
0.05
100
AcDbLine
 10
26.630311
 20
499.734184
 30
0.0
 11
26.630311
 21
501.734184
 31
0.0
210
0.0
220
0.0
230
1.0
  0
LINE
  5
34C
100
AcDbEntity
  8
0
 62
     7
 48
0.01875
100
AcDbLine
 10
27.380311
 20
499.734184
 30
0.0
 11
26.630311
 21
499.734184
 31
0.0
210
0.0
220
0.0
230
1.0
  0
LINE
  5
34D
100
AcDbEntity
  8
0
 62
     7
 48
0.059375
100
AcDbLine
 10
27.380311
 20
502.109184
 30
0.0
 11
27.380311
 21
499.734184
 31
0.0
210
0.0
220
0.0
230
1.0
  0
ARC
  5
34E
100
AcDbEntity
  8
0
 62
     7
100
AcDbCircle
 10
26.255325
 20
502.109215
 30
0.0
 40
1.124987
210
0.0
220
0.0
230
1.0
100
AcDbArc
 50
359.998453
 51
135.001558
  0
LINE
  5
34F
100
AcDbEntity
  8
0
 62
     7
 48
0.01165
100
AcDbLine
 10
25.130311
 20
502.575172
 30
0.0
 11
25.459816
 21
502.904678
 31
0.0
210
0.0
220
0.0
230
1.0
  0
LINE
  5
350
100
AcDbEntity
  8
0
 62
     7
 48
0.016475
100
AcDbLine
 10
25.130311
 20
503.234184
 30
0.0
 11
25.130311
 21
502.575172
 31
0.0
210
0.0
220
0.0
230
1.0
  0
LINE
  5
351
100
AcDbEntity
  8
0
 62
     7
 48
0.01875
100
AcDbLine
 10
24.380311
 20
503.234184
 30
0.0
 11
25.130311
 21
503.234184
 31
0.0
210
0.0
220
0.0
230
1.0
  0
LINE
  5
352
100
AcDbEntity
  8
0
 62
     7
 48
0.0875
100
AcDbLine
 10
24.380311
 20
499.734184
 30
0.0
 11
24.380311
 21
503.234184
 31
0.0
210
0.0
220
0.0
230
1.0
  0
LINE
  5
353
100
AcDbEntity
  8
0
 62
     7
 48
0.01875
100
AcDbLine
 10
25.130311
 20
499.734184
 30
0.0
 11
24.380311
 21
499.734184
 31
0.0
210
0.0
220
0.0
230
1.0
  0
LINE
  5
354
100
AcDbEntity
  8
0
 62
     7
 48
0.05
100
AcDbLine
 10
25.130311
 20
501.734184
 30
0.0
 11
25.130311
 21
499.734184
 31
0.0
210
0.0
220
0.0
230
1.0
  0
LINE
  5
355
100
AcDbEntity
  8
0
 62
     7
 48
0.01875
100
AcDbLine
 10
24.630311
 20
481.084183
 30
0.0
 11
24.630311
 21
480.334183
 31
0.0
210
0.0
220
0.0
230
1.0
  0
ARC
  5
356
100
AcDbEntity
  8
0
 62
     7
100
AcDbCircle
 10
24.630829
 20
479.833664
 30
0.0
 40
1.250518
210
0.0
220
0.0
230
1.0
100
AcDbArc
 50
90.023724
 51
179.976277
  0
LINE
  5
357
100
AcDbEntity
  8
0
 62
     7
 48
0.00625
100
AcDbLine
 10
23.380311
 20
479.584183
 30
0.0
 11
23.380311
 21
479.834183
 31
0.0
210
0.0
220
0.0
230
1.0
  0
LINE
  5
358
100
AcDbEntity
  8
0
 62
     7
 48
0.0125
100
AcDbLine
 10
22.880311
 20
479.584183
 30
0.0
 11
23.380311
 21
479.584183
 31
0.0
210
0.0
220
0.0
230
1.0
  0
LINE
  5
359
100
AcDbEntity
  8
0
 62
     7
 48
0.01875
100
AcDbLine
 10
22.880311
 20
478.834183
 30
0.0
 11
22.880311
 21
479.584183
 31
0.0
210
0.0
220
0.0
230
1.0
  0
LINE
  5
35A
100
AcDbEntity
  8
0
 62
     7
 48
0.0125
100
AcDbLine
 10
23.380311
 20
478.834183
 30
0.0
 11
22.880311
 21
478.834183
 31
0.0
210
0.0
220
0.0
230
1.0
  0
LINE
  5
35B
100
AcDbEntity
  8
0
 62
     7
 48
0.06875
100
AcDbLine
 10
23.380311
 20
476.084183
 30
0.0
 11
23.380311
 21
478.834183
 31
0.0
210
0.0
220
0.0
230
1.0
  0
LINE
  5
35C
100
AcDbEntity
  8
0
 62
     7
 48
0.01875
100
AcDbLine
 10
24.130311
 20
476.084183
 30
0.0
 11
23.380311
 21
476.084183
 31
0.0
210
0.0
220
0.0
230
1.0
  0
LINE
  5
35D
100
AcDbEntity
  8
0
 62
     7
 48
0.06875
100
AcDbLine
 10
24.130311
 20
478.834183
 30
0.0
 11
24.130311
 21
476.084183
 31
0.0
210
0.0
220
0.0
230
1.0
  0
LINE
  5
35E
100
AcDbEntity
  8
0
 62
     7
 48
0.0125
100
AcDbLine
 10
24.630311
 20
478.834183
 30
0.0
 11
24.130311
 21
478.834183
 31
0.0
210
0.0
220
0.0
230
1.0
  0
LINE
  5
35F
100
AcDbEntity
  8
0
 62
     7
 48
0.01875
100
AcDbLine
 10
24.630311
 20
479.584183
 30
0.0
 11
24.630311
 21
478.834183
 31
0.0
210
0.0
220
0.0
230
1.0
  0
LINE
  5
360
100
AcDbEntity
  8
0
 62
     7
 48
0.0125
100
AcDbLine
 10
24.130311
 20
479.584183
 30
0.0
 11
24.630311
 21
479.584183
 31
0.0
210
0.0
220
0.0
230
1.0
  0
LINE
  5
361
100
AcDbEntity
  8
0
 62
     7
 48
0.00625
100
AcDbLine
 10
24.130311
 20
479.834183
 30
0.0
 11
24.130311
 21
479.584183
 31
0.0
210
0.0
220
0.0
230
1.0
  0
ARC
  5
362
100
AcDbEntity
  8
0
 62
     7
100
AcDbCircle
 10
24.630519
 20
479.833977
 30
0.0
 40
0.500207
210
0.0
220
0.0
230
1.0
100
AcDbArc
 50
90.023724
 51
179.976277
  0
LINE
  5
363
100
AcDbEntity
  8
0
 62
     7
 48
0.01875
100
AcDbLine
 10
26.880311
 20
481.084183
 30
0.0
 11
26.880311
 21
480.334183
 31
0.0
210
0.0
220
0.0
230
1.0
  0
ARC
  5
364
100
AcDbEntity
  8
0
 62
     7
100
AcDbCircle
 10
26.880829
 20
479.833664
 30
0.0
 40
1.250518
210
0.0
220
0.0
230
1.0
100
AcDbArc
 50
90.023724
 51
179.976277
  0
LINE
  5
365
100
AcDbEntity
  8
0
 62
     7
 48
0.00625
100
AcDbLine
 10
25.630311
 20
479.584183
 30
0.0
 11
25.630311
 21
479.834183
 31
0.0
210
0.0
220
0.0
230
1.0
  0
LINE
  5
366
100
AcDbEntity
  8
0
 62
     7
 48
0.0125
100
AcDbLine
 10
25.130311
 20
479.584183
 30
0.0
 11
25.630311
 21
479.584183
 31
0.0
210
0.0
220
0.0
230
1.0
  0
LINE
  5
367
100
AcDbEntity
  8
0
 62
     7
 48
0.01875
100
AcDbLine
 10
25.130311
 20
478.834183
 30
0.0
 11
25.130311
 21
479.584183
 31
0.0
210
0.0
220
0.0
230
1.0
  0
LINE
  5
368
100
AcDbEntity
  8
0
 62
     7
 48
0.0125
100
AcDbLine
 10
25.630311
 20
478.834183
 30
0.0
 11
25.130311
 21
478.834183
 31
0.0
210
0.0
220
0.0
230
1.0
  0
LINE
  5
369
100
AcDbEntity
  8
0
 62
     7
 48
0.06875
100
AcDbLine
 10
25.630311
 20
476.084183
 30
0.0
 11
25.630311
 21
478.834183
 31
0.0
210
0.0
220
0.0
230
1.0
  0
LINE
  5
36A
100
AcDbEntity
  8
0
 62
     7
 48
0.01875
100
AcDbLine
 10
26.380311
 20
476.084183
 30
0.0
 11
25.630311
 21
476.084183
 31
0.0
210
0.0
220
0.0
230
1.0
  0
LINE
  5
36B
100
AcDbEntity
  8
0
 62
     7
 48
0.06875
100
AcDbLine
 10
26.380311
 20
478.834183
 30
0.0
 11
26.380311
 21
476.084183
 31
0.0
210
0.0
220
0.0
230
1.0
  0
LINE
  5
36C
100
AcDbEntity
  8
0
 62
     7
 48
0.0125
100
AcDbLine
 10
26.880311
 20
478.834183
 30
0.0
 11
26.380311
 21
478.834183
 31
0.0
210
0.0
220
0.0
230
1.0
  0
LINE
  5
36D
100
AcDbEntity
  8
0
 62
     7
 48
0.01875
100
AcDbLine
 10
26.880311
 20
479.584183
 30
0.0
 11
26.880311
 21
478.834183
 31
0.0
210
0.0
220
0.0
230
1.0
  0
LINE
  5
36E
100
AcDbEntity
  8
0
 62
     7
 48
0.0125
100
AcDbLine
 10
26.380311
 20
479.584183
 30
0.0
 11
26.880311
 21
479.584183
 31
0.0
210
0.0
220
0.0
230
1.0
  0
LINE
  5
36F
100
AcDbEntity
  8
0
 62
     7
 48
0.00625
100
AcDbLine
 10
26.380311
 20
479.834183
 30
0.0
 11
26.380311
 21
479.584183
 31
0.0
210
0.0
220
0.0
230
1.0
  0
ARC
  5
370
100
AcDbEntity
  8
0
 62
     7
100
AcDbCircle
 10
26.880519
 20
479.833977
 30
0.0
 40
0.500207
210
0.0
220
0.0
230
1.0
100
AcDbArc
 50
90.023724
 51
179.976277
  0
POLYLINE
  5
371
100
AcDbEntity
  8
0
 62
     7
100
AcDb2dPolyline
 66
     1
 10
0.0
 20
0.0
 30
0.0
 70
     1
 71
   193
  0
VERTEX
  5
372
100
AcDbEntity
  8
0
100
AcDbVertex
100
AcDb2dVertex
 10
17.130312
 20
471.084183
 30
0.0
  0
VERTEX
  5
373
100
AcDbEntity
  8
0
100
AcDbVertex
100
AcDb2dVertex
 10
17.134314
 20
470.984169
 30
0.0
  0
VERTEX
  5
374
100
AcDbEntity
  8
0
100
AcDbVertex
100
AcDb2dVertex
 10
17.146336
 20
470.884193
 30
0.0
  0
VERTEX
  5
375
100
AcDbEntity
  8
0
100
AcDbVertex
100
AcDb2dVertex
 10
17.16644
 20
470.784195
 30
0.0
  0
VERTEX
  5
376
100
AcDbEntity
  8
0
100
AcDbVertex
100
AcDb2dVertex
 10
17.194756
 20
470.684097
 30
0.0
  0
VERTEX
  5
377
100
AcDbEntity
  8
0
100
AcDbVertex
100
AcDb2dVertex
 10
17.231463
 20
470.583862
 30
0.0
  0
VERTEX
  5
378
100
AcDbEntity
  8
0
100
AcDbVertex
100
AcDb2dVertex
 10
17.276793
 20
470.483482
 30
0.0
  0
VERTEX
  5
379
100
AcDbEntity
  8
0
100
AcDbVertex
100
AcDb2dVertex
 10
17.331015
 20
470.38298
 30
0.0
  0
VERTEX
  5
37A
100
AcDbEntity
  8
0
100
AcDbVertex
100
AcDb2dVertex
 10
17.394433
 20
470.282394
 30
0.0
  0
VERTEX
  5
37B
100
AcDbEntity
  8
0
100
AcDbVertex
100
AcDb2dVertex
 10
17.46737
 20
470.181831
 30
0.0
  0
VERTEX
  5
37C
100
AcDbEntity
  8
0
100
AcDbVertex
100
AcDb2dVertex
 10
17.55016
 20
470.081413
 30
0.0
  0
VERTEX
  5
37D
100
AcDbEntity
  8
0
100
AcDbVertex
100
AcDb2dVertex
 10
17.643136
 20
469.981316
 30
0.0
  0
VERTEX
  5
37E
100
AcDbEntity
  8
0
100
AcDbVertex
100
AcDb2dVertex
 10
17.746619
 20
469.881767
 30
0.0
  0
VERTEX
  5
37F
100
AcDbEntity
  8
0
100
AcDbVertex
100
AcDb2dVertex
 10
17.860909
 20
469.783012
 30
0.0
  0
VERTEX
  5
380
100
AcDbEntity
  8
0
100
AcDbVertex
100
AcDb2dVertex
 10
17.986266
 20
469.685356
 30
0.0
  0
VERTEX
  5
381
100
AcDbEntity
  8
0
100
AcDbVertex
100
AcDb2dVertex
 10
18.122912
 20
469.589127
 30
0.0
  0
VERTEX
  5
382
100
AcDbEntity
  8
0
100
AcDbVertex
100
AcDb2dVertex
 10
18.271004
 20
469.494705
 30
0.0
  0
VERTEX
  5
383
100
AcDbEntity
  8
0
100
AcDbVertex
100
AcDb2dVertex
 10
18.430642
 20
469.402481
 30
0.0
  0
VERTEX
  5
384
100
AcDbEntity
  8
0
100
AcDbVertex
100
AcDb2dVertex
 10
18.601841
 20
469.312889
 30
0.0
  0
VERTEX
  5
385
100
AcDbEntity
  8
0
100
AcDbVertex
100
AcDb2dVertex
 10
18.784541
 20
469.226372
 30
0.0
  0
VERTEX
  5
386
100
AcDbEntity
  8
0
100
AcDbVertex
100
AcDb2dVertex
 10
18.978587
 20
469.143394
 30
0.0
  0
VERTEX
  5
387
100
AcDbEntity
  8
0
100
AcDbVertex
100
AcDb2dVertex
 10
19.183726
 20
469.06443
 30
0.0
  0
VERTEX
  5
388
100
AcDbEntity
  8
0
100
AcDbVertex
100
AcDb2dVertex
 10
19.399605
 20
468.989952
 30
0.0
  0
VERTEX
  5
389
100
AcDbEntity
  8
0
100
AcDbVertex
100
AcDb2dVertex
 10
19.625767
 20
468.920433
 30
0.0
  0
VERTEX
  5
38A
100
AcDbEntity
  8
0
100
AcDbVertex
100
AcDb2dVertex
 10
19.861649
 20
468.856339
 30
0.0
  0
VERTEX
  5
38B
100
AcDbEntity
  8
0
100
AcDbVertex
100
AcDb2dVertex
 10
20.106586
 20
468.798111
 30
0.0
  0
VERTEX
  5
38C
100
AcDbEntity
  8
0
100
AcDbVertex
100
AcDb2dVertex
 10
20.359808
 20
468.746162
 30
0.0
  0
VERTEX
  5
38D
100
AcDbEntity
  8
0
100
AcDbVertex
100
AcDb2dVertex
 10
20.620454
 20
468.70089
 30
0.0
  0
VERTEX
  5
38E
100
AcDbEntity
  8
0
100
AcDbVertex
100
AcDb2dVertex
 10
20.88757
 20
468.662636
 30
0.0
  0
VERTEX
  5
38F
100
AcDbEntity
  8
0
100
AcDbVertex
100
AcDb2dVertex
 10
21.160121
 20
468.631699
 30
0.0
  0
VERTEX
  5
390
100
AcDbEntity
  8
0
100
AcDbVertex
100
AcDb2dVertex
 10
21.437008
 20
468.60833
 30
0.0
  0
VERTEX
  5
391
100
AcDbEntity
  8
0
100
AcDbVertex
100
AcDb2dVertex
 10
21.717071
 20
468.592735
 30
0.0
  0
VERTEX
  5
392
100
AcDbEntity
  8
0
100
AcDbVertex
100
AcDb2dVertex
 10
21.999108
 20
468.585045
 30
0.0
  0
VERTEX
  5
393
100
AcDbEntity
  8
0
100
AcDbVertex
100
AcDb2dVertex
 10
22.28189
 20
468.585335
 30
0.0
  0
VERTEX
  5
394
100
AcDbEntity
  8
0
100
AcDbVertex
100
AcDb2dVertex
 10
22.42315
 20
468.58847
 30
0.0
  0
VERTEX
  5
395
100
AcDbEntity
  8
0
100
AcDbVertex
100
AcDb2dVertex
 10
22.564175
 20
468.593613
 30
0.0
  0
VERTEX
  5
396
100
AcDbEntity
  8
0
100
AcDbVertex
100
AcDb2dVertex
 10
22.704679
 20
468.600731
 30
0.0
  0
VERTEX
  5
397
100
AcDbEntity
  8
0
100
AcDbVertex
100
AcDb2dVertex
 10
22.844725
 20
468.609833
 30
0.0
  0
VERTEX
  5
398
100
AcDbEntity
  8
0
100
AcDbVertex
100
AcDb2dVertex
 10
22.983861
 20
468.62088
 30
0.0
  0
VERTEX
  5
399
100
AcDbEntity
  8
0
100
AcDbVertex
100
AcDb2dVertex
 10
23.122321
 20
468.633881
 30
0.0
  0
VERTEX
  5
39A
100
AcDbEntity
  8
0
100
AcDbVertex
100
AcDb2dVertex
 10
23.259494
 20
468.648773
 30
0.0
  0
VERTEX
  5
39B
100
AcDbEntity
  8
0
100
AcDbVertex
100
AcDb2dVertex
 10
23.395777
 20
468.665581
 30
0.0
  0
VERTEX
  5
39C
100
AcDbEntity
  8
0
100
AcDbVertex
100
AcDb2dVertex
 10
23.530417
 20
468.684196
 30
0.0
  0
VERTEX
  5
39D
100
AcDbEntity
  8
0
100
AcDbVertex
100
AcDb2dVertex
 10
23.663963
 20
468.704689
 30
0.0
  0
VERTEX
  5
39E
100
AcDbEntity
  8
0
100
AcDbVertex
100
AcDb2dVertex
 10
23.795526
 20
468.726906
 30
0.0
  0
VERTEX
  5
39F
100
AcDbEntity
  8
0
100
AcDbVertex
100
AcDb2dVertex
 10
23.925805
 20
468.750931
 30
0.0
  0
VERTEX
  5
3A0
100
AcDbEntity
  8
0
100
AcDbVertex
100
AcDb2dVertex
 10
24.053788
 20
468.776573
 30
0.0
  0
VERTEX
  5
3A1
100
AcDbEntity
  8
0
100
AcDbVertex
100
AcDb2dVertex
 10
24.180309
 20
468.80397
 30
0.0
  0
VERTEX
  5
3A2
100
AcDbEntity
  8
0
100
AcDbVertex
100
AcDb2dVertex
 10
24.304249
 20
468.832848
 30
0.0
  0
VERTEX
  5
3A3
100
AcDbEntity
  8
0
100
AcDbVertex
100
AcDb2dVertex
 10
24.426564
 20
468.863419
 30
0.0
  0
VERTEX
  5
3A4
100
AcDbEntity
  8
0
100
AcDbVertex
100
AcDb2dVertex
 10
24.546047
 20
468.895332
 30
0.0
  0
VERTEX
  5
3A5
100
AcDbEntity
  8
0
100
AcDbVertex
100
AcDb2dVertex
 10
24.663756
 20
468.928864
 30
0.0
  0
VERTEX
  5
3A6
100
AcDbEntity
  8
0
100
AcDbVertex
100
AcDb2dVertex
 10
24.778415
 20
468.963593
 30
0.0
  0
VERTEX
  5
3A7
100
AcDbEntity
  8
0
100
AcDbVertex
100
AcDb2dVertex
 10
24.89117
 20
468.999855
 30
0.0
  0
VERTEX
  5
3A8
100
AcDbEntity
  8
0
100
AcDbVertex
100
AcDb2dVertex
 10
25.000693
 20
469.037178
 30
0.0
  0
VERTEX
  5
3A9
100
AcDbEntity
  8
0
100
AcDbVertex
100
AcDb2dVertex
 10
25.108198
 20
469.075935
 30
0.0
  0
VERTEX
  5
3AA
100
AcDbEntity
  8
0
100
AcDbVertex
100
AcDb2dVertex
 10
25.212324
 20
469.115601
 30
0.0
  0
VERTEX
  5
3AB
100
AcDbEntity
  8
0
100
AcDbVertex
100
AcDb2dVertex
 10
25.314337
 20
469.156624
 30
0.0
  0
VERTEX
  5
3AC
100
AcDbEntity
  8
0
100
AcDbVertex
100
AcDb2dVertex
 10
25.412862
 20
469.198387
 30
0.0
  0
VERTEX
  5
3AD
100
AcDbEntity
  8
0
100
AcDbVertex
100
AcDb2dVertex
 10
25.509196
 20
469.241417
 30
0.0
  0
VERTEX
  5
3AE
100
AcDbEntity
  8
0
100
AcDbVertex
100
AcDb2dVertex
 10
25.601966
 20
469.285042
 30
0.0
  0
VERTEX
  5
3AF
100
AcDbEntity
  8
0
100
AcDbVertex
100
AcDb2dVertex
 10
25.692484
 20
469.329834
 30
0.0
  0
VERTEX
  5
3B0
100
AcDbEntity
  8
0
100
AcDbVertex
100
AcDb2dVertex
 10
25.779401
 20
469.375076
 30
0.0
  0
VERTEX
  5
3B1
100
AcDbEntity
  8
0
100
AcDbVertex
100
AcDb2dVertex
 10
25.86402
 20
469.421394
 30
0.0
  0
VERTEX
  5
3B2
100
AcDbEntity
  8
0
100
AcDbVertex
100
AcDb2dVertex
 10
25.94503
 20
469.468018
 30
0.0
  0
VERTEX
  5
3B3
100
AcDbEntity
  8
0
100
AcDbVertex
100
AcDb2dVertex
 10
26.023713
 20
469.515633
 30
0.0
  0
VERTEX
  5
3B4
100
AcDbEntity
  8
0
100
AcDbVertex
100
AcDb2dVertex
 10
26.098811
 20
469.563408
 30
0.0
  0
VERTEX
  5
3B5
100
AcDbEntity
  8
0
100
AcDbVertex
100
AcDb2dVertex
 10
26.171565
 20
469.612083
 30
0.0
  0
VERTEX
  5
3B6
100
AcDbEntity
  8
0
100
AcDbVertex
100
AcDb2dVertex
 10
26.240787
 20
469.660805
 30
0.0
  0
VERTEX
  5
3B7
100
AcDbEntity
  8
0
100
AcDbVertex
100
AcDb2dVertex
 10
26.307661
 20
469.710342
 30
0.0
  0
VERTEX
  5
3B8
100
AcDbEntity
  8
0
100
AcDbVertex
100
AcDb2dVertex
 10
26.37108
 20
469.759804
 30
0.0
  0
VERTEX
  5
3B9
100
AcDbEntity
  8
0
100
AcDbVertex
100
AcDb2dVertex
 10
26.432157
 20
469.810005
 30
0.0
  0
VERTEX
  5
3BA
100
AcDbEntity
  8
0
100
AcDbVertex
100
AcDb2dVertex
 10
26.489878
 20
469.860031
 30
0.0
  0
VERTEX
  5
3BB
100
AcDbEntity
  8
0
100
AcDbVertex
100
AcDb2dVertex
 10
26.545272
 20
469.910713
 30
0.0
  0
VERTEX
  5
3BC
100
AcDbEntity
  8
0
100
AcDbVertex
100
AcDb2dVertex
 10
26.597427
 20
469.961143
 30
0.0
  0
VERTEX
  5
3BD
100
AcDbEntity
  8
0
100
AcDbVertex
100
AcDb2dVertex
 10
26.647277
 20
470.012146
 30
0.0
  0
VERTEX
  5
3BE
100
AcDbEntity
  8
0
100
AcDbVertex
100
AcDb2dVertex
 10
26.694017
 20
470.062836
 30
0.0
  0
VERTEX
  5
3BF
100
AcDbEntity
  8
0
100
AcDbVertex
100
AcDb2dVertex
 10
26.738481
 20
470.114029
 30
0.0
  0
VERTEX
  5
3C0
100
AcDbEntity
  8
0
100
AcDbVertex
100
AcDb2dVertex
 10
26.779974
 20
470.164856
 30
0.0
  0
VERTEX
  5
3C1
100
AcDbEntity
  8
0
100
AcDbVertex
100
AcDb2dVertex
 10
26.819223
 20
470.216125
 30
0.0
  0
VERTEX
  5
3C2
100
AcDbEntity
  8
0
100
AcDbVertex
100
AcDb2dVertex
 10
26.855644
 20
470.266983
 30
0.0
  0
VERTEX
  5
3C3
100
AcDbEntity
  8
0
100
AcDbVertex
100
AcDb2dVertex
 10
26.889857
 20
470.31823
 30
0.0
  0
VERTEX
  5
3C4
100
AcDbEntity
  8
0
100
AcDbVertex
100
AcDb2dVertex
 10
26.921384
 20
470.369057
 30
0.0
  0
VERTEX
  5
3C5
100
AcDbEntity
  8
0
100
AcDbVertex
100
AcDb2dVertex
 10
26.95074
 20
470.420204
 30
0.0
  0
VERTEX
  5
3C6
100
AcDbEntity
  8
0
100
AcDbVertex
100
AcDb2dVertex
 10
26.97755
 20
470.47094
 30
0.0
  0
VERTEX
  5
3C7
100
AcDbEntity
  8
0
100
AcDbVertex
100
AcDb2dVertex
 10
27.002223
 20
470.521935
 30
0.0
  0
VERTEX
  5
3C8
100
AcDbEntity
  8
0
100
AcDbVertex
100
AcDb2dVertex
 10
27.024481
 20
470.57254
 30
0.0
  0
VERTEX
  5
3C9
100
AcDbEntity
  8
0
100
AcDbVertex
100
AcDb2dVertex
 10
27.044637
 20
470.623367
 30
0.0
  0
VERTEX
  5
3CA
100
AcDbEntity
  8
0
100
AcDbVertex
100
AcDb2dVertex
 10
27.062495
 20
470.673828
 30
0.0
  0
VERTEX
  5
3CB
100
AcDbEntity
  8
0
100
AcDbVertex
100
AcDb2dVertex
 10
27.078281
 20
470.724457
 30
0.0
  0
VERTEX
  5
3CC
100
AcDbEntity
  8
0
100
AcDbVertex
100
AcDb2dVertex
 10
27.091872
 20
470.77478
 30
0.0
  0
VERTEX
  5
3CD
100
AcDbEntity
  8
0
100
AcDbVertex
100
AcDb2dVertex
 10
27.103417
 20
470.825226
 30
0.0
  0
VERTEX
  5
3CE
100
AcDbEntity
  8
0
100
AcDbVertex
100
AcDb2dVertex
 10
27.112849
 20
470.87542
 30
0.0
  0
VERTEX
  5
3CF
100
AcDbEntity
  8
0
100
AcDbVertex
100
AcDb2dVertex
 10
27.120255
 20
470.925705
 30
0.0
  0
VERTEX
  5
3D0
100
AcDbEntity
  8
0
100
AcDbVertex
100
AcDb2dVertex
 10
27.125611
 20
470.9758
 30
0.0
  0
VERTEX
  5
3D1
100
AcDbEntity
  8
0
100
AcDbVertex
100
AcDb2dVertex
 10
27.128954
 20
471.02594
 30
0.0
  0
VERTEX
  5
3D2
100
AcDbEntity
  8
0
100
AcDbVertex
100
AcDb2dVertex
 10
27.130285
 20
471.075974
 30
0.0
  0
VERTEX
  5
3D3
100
AcDbEntity
  8
0
100
AcDbVertex
100
AcDb2dVertex
 10
27.129611
 20
471.126015
 30
0.0
  0
VERTEX
  5
3D4
100
AcDbEntity
  8
0
100
AcDbVertex
100
AcDb2dVertex
 10
27.122261
 20
471.225998
 30
0.0
  0
VERTEX
  5
3D5
100
AcDbEntity
  8
0
100
AcDbVertex
100
AcDb2dVertex
 10
27.106871
 20
471.325981
 30
0.0
  0
VERTEX
  5
3D6
100
AcDbEntity
  8
0
100
AcDbVertex
100
AcDb2dVertex
 10
27.083352
 20
471.426018
 30
0.0
  0
VERTEX
  5
3D7
100
AcDbEntity
  8
0
100
AcDbVertex
100
AcDb2dVertex
 10
27.051552
 20
471.526169
 30
0.0
  0
VERTEX
  5
3D8
100
AcDbEntity
  8
0
100
AcDbVertex
100
AcDb2dVertex
 10
27.01127
 20
471.626457
 30
0.0
  0
VERTEX
  5
3D9
100
AcDbEntity
  8
0
100
AcDbVertex
100
AcDb2dVertex
 10
26.962257
 20
471.726891
 30
0.0
  0
VERTEX
  5
3DA
100
AcDbEntity
  8
0
100
AcDbVertex
100
AcDb2dVertex
 10
26.904228
 20
471.827438
 30
0.0
  0
VERTEX
  5
3DB
100
AcDbEntity
  8
0
100
AcDbVertex
100
AcDb2dVertex
 10
26.836869
 20
471.928032
 30
0.0
  0
VERTEX
  5
3DC
100
AcDbEntity
  8
0
100
AcDbVertex
100
AcDb2dVertex
 10
26.759853
 20
472.028557
 30
0.0
  0
VERTEX
  5
3DD
100
AcDbEntity
  8
0
100
AcDbVertex
100
AcDb2dVertex
 10
26.672844
 20
472.12886
 30
0.0
  0
VERTEX
  5
3DE
100
AcDbEntity
  8
0
100
AcDbVertex
100
AcDb2dVertex
 10
26.575512
 20
472.22876
 30
0.0
  0
VERTEX
  5
3DF
100
AcDbEntity
  8
0
100
AcDbVertex
100
AcDb2dVertex
 10
26.467545
 20
472.328011
 30
0.0
  0
VERTEX
  5
3E0
100
AcDbEntity
  8
0
100
AcDbVertex
100
AcDb2dVertex
 10
26.348656
 20
472.426338
 30
0.0
  0
VERTEX
  5
3E1
100
AcDbEntity
  8
0
100
AcDbVertex
100
AcDb2dVertex
 10
26.218603
 20
472.523445
 30
0.0
  0
VERTEX
  5
3E2
100
AcDbEntity
  8
0
100
AcDbVertex
100
AcDb2dVertex
 10
26.077187
 20
472.618958
 30
0.0
  0
VERTEX
  5
3E3
100
AcDbEntity
  8
0
100
AcDbVertex
100
AcDb2dVertex
 10
25.924274
 20
472.712517
 30
0.0
  0
VERTEX
  5
3E4
100
AcDbEntity
  8
0
100
AcDbVertex
100
AcDb2dVertex
 10
25.759799
 20
472.803688
 30
0.0
  0
VERTEX
  5
3E5
100
AcDbEntity
  8
0
100
AcDbVertex
100
AcDb2dVertex
 10
25.583778
 20
472.892052
 30
0.0
  0
VERTEX
  5
3E6
100
AcDbEntity
  8
0
100
AcDbVertex
100
AcDb2dVertex
 10
25.396309
 20
472.97715
 30
0.0
  0
VERTEX
  5
3E7
100
AcDbEntity
  8
0
100
AcDbVertex
100
AcDb2dVertex
 10
25.197588
 20
473.05851
 30
0.0
  0
VERTEX
  5
3E8
100
AcDbEntity
  8
0
100
AcDbVertex
100
AcDb2dVertex
 10
24.98791
 20
473.135651
 30
0.0
  0
VERTEX
  5
3E9
100
AcDbEntity
  8
0
100
AcDbVertex
100
AcDb2dVertex
 10
24.767669
 20
473.208115
 30
0.0
  0
VERTEX
  5
3EA
100
AcDbEntity
  8
0
100
AcDbVertex
100
AcDb2dVertex
 10
24.537368
 20
473.275421
 30
0.0
  0
VERTEX
  5
3EB
100
AcDbEntity
  8
0
100
AcDbVertex
100
AcDb2dVertex
 10
24.297613
 20
473.337112
 30
0.0
  0
VERTEX
  5
3EC
100
AcDbEntity
  8
0
100
AcDbVertex
100
AcDb2dVertex
 10
24.049112
 20
473.392761
 30
0.0
  0
VERTEX
  5
3ED
100
AcDbEntity
  8
0
100
AcDbVertex
100
AcDb2dVertex
 10
23.792675
 20
473.441963
 30
0.0
  0
VERTEX
  5
3EE
100
AcDbEntity
  8
0
100
AcDbVertex
100
AcDb2dVertex
 10
23.529203
 20
473.484344
 30
0.0
  0
VERTEX
  5
3EF
100
AcDbEntity
  8
0
100
AcDbVertex
100
AcDb2dVertex
 10
23.259684
 20
473.519577
 30
0.0
  0
VERTEX
  5
3F0
100
AcDbEntity
  8
0
100
AcDbVertex
100
AcDb2dVertex
 10
22.985182
 20
473.547371
 30
0.0
  0
VERTEX
  5
3F1
100
AcDbEntity
  8
0
100
AcDbVertex
100
AcDb2dVertex
 10
22.706824
 20
473.567505
 30
0.0
  0
VERTEX
  5
3F2
100
AcDbEntity
  8
0
100
AcDbVertex
100
AcDb2dVertex
 10
22.425787
 20
473.579811
 30
0.0
  0
VERTEX
  5
3F3
100
AcDbEntity
  8
0
100
AcDbVertex
100
AcDb2dVertex
 10
22.143288
 20
473.584175
 30
0.0
  0
VERTEX
  5
3F4
100
AcDbEntity
  8
0
100
AcDbVertex
100
AcDb2dVertex
 10
21.860563
 20
473.580544
 30
0.0
  0
VERTEX
  5
3F5
100
AcDbEntity
  8
0
100
AcDbVertex
100
AcDb2dVertex
 10
21.719544
 20
473.575729
 30
0.0
  0
VERTEX
  5
3F6
100
AcDbEntity
  8
0
100
AcDbVertex
100
AcDb2dVertex
 10
21.578853
 20
473.568932
 30
0.0
  0
VERTEX
  5
3F7
100
AcDbEntity
  8
0
100
AcDbVertex
100
AcDb2dVertex
 10
21.438847
 20
473.560158
 30
0.0
  0
VERTEX
  5
3F8
100
AcDbEntity
  8
0
100
AcDbVertex
100
AcDb2dVertex
 10
21.299392
 20
473.549423
 30
0.0
  0
VERTEX
  5
3F9
100
AcDbEntity
  8
0
100
AcDbVertex
100
AcDb2dVertex
 10
21.161005
 20
473.536758
 30
0.0
  0
VERTEX
  5
3FA
100
AcDbEntity
  8
0
100
AcDbVertex
100
AcDb2dVertex
 10
21.023386
 20
473.522148
 30
0.0
  0
VERTEX
  5
3FB
100
AcDbEntity
  8
0
100
AcDbVertex
100
AcDb2dVertex
 10
20.887204
 20
473.505684
 30
0.0
  0
VERTEX
  5
3FC
100
AcDbEntity
  8
0
100
AcDbVertex
100
AcDb2dVertex
 10
20.751998
 20
473.48732
 30
0.0
  0
VERTEX
  5
3FD
100
AcDbEntity
  8
0
100
AcDbVertex
100
AcDb2dVertex
 10
20.618581
 20
473.467178
 30
0.0
  0
VERTEX
  5
3FE
100
AcDbEntity
  8
0
100
AcDbVertex
100
AcDb2dVertex
 10
20.486339
 20
473.445183
 30
0.0
  0
VERTEX
  5
3FF
100
AcDbEntity
  8
0
100
AcDbVertex
100
AcDb2dVertex
 10
20.356214
 20
473.421516
 30
0.0
  0
VERTEX
  5
400
100
AcDbEntity
  8
0
100
AcDbVertex
100
AcDb2dVertex
 10
20.22745
 20
473.396057
 30
0.0
  0
VERTEX
  5
401
100
AcDbEntity
  8
0
100
AcDbVertex
100
AcDb2dVertex
 10
20.101103
 20
473.369041
 30
0.0
  0
VERTEX
  5
402
100
AcDbEntity
  8
0
100
AcDbVertex
100
AcDb2dVertex
 10
19.97629
 20
473.340294
 30
0.0
  0
VERTEX
  5
403
100
AcDbEntity
  8
0
100
AcDbVertex
100
AcDb2dVertex
 10
19.854165
 20
473.31012
 30
0.0
  0
VERTEX
  5
404
100
AcDbEntity
  8
0
100
AcDbVertex
100
AcDb2dVertex
 10
19.733731
 20
473.27829
 30
0.0
  0
VERTEX
  5
405
100
AcDbEntity
  8
0
100
AcDbVertex
100
AcDb2dVertex
 10
19.616223
 20
473.245163
 30
0.0
  0
VERTEX
  5
406
100
AcDbEntity
  8
0
100
AcDbVertex
100
AcDb2dVertex
 10
19.500546
 20
473.210464
 30
0.0
  0
VERTEX
  5
407
100
AcDbEntity
  8
0
100
AcDbVertex
100
AcDb2dVertex
 10
19.388001
 20
473.174622
 30
0.0
  0
VERTEX
  5
408
100
AcDbEntity
  8
0
100
AcDbVertex
100
AcDb2dVertex
 10
19.277407
 20
473.137283
 30
0.0
  0
VERTEX
  5
409
100
AcDbEntity
  8
0
100
AcDbVertex
100
AcDb2dVertex
 10
19.170113
 20
473.098953
 30
0.0
  0
VERTEX
  5
40A
100
AcDbEntity
  8
0
100
AcDbVertex
100
AcDb2dVertex
 10
19.064877
 20
473.059219
 30
0.0
  0
VERTEX
  5
40B
100
AcDbEntity
  8
0
100
AcDbVertex
100
AcDb2dVertex
 10
18.963072
 20
473.018646
 30
0.0
  0
VERTEX
  5
40C
100
AcDbEntity
  8
0
100
AcDbVertex
100
AcDb2dVertex
 10
18.863413
 20
472.976761
 30
0.0
  0
VERTEX
  5
40D
100
AcDbEntity
  8
0
100
AcDbVertex
100
AcDb2dVertex
 10
18.767279
 20
472.934181
 30
0.0
  0
VERTEX
  5
40E
100
AcDbEntity
  8
0
100
AcDbVertex
100
AcDb2dVertex
 10
18.673365
 20
472.890388
 30
0.0
  0
VERTEX
  5
40F
100
AcDbEntity
  8
0
100
AcDbVertex
100
AcDb2dVertex
 10
18.583033
 20
472.846054
 30
0.0
  0
VERTEX
  5
410
100
AcDbEntity
  8
0
100
AcDbVertex
100
AcDb2dVertex
 10
18.494973
 20
472.800598
 30
0.0
  0
VERTEX
  5
411
100
AcDbEntity
  8
0
100
AcDbVertex
100
AcDb2dVertex
 10
18.410523
 20
472.754745
 30
0.0
  0
VERTEX
  5
412
100
AcDbEntity
  8
0
100
AcDbVertex
100
AcDb2dVertex
 10
18.328385
 20
472.707863
 30
0.0
  0
VERTEX
  5
413
100
AcDbEntity
  8
0
100
AcDbVertex
100
AcDb2dVertex
 10
18.249848
 20
472.660728
 30
0.0
  0
VERTEX
  5
414
100
AcDbEntity
  8
0
100
AcDbVertex
100
AcDb2dVertex
 10
18.173649
 20
472.612648
 30
0.0
  0
VERTEX
  5
415
100
AcDbEntity
  8
0
100
AcDbVertex
100
AcDb2dVertex
 10
18.101014
 20
472.564445
 30
0.0
  0
VERTEX
  5
416
100
AcDbEntity
  8
0
100
AcDbVertex
100
AcDb2dVertex
 10
18.030726
 20
472.515388
 30
0.0
  0
VERTEX
  5
417
100
AcDbEntity
  8
0
100
AcDbVertex
100
AcDb2dVertex
 10
17.963942
 20
472.466331
 30
0.0
  0
VERTEX
  5
418
100
AcDbEntity
  8
0
100
AcDbVertex
100
AcDb2dVertex
 10
17.899504
 20
472.416496
 30
0.0
  0
VERTEX
  5
419
100
AcDbEntity
  8
0
100
AcDbVertex
100
AcDb2dVertex
 10
17.838482
 20
472.366776
 30
0.0
  0
VERTEX
  5
41A
100
AcDbEntity
  8
0
100
AcDbVertex
100
AcDb2dVertex
 10
17.779797
 20
472.31636
 30
0.0
  0
VERTEX
  5
41B
100
AcDbEntity
  8
0
100
AcDbVertex
100
AcDb2dVertex
 10
17.724421
 20
472.266144
 30
0.0
  0
VERTEX
  5
41C
100
AcDbEntity
  8
0
100
AcDbVertex
100
AcDb2dVertex
 10
17.671362
 20
472.215309
 30
0.0
  0
VERTEX
  5
41D
100
AcDbEntity
  8
0
100
AcDbVertex
100
AcDb2dVertex
 10
17.621493
 20
472.164757
 30
0.0
  0
VERTEX
  5
41E
100
AcDbEntity
  8
0
100
AcDbVertex
100
AcDb2dVertex
 10
17.573914
 20
472.113655
 30
0.0
  0
VERTEX
  5
41F
100
AcDbEntity
  8
0
100
AcDbVertex
100
AcDb2dVertex
 10
17.529389
 20
472.062897
 30
0.0
  0
VERTEX
  5
420
100
AcDbEntity
  8
0
100
AcDbVertex
100
AcDb2dVertex
 10
17.487128
 20
472.011658
 30
0.0
  0
VERTEX
  5
421
100
AcDbEntity
  8
0
100
AcDbVertex
100
AcDb2dVertex
 10
17.447777
 20
471.960808
 30
0.0
  0
VERTEX
  5
422
100
AcDbEntity
  8
0
100
AcDbVertex
100
AcDb2dVertex
 10
17.410655
 20
471.909538
 30
0.0
  0
VERTEX
  5
423
100
AcDbEntity
  8
0
100
AcDbVertex
100
AcDb2dVertex
 10
17.376303
 20
471.858681
 30
0.0
  0
VERTEX
  5
424
100
AcDbEntity
  8
0
100
AcDbVertex
100
AcDb2dVertex
 10
17.344141
 20
471.807472
 30
0.0
  0
VERTEX
  5
425
100
AcDbEntity
  8
0
100
AcDbVertex
100
AcDb2dVertex
 10
17.314608
 20
471.756676
 30
0.0
  0
VERTEX
  5
426
100
AcDbEntity
  8
0
100
AcDbVertex
100
AcDb2dVertex
 10
17.287232
 20
471.705589
 30
0.0
  0
VERTEX
  5
427
100
AcDbEntity
  8
0
100
AcDbVertex
100
AcDb2dVertex
 10
17.262345
 20
471.654907
 30
0.0
  0
VERTEX
  5
428
100
AcDbEntity
  8
0
100
AcDbVertex
100
AcDb2dVertex
 10
17.239579
 20
471.603973
 30
0.0
  0
VERTEX
  5
429
100
AcDbEntity
  8
0
100
AcDbVertex
100
AcDb2dVertex
 10
17.21918
 20
471.553429
 30
0.0
  0
VERTEX
  5
42A
100
AcDbEntity
  8
0
100
AcDbVertex
100
AcDb2dVertex
 10
17.200867
 20
471.502686
 30
0.0
  0
VERTEX
  5
42B
100
AcDbEntity
  8
0
100
AcDbVertex
100
AcDb2dVertex
 10
17.184809
 20
471.452286
 30
0.0
  0
VERTEX
  5
42C
100
AcDbEntity
  8
0
100
AcDbVertex
100
AcDb2dVertex
 10
17.170811
 20
471.401733
 30
0.0
  0
VERTEX
  5
42D
100
AcDbEntity
  8
0
100
AcDbVertex
100
AcDb2dVertex
 10
17.15897
 20
471.351463
 30
0.0
  0
VERTEX
  5
42E
100
AcDbEntity
  8
0
100
AcDbVertex
100
AcDb2dVertex
 10
17.149167
 20
471.301094
 30
0.0
  0
VERTEX
  5
42F
100
AcDbEntity
  8
0
100
AcDbVertex
100
AcDb2dVertex
 10
17.141448
 20
471.250938
 30
0.0
  0
VERTEX
  5
430
100
AcDbEntity
  8
0
100
AcDbVertex
100
AcDb2dVertex
 10
17.135748
 20
471.200722
 30
0.0
  0
VERTEX
  5
431
100
AcDbEntity
  8
0
100
AcDbVertex
100
AcDb2dVertex
 10
17.132081
 20
471.150658
 30
0.0
  0
VERTEX
  5
432
100
AcDbEntity
  8
0
100
AcDbVertex
100
AcDb2dVertex
 10
17.130419
 20
471.100563
 30
0.0
  0
SEQEND
  5
433
100
AcDbEntity
  8
0
  0
LINE
  5
434
100
AcDbEntity
  8
0
 62
     7
 48
0.025
100
AcDbLine
 10
-39.369689
 20
504.484184
 30
0.0
 11
-38.369689
 21
504.484184
 31
0.0
210
0.0
220
0.0
230
1.0
  0
LINE
  5
435
100
AcDbEntity
  8
0
 62
     7
 48
0.125
100
AcDbLine
 10
-38.369689
 20
504.484184
 30
0.0
 11
-38.369689
 21
499.484184
 31
0.0
210
0.0
220
0.0
230
1.0
  0
LINE
  5
436
100
AcDbEntity
  8
0
 62
     7
 48
0.025
100
AcDbLine
 10
-38.369689
 20
499.484184
 30
0.0
 11
-39.369689
 21
499.484184
 31
0.0
210
0.0
220
0.0
230
1.0
  0
LINE
  5
437
100
AcDbEntity
  8
0
 62
     7
 48
0.125
100
AcDbLine
 10
-39.369689
 20
504.484184
 30
0.0
 11
-39.369689
 21
499.484184
 31
0.0
210
0.0
220
0.0
230
1.0
  0
CIRCLE
  5
438
100
AcDbEntity
  8
0
 62
     7
100
AcDbCircle
 10
-7.869689
 20
491.584175
 30
0.0
 40
18.85
210
0.0
220
0.0
230
1.0
  0
LINE
  5
439
100
AcDbEntity
  8
0
 62
     7
 48
0.026684
100
AcDbLine
 10
3.630311
 20
488.651535
 30
0.0
 11
3.630311
 21
487.584183
 31
0.0
210
0.0
220
0.0
230
1.0
  0
LINE
  5
43A
100
AcDbEntity
  8
0
 62
     7
 48
0.146632
100
AcDbLine
 10
3.630311
 20
494.516815
 30
0.0
 11
3.630311
 21
488.651535
 31
0.0
210
0.0
220
0.0
230
1.0
  0
LINE
  5
43B
100
AcDbEntity
  8
0
 62
     7
 48
0.026684
100
AcDbLine
 10
3.630311
 20
495.584183
 30
0.0
 11
3.630311
 21
494.516815
 31
0.0
210
0.0
220
0.0
230
1.0
  0
ARC
  5
43C
100
AcDbEntity
  8
0
 62
     7
100
AcDbCircle
 10
2.830311
 20
487.584183
 30
0.0
 40
0.8
210
0.0
220
0.0
230
1.0
100
AcDbArc
 50
270.000001
 51
0.000163
  0
LINE
  5
43D
100
AcDbEntity
  8
0
 62
     7
 48
0.0175
100
AcDbLine
 10
2.130311
 20
486.78418
 30
0.0
 11
2.830311
 21
486.78418
 31
0.0
210
0.0
220
0.0
230
1.0
  0
LINE
  5
43E
100
AcDbEntity
  8
0
 62
     7
100
AcDbLine
 10
2.130311
 20
486.78418
 30
0.0
 11
-17.869689
 21
486.78418
 31
0.0
210
0.0
220
0.0
230
1.0
  0
LINE
  5
43F
100
AcDbEntity
  8
0
 62
     7
 48
0.0175
100
AcDbLine
 10
-17.869689
 20
486.78418
 30
0.0
 11
-18.569686
 21
486.78418
 31
0.0
210
0.0
220
0.0
230
1.0
  0
ARC
  5
440
100
AcDbEntity
  8
0
 62
     7
100
AcDbCircle
 10
-18.569686
 20
487.584183
 30
0.0
 40
0.8
210
0.0
220
0.0
230
1.0
100
AcDbArc
 50
179.999841
 51
270.000001
  0
LINE
  5
441
100
AcDbEntity
  8
0
 62
     7
 48
0.026684
100
AcDbLine
 10
-19.369689
 20
488.651535
 30
0.0
 11
-19.369689
 21
487.584183
 31
0.0
210
0.0
220
0.0
230
1.0
  0
LINE
  5
442
100
AcDbEntity
  8
0
 62
     7
 48
0.146632
100
AcDbLine
 10
-19.369689
 20
494.516815
 30
0.0
 11
-19.369689
 21
488.651535
 31
0.0
210
0.0
220
0.0
230
1.0
  0
LINE
  5
443
100
AcDbEntity
  8
0
 62
     7
 48
0.026684
100
AcDbLine
 10
-19.369689
 20
495.584183
 30
0.0
 11
-19.369689
 21
494.516815
 31
0.0
210
0.0
220
0.0
230
1.0
  0
ARC
  5
444
100
AcDbEntity
  8
0
 62
     7
100
AcDbCircle
 10
-18.569686
 20
495.584183
 30
0.0
 40
0.8
210
0.0
220
0.0
230
1.0
100
AcDbArc
 50
90.000003
 51
179.999841
  0
LINE
  5
445
100
AcDbEntity
  8
0
 62
     7
 48
0.0175
100
AcDbLine
 10
-17.869689
 20
496.384178
 30
0.0
 11
-18.569686
 21
496.384178
 31
0.0
210
0.0
220
0.0
230
1.0
  0
LINE
  5
446
100
AcDbEntity
  8
0
 62
     7
100
AcDbLine
 10
2.130311
 20
496.384178
 30
0.0
 11
-17.869689
 21
496.384178
 31
0.0
210
0.0
220
0.0
230
1.0
  0
LINE
  5
447
100
AcDbEntity
  8
0
 62
     7
 48
0.0175
100
AcDbLine
 10
2.130311
 20
496.384178
 30
0.0
 11
2.830311
 21
496.384178
 31
0.0
210
0.0
220
0.0
230
1.0
  0
ARC
  5
448
100
AcDbEntity
  8
0
 62
     7
100
AcDbCircle
 10
2.830311
 20
495.584183
 30
0.0
 40
0.8
210
0.0
220
0.0
230
1.0
100
AcDbArc
 50
0.000163
 51
90.000003
  0
CIRCLE
  5
449
100
AcDbEntity
  8
0
 62
     7
100
AcDbCircle
 10
-38.869689
 20
478.834183
 30
0.0
 40
2.75
210
0.0
220
0.0
230
1.0
  0
CIRCLE
  5
44A
100
AcDbEntity
  8
0
 62
     7
100
AcDbCircle
 10
-38.869689
 20
478.834183
 30
0.0
 40
1.75
210
0.0
220
0.0
230
1.0
  0
CIRCLE
  5
44B
100
AcDbEntity
  8
0
 62
     7
100
AcDbCircle
 10
-7.869689
 20
491.584175
 30
0.0
 40
26.450001
210
0.0
220
0.0
230
1.0
  0
CIRCLE
  5
44C
100
AcDbEntity
  8
0
 62
     7
100
AcDbCircle
 10
-7.869689
 20
491.584183
 30
0.0
 40
28.450001
210
0.0
220
0.0
230
1.0
  0
INSERT
  5
644
100
AcDbEntity
  8
0
100
AcDbBlockReference
  2
BLOCK0
 10
0.0
 20
0.0
 30
0.0
210
0.0
220
0.0
230
1.0
  0
INSERT
  5
645
100
AcDbEntity
  8
0
100
AcDbBlockReference
  2
BLOCK1
 10
0.0
 20
0.0
 30
0.0
210
0.0
220
0.0
230
1.0
  0
INSERT
  5
646
100
AcDbEntity
  8
0
100
AcDbBlockReference
  2
BLOCK2
 10
0.0
 20
0.0
 30
0.0
210
0.0
220
0.0
230
1.0
  0
INSERT
  5
647
100
AcDbEntity
  8
0
100
AcDbBlockReference
  2
BLOCK3
 10
0.0
 20
0.0
 30
0.0
210
0.0
220
0.0
230
1.0
  0
INSERT
  5
648
100
AcDbEntity
  8
0
100
AcDbBlockReference
  2
BLOCK4
 10
372.699879
 20
480.584183
 30
0.0
210
0.0
220
0.0
230
1.0
  0
INSERT
  5
649
100
AcDbEntity
  8
0
100
AcDbBlockReference
  2
BLOCK5
 10
372.699879
 20
480.584183
 30
0.0
210
0.0
220
0.0
230
1.0
  0
INSERT
  5
64A
100
AcDbEntity
  8
0
100
AcDbBlockReference
  2
BLOCK6
 10
372.699879
 20
480.584183
 30
0.0
210
0.0
220
0.0
230
1.0
  0
INSERT
  5
64B
100
AcDbEntity
  8
0
100
AcDbBlockReference
  2
BLOCK7
 10
372.699879
 20
480.584183
 30
0.0
210
0.0
220
0.0
230
1.0
  0
INSERT
  5
64C
100
AcDbEntity
  8
0
100
AcDbBlockReference
  2
BLOCK8
 10
372.699879
 20
480.584183
 30
0.0
210
0.0
220
0.0
230
1.0
  0
INSERT
  5
64D
100
AcDbEntity
  8
0
100
AcDbBlockReference
  2
BLOCK9
 10
372.699879
 20
480.584183
 30
0.0
210
0.0
220
0.0
230
1.0
  0
INSERT
  5
64E
100
AcDbEntity
  8
0
100
AcDbBlockReference
  2
BLOCK10
 10
372.699879
 20
480.584183
 30
0.0
210
0.0
220
0.0
230
1.0
  0
INSERT
  5
64F
100
AcDbEntity
  8
0
100
AcDbBlockReference
  2
BLOCK11
 10
98.360596
 20
401.584183
 30
0.0
210
0.0
220
0.0
230
1.0
  0
INSERT
  5
650
100
AcDbEntity
  8
0
100
AcDbBlockReference
  2
BLOCK12
 10
98.360596
 20
401.584183
 30
0.0
210
0.0
220
0.0
230
1.0
  0
INSERT
  5
651
100
AcDbEntity
  8
0
100
AcDbBlockReference
  2
BLOCK13
 10
98.360596
 20
401.584183
 30
0.0
210
0.0
220
0.0
230
1.0
  0
INSERT
  5
652
100
AcDbEntity
  8
0
100
AcDbBlockReference
  2
BLOCK14
 10
98.360596
 20
401.584183
 30
0.0
210
0.0
220
0.0
230
1.0
  0
INSERT
  5
653
100
AcDbEntity
  8
0
100
AcDbBlockReference
  2
BLOCK15
 10
98.360596
 20
401.584183
 30
0.0
210
0.0
220
0.0
230
1.0
  0
INSERT
  5
654
100
AcDbEntity
  8
0
100
AcDbBlockReference
  2
BLOCK16
 10
98.360596
 20
401.584183
 30
0.0
210
0.0
220
0.0
230
1.0
  0
INSERT
  5
655
100
AcDbEntity
  8
0
100
AcDbBlockReference
  2
BLOCK17
 10
98.360596
 20
401.584183
 30
0.0
210
0.0
220
0.0
230
1.0
  0
INSERT
  5
656
100
AcDbEntity
  8
0
100
AcDbBlockReference
  2
BLOCK18
 10
98.360596
 20
401.584183
 30
0.0
210
0.0
220
0.0
230
1.0
  0
INSERT
  5
657
100
AcDbEntity
  8
0
100
AcDbBlockReference
  2
BLOCK19
 10
98.360596
 20
401.584183
 30
0.0
210
0.0
220
0.0
230
1.0
  0
INSERT
  5
658
100
AcDbEntity
  8
0
100
AcDbBlockReference
  2
BLOCK20
 10
98.360596
 20
401.584183
 30
0.0
210
0.0
220
0.0
230
1.0
  0
INSERT
  5
659
100
AcDbEntity
  8
0
100
AcDbBlockReference
  2
BLOCK21
 10
98.360596
 20
401.584183
 30
0.0
210
0.0
220
0.0
230
1.0
  0
INSERT
  5
65A
100
AcDbEntity
  8
0
100
AcDbBlockReference
  2
BLOCK22
 10
98.360596
 20
401.584183
 30
0.0
210
0.0
220
0.0
230
1.0
  0
INSERT
  5
65B
100
AcDbEntity
  8
0
100
AcDbBlockReference
  2
BLOCK23
 10
36.045182
 20
401.584183
 30
0.0
210
0.0
220
0.0
230
1.0
  0
INSERT
  5
65C
100
AcDbEntity
  8
0
100
AcDbBlockReference
  2
BLOCK24
 10
36.045182
 20
401.584183
 30
0.0
210
0.0
220
0.0
230
1.0
  0
INSERT
  5
65D
100
AcDbEntity
  8
0
100
AcDbBlockReference
  2
BLOCK25
 10
36.045182
 20
401.584183
 30
0.0
210
0.0
220
0.0
230
1.0
  0
INSERT
  5
65E
100
AcDbEntity
  8
0
100
AcDbBlockReference
  2
BLOCK26
 10
36.045182
 20
401.584183
 30
0.0
210
0.0
220
0.0
230
1.0
  0
INSERT
  5
65F
100
AcDbEntity
  8
0
100
AcDbBlockReference
  2
BLOCK27
 10
36.045182
 20
401.584183
 30
0.0
210
0.0
220
0.0
230
1.0
  0
INSERT
  5
660
100
AcDbEntity
  8
0
100
AcDbBlockReference
  2
BLOCK28
 10
36.045182
 20
401.584183
 30
0.0
210
0.0
220
0.0
230
1.0
  0
INSERT
  5
661
100
AcDbEntity
  8
0
100
AcDbBlockReference
  2
BLOCK29
 10
36.045182
 20
401.584183
 30
0.0
210
0.0
220
0.0
230
1.0
  0
INSERT
  5
662
100
AcDbEntity
  8
0
100
AcDbBlockReference
  2
BLOCK30
 10
36.045182
 20
401.584183
 30
0.0
210
0.0
220
0.0
230
1.0
  0
INSERT
  5
663
100
AcDbEntity
  8
0
100
AcDbBlockReference
  2
BLOCK31
 10
36.045182
 20
401.584183
 30
0.0
210
0.0
220
0.0
230
1.0
  0
INSERT
  5
664
100
AcDbEntity
  8
0
100
AcDbBlockReference
  2
BLOCK32
 10
36.045182
 20
401.584183
 30
0.0
210
0.0
220
0.0
230
1.0
  0
INSERT
  5
665
100
AcDbEntity
  8
0
100
AcDbBlockReference
  2
BLOCK33
 10
36.045182
 20
401.584183
 30
0.0
210
0.0
220
0.0
230
1.0
  0
INSERT
  5
666
100
AcDbEntity
  8
0
100
AcDbBlockReference
  2
BLOCK34
 10
36.045182
 20
401.584183
 30
0.0
210
0.0
220
0.0
230
1.0
  0
INSERT
  5
667
100
AcDbEntity
  8
0
100
AcDbBlockReference
  2
BLOCK35
 10
36.045182
 20
401.584183
 30
0.0
210
0.0
220
0.0
230
1.0
  0
INSERT
  5
668
100
AcDbEntity
  8
0
100
AcDbBlockReference
  2
BLOCK36
 10
36.045182
 20
401.584183
 30
0.0
210
0.0
220
0.0
230
1.0
  0
INSERT
  5
669
100
AcDbEntity
  8
0
100
AcDbBlockReference
  2
BLOCK37
 10
36.045182
 20
401.584183
 30
0.0
210
0.0
220
0.0
230
1.0
  0
INSERT
  5
66A
100
AcDbEntity
  8
0
100
AcDbBlockReference
  2
BLOCK38
 10
36.045182
 20
401.584183
 30
0.0
210
0.0
220
0.0
230
1.0
  0
INSERT
  5
66B
100
AcDbEntity
  8
0
100
AcDbBlockReference
  2
BLOCK39
 10
36.045182
 20
401.584183
 30
0.0
210
0.0
220
0.0
230
1.0
  0
INSERT
  5
66C
100
AcDbEntity
  8
0
100
AcDbBlockReference
  2
BLOCK40
 10
36.045182
 20
401.584183
 30
0.0
210
0.0
220
0.0
230
1.0
  0
INSERT
  5
66D
100
AcDbEntity
  8
0
100
AcDbBlockReference
  2
BLOCK41
 10
36.045182
 20
401.584183
 30
0.0
210
0.0
220
0.0
230
1.0
  0
INSERT
  5
66E
100
AcDbEntity
  8
0
100
AcDbBlockReference
  2
BLOCK42
 10
36.045182
 20
401.584183
 30
0.0
210
0.0
220
0.0
230
1.0
  0
INSERT
  5
66F
100
AcDbEntity
  8
0
100
AcDbBlockReference
  2
BLOCK43
 10
36.045182
 20
401.584183
 30
0.0
210
0.0
220
0.0
230
1.0
  0
INSERT
  5
670
100
AcDbEntity
  8
0
100
AcDbBlockReference
  2
BLOCK44
 10
36.045182
 20
401.584183
 30
0.0
210
0.0
220
0.0
230
1.0
  0
INSERT
  5
671
100
AcDbEntity
  8
0
100
AcDbBlockReference
  2
BLOCK45
 10
36.045182
 20
401.584183
 30
0.0
210
0.0
220
0.0
230
1.0
  0
INSERT
  5
672
100
AcDbEntity
  8
0
100
AcDbBlockReference
  2
BLOCK46
 10
36.045182
 20
401.584183
 30
0.0
210
0.0
220
0.0
230
1.0
  0
ENDSEC
  0
SECTION
  2
OBJECTS
  0
DICTIONARY
  5
19
100
AcDbDictionary
  3
ACAD_GROUP
350
1A
  3
ACAD_MLINESTYLE
350
1B
  0
DICTIONARY
  5
1A
102
{ACAD_REACTORS
330
19
102
}
100
AcDbDictionary
  0
DICTIONARY
  5
1B
102
{ACAD_REACTORS
330
19
102
}
100
AcDbDictionary
  3
STANDARD
350
1C
  0
MLINESTYLE
  5
1C
102
{ACAD_REACTORS
330
1B
102
}
100
AcDbMlineStyle
  2
STANDARD
 70
     0
  3

 62
     0
 51
90.0
 52
90.0
 71
     2
 49
0.5
 62
   256
  6
BYLAYER
 49
-0.5
 62
   256
  6
BYLAYER
  0
ENDSEC
  0
EOF
