  0
SECTION
  2
HEADER
  9
$ACADVER
  1
AC1009
  9
$DWGCODEPAGE
  3
iso8859-1
  9
$INSBASE
 10
0.0
 20
0.0
 30
0.0
  9
$EXTMIN
 10
1.0E20
 20
1.0E20
  9
$EXTMAX
 10
-1.0E20
 20
-1.0E20
  9
$LIMMIN
 10
0.0
 20
0.0
  9
$LIMMAX
 10
12.0
 20
9.0
  9
$ORTHOMODE
 70
     0
  9
$REGENMODE
 70
     1
  9
$FILLMODE
 70
     1
  9
$QTEXTMODE
 70
     0
  9
$MIRRTEXT
 70
     1
  9
$DRAGMODE
 70
     2
  9
$LTSCALE
 40
15.0
  9
$OSMODE
 70
     0
  9
$ATTMODE
 70
     1
  9
$TEXTSIZE
 40
0.2
  9
$TRACEWID
 40
0.05
  9
$TEXTSTYLE
  7
STANDARD
  9
$CLAYER
  8
0
  9
$CELTYPE
  6
DASHED
  9
$CECOLOR
 62
   256
  9
$DIMSCALE
 40
1.0
  9
$DIMASZ
 40
0.18
  9
$DIMEXO
 40
0.0625
  9
$DIMDLI
 40
0.38
  9
$DIMRND
 40
0.0
  9
$DIMDLE
 40
0.0
  9
$DIMEXE
 40
0.18
  9
$DIMTP
 40
0.0
  9
$DIMTM
 40
0.0
  9
$DIMTXT
 40
0.18
  9
$DIMCEN
 40
0.09
  9
$DIMTSZ
 40
0.0
  9
$DIMTOL
 70
     0
  9
$DIMLIM
 70
     0
  9
$DIMTIH
 70
     1
  9
$DIMTOH
 70
     1
  9
$DIMSE1
 70
     0
  9
$DIMSE2
 70
     0
  9
$DIMTAD
 70
     0
  9
$DIMZIN
 70
     0
  9
$DIMBLK
  1

  9
$DIMASO
 70
     1
  9
$DIMSHO
 70
     1
  9
$DIMPOST
  1

  9
$DIMAPOST
  1

  9
$DIMALT
 70
     0
  9
$DIMALTD
 70
     2
  9
$DIMALTF
 40
25.4
  9
$DIMLFAC
 40
1.0
  9
$DIMTOFL
 70
     0
  9
$DIMTVP
 40
0.0
  9
$DIMTIX
 70
     0
  9
$DIMSOXD
 70
     0
  9
$DIMSAH
 70
     0
  9
$DIMBLK1
  1

  9
$DIMBLK2
  1

  9
$DIMSTYLE
  2
STANDARD
  9
$DIMCLRD
 70
     0
  9
$DIMCLRE
 70
     0
  9
$DIMCLRT
 70
     0
  9
$DIMTFAC
 40
1.0
  9
$DIMGAP
 40
0.09
  9
$LUNITS
 70
     2
  9
$LUPREC
 70
     4
  9
$AXISMODE
 70
     0
  9
$AXISUNIT
 10
0.0
 20
0.0
  9
$SKETCHINC
 40
0.1
  9
$FILLETRAD
 40
0.0
  9
$AUNITS
 70
     0
  9
$AUPREC
 70
     0
  9
$MENU
  1
acad
  9
$ELEVATION
 40
0.0
  9
$PELEVATION
 40
0.0
  9
$THICKNESS
 40
0.0
  9
$LIMCHECK
 70
     0
  9
$BLIPMODE
 70
     1
  9
$CHAMFERA
 40
0.0
  9
$CHAMFERB
 40
0.0
  9
$SKPOLY
 70
     0
  9
$TDCREATE
 40
0.000000000
  9
$TDUPDATE
 40
0.000000000
  9
$TDINDWG
 40
0.0
  9
$TDUSRTIMER
 40
0.0
  9
$USRTIMER
 70
     1
  9
$ANGBASE
 50
0.0
  9
$ANGDIR
 70
     0
  9
$PDMODE
 70
     0
  9
$PDSIZE
 40
0.0
  9
$PLINEWID
 40
0.0
  9
$COORDS
 70
     1
  9
$SPLFRAME
 70
     0
  9
$SPLINETYPE
 70
     6
  9
$SPLINESEGS
 70
     8
  9
$ATTDIA
 70
     0
  9
$ATTREQ
 70
     1
  9
$HANDLING
 70
     1
  9
$HANDSEED
  5
   714
  9
$SURFTAB1
 70
     6
  9
$SURFTAB2
 70
     6
  9
$SURFTYPE
 70
     6
  9
$SURFU
 70
     6
  9
$SURFV
 70
     6
  9
$UCSNAME
  2

  9
$UCSORG
 10
0.0
 20
0.0
 30
0.0
  9
$UCSXDIR
 10
1.0
 20
0.0
 30
0.0
  9
$UCSYDIR
 10
0.0
 20
1.0
 30
0.0
  9
$PUCSNAME
  2

  9
$PUCSORG
 10
0.0
 20
0.0
 30
0.0
  9
$PUCSXDIR
 10
1.0
 20
0.0
 30
0.0
  9
$PUCSYDIR
 10
0.0
 20
1.0
 30
0.0
  9
$USERI1
 70
     0
  9
$USERI2
 70
     0
  9
$USERI3
 70
     0
  9
$USERI4
 70
     0
  9
$USERI5
 70
     0
  9
$USERR1
 40
0.0
  9
$USERR2
 40
0.0
  9
$USERR3
 40
0.0
  9
$USERR4
 40
0.0
  9
$USERR5
 40
0.0
  9
$WORLDVIEW
 70
     1
  9
$SHADEDGE
 70
     3
  9
$SHADEDIF
 70
    70
  9
$TILEMODE
 70
     1
  9
$MAXACTVP
 70
    16
  9
$PINSBASE
 10
0.0
 20
0.0
 30
0.0
  9
$PLIMCHECK
 70
     0
  9
$PEXTMIN
 10
1.0E20
 20
1.0E20
 30
1.0E20
  9
$PEXTMAX
 10
-1.0E20
 20
-1.0E20
 30
-1.0E20
  9
$PLIMMIN
 10
0.0
 20
0.0
  9
$PLIMMAX
 10
12.0
 20
9.0
  9
$UNITMODE
 70
     0
  9
$VISRETAIN
 70
     0
  0
ENDSEC
  0
SECTION
  2
TABLES
  0
TABLE
  2
VPORT
 70
     1
  0
VPORT
  2
*ACTIVE
 70
     0
 10
0.0
 20
0.0
 11
1.0
 21
1.0
 12
6.801242
 22
4.5
 13
0.0
 23
0.0
 14
1.0
 24
1.0
 15
0.0
 25
0.0
 16
0.0
 26
0.0
 36
1.0
 17
0.0
 27
0.0
 37
0.0
 40
9.0
 41
1.511387
 42
50.0
 43
0.0
 44
0.0
 50
0.0
 51
0.0
 71
     0
 72
   100
 73
     1
 74
     1
 75
     0
 76
     0
 77
     0
 78
     0
  0
ENDTAB
  0
TABLE
  2
LTYPE
 70
    41
  0
LTYPE
  2
BYBLOCK
 70
     0
  3

 72
    65
 73
     0
 40
0.0
  0
LTYPE
  2
BYLAYER
 70
     0
  3

 72
    65
 73
     0
 40
0.0
  0
LTYPE
  2
CONTINUOUS
 70
     0
  3
Solid line
 72
    65
 73
     0
 40
0.0
  0
LTYPE
  2
BORDER
 70
    64
  3
__ __ . __ __ . __ __ . __ __ . __ __ . __ __ .
 72
    65
 73
     6
 40
1.75
 49
0.5
 49
-0.25
 49
0.5
 49
-0.25
 49
0.0
 49
-0.25
  0
LTYPE
  2
BORDER2
 70
    64
  3
__.__.__.__.__.__.__.__.__.__.__.__.__.__.__.__
 72
    65
 73
     6
 40
0.875
 49
0.25
 49
-0.125
 49
0.25
 49
-0.125
 49
0.0
 49
-0.125
  0
LTYPE
  2
BORDERX2
 70
    64
  3
____  ____  .  ____  ____  .  ____  ____  .  __
 72
    65
 73
     6
 40
3.5
 49
1.0
 49
-0.5
 49
1.0
 49
-0.5
 49
0.0
 49
-0.5
  0
LTYPE
  2
CENTER
 70
    64
  3
____ _ ____ _ ____ _ ____ _ ____ _ ____ _ ____
 72
    65
 73
     4
 40
2.0
 49
1.25
 49
-0.25
 49
0.25
 49
-0.25
  0
LTYPE
  2
CENTER2
 70
    64
  3
___ _ ___ _ ___ _ ___ _ ___ _ ___ _ ___ _ ___ _
 72
    65
 73
     4
 40
1.125
 49
0.75
 49
-0.125
 49
0.125
 49
-0.125
  0
LTYPE
  2
CENTERX2
 70
    64
  3
________  __  ________  __  ________  __  _____
 72
    65
 73
     4
 40
4.0
 49
2.5
 49
-0.5
 49
0.5
 49
-0.5
  0
LTYPE
  2
DASHDOT
 70
    64
  3
__ . __ . __ . __ . __ . __ . __ . __ . __ . __
 72
    65
 73
     4
 40
1.0
 49
0.5
 49
-0.25
 49
0.0
 49
-0.25
  0
LTYPE
  2
DASHDOT2
 70
    64
  3
_._._._._._._._._._._._._._._._._._._._._._._._
 72
    65
 73
     4
 40
0.5
 49
0.25
 49
-0.125
 49
0.0
 49
-0.125
  0
LTYPE
  2
DASHDOTX2
 70
    64
  3
____  .  ____  .  ____  .  ____  .  ____  .  __
 72
    65
 73
     4
 40
2.0
 49
1.0
 49
-0.5
 49
0.0
 49
-0.5
  0
LTYPE
  2
DASHED
 70
    64
  3
__ __ __ __ __ __ __ __ __ __ __ __ __ __ __ __
 72
    65
 73
     2
 40
0.75
 49
0.5
 49
-0.25
  0
LTYPE
  2
DASHED2
 70
    64
  3
_ _ _ _ _ _ _ _ _ _ _ _ _ _ _ _ _ _ _ _ _ _ _ _
 72
    65
 73
     2
 40
0.375
 49
0.25
 49
-0.125
  0
LTYPE
  2
DASHEDX2
 70
    64
  3
____  ____  ____  ____  ____  ____  ____  ____
 72
    65
 73
     2
 40
1.5
 49
1.0
 49
-0.5
  0
LTYPE
  2
DIVIDE
 70
    64
  3
____ . . ____ . . ____ . . ____ . . ____ . . __
 72
    65
 73
     6
 40
1.25
 49
0.5
 49
-0.25
 49
0.0
 49
-0.25
 49
0.0
 49
-0.25
  0
LTYPE
  2
DIVIDE2
 70
    64
  3
__..__..__..__..__..__..__..__..__..__..__..__.
 72
    65
 73
     6
 40
0.625
 49
0.25
 49
-0.125
 49
0.0
 49
-0.125
 49
0.0
 49
-0.125
  0
LTYPE
  2
DIVIDEX2
 70
    64
  3
________  .  .  ________  .  .  ________  .  .
 72
    65
 73
     6
 40
2.5
 49
1.0
 49
-0.5
 49
0.0
 49
-0.5
 49
0.0
 49
-0.5
  0
LTYPE
  2
DOT
 70
    64
  3
. . . . . . . . . . . . . . . . . . . . . . . .
 72
    65
 73
     2
 40
0.25
 49
0.0
 49
-0.25
  0
LTYPE
  2
DOT2
 70
    64
  3
...............................................
 72
    65
 73
     2
 40
0.125
 49
0.0
 49
-0.125
  0
LTYPE
  2
DOTX2
 70
    64
  3
.  .  .  .  .  .  .  .  .  .  .  .  .  .  .  .
 72
    65
 73
     2
 40
0.5
 49
0.0
 49
-0.5
  0
LTYPE
  2
HIDDEN
 70
    64
  3
__ __ __ __ __ __ __ __ __ __ __ __ __ __ __ __
 72
    65
 73
     2
 40
0.375
 49
0.25
 49
-0.125
  0
LTYPE
  2
HIDDEN2
 70
    64
  3
_ _ _ _ _ _ _ _ _ _ _ _ _ _ _ _ _ _ _ _ _ _ _ _
 72
    65
 73
     2
 40
0.1875
 49
0.125
 49
-0.0625
  0
LTYPE
  2
HIDDENX2
 70
    64
  3
____ ____ ____ ____ ____ ____ ____ ____ ____ __
 72
    65
 73
     2
 40
0.75
 49
0.5
 49
-0.25
  0
LTYPE
  2
PHANTOM
 70
    64
  3
______  __  __  ______  __  __  ______  __  __
 72
    65
 73
     6
 40
2.5
 49
1.25
 49
-0.25
 49
0.25
 49
-0.25
 49
0.25
 49
-0.25
  0
LTYPE
  2
PHANTOM2
 70
    64
  3
___ _ _ ___ _ _ ___ _ _ ___ _ _ ___ _ _ ___ _ _
 72
    65
 73
     6
 40
1.25
 49
0.625
 49
-0.125
 49
0.125
 49
-0.125
 49
0.125
 49
-0.125
  0
LTYPE
  2
PHANTOMX2
 70
    64
  3
____________    ____    ____    ____________
 72
    65
 73
     6
 40
5.0
 49
2.5
 49
-0.5
 49
0.5
 49
-0.5
 49
0.5
 49
-0.5
  0
LTYPE
  2
ACAD_ISO02W100
 70
    64
  3
__ __ __ __ __ __ __ __ __ __ __ __ __ __ __ __
 72
    65
 73
     2
 40
15.0
 49
12.0
 49
-3.0
  0
LTYPE
  2
ACAD_ISO03W100
 70
    64
  3
__    __    __    __    __    __    __    __
 72
    65
 73
     2
 40
30.0
 49
12.0
 49
-18.0
  0
LTYPE
  2
ACAD_ISO04W100
 70
    64
  3
____ . ____ . ____ . ____ . ____ . ____ . ____
 72
    65
 73
     4
 40
30.5
 49
24.0
 49
-3.0
 49
0.5
 49
-3.0
  0
LTYPE
  2
ACAD_ISO05W100
 70
    64
  3
____ .. ____ .. ____ .. ____ .. ____ .. ____ ..
 72
    65
 73
     6
 40
34.0
 49
24.0
 49
-3.0
 49
0.5
 49
-3.0
 49
0.5
 49
-3.0
  0
LTYPE
  2
ACAD_ISO06W100
 70
    64
  3
____ ... ____ ... ____ ... ____ ... ____ ... __
 72
    65
 73
     8
 40
37.5
 49
24.0
 49
-3.0
 49
0.5
 49
-3.0
 49
0.5
 49
-3.0
 49
0.5
 49
-3.0
  0
LTYPE
  2
ACAD_ISO07W100
 70
    64
  3
. . . . . . . . . . . . . . . . . . . . . . . .
 72
    65
 73
     2
 40
3.5
 49
0.5
 49
-3.0
  0
LTYPE
  2
ACAD_ISO08W100
 70
    64
  3
____ __ ____ __ ____ __ ____ ____ __ __ ____ __
 72
    65
 73
     4
 40
36.0
 49
24.0
 49
-3.0
 49
6.0
 49
-3.0
  0
LTYPE
  2
ACAD_ISO09W100
 70
    64
  3
____ __ __ ____ __ __ ____ __ __ ____ __ __ ___
 72
    65
 73
     6
 40
45.0
 49
24.0
 49
-3.0
 49
6.0
 49
-3.0
 49
6.0
 49
-3.0
  0
LTYPE
  2
ACAD_ISO10W100
 70
    64
  3
__ . __ . __ . __ . __ . __ . __ . __ . __ . __
 72
    65
 73
     4
 40
18.5
 49
12.0
 49
-3.0
 49
0.5
 49
-3.0
  0
LTYPE
  2
ACAD_ISO11W100
 70
    64
  3
__ __ . __ __ . __ __ . __ __ . __ __ . __ __ .
 72
    65
 73
     6
 40
33.5
 49
12.0
 49
-3.0
 49
12.0
 49
-3.0
 49
0.5
 49
-3.0
  0
LTYPE
  2
ACAD_ISO12W100
 70
    64
  3
__ . . __ . . __ . . __ . . __ . . __ . . __ .
 72
    65
 73
     6
 40
22.0
 49
12.0
 49
-3.0
 49
0.5
 49
-3.0
 49
0.5
 49
-3.0
  0
LTYPE
  2
ACAD_ISO13W100
 70
    64
  3
__ __ . . __ __ . . __ __ . . __ __ . . __ __ .
 72
    65
 73
     8
 40
37.0
 49
12.0
 49
-3.0
 49
12.0
 49
-3.0
 49
0.5
 49
-3.0
 49
0.5
 49
-3.0
  0
LTYPE
  2
ACAD_ISO14W100
 70
    64
  3
__ . . . __ . . . __ . . . __ . . . __ . . . __
 72
    65
 73
     8
 40
25.5
 49
12.0
 49
-3.0
 49
0.5
 49
-3.0
 49
0.5
 49
-3.0
 49
0.5
 49
-3.0
  0
LTYPE
  2
ACAD_ISO15W100
 70
    64
  3
__ __ . . . __ __ . . . __ __ . . . __ __ . . .
 72
    65
 73
    10
 40
40.5
 49
12.0
 49
-3.0
 49
12.0
 49
-3.0
 49
0.5
 49
-3.0
 49
0.5
 49
-3.0
 49
0.5
 49
-3.0
  0
ENDTAB
  0
TABLE
  2
STYLE
 70
     4
  0
STYLE
  2
STANDARD
 70
    64
 40
0.0
 41
1.0
 50
0.0
 71
     0
 42
0.2
  3
txt
  4

  0
STYLE
  2
TOLERANCE
 70
    64
 40
0.0
 41
1.0
 50
0.0
 71
     0
 42
0.2
  3
../igesfont/iges1003.shx
  4

  0
STYLE
  2
ROMANS
 70
    64
 40
0.0
 41
1.0
 50
0.0
 71
     0
 42
0.2
  3
romans.shx
  4

  0
STYLE
  2
ROMANC
 70
    64
 40
0.0
 41
1.0
 50
0.0
 71
     0
 42
0.2
  3
romanc.shx
  4

  0
ENDTAB
  0
TABLE
  2
DIMSTYLE
 70
     2
  0
DIMSTYLE
  2
UNNAMED
 70
     0
  3

  4

  5

  6

  7

 40
1.0
 41
0.18
 42
0.0625
 43
0.38
 44
0.18
 45
0.0
 46
0.0
 47
0.0
 48
0.0
140
0.18
141
0.09
142
0.0
143
25.4
144
1.0
145
0.0
146
1.0
147
0.09
 71
     0
 72
     0
 73
     1
 74
     1
 75
     0
 76
     0
 77
     0
 78
     0
170
     0
171
     2
172
     0
173
     0
174
     0
175
     0
176
     0
177
     0
178
     0
  0
DIMSTYLE
  2
STANDARD
 70
     0
  3

  4

  5

  6

  7

 40
1.0
 41
0.18
 42
0.0625
 43
0.38
 44
0.18
 45
0.0
 46
0.0
 47
0.0
 48
0.0
140
0.18
141
0.09
142
0.0
143
25.4
144
1.0
145
0.0
146
1.0
147
0.09
 71
     0
 72
     0
 73
     1
 74
     1
 75
     0
 76
     0
 77
     0
 78
     0
170
     0
171
     2
172
     0
173
     0
174
     0
175
     0
176
     0
177
     0
178
     0
  0
ENDTAB
  0
TABLE
  2
LAYER
 70
     2
  0
LAYER
  2
0
 70
     0
 62
     7
  6
CONTINUOUS
  0
LAYER
  2
255
 70
     0
 62
     7
  6
CONTINUOUS
  0
ENDTAB
  0
ENDSEC
  0
SECTION
  2
BLOCKS
  0
BLOCK
  5
     B
  8
0
  6
CONTINUOUS
 62
     7
  2
MOSTRA
 70
    64
 10
0.0
 20
0.0
 30
0.0
  3
MOSTRA
  0
LINE
  5
     C
  8
0
  6
CONTINUOUS
 62
     2
 10
175.338317871094
 20
34.312744140625
 30
0.0
 11
210.838317871094
 21
34.312744140625
 31
0.0
  0
LINE
  5
     D
  8
0
  6
CONTINUOUS
 62
     2
 10
175.338317871094
 20
49.312744140625
 30
0.0
 11
210.838317871094
 21
49.312744140625
 31
0.0
  0
LINE
  5
     E
  8
0
  6
CONTINUOUS
 62
     2
 10
210.838317871094
 20
33.312744140625
 30
0.0
 11
210.838317871094
 21
50.312744140625
 31
0.0
  0
LINE
  5
     F
  8
0
  6
CONTINUOUS
 62
     2
 10
175.338317871094
 20
34.312744140625
 30
0.0
 11
175.338317871094
 21
49.312744140625
 31
0.0
  0
LINE
  5
    10
  8
0
  6
CONTINUOUS
 62
     2
 10
210.838317871094
 20
50.312744140625
 30
0.0
 11
210.838317871094
 21
148.306442260742
 31
0.0
  0
LINE
  5
    11
  8
0
  6
CONTINUOUS
 62
     2
 10
210.838317871094
 20
-10.187255859375
 30
0.0
 11
210.838317871094
 21
33.3127403259278
 31
0.0
  0
LINE
  5
    12
  8
0
  6
CONTINUOUS
 62
     2
 10
37.5883140563965
 20
-11.437255859375
 30
0.0
 11
209.588317871094
 21
-11.437255859375
 31
0.0
  0
LINE
  5
    13
  8
0
  6
CONTINUOUS
 62
     2
 10
36.3383140563965
 20
-10.187255859375
 30
0.0
 11
36.3383140563965
 21
148.306442260742
 31
0.0
  0
LINE
  5
    14
  8
0
  6
CONTINUOUS
 62
     2
 10
175.338317871094
 20
128.562744140625
 30
0.0
 11
175.338317871094
 21
129.562744140625
 31
0.0
  0
LINE
  5
    15
  8
0
  6
CONTINUOUS
 62
     2
 10
45.3383140563965
 20
128.562744140625
 30
0.0
 11
45.3383140563965
 21
129.562744140625
 31
0.0
  0
LINE
  5
    16
  8
0
  6
CONTINUOUS
 62
     2
 10
175.338317871094
 20
8.56274414062501
 30
0.0
 11
175.338317871094
 21
9.56274414062501
 31
0.0
  0
LINE
  5
    17
  8
0
  6
CONTINUOUS
 62
     2
 10
46.3383140563965
 20
8.562744140625
 30
0.0
 11
174.338314056396
 21
8.56274414062501
 31
0.0
  0
LINE
  5
    18
  8
0
  6
CONTINUOUS
 62
     2
 10
45.3383140563965
 20
8.562744140625
 30
0.0
 11
45.3383140563965
 21
9.562744140625
 31
0.0
  0
LINE
  5
    19
  8
0
  6
CONTINUOUS
 62
     2
 10
174.338317871094
 20
-11.437255859375
 30
0.0
 11
174.338317871094
 21
8.56274414062501
 31
0.0
  0
LINE
  5
    1A
  8
0
  6
CONTINUOUS
 62
     2
 10
175.338317871094
 20
129.562744140625
 30
0.0
 11
175.338317871094
 21
149.562744140625
 31
0.0
  0
LINE
  5
    1B
  8
0
  6
CONTINUOUS
 62
     2
 10
175.338317871094
 20
9.56274414062501
 30
0.0
 11
175.338317871094
 21
33.312744140625
 31
0.0
  0
LINE
  5
    1C
  8
0
  6
CONTINUOUS
 62
     2
 10
175.338317871094
 20
50.312744140625
 30
0.0
 11
175.338317871094
 21
128.562744140625
 31
0.0
  0
LINE
  5
    1D
  8
0
  6
CONTINUOUS
 62
     2
 10
175.338317871094
 20
-11.437255859375
 30
0.0
 11
175.338317871094
 21
8.56274414062501
 31
0.0
  0
LINE
  5
    1E
  8
0
  6
CONTINUOUS
 62
     2
 10
45.3383140563965
 20
129.562744140625
 30
0.0
 11
45.3383140563965
 21
149.562744140625
 31
0.0
  0
LINE
  5
    1F
  8
0
  6
CONTINUOUS
 62
     2
 10
45.3383140563965
 20
9.562744140625
 30
0.0
 11
45.3383140563965
 21
128.562744140625
 31
0.0
  0
LINE
  5
    20
  8
0
  6
CONTINUOUS
 62
     2
 10
45.3383140563965
 20
-11.437255859375
 30
0.0
 11
45.3383140563965
 21
8.562744140625
 31
0.0
  0
LINE
  5
    21
  8
0
  6
CONTINUOUS
 62
     2
 10
46.3383140563965
 20
-11.437255859375
 30
0.0
 11
46.3383140563965
 21
8.562744140625
 31
0.0
  0
LINE
  5
    22
  8
0
  6
CONTINUOUS
 62
     2
 10
175.338317871094
 20
33.312744140625
 30
0.0
 11
210.838317871094
 21
33.312744140625
 31
0.0
  0
LINE
  5
    23
  8
0
  6
CONTINUOUS
 62
     2
 10
175.338317871094
 20
50.312744140625
 30
0.0
 11
210.838317871094
 21
50.312744140625
 31
0.0
  0
LINE
  5
    24
  8
0
  6
CONTINUOUS
 62
     2
 10
175.388320922852
 20
49.312744140625
 30
0.0
 11
175.388320922852
 21
50.312744140625
 31
0.0
  0
LINE
  5
    25
  8
0
  6
CONTINUOUS
 62
     2
 10
175.388320922852
 20
33.312744140625
 30
0.0
 11
175.388320922852
 21
34.312744140625
 31
0.0
  0
LINE
  5
    26
  8
0
  6
CONTINUOUS
 62
     2
 10
46.3383140563965
 20
128.562744140625
 30
0.0
 11
174.338314056396
 21
128.562744140625
 31
0.0
  0
LINE
  5
    27
  8
0
  6
CONTINUOUS
 62
     2
 10
46.3383140563965
 20
9.562744140625
 30
0.0
 11
174.338314056396
 21
9.56274414062501
 31
0.0
  0
LINE
  5
    28
  8
0
  6
CONTINUOUS
 62
     2
 10
174.338317871094
 20
9.56274414062501
 30
0.0
 11
174.338317871094
 21
128.562744140625
 31
0.0
  0
LINE
  5
    29
  8
0
  6
CONTINUOUS
 62
     2
 10
46.3383140563965
 20
9.562744140625
 30
0.0
 11
46.3383140563965
 21
128.562744140625
 31
0.0
  0
LINE
  5
    2A
  8
0
  6
CONTINUOUS
 62
     2
 10
167.338315963745
 20
121.562743016692
 30
0.0
 11
174.338312295455
 21
128.562739348402
 31
0.0
  0
LINE
  5
    2B
  8
0
  6
CONTINUOUS
 62
     2
 10
46.3383156391412
 20
128.562746004959
 30
0.0
 11
62.3383159637451
 21
121.033336629486
 31
0.0
  0
LINE
  5
    2C
  8
0
  6
CONTINUOUS
 62
     2
 10
167.338315963745
 20
16.5627619426901
 30
0.0
 11
174.338335117812
 21
9.56273924827786
 31
0.0
  0
LINE
  5
    2D
  8
0
  6
CONTINUOUS
 62
     2
 10
46.3383186567184
 20
9.56274576222224
 30
0.0
 11
62.3383159637451
 21
17.092157375641
 31
0.0
  0
LINE
  5
    2E
  8
0
  6
CONTINUOUS
 62
     2
 10
174.338256835938
 20
129.556442260742
 30
0.0
 11
174.338256835938
 21
149.556442260742
 31
0.0
  0
LINE
  5
    2F
  8
0
  6
CONTINUOUS
 62
     2
 10
45.3383140563965
 20
129.556442260742
 30
0.0
 11
175.338317871094
 21
129.556442260742
 31
0.0
  0
LINE
  5
    30
  8
0
  6
CONTINUOUS
 62
     2
 10
37.5883140563965
 20
149.556442260742
 30
0.0
 11
45.3383140563965
 21
149.556442260742
 31
0.0
  0
LINE
  5
    31
  8
0
  6
CONTINUOUS
 62
     2
 10
115.343585020102
 20
149.556442260742
 30
0.0
 11
175.338317871094
 21
149.556442260742
 31
0.0
  0
ARC
  5
    32
  8
0
  6
CONTINUOUS
 62
     2
 10
110.338285446167
 20
153.703627621259
 30
0.0
 40
6.50016693934245
 50
219.643748317915
 51
320.356251682085
  0
LINE
  5
    33
  8
0
  6
CONTINUOUS
 62
     2
 10
105.332985872232
 20
149.556442260742
 30
0.0
 11
115.343585020102
 21
149.556442260742
 31
0.0
  0
LINE
  5
    34
  8
0
  6
CONTINUOUS
 62
     2
 10
46.3383140563965
 20
129.562744140625
 30
0.0
 11
46.3383140563965
 21
149.562744140625
 31
0.0
  0
LINE
  5
    35
  8
0
  6
CONTINUOUS
 62
     2
 10
45.3383140563965
 20
149.556442260742
 30
0.0
 11
105.332985872232
 21
149.556442260742
 31
0.0
  0
LINE
  5
    36
  8
0
  6
CONTINUOUS
 62
     2
 10
175.338317871094
 20
149.556442260742
 30
0.0
 11
209.588317871094
 21
149.556442260742
 31
0.0
  0
POINT
  5
    37
  8
0
  6
CONTINUOUS
 62
     2
 10
114.838315963745
 20
69.062744140625
 30
0.0
  0
ARC
  5
    38
  8
0
  6
CONTINUOUS
 62
     2
 10
37.5883140563965
 20
148.306442260742
 30
0.0
 40
1.25
 50
90.0
 51
180.0
  0
ARC
  5
    39
  8
0
  6
CONTINUOUS
 62
     2
 10
37.5883140563965
 20
-10.187255859375
 30
0.0
 40
1.25
 50
180.0
 51
270.0
  0
ARC
  5
    3A
  8
0
  6
CONTINUOUS
 62
     2
 10
209.588317871094
 20
-10.187255859375
 30
0.0
 40
1.25
 50
270.0
 51
360.0
  0
ARC
  5
    3B
  8
0
  6
CONTINUOUS
 62
     2
 10
209.588317871094
 20
148.306442260742
 30
0.0
 40
1.25
 50
0.0
 51
90.0
  0
ENDBLK
  5
    3C
  8
0
  6
CONTINUOUS
 62
     7
  0
BLOCK
  5
    3D
  8
0
  6
CONTINUOUS
 62
     7
  2
*UDIM164
 70
    65
 10
0.0
 20
0.0
 30
0.0
  3
*UDIM164
  0
TEXT
  5
    3E
  8
0
  6
CONTINUOUS
 62
     7
 10
-436.910055574982
 20
100.904096605648
 30
0.0
 40
3.00000002980232
  1
96
 50
359.999999948034
 41
0.933333333333333
 72
     1
 11
-434.410055548794
 21
102.404096618295
 31
0.0
 73
     2
  0
LINE
  5
    3F
  8
0
  6
CONTINUOUS
 62
     7
 10
-410.135055274613
 20
72.0929437847321
 30
0.0
 11
-410.135055274613
 21
101.904096603394
 31
0.0
  0
LINE
  5
    40
  8
0
  6
CONTINUOUS
 62
     7
 10
-410.135055274613
 20
99.9040966033936
 30
0.0
 11
-458.135056228287
 21
99.9040966033936
 31
0.0
  0
LINE
  5
    41
  8
0
  6
CONTINUOUS
 62
     7
 10
-413.08947855182
 20
99.3831521734419
 30
0.0
 11
-410.135055274613
 21
99.9040966033936
 31
0.0
  0
LINE
  5
    42
  8
0
  6
CONTINUOUS
 62
     7
 10
-410.135055274613
 20
99.9040966033936
 30
0.0
 11
-413.08947855182
 21
100.425041033345
 31
0.0
  0
LINE
  5
    43
  8
0
  6
CONTINUOUS
 62
     7
 10
-455.18063295108
 20
100.425041033345
 30
0.0
 11
-458.135056228287
 21
99.9040966033936
 31
0.0
  0
LINE
  5
    44
  8
0
  6
CONTINUOUS
 62
     7
 10
-458.135056228287
 20
99.9040966033936
 30
0.0
 11
-455.18063295108
 21
99.3831521734419
 31
0.0
  0
ENDBLK
  5
    45
  8
0
  6
CONTINUOUS
 62
     7
  0
BLOCK
  5
    46
  8
0
  6
CONTINUOUS
 62
     7
  2
*UDIM165
 70
    65
 10
0.0
 20
0.0
 30
0.0
  3
*UDIM165
  0
TEXT
  5
    47
  8
0
  6
CONTINUOUS
 62
     7
 10
-483.335055602798
 20
100.904096608174
 30
0.0
 40
3.00000002980232
  1
78,5
 50
359.999999948034
 41
0.933333333333333
 72
     1
 11
-478.035055548794
 21
102.404096618295
 31
0.0
 73
     2
  0
LINE
  5
    48
  8
0
  6
CONTINUOUS
 62
     7
 10
-497.385057181962
 20
72.0929437847321
 30
0.0
 11
-497.385057181962
 21
101.904096603394
 31
0.0
  0
LINE
  5
    49
  8
0
  6
CONTINUOUS
 62
     7
 10
-458.135056228287
 20
99.9040966033936
 30
0.0
 11
-497.385057181962
 21
99.9040966033936
 31
0.0
  0
LINE
  5
    4A
  8
0
  6
CONTINUOUS
 62
     7
 10
-461.089479505494
 20
99.3831521734419
 30
0.0
 11
-458.135056228287
 21
99.9040966033936
 31
0.0
  0
LINE
  5
    4B
  8
0
  6
CONTINUOUS
 62
     7
 10
-458.135056228287
 20
99.9040966033936
 30
0.0
 11
-461.089479505494
 21
100.425041033345
 31
0.0
  0
LINE
  5
    4C
  8
0
  6
CONTINUOUS
 62
     7
 10
-494.430633904755
 20
100.425041033345
 30
0.0
 11
-497.385057181962
 21
99.9040966033936
 31
0.0
  0
LINE
  5
    4D
  8
0
  6
CONTINUOUS
 62
     7
 10
-497.385057181962
 20
99.9040966033936
 30
0.0
 11
-494.430633904755
 21
99.3831521734419
 31
0.0
  0
ENDBLK
  5
    4E
  8
0
  6
CONTINUOUS
 62
     7
  0
BLOCK
  5
    4F
  8
0
  6
CONTINUOUS
 62
     7
  2
*UDIM166
 70
    65
 10
0.0
 20
0.0
 30
0.0
  3
*UDIM166
  0
TEXT
  5
    50
  8
0
  6
CONTINUOUS
 62
     7
 10
-502.25996399279
 20
27.2945186125943
 30
0.0
 40
3.00000002980232
  1
161
 50
89.9999999480344
 41
0.933333333333333
 72
     1
 11
-503.759964004159
 21
31.1945186526959
 31
0.0
 73
     2
  0
LINE
  5
    51
  8
0
  6
CONTINUOUS
 62
     7
 10
-497.760057181962
 20
-8.77890527532647
 30
0.0
 11
-503.259963989258
 21
-8.77890527532647
 31
0.0
  0
LINE
  5
    52
  8
0
  6
CONTINUOUS
 62
     7
 10
-493.885057181962
 20
71.7179437847321
 30
0.0
 11
-503.259963989258
 21
71.7179437847321
 31
0.0
  0
LINE
  5
    53
  8
0
  6
CONTINUOUS
 62
     7
 10
-501.259963989258
 20
-8.77890527532647
 30
0.0
 11
-501.259963989258
 21
71.7179437847321
 31
0.0
  0
LINE
  5
    54
  8
0
  6
CONTINUOUS
 62
     7
 10
-501.780908419209
 20
-5.8244819981195
 30
0.0
 11
-501.259963989258
 21
-8.77890527532647
 31
0.0
  0
LINE
  5
    55
  8
0
  6
CONTINUOUS
 62
     7
 10
-501.259963989258
 20
-8.77890527532647
 30
0.0
 11
-500.739019559306
 21
-5.8244819981195
 31
0.0
  0
LINE
  5
    56
  8
0
  6
CONTINUOUS
 62
     7
 10
-500.739019559306
 20
68.7635205075252
 30
0.0
 11
-501.259963989258
 21
71.7179437847321
 31
0.0
  0
LINE
  5
    57
  8
0
  6
CONTINUOUS
 62
     7
 10
-501.259963989258
 20
71.7179437847321
 30
0.0
 11
-501.780908419209
 21
68.7635205075252
 31
0.0
  0
ENDBLK
  5
    58
  8
0
  6
CONTINUOUS
 62
     7
  0
BLOCK
  5
    59
  8
0
  6
CONTINUOUS
 62
     7
  2
*UDIM167
 70
    65
 10
0.0
 20
0.0
 30
0.0
  3
*UDIM167
  0
TEXT
  5
    5A
  8
0
  6
CONTINUOUS
 62
     7
 10
-462.310059391202
 20
-39.3250350916973
 30
0.0
 40
3.00000002980232
  1
140
 50
359.999999948034
 41
0.933333333333333
 72
     1
 11
-458.410059351106
 21
-37.8250350803137
 31
0.0
 73
     2
  0
LINE
  5
    5B
  8
0
  6
CONTINUOUS
 62
     7
 10
-423.135059792188
 20
-34.5289009267317
 30
0.0
 11
-423.135059792188
 21
-42.3250350952148
 31
0.0
  0
LINE
  5
    5C
  8
0
  6
CONTINUOUS
 62
     7
 10
-493.135059792173
 20
-34.528902193413
 30
0.0
 11
-493.135059792173
 21
-42.3250350952148
 31
0.0
  0
LINE
  5
    5D
  8
0
  6
CONTINUOUS
 62
     7
 10
-423.135059792188
 20
-40.3250350952148
 30
0.0
 11
-493.135059792173
 21
-40.3250350952148
 31
0.0
  0
LINE
  5
    5E
  8
0
  6
CONTINUOUS
 62
     7
 10
-426.089483069395
 20
-40.8459795251665
 30
0.0
 11
-423.135059792188
 21
-40.3250350952148
 31
0.0
  0
LINE
  5
    5F
  8
0
  6
CONTINUOUS
 62
     7
 10
-423.135059792188
 20
-40.3250350952148
 30
0.0
 11
-426.089483069395
 21
-39.8040906652632
 31
0.0
  0
LINE
  5
    60
  8
0
  6
CONTINUOUS
 62
     7
 10
-490.180636514966
 20
-39.8040906652632
 30
0.0
 11
-493.135059792173
 21
-40.3250350952148
 31
0.0
  0
LINE
  5
    61
  8
0
  6
CONTINUOUS
 62
     7
 10
-493.135059792173
 20
-40.3250350952148
 30
0.0
 11
-490.180636514966
 21
-40.8459795251665
 31
0.0
  0
ENDBLK
  5
    62
  8
0
  6
CONTINUOUS
 62
     7
  0
BLOCK
  5
    63
  8
0
  6
CONTINUOUS
 62
     7
  2
*UDIM168
 70
    65
 10
0.0
 20
0.0
 30
0.0
  3
*UDIM168
  0
TEXT
  5
    64
  8
0
  6
CONTINUOUS
 62
     7
 10
-439.735044157292
 20
107.129095083558
 30
0.0
 40
3.00000002980232
  1
101,5
 50
359.999999948034
 41
0.933333333333333
 72
     1
 11
-433.035044089381
 21
108.629095092416
 31
0.0
 73
     2
  0
LINE
  5
    65
  8
0
  6
CONTINUOUS
 62
     7
 10
-407.385035044755
 20
36.5960636138917
 30
0.0
 11
-407.385035528353
 21
108.129095077515
 31
0.0
  0
LINE
  5
    66
  8
0
  6
CONTINUOUS
 62
     7
 10
-458.135056228287
 20
101.699788089673
 30
0.0
 11
-458.135056228287
 21
108.129095077515
 31
0.0
  0
LINE
  5
    67
  8
0
  6
CONTINUOUS
 62
     7
 10
-407.385035514832
 20
106.129095077515
 30
0.0
 11
-458.135056228287
 21
106.129095077515
 31
0.0
  0
LINE
  5
    68
  8
0
  6
CONTINUOUS
 62
     7
 10
-410.339458792039
 20
105.608150647563
 30
0.0
 11
-407.385035514832
 21
106.129095077515
 31
0.0
  0
LINE
  5
    69
  8
0
  6
CONTINUOUS
 62
     7
 10
-407.385035514832
 20
106.129095077515
 30
0.0
 11
-410.339458792039
 21
106.650039507466
 31
0.0
  0
LINE
  5
    6A
  8
0
  6
CONTINUOUS
 62
     7
 10
-455.18063295108
 20
106.650039507466
 30
0.0
 11
-458.135056228287
 21
106.129095077515
 31
0.0
  0
LINE
  5
    6B
  8
0
  6
CONTINUOUS
 62
     7
 10
-458.135056228287
 20
106.129095077515
 30
0.0
 11
-455.18063295108
 21
105.608150647563
 31
0.0
  0
ENDBLK
  5
    6C
  8
0
  6
CONTINUOUS
 62
     7
  0
BLOCK
  5
    6D
  8
0
  6
CONTINUOUS
 62
     7
  2
*UDIM169
 70
    65
 10
0.0
 20
0.0
 30
0.0
  3
*UDIM169
  0
TEXT
  5
    6E
  8
0
  6
CONTINUOUS
 62
     7
 10
-402.062064178174
 20
55.0335749651002
 30
0.0
 40
3.00000002980232
  1
127,75
 50
89.9999999480344
 41
0.933333333333333
 72
     1
 11
-403.562064185739
 21
63.133575046925
 31
0.0
 73
     2
  0
LINE
  5
    6F
  8
0
  6
CONTINUOUS
 62
     7
 10
-422.760072578088
 20
95.3460523412606
 30
0.0
 11
-399.062064170837
 21
95.3460523412606
 31
0.0
  0
LINE
  5
    70
  8
0
  6
CONTINUOUS
 62
     7
 10
-401.062064170837
 20
31.4710947246735
 30
0.0
 11
-401.062064170837
 21
95.3460523412606
 31
0.0
  0
LINE
  5
    71
  8
0
  6
CONTINUOUS
 62
     7
 10
-401.583008600789
 20
34.4255180018805
 30
0.0
 11
-401.062064170837
 21
31.4710947246735
 31
0.0
  0
LINE
  5
    72
  8
0
  6
CONTINUOUS
 62
     7
 10
-401.062064170837
 20
31.4710947246735
 30
0.0
 11
-400.541119740886
 21
34.4255180018805
 31
0.0
  0
LINE
  5
    73
  8
0
  6
CONTINUOUS
 62
     7
 10
-400.541119740886
 20
92.3916290640536
 30
0.0
 11
-401.062064170837
 21
95.3460523412606
 31
0.0
  0
LINE
  5
    74
  8
0
  6
CONTINUOUS
 62
     7
 10
-401.062064170837
 20
95.3460523412606
 30
0.0
 11
-401.583008600789
 21
92.3916290640536
 31
0.0
  0
ENDBLK
  5
    75
  8
0
  6
CONTINUOUS
 62
     7
  0
BLOCK
  5
    76
  8
0
  6
CONTINUOUS
 62
     7
  2
*UDIM170
 70
    65
 10
0.0
 20
0.0
 30
0.0
  3
*UDIM170
  0
TEXT
  5
    77
  8
0
  6
CONTINUOUS
 62
     7
 10
-509.485404971794
 20
20.6470499591355
 30
0.0
 40
3.00000002980232
  1
259
 50
89.9999999480344
 41
0.933333333333333
 72
     1
 11
-510.985404983163
 21
24.5470499992371
 31
0.0
 73
     2
  0
LINE
  5
    78
  8
0
  6
CONTINUOUS
 62
     7
 10
-493.51005918809
 20
-34.1538869665048
 30
0.0
 11
-510.485404968262
 21
-34.1538869665048
 31
0.0
  0
LINE
  5
    79
  8
0
  6
CONTINUOUS
 62
     7
 10
-493.51005918809
 20
95.3460523412606
 30
0.0
 11
-510.485404968262
 21
95.3460523412606
 31
0.0
  0
LINE
  5
    7A
  8
0
  6
CONTINUOUS
 62
     7
 10
-508.485404968262
 20
-34.1538869665048
 30
0.0
 11
-508.485404968262
 21
95.3460523412606
 31
0.0
  0
LINE
  5
    7B
  8
0
  6
CONTINUOUS
 62
     7
 10
-509.006349398213
 20
-31.1994636892978
 30
0.0
 11
-508.485404968262
 21
-34.1538869665048
 31
0.0
  0
LINE
  5
    7C
  8
0
  6
CONTINUOUS
 62
     7
 10
-508.485404968262
 20
-34.1538869665048
 30
0.0
 11
-507.96446053831
 21
-31.1994636892978
 31
0.0
  0
LINE
  5
    7D
  8
0
  6
CONTINUOUS
 62
     7
 10
-507.96446053831
 20
92.3916290640536
 30
0.0
 11
-508.485404968262
 21
95.3460523412606
 31
0.0
  0
LINE
  5
    7E
  8
0
  6
CONTINUOUS
 62
     7
 10
-508.485404968262
 20
95.3460523412606
 30
0.0
 11
-509.006349398213
 21
92.3916290640536
 31
0.0
  0
ENDBLK
  5
    7F
  8
0
  6
CONTINUOUS
 62
     7
  0
BLOCK
  5
    80
  8
0
  6
CONTINUOUS
 62
     7
  2
*HATCH24
 70
    65
 10
0.0
 20
0.0
 30
0.0
  3
*HATCH24
  0
LINE
  5
    81
  8
0
  6
CONTINUOUS
 62
    52
 10
187.992431640625
 20
39.5
 30
0.0
 11
185.992431640625
 21
37.5
 31
0.0
  0
LINE
  5
    82
  8
0
  6
CONTINUOUS
 62
    52
 10
192.235076904297
 20
39.5
 30
0.0
 11
190.235076904297
 21
37.5
 31
0.0
  0
LINE
  5
    83
  8
0
  6
CONTINUOUS
 62
    52
 10
196.477722167969
 20
39.5
 30
0.0
 11
194.477722167969
 21
37.5
 31
0.0
  0
LINE
  5
    84
  8
0
  6
CONTINUOUS
 62
    52
 10
200.720367431641
 20
39.5
 30
0.0
 11
198.720367431641
 21
37.5
 31
0.0
  0
LINE
  5
    85
  8
0
  6
CONTINUOUS
 62
    52
 10
204.963012695313
 20
39.5
 30
0.0
 11
202.963012695313
 21
37.5
 31
0.0
  0
LINE
  5
    86
  8
0
  6
CONTINUOUS
 62
    52
 10
209.205657958984
 20
39.5
 30
0.0
 11
207.205657958984
 21
37.5
 31
0.0
  0
LINE
  5
    87
  8
0
  6
CONTINUOUS
 62
    52
 10
213.448303222656
 20
39.5
 30
0.0
 11
211.448303222656
 21
37.5
 31
0.0
  0
LINE
  5
    88
  8
0
  6
CONTINUOUS
 62
    52
 10
217.690948486328
 20
39.5
 30
0.0
 11
215.690948486328
 21
37.5
 31
0.0
  0
LINE
  5
    89
  8
0
  6
CONTINUOUS
 62
    52
 10
221.93359375
 20
39.5
 30
0.0
 11
219.93359375
 21
37.5
 31
0.0
  0
LINE
  5
    8A
  8
0
  6
CONTINUOUS
 62
    52
 10
226.176239013672
 20
39.5
 30
0.0
 11
224.176239013672
 21
37.5
 31
0.0
  0
LINE
  5
    8B
  8
0
  6
CONTINUOUS
 62
    52
 10
229.369522094727
 20
38.4506874084473
 30
0.0
 11
228.418838500977
 21
37.5
 31
0.0
  0
ENDBLK
  5
    8C
  8
0
  6
CONTINUOUS
 62
     7
  0
BLOCK
  5
    8D
  8
0
  6
CONTINUOUS
 62
     7
  2
*HATCH25
 70
    65
 10
0.0
 20
0.0
 30
0.0
  3
*HATCH25
  0
LINE
  5
    8E
  8
0
  6
CONTINUOUS
 62
    52
 10
115.867530822754
 20
39.4999961853027
 30
0.0
 11
113.867530822754
 21
37.4999961853027
 31
0.0
  0
LINE
  5
    8F
  8
0
  6
CONTINUOUS
 62
    52
 10
120.110176086426
 20
39.4999961853027
 30
0.0
 11
118.110176086426
 21
37.4999961853027
 31
0.0
  0
LINE
  5
    90
  8
0
  6
CONTINUOUS
 62
    52
 10
124.352821350098
 20
39.4999961853027
 30
0.0
 11
122.352821350098
 21
37.4999961853027
 31
0.0
  0
LINE
  5
    91
  8
0
  6
CONTINUOUS
 62
    52
 10
128.595458984375
 20
39.4999961853027
 30
0.0
 11
126.59546661377
 21
37.4999961853027
 31
0.0
  0
LINE
  5
    92
  8
0
  6
CONTINUOUS
 62
    52
 10
132.838104248047
 20
39.4999961853027
 30
0.0
 11
130.838104248047
 21
37.4999961853027
 31
0.0
  0
LINE
  5
    93
  8
0
  6
CONTINUOUS
 62
    52
 10
137.080749511719
 20
39.4999961853027
 30
0.0
 11
135.080749511719
 21
37.4999961853027
 31
0.0
  0
LINE
  5
    94
  8
0
  6
CONTINUOUS
 62
    52
 10
141.323394775391
 20
39.4999961853027
 30
0.0
 11
139.323394775391
 21
37.4999961853027
 31
0.0
  0
LINE
  5
    95
  8
0
  6
CONTINUOUS
 62
    52
 10
145.566040039063
 20
39.4999961853027
 30
0.0
 11
143.566040039063
 21
37.4999961853027
 31
0.0
  0
LINE
  5
    96
  8
0
  6
CONTINUOUS
 62
    52
 10
149.808685302734
 20
39.4999961853027
 30
0.0
 11
147.808685302734
 21
37.4999961853027
 31
0.0
  0
LINE
  5
    97
  8
0
  6
CONTINUOUS
 62
    52
 10
154.051330566406
 20
39.4999961853027
 30
0.0
 11
152.051330566406
 21
37.4999961853027
 31
0.0
  0
LINE
  5
    98
  8
0
  6
CONTINUOUS
 62
    52
 10
158.293975830078
 20
39.4999961853027
 30
0.0
 11
156.293975830078
 21
37.4999961853027
 31
0.0
  0
LINE
  5
    99
  8
0
  6
CONTINUOUS
 62
    52
 10
162.53662109375
 20
39.4999961853027
 30
0.0
 11
160.53662109375
 21
37.4999961853027
 31
0.0
  0
LINE
  5
    9A
  8
0
  6
CONTINUOUS
 62
    52
 10
166.779266357422
 20
39.4999961853027
 30
0.0
 11
164.779266357422
 21
37.4999961853027
 31
0.0
  0
LINE
  5
    9B
  8
0
  6
CONTINUOUS
 62
    52
 10
171.021911621094
 20
39.4999961853027
 30
0.0
 11
169.021911621094
 21
37.4999961853027
 31
0.0
  0
LINE
  5
    9C
  8
0
  6
CONTINUOUS
 62
    52
 10
175.264556884766
 20
39.4999961853027
 30
0.0
 11
173.264556884766
 21
37.4999961853027
 31
0.0
  0
ENDBLK
  5
    9D
  8
0
  6
CONTINUOUS
 62
     7
  0
BLOCK
  5
    9E
  8
0
  6
CONTINUOUS
 62
     7
  2
*HATCH26
 70
    65
 10
0.0
 20
0.0
 30
0.0
  3
*HATCH26
  0
LINE
  5
    9F
  8
0
  6
CONTINUOUS
 62
    52
 10
92.5330123901367
 20
39.4999961853027
 30
0.0
 11
90.5330123901367
 21
37.4999961853027
 31
0.0
  0
LINE
  5
    A0
  8
0
  6
CONTINUOUS
 62
    52
 10
96.7756576538086
 20
39.4999961853027
 30
0.0
 11
94.7756576538086
 21
37.4999961853027
 31
0.0
  0
LINE
  5
    A1
  8
0
  6
CONTINUOUS
 62
    52
 10
101.01830291748
 20
39.4999961853027
 30
0.0
 11
99.0183029174805
 21
37.4999961853027
 31
0.0
  0
LINE
  5
    A2
  8
0
  6
CONTINUOUS
 62
    52
 10
105.260948181152
 20
39.4999961853027
 30
0.0
 11
103.260948181152
 21
37.4999961853027
 31
0.0
  0
ENDBLK
  5
    A3
  8
0
  6
CONTINUOUS
 62
     7
  0
BLOCK
  5
    A4
  8
0
  6
CONTINUOUS
 62
     7
  2
*HATCH27
 70
    65
 10
0.0
 20
0.0
 30
0.0
  3
*HATCH27
  0
LINE
  5
    A5
  8
0
  6
CONTINUOUS
 62
    52
 10
45.8639602661133
 20
39.4999961853027
 30
0.0
 11
43.8639640808105
 21
37.5
 31
0.0
  0
LINE
  5
    A6
  8
0
  6
CONTINUOUS
 62
    52
 10
50.1065979003906
 20
39.4999961853027
 30
0.0
 11
48.1066017150879
 21
37.5
 31
0.0
  0
LINE
  5
    A7
  8
0
  6
CONTINUOUS
 62
    52
 10
54.349235534668
 20
39.4999961853027
 30
0.0
 11
52.3492393493652
 21
37.5
 31
0.0
  0
LINE
  5
    A8
  8
0
  6
CONTINUOUS
 62
    52
 10
58.5918731689453
 20
39.4999961853027
 30
0.0
 11
56.5918769836426
 21
37.5
 31
0.0
  0
LINE
  5
    A9
  8
0
  6
CONTINUOUS
 62
    52
 10
62.8345108032227
 20
39.4999961853027
 30
0.0
 11
60.8345146179199
 21
37.5
 31
0.0
  0
LINE
  5
    AA
  8
0
  6
CONTINUOUS
 62
    52
 10
67.0771560668945
 20
39.4999961853027
 30
0.0
 11
65.0771560668945
 21
37.5
 31
0.0
  0
LINE
  5
    AB
  8
0
  6
CONTINUOUS
 62
    52
 10
71.3198013305664
 20
39.4999961853027
 30
0.0
 11
69.3198013305664
 21
37.5
 31
0.0
  0
LINE
  5
    AC
  8
0
  6
CONTINUOUS
 62
    52
 10
75.2370758056641
 20
39.1746253967285
 30
0.0
 11
73.5624465942383
 21
37.4999961853027
 31
0.0
  0
ENDBLK
  5
    AD
  8
0
  6
CONTINUOUS
 62
     7
  0
BLOCK
  5
    AE
  8
0
  6
CONTINUOUS
 62
     7
  2
*HATCH28
 70
    65
 10
0.0
 20
0.0
 30
0.0
  3
*HATCH28
  0
LINE
  5
    AF
  8
0
  6
CONTINUOUS
 62
    52
 10
-34.7462120056152
 20
39.5
 30
0.0
 11
-36.7462120056152
 21
37.5
 31
0.0
  0
LINE
  5
    B0
  8
0
  6
CONTINUOUS
 62
    52
 10
-30.5035724639893
 20
39.5
 30
0.0
 11
-32.5035743713379
 21
37.5
 31
0.0
  0
LINE
  5
    B1
  8
0
  6
CONTINUOUS
 62
    52
 10
-26.2609310150147
 20
39.5
 30
0.0
 11
-28.2609329223633
 21
37.5
 31
0.0
  0
LINE
  5
    B2
  8
0
  6
CONTINUOUS
 62
    52
 10
-22.01828956604
 20
39.5
 30
0.0
 11
-24.0182914733887
 21
37.5
 31
0.0
  0
LINE
  5
    B3
  8
0
  6
CONTINUOUS
 62
    52
 10
-17.7756481170654
 20
39.5
 30
0.0
 11
-19.7756500244141
 21
37.5
 31
0.0
  0
LINE
  5
    B4
  8
0
  6
CONTINUOUS
 62
    52
 10
-13.5330066680908
 20
39.5
 30
0.0
 11
-15.5330085754395
 21
37.5
 31
0.0
  0
LINE
  5
    B5
  8
0
  6
CONTINUOUS
 62
    52
 10
-9.29036521911621
 20
39.5
 30
0.0
 11
-11.2903671264648
 21
37.5
 31
0.0
  0
LINE
  5
    B6
  8
0
  6
CONTINUOUS
 62
    52
 10
-5.0477237701416
 20
39.5
 30
0.0
 11
-7.04772567749023
 21
37.5
 31
0.0
  0
LINE
  5
    B7
  8
0
  6
CONTINUOUS
 62
    52
 10
-0.80508279800415
 20
39.5
 30
0.0
 11
-2.8050844669342
 21
37.5
 31
0.0
  0
LINE
  5
    B8
  8
0
  6
CONTINUOUS
 62
    52
 10
3.4375581741333
 20
39.5
 30
0.0
 11
1.43755650520325
 21
37.5
 31
0.0
  0
LINE
  5
    B9
  8
0
  6
CONTINUOUS
 62
    52
 10
7.68019962310791
 20
39.5
 30
0.0
 11
5.68019771575928
 21
37.5
 31
0.0
  0
LINE
  5
    BA
  8
0
  6
CONTINUOUS
 62
    52
 10
11.9228410720825
 20
39.5
 30
0.0
 11
9.92283916473389
 21
37.5
 31
0.0
  0
LINE
  5
    BB
  8
0
  6
CONTINUOUS
 62
    52
 10
16.1654815673828
 20
39.5
 30
0.0
 11
14.1654806137085
 21
37.5
 31
0.0
  0
LINE
  5
    BC
  8
0
  6
CONTINUOUS
 62
    52
 10
20.4081230163574
 20
39.5
 30
0.0
 11
18.4081211090088
 21
37.5
 31
0.0
  0
LINE
  5
    BD
  8
0
  6
CONTINUOUS
 62
    52
 10
24.650764465332
 20
39.5
 30
0.0
 11
22.6507625579834
 21
37.5
 31
0.0
  0
LINE
  5
    BE
  8
0
  6
CONTINUOUS
 62
    52
 10
28.8934059143066
 20
39.5
 30
0.0
 11
26.893404006958
 21
37.5
 31
0.0
  0
LINE
  5
    BF
  8
0
  6
CONTINUOUS
 62
    52
 10
33.1360473632813
 20
39.5
 30
0.0
 11
31.1360454559326
 21
37.5
 31
0.0
  0
LINE
  5
    C0
  8
0
  6
CONTINUOUS
 62
    52
 10
35.486873626709
 20
37.6081924438477
 30
0.0
 11
35.3786811828613
 21
37.5
 31
0.0
  0
ENDBLK
  5
    C1
  8
0
  6
CONTINUOUS
 62
     7
  0
BLOCK
  5
    C2
  8
0
  6
CONTINUOUS
 62
     7
  2
*HATCH29
 70
    65
 10
0.0
 20
0.0
 30
0.0
  3
*HATCH29
  0
LINE
  5
    C3
  8
0
  6
CONTINUOUS
 62
    52
 10
166.264526367187
 20
30.5000076293945
 30
0.0
 11
163.987060546875
 21
28.2225513458252
 31
0.0
  0
LINE
  5
    C4
  8
0
  6
CONTINUOUS
 62
    52
 10
170.50715637207
 20
30.5000076293945
 30
0.0
 11
168.00715637207
 21
28.0000019073486
 31
0.0
  0
LINE
  5
    C5
  8
0
  6
CONTINUOUS
 62
    52
 10
172.987060546875
 20
28.7372703552246
 30
0.0
 11
172.249786376953
 21
28.0000019073486
 31
0.0
  0
ENDBLK
  5
    C6
  8
0
  6
CONTINUOUS
 62
     7
  0
BLOCK
  5
    C7
  8
0
  6
CONTINUOUS
 62
     7
  2
*UDIM171
 70
    65
 10
0.0
 20
0.0
 30
0.0
  3
*UDIM171
  0
TEXT
  5
    C8
  8
0
  6
CONTINUOUS
 62
     7
 10
-643.357958855758
 20
22.5561139831437
 30
0.0
 40
3.00000002980232
  1
5,5
 50
308.370410896744
 41
0.933333333333333
 72
     1
 11
-639.761040014838
 21
20.4295733184168
 31
0.0
 73
     2
  0
TEXT
  5
    C9
  8
0
  6
CONTINUOUS
 62
     7
 10
-645.313299243037
 20
25.0257584985466
 30
0.0
 40
3.00000002980232
  1
Ø
 50
308.370410896744
 41
0.933333333333334
 72
     1
 11
-643.454460754408
 21
25.0944574209147
 31
0.0
 73
     2
  0
LINE
  5
    CA
  8
0
  6
CONTINUOUS
 62
     7
 10
-639.300177714963
 20
15.8200607284291
 30
0.0
 11
-651.852575748394
 21
31.6740579205295
 31
0.0
  0
LINE
  5
    CB
  8
0
  6
CONTINUOUS
 62
     7
 10
-647.903164755928
 20
27.5250788965766
 30
0.0
 11
-650.145530051797
 21
29.5180158950494
 31
0.0
  0
LINE
  5
    CC
  8
0
  6
CONTINUOUS
 62
     7
 10
-650.145530051797
 20
29.5180158950494
 30
0.0
 11
-648.720020343877
 21
26.8783337034541
 31
0.0
  0
LINE
  5
    CD
  8
0
  6
CONTINUOUS
 62
     7
 10
-654.094941044263
 20
33.6669949190023
 30
0.0
 11
-651.852575748394
 21
31.6740579205295
 31
0.0
  0
LINE
  5
    CE
  8
0
  6
CONTINUOUS
 62
     7
 10
-651.852575748394
 20
31.6740579205295
 30
0.0
 11
-653.278085456314
 21
34.3137401121249
 31
0.0
  0
ENDBLK
  5
    CF
  8
0
  6
CONTINUOUS
 62
     7
  0
BLOCK
  5
    D0
  8
0
  6
CONTINUOUS
 62
     7
  2
*UDIM172
 70
    65
 10
0.0
 20
0.0
 30
0.0
  3
*UDIM172
  0
TEXT
  5
    D1
  8
0
  6
CONTINUOUS
 62
     7
 10
-549.19903413888
 20
105.343957903256
 30
0.0
 40
3.00000002980232
  1
84
 50
359.999999948034
 41
0.933333333333333
 72
     1
 11
-546.699034112692
 21
106.843957915902
 31
0.0
 73
     2
  0
LINE
  5
    D2
  8
0
  6
CONTINUOUS
 62
     7
 10
-525.349046325684
 20
92.7210559844971
 30
0.0
 11
-525.349046325684
 21
106.343957901001
 31
0.0
  0
LINE
  5
    D3
  8
0
  6
CONTINUOUS
 62
     7
 10
-567.4990234375
 20
102.70155119844
 30
0.0
 11
-567.4990234375
 21
106.343957901001
 31
0.0
  0
LINE
  5
    D4
  8
0
  6
CONTINUOUS
 62
     7
 10
-525.349046325684
 20
104.343957901001
 30
0.0
 11
-567.4990234375
 21
104.343957901001
 31
0.0
  0
LINE
  5
    D5
  8
0
  6
CONTINUOUS
 62
     7
 10
-528.303469602891
 20
103.823013471049
 30
0.0
 11
-525.349046325684
 21
104.343957901001
 31
0.0
  0
LINE
  5
    D6
  8
0
  6
CONTINUOUS
 62
     7
 10
-525.349046325684
 20
104.343957901001
 30
0.0
 11
-528.303469602891
 21
104.864902330953
 31
0.0
  0
LINE
  5
    D7
  8
0
  6
CONTINUOUS
 62
     7
 10
-564.544600160293
 20
104.864902330953
 30
0.0
 11
-567.4990234375
 21
104.343957901001
 31
0.0
  0
LINE
  5
    D8
  8
0
  6
CONTINUOUS
 62
     7
 10
-567.4990234375
 20
104.343957901001
 30
0.0
 11
-564.544600160293
 21
103.823013471049
 31
0.0
  0
ENDBLK
  5
    D9
  8
0
  6
CONTINUOUS
 62
     7
  0
BLOCK
  5
    DA
  8
0
  6
CONTINUOUS
 62
     7
  2
*UDIM173
 70
    65
 10
0.0
 20
0.0
 30
0.0
  3
*UDIM173
  0
TEXT
  5
    DB
  8
0
  6
CONTINUOUS
 62
     7
 10
-561.69903413888
 20
98.081537248959
 30
0.0
 40
3.00000002980232
  1
34
 50
359.999999948034
 41
0.933333333333333
 72
     1
 11
-559.199034112692
 21
99.5815372616053
 31
0.0
 73
     2
  0
LINE
  5
    DC
  8
0
  6
CONTINUOUS
 62
     7
 10
-550.349046325684
 20
92.7210559844971
 30
0.0
 11
-550.349046325684
 21
99.0815372467041
 31
0.0
  0
LINE
  5
    DD
  8
0
  6
CONTINUOUS
 62
     7
 10
-550.349046325684
 20
97.0815372467041
 30
0.0
 11
-567.4990234375
 21
97.0815372467041
 31
0.0
  0
LINE
  5
    DE
  8
0
  6
CONTINUOUS
 62
     7
 10
-553.303469602891
 20
96.5605928167524
 30
0.0
 11
-550.349046325684
 21
97.0815372467041
 31
0.0
  0
LINE
  5
    DF
  8
0
  6
CONTINUOUS
 62
     7
 10
-550.349046325684
 20
97.0815372467041
 30
0.0
 11
-553.303469602891
 21
97.6024816766558
 31
0.0
  0
LINE
  5
    E0
  8
0
  6
CONTINUOUS
 62
     7
 10
-564.544600160293
 20
97.6024816766558
 30
0.0
 11
-567.4990234375
 21
97.0815372467041
 31
0.0
  0
LINE
  5
    E1
  8
0
  6
CONTINUOUS
 62
     7
 10
-567.4990234375
 20
97.0815372467041
 30
0.0
 11
-564.544600160293
 21
96.5605928167524
 31
0.0
  0
ENDBLK
  5
    E2
  8
0
  6
CONTINUOUS
 62
     7
  0
BLOCK
  5
    E3
  8
0
  6
CONTINUOUS
 62
     7
  2
*UDIM174
 70
    65
 10
0.0
 20
0.0
 30
0.0
  3
*UDIM174
  0
TEXT
  5
    E4
  8
0
  6
CONTINUOUS
 62
     7
 10
-688.955386025073
 20
99.8349475908399
 30
0.0
 40
3.00000002980232
  1
27,5
 50
359.999999948034
 41
0.933333333333333
 72
     1
 11
-683.655385971069
 21
101.334947600961
 31
0.0
 73
     2
  0
TEXT
  5
    E5
  8
0
  6
CONTINUOUS
 62
     7
 10
-677.80538590785
 20
99.8349476173571
 30
0.0
 40
3.00000002980232
  1
    CORSA DI SEZIONAMENTO
 50
359.999999948034
 41
0.933333333333333
 72
     1
 11
-643.105385561784
 21
101.334947600961
 31
0.0
 73
     2
  0
LINE
  5
    E6
  8
0
  6
CONTINUOUS
 62
     7
 10
-665.249021530151
 20
72.7210025787354
 30
0.0
 11
-665.249021530151
 21
100.83494758606
 31
0.0
  0
LINE
  5
    E7
  8
0
  6
CONTINUOUS
 62
     7
 10
-678.999021530151
 20
58.7210941314697
 30
0.0
 11
-678.999021530151
 21
100.83494758606
 31
0.0
  0
LINE
  5
    E8
  8
0
  6
CONTINUOUS
 62
     7
 10
-608.405385217071
 20
98.8349475860596
 30
0.0
 11
-688.95538602372
 21
98.8349475860596
 31
0.0
  0
LINE
  5
    E9
  8
0
  6
CONTINUOUS
 62
     7
 10
-662.294598252944
 20
99.3558920160113
 30
0.0
 11
-665.249021530151
 21
98.8349475860596
 31
0.0
  0
LINE
  5
    EA
  8
0
  6
CONTINUOUS
 62
     7
 10
-665.249021530151
 20
98.8349475860596
 30
0.0
 11
-662.294598252944
 21
98.3140031561079
 31
0.0
  0
LINE
  5
    EB
  8
0
  6
CONTINUOUS
 62
     7
 10
-681.953444807358
 20
98.3140031561079
 30
0.0
 11
-678.999021530151
 21
98.8349475860596
 31
0.0
  0
LINE
  5
    EC
  8
0
  6
CONTINUOUS
 62
     7
 10
-678.999021530151
 20
98.8349475860596
 30
0.0
 11
-681.953444807358
 21
99.3558920160113
 31
0.0
  0
ENDBLK
  5
    ED
  8
0
  6
CONTINUOUS
 62
     7
  0
BLOCK
  5
    EE
  8
0
  6
CONTINUOUS
 62
     7
  2
*UDIM175
 70
    65
 10
0.0
 20
0.0
 30
0.0
  3
*UDIM175
  0
TEXT
  5
    EF
  8
0
  6
CONTINUOUS
 62
     7
 10
-548.834564216321
 20
49.9085787848954
 30
0.0
 40
3.00000002980232
  1
107,25
 50
89.9999999480344
 41
0.933333333333333
 72
     1
 11
-550.334564223886
 21
58.0085788667202
 31
0.0
 73
     2
  0
LINE
  5
    F0
  8
0
  6
CONTINUOUS
 62
     7
 10
-540.972810295316
 20
31.4710941314697
 30
0.0
 11
-549.834564208984
 21
31.4710941314697
 31
0.0
  0
LINE
  5
    F1
  8
0
  6
CONTINUOUS
 62
     7
 10
-547.834564208984
 20
31.4710941314697
 30
0.0
 11
-547.834564208984
 21
85.0960559844971
 31
0.0
  0
LINE
  5
    F2
  8
0
  6
CONTINUOUS
 62
     7
 10
-548.355508638936
 20
34.4255174086767
 30
0.0
 11
-547.834564208984
 21
31.4710941314697
 31
0.0
  0
LINE
  5
    F3
  8
0
  6
CONTINUOUS
 62
     7
 10
-547.834564208984
 20
31.4710941314697
 30
0.0
 11
-547.313619779033
 21
34.4255174086767
 31
0.0
  0
LINE
  5
    F4
  8
0
  6
CONTINUOUS
 62
     7
 10
-547.313619779033
 20
82.1416327072901
 30
0.0
 11
-547.834564208984
 21
85.0960559844971
 31
0.0
  0
LINE
  5
    F5
  8
0
  6
CONTINUOUS
 62
     7
 10
-547.834564208984
 20
85.0960559844971
 30
0.0
 11
-548.355508638936
 21
82.1416327072901
 31
0.0
  0
ENDBLK
  5
    F6
  8
0
  6
CONTINUOUS
 62
     7
  0
BLOCK
  5
    F7
  8
0
  6
CONTINUOUS
 62
     7
  2
*UDIM176
 70
    65
 10
0.0
 20
0.0
 30
0.0
  3
*UDIM176
  0
TEXT
  5
    F8
  8
0
  6
CONTINUOUS
 62
     7
 10
-523.893890384392
 20
26.4210597531323
 30
0.0
 40
3.00000002980232
  1
218
 50
89.9999999480344
 41
0.933333333333333
 72
     1
 11
-525.393890395761
 21
30.3210597932339
 31
0.0
 73
     2
  0
LINE
  5
    F9
  8
0
  6
CONTINUOUS
 62
     7
 10
-522.893890380859
 20
-23.90394115448
 30
0.0
 11
-522.893890380859
 21
85.0960559844971
 31
0.0
  0
LINE
  5
    FA
  8
0
  6
CONTINUOUS
 62
     7
 10
-523.414834810811
 20
-20.949517877273
 30
0.0
 11
-522.893890380859
 21
-23.90394115448
 31
0.0
  0
LINE
  5
    FB
  8
0
  6
CONTINUOUS
 62
     7
 10
-522.893890380859
 20
-23.90394115448
 30
0.0
 11
-522.372945950908
 21
-20.949517877273
 31
0.0
  0
LINE
  5
    FC
  8
0
  6
CONTINUOUS
 62
     7
 10
-522.372945950908
 20
82.1416327072901
 30
0.0
 11
-522.893890380859
 21
85.0960559844971
 31
0.0
  0
LINE
  5
    FD
  8
0
  6
CONTINUOUS
 62
     7
 10
-522.893890380859
 20
85.0960559844971
 30
0.0
 11
-523.414834810811
 21
82.1416327072901
 31
0.0
  0
ENDBLK
  5
    FE
  8
0
  6
CONTINUOUS
 62
     7
  0
BLOCK
  5
    FF
  8
0
  6
CONTINUOUS
 62
     7
  2
*UDIM177
 70
    65
 10
0.0
 20
0.0
 30
0.0
  3
*UDIM177
  0
TEXT
  5
   100
  8
0
  6
CONTINUOUS
 62
     7
 10
-623.349023511372
 20
-60.9313297211298
 30
0.0
 40
3.00000002980232
  1
195,5
 50
359.999999948034
 41
0.933333333333333
 72
     1
 11
-616.64902344346
 21
-59.4313297122717
 31
0.0
 73
     2
  0
LINE
  5
   101
  8
0
  6
CONTINUOUS
 62
     7
 10
-567.4990234375
 20
-51.2164602167128
 30
0.0
 11
-567.4990234375
 21
-63.9313297271729
 31
0.0
  0
LINE
  5
   102
  8
0
  6
CONTINUOUS
 62
     7
 10
-665.249021530151
 20
-9.7790002822876
 30
0.0
 11
-665.249021530151
 21
-63.9313297271729
 31
0.0
  0
LINE
  5
   103
  8
0
  6
CONTINUOUS
 62
     7
 10
-567.4990234375
 20
-61.9313297271729
 30
0.0
 11
-665.249021530151
 21
-61.9313297271729
 31
0.0
  0
LINE
  5
   104
  8
0
  6
CONTINUOUS
 62
     7
 10
-570.453446714707
 20
-62.4522741571245
 30
0.0
 11
-567.4990234375
 21
-61.9313297271729
 31
0.0
  0
LINE
  5
   105
  8
0
  6
CONTINUOUS
 62
     7
 10
-567.4990234375
 20
-61.9313297271729
 30
0.0
 11
-570.453446714707
 21
-61.4103852972212
 31
0.0
  0
LINE
  5
   106
  8
0
  6
CONTINUOUS
 62
     7
 10
-662.294598252944
 20
-61.4103852972212
 30
0.0
 11
-665.249021530151
 21
-61.9313297271729
 31
0.0
  0
LINE
  5
   107
  8
0
  6
CONTINUOUS
 62
     7
 10
-665.249021530151
 20
-61.9313297271729
 30
0.0
 11
-662.294598252944
 21
-62.4522741571245
 31
0.0
  0
ENDBLK
  5
   108
  8
0
  6
CONTINUOUS
 62
     7
  0
BLOCK
  5
   109
  8
0
  6
CONTINUOUS
 62
     7
  2
*UDIM178
 70
    65
 10
0.0
 20
0.0
 30
0.0
  3
*UDIM178
  0
TEXT
  5
   10A
  8
0
  6
CONTINUOUS
 62
     7
 10
-619.174023483556
 20
-52.9735794032207
 30
0.0
 40
3.00000002980232
  1
190
 50
359.999999948034
 41
0.933333333333333
 72
     1
 11
-615.274023443461
 21
-51.4735793918371
 31
0.0
 73
     2
  0
LINE
  5
   10B
  8
0
  6
CONTINUOUS
 62
     7
 10
-567.4990234375
 20
-51.2164602167128
 30
0.0
 11
-567.4990234375
 21
-55.9735794067383
 31
0.0
  0
LINE
  5
   10C
  8
0
  6
CONTINUOUS
 62
     7
 10
-662.4990234375
 20
-43.7633557473316
 30
0.0
 11
-662.4990234375
 21
-55.9735794067383
 31
0.0
  0
LINE
  5
   10D
  8
0
  6
CONTINUOUS
 62
     7
 10
-567.4990234375
 20
-53.9735794067383
 30
0.0
 11
-662.4990234375
 21
-53.9735794067383
 31
0.0
  0
LINE
  5
   10E
  8
0
  6
CONTINUOUS
 62
     7
 10
-570.453446714707
 20
-54.4945238366899
 30
0.0
 11
-567.4990234375
 21
-53.9735794067383
 31
0.0
  0
LINE
  5
   10F
  8
0
  6
CONTINUOUS
 62
     7
 10
-567.4990234375
 20
-53.9735794067383
 30
0.0
 11
-570.453446714707
 21
-53.4526349767866
 31
0.0
  0
LINE
  5
   110
  8
0
  6
CONTINUOUS
 62
     7
 10
-659.544600160293
 20
-53.4526349767866
 30
0.0
 11
-662.4990234375
 21
-53.9735794067383
 31
0.0
  0
LINE
  5
   111
  8
0
  6
CONTINUOUS
 62
     7
 10
-662.4990234375
 20
-53.9735794067383
 30
0.0
 11
-659.544600160293
 21
-54.49452383669
 31
0.0
  0
ENDBLK
  5
   112
  8
0
  6
CONTINUOUS
 62
     7
  0
BLOCK
  5
   113
  8
0
  6
CONTINUOUS
 62
     7
  2
*UDIM179
 70
    65
 10
0.0
 20
0.0
 30
0.0
  3
*UDIM179
  0
TEXT
  5
   114
  8
0
  6
CONTINUOUS
 62
     7
 10
-656.216415512921
 20
-52.9735794057461
 30
0.0
 40
3.00000002980232
  1
2
 50
359.999999948034
 41
0.933333333333334
 72
     1
 11
-655.116415500641
 21
-51.4735793918371
 31
0.0
 73
     2
  0
LINE
  5
   115
  8
0
  6
CONTINUOUS
 62
     7
 10
-663.4990234375
 20
-43.9318950731743
 30
0.0
 11
-663.4990234375
 21
-55.9735794067383
 31
0.0
  0
LINE
  5
   116
  8
0
  6
CONTINUOUS
 62
     7
 10
-654.016415489713
 20
-53.9735794067383
 30
0.0
 11
-663.4990234375
 21
-53.9735794067383
 31
0.0
  0
LINE
  5
   117
  8
0
  6
CONTINUOUS
 62
     7
 10
-659.544600160293
 20
-53.4526349767866
 30
0.0
 11
-662.4990234375
 21
-53.9735794067383
 31
0.0
  0
LINE
  5
   118
  8
0
  6
CONTINUOUS
 62
     7
 10
-662.4990234375
 20
-53.9735794067383
 30
0.0
 11
-659.544600160293
 21
-54.4945238366899
 31
0.0
  0
LINE
  5
   119
  8
0
  6
CONTINUOUS
 62
     7
 10
-666.453446714707
 20
-54.4945238366899
 30
0.0
 11
-663.4990234375
 21
-53.9735794067383
 31
0.0
  0
LINE
  5
   11A
  8
0
  6
CONTINUOUS
 62
     7
 10
-663.4990234375
 20
-53.9735794067383
 30
0.0
 11
-666.453446714707
 21
-53.4526349767866
 31
0.0
  0
ENDBLK
  5
   11B
  8
0
  6
CONTINUOUS
 62
     7
  0
BLOCK
  5
   11C
  8
0
  6
CONTINUOUS
 62
     7
  2
*UDIM180
 70
    65
 10
0.0
 20
0.0
 30
0.0
  3
*UDIM180
  0
TEXT
  5
   11D
  8
0
  6
CONTINUOUS
 62
     7
 10
-613.424038749213
 20
-45.1507053340068
 30
0.0
 40
3.00000002980232
  1
167
 50
359.999999948034
 41
0.933333333333333
 72
     1
 11
-609.524038709117
 21
-43.6507053226233
 31
0.0
 73
     2
  0
LINE
  5
   11E
  8
0
  6
CONTINUOUS
 62
     7
 10
-650.999057247068
 20
24.0960441607559
 30
0.0
 11
-650.999057247068
 21
-48.1507053375244
 31
0.0
  0
LINE
  5
   11F
  8
0
  6
CONTINUOUS
 62
     7
 10
-567.4990234375
 20
-46.1507053375244
 30
0.0
 11
-650.999057247068
 21
-46.1507053375244
 31
0.0
  0
LINE
  5
   120
  8
0
  6
CONTINUOUS
 62
     7
 10
-570.453446714707
 20
-46.6716497674761
 30
0.0
 11
-567.4990234375
 21
-46.1507053375244
 31
0.0
  0
LINE
  5
   121
  8
0
  6
CONTINUOUS
 62
     7
 10
-567.4990234375
 20
-46.1507053375244
 30
0.0
 11
-570.453446714707
 21
-45.6297609075728
 31
0.0
  0
LINE
  5
   122
  8
0
  6
CONTINUOUS
 62
     7
 10
-648.044633969861
 20
-45.6297609075728
 30
0.0
 11
-650.999057247068
 21
-46.1507053375244
 31
0.0
  0
LINE
  5
   123
  8
0
  6
CONTINUOUS
 62
     7
 10
-650.999057247068
 20
-46.1507053375244
 30
0.0
 11
-648.044633969861
 21
-46.6716497674761
 31
0.0
  0
ENDBLK
  5
   124
  8
0
  6
CONTINUOUS
 62
     7
  0
BLOCK
  5
   125
  8
0
  6
CONTINUOUS
 62
     7
  2
*UDIM181
 70
    65
 10
0.0
 20
0.0
 30
0.0
  3
*UDIM181
  0
TEXT
  5
   126
  8
0
  6
CONTINUOUS
 62
     7
 10
-557.726447689893
 20
-52.9735813130948
 30
0.0
 40
3.00000002980232
  1
3
 50
359.999999948034
 41
0.933333333333334
 72
     1
 11
-556.626447677612
 21
-51.4735812991858
 31
0.0
 73
     2
  0
TEXT
  5
   127
  8
0
  6
CONTINUOUS
 62
     7
 10
-560.476447723669
 20
-52.9735813130948
 30
0.0
 40
3.00000002980232
  1
_
 50
359.999999948034
 41
0.933333333333334
 72
     1
 11
-559.376447711388
 21
-51.4735812991858
 31
0.0
 73
     2
  0
LINE
  5
   128
  8
0
  6
CONTINUOUS
 62
     7
 10
-565.9990234375
 20
-49.5811748408769
 30
0.0
 11
-565.9990234375
 21
-55.9735813140869
 31
0.0
  0
LINE
  5
   129
  8
0
  6
CONTINUOUS
 62
     7
 10
-567.4990234375
 20
-51.2164602167128
 30
0.0
 11
-567.4990234375
 21
-55.9735813140869
 31
0.0
  0
LINE
  5
   12A
  8
0
  6
CONTINUOUS
 62
     7
 10
-555.526447666685
 20
-53.9735813140869
 30
0.0
 11
-567.4990234375
 21
-53.9735813140869
 31
0.0
  0
LINE
  5
   12B
  8
0
  6
CONTINUOUS
 62
     7
 10
-563.044600160293
 20
-53.4526368841353
 30
0.0
 11
-565.9990234375
 21
-53.9735813140869
 31
0.0
  0
LINE
  5
   12C
  8
0
  6
CONTINUOUS
 62
     7
 10
-565.9990234375
 20
-53.9735813140869
 30
0.0
 11
-563.044600160293
 21
-54.4945257440386
 31
0.0
  0
LINE
  5
   12D
  8
0
  6
CONTINUOUS
 62
     7
 10
-570.453446714707
 20
-54.4945257440386
 30
0.0
 11
-567.4990234375
 21
-53.9735813140869
 31
0.0
  0
LINE
  5
   12E
  8
0
  6
CONTINUOUS
 62
     7
 10
-567.4990234375
 20
-53.9735813140869
 30
0.0
 11
-570.453446714707
 21
-53.4526368841353
 31
0.0
  0
ENDBLK
  5
   12F
  8
0
  6
CONTINUOUS
 62
     7
  0
BLOCK
  5
   130
  8
0
  6
CONTINUOUS
 62
     7
  2
*UDIM182
 70
    65
 10
0.0
 20
0.0
 30
0.0
  3
*UDIM182
  0
TEXT
  5
   131
  8
0
  6
CONTINUOUS
 62
     7
 10
-684.161315921501
 20
21.4323626117234
 30
0.0
 40
3.00000002980232
  1
105
 50
89.9999999480344
 41
0.933333333333333
 72
     1
 11
-685.66131593287
 21
25.332362651825
 31
0.0
 73
     2
  0
LINE
  5
   132
  8
0
  6
CONTINUOUS
 62
     7
 10
-663.499021530151
 20
5.2210693359375
 30
0.0
 11
-685.161315917969
 21
5.2210693359375
 31
0.0
  0
LINE
  5
   133
  8
0
  6
CONTINUOUS
 62
     7
 10
-663.499021530151
 20
57.7210941314697
 30
0.0
 11
-685.161315917969
 21
57.7210941314697
 31
0.0
  0
LINE
  5
   134
  8
0
  6
CONTINUOUS
 62
     7
 10
-683.161315917969
 20
5.2210693359375
 30
0.0
 11
-683.161315917969
 21
57.7210941314697
 31
0.0
  0
LINE
  5
   135
  8
0
  6
CONTINUOUS
 62
     7
 10
-683.682260347921
 20
8.17549261314446
 30
0.0
 11
-683.161315917969
 21
5.2210693359375
 31
0.0
  0
LINE
  5
   136
  8
0
  6
CONTINUOUS
 62
     7
 10
-683.161315917969
 20
5.2210693359375
 30
0.0
 11
-682.640371488017
 21
8.17549261314446
 31
0.0
  0
LINE
  5
   137
  8
0
  6
CONTINUOUS
 62
     7
 10
-682.640371488017
 20
54.7666708542628
 30
0.0
 11
-683.161315917969
 21
57.7210941314697
 31
0.0
  0
LINE
  5
   138
  8
0
  6
CONTINUOUS
 62
     7
 10
-683.161315917969
 20
57.7210941314697
 30
0.0
 11
-683.682260347921
 21
54.7666708542628
 31
0.0
  0
ENDBLK
  5
   139
  8
0
  6
CONTINUOUS
 62
     7
  0
BLOCK
  5
   13A
  8
0
  6
CONTINUOUS
 62
     7
  2
*UDIM183
 70
    65
 10
0.0
 20
0.0
 30
0.0
  3
*UDIM183
  0
TEXT
  5
   13B
  8
0
  6
CONTINUOUS
 62
     7
 10
-623.5362033892
 20
14.8702532881316
 30
0.0
 40
3.00000002980232
  1
1,75
 50
89.9999999480344
 41
0.933333333333333
 72
     1
 11
-625.036203399301
 21
20.170253342141
 31
0.0
 73
     2
  0
LINE
  5
   13C
  8
0
  6
CONTINUOUS
 62
     7
 10
-644.499061505158
 20
30.5960399026657
 30
0.0
 11
-620.536203384399
 21
30.5960399026657
 31
0.0
  0
LINE
  5
   13D
  8
0
  6
CONTINUOUS
 62
     7
 10
-622.536203384399
 20
14.8702532894902
 30
0.0
 11
-622.536203384399
 21
31.4710941314697
 31
0.0
  0
LINE
  5
   13E
  8
0
  6
CONTINUOUS
 62
     7
 10
-622.015258954448
 20
27.6416166254588
 30
0.0
 11
-622.536203384399
 21
30.5960399026657
 31
0.0
  0
LINE
  5
   13F
  8
0
  6
CONTINUOUS
 62
     7
 10
-622.536203384399
 20
30.5960399026657
 30
0.0
 11
-623.057147814351
 21
27.6416166254588
 31
0.0
  0
LINE
  5
   140
  8
0
  6
CONTINUOUS
 62
     7
 10
-623.057147814351
 20
34.4255174086767
 30
0.0
 11
-622.536203384399
 21
31.4710941314697
 31
0.0
  0
LINE
  5
   141
  8
0
  6
CONTINUOUS
 62
     7
 10
-622.536203384399
 20
31.4710941314697
 30
0.0
 11
-622.015258954448
 21
34.4255174086767
 31
0.0
  0
ENDBLK
  5
   142
  8
0
  6
CONTINUOUS
 62
     7
  0
BLOCK
  5
   143
  8
0
  6
CONTINUOUS
 62
     7
  2
*UDIM184
 70
    65
 10
0.0
 20
0.0
 30
0.0
  3
*UDIM184
  0
TEXT
  5
   144
  8
0
  6
CONTINUOUS
 62
     7
 10
-669.378711715082
 20
-113.499771207302
 30
0.0
 40
3.00000002980232
  1
107,25
 50
449.999999896069
 41
0.933333333333333
 72
     1
 11
-670.878711715341
 21
-105.399771124125
 31
0.0
 73
     2
  0
LINE
  5
   145
  8
0
  6
CONTINUOUS
 62
     7
 10
-651.246711832151
 20
-91.7185211181641
 30
0.0
 11
-670.378711700439
 21
-91.7185211181641
 31
0.0
  0
LINE
  5
   146
  8
0
  6
CONTINUOUS
 62
     7
 10
-659.606030280317
 20
-118.531021118164
 30
0.0
 11
-670.378711700439
 21
-118.531021118164
 31
0.0
  0
LINE
  5
   147
  8
0
  6
CONTINUOUS
 62
     7
 10
-668.37871170044
 20
-91.7185211181641
 30
0.0
 11
-668.37871170044
 21
-118.531021118164
 31
0.0
  0
LINE
  5
   148
  8
0
  6
CONTINUOUS
 62
     7
 10
-667.857767270488
 20
-94.672944395371
 30
0.0
 11
-668.37871170044
 21
-91.7185211181641
 31
0.0
  0
LINE
  5
   149
  8
0
  6
CONTINUOUS
 62
     7
 10
-668.37871170044
 20
-91.7185211181641
 30
0.0
 11
-668.899656130391
 21
-94.672944395371
 31
0.0
  0
LINE
  5
   14A
  8
0
  6
CONTINUOUS
 62
     7
 10
-668.899656130391
 20
-115.576597840957
 30
0.0
 11
-668.37871170044
 21
-118.531021118164
 31
0.0
  0
LINE
  5
   14B
  8
0
  6
CONTINUOUS
 62
     7
 10
-668.37871170044
 20
-118.531021118164
 30
0.0
 11
-667.857767270488
 21
-115.576597840957
 31
0.0
  0
ENDBLK
  5
   14C
  8
0
  6
CONTINUOUS
 62
     7
  0
BLOCK
  5
   14D
  8
0
  6
CONTINUOUS
 62
     7
  2
*UDIM185
 70
    65
 10
0.0
 20
0.0
 30
0.0
  3
*UDIM185
  0
TEXT
  5
   14E
  8
0
  6
CONTINUOUS
 62
     7
 10
-607.993331921291
 20
-138.969998619685
 30
0.0
 40
3.00000002980232
  1
65,75
 50
449.999999896069
 41
0.933333333333333
 72
     1
 11
-609.493331924081
 21
-132.269998550415
 31
0.0
 73
     2
  0
LINE
  5
   14F
  8
0
  6
CONTINUOUS
 62
     7
 10
-614.514661554845
 20
-102.093521118164
 30
0.0
 11
-604.99333190918
 21
-102.093521118164
 31
0.0
  0
LINE
  5
   150
  8
0
  6
CONTINUOUS
 62
     7
 10
-606.99333190918
 20
-102.093521118164
 30
0.0
 11
-606.99333190918
 21
-138.969998616974
 31
0.0
  0
LINE
  5
   151
  8
0
  6
CONTINUOUS
 62
     7
 10
-606.472387479228
 20
-105.047944395371
 30
0.0
 11
-606.99333190918
 21
-102.093521118164
 31
0.0
  0
LINE
  5
   152
  8
0
  6
CONTINUOUS
 62
     7
 10
-606.99333190918
 20
-102.093521118164
 30
0.0
 11
-607.514276339131
 21
-105.047944395371
 31
0.0
  0
LINE
  5
   153
  8
0
  6
CONTINUOUS
 62
     7
 10
-607.514276339131
 20
-115.576597840957
 30
0.0
 11
-606.99333190918
 21
-118.531021118164
 31
0.0
  0
LINE
  5
   154
  8
0
  6
CONTINUOUS
 62
     7
 10
-606.99333190918
 20
-118.531021118164
 30
0.0
 11
-606.472387479228
 21
-115.576597840957
 31
0.0
  0
ENDBLK
  5
   155
  8
0
  6
CONTINUOUS
 62
     7
  0
BLOCK
  5
   156
  8
0
  6
CONTINUOUS
 62
     7
  2
*UDIM186
 70
    65
 10
0.0
 20
0.0
 30
0.0
  3
*UDIM186
  0
TEXT
  5
   157
  8
0
  6
CONTINUOUS
 62
     7
 10
-603.57054043489
 20
-78.6643449705779
 30
0.0
 40
3.00000002980232
  1
18
 50
392.405678570768
 41
0.933333333333333
 72
     1
 11
-602.263719092916
 21
-76.0581565374364
 31
0.0
 73
     2
  0
TEXT
  5
   158
  8
0
  6
CONTINUOUS
 62
     7
 10
-605.892296202529
 20
-80.1380987971048
 30
0.0
 40
3.00000002980232
  1
R
 50
392.405678570768
 41
0.933333333333334
 72
     1
 11
-605.767459614262
 21
-78.2821850342985
 31
0.0
 73
     2
  0
LINE
  5
   159
  8
0
  6
CONTINUOUS
 62
     7
 10
-598.813255839628
 20
-76.8290673859725
 30
0.0
 11
-631.135027156122
 21
-97.3455811058106
 31
0.0
  0
LINE
  5
   15A
  8
0
  6
CONTINUOUS
 62
     7
 10
-620.68607052338
 20
-91.3300506245584
 30
0.0
 11
-618.470904935323
 21
-89.3069239806013
 31
0.0
  0
LINE
  5
   15B
  8
0
  6
CONTINUOUS
 62
     7
 10
-618.470904935323
 20
-89.3069239806013
 30
0.0
 11
-621.244429677202
 21
-90.4504101004048
 31
0.0
  0
ENDBLK
  5
   15C
  8
0
  6
CONTINUOUS
 62
     7
  0
BLOCK
  5
   15D
  8
0
  6
CONTINUOUS
 62
     7
  2
*UDIM187
 70
    65
 10
0.0
 20
0.0
 30
0.0
  3
*UDIM187
  0
TEXT
  5
   15E
  8
0
  6
CONTINUOUS
 62
     7
 10
-638.782643570236
 20
-75.9922790431471
 30
0.0
 40
3.00000002980232
  1
87,5
 50
359.999999896069
 41
0.933333333333333
 72
     1
 11
-633.482643514872
 21
-74.4922790378332
 31
0.0
 73
     2
  0
LINE
  5
   15F
  8
0
  6
CONTINUOUS
 62
     7
 10
-622.270141601563
 20
-84.4347774832644
 30
0.0
 11
-622.270141601563
 21
-74.9922790527344
 31
0.0
  0
LINE
  5
   160
  8
0
  6
CONTINUOUS
 62
     7
 10
-644.145141601563
 20
-84.4347774832644
 30
0.0
 11
-644.145141601563
 21
-74.9922790527344
 31
0.0
  0
LINE
  5
   161
  8
0
  6
CONTINUOUS
 62
     7
 10
-622.270141601563
 20
-76.9922790527344
 30
0.0
 11
-644.145141601563
 21
-76.9922790527344
 31
0.0
  0
LINE
  5
   162
  8
0
  6
CONTINUOUS
 62
     7
 10
-625.22456487877
 20
-77.5132234826861
 30
0.0
 11
-622.270141601563
 21
-76.9922790527344
 31
0.0
  0
LINE
  5
   163
  8
0
  6
CONTINUOUS
 62
     7
 10
-622.270141601563
 20
-76.9922790527344
 30
0.0
 11
-625.22456487877
 21
-76.4713346227827
 31
0.0
  0
LINE
  5
   164
  8
0
  6
CONTINUOUS
 62
     7
 10
-641.190718324356
 20
-76.4713346227827
 30
0.0
 11
-644.145141601563
 21
-76.9922790527344
 31
0.0
  0
LINE
  5
   165
  8
0
  6
CONTINUOUS
 62
     7
 10
-644.145141601563
 20
-76.9922790527344
 30
0.0
 11
-641.190718324356
 21
-77.5132234826861
 31
0.0
  0
ENDBLK
  5
   166
  8
0
  6
CONTINUOUS
 62
     7
  0
BLOCK
  5
   167
  8
0
  6
CONTINUOUS
 62
     7
  2
*UDIM188
 70
    65
 10
0.0
 20
0.0
 30
0.0
  3
*UDIM188
  0
TEXT
  5
   168
  8
0
  6
CONTINUOUS
 62
     7
 10
-677.233810431855
 20
-123.143520679547
 30
0.0
 40
3.00000002980232
  1
218
 50
449.999999896069
 41
0.933333333333333
 72
     1
 11
-678.733810439706
 21
-119.243520638092
 31
0.0
 73
     2
  0
LINE
  5
   169
  8
0
  6
CONTINUOUS
 62
     7
 10
-651.246711832151
 20
-91.7185203945306
 30
0.0
 11
-678.233810424804
 21
-91.7185008657634
 31
0.0
  0
LINE
  5
   16A
  8
0
  6
CONTINUOUS
 62
     7
 10
-650.59444648956
 20
-146.218520413786
 30
0.0
 11
-678.233810424804
 21
-146.218500945226
 31
0.0
  0
LINE
  5
   16B
  8
0
  6
CONTINUOUS
 62
     7
 10
-676.233810424805
 20
-91.7185023130303
 30
0.0
 11
-676.233810424805
 21
-146.218502353982
 31
0.0
  0
LINE
  5
   16C
  8
0
  6
CONTINUOUS
 62
     7
 10
-675.712865994853
 20
-94.6729255902372
 30
0.0
 11
-676.233810424805
 21
-91.7185023130303
 31
0.0
  0
LINE
  5
   16D
  8
0
  6
CONTINUOUS
 62
     7
 10
-676.233810424805
 20
-91.7185023130303
 30
0.0
 11
-676.754754854757
 21
-94.6729255902372
 31
0.0
  0
LINE
  5
   16E
  8
0
  6
CONTINUOUS
 62
     7
 10
-676.754754854757
 20
-143.264079076775
 30
0.0
 11
-676.233810424805
 21
-146.218502353982
 31
0.0
  0
LINE
  5
   16F
  8
0
  6
CONTINUOUS
 62
     7
 10
-676.233810424805
 20
-146.218502353982
 30
0.0
 11
-675.712865994853
 21
-143.264079076775
 31
0.0
  0
ENDBLK
  5
   170
  8
0
  6
CONTINUOUS
 62
     7
  0
BLOCK
  5
   171
  8
0
  6
CONTINUOUS
 62
     7
  2
*UDIM189
 70
    65
 10
0.0
 20
0.0
 30
0.0
  3
*UDIM189
  0
TEXT
  5
   172
  8
0
  6
CONTINUOUS
 62
     7
 10
-603.950328753353
 20
-97.7790487944257
 30
0.0
 40
3.00000002980232
  1
6
 50
372.466948566418
 41
0.933333333333334
 72
     1
 11
-603.200080569873
 21
-96.0769536936957
 31
0.0
 73
     2
  0
TEXT
  5
   173
  8
0
  6
CONTINUOUS
 62
     7
 10
-607.02605396442
 20
-98.4590594477155
 30
0.0
 40
3.00000002980232
  1
Ø
 50
372.466948566418
 41
0.933333333333334
 72
     1
 11
-606.27580578094
 21
-96.7569643469855
 31
0.0
 73
     2
  0
TEXT
  5
   174
  8
0
  6
CONTINUOUS
 62
     7
 10
-601.265171800731
 20
-97.1853886849745
 30
0.0
 40
3.00000002980232
  1
 (M5)
 50
372.466948566418
 41
0.933333333333333
 72
     1
 11
-595.046967647202
 21
-94.2743857578669
 31
0.0
 73
     2
  0
LINE
  5
   175
  8
0
  6
CONTINUOUS
 62
     7
 10
-587.965257903749
 20
-95.2690656439995
 30
0.0
 11
-619.564957125698
 21
-102.255428416056
 31
0.0
  0
LINE
  5
   176
  8
0
  6
CONTINUOUS
 62
     7
 10
-615.328025643081
 20
-100.785162643064
 30
0.0
 11
-618.100326077427
 21
-101.931613820272
 31
0.0
  0
LINE
  5
   177
  8
0
  6
CONTINUOUS
 62
     7
 10
-618.100326077427
 20
-101.931613820272
 30
0.0
 11
-615.103106429734
 21
-101.802484491771
 31
0.0
  0
LINE
  5
   178
  8
0
  6
CONTINUOUS
 62
     7
 10
-622.337257560044
 20
-103.401879593264
 30
0.0
 11
-619.564957125698
 21
-102.255428416056
 31
0.0
  0
LINE
  5
   179
  8
0
  6
CONTINUOUS
 62
     7
 10
-619.564957125698
 20
-102.255428416056
 30
0.0
 11
-622.562176773391
 21
-102.384557744557
 31
0.0
  0
ENDBLK
  5
   17A
  8
0
  6
CONTINUOUS
 62
     7
  0
BLOCK
  5
   17B
  8
0
  6
CONTINUOUS
 62
     7
  2
*UDIM190
 70
    65
 10
0.0
 20
0.0
 30
0.0
  3
*UDIM190
  0
TEXT
  5
   17C
  8
0
  6
CONTINUOUS
 62
     7
 10
-630.801146453352
 20
-125.785797112086
 30
0.0
 40
3.00000002980232
  1
115
 50
359.999999896069
 41
0.933333333333333
 72
     1
 11
-626.901146411896
 21
-124.285797104239
 31
0.0
 73
     2
  0
LINE
  5
   17D
  8
0
  6
CONTINUOUS
 62
     7
 10
-618.832641601563
 20
-126.785797119141
 30
0.0
 11
-647.582641601563
 21
-126.785797119141
 31
0.0
  0
LINE
  5
   17E
  8
0
  6
CONTINUOUS
 62
     7
 10
-621.78706487877
 20
-127.306741549092
 30
0.0
 11
-618.832641601563
 21
-126.785797119141
 31
0.0
  0
LINE
  5
   17F
  8
0
  6
CONTINUOUS
 62
     7
 10
-618.832641601563
 20
-126.785797119141
 30
0.0
 11
-621.78706487877
 21
-126.264852689189
 31
0.0
  0
LINE
  5
   180
  8
0
  6
CONTINUOUS
 62
     7
 10
-644.628218324356
 20
-126.264852689189
 30
0.0
 11
-647.582641601563
 21
-126.785797119141
 31
0.0
  0
LINE
  5
   181
  8
0
  6
CONTINUOUS
 62
     7
 10
-647.582641601563
 20
-126.785797119141
 30
0.0
 11
-644.628218324356
 21
-127.306741549092
 31
0.0
  0
ENDBLK
  5
   182
  8
0
  6
CONTINUOUS
 62
     7
  0
BLOCK
  5
   183
  8
0
  6
CONTINUOUS
 62
     7
  2
*UDIM191
 70
    65
 10
0.0
 20
0.0
 30
0.0
  3
*UDIM191
  0
TEXT
  5
   184
  8
0
  6
CONTINUOUS
 62
     7
 10
-660.449131019013
 20
-127.713492376105
 30
0.0
 40
3.00000002980232
  1
135
 50
449.999999896069
 41
0.933333333333333
 72
     1
 11
-661.949131026864
 21
-123.81349233465
 31
0.0
 73
     2
  0
LINE
  5
   185
  8
0
  6
CONTINUOUS
 62
     7
 10
-651.578854410517
 20
-102.093519563336
 30
0.0
 11
-661.449131011961
 21
-102.093504216755
 31
0.0
  0
LINE
  5
   186
  8
0
  6
CONTINUOUS
 62
     7
 10
-651.630626459002
 20
-135.843519554208
 30
0.0
 11
-661.44913101196
 21
-135.843504198498
 31
0.0
  0
LINE
  5
   187
  8
0
  6
CONTINUOUS
 62
     7
 10
-659.449131011963
 20
-102.09350732641
 30
0.0
 11
-659.449131011963
 21
-135.84350732641
 31
0.0
  0
LINE
  5
   188
  8
0
  6
CONTINUOUS
 62
     7
 10
-658.928186582011
 20
-105.047930603617
 30
0.0
 11
-659.449131011963
 21
-102.09350732641
 31
0.0
  0
LINE
  5
   189
  8
0
  6
CONTINUOUS
 62
     7
 10
-659.449131011963
 20
-102.09350732641
 30
0.0
 11
-659.970075441915
 21
-105.047930603617
 31
0.0
  0
LINE
  5
   18A
  8
0
  6
CONTINUOUS
 62
     7
 10
-659.970075441915
 20
-132.889084049203
 30
0.0
 11
-659.449131011963
 21
-135.84350732641
 31
0.0
  0
LINE
  5
   18B
  8
0
  6
CONTINUOUS
 62
     7
 10
-659.449131011963
 20
-135.84350732641
 30
0.0
 11
-658.928186582011
 21
-132.889084049203
 31
0.0
  0
ENDBLK
  5
   18C
  8
0
  6
CONTINUOUS
 62
     7
  0
BLOCK
  5
   18D
  8
0
  6
CONTINUOUS
 62
     7
  2
*UDIM192
 70
    65
 10
0.0
 20
0.0
 30
0.0
  3
*UDIM192
  0
TEXT
  5
   18E
  8
0
  6
CONTINUOUS
 62
     7
 10
-431.870031593818
 20
-73.0679283096867
 30
0.0
 40
3.00000002980232
  1
16
 50
359.999999896069
 41
0.933333333333333
 72
     1
 11
-429.370031566269
 21
-71.5679282993078
 31
0.0
 73
     2
  0
TEXT
  5
   18F
  8
0
  6
CONTINUOUS
 62
     7
 10
-434.620031627594
 20
-73.0679283122192
 30
0.0
 40
3.00000002980232
  1
M
 50
359.999999896069
 41
0.933333333333334
 72
     1
 11
-433.520031613953
 21
-71.5679282993078
 31
0.0
 73
     2
  0
LINE
  5
   190
  8
0
  6
CONTINUOUS
 62
     7
 10
-432.260056228287
 20
-81.2732422644732
 30
0.0
 11
-432.260056228287
 21
-72.067928314209
 31
0.0
  0
LINE
  5
   191
  8
0
  6
CONTINUOUS
 62
     7
 10
-440.260056228287
 20
-81.2732422644732
 30
0.0
 11
-440.260056228287
 21
-72.067928314209
 31
0.0
  0
LINE
  5
   192
  8
0
  6
CONTINUOUS
 62
     7
 10
-426.870031541434
 20
-74.067928314209
 30
0.0
 11
-440.260056228287
 21
-74.067928314209
 31
0.0
  0
LINE
  5
   193
  8
0
  6
CONTINUOUS
 62
     7
 10
-429.30563295108
 20
-73.5469838842573
 30
0.0
 11
-432.260056228287
 21
-74.067928314209
 31
0.0
  0
LINE
  5
   194
  8
0
  6
CONTINUOUS
 62
     7
 10
-432.260056228287
 20
-74.067928314209
 30
0.0
 11
-429.30563295108
 21
-74.5888727441607
 31
0.0
  0
LINE
  5
   195
  8
0
  6
CONTINUOUS
 62
     7
 10
-443.214479505494
 20
-74.5888727441607
 30
0.0
 11
-440.260056228287
 21
-74.067928314209
 31
0.0
  0
LINE
  5
   196
  8
0
  6
CONTINUOUS
 62
     7
 10
-440.260056228287
 20
-74.067928314209
 30
0.0
 11
-443.214479505494
 21
-73.5469838842573
 31
0.0
  0
ENDBLK
  5
   197
  8
0
  6
CONTINUOUS
 62
     7
  0
BLOCK
  5
   198
  8
0
  6
CONTINUOUS
 62
     7
  2
*UDIM193
 70
    65
 10
0.0
 20
0.0
 30
0.0
  3
*UDIM193
  0
TEXT
  5
   199
  8
0
  6
CONTINUOUS
 62
     7
 10
-498.600593577376
 20
-98.5482391687366
 30
0.0
 40
3.00000002980232
  1
58
 50
449.999999896069
 41
0.933333333333333
 72
     1
 11
-500.100593587758
 21
-96.0482391411898
 31
0.0
 73
     2
  0
LINE
  5
   19A
  8
0
  6
CONTINUOUS
 62
     7
 10
-484.010056228287
 20
-81.2732422644732
 30
0.0
 11
-499.600593572857
 21
-81.2732422644732
 31
0.0
  0
LINE
  5
   19B
  8
0
  6
CONTINUOUS
 62
     7
 10
-430.260056228287
 20
-110.273234635079
 30
0.0
 11
-499.600593572857
 21
-110.273234635079
 31
0.0
  0
LINE
  5
   19C
  8
0
  6
CONTINUOUS
 62
     7
 10
-497.600593572857
 20
-81.2732422644732
 30
0.0
 11
-497.600593572857
 21
-110.273234635079
 31
0.0
  0
LINE
  5
   19D
  8
0
  6
CONTINUOUS
 62
     7
 10
-497.079649142905
 20
-84.2276655416802
 30
0.0
 11
-497.600593572857
 21
-81.2732422644732
 31
0.0
  0
LINE
  5
   19E
  8
0
  6
CONTINUOUS
 62
     7
 10
-497.600593572857
 20
-81.2732422644732
 30
0.0
 11
-498.121538002809
 21
-84.2276655416802
 31
0.0
  0
LINE
  5
   19F
  8
0
  6
CONTINUOUS
 62
     7
 10
-498.121538002809
 20
-107.318811357872
 30
0.0
 11
-497.600593572857
 21
-110.273234635079
 31
0.0
  0
LINE
  5
   1A0
  8
0
  6
CONTINUOUS
 62
     7
 10
-497.600593572857
 20
-110.273234635079
 30
0.0
 11
-497.079649142905
 21
-107.318811357872
 31
0.0
  0
ENDBLK
  5
   1A1
  8
0
  6
CONTINUOUS
 62
     7
  0
BLOCK
  5
   1A2
  8
0
  6
CONTINUOUS
 62
     7
  2
*UDIM194
 70
    65
 10
0.0
 20
0.0
 30
0.0
  3
*UDIM194
  0
TEXT
  5
   1A3
  8
0
  6
CONTINUOUS
 62
     7
 10
-506.94958497395
 20
-87.4482391826443
 30
0.0
 40
3.00000002980232
  1
108
 50
449.999999896069
 41
0.933333333333333
 72
     1
 11
-508.449584981801
 21
-83.5482391411898
 31
0.0
 73
     2
  0
LINE
  5
   1A4
  8
0
  6
CONTINUOUS
 62
     7
 10
-462.135056228287
 20
-56.2732422644732
 30
0.0
 11
-507.9495849669
 21
-56.2732422644732
 31
0.0
  0
LINE
  5
   1A5
  8
0
  6
CONTINUOUS
 62
     7
 10
-491.635056228287
 20
-110.273234635079
 30
0.0
 11
-507.9495849669
 21
-110.273234635079
 31
0.0
  0
LINE
  5
   1A6
  8
0
  6
CONTINUOUS
 62
     7
 10
-505.9495849669
 20
-56.2732422644732
 30
0.0
 11
-505.9495849669
 21
-110.273234635079
 31
0.0
  0
LINE
  5
   1A7
  8
0
  6
CONTINUOUS
 62
     7
 10
-505.428640536948
 20
-59.2276655416802
 30
0.0
 11
-505.9495849669
 21
-56.2732422644732
 31
0.0
  0
LINE
  5
   1A8
  8
0
  6
CONTINUOUS
 62
     7
 10
-505.9495849669
 20
-56.2732422644732
 30
0.0
 11
-506.470529396852
 21
-59.2276655416802
 31
0.0
  0
LINE
  5
   1A9
  8
0
  6
CONTINUOUS
 62
     7
 10
-506.470529396852
 20
-107.318811357872
 30
0.0
 11
-505.9495849669
 21
-110.273234635079
 31
0.0
  0
LINE
  5
   1AA
  8
0
  6
CONTINUOUS
 62
     7
 10
-505.9495849669
 20
-110.273234635079
 30
0.0
 11
-505.428640536948
 21
-107.318811357872
 31
0.0
  0
ENDBLK
  5
   1AB
  8
0
  6
CONTINUOUS
 62
     7
  0
BLOCK
  5
   1AC
  8
0
  6
CONTINUOUS
 62
     7
  2
*UDIM195
 70
    65
 10
0.0
 20
0.0
 30
0.0
  3
*UDIM195
  0
TEXT
  5
   1AD
  8
0
  6
CONTINUOUS
 62
     7
 10
-454.172555618066
 20
-50.394340503017
 30
0.0
 40
3.00000002980232
  1
43,75
 50
359.999999896069
 41
0.933333333333333
 72
     1
 11
-447.472555548794
 21
-48.8943405002356
 31
0.0
 73
     2
  0
LINE
  5
   1AE
  8
0
  6
CONTINUOUS
 62
     7
 10
-458.135056228287
 20
-73.663555801064
 30
0.0
 11
-458.135056228287
 21
-49.3943405151367
 31
0.0
  0
LINE
  5
   1AF
  8
0
  6
CONTINUOUS
 62
     7
 10
-436.260056228287
 20
-51.3943405151367
 30
0.0
 11
-458.135056228287
 21
-51.3943405151367
 31
0.0
  0
LINE
  5
   1B0
  8
0
  6
CONTINUOUS
 62
     7
 10
-439.214479505494
 20
-51.9152849450884
 30
0.0
 11
-436.260056228287
 21
-51.3943405151367
 31
0.0
  0
LINE
  5
   1B1
  8
0
  6
CONTINUOUS
 62
     7
 10
-436.260056228287
 20
-51.3943405151367
 30
0.0
 11
-439.214479505494
 21
-50.873396085185
 31
0.0
  0
LINE
  5
   1B2
  8
0
  6
CONTINUOUS
 62
     7
 10
-455.18063295108
 20
-50.873396085185
 30
0.0
 11
-458.135056228287
 21
-51.3943405151367
 31
0.0
  0
LINE
  5
   1B3
  8
0
  6
CONTINUOUS
 62
     7
 10
-458.135056228287
 20
-51.3943405151367
 30
0.0
 11
-455.18063295108
 21
-51.9152849450884
 31
0.0
  0
ENDBLK
  5
   1B4
  8
0
  6
CONTINUOUS
 62
     7
  0
BLOCK
  5
   1B5
  8
0
  6
CONTINUOUS
 62
     7
  2
*UDIM196
 70
    65
 10
0.0
 20
0.0
 30
0.0
  3
*UDIM196
  0
TEXT
  5
   1B6
  8
0
  6
CONTINUOUS
 62
     7
 10
-476.047555618066
 20
-50.394340503017
 30
0.0
 40
3.00000002980232
  1
43,75
 50
359.999999896069
 41
0.933333333333333
 72
     1
 11
-469.347555548794
 21
-48.8943405002356
 31
0.0
 73
     2
  0
LINE
  5
   1B7
  8
0
  6
CONTINUOUS
 62
     7
 10
-458.135056228287
 20
-51.3943405151367
 30
0.0
 11
-480.010056228287
 21
-51.3943405151367
 31
0.0
  0
LINE
  5
   1B8
  8
0
  6
CONTINUOUS
 62
     7
 10
-461.089479505494
 20
-51.9152849450884
 30
0.0
 11
-458.135056228287
 21
-51.3943405151367
 31
0.0
  0
LINE
  5
   1B9
  8
0
  6
CONTINUOUS
 62
     7
 10
-458.135056228287
 20
-51.3943405151367
 30
0.0
 11
-461.089479505494
 21
-50.873396085185
 31
0.0
  0
LINE
  5
   1BA
  8
0
  6
CONTINUOUS
 62
     7
 10
-477.05563295108
 20
-50.873396085185
 30
0.0
 11
-480.010056228287
 21
-51.3943405151367
 31
0.0
  0
LINE
  5
   1BB
  8
0
  6
CONTINUOUS
 62
     7
 10
-480.010056228287
 20
-51.3943405151367
 30
0.0
 11
-477.05563295108
 21
-51.9152849450884
 31
0.0
  0
ENDBLK
  5
   1BC
  8
0
  6
CONTINUOUS
 62
     7
  0
BLOCK
  5
   1BD
  8
0
  6
CONTINUOUS
 62
     7
  2
*UDIM197
 70
    65
 10
0.0
 20
0.0
 30
0.0
  3
*UDIM197
  0
TEXT
  5
   1BE
  8
0
  6
CONTINUOUS
 62
     7
 10
-312.722501752044
 20
94.1821164271829
 30
0.0
 40
3.00000002980232
  1
8
 50
406.249477420785
 41
0.933333333333334
 72
     1
 11
-313.04536662899
 21
96.0139893321571
 31
0.0
 73
     2
  0
TEXT
  5
   1BF
  8
0
  6
CONTINUOUS
 62
     7
 10
-314.900788632074
 20
91.906689801059
 30
0.0
 40
3.00000002980232
  1
Ø
 50
406.249477420785
 41
0.933333333333334
 72
     1
 11
-315.22365350902
 21
93.7385627060332
 31
0.0
 73
     2
  0
TEXT
  5
   1C0
  8
0
  6
CONTINUOUS
 62
     7
 10
-326.483742773411
 20
79.8071989377922
 30
0.0
 40
3.00000002980232
  1
3 fori
 50
406.249477420785
 41
0.933333333333333
 72
     1
 11
-321.965970092627
 21
86.6955754775167
 31
0.0
 73
     2
  0
LINE
  5
   1C1
  8
0
  6
CONTINUOUS
 62
     7
 10
-310.478800862146
 20
95.079783646553
 30
0.0
 11
-334.945761585633
 21
69.5217295624294
 31
0.0
  0
LINE
  5
   1C2
  8
0
  6
CONTINUOUS
 62
     7
 10
-331.895988771056
 20
73.4608384576363
 30
0.0
 11
-333.562722301086
 21
70.9664448760472
 31
0.0
  0
LINE
  5
   1C3
  8
0
  6
CONTINUOUS
 62
     7
 10
-333.562722301086
 20
70.9664448760472
 30
0.0
 11
-331.143372375561
 21
72.7403518459475
 31
0.0
  0
LINE
  5
   1C4
  8
0
  6
CONTINUOUS
 62
     7
 10
-336.612495115663
 20
67.0273359808403
 30
0.0
 11
-334.945761585633
 21
69.5217295624294
 31
0.0
  0
LINE
  5
   1C5
  8
0
  6
CONTINUOUS
 62
     7
 10
-334.945761585633
 20
69.5217295624294
 30
0.0
 11
-337.365111511158
 21
67.747822592529
 31
0.0
  0
ENDBLK
  5
   1C6
  8
0
  6
CONTINUOUS
 62
     7
  0
BLOCK
  5
   1C7
  8
0
  6
CONTINUOUS
 62
     7
  2
*UDIM198
 70
    65
 10
0.0
 20
0.0
 30
0.0
  3
*UDIM198
  0
TEXT
  5
   1C8
  8
0
  6
CONTINUOUS
 62
     7
 10
-378.080286409275
 20
83.8829234719212
 30
0.0
 40
3.00000002980232
  1
7
 50
315.768306337785
 41
0.933333333333334
 72
     1
 11
-376.245766708213
 21
84.190393039783
 31
0.0
 73
     2
  0
TEXT
  5
   1C9
  8
0
  6
CONTINUOUS
 62
     7
 10
-380.946385857487
 20
86.6731697319085
 30
0.0
 40
3.00000002980232
  1
Ø
 50
315.768306337785
 41
1.2
 72
     1
 11
-378.825256211575
 21
86.7016146723778
 31
0.0
 73
     2
  0
LINE
  5
   1CA
  8
0
  6
CONTINUOUS
 62
     7
 10
-381.643947417015
 20
85.9566448692422
 30
0.0
 11
-361.294658409047
 21
66.1459130565593
 31
0.0
  0
LINE
  5
   1CB
  8
0
  6
CONTINUOUS
 62
     7
 10
-368.749157447481
 20
72.3194809045984
 30
0.0
 11
-366.131201193151
 21
70.8544535838926
 31
0.0
  0
LINE
  5
   1CC
  8
0
  6
CONTINUOUS
 62
     7
 10
-366.131201193151
 20
70.8544535838926
 30
0.0
 11
-367.665904117485
 21
73.4321826103884
 31
0.0
  0
LINE
  5
   1CD
  8
0
  6
CONTINUOUS
 62
     7
 10
-362.259326439238
 20
68.1686935338782
 30
0.0
 11
-364.877282693568
 21
69.633720854584
 31
0.0
  0
LINE
  5
   1CE
  8
0
  6
CONTINUOUS
 62
     7
 10
-364.877282693568
 20
69.633720854584
 30
0.0
 11
-363.342579769234
 21
67.0559918280882
 31
0.0
  0
ENDBLK
  5
   1CF
  8
0
  6
CONTINUOUS
 62
     7
  0
BLOCK
  5
   1D0
  8
0
  6
CONTINUOUS
 62
     7
  2
*UDIM199
 70
    65
 10
0.0
 20
0.0
 30
0.0
  3
*UDIM199
  0
TEXT
  5
   1D1
  8
0
  6
CONTINUOUS
 62
     7
 10
-321.424700883269
 20
26.6315332367686
 30
0.0
 40
3.00000002980232
  1
7
 50
323.916104621002
 41
0.933333333333334
 72
     1
 11
-319.652276018863
 21
27.195900288232
 31
0.0
 73
     2
  0
TEXT
  5
   1D2
  8
0
  6
CONTINUOUS
 62
     7
 10
-324.65732276313
 20
28.9874101478703
 30
0.0
 40
3.00000002980232
  1
Ø
 50
323.916104621002
 41
1.2
 72
     1
 11
-322.561635710511
 21
29.3161895068481
 31
0.0
 73
     2
  0
LINE
  5
   1D3
  8
0
  6
CONTINUOUS
 62
     7
 10
-339.00215529497
 20
38.2042814053487
 30
0.0
 11
-320.235728066213
 21
24.527645464009
 31
0.0
  0
LINE
  5
   1D4
  8
0
  6
CONTINUOUS
 62
     7
 10
-337.760542041422
 20
36.3386389432174
 30
0.0
 11
-334.96137797445
 21
35.25943528951
 31
0.0
  0
LINE
  5
   1D5
  8
0
  6
CONTINUOUS
 62
     7
 10
-334.96137797445
 20
35.25943528951
 30
0.0
 11
-336.845923304944
 21
37.5936351304221
 31
0.0
  0
LINE
  5
   1D6
  8
0
  6
CONTINUOUS
 62
     7
 10
-330.747941845297
 20
33.1495354952591
 30
0.0
 11
-333.547105912268
 21
34.2287391489666
 31
0.0
  0
LINE
  5
   1D7
  8
0
  6
CONTINUOUS
 62
     7
 10
-333.547105912268
 20
34.2287391489666
 30
0.0
 11
-331.662560581775
 21
31.8945393080545
 31
0.0
  0
ENDBLK
  5
   1D8
  8
0
  6
CONTINUOUS
 62
     7
  0
BLOCK
  5
   1D9
  8
0
  6
CONTINUOUS
 62
     7
  2
*UDIM200
 70
    65
 10
0.0
 20
0.0
 30
0.0
  3
*UDIM200
  0
TEXT
  5
   1DA
  8
0
  6
CONTINUOUS
 62
     7
 10
-352.59496911351
 20
13.7038536405831
 30
0.0
 40
3.00000002980232
  1
R min.200
 50
359.999999844103
 41
0.933333333333333
 72
     1
 11
-340.294968987246
 21
15.2038536220789
 31
0.0
 73
     2
  0
LINE
  5
   1DB
  8
0
  6
CONTINUOUS
 62
     7
 10
-354.504241943359
 20
28.3489059016869
 30
0.0
 11
-354.504241943359
 21
10.7038536071777
 31
0.0
  0
LINE
  5
   1DC
  8
0
  6
CONTINUOUS
 62
     7
 10
-354.504241943359
 20
12.7038536071777
 30
0.0
 11
-326.128406819681
 21
12.7038536071777
 31
0.0
  0
LINE
  5
   1DD
  8
0
  6
CONTINUOUS
 62
     7
 10
-357.458665220566
 20
12.1829091772261
 30
0.0
 11
-354.504241943359
 21
12.7038536071777
 31
0.0
  0
LINE
  5
   1DE
  8
0
  6
CONTINUOUS
 62
     7
 10
-354.504241943359
 20
12.7038536071777
 30
0.0
 11
-357.458665220566
 21
13.2247980371294
 31
0.0
  0
LINE
  5
   1DF
  8
0
  6
CONTINUOUS
 62
     7
 10
-323.173983542474
 20
13.2247980371294
 30
0.0
 11
-326.128406819681
 21
12.7038536071777
 31
0.0
  0
LINE
  5
   1E0
  8
0
  6
CONTINUOUS
 62
     7
 10
-326.128406819681
 20
12.7038536071777
 30
0.0
 11
-323.173983542474
 21
12.1829091772261
 31
0.0
  0
ENDBLK
  5
   1E1
  8
0
  6
CONTINUOUS
 62
     7
  0
BLOCK
  5
   1E2
  8
0
  6
CONTINUOUS
 62
     7
  2
*UDIM201
 70
    65
 10
0.0
 20
0.0
 30
0.0
  3
*UDIM201
  0
TEXT
  5
   1E3
  8
0
  6
CONTINUOUS
 62
     7
 10
-392.044162764632
 20
55.9815871565551
 30
0.0
 40
3.00000002980232
  1
72,5
 50
449.999999844103
 41
0.933333333333333
 72
     1
 11
-393.544162765145
 21
61.2815872132778
 31
0.0
 73
     2
  0
LINE
  5
   1E4
  8
0
  6
CONTINUOUS
 62
     7
 10
-362.799241943359
 20
70.6190872192383
 30
0.0
 11
-393.044162750244
 21
70.6190872192383
 31
0.0
  0
LINE
  5
   1E5
  8
0
  6
CONTINUOUS
 62
     7
 10
-382.964966706503
 20
52.4940872192383
 30
0.0
 11
-393.044162750244
 21
52.4940872192383
 31
0.0
  0
LINE
  5
   1E6
  8
0
  6
CONTINUOUS
 62
     7
 10
-391.044162750244
 20
70.6190872192383
 30
0.0
 11
-391.044162750244
 21
52.4940872192383
 31
0.0
  0
LINE
  5
   1E7
  8
0
  6
CONTINUOUS
 62
     7
 10
-390.523218320293
 20
67.6646639420313
 30
0.0
 11
-391.044162750244
 21
70.6190872192383
 31
0.0
  0
LINE
  5
   1E8
  8
0
  6
CONTINUOUS
 62
     7
 10
-391.044162750244
 20
70.6190872192383
 30
0.0
 11
-391.565107180196
 21
67.6646639420313
 31
0.0
  0
LINE
  5
   1E9
  8
0
  6
CONTINUOUS
 62
     7
 10
-391.565107180196
 20
55.4485104964452
 30
0.0
 11
-391.044162750244
 21
52.4940872192383
 31
0.0
  0
LINE
  5
   1EA
  8
0
  6
CONTINUOUS
 62
     7
 10
-391.044162750244
 20
52.4940872192383
 30
0.0
 11
-390.523218320293
 21
55.4485104964452
 31
0.0
  0
ENDBLK
  5
   1EB
  8
0
  6
CONTINUOUS
 62
     7
  0
BLOCK
  5
   1EC
  8
0
  6
CONTINUOUS
 62
     7
  2
*UDIM202
 70
    65
 10
0.0
 20
0.0
 30
0.0
  3
*UDIM202
  0
TEXT
  5
   1ED
  8
0
  6
CONTINUOUS
 62
     7
 10
-344.65963938743
 20
81.3516445227809
 30
0.0
 40
3.00000002980232
  1
45
 50
359.999999844103
 41
0.933333333333333
 72
     1
 11
-342.159639358521
 21
82.8516445308924
 31
0.0
 73
     2
  0
LINE
  5
   1EE
  8
0
  6
CONTINUOUS
 62
     7
 10
-360.129241943359
 20
73.2890872192383
 30
0.0
 11
-360.129241943359
 21
82.3516445159912
 31
0.0
  0
LINE
  5
   1EF
  8
0
  6
CONTINUOUS
 62
     7
 10
-348.879241943359
 20
73.2890872192383
 30
0.0
 11
-348.879241943359
 21
82.3516445159912
 31
0.0
  0
LINE
  5
   1F0
  8
0
  6
CONTINUOUS
 62
     7
 10
-360.129241943359
 20
80.3516445159912
 30
0.0
 11
-339.659639333685
 21
80.3516445159912
 31
0.0
  0
LINE
  5
   1F1
  8
0
  6
CONTINUOUS
 62
     7
 10
-363.083665220566
 20
79.8307000860395
 30
0.0
 11
-360.129241943359
 21
80.3516445159912
 31
0.0
  0
LINE
  5
   1F2
  8
0
  6
CONTINUOUS
 62
     7
 10
-360.129241943359
 20
80.3516445159912
 30
0.0
 11
-363.083665220566
 21
80.8725889459429
 31
0.0
  0
LINE
  5
   1F3
  8
0
  6
CONTINUOUS
 62
     7
 10
-345.924818666152
 20
80.8725889459429
 30
0.0
 11
-348.879241943359
 21
80.3516445159912
 31
0.0
  0
LINE
  5
   1F4
  8
0
  6
CONTINUOUS
 62
     7
 10
-348.879241943359
 20
80.3516445159912
 30
0.0
 11
-345.924818666152
 21
79.8307000860395
 31
0.0
  0
ENDBLK
  5
   1F5
  8
0
  6
CONTINUOUS
 62
     7
  0
BLOCK
  5
   1F6
  8
0
  6
CONTINUOUS
 62
     7
  2
*UDIM203
 70
    65
 10
0.0
 20
0.0
 30
0.0
  3
*UDIM203
  0
TEXT
  5
   1F7
  8
0
  6
CONTINUOUS
 62
     7
 10
-316.252906817504
 20
55.3940875300775
 30
0.0
 40
3.00000002980232
  1
27,25
 50
449.999999844103
 41
0.933333333333333
 72
     1
 11
-317.752906814218
 21
62.094087600708
 31
0.0
 73
     2
  0
LINE
  5
   1F8
  8
0
  6
CONTINUOUS
 62
     7
 10
-325.511513643223
 20
52.4940872192383
 30
0.0
 11
-313.252906799316
 21
52.4940872192383
 31
0.0
  0
LINE
  5
   1F9
  8
0
  6
CONTINUOUS
 62
     7
 10
-328.248935543918
 20
45.6815872192383
 30
0.0
 11
-313.252906799316
 21
45.6815872192383
 31
0.0
  0
LINE
  5
   1FA
  8
0
  6
CONTINUOUS
 62
     7
 10
-315.252906799316
 20
68.7940876672665
 30
0.0
 11
-315.252906799316
 21
45.6815872192383
 31
0.0
  0
LINE
  5
   1FB
  8
0
  6
CONTINUOUS
 62
     7
 10
-315.773851229268
 20
55.4485104964452
 30
0.0
 11
-315.252906799316
 21
52.4940872192383
 31
0.0
  0
LINE
  5
   1FC
  8
0
  6
CONTINUOUS
 62
     7
 10
-315.252906799316
 20
52.4940872192383
 30
0.0
 11
-314.731962369365
 21
55.4485104964452
 31
0.0
  0
LINE
  5
   1FD
  8
0
  6
CONTINUOUS
 62
     7
 10
-314.731962369365
 20
42.7271639420313
 30
0.0
 11
-315.252906799316
 21
45.6815872192383
 31
0.0
  0
LINE
  5
   1FE
  8
0
  6
CONTINUOUS
 62
     7
 10
-315.252906799316
 20
45.6815872192383
 30
0.0
 11
-315.773851229268
 21
42.7271639420313
 31
0.0
  0
ENDBLK
  5
   1FF
  8
0
  6
CONTINUOUS
 62
     7
  0
BLOCK
  5
   200
  8
0
  6
CONTINUOUS
 62
     7
  2
*UDIM204
 70
    65
 10
0.0
 20
0.0
 30
0.0
  3
*UDIM204
  0
TEXT
  5
   201
  8
0
  6
CONTINUOUS
 62
     7
 10
-310.795108798152
 20
60.9273529141158
 30
0.0
 40
3.00000002980232
  1
=
 50
449.999999844103
 41
0.933333333333334
 72
     1
 11
-312.295108810067
 21
62.0273529291153
 31
0.0
 73
     2
  0
LINE
  5
   202
  8
0
  6
CONTINUOUS
 62
     7
 10
-331.629241943359
 20
70.2440872192383
 30
0.0
 11
-307.795108795166
 21
70.2440872192383
 31
0.0
  0
LINE
  5
   203
  8
0
  6
CONTINUOUS
 62
     7
 10
-331.629241943359
 20
52.4940872192383
 30
0.0
 11
-307.795108795166
 21
52.4940872192383
 31
0.0
  0
LINE
  5
   204
  8
0
  6
CONTINUOUS
 62
     7
 10
-309.795108795166
 20
70.2440872192383
 30
0.0
 11
-309.795108795166
 21
52.4940872192383
 31
0.0
  0
LINE
  5
   205
  8
0
  6
CONTINUOUS
 62
     7
 10
-309.274164365214
 20
67.2896639420313
 30
0.0
 11
-309.795108795166
 21
70.2440872192383
 31
0.0
  0
LINE
  5
   206
  8
0
  6
CONTINUOUS
 62
     7
 10
-309.795108795166
 20
70.2440872192383
 30
0.0
 11
-310.316053225118
 21
67.2896639420313
 31
0.0
  0
LINE
  5
   207
  8
0
  6
CONTINUOUS
 62
     7
 10
-310.316053225118
 20
55.4485104964452
 30
0.0
 11
-309.795108795166
 21
52.4940872192383
 31
0.0
  0
LINE
  5
   208
  8
0
  6
CONTINUOUS
 62
     7
 10
-309.795108795166
 20
52.4940872192383
 30
0.0
 11
-309.274164365214
 21
55.4485104964452
 31
0.0
  0
ENDBLK
  5
   209
  8
0
  6
CONTINUOUS
 62
     7
  0
BLOCK
  5
   20A
  8
0
  6
CONTINUOUS
 62
     7
  2
*UDIM205
 70
    65
 10
0.0
 20
0.0
 30
0.0
  3
*UDIM205
  0
TEXT
  5
   20B
  8
0
  6
CONTINUOUS
 62
     7
 10
-310.795108798152
 20
43.1773529141158
 30
0.0
 40
3.00000002980232
  1
=
 50
449.999999844103
 41
0.933333333333334
 72
     1
 11
-312.295108810067
 21
44.2773529291153
 31
0.0
 73
     2
  0
LINE
  5
   20C
  8
0
  6
CONTINUOUS
 62
     7
 10
-331.629241943359
 20
34.7440872192383
 30
0.0
 11
-307.795108795166
 21
34.7440872192383
 31
0.0
  0
LINE
  5
   20D
  8
0
  6
CONTINUOUS
 62
     7
 10
-309.795108795166
 20
52.4940872192383
 30
0.0
 11
-309.795108795166
 21
34.7440872192383
 31
0.0
  0
LINE
  5
   20E
  8
0
  6
CONTINUOUS
 62
     7
 10
-309.274164365214
 20
49.5396639420313
 30
0.0
 11
-309.795108795166
 21
52.4940872192383
 31
0.0
  0
LINE
  5
   20F
  8
0
  6
CONTINUOUS
 62
     7
 10
-309.795108795166
 20
52.4940872192383
 30
0.0
 11
-310.316053225118
 21
49.5396639420313
 31
0.0
  0
LINE
  5
   210
  8
0
  6
CONTINUOUS
 62
     7
 10
-310.316053225118
 20
37.6985104964452
 30
0.0
 11
-309.795108795166
 21
34.7440872192383
 31
0.0
  0
LINE
  5
   211
  8
0
  6
CONTINUOUS
 62
     7
 10
-309.795108795166
 20
34.7440872192383
 30
0.0
 11
-309.274164365214
 21
37.6985104964452
 31
0.0
  0
ENDBLK
  5
   212
  8
0
  6
CONTINUOUS
 62
     7
  0
BLOCK
  5
   213
  8
0
  6
CONTINUOUS
 62
     7
  2
*UDIM206
 70
    65
 10
0.0
 20
0.0
 30
0.0
  3
*UDIM206
  0
TEXT
  5
   214
  8
0
  6
CONTINUOUS
 62
     7
 10
-384.647581111051
 20
48.3190871704629
 30
0.0
 40
3.00000002980232
  1
126
 50
449.999999844103
 41
0.933333333333333
 72
     1
 11
-386.147581115365
 21
52.2190872132778
 31
0.0
 73
     2
  0
LINE
  5
   215
  8
0
  6
CONTINUOUS
 62
     7
 10
-373.504241943359
 20
68.2440872192383
 30
0.0
 11
-385.647581100464
 21
68.2440872192383
 31
0.0
  0
LINE
  5
   216
  8
0
  6
CONTINUOUS
 62
     7
 10
-373.504241943359
 20
36.7440872192383
 30
0.0
 11
-385.647581100464
 21
36.7440872192383
 31
0.0
  0
LINE
  5
   217
  8
0
  6
CONTINUOUS
 62
     7
 10
-383.647581100464
 20
68.2440872192383
 30
0.0
 11
-383.647581100464
 21
36.7440872192383
 31
0.0
  0
LINE
  5
   218
  8
0
  6
CONTINUOUS
 62
     7
 10
-383.126636670512
 20
65.2896639420313
 30
0.0
 11
-383.647581100464
 21
68.2440872192383
 31
0.0
  0
LINE
  5
   219
  8
0
  6
CONTINUOUS
 62
     7
 10
-383.647581100464
 20
68.2440872192383
 30
0.0
 11
-384.168525530416
 21
65.2896639420313
 31
0.0
  0
LINE
  5
   21A
  8
0
  6
CONTINUOUS
 62
     7
 10
-384.168525530416
 20
39.6985104964452
 30
0.0
 11
-383.647581100464
 21
36.7440872192383
 31
0.0
  0
LINE
  5
   21B
  8
0
  6
CONTINUOUS
 62
     7
 10
-383.647581100464
 20
36.7440872192383
 30
0.0
 11
-383.126636670512
 21
39.6985104964452
 31
0.0
  0
ENDBLK
  5
   21C
  8
0
  6
CONTINUOUS
 62
     7
  0
BLOCK
  5
   21D
  8
0
  6
CONTINUOUS
 62
     7
  2
*UDIM207
 70
    65
 10
0.0
 20
0.0
 30
0.0
  3
*UDIM207
  0
TEXT
  5
   21E
  8
0
  6
CONTINUOUS
 62
     7
 10
-304.098094950773
 20
48.3190871704629
 30
0.0
 40
3.00000002980232
  1
142
 50
449.999999844103
 41
0.933333333333333
 72
     1
 11
-305.598094955087
 21
52.2190872132778
 31
0.0
 73
     2
  0
LINE
  5
   21F
  8
0
  6
CONTINUOUS
 62
     7
 10
-362.879241943359
 20
70.2440872192383
 30
0.0
 11
-301.098094940186
 21
70.2440872192383
 31
0.0
  0
LINE
  5
   220
  8
0
  6
CONTINUOUS
 62
     7
 10
-331.629241943359
 20
34.7440872192383
 30
0.0
 11
-301.098094940186
 21
34.7440872192383
 31
0.0
  0
LINE
  5
   221
  8
0
  6
CONTINUOUS
 62
     7
 10
-303.098094940186
 20
70.2440872192383
 30
0.0
 11
-303.098094940186
 21
34.7440872192383
 31
0.0
  0
LINE
  5
   222
  8
0
  6
CONTINUOUS
 62
     7
 10
-302.577150510234
 20
67.2896639420313
 30
0.0
 11
-303.098094940186
 21
70.2440872192383
 31
0.0
  0
LINE
  5
   223
  8
0
  6
CONTINUOUS
 62
     7
 10
-303.098094940186
 20
70.2440872192383
 30
0.0
 11
-303.619039370137
 21
67.2896639420313
 31
0.0
  0
LINE
  5
   224
  8
0
  6
CONTINUOUS
 62
     7
 10
-303.619039370137
 20
37.6985104964452
 30
0.0
 11
-303.098094940186
 21
34.7440872192383
 31
0.0
  0
LINE
  5
   225
  8
0
  6
CONTINUOUS
 62
     7
 10
-303.098094940186
 20
34.7440872192383
 30
0.0
 11
-302.577150510234
 21
37.6985104964452
 31
0.0
  0
ENDBLK
  5
   226
  8
0
  6
CONTINUOUS
 62
     7
  0
BLOCK
  5
   227
  8
0
  6
CONTINUOUS
 62
     7
  2
*UDIM208
 70
    65
 10
0.0
 20
0.0
 30
0.0
  3
*UDIM208
  0
TEXT
  5
   228
  8
0
  6
CONTINUOUS
 62
     7
 10
-347.486772544018
 20
42.9918494829546
 30
0.0
 40
3.00000002980232
  1
16
 50
449.999999844103
 41
0.933333333333333
 72
     1
 11
-348.986772552133
 21
45.4918495118618
 31
0.0
 73
     2
  0
LINE
  5
   229
  8
0
  6
CONTINUOUS
 62
     7
 10
-339.754241943359
 20
47.6815872192383
 30
0.0
 11
-348.486772537231
 21
47.6815872192383
 31
0.0
  0
LINE
  5
   22A
  8
0
  6
CONTINUOUS
 62
     7
 10
-339.754241943359
 20
43.6815872192383
 30
0.0
 11
-348.486772537231
 21
43.6815872192383
 31
0.0
  0
LINE
  5
   22B
  8
0
  6
CONTINUOUS
 62
     7
 10
-346.486772537231
 20
47.9918495366971
 30
0.0
 11
-346.486772537231
 21
42.9918494870265
 31
0.0
  0
LINE
  5
   22C
  8
0
  6
CONTINUOUS
 62
     7
 10
-347.007716967183
 20
50.6360104964453
 30
0.0
 11
-346.486772537231
 21
47.6815872192383
 31
0.0
  0
LINE
  5
   22D
  8
0
  6
CONTINUOUS
 62
     7
 10
-346.486772537231
 20
47.6815872192383
 30
0.0
 11
-345.96582810728
 21
50.6360104964453
 31
0.0
  0
LINE
  5
   22E
  8
0
  6
CONTINUOUS
 62
     7
 10
-345.96582810728
 20
40.7271639420313
 30
0.0
 11
-346.486772537231
 21
43.6815872192383
 31
0.0
  0
LINE
  5
   22F
  8
0
  6
CONTINUOUS
 62
     7
 10
-346.486772537231
 20
43.6815872192383
 30
0.0
 11
-347.007716967183
 21
40.7271639420313
 31
0.0
  0
ENDBLK
  5
   230
  8
0
  6
CONTINUOUS
 62
     7
  0
BLOCK
  5
   231
  8
0
  6
CONTINUOUS
 62
     7
  2
*UDIM209
 70
    65
 10
0.0
 20
0.0
 30
0.0
  3
*UDIM209
  0
TEXT
  5
   232
  8
0
  6
CONTINUOUS
 62
     7
 10
-345.529241978229
 20
57.0426685877986
 30
0.0
 40
3.00000002980232
  1
94
 50
359.999999844103
 41
0.933333333333333
 72
     1
 11
-343.02924194932
 21
58.5426685959101
 31
0.0
 73
     2
  0
LINE
  5
   233
  8
0
  6
CONTINUOUS
 62
     7
 10
-331.004241943359
 20
46.5565872192383
 30
0.0
 11
-331.004241943359
 21
58.0426685810089
 31
0.0
  0
LINE
  5
   234
  8
0
  6
CONTINUOUS
 62
     7
 10
-354.504241943359
 20
56.0426685810089
 30
0.0
 11
-331.004241943359
 21
56.0426685810089
 31
0.0
  0
LINE
  5
   235
  8
0
  6
CONTINUOUS
 62
     7
 10
-351.549818666152
 20
56.5636130109606
 30
0.0
 11
-354.504241943359
 21
56.0426685810089
 31
0.0
  0
LINE
  5
   236
  8
0
  6
CONTINUOUS
 62
     7
 10
-354.504241943359
 20
56.0426685810089
 30
0.0
 11
-351.549818666152
 21
55.5217241510573
 31
0.0
  0
LINE
  5
   237
  8
0
  6
CONTINUOUS
 62
     7
 10
-333.958665220566
 20
55.5217241510573
 30
0.0
 11
-331.004241943359
 21
56.0426685810089
 31
0.0
  0
LINE
  5
   238
  8
0
  6
CONTINUOUS
 62
     7
 10
-331.004241943359
 20
56.0426685810089
 30
0.0
 11
-333.958665220566
 21
56.5636130109606
 31
0.0
  0
ENDBLK
  5
   239
  8
0
  6
CONTINUOUS
 62
     7
  0
BLOCK
  5
   23A
  8
0
  6
CONTINUOUS
 62
     7
  2
*UDIM210
 70
    65
 10
0.0
 20
0.0
 30
0.0
  3
*UDIM210
  0
TEXT
  5
   23B
  8
0
  6
CONTINUOUS
 62
     7
 10
-354.054242021939
 20
21.4359054671349
 30
0.0
 40
3.00000002980232
  1
125
 50
359.999999844103
 41
0.933333333333333
 72
     1
 11
-350.154241979122
 21
22.9359054714441
 31
0.0
 73
     2
  0
LINE
  5
   23C
  8
0
  6
CONTINUOUS
 62
     7
 10
-365.504241943359
 20
32.1190872192383
 30
0.0
 11
-365.504241943359
 21
18.435905456543
 31
0.0
  0
LINE
  5
   23D
  8
0
  6
CONTINUOUS
 62
     7
 10
-334.254241943359
 20
32.1190872192383
 30
0.0
 11
-334.254241943359
 21
18.435905456543
 31
0.0
  0
LINE
  5
   23E
  8
0
  6
CONTINUOUS
 62
     7
 10
-365.504241943359
 20
20.435905456543
 30
0.0
 11
-334.254241943359
 21
20.435905456543
 31
0.0
  0
LINE
  5
   23F
  8
0
  6
CONTINUOUS
 62
     7
 10
-362.549818666152
 20
20.9568498864946
 30
0.0
 11
-365.504241943359
 21
20.435905456543
 31
0.0
  0
LINE
  5
   240
  8
0
  6
CONTINUOUS
 62
     7
 10
-365.504241943359
 20
20.435905456543
 30
0.0
 11
-362.549818666152
 21
19.9149610265913
 31
0.0
  0
LINE
  5
   241
  8
0
  6
CONTINUOUS
 62
     7
 10
-337.208665220566
 20
19.9149610265913
 30
0.0
 11
-334.254241943359
 21
20.435905456543
 31
0.0
  0
LINE
  5
   242
  8
0
  6
CONTINUOUS
 62
     7
 10
-334.254241943359
 20
20.435905456543
 30
0.0
 11
-337.208665220566
 21
20.9568498864946
 31
0.0
  0
ENDBLK
  5
   243
  8
0
  6
CONTINUOUS
 62
     7
  0
BLOCK
  5
   244
  8
0
  6
CONTINUOUS
 62
     7
  2
*UDIM211
 70
    65
 10
0.0
 20
0.0
 30
0.0
  3
*UDIM211
  0
TEXT
  5
   245
  8
0
  6
CONTINUOUS
 62
     7
 10
-347.154241978229
 20
28.53915978157
 30
0.0
 40
3.00000002980232
  1
81
 50
359.999999844103
 41
0.933333333333333
 72
     1
 11
-344.65424194932
 21
30.0391597896814
 31
0.0
 73
     2
  0
LINE
  5
   246
  8
0
  6
CONTINUOUS
 62
     7
 10
-354.504241943359
 20
28.3489059016869
 30
0.0
 11
-354.504241943359
 21
25.5391597747803
 31
0.0
  0
LINE
  5
   247
  8
0
  6
CONTINUOUS
 62
     7
 10
-334.254241943359
 20
32.1190872192383
 30
0.0
 11
-334.254241943359
 21
25.5391597747803
 31
0.0
  0
LINE
  5
   248
  8
0
  6
CONTINUOUS
 62
     7
 10
-354.504241943359
 20
27.5391597747803
 30
0.0
 11
-334.254241943359
 21
27.5391597747803
 31
0.0
  0
LINE
  5
   249
  8
0
  6
CONTINUOUS
 62
     7
 10
-351.549818666152
 20
28.0601042047319
 30
0.0
 11
-354.504241943359
 21
27.5391597747803
 31
0.0
  0
LINE
  5
   24A
  8
0
  6
CONTINUOUS
 62
     7
 10
-354.504241943359
 20
27.5391597747803
 30
0.0
 11
-351.549818666152
 21
27.0182153448286
 31
0.0
  0
LINE
  5
   24B
  8
0
  6
CONTINUOUS
 62
     7
 10
-337.208665220566
 20
27.0182153448286
 30
0.0
 11
-334.254241943359
 21
27.5391597747803
 31
0.0
  0
LINE
  5
   24C
  8
0
  6
CONTINUOUS
 62
     7
 10
-334.254241943359
 20
27.5391597747803
 30
0.0
 11
-337.208665220566
 21
28.0601042047319
 31
0.0
  0
ENDBLK
  5
   24D
  8
0
  6
CONTINUOUS
 62
     7
  0
BLOCK
  5
   24E
  8
0
  6
CONTINUOUS
 62
     7
  2
*UDIM212
 70
    65
 10
0.0
 20
0.0
 30
0.0
  3
*UDIM212
  0
TEXT
  5
   24F
  8
0
  6
CONTINUOUS
 62
     7
 10
-359.804241992137
 20
97.0273513899865
 30
0.0
 40
3.00000002980232
  1
135
 50
359.999999844103
 41
0.933333333333333
 72
     1
 11
-355.90424194932
 21
98.5273513942957
 31
0.0
 73
     2
  0
LINE
  5
   250
  8
0
  6
CONTINUOUS
 62
     7
 10
-372.504241943359
 20
69.2440872192383
 30
0.0
 11
-372.504241943359
 21
98.0273513793945
 31
0.0
  0
LINE
  5
   251
  8
0
  6
CONTINUOUS
 62
     7
 10
-338.754241943359
 20
69.2440872192383
 30
0.0
 11
-338.754241943359
 21
98.0273513793945
 31
0.0
  0
LINE
  5
   252
  8
0
  6
CONTINUOUS
 62
     7
 10
-372.504241943359
 20
96.0273513793945
 30
0.0
 11
-338.754241943359
 21
96.0273513793945
 31
0.0
  0
LINE
  5
   253
  8
0
  6
CONTINUOUS
 62
     7
 10
-369.549818666152
 20
96.5482958093462
 30
0.0
 11
-372.504241943359
 21
96.0273513793945
 31
0.0
  0
LINE
  5
   254
  8
0
  6
CONTINUOUS
 62
     7
 10
-372.504241943359
 20
96.0273513793945
 30
0.0
 11
-369.549818666152
 21
95.5064069494429
 31
0.0
  0
LINE
  5
   255
  8
0
  6
CONTINUOUS
 62
     7
 10
-341.708665220566
 20
95.5064069494429
 30
0.0
 11
-338.754241943359
 21
96.0273513793945
 31
0.0
  0
LINE
  5
   256
  8
0
  6
CONTINUOUS
 62
     7
 10
-338.754241943359
 20
96.0273513793945
 30
0.0
 11
-341.708665220566
 21
96.5482958093462
 31
0.0
  0
ENDBLK
  5
   257
  8
0
  6
CONTINUOUS
 62
     7
  0
BLOCK
  5
   258
  8
0
  6
CONTINUOUS
 62
     7
  2
*UDIM213
 70
    65
 10
0.0
 20
0.0
 30
0.0
  3
*UDIM213
  0
TEXT
  5
   259
  8
0
  6
CONTINUOUS
 62
     7
 10
-349.404242455066
 20
88.7902526923366
 30
0.0
 40
3.00000002980232
  1
63
 50
359.999999844103
 41
0.933333333333333
 72
     1
 11
-346.904242426157
 21
90.290252700448
 31
0.0
 73
     2
  0
LINE
  5
   25A
  8
0
  6
CONTINUOUS
 62
     7
 10
-354.504241943359
 20
79.1215783800934
 30
0.0
 11
-354.504241943359
 21
89.7902526855469
 31
0.0
  0
LINE
  5
   25B
  8
0
  6
CONTINUOUS
 62
     7
 10
-338.754241943359
 20
69.2440872192383
 30
0.0
 11
-338.754241943359
 21
89.7902526855469
 31
0.0
  0
LINE
  5
   25C
  8
0
  6
CONTINUOUS
 62
     7
 10
-354.504241943359
 20
87.7902526855469
 30
0.0
 11
-338.754241943359
 21
87.7902526855469
 31
0.0
  0
LINE
  5
   25D
  8
0
  6
CONTINUOUS
 62
     7
 10
-351.549818666152
 20
88.3111971154985
 30
0.0
 11
-354.504241943359
 21
87.7902526855469
 31
0.0
  0
LINE
  5
   25E
  8
0
  6
CONTINUOUS
 62
     7
 10
-354.504241943359
 20
87.7902526855469
 30
0.0
 11
-351.549818666152
 21
87.2693082555952
 31
0.0
  0
LINE
  5
   25F
  8
0
  6
CONTINUOUS
 62
     7
 10
-341.708665220566
 20
87.2693082555952
 30
0.0
 11
-338.754241943359
 21
87.7902526855469
 31
0.0
  0
LINE
  5
   260
  8
0
  6
CONTINUOUS
 62
     7
 10
-338.754241943359
 20
87.7902526855469
 30
0.0
 11
-341.708665220566
 21
88.3111971154985
 31
0.0
  0
ENDBLK
  5
   261
  8
0
  6
CONTINUOUS
 62
     7
  0
BLOCK
  5
   262
  8
0
  6
CONTINUOUS
 62
     7
  2
*HATCH30
 70
    65
 10
0.0
 20
0.0
 30
0.0
  3
*HATCH30
  0
LINE
  5
   263
  8
0
  6
CONTINUOUS
 62
    52
 10
-11.7279224395752
 20
1.0
 30
0.0
 11
-11.9763488769531
 21
0.75157368183136
 31
0.0
  0
LINE
  5
   264
  8
0
  6
CONTINUOUS
 62
    52
 10
-9.60660171508789
 20
1.0
 30
0.0
 11
-11.6066026687622
 21
-1.0
 31
0.0
  0
LINE
  5
   265
  8
0
  6
CONTINUOUS
 62
    52
 10
-7.48528146743774
 20
1.0
 30
0.0
 11
-9.48528289794922
 21
-1.0
 31
0.0
  0
LINE
  5
   266
  8
0
  6
CONTINUOUS
 62
    52
 10
-5.3639612197876
 20
1.0
 30
0.0
 11
-7.36396265029907
 21
-1.0
 31
0.0
  0
LINE
  5
   267
  8
0
  6
CONTINUOUS
 62
    52
 10
-3.47947335243225
 20
0.763167560100555
 30
0.0
 11
-5.24264097213745
 21
-1.0
 31
0.0
  0
LINE
  5
   268
  8
0
  6
CONTINUOUS
 62
    52
 10
-2.51160907745361
 20
-0.390288293361664
 30
0.0
 11
-3.1213207244873
 21
-1.0
 31
0.0
  0
ENDBLK
  5
   269
  8
0
  6
CONTINUOUS
 62
     7
  0
BLOCK
  5
   26A
  8
0
  6
CONTINUOUS
 62
     7
  2
*HATCH31
 70
    65
 10
0.0
 20
0.0
 30
0.0
  3
*HATCH31
  0
LINE
  5
   26B
  8
0
  6
CONTINUOUS
 62
    52
 10
5.24264097213745
 20
1.0
 30
0.0
 11
3.24264073371887
 21
-1.0
 31
0.0
  0
LINE
  5
   26C
  8
0
  6
CONTINUOUS
 62
    52
 10
7.3639612197876
 20
1.0
 30
0.0
 11
5.3639612197876
 21
-1.0
 31
0.0
  0
LINE
  5
   26D
  8
0
  6
CONTINUOUS
 62
    52
 10
9.48528099060059
 20
1.0
 30
0.0
 11
7.4852819442749
 21
-1.0
 31
0.0
  0
ENDBLK
  5
   26E
  8
0
  6
CONTINUOUS
 62
     7
  0
BLOCK
  5
   26F
  8
0
  6
CONTINUOUS
 62
     7
  2
*UDIM214
 70
    65
 10
0.0
 20
0.0
 30
0.0
  3
*UDIM214
  0
TEXT
  5
   270
  8
0
  6
CONTINUOUS
 62
     7
 10
-540.682872491416
 20
-118.255151250977
 30
0.0
 40
3.00000002980232
  1
80
 50
449.137444284835
 41
0.933333333333333
 72
     1
 11
-542.145067860679
 21
-115.732853712822
 31
0.0
 73
     2
  0
TEXT
  5
   271
  8
0
  6
CONTINUOUS
 62
     7
 10
-541.207535174058
 20
-113.246685461063
 30
0.0
 40
3.00000002980232
  1
°
 50
449.137444284835
 41
0.933333333333334
 72
     1
 11
-542.690805959522
 21
-112.124229294554
 31
0.0
 73
     2
  0
LINE
  5
   272
  8
0
  6
CONTINUOUS
 62
     7
 10
-555.242561513912
 20
-118.67899621042
 30
0.0
 11
-542.952594820502
 21
-128.991502730042
 31
0.0
  0
LINE
  5
   273
  8
0
  6
CONTINUOUS
 62
     7
 10
-555.242561513912
 20
-110.037022466338
 30
0.0
 11
-542.952594820502
 21
-99.7245159467158
 31
0.0
  0
ARC
  5
   274
  8
0
  6
CONTINUOUS
 62
     7
 10
-560.39211314222
 20
-114.358009338379
 30
0.0
 40
20.7656743396147
 50
319.999999815233
 51
399.999999769042
  0
LINE
  5
   275
  8
0
  6
CONTINUOUS
 62
     7
 10
-542.98468361612
 20
-125.107851351635
 30
0.0
 11
-544.48468370674
 21
-127.705927510669
 31
0.0
  0
LINE
  5
   276
  8
0
  6
CONTINUOUS
 62
     7
 10
-544.48468370674
 20
-127.705927510669
 30
0.0
 11
-542.186550444643
 21
-125.777564601451
 31
0.0
  0
LINE
  5
   277
  8
0
  6
CONTINUOUS
 62
     7
 10
-542.186550444643
 20
-102.938454075307
 30
0.0
 11
-544.48468370674
 21
-101.010091166089
 31
0.0
  0
LINE
  5
   278
  8
0
  6
CONTINUOUS
 62
     7
 10
-544.48468370674
 20
-101.010091166089
 30
0.0
 11
-542.98468361612
 21
-103.608167325123
 31
0.0
  0
ENDBLK
  5
   279
  8
0
  6
CONTINUOUS
 62
     7
  0
BLOCK
  5
   27A
  8
0
  6
CONTINUOUS
 62
     7
  2
*UDIM215
 70
    65
 10
0.0
 20
0.0
 30
0.0
  3
*UDIM215
  0
TEXT
  5
   27B
  8
0
  6
CONTINUOUS
 62
     7
 10
-578.454273230664
 20
-108.472942381202
 30
0.0
 40
3.00000002980232
  1
Ø4
 50
449.999999844103
 41
0.933333333333333
 72
     1
 11
-579.954273238778
 21
-105.972942352295
 31
0.0
 73
     2
  0
LINE
  5
   27C
  8
0
  6
CONTINUOUS
 62
     7
 10
-559.008605957031
 20
-112.358009338379
 30
0.0
 11
-579.454273223877
 21
-112.358009338379
 31
0.0
  0
LINE
  5
   27D
  8
0
  6
CONTINUOUS
 62
     7
 10
-559.008605957031
 20
-116.358009338379
 30
0.0
 11
-579.454273223877
 21
-116.358009338379
 31
0.0
  0
LINE
  5
   27E
  8
0
  6
CONTINUOUS
 62
     7
 10
-577.454273223877
 20
-103.47294232746
 30
0.0
 11
-577.454273223877
 21
-116.358009338379
 31
0.0
  0
LINE
  5
   27F
  8
0
  6
CONTINUOUS
 62
     7
 10
-577.975217653829
 20
-109.403586061172
 30
0.0
 11
-577.454273223877
 21
-112.358009338379
 31
0.0
  0
LINE
  5
   280
  8
0
  6
CONTINUOUS
 62
     7
 10
-577.454273223877
 20
-112.358009338379
 30
0.0
 11
-576.933328793925
 21
-109.403586061172
 31
0.0
  0
LINE
  5
   281
  8
0
  6
CONTINUOUS
 62
     7
 10
-576.933328793925
 20
-119.312432615586
 30
0.0
 11
-577.454273223877
 21
-116.358009338379
 31
0.0
  0
LINE
  5
   282
  8
0
  6
CONTINUOUS
 62
     7
 10
-577.454273223877
 20
-116.358009338379
 30
0.0
 11
-577.975217653829
 21
-119.312432615586
 31
0.0
  0
ENDBLK
  5
   283
  8
0
  6
CONTINUOUS
 62
     7
  0
ENDSEC
  0
SECTION
  2
ENTITIES
  0
LINE
  5
   284
  8
0
  6
CONTINUOUS
 62
     7
 10
-493.135032655913
 20
82.0960903167724
 30
0.0
 11
-493.135032655913
 21
92.6960826873779
 31
0.0
  0
LINE
  5
   285
  8
0
  6
CONTINUOUS
 62
     7
 10
-423.135056032661
 20
-31.5038910675227
 30
0.0
 11
-423.135056032661
 21
-8.77890527532647
 31
0.0
  0
LINE
  5
   286
  8
0
  6
CONTINUOUS
 62
     7
 10
-493.135056032661
 20
-31.5038926172435
 30
0.0
 11
-493.135056032661
 21
-8.77890527532647
 31
0.0
  0
LINE
  5
   287
  8
0
  6
CONTINUOUS
 62
     1
 10
-423.135056228287
 20
71.7179437847321
 30
0.0
 11
-423.135056228287
 21
82.0960903167724
 31
0.0
  0
LINE
  5
   288
  8
0
  6
CONTINUOUS
 62
     1
 10
-493.135056228287
 20
71.7179437847321
 30
0.0
 11
-493.135056228287
 21
82.0960903167725
 31
0.0
  0
LINE
  5
   289
  8
0
  6
CONTINUOUS
 62
     1
 10
-431.710060805924
 20
5.47108268737793
 30
0.0
 11
-431.710060805924
 21
57.9710826873779
 31
0.0
  0
LINE
  5
   28A
  8
0
  6
CONTINUOUS
 62
     1
 10
-431.710060805924
 20
71.7179437847321
 30
0.0
 11
-431.710060805924
 21
82.0960826873779
 31
0.0
  0
LINE
  5
   28B
  8
0
  6
CONTINUOUS
 62
     1
 10
-431.710060805924
 20
-34.1538869665048
 30
0.0
 11
-431.710060805924
 21
-8.77890527532647
 31
0.0
  0
LINE
  5
   28C
  8
0
  6
CONTINUOUS
 62
     1
 10
-483.635056228287
 20
71.7179437847321
 30
0.0
 11
-483.635056228287
 21
79.5960903167725
 31
0.0
  0
LINE
  5
   28D
  8
0
  6
CONTINUOUS
 62
     1
 10
-432.635056228287
 20
71.7179437847321
 30
0.0
 11
-432.635056228287
 21
79.5960903167725
 31
0.0
  0
LINE
  5
   28E
  8
0
  6
CONTINUOUS
 62
     1
 10
-432.635056228287
 20
79.5960903167725
 30
0.0
 11
-483.635056228287
 21
79.5960903167725
 31
0.0
  0
LINE
  5
   28F
  8
0
  6
DASHDOT
 62
     3
 10
-458.135056228287
 20
-43.8821748690323
 30
0.0
 11
-458.135056228287
 21
47.0722924606174
 31
0.0
  0
LINE
  5
   290
  8
0
  6
DASHDOT
 62
     3
 10
-458.135056228287
 20
46.6859261043578
 30
0.0
 11
-458.135056228287
 21
100.699788089673
 31
0.0
  0
LINE
  5
   291
  8
0
  6
CONTINUOUS
 62
     7
 10
-452.760056228287
 20
20.6850981437658
 30
0.0
 11
-463.510056228287
 21
20.6850981437658
 31
0.0
  0
LINE
  5
   292
  8
0
  6
CONTINUOUS
 62
     7
 10
-452.760056228287
 20
23.1581587317376
 30
0.0
 11
-463.510056228287
 21
23.1581587317376
 31
0.0
  0
LINE
  5
   293
  8
0
  6
CONTINUOUS
 62
     7
 10
-452.760056228287
 20
16.7246223174449
 30
0.0
 11
-463.510056228287
 21
16.7246223174449
 31
0.0
  0
LINE
  5
   294
  8
0
  6
CONTINUOUS
 62
     3
 10
-493.135059792173
 20
81.3460655677463
 30
0.0
 11
-493.135059792173
 21
94.7210675681688
 31
0.0
  0
LINE
  5
   295
  8
0
  6
CONTINUOUS
 62
     3
 10
-423.635059792174
 20
80.8460655975457
 30
0.0
 11
-492.635059792174
 21
80.8460655975457
 31
0.0
  0
LINE
  5
   296
  8
0
  6
CONTINUOUS
 62
     3
 10
-423.135059792188
 20
81.346065625534
 30
0.0
 11
-423.135059792188
 21
94.7210663014875
 31
0.0
  0
LINE
  5
   297
  8
0
  6
CONTINUOUS
 62
     3
 10
-489.310059982909
 20
-34.1538869665048
 30
0.0
 11
-489.310059982909
 21
-8.77890527532647
 31
0.0
  0
LINE
  5
   298
  8
0
  6
CONTINUOUS
 62
     3
 10
-487.510060269011
 20
-34.1538869665048
 30
0.0
 11
-487.510060269011
 21
-8.77890527532647
 31
0.0
  0
LINE
  5
   299
  8
0
  6
CONTINUOUS
 62
     3
 10
-483.910061318053
 20
81.3460655677463
 30
0.0
 11
-483.910061318053
 21
95.3460523412606
 31
0.0
  0
LINE
  5
   29A
  8
0
  6
CONTINUOUS
 62
     3
 10
-482.11006589569
 20
81.3460655677463
 30
0.0
 11
-482.11006589569
 21
95.3460523412606
 31
0.0
  0
LINE
  5
   29B
  8
0
  6
CONTINUOUS
 62
     3
 10
-480.310062843932
 20
81.3460655677463
 30
0.0
 11
-480.310062843932
 21
95.3460523412606
 31
0.0
  0
LINE
  5
   29C
  8
0
  6
CONTINUOUS
 62
     3
 10
-478.510067421568
 20
81.3460655677463
 30
0.0
 11
-478.510067421568
 21
95.3460523412606
 31
0.0
  0
LINE
  5
   29D
  8
0
  6
CONTINUOUS
 62
     3
 10
-476.710064369811
 20
81.3460655677463
 30
0.0
 11
-476.710064369811
 21
95.3460523412606
 31
0.0
  0
LINE
  5
   29E
  8
0
  6
CONTINUOUS
 62
     3
 10
-474.910061318053
 20
81.3460655677463
 30
0.0
 11
-474.910061318053
 21
95.3460523412606
 31
0.0
  0
LINE
  5
   29F
  8
0
  6
CONTINUOUS
 62
     3
 10
-473.11006589569
 20
81.3460655677463
 30
0.0
 11
-473.11006589569
 21
95.3460523412606
 31
0.0
  0
LINE
  5
   2A0
  8
0
  6
CONTINUOUS
 62
     3
 10
-471.310062843932
 20
81.3460655677463
 30
0.0
 11
-471.310062843932
 21
95.3460523412606
 31
0.0
  0
LINE
  5
   2A1
  8
0
  6
CONTINUOUS
 62
     3
 10
-469.510067421569
 20
81.3460655677463
 30
0.0
 11
-469.510067421569
 21
95.3460523412606
 31
0.0
  0
LINE
  5
   2A2
  8
0
  6
CONTINUOUS
 62
     3
 10
-467.710064369811
 20
81.3460655677463
 30
0.0
 11
-467.710064369811
 21
95.3460523412606
 31
0.0
  0
LINE
  5
   2A3
  8
0
  6
CONTINUOUS
 62
     3
 10
-465.910061318053
 20
81.3460655677463
 30
0.0
 11
-465.910061318053
 21
95.3460523412606
 31
0.0
  0
LINE
  5
   2A4
  8
0
  6
CONTINUOUS
 62
     3
 10
-464.11006589569
 20
81.3460655677463
 30
0.0
 11
-464.11006589569
 21
95.3460523412606
 31
0.0
  0
LINE
  5
   2A5
  8
0
  6
CONTINUOUS
 62
     3
 10
-462.310062843932
 20
81.3460655677463
 30
0.0
 11
-462.310062843932
 21
95.3460523412606
 31
0.0
  0
LINE
  5
   2A6
  8
0
  6
CONTINUOUS
 62
     3
 10
-460.510067421569
 20
81.3460655677463
 30
0.0
 11
-460.510067421569
 21
95.3460523412606
 31
0.0
  0
LINE
  5
   2A7
  8
0
  6
CONTINUOUS
 62
     3
 10
-458.710064369811
 20
81.3460655677463
 30
0.0
 11
-458.710064369811
 21
95.3460523412606
 31
0.0
  0
LINE
  5
   2A8
  8
0
  6
CONTINUOUS
 62
     3
 10
-456.910061318053
 20
81.3460655677463
 30
0.0
 11
-456.910061318053
 21
95.3460523412606
 31
0.0
  0
LINE
  5
   2A9
  8
0
  6
CONTINUOUS
 62
     3
 10
-455.11006589569
 20
81.3460655677463
 30
0.0
 11
-455.11006589569
 21
95.3460523412606
 31
0.0
  0
LINE
  5
   2AA
  8
0
  6
CONTINUOUS
 62
     3
 10
-453.310062843932
 20
81.3460655677463
 30
0.0
 11
-453.310062843932
 21
95.3460523412606
 31
0.0
  0
LINE
  5
   2AB
  8
0
  6
CONTINUOUS
 62
     3
 10
-451.510067421569
 20
81.3460655677463
 30
0.0
 11
-451.510067421569
 21
95.3460523412606
 31
0.0
  0
LINE
  5
   2AC
  8
0
  6
CONTINUOUS
 62
     3
 10
-449.710064369811
 20
81.3460655677463
 30
0.0
 11
-449.710064369811
 21
95.3460523412606
 31
0.0
  0
LINE
  5
   2AD
  8
0
  6
CONTINUOUS
 62
     3
 10
-447.910061318053
 20
81.3460655677463
 30
0.0
 11
-447.910061318053
 21
95.3460523412606
 31
0.0
  0
LINE
  5
   2AE
  8
0
  6
CONTINUOUS
 62
     3
 10
-446.11006589569
 20
81.3460655677463
 30
0.0
 11
-446.11006589569
 21
95.3460523412606
 31
0.0
  0
LINE
  5
   2AF
  8
0
  6
CONTINUOUS
 62
     3
 10
-444.310062843932
 20
81.3460655677463
 30
0.0
 11
-444.310062843932
 21
95.3460523412606
 31
0.0
  0
LINE
  5
   2B0
  8
0
  6
CONTINUOUS
 62
     3
 10
-442.510067421569
 20
81.3460655677463
 30
0.0
 11
-442.510067421569
 21
95.3460523412606
 31
0.0
  0
LINE
  5
   2B1
  8
0
  6
CONTINUOUS
 62
     3
 10
-440.710064369811
 20
81.3460655677463
 30
0.0
 11
-440.710064369811
 21
95.3460523412606
 31
0.0
  0
LINE
  5
   2B2
  8
0
  6
CONTINUOUS
 62
     3
 10
-438.910061318053
 20
81.3460655677463
 30
0.0
 11
-438.910061318053
 21
95.3460523412606
 31
0.0
  0
LINE
  5
   2B3
  8
0
  6
CONTINUOUS
 62
     3
 10
-437.11006589569
 20
81.3460655677463
 30
0.0
 11
-437.11006589569
 21
95.3460523412606
 31
0.0
  0
LINE
  5
   2B4
  8
0
  6
CONTINUOUS
 62
     3
 10
-435.310062843932
 20
81.3460655677463
 30
0.0
 11
-435.310062843932
 21
95.3460523412606
 31
0.0
  0
LINE
  5
   2B5
  8
0
  6
CONTINUOUS
 62
     3
 10
-433.510067421569
 20
81.3460655677463
 30
0.0
 11
-433.510067421569
 21
95.3460523412606
 31
0.0
  0
LINE
  5
   2B6
  8
0
  6
CONTINUOUS
 62
     3
 10
-431.710064369811
 20
81.3460655677463
 30
0.0
 11
-431.710064369811
 21
95.3460523412606
 31
0.0
  0
LINE
  5
   2B7
  8
0
  6
CONTINUOUS
 62
     3
 10
-429.910061318053
 20
-34.1538869665048
 30
0.0
 11
-429.910061318053
 21
-8.77890527532647
 31
0.0
  0
LINE
  5
   2B8
  8
0
  6
CONTINUOUS
 62
     3
 10
-426.310062843932
 20
-34.1538869665048
 30
0.0
 11
-426.310062843932
 21
-8.77890527532647
 31
0.0
  0
LINE
  5
   2B9
  8
0
  6
CONTINUOUS
 62
     3
 10
-423.186844516171
 20
81.3460655677464
 30
0.0
 11
-493.083283114804
 21
81.3460655677464
 31
0.0
  0
LINE
  5
   2BA
  8
0
  6
CONTINUOUS
 62
     3
 10
-423.135059873573
 20
81.3460598812982
 30
0.0
 11
-423.318119565955
 21
81.3460598812982
 31
0.0
  0
LINE
  5
   2BB
  8
0
  6
CONTINUOUS
 62
     3
 10
-423.635059792174
 20
80.8460655975487
 30
0.0
 11
-423.635059792174
 21
81.3460655677463
 31
0.0
  0
LINE
  5
   2BC
  8
0
  6
CONTINUOUS
 62
     3
 10
-493.083283114803
 20
81.3460655677464
 30
0.0
 11
-493.135059792173
 21
81.3460655677464
 31
0.0
  0
LINE
  5
   2BD
  8
0
  6
CONTINUOUS
 62
     3
 10
-492.635059792174
 20
80.8460655975456
 30
0.0
 11
-492.635059792174
 21
81.3460655677433
 31
0.0
  0
ARC
  5
   2BE
  8
0
  6
CONTINUOUS
 62
     3
 10
-492.510073819588
 20
94.7210675681688
 30
0.0
 40
0.624986446726238
 50
449.998658602021
 51
540.001080379242
  0
ARC
  5
   2BF
  8
0
  6
CONTINUOUS
 62
     3
 10
-423.760053694324
 20
94.7210663014875
 30
0.0
 40
0.624984366596091
 50
359.998931305817
 51
450.001731127297
  0
LINE
  5
   2C0
  8
0
  6
CONTINUOUS
 62
     7
 10
-423.760072578088
 20
95.3460523412606
 30
0.0
 11
-492.51005918809
 21
95.3460523412606
 31
0.0
  0
LINE
  5
   2C1
  8
0
  6
CONTINUOUS
 62
     3
 10
-493.135059792173
 20
-33.528902193413
 30
0.0
 11
-493.135059792173
 21
-20.1539001929905
 31
0.0
  0
LINE
  5
   2C2
  8
0
  6
CONTINUOUS
 62
     3
 10
-423.635059792174
 20
-19.6539002227898
 30
0.0
 11
-492.635059792174
 21
-19.6539002227898
 31
0.0
  0
LINE
  5
   2C3
  8
0
  6
CONTINUOUS
 62
     3
 10
-423.135059792188
 20
-33.5289009267317
 30
0.0
 11
-423.135059792188
 21
-20.1539002507782
 31
0.0
  0
LINE
  5
   2C4
  8
0
  6
CONTINUOUS
 62
     3
 10
-491.110060173644
 20
-34.1538869665048
 30
0.0
 11
-491.110060173644
 21
-8.77890527532647
 31
0.0
  0
LINE
  5
   2C5
  8
0
  6
CONTINUOUS
 62
     3
 10
-485.710060078276
 20
-34.1538869665048
 30
0.0
 11
-485.710060078276
 21
-8.77890527532647
 31
0.0
  0
LINE
  5
   2C6
  8
0
  6
CONTINUOUS
 62
     3
 10
-483.910061318053
 20
-34.1538869665048
 30
0.0
 11
-483.910061318053
 21
-20.1539001929905
 31
0.0
  0
LINE
  5
   2C7
  8
0
  6
CONTINUOUS
 62
     3
 10
-482.11006589569
 20
-34.1538869665048
 30
0.0
 11
-482.11006589569
 21
-20.1539001929905
 31
0.0
  0
LINE
  5
   2C8
  8
0
  6
CONTINUOUS
 62
     3
 10
-480.310062843932
 20
-34.1538869665048
 30
0.0
 11
-480.310062843932
 21
-20.1539001929905
 31
0.0
  0
LINE
  5
   2C9
  8
0
  6
CONTINUOUS
 62
     3
 10
-478.510067421568
 20
-34.1538869665048
 30
0.0
 11
-478.510067421568
 21
-20.1539001929905
 31
0.0
  0
LINE
  5
   2CA
  8
0
  6
CONTINUOUS
 62
     3
 10
-476.710064369811
 20
-34.1538869665048
 30
0.0
 11
-476.710064369811
 21
-20.1539001929905
 31
0.0
  0
LINE
  5
   2CB
  8
0
  6
CONTINUOUS
 62
     3
 10
-474.910061318053
 20
-34.1538869665048
 30
0.0
 11
-474.910061318053
 21
-20.1539001929905
 31
0.0
  0
LINE
  5
   2CC
  8
0
  6
CONTINUOUS
 62
     3
 10
-473.11006589569
 20
-34.1538869665048
 30
0.0
 11
-473.11006589569
 21
-20.1539001929905
 31
0.0
  0
LINE
  5
   2CD
  8
0
  6
CONTINUOUS
 62
     3
 10
-471.310062843932
 20
-34.1538869665048
 30
0.0
 11
-471.310062843932
 21
-20.1539001929905
 31
0.0
  0
LINE
  5
   2CE
  8
0
  6
CONTINUOUS
 62
     3
 10
-469.510067421568
 20
-34.1538869665048
 30
0.0
 11
-469.510067421568
 21
-20.1539001929905
 31
0.0
  0
LINE
  5
   2CF
  8
0
  6
CONTINUOUS
 62
     3
 10
-467.710064369811
 20
-34.1538869665048
 30
0.0
 11
-467.710064369811
 21
-20.1539001929905
 31
0.0
  0
LINE
  5
   2D0
  8
0
  6
CONTINUOUS
 62
     3
 10
-465.910061318053
 20
-34.1538869665048
 30
0.0
 11
-465.910061318053
 21
-20.1539001929905
 31
0.0
  0
LINE
  5
   2D1
  8
0
  6
CONTINUOUS
 62
     3
 10
-464.11006589569
 20
-34.1538869665048
 30
0.0
 11
-464.11006589569
 21
-20.1539001929905
 31
0.0
  0
LINE
  5
   2D2
  8
0
  6
CONTINUOUS
 62
     3
 10
-462.310062843932
 20
-34.1538869665048
 30
0.0
 11
-462.310062843932
 21
-20.1539001929905
 31
0.0
  0
LINE
  5
   2D3
  8
0
  6
CONTINUOUS
 62
     3
 10
-460.510067421568
 20
-34.1538869665048
 30
0.0
 11
-460.510067421568
 21
-20.1539001929905
 31
0.0
  0
LINE
  5
   2D4
  8
0
  6
CONTINUOUS
 62
     3
 10
-458.710064369811
 20
-34.1538869665048
 30
0.0
 11
-458.710064369811
 21
-20.1539001929905
 31
0.0
  0
LINE
  5
   2D5
  8
0
  6
CONTINUOUS
 62
     3
 10
-456.910061318053
 20
-34.1538869665048
 30
0.0
 11
-456.910061318053
 21
-20.1539001929905
 31
0.0
  0
LINE
  5
   2D6
  8
0
  6
CONTINUOUS
 62
     3
 10
-455.11006589569
 20
-34.1538869665048
 30
0.0
 11
-455.11006589569
 21
-20.1539001929905
 31
0.0
  0
LINE
  5
   2D7
  8
0
  6
CONTINUOUS
 62
     3
 10
-453.310062843932
 20
-34.1538869665048
 30
0.0
 11
-453.310062843932
 21
-20.1539001929905
 31
0.0
  0
LINE
  5
   2D8
  8
0
  6
CONTINUOUS
 62
     3
 10
-451.510067421568
 20
-34.1538869665048
 30
0.0
 11
-451.510067421568
 21
-20.1539001929905
 31
0.0
  0
LINE
  5
   2D9
  8
0
  6
CONTINUOUS
 62
     3
 10
-449.710064369811
 20
-34.1538869665048
 30
0.0
 11
-449.710064369811
 21
-20.1539001929905
 31
0.0
  0
LINE
  5
   2DA
  8
0
  6
CONTINUOUS
 62
     3
 10
-447.910061318053
 20
-34.1538869665048
 30
0.0
 11
-447.910061318053
 21
-20.1539001929905
 31
0.0
  0
LINE
  5
   2DB
  8
0
  6
CONTINUOUS
 62
     3
 10
-446.11006589569
 20
-34.1538869665048
 30
0.0
 11
-446.11006589569
 21
-20.1539001929905
 31
0.0
  0
LINE
  5
   2DC
  8
0
  6
CONTINUOUS
 62
     3
 10
-444.310062843932
 20
-34.1538869665048
 30
0.0
 11
-444.310062843932
 21
-20.1539001929905
 31
0.0
  0
LINE
  5
   2DD
  8
0
  6
CONTINUOUS
 62
     3
 10
-442.510067421568
 20
-34.1538869665048
 30
0.0
 11
-442.510067421568
 21
-20.1539001929905
 31
0.0
  0
LINE
  5
   2DE
  8
0
  6
CONTINUOUS
 62
     3
 10
-440.710064369811
 20
-34.1538869665048
 30
0.0
 11
-440.710064369811
 21
-20.1539001929905
 31
0.0
  0
LINE
  5
   2DF
  8
0
  6
CONTINUOUS
 62
     3
 10
-438.910061318053
 20
-34.1538869665048
 30
0.0
 11
-438.910061318053
 21
-20.1539001929905
 31
0.0
  0
LINE
  5
   2E0
  8
0
  6
CONTINUOUS
 62
     3
 10
-437.11006589569
 20
-34.1538869665048
 30
0.0
 11
-437.11006589569
 21
-20.1539001929905
 31
0.0
  0
LINE
  5
   2E1
  8
0
  6
CONTINUOUS
 62
     3
 10
-435.310062843932
 20
-34.1538869665048
 30
0.0
 11
-435.310062843932
 21
-20.1539001929905
 31
0.0
  0
LINE
  5
   2E2
  8
0
  6
CONTINUOUS
 62
     3
 10
-433.510067421568
 20
-34.1538869665048
 30
0.0
 11
-433.510067421568
 21
-20.1539001929905
 31
0.0
  0
LINE
  5
   2E3
  8
0
  6
CONTINUOUS
 62
     3
 10
-428.11006589569
 20
-34.1538869665048
 30
0.0
 11
-428.11006589569
 21
-8.77890527532647
 31
0.0
  0
LINE
  5
   2E4
  8
0
  6
CONTINUOUS
 62
     3
 10
-424.510067421568
 20
-34.1538869665048
 30
0.0
 11
-424.510067421568
 21
-8.77890527532647
 31
0.0
  0
LINE
  5
   2E5
  8
0
  6
CONTINUOUS
 62
     3
 10
-423.186844516171
 20
-20.1539001929905
 30
0.0
 11
-493.083283114804
 21
-20.1539001929905
 31
0.0
  0
LINE
  5
   2E6
  8
0
  6
CONTINUOUS
 62
     3
 10
-423.135059873573
 20
-20.1538945065423
 30
0.0
 11
-423.318119565955
 21
-20.1538945065423
 31
0.0
  0
LINE
  5
   2E7
  8
0
  6
CONTINUOUS
 62
     3
 10
-423.635059792174
 20
-20.1539001929905
 30
0.0
 11
-423.635059792174
 21
-19.6539002227928
 31
0.0
  0
LINE
  5
   2E8
  8
0
  6
CONTINUOUS
 62
     3
 10
-493.083283114803
 20
-20.1539001929905
 30
0.0
 11
-493.135059792173
 21
-20.1539001929905
 31
0.0
  0
LINE
  5
   2E9
  8
0
  6
CONTINUOUS
 62
     3
 10
-492.635059792174
 20
-20.1539001929875
 30
0.0
 11
-492.635059792174
 21
-19.6539002227898
 31
0.0
  0
ARC
  5
   2EA
  8
0
  6
CONTINUOUS
 62
     3
 10
-492.510073819588
 20
-33.528902193413
 30
0.0
 40
0.624986446726238
 50
179.998919516826
 51
270.001341294048
  0
ARC
  5
   2EB
  8
0
  6
CONTINUOUS
 62
     3
 10
-423.760053694324
 20
-33.5289009267317
 30
0.0
 40
0.624984366596091
 50
269.998268768772
 51
360.001068590252
  0
LINE
  5
   2EC
  8
0
  6
CONTINUOUS
 62
     7
 10
-423.760072578088
 20
-34.1538869665048
 30
0.0
 11
-492.51005918809
 21
-34.1538869665048
 31
0.0
  0
LINE
  5
   2ED
  8
0
  6
DOT
 62
     7
 10
-410.135055274613
 20
69.0960903167725
 30
0.0
 11
-423.135046005249
 21
69.0960903167725
 31
0.0
  0
LINE
  5
   2EE
  8
0
  6
CONTINUOUS
 62
   130
 10
-407.885038256645
 20
69.0960903167725
 30
0.0
 11
-410.135055274613
 21
69.0960903167725
 31
0.0
  0
LINE
  5
   2EF
  8
0
  6
CONTINUOUS
 62
   130
 10
-407.885030984879
 20
-3.2789192199707
 30
0.0
 11
-410.135055274613
 21
-3.2789192199707
 31
0.0
  0
LINE
  5
   2F0
  8
0
  6
CONTINUOUS
 62
   130
 10
-407.885030984879
 20
-3.2789192199705
 30
0.0
 11
-407.885031223297
 21
-0.903923034667763
 31
0.0
  0
LINE
  5
   2F1
  8
0
  6
CONTINUOUS
 62
   130
 10
-407.885031223297
 20
-0.903924942015667
 30
0.0
 11
-407.885038256645
 21
69.0960903167734
 31
0.0
  0
LINE
  5
   2F2
  8
0
  6
CONTINUOUS
 62
   130
 10
-407.385035514832
 20
25.5960636138917
 30
0.0
 11
-407.385035037994
 21
35.5960636138917
 31
0.0
  0
LINE
  5
   2F3
  8
0
  6
CONTINUOUS
 62
   130
 10
-407.385035037994
 20
35.5960636138916
 30
0.0
 11
-407.885033726692
 21
35.5960636138916
 31
0.0
  0
LINE
  5
   2F4
  8
0
  6
CONTINUOUS
 62
   130
 10
-407.385035514832
 20
25.5960636138916
 30
0.0
 11
-407.885034203529
 21
25.5960636138916
 31
0.0
  0
CIRCLE
  5
   2F5
  8
0
  6
CONTINUOUS
 62
   130
 10
-414.63495776738
 20
17.8460693887613
 30
0.0
 40
2.62496941959897
  0
LINE
  5
   2F6
  8
0
  6
DASHDOT
 62
     7
 10
-414.63495776738
 20
14.7210999691624
 30
0.0
 11
-414.63495776738
 21
20.9710388083603
 31
0.0
  0
LINE
  5
   2F7
  8
0
  6
DASHDOT
 62
     7
 10
-411.509988347781
 20
17.8460693887613
 30
0.0
 11
-417.759927186979
 21
17.8460693887613
 31
0.0
  0
LINE
  5
   2F8
  8
0
  6
CONTINUOUS
 62
   150
 10
-448.385029525392
 20
6.97104315289626
 30
0.0
 11
-448.385029525392
 21
50.2210431528963
 31
0.0
  0
LINE
  5
   2F9
  8
0
  6
CONTINUOUS
 62
   150
 10
-484.311827802361
 20
57.6478664782849
 30
0.0
 11
-484.135047098521
 21
57.7211010375411
 31
0.0
  0
LINE
  5
   2FA
  8
0
  6
CONTINUOUS
 62
   150
 10
-484.385051545533
 20
57.4710911157186
 30
0.0
 11
-484.311828431422
 21
57.6478718209744
 31
0.0
  0
LINE
  5
   2FB
  8
0
  6
CONTINUOUS
 62
   150
 10
-484.385063857668
 20
5.72169341168533
 30
0.0
 11
-484.385063857668
 21
5.97170867047439
 31
0.0
  0
LINE
  5
   2FC
  8
0
  6
CONTINUOUS
 62
   150
 10
-484.385056228273
 20
51.7210412455476
 30
0.0
 11
-484.385056228273
 21
57.4710793925203
 31
0.0
  0
LINE
  5
   2FD
  8
0
  6
CONTINUOUS
 62
   150
 10
-484.311833502413
 20
5.29428088407327
 30
0.0
 11
-484.385064246502
 21
5.4710577654068
 31
0.0
  0
LINE
  5
   2FE
  8
0
  6
CONTINUOUS
 62
   150
 10
-484.135063947688
 20
5.22108975495437
 30
0.0
 11
-484.311831300837
 21
5.29428235214489
 31
0.0
  0
LINE
  5
   2FF
  8
0
  6
CONTINUOUS
 62
   150
 10
-432.092384480338
 20
5.22109189978291
 30
0.0
 11
-447.385029525346
 21
5.22109189978291
 31
0.0
  0
LINE
  5
   300
  8
0
  6
CONTINUOUS
 62
   150
 10
-483.885056228273
 20
5.22108892926345
 30
0.0
 11
-484.135065765016
 21
5.22108892926345
 31
0.0
  0
LINE
  5
   301
  8
0
  6
CONTINUOUS
 62
   150
 10
-432.092384480338
 20
5.22109189978291
 30
0.0
 11
-431.885019220386
 21
5.7216916938311
 31
0.0
  0
LINE
  5
   302
  8
0
  6
CONTINUOUS
 62
   150
 10
-431.885017642095
 20
5.72169150433843
 30
0.0
 11
-431.885017642095
 21
57.721714392522
 31
0.0
  0
LINE
  5
   303
  8
0
  6
CONTINUOUS
 62
   150
 10
-431.885027031603
 20
57.4710838597865
 30
0.0
 11
-431.958269221204
 21
57.6478645587784
 31
0.0
  0
LINE
  5
   304
  8
0
  6
CONTINUOUS
 62
   150
 10
-431.958272665562
 20
57.6478596099412
 30
0.0
 11
-432.135053369809
 21
57.7210789091039
 31
0.0
  0
LINE
  5
   305
  8
0
  6
CONTINUOUS
 62
   150
 10
-432.135052413573
 20
57.7210947246735
 30
0.0
 11
-484.135052413573
 21
57.7210947246735
 31
0.0
  0
LINE
  5
   306
  8
0
  6
CONTINUOUS
 62
     3
 10
-445.535061568849
 20
10.4363275004304
 30
0.0
 11
-445.535061568849
 21
14.5057244730867
 31
0.0
  0
LINE
  5
   307
  8
0
  6
CONTINUOUS
 62
     3
 10
-444.83613086794
 20
9.63295872967583
 30
0.0
 11
-445.535067304801
 21
10.4363263382508
 31
0.0
  0
LINE
  5
   308
  8
0
  6
CONTINUOUS
 62
     3
 10
-443.939505401484
 20
9.05841357061341
 30
0.0
 11
-444.83611949237
 21
9.63296036556586
 31
0.0
  0
LINE
  5
   309
  8
0
  6
CONTINUOUS
 62
     3
 10
-442.917538357947
 20
8.75906614993463
 30
0.0
 11
-443.939511034375
 21
9.05841306092363
 31
0.0
  0
LINE
  5
   30A
  8
0
  6
CONTINUOUS
 62
     3
 10
-441.852635116213
 20
8.75906614789137
 30
0.0
 11
-442.91753837549
 21
8.75906614789137
 31
0.0
  0
LINE
  5
   30B
  8
0
  6
CONTINUOUS
 62
     3
 10
-441.852636060379
 20
8.75906579806216
 30
0.0
 11
-440.830663397997
 21
9.05840891641454
 31
0.0
  0
LINE
  5
   30C
  8
0
  6
CONTINUOUS
 62
     3
 10
-440.830652061133
 20
9.05841480638562
 30
0.0
 11
-439.934030328675
 21
9.63296164687477
 31
0.0
  0
LINE
  5
   30D
  8
0
  6
CONTINUOUS
 62
     3
 10
-439.934046251468
 20
9.6329521251722
 30
0.0
 11
-439.235086875353
 21
10.4363693344801
 31
0.0
  0
LINE
  5
   30E
  8
0
  6
CONTINUOUS
 62
     3
 10
-439.235081404068
 20
10.4363732722615
 30
0.0
 11
-439.235058515885
 21
14.505747357588
 31
0.0
  0
LINE
  5
   30F
  8
0
  6
CONTINUOUS
 62
     3
 10
-439.235059946205
 20
14.5057470152388
 30
0.0
 11
-439.934019312192
 21
15.3091451541787
 31
0.0
  0
LINE
  5
   310
  8
0
  6
CONTINUOUS
 62
     3
 10
-439.93400980366
 20
15.3091466342026
 30
0.0
 11
-440.830631536118
 21
15.8836934746918
 31
0.0
  0
LINE
  5
   311
  8
0
  6
CONTINUOUS
 62
     3
 10
-440.830636440457
 20
15.8836928343959
 30
0.0
 11
-441.852601438614
 21
16.1830359380456
 31
0.0
  0
LINE
  5
   312
  8
0
  6
CONTINUOUS
 62
     3
 10
-441.852604598635
 20
16.1830354166902
 30
0.0
 11
-442.917515487306
 21
16.1830354166902
 31
0.0
  0
LINE
  5
   313
  8
0
  6
CONTINUOUS
 62
     3
 10
-443.939476945795
 20
15.88369378403
 30
0.0
 11
-442.917511947639
 21
16.1830368876796
 31
0.0
  0
LINE
  5
   314
  8
0
  6
CONTINUOUS
 62
     3
 10
-444.836092108891
 20
15.3091514946712
 30
0.0
 11
-443.939470376433
 21
15.8836983351603
 31
0.0
  0
LINE
  5
   315
  8
0
  6
CONTINUOUS
 62
     3
 10
-445.535067349584
 20
14.5057198905335
 30
0.0
 11
-444.836107999817
 21
15.3091409086488
 31
0.0
  0
LINE
  5
   316
  8
0
  6
CONTINUOUS
 62
     3
 10
-447.385029521817
 20
51.721048875088
 30
0.0
 11
-431.885029521817
 21
51.7210793926652
 31
0.0
  0
LINE
  5
   317
  8
0
  6
CONTINUOUS
 62
     3
 10
-431.885029525392
 20
56.7210793925203
 30
0.0
 11
-484.385060042971
 21
56.7210793925203
 31
0.0
  0
LINE
  5
   318
  8
0
  6
CONTINUOUS
 62
     3
 10
-437.632826613735
 20
48.0960146494041
 30
0.0
 11
-437.689917370855
 21
48.3830324693403
 31
0.0
  0
LINE
  5
   319
  8
0
  6
CONTINUOUS
 62
     3
 10
-437.689914489296
 20
48.3830373024232
 30
0.0
 11
-437.852489265521
 21
48.6263539522171
 31
0.0
  0
LINE
  5
   31A
  8
0
  6
CONTINUOUS
 62
     3
 10
-437.852491957008
 20
48.6263517565518
 30
0.0
 11
-438.095816239678
 21
48.7889265185653
 31
0.0
  0
LINE
  5
   31B
  8
0
  6
CONTINUOUS
 62
     3
 10
-438.095821269424
 20
48.7889246185366
 30
0.0
 11
-438.382831456189
 21
48.8460153771144
 31
0.0
  0
LINE
  5
   31C
  8
0
  6
CONTINUOUS
 62
     3
 10
-438.669842990426
 20
48.7889231529257
 30
0.0
 11
-438.382832803661
 21
48.8460139115035
 31
0.0
  0
LINE
  5
   31D
  8
0
  6
CONTINUOUS
 62
     3
 10
-438.913149330449
 20
48.6263545279661
 30
0.0
 11
-438.669832680655
 21
48.7889293041914
 31
0.0
  0
LINE
  5
   31E
  8
0
  6
CONTINUOUS
 62
     3
 10
-439.07573351458
 20
48.383036599381
 30
0.0
 11
-438.913151119632
 21
48.6263532445422
 31
0.0
  0
LINE
  5
   31F
  8
0
  6
CONTINUOUS
 62
     3
 10
-439.132827376863
 20
48.0960137775765
 30
0.0
 11
-439.075736619743
 21
48.3830315975128
 31
0.0
  0
LINE
  5
   320
  8
0
  6
CONTINUOUS
 62
     3
 10
-439.132824630373
 20
46.596018357364
 30
0.0
 11
-439.132824630373
 21
48.096018357364
 31
0.0
  0
LINE
  5
   321
  8
0
  6
CONTINUOUS
 62
     3
 10
-439.075737136768
 20
46.3090021120896
 30
0.0
 11
-439.132827895346
 21
46.5960122988544
 31
0.0
  0
LINE
  5
   322
  8
0
  6
CONTINUOUS
 62
     3
 10
-438.913151291362
 20
46.065691734196
 30
0.0
 11
-439.07573368631
 21
46.3090083793571
 31
0.0
  0
LINE
  5
   323
  8
0
  6
CONTINUOUS
 62
     3
 10
-438.669834561232
 20
45.9031092646457
 30
0.0
 11
-438.913151206393
 21
46.0656916595936
 31
0.0
  0
LINE
  5
   324
  8
0
  6
CONTINUOUS
 62
     3
 10
-438.382831462295
 20
45.846015526192
 30
0.0
 11
-438.66984164906
 21
45.9031062847698
 31
0.0
  0
LINE
  5
   325
  8
0
  6
CONTINUOUS
 62
     3
 10
-438.382832797554
 20
45.8460140605811
 30
0.0
 11
-438.09582261079
 21
45.9031048191589
 31
0.0
  0
LINE
  5
   326
  8
0
  6
CONTINUOUS
 62
     3
 10
-438.095813777767
 20
45.9031096265583
 30
0.0
 11
-437.852489499772
 21
46.0656920248003
 31
0.0
  0
LINE
  5
   327
  8
0
  6
CONTINUOUS
 62
     3
 10
-437.852488403323
 20
46.0656935275596
 30
0.0
 11
-437.689913627097
 21
46.3090101773535
 31
0.0
  0
LINE
  5
   328
  8
0
  6
CONTINUOUS
 62
     3
 10
-437.689920048211
 20
46.3090006514263
 30
0.0
 11
-437.632829289633
 21
46.5960108381911
 31
0.0
  0
LINE
  5
   329
  8
0
  6
CONTINUOUS
 62
     3
 10
-437.632824630373
 20
46.596018357364
 30
0.0
 11
-437.632824630373
 21
48.096018357364
 31
0.0
  0
LINE
  5
   32A
  8
0
  6
CONTINUOUS
 62
     3
 10
-437.635029525392
 20
35.8460298014558
 30
0.0
 11
-439.135029525392
 21
35.8460298014558
 31
0.0
  0
LINE
  5
   32B
  8
0
  6
CONTINUOUS
 62
     3
 10
-439.135029525392
 20
22.3460298014558
 30
0.0
 11
-439.135029525392
 21
35.8460298014558
 31
0.0
  0
LINE
  5
   32C
  8
0
  6
CONTINUOUS
 62
     3
 10
-437.635029525392
 20
22.3460298014558
 30
0.0
 11
-439.135029525392
 21
22.3460298014558
 31
0.0
  0
LINE
  5
   32D
  8
0
  6
CONTINUOUS
 62
     3
 10
-437.635029525392
 20
22.3460298014558
 30
0.0
 11
-437.635029525392
 21
35.8460298014558
 31
0.0
  0
LINE
  5
   32E
  8
0
  6
CONTINUOUS
 62
     3
 10
-447.385029525392
 20
51.7210412455476
 30
0.0
 11
-482.635071487062
 21
51.7210412455476
 31
0.0
  0
LINE
  5
   32F
  8
0
  6
CONTINUOUS
 62
   150
 10
-448.885029525392
 20
50.7210412455476
 30
0.0
 11
-482.635071487062
 21
50.7210412455476
 31
0.0
  0
LINE
  5
   330
  8
0
  6
CONTINUOUS
 62
   150
 10
-448.385030618685
 20
50.2210399272234
 30
0.0
 11
-448.885030601571
 21
50.7210399101091
 31
0.0
  0
LINE
  5
   331
  8
0
  6
CONTINUOUS
 62
   150
 10
-483.135070799025
 20
50.2210428574085
 30
0.0
 11
-482.988624570742
 21
50.5745966294431
 31
0.0
  0
LINE
  5
   332
  8
0
  6
CONTINUOUS
 62
   150
 10
-482.988624309643
 20
50.5745960699531
 30
0.0
 11
-482.635070537608
 21
50.7210422982362
 31
0.0
  0
LINE
  5
   333
  8
0
  6
CONTINUOUS
 62
     3
 10
-482.635071471038
 20
51.7210412462625
 30
0.0
 11
-484.3850581197
 21
51.7210488756573
 31
0.0
  0
LINE
  5
   334
  8
0
  6
CONTINUOUS
 62
   150
 10
-484.385061255529
 20
5.97170867047443
 30
0.0
 11
-484.385061255529
 21
51.9716857822908
 31
0.0
  0
LINE
  5
   335
  8
0
  6
CONTINUOUS
 62
   150
 10
-448.531474801489
 20
6.61749024655632
 30
0.0
 11
-448.385028573206
 21
6.97104401859096
 31
0.0
  0
LINE
  5
   336
  8
0
  6
CONTINUOUS
 62
   150
 10
-448.885028057897
 20
6.47104378639698
 30
0.0
 11
-448.531474285862
 21
6.6174900146801
 31
0.0
  0
LINE
  5
   337
  8
0
  6
CONTINUOUS
 62
   150
 10
-448.885029525392
 20
6.47104315289626
 30
0.0
 11
-482.635071487062
 21
6.47104315289626
 31
0.0
  0
LINE
  5
   338
  8
0
  6
CONTINUOUS
 62
   150
 10
-482.63507093857
 20
6.47104340038614
 30
0.0
 11
-482.988624710605
 21
6.61748962866927
 31
0.0
  0
LINE
  5
   339
  8
0
  6
CONTINUOUS
 62
   150
 10
-482.988624968773
 20
6.61748986347643
 30
0.0
 11
-483.135071197056
 21
6.97104363551104
 31
0.0
  0
LINE
  5
   33A
  8
0
  6
CONTINUOUS
 62
   150
 10
-483.135071487062
 20
6.97104315289626
 30
0.0
 11
-483.135071487062
 21
50.2210431528963
 31
0.0
  0
LINE
  5
   33B
  8
0
  6
CONTINUOUS
 62
   150
 10
-463.510040969484
 20
15.8101220560945
 30
0.0
 11
-463.510040969484
 21
36.6986833048738
 31
0.0
  0
LINE
  5
   33C
  8
0
  6
CONTINUOUS
 62
   150
 10
-452.760040969484
 20
15.8101220560945
 30
0.0
 11
-452.760040969484
 21
36.6986833048738
 31
0.0
  0
LINE
  5
   33D
  8
0
  6
CONTINUOUS
 62
     3
 10
-434.385021895998
 20
18.6812386942781
 30
0.0
 11
-435.385021895998
 21
18.6812386942781
 31
0.0
  0
LINE
  5
   33E
  8
0
  6
CONTINUOUS
 62
     3
 10
-435.56179070541
 20
18.6080211620122
 30
0.0
 11
-435.385010000154
 21
18.6812442761241
 31
0.0
  0
LINE
  5
   33F
  8
0
  6
CONTINUOUS
 62
     3
 10
-435.635022229458
 20
18.4312383621828
 30
0.0
 11
-435.561802930215
 21
18.6080152448087
 31
0.0
  0
LINE
  5
   340
  8
0
  6
CONTINUOUS
 62
     3
 10
-435.635021895998
 20
12.9312386942781
 30
0.0
 11
-435.635021895998
 21
18.4312386942781
 31
0.0
  0
LINE
  5
   341
  8
0
  6
CONTINUOUS
 62
     3
 10
-435.561802843769
 20
12.7544616862485
 30
0.0
 11
-435.635022143011
 21
12.9312385688744
 31
0.0
  0
LINE
  5
   342
  8
0
  6
CONTINUOUS
 62
     3
 10
-435.385012016805
 20
12.6812396517858
 30
0.0
 11
-435.56179272206
 21
12.7544627658977
 31
0.0
  0
LINE
  5
   343
  8
0
  6
CONTINUOUS
 62
     3
 10
-434.385021895998
 20
12.6812386942781
 30
0.0
 11
-435.385021895998
 21
12.6812386942781
 31
0.0
  0
LINE
  5
   344
  8
0
  6
CONTINUOUS
 62
     3
 10
-433.635021895998
 20
12.6812386942781
 30
0.0
 11
-434.385021895998
 21
12.6812386942781
 31
0.0
  0
LINE
  5
   345
  8
0
  6
CONTINUOUS
 62
     3
 10
-433.635030294791
 20
12.6812350976867
 30
0.0
 11
-433.458257227991
 21
12.7544582118085
 31
0.0
  0
LINE
  5
   346
  8
0
  6
CONTINUOUS
 62
     3
 10
-433.458246126315
 20
12.7544642372453
 30
0.0
 11
-433.385019197224
 21
12.9312411266335
 31
0.0
  0
LINE
  5
   347
  8
0
  6
CONTINUOUS
 62
     3
 10
-433.385021895998
 20
12.9312386942781
 30
0.0
 11
-433.385021895998
 21
18.4312386942781
 31
0.0
  0
LINE
  5
   348
  8
0
  6
CONTINUOUS
 62
     3
 10
-433.385019893378
 20
18.431239923319
 30
0.0
 11
-433.458246822468
 21
18.6080168127072
 31
0.0
  0
LINE
  5
   349
  8
0
  6
CONTINUOUS
 62
     3
 10
-433.458255816116
 20
18.6080145985832
 30
0.0
 11
-433.635028882915
 21
18.6812377127049
 31
0.0
  0
LINE
  5
   34A
  8
0
  6
CONTINUOUS
 62
     3
 10
-433.635021895998
 20
18.6812386942781
 30
0.0
 11
-434.385021895998
 21
18.6812386942781
 31
0.0
  0
LINE
  5
   34B
  8
0
  6
CONTINUOUS
 62
   150
 10
-448.385052413576
 20
38.4716876896394
 30
0.0
 11
-448.385052413576
 21
38.9716876896394
 31
0.0
  0
LINE
  5
   34C
  8
0
  6
CONTINUOUS
 62
     3
 10
-448.385052413576
 20
38.7210526896394
 30
0.0
 11
-483.13507530176
 21
38.7210526896394
 31
0.0
  0
LINE
  5
   34D
  8
0
  6
CONTINUOUS
 62
     3
 10
-448.385052413576
 20
38.2210526896394
 30
0.0
 11
-483.13507530176
 21
38.2210526896394
 31
0.0
  0
LINE
  5
   34E
  8
0
  6
CONTINUOUS
 62
   150
 10
-448.385052413576
 20
13.9716876896394
 30
0.0
 11
-448.385052413576
 21
14.4716876896394
 31
0.0
  0
LINE
  5
   34F
  8
0
  6
CONTINUOUS
 62
     3
 10
-448.385052413576
 20
14.2210526896394
 30
0.0
 11
-483.13507530176
 21
14.2210526896394
 31
0.0
  0
LINE
  5
   350
  8
0
  6
CONTINUOUS
 62
     3
 10
-448.385052413576
 20
13.7210526896394
 30
0.0
 11
-483.13507530176
 21
13.7210526896394
 31
0.0
  0
LINE
  5
   351
  8
0
  6
CONTINUOUS
 62
     3
 10
-463.510056228273
 20
32.2210526896394
 30
0.0
 11
-483.13507530176
 21
32.2210526896394
 31
0.0
  0
LINE
  5
   352
  8
0
  6
CONTINUOUS
 62
     3
 10
-463.510056228273
 20
31.7210526896394
 30
0.0
 11
-483.13507530176
 21
31.7210526896394
 31
0.0
  0
LINE
  5
   353
  8
0
  6
CONTINUOUS
 62
     3
 10
-463.510060042971
 20
20.7210526896394
 30
0.0
 11
-483.13507530176
 21
20.7210526896394
 31
0.0
  0
LINE
  5
   354
  8
0
  6
CONTINUOUS
 62
     3
 10
-463.510060042971
 20
20.2210526896394
 30
0.0
 11
-483.13507530176
 21
20.2210526896394
 31
0.0
  0
LINE
  5
   355
  8
0
  6
CONTINUOUS
 62
   150
 10
-448.385052413576
 20
31.9716876896394
 30
0.0
 11
-448.385052413576
 21
32.4716876896394
 31
0.0
  0
LINE
  5
   356
  8
0
  6
CONTINUOUS
 62
     3
 10
-448.385052413576
 20
32.2210526896394
 30
0.0
 11
-452.760040969484
 21
32.2210526896394
 31
0.0
  0
LINE
  5
   357
  8
0
  6
CONTINUOUS
 62
     3
 10
-448.385052413576
 20
31.7210526896394
 30
0.0
 11
-452.760040969484
 21
31.7210526896394
 31
0.0
  0
LINE
  5
   358
  8
0
  6
CONTINUOUS
 62
   150
 10
-448.385052413576
 20
20.4716876896394
 30
0.0
 11
-448.385052413576
 21
20.9716876896394
 31
0.0
  0
LINE
  5
   359
  8
0
  6
CONTINUOUS
 62
     3
 10
-448.385052413576
 20
20.7210526896394
 30
0.0
 11
-452.760044784181
 21
20.7210526896394
 31
0.0
  0
LINE
  5
   35A
  8
0
  6
CONTINUOUS
 62
     3
 10
-448.385052413576
 20
20.2210526896394
 30
0.0
 11
-452.760044784181
 21
20.2210526896394
 31
0.0
  0
LINE
  5
   35B
  8
0
  6
CONTINUOUS
 62
   150
 10
-447.588118461601
 20
5.22092531789139
 30
0.0
 11
-484.136831950645
 21
5.22181373023562
 31
0.0
  0
LINE
  5
   35C
  8
0
  6
CONTINUOUS
 62
   150
 10
-452.760040969484
 20
36.4782739115633
 30
0.0
 11
-463.510040969484
 21
36.4782739115633
 31
0.0
  0
LINE
  5
   35D
  8
0
  6
CONTINUOUS
 62
   150
 10
-452.760040969484
 20
36.6986833048738
 30
0.0
 11
-463.510040969484
 21
36.6986833048738
 31
0.0
  0
LINE
  5
   35E
  8
0
  6
CONTINUOUS
 62
   150
 10
-452.760040969484
 20
16.0607570560945
 30
0.0
 11
-463.510040969484
 21
16.0607570560945
 31
0.0
  0
LINE
  5
   35F
  8
0
  6
CONTINUOUS
 62
   150
 10
-452.760040969484
 20
16.1450601054109
 30
0.0
 11
-463.510040969484
 21
16.1450601054109
 31
0.0
  0
LINE
  5
   360
  8
0
  6
DASHDOT
 62
     3
 10
-400.247051196947
 20
31.4710947246735
 30
0.0
 11
-505.261829197543
 21
31.4710947246735
 31
0.0
  0
INSERT
  5
   361
  8
255
  6
CONTINUOUS
 62
     7
  2
MOSTRA
 10
-515.55421421016
 20
-3.06027734563897
 30
0.0
 41
0.5
 42
0.5
 50
359.999999792138
 43
0.5
  0
LINE
  5
   362
  8
0
  6
CONTINUOUS
 62
     3
 10
-485.710060078276
 20
71.7179437847321
 30
0.0
 11
-485.710060078276
 21
95.3460523412606
 31
0.0
  0
LINE
  5
   363
  8
0
  6
CONTINUOUS
 62
     3
 10
-487.510060269011
 20
71.7179437847321
 30
0.0
 11
-487.510060269011
 21
95.3460523412606
 31
0.0
  0
LINE
  5
   364
  8
0
  6
CONTINUOUS
 62
     3
 10
-489.310059982909
 20
71.7179437847321
 30
0.0
 11
-489.310059982909
 21
95.3460523412606
 31
0.0
  0
LINE
  5
   365
  8
0
  6
CONTINUOUS
 62
     3
 10
-491.110060173644
 20
71.7179437847321
 30
0.0
 11
-491.110060173644
 21
95.3460523412606
 31
0.0
  0
LINE
  5
   366
  8
0
  6
CONTINUOUS
 62
     3
 10
-429.910061318053
 20
71.7179437847321
 30
0.0
 11
-429.910061318053
 21
95.3460523412606
 31
0.0
  0
LINE
  5
   367
  8
0
  6
CONTINUOUS
 62
     3
 10
-428.11006589569
 20
71.7179437847321
 30
0.0
 11
-428.11006589569
 21
95.3460523412606
 31
0.0
  0
LINE
  5
   368
  8
0
  6
CONTINUOUS
 62
     3
 10
-426.310062843932
 20
71.7179437847321
 30
0.0
 11
-426.310062843932
 21
95.3460523412606
 31
0.0
  0
LINE
  5
   369
  8
0
  6
CONTINUOUS
 62
     3
 10
-424.510067421568
 20
71.7179437847321
 30
0.0
 11
-424.510067421568
 21
95.3460523412606
 31
0.0
  0
LINE
  5
   36A
  8
0
  6
DOT
 62
     7
 10
-423.135056032661
 20
-8.77890527532647
 30
0.0
 11
-423.135056032661
 21
71.7179437847321
 31
0.0
  0
LINE
  5
   36B
  8
0
  6
DOT
 62
     7
 10
-410.135055274613
 20
-3.2789192199707
 30
0.0
 11
-423.135056032661
 21
-3.2789192199707
 31
0.0
  0
INSERT
  5
   36C
  8
0
  6
CONTINUOUS
 62
     7
  2
*UDIM164
 10
0.0
 20
0.0
 30
0.0
  0
INSERT
  5
   36D
  8
0
  6
CONTINUOUS
 62
     7
  2
*UDIM165
 10
0.0
 20
0.0
 30
0.0
  0
TEXT
  5
   36E
  8
0
  6
CONTINUOUS
 62
     7
 10
-497.870231621985
 20
21.3595071704511
 30
0.0
 40
3.00000002980232
  1
=     =
 50
89.9999999480344
 41
0.916666604744064
 72
     1
 11
-499.370231628418
 21
30.7095066308975
 31
0.0
 73
     2
  0
INSERT
  5
   36F
  8
0
  6
CONTINUOUS
 62
     7
  2
*UDIM166
 10
0.0
 20
0.0
 30
0.0
  0
INSERT
  5
   370
  8
0
  6
CONTINUOUS
 62
     7
  2
*UDIM167
 10
0.0
 20
0.0
 30
0.0
  0
INSERT
  5
   371
  8
0
  6
CONTINUOUS
 62
     7
  2
*UDIM168
 10
0.0
 20
0.0
 30
0.0
  0
INSERT
  5
   372
  8
0
  6
CONTINUOUS
 62
     7
  2
*UDIM169
 10
0.0
 20
0.0
 30
0.0
  0
TEXT
  5
   373
  8
0
  6
CONTINUOUS
 62
     7
 10
-458.638877780598
 20
-129.557458879452
 30
0.0
 40
3.00000002980232
  1
Y
 50
359.999999948034
 41
0.916666604744064
 72
     1
 11
-457.538877844811
 21
-128.057458865543
 31
0.0
 73
     2
  0
INSERT
  5
   374
  8
0
  6
CONTINUOUS
 62
     7
  2
*UDIM170
 10
0.0
 20
0.0
 30
0.0
  0
TEXT
  5
   375
  8
0
  6
CONTINUOUS
 62
     7
 10
-459.280964191119
 20
-46.5570912762474
 30
0.0
 40
3.00000002980232
  1
Y
 50
359.999999948034
 41
0.916666604744064
 72
     2
 11
-457.080964322249
 21
-46.5570912782317
 31
0.0
  0
TEXT
  5
   376
  8
0
  6
CONTINUOUS
 62
     7
 10
-517.308166415852
 20
30.2626326150672
 30
0.0
 40
3.00000002980232
  1
X
 50
359.999999948034
 41
0.916666604744064
 72
     1
 11
-516.208166480064
 21
31.7626326289762
 31
0.0
 73
     2
  0
TEXT
  5
   377
  8
0
  6
CONTINUOUS
 62
     7
 10
-459.28231802718
 20
108.630865342118
 30
0.0
 40
3.00000002980232
  1
Y
 50
359.999999948034
 41
0.916666604744064
 72
     1
 11
-458.182318091392
 21
110.130865356027
 31
0.0
 73
     2
  0
LINE
  5
   378
  8
0
  6
DASHDOT
 62
     3
 10
-550.281797627898
 20
31.4710941314697
 30
0.0
 11
-682.45719200678
 21
31.4710941314697
 31
0.0
  0
LINE
  5
   379
  8
0
  6
DASHDOT
 62
     7
 10
-533.021317858179
 20
31.4710941314697
 30
0.0
 11
-539.972810295316
 21
31.4710941314697
 31
0.0
  0
LINE
  5
   37A
  8
0
  6
CONTINUOUS
 62
     5
 10
-593.249046325684
 20
95.3460712432861
 30
0.0
 11
-642.499038696289
 21
95.3460712432861
 31
0.0
  0
LINE
  5
   37B
  8
0
  6
CONTINUOUS
 62
     5
 10
-642.999038696289
 20
82.3460883331122
 30
0.0
 11
-642.999038696289
 21
94.8460712432861
 31
0.0
  0
ARC
  5
   37C
  8
0
  6
CONTINUOUS
 62
     5
 10
-642.499038696289
 20
94.8460712432861
 30
0.0
 40
0.5
 50
89.9999999480344
 51
179.999999948034
  0
LINE
  5
   37D
  8
0
  6
CONTINUOUS
 62
     5
 10
-642.499038696289
 20
81.8460883331122
 30
0.0
 11
-642.499038696289
 21
82.3460883331122
 31
0.0
  0
LINE
  5
   37E
  8
0
  6
CONTINUOUS
 62
     5
 10
-642.499038696289
 20
82.3460883331122
 30
0.0
 11
-642.999038696289
 21
82.3460883331122
 31
0.0
  0
LINE
  5
   37F
  8
0
  6
CONTINUOUS
 62
     5
 10
-593.249045848847
 20
-34.1538964080987
 30
0.0
 11
-642.499038696289
 21
-34.1538964080987
 31
0.0
  0
LINE
  5
   380
  8
0
  6
CONTINUOUS
 62
     5
 10
-642.999038696289
 20
-33.6538964080987
 30
0.0
 11
-642.999038696289
 21
-21.4039040374935
 31
0.0
  0
ARC
  5
   381
  8
0
  6
CONTINUOUS
 62
     5
 10
-642.499038696289
 20
-33.6538964080987
 30
0.0
 40
0.5
 50
179.999999948034
 51
269.999999948034
  0
LINE
  5
   382
  8
0
  6
CONTINUOUS
 62
     5
 10
-642.499038696289
 20
-21.4039040374935
 30
0.0
 11
-642.999038696289
 21
-21.4039040374935
 31
0.0
  0
LINE
  5
   383
  8
0
  6
CONTINUOUS
 62
     5
 10
-642.499038696289
 20
-21.4039040374935
 30
0.0
 11
-642.499038696289
 21
-20.9039040374935
 31
0.0
  0
LINE
  5
   384
  8
0
  6
CONTINUOUS
 62
     3
 10
-571.749031066895
 20
92.6960773468018
 30
0.0
 11
-573.7490234375
 21
92.6960773468018
 31
0.0
  0
LINE
  5
   385
  8
0
  6
CONTINUOUS
 62
     3
 10
-568.2490234375
 20
92.6960773468018
 30
0.0
 11
-571.749031066895
 21
92.6960773468018
 31
0.0
  0
LINE
  5
   386
  8
0
  6
CONTINUOUS
 62
     3
 10
-571.749031066895
 20
77.4960041046143
 30
0.0
 11
-573.7490234375
 21
77.4960041046143
 31
0.0
  0
LINE
  5
   387
  8
0
  6
CONTINUOUS
 62
     3
 10
-568.2490234375
 20
77.4960041046143
 30
0.0
 11
-571.749031066895
 21
77.4960041046143
 31
0.0
  0
LINE
  5
   388
  8
0
  6
CONTINUOUS
 62
     3
 10
-571.749031066895
 20
-31.5039348602295
 30
0.0
 11
-573.7490234375
 21
-31.5039348602295
 31
0.0
  0
LINE
  5
   389
  8
0
  6
CONTINUOUS
 62
     3
 10
-568.2490234375
 20
-31.5039348602295
 30
0.0
 11
-571.749031066895
 21
-31.5039348602295
 31
0.0
  0
LINE
  5
   38A
  8
0
  6
CONTINUOUS
 62
     3
 10
-568.2490234375
 20
-31.5039348602295
 30
0.0
 11
-568.2490234375
 21
-16.303861618042
 31
0.0
  0
LINE
  5
   38B
  8
0
  6
CONTINUOUS
 62
     3
 10
-571.749031066895
 20
-16.303861618042
 30
0.0
 11
-573.7490234375
 21
-16.303861618042
 31
0.0
  0
LINE
  5
   38C
  8
0
  6
CONTINUOUS
 62
     3
 10
-568.2490234375
 20
-16.303861618042
 30
0.0
 11
-571.749031066895
 21
-16.303861618042
 31
0.0
  0
LINE
  5
   38D
  8
0
  6
CONTINUOUS
 62
     3
 10
-573.7490234375
 20
94.0960712432861
 30
0.0
 11
-592.249046325684
 21
94.0960712432861
 31
0.0
  0
LINE
  5
   38E
  8
0
  6
CONTINUOUS
 62
     2
 10
-593.249000549085
 20
72.5960483551025
 30
0.0
 11
-593.249000549085
 21
82.9033603668213
 31
0.0
  0
LINE
  5
   38F
  8
0
  6
CONTINUOUS
 62
     7
 10
-627.499031066895
 20
81.5960483551025
 30
0.0
 11
-629.249031066895
 21
81.5960483551025
 31
0.0
  0
LINE
  5
   390
  8
0
  6
CONTINUOUS
 62
     7
 10
-627.498977660778
 20
72.8460439954958
 30
0.0
 11
-627.498977660778
 21
81.5960439954958
 31
0.0
  0
LINE
  5
   391
  8
0
  6
CONTINUOUS
 62
     7
 10
-593.249031066895
 20
73.8460483551025
 30
0.0
 11
-595.249031066895
 21
73.8460483551025
 31
0.0
  0
LINE
  5
   392
  8
0
  6
CONTINUOUS
 62
     7
 10
-595.249032338277
 20
73.8460420068662
 30
0.0
 11
-595.24908027637
 21
92.6960715484442
 31
0.0
  0
LINE
  5
   393
  8
0
  6
CONTINUOUS
 62
     2
 10
-592.999046325684
 20
72.5960483551025
 30
0.0
 11
-593.249031066895
 21
72.5960483551025
 31
0.0
  0
LINE
  5
   394
  8
0
  6
CONTINUOUS
 62
     2
 10
-592.249046325684
 20
80.5960483551025
 30
0.0
 11
-593.249046325684
 21
80.5960483551025
 31
0.0
  0
LINE
  5
   395
  8
0
  6
CONTINUOUS
 62
     2
 10
-592.249046325684
 20
86.0960483551025
 30
0.0
 11
-593.249046325684
 21
86.0960483551025
 31
0.0
  0
LINE
  5
   396
  8
0
  6
CONTINUOUS
 62
     2
 10
-592.249046325684
 20
84.7518711090088
 30
0.0
 11
-593.249046325684
 21
84.7518711090088
 31
0.0
  0
LINE
  5
   397
  8
0
  6
CONTINUOUS
 62
     2
 10
-592.249046325684
 20
82.9033603668213
 30
0.0
 11
-593.249046325684
 21
82.9033603668213
 31
0.0
  0
LINE
  5
   398
  8
0
  6
CONTINUOUS
 62
     7
 10
-629.249031066895
 20
81.3460578155341
 30
0.0
 11
-629.249031066895
 21
81.8460654449286
 31
0.0
  0
LINE
  5
   399
  8
0
  6
CONTINUOUS
 62
     7
 10
-640.349029541016
 20
81.8460654449286
 30
0.0
 11
-640.499031066895
 21
81.8460654449286
 31
0.0
  0
LINE
  5
   39A
  8
0
  6
CONTINUOUS
 62
     7
 10
-627.749031066895
 20
81.3460730743232
 30
0.0
 11
-629.249031066895
 21
81.3460730743232
 31
0.0
  0
LINE
  5
   39B
  8
0
  6
CONTINUOUS
 62
     7
 10
-627.749031066895
 20
69.0960636138916
 30
0.0
 11
-627.749031066895
 21
81.3460730743232
 31
0.0
  0
LINE
  5
   39C
  8
0
  6
CONTINUOUS
 62
     7
 10
-640.349014282226
 20
69.0960636138916
 30
0.0
 11
-640.349014282226
 21
81.846059188536
 31
0.0
  0
LINE
  5
   39D
  8
0
  6
CONTINUOUS
 62
     2
 10
-593.249000549085
 20
92.6960715484443
 30
0.0
 11
-640.34903717041
 21
92.6960715484443
 31
0.0
  0
LINE
  5
   39E
  8
0
  6
CONTINUOUS
 62
     2
 10
-640.348983764642
 20
81.8460619994456
 30
0.0
 11
-640.348983764642
 21
92.6960681029612
 31
0.0
  0
LINE
  5
   39F
  8
0
  6
CONTINUOUS
 62
     7
 10
-629.249031066895
 20
81.8460730743232
 30
0.0
 11
-629.249031066895
 21
92.6960715484443
 31
0.0
  0
LINE
  5
   3A0
  8
0
  6
CONTINUOUS
 62
     7
 10
-642.999038696289
 20
-2.90389640809871
 30
0.0
 11
-642.999038696289
 21
-0.903947830200195
 31
0.0
  0
LINE
  5
   3A1
  8
0
  6
CONTINUOUS
 62
     7
 10
-642.999038696289
 20
69.0960636138916
 30
0.0
 11
-642.999038696289
 21
81.8460883331122
 31
0.0
  0
LINE
  5
   3A2
  8
0
  6
CONTINUOUS
 62
     7
 10
-640.499038696289
 20
81.8460883331122
 30
0.0
 11
-642.999038696289
 21
81.8460883331122
 31
0.0
  0
LINE
  5
   3A3
  8
0
  6
CONTINUOUS
 62
     7
 10
-640.499038696289
 20
-2.90389640809871
 30
0.0
 11
-642.999038696289
 21
-2.90389640809871
 31
0.0
  0
LINE
  5
   3A4
  8
0
  6
CONTINUOUS
 62
   218
 10
-593.249045848847
 20
-31.5038967895687
 30
0.0
 11
-640.349036693573
 21
-31.5038967895687
 31
0.0
  0
LINE
  5
   3A5
  8
0
  6
CONTINUOUS
 62
   218
 10
-640.349040698376
 20
-18.9039040379412
 30
0.0
 11
-640.499038695839
 21
-18.9039022773394
 31
0.0
  0
LINE
  5
   3A6
  8
0
  6
CONTINUOUS
 62
   218
 10
-640.349044799805
 20
-20.9039040374935
 30
0.0
 11
-642.499038696289
 21
-20.9039040374935
 31
0.0
  0
LINE
  5
   3A7
  8
0
  6
CONTINUOUS
 62
   218
 10
-640.349044799805
 20
-31.50389488222
 30
0.0
 11
-640.349044799805
 21
-18.9038964080989
 31
0.0
  0
LINE
  5
   3A8
  8
0
  6
CONTINUOUS
 62
   218
 10
-640.349044799805
 20
-18.9038964080989
 30
0.0
 11
-640.349044799805
 21
-2.90394592285156
 31
0.0
  0
LINE
  5
   3A9
  8
0
  6
CONTINUOUS
 62
     7
 10
-640.349044799805
 20
-3.40389640809894
 30
0.0
 11
-640.499038696289
 21
-3.40389640809894
 31
0.0
  0
LINE
  5
   3AA
  8
0
  6
CONTINUOUS
 62
   218
 10
-592.249046325522
 20
-15.9039040369987
 30
0.0
 11
-593.249045848662
 21
-15.9038964076042
 31
0.0
  0
LINE
  5
   3AB
  8
0
  6
CONTINUOUS
 62
   218
 10
-593.249045848847
 20
-34.1538964080987
 30
0.0
 11
-593.249045848847
 21
-15.9039040374932
 31
0.0
  0
LINE
  5
   3AC
  8
0
  6
CONTINUOUS
 62
   218
 10
-592.249046325684
 20
-21.2789040374935
 30
0.0
 11
-593.249046325684
 21
-21.2789040374935
 31
0.0
  0
LINE
  5
   3AD
  8
0
  6
CONTINUOUS
 62
   218
 10
-592.249046325684
 20
-25.6376996803463
 30
0.0
 11
-593.249046325684
 21
-25.6376996803463
 31
0.0
  0
LINE
  5
   3AE
  8
0
  6
CONTINUOUS
 62
   218
 10
-592.249046325684
 20
-24.4112053680599
 30
0.0
 11
-593.249046325684
 21
-24.4112053680599
 31
0.0
  0
LINE
  5
   3AF
  8
0
  6
CONTINUOUS
 62
     7
 10
-640.499038696289
 20
-3.1538964080987
 30
0.0
 11
-642.999038696289
 21
-3.1538964080987
 31
0.0
  0
LINE
  5
   3B0
  8
0
  6
CONTINUOUS
 62
     7
 10
-640.499038696289
 20
-20.6538964080987
 30
0.0
 11
-642.999038696289
 21
-20.6538964080987
 31
0.0
  0
LINE
  5
   3B1
  8
0
  6
CONTINUOUS
 62
     7
 10
-642.999038696289
 20
-20.6538964080987
 30
0.0
 11
-642.999038696289
 21
-3.1538964080987
 31
0.0
  0
LINE
  5
   3B2
  8
0
  6
CONTINUOUS
 62
     7
 10
-641.999038696289
 20
-20.6538964080987
 30
0.0
 11
-641.999038696289
 21
-3.1538964080987
 31
0.0
  0
LINE
  5
   3B3
  8
0
  6
CONTINUOUS
 62
     7
 10
-640.499038696289
 20
-20.6538964080987
 30
0.0
 11
-640.499038696289
 21
-3.1538964080987
 31
0.0
  0
LINE
  5
   3B4
  8
0
  6
CONTINUOUS
 62
     2
 10
-593.249000549085
 20
84.7518711090088
 30
0.0
 11
-593.249000549085
 21
95.3460712432861
 31
0.0
  0
LINE
  5
   3B5
  8
0
  6
CONTINUOUS
 62
     7
 10
-592.249046325684
 20
80.5960483551025
 30
0.0
 11
-592.249046325684
 21
86.0960483551025
 31
0.0
  0
LINE
  5
   3B6
  8
0
  6
CONTINUOUS
 62
     7
 10
-592.249046325684
 20
-25.6376996803469
 30
0.0
 11
-592.249046325684
 21
-21.2789040374941
 31
0.0
  0
LINE
  5
   3B7
  8
0
  6
CONTINUOUS
 62
     3
 10
-568.2490234375
 20
77.4960041046143
 30
0.0
 11
-568.2490234375
 21
92.6960773468018
 31
0.0
  0
LINE
  5
   3B8
  8
0
  6
CONTINUOUS
 62
     7
 10
-573.749027306407
 20
-32.903913497924
 30
0.0
 11
-592.249050194591
 21
-32.903913497924
 31
0.0
  0
LINE
  5
   3B9
  8
0
  6
CONTINUOUS
 62
     7
 10
-592.249046325684
 20
-23.9039363861084
 30
0.0
 11
-592.249046325684
 21
-3.2789478302002
 31
0.0
  0
LINE
  5
   3BA
  8
0
  6
CONTINUOUS
 62
     7
 10
-592.249046325684
 20
-32.9039363861084
 30
0.0
 11
-592.249046325684
 21
-31.5039119720459
 31
0.0
  0
LINE
  5
   3BB
  8
0
  6
CONTINUOUS
 62
     7
 10
-592.249046325684
 20
92.6960849761963
 30
0.0
 11
-592.249046325684
 21
94.0960712432861
 31
0.0
  0
LINE
  5
   3BC
  8
0
  6
CONTINUOUS
 62
     7
 10
-592.249046325684
 20
69.0960636138916
 30
0.0
 11
-592.249046325684
 21
85.0960865020752
 31
0.0
  0
LINE
  5
   3BD
  8
0
  6
CONTINUOUS
 62
     7
 10
-573.7490234375
 20
92.6960620880127
 30
0.0
 11
-573.7490234375
 21
94.0960712432861
 31
0.0
  0
LINE
  5
   3BE
  8
0
  6
CONTINUOUS
 62
     7
 10
-573.7490234375
 20
-32.9039440155029
 30
0.0
 11
-573.7490234375
 21
-31.5039229393005
 31
0.0
  0
LINE
  5
   3BF
  8
0
  6
CONTINUOUS
 62
     7
 10
-573.7490234375
 20
-23.9039516448975
 30
0.0
 11
-573.7490234375
 21
-16.303861618042
 31
0.0
  0
LINE
  5
   3C0
  8
0
  6
CONTINUOUS
 62
     7
 10
-567.4990234375
 20
60.5960712432861
 30
0.0
 11
-567.4990234375
 21
68.0960712432861
 31
0.0
  0
LINE
  5
   3C1
  8
0
  6
CONTINUOUS
 62
     7
 10
-567.4990234375
 20
-6.90389823913574
 30
0.0
 11
-567.4990234375
 21
0.596101760864258
 31
0.0
  0
LINE
  5
   3C2
  8
0
  6
CONTINUOUS
 62
     7
 10
-568.4990234375
 20
14.0960483551025
 30
0.0
 11
-569.49902456121
 21
14.0960483551025
 31
0.0
  0
LINE
  5
   3C3
  8
0
  6
CONTINUOUS
 62
     7
 10
-568.4990234375
 20
17.596040725708
 30
0.0
 11
-569.499024975207
 21
17.596040725708
 31
0.0
  0
LINE
  5
   3C4
  8
0
  6
CONTINUOUS
 62
     7
 10
-573.7490234375
 20
92.6960773468018
 30
0.0
 11
-592.249046325684
 21
92.6960773468018
 31
0.0
  0
LINE
  5
   3C5
  8
0
  6
CONTINUOUS
 62
     7
 10
-592.249046325684
 20
85.0960712432861
 30
0.0
 11
-592.249046325684
 21
92.6960773468018
 31
0.0
  0
LINE
  5
   3C6
  8
0
  6
CONTINUOUS
 62
     7
 10
-573.7490234375
 20
85.0960788726807
 30
0.0
 11
-573.7490234375
 21
92.6960773468018
 31
0.0
  0
LINE
  5
   3C7
  8
0
  6
CONTINUOUS
 62
     7
 10
-573.7490234375
 20
-31.5039210319519
 30
0.0
 11
-592.249046325684
 21
-31.5039210319519
 31
0.0
  0
LINE
  5
   3C8
  8
0
  6
CONTINUOUS
 62
     7
 10
-592.249046325684
 20
-31.5039210319519
 30
0.0
 11
-592.249046325684
 21
-23.9039440155029
 31
0.0
  0
LINE
  5
   3C9
  8
0
  6
CONTINUOUS
 62
     3
 10
-567.7490234375
 20
1.0960636138916
 30
0.0
 11
-568.4990234375
 21
1.0960636138916
 31
0.0
  0
LINE
  5
   3CA
  8
0
  6
CONTINUOUS
 62
     3
 10
-567.7490234375
 20
-7.4039363861084
 30
0.0
 11
-568.4990234375
 21
-7.4039363861084
 31
0.0
  0
LINE
  5
   3CB
  8
0
  6
CONTINUOUS
 62
     3
 10
-567.7490234375
 20
-12.9039363861084
 30
0.0
 11
-568.4990234375
 21
-12.9039363861084
 31
0.0
  0
LINE
  5
   3CC
  8
0
  6
CONTINUOUS
 62
     3
 10
-567.7490234375
 20
74.0960636138916
 30
0.0
 11
-568.4990234375
 21
74.0960636138916
 31
0.0
  0
LINE
  5
   3CD
  8
0
  6
CONTINUOUS
 62
     3
 10
-567.7490234375
 20
68.5960636138916
 30
0.0
 11
-568.4990234375
 21
68.5960636138916
 31
0.0
  0
LINE
  5
   3CE
  8
0
  6
CONTINUOUS
 62
     3
 10
-567.7490234375
 20
60.0960636138916
 30
0.0
 11
-568.4990234375
 21
60.0960636138916
 31
0.0
  0
LINE
  5
   3CF
  8
0
  6
CONTINUOUS
 62
     3
 10
-568.4990234375
 20
68.0960712432861
 30
0.0
 11
-568.4990234375
 21
74.0960636138916
 31
0.0
  0
LINE
  5
   3D0
  8
0
  6
CONTINUOUS
 62
     3
 10
-568.4990234375
 20
0.596139907836914
 30
0.0
 11
-568.4990234375
 21
60.5960865020752
 31
0.0
  0
LINE
  5
   3D1
  8
0
  6
CONTINUOUS
 62
     3
 10
-568.4990234375
 20
-12.9039363861084
 30
0.0
 11
-568.4990234375
 21
-6.90386009216309
 31
0.0
  0
LINE
  5
   3D2
  8
0
  6
CONTINUOUS
 62
     3
 10
-567.7490234375
 20
-12.9039363861084
 30
0.0
 11
-567.7490234375
 21
-6.90390586853027
 31
0.0
  0
LINE
  5
   3D3
  8
0
  6
CONTINUOUS
 62
     3
 10
-567.7490234375
 20
0.596086502075195
 30
0.0
 11
-567.7490234375
 21
60.5960178375244
 31
0.0
  0
LINE
  5
   3D4
  8
0
  6
CONTINUOUS
 62
     3
 10
-567.7490234375
 20
68.0960330963135
 30
0.0
 11
-567.7490234375
 21
74.0960636138916
 31
0.0
  0
LINE
  5
   3D5
  8
0
  6
CONTINUOUS
 62
     7
 10
-567.4990234375
 20
68.0960712432861
 30
0.0
 11
-569.49903094861
 21
68.0960712432861
 31
0.0
  0
LINE
  5
   3D6
  8
0
  6
CONTINUOUS
 62
     7
 10
-567.4990234375
 20
60.5960712432861
 30
0.0
 11
-569.499030061471
 21
60.5960712432861
 31
0.0
  0
LINE
  5
   3D7
  8
0
  6
CONTINUOUS
 62
     7
 10
-567.4990234375
 20
0.596101760864258
 30
0.0
 11
-569.499028985877
 21
0.596101760864258
 31
0.0
  0
LINE
  5
   3D8
  8
0
  6
CONTINUOUS
 62
     7
 10
-567.4990234375
 20
-6.90389823913574
 30
0.0
 11
-573.7490234375
 21
-6.90389823913574
 31
0.0
  0
LINE
  5
   3D9
  8
0
  6
DASHDOT
 62
     7
 10
-567.4990234375
 20
0.596101760864254
 30
0.0
 11
-567.4990234375
 21
60.5960712432861
 31
0.0
  0
LINE
  5
   3DA
  8
0
  6
DASHDOT
 62
     7
 10
-567.4990234375
 20
-50.2164602167128
 30
0.0
 11
-567.4990234375
 21
-6.90389823913574
 31
0.0
  0
LINE
  5
   3DB
  8
0
  6
DASHDOT
 62
     7
 10
-567.4990234375
 20
68.0960712432861
 30
0.0
 11
-567.4990234375
 21
101.70155119844
 31
0.0
  0
LINE
  5
   3DC
  8
0
  6
DASHDOT
 62
     7
 10
-565.9990234375
 20
-48.5811748408769
 30
0.0
 11
-565.9990234375
 21
102.355665348774
 31
0.0
  0
LINE
  5
   3DD
  8
0
  6
CONTINUOUS
 62
     7
 10
-571.50725529508
 20
101.926270492045
 30
0.0
 11
-561.902859388724
 21
103.318211927749
 31
0.0
  0
LINE
  5
   3DE
  8
0
  6
CONTINUOUS
 62
     7
 10
-571.924837725791
 20
-51.1176903635841
 30
0.0
 11
-562.877218393717
 21
-46.663477769332
 31
0.0
  0
LINE
  5
   3DF
  8
0
  6
CONTINUOUS
 62
     7
 10
-573.7490234375
 20
77.4960041046143
 30
0.0
 11
-573.7490234375
 21
85.096040725708
 31
0.0
  0
LINE
  5
   3E0
  8
0
  6
CONTINUOUS
 62
     7
 10
-573.7490234375
 20
69.0960636138916
 30
0.0
 11
-573.7490234375
 21
77.4960041046143
 31
0.0
  0
LINE
  5
   3E1
  8
0
  6
CONTINUOUS
 62
     7
 10
-573.7490234375
 20
-6.90389823913574
 30
0.0
 11
-573.7490234375
 21
-0.904061416036043
 31
0.0
  0
LINE
  5
   3E2
  8
0
  6
CONTINUOUS
 62
     7
 10
-573.7490234375
 20
-16.303861618042
 30
0.0
 11
-573.7490234375
 21
-6.90389823913574
 31
0.0
  0
LINE
  5
   3E3
  8
0
  6
CONTINUOUS
 62
     7
 10
-573.7490234375
 20
-31.5039348602295
 30
0.0
 11
-573.7490234375
 21
-23.9039440155029
 31
0.0
  0
LINE
  5
   3E4
  8
0
  6
DASHDOT
 62
     7
 10
-561.094721883038
 20
64.3460712432861
 30
0.0
 11
-576.463760795209
 21
64.3460712432861
 31
0.0
  0
LINE
  5
   3E5
  8
0
  6
DASHDOT
 62
     7
 10
-561.376722597022
 20
-3.15392875671387
 30
0.0
 11
-577.591763651148
 21
-3.15392875671387
 31
0.0
  0
LINE
  5
   3E6
  8
0
  6
CONTINUOUS
 62
   130
 10
-656.998990059997
 20
4.59604645241465
 30
0.0
 11
-656.999015809205
 21
6.59605980385508
 31
0.0
  0
LINE
  5
   3E7
  8
0
  6
CONTINUOUS
 62
   130
 10
-656.999015809124
 20
-0.903951641420882
 30
0.0
 11
-656.998991013592
 21
1.09604072918459
 31
0.0
  0
LINE
  5
   3E8
  8
0
  6
CONTINUOUS
 62
   130
 10
-591.249046117694
 20
-0.904010727907252
 30
0.0
 11
-592.249046117694
 21
-0.903947785402369
 31
0.0
  0
LINE
  5
   3E9
  8
0
  6
CONTINUOUS
 62
   130
 10
-594.749053955078
 20
-0.903947830200195
 30
0.0
 11
-654.499015808106
 21
-0.903947830200195
 31
0.0
  0
LINE
  5
   3EA
  8
0
  6
CONTINUOUS
 62
   130
 10
-569.499031066895
 20
69.0960636138916
 30
0.0
 11
-591.249053955078
 21
69.0960636138916
 31
0.0
  0
LINE
  5
   3EB
  8
0
  6
CONTINUOUS
 62
   130
 10
-569.499031066273
 20
-0.904073715115253
 30
0.0
 11
-591.249046325062
 21
-0.904010772611574
 31
0.0
  0
LINE
  5
   3EC
  8
0
  6
CONTINUOUS
 62
   130
 10
-569.499031066823
 20
-0.90407371516644
 30
0.0
 11
-569.499023437429
 21
4.59603500370563
 31
0.0
  0
LINE
  5
   3ED
  8
0
  6
CONTINUOUS
 62
     7
 10
-611.7490234375
 20
53.0960712432861
 30
0.0
 11
-656.999015808105
 21
53.0960712432861
 31
0.0
  0
LINE
  5
   3EE
  8
0
  6
CONTINUOUS
 62
     7
 10
-611.7490234375
 20
38.0960445404053
 30
0.0
 11
-656.999015808105
 21
38.0960445404053
 31
0.0
  0
LINE
  5
   3EF
  8
0
  6
CONTINUOUS
 62
   130
 10
-656.998991012574
 20
1.09604072570984
 30
0.0
 11
-656.9989900589
 21
4.59604644775574
 31
0.0
  0
LINE
  5
   3F0
  8
0
  6
CONTINUOUS
 62
   130
 10
-591.249053955078
 20
69.0960636138916
 30
0.0
 11
-656.999015808105
 21
69.0960636138916
 31
0.0
  0
LINE
  5
   3F1
  8
0
  6
CONTINUOUS
 62
   130
 10
-656.999015808105
 20
53.0960712432861
 30
0.0
 11
-656.999015808105
 21
69.0960636138916
 31
0.0
  0
LINE
  5
   3F2
  8
0
  6
CONTINUOUS
 62
     7
 10
-605.874053954912
 20
1.09607124332675
 30
0.0
 11
-593.249046325518
 21
1.09609413151018
 31
0.0
  0
LINE
  5
   3F3
  8
0
  6
CONTINUOUS
 62
     7
 10
-626.311523437486
 20
1.09605979919956
 30
0.0
 11
-607.874053955064
 21
1.09607124329088
 31
0.0
  0
LINE
  5
   3F4
  8
0
  6
CONTINUOUS
 62
     7
 10
-654.998961448663
 20
1.09604263306208
 30
0.0
 11
-628.311522483819
 21
1.09605979919943
 31
0.0
  0
LINE
  5
   3F5
  8
0
  6
CONTINUOUS
 62
     7
 10
-654.998956680292
 20
3.34604644775924
 30
0.0
 11
-628.311521530145
 21
3.34606361389717
 31
0.0
  0
LINE
  5
   3F6
  8
0
  6
CONTINUOUS
 62
     7
 10
-626.311521530138
 20
3.34606552124575
 30
0.0
 11
-607.874050140367
 21
3.34607696533721
 31
0.0
  0
LINE
  5
   3F7
  8
0
  6
CONTINUOUS
 62
     7
 10
-605.874050140363
 20
3.34607887268554
 30
0.0
 11
-593.249046325665
 21
3.34608650208011
 31
0.0
  0
LINE
  5
   3F8
  8
0
  6
CONTINUOUS
 62
     7
 10
-654.998961448686
 20
1.0960426331274
 30
0.0
 11
-654.998957633988
 21
3.34604644782467
 31
0.0
  0
LINE
  5
   3F9
  8
0
  6
CONTINUOUS
 62
     7
 10
-593.249046325684
 20
1.09609413146973
 30
0.0
 11
-593.249046325684
 21
3.3460865020752
 31
0.0
  0
LINE
  5
   3FA
  8
0
  6
CONTINUOUS
 62
     7
 10
-605.874053955024
 20
1.09607124336337
 30
0.0
 11
-605.874050140326
 21
3.34609031684969
 31
0.0
  0
LINE
  5
   3FB
  8
0
  6
CONTINUOUS
 62
     7
 10
-607.874053955027
 20
1.0960712433569
 30
0.0
 11
-607.874050140329
 21
3.34608840949459
 31
0.0
  0
LINE
  5
   3FC
  8
0
  6
CONTINUOUS
 62
     7
 10
-626.311523437494
 20
1.09605979921364
 30
0.0
 11
-626.311521530145
 21
3.34607696535134
 31
0.0
  0
LINE
  5
   3FD
  8
0
  6
CONTINUOUS
 62
     7
 10
-628.31152248382
 20
1.09605979921203
 30
0.0
 11
-628.311520576472
 21
3.34607505800109
 31
0.0
  0
LINE
  5
   3FE
  8
0
  6
CONTINUOUS
 62
   130
 10
-640.999016523361
 20
-2.90394592285156
 30
0.0
 11
-640.999016523361
 21
-0.903945922851563
 31
0.0
  0
LINE
  5
   3FF
  8
0
  6
CONTINUOUS
 62
   130
 10
-638.999016284943
 20
-2.90394592285156
 30
0.0
 11
-638.999016284943
 21
-0.903945922851563
 31
0.0
  0
LINE
  5
   400
  8
0
  6
CONTINUOUS
 62
   130
 10
-638.999016284943
 20
-2.90394592285156
 30
0.0
 11
-640.999016523361
 21
-2.90394592285156
 31
0.0
  0
LINE
  5
   401
  8
0
  6
CONTINUOUS
 62
   130
 10
-599.124015808106
 20
-2.9039192199707
 30
0.0
 11
-599.124015808106
 21
-0.903955459594727
 31
0.0
  0
LINE
  5
   402
  8
0
  6
CONTINUOUS
 62
   130
 10
-597.124015808106
 20
-2.9039192199707
 30
0.0
 11
-597.124015808106
 21
-0.903955459594727
 31
0.0
  0
LINE
  5
   403
  8
0
  6
CONTINUOUS
 62
   130
 10
-597.124015808106
 20
-2.9039192199707
 30
0.0
 11
-599.124015808106
 21
-2.9039192199707
 31
0.0
  0
LINE
  5
   404
  8
0
  6
CONTINUOUS
 62
   130
 10
-654.499015808106
 20
-3.2789478302002
 30
0.0
 11
-654.499015808106
 21
-2.0289478302002
 31
0.0
  0
LINE
  5
   405
  8
0
  6
CONTINUOUS
 62
   130
 10
-656.999015808105
 20
-3.2789478302002
 30
0.0
 11
-656.999015808105
 21
-0.903951644897461
 31
0.0
  0
LINE
  5
   406
  8
0
  6
CONTINUOUS
 62
   130
 10
-654.499015808106
 20
-3.2789478302002
 30
0.0
 11
-656.999015808105
 21
-3.2789478302002
 31
0.0
  0
LINE
  5
   407
  8
0
  6
CONTINUOUS
 62
   130
 10
-654.499015808106
 20
-2.0289478302002
 30
0.0
 11
-654.499015808106
 21
-0.903947830200195
 31
0.0
  0
LINE
  5
   408
  8
0
  6
CONTINUOUS
 62
   130
 10
-594.749061584473
 20
-3.2789478302002
 30
0.0
 11
-594.749061584473
 21
-2.0289478302002
 31
0.0
  0
LINE
  5
   409
  8
0
  6
CONTINUOUS
 62
   130
 10
-592.249061584473
 20
-3.2789478302002
 30
0.0
 11
-594.749061584473
 21
-3.2789478302002
 31
0.0
  0
LINE
  5
   40A
  8
0
  6
CONTINUOUS
 62
   130
 10
-592.24906158341
 20
-3.27894782936459
 30
0.0
 11
-592.249046324621
 21
-0.903947829364586
 31
0.0
  0
LINE
  5
   40B
  8
0
  6
CONTINUOUS
 62
   130
 10
-594.749061583346
 20
-2.02894782921166
 30
0.0
 11
-594.749053953951
 21
-0.903955458606191
 31
0.0
  0
LINE
  5
   40C
  8
0
  6
CONTINUOUS
 62
     7
 10
-653.499019557339
 20
58.8460798709894
 30
0.0
 11
-654.999019590289
 21
60.3460799039403
 31
0.0
  0
LINE
  5
   40D
  8
0
  6
CONTINUOUS
 62
   130
 10
-656.999015808105
 20
6.59605979919434
 30
0.0
 11
-656.999015808105
 21
38.0960559844971
 31
0.0
  0
LINE
  5
   40E
  8
0
  6
CONTINUOUS
 62
     7
 10
-611.7490234375
 20
38.0960445404053
 30
0.0
 11
-611.7490234375
 21
53.0960712432861
 31
0.0
  0
LINE
  5
   40F
  8
0
  6
CONTINUOUS
 62
     7
 10
-649.249016284943
 20
52.8460712432861
 30
0.0
 11
-649.249016284943
 21
53.0960712432861
 31
0.0
  0
LINE
  5
   410
  8
0
  6
CONTINUOUS
 62
     7
 10
-605.87405395506
 20
62.4710636139071
 30
0.0
 11
-593.249046325665
 21
62.4710712433019
 31
0.0
  0
LINE
  5
   411
  8
0
  6
CONTINUOUS
 62
     7
 10
-605.874053955078
 20
58.8460636138916
 30
0.0
 11
-605.874053955078
 21
62.4710636138916
 31
0.0
  0
LINE
  5
   412
  8
0
  6
CONTINUOUS
 62
     7
 10
-605.87405395506
 20
58.8460636139065
 30
0.0
 11
-593.249046325665
 21
58.8460712433012
 31
0.0
  0
LINE
  5
   413
  8
0
  6
CONTINUOUS
 62
     7
 10
-593.249046325684
 20
58.8460712432861
 30
0.0
 11
-593.249046325684
 21
62.4710712432861
 31
0.0
  0
LINE
  5
   414
  8
0
  6
CONTINUOUS
 62
     7
 10
-628.311522483826
 20
58.8460712432861
 30
0.0
 11
-628.311522483826
 21
62.4710712432861
 31
0.0
  0
LINE
  5
   415
  8
0
  6
CONTINUOUS
 62
     7
 10
-607.874053955078
 20
58.8460712432861
 30
0.0
 11
-628.3115234375
 21
58.8460712432861
 31
0.0
  0
LINE
  5
   416
  8
0
  6
CONTINUOUS
 62
     7
 10
-607.874053955078
 20
58.8460712432861
 30
0.0
 11
-607.874053955078
 21
62.4710712432861
 31
0.0
  0
LINE
  5
   417
  8
0
  6
CONTINUOUS
 62
     7
 10
-607.874053955078
 20
62.4710712432861
 30
0.0
 11
-628.3115234375
 21
62.4710712432861
 31
0.0
  0
LINE
  5
   418
  8
0
  6
CONTINUOUS
 62
     7
 10
-630.311522483826
 20
58.8460712432861
 30
0.0
 11
-654.999014854431
 21
58.8460712432861
 31
0.0
  0
LINE
  5
   419
  8
0
  6
CONTINUOUS
 62
     7
 10
-630.311522483826
 20
58.8460712432861
 30
0.0
 11
-630.311522483826
 21
62.4710712432861
 31
0.0
  0
LINE
  5
   41A
  8
0
  6
CONTINUOUS
 62
     7
 10
-630.311522483826
 20
62.4710712432861
 30
0.0
 11
-654.999014854431
 21
62.4710712432861
 31
0.0
  0
LINE
  5
   41B
  8
0
  6
CONTINUOUS
 62
     7
 10
-654.999015808106
 20
58.8460712432861
 30
0.0
 11
-654.999015808106
 21
62.4710712432861
 31
0.0
  0
LINE
  5
   41C
  8
0
  6
CONTINUOUS
 62
     7
 10
-649.999016284943
 20
1.09604644775391
 30
0.0
 11
-649.999016284943
 21
3.34606170654297
 31
0.0
  0
LINE
  5
   41D
  8
0
  6
CONTINUOUS
 62
     7
 10
-647.999014854431
 20
1.09604835510254
 30
0.0
 11
-647.999014854431
 21
3.34606170654297
 31
0.0
  0
LINE
  5
   41E
  8
0
  6
CONTINUOUS
 62
     7
 10
-654.998820304872
 20
1.09603118896927
 30
0.0
 11
-654.998819351197
 21
3.34604644775833
 31
0.0
  0
LINE
  5
   41F
  8
0
  6
CONTINUOUS
 62
   130
 10
-656.999015808202
 20
-0.903974532751963
 30
0.0
 11
-656.999013900853
 21
-0.40393829312794
 31
0.0
  0
LINE
  5
   420
  8
0
  6
CONTINUOUS
 62
   130
 10
-591.249050128157
 20
-0.904006955374754
 30
0.0
 11
-592.24904631346
 21
-0.903991696585692
 31
0.0
  0
LINE
  5
   421
  8
0
  6
CONTINUOUS
 62
   130
 10
-569.499023437499
 20
4.5960350036625
 30
0.0
 11
-569.499031066894
 21
69.0960655212406
 31
0.0
  0
LINE
  5
   422
  8
0
  6
CONTINUOUS
 62
     7
 10
-605.848022460938
 20
1.0960636138916
 30
0.0
 11
-605.848022460938
 21
3.34607887268066
 31
0.0
  0
LINE
  5
   423
  8
0
  6
CONTINUOUS
 62
     7
 10
-607.874660491943
 20
1.09604072570801
 30
0.0
 11
-607.874660491943
 21
3.34607696533203
 31
0.0
  0
LINE
  5
   424
  8
0
  6
CONTINUOUS
 62
     7
 10
-618.999015808106
 20
52.8460712432861
 30
0.0
 11
-656.999015808105
 21
52.8460712432861
 31
0.0
  0
LINE
  5
   425
  8
0
  6
CONTINUOUS
 62
     7
 10
-618.999015808106
 20
38.0960445404053
 30
0.0
 11
-618.999015808106
 21
52.8460712432861
 31
0.0
  0
LINE
  5
   426
  8
0
  6
CONTINUOUS
 62
     7
 10
-656.999015808105
 20
38.0960559844971
 30
0.0
 11
-656.999015808105
 21
52.8460712432861
 31
0.0
  0
LINE
  5
   427
  8
0
  6
CONTINUOUS
 62
   150
 10
-656.998997688294
 20
5.2210693359375
 30
0.0
 11
-662.499021530151
 21
5.2210693359375
 31
0.0
  0
LINE
  5
   428
  8
0
  6
CONTINUOUS
 62
   150
 10
-656.999015808105
 20
57.7210941314697
 30
0.0
 11
-662.499021530151
 21
57.7210941314697
 31
0.0
  0
LINE
  5
   429
  8
0
  6
CONTINUOUS
 62
   150
 10
-665.249166706616
 20
5.47079724639334
 30
0.0
 11
-665.249023655463
 21
5.47183293671845
 31
0.0
  0
LINE
  5
   42A
  8
0
  6
CONTINUOUS
 62
     7
 10
-653.498956680299
 20
1.09605598450189
 30
0.0
 11
-653.498957633973
 21
3.34605979919916
 31
0.0
  0
LINE
  5
   42B
  8
0
  6
CONTINUOUS
 62
     7
 10
-593.249046325684
 20
59.5960712432861
 30
0.0
 11
-605.874046325684
 21
59.5960712432861
 31
0.0
  0
LINE
  5
   42C
  8
0
  6
CONTINUOUS
 62
     7
 10
-607.874050140381
 20
59.5960712432861
 30
0.0
 11
-628.311517715454
 21
59.5960712432861
 31
0.0
  0
LINE
  5
   42D
  8
0
  6
CONTINUOUS
 62
     7
 10
-630.311517715454
 20
59.5960712432861
 30
0.0
 11
-653.499015808106
 21
59.5960712432861
 31
0.0
  0
LINE
  5
   42E
  8
0
  6
CONTINUOUS
 62
     7
 10
-653.874014006915
 20
59.2210792833296
 30
0.0
 11
-653.499013998677
 21
59.5960792915673
 31
0.0
  0
LINE
  5
   42F
  8
0
  6
CONTINUOUS
 62
     7
 10
-653.499015808106
 20
59.5960712432861
 30
0.0
 11
-653.499015808106
 21
62.4710712432861
 31
0.0
  0
CIRCLE
  5
   430
  8
0
  6
CONTINUOUS
 62
   130
 10
-650.999057247068
 20
30.5960399026657
 30
0.0
 40
4.99999574190984
  0
CIRCLE
  5
   431
  8
0
  6
CONTINUOUS
 62
   130
 10
-650.999052900096
 20
30.5960369077895
 30
0.0
 40
1.37500202053542
  0
CIRCLE
  5
   432
  8
0
  6
CONTINUOUS
 62
   130
 10
-579.749027588844
 20
57.5960317731991
 30
0.0
 40
3.00003377345636
  0
CIRCLE
  5
   433
  8
0
  6
CONTINUOUS
 62
   130
 10
-579.749047080876
 20
57.5960540455517
 30
0.0
 40
1.62500474936432
  0
CIRCLE
  5
   434
  8
0
  6
CONTINUOUS
 62
   130
 10
-579.749048254777
 20
7.59605663334682
 30
0.0
 40
3.00000118551883
  0
CIRCLE
  5
   435
  8
0
  6
CONTINUOUS
 62
   130
 10
-579.749043403106
 20
7.59606089451107
 30
0.0
 40
1.62500420410752
  0
LINE
  5
   436
  8
0
  6
DASHDOT
 62
     7
 10
-579.749027588844
 20
54.0959979997427
 30
0.0
 11
-579.749027588844
 21
61.0960655466554
 31
0.0
  0
LINE
  5
   437
  8
0
  6
DASHDOT
 62
     7
 10
-576.248993815388
 20
57.5960317731991
 30
0.0
 11
-583.249061362301
 21
57.5960317731991
 31
0.0
  0
LINE
  5
   438
  8
0
  6
DASHDOT
 62
     7
 10
-579.749048254777
 20
4.09605544782798
 30
0.0
 11
-579.749048254777
 21
11.0960578188657
 31
0.0
  0
LINE
  5
   439
  8
0
  6
DASHDOT
 62
     7
 10
-576.249047069258
 20
7.59605663334682
 30
0.0
 11
-583.249049440296
 21
7.59605663334682
 31
0.0
  0
LINE
  5
   43A
  8
0
  6
CONTINUOUS
 62
     7
 10
-592.999046325684
 20
69.0960636138916
 30
0.0
 11
-592.999046325684
 21
72.5960483551025
 31
0.0
  0
LINE
  5
   43B
  8
0
  6
CONTINUOUS
 62
     7
 10
-662.4990234375
 20
-42.7633557473316
 30
0.0
 11
-662.4990234375
 21
-5.52899932861328
 31
0.0
  0
LINE
  5
   43C
  8
0
  6
CONTINUOUS
 62
     7
 10
-663.4990234375
 20
-42.9318950731743
 30
0.0
 11
-663.4990234375
 21
5.2210693359375
 31
0.0
  0
LINE
  5
   43D
  8
0
  6
CONTINUOUS
 62
     7
 10
-666.097221124068
 20
-43.3697935596745
 30
0.0
 11
-659.612717947761
 21
-42.2768997659149
 31
0.0
  0
LINE
  5
   43E
  8
0
  6
CONTINUOUS
 62
     7
 10
-660.195594637766
 20
90.4004067964962
 30
0.0
 11
-664.712888985306
 21
91.639019762757
 31
0.0
  0
LINE
  5
   43F
  8
0
  6
CONTINUOUS
 62
     7
 10
-663.4990234375
 20
57.7210941314697
 30
0.0
 11
-663.4990234375
 21
91.3061856609393
 31
0.0
  0
LINE
  5
   440
  8
0
  6
DASHDOT
 62
     7
 10
-650.999057247068
 20
25.0960441607559
 30
0.0
 11
-650.999057247068
 21
36.0960356445756
 31
0.0
  0
LINE
  5
   441
  8
0
  6
DASHDOT
 62
     7
 10
-645.499061505158
 20
30.5960399026657
 30
0.0
 11
-656.499052988978
 21
30.5960399026657
 31
0.0
  0
LINE
  5
   442
  8
0
  6
CONTINUOUS
 62
     7
 10
-658.499021530151
 20
14.5961017608643
 30
0.0
 11
-658.499021530151
 21
21.0959987640381
 31
0.0
  0
LINE
  5
   443
  8
0
  6
CONTINUOUS
 62
     1
 10
-663.499021530151
 20
-8.7790002822876
 30
0.0
 11
-663.499021530151
 21
71.7209997177124
 31
0.0
  0
LINE
  5
   444
  8
0
  6
CONTINUOUS
 62
     1
 10
-663.499021530151
 20
-8.7790002822876
 30
0.0
 11
-665.249021530151
 21
-8.7790002822876
 31
0.0
  0
LINE
  5
   445
  8
0
  6
CONTINUOUS
 62
     1
 10
-665.249021530151
 20
-8.7790002822876
 30
0.0
 11
-665.249021530151
 21
13.5959997177124
 31
0.0
  0
LINE
  5
   446
  8
0
  6
CONTINUOUS
 62
     1
 10
-665.249021530151
 20
22.0959987640381
 30
0.0
 11
-665.249021530151
 21
71.7210025787354
 31
0.0
  0
LINE
  5
   447
  8
0
  6
CONTINUOUS
 62
     1
 10
-663.499021530151
 20
71.7210025787354
 30
0.0
 11
-665.249021530151
 21
71.7210025787354
 31
0.0
  0
LINE
  5
   448
  8
0
  6
CONTINUOUS
 62
     1
 10
-662.499021530151
 20
32.9710025787354
 30
0.0
 11
-662.499021530151
 21
65.4710025787354
 31
0.0
  0
LINE
  5
   449
  8
0
  6
CONTINUOUS
 62
     1
 10
-662.499021530151
 20
21.0960025787354
 30
0.0
 11
-662.499021530151
 21
29.9710063934326
 31
0.0
  0
LINE
  5
   44A
  8
0
  6
CONTINUOUS
 62
     7
 10
-660.249021530151
 20
-5.24032402038574
 30
0.0
 11
-660.249021530151
 21
-2.81767463684082
 31
0.0
  0
LINE
  5
   44B
  8
0
  6
CONTINUOUS
 62
     7
 10
-660.249021530151
 20
65.7596759796143
 30
0.0
 11
-660.249021530151
 21
68.1823291778564
 31
0.0
  0
LINE
  5
   44C
  8
0
  6
CONTINUOUS
 62
     7
 10
-660.249021530151
 20
30.2596759796143
 30
0.0
 11
-660.249021530151
 21
32.6823253631592
 31
0.0
  0
LINE
  5
   44D
  8
0
  6
CONTINUOUS
 62
     1
 10
-664.749021530151
 20
13.5959987640381
 30
0.0
 11
-665.249021530151
 21
13.5959987640381
 31
0.0
  0
LINE
  5
   44E
  8
0
  6
CONTINUOUS
 62
     1
 10
-664.749021530151
 20
22.0959987640381
 30
0.0
 11
-665.249021530151
 21
22.0959987640381
 31
0.0
  0
LINE
  5
   44F
  8
0
  6
CONTINUOUS
 62
     3
 10
-665.249021530151
 20
14.0959987640381
 30
0.0
 11
-665.249021530151
 21
21.5959987640381
 31
0.0
  0
LINE
  5
   450
  8
0
  6
CONTINUOUS
 62
     7
 10
-664.749021530151
 20
14.0959987640381
 30
0.0
 11
-665.249021530151
 21
14.0959987640381
 31
0.0
  0
LINE
  5
   451
  8
0
  6
CONTINUOUS
 62
     7
 10
-664.749021530151
 20
12.0959987640381
 30
0.0
 11
-664.749021530151
 21
14.0959987640381
 31
0.0
  0
LINE
  5
   452
  8
0
  6
CONTINUOUS
 62
     7
 10
-664.249021530151
 20
12.0959987640381
 30
0.0
 11
-664.749021530151
 21
12.0959987640381
 31
0.0
  0
LINE
  5
   453
  8
0
  6
CONTINUOUS
 62
     7
 10
-664.249021530151
 20
12.0959987640381
 30
0.0
 11
-664.249021530151
 21
23.5959987640381
 31
0.0
  0
LINE
  5
   454
  8
0
  6
CONTINUOUS
 62
     7
 10
-664.249021530151
 20
23.5959987640381
 30
0.0
 11
-664.749021530151
 21
23.5959987640381
 31
0.0
  0
LINE
  5
   455
  8
0
  6
CONTINUOUS
 62
     7
 10
-664.749021530151
 20
21.5959987640381
 30
0.0
 11
-664.749021530151
 21
23.5959987640381
 31
0.0
  0
LINE
  5
   456
  8
0
  6
CONTINUOUS
 62
     7
 10
-664.749021530151
 20
21.5959987640381
 30
0.0
 11
-665.249021530151
 21
21.5959987640381
 31
0.0
  0
LINE
  5
   457
  8
0
  6
CONTINUOUS
 62
     7
 10
-658.499021530151
 20
14.5961017608643
 30
0.0
 11
-663.499021530151
 21
14.5961017608643
 31
0.0
  0
LINE
  5
   458
  8
0
  6
CONTINUOUS
 62
     7
 10
-658.499021530151
 20
21.0959987640381
 30
0.0
 11
-663.499021530151
 21
21.0959987640381
 31
0.0
  0
LINE
  5
   459
  8
0
  6
CONTINUOUS
 62
     1
 10
-665.249021530151
 20
13.5960025787354
 30
0.0
 11
-665.249021530151
 21
14.0959987640381
 31
0.0
  0
LINE
  5
   45A
  8
0
  6
CONTINUOUS
 62
     1
 10
-665.249021530151
 20
21.5959987640381
 30
0.0
 11
-665.249021530151
 21
22.0960025787354
 31
0.0
  0
LINE
  5
   45B
  8
0
  6
CONTINUOUS
 62
     7
 10
-660.749021530151
 20
-5.52899932861328
 30
0.0
 11
-663.499021530151
 21
-5.52899932861328
 31
0.0
  0
LINE
  5
   45C
  8
0
  6
CONTINUOUS
 62
     7
 10
-660.749021530151
 20
-2.52899932861328
 30
0.0
 11
-663.499021530151
 21
-2.52899932861328
 31
0.0
  0
LINE
  5
   45D
  8
0
  6
CONTINUOUS
 62
     7
 10
-660.749021530151
 20
-2.64317893981934
 30
0.0
 11
-660.749021530151
 21
-2.52899932861328
 31
0.0
  0
LINE
  5
   45E
  8
0
  6
CONTINUOUS
 62
     7
 10
-660.749021530151
 20
-2.96833801269531
 30
0.0
 11
-660.749021530151
 21
-2.64317893981934
 31
0.0
  0
LINE
  5
   45F
  8
0
  6
CONTINUOUS
 62
     7
 10
-660.749021530151
 20
-3.4549732208252
 30
0.0
 11
-660.749021530151
 21
-2.96833801269531
 31
0.0
  0
LINE
  5
   460
  8
0
  6
CONTINUOUS
 62
     7
 10
-660.749021530151
 20
-4.02899932861328
 30
0.0
 11
-660.749021530151
 21
-3.4549732208252
 31
0.0
  0
LINE
  5
   461
  8
0
  6
CONTINUOUS
 62
     7
 10
-660.749021530151
 20
-4.60302352905273
 30
0.0
 11
-660.749021530151
 21
-4.02899932861328
 31
0.0
  0
LINE
  5
   462
  8
0
  6
CONTINUOUS
 62
     7
 10
-660.749021530151
 20
-5.08965873718262
 30
0.0
 11
-660.749021530151
 21
-4.60302352905273
 31
0.0
  0
LINE
  5
   463
  8
0
  6
CONTINUOUS
 62
     7
 10
-660.749021530151
 20
-5.41481781005859
 30
0.0
 11
-660.749021530151
 21
-5.08965873718262
 31
0.0
  0
LINE
  5
   464
  8
0
  6
CONTINUOUS
 62
     7
 10
-660.749021530151
 20
-5.52899932861328
 30
0.0
 11
-660.749021530151
 21
-5.41481781005859
 31
0.0
  0
LINE
  5
   465
  8
0
  6
CONTINUOUS
 62
     7
 10
-660.749020930847
 20
-5.52899974156403
 30
0.0
 11
-660.249020914383
 21
-5.24032444930748
 31
0.0
  0
LINE
  5
   466
  8
0
  6
CONTINUOUS
 62
     7
 10
-660.249020453637
 20
-2.81767553797864
 30
0.0
 11
-660.749020470101
 21
-2.5290002457221
 31
0.0
  0
LINE
  5
   467
  8
0
  6
CONTINUOUS
 62
     7
 10
-660.749021530151
 20
65.4710025787354
 30
0.0
 11
-662.426050289438
 21
65.4710025787354
 31
0.0
  0
LINE
  5
   468
  8
0
  6
CONTINUOUS
 62
     7
 10
-661.249027252197
 20
68.4710025787354
 30
0.0
 11
-663.499021530151
 21
68.4710025787354
 31
0.0
  0
LINE
  5
   469
  8
0
  6
CONTINUOUS
 62
     7
 10
-660.749021530151
 20
68.3568210601807
 30
0.0
 11
-660.749021530151
 21
68.4710025787354
 31
0.0
  0
LINE
  5
   46A
  8
0
  6
CONTINUOUS
 62
     7
 10
-660.749021530151
 20
68.0316638946533
 30
0.0
 11
-660.749021530151
 21
68.3568210601807
 31
0.0
  0
LINE
  5
   46B
  8
0
  6
CONTINUOUS
 62
     7
 10
-660.749021530151
 20
67.5450229644775
 30
0.0
 11
-660.749021530151
 21
68.0316638946533
 31
0.0
  0
LINE
  5
   46C
  8
0
  6
CONTINUOUS
 62
     7
 10
-660.749021530151
 20
66.9710025787354
 30
0.0
 11
-660.749021530151
 21
67.5450229644775
 31
0.0
  0
LINE
  5
   46D
  8
0
  6
CONTINUOUS
 62
     7
 10
-660.749021530151
 20
66.3969745635986
 30
0.0
 11
-660.749021530151
 21
66.9710025787354
 31
0.0
  0
LINE
  5
   46E
  8
0
  6
CONTINUOUS
 62
     7
 10
-660.749021530151
 20
65.9103412628174
 30
0.0
 11
-660.749021530151
 21
66.3969745635986
 31
0.0
  0
LINE
  5
   46F
  8
0
  6
CONTINUOUS
 62
     7
 10
-660.749021530151
 20
65.58518409729
 30
0.0
 11
-660.749021530151
 21
65.9103412628174
 31
0.0
  0
LINE
  5
   470
  8
0
  6
CONTINUOUS
 62
     7
 10
-660.749021530151
 20
65.4710025787354
 30
0.0
 11
-660.749021530151
 21
65.58518409729
 31
0.0
  0
LINE
  5
   471
  8
0
  6
CONTINUOUS
 62
     7
 10
-660.749021620858
 20
65.4710015061686
 30
0.0
 11
-660.249021604395
 21
65.7596749106668
 31
0.0
  0
LINE
  5
   472
  8
0
  6
CONTINUOUS
 62
     7
 10
-660.24902079523
 20
68.1823279109427
 30
0.0
 11
-660.749020811693
 21
68.471001315441
 31
0.0
  0
LINE
  5
   473
  8
0
  6
CONTINUOUS
 62
     7
 10
-660.749021530151
 20
29.9710025787354
 30
0.0
 11
-663.499021530151
 21
29.9710025787354
 31
0.0
  0
LINE
  5
   474
  8
0
  6
CONTINUOUS
 62
     7
 10
-660.749021530151
 20
32.9710025787354
 30
0.0
 11
-663.499021530151
 21
32.9710025787354
 31
0.0
  0
LINE
  5
   475
  8
0
  6
CONTINUOUS
 62
     7
 10
-660.749021530151
 20
32.8568210601807
 30
0.0
 11
-660.749021530151
 21
32.9710025787354
 31
0.0
  0
LINE
  5
   476
  8
0
  6
CONTINUOUS
 62
     7
 10
-660.749021530151
 20
32.5316600799561
 30
0.0
 11
-660.749021530151
 21
32.8568210601807
 31
0.0
  0
LINE
  5
   477
  8
0
  6
CONTINUOUS
 62
     7
 10
-660.749021530151
 20
32.0450267791748
 30
0.0
 11
-660.749021530151
 21
32.5316600799561
 31
0.0
  0
LINE
  5
   478
  8
0
  6
CONTINUOUS
 62
     7
 10
-660.749021530151
 20
31.4710025787354
 30
0.0
 11
-660.749021530151
 21
32.0450267791748
 31
0.0
  0
LINE
  5
   479
  8
0
  6
CONTINUOUS
 62
     7
 10
-660.749021530151
 20
30.8969745635986
 30
0.0
 11
-660.749021530151
 21
31.4710025787354
 31
0.0
  0
LINE
  5
   47A
  8
0
  6
CONTINUOUS
 62
     7
 10
-660.749021530151
 20
30.4103412628174
 30
0.0
 11
-660.749021530151
 21
30.8969745635986
 31
0.0
  0
LINE
  5
   47B
  8
0
  6
CONTINUOUS
 62
     7
 10
-660.749021530151
 20
30.0851802825928
 30
0.0
 11
-660.749021530151
 21
30.4103412628174
 31
0.0
  0
LINE
  5
   47C
  8
0
  6
CONTINUOUS
 62
     7
 10
-660.749021530151
 20
29.9710025787354
 30
0.0
 11
-660.749021530151
 21
30.0851802825928
 31
0.0
  0
LINE
  5
   47D
  8
0
  6
CONTINUOUS
 62
     7
 10
-660.749021462143
 20
29.9710019643403
 30
0.0
 11
-660.249021445679
 21
30.2596753688385
 31
0.0
  0
LINE
  5
   47E
  8
0
  6
CONTINUOUS
 62
     7
 10
-660.249020730352
 20
32.6823242375653
 30
0.0
 11
-660.749020746815
 21
32.9710014519977
 31
0.0
  0
LINE
  5
   47F
  8
0
  6
CONTINUOUS
 62
     7
 10
-662.4990234375
 20
-2.27899932861328
 30
0.0
 11
-663.499021530151
 21
-2.27899932861328
 31
0.0
  0
LINE
  5
   480
  8
0
  6
CONTINUOUS
 62
     7
 10
-662.4990234375
 20
-5.77899932861328
 30
0.0
 11
-663.499021530151
 21
-5.77899932861328
 31
0.0
  0
LINE
  5
   481
  8
0
  6
CONTINUOUS
 62
     7
 10
-662.4990234375
 20
-2.52899932861328
 30
0.0
 11
-662.4990234375
 21
14.5960063934326
 31
0.0
  0
LINE
  5
   482
  8
0
  6
CONTINUOUS
 62
     7
 10
-662.499021530151
 20
14.0961017608643
 30
0.0
 11
-663.499021530151
 21
14.0961017608643
 31
0.0
  0
LINE
  5
   483
  8
0
  6
CONTINUOUS
 62
     7
 10
-662.499021530151
 20
21.5959987640381
 30
0.0
 11
-663.499021530151
 21
21.5959987640381
 31
0.0
  0
LINE
  5
   484
  8
0
  6
CONTINUOUS
 62
     7
 10
-662.499021530151
 20
33.2210025787354
 30
0.0
 11
-663.499021530151
 21
33.2210025787354
 31
0.0
  0
LINE
  5
   485
  8
0
  6
CONTINUOUS
 62
     7
 10
-662.499021530151
 20
29.7210025787354
 30
0.0
 11
-663.499021530151
 21
29.7210025787354
 31
0.0
  0
LINE
  5
   486
  8
0
  6
CONTINUOUS
 62
     7
 10
-662.4990234375
 20
68.4710025787354
 30
0.0
 11
-662.4990234375
 21
91.0319921125522
 31
0.0
  0
LINE
  5
   487
  8
0
  6
CONTINUOUS
 62
     7
 10
-662.4990234375
 20
68.7210025787354
 30
0.0
 11
-663.499021530151
 21
68.7210025787354
 31
0.0
  0
LINE
  5
   488
  8
0
  6
CONTINUOUS
 62
     7
 10
-662.4990234375
 20
65.2210025787354
 30
0.0
 11
-663.499021530151
 21
65.2210025787354
 31
0.0
  0
INSERT
  5
   489
  8
0
  6
CONTINUOUS
 62
     7
  2
*HATCH24
 10
-643.7490234375
 20
-23.5224361419678
 30
0.0
 41
0.5
 42
0.5
 50
89.9999999480344
 43
0.5
  0
INSERT
  5
   48A
  8
0
  6
CONTINUOUS
 62
     7
  2
*HATCH25
 10
-643.7490234375
 20
-23.5224361419678
 30
0.0
 41
0.5
 42
0.5
 50
89.9999999480344
 43
0.5
  0
INSERT
  5
   48B
  8
0
  6
CONTINUOUS
 62
     7
  2
*HATCH26
 10
-643.7490234375
 20
-23.5224361419678
 30
0.0
 41
0.5
 42
0.5
 50
89.9999999480344
 43
0.5
  0
INSERT
  5
   48C
  8
0
  6
CONTINUOUS
 62
     7
  2
*HATCH27
 10
-643.7490234375
 20
-23.5224361419678
 30
0.0
 41
0.5
 42
0.5
 50
89.9999999480344
 43
0.5
  0
INSERT
  5
   48D
  8
0
  6
CONTINUOUS
 62
     7
  2
*HATCH28
 10
-643.7490234375
 20
-23.5224361419678
 30
0.0
 41
0.5
 42
0.5
 50
89.9999999480344
 43
0.5
  0
CIRCLE
  5
   48E
  8
0
  6
CONTINUOUS
 62
     7
 10
-663.297330912343
 20
-40.3668184064188
 30
0.0
 40
0.125
  0
LINE
  5
   48F
  8
0
  6
CONTINUOUS
 62
   253
 10
-568.249046325684
 20
79.0960559844971
 30
0.0
 11
-568.249046325684
 21
91.0960559844971
 31
0.0
  0
LINE
  5
   490
  8
0
  6
CONTINUOUS
 62
   253
 10
-560.249046325684
 20
78.5960559844971
 30
0.0
 11
-560.249046325684
 21
91.5960559844971
 31
0.0
  0
LINE
  5
   491
  8
0
  6
CONTINUOUS
 62
   253
 10
-568.249046325684
 20
-29.90394115448
 30
0.0
 11
-568.249046325684
 21
-17.90394115448
 31
0.0
  0
LINE
  5
   492
  8
0
  6
CONTINUOUS
 62
   253
 10
-560.249046325684
 20
-30.40394115448
 30
0.0
 11
-560.249046325684
 21
-17.40394115448
 31
0.0
  0
LINE
  5
   493
  8
0
  6
CONTINUOUS
 62
   253
 10
-560.2490234375
 20
90.5960559844971
 30
0.0
 11
-560.2490234375
 21
91.0960636138916
 31
0.0
  0
LINE
  5
   494
  8
0
  6
CONTINUOUS
 62
   253
 10
-560.2490234375
 20
79.0960636138916
 30
0.0
 11
-560.2490234375
 21
79.5960559844971
 31
0.0
  0
LINE
  5
   495
  8
0
  6
CONTINUOUS
 62
   253
 10
-560.2490234375
 20
-18.40394115448
 30
0.0
 11
-560.2490234375
 21
-17.9039363861084
 31
0.0
  0
LINE
  5
   496
  8
0
  6
CONTINUOUS
 62
   253
 10
-560.2490234375
 20
-29.9039363861084
 30
0.0
 11
-560.2490234375
 21
-29.40394115448
 31
0.0
  0
LINE
  5
   497
  8
0
  6
CONTINUOUS
 62
   253
 10
-560.749046325684
 20
91.0960559844971
 30
0.0
 11
-568.249046325684
 21
91.0960559844971
 31
0.0
  0
LINE
  5
   498
  8
0
  6
CONTINUOUS
 62
   253
 10
-560.749046325684
 20
79.0960559844971
 30
0.0
 11
-568.249046325684
 21
79.0960559844971
 31
0.0
  0
LINE
  5
   499
  8
0
  6
CONTINUOUS
 62
   253
 10
-560.249047492718
 20
90.5960537694355
 30
0.0
 11
-560.749047475604
 21
91.0960537523212
 31
0.0
  0
LINE
  5
   49A
  8
0
  6
CONTINUOUS
 62
   253
 10
-560.74904933453
 20
79.096052639894
 30
0.0
 11
-560.249049351644
 21
79.5960526227798
 31
0.0
  0
LINE
  5
   49B
  8
0
  6
CONTINUOUS
 62
   253
 10
-560.749046325684
 20
-17.90394115448
 30
0.0
 11
-568.249046325684
 21
-17.90394115448
 31
0.0
  0
LINE
  5
   49C
  8
0
  6
CONTINUOUS
 62
   253
 10
-560.749046325684
 20
-29.90394115448
 30
0.0
 11
-568.249046325684
 21
-29.90394115448
 31
0.0
  0
LINE
  5
   49D
  8
0
  6
CONTINUOUS
 62
   253
 10
-560.249048425446
 20
-18.4039405713583
 30
0.0
 11
-560.749048408332
 21
-17.9039405884726
 31
0.0
  0
LINE
  5
   49E
  8
0
  6
CONTINUOUS
 62
   253
 10
-560.749048401802
 20
-29.9039417008998
 30
0.0
 11
-560.249048418917
 21
-29.4039417180141
 31
0.0
  0
LINE
  5
   49F
  8
0
  6
CONTINUOUS
 62
     5
 10
-591.999046325684
 20
-26.8039410114288
 30
0.0
 11
-591.999046325684
 21
-26.6620051860809
 31
0.0
  0
LINE
  5
   4A0
  8
0
  6
CONTINUOUS
 62
   253
 10
-560.2490234375
 20
91.0960636138916
 30
0.0
 11
-560.749046325684
 21
91.0960636138916
 31
0.0
  0
LINE
  5
   4A1
  8
0
  6
CONTINUOUS
 62
   253
 10
-560.2490234375
 20
79.0960636138916
 30
0.0
 11
-560.749046325684
 21
79.0960636138916
 31
0.0
  0
LINE
  5
   4A2
  8
0
  6
CONTINUOUS
 62
   253
 10
-560.2490234375
 20
-17.9039363861084
 30
0.0
 11
-560.749046325684
 21
-17.9039363861084
 31
0.0
  0
LINE
  5
   4A3
  8
0
  6
CONTINUOUS
 62
   253
 10
-560.2490234375
 20
-29.9039363861084
 30
0.0
 11
-560.749046325684
 21
-29.9039363861084
 31
0.0
  0
LINE
  5
   4A4
  8
0
  6
DASHDOT
 62
     3
 10
-515.651940092354
 20
85.0960559844971
 30
0.0
 11
-569.278685073481
 21
85.0960559844971
 31
0.0
  0
LINE
  5
   4A5
  8
0
  6
DASHDOT
 62
     3
 10
-515.140327510804
 20
-23.90394115448
 30
0.0
 11
-569.856459786207
 21
-23.90394115448
 31
0.0
  0
LINE
  5
   4A6
  8
0
  6
CONTINUOUS
 62
     7
 10
-660.749021530151
 20
57.7210941314697
 30
0.0
 11
-660.749021530151
 21
61.2210941314697
 31
0.0
  0
LINE
  5
   4A7
  8
0
  6
CONTINUOUS
 62
     7
 10
-659.749021530151
 20
57.7210941314697
 30
0.0
 11
-659.749021530151
 21
61.2210941314697
 31
0.0
  0
LINE
  5
   4A8
  8
0
  6
CONTINUOUS
 62
     7
 10
-659.749021530151
 20
61.2210941314697
 30
0.0
 11
-660.749021530151
 21
61.2210941314697
 31
0.0
  0
LINE
  5
   4A9
  8
0
  6
CONTINUOUS
 62
     7
 10
-657.749024391174
 20
58.4710941314697
 30
0.0
 11
-658.999027252197
 21
58.4710941314697
 31
0.0
  0
LINE
  5
   4AA
  8
0
  6
CONTINUOUS
 62
     7
 10
-657.749024391174
 20
58.4710941314697
 30
0.0
 11
-657.749024391174
 21
63.7210941314697
 31
0.0
  0
LINE
  5
   4AB
  8
0
  6
CONTINUOUS
 62
     7
 10
-659.499027252197
 20
65.4710941314697
 30
0.0
 11
-660.749027252197
 21
65.4710941314697
 31
0.0
  0
LINE
  5
   4AC
  8
0
  6
CONTINUOUS
 62
     7
 10
-661.249027252197
 20
68.4710025787354
 30
0.0
 11
-661.249027252197
 21
69.9710941314697
 31
0.0
  0
LINE
  5
   4AD
  8
0
  6
CONTINUOUS
 62
     7
 10
-661.249027252197
 20
69.9710941314697
 30
0.0
 11
-662.4990234375
 21
69.9710941314697
 31
0.0
  0
LINE
  5
   4AE
  8
0
  6
CONTINUOUS
 62
     7
 10
-659.499027252197
 20
64.2210941314697
 30
0.0
 11
-660.749027252197
 21
64.2210941314697
 31
0.0
  0
LINE
  5
   4AF
  8
0
  6
CONTINUOUS
 62
     7
 10
-658.999027252197
 20
58.4710941314697
 30
0.0
 11
-658.999027252197
 21
63.7210941314697
 31
0.0
  0
ARC
  5
   4B0
  8
0
  6
CONTINUOUS
 62
     7
 10
-659.499034578951
 20
63.7210877883175
 30
0.0
 40
1.75000922655776
 50
360.000319242658
 51
449.999813057862
  0
ARC
  5
   4B1
  8
0
  6
CONTINUOUS
 62
     7
 10
-659.499005128122
 20
63.7211145788609
 30
0.0
 40
0.499974910621752
 50
359.998830132094
 51
450.002235749312
  0
ARC
  5
   4B2
  8
0
  6
CONTINUOUS
 62
     7
 10
-660.749036928388
 20
65.9710781080026
 30
0.0
 40
1.74998552797211
 50
196.60427128222
 51
270.000346548696
  0
LINE
  5
   4B3
  8
0
  6
CONTINUOUS
 62
     7
 10
-657.749024391174
 20
62.9710941314697
 30
0.0
 11
-658.999027252197
 21
62.9710941314697
 31
0.0
  0
INSERT
  5
   4B4
  8
0
  6
CONTINUOUS
 62
     7
  2
*HATCH29
 10
-643.7490234375
 20
-23.5224361419678
 30
0.0
 41
0.5
 42
0.5
 50
89.9999999480344
 43
0.5
  0
LINE
  5
   4B5
  8
0
  6
DOT
 62
     7
 10
-678.999021530151
 20
5.2210693359375
 30
0.0
 11
-678.999021530151
 21
57.7210941314697
 31
0.0
  0
LINE
  5
   4B6
  8
0
  6
DOT
 62
     7
 10
-671.719298981759
 20
5.2210693359375
 30
0.0
 11
-678.999021530151
 21
5.2210693359375
 31
0.0
  0
LINE
  5
   4B7
  8
0
  6
DOT
 62
     7
 10
-671.085587262249
 20
57.7210941314697
 30
0.0
 11
-678.999021530151
 21
57.7210941314697
 31
0.0
  0
LINE
  5
   4B8
  8
0
  6
CONTINUOUS
 62
   253
 10
-545.989693235083
 20
91.0960559844971
 30
0.0
 11
-550.349046325684
 21
91.0960559844971
 31
0.0
  0
LINE
  5
   4B9
  8
0
  6
CONTINUOUS
 62
   253
 10
-545.989693235083
 20
79.0960559844971
 30
0.0
 11
-550.349046325684
 21
79.0960559844971
 31
0.0
  0
LINE
  5
   4BA
  8
0
  6
CONTINUOUS
 62
   253
 10
-535.249046325684
 20
-29.4039440155029
 30
0.0
 11
-535.249046325684
 21
-18.4039440155029
 31
0.0
  0
ARC
  5
   4BB
  8
0
  6
CONTINUOUS
 62
   253
 10
-535.749046325684
 20
-18.4039440155029
 30
0.0
 40
0.5
 50
359.999999948034
 51
449.999999948034
  0
ARC
  5
   4BC
  8
0
  6
CONTINUOUS
 62
   253
 10
-535.749046325684
 20
-29.4039440155029
 30
0.0
 40
0.5
 50
269.999999948034
 51
359.999999948034
  0
LINE
  5
   4BD
  8
0
  6
CONTINUOUS
 62
   212
 10
-513.499053955078
 20
-26.9039440155029
 30
0.0
 11
-513.499053955078
 21
-20.9039440155029
 31
0.0
  0
LINE
  5
   4BE
  8
0
  6
CONTINUOUS
 62
   212
 10
-520.989693235083
 20
-19.9039440155029
 30
0.0
 11
-525.349046325684
 21
-19.9039440155029
 31
0.0
  0
LINE
  5
   4BF
  8
0
  6
CONTINUOUS
 62
   212
 10
-520.989693235083
 20
-27.9039440155029
 30
0.0
 11
-525.349046325684
 21
-27.9039440155029
 31
0.0
  0
LINE
  5
   4C0
  8
0
  6
CONTINUOUS
 62
   212
 10
-513.499053955078
 20
-20.9039440155029
 30
0.0
 11
-514.499053955078
 21
-19.9039440155029
 31
0.0
  0
LINE
  5
   4C1
  8
0
  6
CONTINUOUS
 62
   212
 10
-514.499053955078
 20
-27.9039440155029
 30
0.0
 11
-513.499053955078
 21
-26.9039440155029
 31
0.0
  0
LINE
  5
   4C2
  8
0
  6
CONTINUOUS
 62
   212
 10
-514.499053955078
 20
-27.9039440155029
 30
0.0
 11
-514.499053955078
 21
-19.9039440155029
 31
0.0
  0
LINE
  5
   4C3
  8
0
  6
CONTINUOUS
 62
   212
 10
-520.989693235083
 20
-20.4039440155029
 30
0.0
 11
-525.349046325684
 21
-20.4039440155029
 31
0.0
  0
LINE
  5
   4C4
  8
0
  6
CONTINUOUS
 62
   212
 10
-520.989693235083
 20
-27.4039440155029
 30
0.0
 11
-525.349046325684
 21
-27.4039440155029
 31
0.0
  0
LINE
  5
   4C5
  8
0
  6
CONTINUOUS
 62
     7
 10
-534.849046325684
 20
-30.5914440155029
 30
0.0
 11
-534.849046325684
 21
-17.2164440155029
 31
0.0
  0
LINE
  5
   4C6
  8
0
  6
CONTINUOUS
 62
     7
 10
-534.849046325684
 20
-17.4039440155029
 30
0.0
 11
-535.249046325684
 21
-17.4039440155029
 31
0.0
  0
LINE
  5
   4C7
  8
0
  6
CONTINUOUS
 62
     7
 10
-534.849046325684
 20
-30.4039440155029
 30
0.0
 11
-535.249046325684
 21
-30.4039440155029
 31
0.0
  0
LINE
  5
   4C8
  8
0
  6
CONTINUOUS
 62
     7
 10
-535.249046325684
 20
-30.4039440155029
 30
0.0
 11
-535.249046325684
 21
-17.4039440155029
 31
0.0
  0
LINE
  5
   4C9
  8
0
  6
CONTINUOUS
 62
   212
 10
-538.499053955078
 20
82.0960559844971
 30
0.0
 11
-538.499053955078
 21
88.0960559844971
 31
0.0
  0
LINE
  5
   4CA
  8
0
  6
CONTINUOUS
 62
   212
 10
-545.989693235083
 20
89.0960559844971
 30
0.0
 11
-550.349046325684
 21
89.0960559844971
 31
0.0
  0
LINE
  5
   4CB
  8
0
  6
CONTINUOUS
 62
   212
 10
-545.989693235083
 20
81.0960559844971
 30
0.0
 11
-550.349046325684
 21
81.0960559844971
 31
0.0
  0
LINE
  5
   4CC
  8
0
  6
CONTINUOUS
 62
   212
 10
-545.989693235083
 20
88.5960559844971
 30
0.0
 11
-550.349046325684
 21
88.5960559844971
 31
0.0
  0
LINE
  5
   4CD
  8
0
  6
CONTINUOUS
 62
   212
 10
-545.989693235083
 20
81.5960559844971
 30
0.0
 11
-550.349046325684
 21
81.5960559844971
 31
0.0
  0
LINE
  5
   4CE
  8
0
  6
CONTINUOUS
 62
   212
 10
-539.499053955078
 20
81.0960559844971
 30
0.0
 11
-539.499053955078
 21
89.0960559844971
 31
0.0
  0
LINE
  5
   4CF
  8
0
  6
CONTINUOUS
 62
   212
 10
-538.499053955078
 20
88.0960559844971
 30
0.0
 11
-539.499053955078
 21
89.0960559844971
 31
0.0
  0
LINE
  5
   4D0
  8
0
  6
CONTINUOUS
 62
   212
 10
-539.499053955078
 20
81.0960559844971
 30
0.0
 11
-538.499053955078
 21
82.0960559844971
 31
0.0
  0
LINE
  5
   4D1
  8
0
  6
CONTINUOUS
 62
     7
 10
-559.849046325684
 20
91.5960559844971
 30
0.0
 11
-560.249046325684
 21
91.5960559844971
 31
0.0
  0
LINE
  5
   4D2
  8
0
  6
CONTINUOUS
 62
     7
 10
-559.849046325684
 20
78.4085559844971
 30
0.0
 11
-559.849046325684
 21
91.7835559844971
 31
0.0
  0
LINE
  5
   4D3
  8
0
  6
CONTINUOUS
 62
     7
 10
-559.849046325684
 20
78.5960559844971
 30
0.0
 11
-560.249046325684
 21
78.5960559844971
 31
0.0
  0
LINE
  5
   4D4
  8
0
  6
CONTINUOUS
 62
     7
 10
-530.849046325684
 20
-30.5914440155029
 30
0.0
 11
-530.849046325684
 21
-17.2164440155029
 31
0.0
  0
LINE
  5
   4D5
  8
0
  6
CONTINUOUS
 62
     7
 10
-530.849046325684
 20
-17.2164440155029
 30
0.0
 11
-534.849046325684
 21
-17.2164440155029
 31
0.0
  0
LINE
  5
   4D6
  8
0
  6
CONTINUOUS
 62
     7
 10
-530.849046325684
 20
-30.5914440155029
 30
0.0
 11
-534.849046325684
 21
-30.5914440155029
 31
0.0
  0
LINE
  5
   4D7
  8
0
  6
CONTINUOUS
 62
     7
 10
-530.849046325684
 20
-27.0914440155029
 30
0.0
 11
-534.849046325684
 21
-27.0914440155029
 31
0.0
  0
LINE
  5
   4D8
  8
0
  6
CONTINUOUS
 62
     7
 10
-530.849046325684
 20
-20.7164440155029
 30
0.0
 11
-534.849046325684
 21
-20.7164440155029
 31
0.0
  0
LINE
  5
   4D9
  8
0
  6
CONTINUOUS
 62
     7
 10
-555.849046325684
 20
91.7835559844971
 30
0.0
 11
-559.849046325684
 21
91.7835559844971
 31
0.0
  0
LINE
  5
   4DA
  8
0
  6
CONTINUOUS
 62
     7
 10
-555.849046325684
 20
78.4085559844971
 30
0.0
 11
-555.849046325684
 21
91.7835559844971
 31
0.0
  0
LINE
  5
   4DB
  8
0
  6
CONTINUOUS
 62
     7
 10
-555.849046325684
 20
81.9085559844971
 30
0.0
 11
-559.849046325684
 21
81.9085559844971
 31
0.0
  0
LINE
  5
   4DC
  8
0
  6
CONTINUOUS
 62
     7
 10
-555.849046325684
 20
88.2835559844971
 30
0.0
 11
-559.849046325684
 21
88.2835559844971
 31
0.0
  0
LINE
  5
   4DD
  8
0
  6
CONTINUOUS
 62
     7
 10
-555.849046325684
 20
78.4085559844971
 30
0.0
 11
-559.849046325684
 21
78.4085559844971
 31
0.0
  0
LINE
  5
   4DE
  8
0
  6
CONTINUOUS
 62
     7
 10
-526.849046325684
 20
-17.2164440155029
 30
0.0
 11
-530.849046325684
 21
-17.2164440155029
 31
0.0
  0
LINE
  5
   4DF
  8
0
  6
CONTINUOUS
 62
     7
 10
-526.849046325684
 20
-20.7164440155029
 30
0.0
 11
-530.849046325684
 21
-20.7164440155029
 31
0.0
  0
LINE
  5
   4E0
  8
0
  6
CONTINUOUS
 62
     7
 10
-526.849046325684
 20
-27.0914440155029
 30
0.0
 11
-530.849046325684
 21
-27.0914440155029
 31
0.0
  0
LINE
  5
   4E1
  8
0
  6
CONTINUOUS
 62
     7
 10
-526.849046325684
 20
-30.5914440155029
 30
0.0
 11
-530.849046325684
 21
-30.5914440155029
 31
0.0
  0
LINE
  5
   4E2
  8
0
  6
CONTINUOUS
 62
     7
 10
-526.849046325684
 20
-30.5914440155029
 30
0.0
 11
-526.849046325684
 21
-17.2164440155029
 31
0.0
  0
LINE
  5
   4E3
  8
0
  6
CONTINUOUS
 62
     7
 10
-551.849046325684
 20
91.7835559844971
 30
0.0
 11
-555.849046325684
 21
91.7835559844971
 31
0.0
  0
LINE
  5
   4E4
  8
0
  6
CONTINUOUS
 62
     7
 10
-551.849046325684
 20
88.2835559844971
 30
0.0
 11
-555.849046325684
 21
88.2835559844971
 31
0.0
  0
LINE
  5
   4E5
  8
0
  6
CONTINUOUS
 62
     7
 10
-551.849046325684
 20
81.9085559844971
 30
0.0
 11
-555.849046325684
 21
81.9085559844971
 31
0.0
  0
LINE
  5
   4E6
  8
0
  6
CONTINUOUS
 62
     7
 10
-551.849046325684
 20
78.4085559844971
 30
0.0
 11
-555.849046325684
 21
78.4085559844971
 31
0.0
  0
LINE
  5
   4E7
  8
0
  6
CONTINUOUS
 62
     7
 10
-551.849046325684
 20
78.4085559844971
 30
0.0
 11
-551.849046325684
 21
91.7835559844971
 31
0.0
  0
LINE
  5
   4E8
  8
0
  6
CONTINUOUS
 62
     7
 10
-515.489693235083
 20
-30.5914440155029
 30
0.0
 11
-515.489693235083
 21
-17.2164440155029
 31
0.0
  0
LINE
  5
   4E9
  8
0
  6
CONTINUOUS
 62
     7
 10
-515.489693235083
 20
-17.2164440155029
 30
0.0
 11
-519.489693235083
 21
-17.2164440155029
 31
0.0
  0
LINE
  5
   4EA
  8
0
  6
CONTINUOUS
 62
     7
 10
-519.489693235083
 20
-30.5914440155029
 30
0.0
 11
-519.489693235083
 21
-17.2164440155029
 31
0.0
  0
LINE
  5
   4EB
  8
0
  6
CONTINUOUS
 62
     7
 10
-515.489693235083
 20
-20.7164440155029
 30
0.0
 11
-519.489693235083
 21
-20.7164440155029
 31
0.0
  0
LINE
  5
   4EC
  8
0
  6
CONTINUOUS
 62
     7
 10
-515.489693235083
 20
-27.0914440155029
 30
0.0
 11
-519.489693235083
 21
-27.0914440155029
 31
0.0
  0
LINE
  5
   4ED
  8
0
  6
CONTINUOUS
 62
     7
 10
-515.489693235083
 20
-30.5914440155029
 30
0.0
 11
-519.489693235083
 21
-30.5914440155029
 31
0.0
  0
LINE
  5
   4EE
  8
0
  6
CONTINUOUS
 62
   212
 10
-514.499053955078
 20
-19.9039440155029
 30
0.0
 11
-515.489693235083
 21
-19.9039440155029
 31
0.0
  0
LINE
  5
   4EF
  8
0
  6
CONTINUOUS
 62
   212
 10
-513.999053955078
 20
-20.4039440155029
 30
0.0
 11
-515.489693235083
 21
-20.4039440155029
 31
0.0
  0
LINE
  5
   4F0
  8
0
  6
CONTINUOUS
 62
   212
 10
-513.999053955078
 20
-27.4039440155029
 30
0.0
 11
-515.489693235083
 21
-27.4039440155029
 31
0.0
  0
LINE
  5
   4F1
  8
0
  6
CONTINUOUS
 62
   212
 10
-514.499053955078
 20
-27.9039440155029
 30
0.0
 11
-515.489693235083
 21
-27.9039440155029
 31
0.0
  0
LINE
  5
   4F2
  8
0
  6
CONTINUOUS
 62
     7
 10
-520.989693235083
 20
-30.5289440155029
 30
0.0
 11
-520.989693235083
 21
-17.2789440155029
 31
0.0
  0
LINE
  5
   4F3
  8
0
  6
CONTINUOUS
 62
     7
 10
-525.349046325684
 20
-30.5289440155029
 30
0.0
 11
-525.349046325684
 21
-17.2789440155029
 31
0.0
  0
LINE
  5
   4F4
  8
0
  6
CONTINUOUS
 62
     7
 10
-525.349046325684
 20
-17.2789440155029
 30
0.0
 11
-526.849046325684
 21
-17.2789440155029
 31
0.0
  0
LINE
  5
   4F5
  8
0
  6
CONTINUOUS
 62
     7
 10
-525.349046325684
 20
-30.5289440155029
 30
0.0
 11
-526.849046325684
 21
-30.5289440155029
 31
0.0
  0
LINE
  5
   4F6
  8
0
  6
CONTINUOUS
 62
     7
 10
-519.489693235083
 20
-17.2789440155029
 30
0.0
 11
-520.989693235083
 21
-17.2789440155029
 31
0.0
  0
LINE
  5
   4F7
  8
0
  6
CONTINUOUS
 62
     7
 10
-519.489693235083
 20
-30.5289440155029
 30
0.0
 11
-520.989693235083
 21
-30.5289440155029
 31
0.0
  0
LINE
  5
   4F8
  8
0
  6
CONTINUOUS
 62
     7
 10
-540.489693235083
 20
91.7835559844971
 30
0.0
 11
-544.489693235083
 21
91.7835559844971
 31
0.0
  0
LINE
  5
   4F9
  8
0
  6
CONTINUOUS
 62
     7
 10
-540.489693235083
 20
88.2835559844971
 30
0.0
 11
-544.489693235083
 21
88.2835559844971
 31
0.0
  0
LINE
  5
   4FA
  8
0
  6
CONTINUOUS
 62
     7
 10
-540.489693235083
 20
81.9085559844971
 30
0.0
 11
-544.489693235083
 21
81.9085559844971
 31
0.0
  0
LINE
  5
   4FB
  8
0
  6
CONTINUOUS
 62
     7
 10
-540.489693235083
 20
78.4085559844971
 30
0.0
 11
-544.489693235083
 21
78.4085559844971
 31
0.0
  0
LINE
  5
   4FC
  8
0
  6
CONTINUOUS
 62
     7
 10
-544.489693235083
 20
78.4710559844971
 30
0.0
 11
-545.989693235083
 21
78.4710559844971
 31
0.0
  0
LINE
  5
   4FD
  8
0
  6
CONTINUOUS
 62
     7
 10
-544.489693235083
 20
91.7210559844971
 30
0.0
 11
-545.989693235083
 21
91.7210559844971
 31
0.0
  0
LINE
  5
   4FE
  8
0
  6
CONTINUOUS
 62
     7
 10
-540.489693235083
 20
78.4085559844971
 30
0.0
 11
-540.489693235083
 21
91.7835559844971
 31
0.0
  0
LINE
  5
   4FF
  8
0
  6
CONTINUOUS
 62
     7
 10
-544.489693235083
 20
78.4085559844971
 30
0.0
 11
-544.489693235083
 21
91.7835559844971
 31
0.0
  0
LINE
  5
   500
  8
0
  6
CONTINUOUS
 62
     7
 10
-545.989693235083
 20
78.4710559844971
 30
0.0
 11
-545.989693235083
 21
91.7210559844971
 31
0.0
  0
LINE
  5
   501
  8
0
  6
CONTINUOUS
 62
   212
 10
-539.499053955078
 20
89.0960559844971
 30
0.0
 11
-540.489693235083
 21
89.0960559844971
 31
0.0
  0
LINE
  5
   502
  8
0
  6
CONTINUOUS
 62
   212
 10
-538.999053955078
 20
88.5960559844971
 30
0.0
 11
-540.489693235083
 21
88.5960559844971
 31
0.0
  0
LINE
  5
   503
  8
0
  6
CONTINUOUS
 62
   212
 10
-538.999053955078
 20
81.5960559844971
 30
0.0
 11
-540.489693235083
 21
81.5960559844971
 31
0.0
  0
LINE
  5
   504
  8
0
  6
CONTINUOUS
 62
   212
 10
-539.499053955078
 20
81.0960559844971
 30
0.0
 11
-540.489693235083
 21
81.0960559844971
 31
0.0
  0
LINE
  5
   505
  8
0
  6
CONTINUOUS
 62
   253
 10
-535.749046325684
 20
91.0960559844971
 30
0.0
 11
-540.489693235083
 21
91.0960559844971
 31
0.0
  0
LINE
  5
   506
  8
0
  6
CONTINUOUS
 62
   253
 10
-535.749046325684
 20
79.0960559844971
 30
0.0
 11
-540.489693235083
 21
79.0960559844971
 31
0.0
  0
LINE
  5
   507
  8
0
  6
CONTINUOUS
 62
   253
 10
-535.249046325684
 20
79.5960559844971
 30
0.0
 11
-535.249046325684
 21
90.5960559844971
 31
0.0
  0
ARC
  5
   508
  8
0
  6
CONTINUOUS
 62
   253
 10
-535.749046325684
 20
90.5960559844971
 30
0.0
 40
0.5
 50
359.999999948034
 51
449.999999948034
  0
ARC
  5
   509
  8
0
  6
CONTINUOUS
 62
   253
 10
-535.749046325684
 20
79.5960559844971
 30
0.0
 40
0.5
 50
269.999999948034
 51
359.999999948034
  0
LINE
  5
   50A
  8
0
  6
CONTINUOUS
 62
   212
 10
-513.499053955078
 20
82.0960559844971
 30
0.0
 11
-513.499053955078
 21
88.0960559844971
 31
0.0
  0
LINE
  5
   50B
  8
0
  6
CONTINUOUS
 62
   212
 10
-520.989693235083
 20
89.0960559844971
 30
0.0
 11
-525.349046325684
 21
89.0960559844971
 31
0.0
  0
LINE
  5
   50C
  8
0
  6
CONTINUOUS
 62
   212
 10
-520.989693235083
 20
81.0960559844971
 30
0.0
 11
-525.349046325684
 21
81.0960559844971
 31
0.0
  0
LINE
  5
   50D
  8
0
  6
CONTINUOUS
 62
   212
 10
-513.499053955078
 20
88.0960559844971
 30
0.0
 11
-514.499053955078
 21
89.0960559844971
 31
0.0
  0
LINE
  5
   50E
  8
0
  6
CONTINUOUS
 62
   212
 10
-514.499053955078
 20
81.0960559844971
 30
0.0
 11
-513.499053955078
 21
82.0960559844971
 31
0.0
  0
LINE
  5
   50F
  8
0
  6
CONTINUOUS
 62
   212
 10
-514.499053955078
 20
81.0960559844971
 30
0.0
 11
-514.499053955078
 21
89.0960559844971
 31
0.0
  0
LINE
  5
   510
  8
0
  6
CONTINUOUS
 62
   212
 10
-520.989693235083
 20
88.5960559844971
 30
0.0
 11
-525.349046325684
 21
88.5960559844971
 31
0.0
  0
LINE
  5
   511
  8
0
  6
CONTINUOUS
 62
   212
 10
-520.989693235083
 20
81.5960559844971
 30
0.0
 11
-525.349046325684
 21
81.5960559844971
 31
0.0
  0
LINE
  5
   512
  8
0
  6
CONTINUOUS
 62
     7
 10
-534.849046325684
 20
78.4085559844971
 30
0.0
 11
-534.849046325684
 21
91.7835559844971
 31
0.0
  0
LINE
  5
   513
  8
0
  6
CONTINUOUS
 62
     7
 10
-534.849046325684
 20
91.5960559844971
 30
0.0
 11
-535.249046325684
 21
91.5960559844971
 31
0.0
  0
LINE
  5
   514
  8
0
  6
CONTINUOUS
 62
     7
 10
-534.849046325684
 20
78.5960559844971
 30
0.0
 11
-535.249046325684
 21
78.5960559844971
 31
0.0
  0
LINE
  5
   515
  8
0
  6
CONTINUOUS
 62
     7
 10
-535.249046325684
 20
78.5960559844971
 30
0.0
 11
-535.249046325684
 21
91.5960559844971
 31
0.0
  0
LINE
  5
   516
  8
0
  6
CONTINUOUS
 62
     7
 10
-530.849046325684
 20
78.4085559844971
 30
0.0
 11
-530.849046325684
 21
91.7835559844971
 31
0.0
  0
LINE
  5
   517
  8
0
  6
CONTINUOUS
 62
     7
 10
-530.849046325684
 20
91.7835559844971
 30
0.0
 11
-534.849046325684
 21
91.7835559844971
 31
0.0
  0
LINE
  5
   518
  8
0
  6
CONTINUOUS
 62
     7
 10
-530.849046325684
 20
78.4085559844971
 30
0.0
 11
-534.849046325684
 21
78.4085559844971
 31
0.0
  0
LINE
  5
   519
  8
0
  6
CONTINUOUS
 62
     7
 10
-530.849046325684
 20
81.9085559844971
 30
0.0
 11
-534.849046325684
 21
81.9085559844971
 31
0.0
  0
LINE
  5
   51A
  8
0
  6
CONTINUOUS
 62
     7
 10
-530.849046325684
 20
88.2835559844971
 30
0.0
 11
-534.849046325684
 21
88.2835559844971
 31
0.0
  0
LINE
  5
   51B
  8
0
  6
CONTINUOUS
 62
     7
 10
-526.849046325684
 20
91.7835559844971
 30
0.0
 11
-530.849046325684
 21
91.7835559844971
 31
0.0
  0
LINE
  5
   51C
  8
0
  6
CONTINUOUS
 62
     7
 10
-526.849046325684
 20
88.2835559844971
 30
0.0
 11
-530.849046325684
 21
88.2835559844971
 31
0.0
  0
LINE
  5
   51D
  8
0
  6
CONTINUOUS
 62
     7
 10
-526.849046325684
 20
81.9085559844971
 30
0.0
 11
-530.849046325684
 21
81.9085559844971
 31
0.0
  0
LINE
  5
   51E
  8
0
  6
CONTINUOUS
 62
     7
 10
-526.849046325684
 20
78.4085559844971
 30
0.0
 11
-530.849046325684
 21
78.4085559844971
 31
0.0
  0
LINE
  5
   51F
  8
0
  6
CONTINUOUS
 62
     7
 10
-526.849046325684
 20
78.4085559844971
 30
0.0
 11
-526.849046325684
 21
91.7835559844971
 31
0.0
  0
LINE
  5
   520
  8
0
  6
CONTINUOUS
 62
     7
 10
-515.489693235083
 20
78.4085559844971
 30
0.0
 11
-515.489693235083
 21
91.7835559844971
 31
0.0
  0
LINE
  5
   521
  8
0
  6
CONTINUOUS
 62
     7
 10
-515.489693235083
 20
91.7835559844971
 30
0.0
 11
-519.489693235083
 21
91.7835559844971
 31
0.0
  0
LINE
  5
   522
  8
0
  6
CONTINUOUS
 62
     7
 10
-519.489693235083
 20
78.4085559844971
 30
0.0
 11
-519.489693235083
 21
91.7835559844971
 31
0.0
  0
LINE
  5
   523
  8
0
  6
CONTINUOUS
 62
     7
 10
-515.489693235083
 20
88.2835559844971
 30
0.0
 11
-519.489693235083
 21
88.2835559844971
 31
0.0
  0
LINE
  5
   524
  8
0
  6
CONTINUOUS
 62
     7
 10
-515.489693235083
 20
81.9085559844971
 30
0.0
 11
-519.489693235083
 21
81.9085559844971
 31
0.0
  0
LINE
  5
   525
  8
0
  6
CONTINUOUS
 62
     7
 10
-515.489693235083
 20
78.4085559844971
 30
0.0
 11
-519.489693235083
 21
78.4085559844971
 31
0.0
  0
LINE
  5
   526
  8
0
  6
CONTINUOUS
 62
   212
 10
-514.499053955078
 20
89.0960559844971
 30
0.0
 11
-515.489693235083
 21
89.0960559844971
 31
0.0
  0
LINE
  5
   527
  8
0
  6
CONTINUOUS
 62
   212
 10
-513.999053955078
 20
88.5960559844971
 30
0.0
 11
-515.489693235083
 21
88.5960559844971
 31
0.0
  0
LINE
  5
   528
  8
0
  6
CONTINUOUS
 62
   212
 10
-513.999053955078
 20
81.5960559844971
 30
0.0
 11
-515.489693235083
 21
81.5960559844971
 31
0.0
  0
LINE
  5
   529
  8
0
  6
CONTINUOUS
 62
   212
 10
-514.499053955078
 20
81.0960559844971
 30
0.0
 11
-515.489693235083
 21
81.0960559844971
 31
0.0
  0
LINE
  5
   52A
  8
0
  6
CONTINUOUS
 62
     7
 10
-520.989693235083
 20
78.4710559844971
 30
0.0
 11
-520.989693235083
 21
91.7210559844971
 31
0.0
  0
LINE
  5
   52B
  8
0
  6
CONTINUOUS
 62
     7
 10
-525.349046325684
 20
78.4710559844971
 30
0.0
 11
-525.349046325684
 21
91.7210559844971
 31
0.0
  0
LINE
  5
   52C
  8
0
  6
CONTINUOUS
 62
     7
 10
-525.349046325684
 20
91.7210559844971
 30
0.0
 11
-526.849046325684
 21
91.7210559844971
 31
0.0
  0
LINE
  5
   52D
  8
0
  6
CONTINUOUS
 62
     7
 10
-525.349046325684
 20
78.4710559844971
 30
0.0
 11
-526.849046325684
 21
78.4710559844971
 31
0.0
  0
LINE
  5
   52E
  8
0
  6
CONTINUOUS
 62
     7
 10
-519.489693235083
 20
91.7210559844971
 30
0.0
 11
-520.989693235083
 21
91.7210559844971
 31
0.0
  0
LINE
  5
   52F
  8
0
  6
CONTINUOUS
 62
     7
 10
-519.489693235083
 20
78.4710559844971
 30
0.0
 11
-520.989693235083
 21
78.4710559844971
 31
0.0
  0
LINE
  5
   530
  8
0
  6
CONTINUOUS
 62
     7
 10
-550.349046325684
 20
91.7210559844971
 30
0.0
 11
-551.849046325684
 21
91.7210559844971
 31
0.0
  0
LINE
  5
   531
  8
0
  6
CONTINUOUS
 62
     7
 10
-550.349046325684
 20
78.4710559844971
 30
0.0
 11
-550.349046325684
 21
91.7210559844971
 31
0.0
  0
LINE
  5
   532
  8
0
  6
CONTINUOUS
 62
     7
 10
-550.349046325684
 20
78.4710559844971
 30
0.0
 11
-551.849046325684
 21
78.4710559844971
 31
0.0
  0
LINE
  5
   533
  8
0
  6
CONTINUOUS
 62
   253
 10
-535.749046325684
 20
-17.9039440155029
 30
0.0
 11
-540.489693235083
 21
-17.9039440155029
 31
0.0
  0
LINE
  5
   534
  8
0
  6
CONTINUOUS
 62
   253
 10
-535.749046325684
 20
-29.9039440155029
 30
0.0
 11
-540.489693235083
 21
-29.9039440155029
 31
0.0
  0
LINE
  5
   535
  8
0
  6
CONTINUOUS
 62
     7
 10
-555.849046325684
 20
-30.5914440155029
 30
0.0
 11
-555.849046325684
 21
-29.9039440155029
 31
0.0
  0
LINE
  5
   536
  8
0
  6
CONTINUOUS
 62
     7
 10
-555.849046325684
 20
-17.9039440155029
 30
0.0
 11
-555.849046325684
 21
-17.2164440155029
 31
0.0
  0
LINE
  5
   537
  8
0
  6
CONTINUOUS
 62
     7
 10
-563.9990234375
 20
62.3460712432861
 30
0.0
 11
-563.9990234375
 21
66.3460712432861
 31
0.0
  0
LINE
  5
   538
  8
0
  6
CONTINUOUS
 62
     7
 10
-561.9990234375
 20
63.0960712432861
 30
0.0
 11
-561.9990234375
 21
65.5960712432861
 31
0.0
  0
LINE
  5
   539
  8
0
  6
CONTINUOUS
 62
     7
 10
-563.9990234375
 20
-1.15392875671387
 30
0.0
 11
-565.9990234375
 21
-1.15392875671387
 31
0.0
  0
LINE
  5
   53A
  8
0
  6
CONTINUOUS
 62
     7
 10
-563.9990234375
 20
62.3460712432861
 30
0.0
 11
-565.9990234375
 21
62.3460712432861
 31
0.0
  0
LINE
  5
   53B
  8
0
  6
CONTINUOUS
 62
     7
 10
-561.9990234375
 20
65.5960712432861
 30
0.0
 11
-565.9990234375
 21
65.5960712432861
 31
0.0
  0
LINE
  5
   53C
  8
0
  6
CONTINUOUS
 62
     7
 10
-561.9990234375
 20
63.0960712432861
 30
0.0
 11
-565.9990234375
 21
63.0960712432861
 31
0.0
  0
LINE
  5
   53D
  8
0
  6
CONTINUOUS
 62
     7
 10
-561.9990234375
 20
-1.90392875671387
 30
0.0
 11
-565.9990234375
 21
-1.90392875671387
 31
0.0
  0
LINE
  5
   53E
  8
0
  6
CONTINUOUS
 62
     7
 10
-563.9990234375
 20
-5.15392875671387
 30
0.0
 11
-563.9990234375
 21
-1.15392875671387
 31
0.0
  0
LINE
  5
   53F
  8
0
  6
CONTINUOUS
 62
     7
 10
-561.9990234375
 20
-4.40392875671387
 30
0.0
 11
-561.9990234375
 21
-1.90392875671387
 31
0.0
  0
LINE
  5
   540
  8
0
  6
CONTINUOUS
 62
     7
 10
-561.9990234375
 20
-4.40392875671387
 30
0.0
 11
-565.9990234375
 21
-4.40392875671387
 31
0.0
  0
LINE
  5
   541
  8
0
  6
CONTINUOUS
 62
     7
 10
-563.9990234375
 20
-5.15392875671387
 30
0.0
 11
-565.9990234375
 21
-5.15392875671387
 31
0.0
  0
LINE
  5
   542
  8
0
  6
CONTINUOUS
 62
     7
 10
-563.9990234375
 20
66.3460712432861
 30
0.0
 11
-565.9990234375
 21
66.3460712432861
 31
0.0
  0
LINE
  5
   543
  8
0
  6
CONTINUOUS
 62
   253
 10
-545.989693235083
 20
-17.90394115448
 30
0.0
 11
-550.349046325684
 21
-17.90394115448
 31
0.0
  0
LINE
  5
   544
  8
0
  6
CONTINUOUS
 62
   253
 10
-545.989693235083
 20
-29.90394115448
 30
0.0
 11
-550.349046325684
 21
-29.90394115448
 31
0.0
  0
LINE
  5
   545
  8
0
  6
CONTINUOUS
 62
   212
 10
-538.499053955078
 20
-26.90394115448
 30
0.0
 11
-538.499053955078
 21
-20.90394115448
 31
0.0
  0
LINE
  5
   546
  8
0
  6
CONTINUOUS
 62
   212
 10
-545.989693235083
 20
-19.90394115448
 30
0.0
 11
-550.349046325684
 21
-19.90394115448
 31
0.0
  0
LINE
  5
   547
  8
0
  6
CONTINUOUS
 62
   212
 10
-545.989693235083
 20
-27.90394115448
 30
0.0
 11
-550.349046325684
 21
-27.90394115448
 31
0.0
  0
LINE
  5
   548
  8
0
  6
CONTINUOUS
 62
   212
 10
-545.989693235083
 20
-20.40394115448
 30
0.0
 11
-550.349046325684
 21
-20.40394115448
 31
0.0
  0
LINE
  5
   549
  8
0
  6
CONTINUOUS
 62
   212
 10
-545.989693235083
 20
-27.40394115448
 30
0.0
 11
-550.349046325684
 21
-27.40394115448
 31
0.0
  0
LINE
  5
   54A
  8
0
  6
CONTINUOUS
 62
   212
 10
-539.499053955078
 20
-27.90394115448
 30
0.0
 11
-539.499053955078
 21
-19.90394115448
 31
0.0
  0
LINE
  5
   54B
  8
0
  6
CONTINUOUS
 62
   212
 10
-538.499053955078
 20
-20.90394115448
 30
0.0
 11
-539.499053955078
 21
-19.90394115448
 31
0.0
  0
LINE
  5
   54C
  8
0
  6
CONTINUOUS
 62
   212
 10
-539.499053955078
 20
-27.90394115448
 30
0.0
 11
-538.499053955078
 21
-26.90394115448
 31
0.0
  0
LINE
  5
   54D
  8
0
  6
CONTINUOUS
 62
     7
 10
-559.849046325684
 20
-17.40394115448
 30
0.0
 11
-560.249046325684
 21
-17.40394115448
 31
0.0
  0
LINE
  5
   54E
  8
0
  6
CONTINUOUS
 62
     7
 10
-559.849046325684
 20
-30.59144115448
 30
0.0
 11
-559.849046325684
 21
-17.21644115448
 31
0.0
  0
LINE
  5
   54F
  8
0
  6
CONTINUOUS
 62
     7
 10
-559.849046325684
 20
-30.40394115448
 30
0.0
 11
-560.249046325684
 21
-30.40394115448
 31
0.0
  0
LINE
  5
   550
  8
0
  6
CONTINUOUS
 62
     7
 10
-555.849046325684
 20
-17.21644115448
 30
0.0
 11
-559.849046325684
 21
-17.21644115448
 31
0.0
  0
LINE
  5
   551
  8
0
  6
CONTINUOUS
 62
     7
 10
-555.849046325684
 20
-30.59144115448
 30
0.0
 11
-555.849046325684
 21
-17.21644115448
 31
0.0
  0
LINE
  5
   552
  8
0
  6
CONTINUOUS
 62
     7
 10
-555.849046325684
 20
-27.09144115448
 30
0.0
 11
-559.849046325684
 21
-27.09144115448
 31
0.0
  0
LINE
  5
   553
  8
0
  6
CONTINUOUS
 62
     7
 10
-555.849046325684
 20
-20.71644115448
 30
0.0
 11
-559.849046325684
 21
-20.71644115448
 31
0.0
  0
LINE
  5
   554
  8
0
  6
CONTINUOUS
 62
     7
 10
-555.849046325684
 20
-30.59144115448
 30
0.0
 11
-559.849046325684
 21
-30.59144115448
 31
0.0
  0
LINE
  5
   555
  8
0
  6
CONTINUOUS
 62
     7
 10
-551.849046325684
 20
-17.21644115448
 30
0.0
 11
-555.849046325684
 21
-17.21644115448
 31
0.0
  0
LINE
  5
   556
  8
0
  6
CONTINUOUS
 62
     7
 10
-551.849046325684
 20
-20.71644115448
 30
0.0
 11
-555.849046325684
 21
-20.71644115448
 31
0.0
  0
LINE
  5
   557
  8
0
  6
CONTINUOUS
 62
     7
 10
-551.849046325684
 20
-27.09144115448
 30
0.0
 11
-555.849046325684
 21
-27.09144115448
 31
0.0
  0
LINE
  5
   558
  8
0
  6
CONTINUOUS
 62
     7
 10
-551.849046325684
 20
-30.59144115448
 30
0.0
 11
-555.849046325684
 21
-30.59144115448
 31
0.0
  0
LINE
  5
   559
  8
0
  6
CONTINUOUS
 62
     7
 10
-551.849046325684
 20
-30.59144115448
 30
0.0
 11
-551.849046325684
 21
-17.21644115448
 31
0.0
  0
LINE
  5
   55A
  8
0
  6
CONTINUOUS
 62
     7
 10
-540.489693235083
 20
-17.21644115448
 30
0.0
 11
-544.489693235083
 21
-17.21644115448
 31
0.0
  0
LINE
  5
   55B
  8
0
  6
CONTINUOUS
 62
     7
 10
-540.489693235083
 20
-20.71644115448
 30
0.0
 11
-544.489693235083
 21
-20.71644115448
 31
0.0
  0
LINE
  5
   55C
  8
0
  6
CONTINUOUS
 62
     7
 10
-540.489693235083
 20
-27.09144115448
 30
0.0
 11
-544.489693235083
 21
-27.09144115448
 31
0.0
  0
LINE
  5
   55D
  8
0
  6
CONTINUOUS
 62
     7
 10
-540.489693235083
 20
-30.59144115448
 30
0.0
 11
-544.489693235083
 21
-30.59144115448
 31
0.0
  0
LINE
  5
   55E
  8
0
  6
CONTINUOUS
 62
     7
 10
-544.489693235083
 20
-30.52894115448
 30
0.0
 11
-545.989693235083
 21
-30.52894115448
 31
0.0
  0
LINE
  5
   55F
  8
0
  6
CONTINUOUS
 62
     7
 10
-544.489693235083
 20
-17.27894115448
 30
0.0
 11
-545.989693235083
 21
-17.27894115448
 31
0.0
  0
LINE
  5
   560
  8
0
  6
CONTINUOUS
 62
     7
 10
-540.489693235083
 20
-30.59144115448
 30
0.0
 11
-540.489693235083
 21
-17.21644115448
 31
0.0
  0
LINE
  5
   561
  8
0
  6
CONTINUOUS
 62
     7
 10
-544.489693235083
 20
-30.59144115448
 30
0.0
 11
-544.489693235083
 21
-17.21644115448
 31
0.0
  0
LINE
  5
   562
  8
0
  6
CONTINUOUS
 62
     7
 10
-545.989693235083
 20
-30.52894115448
 30
0.0
 11
-545.989693235083
 21
-17.27894115448
 31
0.0
  0
LINE
  5
   563
  8
0
  6
CONTINUOUS
 62
   212
 10
-539.499053955078
 20
-19.90394115448
 30
0.0
 11
-540.489693235083
 21
-19.90394115448
 31
0.0
  0
LINE
  5
   564
  8
0
  6
CONTINUOUS
 62
   212
 10
-538.999053955078
 20
-20.40394115448
 30
0.0
 11
-540.489693235083
 21
-20.40394115448
 31
0.0
  0
LINE
  5
   565
  8
0
  6
CONTINUOUS
 62
   212
 10
-538.999053955078
 20
-27.40394115448
 30
0.0
 11
-540.489693235083
 21
-27.40394115448
 31
0.0
  0
LINE
  5
   566
  8
0
  6
CONTINUOUS
 62
   212
 10
-539.499053955078
 20
-27.90394115448
 30
0.0
 11
-540.489693235083
 21
-27.90394115448
 31
0.0
  0
LINE
  5
   567
  8
0
  6
CONTINUOUS
 62
     7
 10
-550.349046325684
 20
-17.27894115448
 30
0.0
 11
-551.849046325684
 21
-17.27894115448
 31
0.0
  0
LINE
  5
   568
  8
0
  6
CONTINUOUS
 62
     7
 10
-550.349046325684
 20
-30.52894115448
 30
0.0
 11
-550.349046325684
 21
-17.27894115448
 31
0.0
  0
LINE
  5
   569
  8
0
  6
CONTINUOUS
 62
     7
 10
-550.349046325684
 20
-30.52894115448
 30
0.0
 11
-551.849046325684
 21
-30.52894115448
 31
0.0
  0
TEXT
  5
   56A
  8
0
  6
CONTINUOUS
 62
     7
 10
-665.95381307166
 20
106.005594272735
 30
0.0
 40
3.00000002980232
  1
ISOLATING DISTANCE
 50
359.999999948034
 41
0.916666604744064
 72
     1
 11
-641.478814482689
 21
107.505594265561
 31
0.0
 73
     2
  0
INSERT
  5
   56B
  8
0
  6
CONTINUOUS
 62
     7
  2
*UDIM171
 10
0.0
 20
0.0
 30
0.0
  0
INSERT
  5
   56C
  8
0
  6
CONTINUOUS
 62
     7
  2
*UDIM172
 10
0.0
 20
0.0
 30
0.0
  0
INSERT
  5
   56D
  8
0
  6
CONTINUOUS
 62
     7
  2
*UDIM173
 10
0.0
 20
0.0
 30
0.0
  0
INSERT
  5
   56E
  8
0
  6
CONTINUOUS
 62
     7
  2
*UDIM174
 10
0.0
 20
0.0
 30
0.0
  0
INSERT
  5
   56F
  8
0
  6
CONTINUOUS
 62
     7
  2
*UDIM175
 10
0.0
 20
0.0
 30
0.0
  0
INSERT
  5
   570
  8
0
  6
CONTINUOUS
 62
     7
  2
*UDIM176
 10
0.0
 20
0.0
 30
0.0
  0
INSERT
  5
   571
  8
0
  6
CONTINUOUS
 62
     7
  2
*UDIM177
 10
0.0
 20
0.0
 30
0.0
  0
INSERT
  5
   572
  8
0
  6
CONTINUOUS
 62
     7
  2
*UDIM178
 10
0.0
 20
0.0
 30
0.0
  0
INSERT
  5
   573
  8
0
  6
CONTINUOUS
 62
     7
  2
*UDIM179
 10
0.0
 20
0.0
 30
0.0
  0
TEXT
  5
   574
  8
0
  6
CONTINUOUS
 62
     7
 10
-689.854411835829
 20
30.283914639156
 30
0.0
 40
3.00000002980232
  1
X
 50
359.999999948034
 41
0.916666604744064
 72
     2
 11
-687.65441196696
 21
30.2839146371717
 31
0.0
  0
INSERT
  5
   575
  8
0
  6
CONTINUOUS
 62
     7
  2
*UDIM180
 10
0.0
 20
0.0
 30
0.0
  0
INSERT
  5
   576
  8
0
  6
CONTINUOUS
 62
     7
  2
*UDIM181
 10
0.0
 20
0.0
 30
0.0
  0
TEXT
  5
   577
  8
0
  6
CONTINUOUS
 62
     5
 10
-680.626468669407
 20
19.8276400711461
 30
0.0
 40
3.00000002980232
  1
=       =
 50
89.9999999480344
 41
0.916666604744064
 72
     2
 11
-680.626468647488
 21
44.0276386724238
 31
0.0
  0
INSERT
  5
   578
  8
0
  6
CONTINUOUS
 62
     7
  2
*UDIM182
 10
0.0
 20
0.0
 30
0.0
  0
INSERT
  5
   579
  8
0
  6
CONTINUOUS
 62
     7
  2
*UDIM183
 10
0.0
 20
0.0
 30
0.0
  0
LINE
  5
   57A
  8
0
  6
DASHDOT
 62
     7
 10
-633.207641601563
 20
-79.5539919844618
 30
0.0
 11
-633.207641601563
 21
-156.361945681811
 31
0.0
  0
LINE
  5
   57B
  8
0
  6
CONTINUOUS
 62
     7
 10
-651.645141601563
 20
-83.6486181534013
 30
0.0
 11
-651.645141601563
 21
-153.094536880943
 31
0.0
  0
LINE
  5
   57C
  8
0
  6
CONTINUOUS
 62
     7
 10
-614.770141601563
 20
-83.6486181534013
 30
0.0
 11
-614.770141601563
 21
-153.094536880943
 31
0.0
  0
LINE
  5
   57D
  8
0
  6
DASHDOT
 62
     7
 10
-615.514661554845
 20
-102.093521118164
 30
0.0
 11
-650.578854410518
 21
-102.093521118164
 31
0.0
  0
LINE
  5
   57E
  8
0
  6
DASHDOT
 62
     7
 10
-615.514661554845
 20
-135.843521118164
 30
0.0
 11
-650.630626459003
 21
-135.843521118164
 31
0.0
  0
LINE
  5
   57F
  8
0
  6
DASHDOT
 62
     7
 10
-647.582641601563
 20
-98.3434344193297
 30
0.0
 11
-647.582641601563
 21
-139.804216581347
 31
0.0
  0
LINE
  5
   580
  8
0
  6
DASHDOT
 62
     7
 10
-618.832641601563
 20
-99.1113864718624
 30
0.0
 11
-618.832641601563
 21
-140.632569357113
 31
0.0
  0
CIRCLE
  5
   581
  8
0
  6
CONTINUOUS
 62
     7
 10
-647.582641601563
 20
-102.093521118164
 30
0.0
 40
0.75
  0
CIRCLE
  5
   582
  8
0
  6
CONTINUOUS
 62
     7
 10
-618.832641601563
 20
-102.093521118164
 30
0.0
 40
0.75
  0
CIRCLE
  5
   583
  8
0
  6
CONTINUOUS
 62
     7
 10
-647.582641601563
 20
-135.843521118164
 30
0.0
 40
0.75
  0
CIRCLE
  5
   584
  8
0
  6
CONTINUOUS
 62
     7
 10
-618.832641601563
 20
-135.843521118164
 30
0.0
 40
0.75
  0
LINE
  5
   585
  8
0
  6
DASHDOT
 62
     7
 10
-616.328914017437
 20
-91.7185211181641
 30
0.0
 11
-650.246711832151
 21
-91.7185211181641
 31
0.0
  0
LINE
  5
   586
  8
0
  6
DASHDOT
 62
     7
 10
-616.459367085955
 20
-146.218521118164
 30
0.0
 11
-649.59444648956
 21
-146.218521118164
 31
0.0
  0
LINE
  5
   587
  8
0
  6
DASHDOT
 62
     7
 10
-644.145141601563
 20
-85.4347774832644
 30
0.0
 11
-644.145141601563
 21
-100.303827527411
 31
0.0
  0
LINE
  5
   588
  8
0
  6
DASHDOT
 62
     7
 10
-622.270141601563
 20
-85.4347774832644
 30
0.0
 11
-622.270141601563
 21
-100.434280595929
 31
0.0
  0
LINE
  5
   589
  8
0
  6
DASHDOT
 62
     7
 10
-622.270141601563
 20
-139.700654219886
 30
0.0
 11
-622.270141601563
 21
-151.310977318
 31
0.0
  0
LINE
  5
   58A
  8
0
  6
DASHDOT
 62
     7
 10
-644.145141601563
 20
-139.43974808285
 30
0.0
 11
-644.145141601563
 21
-151.571883455036
 31
0.0
  0
ARC
  5
   58B
  8
0
  6
CONTINUOUS
 62
     7
 10
-644.145141601563
 20
-146.218521118164
 30
0.0
 40
4.5
 50
449.999999896069
 51
629.999999896069
  0
ARC
  5
   58C
  8
0
  6
CONTINUOUS
 62
     7
 10
-622.270141601563
 20
-146.218521118164
 30
0.0
 40
4.5
 50
269.999999896069
 51
449.999999896069
  0
ARC
  5
   58D
  8
0
  6
CONTINUOUS
 62
     7
 10
-622.270141601563
 20
-91.7185211181641
 30
0.0
 40
4.5
 50
269.999999896069
 51
449.999999896069
  0
ARC
  5
   58E
  8
0
  6
CONTINUOUS
 62
     7
 10
-644.145141601563
 20
-91.7185211181641
 30
0.0
 40
4.5
 50
449.999999896069
 51
629.999999896069
  0
LINE
  5
   58F
  8
0
  6
CONTINUOUS
 62
     7
 10
-622.270141601563
 20
-87.2185211181641
 30
0.0
 11
-644.145141601563
 21
-87.2185211181641
 31
0.0
  0
LINE
  5
   590
  8
0
  6
CONTINUOUS
 62
     7
 10
-622.270141601563
 20
-96.2185211181641
 30
0.0
 11
-644.145141601563
 21
-96.2185211181641
 31
0.0
  0
LINE
  5
   591
  8
0
  6
CONTINUOUS
 62
     7
 10
-622.270141601563
 20
-141.718521118164
 30
0.0
 11
-644.145141601563
 21
-141.718521118164
 31
0.0
  0
LINE
  5
   592
  8
0
  6
CONTINUOUS
 62
     7
 10
-622.270141601563
 20
-150.718521118164
 30
0.0
 11
-644.145141601563
 21
-150.718521118164
 31
0.0
  0
LINE
  5
   593
  8
0
  6
CONTINUOUS
 62
     7
 10
-614.770141601563
 20
-83.6486181534013
 30
0.0
 11
-651.645141601563
 21
-83.6486181534013
 31
0.0
  0
LINE
  5
   594
  8
0
  6
CONTINUOUS
 62
     7
 10
-614.770141601563
 20
-153.094536880943
 30
0.0
 11
-651.645141601563
 21
-153.094536880943
 31
0.0
  0
LINE
  5
   595
  8
0
  6
DASHDOT
 62
     7
 10
-605.422310316863
 20
-118.531021118164
 30
0.0
 11
-658.606030280317
 21
-118.531021118164
 31
0.0
  0
TEXT
  5
   596
  8
0
  6
CONTINUOUS
 62
     7
 10
-636.197686943145
 20
-70.8071441779504
 30
0.0
 40
3.00000002980232
  1
Y
 50
359.999999896069
 41
0.916666604744064
 72
     1
 11
-635.097687005997
 21
-69.3071441650391
 31
0.0
 73
     2
  0
INSERT
  5
   597
  8
0
  6
CONTINUOUS
 62
     7
  2
*UDIM184
 10
0.0
 20
0.0
 30
0.0
  0
INSERT
  5
   598
  8
0
  6
CONTINUOUS
 62
     7
  2
*UDIM185
 10
0.0
 20
0.0
 30
0.0
  0
TEXT
  5
   599
  8
0
  6
CONTINUOUS
 62
     7
 10
-641.378933909269
 20
-81.8592910920364
 30
0.0
 40
3.00000002980232
  1
=    =
 50
359.999999896069
 41
0.916666604744064
 72
     2
 11
-625.428934832644
 21
-81.8592911208886
 31
0.0
  0
INSERT
  5
   59A
  8
0
  6
CONTINUOUS
 62
     7
  2
*UDIM186
 10
0.0
 20
0.0
 30
0.0
  0
INSERT
  5
   59B
  8
0
  6
CONTINUOUS
 62
     7
  2
*UDIM187
 10
0.0
 20
0.0
 30
0.0
  0
INSERT
  5
   59C
  8
0
  6
CONTINUOUS
 62
     7
  2
*UDIM188
 10
0.0
 20
0.0
 30
0.0
  0
TEXT
  5
   59D
  8
0
  6
CONTINUOUS
 62
     7
 10
-640.593181612821
 20
-131.481689468501
 30
0.0
 40
3.00000002980232
  1
=    =
 50
359.999999896069
 41
0.916666604744064
 72
     2
 11
-624.643182536196
 21
-131.481689497353
 31
0.0
  0
INSERT
  5
   59E
  8
0
  6
CONTINUOUS
 62
     7
  2
*UDIM189
 10
0.0
 20
0.0
 30
0.0
  0
INSERT
  5
   59F
  8
0
  6
CONTINUOUS
 62
     7
  2
*UDIM190
 10
0.0
 20
0.0
 30
0.0
  0
INSERT
  5
   5A0
  8
0
  6
CONTINUOUS
 62
     7
  2
*UDIM191
 10
0.0
 20
0.0
 30
0.0
  0
TEXT
  5
   5A1
  8
0
  6
CONTINUOUS
 62
     7
 10
-685.077678683133
 20
-120.784538773693
 30
0.0
 40
3.00000002980232
  1
X
 50
359.999999896069
 41
0.916666604744064
 72
     2
 11
-682.877678814264
 21
-120.784538777672
 31
0.0
  0
TEXT
  5
   5A2
  8
0
  6
CONTINUOUS
 62
     7
 10
-602.777462008329
 20
-120.41931488911
 30
0.0
 40
3.00000002980232
  1
X
 50
359.999999896069
 41
0.916666604744064
 72
     2
 11
-600.577462139459
 21
-120.41931489309
 31
0.0
  0
TEXT
  5
   5A3
  8
0
  6
CONTINUOUS
 62
     7
 10
-634.909524681897
 20
-161.31579592625
 30
0.0
 40
3.00000002980232
  1
Y
 50
359.999999896069
 41
0.916666604744064
 72
     2
 11
-632.709524813028
 21
-161.31579593023
 31
0.0
  0
LINE
  5
   5A4
  8
0
  6
CONTINUOUS
 62
     3
 10
-456.885056228287
 20
-121.523234635079
 30
0.0
 11
-456.885056228287
 21
-122.523234635079
 31
0.0
  0
LINE
  5
   5A5
  8
0
  6
CONTINUOUS
 62
     3
 10
-459.385056228287
 20
-121.523234635079
 30
0.0
 11
-459.385056228287
 21
-122.523234635079
 31
0.0
  0
LINE
  5
   5A6
  8
0
  6
CONTINUOUS
 62
     3
 10
-450.635056228287
 20
-122.523234635079
 30
0.0
 11
-465.635056228287
 21
-122.523234635079
 31
0.0
  0
LINE
  5
   5A7
  8
0
  6
CONTINUOUS
 62
     3
 10
-450.635056228287
 20
-122.523234635079
 30
0.0
 11
-450.635056228287
 21
-124.960052490234
 31
0.0
  0
LINE
  5
   5A8
  8
0
  6
CONTINUOUS
 62
     2
 10
-491.885056228287
 20
-116.523234635079
 30
0.0
 11
-491.885056228287
 21
-124.960052490234
 31
0.0
  0
LINE
  5
   5A9
  8
0
  6
CONTINUOUS
 62
     2
 10
-493.135056228287
 20
-113.273234635079
 30
0.0
 11
-493.135056228287
 21
-124.960052490234
 31
0.0
  0
LINE
  5
   5AA
  8
0
  6
CONTINUOUS
 62
     2
 10
-490.635056228287
 20
-113.273234635079
 30
0.0
 11
-493.135056228287
 21
-113.273234635079
 31
0.0
  0
LINE
  5
   5AB
  8
0
  6
CONTINUOUS
 62
     2
 10
-466.135056228287
 20
-113.273234635079
 30
0.0
 11
-472.010056228287
 21
-113.273234635079
 31
0.0
  0
LINE
  5
   5AC
  8
0
  6
CONTINUOUS
 62
     2
 10
-470.32255241359
 20
-116.523234635079
 30
0.0
 11
-493.135056228287
 21
-116.523234635079
 31
0.0
  0
LINE
  5
   5AD
  8
0
  6
CONTINUOUS
 62
     2
 10
-458.135056228287
 20
-116.523234635079
 30
0.0
 11
-467.822556228287
 21
-116.523234635079
 31
0.0
  0
LINE
  5
   5AE
  8
0
  6
CONTINUOUS
 62
     2
 10
-487.010056228287
 20
-110.273234635079
 30
0.0
 11
-490.635056228287
 21
-110.273234635079
 31
0.0
  0
LINE
  5
   5AF
  8
0
  6
CONTINUOUS
 62
     2
 10
-472.010056228287
 20
-111.023234635079
 30
0.0
 11
-487.010056228287
 21
-111.023234635079
 31
0.0
  0
LINE
  5
   5B0
  8
0
  6
CONTINUOUS
 62
     2
 10
-458.135056228287
 20
-111.023234635079
 30
0.0
 11
-466.135056228287
 21
-111.023234635079
 31
0.0
  0
LINE
  5
   5B1
  8
0
  6
CONTINUOUS
 62
     2
 10
-466.135056228287
 20
-111.273234635079
 30
0.0
 11
-472.010056228287
 21
-111.273234635079
 31
0.0
  0
LINE
  5
   5B2
  8
0
  6
CONTINUOUS
 62
     2
 10
-473.635056228287
 20
-121.523234635079
 30
0.0
 11
-486.385056228287
 21
-121.523234635079
 31
0.0
  0
LINE
  5
   5B3
  8
0
  6
CONTINUOUS
 62
     2
 10
-464.510056228287
 20
-121.523234635079
 30
0.0
 11
-464.510056228287
 21
-122.523234635079
 31
0.0
  0
LINE
  5
   5B4
  8
0
  6
CONTINUOUS
 62
     2
 10
-458.135056228287
 20
-121.523234635079
 30
0.0
 11
-464.510056228287
 21
-121.523234635079
 31
0.0
  0
LINE
  5
   5B5
  8
0
  6
CONTINUOUS
 62
     2
 10
-469.947556228287
 20
-116.523234635078
 30
0.0
 11
-469.947556228287
 21
-124.960052490234
 31
0.0
  0
LINE
  5
   5B6
  8
0
  6
CONTINUOUS
 62
     2
 10
-468.197556228287
 20
-116.523234635078
 30
0.0
 11
-468.197556228287
 21
-124.960052490234
 31
0.0
  0
LINE
  5
   5B7
  8
0
  6
CONTINUOUS
 62
     2
 10
-468.197556228287
 20
-116.523234635079
 30
0.0
 11
-469.947556228287
 21
-116.523234635079
 31
0.0
  0
LINE
  5
   5B8
  8
0
  6
CONTINUOUS
 62
     2
 10
-487.510056228287
 20
-121.523234635079
 30
0.0
 11
-487.510056228287
 21
-122.523234635079
 31
0.0
  0
LINE
  5
   5B9
  8
0
  6
CONTINUOUS
 62
     2
 10
-486.385056228287
 20
-116.523234635079
 30
0.0
 11
-486.385056228287
 21
-122.523234635079
 31
0.0
  0
LINE
  5
   5BA
  8
0
  6
CONTINUOUS
 62
     2
 10
-486.385056228287
 20
-121.523234635079
 30
0.0
 11
-487.510056228287
 21
-121.523234635079
 31
0.0
  0
LINE
  5
   5BB
  8
0
  6
CONTINUOUS
 62
     2
 10
-472.510056228287
 20
-121.523234635079
 30
0.0
 11
-472.510056228287
 21
-122.523234635079
 31
0.0
  0
LINE
  5
   5BC
  8
0
  6
CONTINUOUS
 62
     2
 10
-473.635056228287
 20
-116.523234635079
 30
0.0
 11
-473.635056228287
 21
-122.523234635079
 31
0.0
  0
LINE
  5
   5BD
  8
0
  6
CONTINUOUS
 62
     2
 10
-472.510056228287
 20
-121.523234635079
 30
0.0
 11
-473.635056228287
 21
-121.523234635079
 31
0.0
  0
LINE
  5
   5BE
  8
0
  6
CONTINUOUS
 62
     2
 10
-481.260056228287
 20
-120.273234635079
 30
0.0
 11
-481.260056228287
 21
-121.523234635079
 31
0.0
  0
LINE
  5
   5BF
  8
0
  6
CONTINUOUS
 62
     2
 10
-478.760056228287
 20
-120.273234635079
 30
0.0
 11
-478.760056228287
 21
-121.523234635079
 31
0.0
  0
LINE
  5
   5C0
  8
0
  6
CONTINUOUS
 62
     2
 10
-478.760056228287
 20
-120.273234635079
 30
0.0
 11
-481.260056228287
 21
-120.273234635079
 31
0.0
  0
LINE
  5
   5C1
  8
0
  6
CONTINUOUS
 62
     2
 10
-478.510056228287
 20
-121.523234635079
 30
0.0
 11
-478.510056228287
 21
-122.023234635079
 31
0.0
  0
LINE
  5
   5C2
  8
0
  6
CONTINUOUS
 62
     2
 10
-481.510056228287
 20
-121.523234635079
 30
0.0
 11
-481.510056228287
 21
-122.023234635079
 31
0.0
  0
LINE
  5
   5C3
  8
0
  6
CONTINUOUS
 62
     2
 10
-465.635056228287
 20
-121.523234635079
 30
0.0
 11
-465.635056228287
 21
-122.523234635079
 31
0.0
  0
LINE
  5
   5C4
  8
0
  6
CONTINUOUS
 62
     2
 10
-464.510056228287
 20
-116.523234635079
 30
0.0
 11
-464.510056228287
 21
-121.523234635079
 31
0.0
  0
LINE
  5
   5C5
  8
0
  6
CONTINUOUS
 62
     2
 10
-464.510056228287
 20
-121.523234635079
 30
0.0
 11
-465.635056228287
 21
-121.523234635079
 31
0.0
  0
LINE
  5
   5C6
  8
0
  6
CONTINUOUS
 62
     2
 10
-459.385056228287
 20
-120.273234635079
 30
0.0
 11
-459.385056228287
 21
-121.523234635079
 31
0.0
  0
LINE
  5
   5C7
  8
0
  6
CONTINUOUS
 62
     2
 10
-458.135056228287
 20
-120.273234635079
 30
0.0
 11
-459.385056228287
 21
-120.273234635079
 31
0.0
  0
LINE
  5
   5C8
  8
0
  6
CONTINUOUS
 62
     2
 10
-459.635056228287
 20
-121.523234635079
 30
0.0
 11
-459.635056228287
 21
-122.023234635079
 31
0.0
  0
LINE
  5
   5C9
  8
0
  6
CONTINUOUS
 62
     2
 10
-458.135056228287
 20
-111.023234635079
 30
0.0
 11
-458.135056228287
 21
-121.523234635079
 31
0.0
  0
LINE
  5
   5CA
  8
0
  6
CONTINUOUS
 62
     2
 10
-491.385056228287
 20
-116.523234635079
 30
0.0
 11
-491.385056228287
 21
-124.960052490234
 31
0.0
  0
LINE
  5
   5CB
  8
0
  6
CONTINUOUS
 62
     2
 10
-490.635056228287
 20
-113.273234635079
 30
0.0
 11
-490.635056228287
 21
-116.523234635079
 31
0.0
  0
LINE
  5
   5CC
  8
0
  6
CONTINUOUS
 62
     2
 10
-488.010056228287
 20
-111.023234635079
 30
0.0
 11
-488.010056228287
 21
-116.523234635079
 31
0.0
  0
LINE
  5
   5CD
  8
0
  6
CONTINUOUS
 62
     2
 10
-472.010056228287
 20
-111.273234635079
 30
0.0
 11
-472.010056228287
 21
-116.523234635079
 31
0.0
  0
LINE
  5
   5CE
  8
0
  6
CONTINUOUS
 62
     2
 10
-466.135056228287
 20
-111.273234635079
 30
0.0
 11
-466.135056228287
 21
-116.523234635079
 31
0.0
  0
LINE
  5
   5CF
  8
0
  6
CONTINUOUS
 62
     2
 10
-481.510056228287
 20
-122.023234635079
 30
0.0
 11
-486.385056228287
 21
-122.023234635079
 31
0.0
  0
LINE
  5
   5D0
  8
0
  6
CONTINUOUS
 62
     2
 10
-473.635056228287
 20
-122.023234635079
 30
0.0
 11
-478.510056228287
 21
-122.023234635079
 31
0.0
  0
LINE
  5
   5D1
  8
0
  6
CONTINUOUS
 62
     2
 10
-459.635056228287
 20
-122.023234635079
 30
0.0
 11
-464.510056228287
 21
-122.023234635079
 31
0.0
  0
LINE
  5
   5D2
  8
0
  6
CONTINUOUS
 62
     2
 10
-468.197556228287
 20
-119.273234635079
 30
0.0
 11
-469.947556228287
 21
-119.273234635079
 31
0.0
  0
LINE
  5
   5D3
  8
0
  6
CONTINUOUS
 62
     2
 10
-468.197556228287
 20
-117.523234635079
 30
0.0
 11
-469.947556228287
 21
-117.523234635079
 31
0.0
  0
LINE
  5
   5D4
  8
0
  6
DASHDOT
 62
     7
 10
-458.135056228287
 20
-74.663555801064
 30
0.0
 11
-458.135056228287
 21
-126.47451968467
 31
0.0
  0
LINE
  5
   5D5
  8
0
  6
CONTINUOUS
 62
     2
 10
-424.385056228287
 20
-116.523234635079
 30
0.0
 11
-424.385056228287
 21
-124.960052490234
 31
0.0
  0
LINE
  5
   5D6
  8
0
  6
CONTINUOUS
 62
     2
 10
-423.135056228287
 20
-113.273234635079
 30
0.0
 11
-423.135056228287
 21
-116.523234635079
 31
0.0
  0
LINE
  5
   5D7
  8
0
  6
CONTINUOUS
 62
     2
 10
-423.135056228287
 20
-113.273234635079
 30
0.0
 11
-425.635056228287
 21
-113.273234635079
 31
0.0
  0
LINE
  5
   5D8
  8
0
  6
CONTINUOUS
 62
     2
 10
-444.260056228287
 20
-113.273234635079
 30
0.0
 11
-450.135056228287
 21
-113.273234635079
 31
0.0
  0
LINE
  5
   5D9
  8
0
  6
CONTINUOUS
 62
     2
 10
-424.385056228287
 20
-116.523234635079
 30
0.0
 11
-445.947560042984
 21
-116.523234635079
 31
0.0
  0
LINE
  5
   5DA
  8
0
  6
CONTINUOUS
 62
     2
 10
-448.447556228287
 20
-116.523234635079
 30
0.0
 11
-458.135056228287
 21
-116.523234635079
 31
0.0
  0
LINE
  5
   5DB
  8
0
  6
CONTINUOUS
 62
     2
 10
-425.635056228287
 20
-110.273234635079
 30
0.0
 11
-429.260056228287
 21
-110.273234635079
 31
0.0
  0
LINE
  5
   5DC
  8
0
  6
CONTINUOUS
 62
     2
 10
-428.260056228287
 20
-111.023234635079
 30
0.0
 11
-429.260056228287
 21
-111.023234635079
 31
0.0
  0
LINE
  5
   5DD
  8
0
  6
CONTINUOUS
 62
     2
 10
-450.135056228287
 20
-111.023234635079
 30
0.0
 11
-458.135056228287
 21
-111.023234635079
 31
0.0
  0
LINE
  5
   5DE
  8
0
  6
CONTINUOUS
 62
     2
 10
-444.260056228287
 20
-111.273234635079
 30
0.0
 11
-450.135056228287
 21
-111.273234635079
 31
0.0
  0
LINE
  5
   5DF
  8
0
  6
CONTINUOUS
 62
     2
 10
-429.885056228287
 20
-121.523234635079
 30
0.0
 11
-442.635056228287
 21
-121.523234635079
 31
0.0
  0
LINE
  5
   5E0
  8
0
  6
CONTINUOUS
 62
     2
 10
-451.760056228287
 20
-121.523234635079
 30
0.0
 11
-451.760056228287
 21
-122.523234635079
 31
0.0
  0
LINE
  5
   5E1
  8
0
  6
CONTINUOUS
 62
     2
 10
-451.760056228287
 20
-121.523234635079
 30
0.0
 11
-458.135056228287
 21
-121.523234635079
 31
0.0
  0
LINE
  5
   5E2
  8
0
  6
CONTINUOUS
 62
     2
 10
-446.322556228287
 20
-116.523234635078
 30
0.0
 11
-446.322556228287
 21
-124.960052490234
 31
0.0
  0
LINE
  5
   5E3
  8
0
  6
CONTINUOUS
 62
     2
 10
-448.072556228287
 20
-116.523234635078
 30
0.0
 11
-448.072556228287
 21
-124.960052490234
 31
0.0
  0
LINE
  5
   5E4
  8
0
  6
CONTINUOUS
 62
     2
 10
-446.322556228287
 20
-116.523234635079
 30
0.0
 11
-448.072556228287
 21
-116.523234635079
 31
0.0
  0
LINE
  5
   5E5
  8
0
  6
CONTINUOUS
 62
     2
 10
-423.135056228287
 20
-116.523234635081
 30
0.0
 11
-423.135056228287
 21
-124.960052490234
 31
0.0
  0
LINE
  5
   5E6
  8
0
  6
CONTINUOUS
 62
     2
 10
-423.135056228287
 20
-116.523234635079
 30
0.0
 11
-424.385056228287
 21
-116.523234635079
 31
0.0
  0
LINE
  5
   5E7
  8
0
  6
CONTINUOUS
 62
     2
 10
-428.760056228287
 20
-121.523234635079
 30
0.0
 11
-428.760056228287
 21
-122.523234635079
 31
0.0
  0
LINE
  5
   5E8
  8
0
  6
CONTINUOUS
 62
     2
 10
-429.885056228287
 20
-116.523234635079
 30
0.0
 11
-429.885056228287
 21
-122.523234635079
 31
0.0
  0
LINE
  5
   5E9
  8
0
  6
CONTINUOUS
 62
     2
 10
-428.760056228287
 20
-121.523234635079
 30
0.0
 11
-429.885056228287
 21
-121.523234635079
 31
0.0
  0
LINE
  5
   5EA
  8
0
  6
CONTINUOUS
 62
     2
 10
-443.760056228287
 20
-121.523234635079
 30
0.0
 11
-443.760056228287
 21
-122.523234635079
 31
0.0
  0
LINE
  5
   5EB
  8
0
  6
CONTINUOUS
 62
     2
 10
-442.635056228287
 20
-116.523234635079
 30
0.0
 11
-442.635056228287
 21
-122.523234635079
 31
0.0
  0
LINE
  5
   5EC
  8
0
  6
CONTINUOUS
 62
     2
 10
-442.635056228287
 20
-121.523234635079
 30
0.0
 11
-443.760056228287
 21
-121.523234635079
 31
0.0
  0
LINE
  5
   5ED
  8
0
  6
CONTINUOUS
 62
     2
 10
-435.010056228287
 20
-120.273234635079
 30
0.0
 11
-435.010056228287
 21
-121.523234635079
 31
0.0
  0
LINE
  5
   5EE
  8
0
  6
CONTINUOUS
 62
     2
 10
-437.510056228287
 20
-120.273234635079
 30
0.0
 11
-437.510056228287
 21
-121.523234635079
 31
0.0
  0
LINE
  5
   5EF
  8
0
  6
CONTINUOUS
 62
     2
 10
-435.010056228287
 20
-120.273234635079
 30
0.0
 11
-437.510056228287
 21
-120.273234635079
 31
0.0
  0
LINE
  5
   5F0
  8
0
  6
CONTINUOUS
 62
     2
 10
-437.760056228287
 20
-121.523234635079
 30
0.0
 11
-437.760056228287
 21
-122.023234635079
 31
0.0
  0
LINE
  5
   5F1
  8
0
  6
CONTINUOUS
 62
     2
 10
-434.760056228287
 20
-121.523234635079
 30
0.0
 11
-434.760056228287
 21
-122.023234635079
 31
0.0
  0
LINE
  5
   5F2
  8
0
  6
CONTINUOUS
 62
     2
 10
-450.635056228287
 20
-121.523234635079
 30
0.0
 11
-450.635056228287
 21
-122.523234635079
 31
0.0
  0
LINE
  5
   5F3
  8
0
  6
CONTINUOUS
 62
     2
 10
-451.760056228287
 20
-116.523234635079
 30
0.0
 11
-451.760056228287
 21
-121.523234635079
 31
0.0
  0
LINE
  5
   5F4
  8
0
  6
CONTINUOUS
 62
     2
 10
-450.635056228287
 20
-121.523234635079
 30
0.0
 11
-451.760056228287
 21
-121.523234635079
 31
0.0
  0
LINE
  5
   5F5
  8
0
  6
CONTINUOUS
 62
     2
 10
-456.885056228287
 20
-120.273234635079
 30
0.0
 11
-456.885056228287
 21
-121.523234635079
 31
0.0
  0
LINE
  5
   5F6
  8
0
  6
CONTINUOUS
 62
     2
 10
-456.885056228287
 20
-120.273234635079
 30
0.0
 11
-458.135056228287
 21
-120.273234635079
 31
0.0
  0
LINE
  5
   5F7
  8
0
  6
CONTINUOUS
 62
     2
 10
-456.635056228287
 20
-121.523234635079
 30
0.0
 11
-456.635056228287
 21
-122.023234635079
 31
0.0
  0
LINE
  5
   5F8
  8
0
  6
CONTINUOUS
 62
     2
 10
-424.885056228287
 20
-116.523234635079
 30
0.0
 11
-424.885056228287
 21
-124.960052490234
 31
0.0
  0
LINE
  5
   5F9
  8
0
  6
CONTINUOUS
 62
     2
 10
-425.635056228287
 20
-113.273234635079
 30
0.0
 11
-425.635056228287
 21
-116.523234635079
 31
0.0
  0
LINE
  5
   5FA
  8
0
  6
CONTINUOUS
 62
     2
 10
-428.260056228287
 20
-111.023234635079
 30
0.0
 11
-428.260056228287
 21
-116.523234635079
 31
0.0
  0
LINE
  5
   5FB
  8
0
  6
CONTINUOUS
 62
     2
 10
-444.260056228287
 20
-111.273234635079
 30
0.0
 11
-444.260056228287
 21
-116.523234635079
 31
0.0
  0
LINE
  5
   5FC
  8
0
  6
CONTINUOUS
 62
     2
 10
-450.135056228287
 20
-111.273234635079
 30
0.0
 11
-450.135056228287
 21
-116.523234635079
 31
0.0
  0
LINE
  5
   5FD
  8
0
  6
CONTINUOUS
 62
     2
 10
-429.885056228287
 20
-122.023234635079
 30
0.0
 11
-434.760056228287
 21
-122.023234635079
 31
0.0
  0
LINE
  5
   5FE
  8
0
  6
CONTINUOUS
 62
     2
 10
-437.760056228287
 20
-122.023234635079
 30
0.0
 11
-442.635056228287
 21
-122.023234635079
 31
0.0
  0
LINE
  5
   5FF
  8
0
  6
CONTINUOUS
 62
     2
 10
-451.760056228287
 20
-122.023234635079
 30
0.0
 11
-456.635056228287
 21
-122.023234635079
 31
0.0
  0
LINE
  5
   600
  8
0
  6
CONTINUOUS
 62
     2
 10
-446.322556228287
 20
-119.273234635079
 30
0.0
 11
-448.072556228287
 21
-119.273234635079
 31
0.0
  0
LINE
  5
   601
  8
0
  6
CONTINUOUS
 62
     2
 10
-446.322556228287
 20
-117.523234635079
 30
0.0
 11
-448.072556228287
 21
-117.523234635079
 31
0.0
  0
LINE
  5
   602
  8
0
  6
CONTINUOUS
 62
     3
 10
-478.760056228287
 20
-121.523234635079
 30
0.0
 11
-478.760056228287
 21
-122.523234635079
 31
0.0
  0
LINE
  5
   603
  8
0
  6
CONTINUOUS
 62
     3
 10
-481.260056228287
 20
-121.523234635079
 30
0.0
 11
-481.260056228287
 21
-122.523234635079
 31
0.0
  0
LINE
  5
   604
  8
0
  6
CONTINUOUS
 62
     3
 10
-472.510056228287
 20
-122.523234635079
 30
0.0
 11
-487.510056228287
 21
-122.523234635079
 31
0.0
  0
LINE
  5
   605
  8
0
  6
CONTINUOUS
 62
     3
 10
-428.760056228287
 20
-122.523234635079
 30
0.0
 11
-443.760056228287
 21
-122.523234635079
 31
0.0
  0
LINE
  5
   606
  8
0
  6
CONTINUOUS
 62
     3
 10
-437.510056228287
 20
-121.523234635079
 30
0.0
 11
-437.510056228287
 21
-122.523234635079
 31
0.0
  0
LINE
  5
   607
  8
0
  6
CONTINUOUS
 62
     3
 10
-435.010056228287
 20
-121.523234635079
 30
0.0
 11
-435.010056228287
 21
-122.523234635079
 31
0.0
  0
LINE
  5
   608
  8
0
  6
DASHDOT
 62
     7
 10
-480.010056228287
 20
-49.2234539288946
 30
0.0
 11
-480.010056228287
 21
-127.324544390721
 31
0.0
  0
LINE
  5
   609
  8
0
  6
CONTINUOUS
 62
   253
 10
-473.010056228287
 20
-103.023234635079
 30
0.0
 11
-473.010056228287
 21
-111.023234635079
 31
0.0
  0
LINE
  5
   60A
  8
0
  6
CONTINUOUS
 62
   253
 10
-487.010056228287
 20
-103.023234635079
 30
0.0
 11
-487.010056228287
 21
-111.023234635079
 31
0.0
  0
LINE
  5
   60B
  8
0
  6
CONTINUOUS
 62
   253
 10
-451.635056228287
 20
-103.023234635079
 30
0.0
 11
-464.635056228287
 21
-103.023234635079
 31
0.0
  0
LINE
  5
   60C
  8
0
  6
CONTINUOUS
 62
   253
 10
-473.010056228287
 20
-103.023234635079
 30
0.0
 11
-487.010056228287
 21
-103.023234635079
 31
0.0
  0
LINE
  5
   60D
  8
0
  6
CONTINUOUS
 62
   253
 10
-451.135056228287
 20
-103.523234635079
 30
0.0
 11
-451.135056228287
 21
-111.023234635079
 31
0.0
  0
LINE
  5
   60E
  8
0
  6
CONTINUOUS
 62
   253
 10
-465.135056228287
 20
-103.523234635079
 30
0.0
 11
-465.135056228287
 21
-111.023234635079
 31
0.0
  0
LINE
  5
   60F
  8
0
  6
CONTINUOUS
 62
   212
 10
-477.010056228287
 20
-81.2732422644732
 30
0.0
 11
-483.010056228287
 21
-81.2732422644732
 31
0.0
  0
LINE
  5
   610
  8
0
  6
CONTINUOUS
 62
   212
 10
-476.010056228287
 20
-88.7638815444784
 30
0.0
 11
-476.010056228287
 21
-93.1232346350787
 31
0.0
  0
LINE
  5
   611
  8
0
  6
CONTINUOUS
 62
   212
 10
-484.010056228287
 20
-88.7638815444784
 30
0.0
 11
-484.010056228287
 21
-93.1232346350787
 31
0.0
  0
LINE
  5
   612
  8
0
  6
CONTINUOUS
 62
   212
 10
-476.510056228287
 20
-88.7638815444784
 30
0.0
 11
-476.510056228287
 21
-93.1232346350787
 31
0.0
  0
LINE
  5
   613
  8
0
  6
CONTINUOUS
 62
   212
 10
-483.510056228287
 20
-88.7638815444784
 30
0.0
 11
-483.510056228287
 21
-93.1232346350787
 31
0.0
  0
LINE
  5
   614
  8
0
  6
CONTINUOUS
 62
   212
 10
-476.010056228287
 20
-82.2732422644732
 30
0.0
 11
-484.010056228287
 21
-82.2732422644732
 31
0.0
  0
LINE
  5
   615
  8
0
  6
CONTINUOUS
 62
   212
 10
-476.010056228287
 20
-82.2732422644732
 30
0.0
 11
-477.010056228287
 21
-81.2732422644732
 31
0.0
  0
LINE
  5
   616
  8
0
  6
CONTINUOUS
 62
   212
 10
-483.010056228287
 20
-81.2732422644732
 30
0.0
 11
-484.010056228287
 21
-82.2732422644732
 31
0.0
  0
LINE
  5
   617
  8
0
  6
CONTINUOUS
 62
     7
 10
-473.510056228287
 20
-102.623234635079
 30
0.0
 11
-473.510056228287
 21
-103.023234635079
 31
0.0
  0
LINE
  5
   618
  8
0
  6
CONTINUOUS
 62
     7
 10
-473.510056228287
 20
-103.023234635079
 30
0.0
 11
-486.510056228287
 21
-103.023234635079
 31
0.0
  0
LINE
  5
   619
  8
0
  6
CONTINUOUS
 62
     7
 10
-473.322556228287
 20
-102.623234635079
 30
0.0
 11
-486.697556228287
 21
-102.623234635079
 31
0.0
  0
LINE
  5
   61A
  8
0
  6
CONTINUOUS
 62
     7
 10
-486.510056228287
 20
-102.623234635079
 30
0.0
 11
-486.510056228287
 21
-103.023234635079
 31
0.0
  0
LINE
  5
   61B
  8
0
  6
CONTINUOUS
 62
     7
 10
-473.322556228287
 20
-98.6232346350787
 30
0.0
 11
-473.322556228287
 21
-102.623234635079
 31
0.0
  0
LINE
  5
   61C
  8
0
  6
CONTINUOUS
 62
     7
 10
-473.322556228287
 20
-98.6232346350787
 30
0.0
 11
-486.697556228287
 21
-98.6232346350787
 31
0.0
  0
LINE
  5
   61D
  8
0
  6
CONTINUOUS
 62
     7
 10
-483.197556228287
 20
-98.6232346350787
 30
0.0
 11
-483.197556228287
 21
-102.623234635079
 31
0.0
  0
LINE
  5
   61E
  8
0
  6
CONTINUOUS
 62
     7
 10
-476.822556228287
 20
-98.6232346350787
 30
0.0
 11
-476.822556228287
 21
-102.623234635079
 31
0.0
  0
LINE
  5
   61F
  8
0
  6
CONTINUOUS
 62
     7
 10
-486.697556228287
 20
-98.6232346350787
 30
0.0
 11
-486.697556228287
 21
-102.623234635079
 31
0.0
  0
LINE
  5
   620
  8
0
  6
CONTINUOUS
 62
     7
 10
-405.739814450273
 20
-124.960052490234
 30
0.0
 11
-497.10270014379
 21
-124.960052490234
 31
0.0
  0
LINE
  5
   621
  8
0
  6
CONTINUOUS
 62
     7
 10
-473.322556228287
 20
-94.6232346350787
 30
0.0
 11
-473.322556228287
 21
-98.6232346350787
 31
0.0
  0
LINE
  5
   622
  8
0
  6
CONTINUOUS
 62
     7
 10
-476.822556228287
 20
-94.6232346350787
 30
0.0
 11
-476.822556228287
 21
-98.6232346350787
 31
0.0
  0
LINE
  5
   623
  8
0
  6
CONTINUOUS
 62
     7
 10
-483.197556228287
 20
-94.6232346350787
 30
0.0
 11
-483.197556228287
 21
-98.6232346350787
 31
0.0
  0
LINE
  5
   624
  8
0
  6
CONTINUOUS
 62
     7
 10
-486.697556228287
 20
-94.6232346350787
 30
0.0
 11
-486.697556228287
 21
-98.6232346350787
 31
0.0
  0
LINE
  5
   625
  8
0
  6
CONTINUOUS
 62
     7
 10
-473.322556228287
 20
-94.6232346350787
 30
0.0
 11
-486.697556228287
 21
-94.6232346350787
 31
0.0
  0
ARC
  5
   626
  8
0
  6
CONTINUOUS
 62
   253
 10
-451.635056228287
 20
-103.523234635079
 30
0.0
 40
0.5
 50
359.999999896069
 51
449.999999896069
  0
ARC
  5
   627
  8
0
  6
CONTINUOUS
 62
   253
 10
-464.635056228287
 20
-103.523234635079
 30
0.0
 40
0.5
 50
449.999999896069
 51
539.999999896069
  0
LINE
  5
   628
  8
0
  6
CONTINUOUS
 62
     7
 10
-473.322556228287
 20
-83.2638815444784
 30
0.0
 11
-473.322556228287
 21
-87.2638815444784
 31
0.0
  0
LINE
  5
   629
  8
0
  6
CONTINUOUS
 62
     7
 10
-476.822556228287
 20
-83.2638815444784
 30
0.0
 11
-476.822556228287
 21
-87.2638815444784
 31
0.0
  0
LINE
  5
   62A
  8
0
  6
CONTINUOUS
 62
     7
 10
-483.197556228287
 20
-83.2638815444784
 30
0.0
 11
-483.197556228287
 21
-87.2638815444784
 31
0.0
  0
LINE
  5
   62B
  8
0
  6
CONTINUOUS
 62
     7
 10
-486.697556228287
 20
-83.2638815444784
 30
0.0
 11
-486.697556228287
 21
-87.2638815444784
 31
0.0
  0
LINE
  5
   62C
  8
0
  6
CONTINUOUS
 62
     7
 10
-486.635056228287
 20
-87.2638815444784
 30
0.0
 11
-486.635056228287
 21
-88.7638815444784
 31
0.0
  0
LINE
  5
   62D
  8
0
  6
CONTINUOUS
 62
     7
 10
-473.385056228287
 20
-87.2638815444784
 30
0.0
 11
-473.385056228287
 21
-88.7638815444784
 31
0.0
  0
LINE
  5
   62E
  8
0
  6
CONTINUOUS
 62
     7
 10
-473.322556228287
 20
-83.2638815444784
 30
0.0
 11
-486.697556228287
 21
-83.2638815444784
 31
0.0
  0
LINE
  5
   62F
  8
0
  6
CONTINUOUS
 62
     7
 10
-473.322556228287
 20
-87.2638815444784
 30
0.0
 11
-486.697556228287
 21
-87.2638815444784
 31
0.0
  0
LINE
  5
   630
  8
0
  6
CONTINUOUS
 62
     7
 10
-473.385056228287
 20
-88.7638815444784
 30
0.0
 11
-486.635056228287
 21
-88.7638815444784
 31
0.0
  0
LINE
  5
   631
  8
0
  6
CONTINUOUS
 62
   212
 10
-476.010056228287
 20
-82.2732422644732
 30
0.0
 11
-476.010056228287
 21
-83.2638815444784
 31
0.0
  0
LINE
  5
   632
  8
0
  6
CONTINUOUS
 62
   212
 10
-476.510056228287
 20
-81.7732422644732
 30
0.0
 11
-476.510056228287
 21
-83.2638815444784
 31
0.0
  0
LINE
  5
   633
  8
0
  6
CONTINUOUS
 62
   212
 10
-483.510056228287
 20
-81.7732422644732
 30
0.0
 11
-483.510056228287
 21
-83.2638815444784
 31
0.0
  0
LINE
  5
   634
  8
0
  6
CONTINUOUS
 62
   212
 10
-484.010056228287
 20
-82.2732422644732
 30
0.0
 11
-484.010056228287
 21
-83.2638815444784
 31
0.0
  0
LINE
  5
   635
  8
0
  6
DASHDOT
 62
     7
 10
-436.260056228287
 20
-49.2234539288946
 30
0.0
 11
-436.260056228287
 21
-127.764294590786
 31
0.0
  0
LINE
  5
   636
  8
0
  6
CONTINUOUS
 62
   253
 10
-429.260056228287
 20
-103.023234635079
 30
0.0
 11
-429.260056228287
 21
-111.023234635079
 31
0.0
  0
LINE
  5
   637
  8
0
  6
CONTINUOUS
 62
   253
 10
-443.260056228287
 20
-103.023234635079
 30
0.0
 11
-443.260056228287
 21
-111.023234635079
 31
0.0
  0
LINE
  5
   638
  8
0
  6
CONTINUOUS
 62
   253
 10
-452.135056228287
 20
-78.5232346350787
 30
0.0
 11
-452.135056228287
 21
-103.023234635079
 31
0.0
  0
LINE
  5
   639
  8
0
  6
CONTINUOUS
 62
   253
 10
-464.135056228287
 20
-78.5232346350787
 30
0.0
 11
-464.135056228287
 21
-103.023234635079
 31
0.0
  0
LINE
  5
   63A
  8
0
  6
CONTINUOUS
 62
   253
 10
-452.635056228287
 20
-78.0232346350787
 30
0.0
 11
-463.635056228287
 21
-78.0232346350787
 31
0.0
  0
ARC
  5
   63B
  8
0
  6
CONTINUOUS
 62
   253
 10
-452.635056228287
 20
-78.5232346350787
 30
0.0
 40
0.5
 50
359.999999896069
 51
449.999999896069
  0
ARC
  5
   63C
  8
0
  6
CONTINUOUS
 62
   253
 10
-463.635056228287
 20
-78.5232346350787
 30
0.0
 40
0.5
 50
449.999999896069
 51
539.999999896069
  0
LINE
  5
   63D
  8
0
  6
CONTINUOUS
 62
   212
 10
-455.135056228287
 20
-56.2732422644732
 30
0.0
 11
-461.135056228287
 21
-56.2732422644732
 31
0.0
  0
LINE
  5
   63E
  8
0
  6
CONTINUOUS
 62
   212
 10
-454.135056228287
 20
-63.7638815444784
 30
0.0
 11
-454.135056228287
 21
-68.1232346350787
 31
0.0
  0
LINE
  5
   63F
  8
0
  6
CONTINUOUS
 62
   212
 10
-462.135056228287
 20
-63.7638815444784
 30
0.0
 11
-462.135056228287
 21
-68.1232346350787
 31
0.0
  0
LINE
  5
   640
  8
0
  6
CONTINUOUS
 62
   212
 10
-454.135056228287
 20
-57.2732422644732
 30
0.0
 11
-455.135056228287
 21
-56.2732422644732
 31
0.0
  0
LINE
  5
   641
  8
0
  6
CONTINUOUS
 62
   212
 10
-461.135056228287
 20
-56.2732422644732
 30
0.0
 11
-462.135056228287
 21
-57.2732422644732
 31
0.0
  0
LINE
  5
   642
  8
0
  6
CONTINUOUS
 62
   212
 10
-454.135056228287
 20
-57.2732422644732
 30
0.0
 11
-462.135056228287
 21
-57.2732422644732
 31
0.0
  0
LINE
  5
   643
  8
0
  6
CONTINUOUS
 62
   212
 10
-454.635056228287
 20
-63.7638815444784
 30
0.0
 11
-454.635056228287
 21
-68.1232346350787
 31
0.0
  0
LINE
  5
   644
  8
0
  6
CONTINUOUS
 62
   212
 10
-461.635056228287
 20
-63.7638815444784
 30
0.0
 11
-461.635056228287
 21
-68.1232346350787
 31
0.0
  0
LINE
  5
   645
  8
0
  6
CONTINUOUS
 62
     7
 10
-451.447556228287
 20
-77.6232346350787
 30
0.0
 11
-464.822556228287
 21
-77.6232346350787
 31
0.0
  0
LINE
  5
   646
  8
0
  6
CONTINUOUS
 62
     7
 10
-451.635056228287
 20
-77.6232346350787
 30
0.0
 11
-451.635056228287
 21
-78.0232346350787
 31
0.0
  0
LINE
  5
   647
  8
0
  6
CONTINUOUS
 62
     7
 10
-464.635056228287
 20
-77.6232346350787
 30
0.0
 11
-464.635056228287
 21
-78.0232346350787
 31
0.0
  0
LINE
  5
   648
  8
0
  6
CONTINUOUS
 62
     7
 10
-451.635056228287
 20
-78.0232346350787
 30
0.0
 11
-464.635056228287
 21
-78.0232346350787
 31
0.0
  0
LINE
  5
   649
  8
0
  6
CONTINUOUS
 62
   253
 10
-429.260056228287
 20
-103.023234635079
 30
0.0
 11
-443.260056228287
 21
-103.023234635079
 31
0.0
  0
LINE
  5
   64A
  8
0
  6
CONTINUOUS
 62
     7
 10
-451.447556228287
 20
-73.6232346350787
 30
0.0
 11
-464.822556228287
 21
-73.6232346350787
 31
0.0
  0
LINE
  5
   64B
  8
0
  6
CONTINUOUS
 62
     7
 10
-451.447556228287
 20
-73.6232346350787
 30
0.0
 11
-451.447556228287
 21
-77.6232346350787
 31
0.0
  0
LINE
  5
   64C
  8
0
  6
CONTINUOUS
 62
     7
 10
-464.822556228287
 20
-73.6232346350787
 30
0.0
 11
-464.822556228287
 21
-77.6232346350787
 31
0.0
  0
LINE
  5
   64D
  8
0
  6
CONTINUOUS
 62
     7
 10
-461.322556228287
 20
-73.6232346350787
 30
0.0
 11
-461.322556228287
 21
-77.6232346350787
 31
0.0
  0
LINE
  5
   64E
  8
0
  6
CONTINUOUS
 62
     7
 10
-454.947556228287
 20
-73.6232346350787
 30
0.0
 11
-454.947556228287
 21
-77.6232346350787
 31
0.0
  0
LINE
  5
   64F
  8
0
  6
CONTINUOUS
 62
     7
 10
-451.447556228287
 20
-69.6232346350787
 30
0.0
 11
-451.447556228287
 21
-73.6232346350787
 31
0.0
  0
LINE
  5
   650
  8
0
  6
CONTINUOUS
 62
     7
 10
-454.947556228287
 20
-69.6232346350787
 30
0.0
 11
-454.947556228287
 21
-73.6232346350787
 31
0.0
  0
LINE
  5
   651
  8
0
  6
CONTINUOUS
 62
     7
 10
-461.322556228287
 20
-69.6232346350787
 30
0.0
 11
-461.322556228287
 21
-73.6232346350787
 31
0.0
  0
LINE
  5
   652
  8
0
  6
CONTINUOUS
 62
     7
 10
-464.822556228287
 20
-69.6232346350787
 30
0.0
 11
-464.822556228287
 21
-73.6232346350787
 31
0.0
  0
LINE
  5
   653
  8
0
  6
CONTINUOUS
 62
     7
 10
-451.447556228287
 20
-69.6232346350787
 30
0.0
 11
-464.822556228287
 21
-69.6232346350787
 31
0.0
  0
LINE
  5
   654
  8
0
  6
CONTINUOUS
 62
     7
 10
-451.447556228287
 20
-58.2638815444784
 30
0.0
 11
-464.822556228287
 21
-58.2638815444784
 31
0.0
  0
LINE
  5
   655
  8
0
  6
CONTINUOUS
 62
     7
 10
-451.447556228287
 20
-58.2638815444784
 30
0.0
 11
-451.447556228287
 21
-62.2638815444784
 31
0.0
  0
LINE
  5
   656
  8
0
  6
CONTINUOUS
 62
     7
 10
-451.447556228287
 20
-62.2638815444784
 30
0.0
 11
-464.822556228287
 21
-62.2638815444784
 31
0.0
  0
LINE
  5
   657
  8
0
  6
CONTINUOUS
 62
     7
 10
-454.947556228287
 20
-58.2638815444784
 30
0.0
 11
-454.947556228287
 21
-62.2638815444784
 31
0.0
  0
LINE
  5
   658
  8
0
  6
CONTINUOUS
 62
     7
 10
-461.322556228287
 20
-58.2638815444784
 30
0.0
 11
-461.322556228287
 21
-62.2638815444784
 31
0.0
  0
LINE
  5
   659
  8
0
  6
CONTINUOUS
 62
     7
 10
-464.822556228287
 20
-58.2638815444784
 30
0.0
 11
-464.822556228287
 21
-62.2638815444784
 31
0.0
  0
LINE
  5
   65A
  8
0
  6
CONTINUOUS
 62
   212
 10
-454.135056228287
 20
-57.2732422644732
 30
0.0
 11
-454.135056228287
 21
-58.2638815444784
 31
0.0
  0
LINE
  5
   65B
  8
0
  6
CONTINUOUS
 62
   212
 10
-454.635056228287
 20
-56.7732422644732
 30
0.0
 11
-454.635056228287
 21
-58.2638815444784
 31
0.0
  0
LINE
  5
   65C
  8
0
  6
CONTINUOUS
 62
   212
 10
-461.635056228287
 20
-56.7732422644732
 30
0.0
 11
-461.635056228287
 21
-58.2638815444784
 31
0.0
  0
LINE
  5
   65D
  8
0
  6
CONTINUOUS
 62
   212
 10
-462.135056228287
 20
-57.2732422644732
 30
0.0
 11
-462.135056228287
 21
-58.2638815444784
 31
0.0
  0
LINE
  5
   65E
  8
0
  6
CONTINUOUS
 62
     7
 10
-451.510056228287
 20
-63.7638815444784
 30
0.0
 11
-464.760056228287
 21
-63.7638815444784
 31
0.0
  0
LINE
  5
   65F
  8
0
  6
CONTINUOUS
 62
     7
 10
-451.510056228287
 20
-68.1232346350787
 30
0.0
 11
-464.760056228287
 21
-68.1232346350787
 31
0.0
  0
LINE
  5
   660
  8
0
  6
CONTINUOUS
 62
     7
 10
-451.510056228287
 20
-68.1232346350787
 30
0.0
 11
-451.510056228287
 21
-69.6232346350787
 31
0.0
  0
LINE
  5
   661
  8
0
  6
CONTINUOUS
 62
     7
 10
-464.760056228287
 20
-68.1232346350787
 30
0.0
 11
-464.760056228287
 21
-69.6232346350787
 31
0.0
  0
LINE
  5
   662
  8
0
  6
CONTINUOUS
 62
     7
 10
-451.510056228287
 20
-62.2638815444784
 30
0.0
 11
-451.510056228287
 21
-63.7638815444784
 31
0.0
  0
LINE
  5
   663
  8
0
  6
CONTINUOUS
 62
     7
 10
-464.760056228287
 20
-62.2638815444784
 30
0.0
 11
-464.760056228287
 21
-63.7638815444784
 31
0.0
  0
LINE
  5
   664
  8
0
  6
CONTINUOUS
 62
     3
 10
-465.635056228287
 20
-122.523234635079
 30
0.0
 11
-465.635056228287
 21
-124.960052490234
 31
0.0
  0
LINE
  5
   665
  8
0
  6
CONTINUOUS
 62
     3
 10
-472.510056228287
 20
-122.523234635079
 30
0.0
 11
-472.510056228287
 21
-124.960052490234
 31
0.0
  0
LINE
  5
   666
  8
0
  6
CONTINUOUS
 62
     3
 10
-487.510056228287
 20
-122.523234635079
 30
0.0
 11
-487.510056228287
 21
-124.960052490234
 31
0.0
  0
LINE
  5
   667
  8
0
  6
CONTINUOUS
 62
     3
 10
-443.760056228287
 20
-122.523234635079
 30
0.0
 11
-443.760056228287
 21
-124.960052490234
 31
0.0
  0
LINE
  5
   668
  8
0
  6
CONTINUOUS
 62
     3
 10
-428.760056228287
 20
-122.523234635079
 30
0.0
 11
-428.760056228287
 21
-124.960052490234
 31
0.0
  0
LINE
  5
   669
  8
0
  6
CONTINUOUS
 62
     2
 10
-444.260056228287
 20
-111.023234635079
 30
0.0
 11
-444.260056228287
 21
-111.273234635079
 31
0.0
  0
LINE
  5
   66A
  8
0
  6
CONTINUOUS
 62
     2
 10
-450.135056228287
 20
-111.023234635079
 30
0.0
 11
-450.135056228287
 21
-111.273234635079
 31
0.0
  0
LINE
  5
   66B
  8
0
  6
CONTINUOUS
 62
     2
 10
-429.260056228287
 20
-111.023234635079
 30
0.0
 11
-444.260056228287
 21
-111.023234635079
 31
0.0
  0
LINE
  5
   66C
  8
0
  6
CONTINUOUS
 62
     2
 10
-466.135056228287
 20
-111.023234635079
 30
0.0
 11
-466.135056228287
 21
-111.273234635079
 31
0.0
  0
LINE
  5
   66D
  8
0
  6
CONTINUOUS
 62
     2
 10
-472.010056228287
 20
-111.023234635079
 30
0.0
 11
-472.010056228287
 21
-111.273234635079
 31
0.0
  0
LINE
  5
   66E
  8
0
  6
CONTINUOUS
 62
     2
 10
-487.010056228287
 20
-111.023234635079
 30
0.0
 11
-488.010056228287
 21
-111.023234635079
 31
0.0
  0
LINE
  5
   66F
  8
0
  6
CONTINUOUS
 62
     2
 10
-490.635056228287
 20
-110.273234635079
 30
0.0
 11
-490.635056228287
 21
-113.273234635079
 31
0.0
  0
LINE
  5
   670
  8
0
  6
CONTINUOUS
 62
     2
 10
-425.635056228287
 20
-110.273234635079
 30
0.0
 11
-425.635056228287
 21
-113.273234635079
 31
0.0
  0
LINE
  5
   671
  8
0
  6
CONTINUOUS
 62
     7
 10
-473.385056228287
 20
-93.1232346350787
 30
0.0
 11
-473.385056228287
 21
-94.6232346350787
 31
0.0
  0
LINE
  5
   672
  8
0
  6
CONTINUOUS
 62
     7
 10
-473.385056228287
 20
-93.1232346350787
 30
0.0
 11
-486.635056228287
 21
-93.1232346350787
 31
0.0
  0
LINE
  5
   673
  8
0
  6
CONTINUOUS
 62
     7
 10
-486.635056228287
 20
-93.1232346350787
 30
0.0
 11
-486.635056228287
 21
-94.6232346350787
 31
0.0
  0
LINE
  5
   674
  8
0
  6
CONTINUOUS
 62
     2
 10
-428.760056228287
 20
-116.523234635079
 30
0.0
 11
-428.760056228287
 21
-121.523234635079
 31
0.0
  0
LINE
  5
   675
  8
0
  6
CONTINUOUS
 62
     2
 10
-443.760056228287
 20
-116.523234635079
 30
0.0
 11
-443.760056228287
 21
-121.523234635079
 31
0.0
  0
LINE
  5
   676
  8
0
  6
CONTINUOUS
 62
     2
 10
-450.635056228287
 20
-116.523234635079
 30
0.0
 11
-450.635056228287
 21
-121.523234635079
 31
0.0
  0
LINE
  5
   677
  8
0
  6
CONTINUOUS
 62
     2
 10
-465.635056228287
 20
-116.523234635079
 30
0.0
 11
-465.635056228287
 21
-121.523234635079
 31
0.0
  0
LINE
  5
   678
  8
0
  6
CONTINUOUS
 62
     2
 10
-472.510056228287
 20
-116.523234635079
 30
0.0
 11
-472.510056228287
 21
-121.523234635079
 31
0.0
  0
LINE
  5
   679
  8
0
  6
CONTINUOUS
 62
     2
 10
-487.510056228287
 20
-116.523234635079
 30
0.0
 11
-487.510056228287
 21
-121.523234635079
 31
0.0
  0
LINE
  5
   67A
  8
0
  6
CONTINUOUS
 62
   130
 10
-407.885038256645
 20
-111.023234635079
 30
0.0
 11
-407.885038256645
 21
-124.960052490234
 31
0.0
  0
LINE
  5
   67B
  8
0
  6
CONTINUOUS
 62
   130
 10
-407.885038256645
 20
-111.023234635079
 30
0.0
 11
-425.635056228287
 21
-111.023234635079
 31
0.0
  0
LINE
  5
   67C
  8
0
  6
CONTINUOUS
 62
     7
 10
-429.760056228287
 20
-103.023234635079
 30
0.0
 11
-442.760056228287
 21
-103.023234635079
 31
0.0
  0
LINE
  5
   67D
  8
0
  6
CONTINUOUS
 62
     7
 10
-429.572556228287
 20
-102.623234635079
 30
0.0
 11
-442.947556228287
 21
-102.623234635079
 31
0.0
  0
LINE
  5
   67E
  8
0
  6
CONTINUOUS
 62
     7
 10
-442.760056228287
 20
-102.623234635079
 30
0.0
 11
-442.760056228287
 21
-103.023234635079
 31
0.0
  0
LINE
  5
   67F
  8
0
  6
CONTINUOUS
 62
     7
 10
-429.572556228287
 20
-102.623234635079
 30
0.0
 11
-442.947556228287
 21
-102.623234635079
 31
0.0
  0
LINE
  5
   680
  8
0
  6
CONTINUOUS
 62
     7
 10
-429.760056228287
 20
-102.623234635079
 30
0.0
 11
-429.760056228287
 21
-103.023234635079
 31
0.0
  0
LINE
  5
   681
  8
0
  6
CONTINUOUS
 62
     7
 10
-429.572556228287
 20
-98.6232346350787
 30
0.0
 11
-429.572556228287
 21
-102.623234635079
 31
0.0
  0
LINE
  5
   682
  8
0
  6
CONTINUOUS
 62
     7
 10
-433.072556228287
 20
-98.6232346350787
 30
0.0
 11
-433.072556228287
 21
-102.623234635079
 31
0.0
  0
LINE
  5
   683
  8
0
  6
CONTINUOUS
 62
     7
 10
-439.447556228287
 20
-98.6232346350787
 30
0.0
 11
-439.447556228287
 21
-102.623234635079
 31
0.0
  0
LINE
  5
   684
  8
0
  6
CONTINUOUS
 62
     7
 10
-442.947556228287
 20
-98.6232346350787
 30
0.0
 11
-442.947556228287
 21
-102.623234635079
 31
0.0
  0
LINE
  5
   685
  8
0
  6
CONTINUOUS
 62
     7
 10
-429.572556228287
 20
-98.6232346350787
 30
0.0
 11
-442.947556228287
 21
-98.6232346350787
 31
0.0
  0
LINE
  5
   686
  8
0
  6
CONTINUOUS
 62
     7
 10
-429.572556228287
 20
-94.6232346350787
 30
0.0
 11
-442.947556228287
 21
-94.6232346350787
 31
0.0
  0
LINE
  5
   687
  8
0
  6
CONTINUOUS
 62
     7
 10
-442.885056228287
 20
-93.1232346350787
 30
0.0
 11
-442.885056228287
 21
-94.6232346350787
 31
0.0
  0
LINE
  5
   688
  8
0
  6
CONTINUOUS
 62
     7
 10
-429.635056228287
 20
-93.1232346350787
 30
0.0
 11
-442.885056228287
 21
-93.1232346350787
 31
0.0
  0
LINE
  5
   689
  8
0
  6
CONTINUOUS
 62
     7
 10
-429.635056228287
 20
-93.1232346350787
 30
0.0
 11
-429.635056228287
 21
-94.6232346350787
 31
0.0
  0
LINE
  5
   68A
  8
0
  6
CONTINUOUS
 62
   212
 10
-432.260056228287
 20
-88.7638815444784
 30
0.0
 11
-432.260056228287
 21
-93.1232346350787
 31
0.0
  0
LINE
  5
   68B
  8
0
  6
CONTINUOUS
 62
   212
 10
-432.760056228287
 20
-88.7638815444784
 30
0.0
 11
-432.760056228287
 21
-93.1232346350787
 31
0.0
  0
LINE
  5
   68C
  8
0
  6
CONTINUOUS
 62
   212
 10
-439.760056228287
 20
-88.7638815444784
 30
0.0
 11
-439.760056228287
 21
-93.1232346350787
 31
0.0
  0
LINE
  5
   68D
  8
0
  6
CONTINUOUS
 62
   212
 10
-440.260056228287
 20
-88.7638815444784
 30
0.0
 11
-440.260056228287
 21
-93.1232346350787
 31
0.0
  0
LINE
  5
   68E
  8
0
  6
CONTINUOUS
 62
     7
 10
-429.572556228287
 20
-87.2638815444784
 30
0.0
 11
-442.947556228287
 21
-87.2638815444784
 31
0.0
  0
LINE
  5
   68F
  8
0
  6
CONTINUOUS
 62
     7
 10
-429.635056228287
 20
-88.7638815444784
 30
0.0
 11
-442.885056228287
 21
-88.7638815444784
 31
0.0
  0
LINE
  5
   690
  8
0
  6
CONTINUOUS
 62
     7
 10
-429.635056228287
 20
-87.2638815444784
 30
0.0
 11
-429.635056228287
 21
-88.7638815444784
 31
0.0
  0
LINE
  5
   691
  8
0
  6
CONTINUOUS
 62
     7
 10
-442.885056228287
 20
-87.2638815444784
 30
0.0
 11
-442.885056228287
 21
-88.7638815444784
 31
0.0
  0
LINE
  5
   692
  8
0
  6
CONTINUOUS
 62
     7
 10
-442.947556228287
 20
-83.2638815444784
 30
0.0
 11
-442.947556228287
 21
-87.2638815444784
 31
0.0
  0
LINE
  5
   693
  8
0
  6
CONTINUOUS
 62
     7
 10
-439.447556228287
 20
-83.2638815444784
 30
0.0
 11
-439.447556228287
 21
-87.2638815444784
 31
0.0
  0
LINE
  5
   694
  8
0
  6
CONTINUOUS
 62
     7
 10
-433.072556228287
 20
-83.2638815444784
 30
0.0
 11
-433.072556228287
 21
-87.2638815444784
 31
0.0
  0
LINE
  5
   695
  8
0
  6
CONTINUOUS
 62
     7
 10
-429.572556228287
 20
-83.2638815444784
 30
0.0
 11
-429.572556228287
 21
-87.2638815444784
 31
0.0
  0
LINE
  5
   696
  8
0
  6
CONTINUOUS
 62
   212
 10
-432.760056228287
 20
-81.7732422644732
 30
0.0
 11
-432.760056228287
 21
-83.2638815444784
 31
0.0
  0
LINE
  5
   697
  8
0
  6
CONTINUOUS
 62
   212
 10
-432.260056228287
 20
-82.2732422644732
 30
0.0
 11
-432.260056228287
 21
-83.2638815444784
 31
0.0
  0
LINE
  5
   698
  8
0
  6
CONTINUOUS
 62
   212
 10
-432.260056228287
 20
-82.2732422644732
 30
0.0
 11
-440.260056228287
 21
-82.2732422644732
 31
0.0
  0
LINE
  5
   699
  8
0
  6
CONTINUOUS
 62
   212
 10
-432.260056228287
 20
-82.2732422644732
 30
0.0
 11
-433.260056228287
 21
-81.2732422644732
 31
0.0
  0
LINE
  5
   69A
  8
0
  6
CONTINUOUS
 62
   212
 10
-433.260056228287
 20
-81.2732422644732
 30
0.0
 11
-439.260056228287
 21
-81.2732422644732
 31
0.0
  0
LINE
  5
   69B
  8
0
  6
CONTINUOUS
 62
   212
 10
-439.260056228287
 20
-81.2732422644732
 30
0.0
 11
-440.260056228287
 21
-82.2732422644732
 31
0.0
  0
LINE
  5
   69C
  8
0
  6
CONTINUOUS
 62
   212
 10
-440.260056228287
 20
-82.2732422644732
 30
0.0
 11
-440.260056228287
 21
-83.2638815444784
 31
0.0
  0
LINE
  5
   69D
  8
0
  6
CONTINUOUS
 62
   212
 10
-439.760056228287
 20
-81.7732422644732
 30
0.0
 11
-439.760056228287
 21
-83.2638815444784
 31
0.0
  0
LINE
  5
   69E
  8
0
  6
CONTINUOUS
 62
     7
 10
-429.572556228287
 20
-83.2638815444784
 30
0.0
 11
-442.947556228287
 21
-83.2638815444784
 31
0.0
  0
LINE
  5
   69F
  8
0
  6
CONTINUOUS
 62
     7
 10
-429.572556228287
 20
-94.6232346350787
 30
0.0
 11
-429.572556228287
 21
-98.6232346350787
 31
0.0
  0
LINE
  5
   6A0
  8
0
  6
CONTINUOUS
 62
     7
 10
-433.072556228287
 20
-94.6232346350787
 30
0.0
 11
-433.072556228287
 21
-98.6232346350787
 31
0.0
  0
LINE
  5
   6A1
  8
0
  6
CONTINUOUS
 62
     7
 10
-439.447556228287
 20
-94.6232346350787
 30
0.0
 11
-439.447556228287
 21
-98.6232346350787
 31
0.0
  0
LINE
  5
   6A2
  8
0
  6
CONTINUOUS
 62
     7
 10
-442.947556228287
 20
-94.6232346350787
 30
0.0
 11
-442.947556228287
 21
-98.6232346350787
 31
0.0
  0
TEXT
  5
   6A3
  8
0
  6
CONTINUOUS
 62
     1
 10
-432.562406971624
 20
-150.151287117952
 30
0.0
 40
2.00000008940697
  1
M4504 98-11-17
 50
359.999999896069
 41
0.749999861419206
 72
     1
 11
-422.212408423424
 21
-149.151287091971
 31
0.0
 73
     2
  0
TEXT
  5
   6A4
  8
0
  6
CONTINUOUS
 62
     1
 10
-471.76626587095
 20
-143.815530851732
 30
0.0
 40
2.00000008940697
  1
SCARPELLINI
 50
359.999999896069
 41
0.749999861419206
 72
     2
 11
-455.566268147847
 21
-143.815530881037
 31
0.0
  0
INSERT
  5
   6A5
  8
0
  6
CONTINUOUS
 62
     7
  2
*UDIM192
 10
0.0
 20
0.0
 30
0.0
  0
TEXT
  5
   6A6
  8
0
  6
CONTINUOUS
 62
     1
 10
-458.152403204462
 20
-150.151287116595
 30
0.0
 40
2.00000008940697
  1
M 3076 95-01-16
 50
359.999999896069
 41
0.749999861419206
 72
     1
 11
-447.052404761314
 21
-149.151287091971
 31
0.0
 73
     2
  0
INSERT
  5
   6A7
  8
0
  6
CONTINUOUS
 62
     7
  2
*UDIM193
 10
0.0
 20
0.0
 30
0.0
  0
INSERT
  5
   6A8
  8
0
  6
CONTINUOUS
 62
     7
  2
*UDIM194
 10
0.0
 20
0.0
 30
0.0
  0
INSERT
  5
   6A9
  8
0
  6
CONTINUOUS
 62
     7
  2
*UDIM195
 10
0.0
 20
0.0
 30
0.0
  0
INSERT
  5
   6AA
  8
0
  6
CONTINUOUS
 62
     7
  2
*UDIM196
 10
0.0
 20
0.0
 30
0.0
  0
TEXT
  5
   6AB
  8
0
  6
CONTINUOUS
 62
     1
 10
-471.76626587095
 20
-135.348781649595
 30
0.0
 40
2.00000008940697
  1
93-04-05 FERRARI M.
 50
359.999999896069
 41
0.749999861419206
 72
     2
 11
-443.566269828698
 21
-135.348781700606
 31
0.0
  0
TEXT
  5
   6AC
  8
0
  6
CONTINUOUS
 62
     1
 10
-362.796630862993
 20
-160.981750633856
 30
0.0
 40
4.00000017881393
  1
601812/401
 50
359.999999896069
 41
0.937499973922969
 72
     2
 11
-326.046630263221
 21
-160.981750700334
 31
0.0
  0
TEXT
  5
   6AD
  8
0
  6
CONTINUOUS
 62
     1
 10
-351.710937502713
 20
-152.000167869518
 30
0.0
 40
3.00000002980232
  1
 S5
 50
359.999999896069
 41
0.916666604744064
 72
     2
 11
-344.010937950742
 21
-152.000167883446
 31
0.0
  0
TEXT
  5
   6AE
  8
0
  6
CONTINUOUS
 62
     1
 10
-373.245357226154
 20
-133.689895621947
 30
0.0
 40
2.00000008940697
  1
3POLE LOW VOLTAGE M.C.C.B SERIES ISOMAX
 50
359.999999896069
 41
0.749999861419206
 72
     1
 11
-344.145361304283
 21
-132.689895629883
 31
0.0
 73
     2
  0
TEXT
  5
   6AF
  8
0
  6
CONTINUOUS
 62
     1
 10
-370.995357541314
 20
-136.689895626017
 30
0.0
 40
2.00000008940697
  1
WITHDRAWABLE VERSION REAR  TERMINALS
 50
359.999999896069
 41
0.749999861419206
 72
     1
 11
-344.145361304283
 21
-135.689895629883
 31
0.0
 73
     2
  0
TEXT
  5
   6B0
  8
0
  6
CONTINUOUS
 62
     1
 10
-370.042965593508
 20
-141.76016235779
 30
0.0
 40
2.00000008940697
  1
INTERR.AUTOMATICO SERIE ISOMAX
 50
359.999999896069
 41
0.749999861419206
 72
     1
 11
-347.692968726158
 21
-140.760162353516
 31
0.0
 73
     2
  0
TEXT
  5
   6B1
  8
0
  6
CONTINUOUS
 62
     1
 10
-382.042963912657
 20
-144.760162336083
 30
0.0
 40
2.00000008940697
  1
TRIPOL.ESECUZIONE ESTRAIBILE TERMIN.POSTERIORI
 50
359.999999896069
 41
0.749999861419206
 72
     1
 11
-347.692968726158
 21
-143.760162353516
 31
0.0
 73
     2
  0
LINE
  5
   6B2
  8
0
  6
CONTINUOUS
 62
     7
 10
-372.504241943359
 20
36.7440872192383
 30
0.0
 11
-338.754241943359
 21
36.7440872192383
 31
0.0
  0
LINE
  5
   6B3
  8
0
  6
CONTINUOUS
 62
     7
 10
-372.504241943359
 20
68.2440872192383
 30
0.0
 11
-338.754241943359
 21
68.2440872192383
 31
0.0
  0
LINE
  5
   6B4
  8
0
  6
CONTINUOUS
 62
     7
 10
-338.754241943359
 20
68.2440872192383
 30
0.0
 11
-338.754241943359
 21
47.6815872192383
 31
0.0
  0
LINE
  5
   6B5
  8
0
  6
CONTINUOUS
 62
     7
 10
-372.504241943359
 20
68.2440872192383
 30
0.0
 11
-372.504241943359
 21
36.7440872192383
 31
0.0
  0
LINE
  5
   6B6
  8
0
  6
DASHDOT
 62
     7
 10
-343.229228489954
 20
45.6815872192383
 30
0.0
 11
-329.248935543918
 21
45.6815872192383
 31
0.0
  0
LINE
  5
   6B7
  8
0
  6
CONTINUOUS
 62
     7
 10
-338.754241943359
 20
47.6815872192383
 30
0.0
 11
-333.004241943359
 21
47.6815872192383
 31
0.0
  0
LINE
  5
   6B8
  8
0
  6
CONTINUOUS
 62
     7
 10
-338.754241943359
 20
43.6815872192383
 30
0.0
 11
-333.004241943359
 21
43.6815872192383
 31
0.0
  0
ARC
  5
   6B9
  8
0
  6
CONTINUOUS
 62
     7
 10
-333.004241943359
 20
45.6815872192383
 30
0.0
 40
2.0
 50
269.999999844103
 51
449.999999844103
  0
LINE
  5
   6BA
  8
0
  6
CONTINUOUS
 62
     7
 10
-338.754241943359
 20
43.6815872192383
 30
0.0
 11
-338.754241943359
 21
36.7440872192383
 31
0.0
  0
LINE
  5
   6BB
  8
0
  6
DASHDOT
 62
     7
 10
-354.504241943359
 20
78.1215783800934
 30
0.0
 11
-354.504241943359
 21
29.3489059016869
 31
0.0
  0
CIRCLE
  5
   6BC
  8
0
  6
CONTINUOUS
 62
     7
 10
-365.504241943359
 20
70.2440872192383
 30
0.0
 40
0.875
  0
CIRCLE
  5
   6BD
  8
0
  6
CONTINUOUS
 62
     7
 10
-334.254241943359
 20
70.2440872192383
 30
0.0
 40
1.0
  0
CIRCLE
  5
   6BE
  8
0
  6
CONTINUOUS
 62
     7
 10
-334.254241943359
 20
52.4940872192383
 30
0.0
 40
1.0
  0
CIRCLE
  5
   6BF
  8
0
  6
CONTINUOUS
 62
     7
 10
-334.254241943359
 20
34.7440872192383
 30
0.0
 40
0.875
  0
CIRCLE
  5
   6C0
  8
0
  6
CONTINUOUS
 62
     7
 10
-365.504241943359
 20
34.7440872192383
 30
0.0
 40
1.0
  0
LINE
  5
   6C1
  8
0
  6
DASHDOT
 62
     7
 10
-365.504241943359
 20
71.8690872192383
 30
0.0
 11
-365.504241943359
 21
68.6190872192383
 31
0.0
  0
LINE
  5
   6C2
  8
0
  6
DASHDOT
 62
     7
 10
-367.129241943359
 20
70.2440872192383
 30
0.0
 11
-363.879241943359
 21
70.2440872192383
 31
0.0
  0
LINE
  5
   6C3
  8
0
  6
DASHDOT
 62
     7
 10
-334.254241943359
 20
71.8690872192383
 30
0.0
 11
-334.254241943359
 21
68.6190872192383
 31
0.0
  0
LINE
  5
   6C4
  8
0
  6
DASHDOT
 62
     7
 10
-335.879241943359
 20
70.2440872192383
 30
0.0
 11
-332.629241943359
 21
70.2440872192383
 31
0.0
  0
LINE
  5
   6C5
  8
0
  6
DASHDOT
 62
     7
 10
-334.254241943359
 20
54.1190872192383
 30
0.0
 11
-334.254241943359
 21
50.8690872192383
 31
0.0
  0
LINE
  5
   6C6
  8
0
  6
DASHDOT
 62
     7
 10
-335.879241943359
 20
52.4940872192383
 30
0.0
 11
-332.629241943359
 21
52.4940872192383
 31
0.0
  0
LINE
  5
   6C7
  8
0
  6
DASHDOT
 62
     7
 10
-334.254241943359
 20
36.3690872192383
 30
0.0
 11
-334.254241943359
 21
33.1190872192383
 31
0.0
  0
LINE
  5
   6C8
  8
0
  6
DASHDOT
 62
     7
 10
-335.879241943359
 20
34.7440872192383
 30
0.0
 11
-332.629241943359
 21
34.7440872192383
 31
0.0
  0
LINE
  5
   6C9
  8
0
  6
DASHDOT
 62
     7
 10
-365.504241943359
 20
36.3690872192383
 30
0.0
 11
-365.504241943359
 21
33.1190872192383
 31
0.0
  0
LINE
  5
   6CA
  8
0
  6
DASHDOT
 62
     7
 10
-367.129241943359
 20
34.7440872192383
 30
0.0
 11
-363.879241943359
 21
34.7440872192383
 31
0.0
  0
LINE
  5
   6CB
  8
0
  6
CONTINUOUS
 62
     7
 10
-378.428801020753
 20
73.2440872192383
 30
0.0
 11
-328.841742545489
 21
73.2440872192383
 31
0.0
  0
LINE
  5
   6CC
  8
0
  6
CONTINUOUS
 62
     7
 10
-379.062212351641
 20
31.7440872192383
 30
0.0
 11
-328.389305880569
 21
31.7440872192383
 31
0.0
  0
LINE
  5
   6CD
  8
0
  6
CONTINUOUS
 62
     7
 10
-329.254241943359
 20
74.0741322668351
 30
0.0
 11
-329.254241943359
 21
30.821187100456
 31
0.0
  0
LINE
  5
   6CE
  8
0
  6
CONTINUOUS
 62
     7
 10
-377.504241943359
 20
74.0741322668351
 30
0.0
 11
-377.504241943359
 21
30.2330194360596
 31
0.0
  0
POINT
  5
   6CF
  8
0
  6
CONTINUOUS
 62
     7
 10
-331.004241943359
 20
45.5565872192383
 30
0.0
  0
LINE
  5
   6D0
  8
0
  6
DASHDOT
 62
     7
 10
-381.964966706503
 20
52.4940872192383
 30
0.0
 11
-326.511513643223
 21
52.4940872192383
 31
0.0
  0
CIRCLE
  5
   6D1
  8
0
  6
CONTINUOUS
 62
     7
 10
-348.879241943359
 20
70.6190872192383
 30
0.0
 40
0.5
  0
CIRCLE
  5
   6D2
  8
0
  6
CONTINUOUS
 62
     7
 10
-360.129241943359
 20
70.6190872192383
 30
0.0
 40
0.5
  0
CIRCLE
  5
   6D3
  8
0
  6
CONTINUOUS
 62
     7
 10
-348.879241943359
 20
70.6190872192383
 30
0.0
 40
0.92
  0
CIRCLE
  5
   6D4
  8
0
  6
CONTINUOUS
 62
     7
 10
-360.129241943359
 20
70.6190872192383
 30
0.0
 40
0.92
  0
LINE
  5
   6D5
  8
0
  6
DASHDOT
 62
     7
 10
-348.879241943359
 20
72.2890872192383
 30
0.0
 11
-348.879241943359
 21
68.9490872192383
 31
0.0
  0
LINE
  5
   6D6
  8
0
  6
DASHDOT
 62
     7
 10
-350.549241943359
 20
70.6190872192383
 30
0.0
 11
-347.209241943359
 21
70.6190872192383
 31
0.0
  0
LINE
  5
   6D7
  8
0
  6
DASHDOT
 62
     7
 10
-360.129241943359
 20
72.2890872192383
 30
0.0
 11
-360.129241943359
 21
68.9490872192383
 31
0.0
  0
LINE
  5
   6D8
  8
0
  6
DASHDOT
 62
     7
 10
-361.799241943359
 20
70.6190872192383
 30
0.0
 11
-358.459241943359
 21
70.6190872192383
 31
0.0
  0
LINE
  5
   6D9
  8
0
  6
CONTINUOUS
 62
     7
 10
-327.718392424723
 20
69.3073428955945
 30
0.0
 11
-327.718392424723
 21
60.5306223557648
 31
0.0
  0
LINE
  5
   6DA
  8
0
  6
CONTINUOUS
 62
     7
 10
-324.53842121464
 20
69.3073428955945
 30
0.0
 11
-324.53842121464
 21
60.5306223557648
 31
0.0
  0
LINE
  5
   6DB
  8
0
  6
CONTINUOUS
 62
     7
 10
-327.718392424723
 20
69.3073428955945
 30
0.0
 11
-324.53842121464
 21
69.3073428955945
 31
0.0
  0
LINE
  5
   6DC
  8
0
  6
CONTINUOUS
 62
     7
 10
-327.718392424723
 20
60.5306223557648
 30
0.0
 11
-324.53842121464
 21
60.5306223557648
 31
0.0
  0
LINE
  5
   6DD
  8
0
  6
CONTINUOUS
 62
     7
 10
-327.718392424723
 20
44.4575520827118
 30
0.0
 11
-327.718392424723
 21
35.6808315428821
 31
0.0
  0
LINE
  5
   6DE
  8
0
  6
CONTINUOUS
 62
     7
 10
-324.53842121464
 20
44.4575520827118
 30
0.0
 11
-324.53842121464
 21
35.6808315428821
 31
0.0
  0
LINE
  5
   6DF
  8
0
  6
CONTINUOUS
 62
     7
 10
-327.718392424723
 20
44.4575520827118
 30
0.0
 11
-324.53842121464
 21
44.4575520827118
 31
0.0
  0
LINE
  5
   6E0
  8
0
  6
CONTINUOUS
 62
     7
 10
-327.718392424723
 20
35.6808315428821
 30
0.0
 11
-324.53842121464
 21
35.6808315428821
 31
0.0
  0
LINE
  5
   6E1
  8
0
  6
DASHDOT
 62
     7
 10
-326.128406819681
 20
71.851319863661
 30
0.0
 11
-326.128406819681
 21
13.5942472949365
 31
0.0
  0
LINE
  5
   6E2
  8
0
  6
CONTINUOUS
 62
     7
 10
-396.768973683894
 20
101.460343093883
 30
0.0
 11
-369.066308728588
 21
101.460343093883
 31
0.0
  0
LINE
  5
   6E3
  8
0
  6
CONTINUOUS
 62
     7
 10
-369.066308728588
 20
101.460343093883
 30
0.0
 11
-361.30873411971
 21
71.8916166861309
 31
0.0
  0
LINE
  5
   6E4
  8
0
  6
CONTINUOUS
 62
     7
 10
-363.41270839185
 20
75.580177419054
 30
0.0
 11
-361.30873411971
 21
71.8916166861309
 31
0.0
  0
LINE
  5
   6E5
  8
0
  6
CONTINUOUS
 62
     7
 10
-361.287827363782
 20
75.8932899800623
 30
0.0
 11
-361.30873411971
 21
71.8916166861309
 31
0.0
  0
INSERT
  5
   6E6
  8
0
  6
CONTINUOUS
 62
     7
  2
*UDIM197
 10
0.0
 20
0.0
 30
0.0
  0
INSERT
  5
   6E7
  8
0
  6
CONTINUOUS
 62
     7
  2
*UDIM198
 10
0.0
 20
0.0
 30
0.0
  0
INSERT
  5
   6E8
  8
0
  6
CONTINUOUS
 62
     7
  2
*UDIM199
 10
0.0
 20
0.0
 30
0.0
  0
TEXT
  5
   6E9
  8
0
  6
CONTINUOUS
 62
     7
 10
-394.055142795643
 20
102.51703643646
 30
0.0
 40
3.00000002980232
  1
PART. Z
 50
359.999999844103
 41
0.916666604744064
 72
     1
 11
-384.705143332481
 21
104.017036425968
 31
0.0
 73
     2
  0
INSERT
  5
   6EA
  8
0
  6
CONTINUOUS
 62
     7
  2
*UDIM200
 10
0.0
 20
0.0
 30
0.0
  0
INSERT
  5
   6EB
  8
0
  6
CONTINUOUS
 62
     7
  2
*UDIM201
 10
0.0
 20
0.0
 30
0.0
  0
INSERT
  5
   6EC
  8
0
  6
CONTINUOUS
 62
     7
  2
*UDIM202
 10
0.0
 20
0.0
 30
0.0
  0
TEXT
  5
   6ED
  8
0
  6
CONTINUOUS
 62
     7
 10
-380.025370535032
 20
43.3036215950102
 30
0.0
 40
3.00000002980232
  1
=     =
 50
449.999999844103
 41
0.916666604744064
 72
     2
 11
-380.025370484269
 21
62.0036205131859
 31
0.0
  0
INSERT
  5
   6EE
  8
0
  6
CONTINUOUS
 62
     7
  2
*UDIM203
 10
0.0
 20
0.0
 30
0.0
  0
INSERT
  5
   6EF
  8
0
  6
CONTINUOUS
 62
     7
  2
*UDIM204
 10
0.0
 20
0.0
 30
0.0
  0
INSERT
  5
   6F0
  8
0
  6
CONTINUOUS
 62
     7
  2
*UDIM205
 10
0.0
 20
0.0
 30
0.0
  0
INSERT
  5
   6F1
  8
0
  6
CONTINUOUS
 62
     7
  2
*UDIM206
 10
0.0
 20
0.0
 30
0.0
  0
INSERT
  5
   6F2
  8
0
  6
CONTINUOUS
 62
     7
  2
*UDIM207
 10
0.0
 20
0.0
 30
0.0
  0
INSERT
  5
   6F3
  8
0
  6
CONTINUOUS
 62
     7
  2
*UDIM208
 10
0.0
 20
0.0
 30
0.0
  0
INSERT
  5
   6F4
  8
0
  6
CONTINUOUS
 62
     7
  2
*UDIM209
 10
0.0
 20
0.0
 30
0.0
  0
INSERT
  5
   6F5
  8
0
  6
CONTINUOUS
 62
     7
  2
*UDIM210
 10
0.0
 20
0.0
 30
0.0
  0
INSERT
  5
   6F6
  8
0
  6
CONTINUOUS
 62
     7
  2
*UDIM211
 10
0.0
 20
0.0
 30
0.0
  0
INSERT
  5
   6F7
  8
0
  6
CONTINUOUS
 62
     7
  2
*UDIM212
 10
0.0
 20
0.0
 30
0.0
  0
INSERT
  5
   6F8
  8
0
  6
CONTINUOUS
 62
     7
  2
*UDIM213
 10
0.0
 20
0.0
 30
0.0
  0
TEXT
  5
   6F9
  8
0
  6
CONTINUOUS
 62
     7
 10
-355.272167811893
 20
7.2343062663129
 30
0.0
 40
3.00000002980232
  1
Y
 50
359.999999844103
 41
0.916666604744064
 72
     2
 11
-353.072167943023
 21
7.23430626033796
 31
0.0
  0
TEXT
  5
   6FA
  8
0
  6
CONTINUOUS
 62
     7
 10
-355.802631030582
 20
103.634063651567
 30
0.0
 40
3.00000002980232
  1
Y
 50
359.999999844103
 41
0.916666604744064
 72
     2
 11
-353.602631161712
 21
103.634063645592
 31
0.0
  0
TEXT
  5
   6FB
  8
0
  6
CONTINUOUS
 62
     7
 10
-302.002384076618
 20
51.7897644543699
 30
0.0
 40
3.00000002980232
  1
X
 50
359.999999844103
 41
0.916666604744064
 72
     2
 11
-299.802384207748
 21
51.7897644483949
 31
0.0
  0
TEXT
  5
   6FC
  8
0
  6
CONTINUOUS
 62
     7
 10
-399.18577946236
 20
51.2468404078534
 30
0.0
 40
3.00000002980232
  1
X
 50
359.999999844103
 41
0.916666604744064
 72
     2
 11
-396.98577959349
 21
51.2468404018785
 31
0.0
  0
LINE
  5
   6FD
  8
0
  6
CONTINUOUS
 62
     7
 10
-556.008605957031
 20
-102.399748595278
 30
0.0
 11
-556.008605957031
 21
-126.31627008148
 31
0.0
  0
LINE
  5
   6FE
  8
0
  6
CONTINUOUS
 62
     7
 10
-558.008605957031
 20
-102.399748595278
 30
0.0
 11
-558.008605957031
 21
-126.31627008148
 31
0.0
  0
LINE
  5
   6FF
  8
0
  6
DASHDOT
 62
     7
 10
-561.211209059428
 20
-114.358009338379
 30
0.0
 11
-552.784989866991
 21
-114.358009338379
 31
0.0
  0
POINT
  5
   700
  8
0
  6
CONTINUOUS
 62
     7
 10
-558.008605957031
 20
-112.358009338379
 30
0.0
  0
POINT
  5
   701
  8
0
  6
CONTINUOUS
 62
     7
 10
-558.008605957031
 20
-116.358009338379
 30
0.0
  0
LINE
  5
   702
  8
0
  6
CONTINUOUS
 62
     7
 10
-556.008605957031
 20
-110.679810076024
 30
0.0
 11
-558.008605957031
 21
-112.358009338379
 31
0.0
  0
LINE
  5
   703
  8
0
  6
CONTINUOUS
 62
     7
 10
-558.008605957031
 20
-116.358009338379
 30
0.0
 11
-556.008605957031
 21
-118.036208600733
 31
0.0
  0
LINE
  5
   704
  8
0
  6
CONTINUOUS
 62
     7
 10
-558.008605957031
 20
-123.858009338379
 30
0.0
 11
-556.008605957031
 21
-123.858009338379
 31
0.0
  0
CIRCLE
  5
   705
  8
0
  6
CONTINUOUS
 62
     7
 10
-557.008605957031
 20
-114.358009338379
 30
0.0
 40
12.0
  0
LINE
  5
   706
  8
0
  6
CONTINUOUS
 62
     7
 10
-564.008598327637
 20
-118.858009338379
 30
0.0
 11
-561.508598327637
 21
-118.858009338379
 31
0.0
  0
LINE
  5
   707
  8
0
  6
CONTINUOUS
 62
     7
 10
-560.508598327637
 20
-109.858009338379
 30
0.0
 11
-560.508598327637
 21
-117.858009338379
 31
0.0
  0
LINE
  5
   708
  8
0
  6
CONTINUOUS
 62
     7
 10
-560.508598327637
 20
-109.858009338379
 30
0.0
 11
-558.008605957031
 21
-109.858009338379
 31
0.0
  0
LINE
  5
   709
  8
0
  6
CONTINUOUS
 62
     7
 10
-564.008598327637
 20
-121.358009338379
 30
0.0
 11
-561.508598327637
 21
-121.358009338379
 31
0.0
  0
LINE
  5
   70A
  8
0
  6
CONTINUOUS
 62
     7
 10
-565.008598327637
 20
-122.358009338379
 30
0.0
 11
-565.008598327637
 21
-123.30228807231
 31
0.0
  0
ARC
  5
   70B
  8
0
  6
CONTINUOUS
 62
     7
 10
-561.508594180357
 20
-117.858010009718
 30
0.0
 40
0.999996977799109
 50
629.999840735313
 51
720.000252836193
  0
ARC
  5
   70C
  8
0
  6
CONTINUOUS
 62
     7
 10
-564.00858367413
 20
-122.358022024683
 30
0.0
 40
3.50001845311552
 50
450.000186734275
 51
513.408761128067
  0
ARC
  5
   70D
  8
0
  6
CONTINUOUS
 62
     7
 10
-564.008642575787
 20
-122.357968443597
 30
0.0
 40
0.999949821243504
 50
449.997764042825
 51
540.001169660043
  0
ARC
  5
   70E
  8
0
  6
CONTINUOUS
 62
     7
 10
-561.508578975255
 20
-117.858041385313
 30
0.0
 40
3.49997105594423
 50
629.999653243441
 51
720.000420168909
  0
INSERT
  5
   70F
  8
0
  6
CONTINUOUS
 62
     7
  2
*HATCH30
 10
-557.008605957031
 20
-114.358009338379
 30
0.0
 50
269.999999844103
  0
INSERT
  5
   710
  8
0
  6
CONTINUOUS
 62
     7
  2
*HATCH31
 10
-557.008605957031
 20
-114.358009338379
 30
0.0
 50
269.999999844103
  0
TEXT
  5
   711
  8
0
  6
CONTINUOUS
 62
     7
 10
-567.354558980069
 20
-98.1278915420556
 30
0.0
 40
3.00000002980232
  1
PART. Z
 50
359.999999844103
 41
0.916666604744064
 72
     1
 11
-558.004559516907
 21
-96.627891552548
 31
0.0
 73
     2
  0
INSERT
  5
   712
  8
0
  6
CONTINUOUS
 62
     7
  2
*UDIM214
 10
0.0
 20
0.0
 30
0.0
  0
INSERT
  5
   713
  8
0
  6
CONTINUOUS
 62
     7
  2
*UDIM215
 10
0.0
 20
0.0
 30
0.0
  0
ENDSEC
  0
EOF
