  0
SECTION
  2
HEADER
  9
$ACADVER
  1
AC1009
  9
$DWGCODEPAGE
  3
iso8859-1
  9
$INSBASE
 10
0.0
 20
0.0
 30
0.0
  9
$EXTMIN
 10
1.0E20
 20
1.0E20
  9
$EXTMAX
 10
-1.0E20
 20
-1.0E20
  9
$LIMMIN
 10
0.0
 20
0.0
  9
$LIMMAX
 10
12.0
 20
9.0
  9
$ORTHOMODE
 70
     0
  9
$REGENMODE
 70
     1
  9
$FILLMODE
 70
     1
  9
$QTEXTMODE
 70
     0
  9
$MIRRTEXT
 70
     1
  9
$DRAGMODE
 70
     2
  9
$LTSCALE
 40
15.0
  9
$OSMODE
 70
     0
  9
$ATTMODE
 70
     1
  9
$TEXTSIZE
 40
0.2
  9
$TRACEWID
 40
0.05
  9
$TEXTSTYLE
  7
STANDARD
  9
$CLAYER
  8
0
  9
$CELTYPE
  6
DASHED
  9
$CECOLOR
 62
   256
  9
$DIMSCALE
 40
1.0
  9
$DIMASZ
 40
0.18
  9
$DIMEXO
 40
0.0625
  9
$DIMDLI
 40
0.38
  9
$DIMRND
 40
0.0
  9
$DIMDLE
 40
0.0
  9
$DIMEXE
 40
0.18
  9
$DIMTP
 40
0.0
  9
$DIMTM
 40
0.0
  9
$DIMTXT
 40
0.18
  9
$DIMCEN
 40
0.09
  9
$DIMTSZ
 40
0.0
  9
$DIMTOL
 70
     0
  9
$DIMLIM
 70
     0
  9
$DIMTIH
 70
     1
  9
$DIMTOH
 70
     1
  9
$DIMSE1
 70
     0
  9
$DIMSE2
 70
     0
  9
$DIMTAD
 70
     0
  9
$DIMZIN
 70
     0
  9
$DIMBLK
  1

  9
$DIMASO
 70
     1
  9
$DIMSHO
 70
     1
  9
$DIMPOST
  1

  9
$DIMAPOST
  1

  9
$DIMALT
 70
     0
  9
$DIMALTD
 70
     2
  9
$DIMALTF
 40
25.4
  9
$DIMLFAC
 40
1.0
  9
$DIMTOFL
 70
     0
  9
$DIMTVP
 40
0.0
  9
$DIMTIX
 70
     0
  9
$DIMSOXD
 70
     0
  9
$DIMSAH
 70
     0
  9
$DIMBLK1
  1

  9
$DIMBLK2
  1

  9
$DIMSTYLE
  2
STANDARD
  9
$DIMCLRD
 70
     0
  9
$DIMCLRE
 70
     0
  9
$DIMCLRT
 70
     0
  9
$DIMTFAC
 40
1.0
  9
$DIMGAP
 40
0.09
  9
$LUNITS
 70
     2
  9
$LUPREC
 70
     4
  9
$AXISMODE
 70
     0
  9
$AXISUNIT
 10
0.0
 20
0.0
  9
$SKETCHINC
 40
0.1
  9
$FILLETRAD
 40
0.0
  9
$AUNITS
 70
     0
  9
$AUPREC
 70
     0
  9
$MENU
  1
acad
  9
$ELEVATION
 40
0.0
  9
$PELEVATION
 40
0.0
  9
$THICKNESS
 40
0.0
  9
$LIMCHECK
 70
     0
  9
$BLIPMODE
 70
     1
  9
$CHAMFERA
 40
0.0
  9
$CHAMFERB
 40
0.0
  9
$SKPOLY
 70
     0
  9
$TDCREATE
 40
0.000000000
  9
$TDUPDATE
 40
0.000000000
  9
$TDINDWG
 40
0.0
  9
$TDUSRTIMER
 40
0.0
  9
$USRTIMER
 70
     1
  9
$ANGBASE
 50
0.0
  9
$ANGDIR
 70
     0
  9
$PDMODE
 70
     0
  9
$PDSIZE
 40
0.0
  9
$PLINEWID
 40
0.0
  9
$COORDS
 70
     1
  9
$SPLFRAME
 70
     0
  9
$SPLINETYPE
 70
     6
  9
$SPLINESEGS
 70
     8
  9
$ATTDIA
 70
     0
  9
$ATTREQ
 70
     1
  9
$HANDLING
 70
     1
  9
$HANDSEED
  5
   746
  9
$SURFTAB1
 70
     6
  9
$SURFTAB2
 70
     6
  9
$SURFTYPE
 70
     6
  9
$SURFU
 70
     6
  9
$SURFV
 70
     6
  9
$UCSNAME
  2

  9
$UCSORG
 10
0.0
 20
0.0
 30
0.0
  9
$UCSXDIR
 10
1.0
 20
0.0
 30
0.0
  9
$UCSYDIR
 10
0.0
 20
1.0
 30
0.0
  9
$PUCSNAME
  2

  9
$PUCSORG
 10
0.0
 20
0.0
 30
0.0
  9
$PUCSXDIR
 10
1.0
 20
0.0
 30
0.0
  9
$PUCSYDIR
 10
0.0
 20
1.0
 30
0.0
  9
$USERI1
 70
     0
  9
$USERI2
 70
     0
  9
$USERI3
 70
     0
  9
$USERI4
 70
     0
  9
$USERI5
 70
     0
  9
$USERR1
 40
0.0
  9
$USERR2
 40
0.0
  9
$USERR3
 40
0.0
  9
$USERR4
 40
0.0
  9
$USERR5
 40
0.0
  9
$WORLDVIEW
 70
     1
  9
$SHADEDGE
 70
     3
  9
$SHADEDIF
 70
    70
  9
$TILEMODE
 70
     1
  9
$MAXACTVP
 70
    16
  9
$PINSBASE
 10
0.0
 20
0.0
 30
0.0
  9
$PLIMCHECK
 70
     0
  9
$PEXTMIN
 10
1.0E20
 20
1.0E20
 30
1.0E20
  9
$PEXTMAX
 10
-1.0E20
 20
-1.0E20
 30
-1.0E20
  9
$PLIMMIN
 10
0.0
 20
0.0
  9
$PLIMMAX
 10
12.0
 20
9.0
  9
$UNITMODE
 70
     0
  9
$VISRETAIN
 70
     0
  0
ENDSEC
  0
SECTION
  2
TABLES
  0
TABLE
  2
VPORT
 70
     1
  0
VPORT
  2
*ACTIVE
 70
     0
 10
0.0
 20
0.0
 11
1.0
 21
1.0
 12
6.801242
 22
4.5
 13
0.0
 23
0.0
 14
1.0
 24
1.0
 15
0.0
 25
0.0
 16
0.0
 26
0.0
 36
1.0
 17
0.0
 27
0.0
 37
0.0
 40
9.0
 41
1.511387
 42
50.0
 43
0.0
 44
0.0
 50
0.0
 51
0.0
 71
     0
 72
   100
 73
     1
 74
     1
 75
     0
 76
     0
 77
     0
 78
     0
  0
ENDTAB
  0
TABLE
  2
LTYPE
 70
    41
  0
LTYPE
  2
BYBLOCK
 70
     0
  3

 72
    65
 73
     0
 40
0.0
  0
LTYPE
  2
BYLAYER
 70
     0
  3

 72
    65
 73
     0
 40
0.0
  0
LTYPE
  2
CONTINUOUS
 70
     0
  3
Solid line
 72
    65
 73
     0
 40
0.0
  0
LTYPE
  2
BORDER
 70
    64
  3
__ __ . __ __ . __ __ . __ __ . __ __ . __ __ .
 72
    65
 73
     6
 40
1.75
 49
0.5
 49
-0.25
 49
0.5
 49
-0.25
 49
0.0
 49
-0.25
  0
LTYPE
  2
BORDER2
 70
    64
  3
__.__.__.__.__.__.__.__.__.__.__.__.__.__.__.__
 72
    65
 73
     6
 40
0.875
 49
0.25
 49
-0.125
 49
0.25
 49
-0.125
 49
0.0
 49
-0.125
  0
LTYPE
  2
BORDERX2
 70
    64
  3
____  ____  .  ____  ____  .  ____  ____  .  __
 72
    65
 73
     6
 40
3.5
 49
1.0
 49
-0.5
 49
1.0
 49
-0.5
 49
0.0
 49
-0.5
  0
LTYPE
  2
CENTER
 70
    64
  3
____ _ ____ _ ____ _ ____ _ ____ _ ____ _ ____
 72
    65
 73
     4
 40
2.0
 49
1.25
 49
-0.25
 49
0.25
 49
-0.25
  0
LTYPE
  2
CENTER2
 70
    64
  3
___ _ ___ _ ___ _ ___ _ ___ _ ___ _ ___ _ ___ _
 72
    65
 73
     4
 40
1.125
 49
0.75
 49
-0.125
 49
0.125
 49
-0.125
  0
LTYPE
  2
CENTERX2
 70
    64
  3
________  __  ________  __  ________  __  _____
 72
    65
 73
     4
 40
4.0
 49
2.5
 49
-0.5
 49
0.5
 49
-0.5
  0
LTYPE
  2
DASHDOT
 70
    64
  3
__ . __ . __ . __ . __ . __ . __ . __ . __ . __
 72
    65
 73
     4
 40
1.0
 49
0.5
 49
-0.25
 49
0.0
 49
-0.25
  0
LTYPE
  2
DASHDOT2
 70
    64
  3
_._._._._._._._._._._._._._._._._._._._._._._._
 72
    65
 73
     4
 40
0.5
 49
0.25
 49
-0.125
 49
0.0
 49
-0.125
  0
LTYPE
  2
DASHDOTX2
 70
    64
  3
____  .  ____  .  ____  .  ____  .  ____  .  __
 72
    65
 73
     4
 40
2.0
 49
1.0
 49
-0.5
 49
0.0
 49
-0.5
  0
LTYPE
  2
DASHED
 70
    64
  3
__ __ __ __ __ __ __ __ __ __ __ __ __ __ __ __
 72
    65
 73
     2
 40
0.75
 49
0.5
 49
-0.25
  0
LTYPE
  2
DASHED2
 70
    64
  3
_ _ _ _ _ _ _ _ _ _ _ _ _ _ _ _ _ _ _ _ _ _ _ _
 72
    65
 73
     2
 40
0.375
 49
0.25
 49
-0.125
  0
LTYPE
  2
DASHEDX2
 70
    64
  3
____  ____  ____  ____  ____  ____  ____  ____
 72
    65
 73
     2
 40
1.5
 49
1.0
 49
-0.5
  0
LTYPE
  2
DIVIDE
 70
    64
  3
____ . . ____ . . ____ . . ____ . . ____ . . __
 72
    65
 73
     6
 40
1.25
 49
0.5
 49
-0.25
 49
0.0
 49
-0.25
 49
0.0
 49
-0.25
  0
LTYPE
  2
DIVIDE2
 70
    64
  3
__..__..__..__..__..__..__..__..__..__..__..__.
 72
    65
 73
     6
 40
0.625
 49
0.25
 49
-0.125
 49
0.0
 49
-0.125
 49
0.0
 49
-0.125
  0
LTYPE
  2
DIVIDEX2
 70
    64
  3
________  .  .  ________  .  .  ________  .  .
 72
    65
 73
     6
 40
2.5
 49
1.0
 49
-0.5
 49
0.0
 49
-0.5
 49
0.0
 49
-0.5
  0
LTYPE
  2
DOT
 70
    64
  3
. . . . . . . . . . . . . . . . . . . . . . . .
 72
    65
 73
     2
 40
0.25
 49
0.0
 49
-0.25
  0
LTYPE
  2
DOT2
 70
    64
  3
...............................................
 72
    65
 73
     2
 40
0.125
 49
0.0
 49
-0.125
  0
LTYPE
  2
DOTX2
 70
    64
  3
.  .  .  .  .  .  .  .  .  .  .  .  .  .  .  .
 72
    65
 73
     2
 40
0.5
 49
0.0
 49
-0.5
  0
LTYPE
  2
HIDDEN
 70
    64
  3
__ __ __ __ __ __ __ __ __ __ __ __ __ __ __ __
 72
    65
 73
     2
 40
0.375
 49
0.25
 49
-0.125
  0
LTYPE
  2
HIDDEN2
 70
    64
  3
_ _ _ _ _ _ _ _ _ _ _ _ _ _ _ _ _ _ _ _ _ _ _ _
 72
    65
 73
     2
 40
0.1875
 49
0.125
 49
-0.0625
  0
LTYPE
  2
HIDDENX2
 70
    64
  3
____ ____ ____ ____ ____ ____ ____ ____ ____ __
 72
    65
 73
     2
 40
0.75
 49
0.5
 49
-0.25
  0
LTYPE
  2
PHANTOM
 70
    64
  3
______  __  __  ______  __  __  ______  __  __
 72
    65
 73
     6
 40
2.5
 49
1.25
 49
-0.25
 49
0.25
 49
-0.25
 49
0.25
 49
-0.25
  0
LTYPE
  2
PHANTOM2
 70
    64
  3
___ _ _ ___ _ _ ___ _ _ ___ _ _ ___ _ _ ___ _ _
 72
    65
 73
     6
 40
1.25
 49
0.625
 49
-0.125
 49
0.125
 49
-0.125
 49
0.125
 49
-0.125
  0
LTYPE
  2
PHANTOMX2
 70
    64
  3
____________    ____    ____    ____________
 72
    65
 73
     6
 40
5.0
 49
2.5
 49
-0.5
 49
0.5
 49
-0.5
 49
0.5
 49
-0.5
  0
LTYPE
  2
ACAD_ISO02W100
 70
    64
  3
__ __ __ __ __ __ __ __ __ __ __ __ __ __ __ __
 72
    65
 73
     2
 40
15.0
 49
12.0
 49
-3.0
  0
LTYPE
  2
ACAD_ISO03W100
 70
    64
  3
__    __    __    __    __    __    __    __
 72
    65
 73
     2
 40
30.0
 49
12.0
 49
-18.0
  0
LTYPE
  2
ACAD_ISO04W100
 70
    64
  3
____ . ____ . ____ . ____ . ____ . ____ . ____
 72
    65
 73
     4
 40
30.5
 49
24.0
 49
-3.0
 49
0.5
 49
-3.0
  0
LTYPE
  2
ACAD_ISO05W100
 70
    64
  3
____ .. ____ .. ____ .. ____ .. ____ .. ____ ..
 72
    65
 73
     6
 40
34.0
 49
24.0
 49
-3.0
 49
0.5
 49
-3.0
 49
0.5
 49
-3.0
  0
LTYPE
  2
ACAD_ISO06W100
 70
    64
  3
____ ... ____ ... ____ ... ____ ... ____ ... __
 72
    65
 73
     8
 40
37.5
 49
24.0
 49
-3.0
 49
0.5
 49
-3.0
 49
0.5
 49
-3.0
 49
0.5
 49
-3.0
  0
LTYPE
  2
ACAD_ISO07W100
 70
    64
  3
. . . . . . . . . . . . . . . . . . . . . . . .
 72
    65
 73
     2
 40
3.5
 49
0.5
 49
-3.0
  0
LTYPE
  2
ACAD_ISO08W100
 70
    64
  3
____ __ ____ __ ____ __ ____ ____ __ __ ____ __
 72
    65
 73
     4
 40
36.0
 49
24.0
 49
-3.0
 49
6.0
 49
-3.0
  0
LTYPE
  2
ACAD_ISO09W100
 70
    64
  3
____ __ __ ____ __ __ ____ __ __ ____ __ __ ___
 72
    65
 73
     6
 40
45.0
 49
24.0
 49
-3.0
 49
6.0
 49
-3.0
 49
6.0
 49
-3.0
  0
LTYPE
  2
ACAD_ISO10W100
 70
    64
  3
__ . __ . __ . __ . __ . __ . __ . __ . __ . __
 72
    65
 73
     4
 40
18.5
 49
12.0
 49
-3.0
 49
0.5
 49
-3.0
  0
LTYPE
  2
ACAD_ISO11W100
 70
    64
  3
__ __ . __ __ . __ __ . __ __ . __ __ . __ __ .
 72
    65
 73
     6
 40
33.5
 49
12.0
 49
-3.0
 49
12.0
 49
-3.0
 49
0.5
 49
-3.0
  0
LTYPE
  2
ACAD_ISO12W100
 70
    64
  3
__ . . __ . . __ . . __ . . __ . . __ . . __ .
 72
    65
 73
     6
 40
22.0
 49
12.0
 49
-3.0
 49
0.5
 49
-3.0
 49
0.5
 49
-3.0
  0
LTYPE
  2
ACAD_ISO13W100
 70
    64
  3
__ __ . . __ __ . . __ __ . . __ __ . . __ __ .
 72
    65
 73
     8
 40
37.0
 49
12.0
 49
-3.0
 49
12.0
 49
-3.0
 49
0.5
 49
-3.0
 49
0.5
 49
-3.0
  0
LTYPE
  2
ACAD_ISO14W100
 70
    64
  3
__ . . . __ . . . __ . . . __ . . . __ . . . __
 72
    65
 73
     8
 40
25.5
 49
12.0
 49
-3.0
 49
0.5
 49
-3.0
 49
0.5
 49
-3.0
 49
0.5
 49
-3.0
  0
LTYPE
  2
ACAD_ISO15W100
 70
    64
  3
__ __ . . . __ __ . . . __ __ . . . __ __ . . .
 72
    65
 73
    10
 40
40.5
 49
12.0
 49
-3.0
 49
12.0
 49
-3.0
 49
0.5
 49
-3.0
 49
0.5
 49
-3.0
 49
0.5
 49
-3.0
  0
ENDTAB
  0
TABLE
  2
STYLE
 70
     4
  0
STYLE
  2
STANDARD
 70
    64
 40
0.0
 41
1.0
 50
0.0
 71
     0
 42
0.2
  3
txt
  4

  0
STYLE
  2
TOLERANCE
 70
    64
 40
0.0
 41
1.0
 50
0.0
 71
     0
 42
0.2
  3
../igesfont/iges1003.shx
  4

  0
STYLE
  2
ROMANS
 70
    64
 40
0.0
 41
1.0
 50
0.0
 71
     0
 42
0.2
  3
romans.shx
  4

  0
STYLE
  2
ROMANC
 70
    64
 40
0.0
 41
1.0
 50
0.0
 71
     0
 42
0.2
  3
romanc.shx
  4

  0
ENDTAB
  0
TABLE
  2
DIMSTYLE
 70
     2
  0
DIMSTYLE
  2
UNNAMED
 70
     0
  3

  4

  5

  6

  7

 40
1.0
 41
0.18
 42
0.0625
 43
0.38
 44
0.18
 45
0.0
 46
0.0
 47
0.0
 48
0.0
140
0.18
141
0.09
142
0.0
143
25.4
144
1.0
145
0.0
146
1.0
147
0.09
 71
     0
 72
     0
 73
     1
 74
     1
 75
     0
 76
     0
 77
     0
 78
     0
170
     0
171
     2
172
     0
173
     0
174
     0
175
     0
176
     0
177
     0
178
     0
  0
DIMSTYLE
  2
STANDARD
 70
     0
  3

  4

  5

  6

  7

 40
1.0
 41
0.18
 42
0.0625
 43
0.38
 44
0.18
 45
0.0
 46
0.0
 47
0.0
 48
0.0
140
0.18
141
0.09
142
0.0
143
25.4
144
1.0
145
0.0
146
1.0
147
0.09
 71
     0
 72
     0
 73
     1
 74
     1
 75
     0
 76
     0
 77
     0
 78
     0
170
     0
171
     2
172
     0
173
     0
174
     0
175
     0
176
     0
177
     0
178
     0
  0
ENDTAB
  0
TABLE
  2
LAYER
 70
     2
  0
LAYER
  2
0
 70
     0
 62
     7
  6
CONTINUOUS
  0
LAYER
  2
255
 70
     0
 62
     7
  6
CONTINUOUS
  0
ENDTAB
  0
ENDSEC
  0
SECTION
  2
BLOCKS
  0
BLOCK
  5
     B
  8
0
  6
CONTINUOUS
 62
     7
  2
*UDIM358
 70
    65
 10
0.0
 20
0.0
 30
0.0
  3
*UDIM358
  0
TEXT
  5
     C
  8
0
  6
CONTINUOUS
 62
     7
 10
-621.316203930663
 20
-172.964114117973
 30
0.0
 40
3.00000002980232
  1
237
 50
449.999999896069
 41
0.933333333333333
 72
     1
 11
-622.816203938515
 21
-169.064114076518
 31
0.0
 73
     2
  0
LINE
  5
     D
  8
0
  6
CONTINUOUS
 62
     7
 10
-603.398116156342
 20
-139.164108256209
 30
0.0
 11
-622.316203923613
 21
-139.16410787485
 31
0.0
  0
LINE
  5
     E
  8
0
  6
CONTINUOUS
 62
     7
 10
-602.551401202053
 20
-198.414108242954
 30
0.0
 11
-622.316203923613
 21
-198.414107582542
 31
0.0
  0
LINE
  5
     F
  8
0
  6
CONTINUOUS
 62
     7
 10
-620.316203923613
 20
-139.164107915167
 30
0.0
 11
-620.316203923613
 21
-198.414107649369
 31
0.0
  0
LINE
  5
    10
  8
0
  6
CONTINUOUS
 62
     7
 10
-619.795259493662
 20
-142.118531192374
 30
0.0
 11
-620.316203923613
 21
-139.164107915167
 31
0.0
  0
LINE
  5
    11
  8
0
  6
CONTINUOUS
 62
     7
 10
-620.316203923613
 20
-139.164107915167
 30
0.0
 11
-620.837148353565
 21
-142.118531192374
 31
0.0
  0
LINE
  5
    12
  8
0
  6
CONTINUOUS
 62
     7
 10
-620.837148353565
 20
-195.459684372162
 30
0.0
 11
-620.316203923613
 21
-198.414107649369
 31
0.0
  0
LINE
  5
    13
  8
0
  6
CONTINUOUS
 62
     7
 10
-620.316203923613
 20
-198.414107649369
 30
0.0
 11
-619.795259493662
 21
-195.459684372162
 31
0.0
  0
ENDBLK
  5
    14
  8
0
  6
CONTINUOUS
 62
     7
  0
BLOCK
  5
    15
  8
0
  6
CONTINUOUS
 62
     5
  2
*UDIM359
 70
    65
 10
0.0
 20
0.0
 30
0.0
  3
*UDIM359
  0
TEXT
  5
    16
  8
0
  6
CONTINUOUS
 62
     5
 10
-614.35546509326
 20
-161.257858365505
 30
0.0
 40
3.00000002980232
  1
109,75
 50
449.999999896069
 41
0.933333333333333
 72
     1
 11
-615.855465093519
 21
-153.157858282328
 31
0.0
 73
     2
  0
LINE
  5
    17
  8
0
  6
CONTINUOUS
 62
     5
 10
-603.398116156342
 20
-139.164108276367
 30
0.0
 11
-615.355465078618
 21
-139.164108276367
 31
0.0
  0
LINE
  5
    18
  8
0
  6
CONTINUOUS
 62
     5
 10
-599.09400701917
 20
-166.601608276367
 30
0.0
 11
-615.355465078618
 21
-166.601608276367
 31
0.0
  0
LINE
  5
    19
  8
0
  6
CONTINUOUS
 62
     5
 10
-613.355465078618
 20
-139.164108276367
 30
0.0
 11
-613.355465078618
 21
-166.601608276367
 31
0.0
  0
LINE
  5
    1A
  8
0
  6
CONTINUOUS
 62
     5
 10
-612.834520648666
 20
-142.118531553574
 30
0.0
 11
-613.355465078618
 21
-139.164108276367
 31
0.0
  0
LINE
  5
    1B
  8
0
  6
CONTINUOUS
 62
     5
 10
-613.355465078618
 20
-139.164108276367
 30
0.0
 11
-613.876409508569
 21
-142.118531553574
 31
0.0
  0
LINE
  5
    1C
  8
0
  6
CONTINUOUS
 62
     5
 10
-613.876409508569
 20
-163.64718499916
 30
0.0
 11
-613.355465078618
 21
-166.601608276367
 31
0.0
  0
LINE
  5
    1D
  8
0
  6
CONTINUOUS
 62
     5
 10
-613.355465078618
 20
-166.601608276367
 30
0.0
 11
-612.834520648666
 21
-163.64718499916
 31
0.0
  0
ENDBLK
  5
    1E
  8
0
  6
CONTINUOUS
 62
     5
  0
BLOCK
  5
    1F
  8
0
  6
CONTINUOUS
 62
     7
  2
*UDIM360
 70
    65
 10
0.0
 20
0.0
 30
0.0
  3
*UDIM360
  0
TEXT
  5
    20
  8
0
  6
CONTINUOUS
 62
     7
 10
-589.572072795363
 20
-178.62623508219
 30
0.0
 40
3.00000002980232
  1
105
 50
359.999999896069
 41
0.933333333333333
 72
     1
 11
-585.672072753906
 21
-177.126235074344
 31
0.0
 73
     2
  0
LINE
  5
    21
  8
0
  6
CONTINUOUS
 62
     7
 10
-572.546447753906
 20
-179.626235089245
 30
0.0
 11
-598.797697753906
 21
-179.626235089245
 31
0.0
  0
LINE
  5
    22
  8
0
  6
CONTINUOUS
 62
     7
 10
-575.444225227117
 20
-180.402692245663
 30
0.0
 11
-572.546447753906
 21
-179.626235089245
 31
0.0
  0
LINE
  5
    23
  8
0
  6
CONTINUOUS
 62
     7
 10
-572.546447753906
 20
-179.626235089245
 30
0.0
 11
-575.444225227117
 21
-178.849777932826
 31
0.0
  0
LINE
  5
    24
  8
0
  6
CONTINUOUS
 62
     7
 10
-595.899920280696
 20
-178.849777932826
 30
0.0
 11
-598.797697753906
 21
-179.626235089245
 31
0.0
  0
LINE
  5
    25
  8
0
  6
CONTINUOUS
 62
     7
 10
-598.797697753906
 20
-179.626235089245
 30
0.0
 11
-595.899920280696
 21
-180.402692245663
 31
0.0
  0
ENDBLK
  5
    26
  8
0
  6
CONTINUOUS
 62
     7
  0
BLOCK
  5
    27
  8
0
  6
CONTINUOUS
 62
     7
  2
*UDIM361
 70
    65
 10
0.0
 20
0.0
 30
0.0
  3
*UDIM361
  0
TEXT
  5
    28
  8
0
  6
CONTINUOUS
 62
     7
 10
-570.672072781455
 20
-178.626235084723
 30
0.0
 40
3.00000002980232
  1
35
 50
359.999999896069
 41
0.933333333333333
 72
     1
 11
-568.172072753906
 21
-177.126235074344
 31
0.0
 73
     2
  0
LINE
  5
    29
  8
0
  6
CONTINUOUS
 62
     7
 10
-558.797697753906
 20
-179.626235089245
 30
0.0
 11
-572.546447753906
 21
-179.626235089245
 31
0.0
  0
LINE
  5
    2A
  8
0
  6
CONTINUOUS
 62
     7
 10
-560.899920280696
 20
-178.849777932826
 30
0.0
 11
-563.797697753906
 21
-179.626235089245
 31
0.0
  0
LINE
  5
    2B
  8
0
  6
CONTINUOUS
 62
     7
 10
-563.797697753906
 20
-179.626235089245
 30
0.0
 11
-560.899920280696
 21
-180.402692245663
 31
0.0
  0
LINE
  5
    2C
  8
0
  6
CONTINUOUS
 62
     7
 10
-575.444225227117
 20
-180.402692245663
 30
0.0
 11
-572.546447753906
 21
-179.626235089245
 31
0.0
  0
LINE
  5
    2D
  8
0
  6
CONTINUOUS
 62
     7
 10
-572.546447753906
 20
-179.626235089245
 30
0.0
 11
-575.444225227117
 21
-178.849777932826
 31
0.0
  0
ENDBLK
  5
    2E
  8
0
  6
CONTINUOUS
 62
     7
  0
BLOCK
  5
    2F
  8
0
  6
CONTINUOUS
 62
     7
  2
*UDIM362
 70
    65
 10
0.0
 20
0.0
 30
0.0
  3
*UDIM362
  0
TEXT
  5
    30
  8
0
  6
CONTINUOUS
 62
     7
 10
-551.978346013521
 20
-142.758721180719
 30
0.0
 40
3.00000002980232
  1
5,5
 50
338.440981409115
 41
0.933333333333333
 72
     1
 11
-547.800002576111
 21
-142.796753613623
 31
0.0
 73
     2
  0
TEXT
  5
    31
  8
0
  6
CONTINUOUS
 62
     7
 10
-554.907970618639
 20
-141.601223994685
 30
0.0
 40
3.00000002980232
  1
Ø
 50
338.440981409115
 41
0.933333333333334
 72
     1
 11
-553.333737955474
 21
-140.610370024128
 31
0.0
 73
     2
  0
TEXT
  5
    32
  8
0
  6
CONTINUOUS
 62
     7
 10
-544.21251565548
 20
-145.827007403224
 30
0.0
 40
3.00000002980232
  1
 - M5
 50
338.440981409115
 41
0.933333333333333
 72
     1
 11
-537.430061443825
 21
-146.89392623959
 31
0.0
 73
     2
  0
LINE
  5
    33
  8
0
  6
CONTINUOUS
 62
     7
 10
-532.11744493909
 20
-151.681003306027
 30
0.0
 11
-564.437099947045
 21
-138.911479922041
 31
0.0
  0
LINE
  5
    34
  8
0
  6
CONTINUOUS
 62
     7
 10
-560.21913911431
 20
-140.017868382679
 30
0.0
 11
-563.158295560768
 21
-139.416736630694
 31
0.0
  0
LINE
  5
    35
  8
0
  6
CONTINUOUS
 62
     7
 10
-563.158295560768
 20
-139.416736630694
 30
0.0
 11
-560.601990995136
 21
-140.986866232902
 31
0.0
  0
LINE
  5
    36
  8
0
  6
CONTINUOUS
 62
     7
 10
-567.376256393503
 20
-138.310348170056
 30
0.0
 11
-564.437099947045
 21
-138.911479922041
 31
0.0
  0
LINE
  5
    37
  8
0
  6
CONTINUOUS
 62
     7
 10
-564.437099947045
 20
-138.911479922041
 30
0.0
 11
-566.993404512676
 21
-137.341350319832
 31
0.0
  0
ENDBLK
  5
    38
  8
0
  6
CONTINUOUS
 62
     7
  0
BLOCK
  5
    39
  8
0
  6
CONTINUOUS
 62
     7
  2
*UDIM363
 70
    65
 10
0.0
 20
0.0
 30
0.0
  3
*UDIM363
  0
TEXT
  5
    3A
  8
0
  6
CONTINUOUS
 62
     7
 10
-663.127172894379
 20
-140.477204199493
 30
0.0
 40
3.00000002980232
  1
147
 50
359.999999844103
 41
0.933333333333333
 72
     1
 11
-659.227172851563
 21
-138.977204195184
 31
0.0
 73
     2
  0
TEXT
  5
    3B
  8
0
  6
CONTINUOUS
 62
     7
 10
-663.777172856315
 20
-144.977204197728
 30
0.0
 40
3.5
  1
= =
 50
359.999999844103
 41
0.933333333333333
 72
     1
 11
-659.227172851563
 21
-143.227204210085
 31
0.0
 73
     2
  0
LINE
  5
    3C
  8
0
  6
CONTINUOUS
 62
     7
 10
-677.602172851563
 20
-151.601608276367
 30
0.0
 11
-677.602172851563
 21
-139.477204210085
 31
0.0
  0
LINE
  5
    3D
  8
0
  6
CONTINUOUS
 62
     7
 10
-640.852172851563
 20
-151.601608276367
 30
0.0
 11
-640.852172851563
 21
-139.477204210085
 31
0.0
  0
LINE
  5
    3E
  8
0
  6
CONTINUOUS
 62
     7
 10
-677.602172851563
 20
-141.477204210085
 30
0.0
 11
-640.852172851563
 21
-141.477204210085
 31
0.0
  0
LINE
  5
    3F
  8
0
  6
CONTINUOUS
 62
     7
 10
-674.704395378352
 20
-140.700747053667
 30
0.0
 11
-677.602172851563
 21
-141.477204210085
 31
0.0
  0
LINE
  5
    40
  8
0
  6
CONTINUOUS
 62
     7
 10
-677.602172851563
 20
-141.477204210085
 30
0.0
 11
-674.704395378352
 21
-142.253661366504
 31
0.0
  0
LINE
  5
    41
  8
0
  6
CONTINUOUS
 62
     7
 10
-643.749950324773
 20
-142.253661366504
 30
0.0
 11
-640.852172851563
 21
-141.477204210085
 31
0.0
  0
LINE
  5
    42
  8
0
  6
CONTINUOUS
 62
     7
 10
-640.852172851563
 20
-141.477204210085
 30
0.0
 11
-643.749950324773
 21
-140.700747053667
 31
0.0
  0
ENDBLK
  5
    43
  8
0
  6
CONTINUOUS
 62
     7
  0
BLOCK
  5
    44
  8
0
  6
CONTINUOUS
 62
     7
  2
*UDIM364
 70
    65
 10
0.0
 20
0.0
 30
0.0
  3
*UDIM364
  0
TEXT
  5
    45
  8
0
  6
CONTINUOUS
 62
     7
 10
-663.127172894379
 20
-195.870510187921
 30
0.0
 40
3.00000002980232
  1
115
 50
359.999999844103
 41
0.933333333333333
 72
     1
 11
-659.227172851563
 21
-194.370510183612
 31
0.0
 73
     2
  0
TEXT
  5
    46
  8
0
  6
CONTINUOUS
 62
     7
 10
-663.777172856315
 20
-200.370510186156
 30
0.0
 40
3.5
  1
= =
 50
359.999999844103
 41
0.933333333333333
 72
     1
 11
-659.227172851563
 21
-198.620510198513
 31
0.0
 73
     2
  0
LINE
  5
    47
  8
0
  6
CONTINUOUS
 62
     7
 10
-673.602172851563
 20
-186.976608276367
 30
0.0
 11
-673.602172851563
 21
-198.870510198513
 31
0.0
  0
LINE
  5
    48
  8
0
  6
CONTINUOUS
 62
     7
 10
-644.852172851563
 20
-186.976608276367
 30
0.0
 11
-644.852172851563
 21
-198.870510198513
 31
0.0
  0
LINE
  5
    49
  8
0
  6
CONTINUOUS
 62
     7
 10
-673.602172851563
 20
-196.870510198513
 30
0.0
 11
-644.852172851563
 21
-196.870510198513
 31
0.0
  0
LINE
  5
    4A
  8
0
  6
CONTINUOUS
 62
     7
 10
-670.704395378352
 20
-196.094053042095
 30
0.0
 11
-673.602172851563
 21
-196.870510198513
 31
0.0
  0
LINE
  5
    4B
  8
0
  6
CONTINUOUS
 62
     7
 10
-673.602172851563
 20
-196.870510198513
 30
0.0
 11
-670.704395378352
 21
-197.646967354932
 31
0.0
  0
LINE
  5
    4C
  8
0
  6
CONTINUOUS
 62
     7
 10
-647.749950324773
 20
-197.646967354932
 30
0.0
 11
-644.852172851563
 21
-196.870510198513
 31
0.0
  0
LINE
  5
    4D
  8
0
  6
CONTINUOUS
 62
     7
 10
-644.852172851563
 20
-196.870510198513
 30
0.0
 11
-647.749950324773
 21
-196.094053042095
 31
0.0
  0
ENDBLK
  5
    4E
  8
0
  6
CONTINUOUS
 62
     7
  0
BLOCK
  5
    4F
  8
0
  6
CONTINUOUS
 62
     7
  2
*UDIM365
 70
    65
 10
0.0
 20
0.0
 30
0.0
  3
*UDIM365
  0
TEXT
  5
    50
  8
0
  6
CONTINUOUS
 62
     7
 10
-687.454699339981
 20
-196.740975979043
 30
0.0
 40
3.00000002980232
  1
7
 50
404.893139787217
 41
0.933333333333334
 72
     1
 11
-687.734112689518
 21
-194.901974008179
 31
0.0
 73
     2
  0
TEXT
  5
    51
  8
0
  6
CONTINUOUS
 62
     7
 10
-689.686236040256
 20
-198.964204266447
 30
0.0
 40
3.00000002980232
  1
Ø
 50
404.893139787217
 41
0.933333333333334
 72
     1
 11
-689.965649389793
 21
-197.125202295582
 31
0.0
 73
     2
  0
LINE
  5
    52
  8
0
  6
CONTINUOUS
 62
     7
 10
-672.982301547886
 20
-183.734044865147
 30
0.0
 11
-688.980449279582
 21
-199.672628612748
 31
0.0
  0
LINE
  5
    53
  8
0
  6
CONTINUOUS
 62
     7
 10
-671.256991845898
 20
-181.279802327779
 30
0.0
 11
-672.982301547886
 21
-183.734044865147
 31
0.0
  0
LINE
  5
    54
  8
0
  6
CONTINUOUS
 62
     7
 10
-672.982301547886
 20
-183.734044865147
 30
0.0
 11
-670.521640487688
 21
-182.017901763064
 31
0.0
  0
LINE
  5
    55
  8
0
  6
CONTINUOUS
 62
     7
 10
-675.947353857227
 20
-187.423414224956
 30
0.0
 11
-674.22204415524
 21
-184.969171687587
 31
0.0
  0
LINE
  5
    56
  8
0
  6
CONTINUOUS
 62
     7
 10
-674.22204415524
 20
-184.969171687587
 30
0.0
 11
-676.682705215437
 21
-186.68531478967
 31
0.0
  0
ENDBLK
  5
    57
  8
0
  6
CONTINUOUS
 62
     7
  0
BLOCK
  5
    58
  8
0
  6
CONTINUOUS
 62
     7
  2
*UDIM366
 70
    65
 10
0.0
 20
0.0
 30
0.0
  3
*UDIM366
  0
TEXT
  5
    59
  8
0
  6
CONTINUOUS
 62
     7
 10
-689.20033074484
 20
-170.776608325143
 30
0.0
 40
3.00000002980232
  1
112
 50
449.999999844103
 41
0.933333333333333
 72
     1
 11
-690.700330749154
 21
-166.876608282328
 31
0.0
 73
     2
  0
LINE
  5
    5A
  8
0
  6
CONTINUOUS
 62
     7
 10
-678.602172851563
 20
-152.601608276367
 30
0.0
 11
-690.200330734253
 21
-152.601608276367
 31
0.0
  0
LINE
  5
    5B
  8
0
  6
CONTINUOUS
 62
     7
 10
-678.602172851563
 20
-180.601608276367
 30
0.0
 11
-690.200330734253
 21
-180.601608276367
 31
0.0
  0
LINE
  5
    5C
  8
0
  6
CONTINUOUS
 62
     7
 10
-688.200330734253
 20
-152.601608276367
 30
0.0
 11
-688.200330734253
 21
-180.601608276367
 31
0.0
  0
LINE
  5
    5D
  8
0
  6
CONTINUOUS
 62
     7
 10
-687.679386304301
 20
-155.556031553574
 30
0.0
 11
-688.200330734253
 21
-152.601608276367
 31
0.0
  0
LINE
  5
    5E
  8
0
  6
CONTINUOUS
 62
     7
 10
-688.200330734253
 20
-152.601608276367
 30
0.0
 11
-688.721275164205
 21
-155.556031553574
 31
0.0
  0
LINE
  5
    5F
  8
0
  6
CONTINUOUS
 62
     7
 10
-688.721275164205
 20
-177.64718499916
 30
0.0
 11
-688.200330734253
 21
-180.601608276367
 31
0.0
  0
LINE
  5
    60
  8
0
  6
CONTINUOUS
 62
     7
 10
-688.200330734253
 20
-180.601608276367
 30
0.0
 11
-687.679386304301
 21
-177.64718499916
 31
0.0
  0
ENDBLK
  5
    61
  8
0
  6
CONTINUOUS
 62
     7
  0
BLOCK
  5
    62
  8
0
  6
CONTINUOUS
 62
     7
  2
*UDIM367
 70
    65
 10
0.0
 20
0.0
 30
0.0
  3
*UDIM367
  0
TEXT
  5
    63
  8
0
  6
CONTINUOUS
 62
     7
 10
-698.213787089445
 20
-170.776608325143
 30
0.0
 40
3.00000002980232
  1
142
 50
449.999999844103
 41
0.933333333333333
 72
     1
 11
-699.713787093759
 21
-166.876608282328
 31
0.0
 73
     2
  0
LINE
  5
    64
  8
0
  6
CONTINUOUS
 62
     7
 10
-676.227172851563
 20
-148.851608276367
 30
0.0
 11
-699.213787078858
 21
-148.851608276367
 31
0.0
  0
LINE
  5
    65
  8
0
  6
CONTINUOUS
 62
     7
 10
-676.227172851563
 20
-184.351608276367
 30
0.0
 11
-699.213787078858
 21
-184.351608276367
 31
0.0
  0
LINE
  5
    66
  8
0
  6
CONTINUOUS
 62
     7
 10
-697.213787078858
 20
-148.851608276367
 30
0.0
 11
-697.213787078858
 21
-184.351608276367
 31
0.0
  0
LINE
  5
    67
  8
0
  6
CONTINUOUS
 62
     7
 10
-696.692842648906
 20
-151.806031553574
 30
0.0
 11
-697.213787078858
 21
-148.851608276367
 31
0.0
  0
LINE
  5
    68
  8
0
  6
CONTINUOUS
 62
     7
 10
-697.213787078858
 20
-148.851608276367
 30
0.0
 11
-697.734731508809
 21
-151.806031553574
 31
0.0
  0
LINE
  5
    69
  8
0
  6
CONTINUOUS
 62
     7
 10
-697.734731508809
 20
-181.39718499916
 30
0.0
 11
-697.213787078858
 21
-184.351608276367
 31
0.0
  0
LINE
  5
    6A
  8
0
  6
CONTINUOUS
 62
     7
 10
-697.213787078858
 20
-184.351608276367
 30
0.0
 11
-696.692842648906
 21
-181.39718499916
 31
0.0
  0
ENDBLK
  5
    6B
  8
0
  6
CONTINUOUS
 62
     7
  0
BLOCK
  5
    6C
  8
0
  6
CONTINUOUS
 62
     7
  2
*HATCH137
 70
    65
 10
0.0
 20
0.0
 30
0.0
  3
*HATCH137
  0
LINE
  5
    6D
  8
0
  6
CONTINUOUS
 62
   210
 10
-3.69108244776726E-2
 20
165.5
 30
0.0
 11
2.9523138999939
 21
162.510772705078
 31
0.0
  0
LINE
  5
    6E
  8
0
  6
CONTINUOUS
 62
   210
 10
4.20579242706299
 20
165.499938964844
 30
0.0
 11
7.1949520111084
 21
162.510772705078
 31
0.0
  0
LINE
  5
    6F
  8
0
  6
CONTINUOUS
 62
   210
 10
7.26335382461548
 20
166.685012817383
 30
0.0
 11
11.1375408172607
 21
162.810821533203
 31
0.0
  0
LINE
  5
    70
  8
0
  6
CONTINUOUS
 62
   210
 10
8.19100952148438
 20
170.0
 30
0.0
 11
10.5168390274048
 21
167.674163818359
 31
0.0
  0
ENDBLK
  5
    71
  8
0
  6
CONTINUOUS
 62
     7
  0
BLOCK
  5
    72
  8
0
  6
CONTINUOUS
 62
     7
  2
*HATCH138
 70
    65
 10
0.0
 20
0.0
 30
0.0
  3
*HATCH138
  0
LINE
  5
    73
  8
0
  6
CONTINUOUS
 62
   210
 10
22.282886505127
 20
175.0
 30
0.0
 11
24.739839553833
 21
172.543045043945
 31
0.0
  0
LINE
  5
    74
  8
0
  6
CONTINUOUS
 62
   210
 10
24.4042053222656
 20
175.0
 30
0.0
 11
29.4041996002197
 21
170.0
 31
0.0
  0
LINE
  5
    75
  8
0
  6
CONTINUOUS
 62
   210
 10
28.646842956543
 20
175.0
 30
0.0
 11
33.6468391418457
 21
170.0
 31
0.0
  0
LINE
  5
    76
  8
0
  6
CONTINUOUS
 62
   210
 10
32.8894805908203
 20
175.0
 30
0.0
 11
37.889476776123
 21
170.0
 31
0.0
  0
LINE
  5
    77
  8
0
  6
CONTINUOUS
 62
   210
 10
37.1321182250977
 20
175.0
 30
0.0
 11
42.1321144104004
 21
170.0
 31
0.0
  0
LINE
  5
    78
  8
0
  6
CONTINUOUS
 62
   210
 10
41.374755859375
 20
175.0
 30
0.0
 11
46.3747520446777
 21
170.0
 31
0.0
  0
LINE
  5
    79
  8
0
  6
CONTINUOUS
 62
   210
 10
45.6173934936523
 20
175.0
 30
0.0
 11
50.6173896789551
 21
170.0
 31
0.0
  0
LINE
  5
    7A
  8
0
  6
CONTINUOUS
 62
   210
 10
49.8600311279297
 20
175.0
 30
0.0
 11
54.8600273132324
 21
170.0
 31
0.0
  0
LINE
  5
    7B
  8
0
  6
CONTINUOUS
 62
   210
 10
54.1026725769043
 20
175.0
 30
0.0
 11
55.6382675170898
 21
173.464401245117
 31
0.0
  0
ENDBLK
  5
    7C
  8
0
  6
CONTINUOUS
 62
     7
  0
BLOCK
  5
    7D
  8
0
  6
CONTINUOUS
 62
     2
  2
*HATCH139
 70
    65
 10
0.0
 20
0.0
 30
0.0
  3
*HATCH139
  0
LINE
  5
    7E
  8
0
  6
CONTINUOUS
 62
   210
 10
14.4451389312744
 20
199.0
 30
0.0
 11
11.5500001907349
 21
196.104858398438
 31
0.0
  0
LINE
  5
    7F
  8
0
  6
CONTINUOUS
 62
   210
 10
18.687780380249
 20
199.0
 30
0.0
 11
11.5500001907349
 21
191.862213134766
 31
0.0
  0
LINE
  5
    80
  8
0
  6
CONTINUOUS
 62
   210
 10
20.5499858856201
 20
196.619567871094
 30
0.0
 11
13.930419921875
 21
190.0
 31
0.0
  0
LINE
  5
    81
  8
0
  6
CONTINUOUS
 62
   210
 10
20.5499858856201
 20
192.376922607422
 30
0.0
 11
18.1730613708496
 21
190.0
 31
0.0
  0
ENDBLK
  5
    82
  8
0
  6
CONTINUOUS
 62
     2
  0
BLOCK
  5
    83
  8
0
  6
CONTINUOUS
 62
     2
  2
*HATCH140
 70
    65
 10
0.0
 20
0.0
 30
0.0
  3
*HATCH140
  0
LINE
  5
    84
  8
0
  6
CONTINUOUS
 62
   210
 10
14.2943811416626
 20
184.0
 30
0.0
 11
11.5500001907349
 21
181.255615234375
 31
0.0
  0
LINE
  5
    85
  8
0
  6
CONTINUOUS
 62
   210
 10
18.5370235443115
 20
184.0
 30
0.0
 11
11.5500001907349
 21
177.012969970703
 31
0.0
  0
LINE
  5
    86
  8
0
  6
CONTINUOUS
 62
   210
 10
20.5499877929687
 20
181.770324707031
 30
0.0
 11
11.5500001907349
 21
172.77033996582
 31
0.0
  0
LINE
  5
    87
  8
0
  6
CONTINUOUS
 62
   210
 10
20.549991607666
 20
177.527679443359
 30
0.0
 11
11.5500001907349
 21
168.527694702148
 31
0.0
  0
LINE
  5
    88
  8
0
  6
CONTINUOUS
 62
   210
 10
20.5499935150146
 20
173.285049438477
 30
0.0
 11
11.3327283859253
 21
164.067779541016
 31
0.0
  0
LINE
  5
    89
  8
0
  6
CONTINUOUS
 62
   210
 10
20.5499973297119
 20
169.042404174805
 30
0.0
 11
14.1683549880981
 21
162.660766601563
 31
0.0
  0
LINE
  5
    8A
  8
0
  6
CONTINUOUS
 62
   210
 10
20.5500011444092
 20
164.799758911133
 30
0.0
 11
18.4109954833984
 21
162.660766601563
 31
0.0
  0
ENDBLK
  5
    8B
  8
0
  6
CONTINUOUS
 62
     2
  0
BLOCK
  5
    8C
  8
0
  6
CONTINUOUS
 62
     2
  2
*HATCH141
 70
    65
 10
0.0
 20
0.0
 30
0.0
  3
*HATCH141
  0
LINE
  5
    8D
  8
0
  6
CONTINUOUS
 62
     3
 10
2.22191214561462
 20
191.171905517578
 30
0.0
 11
3.39382290840149
 21
190.0
 31
0.0
  0
LINE
  5
    8E
  8
0
  6
CONTINUOUS
 62
     3
 10
4.01514434814453
 20
191.5
 30
0.0
 11
5.51514148712158
 21
190.0
 31
0.0
  0
LINE
  5
    8F
  8
0
  6
CONTINUOUS
 62
     3
 10
6.1364631652832
 20
191.5
 30
0.0
 11
7.63646030426025
 21
190.0
 31
0.0
  0
LINE
  5
    90
  8
0
  6
CONTINUOUS
 62
     3
 10
8.25778198242188
 20
191.5
 30
0.0
 11
9.75777912139893
 21
190.0
 31
0.0
  0
LINE
  5
    91
  8
0
  6
CONTINUOUS
 62
     3
 10
10.3791007995605
 20
191.5
 30
0.0
 11
11.8790979385376
 21
190.0
 31
0.0
  0
ENDBLK
  5
    92
  8
0
  6
CONTINUOUS
 62
     2
  0
BLOCK
  5
    93
  8
0
  6
CONTINUOUS
 62
     2
  2
*HATCH142
 70
    65
 10
0.0
 20
0.0
 30
0.0
  3
*HATCH142
  0
LINE
  5
    94
  8
0
  6
CONTINUOUS
 62
     3
 10
3.02985763549805
 20
184.0
 30
0.0
 11
4.52985525131226
 21
182.5
 31
0.0
  0
LINE
  5
    95
  8
0
  6
CONTINUOUS
 62
     3
 10
5.15117645263672
 20
184.0
 30
0.0
 11
6.65117406845093
 21
182.5
 31
0.0
  0
LINE
  5
    96
  8
0
  6
CONTINUOUS
 62
     3
 10
7.27249526977539
 20
184.0
 30
0.0
 11
8.77249240875244
 21
182.5
 31
0.0
  0
LINE
  5
    97
  8
0
  6
CONTINUOUS
 62
     3
 10
9.39381408691406
 20
184.0
 30
0.0
 11
10.8938112258911
 21
182.5
 31
0.0
  0
LINE
  5
    98
  8
0
  6
CONTINUOUS
 62
     3
 10
11.5151309967041
 20
184.0
 30
0.0
 11
12.0500001907349
 21
183.465133666992
 31
0.0
  0
ENDBLK
  5
    99
  8
0
  6
CONTINUOUS
 62
     2
  0
BLOCK
  5
    9A
  8
0
  6
CONTINUOUS
 62
     2
  2
*HATCH143
 70
    65
 10
0.0
 20
0.0
 30
0.0
  3
*HATCH143
  0
LINE
  5
    9B
  8
0
  6
CONTINUOUS
 62
     3
 10
2.15654945373535
 20
200.5
 30
0.0
 11
4.99976091086864E-2
 21
198.393447875977
 31
0.0
  0
LINE
  5
    9C
  8
0
  6
CONTINUOUS
 62
     3
 10
4.27786588668823
 20
200.499984741211
 30
0.0
 11
2.27785897254944
 21
198.499984741211
 31
0.0
  0
LINE
  5
    9D
  8
0
  6
CONTINUOUS
 62
     3
 10
5.33852386474609
 20
200.499984741211
 30
0.0
 11
3.33851957321167
 21
198.499984741211
 31
0.0
  0
LINE
  5
    9E
  8
0
  6
CONTINUOUS
 62
     3
 10
6.39918231964111
 20
200.499984741211
 30
0.0
 11
4.39917993545532
 21
198.499984741211
 31
0.0
  0
LINE
  5
    9F
  8
0
  6
CONTINUOUS
 62
     3
 10
7.45984077453613
 20
200.499984741211
 30
0.0
 11
5.45984029769897
 21
198.499984741211
 31
0.0
  0
LINE
  5
    A0
  8
0
  6
CONTINUOUS
 62
     3
 10
8.52049922943115
 20
200.499984741211
 30
0.0
 11
6.52050065994263
 21
198.499984741211
 31
0.0
  0
LINE
  5
    A1
  8
0
  6
CONTINUOUS
 62
     3
 10
9.58115673065186
 20
200.499984741211
 30
0.0
 11
7.58116149902344
 21
198.499984741211
 31
0.0
  0
LINE
  5
    A2
  8
0
  6
CONTINUOUS
 62
     3
 10
10.6418151855469
 20
200.499984741211
 30
0.0
 11
8.64182186126709
 21
198.499984741211
 31
0.0
  0
LINE
  5
    A3
  8
0
  6
CONTINUOUS
 62
     3
 10
11.7024736404419
 20
200.499969482422
 30
0.0
 11
9.70248222351074
 21
198.499984741211
 31
0.0
  0
LINE
  5
    A4
  8
0
  6
CONTINUOUS
 62
     3
 10
2.04999971389771
 20
190.847503662109
 30
0.0
 11
1.70249402523041
 21
190.5
 31
0.0
  0
LINE
  5
    A5
  8
0
  6
CONTINUOUS
 62
     3
 10
12.7631320953369
 20
200.499969482422
 30
0.0
 11
11.7631435394287
 21
199.499984741211
 31
0.0
  0
LINE
  5
    A6
  8
0
  6
CONTINUOUS
 62
     3
 10
5.42884683609009
 20
193.16569519043
 30
0.0
 11
3.76315402984619
 21
191.5
 31
0.0
  0
LINE
  5
    A7
  8
0
  6
CONTINUOUS
 62
     3
 10
13.0499925613403
 20
199.726181030273
 30
0.0
 11
12.8238124847412
 21
199.5
 31
0.0
  0
LINE
  5
    A8
  8
0
  6
CONTINUOUS
 62
     3
 10
1.05000126361847
 20
187.726181030273
 30
0.0
 11
0.049999475479126
 21
186.726181030273
 31
0.0
  0
LINE
  5
    A9
  8
0
  6
CONTINUOUS
 62
     3
 10
1.05000138282776
 20
186.66552734375
 30
0.0
 11
4.99996468424797E-2
 21
185.66552734375
 31
0.0
  0
LINE
  5
    AA
  8
0
  6
CONTINUOUS
 62
     3
 10
1.05000150203705
 20
185.604873657227
 30
0.0
 11
4.99998182058334E-2
 21
184.604873657227
 31
0.0
  0
LINE
  5
    AB
  8
0
  6
CONTINUOUS
 62
     3
 10
1.05000162124634
 20
184.544219970703
 30
0.0
 11
4.99999895691872E-2
 21
183.544219970703
 31
0.0
  0
LINE
  5
    AC
  8
0
  6
CONTINUOUS
 62
     3
 10
1.06645560264587
 20
183.5
 30
0.0
 11
5.00001572072506E-2
 21
182.483535766602
 31
0.0
  0
LINE
  5
    AD
  8
0
  6
CONTINUOUS
 62
     3
 10
2.04999995231628
 20
183.422882080078
 30
0.0
 11
0.050000324845314
 21
181.422882080078
 31
0.0
  0
LINE
  5
    AE
  8
0
  6
CONTINUOUS
 62
     3
 10
2.36888837814331
 20
182.681106567383
 30
0.0
 11
5.00004962086678E-2
 21
180.362228393555
 31
0.0
  0
LINE
  5
    AF
  8
0
  6
CONTINUOUS
 62
     3
 10
4.30909824371338
 20
182.5
 30
0.0
 11
2.63195157051086
 21
180.822860717773
 31
0.0
  0
LINE
  5
    B0
  8
0
  6
CONTINUOUS
 62
     3
 10
5.36975908279419
 20
182.5
 30
0.0
 11
3.68893575668335
 21
180.819183349609
 31
0.0
  0
LINE
  5
    B1
  8
0
  6
CONTINUOUS
 62
     3
 10
6.430419921875
 20
182.5
 30
0.0
 11
4.74591970443726
 21
180.815505981445
 31
0.0
  0
LINE
  5
    B2
  8
0
  6
CONTINUOUS
 62
     3
 10
7.49108123779297
 20
182.5
 30
0.0
 11
5.80290365219116
 21
180.811828613281
 31
0.0
  0
LINE
  5
    B3
  8
0
  6
CONTINUOUS
 62
     3
 10
8.55174255371094
 20
182.5
 30
0.0
 11
6.85988759994507
 21
180.808151245117
 31
0.0
  0
LINE
  5
    B4
  8
0
  6
CONTINUOUS
 62
     3
 10
9.61240386962891
 20
182.5
 30
0.0
 11
7.91687154769897
 21
180.804473876953
 31
0.0
  0
LINE
  5
    B5
  8
0
  6
CONTINUOUS
 62
     3
 10
10.6730651855469
 20
182.5
 30
0.0
 11
8.97385597229004
 21
180.800796508789
 31
0.0
  0
LINE
  5
    B6
  8
0
  6
CONTINUOUS
 62
     3
 10
11.5500001907349
 20
182.316284179688
 30
0.0
 11
10.0308399200439
 21
180.797119140625
 31
0.0
  0
LINE
  5
    B7
  8
0
  6
CONTINUOUS
 62
     3
 10
11.5500001907349
 20
181.255630493164
 30
0.0
 11
11.0878238677979
 21
180.793441772461
 31
0.0
  0
LINE
  5
    B8
  8
0
  6
CONTINUOUS
 62
     3
 10
10.8550405502319
 20
179.5
 30
0.0
 11
8.85503959655762
 21
177.5
 31
0.0
  0
LINE
  5
    B9
  8
0
  6
CONTINUOUS
 62
     3
 10
11.5500001907349
 20
178.073638916016
 30
0.0
 11
10.9763612747192
 21
177.5
 31
0.0
  0
ENDBLK
  5
    BA
  8
0
  6
CONTINUOUS
 62
     2
  0
BLOCK
  5
    BB
  8
0
  6
CONTINUOUS
 62
     7
  2
*HATCH144
 70
    65
 10
0.0
 20
0.0
 30
0.0
  3
*HATCH144
  0
LINE
  5
    BC
  8
0
  6
CONTINUOUS
 62
     3
 10
2.19918513298035
 20
-56.9999961853027
 30
0.0
 11
3.69918298721313
 21
-58.4999961853027
 31
0.0
  0
LINE
  5
    BD
  8
0
  6
CONTINUOUS
 62
     3
 10
4.32050514221191
 20
-56.9999961853027
 30
0.0
 11
5.82050275802612
 21
-58.4999961853027
 31
0.0
  0
LINE
  5
    BE
  8
0
  6
CONTINUOUS
 62
     3
 10
6.4418249130249
 20
-56.9999961853027
 30
0.0
 11
7.94182252883911
 21
-58.4999961853027
 31
0.0
  0
LINE
  5
    BF
  8
0
  6
CONTINUOUS
 62
     3
 10
8.56314468383789
 20
-56.9999961853027
 30
0.0
 11
10.0631427764893
 21
-58.4999961853027
 31
0.0
  0
LINE
  5
    C0
  8
0
  6
CONTINUOUS
 62
     3
 10
10.6844635009766
 20
-57.0
 30
0.0
 11
11.8672294616699
 21
-58.1827659606934
 31
0.0
  0
ENDBLK
  5
    C1
  8
0
  6
CONTINUOUS
 62
     7
  0
BLOCK
  5
    C2
  8
0
  6
CONTINUOUS
 62
     7
  2
*HATCH145
 70
    65
 10
0.0
 20
0.0
 30
0.0
  3
*HATCH145
  0
LINE
  5
    C3
  8
0
  6
CONTINUOUS
 62
     3
 10
2.33690619468689
 20
-49.7130928039551
 30
0.0
 11
3.62381052970886
 21
-51.0
 31
0.0
  0
LINE
  5
    C4
  8
0
  6
CONTINUOUS
 62
     3
 10
4.24513149261475
 20
-49.5
 30
0.0
 11
5.74513006210327
 21
-51.0
 31
0.0
  0
LINE
  5
    C5
  8
0
  6
CONTINUOUS
 62
     3
 10
6.36645030975342
 20
-49.5
 30
0.0
 11
7.86644983291626
 21
-51.0
 31
0.0
  0
LINE
  5
    C6
  8
0
  6
CONTINUOUS
 62
     3
 10
8.48776912689209
 20
-49.5
 30
0.0
 11
9.98777008056641
 21
-51.0
 31
0.0
  0
LINE
  5
    C7
  8
0
  6
CONTINUOUS
 62
     3
 10
10.6090898513794
 20
-49.5
 30
0.0
 11
12.0500011444092
 21
-50.9409141540527
 31
0.0
  0
ENDBLK
  5
    C8
  8
0
  6
CONTINUOUS
 62
     7
  0
BLOCK
  5
    C9
  8
0
  6
CONTINUOUS
 62
     7
  2
*HATCH146
 70
    65
 10
0.0
 20
0.0
 30
0.0
  3
*HATCH146
  0
LINE
  5
    CA
  8
0
  6
CONTINUOUS
 62
     3
 10
2.33690619468689
 20
-49.7130928039551
 30
0.0
 11
3.62381052970886
 21
-51.0
 31
0.0
  0
LINE
  5
    CB
  8
0
  6
CONTINUOUS
 62
     3
 10
4.24513149261475
 20
-49.5
 30
0.0
 11
5.74513006210327
 21
-51.0
 31
0.0
  0
LINE
  5
    CC
  8
0
  6
CONTINUOUS
 62
     3
 10
6.36645030975342
 20
-49.5
 30
0.0
 11
7.86644983291626
 21
-51.0
 31
0.0
  0
LINE
  5
    CD
  8
0
  6
CONTINUOUS
 62
     3
 10
8.48776912689209
 20
-49.5
 30
0.0
 11
9.98777008056641
 21
-51.0
 31
0.0
  0
LINE
  5
    CE
  8
0
  6
CONTINUOUS
 62
     3
 10
10.6090898513794
 20
-49.5
 30
0.0
 11
12.0500011444092
 21
-50.9409141540527
 31
0.0
  0
ENDBLK
  5
    CF
  8
0
  6
CONTINUOUS
 62
     7
  0
BLOCK
  5
    D0
  8
0
  6
CONTINUOUS
 62
     7
  2
*HATCH147
 70
    65
 10
0.0
 20
0.0
 30
0.0
  3
*HATCH147
  0
LINE
  5
    D1
  8
0
  6
CONTINUOUS
 62
     3
 10
2.16904735565186
 20
-44.5
 30
0.0
 11
0.050000611692667
 21
-46.6190452575684
 31
0.0
  0
LINE
  5
    D2
  8
0
  6
CONTINUOUS
 62
     3
 10
4.290367603302
 20
-44.5
 30
0.0
 11
2.29036784172058
 21
-46.5
 31
0.0
  0
LINE
  5
    D3
  8
0
  6
CONTINUOUS
 62
     3
 10
5.3510274887085
 20
-44.5
 30
0.0
 11
3.35102772712708
 21
-46.5
 31
0.0
  0
LINE
  5
    D4
  8
0
  6
CONTINUOUS
 62
     3
 10
6.41168737411499
 20
-44.5
 30
0.0
 11
4.41168785095215
 21
-46.5
 31
0.0
  0
LINE
  5
    D5
  8
0
  6
CONTINUOUS
 62
     3
 10
7.47234725952148
 20
-44.5
 30
0.0
 11
5.47234773635864
 21
-46.5
 31
0.0
  0
LINE
  5
    D6
  8
0
  6
CONTINUOUS
 62
     3
 10
1.05000174045563
 20
-50.9223442077637
 30
0.0
 11
4.99997660517693E-2
 21
-51.9223480224609
 31
0.0
  0
LINE
  5
    D7
  8
0
  6
CONTINUOUS
 62
     3
 10
5.21915149688721
 20
-47.8138542175293
 30
0.0
 11
3.53300762176514
 21
-49.5
 31
0.0
  0
LINE
  5
    D8
  8
0
  6
CONTINUOUS
 62
     3
 10
9.59366607666016
 20
-44.5
 30
0.0
 11
7.59366750717163
 21
-46.5
 31
0.0
  0
LINE
  5
    D9
  8
0
  6
CONTINUOUS
 62
     3
 10
1.05000150203705
 20
-53.0436668395996
 30
0.0
 11
4.99994233250618E-2
 21
-54.0436668395996
 31
0.0
  0
LINE
  5
    DA
  8
0
  6
CONTINUOUS
 62
     3
 10
7.34787559509277
 20
-47.806453704834
 30
0.0
 11
5.65432643890381
 21
-49.5
 31
0.0
  0
LINE
  5
    DB
  8
0
  6
CONTINUOUS
 62
     3
 10
11.5500001907349
 20
-44.6649894714356
 30
0.0
 11
9.71498680114746
 21
-46.5
 31
0.0
  0
LINE
  5
    DC
  8
0
  6
CONTINUOUS
 62
     3
 10
1.05000126361847
 20
-55.1649856567383
 30
0.0
 11
4.99990843236446E-2
 21
-56.1649894714355
 31
0.0
  0
LINE
  5
    DD
  8
0
  6
CONTINUOUS
 62
     3
 10
9.47660064697266
 20
-47.7990493774414
 30
0.0
 11
7.77564525604248
 21
-49.5
 31
0.0
  0
LINE
  5
    DE
  8
0
  6
CONTINUOUS
 62
     3
 10
10.5409622192383
 20
-47.7953453063965
 30
0.0
 11
8.83630466461182
 21
-49.5000038146973
 31
0.0
  0
LINE
  5
    DF
  8
0
  6
CONTINUOUS
 62
     3
 10
11.5500011444092
 20
-47.8469657897949
 30
0.0
 11
9.89696407318115
 21
-49.5000038146973
 31
0.0
  0
LINE
  5
    E0
  8
0
  6
CONTINUOUS
 62
     3
 10
11.5500001907349
 20
-48.9076271057129
 30
0.0
 11
10.9576234817505
 21
-49.5000038146973
 31
0.0
  0
LINE
  5
    E1
  8
0
  6
CONTINUOUS
 62
     3
 10
3.01829099655151
 20
-58.4999961853027
 30
0.0
 11
4.99982349574566E-2
 21
-61.4682884216309
 31
0.0
  0
LINE
  5
    E2
  8
0
  6
CONTINUOUS
 62
     3
 10
2.05000019073486
 20
-60.5289459228516
 30
0.0
 11
4.99980673193932E-2
 21
-62.5289497375488
 31
0.0
  0
LINE
  5
    E3
  8
0
  6
CONTINUOUS
 62
     3
 10
2.05000042915344
 20
-61.5896072387695
 30
0.0
 11
4.99978959560394E-2
 21
-63.5896110534668
 31
0.0
  0
LINE
  5
    E4
  8
0
  6
CONTINUOUS
 62
     3
 10
2.05000066757202
 20
-62.6502685546875
 30
0.0
 11
4.99977245926857E-2
 21
-64.6502685546875
 31
0.0
  0
LINE
  5
    E5
  8
0
  6
CONTINUOUS
 62
     3
 10
2.0500009059906
 20
-63.7109298706055
 30
0.0
 11
0.049997553229332
 21
-65.7109298706055
 31
0.0
  0
LINE
  5
    E6
  8
0
  6
CONTINUOUS
 62
     3
 10
2.05000114440918
 20
-64.7715911865234
 30
0.0
 11
4.99973818659782E-2
 21
-66.7715911865234
 31
0.0
  0
LINE
  5
    E7
  8
0
  6
CONTINUOUS
 62
     3
 10
2.38226532936096
 20
-65.4999847412109
 30
0.0
 11
0.382251262664795
 21
-67.5
 31
0.0
  0
LINE
  5
    E8
  8
0
  6
CONTINUOUS
 62
     3
 10
3.44292521476746
 20
-65.4999847412109
 30
0.0
 11
1.44291341304779
 21
-67.5
 31
0.0
  0
LINE
  5
    E9
  8
0
  6
CONTINUOUS
 62
     3
 10
4.50358486175537
 20
-65.4999847412109
 30
0.0
 11
2.50357556343079
 21
-67.5
 31
0.0
  0
LINE
  5
    EA
  8
0
  6
CONTINUOUS
 62
     3
 10
5.56424522399902
 20
-65.4999847412109
 30
0.0
 11
3.56423783302307
 21
-67.4999923706055
 31
0.0
  0
LINE
  5
    EB
  8
0
  6
CONTINUOUS
 62
     3
 10
7.68556499481201
 20
-65.4999847412109
 30
0.0
 11
5.68556213378906
 21
-67.4999923706055
 31
0.0
  0
LINE
  5
    EC
  8
0
  6
CONTINUOUS
 62
     3
 10
9.806884765625
 20
-65.4999847412109
 30
0.0
 11
7.80688667297363
 21
-67.4999923706055
 31
0.0
  0
LINE
  5
    ED
  8
0
  6
CONTINUOUS
 62
     3
 10
11.5499963760376
 20
-65.8781967163086
 30
0.0
 11
9.9282112121582
 21
-67.4999771118164
 31
0.0
  0
LINE
  5
    EE
  8
0
  6
CONTINUOUS
 62
     3
 10
13.0495147705078
 20
-66.4999923706055
 30
0.0
 11
12.0495357513428
 21
-67.4999771118164
 31
0.0
  0
ENDBLK
  5
    EF
  8
0
  6
CONTINUOUS
 62
     7
  0
BLOCK
  5
    F0
  8
0
  6
CONTINUOUS
 62
     7
  2
*HATCH148
 70
    65
 10
0.0
 20
0.0
 30
0.0
  3
*HATCH148
  0
LINE
  5
    F1
  8
0
  6
CONTINUOUS
 62
   210
 10
15.2756481170654
 20
-42.0
 30
0.0
 11
11.4999847412109
 21
-45.7756614685059
 31
0.0
  0
LINE
  5
    F2
  8
0
  6
CONTINUOUS
 62
   210
 10
17.4999847412109
 20
-44.0183029174805
 30
0.0
 11
11.7841444015503
 21
-49.7341461181641
 31
0.0
  0
LINE
  5
    F3
  8
0
  6
CONTINUOUS
 62
   210
 10
17.4999847412109
 20
-48.2609443664551
 30
0.0
 11
15.0109281539917
 21
-50.75
 31
0.0
  0
ENDBLK
  5
    F4
  8
0
  6
CONTINUOUS
 62
     7
  0
BLOCK
  5
    F5
  8
0
  6
CONTINUOUS
 62
     7
  2
*HATCH149
 70
    65
 10
0.0
 20
0.0
 30
0.0
  3
*HATCH149
  0
LINE
  5
    F6
  8
0
  6
CONTINUOUS
 62
   210
 10
14.8748893737793
 20
-57.25
 30
0.0
 11
11.5360698699951
 21
-60.5888214111328
 31
0.0
  0
LINE
  5
    F7
  8
0
  6
CONTINUOUS
 62
   210
 10
17.4999847412109
 20
-58.867546081543
 30
0.0
 11
11.5075874328613
 21
-64.8599395751953
 31
0.0
  0
LINE
  5
    F8
  8
0
  6
CONTINUOUS
 62
   210
 10
17.4999847412109
 20
-63.1101837158203
 30
0.0
 11
14.6101713180542
 21
-66.0
 31
0.0
  0
ENDBLK
  5
    F9
  8
0
  6
CONTINUOUS
 62
     7
  0
BLOCK
  5
    FA
  8
0
  6
CONTINUOUS
 62
     7
  2
*HATCH150
 70
    65
 10
0.0
 20
0.0
 30
0.0
  3
*HATCH150
  0
LINE
  5
    FB
  8
0
  6
CONTINUOUS
 62
   210
 10
17.4999847412109
 20
-47.1985092163086
 30
0.0
 11
20.4999847412109
 21
-50.1985130310059
 31
0.0
  0
LINE
  5
    FC
  8
0
  6
CONTINUOUS
 62
   210
 10
17.4999847412109
 20
-42.9558639526367
 30
0.0
 11
20.4999847412109
 21
-45.955867767334
 31
0.0
  0
ENDBLK
  5
    FD
  8
0
  6
CONTINUOUS
 62
     7
  0
BLOCK
  5
    FE
  8
0
  6
CONTINUOUS
 62
     7
  2
*HATCH151
 70
    65
 10
0.0
 20
0.0
 30
0.0
  3
*HATCH151
  0
LINE
  5
    FF
  8
0
  6
CONTINUOUS
 62
   210
 10
17.4999847412109
 20
-62.0477600097656
 30
0.0
 11
20.4999847412109
 21
-65.0477676391602
 31
0.0
  0
LINE
  5
   100
  8
0
  6
CONTINUOUS
 62
   210
 10
17.4999847412109
 20
-57.8051147460938
 30
0.0
 11
20.4999847412109
 21
-60.8051223754883
 31
0.0
  0
ENDBLK
  5
   101
  8
0
  6
CONTINUOUS
 62
     7
  0
BLOCK
  5
   102
  8
0
  6
CONTINUOUS
 62
     7
  2
*HATCH152
 70
    65
 10
0.0
 20
0.0
 30
0.0
  3
*HATCH152
  0
LINE
  5
   103
  8
0
  6
CONTINUOUS
 62
    52
 10
105.836601257324
 20
228.873168945313
 30
0.0
 11
104.499938964844
 21
227.536499023438
 31
0.0
  0
LINE
  5
   104
  8
0
  6
CONTINUOUS
 62
    52
 10
106.499938964844
 20
225.293869018555
 30
0.0
 11
104.499938964844
 21
223.293869018555
 31
0.0
  0
LINE
  5
   105
  8
0
  6
CONTINUOUS
 62
    52
 10
106.499938964844
 20
221.051223754883
 30
0.0
 11
104.499938964844
 21
219.051223754883
 31
0.0
  0
LINE
  5
   106
  8
0
  6
CONTINUOUS
 62
    52
 10
106.499938964844
 20
216.808578491211
 30
0.0
 11
104.499938964844
 21
214.808578491211
 31
0.0
  0
LINE
  5
   107
  8
0
  6
CONTINUOUS
 62
    52
 10
106.499938964844
 20
212.565933227539
 30
0.0
 11
104.499938964844
 21
210.565933227539
 31
0.0
  0
LINE
  5
   108
  8
0
  6
CONTINUOUS
 62
    52
 10
106.499938964844
 20
208.323287963867
 30
0.0
 11
104.499938964844
 21
206.323287963867
 31
0.0
  0
LINE
  5
   109
  8
0
  6
CONTINUOUS
 62
    52
 10
106.499938964844
 20
204.080642700195
 30
0.0
 11
104.499938964844
 21
202.080642700195
 31
0.0
  0
LINE
  5
   10A
  8
0
  6
CONTINUOUS
 62
    52
 10
106.499938964844
 20
199.837997436523
 30
0.0
 11
104.499938964844
 21
197.837997436523
 31
0.0
  0
LINE
  5
   10B
  8
0
  6
CONTINUOUS
 62
    52
 10
106.499938964844
 20
195.595352172852
 30
0.0
 11
104.499938964844
 21
193.595352172852
 31
0.0
  0
LINE
  5
   10C
  8
0
  6
CONTINUOUS
 62
    52
 10
106.499938964844
 20
191.35270690918
 30
0.0
 11
104.499938964844
 21
189.35270690918
 31
0.0
  0
LINE
  5
   10D
  8
0
  6
CONTINUOUS
 62
    52
 10
106.499938964844
 20
187.110061645508
 30
0.0
 11
104.499938964844
 21
185.110061645508
 31
0.0
  0
LINE
  5
   10E
  8
0
  6
CONTINUOUS
 62
    52
 10
106.499938964844
 20
182.867416381836
 30
0.0
 11
104.499938964844
 21
180.867416381836
 31
0.0
  0
LINE
  5
   10F
  8
0
  6
CONTINUOUS
 62
    52
 10
106.499938964844
 20
178.624771118164
 30
0.0
 11
104.499938964844
 21
176.624771118164
 31
0.0
  0
LINE
  5
   110
  8
0
  6
CONTINUOUS
 62
    52
 10
106.499938964844
 20
174.382125854492
 30
0.0
 11
104.499938964844
 21
172.382125854492
 31
0.0
  0
LINE
  5
   111
  8
0
  6
CONTINUOUS
 62
    52
 10
106.499938964844
 20
170.13948059082
 30
0.0
 11
104.499938964844
 21
168.13948059082
 31
0.0
  0
LINE
  5
   112
  8
0
  6
CONTINUOUS
 62
    52
 10
106.499938964844
 20
165.896835327148
 30
0.0
 11
104.499938964844
 21
163.896835327148
 31
0.0
  0
LINE
  5
   113
  8
0
  6
CONTINUOUS
 62
    52
 10
106.499938964844
 20
161.654190063477
 30
0.0
 11
104.499938964844
 21
159.654190063477
 31
0.0
  0
LINE
  5
   114
  8
0
  6
CONTINUOUS
 62
    52
 10
106.499938964844
 20
157.411544799805
 30
0.0
 11
104.499938964844
 21
155.411544799805
 31
0.0
  0
LINE
  5
   115
  8
0
  6
CONTINUOUS
 62
    52
 10
106.499938964844
 20
153.168899536133
 30
0.0
 11
104.499938964844
 21
151.168899536133
 31
0.0
  0
ENDBLK
  5
   116
  8
0
  6
CONTINUOUS
 62
     7
  0
BLOCK
  5
   117
  8
0
  6
CONTINUOUS
 62
     7
  2
*HATCH153
 70
    65
 10
0.0
 20
0.0
 30
0.0
  3
*HATCH153
  0
LINE
  5
   118
  8
0
  6
CONTINUOUS
 62
    52
 10
106.499938964844
 20
142.562377929688
 30
0.0
 11
104.499938964844
 21
140.562377929688
 31
0.0
  0
LINE
  5
   119
  8
0
  6
CONTINUOUS
 62
    52
 10
106.499938964844
 20
138.319732666016
 30
0.0
 11
104.499938964844
 21
136.319732666016
 31
0.0
  0
LINE
  5
   11A
  8
0
  6
CONTINUOUS
 62
    52
 10
106.499938964844
 20
134.077087402344
 30
0.0
 11
104.499938964844
 21
132.077087402344
 31
0.0
  0
ENDBLK
  5
   11B
  8
0
  6
CONTINUOUS
 62
     7
  0
BLOCK
  5
   11C
  8
0
  6
CONTINUOUS
 62
     7
  2
*HATCH154
 70
    65
 10
0.0
 20
0.0
 30
0.0
  3
*HATCH154
  0
LINE
  5
   11D
  8
0
  6
CONTINUOUS
 62
    52
 10
106.499938964844
 20
17.4044799804688
 30
0.0
 11
104.499938964844
 21
15.4044799804688
 31
0.0
  0
LINE
  5
   11E
  8
0
  6
CONTINUOUS
 62
    52
 10
106.499938964844
 20
13.1618385314941
 30
0.0
 11
104.499938964844
 21
11.1618385314941
 31
0.0
  0
LINE
  5
   11F
  8
0
  6
CONTINUOUS
 62
    52
 10
106.499938964844
 20
8.91919898986816
 30
0.0
 11
105.330741882324
 21
7.75
 31
0.0
  0
ENDBLK
  5
   120
  8
0
  6
CONTINUOUS
 62
     7
  0
BLOCK
  5
   121
  8
0
  6
CONTINUOUS
 62
     7
  2
*HATCH155
 70
    65
 10
0.0
 20
0.0
 30
0.0
  3
*HATCH155
  0
LINE
  5
   122
  8
0
  6
CONTINUOUS
 62
    52
 10
106.499938964844
 20
0.433917760848999
 30
0.0
 11
104.499938964844
 21
-1.56608211994171
 31
0.0
  0
LINE
  5
   123
  8
0
  6
CONTINUOUS
 62
    52
 10
106.499938964844
 20
-3.80872273445129
 30
0.0
 11
104.499938964844
 21
-5.80872249603271
 31
0.0
  0
LINE
  5
   124
  8
0
  6
CONTINUOUS
 62
    52
 10
106.499938964844
 20
-8.05136299133301
 30
0.0
 11
104.499938964844
 21
-10.051362991333
 31
0.0
  0
LINE
  5
   125
  8
0
  6
CONTINUOUS
 62
    52
 10
106.499938964844
 20
-12.2940044403076
 30
0.0
 11
104.499938964844
 21
-14.2940044403076
 31
0.0
  0
LINE
  5
   126
  8
0
  6
CONTINUOUS
 62
    52
 10
106.499938964844
 20
-16.5366458892822
 30
0.0
 11
104.499938964844
 21
-18.5366458892822
 31
0.0
  0
LINE
  5
   127
  8
0
  6
CONTINUOUS
 62
    52
 10
106.499938964844
 20
-20.7792873382568
 30
0.0
 11
104.499938964844
 21
-22.7792873382568
 31
0.0
  0
LINE
  5
   128
  8
0
  6
CONTINUOUS
 62
    52
 10
106.499938964844
 20
-25.0219287872314
 30
0.0
 11
104.499938964844
 21
-27.0219287872314
 31
0.0
  0
LINE
  5
   129
  8
0
  6
CONTINUOUS
 62
    52
 10
106.499938964844
 20
-29.2645702362061
 30
0.0
 11
104.499938964844
 21
-31.2645702362061
 31
0.0
  0
LINE
  5
   12A
  8
0
  6
CONTINUOUS
 62
    52
 10
106.499938964844
 20
-33.507209777832
 30
0.0
 11
104.499938964844
 21
-35.507209777832
 31
0.0
  0
LINE
  5
   12B
  8
0
  6
CONTINUOUS
 62
    52
 10
106.499938964844
 20
-37.7498474121094
 30
0.0
 11
104.499938964844
 21
-39.7498474121094
 31
0.0
  0
LINE
  5
   12C
  8
0
  6
CONTINUOUS
 62
    52
 10
106.499938964844
 20
-41.9924850463867
 30
0.0
 11
104.499938964844
 21
-43.9924850463867
 31
0.0
  0
LINE
  5
   12D
  8
0
  6
CONTINUOUS
 62
    52
 10
106.499938964844
 20
-46.2351226806641
 30
0.0
 11
104.499938964844
 21
-48.2351226806641
 31
0.0
  0
LINE
  5
   12E
  8
0
  6
CONTINUOUS
 62
    52
 10
106.499938964844
 20
-50.4777603149414
 30
0.0
 11
104.499938964844
 21
-52.4777603149414
 31
0.0
  0
LINE
  5
   12F
  8
0
  6
CONTINUOUS
 62
    52
 10
106.499938964844
 20
-54.7203979492188
 30
0.0
 11
104.499938964844
 21
-56.7203979492188
 31
0.0
  0
LINE
  5
   130
  8
0
  6
CONTINUOUS
 62
    52
 10
106.499938964844
 20
-58.9630355834961
 30
0.0
 11
104.499938964844
 21
-60.9630355834961
 31
0.0
  0
LINE
  5
   131
  8
0
  6
CONTINUOUS
 62
    52
 10
106.499938964844
 20
-63.2056732177734
 30
0.0
 11
104.499938964844
 21
-65.2056732177734
 31
0.0
  0
LINE
  5
   132
  8
0
  6
CONTINUOUS
 62
    52
 10
106.499938964844
 20
-67.4483184814453
 30
0.0
 11
104.499938964844
 21
-69.4483184814453
 31
0.0
  0
LINE
  5
   133
  8
0
  6
CONTINUOUS
 62
    52
 10
106.499938964844
 20
-71.6909637451172
 30
0.0
 11
104.499938964844
 21
-73.6909637451172
 31
0.0
  0
LINE
  5
   134
  8
0
  6
CONTINUOUS
 62
    52
 10
106.499938964844
 20
-75.9336090087891
 30
0.0
 11
104.499938964844
 21
-77.9336090087891
 31
0.0
  0
LINE
  5
   135
  8
0
  6
CONTINUOUS
 62
    52
 10
106.499938964844
 20
-80.1762542724609
 30
0.0
 11
104.499938964844
 21
-82.1762542724609
 31
0.0
  0
LINE
  5
   136
  8
0
  6
CONTINUOUS
 62
    52
 10
106.499938964844
 20
-84.4188995361328
 30
0.0
 11
104.499938964844
 21
-86.4188995361328
 31
0.0
  0
LINE
  5
   137
  8
0
  6
CONTINUOUS
 62
    52
 10
106.499938964844
 20
-88.6615447998047
 30
0.0
 11
104.499938964844
 21
-90.6615447998047
 31
0.0
  0
LINE
  5
   138
  8
0
  6
CONTINUOUS
 62
    52
 10
106.499938964844
 20
-92.9041900634766
 30
0.0
 11
104.499938964844
 21
-94.9041900634766
 31
0.0
  0
LINE
  5
   139
  8
0
  6
CONTINUOUS
 62
    52
 10
106.499938964844
 20
-97.1468353271484
 30
0.0
 11
104.499938964844
 21
-99.1468353271484
 31
0.0
  0
LINE
  5
   13A
  8
0
  6
CONTINUOUS
 62
    52
 10
106.499938964844
 20
-101.389457702637
 30
0.0
 11
106.065864562988
 21
-101.823524475098
 31
0.0
  0
ENDBLK
  5
   13B
  8
0
  6
CONTINUOUS
 62
     7
  0
BLOCK
  5
   13C
  8
0
  6
CONTINUOUS
 62
     7
  2
*HATCH156
 70
    65
 10
0.0
 20
0.0
 30
0.0
  3
*HATCH156
  0
LINE
  5
   13D
  8
0
  6
CONTINUOUS
 62
     3
 10
-0.830074667930603
 20
-35.831859588623
 30
0.0
 11
-2.49821591377258
 21
-37.5
 31
0.0
  0
LINE
  5
   13E
  8
0
  6
CONTINUOUS
 62
     3
 10
1.29124581813812
 20
-35.831859588623
 30
0.0
 11
-0.376895427703857
 21
-37.5
 31
0.0
  0
LINE
  5
   13F
  8
0
  6
CONTINUOUS
 62
     3
 10
3.41256618499756
 20
-35.831859588623
 30
0.0
 11
1.74442505836487
 21
-37.5
 31
0.0
  0
LINE
  5
   140
  8
0
  6
CONTINUOUS
 62
     3
 10
5.53388690948486
 20
-35.831859588623
 30
0.0
 11
3.86574554443359
 21
-37.5
 31
0.0
  0
LINE
  5
   141
  8
0
  6
CONTINUOUS
 62
     3
 10
7.65520763397217
 20
-35.831859588623
 30
0.0
 11
5.9870662689209
 21
-37.5
 31
0.0
  0
LINE
  5
   142
  8
0
  6
CONTINUOUS
 62
     3
 10
9.77652835845947
 20
-35.831859588623
 30
0.0
 11
8.1083869934082
 21
-37.5
 31
0.0
  0
LINE
  5
   143
  8
0
  6
CONTINUOUS
 62
     3
 10
11.8978490829468
 20
-35.831859588623
 30
0.0
 11
10.2297077178955
 21
-37.5
 31
0.0
  0
LINE
  5
   144
  8
0
  6
CONTINUOUS
 62
     3
 10
14.0191679000854
 20
-35.831859588623
 30
0.0
 11
11.4999847412109
 21
-38.3510437011719
 31
0.0
  0
LINE
  5
   145
  8
0
  6
CONTINUOUS
 62
     3
 10
16.1404876708984
 20
-35.831859588623
 30
0.0
 11
11.4999847412109
 21
-40.4723663330078
 31
0.0
  0
LINE
  5
   146
  8
0
  6
CONTINUOUS
 62
     3
 10
18.2618083953857
 20
-35.831859588623
 30
0.0
 11
12.0936679840088
 21
-42.0
 31
0.0
  0
LINE
  5
   147
  8
0
  6
CONTINUOUS
 62
     3
 10
20.3831272125244
 20
-35.831859588623
 30
0.0
 11
14.2149887084961
 21
-42.0
 31
0.0
  0
LINE
  5
   148
  8
0
  6
CONTINUOUS
 62
     3
 10
22.5044460296631
 20
-35.831859588623
 30
0.0
 11
16.3363094329834
 21
-42.0
 31
0.0
  0
LINE
  5
   149
  8
0
  6
CONTINUOUS
 62
     3
 10
24.6257648468018
 20
-35.831859588623
 30
0.0
 11
18.4576282501221
 21
-42.0
 31
0.0
  0
LINE
  5
   14A
  8
0
  6
CONTINUOUS
 62
     3
 10
26.7470836639404
 20
-35.831859588623
 30
0.0
 11
20.5789470672607
 21
-42.0
 31
0.0
  0
LINE
  5
   14B
  8
0
  6
CONTINUOUS
 62
     3
 10
28.8684024810791
 20
-35.831859588623
 30
0.0
 11
22.7002658843994
 21
-42.0
 31
0.0
  0
LINE
  5
   14C
  8
0
  6
CONTINUOUS
 62
     3
 10
30.9897212982178
 20
-35.831859588623
 30
0.0
 11
24.8215847015381
 21
-42.0
 31
0.0
  0
LINE
  5
   14D
  8
0
  6
CONTINUOUS
 62
     3
 10
33.1110420227051
 20
-35.831859588623
 30
0.0
 11
26.9429035186768
 21
-42.0
 31
0.0
  0
LINE
  5
   14E
  8
0
  6
CONTINUOUS
 62
     3
 10
35.232364654541
 20
-35.831859588623
 30
0.0
 11
29.0642223358154
 21
-42.0
 31
0.0
  0
LINE
  5
   14F
  8
0
  6
CONTINUOUS
 62
     3
 10
36.1029396057129
 20
-37.0826148986816
 30
0.0
 11
31.1855506896973
 21
-42.0
 31
0.0
  0
LINE
  5
   150
  8
0
  6
CONTINUOUS
 62
     3
 10
36.5830268859863
 20
-38.7238502502441
 30
0.0
 11
33.3068733215332
 21
-42.0
 31
0.0
  0
LINE
  5
   151
  8
0
  6
CONTINUOUS
 62
     3
 10
37.0631141662598
 20
-40.3650856018066
 30
0.0
 11
35.4281959533691
 21
-42.0
 31
0.0
  0
ENDBLK
  5
   152
  8
0
  6
CONTINUOUS
 62
     7
  0
BLOCK
  5
   153
  8
0
  6
CONTINUOUS
 62
     7
  2
*UDIM368
 70
    65
 10
0.0
 20
0.0
 30
0.0
  3
*UDIM368
  0
TEXT
  5
   154
  8
0
  6
CONTINUOUS
 62
     7
 10
-556.848116002315
 20
57.821820023568
 30
0.0
 40
3.00000011722246
  1
23
 41
0.933333333333333
 72
     1
 11
-554.348115904629
 21
59.3218200821793
 31
0.0
 73
     2
  0
LINE
  5
   155
  8
0
  6
CONTINUOUS
 62
     7
 10
-549.161869475245
 20
44.8361353597506
 30
0.0
 11
-549.161869475245
 21
58.821820023568
 31
0.0
  0
LINE
  5
   156
  8
0
  6
CONTINUOUS
 62
     7
 10
-564.534362334013
 20
56.821820023568
 30
0.0
 11
-544.161869475245
 21
56.821820023568
 31
0.0
  0
LINE
  5
   157
  8
0
  6
CONTINUOUS
 62
     7
 10
-562.432139807224
 20
56.0453628671495
 30
0.0
 11
-559.534362334013
 21
56.821820023568
 31
0.0
  0
LINE
  5
   158
  8
0
  6
CONTINUOUS
 62
     7
 10
-559.534362334013
 20
56.821820023568
 30
0.0
 11
-562.432139807224
 21
57.5982771799866
 31
0.0
  0
LINE
  5
   159
  8
0
  6
CONTINUOUS
 62
     7
 10
-546.264092002035
 20
57.5982771799866
 30
0.0
 11
-549.161869475245
 21
56.821820023568
 31
0.0
  0
LINE
  5
   15A
  8
0
  6
CONTINUOUS
 62
     7
 10
-549.161869475245
 20
56.821820023568
 30
0.0
 11
-546.264092002035
 21
56.0453628671495
 31
0.0
  0
ENDBLK
  5
   15B
  8
0
  6
CONTINUOUS
 62
     7
  0
BLOCK
  5
   15C
  8
0
  6
CONTINUOUS
 62
     7
  2
*UDIM369
 70
    65
 10
0.0
 20
0.0
 30
0.0
  3
*UDIM369
  0
TEXT
  5
   15D
  8
0
  6
CONTINUOUS
 62
     7
 10
-541.334362980061
 20
79.0548173737336
 30
0.0
 40
3.00000011722246
  1
92
 41
0.933333333333333
 72
     1
 11
-538.834362882376
 21
80.5548174323449
 31
0.0
 73
     2
  0
LINE
  5
   15E
  8
0
  6
CONTINUOUS
 62
     7
 10
-559.534362334013
 20
78.0548173737336
 30
0.0
 11
-518.134363430739
 21
78.0548173737336
 31
0.0
  0
LINE
  5
   15F
  8
0
  6
CONTINUOUS
 62
     7
 10
-556.636584860803
 20
78.8312745301522
 30
0.0
 11
-559.534362334013
 21
78.0548173737336
 31
0.0
  0
LINE
  5
   160
  8
0
  6
CONTINUOUS
 62
     7
 10
-559.534362334013
 20
78.0548173737336
 30
0.0
 11
-556.636584860803
 21
77.2783602173151
 31
0.0
  0
LINE
  5
   161
  8
0
  6
CONTINUOUS
 62
     7
 10
-521.032140903949
 20
77.2783602173151
 30
0.0
 11
-518.134363430739
 21
78.0548173737336
 31
0.0
  0
LINE
  5
   162
  8
0
  6
CONTINUOUS
 62
     7
 10
-518.134363430739
 20
78.0548173737336
 30
0.0
 11
-521.032140903949
 21
78.8312745301522
 31
0.0
  0
ENDBLK
  5
   163
  8
0
  6
CONTINUOUS
 62
     7
  0
BLOCK
  5
   164
  8
0
  6
CONTINUOUS
 62
     7
  2
*UDIM370
 70
    65
 10
0.0
 20
0.0
 30
0.0
  3
*UDIM370
  0
TEXT
  5
   165
  8
0
  6
CONTINUOUS
 62
     7
 10
-543.396877148284
 20
92.4849782659831
 30
0.0
 40
3.00000011722246
  1
101,5
 41
0.933333333333333
 72
     1
 11
-536.696876886488
 21
93.9849783245944
 31
0.0
 73
     2
  0
LINE
  5
   166
  8
0
  6
CONTINUOUS
 62
     7
 10
-559.534362334013
 20
75.2112645995582
 30
0.0
 11
-559.534362334013
 21
93.4849782659831
 31
0.0
  0
LINE
  5
   167
  8
0
  6
CONTINUOUS
 62
     7
 10
-513.859391438962
 20
34.4861139297491
 30
0.0
 11
-513.859391438962
 21
93.4849782659831
 31
0.0
  0
LINE
  5
   168
  8
0
  6
CONTINUOUS
 62
     7
 10
-559.534362334013
 20
91.4849782659831
 30
0.0
 11
-513.859391438962
 21
91.4849782659831
 31
0.0
  0
LINE
  5
   169
  8
0
  6
CONTINUOUS
 62
     7
 10
-556.636584860803
 20
92.2614354224017
 30
0.0
 11
-559.534362334013
 21
91.4849782659831
 31
0.0
  0
LINE
  5
   16A
  8
0
  6
CONTINUOUS
 62
     7
 10
-559.534362334013
 20
91.4849782659831
 30
0.0
 11
-556.636584860803
 21
90.7085211095646
 31
0.0
  0
LINE
  5
   16B
  8
0
  6
CONTINUOUS
 62
     7
 10
-516.757168912173
 20
90.7085211095646
 30
0.0
 11
-513.859391438962
 21
91.4849782659831
 31
0.0
  0
LINE
  5
   16C
  8
0
  6
CONTINUOUS
 62
     7
 10
-513.859391438962
 20
91.4849782659831
 30
0.0
 11
-516.757168912173
 21
92.2614354224017
 31
0.0
  0
ENDBLK
  5
   16D
  8
0
  6
CONTINUOUS
 62
     7
  0
BLOCK
  5
   16E
  8
0
  6
CONTINUOUS
 62
     7
  2
*UDIM371
 70
    65
 10
0.0
 20
0.0
 30
0.0
  3
*UDIM371
  0
TEXT
  5
   16F
  8
0
  6
CONTINUOUS
 62
     7
 10
-537.559377119343
 20
2.30275318174165
 30
0.0
 40
3.00000011722246
  1
115
 41
0.933333333333333
 72
     1
 11
-533.659376966954
 21
3.80275324035289
 31
0.0
 73
     2
  0
LINE
  5
   170
  8
0
  6
CONTINUOUS
 62
     7
 10
-559.534362334013
 20
1.30275318174166
 30
0.0
 11
-507.784391599895
 21
1.30275318174166
 31
0.0
  0
LINE
  5
   171
  8
0
  6
CONTINUOUS
 62
     7
 10
-556.636584860803
 20
2.07921033816019
 30
0.0
 11
-559.534362334013
 21
1.30275318174166
 31
0.0
  0
LINE
  5
   172
  8
0
  6
CONTINUOUS
 62
     7
 10
-559.534362334013
 20
1.30275318174166
 30
0.0
 11
-556.636584860803
 21
0.526296025323113
 31
0.0
  0
LINE
  5
   173
  8
0
  6
CONTINUOUS
 62
     7
 10
-510.682169073105
 20
0.526296025323113
 30
0.0
 11
-507.784391599895
 21
1.30275318174166
 31
0.0
  0
LINE
  5
   174
  8
0
  6
CONTINUOUS
 62
     7
 10
-507.784391599895
 20
1.30275318174166
 30
0.0
 11
-510.682169073105
 21
2.07921033816019
 31
0.0
  0
ENDBLK
  5
   175
  8
0
  6
CONTINUOUS
 62
     7
  0
BLOCK
  5
   176
  8
0
  6
CONTINUOUS
 62
     7
  2
*UDIM372
 70
    65
 10
0.0
 20
0.0
 30
0.0
  3
*UDIM372
  0
TEXT
  5
   177
  8
0
  6
CONTINUOUS
 62
     7
 10
-569.486657466099
 20
-98.902066155318
 30
0.0
 40
3.00000011722246
  1
14
 41
0.933333333333333
 72
     1
 11
-566.986657368414
 21
-97.4020660967068
 31
0.0
 73
     2
  0
LINE
  5
   178
  8
0
  6
CONTINUOUS
 62
     7
 10
-559.534362334013
 20
-85.3252749684028
 30
0.0
 11
-559.534362334013
 21
-101.902066155318
 31
0.0
  0
LINE
  5
   179
  8
0
  6
CONTINUOUS
 62
     7
 10
-553.234369796514
 20
-76.6388536194028
 30
0.0
 11
-553.234369796514
 21
-101.902066155318
 31
0.0
  0
LINE
  5
   17A
  8
0
  6
CONTINUOUS
 62
     7
 10
-569.486657466099
 20
-99.902066155318
 30
0.0
 11
-553.234369796514
 21
-99.902066155318
 31
0.0
  0
LINE
  5
   17B
  8
0
  6
CONTINUOUS
 62
     7
 10
-562.432139807224
 20
-100.678523311737
 30
0.0
 11
-559.534362334013
 21
-99.902066155318
 31
0.0
  0
LINE
  5
   17C
  8
0
  6
CONTINUOUS
 62
     7
 10
-559.534362334013
 20
-99.902066155318
 30
0.0
 11
-562.432139807224
 21
-99.1256089988995
 31
0.0
  0
CIRCLE
  5
   17D
  8
0
  6
CONTINUOUS
 62
     7
 10
-553.234369796514
 20
-99.902066155318
 30
0.0
 40
0.5
  0
ENDBLK
  5
   17E
  8
0
  6
CONTINUOUS
 62
     7
  0
BLOCK
  5
   17F
  8
0
  6
CONTINUOUS
 62
     7
  2
*UDIM373
 70
    65
 10
0.0
 20
0.0
 30
0.0
  3
*UDIM373
  0
TEXT
  5
   180
  8
0
  6
CONTINUOUS
 62
     7
 10
-543.981984020601
 20
-98.902066155318
 30
0.0
 40
3.00000011722246
  1
9
 41
0.933333333333334
 72
     1
 11
-542.881983977619
 21
-97.4020660967068
 31
0.0
 73
     2
  0
LINE
  5
   181
  8
0
  6
CONTINUOUS
 62
     7
 10
-549.184369903803
 20
-76.4138625860214
 30
0.0
 11
-549.184369903803
 21
-101.902066155318
 31
0.0
  0
LINE
  5
   182
  8
0
  6
CONTINUOUS
 62
     7
 10
-553.234369796514
 20
-99.902066155318
 30
0.0
 11
-541.781983934638
 21
-99.902066155318
 31
0.0
  0
CIRCLE
  5
   183
  8
0
  6
CONTINUOUS
 62
     7
 10
-553.234369796514
 20
-99.902066155318
 30
0.0
 40
0.5
  0
LINE
  5
   184
  8
0
  6
CONTINUOUS
 62
     7
 10
-546.286592430592
 20
-99.1256089988995
 30
0.0
 11
-549.184369903803
 21
-99.902066155318
 31
0.0
  0
LINE
  5
   185
  8
0
  6
CONTINUOUS
 62
     7
 10
-549.184369903803
 20
-99.902066155318
 30
0.0
 11
-546.286592430592
 21
-100.678523311737
 31
0.0
  0
ENDBLK
  5
   186
  8
0
  6
CONTINUOUS
 62
     7
  0
BLOCK
  5
   187
  8
0
  6
CONTINUOUS
 62
     7
  2
*UDIM374
 70
    65
 10
0.0
 20
0.0
 30
0.0
  3
*UDIM374
  0
TEXT
  5
   188
  8
0
  6
CONTINUOUS
 62
     7
 10
-541.934369963407
 20
-104.877472513425
 30
0.0
 40
3.00000011722246
  1
5
 41
0.933333333333334
 72
     1
 11
-540.834369920426
 21
-103.377472454814
 31
0.0
 73
     2
  0
TEXT
  5
   189
  8
0
  6
CONTINUOUS
 62
     7
 10
-538.734369877444
 20
-105.127472491901
 30
0.0
 40
3.50000007417466
  1
 min
 41
0.933333333333333
 72
     1
 11
-532.551036413069
 21
-103.377472454814
 31
0.0
 73
     2
  0
LINE
  5
   18A
  8
0
  6
CONTINUOUS
 62
     7
 10
-549.184369903803
 20
-76.4138625860214
 30
0.0
 11
-549.184369903803
 21
-107.877472513425
 31
0.0
  0
LINE
  5
   18B
  8
0
  6
CONTINUOUS
 62
     7
 10
-546.934369963407
 20
-74.1638637443061
 30
0.0
 11
-546.934369963407
 21
-107.877472513425
 31
0.0
  0
LINE
  5
   18C
  8
0
  6
CONTINUOUS
 62
     7
 10
-554.184369903803
 20
-105.877472513425
 30
0.0
 11
-526.367702948694
 21
-105.877472513425
 31
0.0
  0
LINE
  5
   18D
  8
0
  6
CONTINUOUS
 62
     7
 10
-552.082147377013
 20
-106.653929669843
 30
0.0
 11
-549.184369903803
 21
-105.877472513425
 31
0.0
  0
LINE
  5
   18E
  8
0
  6
CONTINUOUS
 62
     7
 10
-549.184369903803
 20
-105.877472513425
 30
0.0
 11
-552.082147377013
 21
-105.101015357006
 31
0.0
  0
LINE
  5
   18F
  8
0
  6
CONTINUOUS
 62
     7
 10
-544.036592490197
 20
-105.101015357006
 30
0.0
 11
-546.934369963407
 21
-105.877472513425
 31
0.0
  0
LINE
  5
   190
  8
0
  6
CONTINUOUS
 62
     7
 10
-546.934369963407
 20
-105.877472513425
 30
0.0
 11
-544.036592490197
 21
-106.653929669843
 31
0.0
  0
ENDBLK
  5
   191
  8
0
  6
CONTINUOUS
 62
     7
  0
BLOCK
  5
   192
  8
0
  6
CONTINUOUS
 62
     7
  2
*UDIM375
 70
    65
 10
0.0
 20
0.0
 30
0.0
  3
*UDIM375
  0
TEXT
  5
   193
  8
0
  6
CONTINUOUS
 62
     7
 10
-567.361486818271
 20
-91.0412160434398
 30
0.0
 40
3.00000011722246
  1
3
 41
0.933333333333334
 72
     1
 11
-566.261486775289
 21
-89.5412159848286
 31
0.0
 73
     2
  0
TEXT
  5
   194
  8
0
  6
CONTINUOUS
 62
     7
 10
-570.928153539332
 20
-91.2912160219159
 30
0.0
 40
3.50000007417466
  1
_
 41
0.933333333333333
 72
     1
 11
-569.644820178801
 21
-89.5412159848286
 31
0.0
 73
     2
  0
LINE
  5
   195
  8
0
  6
CONTINUOUS
 62
     7
 10
-561.559369575977
 20
-85.2365973867211
 30
0.0
 11
-561.559369575977
 21
-94.0412160434398
 31
0.0
  0
LINE
  5
   196
  8
0
  6
CONTINUOUS
 62
     7
 10
-560.209362316132
 20
-85.2957158810035
 30
0.0
 11
-560.209362316132
 21
-94.0412160434398
 31
0.0
  0
LINE
  5
   197
  8
0
  6
CONTINUOUS
 62
     7
 10
-570.928153539332
 20
-92.0412160434398
 30
0.0
 11
-560.209362316132
 21
-92.0412160434398
 31
0.0
  0
LINE
  5
   198
  8
0
  6
CONTINUOUS
 62
     7
 10
-564.457147049188
 20
-92.8176731998583
 30
0.0
 11
-561.559369575977
 21
-92.0412160434398
 31
0.0
  0
LINE
  5
   199
  8
0
  6
CONTINUOUS
 62
     7
 10
-561.559369575977
 20
-92.0412160434398
 30
0.0
 11
-564.457147049188
 21
-91.2647588870212
 31
0.0
  0
CIRCLE
  5
   19A
  8
0
  6
CONTINUOUS
 62
     7
 10
-560.209362316132
 20
-92.0412160434398
 30
0.0
 40
0.5
  0
ENDBLK
  5
   19B
  8
0
  6
CONTINUOUS
 62
     7
  0
BLOCK
  5
   19C
  8
0
  6
CONTINUOUS
 62
     7
  2
*UDIM376
 70
    65
 10
0.0
 20
0.0
 30
0.0
  3
*UDIM376
  0
TEXT
  5
   19D
  8
0
  6
CONTINUOUS
 62
     7
 10
-555.571052834479
 20
-91.0412160434398
 30
0.0
 40
3.00000011722246
  1
1,5
 41
0.933333333333333
 72
     1
 11
-551.67105268209
 21
-89.5412159848286
 31
0.0
 73
     2
  0
LINE
  5
   19E
  8
0
  6
CONTINUOUS
 62
     7
 10
-559.534362334013
 20
-85.3252749684028
 30
0.0
 11
-559.534362334013
 21
-94.0412160434398
 31
0.0
  0
LINE
  5
   19F
  8
0
  6
CONTINUOUS
 62
     7
 10
-560.209362316132
 20
-92.0412160434398
 30
0.0
 11
-547.771052529701
 21
-92.0412160434398
 31
0.0
  0
CIRCLE
  5
   1A0
  8
0
  6
CONTINUOUS
 62
     7
 10
-560.209362316132
 20
-92.0412160434398
 30
0.0
 40
0.5
  0
LINE
  5
   1A1
  8
0
  6
CONTINUOUS
 62
     7
 10
-556.636584860803
 20
-91.2647588870212
 30
0.0
 11
-559.534362334013
 21
-92.0412160434398
 31
0.0
  0
LINE
  5
   1A2
  8
0
  6
CONTINUOUS
 62
     7
 10
-559.534362334013
 20
-92.0412160434398
 30
0.0
 11
-556.636584860803
 21
-92.8176731998583
 31
0.0
  0
ENDBLK
  5
   1A3
  8
0
  6
CONTINUOUS
 62
     7
  0
BLOCK
  5
   1A4
  8
0
  6
CONTINUOUS
 62
     7
  2
*UDIM377
 70
    65
 10
0.0
 20
0.0
 30
0.0
  3
*UDIM377
  0
TEXT
  5
   1A5
  8
0
  6
CONTINUOUS
 62
     7
 10
-542.946877160205
 20
-112.535274836435
 30
0.0
 40
3.00000011722246
  1
103,5
 41
0.933333333333333
 72
     1
 11
-536.246876898409
 21
-111.035274777824
 31
0.0
 73
     2
  0
LINE
  5
   1A6
  8
0
  6
CONTINUOUS
 62
     7
 10
-559.534362334013
 20
-85.3252749684028
 30
0.0
 11
-559.534362334013
 21
-115.535274836435
 31
0.0
  0
LINE
  5
   1A7
  8
0
  6
CONTINUOUS
 62
     7
 10
-512.959391462804
 20
-36.4763773769137
 30
0.0
 11
-512.959391462804
 21
-115.535274836435
 31
0.0
  0
LINE
  5
   1A8
  8
0
  6
CONTINUOUS
 62
     7
 10
-559.534362334013
 20
-113.535274836435
 30
0.0
 11
-512.959391462804
 21
-113.535274836435
 31
0.0
  0
LINE
  5
   1A9
  8
0
  6
CONTINUOUS
 62
     7
 10
-556.636584860803
 20
-112.758817680017
 30
0.0
 11
-559.534362334013
 21
-113.535274836435
 31
0.0
  0
LINE
  5
   1AA
  8
0
  6
CONTINUOUS
 62
     7
 10
-559.534362334013
 20
-113.535274836435
 30
0.0
 11
-556.636584860803
 21
-114.311731992854
 31
0.0
  0
LINE
  5
   1AB
  8
0
  6
CONTINUOUS
 62
     7
 10
-515.857168936014
 20
-114.311731992854
 30
0.0
 11
-512.959391462804
 21
-113.535274836435
 31
0.0
  0
LINE
  5
   1AC
  8
0
  6
CONTINUOUS
 62
     7
 10
-512.959391462804
 20
-113.535274836435
 30
0.0
 11
-515.857168936014
 21
-112.758817680017
 31
0.0
  0
ENDBLK
  5
   1AD
  8
0
  6
CONTINUOUS
 62
     7
  0
BLOCK
  5
   1AE
  8
0
  6
CONTINUOUS
 62
     7
  2
*UDIM378
 70
    65
 10
0.0
 20
0.0
 30
0.0
  3
*UDIM378
  0
TEXT
  5
   1AF
  8
0
  6
CONTINUOUS
 62
     7
 10
-539.359377071659
 20
-119.061810907183
 30
0.0
 40
3.00000011722246
  1
107
 41
0.933333333333333
 72
     1
 11
-535.45937691927
 21
-117.561810848572
 31
0.0
 73
     2
  0
LINE
  5
   1B0
  8
0
  6
CONTINUOUS
 62
     7
 10
-559.534362334013
 20
-85.3252749684028
 30
0.0
 11
-559.534362334013
 21
-122.061810907183
 31
0.0
  0
LINE
  5
   1B1
  8
0
  6
CONTINUOUS
 62
     7
 10
-511.384391504527
 20
-92.7392942360705
 30
0.0
 11
-511.384391504527
 21
-122.061810907183
 31
0.0
  0
LINE
  5
   1B2
  8
0
  6
CONTINUOUS
 62
     7
 10
-559.534362334013
 20
-120.061810907183
 30
0.0
 11
-511.384391504527
 21
-120.061810907183
 31
0.0
  0
LINE
  5
   1B3
  8
0
  6
CONTINUOUS
 62
     7
 10
-556.636584860803
 20
-119.285353750764
 30
0.0
 11
-559.534362334013
 21
-120.061810907183
 31
0.0
  0
LINE
  5
   1B4
  8
0
  6
CONTINUOUS
 62
     7
 10
-559.534362334013
 20
-120.061810907183
 30
0.0
 11
-556.636584860803
 21
-120.838268063601
 31
0.0
  0
LINE
  5
   1B5
  8
0
  6
CONTINUOUS
 62
     7
 10
-514.282168977738
 20
-120.838268063601
 30
0.0
 11
-511.384391504527
 21
-120.061810907183
 31
0.0
  0
LINE
  5
   1B6
  8
0
  6
CONTINUOUS
 62
     7
 10
-511.384391504527
 20
-120.061810907183
 30
0.0
 11
-514.282168977738
 21
-119.285353750764
 31
0.0
  0
ENDBLK
  5
   1B7
  8
0
  6
CONTINUOUS
 62
     7
  0
BLOCK
  5
   1B8
  8
0
  6
CONTINUOUS
 62
     7
  2
*UDIM379
 70
    65
 10
0.0
 20
0.0
 30
0.0
  3
*UDIM379
  0
TEXT
  5
   1B9
  8
0
  6
CONTINUOUS
 62
     7
 10
-505.344890784874
 20
-119.061810907183
 30
0.0
 40
3.00000011722246
  1
2
 41
0.933333333333334
 72
     1
 11
-504.244890741892
 21
-117.561810848572
 31
0.0
 73
     2
  0
LINE
  5
   1BA
  8
0
  6
CONTINUOUS
 62
     7
 10
-510.484391528369
 20
-92.4776663360246
 30
0.0
 11
-510.484391528369
 21
-122.061810907183
 31
0.0
  0
LINE
  5
   1BB
  8
0
  6
CONTINUOUS
 62
     7
 10
-511.384391504527
 20
-120.061810907183
 30
0.0
 11
-503.144890698911
 21
-120.061810907183
 31
0.0
  0
LINE
  5
   1BC
  8
0
  6
CONTINUOUS
 62
     7
 10
-514.282168977738
 20
-120.838268063601
 30
0.0
 11
-511.384391504527
 21
-120.061810907183
 31
0.0
  0
LINE
  5
   1BD
  8
0
  6
CONTINUOUS
 62
     7
 10
-511.384391504527
 20
-120.061810907183
 30
0.0
 11
-514.282168977738
 21
-119.285353750764
 31
0.0
  0
LINE
  5
   1BE
  8
0
  6
CONTINUOUS
 62
     7
 10
-507.586614055159
 20
-119.285353750764
 30
0.0
 11
-510.484391528369
 21
-120.061810907183
 31
0.0
  0
LINE
  5
   1BF
  8
0
  6
CONTINUOUS
 62
     7
 10
-510.484391528369
 20
-120.061810907183
 30
0.0
 11
-507.586614055159
 21
-120.838268063601
 31
0.0
  0
ENDBLK
  5
   1C0
  8
0
  6
CONTINUOUS
 62
     7
  0
BLOCK
  5
   1C1
  8
0
  6
CONTINUOUS
 62
     7
  2
*UDIM380
 70
    65
 10
0.0
 20
0.0
 30
0.0
  3
*UDIM380
  0
TEXT
  5
   1C2
  8
0
  6
CONTINUOUS
 62
     7
 10
-528.884772234654
 20
-126.400538133401
 30
0.0
 40
3.00000011722246
  1
159
 41
0.933333333333333
 72
     1
 11
-524.984772082264
 21
-124.90053807479
 31
0.0
 73
     2
  0
LINE
  5
   1C3
  8
0
  6
CONTINUOUS
 62
     7
 10
-559.534362334013
 20
-85.3252749684028
 30
0.0
 11
-559.534362334013
 21
-129.400538133401
 31
0.0
  0
LINE
  5
   1C4
  8
0
  6
CONTINUOUS
 62
     7
 10
-487.98547126404
 20
-25.8171797063697
 30
0.0
 11
-487.98547126404
 21
-129.400538133401
 31
0.0
  0
LINE
  5
   1C5
  8
0
  6
CONTINUOUS
 62
     7
 10
-559.534362334013
 20
-127.400538133401
 30
0.0
 11
-487.98547126404
 21
-127.400538133401
 31
0.0
  0
LINE
  5
   1C6
  8
0
  6
CONTINUOUS
 62
     7
 10
-556.636584860803
 20
-126.624080976983
 30
0.0
 11
-559.534362334013
 21
-127.400538133401
 31
0.0
  0
LINE
  5
   1C7
  8
0
  6
CONTINUOUS
 62
     7
 10
-559.534362334013
 20
-127.400538133401
 30
0.0
 11
-556.636584860803
 21
-128.17699528982
 31
0.0
  0
LINE
  5
   1C8
  8
0
  6
CONTINUOUS
 62
     7
 10
-490.883248737251
 20
-128.17699528982
 30
0.0
 11
-487.98547126404
 21
-127.400538133401
 31
0.0
  0
LINE
  5
   1C9
  8
0
  6
CONTINUOUS
 62
     7
 10
-487.98547126404
 20
-127.400538133401
 30
0.0
 11
-490.883248737251
 21
-126.624080976983
 31
0.0
  0
ENDBLK
  5
   1CA
  8
0
  6
CONTINUOUS
 62
     7
  0
BLOCK
  5
   1CB
  8
0
  6
CONTINUOUS
 62
     7
  2
*UDIM381
 70
    65
 10
0.0
 20
0.0
 30
0.0
  3
*UDIM381
  0
TEXT
  5
   1CC
  8
0
  6
CONTINUOUS
 62
     7
 10
-478.083542211118
 20
-19.6822680623428
 30
0.0
 40
3.00000011722246
  1
241
 50
90.0
 41
0.933333333333333
 72
     1
 11
-479.583542269735
 21
-15.7822679099555
 31
0.0
 73
     2
  0
LINE
  5
   1CD
  8
0
  6
CONTINUOUS
 62
     7
 10
-542.01937006712
 20
-70.0138638277526
 30
0.0
 11
-475.083542211123
 21
-70.0138638277526
 31
0.0
  0
LINE
  5
   1CE
  8
0
  6
CONTINUOUS
 62
     7
 10
-540.646869674325
 20
38.4361355028016
 30
0.0
 11
-475.083542211123
 21
38.4361355028016
 31
0.0
  0
LINE
  5
   1CF
  8
0
  6
CONTINUOUS
 62
     7
 10
-477.083542211123
 20
-70.0138638277526
 30
0.0
 11
-477.083542211123
 21
38.4361355028016
 31
0.0
  0
LINE
  5
   1D0
  8
0
  6
CONTINUOUS
 62
     7
 10
-477.859999367542
 20
-67.1160863545421
 30
0.0
 11
-477.083542211123
 21
-70.0138638277526
 31
0.0
  0
LINE
  5
   1D1
  8
0
  6
CONTINUOUS
 62
     7
 10
-477.083542211123
 20
-70.0138638277526
 30
0.0
 11
-476.307085054705
 21
-67.1160863545421
 31
0.0
  0
LINE
  5
   1D2
  8
0
  6
CONTINUOUS
 62
     7
 10
-476.307085054705
 20
35.538358029591
 30
0.0
 11
-477.083542211123
 21
38.4361355028016
 31
0.0
  0
LINE
  5
   1D3
  8
0
  6
CONTINUOUS
 62
     7
 10
-477.083542211123
 20
38.4361355028016
 30
0.0
 11
-477.859999367542
 21
35.538358029591
 31
0.0
  0
ENDBLK
  5
   1D4
  8
0
  6
CONTINUOUS
 62
     7
  0
BLOCK
  5
   1D5
  8
0
  6
CONTINUOUS
 62
     7
  2
*UDIM382
 70
    65
 10
0.0
 20
0.0
 30
0.0
  3
*UDIM382
  0
TEXT
  5
   1D6
  8
0
  6
CONTINUOUS
 62
     7
 10
-497.942120680665
 20
-16.0263803279118
 30
0.0
 40
3.00000011722246
  1
105
 50
90.0
 41
0.933333333333333
 72
     1
 11
-499.442120739281
 21
-12.1263801755245
 31
0.0
 73
     2
  0
TEXT
  5
   1D7
  8
0
  6
CONTINUOUS
 62
     7
 10
-493.442120606489
 20
-16.6763802719493
 30
0.0
 40
3.50000007417466
  1
= =
 50
90.0
 41
0.933333333333333
 72
     1
 11
-495.192120643582
 21
-12.1263801755245
 31
0.0
 73
     2
  0
LINE
  5
   1D8
  8
0
  6
CONTINUOUS
 62
     7
 10
-510.384391504527
 20
-35.4763781153445
 30
0.0
 11
-494.94212068067
 21
-35.4763895183934
 31
0.0
  0
LINE
  5
   1D9
  8
0
  6
CONTINUOUS
 62
     7
 10
-510.384391504527
 20
11.7736138007372
 30
0.0
 11
-494.94212068067
 21
11.7736029263411
 31
0.0
  0
LINE
  5
   1DA
  8
0
  6
CONTINUOUS
 62
     7
 10
-496.94212068067
 20
-35.4763880415317
 30
0.0
 11
-496.94212068067
 21
11.7736043347345
 31
0.0
  0
LINE
  5
   1DB
  8
0
  6
CONTINUOUS
 62
     7
 10
-497.463065110621
 20
-32.5219647643248
 30
0.0
 11
-496.94212068067
 21
-35.4763880415317
 31
0.0
  0
LINE
  5
   1DC
  8
0
  6
CONTINUOUS
 62
     7
 10
-496.94212068067
 20
-35.4763880415317
 30
0.0
 11
-496.421176250718
 21
-32.5219647643248
 31
0.0
  0
LINE
  5
   1DD
  8
0
  6
CONTINUOUS
 62
     7
 10
-496.421176250718
 20
8.81918105752754
 30
0.0
 11
-496.94212068067
 21
11.7736043347345
 31
0.0
  0
LINE
  5
   1DE
  8
0
  6
CONTINUOUS
 62
     7
 10
-496.94212068067
 20
11.7736043347345
 30
0.0
 11
-497.463065110621
 21
8.81918105752754
 31
0.0
  0
ENDBLK
  5
   1DF
  8
0
  6
CONTINUOUS
 62
     7
  0
BLOCK
  5
   1E0
  8
0
  6
CONTINUOUS
 62
     2
  2
*UDIM383
 70
    65
 10
0.0
 20
0.0
 30
0.0
  3
*UDIM383
  0
TEXT
  5
   1E1
  8
0
  6
CONTINUOUS
 62
     2
 10
-484.49834075454
 20
4.91737271452592
 30
0.0
 40
3.00000011722246
  1
111,75
 50
90.0
 41
0.933333333333333
 72
     1
 11
-485.998340813162
 21
13.0173730310247
 31
0.0
 73
     2
  0
LINE
  5
   1E2
  8
0
  6
CONTINUOUS
 62
     2
 10
-541.39768537366
 20
38.4361373480377
 30
0.0
 11
-481.498340754551
 21
38.4361373480377
 31
0.0
  0
LINE
  5
   1E3
  8
0
  6
CONTINUOUS
 62
     2
 10
-483.498340754551
 20
-11.8513848692173
 30
0.0
 11
-483.498340754551
 21
38.4361373480377
 31
0.0
  0
LINE
  5
   1E4
  8
0
  6
CONTINUOUS
 62
     2
 10
-484.019285184502
 20
-8.89696159201037
 30
0.0
 11
-483.498340754551
 21
-11.8513848692173
 31
0.0
  0
LINE
  5
   1E5
  8
0
  6
CONTINUOUS
 62
     2
 10
-483.498340754551
 20
-11.8513848692173
 30
0.0
 11
-482.977396324599
 21
-8.89696159201037
 31
0.0
  0
LINE
  5
   1E6
  8
0
  6
CONTINUOUS
 62
     2
 10
-482.977396324599
 20
35.4817140708307
 30
0.0
 11
-483.498340754551
 21
38.4361373480377
 31
0.0
  0
LINE
  5
   1E7
  8
0
  6
CONTINUOUS
 62
     2
 10
-483.498340754551
 20
38.4361373480377
 30
0.0
 11
-484.019285184502
 21
35.4817140708307
 31
0.0
  0
ENDBLK
  5
   1E8
  8
0
  6
CONTINUOUS
 62
     2
  0
BLOCK
  5
   1E9
  8
0
  6
CONTINUOUS
 62
     2
  2
*UDIM384
 70
    65
 10
0.0
 20
0.0
 30
0.0
  3
*UDIM384
  0
TEXT
  5
   1EA
  8
0
  6
CONTINUOUS
 62
     2
 10
-493.652496553967
 20
-84.0888674335539
 30
0.0
 40
3.00000011722246
  1
16,5
 50
90.0
 41
0.933333333333333
 72
     1
 11
-495.152496612585
 21
-78.7888672264627
 31
0.0
 73
     2
  0
LINE
  5
   1EB
  8
0
  6
CONTINUOUS
 62
     2
 10
-541.39768537366
 20
-70.0138655684295
 30
0.0
 11
-490.652496553974
 21
-70.0138599510786
 31
0.0
  0
LINE
  5
   1EC
  8
0
  6
CONTINUOUS
 62
     2
 10
-552.234369796514
 20
-62.5888629257679
 30
0.0
 11
-490.652496553974
 21
-62.5888629257679
 31
0.0
  0
LINE
  5
   1ED
  8
0
  6
CONTINUOUS
 62
     2
 10
-492.652496553974
 20
-84.0888674335557
 30
0.0
 11
-492.652496553974
 21
-62.5888629257679
 31
0.0
  0
LINE
  5
   1EE
  8
0
  6
CONTINUOUS
 62
     2
 10
-492.131552124022
 20
-72.96828344968
 30
0.0
 11
-492.652496553974
 21
-70.013860172473
 31
0.0
  0
LINE
  5
   1EF
  8
0
  6
CONTINUOUS
 62
     2
 10
-492.652496553974
 20
-70.013860172473
 30
0.0
 11
-493.173440983926
 21
-72.96828344968
 31
0.0
  0
LINE
  5
   1F0
  8
0
  6
CONTINUOUS
 62
     2
 10
-493.173440983926
 20
-59.6344396485609
 30
0.0
 11
-492.652496553974
 21
-62.5888629257679
 31
0.0
  0
LINE
  5
   1F1
  8
0
  6
CONTINUOUS
 62
     2
 10
-492.652496553974
 20
-62.5888629257679
 30
0.0
 11
-492.131552124022
 21
-59.6344396485609
 31
0.0
  0
ENDBLK
  5
   1F2
  8
0
  6
CONTINUOUS
 62
     2
  0
BLOCK
  5
   1F3
  8
0
  6
CONTINUOUS
 62
     7
  2
*UDIM385
 70
    65
 10
0.0
 20
0.0
 30
0.0
  3
*UDIM385
  0
TEXT
  5
   1F4
  8
0
  6
CONTINUOUS
 62
     7
 10
-502.76724507655
 20
-78.5388783451141
 30
0.0
 40
3.00000011722246
  1
12
 50
90.0
 41
0.933333333333333
 72
     1
 11
-504.267245135165
 21
-76.0388782474306
 31
0.0
 73
     2
  0
LINE
  5
   1F5
  8
0
  6
CONTINUOUS
 62
     7
 10
-541.397685373661
 20
-70.0138660134732
 30
0.0
 11
-499.767245076554
 21
-70.0138799324629
 31
0.0
  0
LINE
  5
   1F6
  8
0
  6
CONTINUOUS
 62
     7
 10
-540.515751552868
 20
-64.6138632785888
 30
0.0
 11
-499.767245076554
 21
-64.6138798414325
 31
0.0
  0
LINE
  5
   1F7
  8
0
  6
CONTINUOUS
 62
     7
 10
-501.767245076554
 20
-78.538878345116
 30
0.0
 11
-501.767245076554
 21
-64.6138790285024
 31
0.0
  0
LINE
  5
   1F8
  8
0
  6
CONTINUOUS
 62
     7
 10
-501.246300646602
 20
-72.968302540977
 30
0.0
 11
-501.767245076554
 21
-70.01387926377
 31
0.0
  0
LINE
  5
   1F9
  8
0
  6
CONTINUOUS
 62
     7
 10
-501.767245076554
 20
-70.01387926377
 30
0.0
 11
-502.288189506505
 21
-72.968302540977
 31
0.0
  0
LINE
  5
   1FA
  8
0
  6
CONTINUOUS
 62
     7
 10
-502.288189506505
 20
-61.6594557512954
 30
0.0
 11
-501.767245076554
 21
-64.6138790285024
 31
0.0
  0
LINE
  5
   1FB
  8
0
  6
CONTINUOUS
 62
     7
 10
-501.767245076554
 20
-64.6138790285024
 30
0.0
 11
-501.246300646602
 21
-61.6594557512954
 31
0.0
  0
ENDBLK
  5
   1FC
  8
0
  6
CONTINUOUS
 62
     7
  0
BLOCK
  5
   1FD
  8
0
  6
CONTINUOUS
 62
     7
  2
*UDIM386
 70
    65
 10
0.0
 20
0.0
 30
0.0
  3
*UDIM386
  0
TEXT
  5
   1FE
  8
0
  6
CONTINUOUS
 62
     7
 10
-494.699507329457
 20
33.2763100657426
 30
0.0
 40
3.00000011722246
  1
12
 50
90.0
 41
0.933333333333333
 72
     1
 11
-496.199507388071
 21
35.7763101634261
 31
0.0
 73
     2
  0
LINE
  5
   1FF
  8
0
  6
CONTINUOUS
 62
     7
 10
-532.223002268383
 20
33.0361342271182
 30
0.0
 11
-491.69950732946
 21
33.0361215061256
 31
0.0
  0
LINE
  5
   200
  8
0
  6
CONTINUOUS
 62
     7
 10
-541.397685373661
 20
38.4361368033298
 30
0.0
 11
-491.699507329461
 21
38.4361097323387
 31
0.0
  0
LINE
  5
   201
  8
0
  6
CONTINUOUS
 62
     7
 10
-493.69950732946
 20
33.0361221339585
 30
0.0
 11
-493.69950732946
 21
38.4361108217546
 31
0.0
  0
LINE
  5
   202
  8
0
  6
CONTINUOUS
 62
     7
 10
-493.178562899509
 20
30.0816988567516
 30
0.0
 11
-493.69950732946
 21
33.0361221339585
 31
0.0
  0
LINE
  5
   203
  8
0
  6
CONTINUOUS
 62
     7
 10
-493.69950732946
 20
33.0361221339585
 30
0.0
 11
-494.220451759412
 21
30.0816988567516
 31
0.0
  0
LINE
  5
   204
  8
0
  6
CONTINUOUS
 62
     7
 10
-494.220451759412
 20
41.3905340989615
 30
0.0
 11
-493.69950732946
 21
38.4361108217546
 31
0.0
  0
LINE
  5
   205
  8
0
  6
CONTINUOUS
 62
     7
 10
-493.69950732946
 20
38.4361108217546
 30
0.0
 11
-493.178562899509
 21
41.3905340989615
 31
0.0
  0
ENDBLK
  5
   206
  8
0
  6
CONTINUOUS
 62
     7
  0
BLOCK
  5
   207
  8
0
  6
CONTINUOUS
 62
     3
  2
*HATCH157
 70
    65
 10
0.0
 20
0.0
 30
0.0
  3
*HATCH157
  0
LINE
  5
   208
  8
0
  6
CONTINUOUS
 62
   210
 10
15.7794380187988
 20
32.75
 30
0.0
 11
13.5
 21
30.4705600738525
 31
0.0
  0
LINE
  5
   209
  8
0
  6
CONTINUOUS
 62
   210
 10
22.2720794677734
 20
35.0
 30
0.0
 11
20.5
 21
33.2279205322266
 31
0.0
  0
LINE
  5
   20A
  8
0
  6
CONTINUOUS
 62
   210
 10
24.3934001922607
 20
35.0
 30
0.0
 11
14.8934001922607
 21
25.5
 31
0.0
  0
LINE
  5
   20B
  8
0
  6
CONTINUOUS
 62
   210
 10
28.6360416412354
 20
35.0
 30
0.0
 11
19.1360416412354
 21
25.5
 31
0.0
  0
LINE
  5
   20C
  8
0
  6
CONTINUOUS
 62
   210
 10
32.8786811828613
 20
35.0
 30
0.0
 11
23.37868309021
 21
25.5
 31
0.0
  0
LINE
  5
   20D
  8
0
  6
CONTINUOUS
 62
   210
 10
37.1213188171387
 20
35.0
 30
0.0
 11
27.6213245391846
 21
25.5
 31
0.0
  0
LINE
  5
   20E
  8
0
  6
CONTINUOUS
 62
   210
 10
41.363956451416
 20
35.0
 30
0.0
 11
31.8639659881592
 21
25.5
 31
0.0
  0
LINE
  5
   20F
  8
0
  6
CONTINUOUS
 62
   210
 10
44.0
 20
33.3933944702148
 30
0.0
 11
35.6674194335938
 21
25.0608177185059
 31
0.0
  0
LINE
  5
   210
  8
0
  6
CONTINUOUS
 62
   210
 10
44.0
 20
29.1507530212402
 30
0.0
 11
38.3571472167969
 21
23.5079040527344
 31
0.0
  0
LINE
  5
   211
  8
0
  6
CONTINUOUS
 62
   210
 10
44.0
 20
24.9081134796143
 30
0.0
 11
39.0
 21
19.9081134796143
 31
0.0
  0
LINE
  5
   212
  8
0
  6
CONTINUOUS
 62
   210
 10
44.0
 20
20.6654720306397
 30
0.0
 11
39.0
 21
15.6654720306396
 31
0.0
  0
LINE
  5
   213
  8
0
  6
CONTINUOUS
 62
   210
 10
44.0
 20
16.422830581665
 30
0.0
 11
39.0
 21
11.422830581665
 31
0.0
  0
LINE
  5
   214
  8
0
  6
CONTINUOUS
 62
   210
 10
44.0
 20
12.1801891326904
 30
0.0
 11
39.0
 21
7.18018960952759
 31
0.0
  0
LINE
  5
   215
  8
0
  6
CONTINUOUS
 62
   210
 10
44.0
 20
7.93754816055298
 30
0.0
 11
39.0
 21
2.93754911422729
 31
0.0
  0
LINE
  5
   216
  8
0
  6
CONTINUOUS
 62
   210
 10
44.0
 20
3.69491171836853
 30
0.0
 11
39.0
 21
-1.3050879240036
 31
0.0
  0
LINE
  5
   217
  8
0
  6
CONTINUOUS
 62
   210
 10
44.0
 20
1.57359147071838
 30
0.0
 11
39.0
 21
-3.42640829086304
 31
0.0
  0
LINE
  5
   218
  8
0
  6
CONTINUOUS
 62
   210
 10
44.0
 20
-0.547728776931763
 30
0.0
 11
39.0
 21
-5.54772853851318
 31
0.0
  0
LINE
  5
   219
  8
0
  6
CONTINUOUS
 62
   210
 10
44.0
 20
-2.66904902458191
 30
0.0
 11
39.0
 21
-7.66904878616333
 31
0.0
  0
LINE
  5
   21A
  8
0
  6
CONTINUOUS
 62
   210
 10
44.0
 20
-4.79036951065063
 30
0.0
 11
39.0
 21
-9.79036903381348
 31
0.0
  0
LINE
  5
   21B
  8
0
  6
CONTINUOUS
 62
   210
 10
44.0
 20
-6.91168975830078
 30
0.0
 11
39.0
 21
-11.9116897583008
 31
0.0
  0
LINE
  5
   21C
  8
0
  6
CONTINUOUS
 62
   210
 10
44.0
 20
-9.03300952911377
 30
0.0
 11
39.0
 21
-14.0330095291138
 31
0.0
  0
LINE
  5
   21D
  8
0
  6
CONTINUOUS
 62
   210
 10
44.0
 20
-11.1543292999268
 30
0.0
 11
39.0
 21
-16.1543292999268
 31
0.0
  0
LINE
  5
   21E
  8
0
  6
CONTINUOUS
 62
   210
 10
44.0
 20
-13.2756500244141
 30
0.0
 11
39.0
 21
-18.2756500244141
 31
0.0
  0
LINE
  5
   21F
  8
0
  6
CONTINUOUS
 62
   210
 10
44.0
 20
-15.3969707489014
 30
0.0
 11
39.0
 21
-20.3969707489014
 31
0.0
  0
LINE
  5
   220
  8
0
  6
CONTINUOUS
 62
   210
 10
44.0
 20
-17.5182914733887
 30
0.0
 11
39.0
 21
-22.5182914733887
 31
0.0
  0
LINE
  5
   221
  8
0
  6
CONTINUOUS
 62
   210
 10
44.0
 20
-19.6396102905273
 30
0.0
 11
28.6396102905273
 21
-35.0
 31
0.0
  0
LINE
  5
   222
  8
0
  6
CONTINUOUS
 62
   210
 10
44.0
 20
-23.882251739502
 30
0.0
 11
32.882251739502
 21
-35.0
 31
0.0
  0
LINE
  5
   223
  8
0
  6
CONTINUOUS
 62
   210
 10
44.0
 20
-28.1248931884766
 30
0.0
 11
37.1248893737793
 21
-35.0
 31
0.0
  0
LINE
  5
   224
  8
0
  6
CONTINUOUS
 62
   210
 10
44.0
 20
-32.3675346374512
 30
0.0
 11
41.3675270080566
 21
-35.0
 31
0.0
  0
ENDBLK
  5
   225
  8
0
  6
CONTINUOUS
 62
     3
  0
BLOCK
  5
   226
  8
0
  6
CONTINUOUS
 62
     7
  2
*UDIM387
 70
    65
 10
0.0
 20
0.0
 30
0.0
  3
*UDIM387
  0
TEXT
  5
   227
  8
0
  6
CONTINUOUS
 62
     7
 10
-516.54586106657
 20
-150.482295062254
 30
0.0
 40
3.00000001532688
  1
6,5
 50
359.999999948034
 41
0.933333333333334
 72
     1
 11
-512.645861045292
 21
-148.982295058108
 31
0.0
 73
     2
  0
TEXT
  5
   228
  8
0
  6
CONTINUOUS
 62
     7
 10
-519.695861065889
 20
-150.482295064779
 30
0.0
 40
3.00000001532688
  1
Ø
 50
359.999999948034
 41
0.933333333333333
 72
     1
 11
-518.595861058916
 21
-148.982295058108
 31
0.0
 73
     2
  0
LINE
  5
   229
  8
0
  6
CONTINUOUS
 62
     7
 10
-503.870861530304
 20
-160.486714964507
 30
0.0
 11
-503.870861530304
 21
-149.482295065771
 31
0.0
  0
LINE
  5
   22A
  8
0
  6
CONTINUOUS
 62
     7
 10
-506.145861297846
 20
-160.486714964507
 30
0.0
 11
-506.145861297846
 21
-149.482295065771
 31
0.0
  0
LINE
  5
   22B
  8
0
  6
CONTINUOUS
 62
     7
 10
-503.870861530304
 20
-151.482295065771
 30
0.0
 11
-519.695861064536
 21
-151.482295065771
 31
0.0
  0
LINE
  5
   22C
  8
0
  6
CONTINUOUS
 62
     7
 10
-500.916438253097
 20
-150.961350635819
 30
0.0
 11
-503.870861530304
 21
-151.482295065771
 31
0.0
  0
LINE
  5
   22D
  8
0
  6
CONTINUOUS
 62
     7
 10
-503.870861530304
 20
-151.482295065771
 30
0.0
 11
-500.916438253097
 21
-152.003239495723
 31
0.0
  0
LINE
  5
   22E
  8
0
  6
CONTINUOUS
 62
     7
 10
-509.100284575053
 20
-152.003239495723
 30
0.0
 11
-506.145861297846
 21
-151.482295065771
 31
0.0
  0
LINE
  5
   22F
  8
0
  6
CONTINUOUS
 62
     7
 10
-506.145861297846
 20
-151.482295065771
 30
0.0
 11
-509.100284575053
 21
-150.961350635819
 31
0.0
  0
ENDBLK
  5
   230
  8
0
  6
CONTINUOUS
 62
     7
  0
BLOCK
  5
   231
  8
0
  6
CONTINUOUS
 62
     7
  2
*UDIM388
 70
    65
 10
0.0
 20
0.0
 30
0.0
  3
*UDIM388
  0
TEXT
  5
   232
  8
0
  6
CONTINUOUS
 62
     7
 10
-503.845860398743
 20
-181.141651858217
 30
0.0
 40
3.00000001532688
  1
40
 50
359.999999948034
 41
0.933333333333333
 72
     1
 11
-501.345860384618
 21
-179.641651852808
 31
0.0
 73
     2
  0
LINE
  5
   233
  8
0
  6
CONTINUOUS
 62
     7
 10
-494.070862531662
 20
-166.551614969969
 30
0.0
 11
-494.070862531662
 21
-184.141651860472
 31
0.0
  0
LINE
  5
   234
  8
0
  6
CONTINUOUS
 62
     7
 10
-508.070861101151
 20
-166.551614969969
 30
0.0
 11
-508.070861101151
 21
-184.141651860472
 31
0.0
  0
LINE
  5
   235
  8
0
  6
CONTINUOUS
 62
     7
 10
-494.070862531662
 20
-182.141651860472
 30
0.0
 11
-508.070861101151
 21
-182.141651860472
 31
0.0
  0
LINE
  5
   236
  8
0
  6
CONTINUOUS
 62
     7
 10
-491.116439254455
 20
-181.62070743052
 30
0.0
 11
-494.070862531662
 21
-182.141651860472
 31
0.0
  0
LINE
  5
   237
  8
0
  6
CONTINUOUS
 62
     7
 10
-494.070862531662
 20
-182.141651860472
 30
0.0
 11
-491.116439254455
 21
-182.662596290423
 31
0.0
  0
LINE
  5
   238
  8
0
  6
CONTINUOUS
 62
     7
 10
-511.025284378358
 20
-182.662596290423
 30
0.0
 11
-508.070861101151
 21
-182.141651860472
 31
0.0
  0
LINE
  5
   239
  8
0
  6
CONTINUOUS
 62
     7
 10
-508.070861101151
 20
-182.141651860472
 30
0.0
 11
-511.025284378358
 21
-181.62070743052
 31
0.0
  0
ENDBLK
  5
   23A
  8
0
  6
CONTINUOUS
 62
     7
  0
BLOCK
  5
   23B
  8
0
  6
CONTINUOUS
 62
     1
  2
*UDIM389
 70
    65
 10
0.0
 20
0.0
 30
0.0
  3
*UDIM389
  0
TEXT
  5
   23C
  8
0
  6
CONTINUOUS
 62
     1
 10
-504.765027825972
 20
-188.991755598792
 30
0.0
 40
2.00000015624928
  1
SEZ.A-A
 50
359.999999948034
 41
0.749999837428356
 72
     2
 11
-494.565029255616
 21
-186.991755451743
 31
0.0
 73
     3
  0
LINE
  5
   23D
  8
0
  6
CONTINUOUS
 62
     1
 10
-504.765028452903
 20
-189.991754002418
 30
0.0
 11
-494.565029884351
 21
-189.991757204366
 31
0.0
  0
ENDBLK
  5
   23E
  8
0
  6
CONTINUOUS
 62
     1
  0
BLOCK
  5
   23F
  8
0
  6
CONTINUOUS
 62
     7
  2
*UDIM390
 70
    65
 10
0.0
 20
0.0
 30
0.0
  3
*UDIM390
  0
TEXT
  5
   240
  8
0
  6
CONTINUOUS
 62
     7
 10
-519.442169514811
 20
-162.168363764742
 30
0.0
 40
3.00000001532688
  1
12
 50
89.9999999480344
 41
0.933333333333333
 72
     1
 11
-520.94216952021
 21
-159.668363750611
 31
0.0
 73
     2
  0
LINE
  5
   241
  8
0
  6
CONTINUOUS
 62
     7
 10
-509.719579224057
 20
-161.876615345478
 30
0.0
 11
-520.442169512547
 21
-161.876615345478
 31
0.0
  0
LINE
  5
   242
  8
0
  6
CONTINUOUS
 62
     7
 10
-510.168723960053
 20
-157.676615774632
 30
0.0
 11
-520.442169512547
 21
-157.676615774632
 31
0.0
  0
LINE
  5
   243
  8
0
  6
CONTINUOUS
 62
     7
 10
-518.442169512547
 20
-162.168363763384
 30
0.0
 11
-518.442169512547
 21
-157.168363737839
 31
0.0
  0
LINE
  5
   244
  8
0
  6
CONTINUOUS
 62
     7
 10
-517.921225082595
 20
-164.831038622685
 30
0.0
 11
-518.442169512547
 21
-161.876615345478
 31
0.0
  0
LINE
  5
   245
  8
0
  6
CONTINUOUS
 62
     7
 10
-518.442169512547
 20
-161.876615345478
 30
0.0
 11
-518.963113942499
 21
-164.831038622685
 31
0.0
  0
LINE
  5
   246
  8
0
  6
CONTINUOUS
 62
     7
 10
-518.963113942499
 20
-154.722192497425
 30
0.0
 11
-518.442169512547
 21
-157.676615774632
 31
0.0
  0
LINE
  5
   247
  8
0
  6
CONTINUOUS
 62
     7
 10
-518.442169512547
 20
-157.676615774632
 30
0.0
 11
-517.921225082595
 21
-154.722192497425
 31
0.0
  0
ENDBLK
  5
   248
  8
0
  6
CONTINUOUS
 62
     7
  0
BLOCK
  5
   249
  8
0
  6
CONTINUOUS
 62
     7
  2
*UDIM391
 70
    65
 10
0.0
 20
0.0
 30
0.0
  3
*UDIM391
  0
TEXT
  5
   24A
  8
0
  6
CONTINUOUS
 62
     7
 10
-506.69344575753
 20
-174.488290642828
 30
0.0
 40
3.00000001532688
  1
22,5
 50
359.999999948034
 41
0.933333333333333
 72
     1
 11
-501.3934457291
 21
-172.988290639944
 31
0.0
 73
     2
  0
TEXT
  5
   24B
  8
0
  6
CONTINUOUS
 62
     7
 10
-494.293445685088
 20
-174.038290685772
 30
0.0
 40
2.10000009834763
  1
±0,1
 50
359.999999948034
 41
0.933333333333333
 72
     1
 11
-490.583445510394
 21
-172.988290639944
 31
0.0
 73
     2
  0
LINE
  5
   24C
  8
0
  6
CONTINUOUS
 62
     7
 10
-497.133362532654
 20
-166.347768946084
 30
0.0
 11
-497.133366029848
 21
-177.488290647608
 31
0.0
  0
LINE
  5
   24D
  8
0
  6
CONTINUOUS
 62
     7
 10
-505.008361727991
 20
-166.347768946084
 30
0.0
 11
-505.008365225185
 21
-177.488290647608
 31
0.0
  0
LINE
  5
   24E
  8
0
  6
CONTINUOUS
 62
     7
 10
-486.873445336646
 20
-175.488290647608
 30
0.0
 11
-506.693445756177
 21
-175.488290647608
 31
0.0
  0
LINE
  5
   24F
  8
0
  6
CONTINUOUS
 62
     7
 10
-494.178942124808
 20
-174.967346217656
 30
0.0
 11
-497.133365402015
 21
-175.488290647608
 31
0.0
  0
LINE
  5
   250
  8
0
  6
CONTINUOUS
 62
     7
 10
-497.133365402015
 20
-175.488290647608
 30
0.0
 11
-494.178942124808
 21
-176.00923507756
 31
0.0
  0
LINE
  5
   251
  8
0
  6
CONTINUOUS
 62
     7
 10
-507.962787874559
 20
-176.00923507756
 30
0.0
 11
-505.008364597352
 21
-175.488290647608
 31
0.0
  0
LINE
  5
   252
  8
0
  6
CONTINUOUS
 62
     7
 10
-505.008364597352
 20
-175.488290647608
 30
0.0
 11
-507.962787874559
 21
-174.967346217656
 31
0.0
  0
ENDBLK
  5
   253
  8
0
  6
CONTINUOUS
 62
     7
  0
BLOCK
  5
   254
  8
0
  6
CONTINUOUS
 62
     7
  2
MOSTRINA
 70
    64
 10
0.0
 20
0.0
 30
0.0
  3
MOSTRINA
  0
LINE
  5
   255
  8
0
  6
CONTINUOUS
 62
     3
 10
208.338256835938
 20
30.7306251525879
 30
0.0
 11
208.338256835938
 21
189.230621337891
 31
0.0
  0
LINE
  5
   256
  8
0
  6
CONTINUOUS
 62
     3
 10
57.5882568359375
 20
29.4806251525879
 30
0.0
 11
207.088256835938
 21
29.4806251525879
 31
0.0
  0
LINE
  5
   257
  8
0
  6
CONTINUOUS
 62
     3
 10
56.3382568359375
 20
30.7306251525879
 30
0.0
 11
56.3382568359375
 21
189.230621337891
 31
0.0
  0
LINE
  5
   258
  8
0
  6
CONTINUOUS
 62
     3
 10
57.5882568359375
 20
190.480621337891
 30
0.0
 11
207.088256835938
 21
190.480621337891
 31
0.0
  0
LINE
  5
   259
  8
0
  6
CONTINUOUS
 62
     3
 10
202.838256835938
 20
56.9806251525879
 30
0.0
 11
202.838256835938
 21
162.980625152588
 31
0.0
  0
LINE
  5
   25A
  8
0
  6
CONTINUOUS
 62
     3
 10
61.8382568359375
 20
56.9806251525879
 30
0.0
 11
202.838256835938
 21
56.9806251525879
 31
0.0
  0
LINE
  5
   25B
  8
0
  6
CONTINUOUS
 62
     3
 10
61.8382568359375
 20
56.9806251525879
 30
0.0
 11
61.8382568359375
 21
162.980625152588
 31
0.0
  0
LINE
  5
   25C
  8
0
  6
CONTINUOUS
 62
     3
 10
61.8382568359375
 20
162.980621337891
 30
0.0
 11
202.838256835938
 21
162.980621337891
 31
0.0
  0
LINE
  5
   25D
  8
0
  6
CONTINUOUS
 62
     3
 10
203.838256835938
 20
48.4806251525879
 30
0.0
 11
203.838256835938
 21
49.4806251525879
 31
0.0
  0
LINE
  5
   25E
  8
0
  6
CONTINUOUS
 62
     3
 10
61.8382568359375
 20
50.4806251525879
 30
0.0
 11
202.838256835938
 21
50.4806251525879
 31
0.0
  0
LINE
  5
   25F
  8
0
  6
CONTINUOUS
 62
     3
 10
60.8382568359375
 20
48.4806251525879
 30
0.0
 11
60.8382568359375
 21
49.4806251525879
 31
0.0
  0
LINE
  5
   260
  8
0
  6
CONTINUOUS
 62
     3
 10
61.8382568359375
 20
49.4806251525879
 30
0.0
 11
202.838256835938
 21
49.4806251525879
 31
0.0
  0
LINE
  5
   261
  8
0
  6
CONTINUOUS
 62
     3
 10
60.8382568359375
 20
29.4806251525879
 30
0.0
 11
60.8382568359375
 21
48.4806251525879
 31
0.0
  0
LINE
  5
   262
  8
0
  6
CONTINUOUS
 62
     3
 10
60.8382568359375
 20
49.4806213378906
 30
0.0
 11
60.8382568359375
 21
190.480621337891
 31
0.0
  0
LINE
  5
   263
  8
0
  6
CONTINUOUS
 62
     3
 10
61.8382568359375
 20
29.4806251525879
 30
0.0
 11
61.8382568359375
 21
49.4806251525879
 31
0.0
  0
LINE
  5
   264
  8
0
  6
CONTINUOUS
 62
     3
 10
61.8382568359375
 20
162.980621337891
 30
0.0
 11
61.8382568359375
 21
169.480621337891
 31
0.0
  0
LINE
  5
   265
  8
0
  6
CONTINUOUS
 62
     3
 10
61.8382568359375
 20
50.4806251525879
 30
0.0
 11
61.8382568359375
 21
56.9806251525879
 31
0.0
  0
LINE
  5
   266
  8
0
  6
CONTINUOUS
 62
     3
 10
203.838256835938
 20
29.4806251525879
 30
0.0
 11
203.838256835938
 21
48.4806251525879
 31
0.0
  0
LINE
  5
   267
  8
0
  6
CONTINUOUS
 62
     3
 10
203.838256835938
 20
49.4806251525879
 30
0.0
 11
203.838256835938
 21
190.480621337891
 31
0.0
  0
LINE
  5
   268
  8
0
  6
CONTINUOUS
 62
     3
 10
202.838256835938
 20
50.4806251525879
 30
0.0
 11
202.838256835938
 21
56.9806251525879
 31
0.0
  0
LINE
  5
   269
  8
0
  6
CONTINUOUS
 62
     3
 10
202.838256835938
 20
162.980621337891
 30
0.0
 11
202.838256835938
 21
169.480621337891
 31
0.0
  0
LINE
  5
   26A
  8
0
  6
CONTINUOUS
 62
     3
 10
202.838256835938
 20
29.4806251525879
 30
0.0
 11
202.838256835938
 21
49.4806251525879
 31
0.0
  0
LINE
  5
   26B
  8
0
  6
CONTINUOUS
 62
     3
 10
60.8382568359375
 20
170.480621337891
 30
0.0
 11
203.838256835938
 21
170.480621337891
 31
0.0
  0
LINE
  5
   26C
  8
0
  6
CONTINUOUS
 62
     3
 10
61.8382568359375
 20
169.480621337891
 30
0.0
 11
202.838256835938
 21
169.480621337891
 31
0.0
  0
ARC
  5
   26D
  8
0
  6
CONTINUOUS
 62
     3
 10
57.5882568359375
 20
30.7306251525879
 30
0.0
 40
1.25
 50
180.0
 51
270.0
  0
ARC
  5
   26E
  8
0
  6
CONTINUOUS
 62
     3
 10
207.088256835938
 20
30.7306251525879
 30
0.0
 40
1.25
 50
270.0
 51
360.0
  0
ARC
  5
   26F
  8
0
  6
CONTINUOUS
 62
     3
 10
207.088256835938
 20
189.230621337891
 30
0.0
 40
1.25
 50
0.0
 51
90.0
  0
ARC
  5
   270
  8
0
  6
CONTINUOUS
 62
     3
 10
57.5882568359375
 20
189.230621337891
 30
0.0
 40
1.25
 50
90.0
 51
180.0
  0
LINE
  5
   271
  8
0
  6
DOT
 62
     3
 10
60.3382577409677
 20
179.7306252571
 30
0.0
 11
60.8382568359375
 21
179.7306252571
 31
0.0
  0
LINE
  5
   272
  8
0
  6
DOT
 62
     3
 10
60.3382577409676
 20
181.2306252571
 30
0.0
 11
60.8382568359375
 21
181.2306252571
 31
0.0
  0
LINE
  5
   273
  8
0
  6
CONTINUOUS
 62
     3
 10
203.338257745313
 20
179.730625257273
 30
0.0
 11
203.838256835938
 21
179.730625257273
 31
0.0
  0
LINE
  5
   274
  8
0
  6
CONTINUOUS
 62
     3
 10
203.338257745314
 20
181.230625257273
 30
0.0
 11
203.838256835938
 21
181.230625257273
 31
0.0
  0
ARC
  5
   275
  8
0
  6
DOT
 62
     3
 10
60.3382577401871
 20
180.480625257147
 30
0.0
 40
0.749999999345164
 50
90.0
 51
270.0
  0
ARC
  5
   276
  8
0
  6
CONTINUOUS
 62
     3
 10
61.338257740822
 20
180.480625256974
 30
0.0
 40
0.750000000009701
 50
270.0
 51
450.0
  0
LINE
  5
   277
  8
0
  6
CONTINUOUS
 62
     3
 10
60.8382568359375
 20
181.2306252571
 30
0.0
 11
61.3382577409688
 21
181.2306252571
 31
0.0
  0
LINE
  5
   278
  8
0
  6
CONTINUOUS
 62
     3
 10
60.8382568359375
 20
179.7306252571
 30
0.0
 11
61.3382577409689
 21
179.7306252571
 31
0.0
  0
ARC
  5
   279
  8
0
  6
CONTINUOUS
 62
     3
 10
203.338257745503
 20
180.480625256952
 30
0.0
 40
0.750000000048506
 50
90.0000000038822
 51
269.999999996024
  0
ARC
  5
   27A
  8
0
  6
DOT
 62
     3
 10
204.338257745421
 20
180.480625256965
 30
0.0
 40
0.750000000029104
 50
270.000000002449
 51
449.999999997486
  0
LINE
  5
   27B
  8
0
  6
DOT
 62
     3
 10
203.838256835938
 20
181.230625257273
 30
0.0
 11
204.338257745315
 21
181.230625257273
 31
0.0
  0
LINE
  5
   27C
  8
0
  6
DOT
 62
     3
 10
203.838256835938
 20
179.730625257273
 30
0.0
 11
204.338257745315
 21
179.730625257273
 31
0.0
  0
POINT
  5
   27D
  8
0
  6
CONTINUOUS
 62
     7
 10
132.338256835938
 20
109.980623245239
 30
0.0
  0
ENDBLK
  5
   27E
  8
0
  6
CONTINUOUS
 62
     7
  0
BLOCK
  5
   27F
  8
0
  6
CONTINUOUS
 62
     7
  2
*UDIM392
 70
    65
 10
0.0
 20
0.0
 30
0.0
  3
*UDIM392
  0
TEXT
  5
   280
  8
0
  6
CONTINUOUS
 62
     7
 10
-636.957530647942
 20
89.2261233168916
 30
0.0
 40
3.00000011722246
  1
152
 50
359.999999948034
 41
0.933333333333333
 72
     1
 11
-633.0575304942
 21
90.7261233719853
 31
0.0
 73
     2
  0
TEXT
  5
   281
  8
0
  6
CONTINUOUS
 62
     7
 10
-637.607530592205
 20
84.7261232433033
 30
0.0
 40
3.50000007417466
  1
= =
 50
359.999999948034
 41
0.933333333333333
 72
     1
 11
-633.0575304942
 21
86.4761232762867
 31
0.0
 73
     2
  0
LINE
  5
   282
  8
0
  6
CONTINUOUS
 62
     7
 10
-598.582532644272
 20
24.8111123465775
 30
0.0
 11
-598.582532644272
 21
90.226123313374
 31
0.0
  0
LINE
  5
   283
  8
0
  6
CONTINUOUS
 62
     7
 10
-666.982530832291
 20
24.8111123465775
 30
0.0
 11
-666.982530832291
 21
90.226123313374
 31
0.0
  0
LINE
  5
   284
  8
0
  6
CONTINUOUS
 62
     7
 10
-598.582532644272
 20
88.226123313374
 30
0.0
 11
-666.982530832291
 21
88.226123313374
 31
0.0
  0
LINE
  5
   285
  8
0
  6
CONTINUOUS
 62
     7
 10
-601.536955921479
 20
87.7051788834224
 30
0.0
 11
-598.582532644272
 21
88.226123313374
 31
0.0
  0
LINE
  5
   286
  8
0
  6
CONTINUOUS
 62
     7
 10
-598.582532644272
 20
88.226123313374
 30
0.0
 11
-601.536955921479
 21
88.7470677433257
 31
0.0
  0
LINE
  5
   287
  8
0
  6
CONTINUOUS
 62
     7
 10
-664.028107555084
 20
88.7470677433257
 30
0.0
 11
-666.982530832291
 21
88.226123313374
 31
0.0
  0
LINE
  5
   288
  8
0
  6
CONTINUOUS
 62
     7
 10
-666.982530832291
 20
88.226123313374
 30
0.0
 11
-664.028107555084
 21
87.7051788834224
 31
0.0
  0
ENDBLK
  5
   289
  8
0
  6
CONTINUOUS
 62
     7
  0
BLOCK
  5
   28A
  8
0
  6
CONTINUOUS
 62
     7
  2
*UDIM393
 70
    65
 10
0.0
 20
0.0
 30
0.0
  3
*UDIM393
  0
TEXT
  5
   28B
  8
0
  6
CONTINUOUS
 62
     7
 10
-631.574820712178
 20
53.3981996365501
 30
0.0
 40
3.00000011722246
  1
140
 50
359.999999948034
 41
0.933333333333333
 72
     1
 11
-627.674820558436
 21
54.8981996916438
 31
0.0
 73
     2
  0
TEXT
  5
   28C
  8
0
  6
CONTINUOUS
 62
     7
 10
-632.224820656441
 20
48.8981995629617
 30
0.0
 40
3.50000007417466
  1
= =
 50
359.999999948034
 41
0.933333333333333
 72
     1
 11
-627.674820558436
 21
50.6481995959452
 31
0.0
 73
     2
  0
LINE
  5
   28D
  8
0
  6
CONTINUOUS
 62
     7
 10
-601.28251883984
 20
12.5486170873479
 30
0.0
 11
-601.28251883984
 21
54.3981996330325
 31
0.0
  0
LINE
  5
   28E
  8
0
  6
CONTINUOUS
 62
     7
 10
-664.282524037361
 20
12.5486100716253
 30
0.0
 11
-664.282524037361
 21
54.3981996330325
 31
0.0
  0
LINE
  5
   28F
  8
0
  6
CONTINUOUS
 62
     7
 10
-601.28251883984
 20
52.3981996330325
 30
0.0
 11
-664.282524037361
 21
52.3981996330325
 31
0.0
  0
LINE
  5
   290
  8
0
  6
CONTINUOUS
 62
     7
 10
-604.236942117047
 20
51.8772552030809
 30
0.0
 11
-601.28251883984
 21
52.3981996330325
 31
0.0
  0
LINE
  5
   291
  8
0
  6
CONTINUOUS
 62
     7
 10
-601.28251883984
 20
52.3981996330325
 30
0.0
 11
-604.236942117047
 21
52.9191440629842
 31
0.0
  0
LINE
  5
   292
  8
0
  6
CONTINUOUS
 62
     7
 10
-661.328100760154
 20
52.9191440629842
 30
0.0
 11
-664.282524037361
 21
52.3981996330325
 31
0.0
  0
LINE
  5
   293
  8
0
  6
CONTINUOUS
 62
     7
 10
-664.282524037361
 20
52.3981996330325
 30
0.0
 11
-661.328100760154
 21
51.8772552030809
 31
0.0
  0
ENDBLK
  5
   294
  8
0
  6
CONTINUOUS
 62
     7
  0
BLOCK
  5
   295
  8
0
  6
CONTINUOUS
 62
     7
  2
*UDIM394
 70
    65
 10
0.0
 20
0.0
 30
0.0
  3
*UDIM394
  0
TEXT
  5
   296
  8
0
  6
CONTINUOUS
 62
     7
 10
-578.573401963511
 20
-16.0263879786992
 30
0.0
 40
3.00000011722246
  1
161
 50
89.9999999480344
 41
0.933333333333333
 72
     1
 11
-580.07340201859
 21
-12.1263878249514
 31
0.0
 73
     2
  0
TEXT
  5
   297
  8
0
  6
CONTINUOUS
 62
     7
 10
-574.073401889925
 20
-16.6763879229635
 30
0.0
 40
3.50000007417466
  1
= =
 50
89.9999999480344
 41
0.933333333333333
 72
     1
 11
-575.823401922892
 21
-12.1263878249514
 31
0.0
 73
     2
  0
LINE
  5
   298
  8
0
  6
CONTINUOUS
 62
     7
 10
-598.145032629371
 20
-48.0763840324404
 30
0.0
 11
-575.573401959979
 21
-48.0763840324404
 31
0.0
  0
LINE
  5
   299
  8
0
  6
CONTINUOUS
 62
     7
 10
-598.145032629371
 20
24.3736123316763
 30
0.0
 11
-575.573401959979
 21
24.3736123316763
 31
0.0
  0
LINE
  5
   29A
  8
0
  6
CONTINUOUS
 62
     7
 10
-577.573401959979
 20
-48.0763840324404
 30
0.0
 11
-577.573401959979
 21
24.3736123316763
 31
0.0
  0
LINE
  5
   29B
  8
0
  6
CONTINUOUS
 62
     7
 10
-578.094346389931
 20
-45.1219607552334
 30
0.0
 11
-577.573401959979
 21
-48.0763840324404
 31
0.0
  0
LINE
  5
   29C
  8
0
  6
CONTINUOUS
 62
     7
 10
-577.573401959979
 20
-48.0763840324404
 30
0.0
 11
-577.052457530027
 21
-45.1219607552334
 31
0.0
  0
LINE
  5
   29D
  8
0
  6
CONTINUOUS
 62
     7
 10
-577.052457530027
 20
21.4191890544694
 30
0.0
 11
-577.573401959979
 21
24.3736123316763
 31
0.0
  0
LINE
  5
   29E
  8
0
  6
CONTINUOUS
 62
     7
 10
-577.573401959979
 20
24.3736123316763
 30
0.0
 11
-578.094346389931
 21
21.4191890544694
 31
0.0
  0
ENDBLK
  5
   29F
  8
0
  6
CONTINUOUS
 62
     7
  0
BLOCK
  5
   2A0
  8
0
  6
CONTINUOUS
 62
     7
  2
PIA_DIA______
 70
    64
 10
0.0
 20
0.0
 30
0.0
  3
PIA_DIA______
  0
LINE
  5
   2A1
  8
0
  6
CONTINUOUS
 62
    90
 10
-142.750063590619
 20
202.000276184082
 30
0.0
 11
-76.7497798706785
 21
202.000276184082
 31
0.0
  0
LINE
  5
   2A2
  8
0
  6
CONTINUOUS
 62
    90
 10
-144.750063697075
 20
200.000274033106
 30
0.0
 11
-144.749992370648
 21
132.99993895082
 31
0.0
  0
LINE
  5
   2A3
  8
0
  6
CONTINUOUS
 62
    90
 10
134.25
 20
133.0
 30
0.0
 11
134.25
 21
200.000276184082
 31
0.0
  0
ARC
  5
   2A4
  8
0
  6
CONTINUOUS
 62
    90
 10
132.25
 20
200.000276184082
 30
0.0
 40
2.0
 50
0.0
 51
90.0
  0
ARC
  5
   2A5
  8
0
  6
CONTINUOUS
 62
    90
 10
-142.750063590619
 20
200.000276184082
 30
0.0
 40
2.0
 50
90.0
 51
180.000060995265
  0
LINE
  5
   2A6
  8
0
  6
CONTINUOUS
 62
    90
 10
66.2501896117433
 20
202.000276184082
 30
0.0
 11
132.25
 21
202.000276184082
 31
0.0
  0
LINE
  5
   2A7
  8
0
  6
CONTINUOUS
 62
    90
 10
-3.74977987067851
 20
202.000276184082
 30
0.0
 11
63.2501896117433
 21
202.000276184082
 31
0.0
  0
LINE
  5
   2A8
  8
0
  6
CONTINUOUS
 62
     7
 10
66.2501896117433
 20
138.000030517578
 30
0.0
 11
66.2501896117433
 21
229.599510162926
 31
0.0
  0
LINE
  5
   2A9
  8
0
  6
CONTINUOUS
 62
     7
 10
63.2501896117433
 20
138.000030517578
 30
0.0
 11
63.2501896117433
 21
229.599510162926
 31
0.0
  0
LINE
  5
   2AA
  8
0
  6
CONTINUOUS
 62
     7
 10
-3.74977987067851
 20
138.000030517578
 30
0.0
 11
-3.74977987067851
 21
229.499510162926
 31
0.0
  0
LINE
  5
   2AB
  8
0
  6
CONTINUOUS
 62
     7
 10
-6.74977987067851
 20
138.000030517578
 30
0.0
 11
-6.74977987067851
 21
229.499510162926
 31
0.0
  0
LINE
  5
   2AC
  8
0
  6
CONTINUOUS
 62
     7
 10
63.2501896117433
 20
229.599510162926
 30
0.0
 11
66.2501896117433
 21
229.599510162926
 31
0.0
  0
LINE
  5
   2AD
  8
0
  6
CONTINUOUS
 62
     7
 10
-6.74977987067852
 20
229.499510162926
 30
0.0
 11
-3.74977987067852
 21
229.499510162926
 31
0.0
  0
LINE
  5
   2AE
  8
0
  6
CONTINUOUS
 62
     7
 10
-9.24977987067851
 20
136.000030517578
 30
0.0
 11
-9.24977987067851
 21
138.000030517578
 31
0.0
  0
LINE
  5
   2AF
  8
0
  6
CONTINUOUS
 62
     7
 10
-9.24977987067849
 20
138.000030517578
 30
0.0
 11
-6.74977987067849
 21
138.000030517578
 31
0.0
  0
LINE
  5
   2B0
  8
0
  6
CONTINUOUS
 62
     7
 10
-3.74977987067849
 20
138.000030517578
 30
0.0
 11
-1.24977987067849
 21
138.000030517578
 31
0.0
  0
LINE
  5
   2B1
  8
0
  6
CONTINUOUS
 62
     7
 10
-1.24977987067851
 20
136.000030517578
 30
0.0
 11
-1.24977987067851
 21
138.000030517578
 31
0.0
  0
LINE
  5
   2B2
  8
0
  6
CONTINUOUS
 62
     7
 10
-3.74977987067849
 20
136.000030517578
 30
0.0
 11
-1.24977987067849
 21
136.000030517578
 31
0.0
  0
LINE
  5
   2B3
  8
0
  6
CONTINUOUS
 62
     7
 10
-3.74977987067849
 20
133.000030517578
 30
0.0
 11
-2.24977987067849
 21
133.000030517578
 31
0.0
  0
LINE
  5
   2B4
  8
0
  6
CONTINUOUS
 62
     7
 10
-2.24977987067851
 20
129.399047851563
 30
0.0
 11
-2.24977987067851
 21
133.000030517578
 31
0.0
  0
LINE
  5
   2B5
  8
0
  6
CONTINUOUS
 62
     7
 10
-8.24977987067851
 20
129.399047851563
 30
0.0
 11
-8.24977987067851
 21
133.000030517578
 31
0.0
  0
LINE
  5
   2B6
  8
0
  6
CONTINUOUS
 62
     7
 10
-8.24977987067849
 20
133.000030517578
 30
0.0
 11
-6.74977987067849
 21
133.000030517578
 31
0.0
  0
LINE
  5
   2B7
  8
0
  6
CONTINUOUS
 62
     7
 10
-9.24977987067849
 20
136.000030517578
 30
0.0
 11
-6.74977987067849
 21
136.000030517578
 31
0.0
  0
LINE
  5
   2B8
  8
0
  6
CONTINUOUS
 62
     7
 10
-8.24977987067849
 20
129.399047851563
 30
0.0
 11
-2.24977987067849
 21
129.399047851563
 31
0.0
  0
LINE
  5
   2B9
  8
0
  6
CONTINUOUS
 62
     7
 10
-6.74977987067851
 20
133.000030517578
 30
0.0
 11
-6.74977987067851
 21
136.000030517578
 31
0.0
  0
LINE
  5
   2BA
  8
0
  6
CONTINUOUS
 62
     7
 10
-3.74977987067851
 20
133.000030517578
 30
0.0
 11
-3.74977987067851
 21
136.000030517578
 31
0.0
  0
POINT
  5
   2BB
  8
0
  6
CONTINUOUS
 62
     7
 10
-5.24977987067851
 20
136.000030517578
 30
0.0
  0
LINE
  5
   2BC
  8
0
  6
CONTINUOUS
 62
     7
 10
66.2501896117434
 20
138.000030517578
 30
0.0
 11
68.7501896117434
 21
138.000030517578
 31
0.0
  0
LINE
  5
   2BD
  8
0
  6
CONTINUOUS
 62
     7
 10
68.7501896117433
 20
136.000030517578
 30
0.0
 11
68.7501896117433
 21
138.000030517578
 31
0.0
  0
LINE
  5
   2BE
  8
0
  6
CONTINUOUS
 62
     7
 10
66.2501896117434
 20
136.000030517578
 30
0.0
 11
68.7501896117434
 21
136.000030517578
 31
0.0
  0
LINE
  5
   2BF
  8
0
  6
CONTINUOUS
 62
     7
 10
66.2501896117434
 20
133.000030517578
 30
0.0
 11
67.7501896117434
 21
133.000030517578
 31
0.0
  0
LINE
  5
   2C0
  8
0
  6
CONTINUOUS
 62
     7
 10
67.7501896117433
 20
129.399047851563
 30
0.0
 11
67.7501896117433
 21
133.000030517578
 31
0.0
  0
LINE
  5
   2C1
  8
0
  6
CONTINUOUS
 62
     7
 10
61.7501896117433
 20
129.399047851563
 30
0.0
 11
61.7501896117433
 21
133.000030517578
 31
0.0
  0
LINE
  5
   2C2
  8
0
  6
CONTINUOUS
 62
     7
 10
61.7501896117434
 20
133.000030517578
 30
0.0
 11
63.2501896117434
 21
133.000030517578
 31
0.0
  0
LINE
  5
   2C3
  8
0
  6
CONTINUOUS
 62
     7
 10
60.7501896117434
 20
136.000030517578
 30
0.0
 11
63.2501896117434
 21
136.000030517578
 31
0.0
  0
LINE
  5
   2C4
  8
0
  6
CONTINUOUS
 62
     7
 10
60.7501896117433
 20
136.000030517578
 30
0.0
 11
60.7501896117433
 21
138.000030517578
 31
0.0
  0
LINE
  5
   2C5
  8
0
  6
CONTINUOUS
 62
     7
 10
60.7501896117434
 20
138.000030517578
 30
0.0
 11
63.2501896117434
 21
138.000030517578
 31
0.0
  0
LINE
  5
   2C6
  8
0
  6
CONTINUOUS
 62
     7
 10
61.7501896117434
 20
129.399047851563
 30
0.0
 11
67.7501896117434
 21
129.399047851563
 31
0.0
  0
LINE
  5
   2C7
  8
0
  6
CONTINUOUS
 62
     7
 10
63.2501896117433
 20
133.000030517578
 30
0.0
 11
63.2501896117433
 21
136.000030517578
 31
0.0
  0
LINE
  5
   2C8
  8
0
  6
CONTINUOUS
 62
     7
 10
66.2501896117433
 20
133.000030517578
 30
0.0
 11
66.2501896117433
 21
136.000030517578
 31
0.0
  0
LINE
  5
   2C9
  8
0
  6
CONTINUOUS
 62
     7
 10
-76.7497798706785
 20
229.499510162926
 30
0.0
 11
-73.7497798706785
 21
229.499510162926
 31
0.0
  0
LINE
  5
   2CA
  8
0
  6
CONTINUOUS
 62
     7
 10
-76.7497798706785
 20
138.000030517578
 30
0.0
 11
-76.7497798706785
 21
229.499510162926
 31
0.0
  0
LINE
  5
   2CB
  8
0
  6
CONTINUOUS
 62
     7
 10
-73.7497798706785
 20
138.000030517578
 30
0.0
 11
-73.7497798706785
 21
229.499510162926
 31
0.0
  0
LINE
  5
   2CC
  8
0
  6
CONTINUOUS
 62
     7
 10
-79.2497798706785
 20
138.000030517578
 30
0.0
 11
-76.7497798706785
 21
138.000030517578
 31
0.0
  0
LINE
  5
   2CD
  8
0
  6
CONTINUOUS
 62
     7
 10
-79.2497798706785
 20
136.000030517578
 30
0.0
 11
-79.2497798706785
 21
138.000030517578
 31
0.0
  0
LINE
  5
   2CE
  8
0
  6
CONTINUOUS
 62
     7
 10
-79.2497798706785
 20
136.000030517578
 30
0.0
 11
-76.7497798706785
 21
136.000030517578
 31
0.0
  0
LINE
  5
   2CF
  8
0
  6
CONTINUOUS
 62
     7
 10
-76.7497798706785
 20
133.000030517578
 30
0.0
 11
-76.7497798706785
 21
136.000030517578
 31
0.0
  0
LINE
  5
   2D0
  8
0
  6
CONTINUOUS
 62
     7
 10
-78.2497798706785
 20
133.000030517578
 30
0.0
 11
-76.7497798706785
 21
133.000030517578
 31
0.0
  0
LINE
  5
   2D1
  8
0
  6
CONTINUOUS
 62
     7
 10
-78.2497798706785
 20
129.399047851563
 30
0.0
 11
-78.2497798706785
 21
133.000030517578
 31
0.0
  0
LINE
  5
   2D2
  8
0
  6
CONTINUOUS
 62
     7
 10
-78.2497798706785
 20
129.399047851563
 30
0.0
 11
-72.2497798706785
 21
129.399047851563
 31
0.0
  0
LINE
  5
   2D3
  8
0
  6
CONTINUOUS
 62
     7
 10
-72.2497798706785
 20
129.399047851563
 30
0.0
 11
-72.2497798706785
 21
133.000030517578
 31
0.0
  0
LINE
  5
   2D4
  8
0
  6
CONTINUOUS
 62
     7
 10
-73.7497798706785
 20
133.000030517578
 30
0.0
 11
-72.2497798706785
 21
133.000030517578
 31
0.0
  0
LINE
  5
   2D5
  8
0
  6
CONTINUOUS
 62
     7
 10
-73.7497798706785
 20
133.000030517578
 30
0.0
 11
-73.7497798706785
 21
136.000030517578
 31
0.0
  0
LINE
  5
   2D6
  8
0
  6
CONTINUOUS
 62
     7
 10
-73.7497798706785
 20
136.000030517578
 30
0.0
 11
-71.2497798706785
 21
136.000030517578
 31
0.0
  0
LINE
  5
   2D7
  8
0
  6
CONTINUOUS
 62
     7
 10
-71.2497798706785
 20
136.000030517578
 30
0.0
 11
-71.2497798706785
 21
138.000030517578
 31
0.0
  0
LINE
  5
   2D8
  8
0
  6
CONTINUOUS
 62
     7
 10
-73.7497798706785
 20
138.000030517578
 30
0.0
 11
-71.2497798706785
 21
138.000030517578
 31
0.0
  0
POINT
  5
   2D9
  8
0
  6
CONTINUOUS
 62
     7
 10
-75.2497798706785
 20
136.000030517578
 30
0.0
  0
LINE
  5
   2DA
  8
0
  6
CONTINUOUS
 62
    90
 10
-73.7497798706785
 20
202.000276184082
 30
0.0
 11
-6.74981038825666
 21
202.000276184082
 31
0.0
  0
ENDBLK
  5
   2DB
  8
0
  6
CONTINUOUS
 62
     7
  0
BLOCK
  5
   2DC
  8
0
  6
CONTINUOUS
 62
     7
  2
*UDIM395
 70
    65
 10
0.0
 20
0.0
 30
0.0
  3
*UDIM395
  0
TEXT
  5
   2DD
  8
0
  6
CONTINUOUS
 62
     7
 10
-614.472279675614
 20
-93.0925861030163
 30
0.0
 40
3.00000011722246
  1
70
 50
359.999999948034
 41
0.933333333333333
 72
     1
 11
-611.972279576576
 21
-91.5925860466599
 31
0.0
 73
     2
  0
LINE
  5
   2DE
  8
0
  6
CONTINUOUS
 62
     7
 10
-601.282532886663
 20
30.1243267989025
 30
0.0
 11
-601.282572508231
 21
-96.0925861052711
 31
0.0
  0
LINE
  5
   2DF
  8
0
  6
CONTINUOUS
 62
     7
 10
-632.782532052198
 20
-46.5291780479582
 30
0.0
 11
-632.782547610968
 21
-96.0925861052711
 31
0.0
  0
LINE
  5
   2E0
  8
0
  6
CONTINUOUS
 62
     7
 10
-601.282571880398
 20
-94.0925861052712
 30
0.0
 11
-632.782546983135
 21
-94.0925861052712
 31
0.0
  0
LINE
  5
   2E1
  8
0
  6
CONTINUOUS
 62
     7
 10
-604.236995157605
 20
-94.6135305352228
 30
0.0
 11
-601.282571880398
 21
-94.0925861052712
 31
0.0
  0
LINE
  5
   2E2
  8
0
  6
CONTINUOUS
 62
     7
 10
-601.282571880398
 20
-94.0925861052712
 30
0.0
 11
-604.236995157605
 21
-93.5716416753195
 31
0.0
  0
LINE
  5
   2E3
  8
0
  6
CONTINUOUS
 62
     7
 10
-629.828123705928
 20
-93.5716416753195
 30
0.0
 11
-632.782546983135
 21
-94.0925861052712
 31
0.0
  0
LINE
  5
   2E4
  8
0
  6
CONTINUOUS
 62
     7
 10
-632.782546983135
 20
-94.0925861052712
 30
0.0
 11
-629.828123705928
 21
-94.6135305352228
 31
0.0
  0
ENDBLK
  5
   2E5
  8
0
  6
CONTINUOUS
 62
     7
  0
BLOCK
  5
   2E6
  8
0
  6
CONTINUOUS
 62
     7
  2
*UDIM396
 70
    65
 10
0.0
 20
0.0
 30
0.0
  3
*UDIM396
  0
TEXT
  5
   2E7
  8
0
  6
CONTINUOUS
 62
     7
 10
-657.221449564821
 20
-93.0925861030163
 30
0.0
 40
3.00000011722246
  1
70
 50
359.999999948034
 41
0.933333333333333
 72
     1
 11
-654.721449465783
 21
-91.5925860466599
 31
0.0
 73
     2
  0
LINE
  5
   2E8
  8
0
  6
CONTINUOUS
 62
     7
 10
-664.282531217733
 20
31.0552995503893
 30
0.0
 11
-664.282571131549
 21
-96.0925861052711
 31
0.0
  0
LINE
  5
   2E9
  8
0
  6
CONTINUOUS
 62
     7
 10
-632.782546983135
 20
-94.0925861052712
 30
0.0
 11
-664.282570503716
 21
-94.0925861052712
 31
0.0
  0
LINE
  5
   2EA
  8
0
  6
CONTINUOUS
 62
     7
 10
-635.736970260342
 20
-94.6135305352228
 30
0.0
 11
-632.782546983135
 21
-94.0925861052712
 31
0.0
  0
LINE
  5
   2EB
  8
0
  6
CONTINUOUS
 62
     7
 10
-632.782546983135
 20
-94.0925861052712
 30
0.0
 11
-635.736970260342
 21
-93.5716416753195
 31
0.0
  0
LINE
  5
   2EC
  8
0
  6
CONTINUOUS
 62
     7
 10
-661.328147226509
 20
-93.5716416753195
 30
0.0
 11
-664.282570503716
 21
-94.0925861052712
 31
0.0
  0
LINE
  5
   2ED
  8
0
  6
CONTINUOUS
 62
     7
 10
-664.282570503716
 20
-94.0925861052712
 30
0.0
 11
-661.328147226509
 21
-94.6135305352228
 31
0.0
  0
ENDBLK
  5
   2EE
  8
0
  6
CONTINUOUS
 62
     7
  0
BLOCK
  5
   2EF
  8
0
  6
CONTINUOUS
 62
     7
  2
*UDIM397
 70
    65
 10
0.0
 20
0.0
 30
0.0
  3
*UDIM397
  0
TEXT
  5
   2F0
  8
0
  6
CONTINUOUS
 62
     7
 10
-689.260633829081
 20
-93.0925861030163
 30
0.0
 40
3.00000011722246
  1
70
 50
359.999999948034
 41
0.933333333333333
 72
     1
 11
-686.760633730043
 21
-91.5925860466599
 31
0.0
 73
     2
  0
LINE
  5
   2F1
  8
0
  6
CONTINUOUS
 62
     7
 10
-695.782530383268
 20
31.0552995503893
 30
0.0
 11
-695.782570297084
 21
-96.0925861052711
 31
0.0
  0
LINE
  5
   2F2
  8
0
  6
CONTINUOUS
 62
     7
 10
-664.282570503716
 20
-94.0925861052712
 30
0.0
 11
-695.782569669251
 21
-94.0925861052712
 31
0.0
  0
LINE
  5
   2F3
  8
0
  6
CONTINUOUS
 62
     7
 10
-667.236993780923
 20
-94.6135305352228
 30
0.0
 11
-664.282570503716
 21
-94.0925861052712
 31
0.0
  0
LINE
  5
   2F4
  8
0
  6
CONTINUOUS
 62
     7
 10
-664.282570503716
 20
-94.0925861052712
 30
0.0
 11
-667.236993780923
 21
-93.5716416753195
 31
0.0
  0
LINE
  5
   2F5
  8
0
  6
CONTINUOUS
 62
     7
 10
-692.828146392044
 20
-93.5716416753195
 30
0.0
 11
-695.782569669251
 21
-94.0925861052712
 31
0.0
  0
LINE
  5
   2F6
  8
0
  6
CONTINUOUS
 62
     7
 10
-695.782569669251
 20
-94.0925861052712
 30
0.0
 11
-692.828146392044
 21
-94.6135305352228
 31
0.0
  0
ENDBLK
  5
   2F7
  8
0
  6
CONTINUOUS
 62
     7
  0
BLOCK
  5
   2F8
  8
0
  6
CONTINUOUS
 62
     7
  2
*UDIM398
 70
    65
 10
0.0
 20
0.0
 30
0.0
  3
*UDIM398
  0
TEXT
  5
   2F9
  8
0
  6
CONTINUOUS
 62
     7
 10
-615.261899820791
 20
63.2005570503363
 30
0.0
 40
3.00000011722246
  1
104,75
 50
359.999999948034
 41
0.933333333333333
 72
     1
 11
-607.161899502938
 21
64.7005571016418
 31
0.0
 73
     2
  0
LINE
  5
   2FA
  8
0
  6
CONTINUOUS
 62
     7
 10
-585.645022656891
 20
-34.4763646251691
 30
0.0
 11
-585.644991680579
 21
64.2005570430304
 31
0.0
  0
LINE
  5
   2FB
  8
0
  6
CONTINUOUS
 62
     7
 10
-585.644992308412
 20
62.2005570430305
 30
0.0
 11
-632.782539174658
 21
62.2005570430305
 31
0.0
  0
LINE
  5
   2FC
  8
0
  6
CONTINUOUS
 62
     7
 10
-588.599415585619
 20
61.6796126130789
 30
0.0
 11
-585.644992308412
 21
62.2005570430305
 31
0.0
  0
LINE
  5
   2FD
  8
0
  6
CONTINUOUS
 62
     7
 10
-585.644992308412
 20
62.2005570430305
 30
0.0
 11
-588.599415585619
 21
62.7215014729822
 31
0.0
  0
LINE
  5
   2FE
  8
0
  6
CONTINUOUS
 62
     7
 10
-629.828115897451
 20
62.7215014729822
 30
0.0
 11
-632.782539174658
 21
62.2005570430305
 31
0.0
  0
LINE
  5
   2FF
  8
0
  6
CONTINUOUS
 62
     7
 10
-632.782539174658
 20
62.2005570430305
 30
0.0
 11
-629.828115897451
 21
61.6796126130789
 31
0.0
  0
ENDBLK
  5
   300
  8
0
  6
CONTINUOUS
 62
     7
  0
BLOCK
  5
   301
  8
0
  6
CONTINUOUS
 62
     7
  2
*UDIM399
 70
    65
 10
0.0
 20
0.0
 30
0.0
  3
*UDIM399
  0
TEXT
  5
   302
  8
0
  6
CONTINUOUS
 62
     7
 10
-718.43838792328
 20
56.705392184791
 30
0.0
 40
3.00000011722246
  1
66
 50
89.9999999480344
 41
0.933333333333333
 72
     1
 11
-719.938387979627
 21
59.205392283835
 31
0.0
 73
     2
  0
LINE
  5
   303
  8
0
  6
CONTINUOUS
 62
     7
 10
-710.957524080772
 20
44.5111266076538
 30
0.0
 11
-719.438387921016
 21
44.5111266076538
 31
0.0
  0
LINE
  5
   304
  8
0
  6
CONTINUOUS
 62
     7
 10
-711.520018651458
 20
74.2113047559739
 30
0.0
 11
-719.438387921016
 21
74.2113047559739
 31
0.0
  0
LINE
  5
   305
  8
0
  6
CONTINUOUS
 62
     7
 10
-717.438387921016
 20
44.5111266076538
 30
0.0
 11
-717.438387921016
 21
74.2113047559739
 31
0.0
  0
LINE
  5
   306
  8
0
  6
CONTINUOUS
 62
     7
 10
-718.214845077435
 20
47.4089040808644
 30
0.0
 11
-717.438387921016
 21
44.5111266076538
 31
0.0
  0
LINE
  5
   307
  8
0
  6
CONTINUOUS
 62
     7
 10
-717.438387921016
 20
44.5111266076538
 30
0.0
 11
-716.661930764598
 21
47.4089040808644
 31
0.0
  0
LINE
  5
   308
  8
0
  6
CONTINUOUS
 62
     7
 10
-716.661930764598
 20
71.3135272827633
 30
0.0
 11
-717.438387921016
 21
74.2113047559739
 31
0.0
  0
LINE
  5
   309
  8
0
  6
CONTINUOUS
 62
     7
 10
-717.438387921016
 20
74.2113047559739
 30
0.0
 11
-718.214845077435
 21
71.3135272827633
 31
0.0
  0
ENDBLK
  5
   30A
  8
0
  6
CONTINUOUS
 62
     7
  0
BLOCK
  5
   30B
  8
0
  6
CONTINUOUS
 62
     7
  2
*UDIM400
 70
    65
 10
0.0
 20
0.0
 30
0.0
  3
*UDIM400
  0
TEXT
  5
   30C
  8
0
  6
CONTINUOUS
 62
     7
 10
-718.256862786058
 20
-91.509882300903
 30
0.0
 40
3.00000011722246
  1
66
 50
89.9999999480344
 41
0.933333333333333
 72
     1
 11
-719.756862842405
 21
-89.009882201859
 31
0.0
 73
     2
  0
LINE
  5
   30D
  8
0
  6
CONTINUOUS
 62
     7
 10
-711.520018652998
 20
-105.789055430556
 30
0.0
 11
-719.256862783794
 21
-105.789055430556
 31
0.0
  0
LINE
  5
   30E
  8
0
  6
CONTINUOUS
 62
     7
 10
-710.732543340268
 20
-76.0888772822101
 30
0.0
 11
-719.256862783794
 21
-76.0888772822101
 31
0.0
  0
LINE
  5
   30F
  8
0
  6
CONTINUOUS
 62
     7
 10
-717.256862783794
 20
-105.789055430556
 30
0.0
 11
-717.256862783794
 21
-76.0888772822101
 31
0.0
  0
LINE
  5
   310
  8
0
  6
CONTINUOUS
 62
     7
 10
-718.033319940212
 20
-102.891277957346
 30
0.0
 11
-717.256862783794
 21
-105.789055430556
 31
0.0
  0
LINE
  5
   311
  8
0
  6
CONTINUOUS
 62
     7
 10
-717.256862783794
 20
-105.789055430556
 30
0.0
 11
-716.480405627375
 21
-102.891277957346
 31
0.0
  0
LINE
  5
   312
  8
0
  6
CONTINUOUS
 62
     7
 10
-716.480405627375
 20
-78.9866547554206
 30
0.0
 11
-717.256862783794
 21
-76.0888772822101
 31
0.0
  0
LINE
  5
   313
  8
0
  6
CONTINUOUS
 62
     7
 10
-717.256862783794
 20
-76.0888772822101
 30
0.0
 11
-718.033319940212
 21
-78.9866547554206
 31
0.0
  0
ENDBLK
  5
   314
  8
0
  6
CONTINUOUS
 62
     7
  0
BLOCK
  5
   315
  8
0
  6
CONTINUOUS
 62
     7
  2
*UDIM401
 70
    65
 10
0.0
 20
0.0
 30
0.0
  3
*UDIM401
  0
TEXT
  5
   316
  8
0
  6
CONTINUOUS
 62
     7
 10
-725.336343140259
 20
-102.426278237258
 30
0.0
 40
3.00000011722246
  1
93,5
 50
89.9999999480344
 41
0.933333333333333
 72
     1
 11
-726.83634319407
 21
-97.126278028806
 31
0.0
 73
     2
  0
LINE
  5
   317
  8
0
  6
CONTINUOUS
 62
     7
 10
-681.819878599553
 20
-118.163678775402
 30
0.0
 11
-726.336343135459
 21
-118.163678775402
 31
0.0
  0
LINE
  5
   318
  8
0
  6
CONTINUOUS
 62
     7
 10
-710.732543340268
 20
-76.0888772822101
 30
0.0
 11
-726.336343135459
 21
-76.0888772822101
 31
0.0
  0
LINE
  5
   319
  8
0
  6
CONTINUOUS
 62
     7
 10
-724.336343135459
 20
-118.163678775402
 30
0.0
 11
-724.336343135459
 21
-76.0888772822101
 31
0.0
  0
LINE
  5
   31A
  8
0
  6
CONTINUOUS
 62
     7
 10
-725.112800291878
 20
-115.265901302191
 30
0.0
 11
-724.336343135459
 21
-118.163678775402
 31
0.0
  0
LINE
  5
   31B
  8
0
  6
CONTINUOUS
 62
     7
 10
-724.336343135459
 20
-118.163678775402
 30
0.0
 11
-723.55988597904
 21
-115.265901302191
 31
0.0
  0
LINE
  5
   31C
  8
0
  6
CONTINUOUS
 62
     7
 10
-723.55988597904
 20
-78.9866547554206
 30
0.0
 11
-724.336343135459
 21
-76.0888772822101
 31
0.0
  0
LINE
  5
   31D
  8
0
  6
CONTINUOUS
 62
     7
 10
-724.336343135459
 20
-76.0888772822101
 30
0.0
 11
-725.112800291878
 21
-78.9866547554206
 31
0.0
  0
ENDBLK
  5
   31E
  8
0
  6
CONTINUOUS
 62
     7
  0
BLOCK
  5
   31F
  8
0
  6
CONTINUOUS
 62
     7
  2
*UDIM402
 70
    65
 10
0.0
 20
0.0
 30
0.0
  3
*UDIM402
  0
TEXT
  5
   320
  8
0
  6
CONTINUOUS
 62
     7
 10
-725.427081950498
 20
60.2485607205425
 30
0.0
 40
3.00000011722246
  1
93,5
 50
89.9999999480344
 41
0.933333333333333
 72
     1
 11
-726.927082004309
 21
65.5485609289941
 31
0.0
 73
     2
  0
LINE
  5
   321
  8
0
  6
CONTINUOUS
 62
     7
 10
-710.957524080772
 20
44.5111276722221
 30
0.0
 11
-726.427104341462
 21
44.5111441406454
 31
0.0
  0
LINE
  5
   322
  8
0
  6
CONTINUOUS
 62
     7
 10
-681.819878604845
 20
86.5859291653876
 30
0.0
 11
-726.427059549933
 21
86.5859766527744
 31
0.0
  0
LINE
  5
   323
  8
0
  6
CONTINUOUS
 62
     7
 10
-724.427104341463
 20
44.511142011509
 30
0.0
 11
-724.427059549934
 21
86.585974523638
 31
0.0
  0
LINE
  5
   324
  8
0
  6
CONTINUOUS
 62
     7
 10
-725.203558413
 20
47.4089203113095
 30
0.0
 11
-724.427104341463
 21
44.511142011509
 31
0.0
  0
LINE
  5
   325
  8
0
  6
CONTINUOUS
 62
     7
 10
-724.427104341463
 20
44.511142011509
 30
0.0
 11
-723.650644100164
 21
47.4089186581263
 31
0.0
  0
LINE
  5
   326
  8
0
  6
CONTINUOUS
 62
     7
 10
-723.650605478398
 20
83.6881962238375
 30
0.0
 11
-724.427059549934
 21
86.585974523638
 31
0.0
  0
LINE
  5
   327
  8
0
  6
CONTINUOUS
 62
     7
 10
-724.427059549934
 20
86.585974523638
 30
0.0
 11
-725.203519791234
 21
83.6881978770207
 31
0.0
  0
ENDBLK
  5
   328
  8
0
  6
CONTINUOUS
 62
     7
  0
BLOCK
  5
   329
  8
0
  6
CONTINUOUS
 62
     7
  2
*UDIM403
 70
    65
 10
0.0
 20
0.0
 30
0.0
  3
*UDIM403
  0
TEXT
  5
   32A
  8
0
  6
CONTINUOUS
 62
     7
 10
-718.275488339106
 20
7.95486580632971
 30
0.0
 40
3.00000011722246
  1
125,25
 50
89.9999999480344
 41
0.933333333333333
 72
     1
 11
-719.775488390381
 21
16.0548661241889
 31
0.0
 73
     2
  0
LINE
  5
   32B
  8
0
  6
CONTINUOUS
 62
     7
 10
-648.520051854791
 20
44.5111197411989
 30
0.0
 11
-719.275488331769
 21
44.5111197411989
 31
0.0
  0
LINE
  5
   32C
  8
0
  6
CONTINUOUS
 62
     7
 10
-717.275488331769
 20
-11.851385850382
 30
0.0
 11
-717.275488331769
 21
44.5111197411989
 31
0.0
  0
LINE
  5
   32D
  8
0
  6
CONTINUOUS
 62
     7
 10
-717.796432761721
 20
-8.89696257317507
 30
0.0
 11
-717.275488331769
 21
-11.851385850382
 31
0.0
  0
LINE
  5
   32E
  8
0
  6
CONTINUOUS
 62
     7
 10
-717.275488331769
 20
-11.851385850382
 30
0.0
 11
-716.754543901818
 21
-8.89696257317507
 31
0.0
  0
LINE
  5
   32F
  8
0
  6
CONTINUOUS
 62
     7
 10
-716.754543901818
 20
41.556696463992
 30
0.0
 11
-717.275488331769
 21
44.5111197411989
 31
0.0
  0
LINE
  5
   330
  8
0
  6
CONTINUOUS
 62
     7
 10
-717.275488331769
 20
44.5111197411989
 30
0.0
 11
-717.796432761721
 21
41.556696463992
 31
0.0
  0
ENDBLK
  5
   331
  8
0
  6
CONTINUOUS
 62
     7
  0
BLOCK
  5
   332
  8
0
  6
CONTINUOUS
 62
     2
  2
*UDIM404
 70
    65
 10
0.0
 20
0.0
 30
0.0
  3
*UDIM404
  0
TEXT
  5
   333
  8
0
  6
CONTINUOUS
 62
     2
 10
-725.30194536352
 20
-9.6046599264098
 30
0.0
 40
3.00000011722246
  1
268
 50
89.9999999480344
 41
0.933333333333333
 72
     1
 11
-726.801945418599
 21
-5.70465977266203
 31
0.0
 73
     2
  0
LINE
  5
   334
  8
0
  6
CONTINUOUS
 62
     2
 10
-710.732543340268
 20
-76.0888772822101
 30
0.0
 11
-726.301945359987
 21
-76.0888772822101
 31
0.0
  0
LINE
  5
   335
  8
0
  6
CONTINUOUS
 62
     2
 10
-710.957524080772
 20
44.5111266076538
 30
0.0
 11
-726.301945359987
 21
44.5111266076538
 31
0.0
  0
LINE
  5
   336
  8
0
  6
CONTINUOUS
 62
     2
 10
-724.301945359987
 20
-76.0888772822101
 30
0.0
 11
-724.301945359987
 21
44.5111266076538
 31
0.0
  0
LINE
  5
   337
  8
0
  6
CONTINUOUS
 62
     2
 10
-724.822889789939
 20
-73.1344540050031
 30
0.0
 11
-724.301945359987
 21
-76.0888772822101
 31
0.0
  0
LINE
  5
   338
  8
0
  6
CONTINUOUS
 62
     2
 10
-724.301945359987
 20
-76.0888772822101
 30
0.0
 11
-723.781000930036
 21
-73.1344540050031
 31
0.0
  0
LINE
  5
   339
  8
0
  6
CONTINUOUS
 62
     2
 10
-723.781000930036
 20
41.5567033304469
 30
0.0
 11
-724.301945359987
 21
44.5111266076538
 31
0.0
  0
LINE
  5
   33A
  8
0
  6
CONTINUOUS
 62
     2
 10
-724.301945359987
 20
44.5111266076538
 30
0.0
 11
-724.822889789939
 21
41.5567033304469
 31
0.0
  0
ENDBLK
  5
   33B
  8
0
  6
CONTINUOUS
 62
     2
  0
BLOCK
  5
   33C
  8
0
  6
CONTINUOUS
 62
     7
  2
*UDIM405
 70
    65
 10
0.0
 20
0.0
 30
0.0
  3
*UDIM405
  0
TEXT
  5
   33D
  8
0
  6
CONTINUOUS
 62
     7
 10
-655.507463128301
 20
95.6644547528635
 30
0.0
 40
3.00000011722246
  1
279,5
 50
359.999999948034
 41
0.933333333333333
 72
     1
 11
-648.807462865151
 21
97.1644548054317
 31
0.0
 73
     2
  0
LINE
  5
   33E
  8
0
  6
CONTINUOUS
 62
     7
 10
-585.645022561967
 20
-34.4763646251691
 30
0.0
 11
-585.644968946378
 21
96.6644547468203
 31
0.0
  0
LINE
  5
   33F
  8
0
  6
CONTINUOUS
 62
     7
 10
-711.420019324991
 20
-34.4763920909887
 30
0.0
 11
-711.419978157719
 21
96.6644547468203
 31
0.0
  0
LINE
  5
   340
  8
0
  6
CONTINUOUS
 62
     7
 10
-585.644969764058
 20
94.6644547468204
 30
0.0
 11
-711.419978785552
 21
94.6644547468204
 31
0.0
  0
LINE
  5
   341
  8
0
  6
CONTINUOUS
 62
     7
 10
-588.599393041265
 20
94.1435103168688
 30
0.0
 11
-585.644969764058
 21
94.6644547468204
 31
0.0
  0
LINE
  5
   342
  8
0
  6
CONTINUOUS
 62
     7
 10
-585.644969764058
 20
94.6644547468204
 30
0.0
 11
-588.599393041265
 21
95.1853991767721
 31
0.0
  0
LINE
  5
   343
  8
0
  6
CONTINUOUS
 62
     7
 10
-708.465555508345
 20
95.1853991767721
 30
0.0
 11
-711.419978785552
 21
94.6644547468204
 31
0.0
  0
LINE
  5
   344
  8
0
  6
CONTINUOUS
 62
     7
 10
-711.419978785552
 20
94.6644547468204
 30
0.0
 11
-708.465555508345
 21
94.1435103168688
 31
0.0
  0
ENDBLK
  5
   345
  8
0
  6
CONTINUOUS
 62
     7
  0
ENDSEC
  0
SECTION
  2
ENTITIES
  0
LINE
  5
   346
  8
0
  6
DASHDOT
 62
     3
 10
-572.546447753906
 20
-133.474461666676
 30
0.0
 11
-572.546447753906
 21
-200.820866492481
 31
0.0
  0
LINE
  5
   347
  8
0
  6
DASHDOT
 62
     3
 10
-578.103910160187
 20
-139.164108276367
 30
0.0
 11
-602.398116156342
 21
-139.164108276367
 31
0.0
  0
LINE
  5
   348
  8
0
  6
DASHDOT
 62
     3
 10
-561.286408816543
 20
-198.414108276367
 30
0.0
 11
-601.551401202053
 21
-198.414108276367
 31
0.0
  0
LINE
  5
   349
  8
0
  6
CONTINUOUS
 62
     7
 10
-558.796447753906
 20
-134.164108276367
 30
0.0
 11
-558.796447753906
 21
-203.414108276367
 31
0.0
  0
LINE
  5
   34A
  8
0
  6
CONTINUOUS
 62
     7
 10
-607.078947753906
 20
-134.164108276367
 30
0.0
 11
-607.078947753906
 21
-203.414108276367
 31
0.0
  0
LINE
  5
   34B
  8
0
  6
CONTINUOUS
 62
     7
 10
-558.796447753906
 20
-203.414108276367
 30
0.0
 11
-607.078947753906
 21
-203.414108276367
 31
0.0
  0
LINE
  5
   34C
  8
0
  6
CONTINUOUS
 62
     7
 10
-558.796447753906
 20
-134.164108276367
 30
0.0
 11
-607.078947753906
 21
-134.164108276367
 31
0.0
  0
CIRCLE
  5
   34D
  8
0
  6
CONTINUOUS
 62
     7
 10
-598.797697753906
 20
-139.164108276367
 30
0.0
 40
0.6875
  0
CIRCLE
  5
   34E
  8
0
  6
CONTINUOUS
 62
     7
 10
-563.797697753906
 20
-139.164108276367
 30
0.0
 40
0.6875
  0
CIRCLE
  5
   34F
  8
0
  6
CONTINUOUS
 62
     7
 10
-598.797697753906
 20
-198.414108276367
 30
0.0
 40
0.6875
  0
CIRCLE
  5
   350
  8
0
  6
CONTINUOUS
 62
     7
 10
-563.827697753906
 20
-198.414108276367
 30
0.0
 40
0.6875
  0
LINE
  5
   351
  8
0
  6
DASHDOT
 62
     3
 10
-551.88215736491
 20
-166.601608276367
 30
0.0
 11
-598.09400701917
 21
-166.601608276367
 31
0.0
  0
TEXT
  5
   352
  8
0
  6
CONTINUOUS
 62
     1
 10
-535.37975978343
 20
-268.422836306742
 30
0.0
 40
2.00000008940697
  1
4POLE LOW VOLTAGE M.C.C.B SERIES ISOMAX
 50
359.999999896069
 41
0.593749948963525
 72
     1
 11
-512.342260740697
 21
-267.422836303711
 31
0.0
 73
     2
  0
TEXT
  5
   353
  8
0
  6
CONTINUOUS
 62
     1
 10
-529.442260028368
 20
-271.422836317482
 30
0.0
 40
2.00000008940697
  1
FIXED VERSION FRONT TERMINALS
 50
359.999999896069
 41
0.593749948963525
 72
     1
 11
-512.342260740697
 21
-270.422836303711
 31
0.0
 73
     2
  0
TEXT
  5
   354
  8
0
  6
CONTINUOUS
 62
     1
 10
-536.396119014679
 20
-276.493103034987
 30
0.0
 40
2.00000008940697
  1
INTERR.AUTOMATICO SERIE ISOMAX
 50
359.999999896069
 41
0.687499997764826
 72
     1
 11
-515.908618167043
 21
-275.493103027344
 31
0.0
 73
     2
  0
TEXT
  5
   355
  8
0
  6
CONTINUOUS
 62
     1
 10
-541.896119242667
 20
-279.493103025038
 30
0.0
 40
2.00000008940697
  1
TETRAP.ESECUZIONE FISSA TERMINALI ANT.
 50
359.999999896069
 41
0.687499997764826
 72
     1
 11
-515.908618167043
 21
-278.493103027344
 31
0.0
 73
     2
  0
TEXT
  5
   356
  8
0
  6
CONTINUOUS
 62
     1
 10
-532.939086916776
 20
-286.733108511011
 30
0.0
 40
3.00000002980232
  1
S6 600/800 1000V
 50
359.999999896069
 41
0.916666604744064
 72
     2
 11
-489.489089424641
 21
-286.733108589609
 31
0.0
  0
TEXT
  5
   357
  8
0
  6
CONTINUOUS
 62
     1
 10
-531.024780277055
 20
-295.714691307685
 30
0.0
 40
4.00000017881393
  1
RH0035/081
 50
359.999999896069
 41
0.937499973922969
 72
     2
 11
-494.274779677284
 21
-295.714691374162
 31
0.0
  0
LINE
  5
   358
  8
0
  6
DASHDOT
 62
     7
 10
-563.797697753906
 20
-137.378653374802
 30
0.0
 11
-563.797697753906
 21
-201.463847151976
 31
0.0
  0
LINE
  5
   359
  8
0
  6
DASHDOT
 62
     7
 10
-559.989800600318
 20
-139.164108276367
 30
0.0
 11
-578.415285778247
 21
-139.164108276367
 31
0.0
  0
LINE
  5
   35A
  8
0
  6
DASHDOT
 62
     7
 10
-598.797697753906
 20
-137.310410821152
 30
0.0
 11
-598.797697753906
 21
-202.555727755113
 31
0.0
  0
LINE
  5
   35B
  8
0
  6
DASHDOT
 62
     7
 10
-587.735197753906
 20
-139.164108276367
 30
0.0
 11
-590.110197753906
 21
-139.164108276367
 31
0.0
  0
TEXT
  5
   35C
  8
0
  6
CONTINUOUS
 62
     7
 10
-629.119491289115
 20
-167.95408951241
 30
0.0
 40
3.00000002980232
  1
X
 50
359.999999896069
 41
0.916666604744064
 72
     2
 11
-626.919491420245
 21
-167.954089516389
 31
0.0
  0
INSERT
  5
   35D
  8
0
  6
CONTINUOUS
 62
     7
  2
*UDIM358
 10
0.0
 20
0.0
 30
0.0
  0
INSERT
  5
   35E
  8
0
  6
CONTINUOUS
 62
     5
  2
*UDIM359
 10
0.0
 20
0.0
 30
0.0
  0
INSERT
  5
   35F
  8
0
  6
CONTINUOUS
 62
     7
  2
*UDIM360
 10
0.0
 20
0.0
 30
0.0
  0
INSERT
  5
   360
  8
0
  6
CONTINUOUS
 62
     7
  2
*UDIM361
 10
0.0
 20
0.0
 30
0.0
  0
TEXT
  5
   361
  8
0
  6
CONTINUOUS
 62
     7
 10
-573.713603332375
 20
-131.574236785573
 30
0.0
 40
3.00000002980232
  1
Y
 50
359.999999896069
 41
0.916666604744064
 72
     2
 11
-571.513603463506
 21
-131.574236789552
 31
0.0
  0
INSERT
  5
   362
  8
0
  6
CONTINUOUS
 62
     7
  2
*UDIM362
 10
0.0
 20
0.0
 30
0.0
  0
TEXT
  5
   363
  8
0
  6
CONTINUOUS
 62
     7
 10
-550.55188751492
 20
-168.649630097545
 30
0.0
 40
3.00000002980232
  1
X
 50
359.999999896069
 41
0.916666604744064
 72
     2
 11
-548.351887646051
 21
-168.649630101525
 31
0.0
  0
TEXT
  5
   364
  8
0
  6
CONTINUOUS
 62
     7
 10
-573.543451311918
 20
-211.029430417217
 30
0.0
 40
3.00000002980232
  1
Y
 50
359.999999896069
 41
0.916666604744064
 72
     2
 11
-571.343451443048
 21
-211.029430421196
 31
0.0
  0
LINE
  5
   365
  8
0
  6
CONTINUOUS
 62
     7
 10
-677.602172851563
 20
-180.601608276367
 30
0.0
 11
-640.852172851563
 21
-180.601608276367
 31
0.0
  0
LINE
  5
   366
  8
0
  6
CONTINUOUS
 62
     7
 10
-677.602172851563
 20
-152.601608276367
 30
0.0
 11
-640.852172851563
 21
-152.601608276367
 31
0.0
  0
LINE
  5
   367
  8
0
  6
CONTINUOUS
 62
     7
 10
-677.602172851563
 20
-152.601608276367
 30
0.0
 11
-677.602172851563
 21
-180.601608276367
 31
0.0
  0
LINE
  5
   368
  8
0
  6
CONTINUOUS
 62
     7
 10
-640.852172851563
 20
-152.601608276367
 30
0.0
 11
-640.852172851563
 21
-180.601608276367
 31
0.0
  0
CIRCLE
  5
   369
  8
0
  6
CONTINUOUS
 62
     7
 10
-673.602172851563
 20
-148.851608276367
 30
0.0
 40
0.875
  0
CIRCLE
  5
   36A
  8
0
  6
CONTINUOUS
 62
     7
 10
-644.852172851563
 20
-148.851608276367
 30
0.0
 40
0.875
  0
CIRCLE
  5
   36B
  8
0
  6
CONTINUOUS
 62
     7
 10
-673.602172851563
 20
-184.351608276367
 30
0.0
 40
0.875
  0
CIRCLE
  5
   36C
  8
0
  6
CONTINUOUS
 62
     7
 10
-644.852172851563
 20
-184.351608276367
 30
0.0
 40
0.875
  0
LINE
  5
   36D
  8
0
  6
DASHDOT
 62
     7
 10
-673.602172851563
 20
-147.226608276367
 30
0.0
 11
-673.602172851563
 21
-150.476608276367
 31
0.0
  0
LINE
  5
   36E
  8
0
  6
DASHDOT
 62
     7
 10
-675.227172851563
 20
-148.851608276367
 30
0.0
 11
-671.977172851563
 21
-148.851608276367
 31
0.0
  0
LINE
  5
   36F
  8
0
  6
DASHDOT
 62
     7
 10
-644.852172851563
 20
-147.226608276367
 30
0.0
 11
-644.852172851563
 21
-150.476608276367
 31
0.0
  0
LINE
  5
   370
  8
0
  6
DASHDOT
 62
     7
 10
-646.477172851563
 20
-148.851608276367
 30
0.0
 11
-643.227172851563
 21
-148.851608276367
 31
0.0
  0
LINE
  5
   371
  8
0
  6
DASHDOT
 62
     7
 10
-644.852172851563
 20
-182.726608276367
 30
0.0
 11
-644.852172851563
 21
-185.976608276367
 31
0.0
  0
LINE
  5
   372
  8
0
  6
DASHDOT
 62
     7
 10
-646.477172851563
 20
-184.351608276367
 30
0.0
 11
-643.227172851563
 21
-184.351608276367
 31
0.0
  0
LINE
  5
   373
  8
0
  6
DASHDOT
 62
     7
 10
-673.602172851563
 20
-182.726608276367
 30
0.0
 11
-673.602172851563
 21
-185.976608276367
 31
0.0
  0
LINE
  5
   374
  8
0
  6
DASHDOT
 62
     7
 10
-675.227172851563
 20
-184.351608276367
 30
0.0
 11
-671.977172851563
 21
-184.351608276367
 31
0.0
  0
LINE
  5
   375
  8
0
  6
DASHDOT
 62
     7
 10
-659.227172851563
 20
-131.310518400452
 30
0.0
 11
-659.227172851563
 21
-135.360655029006
 31
0.0
  0
LINE
  5
   376
  8
0
  6
CONTINUOUS
 62
     7
 10
-680.422749395228
 20
-146.200422621161
 30
0.0
 11
-637.718189171921
 21
-146.200422621161
 31
0.0
  0
LINE
  5
   377
  8
0
  6
CONTINUOUS
 62
     7
 10
-680.422749395228
 20
-187.765487722106
 30
0.0
 11
-637.718189171921
 21
-187.765487722106
 31
0.0
  0
LINE
  5
   378
  8
0
  6
CONTINUOUS
 62
     7
 10
-637.718189171921
 20
-146.200422621161
 30
0.0
 11
-637.718189171921
 21
-187.765487722106
 31
0.0
  0
LINE
  5
   379
  8
0
  6
CONTINUOUS
 62
     7
 10
-680.422749395228
 20
-146.200422621161
 30
0.0
 11
-680.422749395228
 21
-187.765487722106
 31
0.0
  0
CIRCLE
  5
   37A
  8
0
  6
CONTINUOUS
 62
     7
 10
-674.174394348425
 20
-148.015235322752
 30
0.0
 40
0.0625
  0
LINE
  5
   37B
  8
0
  6
DASHDOT
 62
     7
 10
-682.477501613618
 20
-166.601608276367
 30
0.0
 11
-629.010523050827
 21
-166.601608276367
 31
0.0
  0
INSERT
  5
   37C
  8
0
  6
CONTINUOUS
 62
     7
  2
*UDIM363
 10
0.0
 20
0.0
 30
0.0
  0
INSERT
  5
   37D
  8
0
  6
CONTINUOUS
 62
     7
  2
*UDIM364
 10
0.0
 20
0.0
 30
0.0
  0
LINE
  5
   37E
  8
0
  6
DASHDOT
 62
     7
 10
-659.227172851563
 20
-144.199314569493
 30
0.0
 11
-659.227172851563
 21
-195.724859121188
 31
0.0
  0
TEXT
  5
   37F
  8
0
  6
CONTINUOUS
 62
     2
 10
-660.322569566914
 20
-129.604454872016
 30
0.0
 40
3.00000002980232
  1
Y
 50
359.999999844103
 41
0.916666604744064
 72
     2
 11
-658.122569698044
 21
-129.604454877991
 31
0.0
  0
TEXT
  5
   380
  8
0
  6
CONTINUOUS
 62
     7
 10
-693.780091346838
 20
-177.529187694783
 30
0.0
 40
3.00000002980232
  1
=      =
 50
449.999999844103
 41
0.916666604744064
 72
     2
 11
-693.780091288609
 21
-156.079188935056
 31
0.0
  0
TEXT
  5
   381
  8
0
  6
CONTINUOUS
 62
     7
 10
-684.909705099241
 20
-176.639107401267
 30
0.0
 40
3.00000002980232
  1
=     =
 50
449.999999844103
 41
0.916666604744064
 72
     2
 11
-684.909705048478
 21
-157.939108483091
 31
0.0
  0
INSERT
  5
   382
  8
0
  6
CONTINUOUS
 62
     7
  2
*UDIM365
 10
0.0
 20
0.0
 30
0.0
  0
INSERT
  5
   383
  8
0
  6
CONTINUOUS
 62
     7
  2
*UDIM366
 10
0.0
 20
0.0
 30
0.0
  0
INSERT
  5
   384
  8
0
  6
CONTINUOUS
 62
     7
  2
*UDIM367
 10
0.0
 20
0.0
 30
0.0
  0
TEXT
  5
   385
  8
0
  6
CONTINUOUS
 62
     7
 10
-660.41545284798
 20
-202.576702187056
 30
0.0
 40
3.00000002980232
  1
Y
 50
359.999999844103
 41
0.916666604744064
 72
     2
 11
-658.215452979111
 21
-202.576702193031
 31
0.0
  0
TEXT
  5
   386
  8
0
  6
CONTINUOUS
 62
     7
 10
-706.401969800495
 20
-167.833273003096
 30
0.0
 40
3.00000002980232
  1
X
 50
359.999999844103
 41
0.916666604744064
 72
     2
 11
-704.201969931625
 21
-167.833273009071
 31
0.0
  0
LINE
  5
   387
  8
0
  6
CONTINUOUS
 62
   130
 10
-559.084362721443
 20
-8.58885748982448
 30
0.0
 11
-559.084362721443
 21
-2.73885764479656
 31
0.0
  0
LINE
  5
   388
  8
0
  6
CONTINUOUS
 62
   130
 10
-559.534362334013
 20
39.7861412286756
 30
0.0
 11
-558.409362792969
 21
39.7861412286756
 31
0.0
  0
LINE
  5
   389
  8
0
  6
CONTINUOUS
 62
   130
 10
-559.534362334013
 20
35.28613448143
 30
0.0
 11
-558.409362792969
 21
35.28613448143
 31
0.0
  0
LINE
  5
   38A
  8
0
  6
CONTINUOUS
 62
   130
 10
-559.534362334013
 20
35.28613448143
 30
0.0
 11
-559.534362334013
 21
35.8876359303394
 31
0.0
  0
LINE
  5
   38B
  8
0
  6
CONTINUOUS
 62
   130
 10
-559.534362334013
 20
35.8876771290688
 30
0.0
 11
-559.534362334013
 21
36.665330611886
 31
0.0
  0
LINE
  5
   38C
  8
0
  6
CONTINUOUS
 62
   130
 10
-559.534362334013
 20
36.6653855435252
 30
0.0
 11
-559.534362334013
 21
39.7861407995222
 31
0.0
  0
LINE
  5
   38D
  8
0
  6
CONTINUOUS
 62
     3
 10
-558.859362781048
 20
-44.8138569593431
 30
0.0
 11
-558.409362819791
 21
-44.8138569593431
 31
0.0
  0
LINE
  5
   38E
  8
0
  6
CONTINUOUS
 62
   130
 10
-558.859362781048
 20
-38.0638635754585
 30
0.0
 11
-558.859362781048
 21
-34.2388568103315
 31
0.0
  0
LINE
  5
   38F
  8
0
  6
CONTINUOUS
 62
     3
 10
-558.859362781048
 20
-8.27103675849776
 30
0.0
 11
-558.859362781048
 21
-2.73885764479656
 31
0.0
  0
LINE
  5
   390
  8
0
  6
CONTINUOUS
 62
   130
 10
-558.859362781048
 20
28.7611415294084
 30
0.0
 11
-555.259362876415
 21
28.7610865977693
 31
0.0
  0
LINE
  5
   391
  8
0
  6
CONTINUOUS
 62
   130
 10
-558.409363608919
 20
29.0321070344999
 30
0.0
 11
-558.40936272379
 21
28.7611223920271
 31
0.0
  0
LINE
  5
   392
  8
0
  6
CONTINUOUS
 62
   130
 10
-558.409362792969
 20
28.7611346542835
 30
0.0
 11
-558.409362792969
 21
44.511134237051
 31
0.0
  0
LINE
  5
   393
  8
0
  6
CONTINUOUS
 62
     3
 10
-558.409362819791
 20
-44.8138569593431
 30
0.0
 11
-538.400526985098
 21
-44.8138569593431
 31
0.0
  0
LINE
  5
   394
  8
0
  6
CONTINUOUS
 62
   130
 10
-558.859364480209
 20
-15.2062079665065
 30
0.0
 11
-558.409362792969
 21
-15.08563456199
 31
0.0
  0
LINE
  5
   395
  8
0
  6
CONTINUOUS
 62
     3
 10
-558.859359466996
 20
-8.27104314249781
 30
0.0
 11
-555.154183539742
 21
-9.26387736130619
 31
0.0
  0
LINE
  5
   396
  8
0
  6
CONTINUOUS
 62
     3
 10
-557.284391661883
 20
-9.26387732340979
 30
0.0
 11
-516.244392749072
 21
-9.26385783507533
 31
0.0
  0
LINE
  5
   397
  8
0
  6
CONTINUOUS
 62
     3
 10
-557.284391661883
 20
-14.213890925232
 30
0.0
 11
-516.244392749072
 21
-14.213871437994
 31
0.0
  0
LINE
  5
   398
  8
0
  6
CONTINUOUS
 62
   130
 10
-558.409362792969
 20
-15.0856567867122
 30
0.0
 11
-558.409362792969
 21
-8.58885748982448
 31
0.0
  0
LINE
  5
   399
  8
0
  6
DASHDOT
 62
   130
 10
-560.209362745285
 20
-44.8138565301897
 30
0.0
 11
-560.209362745285
 21
53.8487751862283
 31
0.0
  0
LINE
  5
   39A
  8
0
  6
CONTINUOUS
 62
   130
 10
-559.534362763166
 20
-38.0638567090036
 30
0.0
 11
-558.859363210201
 21
-38.0638567090036
 31
0.0
  0
LINE
  5
   39B
  8
0
  6
CONTINUOUS
 62
     3
 10
-559.534362620116
 20
-44.8138565301896
 30
0.0
 11
-558.859362637997
 21
-44.8138569593431
 31
0.0
  0
LINE
  5
   39C
  8
0
  6
CONTINUOUS
 62
     3
 10
-538.400537812394
 20
-44.8138590075353
 30
0.0
 11
-538.159387935706
 21
-45.713858514753
 31
0.0
  0
LINE
  5
   39D
  8
0
  6
CONTINUOUS
 62
     3
 10
-538.384370189905
 20
-45.7138565063479
 30
0.0
 11
-523.7593911767
 21
-45.7138565063479
 31
0.0
  0
LINE
  5
   39E
  8
0
  6
CONTINUOUS
 62
     3
 10
-526.234391111135
 20
-14.3263848036522
 30
0.0
 11
-526.234391111135
 21
-14.2138710737227
 31
0.0
  0
LINE
  5
   39F
  8
0
  6
CONTINUOUS
 62
     3
 10
-526.234391111135
 20
-9.26385747194308
 30
0.0
 11
-526.234391111135
 21
-9.1513849407429
 31
0.0
  0
LINE
  5
   3A0
  8
0
  6
CONTINUOUS
 62
     3
 10
-526.234391111135
 20
-9.15138494074291
 30
0.0
 11
-516.244392749072
 21
-9.15138494074291
 31
0.0
  0
LINE
  5
   3A1
  8
0
  6
CONTINUOUS
 62
     3
 10
-526.234395480853
 20
-14.326387298852
 30
0.0
 11
-516.244392749072
 21
-14.32644272957
 31
0.0
  0
LINE
  5
   3A2
  8
0
  6
CONTINUOUS
 62
     1
 10
-559.534360617399
 20
-32.9451069333946
 30
0.0
 11
-559.534360617399
 21
-29.6826207527312
 31
0.0
  0
LINE
  5
   3A3
  8
0
  6
CONTINUOUS
 62
   130
 10
-559.084362775947
 20
-28.3888569653036
 30
0.0
 11
-558.859362781907
 21
-28.3888569653036
 31
0.0
  0
LINE
  5
   3A4
  8
0
  6
CONTINUOUS
 62
   130
 10
-559.084362775947
 20
-34.2388568103315
 30
0.0
 11
-558.859362781907
 21
-34.2388568103315
 31
0.0
  0
LINE
  5
   3A5
  8
0
  6
CONTINUOUS
 62
   130
 10
-559.084362345934
 20
-2.73885764479656
 30
0.0
 11
-558.859361922741
 21
-2.73885764479656
 31
0.0
  0
LINE
  5
   3A6
  8
0
  6
CONTINUOUS
 62
   130
 10
-559.084362372756
 20
-8.58885748982448
 30
0.0
 11
-558.409362819791
 21
-8.58885748982448
 31
0.0
  0
LINE
  5
   3A7
  8
0
  6
CONTINUOUS
 62
     1
 10
-559.534362763166
 20
-29.6826206639407
 30
0.0
 11
-559.084360200167
 21
-29.6826206639407
 31
0.0
  0
LINE
  5
   3A8
  8
0
  6
CONTINUOUS
 62
     1
 10
-559.534362334013
 20
-32.9451068446042
 30
0.0
 11
-559.084360200167
 21
-32.9451068446042
 31
0.0
  0
LINE
  5
   3A9
  8
0
  6
CONTINUOUS
 62
     3
 10
-513.859391438962
 20
-45.7138771057125
 30
0.0
 11
-513.859391438962
 21
-35.4763773769137
 31
0.0
  0
LINE
  5
   3AA
  8
0
  6
CONTINUOUS
 62
     3
 10
-513.859391438962
 20
11.7736145049339
 30
0.0
 11
-513.859391438962
 21
33.4861139297491
 31
0.0
  0
LINE
  5
   3AB
  8
0
  6
CONTINUOUS
 62
     3
 10
-516.109391379357
 20
33.4861139297491
 30
0.0
 11
-513.859391438962
 21
33.4861139297491
 31
0.0
  0
LINE
  5
   3AC
  8
0
  6
CONTINUOUS
 62
     3
 10
-516.109391379357
 20
-45.7138771057125
 30
0.0
 11
-513.859391438962
 21
-45.7138771057125
 31
0.0
  0
LINE
  5
   3AD
  8
0
  6
CONTINUOUS
 62
     3
 10
-512.959391462804
 20
-35.4763773769137
 30
0.0
 11
-512.959391462804
 21
11.7736145049339
 31
0.0
  0
LINE
  5
   3AE
  8
0
  6
CONTINUOUS
 62
     3
 10
-513.859391438962
 20
-35.4763773769137
 30
0.0
 11
-512.959391462804
 21
-35.4763773769137
 31
0.0
  0
LINE
  5
   3AF
  8
0
  6
CONTINUOUS
 62
     3
 10
-513.859391438962
 20
11.7736145049339
 30
0.0
 11
-512.959391462804
 21
11.7736145049339
 31
0.0
  0
LINE
  5
   3B0
  8
0
  6
CONTINUOUS
 62
     3
 10
-525.109391140939
 20
-0.938867075975388
 30
0.0
 11
-525.109391140939
 21
32.4494024074536
 31
0.0
  0
LINE
  5
   3B1
  8
0
  6
CONTINUOUS
 62
     3
 10
-525.109392223666
 20
-0.938866895515339
 30
0.0
 11
-523.759391871768
 21
-1.16387372499739
 31
0.0
  0
LINE
  5
   3B2
  8
0
  6
CONTINUOUS
 62
     3
 10
-525.1093915692
 20
-0.938870209311332
 30
0.0
 11
-525.109391140047
 21
-0.713877081517147
 31
0.0
  0
LINE
  5
   3B3
  8
0
  6
CONTINUOUS
 62
     3
 10
-525.109391999192
 20
30.5611265224779
 30
0.0
 11
-525.109391570039
 21
30.3361265284383
 31
0.0
  0
LINE
  5
   3B4
  8
0
  6
CONTINUOUS
 62
     3
 10
-520.930523550004
 20
43.1611184007278
 30
0.0
 11
-515.569397520663
 21
43.1611139059859
 31
0.0
  0
LINE
  5
   3B5
  8
0
  6
CONTINUOUS
 62
     3
 10
-523.759391176702
 20
44.511134237051
 30
0.0
 11
-515.209391403199
 21
44.511134237051
 31
0.0
  0
LINE
  5
   3B6
  8
0
  6
CONTINUOUS
 62
     3
 10
-523.759391176702
 20
-45.7138565063478
 30
0.0
 11
-516.109398245812
 21
-45.7138565063478
 31
0.0
  0
LINE
  5
   3B7
  8
0
  6
CONTINUOUS
 62
     3
 10
-523.759391176702
 20
-44.8138633966446
 30
0.0
 11
-516.244392749072
 21
-44.8138633966446
 31
0.0
  0
LINE
  5
   3B8
  8
0
  6
CONTINUOUS
 62
     3
 10
-515.209391403199
 20
33.4861139297491
 30
0.0
 11
-515.209391403199
 21
33.7111207902435
 31
0.0
  0
LINE
  5
   3B9
  8
0
  6
CONTINUOUS
 62
     3
 10
-523.759391176702
 20
-45.7138565063478
 30
0.0
 11
-523.759391176702
 21
-14.3264010317076
 31
0.0
  0
LINE
  5
   3BA
  8
0
  6
CONTINUOUS
 62
     3
 10
-515.209391403199
 20
44.511134237051
 30
0.0
 11
-514.98439140916
 21
44.511134237051
 31
0.0
  0
LINE
  5
   3BB
  8
0
  6
CONTINUOUS
 62
     3
 10
-515.209391403199
 20
33.7111207902435
 30
0.0
 11
-514.98439140916
 21
33.7111207902435
 31
0.0
  0
LINE
  5
   3BC
  8
0
  6
CONTINUOUS
 62
     3
 10
-514.98439140916
 20
33.7111207902435
 30
0.0
 11
-514.98439140916
 21
44.511134237051
 31
0.0
  0
LINE
  5
   3BD
  8
0
  6
CONTINUOUS
 62
     3
 10
-516.244392749072
 20
-9.15138494074291
 30
0.0
 11
-516.244392749072
 21
33.7111070573337
 31
0.0
  0
LINE
  5
   3BE
  8
0
  6
CONTINUOUS
 62
     3
 10
-516.244392749072
 20
-44.8138633966446
 30
0.0
 11
-516.244392749072
 21
-14.32644272957
 31
0.0
  0
LINE
  5
   3BF
  8
0
  6
CONTINUOUS
 62
     3
 10
-516.244397524379
 20
33.711113279004
 30
0.0
 11
-515.209396178506
 21
33.7111201454588
 31
0.0
  0
LINE
  5
   3C0
  8
0
  6
CONTINUOUS
 62
     3
 10
-515.569392766954
 20
33.7111070573337
 30
0.0
 11
-515.569392766954
 21
43.161120539904
 31
0.0
  0
LINE
  5
   3C1
  8
0
  6
CONTINUOUS
 62
     3
 10
-512.959391462804
 20
-35.4763773769137
 30
0.0
 11
-511.384391504527
 21
-35.4763773769137
 31
0.0
  0
LINE
  5
   3C2
  8
0
  6
CONTINUOUS
 62
     3
 10
-512.959391462804
 20
11.7736145049339
 30
0.0
 11
-511.384391504527
 21
11.7736145049339
 31
0.0
  0
LINE
  5
   3C3
  8
0
  6
CONTINUOUS
 62
     3
 10
-507.784391599895
 20
-35.4763773769137
 30
0.0
 11
-507.784391599895
 21
-31.4263592488298
 31
0.0
  0
LINE
  5
   3C4
  8
0
  6
CONTINUOUS
 62
     3
 10
-507.784391599895
 20
10.7611076653011
 30
0.0
 11
-507.784391599895
 21
11.7736145049339
 31
0.0
  0
LINE
  5
   3C5
  8
0
  6
CONTINUOUS
 62
     3
 10
-515.209398269654
 20
33.4861276626589
 30
0.0
 11
-513.859391438962
 21
33.4861276626589
 31
0.0
  0
LINE
  5
   3C6
  8
0
  6
CONTINUOUS
 62
     3
 10
-513.859391438962
 20
11.7736282378437
 30
0.0
 11
-512.959391462804
 21
11.7736282378437
 31
0.0
  0
LINE
  5
   3C7
  8
0
  6
CONTINUOUS
 62
     3
 10
-507.784391599895
 20
6.48612151145971
 30
0.0
 11
-507.784391599895
 21
10.7611213982109
 31
0.0
  0
LINE
  5
   3C8
  8
0
  6
CONTINUOUS
 62
     3
 10
-516.109391379357
 20
-45.7138771057125
 30
0.0
 11
-516.109391379357
 21
33.4861139297491
 31
0.0
  0
LINE
  5
   3C9
  8
0
  6
CONTINUOUS
 62
     3
 10
-516.24439064632
 20
-19.4113837135609
 30
0.0
 11
-516.109389281009
 21
-19.4351871313331
 31
0.0
  0
LINE
  5
   3CA
  8
0
  6
CONTINUOUS
 62
     3
 10
-516.244390290955
 20
-44.8138565133592
 30
0.0
 11
-516.109395794721
 21
-44.9026947013833
 31
0.0
  0
LINE
  5
   3CB
  8
0
  6
CONTINUOUS
 62
     3
 10
-516.244394966294
 20
-4.06637962081648
 30
0.0
 11
-516.109393601331
 21
-4.04257362358567
 31
0.0
  0
LINE
  5
   3CC
  8
0
  6
CONTINUOUS
 62
     3
 10
-516.244394620216
 20
29.8059305971074
 30
0.0
 11
-516.109400124527
 21
29.7484583774619
 31
0.0
  0
LINE
  5
   3CD
  8
0
  6
CONTINUOUS
 62
     3
 10
-516.244387280622
 20
31.7663382592676
 30
0.0
 11
-516.109392777965
 21
31.82380361283
 31
0.0
  0
LINE
  5
   3CE
  8
0
  6
CONTINUOUS
 62
     2
 10
-559.534362763166
 20
-71.3638626933101
 30
0.0
 11
-558.634369653463
 21
-71.3638626933101
 31
0.0
  0
LINE
  5
   3CF
  8
0
  6
CONTINUOUS
 62
     2
 10
-559.534362763166
 20
-71.3638626933101
 30
0.0
 11
-559.534362763166
 21
-66.8638696789743
 31
0.0
  0
LINE
  5
   3D0
  8
0
  6
CONTINUOUS
 62
     3
 10
-538.527690307107
 20
-74.8288629448417
 30
0.0
 11
-516.244372149706
 21
-74.8288629448417
 31
0.0
  0
LINE
  5
   3D1
  8
0
  6
CONTINUOUS
 62
     2
 10
-538.165035021155
 20
-76.088862568139
 30
0.0
 11
-514.984370809793
 21
-76.088862568139
 31
0.0
  0
LINE
  5
   3D2
  8
0
  6
CONTINUOUS
 62
     3
 10
-559.534369629621
 20
-45.0388633906844
 30
0.0
 11
-538.384370189905
 21
-45.0388633906844
 31
0.0
  0
LINE
  5
   3D3
  8
0
  6
CONTINUOUS
 62
     2
 10
-514.984370809793
 20
-76.0888625681403
 30
0.0
 11
-514.984370809793
 21
-65.2888697206975
 31
0.0
  0
LINE
  5
   3D4
  8
0
  6
DASHDOT
 62
     7
 10
-560.20936961174
 20
-81.8308129460924
 30
0.0
 11
-560.20936961174
 21
-45.0388633906844
 31
0.0
  0
LINE
  5
   3D5
  8
0
  6
CONTINUOUS
 62
     2
 10
-516.244370433092
 20
-65.2888697206975
 30
0.0
 11
-514.984370809793
 21
-65.2888697206975
 31
0.0
  0
LINE
  5
   3D6
  8
0
  6
CONTINUOUS
 62
     3
 10
-516.244370433092
 20
-74.8288612282279
 30
0.0
 11
-516.244370433092
 21
-65.2888697206975
 31
0.0
  0
LINE
  5
   3D7
  8
0
  6
CONTINUOUS
 62
     3
 10
-538.384370189905
 20
-45.7138702392579
 30
0.0
 11
-538.384370189905
 21
-45.0388633906844
 31
0.0
  0
LINE
  5
   3D8
  8
0
  6
CONTINUOUS
 62
     2
 10
-516.244370433092
 20
-63.4888697683812
 30
0.0
 11
-516.244370433092
 21
-45.7138702392579
 31
0.0
  0
LINE
  5
   3D9
  8
0
  6
CONTINUOUS
 62
     3
 10
-533.546870318055
 20
-76.0888625681393
 30
0.0
 11
-533.546870318055
 21
-74.8288629448407
 31
0.0
  0
LINE
  5
   3DA
  8
0
  6
CONTINUOUS
 62
     2
 10
-558.634369653463
 20
-76.088862568139
 30
0.0
 11
-558.634369653463
 21
-71.3638626933101
 31
0.0
  0
LINE
  5
   3DB
  8
0
  6
CONTINUOUS
 62
     3
 10
-533.653684890421
 20
-76.0888625681395
 30
0.0
 11
-533.653684890421
 21
-74.8288642323012
 31
0.0
  0
LINE
  5
   3DC
  8
0
  6
CONTINUOUS
 62
     7
 10
-513.859370496273
 20
-63.4888699866065
 30
0.0
 11
-513.859370496273
 21
-45.9388704515227
 31
0.0
  0
LINE
  5
   3DD
  8
0
  6
CONTINUOUS
 62
     7
 10
-516.244370433092
 20
-45.9388704515227
 30
0.0
 11
-513.859370496273
 21
-45.9388704515227
 31
0.0
  0
LINE
  5
   3DE
  8
0
  6
CONTINUOUS
 62
     7
 10
-516.244370433092
 20
-63.4888699866065
 30
0.0
 11
-513.859370496273
 21
-63.4888699866065
 31
0.0
  0
LINE
  5
   3DF
  8
0
  6
CONTINUOUS
 62
     7
 10
-514.984370466471
 20
-63.4888699866065
 30
0.0
 11
-514.984370466471
 21
-45.9388704515227
 31
0.0
  0
LINE
  5
   3E0
  8
0
  6
CONTINUOUS
 62
   130
 10
-490.970502025263
 20
-30.7471937393548
 30
0.0
 11
-489.826311018404
 21
-27.2973889265043
 31
0.0
  0
LINE
  5
   3E1
  8
0
  6
CONTINUOUS
 62
   130
 10
-502.139966045456
 20
-27.9726193557525
 30
0.0
 11
-491.52244351829
 21
-31.037873965767
 31
0.0
  0
LINE
  5
   3E2
  8
0
  6
CONTINUOUS
 62
   130
 10
-500.44001313473
 20
-22.8471779476192
 30
0.0
 11
-490.09515275235
 21
-26.7344818158947
 31
0.0
  0
LINE
  5
   3E3
  8
0
  6
CONTINUOUS
 62
   130
 10
-507.784391599895
 20
-20.4112799334334
 30
0.0
 11
-500.440009386677
 21
-22.8471789292258
 31
0.0
  0
LINE
  5
   3E4
  8
0
  6
CONTINUOUS
 62
   130
 10
-507.784391599895
 20
-26.1005418540655
 30
0.0
 11
-502.139956195606
 21
-27.9726223278156
 31
0.0
  0
ARC
  5
   3E5
  8
0
  6
CONTINUOUS
 62
   130
 10
-491.397620089927
 20
-30.6055359384084
 30
0.0
 40
0.449988379135659
 50
253.896746069851
 51
341.65100647314
  0
ARC
  5
   3E6
  8
0
  6
CONTINUOUS
 62
   130
 10
-490.253424980348
 20
-27.155725225753
 30
0.0
 40
0.449988470292987
 50
341.650951831627
 51
429.405209888843
  0
ARC
  5
   3E7
  8
0
  6
CONTINUOUS
 62
     7
 10
-535.443405328548
 20
-14.0822917287043
 30
0.0
 40
47.4579340645082
 50
327.264349717579
 51
356.916833212326
  0
LINE
  5
   3E8
  8
0
  6
CONTINUOUS
 62
     3
 10
-523.759391176702
 20
-9.15138494074291
 30
0.0
 11
-523.759391176702
 21
-1.16389201879429
 31
0.0
  0
LINE
  5
   3E9
  8
0
  6
CONTINUOUS
 62
     3
 10
-516.244392749072
 20
-14.213871437994
 30
0.0
 11
-516.244392749072
 21
-9.26385783507533
 31
0.0
  0
LINE
  5
   3EA
  8
0
  6
CONTINUOUS
 62
     3
 10
-557.284391661883
 20
-14.213871437994
 30
0.0
 11
-557.284391661883
 21
-9.2638773234098
 31
0.0
  0
LINE
  5
   3EB
  8
0
  6
CONTINUOUS
 62
     3
 10
-549.320702669649
 20
27.4159821533905
 30
0.0
 11
-549.161862822761
 21
28.3168079724568
 31
0.0
  0
LINE
  5
   3EC
  8
0
  6
CONTINUOUS
 62
     3
 10
-549.161869475245
 20
28.3167973721256
 30
0.0
 11
-549.161869475245
 21
37.0861355385643
 31
0.0
  0
LINE
  5
   3ED
  8
0
  6
CONTINUOUS
 62
     3
 10
-553.211862866383
 20
43.8361342549324
 30
0.0
 11
-549.161863281097
 21
43.8361353597523
 31
0.0
  0
LINE
  5
   3EE
  8
0
  6
CONTINUOUS
 62
     3
 10
-553.421277796946
 20
27.4159821533905
 30
0.0
 11
-553.211862415054
 21
28.6036361748064
 31
0.0
  0
LINE
  5
   3EF
  8
0
  6
DASHDOT
 62
     7
 10
-561.553815471492
 20
38.4361321223397
 30
0.0
 11
-542.39768537366
 21
38.4361373480377
 31
0.0
  0
LINE
  5
   3F0
  8
0
  6
CONTINUOUS
 62
     7
 10
-560.598854661194
 20
27.4159821533906
 30
0.0
 11
-534.43598479809
 21
27.4159821533906
 31
0.0
  0
LINE
  5
   3F1
  8
0
  6
CONTINUOUS
 62
     7
 10
-534.43598479809
 20
27.4159821533905
 30
0.0
 11
-533.344404904414
 21
32.4736356607539
 31
0.0
  0
LINE
  5
   3F2
  8
0
  6
CONTINUOUS
 62
     7
 10
-558.409362792969
 20
30.7861346006393
 30
0.0
 11
-553.211862930656
 21
30.7861346006393
 31
0.0
  0
LINE
  5
   3F3
  8
0
  6
CONTINUOUS
 62
     7
 10
-549.161869475245
 20
30.7861346006393
 30
0.0
 11
-533.70861376631
 21
30.7861346006393
 31
0.0
  0
LINE
  5
   3F4
  8
0
  6
CONTINUOUS
 62
     7
 10
-548.711869487166
 20
33.0361345410347
 30
0.0
 11
-533.223002268383
 21
33.0361345410347
 31
0.0
  0
LINE
  5
   3F5
  8
0
  6
CONTINUOUS
 62
     7
 10
-548.711869487166
 20
32.361134558916
 30
0.0
 11
-548.711869487166
 21
33.0361345410347
 31
0.0
  0
LINE
  5
   3F6
  8
0
  6
CONTINUOUS
 62
     7
 10
-546.461869546771
 20
30.7861346006393
 30
0.0
 11
-546.461869546771
 21
31.6861345767974
 31
0.0
  0
LINE
  5
   3F7
  8
0
  6
CONTINUOUS
 62
     7
 10
-548.711869487166
 20
32.361134558916
 30
0.0
 11
-546.461869546771
 21
31.6861345767974
 31
0.0
  0
LINE
  5
   3F8
  8
0
  6
CONTINUOUS
 62
     7
 10
-555.259362876415
 20
28.7610865977693
 30
0.0
 11
-554.809362888336
 21
30.7861346006393
 31
0.0
  0
LINE
  5
   3F9
  8
0
  6
CONTINUOUS
 62
     7
 10
-553.909362912178
 20
30.7861346006393
 30
0.0
 11
-553.305883808567
 21
28.0704141874962
 31
0.0
  0
INSERT
  5
   3FA
  8
0
  6
CONTINUOUS
 62
     7
  2
*HATCH137
 10
-558.409362792969
 20
-45.7138633728027
 30
0.0
 41
0.449999988079071
 42
0.449999988079071
 43
0.449999988079071
  0
INSERT
  5
   3FB
  8
0
  6
CONTINUOUS
 62
     7
  2
*HATCH138
 10
-558.409362792969
 20
-45.7138633728027
 30
0.0
 41
0.449999988079071
 42
0.449999988079071
 43
0.449999988079071
  0
LINE
  5
   3FC
  8
0
  6
CONTINUOUS
 62
     7
 10
-558.386861198212
 20
34.1611335286713
 30
0.0
 11
-553.211861764457
 21
34.1611349403857
 31
0.0
  0
LINE
  5
   3FD
  8
0
  6
CONTINUOUS
 62
     7
 10
-553.211864218116
 20
41.2106950935813
 30
0.0
 11
-553.211864218116
 21
44.0611270325359
 31
0.0
  0
LINE
  5
   3FE
  8
0
  6
CONTINUOUS
 62
     3
 10
-553.211862930656
 20
28.6036332506832
 30
0.0
 11
-553.211862930656
 21
35.6573285958184
 31
0.0
  0
LINE
  5
   3FF
  8
0
  6
CONTINUOUS
 62
     7
 10
-553.211862930656
 20
40.4611330568787
 30
0.0
 11
-553.211862930656
 21
41.210695443562
 31
0.0
  0
LINE
  5
   400
  8
0
  6
CONTINUOUS
 62
     7
 10
-553.211862930656
 20
35.6573285958184
 30
0.0
 11
-553.211862930656
 21
36.4111370265481
 31
0.0
  0
LINE
  5
   401
  8
0
  6
CONTINUOUS
 62
     7
 10
-553.211864321503
 20
44.0611255233909
 30
0.0
 11
-552.536864768539
 21
44.0611325739818
 31
0.0
  0
LINE
  5
   402
  8
0
  6
CONTINUOUS
 62
     7
 10
-552.536872389915
 20
44.0611292831886
 30
0.0
 11
-552.536872389915
 21
44.5111224048128
 31
0.0
  0
LINE
  5
   403
  8
0
  6
CONTINUOUS
 62
     7
 10
-557.486863799966
 20
43.6111266573921
 30
0.0
 11
-553.211864771522
 21
43.6111278235908
 31
0.0
  0
LINE
  5
   404
  8
0
  6
CONTINUOUS
 62
     7
 10
-557.486861630209
 20
35.6573274296196
 30
0.0
 11
-553.211862601765
 21
35.6573285958183
 31
0.0
  0
LINE
  5
   405
  8
0
  6
CONTINUOUS
 62
     7
 10
-557.48686146757
 20
35.061133750345
 30
0.0
 11
-553.211862439126
 21
35.0611349165437
 31
0.0
  0
LINE
  5
   406
  8
0
  6
CONTINUOUS
 62
     7
 10
-557.486863146298
 20
41.2149394631028
 30
0.0
 11
-553.211864117854
 21
41.2149406293014
 31
0.0
  0
LINE
  5
   407
  8
0
  6
CONTINUOUS
 62
     7
 10
-557.486862388253
 20
41.2106947065166
 30
0.0
 11
-557.486862388253
 21
43.6111266573921
 31
0.0
  0
LINE
  5
   408
  8
0
  6
CONTINUOUS
 62
     7
 10
-557.4868619591
 20
35.0611335398762
 30
0.0
 11
-557.4868619591
 21
35.6573293649179
 31
0.0
  0
LINE
  5
   409
  8
0
  6
CONTINUOUS
 62
     7
 10
-557.936862403154
 20
36.8611335799034
 30
0.0
 11
-557.936862403154
 21
40.0111330673034
 31
0.0
  0
LINE
  5
   40A
  8
0
  6
CONTINUOUS
 62
     7
 10
-557.486862817407
 20
40.011133190061
 30
0.0
 11
-557.486862817407
 21
40.2361331841006
 31
0.0
  0
LINE
  5
   40B
  8
0
  6
CONTINUOUS
 62
     7
 10
-557.486862817407
 20
36.6361337086216
 30
0.0
 11
-557.486862817407
 21
36.8611371358885
 31
0.0
  0
LINE
  5
   40C
  8
0
  6
CONTINUOUS
 62
   210
 10
-557.486862817407
 20
37.0861336967006
 30
0.0
 11
-557.486862817407
 21
37.1321337946641
 31
0.0
  0
LINE
  5
   40D
  8
0
  6
CONTINUOUS
 62
   210
 10
-552.986862936616
 20
37.0861349242784
 30
0.0
 11
-552.986862936616
 21
37.132135022242
 31
0.0
  0
LINE
  5
   40E
  8
0
  6
CONTINUOUS
 62
   210
 10
-557.486862817407
 20
37.1321337946641
 30
0.0
 11
-557.486862817407
 21
37.2669990959191
 31
0.0
  0
LINE
  5
   40F
  8
0
  6
CONTINUOUS
 62
   210
 10
-557.486862817407
 20
37.2669991227412
 30
0.0
 11
-557.486862817407
 21
37.4815393602066
 31
0.0
  0
LINE
  5
   410
  8
0
  6
CONTINUOUS
 62
   210
 10
-557.486862817407
 20
37.4815393602066
 30
0.0
 11
-557.486862817407
 21
37.7611336788192
 31
0.0
  0
LINE
  5
   411
  8
0
  6
CONTINUOUS
 62
   210
 10
-557.486862817407
 20
37.7611336788192
 30
0.0
 11
-557.486862817407
 21
38.0867276662419
 31
0.0
  0
LINE
  5
   412
  8
0
  6
CONTINUOUS
 62
   210
 10
-557.486862817407
 20
38.0867276662419
 30
0.0
 11
-557.486862817407
 21
38.4361332317843
 31
0.0
  0
LINE
  5
   413
  8
0
  6
CONTINUOUS
 62
   210
 10
-557.486862817407
 20
38.4361332317843
 30
0.0
 11
-557.486862817407
 21
38.7855392264803
 31
0.0
  0
LINE
  5
   414
  8
0
  6
CONTINUOUS
 62
   210
 10
-557.486862817407
 20
38.7855392264803
 30
0.0
 11
-557.486862817407
 21
39.1111332139029
 31
0.0
  0
LINE
  5
   415
  8
0
  6
CONTINUOUS
 62
   210
 10
-557.486862817407
 20
39.1111332139029
 30
0.0
 11
-557.486862817407
 21
39.3907275325155
 31
0.0
  0
LINE
  5
   416
  8
0
  6
CONTINUOUS
 62
   210
 10
-557.486862817407
 20
39.3907275325155
 30
0.0
 11
-557.486862817407
 21
39.6052677699809
 31
0.0
  0
LINE
  5
   417
  8
0
  6
CONTINUOUS
 62
   210
 10
-557.486862817407
 20
39.6052677699809
 30
0.0
 11
-557.486862817407
 21
39.7401330712359
 31
0.0
  0
LINE
  5
   418
  8
0
  6
CONTINUOUS
 62
   210
 10
-552.986862936616
 20
39.7401343256358
 30
0.0
 11
-552.986862936616
 21
39.7861344235993
 31
0.0
  0
LINE
  5
   419
  8
0
  6
CONTINUOUS
 62
   210
 10
-557.486862817407
 20
39.740133098058
 30
0.0
 11
-557.486862817407
 21
39.7861331960215
 31
0.0
  0
LINE
  5
   41A
  8
0
  6
CONTINUOUS
 62
   210
 10
-553.211862859838
 20
36.4111344563136
 30
0.0
 11
-552.986862934879
 21
36.6361345040306
 31
0.0
  0
LINE
  5
   41B
  8
0
  6
CONTINUOUS
 62
   210
 10
-552.986862936616
 20
36.6361349361994
 30
0.0
 11
-552.986862936616
 21
37.0861349242784
 31
0.0
  0
LINE
  5
   41C
  8
0
  6
CONTINUOUS
 62
   210
 10
-557.486862449133
 20
37.0861336967006
 30
0.0
 11
-556.451869282126
 21
37.0861339790416
 31
0.0
  0
LINE
  5
   41D
  8
0
  6
CONTINUOUS
 62
   210
 10
-557.486862817407
 20
36.8611337026611
 30
0.0
 11
-557.486862817407
 21
37.0861336967006
 31
0.0
  0
LINE
  5
   41E
  8
0
  6
CONTINUOUS
 62
   210
 10
-552.986862936616
 20
39.7861344235993
 30
0.0
 11
-552.986862936616
 21
40.2361344116784
 31
0.0
  0
LINE
  5
   41F
  8
0
  6
CONTINUOUS
 62
   210
 10
-557.486862817407
 20
39.7861331960215
 30
0.0
 11
-557.486862817407
 21
40.011133190061
 31
0.0
  0
LINE
  5
   420
  8
0
  6
CONTINUOUS
 62
   210
 10
-557.48686318568
 20
39.7861331960215
 30
0.0
 11
-556.451869282126
 21
39.7861334783627
 31
0.0
  0
LINE
  5
   421
  8
0
  6
CONTINUOUS
 62
     7
 10
-557.486861626153
 20
35.6424598381555
 30
0.0
 11
-553.211862597709
 21
35.6424610043542
 31
0.0
  0
LINE
  5
   422
  8
0
  6
CONTINUOUS
 62
   210
 10
-557.261862270957
 20
36.4111337759609
 30
0.0
 11
-553.211862378246
 21
36.4111348807809
 31
0.0
  0
LINE
  5
   423
  8
0
  6
CONTINUOUS
 62
   210
 10
-557.486862733655
 20
36.6361333303627
 30
0.0
 11
-557.261862685938
 21
36.4111334054035
 31
0.0
  0
LINE
  5
   424
  8
0
  6
CONTINUOUS
 62
   210
 10
-557.936861973502
 20
36.8611335799034
 30
0.0
 11
-557.486862387754
 21
36.8611337026611
 31
0.0
  0
LINE
  5
   425
  8
0
  6
CONTINUOUS
 62
   210
 10
-557.936862832807
 20
40.0111330673033
 30
0.0
 11
-557.486863247059
 21
40.011133190061
 31
0.0
  0
LINE
  5
   426
  8
0
  6
CONTINUOUS
 62
   210
 10
-557.486863788881
 20
40.236132823718
 30
0.0
 11
-557.261863863921
 21
40.461132871435
 31
0.0
  0
LINE
  5
   427
  8
0
  6
CONTINUOUS
 62
   210
 10
-557.261863375777
 20
40.461133239519
 30
0.0
 11
-553.211863483066
 21
40.461134344339
 31
0.0
  0
LINE
  5
   428
  8
0
  6
CONTINUOUS
 62
   210
 10
-557.486862715986
 20
41.2106942773633
 30
0.0
 11
-553.211863687542
 21
41.210695443562
 31
0.0
  0
LINE
  5
   429
  8
0
  6
CONTINUOUS
 62
   130
 10
-558.409362792969
 20
44.511134237051
 30
0.0
 11
-523.75936371088
 21
44.511134237051
 31
0.0
  0
INSERT
  5
   42A
  8
0
  6
CONTINUOUS
 62
     2
  2
*HATCH139
 10
-558.409362792969
 20
-45.7138633728027
 30
0.0
 41
0.449999988079071
 42
0.449999988079071
 43
0.449999988079071
  0
INSERT
  5
   42B
  8
0
  6
CONTINUOUS
 62
     2
  2
*HATCH140
 10
-558.409362792969
 20
-45.7138633728027
 30
0.0
 41
0.449999988079071
 42
0.449999988079071
 43
0.449999988079071
  0
INSERT
  5
   42C
  8
0
  6
CONTINUOUS
 62
     2
  2
*HATCH141
 10
-558.409362792969
 20
-45.7138633728027
 30
0.0
 41
0.449999988079071
 42
0.449999988079071
 43
0.449999988079071
  0
INSERT
  5
   42D
  8
0
  6
CONTINUOUS
 62
     2
  2
*HATCH142
 10
-558.409362792969
 20
-45.7138633728027
 30
0.0
 41
0.449999988079071
 42
0.449999988079071
 43
0.449999988079071
  0
INSERT
  5
   42E
  8
0
  6
CONTINUOUS
 62
     2
  2
*HATCH143
 10
-558.409362792969
 20
-45.7138633728027
 30
0.0
 41
0.449999988079071
 42
0.449999988079071
 43
0.449999988079071
  0
LINE
  5
   42F
  8
0
  6
CONTINUOUS
 62
     7
 10
-487.98547126404
 20
-24.8171797063697
 30
0.0
 11
-487.98547126404
 21
-14.0822917287043
 31
0.0
  0
LINE
  5
   430
  8
0
  6
DASHDOT
 62
     7
 10
-561.559369575977
 20
-84.2365973867211
 30
0.0
 11
-561.559369575977
 21
51.3598634465331
 31
0.0
  0
LINE
  5
   431
  8
0
  6
CONTINUOUS
 62
     3
 10
-558.409362792969
 20
-15.08563456199
 30
0.0
 11
-555.155824056399
 21
-14.2138817367943
 31
0.0
  0
LINE
  5
   432
  8
0
  6
CONTINUOUS
 62
     3
 10
-558.409362792969
 20
-8.58885748982448
 30
0.0
 11
-558.409362792969
 21
-8.39161857293039
 31
0.0
  0
LINE
  5
   433
  8
0
  6
CONTINUOUS
 62
   130
 10
-558.859362781048
 20
-2.73885764479656
 30
0.0
 11
-558.859362781048
 21
28.7611415207384
 31
0.0
  0
LINE
  5
   434
  8
0
  6
CONTINUOUS
 62
   130
 10
-558.859362781048
 20
-28.3888569653036
 30
0.0
 11
-558.859362781048
 21
-15.2062111353253
 31
0.0
  0
LINE
  5
   435
  8
0
  6
CONTINUOUS
 62
     3
 10
-558.859362781048
 20
-34.2388568103315
 30
0.0
 11
-558.859362781048
 21
-28.3888569653036
 31
0.0
  0
LINE
  5
   436
  8
0
  6
CONTINUOUS
 62
   130
 10
-559.084362775087
 20
-34.2388568103315
 30
0.0
 11
-559.084362775087
 21
-32.9451068446042
 31
0.0
  0
LINE
  5
   437
  8
0
  6
CONTINUOUS
 62
   130
 10
-559.084362775087
 20
-29.6826206639407
 30
0.0
 11
-559.084362775087
 21
-28.3888569653036
 31
0.0
  0
LINE
  5
   438
  8
0
  6
CONTINUOUS
 62
     3
 10
-559.084362775087
 20
-32.9451068446042
 30
0.0
 11
-559.084362775087
 21
-29.6826206639407
 31
0.0
  0
LINE
  5
   439
  8
0
  6
CONTINUOUS
 62
     2
 10
-516.244370433092
 20
-65.2888697206975
 30
0.0
 11
-516.244370433092
 21
-63.4888697683812
 31
0.0
  0
LINE
  5
   43A
  8
0
  6
DASHDOT
 62
     2
 10
-562.583730509253
 20
-70.013860172473
 30
0.0
 11
-542.39768537366
 21
-70.0138656791267
 31
0.0
  0
LINE
  5
   43B
  8
0
  6
CONTINUOUS
 62
     2
 10
-558.634369653463
 20
-76.08886256814
 30
0.0
 11
-538.165048754065
 21
-76.08886256814
 31
0.0
  0
LINE
  5
   43C
  8
0
  6
CONTINUOUS
 62
     7
 10
-553.234369796514
 20
-64.6138628721237
 30
0.0
 11
-541.515751552868
 21
-64.6138628721237
 31
0.0
  0
LINE
  5
   43D
  8
0
  6
CONTINUOUS
 62
     7
 10
-559.534369629621
 20
-62.5888629257679
 30
0.0
 11
-553.234369796514
 21
-62.5888629257679
 31
0.0
  0
LINE
  5
   43E
  8
0
  6
CONTINUOUS
 62
     7
 10
-553.234369796514
 20
-64.6138628721237
 30
0.0
 11
-553.234369796514
 21
-62.5888629257679
 31
0.0
  0
LINE
  5
   43F
  8
0
  6
CONTINUOUS
 62
     7
 10
-553.234369796514
 20
-75.4138625860214
 30
0.0
 11
-550.53436986804
 21
-75.4138625860214
 31
0.0
  0
LINE
  5
   440
  8
0
  6
CONTINUOUS
 62
     7
 10
-550.53436986804
 20
-68.6638638635154
 30
0.0
 11
-550.53436986804
 21
-64.6138628721237
 31
0.0
  0
LINE
  5
   441
  8
0
  6
CONTINUOUS
 62
     7
 10
-553.234369796514
 20
-75.6388536194029
 30
0.0
 11
-553.234369796514
 21
-72.0613689274809
 31
0.0
  0
LINE
  5
   442
  8
0
  6
CONTINUOUS
 62
     7
 10
-550.53436986804
 20
-75.4138625860214
 30
0.0
 11
-549.184369903803
 21
-75.4138625860214
 31
0.0
  0
LINE
  5
   443
  8
0
  6
CONTINUOUS
 62
     7
 10
-560.197109504164
 20
-61.8381994800249
 30
0.0
 11
-542.327680300217
 21
-61.8381994800249
 31
0.0
  0
LINE
  5
   444
  8
0
  6
CONTINUOUS
 62
     7
 10
-542.327680300217
 20
-61.8381994800249
 30
0.0
 11
-537.333980784943
 21
-78.9096838694477
 31
0.0
  0
LINE
  5
   445
  8
0
  6
CONTINUOUS
 62
     7
 10
-557.486863799966
 20
-75.1888549884811
 30
0.0
 11
-553.234369796514
 21
-75.1888561485406
 31
0.0
  0
LINE
  5
   446
  8
0
  6
CONTINUOUS
 62
     7
 10
-553.211864321503
 20
-75.6388538544799
 30
0.0
 11
-552.536864768539
 21
-75.6388609050709
 31
0.0
  0
LINE
  5
   447
  8
0
  6
CONTINUOUS
 62
     7
 10
-552.536872389915
 20
-76.0888507359018
 30
0.0
 11
-552.536872389915
 21
-75.6388576142777
 31
0.0
  0
LINE
  5
   448
  8
0
  6
CONTINUOUS
 62
     7
 10
-557.486862388253
 20
-75.1888549884812
 30
0.0
 11
-557.486862388253
 21
-72.7884230376056
 31
0.0
  0
LINE
  5
   449
  8
0
  6
CONTINUOUS
 62
     7
 10
-557.486862715986
 20
-72.7884226084523
 30
0.0
 11
-553.234369796514
 21
-72.7884237685114
 31
0.0
  0
LINE
  5
   44A
  8
0
  6
CONTINUOUS
 62
     7
 10
-557.261863375777
 20
-72.038861570608
 30
0.0
 11
-553.211863483066
 21
-72.0388626754281
 31
0.0
  0
LINE
  5
   44B
  8
0
  6
CONTINUOUS
 62
     7
 10
-552.986862936616
 20
-71.8138627427674
 30
0.0
 11
-552.986862936616
 21
-71.3638627546884
 31
0.0
  0
LINE
  5
   44C
  8
0
  6
CONTINUOUS
 62
     7
 10
-557.48686318568
 20
-71.3638615271105
 30
0.0
 11
-552.986863304889
 21
-71.3638627546883
 31
0.0
  0
LINE
  5
   44D
  8
0
  6
CONTINUOUS
 62
     7
 10
-557.261863375777
 20
-72.038861570608
 30
0.0
 11
-553.211863483066
 21
-72.0388626754281
 31
0.0
  0
LINE
  5
   44E
  8
0
  6
CONTINUOUS
 62
     7
 10
-557.486863788881
 20
-71.813861154807
 30
0.0
 11
-557.261863863921
 21
-72.038861202524
 31
0.0
  0
LINE
  5
   44F
  8
0
  6
CONTINUOUS
 62
     7
 10
-557.486862817407
 20
-71.8138621262815
 30
0.0
 11
-557.486862817407
 21
-71.3638637919898
 31
0.0
  0
LINE
  5
   450
  8
0
  6
CONTINUOUS
 62
     7
 10
-557.936862832807
 20
-71.5888613983924
 30
0.0
 11
-557.486863247059
 21
-71.5888615211501
 31
0.0
  0
LINE
  5
   451
  8
0
  6
CONTINUOUS
 62
     7
 10
-557.936862403154
 20
-71.5888613983924
 30
0.0
 11
-557.936862403154
 21
-68.4388619109924
 31
0.0
  0
INSERT
  5
   452
  8
0
  6
CONTINUOUS
 62
     7
  2
*HATCH144
 10
-558.409362792969
 20
-45.7138633728027
 30
0.0
 41
0.449999988079071
 42
0.449999988079071
 43
0.449999988079071
  0
INSERT
  5
   453
  8
0
  6
CONTINUOUS
 62
     7
  2
*HATCH145
 10
-558.409362792969
 20
-45.7138633728027
 30
0.0
 41
0.449999988079071
 42
0.449999988079071
 43
0.449999988079071
  0
LINE
  5
   454
  8
0
  6
CONTINUOUS
 62
     7
 10
-557.486862449133
 20
-68.6638620277896
 30
0.0
 11
-552.986862568343
 21
-68.6638632553675
 31
0.0
  0
LINE
  5
   455
  8
0
  6
CONTINUOUS
 62
     7
 10
-552.986862936616
 20
-68.6638632553675
 30
0.0
 11
-552.986862936616
 21
-68.2138632672884
 31
0.0
  0
LINE
  5
   456
  8
0
  6
CONTINUOUS
 62
     7
 10
-553.211862859838
 20
-67.9888627874026
 30
0.0
 11
-552.986862934879
 21
-68.2138628351196
 31
0.0
  0
LINE
  5
   457
  8
0
  6
CONTINUOUS
 62
     7
 10
-557.261862270957
 20
-67.98886210705
 30
0.0
 11
-553.211862378246
 21
-67.98886321187
 31
0.0
  0
LINE
  5
   458
  8
0
  6
CONTINUOUS
 62
     7
 10
-557.486862733655
 20
-68.2138616614518
 30
0.0
 11
-557.261862685938
 21
-67.9888617364926
 31
0.0
  0
INSERT
  5
   459
  8
0
  6
CONTINUOUS
 62
     7
  2
*HATCH146
 10
-558.409362792969
 20
-45.7138633728027
 30
0.0
 41
0.449999988079071
 42
0.449999988079071
 43
0.449999988079071
  0
LINE
  5
   45A
  8
0
  6
CONTINUOUS
 62
     7
 10
-557.486861630209
 20
-67.2350557607086
 30
0.0
 11
-553.211862601765
 21
-67.2350569269073
 31
0.0
  0
LINE
  5
   45B
  8
0
  6
CONTINUOUS
 62
     7
 10
-557.486861626153
 20
-67.2201881692446
 30
0.0
 11
-553.234369796514
 21
-67.2201893293034
 31
0.0
  0
LINE
  5
   45C
  8
0
  6
CONTINUOUS
 62
     7
 10
-557.4868619591
 20
-67.235057696007
 30
0.0
 11
-557.4868619591
 21
-66.6388618709652
 31
0.0
  0
LINE
  5
   45D
  8
0
  6
CONTINUOUS
 62
     7
 10
-557.48686146757
 20
-66.638862081434
 30
0.0
 11
-553.234369796514
 21
-66.6388632414928
 31
0.0
  0
LINE
  5
   45E
  8
0
  6
CONTINUOUS
 62
     7
 10
-558.409362792969
 20
-65.738861853622
 30
0.0
 11
-553.234369796514
 21
-65.7388632653346
 31
0.0
  0
INSERT
  5
   45F
  8
0
  6
CONTINUOUS
 62
     7
  2
*HATCH147
 10
-558.409362792969
 20
-45.7138633728027
 30
0.0
 41
0.449999988079071
 42
0.449999988079071
 43
0.449999988079071
  0
LINE
  5
   460
  8
0
  6
CONTINUOUS
 62
     7
 10
-558.409362792969
 20
-76.08886256814
 30
0.0
 11
-558.409362792969
 21
-65.738861853622
 31
0.0
  0
LINE
  5
   461
  8
0
  6
CONTINUOUS
 62
     7
 10
-557.936862403154
 20
-68.4388619109924
 30
0.0
 11
-557.486862817407
 21
-68.4388619109924
 31
0.0
  0
LINE
  5
   462
  8
0
  6
CONTINUOUS
 62
     7
 10
-553.211863483066
 20
-72.038862675428
 30
0.0
 11
-552.986862936616
 21
-71.8138627427674
 31
0.0
  0
LINE
  5
   463
  8
0
  6
CONTINUOUS
 62
     7
 10
-553.234369796514
 20
-67.9663558384471
 30
0.0
 11
-553.234369796514
 21
-64.6138628721237
 31
0.0
  0
LINE
  5
   464
  8
0
  6
CONTINUOUS
 62
     7
 10
-557.486862817407
 20
-68.5513616016164
 30
0.0
 11
-552.986862936616
 21
-68.5513628291942
 31
0.0
  0
LINE
  5
   465
  8
0
  6
CONTINUOUS
 62
     7
 10
-557.486862817407
 20
-71.4763615241304
 30
0.0
 11
-552.986862936616
 21
-71.4763627517083
 31
0.0
  0
INSERT
  5
   466
  8
0
  6
CONTINUOUS
 62
     7
  2
*HATCH148
 10
-558.409362792969
 20
-45.7138633728027
 30
0.0
 41
0.449999988079071
 42
0.449999988079071
 43
0.449999988079071
  0
INSERT
  5
   467
  8
0
  6
CONTINUOUS
 62
     7
  2
*HATCH149
 10
-558.409362792969
 20
-45.7138633728027
 30
0.0
 41
0.449999988079071
 42
0.449999988079071
 43
0.449999988079071
  0
INSERT
  5
   468
  8
0
  6
CONTINUOUS
 62
     7
  2
*HATCH150
 10
-558.409362792969
 20
-45.7138633728027
 30
0.0
 41
0.449999988079071
 42
0.449999988079071
 43
0.449999988079071
  0
INSERT
  5
   469
  8
0
  6
CONTINUOUS
 62
     7
  2
*HATCH151
 10
-558.409362792969
 20
-45.7138633728027
 30
0.0
 41
0.449999988079071
 42
0.449999988079071
 43
0.449999988079071
  0
LINE
  5
   46A
  8
0
  6
CONTINUOUS
 62
     7
 10
-552.986862936616
 20
-68.5513628291942
 30
0.0
 11
-549.184369903803
 21
-68.5513638664956
 31
0.0
  0
LINE
  5
   46B
  8
0
  6
CONTINUOUS
 62
     7
 10
-552.986862936616
 20
-71.4763627517083
 30
0.0
 11
-549.184369903803
 21
-71.4763637890096
 31
0.0
  0
LINE
  5
   46C
  8
0
  6
CONTINUOUS
 62
     3
 10
-507.784391599895
 20
-30.9763618356711
 30
0.0
 11
-507.784391599895
 21
-22.8763641960152
 31
0.0
  0
LINE
  5
   46D
  8
0
  6
CONTINUOUS
 62
     3
 10
-507.784391599895
 20
-22.4263642079362
 30
0.0
 11
-507.784391599895
 21
-12.9763644582757
 31
0.0
  0
LINE
  5
   46E
  8
0
  6
CONTINUOUS
 62
     3
 10
-507.784391599895
 20
-12.5263644701966
 30
0.0
 11
-507.784391599895
 21
-4.42636468477331
 31
0.0
  0
LINE
  5
   46F
  8
0
  6
CONTINUOUS
 62
     3
 10
-507.784391599895
 20
-3.97636469669424
 30
0.0
 11
-507.784391599895
 21
6.48612151145971
 31
0.0
  0
LINE
  5
   470
  8
0
  6
CONTINUOUS
 62
     1
 10
-511.384391504527
 20
-36.6013636142016
 30
0.0
 11
-511.384391504527
 21
-35.7013636380434
 31
0.0
  0
LINE
  5
   471
  8
0
  6
CONTINUOUS
 62
     1
 10
-511.384391504527
 20
-36.6013636142016
 30
0.0
 11
-510.484391528369
 21
-36.6013636142016
 31
0.0
  0
LINE
  5
   472
  8
0
  6
CONTINUOUS
 62
     1
 10
-511.384391504527
 20
11.9986333817244
 30
0.0
 11
-511.384391504527
 21
12.8986333578825
 31
0.0
  0
LINE
  5
   473
  8
0
  6
CONTINUOUS
 62
     1
 10
-511.384391504527
 20
12.8986333578825
 30
0.0
 11
-510.484391528369
 21
12.8986333578825
 31
0.0
  0
LINE
  5
   474
  8
0
  6
CONTINUOUS
 62
     1
 10
-511.384391504527
 20
-35.7013636380434
 30
0.0
 11
-511.384391504527
 21
11.9986350983381
 31
0.0
  0
LINE
  5
   475
  8
0
  6
CONTINUOUS
 62
     1
 10
-513.409391450883
 20
19.008439256819
 30
0.0
 11
-513.409391450883
 21
21.1888270774764
 31
0.0
  0
LINE
  5
   476
  8
0
  6
CONTINUOUS
 62
     1
 10
-513.409391450883
 20
-44.8915556171817
 30
0.0
 11
-513.409391450883
 21
-42.7111712297517
 31
0.0
  0
LINE
  5
   477
  8
0
  6
CONTINUOUS
 62
     1
 10
-510.484391528369
 20
-48.0763650268316
 30
0.0
 11
-510.484391528369
 21
24.3736330538989
 31
0.0
  0
LINE
  5
   478
  8
0
  6
CONTINUOUS
 62
     1
 10
-510.484391528369
 20
-48.0763633102179
 30
0.0
 11
-508.909391570092
 21
-48.0763633102179
 31
0.0
  0
LINE
  5
   479
  8
0
  6
CONTINUOUS
 62
     1
 10
-508.909391570092
 20
-48.0763633102179
 30
0.0
 11
-508.909391570092
 21
24.3736347705126
 31
0.0
  0
LINE
  5
   47A
  8
0
  6
CONTINUOUS
 62
     1
 10
-510.484391528369
 20
24.3736330538989
 30
0.0
 11
-508.909391570092
 21
24.3736330538989
 31
0.0
  0
LINE
  5
   47B
  8
0
  6
CONTINUOUS
 62
     1
 10
-510.484391528369
 20
24.3736330538989
 30
0.0
 11
-510.03439154029
 21
24.3736330538989
 31
0.0
  0
LINE
  5
   47C
  8
0
  6
CONTINUOUS
 62
     1
 10
-513.409391359968
 20
19.0084382861804
 30
0.0
 11
-512.959391357071
 21
18.7486322290145
 31
0.0
  0
LINE
  5
   47D
  8
0
  6
CONTINUOUS
 62
     1
 10
-513.409392088191
 20
21.1888259459127
 30
0.0
 11
-512.959392085295
 21
21.4486320030786
 31
0.0
  0
LINE
  5
   47E
  8
0
  6
CONTINUOUS
 62
     1
 10
-511.834391492606
 20
18.7486332029105
 30
0.0
 11
-511.834391492606
 21
18.7824848255489
 31
0.0
  0
LINE
  5
   47F
  8
0
  6
CONTINUOUS
 62
     1
 10
-512.959391462804
 20
18.7486332029105
 30
0.0
 11
-510.484391528369
 21
18.7486332029105
 31
0.0
  0
LINE
  5
   480
  8
0
  6
CONTINUOUS
 62
     1
 10
-512.959391462804
 20
18.7824848255489
 30
0.0
 11
-512.959391462804
 21
18.8823299461949
 31
0.0
  0
LINE
  5
   481
  8
0
  6
CONTINUOUS
 62
     1
 10
-512.959391462804
 20
18.8823299461949
 30
0.0
 11
-512.959391462804
 21
19.0431629192292
 31
0.0
  0
LINE
  5
   482
  8
0
  6
CONTINUOUS
 62
     1
 10
-512.959391462804
 20
19.0431629192292
 30
0.0
 11
-512.959391462804
 21
19.2569225266036
 31
0.0
  0
LINE
  5
   483
  8
0
  6
CONTINUOUS
 62
     1
 10
-512.959391462804
 20
19.2569225266036
 30
0.0
 11
-512.959391462804
 21
19.5128902322251
 31
0.0
  0
LINE
  5
   484
  8
0
  6
CONTINUOUS
 62
     1
 10
-512.959391462804
 20
19.5128902322251
 30
0.0
 11
-512.959391462804
 21
19.7982326318927
 31
0.0
  0
LINE
  5
   485
  8
0
  6
CONTINUOUS
 62
     1
 10
-512.959391462804
 20
19.7982326318927
 30
0.0
 11
-512.959391462804
 21
20.0986331671477
 31
0.0
  0
LINE
  5
   486
  8
0
  6
CONTINUOUS
 62
     1
 10
-512.959391462804
 20
20.0986331671477
 30
0.0
 11
-512.959391462804
 21
20.3990405688576
 31
0.0
  0
LINE
  5
   487
  8
0
  6
CONTINUOUS
 62
     1
 10
-512.959391462804
 20
20.3990405688576
 30
0.0
 11
-512.959391462804
 21
20.6843761020702
 31
0.0
  0
LINE
  5
   488
  8
0
  6
CONTINUOUS
 62
     1
 10
-512.959391462804
 20
20.6843761020702
 30
0.0
 11
-512.959391462804
 21
20.9403438076918
 31
0.0
  0
LINE
  5
   489
  8
0
  6
CONTINUOUS
 62
     1
 10
-512.959391462804
 20
20.9403438076918
 30
0.0
 11
-512.959391462804
 21
21.1541102815211
 31
0.0
  0
LINE
  5
   48A
  8
0
  6
CONTINUOUS
 62
     1
 10
-512.959391462804
 20
21.1541102815211
 30
0.0
 11
-512.959391462804
 21
21.3149432545554
 31
0.0
  0
LINE
  5
   48B
  8
0
  6
CONTINUOUS
 62
     1
 10
-512.959391462804
 20
21.3149432545554
 30
0.0
 11
-512.959391462804
 21
21.4147883752014
 31
0.0
  0
LINE
  5
   48C
  8
0
  6
CONTINUOUS
 62
     1
 10
-512.959391462804
 20
21.4486331313849
 30
0.0
 11
-510.484391528369
 21
21.4486331313849
 31
0.0
  0
LINE
  5
   48D
  8
0
  6
CONTINUOUS
 62
     1
 10
-512.959391462804
 20
21.4147883752014
 30
0.0
 11
-512.959391462804
 21
21.4486331313849
 31
0.0
  0
LINE
  5
   48E
  8
0
  6
CONTINUOUS
 62
     1
 10
-513.409391965728
 20
-44.8915560029227
 30
0.0
 11
-512.959391962831
 21
-45.151363759071
 31
0.0
  0
LINE
  5
   48F
  8
0
  6
CONTINUOUS
 62
     1
 10
-513.409392380333
 20
-42.7111720408724
 30
0.0
 11
-512.959392377436
 21
-42.4513642847241
 31
0.0
  0
LINE
  5
   490
  8
0
  6
CONTINUOUS
 62
     1
 10
-512.959391462804
 20
-45.1513633877039
 30
0.0
 11
-512.959391462804
 21
-45.117515198293
 31
0.0
  0
LINE
  5
   491
  8
0
  6
CONTINUOUS
 62
     1
 10
-512.959391462804
 20
-45.1513633877039
 30
0.0
 11
-510.484391528369
 21
-45.1513633877039
 31
0.0
  0
LINE
  5
   492
  8
0
  6
CONTINUOUS
 62
     1
 10
-512.959391462804
 20
-45.117515198293
 30
0.0
 11
-512.959391462804
 21
-45.0176717942607
 31
0.0
  0
LINE
  5
   493
  8
0
  6
CONTINUOUS
 62
     1
 10
-512.959391462804
 20
-45.0176717942607
 30
0.0
 11
-512.959391462804
 21
-44.8568353879989
 31
0.0
  0
LINE
  5
   494
  8
0
  6
CONTINUOUS
 62
     1
 10
-512.959391462804
 20
-44.8568353879989
 30
0.0
 11
-512.959391462804
 21
-44.6430740640108
 31
0.0
  0
LINE
  5
   495
  8
0
  6
CONTINUOUS
 62
     1
 10
-512.959391462804
 20
-44.6430740640108
 30
0.0
 11
-512.959391462804
 21
-44.3871063583893
 31
0.0
  0
LINE
  5
   496
  8
0
  6
CONTINUOUS
 62
     1
 10
-512.959391462804
 20
-44.3871063583893
 30
0.0
 11
-512.959391462804
 21
-44.1017673919491
 31
0.0
  0
LINE
  5
   497
  8
0
  6
CONTINUOUS
 62
     1
 10
-512.959391462804
 20
-44.1017673919491
 30
0.0
 11
-512.959391462804
 21
-43.8013634234667
 31
0.0
  0
LINE
  5
   498
  8
0
  6
CONTINUOUS
 62
     1
 10
-512.959391462804
 20
-43.8013634234667
 30
0.0
 11
-512.959391462804
 21
-43.5009594549842
 31
0.0
  0
LINE
  5
   499
  8
0
  6
CONTINUOUS
 62
     1
 10
-512.959391462804
 20
-43.5009594549842
 30
0.0
 11
-512.959391462804
 21
-43.2156204885441
 31
0.0
  0
LINE
  5
   49A
  8
0
  6
CONTINUOUS
 62
     1
 10
-512.959391462804
 20
-43.2156204885441
 30
0.0
 11
-512.959391462804
 21
-42.9596527829226
 31
0.0
  0
LINE
  5
   49B
  8
0
  6
CONTINUOUS
 62
     1
 10
-512.959391462804
 20
-42.9596527829226
 30
0.0
 11
-512.959391462804
 21
-42.7458914589345
 31
0.0
  0
LINE
  5
   49C
  8
0
  6
CONTINUOUS
 62
     1
 10
-512.959391462804
 20
-42.7458914589345
 30
0.0
 11
-512.959391462804
 21
-42.5850550526727
 31
0.0
  0
LINE
  5
   49D
  8
0
  6
CONTINUOUS
 62
     1
 10
-512.959391462804
 20
-42.5850550526727
 30
0.0
 11
-512.959391462804
 21
-42.4852099320267
 31
0.0
  0
LINE
  5
   49E
  8
0
  6
CONTINUOUS
 62
     1
 10
-512.959391462804
 20
-42.4513634592295
 30
0.0
 11
-510.484391528369
 21
-42.4513634592295
 31
0.0
  0
LINE
  5
   49F
  8
0
  6
CONTINUOUS
 62
     1
 10
-512.959391462804
 20
-42.4852099320267
 30
0.0
 11
-512.959391462804
 21
-42.4513634592295
 31
0.0
  0
LINE
  5
   4A0
  8
0
  6
CONTINUOUS
 62
     7
 10
-510.484391528369
 20
24.3736330538989
 30
0.0
 11
-510.484391528369
 21
57.0887627698839
 31
0.0
  0
LINE
  5
   4A1
  8
0
  6
CONTINUOUS
 62
     7
 10
-511.384391504527
 20
12.8986333578825
 30
0.0
 11
-511.384391504527
 21
18.7486332029105
 31
0.0
  0
LINE
  5
   4A2
  8
0
  6
CONTINUOUS
 62
     7
 10
-510.484391528369
 20
-91.4776663360246
 30
0.0
 11
-510.484391528369
 21
-48.0763633102179
 31
0.0
  0
LINE
  5
   4A3
  8
0
  6
CONTINUOUS
 62
     7
 10
-511.384391504527
 20
-91.7392942360705
 30
0.0
 11
-511.384391504527
 21
-45.1513633877039
 31
0.0
  0
LINE
  5
   4A4
  8
0
  6
CONTINUOUS
 62
     7
 10
-514.526853323287
 20
-92.6528005787333
 30
0.0
 11
-507.341273182784
 21
-90.5639691425407
 31
0.0
  0
LINE
  5
   4A5
  8
0
  6
CONTINUOUS
 62
     7
 10
-513.607767491362
 20
59.0799149462921
 30
0.0
 11
-506.923506895546
 21
54.8186988164593
 31
0.0
  0
LINE
  5
   4A6
  8
0
  6
CONTINUOUS
 62
     7
 10
-511.384391504527
 20
21.6736331254244
 30
0.0
 11
-510.484391528369
 21
21.6736331254244
 31
0.0
  0
LINE
  5
   4A7
  8
0
  6
CONTINUOUS
 62
     7
 10
-511.384391504527
 20
18.5236332088709
 30
0.0
 11
-510.484391528369
 21
18.5236332088709
 31
0.0
  0
LINE
  5
   4A8
  8
0
  6
CONTINUOUS
 62
     7
 10
-511.384391504527
 20
-42.2263634651899
 30
0.0
 11
-510.484391528369
 21
-42.2263634651899
 31
0.0
  0
LINE
  5
   4A9
  8
0
  6
CONTINUOUS
 62
     7
 10
-511.384391504527
 20
-45.3763633817434
 30
0.0
 11
-510.484391528369
 21
-45.3763633817434
 31
0.0
  0
LINE
  5
   4AA
  8
0
  6
CONTINUOUS
 62
     7
 10
-511.384391504527
 20
-37.0513636022806
 30
0.0
 11
-510.484391528369
 21
-37.0513636022806
 31
0.0
  0
LINE
  5
   4AB
  8
0
  6
CONTINUOUS
 62
     7
 10
-511.384391504527
 20
13.3486333459616
 30
0.0
 11
-510.484391528369
 21
13.3486333459616
 31
0.0
  0
LINE
  5
   4AC
  8
0
  6
CONTINUOUS
 62
     7
 10
-511.384391504527
 20
21.4486331313849
 30
0.0
 11
-511.384391504527
 21
57.6625127546847
 31
0.0
  0
LINE
  5
   4AD
  8
0
  6
CONTINUOUS
 62
     7
 10
-511.384391504527
 20
-42.4513634592295
 30
0.0
 11
-511.384391504527
 21
-36.6013636142016
 31
0.0
  0
INSERT
  5
   4AE
  8
0
  6
CONTINUOUS
 62
     7
  2
*HATCH152
 10
-558.409362792969
 20
-45.7138633728027
 30
0.0
 41
0.449999988079071
 42
0.449999988079071
 43
0.449999988079071
  0
INSERT
  5
   4AF
  8
0
  6
CONTINUOUS
 62
     7
  2
*HATCH153
 10
-558.409362792969
 20
-45.7138633728027
 30
0.0
 41
0.449999988079071
 42
0.449999988079071
 43
0.449999988079071
  0
INSERT
  5
   4B0
  8
0
  6
CONTINUOUS
 62
     7
  2
*HATCH154
 10
-558.409362792969
 20
-45.7138633728027
 30
0.0
 41
0.449999988079071
 42
0.449999988079071
 43
0.449999988079071
  0
INSERT
  5
   4B1
  8
0
  6
CONTINUOUS
 62
     7
  2
*HATCH155
 10
-558.409362792969
 20
-45.7138633728027
 30
0.0
 41
0.449999988079071
 42
0.449999988079071
 43
0.449999988079071
  0
LINE
  5
   4B2
  8
0
  6
DASHDOT
 62
     7
 10
-569.539114402309
 20
-11.8513848692173
 30
0.0
 11
-481.928762387542
 21
-11.8513848692173
 31
0.0
  0
LINE
  5
   4B3
  8
0
  6
CONTINUOUS
 62
     3
 10
-549.161869475245
 20
39.7861354670388
 30
0.0
 11
-549.161869475245
 21
43.8361353597506
 31
0.0
  0
LINE
  5
   4B4
  8
0
  6
CONTINUOUS
 62
     7
 10
-533.344404904414
 20
32.4736356607539
 30
0.0
 11
-523.237174501077
 21
32.4736356607539
 31
0.0
  0
LINE
  5
   4B5
  8
0
  6
CONTINUOUS
 62
     7
 10
-523.237174501077
 20
32.4736356607539
 30
0.0
 11
-520.445969291414
 21
45.4062197988611
 31
0.0
  0
INSERT
  5
   4B6
  8
0
  6
CONTINUOUS
 62
     7
  2
*HATCH156
 10
-558.409362792969
 20
-45.7138633728027
 30
0.0
 41
0.449999988079071
 42
0.449999988079071
 43
0.449999988079071
  0
LINE
  5
   4B7
  8
0
  6
CONTINUOUS
 62
     2
 10
-545.561869570613
 20
35.2861355862481
 30
0.0
 11
-545.561869570613
 21
41.5861354193551
 31
0.0
  0
LINE
  5
   4B8
  8
0
  6
DASHDOT
 62
     7
 10
-551.163490951173
 20
38.4361355028016
 30
0.0
 11
-544.047238687046
 21
38.4361355028016
 31
0.0
  0
LINE
  5
   4B9
  8
0
  6
CONTINUOUS
 62
     2
 10
-553.211863483066
 20
40.461134344339
 30
0.0
 11
-553.053241180073
 21
40.2873514551617
 31
0.0
  0
LINE
  5
   4BA
  8
0
  6
CONTINUOUS
 62
     2
 10
-545.561869570613
 20
41.5861354193551
 30
0.0
 11
-545.20186958015
 21
41.5861354193551
 31
0.0
  0
LINE
  5
   4BB
  8
0
  6
CONTINUOUS
 62
     2
 10
-545.561869570613
 20
35.2861355862481
 30
0.0
 11
-545.20186958015
 21
35.2861355862481
 31
0.0
  0
LINE
  5
   4BC
  8
0
  6
CONTINUOUS
 62
     2
 10
-545.20186958015
 20
35.2861355862481
 30
0.0
 11
-545.20186958015
 21
41.5861354193551
 31
0.0
  0
LINE
  5
   4BD
  8
0
  6
CONTINUOUS
 62
     1
 10
-542.501869651675
 20
36.1861355624062
 30
0.0
 11
-542.501869651675
 21
40.6861354431969
 31
0.0
  0
LINE
  5
   4BE
  8
0
  6
CONTINUOUS
 62
     1
 10
-545.20186958015
 20
36.1861355624062
 30
0.0
 11
-545.20186958015
 21
40.6861354431969
 31
0.0
  0
LINE
  5
   4BF
  8
0
  6
CONTINUOUS
 62
     1
 10
-546.551869544387
 20
37.0861355385644
 30
0.0
 11
-546.551869544387
 21
39.7861354670388
 31
0.0
  0
LINE
  5
   4C0
  8
0
  6
CONTINUOUS
 62
     1
 10
-556.451869282126
 20
39.7861354670388
 30
0.0
 11
-545.561869570613
 21
39.7861354670388
 31
0.0
  0
LINE
  5
   4C1
  8
0
  6
CONTINUOUS
 62
     1
 10
-556.451869282126
 20
37.0861355385644
 30
0.0
 11
-545.561869570613
 21
37.0861355385644
 31
0.0
  0
LINE
  5
   4C2
  8
0
  6
CONTINUOUS
 62
     1
 10
-545.20186958015
 20
40.6861354431969
 30
0.0
 11
-542.501869651675
 21
40.6861354431969
 31
0.0
  0
LINE
  5
   4C3
  8
0
  6
CONTINUOUS
 62
     1
 10
-545.20186958015
 20
36.1861355624062
 30
0.0
 11
-542.501869651675
 21
36.1861355624062
 31
0.0
  0
LINE
  5
   4C4
  8
0
  6
CONTINUOUS
 62
     7
 10
-556.451869282126
 20
39.5100919743514
 30
0.0
 11
-546.551869486617
 21
39.5100919743514
 31
0.0
  0
LINE
  5
   4C5
  8
0
  6
CONTINUOUS
 62
     7
 10
-556.451869282126
 20
37.3621790312517
 30
0.0
 11
-546.551869486617
 21
37.3621790312517
 31
0.0
  0
LINE
  5
   4C6
  8
0
  6
DASHDOT
 62
     7
 10
-550.601869007945
 20
38.4361355028016
 30
0.0
 11
-541.646869674325
 21
38.4361355028016
 31
0.0
  0
LINE
  5
   4C7
  8
0
  6
CONTINUOUS
 62
     1
 10
-556.451869282126
 20
37.0861339790416
 30
0.0
 11
-556.451869282126
 21
39.7861334783627
 31
0.0
  0
LINE
  5
   4C8
  8
0
  6
CONTINUOUS
 62
     7
 10
-549.184369903803
 20
-68.6638638635154
 30
0.0
 11
-549.184369903803
 21
-64.6138628721237
 31
0.0
  0
LINE
  5
   4C9
  8
0
  6
CONTINUOUS
 62
     7
 10
-546.934369963407
 20
-73.1638637443061
 30
0.0
 11
-546.934369963407
 21
-66.8638639111991
 31
0.0
  0
LINE
  5
   4CA
  8
0
  6
DASHDOT
 62
     7
 10
-550.775889180492
 20
-70.0138638277526
 30
0.0
 11
-545.451733692899
 21
-70.0138638277526
 31
0.0
  0
LINE
  5
   4CB
  8
0
  6
CONTINUOUS
 62
     2
 10
-546.574369972944
 20
-73.1638637443061
 30
0.0
 11
-546.574369972944
 21
-66.8638639111991
 31
0.0
  0
LINE
  5
   4CC
  8
0
  6
CONTINUOUS
 62
     2
 10
-546.934369963407
 20
-66.8638639111991
 30
0.0
 11
-546.574369972944
 21
-66.8638639111991
 31
0.0
  0
LINE
  5
   4CD
  8
0
  6
CONTINUOUS
 62
     2
 10
-546.934369963407
 20
-73.1638637443061
 30
0.0
 11
-546.574369972944
 21
-73.1638637443061
 31
0.0
  0
LINE
  5
   4CE
  8
0
  6
CONTINUOUS
 62
     1
 10
-543.87437004447
 20
-72.263863768148
 30
0.0
 11
-543.87437004447
 21
-67.7638638873572
 31
0.0
  0
LINE
  5
   4CF
  8
0
  6
CONTINUOUS
 62
     1
 10
-546.574369972944
 20
-72.263863768148
 30
0.0
 11
-546.574369972944
 21
-67.7638638873572
 31
0.0
  0
LINE
  5
   4D0
  8
0
  6
CONTINUOUS
 62
     1
 10
-547.924369937181
 20
-71.3638637919898
 30
0.0
 11
-547.924369937181
 21
-68.6638638635154
 31
0.0
  0
LINE
  5
   4D1
  8
0
  6
CONTINUOUS
 62
     1
 10
-557.824369674921
 20
-68.6638638635154
 30
0.0
 11
-546.934369963407
 21
-68.6638638635154
 31
0.0
  0
LINE
  5
   4D2
  8
0
  6
CONTINUOUS
 62
     1
 10
-557.824369674921
 20
-71.3638637919898
 30
0.0
 11
-546.934369963407
 21
-71.3638637919898
 31
0.0
  0
LINE
  5
   4D3
  8
0
  6
CONTINUOUS
 62
     1
 10
-546.574369972944
 20
-67.7638638873572
 30
0.0
 11
-543.87437004447
 21
-67.7638638873572
 31
0.0
  0
LINE
  5
   4D4
  8
0
  6
CONTINUOUS
 62
     1
 10
-546.574369972944
 20
-72.263863768148
 30
0.0
 11
-543.87437004447
 21
-72.263863768148
 31
0.0
  0
LINE
  5
   4D5
  8
0
  6
CONTINUOUS
 62
     7
 10
-557.824369674921
 20
-68.9399073562027
 30
0.0
 11
-547.924369879412
 21
-68.9399073562027
 31
0.0
  0
LINE
  5
   4D6
  8
0
  6
CONTINUOUS
 62
     7
 10
-557.824369674921
 20
-71.0878202993025
 30
0.0
 11
-547.924369879412
 21
-71.0878202993025
 31
0.0
  0
LINE
  5
   4D7
  8
0
  6
DASHDOT
 62
     7
 10
-551.97436940074
 20
-70.0138638277526
 30
0.0
 11
-543.019370067119
 21
-70.0138638277526
 31
0.0
  0
LINE
  5
   4D8
  8
0
  6
CONTINUOUS
 62
     1
 10
-557.824369674921
 20
-71.3638637919898
 30
0.0
 11
-557.824369674921
 21
-68.6638619357193
 31
0.0
  0
LINE
  5
   4D9
  8
0
  6
CONTINUOUS
 62
     2
 10
-549.184369903803
 20
-75.4138625860214
 30
0.0
 11
-549.184369903803
 21
-71.3638637919898
 31
0.0
  0
LINE
  5
   4DA
  8
0
  6
CONTINUOUS
 62
     2
 10
-550.53436986804
 20
-75.4138625860214
 30
0.0
 11
-550.53436986804
 21
-71.3638637919898
 31
0.0
  0
LINE
  5
   4DB
  8
0
  6
CONTINUOUS
 62
     2
 10
-557.486862733655
 20
-68.6638638635154
 30
0.0
 11
-557.486862733655
 21
-68.2138616614518
 31
0.0
  0
LINE
  5
   4DC
  8
0
  6
CONTINUOUS
 62
     3
 10
-508.909391570092
 20
11.7736145049339
 30
0.0
 11
-507.784391599895
 21
11.7736145049339
 31
0.0
  0
LINE
  5
   4DD
  8
0
  6
CONTINUOUS
 62
     3
 10
-508.909391570092
 20
-3.97636469669424
 30
0.0
 11
-507.784391599895
 21
-3.97636469669424
 31
0.0
  0
LINE
  5
   4DE
  8
0
  6
CONTINUOUS
 62
     3
 10
-508.909391570092
 20
-4.42636468477331
 30
0.0
 11
-507.784391599895
 21
-4.42636468477331
 31
0.0
  0
LINE
  5
   4DF
  8
0
  6
CONTINUOUS
 62
     3
 10
-508.909391570092
 20
-12.5263644701966
 30
0.0
 11
-507.784391599895
 21
-12.5263644701966
 31
0.0
  0
LINE
  5
   4E0
  8
0
  6
CONTINUOUS
 62
     3
 10
-508.909391570092
 20
-12.9763644582757
 30
0.0
 11
-507.784391599895
 21
-12.9763644582757
 31
0.0
  0
LINE
  5
   4E1
  8
0
  6
CONTINUOUS
 62
     3
 10
-508.909391570092
 20
-22.4263642079362
 30
0.0
 11
-507.784391599895
 21
-22.4263642079362
 31
0.0
  0
LINE
  5
   4E2
  8
0
  6
CONTINUOUS
 62
     3
 10
-508.909391570092
 20
-22.8763641960152
 30
0.0
 11
-507.784391599895
 21
-22.8763641960152
 31
0.0
  0
LINE
  5
   4E3
  8
0
  6
CONTINUOUS
 62
     3
 10
-508.909391570092
 20
-30.9763618356711
 30
0.0
 11
-507.784391599895
 21
-30.9763618356711
 31
0.0
  0
LINE
  5
   4E4
  8
0
  6
CONTINUOUS
 62
     3
 10
-508.909391570092
 20
-31.4263592488298
 30
0.0
 11
-507.784391599895
 21
-31.4263592488298
 31
0.0
  0
LINE
  5
   4E5
  8
0
  6
CONTINUOUS
 62
     3
 10
-508.909391570092
 20
-35.4763773769137
 30
0.0
 11
-507.784391599895
 21
-35.4763773769137
 31
0.0
  0
LINE
  5
   4E6
  8
0
  6
DASHDOT
 62
     7
 10
-566.960869797788
 20
37.5361138224607
 30
0.0
 11
-557.27966784761
 21
37.5361138224607
 31
0.0
  0
LINE
  5
   4E7
  8
0
  6
CONTINUOUS
 62
     2
 10
-563.359369528293
 20
35.7361138701444
 30
0.0
 11
-563.359369528293
 21
39.336113774777
 31
0.0
  0
LINE
  5
   4E8
  8
0
  6
CONTINUOUS
 62
     2
 10
-565.15936948061
 20
36.411113852263
 30
0.0
 11
-565.15936948061
 21
38.6611137926584
 31
0.0
  0
LINE
  5
   4E9
  8
0
  6
CONTINUOUS
 62
     2
 10
-563.359369528293
 20
39.336113774777
 30
0.0
 11
-561.559369575977
 21
39.336113774777
 31
0.0
  0
LINE
  5
   4EA
  8
0
  6
CONTINUOUS
 62
     2
 10
-563.359369528293
 20
35.7361138701444
 30
0.0
 11
-561.559369575977
 21
35.7361138701444
 31
0.0
  0
LINE
  5
   4EB
  8
0
  6
CONTINUOUS
 62
     2
 10
-565.15936948061
 20
38.6611137926584
 30
0.0
 11
-561.559369575977
 21
38.6611137926584
 31
0.0
  0
LINE
  5
   4EC
  8
0
  6
CONTINUOUS
 62
     2
 10
-565.15936948061
 20
36.411113852263
 30
0.0
 11
-561.559369575977
 21
36.411113852263
 31
0.0
  0
LINE
  5
   4ED
  8
0
  6
CONTINUOUS
 62
     2
 10
-563.359369528293
 20
-67.3138833999628
 30
0.0
 11
-561.559369575977
 21
-67.3138833999628
 31
0.0
  0
LINE
  5
   4EE
  8
0
  6
CONTINUOUS
 62
     2
 10
-565.15936948061
 20
-67.9888833820814
 30
0.0
 11
-561.559369575977
 21
-67.9888833820814
 31
0.0
  0
LINE
  5
   4EF
  8
0
  6
DASHDOT
 62
     7
 10
-566.960869797788
 20
-69.1138833522791
 30
0.0
 11
-557.27966784761
 21
-69.1138833522791
 31
0.0
  0
LINE
  5
   4F0
  8
0
  6
CONTINUOUS
 62
     2
 10
-565.15936948061
 20
-70.2388833224768
 30
0.0
 11
-561.559369575977
 21
-70.2388833224768
 31
0.0
  0
LINE
  5
   4F1
  8
0
  6
CONTINUOUS
 62
     2
 10
-563.359369528293
 20
-70.9138833045954
 30
0.0
 11
-561.559369575977
 21
-70.9138833045954
 31
0.0
  0
LINE
  5
   4F2
  8
0
  6
CONTINUOUS
 62
     2
 10
-563.359369528293
 20
-70.9138833045954
 30
0.0
 11
-563.359369528293
 21
-67.3138833999628
 31
0.0
  0
LINE
  5
   4F3
  8
0
  6
CONTINUOUS
 62
     2
 10
-565.15936948061
 20
-70.2388833224768
 30
0.0
 11
-565.15936948061
 21
-67.9888833820814
 31
0.0
  0
INSERT
  5
   4F4
  8
0
  6
CONTINUOUS
 62
     7
  2
*UDIM368
 10
0.0
 20
0.0
 30
0.0
  0
INSERT
  5
   4F5
  8
0
  6
CONTINUOUS
 62
     7
  2
*UDIM369
 10
0.0
 20
0.0
 30
0.0
  0
INSERT
  5
   4F6
  8
0
  6
CONTINUOUS
 62
     7
  2
*UDIM370
 10
0.0
 20
0.0
 30
0.0
  0
INSERT
  5
   4F7
  8
0
  6
CONTINUOUS
 62
     7
  2
*UDIM371
 10
0.0
 20
0.0
 30
0.0
  0
LINE
  5
   4F8
  8
0
  6
CONTINUOUS
 62
    90
 10
-559.534362334013
 20
-84.3252749684028
 30
0.0
 11
-559.534362334013
 21
74.2112645995582
 31
0.0
  0
LINE
  5
   4F9
  8
0
  6
CONTINUOUS
 62
    90
 10
-560.209362316132
 20
-84.2957158810035
 30
0.0
 11
-560.209362316132
 21
74.2112645995582
 31
0.0
  0
LINE
  5
   4FA
  8
0
  6
CONTINUOUS
 62
    90
 10
-560.209362316132
 20
74.2112645995582
 30
0.0
 11
-559.534362334013
 21
74.2112645995582
 31
0.0
  0
LINE
  5
   4FB
  8
0
  6
CONTINUOUS
 62
     7
 10
-559.534362334013
 20
45.4563566851557
 30
0.0
 11
-518.134363430739
 21
45.4563566851557
 31
0.0
  0
LINE
  5
   4FC
  8
0
  6
CONTINUOUS
 62
     7
 10
-558.634362357855
 20
86.5861358690261
 30
0.0
 11
-519.034363406897
 21
86.5861358690261
 31
0.0
  0
LINE
  5
   4FD
  8
0
  6
CONTINUOUS
 62
     7
 10
-518.134363430739
 20
45.2311369645594
 30
0.0
 11
-518.134363430739
 21
85.6861410635999
 31
0.0
  0
LINE
  5
   4FE
  8
0
  6
CONTINUOUS
 62
     7
 10
-518.134363430739
 20
44.511134237051
 30
0.0
 11
-518.134363430739
 21
45.2311369645594
 31
0.0
  0
LINE
  5
   4FF
  8
0
  6
CONTINUOUS
 62
     7
 10
-559.534362334013
 20
74.2112645995582
 30
0.0
 11
-559.534362334013
 21
85.6861410636055
 31
0.0
  0
LINE
  5
   500
  8
0
  6
CONTINUOUS
 62
     7
 10
-559.534362334013
 20
44.511134237051
 30
0.0
 11
-559.534362334013
 21
45.2311369645594
 31
0.0
  0
ARC
  5
   501
  8
0
  6
CONTINUOUS
 62
     7
 10
-519.034358236162
 20
85.6861410635999
 30
0.0
 40
0.899994805440673
 50
0.0
 51
90.0003291811129
  0
ARC
  5
   502
  8
0
  6
CONTINUOUS
 62
     7
 10
-558.634367528593
 20
85.6861410636055
 30
0.0
 40
0.899994805435762
 50
89.9996708186867
 51
180.000329181278
  0
LINE
  5
   503
  8
0
  6
CONTINUOUS
 62
     7
 10
-559.534362334013
 20
44.511134237051
 30
0.0
 11
-518.134363430739
 21
44.511134237051
 31
0.0
  0
LINE
  5
   504
  8
0
  6
CONTINUOUS
 62
     7
 10
-559.534362334013
 20
-77.1238364481933
 30
0.0
 11
-518.134363430739
 21
-77.1238364481933
 31
0.0
  0
LINE
  5
   505
  8
0
  6
CONTINUOUS
 62
     7
 10
-518.134363430739
 20
-86.1382323288942
 30
0.0
 11
-518.134363430739
 21
-76.8986167275971
 31
0.0
  0
LINE
  5
   506
  8
0
  6
CONTINUOUS
 62
     7
 10
-518.134363430739
 20
-76.8986167275971
 30
0.0
 11
-518.134363430739
 21
-76.1786140000886
 31
0.0
  0
LINE
  5
   507
  8
0
  6
CONTINUOUS
 62
     7
 10
-559.534362334013
 20
-76.8986167275971
 30
0.0
 11
-559.534362334013
 21
-76.1786140000886
 31
0.0
  0
LINE
  5
   508
  8
0
  6
CONTINUOUS
 62
     7
 10
-559.534362334013
 20
-76.1786140000886
 30
0.0
 11
-518.134363430739
 21
-76.1786140000886
 31
0.0
  0
LINE
  5
   509
  8
0
  6
CONTINUOUS
 62
     7
 10
-563.505838292807
 20
-84.1513591045805
 30
0.0
 11
-515.151457715312
 21
-86.2688574742008
 31
0.0
  0
LINE
  5
   50A
  8
0
  6
CONTINUOUS
 62
     7
 10
-534.818086408498
 20
-83.8362257065085
 30
0.0
 11
-534.818086408498
 21
-79.3362258257178
 31
0.0
  0
LINE
  5
   50B
  8
0
  6
CONTINUOUS
 62
     7
 10
-534.818086408498
 20
-59.9596654023426
 30
0.0
 11
-534.818086408498
 21
-55.4596655215519
 31
0.0
  0
LINE
  5
   50C
  8
0
  6
DASHDOT
 62
     7
 10
-534.818086408498
 20
-79.3362258257178
 30
0.0
 11
-534.818086408498
 21
-59.9596654023426
 31
0.0
  0
POINT
  5
   50D
  8
0
  6
CONTINUOUS
 62
     7
 10
-534.818086408498
 20
-57.7096654619473
 30
0.0
  0
POINT
  5
   50E
  8
0
  6
CONTINUOUS
 62
     7
 10
-534.818086408498
 20
-81.5862257661131
 30
0.0
  0
LINE
  5
   50F
  8
0
  6
DASHDOT
 62
     7
 10
-534.818086408498
 20
-58.6096654381054
 30
0.0
 11
-534.818086408498
 21
-56.8096654857891
 31
0.0
  0
LINE
  5
   510
  8
0
  6
DASHDOT
 62
     7
 10
-535.718086384657
 20
-57.7096654619473
 30
0.0
 11
-533.91808643234
 21
-57.7096654619473
 31
0.0
  0
TEXT
  5
   511
  8
0
  6
CONTINUOUS
 62
     7
 10
-529.33353672677
 20
-56.5285048741668
 30
0.0
 40
3.00000011722246
  1
A
 41
0.933333333333334
 72
     1
 11
-528.233536683789
 21
-55.0285048155555
 31
0.0
 73
     2
  0
TEXT
  5
   512
  8
0
  6
CONTINUOUS
 62
     7
 10
-529.420557207714
 20
-81.1843078081022
 30
0.0
 40
3.00000011722246
  1
A
 41
0.933333333333334
 72
     1
 11
-528.320557164732
 21
-79.684307749491
 31
0.0
 73
     2
  0
INSERT
  5
   513
  8
0
  6
CONTINUOUS
 62
     7
  2
*UDIM372
 10
0.0
 20
0.0
 30
0.0
  0
INSERT
  5
   514
  8
0
  6
CONTINUOUS
 62
     7
  2
*UDIM373
 10
0.0
 20
0.0
 30
0.0
  0
INSERT
  5
   515
  8
0
  6
CONTINUOUS
 62
     7
  2
*UDIM374
 10
0.0
 20
0.0
 30
0.0
  0
INSERT
  5
   516
  8
0
  6
CONTINUOUS
 62
     7
  2
*UDIM375
 10
0.0
 20
0.0
 30
0.0
  0
INSERT
  5
   517
  8
0
  6
CONTINUOUS
 62
     7
  2
*UDIM376
 10
0.0
 20
0.0
 30
0.0
  0
INSERT
  5
   518
  8
0
  6
CONTINUOUS
 62
     7
  2
*UDIM377
 10
0.0
 20
0.0
 30
0.0
  0
INSERT
  5
   519
  8
0
  6
CONTINUOUS
 62
     7
  2
*UDIM378
 10
0.0
 20
0.0
 30
0.0
  0
INSERT
  5
   51A
  8
0
  6
CONTINUOUS
 62
     7
  2
*UDIM379
 10
0.0
 20
0.0
 30
0.0
  0
INSERT
  5
   51B
  8
0
  6
CONTINUOUS
 62
     7
  2
*UDIM380
 10
0.0
 20
0.0
 30
0.0
  0
INSERT
  5
   51C
  8
0
  6
CONTINUOUS
 62
     7
  2
*UDIM381
 10
0.0
 20
0.0
 30
0.0
  0
INSERT
  5
   51D
  8
0
  6
CONTINUOUS
 62
     7
  2
*UDIM382
 10
0.0
 20
0.0
 30
0.0
  0
INSERT
  5
   51E
  8
0
  6
CONTINUOUS
 62
     2
  2
*UDIM383
 10
0.0
 20
0.0
 30
0.0
  0
TEXT
  5
   51F
  8
0
  6
CONTINUOUS
 62
     7
 10
-475.052504684559
 20
-13.4556557993982
 30
0.0
 40
3.00000011722246
  1
X
 41
0.916666563948002
 72
     2
 11
-472.852504873969
 21
-13.4556557993982
 31
0.0
  0
INSERT
  5
   520
  8
0
  6
CONTINUOUS
 62
     2
  2
*UDIM384
 10
0.0
 20
0.0
 30
0.0
  0
INSERT
  5
   521
  8
0
  6
CONTINUOUS
 62
     7
  2
*UDIM385
 10
0.0
 20
0.0
 30
0.0
  0
INSERT
  5
   522
  8
0
  6
CONTINUOUS
 62
     7
  2
*UDIM386
 10
0.0
 20
0.0
 30
0.0
  0
LINE
  5
   523
  8
0
  6
CONTINUOUS
 62
     7
 10
-494.595862478018
 20
-166.076614916325
 30
0.0
 11
-501.070861816406
 21
-166.076614916325
 31
0.0
  0
LINE
  5
   524
  8
0
  6
DASHDOT
 62
     7
 10
-501.070861816406
 20
-166.906743194777
 30
0.0
 11
-501.070861816406
 21
-154.751615849498
 31
0.0
  0
LINE
  5
   525
  8
0
  6
DASHDOT
 62
     7
 10
-493.154195709761
 20
-161.876615345478
 30
0.0
 11
-508.719579224057
 21
-161.876615345478
 31
0.0
  0
LINE
  5
   526
  8
0
  6
CONTINUOUS
 62
     7
 10
-494.070862531662
 20
-165.551614969969
 30
0.0
 11
-494.070862531662
 21
-157.676615774632
 31
0.0
  0
ARC
  5
   527
  8
0
  6
CONTINUOUS
 62
     7
 10
-494.595862478018
 20
-165.551614969969
 30
0.0
 40
0.52499994635582
 50
269.999999948034
 51
359.999999948034
  0
LINE
  5
   528
  8
0
  6
DASHDOT
 62
     7
 10
-497.133362218738
 20
-165.347768946084
 30
0.0
 11
-497.133362218738
 21
-159.550333458756
 31
0.0
  0
CIRCLE
  5
   529
  8
0
  6
CONTINUOUS
 62
     7
 10
-497.133362218738
 20
-161.876615345478
 30
0.0
 40
1.13749988377094
  0
CIRCLE
  5
   52A
  8
0
  6
CONTINUOUS
 62
     7
 10
-501.070861816406
 20
-161.876615345478
 30
0.0
 40
1.92499980330467
  0
CIRCLE
  5
   52B
  8
0
  6
CONTINUOUS
 62
     7
 10
-501.070861816406
 20
-161.876615345478
 30
0.0
 40
1.74999982118607
  0
LINE
  5
   52C
  8
0
  6
CONTINUOUS
 62
     7
 10
-501.070861816406
 20
-166.076614916325
 30
0.0
 11
-507.545861154795
 21
-166.076614916325
 31
0.0
  0
ARC
  5
   52D
  8
0
  6
CONTINUOUS
 62
     7
 10
-507.545861154795
 20
-165.551614969969
 30
0.0
 40
0.52499994635582
 50
179.999999948034
 51
269.999999948034
  0
LINE
  5
   52E
  8
0
  6
CONTINUOUS
 62
     7
 10
-508.070861101151
 20
-165.551614969969
 30
0.0
 11
-508.070861101151
 21
-157.676615774632
 31
0.0
  0
CIRCLE
  5
   52F
  8
0
  6
CONTINUOUS
 62
     7
 10
-505.008361414075
 20
-161.876615345478
 30
0.0
 40
1.13749988377094
  0
LINE
  5
   530
  8
0
  6
DASHDOT
 62
     7
 10
-505.008361414075
 20
-165.347768946084
 30
0.0
 11
-505.008361414075
 21
-159.501615513485
 31
0.0
  0
LINE
  5
   531
  8
0
  6
CONTINUOUS
 62
     7
 10
-492.972999672759
 20
-157.676615774632
 30
0.0
 11
-509.168723960054
 21
-157.676615774632
 31
0.0
  0
LINE
  5
   532
  8
0
  6
CONTINUOUS
 62
     2
 10
-492.145862728357
 20
-166.60161486268
 30
0.0
 11
-492.145862728357
 21
-159.109258987153
 31
0.0
  0
LINE
  5
   533
  8
0
  6
CONTINUOUS
 62
     7
 10
-488.820863068104
 20
-155.926615953445
 30
0.0
 11
-513.320860564709
 21
-155.926615953445
 31
0.0
  0
LINE
  5
   534
  8
0
  6
CONTINUOUS
 62
     2
 10
-512.095860689879
 20
-164.15161511302
 30
0.0
 11
-513.320860564709
 21
-164.15161511302
 31
0.0
  0
LINE
  5
   535
  8
0
  6
CONTINUOUS
 62
     2
 10
-512.095860689879
 20
-165.726614952087
 30
0.0
 11
-512.095860689879
 21
-164.15161511302
 31
0.0
  0
LINE
  5
   536
  8
0
  6
CONTINUOUS
 62
     2
 10
-512.533360645175
 20
-166.60161486268
 30
0.0
 11
-512.533360645175
 21
-165.726614952087
 31
0.0
  0
LINE
  5
   537
  8
0
  6
CONTINUOUS
 62
     2
 10
-512.095860689879
 20
-165.726614952087
 30
0.0
 11
-512.533360645175
 21
-165.726614952087
 31
0.0
  0
LINE
  5
   538
  8
0
  6
CONTINUOUS
 62
     2
 10
-489.608362987638
 20
-166.60161486268
 30
0.0
 11
-489.608362987638
 21
-165.726614952087
 31
0.0
  0
LINE
  5
   539
  8
0
  6
CONTINUOUS
 62
     2
 10
-490.045862942934
 20
-165.726614952087
 30
0.0
 11
-490.045862942934
 21
-164.15161511302
 31
0.0
  0
LINE
  5
   53A
  8
0
  6
CONTINUOUS
 62
     2
 10
-488.820863068104
 20
-164.15161511302
 30
0.0
 11
-490.045862942934
 21
-164.15161511302
 31
0.0
  0
LINE
  5
   53B
  8
0
  6
CONTINUOUS
 62
     2
 10
-489.608362987638
 20
-165.726614952087
 30
0.0
 11
-490.045862942934
 21
-165.726614952087
 31
0.0
  0
LINE
  5
   53C
  8
0
  6
CONTINUOUS
 62
     2
 10
-489.608362987638
 20
-166.60161486268
 30
0.0
 11
-512.533360645175
 21
-166.60161486268
 31
0.0
  0
LINE
  5
   53D
  8
0
  6
CONTINUOUS
 62
     2
 10
-492.145862728357
 20
-159.109258987153
 30
0.0
 11
-492.972999672759
 21
-157.676615774632
 31
0.0
  0
LINE
  5
   53E
  8
0
  6
CONTINUOUS
 62
     2
 10
-509.995860904455
 20
-166.60161486268
 30
0.0
 11
-509.995860904455
 21
-159.109258987153
 31
0.0
  0
LINE
  5
   53F
  8
0
  6
CONTINUOUS
 62
     2
 10
-509.995860904455
 20
-159.109258987153
 30
0.0
 11
-509.168723960054
 21
-157.676615774632
 31
0.0
  0
LINE
  5
   540
  8
0
  6
CONTINUOUS
 62
     7
 10
-488.820863068104
 20
-170.987213315609
 30
0.0
 11
-488.820863068104
 21
-155.188021474666
 31
0.0
  0
LINE
  5
   541
  8
0
  6
CONTINUOUS
 62
     7
 10
-513.320860564709
 20
-170.987213315609
 30
0.0
 11
-513.320860564709
 21
-155.188021474666
 31
0.0
  0
INSERT
  5
   542
  8
0
  6
CONTINUOUS
 62
     3
  2
*HATCH157
 10
-501.070861816406
 20
-171.326614379883
 30
0.0
 41
0.349999964237213
 42
0.349999964237213
 50
89.9999999480344
 43
0.349999964237213
  0
LINE
  5
   543
  8
0
  6
CONTINUOUS
 62
     3
 10
-506.145861297846
 20
-161.876615345478
 30
0.0
 11
-506.145861297846
 21
-161.486714964507
 31
0.0
  0
LINE
  5
   544
  8
0
  6
CONTINUOUS
 62
     3
 10
-503.870861530304
 20
-161.876615345478
 30
0.0
 11
-503.870861530304
 21
-161.486714964507
 31
0.0
  0
INSERT
  5
   545
  8
0
  6
CONTINUOUS
 62
     7
  2
*UDIM387
 10
0.0
 20
0.0
 30
0.0
  0
INSERT
  5
   546
  8
0
  6
CONTINUOUS
 62
     7
  2
*UDIM388
 10
0.0
 20
0.0
 30
0.0
  0
INSERT
  5
   547
  8
0
  6
CONTINUOUS
 62
     1
  2
*UDIM389
 10
0.0
 20
0.0
 30
0.0
  0
INSERT
  5
   548
  8
0
  6
CONTINUOUS
 62
     7
  2
*UDIM390
 10
0.0
 20
0.0
 30
0.0
  0
INSERT
  5
   549
  8
0
  6
CONTINUOUS
 62
     7
  2
*UDIM391
 10
0.0
 20
0.0
 30
0.0
  0
LINE
  5
   54A
  8
0
  6
CONTINUOUS
 62
     7
 10
-710.407502216101
 20
43.1611197769644
 30
0.0
 11
-711.420019638907
 21
43.1611197769644
 31
0.0
  0
LINE
  5
   54B
  8
0
  6
CONTINUOUS
 62
     7
 10
-710.407502216101
 20
43.1611197769644
 30
0.0
 11
-710.407502216101
 21
44.0611197531225
 31
0.0
  0
LINE
  5
   54C
  8
0
  6
CONTINUOUS
 62
     7
 10
-649.545051801147
 20
44.5111266076538
 30
0.0
 11
-679.020051020326
 21
44.5111266076538
 31
0.0
  0
LINE
  5
   54D
  8
0
  6
CONTINUOUS
 62
     1
 10
-659.107243894925
 20
41.1361198306086
 30
0.0
 11
-661.573171568165
 21
41.1361198306086
 31
0.0
  0
LINE
  5
   54E
  8
0
  6
CONTINUOUS
 62
     1
 10
-659.107243894925
 20
35.7361199736597
 30
0.0
 11
-661.573171568165
 21
35.7361199736597
 31
0.0
  0
LINE
  5
   54F
  8
0
  6
CONTINUOUS
 62
     1
 10
-666.991866404746
 20
35.7361197810688
 30
0.0
 11
-669.457308401712
 21
35.7361281797823
 31
0.0
  0
LINE
  5
   550
  8
0
  6
CONTINUOUS
 62
     1
 10
-669.457308399362
 20
41.1361116250623
 30
0.0
 11
-666.991862948209
 21
41.1361200238144
 31
0.0
  0
LINE
  5
   551
  8
0
  6
CONTINUOUS
 62
     7
 10
-618.045045769157
 20
44.5111197411989
 30
0.0
 11
-647.520051854791
 21
44.5111197411989
 31
0.0
  0
LINE
  5
   552
  8
0
  6
CONTINUOUS
 62
     1
 10
-635.491888928166
 20
41.1361198306086
 30
0.0
 11
-637.957359466894
 21
41.1361198306086
 31
0.0
  0
LINE
  5
   553
  8
0
  6
CONTINUOUS
 62
     1
 10
-635.492371663172
 20
35.7361199736597
 30
0.0
 11
-637.957359466894
 21
35.7361199736597
 31
0.0
  0
LINE
  5
   554
  8
0
  6
CONTINUOUS
 62
     1
 10
-630.07317392165
 20
35.7361154708831
 30
0.0
 11
-627.607470657008
 21
35.7361238705135
 31
0.0
  0
LINE
  5
   555
  8
0
  6
CONTINUOUS
 62
     1
 10
-627.607470660639
 20
41.1361159347313
 30
0.0
 11
-630.073173945461
 21
41.1361243343617
 31
0.0
  0
LINE
  5
   556
  8
0
  6
CONTINUOUS
 62
     7
 10
-585.757560449838
 20
43.1611197769644
 30
0.0
 11
-586.657560425996
 21
43.1611197769644
 31
0.0
  0
LINE
  5
   557
  8
0
  6
CONTINUOUS
 62
     7
 10
-585.757532984019
 20
33.4861198150388
 30
0.0
 11
-585.757532984019
 21
43.1611196957968
 31
0.0
  0
LINE
  5
   558
  8
0
  6
CONTINUOUS
 62
     7
 10
-586.657560425996
 20
43.1611197769644
 30
0.0
 11
-586.657560425996
 21
44.0611197531225
 31
0.0
  0
LINE
  5
   559
  8
0
  6
CONTINUOUS
 62
     7
 10
-587.107538561325
 20
44.5111266076538
 30
0.0
 11
-616.020045822802
 21
44.5111266076538
 31
0.0
  0
LINE
  5
   55A
  8
0
  6
CONTINUOUS
 62
     1
 10
-603.991898345699
 20
41.1361198306086
 30
0.0
 11
-606.457637750272
 21
41.1361198306086
 31
0.0
  0
LINE
  5
   55B
  8
0
  6
CONTINUOUS
 62
     1
 10
-603.991898345699
 20
35.7361199736597
 30
0.0
 11
-606.457637750272
 21
35.7361199736597
 31
0.0
  0
LINE
  5
   55C
  8
0
  6
CONTINUOUS
 62
     1
 10
-598.573196642873
 20
35.7361197810702
 30
0.0
 11
-596.107473849281
 21
35.7361281807403
 31
0.0
  0
LINE
  5
   55D
  8
0
  6
CONTINUOUS
 62
     1
 10
-596.107453251771
 20
41.1361116244343
 30
0.0
 11
-598.573200099566
 21
41.1361200241863
 31
0.0
  0
CIRCLE
  5
   55E
  8
0
  6
CONTINUOUS
 62
     1
 10
-648.532536295233
 20
37.5362165495707
 30
0.0
 40
2.36249993741512
  0
CIRCLE
  5
   55F
  8
0
  6
CONTINUOUS
 62
     1
 10
-617.032638740052
 20
37.536164416322
 30
0.0
 40
2.36249993741512
  0
LINE
  5
   560
  8
0
  6
DASHDOT
 62
     7
 10
-634.717255349909
 20
38.436124368336
 30
0.0
 11
-641.197463154724
 21
38.436124368336
 31
0.0
  0
LINE
  5
   561
  8
0
  6
DASHDOT
 62
     7
 10
-637.957359466894
 20
35.1960206805052
 30
0.0
 11
-637.957359466894
 21
41.6762280561667
 31
0.0
  0
ARC
  5
   562
  8
0
  6
CONTINUOUS
 62
     1
 10
-637.957359466894
 20
38.436124368336
 30
0.0
 40
2.70008597737217
 50
90.0036557603355
 51
269.996301839899
  0
LINE
  5
   563
  8
0
  6
DASHDOT
 62
     7
 10
-628.192367505747
 20
38.4359375858176
 30
0.0
 11
-637.372794748111
 21
38.4359375858176
 31
0.0
  0
ARC
  5
   564
  8
0
  6
CONTINUOUS
 62
     1
 10
-632.782581126916
 20
38.4359375858176
 30
0.0
 40
3.82517801765167
 50
224.89430374687
 51
315.105491686916
  0
LINE
  5
   565
  8
0
  6
DASHDOT
 62
     7
 10
-624.367557420456
 20
38.436193871972
 30
0.0
 11
-630.847403150808
 21
38.436193871972
 31
0.0
  0
LINE
  5
   566
  8
0
  6
DASHDOT
 62
     7
 10
-627.607479856475
 20
35.1962690369894
 30
0.0
 11
-627.607479856475
 21
41.6761139090346
 31
0.0
  0
ARC
  5
   567
  8
0
  6
CONTINUOUS
 62
     1
 10
-627.607479856479
 20
38.436193871972
 30
0.0
 40
2.69993493419874
 50
269.999007927624
 51
450.00105270767
  0
LINE
  5
   568
  8
0
  6
DASHDOT
 62
     7
 10
-603.21777031658
 20
38.4361461050179
 30
0.0
 11
-609.697532649784
 21
38.4361461050179
 31
0.0
  0
LINE
  5
   569
  8
0
  6
DASHDOT
 62
     7
 10
-606.457637750272
 20
35.1962580719606
 30
0.0
 11
-606.457637750272
 21
41.6760341380751
 31
0.0
  0
ARC
  5
   56A
  8
0
  6
CONTINUOUS
 62
     1
 10
-606.457637750272
 20
38.4361461050179
 30
0.0
 40
2.69990583590753
 50
449.999999948034
 51
630.002376467854
  0
LINE
  5
   56B
  8
0
  6
DASHDOT
 62
     7
 10
-596.692498156197
 20
38.4360819509309
 30
0.0
 11
-605.872573404667
 21
38.4360819509309
 31
0.0
  0
ARC
  5
   56C
  8
0
  6
CONTINUOUS
 62
     1
 10
-601.282528913977
 20
38.4360819509309
 30
0.0
 40
3.82503135352924
 50
404.901045292561
 51
495.098630845462
  0
LINE
  5
   56D
  8
0
  6
DASHDOT
 62
     7
 10
-592.867471744384
 20
38.4361064520136
 30
0.0
 11
-599.347480618277
 21
38.4361064520136
 31
0.0
  0
LINE
  5
   56E
  8
0
  6
DASHDOT
 62
     7
 10
-596.10747618133
 20
35.1960951486123
 30
0.0
 11
-596.10747618133
 21
41.6761177554148
 31
0.0
  0
ARC
  5
   56F
  8
0
  6
CONTINUOUS
 62
     1
 10
-596.10747618133
 20
38.4361064520136
 30
0.0
 40
2.70000856119419
 50
269.998338346111
 51
450.001473300288
  0
LINE
  5
   570
  8
0
  6
DASHDOT
 62
     7
 10
-587.431570856774
 20
42.7111316067513
 30
0.0
 11
-589.483544239319
 21
42.7111316067513
 31
0.0
  0
LINE
  5
   571
  8
0
  6
DASHDOT
 62
     7
 10
-588.457554114819
 20
41.6851483487062
 30
0.0
 11
-588.457554114819
 21
43.7371148647964
 31
0.0
  0
CIRCLE
  5
   572
  8
0
  6
CONTINUOUS
 62
     1
 10
-588.457554114819
 20
42.7111316067513
 30
0.0
 40
0.854986048370947
  0
CIRCLE
  5
   573
  8
0
  6
CONTINUOUS
 62
     1
 10
-588.457527148558
 20
42.7111269176838
 30
0.0
 40
0.630025436015144
  0
ARC
  5
   574
  8
0
  6
CONTINUOUS
 62
     7
 10
-587.107556881234
 20
44.0611094742285
 30
0.0
 40
0.449999639351664
 50
360.000054589548
 51
449.999945306521
  0
CIRCLE
  5
   575
  8
0
  6
CONTINUOUS
 62
     1
 10
-708.607561993667
 20
42.7111238763483
 30
0.0
 40
0.629975049990882
  0
LINE
  5
   576
  8
0
  6
DASHDOT
 62
     7
 10
-707.581578124109
 20
42.7112133845995
 30
0.0
 11
-709.633433695422
 21
42.7112133845995
 31
0.0
  0
LINE
  5
   577
  8
0
  6
DASHDOT
 62
     7
 10
-708.607505909766
 20
41.6852924653978
 30
0.0
 11
-708.607505909766
 21
43.7371343038011
 31
0.0
  0
CIRCLE
  5
   578
  8
0
  6
CONTINUOUS
 62
     1
 10
-708.607505909766
 20
42.7112133845995
 30
0.0
 40
0.854934099334694
  0
ARC
  5
   579
  8
0
  6
CONTINUOUS
 62
     7
 10
-709.957503678352
 20
44.0611174814481
 30
0.0
 40
0.449994855493029
 50
90.0005173512766
 51
180.001122723422
  0
LINE
  5
   57A
  8
0
  6
DASHDOT
 62
     7
 10
-669.457285470125
 20
35.1959629166339
 30
0.0
 11
-669.457285470125
 21
41.6763173198133
 31
0.0
  0
ARC
  5
   57B
  8
0
  6
CONTINUOUS
 62
     1
 10
-669.457285470125
 20
38.4361401182236
 30
0.0
 40
2.70014766799139
 50
90.0052836333811
 51
269.995265213079
  0
LINE
  5
   57C
  8
0
  6
DASHDOT
 62
     7
 10
-659.692431845694
 20
38.4361980267026
 30
0.0
 11
-668.872622951106
 21
38.4361980267026
 31
0.0
  0
ARC
  5
   57D
  8
0
  6
CONTINUOUS
 62
     1
 10
-664.282510232263
 20
38.4361980267026
 30
0.0
 40
3.82507676623207
 50
224.901380849089
 51
315.098568474349
  0
LINE
  5
   57E
  8
0
  6
DASHDOT
 62
     7
 10
-659.107243894925
 20
35.1963625624371
 30
0.0
 11
-659.107243894925
 21
41.6759181407717
 31
0.0
  0
ARC
  5
   57F
  8
0
  6
CONTINUOUS
 62
     1
 10
-659.107243894925
 20
38.4361403516044
 30
0.0
 40
2.69981482430606
 50
269.999999948034
 51
449.999945306521
  0
ARC
  5
   580
  8
0
  6
CONTINUOUS
 62
     1
 10
-664.282510232263
 20
38.4361980267026
 30
0.0
 40
3.82507676623207
 50
404.897963373026
 51
495.101923170488
  0
ARC
  5
   581
  8
0
  6
CONTINUOUS
 62
     1
 10
-632.782581126916
 20
38.4359375858176
 30
0.0
 40
3.82517801765167
 50
404.902109287098
 51
495.097767281763
  0
ARC
  5
   582
  8
0
  6
CONTINUOUS
 62
     1
 10
-601.282528913977
 20
38.4360819509309
 30
0.0
 40
3.82503135352924
 50
224.899545375473
 51
315.100341172749
  0
LINE
  5
   583
  8
0
  6
CONTINUOUS
 62
     7
 10
-586.657536393406
 20
33.7111312115717
 30
0.0
 11
-710.565019833219
 21
33.7111312115717
 31
0.0
  0
LINE
  5
   584
  8
0
  6
CONTINUOUS
 62
     7
 10
-586.657543259859
 20
33.4861200332709
 30
0.0
 11
-586.657543259859
 21
44.0611094742285
 31
0.0
  0
LINE
  5
   585
  8
0
  6
CONTINUOUS
 62
     7
 10
-678.811060258322
 20
33.4861423784134
 30
0.0
 11
-678.811060258322
 21
33.7111268937588
 31
0.0
  0
LINE
  5
   586
  8
0
  6
CONTINUOUS
 62
     1
 10
-585.645022970807
 20
11.7736203902236
 30
0.0
 11
-585.645022970807
 21
33.4861198150388
 31
0.0
  0
LINE
  5
   587
  8
0
  6
CONTINUOUS
 62
     1
 10
-585.645022970807
 20
-74.8288776589133
 30
0.0
 11
-585.645022970807
 21
-35.476364625169
 31
0.0
  0
LINE
  5
   588
  8
0
  6
CONTINUOUS
 62
     1
 10
-711.420019638907
 20
-74.8288776589133
 30
0.0
 11
-711.420019638907
 21
-35.4763920909886
 31
0.0
  0
LINE
  5
   589
  8
0
  6
CONTINUOUS
 62
     1
 10
-711.420019638907
 20
11.7735929244041
 30
0.0
 11
-711.420019638907
 21
43.1611197769644
 31
0.0
  0
LINE
  5
   58A
  8
0
  6
CONTINUOUS
 62
     1
 10
-585.645022970807
 20
33.4861198150388
 30
0.0
 11
-711.420019638907
 21
33.4861198150388
 31
0.0
  0
LINE
  5
   58B
  8
0
  6
CONTINUOUS
 62
     1
 10
-586.095022958886
 20
-45.7138780868777
 30
0.0
 11
-598.582532644272
 21
-45.7138780868777
 31
0.0
  0
LINE
  5
   58C
  8
0
  6
CONTINUOUS
 62
     1
 10
-711.420019638907
 20
-35.4763852245337
 30
0.0
 11
-711.420019638907
 21
11.7736135237687
 31
0.0
  0
LINE
  5
   58D
  8
0
  6
CONTINUOUS
 62
     1
 10
-585.645022970807
 20
-35.4763852245337
 30
0.0
 11
-585.645022970807
 21
11.7736135237687
 31
0.0
  0
LINE
  5
   58E
  8
0
  6
CONTINUOUS
 62
     1
 10
-585.645022970807
 20
-35.4763852245337
 30
0.0
 11
-598.582532644272
 21
-35.4763852245337
 31
0.0
  0
LINE
  5
   58F
  8
0
  6
CONTINUOUS
 62
     1
 10
-585.870022964847
 20
11.7736135237687
 30
0.0
 11
-598.582532644272
 21
11.7736135237687
 31
0.0
  0
LINE
  5
   590
  8
0
  6
CONTINUOUS
 62
     1
 10
-585.645022970807
 20
-45.2638781256207
 30
0.0
 11
-598.582532644272
 21
-45.2638781256207
 31
0.0
  0
LINE
  5
   591
  8
0
  6
CONTINUOUS
 62
     1
 10
-710.97001967765
 20
-45.7138780868777
 30
0.0
 11
-710.97001967765
 21
-45.2638781256207
 31
0.0
  0
LINE
  5
   592
  8
0
  6
CONTINUOUS
 62
     1
 10
-586.095022958886
 20
-45.7138780868777
 30
0.0
 11
-586.095022958886
 21
-45.2638781256207
 31
0.0
  0
LINE
  5
   593
  8
0
  6
CONTINUOUS
 62
     1
 10
-587.535028413903
 20
11.7736135237687
 30
0.0
 11
-587.535028413903
 21
33.4861198150388
 31
0.0
  0
LINE
  5
   594
  8
0
  6
CONTINUOUS
 62
     1
 10
-586.50002706803
 20
11.7736135237687
 30
0.0
 11
-586.50002706803
 21
33.4861198150388
 31
0.0
  0
LINE
  5
   595
  8
0
  6
CONTINUOUS
 62
     1
 10
-594.01502549566
 20
11.7736135237687
 30
0.0
 11
-594.01502549566
 21
33.4861198150388
 31
0.0
  0
LINE
  5
   596
  8
0
  6
CONTINUOUS
 62
     1
 10
-592.395029658448
 20
11.7736135237687
 30
0.0
 11
-592.395029658448
 21
33.4861198150388
 31
0.0
  0
LINE
  5
   597
  8
0
  6
CONTINUOUS
 62
     1
 10
-590.775026954781
 20
11.7736135237687
 30
0.0
 11
-590.775026954781
 21
33.4861198150388
 31
0.0
  0
LINE
  5
   598
  8
0
  6
CONTINUOUS
 62
     1
 10
-589.155024251115
 20
11.7736135237687
 30
0.0
 11
-589.155024251115
 21
33.4861198150388
 31
0.0
  0
LINE
  5
   599
  8
0
  6
CONTINUOUS
 62
     1
 10
-601.30502392925
 20
24.3736123316763
 30
0.0
 11
-601.30502392925
 21
33.4861198150388
 31
0.0
  0
LINE
  5
   59A
  8
0
  6
CONTINUOUS
 62
     1
 10
-600.270029449832
 20
24.3736123316763
 30
0.0
 11
-600.270029449832
 21
33.4861198150388
 31
0.0
  0
LINE
  5
   59B
  8
0
  6
CONTINUOUS
 62
     1
 10
-598.875026740205
 20
24.3045726317596
 30
0.0
 11
-598.875026740205
 21
33.4861198150388
 31
0.0
  0
LINE
  5
   59C
  8
0
  6
CONTINUOUS
 62
     1
 10
-597.255024036538
 20
11.7736135237687
 30
0.0
 11
-597.255024036538
 21
33.4861198150388
 31
0.0
  0
LINE
  5
   59D
  8
0
  6
CONTINUOUS
 62
     1
 10
-595.635028199326
 20
11.7736135237687
 30
0.0
 11
-595.635028199326
 21
33.4861198150388
 31
0.0
  0
LINE
  5
   59E
  8
0
  6
CONTINUOUS
 62
     1
 10
-592.395029658448
 20
-35.4763852245337
 30
0.0
 11
-592.395029658448
 21
11.7736135237687
 31
0.0
  0
LINE
  5
   59F
  8
0
  6
CONTINUOUS
 62
     1
 10
-589.155024251115
 20
-35.4763852245337
 30
0.0
 11
-589.155024251115
 21
11.7736135237687
 31
0.0
  0
LINE
  5
   5A0
  8
0
  6
CONTINUOUS
 62
     1
 10
-590.775026954781
 20
-35.4763852245337
 30
0.0
 11
-590.775026954781
 21
11.7736135237687
 31
0.0
  0
LINE
  5
   5A1
  8
0
  6
CONTINUOUS
 62
     1
 10
-595.635028199326
 20
-35.4763852245337
 30
0.0
 11
-595.635028199326
 21
11.7736135237687
 31
0.0
  0
LINE
  5
   5A2
  8
0
  6
CONTINUOUS
 62
     1
 10
-597.255024036538
 20
-35.4763852245337
 30
0.0
 11
-597.255024036538
 21
11.7736135237687
 31
0.0
  0
LINE
  5
   5A3
  8
0
  6
CONTINUOUS
 62
     1
 10
-587.535028413903
 20
-35.4763852245337
 30
0.0
 11
-587.535028413903
 21
11.7736135237687
 31
0.0
  0
LINE
  5
   5A4
  8
0
  6
CONTINUOUS
 62
     1
 10
-586.50002706803
 20
-35.4763852245337
 30
0.0
 11
-586.50002706803
 21
11.7736135237687
 31
0.0
  0
LINE
  5
   5A5
  8
0
  6
CONTINUOUS
 62
     1
 10
-587.535028413903
 20
-45.2638781256207
 30
0.0
 11
-587.535028413903
 21
-35.4763852513558
 31
0.0
  0
LINE
  5
   5A6
  8
0
  6
CONTINUOUS
 62
     1
 10
-586.50002706803
 20
-45.2638781256207
 30
0.0
 11
-586.50002706803
 21
-35.4763852513558
 31
0.0
  0
LINE
  5
   5A7
  8
0
  6
CONTINUOUS
 62
     1
 10
-594.01502549566
 20
-45.2638781256207
 30
0.0
 11
-594.01502549566
 21
11.7736135237687
 31
0.0
  0
LINE
  5
   5A8
  8
0
  6
CONTINUOUS
 62
     1
 10
-592.395029658448
 20
-45.2638781256207
 30
0.0
 11
-592.395029658448
 21
-35.4763852513558
 31
0.0
  0
LINE
  5
   5A9
  8
0
  6
CONTINUOUS
 62
     1
 10
-590.775026954781
 20
-45.2638781256207
 30
0.0
 11
-590.775026954781
 21
-35.4763852513558
 31
0.0
  0
LINE
  5
   5AA
  8
0
  6
CONTINUOUS
 62
     1
 10
-589.155024251115
 20
-45.2638781256207
 30
0.0
 11
-589.155024251115
 21
-35.4763852513558
 31
0.0
  0
LINE
  5
   5AB
  8
0
  6
CONTINUOUS
 62
     1
 10
-601.30502392925
 20
-45.2638781256207
 30
0.0
 11
-601.30502392925
 21
-35.4763852513558
 31
0.0
  0
LINE
  5
   5AC
  8
0
  6
CONTINUOUS
 62
     1
 10
-597.255024036538
 20
-45.2638781256207
 30
0.0
 11
-597.255024036538
 21
-35.4763852513558
 31
0.0
  0
LINE
  5
   5AD
  8
0
  6
CONTINUOUS
 62
     1
 10
-595.635028199326
 20
-45.2638781256207
 30
0.0
 11
-595.635028199326
 21
-35.4763852513558
 31
0.0
  0
LINE
  5
   5AE
  8
0
  6
CONTINUOUS
 62
     1
 10
-709.530019774806
 20
11.7736135237687
 30
0.0
 11
-709.530019774806
 21
33.4861198150388
 31
0.0
  0
LINE
  5
   5AF
  8
0
  6
CONTINUOUS
 62
     1
 10
-710.565019833219
 20
11.7736135237687
 30
0.0
 11
-710.565019833219
 21
43.1611197769644
 31
0.0
  0
LINE
  5
   5B0
  8
0
  6
CONTINUOUS
 62
     1
 10
-703.05002398051
 20
11.7736135237687
 30
0.0
 11
-703.05002398051
 21
33.4861198150388
 31
0.0
  0
LINE
  5
   5B1
  8
0
  6
CONTINUOUS
 62
     1
 10
-704.670019817721
 20
11.7736135237687
 30
0.0
 11
-704.670019817721
 21
33.4861198150388
 31
0.0
  0
LINE
  5
   5B2
  8
0
  6
CONTINUOUS
 62
     1
 10
-706.290019946467
 20
11.7736135237687
 30
0.0
 11
-706.290019946467
 21
33.4861198150388
 31
0.0
  0
LINE
  5
   5B3
  8
0
  6
CONTINUOUS
 62
     1
 10
-707.910020075213
 20
11.7736135237687
 30
0.0
 11
-707.910020075213
 21
33.4861198150388
 31
0.0
  0
LINE
  5
   5B4
  8
0
  6
CONTINUOUS
 62
     1
 10
-696.570020032298
 20
11.7736135237687
 30
0.0
 11
-696.570020032298
 21
33.4861198150388
 31
0.0
  0
LINE
  5
   5B5
  8
0
  6
CONTINUOUS
 62
     1
 10
-698.190022735965
 20
11.7736135237687
 30
0.0
 11
-698.190022735965
 21
33.4861198150388
 31
0.0
  0
LINE
  5
   5B6
  8
0
  6
CONTINUOUS
 62
     1
 10
-699.810025439631
 20
11.7736135237687
 30
0.0
 11
-699.810025439631
 21
33.4861198150388
 31
0.0
  0
LINE
  5
   5B7
  8
0
  6
CONTINUOUS
 62
     1
 10
-701.430021276843
 20
11.7736135237687
 30
0.0
 11
-701.430021276843
 21
33.4861198150388
 31
0.0
  0
LINE
  5
   5B8
  8
0
  6
CONTINUOUS
 62
     1
 10
-704.670020246875
 20
-35.4763852245337
 30
0.0
 11
-704.670020246875
 21
11.7736135237687
 31
0.0
  0
LINE
  5
   5B9
  8
0
  6
CONTINUOUS
 62
     1
 10
-703.05002398051
 20
-35.4763852245337
 30
0.0
 11
-703.05002398051
 21
11.7736135237687
 31
0.0
  0
LINE
  5
   5BA
  8
0
  6
CONTINUOUS
 62
     1
 10
-707.910020075213
 20
-35.4763852245337
 30
0.0
 11
-707.910020075213
 21
11.7736135237687
 31
0.0
  0
LINE
  5
   5BB
  8
0
  6
CONTINUOUS
 62
     1
 10
-706.290019946467
 20
-35.4763852245337
 30
0.0
 11
-706.290019946467
 21
11.7736135237687
 31
0.0
  0
LINE
  5
   5BC
  8
0
  6
CONTINUOUS
 62
     1
 10
-698.190022735965
 20
-35.4763852245337
 30
0.0
 11
-698.190022735965
 21
11.7736135237687
 31
0.0
  0
LINE
  5
   5BD
  8
0
  6
CONTINUOUS
 62
     1
 10
-696.570026898753
 20
-35.4763852245337
 30
0.0
 11
-696.570026898753
 21
11.7736135237687
 31
0.0
  0
LINE
  5
   5BE
  8
0
  6
CONTINUOUS
 62
     1
 10
-701.430021276843
 20
-35.4763852245337
 30
0.0
 11
-701.430021276843
 21
11.7736135237687
 31
0.0
  0
LINE
  5
   5BF
  8
0
  6
CONTINUOUS
 62
     1
 10
-699.810025439631
 20
-35.4763852245337
 30
0.0
 11
-699.810025439631
 21
11.7736135237687
 31
0.0
  0
LINE
  5
   5C0
  8
0
  6
CONTINUOUS
 62
     1
 10
-709.530019774806
 20
-35.4763852245337
 30
0.0
 11
-709.530019774806
 21
11.7736135237687
 31
0.0
  0
LINE
  5
   5C1
  8
0
  6
CONTINUOUS
 62
     1
 10
-710.565019833219
 20
-35.4763852245337
 30
0.0
 11
-710.565019833219
 21
11.7736135237687
 31
0.0
  0
LINE
  5
   5C2
  8
0
  6
CONTINUOUS
 62
     1
 10
-709.530019774806
 20
-63.4888844844156
 30
0.0
 11
-709.530019774806
 21
-45.9388780809172
 31
0.0
  0
LINE
  5
   5C3
  8
0
  6
CONTINUOUS
 62
     1
 10
-710.565019833219
 20
-63.4888844844156
 30
0.0
 11
-710.565019833219
 21
-45.9388780809172
 31
0.0
  0
LINE
  5
   5C4
  8
0
  6
CONTINUOUS
 62
     1
 10
-703.05002398051
 20
-63.4888844844156
 30
0.0
 11
-703.05002398051
 21
-45.9388780809172
 31
0.0
  0
LINE
  5
   5C5
  8
0
  6
CONTINUOUS
 62
     1
 10
-704.670019817721
 20
-63.4888844844156
 30
0.0
 11
-704.670019817721
 21
-45.9388780809172
 31
0.0
  0
LINE
  5
   5C6
  8
0
  6
CONTINUOUS
 62
     1
 10
-706.290019946467
 20
-63.4888844844156
 30
0.0
 11
-706.290019946467
 21
-45.9388780809172
 31
0.0
  0
LINE
  5
   5C7
  8
0
  6
CONTINUOUS
 62
     1
 10
-707.910020075213
 20
-63.4888844844156
 30
0.0
 11
-707.910020075213
 21
-45.9388780809172
 31
0.0
  0
LINE
  5
   5C8
  8
0
  6
CONTINUOUS
 62
     1
 10
-664.260026381385
 20
-63.4888844844156
 30
0.0
 11
-664.260026381385
 21
-48.0763840324404
 31
0.0
  0
LINE
  5
   5C9
  8
0
  6
CONTINUOUS
 62
     1
 10
-696.570020032298
 20
-63.4888844844156
 30
0.0
 11
-696.570020032298
 21
-45.9388780809172
 31
0.0
  0
LINE
  5
   5CA
  8
0
  6
CONTINUOUS
 62
     1
 10
-698.190022735965
 20
-63.4888844844156
 30
0.0
 11
-698.190022735965
 21
-45.9388780809172
 31
0.0
  0
LINE
  5
   5CB
  8
0
  6
CONTINUOUS
 62
     1
 10
-699.810025439631
 20
-63.4888844844156
 30
0.0
 11
-699.810025439631
 21
-45.9388780809172
 31
0.0
  0
LINE
  5
   5CC
  8
0
  6
CONTINUOUS
 62
     1
 10
-701.430021276843
 20
-63.4888844844156
 30
0.0
 11
-701.430021276843
 21
-45.9388780809172
 31
0.0
  0
LINE
  5
   5CD
  8
0
  6
CONTINUOUS
 62
     1
 10
-601.957532554865
 20
31.2361198746435
 30
0.0
 11
-663.607530921698
 21
31.2361198746435
 31
0.0
  0
LINE
  5
   5CE
  8
0
  6
CONTINUOUS
 62
     1
 10
-601.957532554865
 20
24.3736123316763
 30
0.0
 11
-601.957532554865
 21
31.2361198746435
 31
0.0
  0
LINE
  5
   5CF
  8
0
  6
CONTINUOUS
 62
     1
 10
-663.607530921698
 20
24.3736123316763
 30
0.0
 11
-663.607530921698
 21
31.2361198746435
 31
0.0
  0
ARC
  5
   5D0
  8
0
  6
CONTINUOUS
 62
     1
 10
-711.195019644868
 20
11.5486135297292
 30
0.0
 40
0.224999994039536
 50
89.9999999480344
 51
179.999999948034
  0
ARC
  5
   5D1
  8
0
  6
CONTINUOUS
 62
     1
 10
-585.870022964847
 20
11.5486135297292
 30
0.0
 40
0.224999994039536
 50
359.999999948034
 51
449.999999948034
  0
ARC
  5
   5D2
  8
0
  6
CONTINUOUS
 62
     1
 10
-585.870022964847
 20
-35.2513852304942
 30
0.0
 40
0.224999994039536
 50
269.999999948034
 51
359.999999948034
  0
ARC
  5
   5D3
  8
0
  6
CONTINUOUS
 62
     1
 10
-711.195019644868
 20
-35.2513852304942
 30
0.0
 40
0.224999994039536
 50
179.999999948034
 51
269.999999948034
  0
LINE
  5
   5D4
  8
0
  6
CONTINUOUS
 62
     3
 10
-601.282532572747
 20
-35.2513714642514
 30
0.0
 11
-601.282532572747
 21
-31.4263718169838
 31
0.0
  0
LINE
  5
   5D5
  8
0
  6
CONTINUOUS
 62
     3
 10
-601.507532600118
 20
-35.4763714916233
 30
0.0
 11
-664.0575172102
 21
-35.4763714916233
 31
0.0
  0
LINE
  5
   5D6
  8
0
  6
CONTINUOUS
 62
     3
 10
-664.282517170906
 20
-35.2513715309161
 30
0.0
 11
-664.282517170906
 21
-31.4263718169838
 31
0.0
  0
LINE
  5
   5D7
  8
0
  6
CONTINUOUS
 62
     3
 10
-601.507539657148
 20
11.7736135237692
 30
0.0
 11
-664.0575240682
 21
11.7736135237692
 31
0.0
  0
LINE
  5
   5D8
  8
0
  6
CONTINUOUS
 62
     1
 10
-601.282560038566
 20
6.37361366682007
 30
0.0
 11
-664.282517170906
 21
6.37361366682007
 31
0.0
  0
LINE
  5
   5D9
  8
0
  6
CONTINUOUS
 62
     1
 10
-601.282546305656
 20
10.8736135476108
 30
0.0
 11
-664.282517170906
 21
10.8736135476108
 31
0.0
  0
LINE
  5
   5DA
  8
0
  6
CONTINUOUS
 62
     1
 10
-623.332531988621
 20
-5.88887227542482
 30
0.0
 11
-642.232531487942
 21
-5.88887227542482
 31
0.0
  0
LINE
  5
   5DB
  8
0
  6
CONTINUOUS
 62
     7
 10
-623.332531988621
 20
-33.6444677410697
 30
0.0
 11
-623.332531988621
 21
-21.7545442705005
 31
0.0
  0
LINE
  5
   5DC
  8
0
  6
CONTINUOUS
 62
     7
 10
-642.232531487942
 20
-33.6444677410697
 30
0.0
 11
-642.232531487942
 21
-21.7545442705005
 31
0.0
  0
LINE
  5
   5DD
  8
0
  6
CONTINUOUS
 62
     7
 10
-623.332531988621
 20
-5.67594350909285
 30
0.0
 11
-642.232531487942
 21
-5.67594350909285
 31
0.0
  0
LINE
  5
   5DE
  8
0
  6
DASHDOT
 62
     7
 10
-632.782531738281
 20
-45.5291780479582
 30
0.0
 11
-632.782531738281
 21
85.8895874505258
 31
0.0
  0
LINE
  5
   5DF
  8
0
  6
CONTINUOUS
 62
   218
 10
-601.28251883984
 20
-3.97637212704939
 30
0.0
 11
-601.28251883984
 21
11.5486170873479
 31
0.0
  0
LINE
  5
   5E0
  8
0
  6
CONTINUOUS
 62
   218
 10
-601.282532572746
 20
-22.4263718373307
 30
0.0
 11
-601.282532572746
 21
-12.9763720876702
 31
0.0
  0
LINE
  5
   5E1
  8
0
  6
CONTINUOUS
 62
   218
 10
-601.282532572746
 20
-12.5263720995911
 30
0.0
 11
-601.282532572746
 21
-4.42637231416784
 31
0.0
  0
LINE
  5
   5E2
  8
0
  6
CONTINUOUS
 62
   218
 10
-601.282532572746
 20
-30.9763647443781
 30
0.0
 11
-601.282532572746
 21
-22.8763718254097
 31
0.0
  0
LINE
  5
   5E3
  8
0
  6
CONTINUOUS
 62
   218
 10
-664.282524037361
 20
-30.976371610833
 30
0.0
 11
-664.282524037361
 21
-22.8763786918647
 31
0.0
  0
LINE
  5
   5E4
  8
0
  6
CONTINUOUS
 62
   218
 10
-664.282524037361
 20
-3.97637919254367
 30
0.0
 11
-664.282524037361
 21
11.5486100716253
 31
0.0
  0
LINE
  5
   5E5
  8
0
  6
CONTINUOUS
 62
   218
 10
-664.282524037361
 20
-22.4263787037856
 30
0.0
 11
-664.282524037361
 21
-12.9763789541251
 31
0.0
  0
LINE
  5
   5E6
  8
0
  6
CONTINUOUS
 62
   218
 10
-664.282524037361
 20
-12.526378966046
 30
0.0
 11
-664.282524037361
 21
-4.42637918062275
 31
0.0
  0
LINE
  5
   5E7
  8
0
  6
CONTINUOUS
 62
   218
 10
-601.282532572746
 20
-22.8763718254098
 30
0.0
 11
-601.732525694371
 21
-22.8763718254098
 31
0.0
  0
LINE
  5
   5E8
  8
0
  6
CONTINUOUS
 62
     1
 10
-642.232531487942
 20
-22.8763718254098
 30
0.0
 11
-663.832524049282
 21
-22.8763718254098
 31
0.0
  0
LINE
  5
   5E9
  8
0
  6
CONTINUOUS
 62
   218
 10
-601.282532572746
 20
-22.4263718373307
 30
0.0
 11
-601.732525694371
 21
-22.4263718373307
 31
0.0
  0
LINE
  5
   5EA
  8
0
  6
CONTINUOUS
 62
     1
 10
-642.232531487942
 20
-22.4263718373307
 30
0.0
 11
-664.235928274436
 21
-22.4263718373307
 31
0.0
  0
LINE
  5
   5EB
  8
0
  6
CONTINUOUS
 62
   218
 10
-601.732525694371
 20
-22.8763718254097
 30
0.0
 11
-601.732525694371
 21
-22.4263718373307
 31
0.0
  0
LINE
  5
   5EC
  8
0
  6
CONTINUOUS
 62
   218
 10
-663.832524049282
 20
-22.8763718254098
 30
0.0
 11
-663.832524049282
 21
-22.4263718373307
 31
0.0
  0
LINE
  5
   5ED
  8
0
  6
CONTINUOUS
 62
   218
 10
-664.282524044391
 20
-22.4263855686165
 30
0.0
 11
-663.832524056323
 21
-22.4263787021617
 31
0.0
  0
LINE
  5
   5EE
  8
0
  6
CONTINUOUS
 62
   218
 10
-601.282532572746
 20
-30.9763694650656
 30
0.0
 11
-601.732525694371
 21
-30.9763694650656
 31
0.0
  0
LINE
  5
   5EF
  8
0
  6
CONTINUOUS
 62
   218
 10
-601.732525694371
 20
-31.4263668782244
 30
0.0
 11
-601.732525694371
 21
-30.9763668901453
 31
0.0
  0
LINE
  5
   5F0
  8
0
  6
CONTINUOUS
 62
   218
 10
-601.282532572746
 20
-4.42637231416784
 30
0.0
 11
-601.732532560825
 21
-4.42637231416784
 31
0.0
  0
LINE
  5
   5F1
  8
0
  6
CONTINUOUS
 62
   218
 10
-601.282532771777
 20
-3.97637232608877
 30
0.0
 11
-601.732532560825
 21
-3.97637232608877
 31
0.0
  0
LINE
  5
   5F2
  8
0
  6
CONTINUOUS
 62
   218
 10
-601.732532560825
 20
-4.42637231416784
 30
0.0
 11
-601.732532560825
 21
-3.97637232608877
 31
0.0
  0
LINE
  5
   5F3
  8
0
  6
CONTINUOUS
 62
   218
 10
-664.282524044391
 20
-3.97638605522677
 30
0.0
 11
-663.832524056323
 21
-3.97637918877187
 31
0.0
  0
LINE
  5
   5F4
  8
0
  6
CONTINUOUS
 62
   218
 10
-601.282532572746
 20
-12.9763720876702
 30
0.0
 11
-601.732532560825
 21
-12.9763720876702
 31
0.0
  0
LINE
  5
   5F5
  8
0
  6
CONTINUOUS
 62
     1
 10
-642.232531487942
 20
-12.9763720876702
 30
0.0
 11
-663.832524049282
 21
-12.9763720876702
 31
0.0
  0
LINE
  5
   5F6
  8
0
  6
CONTINUOUS
 62
   218
 10
-601.282532572746
 20
-12.5263720995911
 30
0.0
 11
-601.732532560825
 21
-12.5263720995911
 31
0.0
  0
LINE
  5
   5F7
  8
0
  6
CONTINUOUS
 62
     1
 10
-642.232531487942
 20
-12.5263720995911
 30
0.0
 11
-663.832524049282
 21
-12.5263720995911
 31
0.0
  0
LINE
  5
   5F8
  8
0
  6
CONTINUOUS
 62
   218
 10
-601.732532560825
 20
-12.9763720876702
 30
0.0
 11
-601.732532560825
 21
-12.5263720995911
 31
0.0
  0
LINE
  5
   5F9
  8
0
  6
CONTINUOUS
 62
     7
 10
-663.832517182827
 20
-31.4263717503192
 30
0.0
 11
-663.832517182827
 21
-30.9763717951351
 31
0.0
  0
LINE
  5
   5FA
  8
0
  6
CONTINUOUS
 62
     7
 10
-663.832524049282
 20
-12.9763789541251
 30
0.0
 11
-663.832524049282
 21
-12.5263720995911
 31
0.0
  0
LINE
  5
   5FB
  8
0
  6
CONTINUOUS
 62
     7
 10
-663.832524049282
 20
-4.42637918062275
 30
0.0
 11
-663.832524049282
 21
-3.97637232608878
 31
0.0
  0
ARC
  5
   5FC
  8
0
  6
CONTINUOUS
 62
     7
 10
-664.057524043322
 20
11.5486100716253
 30
0.0
 40
0.224999994039536
 50
90.0000062832808
 51
179.999999948034
  0
ARC
  5
   5FD
  8
0
  6
CONTINUOUS
 62
     7
 10
-601.507539632269
 20
11.548616987834
 30
0.0
 40
0.224999994039536
 50
360.000025289036
 51
450.000006283281
  0
ARC
  5
   5FE
  8
0
  6
CONTINUOUS
 62
     7
 10
-601.507532600118
 20
-35.2513714975837
 30
0.0
 40
0.224999994039536
 50
269.999999948034
 51
360.000008436035
  0
ARC
  5
   5FF
  8
0
  6
CONTINUOUS
 62
     7
 10
-664.0575172102
 20
-35.2513714975838
 30
0.0
 40
0.224999994039536
 50
180.000008436035
 51
269.999999948034
  0
LINE
  5
   600
  8
0
  6
CONTINUOUS
 62
     1
 10
-643.470031455159
 20
-30.9763702670828
 30
0.0
 11
-643.470031455159
 21
-22.8763718254098
 31
0.0
  0
LINE
  5
   601
  8
0
  6
CONTINUOUS
 62
     1
 10
-622.095032021403
 20
-30.9763686630489
 30
0.0
 11
-622.095032021403
 21
-22.8763718254098
 31
0.0
  0
LINE
  5
   602
  8
0
  6
CONTINUOUS
 62
     1
 10
-643.470031455159
 20
-12.5263720995911
 30
0.0
 11
-643.470031455159
 21
-4.42637231416785
 31
0.0
  0
LINE
  5
   603
  8
0
  6
CONTINUOUS
 62
     1
 10
-622.095032021403
 20
-12.5263720995911
 30
0.0
 11
-622.095032021403
 21
-4.42637231416784
 31
0.0
  0
LINE
  5
   604
  8
0
  6
CONTINUOUS
 62
     1
 10
-647.520031347871
 20
-6.45137226052366
 30
0.0
 11
-648.195031329989
 21
-6.45137226052366
 31
0.0
  0
LINE
  5
   605
  8
0
  6
CONTINUOUS
 62
     1
 10
-647.520031347871
 20
-10.5013721532353
 30
0.0
 11
-648.195031329989
 21
-10.5013721532353
 31
0.0
  0
LINE
  5
   606
  8
0
  6
CONTINUOUS
 62
     1
 10
-648.195031329989
 20
-10.5013721532353
 30
0.0
 11
-648.195031329989
 21
-6.45137226052367
 31
0.0
  0
LINE
  5
   607
  8
0
  6
CONTINUOUS
 62
     1
 10
-647.520031347871
 20
-10.5013721532353
 30
0.0
 11
-647.520031347871
 21
-6.45137226052368
 31
0.0
  0
CIRCLE
  5
   608
  8
0
  6
CONTINUOUS
 62
     1
 10
-647.85753133893
 20
-26.9263717181214
 30
0.0
 40
2.02499994635582
  0
CIRCLE
  5
   609
  8
0
  6
CONTINUOUS
 62
     1
 10
-647.85753133893
 20
-26.9263717181214
 30
0.0
 40
1.34999996423721
  0
LINE
  5
   60A
  8
0
  6
CONTINUOUS
 62
     2
 10
-710.407543322387
 20
-74.8288776589133
 30
0.0
 11
-711.420019638907
 21
-74.8288776589133
 31
0.0
  0
LINE
  5
   60B
  8
0
  6
CONTINUOUS
 62
     2
 10
-710.407543322387
 20
-75.4138777292468
 30
0.0
 11
-710.407543322387
 21
-74.8288776589133
 31
0.0
  0
LINE
  5
   60C
  8
0
  6
CONTINUOUS
 62
     2
 10
-649.545051801147
 20
-76.0888772822101
 30
0.0
 11
-679.020051020326
 21
-76.0888772822101
 31
0.0
  0
LINE
  5
   60D
  8
0
  6
CONTINUOUS
 62
     2
 10
-618.045045769157
 20
-76.0888772822112
 30
0.0
 11
-647.520044988336
 21
-76.0888772822112
 31
0.0
  0
LINE
  5
   60E
  8
0
  6
CONTINUOUS
 62
     2
 10
-587.332553449216
 20
-76.0888772822363
 30
0.0
 11
-616.020045822802
 21
-76.0888772822363
 31
0.0
  0
LINE
  5
   60F
  8
0
  6
CONTINUOUS
 62
     2
 10
-586.657553467097
 20
-75.4138773000934
 30
0.0
 11
-586.657553467097
 21
-74.8288776589133
 31
0.0
  0
LINE
  5
   610
  8
0
  6
CONTINUOUS
 62
     2
 10
-585.645022970807
 20
-74.8288776589133
 30
0.0
 11
-586.657553467097
 21
-74.8288776589133
 31
0.0
  0
LINE
  5
   611
  8
0
  6
CONTINUOUS
 62
     1
 10
-675.757544669452
 20
-65.2888844347692
 30
0.0
 11
-711.420019638907
 21
-65.2888844347692
 31
0.0
  0
LINE
  5
   612
  8
0
  6
CONTINUOUS
 62
     1
 10
-657.532544723096
 20
-65.2888844347692
 30
0.0
 11
-672.6075511902
 21
-65.2888844347692
 31
0.0
  0
LINE
  5
   613
  8
0
  6
CONTINUOUS
 62
     1
 10
-624.457552465739
 20
-65.2888844347692
 30
0.0
 11
-655.282551649155
 21
-65.2888844347692
 31
0.0
  0
LINE
  5
   614
  8
0
  6
CONTINUOUS
 62
     1
 10
-610.282552841248
 20
-65.2888844347692
 30
0.0
 11
-621.307552549186
 21
-65.2888844347692
 31
0.0
  0
LINE
  5
   615
  8
0
  6
CONTINUOUS
 62
     1
 10
-592.957558219436
 20
-65.2888972453161
 30
0.0
 11
-608.032557820085
 21
-65.2888972453161
 31
0.0
  0
LINE
  5
   616
  8
0
  6
CONTINUOUS
 62
     1
 10
-586.657550522866
 20
-65.2888888483629
 30
0.0
 11
-589.807557305201
 21
-65.2888819819106
 31
0.0
  0
LINE
  5
   617
  8
0
  6
CONTINUOUS
 62
     1
 10
-586.657560333576
 20
-74.8288779180691
 30
0.0
 11
-586.657560333576
 21
-65.2888864105386
 31
0.0
  0
LINE
  5
   618
  8
0
  6
CONTINUOUS
 62
     1
 10
-677.782544615807
 20
-63.488877615998
 30
0.0
 11
-679.245044577064
 21
-63.488877615998
 31
0.0
  0
LINE
  5
   619
  8
0
  6
CONTINUOUS
 62
     1
 10
-710.407543322387
 20
-74.8288776589133
 30
0.0
 11
-710.407543322387
 21
-65.2888861513829
 31
0.0
  0
LINE
  5
   61A
  8
0
  6
CONTINUOUS
 62
     1
 10
-608.032552900853
 20
-65.2888775683143
 30
0.0
 11
-610.282545974793
 21
-65.2888775683143
 31
0.0
  0
LINE
  5
   61B
  8
0
  6
CONTINUOUS
 62
     1
 10
-596.107549377564
 20
-67.3138846399205
 30
0.0
 11
-598.573197199957
 21
-67.3138777734678
 31
0.0
  0
LINE
  5
   61C
  8
0
  6
CONTINUOUS
 62
     1
 10
-603.99190814712
 20
-67.3138901490047
 30
0.0
 11
-606.457555969513
 21
-67.313883282552
 31
0.0
  0
LINE
  5
   61D
  8
0
  6
CONTINUOUS
 62
     1
 10
-603.99190511971
 20
-72.713877371619
 30
0.0
 11
-606.457552942576
 21
-72.713877371619
 31
0.0
  0
LINE
  5
   61E
  8
0
  6
CONTINUOUS
 62
     1
 10
-596.107553216758
 20
-72.713877371619
 30
0.0
 11
-598.573194173169
 21
-72.713877371619
 31
0.0
  0
LINE
  5
   61F
  8
0
  6
CONTINUOUS
 62
     1
 10
-589.807553383651
 20
-65.2888775683143
 30
0.0
 11
-592.957553300204
 21
-65.2888775683143
 31
0.0
  0
LINE
  5
   620
  8
0
  6
CONTINUOUS
 62
     1
 10
-655.28255851561
 20
-65.2888775683143
 30
0.0
 11
-657.532544723096
 21
-65.2888775683143
 31
0.0
  0
LINE
  5
   621
  8
0
  6
CONTINUOUS
 62
     1
 10
-659.107547708484
 20
-67.3138877223718
 30
0.0
 11
-661.573195530876
 21
-67.3138808559191
 31
0.0
  0
LINE
  5
   622
  8
0
  6
CONTINUOUS
 62
     1
 10
-666.991906478021
 20
-67.3138863650012
 30
0.0
 11
-669.457554300987
 21
-67.3138794985485
 31
0.0
  0
LINE
  5
   623
  8
0
  6
CONTINUOUS
 62
     1
 10
-666.99190345078
 20
-72.713877371619
 30
0.0
 11
-669.457551273646
 21
-72.713877371619
 31
0.0
  0
LINE
  5
   624
  8
0
  6
CONTINUOUS
 62
     1
 10
-659.107551547827
 20
-72.713877371619
 30
0.0
 11
-661.573192504239
 21
-72.713877371619
 31
0.0
  0
LINE
  5
   625
  8
0
  6
CONTINUOUS
 62
     1
 10
-672.607551619353
 20
-65.2888775683143
 30
0.0
 11
-675.757544669452
 21
-65.2888775683143
 31
0.0
  0
LINE
  5
   626
  8
0
  6
CONTINUOUS
 62
     1
 10
-627.607548543024
 20
-67.3138861811461
 30
0.0
 11
-630.073196365991
 21
-67.3138793146934
 31
0.0
  0
LINE
  5
   627
  8
0
  6
CONTINUOUS
 62
     1
 10
-635.491907312561
 20
-67.3138848237755
 30
0.0
 11
-637.957555135527
 21
-67.3138779573228
 31
0.0
  0
LINE
  5
   628
  8
0
  6
CONTINUOUS
 62
     1
 10
-635.491904285245
 20
-72.713877371619
 30
0.0
 11
-637.957552108111
 21
-72.713877371619
 31
0.0
  0
LINE
  5
   629
  8
0
  6
CONTINUOUS
 62
     1
 10
-627.607552382293
 20
-72.713877371619
 30
0.0
 11
-630.073193338704
 21
-72.713877371619
 31
0.0
  0
LINE
  5
   62A
  8
0
  6
CONTINUOUS
 62
     1
 10
-621.307552549186
 20
-65.2888775683143
 30
0.0
 11
-624.457552465739
 21
-65.2888775683143
 31
0.0
  0
LINE
  5
   62B
  8
0
  6
CONTINUOUS
 62
     2
 10
-615.457545837703
 20
-74.9638773120143
 30
0.0
 11
-615.457545837703
 21
-72.9388773656585
 31
0.0
  0
LINE
  5
   62C
  8
0
  6
CONTINUOUS
 62
     2
 10
-615.457545837703
 20
-74.9638773120143
 30
0.0
 11
-616.020045822802
 21
-74.9638773120143
 31
0.0
  0
LINE
  5
   62D
  8
0
  6
CONTINUOUS
 62
     2
 10
-616.020045822802
 20
-76.0888772822195
 30
0.0
 11
-616.020045822802
 21
-74.9638773120219
 31
0.0
  0
LINE
  5
   62E
  8
0
  6
CONTINUOUS
 62
     2
 10
-618.045045769157
 20
-76.0888772822112
 30
0.0
 11
-618.045045769157
 21
-74.9638773120135
 31
0.0
  0
LINE
  5
   62F
  8
0
  6
CONTINUOUS
 62
     2
 10
-618.045045769157
 20
-74.9638773120143
 30
0.0
 11
-618.607545754256
 21
-74.9638773120143
 31
0.0
  0
LINE
  5
   630
  8
0
  6
CONTINUOUS
 62
     2
 10
-618.607545754256
 20
-74.9638773120143
 30
0.0
 11
-618.607545754256
 21
-72.9388773656585
 31
0.0
  0
LINE
  5
   631
  8
0
  6
CONTINUOUS
 62
     2
 10
-615.457545837703
 20
-72.9388773656585
 30
0.0
 11
-618.607545754256
 21
-72.9388773656585
 31
0.0
  0
LINE
  5
   632
  8
0
  6
CONTINUOUS
 62
     2
 10
-650.107551786246
 20
-74.9638773120143
 30
0.0
 11
-650.107551786246
 21
-72.9388773656585
 31
0.0
  0
LINE
  5
   633
  8
0
  6
CONTINUOUS
 62
     2
 10
-649.545051801147
 20
-74.9638773120143
 30
0.0
 11
-650.107551786246
 21
-74.9638773120143
 31
0.0
  0
LINE
  5
   634
  8
0
  6
CONTINUOUS
 62
     2
 10
-649.545051801147
 20
-76.0888772822195
 30
0.0
 11
-649.545051801147
 21
-74.9638773120218
 31
0.0
  0
LINE
  5
   635
  8
0
  6
CONTINUOUS
 62
     2
 10
-647.520051854791
 20
-76.0888772822112
 30
0.0
 11
-647.520051854791
 21
-74.9638773120135
 31
0.0
  0
LINE
  5
   636
  8
0
  6
CONTINUOUS
 62
     2
 10
-646.957551869693
 20
-74.9638773120143
 30
0.0
 11
-647.520051854791
 21
-74.9638773120143
 31
0.0
  0
LINE
  5
   637
  8
0
  6
CONTINUOUS
 62
     2
 10
-646.957551869693
 20
-74.9638773120143
 30
0.0
 11
-646.957551869693
 21
-72.9388773656585
 31
0.0
  0
LINE
  5
   638
  8
0
  6
CONTINUOUS
 62
     2
 10
-646.957551869693
 20
-72.9388773656585
 30
0.0
 11
-650.107551786246
 21
-72.9388773656585
 31
0.0
  0
ARC
  5
   639
  8
0
  6
CONTINUOUS
 62
     2
 10
-709.73254554597
 20
-75.4138785338085
 30
0.0
 40
0.674998158905646
 50
179.999941123702
 51
270.000103159103
  0
CIRCLE
  5
   63A
  8
0
  6
CONTINUOUS
 62
     1
 10
-708.607544366671
 20
-74.2888779713892
 30
0.0
 40
0.630000497878804
  0
ARC
  5
   63B
  8
0
  6
CONTINUOUS
 62
     1
 10
-669.457559225252
 20
-70.0138834254674
 30
0.0
 40
2.69999738401634
 50
90.0001399327154
 51
270.000100332566
  0
ARC
  5
   63C
  8
0
  6
CONTINUOUS
 62
     1
 10
-664.28255592886
 20
-70.0138361581822
 30
0.0
 40
3.82504183567352
 50
404.899302393594
 51
495.100813987516
  0
ARC
  5
   63D
  8
0
  6
CONTINUOUS
 62
     1
 10
-659.107549673872
 20
-70.0138806831726
 30
0.0
 40
2.69999367071187
 50
269.999747131106
 51
450.000048027357
  0
CIRCLE
  5
   63E
  8
0
  6
CONTINUOUS
 62
     1
 10
-648.532545952481
 20
-69.1138613336133
 30
0.0
 40
2.36248745863058
  0
CIRCLE
  5
   63F
  8
0
  6
CONTINUOUS
 62
     1
 10
-648.532558366702
 20
-69.1138913800547
 30
0.0
 40
1.23750949026183
  0
ARC
  5
   640
  8
0
  6
CONTINUOUS
 62
     1
 10
-637.957590737351
 20
-70.0139041216651
 30
0.0
 40
2.6999588909701
 50
449.999680793011
 51
630.000858183329
  0
ARC
  5
   641
  8
0
  6
CONTINUOUS
 62
     1
 10
-632.782531738281
 20
-70.0138708822383
 30
0.0
 40
3.82499575272611
 50
404.900757179708
 51
495.099359217673
  0
ARC
  5
   642
  8
0
  6
CONTINUOUS
 62
     1
 10
-627.607551468848
 20
-70.0138800663391
 30
0.0
 40
2.69999521855754
 50
269.999783457987
 51
450.000092622467
  0
CIRCLE
  5
   643
  8
0
  6
CONTINUOUS
 62
     1
 10
-617.032501616205
 20
-69.1139432456324
 30
0.0
 40
2.36257180416723
  0
CIRCLE
  5
   644
  8
0
  6
CONTINUOUS
 62
     1
 10
-617.0325717698
 20
-69.1138529665081
 30
0.0
 40
1.23747207015985
  0
ARC
  5
   645
  8
0
  6
CONTINUOUS
 62
     1
 10
-606.45756960232
 20
-70.0138787382953
 30
0.0
 40
2.69999133592634
 50
90.0003609959681
 51
270.000490903722
  0
ARC
  5
   646
  8
0
  6
CONTINUOUS
 62
     1
 10
-596.107616305513
 20
-70.0138689225555
 30
0.0
 40
2.70005302328714
 50
270.001034630644
 51
449.998799421533
  0
ARC
  5
   647
  8
0
  6
CONTINUOUS
 62
     1
 10
-601.282587758539
 20
-70.0138989734304
 30
0.0
 40
3.82500495650487
 50
404.901246442185
 51
495.09901516511
  0
CIRCLE
  5
   648
  8
0
  6
CONTINUOUS
 62
     1
 10
-588.457553652538
 20
-74.2888807088985
 30
0.0
 40
0.629998362391338
  0
ARC
  5
   649
  8
0
  6
CONTINUOUS
 62
     1
 10
-601.282587758539
 20
-70.0138989734304
 30
0.0
 40
3.82500495650487
 50
224.900341297451
 51
315.099658598617
  0
ARC
  5
   64A
  8
0
  6
CONTINUOUS
 62
     1
 10
-632.782531738281
 20
-70.0138708822383
 30
0.0
 40
3.82499575272611
 50
224.901072739214
 51
315.098927156855
  0
ARC
  5
   64B
  8
0
  6
CONTINUOUS
 62
     1
 10
-664.28255592886
 20
-70.0138361581822
 30
0.0
 40
3.82504183567352
 50
224.901119153159
 51
315.09888074291
  0
LINE
  5
   64C
  8
0
  6
DASHDOT
 62
     2
 10
-659.107549673872
 20
-74.0638743181217
 30
0.0
 11
-659.107549673872
 21
-65.9638870482235
 31
0.0
  0
LINE
  5
   64D
  8
0
  6
DASHDOT
 62
     2
 10
-655.057556038923
 20
-70.0138806831726
 30
0.0
 11
-663.157543308822
 21
-70.0138806831726
 31
0.0
  0
LINE
  5
   64E
  8
0
  6
DASHDOT
 62
     2
 10
-669.457559225252
 20
-74.063880773721
 30
0.0
 11
-669.457559225252
 21
-65.9638860772138
 31
0.0
  0
LINE
  5
   64F
  8
0
  6
DASHDOT
 62
     2
 10
-665.407561876998
 20
-70.0138834254674
 30
0.0
 11
-673.507556573505
 21
-70.0138834254674
 31
0.0
  0
LINE
  5
   650
  8
0
  6
DASHDOT
 62
     2
 10
-637.957590737351
 20
-74.0638629768725
 30
0.0
 11
-637.957590737351
 21
-65.9639452664578
 31
0.0
  0
LINE
  5
   651
  8
0
  6
DASHDOT
 62
     2
 10
-633.907631882144
 20
-70.0139041216651
 30
0.0
 11
-642.007549592558
 21
-70.0139041216651
 31
0.0
  0
LINE
  5
   652
  8
0
  6
DASHDOT
 62
     2
 10
-632.782531738281
 20
-78.2093762240037
 30
0.0
 11
-632.782531738281
 21
-43.5516116018437
 31
0.0
  0
LINE
  5
   653
  8
0
  6
DASHDOT
 62
     2
 10
-627.607551468848
 20
-74.0638752491339
 30
0.0
 11
-627.607551468848
 21
-65.9638848835444
 31
0.0
  0
LINE
  5
   654
  8
0
  6
DASHDOT
 62
     2
 10
-623.557556286053
 20
-70.0138800663391
 30
0.0
 11
-631.657546651643
 21
-70.0138800663391
 31
0.0
  0
LINE
  5
   655
  8
0
  6
DASHDOT
 62
     2
 10
-606.45756960232
 20
-74.0638700384589
 30
0.0
 11
-606.45756960232
 21
-65.9638874381318
 31
0.0
  0
LINE
  5
   656
  8
0
  6
DASHDOT
 62
     2
 10
-602.407578302156
 20
-70.0138787382953
 30
0.0
 11
-610.507560902483
 21
-70.0138787382953
 31
0.0
  0
LINE
  5
   657
  8
0
  6
DASHDOT
 62
     2
 10
-596.107616305513
 20
-74.0639219100799
 30
0.0
 11
-596.107616305513
 21
-65.9638159350312
 31
0.0
  0
LINE
  5
   658
  8
0
  6
DASHDOT
 62
     2
 10
-592.057563317989
 20
-70.0138689225555
 30
0.0
 11
-600.157669293038
 21
-70.0138689225555
 31
0.0
  0
LINE
  5
   659
  8
0
  6
DASHDOT
 62
     2
 10
-588.457553652538
 20
-76.2688790355271
 30
0.0
 11
-588.457553652538
 21
-72.30888238227
 31
0.0
  0
LINE
  5
   65A
  8
0
  6
DASHDOT
 62
     2
 10
-708.607544366671
 20
-76.2688784335052
 30
0.0
 11
-708.607544366671
 21
-72.3088775092732
 31
0.0
  0
LINE
  5
   65B
  8
0
  6
DASHDOT
 62
     2
 10
-706.627543904555
 20
-74.2888779713892
 30
0.0
 11
-710.587544828787
 21
-74.2888779713892
 31
0.0
  0
ARC
  5
   65C
  8
0
  6
CONTINUOUS
 62
     2
 10
-587.332572645234
 20
-75.4138831759705
 30
0.0
 40
0.675007545361396
 50
270.001088208967
 51
360.000070595423
  0
LINE
  5
   65D
  8
0
  6
CONTINUOUS
 62
     1
 10
-586.432553473058
 20
-63.4888844824529
 30
0.0
 11
-586.432553473058
 21
-45.7138849533296
 31
0.0
  0
LINE
  5
   65E
  8
0
  6
CONTINUOUS
 62
     1
 10
-710.632519659769
 20
-63.488877615998
 30
0.0
 11
-710.632519659769
 21
-45.9388780809172
 31
0.0
  0
LINE
  5
   65F
  8
0
  6
CONTINUOUS
 62
     1
 10
-616.672532165051
 20
-25.193871764017
 30
0.0
 11
-616.875032159686
 21
-25.193871764017
 31
0.0
  0
LINE
  5
   660
  8
0
  6
CONTINUOUS
 62
     1
 10
-617.100032153726
 20
-28.6588716722258
 30
0.0
 11
-617.460032144189
 21
-28.6588716722258
 31
0.0
  0
LINE
  5
   661
  8
0
  6
CONTINUOUS
 62
     1
 10
-620.340032067895
 20
-27.4888717032202
 30
0.0
 11
-620.340032067895
 21
-27.2638717091807
 31
0.0
  0
LINE
  5
   662
  8
0
  6
CONTINUOUS
 62
     1
 10
-618.000032129884
 20
-27.4888717032202
 30
0.0
 11
-618.000032129884
 21
-27.2638717091807
 31
0.0
  0
ARC
  5
   663
  8
0
  6
CONTINUOUS
 62
     1
 10
-619.170032098889
 20
-27.2638717091807
 30
0.0
 40
1.16999996900559
 50
359.999999948034
 51
539.999999948034
  0
ARC
  5
   664
  8
0
  6
CONTINUOUS
 62
     1
 10
-619.170032098889
 20
-27.4888717032202
 30
0.0
 40
1.16999996900558
 50
179.999999948034
 51
359.999999948034
  0
ARC
  5
   665
  8
0
  6
CONTINUOUS
 62
     1
 10
-619.170032098889
 20
-27.2638717091807
 30
0.0
 40
0.809999978542329
 50
359.999999948034
 51
539.999999948034
  0
ARC
  5
   666
  8
0
  6
CONTINUOUS
 62
     1
 10
-619.170032098889
 20
-27.4888717032202
 30
0.0
 40
0.809999978542327
 50
179.999999948034
 51
359.999999948034
  0
LINE
  5
   667
  8
0
  6
CONTINUOUS
 62
     1
 10
-619.980032077432
 20
-27.4888717032202
 30
0.0
 11
-619.980032077432
 21
-27.2638717091807
 31
0.0
  0
LINE
  5
   668
  8
0
  6
CONTINUOUS
 62
     1
 10
-618.360032120347
 20
-27.4888717032202
 30
0.0
 11
-618.360032120347
 21
-27.2638717091807
 31
0.0
  0
LINE
  5
   669
  8
0
  6
CONTINUOUS
 62
     1
 10
-617.887532132864
 20
-26.63387172587
 30
0.0
 11
-617.887532132864
 21
-26.2738717354067
 31
0.0
  0
LINE
  5
   66A
  8
0
  6
CONTINUOUS
 62
     1
 10
-617.460032144189
 20
-26.63387172587
 30
0.0
 11
-617.887532132864
 21
-26.63387172587
 31
0.0
  0
LINE
  5
   66B
  8
0
  6
CONTINUOUS
 62
     1
 10
-616.672532165051
 20
-26.63387172587
 30
0.0
 11
-616.672532165051
 21
-26.2738717354067
 31
0.0
  0
LINE
  5
   66C
  8
0
  6
CONTINUOUS
 62
     1
 10
-617.460032144189
 20
-26.2738717354067
 30
0.0
 11
-617.887532132864
 21
-26.2738717354067
 31
0.0
  0
LINE
  5
   66D
  8
0
  6
CONTINUOUS
 62
     1
 10
-617.460032144189
 20
-28.6588716722258
 30
0.0
 11
-617.460032144189
 21
-26.63387172587
 31
0.0
  0
LINE
  5
   66E
  8
0
  6
CONTINUOUS
 62
     1
 10
-617.100032153726
 20
-28.6588716722258
 30
0.0
 11
-617.100032153726
 21
-26.63387172587
 31
0.0
  0
LINE
  5
   66F
  8
0
  6
CONTINUOUS
 62
     1
 10
-616.672532165051
 20
-26.63387172587
 30
0.0
 11
-617.100032153726
 21
-26.63387172587
 31
0.0
  0
LINE
  5
   670
  8
0
  6
CONTINUOUS
 62
     1
 10
-616.672532165051
 20
-26.2738717354067
 30
0.0
 11
-617.100032153726
 21
-26.2738717354067
 31
0.0
  0
LINE
  5
   671
  8
0
  6
CONTINUOUS
 62
     1
 10
-617.460032144189
 20
-26.2738717354067
 30
0.0
 11
-617.460032144189
 21
-25.7788717485198
 31
0.0
  0
LINE
  5
   672
  8
0
  6
CONTINUOUS
 62
     1
 10
-617.100032153726
 20
-26.2738717354067
 30
0.0
 11
-617.100032153726
 21
-25.7788717485198
 31
0.0
  0
ARC
  5
   673
  8
0
  6
CONTINUOUS
 62
     1
 10
-616.875032159686
 20
-25.7788717485198
 30
0.0
 40
0.584999984502792
 50
449.999999948034
 51
539.999999948034
  0
ARC
  5
   674
  8
0
  6
CONTINUOUS
 62
     1
 10
-616.875032159686
 20
-25.7788717485198
 30
0.0
 40
0.224999994039535
 50
449.999999948034
 51
539.999999948034
  0
LINE
  5
   675
  8
0
  6
CONTINUOUS
 62
     1
 10
-616.672532165051
 20
-25.5538717544802
 30
0.0
 11
-616.672532165051
 21
-25.193871764017
 31
0.0
  0
LINE
  5
   676
  8
0
  6
CONTINUOUS
 62
     1
 10
-616.672532165051
 20
-25.5538717544802
 30
0.0
 11
-616.875032159686
 21
-25.5538717544802
 31
0.0
  0
LINE
  5
   677
  8
0
  6
CONTINUOUS
 62
     1
 10
-615.232532203198
 20
-25.193871764017
 30
0.0
 11
-615.435032197833
 21
-25.193871764017
 31
0.0
  0
LINE
  5
   678
  8
0
  6
CONTINUOUS
 62
     1
 10
-615.660032191873
 20
-28.6588716722258
 30
0.0
 11
-616.020032182336
 21
-28.6588716722258
 31
0.0
  0
LINE
  5
   679
  8
0
  6
CONTINUOUS
 62
     1
 10
-616.447532171011
 20
-26.63387172587
 30
0.0
 11
-616.447532171011
 21
-26.2738717354067
 31
0.0
  0
LINE
  5
   67A
  8
0
  6
CONTINUOUS
 62
     1
 10
-616.020032182336
 20
-26.63387172587
 30
0.0
 11
-616.447532171011
 21
-26.63387172587
 31
0.0
  0
LINE
  5
   67B
  8
0
  6
CONTINUOUS
 62
     1
 10
-615.232532203198
 20
-26.63387172587
 30
0.0
 11
-615.232532203198
 21
-26.2738717354067
 31
0.0
  0
LINE
  5
   67C
  8
0
  6
CONTINUOUS
 62
     1
 10
-616.020032182336
 20
-26.2738717354067
 30
0.0
 11
-616.447532171011
 21
-26.2738717354067
 31
0.0
  0
LINE
  5
   67D
  8
0
  6
CONTINUOUS
 62
     1
 10
-616.020032182336
 20
-28.6588716722258
 30
0.0
 11
-616.020032182336
 21
-26.63387172587
 31
0.0
  0
LINE
  5
   67E
  8
0
  6
CONTINUOUS
 62
     1
 10
-615.660032191873
 20
-28.6588716722258
 30
0.0
 11
-615.660032191873
 21
-26.63387172587
 31
0.0
  0
LINE
  5
   67F
  8
0
  6
CONTINUOUS
 62
     1
 10
-615.232532203198
 20
-26.63387172587
 30
0.0
 11
-615.660032191873
 21
-26.63387172587
 31
0.0
  0
LINE
  5
   680
  8
0
  6
CONTINUOUS
 62
     1
 10
-615.232532203198
 20
-26.2738717354067
 30
0.0
 11
-615.660032191873
 21
-26.2738717354067
 31
0.0
  0
LINE
  5
   681
  8
0
  6
CONTINUOUS
 62
     1
 10
-616.020032182336
 20
-26.2738717354067
 30
0.0
 11
-616.020032182336
 21
-25.7788717485198
 31
0.0
  0
LINE
  5
   682
  8
0
  6
CONTINUOUS
 62
     1
 10
-615.660032191873
 20
-26.2738717354067
 30
0.0
 11
-615.660032191873
 21
-25.7788717485198
 31
0.0
  0
ARC
  5
   683
  8
0
  6
CONTINUOUS
 62
     1
 10
-615.435032197833
 20
-25.7788717485198
 30
0.0
 40
0.584999984502792
 50
449.999999948034
 51
539.999999948034
  0
ARC
  5
   684
  8
0
  6
CONTINUOUS
 62
     1
 10
-615.435032197833
 20
-25.7788717485198
 30
0.0
 40
0.224999994039535
 50
449.999999948034
 51
539.999999948034
  0
LINE
  5
   685
  8
0
  6
CONTINUOUS
 62
     1
 10
-615.232532203198
 20
-25.5538717544802
 30
0.0
 11
-615.232532203198
 21
-25.193871764017
 31
0.0
  0
LINE
  5
   686
  8
0
  6
CONTINUOUS
 62
     1
 10
-615.232532203198
 20
-25.5538717544802
 30
0.0
 11
-615.435032197833
 21
-25.5538717544802
 31
0.0
  0
LINE
  5
   687
  8
0
  6
CONTINUOUS
 62
     1
 10
-617.280032148957
 20
-9.75887217290484
 30
0.0
 11
-617.640032139421
 21
-9.75887217290484
 31
0.0
  0
ARC
  5
   688
  8
0
  6
CONTINUOUS
 62
     1
 10
-619.170032098889
 20
-8.36387220985971
 30
0.0
 40
1.16999996900559
 50
359.999999948034
 51
539.999999948034
  0
ARC
  5
   689
  8
0
  6
CONTINUOUS
 62
     1
 10
-619.170032098889
 20
-8.36387220985971
 30
0.0
 40
0.809999978542329
 50
359.999999948034
 51
539.999999948034
  0
ARC
  5
   68A
  8
0
  6
CONTINUOUS
 62
     1
 10
-619.170032098889
 20
-8.58887220389925
 30
0.0
 40
1.16999996900558
 50
179.999999948034
 51
359.999999948034
  0
ARC
  5
   68B
  8
0
  6
CONTINUOUS
 62
     1
 10
-619.170032098889
 20
-8.58887220389925
 30
0.0
 40
0.809999978542327
 50
179.999999948034
 51
359.999999948034
  0
LINE
  5
   68C
  8
0
  6
CONTINUOUS
 62
     1
 10
-618.360032120347
 20
-8.58887220389925
 30
0.0
 11
-618.360032120347
 21
-8.36387220985971
 31
0.0
  0
LINE
  5
   68D
  8
0
  6
CONTINUOUS
 62
     1
 10
-618.000032129884
 20
-8.58887220389925
 30
0.0
 11
-618.000032129884
 21
-8.36387220985971
 31
0.0
  0
LINE
  5
   68E
  8
0
  6
CONTINUOUS
 62
     1
 10
-619.980032077432
 20
-8.58887220389926
 30
0.0
 11
-619.980032077432
 21
-8.36387220985972
 31
0.0
  0
LINE
  5
   68F
  8
0
  6
CONTINUOUS
 62
     1
 10
-620.340032067895
 20
-8.58887220389925
 30
0.0
 11
-620.340032067895
 21
-8.36387220985971
 31
0.0
  0
LINE
  5
   690
  8
0
  6
CONTINUOUS
 62
     1
 10
-617.640032139421
 20
-9.75887217290484
 30
0.0
 11
-617.640032139421
 21
-7.19387224085413
 31
0.0
  0
LINE
  5
   691
  8
0
  6
CONTINUOUS
 62
     1
 10
-617.280032148957
 20
-9.75887217290484
 30
0.0
 11
-617.280032148957
 21
-8.1838722146281
 31
0.0
  0
LINE
  5
   692
  8
0
  6
CONTINUOUS
 62
     1
 10
-616.020032182336
 20
-9.75887217290484
 30
0.0
 11
-616.020032182336
 21
-8.1838722146281
 31
0.0
  0
LINE
  5
   693
  8
0
  6
CONTINUOUS
 62
     1
 10
-615.660032191873
 20
-9.75887217290484
 30
0.0
 11
-615.660032191873
 21
-8.09387221701228
 31
0.0
  0
LINE
  5
   694
  8
0
  6
CONTINUOUS
 62
     1
 10
-617.280032148957
 20
-7.19387224085413
 30
0.0
 11
-617.640032139421
 21
-7.19387224085413
 31
0.0
  0
ARC
  5
   695
  8
0
  6
CONTINUOUS
 62
     1
 10
-616.650032165647
 20
-8.1838722146281
 30
0.0
 40
0.629999983310699
 50
359.999999948034
 51
539.999999948034
  0
LINE
  5
   696
  8
0
  6
CONTINUOUS
 62
     1
 10
-617.280032148957
 20
-7.55387223131738
 30
0.0
 11
-617.280032148957
 21
-7.19387224085413
 31
0.0
  0
ARC
  5
   697
  8
0
  6
CONTINUOUS
 62
     1
 10
-616.560032168031
 20
-8.09387221701228
 30
0.0
 40
0.899999976158142
 50
359.999999948034
 51
503.13010230219
  0
LINE
  5
   698
  8
0
  6
CONTINUOUS
 62
     1
 10
-615.660032191873
 20
-9.75887217290484
 30
0.0
 11
-616.020032182336
 21
-9.75887217290484
 31
0.0
  0
LINE
  5
   699
  8
0
  6
CONTINUOUS
 62
     7
 10
-623.332531988621
 20
-25.4537727045285
 30
0.0
 11
-642.232531487942
 21
-25.4537727045285
 31
0.0
  0
LINE
  5
   69A
  8
0
  6
CONTINUOUS
 62
     7
 10
-623.332531988621
 20
-21.7545442705005
 30
0.0
 11
-642.232531487942
 21
-21.7545442705005
 31
0.0
  0
LINE
  5
   69B
  8
0
  6
CONTINUOUS
 62
     7
 10
-623.332531988621
 20
-29.3410755911974
 30
0.0
 11
-642.232531487942
 21
-29.3410755911974
 31
0.0
  0
LINE
  5
   69C
  8
0
  6
CONTINUOUS
 62
     7
 10
-623.332531988621
 20
-33.6444677410697
 30
0.0
 11
-642.232531487942
 21
-33.6444677410697
 31
0.0
  0
LINE
  5
   69D
  8
0
  6
CONTINUOUS
 62
     7
 10
-623.332531988621
 20
-21.7545442705005
 30
0.0
 11
-623.332531988621
 21
-5.67594350909285
 31
0.0
  0
LINE
  5
   69E
  8
0
  6
CONTINUOUS
 62
     7
 10
-642.232531487942
 20
-21.7545442705005
 30
0.0
 11
-642.232531487942
 21
-5.67594350909285
 31
0.0
  0
LINE
  5
   69F
  8
0
  6
CONTINUOUS
 62
     1
 10
-642.232531487942
 20
-30.9763694650656
 30
0.0
 11
-663.832517182827
 21
-30.9763694650656
 31
0.0
  0
LINE
  5
   6A0
  8
0
  6
DASHDOT
 62
     7
 10
-601.282532572746
 20
31.1243267989025
 30
0.0
 11
-601.282532572746
 21
46.01989082269
 31
0.0
  0
LINE
  5
   6A1
  8
0
  6
DASHDOT
 62
     7
 10
-664.282530903816
 20
32.0552995503892
 30
0.0
 11
-664.282530903816
 21
47.7266742004157
 31
0.0
  0
LINE
  5
   6A2
  8
0
  6
CONTINUOUS
 62
     1
 10
-666.982530832291
 20
11.7736135237687
 30
0.0
 11
-711.195019644868
 21
11.7736135237687
 31
0.0
  0
LINE
  5
   6A3
  8
0
  6
CONTINUOUS
 62
   218
 10
-663.832524049282
 20
-4.42637231416784
 30
0.0
 11
-664.282524037361
 21
-4.42637231416784
 31
0.0
  0
LINE
  5
   6A4
  8
0
  6
CONTINUOUS
 62
     1
 10
-601.732532560825
 20
-3.97637232608877
 30
0.0
 11
-663.832524049282
 21
-3.97637232608877
 31
0.0
  0
LINE
  5
   6A5
  8
0
  6
CONTINUOUS
 62
     1
 10
-601.732532560825
 20
-4.42637231416784
 30
0.0
 11
-663.832524049282
 21
-4.42637231416784
 31
0.0
  0
LINE
  5
   6A6
  8
0
  6
CONTINUOUS
 62
     1
 10
-601.732532560825
 20
-12.5263720995911
 30
0.0
 11
-623.332538855076
 21
-12.5263720995911
 31
0.0
  0
LINE
  5
   6A7
  8
0
  6
CONTINUOUS
 62
     1
 10
-601.732532560825
 20
-12.9763720876702
 30
0.0
 11
-623.332538855076
 21
-12.9763720876702
 31
0.0
  0
LINE
  5
   6A8
  8
0
  6
CONTINUOUS
 62
     1
 10
-601.732525694371
 20
-22.4263718373307
 30
0.0
 11
-623.332538855076
 21
-22.4263718373307
 31
0.0
  0
LINE
  5
   6A9
  8
0
  6
CONTINUOUS
 62
     1
 10
-601.732525694371
 20
-22.8763718254098
 30
0.0
 11
-623.332538855076
 21
-22.8763718254098
 31
0.0
  0
LINE
  5
   6AA
  8
0
  6
CONTINUOUS
 62
     1
 10
-601.732525694371
 20
-30.9763694650656
 30
0.0
 11
-623.332531988621
 21
-30.9763694650656
 31
0.0
  0
LINE
  5
   6AB
  8
0
  6
CONTINUOUS
 62
   218
 10
-663.832517182827
 20
-30.9763694650656
 30
0.0
 11
-664.282524037361
 21
-30.9763694650656
 31
0.0
  0
LINE
  5
   6AC
  8
0
  6
CONTINUOUS
 62
   218
 10
-663.832524049282
 20
-22.8763718254098
 30
0.0
 11
-664.282524037361
 21
-22.8763718254098
 31
0.0
  0
LINE
  5
   6AD
  8
0
  6
CONTINUOUS
 62
   218
 10
-663.832524049282
 20
-12.5263720995911
 30
0.0
 11
-664.282524037361
 21
-12.5263720995911
 31
0.0
  0
LINE
  5
   6AE
  8
0
  6
CONTINUOUS
 62
   218
 10
-663.832524049282
 20
-12.9763720876702
 30
0.0
 11
-664.282524037361
 21
-12.9763720876702
 31
0.0
  0
LINE
  5
   6AF
  8
0
  6
CONTINUOUS
 62
     1
 10
-663.832524049282
 20
-3.97637232608877
 30
0.0
 11
-664.235928274436
 21
-3.97637232608877
 31
0.0
  0
LINE
  5
   6B0
  8
0
  6
CONTINUOUS
 62
     7
 10
-663.832517182827
 20
-31.4263717503192
 30
0.0
 11
-664.282517170906
 21
-31.4263717503192
 31
0.0
  0
LINE
  5
   6B1
  8
0
  6
CONTINUOUS
 62
     7
 10
-601.282532572747
 20
-31.4263718169838
 30
0.0
 11
-601.732525694371
 21
-31.4263668782244
 31
0.0
  0
LINE
  5
   6B2
  8
0
  6
CONTINUOUS
 62
     1
 10
-586.432553473329
 20
-63.4888844844156
 30
0.0
 11
-711.420019638907
 21
-63.4888844844156
 31
0.0
  0
LINE
  5
   6B3
  8
0
  6
CONTINUOUS
 62
     7
 10
-646.957551869693
 20
41.3611337757751
 30
0.0
 11
-650.107551786246
 21
41.3611337757751
 31
0.0
  0
LINE
  5
   6B4
  8
0
  6
CONTINUOUS
 62
     7
 10
-650.107551786246
 20
41.3611337757751
 30
0.0
 11
-650.107551786246
 21
43.386133722131
 31
0.0
  0
LINE
  5
   6B5
  8
0
  6
CONTINUOUS
 62
     7
 10
-649.545051801147
 20
43.386133722131
 30
0.0
 11
-650.107551786246
 21
43.386133722131
 31
0.0
  0
LINE
  5
   6B6
  8
0
  6
CONTINUOUS
 62
     7
 10
-649.545051801147
 20
43.3861337221385
 30
0.0
 11
-649.545051801147
 21
44.5111336923361
 31
0.0
  0
LINE
  5
   6B7
  8
0
  6
CONTINUOUS
 62
     7
 10
-647.520051854791
 20
43.3861337221301
 30
0.0
 11
-647.520051854791
 21
44.5111336923278
 31
0.0
  0
LINE
  5
   6B8
  8
0
  6
CONTINUOUS
 62
     7
 10
-646.957551869693
 20
43.386133722131
 30
0.0
 11
-647.520051854791
 21
43.386133722131
 31
0.0
  0
LINE
  5
   6B9
  8
0
  6
CONTINUOUS
 62
     7
 10
-646.957551869693
 20
41.3611337757751
 30
0.0
 11
-646.957551869693
 21
43.386133722131
 31
0.0
  0
LINE
  5
   6BA
  8
0
  6
CONTINUOUS
 62
     7
 10
-616.020045822802
 20
43.3861337221385
 30
0.0
 11
-616.020045822802
 21
44.5111336923361
 31
0.0
  0
LINE
  5
   6BB
  8
0
  6
CONTINUOUS
 62
     7
 10
-615.457545837703
 20
43.386133722131
 30
0.0
 11
-616.020045822802
 21
43.386133722131
 31
0.0
  0
LINE
  5
   6BC
  8
0
  6
CONTINUOUS
 62
     7
 10
-615.457545837703
 20
41.3611337757751
 30
0.0
 11
-615.457545837703
 21
43.386133722131
 31
0.0
  0
LINE
  5
   6BD
  8
0
  6
CONTINUOUS
 62
     7
 10
-615.457545837703
 20
41.3611337757751
 30
0.0
 11
-618.607545754256
 21
41.3611337757751
 31
0.0
  0
LINE
  5
   6BE
  8
0
  6
CONTINUOUS
 62
     7
 10
-618.045045769157
 20
43.386133722131
 30
0.0
 11
-618.607545754256
 21
43.386133722131
 31
0.0
  0
LINE
  5
   6BF
  8
0
  6
CONTINUOUS
 62
     7
 10
-618.045045769157
 20
43.3861337221301
 30
0.0
 11
-618.045045769157
 21
44.5111336923278
 31
0.0
  0
LINE
  5
   6C0
  8
0
  6
CONTINUOUS
 62
     7
 10
-618.607545754256
 20
41.3611337757751
 30
0.0
 11
-618.607545754256
 21
43.386133722131
 31
0.0
  0
LINE
  5
   6C1
  8
0
  6
CONTINUOUS
 62
     1
 10
-601.732525694371
 20
-31.4263668782244
 30
0.0
 11
-623.332531988621
 21
-31.4263668782244
 31
0.0
  0
LINE
  5
   6C2
  8
0
  6
CONTINUOUS
 62
     1
 10
-642.232531487942
 20
-31.4263717503192
 30
0.0
 11
-663.832517182827
 21
-31.4263717503192
 31
0.0
  0
LINE
  5
   6C3
  8
0
  6
CONTINUOUS
 62
     1
 10
-694.950020075213
 20
-63.4888844844156
 30
0.0
 11
-694.950020075213
 21
-45.9388780809172
 31
0.0
  0
LINE
  5
   6C4
  8
0
  6
CONTINUOUS
 62
     1
 10
-693.330020118129
 20
-63.4888844844156
 30
0.0
 11
-693.330020118129
 21
-45.9388780809172
 31
0.0
  0
LINE
  5
   6C5
  8
0
  6
CONTINUOUS
 62
     1
 10
-691.710020161044
 20
-63.4888844844156
 30
0.0
 11
-691.710020161044
 21
-45.9388780809172
 31
0.0
  0
LINE
  5
   6C6
  8
0
  6
CONTINUOUS
 62
     1
 10
-690.090020203959
 20
-63.4888844844156
 30
0.0
 11
-690.090020203959
 21
-45.9388780809172
 31
0.0
  0
LINE
  5
   6C7
  8
0
  6
CONTINUOUS
 62
     1
 10
-688.470020246875
 20
-63.4888844844156
 30
0.0
 11
-688.470020246875
 21
-45.9388780809172
 31
0.0
  0
LINE
  5
   6C8
  8
0
  6
CONTINUOUS
 62
     1
 10
-686.85002028979
 20
-63.4888844844156
 30
0.0
 11
-686.85002028979
 21
-45.9388780809172
 31
0.0
  0
LINE
  5
   6C9
  8
0
  6
CONTINUOUS
 62
     1
 10
-685.230020332705
 20
-63.4888844844156
 30
0.0
 11
-685.230020332705
 21
-45.9388780809172
 31
0.0
  0
LINE
  5
   6CA
  8
0
  6
CONTINUOUS
 62
     1
 10
-683.610020375621
 20
-63.4888844844156
 30
0.0
 11
-683.610020375621
 21
-45.9388780809172
 31
0.0
  0
LINE
  5
   6CB
  8
0
  6
CONTINUOUS
 62
     1
 10
-681.990020418536
 20
-63.4888844844156
 30
0.0
 11
-681.990020418536
 21
-45.9388780809172
 31
0.0
  0
LINE
  5
   6CC
  8
0
  6
CONTINUOUS
 62
     1
 10
-680.370020461451
 20
-63.4888844844156
 30
0.0
 11
-680.370020461451
 21
-45.9388780809172
 31
0.0
  0
LINE
  5
   6CD
  8
0
  6
CONTINUOUS
 62
     1
 10
-678.750020504367
 20
-63.4888844844156
 30
0.0
 11
-678.750020504367
 21
-45.9388780809172
 31
0.0
  0
LINE
  5
   6CE
  8
0
  6
CONTINUOUS
 62
     1
 10
-677.130020547282
 20
-63.4888844844156
 30
0.0
 11
-677.130020547282
 21
-45.9388780809172
 31
0.0
  0
LINE
  5
   6CF
  8
0
  6
CONTINUOUS
 62
     1
 10
-675.510020590198
 20
-63.4888844844156
 30
0.0
 11
-675.510020590198
 21
-45.9388780809172
 31
0.0
  0
LINE
  5
   6D0
  8
0
  6
CONTINUOUS
 62
     1
 10
-673.890020633113
 20
-63.4888844844156
 30
0.0
 11
-673.890020633113
 21
-45.9388780809172
 31
0.0
  0
LINE
  5
   6D1
  8
0
  6
CONTINUOUS
 62
     1
 10
-672.270020676028
 20
-63.4888844844156
 30
0.0
 11
-672.270020676028
 21
-45.9388780809172
 31
0.0
  0
LINE
  5
   6D2
  8
0
  6
CONTINUOUS
 62
     1
 10
-670.650020718943
 20
-63.4888844844156
 30
0.0
 11
-670.650020718943
 21
-45.9388780809172
 31
0.0
  0
LINE
  5
   6D3
  8
0
  6
CONTINUOUS
 62
     1
 10
-669.030020761859
 20
-63.4888844844156
 30
0.0
 11
-669.030020761859
 21
-45.9388780809172
 31
0.0
  0
LINE
  5
   6D4
  8
0
  6
CONTINUOUS
 62
     1
 10
-667.410020804774
 20
-63.4888844844156
 30
0.0
 11
-667.410020804774
 21
-45.9388780809172
 31
0.0
  0
LINE
  5
   6D5
  8
0
  6
CONTINUOUS
 62
     1
 10
-665.79002084769
 20
-63.4888844844156
 30
0.0
 11
-665.79002084769
 21
-48.0763840324404
 31
0.0
  0
LINE
  5
   6D6
  8
0
  6
CONTINUOUS
 62
     1
 10
-664.170020890605
 20
24.3736123316763
 30
0.0
 11
-664.170020890605
 21
33.4861198150388
 31
0.0
  0
LINE
  5
   6D7
  8
0
  6
CONTINUOUS
 62
     2
 10
-681.045050966682
 20
44.5111266076538
 30
0.0
 11
-709.957524080772
 21
44.5111266076538
 31
0.0
  0
LINE
  5
   6D8
  8
0
  6
CONTINUOUS
 62
     1
 10
-690.60724306046
 20
41.1361198306086
 30
0.0
 11
-693.0731707337
 21
41.1361198306086
 31
0.0
  0
LINE
  5
   6D9
  8
0
  6
CONTINUOUS
 62
     1
 10
-690.60724306046
 20
35.7361199736597
 30
0.0
 11
-693.0731707337
 21
35.7361199736597
 31
0.0
  0
LINE
  5
   6DA
  8
0
  6
CONTINUOUS
 62
     1
 10
-698.491865571115
 20
35.7361197810688
 30
0.0
 11
-700.957307568082
 21
35.7361281797822
 31
0.0
  0
LINE
  5
   6DB
  8
0
  6
CONTINUOUS
 62
     1
 10
-700.957307563385
 20
41.1361116250622
 30
0.0
 11
-698.491862112232
 21
41.1361200238144
 31
0.0
  0
CIRCLE
  5
   6DC
  8
0
  6
CONTINUOUS
 62
     1
 10
-680.032535460768
 20
37.5362165495707
 30
0.0
 40
2.36249993741512
  0
LINE
  5
   6DD
  8
0
  6
DASHDOT
 62
     7
 10
-700.95728463566
 20
35.1959629166339
 30
0.0
 11
-700.95728463566
 21
41.6763173198133
 31
0.0
  0
ARC
  5
   6DE
  8
0
  6
CONTINUOUS
 62
     1
 10
-700.95728463566
 20
38.4361401182236
 30
0.0
 40
2.70014766799139
 50
90.0052836333811
 51
269.995265213079
  0
LINE
  5
   6DF
  8
0
  6
DASHDOT
 62
     7
 10
-691.192431011229
 20
38.4361980267026
 30
0.0
 11
-700.372622116641
 21
38.4361980267026
 31
0.0
  0
ARC
  5
   6E0
  8
0
  6
CONTINUOUS
 62
     1
 10
-695.782509397798
 20
38.4361980267026
 30
0.0
 40
3.82507676623207
 50
224.901380849089
 51
315.098568474349
  0
LINE
  5
   6E1
  8
0
  6
DASHDOT
 62
     7
 10
-690.60724306046
 20
35.1963625624371
 30
0.0
 11
-690.60724306046
 21
41.6759181407717
 31
0.0
  0
ARC
  5
   6E2
  8
0
  6
CONTINUOUS
 62
     1
 10
-690.60724306046
 20
38.4361403516044
 30
0.0
 40
2.69981482430606
 50
269.999999948034
 51
449.999945306521
  0
ARC
  5
   6E3
  8
0
  6
CONTINUOUS
 62
     1
 10
-695.782509397798
 20
38.4361980267026
 30
0.0
 40
3.82507676623207
 50
404.897963373026
 51
495.101923170488
  0
LINE
  5
   6E4
  8
0
  6
DASHDOT
 62
     7
 10
-695.782530069351
 20
32.0552995503892
 30
0.0
 11
-695.782530069351
 21
47.7266742004157
 31
0.0
  0
LINE
  5
   6E5
  8
0
  6
CONTINUOUS
 62
     2
 10
-678.457551035228
 20
41.3611337757751
 30
0.0
 11
-681.607550951781
 21
41.3611337757751
 31
0.0
  0
LINE
  5
   6E6
  8
0
  6
CONTINUOUS
 62
     2
 10
-681.607550951781
 20
41.3611337757751
 30
0.0
 11
-681.607550951781
 21
43.386133722131
 31
0.0
  0
LINE
  5
   6E7
  8
0
  6
CONTINUOUS
 62
     2
 10
-681.045050966682
 20
43.386133722131
 30
0.0
 11
-681.607550951781
 21
43.386133722131
 31
0.0
  0
LINE
  5
   6E8
  8
0
  6
CONTINUOUS
 62
     2
 10
-681.045050966682
 20
43.3861337221385
 30
0.0
 11
-681.045050966682
 21
44.5111336923361
 31
0.0
  0
LINE
  5
   6E9
  8
0
  6
CONTINUOUS
 62
     2
 10
-679.020051020326
 20
43.3861337221301
 30
0.0
 11
-679.020051020326
 21
44.5111336923278
 31
0.0
  0
LINE
  5
   6EA
  8
0
  6
CONTINUOUS
 62
     2
 10
-678.457551035228
 20
43.386133722131
 30
0.0
 11
-679.020051020326
 21
43.386133722131
 31
0.0
  0
LINE
  5
   6EB
  8
0
  6
CONTINUOUS
 62
     2
 10
-678.457551035228
 20
41.3611337757751
 30
0.0
 11
-678.457551035228
 21
43.386133722131
 31
0.0
  0
LINE
  5
   6EC
  8
0
  6
DASHDOT
 62
     2
 10
-680.032535460768
 20
30.6737167313649
 30
0.0
 11
-680.032535460768
 21
44.3987163677765
 31
0.0
  0
LINE
  5
   6ED
  8
0
  6
DASHDOT
 62
     2
 10
-673.170035642563
 20
37.5362165495707
 30
0.0
 11
-686.895035278974
 21
37.5362165495707
 31
0.0
  0
LINE
  5
   6EE
  8
0
  6
DASHDOT
 62
     2
 10
-648.532536295233
 20
30.6737167313649
 30
0.0
 11
-648.532536295233
 21
44.3987163677765
 31
0.0
  0
LINE
  5
   6EF
  8
0
  6
DASHDOT
 62
     2
 10
-641.670036477028
 20
37.5362165495707
 30
0.0
 11
-655.395036113439
 21
37.5362165495707
 31
0.0
  0
LINE
  5
   6F0
  8
0
  6
DASHDOT
 62
     2
 10
-617.032638740052
 20
30.6736645981162
 30
0.0
 11
-617.032638740052
 21
44.3986642345279
 31
0.0
  0
LINE
  5
   6F1
  8
0
  6
DASHDOT
 62
     2
 10
-610.170138921847
 20
37.536164416322
 30
0.0
 11
-623.895138558258
 21
37.536164416322
 31
0.0
  0
LINE
  5
   6F2
  8
0
  6
CONTINUOUS
 62
     2
 10
-681.045050966682
 20
-76.0888772822101
 30
0.0
 11
-709.732543340268
 21
-76.0888772822101
 31
0.0
  0
LINE
  5
   6F3
  8
0
  6
CONTINUOUS
 62
     1
 10
-690.607546872791
 20
-67.3138877223718
 30
0.0
 11
-693.073194695184
 21
-67.3138808559191
 31
0.0
  0
LINE
  5
   6F4
  8
0
  6
CONTINUOUS
 62
     1
 10
-698.491905642328
 20
-67.3138863650012
 30
0.0
 11
-700.957553465295
 21
-67.3138794985485
 31
0.0
  0
LINE
  5
   6F5
  8
0
  6
CONTINUOUS
 62
     1
 10
-698.491902616315
 20
-72.713877371619
 30
0.0
 11
-700.957550439181
 21
-72.713877371619
 31
0.0
  0
LINE
  5
   6F6
  8
0
  6
CONTINUOUS
 62
     1
 10
-690.607550713362
 20
-72.713877371619
 30
0.0
 11
-693.073191669774
 21
-72.713877371619
 31
0.0
  0
LINE
  5
   6F7
  8
0
  6
CONTINUOUS
 62
     2
 10
-681.607550951781
 20
-74.9638773120143
 30
0.0
 11
-681.607550951781
 21
-72.9388773656585
 31
0.0
  0
LINE
  5
   6F8
  8
0
  6
CONTINUOUS
 62
     2
 10
-681.045050966682
 20
-74.9638773120143
 30
0.0
 11
-681.607550951781
 21
-74.9638773120143
 31
0.0
  0
LINE
  5
   6F9
  8
0
  6
CONTINUOUS
 62
     2
 10
-681.045050966682
 20
-76.0888772822195
 30
0.0
 11
-681.045050966682
 21
-74.9638773120218
 31
0.0
  0
LINE
  5
   6FA
  8
0
  6
CONTINUOUS
 62
     2
 10
-679.020051020326
 20
-76.0888772822112
 30
0.0
 11
-679.020051020326
 21
-74.9638773120135
 31
0.0
  0
LINE
  5
   6FB
  8
0
  6
CONTINUOUS
 62
     2
 10
-678.457551035228
 20
-74.9638773120143
 30
0.0
 11
-679.020051020326
 21
-74.9638773120143
 31
0.0
  0
LINE
  5
   6FC
  8
0
  6
CONTINUOUS
 62
     2
 10
-678.457551035228
 20
-74.9638773120143
 30
0.0
 11
-678.457551035228
 21
-72.9388773656585
 31
0.0
  0
LINE
  5
   6FD
  8
0
  6
CONTINUOUS
 62
     2
 10
-678.457551035228
 20
-72.9388773656585
 30
0.0
 11
-681.607550951781
 21
-72.9388773656585
 31
0.0
  0
ARC
  5
   6FE
  8
0
  6
CONTINUOUS
 62
     1
 10
-700.957558390787
 20
-70.0138834254674
 30
0.0
 40
2.69999738401634
 50
90.0001399327154
 51
270.000100332566
  0
ARC
  5
   6FF
  8
0
  6
CONTINUOUS
 62
     1
 10
-695.782555094395
 20
-70.0138361581822
 30
0.0
 40
3.82504183567352
 50
404.899302393594
 51
495.100813987516
  0
ARC
  5
   700
  8
0
  6
CONTINUOUS
 62
     1
 10
-690.607548839407
 20
-70.0138806831726
 30
0.0
 40
2.69999367071187
 50
269.999747131106
 51
450.000048027357
  0
CIRCLE
  5
   701
  8
0
  6
CONTINUOUS
 62
     1
 10
-680.032545118016
 20
-69.1138613336133
 30
0.0
 40
2.36248745863058
  0
CIRCLE
  5
   702
  8
0
  6
CONTINUOUS
 62
     1
 10
-680.032557532237
 20
-69.1138913800547
 30
0.0
 40
1.23750949026183
  0
ARC
  5
   703
  8
0
  6
CONTINUOUS
 62
     1
 10
-695.782555094395
 20
-70.0138361581822
 30
0.0
 40
3.82504183567352
 50
224.901119153159
 51
315.09888074291
  0
LINE
  5
   704
  8
0
  6
DASHDOT
 62
     2
 10
-690.607548839407
 20
-74.0638743181217
 30
0.0
 11
-690.607548839407
 21
-65.9638870482235
 31
0.0
  0
LINE
  5
   705
  8
0
  6
DASHDOT
 62
     2
 10
-686.557555204458
 20
-70.0138806831726
 30
0.0
 11
-694.657542474356
 21
-70.0138806831726
 31
0.0
  0
LINE
  5
   706
  8
0
  6
DASHDOT
 62
     2
 10
-700.957558390787
 20
-74.063880773721
 30
0.0
 11
-700.957558390787
 21
-65.9638860772138
 31
0.0
  0
LINE
  5
   707
  8
0
  6
DASHDOT
 62
     2
 10
-696.907561042533
 20
-70.0138834254674
 30
0.0
 11
-705.00755573904
 21
-70.0138834254674
 31
0.0
  0
LINE
  5
   708
  8
0
  6
DASHDOT
 62
     2
 10
-680.032545118016
 20
-75.9763486730346
 30
0.0
 11
-680.032545118016
 21
-62.251373994192
 31
0.0
  0
LINE
  5
   709
  8
0
  6
DASHDOT
 62
     2
 10
-673.170057778594
 20
-69.1138613336133
 30
0.0
 11
-686.895032457437
 21
-69.1138613336133
 31
0.0
  0
LINE
  5
   70A
  8
0
  6
DASHDOT
 62
     2
 10
-648.532545952481
 20
-75.9763486730346
 30
0.0
 11
-648.532545952481
 21
-62.251373994192
 31
0.0
  0
LINE
  5
   70B
  8
0
  6
DASHDOT
 62
     2
 10
-641.670058613059
 20
-69.1138613336133
 30
0.0
 11
-655.395033291902
 21
-69.1138613336133
 31
0.0
  0
LINE
  5
   70C
  8
0
  6
DASHDOT
 62
     2
 10
-617.032501616205
 20
-75.9765149305903
 30
0.0
 11
-617.032501616205
 21
-62.2513715606745
 31
0.0
  0
LINE
  5
   70D
  8
0
  6
DASHDOT
 62
     2
 10
-610.169929931247
 20
-69.1139432456324
 30
0.0
 11
-623.895073301163
 21
-69.1139432456324
 31
0.0
  0
LINE
  5
   70E
  8
0
  6
CONTINUOUS
 62
     1
 10
-709.530019774806
 20
-45.2638781256207
 30
0.0
 11
-709.530019774806
 21
-35.4763852513558
 31
0.0
  0
LINE
  5
   70F
  8
0
  6
CONTINUOUS
 62
     1
 10
-710.565019833219
 20
-45.2638781256207
 30
0.0
 11
-710.565019833219
 21
-35.4763852513558
 31
0.0
  0
LINE
  5
   710
  8
0
  6
CONTINUOUS
 62
     1
 10
-703.05002398051
 20
-45.2638781256207
 30
0.0
 11
-703.05002398051
 21
-35.4763852513558
 31
0.0
  0
LINE
  5
   711
  8
0
  6
CONTINUOUS
 62
     1
 10
-704.670019817721
 20
-45.2638781256207
 30
0.0
 11
-704.670019817721
 21
-35.4763852513558
 31
0.0
  0
LINE
  5
   712
  8
0
  6
CONTINUOUS
 62
     1
 10
-706.290019946467
 20
-45.2638781256207
 30
0.0
 11
-706.290019946467
 21
-35.4763852513558
 31
0.0
  0
LINE
  5
   713
  8
0
  6
CONTINUOUS
 62
     1
 10
-707.910020075213
 20
-45.2638781256207
 30
0.0
 11
-707.910020075213
 21
-35.4763852513558
 31
0.0
  0
LINE
  5
   714
  8
0
  6
CONTINUOUS
 62
     1
 10
-696.570020032298
 20
-45.2638781256207
 30
0.0
 11
-696.570020032298
 21
-35.4763852513558
 31
0.0
  0
LINE
  5
   715
  8
0
  6
CONTINUOUS
 62
     1
 10
-698.190022735965
 20
-45.2638781256207
 30
0.0
 11
-698.190022735965
 21
-35.4763852513558
 31
0.0
  0
LINE
  5
   716
  8
0
  6
CONTINUOUS
 62
     1
 10
-699.810025439631
 20
-45.2638781256207
 30
0.0
 11
-699.810025439631
 21
-35.4763852513558
 31
0.0
  0
LINE
  5
   717
  8
0
  6
CONTINUOUS
 62
     1
 10
-701.430021276843
 20
-45.2638781256207
 30
0.0
 11
-701.430021276843
 21
-35.4763852513558
 31
0.0
  0
LINE
  5
   718
  8
0
  6
CONTINUOUS
 62
     1
 10
-694.950020075213
 20
-45.2638781256207
 30
0.0
 11
-694.950020075213
 21
33.4861198150388
 31
0.0
  0
LINE
  5
   719
  8
0
  6
CONTINUOUS
 62
     1
 10
-693.330020118129
 20
-45.2638781256207
 30
0.0
 11
-693.330020118129
 21
33.4861198150388
 31
0.0
  0
LINE
  5
   71A
  8
0
  6
CONTINUOUS
 62
     1
 10
-691.710020161044
 20
-45.2638781256207
 30
0.0
 11
-691.710020161044
 21
33.4861198150388
 31
0.0
  0
LINE
  5
   71B
  8
0
  6
CONTINUOUS
 62
     1
 10
-690.090020203959
 20
-45.2638781256207
 30
0.0
 11
-690.090020203959
 21
33.4861198150388
 31
0.0
  0
LINE
  5
   71C
  8
0
  6
CONTINUOUS
 62
     1
 10
-688.470020246875
 20
-45.2638781256207
 30
0.0
 11
-688.470020246875
 21
33.4861198150388
 31
0.0
  0
LINE
  5
   71D
  8
0
  6
CONTINUOUS
 62
     1
 10
-686.85002028979
 20
-45.2638781256207
 30
0.0
 11
-686.85002028979
 21
33.4861198150388
 31
0.0
  0
LINE
  5
   71E
  8
0
  6
CONTINUOUS
 62
     1
 10
-685.230020332705
 20
-45.2638781256207
 30
0.0
 11
-685.230020332705
 21
33.4861198150388
 31
0.0
  0
LINE
  5
   71F
  8
0
  6
CONTINUOUS
 62
     1
 10
-683.610020375621
 20
-45.2638781256207
 30
0.0
 11
-683.610020375621
 21
33.4861198150388
 31
0.0
  0
LINE
  5
   720
  8
0
  6
CONTINUOUS
 62
     1
 10
-681.990020418536
 20
-45.2638781256207
 30
0.0
 11
-681.990020418536
 21
33.4861198150388
 31
0.0
  0
LINE
  5
   721
  8
0
  6
CONTINUOUS
 62
     1
 10
-680.370020461451
 20
-45.2638781256207
 30
0.0
 11
-680.370020461451
 21
33.4861198150388
 31
0.0
  0
LINE
  5
   722
  8
0
  6
CONTINUOUS
 62
     1
 10
-678.750020504367
 20
-45.2638781256207
 30
0.0
 11
-678.750020504367
 21
33.4861198150388
 31
0.0
  0
LINE
  5
   723
  8
0
  6
CONTINUOUS
 62
     1
 10
-677.130020547282
 20
-45.2638781256207
 30
0.0
 11
-677.130020547282
 21
33.4861198150388
 31
0.0
  0
LINE
  5
   724
  8
0
  6
CONTINUOUS
 62
     1
 10
-675.510020590198
 20
-45.2638781256207
 30
0.0
 11
-675.510020590198
 21
33.4861198150388
 31
0.0
  0
LINE
  5
   725
  8
0
  6
CONTINUOUS
 62
     1
 10
-673.890020633113
 20
-45.2638781256207
 30
0.0
 11
-673.890020633113
 21
33.4861198150388
 31
0.0
  0
LINE
  5
   726
  8
0
  6
CONTINUOUS
 62
     1
 10
-672.270020676028
 20
-45.2638781256207
 30
0.0
 11
-672.270020676028
 21
33.4861198150388
 31
0.0
  0
LINE
  5
   727
  8
0
  6
CONTINUOUS
 62
     1
 10
-670.650020718943
 20
-45.2638781256207
 30
0.0
 11
-670.650020718943
 21
33.4861198150388
 31
0.0
  0
LINE
  5
   728
  8
0
  6
CONTINUOUS
 62
     1
 10
-669.030020761859
 20
-45.2638781256207
 30
0.0
 11
-669.030020761859
 21
33.4861198150388
 31
0.0
  0
LINE
  5
   729
  8
0
  6
CONTINUOUS
 62
     1
 10
-667.410020804774
 20
-45.2638781256207
 30
0.0
 11
-667.410020804774
 21
33.4861198150388
 31
0.0
  0
LINE
  5
   72A
  8
0
  6
CONTINUOUS
 62
     1
 10
-665.79002084769
 20
24.3736123316763
 30
0.0
 11
-665.79002084769
 21
33.4861198150388
 31
0.0
  0
LINE
  5
   72B
  8
0
  6
DASHDOT
 62
     7
 10
-582.126061594455
 20
-11.851385850382
 30
0.0
 11
-721.996388353249
 21
-11.851385850382
 31
0.0
  0
LINE
  5
   72C
  8
0
  6
CONTINUOUS
 62
     3
 10
-632.782531738281
 20
49.3314030827537
 30
0.0
 11
-632.782531738281
 21
70.4359588345887
 31
0.0
  0
INSERT
  5
   72D
  8
255
  6
CONTINUOUS
 62
     7
  2
MOSTRINA
 10
-692.334745736858
 20
-61.3426649996685
 30
0.0
 41
0.449999988079071
 42
0.449999988079071
 50
359.999999792138
 43
0.449999988079071
  0
LINE
  5
   72E
  8
0
  6
CONTINUOUS
 62
     1
 10
-666.982530832291
 20
-45.2638781256207
 30
0.0
 11
-711.420019638907
 21
-45.2638781256207
 31
0.0
  0
LINE
  5
   72F
  8
0
  6
CONTINUOUS
 62
     1
 10
-666.982530832291
 20
-45.7138780868777
 30
0.0
 11
-710.97001967765
 21
-45.7138780868777
 31
0.0
  0
LINE
  5
   730
  8
0
  6
CONTINUOUS
 62
     1
 10
-666.982530832291
 20
-45.9388780809172
 30
0.0
 11
-710.632519659769
 21
-45.9388780809172
 31
0.0
  0
LINE
  5
   731
  8
0
  6
CONTINUOUS
 62
     1
 10
-666.982530832291
 20
-35.4763852245337
 30
0.0
 11
-711.195019644868
 21
-35.4763852245337
 31
0.0
  0
TEXT
  5
   732
  8
0
  6
CONTINUOUS
 62
     7
 10
-633.375427029117
 20
96.6892133536476
 30
0.0
 40
3.00000011722246
  1
Y
 50
359.999999948034
 41
0.916666563948002
 72
     2
 11
-631.175427218528
 21
96.6892133516633
 31
0.0
  0
INSERT
  5
   733
  8
0
  6
CONTINUOUS
 62
     7
  2
*UDIM392
 10
0.0
 20
0.0
 30
0.0
  0
INSERT
  5
   734
  8
0
  6
CONTINUOUS
 62
     7
  2
*UDIM393
 10
0.0
 20
0.0
 30
0.0
  0
INSERT
  5
   735
  8
0
  6
CONTINUOUS
 62
     7
  2
*UDIM394
 10
0.0
 20
0.0
 30
0.0
  0
INSERT
  5
   736
  8
255
  6
CONTINUOUS
 62
     7
  2
PIA_DIA______
 10
-646.282588512083
 20
-16.6888855040096
 30
0.0
 41
0.449999988079071
 42
0.449999988079071
 50
359.999938796872
 43
0.449999988079071
  0
INSERT
  5
   737
  8
255
  6
CONTINUOUS
 62
     7
  2
PIA_DIA______
 10
-646.282588512083
 20
-14.8888651705729
 30
0.0
 41
-0.449999988079071
 42
0.449999988079071
 50
180.000061099197
 43
0.449999988079071
  0
INSERT
  5
   738
  8
0
  6
CONTINUOUS
 62
     7
  2
*UDIM395
 10
0.0
 20
0.0
 30
0.0
  0
INSERT
  5
   739
  8
0
  6
CONTINUOUS
 62
     7
  2
*UDIM396
 10
0.0
 20
0.0
 30
0.0
  0
INSERT
  5
   73A
  8
0
  6
CONTINUOUS
 62
     7
  2
*UDIM397
 10
0.0
 20
0.0
 30
0.0
  0
INSERT
  5
   73B
  8
0
  6
CONTINUOUS
 62
     7
  2
*UDIM398
 10
0.0
 20
0.0
 30
0.0
  0
INSERT
  5
   73C
  8
0
  6
CONTINUOUS
 62
     7
  2
*UDIM399
 10
0.0
 20
0.0
 30
0.0
  0
INSERT
  5
   73D
  8
0
  6
CONTINUOUS
 62
     7
  2
*UDIM400
 10
0.0
 20
0.0
 30
0.0
  0
INSERT
  5
   73E
  8
0
  6
CONTINUOUS
 62
     7
  2
*UDIM401
 10
0.0
 20
0.0
 30
0.0
  0
INSERT
  5
   73F
  8
0
  6
CONTINUOUS
 62
     7
  2
*UDIM402
 10
0.0
 20
0.0
 30
0.0
  0
INSERT
  5
   740
  8
0
  6
CONTINUOUS
 62
     7
  2
*UDIM403
 10
0.0
 20
0.0
 30
0.0
  0
TEXT
  5
   741
  8
0
  6
CONTINUOUS
 62
     2
 10
-732.102209438385
 20
-11.4210585543257
 30
0.0
 40
3.00000011722246
  1
X
 50
359.999999948034
 41
0.916666563948002
 72
     2
 11
-729.902209627796
 21
-11.4210585563099
 31
0.0
  0
INSERT
  5
   742
  8
0
  6
CONTINUOUS
 62
     2
  2
*UDIM404
 10
0.0
 20
0.0
 30
0.0
  0
INSERT
  5
   743
  8
0
  6
CONTINUOUS
 62
     7
  2
*UDIM405
 10
0.0
 20
0.0
 30
0.0
  0
TEXT
  5
   744
  8
0
  6
CONTINUOUS
 62
     7
 10
-634.062093639279
 20
-110.13957934616
 30
0.0
 40
3.00000011722246
  1
Y
 50
359.999999948034
 41
0.916666563948002
 72
     2
 11
-631.86209382869
 21
-110.139579348145
 31
0.0
  0
TEXT
  5
   745
  8
0
  6
CONTINUOUS
 62
     7
 10
-573.446088000468
 20
-13.4703245522847
 30
0.0
 40
3.00000011722246
  1
X
 50
359.999999948034
 41
0.916666563948002
 72
     2
 11
-571.246088189879
 21
-13.470324554269
 31
0.0
  0
ENDSEC
  0
EOF
