  0
SECTION
  2
HEADER
  9
$ACADVER
  1
AC1009
  9
$INSBASE
 10
0.0
 20
0.0
 30
0.0
  9
$EXTMIN
 10
-296.6232041848881
 20
239.84597600000001
 30
0.0
  9
$EXTMAX
 10
995.40016200000014
 20
782.40297710236212
 30
0.0
  9
$LIMMIN
 10
0.0
 20
0.0
  9
$LIMMAX
 10
420.0
 20
297.0
  9
$ORTHOMODE
 70
     0
  9
$REGENMODE
 70
     1
  9
$FILLMODE
 70
     1
  9
$QTEXTMODE
 70
     0
  9
$MIRRTEXT
 70
     1
  9
$DRAGMODE
 70
     2
  9
$LTSCALE
 40
1.0
  9
$OSMODE
 70
    47
  9
$ATTMODE
 70
     1
  9
$TEXTSIZE
 40
0.0
  9
$TRACEWID
 40
1.0
  9
$TEXTSTYLE
  7
STANDARD
  9
$CLAYER
  8
0
  9
$CELTYPE
  6
BYLAYER
  9
$CECOLOR
 62
   256
  9
$DIMSCALE
 40
1.0
  9
$DIMASZ
 40
2.5
  9
$DIMEXO
 40
0.625
  9
$DIMDLI
 40
3.75
  9
$DIMRND
 40
0.0
  9
$DIMDLE
 40
0.0
  9
$DIMEXE
 40
1.25
  9
$DIMTP
 40
0.0
  9
$DIMTM
 40
0.0
  9
$DIMTXT
 40
2.5
  9
$DIMCEN
 40
2.5
  9
$DIMTSZ
 40
0.0
  9
$DIMTOL
 70
     0
  9
$DIMLIM
 70
     0
  9
$DIMTIH
 70
     0
  9
$DIMTOH
 70
     0
  9
$DIMSE1
 70
     0
  9
$DIMSE2
 70
     0
  9
$DIMTAD
 70
     1
  9
$DIMZIN
 70
     8
  9
$DIMBLK
  1

  9
$DIMASO
 70
     1
  9
$DIMSHO
 70
     1
  9
$DIMPOST
  1

  9
$DIMAPOST
  1

  9
$DIMALT
 70
     0
  9
$DIMALTD
 70
     3
  9
$DIMALTF
 40
0.03937
  9
$DIMLFAC
 40
1.0
  9
$DIMTOFL
 70
     1
  9
$DIMTVP
 40
0.0
  9
$DIMTIX
 70
     0
  9
$DIMSOXD
 70
     0
  9
$DIMSAH
 70
     0
  9
$DIMBLK1
  1

  9
$DIMBLK2
  1

  9
$DIMSTYLE
  2
STANDARD
  9
$DIMCLRD
 70
     0
  9
$DIMCLRE
 70
     0
  9
$DIMCLRT
 70
     0
  9
$DIMTFAC
 40
1.0
  9
$DIMGAP
 40
0.625
  9
$LUNITS
 70
     2
  9
$LUPREC
 70
     4
  9
$SKETCHINC
 40
1.0
  9
$FILLETRAD
 40
2.5
  9
$AUNITS
 70
     0
  9
$AUPREC
 70
     0
  9
$MENU
  1
.
  9
$ELEVATION
 40
0.0
  9
$PELEVATION
 40
0.0
  9
$THICKNESS
 40
0.0
  9
$LIMCHECK
 70
     0
  9
$BLIPMODE
 70
     0
  9
$CHAMFERA
 40
2.5
  9
$CHAMFERB
 40
2.5
  9
$SKPOLY
 70
     0
  9
$TDCREATE
 40
2311942.6599061568
  9
$TDUPDATE
 40
2454455.3858832172
  9
$TDINDWG
 40
0.0004124653
  9
$TDUSRTIMER
 40
0.0004124653
  9
$USRTIMER
 70
     1
  9
$ANGBASE
 50
0.0
  9
$ANGDIR
 70
     0
  9
$PDMODE
 70
     0
  9
$PDSIZE
 40
0.0
  9
$PLINEWID
 40
0.0
  9
$COORDS
 70
     1
  9
$SPLFRAME
 70
     0
  9
$SPLINETYPE
 70
     6
  9
$SPLINESEGS
 70
     8
  9
$ATTDIA
 70
     0
  9
$ATTREQ
 70
     1
  9
$HANDLING
 70
 22529
  9
$HANDSEED
  5
EE1
  9
$SURFTAB1
 70
     6
  9
$SURFTAB2
 70
     6
  9
$SURFTYPE
 70
     6
  9
$SURFU
 70
     6
  9
$SURFV
 70
     6
  9
$UCSNAME
  2

  9
$UCSORG
 10
0.0
 20
0.0
 30
0.0
  9
$UCSXDIR
 10
1.0
 20
0.0
 30
0.0
  9
$UCSYDIR
 10
0.0
 20
1.0
 30
0.0
  9
$PUCSNAME
  2

  9
$PUCSORG
 10
0.0
 20
0.0
 30
0.0
  9
$PUCSXDIR
 10
1.0
 20
0.0
 30
0.0
  9
$PUCSYDIR
 10
0.0
 20
1.0
 30
0.0
  9
$USERI1
 70
     0
  9
$USERI2
 70
     0
  9
$USERI3
 70
     0
  9
$USERI4
 70
     0
  9
$USERI5
 70
     0
  9
$USERR1
 40
0.0
  9
$USERR2
 40
0.0
  9
$USERR3
 40
0.0
  9
$USERR4
 40
0.0
  9
$USERR5
 40
0.0
  9
$WORLDVIEW
 70
     1
  9
$SHADEDGE
 70
     3
  9
$SHADEDIF
 70
    70
  9
$TILEMODE
 70
     1
  9
$MAXACTVP
 70
    48
  9
$PLIMCHECK
 70
     0
  9
$PEXTMIN
 10
0.0
 20
0.0
 30
0.0
  9
$PEXTMAX
 10
267.11282299999988
 20
262.90637199999998
 30
2.0
  9
$PLIMMIN
 10
0.0
 20
0.0
  9
$PLIMMAX
 10
420.0
 20
297.0
  9
$UNITMODE
 70
     0
  9
$VISRETAIN
 70
     0
  9
$PLINEGEN
 70
     0
  9
$PSLTSCALE
 70
     1
  0
ENDSEC
  0
SECTION
  2
TABLES
  0
TABLE
  2
VPORT
 70
     2
  0
VPORT
  2
*ACTIVE
 70
     0
 10
0.0
 20
0.0
 11
1.0
 21
1.0
 12
349.38903922609637
 22
511.128136794814
 13
0.0
 23
0.0
 14
1.0
 24
1.0
 15
0.0
 25
0.0
 16
0.0
 26
0.0
 36
1.0
 17
0.0
 27
0.0
 37
0.0
 40
837.43696363961669
 41
1.550724637681159
 42
50.0
 43
0.0
 44
0.0
 50
0.0
 51
0.0
 71
     0
 72
   100
 73
     1
 74
     1
 75
     0
 76
     0
 77
     0
 78
     0
  0
ENDTAB
  0
TABLE
  2
LTYPE
 70
     8
  0
LTYPE
  2
CONTINUOUS
 70
     0
  3
Solid line
 72
    65
 73
     0
 40
0.0
  0
LTYPE
  2
DASHED
 70
     0
  3
__ __ __ __ __ __ __ __ __ __ __ __ __ __ __ __
 72
    65
 73
     2
 40
15.0
 49
12.0
 49
-3.0
  0
LTYPE
  2
DASHDOT
 70
     0
  3
 __ . __ . __ . __ . __ . __ . __ . 
 72
    65
 73
     4
 40
18.5
 49
12.0
 49
-3.0
 49
0.5
 49
-3.0
  0
LTYPE
  2
DOT
 70
     0
  3
 . . . . . . . . . . . . . . . .
 72
    65
 73
     2
 40
3.5
 49
0.5
 49
-3.0
  0
LTYPE
  2
DASHSPACE
 70
     0
  3
__    __    __    __    __   
 72
    65
 73
     2
 40
30.0
 49
12.0
 49
-18.0
  0
LTYPE
  2
DASHDOT2
 70
     0
  3
__ . . __ . . __ . . __ 
 72
    65
 73
     6
 40
22.0
 49
12.0
 49
-3.0
 49
0.5
 49
-3.0
 49
0.5
 49
-3.0
  0
LTYPE
  2
PHANTOM
 70
     0
  3
____________    ____    ____   _
 72
    65
 73
     6
 40
20.0
 49
10.0
 49
-2.0
 49
2.0
 49
-2.0
 49
2.0
 49
-2.0
  0
LTYPE
  2
AXES
 70
     0
  3
________  __  ________  __  _____
 72
    65
 73
     4
 40
24.0
 49
15.0
 49
-3.0
 49
3.0
 49
-3.0
  0
ENDTAB
  0
TABLE
  2
LAYER
 70
     1
  0
LAYER
  2
0
 70
     0
 62
     7
  6
CONTINUOUS
  0
ENDTAB
  0
TABLE
  2
STYLE
 70
     2
  0
STYLE
  2
STANDARD
 70
     0
 40
0.0
 41
1.0
 50
0.0
 71
     0
 42
0.0
  3
isocp.shx
  4

  0
STYLE
  2
GDT
 70
     0
 40
0.0
 41
1.0
 50
0.0
 71
     0
 42
0.0
  3
amgdt.shx
  4

  0
ENDTAB
  0
TABLE
  2
VIEW
 70
     0
  0
ENDTAB
  0
TABLE
  2
UCS
 70
     0
  0
ENDTAB
  0
TABLE
  2
APPID
 70
     1
  0
APPID
  2
ACAD
 70
     0
  0
ENDTAB
  0
TABLE
  2
DIMSTYLE
 70
     1
  0
DIMSTYLE
  2
STANDARD
 70
     0
  3

  4

  5

  6

  7

 40
1.0
 41
2.5
 42
0.625
 43
3.75
 44
1.25
 45
0.0
 46
0.0
 47
0.0
 48
0.0
140
2.5
141
2.5
142
0.0
143
0.03937
144
1.0
145
0.0
146
1.0
147
0.625
 71
     0
 72
     0
 73
     0
 74
     0
 75
     0
 76
     0
 77
     1
 78
     8
170
     0
171
     3
172
     1
173
     0
174
     0
175
     0
176
     0
177
     0
178
     0
  0
ENDTAB
  0
ENDSEC
  0
SECTION
  2
BLOCKS
  0
BLOCK
  8
0
  2
$MODEL_SPACE
 70
     0
 10
0.0
 20
0.0
 30
0.0
  3
$MODEL_SPACE
  1

  0
ENDBLK
  5
E
  8
0
  0
BLOCK
 67
     1
  8
0
  2
$PAPER_SPACE
 70
     0
 10
0.0
 20
0.0
 30
0.0
  3
$PAPER_SPACE
  1

  0
ENDBLK
  5
10
 67
     1
  8
0
  0
BLOCK
  8
0
  2
BLOCK0
 70
     0
 10
0.0
 20
0.0
 30
0.0
  3
BLOCK0
  1

  0
TEXT
  5
94B
  8
0
 62
     1
 10
-494.0
 20
-59.0
 30
0.0
 40
3.0
  1
Ts3
 50
180.0
 41
1.2257674620974599
 72
     5
 11
-501.69998199999998
 21
-59.0
 31
0.0
  0
ENDBLK
  5
94C
  8
0
  0
BLOCK
  8
0
  2
BLOCK1
 70
     0
 10
0.0
 20
0.0
 30
0.0
  3
BLOCK1
  1

  0
TEXT
  5
94E
  8
0
 62
     1
 10
-436.15212999999989
 20
-60.0
 30
0.0
 40
2.0
  1
N0204 2007-09-17
 50
180.0
 41
1.1017693073406229
 72
     5
 11
-459.84787
 21
-60.0
 31
0.0
  0
ENDBLK
  5
94F
  8
0
  0
BLOCK
  8
0
  2
BLOCK2
 70
     0
 10
0.0
 20
0.0
 30
0.0
  3
BLOCK2
  1

  0
TEXT
  5
951
  8
0
 62
     1
 10
-470.0
 20
-51.0
 30
0.0
 40
4.0
  1
1SDH000637R0.106
 50
180.0
 41
1.3846962061669781
 72
     5
 11
-529.26281700000004
 21
-51.0
 31
0.0
  0
ENDBLK
  5
952
  8
0
  0
BLOCK
  8
0
  2
BLOCK3
 70
     0
 10
0.0
 20
0.0
 30
0.0
  3
BLOCK3
  1

  0
TEXT
  5
954
  8
0
 62
     1
 10
-471.0
 20
-70.0
 30
0.0
 40
2.0
  1
INTERR.AUTOMATICO SERIE ISOMAX
 50
179.9999897438901
 41
1.076916072289172
 72
     5
 11
-515.69201699999985
 21
-69.999992000000006
 31
0.0
  0
ENDBLK
  5
955
  8
0
  0
BLOCK
  8
0
  2
BLOCK4
 70
     0
 10
0.0
 20
0.0
 30
0.0
  3
BLOCK4
  1

  0
TEXT
  5
957
  8
0
 62
     1
 10
-468.0
 20
-66.0
 30
0.0
 40
2.0
  1
TETRAP.ESECUZIONE FISSA TERMINALI POST.
 50
179.9999921228804
 41
1.0999919659735451
 72
     5
 11
-526.18957499999988
 21
-65.999992000000006
 31
0.0
  0
ENDBLK
  5
958
  8
0
  0
BLOCK
  8
0
  2
BLOCK5
 70
     0
 10
0.0
 20
0.0
 30
0.0
  3
BLOCK5
  1

  0
TEXT
  5
95A
  8
0
 62
     1
 10
-467.0
 20
-78.0
 30
0.0
 40
2.0
  1
4POLE LOW VOLTAGE M.C.C.B SERIES ISOMAX
 50
179.9999921228804
 41
1.095848870056507
 72
     5
 11
-525.18957499999999
 21
-77.999992000000006
 31
0.0
  0
ENDBLK
  5
95B
  8
0
  0
BLOCK
  8
0
  2
BLOCK6
 70
     0
 10
0.0
 20
0.0
 30
0.0
  3
BLOCK6
  1

  0
TEXT
  5
95D
  8
0
 62
     1
 10
-476.0
 20
-75.0
 30
0.0
 40
2.0
  1
FIXED VERSION REAR TERMINALS
 50
180.0
 41
1.0696087021953951
 72
     5
 11
-517.69250499999998
 21
-75.0
 31
0.0
  0
ENDBLK
  5
95E
  8
0
  0
BLOCK
  8
0
  2
BLOCK7
 70
     0
 10
0.0
 20
0.0
 30
0.0
  3
BLOCK7
  1

  0
TEXT
  5
960
  8
0
 62
     7
 10
-132.0
 20
-8.0
 30
0.0
 40
3.0
  1
X
 50
180.0
 41
0.9777764444444425
 72
     5
 11
-134.199997
 21
-8.0
 31
0.0
  0
ENDBLK
  5
961
  8
0
  0
BLOCK
  8
0
  2
BLOCK8
 70
     0
 10
0.0
 20
0.0
 30
0.0
  3
BLOCK8
  1

  0
TEXT
  5
963
  8
0
 62
     7
 10
189.0
 20
-12.0
 30
0.0
 40
3.0
  1
X
 50
180.0
 41
0.9777764444444425
 72
     5
 11
186.800003
 21
-12.0
 31
0.0
  0
ENDBLK
  5
964
  8
0
  0
BLOCK
  8
0
  2
BLOCK9
 70
     0
 10
0.0
 20
0.0
 30
0.0
  3
BLOCK9
  1

  0
TEXT
  5
966
  8
0
 62
     7
 10
4.4213870000000002
 20
-151.43113700000001
 30
0.0
 40
3.0
  1
Y
 50
180.0
 41
0.9777777777777778
 72
     5
 11
2.221387
 21
-151.43113700000001
 31
0.0
  0
ENDBLK
  5
967
  8
0
  0
BLOCK
  8
0
  2
BLOCK10
 70
     0
 10
0.0
 20
0.0
 30
0.0
  3
BLOCK10
  1

  0
TEXT
  5
969
  8
0
 62
     7
 10
0.363159
 20
164.39773600000001
 30
0.0
 40
3.0
  1
Y
 50
180.0
 41
0.9777777777777778
 72
     5
 11
-1.8368409999999991
 21
164.39773600000001
 31
0.0
  0
ENDBLK
  5
96A
  8
0
  0
BLOCK
  8
0
  2
BLOCK11
 70
     0
 10
0.0
 20
0.0
 30
0.0
  3
BLOCK11
  1

  0
TEXT
  5
96C
  8
0
 62
     7
 10
45.638793999999997
 20
135.06008899999989
 30
0.0
 40
3.0
  1
52,5
 50
180.0
 41
1.4876960629295159
 72
     5
 11
35.18882399999999
 21
135.06008899999989
 31
0.0
  0
ENDBLK
  5
96D
  8
0
  0
BLOCK
  8
0
  2
BLOCK12
 70
     0
 10
0.0
 20
0.0
 30
0.0
  3
BLOCK12
  1

  0
TEXT
  5
96F
  8
0
 62
     7
 10
-64.980712999999994
 20
28.477447999999999
 30
0.0
 40
3.0
  1
17,5
 50
180.00001096573499
 41
1.6266401704896629
 72
     5
 11
-75.430678999999998
 21
28.477446
 31
0.0
  0
ENDBLK
  5
970
  8
0
  0
BLOCK
  8
0
  2
BLOCK13
 70
     0
 10
0.0
 20
0.0
 30
0.0
  3
BLOCK13
  1

  0
TEXT
  5
972
  8
0
 62
     5
 10
125.6328129999999
 20
-11.49502599999999
 30
0.0
 40
3.0
  1
71,75
 50
270.00003038421761
 41
1.5485160822799859
 72
     5
 11
125.63282
 21
-24.694986
 31
0.0
  0
ENDBLK
  5
973
  8
0
  0
BLOCK
  8
0
  2
BLOCK14
 70
     0
 10
0.0
 20
0.0
 30
0.0
  3
BLOCK14
  1

  0
TEXT
  5
975
  8
0
 62
     5
 10
157.03747599999991
 20
14.25
 30
0.0
 40
3.0
  1
139
 50
270.0
 41
1.40901909761257
 72
     5
 11
157.03747599999991
 21
6.5500199999999991
 31
0.0
  0
ENDBLK
  5
976
  8
0
  0
BLOCK
  8
0
  2
BLOCK15
 70
     0
 10
0.0
 20
0.0
 30
0.0
  3
BLOCK15
  1

  0
TEXT
  5
978
  8
0
 62
     5
 10
-74.791634000000002
 20
84.379547000000002
 30
0.0
 40
3.0
  1
 5,5
 50
159.5184643701694
 41
1.706322543901605
 72
     5
 11
-84.581008999999995
 21
88.036049000000006
 31
0.0
  0
ENDBLK
  5
979
  8
0
  0
BLOCK
  8
0
  2
BLOCK16
 70
     0
 10
0.0
 20
0.0
 30
0.0
  3
BLOCK16
  1

  0
TEXT
  5
97B
  8
0
 62
     5
 10
-73.292846999999995
 20
83.819671999999997
 30
0.0
 40
3.0
  1
%%c
 50
159.51852511185561
 41
0.9777778651801995
 72
     5
 11
-75.353774999999999
 21
84.589461999999983
 31
0.0
  0
ENDBLK
  5
97C
  8
0
  0
BLOCK
  8
0
  2
BLOCK17
 70
     0
 10
0.0
 20
0.0
 30
0.0
  3
BLOCK17
  1

  0
TEXT
  5
97E
  8
0
 62
     5
 10
-116.0101389999999
 20
99.775391000000013
 30
0.0
 40
3.0
  1
 - M5
 50
159.5184867000541
 41
1.4708689152645811
 72
     5
 11
-128.3756709999999
 21
104.3941269999999
 31
0.0
  0
ENDBLK
  5
97F
  8
0
  0
BLOCK
  8
0
  2
BLOCK18
 70
     0
 10
0.0
 20
0.0
 30
0.0
  3
BLOCK18
  1

  0
TEXT
  5
981
  8
0
 62
     7
 10
146.906372
 20
-144.15188599999999
 30
0.0
 40
3.0
  1
 24
 50
139.72695563900621
 41
1.4666640366082231
 72
     5
 11
141.0314939999999
 21
-139.17437699999991
 31
0.0
  0
ENDBLK
  5
982
  8
0
  0
BLOCK
  8
0
  2
BLOCK19
 70
     0
 10
0.0
 20
0.0
 30
0.0
  3
BLOCK19
  1

  0
TEXT
  5
984
  8
0
 62
     7
 10
148.12719699999991
 20
-145.1861879999999
 30
0.0
 40
3.0
  1
%%c
 50
139.72697302961839
 41
0.9777795177104652
 72
     5
 11
146.448654
 21
-143.76403799999991
 31
0.0
  0
ENDBLK
  5
985
  8
0
  0
BLOCK
  8
0
  2
BLOCK20
 70
     0
 10
0.0
 20
0.0
 30
0.0
  3
BLOCK20
  1

  0
TEXT
  5
987
  8
0
 62
     7
 10
-7.7659909999999996
 20
-135.10813899999999
 30
0.0
 40
3.0
  1
35
 50
180.0
 41
1.277659424398945
 72
     5
 11
-12.715980999999999
 21
-135.10813899999999
 31
0.0
  0
ENDBLK
  5
988
  8
0
  0
BLOCK
  8
0
  2
BLOCK21
 70
     0
 10
0.0
 20
0.0
 30
0.0
  3
BLOCK21
  1

  0
TEXT
  5
98A
  8
0
 62
     7
 10
26.919799999999999
 20
-135.10813899999999
 30
0.0
 40
3.0
  1
35
 50
180.0
 41
1.277659424398945
 72
     5
 11
21.969809999999999
 21
-135.10813899999999
 31
0.0
  0
ENDBLK
  5
98B
  8
0
  0
BLOCK
  8
0
  2
BLOCK22
 70
     0
 10
0.0
 20
0.0
 30
0.0
  3
BLOCK22
  1

  0
TEXT
  5
98D
  8
0
 62
     7
 10
64.886718999999985
 20
-135.10813899999999
 30
0.0
 40
3.0
  1
35
 50
180.0
 41
1.277659424398943
 72
     5
 11
59.936729
 21
-135.10813899999999
 31
0.0
  0
ENDBLK
  5
98E
  8
0
  0
BLOCK
  8
0
  2
BLOCK23
 70
     0
 10
0.0
 20
0.0
 30
0.0
  3
BLOCK23
  1

  0
TEXT
  5
990
  8
0
 62
     7
 10
-78.811278999999999
 20
-85.750000000000014
 30
0.0
 40
3.0
  1
73,75
 50
270.00003038421983
 41
1.4466875246701709
 72
     5
 11
-78.811272000000002
 21
-98.949958999999993
 31
0.0
  0
ENDBLK
  5
991
  8
0
  0
BLOCK
  8
0
  2
BLOCK24
 70
     0
 10
0.0
 20
0.0
 30
0.0
  3
BLOCK24
  1

  0
TEXT
  5
993
  8
0
 62
     7
 10
-104.1773679999999
 20
-1.1897580000000001
 30
0.0
 40
3.0
  1
143
 50
270.00005208720751
 41
1.3570006447992291
 72
     5
 11
-104.177361
 21
-8.8897380000000013
 31
0.0
  0
ENDBLK
  5
994
  8
0
  0
BLOCK
  8
0
  2
BLOCK25
 70
     0
 10
0.0
 20
0.0
 30
0.0
  3
BLOCK25
  1

  0
TEXT
  5
996
  8
0
 62
     7
 10
103.4829409999999
 20
-54.141541000000011
 30
0.0
 40
3.0
  1
105
 50
359.999977676914
 41
1.432750773232113
 72
     5
 11
111.18292199999991
 21
-54.141544000000003
 31
0.0
  0
ENDBLK
  5
997
  8
0
  0
BLOCK
  8
0
  2
BLOCK26
 70
     0
 10
0.0
 20
0.0
 30
0.0
  3
BLOCK26
  1

  0
TEXT
  5
999
  8
0
 62
     7
 10
108.83569299999991
 20
262.90637199999998
 30
0.0
 40
3.0
  1
X
 50
270.0
 41
0.9777831111111176
 72
     5
 11
108.83569299999991
 21
260.70636000000002
 31
0.0
  0
ENDBLK
  5
99A
  8
0
  0
BLOCK
  8
0
  2
BLOCK27
 70
     0
 10
0.0
 20
0.0
 30
0.0
  3
BLOCK27
  1

  0
TEXT
  5
99C
  8
0
 62
     7
 10
120.0
 20
-81.0
 30
0.0
 40
3.0
  1
X
 50
270.0
 41
0.9777764444444425
 72
     5
 11
120.0
 21
-83.199996999999996
 31
0.0
  0
ENDBLK
  5
99D
  8
0
  0
BLOCK
  8
0
  2
BLOCK28
 70
     0
 10
0.0
 20
0.0
 30
0.0
  3
BLOCK28
  1

  0
TEXT
  5
99F
  8
0
 62
     7
 10
103.9870529999999
 20
242.91064499999999
 30
0.0
 40
3.0
  1
143
 41
1.3570009972672841
 72
     5
 11
111.68703499999999
 21
242.91064499999999
 31
0.0
  0
ENDBLK
  5
9A0
  8
0
  0
BLOCK
  8
0
  2
BLOCK29
 70
     0
 10
0.0
 20
0.0
 30
0.0
  3
BLOCK29
  1

  0
TEXT
  5
9A2
  8
0
 62
     7
 10
133.11206100000001
 20
227.2261959999999
 30
0.0
 40
3.0
  1
73,75
 41
1.446688291855128
 72
     5
 11
146.312027
 21
227.2261959999999
 31
0.0
  0
ENDBLK
  5
9A3
  8
0
  0
BLOCK
  8
0
  2
BLOCK30
 70
     0
 10
0.0
 20
0.0
 30
0.0
  3
BLOCK30
  1

  0
TEXT
  5
9A5
  8
0
 62
     7
 10
238.20442199999999
 20
95.999938999999983
 30
0.0
 40
3.0
  1
25
 50
270.0
 41
1.2776591662854091
 72
     5
 11
238.20442199999999
 21
91.049949999999995
 31
0.0
  0
ENDBLK
  5
9A6
  8
0
  0
BLOCK
  8
0
  2
BLOCK31
 70
     0
 10
0.0
 20
0.0
 30
0.0
  3
BLOCK31
  1

  0
TEXT
  5
9A8
  8
0
 62
     7
 10
262.81280499999991
 20
65.999938999999998
 30
0.0
 40
3.0
  1
101,5
 50
270.0
 41
1.6657646546786029
 72
     5
 11
262.81280499999991
 21
52.799979999999998
 31
0.0
  0
ENDBLK
  5
9A9
  8
0
  0
BLOCK
  8
0
  2
BLOCK32
 70
     0
 10
0.0
 20
0.0
 30
0.0
  3
BLOCK32
  1

  0
TEXT
  5
9AB
  8
0
 62
     7
 10
-0.519043
 20
71.999938999999983
 30
0.0
 40
3.0
  1
5
 50
270.00002604357161
 41
1.2399490238211071
 72
     5
 11
-0.519042
 21
69.799942000000001
 31
0.0
  0
ENDBLK
  5
9AC
  8
0
  0
BLOCK
  8
0
  2
BLOCK33
 70
     0
 10
0.0
 20
0.0
 30
0.0
  3
BLOCK33
  1

  0
TEXT
  5
9AE
  8
0
 62
     7
 10
-0.5190470000000002
 20
119.9999389999999
 30
0.0
 40
3.0
  1
20
 50
270.00002314986131
 41
1.319166095897701
 72
     5
 11
-0.5190450000000001
 21
115.04995
 31
0.0
  0
ENDBLK
  5
9AF
  8
0
  0
BLOCK
  8
0
  2
BLOCK34
 70
     0
 10
0.0
 20
0.0
 30
0.0
  3
BLOCK34
  1

  0
TEXT
  5
9B1
  8
0
 62
     7
 10
-14.919822999999999
 20
64.999268000000001
 30
0.0
 40
3.0
  1
103,5
 50
270.00001736241131
 41
1.5485159649676601
 72
     5
 11
-14.919819
 21
51.799309000000001
 31
0.0
  0
ENDBLK
  5
9B2
  8
0
  0
BLOCK
  8
0
  2
BLOCK35
 70
     0
 10
0.0
 20
0.0
 30
0.0
  3
BLOCK35
  1

  0
TEXT
  5
9B4
  8
0
 62
     7
 10
-14.919822999999999
 20
117.4999389999999
 30
0.0
 40
3.0
  1
3
 50
270.00002604357161
 41
1.2399490238211071
 72
     5
 11
-14.919821999999989
 21
115.2999419999999
 31
0.0
  0
ENDBLK
  5
9B5
  8
0
  0
BLOCK
  8
0
  2
BLOCK36
 70
     0
 10
0.0
 20
0.0
 30
0.0
  3
BLOCK36
  1

  0
TEXT
  5
9B7
  8
0
 62
     7
 10
-14.919822999999999
 20
122.9999389999999
 30
0.0
 40
3.0
  1
\U+2265
 50
270.00002604357161
 41
1.242231569353333
 72
     5
 11
-14.919821999999989
 21
120.7999419999999
 31
0.0
  0
ENDBLK
  5
9B8
  8
0
  0
BLOCK
  8
0
  2
BLOCK37
 70
     0
 10
0.0
 20
0.0
 30
0.0
  3
BLOCK37
  1

  0
TEXT
  5
9BA
  8
0
 62
     7
 10
-28.918540999999991
 20
-12.000061000000001
 30
0.0
 40
3.0
  1
2
 50
270.0
 41
1.2020694180030751
 72
     5
 11
-28.918540999999991
 21
-14.200060999999989
 31
0.0
  0
ENDBLK
  5
9BB
  8
0
  0
BLOCK
  8
0
  2
BLOCK38
 70
     0
 10
0.0
 20
0.0
 30
0.0
  3
BLOCK38
  1

  0
TEXT
  5
9BD
  8
0
 62
     7
 10
-28.918548999999999
 20
57.749939000000012
 30
0.0
 40
3.0
  1
107
 50
270.00001488205538
 41
1.466663238095288
 72
     5
 11
-28.91854699999999
 21
50.049956999999999
 31
0.0
  0
ENDBLK
  5
9BE
  8
0
  0
BLOCK
  8
0
  2
BLOCK39
 70
     0
 10
0.0
 20
0.0
 30
0.0
  3
BLOCK39
  1

  0
TEXT
  5
9C0
  8
0
 62
     7
 10
-43.209670999999993
 20
43.727416999999988
 30
0.0
 40
3.0
  1
135
 50
270.00002976411082
 41
1.4327509593041861
 72
     5
 11
-43.209666999999989
 21
36.02743499999999
 31
0.0
  0
ENDBLK
  5
9C1
  8
0
  0
BLOCK
  8
0
  2
BLOCK40
 70
     0
 10
0.0
 20
0.0
 30
0.0
  3
BLOCK40
  1

  0
LINE
  5
9C3
  8
0
 62
     6
 10
168.367615
 20
91.999938999999998
 30
0.0
 11
167.17150899999999
 21
90.803832999999983
 31
0.0
  0
LINE
  5
9C4
  8
0
 62
     6
 10
170.48893699999999
 20
91.999938999999998
 30
0.0
 11
167.17150899999999
 21
88.682518000000016
 31
0.0
  0
LINE
  5
9C5
  8
0
 62
     6
 10
171.23706100000001
 20
90.626746999999995
 30
0.0
 11
168.61024499999991
 21
87.999938999999998
 31
0.0
  0
LINE
  5
9C6
  8
0
 62
     6
 10
171.23706100000001
 20
88.505431999999999
 30
0.0
 11
170.7315669999999
 21
87.999938999999998
 31
0.0
  0
ENDBLK
  5
9C7
  8
0
  0
BLOCK
  8
0
  2
BLOCK41
 70
     0
 10
0.0
 20
0.0
 30
0.0
  3
BLOCK41
  1

  0
LINE
  5
9C9
  8
0
 62
     6
 10
50.937564999999999
 20
86.999938999999998
 30
0.0
 11
50.737071999999998
 21
86.799446000000003
 31
0.0
  0
LINE
  5
9CA
  8
0
 62
     6
 10
53.058886999999999
 20
86.999938999999998
 30
0.0
 11
50.737071999999998
 21
84.678122999999999
 31
0.0
  0
LINE
  5
9CB
  8
0
 62
     6
 10
53.720267999999997
 20
85.540001000000004
 30
0.0
 11
51.180205999999998
 21
82.999938999999998
 31
0.0
  0
LINE
  5
9CC
  8
0
 62
     6
 10
53.720267999999997
 20
83.418678000000014
 30
0.0
 11
53.301524999999998
 21
82.999938999999998
 31
0.0
  0
ENDBLK
  5
9CD
  8
0
  0
BLOCK
  8
0
  2
BLOCK42
 70
     0
 10
0.0
 20
0.0
 30
0.0
  3
BLOCK42
  1

  0
LINE
  5
9CF
  8
0
 62
     6
 10
44.837059000000004
 20
80.320839000000007
 30
0.0
 11
45.157963000000002
 21
79.999938999999983
 31
0.0
  0
LINE
  5
9D0
  8
0
 62
     6
 10
44.837059000000004
 20
82.442161999999996
 30
0.0
 11
47.279282000000002
 21
79.999938999999983
 31
0.0
  0
LINE
  5
9D1
  8
0
 62
     6
 10
46.400604000000001
 20
82.999938999999998
 30
0.0
 11
49.400604000000001
 21
79.999938999999983
 31
0.0
  0
LINE
  5
9D2
  8
0
 62
     6
 10
48.521923000000001
 20
82.999938999999998
 30
0.0
 11
51.521923000000001
 21
79.999938999999983
 31
0.0
  0
LINE
  5
9D3
  8
0
 62
     6
 10
50.643245999999998
 20
82.999938999999998
 30
0.0
 11
53.643242000000001
 21
79.999938999999983
 31
0.0
  0
LINE
  5
9D4
  8
0
 62
     6
 10
52.764564999999997
 20
82.999938999999998
 30
0.0
 11
54.720267999999997
 21
81.044235000000015
 31
0.0
  0
ENDBLK
  5
9D5
  8
0
  0
BLOCK
  8
0
  2
BLOCK43
 70
     0
 10
0.0
 20
0.0
 30
0.0
  3
BLOCK43
  1

  0
LINE
  5
9D7
  8
0
 62
     6
 10
31.737074
 20
78.571586999999994
 30
0.0
 11
32.308720000000001
 21
77.999938999999998
 31
0.0
  0
LINE
  5
9D8
  8
0
 62
     6
 10
31.737074
 20
80.692909
 30
0.0
 11
34.430042
 21
77.999938999999998
 31
0.0
  0
LINE
  5
9D9
  8
0
 62
     6
 10
31.737074
 20
82.814231999999976
 30
0.0
 11
36.551360999999993
 21
77.999938999999998
 31
0.0
  0
LINE
  5
9DA
  8
0
 62
     6
 10
33.672683999999997
 20
82.999938999999998
 30
0.0
 11
36.637062
 21
80.035561000000001
 31
0.0
  0
LINE
  5
9DB
  8
0
 62
     6
 10
35.794002999999996
 20
82.999938999999998
 30
0.0
 11
36.637062
 21
82.156882999999993
 31
0.0
  0
ENDBLK
  5
9DC
  8
0
  0
BLOCK
  8
0
  2
BLOCK44
 70
     0
 10
0.0
 20
0.0
 30
0.0
  3
BLOCK44
  1

  0
LINE
  5
9DE
  8
0
 62
     6
 10
45.837059000000004
 20
79.320839000000007
 30
0.0
 11
47.157963000000002
 21
77.999938999999998
 31
0.0
  0
LINE
  5
9DF
  8
0
 62
     6
 10
47.279282000000002
 20
79.999938999999983
 30
0.0
 11
49.279282000000002
 21
77.999938999999998
 31
0.0
  0
LINE
  5
9E0
  8
0
 62
     6
 10
49.400604000000001
 20
79.999938999999983
 30
0.0
 11
51.400604000000001
 21
77.999938999999998
 31
0.0
  0
LINE
  5
9E1
  8
0
 62
     6
 10
51.521923000000001
 20
79.999938999999983
 30
0.0
 11
53.521923000000001
 21
77.999938999999998
 31
0.0
  0
LINE
  5
9E2
  8
0
 62
     6
 10
53.643242000000001
 20
79.999938999999983
 30
0.0
 11
53.737071999999998
 21
79.906113000000005
 31
0.0
  0
ENDBLK
  5
9E3
  8
0
  0
BLOCK
  8
0
  2
BLOCK45
 70
     0
 10
0.0
 20
0.0
 30
0.0
  3
BLOCK45
  1

  0
LINE
  5
9E5
  8
0
 62
     6
 10
187.93705700000001
 20
79.349296999999993
 30
0.0
 11
189.2864229999999
 21
77.999938999999998
 31
0.0
  0
LINE
  5
9E6
  8
0
 62
     6
 10
187.93705700000001
 20
81.470618999999999
 30
0.0
 11
191.40772999999999
 21
77.999938999999998
 31
0.0
  0
LINE
  5
9E7
  8
0
 62
     6
 10
188.52905299999989
 20
82.999938999999998
 30
0.0
 11
192.73706100000001
 21
78.791938999999999
 31
0.0
  0
LINE
  5
9E8
  8
0
 62
     6
 10
190.65037499999991
 20
82.999938999999998
 30
0.0
 11
192.73706100000001
 21
80.913253999999995
 31
0.0
  0
ENDBLK
  5
9E9
  8
0
  0
BLOCK
  8
0
  2
BLOCK46
 70
     0
 10
0.0
 20
0.0
 30
0.0
  3
BLOCK46
  1

  0
LINE
  5
9EB
  8
0
 62
     6
 10
166.17150899999999
 20
84.144287000000006
 30
0.0
 11
171.93414300000001
 21
78.381644999999992
 31
0.0
  0
LINE
  5
9EC
  8
0
 62
     6
 10
166.17150899999999
 20
86.265609999999995
 30
0.0
 11
174.43718000000001
 21
77.999938999999998
 31
0.0
  0
LINE
  5
9ED
  8
0
 62
     6
 10
166.55850199999989
 20
87.999938999999998
 30
0.0
 11
176.558502
 21
77.999938999999998
 31
0.0
  0
LINE
  5
9EE
  8
0
 62
     6
 10
169.724457
 20
86.955292000000014
 30
0.0
 11
178.67981
 21
77.999938999999998
 31
0.0
  0
LINE
  5
9EF
  8
0
 62
     6
 10
175.801132
 20
82.999938999999998
 30
0.0
 11
179.5370639999999
 21
79.264015000000001
 31
0.0
  0
LINE
  5
9F0
  8
0
 62
     6
 10
177.92245500000001
 20
82.999938999999998
 30
0.0
 11
179.5370639999999
 21
81.385338000000004
 31
0.0
  0
ENDBLK
  5
9F1
  8
0
  0
BLOCK
  8
0
  2
BLOCK47
 70
     0
 10
0.0
 20
0.0
 30
0.0
  3
BLOCK47
  1

  0
LINE
  5
9F3
  8
0
 62
     6
 10
171.338165
 20
77.999938999999998
 30
0.0
 11
171.23706100000001
 21
77.898833999999994
 31
0.0
  0
LINE
  5
9F4
  8
0
 62
     6
 10
173.45948799999991
 20
77.999938999999998
 30
0.0
 11
171.23706100000001
 21
75.777512000000002
 31
0.0
  0
LINE
  5
9F5
  8
0
 62
     6
 10
173.73706100000001
 20
76.156188999999998
 30
0.0
 11
171.23706100000001
 21
73.656196999999992
 31
0.0
  0
LINE
  5
9F6
  8
0
 62
     6
 10
173.73706100000001
 20
74.034874000000002
 30
0.0
 11
171.23706100000001
 21
71.534874000000002
 31
0.0
  0
LINE
  5
9F7
  8
0
 62
     6
 10
173.73706100000001
 20
71.913550999999998
 30
0.0
 11
171.23706100000001
 21
69.413558999999992
 31
0.0
  0
LINE
  5
9F8
  8
0
 62
     6
 10
173.73706100000001
 20
69.792236000000003
 30
0.0
 11
171.23706100000001
 21
67.292236000000003
 31
0.0
  0
LINE
  5
9F9
  8
0
 62
     6
 10
173.73706100000001
 20
67.670913999999996
 30
0.0
 11
172.33528100000001
 21
66.269134999999991
 31
0.0
  0
ENDBLK
  5
9FA
  8
0
  0
BLOCK
  8
0
  2
BLOCK48
 70
     0
 10
0.0
 20
0.0
 30
0.0
  3
BLOCK48
  1

  0
LINE
  5
9FC
  8
0
 62
     2
 10
184.4806209999999
 20
-4.168404999999999
 30
0.0
 11
186.31227100000001
 21
-6.000051
 31
0.0
  0
LINE
  5
9FD
  8
0
 62
     2
 10
186.433594
 20
-4.000051
 30
0.0
 11
188.43359399999991
 21
-6.000051
 31
0.0
  0
LINE
  5
9FE
  8
0
 62
     2
 10
188.554901
 20
-4.000051
 30
0.0
 11
190.554901
 21
-6.000051
 31
0.0
  0
LINE
  5
9FF
  8
0
 62
     2
 10
190.67622399999991
 20
-4.000051
 30
0.0
 11
192.67622399999999
 21
-6.000051
 31
0.0
  0
LINE
  5
A00
  8
0
 62
     2
 10
192.7975459999999
 20
-4.000051
 30
0.0
 11
194.7975459999999
 21
-6.000051
 31
0.0
  0
LINE
  5
A01
  8
0
 62
     2
 10
194.91886899999989
 20
-4.000051
 30
0.0
 11
196.918869
 21
-6.000051
 31
0.0
  0
LINE
  5
A02
  8
0
 62
     2
 10
197.04019199999999
 20
-4.000051
 30
0.0
 11
199.04019199999999
 21
-6.000051
 31
0.0
  0
LINE
  5
A03
  8
0
 62
     2
 10
199.16151400000001
 20
-4.000051
 30
0.0
 11
201.1615139999999
 21
-6.000051
 31
0.0
  0
LINE
  5
A04
  8
0
 62
     2
 10
201.282837
 20
-4.000051
 30
0.0
 11
203.28283699999989
 21
-6.000051
 31
0.0
  0
LINE
  5
A05
  8
0
 62
     2
 10
203.404144
 20
-4.000051
 30
0.0
 11
205.404144
 21
-6.000051
 31
0.0
  0
LINE
  5
A06
  8
0
 62
     2
 10
205.52546699999999
 20
-4.000051
 30
0.0
 11
207.52546699999999
 21
-6.000051
 31
0.0
  0
LINE
  5
A07
  8
0
 62
     2
 10
207.6467899999999
 20
-4.000051
 30
0.0
 11
209.6467899999999
 21
-6.000051
 31
0.0
  0
LINE
  5
A08
  8
0
 62
     2
 10
209.76811199999989
 20
-4.000051
 30
0.0
 11
211.76811199999989
 21
-6.000051
 31
0.0
  0
LINE
  5
A09
  8
0
 62
     2
 10
211.88943499999999
 20
-4.000051
 30
0.0
 11
213.88943499999999
 21
-6.000051
 31
0.0
  0
LINE
  5
A0A
  8
0
 62
     2
 10
214.01075700000001
 20
-4.000051
 30
0.0
 11
216.01075700000001
 21
-6.000051
 31
0.0
  0
LINE
  5
A0B
  8
0
 62
     2
 10
216.1320649999999
 20
-4.000051
 30
0.0
 11
218.1320649999999
 21
-6.000051
 31
0.0
  0
LINE
  5
A0C
  8
0
 62
     2
 10
218.25338699999989
 20
-4.000051
 30
0.0
 11
220.25338699999989
 21
-6.000051
 31
0.0
  0
LINE
  5
A0D
  8
0
 62
     2
 10
220.37470999999999
 20
-4.000051
 30
0.0
 11
222.37470999999999
 21
-6.000051
 31
0.0
  0
LINE
  5
A0E
  8
0
 62
     2
 10
222.49603300000001
 20
-4.000051
 30
0.0
 11
224.49603300000001
 21
-6.000051
 31
0.0
  0
LINE
  5
A0F
  8
0
 62
     2
 10
224.61735499999989
 20
-4.000051
 30
0.0
 11
226.61735499999989
 21
-6.000051
 31
0.0
  0
LINE
  5
A10
  8
0
 62
     2
 10
226.73867799999991
 20
-4.000051
 30
0.0
 11
228.73867799999991
 21
-6.000051
 31
0.0
  0
LINE
  5
A11
  8
0
 62
     2
 10
228.85998499999999
 20
-4.000051
 30
0.0
 11
230.85998499999999
 21
-6.000051
 31
0.0
  0
LINE
  5
A12
  8
0
 62
     2
 10
230.98130800000001
 20
-4.000051
 30
0.0
 11
232.98130800000001
 21
-6.000051
 31
0.0
  0
LINE
  5
A13
  8
0
 62
     2
 10
233.10263099999989
 20
-4.000051
 30
0.0
 11
234.6011199999999
 21
-5.4985390000000001
 31
0.0
  0
LINE
  5
A14
  8
0
 62
     2
 10
235.22395299999991
 20
-4.000051
 30
0.0
 11
235.56959499999999
 21
-4.3456960000000002
 31
0.0
  0
ENDBLK
  5
A15
  8
0
  0
BLOCK
  8
0
  2
BLOCK49
 70
     0
 10
0.0
 20
0.0
 30
0.0
  3
BLOCK49
  1

  0
LINE
  5
A17
  8
0
 62
     2
 10
165.9806209999999
 20
-4.760286999999999
 30
0.0
 11
167.22038299999991
 21
-6.000051
 31
0.0
  0
LINE
  5
A18
  8
0
 62
     2
 10
167.34170499999999
 20
-4.000051
 30
0.0
 11
169.34170499999999
 21
-6.000051
 31
0.0
  0
LINE
  5
A19
  8
0
 62
     2
 10
169.46302800000001
 20
-4.000051
 30
0.0
 11
171.46302800000001
 21
-6.000051
 31
0.0
  0
LINE
  5
A1A
  8
0
 62
     2
 10
171.584351
 20
-4.000051
 30
0.0
 11
173.584351
 21
-6.000051
 31
0.0
  0
LINE
  5
A1B
  8
0
 62
     2
 10
173.7056729999999
 20
-4.000051
 30
0.0
 11
175.7056729999999
 21
-6.000051
 31
0.0
  0
LINE
  5
A1C
  8
0
 62
     2
 10
175.82698099999999
 20
-4.000051
 30
0.0
 11
177.4806209999999
 21
-5.6536860000000004
 31
0.0
  0
ENDBLK
  5
A1D
  8
0
  0
BLOCK
  8
0
  2
BLOCK50
 70
     0
 10
0.0
 20
0.0
 30
0.0
  3
BLOCK50
  1

  0
LINE
  5
A1F
  8
0
 62
     2
 10
42.480625000000003
 20
-4.2968619999999991
 30
0.0
 11
44.183815000000003
 21
-6.000051
 31
0.0
  0
LINE
  5
A20
  8
0
 62
     2
 10
44.305134000000002
 20
-4.000051
 30
0.0
 11
46.305134000000002
 21
-6.000051
 31
0.0
  0
LINE
  5
A21
  8
0
 62
     2
 10
46.426456000000002
 20
-4.000051
 30
0.0
 11
48.426456000000002
 21
-6.000051
 31
0.0
  0
LINE
  5
A22
  8
0
 62
     2
 10
48.547775000000001
 20
-4.000051
 30
0.0
 11
50.547775000000001
 21
-6.000051
 31
0.0
  0
LINE
  5
A23
  8
0
 62
     2
 10
50.669094000000001
 20
-4.000051
 30
0.0
 11
52.669093999999987
 21
-6.000051
 31
0.0
  0
LINE
  5
A24
  8
0
 62
     2
 10
52.790416999999998
 20
-4.000051
 30
0.0
 11
53.980625000000003
 21
-5.1902609999999996
 31
0.0
  0
ENDBLK
  5
A25
  8
0
  0
BLOCK
  8
0
  2
BLOCK51
 70
     0
 10
0.0
 20
0.0
 30
0.0
  3
BLOCK51
  1

  0
LINE
  5
A27
  8
0
 62
     2
 10
-9.8679659999999991
 20
-4.9812769999999986
 30
0.0
 11
-8.8491910000000011
 21
-6.000051
 31
0.0
  0
LINE
  5
A28
  8
0
 62
     2
 10
-8.7278699999999994
 20
-4.000051
 30
0.0
 11
-6.7278699999999994
 21
-6.000051
 31
0.0
  0
LINE
  5
A29
  8
0
 62
     2
 10
-6.6065500000000004
 20
-4.000051
 30
0.0
 11
-4.6065500000000004
 21
-6.000051
 31
0.0
  0
LINE
  5
A2A
  8
0
 62
     2
 10
-4.4852299999999996
 20
-4.000051
 30
0.0
 11
-2.4852300000000001
 21
-6.000051
 31
0.0
  0
LINE
  5
A2B
  8
0
 62
     2
 10
-2.3639099999999988
 20
-4.000051
 30
0.0
 11
-0.36391
 21
-6.000051
 31
0.0
  0
LINE
  5
A2C
  8
0
 62
     2
 10
-0.242589
 20
-4.000051
 30
0.0
 11
1.757409999999999
 21
-6.000051
 31
0.0
  0
LINE
  5
A2D
  8
0
 62
     2
 10
1.8787309999999999
 20
-4.000051
 30
0.0
 11
3.8787309999999988
 21
-6.000051
 31
0.0
  0
LINE
  5
A2E
  8
0
 62
     2
 10
4.000051
 20
-4.000051
 30
0.0
 11
6.000051
 21
-6.000051
 31
0.0
  0
LINE
  5
A2F
  8
0
 62
     2
 10
6.121370999999999
 20
-4.000051
 30
0.0
 11
8.1213709999999981
 21
-6.000051
 31
0.0
  0
LINE
  5
A30
  8
0
 62
     2
 10
8.2426910000000007
 20
-4.000051
 30
0.0
 11
10.242691000000001
 21
-6.000051
 31
0.0
  0
LINE
  5
A31
  8
0
 62
     2
 10
10.364012000000001
 20
-4.000051
 30
0.0
 11
12.36401199999999
 21
-6.000051
 31
0.0
  0
LINE
  5
A32
  8
0
 62
     2
 10
12.485332
 20
-4.000051
 30
0.0
 11
14.485332
 21
-6.000051
 31
0.0
  0
LINE
  5
A33
  8
0
 62
     2
 10
14.606652
 20
-4.000051
 30
0.0
 11
16.606650999999999
 21
-6.000051
 31
0.0
  0
LINE
  5
A34
  8
0
 62
     2
 10
16.727972000000001
 20
-4.000051
 30
0.0
 11
18.727972000000001
 21
-6.000051
 31
0.0
  0
LINE
  5
A35
  8
0
 62
     2
 10
18.849292999999989
 20
-4.000051
 30
0.0
 11
20.849292999999999
 21
-6.000051
 31
0.0
  0
LINE
  5
A36
  8
0
 62
     2
 10
20.970613
 20
-4.000051
 30
0.0
 11
22.970611999999988
 21
-6.000051
 31
0.0
  0
LINE
  5
A37
  8
0
 62
     2
 10
23.091932
 20
-4.000051
 30
0.0
 11
25.091932
 21
-6.000051
 31
0.0
  0
LINE
  5
A38
  8
0
 62
     2
 10
25.213252999999991
 20
-4.000051
 30
0.0
 11
27.213253000000002
 21
-6.000051
 31
0.0
  0
LINE
  5
A39
  8
0
 62
     2
 10
27.334574
 20
-4.000051
 30
0.0
 11
29.334573999999989
 21
-6.000051
 31
0.0
  0
LINE
  5
A3A
  8
0
 62
     2
 10
29.455892999999989
 20
-4.000051
 30
0.0
 11
31.455893
 21
-6.000051
 31
0.0
  0
LINE
  5
A3B
  8
0
 62
     2
 10
31.577213
 20
-4.000051
 30
0.0
 11
33.577213
 21
-6.000051
 31
0.0
  0
LINE
  5
A3C
  8
0
 62
     2
 10
33.698532
 20
-4.000051
 30
0.0
 11
35.480625000000003
 21
-5.7821429999999987
 31
0.0
  0
ENDBLK
  5
A3D
  8
0
  0
BLOCK
  8
0
  2
BLOCK52
 70
     0
 10
0.0
 20
0.0
 30
0.0
  3
BLOCK52
  1

  0
LINE
  5
A3F
  8
0
 62
     6
 10
51.544162999999998
 20
76.999938999999983
 30
0.0
 11
50.737071999999998
 21
76.192847999999984
 31
0.0
  0
LINE
  5
A40
  8
0
 62
     6
 10
53.665484999999997
 20
76.999938999999983
 30
0.0
 11
50.737071999999998
 21
74.071533000000002
 31
0.0
  0
LINE
  5
A41
  8
0
 62
     6
 10
53.720267999999997
 20
74.933402999999984
 30
0.0
 11
50.737071999999998
 21
71.950210999999996
 31
0.0
  0
LINE
  5
A42
  8
0
 62
     6
 10
53.720267999999997
 20
72.812080000000009
 30
0.0
 11
50.737071999999998
 21
69.828896
 31
0.0
  0
LINE
  5
A43
  8
0
 62
     6
 10
53.720267999999997
 20
70.690764999999999
 30
0.0
 11
50.737071999999998
 21
67.707572999999996
 31
0.0
  0
LINE
  5
A44
  8
0
 62
     6
 10
53.720267999999997
 20
68.569443000000007
 30
0.0
 11
50.737071999999998
 21
65.586250000000007
 31
0.0
  0
LINE
  5
A45
  8
0
 62
     6
 10
53.720267999999997
 20
66.448127999999997
 30
0.0
 11
50.737071999999998
 21
63.464934999999997
 31
0.0
  0
LINE
  5
A46
  8
0
 62
     6
 10
53.720267999999997
 20
64.326804999999993
 30
0.0
 11
52.610137999999999
 21
63.216679000000013
 31
0.0
  0
ENDBLK
  5
A47
  8
0
  0
BLOCK
  8
0
  2
BLOCK53
 70
     0
 10
0.0
 20
0.0
 30
0.0
  3
BLOCK53
  1

  0
TEXT
  5
A49
  8
0
 62
     7
 10
116.0
 20
6.0
 30
0.0
 40
3.0
  1
X
 50
270.0
 41
0.9777777777777776
 72
     5
 11
116.0
 21
3.7999999999999989
 31
0.0
  0
ENDBLK
  5
A4A
  8
0
  0
BLOCK
  8
0
  2
BLOCK54
 70
     0
 10
0.0
 20
0.0
 30
0.0
  3
BLOCK54
  1

  0
TEXT
  5
A4C
  8
0
 62
     7
 10
233.0
 20
-114.0
 30
0.0
 40
3.0
  1
Y
 50
270.0
 41
0.9777764444444427
 72
     5
 11
233.0
 21
-116.1999969999999
 31
0.0
  0
ENDBLK
  5
A4D
  8
0
  0
BLOCK
  8
0
  2
BLOCK55
 70
     0
 10
0.0
 20
0.0
 30
0.0
  3
BLOCK55
  1

  0
TEXT
  5
A4F
  8
0
 62
     7
 10
103.98703
 20
15.754882999999991
 30
0.0
 40
3.0
  1
170
 50
359.99997767691679
 41
1.4660036189192329
 72
     5
 11
111.687012
 21
15.754879999999989
 31
0.0
  0
ENDBLK
  5
A50
  8
0
  0
BLOCK
  8
0
  2
BLOCK56
 70
     0
 10
0.0
 20
0.0
 30
0.0
  3
BLOCK56
  1

  0
TEXT
  5
A52
  8
0
 62
     7
 10
259.70458999999988
 20
-89.088256999999984
 30
0.0
 40
3.0
  1
140
 50
270.0
 41
1.3867938934978381
 72
     5
 11
259.70458999999988
 21
-96.788239000000004
 31
0.0
  0
ENDBLK
  5
A53
  8
0
  0
BLOCK
  8
0
  2
BLOCK57
 70
     0
 10
0.0
 20
0.0
 30
0.0
  3
BLOCK57
  1

  0
TEXT
  5
A55
  8
0
 62
     7
 10
-7.9554520000000002
 20
-130.08825699999991
 30
0.0
 40
3.0
  1
52,5
 50
269.99997258566219
 41
1.4876954934750111
 72
     5
 11
-7.955457
 21
-140.5382229999999
 31
0.0
  0
ENDBLK
  5
A56
  8
0
  0
BLOCK
  8
0
  2
BLOCK58
 70
     0
 10
0.0
 20
0.0
 30
0.0
  3
BLOCK58
  1

  0
TEXT
  5
A58
  8
0
 62
     7
 10
9.8894880000000001
 20
-126.838257
 30
0.0
 40
3.0
  1
35
 50
269.99997685017598
 41
1.2776612311938
 72
     5
 11
9.8894859999999998
 21
-131.78825399999999
 31
0.0
  0
ENDBLK
  5
A59
  8
0
  0
BLOCK
  8
0
  2
BLOCK59
 70
     0
 10
0.0
 20
0.0
 30
0.0
  3
BLOCK59
  1

  0
TEXT
  5
A5B
  8
0
 62
     7
 10
9.8894999999999982
 20
-91.838256999999984
 30
0.0
 40
3.0
  1
35
 50
269.99997685013858
 41
1.2776591662855139
 72
     5
 11
9.8894979999999997
 21
-96.788246000000001
 31
0.0
  0
ENDBLK
  5
A5C
  8
0
  0
BLOCK
  8
0
  2
BLOCK60
 70
     0
 10
0.0
 20
0.0
 30
0.0
  3
BLOCK60
  1

  0
TEXT
  5
A5E
  8
0
 62
     7
 10
9.8895110000000006
 20
-56.838256999999992
 30
0.0
 40
3.0
  1
35
 50
269.99997685013858
 41
1.2776591662855139
 72
     5
 11
9.8895090000000003
 21
-61.788245999999987
 31
0.0
  0
ENDBLK
  5
A5F
  8
0
  0
BLOCK
  8
0
  2
BLOCK61
 70
     0
 10
0.0
 20
0.0
 30
0.0
  3
BLOCK61
  1

  0
TEXT
  5
A61
  8
0
 62
     7
 10
223.60765099999989
 20
-106.588257
 30
0.0
 40
3.0
  1
105
 50
270.0
 41
1.4327509593039891
 72
     5
 11
223.60765099999989
 21
-114.288239
 31
0.0
  0
ENDBLK
  5
A62
  8
0
  0
BLOCK
  8
0
  2
BLOCK62
 70
     0
 10
0.0
 20
0.0
 30
0.0
  3
BLOCK62
  1

  0
TEXT
  5
A64
  8
0
 62
     5
 10
139.86204499999991
 20
-2.6002200000000002
 30
0.0
 40
3.0
  1
87,25
 50
359.99998263759909
 41
1.4466884014530781
 72
     5
 11
153.06201200000001
 21
-2.6002239999999999
 31
0.0
  0
ENDBLK
  5
A65
  8
0
  0
BLOCK
  8
0
  2
BLOCK63
 70
     0
 10
0.0
 20
0.0
 30
0.0
  3
BLOCK63
  1

  0
TEXT
  5
A67
  8
0
 62
     7
 10
103.98704499999999
 20
-215.72546399999999
 30
0.0
 40
3.0
  1
175
 41
1.432750959303994
 72
     5
 11
111.6870269999999
 21
-215.72546399999999
 31
0.0
  0
ENDBLK
  5
A68
  8
0
  0
BLOCK
  8
0
  2
BLOCK64
 70
     0
 10
0.0
 20
0.0
 30
0.0
  3
BLOCK64
  1

  0
TEXT
  5
A6A
  8
0
 62
     7
 10
141.11204499999999
 20
-183.003174
 30
0.0
 40
3.0
  1
89,75
 41
1.4450281888504299
 72
     5
 11
154.31201200000001
 21
-183.003174
 31
0.0
  0
ENDBLK
  5
A6B
  8
0
  0
BLOCK
  8
0
  2
BLOCK65
 70
     0
 10
0.0
 20
0.0
 30
0.0
  3
BLOCK65
  1

  0
TEXT
  5
A6D
  8
0
 62
     7
 10
243.5993499999999
 20
-106.588257
 30
0.0
 40
3.0
  1
117
 50
270.0
 41
1.6559101075268761
 72
     5
 11
243.5993499999999
 21
-114.288239
 31
0.0
  0
ENDBLK
  5
A6E
  8
0
  0
BLOCK
  8
0
  2
BLOCK66
 70
     0
 10
0.0
 20
0.0
 30
0.0
  3
BLOCK66
  1

  0
TEXT
  5
A70
  8
0
 62
     7
 10
101.7370609999999
 20
-199.50634799999989
 30
0.0
 40
3.0
  1
161
 41
1.655909892473117
 72
     5
 11
109.43704199999991
 21
-199.50634799999989
 31
0.0
  0
ENDBLK
  5
A71
  8
0
  0
BLOCK
  8
0
  2
BLOCK67
 70
     0
 10
0.0
 20
0.0
 30
0.0
  3
BLOCK67
  1

  0
TEXT
  5
A73
  8
0
 62
     7
 10
0.0
 20
-113.0
 30
0.0
 40
3.0
  1
X
 50
90.0
 41
0.9777764444444425
 72
     5
 11
0.0
 21
-110.800003
 31
0.0
  0
ENDBLK
  5
A74
  8
0
  0
BLOCK
  8
0
  2
BLOCK68
 70
     0
 10
0.0
 20
0.0
 30
0.0
  3
BLOCK68
  1

  0
TEXT
  5
A76
  8
0
 62
     7
 10
1.0
 20
108.0
 30
0.0
 40
3.0
  1
X
 50
90.0
 41
0.9777764444444425
 72
     5
 11
1.0
 21
110.199997
 31
0.0
  0
ENDBLK
  5
A77
  8
0
  0
BLOCK
  8
0
  2
BLOCK69
 70
     0
 10
0.0
 20
0.0
 30
0.0
  3
BLOCK69
  1

  0
TEXT
  5
A79
  8
0
 62
     7
 10
-141.0
 20
-2.0
 30
0.0
 40
3.0
  1
Y
 50
90.0
 41
0.9777777777777778
 72
     5
 11
-141.0
 21
0.2
 31
0.0
  0
ENDBLK
  5
A7A
  8
0
  0
BLOCK
  8
0
  2
BLOCK70
 70
     0
 10
0.0
 20
0.0
 30
0.0
  3
BLOCK70
  1

  0
TEXT
  5
A7C
  8
0
 62
     7
 10
109.0
 20
2.0
 30
0.0
 40
3.0
  1
Y
 50
90.0
 41
0.9777777777777778
 72
     5
 11
109.0
 21
4.2000000000000002
 31
0.0
  0
ENDBLK
  5
A7D
  8
0
  0
BLOCK
  8
0
  2
BLOCK71
 70
     0
 10
0.0
 20
0.0
 30
0.0
  3
BLOCK71
  1

  0
TEXT
  5
A7F
  8
0
 62
     7
 10
-107.01321399999991
 20
-11.0
 30
0.0
 40
3.0
  1
80
 50
90.0
 41
1.3191663623963901
 72
     5
 11
-107.01321399999991
 21
-6.0500099999999994
 31
0.0
  0
ENDBLK
  5
A80
  8
0
  0
BLOCK
  8
0
  2
BLOCK72
 70
     0
 10
0.0
 20
0.0
 30
0.0
  3
BLOCK72
  1

  0
TEXT
  5
A82
  8
0
 62
     7
 10
-133.64590499999991
 20
-16.5
 30
0.0
 40
3.0
  1
112
 50
90.0
 41
1.594140284383367
 72
     5
 11
-133.64590499999991
 21
-8.8000199999999982
 31
0.0
  0
ENDBLK
  5
A83
  8
0
  0
BLOCK
  8
0
  2
BLOCK73
 70
     0
 10
0.0
 20
0.0
 30
0.0
  3
BLOCK73
  1

  0
TEXT
  5
A85
  8
0
 62
     5
 10
16.5
 20
-98.844482000000013
 30
0.0
 40
3.0
  1
112
 50
179.99994791279241
 41
1.594140284384026
 72
     5
 11
8.8000199999999982
 21
-98.844475000000003
 31
0.0
  0
ENDBLK
  5
A86
  8
0
  0
BLOCK
  8
0
  2
BLOCK74
 70
     0
 10
0.0
 20
0.0
 30
0.0
  3
BLOCK74
  1

  0
TEXT
  5
A88
  8
0
 62
     5
 10
16.5
 20
-129.17919900000001
 30
0.0
 40
3.0
  1
142
 50
180.0
 41
1.3437594995413831
 72
     5
 11
8.8000199999999982
 21
-129.17919900000001
 31
0.0
  0
ENDBLK
  5
A89
  8
0
  0
BLOCK
  8
0
  2
BLOCK75
 70
     0
 10
0.0
 20
0.0
 30
0.0
  3
BLOCK75
  1

  0
TEXT
  5
A8B
  8
0
 62
     7
 10
-64.530028999999999
 20
65.613815000000002
 30
0.0
 40
3.0
  1
35
 50
180.0
 41
1.277659424398945
 72
     5
 11
-69.480018999999999
 21
65.613815000000002
 31
0.0
  0
ENDBLK
  5
A8C
  8
0
  0
BLOCK
  8
0
  2
BLOCK76
 70
     0
 10
0.0
 20
0.0
 30
0.0
  3
BLOCK76
  1

  0
TEXT
  5
A8E
  8
0
 62
     7
 10
-29.530028999999988
 20
65.613815000000002
 30
0.0
 40
3.0
  1
35
 50
180.0
 41
1.277659424398945
 72
     5
 11
-34.480018999999992
 21
65.613815000000002
 31
0.0
  0
ENDBLK
  5
A8F
  8
0
  0
BLOCK
  8
0
  2
BLOCK77
 70
     0
 10
0.0
 20
0.0
 30
0.0
  3
BLOCK77
  1

  0
TEXT
  5
A91
  8
0
 62
     7
 10
5.4699710000000001
 20
65.613815000000002
 30
0.0
 40
3.0
  1
35
 50
180.0
 41
1.2776596825124811
 72
     5
 11
0.51998
 21
65.613815000000002
 31
0.0
  0
ENDBLK
  5
A92
  8
0
  0
BLOCK
  8
0
  2
BLOCK78
 70
     0
 10
0.0
 20
0.0
 30
0.0
  3
BLOCK78
  1

  0
TEXT
  5
A94
  8
0
 62
     7
 10
-50.044066999999998
 20
-113.7833939999999
 30
0.0
 40
3.0
  1
Y
 50
180.0
 41
0.9777782222222223
 72
     5
 11
-52.244067999999999
 21
-113.7833939999999
 31
0.0
  0
ENDBLK
  5
A95
  8
0
  0
BLOCK
  8
0
  2
BLOCK79
 70
     0
 10
0.0
 20
0.0
 30
0.0
  3
BLOCK79
  1

  0
TEXT
  5
A97
  8
0
 62
     7
 10
-50.044066999999998
 20
80.972518999999991
 30
0.0
 40
3.0
  1
Y
 50
180.0
 41
0.9777782222222223
 72
     5
 11
-52.244067999999999
 21
80.972518999999991
 31
0.0
  0
ENDBLK
  5
A98
  8
0
  0
BLOCK
  8
0
  2
BLOCK80
 70
     0
 10
0.0
 20
0.0
 30
0.0
  3
BLOCK80
  1

  0
TEXT
  5
A9A
  8
0
 62
     7
 10
64.284058000000002
 20
-22.0
 30
0.0
 40
3.0
  1
55
 50
270.00008102451471
 41
1.277659166286687
 72
     5
 11
64.284064999999998
 21
-26.949988999999999
 31
0.0
  0
ENDBLK
  5
A9B
  8
0
  0
BLOCK
  8
0
  2
BLOCK81
 70
     0
 10
0.0
 20
0.0
 30
0.0
  3
BLOCK81
  1

  0
TEXT
  5
A9D
  8
0
 62
     7
 10
83.904662999999985
 20
-41.749999999999993
 30
0.0
 40
3.0
  1
100
 50
270.0000595282217
 41
1.4660036189199119
 72
     5
 11
83.904670999999993
 21
-49.449981999999999
 31
0.0
  0
ENDBLK
  5
A9E
  8
0
  0
BLOCK
  8
0
  2
BLOCK82
 70
     0
 10
0.0
 20
0.0
 30
0.0
  3
BLOCK82
  1

  0
TEXT
  5
AA0
  8
0
 62
     7
 10
-121.5815429999999
 20
-7.25
 30
0.0
 40
3.0
  1
36,5
 50
270.00004386292358
 41
1.487696062929952
 72
     5
 11
-121.5815349999999
 21
-17.69997
 31
0.0
  0
ENDBLK
  5
AA1
  8
0
  0
BLOCK
  8
0
  2
BLOCK83
 70
     0
 10
0.0
 20
0.0
 30
0.0
  3
BLOCK83
  1

  0
TEXT
  5
AA3
  8
0
 62
     7
 10
-134.573486
 20
-29.75
 30
0.0
 40
3.0
  1
81,5
 50
270.00008224298188
 41
1.6266407931307201
 72
     5
 11
-134.5734709999999
 21
-40.19997
 31
0.0
  0
ENDBLK
  5
AA4
  8
0
  0
BLOCK
  8
0
  2
BLOCK84
 70
     0
 10
0.0
 20
0.0
 30
0.0
  3
BLOCK84
  1

  0
TEXT
  5
AA6
  8
0
 62
     7
 10
-1.060546999999999
 20
-116.080032
 30
0.0
 40
3.0
  1
M12
 50
180.0
 41
1.2769077572445671
 72
     5
 11
-8.7605269999999997
 21
-116.080032
 31
0.0
  0
ENDBLK
  5
AA7
  8
0
  0
ENDSEC
  0
SECTION
  2
ENTITIES
  0
LINE
  5
25
  8
0
  6
DASHDOT
 62
     7
 10
588.26187100000004
 20
743.29702800000007
 30
0.0
 11
588.26187100000004
 21
500.41439800000012
 31
0.0
  0
LINE
  5
26
  8
0
  6
DASHDOT
 62
     7
 10
702.46601099999998
 20
626.72605099999987
 30
0.0
 11
481.08677699999993
 21
626.72605099999987
 31
0.0
  0
LINE
  5
27
  8
0
  6
DASHDOT
 62
     7
 10
605.76187100000004
 20
709.45561199999997
 30
0.0
 11
605.76187100000004
 21
541.65861500000005
 31
0.0
  0
POLYLINE
  5
28
  8
0
 62
     3
 66
     1
 10
0.0
 20
0.0
 30
0.0
  0
VERTEX
  5
B10
  8
0
 62
     3
 10
642.76187100000004
 20
737.656792
 30
0.0
  0
VERTEX
  5
B11
  8
0
 62
     3
 10
642.76187100000004
 20
721.656792
 30
0.0
  0
VERTEX
  5
B12
  8
0
 62
     3
 10
644.76187100000004
 20
720.656792
 30
0.0
  0
VERTEX
  5
B13
  8
0
 62
     3
 10
640.76187100000004
 20
719.65679199999988
 30
0.0
  0
VERTEX
  5
B14
  8
0
 62
     3
 10
642.76187100000004
 20
718.65679199999988
 30
0.0
  0
VERTEX
  5
B15
  8
0
 62
     3
 10
642.76187100000004
 20
702.65679199999988
 30
0.0
  0
VERTEX
  5
B16
  8
0
 62
     3
 10
644.76187100000004
 20
701.65679199999988
 30
0.0
  0
VERTEX
  5
B17
  8
0
 62
     3
 10
640.76187100000004
 20
700.656792
 30
0.0
  0
VERTEX
  5
B18
  8
0
 62
     3
 10
642.76187100000004
 20
699.656792
 30
0.0
  0
VERTEX
  5
B19
  8
0
 62
     3
 10
642.76187100000004
 20
683.656792
 30
0.0
  0
VERTEX
  5
B1A
  8
0
 62
     3
 10
644.76187100000004
 20
682.656792
 30
0.0
  0
VERTEX
  5
B1B
  8
0
 62
     3
 10
640.76187100000004
 20
681.65679199999988
 30
0.0
  0
VERTEX
  5
B1C
  8
0
 62
     3
 10
642.76187100000004
 20
680.65679199999988
 30
0.0
  0
VERTEX
  5
B1D
  8
0
 62
     3
 10
642.76187100000004
 20
664.65679199999988
 30
0.0
  0
VERTEX
  5
B1E
  8
0
 62
     3
 10
644.76187100000004
 20
663.656792
 30
0.0
  0
VERTEX
  5
B1F
  8
0
 62
     3
 10
640.76187100000004
 20
662.656792
 30
0.0
  0
VERTEX
  5
B20
  8
0
 62
     3
 10
642.76187100000004
 20
661.656792
 30
0.0
  0
VERTEX
  5
B21
  8
0
 62
     3
 10
642.76187100000004
 20
645.656792
 30
0.0
  0
VERTEX
  5
B22
  8
0
 62
     3
 10
644.76187100000004
 20
644.65679199999988
 30
0.0
  0
VERTEX
  5
B23
  8
0
 62
     3
 10
640.76187100000004
 20
643.65679199999988
 30
0.0
  0
VERTEX
  5
B24
  8
0
 62
     3
 10
642.76187100000004
 20
642.656792
 30
0.0
  0
VERTEX
  5
B25
  8
0
 62
     3
 10
642.76187100000004
 20
626.65679199999988
 30
0.0
  0
VERTEX
  5
B26
  8
0
 62
     3
 10
644.76187100000004
 20
625.656792
 30
0.0
  0
VERTEX
  5
B27
  8
0
 62
     3
 10
640.76187100000004
 20
624.656792
 30
0.0
  0
VERTEX
  5
B28
  8
0
 62
     3
 10
642.76187100000004
 20
623.65679199999988
 30
0.0
  0
VERTEX
  5
B29
  8
0
 62
     3
 10
642.76187100000004
 20
607.656792
 30
0.0
  0
VERTEX
  5
B2A
  8
0
 62
     3
 10
644.76187100000004
 20
606.65679199999988
 30
0.0
  0
VERTEX
  5
B2B
  8
0
 62
     3
 10
640.76187100000004
 20
605.65679199999988
 30
0.0
  0
VERTEX
  5
B2C
  8
0
 62
     3
 10
642.76187100000004
 20
604.656792
 30
0.0
  0
VERTEX
  5
B2D
  8
0
 62
     3
 10
642.76187100000004
 20
588.656792
 30
0.0
  0
VERTEX
  5
B2E
  8
0
 62
     3
 10
644.76187100000004
 20
587.656792
 30
0.0
  0
VERTEX
  5
B2F
  8
0
 62
     3
 10
640.76187100000004
 20
586.656792
 30
0.0
  0
VERTEX
  5
B30
  8
0
 62
     3
 10
642.76187100000004
 20
585.65679199999988
 30
0.0
  0
VERTEX
  5
B31
  8
0
 62
     3
 10
642.76187100000004
 20
569.65679199999988
 30
0.0
  0
VERTEX
  5
B32
  8
0
 62
     3
 10
644.76187100000004
 20
568.65679199999988
 30
0.0
  0
VERTEX
  5
B33
  8
0
 62
     3
 10
640.76187100000004
 20
567.656792
 30
0.0
  0
VERTEX
  5
B34
  8
0
 62
     3
 10
642.76187100000004
 20
566.656792
 30
0.0
  0
VERTEX
  5
B35
  8
0
 62
     3
 10
642.76187100000004
 20
550.656792
 30
0.0
  0
VERTEX
  5
B36
  8
0
 62
     3
 10
644.76187100000004
 20
549.656792
 30
0.0
  0
VERTEX
  5
B37
  8
0
 62
     3
 10
640.76187100000004
 20
548.65679199999988
 30
0.0
  0
VERTEX
  5
B38
  8
0
 62
     3
 10
642.76187100000004
 20
547.65679199999988
 30
0.0
  0
VERTEX
  5
B39
  8
0
 62
     3
 10
642.76187100000004
 20
531.65679199999988
 30
0.0
  0
VERTEX
  5
B3A
  8
0
 62
     3
 10
644.76187100000004
 20
530.65679199999988
 30
0.0
  0
VERTEX
  5
B3B
  8
0
 62
     3
 10
640.76187100000004
 20
529.656792
 30
0.0
  0
VERTEX
  5
B3C
  8
0
 62
     3
 10
642.76187100000004
 20
528.656792
 30
0.0
  0
VERTEX
  5
B3D
  8
0
 62
     3
 10
642.76187100000004
 20
515.22001599999987
 30
0.0
  0
SEQEND
  5
B3E
  8
0
 62
     3
  0
POLYLINE
  5
58
  8
0
 62
     3
 66
     1
 10
0.0
 20
0.0
 30
0.0
  0
VERTEX
  5
B3F
  8
0
 62
     3
 10
648.88377400000002
 20
527.22605099999987
 30
0.0
  0
VERTEX
  5
B40
  8
0
 62
     3
 10
632.8837739999999
 20
527.22605099999987
 30
0.0
  0
VERTEX
  5
B41
  8
0
 62
     3
 10
631.88377400000002
 20
525.22605099999998
 30
0.0
  0
VERTEX
  5
B42
  8
0
 62
     3
 10
630.88377400000002
 20
529.22605099999998
 30
0.0
  0
VERTEX
  5
B43
  8
0
 62
     3
 10
629.88377400000002
 20
527.22605099999987
 30
0.0
  0
VERTEX
  5
B44
  8
0
 62
     3
 10
613.88377400000002
 20
527.22605099999987
 30
0.0
  0
VERTEX
  5
B45
  8
0
 62
     3
 10
612.88377400000002
 20
525.22605099999998
 30
0.0
  0
VERTEX
  5
B46
  8
0
 62
     3
 10
611.88377400000002
 20
529.22605099999998
 30
0.0
  0
VERTEX
  5
B47
  8
0
 62
     3
 10
610.88377400000002
 20
527.22605099999987
 30
0.0
  0
VERTEX
  5
B48
  8
0
 62
     3
 10
594.88377400000002
 20
527.22605099999987
 30
0.0
  0
VERTEX
  5
B49
  8
0
 62
     3
 10
593.88377400000002
 20
525.22605099999998
 30
0.0
  0
VERTEX
  5
B4A
  8
0
 62
     3
 10
592.88377400000002
 20
529.22605099999998
 30
0.0
  0
VERTEX
  5
B4B
  8
0
 62
     3
 10
591.8837739999999
 20
527.22605099999987
 30
0.0
  0
VERTEX
  5
B4C
  8
0
 62
     3
 10
575.88377400000002
 20
527.22605099999987
 30
0.0
  0
VERTEX
  5
B4D
  8
0
 62
     3
 10
574.8837739999999
 20
525.22605099999998
 30
0.0
  0
VERTEX
  5
B4E
  8
0
 62
     3
 10
573.88377400000002
 20
529.22605099999998
 30
0.0
  0
VERTEX
  5
B4F
  8
0
 62
     3
 10
572.88377400000002
 20
527.22605099999987
 30
0.0
  0
VERTEX
  5
B50
  8
0
 62
     3
 10
556.88377400000002
 20
527.22605099999987
 30
0.0
  0
VERTEX
  5
B51
  8
0
 62
     3
 10
555.88377400000002
 20
525.22605099999998
 30
0.0
  0
VERTEX
  5
B52
  8
0
 62
     3
 10
554.88377400000002
 20
529.22605099999998
 30
0.0
  0
VERTEX
  5
B53
  8
0
 62
     3
 10
553.8837739999999
 20
527.22605099999987
 30
0.0
  0
VERTEX
  5
B54
  8
0
 62
     3
 10
537.88377400000002
 20
527.22605099999987
 30
0.0
  0
VERTEX
  5
B55
  8
0
 62
     3
 10
536.88377400000002
 20
525.22605099999998
 30
0.0
  0
VERTEX
  5
B56
  8
0
 62
     3
 10
535.88377400000002
 20
529.22605099999998
 30
0.0
  0
VERTEX
  5
B57
  8
0
 62
     3
 10
534.88377400000002
 20
527.22605099999987
 30
0.0
  0
VERTEX
  5
B58
  8
0
 62
     3
 10
518.88377400000002
 20
527.22605099999987
 30
0.0
  0
VERTEX
  5
B59
  8
0
 62
     3
 10
517.88377400000002
 20
525.22605099999998
 30
0.0
  0
VERTEX
  5
B5A
  8
0
 62
     3
 10
516.8837739999999
 20
529.22605099999998
 30
0.0
  0
VERTEX
  5
B5B
  8
0
 62
     3
 10
515.88377400000002
 20
527.22605099999987
 30
0.0
  0
VERTEX
  5
B5C
  8
0
 62
     3
 10
500.24053199999997
 20
527.22605099999987
 30
0.0
  0
SEQEND
  5
B5D
  8
0
 62
     3
  0
LINE
  5
78
  8
0
  6
DASHDOT
 62
     7
 10
403.81973299999999
 20
626.72605099999987
 30
0.0
 11
387.63163800000001
 21
626.72605099999987
 31
0.0
  0
LINE
  5
79
  8
0
  6
DASHDOT
 62
     7
 10
535.76187100000004
 20
708.04555500000004
 30
0.0
 11
535.76187100000004
 21
540.60107400000004
 31
0.0
  0
POLYLINE
  5
7A
  8
0
 62
     3
 66
     1
 10
0.0
 20
0.0
 30
0.0
  0
VERTEX
  5
B5E
  8
0
 62
     3
 10
498.76187099999993
 20
738.04020700000001
 30
0.0
  0
VERTEX
  5
B5F
  8
0
 62
     3
 10
498.76187099999993
 20
722.04020700000001
 30
0.0
  0
VERTEX
  5
B60
  8
0
 62
     3
 10
500.76187099999999
 20
721.04020700000001
 30
0.0
  0
VERTEX
  5
B61
  8
0
 62
     3
 10
496.76187099999993
 20
720.0402069999999
 30
0.0
  0
VERTEX
  5
B62
  8
0
 62
     3
 10
498.76187099999993
 20
719.04020700000001
 30
0.0
  0
VERTEX
  5
B63
  8
0
 62
     3
 10
498.76187099999993
 20
703.04020700000001
 30
0.0
  0
VERTEX
  5
B64
  8
0
 62
     3
 10
500.76187099999999
 20
702.04020700000001
 30
0.0
  0
VERTEX
  5
B65
  8
0
 62
     3
 10
496.76187099999993
 20
701.04020700000001
 30
0.0
  0
VERTEX
  5
B66
  8
0
 62
     3
 10
498.76187099999993
 20
700.0402069999999
 30
0.0
  0
VERTEX
  5
B67
  8
0
 62
     3
 10
498.76187099999993
 20
684.04020700000001
 30
0.0
  0
VERTEX
  5
B68
  8
0
 62
     3
 10
500.76187099999999
 20
683.0402069999999
 30
0.0
  0
VERTEX
  5
B69
  8
0
 62
     3
 10
496.76187099999993
 20
682.04020700000001
 30
0.0
  0
VERTEX
  5
B6A
  8
0
 62
     3
 10
498.76187099999993
 20
681.04020700000001
 30
0.0
  0
VERTEX
  5
B6B
  8
0
 62
     3
 10
498.76187099999993
 20
665.04020700000001
 30
0.0
  0
VERTEX
  5
B6C
  8
0
 62
     3
 10
500.76187099999999
 20
664.04020700000001
 30
0.0
  0
VERTEX
  5
B6D
  8
0
 62
     3
 10
496.76187099999993
 20
663.04020700000001
 30
0.0
  0
VERTEX
  5
B6E
  8
0
 62
     3
 10
498.76187099999993
 20
662.0402069999999
 30
0.0
  0
VERTEX
  5
B6F
  8
0
 62
     3
 10
498.76187099999993
 20
646.04020700000001
 30
0.0
  0
VERTEX
  5
B70
  8
0
 62
     3
 10
500.76187099999999
 20
645.04020899999989
 30
0.0
  0
VERTEX
  5
B71
  8
0
 62
     3
 10
496.76187099999993
 20
644.040209
 30
0.0
  0
VERTEX
  5
B72
  8
0
 62
     3
 10
498.76187099999993
 20
643.04020700000001
 30
0.0
  0
VERTEX
  5
B73
  8
0
 62
     3
 10
498.76187099999993
 20
627.04020800000001
 30
0.0
  0
VERTEX
  5
B74
  8
0
 62
     3
 10
500.76187099999999
 20
626.04020800000001
 30
0.0
  0
VERTEX
  5
B75
  8
0
 62
     3
 10
496.76187099999993
 20
625.04020800000001
 30
0.0
  0
VERTEX
  5
B76
  8
0
 62
     3
 10
498.76187099999993
 20
624.04020799999989
 30
0.0
  0
VERTEX
  5
B77
  8
0
 62
     3
 10
498.76187099999993
 20
608.0402069999999
 30
0.0
  0
VERTEX
  5
B78
  8
0
 62
     3
 10
500.76187099999999
 20
607.04020899999989
 30
0.0
  0
VERTEX
  5
B79
  8
0
 62
     3
 10
496.76187099999993
 20
606.040209
 30
0.0
  0
VERTEX
  5
B7A
  8
0
 62
     3
 10
498.76187099999993
 20
605.04020700000001
 30
0.0
  0
VERTEX
  5
B7B
  8
0
 62
     3
 10
498.76187099999993
 20
589.04020700000001
 30
0.0
  0
VERTEX
  5
B7C
  8
0
 62
     3
 10
500.76187099999999
 20
588.04020700000001
 30
0.0
  0
VERTEX
  5
B7D
  8
0
 62
     3
 10
496.76187099999993
 20
587.0402069999999
 30
0.0
  0
VERTEX
  5
B7E
  8
0
 62
     3
 10
498.76187099999993
 20
586.04020700000001
 30
0.0
  0
VERTEX
  5
B7F
  8
0
 62
     3
 10
498.76187099999993
 20
570.0402069999999
 30
0.0
  0
VERTEX
  5
B80
  8
0
 62
     3
 10
500.76187099999999
 20
569.04020700000001
 30
0.0
  0
VERTEX
  5
B81
  8
0
 62
     3
 10
496.76187099999993
 20
568.04020700000001
 30
0.0
  0
VERTEX
  5
B82
  8
0
 62
     3
 10
498.76187099999993
 20
567.04020700000001
 30
0.0
  0
VERTEX
  5
B83
  8
0
 62
     3
 10
498.76187099999993
 20
551.04020700000001
 30
0.0
  0
VERTEX
  5
B84
  8
0
 62
     3
 10
500.76187099999999
 20
550.0402069999999
 30
0.0
  0
VERTEX
  5
B85
  8
0
 62
     3
 10
496.76187099999993
 20
549.04020700000001
 30
0.0
  0
VERTEX
  5
B86
  8
0
 62
     3
 10
498.76187099999993
 20
548.04020700000001
 30
0.0
  0
VERTEX
  5
B87
  8
0
 62
     3
 10
498.76187099999993
 20
532.04020700000001
 30
0.0
  0
VERTEX
  5
B88
  8
0
 62
     3
 10
500.76187099999999
 20
531.04020700000001
 30
0.0
  0
VERTEX
  5
B89
  8
0
 62
     3
 10
496.76187099999993
 20
530.04020700000001
 30
0.0
  0
VERTEX
  5
B8A
  8
0
 62
     3
 10
498.76187099999993
 20
529.0402069999999
 30
0.0
  0
VERTEX
  5
B8B
  8
0
 62
     3
 10
498.76187099999993
 20
515.31987000000004
 30
0.0
  0
SEQEND
  5
B8C
  8
0
 62
     3
  0
POLYLINE
  5
AA
  8
0
 62
     3
 66
     1
 10
0.0
 20
0.0
 30
0.0
  0
VERTEX
  5
B8D
  8
0
 62
     3
 10
639.57370000000003
 20
732.29670699999997
 30
0.0
  0
VERTEX
  5
B8E
  8
0
 62
     3
 10
623.57370000000003
 20
732.29670699999997
 30
0.0
  0
VERTEX
  5
B8F
  8
0
 62
     3
 10
622.57370000000003
 20
730.29670700000008
 30
0.0
  0
VERTEX
  5
B90
  8
0
 62
     3
 10
621.57370000000003
 20
734.29670700000008
 30
0.0
  0
VERTEX
  5
B91
  8
0
 62
     3
 10
620.57370000000003
 20
732.29670699999997
 30
0.0
  0
VERTEX
  5
B92
  8
0
 62
     3
 10
604.57370000000003
 20
732.29670699999997
 30
0.0
  0
VERTEX
  5
B93
  8
0
 62
     3
 10
603.57370000000003
 20
730.29670700000008
 30
0.0
  0
VERTEX
  5
B94
  8
0
 62
     3
 10
602.57370000000003
 20
734.29670700000008
 30
0.0
  0
VERTEX
  5
B95
  8
0
 62
     3
 10
601.57370000000003
 20
732.29670699999997
 30
0.0
  0
VERTEX
  5
B96
  8
0
 62
     3
 10
585.57370000000003
 20
732.29670699999997
 30
0.0
  0
VERTEX
  5
B97
  8
0
 62
     3
 10
584.57370000000003
 20
730.29670700000008
 30
0.0
  0
VERTEX
  5
B98
  8
0
 62
     3
 10
583.57370000000003
 20
734.29670700000008
 30
0.0
  0
VERTEX
  5
B99
  8
0
 62
     3
 10
582.57370000000003
 20
732.29670699999997
 30
0.0
  0
VERTEX
  5
B9A
  8
0
 62
     3
 10
566.57370000000003
 20
732.29670699999997
 30
0.0
  0
VERTEX
  5
B9B
  8
0
 62
     3
 10
565.57370000000003
 20
730.29670700000008
 30
0.0
  0
VERTEX
  5
B9C
  8
0
 62
     3
 10
564.57370000000003
 20
734.29670700000008
 30
0.0
  0
VERTEX
  5
B9D
  8
0
 62
     3
 10
563.57370000000003
 20
732.29670699999997
 30
0.0
  0
VERTEX
  5
B9E
  8
0
 62
     3
 10
547.57370000000003
 20
732.29670699999997
 30
0.0
  0
VERTEX
  5
B9F
  8
0
 62
     3
 10
546.57370000000003
 20
730.29670700000008
 30
0.0
  0
VERTEX
  5
BA0
  8
0
 62
     3
 10
545.57370000000003
 20
734.29670700000008
 30
0.0
  0
VERTEX
  5
BA1
  8
0
 62
     3
 10
544.57370000000003
 20
732.29670699999997
 30
0.0
  0
VERTEX
  5
BA2
  8
0
 62
     3
 10
528.57370000000003
 20
732.29670699999997
 30
0.0
  0
VERTEX
  5
BA3
  8
0
 62
     3
 10
527.57370000000003
 20
730.29670700000008
 30
0.0
  0
VERTEX
  5
BA4
  8
0
 62
     3
 10
526.57370000000003
 20
734.29670700000008
 30
0.0
  0
VERTEX
  5
BA5
  8
0
 62
     3
 10
525.57370000000003
 20
732.29670699999997
 30
0.0
  0
VERTEX
  5
BA6
  8
0
 62
     3
 10
509.57369999999992
 20
732.29670699999997
 30
0.0
  0
VERTEX
  5
BA7
  8
0
 62
     3
 10
508.57369999999992
 20
730.29670700000008
 30
0.0
  0
VERTEX
  5
BA8
  8
0
 62
     3
 10
507.57369999999997
 20
734.29670700000008
 30
0.0
  0
VERTEX
  5
BA9
  8
0
 62
     3
 10
506.57369999999992
 20
732.29670699999997
 30
0.0
  0
VERTEX
  5
BAA
  8
0
 62
     3
 10
499.17691799999989
 20
732.29670699999997
 30
0.0
  0
SEQEND
  5
BAB
  8
0
 62
     3
  0
CIRCLE
  5
CA
  8
0
 62
   150
 10
535.76187100000004
 20
698.47605099999998
 30
0.0
 40
2.75
  0
CIRCLE
  5
CB
  8
0
 62
   150
 10
605.76187100000004
 20
698.47605099999998
 30
0.0
 40
2.75
  0
CIRCLE
  5
CC
  8
0
 62
   150
 10
605.76187100000004
 20
559.47605099999987
 30
0.0
 40
2.75
  0
CIRCLE
  5
CD
  8
0
 62
   150
 10
535.76187100000004
 20
559.47605099999987
 30
0.0
 40
2.75
  0
LINE
  5
CE
  8
0
  6
DASHDOT
 62
   150
 10
605.76187100000004
 20
706.22605099999987
 30
0.0
 11
605.76187100000004
 21
690.72605099999998
 31
0.0
  0
LINE
  5
CF
  8
0
  6
DASHDOT
 62
   150
 10
613.51187100000004
 20
698.47605099999998
 30
0.0
 11
598.01187100000004
 21
698.47605099999998
 31
0.0
  0
LINE
  5
D0
  8
0
  6
DASHDOT
 62
   150
 10
535.76187100000004
 20
706.22605099999987
 30
0.0
 11
535.76187100000004
 21
690.72605099999998
 31
0.0
  0
LINE
  5
D1
  8
0
  6
DASHDOT
 62
   150
 10
543.51187100000004
 20
698.47605099999998
 30
0.0
 11
528.01187100000004
 21
698.47605099999998
 31
0.0
  0
LINE
  5
D2
  8
0
  6
DASHDOT
 62
   150
 10
535.76187100000004
 20
567.22605099999998
 30
0.0
 11
535.76187100000004
 21
551.72605099999987
 31
0.0
  0
LINE
  5
D3
  8
0
  6
DASHDOT
 62
   150
 10
543.51187100000004
 20
559.47605099999987
 30
0.0
 11
528.01187100000004
 21
559.47605099999987
 31
0.0
  0
LINE
  5
D4
  8
0
  6
DASHDOT
 62
   150
 10
605.76187100000004
 20
567.22605099999998
 30
0.0
 11
605.76187100000004
 21
551.72605099999987
 31
0.0
  0
LINE
  5
D5
  8
0
  6
DASHDOT
 62
   150
 10
613.51187100000004
 20
559.47605099999987
 30
0.0
 11
598.01187100000004
 21
559.47605099999987
 31
0.0
  0
CIRCLE
  5
D6
  8
0
 62
     7
 10
518.26187100000004
 20
700.47605099999987
 30
0.0
 40
12.0
  0
CIRCLE
  5
D7
  8
0
 62
     7
 10
553.26187100000004
 20
700.47605099999987
 30
0.0
 40
12.0
  0
CIRCLE
  5
D8
  8
0
 62
     7
 10
588.26187100000004
 20
700.47605099999987
 30
0.0
 40
12.0
  0
CIRCLE
  5
D9
  8
0
 62
     7
 10
623.26187100000004
 20
700.47605099999987
 30
0.0
 40
12.0
  0
CIRCLE
  5
DA
  8
0
 62
     7
 10
623.26187100000004
 20
557.47605099999987
 30
0.0
 40
12.0
  0
CIRCLE
  5
DB
  8
0
 62
     7
 10
588.26187100000004
 20
557.47605099999987
 30
0.0
 40
12.0
  0
CIRCLE
  5
DC
  8
0
 62
     7
 10
553.26187100000004
 20
557.47605099999987
 30
0.0
 40
12.0
  0
CIRCLE
  5
DD
  8
0
 62
     7
 10
518.26187100000004
 20
557.47605099999987
 30
0.0
 40
12.0
  0
LINE
  5
DE
  8
0
  6
DASHDOT
 62
     7
 10
518.26187100000004
 20
722.47605099999998
 30
0.0
 11
518.26187100000004
 21
678.47605099999987
 31
0.0
  0
LINE
  5
DF
  8
0
  6
DASHDOT
 62
     7
 10
540.26187100000004
 20
700.47605099999987
 30
0.0
 11
496.26187099999999
 21
700.47605099999987
 31
0.0
  0
LINE
  5
E0
  8
0
  6
DASHDOT
 62
     7
 10
553.26187100000004
 20
722.47605099999998
 30
0.0
 11
553.26187100000004
 21
678.47605099999987
 31
0.0
  0
LINE
  5
E1
  8
0
  6
DASHDOT
 62
     7
 10
575.26187100000004
 20
700.47605099999987
 30
0.0
 11
531.26187100000004
 21
700.47605099999987
 31
0.0
  0
LINE
  5
E2
  8
0
  6
DASHDOT
 62
     7
 10
588.26187100000004
 20
722.47605099999998
 30
0.0
 11
588.26187100000004
 21
678.47605099999987
 31
0.0
  0
LINE
  5
E3
  8
0
  6
DASHDOT
 62
     7
 10
610.26187100000004
 20
700.47605099999987
 30
0.0
 11
566.26187100000004
 21
700.47605099999987
 31
0.0
  0
LINE
  5
E4
  8
0
  6
DASHDOT
 62
     7
 10
623.26187100000004
 20
722.47605099999998
 30
0.0
 11
623.26187100000004
 21
678.47605099999987
 31
0.0
  0
LINE
  5
E5
  8
0
  6
DASHDOT
 62
     7
 10
645.26187100000004
 20
700.47605099999987
 30
0.0
 11
601.26187100000004
 21
700.47605099999987
 31
0.0
  0
LINE
  5
E6
  8
0
  6
DASHDOT
 62
     7
 10
623.26187100000004
 20
579.47605099999987
 30
0.0
 11
623.26187100000004
 21
535.47605099999998
 31
0.0
  0
LINE
  5
E7
  8
0
  6
DASHDOT
 62
     7
 10
645.26187100000004
 20
557.47605099999987
 30
0.0
 11
601.26187100000004
 21
557.47605099999987
 31
0.0
  0
LINE
  5
E8
  8
0
  6
DASHDOT
 62
     7
 10
588.26187100000004
 20
579.47605099999987
 30
0.0
 11
588.26187100000004
 21
535.47605099999998
 31
0.0
  0
LINE
  5
E9
  8
0
  6
DASHDOT
 62
     7
 10
610.26187100000004
 20
557.47605099999987
 30
0.0
 11
566.26187100000004
 21
557.47605099999987
 31
0.0
  0
LINE
  5
EA
  8
0
  6
DASHDOT
 62
     7
 10
553.26187100000004
 20
579.47605099999987
 30
0.0
 11
553.26187100000004
 21
535.47605099999998
 31
0.0
  0
LINE
  5
EB
  8
0
  6
DASHDOT
 62
     7
 10
575.26187100000004
 20
557.47605099999987
 30
0.0
 11
531.26187100000004
 21
557.47605099999987
 31
0.0
  0
LINE
  5
EC
  8
0
  6
DASHDOT
 62
     7
 10
518.26187100000004
 20
579.47605099999987
 30
0.0
 11
518.26187100000004
 21
535.47605099999998
 31
0.0
  0
LINE
  5
ED
  8
0
  6
DASHDOT
 62
     7
 10
540.26187100000004
 20
557.47605099999987
 30
0.0
 11
496.26187099999999
 21
557.47605099999987
 31
0.0
  0
CIRCLE
  5
EE
  8
0
 62
     7
 10
628.80853300000001
 20
662.68268199999989
 30
0.0
 40
0.3
  0
LINE
  5
EF
  8
0
 62
     7
 10
588.26187100000004
 20
487.66596199999998
 30
0.0
 11
600.07961999999986
 21
485.58219100000002
 31
0.0
  0
LINE
  5
F0
  8
0
 62
     7
 10
588.26187100000004
 20
487.66596199999998
 30
0.0
 11
600.07961999999986
 21
489.74973299999999
 31
0.0
  0
LINE
  5
F1
  8
0
 62
     7
 10
535.76187100000004
 20
487.66596199999998
 30
0.0
 11
523.94424400000003
 21
489.74973299999999
 31
0.0
  0
LINE
  5
F2
  8
0
 62
     7
 10
535.76187100000004
 20
487.66596199999998
 30
0.0
 11
523.94424400000003
 21
485.58219100000002
 31
0.0
  0
LINE
  5
F3
  8
0
 62
     7
 10
588.26187100000004
 20
487.66596199999998
 30
0.0
 11
535.76187100000004
 21
487.66596199999998
 31
0.0
  0
LINE
  5
F4
  8
0
 62
     7
 10
588.26187100000004
 20
479.66596199999998
 30
0.0
 11
588.26187100000004
 21
500.41440599999987
 31
0.0
  0
LINE
  5
F5
  8
0
 62
     7
 10
535.76187100000004
 20
479.66596199999998
 30
0.0
 11
535.76187100000004
 21
540.60108200000002
 31
0.0
  0
LINE
  5
F6
  8
0
 62
     7
 10
605.76187100000004
 20
594.248604
 30
0.0
 11
617.57949799999994
 21
592.16480300000001
 31
0.0
  0
LINE
  5
F7
  8
0
 62
     7
 10
605.76187100000004
 20
594.248604
 30
0.0
 11
617.57949799999994
 21
596.33237499999996
 31
0.0
  0
LINE
  5
F8
  8
0
 62
     7
 10
588.26187100000004
 20
594.248604
 30
0.0
 11
576.44412199999999
 21
596.33237499999996
 31
0.0
  0
LINE
  5
F9
  8
0
 62
     7
 10
588.26187100000004
 20
594.248604
 30
0.0
 11
576.44412199999999
 21
592.16480300000001
 31
0.0
  0
LINE
  5
FA
  8
0
 62
     7
 10
697.24258399999985
 20
594.248604
 30
0.0
 11
588.26187100000004
 21
594.248604
 31
0.0
  0
LINE
  5
FB
  8
0
 62
     7
 10
605.76187100000004
 20
586.248604
 30
0.0
 11
605.76187100000004
 21
709.45563499999992
 31
0.0
  0
LINE
  5
FC
  8
0
 62
     7
 10
588.26187100000004
 20
586.248604
 30
0.0
 11
588.26187100000004
 21
743.29703499999994
 31
0.0
  0
LINE
  5
FD
  8
0
 62
     5
 10
466.62905899999998
 20
698.47605099999998
 30
0.0
 11
464.54531900000001
 21
686.65836300000001
 31
0.0
  0
LINE
  5
FE
  8
0
 62
     5
 10
466.62905899999998
 20
698.47605099999998
 30
0.0
 11
468.71292099999999
 21
686.65836300000001
 31
0.0
  0
LINE
  5
FF
  8
0
 62
     5
 10
466.62905899999998
 20
626.72605099999987
 30
0.0
 11
468.71292099999999
 21
638.54373899999985
 31
0.0
  0
LINE
  5
100
  8
0
 62
     5
 10
466.62905899999998
 20
626.72605099999987
 30
0.0
 11
464.54531900000001
 21
638.54373899999985
 31
0.0
  0
LINE
  5
101
  8
0
 62
     5
 10
466.62905899999998
 20
698.47605099999998
 30
0.0
 11
466.62905899999998
 21
626.72605099999987
 31
0.0
  0
LINE
  5
102
  8
0
 62
     5
 10
458.62905899999993
 20
698.47605099999998
 30
0.0
 11
528.01187100000004
 21
698.47605099999998
 31
0.0
  0
LINE
  5
103
  8
0
 62
     5
 10
458.62905899999993
 20
626.72605099999987
 30
0.0
 11
481.08682299999998
 21
626.72605099999987
 31
0.0
  0
LINE
  5
104
  8
0
 62
     5
 10
435.22439600000001
 20
698.47605099999998
 30
0.0
 11
433.14065599999992
 21
686.65836300000001
 31
0.0
  0
LINE
  5
105
  8
0
 62
     5
 10
435.22439600000001
 20
698.47605099999998
 30
0.0
 11
437.30825800000002
 21
686.65836300000001
 31
0.0
  0
LINE
  5
106
  8
0
 62
     5
 10
435.22439600000001
 20
559.47605099999987
 30
0.0
 11
437.30825800000002
 21
571.29373899999985
 31
0.0
  0
LINE
  5
107
  8
0
 62
     5
 10
435.22439600000001
 20
559.47605099999987
 30
0.0
 11
433.14065599999992
 21
571.29373899999985
 31
0.0
  0
LINE
  5
108
  8
0
 62
     5
 10
435.22439600000001
 20
698.47605099999998
 30
0.0
 11
435.22439600000001
 21
559.47605099999987
 31
0.0
  0
LINE
  5
109
  8
0
 62
     5
 10
427.2243959999999
 20
698.47605099999998
 30
0.0
 11
528.01187100000004
 21
698.47606699999994
 31
0.0
  0
LINE
  5
10A
  8
0
 62
     5
 10
427.2243959999999
 20
559.47605099999987
 30
0.0
 11
528.01187100000004
 21
559.47605099999987
 31
0.0
  0
LINE
  5
10B
  8
0
 62
     5
 10
608.33804299999997
 20
558.51380199999994
 30
0.0
 11
618.67959599999995
 21
552.42667400000005
 31
0.0
  0
LINE
  5
10C
  8
0
 62
     5
 10
608.33804299999997
 20
558.51380199999994
 30
0.0
 11
620.13784799999996
 21
556.33078799999987
 31
0.0
  0
LINE
  5
10D
  8
0
 62
     5
 10
603.185699
 20
560.43830100000002
 30
0.0
 11
592.84414700000002
 21
566.52542900000003
 31
0.0
  0
LINE
  5
10E
  8
0
 62
     5
 10
603.185699
 20
560.43830100000002
 30
0.0
 11
591.38589499999989
 21
562.62131499999987
 31
0.0
  0
LINE
  5
10F
  8
0
 62
     5
 10
603.185699
 20
560.43830100000002
 30
0.0
 11
756.97170999999992
 21
502.99646799999988
 31
0.0
  0
LINE
  5
110
  8
0
 62
     7
 10
509.10623199999998
 20
708.23322299999995
 30
0.0
 11
501.43667599999992
 21
717.46240999999986
 31
0.0
  0
LINE
  5
111
  8
0
 62
     7
 10
509.10623199999998
 20
708.23322299999995
 30
0.0
 11
498.74258399999991
 21
714.28267699999992
 31
0.0
  0
LINE
  5
112
  8
0
 62
     7
 10
527.41751099999988
 20
692.71888000000001
 30
0.0
 11
535.08706700000005
 21
683.48969299999999
 31
0.0
  0
LINE
  5
113
  8
0
 62
     7
 10
527.41751099999988
 20
692.71888000000001
 30
0.0
 11
537.781158
 21
686.66942599999993
 31
0.0
  0
LINE
  5
114
  8
0
 62
     7
 10
527.41751099999988
 20
692.71888000000001
 30
0.0
 11
436.67153899999988
 21
769.60373699999991
 31
0.0
  0
LINE
  5
115
  8
0
 62
     7
 10
623.26187100000004
 20
757.83419000000004
 30
0.0
 11
635.07961999999986
 21
755.75041999999985
 31
0.0
  0
LINE
  5
116
  8
0
 62
     7
 10
623.26187100000004
 20
757.83419000000004
 30
0.0
 11
635.07961999999986
 21
759.91797599999995
 31
0.0
  0
POLYLINE
  5
117
  8
0
 62
     7
 66
     1
 10
0.0
 20
0.0
 30
0.0
 70
     1
  0
VERTEX
  5
BAC
  8
0
 62
     7
 10
586.26187100000004
 20
757.83419000000004
 30
0.0
  0
VERTEX
  5
BAD
  8
0
 62
     7
 10
586.84768700000006
 20
756.41997500000002
 30
0.0
  0
VERTEX
  5
BAE
  8
0
 62
     7
 10
588.26187100000004
 20
755.83419000000004
 30
0.0
  0
VERTEX
  5
BAF
  8
0
 62
     7
 10
589.67605599999979
 20
756.41997500000002
 30
0.0
  0
VERTEX
  5
BB0
  8
0
 62
     7
 10
590.26187100000004
 20
757.83419000000004
 30
0.0
  0
VERTEX
  5
BB1
  8
0
 62
     7
 10
589.67605599999979
 20
759.24840499999993
 30
0.0
  0
VERTEX
  5
BB2
  8
0
 62
     7
 10
588.26187100000004
 20
759.83419000000004
 30
0.0
  0
VERTEX
  5
BB3
  8
0
 62
     7
 10
586.84768700000006
 20
759.24840499999993
 30
0.0
  0
SEQEND
  5
BB4
  8
0
 62
     7
  0
POLYLINE
  5
121
  8
0
 62
     7
 66
     1
 10
0.0
 20
0.0
 30
0.0
 70
     1
  0
VERTEX
  5
BB5
  8
0
 62
     7
 10
551.26187100000004
 20
757.83419000000004
 30
0.0
  0
VERTEX
  5
BB6
  8
0
 62
     7
 10
551.84768699999995
 20
756.41997500000002
 30
0.0
  0
VERTEX
  5
BB7
  8
0
 62
     7
 10
553.26187100000004
 20
755.83419000000004
 30
0.0
  0
VERTEX
  5
BB8
  8
0
 62
     7
 10
554.6760559999999
 20
756.41997500000002
 30
0.0
  0
VERTEX
  5
BB9
  8
0
 62
     7
 10
555.26187100000004
 20
757.83419000000004
 30
0.0
  0
VERTEX
  5
BBA
  8
0
 62
     7
 10
554.6760559999999
 20
759.24840499999993
 30
0.0
  0
VERTEX
  5
BBB
  8
0
 62
     7
 10
553.26187100000004
 20
759.83419000000004
 30
0.0
  0
VERTEX
  5
BBC
  8
0
 62
     7
 10
551.84768699999995
 20
759.24840499999993
 30
0.0
  0
SEQEND
  5
BBD
  8
0
 62
     7
  0
LINE
  5
12B
  8
0
 62
     7
 10
518.26187100000004
 20
757.83419000000004
 30
0.0
 11
506.44412199999988
 21
759.91796099999999
 31
0.0
  0
LINE
  5
12C
  8
0
 62
     7
 10
518.26187100000004
 20
757.83419000000004
 30
0.0
 11
506.44412199999988
 21
755.750404
 31
0.0
  0
LINE
  5
12D
  8
0
 62
     7
 10
623.26187100000004
 20
757.83419000000004
 30
0.0
 11
518.26187100000004
 21
757.83419000000004
 31
0.0
  0
LINE
  5
12E
  8
0
 62
     7
 10
623.26187100000004
 20
765.83419000000004
 30
0.0
 11
623.26187100000004
 21
722.47605099999998
 31
0.0
  0
LINE
  5
12F
  8
0
 62
     7
 10
588.26187100000004
 20
765.83419000000004
 30
0.0
 11
588.26187100000004
 21
722.47605099999998
 31
0.0
  0
LINE
  5
130
  8
0
 62
     7
 10
553.26187100000004
 20
765.83419000000004
 30
0.0
 11
553.26187100000004
 21
722.47605099999998
 31
0.0
  0
LINE
  5
131
  8
0
 62
     7
 10
518.26187100000004
 20
765.83419000000004
 30
0.0
 11
518.26187100000004
 21
722.47605099999998
 31
0.0
  0
LINE
  5
132
  8
0
 62
     7
 10
671.07315099999994
 20
700.47605099999987
 30
0.0
 11
668.98940999999991
 21
688.65836300000001
 31
0.0
  0
LINE
  5
133
  8
0
 62
     7
 10
671.07315099999994
 20
700.47605099999987
 30
0.0
 11
673.15701300000001
 21
688.65836300000001
 31
0.0
  0
LINE
  5
134
  8
0
 62
     7
 10
671.07315099999994
 20
626.72605099999987
 30
0.0
 11
673.15701300000001
 21
638.54373899999985
 31
0.0
  0
LINE
  5
135
  8
0
 62
     7
 10
671.07315099999994
 20
626.72605099999987
 30
0.0
 11
668.98940999999991
 21
638.54373899999985
 31
0.0
  0
LINE
  5
136
  8
0
 62
     7
 10
671.07315099999994
 20
767.47605099999987
 30
0.0
 11
671.07327300000009
 21
626.72605099999987
 31
0.0
  0
LINE
  5
137
  8
0
 62
     7
 10
679.07315099999994
 20
700.47605099999987
 30
0.0
 11
644.25772099999995
 21
700.47605099999987
 31
0.0
  0
LINE
  5
138
  8
0
 62
     7
 10
696.43924000000004
 20
700.47605099999987
 30
0.0
 11
694.3554989999999
 21
688.65836300000001
 31
0.0
  0
LINE
  5
139
  8
0
 62
     7
 10
696.43924000000004
 20
700.47605099999987
 30
0.0
 11
698.52297999999985
 21
688.65836300000001
 31
0.0
  0
LINE
  5
13A
  8
0
 62
     7
 10
696.43924000000004
 20
557.47605099999987
 30
0.0
 11
698.52297999999985
 21
569.29373899999985
 31
0.0
  0
LINE
  5
13B
  8
0
 62
     7
 10
696.43924000000004
 20
557.47605099999987
 30
0.0
 11
694.3554989999999
 21
569.29373899999985
 31
0.0
  0
LINE
  5
13C
  8
0
 62
     7
 10
696.43924000000004
 20
700.47605099999987
 30
0.0
 11
696.43924000000004
 21
557.47605099999987
 31
0.0
  0
LINE
  5
13D
  8
0
 62
     7
 10
704.43924000000004
 20
700.47605099999987
 30
0.0
 11
645.26187100000004
 21
700.47605099999987
 31
0.0
  0
LINE
  5
13E
  8
0
 62
     7
 10
704.43924000000004
 20
557.47605099999987
 30
0.0
 11
645.26187100000004
 21
557.47605099999987
 31
0.0
  0
LINE
  5
13F
  8
0
 62
     7
 10
229.03734600000001
 20
546.77606600000001
 30
0.0
 11
195.96065899999999
 21
546.77606600000001
 31
0.0
  0
LINE
  5
140
  8
0
 62
     7
 10
229.03734600000001
 20
543.97606500000006
 30
0.0
 11
157.0373459999999
 21
543.97606500000006
 31
0.0
  0
LINE
  5
141
  8
0
 62
     7
 10
157.0373459999999
 20
565.47605099999998
 30
0.0
 11
157.0373459999999
 21
584.27028700000005
 31
0.0
  0
LINE
  5
142
  8
0
 62
     7
 10
157.0373459999999
 20
584.2702559999999
 30
0.0
 11
157.0373459999999
 21
692.47605099999987
 31
0.0
  0
LINE
  5
143
  8
0
  6
DASHDOT
 62
     7
 10
155.0373459999999
 20
565.47605099999998
 30
0.0
 11
155.0373459999999
 21
692.47605099999987
 31
0.0
  0
LINE
  5
144
  8
0
 62
     7
 10
225.537342
 20
642.97602800000004
 30
0.0
 11
225.53732299999999
 21
651.22605099999987
 31
0.0
  0
LINE
  5
145
  8
0
 62
     7
 10
228.03728699999999
 20
697.47605099999998
 30
0.0
 11
228.74440999999999
 21
697.76894400000003
 31
0.0
  0
LINE
  5
146
  8
0
 62
     7
 10
228.74442300000001
 20
697.76891299999988
 30
0.0
 11
229.03731499999989
 21
698.47602099999995
 31
0.0
  0
LINE
  5
147
  8
0
 62
     7
 10
225.53733099999991
 20
690.47605099999998
 30
0.0
 11
225.5373459999999
 21
697.47605099999998
 31
0.0
  0
LINE
  5
148
  8
0
 62
     7
 10
228.03731499999989
 20
697.47605099999998
 30
0.0
 11
225.5373459999999
 21
697.47605099999998
 31
0.0
  0
LINE
  5
149
  8
0
 62
     7
 10
225.53733099999991
 20
651.22605099999987
 30
0.0
 11
225.53733099999991
 21
690.47605099999998
 31
0.0
  0
LINE
  5
14A
  8
0
 62
     7
 10
221.03734600000001
 20
600.47605099999987
 30
0.0
 11
221.03734600000001
 21
640.97605099999987
 31
0.0
  0
LINE
  5
14B
  8
0
 62
     7
 10
221.03737599999991
 20
640.97610499999996
 30
0.0
 11
221.30532099999991
 21
641.97610499999985
 31
0.0
  0
LINE
  5
14C
  8
0
 62
     7
 10
221.30535499999999
 20
641.97614299999998
 30
0.0
 11
222.037395
 21
642.70819900000004
 31
0.0
  0
LINE
  5
14D
  8
0
 62
     7
 10
222.03729199999989
 20
642.70808399999999
 30
0.0
 11
223.037308
 21
642.97602800000004
 31
0.0
  0
LINE
  5
14E
  8
0
 62
     7
 10
229.03734600000001
 20
600.47605099999987
 30
0.0
 11
221.03734600000001
 21
600.47605099999987
 31
0.0
  0
LINE
  5
14F
  8
0
 62
     7
 10
229.03730399999989
 20
585.47603600000002
 30
0.0
 11
228.03722799999991
 21
586.47603600000002
 31
0.0
  0
LINE
  5
150
  8
0
 62
     7
 10
228.03725099999991
 20
597.47605899999985
 30
0.0
 11
229.03734199999991
 21
598.47605899999985
 31
0.0
  0
LINE
  5
151
  8
0
 62
     7
 10
228.037237
 20
597.47602099999995
 30
0.0
 11
165.26943199999991
 21
597.47602099999995
 31
0.0
  0
LINE
  5
152
  8
0
 62
     7
 10
228.03725199999991
 20
586.47605099999987
 30
0.0
 11
165.269386
 21
586.47605099999987
 31
0.0
  0
LINE
  5
153
  8
0
 62
     7
 10
165.2694239999999
 20
597.47600599999998
 30
0.0
 11
161.53733799999989
 21
598.47602099999995
 31
0.0
  0
LINE
  5
154
  8
0
 62
     7
 10
161.53737599999991
 20
598.47601299999985
 30
0.0
 11
158.03733799999989
 21
599.41384900000003
 31
0.0
  0
LINE
  5
155
  8
0
 62
     7
 10
157.0373459999999
 20
584.27028700000005
 30
0.0
 11
165.269386
 21
586.47605099999987
 31
0.0
  0
LINE
  5
156
  8
0
 62
     7
 10
157.037361
 20
601.770355
 30
0.0
 11
158.03735399999999
 21
602.03830000000005
 31
0.0
  0
LINE
  5
157
  8
0
 62
     7
 10
161.0373459999999
 20
577.97603600000002
 30
0.0
 11
157.0373459999999
 21
577.97603600000002
 31
0.0
  0
LINE
  5
158
  8
0
 62
     7
 10
161.0373459999999
 20
570.45925899999986
 30
0.0
 11
161.0373459999999
 21
577.97603600000002
 31
0.0
  0
LINE
  5
159
  8
0
 62
     7
 10
158.0373459999999
 20
584.53821600000003
 30
0.0
 11
158.0373459999999
 21
628.97603600000002
 31
0.0
  0
LINE
  5
15A
  8
0
 62
     7
 10
161.5373459999999
 20
598.47605099999998
 30
0.0
 11
161.5373459999999
 21
623.47605099999998
 31
0.0
  0
LINE
  5
15B
  8
0
 62
     7
 10
160.0373459999999
 20
628.97603600000002
 30
0.0
 11
157.0373459999999
 21
628.97603600000002
 31
0.0
  0
LINE
  5
15C
  8
0
 62
     7
 10
160.78735399999991
 20
628.77507000000003
 30
0.0
 11
160.03735399999991
 21
628.97602800000004
 31
0.0
  0
LINE
  5
15D
  8
0
 62
     7
 10
160.78735399999991
 20
628.77507000000003
 30
0.0
 11
160.03735399999991
 21
628.97602800000004
 31
0.0
  0
LINE
  5
15E
  8
0
 62
     7
 10
161.336388
 20
628.22602099999995
 30
0.0
 11
160.7873459999999
 21
628.77506300000005
 31
0.0
  0
LINE
  5
15F
  8
0
 62
     7
 10
161.53733099999999
 20
627.47600599999998
 30
0.0
 11
161.3363719999999
 21
628.22600599999987
 31
0.0
  0
LINE
  5
160
  8
0
 62
     7
 10
161.53736099999989
 20
623.47603600000002
 30
0.0
 11
161.53736099999989
 21
627.47602099999995
 31
0.0
  0
LINE
  5
161
  8
0
 62
     7
 10
161.3363949999999
 20
622.72602800000004
 30
0.0
 11
161.4316179999999
 21
623.08140600000002
 31
0.0
  0
LINE
  5
162
  8
0
 62
     7
 10
161.43161000000001
 20
623.08139800000004
 30
0.0
 11
161.53735399999999
 21
623.47603600000002
 31
0.0
  0
LINE
  5
163
  8
0
 62
     7
 10
160.7873459999999
 20
622.1769559999999
 30
0.0
 11
161.336388
 21
622.725998
 31
0.0
  0
LINE
  5
164
  8
0
 62
     7
 10
160.03733099999991
 20
621.97601299999997
 30
0.0
 11
160.78733099999999
 21
622.17697099999998
 31
0.0
  0
LINE
  5
165
  8
0
 62
     7
 10
160.0373459999999
 20
621.97603600000002
 30
0.0
 11
158.0373459999999
 21
621.97603600000002
 31
0.0
  0
LINE
  5
166
  8
0
 62
     7
 10
164.33635699999991
 20
586.226044
 30
0.0
 11
161.5373229999999
 21
586.976044
 31
0.0
  0
LINE
  5
167
  8
0
 62
     7
 10
161.53731499999989
 20
586.97605099999987
 30
0.0
 11
161.53731499999989
 21
596.97605099999987
 31
0.0
  0
LINE
  5
168
  8
0
 62
     7
 10
161.53731499999989
 20
596.97603600000002
 30
0.0
 11
164.3363719999999
 21
597.72603600000002
 31
0.0
  0
LINE
  5
169
  8
0
 62
     7
 10
161.3363949999999
 20
622.19673899999987
 30
0.0
 11
161.53735399999999
 21
623.08141299999988
 31
0.0
  0
LINE
  5
16A
  8
0
 62
     7
 10
161.5373459999999
 20
623.08141299999988
 30
0.0
 11
161.43160199999991
 21
623.08141299999988
 31
0.0
  0
LINE
  5
16B
  8
0
 62
     7
 10
161.40336600000001
 20
608.97602800000004
 30
0.0
 11
161.53733799999989
 21
609.07548499999984
 31
0.0
  0
LINE
  5
16C
  8
0
 62
     7
 10
161.403381
 20
608.97599000000002
 30
0.0
 11
161.336388
 21
609.02571899999998
 31
0.0
  0
LINE
  5
16D
  8
0
 62
     7
 10
161.5373459999999
 20
618.97605099999998
 30
0.0
 11
161.33637999999991
 21
618.97605099999998
 31
0.0
  0
LINE
  5
16E
  8
0
 62
     7
 10
161.33637999999991
 20
612.92626199999995
 30
0.0
 11
161.40336600000001
 21
612.97599000000002
 31
0.0
  0
LINE
  5
16F
  8
0
 62
     7
 10
161.5373459999999
 20
612.87656399999992
 30
0.0
 11
161.4033739999999
 21
612.97602099999995
 31
0.0
  0
LINE
  5
170
  8
0
 62
     7
 10
161.445549
 20
620.69812000000002
 30
0.0
 11
161.33637999999991
 21
621.30789200000004
 31
0.0
  0
LINE
  5
171
  8
0
 62
     7
 10
161.5373459999999
 20
618.97605099999998
 30
0.0
 11
161.44555700000001
 21
620.69812799999988
 31
0.0
  0
LINE
  5
172
  8
0
 62
     7
 10
161.33637999999991
 20
609.02574899999991
 30
0.0
 11
160.821022
 21
609.12825799999985
 31
0.0
  0
LINE
  5
173
  8
0
 62
     7
 10
160.821022
 20
609.12826500000006
 30
0.0
 11
160.7873459999999
 21
609.15077199999996
 31
0.0
  0
LINE
  5
174
  8
0
 62
     7
 10
160.78733099999999
 20
612.8012769999998
 30
0.0
 11
160.82100700000001
 21
612.82378399999993
 31
0.0
  0
LINE
  5
175
  8
0
 62
     7
 10
160.82101399999991
 20
612.82377599999995
 30
0.0
 11
161.3363719999999
 21
612.92628499999989
 31
0.0
  0
LINE
  5
176
  8
0
 62
     7
 10
161.33637999999991
 20
618.97605099999998
 30
0.0
 11
160.7873459999999
 21
618.97605099999998
 31
0.0
  0
LINE
  5
177
  8
0
 62
     7
 10
160.78733799999989
 20
609.150757
 30
0.0
 11
160.03733799999989
 21
609.285034
 31
0.0
  0
LINE
  5
178
  8
0
 62
     7
 10
160.03733799999989
 20
612.6669999999998
 30
0.0
 11
160.78733799999989
 21
612.8012769999998
 31
0.0
  0
LINE
  5
179
  8
0
 62
     7
 10
160.7873459999999
 20
618.97605099999998
 30
0.0
 11
160.0373459999999
 21
618.97605099999998
 31
0.0
  0
LINE
  5
17A
  8
0
 62
     7
 10
160.0373459999999
 20
612.66701499999988
 30
0.0
 11
158.0373459999999
 21
612.66701499999988
 31
0.0
  0
LINE
  5
17B
  8
0
 62
     7
 10
160.0373459999999
 20
618.97605099999998
 30
0.0
 11
158.0373459999999
 21
618.97605099999998
 31
0.0
  0
LINE
  5
17C
  8
0
 62
     7
 10
160.0373459999999
 20
609.28505700000005
 30
0.0
 11
158.0373459999999
 21
609.28505700000005
 31
0.0
  0
LINE
  5
17D
  8
0
 62
     3
 10
254.03734600000001
 20
713.97605099999998
 30
0.0
 11
157.0373459999999
 21
713.97605099999998
 31
0.0
  0
LINE
  5
17E
  8
0
 62
     3
 10
251.23734300000001
 20
711.17606399999988
 30
0.0
 11
222.5737419999999
 21
711.17606399999988
 31
0.0
  0
LINE
  5
17F
  8
0
 62
     3
 10
251.23734300000001
 20
546.77606600000001
 30
0.0
 11
229.03734600000001
 21
546.77606600000001
 31
0.0
  0
LINE
  5
180
  8
0
 62
     3
 10
254.03734600000001
 20
543.97606699999994
 30
0.0
 11
229.03734600000001
 21
543.97606699999994
 31
0.0
  0
LINE
  5
181
  8
0
 62
     3
 10
229.03734600000001
 20
543.97606699999994
 30
0.0
 11
229.03734600000001
 21
586.22605099999987
 31
0.0
  0
LINE
  5
182
  8
0
 62
     3
 10
229.03734600000001
 20
597.72603600000002
 30
0.0
 11
229.03734600000001
 21
600.47611199999994
 31
0.0
  0
LINE
  5
183
  8
0
 62
     3
 10
229.03734600000001
 20
698.47609699999987
 30
0.0
 11
229.03734600000001
 21
713.97605099999998
 31
0.0
  0
LINE
  5
184
  8
0
 62
     3
 10
258.53734600000001
 20
641.92491900000005
 30
0.0
 11
258.53734600000001
 21
651.475731
 31
0.0
  0
LINE
  5
185
  8
0
 62
     3
 10
258.53733799999992
 20
584.47575400000005
 30
0.0
 11
258.53729199999992
 21
591.02647400000001
 31
0.0
  0
LINE
  5
186
  8
0
 62
     3
 10
254.03734600000001
 20
689.72605099999987
 30
0.0
 11
254.03734600000001
 21
713.97605099999998
 31
0.0
  0
LINE
  5
187
  8
0
 62
     3
 10
254.03734600000001
 20
697.72606699999994
 30
0.0
 11
251.23734300000001
 21
697.72606699999994
 31
0.0
  0
LINE
  5
188
  8
0
 62
     3
 10
254.03734600000001
 20
543.97606699999994
 30
0.0
 11
254.03734600000001
 21
568.72606699999994
 31
0.0
  0
LINE
  5
189
  8
0
 62
     3
 10
254.03734600000001
 20
560.22606699999994
 30
0.0
 11
251.23734300000001
 21
560.22606699999994
 31
0.0
  0
LINE
  5
18A
  8
0
 62
     3
 10
251.23734300000001
 20
546.77607
 30
0.0
 11
251.23734300000001
 21
568.72607000000005
 31
0.0
  0
LINE
  5
18B
  8
0
 62
     3
 10
251.2373399999999
 20
597.72605099999987
 30
0.0
 11
229.03734199999991
 21
597.72605099999987
 31
0.0
  0
LINE
  5
18C
  8
0
 62
     3
 10
251.2373399999999
 20
586.22605099999987
 30
0.0
 11
229.03734399999991
 21
586.22605099999987
 31
0.0
  0
LINE
  5
18D
  8
0
 62
     1
 10
256.53734500000002
 20
689.72605099999987
 30
0.0
 11
251.23734300000001
 21
689.72605099999987
 31
0.0
  0
LINE
  5
18E
  8
0
 62
     1
 10
260.49441799999988
 20
679.07967400000007
 30
0.0
 11
260.46409799999992
 21
679.15288499999986
 31
0.0
  0
LINE
  5
18F
  8
0
 62
     1
 10
260.46413200000001
 20
679.15280899999993
 30
0.0
 11
260.28735599999987
 21
679.22602099999995
 31
0.0
  0
LINE
  5
190
  8
0
 62
     1
 10
254.03734600000001
 20
568.72606699999994
 30
0.0
 11
253.5373459999999
 21
568.72606699999994
 31
0.0
  0
LINE
  5
191
  8
0
 62
     1
 10
256.53734500000002
 20
568.72609299999988
 30
0.0
 11
251.23734300000001
 21
568.72609299999988
 31
0.0
  0
LINE
  5
192
  8
0
 62
     2
 10
267.538656
 20
574.72605099999998
 30
0.0
 11
267.538656
 21
576.72605099999987
 31
0.0
  0
LINE
  5
193
  8
0
 62
     2
 10
258.53865599999989
 20
574.22605099999998
 30
0.0
 11
258.53865599999989
 21
679.22605099999998
 31
0.0
  0
LINE
  5
194
  8
0
 62
     2
 10
262.03733599999993
 20
679.22605099999998
 30
0.0
 11
256.53734500000002
 21
679.22605099999998
 31
0.0
  0
LINE
  5
195
  8
0
 62
     2
 10
262.03733599999993
 20
574.22605099999998
 30
0.0
 11
256.53734500000002
 21
574.22605099999998
 31
0.0
  0
LINE
  5
196
  8
0
 62
     2
 10
267.538454
 20
606.72602800000004
 30
0.0
 11
267.53850699999992
 21
626.22602800000004
 31
0.0
  0
LINE
  5
197
  8
0
 62
     7
 10
225.53733799999989
 20
642.97602800000004
 30
0.0
 11
223.037308
 21
642.97602800000004
 31
0.0
  0
LINE
  5
198
  8
0
 62
     7
 10
256.53734500000002
 20
679.22605099999998
 30
0.0
 11
256.53734500000002
 21
689.72605099999987
 31
0.0
  0
LINE
  5
199
  8
0
 62
     7
 10
256.53734500000002
 20
568.72606699999994
 30
0.0
 11
256.53734500000002
 21
574.22605099999998
 31
0.0
  0
LINE
  5
19A
  8
0
 62
     3
 10
251.23734300000001
 20
689.72605099999987
 30
0.0
 11
251.23734300000001
 21
711.17606399999988
 31
0.0
  0
LINE
  5
19B
  8
0
 62
     3
 10
251.23734300000001
 20
568.72607000000005
 30
0.0
 11
251.23734300000001
 21
689.72605099999987
 31
0.0
  0
ARC
  5
19C
  8
0
 62
     7
 10
288.21338700000001
 20
604.68216699999994
 30
0.0
 40
1.0
 50
348.62360999999993
 51
76.688818000000012
  0
ARC
  5
19D
  8
0
 62
     7
 10
287.01664399999993
 20
598.73435199999994
 30
0.0
 40
1.000000999999999
 50
260.59401500000001
 51
348.62360999999993
  0
LINE
  5
19E
  8
0
  6
DASHDOT
 62
     7
 10
303.01397300000002
 20
598.57351700000004
 30
0.0
 11
252.8972819999999
 21
608.65733299999999
 31
0.0
  0
LINE
  5
19F
  8
0
 62
     7
 10
288.44362399999989
 20
605.65530399999989
 30
0.0
 11
267.53846499999992
 21
610.60137899999995
 31
0.0
  0
LINE
  5
1A0
  8
0
 62
     7
 10
287.99699800000002
 20
598.53709400000002
 30
0.0
 11
289.19373899999988
 21
604.48491699999988
 31
0.0
  0
LINE
  5
1A1
  8
0
 62
     7
 10
286.85321599999997
 20
597.74779499999988
 30
0.0
 11
267.53851500000002
 21
600.94739500000003
 31
0.0
  0
LINE
  5
1A2
  8
0
  6
DASHDOT
 62
     7
 10
152.0373459999999
 20
565.47605099999998
 30
0.0
 11
152.0373459999999
 21
692.47605099999987
 31
0.0
  0
LINE
  5
1A3
  8
0
 62
     7
 10
191.9366379999999
 20
690.47605099999998
 30
0.0
 11
179.93632500000001
 21
690.47605099999998
 31
0.0
  0
LINE
  5
1A4
  8
0
 62
     7
 10
191.6361389999999
 20
687.97605099999987
 30
0.0
 11
179.36747700000001
 21
687.97605099999987
 31
0.0
  0
LINE
  5
1A5
  8
0
 62
     7
 10
166.0373459999999
 20
683.91049999999996
 30
0.0
 11
166.0373459999999
 21
687.97605099999987
 31
0.0
  0
LINE
  5
1A6
  8
0
 62
     7
 10
170.0373459999999
 20
683.91049999999996
 30
0.0
 11
170.0373459999999
 21
687.97605099999987
 31
0.0
  0
LINE
  5
1A7
  8
0
 62
     7
 10
180.0373459999999
 20
687.97605099999987
 30
0.0
 11
180.0373459999999
 21
690.47605099999998
 31
0.0
  0
LINE
  5
1A8
  8
0
 62
     7
 10
172.48579399999991
 20
687.97605099999987
 30
0.0
 11
166.0373459999999
 21
687.97605099999987
 31
0.0
  0
POLYLINE
  5
1A9
  8
0
 62
     3
 66
     1
 10
0.0
 20
0.0
 30
0.0
  0
VERTEX
  5
BBE
  8
0
 62
     3
 10
192.2752909999999
 20
683.91049999999996
 30
0.0
  0
VERTEX
  5
BBF
  8
0
 62
     3
 10
176.2752909999999
 20
683.91049999999996
 30
0.0
  0
VERTEX
  5
BC0
  8
0
 62
     3
 10
175.2752909999999
 20
681.91049999999996
 30
0.0
  0
VERTEX
  5
BC1
  8
0
 62
     3
 10
174.2752909999999
 20
685.91049999999996
 30
0.0
  0
VERTEX
  5
BC2
  8
0
 62
     3
 10
173.2752909999999
 20
683.91049999999996
 30
0.0
  0
VERTEX
  5
BC3
  8
0
 62
     3
 10
157.2752909999999
 20
683.91049999999996
 30
0.0
  0
VERTEX
  5
BC4
  8
0
 62
     3
 10
156.2752909999999
 20
681.91049999999996
 30
0.0
  0
VERTEX
  5
BC5
  8
0
 62
     3
 10
155.2752909999999
 20
685.91049999999996
 30
0.0
  0
VERTEX
  5
BC6
  8
0
 62
     3
 10
154.2752909999999
 20
683.91049999999996
 30
0.0
  0
VERTEX
  5
BC7
  8
0
 62
     3
 10
149.80850199999989
 20
683.91049999999996
 30
0.0
  0
SEQEND
  5
BC8
  8
0
 62
     3
  0
LINE
  5
1B5
  8
0
 62
     7
 10
180.0373459999999
 20
709.47605099999998
 30
0.0
 11
175.0373459999999
 21
709.47605099999998
 31
0.0
  0
LINE
  5
1B6
  8
0
 62
     7
 10
180.0373459999999
 20
690.47605099999998
 30
0.0
 11
180.0373459999999
 21
709.47605099999998
 31
0.0
  0
LINE
  5
1B7
  8
0
 62
     7
 10
174.46012899999999
 20
682.91049999999996
 30
0.0
 11
178.5366129999999
 21
686.90462500000001
 31
0.0
  0
LINE
  5
1B8
  8
0
 62
     7
 10
171.53807800000001
 20
687.04747800000007
 30
0.0
 11
175.0373459999999
 21
690.47605099999998
 31
0.0
  0
ARC
  5
1B9
  8
0
 62
     7
 10
175.0373459999999
 20
683.47605099999987
 30
0.0
 40
4.999998999999999
 50
134.41529800000001
 51
180.00000299999991
  0
ARC
  5
1BA
  8
0
 62
     7
 10
175.0373459999999
 20
690.47605099999998
 30
0.0
 40
5.0
 50
314.41529300000002
 51
0.000001
  0
LINE
  5
1BB
  8
0
  6
DASHDOT
 62
     7
 10
186.36996499999989
 20
700.47605099999987
 30
0.0
 11
169.71031999999991
 21
700.47605099999987
 31
0.0
  0
LINE
  5
1BC
  8
0
 62
     7
 10
175.0373459999999
 20
567.47606299999995
 30
0.0
 11
157.0373459999999
 21
567.47606299999995
 31
0.0
  0
LINE
  5
1BD
  8
0
 62
     7
 10
171.0373459999999
 20
567.47606299999995
 30
0.0
 11
171.0373459999999
 21
570.45925899999986
 31
0.0
  0
LINE
  5
1BE
  8
0
 62
     7
 10
175.0373459999999
 20
567.47606299999995
 30
0.0
 11
175.0373459999999
 21
570.45925899999986
 31
0.0
  0
LINE
  5
1BF
  8
0
 62
     7
 10
181.0373459999999
 20
567.47606299999995
 30
0.0
 11
181.0373459999999
 21
570.45925899999986
 31
0.0
  0
LINE
  5
1C0
  8
0
 62
     7
 10
194.91520700000001
 20
567.47606299999995
 30
0.0
 11
181.0373459999999
 21
567.47606299999995
 31
0.0
  0
POLYLINE
  5
1C1
  8
0
 62
     3
 66
     1
 10
0.0
 20
0.0
 30
0.0
  0
VERTEX
  5
BC9
  8
0
 62
     3
 10
194.7645379999999
 20
570.45925899999986
 30
0.0
  0
VERTEX
  5
BCA
  8
0
 62
     3
 10
178.764534
 20
570.45925899999986
 30
0.0
  0
VERTEX
  5
BCB
  8
0
 62
     3
 10
177.764534
 20
568.45925899999997
 30
0.0
  0
VERTEX
  5
BCC
  8
0
 62
     3
 10
176.764534
 20
572.45925899999986
 30
0.0
  0
VERTEX
  5
BCD
  8
0
 62
     3
 10
175.764534
 20
570.45925899999986
 30
0.0
  0
VERTEX
  5
BCE
  8
0
 62
     3
 10
159.76453399999991
 20
570.45925899999986
 30
0.0
  0
VERTEX
  5
BCF
  8
0
 62
     3
 10
158.76453399999991
 20
568.45925899999997
 30
0.0
  0
VERTEX
  5
BD0
  8
0
 62
     3
 10
157.764534
 20
572.45925899999986
 30
0.0
  0
VERTEX
  5
BD1
  8
0
 62
     3
 10
156.764534
 20
570.45925899999986
 30
0.0
  0
VERTEX
  5
BD2
  8
0
 62
     3
 10
155.64952099999999
 20
570.45925899999986
 30
0.0
  0
SEQEND
  5
BD3
  8
0
 62
     3
  0
LINE
  5
1CD
  8
0
 62
     7
 10
180.0373459999999
 20
548.47606500000006
 30
0.0
 11
180.0373459999999
 21
569.47606299999995
 31
0.0
  0
LINE
  5
1CE
  8
0
 62
     7
 10
178.0373459999999
 20
548.47606500000006
 30
0.0
 11
175.0373459999999
 21
548.47606500000006
 31
0.0
  0
LINE
  5
1CF
  8
0
 62
     7
 10
178.0373459999999
 20
552.22607800000003
 30
0.0
 11
178.0373459999999
 21
570.45925899999986
 31
0.0
  0
LINE
  5
1D0
  8
0
 62
     7
 10
178.0373459999999
 20
548.47606500000006
 30
0.0
 11
178.0373459999999
 21
553.22606299999995
 31
0.0
  0
LINE
  5
1D1
  8
0
 62
     7
 10
175.0373459999999
 20
548.47606500000006
 30
0.0
 11
175.0373459999999
 21
570.45925899999986
 31
0.0
  0
LINE
  5
1D2
  8
0
 62
     7
 10
180.0373459999999
 20
548.47606500000006
 30
0.0
 11
178.0373459999999
 21
548.47606500000006
 31
0.0
  0
LINE
  5
1D3
  8
0
 62
     7
 10
180.0373459999999
 20
569.47606299999995
 30
0.0
 11
178.0373459999999
 21
569.47606299999995
 31
0.0
  0
LINE
  5
1D4
  8
0
  6
DASHDOT
 62
     7
 10
186.36996499999989
 20
557.47605099999987
 30
0.0
 11
169.71031999999991
 21
557.47605099999987
 31
0.0
  0
LINE
  5
1D5
  8
0
 62
     7
 10
180.0373459999999
 20
561.57605000000001
 30
0.0
 11
175.0373459999999
 21
561.57605000000001
 31
0.0
  0
LINE
  5
1D6
  8
0
 62
     7
 10
180.0373459999999
 20
553.37605300000007
 30
0.0
 11
175.0373459999999
 21
553.37605300000007
 31
0.0
  0
ARC
  5
1D7
  8
0
  6
DASHDOT
 62
     7
 10
214.03814299999999
 20
616.47605099999987
 30
0.0
 40
76.044273000000004
 50
337.49231500000002
 51
0.000001
  0
LINE
  5
1D8
  8
0
  6
DASHDOT
 62
     7
 10
290.08241299999992
 20
616.47605099999987
 30
0.0
 11
290.08241299999992
 21
622.22625000000005
 31
0.0
  0
LINE
  5
1D9
  8
0
 62
     7
 10
180.0373459999999
 20
704.67604800000004
 30
0.0
 11
175.0373459999999
 21
704.67604800000004
 31
0.0
  0
LINE
  5
1DA
  8
0
 62
     7
 10
180.0373459999999
 20
696.27605400000004
 30
0.0
 11
175.0373459999999
 21
696.27605400000004
 31
0.0
  0
LINE
  5
1DB
  8
0
 62
     7
 10
161.28156299999989
 20
721.62094899999988
 30
0.0
 11
144.46487400000001
 21
723.91413099999988
 31
0.0
  0
LINE
  5
1DC
  8
0
 62
     7
 10
161.28156299999989
 20
531.28658799999994
 30
0.0
 11
145.99365999999989
 21
533.57977300000005
 31
0.0
  0
LINE
  5
1DD
  8
0
 62
     1
 10
262.03733599999993
 20
571.71961599999986
 30
0.0
 11
262.03733599999993
 21
573.71961599999986
 31
0.0
  0
LINE
  5
1DE
  8
0
 62
     1
 10
264.03733599999993
 20
571.71961599999986
 30
0.0
 11
262.03733599999993
 21
571.71961599999986
 31
0.0
  0
LINE
  5
1DF
  8
0
 62
     1
 10
262.03733599999993
 20
679.71961199999987
 30
0.0
 11
262.03733599999993
 21
681.71961199999998
 31
0.0
  0
LINE
  5
1E0
  8
0
 62
     1
 10
264.03733599999993
 20
681.71961199999998
 30
0.0
 11
262.03733599999993
 21
681.71961199999998
 31
0.0
  0
LINE
  5
1E1
  8
0
 62
     1
 10
262.03733599999993
 20
573.71961599999986
 30
0.0
 11
262.03733599999993
 21
679.71961199999987
 31
0.0
  0
LINE
  5
1E2
  8
0
 62
     1
 10
257.53733699999998
 20
695.29695900000002
 30
0.0
 11
257.53733699999998
 21
700.14226500000007
 31
0.0
  0
LINE
  5
1E3
  8
0
 62
     1
 10
257.53733699999998
 20
553.29696699999988
 30
0.0
 11
257.53733699999998
 21
558.14226499999995
 31
0.0
  0
LINE
  5
1E4
  8
0
 62
     1
 10
264.03733599999993
 20
545.21961599999986
 30
0.0
 11
264.03733599999993
 21
708.21961199999987
 31
0.0
  0
LINE
  5
1E5
  8
0
 62
     1
 10
267.53733599999998
 20
545.21961599999986
 30
0.0
 11
264.03733599999993
 21
545.21961599999986
 31
0.0
  0
LINE
  5
1E6
  8
0
 62
     1
 10
267.53733599999998
 20
545.21961199999987
 30
0.0
 11
267.53733599999998
 21
708.21961199999987
 31
0.0
  0
LINE
  5
1E7
  8
0
 62
     1
 10
267.53733599999998
 20
708.21961199999987
 30
0.0
 11
266.53733599999993
 21
708.21961199999987
 31
0.0
  0
LINE
  5
1E8
  8
0
 62
     1
 10
265.53733599999998
 20
708.21961199999987
 30
0.0
 11
264.03733599999993
 21
708.21961199999987
 31
0.0
  0
LINE
  5
1E9
  8
0
 62
     1
 10
264.03733599999993
 20
694.71961199999998
 30
0.0
 11
258.53733699999998
 21
694.71961199999998
 31
0.0
  0
LINE
  5
1EA
  8
0
 62
     1
 10
264.03733599999993
 20
700.71961199999987
 30
0.0
 11
258.53733699999998
 21
700.71961199999987
 31
0.0
  0
LINE
  5
1EB
  8
0
 62
     1
 10
258.53733699999998
 20
694.71961199999998
 30
0.0
 11
257.53733699999998
 21
695.29695900000002
 31
0.0
  0
LINE
  5
1EC
  8
0
 62
     1
 10
258.53733699999998
 20
694.71961199999998
 30
0.0
 11
258.53733699999998
 21
695.59828900000002
 31
0.0
  0
LINE
  5
1ED
  8
0
 62
     1
 10
258.53733699999998
 20
695.59828900000002
 30
0.0
 11
258.53733699999998
 21
696.57157099999995
 31
0.0
  0
LINE
  5
1EE
  8
0
 62
     1
 10
258.53733699999998
 20
696.57157099999995
 30
0.0
 11
258.53733699999998
 21
697.71961199999998
 31
0.0
  0
LINE
  5
1EF
  8
0
 62
     1
 10
258.53733699999998
 20
697.71961199999998
 30
0.0
 11
258.53733699999998
 21
698.86766799999998
 31
0.0
  0
LINE
  5
1F0
  8
0
 62
     1
 10
258.53733699999998
 20
698.86766799999998
 30
0.0
 11
258.53733699999998
 21
700.71961199999987
 31
0.0
  0
LINE
  5
1F1
  8
0
 62
     1
 10
258.53733699999998
 20
699.84093499999994
 30
0.0
 11
258.53733699999998
 21
700.49124900000004
 31
0.0
  0
LINE
  5
1F2
  8
0
 62
     1
 10
258.03733699999998
 20
700.49124900000004
 30
0.0
 11
258.03733699999998
 21
700.71961199999987
 31
0.0
  0
LINE
  5
1F3
  8
0
 62
     1
 10
257.53733599999993
 20
700.14226500000007
 30
0.0
 11
258.53733599999993
 21
700.71961199999987
 31
0.0
  0
LINE
  5
1F4
  8
0
 62
     1
 10
264.03733599999993
 20
558.71961599999986
 30
0.0
 11
258.53733699999998
 21
558.71961599999986
 31
0.0
  0
LINE
  5
1F5
  8
0
 62
     1
 10
264.03733599999993
 20
552.71961599999986
 30
0.0
 11
258.53733699999998
 21
552.71961599999986
 31
0.0
  0
LINE
  5
1F6
  8
0
 62
     1
 10
257.53733599999993
 20
558.14226499999995
 30
0.0
 11
258.53733599999993
 21
558.71961599999986
 31
0.0
  0
LINE
  5
1F7
  8
0
 62
     1
 10
258.53733699999998
 20
557.84093499999994
 30
0.0
 11
258.53733699999998
 21
558.71961599999986
 31
0.0
  0
LINE
  5
1F8
  8
0
 62
     1
 10
258.53733699999998
 20
556.86766799999998
 30
0.0
 11
258.53733699999998
 21
557.84093499999994
 31
0.0
  0
LINE
  5
1F9
  8
0
 62
     1
 10
258.53733699999998
 20
555.71961599999997
 30
0.0
 11
258.53733699999998
 21
556.86766799999998
 31
0.0
  0
LINE
  5
1FA
  8
0
 62
     1
 10
258.53733699999998
 20
554.57156799999996
 30
0.0
 11
258.53733699999998
 21
555.71961599999997
 31
0.0
  0
LINE
  5
1FB
  8
0
 62
     1
 10
258.53733699999998
 20
553.598297
 30
0.0
 11
258.53733699999998
 21
554.57156799999996
 31
0.0
  0
LINE
  5
1FC
  8
0
 62
     1
 10
258.53733699999998
 20
552.94797900000003
 30
0.0
 11
258.53733699999998
 21
553.598297
 31
0.0
  0
LINE
  5
1FD
  8
0
 62
     1
 10
258.53733699999998
 20
552.71961599999986
 30
0.0
 11
257.53733699999998
 21
553.29696699999988
 31
0.0
  0
LINE
  5
1FE
  8
0
 62
     1
 10
258.53733699999998
 20
552.71961599999986
 30
0.0
 11
258.53733699999998
 21
552.94797900000003
 31
0.0
  0
LINE
  5
1FF
  8
0
 62
     1
 10
266.53733599999993
 20
708.21961199999987
 30
0.0
 11
265.53733599999998
 21
708.21961199999987
 31
0.0
  0
LINE
  5
200
  8
0
 62
     7
 10
264.03733599999993
 20
708.21961199999987
 30
0.0
 11
264.03733599999993
 21
750.91880000000003
 31
0.0
  0
LINE
  5
201
  8
0
 62
     7
 10
262.03733599999993
 20
681.71961199999998
 30
0.0
 11
262.03733599999993
 21
694.71961199999998
 31
0.0
  0
LINE
  5
202
  8
0
 62
     7
 10
264.03733599999993
 20
506.26067199999989
 30
0.0
 11
264.03733599999993
 21
545.21961599999986
 31
0.0
  0
LINE
  5
203
  8
0
 62
     7
 10
262.03733599999993
 20
507.45888300000001
 30
0.0
 11
262.03733599999993
 21
552.71961599999986
 31
0.0
  0
LINE
  5
204
  8
0
 62
     7
 10
264.03733599999993
 20
701.21961199999987
 30
0.0
 11
262.03733599999993
 21
701.21961199999987
 31
0.0
  0
LINE
  5
205
  8
0
 62
     7
 10
264.03733599999993
 20
694.21961199999998
 30
0.0
 11
262.03733599999993
 21
694.21961199999998
 31
0.0
  0
LINE
  5
206
  8
0
 62
     7
 10
264.03733599999993
 20
682.71961199999987
 30
0.0
 11
262.03733599999993
 21
682.71961199999987
 31
0.0
  0
LINE
  5
207
  8
0
 62
     7
 10
264.03733599999993
 20
570.71961599999986
 30
0.0
 11
262.03733599999993
 21
570.71961599999986
 31
0.0
  0
LINE
  5
208
  8
0
 62
     7
 10
264.03733599999993
 20
559.21961599999986
 30
0.0
 11
262.03733599999993
 21
559.21961599999986
 31
0.0
  0
LINE
  5
209
  8
0
 62
     7
 10
264.03733599999993
 20
552.21961599999997
 30
0.0
 11
262.03733599999993
 21
552.21961599999997
 31
0.0
  0
LINE
  5
20A
  8
0
 62
     7
 10
262.03733599999993
 20
558.71961599999986
 30
0.0
 11
262.03733599999993
 21
571.71961599999986
 31
0.0
  0
LINE
  5
20B
  8
0
 62
     7
 10
262.03733599999993
 20
700.71961199999987
 30
0.0
 11
262.03733599999993
 21
752.59896100000003
 31
0.0
  0
POLYLINE
  5
20C
  8
0
 62
     3
 66
     1
 10
0.0
 20
0.0
 30
0.0
  0
VERTEX
  5
BD4
  8
0
 62
     3
 10
268.07653099999987
 20
747.52556600000003
 30
0.0
  0
VERTEX
  5
BD5
  8
0
 62
     3
 10
260.75768999999991
 20
753.67395799999986
 30
0.0
  0
VERTEX
  5
BD6
  8
0
 62
     3
 10
258.70556099999988
 20
752.78583499999979
 30
0.0
  0
VERTEX
  5
BD7
  8
0
 62
     3
 10
260.51279199999999
 20
756.49176799999987
 30
0.0
  0
VERTEX
  5
BD8
  8
0
 62
     3
 10
258.46066300000001
 20
755.60362999999995
 30
0.0
  0
SEQEND
  5
BD9
  8
0
 62
     3
  0
POLYLINE
  5
213
  8
0
 62
     3
 66
     1
 10
0.0
 20
0.0
 30
0.0
  0
VERTEX
  5
BDA
  8
0
 62
     3
 10
269.48463500000003
 20
502.997163
 30
0.0
  0
VERTEX
  5
BDB
  8
0
 62
     3
 10
259.62605200000002
 20
508.90349800000001
 30
0.0
  0
VERTEX
  5
BDC
  8
0
 62
     3
 10
257.7403569999999
 20
507.70176700000002
 30
0.0
  0
VERTEX
  5
BDD
  8
0
 62
     3
 10
258.93825299999992
 20
511.64702299999999
 30
0.0
  0
VERTEX
  5
BDE
  8
0
 62
     3
 10
257.05255899999992
 20
510.44529199999988
 30
0.0
  0
SEQEND
  5
BDF
  8
0
 62
     3
  0
LINE
  5
21A
  8
0
  6
DASHDOT
 62
     7
 10
290.08241299999992
 20
616.47605099999987
 30
0.0
 11
290.08241299999992
 21
637.54050400000006
 31
0.0
  0
LINE
  5
21B
  8
0
  6
DASHDOT
 62
   150
 10
356.67406499999993
 20
626.72605099999987
 30
0.0
 11
126.872612
 21
626.72605099999987
 31
0.0
  0
POLYLINE
  5
21C
  8
0
 62
     3
 66
     1
 10
0.0
 20
0.0
 30
0.0
  0
VERTEX
  5
BE0
  8
0
 62
     3
 10
196.24939299999991
 20
541.059168
 30
0.0
  0
VERTEX
  5
BE1
  8
0
 62
     3
 10
195.442341
 20
557.03879900000004
 30
0.0
  0
VERTEX
  5
BE2
  8
0
 62
     3
 10
193.3944469999999
 20
557.936645
 30
0.0
  0
VERTEX
  5
BE3
  8
0
 62
     3
 10
197.33891299999991
 20
559.13713499999994
 30
0.0
  0
VERTEX
  5
BE4
  8
0
 62
     3
 10
195.29101900000001
 20
560.0349809999999
 30
0.0
  0
VERTEX
  5
BE5
  8
0
 62
     3
 10
194.7645379999999
 20
570.45925899999986
 30
0.0
  0
SEQEND
  5
BE6
  8
0
 62
     3
  0
POLYLINE
  5
224
  8
0
 62
     3
 66
     1
 10
0.0
 20
0.0
 30
0.0
  0
VERTEX
  5
BE7
  8
0
 62
     3
 10
220.21619799999999
 20
689.754143
 30
0.0
  0
VERTEX
  5
BE8
  8
0
 62
     3
 10
221.96647599999989
 20
705.65811900000006
 30
0.0
  0
VERTEX
  5
BE9
  8
0
 62
     3
 10
220.087872
 20
706.87090299999988
 30
0.0
  0
VERTEX
  5
BEA
  8
0
 62
     3
 10
224.17326
 20
707.42732999999987
 30
0.0
  0
VERTEX
  5
BEB
  8
0
 62
     3
 10
222.29465499999989
 20
708.64011399999993
 30
0.0
  0
VERTEX
  5
BEC
  8
0
 62
     3
 10
223.5570029999999
 20
720.11049600000001
 30
0.0
  0
SEQEND
  5
BED
  8
0
 62
     3
  0
POLYLINE
  5
22C
  8
0
 62
     3
 66
     1
 10
0.0
 20
0.0
 30
0.0
  0
VERTEX
  5
BEE
  8
0
 62
     3
 10
192.2752909999999
 20
683.91049999999996
 30
0.0
  0
VERTEX
  5
BEF
  8
0
 62
     3
 10
192.046425
 20
686.76374099999998
 30
0.0
  0
VERTEX
  5
BF0
  8
0
 62
     3
 10
189.97287
 20
687.60062400000004
 30
0.0
  0
VERTEX
  5
BF1
  8
0
 62
     3
 10
193.88010399999999
 20
688.91725899999994
 30
0.0
  0
VERTEX
  5
BF2
  8
0
 62
     3
 10
191.80655699999991
 20
689.754143
 30
0.0
  0
SEQEND
  5
BF3
  8
0
 62
     3
  0
POLYLINE
  5
233
  8
0
 62
     3
 66
     1
 10
0.0
 20
0.0
 30
0.0
  0
VERTEX
  5
BF4
  8
0
 62
     3
 10
220.21619799999999
 20
689.754143
 30
0.0
  0
VERTEX
  5
BF5
  8
0
 62
     3
 10
204.21619799999991
 20
689.754143
 30
0.0
  0
VERTEX
  5
BF6
  8
0
 62
     3
 10
203.21619799999999
 20
687.75414299999989
 30
0.0
  0
VERTEX
  5
BF7
  8
0
 62
     3
 10
202.21619799999991
 20
691.75414299999989
 30
0.0
  0
VERTEX
  5
BF8
  8
0
 62
     3
 10
201.21619799999999
 20
689.754143
 30
0.0
  0
VERTEX
  5
BF9
  8
0
 62
     3
 10
191.80654899999999
 20
689.754143
 30
0.0
  0
SEQEND
  5
BFA
  8
0
 62
     3
  0
LINE
  5
23B
  8
0
 62
     7
 10
175.0373459999999
 20
690.47605099999998
 30
0.0
 11
175.0373459999999
 21
709.47605099999998
 31
0.0
  0
LINE
  5
23C
  8
0
 62
     7
 10
157.0373459999999
 20
708.47605099999987
 30
0.0
 11
157.0373459999999
 21
716.47605099999987
 31
0.0
  0
LINE
  5
23D
  8
0
  6
DASHDOT
 62
     7
 10
152.0373459999999
 20
708.47605099999987
 30
0.0
 11
152.0373459999999
 21
722.88152300000002
 31
0.0
  0
LINE
  5
23E
  8
0
  6
DASHDOT
 62
     7
 10
155.0373459999999
 20
708.47605099999987
 30
0.0
 11
155.0373459999999
 21
722.47243500000002
 31
0.0
  0
LINE
  5
23F
  8
0
 62
     7
 10
255.2873459999999
 20
716.47605099999987
 30
0.0
 11
157.0373459999999
 21
716.47605099999987
 31
0.0
  0
LINE
  5
240
  8
0
 62
     7
 10
256.5373459999999
 20
690.72605099999998
 30
0.0
 11
256.5373459999999
 21
715.22605099999987
 31
0.0
  0
ARC
  5
241
  8
0
 62
     7
 10
255.2873459999999
 20
715.22605099999987
 30
0.0
 40
1.25
 50
0.000001
 51
90.000010000000003
  0
LINE
  5
242
  8
0
 62
     7
 10
255.5373459999999
 20
689.72605099999987
 30
0.0
 11
255.5373459999999
 21
690.72605099999998
 31
0.0
  0
LINE
  5
243
  8
0
 62
     7
 10
256.53734500000002
 20
690.72605099999998
 30
0.0
 11
255.5373459999999
 21
690.72605099999998
 31
0.0
  0
LINE
  5
244
  8
0
 62
     7
 10
255.2873459999999
 20
541.47606699999994
 30
0.0
 11
196.22833600000001
 21
541.47606699999994
 31
0.0
  0
LINE
  5
245
  8
0
 62
     7
 10
256.5373459999999
 20
542.72606699999994
 30
0.0
 11
256.5373459999999
 21
567.72609299999999
 31
0.0
  0
ARC
  5
246
  8
0
 62
     7
 10
255.2873459999999
 20
542.72606699999994
 30
0.0
 40
1.25
 50
270.00000499999987
 51
0.000001
  0
LINE
  5
247
  8
0
 62
     7
 10
256.53734500000002
 20
567.72609299999999
 30
0.0
 11
255.5373459999999
 21
567.72609299999999
 31
0.0
  0
LINE
  5
248
  8
0
 62
     7
 10
255.5373459999999
 20
567.72609299999999
 30
0.0
 11
255.5373459999999
 21
568.72609299999988
 31
0.0
  0
CIRCLE
  5
249
  8
0
 62
     7
 10
91.899238999999994
 20
703.92760499999986
 30
0.0
 40
0.3
  0
LINE
  5
24A
  8
0
 62
     7
 10
186.8373409999999
 20
562.47605099999987
 30
0.0
 11
180.8373409999999
 21
562.47605099999987
 31
0.0
  0
LINE
  5
24B
  8
0
 62
     7
 10
186.8373409999999
 20
552.47605099999998
 30
0.0
 11
186.8373409999999
 21
562.47605099999987
 31
0.0
  0
LINE
  5
24C
  8
0
 62
   150
 10
180.8373409999999
 20
549.97605099999987
 30
0.0
 11
180.8373409999999
 21
564.97605099999998
 31
0.0
  0
LINE
  5
24D
  8
0
 62
     7
 10
186.8373409999999
 20
552.47605099999998
 30
0.0
 11
180.8373409999999
 21
552.47605099999998
 31
0.0
  0
LINE
  5
24E
  8
0
 62
     2
 10
175.0373459999999
 20
549.47605099999987
 30
0.0
 11
175.0373459999999
 21
565.47605099999998
 31
0.0
  0
LINE
  5
24F
  8
0
 62
   150
 10
180.0373459999999
 20
549.97605099999987
 30
0.0
 11
180.0373459999999
 21
564.97605099999998
 31
0.0
  0
LINE
  5
250
  8
0
 62
   230
 10
179.0373459999999
 20
553.47605099999987
 30
0.0
 11
179.0373459999999
 21
561.47605099999987
 31
0.0
  0
LINE
  5
251
  8
0
 62
   150
 10
180.8373409999999
 20
549.97605099999987
 30
0.0
 11
180.0373459999999
 21
549.97605099999987
 31
0.0
  0
LINE
  5
252
  8
0
 62
   230
 10
179.0373459999999
 20
553.47605099999987
 30
0.0
 11
175.0373459999999
 21
553.47605099999987
 31
0.0
  0
LINE
  5
253
  8
0
 62
   230
 10
179.0373459999999
 20
561.47605099999987
 30
0.0
 11
175.0373459999999
 21
561.47605099999987
 31
0.0
  0
LINE
  5
254
  8
0
 62
     7
 10
180.0373459999999
 20
554.47605099999987
 30
0.0
 11
179.0373459999999
 21
554.47605099999987
 31
0.0
  0
LINE
  5
255
  8
0
 62
     7
 10
180.0373459999999
 20
560.47605099999998
 30
0.0
 11
179.0373459999999
 21
560.47605099999998
 31
0.0
  0
LINE
  5
256
  8
0
 62
   150
 10
180.8373409999999
 20
564.97605099999998
 30
0.0
 11
180.0373459999999
 21
564.97605099999998
 31
0.0
  0
LINE
  5
257
  8
0
 62
     7
 10
121.037346
 20
546.47605099999987
 30
0.0
 11
121.037346
 21
549.47605099999987
 31
0.0
  0
LINE
  5
258
  8
0
 62
     7
 10
118.537346
 20
546.47605099999987
 30
0.0
 11
118.537346
 21
549.47605099999987
 31
0.0
  0
LINE
  5
259
  8
0
 62
     7
 10
116.0373459999999
 20
546.47605099999987
 30
0.0
 11
116.0373459999999
 21
549.47605099999987
 31
0.0
  0
LINE
  5
25A
  8
0
 62
     7
 10
113.537346
 20
546.47605099999987
 30
0.0
 11
113.537346
 21
549.47605099999987
 31
0.0
  0
LINE
  5
25B
  8
0
 62
     3
 10
107.537346
 20
546.50640099999987
 30
0.0
 11
107.537346
 21
549.47605099999987
 31
0.0
  0
LINE
  5
25C
  8
0
 62
     7
 10
121.037346
 20
568.47605099999998
 30
0.0
 11
118.537346
 21
568.47605099999998
 31
0.0
  0
LINE
  5
25D
  8
0
 62
     7
 10
121.037346
 20
546.47605099999987
 30
0.0
 11
118.537346
 21
546.47605099999987
 31
0.0
  0
LINE
  5
25E
  8
0
 62
     7
 10
116.0373459999999
 20
568.47605099999998
 30
0.0
 11
113.537346
 21
568.47605099999998
 31
0.0
  0
LINE
  5
25F
  8
0
 62
     7
 10
116.0373459999999
 20
546.47605099999987
 30
0.0
 11
113.537346
 21
546.47605099999987
 31
0.0
  0
LINE
  5
260
  8
0
 62
     3
 10
127.037346
 20
546.50640099999987
 30
0.0
 11
121.037346
 21
546.50640099999987
 31
0.0
  0
LINE
  5
261
  8
0
 62
     3
 10
127.037346
 20
568.44570199999987
 30
0.0
 11
121.037346
 21
568.44570199999987
 31
0.0
  0
LINE
  5
262
  8
0
 62
     3
 10
113.537346
 20
546.50640099999987
 30
0.0
 11
107.537346
 21
546.50640099999987
 31
0.0
  0
LINE
  5
263
  8
0
 62
     3
 10
113.537346
 20
568.44570199999987
 30
0.0
 11
107.537346
 21
568.44570199999987
 31
0.0
  0
LINE
  5
264
  8
0
 62
     2
 10
175.0373459999999
 20
565.47605099999998
 30
0.0
 11
82.037345999999999
 21
565.47605099999998
 31
0.0
  0
LINE
  5
265
  8
0
 62
     2
 10
175.0373459999999
 20
549.47605099999987
 30
0.0
 11
82.037345999999999
 21
549.47605099999987
 31
0.0
  0
LINE
  5
266
  8
0
 62
     3
 10
127.037346
 20
546.50640099999987
 30
0.0
 11
127.037346
 21
549.47605099999987
 31
0.0
  0
LINE
  5
267
  8
0
 62
     7
 10
71.037345999999999
 20
546.47605099999987
 30
0.0
 11
71.037345999999999
 21
568.47605099999998
 31
0.0
  0
LINE
  5
268
  8
0
 62
     7
 10
68.537345999999999
 20
546.47605099999987
 30
0.0
 11
68.537345999999999
 21
568.47605099999998
 31
0.0
  0
LINE
  5
269
  8
0
 62
     7
 10
76.037345999999999
 20
546.47605099999987
 30
0.0
 11
76.037345999999999
 21
568.47605099999998
 31
0.0
  0
LINE
  5
26A
  8
0
 62
     7
 10
73.537345999999999
 20
546.47605099999987
 30
0.0
 11
73.537345999999999
 21
568.47605099999998
 31
0.0
  0
LINE
  5
26B
  8
0
 62
     3
 10
82.037345999999999
 20
546.50640099999987
 30
0.0
 11
82.037345999999999
 21
568.44570199999987
 31
0.0
  0
LINE
  5
26C
  8
0
 62
     3
 10
62.537345999999999
 20
546.50640099999987
 30
0.0
 11
62.537345999999999
 21
568.44570199999987
 31
0.0
  0
LINE
  5
26D
  8
0
 62
     7
 10
71.037345999999999
 20
568.47605099999998
 30
0.0
 11
68.537345999999999
 21
568.47605099999998
 31
0.0
  0
LINE
  5
26E
  8
0
 62
     7
 10
71.037345999999999
 20
546.47605099999987
 30
0.0
 11
68.537345999999999
 21
546.47605099999987
 31
0.0
  0
LINE
  5
26F
  8
0
 62
     7
 10
76.037345999999999
 20
568.47605099999998
 30
0.0
 11
73.537345999999999
 21
568.47605099999998
 31
0.0
  0
LINE
  5
270
  8
0
 62
     7
 10
76.037345999999999
 20
546.47605099999987
 30
0.0
 11
73.537345999999999
 21
546.47605099999987
 31
0.0
  0
LINE
  5
271
  8
0
 62
     3
 10
82.037345999999999
 20
551.991219
 30
0.0
 11
76.037345999999999
 21
551.991219
 31
0.0
  0
LINE
  5
272
  8
0
 62
     3
 10
82.037345999999999
 20
546.50640099999987
 30
0.0
 11
76.037345999999999
 21
546.50640099999987
 31
0.0
  0
LINE
  5
273
  8
0
 62
     3
 10
82.037345999999999
 20
568.44570199999987
 30
0.0
 11
76.037345999999999
 21
568.44570199999987
 31
0.0
  0
LINE
  5
274
  8
0
 62
     3
 10
82.037345999999999
 20
562.96088399999985
 30
0.0
 11
76.037345999999999
 21
562.96088399999985
 31
0.0
  0
LINE
  5
275
  8
0
 62
     3
 10
68.537345999999999
 20
551.991219
 30
0.0
 11
62.537345999999999
 21
551.991219
 31
0.0
  0
LINE
  5
276
  8
0
 62
     3
 10
68.537345999999999
 20
546.50640099999987
 30
0.0
 11
62.537345999999999
 21
546.50640099999987
 31
0.0
  0
LINE
  5
277
  8
0
 62
     3
 10
68.537345999999999
 20
568.44570199999987
 30
0.0
 11
62.537345999999999
 21
568.44570199999987
 31
0.0
  0
LINE
  5
278
  8
0
 62
     3
 10
68.537345999999999
 20
562.96088399999985
 30
0.0
 11
62.537345999999999
 21
562.96088399999985
 31
0.0
  0
LINE
  5
279
  8
0
 62
   230
 10
62.537345999999999
 20
551.47605099999998
 30
0.0
 11
56.037345999999999
 21
551.47605099999998
 31
0.0
  0
LINE
  5
27A
  8
0
 62
   230
 10
73.537345999999999
 20
551.47605099999998
 30
0.0
 11
71.037345999999999
 21
551.47605099999998
 31
0.0
  0
LINE
  5
27B
  8
0
 62
   230
 10
62.537345999999999
 20
563.47605099999987
 30
0.0
 11
56.037345999999999
 21
563.47605099999987
 31
0.0
  0
LINE
  5
27C
  8
0
 62
   230
 10
73.537345999999999
 20
563.47605099999987
 30
0.0
 11
71.037345999999999
 21
563.47605099999987
 31
0.0
  0
LINE
  5
27D
  8
0
 62
   230
 10
56.037345999999999
 20
551.47604699999988
 30
0.0
 11
55.037345999999999
 21
552.47604699999999
 31
0.0
  0
LINE
  5
27E
  8
0
 62
   230
 10
56.037345999999999
 20
556.30550400000004
 30
0.0
 11
56.037345999999999
 21
557.47605099999987
 31
0.0
  0
LINE
  5
27F
  8
0
 62
   230
 10
55.037345999999999
 20
552.47605099999998
 30
0.0
 11
55.037345999999999
 21
562.47605099999987
 31
0.0
  0
LINE
  5
280
  8
0
 62
   230
 10
55.037345999999999
 20
562.47604699999999
 30
0.0
 11
56.037345999999999
 21
563.47604699999988
 31
0.0
  0
LINE
  5
281
  8
0
 62
   230
 10
56.037345999999999
 20
558.64659900000004
 30
0.0
 11
56.037345999999999
 21
559.77214800000002
 31
0.0
  0
LINE
  5
282
  8
0
 62
   230
 10
56.037345999999999
 20
557.47605099999987
 30
0.0
 11
56.037345999999999
 21
558.64659900000004
 31
0.0
  0
LINE
  5
283
  8
0
 62
   230
 10
56.037345999999999
 20
559.77214800000002
 30
0.0
 11
56.037345999999999
 21
560.80947100000003
 31
0.0
  0
LINE
  5
284
  8
0
 62
   230
 10
56.037345999999999
 20
561.71869700000002
 30
0.0
 11
56.037345999999999
 21
562.46486700000003
 31
0.0
  0
LINE
  5
285
  8
0
 62
   230
 10
56.037345999999999
 20
562.46486700000003
 30
0.0
 11
56.037345999999999
 21
563.01932499999987
 31
0.0
  0
LINE
  5
286
  8
0
 62
   230
 10
56.037345999999999
 20
563.36075599999992
 30
0.0
 11
56.037345999999999
 21
563.47605099999987
 31
0.0
  0
LINE
  5
287
  8
0
 62
   230
 10
56.037345999999999
 20
554.14263200000005
 30
0.0
 11
56.037345999999999
 21
555.17995499999995
 31
0.0
  0
LINE
  5
288
  8
0
 62
   230
 10
56.037345999999999
 20
555.17995499999995
 30
0.0
 11
56.037345999999999
 21
556.30550400000004
 31
0.0
  0
LINE
  5
289
  8
0
 62
   230
 10
56.037345999999999
 20
560.80947100000003
 30
0.0
 11
56.037345999999999
 21
561.71869700000002
 31
0.0
  0
LINE
  5
28A
  8
0
 62
   230
 10
56.037345999999999
 20
563.01932499999987
 30
0.0
 11
56.037345999999999
 21
563.36075599999992
 31
0.0
  0
LINE
  5
28B
  8
0
 62
   230
 10
56.037345999999999
 20
551.47605099999998
 30
0.0
 11
56.037345999999999
 21
551.59134699999993
 31
0.0
  0
LINE
  5
28C
  8
0
 62
   230
 10
56.037345999999999
 20
551.59134699999993
 30
0.0
 11
56.037345999999999
 21
551.93277699999999
 31
0.0
  0
LINE
  5
28D
  8
0
 62
   230
 10
56.037345999999999
 20
551.93277699999999
 30
0.0
 11
56.037345999999999
 21
552.48723600000005
 31
0.0
  0
LINE
  5
28E
  8
0
 62
   230
 10
56.037345999999999
 20
552.48723600000005
 30
0.0
 11
56.037345999999999
 21
553.23340599999995
 31
0.0
  0
LINE
  5
28F
  8
0
 62
   230
 10
56.037345999999999
 20
553.23340599999995
 30
0.0
 11
56.037345999999999
 21
554.14263200000005
 31
0.0
  0
LINE
  5
290
  8
0
 62
     7
 10
62.537345999999999
 20
562.47604699999999
 30
0.0
 11
55.037345999999999
 21
562.47604699999999
 31
0.0
  0
LINE
  5
291
  8
0
 62
     7
 10
62.537345999999999
 20
552.47605099999998
 30
0.0
 11
55.037345999999999
 21
552.47605099999998
 31
0.0
  0
LINE
  5
292
  8
0
 62
     7
 10
73.537345999999999
 20
562.47605099999987
 30
0.0
 11
71.037345999999999
 21
562.47605099999987
 31
0.0
  0
LINE
  5
293
  8
0
 62
     7
 10
73.537345999999999
 20
552.47605099999998
 30
0.0
 11
71.037345999999999
 21
552.47605099999998
 31
0.0
  0
LINE
  5
294
  8
0
 62
     3
 10
107.537346
 20
565.47605099999998
 30
0.0
 11
107.537346
 21
568.44570199999987
 31
0.0
  0
LINE
  5
295
  8
0
 62
     7
 10
113.537346
 20
565.47605099999998
 30
0.0
 11
113.537346
 21
568.47605099999998
 31
0.0
  0
LINE
  5
296
  8
0
 62
     7
 10
116.0373459999999
 20
565.47605099999998
 30
0.0
 11
116.0373459999999
 21
568.47605099999998
 31
0.0
  0
LINE
  5
297
  8
0
 62
     7
 10
118.537346
 20
565.47605099999998
 30
0.0
 11
118.537346
 21
568.47605099999998
 31
0.0
  0
LINE
  5
298
  8
0
 62
     7
 10
121.037346
 20
565.47605099999998
 30
0.0
 11
121.037346
 21
568.47605099999998
 31
0.0
  0
LINE
  5
299
  8
0
 62
     3
 10
127.037346
 20
565.47605099999998
 30
0.0
 11
127.037346
 21
568.44570199999987
 31
0.0
  0
LINE
  5
29A
  8
0
  6
DASHDOT
 62
     7
 10
155.0373459999999
 20
531.28658799999994
 30
0.0
 11
155.0373459999999
 21
549.47605099999987
 31
0.0
  0
LINE
  5
29B
  8
0
  6
DASHDOT
 62
     7
 10
152.0373459999999
 20
533.57977300000005
 30
0.0
 11
152.0373459999999
 21
549.47605099999987
 31
0.0
  0
LINE
  5
29C
  8
0
 62
     7
 10
157.0373459999999
 20
543.97606500000006
 30
0.0
 11
157.0373459999999
 21
549.47605099999987
 31
0.0
  0
LINE
  5
29D
  8
0
 62
     7
 10
118.537346
 20
565.47605099999998
 30
0.0
 11
116.0373459999999
 21
565.47605099999998
 31
0.0
  0
LINE
  5
29E
  8
0
 62
     7
 10
118.537346
 20
549.47605099999987
 30
0.0
 11
116.0373459999999
 21
549.47605099999987
 31
0.0
  0
LINE
  5
29F
  8
0
 62
     7
 10
186.8373489999999
 20
705.47605099999998
 30
0.0
 11
180.8373489999999
 21
705.47605099999998
 31
0.0
  0
LINE
  5
2A0
  8
0
 62
     7
 10
186.8373489999999
 20
695.47605099999987
 30
0.0
 11
186.8373489999999
 21
705.47605099999998
 31
0.0
  0
LINE
  5
2A1
  8
0
 62
   150
 10
180.8373489999999
 20
692.97605099999998
 30
0.0
 11
180.8373489999999
 21
707.97605099999987
 31
0.0
  0
LINE
  5
2A2
  8
0
 62
     7
 10
186.8373489999999
 20
695.47605099999987
 30
0.0
 11
180.8373489999999
 21
695.47605099999987
 31
0.0
  0
LINE
  5
2A3
  8
0
 62
     2
 10
175.0373459999999
 20
692.47605099999987
 30
0.0
 11
175.0373459999999
 21
708.47605099999987
 31
0.0
  0
LINE
  5
2A4
  8
0
 62
   150
 10
180.0373459999999
 20
692.97605099999998
 30
0.0
 11
180.0373459999999
 21
707.97605099999987
 31
0.0
  0
LINE
  5
2A5
  8
0
 62
   230
 10
179.0373459999999
 20
696.47605099999987
 30
0.0
 11
179.0373459999999
 21
704.47605099999987
 31
0.0
  0
LINE
  5
2A6
  8
0
 62
   150
 10
180.8373489999999
 20
692.97605099999998
 30
0.0
 11
180.0373459999999
 21
692.97605099999998
 31
0.0
  0
LINE
  5
2A7
  8
0
 62
   230
 10
179.0373459999999
 20
696.47605099999987
 30
0.0
 11
175.0373459999999
 21
696.47605099999987
 31
0.0
  0
LINE
  5
2A8
  8
0
 62
   230
 10
179.0373459999999
 20
704.47605099999987
 30
0.0
 11
175.0373459999999
 21
704.47605099999987
 31
0.0
  0
LINE
  5
2A9
  8
0
 62
     7
 10
180.0373459999999
 20
697.47605099999998
 30
0.0
 11
179.0373459999999
 21
697.47605099999998
 31
0.0
  0
LINE
  5
2AA
  8
0
 62
     7
 10
180.0373459999999
 20
703.47605099999987
 30
0.0
 11
179.0373459999999
 21
703.47605099999987
 31
0.0
  0
LINE
  5
2AB
  8
0
 62
   150
 10
180.8373489999999
 20
707.97605099999987
 30
0.0
 11
180.0373459999999
 21
707.97605099999987
 31
0.0
  0
LINE
  5
2AC
  8
0
 62
     7
 10
121.037346
 20
689.47605099999998
 30
0.0
 11
121.037346
 21
692.47605099999987
 31
0.0
  0
LINE
  5
2AD
  8
0
 62
     7
 10
118.537346
 20
689.47605099999998
 30
0.0
 11
118.537346
 21
692.47605099999987
 31
0.0
  0
LINE
  5
2AE
  8
0
 62
     7
 10
116.0373459999999
 20
689.47605099999998
 30
0.0
 11
116.0373459999999
 21
692.47605099999987
 31
0.0
  0
LINE
  5
2AF
  8
0
 62
     7
 10
113.537346
 20
689.47605099999998
 30
0.0
 11
113.537346
 21
692.47605099999987
 31
0.0
  0
LINE
  5
2B0
  8
0
 62
     3
 10
107.537346
 20
689.50640099999987
 30
0.0
 11
107.537346
 21
692.47605099999987
 31
0.0
  0
LINE
  5
2B1
  8
0
 62
     7
 10
121.037346
 20
711.47605099999987
 30
0.0
 11
118.537346
 21
711.47605099999987
 31
0.0
  0
LINE
  5
2B2
  8
0
 62
     7
 10
121.037346
 20
689.47605099999998
 30
0.0
 11
118.537346
 21
689.47605099999998
 31
0.0
  0
LINE
  5
2B3
  8
0
 62
     7
 10
116.0373459999999
 20
711.47605099999987
 30
0.0
 11
113.537346
 21
711.47605099999987
 31
0.0
  0
LINE
  5
2B4
  8
0
 62
     7
 10
116.0373459999999
 20
689.47605099999998
 30
0.0
 11
113.537346
 21
689.47605099999998
 31
0.0
  0
LINE
  5
2B5
  8
0
 62
     3
 10
127.037346
 20
689.50640099999987
 30
0.0
 11
121.037346
 21
689.50640099999987
 31
0.0
  0
LINE
  5
2B6
  8
0
 62
     3
 10
127.037346
 20
711.44570199999987
 30
0.0
 11
121.037346
 21
711.44570199999987
 31
0.0
  0
LINE
  5
2B7
  8
0
 62
     3
 10
113.537346
 20
689.50640099999987
 30
0.0
 11
107.537346
 21
689.50640099999987
 31
0.0
  0
LINE
  5
2B8
  8
0
 62
     3
 10
113.537346
 20
711.44570199999987
 30
0.0
 11
107.537346
 21
711.44570199999987
 31
0.0
  0
LINE
  5
2B9
  8
0
 62
     2
 10
175.0373459999999
 20
708.47605099999987
 30
0.0
 11
82.037345999999999
 21
708.47605099999987
 31
0.0
  0
LINE
  5
2BA
  8
0
 62
     2
 10
175.0373459999999
 20
692.47605099999987
 30
0.0
 11
82.037345999999999
 21
692.47605099999987
 31
0.0
  0
LINE
  5
2BB
  8
0
 62
     3
 10
127.037346
 20
689.50640099999987
 30
0.0
 11
127.037346
 21
692.47605099999987
 31
0.0
  0
LINE
  5
2BC
  8
0
 62
     7
 10
71.037345999999999
 20
689.47605099999998
 30
0.0
 11
71.037345999999999
 21
711.47605099999987
 31
0.0
  0
LINE
  5
2BD
  8
0
 62
     7
 10
68.537345999999999
 20
689.47605099999998
 30
0.0
 11
68.537345999999999
 21
711.47605099999987
 31
0.0
  0
LINE
  5
2BE
  8
0
 62
     7
 10
76.037345999999999
 20
689.47605099999998
 30
0.0
 11
76.037345999999999
 21
711.47605099999987
 31
0.0
  0
LINE
  5
2BF
  8
0
 62
     7
 10
73.537345999999999
 20
689.47605099999998
 30
0.0
 11
73.537345999999999
 21
711.47605099999987
 31
0.0
  0
LINE
  5
2C0
  8
0
 62
     3
 10
82.037345999999999
 20
689.50640099999987
 30
0.0
 11
82.037345999999999
 21
711.44570199999987
 31
0.0
  0
LINE
  5
2C1
  8
0
 62
     3
 10
62.537345999999999
 20
689.50640099999987
 30
0.0
 11
62.537345999999999
 21
711.44570199999987
 31
0.0
  0
LINE
  5
2C2
  8
0
 62
     7
 10
71.037345999999999
 20
711.47605099999987
 30
0.0
 11
68.537345999999999
 21
711.47605099999987
 31
0.0
  0
LINE
  5
2C3
  8
0
 62
     7
 10
71.037345999999999
 20
689.47605099999998
 30
0.0
 11
68.537345999999999
 21
689.47605099999998
 31
0.0
  0
LINE
  5
2C4
  8
0
 62
     7
 10
76.037345999999999
 20
711.47605099999987
 30
0.0
 11
73.537345999999999
 21
711.47605099999987
 31
0.0
  0
LINE
  5
2C5
  8
0
 62
     7
 10
76.037345999999999
 20
689.47605099999998
 30
0.0
 11
73.537345999999999
 21
689.47605099999998
 31
0.0
  0
LINE
  5
2C6
  8
0
 62
     3
 10
82.037345999999999
 20
694.991219
 30
0.0
 11
76.037345999999999
 21
694.991219
 31
0.0
  0
LINE
  5
2C7
  8
0
 62
     3
 10
82.037345999999999
 20
689.50640099999987
 30
0.0
 11
76.037345999999999
 21
689.50640099999987
 31
0.0
  0
LINE
  5
2C8
  8
0
 62
     3
 10
82.037345999999999
 20
711.44570199999987
 30
0.0
 11
76.037345999999999
 21
711.44570199999987
 31
0.0
  0
LINE
  5
2C9
  8
0
 62
     3
 10
82.037345999999999
 20
705.96088399999996
 30
0.0
 11
76.037345999999999
 21
705.96088399999996
 31
0.0
  0
LINE
  5
2CA
  8
0
 62
     3
 10
68.537345999999999
 20
694.991219
 30
0.0
 11
62.537345999999999
 21
694.991219
 31
0.0
  0
LINE
  5
2CB
  8
0
 62
     3
 10
68.537345999999999
 20
689.50640099999987
 30
0.0
 11
62.537345999999999
 21
689.50640099999987
 31
0.0
  0
LINE
  5
2CC
  8
0
 62
     3
 10
68.537345999999999
 20
711.44570199999987
 30
0.0
 11
62.537345999999999
 21
711.44570199999987
 31
0.0
  0
LINE
  5
2CD
  8
0
 62
     3
 10
68.537345999999999
 20
705.96088399999996
 30
0.0
 11
62.537345999999999
 21
705.96088399999996
 31
0.0
  0
LINE
  5
2CE
  8
0
 62
   230
 10
62.537345999999999
 20
694.47605099999998
 30
0.0
 11
56.037345999999999
 21
694.47605099999998
 31
0.0
  0
LINE
  5
2CF
  8
0
 62
   230
 10
73.537345999999999
 20
694.47605099999998
 30
0.0
 11
71.037345999999999
 21
694.47605099999998
 31
0.0
  0
LINE
  5
2D0
  8
0
 62
   230
 10
62.537345999999999
 20
706.47605099999998
 30
0.0
 11
56.037345999999999
 21
706.47605099999998
 31
0.0
  0
LINE
  5
2D1
  8
0
 62
   230
 10
73.537345999999999
 20
706.47605099999998
 30
0.0
 11
71.037345999999999
 21
706.47605099999998
 31
0.0
  0
LINE
  5
2D2
  8
0
 62
   230
 10
56.037345999999999
 20
694.47605099999998
 30
0.0
 11
55.037345999999999
 21
695.47605099999987
 31
0.0
  0
LINE
  5
2D3
  8
0
 62
   230
 10
56.037345999999999
 20
699.30550400000004
 30
0.0
 11
56.037345999999999
 21
700.47605099999987
 31
0.0
  0
LINE
  5
2D4
  8
0
 62
   230
 10
55.037345999999999
 20
695.47605099999987
 30
0.0
 11
55.037345999999999
 21
705.47605099999998
 31
0.0
  0
LINE
  5
2D5
  8
0
 62
   230
 10
55.037345999999999
 20
705.47605099999998
 30
0.0
 11
56.037345999999999
 21
706.47605099999998
 31
0.0
  0
LINE
  5
2D6
  8
0
 62
   230
 10
56.037345999999999
 20
701.64659900000004
 30
0.0
 11
56.037345999999999
 21
702.77214800000002
 31
0.0
  0
LINE
  5
2D7
  8
0
 62
   230
 10
56.037345999999999
 20
700.47605099999987
 30
0.0
 11
56.037345999999999
 21
701.64659900000004
 31
0.0
  0
LINE
  5
2D8
  8
0
 62
   230
 10
56.037345999999999
 20
702.77214800000002
 30
0.0
 11
56.037345999999999
 21
703.80947100000003
 31
0.0
  0
LINE
  5
2D9
  8
0
 62
   230
 10
56.037345999999999
 20
704.71869700000002
 30
0.0
 11
56.037345999999999
 21
705.46486700000003
 31
0.0
  0
LINE
  5
2DA
  8
0
 62
   230
 10
56.037345999999999
 20
705.46486700000003
 30
0.0
 11
56.037345999999999
 21
706.01932499999998
 31
0.0
  0
LINE
  5
2DB
  8
0
 62
   230
 10
56.037345999999999
 20
706.36075599999992
 30
0.0
 11
56.037345999999999
 21
706.47605099999998
 31
0.0
  0
LINE
  5
2DC
  8
0
 62
   230
 10
56.037345999999999
 20
697.14263200000005
 30
0.0
 11
56.037345999999999
 21
698.17995499999995
 31
0.0
  0
LINE
  5
2DD
  8
0
 62
   230
 10
56.037345999999999
 20
698.17995499999995
 30
0.0
 11
56.037345999999999
 21
699.30550400000004
 31
0.0
  0
LINE
  5
2DE
  8
0
 62
   230
 10
56.037345999999999
 20
703.80947100000003
 30
0.0
 11
56.037345999999999
 21
704.71869700000002
 31
0.0
  0
LINE
  5
2DF
  8
0
 62
   230
 10
56.037345999999999
 20
706.01932499999998
 30
0.0
 11
56.037345999999999
 21
706.36075599999992
 31
0.0
  0
LINE
  5
2E0
  8
0
 62
   230
 10
56.037345999999999
 20
694.47605099999998
 30
0.0
 11
56.037345999999999
 21
694.59134699999993
 31
0.0
  0
LINE
  5
2E1
  8
0
 62
   230
 10
56.037345999999999
 20
694.59134699999993
 30
0.0
 11
56.037345999999999
 21
694.93277699999999
 31
0.0
  0
LINE
  5
2E2
  8
0
 62
   230
 10
56.037345999999999
 20
694.93277699999999
 30
0.0
 11
56.037345999999999
 21
695.48723600000005
 31
0.0
  0
LINE
  5
2E3
  8
0
 62
   230
 10
56.037345999999999
 20
695.48723600000005
 30
0.0
 11
56.037345999999999
 21
696.23340599999995
 31
0.0
  0
LINE
  5
2E4
  8
0
 62
   230
 10
56.037345999999999
 20
696.23340599999995
 30
0.0
 11
56.037345999999999
 21
697.14263200000005
 31
0.0
  0
LINE
  5
2E5
  8
0
 62
     7
 10
62.537345999999999
 20
705.47605099999998
 30
0.0
 11
55.037345999999999
 21
705.47605099999998
 31
0.0
  0
LINE
  5
2E6
  8
0
 62
     7
 10
62.537345999999999
 20
695.47605099999987
 30
0.0
 11
55.037345999999999
 21
695.47605099999987
 31
0.0
  0
LINE
  5
2E7
  8
0
 62
     7
 10
73.537345999999999
 20
705.47605099999998
 30
0.0
 11
71.037345999999999
 21
705.47605099999998
 31
0.0
  0
LINE
  5
2E8
  8
0
 62
     7
 10
73.537345999999999
 20
695.47605099999987
 30
0.0
 11
71.037345999999999
 21
695.47605099999987
 31
0.0
  0
LINE
  5
2E9
  8
0
 62
     3
 10
107.537346
 20
708.47605099999987
 30
0.0
 11
107.537346
 21
711.44570199999987
 31
0.0
  0
LINE
  5
2EA
  8
0
 62
     7
 10
113.537346
 20
708.47605099999987
 30
0.0
 11
113.537346
 21
711.47605099999987
 31
0.0
  0
LINE
  5
2EB
  8
0
 62
     7
 10
116.0373459999999
 20
708.47605099999987
 30
0.0
 11
116.0373459999999
 21
711.47605099999987
 31
0.0
  0
LINE
  5
2EC
  8
0
 62
     7
 10
118.537346
 20
708.47605099999987
 30
0.0
 11
118.537346
 21
711.47605099999987
 31
0.0
  0
LINE
  5
2ED
  8
0
 62
     7
 10
121.037346
 20
708.47605099999987
 30
0.0
 11
121.037346
 21
711.47605099999987
 31
0.0
  0
LINE
  5
2EE
  8
0
 62
     3
 10
127.037346
 20
708.47605099999987
 30
0.0
 11
127.037346
 21
711.44570199999987
 31
0.0
  0
LINE
  5
2EF
  8
0
 62
     7
 10
314.17882500000002
 20
574.22605099999998
 30
0.0
 11
315.22069499999998
 21
580.13489900000002
 31
0.0
  0
LINE
  5
2F0
  8
0
 62
     7
 10
314.17882500000002
 20
574.22605099999998
 30
0.0
 11
313.136955
 21
580.13489900000002
 31
0.0
  0
LINE
  5
2F1
  8
0
 62
     7
 10
314.17882500000002
 20
679.22605099999998
 30
0.0
 11
313.136955
 21
673.31720700000005
 31
0.0
  0
LINE
  5
2F2
  8
0
 62
     7
 10
314.17882500000002
 20
679.22605099999998
 30
0.0
 11
315.22069499999998
 21
673.31720700000005
 31
0.0
  0
LINE
  5
2F3
  8
0
 62
     7
 10
314.17882500000002
 20
574.22605099999998
 30
0.0
 11
314.17882500000002
 21
679.22605099999998
 31
0.0
  0
LINE
  5
2F4
  8
0
 62
     7
 10
318.17882500000002
 20
574.22605099999998
 30
0.0
 11
262.03734600000001
 21
574.22604699999988
 31
0.0
  0
LINE
  5
2F5
  8
0
 62
     7
 10
318.17882500000002
 20
679.22605099999998
 30
0.0
 11
262.03734600000001
 21
679.22605099999998
 31
0.0
  0
LINE
  5
2F6
  8
0
 62
     7
 10
17.126639999999998
 20
557.47605099999987
 30
0.0
 11
18.168510000000001
 21
563.38489900000002
 31
0.0
  0
LINE
  5
2F7
  8
0
 62
     7
 10
17.126639999999998
 20
557.47605099999987
 30
0.0
 11
16.084769999999999
 21
563.38489499999991
 31
0.0
  0
LINE
  5
2F8
  8
0
 62
     7
 10
17.126639999999998
 20
700.47603600000002
 30
0.0
 11
16.084769999999999
 21
694.56719199999986
 31
0.0
  0
LINE
  5
2F9
  8
0
 62
     7
 10
17.126639999999998
 20
700.47603600000002
 30
0.0
 11
18.168510000000001
 21
694.56719199999986
 31
0.0
  0
LINE
  5
2FA
  8
0
 62
     7
 10
17.126639999999998
 20
557.47605099999987
 30
0.0
 11
17.126639999999998
 21
700.47603600000002
 31
0.0
  0
LINE
  5
2FB
  8
0
 62
     7
 10
13.12664
 20
557.47605099999987
 30
0.0
 11
169.71031999999991
 21
557.47605899999985
 31
0.0
  0
LINE
  5
2FC
  8
0
 62
     7
 10
13.12664
 20
700.47603600000002
 30
0.0
 11
169.71031999999991
 21
700.47603600000002
 31
0.0
  0
LINE
  5
2FD
  8
0
 62
     7
 10
32.811089000000003
 20
626.72605099999987
 30
0.0
 11
33.853020000000001
 21
632.63489500000003
 31
0.0
  0
LINE
  5
2FE
  8
0
 62
     7
 10
32.811089000000003
 20
626.72605099999987
 30
0.0
 11
31.769217999999999
 21
632.63489500000003
 31
0.0
  0
LINE
  5
2FF
  8
0
 62
     7
 10
32.811089000000003
 20
700.47605099999987
 30
0.0
 11
31.769217999999999
 21
694.56720700000005
 31
0.0
  0
LINE
  5
300
  8
0
 62
     7
 10
32.811089000000003
 20
700.47605099999987
 30
0.0
 11
33.853020000000001
 21
694.56720700000005
 31
0.0
  0
LINE
  5
301
  8
0
 62
     7
 10
32.811089000000003
 20
626.72605099999987
 30
0.0
 11
32.811089000000003
 21
700.47605099999987
 31
0.0
  0
LINE
  5
302
  8
0
 62
     7
 10
28.811088999999999
 20
626.72605099999987
 30
0.0
 11
126.872612
 21
626.72605099999987
 31
0.0
  0
LINE
  5
303
  8
0
 62
     7
 10
28.811088999999999
 20
700.47605099999987
 30
0.0
 11
169.71031999999991
 21
700.47605099999987
 31
0.0
  0
LINE
  5
304
  8
0
 62
     7
 10
180.0373459999999
 20
752.94341299999985
 30
0.0
 11
174.12847099999991
 21
753.98529799999994
 31
0.0
  0
LINE
  5
305
  8
0
 62
     7
 10
180.0373459999999
 20
752.94341299999985
 30
0.0
 11
174.12847099999991
 21
751.90152699999987
 31
0.0
  0
LINE
  5
306
  8
0
 62
     7
 10
155.0373459999999
 20
752.94341299999985
 30
0.0
 11
160.9462199999999
 21
751.90152699999987
 31
0.0
  0
LINE
  5
307
  8
0
 62
     7
 10
155.0373459999999
 20
752.94341299999985
 30
0.0
 11
160.9462199999999
 21
753.98529799999994
 31
0.0
  0
LINE
  5
308
  8
0
 62
     7
 10
180.0373459999999
 20
752.94341299999985
 30
0.0
 11
155.0373459999999
 21
752.94341299999985
 31
0.0
  0
LINE
  5
309
  8
0
 62
     7
 10
180.0373459999999
 20
756.94341299999985
 30
0.0
 11
180.0373459999999
 21
707.97605099999987
 31
0.0
  0
LINE
  5
30A
  8
0
 62
     7
 10
155.0373459999999
 20
756.94341299999985
 30
0.0
 11
155.0373459999999
 21
722.47243500000002
 31
0.0
  0
LINE
  5
30B
  8
0
 62
     7
 10
256.5373459999999
 20
777.55179599999997
 30
0.0
 11
250.62847099999999
 21
778.59366599999987
 31
0.0
  0
LINE
  5
30C
  8
0
 62
     7
 10
256.5373459999999
 20
777.55179599999997
 30
0.0
 11
250.62847099999999
 21
776.50992599999995
 31
0.0
  0
LINE
  5
30D
  8
0
 62
     7
 10
155.0373459999999
 20
777.55179599999997
 30
0.0
 11
160.9462199999999
 21
776.50992599999995
 31
0.0
  0
LINE
  5
30E
  8
0
 62
     7
 10
155.0373459999999
 20
777.55179599999997
 30
0.0
 11
160.9462199999999
 21
778.59366599999987
 31
0.0
  0
LINE
  5
30F
  8
0
 62
     7
 10
256.5373459999999
 20
777.55179599999997
 30
0.0
 11
155.0373459999999
 21
777.55179599999997
 31
0.0
  0
LINE
  5
310
  8
0
 62
     7
 10
256.5373459999999
 20
781.55179599999997
 30
0.0
 11
256.5373459999999
 21
689.72605099999987
 31
0.0
  0
LINE
  5
311
  8
0
 62
     7
 10
155.0373459999999
 20
781.55179599999997
 30
0.0
 11
155.0373459999999
 21
722.47242000000006
 31
0.0
  0
LINE
  5
312
  8
0
 62
     7
 10
180.0373459999999
 20
514.21994400000005
 30
0.0
 11
185.9462199999999
 21
513.17805899999985
 31
0.0
  0
LINE
  5
313
  8
0
 62
     7
 10
180.0373459999999
 20
514.21994400000005
 30
0.0
 11
185.9462199999999
 21
515.2618369999999
 31
0.0
  0
LINE
  5
314
  8
0
 62
     7
 10
175.0373459999999
 20
514.21994400000005
 30
0.0
 11
169.12847099999991
 21
515.26183300000002
 31
0.0
  0
LINE
  5
315
  8
0
 62
     7
 10
175.0373459999999
 20
514.21994400000005
 30
0.0
 11
169.12847099999991
 21
513.17805499999997
 31
0.0
  0
LINE
  5
316
  8
0
 62
     7
 10
155.0373459999999
 20
514.21994400000005
 30
0.0
 11
160.9462199999999
 21
513.17805499999997
 31
0.0
  0
LINE
  5
317
  8
0
 62
     7
 10
155.0373459999999
 20
514.21994400000005
 30
0.0
 11
160.9462199999999
 21
515.26183300000002
 31
0.0
  0
LINE
  5
318
  8
0
 62
     7
 10
191.5373459999999
 20
514.21994800000004
 30
0.0
 11
138.0373459999999
 21
514.21994400000005
 31
0.0
  0
LINE
  5
319
  8
0
 62
     7
 10
180.0373459999999
 20
510.219944
 30
0.0
 11
180.0373459999999
 21
548.47606500000006
 31
0.0
  0
LINE
  5
31A
  8
0
 62
     7
 10
175.0373459999999
 20
510.219944
 30
0.0
 11
175.0373459999999
 21
548.47606500000006
 31
0.0
  0
LINE
  5
31B
  8
0
 62
     7
 10
155.0373459999999
 20
510.219944
 30
0.0
 11
155.0373459999999
 21
565.47605099999998
 31
0.0
  0
LINE
  5
31C
  8
0
 62
     7
 10
258.5386279999999
 20
499.81916799999988
 30
0.0
 11
252.62981400000001
 21
500.86106099999989
 31
0.0
  0
LINE
  5
31D
  8
0
 62
     7
 10
258.5386279999999
 20
499.81916799999988
 30
0.0
 11
252.62981400000001
 21
498.7772829999999
 31
0.0
  0
LINE
  5
31E
  8
0
 62
     7
 10
155.0373459999999
 20
499.81916799999988
 30
0.0
 11
160.9462199999999
 21
498.77727499999992
 31
0.0
  0
LINE
  5
31F
  8
0
 62
     7
 10
155.0373459999999
 20
499.81916799999988
 30
0.0
 11
160.9462199999999
 21
500.86105300000003
 31
0.0
  0
LINE
  5
320
  8
0
 62
     7
 10
152.0373459999999
 20
499.81916799999988
 30
0.0
 11
146.12847099999991
 21
500.86105300000003
 31
0.0
  0
LINE
  5
321
  8
0
 62
     7
 10
152.0373459999999
 20
499.81916799999988
 30
0.0
 11
146.12847099999991
 21
498.77727499999992
 31
0.0
  0
LINE
  5
322
  8
0
 62
     7
 10
258.5386279999999
 20
499.81916799999988
 30
0.0
 11
135.0373459999999
 21
499.81916799999988
 31
0.0
  0
LINE
  5
323
  8
0
 62
     7
 10
258.5386279999999
 20
495.81916799999988
 30
0.0
 11
258.5386279999999
 21
574.22605099999998
 31
0.0
  0
LINE
  5
324
  8
0
 62
     7
 10
155.0373459999999
 20
495.81916799999988
 30
0.0
 11
155.0373459999999
 21
565.47604699999999
 31
0.0
  0
LINE
  5
325
  8
0
 62
     7
 10
152.0373459999999
 20
495.81916799999988
 30
0.0
 11
152.0373459999999
 21
565.47604699999999
 31
0.0
  0
LINE
  5
326
  8
0
 62
     7
 10
264.03734600000001
 20
485.8204419999999
 30
0.0
 11
269.94615899999991
 21
484.77855699999998
 31
0.0
  0
LINE
  5
327
  8
0
 62
     7
 10
264.03734600000001
 20
485.8204419999999
 30
0.0
 11
269.94615899999991
 21
486.86233499999997
 31
0.0
  0
LINE
  5
328
  8
0
 62
     7
 10
262.03734600000001
 20
485.8204419999999
 30
0.0
 11
256.12847099999988
 21
486.86233499999997
 31
0.0
  0
LINE
  5
329
  8
0
 62
     7
 10
262.03734600000001
 20
485.8204419999999
 30
0.0
 11
256.12847099999988
 21
484.77855699999998
 31
0.0
  0
LINE
  5
32A
  8
0
 62
     7
 10
155.0373459999999
 20
485.8204419999999
 30
0.0
 11
160.9462199999999
 21
484.77855699999998
 31
0.0
  0
LINE
  5
32B
  8
0
 62
     7
 10
155.0373459999999
 20
485.8204419999999
 30
0.0
 11
160.9462199999999
 21
486.86233499999997
 31
0.0
  0
LINE
  5
32C
  8
0
 62
     7
 10
275.53734600000001
 20
485.82044999999999
 30
0.0
 11
155.0373459999999
 21
485.8204419999999
 31
0.0
  0
LINE
  5
32D
  8
0
 62
     7
 10
264.03734600000001
 20
481.8204419999999
 30
0.0
 11
264.03734600000001
 21
506.26067399999988
 31
0.0
  0
LINE
  5
32E
  8
0
 62
     7
 10
262.03734600000001
 20
481.8204419999999
 30
0.0
 11
262.03734600000001
 21
507.4588849999999
 31
0.0
  0
LINE
  5
32F
  8
0
 62
     7
 10
155.0373459999999
 20
481.8204419999999
 30
0.0
 11
155.0373459999999
 21
565.47605099999998
 31
0.0
  0
LINE
  5
330
  8
0
 62
     7
 10
290.08238999999992
 20
471.52931999999998
 30
0.0
 11
284.17357599999991
 21
472.57120499999991
 31
0.0
  0
LINE
  5
331
  8
0
 62
     7
 10
290.08238999999992
 20
471.52931999999998
 30
0.0
 11
284.17357599999991
 21
470.48742699999991
 31
0.0
  0
LINE
  5
332
  8
0
 62
     7
 10
155.0373459999999
 20
471.529312
 30
0.0
 11
160.94615899999991
 21
470.48742699999991
 31
0.0
  0
LINE
  5
333
  8
0
 62
     7
 10
155.0373459999999
 20
471.529312
 30
0.0
 11
160.94615899999991
 21
472.57120499999991
 31
0.0
  0
LINE
  5
334
  8
0
 62
     7
 10
290.08238999999992
 20
471.52931999999998
 30
0.0
 11
155.0373459999999
 21
471.529312
 31
0.0
  0
LINE
  5
335
  8
0
 62
     7
 10
290.08238999999992
 20
467.52931999999998
 30
0.0
 11
290.08238999999992
 21
616.47605099999987
 31
0.0
  0
LINE
  5
336
  8
0
 62
     7
 10
155.0373459999999
 20
467.529312
 30
0.0
 11
155.0373459999999
 21
565.476044
 31
0.0
  0
LINE
  5
337
  8
0
 62
     7
 10
-206.40554700000001
 20
713.97604399999989
 30
0.0
 11
-208.08738600000001
 21
713.97604399999989
 31
0.0
  0
LINE
  5
338
  8
0
 62
     7
 10
-242.33738399999999
 20
711.17604100000005
 30
0.0
 11
-242.33738399999999
 21
712.976044
 31
0.0
  0
LINE
  5
339
  8
0
 62
     7
 10
-242.33738399999999
 20
711.17604100000005
 30
0.0
 11
-244.8373839999999
 21
711.17604100000005
 31
0.0
  0
LINE
  5
33A
  8
0
 62
     7
 10
-244.83739499999999
 20
546.77604299999985
 30
0.0
 11
-244.83739499999999
 21
711.17604100000005
 31
0.0
  0
LINE
  5
33B
  8
0
 62
     7
 10
-242.33738399999999
 20
546.77604299999985
 30
0.0
 11
-244.8373839999999
 21
546.77604299999985
 31
0.0
  0
LINE
  5
33C
  8
0
 62
     7
 10
-242.33738399999999
 20
544.976044
 30
0.0
 11
-242.33738399999999
 21
546.77604299999985
 31
0.0
  0
LINE
  5
33D
  8
0
 62
     7
 10
-206.40554700000001
 20
543.97604399999989
 30
0.0
 11
-208.08738600000001
 21
543.97604399999989
 31
0.0
  0
LINE
  5
33E
  8
0
 62
     7
 10
-224.699412
 20
689.976044
 30
0.0
 11
-244.83739499999999
 21
689.976044
 31
0.0
  0
LINE
  5
33F
  8
0
 62
     7
 10
-235.58738199999991
 20
689.976044
 30
0.0
 11
-235.58738199999991
 21
693.976044
 31
0.0
  0
LINE
  5
340
  8
0
 62
     7
 10
-239.33738199999991
 20
697.726044
 30
0.0
 11
-242.33738399999999
 21
697.726044
 31
0.0
  0
LINE
  5
341
  8
0
 62
     7
 10
-242.337389
 20
697.726044
 30
0.0
 11
-242.337389
 21
711.17604100000005
 31
0.0
  0
LINE
  5
342
  8
0
 62
     7
 10
-235.58738199999991
 20
563.97604399999989
 30
0.0
 11
-235.58738199999991
 21
567.97604399999989
 31
0.0
  0
LINE
  5
343
  8
0
 62
     7
 10
-215.83735499999989
 20
567.97604399999989
 30
0.0
 11
-235.58738199999991
 21
567.97604399999989
 31
0.0
  0
LINE
  5
344
  8
0
 62
     7
 10
-239.33738199999991
 20
560.226044
 30
0.0
 11
-242.33738399999999
 21
560.226044
 31
0.0
  0
LINE
  5
345
  8
0
 62
     7
 10
-242.33738399999999
 20
546.77604299999985
 30
0.0
 11
-242.33738399999999
 21
560.226044
 31
0.0
  0
CIRCLE
  5
346
  8
0
 62
     7
 10
-239.33737799999989
 20
693.976044
 30
0.0
 40
1.750006
  0
ARC
  5
347
  8
0
 62
     7
 10
-239.33735499999989
 20
693.97595199999989
 30
0.0
 40
3.749919999999999
 50
269.99955399999988
 51
90.000409000000005
  0
ARC
  5
348
  8
0
 62
     7
 10
-241.33737999999991
 20
712.976044
 30
0.0
 40
1.0000039999999999
 50
90.000046999999995
 51
180.00048100000001
  0
CIRCLE
  5
349
  8
0
 62
     7
 10
-239.33738199999991
 20
563.97604799999988
 30
0.0
 40
1.7499990000000001
  0
ARC
  5
34A
  8
0
 62
     7
 10
-241.3373839999999
 20
544.976044
 30
0.0
 40
1.0
 50
180.00000900000001
 51
269.99999100000002
  0
LINE
  5
34B
  8
0
  6
DASHDOT
 62
     7
 10
-239.33735499999989
 20
687.22604399999989
 30
0.0
 11
-239.33735499999989
 21
700.72587599999997
 31
0.0
  0
LINE
  5
34C
  8
0
  6
DASHDOT
 62
     7
 10
-232.58743499999991
 20
693.97595199999989
 30
0.0
 11
-246.08727500000001
 21
693.97595199999989
 31
0.0
  0
LINE
  5
34D
  8
0
  6
DASHDOT
 62
     7
 10
-122.337317
 20
547.97578999999996
 30
0.0
 11
-122.337317
 21
564.97605499999986
 31
0.0
  0
LINE
  5
34E
  8
0
  6
DASHDOT
 62
     7
 10
-122.3373629999999
 20
543.57605599999999
 30
0.0
 11
-122.3373629999999
 21
552.37604099999999
 31
0.0
  0
LINE
  5
34F
  8
0
  6
DASHDOT
 62
     7
 10
-192.33736999999991
 20
543.57604400000002
 30
0.0
 11
-192.33736999999991
 21
561.71792199999993
 31
0.0
  0
CIRCLE
  5
350
  8
0
 62
     7
 10
-239.33738600000001
 20
563.97604000000001
 30
0.0
 40
3.7500010000000001
  0
LINE
  5
351
  8
0
  6
DASHDOT
 62
     7
 10
-239.33738600000001
 20
557.22604000000001
 30
0.0
 11
-239.33738600000001
 21
570.72604399999989
 31
0.0
  0
LINE
  5
352
  8
0
  6
DASHDOT
 62
     7
 10
-232.58738199999991
 20
563.97604000000001
 30
0.0
 11
-246.0873859999999
 21
563.97604000000001
 31
0.0
  0
LINE
  5
353
  8
0
 62
     7
 10
-215.83735499999989
 20
568.72606699999994
 30
0.0
 11
-243.83735299999989
 21
568.72606699999994
 31
0.0
  0
LINE
  5
354
  8
0
 62
     3
 10
-105.3373629999999
 20
679.22604399999989
 30
0.0
 11
-209.33735499999989
 21
679.22604399999989
 31
0.0
  0
LINE
  5
355
  8
0
 62
     3
 10
-105.3373629999999
 20
574.22606699999994
 30
0.0
 11
-118.8373629999999
 21
574.22606699999994
 31
0.0
  0
LINE
  5
356
  8
0
 62
     3
 10
-130.3373629999999
 20
574.22606699999994
 30
0.0
 11
-154.8880749999999
 21
574.22606699999994
 31
0.0
  0
LINE
  5
357
  8
0
 62
     3
 10
-195.837355
 20
574.22606699999994
 30
0.0
 11
-209.33735499999989
 21
574.22606699999994
 31
0.0
  0
LINE
  5
358
  8
0
 62
     7
 10
-243.83735299999989
 20
568.72606699999994
 30
0.0
 11
-243.83735299999989
 21
569.72606699999994
 31
0.0
  0
LINE
  5
359
  8
0
 62
     7
 10
-215.83735499999989
 20
569.72606699999994
 30
0.0
 11
-244.83739499999999
 21
569.72606699999994
 31
0.0
  0
LINE
  5
35A
  8
0
 62
     3
 10
-184.337355
 20
574.22606699999994
 30
0.0
 11
-195.837355
 21
574.22606699999994
 31
0.0
  0
LINE
  5
35B
  8
0
 62
     3
 10
-118.8373629999999
 20
574.22606699999994
 30
0.0
 11
-130.3373629999999
 21
574.22606699999994
 31
0.0
  0
LINE
  5
35C
  8
0
  6
DASHDOT
 62
     7
 10
-157.337355
 20
556.10486999999989
 30
0.0
 11
-157.337355
 21
659.40014599999995
 31
0.0
  0
ARC
  5
35D
  8
0
 62
     3
 10
-209.33735499999989
 20
574.72606699999994
 30
0.0
 40
0.5
 50
180.00000299999991
 51
270.00000499999987
  0
ARC
  5
35E
  8
0
 62
     3
 10
-209.33735499999989
 20
678.72604399999989
 30
0.0
 40
0.5
 50
90.0
 51
180.00000299999991
  0
ARC
  5
35F
  8
0
 62
     3
 10
-105.3373629999999
 20
678.72604399999989
 30
0.0
 40
0.5
 50
0.000001
 51
90.0
  0
ARC
  5
360
  8
0
 62
     3
 10
-105.3373629999999
 20
574.72606699999994
 30
0.0
 40
0.5
 50
270.00000499999987
 51
0.000001
  0
LINE
  5
361
  8
0
  6
DASHDOT
 62
     7
 10
-157.337355
 20
665.17936699999996
 30
0.0
 11
-157.337355
 21
694.08962999999994
 31
0.0
  0
LINE
  5
362
  8
0
 62
     3
 10
-159.78680299999991
 20
574.22606699999994
 30
0.0
 11
-184.337355
 21
574.22606699999994
 31
0.0
  0
LINE
  5
363
  8
0
 62
     7
 10
-184.83736999999991
 20
574.22605099999998
 30
0.0
 11
-194.837355
 21
574.22605099999998
 31
0.0
  0
LINE
  5
364
  8
0
 62
     7
 10
-119.837378
 20
574.22605099999998
 30
0.0
 11
-129.837378
 21
574.22605099999998
 31
0.0
  0
LINE
  5
365
  8
0
 62
     7
 10
-104.83734799999991
 20
574.72605099999998
 30
0.0
 11
-104.83734799999991
 21
592.72603600000002
 31
0.0
  0
LINE
  5
366
  8
0
 62
     7
 10
-209.83735499999989
 20
574.72605099999998
 30
0.0
 11
-209.83735499999989
 21
592.72603600000002
 31
0.0
  0
LINE
  5
367
  8
0
 62
     7
 10
-105.33734799999991
 20
679.22604399999989
 30
0.0
 11
-209.33735499999989
 21
679.22604399999989
 31
0.0
  0
LINE
  5
368
  8
0
 62
     7
 10
-194.837355
 20
574.22605099999998
 30
0.0
 11
-209.83735499999989
 21
574.22605099999998
 31
0.0
  0
LINE
  5
369
  8
0
 62
     7
 10
-129.837378
 20
574.22605099999998
 30
0.0
 11
-184.83736999999991
 21
574.22605099999998
 31
0.0
  0
LINE
  5
36A
  8
0
 62
     7
 10
-105.33734799999991
 20
574.22605099999998
 30
0.0
 11
-119.837378
 21
574.22605099999998
 31
0.0
  0
LINE
  5
36B
  8
0
 62
     7
 10
-146.58735499999989
 20
596.47603600000002
 30
0.0
 11
-146.58735499999989
 21
636.47602099999995
 31
0.0
  0
LINE
  5
36C
  8
0
 62
     7
 10
-168.087355
 20
596.47603600000002
 30
0.0
 11
-168.087355
 21
636.47602099999995
 31
0.0
  0
LINE
  5
36D
  8
0
 62
     7
 10
-104.83734799999991
 20
667.22601299999985
 30
0.0
 11
-209.83735499999989
 21
667.22601299999985
 31
0.0
  0
LINE
  5
36E
  8
0
 62
     7
 10
-104.83734799999991
 20
677.22601299999985
 30
0.0
 11
-209.83735499999989
 21
677.22601299999985
 31
0.0
  0
LINE
  5
36F
  8
0
 62
     7
 10
-146.58735499999989
 20
636.21155499999986
 30
0.0
 11
-168.087355
 21
636.21155499999986
 31
0.0
  0
LINE
  5
370
  8
0
 62
     7
 10
-146.58735499999989
 20
636.47602099999995
 30
0.0
 11
-168.087355
 21
636.47602099999995
 31
0.0
  0
LINE
  5
371
  8
0
 62
     7
 10
-146.58735499999989
 20
596.47603600000002
 30
0.0
 11
-168.087355
 21
596.47603600000002
 31
0.0
  0
LINE
  5
372
  8
0
 62
     7
 10
-146.58735499999989
 20
596.74053200000003
 30
0.0
 11
-168.087355
 21
596.74053200000003
 31
0.0
  0
LINE
  5
373
  8
0
  6
DASHDOT
 62
     7
 10
-157.337355
 20
487.77479599999992
 30
0.0
 11
-157.337355
 21
657.42845199999988
 31
0.0
  0
LINE
  5
374
  8
0
  6
DASHDOT
 62
     7
 10
-157.337355
 20
656.65571599999998
 30
0.0
 11
-157.337355
 21
734.929169
 31
0.0
  0
LINE
  5
375
  8
0
 62
     7
 10
-104.8373629999999
 20
593.72603600000002
 30
0.0
 11
-104.8373629999999
 21
605.72602800000004
 31
0.0
  0
LINE
  5
376
  8
0
 62
     7
 10
-104.8373629999999
 20
574.72214499999995
 30
0.0
 11
-104.8373629999999
 21
678.72604399999989
 31
0.0
  0
LINE
  5
377
  8
0
 62
     7
 10
-104.8373629999999
 20
606.72602800000004
 30
0.0
 11
-104.8373629999999
 21
626.22603599999991
 31
0.0
  0
LINE
  5
378
  8
0
 62
     7
 10
-104.8373629999999
 20
627.22603600000002
 30
0.0
 11
-104.8373629999999
 21
639.22603600000002
 31
0.0
  0
LINE
  5
379
  8
0
 62
     7
 10
-209.83735499999989
 20
593.72603600000002
 30
0.0
 11
-209.83735499999989
 21
605.72603600000002
 31
0.0
  0
LINE
  5
37A
  8
0
 62
     7
 10
-209.83735499999989
 20
606.72603600000002
 30
0.0
 11
-209.83735499999989
 21
626.22603599999991
 31
0.0
  0
LINE
  5
37B
  8
0
 62
     7
 10
-209.83735499999989
 20
627.22603600000002
 30
0.0
 11
-209.83735499999989
 21
639.22603600000002
 31
0.0
  0
LINE
  5
37C
  8
0
 62
     7
 10
-209.83735499999989
 20
574.22605099999998
 30
0.0
 11
-209.83735499999989
 21
678.72604399999989
 31
0.0
  0
ARC
  5
37D
  8
0
 62
     7
 10
-209.33735499999989
 20
574.72605099999998
 30
0.0
 40
0.5
 50
180.00000299999991
 51
270.00000499999987
  0
ARC
  5
37E
  8
0
 62
     7
 10
-105.33734799999991
 20
574.72605099999998
 30
0.0
 40
0.5
 50
270.00000499999987
 51
359.55237699999992
  0
ARC
  5
37F
  8
0
 62
     7
 10
-105.33734799999991
 20
678.72604399999989
 30
0.0
 40
0.5
 50
0.000001
 51
90.0
  0
ARC
  5
380
  8
0
 62
     7
 10
-209.33735499999989
 20
678.72604399999989
 30
0.0
 40
0.5
 50
90.0
 51
180.00000299999991
  0
LINE
  5
381
  8
0
 62
     7
 10
-179.83735499999989
 20
637.72603600000002
 30
0.0
 11
-181.337355
 21
637.72603600000002
 31
0.0
  0
LINE
  5
382
  8
0
 62
     7
 10
-179.83735499999989
 20
628.72603600000002
 30
0.0
 11
-181.337355
 21
628.72603600000002
 31
0.0
  0
CIRCLE
  5
383
  8
0
 62
     7
 10
-180.587355
 20
599.72603600000002
 30
0.0
 40
4.5
  0
CIRCLE
  5
384
  8
0
 62
     7
 10
-180.587355
 20
599.72603600000002
 30
0.0
 40
3.0
  0
LINE
  5
385
  8
0
 62
     7
 10
-181.337355
 20
628.72603600000002
 30
0.0
 11
-181.337355
 21
637.72603600000002
 31
0.0
  0
LINE
  5
386
  8
0
 62
     7
 10
-179.83735499999989
 20
628.72603600000002
 30
0.0
 11
-179.83735499999989
 21
637.72603600000002
 31
0.0
  0
LINE
  5
387
  8
0
 62
     7
 10
-131.78736000000001
 20
603.57603499999993
 30
0.0
 11
-132.237357
 21
603.57603499999993
 31
0.0
  0
LINE
  5
388
  8
0
 62
     7
 10
-132.737357
 20
595.87603799999999
 30
0.0
 11
-133.53736000000001
 21
595.87603799999999
 31
0.0
  0
LINE
  5
389
  8
0
 62
     7
 10
-139.93736899999999
 20
598.47603600000002
 30
0.0
 11
-139.93736899999999
 21
598.97603600000002
 31
0.0
  0
LINE
  5
38A
  8
0
 62
     7
 10
-134.737357
 20
598.47603600000002
 30
0.0
 11
-134.737357
 21
598.97603600000002
 31
0.0
  0
ARC
  5
38B
  8
0
 62
     7
 10
-137.3373629999999
 20
598.97603600000002
 30
0.0
 40
2.6000000000000001
 50
0.000001
 51
180.00000299999991
  0
ARC
  5
38C
  8
0
 62
     7
 10
-137.3373629999999
 20
598.47603600000002
 30
0.0
 40
2.6000000000000001
 50
180.00000299999991
 51
0.000001
  0
ARC
  5
38D
  8
0
 62
     7
 10
-137.3373629999999
 20
598.97603600000002
 30
0.0
 40
1.8
 50
0.000001
 51
180.00000299999991
  0
ARC
  5
38E
  8
0
 62
     7
 10
-137.3373629999999
 20
598.47603600000002
 30
0.0
 40
1.8
 50
180.00000299999991
 51
0.000001
  0
LINE
  5
38F
  8
0
 62
     7
 10
-139.1373659999999
 20
598.47603600000002
 30
0.0
 11
-139.1373659999999
 21
598.97603600000002
 31
0.0
  0
LINE
  5
390
  8
0
 62
     7
 10
-135.53736000000001
 20
598.47603600000002
 30
0.0
 11
-135.53736000000001
 21
598.97603600000002
 31
0.0
  0
LINE
  5
391
  8
0
 62
     7
 10
-134.487357
 20
600.37603799999999
 30
0.0
 11
-134.487357
 21
601.17603299999985
 31
0.0
  0
LINE
  5
392
  8
0
 62
     7
 10
-133.53736000000001
 20
600.37603799999999
 30
0.0
 11
-134.487357
 21
600.37603799999999
 31
0.0
  0
LINE
  5
393
  8
0
 62
     7
 10
-131.78736000000001
 20
600.37603799999999
 30
0.0
 11
-131.78736000000001
 21
601.17603299999985
 31
0.0
  0
LINE
  5
394
  8
0
 62
     7
 10
-133.53736000000001
 20
601.17603299999985
 30
0.0
 11
-134.487357
 21
601.17603299999985
 31
0.0
  0
LINE
  5
395
  8
0
 62
     7
 10
-133.53736000000001
 20
595.87603799999999
 30
0.0
 11
-133.53736000000001
 21
600.37603799999999
 31
0.0
  0
LINE
  5
396
  8
0
 62
     7
 10
-132.737357
 20
595.87603799999999
 30
0.0
 11
-132.737357
 21
600.37603799999999
 31
0.0
  0
LINE
  5
397
  8
0
 62
     7
 10
-131.78736000000001
 20
600.37603799999999
 30
0.0
 11
-132.737357
 21
600.37603799999999
 31
0.0
  0
LINE
  5
398
  8
0
 62
     7
 10
-131.78736000000001
 20
601.17603299999985
 30
0.0
 11
-132.737357
 21
601.17603299999985
 31
0.0
  0
LINE
  5
399
  8
0
 62
     7
 10
-133.53736000000001
 20
601.17603299999985
 30
0.0
 11
-133.53736000000001
 21
602.27603899999997
 31
0.0
  0
LINE
  5
39A
  8
0
 62
     7
 10
-132.737357
 20
601.17603299999985
 30
0.0
 11
-132.737357
 21
602.27603899999997
 31
0.0
  0
ARC
  5
39B
  8
0
 62
     7
 10
-132.237357
 20
602.27603899999997
 30
0.0
 40
1.3
 50
90.0
 51
180.00000299999991
  0
ARC
  5
39C
  8
0
 62
     7
 10
-132.237357
 20
602.27603899999997
 30
0.0
 40
0.5
 50
90.0
 51
180.00000299999991
  0
LINE
  5
39D
  8
0
 62
     7
 10
-131.78736000000001
 20
602.77603899999997
 30
0.0
 11
-131.78736000000001
 21
603.57603499999993
 31
0.0
  0
LINE
  5
39E
  8
0
 62
     7
 10
-131.78736000000001
 20
602.77603899999997
 30
0.0
 11
-132.237357
 21
602.77603899999997
 31
0.0
  0
LINE
  5
39F
  8
0
 62
     7
 10
-128.5873629999999
 20
603.57603499999993
 30
0.0
 11
-129.03736000000001
 21
603.57603499999993
 31
0.0
  0
LINE
  5
3A0
  8
0
 62
     7
 10
-129.53736000000001
 20
595.87603799999999
 30
0.0
 11
-130.3373629999999
 21
595.87603799999999
 31
0.0
  0
LINE
  5
3A1
  8
0
 62
     7
 10
-131.28736000000001
 20
600.37603799999999
 30
0.0
 11
-131.28736000000001
 21
601.17603299999985
 31
0.0
  0
LINE
  5
3A2
  8
0
 62
     7
 10
-130.3373629999999
 20
600.37603799999999
 30
0.0
 11
-131.28736000000001
 21
600.37603799999999
 31
0.0
  0
LINE
  5
3A3
  8
0
 62
     7
 10
-128.5873629999999
 20
600.37603799999999
 30
0.0
 11
-128.5873629999999
 21
601.17603299999985
 31
0.0
  0
LINE
  5
3A4
  8
0
 62
     7
 10
-130.3373629999999
 20
601.17603299999985
 30
0.0
 11
-131.28736000000001
 21
601.17603299999985
 31
0.0
  0
LINE
  5
3A5
  8
0
 62
     7
 10
-130.3373629999999
 20
595.87603799999999
 30
0.0
 11
-130.3373629999999
 21
600.37603799999999
 31
0.0
  0
LINE
  5
3A6
  8
0
 62
     7
 10
-129.53736000000001
 20
595.87603799999999
 30
0.0
 11
-129.53736000000001
 21
600.37603799999999
 31
0.0
  0
LINE
  5
3A7
  8
0
 62
     7
 10
-128.5873629999999
 20
600.37603799999999
 30
0.0
 11
-129.53736000000001
 21
600.37603799999999
 31
0.0
  0
LINE
  5
3A8
  8
0
 62
     7
 10
-128.5873629999999
 20
601.17603299999985
 30
0.0
 11
-129.53736000000001
 21
601.17603299999985
 31
0.0
  0
LINE
  5
3A9
  8
0
 62
     7
 10
-130.3373629999999
 20
601.17603299999985
 30
0.0
 11
-130.3373629999999
 21
602.27603899999997
 31
0.0
  0
LINE
  5
3AA
  8
0
 62
     7
 10
-129.53736000000001
 20
601.17603299999985
 30
0.0
 11
-129.53736000000001
 21
602.27603899999997
 31
0.0
  0
ARC
  5
3AB
  8
0
 62
     7
 10
-129.03736000000001
 20
602.27603899999997
 30
0.0
 40
1.3
 50
90.0
 51
180.00000299999991
  0
ARC
  5
3AC
  8
0
 62
     7
 10
-129.03736000000001
 20
602.27603899999997
 30
0.0
 40
0.5
 50
90.0
 51
180.00000299999991
  0
LINE
  5
3AD
  8
0
 62
     7
 10
-128.5873629999999
 20
602.77603899999997
 30
0.0
 11
-128.5873629999999
 21
603.57603499999993
 31
0.0
  0
LINE
  5
3AE
  8
0
 62
     7
 10
-128.5873629999999
 20
602.77603899999997
 30
0.0
 11
-129.03736000000001
 21
602.77603899999997
 31
0.0
  0
LINE
  5
3AF
  8
0
 62
     7
 10
-133.1373659999999
 20
630.37603799999988
 30
0.0
 11
-133.9373689999999
 21
630.37603799999988
 31
0.0
  0
ARC
  5
3B0
  8
0
 62
     7
 10
-137.3373629999999
 20
633.47603600000002
 30
0.0
 40
2.6000000000000001
 50
0.000001
 51
180.00000299999991
  0
ARC
  5
3B1
  8
0
 62
     7
 10
-137.3373629999999
 20
633.47603600000002
 30
0.0
 40
1.8
 50
0.000001
 51
180.00000299999991
  0
ARC
  5
3B2
  8
0
 62
     7
 10
-137.3373629999999
 20
632.97603600000002
 30
0.0
 40
2.6000000000000001
 50
180.00000299999991
 51
0.000001
  0
ARC
  5
3B3
  8
0
 62
     7
 10
-137.3373629999999
 20
632.97603600000002
 30
0.0
 40
1.8
 50
180.00000299999991
 51
0.000001
  0
LINE
  5
3B4
  8
0
 62
     7
 10
-135.53736000000001
 20
632.97603600000002
 30
0.0
 11
-135.53736000000001
 21
633.47603600000002
 31
0.0
  0
LINE
  5
3B5
  8
0
 62
     7
 10
-134.737357
 20
632.97603600000002
 30
0.0
 11
-134.737357
 21
633.47603600000002
 31
0.0
  0
LINE
  5
3B6
  8
0
 62
     7
 10
-139.1373659999999
 20
632.97603600000002
 30
0.0
 11
-139.1373659999999
 21
633.47603600000002
 31
0.0
  0
LINE
  5
3B7
  8
0
 62
     7
 10
-139.93736899999999
 20
632.97603600000002
 30
0.0
 11
-139.93736899999999
 21
633.47603600000002
 31
0.0
  0
LINE
  5
3B8
  8
0
 62
     7
 10
-133.9373689999999
 20
630.37603799999988
 30
0.0
 11
-133.9373689999999
 21
636.07603499999993
 31
0.0
  0
LINE
  5
3B9
  8
0
 62
     7
 10
-133.1373659999999
 20
630.37603799999988
 30
0.0
 11
-133.1373659999999
 21
633.87603799999999
 31
0.0
  0
LINE
  5
3BA
  8
0
 62
     7
 10
-130.3373629999999
 20
630.37603799999988
 30
0.0
 11
-130.3373629999999
 21
633.87603799999999
 31
0.0
  0
LINE
  5
3BB
  8
0
 62
     7
 10
-129.53736000000001
 20
630.37603799999988
 30
0.0
 11
-129.53736000000001
 21
634.07603499999993
 31
0.0
  0
LINE
  5
3BC
  8
0
 62
     7
 10
-133.1373659999999
 20
636.07603499999993
 30
0.0
 11
-133.9373689999999
 21
636.07603499999993
 31
0.0
  0
ARC
  5
3BD
  8
0
 62
     7
 10
-131.73735699999989
 20
633.87603799999999
 30
0.0
 40
1.399999999999999
 50
0.000001
 51
180.00000299999991
  0
LINE
  5
3BE
  8
0
 62
     7
 10
-133.1373659999999
 20
635.27603899999997
 30
0.0
 11
-133.1373659999999
 21
636.07603499999993
 31
0.0
  0
ARC
  5
3BF
  8
0
 62
     7
 10
-131.53736000000001
 20
634.07603499999993
 30
0.0
 40
2.0
 50
0.000001
 51
143.13010199999999
  0
LINE
  5
3C0
  8
0
 62
     7
 10
-129.53736000000001
 20
630.37603799999988
 30
0.0
 11
-130.3373629999999
 21
630.37603799999988
 31
0.0
  0
LINE
  5
3C1
  8
0
 62
     7
 10
-146.58735499999989
 20
610.60135700000001
 30
0.0
 11
-168.087355
 21
610.60135700000001
 31
0.0
  0
LINE
  5
3C2
  8
0
 62
     7
 10
-146.58735499999989
 20
604.48489400000005
 30
0.0
 11
-168.087355
 21
604.48489400000005
 31
0.0
  0
LINE
  5
3C3
  8
0
 62
     7
 10
-146.58735499999989
 20
598.53707099999986
 30
0.0
 11
-168.087355
 21
598.53707099999986
 31
0.0
  0
LINE
  5
3C4
  8
0
 62
     7
 10
-146.58735499999989
 20
597.734329
 30
0.0
 11
-168.087355
 21
597.734329
 31
0.0
  0
ARC
  5
3C5
  8
0
 62
     7
 10
-239.33729
 20
693.97598300000004
 30
0.0
 40
3.7501059999999988
 50
90.001423999999986
 51
269.99857099999991
  0
LINE
  5
3C6
  8
0
 62
     7
 10
-211.587389
 20
713.97604399999989
 30
0.0
 11
-241.3373839999999
 21
713.97604399999989
 31
0.0
  0
LINE
  5
3C7
  8
0
 62
     7
 10
-209.43814299999991
 20
707.476044
 30
0.0
 11
-212.33738899999989
 21
707.476044
 31
0.0
  0
CIRCLE
  5
3C8
  8
0
 62
     7
 10
-227.3373859999999
 20
701.47602800000004
 30
0.0
 40
5.5000010000000001
  0
CIRCLE
  5
3C9
  8
0
 62
     7
 10
-227.337389
 20
709.97605899999985
 30
0.0
 40
1.4000049999999991
  0
LINE
  5
3CA
  8
0
 62
     7
 10
-211.587389
 20
710.976044
 30
0.0
 11
-211.587389
 21
713.97604399999989
 31
0.0
  0
LINE
  5
3CB
  8
0
 62
     7
 10
-208.08738600000001
 20
710.976044
 30
0.0
 11
-208.08738600000001
 21
713.97604399999989
 31
0.0
  0
LINE
  5
3CC
  8
0
 62
     7
 10
-212.33738899999989
 20
707.476044
 30
0.0
 11
-212.33738899999989
 21
710.976044
 31
0.0
  0
LINE
  5
3CD
  8
0
 62
     7
 10
-207.33738600000001
 20
709.64909399999988
 30
0.0
 11
-207.33738600000001
 21
710.976044
 31
0.0
  0
LINE
  5
3CE
  8
0
 62
     7
 10
-207.33738600000001
 20
710.976044
 30
0.0
 11
-208.08738600000001
 21
710.976044
 31
0.0
  0
LINE
  5
3CF
  8
0
 62
     7
 10
-211.587389
 20
710.976044
 30
0.0
 11
-212.33738899999989
 21
710.976044
 31
0.0
  0
LINE
  5
3D0
  8
0
 62
     7
 10
-211.587389
 20
543.97604399999989
 30
0.0
 11
-241.3373839999999
 21
543.97604399999989
 31
0.0
  0
LINE
  5
3D1
  8
0
 62
     7
 10
-209.43814299999991
 20
550.476044
 30
0.0
 11
-212.33738899999989
 21
550.476044
 31
0.0
  0
CIRCLE
  5
3D2
  8
0
 62
     7
 10
-227.337367
 20
556.47604799999999
 30
0.0
 40
5.4999969999999996
  0
CIRCLE
  5
3D3
  8
0
 62
     7
 10
-227.33736999999999
 20
547.97604399999989
 30
0.0
 40
1.399999999999999
  0
LINE
  5
3D4
  8
0
  6
DASHDOT
 62
     7
 10
-227.337367
 20
547.97604899999999
 30
0.0
 11
-227.337367
 21
564.976044
 31
0.0
  0
LINE
  5
3D5
  8
0
  6
DASHDOT
 62
     7
 10
-227.33736999999999
 20
543.57604400000002
 30
0.0
 11
-227.33736999999999
 21
552.37604499999998
 31
0.0
  0
LINE
  5
3D6
  8
0
 62
     7
 10
-208.08738600000001
 20
543.97604399999989
 30
0.0
 11
-208.08738600000001
 21
546.97604399999989
 31
0.0
  0
LINE
  5
3D7
  8
0
 62
     7
 10
-211.587389
 20
543.97604399999989
 30
0.0
 11
-211.587389
 21
546.97604399999989
 31
0.0
  0
LINE
  5
3D8
  8
0
 62
     7
 10
-211.587389
 20
546.97604399999989
 30
0.0
 11
-212.33738899999989
 21
546.97604399999989
 31
0.0
  0
LINE
  5
3D9
  8
0
 62
     7
 10
-207.33738600000001
 20
546.97604399999989
 30
0.0
 11
-208.08738600000001
 21
546.97604399999989
 31
0.0
  0
LINE
  5
3DA
  8
0
 62
     7
 10
-207.33738600000001
 20
546.97604399999989
 30
0.0
 11
-207.33738600000001
 21
548.3029919999999
 31
0.0
  0
LINE
  5
3DB
  8
0
 62
     7
 10
-212.33738899999989
 20
546.97604399999989
 30
0.0
 11
-212.33738899999989
 21
550.476044
 31
0.0
  0
LINE
  5
3DC
  8
0
  6
DASHDOT
 62
     7
 10
-227.337389
 20
698.57605000000001
 30
0.0
 11
-227.337389
 21
721.37605299999996
 31
0.0
  0
LINE
  5
3DD
  8
0
  6
DASHDOT
 62
     7
 10
-215.93738399999989
 20
709.97605899999985
 30
0.0
 11
-238.73739499999999
 21
709.97605899999985
 31
0.0
  0
LINE
  5
3DE
  8
0
  6
DASHDOT
 62
     7
 10
-227.3373859999999
 20
685.97602800000004
 30
0.0
 11
-227.3373859999999
 21
716.97602800000004
 31
0.0
  0
LINE
  5
3DF
  8
0
  6
DASHDOT
 62
     7
 10
-211.83738199999991
 20
701.47602800000004
 30
0.0
 11
-242.8373859999999
 21
701.47602800000004
 31
0.0
  0
LINE
  5
3E0
  8
0
  6
DASHDOT
 62
     7
 10
-211.83736999999999
 20
556.47604799999999
 30
0.0
 11
-242.83736499999989
 21
556.47604799999999
 31
0.0
  0
LINE
  5
3E1
  8
0
  6
DASHDOT
 62
     7
 10
-215.9373689999999
 20
547.97604399999989
 30
0.0
 11
-238.73737199999999
 21
547.97604399999989
 31
0.0
  0
LINE
  5
3E2
  8
0
 62
     7
 10
-217.037352
 20
569.72606699999994
 30
0.0
 11
-217.037352
 21
689.726044
 31
0.0
  0
LINE
  5
3E3
  8
0
 62
     7
 10
-220.63735399999999
 20
569.72606699999994
 30
0.0
 11
-220.63735399999999
 21
689.726044
 31
0.0
  0
LINE
  5
3E4
  8
0
 62
     7
 10
-224.23735300000001
 20
569.72606699999994
 30
0.0
 11
-224.23735300000001
 21
689.726044
 31
0.0
  0
LINE
  5
3E5
  8
0
 62
     7
 10
-227.83735499999989
 20
569.72606699999994
 30
0.0
 11
-227.83735499999989
 21
689.726044
 31
0.0
  0
LINE
  5
3E6
  8
0
 62
     7
 10
-231.437354
 20
569.72606699999994
 30
0.0
 11
-231.437354
 21
689.726044
 31
0.0
  0
LINE
  5
3E7
  8
0
 62
     7
 10
-235.037352
 20
569.72606699999994
 30
0.0
 11
-235.037352
 21
689.726044
 31
0.0
  0
LINE
  5
3E8
  8
0
 62
     7
 10
-238.63735399999999
 20
569.72606699999994
 30
0.0
 11
-238.63735399999999
 21
689.726044
 31
0.0
  0
LINE
  5
3E9
  8
0
 62
     7
 10
-242.23735499999989
 20
569.72606699999994
 30
0.0
 11
-242.23735499999989
 21
689.726044
 31
0.0
  0
LINE
  5
3EA
  8
0
 62
     7
 10
-215.83735499999989
 20
679.22604399999989
 30
0.0
 11
-244.83739499999999
 21
679.22604399999989
 31
0.0
  0
LINE
  5
3EB
  8
0
 62
     7
 10
-215.83735499999989
 20
574.22605099999998
 30
0.0
 11
-244.83739499999999
 21
574.22605099999998
 31
0.0
  0
LINE
  5
3EC
  8
0
  6
DASHDOT
 62
   150
 10
-97.918432999999993
 20
626.72605099999987
 30
0.0
 11
-254.55636999999999
 21
626.72605099999987
 31
0.0
  0
LINE
  5
3ED
  8
0
 62
     3
 10
-215.83735499999989
 20
689.97605899999985
 30
0.0
 11
-224.699412
 21
689.97605899999985
 31
0.0
  0
LINE
  5
3EE
  8
0
 62
     3
 10
-106.087378
 20
716.476044
 30
0.0
 11
-205.541586
 21
716.476044
 31
0.0
  0
LINE
  5
3EF
  8
0
 62
     3
 10
-104.837317
 20
707.22604399999989
 30
0.0
 11
-104.837317
 21
715.226044
 31
0.0
  0
LINE
  5
3F0
  8
0
 62
     3
 10
-105.20348199999999
 20
716.10992399999986
 30
0.0
 11
-106.0873629999999
 21
716.476044
 31
0.0
  0
LINE
  5
3F1
  8
0
 62
     3
 10
-104.8373629999999
 20
715.22605899999996
 30
0.0
 11
-105.20348199999999
 21
716.10994000000005
 31
0.0
  0
LINE
  5
3F2
  8
0
 62
     3
 10
-108.98737199999989
 20
707.22604399999989
 30
0.0
 11
-108.98737199999989
 21
716.16539
 31
0.0
  0
LINE
  5
3F3
  8
0
 62
     3
 10
-112.587378
 20
707.22604399999989
 30
0.0
 11
-112.587378
 21
716.16539
 31
0.0
  0
LINE
  5
3F4
  8
0
 62
     3
 10
-116.1873689999999
 20
707.22604399999989
 30
0.0
 11
-116.1873689999999
 21
716.16539
 31
0.0
  0
LINE
  5
3F5
  8
0
 62
     3
 10
-119.787375
 20
707.22604399999989
 30
0.0
 11
-119.787375
 21
716.16539
 31
0.0
  0
LINE
  5
3F6
  8
0
 62
     3
 10
-123.3873659999999
 20
707.22604399999989
 30
0.0
 11
-123.3873659999999
 21
716.16539
 31
0.0
  0
LINE
  5
3F7
  8
0
 62
     3
 10
-126.98737199999989
 20
707.22604399999989
 30
0.0
 11
-126.98737199999989
 21
716.16539
 31
0.0
  0
LINE
  5
3F8
  8
0
 62
     3
 10
-130.58737799999989
 20
707.22604399999989
 30
0.0
 11
-130.58737799999989
 21
716.16539
 31
0.0
  0
LINE
  5
3F9
  8
0
 62
     3
 10
-134.1873689999999
 20
707.22604399999989
 30
0.0
 11
-134.1873689999999
 21
716.16539
 31
0.0
  0
LINE
  5
3FA
  8
0
 62
     3
 10
-137.787375
 20
707.22604399999989
 30
0.0
 11
-137.787375
 21
716.16539
 31
0.0
  0
LINE
  5
3FB
  8
0
 62
     3
 10
-141.3873659999999
 20
707.22604399999989
 30
0.0
 11
-141.3873659999999
 21
716.16539
 31
0.0
  0
LINE
  5
3FC
  8
0
 62
     3
 10
-144.9873639999999
 20
707.22604399999989
 30
0.0
 11
-144.9873639999999
 21
716.16539
 31
0.0
  0
LINE
  5
3FD
  8
0
 62
     3
 10
-148.58736999999991
 20
707.22604399999989
 30
0.0
 11
-148.58736999999991
 21
716.16539
 31
0.0
  0
LINE
  5
3FE
  8
0
 62
     3
 10
-152.1873689999999
 20
707.22604399999989
 30
0.0
 11
-152.1873689999999
 21
716.16539
 31
0.0
  0
LINE
  5
3FF
  8
0
 62
     3
 10
-155.78736699999999
 20
707.22604399999989
 30
0.0
 11
-155.78736699999999
 21
716.16539
 31
0.0
  0
LINE
  5
400
  8
0
 62
     3
 10
-159.3873659999999
 20
707.22604399999989
 30
0.0
 11
-159.3873659999999
 21
716.16539
 31
0.0
  0
LINE
  5
401
  8
0
 62
     3
 10
-162.98737199999991
 20
707.22604399999989
 30
0.0
 11
-162.98737199999991
 21
716.16539
 31
0.0
  0
LINE
  5
402
  8
0
 62
     3
 10
-166.58736999999991
 20
707.22604399999989
 30
0.0
 11
-166.58736999999991
 21
716.16539
 31
0.0
  0
LINE
  5
403
  8
0
 62
     3
 10
-188.3873659999999
 20
707.22604399999989
 30
0.0
 11
-188.3873659999999
 21
716.16539
 31
0.0
  0
LINE
  5
404
  8
0
 62
     3
 10
-217.38736599999999
 20
690.976044
 30
0.0
 11
-217.38736599999999
 21
696.26768499999991
 31
0.0
  0
LINE
  5
405
  8
0
 62
     3
 10
-220.987368
 20
690.976044
 30
0.0
 11
-220.987368
 21
693.78476000000001
 31
0.0
  0
LINE
  5
406
  8
0
 62
     3
 10
-215.83735499999989
 20
690.97605899999985
 30
0.0
 11
-224.48707400000001
 21
690.97605899999985
 31
0.0
  0
LINE
  5
407
  8
0
 62
     3
 10
-184.78736699999999
 20
707.22604399999989
 30
0.0
 11
-184.78736699999999
 21
716.16539
 31
0.0
  0
LINE
  5
408
  8
0
 62
     3
 10
-181.1873689999999
 20
707.22604399999989
 30
0.0
 11
-181.1873689999999
 21
716.16539
 31
0.0
  0
LINE
  5
409
  8
0
 62
     3
 10
-177.58736999999991
 20
707.22604399999989
 30
0.0
 11
-177.58736999999991
 21
716.16539
 31
0.0
  0
LINE
  5
40A
  8
0
 62
     3
 10
-173.9873639999999
 20
707.22604399999989
 30
0.0
 11
-173.9873639999999
 21
716.16539
 31
0.0
  0
LINE
  5
40B
  8
0
 62
     3
 10
-170.38736599999999
 20
707.22604399999989
 30
0.0
 11
-170.38736599999999
 21
716.16539
 31
0.0
  0
LINE
  5
40C
  8
0
 62
     3
 10
-191.9873639999999
 20
707.22604399999989
 30
0.0
 11
-191.9873639999999
 21
716.16539
 31
0.0
  0
LINE
  5
40D
  8
0
 62
     3
 10
-195.58736999999991
 20
707.22604399999989
 30
0.0
 11
-195.58736999999991
 21
716.16539
 31
0.0
  0
LINE
  5
40E
  8
0
 62
     3
 10
-199.18736899999999
 20
707.22604399999989
 30
0.0
 11
-199.18736899999999
 21
716.16539
 31
0.0
  0
LINE
  5
40F
  8
0
 62
     3
 10
-202.7873669999999
 20
707.22604399999989
 30
0.0
 11
-202.7873669999999
 21
716.16539
 31
0.0
  0
LINE
  5
410
  8
0
 62
     3
 10
-206.38736599999999
 20
707.22604399999989
 30
0.0
 11
-206.38736599999999
 21
710.42297399999995
 31
0.0
  0
POLYLINE
  5
411
  8
0
 62
     3
 66
     1
 10
0.0
 20
0.0
 30
0.0
  0
VERTEX
  5
BFB
  8
0
 62
     3
 10
-204.2141399999999
 20
717.33061199999986
 30
0.0
  0
VERTEX
  5
BFC
  8
0
 62
     3
 10
-204.38963199999989
 20
717.25469999999984
 30
0.0
  0
VERTEX
  5
BFD
  8
0
 62
     3
 10
-204.47703399999989
 20
717.21360800000002
 30
0.0
  0
VERTEX
  5
BFE
  8
0
 62
     3
 10
-204.56397899999999
 20
717.17051700000002
 30
0.0
  0
VERTEX
  5
BFF
  8
0
 62
     3
 10
-204.6497479999999
 20
717.12574800000004
 30
0.0
  0
VERTEX
  5
C00
  8
0
 62
     3
 10
-204.73493099999999
 20
717.07899499999985
 30
0.0
  0
VERTEX
  5
C01
  8
0
 62
     3
 10
-204.81783899999991
 20
717.03118899999993
 30
0.0
  0
VERTEX
  5
C02
  8
0
 62
     3
 10
-204.89999199999991
 20
716.98142999999993
 30
0.0
  0
VERTEX
  5
C03
  8
0
 62
     3
 10
-204.97885799999989
 20
716.93127400000003
 30
0.0
  0
VERTEX
  5
C04
  8
0
 62
     3
 10
-205.056792
 20
716.87925700000005
 30
0.0
  0
VERTEX
  5
C05
  8
0
 62
     3
 10
-205.13670200000001
 20
716.82315099999994
 30
0.0
  0
VERTEX
  5
C06
  8
0
 62
     3
 10
-205.20763299999999
 20
716.7707519999999
 30
0.0
  0
VERTEX
  5
C07
  8
0
 62
     3
 10
-205.27715199999989
 20
716.7166289999999
 30
0.0
  0
VERTEX
  5
C08
  8
0
 62
     3
 10
-205.338606
 20
716.66612199999986
 30
0.0
  0
VERTEX
  5
C09
  8
0
 62
     3
 10
-205.39847399999991
 20
716.61415099999999
 30
0.0
  0
VERTEX
  5
C0A
  8
0
 62
     3
 10
-205.45297099999991
 20
716.56411700000001
 30
0.0
  0
VERTEX
  5
C0B
  8
0
 62
     3
 10
-205.50578899999999
 20
716.51277199999993
 30
0.0
  0
VERTEX
  5
C0C
  8
0
 62
     3
 10
-205.55466299999989
 20
716.46241799999984
 30
0.0
  0
VERTEX
  5
C0D
  8
0
 62
     3
 10
-205.60182
 20
716.41087300000004
 30
0.0
  0
VERTEX
  5
C0E
  8
0
 62
     3
 10
-205.6459339999999
 20
716.35966499999995
 30
0.0
  0
VERTEX
  5
C0F
  8
0
 62
     3
 10
-205.68832299999991
 20
716.30734299999995
 30
0.0
  0
VERTEX
  5
C10
  8
0
 62
     3
 10
-205.72831599999989
 20
716.25477599999988
 30
0.0
  0
VERTEX
  5
C11
  8
0
 62
     3
 10
-205.766593
 20
716.20114099999989
 30
0.0
  0
VERTEX
  5
C12
  8
0
 62
     3
 10
-205.78274400000001
 20
716.177414
 30
0.0
  0
VERTEX
  5
C13
  8
0
 62
     3
 10
-205.85260600000001
 20
716.06658900000002
 30
0.0
  0
VERTEX
  5
C14
  8
0
 62
     3
 10
-205.92375000000001
 20
715.93952899999988
 30
0.0
  0
VERTEX
  5
C15
  8
0
 62
     3
 10
-205.9994649999999
 20
715.78907800000002
 30
0.0
  0
VERTEX
  5
C16
  8
0
 62
     3
 10
-206.08672999999999
 20
715.59982300000001
 30
0.0
  0
VERTEX
  5
C17
  8
0
 62
     3
 10
-206.19743199999999
 20
715.34678600000007
 30
0.0
  0
VERTEX
  5
C18
  8
0
 62
     3
 10
-206.37773799999991
 20
714.89939900000002
 30
0.0
  0
VERTEX
  5
C19
  8
0
 62
     3
 10
-206.47348600000001
 20
714.44937100000004
 30
0.0
  0
VERTEX
  5
C1A
  8
0
 62
     3
 10
-206.47524899999999
 20
714.37823500000002
 30
0.0
  0
VERTEX
  5
C1B
  8
0
 62
     3
 10
-206.4707019999999
 20
714.28399699999989
 30
0.0
  0
VERTEX
  5
C1C
  8
0
 62
     3
 10
-206.45812799999999
 20
714.18701199999998
 30
0.0
  0
VERTEX
  5
C1D
  8
0
 62
     3
 10
-206.43713199999999
 20
714.08618200000001
 30
0.0
  0
VERTEX
  5
C1E
  8
0
 62
     3
 10
-206.40705
 20
713.98001099999999
 30
0.0
  0
VERTEX
  5
C1F
  8
0
 62
     3
 10
-206.36677399999999
 20
713.86627199999998
 30
0.0
  0
VERTEX
  5
C20
  8
0
 62
     3
 10
-206.31437500000001
 20
713.74102800000003
 30
0.0
  0
VERTEX
  5
C21
  8
0
 62
     3
 10
-206.24565699999999
 20
713.59567300000003
 30
0.0
  0
VERTEX
  5
C22
  8
0
 62
     3
 10
-206.15130500000001
 20
713.40954599999998
 30
0.0
  0
VERTEX
  5
C23
  8
0
 62
     3
 10
-206.05177199999989
 20
713.21061699999996
 30
0.0
  0
VERTEX
  5
C24
  8
0
 62
     3
 10
-205.96014999999991
 20
713.01191700000004
 30
0.0
  0
VERTEX
  5
C25
  8
0
 62
     3
 10
-205.9246959999999
 20
712.92756699999995
 30
0.0
  0
VERTEX
  5
C26
  8
0
 62
     3
 10
-205.89147800000001
 20
712.84272800000008
 30
0.0
  0
VERTEX
  5
C27
  8
0
 62
     3
 10
-205.86361599999989
 20
712.76580799999988
 30
0.0
  0
VERTEX
  5
C28
  8
0
 62
     3
 10
-205.83780499999989
 20
712.68829299999993
 30
0.0
  0
VERTEX
  5
C29
  8
0
 62
     3
 10
-205.8153439999999
 20
712.61436500000002
 30
0.0
  0
VERTEX
  5
C2A
  8
0
 62
     3
 10
-205.79485199999999
 20
712.53977999999995
 30
0.0
  0
VERTEX
  5
C2B
  8
0
 62
     3
 10
-205.776816
 20
712.46650699999987
 30
0.0
  0
VERTEX
  5
C2C
  8
0
 62
     3
 10
-205.76069499999991
 20
712.39251699999988
 30
0.0
  0
VERTEX
  5
C2D
  8
0
 62
     3
 10
-205.73628099999999
 20
712.25614900000005
 30
0.0
  0
VERTEX
  5
C2E
  8
0
 62
     3
 10
-205.72546199999999
 20
712.17952000000002
 30
0.0
  0
VERTEX
  5
C2F
  8
0
 62
     3
 10
-205.7166959999999
 20
712.10224900000003
 30
0.0
  0
VERTEX
  5
C30
  8
0
 62
     3
 10
-205.71043999999989
 20
712.02879299999995
 30
0.0
  0
VERTEX
  5
C31
  8
0
 62
     3
 10
-205.70627500000001
 20
711.95504800000003
 30
0.0
  0
VERTEX
  5
C32
  8
0
 62
     3
 10
-205.70434399999999
 20
711.88465899999994
 30
0.0
  0
VERTEX
  5
C33
  8
0
 62
     3
 10
-205.70450399999999
 20
711.81428499999993
 30
0.0
  0
VERTEX
  5
C34
  8
0
 62
     3
 10
-205.70669399999991
 20
711.74694800000009
 30
0.0
  0
VERTEX
  5
C35
  8
0
 62
     3
 10
-205.710959
 20
711.67984000000001
 30
0.0
  0
VERTEX
  5
C36
  8
0
 62
     3
 10
-205.71708499999991
 20
711.61552400000005
 30
0.0
  0
VERTEX
  5
C37
  8
0
 62
     3
 10
-205.7252409999999
 20
711.55161999999996
 30
0.0
  0
VERTEX
  5
C38
  8
0
 62
     3
 10
-205.73512099999991
 20
711.49031100000002
 30
0.0
  0
VERTEX
  5
C39
  8
0
 62
     3
 10
-205.74699299999989
 20
711.42958099999987
 30
0.0
  0
VERTEX
  5
C3A
  8
0
 62
     3
 10
-205.7604509999999
 20
711.37127699999985
 30
0.0
  0
VERTEX
  5
C3B
  8
0
 62
     3
 10
-205.77585499999989
 20
711.3136599999998
 30
0.0
  0
VERTEX
  5
C3C
  8
0
 62
     3
 10
-205.79274599999999
 20
711.25834699999984
 30
0.0
  0
VERTEX
  5
C3D
  8
0
 62
     3
 10
-205.81152999999989
 20
711.20382699999993
 30
0.0
  0
VERTEX
  5
C3E
  8
0
 62
     3
 10
-205.83170899999999
 20
711.15147400000001
 30
0.0
  0
VERTEX
  5
C3F
  8
0
 62
     3
 10
-205.8537279999999
 20
711.10003700000004
 30
0.0
  0
VERTEX
  5
C40
  8
0
 62
     3
 10
-205.87419700000001
 20
711.05645800000002
 30
0.0
  0
VERTEX
  5
C41
  8
0
 62
     3
 10
-205.92521499999989
 20
710.96119699999986
 30
0.0
  0
VERTEX
  5
C42
  8
0
 62
     3
 10
-205.984961
 20
710.86625699999991
 30
0.0
  0
VERTEX
  5
C43
  8
0
 62
     3
 10
-206.054114
 20
710.77105700000004
 30
0.0
  0
VERTEX
  5
C44
  8
0
 62
     3
 10
-206.13368099999991
 20
710.67478899999992
 30
0.0
  0
VERTEX
  5
C45
  8
0
 62
     3
 10
-206.22511900000001
 20
710.57630900000004
 30
0.0
  0
VERTEX
  5
C46
  8
0
 62
     3
 10
-206.33080899999999
 20
710.47375499999998
 30
0.0
  0
VERTEX
  5
C47
  8
0
 62
     3
 10
-206.4550769999999
 20
710.36364700000001
 30
0.0
  0
VERTEX
  5
C48
  8
0
 62
     3
 10
-206.60779400000001
 20
710.23794599999985
 30
0.0
  0
VERTEX
  5
C49
  8
0
 62
     3
 10
-206.797698
 20
710.08818099999985
 30
0.0
  0
VERTEX
  5
C4A
  8
0
 62
     3
 10
-207.00625500000001
 20
709.92265300000008
 30
0.0
  0
VERTEX
  5
C4B
  8
0
 62
     3
 10
-207.210959
 20
709.755402
 30
0.0
  0
VERTEX
  5
C4C
  8
0
 62
     3
 10
-207.47303600000001
 20
709.53234900000007
 30
0.0
  0
VERTEX
  5
C4D
  8
0
 62
     3
 10
-207.62786
 20
709.39598100000001
 30
0.0
  0
VERTEX
  5
C4E
  8
0
 62
     3
 10
-207.78628399999991
 20
709.25326500000006
 30
0.0
  0
VERTEX
  5
C4F
  8
0
 62
     3
 10
-207.94234299999991
 20
709.10790999999995
 30
0.0
  0
VERTEX
  5
C50
  8
0
 62
     3
 10
-208.04231100000001
 20
709.01144399999998
 30
0.0
  0
VERTEX
  5
C51
  8
0
 62
     3
 10
-208.140692
 20
708.91343700000004
 30
0.0
  0
VERTEX
  5
C52
  8
0
 62
     3
 10
-208.22984199999991
 20
708.82170099999996
 30
0.0
  0
VERTEX
  5
C53
  8
0
 62
     3
 10
-208.31742700000001
 20
708.72862199999997
 30
0.0
  0
VERTEX
  5
C54
  8
0
 62
     3
 10
-208.485827
 20
708.54101600000001
 30
0.0
  0
VERTEX
  5
C55
  8
0
 62
     3
 10
-208.5045189999999
 20
708.51946999999996
 30
0.0
  0
VERTEX
  5
C56
  8
0
 62
     3
 10
-208.675543
 20
708.31802400000004
 30
0.0
  0
VERTEX
  5
C57
  8
0
 62
     3
 10
-208.92866000000001
 20
708.02351399999998
 30
0.0
  0
VERTEX
  5
C58
  8
0
 62
     3
 10
-209.1958149999999
 20
707.73469499999987
 30
0.0
  0
VERTEX
  5
C59
  8
0
 62
     3
 10
-209.30126399999989
 20
707.62538099999995
 30
0.0
  0
VERTEX
  5
C5A
  8
0
 62
     3
 10
-209.40461599999989
 20
707.51438899999994
 30
0.0
  0
VERTEX
  5
C5B
  8
0
 62
     3
 10
-209.458811
 20
707.4523929999998
 30
0.0
  0
VERTEX
  5
C5C
  8
0
 62
     3
 10
-209.51078299999989
 20
707.38909899999987
 30
0.0
  0
VERTEX
  5
C5D
  8
0
 62
     3
 10
-209.55102400000001
 20
707.33660899999995
 30
0.0
  0
VERTEX
  5
C5E
  8
0
 62
     3
 10
-209.5893199999999
 20
707.28301999999985
 30
0.0
  0
VERTEX
  5
C5F
  8
0
 62
     3
 10
-209.62231700000001
 20
707.23326100000008
 30
0.0
  0
VERTEX
  5
C60
  8
0
 62
     3
 10
-209.65346
 20
707.18244900000002
 30
0.0
  0
VERTEX
  5
C61
  8
0
 62
     3
 10
-209.6812459999999
 20
707.133194
 30
0.0
  0
VERTEX
  5
C62
  8
0
 62
     3
 10
-209.707232
 20
707.08293200000003
 30
0.0
  0
VERTEX
  5
C63
  8
0
 62
     3
 10
-209.7308139999999
 20
707.03292799999997
 30
0.0
  0
VERTEX
  5
C64
  8
0
 62
     3
 10
-209.752623
 20
706.98193400000002
 30
0.0
  0
VERTEX
  5
C65
  8
0
 62
     3
 10
-209.79079300000001
 20
706.87741100000005
 30
0.0
  0
VERTEX
  5
C66
  8
0
 62
     3
 10
-209.796671
 20
706.85900900000001
 30
0.0
  0
VERTEX
  5
C67
  8
0
 62
     3
 10
-209.82785699999999
 20
706.74807699999985
 30
0.0
  0
VERTEX
  5
C68
  8
0
 62
     3
 10
-209.8658429999999
 20
706.59025599999995
 30
0.0
  0
VERTEX
  5
C69
  8
0
 62
     3
 10
-209.91417899999999
 20
706.40017699999987
 30
0.0
  0
VERTEX
  5
C6A
  8
0
 62
     3
 10
-209.97667200000001
 20
706.22053499999993
 30
0.0
  0
VERTEX
  5
C6B
  8
0
 62
     3
 10
-209.98006699999999
 20
706.21263099999999
 30
0.0
  0
SEQEND
  5
C6C
  8
0
 62
     3
  0
POLYLINE
  5
484
  8
0
 62
     3
 66
     1
 10
0.0
 20
0.0
 30
0.0
  0
VERTEX
  5
C6D
  8
0
 62
     3
 10
-209.98006699999999
 20
706.21263099999999
 30
0.0
  0
VERTEX
  5
C6E
  8
0
 62
     3
 10
-209.997412
 20
706.17520100000002
 30
0.0
  0
VERTEX
  5
C6F
  8
0
 62
     3
 10
-210.016448
 20
706.13888499999996
 30
0.0
  0
VERTEX
  5
C70
  8
0
 62
     3
 10
-210.05933999999999
 20
706.06996200000003
 30
0.0
  0
VERTEX
  5
C71
  8
0
 62
     3
 10
-210.10889299999999
 20
706.00540199999989
 30
0.0
  0
VERTEX
  5
C72
  8
0
 62
     3
 10
-210.16541099999989
 20
705.94485499999985
 30
0.0
  0
VERTEX
  5
C73
  8
0
 62
     3
 10
-210.22935699999999
 20
705.88801599999999
 30
0.0
  0
VERTEX
  5
C74
  8
0
 62
     3
 10
-210.30135200000001
 20
705.83462499999985
 30
0.0
  0
VERTEX
  5
C75
  8
0
 62
     3
 10
-210.38223099999999
 20
705.78449999999998
 30
0.0
  0
VERTEX
  5
C76
  8
0
 62
     3
 10
-210.4730899999999
 20
705.73744199999999
 30
0.0
  0
VERTEX
  5
C77
  8
0
 62
     3
 10
-210.57544899999999
 20
705.69320700000003
 30
0.0
  0
VERTEX
  5
C78
  8
0
 62
     3
 10
-210.69165299999989
 20
705.65135199999997
 30
0.0
  0
VERTEX
  5
C79
  8
0
 62
     3
 10
-210.82596099999989
 20
705.6109469999999
 30
0.0
  0
VERTEX
  5
C7A
  8
0
 62
     3
 10
-210.98885200000001
 20
705.56922899999995
 30
0.0
  0
VERTEX
  5
C7B
  8
0
 62
     3
 10
-210.9957379999999
 20
705.56756600000006
 30
0.0
  0
VERTEX
  5
C7C
  8
0
 62
     3
 10
-211.2552169999999
 20
705.50793499999986
 30
0.0
  0
VERTEX
  5
C7D
  8
0
 62
     3
 10
-211.51982000000001
 20
705.44746399999985
 30
0.0
  0
VERTEX
  5
C7E
  8
0
 62
     3
 10
-211.7798939999999
 20
705.38269000000003
 30
0.0
  0
VERTEX
  5
C7F
  8
0
 62
     3
 10
-212.05159599999999
 20
705.30870099999993
 30
0.0
  0
VERTEX
  5
C80
  8
0
 62
     3
 10
-212.26020699999989
 20
705.25198399999999
 30
0.0
  0
VERTEX
  5
C81
  8
0
 62
     3
 10
-212.47170099999991
 20
705.19780000000003
 30
0.0
  0
VERTEX
  5
C82
  8
0
 62
     3
 10
-212.738066
 20
705.13491799999986
 30
0.0
  0
VERTEX
  5
C83
  8
0
 62
     3
 10
-212.98526200000001
 20
705.07456999999999
 30
0.0
  0
VERTEX
  5
C84
  8
0
 62
     3
 10
-213.22661099999991
 20
705.00398300000006
 30
0.0
  0
VERTEX
  5
C85
  8
0
 62
     3
 10
-213.29837299999991
 20
704.97903399999996
 30
0.0
  0
VERTEX
  5
C86
  8
0
 62
     3
 10
-213.36916199999999
 20
704.95199600000001
 30
0.0
  0
VERTEX
  5
C87
  8
0
 62
     3
 10
-213.44064599999999
 20
704.92178299999989
 30
0.0
  0
VERTEX
  5
C88
  8
0
 62
     3
 10
-213.55315599999989
 20
704.86734000000001
 30
0.0
  0
VERTEX
  5
C89
  8
0
 62
     3
 10
-213.66518599999989
 20
704.80436699999996
 30
0.0
  0
VERTEX
  5
C8A
  8
0
 62
     3
 10
-213.77785700000001
 20
704.73200999999995
 30
0.0
  0
VERTEX
  5
C8B
  8
0
 62
     3
 10
-213.89272199999999
 20
704.64898700000003
 30
0.0
  0
VERTEX
  5
C8C
  8
0
 62
     3
 10
-214.01223599999989
 20
704.55308500000001
 30
0.0
  0
VERTEX
  5
C8D
  8
0
 62
     3
 10
-214.14098599999991
 20
704.44015499999989
 30
0.0
  0
VERTEX
  5
C8E
  8
0
 62
     3
 10
-214.29031599999999
 20
704.29972799999996
 30
0.0
  0
VERTEX
  5
C8F
  8
0
 62
     3
 10
-214.36310399999991
 20
704.22918700000002
 30
0.0
  0
VERTEX
  5
C90
  8
0
 62
     3
 10
-214.6078629999999
 20
703.992661
 30
0.0
  0
VERTEX
  5
C91
  8
0
 62
     3
 10
-214.85698599999989
 20
703.76289400000007
 30
0.0
  0
VERTEX
  5
C92
  8
0
 62
     3
 10
-215.00881099999989
 20
703.62944000000005
 30
0.0
  0
VERTEX
  5
C93
  8
0
 62
     3
 10
-215.283072
 20
703.39112899999986
 30
0.0
  0
VERTEX
  5
C94
  8
0
 62
     3
 10
-215.37086699999989
 20
703.31114200000002
 30
0.0
  0
VERTEX
  5
C95
  8
0
 62
     3
 10
-215.45635100000001
 20
703.22940099999994
 30
0.0
  0
VERTEX
  5
C96
  8
0
 62
     3
 10
-215.51731000000001
 20
703.16792299999997
 30
0.0
  0
VERTEX
  5
C97
  8
0
 62
     3
 10
-215.57629299999999
 20
703.1051480000001
 30
0.0
  0
VERTEX
  5
C98
  8
0
 62
     3
 10
-215.62578099999999
 20
703.04934700000001
 30
0.0
  0
VERTEX
  5
C99
  8
0
 62
     3
 10
-215.67336499999999
 20
702.99240099999997
 30
0.0
  0
VERTEX
  5
C9A
  8
0
 62
     3
 10
-215.71495699999991
 20
702.93936199999985
 30
0.0
  0
VERTEX
  5
C9B
  8
0
 62
     3
 10
-215.75467900000001
 20
702.88523899999996
 30
0.0
  0
VERTEX
  5
C9C
  8
0
 62
     3
 10
-215.78998799999991
 20
702.833618
 30
0.0
  0
VERTEX
  5
C9D
  8
0
 62
     3
 10
-215.823454
 20
702.78097500000001
 30
0.0
  0
VERTEX
  5
C9E
  8
0
 62
     3
 10
-215.83997600000001
 20
702.75337200000001
 30
0.0
  0
VERTEX
  5
C9F
  8
0
 62
     3
 10
-215.895667
 20
702.65075699999989
 30
0.0
  0
VERTEX
  5
CA0
  8
0
 62
     3
 10
-215.94857300000001
 20
702.53707899999995
 30
0.0
  0
VERTEX
  5
CA1
  8
0
 62
     3
 10
-215.9996779999999
 20
702.40914899999996
 30
0.0
  0
VERTEX
  5
CA2
  8
0
 62
     3
 10
-216.05064999999991
 20
702.26129200000003
 30
0.0
  0
VERTEX
  5
CA3
  8
0
 62
     3
 10
-216.10512799999989
 20
702.08116099999995
 30
0.0
  0
VERTEX
  5
CA4
  8
0
 62
     3
 10
-216.17618400000001
 20
701.82527199999993
 30
0.0
  0
VERTEX
  5
CA5
  8
0
 62
     3
 10
-216.2347399999999
 20
701.61903399999994
 30
0.0
  0
VERTEX
  5
CA6
  8
0
 62
     3
 10
-216.29984499999989
 20
701.41496299999994
 30
0.0
  0
SEQEND
  5
CA7
  8
0
 62
     3
  0
POLYLINE
  5
4C0
  8
0
 62
     3
 66
     1
 10
0.0
 20
0.0
 30
0.0
  0
VERTEX
  5
CA8
  8
0
 62
     3
 10
-216.29984499999989
 20
701.41496299999994
 30
0.0
  0
VERTEX
  5
CA9
  8
0
 62
     3
 10
-216.3776729999999
 20
701.19964600000003
 30
0.0
  0
VERTEX
  5
CAA
  8
0
 62
     3
 10
-216.4495189999999
 20
701.00741600000003
 30
0.0
  0
VERTEX
  5
CAB
  8
0
 62
     3
 10
-216.51840799999991
 20
700.81574999999998
 30
0.0
  0
VERTEX
  5
CAC
  8
0
 62
     3
 10
-216.55117299999989
 20
700.716858
 30
0.0
  0
VERTEX
  5
CAD
  8
0
 62
     3
 10
-216.5812059999999
 20
700.61752300000001
 30
0.0
  0
VERTEX
  5
CAE
  8
0
 62
     3
 10
-216.60166799999999
 20
700.54197699999986
 30
0.0
  0
VERTEX
  5
CAF
  8
0
 62
     3
 10
-216.61984100000001
 20
700.46592699999985
 30
0.0
  0
VERTEX
  5
CB0
  8
0
 62
     3
 10
-216.62402999999989
 20
700.44662500000004
 30
0.0
  0
VERTEX
  5
CB1
  8
0
 62
     3
 10
-216.64783299999999
 20
700.31585700000005
 30
0.0
  0
VERTEX
  5
CB2
  8
0
 62
     3
 10
-216.665198
 20
700.17687999999987
 30
0.0
  0
VERTEX
  5
CB3
  8
0
 62
     3
 10
-216.6761689999999
 20
700.02683999999999
 30
0.0
  0
VERTEX
  5
CB4
  8
0
 62
     3
 10
-216.680724
 20
699.86047400000007
 30
0.0
  0
VERTEX
  5
CB5
  8
0
 62
     3
 10
-216.6787709999999
 20
699.66603099999998
 30
0.0
  0
VERTEX
  5
CB6
  8
0
 62
     3
 10
-216.67001599999989
 20
699.40084799999988
 30
0.0
  0
VERTEX
  5
CB7
  8
0
 62
     3
 10
-216.66948199999999
 20
699.38542199999995
 30
0.0
  0
VERTEX
  5
CB8
  8
0
 62
     3
 10
-216.66372200000001
 20
699.18228099999999
 30
0.0
  0
VERTEX
  5
CB9
  8
0
 62
     3
 10
-216.661025
 20
698.97965999999997
 30
0.0
  0
VERTEX
  5
CBA
  8
0
 62
     3
 10
-216.66139799999999
 20
698.83282499999984
 30
0.0
  0
VERTEX
  5
CBB
  8
0
 62
     3
 10
-216.66391999999999
 20
698.68600500000002
 30
0.0
  0
VERTEX
  5
CBC
  8
0
 62
     3
 10
-216.66986299999991
 20
698.50895700000001
 30
0.0
  0
VERTEX
  5
CBD
  8
0
 62
     3
 10
-216.677111
 20
698.36575300000004
 30
0.0
  0
VERTEX
  5
CBE
  8
0
 62
     3
 10
-216.68736899999999
 20
698.22262599999999
 30
0.0
  0
VERTEX
  5
CBF
  8
0
 62
     3
 10
-216.69699
 20
698.12124600000004
 30
0.0
  0
VERTEX
  5
CC0
  8
0
 62
     3
 10
-216.70891
 20
698.02023299999996
 30
0.0
  0
VERTEX
  5
CC1
  8
0
 62
     3
 10
-216.721396
 20
697.93263200000001
 30
0.0
  0
VERTEX
  5
CC2
  8
0
 62
     3
 10
-216.73603299999999
 20
697.84549000000004
 30
0.0
  0
VERTEX
  5
CC3
  8
0
 62
     3
 10
-216.75146299999989
 20
697.76625100000001
 30
0.0
  0
VERTEX
  5
CC4
  8
0
 62
     3
 10
-216.768958
 20
697.68757599999992
 30
0.0
  0
VERTEX
  5
CC5
  8
0
 62
     3
 10
-216.78733700000001
 20
697.61442599999987
 30
0.0
  0
VERTEX
  5
CC6
  8
0
 62
     3
 10
-216.80772999999991
 20
697.54191600000001
 30
0.0
  0
VERTEX
  5
CC7
  8
0
 62
     3
 10
-216.829058
 20
697.47363299999995
 30
0.0
  0
VERTEX
  5
CC8
  8
0
 62
     3
 10
-216.85235099999991
 20
697.40605199999993
 30
0.0
  0
VERTEX
  5
CC9
  8
0
 62
     3
 10
-216.85396800000001
 20
697.40159600000004
 30
0.0
  0
VERTEX
  5
CCA
  8
0
 62
     3
 10
-216.90445199999991
 20
697.27423099999999
 30
0.0
  0
VERTEX
  5
CCB
  8
0
 62
     3
 10
-216.96451400000001
 20
697.14392099999986
 30
0.0
  0
VERTEX
  5
CCC
  8
0
 62
     3
 10
-217.0352649999999
 20
697.00898700000005
 30
0.0
  0
VERTEX
  5
CCD
  8
0
 62
     3
 10
-217.1183649999999
 20
696.86711100000002
 30
0.0
  0
VERTEX
  5
CCE
  8
0
 62
     3
 10
-217.216498
 20
696.71461499999987
 30
0.0
  0
VERTEX
  5
CCF
  8
0
 62
     3
 10
-217.315539
 20
696.57142599999986
 30
0.0
  0
VERTEX
  5
CD0
  8
0
 62
     3
 10
-217.38765199999989
 20
696.47175599999991
 30
0.0
  0
VERTEX
  5
CD1
  8
0
 62
     3
 10
-217.46118799999999
 20
696.37355000000002
 30
0.0
  0
VERTEX
  5
CD2
  8
0
 62
     3
 10
-217.53563199999999
 20
696.277466
 30
0.0
  0
VERTEX
  5
CD3
  8
0
 62
     3
 10
-217.61137599999989
 20
696.18296799999996
 30
0.0
  0
VERTEX
  5
CD4
  8
0
 62
     3
 10
-217.76687899999999
 20
695.99848899999995
 30
0.0
  0
VERTEX
  5
CD5
  8
0
 62
     3
 10
-217.91519799999989
 20
695.83326699999986
 30
0.0
  0
VERTEX
  5
CD6
  8
0
 62
     3
 10
-218.08643199999989
 20
695.65171799999985
 30
0.0
  0
VERTEX
  5
CD7
  8
0
 62
     3
 10
-218.30146999999999
 20
695.42352300000005
 30
0.0
  0
VERTEX
  5
CD8
  8
0
 62
     3
 10
-218.51509300000001
 20
695.18757599999992
 30
0.0
  0
VERTEX
  5
CD9
  8
0
 62
     3
 10
-218.6541279999999
 20
695.03185999999994
 30
0.0
  0
VERTEX
  5
CDA
  8
0
 62
     3
 10
-218.797549
 20
694.88226299999985
 30
0.0
  0
VERTEX
  5
CDB
  8
0
 62
     3
 10
-218.849593
 20
694.83287000000007
 30
0.0
  0
VERTEX
  5
CDC
  8
0
 62
     3
 10
-218.90285299999991
 20
694.78558299999986
 30
0.0
  0
VERTEX
  5
CDD
  8
0
 62
     3
 10
-218.94952599999999
 20
694.74700899999993
 30
0.0
  0
VERTEX
  5
CDE
  8
0
 62
     3
 10
-218.99731700000001
 20
694.71040300000004
 30
0.0
  0
VERTEX
  5
CDF
  8
0
 62
     3
 10
-219.04165099999989
 20
694.67907699999989
 30
0.0
  0
VERTEX
  5
CE0
  8
0
 62
     3
 10
-219.08705399999999
 20
694.64962799999989
 30
0.0
  0
VERTEX
  5
CE1
  8
0
 62
     3
 10
-219.11427499999999
 20
694.63324
 30
0.0
  0
VERTEX
  5
CE2
  8
0
 62
     3
 10
-219.2015899999999
 20
694.58663899999988
 30
0.0
  0
VERTEX
  5
CE3
  8
0
 62
     3
 10
-219.2989299999999
 20
694.54344200000003
 30
0.0
  0
VERTEX
  5
CE4
  8
0
 62
     3
 10
-219.40976599999999
 20
694.50257899999986
 30
0.0
  0
VERTEX
  5
CE5
  8
0
 62
     3
 10
-219.54100299999999
 20
694.46209699999986
 30
0.0
  0
VERTEX
  5
CE6
  8
0
 62
     3
 10
-219.7121029999999
 20
694.41636700000004
 30
0.0
  0
VERTEX
  5
CE7
  8
0
 62
     3
 10
-219.89944299999999
 20
694.36755400000004
 30
0.0
  0
VERTEX
  5
CE8
  8
0
 62
     3
 10
-220.08360499999989
 20
694.31156899999996
 30
0.0
  0
VERTEX
  5
CE9
  8
0
 62
     3
 10
-220.14350699999989
 20
694.28979500000003
 30
0.0
  0
VERTEX
  5
CEA
  8
0
 62
     3
 10
-220.20246399999999
 20
694.26621999999998
 30
0.0
  0
VERTEX
  5
CEB
  8
0
 62
     3
 10
-220.316824
 20
694.21405000000004
 30
0.0
  0
VERTEX
  5
CEC
  8
0
 62
     3
 10
-220.42897999999991
 20
694.15420499999993
 30
0.0
  0
VERTEX
  5
CED
  8
0
 62
     3
 10
-220.54144500000001
 20
694.08532699999989
 30
0.0
  0
VERTEX
  5
CEE
  8
0
 62
     3
 10
-220.6577549999999
 20
694.00506600000006
 30
0.0
  0
VERTEX
  5
CEF
  8
0
 62
     3
 10
-220.78457099999989
 20
693.90852400000006
 30
0.0
  0
VERTEX
  5
CF0
  8
0
 62
     3
 10
-220.91387
 20
693.80358899999999
 30
0.0
  0
VERTEX
  5
CF1
  8
0
 62
     3
 10
-221.08140800000001
 20
693.66546600000004
 30
0.0
  0
VERTEX
  5
CF2
  8
0
 62
     3
 10
-221.25073099999989
 20
693.53085299999998
 30
0.0
  0
VERTEX
  5
CF3
  8
0
 62
     3
 10
-221.33631
 20
693.46633899999995
 30
0.0
  0
VERTEX
  5
CF4
  8
0
 62
     3
 10
-221.4232319999999
 20
693.40373199999988
 30
0.0
  0
VERTEX
  5
CF5
  8
0
 62
     3
 10
-221.51334999999989
 20
693.34204099999999
 30
0.0
  0
VERTEX
  5
CF6
  8
0
 62
     3
 10
-221.67078599999999
 20
693.24101299999995
 30
0.0
  0
VERTEX
  5
CF7
  8
0
 62
     3
 10
-221.909277
 20
693.094604
 30
0.0
  0
VERTEX
  5
CF8
  8
0
 62
     3
 10
-222.06968900000001
 20
692.99412500000005
 30
0.0
  0
VERTEX
  5
CF9
  8
0
 62
     3
 10
-222.22693899999999
 20
692.88960299999997
 30
0.0
  0
VERTEX
  5
CFA
  8
0
 62
     3
 10
-222.30496099999991
 20
692.83436600000005
 30
0.0
  0
VERTEX
  5
CFB
  8
0
 62
     3
 10
-222.38157499999991
 20
692.77732800000001
 30
0.0
  0
VERTEX
  5
CFC
  8
0
 62
     3
 10
-222.48274900000001
 20
692.69692999999995
 30
0.0
  0
VERTEX
  5
CFD
  8
0
 62
     3
 10
-222.604964
 20
692.59187300000008
 30
0.0
  0
VERTEX
  5
CFE
  8
0
 62
     3
 10
-222.80798999999999
 20
692.41148399999986
 30
0.0
  0
VERTEX
  5
CFF
  8
0
 62
     3
 10
-222.90181200000001
 20
692.33108499999992
 30
0.0
  0
VERTEX
  5
D00
  8
0
 62
     3
 10
-222.99770599999991
 20
692.25292999999988
 30
0.0
  0
VERTEX
  5
D01
  8
0
 62
     3
 10
-223.08157199999999
 20
692.18836999999985
 30
0.0
  0
SEQEND
  5
D02
  8
0
 62
     3
  0
POLYLINE
  5
51C
  8
0
 62
     3
 66
     1
 10
0.0
 20
0.0
 30
0.0
  0
VERTEX
  5
D03
  8
0
 62
     3
 10
-223.08157199999999
 20
692.18836999999985
 30
0.0
  0
VERTEX
  5
D04
  8
0
 62
     3
 10
-223.18619799999999
 20
692.11465499999986
 30
0.0
  0
VERTEX
  5
D05
  8
0
 62
     3
 10
-223.313624
 20
692.03378299999997
 30
0.0
  0
VERTEX
  5
D06
  8
0
 62
     3
 10
-223.48606699999991
 20
691.93203700000004
 30
0.0
  0
VERTEX
  5
D07
  8
0
 62
     3
 10
-223.70449300000001
 20
691.80249000000003
 30
0.0
  0
VERTEX
  5
D08
  8
0
 62
     3
 10
-223.91098299999999
 20
691.66235400000005
 30
0.0
  0
VERTEX
  5
D09
  8
0
 62
     3
 10
-223.95987199999999
 20
691.62397799999997
 30
0.0
  0
VERTEX
  5
D0A
  8
0
 62
     3
 10
-224.007124
 20
691.58401500000002
 30
0.0
  0
VERTEX
  5
D0B
  8
0
 62
     3
 10
-224.0477129999999
 20
691.546921
 30
0.0
  0
VERTEX
  5
D0C
  8
0
 62
     3
 10
-224.08674500000001
 20
691.508286
 30
0.0
  0
VERTEX
  5
D0D
  8
0
 62
     3
 10
-224.09724299999999
 20
691.49731399999985
 30
0.0
  0
VERTEX
  5
D0E
  8
0
 62
     3
 10
-224.16328299999989
 20
691.42179899999996
 30
0.0
  0
VERTEX
  5
D0F
  8
0
 62
     3
 10
-224.225821
 20
691.338303
 30
0.0
  0
VERTEX
  5
D10
  8
0
 62
     3
 10
-224.28512799999999
 20
691.24600199999998
 30
0.0
  0
VERTEX
  5
D11
  8
0
 62
     3
 10
-224.34150600000001
 20
691.14376800000002
 30
0.0
  0
VERTEX
  5
D12
  8
0
 62
     3
 10
-224.395354
 20
691.03001399999994
 30
0.0
  0
VERTEX
  5
D13
  8
0
 62
     3
 10
-224.447306
 20
690.90226699999994
 30
0.0
  0
VERTEX
  5
D14
  8
0
 62
     3
 10
-224.466071
 20
690.85119599999985
 30
0.0
  0
VERTEX
  5
D15
  8
0
 62
     3
 10
-224.51759199999989
 20
690.69650300000001
 30
0.0
  0
VERTEX
  5
D16
  8
0
 62
     3
 10
-224.571135
 20
690.51252699999998
 30
0.0
  0
VERTEX
  5
D17
  8
0
 62
     3
 10
-224.62839699999989
 20
690.28997800000002
 30
0.0
  0
VERTEX
  5
D18
  8
0
 62
     3
 10
-224.68930299999991
 20
690.023819
 30
0.0
  0
VERTEX
  5
D19
  8
0
 62
     3
 10
-224.699389
 20
689.97631799999988
 30
0.0
  0
SEQEND
  5
D1A
  8
0
 62
     3
  0
LINE
  5
535
  8
0
 62
     3
 10
-215.83735499999989
 20
567.97603600000002
 30
0.0
 11
-224.699412
 21
567.97603600000002
 31
0.0
  0
LINE
  5
536
  8
0
 62
     3
 10
-106.087378
 20
541.476044
 30
0.0
 11
-205.541586
 21
541.476044
 31
0.0
  0
LINE
  5
537
  8
0
 62
     3
 10
-104.837317
 20
542.726044
 30
0.0
 11
-104.837317
 21
546.22605499999986
 31
0.0
  0
LINE
  5
538
  8
0
 62
     3
 10
-106.0873629999999
 20
541.47603800000002
 30
0.0
 11
-105.20348199999999
 21
541.84215700000004
 31
0.0
  0
LINE
  5
539
  8
0
 62
     3
 10
-105.20348199999999
 20
541.84215199999994
 30
0.0
 11
-104.8373629999999
 21
542.72603200000003
 31
0.0
  0
LINE
  5
53A
  8
0
 62
     3
 10
-108.98737199999989
 20
541.786697
 30
0.0
 11
-108.98737199999989
 21
546.22605499999986
 31
0.0
  0
LINE
  5
53B
  8
0
 62
     3
 10
-112.587378
 20
541.786697
 30
0.0
 11
-112.587378
 21
546.22605499999986
 31
0.0
  0
LINE
  5
53C
  8
0
 62
     3
 10
-116.1873689999999
 20
541.786697
 30
0.0
 11
-116.1873689999999
 21
546.22605499999986
 31
0.0
  0
LINE
  5
53D
  8
0
 62
     3
 10
-119.787375
 20
541.786697
 30
0.0
 11
-119.787375
 21
546.22605499999986
 31
0.0
  0
LINE
  5
53E
  8
0
 62
     3
 10
-123.3873659999999
 20
541.786697
 30
0.0
 11
-123.3873659999999
 21
546.22605499999986
 31
0.0
  0
LINE
  5
53F
  8
0
 62
     3
 10
-126.98737199999989
 20
541.786697
 30
0.0
 11
-126.98737199999989
 21
546.22605499999986
 31
0.0
  0
LINE
  5
540
  8
0
 62
     3
 10
-130.58737799999989
 20
541.786697
 30
0.0
 11
-130.58737799999989
 21
546.22605499999986
 31
0.0
  0
LINE
  5
541
  8
0
 62
     3
 10
-134.1873689999999
 20
541.786697
 30
0.0
 11
-134.1873689999999
 21
546.22605499999986
 31
0.0
  0
LINE
  5
542
  8
0
 62
     3
 10
-137.787375
 20
541.786697
 30
0.0
 11
-137.787375
 21
546.22605499999986
 31
0.0
  0
LINE
  5
543
  8
0
 62
     3
 10
-141.3873659999999
 20
541.786697
 30
0.0
 11
-141.3873659999999
 21
546.22605499999986
 31
0.0
  0
LINE
  5
544
  8
0
 62
     3
 10
-144.9873639999999
 20
541.786697
 30
0.0
 11
-144.9873639999999
 21
546.22605499999986
 31
0.0
  0
LINE
  5
545
  8
0
 62
     3
 10
-148.58736999999991
 20
541.786697
 30
0.0
 11
-148.58736999999991
 21
546.22605499999986
 31
0.0
  0
LINE
  5
546
  8
0
 62
     3
 10
-152.1873689999999
 20
541.786697
 30
0.0
 11
-152.1873689999999
 21
546.22605499999986
 31
0.0
  0
LINE
  5
547
  8
0
 62
     3
 10
-155.78736699999999
 20
541.786697
 30
0.0
 11
-155.78736699999999
 21
546.22605499999986
 31
0.0
  0
LINE
  5
548
  8
0
 62
     3
 10
-159.3873659999999
 20
541.786697
 30
0.0
 11
-159.3873659999999
 21
546.22605499999986
 31
0.0
  0
LINE
  5
549
  8
0
 62
     3
 10
-162.98737199999991
 20
541.786697
 30
0.0
 11
-162.98737199999991
 21
546.22605499999986
 31
0.0
  0
LINE
  5
54A
  8
0
 62
     3
 10
-166.58736999999991
 20
541.786697
 30
0.0
 11
-166.58736999999991
 21
546.22605499999986
 31
0.0
  0
LINE
  5
54B
  8
0
 62
     3
 10
-188.3873659999999
 20
541.786697
 30
0.0
 11
-188.3873659999999
 21
546.22605499999986
 31
0.0
  0
LINE
  5
54C
  8
0
 62
     3
 10
-210.18736499999989
 20
552.02868999999998
 30
0.0
 11
-210.18736499999989
 21
566.976044
 31
0.0
  0
LINE
  5
54D
  8
0
 62
     3
 10
-217.38736599999999
 20
561.68439899999987
 30
0.0
 11
-217.38736599999999
 21
566.976044
 31
0.0
  0
LINE
  5
54E
  8
0
 62
     3
 10
-220.987368
 20
564.16733199999987
 30
0.0
 11
-220.987368
 21
566.976044
 31
0.0
  0
LINE
  5
54F
  8
0
 62
     3
 10
-215.83735499999989
 20
566.97603600000002
 30
0.0
 11
-224.48707400000001
 21
566.97603600000002
 31
0.0
  0
LINE
  5
550
  8
0
 62
     3
 10
-184.78736699999999
 20
541.786697
 30
0.0
 11
-184.78736699999999
 21
546.22605499999986
 31
0.0
  0
LINE
  5
551
  8
0
 62
     3
 10
-181.1873689999999
 20
541.786697
 30
0.0
 11
-181.1873689999999
 21
546.22605499999986
 31
0.0
  0
LINE
  5
552
  8
0
 62
     3
 10
-177.58736999999991
 20
541.786697
 30
0.0
 11
-177.58736999999991
 21
546.22605499999986
 31
0.0
  0
LINE
  5
553
  8
0
 62
     3
 10
-173.9873639999999
 20
541.786697
 30
0.0
 11
-173.9873639999999
 21
546.22605499999986
 31
0.0
  0
LINE
  5
554
  8
0
 62
     3
 10
-170.38736599999999
 20
541.786697
 30
0.0
 11
-170.38736599999999
 21
546.22605499999986
 31
0.0
  0
LINE
  5
555
  8
0
 62
     3
 10
-191.9873639999999
 20
541.786697
 30
0.0
 11
-191.9873639999999
 21
546.22605499999986
 31
0.0
  0
LINE
  5
556
  8
0
 62
     3
 10
-195.58736999999991
 20
541.786697
 30
0.0
 11
-195.58736999999991
 21
546.22605499999986
 31
0.0
  0
LINE
  5
557
  8
0
 62
     3
 10
-199.18736899999999
 20
541.786697
 30
0.0
 11
-199.18736899999999
 21
546.22605499999986
 31
0.0
  0
LINE
  5
558
  8
0
 62
     3
 10
-202.7873669999999
 20
541.786697
 30
0.0
 11
-202.7873669999999
 21
546.22605499999986
 31
0.0
  0
POLYLINE
  5
559
  8
0
 62
     3
 66
     1
 10
0.0
 20
0.0
 30
0.0
  0
VERTEX
  5
D1B
  8
0
 62
     3
 10
-205.54160200000001
 20
541.476046
 30
0.0
  0
VERTEX
  5
D1C
  8
0
 62
     3
 10
-205.59207000000001
 20
541.53032900000005
 30
0.0
  0
VERTEX
  5
D1D
  8
0
 62
     3
 10
-205.64066199999999
 20
541.58594100000005
 30
0.0
  0
VERTEX
  5
D1E
  8
0
 62
     3
 10
-205.6823259999999
 20
541.63683499999991
 30
0.0
  0
VERTEX
  5
D1F
  8
0
 62
     3
 10
-205.72221999999999
 20
541.68881199999998
 30
0.0
  0
VERTEX
  5
D20
  8
0
 62
     3
 10
-205.78272100000001
 20
541.77468899999997
 30
0.0
  0
VERTEX
  5
D21
  8
0
 62
     3
 10
-205.85378899999989
 20
541.88775999999996
 30
0.0
  0
VERTEX
  5
D22
  8
0
 62
     3
 10
-205.92587099999989
 20
542.01673300000004
 30
0.0
  0
VERTEX
  5
D23
  8
0
 62
     3
 10
-206.00214199999991
 20
542.16849300000001
 30
0.0
  0
VERTEX
  5
D24
  8
0
 62
     3
 10
-206.08934599999989
 20
542.35793699999988
 30
0.0
  0
VERTEX
  5
D25
  8
0
 62
     3
 10
-206.197394
 20
542.60530300000005
 30
0.0
  0
VERTEX
  5
D26
  8
0
 62
     3
 10
-206.35147000000001
 20
542.97858399999996
 30
0.0
  0
VERTEX
  5
D27
  8
0
 62
     3
 10
-206.45661799999991
 20
543.35446200000001
 30
0.0
  0
VERTEX
  5
D28
  8
0
 62
     3
 10
-206.464674
 20
543.40820099999996
 30
0.0
  0
VERTEX
  5
D29
  8
0
 62
     3
 10
-206.47054900000001
 20
543.46191399999987
 30
0.0
  0
VERTEX
  5
D2A
  8
0
 62
     3
 10
-206.47395900000001
 20
543.51203899999985
 30
0.0
  0
VERTEX
  5
D2B
  8
0
 62
     3
 10
-206.475256
 20
543.56213200000002
 30
0.0
  0
VERTEX
  5
D2C
  8
0
 62
     3
 10
-206.475234
 20
543.57385599999986
 30
0.0
  0
VERTEX
  5
D2D
  8
0
 62
     3
 10
-206.4706789999999
 20
543.66815399999984
 30
0.0
  0
VERTEX
  5
D2E
  8
0
 62
     3
 10
-206.45809800000001
 20
543.76518099999998
 30
0.0
  0
VERTEX
  5
D2F
  8
0
 62
     3
 10
-206.43709399999989
 20
543.86603700000001
 30
0.0
  0
VERTEX
  5
D30
  8
0
 62
     3
 10
-206.40700399999989
 20
543.97221399999989
 30
0.0
  0
VERTEX
  5
D31
  8
0
 62
     3
 10
-206.36672799999991
 20
544.0859549999999
 30
0.0
  0
VERTEX
  5
D32
  8
0
 62
     3
 10
-206.314322
 20
544.21118399999989
 30
0.0
  0
VERTEX
  5
D33
  8
0
 62
     3
 10
-206.24561199999999
 20
544.35652500000003
 30
0.0
  0
VERTEX
  5
D34
  8
0
 62
     3
 10
-206.15130500000001
 20
544.54254899999989
 30
0.0
  0
VERTEX
  5
D35
  8
0
 62
     3
 10
-206.05197799999991
 20
544.74103899999989
 30
0.0
  0
VERTEX
  5
D36
  8
0
 62
     3
 10
-205.96052399999991
 20
544.939301
 30
0.0
  0
VERTEX
  5
D37
  8
0
 62
     3
 10
-205.92503199999999
 20
545.02370999999994
 30
0.0
  0
VERTEX
  5
D38
  8
0
 62
     3
 10
-205.8917679999999
 20
545.10859900000003
 30
0.0
  0
VERTEX
  5
D39
  8
0
 62
     3
 10
-205.86387500000001
 20
545.18555100000003
 30
0.0
  0
VERTEX
  5
D3A
  8
0
 62
     3
 10
-205.83803399999999
 20
545.26308099999994
 30
0.0
  0
VERTEX
  5
D3B
  8
0
 62
     3
 10
-205.81555
 20
545.33702699999992
 30
0.0
  0
VERTEX
  5
D3C
  8
0
 62
     3
 10
-205.795027
 20
545.41162300000008
 30
0.0
  0
VERTEX
  5
D3D
  8
0
 62
     3
 10
-205.77697599999991
 20
545.48490300000003
 30
0.0
  0
VERTEX
  5
D3E
  8
0
 62
     3
 10
-205.76083199999991
 20
545.55890099999988
 30
0.0
  0
VERTEX
  5
D3F
  8
0
 62
     3
 10
-205.73627300000001
 20
545.69593999999995
 30
0.0
  0
VERTEX
  5
D40
  8
0
 62
     3
 10
-205.72546199999999
 20
545.77255600000001
 30
0.0
  0
VERTEX
  5
D41
  8
0
 62
     3
 10
-205.7166959999999
 20
545.8498249999999
 30
0.0
  0
VERTEX
  5
D42
  8
0
 62
     3
 10
-205.71043999999989
 20
545.92328499999985
 30
0.0
  0
VERTEX
  5
D43
  8
0
 62
     3
 10
-205.70627500000001
 20
545.99702100000002
 30
0.0
  0
VERTEX
  5
D44
  8
0
 62
     3
 10
-205.70434399999999
 20
546.0674039999999
 30
0.0
  0
VERTEX
  5
D45
  8
0
 62
     3
 10
-205.70450399999999
 20
546.13777900000002
 30
0.0
  0
VERTEX
  5
D46
  8
0
 62
     3
 10
-205.70669399999991
 20
546.20512199999985
 30
0.0
  0
VERTEX
  5
D47
  8
0
 62
     3
 10
-205.710959
 20
546.27222800000004
 30
0.0
  0
VERTEX
  5
D48
  8
0
 62
     3
 10
-205.71707799999999
 20
546.33654799999999
 30
0.0
  0
VERTEX
  5
D49
  8
0
 62
     3
 10
-205.7252409999999
 20
546.40044799999998
 30
0.0
  0
VERTEX
  5
D4A
  8
0
 62
     3
 10
-205.73512099999991
 20
546.46175800000003
 30
0.0
  0
VERTEX
  5
D4B
  8
0
 62
     3
 10
-205.74698499999991
 20
546.52249299999994
 30
0.0
  0
VERTEX
  5
D4C
  8
0
 62
     3
 10
-205.7604509999999
 20
546.58080299999995
 30
0.0
  0
VERTEX
  5
D4D
  8
0
 62
     3
 10
-205.77585499999989
 20
546.6384119999999
 30
0.0
  0
VERTEX
  5
D4E
  8
0
 62
     3
 10
-205.79274599999999
 20
546.69373499999995
 30
0.0
  0
VERTEX
  5
D4F
  8
0
 62
     3
 10
-205.81152999999989
 20
546.74824699999999
 30
0.0
  0
VERTEX
  5
D50
  8
0
 62
     3
 10
-205.83170200000001
 20
546.80059800000004
 30
0.0
  0
VERTEX
  5
D51
  8
0
 62
     3
 10
-205.8537199999999
 20
546.85203899999999
 30
0.0
  0
VERTEX
  5
D52
  8
0
 62
     3
 10
-205.87419700000001
 20
546.89562199999989
 30
0.0
  0
VERTEX
  5
D53
  8
0
 62
     3
 10
-205.92521499999989
 20
546.99088700000004
 30
0.0
  0
VERTEX
  5
D54
  8
0
 62
     3
 10
-205.984961
 20
547.085825
 30
0.0
  0
VERTEX
  5
D55
  8
0
 62
     3
 10
-206.054114
 20
547.18102999999985
 30
0.0
  0
VERTEX
  5
D56
  8
0
 62
     3
 10
-206.1336729999999
 20
547.27729599999986
 30
0.0
  0
VERTEX
  5
D57
  8
0
 62
     3
 10
-206.22511900000001
 20
547.37577399999986
 30
0.0
  0
VERTEX
  5
D58
  8
0
 62
     3
 10
-206.33080899999999
 20
547.47833300000002
 30
0.0
  0
VERTEX
  5
D59
  8
0
 62
     3
 10
-206.4550769999999
 20
547.58843999999988
 30
0.0
  0
VERTEX
  5
D5A
  8
0
 62
     3
 10
-206.60779400000001
 20
547.71414000000004
 30
0.0
  0
VERTEX
  5
D5B
  8
0
 62
     3
 10
-206.797698
 20
547.86390900000004
 30
0.0
  0
VERTEX
  5
D5C
  8
0
 62
     3
 10
-207.00623899999991
 20
548.02941499999997
 30
0.0
  0
VERTEX
  5
D5D
  8
0
 62
     3
 10
-207.21092799999991
 20
548.19666099999995
 30
0.0
  0
VERTEX
  5
D5E
  8
0
 62
     3
 10
-207.47300599999991
 20
548.41971799999988
 30
0.0
  0
VERTEX
  5
D5F
  8
0
 62
     3
 10
-207.62786
 20
548.55610799999999
 30
0.0
  0
VERTEX
  5
D60
  8
0
 62
     3
 10
-207.78630699999991
 20
548.69884100000002
 30
0.0
  0
VERTEX
  5
D61
  8
0
 62
     3
 10
-207.94238100000001
 20
548.84420399999988
 30
0.0
  0
VERTEX
  5
D62
  8
0
 62
     3
 10
-208.042349
 20
548.94067399999994
 30
0.0
  0
VERTEX
  5
D63
  8
0
 62
     3
 10
-208.14072299999989
 20
549.03867699999989
 30
0.0
  0
VERTEX
  5
D64
  8
0
 62
     3
 10
-208.22986800000001
 20
549.13042099999996
 30
0.0
  0
VERTEX
  5
D65
  8
0
 62
     3
 10
-208.31745399999991
 20
549.22348799999986
 30
0.0
  0
VERTEX
  5
D66
  8
0
 62
     3
 10
-208.48585399999999
 20
549.41110599999979
 30
0.0
  0
VERTEX
  5
D67
  8
0
 62
     3
 10
-208.5045189999999
 20
549.43261699999994
 30
0.0
  0
VERTEX
  5
D68
  8
0
 62
     3
 10
-208.67554699999991
 20
549.63407099999995
 30
0.0
  0
VERTEX
  5
D69
  8
0
 62
     3
 10
-208.928664
 20
549.92858099999989
 30
0.0
  0
VERTEX
  5
D6A
  8
0
 62
     3
 10
-209.1958149999999
 20
550.21739200000002
 30
0.0
  0
VERTEX
  5
D6B
  8
0
 62
     3
 10
-209.30126000000001
 20
550.32670599999994
 30
0.0
  0
VERTEX
  5
D6C
  8
0
 62
     3
 10
-209.404608
 20
550.43769799999995
 30
0.0
  0
VERTEX
  5
D6D
  8
0
 62
     3
 10
-209.45880699999989
 20
550.49968699999999
 30
0.0
  0
VERTEX
  5
D6E
  8
0
 62
     3
 10
-209.51077900000001
 20
550.56298099999992
 30
0.0
  0
VERTEX
  5
D6F
  8
0
 62
     3
 10
-209.55102400000001
 20
550.61546699999985
 30
0.0
  0
VERTEX
  5
D70
  8
0
 62
     3
 10
-209.589316
 20
550.66905599999996
 30
0.0
  0
VERTEX
  5
D71
  8
0
 62
     3
 10
-209.62231299999991
 20
550.71883000000003
 30
0.0
  0
VERTEX
  5
D72
  8
0
 62
     3
 10
-209.65345600000001
 20
550.76963399999988
 30
0.0
  0
VERTEX
  5
D73
  8
0
 62
     3
 10
-209.6812459999999
 20
550.81889000000001
 30
0.0
  0
VERTEX
  5
D74
  8
0
 62
     3
 10
-209.707232
 20
550.86914399999989
 30
0.0
  0
VERTEX
  5
D75
  8
0
 62
     3
 10
-209.7308139999999
 20
550.91915900000004
 30
0.0
  0
VERTEX
  5
D76
  8
0
 62
     3
 10
-209.7526189999999
 20
550.97014999999999
 30
0.0
  0
VERTEX
  5
D77
  8
0
 62
     3
 10
-209.79079300000001
 20
551.07467300000008
 30
0.0
  0
VERTEX
  5
D78
  8
0
 62
     3
 10
-209.796671
 20
551.09308600000008
 30
0.0
  0
VERTEX
  5
D79
  8
0
 62
     3
 10
-209.82785699999999
 20
551.20400999999993
 30
0.0
  0
VERTEX
  5
D7A
  8
0
 62
     3
 10
-209.8658429999999
 20
551.36183499999993
 30
0.0
  0
VERTEX
  5
D7B
  8
0
 62
     3
 10
-209.91417899999999
 20
551.55191400000001
 30
0.0
  0
VERTEX
  5
D7C
  8
0
 62
     3
 10
-209.97667200000001
 20
551.73155999999994
 30
0.0
  0
VERTEX
  5
D7D
  8
0
 62
     3
 10
-209.98006699999999
 20
551.73946000000001
 30
0.0
  0
SEQEND
  5
D7E
  8
0
 62
     3
  0
POLYLINE
  5
5BE
  8
0
 62
     3
 66
     1
 10
0.0
 20
0.0
 30
0.0
  0
VERTEX
  5
D7F
  8
0
 62
     3
 10
-209.98006699999999
 20
551.73946000000001
 30
0.0
  0
VERTEX
  5
D80
  8
0
 62
     3
 10
-209.997412
 20
551.77689399999997
 30
0.0
  0
VERTEX
  5
D81
  8
0
 62
     3
 10
-210.016448
 20
551.81320199999993
 30
0.0
  0
VERTEX
  5
D82
  8
0
 62
     3
 10
-210.05933999999999
 20
551.88212999999985
 30
0.0
  0
VERTEX
  5
D83
  8
0
 62
     3
 10
-210.10889299999999
 20
551.9466819999999
 30
0.0
  0
VERTEX
  5
D84
  8
0
 62
     3
 10
-210.16541099999989
 20
552.00723300000004
 30
0.0
  0
VERTEX
  5
D85
  8
0
 62
     3
 10
-210.22935699999999
 20
552.06407899999988
 30
0.0
  0
VERTEX
  5
D86
  8
0
 62
     3
 10
-210.30135200000001
 20
552.11746600000004
 30
0.0
  0
VERTEX
  5
D87
  8
0
 62
     3
 10
-210.38223099999999
 20
552.16759500000001
 30
0.0
  0
VERTEX
  5
D88
  8
0
 62
     3
 10
-210.4730899999999
 20
552.21465299999988
 30
0.0
  0
VERTEX
  5
D89
  8
0
 62
     3
 10
-210.57544899999999
 20
552.25888799999996
 30
0.0
  0
VERTEX
  5
D8A
  8
0
 62
     3
 10
-210.69165299999989
 20
552.30073200000004
 30
0.0
  0
VERTEX
  5
D8B
  8
0
 62
     3
 10
-210.82596099999989
 20
552.34114499999998
 30
0.0
  0
VERTEX
  5
D8C
  8
0
 62
     3
 10
-210.9888479999999
 20
552.38286200000005
 30
0.0
  0
VERTEX
  5
D8D
  8
0
 62
     3
 10
-210.9957379999999
 20
552.38452099999995
 30
0.0
  0
VERTEX
  5
D8E
  8
0
 62
     3
 10
-211.25522100000001
 20
552.44416000000001
 30
0.0
  0
VERTEX
  5
D8F
  8
0
 62
     3
 10
-211.519824
 20
552.50462000000005
 30
0.0
  0
VERTEX
  5
D90
  8
0
 62
     3
 10
-211.7798939999999
 20
552.56939699999987
 30
0.0
  0
VERTEX
  5
D91
  8
0
 62
     3
 10
-212.05160799999999
 20
552.64339099999995
 30
0.0
  0
VERTEX
  5
D92
  8
0
 62
     3
 10
-212.26021399999999
 20
552.70010799999989
 30
0.0
  0
VERTEX
  5
D93
  8
0
 62
     3
 10
-212.47170099999991
 20
552.75427999999988
 30
0.0
  0
VERTEX
  5
D94
  8
0
 62
     3
 10
-212.7380739999999
 20
552.81716900000004
 30
0.0
  0
VERTEX
  5
D95
  8
0
 62
     3
 10
-212.98525499999991
 20
552.87751800000001
 30
0.0
  0
VERTEX
  5
D96
  8
0
 62
     3
 10
-213.22658399999989
 20
552.94810099999995
 30
0.0
  0
VERTEX
  5
D97
  8
0
 62
     3
 10
-213.29834999999991
 20
552.97304199999985
 30
0.0
  0
VERTEX
  5
D98
  8
0
 62
     3
 10
-213.36913899999999
 20
553.00008400000002
 30
0.0
  0
VERTEX
  5
D99
  8
0
 62
     3
 10
-213.44064599999999
 20
553.03030799999999
 30
0.0
  0
VERTEX
  5
D9A
  8
0
 62
     3
 10
-213.55315599999989
 20
553.084743
 30
0.0
  0
VERTEX
  5
D9B
  8
0
 62
     3
 10
-213.66518599999989
 20
553.14772400000004
 30
0.0
  0
VERTEX
  5
D9C
  8
0
 62
     3
 10
-213.77785700000001
 20
553.22007800000006
 30
0.0
  0
VERTEX
  5
D9D
  8
0
 62
     3
 10
-213.89272199999999
 20
553.30310399999996
 30
0.0
  0
VERTEX
  5
D9E
  8
0
 62
     3
 10
-214.01223599999989
 20
553.39899400000002
 30
0.0
  0
VERTEX
  5
D9F
  8
0
 62
     3
 10
-214.14098599999991
 20
553.51193599999999
 30
0.0
  0
VERTEX
  5
DA0
  8
0
 62
     3
 10
-214.29031599999999
 20
553.65236300000004
 30
0.0
  0
VERTEX
  5
DA1
  8
0
 62
     3
 10
-214.36310399999991
 20
553.72289699999999
 30
0.0
  0
VERTEX
  5
DA2
  8
0
 62
     3
 10
-214.60787799999991
 20
553.95943799999986
 30
0.0
  0
VERTEX
  5
DA3
  8
0
 62
     3
 10
-214.85701599999999
 20
554.18922399999997
 30
0.0
  0
VERTEX
  5
DA4
  8
0
 62
     3
 10
-215.00881099999989
 20
554.32265099999995
 30
0.0
  0
VERTEX
  5
DA5
  8
0
 62
     3
 10
-215.2830799999999
 20
554.56096600000001
 30
0.0
  0
VERTEX
  5
DA6
  8
0
 62
     3
 10
-215.37087099999999
 20
554.64095299999997
 30
0.0
  0
VERTEX
  5
DA7
  8
0
 62
     3
 10
-215.45635799999999
 20
554.72269100000005
 30
0.0
  0
VERTEX
  5
DA8
  8
0
 62
     3
 10
-215.517313
 20
554.78416800000002
 30
0.0
  0
VERTEX
  5
DA9
  8
0
 62
     3
 10
-215.57629600000001
 20
554.84694699999989
 30
0.0
  0
VERTEX
  5
DAA
  8
0
 62
     3
 10
-215.6257839999999
 20
554.902737
 30
0.0
  0
VERTEX
  5
DAB
  8
0
 62
     3
 10
-215.67336900000001
 20
554.9596939999999
 30
0.0
  0
VERTEX
  5
DAC
  8
0
 62
     3
 10
-215.71495699999991
 20
555.01273000000003
 30
0.0
  0
VERTEX
  5
DAD
  8
0
 62
     3
 10
-215.75467900000001
 20
555.06685999999979
 30
0.0
  0
VERTEX
  5
DAE
  8
0
 62
     3
 10
-215.7899919999999
 20
555.118469
 30
0.0
  0
VERTEX
  5
DAF
  8
0
 62
     3
 10
-215.82345799999999
 20
555.17111599999987
 30
0.0
  0
VERTEX
  5
DB0
  8
0
 62
     3
 10
-215.83997600000001
 20
555.19871499999999
 30
0.0
  0
VERTEX
  5
DB1
  8
0
 62
     3
 10
-215.895667
 20
555.30133799999999
 30
0.0
  0
VERTEX
  5
DB2
  8
0
 62
     3
 10
-215.94857300000001
 20
555.41501200000005
 30
0.0
  0
VERTEX
  5
DB3
  8
0
 62
     3
 10
-215.9996779999999
 20
555.54294600000003
 30
0.0
  0
VERTEX
  5
DB4
  8
0
 62
     3
 10
-216.05064999999991
 20
555.69079199999987
 30
0.0
  0
VERTEX
  5
DB5
  8
0
 62
     3
 10
-216.10512799999989
 20
555.87092599999994
 30
0.0
  0
VERTEX
  5
DB6
  8
0
 62
     3
 10
-216.17618400000001
 20
556.12681599999996
 30
0.0
  0
VERTEX
  5
DB7
  8
0
 62
     3
 10
-216.2347399999999
 20
556.33304599999985
 30
0.0
  0
VERTEX
  5
DB8
  8
0
 62
     3
 10
-216.29984499999989
 20
556.53712800000005
 30
0.0
  0
SEQEND
  5
DB9
  8
0
 62
     3
  0
POLYLINE
  5
5FA
  8
0
 62
     3
 66
     1
 10
0.0
 20
0.0
 30
0.0
  0
VERTEX
  5
DBA
  8
0
 62
     3
 10
-216.29984499999989
 20
556.53712800000005
 30
0.0
  0
VERTEX
  5
DBB
  8
0
 62
     3
 10
-216.3776729999999
 20
556.75244499999985
 30
0.0
  0
VERTEX
  5
DBC
  8
0
 62
     3
 10
-216.4495189999999
 20
556.94467899999995
 30
0.0
  0
VERTEX
  5
DBD
  8
0
 62
     3
 10
-216.51840799999991
 20
557.13634100000002
 30
0.0
  0
VERTEX
  5
DBE
  8
0
 62
     3
 10
-216.551177
 20
557.23523299999999
 30
0.0
  0
VERTEX
  5
DBF
  8
0
 62
     3
 10
-216.58121
 20
557.334564
 30
0.0
  0
VERTEX
  5
DC0
  8
0
 62
     3
 10
-216.60166799999999
 20
557.41011400000002
 30
0.0
  0
VERTEX
  5
DC1
  8
0
 62
     3
 10
-216.61984100000001
 20
557.48616399999992
 30
0.0
  0
VERTEX
  5
DC2
  8
0
 62
     3
 10
-216.62402999999989
 20
557.50546299999985
 30
0.0
  0
VERTEX
  5
DC3
  8
0
 62
     3
 10
-216.64782999999991
 20
557.63623799999993
 30
0.0
  0
VERTEX
  5
DC4
  8
0
 62
     3
 10
-216.665198
 20
557.77520800000002
 30
0.0
  0
VERTEX
  5
DC5
  8
0
 62
     3
 10
-216.6761689999999
 20
557.92525099999989
 30
0.0
  0
VERTEX
  5
DC6
  8
0
 62
     3
 10
-216.680724
 20
558.09160599999996
 30
0.0
  0
VERTEX
  5
DC7
  8
0
 62
     3
 10
-216.6787709999999
 20
558.28605300000004
 30
0.0
  0
VERTEX
  5
DC8
  8
0
 62
     3
 10
-216.67001599999989
 20
558.5512389999999
 30
0.0
  0
VERTEX
  5
DC9
  8
0
 62
     3
 10
-216.66948199999999
 20
558.56666600000005
 30
0.0
  0
VERTEX
  5
DCA
  8
0
 62
     3
 10
-216.66372200000001
 20
558.76980999999989
 30
0.0
  0
VERTEX
  5
DCB
  8
0
 62
     3
 10
-216.661025
 20
558.97243500000002
 30
0.0
  0
VERTEX
  5
DCC
  8
0
 62
     3
 10
-216.66139799999999
 20
559.11927800000001
 30
0.0
  0
VERTEX
  5
DCD
  8
0
 62
     3
 10
-216.66391999999999
 20
559.26609399999995
 30
0.0
  0
VERTEX
  5
DCE
  8
0
 62
     3
 10
-216.66986299999991
 20
559.44313399999987
 30
0.0
  0
VERTEX
  5
DCF
  8
0
 62
     3
 10
-216.677111
 20
559.58632999999986
 30
0.0
  0
VERTEX
  5
DD0
  8
0
 62
     3
 10
-216.68736499999989
 20
559.72945800000002
 30
0.0
  0
VERTEX
  5
DD1
  8
0
 62
     3
 10
-216.69699
 20
559.830826
 30
0.0
  0
VERTEX
  5
DD2
  8
0
 62
     3
 10
-216.7089069999999
 20
559.93183899999985
 30
0.0
  0
VERTEX
  5
DD3
  8
0
 62
     3
 10
-216.721396
 20
560.019451
 30
0.0
  0
VERTEX
  5
DD4
  8
0
 62
     3
 10
-216.73603299999999
 20
560.106583
 30
0.0
  0
VERTEX
  5
DD5
  8
0
 62
     3
 10
-216.75146000000001
 20
560.18582900000001
 30
0.0
  0
VERTEX
  5
DD6
  8
0
 62
     3
 10
-216.76895400000001
 20
560.26449999999988
 30
0.0
  0
VERTEX
  5
DD7
  8
0
 62
     3
 10
-216.78733700000001
 20
560.33765800000003
 30
0.0
  0
VERTEX
  5
DD8
  8
0
 62
     3
 10
-216.807726
 20
560.410168
 30
0.0
  0
VERTEX
  5
DD9
  8
0
 62
     3
 10
-216.829058
 20
560.47845499999994
 30
0.0
  0
VERTEX
  5
DDA
  8
0
 62
     3
 10
-216.85235099999991
 20
560.54602399999999
 30
0.0
  0
VERTEX
  5
DDB
  8
0
 62
     3
 10
-216.85396800000001
 20
560.55048799999986
 30
0.0
  0
VERTEX
  5
DDC
  8
0
 62
     3
 10
-216.90445199999991
 20
560.67785300000003
 30
0.0
  0
VERTEX
  5
DDD
  8
0
 62
     3
 10
-216.96451400000001
 20
560.80816700000003
 30
0.0
  0
VERTEX
  5
DDE
  8
0
 62
     3
 10
-217.0352649999999
 20
560.94309999999984
 30
0.0
  0
VERTEX
  5
DDF
  8
0
 62
     3
 10
-217.1183649999999
 20
561.08497599999987
 30
0.0
  0
VERTEX
  5
DE0
  8
0
 62
     3
 10
-217.216498
 20
561.23746900000003
 30
0.0
  0
VERTEX
  5
DE1
  8
0
 62
     3
 10
-217.315539
 20
561.38066100000003
 30
0.0
  0
VERTEX
  5
DE2
  8
0
 62
     3
 10
-217.38764800000001
 20
561.48033099999998
 30
0.0
  0
VERTEX
  5
DE3
  8
0
 62
     3
 10
-217.46118399999989
 20
561.57854099999986
 30
0.0
  0
VERTEX
  5
DE4
  8
0
 62
     3
 10
-217.53562799999989
 20
561.6746179999999
 30
0.0
  0
VERTEX
  5
DE5
  8
0
 62
     3
 10
-217.61137199999999
 20
561.76911500000006
 30
0.0
  0
VERTEX
  5
DE6
  8
0
 62
     3
 10
-217.766875
 20
561.95358999999996
 30
0.0
  0
VERTEX
  5
DE7
  8
0
 62
     3
 10
-217.91519799999989
 20
562.11881600000004
 30
0.0
  0
VERTEX
  5
DE8
  8
0
 62
     3
 10
-218.0864279999999
 20
562.30036900000005
 30
0.0
  0
VERTEX
  5
DE9
  8
0
 62
     3
 10
-218.30146999999999
 20
562.52855699999986
 30
0.0
  0
VERTEX
  5
DEA
  8
0
 62
     3
 10
-218.51509300000001
 20
562.76450699999987
 30
0.0
  0
VERTEX
  5
DEB
  8
0
 62
     3
 10
-218.65412000000001
 20
562.92021899999997
 30
0.0
  0
VERTEX
  5
DEC
  8
0
 62
     3
 10
-218.79752999999999
 20
563.06980499999986
 30
0.0
  0
VERTEX
  5
DED
  8
0
 62
     3
 10
-218.84957399999999
 20
563.11919399999988
 30
0.0
  0
VERTEX
  5
DEE
  8
0
 62
     3
 10
-218.90283799999989
 20
563.16649199999995
 30
0.0
  0
VERTEX
  5
DEF
  8
0
 62
     3
 10
-218.949511
 20
563.20505900000001
 30
0.0
  0
VERTEX
  5
DF0
  8
0
 62
     3
 10
-218.99730199999999
 20
563.24167599999987
 30
0.0
  0
VERTEX
  5
DF1
  8
0
 62
     3
 10
-219.0416359999999
 20
563.27300600000001
 30
0.0
  0
VERTEX
  5
DF2
  8
0
 62
     3
 10
-219.087039
 20
563.30245599999989
 30
0.0
  0
VERTEX
  5
DF3
  8
0
 62
     3
 10
-219.11427499999999
 20
563.31885499999987
 30
0.0
  0
VERTEX
  5
DF4
  8
0
 62
     3
 10
-219.2015899999999
 20
563.36545599999999
 30
0.0
  0
VERTEX
  5
DF5
  8
0
 62
     3
 10
-219.2989299999999
 20
563.40865300000007
 30
0.0
  0
VERTEX
  5
DF6
  8
0
 62
     3
 10
-219.40976599999999
 20
563.44950900000003
 30
0.0
  0
VERTEX
  5
DF7
  8
0
 62
     3
 10
-219.54100299999999
 20
563.48999400000002
 30
0.0
  0
VERTEX
  5
DF8
  8
0
 62
     3
 10
-219.7121029999999
 20
563.53572099999985
 30
0.0
  0
VERTEX
  5
DF9
  8
0
 62
     3
 10
-219.89944299999999
 20
563.58452999999986
 30
0.0
  0
VERTEX
  5
DFA
  8
0
 62
     3
 10
-220.08360499999989
 20
563.64052199999992
 30
0.0
  0
VERTEX
  5
DFB
  8
0
 62
     3
 10
-220.14350699999989
 20
563.66229199999987
 30
0.0
  0
VERTEX
  5
DFC
  8
0
 62
     3
 10
-220.20246399999999
 20
563.68586300000004
 30
0.0
  0
VERTEX
  5
DFD
  8
0
 62
     3
 10
-220.316824
 20
563.73802899999998
 30
0.0
  0
VERTEX
  5
DFE
  8
0
 62
     3
 10
-220.42897999999991
 20
563.79787799999997
 30
0.0
  0
VERTEX
  5
DFF
  8
0
 62
     3
 10
-220.54144099999999
 20
563.86675999999989
 30
0.0
  0
VERTEX
  5
E00
  8
0
 62
     3
 10
-220.6577549999999
 20
563.94702099999995
 30
0.0
  0
VERTEX
  5
E01
  8
0
 62
     3
 10
-220.78457099999989
 20
564.04355599999985
 30
0.0
  0
VERTEX
  5
E02
  8
0
 62
     3
 10
-220.91387
 20
564.14850200000001
 30
0.0
  0
VERTEX
  5
E03
  8
0
 62
     3
 10
-221.08138500000001
 20
564.28659400000004
 30
0.0
  0
VERTEX
  5
E04
  8
0
 62
     3
 10
-221.25068099999999
 20
564.4212
 30
0.0
  0
VERTEX
  5
E05
  8
0
 62
     3
 10
-221.3362599999999
 20
564.48570599999994
 30
0.0
  0
VERTEX
  5
E06
  8
0
 62
     3
 10
-221.423182
 20
564.548317
 30
0.0
  0
VERTEX
  5
E07
  8
0
 62
     3
 10
-221.51335399999999
 20
564.61004600000001
 30
0.0
  0
VERTEX
  5
E08
  8
0
 62
     3
 10
-221.6708129999999
 20
564.71108600000002
 30
0.0
  0
VERTEX
  5
E09
  8
0
 62
     3
 10
-221.9093189999999
 20
564.85750999999993
 30
0.0
  0
VERTEX
  5
E0A
  8
0
 62
     3
 10
-222.069762
 20
564.95801200000005
 30
0.0
  0
VERTEX
  5
E0B
  8
0
 62
     3
 10
-222.22704200000001
 20
565.06255299999998
 30
0.0
  0
VERTEX
  5
E0C
  8
0
 62
     3
 10
-222.30505199999999
 20
565.11778300000003
 30
0.0
  0
VERTEX
  5
E0D
  8
0
 62
     3
 10
-222.3816479999999
 20
565.17480899999987
 30
0.0
  0
VERTEX
  5
E0E
  8
0
 62
     3
 10
-222.48274900000001
 20
565.25515700000005
 30
0.0
  0
VERTEX
  5
E0F
  8
0
 62
     3
 10
-222.604918
 20
565.36017599999991
 30
0.0
  0
VERTEX
  5
E10
  8
0
 62
     3
 10
-222.80812700000001
 20
565.54072199999985
 30
0.0
  0
VERTEX
  5
E11
  8
0
 62
     3
 10
-222.90190699999999
 20
565.62107100000003
 30
0.0
  0
VERTEX
  5
E12
  8
0
 62
     3
 10
-222.99775199999991
 20
565.69919200000004
 30
0.0
  0
VERTEX
  5
E13
  8
0
 62
     3
 10
-223.08156099999999
 20
565.76372900000001
 30
0.0
  0
SEQEND
  5
E14
  8
0
 62
     3
  0
POLYLINE
  5
656
  8
0
 62
     3
 66
     1
 10
0.0
 20
0.0
 30
0.0
  0
VERTEX
  5
E15
  8
0
 62
     3
 10
-223.08156099999999
 20
565.76372900000001
 30
0.0
  0
VERTEX
  5
E16
  8
0
 62
     3
 10
-223.18573199999989
 20
565.83715099999995
 30
0.0
  0
VERTEX
  5
E17
  8
0
 62
     3
 10
-223.3127309999999
 20
565.91775499999994
 30
0.0
  0
VERTEX
  5
E18
  8
0
 62
     3
 10
-223.4847509999999
 20
566.01924899999995
 30
0.0
  0
VERTEX
  5
E19
  8
0
 62
     3
 10
-223.7000029999999
 20
566.1467899999999
 30
0.0
  0
VERTEX
  5
E1A
  8
0
 62
     3
 10
-223.90385299999991
 20
566.28442399999994
 30
0.0
  0
VERTEX
  5
E1B
  8
0
 62
     3
 10
-223.9534669999999
 20
566.32302100000004
 30
0.0
  0
VERTEX
  5
E1C
  8
0
 62
     3
 10
-224.00144399999991
 20
566.36321299999986
 30
0.0
  0
VERTEX
  5
E1D
  8
0
 62
     3
 10
-224.042597
 20
566.40044399999999
 30
0.0
  0
VERTEX
  5
E1E
  8
0
 62
     3
 10
-224.08219800000001
 20
566.439213
 30
0.0
  0
VERTEX
  5
E1F
  8
0
 62
     3
 10
-224.09721200000001
 20
566.45479599999999
 30
0.0
  0
VERTEX
  5
E20
  8
0
 62
     3
 10
-224.1635839999999
 20
566.53058199999987
 30
0.0
  0
VERTEX
  5
E21
  8
0
 62
     3
 10
-224.22611099999989
 20
566.61398299999985
 30
0.0
  0
VERTEX
  5
E22
  8
0
 62
     3
 10
-224.28516999999999
 20
566.70588299999997
 30
0.0
  0
VERTEX
  5
E23
  8
0
 62
     3
 10
-224.34117000000001
 20
566.80752599999994
 30
0.0
  0
VERTEX
  5
E24
  8
0
 62
     3
 10
-224.39468199999999
 20
566.92074999999988
 30
0.0
  0
VERTEX
  5
E25
  8
0
 62
     3
 10
-224.446608
 20
567.04856099999995
 30
0.0
  0
VERTEX
  5
E26
  8
0
 62
     3
 10
-224.4659069999999
 20
567.10105099999998
 30
0.0
  0
VERTEX
  5
E27
  8
0
 62
     3
 10
-224.51890800000001
 20
567.25988799999993
 30
0.0
  0
VERTEX
  5
E28
  8
0
 62
     3
 10
-224.57263399999999
 20
567.44434699999988
 30
0.0
  0
VERTEX
  5
E29
  8
0
 62
     3
 10
-224.62845799999999
 20
567.66205999999988
 30
0.0
  0
VERTEX
  5
E2A
  8
0
 62
     3
 10
-224.68818099999999
 20
567.92372499999988
 30
0.0
  0
VERTEX
  5
E2B
  8
0
 62
     3
 10
-224.75139899999999
 20
568.23352399999987
 30
0.0
  0
VERTEX
  5
E2C
  8
0
 62
     3
 10
-224.78882799999991
 20
568.43881999999985
 30
0.0
  0
SEQEND
  5
E2D
  8
0
 62
     3
  0
LINE
  5
670
  8
0
 62
     3
 10
-98.837347999999992
 20
547.47605499999997
 30
0.0
 11
-98.837347999999992
 21
705.97604399999989
 31
0.0
  0
LINE
  5
671
  8
0
 62
     3
 10
-100.08734799999991
 20
546.22605499999986
 30
0.0
 11
-205.70796100000001
 21
546.22605499999986
 31
0.0
  0
LINE
  5
672
  8
0
 62
     3
 10
-215.83735499999989
 20
555.19574399999988
 30
0.0
 11
-215.83735499999989
 21
702.756348
 31
0.0
  0
LINE
  5
673
  8
0
 62
     3
 10
-100.08734799999991
 20
707.22604399999989
 30
0.0
 11
-209.62764999999999
 21
707.22604399999989
 31
0.0
  0
LINE
  5
674
  8
0
 62
     3
 10
-104.33734799999991
 20
573.72605499999997
 30
0.0
 11
-104.33734799999991
 21
679.72605899999985
 31
0.0
  0
LINE
  5
675
  8
0
 62
     3
 10
-104.33734799999991
 20
573.72605499999997
 30
0.0
 11
-210.33735499999989
 21
573.72605499999997
 31
0.0
  0
LINE
  5
676
  8
0
 62
     3
 10
-210.33735499999989
 20
573.72605499999997
 30
0.0
 11
-210.33735499999989
 21
679.72605899999985
 31
0.0
  0
LINE
  5
677
  8
0
 62
     3
 10
-104.33734799999991
 20
679.726044
 30
0.0
 11
-210.33735499999989
 21
679.726044
 31
0.0
  0
LINE
  5
678
  8
0
 62
     3
 10
-103.33734799999991
 20
565.22605499999997
 30
0.0
 11
-103.33734799999991
 21
566.22605499999997
 31
0.0
  0
LINE
  5
679
  8
0
 62
     3
 10
-104.33734799999991
 20
567.22605499999986
 30
0.0
 11
-210.33735499999989
 21
567.22605499999986
 31
0.0
  0
LINE
  5
67A
  8
0
 62
     3
 10
-211.33735499999989
 20
565.22605499999997
 30
0.0
 11
-211.33735499999989
 21
566.22605499999997
 31
0.0
  0
LINE
  5
67B
  8
0
 62
     3
 10
-104.33734799999991
 20
566.22605499999997
 30
0.0
 11
-210.33735499999989
 21
566.22605499999997
 31
0.0
  0
LINE
  5
67C
  8
0
 62
     3
 10
-211.33735499999989
 20
552.46274200000005
 30
0.0
 11
-211.33735499999989
 21
565.22605499999997
 31
0.0
  0
LINE
  5
67D
  8
0
 62
     3
 10
-211.33735499999989
 20
566.22605099999998
 30
0.0
 11
-211.33735499999989
 21
705.48934899999995
 31
0.0
  0
LINE
  5
67E
  8
0
 62
     3
 10
-210.33735499999989
 20
552.14197899999999
 30
0.0
 11
-210.33735499999989
 21
566.22605499999997
 31
0.0
  0
LINE
  5
67F
  8
0
 62
     3
 10
-210.33735499999989
 20
679.726044
 30
0.0
 11
-210.33735499999989
 21
686.226044
 31
0.0
  0
LINE
  5
680
  8
0
 62
     3
 10
-210.33735499999989
 20
567.22605499999986
 30
0.0
 11
-210.33735499999989
 21
573.72605499999997
 31
0.0
  0
LINE
  5
681
  8
0
 62
     3
 10
-103.33734799999991
 20
546.22605499999986
 30
0.0
 11
-103.33734799999991
 21
565.22605499999997
 31
0.0
  0
LINE
  5
682
  8
0
 62
     3
 10
-103.33734799999991
 20
566.22605499999997
 30
0.0
 11
-103.33734799999991
 21
707.22604399999989
 31
0.0
  0
LINE
  5
683
  8
0
 62
     3
 10
-104.33734799999991
 20
567.22605499999986
 30
0.0
 11
-104.33734799999991
 21
573.72605499999997
 31
0.0
  0
LINE
  5
684
  8
0
 62
     3
 10
-104.33734799999991
 20
679.726044
 30
0.0
 11
-104.33734799999991
 21
686.226044
 31
0.0
  0
LINE
  5
685
  8
0
 62
     3
 10
-104.33734799999991
 20
546.22605499999986
 30
0.0
 11
-104.33734799999991
 21
566.22605499999997
 31
0.0
  0
LINE
  5
686
  8
0
 62
     3
 10
-103.33734799999991
 20
687.22604399999989
 30
0.0
 11
-211.33735499999989
 21
687.22604399999989
 31
0.0
  0
LINE
  5
687
  8
0
 62
     3
 10
-104.33734799999991
 20
686.226044
 30
0.0
 11
-210.33735499999989
 21
686.226044
 31
0.0
  0
ARC
  5
688
  8
0
 62
     3
 10
-100.08734799999991
 20
547.47605499999997
 30
0.0
 40
1.25
 50
270.00000499999987
 51
0.000001
  0
ARC
  5
689
  8
0
 62
     3
 10
-100.08734799999991
 20
705.97604399999989
 30
0.0
 40
1.25
 50
0.000001
 51
90.0
  0
LINE
  5
68A
  8
0
  6
DASHSPACE
 62
     3
 10
-211.33735499999989
 20
696.47605899999996
 30
0.0
 11
-211.83735100000001
 21
696.47605899999996
 31
0.0
  0
LINE
  5
68B
  8
0
  6
DASHSPACE
 62
     3
 10
-211.33735499999989
 20
697.97605899999985
 30
0.0
 11
-211.83735100000001
 21
697.97605899999985
 31
0.0
  0
LINE
  5
68C
  8
0
 62
     3
 10
-103.33734799999991
 20
696.47605899999996
 30
0.0
 11
-103.83734799999991
 21
696.47605899999996
 31
0.0
  0
LINE
  5
68D
  8
0
 62
     3
 10
-103.33734799999991
 20
697.97605899999985
 30
0.0
 11
-103.83734799999991
 21
697.97605899999985
 31
0.0
  0
ARC
  5
68E
  8
0
  6
DASHSPACE
 62
     3
 10
-211.83735100000001
 20
697.22605899999985
 30
0.0
 40
0.75
 50
90.0
 51
270.00000499999987
  0
ARC
  5
68F
  8
0
 62
     3
 10
-210.8373509999999
 20
697.22605899999985
 30
0.0
 40
0.75
 50
270.00000499999987
 51
90.0
  0
LINE
  5
690
  8
0
 62
     3
 10
-210.8373509999999
 20
697.97605899999985
 30
0.0
 11
-211.33735499999989
 21
697.97605899999985
 31
0.0
  0
LINE
  5
691
  8
0
 62
     3
 10
-210.8373509999999
 20
696.47605899999996
 30
0.0
 11
-211.33735499999989
 21
696.47605899999996
 31
0.0
  0
ARC
  5
692
  8
0
 62
     3
 10
-103.83734799999991
 20
697.22605899999985
 30
0.0
 40
0.75
 50
90.0
 51
270.00000499999987
  0
ARC
  5
693
  8
0
  6
DASHSPACE
 62
     3
 10
-102.83734799999991
 20
697.22605899999985
 30
0.0
 40
0.75
 50
269.99999100000002
 51
90.0
  0
LINE
  5
694
  8
0
  6
DASHSPACE
 62
     3
 10
-102.83734799999991
 20
697.97605899999985
 30
0.0
 11
-103.33734799999991
 21
697.97605899999985
 31
0.0
  0
LINE
  5
695
  8
0
  6
DASHSPACE
 62
     3
 10
-102.83734799999991
 20
696.47605899999996
 30
0.0
 11
-103.33734799999991
 21
696.47605899999996
 31
0.0
  0
CIRCLE
  5
696
  8
0
 62
     7
 10
-100.968009
 20
557.51005199999986
 30
0.0
 40
0.2
  0
CIRCLE
  5
697
  8
0
 62
     7
 10
-107.755957
 20
544.22555499999987
 30
0.0
 40
0.2
  0
LINE
  5
698
  8
0
 62
     7
 10
-285.93048700000003
 20
543.97602800000004
 30
0.0
 11
-284.88861700000001
 21
549.88487199999986
 31
0.0
  0
LINE
  5
699
  8
0
 62
     7
 10
-285.93048700000003
 20
543.97602800000004
 30
0.0
 11
-286.97235699999999
 21
549.88487199999986
 31
0.0
  0
LINE
  5
69A
  8
0
 62
     7
 10
-285.93048700000003
 20
713.97602800000004
 30
0.0
 11
-286.97235699999999
 21
708.06718399999988
 31
0.0
  0
LINE
  5
69B
  8
0
 62
     7
 10
-285.93048700000003
 20
713.97602800000004
 30
0.0
 11
-284.88861700000001
 21
708.06718399999988
 31
0.0
  0
LINE
  5
69C
  8
0
 62
     7
 10
-285.93048700000003
 20
543.97602800000004
 30
0.0
 11
-285.93048700000003
 21
713.97602800000004
 31
0.0
  0
LINE
  5
69D
  8
0
 62
     7
 10
-289.93048700000003
 20
543.97602800000004
 30
0.0
 11
-241.33734799999999
 21
543.97603000000004
 31
0.0
  0
LINE
  5
69E
  8
0
 62
     7
 10
-289.93048700000003
 20
713.97602800000004
 30
0.0
 11
-241.33734799999999
 21
713.97602800000004
 31
0.0
  0
LINE
  5
69F
  8
0
 62
     7
 10
-104.83734799999991
 20
774.44355800000005
 30
0.0
 11
-110.746161
 21
775.48545799999988
 31
0.0
  0
LINE
  5
6A0
  8
0
 62
     7
 10
-104.83734799999991
 20
774.44355800000005
 30
0.0
 11
-110.746161
 21
773.40168800000004
 31
0.0
  0
LINE
  5
6A1
  8
0
 62
     7
 10
-244.83734799999991
 20
774.44358799999998
 30
0.0
 11
-238.9285339999999
 21
773.40171799999985
 31
0.0
  0
LINE
  5
6A2
  8
0
 62
     7
 10
-244.83734799999991
 20
774.44358799999998
 30
0.0
 11
-238.9285339999999
 21
775.48545799999988
 31
0.0
  0
LINE
  5
6A3
  8
0
 62
     7
 10
-104.83734799999991
 20
774.44355800000005
 30
0.0
 11
-244.83734799999991
 21
774.44358799999998
 31
0.0
  0
LINE
  5
6A4
  8
0
 62
     7
 10
-104.83734799999991
 20
778.44355800000005
 30
0.0
 11
-104.83734799999991
 21
678.72605899999985
 31
0.0
  0
LINE
  5
6A5
  8
0
 62
     7
 10
-244.83734799999991
 20
778.44358799999998
 30
0.0
 11
-244.83747
 21
711.17607099999987
 31
0.0
  0
LINE
  5
6A6
  8
0
 62
     7
 10
-104.83734799999991
 20
506.78353899999991
 30
0.0
 11
-110.746161
 21
507.82542399999988
 31
0.0
  0
LINE
  5
6A7
  8
0
 62
     7
 10
-104.83734799999991
 20
506.78353899999991
 30
0.0
 11
-110.746161
 21
505.74164599999989
 31
0.0
  0
LINE
  5
6A8
  8
0
 62
     7
 10
-157.33734799999991
 20
506.78355399999992
 30
0.0
 11
-151.42853400000001
 21
505.74166100000002
 31
0.0
  0
LINE
  5
6A9
  8
0
 62
     7
 10
-157.33734799999991
 20
506.78355399999992
 30
0.0
 11
-151.42853400000001
 21
507.8254389999999
 31
0.0
  0
LINE
  5
6AA
  8
0
 62
     7
 10
-104.83734799999991
 20
506.78353899999991
 30
0.0
 11
-157.33734799999991
 21
506.78355399999992
 31
0.0
  0
LINE
  5
6AB
  8
0
 62
     7
 10
-104.83734799999991
 20
502.78353899999991
 30
0.0
 11
-104.83734799999991
 21
574.72214099999985
 31
0.0
  0
LINE
  5
6AC
  8
0
 62
     7
 10
-157.33734799999991
 20
502.78355399999992
 30
0.0
 11
-157.33734799999991
 21
656.65574600000002
 31
0.0
  0
LINE
  5
6AD
  8
0
 62
     7
 10
-122.33734800000001
 20
524.62847899999986
 30
0.0
 11
-128.246161
 21
525.67036799999994
 31
0.0
  0
LINE
  5
6AE
  8
0
 62
     7
 10
-122.33734800000001
 20
524.62847899999986
 30
0.0
 11
-128.246161
 21
523.58659
 31
0.0
  0
LINE
  5
6AF
  8
0
 62
     7
 10
-157.33734799999991
 20
524.62849000000006
 30
0.0
 11
-151.42853400000001
 21
523.58660099999986
 31
0.0
  0
LINE
  5
6B0
  8
0
 62
     7
 10
-157.33734799999991
 20
524.62849000000006
 30
0.0
 11
-151.42853400000001
 21
525.67038000000002
 31
0.0
  0
LINE
  5
6B1
  8
0
 62
     7
 10
-157.33734799999991
 20
524.62849000000006
 30
0.0
 11
-163.246161
 21
525.67038000000002
 31
0.0
  0
LINE
  5
6B2
  8
0
 62
     7
 10
-157.33734799999991
 20
524.62849000000006
 30
0.0
 11
-163.246161
 21
523.58660099999986
 31
0.0
  0
LINE
  5
6B3
  8
0
 62
     7
 10
-192.33734799999999
 20
524.62850199999991
 30
0.0
 11
-186.42853400000001
 21
523.58661299999994
 31
0.0
  0
LINE
  5
6B4
  8
0
 62
     7
 10
-192.33734799999999
 20
524.62850199999991
 30
0.0
 11
-186.42853400000001
 21
525.67039099999988
 31
0.0
  0
LINE
  5
6B5
  8
0
 62
     7
 10
-192.33734799999999
 20
524.62850199999991
 30
0.0
 11
-198.246161
 21
525.67039099999988
 31
0.0
  0
LINE
  5
6B6
  8
0
 62
     7
 10
-192.33734799999999
 20
524.62850199999991
 30
0.0
 11
-198.246161
 21
523.58661299999994
 31
0.0
  0
LINE
  5
6B7
  8
0
 62
     7
 10
-227.33734799999999
 20
524.628513
 30
0.0
 11
-221.4285339999999
 21
523.58662400000003
 31
0.0
  0
LINE
  5
6B8
  8
0
 62
     7
 10
-227.33734799999999
 20
524.628513
 30
0.0
 11
-221.4285339999999
 21
525.67040299999996
 31
0.0
  0
LINE
  5
6B9
  8
0
 62
     7
 10
-122.33734800000001
 20
524.62847899999986
 30
0.0
 11
-227.33734799999999
 21
524.628513
 31
0.0
  0
LINE
  5
6BA
  8
0
 62
     7
 10
-122.33734800000001
 20
520.62847899999986
 30
0.0
 11
-122.33734800000001
 21
543.57605599999999
 31
0.0
  0
LINE
  5
6BB
  8
0
 62
     7
 10
-192.33734799999999
 20
520.62850199999991
 30
0.0
 11
-192.33734799999999
 21
543.57606499999997
 31
0.0
  0
LINE
  5
6BC
  8
0
 62
     7
 10
-227.33734799999999
 20
520.628513
 30
0.0
 11
-227.33734799999999
 21
547.9760839999999
 31
0.0
  0
LINE
  5
6BD
  8
0
 62
     7
 10
-104.83734799999991
 20
738.34664899999996
 30
0.0
 11
-110.746161
 21
739.38853499999993
 31
0.0
  0
LINE
  5
6BE
  8
0
 62
     7
 10
-104.83734799999991
 20
738.34664899999996
 30
0.0
 11
-110.746161
 21
737.30476399999998
 31
0.0
  0
LINE
  5
6BF
  8
0
 62
     7
 10
-209.83734799999991
 20
738.34664899999996
 30
0.0
 11
-203.92853400000001
 21
737.30476399999998
 31
0.0
  0
LINE
  5
6C0
  8
0
 62
     7
 10
-209.83734799999991
 20
738.34664899999996
 30
0.0
 11
-203.92853400000001
 21
739.38853499999993
 31
0.0
  0
LINE
  5
6C1
  8
0
 62
     7
 10
-104.83734799999991
 20
738.34664899999996
 30
0.0
 11
-209.83734799999991
 21
738.34664899999996
 31
0.0
  0
LINE
  5
6C2
  8
0
 62
     7
 10
-104.83734799999991
 20
742.34664899999996
 30
0.0
 11
-104.83734799999991
 21
678.72605899999985
 31
0.0
  0
LINE
  5
6C3
  8
0
 62
     7
 10
-209.83734799999991
 20
742.34664899999996
 30
0.0
 11
-209.83734799999991
 21
678.72605899999985
 31
0.0
  0
LINE
  5
6C4
  8
0
 62
     5
 10
-267.57538499999993
 20
626.72605099999987
 30
0.0
 11
-266.53351400000003
 21
632.63489500000003
 31
0.0
  0
LINE
  5
6C5
  8
0
 62
     5
 10
-267.57538499999993
 20
626.72605099999987
 30
0.0
 11
-268.617255
 21
632.63489500000003
 31
0.0
  0
LINE
  5
6C6
  8
0
 62
     5
 10
-267.57538499999993
 20
713.97604399999989
 30
0.0
 11
-268.617255
 21
708.06719999999984
 31
0.0
  0
LINE
  5
6C7
  8
0
 62
     5
 10
-267.57538499999993
 20
713.97604399999989
 30
0.0
 11
-266.53351400000003
 21
708.06719999999984
 31
0.0
  0
LINE
  5
6C8
  8
0
 62
     5
 10
-267.57538499999993
 20
626.72605099999987
 30
0.0
 11
-267.57538499999993
 21
713.97604399999989
 31
0.0
  0
LINE
  5
6C9
  8
0
 62
     5
 10
-271.57538499999998
 20
626.72605099999987
 30
0.0
 11
-254.556342
 21
626.72605099999987
 31
0.0
  0
LINE
  5
6CA
  8
0
 62
     5
 10
-271.57538499999998
 20
713.97604399999989
 30
0.0
 11
-208.08734799999999
 21
713.97604399999989
 31
0.0
  0
LINE
  5
6CB
  8
0
 62
     7
 10
-54.450139999999998
 20
541.476044
 30
0.0
 11
-53.408269999999987
 21
547.38489000000004
 31
0.0
  0
LINE
  5
6CC
  8
0
 62
     7
 10
-54.450139999999998
 20
541.476044
 30
0.0
 11
-55.492072
 21
547.38489000000004
 31
0.0
  0
LINE
  5
6CD
  8
0
 62
     7
 10
-54.450139999999998
 20
716.476044
 30
0.0
 11
-55.492072
 21
710.56719999999984
 31
0.0
  0
LINE
  5
6CE
  8
0
 62
     7
 10
-54.450139999999998
 20
716.476044
 30
0.0
 11
-53.408269999999987
 21
710.56719999999984
 31
0.0
  0
LINE
  5
6CF
  8
0
 62
     7
 10
-54.450139999999998
 20
541.476044
 30
0.0
 11
-54.450139999999998
 21
716.476044
 31
0.0
  0
LINE
  5
6D0
  8
0
 62
     7
 10
-50.450139999999998
 20
541.476044
 30
0.0
 11
-106.08734799999991
 21
541.47604200000001
 31
0.0
  0
LINE
  5
6D1
  8
0
 62
     7
 10
-50.450139999999998
 20
716.476044
 30
0.0
 11
-106.08734799999991
 21
716.476044
 31
0.0
  0
LINE
  5
6D2
  8
0
 62
     7
 10
-87.172431000000003
 20
626.72605099999987
 30
0.0
 11
-86.130437999999984
 21
632.63490300000001
 31
0.0
  0
LINE
  5
6D3
  8
0
 62
     7
 10
-87.172431000000003
 20
626.72605099999987
 30
0.0
 11
-88.214301000000006
 21
632.63490300000001
 31
0.0
  0
LINE
  5
6D4
  8
0
 62
     7
 10
-87.172431000000003
 20
716.476044
 30
0.0
 11
-88.214301000000006
 21
710.56719999999984
 31
0.0
  0
LINE
  5
6D5
  8
0
 62
     7
 10
-87.172431000000003
 20
716.476044
 30
0.0
 11
-86.130437999999984
 21
710.56719999999984
 31
0.0
  0
LINE
  5
6D6
  8
0
 62
     7
 10
-87.172431000000003
 20
626.72605099999987
 30
0.0
 11
-87.172431000000003
 21
716.476044
 31
0.0
  0
LINE
  5
6D7
  8
0
 62
     7
 10
-83.172431000000003
 20
626.72605099999987
 30
0.0
 11
-97.918402000000015
 21
626.72605099999987
 31
0.0
  0
LINE
  5
6D8
  8
0
 62
     7
 10
-83.172431000000003
 20
716.476044
 30
0.0
 11
-106.08734799999991
 21
716.476044
 31
0.0
  0
LINE
  5
6D9
  8
0
 62
     7
 10
-98.837347999999992
 20
758.338348
 30
0.0
 11
-104.746161
 21
759.38023399999986
 31
0.0
  0
LINE
  5
6DA
  8
0
 62
     7
 10
-98.837347999999992
 20
758.338348
 30
0.0
 11
-104.746161
 21
757.29646300000002
 31
0.0
  0
LINE
  5
6DB
  8
0
 62
     7
 10
-215.83734799999991
 20
758.338348
 30
0.0
 11
-209.9285339999999
 21
757.29646300000002
 31
0.0
  0
LINE
  5
6DC
  8
0
 62
     7
 10
-215.83734799999991
 20
758.338348
 30
0.0
 11
-209.9285339999999
 21
759.38023399999986
 31
0.0
  0
LINE
  5
6DD
  8
0
 62
     7
 10
-98.837347999999992
 20
758.338348
 30
0.0
 11
-215.83734799999991
 21
758.338348
 31
0.0
  0
LINE
  5
6DE
  8
0
 62
     7
 10
-98.837347999999992
 20
762.338348
 30
0.0
 11
-98.837347999999992
 21
705.97605899999985
 31
0.0
  0
LINE
  5
6DF
  8
0
 62
     7
 10
-215.83734799999991
 20
762.338348
 30
0.0
 11
-215.83734799999991
 21
702.756348
 31
0.0
  0
LINE
  5
6E0
  8
0
 62
     7
 10
-70.669195999999999
 20
546.22605499999986
 30
0.0
 11
-69.627325999999996
 21
552.13490300000001
 31
0.0
  0
LINE
  5
6E1
  8
0
 62
     7
 10
-70.669195999999999
 20
546.22605499999986
 30
0.0
 11
-71.711127000000005
 21
552.13490300000001
 31
0.0
  0
LINE
  5
6E2
  8
0
 62
     7
 10
-70.669195999999999
 20
707.22605899999985
 30
0.0
 11
-71.711127000000005
 21
701.31721500000003
 31
0.0
  0
LINE
  5
6E3
  8
0
 62
     7
 10
-70.669195999999999
 20
707.22605899999985
 30
0.0
 11
-69.627325999999996
 21
701.31721500000003
 31
0.0
  0
LINE
  5
6E4
  8
0
 62
     7
 10
-70.669195999999999
 20
546.22605499999986
 30
0.0
 11
-70.669195999999999
 21
707.22605899999985
 31
0.0
  0
LINE
  5
6E5
  8
0
 62
     7
 10
-66.669195999999985
 20
546.22605499999986
 30
0.0
 11
-100.08734799999991
 21
546.22605299999998
 31
0.0
  0
LINE
  5
6E6
  8
0
 62
     7
 10
-66.669195999999985
 20
707.22605899999985
 30
0.0
 11
-100.08734799999991
 21
707.22605899999985
 31
0.0
  0
LINE
  5
6E7
  8
0
 62
     7
 10
829.20016500000008
 20
682.72605099999998
 30
0.0
 11
829.20016500000008
 21
570.72605099999998
 31
0.0
  0
LINE
  5
6E8
  8
0
 62
     7
 10
941.20016499999997
 20
682.72605099999998
 30
0.0
 11
941.20016499999997
 21
570.72605099999998
 31
0.0
  0
LINE
  5
6E9
  8
0
  6
DASHDOT
 62
     7
 10
801.28209699999991
 20
626.72605099999987
 30
0.0
 11
982.26434299999994
 21
626.72605099999987
 31
0.0
  0
LINE
  5
6EA
  8
0
  6
DASHDOT
 62
     7
 10
885.20016500000008
 20
754.36192300000005
 30
0.0
 11
885.20016500000008
 21
526.98903700000005
 31
0.0
  0
POLYLINE
  5
6EB
  8
0
 62
     3
 66
     1
 10
0.0
 20
0.0
 30
0.0
  0
VERTEX
  5
E2E
  8
0
 62
     3
 10
813.34217799999999
 20
704.87525199999993
 30
0.0
  0
VERTEX
  5
E2F
  8
0
 62
     3
 10
829.34217799999988
 20
704.87525199999993
 30
0.0
  0
VERTEX
  5
E30
  8
0
 62
     3
 10
830.34217799999999
 20
706.87525199999993
 30
0.0
  0
VERTEX
  5
E31
  8
0
 62
     3
 10
831.34217799999999
 20
702.87525199999993
 30
0.0
  0
VERTEX
  5
E32
  8
0
 62
     3
 10
832.34217799999999
 20
704.87525199999993
 30
0.0
  0
VERTEX
  5
E33
  8
0
 62
     3
 10
848.34217799999976
 20
704.87525199999993
 30
0.0
  0
VERTEX
  5
E34
  8
0
 62
     3
 10
849.34217799999976
 20
706.87525199999993
 30
0.0
  0
VERTEX
  5
E35
  8
0
 62
     3
 10
850.34217799999976
 20
702.87525199999993
 30
0.0
  0
VERTEX
  5
E36
  8
0
 62
     3
 10
851.34217799999976
 20
704.87525199999993
 30
0.0
  0
VERTEX
  5
E37
  8
0
 62
     3
 10
867.34217799999976
 20
704.87525199999993
 30
0.0
  0
VERTEX
  5
E38
  8
0
 62
     3
 10
868.34217799999988
 20
706.87525199999993
 30
0.0
  0
VERTEX
  5
E39
  8
0
 62
     3
 10
869.34217799999988
 20
702.87525199999993
 30
0.0
  0
VERTEX
  5
E3A
  8
0
 62
     3
 10
870.34217799999988
 20
704.87525199999993
 30
0.0
  0
VERTEX
  5
E3B
  8
0
 62
     3
 10
886.34217799999988
 20
704.87525199999993
 30
0.0
  0
VERTEX
  5
E3C
  8
0
 62
     3
 10
887.34217799999988
 20
706.87525199999993
 30
0.0
  0
VERTEX
  5
E3D
  8
0
 62
     3
 10
888.34217799999988
 20
702.87525199999993
 30
0.0
  0
VERTEX
  5
E3E
  8
0
 62
     3
 10
889.34217799999976
 20
704.87525199999993
 30
0.0
  0
VERTEX
  5
E3F
  8
0
 62
     3
 10
905.34217799999976
 20
704.87525199999993
 30
0.0
  0
VERTEX
  5
E40
  8
0
 62
     3
 10
906.34217799999976
 20
706.87525199999993
 30
0.0
  0
VERTEX
  5
E41
  8
0
 62
     3
 10
907.34217799999976
 20
702.87525199999993
 30
0.0
  0
VERTEX
  5
E42
  8
0
 62
     3
 10
908.34217799999976
 20
704.87525199999993
 30
0.0
  0
VERTEX
  5
E43
  8
0
 62
     3
 10
924.34217799999976
 20
704.87525199999993
 30
0.0
  0
VERTEX
  5
E44
  8
0
 62
     3
 10
925.34217799999976
 20
706.87525199999993
 30
0.0
  0
VERTEX
  5
E45
  8
0
 62
     3
 10
926.34217799999988
 20
702.87525199999993
 30
0.0
  0
VERTEX
  5
E46
  8
0
 62
     3
 10
927.34217799999988
 20
704.87525199999993
 30
0.0
  0
VERTEX
  5
E47
  8
0
 62
     3
 10
943.34217799999988
 20
704.87525199999993
 30
0.0
  0
VERTEX
  5
E48
  8
0
 62
     3
 10
944.34217799999988
 20
706.87525199999993
 30
0.0
  0
VERTEX
  5
E49
  8
0
 62
     3
 10
945.34217799999988
 20
702.87525199999993
 30
0.0
  0
VERTEX
  5
E4A
  8
0
 62
     3
 10
946.34217799999988
 20
704.87525199999993
 30
0.0
  0
VERTEX
  5
E4B
  8
0
 62
     3
 10
956.555656
 20
704.87525199999993
 30
0.0
  0
SEQEND
  5
E4C
  8
0
 62
     3
  0
POLYLINE
  5
70B
  8
0
 62
     3
 66
     1
 10
0.0
 20
0.0
 30
0.0
  0
VERTEX
  5
E4D
  8
0
 62
     3
 10
813.34217799999999
 20
540.05413099999998
 30
0.0
  0
VERTEX
  5
E4E
  8
0
 62
     3
 10
829.34217799999988
 20
540.05413099999998
 30
0.0
  0
VERTEX
  5
E4F
  8
0
 62
     3
 10
830.34217799999999
 20
542.05413099999987
 30
0.0
  0
VERTEX
  5
E50
  8
0
 62
     3
 10
831.34217799999999
 20
538.05413099999987
 30
0.0
  0
VERTEX
  5
E51
  8
0
 62
     3
 10
832.34217799999999
 20
540.05413099999998
 30
0.0
  0
VERTEX
  5
E52
  8
0
 62
     3
 10
848.34217799999976
 20
540.05413099999998
 30
0.0
  0
VERTEX
  5
E53
  8
0
 62
     3
 10
849.34217799999976
 20
542.05413099999987
 30
0.0
  0
VERTEX
  5
E54
  8
0
 62
     3
 10
850.34217799999976
 20
538.05413099999987
 30
0.0
  0
VERTEX
  5
E55
  8
0
 62
     3
 10
851.34217799999976
 20
540.05413099999998
 30
0.0
  0
VERTEX
  5
E56
  8
0
 62
     3
 10
867.34217799999976
 20
540.05413099999998
 30
0.0
  0
VERTEX
  5
E57
  8
0
 62
     3
 10
868.34217799999988
 20
542.05413099999987
 30
0.0
  0
VERTEX
  5
E58
  8
0
 62
     3
 10
869.34217799999988
 20
538.05413099999987
 30
0.0
  0
VERTEX
  5
E59
  8
0
 62
     3
 10
870.34217799999988
 20
540.05413099999998
 30
0.0
  0
VERTEX
  5
E5A
  8
0
 62
     3
 10
886.34217799999988
 20
540.05413099999998
 30
0.0
  0
VERTEX
  5
E5B
  8
0
 62
     3
 10
887.34217799999988
 20
542.05413099999987
 30
0.0
  0
VERTEX
  5
E5C
  8
0
 62
     3
 10
888.34217799999988
 20
538.05413099999987
 30
0.0
  0
VERTEX
  5
E5D
  8
0
 62
     3
 10
889.34217799999976
 20
540.05413099999998
 30
0.0
  0
VERTEX
  5
E5E
  8
0
 62
     3
 10
905.34217799999976
 20
540.05413099999998
 30
0.0
  0
VERTEX
  5
E5F
  8
0
 62
     3
 10
906.34217799999976
 20
542.05413099999987
 30
0.0
  0
VERTEX
  5
E60
  8
0
 62
     3
 10
907.34217799999976
 20
538.05413099999987
 30
0.0
  0
VERTEX
  5
E61
  8
0
 62
     3
 10
908.34217799999976
 20
540.05413099999998
 30
0.0
  0
VERTEX
  5
E62
  8
0
 62
     3
 10
924.34217799999976
 20
540.05413099999998
 30
0.0
  0
VERTEX
  5
E63
  8
0
 62
     3
 10
925.34217799999976
 20
542.05413099999987
 30
0.0
  0
VERTEX
  5
E64
  8
0
 62
     3
 10
926.34217799999988
 20
538.05413099999987
 30
0.0
  0
VERTEX
  5
E65
  8
0
 62
     3
 10
927.34217799999988
 20
540.05413099999998
 30
0.0
  0
VERTEX
  5
E66
  8
0
 62
     3
 10
943.34217799999988
 20
540.05413099999998
 30
0.0
  0
VERTEX
  5
E67
  8
0
 62
     3
 10
944.34217799999988
 20
542.05413099999987
 30
0.0
  0
VERTEX
  5
E68
  8
0
 62
     3
 10
945.34217799999988
 20
538.05413099999987
 30
0.0
  0
VERTEX
  5
E69
  8
0
 62
     3
 10
946.34217799999988
 20
540.05413099999998
 30
0.0
  0
VERTEX
  5
E6A
  8
0
 62
     3
 10
956.555656
 20
540.05413099999998
 30
0.0
  0
SEQEND
  5
E6B
  8
0
 62
     3
  0
POLYLINE
  5
72B
  8
0
 62
     3
 66
     1
 10
0.0
 20
0.0
 30
0.0
  0
VERTEX
  5
E6C
  8
0
 62
     3
 10
956.555656
 20
704.87525199999993
 30
0.0
  0
VERTEX
  5
E6D
  8
0
 62
     3
 10
956.555656
 20
688.87525199999993
 30
0.0
  0
VERTEX
  5
E6E
  8
0
 62
     3
 10
958.555656
 20
687.87525199999993
 30
0.0
  0
VERTEX
  5
E6F
  8
0
 62
     3
 10
954.55565599999989
 20
686.87525199999993
 30
0.0
  0
VERTEX
  5
E70
  8
0
 62
     3
 10
956.555656
 20
685.87525199999993
 30
0.0
  0
VERTEX
  5
E71
  8
0
 62
     3
 10
956.555656
 20
669.87525199999993
 30
0.0
  0
VERTEX
  5
E72
  8
0
 62
     3
 10
958.555656
 20
668.87525199999993
 30
0.0
  0
VERTEX
  5
E73
  8
0
 62
     3
 10
954.55565599999989
 20
667.87525199999993
 30
0.0
  0
VERTEX
  5
E74
  8
0
 62
     3
 10
956.555656
 20
666.87525199999993
 30
0.0
  0
VERTEX
  5
E75
  8
0
 62
     3
 10
956.555656
 20
650.87525199999993
 30
0.0
  0
VERTEX
  5
E76
  8
0
 62
     3
 10
958.555656
 20
649.87525199999993
 30
0.0
  0
VERTEX
  5
E77
  8
0
 62
     3
 10
954.55565599999989
 20
648.87525199999993
 30
0.0
  0
VERTEX
  5
E78
  8
0
 62
     3
 10
956.555656
 20
647.87525199999993
 30
0.0
  0
VERTEX
  5
E79
  8
0
 62
     3
 10
956.555656
 20
631.87525199999993
 30
0.0
  0
VERTEX
  5
E7A
  8
0
 62
     3
 10
958.555656
 20
630.87525199999993
 30
0.0
  0
VERTEX
  5
E7B
  8
0
 62
     3
 10
954.55565599999989
 20
629.87525199999993
 30
0.0
  0
VERTEX
  5
E7C
  8
0
 62
     3
 10
956.555656
 20
628.87525199999993
 30
0.0
  0
VERTEX
  5
E7D
  8
0
 62
     3
 10
956.555656
 20
612.87525199999993
 30
0.0
  0
VERTEX
  5
E7E
  8
0
 62
     3
 10
958.555656
 20
611.87525199999993
 30
0.0
  0
VERTEX
  5
E7F
  8
0
 62
     3
 10
954.55565599999989
 20
610.87525199999993
 30
0.0
  0
VERTEX
  5
E80
  8
0
 62
     3
 10
956.555656
 20
609.87525199999993
 30
0.0
  0
VERTEX
  5
E81
  8
0
 62
     3
 10
956.555656
 20
593.87525199999993
 30
0.0
  0
VERTEX
  5
E82
  8
0
 62
     3
 10
958.555656
 20
592.87525199999993
 30
0.0
  0
VERTEX
  5
E83
  8
0
 62
     3
 10
954.55565599999989
 20
591.87525199999993
 30
0.0
  0
VERTEX
  5
E84
  8
0
 62
     3
 10
956.555656
 20
590.87525199999993
 30
0.0
  0
VERTEX
  5
E85
  8
0
 62
     3
 10
956.555656
 20
574.87525199999993
 30
0.0
  0
VERTEX
  5
E86
  8
0
 62
     3
 10
958.555656
 20
573.87525199999993
 30
0.0
  0
VERTEX
  5
E87
  8
0
 62
     3
 10
954.55565599999989
 20
572.87525199999993
 30
0.0
  0
VERTEX
  5
E88
  8
0
 62
     3
 10
956.555656
 20
571.87525199999993
 30
0.0
  0
VERTEX
  5
E89
  8
0
 62
     3
 10
956.555656
 20
555.87525199999993
 30
0.0
  0
VERTEX
  5
E8A
  8
0
 62
     3
 10
958.555656
 20
554.87525199999993
 30
0.0
  0
VERTEX
  5
E8B
  8
0
 62
     3
 10
954.55565599999989
 20
553.87525199999993
 30
0.0
  0
VERTEX
  5
E8C
  8
0
 62
     3
 10
956.555656
 20
552.87525199999993
 30
0.0
  0
VERTEX
  5
E8D
  8
0
 62
     3
 10
956.555656
 20
540.05413099999998
 30
0.0
  0
SEQEND
  5
E8E
  8
0
 62
     3
  0
POLYLINE
  5
74F
  8
0
 62
     3
 66
     1
 10
0.0
 20
0.0
 30
0.0
  0
VERTEX
  5
E8F
  8
0
 62
     3
 10
813.34217799999999
 20
704.87525199999993
 30
0.0
  0
VERTEX
  5
E90
  8
0
 62
     3
 10
813.34217799999999
 20
688.87525199999993
 30
0.0
  0
VERTEX
  5
E91
  8
0
 62
     3
 10
815.34217799999999
 20
687.87525199999993
 30
0.0
  0
VERTEX
  5
E92
  8
0
 62
     3
 10
811.34217799999988
 20
686.87525199999993
 30
0.0
  0
VERTEX
  5
E93
  8
0
 62
     3
 10
813.34217799999999
 20
685.87525199999993
 30
0.0
  0
VERTEX
  5
E94
  8
0
 62
     3
 10
813.34217799999999
 20
669.87525199999993
 30
0.0
  0
VERTEX
  5
E95
  8
0
 62
     3
 10
815.34217799999999
 20
668.87525199999993
 30
0.0
  0
VERTEX
  5
E96
  8
0
 62
     3
 10
811.34217799999988
 20
667.87525199999993
 30
0.0
  0
VERTEX
  5
E97
  8
0
 62
     3
 10
813.34217799999999
 20
666.87525199999993
 30
0.0
  0
VERTEX
  5
E98
  8
0
 62
     3
 10
813.34217799999999
 20
650.87525199999993
 30
0.0
  0
VERTEX
  5
E99
  8
0
 62
     3
 10
815.34217799999999
 20
649.87525199999993
 30
0.0
  0
VERTEX
  5
E9A
  8
0
 62
     3
 10
811.34217799999988
 20
648.87525199999993
 30
0.0
  0
VERTEX
  5
E9B
  8
0
 62
     3
 10
813.34217799999999
 20
647.87525199999993
 30
0.0
  0
VERTEX
  5
E9C
  8
0
 62
     3
 10
813.34217799999999
 20
631.87525199999993
 30
0.0
  0
VERTEX
  5
E9D
  8
0
 62
     3
 10
815.34217799999999
 20
630.87525199999993
 30
0.0
  0
VERTEX
  5
E9E
  8
0
 62
     3
 10
811.34217799999988
 20
629.87525199999993
 30
0.0
  0
VERTEX
  5
E9F
  8
0
 62
     3
 10
813.34217799999999
 20
628.87525199999993
 30
0.0
  0
VERTEX
  5
EA0
  8
0
 62
     3
 10
813.34217799999999
 20
612.87525199999993
 30
0.0
  0
VERTEX
  5
EA1
  8
0
 62
     3
 10
815.34217799999999
 20
611.87525199999993
 30
0.0
  0
VERTEX
  5
EA2
  8
0
 62
     3
 10
811.34217799999988
 20
610.87525199999993
 30
0.0
  0
VERTEX
  5
EA3
  8
0
 62
     3
 10
813.34217799999999
 20
609.87525199999993
 30
0.0
  0
VERTEX
  5
EA4
  8
0
 62
     3
 10
813.34217799999999
 20
593.87525199999993
 30
0.0
  0
VERTEX
  5
EA5
  8
0
 62
     3
 10
815.34217799999999
 20
592.87525199999993
 30
0.0
  0
VERTEX
  5
EA6
  8
0
 62
     3
 10
811.34217799999988
 20
591.87525199999993
 30
0.0
  0
VERTEX
  5
EA7
  8
0
 62
     3
 10
813.34217799999999
 20
590.87525199999993
 30
0.0
  0
VERTEX
  5
EA8
  8
0
 62
     3
 10
813.34217799999999
 20
574.87525199999993
 30
0.0
  0
VERTEX
  5
EA9
  8
0
 62
     3
 10
815.34217799999999
 20
573.87525199999993
 30
0.0
  0
VERTEX
  5
EAA
  8
0
 62
     3
 10
811.34217799999988
 20
572.87525199999993
 30
0.0
  0
VERTEX
  5
EAB
  8
0
 62
     3
 10
813.34217799999999
 20
571.87525199999993
 30
0.0
  0
VERTEX
  5
EAC
  8
0
 62
     3
 10
813.34217799999999
 20
555.87525199999993
 30
0.0
  0
VERTEX
  5
EAD
  8
0
 62
     3
 10
815.34217799999999
 20
554.87525199999993
 30
0.0
  0
VERTEX
  5
EAE
  8
0
 62
     3
 10
811.34217799999988
 20
553.87525199999993
 30
0.0
  0
VERTEX
  5
EAF
  8
0
 62
     3
 10
813.34217799999999
 20
552.87525199999993
 30
0.0
  0
VERTEX
  5
EB0
  8
0
 62
     3
 10
813.34217799999999
 20
540.05413099999998
 30
0.0
  0
SEQEND
  5
EB1
  8
0
 62
     3
  0
LINE
  5
773
  8
0
  6
DASHDOT
 62
     7
 10
925.20016499999997
 20
701.97605099999998
 30
0.0
 11
925.20016499999997
 21
688.97605099999998
 31
0.0
  0
LINE
  5
774
  8
0
  6
DASHDOT
 62
     7
 10
845.20016500000008
 20
701.97605099999998
 30
0.0
 11
845.20016500000008
 21
688.97605099999998
 31
0.0
  0
CIRCLE
  5
775
  8
0
 62
     7
 10
819.87471000000005
 20
699.58905000000004
 30
0.0
 40
0.25
  0
LINE
  5
776
  8
0
 62
   150
 10
829.20016500000008
 20
682.72605099999998
 30
0.0
 11
941.20016499999997
 21
682.72605099999998
 31
0.0
  0
LINE
  5
777
  8
0
 62
   150
 10
829.20016500000008
 20
570.72605099999998
 30
0.0
 11
941.20016499999997
 21
570.72605099999998
 31
0.0
  0
CIRCLE
  5
778
  8
0
 62
   150
 10
925.20016499999997
 20
697.72605099999987
 30
0.0
 40
3.5
  0
CIRCLE
  5
779
  8
0
 62
   150
 10
845.20016500000008
 20
697.72605099999987
 30
0.0
 40
3.5
  0
CIRCLE
  5
77A
  8
0
 62
   150
 10
925.20016499999997
 20
555.72605099999987
 30
0.0
 40
3.5
  0
CIRCLE
  5
77B
  8
0
 62
   150
 10
845.20016500000008
 20
555.72605099999987
 30
0.0
 40
3.5
  0
LINE
  5
77C
  8
0
  6
DASHDOT
 62
   150
 10
925.20016499999997
 20
706.22605099999987
 30
0.0
 11
925.20016499999997
 21
689.22605099999987
 31
0.0
  0
LINE
  5
77D
  8
0
  6
DASHDOT
 62
   150
 10
916.70016500000008
 20
697.72605099999987
 30
0.0
 11
933.70016500000008
 21
697.72605099999987
 31
0.0
  0
LINE
  5
77E
  8
0
  6
DASHDOT
 62
   150
 10
845.20016500000008
 20
706.22605099999987
 30
0.0
 11
845.20016500000008
 21
689.22605099999987
 31
0.0
  0
LINE
  5
77F
  8
0
  6
DASHDOT
 62
   150
 10
836.70016499999997
 20
697.72605099999987
 30
0.0
 11
853.70016499999997
 21
697.72605099999987
 31
0.0
  0
LINE
  5
780
  8
0
  6
DASHDOT
 62
   150
 10
845.20016500000008
 20
564.22605099999987
 30
0.0
 11
845.20016500000008
 21
547.22605099999987
 31
0.0
  0
LINE
  5
781
  8
0
  6
DASHDOT
 62
   150
 10
836.70016499999997
 20
555.72605099999987
 30
0.0
 11
853.70016499999997
 21
555.72605099999987
 31
0.0
  0
LINE
  5
782
  8
0
  6
DASHDOT
 62
   150
 10
925.20016499999997
 20
564.22605099999987
 30
0.0
 11
925.20016499999997
 21
547.22605099999987
 31
0.0
  0
LINE
  5
783
  8
0
  6
DASHDOT
 62
   150
 10
916.70016500000008
 20
555.72605099999987
 30
0.0
 11
933.70016500000008
 21
555.72605099999987
 31
0.0
  0
LINE
  5
784
  8
0
 62
     7
 10
845.20016500000008
 20
729.73926500000005
 30
0.0
 11
857.01791400000002
 21
727.65549499999986
 31
0.0
  0
LINE
  5
785
  8
0
 62
     7
 10
845.20016500000008
 20
729.73926500000005
 30
0.0
 11
857.01791400000002
 21
731.823036
 31
0.0
  0
LINE
  5
786
  8
0
 62
     7
 10
925.20016499999997
 20
729.73926500000005
 30
0.0
 11
913.38241600000015
 21
731.823036
 31
0.0
  0
LINE
  5
787
  8
0
 62
     7
 10
925.20016499999997
 20
729.73926500000005
 30
0.0
 11
913.38241600000015
 21
727.65546399999994
 31
0.0
  0
LINE
  5
788
  8
0
 62
     7
 10
845.20016500000008
 20
729.73926500000005
 30
0.0
 11
925.20016499999997
 21
729.73926500000005
 31
0.0
  0
LINE
  5
789
  8
0
 62
     7
 10
845.20016500000008
 20
737.73926500000005
 30
0.0
 11
845.20016500000008
 21
701.97605099999998
 31
0.0
  0
LINE
  5
78A
  8
0
 62
     7
 10
925.20016499999997
 20
737.73926500000005
 30
0.0
 11
925.20016499999997
 21
701.97605099999998
 31
0.0
  0
LINE
  5
78B
  8
0
 62
     7
 10
829.20016500000008
 20
756.37192500000003
 30
0.0
 11
841.01791400000002
 21
754.28815499999985
 31
0.0
  0
LINE
  5
78C
  8
0
 62
     7
 10
829.20016500000008
 20
756.37192500000003
 30
0.0
 11
841.01791400000002
 21
758.45572699999991
 31
0.0
  0
LINE
  5
78D
  8
0
 62
     7
 10
941.20016499999997
 20
756.37192500000003
 30
0.0
 11
929.38241599999992
 21
758.45572699999991
 31
0.0
  0
LINE
  5
78E
  8
0
 62
     7
 10
941.20016499999997
 20
756.37192500000003
 30
0.0
 11
929.38241599999992
 21
754.28815499999985
 31
0.0
  0
LINE
  5
78F
  8
0
 62
     7
 10
829.20016500000008
 20
756.37192500000003
 30
0.0
 11
941.20016499999997
 21
756.37195599999995
 31
0.0
  0
LINE
  5
790
  8
0
 62
     7
 10
829.20016500000008
 20
764.37192500000003
 30
0.0
 11
829.20016500000008
 21
682.72605099999998
 31
0.0
  0
LINE
  5
791
  8
0
 62
     7
 10
941.20016499999997
 20
764.37192500000003
 30
0.0
 11
941.20016499999997
 21
682.72605099999998
 31
0.0
  0
LINE
  5
792
  8
0
 62
     5
 10
790.355682
 20
682.72605099999998
 30
0.0
 11
788.27194199999985
 21
670.90836300000001
 31
0.0
  0
LINE
  5
793
  8
0
 62
     5
 10
790.355682
 20
682.72605099999998
 30
0.0
 11
792.43954499999995
 21
670.90836300000001
 31
0.0
  0
LINE
  5
794
  8
0
 62
     5
 10
790.355682
 20
570.72605099999998
 30
0.0
 11
792.43942300000003
 21
582.54373899999985
 31
0.0
  0
LINE
  5
795
  8
0
 62
     5
 10
790.355682
 20
570.72605099999998
 30
0.0
 11
788.27194199999985
 21
582.54373899999985
 31
0.0
  0
LINE
  5
796
  8
0
 62
     5
 10
790.355682
 20
682.72605099999998
 30
0.0
 11
790.355682
 21
570.72605099999998
 31
0.0
  0
LINE
  5
797
  8
0
 62
     5
 10
782.355682
 20
682.72605099999998
 30
0.0
 11
829.20016500000008
 21
682.72605099999998
 31
0.0
  0
LINE
  5
798
  8
0
 62
     5
 10
782.355682
 20
570.72605099999998
 30
0.0
 11
829.20016500000008
 21
570.72605099999998
 31
0.0
  0
LINE
  5
799
  8
0
 62
     5
 10
760.02096600000004
 20
697.72605099999987
 30
0.0
 11
757.93722500000001
 21
685.90836300000001
 31
0.0
  0
LINE
  5
79A
  8
0
 62
     5
 10
760.02096600000004
 20
697.72605099999987
 30
0.0
 11
762.10470599999985
 21
685.90836300000001
 31
0.0
  0
LINE
  5
79B
  8
0
 62
     5
 10
760.02096600000004
 20
555.72605099999987
 30
0.0
 11
762.10470599999985
 21
567.54373899999985
 31
0.0
  0
LINE
  5
79C
  8
0
 62
     5
 10
760.02096600000004
 20
555.72605099999987
 30
0.0
 11
757.93722500000001
 21
567.54373899999985
 31
0.0
  0
LINE
  5
79D
  8
0
 62
     5
 10
760.02096600000004
 20
697.72605099999987
 30
0.0
 11
760.02096600000004
 21
555.72605099999987
 31
0.0
  0
LINE
  5
79E
  8
0
 62
     5
 10
752.02096600000004
 20
697.72605099999987
 30
0.0
 11
916.70016500000008
 21
697.72605099999987
 31
0.0
  0
LINE
  5
79F
  8
0
 62
     5
 10
752.02096600000004
 20
555.72605099999987
 30
0.0
 11
916.70016500000008
 21
555.72605099999987
 31
0.0
  0
LINE
  5
7A0
  8
0
 62
     3
 10
-238.86735299999989
 20
318.66849500000001
 30
0.0
 11
-244.86735299999989
 21
318.66849500000001
 31
0.0
  0
LINE
  5
7A1
  8
0
 62
     3
 10
-104.86735299999999
 20
318.66849500000001
 30
0.0
 11
-110.86735299999999
 21
318.66849500000001
 31
0.0
  0
LINE
  5
7A2
  8
0
 62
     3
 10
-111.86735299999999
 20
318.66849500000001
 30
0.0
 11
-237.86735299999989
 21
318.66849500000001
 31
0.0
  0
LINE
  5
7A3
  8
0
 62
     3
 10
-244.86735299999989
 20
318.66849500000001
 30
0.0
 11
-244.86735299999989
 21
274.31043599999992
 31
0.0
  0
LINE
  5
7A4
  8
0
 62
     3
 10
-104.86735299999999
 20
318.66849500000001
 30
0.0
 11
-104.86735299999999
 21
274.31043599999992
 31
0.0
  0
LINE
  5
7A5
  8
0
 62
     3
 10
-110.86735299999999
 20
289.16849500000001
 30
0.0
 11
-238.86735299999989
 21
289.16849500000001
 31
0.0
  0
LINE
  5
7A6
  8
0
 62
     3
 10
-238.86735299999989
 20
290.32319599999988
 30
0.0
 11
-238.86735299999989
 21
289.16849500000001
 31
0.0
  0
LINE
  5
7A7
  8
0
 62
     3
 10
-110.86735299999999
 20
290.32319599999988
 30
0.0
 11
-110.86735299999999
 21
289.16849500000001
 31
0.0
  0
LINE
  5
7A8
  8
0
 62
     3
 10
-111.86735299999999
 20
308.168496
 30
0.0
 11
-238.86735299999989
 21
308.168496
 31
0.0
  0
LINE
  5
7A9
  8
0
 62
     3
 10
-238.86735299999989
 20
309.32319499999988
 30
0.0
 11
-238.86735299999989
 21
308.168496
 31
0.0
  0
LINE
  5
7AA
  8
0
 62
     3
 10
-110.86735299999999
 20
309.32319499999988
 30
0.0
 11
-110.86735299999999
 21
308.168496
 31
0.0
  0
LINE
  5
7AB
  8
0
 62
     3
 10
-238.86735299999989
 20
308.168496
 30
0.0
 11
-238.86735299999989
 21
290.323193
 31
0.0
  0
LINE
  5
7AC
  8
0
 62
     3
 10
-238.86735299999989
 20
318.66849500000001
 30
0.0
 11
-238.86735299999989
 21
309.32319499999988
 31
0.0
  0
LINE
  5
7AD
  8
0
 62
     3
 10
-237.86735299999989
 20
308.16849500000001
 30
0.0
 11
-237.86735299999989
 21
289.16849500000001
 31
0.0
  0
LINE
  5
7AE
  8
0
 62
     3
 10
-237.86735299999989
 20
318.66849500000001
 30
0.0
 11
-237.86735299999989
 21
308.168496
 31
0.0
  0
LINE
  5
7AF
  8
0
 62
     3
 10
-237.86735299999989
 20
308.168496
 30
0.0
 11
-238.86735299999989
 21
308.168496
 31
0.0
  0
LINE
  5
7B0
  8
0
 62
     3
 10
-110.86735299999999
 20
308.16849500000001
 30
0.0
 11
-110.86735299999999
 21
290.32319599999988
 31
0.0
  0
LINE
  5
7B1
  8
0
 62
     3
 10
-110.86735299999999
 20
318.66849500000001
 30
0.0
 11
-110.86736000000001
 21
309.32319499999988
 31
0.0
  0
LINE
  5
7B2
  8
0
 62
     3
 10
-111.86735299999999
 20
308.168496
 30
0.0
 11
-111.86735299999999
 21
289.16849500000001
 31
0.0
  0
LINE
  5
7B3
  8
0
 62
     3
 10
-111.86735299999999
 20
318.66849500000001
 30
0.0
 11
-111.86736000000001
 21
308.168496
 31
0.0
  0
LINE
  5
7B4
  8
0
 62
     3
 10
-110.86736000000001
 20
308.168496
 30
0.0
 11
-111.86736000000001
 21
308.168496
 31
0.0
  0
LINE
  5
7B5
  8
0
 62
     7
 10
-181.33735200000001
 20
354.66849499999989
 30
0.0
 11
-203.33735200000001
 21
354.66849499999989
 31
0.0
  0
LINE
  5
7B6
  8
0
 62
     7
 10
-181.33735200000001
 20
357.16849500000001
 30
0.0
 11
-203.33735200000001
 21
357.16849500000001
 31
0.0
  0
LINE
  5
7B7
  8
0
 62
     7
 10
-146.337354
 20
399.66849500000001
 30
0.0
 11
-168.337354
 21
399.66849500000001
 31
0.0
  0
LINE
  5
7B8
  8
0
 62
     7
 10
-146.337354
 20
402.16849500000001
 30
0.0
 11
-168.337354
 21
402.16849500000001
 31
0.0
  0
LINE
  5
7B9
  8
0
 62
     7
 10
-111.33735399999991
 20
354.66849499999989
 30
0.0
 11
-133.33735399999989
 21
354.66849499999989
 31
0.0
  0
LINE
  5
7BA
  8
0
 62
     7
 10
-111.33735399999991
 20
357.16849500000001
 30
0.0
 11
-133.33735399999989
 21
357.16849500000001
 31
0.0
  0
LINE
  5
7BB
  8
0
 62
     7
 10
-181.33735200000001
 20
359.66849500000001
 30
0.0
 11
-203.33735200000001
 21
359.66849500000001
 31
0.0
  0
LINE
  5
7BC
  8
0
 62
     7
 10
-181.33735200000001
 20
362.16849500000001
 30
0.0
 11
-203.33735200000001
 21
362.16849500000001
 31
0.0
  0
LINE
  5
7BD
  8
0
 62
     4
 10
-216.3373519999999
 20
404.66849500000001
 30
0.0
 11
-238.33735200000001
 21
404.66849500000001
 31
0.0
  0
LINE
  5
7BE
  8
0
 62
     4
 10
-216.3373519999999
 20
407.16849499999989
 30
0.0
 11
-238.33735200000001
 21
407.16849499999989
 31
0.0
  0
LINE
  5
7BF
  8
0
 62
     7
 10
-111.33735399999991
 20
359.66849500000001
 30
0.0
 11
-133.33735399999989
 21
359.66849500000001
 31
0.0
  0
LINE
  5
7C0
  8
0
 62
     7
 10
-111.33735399999991
 20
362.16849500000001
 30
0.0
 11
-133.33735399999989
 21
362.16849500000001
 31
0.0
  0
LINE
  5
7C1
  8
0
 62
     7
 10
-146.337354
 20
404.66849500000001
 30
0.0
 11
-168.337354
 21
404.66849500000001
 31
0.0
  0
LINE
  5
7C2
  8
0
 62
     7
 10
-146.337354
 20
407.16849499999989
 30
0.0
 11
-168.337354
 21
407.16849499999989
 31
0.0
  0
LINE
  5
7C3
  8
0
 62
     4
 10
-216.3373519999999
 20
399.66849500000001
 30
0.0
 11
-238.33735200000001
 21
399.66849500000001
 31
0.0
  0
LINE
  5
7C4
  8
0
 62
     4
 10
-216.3373519999999
 20
402.16849500000001
 30
0.0
 11
-238.33735200000001
 21
402.16849500000001
 31
0.0
  0
LINE
  5
7C5
  8
0
 62
     3
 10
-201.83735300000001
 20
368.16849500000001
 30
0.0
 11
-201.83735300000001
 21
362.16849500000001
 31
0.0
  0
LINE
  5
7C6
  8
0
 62
     3
 10
-182.83735200000001
 20
368.16849500000001
 30
0.0
 11
-182.83735200000001
 21
362.16849500000001
 31
0.0
  0
LINE
  5
7C7
  8
0
 62
     3
 10
-182.837354
 20
368.16849500000001
 30
0.0
 11
-201.83735300000001
 21
368.16849500000001
 31
0.0
  0
LINE
  5
7C8
  8
0
 62
     3
 10
-166.837354
 20
399.66849500000001
 30
0.0
 11
-166.837354
 21
393.66849500000001
 31
0.0
  0
LINE
  5
7C9
  8
0
 62
     3
 10
-147.83735399999989
 20
399.66849500000001
 30
0.0
 11
-147.83735399999989
 21
393.66849500000001
 31
0.0
  0
LINE
  5
7CA
  8
0
 62
     3
 10
-147.83735399999989
 20
393.66849500000001
 30
0.0
 11
-166.837354
 21
393.66849500000001
 31
0.0
  0
LINE
  5
7CB
  8
0
 62
     4
 10
-236.83735200000001
 20
399.66849500000001
 30
0.0
 11
-236.83735200000001
 21
393.66849500000001
 31
0.0
  0
LINE
  5
7CC
  8
0
 62
     4
 10
-217.83735200000001
 20
399.66849500000001
 30
0.0
 11
-217.83735200000001
 21
393.66849500000001
 31
0.0
  0
LINE
  5
7CD
  8
0
 62
     4
 10
-217.83735200000001
 20
393.66849500000001
 30
0.0
 11
-236.83735200000001
 21
393.66849500000001
 31
0.0
  0
LINE
  5
7CE
  8
0
 62
     3
 10
-201.83735300000001
 20
354.66849499999989
 30
0.0
 11
-201.83735300000001
 21
348.66849500000001
 31
0.0
  0
LINE
  5
7CF
  8
0
 62
     3
 10
-182.83735200000001
 20
354.66849499999989
 30
0.0
 11
-182.83735200000001
 21
348.66849500000001
 31
0.0
  0
LINE
  5
7D0
  8
0
 62
     3
 10
-182.83735200000001
 20
348.66849500000001
 30
0.0
 11
-201.8373519999999
 21
348.66849500000001
 31
0.0
  0
LINE
  5
7D1
  8
0
 62
     3
 10
-131.837354
 20
354.66849499999989
 30
0.0
 11
-131.837354
 21
348.66849500000001
 31
0.0
  0
LINE
  5
7D2
  8
0
 62
     3
 10
-112.837354
 20
354.66849499999989
 30
0.0
 11
-112.837354
 21
348.66849500000001
 31
0.0
  0
LINE
  5
7D3
  8
0
 62
     3
 10
-112.837354
 20
348.66849500000001
 30
0.0
 11
-131.837354
 21
348.66849500000001
 31
0.0
  0
LINE
  5
7D4
  8
0
 62
     3
 10
-131.837354
 20
368.16849500000001
 30
0.0
 11
-131.837354
 21
362.16849500000001
 31
0.0
  0
LINE
  5
7D5
  8
0
 62
     3
 10
-112.837354
 20
368.16849500000001
 30
0.0
 11
-112.837354
 21
362.16849500000001
 31
0.0
  0
LINE
  5
7D6
  8
0
 62
     3
 10
-112.837354
 20
368.16849500000001
 30
0.0
 11
-131.837354
 21
368.16849500000001
 31
0.0
  0
LINE
  5
7D7
  8
0
 62
     3
 10
-166.837354
 20
413.16849500000001
 30
0.0
 11
-166.837354
 21
407.16849499999989
 31
0.0
  0
LINE
  5
7D8
  8
0
 62
     3
 10
-147.83735399999989
 20
413.16849500000001
 30
0.0
 11
-147.83735399999989
 21
407.16849499999989
 31
0.0
  0
LINE
  5
7D9
  8
0
 62
     3
 10
-147.83735399999989
 20
413.16849500000001
 30
0.0
 11
-166.837354
 21
413.16849500000001
 31
0.0
  0
LINE
  5
7DA
  8
0
 62
     4
 10
-236.83735200000001
 20
413.16849500000001
 30
0.0
 11
-236.83735200000001
 21
407.16849499999989
 31
0.0
  0
LINE
  5
7DB
  8
0
 62
     4
 10
-217.83735200000001
 20
413.16849500000001
 30
0.0
 11
-217.83735200000001
 21
407.16849499999989
 31
0.0
  0
LINE
  5
7DC
  8
0
 62
     4
 10
-217.83735200000001
 20
413.16849500000001
 30
0.0
 11
-236.83735200000001
 21
413.16849500000001
 31
0.0
  0
LINE
  5
7DD
  8
0
 62
   230
 10
-152.337354
 20
420.66849500000001
 30
0.0
 11
-162.337354
 21
420.66849500000001
 31
0.0
  0
LINE
  5
7DE
  8
0
 62
   230
 10
-117.337354
 20
375.66849500000001
 30
0.0
 11
-127.337354
 21
375.66849500000001
 31
0.0
  0
LINE
  5
7DF
  8
0
 62
     4
 10
-222.33735299999989
 20
420.66849500000001
 30
0.0
 11
-232.33735200000001
 21
420.66849500000001
 31
0.0
  0
LINE
  5
7E0
  8
0
 62
   230
 10
-187.33735200000001
 20
375.66849500000001
 30
0.0
 11
-197.33735300000001
 21
375.66849500000001
 31
0.0
  0
LINE
  5
7E1
  8
0
 62
     3
 10
-106.11735299999999
 20
318.66849500000001
 30
0.0
 11
-106.11735299999999
 21
274.31043599999992
 31
0.0
  0
LINE
  5
7E2
  8
0
 62
     3
 10
-243.61735300000001
 20
318.66849500000001
 30
0.0
 11
-243.61735300000001
 21
274.31043599999992
 31
0.0
  0
LINE
  5
7E3
  8
0
 62
     3
 10
-111.86735299999999
 20
290.32319599999988
 30
0.0
 11
-237.86735299999989
 21
290.32319599999988
 31
0.0
  0
LINE
  5
7E4
  8
0
 62
     3
 10
-111.86735299999999
 20
309.32319499999988
 30
0.0
 11
-237.86735299999989
 21
309.32319499999988
 31
0.0
  0
LINE
  5
7E5
  8
0
 62
     7
 10
-203.33735200000001
 20
357.16849500000001
 30
0.0
 11
-203.33735200000001
 21
354.66849499999989
 31
0.0
  0
LINE
  5
7E6
  8
0
 62
     7
 10
-181.33735200000001
 20
357.16849500000001
 30
0.0
 11
-181.33735200000001
 21
354.66849499999989
 31
0.0
  0
LINE
  5
7E7
  8
0
 62
     7
 10
-168.337354
 20
402.16849500000001
 30
0.0
 11
-168.337354
 21
399.66849500000001
 31
0.0
  0
LINE
  5
7E8
  8
0
 62
     7
 10
-146.337354
 20
402.16849500000001
 30
0.0
 11
-146.337354
 21
399.66849500000001
 31
0.0
  0
LINE
  5
7E9
  8
0
 62
     7
 10
-133.33735399999989
 20
357.16849500000001
 30
0.0
 11
-133.33735399999989
 21
354.66849499999989
 31
0.0
  0
LINE
  5
7EA
  8
0
 62
     7
 10
-111.33735399999991
 20
357.16849500000001
 30
0.0
 11
-111.33735399999991
 21
354.66849499999989
 31
0.0
  0
LINE
  5
7EB
  8
0
 62
     7
 10
-203.33735200000001
 20
362.16849500000001
 30
0.0
 11
-203.33735200000001
 21
359.66849500000001
 31
0.0
  0
LINE
  5
7EC
  8
0
 62
     7
 10
-181.33735200000001
 20
362.16849500000001
 30
0.0
 11
-181.33735200000001
 21
359.66849500000001
 31
0.0
  0
LINE
  5
7ED
  8
0
 62
     4
 10
-238.33735200000001
 20
407.16849499999989
 30
0.0
 11
-238.33735200000001
 21
404.66849500000001
 31
0.0
  0
LINE
  5
7EE
  8
0
 62
     4
 10
-216.3373519999999
 20
407.16849499999989
 30
0.0
 11
-216.3373519999999
 21
404.66849500000001
 31
0.0
  0
LINE
  5
7EF
  8
0
 62
     7
 10
-133.33735399999989
 20
362.16849500000001
 30
0.0
 11
-133.33735399999989
 21
359.66849500000001
 31
0.0
  0
LINE
  5
7F0
  8
0
 62
     7
 10
-111.33735399999991
 20
362.16849500000001
 30
0.0
 11
-111.33735399999991
 21
359.66849500000001
 31
0.0
  0
LINE
  5
7F1
  8
0
 62
     7
 10
-168.337354
 20
407.16849499999989
 30
0.0
 11
-168.337354
 21
404.66849500000001
 31
0.0
  0
LINE
  5
7F2
  8
0
 62
     7
 10
-146.337354
 20
407.16849499999989
 30
0.0
 11
-146.337354
 21
404.66849500000001
 31
0.0
  0
LINE
  5
7F3
  8
0
 62
     4
 10
-238.33735200000001
 20
402.16849500000001
 30
0.0
 11
-238.33735200000001
 21
399.66849500000001
 31
0.0
  0
LINE
  5
7F4
  8
0
 62
     4
 10
-216.3373519999999
 20
402.16849500000001
 30
0.0
 11
-216.3373519999999
 21
399.66849500000001
 31
0.0
  0
LINE
  5
7F5
  8
0
 62
     3
 10
-192.33735200000001
 20
368.16849500000001
 30
0.0
 11
-192.33735200000001
 21
362.16849500000001
 31
0.0
  0
LINE
  5
7F6
  8
0
 62
     3
 10
-157.337354
 20
399.66849500000001
 30
0.0
 11
-157.337354
 21
393.66849500000001
 31
0.0
  0
LINE
  5
7F7
  8
0
 62
     4
 10
-227.33735200000001
 20
399.66849500000001
 30
0.0
 11
-227.33735200000001
 21
393.66849500000001
 31
0.0
  0
LINE
  5
7F8
  8
0
 62
     3
 10
-192.33735200000001
 20
354.66849499999989
 30
0.0
 11
-192.33735200000001
 21
348.66849500000001
 31
0.0
  0
LINE
  5
7F9
  8
0
 62
     3
 10
-122.337354
 20
354.66849499999989
 30
0.0
 11
-122.337354
 21
348.66849500000001
 31
0.0
  0
LINE
  5
7FA
  8
0
 62
     3
 10
-122.337354
 20
368.16849500000001
 30
0.0
 11
-122.337354
 21
362.16849500000001
 31
0.0
  0
LINE
  5
7FB
  8
0
 62
     3
 10
-157.337354
 20
413.16849500000001
 30
0.0
 11
-157.337354
 21
407.16849499999989
 31
0.0
  0
LINE
  5
7FC
  8
0
 62
     4
 10
-227.33735200000001
 20
413.16849500000001
 30
0.0
 11
-227.33735200000001
 21
407.16849499999989
 31
0.0
  0
LINE
  5
7FD
  8
0
 62
     2
 10
-200.33735300000001
 20
348.66849500000001
 30
0.0
 11
-200.33735300000001
 21
318.66849699999989
 31
0.0
  0
LINE
  5
7FE
  8
0
 62
     2
 10
-184.33735200000001
 20
348.66849500000001
 30
0.0
 11
-184.33735200000001
 21
318.66849500000001
 31
0.0
  0
LINE
  5
7FF
  8
0
 62
     2
 10
-130.337354
 20
348.66849500000001
 30
0.0
 11
-130.337354
 21
318.66849500000001
 31
0.0
  0
LINE
  5
800
  8
0
 62
     2
 10
-114.337354
 20
348.66849500000001
 30
0.0
 11
-114.337354
 21
318.66849500000001
 31
0.0
  0
LINE
  5
801
  8
0
 62
     2
 10
-165.337354
 20
393.66849500000001
 30
0.0
 11
-165.337354
 21
318.66849500000001
 31
0.0
  0
LINE
  5
802
  8
0
 62
     2
 10
-149.337354
 20
393.66849500000001
 30
0.0
 11
-149.337354
 21
318.668496
 31
0.0
  0
LINE
  5
803
  8
0
 62
     4
 10
-235.33735200000001
 20
393.66849500000001
 30
0.0
 11
-235.33735200000001
 21
318.66849500000001
 31
0.0
  0
LINE
  5
804
  8
0
 62
     4
 10
-219.33735299999989
 20
393.66849500000001
 30
0.0
 11
-219.33735299999989
 21
318.66849500000001
 31
0.0
  0
LINE
  5
805
  8
0
 62
   230
 10
-151.337354
 20
419.66849499999989
 30
0.0
 11
-152.337354
 21
420.66849500000001
 31
0.0
  0
LINE
  5
806
  8
0
 62
   230
 10
-162.33735799999991
 20
420.66849500000001
 30
0.0
 11
-163.33735799999991
 21
419.66849499999989
 31
0.0
  0
LINE
  5
807
  8
0
 62
   230
 10
-156.16681
 20
419.66849499999989
 30
0.0
 11
-157.337354
 21
419.66849499999989
 31
0.0
  0
LINE
  5
808
  8
0
 62
   230
 10
-155.04125300000001
 20
419.66849499999989
 30
0.0
 11
-156.16681
 21
419.66849499999989
 31
0.0
  0
LINE
  5
809
  8
0
 62
   230
 10
-154.00393
 20
419.66849499999989
 30
0.0
 11
-155.04125300000001
 21
419.66849499999989
 31
0.0
  0
LINE
  5
80A
  8
0
 62
   230
 10
-153.09471199999999
 20
419.66849499999989
 30
0.0
 11
-154.00393
 21
419.66849499999989
 31
0.0
  0
LINE
  5
80B
  8
0
 62
   230
 10
-152.348535
 20
419.66849499999989
 30
0.0
 11
-153.09471199999999
 21
419.66849499999989
 31
0.0
  0
LINE
  5
80C
  8
0
 62
   230
 10
-151.7940759999999
 20
419.66849499999989
 30
0.0
 11
-152.348535
 21
419.66849499999989
 31
0.0
  0
LINE
  5
80D
  8
0
 62
   230
 10
-151.45264199999991
 20
419.66849499999989
 30
0.0
 11
-151.7940759999999
 21
419.66849499999989
 31
0.0
  0
LINE
  5
80E
  8
0
 62
   230
 10
-151.337354
 20
419.66849499999989
 30
0.0
 11
-151.45264199999991
 21
419.66849499999989
 31
0.0
  0
LINE
  5
80F
  8
0
 62
   230
 10
-151.337354
 20
419.66849499999989
 30
0.0
 11
-151.337354
 21
413.16849500000001
 31
0.0
  0
LINE
  5
810
  8
0
 62
   230
 10
-151.337354
 20
404.66849500000001
 30
0.0
 11
-151.337354
 21
402.16849500000001
 31
0.0
  0
LINE
  5
811
  8
0
 62
   230
 10
-163.337354
 20
419.66849499999989
 30
0.0
 11
-163.337354
 21
413.16849500000001
 31
0.0
  0
LINE
  5
812
  8
0
 62
   230
 10
-163.337354
 20
404.66849500000001
 30
0.0
 11
-163.337354
 21
402.16849500000001
 31
0.0
  0
LINE
  5
813
  8
0
 62
   230
 10
-163.2220659999999
 20
419.66849499999989
 30
0.0
 11
-163.337354
 21
419.66849499999989
 31
0.0
  0
LINE
  5
814
  8
0
 62
   230
 10
-162.88063199999999
 20
419.66849499999989
 30
0.0
 11
-163.2220659999999
 21
419.66849499999989
 31
0.0
  0
LINE
  5
815
  8
0
 62
   230
 10
-162.32616899999991
 20
419.66849499999989
 30
0.0
 11
-162.88063199999999
 21
419.66849499999989
 31
0.0
  0
LINE
  5
816
  8
0
 62
   230
 10
-161.57999099999989
 20
419.66849499999989
 30
0.0
 11
-162.32616899999991
 21
419.66849499999989
 31
0.0
  0
LINE
  5
817
  8
0
 62
   230
 10
-160.67077399999999
 20
419.66849499999989
 30
0.0
 11
-161.57999099999989
 21
419.66849499999989
 31
0.0
  0
LINE
  5
818
  8
0
 62
   230
 10
-159.63345399999989
 20
419.66849499999989
 30
0.0
 11
-160.67077399999999
 21
419.66849499999989
 31
0.0
  0
LINE
  5
819
  8
0
 62
   230
 10
-158.50789399999999
 20
419.66849499999989
 30
0.0
 11
-159.63345399999989
 21
419.66849499999989
 31
0.0
  0
LINE
  5
81A
  8
0
 62
   230
 10
-157.337354
 20
419.66849499999989
 30
0.0
 11
-158.50789399999999
 21
419.66849499999989
 31
0.0
  0
LINE
  5
81B
  8
0
 62
   230
 10
-116.337354
 20
374.66849500000001
 30
0.0
 11
-117.337354
 21
375.66849500000001
 31
0.0
  0
LINE
  5
81C
  8
0
 62
   230
 10
-127.337354
 20
375.66849100000002
 30
0.0
 11
-128.337354
 21
374.66849100000002
 31
0.0
  0
LINE
  5
81D
  8
0
 62
   230
 10
-121.166814
 20
374.66849500000001
 30
0.0
 11
-122.337354
 21
374.66849500000001
 31
0.0
  0
LINE
  5
81E
  8
0
 62
   230
 10
-120.04124899999989
 20
374.66849500000001
 30
0.0
 11
-121.166814
 21
374.66849500000001
 31
0.0
  0
LINE
  5
81F
  8
0
 62
   230
 10
-119.003934
 20
374.66849500000001
 30
0.0
 11
-120.04124899999989
 21
374.66849500000001
 31
0.0
  0
LINE
  5
820
  8
0
 62
   230
 10
-118.09470899999999
 20
374.66849500000001
 30
0.0
 11
-119.003934
 21
374.66849500000001
 31
0.0
  0
LINE
  5
821
  8
0
 62
   230
 10
-117.3485389999999
 20
374.66849500000001
 30
0.0
 11
-118.09470899999999
 21
374.66849500000001
 31
0.0
  0
LINE
  5
822
  8
0
 62
   230
 10
-116.794072
 20
374.66849500000001
 30
0.0
 11
-117.3485389999999
 21
374.66849500000001
 31
0.0
  0
LINE
  5
823
  8
0
 62
   230
 10
-116.452642
 20
374.66849500000001
 30
0.0
 11
-116.794072
 21
374.66849500000001
 31
0.0
  0
LINE
  5
824
  8
0
 62
   230
 10
-116.337354
 20
374.66849500000001
 30
0.0
 11
-116.452642
 21
374.66849500000001
 31
0.0
  0
LINE
  5
825
  8
0
 62
   230
 10
-116.337354
 20
374.66849500000001
 30
0.0
 11
-116.337354
 21
368.16849500000001
 31
0.0
  0
LINE
  5
826
  8
0
 62
   230
 10
-116.337354
 20
359.66849500000001
 30
0.0
 11
-116.337354
 21
357.16849500000001
 31
0.0
  0
LINE
  5
827
  8
0
 62
   230
 10
-128.337354
 20
374.66849500000001
 30
0.0
 11
-128.337354
 21
368.16849500000001
 31
0.0
  0
LINE
  5
828
  8
0
 62
   230
 10
-128.337354
 20
359.66849500000001
 30
0.0
 11
-128.337354
 21
357.16849500000001
 31
0.0
  0
LINE
  5
829
  8
0
 62
   230
 10
-128.2220659999999
 20
374.66849500000001
 30
0.0
 11
-128.337354
 21
374.66849500000001
 31
0.0
  0
LINE
  5
82A
  8
0
 62
   230
 10
-127.8806279999999
 20
374.66849500000001
 30
0.0
 11
-128.2220659999999
 21
374.66849500000001
 31
0.0
  0
LINE
  5
82B
  8
0
 62
   230
 10
-127.32616899999999
 20
374.66849500000001
 30
0.0
 11
-127.8806279999999
 21
374.66849500000001
 31
0.0
  0
LINE
  5
82C
  8
0
 62
   230
 10
-126.57999099999989
 20
374.66849500000001
 30
0.0
 11
-127.32616899999999
 21
374.66849500000001
 31
0.0
  0
LINE
  5
82D
  8
0
 62
   230
 10
-125.67077399999989
 20
374.66849500000001
 30
0.0
 11
-126.57999099999989
 21
374.66849500000001
 31
0.0
  0
LINE
  5
82E
  8
0
 62
   230
 10
-124.63345099999999
 20
374.66849500000001
 30
0.0
 11
-125.67077399999989
 21
374.66849500000001
 31
0.0
  0
LINE
  5
82F
  8
0
 62
   230
 10
-123.50789399999989
 20
374.66849500000001
 30
0.0
 11
-124.63345099999999
 21
374.66849500000001
 31
0.0
  0
LINE
  5
830
  8
0
 62
   230
 10
-122.337354
 20
374.66849500000001
 30
0.0
 11
-123.50789399999989
 21
374.66849500000001
 31
0.0
  0
LINE
  5
831
  8
0
 62
     4
 10
-221.33735200000001
 20
419.66849499999989
 30
0.0
 11
-222.3373519999999
 21
420.66849500000001
 31
0.0
  0
LINE
  5
832
  8
0
 62
     4
 10
-232.33735200000001
 20
420.66849500000001
 30
0.0
 11
-233.33735200000001
 21
419.66849499999989
 31
0.0
  0
LINE
  5
833
  8
0
 62
     4
 10
-226.16681
 20
419.66849499999989
 30
0.0
 11
-227.33735200000001
 21
419.66849499999989
 31
0.0
  0
LINE
  5
834
  8
0
 62
     4
 10
-225.04125199999999
 20
419.66849499999989
 30
0.0
 11
-226.16681
 21
419.66849499999989
 31
0.0
  0
LINE
  5
835
  8
0
 62
     4
 10
-224.00393099999991
 20
419.66849499999989
 30
0.0
 11
-225.04125199999999
 21
419.66849499999989
 31
0.0
  0
LINE
  5
836
  8
0
 62
     4
 10
-223.0947109999999
 20
419.66849499999989
 30
0.0
 11
-224.00393099999991
 21
419.66849499999989
 31
0.0
  0
LINE
  5
837
  8
0
 62
     4
 10
-222.348535
 20
419.66849499999989
 30
0.0
 11
-223.0947109999999
 21
419.66849499999989
 31
0.0
  0
LINE
  5
838
  8
0
 62
     4
 10
-221.79407499999991
 20
419.66849499999989
 30
0.0
 11
-222.348535
 21
419.66849499999989
 31
0.0
  0
LINE
  5
839
  8
0
 62
     4
 10
-221.452641
 20
419.66849499999989
 30
0.0
 11
-221.79407499999991
 21
419.66849499999989
 31
0.0
  0
LINE
  5
83A
  8
0
 62
     4
 10
-221.33735299999989
 20
419.66849499999989
 30
0.0
 11
-221.452641
 21
419.66849499999989
 31
0.0
  0
LINE
  5
83B
  8
0
 62
     4
 10
-221.33735299999989
 20
419.66849499999989
 30
0.0
 11
-221.33735299999989
 21
413.16849500000001
 31
0.0
  0
LINE
  5
83C
  8
0
 62
     4
 10
-221.33735299999989
 20
404.66849500000001
 30
0.0
 11
-221.33735299999989
 21
402.16849500000001
 31
0.0
  0
LINE
  5
83D
  8
0
 62
     4
 10
-233.33735200000001
 20
419.66849499999989
 30
0.0
 11
-233.33735200000001
 21
413.16849500000001
 31
0.0
  0
LINE
  5
83E
  8
0
 62
     4
 10
-233.33735200000001
 20
404.66849500000001
 30
0.0
 11
-233.33735200000001
 21
402.16849500000001
 31
0.0
  0
LINE
  5
83F
  8
0
 62
     4
 10
-233.22206399999999
 20
419.66849499999989
 30
0.0
 11
-233.33735200000001
 21
419.66849499999989
 31
0.0
  0
LINE
  5
840
  8
0
 62
     4
 10
-232.88062999999991
 20
419.66849499999989
 30
0.0
 11
-233.22206399999999
 21
419.66849499999989
 31
0.0
  0
LINE
  5
841
  8
0
 62
     4
 10
-232.32617099999999
 20
419.66849499999989
 30
0.0
 11
-232.88062999999991
 21
419.66849499999989
 31
0.0
  0
LINE
  5
842
  8
0
 62
     4
 10
-231.579993
 20
419.66849499999989
 30
0.0
 11
-232.32617099999999
 21
419.66849499999989
 31
0.0
  0
LINE
  5
843
  8
0
 62
     4
 10
-230.67077399999999
 20
419.66849499999989
 30
0.0
 11
-231.579993
 21
419.66849499999989
 31
0.0
  0
LINE
  5
844
  8
0
 62
     4
 10
-229.63345299999989
 20
419.66849499999989
 30
0.0
 11
-230.67077399999999
 21
419.66849499999989
 31
0.0
  0
LINE
  5
845
  8
0
 62
     4
 10
-228.50789399999999
 20
419.66849499999989
 30
0.0
 11
-229.63345299999989
 21
419.66849499999989
 31
0.0
  0
LINE
  5
846
  8
0
 62
     4
 10
-227.33735200000001
 20
419.66849499999989
 30
0.0
 11
-228.50789399999999
 21
419.66849499999989
 31
0.0
  0
LINE
  5
847
  8
0
 62
   230
 10
-186.33735200000001
 20
374.66849500000001
 30
0.0
 11
-187.33735200000001
 21
375.66849500000001
 31
0.0
  0
LINE
  5
848
  8
0
 62
   230
 10
-197.337354
 20
375.66849500000001
 30
0.0
 11
-198.337354
 21
374.66849500000001
 31
0.0
  0
LINE
  5
849
  8
0
 62
   230
 10
-191.16680999999991
 20
374.66849500000001
 30
0.0
 11
-192.33735200000001
 21
374.66849500000001
 31
0.0
  0
LINE
  5
84A
  8
0
 62
   230
 10
-190.0412509999999
 20
374.66849500000001
 30
0.0
 11
-191.16680999999991
 21
374.66849500000001
 31
0.0
  0
LINE
  5
84B
  8
0
 62
   230
 10
-189.00392999999991
 20
374.66849500000001
 30
0.0
 11
-190.0412509999999
 21
374.66849500000001
 31
0.0
  0
LINE
  5
84C
  8
0
 62
   230
 10
-188.09471199999999
 20
374.66849500000001
 30
0.0
 11
-189.00392999999991
 21
374.66849500000001
 31
0.0
  0
LINE
  5
84D
  8
0
 62
   230
 10
-187.34853499999991
 20
374.66849500000001
 30
0.0
 11
-188.09471199999999
 21
374.66849500000001
 31
0.0
  0
LINE
  5
84E
  8
0
 62
   230
 10
-186.7940759999999
 20
374.66849500000001
 30
0.0
 11
-187.34853499999991
 21
374.66849500000001
 31
0.0
  0
LINE
  5
84F
  8
0
 62
   230
 10
-186.45264199999991
 20
374.66849500000001
 30
0.0
 11
-186.7940759999999
 21
374.66849500000001
 31
0.0
  0
LINE
  5
850
  8
0
 62
   230
 10
-186.33735200000001
 20
374.66849500000001
 30
0.0
 11
-186.45264199999991
 21
374.66849500000001
 31
0.0
  0
LINE
  5
851
  8
0
 62
   230
 10
-186.33735200000001
 20
374.66849500000001
 30
0.0
 11
-186.33735200000001
 21
368.16849500000001
 31
0.0
  0
LINE
  5
852
  8
0
 62
   230
 10
-186.33735200000001
 20
359.66849500000001
 30
0.0
 11
-186.33735200000001
 21
357.16849500000001
 31
0.0
  0
LINE
  5
853
  8
0
 62
   230
 10
-198.33735300000001
 20
374.66849500000001
 30
0.0
 11
-198.33735300000001
 21
368.16849500000001
 31
0.0
  0
LINE
  5
854
  8
0
 62
   230
 10
-198.33735300000001
 20
359.66849500000001
 30
0.0
 11
-198.33735300000001
 21
357.16849500000001
 31
0.0
  0
LINE
  5
855
  8
0
 62
   230
 10
-198.2220639999999
 20
374.66849500000001
 30
0.0
 11
-198.33735300000001
 21
374.66849500000001
 31
0.0
  0
LINE
  5
856
  8
0
 62
   230
 10
-197.88063
 20
374.66849500000001
 30
0.0
 11
-198.2220639999999
 21
374.66849500000001
 31
0.0
  0
LINE
  5
857
  8
0
 62
   230
 10
-197.32616999999991
 20
374.66849500000001
 30
0.0
 11
-197.88063
 21
374.66849500000001
 31
0.0
  0
LINE
  5
858
  8
0
 62
   230
 10
-196.579993
 20
374.66849500000001
 30
0.0
 11
-197.32616999999991
 21
374.66849500000001
 31
0.0
  0
LINE
  5
859
  8
0
 62
   230
 10
-195.67077399999991
 20
374.66849500000001
 30
0.0
 11
-196.579993
 21
374.66849500000001
 31
0.0
  0
LINE
  5
85A
  8
0
 62
   230
 10
-194.633454
 20
374.66849500000001
 30
0.0
 11
-195.67077399999991
 21
374.66849500000001
 31
0.0
  0
LINE
  5
85B
  8
0
 62
   230
 10
-193.50789399999999
 20
374.66849500000001
 30
0.0
 11
-194.633454
 21
374.66849500000001
 31
0.0
  0
LINE
  5
85C
  8
0
 62
   230
 10
-192.33735200000001
 20
374.66849500000001
 30
0.0
 11
-193.50789399999999
 21
374.66849500000001
 31
0.0
  0
POLYLINE
  5
85D
  8
0
 62
     3
 66
     1
 10
0.0
 20
0.0
 30
0.0
  0
VERTEX
  5
EB2
  8
0
 62
     3
 10
-97.366619999999998
 20
274.31043599999992
 30
0.0
  0
VERTEX
  5
EB3
  8
0
 62
     3
 10
-113.3666199999999
 20
274.31043599999992
 30
0.0
  0
VERTEX
  5
EB4
  8
0
 62
     3
 10
-114.3666199999999
 20
272.31043599999992
 30
0.0
  0
VERTEX
  5
EB5
  8
0
 62
     3
 10
-115.3666199999999
 20
276.31043599999992
 30
0.0
  0
VERTEX
  5
EB6
  8
0
 62
     3
 10
-116.3666199999999
 20
274.31043599999992
 30
0.0
  0
VERTEX
  5
EB7
  8
0
 62
     3
 10
-132.3666199999999
 20
274.31043599999992
 30
0.0
  0
VERTEX
  5
EB8
  8
0
 62
     3
 10
-133.3666199999999
 20
272.31043599999992
 30
0.0
  0
VERTEX
  5
EB9
  8
0
 62
     3
 10
-134.3666199999999
 20
276.31043599999992
 30
0.0
  0
VERTEX
  5
EBA
  8
0
 62
     3
 10
-135.3666199999999
 20
274.31043599999992
 30
0.0
  0
VERTEX
  5
EBB
  8
0
 62
     3
 10
-151.3666199999999
 20
274.31043599999992
 30
0.0
  0
VERTEX
  5
EBC
  8
0
 62
     3
 10
-152.3666199999999
 20
272.31043599999992
 30
0.0
  0
VERTEX
  5
EBD
  8
0
 62
     3
 10
-153.3666199999999
 20
276.31043599999992
 30
0.0
  0
VERTEX
  5
EBE
  8
0
 62
     3
 10
-154.3666199999999
 20
274.31043599999992
 30
0.0
  0
VERTEX
  5
EBF
  8
0
 62
     3
 10
-170.3666199999999
 20
274.31043599999992
 30
0.0
  0
VERTEX
  5
EC0
  8
0
 62
     3
 10
-171.3666199999999
 20
272.31043599999992
 30
0.0
  0
VERTEX
  5
EC1
  8
0
 62
     3
 10
-172.3666199999999
 20
276.31043599999992
 30
0.0
  0
VERTEX
  5
EC2
  8
0
 62
     3
 10
-173.3666199999999
 20
274.31043599999992
 30
0.0
  0
VERTEX
  5
EC3
  8
0
 62
     3
 10
-189.36662000000001
 20
274.31043599999992
 30
0.0
  0
VERTEX
  5
EC4
  8
0
 62
     3
 10
-190.3666199999999
 20
272.31043599999992
 30
0.0
  0
VERTEX
  5
EC5
  8
0
 62
     3
 10
-191.3666199999999
 20
276.31043599999992
 30
0.0
  0
VERTEX
  5
EC6
  8
0
 62
     3
 10
-192.3666199999999
 20
274.31043599999992
 30
0.0
  0
VERTEX
  5
EC7
  8
0
 62
     3
 10
-208.3666199999999
 20
274.31043599999992
 30
0.0
  0
VERTEX
  5
EC8
  8
0
 62
     3
 10
-209.3666199999999
 20
272.31043599999992
 30
0.0
  0
VERTEX
  5
EC9
  8
0
 62
     3
 10
-210.36662000000001
 20
276.31043599999992
 30
0.0
  0
VERTEX
  5
ECA
  8
0
 62
     3
 10
-211.3666199999999
 20
274.31043599999992
 30
0.0
  0
VERTEX
  5
ECB
  8
0
 62
     3
 10
-227.36662000000001
 20
274.31043599999992
 30
0.0
  0
VERTEX
  5
ECC
  8
0
 62
     3
 10
-228.36662000000001
 20
272.31043599999992
 30
0.0
  0
VERTEX
  5
ECD
  8
0
 62
     3
 10
-229.36662000000001
 20
276.31043599999992
 30
0.0
  0
VERTEX
  5
ECE
  8
0
 62
     3
 10
-230.36662000000001
 20
274.31043599999992
 30
0.0
  0
VERTEX
  5
ECF
  8
0
 62
     3
 10
-246.36662000000001
 20
274.31043599999992
 30
0.0
  0
VERTEX
  5
ED0
  8
0
 62
     3
 10
-247.36662000000001
 20
272.31043599999992
 30
0.0
  0
VERTEX
  5
ED1
  8
0
 62
     3
 10
-248.36662000000001
 20
276.31043599999992
 30
0.0
  0
VERTEX
  5
ED2
  8
0
 62
     3
 10
-249.36662000000001
 20
274.31043599999992
 30
0.0
  0
VERTEX
  5
ED3
  8
0
 62
     3
 10
-252.54004399999991
 20
274.31043599999992
 30
0.0
  0
SEQEND
  5
ED4
  8
0
 62
     3
  0
LINE
  5
881
  8
0
  6
DASHDOT
 62
     7
 10
-122.337354
 20
422.38243899999992
 30
0.0
 11
-122.337354
 21
302.62958500000002
 31
0.0
  0
LINE
  5
882
  8
0
  6
DASHDOT
 62
     7
 10
-157.337354
 20
428.70799299999987
 30
0.0
 11
-157.337354
 21
261.50862899999993
 31
0.0
  0
LINE
  5
883
  8
0
  6
DASHDOT
 62
     7
 10
-192.337354
 20
422.79577599999988
 30
0.0
 11
-192.337354
 21
302.62958500000002
 31
0.0
  0
LINE
  5
884
  8
0
  6
DASHDOT
 62
     7
 10
-227.33735200000001
 20
428.32006100000001
 30
0.0
 11
-227.33735200000001
 21
302.62958500000002
 31
0.0
  0
LINE
  5
885
  8
0
 62
     7
 10
-232.33735200000001
 20
420.66849500000001
 30
0.0
 11
-232.33735200000001
 21
413.16849500000001
 31
0.0
  0
LINE
  5
886
  8
0
 62
     7
 10
-222.3373519999999
 20
420.66849500000001
 30
0.0
 11
-222.3373519999999
 21
413.16849500000001
 31
0.0
  0
LINE
  5
887
  8
0
 62
     7
 10
-197.33735300000001
 20
375.66849500000001
 30
0.0
 11
-197.33735300000001
 21
368.16849500000001
 31
0.0
  0
LINE
  5
888
  8
0
 62
     7
 10
-187.33735200000001
 20
375.66849500000001
 30
0.0
 11
-187.33735200000001
 21
368.16849500000001
 31
0.0
  0
LINE
  5
889
  8
0
 62
     7
 10
-162.33735799999991
 20
420.66849500000001
 30
0.0
 11
-162.33735799999991
 21
413.16849500000001
 31
0.0
  0
LINE
  5
88A
  8
0
 62
     7
 10
-152.337354
 20
420.66849500000001
 30
0.0
 11
-152.337354
 21
413.16849500000001
 31
0.0
  0
LINE
  5
88B
  8
0
 62
     7
 10
-127.337354
 20
375.66849500000001
 30
0.0
 11
-127.337354
 21
368.16849500000001
 31
0.0
  0
LINE
  5
88C
  8
0
 62
     7
 10
-117.337354
 20
375.66849500000001
 30
0.0
 11
-117.337354
 21
368.16849500000001
 31
0.0
  0
LINE
  5
88D
  8
0
 62
     7
 10
-117.337354
 20
359.66849500000001
 30
0.0
 11
-117.337354
 21
357.16849500000001
 31
0.0
  0
LINE
  5
88E
  8
0
 62
     7
 10
-127.337354
 20
359.66849500000001
 30
0.0
 11
-127.337354
 21
357.16849500000001
 31
0.0
  0
LINE
  5
88F
  8
0
 62
     7
 10
-162.337354
 20
404.66849500000001
 30
0.0
 11
-162.337354
 21
402.16849500000001
 31
0.0
  0
LINE
  5
890
  8
0
 62
     7
 10
-152.337354
 20
404.66849500000001
 30
0.0
 11
-152.337354
 21
402.16849500000001
 31
0.0
  0
LINE
  5
891
  8
0
 62
     7
 10
-232.33735200000001
 20
404.66849500000001
 30
0.0
 11
-232.33735200000001
 21
402.16849500000001
 31
0.0
  0
LINE
  5
892
  8
0
 62
     7
 10
-222.33735299999989
 20
404.66849500000001
 30
0.0
 11
-222.33735299999989
 21
402.16849500000001
 31
0.0
  0
LINE
  5
893
  8
0
 62
     7
 10
-89.873326000000006
 20
320.66849500000001
 30
0.0
 11
-114.337354
 21
320.66849500000001
 31
0.0
  0
LINE
  5
894
  8
0
 62
     7
 10
-89.873326000000006
 20
323.66849500000001
 30
0.0
 11
-114.337354
 21
323.66849500000001
 31
0.0
  0
POLYLINE
  5
895
  8
0
 62
     3
 66
     1
 10
0.0
 20
0.0
 30
0.0
  0
VERTEX
  5
ED5
  8
0
 62
     3
 10
-257.20874500000002
 20
326.64476000000002
 30
0.0
  0
VERTEX
  5
ED6
  8
0
 62
     3
 10
-258.60896000000002
 20
320.88831899999991
 30
0.0
  0
VERTEX
  5
ED7
  8
0
 62
     3
 10
-256.90197499999988
 20
319.44394899999998
 30
0.0
  0
VERTEX
  5
ED8
  8
0
 62
     3
 10
-261.02499899999998
 20
319.417687
 30
0.0
  0
VERTEX
  5
ED9
  8
0
 62
     3
 10
-259.31801299999989
 20
317.97331699999989
 30
0.0
  0
SEQEND
  5
EDA
  8
0
 62
     3
  0
POLYLINE
  5
89C
  8
0
 62
     3
 66
     1
 10
0.0
 20
0.0
 30
0.0
  0
VERTEX
  5
EDB
  8
0
 62
     3
 10
-89.873326000000006
 20
315.86404700000003
 30
0.0
  0
VERTEX
  5
EDC
  8
0
 62
     3
 10
-90.214505000000003
 20
323.88183700000002
 30
0.0
  0
VERTEX
  5
EDD
  8
0
 62
     3
 10
-92.255216000000004
 20
324.7959029999999
 30
0.0
  0
VERTEX
  5
EDE
  8
0
 62
     3
 10
-88.301343000000003
 20
325.965058
 30
0.0
  0
VERTEX
  5
EDF
  8
0
 62
     3
 10
-90.342054000000005
 20
326.87912399999999
 30
0.0
  0
SEQEND
  5
EE0
  8
0
 62
     3
  0
LINE
  5
8A3
  8
0
 62
     7
 10
-130.337354
 20
323.66849500000001
 30
0.0
 11
-149.337354
 21
323.66849500000001
 31
0.0
  0
LINE
  5
8A4
  8
0
 62
     7
 10
-165.337354
 20
323.66849500000001
 30
0.0
 11
-184.33735200000001
 21
323.66849500000001
 31
0.0
  0
LINE
  5
8A5
  8
0
 62
     7
 10
-200.33735300000001
 20
323.66849500000001
 30
0.0
 11
-219.33735299999989
 21
323.66849500000001
 31
0.0
  0
LINE
  5
8A6
  8
0
 62
     7
 10
-235.33735200000001
 20
323.66849500000001
 30
0.0
 11
-257.20874500000002
 21
323.66849500000001
 31
0.0
  0
LINE
  5
8A7
  8
0
 62
     7
 10
-235.33735200000001
 20
320.66849500000001
 30
0.0
 11
-258.61492599999991
 21
320.66849500000001
 31
0.0
  0
LINE
  5
8A8
  8
0
 62
     7
 10
-200.33735300000001
 20
320.66849500000001
 30
0.0
 11
-219.33735299999989
 21
320.66849500000001
 31
0.0
  0
LINE
  5
8A9
  8
0
 62
     7
 10
-165.337354
 20
320.66849500000001
 30
0.0
 11
-184.33735200000001
 21
320.66849500000001
 31
0.0
  0
LINE
  5
8AA
  8
0
 62
     7
 10
-130.337354
 20
320.66849500000001
 30
0.0
 11
-149.337354
 21
320.66849500000001
 31
0.0
  0
LINE
  5
8AB
  8
0
  6
DASHDOT
 62
     7
 10
-174.837354
 20
328.05093999999991
 30
0.0
 11
-174.837354
 21
313.28604999999999
 31
0.0
  0
LINE
  5
8AC
  8
0
  6
DASHDOT
 62
     7
 10
-139.837354
 20
336.51875999999999
 30
0.0
 11
-139.837354
 21
312.81732399999999
 31
0.0
  0
LINE
  5
8AD
  8
0
  6
DASHDOT
 62
     7
 10
-209.83735299999989
 20
336.79122000000001
 30
0.0
 11
-209.83735299999989
 21
313.28604999999999
 31
0.0
  0
LINE
  5
8AE
  8
0
 62
     7
 10
-214.83735299999989
 20
320.66849500000001
 30
0.0
 11
-214.83735299999989
 21
318.66849500000001
 31
0.0
  0
LINE
  5
8AF
  8
0
 62
     7
 10
-204.83735300000001
 20
320.66849500000001
 30
0.0
 11
-204.83735300000001
 21
318.66849500000001
 31
0.0
  0
LINE
  5
8B0
  8
0
 62
     7
 10
-179.837354
 20
320.66849500000001
 30
0.0
 11
-179.837354
 21
318.66849500000001
 31
0.0
  0
LINE
  5
8B1
  8
0
 62
     7
 10
-169.837354
 20
320.66849500000001
 30
0.0
 11
-169.837354
 21
318.66849500000001
 31
0.0
  0
LINE
  5
8B2
  8
0
 62
     7
 10
-144.837354
 20
320.66849500000001
 30
0.0
 11
-144.837354
 21
318.66849500000001
 31
0.0
  0
LINE
  5
8B3
  8
0
 62
     7
 10
-134.837354
 20
320.66849500000001
 30
0.0
 11
-134.837354
 21
318.66849500000001
 31
0.0
  0
LINE
  5
8B4
  8
0
 62
     7
 10
-205.83735299999989
 20
327.66849499999989
 30
0.0
 11
-213.83735299999989
 21
327.66849499999989
 31
0.0
  0
LINE
  5
8B5
  8
0
 62
     7
 10
-207.33735300000001
 20
331.66849499999989
 30
0.0
 11
-212.33735299999989
 21
331.66849499999989
 31
0.0
  0
LINE
  5
8B6
  8
0
 62
     7
 10
-213.83735299999989
 20
327.66849499999989
 30
0.0
 11
-213.83735299999989
 21
323.66849500000001
 31
0.0
  0
LINE
  5
8B7
  8
0
 62
     7
 10
-205.83735299999989
 20
327.66849499999989
 30
0.0
 11
-205.83735299999989
 21
323.66849500000001
 31
0.0
  0
LINE
  5
8B8
  8
0
 62
     7
 10
-207.33735300000001
 20
331.66849499999989
 30
0.0
 11
-207.33735300000001
 21
323.66849500000001
 31
0.0
  0
LINE
  5
8B9
  8
0
 62
     7
 10
-212.33735299999989
 20
331.66849499999989
 30
0.0
 11
-212.33735299999989
 21
323.66849500000001
 31
0.0
  0
LINE
  5
8BA
  8
0
 62
     7
 10
-137.337354
 20
331.66849499999989
 30
0.0
 11
-142.337354
 21
331.66849499999989
 31
0.0
  0
LINE
  5
8BB
  8
0
 62
     7
 10
-135.837354
 20
327.66849499999989
 30
0.0
 11
-143.837354
 21
327.66849499999989
 31
0.0
  0
LINE
  5
8BC
  8
0
 62
     7
 10
-143.837354
 20
327.66849499999989
 30
0.0
 11
-143.837354
 21
323.66849500000001
 31
0.0
  0
LINE
  5
8BD
  8
0
 62
     7
 10
-142.337354
 20
331.66849499999989
 30
0.0
 11
-142.337354
 21
323.66849500000001
 31
0.0
  0
LINE
  5
8BE
  8
0
 62
     7
 10
-137.337354
 20
331.66849499999989
 30
0.0
 11
-137.337354
 21
323.66849500000001
 31
0.0
  0
LINE
  5
8BF
  8
0
 62
     7
 10
-135.837354
 20
327.66849499999989
 30
0.0
 11
-135.837354
 21
323.66849500000001
 31
0.0
  0
LINE
  5
8C0
  8
0
 62
     7
 10
-122.3373229999999
 20
253.05467999999991
 30
0.0
 11
-128.24625900000001
 21
254.09654999999989
 31
0.0
  0
LINE
  5
8C1
  8
0
 62
     7
 10
-122.3373229999999
 20
253.05467999999991
 30
0.0
 11
-128.24625900000001
 21
252.01277899999999
 31
0.0
  0
LINE
  5
8C2
  8
0
 62
     7
 10
-157.337323
 20
253.05467999999991
 30
0.0
 11
-151.42850999999999
 21
252.01277899999999
 31
0.0
  0
LINE
  5
8C3
  8
0
 62
     7
 10
-157.337323
 20
253.05467999999991
 30
0.0
 11
-151.42850999999999
 21
254.09654999999989
 31
0.0
  0
LINE
  5
8C4
  8
0
 62
     7
 10
-157.337323
 20
253.05467999999991
 30
0.0
 11
-163.24625900000001
 21
254.09654999999989
 31
0.0
  0
LINE
  5
8C5
  8
0
 62
     7
 10
-157.337323
 20
253.05467999999991
 30
0.0
 11
-163.24625900000001
 21
252.01277899999999
 31
0.0
  0
LINE
  5
8C6
  8
0
 62
     7
 10
-192.33732299999991
 20
253.05467999999991
 30
0.0
 11
-186.42850999999999
 21
252.01277899999999
 31
0.0
  0
LINE
  5
8C7
  8
0
 62
     7
 10
-192.33732299999991
 20
253.05467999999991
 30
0.0
 11
-186.42850999999999
 21
254.09654999999989
 31
0.0
  0
LINE
  5
8C8
  8
0
 62
     7
 10
-192.33732299999991
 20
253.05467999999991
 30
0.0
 11
-198.24625900000001
 21
254.09654999999989
 31
0.0
  0
LINE
  5
8C9
  8
0
 62
     7
 10
-192.33732299999991
 20
253.05467999999991
 30
0.0
 11
-198.24625900000001
 21
252.01277899999999
 31
0.0
  0
LINE
  5
8CA
  8
0
 62
     7
 10
-227.337323
 20
253.05467999999991
 30
0.0
 11
-221.42850999999999
 21
252.01277899999999
 31
0.0
  0
LINE
  5
8CB
  8
0
 62
     7
 10
-227.337323
 20
253.05467999999991
 30
0.0
 11
-221.42850999999999
 21
254.09654999999989
 31
0.0
  0
LINE
  5
8CC
  8
0
 62
     7
 10
-122.3373229999999
 20
253.05467999999991
 30
0.0
 11
-227.337323
 21
253.05467999999991
 31
0.0
  0
LINE
  5
8CD
  8
0
 62
     7
 10
-122.3373229999999
 20
249.05467999999999
 30
0.0
 11
-122.3373229999999
 21
302.62958500000002
 31
0.0
  0
LINE
  5
8CE
  8
0
 62
     7
 10
-157.337323
 20
249.05467999999999
 30
0.0
 11
-157.337323
 21
261.50862899999993
 31
0.0
  0
LINE
  5
8CF
  8
0
 62
     7
 10
-192.33732299999991
 20
249.05467999999999
 30
0.0
 11
-192.33732299999991
 21
302.62958500000002
 31
0.0
  0
LINE
  5
8D0
  8
0
 62
     7
 10
-227.337323
 20
249.05467999999999
 30
0.0
 11
-227.337323
 21
302.62958500000002
 31
0.0
  0
LINE
  5
8D1
  8
0
 62
     7
 10
-272.15140999999988
 20
375.66849500000001
 30
0.0
 11
-273.1932799999999
 21
369.75965099999991
 31
0.0
  0
LINE
  5
8D2
  8
0
 62
     7
 10
-272.15140999999988
 20
375.66849500000001
 30
0.0
 11
-271.10953999999998
 21
369.75965099999991
 31
0.0
  0
LINE
  5
8D3
  8
0
 62
     7
 10
-272.15140999999988
 20
320.66849500000001
 30
0.0
 11
-271.10953999999998
 21
326.57733899999999
 31
0.0
  0
LINE
  5
8D4
  8
0
 62
     7
 10
-272.15140999999988
 20
320.66849500000001
 30
0.0
 11
-273.1932799999999
 21
326.57733899999999
 31
0.0
  0
LINE
  5
8D5
  8
0
 62
     7
 10
-272.15140999999988
 20
375.66849500000001
 30
0.0
 11
-272.15140999999988
 21
320.66849500000001
 31
0.0
  0
LINE
  5
8D6
  8
0
 62
     7
 10
-276.15140999999988
 20
375.66849500000001
 30
0.0
 11
-197.33732299999991
 21
375.66849500000001
 31
0.0
  0
LINE
  5
8D7
  8
0
 62
     7
 10
-276.15140999999988
 20
320.66849500000001
 30
0.0
 11
-258.61491100000001
 21
320.66849500000001
 31
0.0
  0
LINE
  5
8D8
  8
0
 62
     7
 10
-291.77201600000001
 20
420.66849500000001
 30
0.0
 11
-292.81388599999991
 21
414.75965099999991
 31
0.0
  0
LINE
  5
8D9
  8
0
 62
     7
 10
-291.77201600000001
 20
420.66849500000001
 30
0.0
 11
-290.73014599999988
 21
414.75965099999991
 31
0.0
  0
LINE
  5
8DA
  8
0
 62
     7
 10
-291.77201600000001
 20
320.66849500000001
 30
0.0
 11
-290.73014599999988
 21
326.57733899999999
 31
0.0
  0
LINE
  5
8DB
  8
0
 62
     7
 10
-291.77201600000001
 20
320.66849500000001
 30
0.0
 11
-292.81388599999991
 21
326.57733899999999
 31
0.0
  0
LINE
  5
8DC
  8
0
 62
     7
 10
-291.77201600000001
 20
420.66849500000001
 30
0.0
 11
-291.77201600000001
 21
320.66849500000001
 31
0.0
  0
LINE
  5
8DD
  8
0
 62
     7
 10
-295.77201600000001
 20
420.66849500000001
 30
0.0
 11
-232.337323
 21
420.66850299999999
 31
0.0
  0
LINE
  5
8DE
  8
0
 62
     7
 10
-295.77201600000001
 20
320.66849500000001
 30
0.0
 11
-258.61491100000001
 21
320.66849500000001
 31
0.0
  0
LINE
  5
8DF
  8
0
 62
     7
 10
-86.285809999999998
 20
357.16849500000001
 30
0.0
 11
-87.327680000000001
 21
351.25965099999991
 31
0.0
  0
LINE
  5
8E0
  8
0
 62
     7
 10
-86.285809999999998
 20
357.16849500000001
 30
0.0
 11
-85.243939999999995
 21
351.25965099999991
 31
0.0
  0
LINE
  5
8E1
  8
0
 62
     7
 10
-86.285809999999998
 20
320.66849500000001
 30
0.0
 11
-85.243939999999995
 21
326.57733899999999
 31
0.0
  0
LINE
  5
8E2
  8
0
 62
     7
 10
-86.285809999999998
 20
320.66849500000001
 30
0.0
 11
-87.327680000000001
 21
326.57733899999999
 31
0.0
  0
LINE
  5
8E3
  8
0
 62
     7
 10
-86.285809999999998
 20
357.16849500000001
 30
0.0
 11
-86.285809999999998
 21
320.66849500000001
 31
0.0
  0
LINE
  5
8E4
  8
0
 62
     7
 10
-82.285809999999998
 20
357.16849500000001
 30
0.0
 11
-111.337323
 21
357.16849500000001
 31
0.0
  0
LINE
  5
8E5
  8
0
 62
     7
 10
-82.285809999999998
 20
320.66849500000001
 30
0.0
 11
-89.873334
 21
320.66849500000001
 31
0.0
  0
LINE
  5
8E6
  8
0
 62
     7
 10
-73.293866000000008
 20
402.16849500000001
 30
0.0
 11
-74.335735999999983
 21
396.25965099999991
 31
0.0
  0
LINE
  5
8E7
  8
0
 62
     7
 10
-73.293866000000008
 20
402.16849500000001
 30
0.0
 11
-72.251935000000003
 21
396.25965099999991
 31
0.0
  0
LINE
  5
8E8
  8
0
 62
     7
 10
-73.293866000000008
 20
320.66849500000001
 30
0.0
 11
-72.251935000000003
 21
326.57733899999999
 31
0.0
  0
LINE
  5
8E9
  8
0
 62
     7
 10
-73.293866000000008
 20
320.66849500000001
 30
0.0
 11
-74.335735999999983
 21
326.57733899999999
 31
0.0
  0
LINE
  5
8EA
  8
0
 62
     7
 10
-73.293866000000008
 20
402.16849500000001
 30
0.0
 11
-73.293866000000008
 21
320.66849500000001
 31
0.0
  0
LINE
  5
8EB
  8
0
 62
     7
 10
-69.293805000000006
 20
402.16849500000001
 30
0.0
 11
-146.337323
 21
402.16848799999991
 31
0.0
  0
LINE
  5
8EC
  8
0
 62
     7
 10
-69.293805000000006
 20
320.66849500000001
 30
0.0
 11
-89.873334
 21
320.66849500000001
 31
0.0
  0
LINE
  5
8ED
  8
0
 62
     7
 10
-221.337323
 20
434.74852799999991
 30
0.0
 11
-215.42850999999999
 21
433.70664199999999
 31
0.0
  0
LINE
  5
8EE
  8
0
 62
     7
 10
-221.337323
 20
434.74852799999991
 30
0.0
 11
-215.42850999999999
 21
435.79042099999998
 31
0.0
  0
LINE
  5
8EF
  8
0
 62
     7
 10
-233.33732299999991
 20
434.74852799999991
 30
0.0
 11
-239.24625900000001
 21
435.790413
 31
0.0
  0
LINE
  5
8F0
  8
0
 62
     7
 10
-233.33732299999991
 20
434.74852799999991
 30
0.0
 11
-239.24625900000001
 21
433.70663499999989
 31
0.0
  0
LINE
  5
8F1
  8
0
 62
     7
 10
-233.33732299999991
 20
434.74852799999991
 30
0.0
 11
-192.30680599999999
 21
434.74852799999991
 31
0.0
  0
LINE
  5
8F2
  8
0
 62
     7
 10
-221.337323
 20
438.74852799999991
 30
0.0
 11
-221.337323
 21
419.66849499999989
 31
0.0
  0
LINE
  5
8F3
  8
0
 62
     7
 10
-233.33732299999991
 20
438.74852799999991
 30
0.0
 11
-233.33732299999991
 21
419.66849499999989
 31
0.0
  0
INSERT
  5
AA8
  8
0
  2
BLOCK0
 10
-254.02096599999999
 20
292.266167
 30
0.0
 50
180.0
  0
INSERT
  5
AA9
  8
0
  2
BLOCK1
 10
-254.02096599999999
 20
292.266167
 30
0.0
 50
180.0
  0
INSERT
  5
AAA
  8
0
  2
BLOCK2
 10
-254.02096599999999
 20
292.266167
 30
0.0
 50
180.0
  0
INSERT
  5
AAB
  8
0
  2
BLOCK3
 10
-254.02096599999999
 20
292.266167
 30
0.0
 50
180.0
  0
INSERT
  5
AAC
  8
0
  2
BLOCK4
 10
-254.02096599999999
 20
292.266167
 30
0.0
 50
180.0
  0
INSERT
  5
AAD
  8
0
  2
BLOCK5
 10
-254.02096599999999
 20
292.266167
 30
0.0
 50
180.0
  0
INSERT
  5
AAE
  8
0
  2
BLOCK6
 10
-254.02096599999999
 20
292.266167
 30
0.0
 50
180.0
  0
INSERT
  5
AAF
  8
0
  2
BLOCK7
 10
588.26187100000004
 20
626.72605099999987
 30
0.0
 50
180.0
  0
INSERT
  5
AB0
  8
0
  2
BLOCK8
 10
588.26187100000004
 20
626.72605099999987
 30
0.0
 50
180.0
  0
INSERT
  5
AB1
  8
0
  2
BLOCK9
 10
588.26187100000004
 20
626.72605099999987
 30
0.0
 50
180.0
  0
INSERT
  5
AB2
  8
0
  2
BLOCK10
 10
588.26187100000004
 20
626.72605099999987
 30
0.0
 50
180.0
  0
INSERT
  5
AB3
  8
0
  2
BLOCK11
 10
588.26187100000004
 20
626.72605099999987
 30
0.0
 50
180.0
  0
INSERT
  5
AB4
  8
0
  2
BLOCK12
 10
588.26187100000004
 20
626.72605099999987
 30
0.0
 50
180.0
  0
INSERT
  5
AB5
  8
0
  2
BLOCK13
 10
588.26187100000004
 20
626.72605099999987
 30
0.0
 50
180.0
  0
INSERT
  5
AB6
  8
0
  2
BLOCK14
 10
588.26187100000004
 20
626.72605099999987
 30
0.0
 50
180.0
  0
INSERT
  5
AB7
  8
0
  2
BLOCK15
 10
588.26187100000004
 20
626.72605099999987
 30
0.0
 50
180.0
  0
INSERT
  5
AB8
  8
0
  2
BLOCK16
 10
588.26187100000004
 20
626.72605099999987
 30
0.0
 50
180.0
  0
INSERT
  5
AB9
  8
0
  2
BLOCK17
 10
588.26187100000004
 20
626.72605099999987
 30
0.0
 50
180.0
  0
INSERT
  5
ABA
  8
0
  2
BLOCK18
 10
588.26187100000004
 20
626.72605099999987
 30
0.0
 50
180.0
  0
INSERT
  5
ABB
  8
0
  2
BLOCK19
 10
588.26187100000004
 20
626.72605099999987
 30
0.0
 50
180.0
  0
INSERT
  5
ABC
  8
0
  2
BLOCK20
 10
588.26187100000004
 20
626.72605099999987
 30
0.0
 50
180.0
  0
INSERT
  5
ABD
  8
0
  2
BLOCK21
 10
588.26187100000004
 20
626.72605099999987
 30
0.0
 50
180.0
  0
INSERT
  5
ABE
  8
0
  2
BLOCK22
 10
588.26187100000004
 20
626.72605099999987
 30
0.0
 50
180.0
  0
INSERT
  5
ABF
  8
0
  2
BLOCK23
 10
588.26187100000004
 20
626.72605099999987
 30
0.0
 50
180.0
  0
INSERT
  5
AC0
  8
0
  2
BLOCK24
 10
588.26187100000004
 20
626.72605099999987
 30
0.0
 50
180.0
  0
INSERT
  5
AC1
  8
0
  2
BLOCK25
 10
258.03728499999988
 20
516.73899100000006
 30
0.0
 50
90.0
  0
INSERT
  5
AC2
  8
0
  2
BLOCK26
 10
258.03728499999988
 20
516.73899100000006
 30
0.0
 50
90.0
  0
INSERT
  5
AC3
  8
0
  2
BLOCK27
 10
258.03728499999988
 20
516.73899100000006
 30
0.0
 50
90.0
  0
INSERT
  5
AC4
  8
0
  2
BLOCK28
 10
258.03728499999988
 20
516.73899100000006
 30
0.0
 50
90.0
  0
INSERT
  5
AC5
  8
0
  2
BLOCK29
 10
258.03728499999988
 20
516.73899100000006
 30
0.0
 50
90.0
  0
INSERT
  5
AC6
  8
0
  2
BLOCK30
 10
258.03728499999988
 20
516.73899100000006
 30
0.0
 50
90.0
  0
INSERT
  5
AC7
  8
0
  2
BLOCK31
 10
258.03728499999988
 20
516.73899100000006
 30
0.0
 50
90.0
  0
INSERT
  5
AC8
  8
0
  2
BLOCK32
 10
258.03728499999988
 20
516.73899100000006
 30
0.0
 50
90.0
  0
INSERT
  5
AC9
  8
0
  2
BLOCK33
 10
258.03728499999988
 20
516.73899100000006
 30
0.0
 50
90.0
  0
INSERT
  5
ACA
  8
0
  2
BLOCK34
 10
258.03728499999988
 20
516.73899100000006
 30
0.0
 50
90.0
  0
INSERT
  5
ACB
  8
0
  2
BLOCK35
 10
258.03728499999988
 20
516.73899100000006
 30
0.0
 50
90.0
  0
INSERT
  5
ACC
  8
0
  2
BLOCK36
 10
258.03728499999988
 20
516.73899100000006
 30
0.0
 50
90.0
  0
INSERT
  5
ACD
  8
0
  2
BLOCK37
 10
258.03728499999988
 20
516.73899100000006
 30
0.0
 50
90.0
  0
INSERT
  5
ACE
  8
0
  2
BLOCK38
 10
258.03728499999988
 20
516.73899100000006
 30
0.0
 50
90.0
  0
INSERT
  5
ACF
  8
0
  2
BLOCK39
 10
258.03728499999988
 20
516.73899100000006
 30
0.0
 50
90.0
  0
INSERT
  5
AD0
  8
0
  2
BLOCK40
 10
258.03728499999988
 20
516.73899100000006
 30
0.0
 50
90.0
  0
INSERT
  5
AD1
  8
0
  2
BLOCK41
 10
258.03728499999988
 20
516.73899100000006
 30
0.0
 50
90.0
  0
INSERT
  5
AD2
  8
0
  2
BLOCK42
 10
258.03728499999988
 20
516.73899100000006
 30
0.0
 50
90.0
  0
INSERT
  5
AD3
  8
0
  2
BLOCK43
 10
258.03728499999988
 20
516.73899100000006
 30
0.0
 50
90.0
  0
INSERT
  5
AD4
  8
0
  2
BLOCK44
 10
258.03728499999988
 20
516.73899100000006
 30
0.0
 50
90.0
  0
INSERT
  5
AD5
  8
0
  2
BLOCK45
 10
258.03728499999988
 20
516.73899100000006
 30
0.0
 50
90.0
  0
INSERT
  5
AD6
  8
0
  2
BLOCK46
 10
258.03728499999988
 20
516.73899100000006
 30
0.0
 50
90.0
  0
INSERT
  5
AD7
  8
0
  2
BLOCK47
 10
258.03728499999988
 20
516.73899100000006
 30
0.0
 50
90.0
  0
INSERT
  5
AD8
  8
0
  2
BLOCK48
 10
258.03728499999988
 20
516.73899100000006
 30
0.0
 50
90.0
  0
INSERT
  5
AD9
  8
0
  2
BLOCK49
 10
258.03728499999988
 20
516.73899100000006
 30
0.0
 50
90.0
  0
INSERT
  5
ADA
  8
0
  2
BLOCK50
 10
258.03728499999988
 20
516.73899100000006
 30
0.0
 50
90.0
  0
INSERT
  5
ADB
  8
0
  2
BLOCK51
 10
258.03728499999988
 20
516.73899100000006
 30
0.0
 50
90.0
  0
INSERT
  5
ADC
  8
0
  2
BLOCK52
 10
258.03728499999988
 20
516.73899100000006
 30
0.0
 50
90.0
  0
INSERT
  5
ADD
  8
0
  2
BLOCK53
 10
-272.17560400000002
 20
516.73899800000004
 30
0.0
 50
90.0
  0
INSERT
  5
ADE
  8
0
  2
BLOCK54
 10
-272.17560400000002
 20
516.73899800000004
 30
0.0
 50
90.0
  0
INSERT
  5
ADF
  8
0
  2
BLOCK55
 10
-272.17560400000002
 20
516.73899800000004
 30
0.0
 50
90.0
  0
INSERT
  5
AE0
  8
0
  2
BLOCK56
 10
-272.17560400000002
 20
516.73899800000004
 30
0.0
 50
90.0
  0
INSERT
  5
AE1
  8
0
  2
BLOCK57
 10
-272.17560400000002
 20
516.73899800000004
 30
0.0
 50
90.0
  0
INSERT
  5
AE2
  8
0
  2
BLOCK58
 10
-272.17560400000002
 20
516.73899800000004
 30
0.0
 50
90.0
  0
INSERT
  5
AE3
  8
0
  2
BLOCK59
 10
-272.17560400000002
 20
516.73899800000004
 30
0.0
 50
90.0
  0
INSERT
  5
AE4
  8
0
  2
BLOCK60
 10
-272.17560400000002
 20
516.73899800000004
 30
0.0
 50
90.0
  0
INSERT
  5
AE5
  8
0
  2
BLOCK61
 10
-272.17560400000002
 20
516.73899800000004
 30
0.0
 50
90.0
  0
INSERT
  5
AE6
  8
0
  2
BLOCK62
 10
-272.17560400000002
 20
516.73899800000004
 30
0.0
 50
90.0
  0
INSERT
  5
AE7
  8
0
  2
BLOCK63
 10
-272.17560400000002
 20
516.73899800000004
 30
0.0
 50
90.0
  0
INSERT
  5
AE8
  8
0
  2
BLOCK64
 10
-272.17560400000002
 20
516.73899800000004
 30
0.0
 50
90.0
  0
INSERT
  5
AE9
  8
0
  2
BLOCK65
 10
-272.17560400000002
 20
516.73899800000004
 30
0.0
 50
90.0
  0
INSERT
  5
AEA
  8
0
  2
BLOCK66
 10
-272.17560400000002
 20
516.73899800000004
 30
0.0
 50
90.0
  0
INSERT
  5
AEB
  8
0
  2
BLOCK67
 10
885.20016500000008
 20
626.72605099999987
 30
0.0
 50
270.0
  0
INSERT
  5
AEC
  8
0
  2
BLOCK68
 10
885.20016500000008
 20
626.72605099999987
 30
0.0
 50
270.0
  0
INSERT
  5
AED
  8
0
  2
BLOCK69
 10
885.20016500000008
 20
626.72605099999987
 30
0.0
 50
270.0
  0
INSERT
  5
AEE
  8
0
  2
BLOCK70
 10
885.20016500000008
 20
626.72605099999987
 30
0.0
 50
270.0
  0
INSERT
  5
AEF
  8
0
  2
BLOCK71
 10
885.20016500000008
 20
626.72605099999987
 30
0.0
 50
270.0
  0
INSERT
  5
AF0
  8
0
  2
BLOCK72
 10
885.20016500000008
 20
626.72605099999987
 30
0.0
 50
270.0
  0
INSERT
  5
AF1
  8
0
  2
BLOCK73
 10
885.20016500000008
 20
626.72605099999987
 30
0.0
 50
270.0
  0
INSERT
  5
AF2
  8
0
  2
BLOCK74
 10
885.20016500000008
 20
626.72605099999987
 30
0.0
 50
270.0
  0
INSERT
  5
AF3
  8
0
  2
BLOCK75
 10
-209.86735299999989
 20
320.66849500000001
 30
0.0
 50
180.0
  0
INSERT
  5
AF4
  8
0
  2
BLOCK76
 10
-209.86735299999989
 20
320.66849500000001
 30
0.0
 50
180.0
  0
INSERT
  5
AF5
  8
0
  2
BLOCK77
 10
-209.86735299999989
 20
320.66849500000001
 30
0.0
 50
180.0
  0
INSERT
  5
AF6
  8
0
  2
BLOCK78
 10
-209.86735299999989
 20
320.66849500000001
 30
0.0
 50
180.0
  0
INSERT
  5
AF7
  8
0
  2
BLOCK79
 10
-209.86735299999989
 20
320.66849500000001
 30
0.0
 50
180.0
  0
INSERT
  5
AF8
  8
0
  2
BLOCK80
 10
-209.86735299999989
 20
320.66849500000001
 30
0.0
 50
180.0
  0
INSERT
  5
AF9
  8
0
  2
BLOCK81
 10
-209.86735299999989
 20
320.66849500000001
 30
0.0
 50
180.0
  0
INSERT
  5
AFA
  8
0
  2
BLOCK82
 10
-209.86735299999989
 20
320.66849500000001
 30
0.0
 50
180.0
  0
INSERT
  5
AFB
  8
0
  2
BLOCK83
 10
-209.86735299999989
 20
320.66849500000001
 30
0.0
 50
180.0
  0
INSERT
  5
AFC
  8
0
  2
BLOCK84
 10
-209.86735299999989
 20
320.66849500000001
 30
0.0
 50
180.0
  0
VIEWPORT
  5
8F4
 67
     1
  8
0
 62
     0
 10
0.0
 20
0.0
 30
0.0
 40
1000.0
 41
1000.0
 68
     1
 69
     1
1001
ACAD
1000
MVIEW
1002
{
1070
    16
1010
0.0
1020
0.0
1030
0.0
1010
0.0
1020
0.0
1030
1.0
1040
0.0
1040
1000.0
1040
0.0
1040
0.0
1040
50.0
1040
0.0
1040
0.0
1070
     0
1070
   100
1070
     1
1070
     1
1070
     0
1070
     0
1070
     0
1070
     0
1040
0.0
1040
0.0
1040
0.0
1040
1.0
1040
1.0
1040
1.0
1040
1.0
1070
     0
1002
{
1002
}
1002
}
  0
ENDSEC
  0
EOF
