  0
SECTION
  2
HEADER
  9
$ACADVER
  1
AC1009
  9
$DWGCODEPAGE
  3
iso8859-1
  9
$INSBASE
 10
0.0
 20
0.0
 30
0.0
  9
$EXTMIN
 10
1.0E20
 20
1.0E20
  9
$EXTMAX
 10
-1.0E20
 20
-1.0E20
  9
$LIMMIN
 10
0.0
 20
0.0
  9
$LIMMAX
 10
12.0
 20
9.0
  9
$ORTHOMODE
 70
     0
  9
$REGENMODE
 70
     1
  9
$FILLMODE
 70
     1
  9
$QTEXTMODE
 70
     0
  9
$MIRRTEXT
 70
     1
  9
$DRAGMODE
 70
     2
  9
$LTSCALE
 40
15.0
  9
$OSMODE
 70
     0
  9
$ATTMODE
 70
     1
  9
$TEXTSIZE
 40
0.2
  9
$TRACEWID
 40
0.05
  9
$TEXTSTYLE
  7
STANDARD
  9
$CLAYER
  8
0
  9
$CELTYPE
  6
DASHED
  9
$CECOLOR
 62
   256
  9
$DIMSCALE
 40
1.0
  9
$DIMASZ
 40
0.18
  9
$DIMEXO
 40
0.0625
  9
$DIMDLI
 40
0.38
  9
$DIMRND
 40
0.0
  9
$DIMDLE
 40
0.0
  9
$DIMEXE
 40
0.18
  9
$DIMTP
 40
0.0
  9
$DIMTM
 40
0.0
  9
$DIMTXT
 40
0.18
  9
$DIMCEN
 40
0.09
  9
$DIMTSZ
 40
0.0
  9
$DIMTOL
 70
     0
  9
$DIMLIM
 70
     0
  9
$DIMTIH
 70
     1
  9
$DIMTOH
 70
     1
  9
$DIMSE1
 70
     0
  9
$DIMSE2
 70
     0
  9
$DIMTAD
 70
     0
  9
$DIMZIN
 70
     0
  9
$DIMBLK
  1

  9
$DIMASO
 70
     1
  9
$DIMSHO
 70
     1
  9
$DIMPOST
  1

  9
$DIMAPOST
  1

  9
$DIMALT
 70
     0
  9
$DIMALTD
 70
     2
  9
$DIMALTF
 40
25.4
  9
$DIMLFAC
 40
1.0
  9
$DIMTOFL
 70
     0
  9
$DIMTVP
 40
0.0
  9
$DIMTIX
 70
     0
  9
$DIMSOXD
 70
     0
  9
$DIMSAH
 70
     0
  9
$DIMBLK1
  1

  9
$DIMBLK2
  1

  9
$DIMSTYLE
  2
STANDARD
  9
$DIMCLRD
 70
     0
  9
$DIMCLRE
 70
     0
  9
$DIMCLRT
 70
     0
  9
$DIMTFAC
 40
1.0
  9
$DIMGAP
 40
0.09
  9
$LUNITS
 70
     2
  9
$LUPREC
 70
     4
  9
$AXISMODE
 70
     0
  9
$AXISUNIT
 10
0.0
 20
0.0
  9
$SKETCHINC
 40
0.1
  9
$FILLETRAD
 40
0.0
  9
$AUNITS
 70
     0
  9
$AUPREC
 70
     0
  9
$MENU
  1
acad
  9
$ELEVATION
 40
0.0
  9
$PELEVATION
 40
0.0
  9
$THICKNESS
 40
0.0
  9
$LIMCHECK
 70
     0
  9
$BLIPMODE
 70
     1
  9
$CHAMFERA
 40
0.0
  9
$CHAMFERB
 40
0.0
  9
$SKPOLY
 70
     0
  9
$TDCREATE
 40
0.000000000
  9
$TDUPDATE
 40
0.000000000
  9
$TDINDWG
 40
0.0
  9
$TDUSRTIMER
 40
0.0
  9
$USRTIMER
 70
     1
  9
$ANGBASE
 50
0.0
  9
$ANGDIR
 70
     0
  9
$PDMODE
 70
     0
  9
$PDSIZE
 40
0.0
  9
$PLINEWID
 40
0.0
  9
$COORDS
 70
     1
  9
$SPLFRAME
 70
     0
  9
$SPLINETYPE
 70
     6
  9
$SPLINESEGS
 70
     8
  9
$ATTDIA
 70
     0
  9
$ATTREQ
 70
     1
  9
$HANDLING
 70
     1
  9
$HANDSEED
  5
   701
  9
$SURFTAB1
 70
     6
  9
$SURFTAB2
 70
     6
  9
$SURFTYPE
 70
     6
  9
$SURFU
 70
     6
  9
$SURFV
 70
     6
  9
$UCSNAME
  2

  9
$UCSORG
 10
0.0
 20
0.0
 30
0.0
  9
$UCSXDIR
 10
1.0
 20
0.0
 30
0.0
  9
$UCSYDIR
 10
0.0
 20
1.0
 30
0.0
  9
$PUCSNAME
  2

  9
$PUCSORG
 10
0.0
 20
0.0
 30
0.0
  9
$PUCSXDIR
 10
1.0
 20
0.0
 30
0.0
  9
$PUCSYDIR
 10
0.0
 20
1.0
 30
0.0
  9
$USERI1
 70
     0
  9
$USERI2
 70
     0
  9
$USERI3
 70
     0
  9
$USERI4
 70
     0
  9
$USERI5
 70
     0
  9
$USERR1
 40
0.0
  9
$USERR2
 40
0.0
  9
$USERR3
 40
0.0
  9
$USERR4
 40
0.0
  9
$USERR5
 40
0.0
  9
$WORLDVIEW
 70
     1
  9
$SHADEDGE
 70
     3
  9
$SHADEDIF
 70
    70
  9
$TILEMODE
 70
     1
  9
$MAXACTVP
 70
    16
  9
$PINSBASE
 10
0.0
 20
0.0
 30
0.0
  9
$PLIMCHECK
 70
     0
  9
$PEXTMIN
 10
1.0E20
 20
1.0E20
 30
1.0E20
  9
$PEXTMAX
 10
-1.0E20
 20
-1.0E20
 30
-1.0E20
  9
$PLIMMIN
 10
0.0
 20
0.0
  9
$PLIMMAX
 10
12.0
 20
9.0
  9
$UNITMODE
 70
     0
  9
$VISRETAIN
 70
     0
  0
ENDSEC
  0
SECTION
  2
TABLES
  0
TABLE
  2
VPORT
 70
     1
  0
VPORT
  2
*ACTIVE
 70
     0
 10
0.0
 20
0.0
 11
1.0
 21
1.0
 12
6.801242
 22
4.5
 13
0.0
 23
0.0
 14
1.0
 24
1.0
 15
0.0
 25
0.0
 16
0.0
 26
0.0
 36
1.0
 17
0.0
 27
0.0
 37
0.0
 40
9.0
 41
1.511387
 42
50.0
 43
0.0
 44
0.0
 50
0.0
 51
0.0
 71
     0
 72
   100
 73
     1
 74
     1
 75
     0
 76
     0
 77
     0
 78
     0
  0
ENDTAB
  0
TABLE
  2
LTYPE
 70
    41
  0
LTYPE
  2
BYBLOCK
 70
     0
  3

 72
    65
 73
     0
 40
0.0
  0
LTYPE
  2
BYLAYER
 70
     0
  3

 72
    65
 73
     0
 40
0.0
  0
LTYPE
  2
CONTINUOUS
 70
     0
  3
Solid line
 72
    65
 73
     0
 40
0.0
  0
LTYPE
  2
BORDER
 70
    64
  3
__ __ . __ __ . __ __ . __ __ . __ __ . __ __ .
 72
    65
 73
     6
 40
1.75
 49
0.5
 49
-0.25
 49
0.5
 49
-0.25
 49
0.0
 49
-0.25
  0
LTYPE
  2
BORDER2
 70
    64
  3
__.__.__.__.__.__.__.__.__.__.__.__.__.__.__.__
 72
    65
 73
     6
 40
0.875
 49
0.25
 49
-0.125
 49
0.25
 49
-0.125
 49
0.0
 49
-0.125
  0
LTYPE
  2
BORDERX2
 70
    64
  3
____  ____  .  ____  ____  .  ____  ____  .  __
 72
    65
 73
     6
 40
3.5
 49
1.0
 49
-0.5
 49
1.0
 49
-0.5
 49
0.0
 49
-0.5
  0
LTYPE
  2
CENTER
 70
    64
  3
____ _ ____ _ ____ _ ____ _ ____ _ ____ _ ____
 72
    65
 73
     4
 40
2.0
 49
1.25
 49
-0.25
 49
0.25
 49
-0.25
  0
LTYPE
  2
CENTER2
 70
    64
  3
___ _ ___ _ ___ _ ___ _ ___ _ ___ _ ___ _ ___ _
 72
    65
 73
     4
 40
1.125
 49
0.75
 49
-0.125
 49
0.125
 49
-0.125
  0
LTYPE
  2
CENTERX2
 70
    64
  3
________  __  ________  __  ________  __  _____
 72
    65
 73
     4
 40
4.0
 49
2.5
 49
-0.5
 49
0.5
 49
-0.5
  0
LTYPE
  2
DASHDOT
 70
    64
  3
__ . __ . __ . __ . __ . __ . __ . __ . __ . __
 72
    65
 73
     4
 40
1.0
 49
0.5
 49
-0.25
 49
0.0
 49
-0.25
  0
LTYPE
  2
DASHDOT2
 70
    64
  3
_._._._._._._._._._._._._._._._._._._._._._._._
 72
    65
 73
     4
 40
0.5
 49
0.25
 49
-0.125
 49
0.0
 49
-0.125
  0
LTYPE
  2
DASHDOTX2
 70
    64
  3
____  .  ____  .  ____  .  ____  .  ____  .  __
 72
    65
 73
     4
 40
2.0
 49
1.0
 49
-0.5
 49
0.0
 49
-0.5
  0
LTYPE
  2
DASHED
 70
    64
  3
__ __ __ __ __ __ __ __ __ __ __ __ __ __ __ __
 72
    65
 73
     2
 40
0.75
 49
0.5
 49
-0.25
  0
LTYPE
  2
DASHED2
 70
    64
  3
_ _ _ _ _ _ _ _ _ _ _ _ _ _ _ _ _ _ _ _ _ _ _ _
 72
    65
 73
     2
 40
0.375
 49
0.25
 49
-0.125
  0
LTYPE
  2
DASHEDX2
 70
    64
  3
____  ____  ____  ____  ____  ____  ____  ____
 72
    65
 73
     2
 40
1.5
 49
1.0
 49
-0.5
  0
LTYPE
  2
DIVIDE
 70
    64
  3
____ . . ____ . . ____ . . ____ . . ____ . . __
 72
    65
 73
     6
 40
1.25
 49
0.5
 49
-0.25
 49
0.0
 49
-0.25
 49
0.0
 49
-0.25
  0
LTYPE
  2
DIVIDE2
 70
    64
  3
__..__..__..__..__..__..__..__..__..__..__..__.
 72
    65
 73
     6
 40
0.625
 49
0.25
 49
-0.125
 49
0.0
 49
-0.125
 49
0.0
 49
-0.125
  0
LTYPE
  2
DIVIDEX2
 70
    64
  3
________  .  .  ________  .  .  ________  .  .
 72
    65
 73
     6
 40
2.5
 49
1.0
 49
-0.5
 49
0.0
 49
-0.5
 49
0.0
 49
-0.5
  0
LTYPE
  2
DOT
 70
    64
  3
. . . . . . . . . . . . . . . . . . . . . . . .
 72
    65
 73
     2
 40
0.25
 49
0.0
 49
-0.25
  0
LTYPE
  2
DOT2
 70
    64
  3
...............................................
 72
    65
 73
     2
 40
0.125
 49
0.0
 49
-0.125
  0
LTYPE
  2
DOTX2
 70
    64
  3
.  .  .  .  .  .  .  .  .  .  .  .  .  .  .  .
 72
    65
 73
     2
 40
0.5
 49
0.0
 49
-0.5
  0
LTYPE
  2
HIDDEN
 70
    64
  3
__ __ __ __ __ __ __ __ __ __ __ __ __ __ __ __
 72
    65
 73
     2
 40
0.375
 49
0.25
 49
-0.125
  0
LTYPE
  2
HIDDEN2
 70
    64
  3
_ _ _ _ _ _ _ _ _ _ _ _ _ _ _ _ _ _ _ _ _ _ _ _
 72
    65
 73
     2
 40
0.1875
 49
0.125
 49
-0.0625
  0
LTYPE
  2
HIDDENX2
 70
    64
  3
____ ____ ____ ____ ____ ____ ____ ____ ____ __
 72
    65
 73
     2
 40
0.75
 49
0.5
 49
-0.25
  0
LTYPE
  2
PHANTOM
 70
    64
  3
______  __  __  ______  __  __  ______  __  __
 72
    65
 73
     6
 40
2.5
 49
1.25
 49
-0.25
 49
0.25
 49
-0.25
 49
0.25
 49
-0.25
  0
LTYPE
  2
PHANTOM2
 70
    64
  3
___ _ _ ___ _ _ ___ _ _ ___ _ _ ___ _ _ ___ _ _
 72
    65
 73
     6
 40
1.25
 49
0.625
 49
-0.125
 49
0.125
 49
-0.125
 49
0.125
 49
-0.125
  0
LTYPE
  2
PHANTOMX2
 70
    64
  3
____________    ____    ____    ____________
 72
    65
 73
     6
 40
5.0
 49
2.5
 49
-0.5
 49
0.5
 49
-0.5
 49
0.5
 49
-0.5
  0
LTYPE
  2
ACAD_ISO02W100
 70
    64
  3
__ __ __ __ __ __ __ __ __ __ __ __ __ __ __ __
 72
    65
 73
     2
 40
15.0
 49
12.0
 49
-3.0
  0
LTYPE
  2
ACAD_ISO03W100
 70
    64
  3
__    __    __    __    __    __    __    __
 72
    65
 73
     2
 40
30.0
 49
12.0
 49
-18.0
  0
LTYPE
  2
ACAD_ISO04W100
 70
    64
  3
____ . ____ . ____ . ____ . ____ . ____ . ____
 72
    65
 73
     4
 40
30.5
 49
24.0
 49
-3.0
 49
0.5
 49
-3.0
  0
LTYPE
  2
ACAD_ISO05W100
 70
    64
  3
____ .. ____ .. ____ .. ____ .. ____ .. ____ ..
 72
    65
 73
     6
 40
34.0
 49
24.0
 49
-3.0
 49
0.5
 49
-3.0
 49
0.5
 49
-3.0
  0
LTYPE
  2
ACAD_ISO06W100
 70
    64
  3
____ ... ____ ... ____ ... ____ ... ____ ... __
 72
    65
 73
     8
 40
37.5
 49
24.0
 49
-3.0
 49
0.5
 49
-3.0
 49
0.5
 49
-3.0
 49
0.5
 49
-3.0
  0
LTYPE
  2
ACAD_ISO07W100
 70
    64
  3
. . . . . . . . . . . . . . . . . . . . . . . .
 72
    65
 73
     2
 40
3.5
 49
0.5
 49
-3.0
  0
LTYPE
  2
ACAD_ISO08W100
 70
    64
  3
____ __ ____ __ ____ __ ____ ____ __ __ ____ __
 72
    65
 73
     4
 40
36.0
 49
24.0
 49
-3.0
 49
6.0
 49
-3.0
  0
LTYPE
  2
ACAD_ISO09W100
 70
    64
  3
____ __ __ ____ __ __ ____ __ __ ____ __ __ ___
 72
    65
 73
     6
 40
45.0
 49
24.0
 49
-3.0
 49
6.0
 49
-3.0
 49
6.0
 49
-3.0
  0
LTYPE
  2
ACAD_ISO10W100
 70
    64
  3
__ . __ . __ . __ . __ . __ . __ . __ . __ . __
 72
    65
 73
     4
 40
18.5
 49
12.0
 49
-3.0
 49
0.5
 49
-3.0
  0
LTYPE
  2
ACAD_ISO11W100
 70
    64
  3
__ __ . __ __ . __ __ . __ __ . __ __ . __ __ .
 72
    65
 73
     6
 40
33.5
 49
12.0
 49
-3.0
 49
12.0
 49
-3.0
 49
0.5
 49
-3.0
  0
LTYPE
  2
ACAD_ISO12W100
 70
    64
  3
__ . . __ . . __ . . __ . . __ . . __ . . __ .
 72
    65
 73
     6
 40
22.0
 49
12.0
 49
-3.0
 49
0.5
 49
-3.0
 49
0.5
 49
-3.0
  0
LTYPE
  2
ACAD_ISO13W100
 70
    64
  3
__ __ . . __ __ . . __ __ . . __ __ . . __ __ .
 72
    65
 73
     8
 40
37.0
 49
12.0
 49
-3.0
 49
12.0
 49
-3.0
 49
0.5
 49
-3.0
 49
0.5
 49
-3.0
  0
LTYPE
  2
ACAD_ISO14W100
 70
    64
  3
__ . . . __ . . . __ . . . __ . . . __ . . . __
 72
    65
 73
     8
 40
25.5
 49
12.0
 49
-3.0
 49
0.5
 49
-3.0
 49
0.5
 49
-3.0
 49
0.5
 49
-3.0
  0
LTYPE
  2
ACAD_ISO15W100
 70
    64
  3
__ __ . . . __ __ . . . __ __ . . . __ __ . . .
 72
    65
 73
    10
 40
40.5
 49
12.0
 49
-3.0
 49
12.0
 49
-3.0
 49
0.5
 49
-3.0
 49
0.5
 49
-3.0
 49
0.5
 49
-3.0
  0
ENDTAB
  0
TABLE
  2
STYLE
 70
     4
  0
STYLE
  2
STANDARD
 70
    64
 40
0.0
 41
1.0
 50
0.0
 71
     0
 42
0.2
  3
txt
  4

  0
STYLE
  2
TOLERANCE
 70
    64
 40
0.0
 41
1.0
 50
0.0
 71
     0
 42
0.2
  3
../igesfont/iges1003.shx
  4

  0
STYLE
  2
ROMANS
 70
    64
 40
0.0
 41
1.0
 50
0.0
 71
     0
 42
0.2
  3
romans.shx
  4

  0
STYLE
  2
ROMANC
 70
    64
 40
0.0
 41
1.0
 50
0.0
 71
     0
 42
0.2
  3
romanc.shx
  4

  0
ENDTAB
  0
TABLE
  2
DIMSTYLE
 70
     2
  0
DIMSTYLE
  2
UNNAMED
 70
     0
  3

  4

  5

  6

  7

 40
1.0
 41
0.18
 42
0.0625
 43
0.38
 44
0.18
 45
0.0
 46
0.0
 47
0.0
 48
0.0
140
0.18
141
0.09
142
0.0
143
25.4
144
1.0
145
0.0
146
1.0
147
0.09
 71
     0
 72
     0
 73
     1
 74
     1
 75
     0
 76
     0
 77
     0
 78
     0
170
     0
171
     2
172
     0
173
     0
174
     0
175
     0
176
     0
177
     0
178
     0
  0
DIMSTYLE
  2
STANDARD
 70
     0
  3

  4

  5

  6

  7

 40
1.0
 41
0.18
 42
0.0625
 43
0.38
 44
0.18
 45
0.0
 46
0.0
 47
0.0
 48
0.0
140
0.18
141
0.09
142
0.0
143
25.4
144
1.0
145
0.0
146
1.0
147
0.09
 71
     0
 72
     0
 73
     1
 74
     1
 75
     0
 76
     0
 77
     0
 78
     0
170
     0
171
     2
172
     0
173
     0
174
     0
175
     0
176
     0
177
     0
178
     0
  0
ENDTAB
  0
TABLE
  2
LAYER
 70
     1
  0
LAYER
  2
0
 70
     0
 62
     7
  6
CONTINUOUS
  0
ENDTAB
  0
ENDSEC
  0
SECTION
  2
BLOCKS
  0
BLOCK
  5
     B
  8
0
  6
CONTINUOUS
 62
     3
  2
*UDIM88
 70
    65
 10
0.0
 20
0.0
 30
0.0
  3
*UDIM88
  0
TEXT
  5
     C
  8
0
  6
CONTINUOUS
 62
     3
 10
-817.66186004838
 20
-63.407449468593
 30
0.0
 40
2.99999997871263
  1
42
 50
359.999999896069
 41
0.933333333333333
 72
     1
 11
-815.161860063406
 21
-61.907449483759
 31
0.0
 73
     2
  0
LINE
  5
     D
  8
0
  6
CONTINUOUS
 62
     3
 10
-800.186861678692
 20
-89.6758458018303
 30
0.0
 11
-800.186861678692
 21
-62.4074494731153
 31
0.0
  0
LINE
  5
     E
  8
0
  6
CONTINUOUS
 62
     3
 10
-829.586861178013
 20
-97.0258456766605
 30
0.0
 11
-829.586861178013
 21
-62.4074494731153
 31
0.0
  0
LINE
  5
     F
  8
0
  6
CONTINUOUS
 62
     3
 10
-800.186861678692
 20
-64.4074494731153
 30
0.0
 11
-829.586861178013
 21
-64.4074494731153
 31
0.0
  0
LINE
  5
    10
  8
0
  6
CONTINUOUS
 62
     3
 10
-803.141284893797
 20
-64.9283942552617
 30
0.0
 11
-800.186861678692
 21
-64.4074494731153
 31
0.0
  0
LINE
  5
    11
  8
0
  6
CONTINUOUS
 62
     3
 10
-800.186861678692
 20
-64.4074494731153
 30
0.0
 11
-803.141284893797
 21
-63.886504690969
 31
0.0
  0
LINE
  5
    12
  8
0
  6
CONTINUOUS
 62
     3
 10
-826.632437962907
 20
-63.886504690969
 30
0.0
 11
-829.586861178013
 21
-64.4074494731153
 31
0.0
  0
LINE
  5
    13
  8
0
  6
CONTINUOUS
 62
     3
 10
-829.586861178013
 20
-64.4074494731153
 30
0.0
 11
-826.632437962907
 21
-64.9283942552617
 31
0.0
  0
ENDBLK
  5
    14
  8
0
  6
CONTINUOUS
 62
     3
  0
BLOCK
  5
    15
  8
0
  6
CONTINUOUS
 62
     3
  2
*UDIM89
 70
    65
 10
0.0
 20
0.0
 30
0.0
  3
*UDIM89
  0
TEXT
  5
    16
  8
0
  6
CONTINUOUS
 62
     3
 10
-813.111860125866
 20
-70.4507347185196
 30
0.0
 40
2.99999997871263
  1
29
 50
359.999999896069
 41
0.933333333333333
 72
     1
 11
-810.611860140892
 21
-68.9507347336856
 31
0.0
 73
     2
  0
LINE
  5
    17
  8
0
  6
CONTINUOUS
 62
     3
 10
-800.186861678692
 20
-89.6758458018303
 30
0.0
 11
-800.186861678692
 21
-69.4507347230419
 31
0.0
  0
LINE
  5
    18
  8
0
  6
CONTINUOUS
 62
     3
 10
-820.486861332985
 20
-93.1758457422256
 30
0.0
 11
-820.486861332985
 21
-69.4507347230419
 31
0.0
  0
LINE
  5
    19
  8
0
  6
CONTINUOUS
 62
     3
 10
-800.186861678692
 20
-71.4507347230419
 30
0.0
 11
-820.486861332985
 21
-71.4507347230419
 31
0.0
  0
LINE
  5
    1A
  8
0
  6
CONTINUOUS
 62
     3
 10
-803.141284893797
 20
-71.9716795051883
 30
0.0
 11
-800.186861678692
 21
-71.4507347230419
 31
0.0
  0
LINE
  5
    1B
  8
0
  6
CONTINUOUS
 62
     3
 10
-800.186861678692
 20
-71.4507347230419
 30
0.0
 11
-803.141284893797
 21
-70.9297899408956
 31
0.0
  0
LINE
  5
    1C
  8
0
  6
CONTINUOUS
 62
     3
 10
-817.532438117879
 20
-70.9297899408956
 30
0.0
 11
-820.486861332985
 21
-71.4507347230419
 31
0.0
  0
LINE
  5
    1D
  8
0
  6
CONTINUOUS
 62
     3
 10
-820.486861332985
 20
-71.4507347230419
 30
0.0
 11
-817.532438117879
 21
-71.9716795051883
 31
0.0
  0
ENDBLK
  5
    1E
  8
0
  6
CONTINUOUS
 62
     3
  0
BLOCK
  5
    1F
  8
0
  6
CONTINUOUS
 62
     3
  2
*UDIM90
 70
    65
 10
0.0
 20
0.0
 30
0.0
  3
*UDIM90
  0
TEXT
  5
    20
  8
0
  6
CONTINUOUS
 62
     3
 10
-833.056607161953
 20
-128.450846658875
 30
0.0
 40
2.99999997871263
  1
11
 50
449.999999896069
 41
0.933333333333333
 72
     1
 11
-834.55660714679
 21
-125.950846673903
 31
0.0
 73
     2
  0
TEXT
  5
    21
  8
0
  6
CONTINUOUS
 62
     3
 10
-833.056607159422
 20
-131.200846655185
 30
0.0
 40
2.99999997871263
  1
Ø
 50
449.999999896069
 41
0.933333333333333
 72
     1
 11
-834.55660714679
 21
-130.100846660279
 31
0.0
 73
     2
  0
LINE
  5
    22
  8
0
  6
CONTINUOUS
 62
     3
 10
-832.056607157434
 20
-113.125845402479
 30
0.0
 11
-832.056607157434
 21
-131.200846652474
 31
0.0
  0
LINE
  5
    23
  8
0
  6
CONTINUOUS
 62
     3
 10
-831.535662375287
 20
-116.080268617585
 30
0.0
 11
-832.056607157434
 21
-113.125845402479
 31
0.0
  0
LINE
  5
    24
  8
0
  6
CONTINUOUS
 62
     3
 10
-832.056607157434
 20
-113.125845402479
 30
0.0
 11
-832.57755193958
 21
-116.080268617585
 31
0.0
  0
LINE
  5
    25
  8
0
  6
CONTINUOUS
 62
     3
 10
-832.57755193958
 20
-117.871422056243
 30
0.0
 11
-832.056607157434
 21
-120.825845271349
 31
0.0
  0
LINE
  5
    26
  8
0
  6
CONTINUOUS
 62
     3
 10
-832.056607157434
 20
-120.825845271349
 30
0.0
 11
-831.535662375287
 21
-117.871422056243
 31
0.0
  0
ENDBLK
  5
    27
  8
0
  6
CONTINUOUS
 62
     3
  0
BLOCK
  5
    28
  8
0
  6
CONTINUOUS
 62
     7
  2
*UDIM91
 70
    65
 10
0.0
 20
0.0
 30
0.0
  3
*UDIM91
  0
TEXT
  5
    29
  8
0
  6
CONTINUOUS
 62
     7
 10
-868.067619406404
 20
-111.00084562587
 30
0.0
 40
2.99999997871263
  1
25
 50
449.999999896069
 41
0.933333333333333
 72
     1
 11
-869.567619391242
 21
-108.500845640898
 31
0.0
 73
     2
  0
LINE
  5
    2A
  8
0
  6
CONTINUOUS
 62
     3
 10
-848.461835584821
 20
-99.4758456349373
 30
0.0
 11
-869.067619401885
 21
-99.4758456349373
 31
0.0
  0
LINE
  5
    2B
  8
0
  6
CONTINUOUS
 62
     3
 10
-858.185426375224
 20
-116.975845336914
 30
0.0
 11
-869.067619401885
 21
-116.975845336914
 31
0.0
  0
LINE
  5
    2C
  8
0
  6
CONTINUOUS
 62
     3
 10
-867.067619401885
 20
-99.4758456349373
 30
0.0
 11
-867.067619401885
 21
-116.975845336914
 31
0.0
  0
LINE
  5
    2D
  8
0
  6
CONTINUOUS
 62
     3
 10
-866.546674619739
 20
-102.430268850043
 30
0.0
 11
-867.067619401885
 21
-99.4758456349373
 31
0.0
  0
LINE
  5
    2E
  8
0
  6
CONTINUOUS
 62
     3
 10
-867.067619401885
 20
-99.4758456349373
 30
0.0
 11
-867.588564184032
 21
-102.430268850043
 31
0.0
  0
LINE
  5
    2F
  8
0
  6
CONTINUOUS
 62
     3
 10
-867.588564184032
 20
-114.021422121809
 30
0.0
 11
-867.067619401885
 21
-116.975845336914
 31
0.0
  0
LINE
  5
    30
  8
0
  6
CONTINUOUS
 62
     3
 10
-867.067619401885
 20
-116.975845336914
 30
0.0
 11
-866.546674619739
 21
-114.021422121809
 31
0.0
  0
ENDBLK
  5
    31
  8
0
  6
CONTINUOUS
 62
     7
  0
BLOCK
  5
    32
  8
0
  6
CONTINUOUS
 62
     7
  2
*UDIM92
 70
    65
 10
0.0
 20
0.0
 30
0.0
  3
*UDIM92
  0
TEXT
  5
    33
  8
0
  6
CONTINUOUS
 62
     7
 10
-868.067619406404
 20
-128.500843986742
 30
0.0
 40
2.99999997871263
  1
25
 50
449.999999896069
 41
0.933333333333333
 72
     1
 11
-869.567619391242
 21
-126.00084400177
 31
0.0
 73
     2
  0
LINE
  5
    34
  8
0
  6
CONTINUOUS
 62
     3
 10
-850.492688137694
 20
-134.475845038891
 30
0.0
 11
-869.067619401885
 21
-134.475845038891
 31
0.0
  0
LINE
  5
    35
  8
0
  6
CONTINUOUS
 62
     3
 10
-867.067619401885
 20
-116.975845336914
 30
0.0
 11
-867.067619401885
 21
-134.475845038891
 31
0.0
  0
LINE
  5
    36
  8
0
  6
CONTINUOUS
 62
     3
 10
-866.546674619739
 20
-119.93026855202
 30
0.0
 11
-867.067619401885
 21
-116.975845336914
 31
0.0
  0
LINE
  5
    37
  8
0
  6
CONTINUOUS
 62
     3
 10
-867.067619401885
 20
-116.975845336914
 30
0.0
 11
-867.588564184032
 21
-119.93026855202
 31
0.0
  0
LINE
  5
    38
  8
0
  6
CONTINUOUS
 62
     3
 10
-867.588564184032
 20
-131.521421823785
 30
0.0
 11
-867.067619401885
 21
-134.475845038891
 31
0.0
  0
LINE
  5
    39
  8
0
  6
CONTINUOUS
 62
     3
 10
-867.067619401885
 20
-134.475845038891
 30
0.0
 11
-866.546674619739
 21
-131.521421823785
 31
0.0
  0
ENDBLK
  5
    3A
  8
0
  6
CONTINUOUS
 62
     7
  0
BLOCK
  5
    3B
  8
0
  6
CONTINUOUS
 62
     3
  2
*UDIM93
 70
    65
 10
0.0
 20
0.0
 30
0.0
  3
*UDIM93
  0
TEXT
  5
    3C
  8
0
  6
CONTINUOUS
 62
     3
 10
-824.661859929171
 20
-154.008122364149
 30
0.0
 40
2.99999997871263
  1
62
 50
359.999999896069
 41
0.933333333333333
 72
     1
 11
-822.161859944197
 21
-152.508122379315
 31
0.0
 73
     2
  0
LINE
  5
    3D
  8
0
  6
CONTINUOUS
 62
     3
 10
-800.186861678692
 20
-144.275844871998
 30
0.0
 11
-800.186861678692
 21
-157.008122368672
 31
0.0
  0
LINE
  5
    3E
  8
0
  6
CONTINUOUS
 62
     3
 10
-843.586860939594
 20
-123.275845229626
 30
0.0
 11
-843.586860939594
 21
-157.008122368672
 31
0.0
  0
LINE
  5
    3F
  8
0
  6
CONTINUOUS
 62
     3
 10
-800.186861678692
 20
-155.008122368672
 30
0.0
 11
-843.586860939594
 21
-155.008122368672
 31
0.0
  0
LINE
  5
    40
  8
0
  6
CONTINUOUS
 62
     3
 10
-803.141284893797
 20
-155.529067150818
 30
0.0
 11
-800.186861678692
 21
-155.008122368672
 31
0.0
  0
LINE
  5
    41
  8
0
  6
CONTINUOUS
 62
     3
 10
-800.186861678692
 20
-155.008122368672
 30
0.0
 11
-803.141284893797
 21
-154.487177586525
 31
0.0
  0
LINE
  5
    42
  8
0
  6
CONTINUOUS
 62
     3
 10
-840.632437724489
 20
-154.487177586525
 30
0.0
 11
-843.586860939594
 21
-155.008122368672
 31
0.0
  0
LINE
  5
    43
  8
0
  6
CONTINUOUS
 62
     3
 10
-843.586860939594
 20
-155.008122368672
 30
0.0
 11
-840.632437724489
 21
-155.529067150818
 31
0.0
  0
ENDBLK
  5
    44
  8
0
  6
CONTINUOUS
 62
     3
  0
BLOCK
  5
    45
  8
0
  6
CONTINUOUS
 62
     3
  2
*UDIM94
 70
    65
 10
0.0
 20
0.0
 30
0.0
  3
*UDIM94
  0
TEXT
  5
    46
  8
0
  6
CONTINUOUS
 62
     3
 10
-829.211859851685
 20
-161.635485057742
 30
0.0
 40
2.99999997871263
  1
75
 50
359.999999896069
 41
0.933333333333333
 72
     1
 11
-826.711859866711
 21
-160.135485072908
 31
0.0
 73
     2
  0
LINE
  5
    47
  8
0
  6
CONTINUOUS
 62
     3
 10
-800.186861678692
 20
-144.275844871998
 30
0.0
 11
-800.186861678692
 21
-164.635485062265
 31
0.0
  0
LINE
  5
    48
  8
0
  6
CONTINUOUS
 62
     3
 10
-852.686860784622
 20
-119.425845295191
 30
0.0
 11
-852.686860784622
 21
-164.635485062265
 31
0.0
  0
LINE
  5
    49
  8
0
  6
CONTINUOUS
 62
     3
 10
-800.186861678692
 20
-162.635485062265
 30
0.0
 11
-852.686860784622
 21
-162.635485062265
 31
0.0
  0
LINE
  5
    4A
  8
0
  6
CONTINUOUS
 62
     3
 10
-803.141284893797
 20
-163.156429844411
 30
0.0
 11
-800.186861678692
 21
-162.635485062265
 31
0.0
  0
LINE
  5
    4B
  8
0
  6
CONTINUOUS
 62
     3
 10
-800.186861678692
 20
-162.635485062265
 30
0.0
 11
-803.141284893797
 21
-162.114540280118
 31
0.0
  0
LINE
  5
    4C
  8
0
  6
CONTINUOUS
 62
     3
 10
-849.732437569517
 20
-162.114540280118
 30
0.0
 11
-852.686860784622
 21
-162.635485062265
 31
0.0
  0
LINE
  5
    4D
  8
0
  6
CONTINUOUS
 62
     3
 10
-852.686860784622
 20
-162.635485062265
 30
0.0
 11
-849.732437569517
 21
-163.156429844411
 31
0.0
  0
ENDBLK
  5
    4E
  8
0
  6
CONTINUOUS
 62
     3
  0
BLOCK
  5
    4F
  8
0
  6
CONTINUOUS
 62
     7
  2
*UDIM95
 70
    65
 10
0.0
 20
0.0
 30
0.0
  3
*UDIM95
  0
TEXT
  5
    50
  8
0
  6
CONTINUOUS
 62
     7
 10
-859.410619536855
 20
-106.093817324313
 30
0.0
 40
2.99999997871263
  1
8
 50
449.999999896069
 41
0.933333333333333
 72
     1
 11
-860.910619524223
 21
-104.993817329407
 31
0.0
 73
     2
  0
TEXT
  5
    51
  8
0
  6
CONTINUOUS
 62
     7
 10
-859.410619536855
 20
-109.293817308702
 30
0.0
 40
2.99999997871263
  1
M
 50
449.999999896069
 41
0.933333333333333
 72
     1
 11
-860.910619524223
 21
-108.193817313796
 31
0.0
 73
     2
  0
LINE
  5
    52
  8
0
  6
CONTINUOUS
 62
     7
 10
-853.336860790583
 20
-114.175845384598
 30
0.0
 11
-860.410619534867
 21
-114.175845384598
 31
0.0
  0
LINE
  5
    53
  8
0
  6
CONTINUOUS
 62
     7
 10
-853.336860790583
 20
-119.77584528923
 30
0.0
 11
-860.410619534867
 21
-119.77584528923
 31
0.0
  0
LINE
  5
    54
  8
0
  6
CONTINUOUS
 62
     7
 10
-858.410619534867
 20
-103.893817337212
 30
0.0
 11
-858.410619534867
 21
-124.77584528923
 31
0.0
  0
LINE
  5
    55
  8
0
  6
CONTINUOUS
 62
     3
 10
-859.187076691285
 20
-111.278067911387
 30
0.0
 11
-858.410619534867
 21
-114.175845384598
 31
0.0
  0
LINE
  5
    56
  8
0
  6
CONTINUOUS
 62
     3
 10
-858.410619534867
 20
-114.175845384598
 30
0.0
 11
-857.634162378448
 21
-111.278067911387
 31
0.0
  0
LINE
  5
    57
  8
0
  6
CONTINUOUS
 62
     3
 10
-857.634162378448
 20
-122.673622762441
 30
0.0
 11
-858.410619534867
 21
-119.77584528923
 31
0.0
  0
LINE
  5
    58
  8
0
  6
CONTINUOUS
 62
     3
 10
-858.410619534867
 20
-119.77584528923
 30
0.0
 11
-859.187076691285
 21
-122.673622762441
 31
0.0
  0
ENDBLK
  5
    59
  8
0
  6
CONTINUOUS
 62
     7
  0
BLOCK
  5
    5A
  8
0
  6
CONTINUOUS
 62
     7
  2
*UDIM96
 70
    65
 10
0.0
 20
0.0
 30
0.0
  3
*UDIM96
  0
TEXT
  5
    5B
  8
0
  6
CONTINUOUS
 62
     7
 10
-945.37900123016
 20
-59.3876200324218
 30
0.0
 40
2.99999997871263
  1
25
 50
359.999999844103
 41
0.933333333333333
 72
     1
 11
-942.879001243825
 21
-57.8876200498552
 31
0.0
 73
     2
  0
LINE
  5
    5C
  8
0
  6
CONTINUOUS
 62
     3
 10
-951.35400329431
 20
-71.0208473801613
 30
0.0
 11
-951.353999328532
 21
-58.3876200392116
 31
0.0
  0
LINE
  5
    5D
  8
0
  6
CONTINUOUS
 62
     3
 10
-933.854003592334
 20
-71.0208473801613
 30
0.0
 11
-933.853999626555
 21
-58.3876200392116
 31
0.0
  0
LINE
  5
    5E
  8
0
  6
CONTINUOUS
 62
     3
 10
-951.353999956365
 20
-60.3876200392115
 30
0.0
 11
-933.854000254388
 21
-60.3876200392115
 31
0.0
  0
LINE
  5
    5F
  8
0
  6
CONTINUOUS
 62
     3
 10
-948.39957674126
 20
-59.8666752570651
 30
0.0
 11
-951.353999956365
 21
-60.3876200392115
 31
0.0
  0
LINE
  5
    60
  8
0
  6
CONTINUOUS
 62
     3
 10
-951.353999956365
 20
-60.3876200392115
 30
0.0
 11
-948.39957674126
 21
-60.9085648213578
 31
0.0
  0
LINE
  5
    61
  8
0
  6
CONTINUOUS
 62
     3
 10
-936.808423469494
 20
-60.9085648213578
 30
0.0
 11
-933.854000254388
 21
-60.3876200392115
 31
0.0
  0
LINE
  5
    62
  8
0
  6
CONTINUOUS
 62
     3
 10
-933.854000254388
 20
-60.3876200392115
 30
0.0
 11
-936.808423469494
 21
-59.8666752570651
 31
0.0
  0
ENDBLK
  5
    63
  8
0
  6
CONTINUOUS
 62
     7
  0
BLOCK
  5
    64
  8
0
  6
CONTINUOUS
 62
     7
  2
*UDIM97
 70
    65
 10
0.0
 20
0.0
 30
0.0
  3
*UDIM97
  0
TEXT
  5
    65
  8
0
  6
CONTINUOUS
 62
     7
 10
-927.879013538519
 20
-59.3876200324218
 30
0.0
 40
2.99999997871263
  1
25
 50
359.999999844103
 41
0.933333333333333
 72
     1
 11
-925.379013552184
 21
-57.8876200498552
 31
0.0
 73
     2
  0
LINE
  5
    66
  8
0
  6
CONTINUOUS
 62
     3
 10
-916.354003890357
 20
-71.0208473801613
 30
0.0
 11
-916.353999924578
 21
-58.3876200392116
 31
0.0
  0
LINE
  5
    67
  8
0
  6
CONTINUOUS
 62
     3
 10
-933.854000254388
 20
-60.3876200392115
 30
0.0
 11
-916.354000552412
 21
-60.3876200392115
 31
0.0
  0
LINE
  5
    68
  8
0
  6
CONTINUOUS
 62
     3
 10
-930.899577039283
 20
-59.8666752570651
 30
0.0
 11
-933.854000254388
 21
-60.3876200392115
 31
0.0
  0
LINE
  5
    69
  8
0
  6
CONTINUOUS
 62
     3
 10
-933.854000254388
 20
-60.3876200392115
 30
0.0
 11
-930.899577039283
 21
-60.9085648213578
 31
0.0
  0
LINE
  5
    6A
  8
0
  6
CONTINUOUS
 62
     3
 10
-919.308423767517
 20
-60.9085648213578
 30
0.0
 11
-916.354000552412
 21
-60.3876200392115
 31
0.0
  0
LINE
  5
    6B
  8
0
  6
CONTINUOUS
 62
     3
 10
-916.354000552412
 20
-60.3876200392115
 30
0.0
 11
-919.308423767517
 21
-59.8666752570651
 31
0.0
  0
ENDBLK
  5
    6C
  8
0
  6
CONTINUOUS
 62
     7
  0
BLOCK
  5
    6D
  8
0
  6
CONTINUOUS
 62
     3
  2
*UDIM98
 70
    65
 10
0.0
 20
0.0
 30
0.0
  3
*UDIM98
  0
TEXT
  5
    6E
  8
0
  6
CONTINUOUS
 62
     3
 10
-892.525763820417
 20
-62.3058395695173
 30
0.0
 40
2.99999997871263
  1
18
 50
401.366350268004
 41
0.933333333333333
 72
     1
 11
-891.640822325403
 21
-59.5279125672771
 31
0.0
 73
     2
  0
TEXT
  5
    6F
  8
0
  6
CONTINUOUS
 62
     3
 10
-894.589636961605
 20
-64.1232354088399
 30
0.0
 40
2.99999997871263
  1
Ø
 50
401.366350268004
 41
0.933333333333333
 72
     1
 11
-894.755394518033
 21
-62.2705280969895
 31
0.0
 73
     2
  0
LINE
  5
    70
  8
0
  6
CONTINUOUS
 62
     3
 10
-888.112395995407
 20
-59.751982850614
 30
0.0
 11
-921.082149877484
 21
-88.784335743816
 31
0.0
  0
LINE
  5
    71
  8
0
  6
CONTINUOUS
 62
     3
 10
-913.498873752004
 20
-82.8008205525066
 30
0.0
 11
-911.625858531062
 21
-80.4573585873531
 31
0.0
  0
LINE
  5
    72
  8
0
  6
CONTINUOUS
 62
     3
 10
-911.625858531062
 20
-80.4573585873531
 30
0.0
 11
-914.187428573367
 21
-82.0188831367499
 31
0.0
  0
LINE
  5
    73
  8
0
  6
CONTINUOUS
 62
     3
 10
-919.209134656543
 20
-86.4408737786625
 30
0.0
 11
-921.082149877484
 21
-88.784335743816
 31
0.0
  0
LINE
  5
    74
  8
0
  6
CONTINUOUS
 62
     3
 10
-921.082149877484
 20
-88.784335743816
 30
0.0
 11
-918.52057983518
 21
-87.2228111944192
 31
0.0
  0
ENDBLK
  5
    75
  8
0
  6
CONTINUOUS
 62
     3
  0
BLOCK
  5
    76
  8
0
  6
CONTINUOUS
 62
     3
  2
*UDIM99
 70
    65
 10
0.0
 20
0.0
 30
0.0
  3
*UDIM99
  0
TEXT
  5
    77
  8
0
  6
CONTINUOUS
 62
     3
 10
-977.883145560016
 20
-109.445845590275
 30
0.0
 40
2.99999997871263
  1
63
 50
449.999999844103
 41
0.933333333333333
 72
     1
 11
-979.383145542585
 21
-106.945845603943
 31
0.0
 73
     2
  0
LINE
  5
    78
  8
0
  6
CONTINUOUS
 62
     3
 10
-963.95400339365
 20
-84.6208471655846
 30
0.0
 11
-978.883145553229
 21
-84.6208471655846
 31
0.0
  0
LINE
  5
    79
  8
0
  6
CONTINUOUS
 62
     3
 10
-968.200853816573
 20
-128.720846414566
 30
0.0
 11
-978.883145553229
 21
-128.720846414566
 31
0.0
  0
LINE
  5
    7A
  8
0
  6
CONTINUOUS
 62
     3
 10
-976.883145553229
 20
-84.6208471655846
 30
0.0
 11
-976.883145553229
 21
-128.720846414566
 31
0.0
  0
LINE
  5
    7B
  8
0
  6
CONTINUOUS
 62
     3
 10
-976.362200771083
 20
-87.5752703806901
 30
0.0
 11
-976.883145553229
 21
-84.6208471655846
 31
0.0
  0
LINE
  5
    7C
  8
0
  6
CONTINUOUS
 62
     3
 10
-976.883145553229
 20
-84.6208471655846
 30
0.0
 11
-977.404090335375
 21
-87.5752703806901
 31
0.0
  0
LINE
  5
    7D
  8
0
  6
CONTINUOUS
 62
     3
 10
-977.404090335375
 20
-125.766423199461
 30
0.0
 11
-976.883145553229
 21
-128.720846414566
 31
0.0
  0
LINE
  5
    7E
  8
0
  6
CONTINUOUS
 62
     3
 10
-976.883145553229
 20
-128.720846414566
 30
0.0
 11
-976.362200771083
 21
-125.766423199461
 31
0.0
  0
ENDBLK
  5
    7F
  8
0
  6
CONTINUOUS
 62
     3
  0
BLOCK
  5
    80
  8
0
  6
CONTINUOUS
 62
     3
  2
*UDIM100
 70
    65
 10
0.0
 20
0.0
 30
0.0
  3
*UDIM100
  0
TEXT
  5
    81
  8
0
  6
CONTINUOUS
 62
     3
 10
-970.590620964968
 20
-109.795845584315
 30
0.0
 40
2.99999997871263
  1
62
 50
449.999999844103
 41
0.933333333333333
 72
     1
 11
-972.090620947538
 21
-107.295845597982
 31
0.0
 73
     2
  0
LINE
  5
    82
  8
0
  6
CONTINUOUS
 62
     3
 10
-951.004003614187
 20
-85.3208471536636
 30
0.0
 11
-971.590620958182
 21
-85.3208471536636
 31
0.0
  0
LINE
  5
    83
  8
0
  6
CONTINUOUS
 62
     3
 10
-968.200853816573
 20
-128.720846414566
 30
0.0
 11
-971.590620958182
 21
-128.720846414566
 31
0.0
  0
LINE
  5
    84
  8
0
  6
CONTINUOUS
 62
     3
 10
-969.590620958182
 20
-85.3208471536636
 30
0.0
 11
-969.590620958182
 21
-128.720846414566
 31
0.0
  0
LINE
  5
    85
  8
0
  6
CONTINUOUS
 62
     3
 10
-969.069676176035
 20
-88.2752703687692
 30
0.0
 11
-969.590620958182
 21
-85.3208471536636
 31
0.0
  0
LINE
  5
    86
  8
0
  6
CONTINUOUS
 62
     3
 10
-969.590620958182
 20
-85.3208471536636
 30
0.0
 11
-970.111565740328
 21
-88.2752703687692
 31
0.0
  0
LINE
  5
    87
  8
0
  6
CONTINUOUS
 62
     3
 10
-970.111565740328
 20
-125.766423199461
 30
0.0
 11
-969.590620958182
 21
-128.720846414566
 31
0.0
  0
LINE
  5
    88
  8
0
  6
CONTINUOUS
 62
     3
 10
-969.590620958182
 20
-128.720846414566
 30
0.0
 11
-969.069676176035
 21
-125.766423199461
 31
0.0
  0
ENDBLK
  5
    89
  8
0
  6
CONTINUOUS
 62
     3
  0
BLOCK
  5
    8A
  8
0
  6
CONTINUOUS
 62
     3
  2
*UDIM101
 70
    65
 10
0.0
 20
0.0
 30
0.0
  3
*UDIM101
  0
TEXT
  5
    8B
  8
0
  6
CONTINUOUS
 62
     3
 10
-892.457811325241
 20
-124.495840728523
 30
0.0
 40
2.99999997871263
  1
100
 50
449.999999844103
 41
0.933333333333333
 72
     1
 11
-893.957811304011
 21
-120.595840752125
 31
0.0
 73
     2
  0
LINE
  5
    8C
  8
0
  6
CONTINUOUS
 62
     3
 10
-934.20400390029
 20
-85.3208471536636
 30
0.0
 11
-889.457811314654
 21
-85.3208471536636
 31
0.0
  0
LINE
  5
    8D
  8
0
  6
CONTINUOUS
 62
     3
 10
-916.704004198313
 20
-155.320845961571
 30
0.0
 11
-889.457811314654
 21
-155.320845961571
 31
0.0
  0
LINE
  5
    8E
  8
0
  6
CONTINUOUS
 62
     3
 10
-891.457811314654
 20
-85.3208471536636
 30
0.0
 11
-891.457811314654
 21
-155.320845961571
 31
0.0
  0
LINE
  5
    8F
  8
0
  6
CONTINUOUS
 62
     3
 10
-890.936866532508
 20
-88.2752703687692
 30
0.0
 11
-891.457811314654
 21
-85.3208471536636
 31
0.0
  0
LINE
  5
    90
  8
0
  6
CONTINUOUS
 62
     3
 10
-891.457811314654
 20
-85.3208471536636
 30
0.0
 11
-891.978756096801
 21
-88.2752703687692
 31
0.0
  0
LINE
  5
    91
  8
0
  6
CONTINUOUS
 62
     3
 10
-891.978756096801
 20
-152.366422746465
 30
0.0
 11
-891.457811314654
 21
-155.320845961571
 31
0.0
  0
LINE
  5
    92
  8
0
  6
CONTINUOUS
 62
     3
 10
-891.457811314654
 20
-155.320845961571
 30
0.0
 11
-890.936866532508
 21
-152.366422746465
 31
0.0
  0
ENDBLK
  5
    93
  8
0
  6
CONTINUOUS
 62
     3
  0
BLOCK
  5
    94
  8
0
  6
CONTINUOUS
 62
     3
  2
*UDIM102
 70
    65
 10
0.0
 20
0.0
 30
0.0
  3
*UDIM102
  0
TEXT
  5
    95
  8
0
  6
CONTINUOUS
 62
     3
 10
-884.210575976799
 20
-124.495840728523
 30
0.0
 40
2.99999997871263
  1
102
 50
449.999999844103
 41
0.933333333333333
 72
     1
 11
-885.710575955568
 21
-120.595840752125
 31
0.0
 73
     2
  0
LINE
  5
    96
  8
0
  6
CONTINUOUS
 62
     3
 10
-903.75400441885
 20
-84.6208471655846
 30
0.0
 11
-881.210575966212
 21
-84.6208471655846
 31
0.0
  0
LINE
  5
    97
  8
0
  6
CONTINUOUS
 62
     3
 10
-903.75400441885
 20
-156.02084594965
 30
0.0
 11
-881.210575966212
 21
-156.02084594965
 31
0.0
  0
LINE
  5
    98
  8
0
  6
CONTINUOUS
 62
     3
 10
-883.210575966212
 20
-84.6208471655846
 30
0.0
 11
-883.210575966212
 21
-156.02084594965
 31
0.0
  0
LINE
  5
    99
  8
0
  6
CONTINUOUS
 62
     3
 10
-882.689631184066
 20
-87.5752703806901
 30
0.0
 11
-883.210575966212
 21
-84.6208471655846
 31
0.0
  0
LINE
  5
    9A
  8
0
  6
CONTINUOUS
 62
     3
 10
-883.210575966212
 20
-84.6208471655846
 30
0.0
 11
-883.731520748359
 21
-87.5752703806901
 31
0.0
  0
LINE
  5
    9B
  8
0
  6
CONTINUOUS
 62
     3
 10
-883.731520748359
 20
-153.066422734544
 30
0.0
 11
-883.210575966212
 21
-156.02084594965
 31
0.0
  0
LINE
  5
    9C
  8
0
  6
CONTINUOUS
 62
     3
 10
-883.210575966212
 20
-156.02084594965
 30
0.0
 11
-882.689631184066
 21
-153.066422734544
 31
0.0
  0
ENDBLK
  5
    9D
  8
0
  6
CONTINUOUS
 62
     3
  0
BLOCK
  5
    9E
  8
0
  6
CONTINUOUS
 62
     3
  2
*UDIM103
 70
    65
 10
0.0
 20
0.0
 30
0.0
  3
*UDIM103
  0
TEXT
  5
    9F
  8
0
  6
CONTINUOUS
 62
     3
 10
-936.629005036667
 20
-184.795994208986
 30
0.0
 40
2.99999997871263
  1
25
 50
359.999999844103
 41
0.933333333333333
 72
     1
 11
-934.129005050332
 21
-183.295994226419
 31
0.0
 73
     2
  0
TEXT
  5
    A0
  8
0
  6
CONTINUOUS
 62
     3
 10
-939.429005016799
 20
-188.795994180094
 30
0.0
 40
2.99999997871263
  1
=  =
 50
359.999999844103
 41
0.933333333333333
 72
     1
 11
-934.129005050332
 21
-187.295994205132
 31
0.0
 73
     2
  0
LINE
  5
    A1
  8
0
  6
CONTINUOUS
 62
     3
 10
-942.604003757238
 20
-93.7208470106125
 30
0.0
 11
-942.604033288977
 21
-187.795994215775
 31
0.0
  0
LINE
  5
    A2
  8
0
  6
CONTINUOUS
 62
     3
 10
-925.104004055262
 20
-163.72084581852
 30
0.0
 11
-925.104011612848
 21
-187.795994215775
 31
0.0
  0
LINE
  5
    A3
  8
0
  6
CONTINUOUS
 62
     3
 10
-942.604032661145
 20
-185.795994215775
 30
0.0
 11
-925.104010985015
 21
-185.795994215775
 31
0.0
  0
LINE
  5
    A4
  8
0
  6
CONTINUOUS
 62
     3
 10
-939.649609446039
 20
-185.275049433629
 30
0.0
 11
-942.604032661145
 21
-185.795994215775
 31
0.0
  0
LINE
  5
    A5
  8
0
  6
CONTINUOUS
 62
     3
 10
-942.604032661145
 20
-185.795994215775
 30
0.0
 11
-939.649609446039
 21
-186.316938997922
 31
0.0
  0
LINE
  5
    A6
  8
0
  6
CONTINUOUS
 62
     3
 10
-928.05843420012
 20
-186.316938997922
 30
0.0
 11
-925.104010985015
 21
-185.795994215775
 31
0.0
  0
LINE
  5
    A7
  8
0
  6
CONTINUOUS
 62
     3
 10
-925.104010985015
 20
-185.795994215775
 30
0.0
 11
-928.05843420012
 21
-185.275049433629
 31
0.0
  0
ENDBLK
  5
    A8
  8
0
  6
CONTINUOUS
 62
     3
  0
BLOCK
  5
    A9
  8
0
  6
CONTINUOUS
 62
     7
  2
*UDIM104
 70
    65
 10
0.0
 20
0.0
 30
0.0
  3
*UDIM104
  0
TEXT
  5
    AA
  8
0
  6
CONTINUOUS
 62
     7
 10
-932.700046347771
 20
-143.075815775149
 30
0.0
 40
2.99999997871263
  1
4.5
 50
305.792230274749
 41
0.933333333333333
 72
     1
 11
-929.202425703064
 21
-145.36200246436
 31
0.0
 73
     2
  0
TEXT
  5
    AB
  8
0
  6
CONTINUOUS
 62
     7
 10
-935.039437083216
 20
-139.831243258373
 30
0.0
 40
2.99999997871263
  1
Ø
 50
305.792230274749
 41
1.2
 72
     1
 11
-932.945450868823
 21
-140.170686434872
 31
0.0
 73
     2
  0
TEXT
  5
    AC
  8
0
  6
CONTINUOUS
 62
     7
 10
-941.823670184411
 20
-130.421982953564
 30
0.0
 40
2.99999997871263
  1
M4 o
 50
305.792230274749
 41
0.933333333333333
 72
     1
 11
-937.507262788686
 21
-133.843770025192
 31
0.0
 73
     2
  0
LINE
  5
    AD
  8
0
  6
CONTINUOUS
 62
     7
 10
-925.440291458825
 20
-154.85443868101
 30
0.0
 11
-942.634813328171
 21
-131.006830650942
 31
0.0
  0
LINE
  5
    AE
  8
0
  6
CONTINUOUS
 62
     3
 10
-928.349715484851
 20
-152.146892414886
 30
0.0
 11
-926.025139144476
 21
-154.043295546546
 31
0.0
  0
LINE
  5
    AF
  8
0
  6
CONTINUOUS
 62
     3
 10
-926.025139144476
 20
-154.043295546546
 30
0.0
 11
-927.090079701582
 21
-151.238674073008
 31
0.0
  0
ENDBLK
  5
    B0
  8
0
  6
CONTINUOUS
 62
     7
  0
BLOCK
  5
    B1
  8
0
  6
CONTINUOUS
 62
     7
  2
*HATCH60
 70
    65
 10
0.0
 20
0.0
 30
0.0
  3
*HATCH60
  0
LINE
  5
    B2
  8
0
  6
CONTINUOUS
 62
     7
 10
-54.0224685668945
 20
-126.147354125977
 30
0.0
 11
-55.222469329834
 21
-127.347351074219
 31
0.0
  0
LINE
  5
    B3
  8
0
  6
CONTINUOUS
 62
     7
 10
-49.7798271179199
 20
-126.147354125977
 30
0.0
 11
-50.9798278808594
 21
-127.347351074219
 31
0.0
  0
LINE
  5
    B4
  8
0
  6
CONTINUOUS
 62
     7
 10
-45.5371856689453
 20
-126.147354125977
 30
0.0
 11
-46.7371864318848
 21
-127.347351074219
 31
0.0
  0
LINE
  5
    B5
  8
0
  6
CONTINUOUS
 62
     7
 10
-41.2945442199707
 20
-126.147354125977
 30
0.0
 11
-42.4945449829102
 21
-127.347351074219
 31
0.0
  0
ENDBLK
  5
    B6
  8
0
  6
CONTINUOUS
 62
     7
  0
BLOCK
  5
    B7
  8
0
  6
CONTINUOUS
 62
     7
  2
*HATCH61
 70
    65
 10
0.0
 20
0.0
 30
0.0
  3
*HATCH61
  0
LINE
  5
    B8
  8
0
  6
CONTINUOUS
 62
     7
 10
-32.8092651367188
 20
-126.147354125977
 30
0.0
 11
-33.4999885559082
 21
-126.838081359863
 31
0.0
  0
LINE
  5
    B9
  8
0
  6
CONTINUOUS
 62
     7
 10
-28.8601341247559
 20
-126.440864562988
 30
0.0
 11
-29.9207935333252
 21
-127.501525878906
 31
0.0
  0
ENDBLK
  5
    BA
  8
0
  6
CONTINUOUS
 62
     7
  0
BLOCK
  5
    BB
  8
0
  6
CONTINUOUS
 62
     7
  2
*HATCH62
 70
    65
 10
0.0
 20
0.0
 30
0.0
  3
*HATCH62
  0
LINE
  5
    BC
  8
0
  6
CONTINUOUS
 62
     7
 10
-24.3239727020264
 20
-126.147346496582
 30
0.0
 11
-25.523983001709
 21
-127.347351074219
 31
0.0
  0
LINE
  5
    BD
  8
0
  6
CONTINUOUS
 62
     7
 10
-20.2998905181885
 20
-126.365905761719
 30
0.0
 11
-21.2813415527344
 21
-127.347351074219
 31
0.0
  0
LINE
  5
    BE
  8
0
  6
CONTINUOUS
 62
     7
 10
-17.6101741790771
 20
-127.918830871582
 30
0.0
 11
-18.4886226654053
 21
-128.797271728516
 31
0.0
  0
ENDBLK
  5
    BF
  8
0
  6
CONTINUOUS
 62
     7
  0
BLOCK
  5
    C0
  8
0
  6
CONTINUOUS
 62
     3
  2
*HATCH63
 70
    65
 10
0.0
 20
0.0
 30
0.0
  3
*HATCH63
  0
LINE
  5
    C1
  8
0
  6
CONTINUOUS
 62
   210
 10
-47.4999885559082
 20
134.474243164063
 30
0.0
 11
-47.2185554504395
 21
134.192794799805
 31
0.0
  0
ENDBLK
  5
    C2
  8
0
  6
CONTINUOUS
 62
     3
  0
BLOCK
  5
    C3
  8
0
  6
CONTINUOUS
 62
     7
  2
*HATCH64
 70
    65
 10
0.0
 20
0.0
 30
0.0
  3
*HATCH64
  0
LINE
  5
    C4
  8
0
  6
CONTINUOUS
 62
     7
 10
-58.6862373352051
 20
-123.747352600098
 30
0.0
 11
-57.4862442016602
 21
-124.94734954834
 31
0.0
  0
LINE
  5
    C5
  8
0
  6
CONTINUOUS
 62
     7
 10
-54.4435997009277
 20
-123.747352600098
 30
0.0
 11
-53.2436141967773
 21
-124.947341918945
 31
0.0
  0
LINE
  5
    C6
  8
0
  6
CONTINUOUS
 62
     7
 10
-50.2009620666504
 20
-123.747352600098
 30
0.0
 11
-47.9009628295898
 21
-126.047355651855
 31
0.0
  0
ENDBLK
  5
    C7
  8
0
  6
CONTINUOUS
 62
     7
  0
BLOCK
  5
    C8
  8
0
  6
CONTINUOUS
 62
     7
  2
*HATCH65
 70
    65
 10
0.0
 20
0.0
 30
0.0
  3
*HATCH65
  0
LINE
  5
    C9
  8
0
  6
CONTINUOUS
 62
     7
 10
-48.6999855041504
 20
-129.490966796875
 30
0.0
 11
-47.4999885559082
 21
-130.690979003906
 31
0.0
  0
ENDBLK
  5
    CA
  8
0
  6
CONTINUOUS
 62
     7
  0
BLOCK
  5
    CB
  8
0
  6
CONTINUOUS
 62
     7
  2
*HATCH66
 70
    65
 10
0.0
 20
0.0
 30
0.0
  3
*HATCH66
  0
LINE
  5
    CC
  8
0
  6
CONTINUOUS
 62
     7
 10
-27.4999885559082
 20
-129.477783203125
 30
0.0
 11
-26.299991607666
 21
-130.677780151367
 31
0.0
  0
ENDBLK
  5
    CD
  8
0
  6
CONTINUOUS
 62
     7
  0
BLOCK
  5
    CE
  8
0
  6
CONTINUOUS
 62
     7
  2
*HATCH67
 70
    65
 10
0.0
 20
0.0
 30
0.0
  3
*HATCH67
  0
LINE
  5
    CF
  8
0
  6
CONTINUOUS
 62
     7
 10
-27.349479675293
 20
-125.385643005371
 30
0.0
 11
-26.6877727508545
 21
-126.047355651855
 31
0.0
  0
LINE
  5
    D0
  8
0
  6
CONTINUOUS
 62
     7
 10
-24.7451324462891
 20
-123.747352600098
 30
0.0
 11
-23.5451335906982
 21
-124.94734954834
 31
0.0
  0
LINE
  5
    D1
  8
0
  6
CONTINUOUS
 62
     7
 10
-20.5024948120117
 20
-123.747352600098
 30
0.0
 11
-19.3024959564209
 21
-124.94734954834
 31
0.0
  0
LINE
  5
    D2
  8
0
  6
CONTINUOUS
 62
     7
 10
-16.2598571777344
 20
-123.747352600098
 30
0.0
 11
-15.0598583221436
 21
-124.94734954834
 31
0.0
  0
LINE
  5
    D3
  8
0
  6
CONTINUOUS
 62
     7
 10
-12.017219543457
 20
-123.747352600098
 30
0.0
 11
-10.8172206878662
 21
-124.94734954834
 31
0.0
  0
LINE
  5
    D4
  8
0
  6
CONTINUOUS
 62
     7
 10
-7.77458143234253
 20
-123.747352600098
 30
0.0
 11
-6.57458257675171
 21
-124.94734954834
 31
0.0
  0
ENDBLK
  5
    D5
  8
0
  6
CONTINUOUS
 62
     7
  0
BLOCK
  5
    D6
  8
0
  6
CONTINUOUS
 62
     7
  2
*HATCH68
 70
    65
 10
0.0
 20
0.0
 30
0.0
  3
*HATCH68
  0
LINE
  5
    D7
  8
0
  6
CONTINUOUS
 62
    52
 10
-50.3687210083008
 20
-48.2473983764648
 30
0.0
 11
-50.5000152587891
 21
-48.3786926269531
 31
0.0
  0
LINE
  5
    D8
  8
0
  6
CONTINUOUS
 62
    52
 10
-48.2474021911621
 20
-48.2473983764648
 30
0.0
 11
-50.5000152587891
 21
-50.5000114440918
 31
0.0
  0
LINE
  5
    D9
  8
0
  6
CONTINUOUS
 62
    52
 10
-46.1260833740234
 20
-48.2473983764648
 30
0.0
 11
-49.1260833740234
 21
-51.2473983764648
 31
0.0
  0
LINE
  5
    DA
  8
0
  6
CONTINUOUS
 62
    52
 10
-44.0047645568848
 20
-48.2473983764648
 30
0.0
 11
-47.0047645568848
 21
-51.2473983764648
 31
0.0
  0
LINE
  5
    DB
  8
0
  6
CONTINUOUS
 62
    52
 10
-41.8834457397461
 20
-48.2473983764648
 30
0.0
 11
-44.8834457397461
 21
-51.2473983764648
 31
0.0
  0
LINE
  5
    DC
  8
0
  6
CONTINUOUS
 62
    52
 10
-39.7621269226074
 20
-48.2473983764648
 30
0.0
 11
-42.7621269226074
 21
-51.2473983764648
 31
0.0
  0
LINE
  5
    DD
  8
0
  6
CONTINUOUS
 62
    52
 10
-37.6408081054688
 20
-48.2473983764648
 30
0.0
 11
-40.6408081054688
 21
-51.2473983764648
 31
0.0
  0
LINE
  5
    DE
  8
0
  6
CONTINUOUS
 62
    52
 10
-35.5194892883301
 20
-48.2473983764648
 30
0.0
 11
-38.5194892883301
 21
-51.2473983764648
 31
0.0
  0
LINE
  5
    DF
  8
0
  6
CONTINUOUS
 62
    52
 10
-33.3981704711914
 20
-48.2473983764648
 30
0.0
 11
-36.3981704711914
 21
-51.2473983764648
 31
0.0
  0
LINE
  5
    E0
  8
0
  6
CONTINUOUS
 62
    52
 10
-31.2768497467041
 20
-48.2473983764648
 30
0.0
 11
-34.2768516540527
 21
-51.2473983764648
 31
0.0
  0
LINE
  5
    E1
  8
0
  6
CONTINUOUS
 62
    52
 10
-29.1555290222168
 20
-48.2473983764648
 30
0.0
 11
-32.1555328369141
 21
-51.2473983764648
 31
0.0
  0
LINE
  5
    E2
  8
0
  6
CONTINUOUS
 62
    52
 10
-27.0342082977295
 20
-48.2473983764648
 30
0.0
 11
-30.0342121124268
 21
-51.2473983764648
 31
0.0
  0
LINE
  5
    E3
  8
0
  6
CONTINUOUS
 62
    52
 10
-26.0000152587891
 20
-49.3345375061035
 30
0.0
 11
-27.912878036499
 21
-51.2473983764648
 31
0.0
  0
LINE
  5
    E4
  8
0
  6
CONTINUOUS
 62
    52
 10
-26.0000152587891
 20
-51.4558563232422
 30
0.0
 11
-27.2915573120117
 21
-52.7473983764648
 31
0.0
  0
ENDBLK
  5
    E5
  8
0
  6
CONTINUOUS
 62
     7
  0
BLOCK
  5
    E6
  8
0
  6
CONTINUOUS
 62
     7
  2
*HATCH69
 70
    65
 10
0.0
 20
0.0
 30
0.0
  3
*HATCH69
  0
LINE
  5
    E7
  8
0
  6
CONTINUOUS
 62
    52
 10
21.7561721801758
 20
-48.2473983764648
 30
0.0
 11
20.9999847412109
 21
-49.0035858154297
 31
0.0
  0
LINE
  5
    E8
  8
0
  6
CONTINUOUS
 62
    52
 10
23.8774929046631
 20
-48.2473983764648
 30
0.0
 11
20.9999847412109
 21
-51.1249046325684
 31
0.0
  0
LINE
  5
    E9
  8
0
  6
CONTINUOUS
 62
    52
 10
25.9988136291504
 20
-48.2473983764648
 30
0.0
 11
22.9988117218018
 21
-51.2473983764648
 31
0.0
  0
LINE
  5
    EA
  8
0
  6
CONTINUOUS
 62
    52
 10
22.4999847412109
 20
-51.7462272644043
 30
0.0
 11
21.4988117218018
 21
-52.7473983764648
 31
0.0
  0
LINE
  5
    EB
  8
0
  6
CONTINUOUS
 62
    52
 10
28.1201324462891
 20
-48.2473983764648
 30
0.0
 11
25.1201324462891
 21
-51.2473983764648
 31
0.0
  0
LINE
  5
    EC
  8
0
  6
CONTINUOUS
 62
    52
 10
30.2414531707764
 20
-48.2473983764648
 30
0.0
 11
27.2414531707764
 21
-51.2473983764648
 31
0.0
  0
LINE
  5
    ED
  8
0
  6
CONTINUOUS
 62
    52
 10
32.3627738952637
 20
-48.2473983764648
 30
0.0
 11
29.3627738952637
 21
-51.2473983764648
 31
0.0
  0
LINE
  5
    EE
  8
0
  6
CONTINUOUS
 62
    52
 10
34.4840927124023
 20
-48.2473983764648
 30
0.0
 11
31.484094619751
 21
-51.2473983764648
 31
0.0
  0
LINE
  5
    EF
  8
0
  6
CONTINUOUS
 62
    52
 10
36.605411529541
 20
-48.2473983764648
 30
0.0
 11
33.6054153442383
 21
-51.2473983764648
 31
0.0
  0
LINE
  5
    F0
  8
0
  6
CONTINUOUS
 62
    52
 10
38.7267303466797
 20
-48.2473983764648
 30
0.0
 11
35.726734161377
 21
-51.2473983764648
 31
0.0
  0
LINE
  5
    F1
  8
0
  6
CONTINUOUS
 62
    52
 10
40.8480491638184
 20
-48.2473983764648
 30
0.0
 11
37.8480529785156
 21
-51.2473983764648
 31
0.0
  0
LINE
  5
    F2
  8
0
  6
CONTINUOUS
 62
    52
 10
42.969367980957
 20
-48.2473983764648
 30
0.0
 11
39.9693717956543
 21
-51.2473983764648
 31
0.0
  0
LINE
  5
    F3
  8
0
  6
CONTINUOUS
 62
    52
 10
45.0906867980957
 20
-48.2473983764648
 30
0.0
 11
42.090690612793
 21
-51.2473983764648
 31
0.0
  0
LINE
  5
    F4
  8
0
  6
CONTINUOUS
 62
    52
 10
45.4999847412109
 20
-49.9594306945801
 30
0.0
 11
44.2120170593262
 21
-51.2473983764648
 31
0.0
  0
ENDBLK
  5
    F5
  8
0
  6
CONTINUOUS
 62
     7
  0
BLOCK
  5
    F6
  8
0
  6
CONTINUOUS
 62
     7
  2
*HATCH70
 70
    65
 10
0.0
 20
0.0
 30
0.0
  3
*HATCH70
  0
LINE
  5
    F7
  8
0
  6
CONTINUOUS
 62
     7
 10
-106.241592407227
 20
-116.848182678223
 30
0.0
 11
-107.154991149902
 21
-117.761581420898
 31
0.0
  0
LINE
  5
    F8
  8
0
  6
CONTINUOUS
 62
     7
 10
-105.625328063965
 20
-116.656181335449
 30
0.0
 11
-107.359191894531
 21
-118.390045166016
 31
0.0
  0
LINE
  5
    F9
  8
0
  6
CONTINUOUS
 62
     7
 10
-105.201065063477
 20
-116.656181335449
 30
0.0
 11
-107.404304504395
 21
-118.859420776367
 31
0.0
  0
LINE
  5
    FA
  8
0
  6
CONTINUOUS
 62
     7
 10
-104.776802062988
 20
-116.656181335449
 30
0.0
 11
-107.300262451172
 21
-119.179641723633
 31
0.0
  0
LINE
  5
    FB
  8
0
  6
CONTINUOUS
 62
     7
 10
-104.478958129883
 20
-116.782608032227
 30
0.0
 11
-107.196212768555
 21
-119.499862670898
 31
0.0
  0
LINE
  5
    FC
  8
0
  6
CONTINUOUS
 62
     7
 10
-104.23323059082
 20
-116.961143493652
 30
0.0
 11
-107.092170715332
 21
-119.820083618164
 31
0.0
  0
LINE
  5
    FD
  8
0
  6
CONTINUOUS
 62
     7
 10
-103.987495422363
 20
-117.139671325684
 30
0.0
 11
-106.905563354492
 21
-120.057739257813
 31
0.0
  0
LINE
  5
    FE
  8
0
  6
CONTINUOUS
 62
     7
 10
-103.741767883301
 20
-117.318206787109
 30
0.0
 11
-106.65983581543
 21
-120.236274719238
 31
0.0
  0
LINE
  5
    FF
  8
0
  6
CONTINUOUS
 62
     7
 10
-103.545333862305
 20
-117.546035766602
 30
0.0
 11
-106.414100646973
 21
-120.41480255127
 31
0.0
  0
LINE
  5
   100
  8
0
  6
CONTINUOUS
 62
     7
 10
-103.441291809082
 20
-117.866256713867
 30
0.0
 11
-106.16837310791
 21
-120.593338012695
 31
0.0
  0
LINE
  5
   101
  8
0
  6
CONTINUOUS
 62
     7
 10
-103.337242126465
 20
-118.186477661133
 30
0.0
 11
-105.882904052734
 21
-120.732139587402
 31
0.0
  0
LINE
  5
   102
  8
0
  6
CONTINUOUS
 62
     7
 10
-103.233200073242
 20
-118.506698608398
 30
0.0
 11
-105.458641052246
 21
-120.732139587402
 31
0.0
  0
LINE
  5
   103
  8
0
  6
CONTINUOUS
 62
     7
 10
-103.256942749023
 20
-118.954704284668
 30
0.0
 11
-105.034378051758
 21
-120.732139587402
 31
0.0
  0
LINE
  5
   104
  8
0
  6
CONTINUOUS
 62
     7
 10
-103.461143493652
 20
-119.583168029785
 30
0.0
 11
-104.49626159668
 21
-120.618286132813
 31
0.0
  0
ENDBLK
  5
   105
  8
0
  6
CONTINUOUS
 62
     7
  0
BLOCK
  5
   106
  8
0
  6
CONTINUOUS
 62
     7
  2
*HATCH71
 70
    65
 10
0.0
 20
0.0
 30
0.0
  3
*HATCH71
  0
LINE
  5
   107
  8
0
  6
CONTINUOUS
 62
     7
 10
-89.8712997436524
 20
-91.1440887451172
 30
0.0
 11
-90.4581832885742
 21
-91.7309722900391
 31
0.0
  0
LINE
  5
   108
  8
0
  6
CONTINUOUS
 62
     7
 10
-89.0454025268555
 20
-90.7424545288086
 30
0.0
 11
-90.6623840332031
 21
-92.3594360351563
 31
0.0
  0
LINE
  5
   109
  8
0
  6
CONTINUOUS
 62
     7
 10
-88.6211395263672
 20
-90.7424545288086
 30
0.0
 11
-90.7648315429688
 21
-92.8861389160156
 31
0.0
  0
LINE
  5
   10A
  8
0
  6
CONTINUOUS
 62
     7
 10
-88.1968765258789
 20
-90.7424545288086
 30
0.0
 11
-90.6607894897461
 21
-93.2063598632813
 31
0.0
  0
LINE
  5
   10B
  8
0
  6
CONTINUOUS
 62
     7
 10
-87.8658294677734
 20
-90.8356704711914
 30
0.0
 11
-90.5567398071289
 21
-93.5265808105469
 31
0.0
  0
LINE
  5
   10C
  8
0
  6
CONTINUOUS
 62
     7
 10
-87.6201019287109
 20
-91.0142059326172
 30
0.0
 11
-90.4526977539063
 21
-93.8468017578125
 31
0.0
  0
LINE
  5
   10D
  8
0
  6
CONTINUOUS
 62
     7
 10
-87.3743743896484
 20
-91.192741394043
 30
0.0
 11
-90.2924346923828
 21
-94.1108016967774
 31
0.0
  0
LINE
  5
   10E
  8
0
  6
CONTINUOUS
 62
     7
 10
-87.1286468505859
 20
-91.3712768554688
 30
0.0
 11
-90.0467071533203
 21
-94.2893371582031
 31
0.0
  0
LINE
  5
   10F
  8
0
  6
CONTINUOUS
 62
     7
 10
-86.9058609008789
 20
-91.57275390625
 30
0.0
 11
-89.8009719848633
 21
-94.4678726196289
 31
0.0
  0
LINE
  5
   110
  8
0
  6
CONTINUOUS
 62
     7
 10
-86.8018188476563
 20
-91.8929748535156
 30
0.0
 11
-89.5552444458008
 21
-94.6464080810547
 31
0.0
  0
LINE
  5
   111
  8
0
  6
CONTINUOUS
 62
     7
 10
-86.6977691650391
 20
-92.2131958007813
 30
0.0
 11
-89.3029861450195
 21
-94.8184051513672
 31
0.0
  0
LINE
  5
   112
  8
0
  6
CONTINUOUS
 62
     7
 10
-86.5937271118164
 20
-92.5334167480469
 30
0.0
 11
-88.8787231445312
 21
-94.8184051513672
 31
0.0
  0
LINE
  5
   113
  8
0
  6
CONTINUOUS
 62
     7
 10
-86.5601425170899
 20
-92.9240951538086
 30
0.0
 11
-88.4544525146484
 21
-94.8184051513672
 31
0.0
  0
LINE
  5
   114
  8
0
  6
CONTINUOUS
 62
     7
 10
-86.7643432617188
 20
-93.5525588989258
 30
0.0
 11
-88.0301895141602
 21
-94.8184051513672
 31
0.0
  0
ENDBLK
  5
   115
  8
0
  6
CONTINUOUS
 62
     7
  0
BLOCK
  5
   116
  8
0
  6
CONTINUOUS
 62
     3
  2
*UDIM105
 70
    65
 10
0.0
 20
0.0
 30
0.0
  3
*UDIM105
  0
TEXT
  5
   117
  8
0
  6
CONTINUOUS
 62
     3
 10
-775.972544654965
 20
63.5872403481725
 30
0.0
 40
2.99999997871263
  1
71
 50
359.999999844103
 41
0.933333333333333
 72
     1
 11
-773.472544668631
 21
65.0872403307391
 31
0.0
 73
     2
  0
LINE
  5
   118
  8
0
  6
CONTINUOUS
 62
     3
 10
-800.536902862788
 20
52.6167532801628
 30
0.0
 11
-800.536902862788
 21
64.5872403413828
 31
0.0
  0
LINE
  5
   119
  8
0
  6
CONTINUOUS
 62
     3
 10
-800.536902862788
 20
62.5872403413828
 30
0.0
 11
-750.836935558946
 21
62.5872403413828
 31
0.0
  0
LINE
  5
   11A
  8
0
  6
CONTINUOUS
 62
     3
 10
-797.582479647682
 20
63.1081851235291
 30
0.0
 11
-800.536902862788
 21
62.5872403413828
 31
0.0
  0
LINE
  5
   11B
  8
0
  6
CONTINUOUS
 62
     3
 10
-800.536902862788
 20
62.5872403413828
 30
0.0
 11
-797.582479647682
 21
62.0662955592364
 31
0.0
  0
LINE
  5
   11C
  8
0
  6
CONTINUOUS
 62
     3
 10
-753.791358774052
 20
62.0662955592364
 30
0.0
 11
-750.836935558946
 21
62.5872403413828
 31
0.0
  0
LINE
  5
   11D
  8
0
  6
CONTINUOUS
 62
     3
 10
-750.836935558946
 20
62.5872403413828
 30
0.0
 11
-753.791358774052
 21
63.1081851235291
 31
0.0
  0
ENDBLK
  5
   11E
  8
0
  6
CONTINUOUS
 62
     3
  0
BLOCK
  5
   11F
  8
0
  6
CONTINUOUS
 62
     3
  2
*UDIM106
 70
    65
 10
0.0
 20
0.0
 30
0.0
  3
*UDIM106
  0
TEXT
  5
   120
  8
0
  6
CONTINUOUS
 62
     3
 10
-872.088940815355
 20
8.54176781749272
 30
0.0
 40
2.99999997871263
  1
102
 50
449.999999844103
 41
0.933333333333333
 72
     1
 11
-873.588940794124
 21
12.4417677938911
 31
0.0
 73
     2
  0
LINE
  5
   121
  8
0
  6
CONTINUOUS
 62
     3
 10
-847.120962299898
 20
48.4318596779457
 30
0.0
 11
-873.088940804768
 21
48.4318596779457
 31
0.0
  0
LINE
  5
   122
  8
0
  6
CONTINUOUS
 62
     3
 10
-847.459437725377
 20
-22.998330396335
 30
0.0
 11
-873.088940804768
 21
-22.998330396335
 31
0.0
  0
LINE
  5
   123
  8
0
  6
CONTINUOUS
 62
     3
 10
-871.088940804768
 20
48.4318596779457
 30
0.0
 11
-871.088940804768
 21
-22.998330396335
 31
0.0
  0
LINE
  5
   124
  8
0
  6
CONTINUOUS
 62
     3
 10
-870.567996022622
 20
45.4774364628402
 30
0.0
 11
-871.088940804768
 21
48.4318596779457
 31
0.0
  0
LINE
  5
   125
  8
0
  6
CONTINUOUS
 62
     3
 10
-871.088940804768
 20
48.4318596779457
 30
0.0
 11
-871.609885586914
 21
45.4774364628402
 31
0.0
  0
LINE
  5
   126
  8
0
  6
CONTINUOUS
 62
     3
 10
-871.609885586914
 20
-20.0439071812294
 30
0.0
 11
-871.088940804768
 21
-22.998330396335
 31
0.0
  0
LINE
  5
   127
  8
0
  6
CONTINUOUS
 62
     3
 10
-871.088940804768
 20
-22.998330396335
 30
0.0
 11
-870.567996022622
 21
-20.0439071812294
 31
0.0
  0
ENDBLK
  5
   128
  8
0
  6
CONTINUOUS
 62
     3
  0
BLOCK
  5
   129
  8
0
  6
CONTINUOUS
 62
     3
  2
*UDIM107
 70
    65
 10
0.0
 20
0.0
 30
0.0
  3
*UDIM107
  0
TEXT
  5
   12A
  8
0
  6
CONTINUOUS
 62
     3
 10
-861.661017405157
 20
-12.1157773298047
 30
0.0
 40
2.99999997871263
  1
39
 50
449.999999844103
 41
0.933333333333333
 72
     1
 11
-863.161017387726
 21
-9.61577734347224
 31
0.0
 73
     2
  0
LINE
  5
   12B
  8
0
  6
CONTINUOUS
 62
     3
 10
-828.026285793264
 20
4.31677548289284
 30
0.0
 11
-862.66101739837
 21
4.31677548289284
 31
0.0
  0
LINE
  5
   12C
  8
0
  6
CONTINUOUS
 62
     3
 10
-847.459437725377
 20
-22.998330396335
 30
0.0
 11
-862.66101739837
 21
-22.998330396335
 31
0.0
  0
LINE
  5
   12D
  8
0
  6
CONTINUOUS
 62
     3
 10
-860.66101739837
 20
4.31677548289284
 30
0.0
 11
-860.66101739837
 21
-22.998330396335
 31
0.0
  0
LINE
  5
   12E
  8
0
  6
CONTINUOUS
 62
     3
 10
-860.140072616224
 20
1.36235226778732
 30
0.0
 11
-860.66101739837
 21
4.31677548289284
 31
0.0
  0
LINE
  5
   12F
  8
0
  6
CONTINUOUS
 62
     3
 10
-860.66101739837
 20
4.31677548289284
 30
0.0
 11
-861.181962180516
 21
1.36235226778732
 31
0.0
  0
LINE
  5
   130
  8
0
  6
CONTINUOUS
 62
     3
 10
-861.181962180516
 20
-20.0439071812294
 30
0.0
 11
-860.66101739837
 21
-22.998330396335
 31
0.0
  0
LINE
  5
   131
  8
0
  6
CONTINUOUS
 62
     3
 10
-860.66101739837
 20
-22.998330396335
 30
0.0
 11
-860.140072616224
 21
-20.0439071812294
 31
0.0
  0
ENDBLK
  5
   132
  8
0
  6
CONTINUOUS
 62
     3
  0
BLOCK
  5
   133
  8
0
  6
CONTINUOUS
 62
     7
  2
*UDIM108
 70
    65
 10
0.0
 20
0.0
 30
0.0
  3
*UDIM108
  0
TEXT
  5
   134
  8
0
  6
CONTINUOUS
 62
     7
 10
-824.948199622746
 20
-2.55823933805015
 30
0.0
 40
2.99999997871263
  1
=
 50
449.999999844103
 41
0.933333333333333
 72
     1
 11
-826.448199609116
 21
-1.45823934178357
 31
0.0
 73
     2
  0
LINE
  5
   135
  8
0
  6
CONTINUOUS
 62
     3
 10
-807.600431721773
 20
4.31676478385652
 30
0.0
 11
-825.948200124627
 21
4.31676478385652
 31
0.0
  0
LINE
  5
   136
  8
0
  6
CONTINUOUS
 62
     3
 10
-804.336902147532
 20
-7.23324303030971
 30
0.0
 11
-825.948199114893
 21
-7.23324303030971
 31
0.0
  0
LINE
  5
   137
  8
0
  6
CONTINUOUS
 62
     3
 10
-823.948200124626
 20
4.31676478385652
 30
0.0
 11
-823.948199114893
 21
-7.23324303030971
 31
0.0
  0
LINE
  5
   138
  8
0
  6
CONTINUOUS
 62
     3
 10
-823.427255084196
 20
1.36234161429345
 30
0.0
 11
-823.948200124626
 21
4.31676478385652
 31
0.0
  0
LINE
  5
   139
  8
0
  6
CONTINUOUS
 62
     3
 10
-823.948200124626
 20
4.31676478385652
 30
0.0
 11
-824.469144648489
 21
1.36234152320855
 31
0.0
  0
LINE
  5
   13A
  8
0
  6
CONTINUOUS
 62
     3
 10
-824.469144155323
 20
-4.27881986074664
 30
0.0
 11
-823.948199114893
 21
-7.23324303030971
 31
0.0
  0
LINE
  5
   13B
  8
0
  6
CONTINUOUS
 62
     3
 10
-823.948199114893
 20
-7.23324303030971
 30
0.0
 11
-823.42725459103
 21
-4.27881976966174
 31
0.0
  0
ENDBLK
  5
   13C
  8
0
  6
CONTINUOUS
 62
     7
  0
BLOCK
  5
   13D
  8
0
  6
CONTINUOUS
 62
     7
  2
*UDIM109
 70
    65
 10
0.0
 20
0.0
 30
0.0
  3
*UDIM109
  0
TEXT
  5
   13E
  8
0
  6
CONTINUOUS
 62
     7
 10
-824.948200708974
 20
9.86676045035336
 30
0.0
 40
2.99999997871263
  1
=
 50
449.999999844103
 41
0.933333333333333
 72
     1
 11
-826.448200695344
 21
10.9667604466199
 31
0.0
 73
     2
  0
LINE
  5
   13F
  8
0
  6
CONTINUOUS
 62
     3
 10
-804.336902147532
 20
17.6167565464973
 30
0.0
 11
-825.948201287349
 21
17.6167565464973
 31
0.0
  0
LINE
  5
   140
  8
0
  6
CONTINUOUS
 62
     3
 10
-823.948201287349
 20
17.6167565464973
 30
0.0
 11
-823.948200124626
 21
4.31676478385652
 31
0.0
  0
LINE
  5
   141
  8
0
  6
CONTINUOUS
 62
     3
 10
-823.427256246919
 20
14.6623333769342
 30
0.0
 11
-823.948201287349
 21
17.6167565464973
 31
0.0
  0
LINE
  5
   142
  8
0
  6
CONTINUOUS
 62
     3
 10
-823.948201287349
 20
17.6167565464973
 30
0.0
 11
-824.469145811211
 21
14.6623332858493
 31
0.0
  0
LINE
  5
   143
  8
0
  6
CONTINUOUS
 62
     3
 10
-824.469145165057
 20
7.27118795341959
 30
0.0
 11
-823.948200124626
 21
4.31676478385652
 31
0.0
  0
LINE
  5
   144
  8
0
  6
CONTINUOUS
 62
     3
 10
-823.948200124626
 20
4.31676478385652
 30
0.0
 11
-823.427255600764
 21
7.27118804450448
 31
0.0
  0
ENDBLK
  5
   145
  8
0
  6
CONTINUOUS
 62
     7
  0
BLOCK
  5
   146
  8
0
  6
CONTINUOUS
 62
     3
  2
*UDIM110
 70
    65
 10
0.0
 20
0.0
 30
0.0
  3
*UDIM110
  0
TEXT
  5
   147
  8
0
  6
CONTINUOUS
 62
     3
 10
-807.773035987461
 20
-38.8073845376387
 30
0.0
 40
2.99999997871263
  1
3
 50
359.999999844103
 41
0.933333333333333
 72
     1
 11
-806.673035991192
 21
-37.3073845512699
 31
0.0
 73
     2
  0
LINE
  5
   148
  8
0
  6
CONTINUOUS
 62
     3
 10
-802.636902159453
 20
-7.23324303030971
 30
0.0
 11
-802.636902159453
 21
-41.8073845406262
 31
0.0
  0
LINE
  5
   149
  8
0
  6
CONTINUOUS
 62
     3
 10
-800.536902862788
 20
-25.783234703541
 30
0.0
 11
-800.536902862788
 21
-41.8073845406262
 31
0.0
  0
LINE
  5
   14A
  8
0
  6
CONTINUOUS
 62
     3
 10
-807.773035983387
 20
-39.8073845406262
 30
0.0
 11
-800.536902862788
 21
-39.8073845406262
 31
0.0
  0
LINE
  5
   14B
  8
0
  6
CONTINUOUS
 62
     3
 10
-805.591325374558
 20
-40.3283293227725
 30
0.0
 11
-802.636902159453
 21
-39.8073845406262
 31
0.0
  0
LINE
  5
   14C
  8
0
  6
CONTINUOUS
 62
     3
 10
-802.636902159453
 20
-39.8073845406262
 30
0.0
 11
-805.591325374558
 21
-39.2864397584798
 31
0.0
  0
LINE
  5
   14D
  8
0
  6
CONTINUOUS
 62
     3
 10
-797.582479647682
 20
-39.2864397584798
 30
0.0
 11
-800.536902862788
 21
-39.8073845406262
 31
0.0
  0
LINE
  5
   14E
  8
0
  6
CONTINUOUS
 62
     3
 10
-800.536902862788
 20
-39.8073845406262
 30
0.0
 11
-797.582479647682
 21
-40.3283293227725
 31
0.0
  0
ENDBLK
  5
   14F
  8
0
  6
CONTINUOUS
 62
     3
  0
BLOCK
  5
   150
  8
0
  6
CONTINUOUS
 62
     3
  2
*UDIM111
 70
    65
 10
0.0
 20
0.0
 30
0.0
  3
*UDIM111
  0
TEXT
  5
   151
  8
0
  6
CONTINUOUS
 62
     3
 10
-776.711936636046
 20
-55.87289097925
 30
0.0
 40
2.99999997871263
  1
75
 50
359.999999844103
 41
0.933333333333333
 72
     1
 11
-774.211936649711
 21
-54.3728909966834
 31
0.0
 73
     2
  0
LINE
  5
   152
  8
0
  6
CONTINUOUS
 62
     3
 10
-800.186930713089
 20
-30.6832239210505
 30
0.0
 11
-800.186930713089
 21
-58.8728909860397
 31
0.0
  0
LINE
  5
   153
  8
0
  6
CONTINUOUS
 62
     3
 10
-747.686940786274
 20
-11.4332242488863
 30
0.0
 11
-747.686940786274
 21
-58.8728909860397
 31
0.0
  0
LINE
  5
   154
  8
0
  6
CONTINUOUS
 62
     3
 10
-800.186930713089
 20
-56.8728909860397
 30
0.0
 11
-747.686940786274
 21
-56.8728909860397
 31
0.0
  0
LINE
  5
   155
  8
0
  6
CONTINUOUS
 62
     3
 10
-797.232507497983
 20
-56.3519462038933
 30
0.0
 11
-800.186930713089
 21
-56.8728909860397
 31
0.0
  0
LINE
  5
   156
  8
0
  6
CONTINUOUS
 62
     3
 10
-800.186930713089
 20
-56.8728909860397
 30
0.0
 11
-797.232507497983
 21
-57.3938357681861
 31
0.0
  0
LINE
  5
   157
  8
0
  6
CONTINUOUS
 62
     3
 10
-750.641364001379
 20
-57.3938357681861
 30
0.0
 11
-747.686940786274
 21
-56.8728909860397
 31
0.0
  0
LINE
  5
   158
  8
0
  6
CONTINUOUS
 62
     3
 10
-747.686940786274
 20
-56.8728909860397
 30
0.0
 11
-750.641364001379
 21
-56.3519462038933
 31
0.0
  0
ENDBLK
  5
   159
  8
0
  6
CONTINUOUS
 62
     3
  0
BLOCK
  5
   15A
  8
0
  6
CONTINUOUS
 62
     3
  2
*UDIM112
 70
    65
 10
0.0
 20
0.0
 30
0.0
  3
*UDIM112
  0
TEXT
  5
   15B
  8
0
  6
CONTINUOUS
 62
     3
 10
-771.111931396797
 20
-63.3782482122744
 30
0.0
 40
2.99999997871263
  1
91
 50
359.999999844103
 41
0.933333333333333
 72
     1
 11
-768.611931410463
 21
-61.8782482297078
 31
0.0
 73
     2
  0
LINE
  5
   15C
  8
0
  6
CONTINUOUS
 62
     3
 10
-800.186930713089
 20
-30.6832239210505
 30
0.0
 11
-800.186930713089
 21
-66.3782482190641
 31
0.0
  0
LINE
  5
   15D
  8
0
  6
CONTINUOUS
 62
     3
 10
-736.486931797893
 20
-3.68293570921741
 30
0.0
 11
-736.486931797893
 21
-66.3782482190641
 31
0.0
  0
LINE
  5
   15E
  8
0
  6
CONTINUOUS
 62
     3
 10
-800.186930713089
 20
-64.3782482190641
 30
0.0
 11
-736.486931797893
 21
-64.3782482190641
 31
0.0
  0
LINE
  5
   15F
  8
0
  6
CONTINUOUS
 62
     3
 10
-797.232507497983
 20
-63.8573034369177
 30
0.0
 11
-800.186930713089
 21
-64.3782482190641
 31
0.0
  0
LINE
  5
   160
  8
0
  6
CONTINUOUS
 62
     3
 10
-800.186930713089
 20
-64.3782482190641
 30
0.0
 11
-797.232507497983
 21
-64.8991930012104
 31
0.0
  0
LINE
  5
   161
  8
0
  6
CONTINUOUS
 62
     3
 10
-739.441355012999
 20
-64.8991930012104
 30
0.0
 11
-736.486931797893
 21
-64.3782482190641
 31
0.0
  0
LINE
  5
   162
  8
0
  6
CONTINUOUS
 62
     3
 10
-736.486931797893
 20
-64.3782482190641
 30
0.0
 11
-739.441355012999
 21
-63.8573034369177
 31
0.0
  0
ENDBLK
  5
   163
  8
0
  6
CONTINUOUS
 62
     3
  0
BLOCK
  5
   164
  8
0
  6
CONTINUOUS
 62
     3
  2
*UDIM113
 70
    65
 10
0.0
 20
0.0
 30
0.0
  3
*UDIM113
  0
TEXT
  5
   165
  8
0
  6
CONTINUOUS
 62
     3
 10
-728.436042562148
 20
1.5417753415883
 30
0.0
 40
2.99999997871263
  1
45
 50
449.999999844103
 41
0.933333333333333
 72
     1
 11
-729.936042544718
 21
4.04177532792077
 31
0.0
 73
     2
  0
LINE
  5
   166
  8
0
  6
CONTINUOUS
 62
     3
 10
-747.686940786274
 20
20.0667752146719
 30
0.0
 11
-725.436042555361
 21
20.0667752146719
 31
0.0
  0
LINE
  5
   167
  8
0
  6
CONTINUOUS
 62
     3
 10
-747.686940786274
 20
-11.4332242488863
 30
0.0
 11
-725.436042555361
 21
-11.4332242488863
 31
0.0
  0
LINE
  5
   168
  8
0
  6
CONTINUOUS
 62
     3
 10
-727.436042555361
 20
20.0667752146719
 30
0.0
 11
-727.436042555361
 21
-11.4332242488863
 31
0.0
  0
LINE
  5
   169
  8
0
  6
CONTINUOUS
 62
     3
 10
-726.915097773215
 20
17.1123519995664
 30
0.0
 11
-727.436042555361
 21
20.0667752146719
 31
0.0
  0
LINE
  5
   16A
  8
0
  6
CONTINUOUS
 62
     3
 10
-727.436042555361
 20
20.0667752146719
 30
0.0
 11
-727.956987337508
 21
17.1123519995664
 31
0.0
  0
LINE
  5
   16B
  8
0
  6
CONTINUOUS
 62
     3
 10
-727.956987337508
 20
-8.47880103378072
 30
0.0
 11
-727.436042555361
 21
-11.4332242488863
 31
0.0
  0
LINE
  5
   16C
  8
0
  6
CONTINUOUS
 62
     3
 10
-727.436042555361
 20
-11.4332242488863
 30
0.0
 11
-726.915097773215
 21
-8.47880103378072
 31
0.0
  0
ENDBLK
  5
   16D
  8
0
  6
CONTINUOUS
 62
     3
  0
BLOCK
  5
   16E
  8
0
  6
CONTINUOUS
 62
     7
  2
*UDIM114
 70
    65
 10
0.0
 20
0.0
 30
0.0
  3
*UDIM114
  0
TEXT
  5
   16F
  8
0
  6
CONTINUOUS
 62
     7
 10
-745.604656720435
 20
63.5872403519747
 30
0.0
 40
2.99999997871263
  1
1.5
 50
359.999999844103
 41
0.933333333333333
 72
     1
 11
-741.704656744034
 21
65.0872403307391
 31
0.0
 73
     2
  0
TEXT
  5
   170
  8
0
  6
CONTINUOUS
 62
     7
 10
-736.804656775782
 20
63.5872403481725
 30
0.0
 40
2.99999997871263
  1
-2
 50
359.999999844103
 41
0.933333333333333
 72
     1
 11
-734.304656789447
 21
65.0872403307391
 31
0.0
 73
     2
  0
LINE
  5
   171
  8
0
  6
CONTINUOUS
 62
     7
 10
-755.836935558946
 20
62.5872403413828
 30
0.0
 11
-731.804656807187
 21
62.5872403413828
 31
0.0
  0
LINE
  5
   172
  8
0
  6
CONTINUOUS
 62
     3
 10
-753.734713032157
 20
61.8107831849642
 30
0.0
 11
-750.836935558946
 21
62.5872403413828
 31
0.0
  0
LINE
  5
   173
  8
0
  6
CONTINUOUS
 62
     3
 10
-750.836935558946
 20
62.5872403413828
 30
0.0
 11
-753.734713032157
 21
63.3636974978013
 31
0.0
  0
LINE
  5
   174
  8
0
  6
CONTINUOUS
 62
     3
 10
-746.889158103617
 20
63.3636974978013
 30
0.0
 11
-749.786935576828
 21
62.5872403413828
 31
0.0
  0
LINE
  5
   175
  8
0
  6
CONTINUOUS
 62
     3
 10
-749.786935576828
 20
62.5872403413828
 30
0.0
 11
-746.889158103617
 21
61.8107831849642
 31
0.0
  0
ENDBLK
  5
   176
  8
0
  6
CONTINUOUS
 62
     7
  0
BLOCK
  5
   177
  8
0
  6
CONTINUOUS
 62
     3
  2
*UDIM115
 70
    65
 10
0.0
 20
0.0
 30
0.0
  3
*UDIM115
  0
TEXT
  5
   178
  8
0
  6
CONTINUOUS
 62
     3
 10
-936.354054128414
 20
66.3261674524529
 30
0.0
 40
2.99999997871263
  1
78
 50
359.999999844103
 41
0.933333333333333
 72
     1
 11
-933.85405414208
 21
67.8261674350195
 31
0.0
 73
     2
  0
LINE
  5
   179
  8
0
  6
CONTINUOUS
 62
     3
 10
-961.154038358038
 20
56.4167483274958
 30
0.0
 11
-961.154039197969
 21
67.3261674456632
 31
0.0
  0
LINE
  5
   17A
  8
0
  6
CONTINUOUS
 62
     3
 10
-906.554066153415
 20
56.4167483274958
 30
0.0
 11
-906.554069933094
 21
67.326167445663
 31
0.0
  0
LINE
  5
   17B
  8
0
  6
CONTINUOUS
 62
     3
 10
-961.154039043986
 20
65.3261674456632
 30
0.0
 11
-906.554069240174
 21
65.3261674456632
 31
0.0
  0
LINE
  5
   17C
  8
0
  6
CONTINUOUS
 62
     3
 10
-958.256261570775
 20
66.1026246020817
 30
0.0
 11
-961.154039043986
 21
65.3261674456632
 31
0.0
  0
LINE
  5
   17D
  8
0
  6
CONTINUOUS
 62
     3
 10
-961.154039043986
 20
65.3261674456632
 30
0.0
 11
-958.256261570775
 21
64.5497102892446
 31
0.0
  0
LINE
  5
   17E
  8
0
  6
CONTINUOUS
 62
     3
 10
-909.451846713384
 20
64.5497102892446
 30
0.0
 11
-906.554069240174
 21
65.3261674456632
 31
0.0
  0
LINE
  5
   17F
  8
0
  6
CONTINUOUS
 62
     3
 10
-906.554069240174
 20
65.3261674456632
 30
0.0
 11
-909.451846713384
 21
66.1026246020817
 31
0.0
  0
ENDBLK
  5
   180
  8
0
  6
CONTINUOUS
 62
     3
  0
BLOCK
  5
   181
  8
0
  6
CONTINUOUS
 62
     3
  2
*UDIM116
 70
    65
 10
0.0
 20
0.0
 30
0.0
  3
*UDIM116
  0
TEXT
  5
   182
  8
0
  6
CONTINUOUS
 62
     3
 10
-936.354126130828
 20
73.6365752743554
 30
0.0
 40
2.99999997871263
  1
91
 50
359.999999844103
 41
0.933333333333333
 72
     1
 11
-933.854126144493
 21
75.136575256922
 31
0.0
 73
     2
  0
LINE
  5
   183
  8
0
  6
CONTINUOUS
 62
     3
 10
-965.704125602091
 20
38.0418188422906
 30
0.0
 11
-965.704125602091
 21
74.6365752675657
 31
0.0
  0
LINE
  5
   184
  8
0
  6
CONTINUOUS
 62
     3
 10
-902.004126686896
 20
38.0418188422906
 30
0.0
 11
-902.004126686896
 21
74.6365752675657
 31
0.0
  0
LINE
  5
   185
  8
0
  6
CONTINUOUS
 62
     3
 10
-965.704125602091
 20
72.6365752675657
 30
0.0
 11
-902.004126686896
 21
72.6365752675657
 31
0.0
  0
LINE
  5
   186
  8
0
  6
CONTINUOUS
 62
     3
 10
-962.806348128881
 20
73.4130324239842
 30
0.0
 11
-965.704125602091
 21
72.6365752675657
 31
0.0
  0
LINE
  5
   187
  8
0
  6
CONTINUOUS
 62
     3
 10
-965.704125602091
 20
72.6365752675657
 30
0.0
 11
-962.806348128881
 21
71.8601181111471
 31
0.0
  0
LINE
  5
   188
  8
0
  6
CONTINUOUS
 62
     3
 10
-904.901904160106
 20
71.8601181111471
 30
0.0
 11
-902.004126686896
 21
72.6365752675657
 31
0.0
  0
LINE
  5
   189
  8
0
  6
CONTINUOUS
 62
     3
 10
-902.004126686896
 20
72.6365752675657
 30
0.0
 11
-904.901904160106
 21
73.4130324239842
 31
0.0
  0
ENDBLK
  5
   18A
  8
0
  6
CONTINUOUS
 62
     3
  0
BLOCK
  5
   18B
  8
0
  6
CONTINUOUS
 62
     3
  2
*UDIM117
 70
    65
 10
0.0
 20
0.0
 30
0.0
  3
*UDIM117
  0
TEXT
  5
   18C
  8
0
  6
CONTINUOUS
 62
     3
 10
-973.587317719967
 20
5.74048279102344
 30
0.0
 40
2.99999997871263
  1
96
 50
449.999999844103
 41
0.933333333333333
 72
     1
 11
-975.087317702537
 21
8.24048277735591
 31
0.0
 73
     2
  0
LINE
  5
   18D
  8
0
  6
CONTINUOUS
 62
     3
 10
-965.829125616992
 20
37.9168188273895
 30
0.0
 11
-974.58731771318
 21
37.9168188273895
 31
0.0
  0
LINE
  5
   18E
  8
0
  6
CONTINUOUS
 62
     3
 10
-965.829125616992
 20
-29.2831800282013
 30
0.0
 11
-974.58731771318
 21
-29.2831800282013
 31
0.0
  0
LINE
  5
   18F
  8
0
  6
CONTINUOUS
 62
     3
 10
-972.58731771318
 20
37.9168188273895
 30
0.0
 11
-972.58731771318
 21
-29.2831800282013
 31
0.0
  0
LINE
  5
   190
  8
0
  6
CONTINUOUS
 62
     3
 10
-971.810860556762
 20
35.0190413541789
 30
0.0
 11
-972.58731771318
 21
37.9168188273895
 31
0.0
  0
LINE
  5
   191
  8
0
  6
CONTINUOUS
 62
     3
 10
-972.58731771318
 20
37.9168188273895
 30
0.0
 11
-973.363774869599
 21
35.0190413541789
 31
0.0
  0
LINE
  5
   192
  8
0
  6
CONTINUOUS
 62
     3
 10
-973.363774869599
 20
-26.3854025549908
 30
0.0
 11
-972.58731771318
 21
-29.2831800282013
 31
0.0
  0
LINE
  5
   193
  8
0
  6
CONTINUOUS
 62
     3
 10
-972.58731771318
 20
-29.2831800282013
 30
0.0
 11
-971.810860556762
 21
-26.3854025549908
 31
0.0
  0
ENDBLK
  5
   194
  8
0
  6
CONTINUOUS
 62
     3
  0
BLOCK
  5
   195
  8
0
  6
CONTINUOUS
 62
     3
  2
*UDIM118
 70
    65
 10
0.0
 20
0.0
 30
0.0
  3
*UDIM118
  0
TEXT
  5
   196
  8
0
  6
CONTINUOUS
 62
     3
 10
-979.715159570679
 20
-15.9582345170212
 30
0.0
 40
2.99999997871263
  1
50
 50
449.999999844103
 41
0.933333333333333
 72
     1
 11
-981.215159553249
 21
-13.4582345306887
 31
0.0
 73
     2
  0
LINE
  5
   197
  8
0
  6
CONTINUOUS
 62
     3
 10
-975.550823430162
 20
4.3167706668338
 30
0.0
 11
-980.715159563893
 21
4.3167706668338
 31
0.0
  0
LINE
  5
   198
  8
0
  6
CONTINUOUS
 62
     3
 10
-960.454025261966
 20
-30.6832394182671
 30
0.0
 11
-980.715159563893
 21
-30.6832394182671
 31
0.0
  0
LINE
  5
   199
  8
0
  6
CONTINUOUS
 62
     3
 10
-978.715159563893
 20
4.3167706668338
 30
0.0
 11
-978.715159563893
 21
-30.6832394182671
 31
0.0
  0
LINE
  5
   19A
  8
0
  6
CONTINUOUS
 62
     3
 10
-978.194214781747
 20
1.36234745172827
 30
0.0
 11
-978.715159563893
 21
4.3167706668338
 31
0.0
  0
LINE
  5
   19B
  8
0
  6
CONTINUOUS
 62
     3
 10
-978.715159563893
 20
4.3167706668338
 30
0.0
 11
-979.236104346039
 21
1.36234745172827
 31
0.0
  0
LINE
  5
   19C
  8
0
  6
CONTINUOUS
 62
     3
 10
-979.236104346039
 20
-27.7288162031616
 30
0.0
 11
-978.715159563893
 21
-30.6832394182671
 31
0.0
  0
LINE
  5
   19D
  8
0
  6
CONTINUOUS
 62
     3
 10
-978.715159563893
 20
-30.6832394182671
 30
0.0
 11
-978.194214781747
 21
-27.7288162031616
 31
0.0
  0
ENDBLK
  5
   19E
  8
0
  6
CONTINUOUS
 62
     3
  0
BLOCK
  5
   19F
  8
0
  6
CONTINUOUS
 62
     3
  2
*UDIM119
 70
    65
 10
0.0
 20
0.0
 30
0.0
  3
*UDIM119
  0
TEXT
  5
   1A0
  8
0
  6
CONTINUOUS
 62
     3
 10
-883.310349185576
 20
8.54175231432895
 30
0.0
 40
2.99999997871263
  1
124
 50
449.999999844103
 41
0.933333333333333
 72
     1
 11
-884.810349164345
 21
12.4417522907273
 31
0.0
 73
     2
  0
LINE
  5
   1A1
  8
0
  6
CONTINUOUS
 62
     3
 10
-907.254065795034
 20
56.1167484223864
 30
0.0
 11
-880.310349174989
 21
56.1167484223864
 31
0.0
  0
LINE
  5
   1A2
  8
0
  6
CONTINUOUS
 62
     3
 10
-907.254078826035
 20
-30.6832394182671
 30
0.0
 11
-880.310349174989
 21
-30.6832394182671
 31
0.0
  0
LINE
  5
   1A3
  8
0
  6
CONTINUOUS
 62
     3
 10
-882.310349174988
 20
56.1167484223864
 30
0.0
 11
-882.310349174988
 21
-30.6832394182671
 31
0.0
  0
LINE
  5
   1A4
  8
0
  6
CONTINUOUS
 62
     3
 10
-881.789404392842
 20
53.1623252072808
 30
0.0
 11
-882.310349174988
 21
56.1167484223864
 31
0.0
  0
LINE
  5
   1A5
  8
0
  6
CONTINUOUS
 62
     3
 10
-882.310349174988
 20
56.1167484223864
 30
0.0
 11
-882.831293957135
 21
53.1623252072808
 31
0.0
  0
LINE
  5
   1A6
  8
0
  6
CONTINUOUS
 62
     3
 10
-882.831293957135
 20
-27.7288162031616
 30
0.0
 11
-882.310349174988
 21
-30.6832394182671
 31
0.0
  0
LINE
  5
   1A7
  8
0
  6
CONTINUOUS
 62
     3
 10
-882.310349174988
 20
-30.6832394182671
 30
0.0
 11
-881.789404392842
 21
-27.7288162031616
 31
0.0
  0
ENDBLK
  5
   1A8
  8
0
  6
CONTINUOUS
 62
     3
  0
BLOCK
  5
   1A9
  8
0
  6
CONTINUOUS
 62
     7
  2
*UDIM120
 70
    65
 10
0.0
 20
0.0
 30
0.0
  3
*UDIM120
  0
TEXT
  5
   1AA
  8
0
  6
CONTINUOUS
 62
     7
 10
-895.879462909885
 20
11.0917705364568
 30
0.0
 40
2.99999997871263
  1
=
 50
449.999999844103
 41
0.933333333333333
 72
     1
 11
-897.379462896255
 21
12.1917705327233
 31
0.0
 73
     2
  0
LINE
  5
   1AB
  8
0
  6
CONTINUOUS
 62
     3
 10
-905.554071200932
 20
20.0667703986129
 30
0.0
 11
-892.879462906899
 21
20.0667703986129
 31
0.0
  0
LINE
  5
   1AC
  8
0
  6
CONTINUOUS
 62
     3
 10
-895.755907627328
 20
4.3167706668338
 30
0.0
 11
-892.879462906899
 21
4.3167706668338
 31
0.0
  0
LINE
  5
   1AD
  8
0
  6
CONTINUOUS
 62
     3
 10
-894.879462906899
 20
20.0667703986129
 30
0.0
 11
-894.879462906899
 21
4.3167706668338
 31
0.0
  0
LINE
  5
   1AE
  8
0
  6
CONTINUOUS
 62
     3
 10
-894.358518124753
 20
17.1123471835074
 30
0.0
 11
-894.879462906899
 21
20.0667703986129
 31
0.0
  0
LINE
  5
   1AF
  8
0
  6
CONTINUOUS
 62
     3
 10
-894.879462906899
 20
20.0667703986129
 30
0.0
 11
-895.400407689045
 21
17.1123471835074
 31
0.0
  0
LINE
  5
   1B0
  8
0
  6
CONTINUOUS
 62
     3
 10
-895.400407689045
 20
7.27119388193933
 30
0.0
 11
-894.879462906899
 21
4.3167706668338
 31
0.0
  0
LINE
  5
   1B1
  8
0
  6
CONTINUOUS
 62
     3
 10
-894.879462906899
 20
4.3167706668338
 30
0.0
 11
-894.358518124753
 21
7.27119388193933
 31
0.0
  0
ENDBLK
  5
   1B2
  8
0
  6
CONTINUOUS
 62
     7
  0
BLOCK
  5
   1B3
  8
0
  6
CONTINUOUS
 62
     7
  2
*UDIM121
 70
    65
 10
0.0
 20
0.0
 30
0.0
  3
*UDIM121
  0
TEXT
  5
   1B4
  8
0
  6
CONTINUOUS
 62
     7
 10
-895.879462909885
 20
-4.65822919531817
 30
0.0
 40
2.99999997871263
  1
=
 50
449.999999844103
 41
0.933333333333333
 72
     1
 11
-897.379462896255
 21
-3.55822919905159
 31
0.0
 73
     2
  0
LINE
  5
   1B5
  8
0
  6
CONTINUOUS
 62
     3
 10
-905.55407600745
 20
-11.433229064937
 30
0.0
 11
-892.879462906899
 21
-11.433229064937
 31
0.0
  0
LINE
  5
   1B6
  8
0
  6
CONTINUOUS
 62
     3
 10
-894.879462906899
 20
4.3167706668338
 30
0.0
 11
-894.879462906899
 21
-11.433229064937
 31
0.0
  0
LINE
  5
   1B7
  8
0
  6
CONTINUOUS
 62
     3
 10
-894.358518124753
 20
1.36234745172827
 30
0.0
 11
-894.879462906899
 21
4.3167706668338
 31
0.0
  0
LINE
  5
   1B8
  8
0
  6
CONTINUOUS
 62
     3
 10
-894.879462906899
 20
4.3167706668338
 30
0.0
 11
-895.400407689045
 21
1.36234745172827
 31
0.0
  0
LINE
  5
   1B9
  8
0
  6
CONTINUOUS
 62
     3
 10
-895.400407689045
 20
-8.47880584983146
 30
0.0
 11
-894.879462906899
 21
-11.433229064937
 31
0.0
  0
LINE
  5
   1BA
  8
0
  6
CONTINUOUS
 62
     3
 10
-894.879462906899
 20
-11.433229064937
 30
0.0
 11
-894.358518124753
 21
-8.47880584983146
 31
0.0
  0
ENDBLK
  5
   1BB
  8
0
  6
CONTINUOUS
 62
     7
  0
BLOCK
  5
   1BC
  8
0
  6
CONTINUOUS
 62
     3
  2
*UDIM122
 70
    65
 10
0.0
 20
0.0
 30
0.0
  3
*UDIM122
  0
TEXT
  5
   1BD
  8
0
  6
CONTINUOUS
 62
     3
 10
-676.598257749559
 20
36.7353625090016
 30
0.0
 40
2.99999997871263
  1
4
 50
404.818094863318
 41
0.933333333333333
 72
     1
 11
-676.87526216554
 21
38.5747288413084
 31
0.0
 73
     2
  0
TEXT
  5
   1BE
  8
0
  6
CONTINUOUS
 62
     3
 10
-678.548965201307
 20
34.7970022696755
 30
0.0
 40
2.99999997871263
  1
Ø
 50
404.818094863318
 41
0.933333333333333
 72
     1
 11
-678.825969617289
 21
36.6363686019823
 31
0.0
 73
     2
  0
LINE
  5
   1BF
  8
0
  6
CONTINUOUS
 62
     3
 10
-674.332833522354
 20
37.576702527068
 30
0.0
 11
-686.255025464791
 21
25.7299733795876
 31
0.0
  0
LINE
  5
   1C0
  8
0
  6
CONTINUOUS
 62
     3
 10
-682.540328186859
 20
30.1555573624236
 30
0.0
 11
-684.268850635988
 21
27.7035765013938
 31
0.0
  0
LINE
  5
   1C1
  8
0
  6
CONTINUOUS
 62
     3
 10
-684.268850635988
 20
27.7035765013938
 30
0.0
 11
-681.805943711258
 21
29.4164949116267
 31
0.0
  0
LINE
  5
   1C2
  8
0
  6
CONTINUOUS
 62
     3
 10
-687.98354791392
 20
23.2779925185578
 30
0.0
 11
-686.255025464791
 21
25.7299733795876
 31
0.0
  0
LINE
  5
   1C3
  8
0
  6
CONTINUOUS
 62
     3
 10
-686.255025464791
 20
25.7299733795876
 30
0.0
 11
-688.717932389521
 21
24.0170549693547
 31
0.0
  0
ENDBLK
  5
   1C4
  8
0
  6
CONTINUOUS
 62
     3
  0
BLOCK
  5
   1C5
  8
0
  6
CONTINUOUS
 62
     3
  2
*UDIM123
 70
    65
 10
0.0
 20
0.0
 30
0.0
  3
*UDIM123
  0
TEXT
  5
   1C6
  8
0
  6
CONTINUOUS
 62
     3
 10
-701.517261588883
 20
1.54177652176041
 30
0.0
 40
2.99999997871263
  1
64
 50
449.999999844103
 41
0.933333333333333
 72
     1
 11
-703.017261571453
 21
4.04177650809288
 31
0.0
 73
     2
  0
LINE
  5
   1C7
  8
0
  6
CONTINUOUS
 62
     3
 10
-691.561937943101
 20
26.7167749404907
 30
0.0
 11
-702.517261582097
 21
26.7167749404907
 31
0.0
  0
LINE
  5
   1C8
  8
0
  6
CONTINUOUS
 62
     3
 10
-691.561937943101
 20
-18.0832242965698
 30
0.0
 11
-702.517261582097
 21
-18.0832242965698
 31
0.0
  0
LINE
  5
   1C9
  8
0
  6
CONTINUOUS
 62
     3
 10
-700.517261582097
 20
26.7167749404907
 30
0.0
 11
-700.517261582097
 21
-18.0832242965698
 31
0.0
  0
LINE
  5
   1CA
  8
0
  6
CONTINUOUS
 62
     3
 10
-699.99631679995
 20
23.7623517253852
 30
0.0
 11
-700.517261582097
 21
26.7167749404907
 31
0.0
  0
LINE
  5
   1CB
  8
0
  6
CONTINUOUS
 62
     3
 10
-700.517261582097
 20
26.7167749404907
 30
0.0
 11
-701.038206364243
 21
23.7623517253852
 31
0.0
  0
LINE
  5
   1CC
  8
0
  6
CONTINUOUS
 62
     3
 10
-701.038206364243
 20
-15.1288010814643
 30
0.0
 11
-700.517261582097
 21
-18.0832242965698
 31
0.0
  0
LINE
  5
   1CD
  8
0
  6
CONTINUOUS
 62
     3
 10
-700.517261582097
 20
-18.0832242965698
 30
0.0
 11
-699.99631679995
 21
-15.1288010814643
 31
0.0
  0
ENDBLK
  5
   1CE
  8
0
  6
CONTINUOUS
 62
     3
  0
BLOCK
  5
   1CF
  8
0
  6
CONTINUOUS
 62
     3
  2
*UDIM124
 70
    65
 10
0.0
 20
0.0
 30
0.0
  3
*UDIM124
  0
TEXT
  5
   1D0
  8
0
  6
CONTINUOUS
 62
     3
 10
-653.835855351134
 20
-4.63104363941273
 30
0.0
 40
2.99999997871263
  1
86
 50
359.999999844103
 41
0.933333333333333
 72
     1
 11
-651.3358553648
 21
-3.13104365684613
 31
0.0
 73
     2
  0
LINE
  5
   1D1
  8
0
  6
CONTINUOUS
 62
     3
 10
-686.136938035488
 20
-5.63104364620244
 30
0.0
 11
-625.936939060688
 21
-5.63104364620244
 31
0.0
  0
LINE
  5
   1D2
  8
0
  6
CONTINUOUS
 62
     3
 10
-683.182514820383
 20
-5.11009886405608
 30
0.0
 11
-686.136938035488
 21
-5.63104364620244
 31
0.0
  0
LINE
  5
   1D3
  8
0
  6
CONTINUOUS
 62
     3
 10
-686.136938035488
 20
-5.63104364620244
 30
0.0
 11
-683.182514820383
 21
-6.1519884283488
 31
0.0
  0
LINE
  5
   1D4
  8
0
  6
CONTINUOUS
 62
     3
 10
-628.891362275794
 20
-6.1519884283488
 30
0.0
 11
-625.936939060688
 21
-5.63104364620244
 31
0.0
  0
LINE
  5
   1D5
  8
0
  6
CONTINUOUS
 62
     3
 10
-625.936939060688
 20
-5.63104364620244
 30
0.0
 11
-628.891362275794
 21
-5.11009886405608
 31
0.0
  0
ENDBLK
  5
   1D6
  8
0
  6
CONTINUOUS
 62
     3
  0
BLOCK
  5
   1D7
  8
0
  6
CONTINUOUS
 62
     3
  2
*UDIM125
 70
    65
 10
0.0
 20
0.0
 30
0.0
  3
*UDIM125
  0
TEXT
  5
   1D8
  8
0
  6
CONTINUOUS
 62
     3
 10
-610.617057143252
 20
1.54177518065591
 30
0.0
 40
2.99999997871263
  1
53
 50
449.999999844103
 41
0.933333333333333
 72
     1
 11
-612.117057125822
 21
4.04177516698837
 31
0.0
 73
     2
  0
LINE
  5
   1D9
  8
0
  6
CONTINUOUS
 62
     3
 10
-626.986939042807
 20
22.8667750060558
 30
0.0
 11
-607.617057136466
 21
22.8667750060558
 31
0.0
  0
LINE
  5
   1DA
  8
0
  6
CONTINUOUS
 62
     3
 10
-626.986939042807
 20
-14.2332243621349
 30
0.0
 11
-607.617057136466
 21
-14.2332243621349
 31
0.0
  0
LINE
  5
   1DB
  8
0
  6
CONTINUOUS
 62
     3
 10
-609.617057136466
 20
22.8667750060558
 30
0.0
 11
-609.617057136466
 21
-14.2332243621349
 31
0.0
  0
LINE
  5
   1DC
  8
0
  6
CONTINUOUS
 62
     3
 10
-609.096112354319
 20
19.9123517909503
 30
0.0
 11
-609.617057136466
 21
22.8667750060558
 31
0.0
  0
LINE
  5
   1DD
  8
0
  6
CONTINUOUS
 62
     3
 10
-609.617057136466
 20
22.8667750060558
 30
0.0
 11
-610.138001918612
 21
19.9123517909503
 31
0.0
  0
LINE
  5
   1DE
  8
0
  6
CONTINUOUS
 62
     3
 10
-610.138001918612
 20
-11.2788011470294
 30
0.0
 11
-609.617057136466
 21
-14.2332243621349
 31
0.0
  0
LINE
  5
   1DF
  8
0
  6
CONTINUOUS
 62
     3
 10
-609.617057136466
 20
-14.2332243621349
 30
0.0
 11
-609.096112354319
 21
-11.2788011470294
 31
0.0
  0
ENDBLK
  5
   1E0
  8
0
  6
CONTINUOUS
 62
     3
  0
BLOCK
  5
   1E1
  8
0
  6
CONTINUOUS
 62
     3
  2
*UDIM126
 70
    65
 10
0.0
 20
0.0
 30
0.0
  3
*UDIM126
  0
TEXT
  5
   1E2
  8
0
  6
CONTINUOUS
 62
     3
 10
-661.611938878143
 20
-36.4598810566853
 30
0.0
 40
2.99999997871263
  1
83,5
 50
359.999999844103
 41
0.933333333333333
 72
     1
 11
-656.311938911676
 21
-34.9598810817232
 31
0.0
 73
     2
  0
LINE
  5
   1E3
  8
0
  6
CONTINUOUS
 62
     3
 10
-685.261938050389
 20
-24.3832241892815
 30
0.0
 11
-685.261938050389
 21
-39.4598810710795
 31
0.0
  0
LINE
  5
   1E4
  8
0
  6
CONTINUOUS
 62
     3
 10
-626.811939045787
 20
-24.3832241892815
 30
0.0
 11
-626.811939045787
 21
-39.4598810710795
 31
0.0
  0
LINE
  5
   1E5
  8
0
  6
CONTINUOUS
 62
     3
 10
-685.261938050389
 20
-37.4598810710795
 30
0.0
 11
-626.811939045787
 21
-37.4598810710795
 31
0.0
  0
LINE
  5
   1E6
  8
0
  6
CONTINUOUS
 62
     3
 10
-682.307514835284
 20
-36.9389362889332
 30
0.0
 11
-685.261938050389
 21
-37.4598810710795
 31
0.0
  0
LINE
  5
   1E7
  8
0
  6
CONTINUOUS
 62
     3
 10
-685.261938050389
 20
-37.4598810710795
 30
0.0
 11
-682.307514835284
 21
-37.9808258532259
 31
0.0
  0
LINE
  5
   1E8
  8
0
  6
CONTINUOUS
 62
     3
 10
-629.766362260892
 20
-37.9808258532259
 30
0.0
 11
-626.811939045787
 21
-37.4598810710795
 31
0.0
  0
LINE
  5
   1E9
  8
0
  6
CONTINUOUS
 62
     3
 10
-626.811939045787
 20
-37.4598810710795
 30
0.0
 11
-629.766362260892
 21
-36.9389362889332
 31
0.0
  0
ENDBLK
  5
   1EA
  8
0
  6
CONTINUOUS
 62
     3
  0
BLOCK
  5
   1EB
  8
0
  6
CONTINUOUS
 62
     7
  2
*UDIM127
 70
    65
 10
0.0
 20
0.0
 30
0.0
  3
*UDIM127
  0
TEXT
  5
   1EC
  8
0
  6
CONTINUOUS
 62
     7
 10
-635.275052234024
 20
13.4281113063947
 30
0.0
 40
2.99999997871263
  1
1.5
 50
410.209967848321
 41
0.933333333333333
 72
     1
 11
-633.931738035462
 21
17.3848153281985
 31
0.0
 73
     2
  0
TEXT
  5
   1ED
  8
0
  6
CONTINUOUS
 62
     7
 10
-637.83495632764
 20
10.3545318196742
 30
0.0
 40
2.99999997871263
  1
R
 50
410.209967848321
 41
1.2
 72
     1
 11
-638.027584590535
 21
12.4670881593897
 31
0.0
 73
     2
  0
LINE
  5
   1EE
  8
0
  6
CONTINUOUS
 62
     7
 10
-626.314964224786
 20
22.6235896286605
 30
0.0
 11
-637.066561447177
 21
9.7145557921356
 31
0.0
  0
LINE
  5
   1EF
  8
0
  6
CONTINUOUS
 62
     3
 10
-627.57284664286
 20
19.9000383032219
 30
0.0
 11
-626.314964224786
 21
22.6235896286605
 31
0.0
  0
LINE
  5
   1F0
  8
0
  6
CONTINUOUS
 62
     3
 10
-626.314964224786
 20
22.6235896286605
 30
0.0
 11
-628.766098041734
 21
20.8938662370715
 31
0.0
  0
ENDBLK
  5
   1F1
  8
0
  6
CONTINUOUS
 62
     7
  0
ENDSEC
  0
SECTION
  2
ENTITIES
  0
LINE
  5
   1F2
  8
0
  6
CONTINUOUS
 62
     7
 10
-747.686940786274
 20
-89.6758458018303
 30
0.0
 11
-800.186861678692
 21
-89.6758458018303
 31
0.0
  0
LINE
  5
   1F3
  8
0
  6
CONTINUOUS
 62
     7
 10
-747.686940786274
 20
-144.275844871998
 30
0.0
 11
-800.186861678692
 21
-144.275844871998
 31
0.0
  0
LINE
  5
   1F4
  8
0
  6
CONTINUOUS
 62
     7
 10
-800.186861678692
 20
-89.6758458018303
 30
0.0
 11
-800.186861678692
 21
-144.275844871998
 31
0.0
  0
LINE
  5
   1F5
  8
0
  6
DASHDOT
 62
     7
 10
-727.323688133156
 20
-116.975845336914
 30
0.0
 11
-857.185426375224
 21
-116.975845336914
 31
0.0
  0
LINE
  5
   1F6
  8
0
  6
DASHDOT
 62
     7
 10
-787.890160700536
 20
-99.4758456349373
 30
0.0
 11
-847.461835584821
 21
-99.4758456349373
 31
0.0
  0
LINE
  5
   1F7
  8
0
  6
DASHDOT
 62
     7
 10
-787.213209849579
 20
-134.475845038891
 30
0.0
 11
-849.492688137694
 21
-134.475845038891
 31
0.0
  0
LINE
  5
   1F8
  8
0
  6
CONTINUOUS
 62
     7
 10
-852.686860784622
 20
-114.525845378637
 30
0.0
 11
-852.686860784622
 21
-119.425845295191
 31
0.0
  0
LINE
  5
   1F9
  8
0
  6
CONTINUOUS
 62
     7
 10
-851.286860808464
 20
-114.175845384598
 30
0.0
 11
-852.336860790583
 21
-114.175845384598
 31
0.0
  0
LINE
  5
   1FA
  8
0
  6
CONTINUOUS
 62
     7
 10
-851.286860808464
 20
-119.77584528923
 30
0.0
 11
-852.336860790583
 21
-119.77584528923
 31
0.0
  0
LINE
  5
   1FB
  8
0
  6
CONTINUOUS
 62
     7
 10
-852.336860790583
 20
-114.175845384598
 30
0.0
 11
-852.686860784622
 21
-114.525845378637
 31
0.0
  0
LINE
  5
   1FC
  8
0
  6
CONTINUOUS
 62
     7
 10
-852.336860790583
 20
-119.77584528923
 30
0.0
 11
-852.686860784622
 21
-119.425845295191
 31
0.0
  0
LINE
  5
   1FD
  8
0
  6
CONTINUOUS
 62
     7
 10
-851.286860808464
 20
-111.375845432282
 30
0.0
 11
-851.286860808464
 21
-122.575845241547
 31
0.0
  0
LINE
  5
   1FE
  8
0
  6
CONTINUOUS
 62
     7
 10
-847.08686087999
 20
-110.675845444202
 30
0.0
 11
-847.08686087999
 21
-123.275845229626
 31
0.0
  0
LINE
  5
   1FF
  8
0
  6
CONTINUOUS
 62
     7
 10
-845.686860903831
 20
-110.675845444202
 30
0.0
 11
-845.686860903831
 21
-123.275845229626
 31
0.0
  0
LINE
  5
   200
  8
0
  6
CONTINUOUS
 62
     7
 10
-843.586860939594
 20
-110.675845444202
 30
0.0
 11
-843.586860939594
 21
-123.275845229626
 31
0.0
  0
LINE
  5
   201
  8
0
  6
CONTINUOUS
 62
     7
 10
-842.186860963436
 20
-110.675845444202
 30
0.0
 11
-842.186860963436
 21
-123.275845229626
 31
0.0
  0
LINE
  5
   202
  8
0
  6
CONTINUOUS
 62
     7
 10
-837.986861034962
 20
-111.375845432282
 30
0.0
 11
-837.986861034962
 21
-122.575845241547
 31
0.0
  0
LINE
  5
   203
  8
0
  6
CONTINUOUS
 62
     7
 10
-847.08686087999
 20
-111.375845432282
 30
0.0
 11
-851.286860808464
 21
-111.375845432282
 31
0.0
  0
LINE
  5
   204
  8
0
  6
CONTINUOUS
 62
     7
 10
-847.08686087999
 20
-122.575845241547
 30
0.0
 11
-851.286860808464
 21
-122.575845241547
 31
0.0
  0
LINE
  5
   205
  8
0
  6
CONTINUOUS
 62
     7
 10
-837.986861034962
 20
-111.375845432282
 30
0.0
 11
-842.186860963436
 21
-111.375845432282
 31
0.0
  0
LINE
  5
   206
  8
0
  6
CONTINUOUS
 62
     7
 10
-837.986861034962
 20
-122.575845241547
 30
0.0
 11
-842.186860963436
 21
-122.575845241547
 31
0.0
  0
LINE
  5
   207
  8
0
  6
CONTINUOUS
 62
     7
 10
-842.186860963436
 20
-110.675845444202
 30
0.0
 11
-843.586860939594
 21
-110.675845444202
 31
0.0
  0
LINE
  5
   208
  8
0
  6
CONTINUOUS
 62
     7
 10
-842.186860963436
 20
-123.275845229626
 30
0.0
 11
-843.586860939594
 21
-123.275845229626
 31
0.0
  0
LINE
  5
   209
  8
0
  6
CONTINUOUS
 62
     7
 10
-845.686860903831
 20
-110.675845444202
 30
0.0
 11
-847.08686087999
 21
-110.675845444202
 31
0.0
  0
LINE
  5
   20A
  8
0
  6
CONTINUOUS
 62
     7
 10
-845.686860903831
 20
-123.275845229626
 30
0.0
 11
-847.08686087999
 21
-123.275845229626
 31
0.0
  0
LINE
  5
   20B
  8
0
  6
CONTINUOUS
 62
     7
 10
-847.08686087999
 20
-116.975845336914
 30
0.0
 11
-851.286860808464
 21
-116.975845336914
 31
0.0
  0
LINE
  5
   20C
  8
0
  6
CONTINUOUS
 62
     7
 10
-837.986861034962
 20
-116.975845336914
 30
0.0
 11
-842.186860963436
 21
-116.975845336914
 31
0.0
  0
LINE
  5
   20D
  8
0
  6
CONTINUOUS
 62
     7
 10
-843.586860939594
 20
-114.175845384598
 30
0.0
 11
-845.686860903831
 21
-114.175845384598
 31
0.0
  0
LINE
  5
   20E
  8
0
  6
CONTINUOUS
 62
     7
 10
-843.586860939594
 20
-119.77584528923
 30
0.0
 11
-845.686860903831
 21
-119.77584528923
 31
0.0
  0
LINE
  5
   20F
  8
0
  6
CONTINUOUS
 62
     7
 10
-843.586860939594
 20
-114.525845378637
 30
0.0
 11
-845.686860903831
 21
-114.525845378637
 31
0.0
  0
LINE
  5
   210
  8
0
  6
CONTINUOUS
 62
     7
 10
-843.586860939594
 20
-119.425845295191
 30
0.0
 11
-845.686860903831
 21
-119.425845295191
 31
0.0
  0
LINE
  5
   211
  8
0
  6
CONTINUOUS
 62
     7
 10
-851.286860808464
 20
-119.425845295191
 30
0.0
 11
-852.686860784622
 21
-119.425845295191
 31
0.0
  0
LINE
  5
   212
  8
0
  6
CONTINUOUS
 62
     7
 10
-851.286860808464
 20
-114.525845378637
 30
0.0
 11
-852.686860784622
 21
-114.525845378637
 31
0.0
  0
LINE
  5
   213
  8
0
  6
CONTINUOUS
 62
     7
 10
-852.336860790583
 20
-114.175845384598
 30
0.0
 11
-852.336860790583
 21
-119.77584528923
 31
0.0
  0
LINE
  5
   214
  8
0
  6
CONTINUOUS
 62
     7
 10
-801.376861658426
 20
-113.125845402479
 30
0.0
 11
-802.216861644121
 21
-113.125845402479
 31
0.0
  0
LINE
  5
   215
  8
0
  6
CONTINUOUS
 62
     7
 10
-801.376861658426
 20
-120.825845271349
 30
0.0
 11
-802.216861644121
 21
-120.825845271349
 31
0.0
  0
LINE
  5
   216
  8
0
  6
CONTINUOUS
 62
     7
 10
-828.186861201855
 20
-128.875845134258
 30
0.0
 11
-828.186861201855
 21
-140.075844943523
 31
0.0
  0
LINE
  5
   217
  8
0
  6
CONTINUOUS
 62
     7
 10
-819.086861356827
 20
-128.175845146179
 30
0.0
 11
-819.086861356827
 21
-140.775844931602
 31
0.0
  0
LINE
  5
   218
  8
0
  6
CONTINUOUS
 62
     7
 10
-820.486861332985
 20
-128.175845146179
 30
0.0
 11
-820.486861332985
 21
-140.775844931602
 31
0.0
  0
LINE
  5
   219
  8
0
  6
CONTINUOUS
 62
     7
 10
-822.586861297222
 20
-128.175845146179
 30
0.0
 11
-822.586861297222
 21
-140.775844931602
 31
0.0
  0
LINE
  5
   21A
  8
0
  6
CONTINUOUS
 62
     7
 10
-823.98686127338
 20
-128.175845146179
 30
0.0
 11
-823.98686127338
 21
-140.775844931602
 31
0.0
  0
LINE
  5
   21B
  8
0
  6
CONTINUOUS
 62
     7
 10
-814.886861428352
 20
-128.875845134258
 30
0.0
 11
-819.086861356827
 21
-128.875845134258
 31
0.0
  0
LINE
  5
   21C
  8
0
  6
CONTINUOUS
 62
     7
 10
-823.98686127338
 20
-128.875845134258
 30
0.0
 11
-828.186861201855
 21
-128.875845134258
 31
0.0
  0
LINE
  5
   21D
  8
0
  6
CONTINUOUS
 62
     7
 10
-814.886861428352
 20
-140.075844943523
 30
0.0
 11
-819.086861356827
 21
-140.075844943523
 31
0.0
  0
LINE
  5
   21E
  8
0
  6
CONTINUOUS
 62
     7
 10
-823.98686127338
 20
-140.075844943523
 30
0.0
 11
-828.186861201855
 21
-140.075844943523
 31
0.0
  0
LINE
  5
   21F
  8
0
  6
CONTINUOUS
 62
     7
 10
-819.086861356827
 20
-128.175845146179
 30
0.0
 11
-820.486861332985
 21
-128.175845146179
 31
0.0
  0
LINE
  5
   220
  8
0
  6
CONTINUOUS
 62
     7
 10
-822.586861297222
 20
-128.175845146179
 30
0.0
 11
-823.98686127338
 21
-128.175845146179
 31
0.0
  0
LINE
  5
   221
  8
0
  6
CONTINUOUS
 62
     7
 10
-819.086861356827
 20
-140.775844931602
 30
0.0
 11
-820.486861332985
 21
-140.775844931602
 31
0.0
  0
LINE
  5
   222
  8
0
  6
CONTINUOUS
 62
     7
 10
-822.586861297222
 20
-140.775844931602
 30
0.0
 11
-823.98686127338
 21
-140.775844931602
 31
0.0
  0
LINE
  5
   223
  8
0
  6
CONTINUOUS
 62
     7
 10
-820.486861332985
 20
-137.275844991207
 30
0.0
 11
-822.586861297222
 21
-137.275844991207
 31
0.0
  0
LINE
  5
   224
  8
0
  6
CONTINUOUS
 62
     7
 10
-820.486861332985
 20
-131.675845086575
 30
0.0
 11
-822.586861297222
 21
-131.675845086575
 31
0.0
  0
LINE
  5
   225
  8
0
  6
CONTINUOUS
 62
     7
 10
-820.486861332985
 20
-132.025845080614
 30
0.0
 11
-822.586861297222
 21
-132.025845080614
 31
0.0
  0
LINE
  5
   226
  8
0
  6
CONTINUOUS
 62
     7
 10
-828.186861201855
 20
-131.675845086575
 30
0.0
 11
-829.236861183973
 21
-131.675845086575
 31
0.0
  0
LINE
  5
   227
  8
0
  6
CONTINUOUS
 62
     7
 10
-828.186861201855
 20
-132.025845080614
 30
0.0
 11
-829.586861178013
 21
-132.025845080614
 31
0.0
  0
LINE
  5
   228
  8
0
  6
CONTINUOUS
 62
     7
 10
-828.186861201855
 20
-137.275844991207
 30
0.0
 11
-829.236861183973
 21
-137.275844991207
 31
0.0
  0
LINE
  5
   229
  8
0
  6
CONTINUOUS
 62
     7
 10
-829.236861183973
 20
-131.675845086575
 30
0.0
 11
-829.236861183973
 21
-137.275844991207
 31
0.0
  0
LINE
  5
   22A
  8
0
  6
CONTINUOUS
 62
     7
 10
-829.586861178013
 20
-132.025845080614
 30
0.0
 11
-829.586861178013
 21
-136.925844997168
 31
0.0
  0
LINE
  5
   22B
  8
0
  6
CONTINUOUS
 62
     7
 10
-829.236861183973
 20
-131.675845086575
 30
0.0
 11
-829.236861183973
 21
-137.275844991207
 31
0.0
  0
LINE
  5
   22C
  8
0
  6
CONTINUOUS
 62
     7
 10
-829.236861183973
 20
-131.675845086575
 30
0.0
 11
-829.586861178013
 21
-132.025845080614
 31
0.0
  0
LINE
  5
   22D
  8
0
  6
CONTINUOUS
 62
     7
 10
-829.236861183973
 20
-137.275844991207
 30
0.0
 11
-829.586861178013
 21
-136.925844997168
 31
0.0
  0
LINE
  5
   22E
  8
0
  6
CONTINUOUS
 62
     7
 10
-800.186861678692
 20
-130.625845104456
 30
0.0
 11
-814.886861428352
 21
-130.625845104456
 31
0.0
  0
LINE
  5
   22F
  8
0
  6
CONTINUOUS
 62
     7
 10
-800.186861678692
 20
-138.325844973326
 30
0.0
 11
-814.886861428352
 21
-138.325844973326
 31
0.0
  0
LINE
  5
   230
  8
0
  6
CONTINUOUS
 62
     7
 10
-820.486861332985
 20
-136.925844997168
 30
0.0
 11
-822.586861297222
 21
-136.925844997168
 31
0.0
  0
LINE
  5
   231
  8
0
  6
CONTINUOUS
 62
     7
 10
-800.186861678692
 20
-103.325845569372
 30
0.0
 11
-814.886861428352
 21
-103.325845569372
 31
0.0
  0
LINE
  5
   232
  8
0
  6
CONTINUOUS
 62
     7
 10
-800.186861678692
 20
-95.6258457005024
 30
0.0
 11
-814.886861428352
 21
-95.6258457005024
 31
0.0
  0
LINE
  5
   233
  8
0
  6
CONTINUOUS
 62
     7
 10
-814.886861428352
 20
-93.8758457303047
 30
0.0
 11
-814.886861428352
 21
-105.07584553957
 31
0.0
  0
LINE
  5
   234
  8
0
  6
CONTINUOUS
 62
     7
 10
-814.886861428352
 20
-105.07584553957
 30
0.0
 11
-819.086861356827
 21
-105.07584553957
 31
0.0
  0
LINE
  5
   235
  8
0
  6
CONTINUOUS
 62
     7
 10
-814.886861428352
 20
-93.8758457303047
 30
0.0
 11
-819.086861356827
 21
-93.8758457303047
 31
0.0
  0
LINE
  5
   236
  8
0
  6
CONTINUOUS
 62
     7
 10
-819.086861356827
 20
-93.1758457422256
 30
0.0
 11
-819.086861356827
 21
-105.775845527649
 31
0.0
  0
LINE
  5
   237
  8
0
  6
CONTINUOUS
 62
     7
 10
-820.486861332985
 20
-93.1758457422256
 30
0.0
 11
-820.486861332985
 21
-105.775845527649
 31
0.0
  0
LINE
  5
   238
  8
0
  6
CONTINUOUS
 62
     7
 10
-823.98686127338
 20
-93.1758457422256
 30
0.0
 11
-823.98686127338
 21
-105.775845527649
 31
0.0
  0
LINE
  5
   239
  8
0
  6
CONTINUOUS
 62
     7
 10
-823.98686127338
 20
-105.07584553957
 30
0.0
 11
-828.186861201855
 21
-105.07584553957
 31
0.0
  0
LINE
  5
   23A
  8
0
  6
CONTINUOUS
 62
     7
 10
-828.186861201855
 20
-93.8758457303047
 30
0.0
 11
-828.186861201855
 21
-105.07584553957
 31
0.0
  0
LINE
  5
   23B
  8
0
  6
CONTINUOUS
 62
     7
 10
-823.98686127338
 20
-93.8758457303047
 30
0.0
 11
-828.186861201855
 21
-93.8758457303047
 31
0.0
  0
LINE
  5
   23C
  8
0
  6
CONTINUOUS
 62
     7
 10
-819.086861356827
 20
-93.1758457422256
 30
0.0
 11
-819.086861356827
 21
-105.775845527649
 31
0.0
  0
LINE
  5
   23D
  8
0
  6
CONTINUOUS
 62
     7
 10
-819.086861356827
 20
-105.775845527649
 30
0.0
 11
-820.486861332985
 21
-105.775845527649
 31
0.0
  0
LINE
  5
   23E
  8
0
  6
CONTINUOUS
 62
     7
 10
-822.586861297222
 20
-105.775845527649
 30
0.0
 11
-823.98686127338
 21
-105.775845527649
 31
0.0
  0
LINE
  5
   23F
  8
0
  6
CONTINUOUS
 62
     7
 10
-819.086861356827
 20
-93.1758457422256
 30
0.0
 11
-820.486861332985
 21
-93.1758457422256
 31
0.0
  0
LINE
  5
   240
  8
0
  6
CONTINUOUS
 62
     7
 10
-822.586861297222
 20
-93.1758457422256
 30
0.0
 11
-823.98686127338
 21
-93.1758457422256
 31
0.0
  0
LINE
  5
   241
  8
0
  6
CONTINUOUS
 62
     7
 10
-822.586861297222
 20
-93.1758457422256
 30
0.0
 11
-822.586861297222
 21
-105.775845527649
 31
0.0
  0
LINE
  5
   242
  8
0
  6
CONTINUOUS
 62
     7
 10
-820.486861332985
 20
-102.275845587254
 30
0.0
 11
-822.586861297222
 21
-102.275845587254
 31
0.0
  0
LINE
  5
   243
  8
0
  6
CONTINUOUS
 62
     7
 10
-820.486861332985
 20
-96.675845682621
 30
0.0
 11
-822.586861297222
 21
-96.675845682621
 31
0.0
  0
LINE
  5
   244
  8
0
  6
CONTINUOUS
 62
     7
 10
-820.486861332985
 20
-97.0258456766605
 30
0.0
 11
-822.586861297222
 21
-97.0258456766605
 31
0.0
  0
LINE
  5
   245
  8
0
  6
CONTINUOUS
 62
     7
 10
-817.686861380669
 20
-101.925845593214
 30
0.0
 11
-819.786861344906
 21
-101.925845593214
 31
0.0
  0
LINE
  5
   246
  8
0
  6
CONTINUOUS
 62
     7
 10
-828.186861201855
 20
-102.275845587254
 30
0.0
 11
-829.236861183973
 21
-102.275845587254
 31
0.0
  0
LINE
  5
   247
  8
0
  6
CONTINUOUS
 62
     7
 10
-829.586861178013
 20
-97.0258456766605
 30
0.0
 11
-829.586861178013
 21
-101.925845593214
 31
0.0
  0
LINE
  5
   248
  8
0
  6
CONTINUOUS
 62
     7
 10
-828.186861201855
 20
-96.675845682621
 30
0.0
 11
-829.236861183973
 21
-96.675845682621
 31
0.0
  0
LINE
  5
   249
  8
0
  6
CONTINUOUS
 62
     7
 10
-828.186861201855
 20
-97.0258456766605
 30
0.0
 11
-829.586861178013
 21
-97.0258456766605
 31
0.0
  0
LINE
  5
   24A
  8
0
  6
CONTINUOUS
 62
     7
 10
-829.236861183973
 20
-96.675845682621
 30
0.0
 11
-829.236861183973
 21
-102.275845587254
 31
0.0
  0
LINE
  5
   24B
  8
0
  6
CONTINUOUS
 62
     7
 10
-828.186861201855
 20
-101.925845593214
 30
0.0
 11
-829.586861178013
 21
-101.925845593214
 31
0.0
  0
LINE
  5
   24C
  8
0
  6
CONTINUOUS
 62
     7
 10
-829.236861183973
 20
-96.675845682621
 30
0.0
 11
-829.236861183973
 21
-102.275845587254
 31
0.0
  0
LINE
  5
   24D
  8
0
  6
CONTINUOUS
 62
     7
 10
-829.236861183973
 20
-102.275845587254
 30
0.0
 11
-829.586861178013
 21
-101.925845593214
 31
0.0
  0
LINE
  5
   24E
  8
0
  6
CONTINUOUS
 62
     7
 10
-829.236861183973
 20
-96.675845682621
 30
0.0
 11
-829.586861178013
 21
-97.0258456766605
 31
0.0
  0
LINE
  5
   24F
  8
0
  6
CONTINUOUS
 62
     7
 10
-823.98686127338
 20
-134.475845038891
 30
0.0
 11
-828.186861201855
 21
-134.475845038891
 31
0.0
  0
LINE
  5
   250
  8
0
  6
CONTINUOUS
 62
     7
 10
-823.98686127338
 20
-99.4758456349373
 30
0.0
 11
-828.186861201855
 21
-99.4758456349373
 31
0.0
  0
LINE
  5
   251
  8
0
  6
CONTINUOUS
 62
     7
 10
-814.886861428352
 20
-99.4758456349373
 30
0.0
 11
-819.086861356827
 21
-99.4758456349373
 31
0.0
  0
LINE
  5
   252
  8
0
  6
CONTINUOUS
 62
     7
 10
-814.886861428352
 20
-134.475845038891
 30
0.0
 11
-819.086861356827
 21
-134.475845038891
 31
0.0
  0
LINE
  5
   253
  8
0
  6
CONTINUOUS
 62
     7
 10
-737.072089687052
 20
-113.335845532417
 30
0.0
 11
-737.072089687052
 21
-120.615845141411
 31
0.0
  0
LINE
  5
   254
  8
0
  6
CONTINUOUS
 62
     7
 10
-737.072089687052
 20
-113.335845532417
 30
0.0
 11
-747.686940786274
 21
-113.335845532417
 31
0.0
  0
LINE
  5
   255
  8
0
  6
CONTINUOUS
 62
     7
 10
-737.072089687052
 20
-120.615845141411
 30
0.0
 11
-747.686940786274
 21
-120.615845141411
 31
0.0
  0
LINE
  5
   256
  8
0
  6
DASHDOT
 62
     7
 10
-797.27738250114
 20
-108.225845485926
 30
0.0
 11
-808.672721825596
 21
-108.225845485926
 31
0.0
  0
LINE
  5
   257
  8
0
  6
CONTINUOUS
 62
     7
 10
-802.216861644121
 20
-106.825845509768
 30
0.0
 11
-804.736861601206
 21
-106.825845509768
 31
0.0
  0
LINE
  5
   258
  8
0
  6
CONTINUOUS
 62
     7
 10
-802.216861644121
 20
-109.625845462084
 30
0.0
 11
-804.736861601206
 21
-109.625845462084
 31
0.0
  0
LINE
  5
   259
  8
0
  6
CONTINUOUS
 62
     7
 10
-805.086861595245
 20
-107.175845503807
 30
0.0
 11
-805.086861595245
 21
-109.275845468044
 31
0.0
  0
LINE
  5
   25A
  8
0
  6
CONTINUOUS
 62
     7
 10
-804.736861601206
 20
-106.825845509768
 30
0.0
 11
-805.086861595245
 21
-107.175845503807
 31
0.0
  0
LINE
  5
   25B
  8
0
  6
CONTINUOUS
 62
     7
 10
-804.736861601206
 20
-109.625845462084
 30
0.0
 11
-805.086861595245
 21
-109.275845468044
 31
0.0
  0
LINE
  5
   25C
  8
0
  6
DASHDOT
 62
     7
 10
-802.216861644121
 20
-109.275845468044
 30
0.0
 11
-805.086861595245
 21
-109.275845468044
 31
0.0
  0
LINE
  5
   25D
  8
0
  6
CONTINUOUS
 62
     7
 10
-804.736861601206
 20
-106.825845509768
 30
0.0
 11
-804.736861601206
 21
-109.625845462084
 31
0.0
  0
LINE
  5
   25E
  8
0
  6
DASHDOT
 62
     7
 10
-802.216861644121
 20
-107.175845503807
 30
0.0
 11
-805.086861595245
 21
-107.175845503807
 31
0.0
  0
LINE
  5
   25F
  8
0
  6
DASHDOT
 62
     7
 10
-797.27738250114
 20
-125.725845187902
 30
0.0
 11
-808.672721825596
 21
-125.725845187902
 31
0.0
  0
LINE
  5
   260
  8
0
  6
CONTINUOUS
 62
     7
 10
-804.736861601206
 20
-124.325845211744
 30
0.0
 11
-804.736861601206
 21
-127.125845164061
 31
0.0
  0
LINE
  5
   261
  8
0
  6
CONTINUOUS
 62
     7
 10
-805.086861595245
 20
-124.675845205784
 30
0.0
 11
-805.086861595245
 21
-126.775845170021
 31
0.0
  0
LINE
  5
   262
  8
0
  6
DASHDOT
 62
     7
 10
-802.216861644121
 20
-126.775845170021
 30
0.0
 11
-805.086861595245
 21
-126.775845170021
 31
0.0
  0
LINE
  5
   263
  8
0
  6
DASHDOT
 62
     7
 10
-802.216861644121
 20
-124.675845205784
 30
0.0
 11
-805.086861595245
 21
-124.675845205784
 31
0.0
  0
LINE
  5
   264
  8
0
  6
CONTINUOUS
 62
     7
 10
-802.216861644121
 20
-124.325845211744
 30
0.0
 11
-804.736861601206
 21
-124.325845211744
 31
0.0
  0
LINE
  5
   265
  8
0
  6
CONTINUOUS
 62
     7
 10
-802.216861644121
 20
-127.125845164061
 30
0.0
 11
-804.736861601206
 21
-127.125845164061
 31
0.0
  0
LINE
  5
   266
  8
0
  6
CONTINUOUS
 62
     7
 10
-804.736861601206
 20
-127.125845164061
 30
0.0
 11
-805.086861595245
 21
-126.775845170021
 31
0.0
  0
LINE
  5
   267
  8
0
  6
CONTINUOUS
 62
     7
 10
-804.736861601206
 20
-124.325845211744
 30
0.0
 11
-805.086861595245
 21
-124.675845205784
 31
0.0
  0
LINE
  5
   268
  8
0
  6
CONTINUOUS
 62
     7
 10
-804.736861601206
 20
-127.125845164061
 30
0.0
 11
-805.086861595245
 21
-126.775845170021
 31
0.0
  0
LINE
  5
   269
  8
0
  6
CONTINUOUS
 62
     7
 10
-804.736861601206
 20
-124.325845211744
 30
0.0
 11
-805.086861595245
 21
-124.675845205784
 31
0.0
  0
LINE
  5
   26A
  8
0
  6
CONTINUOUS
 62
     7
 10
-814.886861428352
 20
-128.875845134258
 30
0.0
 11
-814.886861428352
 21
-140.075844943523
 31
0.0
  0
LINE
  5
   26B
  8
0
  6
CONTINUOUS
 62
     7
 10
-801.376861658426
 20
-103.325845569372
 30
0.0
 11
-801.376861658426
 21
-130.826401330967
 31
0.0
  0
LINE
  5
   26C
  8
0
  6
CONTINUOUS
 62
     7
 10
-802.216861644121
 20
-111.725845426321
 30
0.0
 11
-802.216861644121
 21
-122.225845247507
 31
0.0
  0
LINE
  5
   26D
  8
0
  6
CONTINUOUS
 62
     7
 10
-803.056861629816
 20
-111.725845426321
 30
0.0
 11
-803.056861629816
 21
-122.225845247507
 31
0.0
  0
LINE
  5
   26E
  8
0
  6
CONTINUOUS
 62
     7
 10
-802.216861644121
 20
-111.725845426321
 30
0.0
 11
-803.056861629816
 21
-111.725845426321
 31
0.0
  0
LINE
  5
   26F
  8
0
  6
CONTINUOUS
 62
     7
 10
-802.216861644121
 20
-122.225845247507
 30
0.0
 11
-803.056861629816
 21
-122.225845247507
 31
0.0
  0
LINE
  5
   270
  8
0
  6
CONTINUOUS
 62
     7
 10
-803.056861629816
 20
-113.125845402479
 30
0.0
 11
-837.986861034962
 21
-113.125845402479
 31
0.0
  0
LINE
  5
   271
  8
0
  6
CONTINUOUS
 62
     7
 10
-803.056861629816
 20
-120.825845271349
 30
0.0
 11
-837.986861034962
 21
-120.825845271349
 31
0.0
  0
LINE
  5
   272
  8
0
  6
CONTINUOUS
 62
     7
 10
-802.216861644121
 20
-106.475845515728
 30
0.0
 11
-802.216861644121
 21
-109.975845456123
 31
0.0
  0
LINE
  5
   273
  8
0
  6
CONTINUOUS
 62
     7
 10
-801.726861652466
 20
-106.475845515728
 30
0.0
 11
-802.216861644121
 21
-106.475845515728
 31
0.0
  0
LINE
  5
   274
  8
0
  6
CONTINUOUS
 62
     7
 10
-801.726861652466
 20
-109.975845456123
 30
0.0
 11
-802.216861644121
 21
-109.975845456123
 31
0.0
  0
LINE
  5
   275
  8
0
  6
CONTINUOUS
 62
     7
 10
-801.726861652466
 20
-123.975845217705
 30
0.0
 11
-802.216861644121
 21
-123.975845217705
 31
0.0
  0
LINE
  5
   276
  8
0
  6
CONTINUOUS
 62
     7
 10
-801.726861652466
 20
-127.4758451581
 30
0.0
 11
-802.216861644121
 21
-127.4758451581
 31
0.0
  0
LINE
  5
   277
  8
0
  6
CONTINUOUS
 62
     7
 10
-802.216861644121
 20
-123.975845217705
 30
0.0
 11
-802.216861644121
 21
-127.4758451581
 31
0.0
  0
ARC
  5
   278
  8
0
  6
CONTINUOUS
 62
     7
 10
-801.726861652466
 20
-123.625845223665
 30
0.0
 40
0.349999994039536
 50
269.999999896069
 51
359.999999896069
  0
ARC
  5
   279
  8
0
  6
CONTINUOUS
 62
     7
 10
-801.726861652466
 20
-127.82584515214
 30
0.0
 40
0.349999994039536
 50
359.999999896069
 51
449.999999896069
  0
LINE
  5
   27A
  8
0
  6
CONTINUOUS
 62
     7
 10
-802.216861644121
 20
-111.725845426321
 30
0.0
 11
-802.216861644121
 21
-122.225845247507
 31
0.0
  0
ARC
  5
   27B
  8
0
  6
CONTINUOUS
 62
     7
 10
-801.726861652466
 20
-106.125845521688
 30
0.0
 40
0.349999994039536
 50
269.999999896069
 51
359.999999896069
  0
ARC
  5
   27C
  8
0
  6
CONTINUOUS
 62
     7
 10
-801.726861652466
 20
-110.325845450163
 30
0.0
 40
0.349999994039536
 50
359.999999896069
 51
449.999999896069
  0
LINE
  5
   27D
  8
0
  6
CONTINUOUS
 62
     7
 10
-747.686940786274
 20
-89.6758458018303
 30
0.0
 11
-747.686940786274
 21
-144.275844871998
 31
0.0
  0
LINE
  5
   27E
  8
0
  6
CONTINUOUS
 62
     7
 10
-751.186951407821
 20
-89.6758458018303
 30
0.0
 11
-751.186951407821
 21
-144.275844871998
 31
0.0
  0
LINE
  5
   27F
  8
0
  6
CONTINUOUS
 62
     7
 10
-753.286951372058
 20
-115.925845354795
 30
0.0
 11
-768.686951109798
 21
-115.925845354795
 31
0.0
  0
LINE
  5
   280
  8
0
  6
CONTINUOUS
 62
     7
 10
-753.286951372058
 20
-112.77584540844
 30
0.0
 11
-768.686951109798
 21
-112.77584540844
 31
0.0
  0
LINE
  5
   281
  8
0
  6
CONTINUOUS
 62
     7
 10
-753.286951372058
 20
-112.77584540844
 30
0.0
 11
-753.286951372058
 21
-115.925845354795
 31
0.0
  0
LINE
  5
   282
  8
0
  6
CONTINUOUS
 62
     7
 10
-768.686951109798
 20
-112.77584540844
 30
0.0
 11
-768.686951109798
 21
-115.925845354795
 31
0.0
  0
LINE
  5
   283
  8
0
  6
CONTINUOUS
 62
     7
 10
-768.686951109798
 20
-118.025845319033
 30
0.0
 11
-768.686951109798
 21
-121.175845265388
 31
0.0
  0
LINE
  5
   284
  8
0
  6
CONTINUOUS
 62
     7
 10
-753.286951372058
 20
-121.175845265388
 30
0.0
 11
-768.686951109798
 21
-121.175845265388
 31
0.0
  0
LINE
  5
   285
  8
0
  6
CONTINUOUS
 62
     7
 10
-753.286951372058
 20
-118.025845319033
 30
0.0
 11
-753.286951372058
 21
-121.175845265388
 31
0.0
  0
LINE
  5
   286
  8
0
  6
CONTINUOUS
 62
     7
 10
-753.286951372058
 20
-118.025845319033
 30
0.0
 11
-768.686951109798
 21
-118.025845319033
 31
0.0
  0
LINE
  5
   287
  8
0
  6
CONTINUOUS
 62
     7
 10
-753.286951372058
 20
-138.675844967365
 30
0.0
 11
-768.686951109798
 21
-138.675844967365
 31
0.0
  0
LINE
  5
   288
  8
0
  6
CONTINUOUS
 62
     7
 10
-768.686951109798
 20
-135.525845021009
 30
0.0
 11
-768.686951109798
 21
-138.675844967365
 31
0.0
  0
LINE
  5
   289
  8
0
  6
CONTINUOUS
 62
     7
 10
-753.286951372058
 20
-135.525845021009
 30
0.0
 11
-753.286951372058
 21
-138.675844967365
 31
0.0
  0
LINE
  5
   28A
  8
0
  6
CONTINUOUS
 62
     7
 10
-753.286951372058
 20
-135.525845021009
 30
0.0
 11
-768.686951109798
 21
-135.525845021009
 31
0.0
  0
LINE
  5
   28B
  8
0
  6
CONTINUOUS
 62
     7
 10
-768.686951109798
 20
-130.275845110416
 30
0.0
 11
-768.686951109798
 21
-133.425845056772
 31
0.0
  0
LINE
  5
   28C
  8
0
  6
CONTINUOUS
 62
     7
 10
-753.286951372058
 20
-133.425845056772
 30
0.0
 11
-768.686951109798
 21
-133.425845056772
 31
0.0
  0
LINE
  5
   28D
  8
0
  6
CONTINUOUS
 62
     7
 10
-753.286951372058
 20
-130.275845110416
 30
0.0
 11
-753.286951372058
 21
-133.425845056772
 31
0.0
  0
LINE
  5
   28E
  8
0
  6
CONTINUOUS
 62
     7
 10
-753.286951372058
 20
-130.275845110416
 30
0.0
 11
-768.686951109798
 21
-130.275845110416
 31
0.0
  0
LINE
  5
   28F
  8
0
  6
CONTINUOUS
 62
     7
 10
-768.686951109798
 20
-118.025845319033
 30
0.0
 11
-768.686951109798
 21
-121.175845265388
 31
0.0
  0
LINE
  5
   290
  8
0
  6
CONTINUOUS
 62
     7
 10
-753.286951372058
 20
-121.175845265388
 30
0.0
 11
-768.686951109798
 21
-121.175845265388
 31
0.0
  0
LINE
  5
   291
  8
0
  6
CONTINUOUS
 62
     7
 10
-753.286951372058
 20
-118.025845319033
 30
0.0
 11
-753.286951372058
 21
-121.175845265388
 31
0.0
  0
LINE
  5
   292
  8
0
  6
CONTINUOUS
 62
     7
 10
-753.286951372058
 20
-103.675845563412
 30
0.0
 11
-768.686951109798
 21
-103.675845563412
 31
0.0
  0
LINE
  5
   293
  8
0
  6
CONTINUOUS
 62
     7
 10
-768.686951109798
 20
-100.525845617056
 30
0.0
 11
-768.686951109798
 21
-103.675845563412
 31
0.0
  0
LINE
  5
   294
  8
0
  6
CONTINUOUS
 62
     7
 10
-753.286951372058
 20
-100.525845617056
 30
0.0
 11
-768.686951109798
 21
-100.525845617056
 31
0.0
  0
LINE
  5
   295
  8
0
  6
CONTINUOUS
 62
     7
 10
-753.286951372058
 20
-100.525845617056
 30
0.0
 11
-753.286951372058
 21
-103.675845563412
 31
0.0
  0
LINE
  5
   296
  8
0
  6
CONTINUOUS
 62
     7
 10
-753.286951372058
 20
-98.4258456528187
 30
0.0
 11
-768.686951109798
 21
-98.4258456528187
 31
0.0
  0
LINE
  5
   297
  8
0
  6
CONTINUOUS
 62
     7
 10
-753.286951372058
 20
-95.2758457064629
 30
0.0
 11
-753.286951372058
 21
-98.4258456528187
 31
0.0
  0
LINE
  5
   298
  8
0
  6
CONTINUOUS
 62
     7
 10
-753.286951372058
 20
-95.2758457064629
 30
0.0
 11
-768.686951109798
 21
-95.2758457064629
 31
0.0
  0
LINE
  5
   299
  8
0
  6
CONTINUOUS
 62
     7
 10
-768.686951109798
 20
-95.2758457064629
 30
0.0
 11
-768.686951109798
 21
-98.4258456528187
 31
0.0
  0
TEXT
  5
   29A
  8
0
  6
CONTINUOUS
 62
     2
 10
-667.017082226871
 20
-160.747078382159
 30
0.0
 40
2.00000003448554
  1
3 POLE LOW VOLTAGE M.C.C.B SERIES ISOMAX
 50
359.999999896069
 41
0.75
 72
     1
 11
-637.267081712089
 21
-159.747078418732
 31
0.0
 73
     2
  0
TEXT
  5
   29B
  8
0
  6
CONTINUOUS
 62
     2
 10
-658.017083076218
 20
-163.947078207705
 30
0.0
 40
2.00000003448554
  1
FIXED VERSION REAR TERMINALS
 50
359.999999896069
 41
0.75
 72
     1
 11
-637.267082716622
 21
-162.947078227997
 31
0.0
 73
     2
  0
TEXT
  5
   29C
  8
0
  6
CONTINUOUS
 62
     2
 10
-677.062757373099
 20
-169.629133245959
 30
0.0
 40
2.00000003448554
  1
      INTERR.AUTOMATICO SERIE ISOMAX
 50
359.999999896069
 41
0.75
 11
-677.06275737129
 21
-168.629133228716
 31
0.0
 73
     2
  0
TEXT
  5
   29D
  8
0
  6
CONTINUOUS
 62
     2
 10
-677.062761429395
 20
-172.829141599249
 30
0.0
 40
2.00000003448554
  1
TRIPOL. ESECUZIONE FISSA TERMINALI POSTERIORI
 50
359.999999896069
 41
0.75
 11
-677.062761427586
 21
-171.829141582007
 31
0.0
 73
     2
  0
TEXT
  5
   29E
  8
0
  6
CONTINUOUS
 62
     2
 10
-762.651535035989
 20
-160.066877154754
 30
0.0
 40
2.00000003448554
  1
3/11/92
 50
359.999999896069
 41
0.75
 11
-762.65153503418
 21
-159.066877137511
 31
0.0
 73
     2
  0
TEXT
  5
   29F
  8
0
  6
CONTINUOUS
 62
     2
 10
-762.060333253762
 20
-164.303727893279
 30
0.0
 40
2.00000003448554
  1
MOSTOSI
 50
359.999999896069
 41
0.75
 11
-762.060333251953
 21
-163.303727876036
 31
0.0
 73
     2
  0
TEXT
  5
   2A0
  8
0
  6
CONTINUOUS
 62
     2
 10
-753.267120363589
 20
-177.909792356481
 30
0.0
 40
2.4999999335834
  1
M3727 95-01-18
 50
359.999999896069
 41
0.649999969792367
 11
-753.267120361328
 21
-176.659792389689
 31
0.0
 73
     2
  0
TEXT
  5
   2A1
  8
0
  6
CONTINUOUS
 62
     2
 10
-638.980773928495
 20
-179.574010688358
 30
0.0
 40
2.99999997871263
  1
S1
 50
359.999999896069
 41
0.983333365784751
 11
-638.980773925781
 21
-178.074010699002
 31
0.0
 73
     2
  0
TEXT
  5
   2A2
  8
0
  6
CONTINUOUS
 62
     2
 10
-603.440591838407
 20
-190.476962050017
 30
0.0
 40
2.4999999335834
  1
1/1
 50
359.999999896069
 41
1.01399997009277
 72
     1
 11
-599.950592041016
 21
-189.226962089539
 31
0.0
 73
     2
  0
TEXT
  5
   2A3
  8
0
  6
CONTINUOUS
 62
     2
 10
-659.167755131495
 20
-189.448903779528
 30
0.0
 40
4.99999986716679
  1
601855/041
 50
359.999999896069
 41
0.983334081014005
 11
-659.167755126972
 21
-186.948903845945
 31
0.0
 73
     2
  0
INSERT
  5
   2A4
  8
0
  6
CONTINUOUS
 62
     3
  2
*UDIM88
 10
0.0
 20
0.0
 30
0.0
  0
INSERT
  5
   2A5
  8
0
  6
CONTINUOUS
 62
     3
  2
*UDIM89
 10
0.0
 20
0.0
 30
0.0
  0
INSERT
  5
   2A6
  8
0
  6
CONTINUOUS
 62
     3
  2
*UDIM90
 10
0.0
 20
0.0
 30
0.0
  0
INSERT
  5
   2A7
  8
0
  6
CONTINUOUS
 62
     7
  2
*UDIM91
 10
0.0
 20
0.0
 30
0.0
  0
INSERT
  5
   2A8
  8
0
  6
CONTINUOUS
 62
     7
  2
*UDIM92
 10
0.0
 20
0.0
 30
0.0
  0
INSERT
  5
   2A9
  8
0
  6
CONTINUOUS
 62
     3
  2
*UDIM93
 10
0.0
 20
0.0
 30
0.0
  0
INSERT
  5
   2AA
  8
0
  6
CONTINUOUS
 62
     3
  2
*UDIM94
 10
0.0
 20
0.0
 30
0.0
  0
INSERT
  5
   2AB
  8
0
  6
CONTINUOUS
 62
     7
  2
*UDIM95
 10
0.0
 20
0.0
 30
0.0
  0
LINE
  5
   2AC
  8
0
  6
DASHDOT
 62
     7
 10
-942.604003757238
 20
-76.9208472967148
 30
0.0
 11
-942.604003757238
 21
-93.7208470106125
 31
0.0
  0
LINE
  5
   2AD
  8
0
  6
DASHDOT
 62
     7
 10
-951.004003614187
 20
-85.3208471536636
 30
0.0
 11
-934.20400390029
 21
-85.3208471536636
 31
0.0
  0
LINE
  5
   2AE
  8
0
  6
DASHDOT
 62
     7
 10
-925.104004055262
 20
-146.920846104622
 30
0.0
 11
-925.104004055262
 21
-163.72084581852
 31
0.0
  0
LINE
  5
   2AF
  8
0
  6
DASHDOT
 62
     7
 10
-933.504003912211
 20
-155.320845961571
 30
0.0
 11
-916.704004198313
 21
-155.320845961571
 31
0.0
  0
LINE
  5
   2B0
  8
0
  6
DASHDOT
 62
     7
 10
-933.85400390625
 20
-83.4009120856543
 30
0.0
 11
-933.85400390625
 21
-159.959352409591
 31
0.0
  0
LINE
  5
   2B1
  8
0
  6
DASHDOT
 62
     7
 10
-951.354003608227
 20
-72.0208473801613
 30
0.0
 11
-951.354003608227
 21
-97.2208469510078
 31
0.0
  0
LINE
  5
   2B2
  8
0
  6
DASHDOT
 62
     7
 10
-963.95400339365
 20
-84.6208471655846
 30
0.0
 11
-938.754003822804
 21
-84.6208471655846
 31
0.0
  0
LINE
  5
   2B3
  8
0
  6
DASHDOT
 62
     7
 10
-933.85400390625
 20
-72.0208473801613
 30
0.0
 11
-933.85400390625
 21
-97.2208469510078
 31
0.0
  0
LINE
  5
   2B4
  8
0
  6
DASHDOT
 62
     7
 10
-946.454003691673
 20
-84.6208471655846
 30
0.0
 11
-921.254004120827
 21
-84.6208471655846
 31
0.0
  0
LINE
  5
   2B5
  8
0
  6
DASHDOT
 62
     7
 10
-916.354004204273
 20
-72.0208473801613
 30
0.0
 11
-916.354004204273
 21
-97.2208469510078
 31
0.0
  0
LINE
  5
   2B6
  8
0
  6
DASHDOT
 62
     7
 10
-928.954003989697
 20
-84.6208471655846
 30
0.0
 11
-903.75400441885
 21
-84.6208471655846
 31
0.0
  0
LINE
  5
   2B7
  8
0
  6
DASHDOT
 62
     7
 10
-951.354003608227
 20
-143.420846164227
 30
0.0
 11
-951.354003608227
 21
-168.620845735073
 31
0.0
  0
LINE
  5
   2B8
  8
0
  6
DASHDOT
 62
     7
 10
-963.95400339365
 20
-156.02084594965
 30
0.0
 11
-938.754003822804
 21
-156.02084594965
 31
0.0
  0
LINE
  5
   2B9
  8
0
  6
DASHDOT
 62
     7
 10
-933.85400390625
 20
-143.420846164227
 30
0.0
 11
-933.85400390625
 21
-174.066599431379
 31
0.0
  0
LINE
  5
   2BA
  8
0
  6
DASHDOT
 62
     7
 10
-946.454003691673
 20
-156.02084594965
 30
0.0
 11
-921.254004120827
 21
-156.02084594965
 31
0.0
  0
LINE
  5
   2BB
  8
0
  6
DASHDOT
 62
     7
 10
-916.354004204273
 20
-143.420846164227
 30
0.0
 11
-916.354004204273
 21
-168.620845735073
 31
0.0
  0
LINE
  5
   2BC
  8
0
  6
DASHDOT
 62
     7
 10
-928.954003989697
 20
-156.02084594965
 30
0.0
 11
-903.75400441885
 21
-156.02084594965
 31
0.0
  0
LINE
  5
   2BD
  8
0
  6
CONTINUOUS
 62
     7
 10
-960.677524484754
 20
-73.0262059511475
 30
0.0
 11
-906.951094266426
 21
-73.0262059511475
 31
0.0
  0
LINE
  5
   2BE
  8
0
  6
CONTINUOUS
 62
     7
 10
-960.677524484754
 20
-168.641947801865
 30
0.0
 11
-906.951094266426
 21
-168.641947801865
 31
0.0
  0
LINE
  5
   2BF
  8
0
  6
CONTINUOUS
 62
     7
 10
-906.951094266426
 20
-73.0262059511475
 30
0.0
 11
-906.951094266426
 21
-168.641947801865
 31
0.0
  0
LINE
  5
   2C0
  8
0
  6
CONTINUOUS
 62
     7
 10
-960.677524484754
 20
-73.0262059511475
 30
0.0
 11
-960.677524484754
 21
-168.641947801865
 31
0.0
  0
CIRCLE
  5
   2C1
  8
0
  6
CONTINUOUS
 62
     7
 10
-951.354003608227
 20
-84.6208471655846
 30
0.0
 40
6.29999989271164
  0
CIRCLE
  5
   2C2
  8
0
  6
CONTINUOUS
 62
     7
 10
-933.85400390625
 20
-84.6208471655846
 30
0.0
 40
6.29999989271164
  0
CIRCLE
  5
   2C3
  8
0
  6
CONTINUOUS
 62
     7
 10
-916.354004204273
 20
-84.6208471655846
 30
0.0
 40
6.29999989271164
  0
CIRCLE
  5
   2C4
  8
0
  6
CONTINUOUS
 62
     7
 10
-951.354003608227
 20
-156.02084594965
 30
0.0
 40
6.29999989271164
  0
CIRCLE
  5
   2C5
  8
0
  6
CONTINUOUS
 62
     7
 10
-933.85400390625
 20
-156.02084594965
 30
0.0
 40
6.29999989271164
  0
CIRCLE
  5
   2C6
  8
0
  6
CONTINUOUS
 62
     7
 10
-916.354004204273
 20
-156.02084594965
 30
0.0
 40
6.29999989271164
  0
LINE
  5
   2C7
  8
0
  6
DASHDOT
 62
     7
 10
-968.200853816573
 20
-128.720846414566
 30
0.0
 11
-900.80467755367
 21
-128.720846414566
 31
0.0
  0
ARC
  5
   2C8
  8
0
  6
DASHDOT
 62
     7
 10
-925.104004055262
 20
-155.320845961571
 30
0.0
 40
1.57499997317791
 50
566.387799805346
 51
809.999999844103
  0
CIRCLE
  5
   2C9
  8
0
  6
CONTINUOUS
 62
     7
 10
-925.104004055262
 20
-155.320845961571
 30
0.0
 40
1.57499997317791
  0
ARC
  5
   2CA
  8
0
  6
DASHDOT
 62
     7
 10
-942.604003757238
 20
-85.3208471536636
 30
0.0
 40
1.57499997317791
 50
566.387799805346
 51
809.999999844103
  0
CIRCLE
  5
   2CB
  8
0
  6
CONTINUOUS
 62
     7
 10
-942.604003757238
 20
-85.3208471536636
 30
0.0
 40
1.57499997317791
  0
TEXT
  5
   2CC
  8
0
  6
CONTINUOUS
 62
     2
 10
-935.077713222427
 20
-57.4211520054656
 30
0.0
 40
2.99999997871263
  1
Y
 50
359.999999844103
 41
0.983333365784751
 11
-935.077713218353
 21
-55.9211520161093
 31
0.0
 73
     2
  0
TEXT
  5
   2CD
  8
0
  6
CONTINUOUS
 62
     2
 10
-899.888319216539
 20
-129.931898882817
 30
0.0
 40
2.99999997871263
  1
X
 50
359.999999844103
 41
0.983333365784751
 11
-899.888319212466
 21
-128.43189889346
 31
0.0
 73
     2
  0
TEXT
  5
   2CE
  8
0
  6
CONTINUOUS
 62
     2
 10
-982.45667489659
 20
-130.396438879636
 30
0.0
 40
2.99999997871263
  1
X
 50
359.999999844103
 41
0.983333365784751
 11
-982.456674892516
 21
-128.896438890279
 31
0.0
 73
     2
  0
TEXT
  5
   2CF
  8
0
  6
CONTINUOUS
 62
     2
 10
-935.524360536999
 20
-178.187690106619
 30
0.0
 40
2.99999997871263
  1
Y
 50
359.999999844103
 41
0.983333365784751
 11
-935.524360532925
 21
-176.687690117262
 31
0.0
 73
     2
  0
INSERT
  5
   2D0
  8
0
  6
CONTINUOUS
 62
     7
  2
*UDIM96
 10
0.0
 20
0.0
 30
0.0
  0
INSERT
  5
   2D1
  8
0
  6
CONTINUOUS
 62
     7
  2
*UDIM97
 10
0.0
 20
0.0
 30
0.0
  0
INSERT
  5
   2D2
  8
0
  6
CONTINUOUS
 62
     3
  2
*UDIM98
 10
0.0
 20
0.0
 30
0.0
  0
INSERT
  5
   2D3
  8
0
  6
CONTINUOUS
 62
     3
  2
*UDIM99
 10
0.0
 20
0.0
 30
0.0
  0
INSERT
  5
   2D4
  8
0
  6
CONTINUOUS
 62
     3
  2
*UDIM100
 10
0.0
 20
0.0
 30
0.0
  0
INSERT
  5
   2D5
  8
0
  6
CONTINUOUS
 62
     3
  2
*UDIM101
 10
0.0
 20
0.0
 30
0.0
  0
INSERT
  5
   2D6
  8
0
  6
CONTINUOUS
 62
     3
  2
*UDIM102
 10
0.0
 20
0.0
 30
0.0
  0
INSERT
  5
   2D7
  8
0
  6
CONTINUOUS
 62
     3
  2
*UDIM103
 10
0.0
 20
0.0
 30
0.0
  0
INSERT
  5
   2D8
  8
0
  6
CONTINUOUS
 62
     7
  2
*UDIM104
 10
0.0
 20
0.0
 30
0.0
  0
TEXT
  5
   2D9
  8
0
  6
CONTINUOUS
 62
     2
 10
-938.192143513494
 20
-188.029090085505
 30
0.0
 40
2.99999997871263
  1
=
 50
359.999999844103
 41
0.91666663951344
 11
-938.19214350942
 21
-186.529090096149
 31
0.0
 73
     2
  0
TEXT
  5
   2DA
  8
0
  6
CONTINUOUS
 62
     2
 10
-929.944908165052
 20
-188.395629843667
 30
0.0
 40
2.99999997871263
  1
=
 50
359.999999844103
 41
0.91666663951344
 11
-929.944908160978
 21
-186.895629854311
 31
0.0
 73
     2
  0
LINE
  5
   2DB
  8
0
  6
CONTINUOUS
 62
     7
 10
-770.0869140625
 20
53.3167841539205
 30
0.0
 11
-770.0869140625
 21
-27.8832334742166
 31
0.0
  0
LINE
  5
   2DC
  8
0
  6
CONTINUOUS
 62
     7
 10
-800.186902868748
 20
10.6167560400858
 30
0.0
 11
-800.186902868748
 21
-29.2832346439363
 31
0.0
  0
LINE
  5
   2DD
  8
0
  6
CONTINUOUS
 62
     7
 10
-800.186906817867
 20
14.8167558398298
 30
0.0
 11
-798.086906777231
 21
14.1167558262843
 31
0.0
  0
LINE
  5
   2DE
  8
0
  6
CONTINUOUS
 62
     7
 10
-798.086897900342
 20
11.3167576962213
 30
0.0
 11
-800.186897940978
 21
10.6167576826758
 31
0.0
  0
LINE
  5
   2DF
  8
0
  6
CONTINUOUS
 62
     7
 10
-798.086902904511
 20
14.1167639493941
 30
0.0
 11
-798.086902904511
 21
11.3167639970778
 31
0.0
  0
LINE
  5
   2E0
  8
0
  6
CONTINUOUS
 62
     7
 10
-800.536902862788
 20
-26.4832240104679
 30
0.0
 11
-800.186902868748
 21
-26.4832240104679
 31
0.0
  0
LINE
  5
   2E1
  8
0
  6
CONTINUOUS
 62
     7
 10
-800.536902862788
 20
-18.0832348346712
 30
0.0
 11
-800.186902868748
 21
-18.0832348346712
 31
0.0
  0
LINE
  5
   2E2
  8
0
  6
CONTINUOUS
 62
     7
 10
-800.536902862788
 20
-18.0832348346712
 30
0.0
 11
-800.536902862788
 21
-26.4832240104679
 31
0.0
  0
LINE
  5
   2E3
  8
0
  6
CONTINUOUS
 62
     7
 10
-800.536902862788
 20
51.9167532920837
 30
0.0
 11
-800.186902868748
 21
51.9167532920837
 31
0.0
  0
LINE
  5
   2E4
  8
0
  6
CONTINUOUS
 62
     7
 10
-800.536902862788
 20
43.516764116287
 30
0.0
 11
-800.186902868748
 21
43.516764116287
 31
0.0
  0
LINE
  5
   2E5
  8
0
  6
CONTINUOUS
 62
     7
 10
-800.536902862788
 20
-18.083224153519
 30
0.0
 11
-800.186902868748
 21
-18.083224153519
 31
0.0
  0
LINE
  5
   2E6
  8
0
  6
CONTINUOUS
 62
     7
 10
-767.986914098263
 20
10.2667646825312
 30
0.0
 11
-767.986914098263
 21
-1.98323510885257
 31
0.0
  0
LINE
  5
   2E7
  8
0
  6
CONTINUOUS
 62
     7
 10
-737.058832622538
 20
1.27210237287852
 30
0.0
 11
-736.89896777982
 21
1.19961939358158
 31
0.0
  0
LINE
  5
   2E8
  8
0
  6
CONTINUOUS
 62
     7
 10
-736.89897532902
 20
1.19962841510763
 30
0.0
 11
-736.794406824139
 21
1.05865118723278
 31
0.0
  0
LINE
  5
   2E9
  8
0
  6
CONTINUOUS
 62
     7
 10
-736.794408864466
 20
1.05865647620088
 30
0.0
 11
-736.771433703598
 21
0.884640448688377
 31
0.0
  0
LINE
  5
   2EA
  8
0
  6
CONTINUOUS
 62
     7
 10
-736.771441772454
 20
0.884646163236755
 30
0.0
 11
-737.029455691165
 21
-1.2166685244784
 31
0.0
  0
LINE
  5
   2EB
  8
0
  6
CONTINUOUS
 62
     7
 10
-737.029465555207
 20
-1.21667791465997
 30
0.0
 11
-737.097333590296
 21
-1.38465906473803
 31
0.0
  0
LINE
  5
   2EC
  8
0
  6
CONTINUOUS
 62
     7
 10
-737.097340854585
 20
-1.38465057528729
 30
0.0
 11
-737.240105125492
 21
-1.4961918290937
 31
0.0
  0
LINE
  5
   2ED
  8
0
  6
CONTINUOUS
 62
     7
 10
-737.240013842656
 20
-1.49618772379052
 30
0.0
 11
-737.419425257029
 21
-1.52140260080318
 31
0.0
  0
LINE
  5
   2EE
  8
0
  6
CONTINUOUS
 62
     7
 10
-770.0869140625
 20
10.2667646825312
 30
0.0
 11
-767.986914098263
 21
10.2667646825312
 31
0.0
  0
LINE
  5
   2EF
  8
0
  6
CONTINUOUS
 62
     7
 10
-770.0869140625
 20
-1.98323510885257
 30
0.0
 11
-767.986914098263
 21
-1.98323510885257
 31
0.0
  0
LINE
  5
   2F0
  8
0
  6
CONTINUOUS
 62
     7
 10
-770.0869140625
 20
9.91676402091963
 30
0.0
 11
-767.986914098263
 21
9.91676402091963
 31
0.0
  0
LINE
  5
   2F1
  8
0
  6
CONTINUOUS
 62
     7
 10
-770.0869140625
 20
-1.63323511481303
 30
0.0
 11
-767.986914098263
 21
-1.63323511481303
 31
0.0
  0
LINE
  5
   2F2
  8
0
  6
CONTINUOUS
 62
     7
 10
-747.686940786274
 20
3.12088341127759
 30
0.0
 11
-737.058869941469
 21
1.27212357292449
 31
0.0
  0
LINE
  5
   2F3
  8
0
  6
CONTINUOUS
 62
     7
 10
-737.058832622538
 20
1.27210237287852
 30
0.0
 11
-736.89896777982
 21
1.19961939358158
 31
0.0
  0
LINE
  5
   2F4
  8
0
  6
CONTINUOUS
 62
     7
 10
-736.89897532902
 20
1.19962841510763
 30
0.0
 11
-736.794406824139
 21
1.05865118723278
 31
0.0
  0
LINE
  5
   2F5
  8
0
  6
CONTINUOUS
 62
     7
 10
-736.794408864466
 20
1.05865647620088
 30
0.0
 11
-736.771433703598
 21
0.884640448688377
 31
0.0
  0
LINE
  5
   2F6
  8
0
  6
CONTINUOUS
 62
     7
 10
-736.771441772454
 20
0.884646163236755
 30
0.0
 11
-737.029455691165
 21
-1.2166685244784
 31
0.0
  0
LINE
  5
   2F7
  8
0
  6
CONTINUOUS
 62
     7
 10
-737.029465555207
 20
-1.21667791465997
 30
0.0
 11
-737.097333590296
 21
-1.38465906473803
 31
0.0
  0
LINE
  5
   2F8
  8
0
  6
CONTINUOUS
 62
     7
 10
-737.097340854585
 20
-1.38465057528729
 30
0.0
 11
-737.240105125492
 21
-1.4961918290937
 31
0.0
  0
LINE
  5
   2F9
  8
0
  6
CONTINUOUS
 62
     7
 10
-737.240013842656
 20
-1.49618772379052
 30
0.0
 11
-737.419425257029
 21
-1.52140260080318
 31
0.0
  0
LINE
  5
   2FA
  8
0
  6
CONTINUOUS
 62
     7
 10
-747.686940786274
 20
-0.260723215609486
 30
0.0
 11
-737.419495125366
 21
-1.52140731738149
 31
0.0
  0
ARC
  5
   2FB
  8
0
  6
CONTINUOUS
 62
     7
 10
-773.590456150089
 20
2.56713824736326
 30
0.0
 40
36.7512767740806
 50
341.662084871553
 51
365.929678541859
  0
LINE
  5
   2FC
  8
0
  6
DASHDOT
 62
     7
 10
-808.560233476206
 20
-21.5832347750666
 30
0.0
 11
-798.82392360232
 21
-21.5832347750666
 31
0.0
  0
LINE
  5
   2FD
  8
0
  6
DASHDOT
 62
     7
 10
-808.785883759858
 20
47.7867533624172
 30
0.0
 11
-798.988243136552
 21
47.7867533624172
 31
0.0
  0
LINE
  5
   2FE
  8
0
  6
DOT
 62
     7
 10
-804.736902791262
 20
44.216753423214
 30
0.0
 11
-801.936902838946
 21
44.216753423214
 31
0.0
  0
LINE
  5
   2FF
  8
0
  6
DOT
 62
     7
 10
-804.736902791262
 20
-18.7832348227503
 30
0.0
 11
-801.936902838946
 21
-18.7832348227503
 31
0.0
  0
LINE
  5
   300
  8
0
  6
DOT
 62
     7
 10
-802.286902832985
 20
49.8167533278465
 30
0.0
 11
-802.286902832985
 21
44.216753423214
 31
0.0
  0
LINE
  5
   301
  8
0
  6
DOT
 62
     7
 10
-805.926902770996
 20
48.4167533516884
 30
0.0
 11
-802.286902832985
 21
48.4167533516884
 31
0.0
  0
LINE
  5
   302
  8
0
  6
DOT
 62
     7
 10
-805.926902770996
 20
45.6167533993721
 30
0.0
 11
-802.286902832985
 21
45.6167533993721
 31
0.0
  0
LINE
  5
   303
  8
0
  6
DOT
 62
     7
 10
-805.926902770996
 20
-22.9832347512247
 30
0.0
 11
-802.286902832985
 21
-22.9832347512247
 31
0.0
  0
LINE
  5
   304
  8
0
  6
DOT
 62
     7
 10
-805.926902770996
 20
-20.1832347989084
 30
0.0
 11
-802.286902832985
 21
-20.1832347989084
 31
0.0
  0
LINE
  5
   305
  8
0
  6
DOT
 62
     7
 10
-806.13690276742
 20
-20.3932347953321
 30
0.0
 11
-806.13690276742
 21
-22.773234754801
 31
0.0
  0
LINE
  5
   306
  8
0
  6
DOT
 62
     7
 10
-806.13690276742
 20
48.2067533552647
 30
0.0
 11
-806.13690276742
 21
45.8267533957958
 31
0.0
  0
LINE
  5
   307
  8
0
  6
DOT
 62
     7
 10
-806.13690276742
 20
45.8267533957958
 30
0.0
 11
-805.926902770996
 21
45.6167533993721
 31
0.0
  0
LINE
  5
   308
  8
0
  6
DOT
 62
     7
 10
-805.926902770996
 20
48.4167533516884
 30
0.0
 11
-806.13690276742
 21
48.2067533552646
 31
0.0
  0
LINE
  5
   309
  8
0
  6
DOT
 62
     7
 10
-805.926902770996
 20
-20.1832347989084
 30
0.0
 11
-806.13690276742
 21
-20.3932347953321
 31
0.0
  0
LINE
  5
   30A
  8
0
  6
DOT
 62
     7
 10
-806.13690276742
 20
-22.7732347548009
 30
0.0
 11
-805.926902770996
 21
-22.9832347512247
 31
0.0
  0
LINE
  5
   30B
  8
0
  6
CONTINUOUS
 62
     7
 10
-800.186902868748
 20
56.1167746007543
 30
0.0
 11
-800.186902868748
 21
14.8167545234567
 31
0.0
  0
LINE
  5
   30C
  8
0
  6
CONTINUOUS
 62
     7
 10
-814.798347588894
 20
51.9318596183411
 30
0.0
 11
-800.536902862788
 21
51.9318596183411
 31
0.0
  0
LINE
  5
   30D
  8
0
  6
CONTINUOUS
 62
     7
 10
-814.798347588894
 20
44.9318597375504
 30
0.0
 11
-800.536902862788
 21
44.9318597375504
 31
0.0
  0
LINE
  5
   30E
  8
0
  6
CONTINUOUS
 62
     7
 10
-814.798347588894
 20
54.0318595825783
 30
0.0
 11
-814.798347588894
 21
42.8318597733131
 31
0.0
  0
LINE
  5
   30F
  8
0
  6
CONTINUOUS
 62
     7
 10
-818.998347517369
 20
54.7318595706573
 30
0.0
 11
-818.998347517369
 21
42.1318597852341
 31
0.0
  0
LINE
  5
   310
  8
0
  6
CONTINUOUS
 62
     7
 10
-818.998347517369
 20
54.0318595825783
 30
0.0
 11
-814.798347588894
 21
54.0318595825783
 31
0.0
  0
LINE
  5
   311
  8
0
  6
CONTINUOUS
 62
     7
 10
-818.998347517369
 20
42.8318597733131
 30
0.0
 11
-814.798347588894
 21
42.8318597733131
 31
0.0
  0
LINE
  5
   312
  8
0
  6
CONTINUOUS
 62
     7
 10
-818.998347517369
 20
54.7318595706573
 30
0.0
 11
-818.998347517369
 21
42.1318597852341
 31
0.0
  0
LINE
  5
   313
  8
0
  6
CONTINUOUS
 62
     7
 10
-820.398347493527
 20
54.7318595706573
 30
0.0
 11
-820.398347493527
 21
42.1318597852341
 31
0.0
  0
LINE
  5
   314
  8
0
  6
CONTINUOUS
 62
     7
 10
-822.498347457764
 20
54.7318595706573
 30
0.0
 11
-822.498347457764
 21
42.1318597852341
 31
0.0
  0
LINE
  5
   315
  8
0
  6
CONTINUOUS
 62
     7
 10
-823.898347433922
 20
54.7318595706573
 30
0.0
 11
-823.898347433922
 21
42.1318597852341
 31
0.0
  0
LINE
  5
   316
  8
0
  6
CONTINUOUS
 62
     7
 10
-828.098347362396
 20
54.0318595825783
 30
0.0
 11
-823.898347433922
 21
54.0318595825783
 31
0.0
  0
LINE
  5
   317
  8
0
  6
CONTINUOUS
 62
     7
 10
-828.098347362396
 20
54.0318595825783
 30
0.0
 11
-828.098347362396
 21
42.8318597733131
 31
0.0
  0
LINE
  5
   318
  8
0
  6
CONTINUOUS
 62
     7
 10
-828.098347362396
 20
42.8318597733131
 30
0.0
 11
-823.898347433922
 21
42.8318597733131
 31
0.0
  0
LINE
  5
   319
  8
0
  6
CONTINUOUS
 62
     7
 10
-829.148347344515
 20
51.231859630262
 30
0.0
 11
-828.098347362396
 21
51.231859630262
 31
0.0
  0
LINE
  5
   31A
  8
0
  6
CONTINUOUS
 62
     7
 10
-829.498347338555
 20
50.8818596362225
 30
0.0
 11
-828.098347362396
 21
50.8818596362225
 31
0.0
  0
LINE
  5
   31B
  8
0
  6
CONTINUOUS
 62
     7
 10
-829.148347344515
 20
51.231859630262
 30
0.0
 11
-829.148347344515
 21
45.6318597256294
 31
0.0
  0
LINE
  5
   31C
  8
0
  6
CONTINUOUS
 62
     7
 10
-829.498347338555
 20
50.8818596362225
 30
0.0
 11
-829.498347338555
 21
45.981859719669
 31
0.0
  0
LINE
  5
   31D
  8
0
  6
CONTINUOUS
 62
     7
 10
-829.148347344515
 20
51.231859630262
 30
0.0
 11
-829.498347338555
 21
50.8818596362225
 31
0.0
  0
LINE
  5
   31E
  8
0
  6
CONTINUOUS
 62
     7
 10
-829.498347338554
 20
45.9818597196689
 30
0.0
 11
-829.148347344515
 21
45.6318597256293
 31
0.0
  0
LINE
  5
   31F
  8
0
  6
CONTINUOUS
 62
     7
 10
-829.148347344515
 20
45.6318597256294
 30
0.0
 11
-828.098347362396
 21
45.6318597256294
 31
0.0
  0
LINE
  5
   320
  8
0
  6
CONTINUOUS
 62
     7
 10
-829.498347338555
 20
45.981859719669
 30
0.0
 11
-828.098347362396
 21
45.981859719669
 31
0.0
  0
LINE
  5
   321
  8
0
  6
CONTINUOUS
 62
     7
 10
-822.498347457764
 20
50.8818596362225
 30
0.0
 11
-820.398347493527
 21
50.8818596362225
 31
0.0
  0
LINE
  5
   322
  8
0
  6
CONTINUOUS
 62
     7
 10
-820.398347493527
 20
54.7318595706573
 30
0.0
 11
-818.998347517369
 21
54.7318595706573
 31
0.0
  0
LINE
  5
   323
  8
0
  6
CONTINUOUS
 62
     7
 10
-823.898347433922
 20
54.7318595706573
 30
0.0
 11
-822.498347457764
 21
54.7318595706573
 31
0.0
  0
LINE
  5
   324
  8
0
  6
CONTINUOUS
 62
     7
 10
-820.398347493527
 20
42.1318597852341
 30
0.0
 11
-818.998347517369
 21
42.1318597852341
 31
0.0
  0
LINE
  5
   325
  8
0
  6
CONTINUOUS
 62
     7
 10
-823.898347433922
 20
42.1318597852341
 30
0.0
 11
-822.498347457764
 21
42.1318597852341
 31
0.0
  0
LINE
  5
   326
  8
0
  6
CONTINUOUS
 62
     7
 10
-822.498347457764
 20
51.231859630262
 30
0.0
 11
-820.398347493527
 21
51.231859630262
 31
0.0
  0
LINE
  5
   327
  8
0
  6
CONTINUOUS
 62
     7
 10
-822.498347457764
 20
50.8818596362225
 30
0.0
 11
-820.398347493527
 21
50.8818596362225
 31
0.0
  0
LINE
  5
   328
  8
0
  6
CONTINUOUS
 62
     7
 10
-822.498347457764
 20
45.981859719669
 30
0.0
 11
-820.398347493527
 21
45.981859719669
 31
0.0
  0
LINE
  5
   329
  8
0
  6
CONTINUOUS
 62
     7
 10
-822.498347457764
 20
45.6318597256294
 30
0.0
 11
-820.398347493527
 21
45.6318597256294
 31
0.0
  0
LINE
  5
   32A
  8
0
  6
CONTINUOUS
 62
     7
 10
-828.098347362396
 20
50.936753308773
 30
0.0
 11
-823.898347433922
 21
50.936753308773
 31
0.0
  0
LINE
  5
   32B
  8
0
  6
CONTINUOUS
 62
     7
 10
-818.998347517369
 20
50.936753308773
 30
0.0
 11
-814.798347588894
 21
50.936753308773
 31
0.0
  0
LINE
  5
   32C
  8
0
  6
CONTINUOUS
 62
     7
 10
-818.998347517369
 20
46.0367533922195
 30
0.0
 11
-814.798347588894
 21
46.0367533922195
 31
0.0
  0
LINE
  5
   32D
  8
0
  6
CONTINUOUS
 62
     7
 10
-828.098347362396
 20
46.0367533922195
 30
0.0
 11
-823.898347433922
 21
46.0367533922195
 31
0.0
  0
LINE
  5
   32E
  8
0
  6
CONTINUOUS
 62
     7
 10
-837.898347195503
 20
51.9318596183411
 30
0.0
 11
-828.098347362396
 21
51.9318596183411
 31
0.0
  0
LINE
  5
   32F
  8
0
  6
CONTINUOUS
 62
     7
 10
-837.898347195503
 20
44.9318597375504
 30
0.0
 11
-828.098347362396
 21
44.9318597375504
 31
0.0
  0
LINE
  5
   330
  8
0
  6
CONTINUOUS
 62
     7
 10
-837.898347195503
 20
54.0318595825783
 30
0.0
 11
-837.898347195503
 21
42.8318597733131
 31
0.0
  0
LINE
  5
   331
  8
0
  6
CONTINUOUS
 62
     7
 10
-842.098347123978
 20
54.7318595706573
 30
0.0
 11
-842.098347123978
 21
42.1318597852341
 31
0.0
  0
LINE
  5
   332
  8
0
  6
CONTINUOUS
 62
     7
 10
-842.098347123978
 20
54.0318595825783
 30
0.0
 11
-837.898347195503
 21
54.0318595825783
 31
0.0
  0
LINE
  5
   333
  8
0
  6
CONTINUOUS
 62
     7
 10
-842.098347123978
 20
42.8318597733131
 30
0.0
 11
-837.898347195503
 21
42.8318597733131
 31
0.0
  0
LINE
  5
   334
  8
0
  6
CONTINUOUS
 62
     7
 10
-843.498347100136
 20
54.7318595706573
 30
0.0
 11
-843.498347100136
 21
42.1318597852341
 31
0.0
  0
LINE
  5
   335
  8
0
  6
CONTINUOUS
 62
     7
 10
-845.598347064373
 20
54.7318595706573
 30
0.0
 11
-845.598347064373
 21
42.1318597852341
 31
0.0
  0
LINE
  5
   336
  8
0
  6
CONTINUOUS
 62
     7
 10
-846.998347040531
 20
54.7318595706573
 30
0.0
 11
-846.998347040531
 21
42.1318597852341
 31
0.0
  0
LINE
  5
   337
  8
0
  6
CONTINUOUS
 62
     7
 10
-851.198346969006
 20
54.0318595825783
 30
0.0
 11
-846.998347040531
 21
54.0318595825783
 31
0.0
  0
LINE
  5
   338
  8
0
  6
CONTINUOUS
 62
     7
 10
-851.198346969006
 20
54.0318595825783
 30
0.0
 11
-851.198346969006
 21
42.8318597733131
 31
0.0
  0
LINE
  5
   339
  8
0
  6
CONTINUOUS
 62
     7
 10
-851.198346969006
 20
42.8318597733131
 30
0.0
 11
-846.998347040531
 21
42.8318597733131
 31
0.0
  0
LINE
  5
   33A
  8
0
  6
CONTINUOUS
 62
     7
 10
-852.248346951124
 20
51.231859630262
 30
0.0
 11
-851.198346969006
 21
51.231859630262
 31
0.0
  0
LINE
  5
   33B
  8
0
  6
CONTINUOUS
 62
     7
 10
-852.598346945164
 20
50.8818596362225
 30
0.0
 11
-851.198346969006
 21
50.8818596362225
 31
0.0
  0
LINE
  5
   33C
  8
0
  6
CONTINUOUS
 62
     7
 10
-852.248346951124
 20
51.231859630262
 30
0.0
 11
-852.248346951124
 21
45.6318597256294
 31
0.0
  0
LINE
  5
   33D
  8
0
  6
CONTINUOUS
 62
     7
 10
-852.598346945164
 20
50.8818596362225
 30
0.0
 11
-852.598346945164
 21
45.981859719669
 31
0.0
  0
LINE
  5
   33E
  8
0
  6
CONTINUOUS
 62
     7
 10
-852.248346951124
 20
51.2318596302621
 30
0.0
 11
-852.598346945164
 21
50.8818596362225
 31
0.0
  0
LINE
  5
   33F
  8
0
  6
CONTINUOUS
 62
     7
 10
-852.598346945164
 20
45.9818597196687
 30
0.0
 11
-852.248346951124
 21
45.6318597256292
 31
0.0
  0
LINE
  5
   340
  8
0
  6
CONTINUOUS
 62
     7
 10
-852.248346951124
 20
45.6318597256294
 30
0.0
 11
-851.198346969006
 21
45.6318597256294
 31
0.0
  0
LINE
  5
   341
  8
0
  6
CONTINUOUS
 62
     7
 10
-852.598346945164
 20
45.981859719669
 30
0.0
 11
-851.198346969006
 21
45.981859719669
 31
0.0
  0
LINE
  5
   342
  8
0
  6
CONTINUOUS
 62
     7
 10
-845.598347064373
 20
50.8818596362225
 30
0.0
 11
-843.498347100136
 21
50.8818596362225
 31
0.0
  0
LINE
  5
   343
  8
0
  6
CONTINUOUS
 62
     7
 10
-843.498347100136
 20
54.7318595706573
 30
0.0
 11
-842.098347123978
 21
54.7318595706573
 31
0.0
  0
LINE
  5
   344
  8
0
  6
CONTINUOUS
 62
     7
 10
-846.998347040531
 20
54.7318595706573
 30
0.0
 11
-845.598347064373
 21
54.7318595706573
 31
0.0
  0
LINE
  5
   345
  8
0
  6
CONTINUOUS
 62
     7
 10
-843.498347100136
 20
42.1318597852341
 30
0.0
 11
-842.098347123978
 21
42.1318597852341
 31
0.0
  0
LINE
  5
   346
  8
0
  6
CONTINUOUS
 62
     7
 10
-846.998347040531
 20
42.1318597852341
 30
0.0
 11
-845.598347064373
 21
42.1318597852341
 31
0.0
  0
LINE
  5
   347
  8
0
  6
CONTINUOUS
 62
     7
 10
-845.598347064373
 20
51.231859630262
 30
0.0
 11
-843.498347100136
 21
51.231859630262
 31
0.0
  0
LINE
  5
   348
  8
0
  6
CONTINUOUS
 62
     7
 10
-845.598347064373
 20
45.981859719669
 30
0.0
 11
-843.498347100136
 21
45.981859719669
 31
0.0
  0
LINE
  5
   349
  8
0
  6
CONTINUOUS
 62
     7
 10
-845.598347064373
 20
45.6318597256294
 30
0.0
 11
-843.498347100136
 21
45.6318597256294
 31
0.0
  0
LINE
  5
   34A
  8
0
  6
CONTINUOUS
 62
     7
 10
-851.198346969006
 20
50.936753308773
 30
0.0
 11
-846.998347040531
 21
50.936753308773
 31
0.0
  0
LINE
  5
   34B
  8
0
  6
CONTINUOUS
 62
     7
 10
-842.098347123978
 20
50.936753308773
 30
0.0
 11
-837.898347195503
 21
50.936753308773
 31
0.0
  0
LINE
  5
   34C
  8
0
  6
CONTINUOUS
 62
     7
 10
-842.098347123978
 20
46.0367533922195
 30
0.0
 11
-837.898347195503
 21
46.0367533922195
 31
0.0
  0
LINE
  5
   34D
  8
0
  6
CONTINUOUS
 62
     7
 10
-851.198346969006
 20
46.0367533922195
 30
0.0
 11
-846.998347040531
 21
46.0367533922195
 31
0.0
  0
LINE
  5
   34E
  8
0
  6
CONTINUOUS
 62
     7
 10
-814.798347588894
 20
-26.4983303367303
 30
0.0
 11
-800.536902862788
 21
-26.4983303367303
 31
0.0
  0
LINE
  5
   34F
  8
0
  6
CONTINUOUS
 62
     7
 10
-814.798347588894
 20
-19.4983304559396
 30
0.0
 11
-800.536902862788
 21
-19.4983304559396
 31
0.0
  0
LINE
  5
   350
  8
0
  6
CONTINUOUS
 62
     7
 10
-814.798347588894
 20
-17.3983304917024
 30
0.0
 11
-814.798347588894
 21
-28.5983303009675
 31
0.0
  0
LINE
  5
   351
  8
0
  6
CONTINUOUS
 62
     7
 10
-818.998347517369
 20
-16.6983305036233
 30
0.0
 11
-818.998347517369
 21
-29.2983302890466
 31
0.0
  0
LINE
  5
   352
  8
0
  6
CONTINUOUS
 62
     7
 10
-818.998347517369
 20
-28.5983303009675
 30
0.0
 11
-814.798347588894
 21
-28.5983303009675
 31
0.0
  0
LINE
  5
   353
  8
0
  6
CONTINUOUS
 62
     7
 10
-818.998347517369
 20
-17.3983304917024
 30
0.0
 11
-814.798347588894
 21
-17.3983304917024
 31
0.0
  0
LINE
  5
   354
  8
0
  6
CONTINUOUS
 62
     7
 10
-820.398347493527
 20
-16.6983305036233
 30
0.0
 11
-820.398347493527
 21
-29.2983302890466
 31
0.0
  0
LINE
  5
   355
  8
0
  6
CONTINUOUS
 62
     7
 10
-822.498347457764
 20
-16.6983305036233
 30
0.0
 11
-822.498347457764
 21
-29.2983302890466
 31
0.0
  0
LINE
  5
   356
  8
0
  6
CONTINUOUS
 62
     7
 10
-823.898347433922
 20
-16.6983305036233
 30
0.0
 11
-823.898347433922
 21
-29.2983302890466
 31
0.0
  0
LINE
  5
   357
  8
0
  6
CONTINUOUS
 62
     7
 10
-828.098347362396
 20
-28.5983303009675
 30
0.0
 11
-823.898347433922
 21
-28.5983303009675
 31
0.0
  0
LINE
  5
   358
  8
0
  6
CONTINUOUS
 62
     7
 10
-828.098347362396
 20
-17.3983304917024
 30
0.0
 11
-828.098347362396
 21
-28.5983303009675
 31
0.0
  0
LINE
  5
   359
  8
0
  6
CONTINUOUS
 62
     7
 10
-828.098347362396
 20
-17.3983304917024
 30
0.0
 11
-823.898347433922
 21
-17.3983304917024
 31
0.0
  0
LINE
  5
   35A
  8
0
  6
CONTINUOUS
 62
     7
 10
-829.148347344515
 20
-25.7983303486513
 30
0.0
 11
-828.098347362396
 21
-25.7983303486513
 31
0.0
  0
LINE
  5
   35B
  8
0
  6
CONTINUOUS
 62
     7
 10
-829.498347338555
 20
-25.4483303546117
 30
0.0
 11
-828.098347362396
 21
-25.4483303546117
 31
0.0
  0
LINE
  5
   35C
  8
0
  6
CONTINUOUS
 62
     7
 10
-829.148347344515
 20
-20.1983304440187
 30
0.0
 11
-829.148347344515
 21
-25.7983303486513
 31
0.0
  0
LINE
  5
   35D
  8
0
  6
CONTINUOUS
 62
     7
 10
-829.498347338554
 20
-25.4483303546118
 30
0.0
 11
-829.148347344515
 21
-25.7983303486513
 31
0.0
  0
LINE
  5
   35E
  8
0
  6
CONTINUOUS
 62
     7
 10
-829.148347344515
 20
-20.1983304440186
 30
0.0
 11
-829.498347338554
 21
-20.5483304380582
 31
0.0
  0
LINE
  5
   35F
  8
0
  6
CONTINUOUS
 62
     7
 10
-829.148347344515
 20
-20.1983304440187
 30
0.0
 11
-828.098347362396
 21
-20.1983304440187
 31
0.0
  0
LINE
  5
   360
  8
0
  6
CONTINUOUS
 62
     7
 10
-829.498347338555
 20
-20.5483304380582
 30
0.0
 11
-828.098347362396
 21
-20.5483304380582
 31
0.0
  0
LINE
  5
   361
  8
0
  6
CONTINUOUS
 62
     7
 10
-822.498347457764
 20
-25.4483303546117
 30
0.0
 11
-820.398347493527
 21
-25.4483303546117
 31
0.0
  0
LINE
  5
   362
  8
0
  6
CONTINUOUS
 62
     7
 10
-820.398347493527
 20
-29.2983302890466
 30
0.0
 11
-818.998347517369
 21
-29.2983302890466
 31
0.0
  0
LINE
  5
   363
  8
0
  6
CONTINUOUS
 62
     7
 10
-823.898347433922
 20
-29.2983302890466
 30
0.0
 11
-822.498347457764
 21
-29.2983302890466
 31
0.0
  0
LINE
  5
   364
  8
0
  6
CONTINUOUS
 62
     7
 10
-820.398347493527
 20
-16.6983305036233
 30
0.0
 11
-818.998347517369
 21
-16.6983305036233
 31
0.0
  0
LINE
  5
   365
  8
0
  6
CONTINUOUS
 62
     7
 10
-823.898347433922
 20
-16.6983305036233
 30
0.0
 11
-822.498347457764
 21
-16.6983305036233
 31
0.0
  0
LINE
  5
   366
  8
0
  6
CONTINUOUS
 62
     7
 10
-822.498347457764
 20
-25.7983303486513
 30
0.0
 11
-820.398347493527
 21
-25.7983303486513
 31
0.0
  0
LINE
  5
   367
  8
0
  6
CONTINUOUS
 62
     7
 10
-822.498347457764
 20
-20.5483304380582
 30
0.0
 11
-820.398347493527
 21
-20.5483304380582
 31
0.0
  0
LINE
  5
   368
  8
0
  6
CONTINUOUS
 62
     7
 10
-822.498347457764
 20
-20.1983304440187
 30
0.0
 11
-820.398347493527
 21
-20.1983304440187
 31
0.0
  0
LINE
  5
   369
  8
0
  6
CONTINUOUS
 62
     7
 10
-829.498347338555
 20
-25.5032240271623
 30
0.0
 11
-823.898347433922
 21
-25.5032240271623
 31
0.0
  0
LINE
  5
   36A
  8
0
  6
CONTINUOUS
 62
     7
 10
-818.998347517369
 20
-25.5032240271623
 30
0.0
 11
-814.798347588894
 21
-25.5032240271623
 31
0.0
  0
LINE
  5
   36B
  8
0
  6
CONTINUOUS
 62
     7
 10
-818.998347517369
 20
-20.6032241106088
 30
0.0
 11
-814.798347588894
 21
-20.6032241106088
 31
0.0
  0
LINE
  5
   36C
  8
0
  6
CONTINUOUS
 62
     7
 10
-828.098347362396
 20
-20.6032241106088
 30
0.0
 11
-823.898347433922
 21
-20.6032241106088
 31
0.0
  0
LINE
  5
   36D
  8
0
  6
CONTINUOUS
 62
     7
 10
-837.898347195503
 20
-26.4983303367303
 30
0.0
 11
-828.098347362396
 21
-26.4983303367303
 31
0.0
  0
LINE
  5
   36E
  8
0
  6
CONTINUOUS
 62
     7
 10
-837.898347195503
 20
-19.4983304559396
 30
0.0
 11
-828.098347362396
 21
-19.4983304559396
 31
0.0
  0
LINE
  5
   36F
  8
0
  6
CONTINUOUS
 62
     7
 10
-837.898347195503
 20
-17.3983304917024
 30
0.0
 11
-837.898347195503
 21
-28.5983303009675
 31
0.0
  0
LINE
  5
   370
  8
0
  6
CONTINUOUS
 62
     7
 10
-842.098347123978
 20
-16.6983305036233
 30
0.0
 11
-842.098347123978
 21
-29.2983302890466
 31
0.0
  0
LINE
  5
   371
  8
0
  6
CONTINUOUS
 62
     7
 10
-842.098347123978
 20
-28.5983303009675
 30
0.0
 11
-837.898347195503
 21
-28.5983303009675
 31
0.0
  0
LINE
  5
   372
  8
0
  6
CONTINUOUS
 62
     7
 10
-842.098347123978
 20
-17.3983304917024
 30
0.0
 11
-837.898347195503
 21
-17.3983304917024
 31
0.0
  0
LINE
  5
   373
  8
0
  6
CONTINUOUS
 62
     7
 10
-843.498347100136
 20
-16.6983305036233
 30
0.0
 11
-843.498347100136
 21
-29.2983302890466
 31
0.0
  0
LINE
  5
   374
  8
0
  6
CONTINUOUS
 62
     7
 10
-845.598347064373
 20
-16.6983305036233
 30
0.0
 11
-845.598347064373
 21
-29.2983302890466
 31
0.0
  0
LINE
  5
   375
  8
0
  6
CONTINUOUS
 62
     7
 10
-846.998347040531
 20
-16.6983305036233
 30
0.0
 11
-846.998347040531
 21
-29.2983302890466
 31
0.0
  0
LINE
  5
   376
  8
0
  6
CONTINUOUS
 62
     7
 10
-851.198346969006
 20
-28.5983303009675
 30
0.0
 11
-846.998347040531
 21
-28.5983303009675
 31
0.0
  0
LINE
  5
   377
  8
0
  6
CONTINUOUS
 62
     7
 10
-851.198346969006
 20
-17.3983304917024
 30
0.0
 11
-851.198346969006
 21
-28.5983303009675
 31
0.0
  0
LINE
  5
   378
  8
0
  6
CONTINUOUS
 62
     7
 10
-851.198346969006
 20
-17.3983304917024
 30
0.0
 11
-846.998347040531
 21
-17.3983304917024
 31
0.0
  0
LINE
  5
   379
  8
0
  6
CONTINUOUS
 62
     7
 10
-852.248346951124
 20
-25.7983303486513
 30
0.0
 11
-851.198346969006
 21
-25.7983303486513
 31
0.0
  0
LINE
  5
   37A
  8
0
  6
CONTINUOUS
 62
     7
 10
-852.598346945164
 20
-25.4483303546117
 30
0.0
 11
-851.198346969006
 21
-25.4483303546117
 31
0.0
  0
LINE
  5
   37B
  8
0
  6
CONTINUOUS
 62
     7
 10
-852.248346951124
 20
-20.1983304440187
 30
0.0
 11
-852.248346951124
 21
-25.7983303486513
 31
0.0
  0
LINE
  5
   37C
  8
0
  6
CONTINUOUS
 62
     7
 10
-852.598346945164
 20
-20.5483304380582
 30
0.0
 11
-852.598346945164
 21
-25.4483303546117
 31
0.0
  0
LINE
  5
   37D
  8
0
  6
CONTINUOUS
 62
     7
 10
-852.598346945164
 20
-25.4483303546118
 30
0.0
 11
-852.248346951124
 21
-25.7983303486513
 31
0.0
  0
LINE
  5
   37E
  8
0
  6
CONTINUOUS
 62
     7
 10
-852.248346951124
 20
-20.1983304440186
 30
0.0
 11
-852.598346945164
 21
-20.5483304380581
 31
0.0
  0
LINE
  5
   37F
  8
0
  6
CONTINUOUS
 62
     7
 10
-852.248346951124
 20
-20.1983304440187
 30
0.0
 11
-851.198346969006
 21
-20.1983304440187
 31
0.0
  0
LINE
  5
   380
  8
0
  6
CONTINUOUS
 62
     7
 10
-852.598346945164
 20
-20.5483304380582
 30
0.0
 11
-851.198346969006
 21
-20.5483304380582
 31
0.0
  0
LINE
  5
   381
  8
0
  6
CONTINUOUS
 62
     7
 10
-845.598347064373
 20
-25.4483303546117
 30
0.0
 11
-843.498347100136
 21
-25.4483303546117
 31
0.0
  0
LINE
  5
   382
  8
0
  6
CONTINUOUS
 62
     7
 10
-843.498347100136
 20
-29.2983302890466
 30
0.0
 11
-842.098347123978
 21
-29.2983302890466
 31
0.0
  0
LINE
  5
   383
  8
0
  6
CONTINUOUS
 62
     7
 10
-846.998347040531
 20
-29.2983302890466
 30
0.0
 11
-845.598347064373
 21
-29.2983302890466
 31
0.0
  0
LINE
  5
   384
  8
0
  6
CONTINUOUS
 62
     7
 10
-843.498347100136
 20
-16.6983305036233
 30
0.0
 11
-842.098347123978
 21
-16.6983305036233
 31
0.0
  0
LINE
  5
   385
  8
0
  6
CONTINUOUS
 62
     7
 10
-846.998347040531
 20
-16.6983305036233
 30
0.0
 11
-845.598347064373
 21
-16.6983305036233
 31
0.0
  0
LINE
  5
   386
  8
0
  6
CONTINUOUS
 62
     7
 10
-845.598347064373
 20
-25.7983303486513
 30
0.0
 11
-843.498347100136
 21
-25.7983303486513
 31
0.0
  0
LINE
  5
   387
  8
0
  6
CONTINUOUS
 62
     7
 10
-845.598347064373
 20
-20.5483304380582
 30
0.0
 11
-843.498347100136
 21
-20.5483304380582
 31
0.0
  0
LINE
  5
   388
  8
0
  6
CONTINUOUS
 62
     7
 10
-845.598347064373
 20
-20.1983304440187
 30
0.0
 11
-843.498347100136
 21
-20.1983304440187
 31
0.0
  0
LINE
  5
   389
  8
0
  6
CONTINUOUS
 62
     7
 10
-851.198346969006
 20
-25.5032240271623
 30
0.0
 11
-846.998347040531
 21
-25.5032240271623
 31
0.0
  0
LINE
  5
   38A
  8
0
  6
CONTINUOUS
 62
     7
 10
-842.098347123978
 20
-25.5032240271623
 30
0.0
 11
-837.898347195503
 21
-25.5032240271623
 31
0.0
  0
LINE
  5
   38B
  8
0
  6
CONTINUOUS
 62
     7
 10
-842.098347123978
 20
-20.6032241106088
 30
0.0
 11
-837.898347195503
 21
-20.6032241106088
 31
0.0
  0
LINE
  5
   38C
  8
0
  6
CONTINUOUS
 62
     7
 10
-851.198346969006
 20
-20.6032241106088
 30
0.0
 11
-846.998347040531
 21
-20.6032241106088
 31
0.0
  0
LINE
  5
   38D
  8
0
  6
DASHDOT
 62
     7
 10
-847.120962299898
 20
48.4318596779457
 30
0.0
 11
-804.924359256863
 21
48.4318596779457
 31
0.0
  0
LINE
  5
   38E
  8
0
  6
DASHDOT
 62
     7
 10
-847.459437725377
 20
-22.998330396335
 30
0.0
 11
-804.473058689558
 21
-22.998330396335
 31
0.0
  0
LINE
  5
   38F
  8
0
  6
DASHDOT
 62
     7
 10
-806.600431721773
 20
4.31676478385652
 30
0.0
 11
-796.271585256961
 21
4.31676478385652
 31
0.0
  0
LINE
  5
   390
  8
0
  6
CONTINUOUS
 62
     7
 10
-801.376902714968
 20
52.6167559504509
 30
0.0
 11
-800.536902862788
 21
52.6167559504509
 31
0.0
  0
LINE
  5
   391
  8
0
  6
CONTINUOUS
 62
     7
 10
-801.376902714968
 20
-25.783234703541
 30
0.0
 11
-800.536902862788
 21
-25.783234703541
 31
0.0
  0
LINE
  5
   392
  8
0
  6
DOT
 62
     7
 10
-800.724467316056
 20
22.1667564690113
 30
0.0
 11
-800.536902862788
 21
22.1667564690113
 31
0.0
  0
LINE
  5
   393
  8
0
  6
CONTINUOUS
 62
     7
 10
-801.376902714968
 20
44.9318597375504
 30
0.0
 11
-801.376902714968
 21
37.3567016977589
 31
0.0
  0
LINE
  5
   394
  8
0
  6
CONTINUOUS
 62
     7
 10
-801.376902714968
 20
-25.7283303498434
 30
0.0
 11
-801.376902714968
 21
-25.7832320332529
 31
0.0
  0
LINE
  5
   395
  8
0
  6
CONTINUOUS
 62
     7
 10
-800.536902862788
 20
52.6167532801628
 30
0.0
 11
-800.536902862788
 21
-25.783234703541
 31
0.0
  0
LINE
  5
   396
  8
0
  6
CONTINUOUS
 62
     7
 10
-802.216902967692
 20
36.6567540860176
 30
0.0
 11
-802.076902703047
 21
36.6567540860176
 31
0.0
  0
LINE
  5
   397
  8
0
  6
CONTINUOUS
 62
     7
 10
-802.216902967692
 20
35.8167562365531
 30
0.0
 11
-802.076902836562
 21
35.8167562365531
 31
0.0
  0
LINE
  5
   398
  8
0
  6
CONTINUOUS
 62
     7
 10
-806.136902099848
 20
36.6567540860176
 30
0.0
 11
-806.136902099848
 21
35.8167562365531
 31
0.0
  0
LINE
  5
   399
  8
0
  6
CONTINUOUS
 62
     7
 10
-806.136902099848
 20
21.8167564749717
 30
0.0
 11
-806.136902099848
 21
20.9767586255073
 31
0.0
  0
LINE
  5
   39A
  8
0
  6
CONTINUOUS
 62
     7
 10
-806.136902099848
 20
-5.48324306011203
 30
0.0
 11
-806.136902099848
 21
-8.98324300050739
 31
0.0
  0
LINE
  5
   39B
  8
0
  6
CONTINUOUS
 62
     7
 10
-806.136902099848
 20
-5.48324306011203
 30
0.0
 11
-803.805813405874
 21
-5.48324306011203
 31
0.0
  0
LINE
  5
   39C
  8
0
  6
CONTINUOUS
 62
     7
 10
-803.805813171387
 20
-5.48324272329837
 30
0.0
 11
-803.33690188461
 21
-7.2332428650701
 31
0.0
  0
LINE
  5
   39D
  8
0
  6
CONTINUOUS
 62
     7
 10
-803.336902147532
 20
-7.23324303030971
 30
0.0
 11
-802.636902159453
 21
-7.23324303030971
 31
0.0
  0
LINE
  5
   39E
  8
0
  6
CONTINUOUS
 62
     7
 10
-802.636902159453
 20
17.6167565464973
 30
0.0
 11
-802.636902159453
 21
-7.23324303030971
 31
0.0
  0
LINE
  5
   39F
  8
0
  6
CONTINUOUS
 62
     7
 10
-803.336902147532
 20
17.6167565464973
 30
0.0
 11
-802.636902159453
 21
17.6167565464973
 31
0.0
  0
LINE
  5
   3A0
  8
0
  6
CONTINUOUS
 62
     7
 10
-806.136912664164
 20
18.3670307590895
 30
0.0
 11
-804.043460376865
 21
17.806086211363
 31
0.0
  0
LINE
  5
   3A1
  8
0
  6
CONTINUOUS
 62
     7
 10
-806.136902099848
 20
19.7167565107345
 30
0.0
 11
-806.136902099848
 21
18.36702203665
 31
0.0
  0
LINE
  5
   3A2
  8
0
  6
DOT
 62
     7
 10
-801.376902714968
 20
22.1667564690113
 30
0.0
 11
-800.724467274333
 21
22.1667564690113
 31
0.0
  0
LINE
  5
   3A3
  8
0
  6
CONTINUOUS
 62
     7
 10
-803.686902809144
 20
-11.433235615492
 30
0.0
 11
-800.536902862788
 21
-11.433235615492
 31
0.0
  0
LINE
  5
   3A4
  8
0
  6
CONTINUOUS
 62
     7
 10
-803.056902819872
 20
55.7667558968067
 30
0.0
 11
-802.216902967692
 21
55.7667558968067
 31
0.0
  0
LINE
  5
   3A5
  8
0
  6
CONTINUOUS
 62
     7
 10
-802.216902967692
 20
17.6167458653451
 30
0.0
 11
-802.216902967692
 21
17.0416833141032
 31
0.0
  0
LINE
  5
   3A6
  8
0
  6
CONTINUOUS
 62
     7
 10
-802.216902967692
 20
35.816745555401
 30
0.0
 11
-802.216902967692
 21
17.6167565464973
 31
0.0
  0
LINE
  5
   3A7
  8
0
  6
CONTINUOUS
 62
     7
 10
-802.216902967692
 20
44.9318597375504
 30
0.0
 11
-802.216902967692
 21
35.8167562365531
 31
0.0
  0
LINE
  5
   3A8
  8
0
  6
CONTINUOUS
 62
     7
 10
-802.216882094656
 20
17.0416995946237
 30
0.0
 11
-803.729421141314
 21
14.4219005022601
 31
0.0
  0
LINE
  5
   3A9
  8
0
  6
CONTINUOUS
 62
     7
 10
-804.456910517623
 20
14.8418872661883
 30
0.0
 11
-803.729449143061
 21
14.4218829509008
 31
0.0
  0
LINE
  5
   3AA
  8
0
  6
CONTINUOUS
 62
     7
 10
-803.056891725627
 20
17.2667461731277
 30
0.0
 11
-804.456891666569
 21
14.8418790803687
 31
0.0
  0
LINE
  5
   3AB
  8
0
  6
CONTINUOUS
 62
     7
 10
-803.056902819872
 20
44.9318597375504
 30
0.0
 11
-803.056902819872
 21
35.8167562365531
 31
0.0
  0
LINE
  5
   3AC
  8
0
  6
CONTINUOUS
 62
     7
 10
-803.056902819872
 20
35.8167669177053
 30
0.0
 11
-803.056902819872
 21
24.3165039007071
 31
0.0
  0
LINE
  5
   3AD
  8
0
  6
CONTINUOUS
 62
     7
 10
-803.056902819872
 20
17.8231057251121
 30
0.0
 11
-803.056902819872
 21
17.2667565524578
 31
0.0
  0
ARC
  5
   3AE
  8
0
  6
CONTINUOUS
 62
     7
 10
-803.686925698939
 20
19.7167618893584
 30
0.0
 40
2.44997289096194
 50
509.049985589538
 51
539.999999844103
  0
LINE
  5
   3AF
  8
0
  6
CONTINUOUS
 62
     7
 10
-803.12690281868
 20
36.6567540860176
 30
0.0
 11
-803.12690281868
 21
35.8167562365531
 31
0.0
  0
LINE
  5
   3B0
  8
0
  6
CONTINUOUS
 62
     7
 10
-803.12690281868
 20
21.8167564749717
 30
0.0
 11
-803.12690281868
 21
20.9767586255073
 31
0.0
  0
LINE
  5
   3B1
  8
0
  6
CONTINUOUS
 62
     7
 10
-802.146902968884
 20
36.6567540860176
 30
0.0
 11
-802.146902968884
 21
35.8167562365531
 31
0.0
  0
LINE
  5
   3B2
  8
0
  6
CONTINUOUS
 62
     7
 10
-802.146902968884
 20
21.8167564749717
 30
0.0
 11
-802.146902968884
 21
20.9767586255073
 31
0.0
  0
LINE
  5
   3B3
  8
0
  6
CONTINUOUS
 62
     7
 10
-806.136901432276
 20
36.6567540860176
 30
0.0
 11
-803.12690281868
 21
36.6567540860176
 31
0.0
  0
LINE
  5
   3B4
  8
0
  6
CONTINUOUS
 62
     7
 10
-806.136901432276
 20
35.8167562365531
 30
0.0
 11
-803.12690281868
 21
35.8167562365531
 31
0.0
  0
LINE
  5
   3B5
  8
0
  6
CONTINUOUS
 62
     7
 10
-806.136902099848
 20
21.8167564749717
 30
0.0
 11
-803.12690281868
 21
21.8167564749717
 31
0.0
  0
LINE
  5
   3B6
  8
0
  6
CONTINUOUS
 62
     7
 10
-806.136902099848
 20
20.9767586255073
 30
0.0
 11
-803.12690281868
 21
20.9767586255073
 31
0.0
  0
LINE
  5
   3B7
  8
0
  6
CONTINUOUS
 62
     7
 10
-803.06393817419
 20
24.2175089530268
 30
0.0
 11
-803.389932251453
 21
21.9355504121879
 31
0.0
  0
LINE
  5
   3B8
  8
0
  6
CONTINUOUS
 62
     7
 10
-802.223938322009
 20
24.1578110574756
 30
0.0
 11
-802.558374690939
 21
21.8167564749717
 31
0.0
  0
LINE
  5
   3B9
  8
0
  6
CONTINUOUS
 62
     7
 10
-803.389932251453
 20
21.935550412188
 30
0.0
 11
-802.558374690939
 21
21.8167564749717
 31
0.0
  0
ARC
  5
   3BA
  8
0
  6
CONTINUOUS
 62
     7
 10
-802.916902955771
 20
24.2568060051559
 30
0.0
 40
0.699999988079071
 50
351.869897489947
 51
359.999999844103
  0
LINE
  5
   3BB
  8
0
  6
CONTINUOUS
 62
     7
 10
-802.216902967692
 20
21.8167564749717
 30
0.0
 11
-802.076902836562
 21
21.8167564749717
 31
0.0
  0
LINE
  5
   3BC
  8
0
  6
CONTINUOUS
 62
     7
 10
-802.216902967692
 20
20.9767586255073
 30
0.0
 11
-802.076902703047
 21
20.9767586255073
 31
0.0
  0
LINE
  5
   3BD
  8
0
  6
DOT
 62
     7
 10
-803.056902819872
 20
24.3165039007071
 30
0.0
 11
-803.056902819872
 21
21.8879747791051
 31
0.0
  0
LINE
  5
   3BE
  8
0
  6
CONTINUOUS
 62
     7
 10
-803.056902819872
 20
21.8879747791051
 30
0.0
 11
-803.056902819872
 21
17.8230856232924
 31
0.0
  0
LINE
  5
   3BF
  8
0
  6
CONTINUOUS
 62
     7
 10
-803.056902819872
 20
54.3667559206485
 30
0.0
 11
-802.216902967692
 21
54.3667559206485
 31
0.0
  0
LINE
  5
   3C0
  8
0
  6
CONTINUOUS
 62
     7
 10
-803.056902819872
 20
41.7667561352253
 30
0.0
 11
-802.216902967692
 21
41.7667561352253
 31
0.0
  0
LINE
  5
   3C1
  8
0
  6
CONTINUOUS
 62
     7
 10
-803.056902819872
 20
30.9167563199997
 30
0.0
 11
-802.216902967692
 21
30.9167563199997
 31
0.0
  0
LINE
  5
   3C2
  8
0
  6
CONTINUOUS
 62
     7
 10
-803.056902819872
 20
26.0167564034462
 30
0.0
 11
-802.216902967692
 21
26.0167564034462
 31
0.0
  0
LINE
  5
   3C3
  8
0
  6
CONTINUOUS
 62
     7
 10
-803.056902819872
 20
20.7667586290836
 30
0.0
 11
-802.216902967692
 21
20.7667586290836
 31
0.0
  0
INSERT
  5
   3C4
  8
0
  6
CONTINUOUS
 62
     7
  2
*HATCH60
 10
-713.913757324219
 20
2.56676483154297
 30
0.0
 41
0.699999988079071
 42
0.699999988079071
 50
269.999999844103
 43
0.699999988079071
  0
INSERT
  5
   3C5
  8
0
  6
CONTINUOUS
 62
     7
  2
*HATCH61
 10
-713.913757324219
 20
2.56676483154297
 30
0.0
 41
0.699999988079071
 42
0.699999988079071
 50
269.999999844103
 43
0.699999988079071
  0
INSERT
  5
   3C6
  8
0
  6
CONTINUOUS
 62
     7
  2
*HATCH62
 10
-713.913757324219
 20
2.56676483154297
 30
0.0
 41
0.699999988079071
 42
0.699999988079071
 50
269.999999844103
 43
0.699999988079071
  0
ARC
  5
   3C7
  8
0
  6
CONTINUOUS
 62
     7
 10
-802.076902703047
 20
20.2767586374282
 30
0.0
 40
0.699999988079071
 50
359.999999844103
 51
449.999999844103
  0
ARC
  5
   3C8
  8
0
  6
CONTINUOUS
 62
     7
 10
-802.076902836562
 20
20.2767565011978
 30
0.0
 40
1.53999997377396
 50
359.999999844103
 51
449.999999844103
  0
LINE
  5
   3C9
  8
0
  6
CONTINUOUS
 62
     7
 10
-802.216902967692
 20
22.1667564690113
 30
0.0
 11
-801.376902714968
 21
22.1667564690113
 31
0.0
  0
ARC
  5
   3CA
  8
0
  6
CONTINUOUS
 62
     7
 10
-803.686925698939
 20
19.7167618893584
 30
0.0
 40
2.44997289096194
 50
467.486073703861
 51
481.001909793402
  0
ARC
  5
   3CB
  8
0
  6
DOT
 62
     7
 10
-803.686925698939
 20
19.7167618893584
 30
0.0
 40
2.44997289096194
 50
481.001909793402
 51
509.049985589538
  0
ARC
  5
   3CC
  8
0
  6
CONTINUOUS
 62
     7
 10
-803.686925698939
 20
19.7167618893584
 30
0.0
 40
2.44997289096194
 50
449.999999844103
 51
467.486073703861
  0
LINE
  5
   3CD
  8
0
  6
CONTINUOUS
 62
     7
 10
-803.686900848151
 20
22.1667564690113
 30
0.0
 11
-803.356902814763
 21
22.1667564690113
 31
0.0
  0
LINE
  5
   3CE
  8
0
  6
CONTINUOUS
 62
     7
 10
-804.043460376865
 20
17.806086211363
 30
0.0
 11
-803.336911638522
 21
17.6167651244286
 31
0.0
  0
ARC
  5
   3CF
  8
0
  6
CONTINUOUS
 62
     7
 10
-803.686940288218
 20
-8.98325568627217
 30
0.0
 40
2.44996160420214
 50
540.00021426687
 51
630.000884118422
  0
ARC
  5
   3D0
  8
0
  6
CONTINUOUS
 62
     7
 10
-802.076902836562
 20
37.3567562103271
 30
0.0
 40
1.53999997377396
 50
269.999999844103
 51
359.999999844103
  0
LINE
  5
   3D1
  8
0
  6
DOT
 62
     7
 10
-801.376902714968
 20
21.6484706656624
 30
0.0
 11
-801.376902714968
 21
20.2767586374282
 31
0.0
  0
LINE
  5
   3D2
  8
0
  6
CONTINUOUS
 62
     7
 10
-801.376902714968
 20
20.2767586374282
 30
0.0
 11
-801.376902714968
 21
5.43754003019759
 31
0.0
  0
LINE
  5
   3D3
  8
0
  6
CONTINUOUS
 62
     7
 10
-801.376902714968
 20
35.9850420458624
 30
0.0
 11
-801.376902714968
 21
21.6484706656624
 31
0.0
  0
LINE
  5
   3D4
  8
0
  6
DOT
 62
     7
 10
-801.376902714968
 20
37.3567016977589
 30
0.0
 11
-801.376902714968
 21
35.9850420458624
 31
0.0
  0
LINE
  5
   3D5
  8
0
  6
CONTINUOUS
 62
     7
 10
-801.376902714968
 20
-17.7332348406317
 30
0.0
 11
-800.536902862788
 21
-17.7332348406317
 31
0.0
  0
ARC
  5
   3D6
  8
0
  6
CONTINUOUS
 62
     7
 10
-802.076913698618
 20
37.3567628764572
 30
0.0
 40
0.700021741669109
 50
270.00070276675
 51
359.997118270512
  0
LINE
  5
   3D7
  8
0
  6
DASHDOT
 62
     7
 10
-803.134934434099
 20
-21.5832347750665
 30
0.0
 11
-799.660424540677
 21
-21.5832347750665
 31
0.0
  0
LINE
  5
   3D8
  8
0
  6
DASHDOT
 62
     7
 10
-803.134934434099
 20
48.4167640328405
 30
0.0
 11
-799.660424540677
 21
48.4167640328405
 31
0.0
  0
LINE
  5
   3D9
  8
0
  6
CONTINUOUS
 62
     7
 10
-802.216902967692
 20
24.9667564213276
 30
0.0
 11
-801.012520974552
 21
24.9667564213276
 31
0.0
  0
LINE
  5
   3DA
  8
0
  6
DASHDOT
 62
     7
 10
-801.061902920604
 20
37.7252536612371
 30
0.0
 11
-801.061902920604
 21
23.8606403558521
 31
0.0
  0
CIRCLE
  5
   3DB
  8
0
  6
CONTINUOUS
 62
     7
 10
-804.21190286696
 20
25.8023674070972
 30
0.0
 40
0.279999995231628
  0
CIRCLE
  5
   3DC
  8
0
  6
CONTINUOUS
 62
     7
 10
-804.21190286696
 20
26.9223673880237
 30
0.0
 40
0.279999995231628
  0
CIRCLE
  5
   3DD
  8
0
  6
CONTINUOUS
 62
     7
 10
-804.21190286696
 20
28.0423673689502
 30
0.0
 40
0.279999995231628
  0
CIRCLE
  5
   3DE
  8
0
  6
CONTINUOUS
 62
     7
 10
-804.21190286696
 20
29.1623673498767
 30
0.0
 40
0.279999995231628
  0
CIRCLE
  5
   3DF
  8
0
  6
CONTINUOUS
 62
     7
 10
-804.21190286696
 20
30.2823673308032
 30
0.0
 40
0.279999995231628
  0
CIRCLE
  5
   3E0
  8
0
  6
CONTINUOUS
 62
     7
 10
-804.21190286696
 20
31.4023673117297
 30
0.0
 40
0.279999995231628
  0
CIRCLE
  5
   3E1
  8
0
  6
CONTINUOUS
 62
     7
 10
-804.21190286696
 20
32.5223672926562
 30
0.0
 40
0.279999995231628
  0
CIRCLE
  5
   3E2
  8
0
  6
CONTINUOUS
 62
     7
 10
-804.21190286696
 20
33.6423672735828
 30
0.0
 40
0.279999995231628
  0
CIRCLE
  5
   3E3
  8
0
  6
CONTINUOUS
 62
     7
 10
-804.21190286696
 20
34.7623672545093
 30
0.0
 40
0.279999995231628
  0
ARC
  5
   3E4
  8
0
  6
CONTINUOUS
 62
     7
 10
-804.21190286696
 20
35.8823672354358
 30
0.0
 40
0.279999995231628
 50
553.551837029225
 51
629.999999844103
  0
CIRCLE
  5
   3E5
  8
0
  6
CONTINUOUS
 62
     7
 10
-801.061902920604
 20
26.3623673975604
 30
0.0
 40
0.279999995231628
  0
ARC
  5
   3E6
  8
0
  6
CONTINUOUS
 62
     7
 10
-801.061902920604
 20
25.2423674166339
 30
0.0
 40
0.279999995231628
 50
280.158049687986
 51
619.84195000022
  0
CIRCLE
  5
   3E7
  8
0
  6
CONTINUOUS
 62
     7
 10
-801.061902920604
 20
27.4823673784869
 30
0.0
 40
0.279999995231628
  0
CIRCLE
  5
   3E8
  8
0
  6
CONTINUOUS
 62
     7
 10
-801.061902920604
 20
28.6023673594135
 30
0.0
 40
0.279999995231628
  0
CIRCLE
  5
   3E9
  8
0
  6
CONTINUOUS
 62
     7
 10
-801.061902920604
 20
29.72236734034
 30
0.0
 40
0.279999995231628
  0
CIRCLE
  5
   3EA
  8
0
  6
CONTINUOUS
 62
     7
 10
-801.061902920604
 20
30.8423673212665
 30
0.0
 40
0.279999995231628
  0
CIRCLE
  5
   3EB
  8
0
  6
CONTINUOUS
 62
     7
 10
-801.061902920604
 20
31.962367302193
 30
0.0
 40
0.279999995231628
  0
CIRCLE
  5
   3EC
  8
0
  6
CONTINUOUS
 62
     7
 10
-801.061902920604
 20
33.0823672831195
 30
0.0
 40
0.279999995231628
  0
LINE
  5
   3ED
  8
0
  6
CONTINUOUS
 62
     7
 10
-801.110912253491
 20
25.5180449141192
 30
0.0
 11
-802.216902967692
 21
25.3214243427056
 31
0.0
  0
LINE
  5
   3EE
  8
0
  6
CONTINUOUS
 62
     7
 10
-801.012893587718
 20
26.0866899000751
 30
0.0
 11
-802.216902967692
 21
25.8726437880797
 31
0.0
  0
LINE
  5
   3EF
  8
0
  6
CONTINUOUS
 62
     7
 10
-801.110912253491
 20
26.6380448950457
 30
0.0
 11
-802.216902967692
 21
26.4414243236321
 31
0.0
  0
LINE
  5
   3F0
  8
0
  6
CONTINUOUS
 62
     7
 10
-801.012893587718
 20
27.2066898810016
 30
0.0
 11
-802.216902967692
 21
26.9926437690062
 31
0.0
  0
LINE
  5
   3F1
  8
0
  6
CONTINUOUS
 62
     7
 10
-801.110912253491
 20
27.7580448759722
 30
0.0
 11
-802.216902967692
 21
27.5614243045586
 31
0.0
  0
LINE
  5
   3F2
  8
0
  6
CONTINUOUS
 62
     7
 10
-801.012893587718
 20
28.3266898619281
 30
0.0
 11
-802.216902967692
 21
28.1126437499328
 31
0.0
  0
LINE
  5
   3F3
  8
0
  6
CONTINUOUS
 62
     7
 10
-801.110912253491
 20
28.8780448568987
 30
0.0
 11
-802.216902967692
 21
28.6814242854851
 31
0.0
  0
LINE
  5
   3F4
  8
0
  6
CONTINUOUS
 62
     7
 10
-801.012893587718
 20
29.4466898428546
 30
0.0
 11
-802.216902967692
 21
29.2326437308593
 31
0.0
  0
LINE
  5
   3F5
  8
0
  6
CONTINUOUS
 62
     7
 10
-801.110912253491
 20
29.9980448378252
 30
0.0
 11
-802.216902967692
 21
29.8014242664116
 31
0.0
  0
LINE
  5
   3F6
  8
0
  6
CONTINUOUS
 62
     7
 10
-801.012893587718
 20
30.5666898237811
 30
0.0
 11
-802.216902967692
 21
30.3526437117858
 31
0.0
  0
LINE
  5
   3F7
  8
0
  6
CONTINUOUS
 62
     7
 10
-801.110912253491
 20
31.1180448187517
 30
0.0
 11
-802.216902967692
 21
30.9214242473381
 31
0.0
  0
LINE
  5
   3F8
  8
0
  6
CONTINUOUS
 62
     7
 10
-801.012893587718
 20
31.6866898047077
 30
0.0
 11
-802.216902967692
 21
31.4726436927123
 31
0.0
  0
LINE
  5
   3F9
  8
0
  6
CONTINUOUS
 62
     7
 10
-801.110912253491
 20
32.2380447996782
 30
0.0
 11
-802.216902967692
 21
32.0414242282647
 31
0.0
  0
LINE
  5
   3FA
  8
0
  6
CONTINUOUS
 62
     7
 10
-801.012893587718
 20
32.8066897856342
 30
0.0
 11
-802.216902967692
 21
32.5926436736388
 31
0.0
  0
LINE
  5
   3FB
  8
0
  6
CONTINUOUS
 62
     7
 10
-801.110912253491
 20
33.3580447806048
 30
0.0
 11
-802.216902967692
 21
33.1614242091912
 31
0.0
  0
LINE
  5
   3FC
  8
0
  6
CONTINUOUS
 62
     7
 10
-801.012893587718
 20
33.9266897665607
 30
0.0
 11
-802.216902967692
 21
33.7126436545653
 31
0.0
  0
LINE
  5
   3FD
  8
0
  6
CONTINUOUS
 62
     7
 10
-801.110912253491
 20
34.4780447615313
 30
0.0
 11
-802.216902967692
 21
34.2814241901177
 31
0.0
  0
LINE
  5
   3FE
  8
0
  6
CONTINUOUS
 62
     7
 10
-801.012893587718
 20
35.0466897474872
 30
0.0
 11
-802.216902967692
 21
34.8326436354918
 31
0.0
  0
LINE
  5
   3FF
  8
0
  6
CONTINUOUS
 62
     7
 10
-801.110912253491
 20
35.5980447424578
 30
0.0
 11
-802.216902967692
 21
35.4014241710442
 31
0.0
  0
LINE
  5
   400
  8
0
  6
CONTINUOUS
 62
     7
 10
-803.056902819872
 20
35.803310309364
 30
0.0
 11
-804.162893534074
 21
35.6066897379504
 31
0.0
  0
CIRCLE
  5
   401
  8
0
  6
CONTINUOUS
 62
     7
 10
-801.061902920604
 20
34.202367264046
 30
0.0
 40
0.279999995231628
  0
CIRCLE
  5
   402
  8
0
  6
CONTINUOUS
 62
     7
 10
-801.061902920604
 20
35.3223672449725
 30
0.0
 40
0.279999995231628
  0
ARC
  5
   403
  8
0
  6
CONTINUOUS
 62
     7
 10
-804.21190286696
 20
35.8823672354358
 30
0.0
 40
0.279999995231628
 50
629.999999844103
 51
706.448162658981
  0
LINE
  5
   404
  8
0
  6
CONTINUOUS
 62
     7
 10
-803.056902819872
 20
35.2520908639899
 30
0.0
 11
-804.260912199847
 21
35.0380447519945
 31
0.0
  0
LINE
  5
   405
  8
0
  6
CONTINUOUS
 62
     7
 10
-803.056902819872
 20
34.6833103284375
 30
0.0
 11
-804.162893534074
 21
34.4866897570239
 31
0.0
  0
LINE
  5
   406
  8
0
  6
CONTINUOUS
 62
     7
 10
-803.056902819872
 20
34.1320908830634
 30
0.0
 11
-804.260912199847
 21
33.918044771068
 31
0.0
  0
LINE
  5
   407
  8
0
  6
CONTINUOUS
 62
     7
 10
-803.056902819872
 20
33.563310347511
 30
0.0
 11
-804.162893534074
 21
33.3666897760974
 31
0.0
  0
LINE
  5
   408
  8
0
  6
CONTINUOUS
 62
     7
 10
-803.056902819872
 20
33.0120909021369
 30
0.0
 11
-804.260912199847
 21
32.7980447901415
 31
0.0
  0
LINE
  5
   409
  8
0
  6
CONTINUOUS
 62
     7
 10
-803.056902819872
 20
32.4433103665845
 30
0.0
 11
-804.162893534074
 21
32.2466897951709
 31
0.0
  0
LINE
  5
   40A
  8
0
  6
CONTINUOUS
 62
     7
 10
-803.056902819872
 20
31.8920909212103
 30
0.0
 11
-804.260912199847
 21
31.678044809215
 31
0.0
  0
LINE
  5
   40B
  8
0
  6
CONTINUOUS
 62
     7
 10
-803.056902819872
 20
31.323310385658
 30
0.0
 11
-804.162893534074
 21
31.1266898142444
 31
0.0
  0
LINE
  5
   40C
  8
0
  6
CONTINUOUS
 62
     7
 10
-803.056902819872
 20
30.7720909402838
 30
0.0
 11
-804.260912199847
 21
30.5580448282885
 31
0.0
  0
LINE
  5
   40D
  8
0
  6
CONTINUOUS
 62
     7
 10
-803.056902819872
 20
30.2033104047315
 30
0.0
 11
-804.162893534074
 21
30.0066898333179
 31
0.0
  0
LINE
  5
   40E
  8
0
  6
CONTINUOUS
 62
     7
 10
-803.056902819872
 20
29.6520909593573
 30
0.0
 11
-804.260912199847
 21
29.438044847362
 31
0.0
  0
LINE
  5
   40F
  8
0
  6
CONTINUOUS
 62
     7
 10
-803.056902819873
 20
29.083310423805
 30
0.0
 11
-804.162893534074
 21
28.8866898523914
 31
0.0
  0
LINE
  5
   410
  8
0
  6
CONTINUOUS
 62
     7
 10
-803.056902819872
 20
28.5320909784308
 30
0.0
 11
-804.260912199847
 21
28.3180448664355
 31
0.0
  0
LINE
  5
   411
  8
0
  6
CONTINUOUS
 62
     7
 10
-803.056902819872
 20
27.9633104428784
 30
0.0
 11
-804.162893534074
 21
27.7666898714649
 31
0.0
  0
LINE
  5
   412
  8
0
  6
CONTINUOUS
 62
     7
 10
-803.056902819872
 20
27.4120909975043
 30
0.0
 11
-804.260912199847
 21
27.1980448855089
 31
0.0
  0
LINE
  5
   413
  8
0
  6
CONTINUOUS
 62
     7
 10
-803.056902819872
 20
26.8433104619519
 30
0.0
 11
-804.162893534074
 21
26.6466898905384
 31
0.0
  0
LINE
  5
   414
  8
0
  6
CONTINUOUS
 62
     7
 10
-803.056902819872
 20
26.2920910165778
 30
0.0
 11
-804.260912199847
 21
26.0780449045824
 31
0.0
  0
LINE
  5
   415
  8
0
  6
CONTINUOUS
 62
     7
 10
-803.056902819872
 20
25.7233104810254
 30
0.0
 11
-804.162893534074
 21
25.5266899096118
 31
0.0
  0
LINE
  5
   416
  8
0
  6
CONTINUOUS
 62
     7
 10
-803.056902819872
 20
25.1720910356513
 30
0.0
 11
-804.211910025444
 21
24.9667564213275
 31
0.0
  0
LINE
  5
   417
  8
0
  6
CONTINUOUS
 62
     7
 10
-804.211910025444
 20
24.9667564213276
 30
0.0
 11
-803.056902819872
 21
24.9667564213276
 31
0.0
  0
INSERT
  5
   418
  8
0
  6
CONTINUOUS
 62
     3
  2
*HATCH63
 10
-713.913757324219
 20
2.56676483154297
 30
0.0
 41
0.699999988079071
 42
0.699999988079071
 50
269.999999844103
 43
0.699999988079071
  0
POLYLINE
  5
   419
  8
0
  6
CONTINUOUS
 62
     7
 66
     1
 10
0.0
 20
0.0
 30
0.0
  0
VERTEX
  5
   41A
  8
0
  6
CONTINUOUS
 10
-800.536847893414
 20
5.65192793342064
 30
0.0
 40
0.0
 41
0.0
  0
VERTEX
  5
   41B
  8
0
  6
CONTINUOUS
 10
-800.607615689202
 20
5.66313482580462
 30
0.0
 40
0.0
 41
0.0
  0
VERTEX
  5
   41C
  8
0
  6
CONTINUOUS
 10
-800.677597209971
 20
5.67199369120492
 30
0.0
 40
0.0
 41
0.0
  0
VERTEX
  5
   41D
  8
0
  6
CONTINUOUS
 10
-800.712269923183
 20
5.67528238387604
 30
0.0
 40
0.0
 41
0.0
  0
VERTEX
  5
   41E
  8
0
  6
CONTINUOUS
 10
-800.781315338323
 20
5.67905494608675
 30
0.0
 40
0.0
 41
0.0
  0
VERTEX
  5
   41F
  8
0
  6
CONTINUOUS
 10
-800.849488860102
 20
5.67831307216715
 30
0.0
 40
0.0
 41
0.0
  0
VERTEX
  5
   420
  8
0
  6
CONTINUOUS
 10
-800.883263012605
 20
5.6759857000403
 30
0.0
 40
0.0
 41
0.0
  0
VERTEX
  5
   421
  8
0
  6
CONTINUOUS
 10
-800.9168407708
 20
5.67222217878358
 30
0.0
 40
0.0
 41
0.0
  0
VERTEX
  5
   422
  8
0
  6
CONTINUOUS
 10
-800.950233191205
 20
5.66693191527166
 30
0.0
 40
0.0
 41
0.0
  0
VERTEX
  5
   423
  8
0
  6
CONTINUOUS
 10
-800.983452505841
 20
5.66003292699451
 30
0.0
 40
0.0
 41
0.0
  0
VERTEX
  5
   424
  8
0
  6
CONTINUOUS
 10
-801.016511736453
 20
5.6514534834778
 30
0.0
 40
0.0
 41
0.0
  0
VERTEX
  5
   425
  8
0
  6
CONTINUOUS
 10
-801.04942430872
 20
5.64113374770327
 30
0.0
 40
0.0
 41
0.0
  0
VERTEX
  5
   426
  8
0
  6
CONTINUOUS
 10
-801.08220366648
 20
5.62902741752919
 30
0.0
 40
0.0
 41
0.0
  0
VERTEX
  5
   427
  8
0
  6
CONTINUOUS
 10
-801.114862885936
 20
5.61510336711067
 30
0.0
 40
0.0
 41
0.0
  0
VERTEX
  5
   428
  8
0
  6
CONTINUOUS
 10
-801.147414289885
 20
5.59934728832014
 30
0.0
 40
0.0
 41
0.0
  0
VERTEX
  5
   429
  8
0
  6
CONTINUOUS
 10
-801.179869061924
 20
5.58176333216769
 30
0.0
 40
0.0
 41
0.0
  0
VERTEX
  5
   42A
  8
0
  6
CONTINUOUS
 10
-801.21223686067
 20
5.56237575022148
 30
0.0
 40
0.0
 41
0.0
  0
VERTEX
  5
   42B
  8
0
  6
CONTINUOUS
 10
-801.24452543398
 20
5.54123053602813
 30
0.0
 40
0.0
 41
0.0
  0
VERTEX
  5
   42C
  8
0
  6
CONTINUOUS
 10
-801.308884027202
 20
5.49396974350126
 30
0.0
 40
0.0
 41
0.0
  0
VERTEX
  5
   42D
  8
0
  6
CONTINUOUS
 10
-801.372953949412
 20
5.44084611650453
 30
0.0
 40
0.0
 41
0.0
  0
VERTEX
  5
   42E
  8
0
  6
CONTINUOUS
 10
-801.446659541923
 20
5.37381914985084
 30
0.0
 40
0.0
 41
0.0
  0
VERTEX
  5
   42F
  8
0
  6
CONTINUOUS
 10
-801.59196234158
 20
5.23337817519513
 30
0.0
 40
0.0
 41
0.0
  0
VERTEX
  5
   430
  8
0
  6
CONTINUOUS
 10
-801.66302499952
 20
5.16715162579069
 30
0.0
 40
0.0
 41
0.0
  0
VERTEX
  5
   431
  8
0
  6
CONTINUOUS
 10
-801.698034038018
 20
5.13671015150545
 30
0.0
 40
0.0
 41
0.0
  0
VERTEX
  5
   432
  8
0
  6
CONTINUOUS
 10
-801.732651426403
 20
5.10867485618983
 30
0.0
 40
0.0
 41
0.0
  0
VERTEX
  5
   433
  8
0
  6
CONTINUOUS
 10
-801.766849482738
 20
5.08348892626461
 30
0.0
 40
0.0
 41
0.0
  0
VERTEX
  5
   434
  8
0
  6
CONTINUOUS
 10
-801.800606021646
 20
5.06156460343625
 30
0.0
 40
0.0
 41
0.0
  0
VERTEX
  5
   435
  8
0
  6
CONTINUOUS
 10
-801.833905661182
 20
5.04327442916689
 30
0.0
 40
0.0
 41
0.0
  0
VERTEX
  5
   436
  8
0
  6
CONTINUOUS
 10
-801.866741129691
 20
5.02894248914434
 30
0.0
 40
0.0
 41
0.0
  0
VERTEX
  5
   437
  8
0
  6
CONTINUOUS
 10
-801.89911457268
 20
5.01883565775212
 30
0.0
 40
0.0
 41
0.0
  0
VERTEX
  5
   438
  8
0
  6
CONTINUOUS
 10
-801.931038859678
 20
5.01315484253948
 30
0.0
 40
0.0
 41
0.0
  0
VERTEX
  5
   439
  8
0
  6
CONTINUOUS
 10
-801.962538891101
 20
5.01202622869139
 30
0.0
 40
0.0
 41
0.0
  0
VERTEX
  5
   43A
  8
0
  6
CONTINUOUS
 10
-801.993652905121
 20
5.01549252349853
 30
0.0
 40
0.0
 41
0.0
  0
VERTEX
  5
   43B
  8
0
  6
CONTINUOUS
 10
-802.024433784525
 20
5.02350420082736
 30
0.0
 40
0.0
 41
0.0
  0
VERTEX
  5
   43C
  8
0
  6
CONTINUOUS
 10
-802.054950363584
 20
5.03591074559009
 30
0.0
 40
0.0
 41
0.0
  0
VERTEX
  5
   43D
  8
0
  6
CONTINUOUS
 10
-802.074806772733
 20
5.04628254288775
 30
0.0
 40
0.0
 41
0.0
  0
VERTEX
  5
   43E
  8
0
  6
CONTINUOUS
 10
-802.114405250799
 20
5.07192357203235
 30
0.0
 40
0.0
 41
0.0
  0
VERTEX
  5
   43F
  8
0
  6
CONTINUOUS
 10
-802.134211681678
 20
5.08693852812084
 30
0.0
 40
0.0
 41
0.0
  0
VERTEX
  5
   440
  8
0
  6
CONTINUOUS
 10
-802.174014062612
 20
5.12060573284764
 30
0.0
 40
0.0
 41
0.0
  0
VERTEX
  5
   441
  8
0
  6
CONTINUOUS
 10
-802.214314788406
 20
5.15798178148939
 30
0.0
 40
0.0
 41
0.0
  0
VERTEX
  5
   442
  8
0
  6
CONTINUOUS
 10
-802.297580481504
 20
5.23788027516957
 30
0.0
 40
0.0
 41
0.0
  0
VERTEX
  5
   443
  8
0
  6
CONTINUOUS
 10
-802.341077405549
 20
5.27732849288756
 30
0.0
 40
0.0
 41
0.0
  0
VERTEX
  5
   444
  8
0
  6
CONTINUOUS
 10
-802.386102309768
 20
5.31447949440788
 30
0.0
 40
0.0
 41
0.0
  0
VERTEX
  5
   445
  8
0
  6
CONTINUOUS
 10
-802.432791399936
 20
5.34803239411254
 30
0.0
 40
0.0
 41
0.0
  0
VERTEX
  5
   446
  8
0
  6
CONTINUOUS
 10
-802.481198122441
 20
5.37690895267594
 30
0.0
 40
0.0
 41
0.0
  0
VERTEX
  5
   447
  8
0
  6
CONTINUOUS
 10
-802.511289419687
 20
5.39175742433793
 30
0.0
 40
0.0
 41
0.0
  0
VERTEX
  5
   448
  8
0
  6
CONTINUOUS
 10
-802.541964477141
 20
5.40448812108876
 30
0.0
 40
0.0
 41
0.0
  0
VERTEX
  5
   449
  8
0
  6
CONTINUOUS
 10
-802.573179810595
 20
5.41503152899972
 30
0.0
 40
0.0
 41
0.0
  0
VERTEX
  5
   44A
  8
0
  6
CONTINUOUS
 10
-802.604879898952
 20
5.4233578267882
 30
0.0
 40
0.0
 41
0.0
  0
VERTEX
  5
   44B
  8
0
  6
CONTINUOUS
 10
-802.636998991545
 20
5.42947232352182
 30
0.0
 40
0.0
 41
0.0
  0
SEQEND
  5
   44C
  8
0
  6
CONTINUOUS
 62
     7
  0
LINE
  5
   44D
  8
0
  6
DOT
 62
     7
 10
-801.376902714968
 20
5.43754003019759
 30
0.0
 11
-801.376902714968
 21
-11.433235615492
 31
0.0
  0
LINE
  5
   44E
  8
0
  6
CONTINUOUS
 62
     7
 10
-803.266902549267
 20
36.6567540860176
 30
0.0
 11
-803.056902819872
 21
36.6567540860176
 31
0.0
  0
LINE
  5
   44F
  8
0
  6
CONTINUOUS
 62
     7
 10
-803.266902549267
 20
35.8167562365531
 30
0.0
 11
-803.056902819872
 21
35.8167562365531
 31
0.0
  0
LINE
  5
   450
  8
0
  6
CONTINUOUS
 62
     7
 10
-803.12690281868
 20
21.8167564749717
 30
0.0
 11
-803.056902819872
 21
21.8167564749717
 31
0.0
  0
LINE
  5
   451
  8
0
  6
CONTINUOUS
 62
     7
 10
-803.12690281868
 20
20.9767586255073
 30
0.0
 11
-803.056902819872
 21
20.9767586255073
 31
0.0
  0
LINE
  5
   452
  8
0
  6
CONTINUOUS
 62
     7
 10
-803.356902814763
 20
22.1667564690113
 30
0.0
 11
-803.056902819872
 21
22.1667564690113
 31
0.0
  0
LINE
  5
   453
  8
0
  6
DOT
 62
     7
 10
-803.056902819872
 20
22.1667564690113
 30
0.0
 11
-802.216902967692
 21
22.1667564690113
 31
0.0
  0
INSERT
  5
   454
  8
0
  6
CONTINUOUS
 62
     7
  2
*HATCH64
 10
-713.913757324219
 20
2.56676483154297
 30
0.0
 41
0.699999988079071
 42
0.699999988079071
 50
269.999999844103
 43
0.699999988079071
  0
INSERT
  5
   455
  8
0
  6
CONTINUOUS
 62
     7
  2
*HATCH65
 10
-713.913757324219
 20
2.56676483154297
 30
0.0
 41
0.699999988079071
 42
0.699999988079071
 50
269.999999844103
 43
0.699999988079071
  0
INSERT
  5
   456
  8
0
  6
CONTINUOUS
 62
     7
  2
*HATCH66
 10
-713.913757324219
 20
2.56676483154297
 30
0.0
 41
0.699999988079071
 42
0.699999988079071
 50
269.999999844103
 43
0.699999988079071
  0
INSERT
  5
   457
  8
0
  6
CONTINUOUS
 62
     7
  2
*HATCH67
 10
-713.913757324219
 20
2.56676483154297
 30
0.0
 41
0.699999988079071
 42
0.699999988079071
 50
269.999999844103
 43
0.699999988079071
  0
LINE
  5
   458
  8
0
  6
CONTINUOUS
 62
     7
 10
-801.376902714968
 20
52.6167559504509
 30
0.0
 11
-801.376902714968
 21
51.9318596183411
 31
0.0
  0
LINE
  5
   459
  8
0
  6
CONTINUOUS
 62
     7
 10
-803.056902819872
 20
55.7667558968067
 30
0.0
 11
-803.056902819872
 21
51.9318596183411
 31
0.0
  0
LINE
  5
   45A
  8
0
  6
CONTINUOUS
 62
     7
 10
-802.216902967692
 20
55.7667558968067
 30
0.0
 11
-802.216902967692
 21
51.9318596183411
 31
0.0
  0
LINE
  5
   45B
  8
0
  6
CONTINUOUS
 62
     7
 10
-801.376902714968
 20
-11.4332215964798
 30
0.0
 11
-801.376902714968
 21
-19.4983304559396
 31
0.0
  0
LINE
  5
   45C
  8
0
  6
CONTINUOUS
 62
     7
 10
-800.186930713089
 20
51.2167534054142
 30
0.0
 11
-800.186930713089
 21
-30.6832239210505
 31
0.0
  0
LINE
  5
   45D
  8
0
  6
CONTINUOUS
 62
     7
 10
-751.186951407821
 20
-11.4332242488863
 30
0.0
 11
-751.186951407821
 21
-17.3832348287106
 31
0.0
  0
LINE
  5
   45E
  8
0
  6
CONTINUOUS
 62
     7
 10
-751.18695163508
 20
-11.4332242488863
 30
0.0
 11
-747.686940786274
 21
-11.4332242488863
 31
0.0
  0
LINE
  5
   45F
  8
0
  6
CONTINUOUS
 62
     7
 10
-751.186940953927
 20
20.0667752146719
 30
0.0
 11
-747.686940786274
 21
20.0667752146719
 31
0.0
  0
LINE
  5
   460
  8
0
  6
CONTINUOUS
 62
     7
 10
-751.186940726669
 20
42.8167641460896
 30
0.0
 11
-751.186940726669
 21
20.0667752146719
 31
0.0
  0
LINE
  5
   461
  8
0
  6
CONTINUOUS
 62
     7
 10
-747.686940786274
 20
20.0667752146719
 30
0.0
 11
-747.686940786274
 21
-11.4332242488863
 31
0.0
  0
LINE
  5
   462
  8
0
  6
CONTINUOUS
 62
     7
 10
-751.8869513959
 20
-18.0832348167896
 30
0.0
 11
-751.8869513959
 21
-19.1332347989082
 31
0.0
  0
LINE
  5
   463
  8
0
  6
CONTINUOUS
 62
     7
 10
-752.936951378019
 20
-19.1332347989082
 30
0.0
 11
-752.936951378019
 21
-27.8832334742166
 31
0.0
  0
LINE
  5
   464
  8
0
  6
CONTINUOUS
 62
     7
 10
-755.736951330335
 20
-19.1332347989082
 30
0.0
 11
-752.936951378019
 21
-19.1332347989082
 31
0.0
  0
LINE
  5
   465
  8
0
  6
CONTINUOUS
 62
     7
 10
-755.736951330335
 20
-18.0832348167896
 30
0.0
 11
-751.8869513959
 21
-18.0832348167896
 31
0.0
  0
LINE
  5
   466
  8
0
  6
CONTINUOUS
 62
     7
 10
-755.736951330335
 20
43.5167641341686
 30
0.0
 11
-751.886940714748
 21
43.5167641341686
 31
0.0
  0
LINE
  5
   467
  8
0
  6
CONTINUOUS
 62
     7
 10
-751.8869513959
 20
44.5667641162872
 30
0.0
 11
-751.8869513959
 21
43.5167641341686
 31
0.0
  0
LINE
  5
   468
  8
0
  6
CONTINUOUS
 62
     7
 10
-755.736951330335
 20
44.5667641162872
 30
0.0
 11
-752.936951378019
 21
44.5667641162872
 31
0.0
  0
LINE
  5
   469
  8
0
  6
CONTINUOUS
 62
     7
 10
-755.736951330335
 20
51.2167628273584
 30
0.0
 11
-755.736951330335
 21
43.5167641341686
 31
0.0
  0
LINE
  5
   46A
  8
0
  6
CONTINUOUS
 62
     7
 10
-800.186930401555
 20
51.9167628154374
 30
0.0
 11
-756.436951318414
 21
51.9167628154374
 31
0.0
  0
ARC
  5
   46B
  8
0
  6
CONTINUOUS
 62
     7
 10
-756.436951318414
 20
51.2167628273584
 30
0.0
 40
0.699999988079071
 50
359.999999844103
 51
449.999999844103
  0
ARC
  5
   46C
  8
0
  6
CONTINUOUS
 62
     7
 10
-751.886940714748
 20
42.8167641460896
 30
0.0
 40
0.699999988079071
 50
359.999999844103
 51
449.999999844103
  0
ARC
  5
   46D
  8
0
  6
CONTINUOUS
 62
     7
 10
-756.436951318414
 20
-25.7832335099794
 30
0.0
 40
0.699999988079071
 50
269.999999844103
 51
359.999999844103
  0
LINE
  5
   46E
  8
0
  6
CONTINUOUS
 62
     7
 10
-755.736951330335
 20
-18.0832348167896
 30
0.0
 11
-755.736951330335
 21
-25.7832335099794
 31
0.0
  0
ARC
  5
   46F
  8
0
  6
CONTINUOUS
 62
     7
 10
-751.8869513959
 20
-17.3832348287106
 30
0.0
 40
0.699999988079071
 50
269.999999844103
 51
359.999999844103
  0
LINE
  5
   470
  8
0
  6
DASHDOT
 62
     7
 10
-828.026285793264
 20
4.31677548289284
 30
0.0
 11
-722.829977741062
 21
4.31677548289284
 31
0.0
  0
LINE
  5
   471
  8
0
  6
CONTINUOUS
 62
     7
 10
-800.186930713089
 20
-26.4832334980584
 30
0.0
 11
-756.436951318414
 21
-26.4832334980584
 31
0.0
  0
LINE
  5
   472
  8
0
  6
CONTINUOUS
 62
     7
 10
-752.936951378019
 20
44.5667641162872
 30
0.0
 11
-751.8869513959
 21
44.5667641162872
 31
0.0
  0
LINE
  5
   473
  8
0
  6
CONTINUOUS
 62
     7
 10
-752.936951378019
 20
-19.1332347989082
 30
0.0
 11
-751.536951401861
 21
-19.1332347989082
 31
0.0
  0
LINE
  5
   474
  8
0
  6
CONTINUOUS
 62
     7
 10
-800.186930713089
 20
-27.8832334742166
 30
0.0
 11
-752.936951378019
 21
-27.8832334742166
 31
0.0
  0
LINE
  5
   475
  8
0
  6
CONTINUOUS
 62
     7
 10
-751.536951401861
 20
-19.1332347989082
 30
0.0
 11
-751.536951401861
 21
-29.9832239329714
 31
0.0
  0
LINE
  5
   476
  8
0
  6
CONTINUOUS
 62
     7
 10
-800.186930713089
 20
-30.6832239210505
 30
0.0
 11
-752.23695138994
 21
-30.6832239210505
 31
0.0
  0
ARC
  5
   477
  8
0
  6
CONTINUOUS
 62
     7
 10
-752.23695138994
 20
-29.9832239329714
 30
0.0
 40
0.699999988079071
 50
269.999999844103
 51
359.999999844103
  0
LINE
  5
   478
  8
0
  6
CONTINUOUS
 62
     7
 10
-800.186930713089
 20
56.1167746007543
 30
0.0
 11
-752.23695138994
 21
56.1167746007543
 31
0.0
  0
LINE
  5
   479
  8
0
  6
CONTINUOUS
 62
     7
 10
-751.536951401861
 20
55.4167746126753
 30
0.0
 11
-751.536951401861
 21
44.5667854786121
 31
0.0
  0
ARC
  5
   47A
  8
0
  6
CONTINUOUS
 62
     7
 10
-752.23695138994
 20
55.4167746126753
 30
0.0
 40
0.699999988079071
 50
359.999999844103
 51
449.999999844103
  0
LINE
  5
   47B
  8
0
  6
CONTINUOUS
 62
     7
 10
-752.936951378019
 20
53.3167841539205
 30
0.0
 11
-752.936951378019
 21
44.5667854786121
 31
0.0
  0
LINE
  5
   47C
  8
0
  6
CONTINUOUS
 62
     7
 10
-800.186930713089
 20
53.3167841539205
 30
0.0
 11
-752.936951378019
 21
53.3167841539205
 31
0.0
  0
LINE
  5
   47D
  8
0
  6
CONTINUOUS
 62
     7
 10
-749.786935576828
 20
20.766775202751
 30
0.0
 11
-749.786935576828
 21
20.0667752146719
 31
0.0
  0
LINE
  5
   47E
  8
0
  6
CONTINUOUS
 62
     7
 10
-749.786935576828
 20
-11.4332242488863
 30
0.0
 11
-749.786935576828
 21
-12.1332242369653
 31
0.0
  0
LINE
  5
   47F
  8
0
  6
CONTINUOUS
 62
     7
 10
-749.786935576828
 20
37.9167749106883
 30
0.0
 11
-749.786935576828
 21
21.8167751848696
 31
0.0
  0
LINE
  5
   480
  8
0
  6
DASHDOT
 62
     7
 10
-749.786935576828
 20
62.8657114748818
 30
0.0
 11
-749.786935576828
 21
-43.635251092567
 31
0.0
  0
LINE
  5
   481
  8
0
  6
CONTINUOUS
 62
     7
 10
-747.68693561259
 20
-11.4332242488863
 30
0.0
 11
-747.68693561259
 21
-29.2832239449026
 31
0.0
  0
LINE
  5
   482
  8
0
  6
CONTINUOUS
 62
     7
 10
-750.836935558946
 20
20.766775202751
 30
0.0
 11
-749.786935576828
 21
20.766775202751
 31
0.0
  0
LINE
  5
   483
  8
0
  6
CONTINUOUS
 62
     7
 10
-750.836935558946
 20
21.8167751848696
 30
0.0
 11
-749.786935576828
 21
21.8167751848696
 31
0.0
  0
LINE
  5
   484
  8
0
  6
CONTINUOUS
 62
     7
 10
-750.836935558946
 20
21.8167751848696
 30
0.0
 11
-750.836935558946
 21
20.766775202751
 31
0.0
  0
LINE
  5
   485
  8
0
  6
CONTINUOUS
 62
     7
 10
-749.786935576828
 20
37.9167749106883
 30
0.0
 11
-747.68693561259
 21
37.9167749106883
 31
0.0
  0
LINE
  5
   486
  8
0
  6
CONTINUOUS
 62
     7
 10
-749.786935576828
 20
-29.2832239449026
 30
0.0
 11
-747.68693561259
 21
-29.2832239449026
 31
0.0
  0
LINE
  5
   487
  8
0
  6
CONTINUOUS
 62
     7
 10
-749.786935576828
 20
-13.1832242190839
 30
0.0
 11
-749.786935576828
 21
-29.2832239449026
 31
0.0
  0
LINE
  5
   488
  8
0
  6
CONTINUOUS
 62
     7
 10
-750.836935558946
 20
-13.1832242190839
 30
0.0
 11
-749.786935576828
 21
-13.1832242190839
 31
0.0
  0
LINE
  5
   489
  8
0
  6
CONTINUOUS
 62
     7
 10
-750.836935558946
 20
-12.1332242369653
 30
0.0
 11
-750.836935558946
 21
-13.1832242190839
 31
0.0
  0
LINE
  5
   48A
  8
0
  6
DOT
 62
     7
 10
-749.786935576828
 20
20.0667752146719
 30
0.0
 11
-749.786935576828
 21
-11.4332242488863
 31
0.0
  0
LINE
  5
   48B
  8
0
  6
CONTINUOUS
 62
     7
 10
-747.68693561259
 20
37.9167749106883
 30
0.0
 11
-747.68693561259
 21
20.0667752146719
 31
0.0
  0
LINE
  5
   48C
  8
0
  6
CONTINUOUS
 62
     7
 10
-751.186935552986
 20
27.7667750835417
 30
0.0
 11
-749.786935576828
 21
27.7667750835417
 31
0.0
  0
LINE
  5
   48D
  8
0
  6
CONTINUOUS
 62
     7
 10
-751.186935552986
 20
25.6667751193045
 30
0.0
 11
-749.786935576828
 21
25.6667751193045
 31
0.0
  0
LINE
  5
   48E
  8
0
  6
CONTINUOUS
 62
     7
 10
-751.186935552986
 20
28.291775074601
 30
0.0
 11
-751.186935552986
 21
25.1417751282452
 31
0.0
  0
LINE
  5
   48F
  8
0
  6
DOT
 62
     7
 10
-751.186935552986
 20
28.291775074601
 30
0.0
 11
-752.586935529144
 21
27.3474631671032
 31
0.0
  0
LINE
  5
   490
  8
0
  6
DOT
 62
     7
 10
-752.586935529144
 20
26.0860870357431
 30
0.0
 11
-751.186935552986
 21
25.1417751282452
 31
0.0
  0
LINE
  5
   491
  8
0
  6
DOT
 62
     7
 10
-752.586935529144
 20
27.3474631671032
 30
0.0
 11
-752.586935529144
 21
26.0860870357431
 31
0.0
  0
LINE
  5
   492
  8
0
  6
DOT
 62
     7
 10
-752.586935529144
 20
-18.7139122013175
 30
0.0
 11
-751.186935552986
 21
-19.6582241088154
 31
0.0
  0
LINE
  5
   493
  8
0
  6
DOT
 62
     7
 10
-752.586935529144
 20
-17.4525360699574
 30
0.0
 11
-752.586935529144
 21
-18.7139122013175
 31
0.0
  0
LINE
  5
   494
  8
0
  6
DOT
 62
     7
 10
-751.186935552986
 20
-16.5082241624595
 30
0.0
 11
-752.586935529144
 21
-17.4525360699574
 31
0.0
  0
LINE
  5
   495
  8
0
  6
CONTINUOUS
 62
     7
 10
-751.186935552986
 20
-16.5082241624595
 30
0.0
 11
-751.186935552986
 21
-19.6582241088153
 31
0.0
  0
LINE
  5
   496
  8
0
  6
CONTINUOUS
 62
     7
 10
-751.186935552986
 20
-19.133224117756
 30
0.0
 11
-749.786935576828
 21
-19.133224117756
 31
0.0
  0
LINE
  5
   497
  8
0
  6
CONTINUOUS
 62
     7
 10
-751.186935552986
 20
-17.0332241535188
 30
0.0
 11
-749.786935576828
 21
-17.0332241535188
 31
0.0
  0
LINE
  5
   498
  8
0
  6
CONTINUOUS
 62
     7
 10
-749.786935576828
 20
20.766775202751
 30
0.0
 11
-747.68693561259
 21
20.766775202751
 31
0.0
  0
LINE
  5
   499
  8
0
  6
CONTINUOUS
 62
     7
 10
-750.836935558946
 20
-12.1332242369653
 30
0.0
 11
-747.68693561259
 21
-12.1332242369653
 31
0.0
  0
LINE
  5
   49A
  8
0
  6
DASHDOT
 62
     7
 10
-750.836935558946
 20
62.8657114748818
 30
0.0
 11
-750.836935558946
 21
-44.0078413651901
 31
0.0
  0
INSERT
  5
   49B
  8
0
  6
CONTINUOUS
 62
     7
  2
*HATCH68
 10
-713.913757324219
 20
2.56676483154297
 30
0.0
 41
0.699999988079071
 42
0.699999988079071
 50
269.999999844103
 43
0.699999988079071
  0
INSERT
  5
   49C
  8
0
  6
CONTINUOUS
 62
     7
  2
*HATCH69
 10
-713.913757324219
 20
2.56676483154297
 30
0.0
 41
0.699999988079071
 42
0.699999988079071
 50
269.999999844103
 43
0.699999988079071
  0
LINE
  5
   49D
  8
0
  6
CONTINUOUS
 62
     7
 10
-736.486931797893
 20
1.83482004602639
 30
0.0
 11
-736.486931797893
 21
-3.68293570921741
 31
0.0
  0
LINE
  5
   49E
  8
0
  6
CONTINUOUS
 62
     7
 10
-751.186940726669
 20
55.7667639255524
 30
0.0
 11
-748.736940768392
 21
55.7667639255524
 31
0.0
  0
LINE
  5
   49F
  8
0
  6
CONTINUOUS
 62
     7
 10
-751.186940726669
 20
52.266763985157
 30
0.0
 11
-748.736940768392
 21
52.266763985157
 31
0.0
  0
LINE
  5
   4A0
  8
0
  6
CONTINUOUS
 62
     7
 10
-748.386940774353
 20
55.4167639315128
 30
0.0
 11
-748.386940774353
 21
52.6167639791966
 31
0.0
  0
CIRCLE
  5
   4A1
  8
0
  6
CONTINUOUS
 62
     7
 10
-749.786940750511
 20
54.0167639553547
 30
0.0
 40
0.524999991059303
  0
LINE
  5
   4A2
  8
0
  6
CONTINUOUS
 62
     7
 10
-748.736940768392
 20
55.7667639255524
 30
0.0
 11
-748.386940774353
 21
55.4167639315128
 31
0.0
  0
LINE
  5
   4A3
  8
0
  6
CONTINUOUS
 62
     7
 10
-748.386940774353
 20
52.6167639791966
 30
0.0
 11
-748.736940768392
 21
52.266763985157
 31
0.0
  0
LINE
  5
   4A4
  8
0
  6
CONTINUOUS
 62
     7
 10
-748.736940768392
 20
55.7667639255524
 30
0.0
 11
-748.736940768392
 21
52.266763985157
 31
0.0
  0
LINE
  5
   4A5
  8
0
  6
CONTINUOUS
 62
     7
 10
-751.186940726669
 20
-30.3332346081734
 30
0.0
 11
-748.736940768392
 21
-30.3332346081734
 31
0.0
  0
LINE
  5
   4A6
  8
0
  6
CONTINUOUS
 62
     7
 10
-748.736940768392
 20
-26.833234667778
 30
0.0
 11
-748.736940768392
 21
-30.3332346081734
 31
0.0
  0
LINE
  5
   4A7
  8
0
  6
CONTINUOUS
 62
     7
 10
-751.186940726669
 20
-26.833234667778
 30
0.0
 11
-748.736940768392
 21
-26.833234667778
 31
0.0
  0
LINE
  5
   4A8
  8
0
  6
CONTINUOUS
 62
     7
 10
-748.386940774353
 20
-29.9832346141338
 30
0.0
 11
-748.736940768392
 21
-30.3332346081734
 31
0.0
  0
LINE
  5
   4A9
  8
0
  6
CONTINUOUS
 62
     7
 10
-748.386940774353
 20
-27.1832346618176
 30
0.0
 11
-748.386940774353
 21
-29.9832346141338
 31
0.0
  0
LINE
  5
   4AA
  8
0
  6
CONTINUOUS
 62
     7
 10
-748.736940768392
 20
-26.833234667778
 30
0.0
 11
-748.386940774353
 21
-27.1832346618176
 31
0.0
  0
CIRCLE
  5
   4AB
  8
0
  6
CONTINUOUS
 62
     7
 10
-749.786940750511
 20
-28.5832346379757
 30
0.0
 40
0.524999991059303
  0
CIRCLE
  5
   4AC
  8
0
  6
CONTINUOUS
 62
     7
 10
-796.999667812017
 20
76.2873652009586
 30
0.0
 40
1.5
  0
CIRCLE
  5
   4AD
  8
0
  6
CONTINUOUS
 62
     7
 10
-778.860057342611
 20
64.6261870420545
 30
0.0
 40
1.5
  0
INSERT
  5
   4AE
  8
0
  6
CONTINUOUS
 62
     7
  2
*HATCH70
 10
-713.913757324219
 20
2.56676483154297
 30
0.0
 41
0.699999988079071
 42
0.699999988079071
 50
269.999999844103
 43
0.699999988079071
  0
INSERT
  5
   4AF
  8
0
  6
CONTINUOUS
 62
     7
  2
*HATCH71
 10
-713.913757324219
 20
2.56676483154297
 30
0.0
 41
0.699999988079071
 42
0.699999988079071
 50
269.999999844103
 43
0.699999988079071
  0
LINE
  5
   4B0
  8
0
  6
CONTINUOUS
 62
     7
 10
-822.498347457764
 20
51.9318596183411
 30
0.0
 11
-820.398347493527
 21
51.9318596183411
 31
0.0
  0
LINE
  5
   4B1
  8
0
  6
CONTINUOUS
 62
     7
 10
-822.498347457764
 20
44.9318597375504
 30
0.0
 11
-820.398347493527
 21
44.9318597375504
 31
0.0
  0
LINE
  5
   4B2
  8
0
  6
CONTINUOUS
 62
     7
 10
-822.498347457764
 20
-19.4983304559396
 30
0.0
 11
-820.398347493527
 21
-19.4983304559396
 31
0.0
  0
LINE
  5
   4B3
  8
0
  6
CONTINUOUS
 62
     7
 10
-822.498347457764
 20
-26.4983303367303
 30
0.0
 11
-820.398347493527
 21
-26.4983303367303
 31
0.0
  0
LINE
  5
   4B4
  8
0
  6
CONTINUOUS
 62
     7
 10
-829.498347338555
 20
-20.5483304380582
 30
0.0
 11
-829.498347338555
 21
-25.5032240271623
 31
0.0
  0
TEXT
  5
   4B5
  8
0
  6
CONTINUOUS
 62
     2
 10
-793.436521388579
 20
77.1113002398706
 30
0.0
 40
2.00000003448554
  1
75mm.CON VITI SIGILLABILI
 50
359.999999844103
 41
0.75
 11
-793.436521385863
 21
78.1113002571134
 31
0.0
 73
     2
  0
TEXT
  5
   4B6
  8
0
  6
CONTINUOUS
 62
     2
 10
-793.436521257445
 20
74.1113002050501
 30
0.0
 40
2.00000003448554
  1
75mm.WITH SCREWS TO SEAL
 50
359.999999844103
 41
0.75
 11
-793.436521254729
 21
75.1113002222929
 31
0.0
 73
     2
  0
TEXT
  5
   4B7
  8
0
  6
CONTINUOUS
 62
     2
 10
-721.131375003229
 20
2.33089393819596
 30
0.0
 40
2.99999997871263
  1
X
 50
359.999999844103
 41
0.983333365784751
 11
-721.131374999155
 21
3.83089392755227
 31
0.0
 73
     2
  0
TEXT
  5
   4B8
  8
0
  6
CONTINUOUS
 62
     2
 10
-865.297673512447
 20
2.87622199764229
 30
0.0
 40
2.99999997871263
  1
X
 50
359.999999844103
 41
0.983333365784751
 11
-865.297673508373
 21
4.3762219869986
 31
0.0
 73
     2
  0
INSERT
  5
   4B9
  8
0
  6
CONTINUOUS
 62
     3
  2
*UDIM105
 10
0.0
 20
0.0
 30
0.0
  0
INSERT
  5
   4BA
  8
0
  6
CONTINUOUS
 62
     3
  2
*UDIM106
 10
0.0
 20
0.0
 30
0.0
  0
INSERT
  5
   4BB
  8
0
  6
CONTINUOUS
 62
     3
  2
*UDIM107
 10
0.0
 20
0.0
 30
0.0
  0
INSERT
  5
   4BC
  8
0
  6
CONTINUOUS
 62
     7
  2
*UDIM108
 10
0.0
 20
0.0
 30
0.0
  0
INSERT
  5
   4BD
  8
0
  6
CONTINUOUS
 62
     7
  2
*UDIM109
 10
0.0
 20
0.0
 30
0.0
  0
INSERT
  5
   4BE
  8
0
  6
CONTINUOUS
 62
     3
  2
*UDIM110
 10
0.0
 20
0.0
 30
0.0
  0
INSERT
  5
   4BF
  8
0
  6
CONTINUOUS
 62
     3
  2
*UDIM111
 10
0.0
 20
0.0
 30
0.0
  0
INSERT
  5
   4C0
  8
0
  6
CONTINUOUS
 62
     3
  2
*UDIM112
 10
0.0
 20
0.0
 30
0.0
  0
INSERT
  5
   4C1
  8
0
  6
CONTINUOUS
 62
     3
  2
*UDIM113
 10
0.0
 20
0.0
 30
0.0
  0
INSERT
  5
   4C2
  8
0
  6
CONTINUOUS
 62
     7
  2
*UDIM114
 10
0.0
 20
0.0
 30
0.0
  0
TEXT
  5
   4C3
  8
0
  6
CONTINUOUS
 62
     2
 10
-737.031980756432
 20
63.5084098782094
 30
0.0
 40
3.50000002384186
  1
:
 50
359.999999844103
 41
0.933333333333333
 72
     1
 11
-735.748647409603
 21
65.258409886645
 31
0.0
 73
     2
  0
CIRCLE
  5
   4C4
  8
0
  6
CONTINUOUS
 62
     2
 10
-916.35404748208
 20
54.0167484581492
 30
0.0
 40
1.39999997615814
  0
LINE
  5
   4C5
  8
0
  6
CONTINUOUS
 62
     2
 10
-915.495606119378
 20
55.1226771900511
 30
0.0
 11
-917.459976213982
 21
53.1583070954478
 31
0.0
  0
LINE
  5
   4C6
  8
0
  6
CONTINUOUS
 62
     2
 10
-915.248118750178
 20
54.8751898208505
 30
0.0
 11
-917.212488844781
 21
52.9108197262472
 31
0.0
  0
LINE
  5
   4C7
  8
0
  6
DASHDOT
 62
     2
 10
-916.35404748208
 20
61.0167483389399
 30
0.0
 11
-916.35404748208
 21
47.0167485773585
 31
0.0
  0
LINE
  5
   4C8
  8
0
  6
DASHDOT
 62
     2
 10
-923.354047362871
 20
54.0167484581492
 30
0.0
 11
-909.354047601289
 21
54.0167484581492
 31
0.0
  0
LINE
  5
   4C9
  8
0
  6
CONTINUOUS
 62
   130
 10
-933.399031194675
 20
56.1167484223864
 30
0.0
 11
-933.399031194675
 21
44.5667403832196
 31
0.0
  0
LINE
  5
   4CA
  8
0
  6
CONTINUOUS
 62
   130
 10
-933.049031200636
 20
56.1167484223864
 30
0.0
 11
-933.049031200636
 21
44.5667403832196
 31
0.0
  0
LINE
  5
   4CB
  8
0
  6
CONTINUOUS
 62
   130
 10
-932.139031216133
 20
56.1167484223864
 30
0.0
 11
-932.139031216133
 21
44.5667403832196
 31
0.0
  0
LINE
  5
   4CC
  8
0
  6
CONTINUOUS
 62
   130
 10
-932.139031216133
 20
56.1167484223864
 30
0.0
 11
-932.139031216133
 21
44.5667403832196
 31
0.0
  0
LINE
  5
   4CD
  8
0
  6
CONTINUOUS
 62
   130
 10
-931.789031222094
 20
56.1167484223864
 30
0.0
 11
-931.789031222094
 21
44.5667403832196
 31
0.0
  0
LINE
  5
   4CE
  8
0
  6
CONTINUOUS
 62
   130
 10
-931.789031222094
 20
56.1167484223864
 30
0.0
 11
-931.789031222094
 21
44.5667403832196
 31
0.0
  0
LINE
  5
   4CF
  8
0
  6
CONTINUOUS
 62
   130
 10
-930.879031237591
 20
56.1167484223864
 30
0.0
 11
-930.879031237591
 21
44.5667403832196
 31
0.0
  0
LINE
  5
   4D0
  8
0
  6
CONTINUOUS
 62
   130
 10
-930.879031237591
 20
56.1167484223864
 30
0.0
 11
-930.879031237591
 21
44.5667403832196
 31
0.0
  0
LINE
  5
   4D1
  8
0
  6
CONTINUOUS
 62
   130
 10
-930.529031243551
 20
56.1167484223864
 30
0.0
 11
-930.529031243551
 21
44.5667403832196
 31
0.0
  0
LINE
  5
   4D2
  8
0
  6
CONTINUOUS
 62
   130
 10
-929.619031259048
 20
56.1167484223864
 30
0.0
 11
-929.619031259048
 21
44.5667403832196
 31
0.0
  0
LINE
  5
   4D3
  8
0
  6
CONTINUOUS
 62
   130
 10
-929.269031265009
 20
56.1167484223864
 30
0.0
 11
-929.269031265009
 21
44.5667403832196
 31
0.0
  0
LINE
  5
   4D4
  8
0
  6
CONTINUOUS
 62
   130
 10
-928.359031280506
 20
56.1167484223864
 30
0.0
 11
-928.359031280506
 21
44.5667403832196
 31
0.0
  0
LINE
  5
   4D5
  8
0
  6
CONTINUOUS
 62
   130
 10
-928.009031286467
 20
56.1167484223864
 30
0.0
 11
-928.009031286467
 21
44.5667403832196
 31
0.0
  0
LINE
  5
   4D6
  8
0
  6
CONTINUOUS
 62
   130
 10
-927.099031301964
 20
56.1167484223864
 30
0.0
 11
-927.099031301964
 21
44.5667403832196
 31
0.0
  0
LINE
  5
   4D7
  8
0
  6
CONTINUOUS
 62
   130
 10
-926.749031307924
 20
56.1167484223864
 30
0.0
 11
-926.749031307924
 21
44.5667403832196
 31
0.0
  0
LINE
  5
   4D8
  8
0
  6
CONTINUOUS
 62
   130
 10
-925.839031323421
 20
56.1167484223864
 30
0.0
 11
-925.839031323421
 21
44.5667403832196
 31
0.0
  0
LINE
  5
   4D9
  8
0
  6
CONTINUOUS
 62
   130
 10
-925.489031329382
 20
56.1167484223864
 30
0.0
 11
-925.489031329382
 21
44.5667403832196
 31
0.0
  0
LINE
  5
   4DA
  8
0
  6
CONTINUOUS
 62
   130
 10
-924.579031344879
 20
56.1167484223864
 30
0.0
 11
-924.579031344879
 21
44.5667403832196
 31
0.0
  0
LINE
  5
   4DB
  8
0
  6
CONTINUOUS
 62
   130
 10
-924.22903135084
 20
56.1167484223864
 30
0.0
 11
-924.22903135084
 21
44.5667403832196
 31
0.0
  0
LINE
  5
   4DC
  8
0
  6
CONTINUOUS
 62
   130
 10
-923.319031366337
 20
56.1167484223864
 30
0.0
 11
-923.319031366337
 21
44.5667403832196
 31
0.0
  0
LINE
  5
   4DD
  8
0
  6
CONTINUOUS
 62
   130
 10
-922.969031372297
 20
56.1167484223864
 30
0.0
 11
-922.969031372297
 21
44.5667403832196
 31
0.0
  0
LINE
  5
   4DE
  8
0
  6
CONTINUOUS
 62
   130
 10
-922.059031387795
 20
56.1167484223864
 30
0.0
 11
-922.059031387795
 21
44.5667403832196
 31
0.0
  0
LINE
  5
   4DF
  8
0
  6
CONTINUOUS
 62
   130
 10
-921.709031393755
 20
56.1167484223864
 30
0.0
 11
-921.709031393755
 21
44.5667403832196
 31
0.0
  0
LINE
  5
   4E0
  8
0
  6
CONTINUOUS
 62
   130
 10
-920.799031409252
 20
56.1167484223864
 30
0.0
 11
-920.799031409252
 21
44.5667403832196
 31
0.0
  0
LINE
  5
   4E1
  8
0
  6
CONTINUOUS
 62
   130
 10
-920.449031415213
 20
56.1167484223864
 30
0.0
 11
-920.449031415213
 21
44.5667403832196
 31
0.0
  0
LINE
  5
   4E2
  8
0
  6
CONTINUOUS
 62
   130
 10
-919.53903143071
 20
56.1167484223864
 30
0.0
 11
-919.53903143071
 21
44.5667403832196
 31
0.0
  0
LINE
  5
   4E3
  8
0
  6
CONTINUOUS
 62
   130
 10
-919.18903143667
 20
56.1167484223864
 30
0.0
 11
-919.18903143667
 21
44.5667403832196
 31
0.0
  0
LINE
  5
   4E4
  8
0
  6
CONTINUOUS
 62
   130
 10
-918.279031452168
 20
56.1167484223864
 30
0.0
 11
-918.279031452168
 21
44.5667403832196
 31
0.0
  0
LINE
  5
   4E5
  8
0
  6
CONTINUOUS
 62
   130
 10
-917.929031458128
 20
56.1167484223864
 30
0.0
 11
-917.929031458128
 21
44.5667403832196
 31
0.0
  0
LINE
  5
   4E6
  8
0
  6
CONTINUOUS
 62
   130
 10
-917.019031473625
 20
56.1167484223864
 30
0.0
 11
-917.019031473625
 21
44.5667403832196
 31
0.0
  0
LINE
  5
   4E7
  8
0
  6
CONTINUOUS
 62
   130
 10
-916.669031479586
 20
56.1167484223864
 30
0.0
 11
-916.669031479586
 21
44.5667403832196
 31
0.0
  0
LINE
  5
   4E8
  8
0
  6
CONTINUOUS
 62
   130
 10
-915.759031495083
 20
56.1167484223864
 30
0.0
 11
-915.759031495083
 21
44.5667403832196
 31
0.0
  0
LINE
  5
   4E9
  8
0
  6
CONTINUOUS
 62
   130
 10
-915.409031501043
 20
56.1167484223864
 30
0.0
 11
-915.409031501043
 21
44.5667403832196
 31
0.0
  0
LINE
  5
   4EA
  8
0
  6
CONTINUOUS
 62
   130
 10
-914.499031516541
 20
56.1167484223864
 30
0.0
 11
-914.499031516541
 21
44.5667403832196
 31
0.0
  0
LINE
  5
   4EB
  8
0
  6
CONTINUOUS
 62
   130
 10
-914.149031522501
 20
56.1167484223864
 30
0.0
 11
-914.149031522501
 21
44.5667403832196
 31
0.0
  0
LINE
  5
   4EC
  8
0
  6
CONTINUOUS
 62
   130
 10
-913.239031537998
 20
56.1167484223864
 30
0.0
 11
-913.239031537998
 21
44.5667403832196
 31
0.0
  0
LINE
  5
   4ED
  8
0
  6
CONTINUOUS
 62
   130
 10
-912.889031543959
 20
56.1167484223864
 30
0.0
 11
-912.889031543959
 21
44.5667403832196
 31
0.0
  0
LINE
  5
   4EE
  8
0
  6
CONTINUOUS
 62
   130
 10
-911.979031559456
 20
56.1167484223864
 30
0.0
 11
-911.979031559456
 21
44.5667403832196
 31
0.0
  0
LINE
  5
   4EF
  8
0
  6
CONTINUOUS
 62
   130
 10
-911.629031565416
 20
56.1167484223864
 30
0.0
 11
-911.629031565416
 21
44.5667403832196
 31
0.0
  0
LINE
  5
   4F0
  8
0
  6
CONTINUOUS
 62
   130
 10
-910.719031580913
 20
56.1167484223864
 30
0.0
 11
-910.719031580913
 21
44.5667403832196
 31
0.0
  0
LINE
  5
   4F1
  8
0
  6
CONTINUOUS
 62
   130
 10
-910.369031586874
 20
56.1167484223864
 30
0.0
 11
-910.369031586874
 21
44.5667403832196
 31
0.0
  0
LINE
  5
   4F2
  8
0
  6
CONTINUOUS
 62
   130
 10
-909.459031602371
 20
56.1167484223864
 30
0.0
 11
-909.459031602371
 21
44.5667403832196
 31
0.0
  0
LINE
  5
   4F3
  8
0
  6
CONTINUOUS
 62
   130
 10
-909.109031608332
 20
56.1167484223864
 30
0.0
 11
-909.109031608332
 21
44.5667403832196
 31
0.0
  0
LINE
  5
   4F4
  8
0
  6
CONTINUOUS
 62
   130
 10
-908.199031623829
 20
56.1167484223864
 30
0.0
 11
-908.199031623829
 21
44.5667403832196
 31
0.0
  0
LINE
  5
   4F5
  8
0
  6
CONTINUOUS
 62
   130
 10
-907.849031629789
 20
56.1167484223864
 30
0.0
 11
-907.849031629789
 21
44.5667403832196
 31
0.0
  0
LINE
  5
   4F6
  8
0
  6
CONTINUOUS
 62
   130
 10
-934.309031179178
 20
56.1167484223864
 30
0.0
 11
-934.309031179178
 21
44.5667403832196
 31
0.0
  0
LINE
  5
   4F7
  8
0
  6
CONTINUOUS
 62
   130
 10
-934.659031173218
 20
56.1167484223864
 30
0.0
 11
-934.659031173218
 21
44.5667403832196
 31
0.0
  0
LINE
  5
   4F8
  8
0
  6
CONTINUOUS
 62
   130
 10
-935.569031157721
 20
56.1167484223864
 30
0.0
 11
-935.569031157721
 21
44.5667403832196
 31
0.0
  0
LINE
  5
   4F9
  8
0
  6
CONTINUOUS
 62
   130
 10
-935.569031157721
 20
56.1167484223864
 30
0.0
 11
-935.569031157721
 21
44.5667403832196
 31
0.0
  0
LINE
  5
   4FA
  8
0
  6
CONTINUOUS
 62
   130
 10
-935.91903115176
 20
56.1167484223864
 30
0.0
 11
-935.91903115176
 21
44.5667403832196
 31
0.0
  0
LINE
  5
   4FB
  8
0
  6
CONTINUOUS
 62
   130
 10
-935.91903115176
 20
56.1167484223864
 30
0.0
 11
-935.91903115176
 21
44.5667403832196
 31
0.0
  0
LINE
  5
   4FC
  8
0
  6
CONTINUOUS
 62
   130
 10
-936.829031136263
 20
56.1167484223864
 30
0.0
 11
-936.829031136263
 21
44.5667403832196
 31
0.0
  0
LINE
  5
   4FD
  8
0
  6
CONTINUOUS
 62
   130
 10
-936.829031136263
 20
56.1167484223864
 30
0.0
 11
-936.829031136263
 21
44.5667403832196
 31
0.0
  0
LINE
  5
   4FE
  8
0
  6
CONTINUOUS
 62
   130
 10
-937.179031130302
 20
56.1167484223864
 30
0.0
 11
-937.179031130302
 21
44.5667403832196
 31
0.0
  0
LINE
  5
   4FF
  8
0
  6
CONTINUOUS
 62
   130
 10
-938.089031114805
 20
56.1167484223864
 30
0.0
 11
-938.089031114805
 21
44.5667403832196
 31
0.0
  0
LINE
  5
   500
  8
0
  6
CONTINUOUS
 62
   130
 10
-938.439031108845
 20
56.1167484223864
 30
0.0
 11
-938.439031108845
 21
44.5667403832196
 31
0.0
  0
LINE
  5
   501
  8
0
  6
CONTINUOUS
 62
   130
 10
-939.349031093348
 20
56.1167484223864
 30
0.0
 11
-939.349031093348
 21
44.5667403832196
 31
0.0
  0
LINE
  5
   502
  8
0
  6
CONTINUOUS
 62
   130
 10
-939.699031087387
 20
56.1167484223864
 30
0.0
 11
-939.699031087387
 21
44.5667403832196
 31
0.0
  0
LINE
  5
   503
  8
0
  6
CONTINUOUS
 62
   130
 10
-940.60903107189
 20
56.1167484223864
 30
0.0
 11
-940.60903107189
 21
44.5667403832196
 31
0.0
  0
LINE
  5
   504
  8
0
  6
CONTINUOUS
 62
   130
 10
-940.95903106593
 20
56.1167484223864
 30
0.0
 11
-940.95903106593
 21
44.5667403832196
 31
0.0
  0
LINE
  5
   505
  8
0
  6
CONTINUOUS
 62
   130
 10
-941.869031050432
 20
56.1167484223864
 30
0.0
 11
-941.869031050432
 21
44.5667403832196
 31
0.0
  0
LINE
  5
   506
  8
0
  6
CONTINUOUS
 62
   130
 10
-942.219031044472
 20
56.1167484223864
 30
0.0
 11
-942.219031044472
 21
44.5667403832196
 31
0.0
  0
LINE
  5
   507
  8
0
  6
CONTINUOUS
 62
   130
 10
-943.129031028974
 20
56.1167484223864
 30
0.0
 11
-943.129031028974
 21
44.5667403832196
 31
0.0
  0
LINE
  5
   508
  8
0
  6
CONTINUOUS
 62
   130
 10
-943.479031023014
 20
56.1167484223864
 30
0.0
 11
-943.479031023014
 21
44.5667403832196
 31
0.0
  0
LINE
  5
   509
  8
0
  6
CONTINUOUS
 62
   130
 10
-944.389031007517
 20
56.1167484223864
 30
0.0
 11
-944.389031007517
 21
44.5667403832196
 31
0.0
  0
LINE
  5
   50A
  8
0
  6
CONTINUOUS
 62
   130
 10
-944.739031001556
 20
56.1167484223864
 30
0.0
 11
-944.739031001556
 21
44.5667403832196
 31
0.0
  0
LINE
  5
   50B
  8
0
  6
CONTINUOUS
 62
   130
 10
-945.649030986059
 20
56.1167484223864
 30
0.0
 11
-945.649030986059
 21
44.5667403832196
 31
0.0
  0
LINE
  5
   50C
  8
0
  6
CONTINUOUS
 62
   130
 10
-945.999030980099
 20
56.1167484223864
 30
0.0
 11
-945.999030980099
 21
44.5667403832196
 31
0.0
  0
LINE
  5
   50D
  8
0
  6
CONTINUOUS
 62
   130
 10
-946.909030964602
 20
56.1167484223864
 30
0.0
 11
-946.909030964602
 21
44.5667403832196
 31
0.0
  0
LINE
  5
   50E
  8
0
  6
CONTINUOUS
 62
   130
 10
-947.259030958641
 20
56.1167484223864
 30
0.0
 11
-947.259030958641
 21
44.5667403832196
 31
0.0
  0
LINE
  5
   50F
  8
0
  6
CONTINUOUS
 62
   130
 10
-948.169030943144
 20
56.1167484223864
 30
0.0
 11
-948.169030943144
 21
44.5667403832196
 31
0.0
  0
LINE
  5
   510
  8
0
  6
CONTINUOUS
 62
   130
 10
-948.519030937183
 20
56.1167484223864
 30
0.0
 11
-948.519030937183
 21
44.5667403832196
 31
0.0
  0
LINE
  5
   511
  8
0
  6
CONTINUOUS
 62
   130
 10
-949.429030921686
 20
56.1167484223864
 30
0.0
 11
-949.429030921686
 21
44.5667403832196
 31
0.0
  0
LINE
  5
   512
  8
0
  6
CONTINUOUS
 62
   130
 10
-949.779030915726
 20
56.1167484223864
 30
0.0
 11
-949.779030915726
 21
44.5667403832196
 31
0.0
  0
LINE
  5
   513
  8
0
  6
CONTINUOUS
 62
   130
 10
-950.689030900229
 20
56.1167484223864
 30
0.0
 11
-950.689030900229
 21
44.5667403832196
 31
0.0
  0
LINE
  5
   514
  8
0
  6
CONTINUOUS
 62
   130
 10
-951.039030894268
 20
56.1167484223864
 30
0.0
 11
-951.039030894268
 21
44.5667403832196
 31
0.0
  0
LINE
  5
   515
  8
0
  6
CONTINUOUS
 62
   130
 10
-951.949030878771
 20
56.1167484223864
 30
0.0
 11
-951.949030878771
 21
44.5667403832196
 31
0.0
  0
LINE
  5
   516
  8
0
  6
CONTINUOUS
 62
   130
 10
-952.29903087281
 20
56.1167484223864
 30
0.0
 11
-952.29903087281
 21
44.5667403832196
 31
0.0
  0
LINE
  5
   517
  8
0
  6
CONTINUOUS
 62
   130
 10
-953.209030857313
 20
56.1167484223864
 30
0.0
 11
-953.209030857313
 21
44.5667403832196
 31
0.0
  0
LINE
  5
   518
  8
0
  6
CONTINUOUS
 62
   130
 10
-953.559030851353
 20
56.1167484223864
 30
0.0
 11
-953.559030851353
 21
44.5667403832196
 31
0.0
  0
LINE
  5
   519
  8
0
  6
CONTINUOUS
 62
   130
 10
-954.469030835855
 20
56.1167484223864
 30
0.0
 11
-954.469030835855
 21
44.5667403832196
 31
0.0
  0
LINE
  5
   51A
  8
0
  6
CONTINUOUS
 62
   130
 10
-954.819030829895
 20
56.1167484223864
 30
0.0
 11
-954.819030829895
 21
44.5667403832196
 31
0.0
  0
LINE
  5
   51B
  8
0
  6
CONTINUOUS
 62
   130
 10
-955.729030814398
 20
56.1167484223864
 30
0.0
 11
-955.729030814398
 21
44.5667403832196
 31
0.0
  0
LINE
  5
   51C
  8
0
  6
CONTINUOUS
 62
   130
 10
-956.079030808437
 20
56.1167484223864
 30
0.0
 11
-956.079030808437
 21
44.5667403832196
 31
0.0
  0
LINE
  5
   51D
  8
0
  6
CONTINUOUS
 62
   130
 10
-956.98903079294
 20
56.1167484223864
 30
0.0
 11
-956.98903079294
 21
44.5667403832196
 31
0.0
  0
LINE
  5
   51E
  8
0
  6
CONTINUOUS
 62
   130
 10
-957.33903078698
 20
56.1167484223864
 30
0.0
 11
-957.33903078698
 21
44.5667403832196
 31
0.0
  0
LINE
  5
   51F
  8
0
  6
CONTINUOUS
 62
   130
 10
-958.249030771482
 20
56.1167484223864
 30
0.0
 11
-958.249030771482
 21
44.5667403832196
 31
0.0
  0
LINE
  5
   520
  8
0
  6
CONTINUOUS
 62
   130
 10
-958.599030765522
 20
56.1167484223864
 30
0.0
 11
-958.599030765522
 21
44.5667403832196
 31
0.0
  0
LINE
  5
   521
  8
0
  6
CONTINUOUS
 62
   130
 10
-959.509030750025
 20
56.1167484223864
 30
0.0
 11
-959.509030750025
 21
44.5667403832196
 31
0.0
  0
LINE
  5
   522
  8
0
  6
CONTINUOUS
 62
   130
 10
-959.859030744064
 20
56.1167484223864
 30
0.0
 11
-959.859030744064
 21
44.5667403832196
 31
0.0
  0
LINE
  5
   523
  8
0
  6
CONTINUOUS
 62
   130
 10
-934.309031392801
 20
-29.2831800282013
 30
0.0
 11
-934.309031392801
 21
-30.6832113802461
 31
0.0
  0
LINE
  5
   524
  8
0
  6
CONTINUOUS
 62
   130
 10
-934.659031386841
 20
-29.2831800282013
 30
0.0
 11
-934.659031386841
 21
-30.6832113802461
 31
0.0
  0
LINE
  5
   525
  8
0
  6
CONTINUOUS
 62
   130
 10
-935.569031371344
 20
-29.2831800282013
 30
0.0
 11
-935.569031371344
 21
-30.6832113802461
 31
0.0
  0
LINE
  5
   526
  8
0
  6
CONTINUOUS
 62
   130
 10
-935.569031371344
 20
-29.2831800282013
 30
0.0
 11
-935.569031371344
 21
-30.6832113802461
 31
0.0
  0
LINE
  5
   527
  8
0
  6
CONTINUOUS
 62
   130
 10
-935.919031365383
 20
-29.2831800282013
 30
0.0
 11
-935.919031365383
 21
-30.6832113802461
 31
0.0
  0
LINE
  5
   528
  8
0
  6
CONTINUOUS
 62
   130
 10
-935.919031365383
 20
-29.2831800282013
 30
0.0
 11
-935.919031365383
 21
-30.6832113802461
 31
0.0
  0
LINE
  5
   529
  8
0
  6
CONTINUOUS
 62
   130
 10
-936.829031349886
 20
-29.2831800282013
 30
0.0
 11
-936.829031349886
 21
-30.6832113802461
 31
0.0
  0
LINE
  5
   52A
  8
0
  6
CONTINUOUS
 62
   130
 10
-936.829031349886
 20
-29.2831800282013
 30
0.0
 11
-936.829031349886
 21
-30.6832113802461
 31
0.0
  0
LINE
  5
   52B
  8
0
  6
CONTINUOUS
 62
   130
 10
-937.179031343925
 20
-29.2831800282013
 30
0.0
 11
-937.179031343925
 21
-30.6832113802461
 31
0.0
  0
LINE
  5
   52C
  8
0
  6
CONTINUOUS
 62
   130
 10
-938.089031328428
 20
-29.2831800282013
 30
0.0
 11
-938.089031328428
 21
-30.6832113802461
 31
0.0
  0
LINE
  5
   52D
  8
0
  6
CONTINUOUS
 62
   130
 10
-938.439031322468
 20
-29.2831800282013
 30
0.0
 11
-938.439031322468
 21
-30.6832113802461
 31
0.0
  0
LINE
  5
   52E
  8
0
  6
CONTINUOUS
 62
   130
 10
-939.349031306971
 20
-29.2831800282013
 30
0.0
 11
-939.349031306971
 21
-30.6832113802461
 31
0.0
  0
LINE
  5
   52F
  8
0
  6
CONTINUOUS
 62
   130
 10
-939.69903130101
 20
-29.2831800282013
 30
0.0
 11
-939.69903130101
 21
-30.6832113802461
 31
0.0
  0
LINE
  5
   530
  8
0
  6
CONTINUOUS
 62
   130
 10
-940.609031285513
 20
-29.2831800282013
 30
0.0
 11
-940.609031285513
 21
-30.6832113802461
 31
0.0
  0
LINE
  5
   531
  8
0
  6
CONTINUOUS
 62
   130
 10
-940.959031279552
 20
-29.2831800282013
 30
0.0
 11
-940.959031279552
 21
-30.6832113802461
 31
0.0
  0
LINE
  5
   532
  8
0
  6
CONTINUOUS
 62
   130
 10
-941.869031264055
 20
-29.2831800282013
 30
0.0
 11
-941.869031264055
 21
-30.6832113802461
 31
0.0
  0
LINE
  5
   533
  8
0
  6
CONTINUOUS
 62
   130
 10
-942.219031258095
 20
-29.2831800282013
 30
0.0
 11
-942.219031258095
 21
-30.6832113802461
 31
0.0
  0
LINE
  5
   534
  8
0
  6
CONTINUOUS
 62
   130
 10
-943.129031242598
 20
-29.2831800282013
 30
0.0
 11
-943.129031242598
 21
-30.6832113802461
 31
0.0
  0
LINE
  5
   535
  8
0
  6
CONTINUOUS
 62
   130
 10
-943.479031236637
 20
-29.2831800282013
 30
0.0
 11
-943.479031236637
 21
-30.6832113802461
 31
0.0
  0
LINE
  5
   536
  8
0
  6
CONTINUOUS
 62
   130
 10
-944.38903122114
 20
-29.2831800282013
 30
0.0
 11
-944.38903122114
 21
-30.6832113802461
 31
0.0
  0
LINE
  5
   537
  8
0
  6
CONTINUOUS
 62
   130
 10
-944.739031215179
 20
-29.2831800282013
 30
0.0
 11
-944.739031215179
 21
-30.6832113802461
 31
0.0
  0
LINE
  5
   538
  8
0
  6
CONTINUOUS
 62
   130
 10
-945.649031199682
 20
-29.2831800282013
 30
0.0
 11
-945.649031199682
 21
-30.6832113802461
 31
0.0
  0
LINE
  5
   539
  8
0
  6
CONTINUOUS
 62
   130
 10
-945.999031193722
 20
-29.2831800282013
 30
0.0
 11
-945.999031193722
 21
-30.6832113802461
 31
0.0
  0
LINE
  5
   53A
  8
0
  6
CONTINUOUS
 62
   130
 10
-946.909031178224
 20
-29.2831800282013
 30
0.0
 11
-946.909031178224
 21
-30.6832113802461
 31
0.0
  0
LINE
  5
   53B
  8
0
  6
CONTINUOUS
 62
   130
 10
-947.259031172264
 20
-29.2831800282013
 30
0.0
 11
-947.259031172264
 21
-30.6832113802461
 31
0.0
  0
LINE
  5
   53C
  8
0
  6
CONTINUOUS
 62
   130
 10
-948.169031156767
 20
-29.2831800282013
 30
0.0
 11
-948.169031156767
 21
-30.6832113802461
 31
0.0
  0
LINE
  5
   53D
  8
0
  6
CONTINUOUS
 62
   130
 10
-948.519031150806
 20
-29.2831800282013
 30
0.0
 11
-948.519031150806
 21
-30.6832113802461
 31
0.0
  0
LINE
  5
   53E
  8
0
  6
CONTINUOUS
 62
   130
 10
-949.429031135309
 20
-29.2831800282013
 30
0.0
 11
-949.429031135309
 21
-30.6832113802461
 31
0.0
  0
LINE
  5
   53F
  8
0
  6
CONTINUOUS
 62
   130
 10
-949.779031129349
 20
-29.2831800282013
 30
0.0
 11
-949.779031129349
 21
-30.6832113802461
 31
0.0
  0
LINE
  5
   540
  8
0
  6
CONTINUOUS
 62
   130
 10
-950.689031113851
 20
-29.2831800282013
 30
0.0
 11
-950.689031113851
 21
-30.6832113802461
 31
0.0
  0
LINE
  5
   541
  8
0
  6
CONTINUOUS
 62
   130
 10
-951.039031107891
 20
-29.2831800282013
 30
0.0
 11
-951.039031107891
 21
-30.6832113802461
 31
0.0
  0
LINE
  5
   542
  8
0
  6
CONTINUOUS
 62
   130
 10
-951.949031092394
 20
-29.2831800282013
 30
0.0
 11
-951.949031092394
 21
-30.6832113802461
 31
0.0
  0
LINE
  5
   543
  8
0
  6
CONTINUOUS
 62
   130
 10
-952.299031086433
 20
-29.2831800282013
 30
0.0
 11
-952.299031086433
 21
-30.6832113802461
 31
0.0
  0
LINE
  5
   544
  8
0
  6
CONTINUOUS
 62
   130
 10
-953.209031070936
 20
-29.2831800282013
 30
0.0
 11
-953.209031070936
 21
-30.6832113802461
 31
0.0
  0
LINE
  5
   545
  8
0
  6
CONTINUOUS
 62
   130
 10
-953.559031064976
 20
-29.2831800282013
 30
0.0
 11
-953.559031064976
 21
-30.6832113802461
 31
0.0
  0
LINE
  5
   546
  8
0
  6
CONTINUOUS
 62
   130
 10
-954.469031049478
 20
-29.2831800282013
 30
0.0
 11
-954.469031049478
 21
-30.6832113802461
 31
0.0
  0
LINE
  5
   547
  8
0
  6
CONTINUOUS
 62
   130
 10
-954.819031043518
 20
-29.2831800282013
 30
0.0
 11
-954.819031043518
 21
-30.6832113802461
 31
0.0
  0
LINE
  5
   548
  8
0
  6
CONTINUOUS
 62
   130
 10
-955.729031028021
 20
-29.2831800282013
 30
0.0
 11
-955.729031028021
 21
-30.6832113802461
 31
0.0
  0
LINE
  5
   549
  8
0
  6
CONTINUOUS
 62
   130
 10
-956.07903102206
 20
-29.2831800282013
 30
0.0
 11
-956.07903102206
 21
-30.6832113802461
 31
0.0
  0
LINE
  5
   54A
  8
0
  6
CONTINUOUS
 62
   130
 10
-956.989031006563
 20
-29.2831800282013
 30
0.0
 11
-956.989031006563
 21
-30.6832113802461
 31
0.0
  0
LINE
  5
   54B
  8
0
  6
CONTINUOUS
 62
   130
 10
-957.339031000603
 20
-29.2831800282013
 30
0.0
 11
-957.339031000603
 21
-30.6832113802461
 31
0.0
  0
LINE
  5
   54C
  8
0
  6
CONTINUOUS
 62
   130
 10
-958.249030985105
 20
-29.2831800282013
 30
0.0
 11
-958.249030985105
 21
-30.6832113802461
 31
0.0
  0
LINE
  5
   54D
  8
0
  6
CONTINUOUS
 62
   130
 10
-958.599030979145
 20
-29.2831800282013
 30
0.0
 11
-958.599030979145
 21
-30.6832113802461
 31
0.0
  0
LINE
  5
   54E
  8
0
  6
CONTINUOUS
 62
   130
 10
-959.509030963648
 20
-29.2831800282013
 30
0.0
 11
-959.509030963648
 21
-30.6832113802461
 31
0.0
  0
LINE
  5
   54F
  8
0
  6
CONTINUOUS
 62
   130
 10
-959.859030957687
 20
-29.2831800282013
 30
0.0
 11
-959.859030957687
 21
-30.6832113802461
 31
0.0
  0
LINE
  5
   550
  8
0
  6
CONTINUOUS
 62
   130
 10
-933.399031408299
 20
-29.2831800282013
 30
0.0
 11
-933.399031408299
 21
-30.6832113802461
 31
0.0
  0
LINE
  5
   551
  8
0
  6
CONTINUOUS
 62
   130
 10
-933.049031414259
 20
-29.2831800282013
 30
0.0
 11
-933.049031414259
 21
-30.6832113802461
 31
0.0
  0
LINE
  5
   552
  8
0
  6
CONTINUOUS
 62
   130
 10
-932.139031429756
 20
-29.2831800282013
 30
0.0
 11
-932.139031429756
 21
-30.6832113802461
 31
0.0
  0
LINE
  5
   553
  8
0
  6
CONTINUOUS
 62
   130
 10
-932.139031429756
 20
-29.2831800282013
 30
0.0
 11
-932.139031429756
 21
-30.6832113802461
 31
0.0
  0
LINE
  5
   554
  8
0
  6
CONTINUOUS
 62
   130
 10
-931.789031435717
 20
-29.2831800282013
 30
0.0
 11
-931.789031435717
 21
-30.6832113802461
 31
0.0
  0
LINE
  5
   555
  8
0
  6
CONTINUOUS
 62
   130
 10
-931.789031435717
 20
-29.2831800282013
 30
0.0
 11
-931.789031435717
 21
-30.6832113802461
 31
0.0
  0
LINE
  5
   556
  8
0
  6
CONTINUOUS
 62
   130
 10
-930.879031451214
 20
-29.2831800282013
 30
0.0
 11
-930.879031451214
 21
-30.6832113802461
 31
0.0
  0
LINE
  5
   557
  8
0
  6
CONTINUOUS
 62
   130
 10
-930.879031451214
 20
-29.2831800282013
 30
0.0
 11
-930.879031451214
 21
-30.6832113802461
 31
0.0
  0
LINE
  5
   558
  8
0
  6
CONTINUOUS
 62
   130
 10
-930.529031457174
 20
-29.2831800282013
 30
0.0
 11
-930.529031457174
 21
-30.6832113802461
 31
0.0
  0
LINE
  5
   559
  8
0
  6
CONTINUOUS
 62
   130
 10
-929.619031472672
 20
-29.2831800282013
 30
0.0
 11
-929.619031472672
 21
-30.6832113802461
 31
0.0
  0
LINE
  5
   55A
  8
0
  6
CONTINUOUS
 62
   130
 10
-929.269031478632
 20
-29.2831800282013
 30
0.0
 11
-929.269031478632
 21
-30.6832113802461
 31
0.0
  0
LINE
  5
   55B
  8
0
  6
CONTINUOUS
 62
   130
 10
-928.359031494129
 20
-29.2831800282013
 30
0.0
 11
-928.359031494129
 21
-30.6832113802461
 31
0.0
  0
LINE
  5
   55C
  8
0
  6
CONTINUOUS
 62
   130
 10
-928.00903150009
 20
-29.2831800282013
 30
0.0
 11
-928.00903150009
 21
-30.6832113802461
 31
0.0
  0
LINE
  5
   55D
  8
0
  6
CONTINUOUS
 62
   130
 10
-927.099031515587
 20
-29.2831800282013
 30
0.0
 11
-927.099031515587
 21
-30.6832113802461
 31
0.0
  0
LINE
  5
   55E
  8
0
  6
CONTINUOUS
 62
   130
 10
-926.749031521547
 20
-29.2831800282013
 30
0.0
 11
-926.749031521547
 21
-30.6832113802461
 31
0.0
  0
LINE
  5
   55F
  8
0
  6
CONTINUOUS
 62
   130
 10
-925.839031537045
 20
-29.2831800282013
 30
0.0
 11
-925.839031537045
 21
-30.6832113802461
 31
0.0
  0
LINE
  5
   560
  8
0
  6
CONTINUOUS
 62
   130
 10
-925.489031543005
 20
-29.2831800282013
 30
0.0
 11
-925.489031543005
 21
-30.6832113802461
 31
0.0
  0
LINE
  5
   561
  8
0
  6
CONTINUOUS
 62
   130
 10
-924.579031558502
 20
-29.2831800282013
 30
0.0
 11
-924.579031558502
 21
-30.6832113802461
 31
0.0
  0
LINE
  5
   562
  8
0
  6
CONTINUOUS
 62
   130
 10
-924.229031564463
 20
-29.2831800282013
 30
0.0
 11
-924.229031564463
 21
-30.6832113802461
 31
0.0
  0
LINE
  5
   563
  8
0
  6
CONTINUOUS
 62
   130
 10
-923.31903157996
 20
-29.2831800282013
 30
0.0
 11
-923.31903157996
 21
-30.6832113802461
 31
0.0
  0
LINE
  5
   564
  8
0
  6
CONTINUOUS
 62
   130
 10
-922.96903158592
 20
-29.2831800282013
 30
0.0
 11
-922.96903158592
 21
-30.6832113802461
 31
0.0
  0
LINE
  5
   565
  8
0
  6
CONTINUOUS
 62
   130
 10
-922.059031601418
 20
-29.2831800282013
 30
0.0
 11
-922.059031601418
 21
-30.6832113802461
 31
0.0
  0
LINE
  5
   566
  8
0
  6
CONTINUOUS
 62
   130
 10
-921.709031607378
 20
-29.2831800282013
 30
0.0
 11
-921.709031607378
 21
-30.6832113802461
 31
0.0
  0
LINE
  5
   567
  8
0
  6
CONTINUOUS
 62
   130
 10
-920.799031622875
 20
-29.2831800282013
 30
0.0
 11
-920.799031622875
 21
-30.6832113802461
 31
0.0
  0
LINE
  5
   568
  8
0
  6
CONTINUOUS
 62
   130
 10
-920.449031628836
 20
-29.2831800282013
 30
0.0
 11
-920.449031628836
 21
-30.6832113802461
 31
0.0
  0
LINE
  5
   569
  8
0
  6
CONTINUOUS
 62
   130
 10
-919.539031644333
 20
-29.2831800282013
 30
0.0
 11
-919.539031644333
 21
-30.6832113802461
 31
0.0
  0
LINE
  5
   56A
  8
0
  6
CONTINUOUS
 62
   130
 10
-919.189031650293
 20
-29.2831800282013
 30
0.0
 11
-919.189031650293
 21
-30.6832113802461
 31
0.0
  0
LINE
  5
   56B
  8
0
  6
CONTINUOUS
 62
   130
 10
-918.279031665791
 20
-29.2831800282013
 30
0.0
 11
-918.279031665791
 21
-30.6832113802461
 31
0.0
  0
LINE
  5
   56C
  8
0
  6
CONTINUOUS
 62
   130
 10
-917.929031671751
 20
-29.2831800282013
 30
0.0
 11
-917.929031671751
 21
-30.6832113802461
 31
0.0
  0
LINE
  5
   56D
  8
0
  6
CONTINUOUS
 62
   130
 10
-917.019031687248
 20
-29.2831800282013
 30
0.0
 11
-917.019031687248
 21
-30.6832113802461
 31
0.0
  0
LINE
  5
   56E
  8
0
  6
CONTINUOUS
 62
   130
 10
-916.669031693209
 20
-29.2831800282013
 30
0.0
 11
-916.669031693209
 21
-30.6832113802461
 31
0.0
  0
LINE
  5
   56F
  8
0
  6
CONTINUOUS
 62
   130
 10
-915.759031708706
 20
-29.2831800282013
 30
0.0
 11
-915.759031708706
 21
-30.6832113802461
 31
0.0
  0
LINE
  5
   570
  8
0
  6
CONTINUOUS
 62
   130
 10
-915.409031714666
 20
-29.2831800282013
 30
0.0
 11
-915.409031714666
 21
-30.6832113802461
 31
0.0
  0
LINE
  5
   571
  8
0
  6
CONTINUOUS
 62
   130
 10
-914.499031730164
 20
-29.2831800282013
 30
0.0
 11
-914.499031730164
 21
-30.6832113802461
 31
0.0
  0
LINE
  5
   572
  8
0
  6
CONTINUOUS
 62
   130
 10
-914.149031736124
 20
-29.2831800282013
 30
0.0
 11
-914.149031736124
 21
-30.6832113802461
 31
0.0
  0
LINE
  5
   573
  8
0
  6
CONTINUOUS
 62
   130
 10
-913.239031751621
 20
-29.2831800282013
 30
0.0
 11
-913.239031751621
 21
-30.6832113802461
 31
0.0
  0
LINE
  5
   574
  8
0
  6
CONTINUOUS
 62
   130
 10
-912.889031757582
 20
-29.2831800282013
 30
0.0
 11
-912.889031757582
 21
-30.6832113802461
 31
0.0
  0
LINE
  5
   575
  8
0
  6
CONTINUOUS
 62
   130
 10
-911.979031773079
 20
-29.2831800282013
 30
0.0
 11
-911.979031773079
 21
-30.6832113802461
 31
0.0
  0
LINE
  5
   576
  8
0
  6
CONTINUOUS
 62
   130
 10
-911.629031779039
 20
-29.2831800282013
 30
0.0
 11
-911.629031779039
 21
-30.6832113802461
 31
0.0
  0
LINE
  5
   577
  8
0
  6
CONTINUOUS
 62
   130
 10
-910.719031794537
 20
-29.2831800282013
 30
0.0
 11
-910.719031794537
 21
-30.6832113802461
 31
0.0
  0
LINE
  5
   578
  8
0
  6
CONTINUOUS
 62
   130
 10
-910.369031800497
 20
-29.2831800282013
 30
0.0
 11
-910.369031800497
 21
-30.6832113802461
 31
0.0
  0
LINE
  5
   579
  8
0
  6
CONTINUOUS
 62
   130
 10
-909.459031815994
 20
-29.2831800282013
 30
0.0
 11
-909.459031815994
 21
-30.6832113802461
 31
0.0
  0
LINE
  5
   57A
  8
0
  6
CONTINUOUS
 62
   130
 10
-909.109031821955
 20
-29.2831800282013
 30
0.0
 11
-909.109031821955
 21
-30.6832113802461
 31
0.0
  0
LINE
  5
   57B
  8
0
  6
CONTINUOUS
 62
   130
 10
-908.199031837452
 20
-29.2831800282013
 30
0.0
 11
-908.199031837452
 21
-30.6832113802461
 31
0.0
  0
LINE
  5
   57C
  8
0
  6
CONTINUOUS
 62
   130
 10
-907.849031843412
 20
-29.2831800282013
 30
0.0
 11
-907.849031843412
 21
-30.6832113802461
 31
0.0
  0
LINE
  5
   57D
  8
0
  6
CONTINUOUS
 62
     2
 10
-917.3014647443
 20
-29.2831800282013
 30
0.0
 11
-917.459976213982
 21
-29.4416914978826
 31
0.0
  0
LINE
  5
   57E
  8
0
  6
CONTINUOUS
 62
     2
 10
-916.806490005899
 20
-29.2831800282013
 30
0.0
 11
-917.212488844781
 21
-29.6891788670832
 31
0.0
  0
ARC
  5
   57F
  8
0
  6
CONTINUOUS
 62
     2
 10
-916.35404748208
 20
-28.5832501351812
 30
0.0
 40
1.39999997615814
 50
569.996687433776
 51
690.00331225443
  0
LINE
  5
   580
  8
0
  6
DASHDOT
 62
     2
 10
-951.354046886033
 20
61.0167483389399
 30
0.0
 11
-951.354046886033
 21
47.0167485773585
 31
0.0
  0
LINE
  5
   581
  8
0
  6
DASHDOT
 62
     2
 10
-958.354046766824
 20
54.0167484581492
 30
0.0
 11
-944.354047005243
 21
54.0167484581492
 31
0.0
  0
LINE
  5
   582
  8
0
  6
CONTINUOUS
 62
     2
 10
-950.495605523332
 20
55.1226771900511
 30
0.0
 11
-952.459975617935
 21
53.1583070954478
 31
0.0
  0
LINE
  5
   583
  8
0
  6
CONTINUOUS
 62
     2
 10
-950.248118154131
 20
54.8751898208505
 30
0.0
 11
-952.212488248735
 21
52.9108197262472
 31
0.0
  0
CIRCLE
  5
   584
  8
0
  6
CONTINUOUS
 62
     2
 10
-951.354046886033
 20
54.0167484581492
 30
0.0
 40
1.39999997615814
  0
LINE
  5
   585
  8
0
  6
CONTINUOUS
 62
     2
 10
-952.301464148254
 20
-29.2831800282013
 30
0.0
 11
-952.459975617935
 21
-29.4416914978826
 31
0.0
  0
LINE
  5
   586
  8
0
  6
CONTINUOUS
 62
     2
 10
-951.806489409853
 20
-29.2831800282013
 30
0.0
 11
-952.212488248735
 21
-29.6891788670832
 31
0.0
  0
ARC
  5
   587
  8
0
  6
CONTINUOUS
 62
     2
 10
-951.354046886033
 20
-28.5832501351812
 30
0.0
 40
1.39999997615814
 50
569.996687433776
 51
690.00331225443
  0
LINE
  5
   588
  8
0
  6
CONTINUOUS
 62
     7
 10
-902.004126686896
 20
37.0418188422906
 30
0.0
 11
-902.004126686896
 21
-28.4081800431025
 31
0.0
  0
LINE
  5
   589
  8
0
  6
CONTINUOUS
 62
     7
 10
-964.829125616992
 20
-29.2831800282013
 30
0.0
 11
-902.879126671994
 21
-29.2831800282013
 31
0.0
  0
LINE
  5
   58A
  8
0
  6
CONTINUOUS
 62
     7
 10
-965.704125602091
 20
37.0418188422906
 30
0.0
 11
-965.704125602091
 21
-28.4081800431025
 31
0.0
  0
LINE
  5
   58B
  8
0
  6
CONTINUOUS
 62
     7
 10
-964.829125616992
 20
37.9168188273895
 30
0.0
 11
-902.879126671994
 21
37.9168188273895
 31
0.0
  0
LINE
  5
   58C
  8
0
  6
CONTINUOUS
 62
     7
 10
-962.204125661696
 20
-12.4831803143036
 30
0.0
 11
-905.504126627291
 21
-12.4831803143036
 31
0.0
  0
LINE
  5
   58D
  8
0
  6
CONTINUOUS
 62
     7
 10
-962.204125661696
 20
21.1168191134918
 30
0.0
 11
-905.504126627291
 21
21.1168191134918
 31
0.0
  0
LINE
  5
   58E
  8
0
  6
CONTINUOUS
 62
     7
 10
-962.554125655735
 20
37.9168188273895
 30
0.0
 11
-962.554125655735
 21
-29.2831800282013
 31
0.0
  0
LINE
  5
   58F
  8
0
  6
CONTINUOUS
 62
     7
 10
-961.854125667656
 20
28.466818988322
 30
0.0
 11
-961.854125667656
 21
21.1168191134918
 31
0.0
  0
LINE
  5
   590
  8
0
  6
CONTINUOUS
 62
     7
 10
-961.854125667656
 20
-12.4831803143036
 30
0.0
 11
-961.854125667656
 21
-19.8331801891339
 31
0.0
  0
LINE
  5
   591
  8
0
  6
CONTINUOUS
 62
     7
 10
-961.854125667656
 20
-20.533180177213
 30
0.0
 11
-961.854125667656
 21
-29.2831800282013
 31
0.0
  0
LINE
  5
   592
  8
0
  6
CONTINUOUS
 62
     7
 10
-905.154126633251
 20
37.9168188273895
 30
0.0
 11
-905.154126633251
 21
-29.2831800282013
 31
0.0
  0
LINE
  5
   593
  8
0
  6
CONTINUOUS
 62
     7
 10
-905.85412662133
 20
-12.4831803143036
 30
0.0
 11
-905.85412662133
 21
-19.8331801891339
 31
0.0
  0
LINE
  5
   594
  8
0
  6
CONTINUOUS
 62
     7
 10
-905.85412662133
 20
-20.533180177213
 30
0.0
 11
-905.85412662133
 21
-29.2831800282013
 31
0.0
  0
LINE
  5
   595
  8
0
  6
CONTINUOUS
 62
     7
 10
-905.85412662133
 20
28.466818988322
 30
0.0
 11
-905.85412662133
 21
21.1168191134918
 31
0.0
  0
LINE
  5
   596
  8
0
  6
CONTINUOUS
 62
     7
 10
-962.554125655735
 20
29.1668189764011
 30
0.0
 11
-905.154126633251
 21
29.1668189764011
 31
0.0
  0
LINE
  5
   597
  8
0
  6
CONTINUOUS
 62
     7
 10
-961.854125667656
 20
28.466818988322
 30
0.0
 11
-905.85412662133
 21
28.466818988322
 31
0.0
  0
LINE
  5
   598
  8
0
  6
CONTINUOUS
 62
     7
 10
-961.854125667656
 20
-20.533180177213
 30
0.0
 11
-905.85412662133
 21
-20.533180177213
 31
0.0
  0
LINE
  5
   599
  8
0
  6
CONTINUOUS
 62
     7
 10
-961.854125667656
 20
-19.8331801891339
 30
0.0
 11
-905.85412662133
 21
-19.8331801891339
 31
0.0
  0
LINE
  5
   59A
  8
0
  6
CONTINUOUS
 62
     7
 10
-962.554125655735
 20
34.0668188929546
 30
0.0
 11
-962.344123523081
 21
34.0668188929546
 31
0.0
  0
LINE
  5
   59B
  8
0
  6
CONTINUOUS
 62
     7
 10
-962.554125655735
 20
33.016818910836
 30
0.0
 11
-962.344123523081
 21
33.016818910836
 31
0.0
  0
LINE
  5
   59C
  8
0
  6
CONTINUOUS
 62
     7
 10
-905.364126763189
 20
34.0668188929546
 30
0.0
 11
-905.154126633251
 21
34.0668188929546
 31
0.0
  0
LINE
  5
   59D
  8
0
  6
CONTINUOUS
 62
     7
 10
-905.364126763189
 20
33.016818910836
 30
0.0
 11
-905.154126633251
 21
33.016818910836
 31
0.0
  0
ARC
  5
   59E
  8
0
  6
CONTINUOUS
 62
     7
 10
-962.344151482954
 20
33.5418014593275
 30
0.0
 40
0.525030405667436
 50
270.002994716444
 51
449.997011754257
  0
ARC
  5
   59F
  8
0
  6
CONTINUOUS
 62
     7
 10
-905.364116359007
 20
33.5418150448041
 30
0.0
 40
0.525010449191336
 50
450.001135501493
 51
629.998857587167
  0
ARC
  5
   5A0
  8
0
  6
CONTINUOUS
 62
     7
 10
-902.879126671994
 20
37.0418188422906
 30
0.0
 40
0.874999985098839
 50
359.999999844103
 51
449.999999844103
  0
ARC
  5
   5A1
  8
0
  6
CONTINUOUS
 62
     7
 10
-964.829125616992
 20
37.0418188422906
 30
0.0
 40
0.874999985098839
 50
449.999999844103
 51
539.999999844103
  0
ARC
  5
   5A2
  8
0
  6
CONTINUOUS
 62
     7
 10
-964.829125616992
 20
-28.4081800431025
 30
0.0
 40
0.874999985098839
 50
539.999999844103
 51
629.999999844103
  0
ARC
  5
   5A3
  8
0
  6
CONTINUOUS
 62
     7
 10
-902.879126671994
 20
-28.4081800431025
 30
0.0
 40
0.874999985098839
 50
269.999999844103
 51
359.999999844103
  0
LINE
  5
   5A4
  8
0
  6
CONTINUOUS
 62
     7
 10
-905.504126627291
 20
21.1168191134918
 30
0.0
 11
-905.504126627291
 21
-12.4831803143036
 31
0.0
  0
LINE
  5
   5A5
  8
0
  6
CONTINUOUS
 62
     7
 10
-962.204125661696
 20
21.1168191134918
 30
0.0
 11
-962.204125661696
 21
-12.4831803143036
 31
0.0
  0
LINE
  5
   5A6
  8
0
  6
CONTINUOUS
 62
     7
 10
-961.154038281047
 20
55.4167483274958
 30
0.0
 11
-961.15403561077
 21
37.9168188273895
 31
0.0
  0
LINE
  5
   5A7
  8
0
  6
CONTINUOUS
 62
     7
 10
-961.154028080552
 20
-11.433229064937
 30
0.0
 11
-933.854049907772
 21
-11.433229064937
 31
0.0
  0
LINE
  5
   5A8
  8
0
  6
CONTINUOUS
 62
     7
 10
-961.154032887069
 20
20.0667703986129
 30
0.0
 11
-933.854054714289
 21
20.0667703986129
 31
0.0
  0
LINE
  5
   5A9
  8
0
  6
CONTINUOUS
 62
     7
 10
-939.104062412403
 20
14.2119729071702
 30
0.0
 11
-929.202950699245
 21
14.2119729071702
 31
0.0
  0
LINE
  5
   5AA
  8
0
  6
CONTINUOUS
 62
     7
 10
-939.104062462177
 20
15.5167704760989
 30
0.0
 11
-939.104061743553
 21
-3.32152475932718
 31
0.0
  0
LINE
  5
   5AB
  8
0
  6
CONTINUOUS
 62
     7
 10
-939.104061743553
 20
-3.32152475932718
 30
0.0
 11
-938.404061755474
 21
-3.32152475932718
 31
0.0
  0
LINE
  5
   5AC
  8
0
  6
CONTINUOUS
 62
     7
 10
-939.104061753599
 20
-3.05818232417618
 30
0.0
 11
-938.40406176552
 21
-3.05818232417618
 31
0.0
  0
LINE
  5
   5AD
  8
0
  6
CONTINUOUS
 62
     7
 10
-961.154032032577
 20
14.4667704939803
 30
0.0
 11
-939.104062422123
 21
14.4667704939803
 31
0.0
  0
LINE
  5
   5AE
  8
0
  6
CONTINUOUS
 62
     7
 10
-961.154028774826
 20
-6.88322914242302
 30
0.0
 11
-951.774050136652
 21
-6.88322914242302
 31
0.0
  0
LINE
  5
   5AF
  8
0
  6
CONTINUOUS
 62
     7
 10
-961.154028935044
 20
-5.83322916030442
 30
0.0
 11
-938.40406165966
 21
-5.83322916030442
 31
0.0
  0
LINE
  5
   5B0
  8
0
  6
CONTINUOUS
 62
     7
 10
-944.774050255861
 20
-6.88322914242302
 30
0.0
 11
-906.554075313175
 21
-6.88322914242302
 31
0.0
  0
LINE
  5
   5B1
  8
0
  6
CONTINUOUS
 62
     7
 10
-938.404061894121
 20
0.313011713917632
 30
0.0
 11
-938.404061669469
 21
-5.57609602318131
 31
0.0
  0
LINE
  5
   5B2
  8
0
  6
CONTINUOUS
 62
     7
 10
-960.454057999692
 20
44.5667403832196
 30
0.0
 11
-960.454057839475
 21
43.516740401101
 31
0.0
  0
LINE
  5
   5B3
  8
0
  6
CONTINUOUS
 62
     7
 10
-961.154036625467
 20
44.5667403832196
 30
0.0
 11
-933.854072901075
 21
44.5667403832196
 31
0.0
  0
LINE
  5
   5B4
  8
0
  6
CONTINUOUS
 62
     7
 10
-961.15403646525
 20
43.516740401101
 30
0.0
 11
-933.854052044
 21
43.516740401101
 31
0.0
  0
LINE
  5
   5B5
  8
0
  6
CONTINUOUS
 62
     7
 10
-906.554065806955
 20
55.4167483274958
 30
0.0
 11
-906.554068477232
 21
37.9168188273895
 31
0.0
  0
LINE
  5
   5B6
  8
0
  6
CONTINUOUS
 62
     7
 10
-929.304041663677
 20
14.2119729071702
 30
0.0
 11
-928.604041675598
 21
14.2119729071702
 31
0.0
  0
LINE
  5
   5B7
  8
0
  6
CONTINUOUS
 62
     7
 10
-928.604041625824
 20
15.5167704760989
 30
0.0
 11
-928.604042344449
 21
-3.32152475932718
 31
0.0
  0
LINE
  5
   5B8
  8
0
  6
CONTINUOUS
 62
     7
 10
-929.304042332528
 20
-3.32152475932718
 30
0.0
 11
-928.604042344449
 21
-3.32152475932718
 31
0.0
  0
LINE
  5
   5B9
  8
0
  6
CONTINUOUS
 62
     7
 10
-929.304042322482
 20
-3.05818232417618
 30
0.0
 11
-928.604042334403
 21
-3.05818232417618
 31
0.0
  0
LINE
  5
   5BA
  8
0
  6
CONTINUOUS
 62
     7
 10
-961.154032192795
 20
15.5167704760989
 30
0.0
 11
-906.554071895207
 21
15.5167704760989
 31
0.0
  0
LINE
  5
   5BB
  8
0
  6
CONTINUOUS
 62
     7
 10
-928.604041665879
 20
14.4667704939803
 30
0.0
 11
-906.554072055424
 21
14.4667704939803
 31
0.0
  0
LINE
  5
   5BC
  8
0
  6
CONTINUOUS
 62
     7
 10
-929.304042193881
 20
0.313011713917632
 30
0.0
 11
-929.304042418533
 21
-5.57609602318131
 31
0.0
  0
LINE
  5
   5BD
  8
0
  6
CONTINUOUS
 62
     7
 10
-907.25404608831
 20
44.5667403832196
 30
0.0
 11
-907.254046248527
 21
43.516740401101
 31
0.0
  0
LINE
  5
   5BE
  8
0
  6
CONTINUOUS
 62
     7
 10
-933.854031186927
 20
44.5667403832196
 30
0.0
 11
-906.554067462534
 21
44.5667403832196
 31
0.0
  0
LINE
  5
   5BF
  8
0
  6
CONTINUOUS
 62
     7
 10
-933.854052044001
 20
43.516740401101
 30
0.0
 11
-906.554067622752
 21
43.516740401101
 31
0.0
  0
LINE
  5
   5C0
  8
0
  6
DASHDOT
 62
     7
 10
-933.854031186927
 20
58.0573402485265
 30
0.0
 11
-933.854031186927
 21
-32.9360001643255
 31
0.0
  0
LINE
  5
   5C1
  8
0
  6
DASHDOT
 62
     7
 10
-951.354072603052
 20
57.6567542574262
 30
0.0
 11
-951.354072603052
 21
39.4567545673704
 31
0.0
  0
LINE
  5
   5C2
  8
0
  6
DASHDOT
 62
     7
 10
-916.35403148495
 20
57.6567542574262
 30
0.0
 11
-916.35403148495
 21
39.4567545673704
 31
0.0
  0
LINE
  5
   5C3
  8
0
  6
CONTINUOUS
 62
     7
 10
-938.404061894121
 20
0.313011713917632
 30
0.0
 11
-929.304042193881
 21
0.313011713917632
 31
0.0
  0
LINE
  5
   5C4
  8
0
  6
CONTINUOUS
 62
     7
 10
-938.054061739976
 20
-3.53404553030401
 30
0.0
 11
-929.654042348026
 21
-3.53404553030401
 31
0.0
  0
LINE
  5
   5C5
  8
0
  6
CONTINUOUS
 62
     7
 10
-938.054061675429
 20
-5.9260960038694
 30
0.0
 11
-929.654042412572
 21
-5.9260960038694
 31
0.0
  0
LINE
  5
   5C6
  8
0
  6
CONTINUOUS
 62
     7
 10
-929.304042428342
 20
-5.83322916030442
 30
0.0
 11
-906.554075152958
 21
-5.83322916030442
 31
0.0
  0
ARC
  5
   5C7
  8
0
  6
CONTINUOUS
 62
     7
 10
-938.054061675429
 20
-5.57609600982986
 30
0.0
 40
0.349999994039536
 50
540.000002029765
 51
629.999999844103
  0
ARC
  5
   5C8
  8
0
  6
CONTINUOUS
 62
     7
 10
-929.654042412572
 20
-5.57609600982986
 30
0.0
 40
0.349999994039536
 50
269.999999844103
 51
359.999997658442
  0
ARC
  5
   5C9
  8
0
  6
CONTINUOUS
 62
     7
 10
-929.654042348026
 20
-3.88404552434355
 30
0.0
 40
0.349999994039536
 50
359.999997658442
 51
449.999999844103
  0
ARC
  5
   5CA
  8
0
  6
CONTINUOUS
 62
     7
 10
-938.054061739976
 20
-3.88404552434355
 30
0.0
 40
0.349999994039536
 50
449.999999844103
 51
540.000002029765
  0
LINE
  5
   5CB
  8
0
  6
CONTINUOUS
 62
     7
 10
-933.85405418023
 20
-11.433229064937
 30
0.0
 11
-906.55407600745
 21
-11.433229064937
 31
0.0
  0
LINE
  5
   5CC
  8
0
  6
CONTINUOUS
 62
     7
 10
-933.854049373712
 20
20.0667703986129
 30
0.0
 11
-906.554071200932
 21
20.0667703986129
 31
0.0
  0
LINE
  5
   5CD
  8
0
  6
DASHDOT
 62
     7
 10
-975.550823430162
 20
4.3167706668338
 30
0.0
 11
-896.755907627328
 21
4.3167706668338
 31
0.0
  0
LINE
  5
   5CE
  8
0
  6
CONTINUOUS
 62
     7
 10
-943.492146972638
 20
12.9660733083615
 30
0.0
 11
-942.967146981579
 21
12.9660733083615
 31
0.0
  0
LINE
  5
   5CF
  8
0
  6
CONTINUOUS
 62
     7
 10
-943.492146972638
 20
9.81607336200571
 30
0.0
 11
-942.967146981579
 21
9.81607336200571
 31
0.0
  0
CIRCLE
  5
   5D0
  8
0
  6
CONTINUOUS
 62
     7
 10
-943.229646977108
 20
-0.333926465140812
 30
0.0
 40
1.57499997317791
  0
CIRCLE
  5
   5D1
  8
0
  6
CONTINUOUS
 62
     7
 10
-943.229646977108
 20
-0.333926465140812
 30
0.0
 40
1.04999998211861
  0
LINE
  5
   5D2
  8
0
  6
CONTINUOUS
 62
     7
 10
-943.492146972638
 20
12.9660733083615
 30
0.0
 11
-943.492146972638
 21
9.81607336200571
 31
0.0
  0
LINE
  5
   5D3
  8
0
  6
CONTINUOUS
 62
     7
 10
-942.967146981579
 20
12.9660733083615
 30
0.0
 11
-942.967146981579
 21
9.81607336200571
 31
0.0
  0
LINE
  5
   5D4
  8
0
  6
CONTINUOUS
 62
     7
 10
-923.507150730949
 20
1.0135735119114
 30
0.0
 11
-923.349650733631
 21
1.0135735119114
 31
0.0
  0
LINE
  5
   5D5
  8
0
  6
CONTINUOUS
 62
     7
 10
-923.962150723201
 20
-1.68142644219303
 30
0.0
 11
-923.682150727969
 21
-1.68142644219303
 31
0.0
  0
LINE
  5
   5D6
  8
0
  6
CONTINUOUS
 62
     7
 10
-924.382150716048
 20
-0.596426460670448
 30
0.0
 11
-924.382150716048
 21
-0.771426457690214
 31
0.0
  0
ARC
  5
   5D7
  8
0
  6
CONTINUOUS
 62
     7
 10
-925.292150700551
 20
-0.596426460670467
 30
0.0
 40
0.909999984502793
 50
359.999999844103
 51
539.999999844103
  0
ARC
  5
   5D8
  8
0
  6
CONTINUOUS
 62
     7
 10
-925.292150700551
 20
-0.771426457690232
 30
0.0
 40
0.909999984502792
 50
539.999999844103
 51
719.999999844103
  0
ARC
  5
   5D9
  8
0
  6
CONTINUOUS
 62
     7
 10
-925.292150700551
 20
-0.596426460670467
 30
0.0
 40
0.629999989271164
 50
359.999999844103
 51
539.999999844103
  0
ARC
  5
   5DA
  8
0
  6
CONTINUOUS
 62
     7
 10
-925.292150700551
 20
-0.771426457690232
 30
0.0
 40
0.629999989271163
 50
539.999999844103
 51
719.999999844103
  0
LINE
  5
   5DB
  8
0
  6
CONTINUOUS
 62
     7
 10
-924.66215071128
 20
-0.596426460670449
 30
0.0
 11
-924.66215071128
 21
-0.771426457690215
 31
0.0
  0
LINE
  5
   5DC
  8
0
  6
CONTINUOUS
 62
     7
 10
-924.294650717538
 20
0.173573526216528
 30
0.0
 11
-924.294650717538
 21
-0.106426469015096
 31
0.0
  0
LINE
  5
   5DD
  8
0
  6
CONTINUOUS
 62
     7
 10
-924.294650717538
 20
-0.106426469015115
 30
0.0
 11
-923.962150723201
 21
-0.106426469015115
 31
0.0
  0
LINE
  5
   5DE
  8
0
  6
CONTINUOUS
 62
     7
 10
-923.349650733631
 20
0.173573526216528
 30
0.0
 11
-923.349650733631
 21
-0.106426469015096
 31
0.0
  0
LINE
  5
   5DF
  8
0
  6
CONTINUOUS
 62
     7
 10
-924.294650717538
 20
0.17357352621651
 30
0.0
 11
-923.962150723201
 21
0.17357352621651
 31
0.0
  0
LINE
  5
   5E0
  8
0
  6
CONTINUOUS
 62
     7
 10
-923.962150723201
 20
-0.106426469015096
 30
0.0
 11
-923.962150723201
 21
-1.68142644219301
 31
0.0
  0
LINE
  5
   5E1
  8
0
  6
CONTINUOUS
 62
     7
 10
-923.682150727969
 20
-0.106426469015098
 30
0.0
 11
-923.682150727969
 21
-1.68142644219301
 31
0.0
  0
LINE
  5
   5E2
  8
0
  6
CONTINUOUS
 62
     7
 10
-923.682150727969
 20
-0.106426469015115
 30
0.0
 11
-923.349650733631
 21
-0.106426469015115
 31
0.0
  0
LINE
  5
   5E3
  8
0
  6
CONTINUOUS
 62
     7
 10
-923.682150727969
 20
0.17357352621651
 30
0.0
 11
-923.349650733631
 21
0.17357352621651
 31
0.0
  0
LINE
  5
   5E4
  8
0
  6
CONTINUOUS
 62
     7
 10
-923.962150723201
 20
0.55857351966002
 30
0.0
 11
-923.962150723201
 21
0.173573526216528
 31
0.0
  0
LINE
  5
   5E5
  8
0
  6
CONTINUOUS
 62
     7
 10
-923.682150727969
 20
0.558573519660019
 30
0.0
 11
-923.682150727969
 21
0.173573526216527
 31
0.0
  0
ARC
  5
   5E6
  8
0
  6
CONTINUOUS
 62
     7
 10
-923.507150730949
 20
0.558573519659998
 30
0.0
 40
0.454999992251396
 50
449.999999844103
 51
539.999999844103
  0
ARC
  5
   5E7
  8
0
  6
CONTINUOUS
 62
     7
 10
-923.507150730949
 20
0.558573519659998
 30
0.0
 40
0.174999997019768
 50
449.999999844103
 51
539.999999844103
  0
LINE
  5
   5E8
  8
0
  6
CONTINUOUS
 62
     7
 10
-923.349650733631
 20
1.01357351191142
 30
0.0
 11
-923.349650733631
 21
0.733573516679787
 31
0.0
  0
LINE
  5
   5E9
  8
0
  6
CONTINUOUS
 62
     7
 10
-923.507150730949
 20
0.733573516679768
 30
0.0
 11
-923.349650733631
 21
0.733573516679768
 31
0.0
  0
LINE
  5
   5EA
  8
0
  6
CONTINUOUS
 62
     7
 10
-922.842150742274
 20
-1.68142644219303
 30
0.0
 11
-922.562150747043
 21
-1.68142644219303
 31
0.0
  0
LINE
  5
   5EB
  8
0
  6
CONTINUOUS
 62
     7
 10
-923.174650736612
 20
0.173573526216527
 30
0.0
 11
-923.174650736612
 21
-0.106426469015098
 31
0.0
  0
LINE
  5
   5EC
  8
0
  6
CONTINUOUS
 62
     7
 10
-923.174650736612
 20
-0.106426469015115
 30
0.0
 11
-922.842150742274
 21
-0.106426469015115
 31
0.0
  0
LINE
  5
   5ED
  8
0
  6
CONTINUOUS
 62
     7
 10
-922.229650752705
 20
0.173573526216527
 30
0.0
 11
-922.229650752705
 21
-0.106426469015098
 31
0.0
  0
LINE
  5
   5EE
  8
0
  6
CONTINUOUS
 62
     7
 10
-923.174650736612
 20
0.17357352621651
 30
0.0
 11
-922.842150742274
 21
0.17357352621651
 31
0.0
  0
LINE
  5
   5EF
  8
0
  6
CONTINUOUS
 62
     7
 10
-922.842150742274
 20
-0.106426469015096
 30
0.0
 11
-922.842150742274
 21
-1.68142644219301
 31
0.0
  0
LINE
  5
   5F0
  8
0
  6
CONTINUOUS
 62
     7
 10
-922.562150747043
 20
-0.106426469015096
 30
0.0
 11
-922.562150747043
 21
-1.68142644219301
 31
0.0
  0
LINE
  5
   5F1
  8
0
  6
CONTINUOUS
 62
     7
 10
-922.562150747043
 20
-0.106426469015115
 30
0.0
 11
-922.229650752705
 21
-0.106426469015115
 31
0.0
  0
LINE
  5
   5F2
  8
0
  6
CONTINUOUS
 62
     7
 10
-922.562150747043
 20
0.17357352621651
 30
0.0
 11
-922.229650752705
 21
0.17357352621651
 31
0.0
  0
LINE
  5
   5F3
  8
0
  6
CONTINUOUS
 62
     7
 10
-922.842150742274
 20
0.55857351966002
 30
0.0
 11
-922.842150742274
 21
0.173573526216528
 31
0.0
  0
LINE
  5
   5F4
  8
0
  6
CONTINUOUS
 62
     7
 10
-922.562150747043
 20
0.55857351966002
 30
0.0
 11
-922.562150747043
 21
0.173573526216528
 31
0.0
  0
ARC
  5
   5F5
  8
0
  6
CONTINUOUS
 62
     7
 10
-922.387150750023
 20
0.558573519659995
 30
0.0
 40
0.454999992251396
 50
449.999999844103
 51
539.999999844103
  0
ARC
  5
   5F6
  8
0
  6
CONTINUOUS
 62
     7
 10
-922.387150750023
 20
0.558573519659995
 30
0.0
 40
0.174999997019768
 50
449.999999844103
 51
539.999999844103
  0
LINE
  5
   5F7
  8
0
  6
CONTINUOUS
 62
     7
 10
-922.229650752705
 20
1.01357351191142
 30
0.0
 11
-922.229650752705
 21
0.733573516679786
 31
0.0
  0
LINE
  5
   5F8
  8
0
  6
CONTINUOUS
 62
     7
 10
-924.102150720816
 20
10.3935733521709
 30
0.0
 11
-923.822150725585
 21
10.3935733521709
 31
0.0
  0
ARC
  5
   5F9
  8
0
  6
CONTINUOUS
 62
     7
 10
-925.292150700551
 20
11.4785733336935
 30
0.0
 40
0.909999984502793
 50
359.999999844103
 51
539.999999844103
  0
ARC
  5
   5FA
  8
0
  6
CONTINUOUS
 62
     7
 10
-925.292150700551
 20
11.4785733336935
 30
0.0
 40
0.629999989271164
 50
359.999999844103
 51
539.999999844103
  0
ARC
  5
   5FB
  8
0
  6
CONTINUOUS
 62
     7
 10
-925.292150700551
 20
11.3035733366737
 30
0.0
 40
0.909999984502792
 50
539.999999844103
 51
719.999999844103
  0
ARC
  5
   5FC
  8
0
  6
CONTINUOUS
 62
     7
 10
-925.292150700551
 20
11.3035733366737
 30
0.0
 40
0.629999989271163
 50
539.999999844103
 51
719.999999844103
  0
LINE
  5
   5FD
  8
0
  6
CONTINUOUS
 62
     7
 10
-924.102150720816
 20
12.3885733181963
 30
0.0
 11
-924.102150720816
 21
10.393573352171
 31
0.0
  0
LINE
  5
   5FE
  8
0
  6
CONTINUOUS
 62
     7
 10
-923.822150725585
 20
11.6185733313093
 30
0.0
 11
-923.822150725585
 21
10.393573352171
 31
0.0
  0
LINE
  5
   5FF
  8
0
  6
CONTINUOUS
 62
     7
 10
-922.842150742274
 20
11.6185733313093
 30
0.0
 11
-922.842150742274
 21
10.393573352171
 31
0.0
  0
LINE
  5
   600
  8
0
  6
CONTINUOUS
 62
     7
 10
-922.562150747043
 20
11.6885733301172
 30
0.0
 11
-922.562150747043
 21
10.393573352171
 31
0.0
  0
LINE
  5
   601
  8
0
  6
CONTINUOUS
 62
     7
 10
-924.102150720816
 20
12.3885733181963
 30
0.0
 11
-923.822150725585
 21
12.3885733181963
 31
0.0
  0
ARC
  5
   602
  8
0
  6
CONTINUOUS
 62
     7
 10
-923.332150733929
 20
11.6185733313093
 30
0.0
 40
0.489999991655349
 50
359.999999844103
 51
539.999999844103
  0
LINE
  5
   603
  8
0
  6
CONTINUOUS
 62
     7
 10
-923.822150725585
 20
12.3885733181963
 30
0.0
 11
-923.822150725585
 21
12.1085733229647
 31
0.0
  0
ARC
  5
   604
  8
0
  6
CONTINUOUS
 62
     7
 10
-923.262150735121
 20
11.6885733301172
 30
0.0
 40
0.699999988079071
 50
359.999999844103
 51
503.130102198259
  0
LINE
  5
   605
  8
0
  6
CONTINUOUS
 62
     7
 10
-922.842150742274
 20
10.3935733521709
 30
0.0
 11
-922.562150747042
 21
10.3935733521709
 31
0.0
  0
LINE
  5
   606
  8
0
  6
CONTINUOUS
 62
     7
 10
-923.774323370531
 20
19.1281469056226
 30
0.0
 11
-923.938145553573
 21
19.0992610678002
 31
0.0
  0
LINE
  5
   607
  8
0
  6
CONTINUOUS
 62
     7
 10
-923.938135435151
 20
19.0992665667187
 30
0.0
 11
-924.082197462918
 21
19.016093447914
 31
0.0
  0
LINE
  5
   608
  8
0
  6
CONTINUOUS
 62
     7
 10
-924.08220338891
 20
19.0160873747552
 30
0.0
 11
-924.189127074584
 21
18.8886588790839
 31
0.0
  0
LINE
  5
   609
  8
0
  6
CONTINUOUS
 62
     7
 10
-924.189125079043
 20
18.8886596592066
 30
0.0
 11
-924.246018232913
 21
18.7323453398992
 31
0.0
  0
LINE
  5
   60A
  8
0
  6
CONTINUOUS
 62
     7
 10
-924.246023319167
 20
18.7323456242848
 30
0.0
 11
-924.246023319167
 21
18.5659993632321
 31
0.0
  0
LINE
  5
   60B
  8
0
  6
CONTINUOUS
 62
     7
 10
-924.246018696508
 20
18.5660010581563
 30
0.0
 11
-924.189125542638
 21
18.4096867388488
 31
0.0
  0
LINE
  5
   60C
  8
0
  6
CONTINUOUS
 62
     7
 10
-924.18912803458
 20
18.4096860716415
 30
0.0
 11
-924.082204348906
 21
18.2822575759702
 31
0.0
  0
LINE
  5
   60D
  8
0
  6
CONTINUOUS
 62
     7
 10
-924.082195128086
 20
18.2822543556993
 30
0.0
 11
-923.938133100319
 21
18.1990812368946
 31
0.0
  0
LINE
  5
   60E
  8
0
  6
CONTINUOUS
 62
     7
 10
-923.938144414906
 20
18.1990832862248
 30
0.0
 11
-923.774322231863
 21
18.1701974484024
 31
0.0
  0
LINE
  5
   60F
  8
0
  6
CONTINUOUS
 62
     7
 10
-923.774322277395
 20
18.1701975873646
 30
0.0
 11
-923.613725814065
 21
18.1701975873646
 31
0.0
  0
LINE
  5
   610
  8
0
  6
CONTINUOUS
 62
     7
 10
-923.613717269274
 20
18.170200993793
 30
0.0
 11
-923.552444850377
 21
18.1502913298032
 31
0.0
  0
LINE
  5
   611
  8
0
  6
CONTINUOUS
 62
     7
 10
-923.552445526048
 20
18.1502911692602
 30
0.0
 11
-923.514575507519
 21
18.0981674871073
 31
0.0
  0
LINE
  5
   612
  8
0
  6
CONTINUOUS
 62
     7
 10
-923.514583359699
 20
18.098164230971
 30
0.0
 11
-923.514583359699
 21
18.0337358549168
 31
0.0
  0
LINE
  5
   613
  8
0
  6
CONTINUOUS
 62
     7
 10
-923.514578306513
 20
18.03373815191
 30
0.0
 11
-923.552448325041
 21
17.9816144697571
 31
0.0
  0
LINE
  5
   614
  8
0
  6
CONTINUOUS
 62
     7
 10
-923.552446574129
 20
17.9816144712292
 30
0.0
 11
-923.613718993026
 21
17.9617048072395
 31
0.0
  0
LINE
  5
   615
  8
0
  6
CONTINUOUS
 62
     7
 10
-924.196948765559
 20
17.9617024985232
 30
0.0
 11
-923.613725814065
 21
17.9617024985232
 31
0.0
  0
LINE
  5
   616
  8
0
  6
CONTINUOUS
 62
     7
 10
-924.196948765559
 20
17.9617024985232
 30
0.0
 11
-924.196948765559
 21
17.5785228404369
 31
0.0
  0
LINE
  5
   617
  8
0
  6
CONTINUOUS
 62
     7
 10
-924.196948765559
 20
17.5785228404369
 30
0.0
 11
-923.613725814065
 21
17.5785228404369
 31
0.0
  0
LINE
  5
   618
  8
0
  6
CONTINUOUS
 62
     7
 10
-923.447016075641
 20
17.6079188929619
 30
0.0
 11
-923.613722148518
 21
17.5785236975728
 31
0.0
  0
LINE
  5
   619
  8
0
  6
CONTINUOUS
 62
     7
 10
-923.300413357648
 20
17.6925607501531
 30
0.0
 11
-923.447017532389
 21
17.6079196156571
 31
0.0
  0
LINE
  5
   61A
  8
0
  6
CONTINUOUS
 62
     7
 10
-923.191593118833
 20
17.8222388879094
 30
0.0
 11
-923.300407355931
 21
17.692561698543
 31
0.0
  0
LINE
  5
   61B
  8
0
  6
CONTINUOUS
 62
     7
 10
-923.133701234049
 20
17.9813073623341
 30
0.0
 11
-923.19159842162
 21
17.8222346099874
 31
0.0
  0
LINE
  5
   61C
  8
0
  6
CONTINUOUS
 62
     7
 10
-923.13370415476
 20
18.1505909974275
 30
0.0
 11
-923.13370415476
 21
17.9813090884603
 31
0.0
  0
LINE
  5
   61D
  8
0
  6
CONTINUOUS
 62
     7
 10
-923.191598554471
 20
18.3096647379197
 30
0.0
 11
-923.1337013669
 21
18.150591985573
 31
0.0
  0
LINE
  5
   61E
  8
0
  6
CONTINUOUS
 62
     7
 10
-923.30041094797
 20
18.439345379824
 30
0.0
 11
-923.191596703575
 21
18.3096678380164
 31
0.0
  0
LINE
  5
   61F
  8
0
  6
CONTINUOUS
 62
     7
 10
-923.447020571818
 20
18.5239827221174
 30
0.0
 11
-923.300416403631
 21
18.4393419252135
 31
0.0
  0
LINE
  5
   620
  8
0
  6
CONTINUOUS
 62
     7
 10
-923.613717215372
 20
18.55337659609
 30
0.0
 11
-923.447011144897
 21
18.5239810675778
 31
0.0
  0
LINE
  5
   621
  8
0
  6
CONTINUOUS
 62
     7
 10
-923.774322277395
 20
18.5533775792369
 30
0.0
 11
-923.613725814065
 21
18.5533775792369
 31
0.0
  0
LINE
  5
   622
  8
0
  6
CONTINUOUS
 62
     7
 10
-923.830627409212
 20
18.5716743761432
 30
0.0
 11
-923.77431637583
 21
18.5533792321527
 31
0.0
  0
LINE
  5
   623
  8
0
  6
CONTINUOUS
 62
     7
 10
-923.86543044761
 20
18.619569379366
 30
0.0
 11
-923.830631253848
 21
18.5716717535086
 31
0.0
  0
LINE
  5
   624
  8
0
  6
CONTINUOUS
 62
     7
 10
-923.865432505336
 20
18.678774639403
 30
0.0
 11
-923.865432505336
 21
18.6195703481139
 31
0.0
  0
LINE
  5
   625
  8
0
  6
CONTINUOUS
 62
     7
 10
-923.830626085093
 20
18.7266706493418
 30
0.0
 11
-923.865425278855
 21
18.6787730234844
 31
0.0
  0
LINE
  5
   626
  8
0
  6
CONTINUOUS
 62
     7
 10
-923.774314202124
 20
18.7449700256428
 30
0.0
 11
-923.830625235506
 21
18.7266748816523
 31
0.0
  0
LINE
  5
   627
  8
0
  6
CONTINUOUS
 62
     7
 10
-923.774322277395
 20
18.74496740828
 30
0.0
 11
-923.182650534541
 21
18.74496740828
 31
0.0
  0
LINE
  5
   628
  8
0
  6
CONTINUOUS
 62
     7
 10
-923.182650534541
 20
19.1281474001523
 30
0.0
 11
-923.182650534541
 21
18.74496740828
 31
0.0
  0
LINE
  5
   629
  8
0
  6
CONTINUOUS
 62
     7
 10
-923.774322277395
 20
19.1281474001523
 30
0.0
 11
-923.182650534541
 21
19.1281474001523
 31
0.0
  0
LINE
  5
   62A
  8
0
  6
CONTINUOUS
 62
     7
 10
-923.126302116311
 20
17.5785228404369
 30
0.0
 11
-922.72723290924
 21
17.5785228404369
 31
0.0
  0
LINE
  5
   62B
  8
0
  6
CONTINUOUS
 62
     7
 10
-922.637069144855
 20
17.888448591038
 30
0.0
 11
-922.727228747504
 21
17.5785239493041
 31
0.0
  0
LINE
  5
   62C
  8
0
  6
CONTINUOUS
 62
     7
 10
-922.637073303842
 20
17.8884474853512
 30
0.0
 11
-922.20677240785
 21
17.8884474853512
 31
0.0
  0
LINE
  5
   62D
  8
0
  6
CONTINUOUS
 62
     7
 10
-922.20676910778
 20
17.8884483116205
 30
0.0
 11
-922.116609505131
 21
17.5785236698866
 31
0.0
  0
LINE
  5
   62E
  8
0
  6
CONTINUOUS
 62
     7
 10
-922.116612802452
 20
17.5785228404369
 30
0.0
 11
-921.717548935957
 21
17.5785228404369
 31
0.0
  0
LINE
  5
   62F
  8
0
  6
CONTINUOUS
 62
     7
 10
-922.168348497039
 20
19.1281476369804
 30
0.0
 11
-921.717545011212
 21
17.5785226846934
 31
0.0
  0
LINE
  5
   630
  8
0
  6
CONTINUOUS
 62
     7
 10
-922.675498748744
 20
19.1281474001523
 30
0.0
 11
-922.168352303524
 21
19.1281474001523
 31
0.0
  0
LINE
  5
   631
  8
0
  6
CONTINUOUS
 62
     7
 10
-922.675496602092
 20
19.1281414970475
 30
0.0
 11
-923.126300087918
 21
17.5785165447605
 31
0.0
  0
LINE
  5
   632
  8
0
  6
CONTINUOUS
 62
     7
 10
-922.421919788483
 20
18.6280270375146
 30
0.0
 11
-922.31824313221
 21
18.2716275236856
 31
0.0
  0
LINE
  5
   633
  8
0
  6
CONTINUOUS
 62
     7
 10
-922.525604799881
 20
18.2716274772235
 30
0.0
 11
-922.318246252387
 21
18.2716274772235
 31
0.0
  0
LINE
  5
   634
  8
0
  6
CONTINUOUS
 62
     7
 10
-922.421916609983
 20
18.6280273864448
 30
0.0
 11
-922.525598546238
 21
18.2716280687278
 31
0.0
  0
LINE
  5
   635
  8
0
  6
CONTINUOUS
 62
     7
 10
-920.41038968785
 20
18.9163163650608
 30
0.0
 11
-920.27333982929
 21
18.7435330348877
 31
0.0
  0
LINE
  5
   636
  8
0
  6
CONTINUOUS
 62
     7
 10
-920.590557194173
 20
19.0434878049815
 30
0.0
 11
-920.41038753062
 21
18.916313344074
 31
0.0
  0
LINE
  5
   637
  8
0
  6
CONTINUOUS
 62
     7
 10
-920.799264141838
 20
19.1147473110476
 30
0.0
 11
-920.590559770956
 21
19.043485007575
 31
0.0
  0
LINE
  5
   638
  8
0
  6
CONTINUOUS
 62
     7
 10
-921.019589156252
 20
19.1243256040515
 30
0.0
 11
-920.799263684154
 21
19.1147482819339
 31
0.0
  0
LINE
  5
   639
  8
0
  6
CONTINUOUS
 62
     7
 10
-921.019593069595
 20
19.1243260062323
 30
0.0
 11
-921.233696764509
 21
19.0714422895715
 31
0.0
  0
LINE
  5
   63A
  8
0
  6
CONTINUOUS
 62
     7
 10
-921.233693406251
 20
19.0714447659227
 30
0.0
 11
-921.424218446718
 21
18.960384149966
 31
0.0
  0
LINE
  5
   63B
  8
0
  6
CONTINUOUS
 62
     7
 10
-921.424221418744
 20
18.9603807802869
 30
0.0
 11
-921.57574424171
 21
18.8001408019238
 31
0.0
  0
LINE
  5
   63C
  8
0
  6
CONTINUOUS
 62
     7
 10
-921.575740560191
 20
18.8001439487611
 30
0.0
 11
-921.675977821196
 21
18.6037065486941
 31
0.0
  0
LINE
  5
   63D
  8
0
  6
CONTINUOUS
 62
     7
 10
-921.675979566533
 20
18.6037033009531
 30
0.0
 11
-921.716813611233
 21
18.386982384199
 31
0.0
  0
LINE
  5
   63E
  8
0
  6
CONTINUOUS
 62
     7
 10
-921.716813175943
 20
18.3869837057721
 30
0.0
 11
-921.694938186783
 21
18.1675367673832
 31
0.0
  0
LINE
  5
   63F
  8
0
  6
CONTINUOUS
 62
     7
 10
-921.694939886496
 20
18.1675372824625
 30
0.0
 11
-921.612123583382
 21
17.963142765266
 31
0.0
  0
LINE
  5
   640
  8
0
  6
CONTINUOUS
 62
     7
 10
-921.612123175271
 20
17.9631445448575
 30
0.0
 11
-921.488900059487
 21
17.8037567140781
 31
0.0
  0
LINE
  5
   641
  8
0
  6
CONTINUOUS
 62
     7
 10
-921.48889794576
 20
17.8037530609852
 30
0.0
 11
-921.328744751415
 21
17.6815229585903
 31
0.0
  0
LINE
  5
   642
  8
0
  6
CONTINUOUS
 62
     7
 10
-921.328748018018
 20
17.6815247284578
 30
0.0
 11
-921.142495430625
 21
17.6047165647599
 31
0.0
  0
LINE
  5
   643
  8
0
  6
CONTINUOUS
 62
     7
 10
-921.142493441227
 20
17.6047156333349
 30
0.0
 11
-920.942734537607
 21
17.5785227790373
 31
0.0
  0
LINE
  5
   644
  8
0
  6
CONTINUOUS
 62
     7
 10
-920.742972754853
 20
17.6047163818891
 30
0.0
 11
-920.942731658473
 21
17.5785235275915
 31
0.0
  0
LINE
  5
   645
  8
0
  6
CONTINUOUS
 62
     7
 10
-920.556726520709
 20
17.6815239120981
 30
0.0
 11
-920.742979108102
 21
17.6047157484002
 31
0.0
  0
LINE
  5
   646
  8
0
  6
CONTINUOUS
 62
     7
 10
-920.396567958326
 20
17.8037580494299
 30
0.0
 11
-920.556721152671
 21
17.681527947035
 31
0.0
  0
LINE
  5
   647
  8
0
  6
CONTINUOUS
 62
     7
 10
-920.273340828682
 20
17.9631422425119
 30
0.0
 11
-920.396569279857
 21
17.8037544224226
 31
0.0
  0
LINE
  5
   648
  8
0
  6
CONTINUOUS
 62
     7
 10
-920.604386004535
 20
18.1561117552782
 30
0.0
 11
-920.273339751303
 21
17.9631434164695
 31
0.0
  0
LINE
  5
   649
  8
0
  6
CONTINUOUS
 62
     7
 10
-920.604391967065
 20
18.1561079391165
 30
0.0
 11
-920.691833224998
 21
18.0526282609037
 31
0.0
  0
LINE
  5
   64A
  8
0
  6
CONTINUOUS
 62
     7
 10
-920.691831579803
 20
18.0526310873015
 30
0.0
 11
-920.809302914047
 21
17.9851362066771
 31
0.0
  0
LINE
  5
   64B
  8
0
  6
CONTINUOUS
 62
     7
 10
-920.809299702237
 20
17.985135695148
 30
0.0
 11
-920.94273401218
 21
17.961702582944
 31
0.0
  0
LINE
  5
   64C
  8
0
  6
CONTINUOUS
 62
     7
 10
-921.076174966115
 20
17.985135845079
 30
0.0
 11
-920.942740656172
 21
17.961702732875
 31
0.0
  0
LINE
  5
   64D
  8
0
  6
CONTINUOUS
 62
     7
 10
-921.193643792381
 20
18.0526320090902
 30
0.0
 11
-921.076172458137
 21
17.9851371284658
 31
0.0
  0
LINE
  5
   64E
  8
0
  6
CONTINUOUS
 62
     7
 10
-921.281084603429
 20
18.1561123449783
 30
0.0
 11
-921.193643345496
 21
18.0526326667655
 31
0.0
  0
LINE
  5
   64F
  8
0
  6
CONTINUOUS
 62
     7
 10
-921.330800918735
 20
18.3006037794062
 30
0.0
 11
-921.281080155496
 21
18.1561114849465
 31
0.0
  0
LINE
  5
   650
  8
0
  6
CONTINUOUS
 62
     7
 10
-921.321437268508
 20
18.45312132979
 30
0.0
 11
-921.330799299472
 21
18.3006008031135
 31
0.0
  0
LINE
  5
   651
  8
0
  6
CONTINUOUS
 62
     7
 10
-921.254423936152
 20
18.590453017384
 30
0.0
 11
-921.321437488111
 21
18.4531244359267
 31
0.0
  0
LINE
  5
   652
  8
0
  6
CONTINUOUS
 62
     7
 10
-921.139959190022
 20
18.6916830692204
 30
0.0
 11
-921.254429106733
 21
18.5904531019516
 31
0.0
  0
LINE
  5
   653
  8
0
  6
CONTINUOUS
 62
     7
 10
-920.995468814283
 20
18.7414016690528
 30
0.0
 11
-921.139958100145
 21
18.6916822456681
 31
0.0
  0
LINE
  5
   654
  8
0
  6
CONTINUOUS
 62
     7
 10
-920.995471341745
 20
18.7414002393218
 30
0.0
 11
-920.842949782727
 21
18.7320405436405
 31
0.0
  0
LINE
  5
   655
  8
0
  6
CONTINUOUS
 62
     7
 10
-920.842945586657
 20
18.7320392502836
 30
0.0
 11
-920.705617996225
 21
18.6650246905606
 31
0.0
  0
LINE
  5
   656
  8
0
  6
CONTINUOUS
 62
     7
 10
-920.7056161582
 20
18.6650328496215
 30
0.0
 11
-920.604385530861
 21
18.55056627635
 31
0.0
  0
LINE
  5
   657
  8
0
  6
CONTINUOUS
 62
     7
 10
-920.273337274704
 20
18.74353312929
 30
0.0
 11
-920.604383527936
 21
18.5505647904813
 31
0.0
  0
LINE
  5
   658
  8
0
  6
CONTINUOUS
 62
     7
 10
-920.132471295714
 20
19.1281470663663
 30
0.0
 11
-920.132471295714
 21
17.5785228404369
 31
0.0
  0
LINE
  5
   659
  8
0
  6
CONTINUOUS
 62
     7
 10
-920.132471295714
 20
17.5785228404369
 30
0.0
 11
-919.118173064697
 21
17.5785228404369
 31
0.0
  0
LINE
  5
   65A
  8
0
  6
CONTINUOUS
 62
     7
 10
-919.118173064697
 20
17.9617024985232
 30
0.0
 11
-919.118173064697
 21
17.5785228404369
 31
0.0
  0
LINE
  5
   65B
  8
0
  6
CONTINUOUS
 62
     7
 10
-919.749290302484
 20
17.9617024985232
 30
0.0
 11
-919.118173064697
 21
17.9617024985232
 31
0.0
  0
LINE
  5
   65C
  8
0
  6
CONTINUOUS
 62
     7
 10
-919.749290302484
 20
18.1617451243585
 30
0.0
 11
-919.749290302484
 21
17.9617024985232
 31
0.0
  0
LINE
  5
   65D
  8
0
  6
CONTINUOUS
 62
     7
 10
-919.749290302484
 20
18.1617451243585
 30
0.0
 11
-919.202698362329
 21
18.1617451243585
 31
0.0
  0
LINE
  5
   65E
  8
0
  6
CONTINUOUS
 62
     7
 10
-919.202698362329
 20
18.5449251162308
 30
0.0
 11
-919.202698362329
 21
18.1617451243585
 31
0.0
  0
LINE
  5
   65F
  8
0
  6
CONTINUOUS
 62
     7
 10
-919.749290302484
 20
18.5449251162308
 30
0.0
 11
-919.202698362329
 21
18.5449251162308
 31
0.0
  0
LINE
  5
   660
  8
0
  6
CONTINUOUS
 62
     7
 10
-919.749290302484
 20
18.7449673874184
 30
0.0
 11
-919.749290302484
 21
18.5449251162308
 31
0.0
  0
LINE
  5
   661
  8
0
  6
CONTINUOUS
 62
     7
 10
-919.749290302484
 20
18.74496740828
 30
0.0
 11
-919.118173064697
 21
18.74496740828
 31
0.0
  0
LINE
  5
   662
  8
0
  6
CONTINUOUS
 62
     7
 10
-919.118173064697
 20
19.1281474001523
 30
0.0
 11
-919.118173064697
 21
18.74496740828
 31
0.0
  0
LINE
  5
   663
  8
0
  6
CONTINUOUS
 62
     7
 10
-920.132471295714
 20
19.1281474001523
 30
0.0
 11
-919.118173064697
 21
19.1281474001523
 31
0.0
  0
LINE
  5
   664
  8
0
  6
CONTINUOUS
 62
     7
 10
-958.568561217751
 20
19.2714906550563
 30
0.0
 11
-958.886261331243
 21
18.3637638271195
 31
0.0
  0
LINE
  5
   665
  8
0
  6
CONTINUOUS
 62
     7
 10
-958.886266736112
 20
18.3637665070037
 30
0.0
 11
-958.312539328891
 21
18.3637665070037
 31
0.0
  0
LINE
  5
   666
  8
0
  6
CONTINUOUS
 62
     7
 10
-958.56856654621
 20
19.2714935423264
 30
0.0
 11
-958.312539328891
 21
19.2714935423264
 31
0.0
  0
LINE
  5
   667
  8
0
  6
CONTINUOUS
 62
     7
 10
-959.220266364213
 20
17.4094960173497
 30
0.0
 11
-958.754765731272
 21
17.4094960173497
 31
0.0
  0
LINE
  5
   668
  8
0
  6
CONTINUOUS
 62
     7
 10
-958.624419706417
 20
17.7818946884415
 30
0.0
 11
-958.754761801159
 21
17.409494965726
 31
0.0
  0
LINE
  5
   669
  8
0
  6
CONTINUOUS
 62
     7
 10
-958.624423631441
 20
17.7818957226166
 30
0.0
 11
-958.312539328891
 21
17.7818957226166
 31
0.0
  0
LINE
  5
   66A
  8
0
  6
CONTINUOUS
 62
     7
 10
-958.902560833735
 20
18.3172180458823
 30
0.0
 11
-958.312539328891
 21
18.3172180458823
 31
0.0
  0
LINE
  5
   66B
  8
0
  6
CONTINUOUS
 62
     7
 10
-958.902557119044
 20
18.3172161575671
 30
0.0
 11
-959.220262554582
 21
17.409494317787
 31
0.0
  0
LINE
  5
   66C
  8
0
  6
CONTINUOUS
 62
     7
 10
-957.675959411642
 20
18.3172160324619
 30
0.0
 11
-957.358253976104
 21
17.4094941926817
 31
0.0
  0
LINE
  5
   66D
  8
0
  6
CONTINUOUS
 62
     7
 10
-958.265990867769
 20
18.3172180458823
 30
0.0
 11
-957.675969362925
 21
18.3172180458823
 31
0.0
  0
LINE
  5
   66E
  8
0
  6
CONTINUOUS
 62
     7
 10
-958.265990867769
 20
18.3172180458823
 30
0.0
 11
-958.265990867769
 21
17.7818957226166
 31
0.0
  0
LINE
  5
   66F
  8
0
  6
CONTINUOUS
 62
     7
 10
-958.265990867769
 20
17.7818957226166
 30
0.0
 11
-957.954106565219
 21
17.7818957226166
 31
0.0
  0
LINE
  5
   670
  8
0
  6
CONTINUOUS
 62
     7
 10
-957.954098457136
 20
17.7818963105242
 30
0.0
 11
-957.823756362394
 21
17.4094965878087
 31
0.0
  0
LINE
  5
   671
  8
0
  6
CONTINUOUS
 62
     7
 10
-957.823764465388
 20
17.4094960173497
 30
0.0
 11
-957.358263832447
 21
17.4094960173497
 31
0.0
  0
LINE
  5
   672
  8
0
  6
CONTINUOUS
 62
     7
 10
-958.265990867769
 20
19.2714935423264
 30
0.0
 11
-958.00996365045
 21
19.2714935423264
 31
0.0
  0
LINE
  5
   673
  8
0
  6
CONTINUOUS
 62
     7
 10
-958.265990867769
 20
19.2714935423264
 30
0.0
 11
-958.265990867769
 21
18.3637665070037
 31
0.0
  0
LINE
  5
   674
  8
0
  6
CONTINUOUS
 62
     7
 10
-958.265990867769
 20
18.3637665070037
 30
0.0
 11
-957.692258119972
 21
18.3637665070037
 31
0.0
  0
LINE
  5
   675
  8
0
  6
CONTINUOUS
 62
     7
 10
-958.009958304585
 20
19.2714917007147
 30
0.0
 11
-957.692252845324
 21
18.3637647405823
 31
0.0
  0
LINE
  5
   676
  8
0
  6
CONTINUOUS
 62
     7
 10
-957.241887339067
 20
18.3637665070037
 30
0.0
 11
-956.706564014443
 21
18.3637665070037
 31
0.0
  0
LINE
  5
   677
  8
0
  6
CONTINUOUS
 62
     7
 10
-956.706564014443
 20
19.2714935423264
 30
0.0
 11
-956.706564014443
 21
18.3637665070037
 31
0.0
  0
LINE
  5
   678
  8
0
  6
CONTINUOUS
 62
     7
 10
-957.241887339067
 20
19.2714935423264
 30
0.0
 11
-956.706564014443
 21
19.2714935423264
 31
0.0
  0
LINE
  5
   679
  8
0
  6
CONTINUOUS
 62
     7
 10
-957.241887339067
 20
17.4094960173497
 30
0.0
 11
-956.706564014443
 21
17.4094960173497
 31
0.0
  0
LINE
  5
   67A
  8
0
  6
CONTINUOUS
 62
     7
 10
-956.706564014443
 20
18.3172180458823
 30
0.0
 11
-956.706564014443
 21
17.4094960173497
 31
0.0
  0
LINE
  5
   67B
  8
0
  6
CONTINUOUS
 62
     7
 10
-957.241887339067
 20
18.3172180458823
 30
0.0
 11
-956.706564014443
 21
18.3172180458823
 31
0.0
  0
LINE
  5
   67C
  8
0
  6
CONTINUOUS
 62
     7
 10
-955.798842319697
 20
19.2714935423264
 30
0.0
 11
-955.798842319697
 21
18.3637665070037
 31
0.0
  0
LINE
  5
   67D
  8
0
  6
CONTINUOUS
 62
     7
 10
-955.798842319697
 20
18.3637665070037
 30
0.0
 11
-955.263513654497
 21
18.3637665070037
 31
0.0
  0
LINE
  5
   67E
  8
0
  6
CONTINUOUS
 62
     7
 10
-955.263513654497
 20
19.2714935423264
 30
0.0
 11
-955.263513654497
 21
18.3637665070037
 31
0.0
  0
LINE
  5
   67F
  8
0
  6
CONTINUOUS
 62
     7
 10
-955.798842319697
 20
19.2714935423264
 30
0.0
 11
-955.263513654497
 21
19.2714935423264
 31
0.0
  0
LINE
  5
   680
  8
0
  6
CONTINUOUS
 62
     7
 10
-955.798842319697
 20
17.4094960173497
 30
0.0
 11
-955.263513654497
 21
17.4094960173497
 31
0.0
  0
LINE
  5
   681
  8
0
  6
CONTINUOUS
 62
     7
 10
-955.263513654497
 20
18.3172180458823
 30
0.0
 11
-955.263513654497
 21
17.4094960173497
 31
0.0
  0
LINE
  5
   682
  8
0
  6
CONTINUOUS
 62
     7
 10
-955.798842319697
 20
18.3172180458823
 30
0.0
 11
-955.263513654497
 21
18.3172180458823
 31
0.0
  0
LINE
  5
   683
  8
0
  6
CONTINUOUS
 62
     7
 10
-955.798842319697
 20
18.3172180458823
 30
0.0
 11
-955.798842319697
 21
17.4094960173497
 31
0.0
  0
LINE
  5
   684
  8
0
  6
CONTINUOUS
 62
     7
 10
-955.216965193376
 20
19.2714935423264
 30
0.0
 11
-955.067348954468
 21
19.2714935423264
 31
0.0
  0
LINE
  5
   685
  8
0
  6
CONTINUOUS
 62
     7
 10
-955.216965193376
 20
19.2714935423264
 30
0.0
 11
-955.216965193376
 21
18.3637665070037
 31
0.0
  0
LINE
  5
   686
  8
0
  6
CONTINUOUS
 62
     7
 10
-955.216965193376
 20
18.3637665070037
 30
0.0
 11
-954.675040916716
 21
18.3637665070037
 31
0.0
  0
LINE
  5
   687
  8
0
  6
CONTINUOUS
 62
     7
 10
-954.754991487183
 20
18.4240632613167
 30
0.0
 11
-954.675043052316
 21
18.3637681483064
 31
0.0
  0
LINE
  5
   688
  8
0
  6
CONTINUOUS
 62
     7
 10
-954.844565224363
 20
18.4688103648304
 30
0.0
 11
-954.754987728654
 21
18.4240616737406
 31
0.0
  0
LINE
  5
   689
  8
0
  6
CONTINUOUS
 62
     7
 10
-954.737939540836
 20
18.5593411100908
 30
0.0
 11
-954.844564132322
 21
18.468807677344
 31
0.0
  0
LINE
  5
   68A
  8
0
  6
CONTINUOUS
 62
     7
 10
-954.665806546076
 20
18.6791826167842
 30
0.0
 11
-954.73793635862
 21
18.559340093528
 31
0.0
  0
LINE
  5
   68B
  8
0
  6
CONTINUOUS
 62
     7
 10
-954.635724733553
 20
18.8157789443367
 30
0.0
 11
-954.665808195024
 21
18.6791830462274
 31
0.0
  0
LINE
  5
   68C
  8
0
  6
CONTINUOUS
 62
     7
 10
-954.650834322237
 20
18.9548386522784
 30
0.0
 11
-954.635725836981
 21
18.8157807029398
 31
0.0
  0
LINE
  5
   68D
  8
0
  6
CONTINUOUS
 62
     7
 10
-954.709557777674
 20
19.0817872315546
 30
0.0
 11
-954.650838134485
 21
18.9548417227097
 31
0.0
  0
LINE
  5
   68E
  8
0
  6
CONTINUOUS
 62
     7
 10
-954.805743626394
 20
19.1833447682623
 30
0.0
 11
-954.709559842047
 21
19.0817883671349
 31
0.0
  0
LINE
  5
   68F
  8
0
  6
CONTINUOUS
 62
     7
 10
-954.929313997009
 20
19.2488539327524
 30
0.0
 11
-954.805738401821
 21
19.1833357400227
 31
0.0
  0
LINE
  5
   690
  8
0
  6
CONTINUOUS
 62
     7
 10
-955.216965193376
 20
18.3172180458823
 30
0.0
 11
-954.629555230234
 21
18.3172180458823
 31
0.0
  0
LINE
  5
   691
  8
0
  6
CONTINUOUS
 62
     7
 10
-955.216965193376
 20
18.3172180458823
 30
0.0
 11
-955.216965193376
 21
17.4094960173497
 31
0.0
  0
LINE
  5
   692
  8
0
  6
CONTINUOUS
 62
     7
 10
-955.216965193376
 20
17.4094960173497
 30
0.0
 11
-955.043845079136
 21
17.4094960173497
 31
0.0
  0
LINE
  5
   693
  8
0
  6
CONTINUOUS
 62
     7
 10
-954.889307899502
 20
17.4317181325382
 30
0.0
 11
-955.043842825655
 21
17.4094949960088
 31
0.0
  0
LINE
  5
   694
  8
0
  6
CONTINUOUS
 62
     7
 10
-954.747297482939
 20
17.4965867868332
 30
0.0
 11
-954.889308750344
 21
17.4317184797719
 31
0.0
  0
LINE
  5
   695
  8
0
  6
CONTINUOUS
 62
     7
 10
-954.629325469769
 20
17.5988426964889
 30
0.0
 11
-954.747298806312
 21
17.496586349164
 31
0.0
  0
LINE
  5
   696
  8
0
  6
CONTINUOUS
 62
     7
 10
-954.544943442938
 20
17.7301999272532
 30
0.0
 11
-954.629324544615
 21
17.5988431195343
 31
0.0
  0
LINE
  5
   697
  8
0
  6
CONTINUOUS
 62
     7
 10
-954.500995272831
 20
17.8800089696729
 30
0.0
 11
-954.544937531622
 21
17.7301981409502
 31
0.0
  0
LINE
  5
   698
  8
0
  6
CONTINUOUS
 62
     7
 10
-954.501047948549
 20
18.036135433879
 30
0.0
 11
-954.500999883366
 21
17.8800120294045
 31
0.0
  0
LINE
  5
   699
  8
0
  6
CONTINUOUS
 62
     7
 10
-954.545085316101
 20
18.1859196348065
 30
0.0
 11
-954.501046929026
 21
18.036136495297
 31
0.0
  0
LINE
  5
   69A
  8
0
  6
CONTINUOUS
 62
     7
 10
-954.629553945298
 20
18.3172160862869
 30
0.0
 11
-954.545087394908
 21
18.1859160226965
 31
0.0
  0
LINE
  5
   69B
  8
0
  6
CONTINUOUS
 62
     7
 10
-956.660015553322
 20
19.2714935423264
 30
0.0
 11
-956.510393973839
 21
19.2714935423264
 31
0.0
  0
LINE
  5
   69C
  8
0
  6
CONTINUOUS
 62
     7
 10
-956.660015553322
 20
19.2714935423264
 30
0.0
 11
-956.660015553322
 21
18.3637665070037
 31
0.0
  0
LINE
  5
   69D
  8
0
  6
CONTINUOUS
 62
     7
 10
-956.660015553322
 20
18.3637665070037
 30
0.0
 11
-956.118091276662
 21
18.3637665070037
 31
0.0
  0
LINE
  5
   69E
  8
0
  6
CONTINUOUS
 62
     7
 10
-956.198038375113
 20
18.4240605440886
 30
0.0
 11
-956.118089940246
 21
18.3637654310783
 31
0.0
  0
LINE
  5
   69F
  8
0
  6
CONTINUOUS
 62
     7
 10
-956.287616619161
 20
18.4688104689725
 30
0.0
 11
-956.198039123452
 21
18.4240617778827
 31
0.0
  0
LINE
  5
   6A0
  8
0
  6
CONTINUOUS
 62
     7
 10
-956.180990691693
 20
18.5593439021055
 30
0.0
 11
-956.287615283179
 21
18.4688104693587
 31
0.0
  0
LINE
  5
   6A1
  8
0
  6
CONTINUOUS
 62
     7
 10
-956.108859070995
 20
18.6791842112479
 30
0.0
 11
-956.180988883539
 21
18.5593416879916
 31
0.0
  0
LINE
  5
   6A2
  8
0
  6
CONTINUOUS
 62
     7
 10
-956.0787706304
 20
18.8157795315041
 30
0.0
 11
-956.108859433532
 21
18.6791836254232
 31
0.0
  0
LINE
  5
   6A3
  8
0
  6
CONTINUOUS
 62
     7
 10
-956.093878727664
 20
18.9548409622577
 30
0.0
 11
-956.078770242408
 21
18.8157830129191
 31
0.0
  0
LINE
  5
   6A4
  8
0
  6
CONTINUOUS
 62
     7
 10
-956.152606014003
 20
19.081782985795
 30
0.0
 11
-956.093881035247
 21
18.9548374829945
 31
0.0
  0
LINE
  5
   6A5
  8
0
  6
CONTINUOUS
 62
     7
 10
-956.248791824081
 20
19.1833472024875
 30
0.0
 11
-956.152608039734
 21
19.0817908013601
 31
0.0
  0
LINE
  5
   6A6
  8
0
  6
CONTINUOUS
 62
     7
 10
-956.372367845235
 20
19.2488556220926
 30
0.0
 11
-956.248792250047
 21
19.1833374293629
 31
0.0
  0
LINE
  5
   6A7
  8
0
  6
CONTINUOUS
 62
     7
 10
-956.510394411482
 20
19.2714938927944
 30
0.0
 11
-956.372367193472
 21
19.2488605320813
 31
0.0
  0
LINE
  5
   6A8
  8
0
  6
CONTINUOUS
 62
     7
 10
-956.660015553322
 20
18.3172180458823
 30
0.0
 11
-956.072605590181
 21
18.3172180458823
 31
0.0
  0
LINE
  5
   6A9
  8
0
  6
CONTINUOUS
 62
     7
 10
-956.660015553322
 20
18.3172180458823
 30
0.0
 11
-956.660015553322
 21
17.4094960173497
 31
0.0
  0
LINE
  5
   6AA
  8
0
  6
CONTINUOUS
 62
     7
 10
-956.660015553322
 20
17.4094960173497
 30
0.0
 11
-956.486895439083
 21
17.4094960173497
 31
0.0
  0
LINE
  5
   6AB
  8
0
  6
CONTINUOUS
 62
     7
 10
-956.332360069089
 20
17.4317146982767
 30
0.0
 11
-956.486894995243
 21
17.4094915617474
 31
0.0
  0
LINE
  5
   6AC
  8
0
  6
CONTINUOUS
 62
     7
 10
-956.190347692769
 20
17.4965858716911
 30
0.0
 11
-956.332358960173
 21
17.4317175646298
 31
0.0
  0
LINE
  5
   6AD
  8
0
  6
CONTINUOUS
 62
     7
 10
-956.072375426701
 20
17.5988420144302
 30
0.0
 11
-956.190348763244
 21
17.4965856671053
 31
0.0
  0
LINE
  5
   6AE
  8
0
  6
CONTINUOUS
 62
     7
 10
-955.987994526417
 20
17.7302001067169
 30
0.0
 11
-956.072375628094
 21
17.5988432989979
 31
0.0
  0
LINE
  5
   6AF
  8
0
  6
CONTINUOUS
 62
     7
 10
-955.944043261904
 20
17.8800109503326
 30
0.0
 11
-955.987990865774
 21
17.7302001054531
 31
0.0
  0
LINE
  5
   6B0
  8
0
  6
CONTINUOUS
 62
     7
 10
-955.944099950235
 20
18.036135596101
 30
0.0
 11
-955.9440465445
 21
17.8800121898909
 31
0.0
  0
LINE
  5
   6B1
  8
0
  6
CONTINUOUS
 62
     7
 10
-955.988134372
 20
18.185919563369
 30
0.0
 11
-955.944095984925
 21
18.0361364238595
 31
0.0
  0
LINE
  5
   6B2
  8
0
  6
CONTINUOUS
 62
     7
 10
-956.072602907128
 20
18.3172164433081
 30
0.0
 11
-955.988136356738
 21
18.1859163797177
 31
0.0
  0
LINE
  5
   6B3
  8
0
  6
CONTINUOUS
 62
     7
 10
-957.241887339067
 20
19.2714935423264
 30
0.0
 11
-957.241887339067
 21
17.4094960173497
 31
0.0
  0
LINE
  5
   6B4
  8
0
  6
CONTINUOUS
 62
     7
 10
-961.154032299606
 20
16.216770464178
 30
0.0
 11
-941.554062447157
 21
16.216770464178
 31
0.0
  0
LINE
  5
   6B5
  8
0
  6
CONTINUOUS
 62
     7
 10
-941.204062506523
 20
17.6167704403361
 30
0.0
 11
-941.204062426415
 21
15.5167704760989
 31
0.0
  0
LINE
  5
   6B6
  8
0
  6
CONTINUOUS
 62
     7
 10
-926.504041581478
 20
17.6167704403361
 30
0.0
 11
-926.504041661587
 21
15.5167704760989
 31
0.0
  0
LINE
  5
   6B7
  8
0
  6
CONTINUOUS
 62
     7
 10
-941.204062506523
 20
17.6167704403361
 30
0.0
 11
-926.504041581478
 21
17.6167704403361
 31
0.0
  0
LINE
  5
   6B8
  8
0
  6
CONTINUOUS
 62
     7
 10
-926.154041640845
 20
16.216770464178
 30
0.0
 11
-906.554071788396
 21
16.216770464178
 31
0.0
  0
LINE
  5
   6B9
  8
0
  6
CONTINUOUS
 62
     7
 10
-941.554062513914
 20
17.9667704343757
 30
0.0
 11
-926.154041574087
 21
17.9667704343757
 31
0.0
  0
LINE
  5
   6BA
  8
0
  6
CONTINUOUS
 62
     7
 10
-926.154041574087
 20
17.9667704343757
 30
0.0
 11
-926.154041667547
 21
15.5167704760989
 31
0.0
  0
LINE
  5
   6BB
  8
0
  6
CONTINUOUS
 62
     7
 10
-941.554062513914
 20
17.9667704343757
 30
0.0
 11
-941.554062420454
 21
15.5167704760989
 31
0.0
  0
LINE
  5
   6BC
  8
0
  6
CONTINUOUS
 62
     7
 10
-926.504042353509
 20
-2.62152477124811
 30
0.0
 11
-926.504042433617
 21
-4.72152473548532
 31
0.0
  0
LINE
  5
   6BD
  8
0
  6
CONTINUOUS
 62
     7
 10
-941.204061734493
 20
-2.62152477124811
 30
0.0
 11
-941.204061654385
 21
-4.72152473548532
 31
0.0
  0
LINE
  5
   6BE
  8
0
  6
CONTINUOUS
 62
     7
 10
-941.204061734493
 20
-2.62152477124811
 30
0.0
 11
-939.104061770256
 21
-2.62152477124811
 31
0.0
  0
LINE
  5
   6BF
  8
0
  6
CONTINUOUS
 62
     7
 10
-928.604042317746
 20
-2.62152477124811
 30
0.0
 11
-926.504042353508
 21
-2.62152477124811
 31
0.0
  0
LINE
  5
   6C0
  8
0
  6
CONTINUOUS
 62
     7
 10
-941.204061654385
 20
-4.72152473548532
 30
0.0
 11
-938.404061702068
 21
-4.72152473548532
 31
0.0
  0
LINE
  5
   6C1
  8
0
  6
CONTINUOUS
 62
     7
 10
-929.304042385933
 20
-4.72152473548532
 30
0.0
 11
-926.504042433617
 21
-4.72152473548532
 31
0.0
  0
LINE
  5
   6C2
  8
0
  6
CONTINUOUS
 62
     7
 10
-944.774050255861
 20
-6.35823983251939
 30
0.0
 11
-944.774050255861
 21
-9.50823977887521
 31
0.0
  0
LINE
  5
   6C3
  8
0
  6
CONTINUOUS
 62
     7
 10
-951.774050136652
 20
-6.35823983251939
 30
0.0
 11
-951.774050136652
 21
-9.50823977887521
 31
0.0
  0
LINE
  5
   6C4
  8
0
  6
CONTINUOUS
 62
     7
 10
-951.774050136652
 20
-6.35823983251939
 30
0.0
 11
-944.774050255861
 21
-6.35823983251939
 31
0.0
  0
LINE
  5
   6C5
  8
0
  6
CONTINUOUS
 62
     7
 10
-951.774050136652
 20
-9.50823977887521
 30
0.0
 11
-944.774050255861
 21
-9.50823977887521
 31
0.0
  0
LINE
  5
   6C6
  8
0
  6
CONTINUOUS
 62
     7
 10
-960.454038292968
 20
56.1167484223864
 30
0.0
 11
-907.254065795034
 21
56.1167484223864
 31
0.0
  0
LINE
  5
   6C7
  8
0
  6
CONTINUOUS
 62
     7
 10
-960.454025261966
 20
-30.6832394182671
 30
0.0
 11
-907.254078826035
 21
-30.6832394182671
 31
0.0
  0
ARC
  5
   6C8
  8
0
  6
CONTINUOUS
 62
     7
 10
-907.254065795034
 20
55.4167484343073
 30
0.0
 40
0.699999988079071
 50
359.999991101463
 51
449.999999844103
  0
ARC
  5
   6C9
  8
0
  6
CONTINUOUS
 62
     7
 10
-960.454038292968
 20
55.4167484343073
 30
0.0
 40
0.699999988079071
 50
449.999999844103
 51
540.000008586744
  0
ARC
  5
   6CA
  8
0
  6
CONTINUOUS
 62
     7
 10
-960.454025261966
 20
-29.9832394301881
 30
0.0
 40
0.699999988079071
 50
540.000008586744
 51
629.999999844103
  0
ARC
  5
   6CB
  8
0
  6
CONTINUOUS
 62
     7
 10
-907.254078826035
 20
-29.9832394301881
 30
0.0
 40
0.699999988079071
 50
269.999999844103
 51
359.999991101463
  0
LINE
  5
   6CC
  8
0
  6
CONTINUOUS
 62
     7
 10
-906.554071040708
 20
21.1168191134918
 30
0.0
 11
-906.55407616766
 21
-12.4831803143036
 31
0.0
  0
LINE
  5
   6CD
  8
0
  6
CONTINUOUS
 62
     7
 10
-961.154033047294
 20
21.1168191134918
 30
0.0
 11
-961.154027920342
 21
-12.4831803143036
 31
0.0
  0
LINE
  5
   6CE
  8
0
  6
CONTINUOUS
 62
     7
 10
-961.154025356866
 20
-29.2831800282013
 30
0.0
 11
-961.154025250045
 21
-29.9832395369996
 31
0.0
  0
LINE
  5
   6CF
  8
0
  6
CONTINUOUS
 62
     7
 10
-906.554078731136
 20
-29.2831800282013
 30
0.0
 11
-906.554078837956
 21
-29.9832395369996
 31
0.0
  0
INSERT
  5
   6D0
  8
0
  6
CONTINUOUS
 62
     3
  2
*UDIM115
 10
0.0
 20
0.0
 30
0.0
  0
INSERT
  5
   6D1
  8
0
  6
CONTINUOUS
 62
     3
  2
*UDIM116
 10
0.0
 20
0.0
 30
0.0
  0
INSERT
  5
   6D2
  8
0
  6
CONTINUOUS
 62
     3
  2
*UDIM117
 10
0.0
 20
0.0
 30
0.0
  0
INSERT
  5
   6D3
  8
0
  6
CONTINUOUS
 62
     3
  2
*UDIM118
 10
0.0
 20
0.0
 30
0.0
  0
TEXT
  5
   6D4
  8
0
  6
CONTINUOUS
 62
     2
 10
-983.925327576376
 20
2.76276089884987
 30
0.0
 40
2.99999997871263
  1
X
 50
359.999999844103
 41
0.983333365784751
 72
     2
 11
-981.725327490559
 21
4.26276088223123
 31
0.0
 73
     2
  0
TEXT
  5
   6D5
  8
0
  6
CONTINUOUS
 62
     2
 10
-891.684778114208
 20
2.87622197340135
 30
0.0
 40
2.99999997871263
  1
X
 50
359.999999844103
 41
0.983333365784751
 72
     1
 11
-890.584778069263
 21
4.37622195977019
 31
0.0
 73
     2
  0
TEXT
  5
   6D6
  8
0
  6
CONTINUOUS
 62
     2
 10
-934.494196444922
 20
60.6998568529285
 30
0.0
 40
2.99999997871263
  1
Y
 50
359.999999844103
 41
0.983333365784751
 72
     1
 11
-933.394196399976
 21
62.1998568392974
 31
0.0
 73
     2
  0
TEXT
  5
   6D7
  8
0
  6
CONTINUOUS
 62
     2
 10
-934.665984085429
 20
-36.7723083114712
 30
0.0
 40
2.99999997871263
  1
Y
 50
359.999999844103
 41
0.983333365784751
 72
     1
 11
-933.565984040483
 21
-35.2723083251024
 31
0.0
 73
     2
  0
INSERT
  5
   6D8
  8
0
  6
CONTINUOUS
 62
     3
  2
*UDIM119
 10
0.0
 20
0.0
 30
0.0
  0
INSERT
  5
   6D9
  8
0
  6
CONTINUOUS
 62
     7
  2
*UDIM120
 10
0.0
 20
0.0
 30
0.0
  0
INSERT
  5
   6DA
  8
0
  6
CONTINUOUS
 62
     7
  2
*UDIM121
 10
0.0
 20
0.0
 30
0.0
  0
LINE
  5
   6DB
  8
0
  6
DASHDOT
 62
     7
 10
-692.155496884326
 20
4.31677532196045
 30
0.0
 11
-620.957728335583
 21
4.31677532196045
 31
0.0
  0
LINE
  5
   6DC
  8
0
  6
DASHDOT
 62
     7
 10
-656.036938548088
 20
32.6639284561574
 30
0.0
 11
-656.036938548088
 21
-22.952457733627
 31
0.0
  0
CIRCLE
  5
   6DD
  8
0
  6
CONTINUOUS
 62
     7
 10
-626.811939045787
 20
26.7167749404907
 30
0.0
 40
1.39999997615814
  0
CIRCLE
  5
   6DE
  8
0
  6
CONTINUOUS
 62
     7
 10
-685.261938050389
 20
26.7167749404907
 30
0.0
 40
1.39999997615814
  0
CIRCLE
  5
   6DF
  8
0
  6
CONTINUOUS
 62
     7
 10
-685.261938050389
 20
-18.0832242965698
 30
0.0
 40
1.39999997615814
  0
CIRCLE
  5
   6E0
  8
0
  6
CONTINUOUS
 62
     7
 10
-626.811939045787
 20
-18.0832242965698
 30
0.0
 40
1.39999997615814
  0
LINE
  5
   6E1
  8
0
  6
CONTINUOUS
 62
     7
 10
-625.936939060688
 20
21.8167750239372
 30
0.0
 11
-625.936939060688
 21
-13.1832243800163
 31
0.0
  0
LINE
  5
   6E2
  8
0
  6
CONTINUOUS
 62
     7
 10
-686.136938035488
 20
21.8167750239372
 30
0.0
 11
-686.136938035488
 21
-13.1832243800163
 31
0.0
  0
LINE
  5
   6E3
  8
0
  6
CONTINUOUS
 62
     7
 10
-685.08693805337
 20
22.8667750060558
 30
0.0
 11
-626.986939042807
 21
22.8667750060558
 31
0.0
  0
LINE
  5
   6E4
  8
0
  6
CONTINUOUS
 62
     7
 10
-685.08693805337
 20
-14.2332243621349
 30
0.0
 11
-626.986939042807
 21
-14.2332243621349
 31
0.0
  0
ARC
  5
   6E5
  8
0
  6
CONTINUOUS
 62
     7
 10
-626.986939042807
 20
21.8167750239372
 30
0.0
 40
1.04999998211861
 50
359.999999844103
 51
449.999999844103
  0
ARC
  5
   6E6
  8
0
  6
CONTINUOUS
 62
     7
 10
-626.986939042807
 20
-13.1832243800163
 30
0.0
 40
1.04999998211861
 50
269.999999844103
 51
359.999999844103
  0
ARC
  5
   6E7
  8
0
  6
CONTINUOUS
 62
     7
 10
-685.08693805337
 20
-13.1832243800163
 30
0.0
 40
1.04999998211861
 50
539.999999844103
 51
629.999999844103
  0
ARC
  5
   6E8
  8
0
  6
CONTINUOUS
 62
     7
 10
-685.08693805337
 20
21.8167750239372
 30
0.0
 40
1.04999998211861
 50
449.999999844103
 51
539.999999844103
  0
LINE
  5
   6E9
  8
0
  6
DASHDOT
 62
     7
 10
-626.811939045787
 20
28.8167749047279
 30
0.0
 11
-626.811939045787
 21
24.6167749762535
 31
0.0
  0
LINE
  5
   6EA
  8
0
  6
DASHDOT
 62
     7
 10
-626.811939045787
 20
-15.9832243323326
 30
0.0
 11
-626.811939045787
 21
-20.183224260807
 31
0.0
  0
LINE
  5
   6EB
  8
0
  6
CONTINUOUS
 62
     7
 10
-691.878960161496
 20
30.5287141265241
 30
0.0
 11
-621.480452659096
 21
30.5287141265241
 31
0.0
  0
LINE
  5
   6EC
  8
0
  6
CONTINUOUS
 62
     7
 10
-621.480452659096
 20
30.5287141265241
 30
0.0
 11
-621.480452659096
 21
-21.5916059716414
 31
0.0
  0
LINE
  5
   6ED
  8
0
  6
CONTINUOUS
 62
     7
 10
-691.878960161496
 20
-21.5916059716414
 30
0.0
 11
-621.480452659096
 21
-21.5916059716414
 31
0.0
  0
LINE
  5
   6EE
  8
0
  6
CONTINUOUS
 62
     7
 10
-691.878960161496
 20
30.5287141265241
 30
0.0
 11
-691.878960161496
 21
-21.5916059716414
 31
0.0
  0
LINE
  5
   6EF
  8
0
  6
DASHDOT
 62
     7
 10
-626.811939045787
 20
-11.7832244038582
 30
0.0
 11
-626.811939045787
 21
-24.3832241892815
 31
0.0
  0
LINE
  5
   6F0
  8
0
  6
DASHDOT
 62
     7
 10
-633.111938938499
 20
-18.0832242965698
 30
0.0
 11
-620.511939153075
 21
-18.0832242965698
 31
0.0
  0
LINE
  5
   6F1
  8
0
  6
DASHDOT
 62
     7
 10
-685.261938050389
 20
-11.7832244038582
 30
0.0
 11
-685.261938050389
 21
-24.3832241892815
 31
0.0
  0
LINE
  5
   6F2
  8
0
  6
DASHDOT
 62
     7
 10
-691.561937943101
 20
-18.0832242965698
 30
0.0
 11
-678.961938157678
 21
-18.0832242965698
 31
0.0
  0
LINE
  5
   6F3
  8
0
  6
DASHDOT
 62
     7
 10
-685.261938050389
 20
33.0167748332024
 30
0.0
 11
-685.261938050389
 21
20.4167750477791
 31
0.0
  0
LINE
  5
   6F4
  8
0
  6
DASHDOT
 62
     7
 10
-691.561937943101
 20
26.7167749404907
 30
0.0
 11
-678.961938157678
 21
26.7167749404907
 31
0.0
  0
LINE
  5
   6F5
  8
0
  6
DASHDOT
 62
     7
 10
-626.811939045787
 20
33.0167748332024
 30
0.0
 11
-626.811939045787
 21
20.4167750477791
 31
0.0
  0
LINE
  5
   6F6
  8
0
  6
DASHDOT
 62
     7
 10
-633.111938938499
 20
26.7167749404907
 30
0.0
 11
-620.511939153075
 21
26.7167749404907
 31
0.0
  0
TEXT
  5
   6F7
  8
0
  6
CONTINUOUS
 62
     2
 10
-656.388788221349
 20
-26.9396462485888
 30
0.0
 40
2.99999997871263
  1
Y
 50
359.999999844103
 41
0.983333365784751
 72
     2
 11
-654.188788135531
 21
-25.4396462652074
 31
0.0
 73
     2
  0
TEXT
  5
   6F8
  8
0
  6
CONTINUOUS
 62
     2
 10
-619.257064496093
 20
2.69616839030153
 30
0.0
 40
2.99999997871263
  1
X
 50
359.999999844103
 41
0.983333365784751
 72
     2
 11
-617.057064410276
 21
4.19616837368289
 31
0.0
 73
     2
  0
TEXT
  5
   6F9
  8
0
  6
CONTINUOUS
 62
     2
 10
-695.590690134005
 20
2.84830280992353
 30
0.0
 40
2.99999997871263
  1
X
 50
359.999999844103
 41
0.983333365784751
 72
     2
 11
-693.390690048188
 21
4.3483027933049
 31
0.0
 73
     2
  0
TEXT
  5
   6FA
  8
0
  6
CONTINUOUS
 62
     2
 10
-656.491860672138
 20
33.1859718528443
 30
0.0
 40
2.99999997871263
  1
Y
 50
359.999999844103
 41
0.983333365784751
 72
     2
 11
-654.291860586321
 21
34.6859718362256
 31
0.0
 73
     2
  0
INSERT
  5
   6FB
  8
0
  6
CONTINUOUS
 62
     3
  2
*UDIM122
 10
0.0
 20
0.0
 30
0.0
  0
INSERT
  5
   6FC
  8
0
  6
CONTINUOUS
 62
     3
  2
*UDIM123
 10
0.0
 20
0.0
 30
0.0
  0
INSERT
  5
   6FD
  8
0
  6
CONTINUOUS
 62
     3
  2
*UDIM124
 10
0.0
 20
0.0
 30
0.0
  0
INSERT
  5
   6FE
  8
0
  6
CONTINUOUS
 62
     3
  2
*UDIM125
 10
0.0
 20
0.0
 30
0.0
  0
INSERT
  5
   6FF
  8
0
  6
CONTINUOUS
 62
     3
  2
*UDIM126
 10
0.0
 20
0.0
 30
0.0
  0
INSERT
  5
   700
  8
0
  6
CONTINUOUS
 62
     7
  2
*UDIM127
 10
0.0
 20
0.0
 30
0.0
  0
ENDSEC
  0
EOF
