  0
SECTION
  2
HEADER
  9
$ACADVER
  1
AC1009
  9
$DWGCODEPAGE
  3
iso8859-1
  9
$INSBASE
 10
0.0
 20
0.0
 30
0.0
  9
$EXTMIN
 10
1.0E20
 20
1.0E20
  9
$EXTMAX
 10
-1.0E20
 20
-1.0E20
  9
$LIMMIN
 10
0.0
 20
0.0
  9
$LIMMAX
 10
12.0
 20
9.0
  9
$ORTHOMODE
 70
     0
  9
$REGENMODE
 70
     1
  9
$FILLMODE
 70
     1
  9
$QTEXTMODE
 70
     0
  9
$MIRRTEXT
 70
     1
  9
$DRAGMODE
 70
     2
  9
$LTSCALE
 40
15.0
  9
$OSMODE
 70
     0
  9
$ATTMODE
 70
     1
  9
$TEXTSIZE
 40
0.2
  9
$TRACEWID
 40
0.05
  9
$TEXTSTYLE
  7
STANDARD
  9
$CLAYER
  8
0
  9
$CELTYPE
  6
DASHED
  9
$CECOLOR
 62
   256
  9
$DIMSCALE
 40
1.0
  9
$DIMASZ
 40
0.18
  9
$DIMEXO
 40
0.0625
  9
$DIMDLI
 40
0.38
  9
$DIMRND
 40
0.0
  9
$DIMDLE
 40
0.0
  9
$DIMEXE
 40
0.18
  9
$DIMTP
 40
0.0
  9
$DIMTM
 40
0.0
  9
$DIMTXT
 40
0.18
  9
$DIMCEN
 40
0.09
  9
$DIMTSZ
 40
0.0
  9
$DIMTOL
 70
     0
  9
$DIMLIM
 70
     0
  9
$DIMTIH
 70
     1
  9
$DIMTOH
 70
     1
  9
$DIMSE1
 70
     0
  9
$DIMSE2
 70
     0
  9
$DIMTAD
 70
     0
  9
$DIMZIN
 70
     0
  9
$DIMBLK
  1

  9
$DIMASO
 70
     1
  9
$DIMSHO
 70
     1
  9
$DIMPOST
  1

  9
$DIMAPOST
  1

  9
$DIMALT
 70
     0
  9
$DIMALTD
 70
     2
  9
$DIMALTF
 40
25.4
  9
$DIMLFAC
 40
1.0
  9
$DIMTOFL
 70
     0
  9
$DIMTVP
 40
0.0
  9
$DIMTIX
 70
     0
  9
$DIMSOXD
 70
     0
  9
$DIMSAH
 70
     0
  9
$DIMBLK1
  1

  9
$DIMBLK2
  1

  9
$DIMSTYLE
  2
STANDARD
  9
$DIMCLRD
 70
     0
  9
$DIMCLRE
 70
     0
  9
$DIMCLRT
 70
     0
  9
$DIMTFAC
 40
1.0
  9
$DIMGAP
 40
0.09
  9
$LUNITS
 70
     2
  9
$LUPREC
 70
     4
  9
$AXISMODE
 70
     0
  9
$AXISUNIT
 10
0.0
 20
0.0
  9
$SKETCHINC
 40
0.1
  9
$FILLETRAD
 40
0.0
  9
$AUNITS
 70
     0
  9
$AUPREC
 70
     0
  9
$MENU
  1
acad
  9
$ELEVATION
 40
0.0
  9
$PELEVATION
 40
0.0
  9
$THICKNESS
 40
0.0
  9
$LIMCHECK
 70
     0
  9
$BLIPMODE
 70
     1
  9
$CHAMFERA
 40
0.0
  9
$CHAMFERB
 40
0.0
  9
$SKPOLY
 70
     0
  9
$TDCREATE
 40
0.000000000
  9
$TDUPDATE
 40
0.000000000
  9
$TDINDWG
 40
0.0
  9
$TDUSRTIMER
 40
0.0
  9
$USRTIMER
 70
     1
  9
$ANGBASE
 50
0.0
  9
$ANGDIR
 70
     0
  9
$PDMODE
 70
     0
  9
$PDSIZE
 40
0.0
  9
$PLINEWID
 40
0.0
  9
$COORDS
 70
     1
  9
$SPLFRAME
 70
     0
  9
$SPLINETYPE
 70
     6
  9
$SPLINESEGS
 70
     8
  9
$ATTDIA
 70
     0
  9
$ATTREQ
 70
     1
  9
$HANDLING
 70
     1
  9
$HANDSEED
  5
   35F
  9
$SURFTAB1
 70
     6
  9
$SURFTAB2
 70
     6
  9
$SURFTYPE
 70
     6
  9
$SURFU
 70
     6
  9
$SURFV
 70
     6
  9
$UCSNAME
  2

  9
$UCSORG
 10
0.0
 20
0.0
 30
0.0
  9
$UCSXDIR
 10
1.0
 20
0.0
 30
0.0
  9
$UCSYDIR
 10
0.0
 20
1.0
 30
0.0
  9
$PUCSNAME
  2

  9
$PUCSORG
 10
0.0
 20
0.0
 30
0.0
  9
$PUCSXDIR
 10
1.0
 20
0.0
 30
0.0
  9
$PUCSYDIR
 10
0.0
 20
1.0
 30
0.0
  9
$USERI1
 70
     0
  9
$USERI2
 70
     0
  9
$USERI3
 70
     0
  9
$USERI4
 70
     0
  9
$USERI5
 70
     0
  9
$USERR1
 40
0.0
  9
$USERR2
 40
0.0
  9
$USERR3
 40
0.0
  9
$USERR4
 40
0.0
  9
$USERR5
 40
0.0
  9
$WORLDVIEW
 70
     1
  9
$SHADEDGE
 70
     3
  9
$SHADEDIF
 70
    70
  9
$TILEMODE
 70
     1
  9
$MAXACTVP
 70
    16
  9
$PINSBASE
 10
0.0
 20
0.0
 30
0.0
  9
$PLIMCHECK
 70
     0
  9
$PEXTMIN
 10
1.0E20
 20
1.0E20
 30
1.0E20
  9
$PEXTMAX
 10
-1.0E20
 20
-1.0E20
 30
-1.0E20
  9
$PLIMMIN
 10
0.0
 20
0.0
  9
$PLIMMAX
 10
12.0
 20
9.0
  9
$UNITMODE
 70
     0
  9
$VISRETAIN
 70
     0
  0
ENDSEC
  0
SECTION
  2
TABLES
  0
TABLE
  2
VPORT
 70
     1
  0
VPORT
  2
*ACTIVE
 70
     0
 10
0.0
 20
0.0
 11
1.0
 21
1.0
 12
6.801242
 22
4.5
 13
0.0
 23
0.0
 14
1.0
 24
1.0
 15
0.0
 25
0.0
 16
0.0
 26
0.0
 36
1.0
 17
0.0
 27
0.0
 37
0.0
 40
9.0
 41
1.511387
 42
50.0
 43
0.0
 44
0.0
 50
0.0
 51
0.0
 71
     0
 72
   100
 73
     1
 74
     1
 75
     0
 76
     0
 77
     0
 78
     0
  0
ENDTAB
  0
TABLE
  2
LTYPE
 70
    41
  0
LTYPE
  2
BYBLOCK
 70
     0
  3

 72
    65
 73
     0
 40
0.0
  0
LTYPE
  2
BYLAYER
 70
     0
  3

 72
    65
 73
     0
 40
0.0
  0
LTYPE
  2
CONTINUOUS
 70
     0
  3
Solid line
 72
    65
 73
     0
 40
0.0
  0
LTYPE
  2
BORDER
 70
    64
  3
__ __ . __ __ . __ __ . __ __ . __ __ . __ __ .
 72
    65
 73
     6
 40
1.75
 49
0.5
 49
-0.25
 49
0.5
 49
-0.25
 49
0.0
 49
-0.25
  0
LTYPE
  2
BORDER2
 70
    64
  3
__.__.__.__.__.__.__.__.__.__.__.__.__.__.__.__
 72
    65
 73
     6
 40
0.875
 49
0.25
 49
-0.125
 49
0.25
 49
-0.125
 49
0.0
 49
-0.125
  0
LTYPE
  2
BORDERX2
 70
    64
  3
____  ____  .  ____  ____  .  ____  ____  .  __
 72
    65
 73
     6
 40
3.5
 49
1.0
 49
-0.5
 49
1.0
 49
-0.5
 49
0.0
 49
-0.5
  0
LTYPE
  2
CENTER
 70
    64
  3
____ _ ____ _ ____ _ ____ _ ____ _ ____ _ ____
 72
    65
 73
     4
 40
2.0
 49
1.25
 49
-0.25
 49
0.25
 49
-0.25
  0
LTYPE
  2
CENTER2
 70
    64
  3
___ _ ___ _ ___ _ ___ _ ___ _ ___ _ ___ _ ___ _
 72
    65
 73
     4
 40
1.125
 49
0.75
 49
-0.125
 49
0.125
 49
-0.125
  0
LTYPE
  2
CENTERX2
 70
    64
  3
________  __  ________  __  ________  __  _____
 72
    65
 73
     4
 40
4.0
 49
2.5
 49
-0.5
 49
0.5
 49
-0.5
  0
LTYPE
  2
DASHDOT
 70
    64
  3
__ . __ . __ . __ . __ . __ . __ . __ . __ . __
 72
    65
 73
     4
 40
1.0
 49
0.5
 49
-0.25
 49
0.0
 49
-0.25
  0
LTYPE
  2
DASHDOT2
 70
    64
  3
_._._._._._._._._._._._._._._._._._._._._._._._
 72
    65
 73
     4
 40
0.5
 49
0.25
 49
-0.125
 49
0.0
 49
-0.125
  0
LTYPE
  2
DASHDOTX2
 70
    64
  3
____  .  ____  .  ____  .  ____  .  ____  .  __
 72
    65
 73
     4
 40
2.0
 49
1.0
 49
-0.5
 49
0.0
 49
-0.5
  0
LTYPE
  2
DASHED
 70
    64
  3
__ __ __ __ __ __ __ __ __ __ __ __ __ __ __ __
 72
    65
 73
     2
 40
0.75
 49
0.5
 49
-0.25
  0
LTYPE
  2
DASHED2
 70
    64
  3
_ _ _ _ _ _ _ _ _ _ _ _ _ _ _ _ _ _ _ _ _ _ _ _
 72
    65
 73
     2
 40
0.375
 49
0.25
 49
-0.125
  0
LTYPE
  2
DASHEDX2
 70
    64
  3
____  ____  ____  ____  ____  ____  ____  ____
 72
    65
 73
     2
 40
1.5
 49
1.0
 49
-0.5
  0
LTYPE
  2
DIVIDE
 70
    64
  3
____ . . ____ . . ____ . . ____ . . ____ . . __
 72
    65
 73
     6
 40
1.25
 49
0.5
 49
-0.25
 49
0.0
 49
-0.25
 49
0.0
 49
-0.25
  0
LTYPE
  2
DIVIDE2
 70
    64
  3
__..__..__..__..__..__..__..__..__..__..__..__.
 72
    65
 73
     6
 40
0.625
 49
0.25
 49
-0.125
 49
0.0
 49
-0.125
 49
0.0
 49
-0.125
  0
LTYPE
  2
DIVIDEX2
 70
    64
  3
________  .  .  ________  .  .  ________  .  .
 72
    65
 73
     6
 40
2.5
 49
1.0
 49
-0.5
 49
0.0
 49
-0.5
 49
0.0
 49
-0.5
  0
LTYPE
  2
DOT
 70
    64
  3
. . . . . . . . . . . . . . . . . . . . . . . .
 72
    65
 73
     2
 40
0.25
 49
0.0
 49
-0.25
  0
LTYPE
  2
DOT2
 70
    64
  3
...............................................
 72
    65
 73
     2
 40
0.125
 49
0.0
 49
-0.125
  0
LTYPE
  2
DOTX2
 70
    64
  3
.  .  .  .  .  .  .  .  .  .  .  .  .  .  .  .
 72
    65
 73
     2
 40
0.5
 49
0.0
 49
-0.5
  0
LTYPE
  2
HIDDEN
 70
    64
  3
__ __ __ __ __ __ __ __ __ __ __ __ __ __ __ __
 72
    65
 73
     2
 40
0.375
 49
0.25
 49
-0.125
  0
LTYPE
  2
HIDDEN2
 70
    64
  3
_ _ _ _ _ _ _ _ _ _ _ _ _ _ _ _ _ _ _ _ _ _ _ _
 72
    65
 73
     2
 40
0.1875
 49
0.125
 49
-0.0625
  0
LTYPE
  2
HIDDENX2
 70
    64
  3
____ ____ ____ ____ ____ ____ ____ ____ ____ __
 72
    65
 73
     2
 40
0.75
 49
0.5
 49
-0.25
  0
LTYPE
  2
PHANTOM
 70
    64
  3
______  __  __  ______  __  __  ______  __  __
 72
    65
 73
     6
 40
2.5
 49
1.25
 49
-0.25
 49
0.25
 49
-0.25
 49
0.25
 49
-0.25
  0
LTYPE
  2
PHANTOM2
 70
    64
  3
___ _ _ ___ _ _ ___ _ _ ___ _ _ ___ _ _ ___ _ _
 72
    65
 73
     6
 40
1.25
 49
0.625
 49
-0.125
 49
0.125
 49
-0.125
 49
0.125
 49
-0.125
  0
LTYPE
  2
PHANTOMX2
 70
    64
  3
____________    ____    ____    ____________
 72
    65
 73
     6
 40
5.0
 49
2.5
 49
-0.5
 49
0.5
 49
-0.5
 49
0.5
 49
-0.5
  0
LTYPE
  2
ACAD_ISO02W100
 70
    64
  3
__ __ __ __ __ __ __ __ __ __ __ __ __ __ __ __
 72
    65
 73
     2
 40
15.0
 49
12.0
 49
-3.0
  0
LTYPE
  2
ACAD_ISO03W100
 70
    64
  3
__    __    __    __    __    __    __    __
 72
    65
 73
     2
 40
30.0
 49
12.0
 49
-18.0
  0
LTYPE
  2
ACAD_ISO04W100
 70
    64
  3
____ . ____ . ____ . ____ . ____ . ____ . ____
 72
    65
 73
     4
 40
30.5
 49
24.0
 49
-3.0
 49
0.5
 49
-3.0
  0
LTYPE
  2
ACAD_ISO05W100
 70
    64
  3
____ .. ____ .. ____ .. ____ .. ____ .. ____ ..
 72
    65
 73
     6
 40
34.0
 49
24.0
 49
-3.0
 49
0.5
 49
-3.0
 49
0.5
 49
-3.0
  0
LTYPE
  2
ACAD_ISO06W100
 70
    64
  3
____ ... ____ ... ____ ... ____ ... ____ ... __
 72
    65
 73
     8
 40
37.5
 49
24.0
 49
-3.0
 49
0.5
 49
-3.0
 49
0.5
 49
-3.0
 49
0.5
 49
-3.0
  0
LTYPE
  2
ACAD_ISO07W100
 70
    64
  3
. . . . . . . . . . . . . . . . . . . . . . . .
 72
    65
 73
     2
 40
3.5
 49
0.5
 49
-3.0
  0
LTYPE
  2
ACAD_ISO08W100
 70
    64
  3
____ __ ____ __ ____ __ ____ ____ __ __ ____ __
 72
    65
 73
     4
 40
36.0
 49
24.0
 49
-3.0
 49
6.0
 49
-3.0
  0
LTYPE
  2
ACAD_ISO09W100
 70
    64
  3
____ __ __ ____ __ __ ____ __ __ ____ __ __ ___
 72
    65
 73
     6
 40
45.0
 49
24.0
 49
-3.0
 49
6.0
 49
-3.0
 49
6.0
 49
-3.0
  0
LTYPE
  2
ACAD_ISO10W100
 70
    64
  3
__ . __ . __ . __ . __ . __ . __ . __ . __ . __
 72
    65
 73
     4
 40
18.5
 49
12.0
 49
-3.0
 49
0.5
 49
-3.0
  0
LTYPE
  2
ACAD_ISO11W100
 70
    64
  3
__ __ . __ __ . __ __ . __ __ . __ __ . __ __ .
 72
    65
 73
     6
 40
33.5
 49
12.0
 49
-3.0
 49
12.0
 49
-3.0
 49
0.5
 49
-3.0
  0
LTYPE
  2
ACAD_ISO12W100
 70
    64
  3
__ . . __ . . __ . . __ . . __ . . __ . . __ .
 72
    65
 73
     6
 40
22.0
 49
12.0
 49
-3.0
 49
0.5
 49
-3.0
 49
0.5
 49
-3.0
  0
LTYPE
  2
ACAD_ISO13W100
 70
    64
  3
__ __ . . __ __ . . __ __ . . __ __ . . __ __ .
 72
    65
 73
     8
 40
37.0
 49
12.0
 49
-3.0
 49
12.0
 49
-3.0
 49
0.5
 49
-3.0
 49
0.5
 49
-3.0
  0
LTYPE
  2
ACAD_ISO14W100
 70
    64
  3
__ . . . __ . . . __ . . . __ . . . __ . . . __
 72
    65
 73
     8
 40
25.5
 49
12.0
 49
-3.0
 49
0.5
 49
-3.0
 49
0.5
 49
-3.0
 49
0.5
 49
-3.0
  0
LTYPE
  2
ACAD_ISO15W100
 70
    64
  3
__ __ . . . __ __ . . . __ __ . . . __ __ . . .
 72
    65
 73
    10
 40
40.5
 49
12.0
 49
-3.0
 49
12.0
 49
-3.0
 49
0.5
 49
-3.0
 49
0.5
 49
-3.0
 49
0.5
 49
-3.0
  0
ENDTAB
  0
TABLE
  2
STYLE
 70
     4
  0
STYLE
  2
STANDARD
 70
    64
 40
0.0
 41
1.0
 50
0.0
 71
     0
 42
0.2
  3
txt
  4

  0
STYLE
  2
TOLERANCE
 70
    64
 40
0.0
 41
1.0
 50
0.0
 71
     0
 42
0.2
  3
../igesfont/iges1003.shx
  4

  0
STYLE
  2
ROMANS
 70
    64
 40
0.0
 41
1.0
 50
0.0
 71
     0
 42
0.2
  3
romans.shx
  4

  0
STYLE
  2
ROMANC
 70
    64
 40
0.0
 41
1.0
 50
0.0
 71
     0
 42
0.2
  3
romanc.shx
  4

  0
ENDTAB
  0
TABLE
  2
DIMSTYLE
 70
     2
  0
DIMSTYLE
  2
UNNAMED
 70
     0
  3

  4

  5

  6

  7

 40
1.0
 41
0.18
 42
0.0625
 43
0.38
 44
0.18
 45
0.0
 46
0.0
 47
0.0
 48
0.0
140
0.18
141
0.09
142
0.0
143
25.4
144
1.0
145
0.0
146
1.0
147
0.09
 71
     0
 72
     0
 73
     1
 74
     1
 75
     0
 76
     0
 77
     0
 78
     0
170
     0
171
     2
172
     0
173
     0
174
     0
175
     0
176
     0
177
     0
178
     0
  0
DIMSTYLE
  2
STANDARD
 70
     0
  3

  4

  5

  6

  7

 40
1.0
 41
0.18
 42
0.0625
 43
0.38
 44
0.18
 45
0.0
 46
0.0
 47
0.0
 48
0.0
140
0.18
141
0.09
142
0.0
143
25.4
144
1.0
145
0.0
146
1.0
147
0.09
 71
     0
 72
     0
 73
     1
 74
     1
 75
     0
 76
     0
 77
     0
 78
     0
170
     0
171
     2
172
     0
173
     0
174
     0
175
     0
176
     0
177
     0
178
     0
  0
ENDTAB
  0
TABLE
  2
LAYER
 70
     1
  0
LAYER
  2
0
 70
     0
 62
     7
  6
CONTINUOUS
  0
ENDTAB
  0
ENDSEC
  0
SECTION
  2
BLOCKS
  0
BLOCK
  5
     B
  8
0
  6
CONTINUOUS
 62
     7
  2
*UDIM200
 70
    65
 10
0.0
 20
0.0
 30
0.0
  3
*UDIM200
  0
TEXT
  5
     C
  8
0
  6
CONTINUOUS
 62
     7
 10
-76.0069994926404
 20
50.8185378581304
 30
0.0
 40
3.00000002980232
  1
161
 50
90.0
 41
0.933333333333333
 72
     1
 11
-77.5069995075464
 21
54.7185378968716
 31
0.0
 73
     2
  0
LINE
  5
     D
  8
0
  6
CONTINUOUS
 62
     7
 10
-54.1079184525452
 20
14.7435398101807
 30
0.0
 11
-77.0069994926453
 21
14.7435398101807
 31
0.0
  0
LINE
  5
     E
  8
0
  6
CONTINUOUS
 62
     7
 10
-54.1079184525452
 20
95.243537902832
 30
0.0
 11
-77.0069994926453
 21
95.243537902832
 31
0.0
  0
LINE
  5
     F
  8
0
  6
CONTINUOUS
 62
     7
 10
-75.0069994926453
 20
14.7435398101807
 30
0.0
 11
-75.0069994926453
 21
95.243537902832
 31
0.0
  0
LINE
  5
    10
  8
0
  6
CONTINUOUS
 62
     7
 10
-75.5279439225969
 20
17.6979630873876
 30
0.0
 11
-75.0069994926453
 21
14.7435398101807
 31
0.0
  0
LINE
  5
    11
  8
0
  6
CONTINUOUS
 62
     7
 10
-75.0069994926453
 20
14.7435398101807
 30
0.0
 11
-74.4860550626936
 21
17.6979630873876
 31
0.0
  0
LINE
  5
    12
  8
0
  6
CONTINUOUS
 62
     7
 10
-74.4860550626936
 20
92.2891146256251
 30
0.0
 11
-75.0069994926453
 21
95.243537902832
 31
0.0
  0
LINE
  5
    13
  8
0
  6
CONTINUOUS
 62
     7
 10
-75.0069994926453
 20
95.243537902832
 30
0.0
 11
-75.5279439225969
 21
92.2891146256251
 31
0.0
  0
ENDBLK
  5
    14
  8
0
  6
CONTINUOUS
 62
     7
  0
BLOCK
  5
    15
  8
0
  6
CONTINUOUS
 62
     7
  2
*UDIM201
 70
    65
 10
0.0
 20
0.0
 30
0.0
  3
*UDIM201
  0
TEXT
  5
    16
  8
0
  6
CONTINUOUS
 62
     7
 10
-28.6579173349581
 20
-25.2169761657715
 30
0.0
 40
3.00000002980232
  1
117
 41
0.933333333333333
 72
     1
 11
-24.7579172962151
 21
-23.7169761508703
 31
0.0
 73
     2
  0
LINE
  5
    17
  8
0
  6
CONTINUOUS
 62
     7
 10
-53.7329184525452
 20
14.3685398101807
 30
0.0
 11
-53.7329184525452
 21
-28.2169761657715
 31
0.0
  0
LINE
  5
    18
  8
0
  6
CONTINUOUS
 62
     7
 10
4.76708154745484
 20
14.3685398101807
 30
0.0
 11
4.76708154745484
 21
-28.2169761657715
 31
0.0
  0
LINE
  5
    19
  8
0
  6
CONTINUOUS
 62
     7
 10
-53.7329184525452
 20
-26.2169761657715
 30
0.0
 11
4.76708154745484
 21
-26.2169761657715
 31
0.0
  0
LINE
  5
    1A
  8
0
  6
CONTINUOUS
 62
     7
 10
-50.7784951753382
 20
-25.6960317358198
 30
0.0
 11
-53.7329184525452
 21
-26.2169761657715
 31
0.0
  0
LINE
  5
    1B
  8
0
  6
CONTINUOUS
 62
     7
 10
-53.7329184525452
 20
-26.2169761657715
 30
0.0
 11
-50.7784951753382
 21
-26.7379205957231
 31
0.0
  0
LINE
  5
    1C
  8
0
  6
CONTINUOUS
 62
     7
 10
1.81265827024787
 20
-26.7379205957231
 30
0.0
 11
4.76708154745484
 21
-26.2169761657715
 31
0.0
  0
LINE
  5
    1D
  8
0
  6
CONTINUOUS
 62
     7
 10
4.76708154745484
 20
-26.2169761657715
 30
0.0
 11
1.81265827024787
 21
-25.6960317358198
 31
0.0
  0
ENDBLK
  5
    1E
  8
0
  6
CONTINUOUS
 62
     7
  0
BLOCK
  5
    1F
  8
0
  6
CONTINUOUS
 62
     7
  2
*UDIM202
 70
    65
 10
0.0
 20
0.0
 30
0.0
  3
*UDIM202
  0
TEXT
  5
    20
  8
0
  6
CONTINUOUS
 62
     7
 10
-25.602647315452
 20
141.031158447266
 30
0.0
 40
3.00000002980232
  1
B
 41
0.933333333333334
 72
     1
 11
-24.5026473045244
 21
142.531158462167
 31
0.0
 73
     2
  0
LINE
  5
    21
  8
0
  6
CONTINUOUS
 62
     7
 10
-50.7329308283886
 20
117.215223548362
 30
0.0
 11
-50.7329308283886
 21
142.031158447266
 31
0.0
  0
LINE
  5
    22
  8
0
  6
CONTINUOUS
 62
     7
 10
1.76692616321361
 20
117.215223548385
 30
0.0
 11
1.76692616321361
 21
142.031158447266
 31
0.0
  0
LINE
  5
    23
  8
0
  6
CONTINUOUS
 62
     7
 10
-50.7329308283886
 20
140.031158447266
 30
0.0
 11
1.76692616321361
 21
140.031158447266
 31
0.0
  0
LINE
  5
    24
  8
0
  6
CONTINUOUS
 62
     7
 10
-47.7785075511816
 20
140.552102877217
 30
0.0
 11
-50.7329308283886
 21
140.031158447266
 31
0.0
  0
LINE
  5
    25
  8
0
  6
CONTINUOUS
 62
     7
 10
-50.7329308283886
 20
140.031158447266
 30
0.0
 11
-47.7785075511816
 21
139.510214017314
 31
0.0
  0
LINE
  5
    26
  8
0
  6
CONTINUOUS
 62
     7
 10
-1.18749711399335
 20
139.510214017314
 30
0.0
 11
1.76692616321361
 21
140.031158447266
 31
0.0
  0
LINE
  5
    27
  8
0
  6
CONTINUOUS
 62
     7
 10
1.76692616321361
 20
140.031158447266
 30
0.0
 11
-1.18749711399335
 21
140.552102877217
 31
0.0
  0
ENDBLK
  5
    28
  8
0
  6
CONTINUOUS
 62
     7
  0
BLOCK
  5
    29
  8
0
  6
CONTINUOUS
 62
     7
  2
*UDIM203
 70
    65
 10
0.0
 20
0.0
 30
0.0
  3
*UDIM203
  0
TEXT
  5
    2A
  8
0
  6
CONTINUOUS
 62
     7
 10
-37.3580012467895
 20
152.901458740234
 30
0.0
 40
3.00000002980232
  1
A
 41
0.933333333333334
 72
     1
 11
-36.258001235862
 21
154.401458755136
 31
0.0
 73
     2
  0
LINE
  5
    2B
  8
0
  6
CONTINUOUS
 62
     7
 10
-68.2329308283886
 20
117.215223548362
 30
0.0
 11
-68.2329308283886
 21
153.901458740234
 31
0.0
  0
LINE
  5
    2C
  8
0
  6
CONTINUOUS
 62
     7
 10
1.76692616321361
 20
117.215223548385
 30
0.0
 11
1.76692616321361
 21
153.901458740234
 31
0.0
  0
LINE
  5
    2D
  8
0
  6
CONTINUOUS
 62
     7
 10
-68.2329308283886
 20
151.901458740234
 30
0.0
 11
1.76692616321361
 21
151.901458740234
 31
0.0
  0
LINE
  5
    2E
  8
0
  6
CONTINUOUS
 62
     7
 10
-65.2785075511816
 20
152.422403170186
 30
0.0
 11
-68.2329308283886
 21
151.901458740234
 31
0.0
  0
LINE
  5
    2F
  8
0
  6
CONTINUOUS
 62
     7
 10
-68.2329308283886
 20
151.901458740234
 30
0.0
 11
-65.2785075511816
 21
151.380514310283
 31
0.0
  0
LINE
  5
    30
  8
0
  6
CONTINUOUS
 62
     7
 10
-1.18749711399335
 20
151.380514310283
 30
0.0
 11
1.76692616321361
 21
151.901458740234
 31
0.0
  0
LINE
  5
    31
  8
0
  6
CONTINUOUS
 62
     7
 10
1.76692616321361
 20
151.901458740234
 30
0.0
 11
-1.18749711399335
 21
152.422403170186
 31
0.0
  0
ENDBLK
  5
    32
  8
0
  6
CONTINUOUS
 62
     7
  0
BLOCK
  5
    33
  8
0
  6
CONTINUOUS
 62
     7
  2
*UDIM204
 70
    65
 10
0.0
 20
0.0
 30
0.0
  3
*UDIM204
  0
TEXT
  5
    34
  8
0
  6
CONTINUOUS
 62
     7
 10
-12.7329593253189
 20
128.459846496582
 30
0.0
 40
3.00000002980232
  1
C
 41
0.933333333333334
 72
     1
 11
-11.6329593143914
 21
129.959846511483
 31
0.0
 73
     2
  0
LINE
  5
    35
  8
0
  6
CONTINUOUS
 62
     7
 10
4.51700025291575
 20
60.493537902832
 30
0.0
 11
4.51700025291575
 21
129.459846496582
 31
0.0
  0
LINE
  5
    36
  8
0
  6
CONTINUOUS
 62
     7
 10
-24.4829184525452
 20
127.459846496582
 30
0.0
 11
4.51700025291575
 21
127.459846496582
 31
0.0
  0
LINE
  5
    37
  8
0
  6
CONTINUOUS
 62
     7
 10
-21.5284951753382
 20
127.980790926534
 30
0.0
 11
-24.4829184525452
 21
127.459846496582
 31
0.0
  0
LINE
  5
    38
  8
0
  6
CONTINUOUS
 62
     7
 10
-24.4829184525452
 20
127.459846496582
 30
0.0
 11
-21.5284951753382
 21
126.93890206663
 31
0.0
  0
LINE
  5
    39
  8
0
  6
CONTINUOUS
 62
     7
 10
1.56257697570879
 20
126.93890206663
 30
0.0
 11
4.51700025291575
 21
127.459846496582
 31
0.0
  0
LINE
  5
    3A
  8
0
  6
CONTINUOUS
 62
     7
 10
4.51700025291575
 20
127.459846496582
 30
0.0
 11
1.56257697570879
 21
127.980790926534
 31
0.0
  0
ENDBLK
  5
    3B
  8
0
  6
CONTINUOUS
 62
     7
  0
BLOCK
  5
    3C
  8
0
  6
CONTINUOUS
 62
     7
  2
*HATCH40
 70
    65
 10
0.0
 20
0.0
 30
0.0
  3
*HATCH40
  0
LINE
  5
    3D
  8
0
  6
CONTINUOUS
 62
    52
 10
187.592071533203
 20
168.50016784668
 30
0.0
 11
185.592071533203
 21
166.50016784668
 31
0.0
  0
LINE
  5
    3E
  8
0
  6
CONTINUOUS
 62
    52
 10
191.834716796875
 20
168.50016784668
 30
0.0
 11
189.834716796875
 21
166.50016784668
 31
0.0
  0
LINE
  5
    3F
  8
0
  6
CONTINUOUS
 62
    52
 10
196.077362060547
 20
168.50016784668
 30
0.0
 11
194.077362060547
 21
166.50016784668
 31
0.0
  0
LINE
  5
    40
  8
0
  6
CONTINUOUS
 62
    52
 10
200.320007324219
 20
168.50016784668
 30
0.0
 11
198.320007324219
 21
166.50016784668
 31
0.0
  0
LINE
  5
    41
  8
0
  6
CONTINUOUS
 62
    52
 10
204.562652587891
 20
168.50016784668
 30
0.0
 11
202.562652587891
 21
166.50016784668
 31
0.0
  0
LINE
  5
    42
  8
0
  6
CONTINUOUS
 62
    52
 10
208.805297851563
 20
168.50016784668
 30
0.0
 11
206.805297851563
 21
166.50016784668
 31
0.0
  0
LINE
  5
    43
  8
0
  6
CONTINUOUS
 62
    52
 10
213.047943115234
 20
168.50016784668
 30
0.0
 11
211.047943115234
 21
166.50016784668
 31
0.0
  0
LINE
  5
    44
  8
0
  6
CONTINUOUS
 62
    52
 10
217.290588378906
 20
168.50016784668
 30
0.0
 11
215.290588378906
 21
166.50016784668
 31
0.0
  0
LINE
  5
    45
  8
0
  6
CONTINUOUS
 62
    52
 10
221.533233642578
 20
168.50016784668
 30
0.0
 11
219.533233642578
 21
166.50016784668
 31
0.0
  0
LINE
  5
    46
  8
0
  6
CONTINUOUS
 62
    52
 10
225.77587890625
 20
168.50016784668
 30
0.0
 11
223.77587890625
 21
166.50016784668
 31
0.0
  0
LINE
  5
    47
  8
0
  6
CONTINUOUS
 62
    52
 10
230.018524169922
 20
168.50016784668
 30
0.0
 11
228.018524169922
 21
166.50016784668
 31
0.0
  0
LINE
  5
    48
  8
0
  6
CONTINUOUS
 62
    52
 10
234.261169433594
 20
168.50016784668
 30
0.0
 11
232.261169433594
 21
166.50016784668
 31
0.0
  0
LINE
  5
    49
  8
0
  6
CONTINUOUS
 62
    52
 10
238.503814697266
 20
168.50016784668
 30
0.0
 11
236.503814697266
 21
166.50016784668
 31
0.0
  0
LINE
  5
    4A
  8
0
  6
CONTINUOUS
 62
    52
 10
242.746459960938
 20
168.50016784668
 30
0.0
 11
240.746459960938
 21
166.50016784668
 31
0.0
  0
LINE
  5
    4B
  8
0
  6
CONTINUOUS
 62
    52
 10
246.989105224609
 20
168.50016784668
 30
0.0
 11
244.989105224609
 21
166.50016784668
 31
0.0
  0
LINE
  5
    4C
  8
0
  6
CONTINUOUS
 62
    52
 10
251.231750488281
 20
168.50016784668
 30
0.0
 11
249.231750488281
 21
166.50016784668
 31
0.0
  0
LINE
  5
    4D
  8
0
  6
CONTINUOUS
 62
    52
 10
255.474395751953
 20
168.50016784668
 30
0.0
 11
253.474395751953
 21
166.50016784668
 31
0.0
  0
ENDBLK
  5
    4E
  8
0
  6
CONTINUOUS
 62
     7
  0
BLOCK
  5
    4F
  8
0
  6
CONTINUOUS
 62
     7
  2
*HATCH41
 70
    65
 10
0.0
 20
0.0
 30
0.0
  3
*HATCH41
  0
LINE
  5
    50
  8
0
  6
CONTINUOUS
 62
    52
 10
176.985458374023
 20
168.50016784668
 30
0.0
 11
174.985458374023
 21
166.50016784668
 31
0.0
  0
ENDBLK
  5
    51
  8
0
  6
CONTINUOUS
 62
     7
  0
BLOCK
  5
    52
  8
0
  6
CONTINUOUS
 62
     5
  2
*HATCH42
 70
    65
 10
0.0
 20
0.0
 30
0.0
  3
*HATCH42
  0
LINE
  5
    53
  8
0
  6
CONTINUOUS
 62
    52
 10
45.4635963439941
 20
168.50016784668
 30
0.0
 11
43.4635963439941
 21
166.50016784668
 31
0.0
  0
LINE
  5
    54
  8
0
  6
CONTINUOUS
 62
    52
 10
49.7062339782715
 20
168.50016784668
 30
0.0
 11
47.7062339782715
 21
166.50016784668
 31
0.0
  0
LINE
  5
    55
  8
0
  6
CONTINUOUS
 62
    52
 10
53.9488716125488
 20
168.50016784668
 30
0.0
 11
51.9488716125488
 21
166.50016784668
 31
0.0
  0
ENDBLK
  5
    56
  8
0
  6
CONTINUOUS
 62
     5
  0
BLOCK
  5
    57
  8
0
  6
CONTINUOUS
 62
     5
  2
*HATCH43
 70
    65
 10
0.0
 20
0.0
 30
0.0
  3
*HATCH43
  0
LINE
  5
    58
  8
0
  6
CONTINUOUS
 62
    52
 10
-9.69073486328125
 20
168.50016784668
 30
0.0
 11
-11.6907348632813
 21
166.50016784668
 31
0.0
  0
LINE
  5
    59
  8
0
  6
CONTINUOUS
 62
    52
 10
-5.44809436798096
 20
168.50016784668
 30
0.0
 11
-7.44809341430664
 21
166.50016784668
 31
0.0
  0
LINE
  5
    5A
  8
0
  6
CONTINUOUS
 62
    52
 10
-1.20545387268066
 20
168.50016784668
 30
0.0
 11
-3.20545220375061
 21
166.50016784668
 31
0.0
  0
LINE
  5
    5B
  8
0
  6
CONTINUOUS
 62
    52
 10
3.03718662261963
 20
168.50016784668
 30
0.0
 11
1.03718876838684
 21
166.50016784668
 31
0.0
  0
LINE
  5
    5C
  8
0
  6
CONTINUOUS
 62
    52
 10
7.27982711791992
 20
168.50016784668
 30
0.0
 11
5.27982997894287
 21
166.50016784668
 31
0.0
  0
LINE
  5
    5D
  8
0
  6
CONTINUOUS
 62
    52
 10
11.5224685668945
 20
168.50016784668
 30
0.0
 11
9.52247142791748
 21
166.50016784668
 31
0.0
  0
LINE
  5
    5E
  8
0
  6
CONTINUOUS
 62
    52
 10
15.7651100158691
 20
168.50016784668
 30
0.0
 11
13.7651128768921
 21
166.50016784668
 31
0.0
  0
LINE
  5
    5F
  8
0
  6
CONTINUOUS
 62
    52
 10
20.0077514648438
 20
168.50016784668
 30
0.0
 11
18.0077533721924
 21
166.50016784668
 31
0.0
  0
LINE
  5
    60
  8
0
  6
CONTINUOUS
 62
    52
 10
24.2503929138184
 20
168.50016784668
 30
0.0
 11
22.250394821167
 21
166.50016784668
 31
0.0
  0
LINE
  5
    61
  8
0
  6
CONTINUOUS
 62
    52
 10
28.493034362793
 20
168.50016784668
 30
0.0
 11
26.4930362701416
 21
166.50016784668
 31
0.0
  0
LINE
  5
    62
  8
0
  6
CONTINUOUS
 62
    52
 10
32.7356758117676
 20
168.50016784668
 30
0.0
 11
30.7356777191162
 21
166.50016784668
 31
0.0
  0
LINE
  5
    63
  8
0
  6
CONTINUOUS
 62
    52
 10
35.4804344177246
 20
167.002288818359
 30
0.0
 11
34.9783134460449
 21
166.50016784668
 31
0.0
  0
ENDBLK
  5
    64
  8
0
  6
CONTINUOUS
 62
     5
  0
BLOCK
  5
    65
  8
0
  6
CONTINUOUS
 62
     7
  2
*UDIM205
 70
    65
 10
0.0
 20
0.0
 30
0.0
  3
*UDIM205
  0
TEXT
  5
    66
  8
0
  6
CONTINUOUS
 62
     7
 10
-174.032136609519
 20
138.068481451356
 30
0.0
 40
3.00000002980232
  1
269,5
 50
359.999999948034
 41
0.933333333333333
 72
     1
 11
-167.332136541608
 21
139.568481460214
 31
0.0
 73
     2
  0
LINE
  5
    67
  8
0
  6
CONTINUOUS
 62
     7
 10
-99.6820983886719
 20
120.976647146578
 30
0.0
 11
-99.6820983886719
 21
139.068481445313
 31
0.0
  0
LINE
  5
    68
  8
0
  6
CONTINUOUS
 62
     7
 10
-234.432167053228
 20
129.561364128124
 30
0.0
 11
-234.432167053228
 21
139.068481445313
 31
0.0
  0
LINE
  5
    69
  8
0
  6
CONTINUOUS
 62
     7
 10
-99.6820983886719
 20
137.068481445313
 30
0.0
 11
-234.432167053228
 21
137.068481445313
 31
0.0
  0
LINE
  5
    6A
  8
0
  6
CONTINUOUS
 62
     7
 10
-102.636521665879
 20
136.547537015361
 30
0.0
 11
-99.6820983886719
 21
137.068481445313
 31
0.0
  0
LINE
  5
    6B
  8
0
  6
CONTINUOUS
 62
     7
 10
-99.6820983886719
 20
137.068481445313
 30
0.0
 11
-102.636521665879
 21
137.589425875264
 31
0.0
  0
LINE
  5
    6C
  8
0
  6
CONTINUOUS
 62
     7
 10
-231.477743776021
 20
137.589425875264
 30
0.0
 11
-234.432167053228
 21
137.068481445313
 31
0.0
  0
LINE
  5
    6D
  8
0
  6
CONTINUOUS
 62
     7
 10
-234.432167053228
 20
137.068481445313
 30
0.0
 11
-231.477743776021
 21
136.547537015361
 31
0.0
  0
ENDBLK
  5
    6E
  8
0
  6
CONTINUOUS
 62
     7
  0
BLOCK
  5
    6F
  8
0
  6
CONTINUOUS
 62
     7
  2
*UDIM206
 70
    65
 10
0.0
 20
0.0
 30
0.0
  3
*UDIM206
  0
TEXT
  5
    70
  8
0
  6
CONTINUOUS
 62
     7
 10
-241.182174790271
 20
138.068481446305
 30
0.0
 40
3.00000002980232
  1
2
 50
359.999999948034
 41
0.933333333333334
 72
     1
 11
-240.08217477799
 21
139.568481460214
 31
0.0
 73
     2
  0
LINE
  5
    71
  8
0
  6
CONTINUOUS
 62
     7
 10
-235.432167053228
 20
129.985606552366
 30
0.0
 11
-235.432167053228
 21
139.068481445313
 31
0.0
  0
LINE
  5
    72
  8
0
  6
CONTINUOUS
 62
     7
 10
-234.432167053228
 20
137.068481445313
 30
0.0
 11
-241.182174788918
 21
137.068481445313
 31
0.0
  0
LINE
  5
    73
  8
0
  6
CONTINUOUS
 62
     7
 10
-231.477743776021
 20
137.589425875264
 30
0.0
 11
-234.432167053228
 21
137.068481445313
 31
0.0
  0
LINE
  5
    74
  8
0
  6
CONTINUOUS
 62
     7
 10
-234.432167053228
 20
137.068481445313
 30
0.0
 11
-231.477743776021
 21
136.547537015361
 31
0.0
  0
LINE
  5
    75
  8
0
  6
CONTINUOUS
 62
     7
 10
-238.386590330435
 20
136.547537015361
 30
0.0
 11
-235.432167053228
 21
137.068481445313
 31
0.0
  0
LINE
  5
    76
  8
0
  6
CONTINUOUS
 62
     7
 10
-235.432167053228
 20
137.068481445313
 30
0.0
 11
-238.386590330435
 21
137.589425875264
 31
0.0
  0
ENDBLK
  5
    77
  8
0
  6
CONTINUOUS
 62
     7
  0
BLOCK
  5
    78
  8
0
  6
CONTINUOUS
 62
     7
  2
*UDIM207
 70
    65
 10
0.0
 20
0.0
 30
0.0
  3
*UDIM207
  0
TEXT
  5
    79
  8
0
  6
CONTINUOUS
 62
     7
 10
-264.246401650079
 20
147.825958256733
 30
0.0
 40
3.00000002980232
  1
27,5
 50
359.999999948034
 41
0.933333333333333
 72
     1
 11
-258.946401596075
 21
149.325958266854
 31
0.0
 73
     2
  0
TEXT
  5
    7A
  8
0
  6
CONTINUOUS
 62
     7
 10
-253.096401532856
 20
147.825958287039
 30
0.0
 40
3.00000002980232
  1
       CORSA DI SEZIONAMENTO
 50
359.999999948034
 41
0.933333333333333
 72
     1
 11
-214.196401145067
 21
149.325958266854
 31
0.0
 73
     2
  0
LINE
  5
    7B
  8
0
  6
CONTINUOUS
 62
     7
 10
-237.182167053228
 20
96.2402191162191
 30
0.0
 11
-237.182167053228
 21
148.825958251953
 31
0.0
  0
LINE
  5
    7C
  8
0
  6
CONTINUOUS
 62
     7
 10
-250.932167053228
 20
82.2403106689535
 30
0.0
 11
-250.932167053228
 21
148.825958251953
 31
0.0
  0
LINE
  5
    7D
  8
0
  6
CONTINUOUS
 62
     7
 10
-175.29640075863
 20
146.825958251953
 30
0.0
 11
-264.246401648726
 21
146.825958251953
 31
0.0
  0
LINE
  5
    7E
  8
0
  6
CONTINUOUS
 62
     7
 10
-234.227743776021
 20
147.346902681905
 30
0.0
 11
-237.182167053228
 21
146.825958251953
 31
0.0
  0
LINE
  5
    7F
  8
0
  6
CONTINUOUS
 62
     7
 10
-237.182167053228
 20
146.825958251953
 30
0.0
 11
-234.227743776021
 21
146.305013822001
 31
0.0
  0
LINE
  5
    80
  8
0
  6
CONTINUOUS
 62
     7
 10
-253.886590330435
 20
146.305013822001
 30
0.0
 11
-250.932167053228
 21
146.825958251953
 31
0.0
  0
LINE
  5
    81
  8
0
  6
CONTINUOUS
 62
     7
 10
-250.932167053228
 20
146.825958251953
 30
0.0
 11
-253.886590330435
 21
147.346902681905
 31
0.0
  0
ENDBLK
  5
    82
  8
0
  6
CONTINUOUS
 62
     7
  0
BLOCK
  5
    83
  8
0
  6
CONTINUOUS
 62
     7
  2
*UDIM208
 70
    65
 10
0.0
 20
0.0
 30
0.0
  3
*UDIM208
  0
TEXT
  5
    84
  8
0
  6
CONTINUOUS
 62
     7
 10
-260.935386661247
 20
50.8153106228914
 30
0.0
 40
3.00000002980232
  1
105
 50
89.9999999480344
 41
0.933333333333333
 72
     1
 11
-262.435386672616
 21
54.715310662993
 31
0.0
 73
     2
  0
LINE
  5
    85
  8
0
  6
CONTINUOUS
 62
     7
 10
-235.432167053228
 20
28.7403106689535
 30
0.0
 11
-261.935386657715
 21
28.7403106689535
 31
0.0
  0
LINE
  5
    86
  8
0
  6
CONTINUOUS
 62
     7
 10
-235.432167053228
 20
81.2403106689535
 30
0.0
 11
-261.935386657715
 21
81.2403106689535
 31
0.0
  0
LINE
  5
    87
  8
0
  6
CONTINUOUS
 62
     7
 10
-259.935386657715
 20
28.7403106689535
 30
0.0
 11
-259.935386657715
 21
81.2403106689535
 31
0.0
  0
LINE
  5
    88
  8
0
  6
CONTINUOUS
 62
     7
 10
-260.456331087667
 20
31.6947339461605
 30
0.0
 11
-259.935386657715
 21
28.7403106689535
 31
0.0
  0
LINE
  5
    89
  8
0
  6
CONTINUOUS
 62
     7
 10
-259.935386657715
 20
28.7403106689535
 30
0.0
 11
-259.414442227763
 21
31.6947339461605
 31
0.0
  0
LINE
  5
    8A
  8
0
  6
CONTINUOUS
 62
     7
 10
-259.414442227763
 20
78.2858873917465
 30
0.0
 11
-259.935386657715
 21
81.2403106689535
 31
0.0
  0
LINE
  5
    8B
  8
0
  6
CONTINUOUS
 62
     7
 10
-259.935386657715
 20
81.2403106689535
 30
0.0
 11
-260.456331087667
 21
78.2858873917465
 31
0.0
  0
ENDBLK
  5
    8C
  8
0
  6
CONTINUOUS
 62
     7
  0
BLOCK
  5
    8D
  8
0
  6
CONTINUOUS
 62
     7
  2
*UDIM209
 70
    65
 10
0.0
 20
0.0
 30
0.0
  3
*UDIM209
  0
TEXT
  5
    8E
  8
0
  6
CONTINUOUS
 62
     7
 10
56.858756704983
 20
81.6005419643387
 30
0.0
 40
3.00000002980232
  1
7
 50
397.208926617964
 41
0.933333333333334
 72
     1
 11
56.8277511794267
 21
83.4603910781458
 31
0.0
 73
     2
  0
TEXT
  5
    8F
  8
0
  6
CONTINUOUS
 62
     7
 10
54.3499842078925
 20
79.6956638526403
 30
0.0
 40
3.00000002980232
  1
Ø
 50
397.208926617964
 41
0.933333333333334
 72
     1
 11
54.3189786823363
 21
81.5555129664474
 31
0.0
 73
     2
  0
LINE
  5
    90
  8
0
  6
CONTINUOUS
 62
     7
 10
73.1830033783417
 20
92.739734613777
 30
0.0
 11
54.9547074210986
 21
78.8992281418742
 31
0.0
  0
LINE
  5
    91
  8
0
  6
CONTINUOUS
 62
     7
 10
75.2209843943255
 20
94.941241683602
 30
0.0
 11
73.1830033783417
 21
92.739734613777
 31
0.0
  0
LINE
  5
    92
  8
0
  6
CONTINUOUS
 62
     7
 10
73.1830033783417
 20
92.739734613777
 30
0.0
 11
75.8510387682281
 21
94.1114441888378
 31
0.0
  0
LINE
  5
    93
  8
0
  6
CONTINUOUS
 62
     7
 10
69.7512598683698
 20
89.4799619296793
 30
0.0
 11
71.7892408843537
 21
91.6814689995043
 31
0.0
  0
LINE
  5
    94
  8
0
  6
CONTINUOUS
 62
     7
 10
71.7892408843537
 20
91.6814689995043
 30
0.0
 11
69.1212054944673
 21
90.3097594244434
 31
0.0
  0
ENDBLK
  5
    95
  8
0
  6
CONTINUOUS
 62
     7
  0
BLOCK
  5
    96
  8
0
  6
CONTINUOUS
 62
     7
  2
*UDIM210
 70
    65
 10
0.0
 20
0.0
 30
0.0
  3
*UDIM210
  0
TEXT
  5
    97
  8
0
  6
CONTINUOUS
 62
     7
 10
78.3111220825704
 20
149.086063395602
 30
0.0
 40
3.00000002980232
  1
112
 50
359.999999844103
 41
0.933333333333333
 72
     1
 11
82.2111221253872
 21
150.586063399911
 31
0.0
 73
     2
  0
LINE
  5
    98
  8
0
  6
CONTINUOUS
 62
     7
 10
68.4861221313477
 20
124.960601806641
 30
0.0
 11
68.4861221313477
 21
150.08606338501
 31
0.0
  0
LINE
  5
    99
  8
0
  6
CONTINUOUS
 62
     7
 10
96.4861221313477
 20
124.960601806641
 30
0.0
 11
96.4861221313477
 21
150.08606338501
 31
0.0
  0
LINE
  5
    9A
  8
0
  6
CONTINUOUS
 62
     7
 10
68.4861221313477
 20
148.08606338501
 30
0.0
 11
96.4861221313477
 21
148.08606338501
 31
0.0
  0
LINE
  5
    9B
  8
0
  6
CONTINUOUS
 62
     7
 10
71.4405454085546
 20
148.607007814961
 30
0.0
 11
68.4861221313477
 21
148.08606338501
 31
0.0
  0
LINE
  5
    9C
  8
0
  6
CONTINUOUS
 62
     7
 10
68.4861221313477
 20
148.08606338501
 30
0.0
 11
71.4405454085546
 21
147.565118955058
 31
0.0
  0
LINE
  5
    9D
  8
0
  6
CONTINUOUS
 62
     7
 10
93.5316988541407
 20
147.565118955058
 30
0.0
 11
96.4861221313477
 21
148.08606338501
 31
0.0
  0
LINE
  5
    9E
  8
0
  6
CONTINUOUS
 62
     7
 10
96.4861221313477
 20
148.08606338501
 30
0.0
 11
93.5316988541407
 21
148.607007814961
 31
0.0
  0
ENDBLK
  5
    9F
  8
0
  6
CONTINUOUS
 62
     7
  0
BLOCK
  5
    A0
  8
0
  6
CONTINUOUS
 62
     7
  2
*UDIM211
 70
    65
 10
0.0
 20
0.0
 30
0.0
  3
*UDIM211
  0
TEXT
  5
    A1
  8
0
  6
CONTINUOUS
 62
     7
 10
79.7111220964781
 20
140.906593329544
 30
0.0
 40
3.00000002980232
  1
80
 50
359.999999844103
 41
0.933333333333333
 72
     1
 11
82.2111221253872
 21
142.406593337655
 31
0.0
 73
     2
  0
LINE
  5
    A2
  8
0
  6
CONTINUOUS
 62
     7
 10
72.4861221313477
 20
130.335601806641
 30
0.0
 11
72.4861221313477
 21
141.906593322754
 31
0.0
  0
LINE
  5
    A3
  8
0
  6
CONTINUOUS
 62
     7
 10
92.4861221313477
 20
130.335601806641
 30
0.0
 11
92.4861221313477
 21
141.906593322754
 31
0.0
  0
LINE
  5
    A4
  8
0
  6
CONTINUOUS
 62
     7
 10
72.4861221313477
 20
139.906593322754
 30
0.0
 11
92.4861221313477
 21
139.906593322754
 31
0.0
  0
LINE
  5
    A5
  8
0
  6
CONTINUOUS
 62
     7
 10
75.4405454085546
 20
140.427537752706
 30
0.0
 11
72.4861221313477
 21
139.906593322754
 31
0.0
  0
LINE
  5
    A6
  8
0
  6
CONTINUOUS
 62
     7
 10
72.4861221313477
 20
139.906593322754
 30
0.0
 11
75.4405454085546
 21
139.385648892802
 31
0.0
  0
LINE
  5
    A7
  8
0
  6
CONTINUOUS
 62
     7
 10
89.5316988541407
 20
139.385648892802
 30
0.0
 11
92.4861221313477
 21
139.906593322754
 31
0.0
  0
LINE
  5
    A8
  8
0
  6
CONTINUOUS
 62
     7
 10
92.4861221313477
 20
139.906593322754
 30
0.0
 11
89.5316988541407
 21
140.427537752706
 31
0.0
  0
ENDBLK
  5
    A9
  8
0
  6
CONTINUOUS
 62
     7
  0
BLOCK
  5
    AA
  8
0
  6
CONTINUOUS
 62
     7
  2
*UDIM212
 70
    65
 10
0.0
 20
0.0
 30
0.0
  3
*UDIM212
  0
TEXT
  5
    AB
  8
0
  6
CONTINUOUS
 62
     7
 10
41.4653816117274
 20
105.785601757865
 30
0.0
 40
3.00000002980232
  1
142
 50
449.999999844103
 41
0.933333333333333
 72
     1
 11
39.9653816074133
 21
109.68560180068
 31
0.0
 73
     2
  0
LINE
  5
    AC
  8
0
  6
CONTINUOUS
 62
     7
 10
69.8611221313477
 20
127.710601806641
 30
0.0
 11
40.4653816223145
 21
127.710601806641
 31
0.0
  0
LINE
  5
    AD
  8
0
  6
CONTINUOUS
 62
     7
 10
69.8611221313477
 20
92.2106018066406
 30
0.0
 11
40.4653816223145
 21
92.2106018066406
 31
0.0
  0
LINE
  5
    AE
  8
0
  6
CONTINUOUS
 62
     7
 10
42.4653816223145
 20
127.710601806641
 30
0.0
 11
42.4653816223145
 21
92.2106018066406
 31
0.0
  0
LINE
  5
    AF
  8
0
  6
CONTINUOUS
 62
     7
 10
42.9863260522661
 20
124.756178529434
 30
0.0
 11
42.4653816223145
 21
127.710601806641
 31
0.0
  0
LINE
  5
    B0
  8
0
  6
CONTINUOUS
 62
     7
 10
42.4653816223145
 20
127.710601806641
 30
0.0
 11
41.9444371923628
 21
124.756178529434
 31
0.0
  0
LINE
  5
    B1
  8
0
  6
CONTINUOUS
 62
     7
 10
41.9444371923628
 20
95.1650250838476
 30
0.0
 11
42.4653816223145
 21
92.2106018066406
 31
0.0
  0
LINE
  5
    B2
  8
0
  6
CONTINUOUS
 62
     7
 10
42.4653816223145
 20
92.2106018066406
 30
0.0
 11
42.9863260522661
 21
95.1650250838476
 31
0.0
  0
ENDBLK
  5
    B3
  8
0
  6
CONTINUOUS
 62
     7
  0
BLOCK
  5
    B4
  8
0
  6
CONTINUOUS
 62
     7
  2
*UDIM213
 70
    65
 10
0.0
 20
0.0
 30
0.0
  3
*UDIM213
  0
TEXT
  5
    B5
  8
0
  6
CONTINUOUS
 62
     7
 10
50.8376903428065
 20
105.785601757865
 30
0.0
 40
3.00000002980232
  1
112
 50
449.999999844103
 41
0.933333333333333
 72
     1
 11
49.3376903384924
 21
109.68560180068
 31
0.0
 73
     2
  0
LINE
  5
    B6
  8
0
  6
CONTINUOUS
 62
     7
 10
67.4861221313477
 20
123.960601806641
 30
0.0
 11
49.8376903533936
 21
123.960601806641
 31
0.0
  0
LINE
  5
    B7
  8
0
  6
CONTINUOUS
 62
     7
 10
67.4861221313477
 20
95.9606018066406
 30
0.0
 11
49.8376903533936
 21
95.9606018066406
 31
0.0
  0
LINE
  5
    B8
  8
0
  6
CONTINUOUS
 62
     7
 10
51.8376903533936
 20
123.960601806641
 30
0.0
 11
51.8376903533936
 21
95.9606018066406
 31
0.0
  0
LINE
  5
    B9
  8
0
  6
CONTINUOUS
 62
     7
 10
52.3586347833452
 20
121.006178529434
 30
0.0
 11
51.8376903533936
 21
123.960601806641
 31
0.0
  0
LINE
  5
    BA
  8
0
  6
CONTINUOUS
 62
     7
 10
51.8376903533936
 20
123.960601806641
 30
0.0
 11
51.3167459234419
 21
121.006178529434
 31
0.0
  0
LINE
  5
    BB
  8
0
  6
CONTINUOUS
 62
     7
 10
51.3167459234419
 20
98.9150250838476
 30
0.0
 11
51.8376903533936
 21
95.9606018066406
 31
0.0
  0
LINE
  5
    BC
  8
0
  6
CONTINUOUS
 62
     7
 10
51.8376903533936
 20
95.9606018066406
 30
0.0
 11
52.3586347833452
 21
98.9150250838476
 31
0.0
  0
ENDBLK
  5
    BD
  8
0
  6
CONTINUOUS
 62
     7
  0
ENDSEC
  0
SECTION
  2
ENTITIES
  0
LINE
  5
    BE
  8
0
  6
CONTINUOUS
 62
     7
 10
4.51700025291575
 20
43.493537902832
 30
0.0
 11
4.51700025291575
 21
59.493537902832
 31
0.0
  0
LINE
  5
    BF
  8
0
  6
CONTINUOUS
 62
     7
 10
1.76708154745484
 20
59.493537902832
 30
0.0
 11
4.51700025291575
 21
59.493537902832
 31
0.0
  0
LINE
  5
    C0
  8
0
  6
CONTINUOUS
 62
     7
 10
1.76708154745484
 20
43.493537902832
 30
0.0
 11
4.51700025291575
 21
43.493537902832
 31
0.0
  0
LINE
  5
    C1
  8
0
  6
CONTINUOUS
 62
     7
 10
-49.4829921176897
 20
105.615217444818
 30
0.0
 11
-35.8580188205706
 21
105.615217444818
 31
0.0
  0
LINE
  5
    C2
  8
0
  6
CONTINUOUS
 62
     7
 10
-30.6080188205706
 20
105.615217444818
 30
0.0
 11
-18.3580188205706
 21
105.615217444818
 31
0.0
  0
LINE
  5
    C3
  8
0
  6
CONTINUOUS
 62
     7
 10
-13.1080150058733
 20
105.615217444818
 30
0.0
 11
0.516984994126688
 21
105.615217444818
 31
0.0
  0
LINE
  5
    C4
  8
0
  6
CONTINUOUS
 62
     7
 10
-48.9829921176897
 20
117.615217444818
 30
0.0
 11
-34.7329921176897
 21
117.615217444818
 31
0.0
  0
LINE
  5
    C5
  8
0
  6
CONTINUOUS
 62
     7
 10
-31.7329997470843
 20
117.615217444818
 30
0.0
 11
-17.2329921176897
 21
117.615217444818
 31
0.0
  0
LINE
  5
    C6
  8
0
  6
CONTINUOUS
 62
     7
 10
-14.2329997470843
 20
117.615217444818
 30
0.0
 11
1.70078823102813E-2
 21
117.615217444818
 31
0.0
  0
LINE
  5
    C7
  8
0
  6
CONTINUOUS
 62
     7
 10
-49.336544781065
 20
117.468772807281
 30
0.0
 11
-48.9829910090304
 21
117.615219035564
 31
0.0
  0
LINE
  5
    C8
  8
0
  6
CONTINUOUS
 62
     7
 10
-49.4829912628163
 20
117.11521993134
 30
0.0
 11
-49.3365450345332
 21
117.468773703375
 31
0.0
  0
LINE
  5
    C9
  8
0
  6
CONTINUOUS
 62
     7
 10
-49.482916073541
 20
105.365217444862
 30
0.0
 11
-49.482916073541
 21
117.115217444862
 31
0.0
  0
LINE
  5
    CA
  8
0
  6
CONTINUOUS
 62
     7
 10
0.516984994126688
 20
105.365217444818
 30
0.0
 11
0.516984994126688
 21
117.115217444817
 31
0.0
  0
LINE
  5
    CB
  8
0
  6
CONTINUOUS
 62
     7
 10
0.370539343380642
 20
117.468773261634
 30
0.0
 11
0.516985571663781
 21
117.115219489599
 31
0.0
  0
LINE
  5
    CC
  8
0
  6
CONTINUOUS
 62
     7
 10
1.70020567408642E-2
 20
117.615211850555
 30
0.0
 11
0.370532931679378
 21
117.468765622689
 31
0.0
  0
LINE
  5
    CD
  8
0
  6
CONTINUOUS
 62
     7
 10
-17.2329921176897
 20
114.615217444818
 30
0.0
 11
-14.2329997470843
 21
114.615217444818
 31
0.0
  0
LINE
  5
    CE
  8
0
  6
CONTINUOUS
 62
     7
 10
-17.2329921176897
 20
114.615209815423
 30
0.0
 11
-17.2329921176897
 21
117.615217444818
 31
0.0
  0
LINE
  5
    CF
  8
0
  6
CONTINUOUS
 62
     7
 10
-14.2329997470843
 20
114.615225074212
 30
0.0
 11
-14.2329997470843
 21
117.615217444818
 31
0.0
  0
LINE
  5
    D0
  8
0
  6
CONTINUOUS
 62
     7
 10
-34.7329921176897
 20
114.615217444818
 30
0.0
 11
-31.7329997470843
 21
114.615217444818
 31
0.0
  0
LINE
  5
    D1
  8
0
  6
CONTINUOUS
 62
     7
 10
-31.7329997470843
 20
114.615225074212
 30
0.0
 11
-31.7329997470843
 21
117.615217444818
 31
0.0
  0
LINE
  5
    D2
  8
0
  6
CONTINUOUS
 62
     7
 10
-34.7329921176897
 20
114.615209815423
 30
0.0
 11
-34.7329921176897
 21
117.615217444818
 31
0.0
  0
LINE
  5
    D3
  8
0
  6
CONTINUOUS
 62
     7
 10
-13.1080226347673
 20
107.615217452847
 30
0.0
 11
-13.1080150053728
 21
105.615217452847
 31
0.0
  0
LINE
  5
    D4
  8
0
  6
CONTINUOUS
 62
     7
 10
-18.3580188205706
 20
105.615217444818
 30
0.0
 11
-18.3580188205706
 21
107.615217444818
 31
0.0
  0
LINE
  5
    D5
  8
0
  6
CONTINUOUS
 62
     7
 10
-30.6080188190776
 20
105.61521745195
 30
0.0
 11
-30.6080035602886
 21
107.61521745195
 31
0.0
  0
LINE
  5
    D6
  8
0
  6
CONTINUOUS
 62
     7
 10
-35.8580188192304
 20
105.61521745195
 30
0.0
 11
-35.8580035604414
 21
107.61521745195
 31
0.0
  0
LINE
  5
    D7
  8
0
  6
CONTINUOUS
 62
     7
 10
1.76692616321361
 20
105.36521744487
 30
0.0
 11
1.76692616321361
 21
116.215223548385
 31
0.0
  0
LINE
  5
    D8
  8
0
  6
CONTINUOUS
 62
     7
 10
0.517007882310281
 20
116.215223548333
 30
0.0
 11
1.76700788231028
 21
116.215223548333
 31
0.0
  0
LINE
  5
    D9
  8
0
  6
CONTINUOUS
 62
     7
 10
-50.7329308283886
 20
105.365217444847
 30
0.0
 11
-50.7329308283886
 21
116.215223548362
 31
0.0
  0
LINE
  5
    DA
  8
0
  6
CONTINUOUS
 62
     7
 10
-50.7329921176897
 20
116.215223548333
 30
0.0
 11
-49.4829921176897
 21
116.215223548333
 31
0.0
  0
LINE
  5
    DB
  8
0
  6
CONTINUOUS
 62
   212
 10
1.76700025291575
 20
81.1152174448175
 30
0.0
 11
1.76700025291575
 21
105.365217444818
 31
0.0
  0
LINE
  5
    DC
  8
0
  6
CONTINUOUS
 62
   212
 10
-50.7329997470843
 20
95.243537902832
 30
0.0
 11
-50.7329997470843
 21
105.365217444818
 31
0.0
  0
LINE
  5
    DD
  8
0
  6
CONTINUOUS
 62
   212
 10
-50.7329997470843
 20
105.365217444818
 30
0.0
 11
1.76700025291575
 21
105.365217444818
 31
0.0
  0
LINE
  5
    DE
  8
0
  6
CONTINUOUS
 62
   212
 10
-50.7329997470843
 20
37.9902288889093
 30
0.0
 11
-50.7329997470843
 21
38.4902288889093
 31
0.0
  0
LINE
  5
    DF
  8
0
  6
CONTINUOUS
 62
   212
 10
-50.7329997470843
 20
44.4902288889093
 30
0.0
 11
-50.7329997470843
 21
44.9902288889093
 31
0.0
  0
LINE
  5
    E0
  8
0
  6
CONTINUOUS
 62
   212
 10
-50.7329997470843
 20
54.7402288889093
 30
0.0
 11
-50.7329997470843
 21
55.2402288889093
 31
0.0
  0
LINE
  5
    E1
  8
0
  6
CONTINUOUS
 62
   212
 10
-50.7329997470843
 20
61.240225074212
 30
0.0
 11
-50.7329997470843
 21
61.740225074212
 31
0.0
  0
LINE
  5
    E2
  8
0
  6
CONTINUOUS
 62
   212
 10
1.76700025291575
 20
80.990225074212
 30
0.0
 11
1.76700025291575
 21
81.1152174448175
 31
0.0
  0
LINE
  5
    E3
  8
0
  6
CONTINUOUS
 62
   212
 10
1.01700025291575
 20
81.2402174448175
 30
0.0
 11
1.01700025291575
 21
102.865217444818
 31
0.0
  0
LINE
  5
    E4
  8
0
  6
CONTINUOUS
 62
   212
 10
-49.9829997470843
 20
95.243537902832
 30
0.0
 11
-49.9829997470843
 21
102.865217444818
 31
0.0
  0
LINE
  5
    E5
  8
0
  6
CONTINUOUS
 62
   212
 10
-49.9829997470843
 20
102.865217444818
 30
0.0
 11
1.01700025291575
 21
102.865217444818
 31
0.0
  0
LINE
  5
    E6
  8
0
  6
CONTINUOUS
 62
    98
 10
-2.48301500587331
 20
2.71843695394226
 30
0.0
 11
1.76698499412669
 21
2.71843695394226
 31
0.0
  0
LINE
  5
    E7
  8
0
  6
CONTINUOUS
 62
    98
 10
-42.7330150058733
 20
2.71843695394226
 30
0.0
 11
-6.23301500587331
 21
2.71843695394226
 31
0.0
  0
LINE
  5
    E8
  8
0
  6
CONTINUOUS
 62
    98
 10
-50.7330150058733
 20
2.71843695394226
 30
0.0
 11
-46.4830150058733
 21
2.71843695394226
 31
0.0
  0
LINE
  5
    E9
  8
0
  6
CONTINUOUS
 62
    98
 10
1.76698499412669
 20
2.71843695394226
 30
0.0
 11
1.76698499412669
 21
14.7435398101807
 31
0.0
  0
LINE
  5
    EA
  8
0
  6
CONTINUOUS
 62
    98
 10
-50.7330150058733
 20
2.71843695394226
 30
0.0
 11
-50.7330150058733
 21
14.7435398101807
 31
0.0
  0
LINE
  5
    EB
  8
0
  6
CONTINUOUS
 62
    98
 10
-6.23301500587331
 20
2.71843695394226
 30
0.0
 11
-2.48301500587331
 21
2.71843695394226
 31
0.0
  0
LINE
  5
    EC
  8
0
  6
CONTINUOUS
 62
    98
 10
-46.4830150058733
 20
2.71843695394226
 30
0.0
 11
-42.7330150058733
 21
2.71843695394226
 31
0.0
  0
LINE
  5
    ED
  8
0
  6
CONTINUOUS
 62
   212
 10
-10.4830150058733
 20
2.46843695394226
 30
0.0
 11
-10.4830150058733
 21
2.71843695394226
 31
0.0
  0
LINE
  5
    EE
  8
0
  6
CONTINUOUS
 62
   212
 10
-8.48301500587331
 20
2.46843695394226
 30
0.0
 11
-8.48301500587331
 21
2.71843695394226
 31
0.0
  0
LINE
  5
    EF
  8
0
  6
CONTINUOUS
 62
   212
 10
-40.4830150058733
 20
2.46843695394226
 30
0.0
 11
-40.4830150058733
 21
2.71843695394226
 31
0.0
  0
LINE
  5
    F0
  8
0
  6
CONTINUOUS
 62
   212
 10
-38.4830150058733
 20
2.46843695394226
 30
0.0
 11
-38.4830150058733
 21
2.71843695394226
 31
0.0
  0
LINE
  5
    F1
  8
0
  6
CONTINUOUS
 62
   218
 10
0.516984994126688
 20
-9.03156256922058
 30
0.0
 11
0.516984994126688
 21
-8.13156295069031
 31
0.0
  0
LINE
  5
    F2
  8
0
  6
CONTINUOUS
 62
   218
 10
0.516984994126688
 20
-8.13156295069031
 30
0.0
 11
1.76698499412669
 21
-8.13156295069031
 31
0.0
  0
LINE
  5
    F3
  8
0
  6
CONTINUOUS
 62
   218
 10
1.76698499412669
 20
-8.13156247385315
 30
0.0
 11
1.76698499412669
 21
2.71843600026794
 31
0.0
  0
LINE
  5
    F4
  8
0
  6
CONTINUOUS
 62
   218
 10
-50.7330150058733
 20
-8.13156295069031
 30
0.0
 11
-50.7330150058733
 21
2.71843838445373
 31
0.0
  0
LINE
  5
    F5
  8
0
  6
CONTINUOUS
 62
   218
 10
-50.7330150058733
 20
-8.13156295069031
 30
0.0
 11
-49.4830150058733
 21
-8.13156295069031
 31
0.0
  0
LINE
  5
    F6
  8
0
  6
CONTINUOUS
 62
   218
 10
-49.4830150058733
 20
-9.03156256922058
 30
0.0
 11
-49.4830150058733
 21
-8.13156295069031
 31
0.0
  0
LINE
  5
    F7
  8
0
  6
CONTINUOUS
 62
   218
 10
-48.9830150058733
 20
-9.53156256922058
 30
0.0
 11
-34.1080150058733
 21
-9.53156256922058
 31
0.0
  0
LINE
  5
    F8
  8
0
  6
CONTINUOUS
 62
   218
 10
-32.3580150058733
 20
-9.53156256922058
 30
0.0
 11
-16.6080150058733
 21
-9.53156256922058
 31
0.0
  0
LINE
  5
    F9
  8
0
  6
CONTINUOUS
 62
   218
 10
-14.8580150058733
 20
-9.53156256922058
 30
0.0
 11
1.69849941266875E-2
 21
-9.53156256922058
 31
0.0
  0
LINE
  5
    FA
  8
0
  6
CONTINUOUS
 62
   218
 10
-49.4830150058733
 20
-8.13156295069031
 30
0.0
 11
-49.4830150058733
 21
1.96843743077942
 31
0.0
  0
LINE
  5
    FB
  8
0
  6
CONTINUOUS
 62
   218
 10
-47.4830150058733
 20
2.46843695394226
 30
0.0
 11
-35.8580150058733
 21
2.46843695394226
 31
0.0
  0
LINE
  5
    FC
  8
0
  6
CONTINUOUS
 62
   218
 10
-35.8580150058733
 20
0.468437073151549
 30
0.0
 11
-35.8580150058733
 21
2.46843695394226
 31
0.0
  0
LINE
  5
    FD
  8
0
  6
CONTINUOUS
 62
   218
 10
-30.6080150058733
 20
0.468437073151549
 30
0.0
 11
-30.6080150058733
 21
2.46843695394226
 31
0.0
  0
LINE
  5
    FE
  8
0
  6
CONTINUOUS
 62
   218
 10
-30.6080150058733
 20
2.46843695394226
 30
0.0
 11
-18.3580150058733
 21
2.46843695394226
 31
0.0
  0
LINE
  5
    FF
  8
0
  6
CONTINUOUS
 62
   218
 10
-18.3580150058733
 20
0.468437073151549
 30
0.0
 11
-18.3580150058733
 21
2.46843695394226
 31
0.0
  0
LINE
  5
   100
  8
0
  6
CONTINUOUS
 62
   218
 10
-13.1080150058733
 20
0.468437073151549
 30
0.0
 11
-13.1080150058733
 21
2.46843695394226
 31
0.0
  0
LINE
  5
   101
  8
0
  6
CONTINUOUS
 62
   218
 10
-13.1080150058733
 20
2.46843695394226
 30
0.0
 11
-1.48301500587331
 21
2.46843695394226
 31
0.0
  0
LINE
  5
   102
  8
0
  6
CONTINUOUS
 62
   218
 10
0.516984994126688
 20
-8.13156295069031
 30
0.0
 11
0.516984994126688
 21
1.96843743077942
 31
0.0
  0
LINE
  5
   103
  8
0
  6
CONTINUOUS
 62
   218
 10
-31.9830150058733
 20
-2.78156304605774
 30
0.0
 11
-31.9830150058733
 21
-1.79273832090668
 31
0.0
  0
LINE
  5
   104
  8
0
  6
CONTINUOUS
 62
   218
 10
-34.4830150058733
 20
-2.78156304605774
 30
0.0
 11
-34.4830150058733
 21
-1.83983791686515
 31
0.0
  0
LINE
  5
   105
  8
0
  6
CONTINUOUS
 62
   218
 10
-34.4830150058733
 20
-2.78156304605774
 30
0.0
 11
-31.9830150058733
 21
-2.78156304605774
 31
0.0
  0
LINE
  5
   106
  8
0
  6
CONTINUOUS
 62
   218
 10
-16.9830150058733
 20
-2.78156304605774
 30
0.0
 11
-16.9830150058733
 21
-1.83983786648029
 31
0.0
  0
LINE
  5
   107
  8
0
  6
CONTINUOUS
 62
   218
 10
-14.4830150058733
 20
-2.78156304605774
 30
0.0
 11
-14.4830150058733
 21
-1.79273832090668
 31
0.0
  0
LINE
  5
   108
  8
0
  6
CONTINUOUS
 62
   218
 10
-16.9830150058733
 20
-2.78156304605774
 30
0.0
 11
-14.4830150058733
 21
-2.78156304605774
 31
0.0
  0
LINE
  5
   109
  8
0
  6
CONTINUOUS
 62
   218
 10
-1.48301500587331
 20
1.96843707315155
 30
0.0
 11
-1.48301500587331
 21
2.46843695394226
 31
0.0
  0
LINE
  5
   10A
  8
0
  6
CONTINUOUS
 62
   218
 10
-1.48301500587331
 20
1.96843707315155
 30
0.0
 11
0.891984994126688
 21
1.96843707315155
 31
0.0
  0
LINE
  5
   10B
  8
0
  6
CONTINUOUS
 62
   218
 10
0.891984994126688
 20
1.96843707315155
 30
0.0
 11
0.891984994126688
 21
2.71843695394226
 31
0.0
  0
LINE
  5
   10C
  8
0
  6
CONTINUOUS
 62
   218
 10
-5.23301500587331
 20
2.46843695394226
 30
0.0
 11
-5.23301500587331
 21
2.71843695394226
 31
0.0
  0
LINE
  5
   10D
  8
0
  6
CONTINUOUS
 62
   218
 10
-43.7330150058733
 20
2.46843695394226
 30
0.0
 11
-43.7330150058733
 21
2.71843695394226
 31
0.0
  0
LINE
  5
   10E
  8
0
  6
CONTINUOUS
 62
   218
 10
-47.4830150058733
 20
1.96843707315155
 30
0.0
 11
-47.4830150058733
 21
2.46843695394226
 31
0.0
  0
LINE
  5
   10F
  8
0
  6
CONTINUOUS
 62
   218
 10
-49.8580150058733
 20
1.96843707315155
 30
0.0
 11
-47.4830150058733
 21
1.96843707315155
 31
0.0
  0
LINE
  5
   110
  8
0
  6
CONTINUOUS
 62
   218
 10
-49.8580150058733
 20
1.96843707315155
 30
0.0
 11
-49.8580150058733
 21
2.71843695394226
 31
0.0
  0
LINE
  5
   111
  8
0
  6
CONTINUOUS
 62
   218
 10
-1.48301500587331
 20
2.46843743077942
 30
0.0
 11
-1.48301500587331
 21
2.71843671552368
 31
0.0
  0
LINE
  5
   112
  8
0
  6
CONTINUOUS
 62
   218
 10
-47.4830150058733
 20
2.46843671552368
 30
0.0
 11
-47.4830150058733
 21
2.71843695394226
 31
0.0
  0
LINE
  5
   113
  8
0
  6
CONTINUOUS
 62
   218
 10
-34.7330150058733
 20
-9.53156256922058
 30
0.0
 11
-34.7330150058733
 21
-6.28156304605774
 31
0.0
  0
LINE
  5
   114
  8
0
  6
CONTINUOUS
 62
   218
 10
-34.7330150058733
 20
-6.28156304605774
 30
0.0
 11
-31.7330150058733
 21
-6.28156304605774
 31
0.0
  0
LINE
  5
   115
  8
0
  6
CONTINUOUS
 62
   218
 10
-31.7330150058733
 20
-9.53156256922058
 30
0.0
 11
-31.7330150058733
 21
-6.28156304605774
 31
0.0
  0
LINE
  5
   116
  8
0
  6
CONTINUOUS
 62
   218
 10
-31.9830150058733
 20
-8.03156256922058
 30
0.0
 11
-31.9830150058733
 21
-6.28156256922058
 31
0.0
  0
LINE
  5
   117
  8
0
  6
CONTINUOUS
 62
   218
 10
-34.4830150058733
 20
-8.03156256922058
 30
0.0
 11
-34.4830150058733
 21
-6.28156304605774
 31
0.0
  0
LINE
  5
   118
  8
0
  6
CONTINUOUS
 62
   218
 10
-32.3580150058733
 20
-9.53156256922058
 30
0.0
 11
-32.3580150058733
 21
-8.03156256922058
 31
0.0
  0
LINE
  5
   119
  8
0
  6
CONTINUOUS
 62
   218
 10
-32.3580150058733
 20
-8.03156256922058
 30
0.0
 11
-31.9830150058733
 21
-8.03156256922058
 31
0.0
  0
LINE
  5
   11A
  8
0
  6
CONTINUOUS
 62
   218
 10
-34.1080150058733
 20
-9.53156256922058
 30
0.0
 11
-34.1080150058733
 21
-8.03156256922058
 31
0.0
  0
LINE
  5
   11B
  8
0
  6
CONTINUOUS
 62
   218
 10
-34.4830150058733
 20
-8.03156256922058
 30
0.0
 11
-34.1080150058733
 21
-8.03156256922058
 31
0.0
  0
LINE
  5
   11C
  8
0
  6
CONTINUOUS
 62
   218
 10
-17.2330150058733
 20
-9.53156256922058
 30
0.0
 11
-17.2330150058733
 21
-6.28156304605774
 31
0.0
  0
LINE
  5
   11D
  8
0
  6
CONTINUOUS
 62
   218
 10
-17.2330150058733
 20
-6.28156304605774
 30
0.0
 11
-14.2330150058733
 21
-6.28156304605774
 31
0.0
  0
LINE
  5
   11E
  8
0
  6
CONTINUOUS
 62
   218
 10
-14.2330150058733
 20
-9.53156256922058
 30
0.0
 11
-14.2330150058733
 21
-6.28156304605774
 31
0.0
  0
LINE
  5
   11F
  8
0
  6
CONTINUOUS
 62
   218
 10
-14.4830150058733
 20
-8.03156256922058
 30
0.0
 11
-14.4830150058733
 21
-6.28156256922058
 31
0.0
  0
LINE
  5
   120
  8
0
  6
CONTINUOUS
 62
   218
 10
-16.9830150058733
 20
-8.03156256922058
 30
0.0
 11
-16.9830150058733
 21
-6.28156304605774
 31
0.0
  0
LINE
  5
   121
  8
0
  6
CONTINUOUS
 62
   218
 10
-14.8580150058733
 20
-9.53156256922058
 30
0.0
 11
-14.8580150058733
 21
-8.03156256922058
 31
0.0
  0
LINE
  5
   122
  8
0
  6
CONTINUOUS
 62
   218
 10
-14.8580150058733
 20
-8.03156256922058
 30
0.0
 11
-14.4830150058733
 21
-8.03156256922058
 31
0.0
  0
LINE
  5
   123
  8
0
  6
CONTINUOUS
 62
   218
 10
-16.6080150058733
 20
-9.53156256922058
 30
0.0
 11
-16.6080150058733
 21
-8.03156256922058
 31
0.0
  0
LINE
  5
   124
  8
0
  6
CONTINUOUS
 62
   218
 10
-16.9830150058733
 20
-8.03156256922058
 30
0.0
 11
-16.6080150058733
 21
-8.03156256922058
 31
0.0
  0
LINE
  5
   125
  8
0
  6
CONTINUOUS
 62
    98
 10
-31.9829844882952
 20
114.615217444818
 30
0.0
 11
-31.9829844882952
 21
116.11843704931
 31
0.0
  0
LINE
  5
   126
  8
0
  6
CONTINUOUS
 62
    98
 10
-34.4829844881425
 20
116.118437080105
 30
0.0
 11
-34.4829806734452
 21
114.615217479098
 31
0.0
  0
LINE
  5
   127
  8
0
  6
CONTINUOUS
 62
    98
 10
-34.4829844882952
 20
116.11843704931
 30
0.0
 11
-34.1079844882952
 21
116.11843704931
 31
0.0
  0
LINE
  5
   128
  8
0
  6
CONTINUOUS
 62
    98
 10
-34.1079844882952
 20
116.11843704931
 30
0.0
 11
-34.1079844882952
 21
117.61843704931
 31
0.0
  0
LINE
  5
   129
  8
0
  6
CONTINUOUS
 62
    98
 10
-48.9829768589007
 20
117.61843704931
 30
0.0
 11
-34.1079844882952
 21
117.61843704931
 31
0.0
  0
LINE
  5
   12A
  8
0
  6
CONTINUOUS
 62
    98
 10
-49.3365295222632
 20
117.471992411814
 30
0.0
 11
-48.9829757502285
 21
117.618438640097
 31
0.0
  0
LINE
  5
   12B
  8
0
  6
CONTINUOUS
 62
    98
 10
-49.4829760040147
 20
117.118439535897
 30
0.0
 11
-49.3365297757316
 21
117.471993307932
 31
0.0
  0
LINE
  5
   12C
  8
0
  6
CONTINUOUS
 62
    98
 10
-49.4829768589007
 20
117.115247962396
 30
0.0
 11
-49.4829768589007
 21
117.11843704931
 31
0.0
  0
LINE
  5
   12D
  8
0
  6
CONTINUOUS
 62
    98
 10
-50.7329768589007
 20
116.218435523431
 30
0.0
 11
-49.4829921176897
 21
116.218435523431
 31
0.0
  0
LINE
  5
   12E
  8
0
  6
CONTINUOUS
 62
    98
 10
-50.7329768589007
 20
116.215223548333
 30
0.0
 11
-50.7329768589007
 21
116.218435523431
 31
0.0
  0
LINE
  5
   12F
  8
0
  6
CONTINUOUS
 62
    98
 10
1.76700025291575
 20
116.215223548333
 30
0.0
 11
1.76700025291575
 21
116.218435523431
 31
0.0
  0
LINE
  5
   130
  8
0
  6
CONTINUOUS
 62
    98
 10
0.51700025291575
 20
116.218435523431
 30
0.0
 11
1.76700025291575
 21
116.218435523431
 31
0.0
  0
LINE
  5
   131
  8
0
  6
CONTINUOUS
 62
    98
 10
0.51700025291575
 20
116.218435523431
 30
0.0
 11
0.51700025291575
 21
117.11843704931
 31
0.0
  0
LINE
  5
   132
  8
0
  6
CONTINUOUS
 62
    98
 10
0.370554602157597
 20
117.471992866191
 30
0.0
 11
0.517000830440736
 21
117.118439094156
 31
0.0
  0
LINE
  5
   133
  8
0
  6
CONTINUOUS
 62
    98
 10
1.70014525105842E-2
 20
117.618438201286
 30
0.0
 11
0.370555224545257
 21
117.471991973003
 31
0.0
  0
LINE
  5
   134
  8
0
  6
CONTINUOUS
 62
    98
 10
-14.8579997470843
 20
117.61843704931
 30
0.0
 11
0.01700025291575
 21
117.61843704931
 31
0.0
  0
LINE
  5
   135
  8
0
  6
CONTINUOUS
 62
    98
 10
-14.8579997470843
 20
116.11843704931
 30
0.0
 11
-14.8579997470843
 21
117.61843704931
 31
0.0
  0
LINE
  5
   136
  8
0
  6
CONTINUOUS
 62
    98
 10
-14.8579997470843
 20
116.11843704931
 30
0.0
 11
-14.4829768589007
 21
116.11843704931
 31
0.0
  0
LINE
  5
   137
  8
0
  6
CONTINUOUS
 62
    98
 10
-14.4829844874268
 20
114.615217437655
 30
0.0
 11
-14.4829768580323
 21
116.118437038663
 31
0.0
  0
LINE
  5
   138
  8
0
  6
CONTINUOUS
 62
    98
 10
-16.9829997462482
 20
116.118437043876
 30
0.0
 11
-16.9829921168537
 21
114.615217442868
 31
0.0
  0
LINE
  5
   139
  8
0
  6
CONTINUOUS
 62
    98
 10
-16.9829997470843
 20
116.11843704931
 30
0.0
 11
-16.6079768589007
 21
116.11843704931
 31
0.0
  0
LINE
  5
   13A
  8
0
  6
CONTINUOUS
 62
    98
 10
-16.6079997394832
 20
117.618437067311
 30
0.0
 11
-16.6079768512996
 21
116.118437067311
 31
0.0
  0
LINE
  5
   13B
  8
0
  6
CONTINUOUS
 62
    98
 10
-32.3579844882952
 20
117.61843704931
 30
0.0
 11
-16.6079997470842
 21
117.61843704931
 31
0.0
  0
LINE
  5
   13C
  8
0
  6
CONTINUOUS
 62
    98
 10
-32.3579844882952
 20
116.11843704931
 30
0.0
 11
-32.3579844882952
 21
117.61843704931
 31
0.0
  0
LINE
  5
   13D
  8
0
  6
CONTINUOUS
 62
    98
 10
-32.3579844882952
 20
116.11843704931
 30
0.0
 11
-31.9829844882952
 21
116.11843704931
 31
0.0
  0
LINE
  5
   13E
  8
0
  6
CONTINUOUS
 62
   218
 10
-15.5829982212053
 20
-1.34361112364105
 30
0.0
 11
-15.5829982212053
 21
2.58048689119049
 31
0.0
  0
LINE
  5
   13F
  8
0
  6
CONTINUOUS
 62
   218
 10
-15.8830012729632
 20
-1.34361124285034
 30
0.0
 11
-15.8830012729632
 21
2.5804867719812
 31
0.0
  0
LINE
  5
   140
  8
0
  6
CONTINUOUS
 62
   218
 10
-33.0829753330218
 20
105.656385657708
 30
0.0
 11
-33.0829753330218
 21
109.580488440911
 31
0.0
  0
LINE
  5
   141
  8
0
  6
CONTINUOUS
 62
   218
 10
-33.3829745700823
 20
105.656385657708
 30
0.0
 11
-33.3829745700823
 21
109.580488440911
 31
0.0
  0
LINE
  5
   142
  8
0
  6
CONTINUOUS
 62
   218
 10
-15.5829982212053
 20
105.656385657708
 30
0.0
 11
-15.5829982212053
 21
109.580488440911
 31
0.0
  0
LINE
  5
   143
  8
0
  6
CONTINUOUS
 62
   218
 10
-15.8830012729632
 20
105.656385657708
 30
0.0
 11
-15.8830012729632
 21
109.580488440911
 31
0.0
  0
LINE
  5
   144
  8
0
  6
CONTINUOUS
 62
   218
 10
-33.0829753330218
 20
-1.34361112364105
 30
0.0
 11
-33.0829753330218
 21
2.58048689119049
 31
0.0
  0
LINE
  5
   145
  8
0
  6
CONTINUOUS
 62
   218
 10
-33.3829745700823
 20
-1.34361124285034
 30
0.0
 11
-33.3829745700823
 21
2.5804867719812
 31
0.0
  0
LINE
  5
   146
  8
0
  6
CONTINUOUS
 62
   218
 10
0.517007894155086
 20
117.118444703968
 30
0.0
 11
0.517023152944489
 21
116.218443181812
 31
0.0
  0
LINE
  5
   147
  8
0
  6
CONTINUOUS
 62
   218
 10
-49.4829921176897
 20
117.115217444817
 30
0.0
 11
-49.4829921176897
 21
117.118444678704
 31
0.0
  0
LINE
  5
   148
  8
0
  6
CONTINUOUS
 62
   218
 10
0.517007899366064
 20
-8.88160110457641
 30
0.0
 11
0.517023158155354
 21
-8.13156295938964
 31
0.0
  0
LINE
  5
   149
  8
0
  6
CONTINUOUS
 62
   218
 10
-16.9829616001116
 20
-7.88155532129578
 30
0.0
 11
-16.9829616001116
 21
-6.28156304605774
 31
0.0
  0
LINE
  5
   14A
  8
0
  6
CONTINUOUS
 62
   218
 10
-34.4829921176897
 20
117.618444678704
 30
0.0
 11
-34.1079921176897
 21
117.618444678704
 31
0.0
  0
LINE
  5
   14B
  8
0
  6
CONTINUOUS
 62
   218
 10
-32.3579921176897
 20
117.618444678704
 30
0.0
 11
-31.9829921176897
 21
117.618444678704
 31
0.0
  0
LINE
  5
   14C
  8
0
  6
CONTINUOUS
 62
   218
 10
-14.8579616001116
 20
117.618444678704
 30
0.0
 11
-14.4829616001116
 21
117.618444678704
 31
0.0
  0
LINE
  5
   14D
  8
0
  6
CONTINUOUS
 62
   218
 10
-16.9829616001116
 20
117.618444678704
 30
0.0
 11
-16.6079616001116
 21
117.618444678704
 31
0.0
  0
LINE
  5
   14E
  8
0
  6
CONTINUOUS
 62
   218
 10
-16.6079616001116
 20
116.118444678704
 30
0.0
 11
-16.6079616001116
 21
117.618444678704
 31
0.0
  0
LINE
  5
   14F
  8
0
  6
CONTINUOUS
 62
   218
 10
-34.4829921176897
 20
-7.88155532129578
 30
0.0
 11
-34.1079921176897
 21
-7.88155532129578
 31
0.0
  0
LINE
  5
   150
  8
0
  6
CONTINUOUS
 62
   218
 10
-34.1079921176897
 20
-9.38155532129578
 30
0.0
 11
-34.1079921176897
 21
-7.88155532129578
 31
0.0
  0
LINE
  5
   151
  8
0
  6
CONTINUOUS
 62
   218
 10
-32.3579921176897
 20
-7.88155532129578
 30
0.0
 11
-31.9830150058733
 21
-7.88155532129578
 31
0.0
  0
LINE
  5
   152
  8
0
  6
CONTINUOUS
 62
   218
 10
-32.3579921176897
 20
-8.03156256922058
 30
0.0
 11
-32.3579921176897
 21
-7.88155532129578
 31
0.0
  0
LINE
  5
   153
  8
0
  6
CONTINUOUS
 62
   218
 10
-14.8579616001116
 20
-7.88155532129578
 30
0.0
 11
-14.4830150058733
 21
-7.88155532129578
 31
0.0
  0
LINE
  5
   154
  8
0
  6
CONTINUOUS
 62
   218
 10
-14.8579616001116
 20
-8.03156256922058
 30
0.0
 11
-14.8579616001116
 21
-7.88155532129578
 31
0.0
  0
LINE
  5
   155
  8
0
  6
CONTINUOUS
 62
   218
 10
-16.9829616001116
 20
-7.88155532129578
 30
0.0
 11
-16.6079616001116
 21
-7.88155532129578
 31
0.0
  0
LINE
  5
   156
  8
0
  6
CONTINUOUS
 62
   218
 10
-16.6079616001116
 20
-9.38155532129578
 30
0.0
 11
-16.6079616001116
 21
-7.88155532129578
 31
0.0
  0
LINE
  5
   157
  8
0
  6
CONTINUOUS
 62
    52
 10
-50.7331256316918
 20
38.4902288707646
 30
0.0
 11
-50.7330951141127
 21
44.4902288707646
 31
0.0
  0
LINE
  5
   158
  8
0
  6
CONTINUOUS
 62
    52
 10
-50.733152334438
 20
54.7402288933508
 30
0.0
 11
-50.7330951139781
 21
44.9902289127223
 31
0.0
  0
LINE
  5
   159
  8
0
  6
CONTINUOUS
 62
    52
 10
-50.7331523345726
 20
55.2402288696522
 30
0.0
 11
-50.7331218169936
 21
61.2402288696522
 31
0.0
  0
LINE
  5
   15A
  8
0
  6
CONTINUOUS
 62
    52
 10
-50.7331218167719
 20
61.7402288959538
 30
0.0
 11
-50.7329997464576
 21
80.9902250593713
 31
0.0
  0
LINE
  5
   15B
  8
0
  6
CONTINUOUS
 62
   212
 10
-50.1079997470843
 20
95.243537902832
 30
0.0
 11
-50.1079997470843
 21
105.365217444818
 31
0.0
  0
LINE
  5
   15C
  8
0
  6
CONTINUOUS
 62
   212
 10
1.14200025291575
 20
81.2402174448175
 30
0.0
 11
1.14200025291575
 21
105.365217444818
 31
0.0
  0
LINE
  5
   15D
  8
0
  6
CONTINUOUS
 62
    98
 10
-50.1080150058733
 20
2.71843743077942
 30
0.0
 11
-50.1080150058733
 21
14.7435398101807
 31
0.0
  0
LINE
  5
   15E
  8
0
  6
CONTINUOUS
 62
    98
 10
1.14198499412669
 20
2.71843743077942
 30
0.0
 11
1.14198499412669
 21
14.7435398101807
 31
0.0
  0
LINE
  5
   15F
  8
0
  6
CONTINUOUS
 62
   218
 10
-15.732992272964
 20
-1.37344736856781
 30
0.0
 11
-15.5829907471859
 21
-1.3436104744649
 31
0.0
  0
LINE
  5
   160
  8
0
  6
CONTINUOUS
 62
   218
 10
-15.732992286619
 20
2.61032309098902
 30
0.0
 11
-15.5829907608409
 21
2.58048619688611
 31
0.0
  0
LINE
  5
   161
  8
0
  6
CONTINUOUS
 62
   218
 10
-15.8829937547676
 20
2.58048765768476
 30
0.0
 11
-15.7329922289896
 21
2.61032455178765
 31
0.0
  0
LINE
  5
   162
  8
0
  6
CONTINUOUS
 62
   218
 10
-15.8829937684225
 20
-1.34361193526352
 30
0.0
 11
-15.7329922426446
 21
-1.37344882936641
 31
0.0
  0
LINE
  5
   163
  8
0
  6
CONTINUOUS
 62
   218
 10
-33.2329708762764
 20
105.62656087641
 30
0.0
 11
-33.0829693509718
 21
105.656391809878
 31
0.0
  0
LINE
  5
   164
  8
0
  6
CONTINUOUS
 62
   218
 10
-33.2329814484926
 20
109.610320568058
 30
0.0
 11
-33.0829799238639
 21
109.580482004962
 31
0.0
  0
LINE
  5
   165
  8
0
  6
CONTINUOUS
 62
   218
 10
-33.3829683773881
 20
109.580494989508
 30
0.0
 11
-33.2329706633124
 21
109.610333551526
 31
0.0
  0
LINE
  5
   166
  8
0
  6
CONTINUOUS
 62
   218
 10
-33.3829710738778
 20
105.656390318025
 30
0.0
 11
-33.2329733627778
 21
105.626559384833
 31
0.0
  0
LINE
  5
   167
  8
0
  6
CONTINUOUS
 62
   218
 10
-15.7329919890074
 20
105.62656104953
 30
0.0
 11
-15.5829904637027
 21
105.656391982998
 31
0.0
  0
LINE
  5
   168
  8
0
  6
CONTINUOUS
 62
   218
 10
-15.733006451486
 20
109.610320774317
 30
0.0
 11
-15.5830049268573
 21
109.580482211222
 31
0.0
  0
LINE
  5
   169
  8
0
  6
CONTINUOUS
 62
   218
 10
-15.8830105599176
 20
109.580480651443
 30
0.0
 11
-15.7330090352888
 21
109.610319214539
 31
0.0
  0
LINE
  5
   16A
  8
0
  6
CONTINUOUS
 62
   218
 10
-15.8829956041464
 20
105.656390673834
 30
0.0
 11
-15.7329940788418
 21
105.626559740367
 31
0.0
  0
LINE
  5
   16B
  8
0
  6
CONTINUOUS
 62
   218
 10
-33.2329713654959
 20
-1.37344756173902
 30
0.0
 11
-33.0829698397178
 21
-1.34361066763611
 31
0.0
  0
LINE
  5
   16C
  8
0
  6
CONTINUOUS
 62
   218
 10
-33.232971379151
 20
2.61032328416022
 30
0.0
 11
-33.0829698533731
 21
2.58048639005734
 31
0.0
  0
LINE
  5
   16D
  8
0
  6
CONTINUOUS
 62
   218
 10
-33.3829812979655
 20
2.58048592994153
 30
0.0
 11
-33.2329835899817
 21
2.61032282198245
 31
0.0
  0
LINE
  5
   16E
  8
0
  6
CONTINUOUS
 62
   218
 10
-33.3829812813667
 20
-1.34361037165249
 30
0.0
 11
-33.2329835733829
 21
-1.37344726369341
 31
0.0
  0
CIRCLE
  5
   16F
  8
0
  6
CONTINUOUS
 62
   218
 10
-41.98300466509
 20
-0.531574207749841
 30
0.0
 40
2.75001453480779
  0
ARC
  5
   170
  8
0
  6
CONTINUOUS
 62
   218
 10
-48.9830154373699
 20
-9.0315636853479
 30
0.0
 40
0.499999126459817
 50
179.999908136696
 51
270.000128846519
  0
CIRCLE
  5
   171
  8
0
  6
CONTINUOUS
 62
   218
 10
-41.9830102564727
 20
-7.53155634712324
 30
0.0
 40
0.700006910845512
  0
CIRCLE
  5
   172
  8
0
  6
CONTINUOUS
 62
   218
 10
-33.2329850343366
 20
0.618430252071661
 30
0.0
 40
2.07498939197524
  0
ARC
  5
   173
  8
0
  6
CONTINUOUS
 62
   218
 10
-33.2329693542883
 20
0.618450400381136
 30
0.0
 40
2.50001302175016
 50
122.860910345136
 51
417.139089654864
  0
ARC
  5
   174
  8
0
  6
CONTINUOUS
 62
   218
 10
-33.2330111053759
 20
0.468437207003554
 30
0.0
 40
2.625003580708
 50
121.00285991653
 51
241.563055357195
  0
CIRCLE
  5
   175
  8
0
  6
CONTINUOUS
 62
   218
 10
-24.4830091063318
 20
-7.53156004849496
 30
0.0
 40
0.699997233767217
  0
CIRCLE
  5
   176
  8
0
  6
CONTINUOUS
 62
   218
 10
-24.483006606961
 20
-0.531560984504537
 30
0.0
 40
2.7500078854742
  0
CIRCLE
  5
   177
  8
0
  6
CONTINUOUS
 62
   218
 10
-15.7329915304429
 20
0.618449068059313
 30
0.0
 40
2.07501295323973
  0
ARC
  5
   178
  8
0
  6
CONTINUOUS
 62
   218
 10
-15.7329993712256
 20
0.618449502362097
 30
0.0
 40
2.50001169741146
 50
122.86082542836
 51
417.13917457164
  0
ARC
  5
   179
  8
0
  6
CONTINUOUS
 62
   218
 10
-15.7330128955631
 20
0.468436602074192
 30
0.0
 40
2.6250021519916
 50
121.00278238822
 51
241.563082905666
  0
CIRCLE
  5
   17A
  8
0
  6
CONTINUOUS
 62
   218
 10
-6.98301875497873
 20
-0.531571360609284
 30
0.0
 40
2.75000241473019
  0
CIRCLE
  5
   17B
  8
0
  6
CONTINUOUS
 62
   218
 10
-6.98301702620302
 20
-7.53155888365203
 30
0.0
 40
0.699996323748292
  0
ARC
  5
   17C
  8
0
  6
CONTINUOUS
 62
   218
 10
0.016988353206898
 20
-9.03156474170854
 30
0.0
 40
0.499997631290926
 50
269.999800184153
 51
360.000263534205
  0
ARC
  5
   17D
  8
0
  6
CONTINUOUS
 62
   218
 10
-33.2330111053759
 20
0.468437207003554
 30
0.0
 40
2.625003580708
 50
298.436751007451
 51
418.99714008347
  0
ARC
  5
   17E
  8
0
  6
CONTINUOUS
 62
   218
 10
-15.7330128955631
 20
0.468436602074192
 30
0.0
 40
2.6250021519916
 50
298.436812330526
 51
418.99721761178
  0
LINE
  5
   17F
  8
0
  6
DASHDOT
 62
     1
 10
-41.98300466509
 20
-12.1273541441375
 30
0.0
 11
-41.98300466509
 21
3.71844032705795
 31
0.0
  0
LINE
  5
   180
  8
0
  6
DASHDOT
 62
     1
 10
-46.2330191998979
 20
-0.531574207749841
 30
0.0
 11
-37.7329901302822
 21
-0.531574207749841
 31
0.0
  0
LINE
  5
   181
  8
0
  6
DASHDOT
 62
     1
 10
-33.2329850343366
 20
-2.95655913990358
 30
0.0
 11
-33.2329850343366
 21
4.1934196440469
 31
0.0
  0
LINE
  5
   182
  8
0
  6
DASHDOT
 62
     1
 10
-36.8079744263118
 20
0.618430252071661
 30
0.0
 11
-29.6579956423614
 21
0.618430252071661
 31
0.0
  0
LINE
  5
   183
  8
0
  6
DASHDOT
 62
     1
 10
-28.7330144924351
 20
-0.531560984504537
 30
0.0
 11
-20.2329987214868
 21
-0.531560984504537
 31
0.0
  0
LINE
  5
   184
  8
0
  6
DASHDOT
 62
     1
 10
-26.6830063400989
 20
-7.53156004849496
 30
0.0
 11
-22.2830118725644
 21
-7.53156004849496
 31
0.0
  0
LINE
  5
   185
  8
0
  6
DASHDOT
 62
     1
 10
-44.1830171673182
 20
-7.53155634712324
 30
0.0
 11
-39.7830033456271
 21
-7.53155634712324
 31
0.0
  0
LINE
  5
   186
  8
0
  6
DASHDOT
 62
     1
 10
-15.7329915304429
 20
-2.95656388518042
 30
0.0
 11
-15.7329915304429
 21
4.19346202129905
 31
0.0
  0
LINE
  5
   187
  8
0
  6
DASHDOT
 62
     1
 10
-19.3080044836827
 20
0.618449068059313
 30
0.0
 11
-12.1579785772032
 21
0.618449068059313
 31
0.0
  0
LINE
  5
   188
  8
0
  6
DASHDOT
 62
     1
 10
-9.18301334995135
 20
-7.53155888365203
 30
0.0
 11
-4.78302070245468
 21
-7.53155888365203
 31
0.0
  0
ARC
  5
   189
  8
0
  6
CONTINUOUS
 62
   218
 10
-48.9829940937942
 20
117.118449100487
 30
0.0
 40
0.499997169013284
 50
89.9996465086784
 51
180.000221758276
  0
CIRCLE
  5
   18A
  8
0
  6
CONTINUOUS
 62
     7
 10
-41.9829479189066
 20
115.61516248953
 30
0.0
 40
0.999928825210208
  0
CIRCLE
  5
   18B
  8
0
  6
CONTINUOUS
 62
     7
 10
-41.9829936075607
 20
115.615229493648
 30
0.0
 40
0.700007124240876
  0
CIRCLE
  5
   18C
  8
0
  6
CONTINUOUS
 62
     7
 10
-41.9829836158567
 20
108.615135605966
 30
0.0
 40
2.75008344996193
  0
CIRCLE
  5
   18D
  8
0
  6
CONTINUOUS
 62
   218
 10
-33.2329993323027
 20
107.618488950204
 30
0.0
 40
2.07494749039863
  0
ARC
  5
   18E
  8
0
  6
CONTINUOUS
 62
   218
 10
-33.2329850412646
 20
107.61843247018
 30
0.0
 40
2.49999152351793
 50
295.671970040642
 51
604.328029959358
  0
ARC
  5
   18F
  8
0
  6
CONTINUOUS
 62
     7
 10
-33.2328594523306
 20
107.615289539301
 30
0.0
 40
2.62514350938305
 50
301.004876459961
 51
598.995123540039
  0
CIRCLE
  5
   190
  8
0
  6
CONTINUOUS
 62
     7
 10
-24.4829832340968
 20
108.61523247015
 30
0.0
 40
2.75001303050146
  0
CIRCLE
  5
   191
  8
0
  6
CONTINUOUS
 62
   218
 10
-15.7330182458639
 20
107.618432066863
 30
0.0
 40
2.0749856384094
  0
ARC
  5
   192
  8
0
  6
CONTINUOUS
 62
   218
 10
-15.7329860575544
 20
107.618436745136
 30
0.0
 40
2.50001319814591
 50
295.672777324068
 51
604.327222675932
  0
ARC
  5
   193
  8
0
  6
CONTINUOUS
 62
     7
 10
-15.7330043266118
 20
107.615215268906
 30
0.0
 40
2.62501408140642
 50
301.003322800275
 51
598.996677199725
  0
CIRCLE
  5
   194
  8
0
  6
CONTINUOUS
 62
     7
 10
-6.98295608475541
 20
108.615309724049
 30
0.0
 40
2.7501053689214
  0
CIRCLE
  5
   195
  8
0
  6
CONTINUOUS
 62
     7
 10
-6.98299439394839
 20
115.615209337366
 30
0.0
 40
0.999997329470788
  0
CIRCLE
  5
   196
  8
0
  6
CONTINUOUS
 62
     7
 10
-6.9829765964231
 20
115.615206576644
 30
0.0
 40
0.699984483610494
  0
ARC
  5
   197
  8
0
  6
CONTINUOUS
 62
   218
 10
1.70112858304492E-2
 20
117.118448656679
 30
0.0
 40
0.499997174010076
 50
359.999778478596
 51
450.000252552679
  0
LINE
  5
   198
  8
0
  6
DASHDOT
 62
     1
 10
-24.4829184525452
 20
-13.3005487369148
 30
0.0
 11
-24.4829184525452
 21
131.881862166009
 31
0.0
  0
LINE
  5
   199
  8
0
  6
DASHDOT
 62
     1
 10
-44.1830007318015
 20
115.615229493648
 30
0.0
 11
-39.7829864833197
 21
115.615229493648
 31
0.0
  0
LINE
  5
   19A
  8
0
  6
DASHDOT
 62
     1
 10
-41.9829836158567
 20
104.365052156005
 30
0.0
 11
-41.9829836158567
 21
121.431229741281
 31
0.0
  0
LINE
  5
   19B
  8
0
  6
DASHDOT
 62
     1
 10
-46.2330670658187
 20
108.615135605966
 30
0.0
 11
-37.7329001658948
 21
108.615135605966
 31
0.0
  0
LINE
  5
   19C
  8
0
  6
DASHDOT
 62
     1
 10
-33.2329993323027
 20
104.043541459805
 30
0.0
 11
-33.2329993323027
 21
111.193436440602
 31
0.0
  0
LINE
  5
   19D
  8
0
  6
DASHDOT
 62
     1
 10
-36.8079468227013
 20
107.618488950204
 30
0.0
 11
-29.6580518419041
 21
107.618488950204
 31
0.0
  0
LINE
  5
   19E
  8
0
  6
DASHDOT
 62
     1
 10
-28.7329962645982
 20
108.61523247015
 30
0.0
 11
-20.2329702035953
 21
108.61523247015
 31
0.0
  0
LINE
  5
   19F
  8
0
  6
DASHDOT
 62
     1
 10
-15.7329860575544
 20
103.618423546991
 30
0.0
 11
-15.7329860575544
 21
111.618449943282
 31
0.0
  0
LINE
  5
   1A0
  8
0
  6
DASHDOT
 62
     1
 10
-19.7329992557003
 20
107.618436745136
 30
0.0
 11
-11.7329728594085
 21
107.618436745136
 31
0.0
  0
LINE
  5
   1A1
  8
0
  6
DASHDOT
 62
     1
 10
-9.18296108003358
 20
115.615206576644
 30
0.0
 11
-4.78299211281262
 21
115.615206576644
 31
0.0
  0
LINE
  5
   1A2
  8
0
  6
DASHDOT
 62
     1
 10
-6.98295608475541
 20
104.365204355127
 30
0.0
 11
-6.98295608475541
 21
120.309626360296
 31
0.0
  0
LINE
  5
   1A3
  8
0
  6
DASHDOT
 62
     1
 10
-11.2330614536769
 20
108.615309724049
 30
0.0
 11
-2.73285071583405
 21
108.615309724049
 31
0.0
  0
LINE
  5
   1A4
  8
0
  6
DASHDOT
 62
     7
 10
-6.98301875497874
 20
-11.2992167845301
 30
0.0
 11
-6.98301875497874
 21
3.21843105412091
 31
0.0
  0
LINE
  5
   1A5
  8
0
  6
DASHDOT
 62
     7
 10
-10.7330211697089
 20
-0.531571360609284
 30
0.0
 11
-3.23301634024853
 21
-0.531571360609284
 31
0.0
  0
LINE
  5
   1A6
  8
0
  6
CONTINUOUS
 62
     7
 10
-50.4829184525452
 20
81.243537902832
 30
0.0
 11
1.51708154745482
 21
81.243537902832
 31
0.0
  0
LINE
  5
   1A7
  8
0
  6
CONTINUOUS
 62
     7
 10
-50.4829184525452
 20
28.743537902832
 30
0.0
 11
1.51708154745482
 21
28.743537902832
 31
0.0
  0
LINE
  5
   1A8
  8
0
  6
CONTINUOUS
 62
     7
 10
-50.7329184525452
 20
28.993537902832
 30
0.0
 11
-50.7329184525452
 21
80.993537902832
 31
0.0
  0
LINE
  5
   1A9
  8
0
  6
CONTINUOUS
 62
     7
 10
1.76708154745484
 20
28.993537902832
 30
0.0
 11
1.76708154745484
 21
80.993537902832
 31
0.0
  0
ARC
  5
   1AA
  8
0
  6
CONTINUOUS
 62
     7
 10
-50.4829184525452
 20
80.993537902832
 30
0.0
 40
0.25
 50
90.0
 51
180.0
  0
ARC
  5
   1AB
  8
0
  6
CONTINUOUS
 62
     7
 10
1.51708154745484
 20
80.993537902832
 30
0.0
 40
0.25
 50
0.0
 51
90.0
  0
ARC
  5
   1AC
  8
0
  6
CONTINUOUS
 62
     7
 10
1.51708154745483
 20
28.993537902832
 30
0.0
 40
0.25
 50
270.0
 51
360.0
  0
ARC
  5
   1AD
  8
0
  6
CONTINUOUS
 62
     7
 10
-50.4829184525452
 20
28.993537902832
 30
0.0
 40
0.25
 50
180.0
 51
270.0
  0
LINE
  5
   1AE
  8
0
  6
CONTINUOUS
 62
     7
 10
-50.3579184525452
 20
80.868537902832
 30
0.0
 11
1.39208154745482
 21
80.868537902832
 31
0.0
  0
LINE
  5
   1AF
  8
0
  6
CONTINUOUS
 62
     7
 10
-50.3579184525452
 20
29.118537902832
 30
0.0
 11
1.39208154745482
 21
29.118537902832
 31
0.0
  0
LINE
  5
   1B0
  8
0
  6
CONTINUOUS
 62
     7
 10
-50.3579184525452
 20
29.118537902832
 30
0.0
 11
-50.3579184525452
 21
80.868537902832
 31
0.0
  0
LINE
  5
   1B1
  8
0
  6
CONTINUOUS
 62
     7
 10
1.39208154745484
 20
29.118537902832
 30
0.0
 11
1.39208154745484
 21
80.868537902832
 31
0.0
  0
LINE
  5
   1B2
  8
0
  6
CONTINUOUS
 62
     7
 10
-50.3579184525452
 20
75.243537902832
 30
0.0
 11
1.39208154745482
 21
75.243537902832
 31
0.0
  0
LINE
  5
   1B3
  8
0
  6
CONTINUOUS
 62
     7
 10
-50.3579184525452
 20
80.243537902832
 30
0.0
 11
1.39208154745482
 21
80.243537902832
 31
0.0
  0
LINE
  5
   1B4
  8
0
  6
CONTINUOUS
 62
     7
 10
-15.4829184525452
 20
29.118537902832
 30
0.0
 11
-15.4829184525452
 21
75.243537902832
 31
0.0
  0
LINE
  5
   1B5
  8
0
  6
CONTINUOUS
 62
     7
 10
-0.482918452545164
 20
29.118537902832
 30
0.0
 11
-0.482918452545164
 21
75.243537902832
 31
0.0
  0
LINE
  5
   1B6
  8
0
  6
CONTINUOUS
 62
     7
 10
-15.9829184525452
 20
29.118537902832
 30
0.0
 11
-15.9829184525452
 21
75.243537902832
 31
0.0
  0
LINE
  5
   1B7
  8
0
  6
CONTINUOUS
 62
     7
 10
1.70815474548363E-2
 20
29.118537902832
 30
0.0
 11
1.70815474548363E-2
 21
75.243537902832
 31
0.0
  0
CIRCLE
  5
   1B8
  8
0
  6
CONTINUOUS
 62
     7
 10
-7.98291845254516
 20
65.993537902832
 30
0.0
 40
5.375
  0
CIRCLE
  5
   1B9
  8
0
  6
CONTINUOUS
 62
     7
 10
-7.98291845254517
 20
41.343537902832
 30
0.0
 40
5.375
  0
LINE
  5
   1BA
  8
0
  6
DASHDOT
 62
     1
 10
-7.98291845254516
 20
57.531650744259
 30
0.0
 11
-7.98291845254516
 21
74.7362020670103
 31
0.0
  0
LINE
  5
   1BB
  8
0
  6
DASHDOT
 62
     1
 10
-16.776460867328
 20
65.993537902832
 30
0.0
 11
0.345376266371645
 21
65.993537902832
 31
0.0
  0
LINE
  5
   1BC
  8
0
  6
DASHDOT
 62
     1
 10
-7.98291845254516
 20
32.8828224068556
 30
0.0
 11
-7.98291845254516
 21
50.0046595405553
 31
0.0
  0
LINE
  5
   1BD
  8
0
  6
DASHDOT
 62
     1
 10
-16.4869612056471
 20
41.343537902832
 30
0.0
 11
0.055876604690738
 21
41.343537902832
 31
0.0
  0
ARC
  5
   1BE
  8
0
  6
CONTINUOUS
 62
     7
 10
-34.6079184525452
 20
43.493537902832
 30
0.0
 40
2.625
 50
0.0
 51
180.0
  0
ARC
  5
   1BF
  8
0
  6
CONTINUOUS
 62
     7
 10
-34.6079184525452
 20
38.493537902832
 30
0.0
 40
2.625
 50
1.56165987539834
 51
360.0
  0
LINE
  5
   1C0
  8
0
  6
CONTINUOUS
 62
     7
 10
-31.9829184525452
 20
38.493537902832
 30
0.0
 11
-31.9829184525452
 21
43.493537902832
 31
0.0
  0
LINE
  5
   1C1
  8
0
  6
CONTINUOUS
 62
     7
 10
-37.2329184525452
 20
38.493537902832
 30
0.0
 11
-37.2329184525452
 21
43.493537902832
 31
0.0
  0
LINE
  5
   1C2
  8
0
  6
DASHDOT
 62
     1
 10
-34.6079184525452
 20
34.368537902832
 30
0.0
 11
-34.6079184525452
 21
42.618537902832
 31
0.0
  0
LINE
  5
   1C3
  8
0
  6
DASHDOT
 62
     1
 10
-38.7329184525452
 20
38.493537902832
 30
0.0
 11
-30.4829184525452
 21
38.493537902832
 31
0.0
  0
LINE
  5
   1C4
  8
0
  6
CONTINUOUS
 62
     7
 10
-37.1848594685562
 20
38.993537902832
 30
0.0
 11
-32.0309774365341
 21
38.993537902832
 31
0.0
  0
LINE
  5
   1C5
  8
0
  6
CONTINUOUS
 62
     7
 10
-37.1848594685562
 20
37.993537902832
 30
0.0
 11
-32.0309774365341
 21
37.993537902832
 31
0.0
  0
LINE
  5
   1C6
  8
0
  6
CONTINUOUS
 62
     7
 10
-4.35791845254518
 20
59.368537902832
 30
0.0
 11
-3.10791845254518
 21
59.368537902832
 31
0.0
  0
LINE
  5
   1C7
  8
0
  6
CONTINUOUS
 62
     7
 10
-4.35791845254518
 20
50.618537902832
 30
0.0
 11
-3.10791845254518
 21
50.618537902832
 31
0.0
  0
LINE
  5
   1C8
  8
0
  6
CONTINUOUS
 62
     7
 10
-4.35791845254516
 20
50.618537902832
 30
0.0
 11
-4.35791845254516
 21
59.368537902832
 31
0.0
  0
LINE
  5
   1C9
  8
0
  6
CONTINUOUS
 62
     7
 10
-3.10791845254516
 20
50.618537902832
 30
0.0
 11
-3.10791845254516
 21
59.368537902832
 31
0.0
  0
LINE
  5
   1CA
  8
0
  6
CONTINUOUS
 62
     1
 10
-40.6079184525452
 20
70.993537902832
 30
0.0
 11
-40.6079184525452
 21
74.173542584479
 31
0.0
  0
LINE
  5
   1CB
  8
0
  6
CONTINUOUS
 62
     1
 10
-40.6079184525452
 20
70.993537902832
 30
0.0
 11
-37.3579184525452
 21
70.993537902832
 31
0.0
  0
LINE
  5
   1CC
  8
0
  6
CONTINUOUS
 62
     1
 10
-37.3579184525452
 20
51.5562015165187
 30
0.0
 11
-37.3579184525452
 21
70.993537902832
 31
0.0
  0
ARC
  5
   1CD
  8
0
  6
CONTINUOUS
 62
     1
 10
-34.6079184525452
 20
63.493537902832
 30
0.0
 40
11.5
 50
146.0
 51
256.164776385962
  0
ARC
  5
   1CE
  8
0
  6
CONTINUOUS
 62
     1
 10
-34.6079184525452
 20
63.493537902832
 30
0.0
 40
12.25
 50
119.327168765378
 51
257.027121849249
  0
LINE
  5
   1CF
  8
0
  6
CONTINUOUS
 62
     1
 10
-44.7636287163444
 20
70.3436509703487
 30
0.0
 11
-44.1418505369282
 21
69.9242562927456
 31
0.0
  0
LINE
  5
   1D0
  8
0
  6
CONTINUOUS
 62
     1
 10
-44.1079184525452
 20
63.493537902832
 30
0.0
 11
-40.3579184525452
 21
67.243537902832
 31
0.0
  0
LINE
  5
   1D1
  8
0
  6
CONTINUOUS
 62
     1
 10
-44.1079184525452
 20
63.493537902832
 30
0.0
 11
-40.3579184525452
 21
59.743537902832
 31
0.0
  0
LINE
  5
   1D2
  8
0
  6
CONTINUOUS
 62
     1
 10
-40.3579184525452
 20
59.743537902832
 30
0.0
 11
-40.3579184525452
 21
67.243537902832
 31
0.0
  0
ARC
  5
   1D3
  8
0
  6
CONTINUOUS
 62
     1
 10
-34.6079184525452
 20
63.493537902832
 30
0.0
 40
11.25
 50
284.149004508935
 51
435.850995491065
  0
LINE
  5
   1D4
  8
0
  6
CONTINUOUS
 62
     1
 10
-31.8579184525452
 20
52.5848257881963
 30
0.0
 11
-31.8579184525452
 21
74.4022500174678
 31
0.0
  0
LINE
  5
   1D5
  8
0
  6
CONTINUOUS
 62
     1
 10
-31.8579184525452
 20
67.493537902832
 30
0.0
 11
-24.0930480301386
 21
67.493537902832
 31
0.0
  0
LINE
  5
   1D6
  8
0
  6
CONTINUOUS
 62
     1
 10
-31.8579184525452
 20
59.493537902832
 30
0.0
 11
-24.0930480301386
 21
59.493537902832
 31
0.0
  0
LINE
  5
   1D7
  8
0
  6
CONTINUOUS
 62
     1
 10
-32.1079184525452
 20
52.5248324185919
 30
0.0
 11
-32.1079184525452
 21
74.4622433870722
 31
0.0
  0
LINE
  5
   1D8
  8
0
  6
CONTINUOUS
 62
     1
 10
-36.6079184525452
 20
49.493537902832
 30
0.0
 11
-36.6079184525452
 21
74.1383723308539
 31
0.0
  0
ARC
  5
   1D9
  8
0
  6
CONTINUOUS
 62
     1
 10
-34.6079184525452
 20
63.493537902832
 30
0.0
 40
11.25
 50
77.1604115930958
 51
87.4526818174296
  0
LINE
  5
   1DA
  8
0
  6
CONTINUOUS
 62
     1
 10
-34.1079184525452
 20
52.2546545063375
 30
0.0
 11
-34.1079184525452
 21
74.7324212993265
 31
0.0
  0
LINE
  5
   1DB
  8
0
  6
CONTINUOUS
 62
     1
 10
-35.1079184525452
 20
49.493537902832
 30
0.0
 11
-35.1079184525452
 21
74.7324212993265
 31
0.0
  0
ARC
  5
   1DC
  8
0
  6
CONTINUOUS
 62
     1
 10
-34.6079184525452
 20
63.493537902832
 30
0.0
 40
11.25
 50
92.5473181825704
 51
116.387799961243
  0
ARC
  5
   1DD
  8
0
  6
CONTINUOUS
 62
     1
 10
-34.6079184525452
 20
63.493537902832
 30
0.0
 40
11.25
 50
259.759651678814
 51
267.45268181743
  0
LINE
  5
   1DE
  8
0
  6
CONTINUOUS
 62
     1
 10
-35.1079184525452
 20
72.743537902832
 30
0.0
 11
-34.1079184525452
 21
72.743537902832
 31
0.0
  0
LINE
  5
   1DF
  8
0
  6
CONTINUOUS
 62
     1
 10
-35.1079184525452
 20
54.243537902832
 30
0.0
 11
-34.1079184525452
 21
54.243537902832
 31
0.0
  0
LINE
  5
   1E0
  8
0
  6
CONTINUOUS
 62
     1
 10
-39.6079184525452
 20
71.993537902832
 30
0.0
 11
-39.6079184525452
 21
73.5713600882052
 31
0.0
  0
LINE
  5
   1E1
  8
0
  6
CONTINUOUS
 62
     1
 10
-39.1079184525452
 20
71.493537902832
 30
0.0
 11
-36.6079184525452
 21
71.493537902832
 31
0.0
  0
ARC
  5
   1E2
  8
0
  6
CONTINUOUS
 62
     1
 10
-39.1079184525452
 20
71.993537902832
 30
0.0
 40
0.5
 50
180.0
 51
270.0
  0
ARC
  5
   1E3
  8
0
  6
CONTINUOUS
 62
     1
 10
-36.1079184525452
 20
74.1383723308539
 30
0.0
 40
0.5
 50
98.0209328752446
 51
180.0
  0
LINE
  5
   1E4
  8
0
  6
CONTINUOUS
 62
     1
 10
-36.6079184525452
 20
49.493537902832
 30
0.0
 11
-35.1079184525452
 21
49.493537902832
 31
0.0
  0
ARC
  5
   1E5
  8
0
  6
CONTINUOUS
 62
     1
 10
-34.6079184525452
 20
63.493537902832
 30
0.0
 40
11.25
 50
272.54731818257
 51
282.839588406904
  0
CIRCLE
  5
   1E6
  8
0
  6
CONTINUOUS
 62
     7
 10
-48.2329184525452
 20
63.493537902832
 30
0.0
 40
1.25
  0
CIRCLE
  5
   1E7
  8
0
  6
CONTINUOUS
 62
     7
 10
-48.2329184525452
 20
63.493537902832
 30
0.0
 40
0.75
  0
LINE
  5
   1E8
  8
0
  6
CONTINUOUS
 62
     7
 10
-35.1079184525452
 20
47.868537902832
 30
0.0
 11
-35.1079184525452
 21
51.868537902832
 31
0.0
  0
LINE
  5
   1E9
  8
0
  6
CONTINUOUS
 62
     7
 10
-34.1079184525452
 20
47.868537902832
 30
0.0
 11
-34.1079184525452
 21
51.868537902832
 31
0.0
  0
LINE
  5
   1EA
  8
0
  6
CONTINUOUS
 62
     7
 10
-35.1079184525452
 20
51.868537902832
 30
0.0
 11
-34.1079184525452
 21
51.868537902832
 31
0.0
  0
LINE
  5
   1EB
  8
0
  6
CONTINUOUS
 62
     7
 10
-35.1079184525452
 20
47.868537902832
 30
0.0
 11
-34.1079184525452
 21
47.868537902832
 31
0.0
  0
LINE
  5
   1EC
  8
0
  6
DASHDOT
 62
     1
 10
-69.0104712534697
 20
54.993537902832
 30
0.0
 11
11.1298628757588
 21
54.993537902832
 31
0.0
  0
LINE
  5
   1ED
  8
0
  6
DOT
 62
     7
 10
-68.2329308283886
 20
-8.13156295069031
 30
0.0
 11
-68.2329308283886
 21
116.215223548362
 31
0.0
  0
LINE
  5
   1EE
  8
0
  6
DOT
 62
     7
 10
-68.2329768589007
 20
116.218435523431
 30
0.0
 11
-66.9829921176897
 21
116.218435523431
 31
0.0
  0
LINE
  5
   1EF
  8
0
  6
DOT
 62
     7
 10
-66.982916073541
 20
116.218435523431
 30
0.0
 11
-66.982916073541
 21
117.115217444862
 31
0.0
  0
ARC
  5
   1F0
  8
0
  6
DOT
 62
     7
 10
-66.4829940937942
 20
117.118449100487
 30
0.0
 40
0.499997169013284
 50
89.9996465086784
 51
180.000221758276
  0
LINE
  5
   1F1
  8
0
  6
DOT
 62
     7
 10
-66.4829768589007
 20
117.61843704931
 30
0.0
 11
-51.6079844882952
 21
117.61843704931
 31
0.0
  0
LINE
  5
   1F2
  8
0
  6
DOT
 62
     7
 10
-68.2330150058733
 20
-8.13156295069031
 30
0.0
 11
-66.9830150058733
 21
-8.13156295069031
 31
0.0
  0
LINE
  5
   1F3
  8
0
  6
DOT
 62
     7
 10
-66.9830150058733
 20
-9.03156256922058
 30
0.0
 11
-66.9830150058733
 21
-8.13156295069031
 31
0.0
  0
ARC
  5
   1F4
  8
0
  6
DOT
 62
     7
 10
-66.4830154373699
 20
-9.0315636853479
 30
0.0
 40
0.499999126459817
 50
179.999908136696
 51
270.000128846519
  0
LINE
  5
   1F5
  8
0
  6
DOT
 62
     7
 10
-66.4830150058733
 20
-9.53156256922058
 30
0.0
 11
-51.6080150058733
 21
-9.53156256922058
 31
0.0
  0
LINE
  5
   1F6
  8
0
  6
CONTINUOUS
 62
     1
 10
-5.25424045017713
 20
97.5543365497782
 30
0.0
 11
-0.128359162642431
 21
36.8858701680282
 31
0.0
  0
LINE
  5
   1F7
  8
0
  6
CONTINUOUS
 62
     1
 10
-2.4191368809614
 20
44.4067233716444
 30
0.0
 11
6.29774871991086
 21
36.9169721514775
 31
0.0
  0
LINE
  5
   1F8
  8
0
  6
CONTINUOUS
 62
     3
 10
4.76708154745484
 20
15.3685398101807
 30
0.0
 11
4.76708154745484
 21
38.2321570520829
 31
0.0
  0
LINE
  5
   1F9
  8
0
  6
CONTINUOUS
 62
     3
 10
-53.1079184525452
 20
14.7435398101807
 30
0.0
 11
4.14208154745484
 21
14.7435398101807
 31
0.0
  0
LINE
  5
   1FA
  8
0
  6
CONTINUOUS
 62
     3
 10
-53.7329184525452
 20
15.3685398101807
 30
0.0
 11
-53.7329184525452
 21
94.618537902832
 31
0.0
  0
LINE
  5
   1FB
  8
0
  6
CONTINUOUS
 62
     3
 10
-53.1079184525452
 20
95.243537902832
 30
0.0
 11
-5.05900097487691
 21
95.243537902832
 31
0.0
  0
LINE
  5
   1FC
  8
0
  6
CONTINUOUS
 62
     3
 10
2.01708154745484
 20
28.4935398101807
 30
0.0
 11
2.01708154745484
 21
40.5950211297528
 31
0.0
  0
LINE
  5
   1FD
  8
0
  6
CONTINUOUS
 62
     3
 10
-50.9829184525452
 20
28.4935398101807
 30
0.0
 11
2.01708154745484
 21
28.4935398101807
 31
0.0
  0
LINE
  5
   1FE
  8
0
  6
CONTINUOUS
 62
     3
 10
-50.9829184525452
 20
28.4935398101807
 30
0.0
 11
-50.9829184525452
 21
81.4935398101807
 31
0.0
  0
LINE
  5
   1FF
  8
0
  6
CONTINUOUS
 62
     3
 10
-50.9829184525452
 20
81.493537902832
 30
0.0
 11
-3.89726289400788
 21
81.493537902832
 31
0.0
  0
LINE
  5
   200
  8
0
  6
CONTINUOUS
 62
     3
 10
2.51708154745484
 20
24.2435398101807
 30
0.0
 11
2.51708154745484
 21
24.7435398101807
 31
0.0
  0
LINE
  5
   201
  8
0
  6
CONTINUOUS
 62
     3
 10
-50.9829184525452
 20
25.2435398101807
 30
0.0
 11
2.01708154745484
 21
25.2435398101807
 31
0.0
  0
LINE
  5
   202
  8
0
  6
CONTINUOUS
 62
     3
 10
-51.4829184525452
 20
24.2435398101807
 30
0.0
 11
-51.4829184525452
 21
24.7435398101807
 31
0.0
  0
LINE
  5
   203
  8
0
  6
CONTINUOUS
 62
     3
 10
-50.9829184525452
 20
24.7435398101807
 30
0.0
 11
2.01708154745484
 21
24.7435398101807
 31
0.0
  0
LINE
  5
   204
  8
0
  6
CONTINUOUS
 62
     3
 10
-51.4829184525452
 20
14.7435398101807
 30
0.0
 11
-51.4829184525452
 21
24.2435398101807
 31
0.0
  0
LINE
  5
   205
  8
0
  6
CONTINUOUS
 62
     3
 10
-51.4829184525452
 20
24.743537902832
 30
0.0
 11
-51.4829184525452
 21
95.243537902832
 31
0.0
  0
LINE
  5
   206
  8
0
  6
CONTINUOUS
 62
     3
 10
-50.9829184525452
 20
14.7435398101807
 30
0.0
 11
-50.9829184525452
 21
24.7435398101807
 31
0.0
  0
LINE
  5
   207
  8
0
  6
CONTINUOUS
 62
     3
 10
-50.9829184525452
 20
81.493537902832
 30
0.0
 11
-50.9829184525452
 21
84.743537902832
 31
0.0
  0
LINE
  5
   208
  8
0
  6
CONTINUOUS
 62
     3
 10
-50.9829184525452
 20
25.2435398101807
 30
0.0
 11
-50.9829184525452
 21
28.4935398101807
 31
0.0
  0
LINE
  5
   209
  8
0
  6
CONTINUOUS
 62
     3
 10
2.51708154745484
 20
14.7435398101807
 30
0.0
 11
2.51708154745484
 21
24.2435398101807
 31
0.0
  0
LINE
  5
   20A
  8
0
  6
CONTINUOUS
 62
     3
 10
2.51708154745484
 20
24.7435398101807
 30
0.0
 11
2.51708154745484
 21
40.1654094792674
 31
0.0
  0
LINE
  5
   20B
  8
0
  6
CONTINUOUS
 62
     3
 10
2.01708154745484
 20
25.2435398101807
 30
0.0
 11
2.01708154745484
 21
28.4935398101807
 31
0.0
  0
LINE
  5
   20C
  8
0
  6
CONTINUOUS
 62
     3
 10
2.01708154745484
 20
14.7435398101807
 30
0.0
 11
2.01708154745484
 21
24.7435398101807
 31
0.0
  0
LINE
  5
   20D
  8
0
  6
CONTINUOUS
 62
     3
 10
-51.4829184525452
 20
85.243537902832
 30
0.0
 11
-4.21410055242671
 21
85.243537902832
 31
0.0
  0
LINE
  5
   20E
  8
0
  6
CONTINUOUS
 62
     3
 10
-50.9829184525452
 20
84.743537902832
 30
0.0
 11
-4.17185553130419
 21
84.743537902832
 31
0.0
  0
ARC
  5
   20F
  8
0
  6
CONTINUOUS
 62
     3
 10
-53.1079184525452
 20
15.3685398101807
 30
0.0
 40
0.625
 50
180.0
 51
270.0
  0
ARC
  5
   210
  8
0
  6
CONTINUOUS
 62
     3
 10
4.14208154745484
 20
15.3685398101807
 30
0.0
 40
0.625
 50
270.0
 51
360.0
  0
ARC
  5
   211
  8
0
  6
CONTINUOUS
 62
     3
 10
-53.1079184525452
 20
94.618537902832
 30
0.0
 40
0.625
 50
90.0
 51
180.0
  0
LINE
  5
   212
  8
0
  6
DOT
 62
     3
 10
-51.7329180000301
 20
89.8685398624369
 30
0.0
 11
-51.4829184525452
 21
89.8685398624369
 31
0.0
  0
LINE
  5
   213
  8
0
  6
DOT
 62
     3
 10
-51.7329180000301
 20
90.6185398624365
 30
0.0
 11
-51.4829184525452
 21
90.6185398624365
 31
0.0
  0
ARC
  5
   214
  8
0
  6
DOT
 62
     3
 10
-51.7329180004204
 20
90.24353986246
 30
0.0
 40
0.374999999672582
 50
90.0
 51
270.0
  0
ARC
  5
   215
  8
0
  6
CONTINUOUS
 62
     3
 10
-51.2329180001029
 20
90.2435398623736
 30
0.0
 40
0.375000000004851
 50
270.0
 51
450.0
  0
LINE
  5
   216
  8
0
  6
CONTINUOUS
 62
     3
 10
-51.4829184525452
 20
90.6185398624365
 30
0.0
 11
-51.2329180000295
 21
90.6185398624365
 31
0.0
  0
LINE
  5
   217
  8
0
  6
CONTINUOUS
 62
     3
 10
-51.4829184525452
 20
89.8685398624369
 30
0.0
 11
-51.2329180000295
 21
89.8685398624369
 31
0.0
  0
TEXT
  5
   218
  8
0
  6
CONTINUOUS
 62
     7
 10
-71.8990359036914
 20
38.0200037059703
 30
0.0
 40
3.00000002980232
  1
=          =
 50
90.0
 41
0.916666689183977
 72
     1
 11
-73.3990359186129
 21
54.2450042665005
 31
0.0
 73
     2
  0
TEXT
  5
   219
  8
0
  6
CONTINUOUS
 62
     7
 10
-40.9406033458809
 20
-29.0710544735193
 30
0.0
 40
3.00000002980232
  1
=          =
 41
0.916666689183977
 72
     1
 11
-24.7156027853489
 21
-27.5710544586182
 31
0.0
 73
     2
  0
INSERT
  5
   21A
  8
0
  6
CONTINUOUS
 62
     7
  2
*UDIM200
 10
0.0
 20
0.0
 30
0.0
  0
INSERT
  5
   21B
  8
0
  6
CONTINUOUS
 62
     7
  2
*UDIM201
 10
0.0
 20
0.0
 30
0.0
  0
TEXT
  5
   21C
  8
0
  6
CONTINUOUS
 62
     7
 10
-25.8210387229919
 20
-17.498083114624
 30
0.0
 40
3.00000002980232
  1
Y
 41
0.916666689183977
  0
TEXT
  5
   21D
  8
0
  6
CONTINUOUS
 62
     7
 10
-25.5009970664978
 20
133.322052001953
 30
0.0
 40
3.00000002980232
  1
Y
 41
0.916666689183977
  0
TEXT
  5
   21E
  8
0
  6
CONTINUOUS
 62
     7
 10
12.7458053529263
 20
53.4762305583542
 30
0.0
 40
3.00000002980232
  1
X
 41
0.916666604744064
 72
     1
 11
13.8458052873612
 21
54.9762305732554
 31
0.0
 73
     2
  0
INSERT
  5
   21F
  8
0
  6
CONTINUOUS
 62
     7
  2
*UDIM202
 10
0.0
 20
0.0
 30
0.0
  0
TEXT
  5
   220
  8
0
  6
CONTINUOUS
 62
     7
 10
-12.7042098045349
 20
136.993469238281
 30
0.0
 40
3.00000002980232
  1
=
 41
0.916666689183977
  0
TEXT
  5
   221
  8
0
  6
CONTINUOUS
 62
     7
 10
-36.7252154350281
 20
137.04020690918
 30
0.0
 40
3.00000002980232
  1
=
 41
0.916666689183977
  0
INSERT
  5
   222
  8
0
  6
CONTINUOUS
 62
     7
  2
*UDIM203
 10
0.0
 20
0.0
 30
0.0
  0
INSERT
  5
   223
  8
0
  6
CONTINUOUS
 62
     7
  2
*UDIM204
 10
0.0
 20
0.0
 30
0.0
  0
LINE
  5
   224
  8
0
  6
DASHDOT
 62
     7
 10
-99.6820983886719
 20
-11.3043752364126
 30
0.0
 11
-99.6820983886719
 21
119.976647146578
 31
0.0
  0
LINE
  5
   225
  8
0
  6
DASHDOT
 62
     7
 10
-98.1820983886719
 20
-11.8508102931576
 30
0.0
 11
-98.1820983886719
 21
120.181560292858
 31
0.0
  0
LINE
  5
   226
  8
0
  6
CONTINUOUS
 62
   218
 10
-100.432098388672
 20
102.368530273438
 30
0.0
 11
-100.432098388672
 21
114.868530273438
 31
0.0
  0
LINE
  5
   227
  8
0
  6
CONTINUOUS
 62
   218
 10
-100.432098388672
 20
-6.6314697265625
 30
0.0
 11
-100.432098388672
 21
5.8685302734375
 31
0.0
  0
LINE
  5
   228
  8
0
  6
CONTINUOUS
 62
   218
 10
-105.932098388672
 20
-9.38149261474609
 30
0.0
 11
-124.432121276856
 21
-9.38149261474609
 31
0.0
  0
LINE
  5
   229
  8
0
  6
CONTINUOUS
 62
   218
 10
-105.932098388672
 20
117.618530273438
 30
0.0
 11
-124.432121276856
 21
117.618530273438
 31
0.0
  0
LINE
  5
   22A
  8
0
  6
CONTINUOUS
 62
   218
 10
-124.432121276856
 20
-0.381492376327515
 30
0.0
 11
-124.432121276856
 21
11.1185305118561
 31
0.0
  0
LINE
  5
   22B
  8
0
  6
CONTINUOUS
 62
   218
 10
-124.432121276856
 20
97.1185302734375
 30
0.0
 11
-124.432121276856
 21
108.618530273438
 31
0.0
  0
LINE
  5
   22C
  8
0
  6
CONTINUOUS
 62
   218
 10
-124.432121276856
 20
11.1185302734375
 30
0.0
 11
-124.432121276856
 21
20.2435150146484
 31
0.0
  0
LINE
  5
   22D
  8
0
  6
CONTINUOUS
 62
   218
 10
-124.432121276856
 20
92.618522644043
 30
0.0
 11
-124.432121276856
 21
97.1185302734375
 31
0.0
  0
LINE
  5
   22E
  8
0
  6
CONTINUOUS
 62
   218
 10
-105.932098388672
 20
-9.38149261474609
 30
0.0
 11
-105.932098388672
 21
-7.98147106170654
 31
0.0
  0
LINE
  5
   22F
  8
0
  6
CONTINUOUS
 62
   218
 10
-100.682098388672
 20
37.6185035705566
 30
0.0
 11
-101.682102203369
 21
37.6185035705566
 31
0.0
  0
LINE
  5
   230
  8
0
  6
CONTINUOUS
 62
   218
 10
-100.682098388672
 20
41.1184997558594
 30
0.0
 11
-101.682102203369
 21
41.1184997558594
 31
0.0
  0
LINE
  5
   231
  8
0
  6
CONTINUOUS
 62
   218
 10
-100.682098388672
 20
37.6185035705566
 30
0.0
 11
-100.682098388672
 21
41.1184997558594
 31
0.0
  0
LINE
  5
   232
  8
0
  6
CONTINUOUS
 62
   218
 10
-105.932098388672
 20
116.218528747559
 30
0.0
 11
-124.432121276856
 21
116.218528747559
 31
0.0
  0
LINE
  5
   233
  8
0
  6
CONTINUOUS
 62
   218
 10
-105.932098388672
 20
-7.98146963119507
 30
0.0
 11
-124.432121276856
 21
-7.98146963119507
 31
0.0
  0
LINE
  5
   234
  8
0
  6
CONTINUOUS
 62
   218
 10
-105.932098388672
 20
-7.98146963119507
 30
0.0
 11
-105.932098388672
 21
16.6153240967055
 31
0.0
  0
LINE
  5
   235
  8
0
  6
CONTINUOUS
 62
    98
 10
-174.182121276855
 20
2.71852254867554
 30
0.0
 11
-175.182121276855
 21
2.71852254867554
 31
0.0
  0
LINE
  5
   236
  8
0
  6
CONTINUOUS
 62
    98
 10
-174.182121276855
 20
22.2185230255127
 30
0.0
 11
-175.182121276855
 21
22.2185230255127
 31
0.0
  0
LINE
  5
   237
  8
0
  6
CONTINUOUS
 62
    98
 10
-175.182121276855
 20
2.71852254867554
 30
0.0
 11
-175.182121276855
 21
28.7403106689535
 31
0.0
  0
LINE
  5
   238
  8
0
  6
CONTINUOUS
 62
    98
 10
-174.182121276855
 20
2.71852254867554
 30
0.0
 11
-174.182121276855
 21
3.53551006317139
 31
0.0
  0
LINE
  5
   239
  8
0
  6
CONTINUOUS
 62
    98
 10
-172.532121658325
 20
2.71852254867554
 30
0.0
 11
-172.682121276855
 21
2.71852254867554
 31
0.0
  0
LINE
  5
   23A
  8
0
  6
CONTINUOUS
 62
    98
 10
-174.182121276855
 20
3.53551006317139
 30
0.0
 11
-174.182121276855
 21
22.6185119980039
 31
0.0
  0
LINE
  5
   23B
  8
0
  6
CONTINUOUS
 62
    98
 10
-174.557121638802
 20
22.2185232180475
 30
0.0
 11
-174.380344752784
 21
22.2917463321891
 31
0.0
  0
LINE
  5
   23C
  8
0
  6
CONTINUOUS
 62
    98
 10
-174.380344582006
 20
22.2917465036865
 30
0.0
 11
-174.307121467865
 21
22.4685233897038
 31
0.0
  0
LINE
  5
   23D
  8
0
  6
CONTINUOUS
 62
    98
 10
-174.307121276856
 20
22.4685230255127
 30
0.0
 11
-174.307121276856
 21
22.6153049468994
 31
0.0
  0
LINE
  5
   23E
  8
0
  6
CONTINUOUS
 62
    98
 10
-175.332120895386
 20
2.71852254867554
 30
0.0
 11
-175.332120895386
 21
3.46852254867554
 31
0.0
  0
LINE
  5
   23F
  8
0
  6
CONTINUOUS
 62
    98
 10
-175.182121276855
 20
2.71852254867554
 30
0.0
 11
-175.332120895386
 21
2.71852254867554
 31
0.0
  0
LINE
  5
   240
  8
0
  6
CONTINUOUS
 62
    98
 10
-175.182121276855
 20
3.46852254867554
 30
0.0
 11
-175.332120895386
 21
3.46852254867554
 31
0.0
  0
LINE
  5
   241
  8
0
  6
CONTINUOUS
 62
   218
 10
-125.432121276855
 20
-8.13147735595703
 30
0.0
 11
-172.532119750977
 21
-8.13147735595703
 31
0.0
  0
LINE
  5
   242
  8
0
  6
CONTINUOUS
 62
   218
 10
-125.432121276855
 20
-9.5314769744873
 30
0.0
 11
-173.932121276855
 21
-9.5314769744873
 31
0.0
  0
LINE
  5
   243
  8
0
  6
CONTINUOUS
 62
   218
 10
-173.932121276855
 20
-9.5314769744873
 30
0.0
 11
-173.932121276855
 21
2.4685230255127
 31
0.0
  0
LINE
  5
   244
  8
0
  6
CONTINUOUS
 62
   218
 10
-172.532121658325
 20
4.46852254867554
 30
0.0
 11
-172.682121276855
 21
4.46852254867554
 31
0.0
  0
LINE
  5
   245
  8
0
  6
CONTINUOUS
 62
   218
 10
-172.532121658325
 20
2.46852254867554
 30
0.0
 11
-173.932121276855
 21
2.46852254867554
 31
0.0
  0
LINE
  5
   246
  8
0
  6
CONTINUOUS
 62
   218
 10
-172.532121658325
 20
4.46852254867554
 30
0.0
 11
-172.532121658325
 21
20.6185145378113
 31
0.0
  0
LINE
  5
   247
  8
0
  6
CONTINUOUS
 62
   218
 10
-124.432121276856
 20
7.46852254867554
 30
0.0
 11
-125.432121276855
 21
7.46852254867554
 31
0.0
  0
LINE
  5
   248
  8
0
  6
CONTINUOUS
 62
   218
 10
-172.532121658325
 20
1.96852266788483
 30
0.0
 11
-173.932121276855
 21
1.96852266788483
 31
0.0
  0
LINE
  5
   249
  8
0
  6
CONTINUOUS
 62
   218
 10
-125.432121276855
 20
7.46852254867554
 30
0.0
 11
-126.432121276855
 21
7.46852254867554
 31
0.0
  0
LINE
  5
   24A
  8
0
  6
CONTINUOUS
 62
   218
 10
-125.432121276855
 20
4.96852254867554
 30
0.0
 11
-126.432121276855
 21
4.96852254867554
 31
0.0
  0
LINE
  5
   24B
  8
0
  6
CONTINUOUS
 62
   218
 10
-126.432121276855
 20
4.96852254867554
 30
0.0
 11
-126.432121276855
 21
7.46852254867554
 31
0.0
  0
LINE
  5
   24C
  8
0
  6
CONTINUOUS
 62
   212
 10
-172.682121276855
 20
2.71852254867554
 30
0.0
 11
-174.182121276855
 21
2.71852254867554
 31
0.0
  0
LINE
  5
   24D
  8
0
  6
CONTINUOUS
 62
   212
 10
-172.532121658325
 20
4.21852254867554
 30
0.0
 11
-172.682121276855
 21
4.21852254867554
 31
0.0
  0
LINE
  5
   24E
  8
0
  6
CONTINUOUS
 62
   212
 10
-172.532121658325
 20
3.21852254867554
 30
0.0
 11
-172.682121276855
 21
3.21852254867554
 31
0.0
  0
LINE
  5
   24F
  8
0
  6
CONTINUOUS
 62
   212
 10
-173.615133312164
 20
2.46852256016671
 30
0.0
 11
-173.68212130372
 21
2.71852255826475
 31
0.0
  0
LINE
  5
   250
  8
0
  6
CONTINUOUS
 62
   212
 10
-173.615132296612
 20
2.46852260569367
 30
0.0
 11
-172.682120311815
 21
2.71852260379171
 31
0.0
  0
LINE
  5
   251
  8
0
  6
CONTINUOUS
 62
    98
 10
-125.432121276855
 20
116.218521118164
 30
0.0
 11
-161.432121276855
 21
116.218521118164
 31
0.0
  0
LINE
  5
   252
  8
0
  6
CONTINUOUS
 62
    98
 10
-125.432121276855
 20
117.618522644043
 30
0.0
 11
-161.432121276855
 21
117.618522644043
 31
0.0
  0
LINE
  5
   253
  8
0
  6
CONTINUOUS
 62
    98
 10
-161.432121276855
 20
105.118522644043
 30
0.0
 11
-161.432121276855
 21
117.618522644043
 31
0.0
  0
LINE
  5
   254
  8
0
  6
CONTINUOUS
 62
    98
 10
-159.682121276855
 20
105.118522644043
 30
0.0
 11
-161.432121276855
 21
105.118522644043
 31
0.0
  0
LINE
  5
   255
  8
0
  6
CONTINUOUS
 62
    98
 10
-159.682121276855
 20
101.118522644043
 30
0.0
 11
-159.732121944428
 21
101.118522644043
 31
0.0
  0
LINE
  5
   256
  8
0
  6
CONTINUOUS
 62
    98
 10
-159.682121276855
 20
96.368522644043
 30
0.0
 11
-159.682121276855
 21
105.118522644043
 31
0.0
  0
LINE
  5
   257
  8
0
  6
CONTINUOUS
 62
    98
 10
-125.432121276855
 20
97.368522644043
 30
0.0
 11
-127.432119369507
 21
97.368522644043
 31
0.0
  0
LINE
  5
   258
  8
0
  6
CONTINUOUS
 62
    98
 10
-125.432121276855
 20
103.368522644043
 30
0.0
 11
-127.432119369507
 21
103.368522644043
 31
0.0
  0
LINE
  5
   259
  8
0
  6
CONTINUOUS
 62
    98
 10
-127.432119369507
 20
97.368522644043
 30
0.0
 11
-127.432119369507
 21
103.368522644043
 31
0.0
  0
LINE
  5
   25A
  8
0
  6
CONTINUOUS
 62
    98
 10
-125.432122707367
 20
96.368522644043
 30
0.0
 11
-159.732121944428
 21
96.368522644043
 31
0.0
  0
LINE
  5
   25B
  8
0
  6
CONTINUOUS
 62
    98
 10
-159.682098388672
 20
63.1152725219809
 30
0.0
 11
-159.682098388672
 21
96.368522644043
 31
0.0
  0
LINE
  5
   25C
  8
0
  6
CONTINUOUS
 62
     7
 10
-173.932121276855
 20
105.615303039551
 30
0.0
 11
-173.932121276855
 21
117.615303039551
 31
0.0
  0
LINE
  5
   25D
  8
0
  6
CONTINUOUS
 62
     7
 10
-173.682121276855
 20
105.615303039551
 30
0.0
 11
-173.932121276855
 21
105.615303039551
 31
0.0
  0
LINE
  5
   25E
  8
0
  6
CONTINUOUS
 62
     7
 10
-173.682121276855
 20
105.365303039551
 30
0.0
 11
-173.682121276855
 21
105.615303039551
 31
0.0
  0
LINE
  5
   25F
  8
0
  6
CONTINUOUS
 62
     7
 10
-161.432121276855
 20
104.865295410156
 30
0.0
 11
-161.432121276855
 21
105.118522644043
 31
0.0
  0
LINE
  5
   260
  8
0
  6
CONTINUOUS
 62
     7
 10
-161.432121276855
 20
117.615303039551
 30
0.0
 11
-173.932121276855
 21
117.615303039551
 31
0.0
  0
LINE
  5
   261
  8
0
  6
CONTINUOUS
 62
     7
 10
-159.732121944428
 20
104.865303039551
 30
0.0
 11
-161.432121276855
 21
104.865303039551
 31
0.0
  0
LINE
  5
   262
  8
0
  6
CONTINUOUS
 62
     7
 10
-159.732121944428
 20
97.6153030395508
 30
0.0
 11
-159.732121944428
 21
104.865303039551
 31
0.0
  0
LINE
  5
   263
  8
0
  6
CONTINUOUS
 62
     7
 10
-172.532121658325
 20
101.240303039551
 30
0.0
 11
-172.682121276855
 21
101.240303039551
 31
0.0
  0
LINE
  5
   264
  8
0
  6
CONTINUOUS
 62
     7
 10
-172.532121658325
 20
104.990303039551
 30
0.0
 11
-172.682121276855
 21
104.990303039551
 31
0.0
  0
LINE
  5
   265
  8
0
  6
CONTINUOUS
 62
     7
 10
-159.732121944428
 20
63.1152725219809
 30
0.0
 11
-159.732121944428
 21
97.6153030395508
 31
0.0
  0
LINE
  5
   266
  8
0
  6
CONTINUOUS
 62
     7
 10
-172.532121658325
 20
92.618522644043
 30
0.0
 11
-172.532121658325
 21
105.365303039551
 31
0.0
  0
LINE
  5
   267
  8
0
  6
CONTINUOUS
 62
     7
 10
-161.432121276855
 20
116.215309143066
 30
0.0
 11
-172.532121658325
 21
116.215309143066
 31
0.0
  0
LINE
  5
   268
  8
0
  6
CONTINUOUS
 62
     7
 10
-172.532121658325
 20
-8.13147735595703
 30
0.0
 11
-172.532121658325
 21
116.215309143066
 31
0.0
  0
LINE
  5
   269
  8
0
  6
CONTINUOUS
 62
   212
 10
-172.682121276855
 20
2.71852254867554
 30
0.0
 11
-172.682121276855
 21
105.365303039551
 31
0.0
  0
LINE
  5
   26A
  8
0
  6
CONTINUOUS
 62
   212
 10
-175.182121276855
 20
81.2403106689535
 30
0.0
 11
-175.182121276855
 21
105.365303039551
 31
0.0
  0
LINE
  5
   26B
  8
0
  6
CONTINUOUS
 62
   212
 10
-172.682121276855
 20
105.365303039551
 30
0.0
 11
-175.182121276855
 21
105.365303039551
 31
0.0
  0
LINE
  5
   26C
  8
0
  6
CONTINUOUS
 62
   212
 10
-172.932121276855
 20
22.6153049468994
 30
0.0
 11
-174.307121276856
 21
22.6153049468994
 31
0.0
  0
LINE
  5
   26D
  8
0
  6
CONTINUOUS
 62
   212
 10
-172.932121276855
 20
2.71852254867554
 30
0.0
 11
-172.932121276855
 21
105.365303039551
 31
0.0
  0
LINE
  5
   26E
  8
0
  6
CONTINUOUS
 62
   212
 10
-173.682121276855
 20
22.6153049468994
 30
0.0
 11
-173.682121276855
 21
22.6185131072998
 31
0.0
  0
LINE
  5
   26F
  8
0
  6
CONTINUOUS
 62
   218
 10
-100.432098388672
 20
114.868530273438
 30
0.0
 11
-105.932098388672
 21
114.868530273438
 31
0.0
  0
LINE
  5
   270
  8
0
  6
CONTINUOUS
 62
   218
 10
-105.432121276855
 20
102.368530273438
 30
0.0
 11
-105.932098388672
 21
102.368530273438
 31
0.0
  0
LINE
  5
   271
  8
0
  6
CONTINUOUS
 62
   218
 10
-100.432098388672
 20
102.368530273438
 30
0.0
 11
-105.432121276855
 21
102.368530273438
 31
0.0
  0
LINE
  5
   272
  8
0
  6
CONTINUOUS
 62
   218
 10
-100.432098388672
 20
-6.6314697265625
 30
0.0
 11
-105.932098388672
 21
-6.6314697265625
 31
0.0
  0
LINE
  5
   273
  8
0
  6
CONTINUOUS
 62
   218
 10
-100.432098388672
 20
5.8685302734375
 30
0.0
 11
-105.432121276855
 21
5.8685302734375
 31
0.0
  0
LINE
  5
   274
  8
0
  6
CONTINUOUS
 62
   218
 10
-105.432121276855
 20
5.8685302734375
 30
0.0
 11
-105.932098388672
 21
5.8685302734375
 31
0.0
  0
LINE
  5
   275
  8
0
  6
CONTINUOUS
 62
    98
 10
-174.557121276855
 20
2.7185230255127
 30
0.0
 11
-174.557121276855
 21
22.2185230255127
 31
0.0
  0
LINE
  5
   276
  8
0
  6
CONTINUOUS
 62
   218
 10
-172.532121658325
 20
-9.0314769744873
 30
0.0
 11
-173.932121276855
 21
-9.0314769744873
 31
0.0
  0
LINE
  5
   277
  8
0
  6
CONTINUOUS
 62
   212
 10
-174.557121276855
 20
22.2185230255127
 30
0.0
 11
-174.557121276855
 21
105.365303039551
 31
0.0
  0
LINE
  5
   278
  8
0
  6
DASHDOT
 62
     7
 10
-93.284759768028
 20
20.3685133432259
 30
0.0
 11
-101.239169217493
 21
20.3685133432259
 31
0.0
  0
LINE
  5
   279
  8
0
  6
CONTINUOUS
 62
     7
 10
-95.4320983886719
 20
19.6185133432259
 30
0.0
 11
-95.4320983886719
 21
21.1185133432259
 31
0.0
  0
LINE
  5
   27A
  8
0
  6
CONTINUOUS
 62
     7
 10
-97.9320983886719
 20
18.4435133432259
 30
0.0
 11
-97.9320983886719
 21
22.2935133432259
 31
0.0
  0
LINE
  5
   27B
  8
0
  6
CONTINUOUS
 62
     7
 10
-96.3320983886719
 20
18.4435133432259
 30
0.0
 11
-96.3320983886719
 21
22.2935133432259
 31
0.0
  0
LINE
  5
   27C
  8
0
  6
CONTINUOUS
 62
     7
 10
-96.3320983886719
 20
22.2935133432259
 30
0.0
 11
-98.1820983886719
 21
22.2935133432259
 31
0.0
  0
LINE
  5
   27D
  8
0
  6
CONTINUOUS
 62
     7
 10
-96.3320983886719
 20
18.4435133432259
 30
0.0
 11
-98.1820983886719
 21
18.4435133432259
 31
0.0
  0
LINE
  5
   27E
  8
0
  6
CONTINUOUS
 62
     7
 10
-95.6820983886719
 20
21.3685133432259
 30
0.0
 11
-96.3320983886719
 21
21.3685133432259
 31
0.0
  0
LINE
  5
   27F
  8
0
  6
CONTINUOUS
 62
     7
 10
-95.6820983886719
 20
19.3685133432259
 30
0.0
 11
-96.3320983886719
 21
19.3685133432259
 31
0.0
  0
LINE
  5
   280
  8
0
  6
CONTINUOUS
 62
     7
 10
-95.6820983886719
 20
19.3685133432259
 30
0.0
 11
-95.6820983886719
 21
21.3685133432259
 31
0.0
  0
LINE
  5
   281
  8
0
  6
CONTINUOUS
 62
     7
 10
-95.6820983886719
 20
19.3685133432259
 30
0.0
 11
-95.4320983886719
 21
19.6185133432259
 31
0.0
  0
LINE
  5
   282
  8
0
  6
CONTINUOUS
 62
     7
 10
-95.4320983886719
 20
21.1185133432259
 30
0.0
 11
-95.6820983886719
 21
21.3685133432259
 31
0.0
  0
LINE
  5
   283
  8
0
  6
CONTINUOUS
 62
     7
 10
-95.6820983886719
 20
21.1685133432259
 30
0.0
 11
-97.9320983886719
 21
21.1685133432259
 31
0.0
  0
LINE
  5
   284
  8
0
  6
CONTINUOUS
 62
     7
 10
-95.6820983886719
 20
19.5685133432259
 30
0.0
 11
-97.9320983886719
 21
19.5685133432259
 31
0.0
  0
LINE
  5
   285
  8
0
  6
DASHDOT
 62
     7
 10
-93.284759768028
 20
87.8685133432259
 30
0.0
 11
-101.239169217493
 21
87.8685133432259
 31
0.0
  0
LINE
  5
   286
  8
0
  6
CONTINUOUS
 62
     7
 10
-95.4320983886719
 20
87.1185133432259
 30
0.0
 11
-95.4320983886719
 21
88.6185133432259
 31
0.0
  0
LINE
  5
   287
  8
0
  6
CONTINUOUS
 62
     7
 10
-97.9320983886719
 20
85.9435133432259
 30
0.0
 11
-97.9320983886719
 21
89.7935133432259
 31
0.0
  0
LINE
  5
   288
  8
0
  6
CONTINUOUS
 62
     7
 10
-96.3320983886719
 20
85.9435133432259
 30
0.0
 11
-96.3320983886719
 21
89.7935133432259
 31
0.0
  0
LINE
  5
   289
  8
0
  6
CONTINUOUS
 62
     7
 10
-96.3320983886719
 20
89.7935133432259
 30
0.0
 11
-98.1820983886719
 21
89.7935133432259
 31
0.0
  0
LINE
  5
   28A
  8
0
  6
CONTINUOUS
 62
     7
 10
-96.3320983886719
 20
85.9435133432259
 30
0.0
 11
-98.1820983886719
 21
85.9435133432259
 31
0.0
  0
LINE
  5
   28B
  8
0
  6
CONTINUOUS
 62
     7
 10
-95.6820983886719
 20
88.8685133432259
 30
0.0
 11
-96.3320983886719
 21
88.8685133432259
 31
0.0
  0
LINE
  5
   28C
  8
0
  6
CONTINUOUS
 62
     7
 10
-95.6820983886719
 20
86.8685133432259
 30
0.0
 11
-96.3320983886719
 21
86.8685133432259
 31
0.0
  0
LINE
  5
   28D
  8
0
  6
CONTINUOUS
 62
     7
 10
-95.6820983886719
 20
86.8685133432259
 30
0.0
 11
-95.6820983886719
 21
88.8685133432259
 31
0.0
  0
LINE
  5
   28E
  8
0
  6
CONTINUOUS
 62
     7
 10
-95.6820983886719
 20
86.8685133432259
 30
0.0
 11
-95.4320983886719
 21
87.1185133432259
 31
0.0
  0
LINE
  5
   28F
  8
0
  6
CONTINUOUS
 62
     7
 10
-95.4320983886719
 20
88.6185133432259
 30
0.0
 11
-95.6820983886719
 21
88.8685133432259
 31
0.0
  0
LINE
  5
   290
  8
0
  6
CONTINUOUS
 62
     7
 10
-95.6820983886719
 20
88.6685133432259
 30
0.0
 11
-97.9320983886719
 21
88.6685133432259
 31
0.0
  0
LINE
  5
   291
  8
0
  6
CONTINUOUS
 62
     7
 10
-95.6820983886719
 20
87.0685133432259
 30
0.0
 11
-97.9320983886719
 21
87.0685133432259
 31
0.0
  0
LINE
  5
   292
  8
0
  6
CONTINUOUS
 62
     5
 10
-197.18234958782
 20
28.743407145248
 30
0.0
 11
-197.18151416911
 21
28.7435292155638
 31
0.0
  0
LINE
  5
   293
  8
0
  6
CONTINUOUS
 62
     5
 10
-198.18135022229
 20
28.7442891874537
 30
0.0
 11
-198.359565250485
 21
28.8160474556
 31
0.0
  0
LINE
  5
   294
  8
0
  6
CONTINUOUS
 62
     5
 10
-198.35956357783
 20
28.8160476040747
 30
0.0
 11
-198.431371440408
 21
28.9942778845863
 31
0.0
  0
LINE
  5
   295
  8
0
  6
CONTINUOUS
 62
     5
 10
-198.432225704822
 20
28.9932534967713
 30
0.0
 11
-198.432084561024
 21
28.9942777430005
 31
0.0
  0
LINE
  5
   296
  8
0
  6
CONTINUOUS
 62
     5
 10
-198.431476496209
 20
80.9929499100171
 30
0.0
 11
-198.359451197036
 21
81.1709894581954
 31
0.0
  0
LINE
  5
   297
  8
0
  6
CONTINUOUS
 62
     5
 10
-198.359452089115
 20
81.1709910454837
 30
0.0
 11
-198.249020419466
 21
81.2156306325575
 31
0.0
  0
LINE
  5
   298
  8
0
  6
CONTINUOUS
 62
     5
 10
-198.248693785586
 20
81.2157571595935
 30
0.0
 11
-198.181455932972
 21
81.2429330618731
 31
0.0
  0
LINE
  5
   299
  8
0
  6
CONTINUOUS
 62
     5
 10
-196.8070845779
 20
80.9935601315483
 30
0.0
 11
-196.983941573086
 21
81.1703408295045
 31
0.0
  0
LINE
  5
   29A
  8
0
  6
CONTINUOUS
 62
     5
 10
-197.983931939521
 20
81.1703300264959
 30
0.0
 11
-198.249015254878
 21
81.21580884655
 31
0.0
  0
LINE
  5
   29B
  8
0
  6
CONTINUOUS
 62
     5
 10
-198.249013692457
 20
28.77125778312
 30
0.0
 11
-197.983876977236
 21
28.8167499544299
 31
0.0
  0
LINE
  5
   29C
  8
0
  6
CONTINUOUS
 62
     5
 10
-196.983886681757
 20
28.8167529301851
 30
0.0
 11
-196.807083092983
 21
28.9935298140345
 31
0.0
  0
LINE
  5
   29D
  8
0
  6
CONTINUOUS
 62
     5
 10
-198.249734941302
 20
28.7705485891349
 30
0.0
 11
-198.249021592915
 21
28.7712600301999
 31
0.0
  0
LINE
  5
   29E
  8
0
  6
CONTINUOUS
 62
     5
 10
-198.249017745225
 20
81.2158102039803
 30
0.0
 11
-198.249673873152
 21
81.2164663319068
 31
0.0
  0
LINE
  5
   29F
  8
0
  6
CONTINUOUS
 62
     1
 10
-234.432167053228
 20
28.4870073982079
 30
0.0
 11
-234.432167053228
 21
28.7403106689535
 31
0.0
  0
LINE
  5
   2A0
  8
0
  6
CONTINUOUS
 62
     7
 10
-234.432167053228
 20
21.2370073982079
 30
0.0
 11
-235.432167053228
 21
21.2370073982079
 31
0.0
  0
LINE
  5
   2A1
  8
0
  6
DASHDOT
 62
     3
 10
-90.9335289780765
 20
54.9903106689535
 30
0.0
 11
-257.087312331665
 21
54.9903106689535
 31
0.0
  0
LINE
  5
   2A2
  8
0
  6
CONTINUOUS
 62
     7
 10
-175.182121276855
 20
81.2403106689535
 30
0.0
 11
-234.432167053228
 21
81.2403106689535
 31
0.0
  0
LINE
  5
   2A3
  8
0
  6
CONTINUOUS
 62
     7
 10
-175.182121276855
 20
28.7403106689535
 30
0.0
 11
-234.432167053228
 21
28.7403106689535
 31
0.0
  0
LINE
  5
   2A4
  8
0
  6
CONTINUOUS
 62
     7
 10
-237.182167053228
 20
28.7403259277426
 30
0.0
 11
-237.182167053228
 21
81.2403106689535
 31
0.0
  0
LINE
  5
   2A5
  8
0
  6
CONTINUOUS
 62
     7
 10
-237.182167053228
 20
74.7291846044696
 30
0.0
 11
-238.182167053228
 21
74.7291846044696
 31
0.0
  0
LINE
  5
   2A6
  8
0
  6
CONTINUOUS
 62
     7
 10
-237.182167053228
 20
52.2514178120392
 30
0.0
 11
-238.182167053228
 21
52.2514178120392
 31
0.0
  0
LINE
  5
   2A7
  8
0
  6
CONTINUOUS
 62
     7
 10
-238.182167053228
 20
52.2514178120392
 30
0.0
 11
-238.182167053228
 21
74.7291846044696
 31
0.0
  0
LINE
  5
   2A8
  8
0
  6
CONTINUOUS
 62
   218
 10
-125.432121276855
 20
-9.5314769744873
 30
0.0
 11
-125.432121276855
 21
4.96852254867554
 31
0.0
  0
LINE
  5
   2A9
  8
0
  6
CONTINUOUS
 62
    98
 10
-125.43212295981
 20
92.618522644043
 30
0.0
 11
-125.432121276855
 21
117.618522644043
 31
0.0
  0
LINE
  5
   2AA
  8
0
  6
CONTINUOUS
 62
   218
 10
-124.432174682623
 20
2.17642974859177
 30
0.0
 11
-125.432121276855
 21
2.17642974859177
 31
0.0
  0
LINE
  5
   2AB
  8
0
  6
CONTINUOUS
 62
   218
 10
-124.432121276856
 20
-2.11847734445632
 30
0.0
 11
-125.432121276855
 21
-2.11847734445632
 31
0.0
  0
LINE
  5
   2AC
  8
0
  6
CONTINUOUS
 62
    98
 10
-124.432174682623
 20
109.615270690992
 30
0.0
 11
-125.43212181562
 21
109.615270690992
 31
0.0
  0
LINE
  5
   2AD
  8
0
  6
CONTINUOUS
 62
    98
 10
-124.432174682623
 20
104.115270690992
 30
0.0
 11
-125.43212218587
 21
104.115270690992
 31
0.0
  0
LINE
  5
   2AE
  8
0
  6
CONTINUOUS
 62
     1
 10
-237.182167053228
 20
14.2370835113784
 30
0.0
 11
-237.182167053228
 21
37.1152162551962
 31
0.0
  0
LINE
  5
   2AF
  8
0
  6
CONTINUOUS
 62
     1
 10
-237.182167053228
 20
45.6152153015219
 30
0.0
 11
-237.182167053228
 21
95.2402191162191
 31
0.0
  0
LINE
  5
   2B0
  8
0
  6
CONTINUOUS
 62
     1
 10
-235.432167053228
 20
95.2402191162191
 30
0.0
 11
-237.182167053228
 21
95.2402191162191
 31
0.0
  0
LINE
  5
   2B1
  8
0
  6
CONTINUOUS
 62
     1
 10
-234.432167053228
 20
85.9902343750082
 30
0.0
 11
-235.432167053228
 21
85.9902343750082
 31
0.0
  0
LINE
  5
   2B2
  8
0
  6
CONTINUOUS
 62
     7
 10
-234.432167053228
 20
20.9902172088705
 30
0.0
 11
-234.432167053228
 21
27.4870835113784
 31
0.0
  0
LINE
  5
   2B3
  8
0
  6
CONTINUOUS
 62
     1
 10
-234.432167053228
 20
85.9902191162191
 30
0.0
 11
-235.432167053228
 21
85.9902191162191
 31
0.0
  0
LINE
  5
   2B4
  8
0
  6
CONTINUOUS
 62
     1
 10
-232.182167053228
 20
18.278892517098
 30
0.0
 11
-232.182167053228
 21
20.701541900643
 31
0.0
  0
LINE
  5
   2B5
  8
0
  6
CONTINUOUS
 62
     1
 10
-232.182167053228
 20
89.278892517098
 30
0.0
 11
-232.182167053228
 21
91.7015457153402
 31
0.0
  0
LINE
  5
   2B6
  8
0
  6
CONTINUOUS
 62
     5
 10
-237.182312229693
 20
28.9900137838771
 30
0.0
 11
-237.18216917854
 21
28.9910494742022
 31
0.0
  0
LINE
  5
   2B7
  8
0
  6
CONTINUOUS
 62
     1
 10
-237.182167053228
 20
37.1152191162191
 30
0.0
 11
-237.182167053228
 21
45.6152191162191
 31
0.0
  0
LINE
  5
   2B8
  8
0
  6
CONTINUOUS
 62
     1
 10
-232.682167053228
 20
17.9902172088705
 30
0.0
 11
-235.432167053228
 21
17.9902172088705
 31
0.0
  0
LINE
  5
   2B9
  8
0
  6
CONTINUOUS
 62
     1
 10
-232.682167053228
 20
20.9902172088705
 30
0.0
 11
-235.432167053228
 21
20.9902172088705
 31
0.0
  0
LINE
  5
   2BA
  8
0
  6
CONTINUOUS
 62
     1
 10
-232.682167053228
 20
20.8760375976644
 30
0.0
 11
-232.682167053228
 21
20.9902172088705
 31
0.0
  0
LINE
  5
   2BB
  8
0
  6
CONTINUOUS
 62
     1
 10
-232.682167053228
 20
20.5508785247885
 30
0.0
 11
-232.682167053228
 21
20.8760375976644
 31
0.0
  0
LINE
  5
   2BC
  8
0
  6
CONTINUOUS
 62
     1
 10
-232.682167053228
 20
20.0642433166586
 30
0.0
 11
-232.682167053228
 21
20.5508785247885
 31
0.0
  0
LINE
  5
   2BD
  8
0
  6
CONTINUOUS
 62
     1
 10
-232.682167053228
 20
19.4902172088705
 30
0.0
 11
-232.682167053228
 21
20.0642433166586
 31
0.0
  0
LINE
  5
   2BE
  8
0
  6
CONTINUOUS
 62
     1
 10
-232.682167053228
 20
18.916193008431
 30
0.0
 11
-232.682167053228
 21
19.4902172088705
 31
0.0
  0
LINE
  5
   2BF
  8
0
  6
CONTINUOUS
 62
     1
 10
-232.682167053228
 20
18.4295578003012
 30
0.0
 11
-232.682167053228
 21
18.916193008431
 31
0.0
  0
LINE
  5
   2C0
  8
0
  6
CONTINUOUS
 62
     1
 10
-232.682167053228
 20
18.1043987274252
 30
0.0
 11
-232.682167053228
 21
18.4295578003012
 31
0.0
  0
LINE
  5
   2C1
  8
0
  6
CONTINUOUS
 62
     1
 10
-232.682167053228
 20
17.9902172088705
 30
0.0
 11
-232.682167053228
 21
18.1043987274252
 31
0.0
  0
LINE
  5
   2C2
  8
0
  6
CONTINUOUS
 62
     1
 10
-232.682166453924
 20
17.9902167959197
 30
0.0
 11
-232.18216643746
 21
18.2788920881763
 31
0.0
  0
LINE
  5
   2C3
  8
0
  6
CONTINUOUS
 62
     1
 10
-232.182165976713
 20
20.7015409995051
 30
0.0
 11
-232.682165993178
 21
20.9902162917617
 31
0.0
  0
LINE
  5
   2C4
  8
0
  6
CONTINUOUS
 62
     1
 10
-232.682167053228
 20
88.9902191162191
 30
0.0
 11
-235.432167053228
 21
88.9902191162191
 31
0.0
  0
LINE
  5
   2C5
  8
0
  6
CONTINUOUS
 62
     1
 10
-232.682167053228
 20
91.9902191162191
 30
0.0
 11
-235.432167053228
 21
91.9902191162191
 31
0.0
  0
LINE
  5
   2C6
  8
0
  6
CONTINUOUS
 62
     1
 10
-232.682167053228
 20
91.8760375976644
 30
0.0
 11
-232.682167053228
 21
91.9902191162191
 31
0.0
  0
LINE
  5
   2C7
  8
0
  6
CONTINUOUS
 62
     1
 10
-232.682167053228
 20
91.5508804321371
 30
0.0
 11
-232.682167053228
 21
91.8760375976644
 31
0.0
  0
LINE
  5
   2C8
  8
0
  6
CONTINUOUS
 62
     1
 10
-232.682167053228
 20
91.0642395019613
 30
0.0
 11
-232.682167053228
 21
91.5508804321371
 31
0.0
  0
LINE
  5
   2C9
  8
0
  6
CONTINUOUS
 62
     1
 10
-232.682167053228
 20
90.4902191162191
 30
0.0
 11
-232.682167053228
 21
91.0642395019613
 31
0.0
  0
LINE
  5
   2CA
  8
0
  6
CONTINUOUS
 62
     1
 10
-232.682167053228
 20
89.9161911010824
 30
0.0
 11
-232.682167053228
 21
90.4902191162191
 31
0.0
  0
LINE
  5
   2CB
  8
0
  6
CONTINUOUS
 62
     1
 10
-232.682167053228
 20
89.4295578003012
 30
0.0
 11
-232.682167053228
 21
89.9161911010824
 31
0.0
  0
LINE
  5
   2CC
  8
0
  6
CONTINUOUS
 62
     1
 10
-232.682167053228
 20
89.1044006347738
 30
0.0
 11
-232.682167053228
 21
89.4295578003012
 31
0.0
  0
LINE
  5
   2CD
  8
0
  6
CONTINUOUS
 62
     1
 10
-232.682167053228
 20
88.9902191162191
 30
0.0
 11
-232.682167053228
 21
89.1044006347738
 31
0.0
  0
LINE
  5
   2CE
  8
0
  6
CONTINUOUS
 62
     1
 10
-232.682167143935
 20
88.9902180436523
 30
0.0
 11
-232.182167127472
 21
89.2788914481505
 31
0.0
  0
LINE
  5
   2CF
  8
0
  6
CONTINUOUS
 62
     1
 10
-232.182166318307
 20
91.7015444484265
 30
0.0
 11
-232.68216633477
 21
91.9902178529247
 31
0.0
  0
LINE
  5
   2D0
  8
0
  6
CONTINUOUS
 62
     7
 10
-234.432167053228
 20
85.9902191162191
 30
0.0
 11
-234.432167053228
 21
88.9902191162191
 31
0.0
  0
LINE
  5
   2D1
  8
0
  6
CONTINUOUS
 62
     7
 10
-235.432167053228
 20
95.2402191162191
 30
0.0
 11
-235.432167053228
 21
128.985606552366
 31
0.0
  0
LINE
  5
   2D2
  8
0
  6
DASHDOT
 62
     7
 10
-230.843385338925
 20
127.038850673571
 30
0.0
 11
-238.015362443843
 21
130.081507627172
 31
0.0
  0
LINE
  5
   2D3
  8
0
  6
DASHDOT
 62
     7
 10
-237.942918230662
 20
-7.63494162988565
 30
0.0
 11
-231.133162191649
 21
-5.461615234456
 31
0.0
  0
LINE
  5
   2D4
  8
0
  6
CONTINUOUS
 62
     7
 10
-234.432167053228
 20
92.2402191162191
 30
0.0
 11
-235.432167053228
 21
92.2402191162191
 31
0.0
  0
LINE
  5
   2D5
  8
0
  6
CONTINUOUS
 62
     7
 10
-234.432167053228
 20
88.7402191162191
 30
0.0
 11
-235.432167053228
 21
88.7402191162191
 31
0.0
  0
LINE
  5
   2D6
  8
0
  6
CONTINUOUS
 62
     7
 10
-234.432167053228
 20
86.4902191162191
 30
0.0
 11
-235.432167053228
 21
86.4902191162191
 31
0.0
  0
LINE
  5
   2D7
  8
0
  6
CONTINUOUS
 62
     7
 10
-234.432167053228
 20
17.7402172088705
 30
0.0
 11
-235.432167053228
 21
17.7402172088705
 31
0.0
  0
LINE
  5
   2D8
  8
0
  6
CONTINUOUS
 62
     7
 10
-234.432167053228
 20
91.9902191162191
 30
0.0
 11
-234.432167053228
 21
128.561364128124
 31
0.0
  0
INSERT
  5
   2D9
  8
0
  6
CONTINUOUS
 62
     7
  2
*HATCH40
 10
-151.182083129883
 20
0.0
 30
0.0
 41
0.5
 42
0.5
 50
89.9999999480344
 43
0.5
  0
INSERT
  5
   2DA
  8
0
  6
CONTINUOUS
 62
     7
  2
*HATCH41
 10
-151.182083129883
 20
0.0
 30
0.0
 41
0.5
 42
0.5
 50
89.9999999480344
 43
0.5
  0
LINE
  5
   2DB
  8
0
  6
DOT
 62
     7
 10
-250.932167053228
 20
28.7402858734213
 30
0.0
 11
-250.932167053228
 21
81.2403106689535
 31
0.0
  0
LINE
  5
   2DC
  8
0
  6
DOT
 62
     7
 10
-237.182167053228
 20
81.2403106689535
 30
0.0
 11
-250.932167053228
 21
81.2403106689535
 31
0.0
  0
LINE
  5
   2DD
  8
0
  6
DOT
 62
     7
 10
-237.182167053228
 20
28.7402858734213
 30
0.0
 11
-250.932167053228
 21
28.7402858734213
 31
0.0
  0
LINE
  5
   2DE
  8
0
  6
CONTINUOUS
 62
     7
 10
-234.432167053228
 20
-6.51448912644948
 30
0.0
 11
-234.432167053228
 21
17.9902172088705
 31
0.0
  0
LINE
  5
   2DF
  8
0
  6
CONTINUOUS
 62
     7
 10
-235.432167053228
 20
-6.83363806261969
 30
0.0
 11
-235.432167053228
 21
14.2370835113784
 31
0.0
  0
LINE
  5
   2E0
  8
0
  6
CONTINUOUS
 62
     7
 10
-176.182121276856
 20
28.7403106689535
 30
0.0
 11
-176.182121276856
 21
81.2403106689535
 31
0.0
  0
LINE
  5
   2E1
  8
0
  6
CONTINUOUS
 62
     7
 10
-157.432106018066
 20
41.8653012085219
 30
0.0
 11
-157.432106018066
 21
63.1152935791274
 31
0.0
  0
LINE
  5
   2E2
  8
0
  6
CONTINUOUS
 62
     7
 10
-157.432106018066
 20
63.1152725219809
 30
0.0
 11
-159.732121944428
 21
63.1152725219809
 31
0.0
  0
LINE
  5
   2E3
  8
0
  6
CONTINUOUS
 62
     7
 10
-157.432106018066
 20
41.8653012085219
 30
0.0
 11
-161.432106018066
 21
41.8653012085219
 31
0.0
  0
LINE
  5
   2E4
  8
0
  6
CONTINUOUS
 62
     7
 10
-161.432092632264
 20
40.4903182983553
 30
0.0
 11
-172.532091106385
 21
40.4903182983553
 31
0.0
  0
LINE
  5
   2E5
  8
0
  6
CONTINUOUS
 62
     7
 10
-160.932107329198
 20
40.3653019095003
 30
0.0
 11
-161.432107312084
 21
40.865301892386
 31
0.0
  0
LINE
  5
   2E6
  8
0
  6
CONTINUOUS
 62
     7
 10
-126.932096862792
 20
40.3653012085219
 30
0.0
 11
-160.932113647461
 21
40.3653012085219
 31
0.0
  0
LINE
  5
   2E7
  8
0
  6
CONTINUOUS
 62
     7
 10
-129.548143145586
 20
40.3653062931333
 30
0.0
 11
-125.432130748581
 21
41.4681920062017
 31
0.0
  0
LINE
  5
   2E8
  8
0
  6
CONTINUOUS
 62
     7
 10
-126.932096862792
 20
34.8653012085219
 30
0.0
 11
-126.932096862792
 21
40.3653012085219
 31
0.0
  0
LINE
  5
   2E9
  8
0
  6
CONTINUOUS
 62
     7
 10
-126.932096862792
 20
34.8653012085219
 30
0.0
 11
-160.932113647461
 21
34.8653012085219
 31
0.0
  0
LINE
  5
   2EA
  8
0
  6
CONTINUOUS
 62
     7
 10
-125.432133055572
 20
33.7624195784856
 30
0.0
 11
-129.548145547349
 21
34.8653017428818
 31
0.0
  0
LINE
  5
   2EB
  8
0
  6
CONTINUOUS
 62
     7
 10
-125.93212890625
 20
33.8963930557495
 30
0.0
 11
-125.93212890625
 21
41.3342114258071
 31
0.0
  0
LINE
  5
   2EC
  8
0
  6
CONTINUOUS
 62
     7
 10
-125.18212890625
 20
41.1153016853591
 30
0.0
 11
-125.93212890625
 21
41.1153016853591
 31
0.0
  0
LINE
  5
   2ED
  8
0
  6
CONTINUOUS
 62
     7
 10
-161.432095213068
 20
34.3653207216186
 30
0.0
 11
-160.93210285876
 21
34.8653130759262
 31
0.0
  0
LINE
  5
   2EE
  8
0
  6
CONTINUOUS
 62
     7
 10
-161.432096309495
 20
34.7403182983566
 30
0.0
 11
-172.532094783616
 21
34.7403182983566
 31
0.0
  0
LINE
  5
   2EF
  8
0
  6
CONTINUOUS
 62
     7
 10
-161.432098388672
 20
25.8653259277423
 30
0.0
 11
-161.432098388672
 21
34.7403076447007
 31
0.0
  0
LINE
  5
   2F0
  8
0
  6
CONTINUOUS
 62
     7
 10
-161.807093908736
 20
33.514825001806
 30
0.0
 11
-161.432093911485
 21
33.6153117483332
 31
0.0
  0
LINE
  5
   2F1
  8
0
  6
CONTINUOUS
 62
     7
 10
-162.081606499077
 20
33.2403075730969
 30
0.0
 11
-161.807093268757
 21
33.514820803417
 31
0.0
  0
LINE
  5
   2F2
  8
0
  6
CONTINUOUS
 62
     7
 10
-162.182085032646
 20
32.8653082682631
 30
0.0
 11
-162.081598286118
 21
33.2403082655135
 31
0.0
  0
LINE
  5
   2F3
  8
0
  6
CONTINUOUS
 62
     7
 10
-162.182086520742
 20
28.3653060078765
 30
0.0
 11
-162.182094150136
 21
32.8653060078765
 31
0.0
  0
LINE
  5
   2F4
  8
0
  6
CONTINUOUS
 62
     7
 10
-161.807095430218
 20
27.7157870651591
 30
0.0
 11
-162.081608656718
 21
27.9903079278781
 31
0.0
  0
LINE
  5
   2F5
  8
0
  6
CONTINUOUS
 62
     7
 10
-161.432082116579
 20
27.615314757399
 30
0.0
 11
-161.807089730852
 21
27.7157938752804
 31
0.0
  0
LINE
  5
   2F6
  8
0
  6
CONTINUOUS
 62
     7
 10
-161.432090381259
 20
26.1153182983587
 30
0.0
 11
-172.532096484774
 21
26.1153182983587
 31
0.0
  0
LINE
  5
   2F7
  8
0
  6
CONTINUOUS
 62
     7
 10
-161.432098388672
 20
25.8653259277423
 30
0.0
 11
-172.532127380371
 21
25.8653259277423
 31
0.0
  0
LINE
  5
   2F8
  8
0
  6
CONTINUOUS
 62
     7
 10
-156.432113647461
 20
27.115316467311
 30
0.0
 11
-161.432106018066
 21
27.115316467311
 31
0.0
  0
LINE
  5
   2F9
  8
0
  6
CONTINUOUS
 62
     7
 10
-156.43212890625
 20
26.8653259277423
 30
0.0
 11
-161.43212890625
 21
26.8653259277423
 31
0.0
  0
LINE
  5
   2FA
  8
0
  6
CONTINUOUS
 62
     7
 10
-156.432113647461
 20
24.615316467311
 30
0.0
 11
-156.432113647461
 21
27.115316467311
 31
0.0
  0
LINE
  5
   2FB
  8
0
  6
CONTINUOUS
 62
     7
 10
-126.43212890625
 20
24.6153164673116
 30
0.0
 11
-156.432113647461
 21
24.6153164673116
 31
0.0
  0
LINE
  5
   2FC
  8
0
  6
CONTINUOUS
 62
     7
 10
-124.43212890625
 20
24.6153164673116
 30
0.0
 11
-126.43212890625
 21
24.6153164673116
 31
0.0
  0
LINE
  5
   2FD
  8
0
  6
CONTINUOUS
 62
     7
 10
-124.43212890625
 20
24.6153164673116
 30
0.0
 11
-126.43212890625
 21
24.6153164673116
 31
0.0
  0
LINE
  5
   2FE
  8
0
  6
CONTINUOUS
 62
     7
 10
-126.43212890625
 20
24.6153259277423
 30
0.0
 11
-126.43212890625
 21
25.8653259277423
 31
0.0
  0
LINE
  5
   2FF
  8
0
  6
CONTINUOUS
 62
     7
 10
-124.43212890625
 20
25.8653259277423
 30
0.0
 11
-126.43212890625
 21
25.8653259277423
 31
0.0
  0
LINE
  5
   300
  8
0
  6
CONTINUOUS
 62
     7
 10
-125.432113647461
 20
25.8653259277423
 30
0.0
 11
-125.432113647461
 21
33.7624143780982
 31
0.0
  0
LINE
  5
   301
  8
0
  6
CONTINUOUS
 62
     7
 10
-125.18212890625
 20
26.3153212427672
 30
0.0
 11
-125.18212890625
 21
41.8652935791274
 31
0.0
  0
LINE
  5
   302
  8
0
  6
CONTINUOUS
 62
     7
 10
-125.382125001734
 20
26.1153251472833
 30
0.0
 11
-125.182128055797
 21
26.3153220932202
 31
0.0
  0
LINE
  5
   303
  8
0
  6
CONTINUOUS
 62
     7
 10
-124.43212890625
 20
41.8653012085219
 30
0.0
 11
-125.43212890625
 21
41.8653012085219
 31
0.0
  0
LINE
  5
   304
  8
0
  6
CONTINUOUS
 62
     7
 10
-125.43212890611
 20
41.4681869582857
 30
0.0
 11
-125.43212890611
 21
69.1152859497329
 31
0.0
  0
LINE
  5
   305
  8
0
  6
CONTINUOUS
 62
     7
 10
-124.43212890625
 20
44.6153012085219
 30
0.0
 11
-125.43212890625
 21
44.6153012085219
 31
0.0
  0
LINE
  5
   306
  8
0
  6
CONTINUOUS
 62
     7
 10
-125.18212890625
 20
44.8653031158706
 30
0.0
 11
-125.43212890625
 21
44.8653031158706
 31
0.0
  0
LINE
  5
   307
  8
0
  6
CONTINUOUS
 62
     7
 10
-125.18212890625
 20
44.6152935791274
 30
0.0
 11
-125.18212890625
 21
96.1152630615493
 31
0.0
  0
LINE
  5
   308
  8
0
  6
CONTINUOUS
 62
     7
 10
-124.43212890625
 20
-9.38149261474609
 30
0.0
 11
-124.43212890625
 21
117.618530273438
 31
0.0
  0
LINE
  5
   309
  8
0
  6
CONTINUOUS
 62
     7
 10
-125.432113647461
 20
76.6152859497329
 30
0.0
 11
-125.432113647461
 21
93.36058802978
 31
0.0
  0
LINE
  5
   30A
  8
0
  6
CONTINUOUS
 62
     7
 10
-125.432113647461
 20
76.6152859497329
 30
0.0
 11
-126.68212890625
 21
76.6152859497329
 31
0.0
  0
LINE
  5
   30B
  8
0
  6
CONTINUOUS
 62
     7
 10
-125.93212890625
 20
69.115316467311
 30
0.0
 11
-125.93212890625
 21
76.6153088379165
 31
0.0
  0
LINE
  5
   30C
  8
0
  6
CONTINUOUS
 62
     7
 10
-126.68212890625
 20
69.1152859497329
 30
0.0
 11
-126.68212890625
 21
76.6152859497329
 31
0.0
  0
LINE
  5
   30D
  8
0
  6
CONTINUOUS
 62
     7
 10
-125.432113647461
 20
69.1152859497329
 30
0.0
 11
-126.68212890625
 21
69.1152859497329
 31
0.0
  0
LINE
  5
   30E
  8
0
  6
CONTINUOUS
 62
     7
 10
-162.081608656718
 20
27.9903079278781
 30
0.0
 11
-162.182086520742
 21
28.3653060078765
 31
0.0
  0
LINE
  5
   30F
  8
0
  6
CONTINUOUS
 62
     7
 10
-161.432092632264
 20
40.4903182983553
 30
0.0
 11
-161.432106018066
 21
41.8653012085219
 31
0.0
  0
LINE
  5
   310
  8
0
  6
CONTINUOUS
 62
     7
 10
-125.18212890625
 20
96.1152706909925
 30
0.0
 11
-125.451477165382
 21
96.1152706909925
 31
0.0
  0
LINE
  5
   311
  8
0
  6
CONTINUOUS
 62
   218
 10
-105.932106018066
 20
91.6152935791274
 30
0.0
 11
-105.932106018066
 21
117.618530273438
 31
0.0
  0
LINE
  5
   312
  8
0
  6
CONTINUOUS
 62
   218
 10
-99.6821060180664
 20
91.6152935791274
 30
0.0
 11
-105.932106018066
 21
91.6152935791274
 31
0.0
  0
LINE
  5
   313
  8
0
  6
CONTINUOUS
 62
   218
 10
-99.6821060180664
 20
84.1152935791274
 30
0.0
 11
-105.932106018066
 21
84.1152935791274
 31
0.0
  0
LINE
  5
   314
  8
0
  6
CONTINUOUS
 62
   218
 10
-105.932106018066
 20
72.1152935791274
 30
0.0
 11
-105.932106018066
 21
84.1152935791274
 31
0.0
  0
LINE
  5
   315
  8
0
  6
CONTINUOUS
 62
   218
 10
-102.682106018066
 20
72.1152935791274
 30
0.0
 11
-105.932106018066
 21
72.1152935791274
 31
0.0
  0
LINE
  5
   316
  8
0
  6
CONTINUOUS
 62
   218
 10
-102.682099473415
 20
41.1152630615493
 30
0.0
 11
-102.682106043172
 21
72.1152862146348
 31
0.0
  0
LINE
  5
   317
  8
0
  6
CONTINUOUS
 62
   218
 10
-100.682106018066
 20
41.1152630615493
 30
0.0
 11
-102.682106018066
 21
41.1152630615493
 31
0.0
  0
LINE
  5
   318
  8
0
  6
CONTINUOUS
 62
   218
 10
-100.682106018066
 20
37.6152706909438
 30
0.0
 11
-102.682106018066
 21
37.6152706909438
 31
0.0
  0
LINE
  5
   319
  8
0
  6
CONTINUOUS
 62
   218
 10
-102.682098388672
 20
32.6152706909438
 30
0.0
 11
-102.682098388672
 21
37.6152706909438
 31
0.0
  0
LINE
  5
   31A
  8
0
  6
CONTINUOUS
 62
   218
 10
-102.682098388672
 20
32.6152706909438
 30
0.0
 11
-105.932098388672
 21
32.6152706909438
 31
0.0
  0
LINE
  5
   31B
  8
0
  6
CONTINUOUS
 62
   218
 10
-105.932106018066
 20
24.1153240967055
 30
0.0
 11
-105.932106018066
 21
32.6152706909438
 31
0.0
  0
LINE
  5
   31C
  8
0
  6
CONTINUOUS
 62
   218
 10
-99.6821060180664
 20
24.1153240967055
 30
0.0
 11
-105.932106018066
 21
24.1153240967055
 31
0.0
  0
LINE
  5
   31D
  8
0
  6
CONTINUOUS
 62
   218
 10
-99.6821060180664
 20
16.6153240967055
 30
0.0
 11
-105.932106018066
 21
16.6153240967055
 31
0.0
  0
LINE
  5
   31E
  8
0
  6
CONTINUOUS
 62
   218
 10
-102.682098388672
 20
34.8653012085219
 30
0.0
 11
-123.932144165039
 21
34.8653012085219
 31
0.0
  0
LINE
  5
   31F
  8
0
  6
CONTINUOUS
 62
   218
 10
-102.682105252757
 20
40.3652630615467
 30
0.0
 11
-123.932151029125
 21
40.3652630615467
 31
0.0
  0
LINE
  5
   320
  8
0
  6
CONTINUOUS
 62
   218
 10
-123.932148678385
 20
40.3652807479677
 30
0.0
 11
-124.4321334042
 21
40.865288359345
 31
0.0
  0
LINE
  5
   321
  8
0
  6
CONTINUOUS
 62
   218
 10
-124.432137750833
 20
34.3652866529754
 30
0.0
 11
-123.932153025018
 21
34.8652942643527
 31
0.0
  0
LINE
  5
   322
  8
0
  6
CONTINUOUS
 62
   218
 10
-102.68209873167
 20
37.6152706909438
 30
0.0
 11
-102.682099473415
 21
41.1152630615493
 31
0.0
  0
LINE
  5
   323
  8
0
  6
CONTINUOUS
 62
     1
 10
-234.432167053228
 20
27.4870835113784
 30
0.0
 11
-235.432167053228
 21
27.4870835113784
 31
0.0
  0
LINE
  5
   324
  8
0
  6
CONTINUOUS
 62
     1
 10
-235.432167053228
 20
14.2370835113784
 30
0.0
 11
-237.182167053228
 21
14.2370835113784
 31
0.0
  0
LINE
  5
   325
  8
0
  6
CONTINUOUS
 62
     7
 10
-235.432167053228
 20
14.2370835113784
 30
0.0
 11
-235.432167053228
 21
27.4870835113784
 31
0.0
  0
INSERT
  5
   326
  8
0
  6
CONTINUOUS
 62
     5
  2
*HATCH42
 10
-151.182083129883
 20
0.0
 30
0.0
 41
0.5
 42
0.5
 50
89.9999999480344
 43
0.5
  0
INSERT
  5
   327
  8
0
  6
CONTINUOUS
 62
     5
  2
*HATCH43
 10
-151.182083129883
 20
0.0
 30
0.0
 41
0.5
 42
0.5
 50
89.9999999480344
 43
0.5
  0
LINE
  5
   328
  8
0
  6
CONTINUOUS
 62
     1
 10
-235.432167053228
 20
27.4870835113784
 30
0.0
 11
-235.432167053228
 21
95.2402191162191
 31
0.0
  0
LINE
  5
   329
  8
0
  6
CONTINUOUS
 62
     1
 10
-234.432167053228
 20
27.4870835113784
 30
0.0
 11
-234.432167053228
 21
85.9902191162191
 31
0.0
  0
TEXT
  5
   32A
  8
0
  6
CONTINUOUS
 62
     7
 10
-234.551632779948
 20
153.87475586327
 30
0.0
 40
3.00000002980232
  1
ISOLATING DISTANCE
 50
359.999999948034
 41
0.916666689183977
 72
     1
 11
-210.076631933451
 21
155.374755856096
 31
0.0
 73
     2
  0
TEXT
  5
   32B
  8
0
  6
CONTINUOUS
 62
     7
 10
-86.7253188206374
 20
53.881080625553
 30
0.0
 40
3.00000002980232
  1
X
 50
359.999999948034
 41
0.916666604744064
 72
     1
 11
-85.6253188848495
 21
55.381080639462
 31
0.0
 73
     2
  0
TEXT
  5
   32C
  8
0
  6
CONTINUOUS
 62
     7
 10
-257.406501756115
 20
39.3590926663403
 30
0.0
 40
3.00000002980232
  1
=
 50
89.9999999480344
 41
0.916666689183977
 72
     1
 11
-258.90650177002
 21
40.4590927064419
 31
0.0
 73
     2
  0
INSERT
  5
   32D
  8
0
  6
CONTINUOUS
 62
     7
  2
*UDIM205
 10
0.0
 20
0.0
 30
0.0
  0
INSERT
  5
   32E
  8
0
  6
CONTINUOUS
 62
     7
  2
*UDIM206
 10
0.0
 20
0.0
 30
0.0
  0
INSERT
  5
   32F
  8
0
  6
CONTINUOUS
 62
     7
  2
*UDIM207
 10
0.0
 20
0.0
 30
0.0
  0
TEXT
  5
   330
  8
0
  6
CONTINUOUS
 62
     7
 10
-256.718948365254
 20
70.3634414659266
 30
0.0
 40
3.00000002980232
  1
=
 50
89.9999999480344
 41
0.916666689183977
  0
INSERT
  5
   331
  8
0
  6
CONTINUOUS
 62
     7
  2
*UDIM208
 10
0.0
 20
0.0
 30
0.0
  0
TEXT
  5
   332
  8
0
  6
CONTINUOUS
 62
     7
 10
-270.862975986164
 20
53.2515634754284
 30
0.0
 40
3.00000002980232
  1
X
 50
359.999999948034
 41
0.916666604744064
 72
     1
 11
-269.762976050376
 21
54.7515634893374
 31
0.0
 73
     2
  0
TEXT
  5
   333
  8
0
  6
CONTINUOUS
 62
     7
 10
-42.6302570847014
 20
-94.9844055208106
 30
0.0
 40
2.00000008940697
  1
M 3076 95-01-16
 50
359.999999844103
 41
0.749999995529652
 72
     1
 11
-31.5302566587925
 21
-93.9844055062534
 31
0.0
 73
     2
  0
TEXT
  5
   334
  8
0
  6
CONTINUOUS
 62
     7
 10
54.8456966839244
 20
-106.426544158809
 30
0.0
 40
4.00000017881393
  1
601812/701
 50
359.999999844103
 41
0.915624995566905
 72
     1
 11
72.7919473946095
 21
-104.426544118142
 31
0.0
 73
     2
  0
TEXT
  5
   335
  8
0
  6
CONTINUOUS
 62
     7
 10
36.173882573933
 20
-87.4609984295976
 30
0.0
 40
2.20000007748604
  1
INTERR. AUTOMATICO SERIE ISOMAX TRIP. TETRAP.
 50
359.999999844103
 41
0.681818181571882
 72
     1
 11
69.7738837436814
 21
-86.3609984821083
 31
0.0
 73
     2
  0
TEXT
  5
   336
  8
0
  6
CONTINUOUS
 62
     7
 10
38.4238820293043
 20
-90.660998483392
 30
0.0
 40
2.20000007748604
  1
CON COMANDO A MOTORE ESECUZIONE RIMOVIBILE
 50
359.999999844103
 41
0.681818181571882
 72
     1
 11
69.7738831206184
 21
-89.560998529792
 31
0.0
 73
     2
  0
TEXT
  5
   337
  8
0
  6
CONTINUOUS
 62
     7
 10
44.3826382488912
 20
-78.7871703221046
 30
0.0
 40
2.20000007748604
  1
3-4POLE LOW VOLTAGE M.C.C.B SERIES ISOMAX
 50
359.999999844103
 41
0.625
 72
     1
 11
72.4326392398257
 21
-77.6871703595422
 31
0.0
 73
     2
  0
TEXT
  5
   338
  8
0
  6
CONTINUOUS
 62
     7
 10
41.6326375289707
 20
-81.9871703623196
 30
0.0
 40
2.20000007748604
  1
WITHDRAWABLE WITH OPERATING MECHANISM PLUG-IN
 50
359.999999844103
 41
0.625
 72
     1
 11
72.4326386167627
 21
-80.8871704072259
 31
0.0
 73
     2
  0
TEXT
  5
   339
  8
0
  6
CONTINUOUS
 62
     7
 10
58.4683510781816
 20
-97.8519897185738
 30
0.0
 40
3.00000002980232
  1
S3-4-5
 50
359.999999844103
 41
0.916666689183977
 72
     1
 11
66.4433513581753
 21
-96.3519897253318
 31
0.0
 73
     2
  0
TEXT
  5
   33A
  8
0
  6
CONTINUOUS
 62
     7
 10
-51.9932549214039
 20
-82.2394714391309
 30
0.0
 40
2.50000005960464
  1
G. LOCATELLI
 50
359.999999844103
 41
0.899999932169916
 72
     1
 11
-38.7182556092739
 21
-80.9894714453819
 31
0.0
 73
     2
  0
TEXT
  5
   33B
  8
0
  6
CONTINUOUS
 62
     7
 10
-52.2534709125433
 20
-78.290664688657
 30
0.0
 40
2.50000005960464
  1
95-01-02
 50
359.999999844103
 41
0.899999932169916
 72
     1
 11
-43.4784713685513
 21
-77.0406646826866
 31
0.0
 73
     2
  0
LINE
  5
   33C
  8
0
  6
CONTINUOUS
 62
     7
 10
68.4861221313477
 20
95.9606018066406
 30
0.0
 11
96.4861221313477
 21
95.9606018066406
 31
0.0
  0
LINE
  5
   33D
  8
0
  6
CONTINUOUS
 62
     7
 10
68.4861221313477
 20
123.960601806641
 30
0.0
 11
96.4861221313477
 21
123.960601806641
 31
0.0
  0
LINE
  5
   33E
  8
0
  6
CONTINUOUS
 62
     7
 10
68.4861221313477
 20
123.960601806641
 30
0.0
 11
68.4861221313477
 21
95.9606018066406
 31
0.0
  0
LINE
  5
   33F
  8
0
  6
CONTINUOUS
 62
     7
 10
96.4861221313477
 20
123.960601806641
 30
0.0
 11
96.4861221313477
 21
95.9606018066406
 31
0.0
  0
LINE
  5
   340
  8
0
  6
DASHDOT
 62
     7
 10
82.4861221313477
 20
139.054565052616
 30
0.0
 11
82.4861221313477
 21
79.9238115288334
 31
0.0
  0
CIRCLE
  5
   341
  8
0
  6
CONTINUOUS
 62
     7
 10
72.4861221313477
 20
127.710601806641
 30
0.0
 40
0.875
  0
CIRCLE
  5
   342
  8
0
  6
CONTINUOUS
 62
     7
 10
92.4861221313477
 20
127.710601806641
 30
0.0
 40
0.875
  0
CIRCLE
  5
   343
  8
0
  6
CONTINUOUS
 62
     7
 10
92.4861221313477
 20
92.2106018066406
 30
0.0
 40
0.875
  0
CIRCLE
  5
   344
  8
0
  6
CONTINUOUS
 62
     7
 10
72.4861221313477
 20
92.2106018066406
 30
0.0
 40
0.875
  0
LINE
  5
   345
  8
0
  6
CONTINUOUS
 62
     3
 10
64.5216264619332
 20
130.060402103932
 30
0.0
 11
100.324995731919
 21
130.060402103932
 31
0.0
  0
LINE
  5
   346
  8
0
  6
CONTINUOUS
 62
     3
 10
64.5216264619332
 20
88.8551209791767
 30
0.0
 11
100.324995731919
 21
88.8551209791767
 31
0.0
  0
LINE
  5
   347
  8
0
  6
CONTINUOUS
 62
     3
 10
100.324995731919
 20
130.060402103932
 30
0.0
 11
100.324995731919
 21
88.8551209791767
 31
0.0
  0
LINE
  5
   348
  8
0
  6
CONTINUOUS
 62
     3
 10
64.5216264619332
 20
130.060402103932
 30
0.0
 11
64.5216264619332
 21
88.8551209791767
 31
0.0
  0
LINE
  5
   349
  8
0
  6
DASHDOT
 62
     7
 10
92.4861221313477
 20
129.335601806641
 30
0.0
 11
92.4861221313477
 21
126.085601806641
 31
0.0
  0
LINE
  5
   34A
  8
0
  6
DASHDOT
 62
     7
 10
90.8611221313477
 20
127.710601806641
 30
0.0
 11
94.1111221313477
 21
127.710601806641
 31
0.0
  0
LINE
  5
   34B
  8
0
  6
DASHDOT
 62
     7
 10
72.4861221313477
 20
129.335601806641
 30
0.0
 11
72.4861221313477
 21
126.085601806641
 31
0.0
  0
LINE
  5
   34C
  8
0
  6
DASHDOT
 62
     7
 10
70.8611221313477
 20
127.710601806641
 30
0.0
 11
74.1111221313477
 21
127.710601806641
 31
0.0
  0
LINE
  5
   34D
  8
0
  6
DASHDOT
 62
     7
 10
72.4861221313477
 20
93.8356018066406
 30
0.0
 11
72.4861221313477
 21
90.5856018066406
 31
0.0
  0
LINE
  5
   34E
  8
0
  6
DASHDOT
 62
     7
 10
70.8611221313477
 20
92.2106018066406
 30
0.0
 11
74.1111221313477
 21
92.2106018066406
 31
0.0
  0
LINE
  5
   34F
  8
0
  6
DASHDOT
 62
     7
 10
92.4861221313477
 20
93.8356018066406
 30
0.0
 11
92.4861221313477
 21
90.5856018066406
 31
0.0
  0
LINE
  5
   350
  8
0
  6
DASHDOT
 62
     7
 10
90.8611221313477
 20
92.2106018066406
 30
0.0
 11
94.1111221313477
 21
92.2106018066406
 31
0.0
  0
LINE
  5
   351
  8
0
  6
DASHDOT
 62
     7
 10
57.1202645779911
 20
109.960601806641
 30
0.0
 11
110.116415430719
 21
109.960601806641
 31
0.0
  0
TEXT
  5
   352
  8
0
  6
CONTINUOUS
 62
     7
 10
75.2361181059452
 20
136.498479548528
 30
0.0
 40
3.00000002980232
  1
=   =
 50
359.999999844103
 41
0.916666604744064
 72
     2
 11
88.4361173410189
 21
136.498479512678
 31
0.0
  0
TEXT
  5
   353
  8
0
  6
CONTINUOUS
 62
     7
 10
74.0197686626486
 20
145.018760330172
 30
0.0
 40
3.00000002980232
  1
=    =
 50
359.999999844103
 41
0.916666604744064
 72
     2
 11
89.9697677392733
 21
145.018760286854
 31
0.0
  0
TEXT
  5
   354
  8
0
  6
CONTINUOUS
 62
     7
 10
55.9274244936542
 20
99.696702306375
 30
0.0
 40
3.00000002980232
  1
=     =
 50
449.999999844103
 41
0.916666604744064
 72
     2
 11
55.9274245444178
 21
118.396701224551
 31
0.0
  0
TEXT
  5
   355
  8
0
  6
CONTINUOUS
 62
     7
 10
46.2143047389404
 20
97.604815149213
 30
0.0
 40
3.00000002980232
  1
=       =
 50
449.999999844103
 41
0.916666604744064
 72
     2
 11
46.2143048046345
 21
121.804813750491
 31
0.0
  0
INSERT
  5
   356
  8
0
  6
CONTINUOUS
 62
     7
  2
*UDIM209
 10
0.0
 20
0.0
 30
0.0
  0
INSERT
  5
   357
  8
0
  6
CONTINUOUS
 62
     7
  2
*UDIM210
 10
0.0
 20
0.0
 30
0.0
  0
INSERT
  5
   358
  8
0
  6
CONTINUOUS
 62
     7
  2
*UDIM211
 10
0.0
 20
0.0
 30
0.0
  0
INSERT
  5
   359
  8
0
  6
CONTINUOUS
 62
     7
  2
*UDIM212
 10
0.0
 20
0.0
 30
0.0
  0
INSERT
  5
   35A
  8
0
  6
CONTINUOUS
 62
     7
  2
*UDIM213
 10
0.0
 20
0.0
 30
0.0
  0
TEXT
  5
   35B
  8
0
  6
CONTINUOUS
 62
     7
 10
81.2943541903269
 20
76.5156974101117
 30
0.0
 40
3.00000002980232
  1
Y
 50
359.999999844103
 41
0.916666604744064
 72
     2
 11
83.4943540591967
 21
76.5156974041368
 31
0.0
  0
TEXT
  5
   35C
  8
0
  6
CONTINUOUS
 62
     7
 10
81.4647598166239
 20
154.391071250444
 30
0.0
 40
3.00000002980232
  1
Y
 50
359.999999844103
 41
0.916666604744064
 72
     2
 11
83.6647596854937
 21
154.391071244469
 31
0.0
  0
TEXT
  5
   35D
  8
0
  6
CONTINUOUS
 62
     7
 10
111.967369188763
 20
108.551957299714
 30
0.0
 40
3.00000002980232
  1
X
 50
359.999999844103
 41
0.916666604744064
 72
     2
 11
114.167369057633
 21
108.551957293739
 31
0.0
  0
TEXT
  5
   35E
  8
0
  6
CONTINUOUS
 62
     7
 10
33.0695611138117
 20
108.551957299714
 30
0.0
 40
3.00000002980232
  1
X
 50
359.999999844103
 41
0.916666604744064
 72
     2
 11
35.2695609826815
 21
108.551957293739
 31
0.0
  0
ENDSEC
  0
EOF
