  0
SECTION
  2
HEADER
  9
$ACADVER
  1
AC1009
  9
$DWGCODEPAGE
  3
iso8859-1
  9
$INSBASE
 10
0.0
 20
0.0
 30
0.0
  9
$EXTMIN
 10
1.0E20
 20
1.0E20
  9
$EXTMAX
 10
-1.0E20
 20
-1.0E20
  9
$LIMMIN
 10
0.0
 20
0.0
  9
$LIMMAX
 10
12.0
 20
9.0
  9
$ORTHOMODE
 70
     0
  9
$REGENMODE
 70
     1
  9
$FILLMODE
 70
     1
  9
$QTEXTMODE
 70
     0
  9
$MIRRTEXT
 70
     1
  9
$DRAGMODE
 70
     2
  9
$LTSCALE
 40
15.0
  9
$OSMODE
 70
     0
  9
$ATTMODE
 70
     1
  9
$TEXTSIZE
 40
0.2
  9
$TRACEWID
 40
0.05
  9
$TEXTSTYLE
  7
STANDARD
  9
$CLAYER
  8
0
  9
$CELTYPE
  6
DASHED
  9
$CECOLOR
 62
   256
  9
$DIMSCALE
 40
1.0
  9
$DIMASZ
 40
0.18
  9
$DIMEXO
 40
0.0625
  9
$DIMDLI
 40
0.38
  9
$DIMRND
 40
0.0
  9
$DIMDLE
 40
0.0
  9
$DIMEXE
 40
0.18
  9
$DIMTP
 40
0.0
  9
$DIMTM
 40
0.0
  9
$DIMTXT
 40
0.18
  9
$DIMCEN
 40
0.09
  9
$DIMTSZ
 40
0.0
  9
$DIMTOL
 70
     0
  9
$DIMLIM
 70
     0
  9
$DIMTIH
 70
     1
  9
$DIMTOH
 70
     1
  9
$DIMSE1
 70
     0
  9
$DIMSE2
 70
     0
  9
$DIMTAD
 70
     0
  9
$DIMZIN
 70
     0
  9
$DIMBLK
  1

  9
$DIMASO
 70
     1
  9
$DIMSHO
 70
     1
  9
$DIMPOST
  1

  9
$DIMAPOST
  1

  9
$DIMALT
 70
     0
  9
$DIMALTD
 70
     2
  9
$DIMALTF
 40
25.4
  9
$DIMLFAC
 40
1.0
  9
$DIMTOFL
 70
     0
  9
$DIMTVP
 40
0.0
  9
$DIMTIX
 70
     0
  9
$DIMSOXD
 70
     0
  9
$DIMSAH
 70
     0
  9
$DIMBLK1
  1

  9
$DIMBLK2
  1

  9
$DIMSTYLE
  2
STANDARD
  9
$DIMCLRD
 70
     0
  9
$DIMCLRE
 70
     0
  9
$DIMCLRT
 70
     0
  9
$DIMTFAC
 40
1.0
  9
$DIMGAP
 40
0.09
  9
$LUNITS
 70
     2
  9
$LUPREC
 70
     4
  9
$AXISMODE
 70
     0
  9
$AXISUNIT
 10
0.0
 20
0.0
  9
$SKETCHINC
 40
0.1
  9
$FILLETRAD
 40
0.0
  9
$AUNITS
 70
     0
  9
$AUPREC
 70
     0
  9
$MENU
  1
acad
  9
$ELEVATION
 40
0.0
  9
$PELEVATION
 40
0.0
  9
$THICKNESS
 40
0.0
  9
$LIMCHECK
 70
     0
  9
$BLIPMODE
 70
     1
  9
$CHAMFERA
 40
0.0
  9
$CHAMFERB
 40
0.0
  9
$SKPOLY
 70
     0
  9
$TDCREATE
 40
0.000000000
  9
$TDUPDATE
 40
0.000000000
  9
$TDINDWG
 40
0.0
  9
$TDUSRTIMER
 40
0.0
  9
$USRTIMER
 70
     1
  9
$ANGBASE
 50
0.0
  9
$ANGDIR
 70
     0
  9
$PDMODE
 70
     0
  9
$PDSIZE
 40
0.0
  9
$PLINEWID
 40
0.0
  9
$COORDS
 70
     1
  9
$SPLFRAME
 70
     0
  9
$SPLINETYPE
 70
     6
  9
$SPLINESEGS
 70
     8
  9
$ATTDIA
 70
     0
  9
$ATTREQ
 70
     1
  9
$HANDLING
 70
     1
  9
$HANDSEED
  5
   617
  9
$SURFTAB1
 70
     6
  9
$SURFTAB2
 70
     6
  9
$SURFTYPE
 70
     6
  9
$SURFU
 70
     6
  9
$SURFV
 70
     6
  9
$UCSNAME
  2

  9
$UCSORG
 10
0.0
 20
0.0
 30
0.0
  9
$UCSXDIR
 10
1.0
 20
0.0
 30
0.0
  9
$UCSYDIR
 10
0.0
 20
1.0
 30
0.0
  9
$PUCSNAME
  2

  9
$PUCSORG
 10
0.0
 20
0.0
 30
0.0
  9
$PUCSXDIR
 10
1.0
 20
0.0
 30
0.0
  9
$PUCSYDIR
 10
0.0
 20
1.0
 30
0.0
  9
$USERI1
 70
     0
  9
$USERI2
 70
     0
  9
$USERI3
 70
     0
  9
$USERI4
 70
     0
  9
$USERI5
 70
     0
  9
$USERR1
 40
0.0
  9
$USERR2
 40
0.0
  9
$USERR3
 40
0.0
  9
$USERR4
 40
0.0
  9
$USERR5
 40
0.0
  9
$WORLDVIEW
 70
     1
  9
$SHADEDGE
 70
     3
  9
$SHADEDIF
 70
    70
  9
$TILEMODE
 70
     1
  9
$MAXACTVP
 70
    16
  9
$PINSBASE
 10
0.0
 20
0.0
 30
0.0
  9
$PLIMCHECK
 70
     0
  9
$PEXTMIN
 10
1.0E20
 20
1.0E20
 30
1.0E20
  9
$PEXTMAX
 10
-1.0E20
 20
-1.0E20
 30
-1.0E20
  9
$PLIMMIN
 10
0.0
 20
0.0
  9
$PLIMMAX
 10
12.0
 20
9.0
  9
$UNITMODE
 70
     0
  9
$VISRETAIN
 70
     0
  0
ENDSEC
  0
SECTION
  2
TABLES
  0
TABLE
  2
VPORT
 70
     1
  0
VPORT
  2
*ACTIVE
 70
     0
 10
0.0
 20
0.0
 11
1.0
 21
1.0
 12
6.801242
 22
4.5
 13
0.0
 23
0.0
 14
1.0
 24
1.0
 15
0.0
 25
0.0
 16
0.0
 26
0.0
 36
1.0
 17
0.0
 27
0.0
 37
0.0
 40
9.0
 41
1.511387
 42
50.0
 43
0.0
 44
0.0
 50
0.0
 51
0.0
 71
     0
 72
   100
 73
     1
 74
     1
 75
     0
 76
     0
 77
     0
 78
     0
  0
ENDTAB
  0
TABLE
  2
LTYPE
 70
    41
  0
LTYPE
  2
BYBLOCK
 70
     0
  3

 72
    65
 73
     0
 40
0.0
  0
LTYPE
  2
BYLAYER
 70
     0
  3

 72
    65
 73
     0
 40
0.0
  0
LTYPE
  2
CONTINUOUS
 70
     0
  3
Solid line
 72
    65
 73
     0
 40
0.0
  0
LTYPE
  2
BORDER
 70
    64
  3
__ __ . __ __ . __ __ . __ __ . __ __ . __ __ .
 72
    65
 73
     6
 40
1.75
 49
0.5
 49
-0.25
 49
0.5
 49
-0.25
 49
0.0
 49
-0.25
  0
LTYPE
  2
BORDER2
 70
    64
  3
__.__.__.__.__.__.__.__.__.__.__.__.__.__.__.__
 72
    65
 73
     6
 40
0.875
 49
0.25
 49
-0.125
 49
0.25
 49
-0.125
 49
0.0
 49
-0.125
  0
LTYPE
  2
BORDERX2
 70
    64
  3
____  ____  .  ____  ____  .  ____  ____  .  __
 72
    65
 73
     6
 40
3.5
 49
1.0
 49
-0.5
 49
1.0
 49
-0.5
 49
0.0
 49
-0.5
  0
LTYPE
  2
CENTER
 70
    64
  3
____ _ ____ _ ____ _ ____ _ ____ _ ____ _ ____
 72
    65
 73
     4
 40
2.0
 49
1.25
 49
-0.25
 49
0.25
 49
-0.25
  0
LTYPE
  2
CENTER2
 70
    64
  3
___ _ ___ _ ___ _ ___ _ ___ _ ___ _ ___ _ ___ _
 72
    65
 73
     4
 40
1.125
 49
0.75
 49
-0.125
 49
0.125
 49
-0.125
  0
LTYPE
  2
CENTERX2
 70
    64
  3
________  __  ________  __  ________  __  _____
 72
    65
 73
     4
 40
4.0
 49
2.5
 49
-0.5
 49
0.5
 49
-0.5
  0
LTYPE
  2
DASHDOT
 70
    64
  3
__ . __ . __ . __ . __ . __ . __ . __ . __ . __
 72
    65
 73
     4
 40
1.0
 49
0.5
 49
-0.25
 49
0.0
 49
-0.25
  0
LTYPE
  2
DASHDOT2
 70
    64
  3
_._._._._._._._._._._._._._._._._._._._._._._._
 72
    65
 73
     4
 40
0.5
 49
0.25
 49
-0.125
 49
0.0
 49
-0.125
  0
LTYPE
  2
DASHDOTX2
 70
    64
  3
____  .  ____  .  ____  .  ____  .  ____  .  __
 72
    65
 73
     4
 40
2.0
 49
1.0
 49
-0.5
 49
0.0
 49
-0.5
  0
LTYPE
  2
DASHED
 70
    64
  3
__ __ __ __ __ __ __ __ __ __ __ __ __ __ __ __
 72
    65
 73
     2
 40
0.75
 49
0.5
 49
-0.25
  0
LTYPE
  2
DASHED2
 70
    64
  3
_ _ _ _ _ _ _ _ _ _ _ _ _ _ _ _ _ _ _ _ _ _ _ _
 72
    65
 73
     2
 40
0.375
 49
0.25
 49
-0.125
  0
LTYPE
  2
DASHEDX2
 70
    64
  3
____  ____  ____  ____  ____  ____  ____  ____
 72
    65
 73
     2
 40
1.5
 49
1.0
 49
-0.5
  0
LTYPE
  2
DIVIDE
 70
    64
  3
____ . . ____ . . ____ . . ____ . . ____ . . __
 72
    65
 73
     6
 40
1.25
 49
0.5
 49
-0.25
 49
0.0
 49
-0.25
 49
0.0
 49
-0.25
  0
LTYPE
  2
DIVIDE2
 70
    64
  3
__..__..__..__..__..__..__..__..__..__..__..__.
 72
    65
 73
     6
 40
0.625
 49
0.25
 49
-0.125
 49
0.0
 49
-0.125
 49
0.0
 49
-0.125
  0
LTYPE
  2
DIVIDEX2
 70
    64
  3
________  .  .  ________  .  .  ________  .  .
 72
    65
 73
     6
 40
2.5
 49
1.0
 49
-0.5
 49
0.0
 49
-0.5
 49
0.0
 49
-0.5
  0
LTYPE
  2
DOT
 70
    64
  3
. . . . . . . . . . . . . . . . . . . . . . . .
 72
    65
 73
     2
 40
0.25
 49
0.0
 49
-0.25
  0
LTYPE
  2
DOT2
 70
    64
  3
...............................................
 72
    65
 73
     2
 40
0.125
 49
0.0
 49
-0.125
  0
LTYPE
  2
DOTX2
 70
    64
  3
.  .  .  .  .  .  .  .  .  .  .  .  .  .  .  .
 72
    65
 73
     2
 40
0.5
 49
0.0
 49
-0.5
  0
LTYPE
  2
HIDDEN
 70
    64
  3
__ __ __ __ __ __ __ __ __ __ __ __ __ __ __ __
 72
    65
 73
     2
 40
0.375
 49
0.25
 49
-0.125
  0
LTYPE
  2
HIDDEN2
 70
    64
  3
_ _ _ _ _ _ _ _ _ _ _ _ _ _ _ _ _ _ _ _ _ _ _ _
 72
    65
 73
     2
 40
0.1875
 49
0.125
 49
-0.0625
  0
LTYPE
  2
HIDDENX2
 70
    64
  3
____ ____ ____ ____ ____ ____ ____ ____ ____ __
 72
    65
 73
     2
 40
0.75
 49
0.5
 49
-0.25
  0
LTYPE
  2
PHANTOM
 70
    64
  3
______  __  __  ______  __  __  ______  __  __
 72
    65
 73
     6
 40
2.5
 49
1.25
 49
-0.25
 49
0.25
 49
-0.25
 49
0.25
 49
-0.25
  0
LTYPE
  2
PHANTOM2
 70
    64
  3
___ _ _ ___ _ _ ___ _ _ ___ _ _ ___ _ _ ___ _ _
 72
    65
 73
     6
 40
1.25
 49
0.625
 49
-0.125
 49
0.125
 49
-0.125
 49
0.125
 49
-0.125
  0
LTYPE
  2
PHANTOMX2
 70
    64
  3
____________    ____    ____    ____________
 72
    65
 73
     6
 40
5.0
 49
2.5
 49
-0.5
 49
0.5
 49
-0.5
 49
0.5
 49
-0.5
  0
LTYPE
  2
ACAD_ISO02W100
 70
    64
  3
__ __ __ __ __ __ __ __ __ __ __ __ __ __ __ __
 72
    65
 73
     2
 40
15.0
 49
12.0
 49
-3.0
  0
LTYPE
  2
ACAD_ISO03W100
 70
    64
  3
__    __    __    __    __    __    __    __
 72
    65
 73
     2
 40
30.0
 49
12.0
 49
-18.0
  0
LTYPE
  2
ACAD_ISO04W100
 70
    64
  3
____ . ____ . ____ . ____ . ____ . ____ . ____
 72
    65
 73
     4
 40
30.5
 49
24.0
 49
-3.0
 49
0.5
 49
-3.0
  0
LTYPE
  2
ACAD_ISO05W100
 70
    64
  3
____ .. ____ .. ____ .. ____ .. ____ .. ____ ..
 72
    65
 73
     6
 40
34.0
 49
24.0
 49
-3.0
 49
0.5
 49
-3.0
 49
0.5
 49
-3.0
  0
LTYPE
  2
ACAD_ISO06W100
 70
    64
  3
____ ... ____ ... ____ ... ____ ... ____ ... __
 72
    65
 73
     8
 40
37.5
 49
24.0
 49
-3.0
 49
0.5
 49
-3.0
 49
0.5
 49
-3.0
 49
0.5
 49
-3.0
  0
LTYPE
  2
ACAD_ISO07W100
 70
    64
  3
. . . . . . . . . . . . . . . . . . . . . . . .
 72
    65
 73
     2
 40
3.5
 49
0.5
 49
-3.0
  0
LTYPE
  2
ACAD_ISO08W100
 70
    64
  3
____ __ ____ __ ____ __ ____ ____ __ __ ____ __
 72
    65
 73
     4
 40
36.0
 49
24.0
 49
-3.0
 49
6.0
 49
-3.0
  0
LTYPE
  2
ACAD_ISO09W100
 70
    64
  3
____ __ __ ____ __ __ ____ __ __ ____ __ __ ___
 72
    65
 73
     6
 40
45.0
 49
24.0
 49
-3.0
 49
6.0
 49
-3.0
 49
6.0
 49
-3.0
  0
LTYPE
  2
ACAD_ISO10W100
 70
    64
  3
__ . __ . __ . __ . __ . __ . __ . __ . __ . __
 72
    65
 73
     4
 40
18.5
 49
12.0
 49
-3.0
 49
0.5
 49
-3.0
  0
LTYPE
  2
ACAD_ISO11W100
 70
    64
  3
__ __ . __ __ . __ __ . __ __ . __ __ . __ __ .
 72
    65
 73
     6
 40
33.5
 49
12.0
 49
-3.0
 49
12.0
 49
-3.0
 49
0.5
 49
-3.0
  0
LTYPE
  2
ACAD_ISO12W100
 70
    64
  3
__ . . __ . . __ . . __ . . __ . . __ . . __ .
 72
    65
 73
     6
 40
22.0
 49
12.0
 49
-3.0
 49
0.5
 49
-3.0
 49
0.5
 49
-3.0
  0
LTYPE
  2
ACAD_ISO13W100
 70
    64
  3
__ __ . . __ __ . . __ __ . . __ __ . . __ __ .
 72
    65
 73
     8
 40
37.0
 49
12.0
 49
-3.0
 49
12.0
 49
-3.0
 49
0.5
 49
-3.0
 49
0.5
 49
-3.0
  0
LTYPE
  2
ACAD_ISO14W100
 70
    64
  3
__ . . . __ . . . __ . . . __ . . . __ . . . __
 72
    65
 73
     8
 40
25.5
 49
12.0
 49
-3.0
 49
0.5
 49
-3.0
 49
0.5
 49
-3.0
 49
0.5
 49
-3.0
  0
LTYPE
  2
ACAD_ISO15W100
 70
    64
  3
__ __ . . . __ __ . . . __ __ . . . __ __ . . .
 72
    65
 73
    10
 40
40.5
 49
12.0
 49
-3.0
 49
12.0
 49
-3.0
 49
0.5
 49
-3.0
 49
0.5
 49
-3.0
 49
0.5
 49
-3.0
  0
ENDTAB
  0
TABLE
  2
STYLE
 70
     4
  0
STYLE
  2
STANDARD
 70
    64
 40
0.0
 41
1.0
 50
0.0
 71
     0
 42
0.2
  3
txt
  4

  0
STYLE
  2
TOLERANCE
 70
    64
 40
0.0
 41
1.0
 50
0.0
 71
     0
 42
0.2
  3
../igesfont/iges1003.shx
  4

  0
STYLE
  2
ROMANS
 70
    64
 40
0.0
 41
1.0
 50
0.0
 71
     0
 42
0.2
  3
romans.shx
  4

  0
STYLE
  2
ROMANC
 70
    64
 40
0.0
 41
1.0
 50
0.0
 71
     0
 42
0.2
  3
romanc.shx
  4

  0
ENDTAB
  0
TABLE
  2
DIMSTYLE
 70
     2
  0
DIMSTYLE
  2
UNNAMED
 70
     0
  3

  4

  5

  6

  7

 40
1.0
 41
0.18
 42
0.0625
 43
0.38
 44
0.18
 45
0.0
 46
0.0
 47
0.0
 48
0.0
140
0.18
141
0.09
142
0.0
143
25.4
144
1.0
145
0.0
146
1.0
147
0.09
 71
     0
 72
     0
 73
     1
 74
     1
 75
     0
 76
     0
 77
     0
 78
     0
170
     0
171
     2
172
     0
173
     0
174
     0
175
     0
176
     0
177
     0
178
     0
  0
DIMSTYLE
  2
STANDARD
 70
     0
  3

  4

  5

  6

  7

 40
1.0
 41
0.18
 42
0.0625
 43
0.38
 44
0.18
 45
0.0
 46
0.0
 47
0.0
 48
0.0
140
0.18
141
0.09
142
0.0
143
25.4
144
1.0
145
0.0
146
1.0
147
0.09
 71
     0
 72
     0
 73
     1
 74
     1
 75
     0
 76
     0
 77
     0
 78
     0
170
     0
171
     2
172
     0
173
     0
174
     0
175
     0
176
     0
177
     0
178
     0
  0
ENDTAB
  0
TABLE
  2
LAYER
 70
     2
  0
LAYER
  2
0
 70
     0
 62
     7
  6
CONTINUOUS
  0
LAYER
  2
255
 70
     0
 62
     7
  6
CONTINUOUS
  0
ENDTAB
  0
ENDSEC
  0
SECTION
  2
BLOCKS
  0
BLOCK
  5
     B
  8
0
  6
CONTINUOUS
 62
     7
  2
*UDIM230
 70
    65
 10
0.0
 20
0.0
 30
0.0
  3
*UDIM230
  0
TEXT
  5
     C
  8
0
  6
CONTINUOUS
 62
     7
 10
-610.864151953887
 20
-184.839621674271
 30
0.0
 40
3.00000002980232
  1
43,75
 50
359.999999896069
 41
0.933333333333333
 72
     1
 11
-604.164151884615
 21
-183.33962167149
 31
0.0
 73
     2
  0
TEXT
  5
     D
  8
0
  6
CONTINUOUS
 62
     7
 10
-608.714151887781
 20
-189.33962167816
 30
0.0
 40
3.5
  1
= =
 50
359.999999896069
 41
0.933333333333333
 72
     1
 11
-604.164151884615
 21
-187.589621686391
 31
0.0
 73
     2
  0
LINE
  5
     E
  8
0
  6
CONTINUOUS
 62
     7
 10
-598.764221191406
 20
-186.284573320973
 30
0.0
 11
-598.764221191406
 21
-183.839621686391
 31
0.0
  0
LINE
  5
     F
  8
0
  6
CONTINUOUS
 62
     7
 10
-609.701721191406
 20
-185.963472957732
 30
0.0
 11
-609.701721191406
 21
-183.839621686391
 31
0.0
  0
LINE
  5
    10
  8
0
  6
CONTINUOUS
 62
     7
 10
-593.764221191406
 20
-185.839621686391
 30
0.0
 11
-614.701721191406
 21
-185.839621686391
 31
0.0
  0
LINE
  5
    11
  8
0
  6
CONTINUOUS
 62
     7
 10
-595.866443718196
 20
-185.063164529972
 30
0.0
 11
-598.764221191406
 21
-185.839621686391
 31
0.0
  0
LINE
  5
    12
  8
0
  6
CONTINUOUS
 62
     7
 10
-598.764221191406
 20
-185.839621686391
 30
0.0
 11
-595.866443718196
 21
-186.616078842809
 31
0.0
  0
LINE
  5
    13
  8
0
  6
CONTINUOUS
 62
     7
 10
-612.599498664617
 20
-186.616078842809
 30
0.0
 11
-609.701721191406
 21
-185.839621686391
 31
0.0
  0
LINE
  5
    14
  8
0
  6
CONTINUOUS
 62
     7
 10
-609.701721191406
 20
-185.839621686391
 30
0.0
 11
-612.599498664617
 21
-185.063164529972
 31
0.0
  0
ENDBLK
  5
    15
  8
0
  6
CONTINUOUS
 62
     7
  0
BLOCK
  5
    16
  8
0
  6
CONTINUOUS
 62
     5
  2
*UDIM231
 70
    65
 10
0.0
 20
0.0
 30
0.0
  3
*UDIM231
  0
TEXT
  5
    17
  8
0
  6
CONTINUOUS
 62
     5
 10
-624.914630904535
 20
-168.110275357693
 30
0.0
 40
3.00000002980232
  1
105,25
 50
449.999999896069
 41
0.933333333333333
 72
     1
 11
-626.414630904794
 21
-160.010275274515
 31
0.0
 73
     2
  0
LINE
  5
    18
  8
0
  6
CONTINUOUS
 62
     5
 10
-617.584639593843
 20
-146.579025268555
 30
0.0
 11
-625.914630889893
 21
-146.579025268555
 31
0.0
  0
LINE
  5
    19
  8
0
  6
CONTINUOUS
 62
     5
 10
-623.914630889893
 20
-146.579025268555
 30
0.0
 11
-623.914630889893
 21
-172.891525268555
 31
0.0
  0
LINE
  5
    1A
  8
0
  6
CONTINUOUS
 62
     5
 10
-623.393686459941
 20
-149.533448545762
 30
0.0
 11
-623.914630889893
 21
-146.579025268555
 31
0.0
  0
LINE
  5
    1B
  8
0
  6
CONTINUOUS
 62
     5
 10
-623.914630889893
 20
-146.579025268555
 30
0.0
 11
-624.435575319844
 21
-149.533448545762
 31
0.0
  0
LINE
  5
    1C
  8
0
  6
CONTINUOUS
 62
     5
 10
-624.435575319844
 20
-169.937101991348
 30
0.0
 11
-623.914630889893
 21
-172.891525268555
 31
0.0
  0
LINE
  5
    1D
  8
0
  6
CONTINUOUS
 62
     5
 10
-623.914630889893
 20
-172.891525268555
 30
0.0
 11
-623.393686459941
 21
-169.937101991348
 31
0.0
  0
ENDBLK
  5
    1E
  8
0
  6
CONTINUOUS
 62
     5
  0
BLOCK
  5
    1F
  8
0
  6
CONTINUOUS
 62
     7
  2
*UDIM232
 70
    65
 10
0.0
 20
0.0
 30
0.0
  3
*UDIM232
  0
TEXT
  5
    20
  8
0
  6
CONTINUOUS
 62
     7
 10
-586.944868967166
 20
-150.173639848762
 30
0.0
 40
3.00000002980232
  1
5,5
 50
338.440974983981
 41
0.933333333333333
 72
     1
 11
-582.766525534021
 21
-150.211672750225
 31
0.0
 73
     2
  0
TEXT
  5
    21
  8
0
  6
CONTINUOUS
 62
     7
 10
-589.874493442481
 20
-149.016142334201
 30
0.0
 40
3.00000002980232
  1
Ø
 50
338.440974983981
 41
0.933333333333334
 72
     1
 11
-588.300260668202
 21
-148.025288540178
 31
0.0
 73
     2
  0
TEXT
  5
    22
  8
0
  6
CONTINUOUS
 62
     7
 10
-579.179038953201
 20
-153.241926942126
 30
0.0
 40
3.00000002980232
  1
 - M5
 50
338.440974983981
 41
0.933333333333333
 72
     1
 11
-572.39658486119
 21
-154.308846539075
 31
0.0
 73
     2
  0
LINE
  5
    23
  8
0
  6
CONTINUOUS
 62
     7
 10
-567.083968893277
 20
-159.095924201267
 30
0.0
 11
-599.403623356215
 21
-146.326396842526
 31
0.0
  0
LINE
  5
    24
  8
0
  6
CONTINUOUS
 62
     7
 10
-595.18566264755
 20
-147.432785776165
 30
0.0
 11
-598.124819026597
 21
-146.831653694583
 31
0.0
  0
LINE
  5
    25
  8
0
  6
CONTINUOUS
 62
     7
 10
-598.124819026597
 20
-146.831653694583
 30
0.0
 11
-595.56851463704
 21
-148.401783583456
 31
0.0
  0
LINE
  5
    26
  8
0
  6
CONTINUOUS
 62
     7
 10
-602.342779735262
 20
-145.725264760945
 30
0.0
 11
-599.403623356215
 21
-146.326396842526
 31
0.0
  0
LINE
  5
    27
  8
0
  6
CONTINUOUS
 62
     7
 10
-599.403623356215
 20
-146.326396842526
 30
0.0
 11
-601.959927745773
 21
-144.756266953654
 31
0.0
  0
ENDBLK
  5
    28
  8
0
  6
CONTINUOUS
 62
     7
  0
BLOCK
  5
    29
  8
0
  6
CONTINUOUS
 62
     7
  2
*UDIM233
 70
    65
 10
0.0
 20
0.0
 30
0.0
  3
*UDIM233
  0
TEXT
  5
    2A
  8
0
  6
CONTINUOUS
 62
     7
 10
-632.608402259247
 20
-177.504026755154
 30
0.0
 40
3.00000002980232
  1
214
 50
449.999999896069
 41
0.933333333333333
 72
     1
 11
-634.108402267098
 21
-173.6040267137
 31
0.0
 73
     2
  0
LINE
  5
    2B
  8
0
  6
CONTINUOUS
 62
     7
 10
-617.584639593842
 20
-146.579024954638
 30
0.0
 11
-633.608402252197
 21
-146.579019924515
 31
0.0
  0
LINE
  5
    2C
  8
0
  6
CONTINUOUS
 62
     7
 10
-616.737924639553
 20
-200.079024954638
 30
0.0
 11
-633.608402252197
 21
-200.079019658717
 31
0.0
  0
LINE
  5
    2D
  8
0
  6
CONTINUOUS
 62
     7
 10
-631.608402252197
 20
-146.579020552348
 30
0.0
 11
-631.608402252197
 21
-200.07902028655
 31
0.0
  0
LINE
  5
    2E
  8
0
  6
CONTINUOUS
 62
     7
 10
-631.087457822246
 20
-149.533443829555
 30
0.0
 11
-631.608402252197
 21
-146.579020552348
 31
0.0
  0
LINE
  5
    2F
  8
0
  6
CONTINUOUS
 62
     7
 10
-631.608402252197
 20
-146.579020552348
 30
0.0
 11
-632.129346682149
 21
-149.533443829555
 31
0.0
  0
LINE
  5
    30
  8
0
  6
CONTINUOUS
 62
     7
 10
-632.129346682149
 20
-197.124597009343
 30
0.0
 11
-631.608402252197
 21
-200.07902028655
 31
0.0
  0
LINE
  5
    31
  8
0
  6
CONTINUOUS
 62
     7
 10
-631.608402252197
 20
-200.07902028655
 30
0.0
 11
-631.087457822246
 21
-197.124597009343
 31
0.0
  0
ENDBLK
  5
    32
  8
0
  6
CONTINUOUS
 62
     7
  0
BLOCK
  5
    33
  8
0
  6
CONTINUOUS
 62
     7
  2
*UDIM234
 70
    65
 10
0.0
 20
0.0
 30
0.0
  3
*UDIM234
  0
TEXT
  5
    34
  8
0
  6
CONTINUOUS
 62
     7
 10
-674.833288617036
 20
-146.767121191681
 30
0.0
 40
3.00000002980232
  1
112
 50
359.999999844103
 41
0.933333333333333
 72
     1
 11
-670.933288574219
 21
-145.267121187371
 31
0.0
 73
     2
  0
TEXT
  5
    35
  8
0
  6
CONTINUOUS
 62
     7
 10
-675.483288578971
 20
-151.267121189915
 30
0.0
 40
3.5
  1
= =
 50
359.999999844103
 41
0.933333333333333
 72
     1
 11
-670.933288574219
 21
-149.517121202273
 31
0.0
 73
     2
  0
LINE
  5
    36
  8
0
  6
CONTINUOUS
 62
     7
 10
-684.933288574219
 20
-157.891525268555
 30
0.0
 11
-684.933288574219
 21
-145.767121202273
 31
0.0
  0
LINE
  5
    37
  8
0
  6
CONTINUOUS
 62
     7
 10
-656.933288574219
 20
-157.891525268555
 30
0.0
 11
-656.933288574219
 21
-145.767121202273
 31
0.0
  0
LINE
  5
    38
  8
0
  6
CONTINUOUS
 62
     7
 10
-684.933288574219
 20
-147.767121202273
 30
0.0
 11
-656.933288574219
 21
-147.767121202273
 31
0.0
  0
LINE
  5
    39
  8
0
  6
CONTINUOUS
 62
     7
 10
-682.035511101008
 20
-146.990664045854
 30
0.0
 11
-684.933288574219
 21
-147.767121202273
 31
0.0
  0
LINE
  5
    3A
  8
0
  6
CONTINUOUS
 62
     7
 10
-684.933288574219
 20
-147.767121202273
 30
0.0
 11
-682.035511101008
 21
-148.543578358691
 31
0.0
  0
LINE
  5
    3B
  8
0
  6
CONTINUOUS
 62
     7
 10
-659.831066047429
 20
-148.543578358691
 30
0.0
 11
-656.933288574219
 21
-147.767121202273
 31
0.0
  0
LINE
  5
    3C
  8
0
  6
CONTINUOUS
 62
     7
 10
-656.933288574219
 20
-147.767121202273
 30
0.0
 11
-659.831066047429
 21
-146.990664045854
 31
0.0
  0
ENDBLK
  5
    3D
  8
0
  6
CONTINUOUS
 62
     7
  0
BLOCK
  5
    3E
  8
0
  6
CONTINUOUS
 62
     7
  2
*UDIM235
 70
    65
 10
0.0
 20
0.0
 30
0.0
  3
*UDIM235
  0
TEXT
  5
    3F
  8
0
  6
CONTINUOUS
 62
     7
 10
-673.433288603128
 20
-202.160427183911
 30
0.0
 40
3.00000002980232
  1
80
 50
359.999999844103
 41
0.933333333333333
 72
     1
 11
-670.933288574219
 21
-200.6604271758
 31
0.0
 73
     2
  0
TEXT
  5
    40
  8
0
  6
CONTINUOUS
 62
     7
 10
-675.483288578971
 20
-206.660427178344
 30
0.0
 40
3.5
  1
= =
 50
359.999999844103
 41
0.933333333333333
 72
     1
 11
-670.933288574219
 21
-204.910427190701
 31
0.0
 73
     2
  0
LINE
  5
    41
  8
0
  6
CONTINUOUS
 62
     7
 10
-680.933288574219
 20
-193.266525268555
 30
0.0
 11
-680.933288574219
 21
-205.160427190701
 31
0.0
  0
LINE
  5
    42
  8
0
  6
CONTINUOUS
 62
     7
 10
-660.933288574219
 20
-193.266525268555
 30
0.0
 11
-660.933288574219
 21
-205.160427190701
 31
0.0
  0
LINE
  5
    43
  8
0
  6
CONTINUOUS
 62
     7
 10
-680.933288574219
 20
-203.160427190701
 30
0.0
 11
-660.933288574219
 21
-203.160427190701
 31
0.0
  0
LINE
  5
    44
  8
0
  6
CONTINUOUS
 62
     7
 10
-678.035511101008
 20
-202.383970034282
 30
0.0
 11
-680.933288574219
 21
-203.160427190701
 31
0.0
  0
LINE
  5
    45
  8
0
  6
CONTINUOUS
 62
     7
 10
-680.933288574219
 20
-203.160427190701
 30
0.0
 11
-678.035511101008
 21
-203.936884347119
 31
0.0
  0
LINE
  5
    46
  8
0
  6
CONTINUOUS
 62
     7
 10
-663.831066047429
 20
-203.936884347119
 30
0.0
 11
-660.933288574219
 21
-203.160427190701
 31
0.0
  0
LINE
  5
    47
  8
0
  6
CONTINUOUS
 62
     7
 10
-660.933288574219
 20
-203.160427190701
 30
0.0
 11
-663.831066047429
 21
-202.383970034282
 31
0.0
  0
ENDBLK
  5
    48
  8
0
  6
CONTINUOUS
 62
     7
  0
BLOCK
  5
    49
  8
0
  6
CONTINUOUS
 62
     7
  2
*UDIM236
 70
    65
 10
0.0
 20
0.0
 30
0.0
  3
*UDIM236
  0
TEXT
  5
    4A
  8
0
  6
CONTINUOUS
 62
     7
 10
-694.785815062637
 20
-203.030892971231
 30
0.0
 40
3.00000002980232
  1
7
 50
404.893139787217
 41
0.933333333333334
 72
     1
 11
-695.065228412174
 21
-201.191891000366
 31
0.0
 73
     2
  0
TEXT
  5
    4B
  8
0
  6
CONTINUOUS
 62
     7
 10
-697.017351762912
 20
-205.254121258634
 30
0.0
 40
3.00000002980232
  1
Ø
 50
404.893139787217
 41
0.933333333333334
 72
     1
 11
-697.296765112449
 21
-203.41511928777
 31
0.0
 73
     2
  0
LINE
  5
    4C
  8
0
  6
CONTINUOUS
 62
     7
 10
-680.313417270542
 20
-190.023961857335
 30
0.0
 11
-696.311565002239
 21
-205.962545604935
 31
0.0
  0
LINE
  5
    4D
  8
0
  6
CONTINUOUS
 62
     7
 10
-678.588107568555
 20
-187.569719319966
 30
0.0
 11
-680.313417270542
 21
-190.023961857335
 31
0.0
  0
LINE
  5
    4E
  8
0
  6
CONTINUOUS
 62
     7
 10
-680.313417270542
 20
-190.023961857335
 30
0.0
 11
-677.852756210344
 21
-188.307818755252
 31
0.0
  0
LINE
  5
    4F
  8
0
  6
CONTINUOUS
 62
     7
 10
-683.278469579883
 20
-193.713331217143
 30
0.0
 11
-681.553159877896
 21
-191.259088679775
 31
0.0
  0
LINE
  5
    50
  8
0
  6
CONTINUOUS
 62
     7
 10
-681.553159877896
 20
-191.259088679775
 30
0.0
 11
-684.013820938093
 21
-192.975231781858
 31
0.0
  0
ENDBLK
  5
    51
  8
0
  6
CONTINUOUS
 62
     7
  0
BLOCK
  5
    52
  8
0
  6
CONTINUOUS
 62
     7
  2
*UDIM237
 70
    65
 10
0.0
 20
0.0
 30
0.0
  3
*UDIM237
  0
TEXT
  5
    53
  8
0
  6
CONTINUOUS
 62
     7
 10
-700.906446467496
 20
-177.06652531733
 30
0.0
 40
3.00000002980232
  1
112
 50
449.999999844103
 41
0.933333333333333
 72
     1
 11
-702.40644647181
 21
-173.166525274515
 31
0.0
 73
     2
  0
LINE
  5
    54
  8
0
  6
CONTINUOUS
 62
     7
 10
-685.933288574219
 20
-158.891525268555
 30
0.0
 11
-701.906446456909
 21
-158.891525268555
 31
0.0
  0
LINE
  5
    55
  8
0
  6
CONTINUOUS
 62
     7
 10
-685.933288574219
 20
-186.891525268555
 30
0.0
 11
-701.906446456909
 21
-186.891525268555
 31
0.0
  0
LINE
  5
    56
  8
0
  6
CONTINUOUS
 62
     7
 10
-699.906446456909
 20
-158.891525268555
 30
0.0
 11
-699.906446456909
 21
-186.891525268555
 31
0.0
  0
LINE
  5
    57
  8
0
  6
CONTINUOUS
 62
     7
 10
-699.385502026958
 20
-161.845948545762
 30
0.0
 11
-699.906446456909
 21
-158.891525268555
 31
0.0
  0
LINE
  5
    58
  8
0
  6
CONTINUOUS
 62
     7
 10
-699.906446456909
 20
-158.891525268555
 30
0.0
 11
-700.427390886861
 21
-161.845948545762
 31
0.0
  0
LINE
  5
    59
  8
0
  6
CONTINUOUS
 62
     7
 10
-700.427390886861
 20
-183.937101991348
 30
0.0
 11
-699.906446456909
 21
-186.891525268555
 31
0.0
  0
LINE
  5
    5A
  8
0
  6
CONTINUOUS
 62
     7
 10
-699.906446456909
 20
-186.891525268555
 30
0.0
 11
-699.385502026958
 21
-183.937101991348
 31
0.0
  0
ENDBLK
  5
    5B
  8
0
  6
CONTINUOUS
 62
     7
  0
BLOCK
  5
    5C
  8
0
  6
CONTINUOUS
 62
     7
  2
*UDIM238
 70
    65
 10
0.0
 20
0.0
 30
0.0
  3
*UDIM238
  0
TEXT
  5
    5D
  8
0
  6
CONTINUOUS
 62
     7
 10
-709.919902812101
 20
-177.06652531733
 30
0.0
 40
3.00000002980232
  1
142
 50
449.999999844103
 41
0.933333333333333
 72
     1
 11
-711.419902816415
 21
-173.166525274515
 31
0.0
 73
     2
  0
LINE
  5
    5E
  8
0
  6
CONTINUOUS
 62
     7
 10
-683.558288574219
 20
-155.141525268555
 30
0.0
 11
-710.919902801514
 21
-155.141525268555
 31
0.0
  0
LINE
  5
    5F
  8
0
  6
CONTINUOUS
 62
     7
 10
-683.558288574219
 20
-190.641525268555
 30
0.0
 11
-710.919902801514
 21
-190.641525268555
 31
0.0
  0
LINE
  5
    60
  8
0
  6
CONTINUOUS
 62
     7
 10
-708.919902801514
 20
-155.141525268555
 30
0.0
 11
-708.919902801514
 21
-190.641525268555
 31
0.0
  0
LINE
  5
    61
  8
0
  6
CONTINUOUS
 62
     7
 10
-708.398958371562
 20
-158.095948545762
 30
0.0
 11
-708.919902801514
 21
-155.141525268555
 31
0.0
  0
LINE
  5
    62
  8
0
  6
CONTINUOUS
 62
     7
 10
-708.919902801514
 20
-155.141525268555
 30
0.0
 11
-709.440847231465
 21
-158.095948545762
 31
0.0
  0
LINE
  5
    63
  8
0
  6
CONTINUOUS
 62
     7
 10
-709.440847231465
 20
-187.687101991348
 30
0.0
 11
-708.919902801514
 21
-190.641525268555
 31
0.0
  0
LINE
  5
    64
  8
0
  6
CONTINUOUS
 62
     7
 10
-708.919902801514
 20
-190.641525268555
 30
0.0
 11
-708.398958371562
 21
-187.687101991348
 31
0.0
  0
ENDBLK
  5
    65
  8
0
  6
CONTINUOUS
 62
     7
  0
BLOCK
  5
    66
  8
0
  6
CONTINUOUS
 62
     7
  2
*HATCH92
 70
    65
 10
0.0
 20
0.0
 30
0.0
  3
*HATCH92
  0
LINE
  5
    67
  8
0
  6
CONTINUOUS
 62
   210
 10
-10.7629241943359
 20
-21.0568885803223
 30
0.0
 11
-6.81984090805054
 21
-24.9999752044678
 31
0.0
  0
LINE
  5
    68
  8
0
  6
CONTINUOUS
 62
   210
 10
-7.57719612121582
 20
-19.9999771118164
 30
0.0
 11
-5.86297512054443
 21
-21.7141990661621
 31
0.0
  0
ENDBLK
  5
    69
  8
0
  6
CONTINUOUS
 62
     7
  0
BLOCK
  5
    6A
  8
0
  6
CONTINUOUS
 62
     7
  2
*HATCH93
 70
    65
 10
0.0
 20
0.0
 30
0.0
  3
*HATCH93
  0
LINE
  5
    6B
  8
0
  6
CONTINUOUS
 62
   210
 10
4.3370246887207
 20
-21.3076019287109
 30
0.0
 11
8.02939128875732
 21
-24.9999752044678
 31
0.0
  0
LINE
  5
    6C
  8
0
  6
CONTINUOUS
 62
   210
 10
7.27203750610352
 20
-19.9999771118164
 30
0.0
 11
12.2720289230347
 21
-24.9999752044678
 31
0.0
  0
LINE
  5
    6D
  8
0
  6
CONTINUOUS
 62
   210
 10
11.5146751403809
 20
-19.9999771118164
 30
0.0
 11
16.5146675109863
 21
-24.9999752044678
 31
0.0
  0
LINE
  5
    6E
  8
0
  6
CONTINUOUS
 62
   210
 10
15.7573137283325
 20
-19.9999771118164
 30
0.0
 11
19.7282981872559
 21
-23.9709663391113
 31
0.0
  0
ENDBLK
  5
    6F
  8
0
  6
CONTINUOUS
 62
     7
  0
BLOCK
  5
    70
  8
0
  6
CONTINUOUS
 62
     7
  2
*HATCH94
 70
    65
 10
0.0
 20
0.0
 30
0.0
  3
*HATCH94
  0
LINE
  5
    71
  8
0
  6
CONTINUOUS
 62
   210
 10
14.9705638885498
 20
-1.99999904632568
 30
0.0
 11
14.237024307251
 21
-2.73353862762451
 31
0.0
  0
LINE
  5
    72
  8
0
  6
CONTINUOUS
 62
   210
 10
18.237024307251
 20
-2.97617936134338
 30
0.0
 11
14.237024307251
 21
-6.9761791229248
 31
0.0
  0
LINE
  5
    73
  8
0
  6
CONTINUOUS
 62
   210
 10
18.237024307251
 20
-7.21882009506226
 30
0.0
 11
14.237024307251
 21
-11.2188205718994
 31
0.0
  0
LINE
  5
    74
  8
0
  6
CONTINUOUS
 62
   210
 10
18.237024307251
 20
-11.4614601135254
 30
0.0
 11
14.237024307251
 21
-15.461462020874
 31
0.0
  0
LINE
  5
    75
  8
0
  6
CONTINUOUS
 62
   210
 10
18.237024307251
 20
-15.7041015625
 30
0.0
 11
14.237024307251
 21
-19.7041034698486
 31
0.0
  0
LINE
  5
    76
  8
0
  6
CONTINUOUS
 62
   210
 10
18.237024307251
 20
-19.946741104126
 30
0.0
 11
18.1837902069092
 21
-19.9999771118164
 31
0.0
  0
ENDBLK
  5
    77
  8
0
  6
CONTINUOUS
 62
     7
  0
BLOCK
  5
    78
  8
0
  6
CONTINUOUS
 62
     7
  2
*HATCH95
 70
    65
 10
0.0
 20
0.0
 30
0.0
  3
*HATCH95
  0
LINE
  5
    79
  8
0
  6
CONTINUOUS
 62
   210
 10
15.237024307251
 20
-25.0680618286133
 30
0.0
 11
11.237024307251
 21
-29.0680618286133
 31
0.0
  0
LINE
  5
    7A
  8
0
  6
CONTINUOUS
 62
   210
 10
15.237024307251
 20
-29.3107032775879
 30
0.0
 11
11.237024307251
 21
-33.3107032775879
 31
0.0
  0
LINE
  5
    7B
  8
0
  6
CONTINUOUS
 62
   210
 10
15.237024307251
 20
-33.5533447265625
 30
0.0
 11
11.237024307251
 21
-37.5533409118652
 31
0.0
  0
LINE
  5
    7C
  8
0
  6
CONTINUOUS
 62
   210
 10
15.237024307251
 20
-37.7959823608398
 30
0.0
 11
11.7791585922241
 21
-41.253849029541
 31
0.0
  0
ENDBLK
  5
    7D
  8
0
  6
CONTINUOUS
 62
     7
  0
BLOCK
  5
    7E
  8
0
  6
CONTINUOUS
 62
     7
  2
*HATCH96
 70
    65
 10
0.0
 20
0.0
 30
0.0
  3
*HATCH96
  0
LINE
  5
    7F
  8
0
  6
CONTINUOUS
 62
    52
 10
187.863540649414
 20
-106.999984741211
 30
0.0
 11
185.863540649414
 21
-108.999984741211
 31
0.0
  0
LINE
  5
    80
  8
0
  6
CONTINUOUS
 62
    52
 10
192.106185913086
 20
-106.999984741211
 30
0.0
 11
190.106185913086
 21
-108.999984741211
 31
0.0
  0
LINE
  5
    81
  8
0
  6
CONTINUOUS
 62
    52
 10
196.348831176758
 20
-106.999984741211
 30
0.0
 11
194.348831176758
 21
-108.999984741211
 31
0.0
  0
LINE
  5
    82
  8
0
  6
CONTINUOUS
 62
    52
 10
200.59147644043
 20
-106.999984741211
 30
0.0
 11
198.59147644043
 21
-108.999984741211
 31
0.0
  0
LINE
  5
    83
  8
0
  6
CONTINUOUS
 62
    52
 10
204.834121704102
 20
-106.999984741211
 30
0.0
 11
202.834121704102
 21
-108.999984741211
 31
0.0
  0
LINE
  5
    84
  8
0
  6
CONTINUOUS
 62
    52
 10
209.076766967773
 20
-106.999984741211
 30
0.0
 11
207.076766967773
 21
-108.999984741211
 31
0.0
  0
LINE
  5
    85
  8
0
  6
CONTINUOUS
 62
    52
 10
213.319412231445
 20
-106.999984741211
 30
0.0
 11
211.319412231445
 21
-108.999984741211
 31
0.0
  0
LINE
  5
    86
  8
0
  6
CONTINUOUS
 62
    52
 10
217.562057495117
 20
-106.999984741211
 30
0.0
 11
215.562057495117
 21
-108.999984741211
 31
0.0
  0
LINE
  5
    87
  8
0
  6
CONTINUOUS
 62
    52
 10
221.804702758789
 20
-106.999984741211
 30
0.0
 11
219.804702758789
 21
-108.999984741211
 31
0.0
  0
LINE
  5
    88
  8
0
  6
CONTINUOUS
 62
    52
 10
226.047348022461
 20
-106.999984741211
 30
0.0
 11
224.047348022461
 21
-108.999984741211
 31
0.0
  0
LINE
  5
    89
  8
0
  6
CONTINUOUS
 62
    52
 10
230.289993286133
 20
-106.999984741211
 30
0.0
 11
228.289993286133
 21
-108.999984741211
 31
0.0
  0
LINE
  5
    8A
  8
0
  6
CONTINUOUS
 62
    52
 10
234.532638549805
 20
-106.999984741211
 30
0.0
 11
232.532638549805
 21
-108.999984741211
 31
0.0
  0
LINE
  5
    8B
  8
0
  6
CONTINUOUS
 62
    52
 10
238.775283813477
 20
-106.999984741211
 30
0.0
 11
236.775283813477
 21
-108.999984741211
 31
0.0
  0
LINE
  5
    8C
  8
0
  6
CONTINUOUS
 62
    52
 10
243.017929077148
 20
-106.999984741211
 30
0.0
 11
241.017929077148
 21
-108.999984741211
 31
0.0
  0
LINE
  5
    8D
  8
0
  6
CONTINUOUS
 62
    52
 10
247.26057434082
 20
-106.999984741211
 30
0.0
 11
245.26057434082
 21
-108.999984741211
 31
0.0
  0
LINE
  5
    8E
  8
0
  6
CONTINUOUS
 62
    52
 10
251.503219604492
 20
-106.999984741211
 30
0.0
 11
249.503219604492
 21
-108.999984741211
 31
0.0
  0
LINE
  5
    8F
  8
0
  6
CONTINUOUS
 62
    52
 10
255.745864868164
 20
-106.999984741211
 30
0.0
 11
253.745864868164
 21
-108.999984741211
 31
0.0
  0
LINE
  5
    90
  8
0
  6
CONTINUOUS
 62
    52
 10
259.281341552734
 20
-107.707077026367
 30
0.0
 11
257.988433837891
 21
-108.999984741211
 31
0.0
  0
ENDBLK
  5
    91
  8
0
  6
CONTINUOUS
 62
     7
  0
BLOCK
  5
    92
  8
0
  6
CONTINUOUS
 62
     7
  2
*HATCH97
 70
    65
 10
0.0
 20
0.0
 30
0.0
  3
*HATCH97
  0
LINE
  5
    93
  8
0
  6
CONTINUOUS
 62
    52
 10
168.771667480469
 20
-106.999984741211
 30
0.0
 11
166.771667480469
 21
-108.999984741211
 31
0.0
  0
LINE
  5
    94
  8
0
  6
CONTINUOUS
 62
    52
 10
173.014312744141
 20
-106.999984741211
 30
0.0
 11
171.014312744141
 21
-108.999984741211
 31
0.0
  0
LINE
  5
    95
  8
0
  6
CONTINUOUS
 62
    52
 10
177.256958007812
 20
-106.999984741211
 30
0.0
 11
175.256958007813
 21
-108.999984741211
 31
0.0
  0
ENDBLK
  5
    96
  8
0
  6
CONTINUOUS
 62
     7
  0
BLOCK
  5
    97
  8
0
  6
CONTINUOUS
 62
     7
  2
*HATCH98
 70
    65
 10
0.0
 20
0.0
 30
0.0
  3
*HATCH98
  0
LINE
  5
    98
  8
0
  6
CONTINUOUS
 62
    52
 10
45.7350769042969
 20
-106.999984741211
 30
0.0
 11
43.7350769042969
 21
-108.999984741211
 31
0.0
  0
LINE
  5
    99
  8
0
  6
CONTINUOUS
 62
    52
 10
49.9777145385742
 20
-106.999984741211
 30
0.0
 11
47.9777145385742
 21
-108.999984741211
 31
0.0
  0
LINE
  5
    9A
  8
0
  6
CONTINUOUS
 62
    52
 10
53.9806251525879
 20
-107.239715576172
 30
0.0
 11
52.2203598022461
 21
-108.999984741211
 31
0.0
  0
ENDBLK
  5
    9B
  8
0
  6
CONTINUOUS
 62
     7
  0
BLOCK
  5
    9C
  8
0
  6
CONTINUOUS
 62
     7
  2
*HATCH99
 70
    65
 10
0.0
 20
0.0
 30
0.0
  3
*HATCH99
  0
LINE
  5
    9D
  8
0
  6
CONTINUOUS
 62
    52
 10
-41.2390594482422
 20
-106.999984741211
 30
0.0
 11
-43.2390594482422
 21
-108.999984741211
 31
0.0
  0
LINE
  5
    9E
  8
0
  6
CONTINUOUS
 62
    52
 10
-36.9964218139648
 20
-106.999984741211
 30
0.0
 11
-38.9964218139648
 21
-108.999984741211
 31
0.0
  0
LINE
  5
    9F
  8
0
  6
CONTINUOUS
 62
    52
 10
-32.7537841796875
 20
-106.999984741211
 30
0.0
 11
-34.7537841796875
 21
-108.999984741211
 31
0.0
  0
LINE
  5
    A0
  8
0
  6
CONTINUOUS
 62
    52
 10
-28.5111427307129
 20
-106.999984741211
 30
0.0
 11
-30.5111446380615
 21
-108.999984741211
 31
0.0
  0
LINE
  5
    A1
  8
0
  6
CONTINUOUS
 62
    52
 10
-24.2685012817383
 20
-106.999984741211
 30
0.0
 11
-26.2685031890869
 21
-108.999984741211
 31
0.0
  0
LINE
  5
    A2
  8
0
  6
CONTINUOUS
 62
    52
 10
-20.0258598327637
 20
-106.999984741211
 30
0.0
 11
-22.0258617401123
 21
-108.999984741211
 31
0.0
  0
LINE
  5
    A3
  8
0
  6
CONTINUOUS
 62
    52
 10
-15.7832183837891
 20
-106.999984741211
 30
0.0
 11
-17.7832202911377
 21
-108.999984741211
 31
0.0
  0
LINE
  5
    A4
  8
0
  6
CONTINUOUS
 62
    52
 10
-11.5405769348145
 20
-106.999984741211
 30
0.0
 11
-13.5405788421631
 21
-108.999984741211
 31
0.0
  0
LINE
  5
    A5
  8
0
  6
CONTINUOUS
 62
    52
 10
-7.297935962677
 20
-106.999984741211
 30
0.0
 11
-9.29793739318848
 21
-108.999984741211
 31
0.0
  0
LINE
  5
    A6
  8
0
  6
CONTINUOUS
 62
    52
 10
-3.05529546737671
 20
-106.999984741211
 30
0.0
 11
-5.05529689788818
 21
-108.999984741211
 31
0.0
  0
LINE
  5
    A7
  8
0
  6
CONTINUOUS
 62
    52
 10
1.18734502792358
 20
-106.999984741211
 30
0.0
 11
-0.812656402587891
 21
-108.999984741211
 31
0.0
  0
LINE
  5
    A8
  8
0
  6
CONTINUOUS
 62
    52
 10
5.42998552322388
 20
-106.999984741211
 30
0.0
 11
3.4299840927124
 21
-108.999984741211
 31
0.0
  0
LINE
  5
    A9
  8
0
  6
CONTINUOUS
 62
    52
 10
9.67262649536133
 20
-106.999984741211
 30
0.0
 11
7.6726245880127
 21
-108.999984741211
 31
0.0
  0
LINE
  5
    AA
  8
0
  6
CONTINUOUS
 62
    52
 10
13.9152679443359
 20
-106.999984741211
 30
0.0
 11
11.9152660369873
 21
-108.999984741211
 31
0.0
  0
LINE
  5
    AB
  8
0
  6
CONTINUOUS
 62
    52
 10
18.1579093933105
 20
-106.999984741211
 30
0.0
 11
16.1579074859619
 21
-108.999984741211
 31
0.0
  0
LINE
  5
    AC
  8
0
  6
CONTINUOUS
 62
    52
 10
22.4005508422852
 20
-106.999984741211
 30
0.0
 11
20.4005489349365
 21
-108.999984741211
 31
0.0
  0
LINE
  5
    AD
  8
0
  6
CONTINUOUS
 62
    52
 10
26.6431922912598
 20
-106.999984741211
 30
0.0
 11
24.6431903839111
 21
-108.999984741211
 31
0.0
  0
LINE
  5
    AE
  8
0
  6
CONTINUOUS
 62
    52
 10
30.8858337402344
 20
-106.999984741211
 30
0.0
 11
28.8858318328857
 21
-108.999984741211
 31
0.0
  0
LINE
  5
    AF
  8
0
  6
CONTINUOUS
 62
    52
 10
35.1284713745117
 20
-106.999984741211
 30
0.0
 11
33.1284713745117
 21
-108.999984741211
 31
0.0
  0
ENDBLK
  5
    B0
  8
0
  6
CONTINUOUS
 62
     7
  0
BLOCK
  5
    B1
  8
0
  6
CONTINUOUS
 62
     7
  2
TASSELLO_POST_
 70
    64
 10
0.0
 20
0.0
 30
0.0
  3
TASSELLO_POST_
  0
LINE
  5
    B2
  8
0
  6
CONTINUOUS
 62
   210
 10
-1.00000000000001
 20
20.5
 30
0.0
 11
-9.40287806727546E-15
 21
20.5
 31
0.0
  0
LINE
  5
    B3
  8
0
  6
CONTINUOUS
 62
   210
 10
1.09959191973985E-6
 20
20.4999953320827
 30
0.0
 11
1.00000106536339
 21
19.4999953663112
 31
0.0
  0
LINE
  5
    B4
  8
0
  6
CONTINUOUS
 62
   210
 10
1.0
 20
18.0
 30
0.0
 11
1.0
 21
19.5
 31
0.0
  0
LINE
  5
    B5
  8
0
  6
CONTINUOUS
 62
   210
 10
-1.00000000000001
 20
18.0
 30
0.0
 11
0.99999999999999
 21
18.0
 31
0.0
  0
LINE
  5
    B6
  8
0
  6
CONTINUOUS
 62
   210
 10
-4.25000286102296
 20
11.5
 30
0.0
 11
-1.00000000000001
 21
11.5
 31
0.0
  0
LINE
  5
    B7
  8
0
  6
CONTINUOUS
 62
   210
 10
-1.0
 20
11.5
 30
0.0
 11
-1.0
 21
18.0
 31
0.0
  0
LINE
  5
    B8
  8
0
  6
CONTINUOUS
 62
   210
 10
-16.5
 20
-10.0
 30
0.0
 11
-15.0
 21
-10.0
 31
0.0
  0
LINE
  5
    B9
  8
0
  6
CONTINUOUS
 62
   210
 10
-16.5
 20
20.5
 30
0.0
 11
-1.00000000000001
 21
20.5
 31
0.0
  0
LINE
  5
    BA
  8
0
  6
CONTINUOUS
 62
   210
 10
-16.5
 20
-10.0
 30
0.0
 11
-16.5
 21
20.5
 31
0.0
  0
LINE
  5
    BB
  8
0
  6
CONTINUOUS
 62
   210
 10
-1.0
 20
18.0
 30
0.0
 11
-1.0
 21
20.5
 31
0.0
  0
LINE
  5
    BC
  8
0
  6
CONTINUOUS
 62
   210
 10
-15.0000014150192
 20
-10.000004602161
 30
0.0
 11
-1.00000116385348
 21
17.9999959001704
 31
0.0
  0
LINE
  5
    BD
  8
0
  6
CONTINUOUS
 62
   210
 10
-2.00000000000001
 20
14.8000030517578
 30
0.0
 11
-1.00000000000001
 21
14.8000030517578
 31
0.0
  0
LINE
  5
    BE
  8
0
  6
CONTINUOUS
 62
   210
 10
-2.39999850435556
 20
15.1999924026964
 30
0.0
 11
-1.99999887210357
 21
14.7999985023696
 31
0.0
  0
LINE
  5
    BF
  8
0
  6
CONTINUOUS
 62
   210
 10
-0.5
 20
-9.5
 30
0.0
 11
-0.5
 21
9.5
 31
0.0
  0
LINE
  5
    C0
  8
0
  6
CONTINUOUS
 62
   218
 10
0.0
 20
-7.0
 30
0.0
 11
0.0
 21
7.0
 31
0.0
  0
LINE
  5
    C1
  8
0
  6
CONTINUOUS
 62
   210
 10
-16.5
 20
-9.0
 30
0.0
 11
-14.5
 21
-9.0
 31
0.0
  0
LINE
  5
    C2
  8
0
  6
CONTINUOUS
 62
   210
 10
-16.5
 20
19.5
 30
0.0
 11
-1.00000000000001
 21
19.5
 31
0.0
  0
LINE
  5
    C3
  8
0
  6
CONTINUOUS
 62
   210
 10
-14.7500023841858
 20
-9.5
 30
0.0
 11
-0.500000476837169
 21
-9.5
 31
0.0
  0
LINE
  5
    C4
  8
0
  6
CONTINUOUS
 62
   210
 10
-5.24999713897706
 20
9.5
 30
0.0
 11
-0.50000000000001
 21
9.5
 31
0.0
  0
LINE
  5
    C5
  8
0
  6
CONTINUOUS
 62
   218
 10
-0.50000000000001
 20
7.0
 30
0.0
 11
-1.02295146566999E-14
 21
7.0
 31
0.0
  0
LINE
  5
    C6
  8
0
  6
CONTINUOUS
 62
   218
 10
-0.500000000000011
 20
-7.0
 30
0.0
 11
-1.10867674161031E-14
 21
-7.0
 31
0.0
  0
LINE
  5
    C7
  8
0
  6
CONTINUOUS
 62
   210
 10
-0.999999999999991
 20
20.5
 30
0.0
 11
9.40287806727546E-15
 21
20.5
 31
0.0
  0
LINE
  5
    C8
  8
0
  6
CONTINUOUS
 62
   210
 10
1.09959193395071E-6
 20
20.4999953320826
 30
0.0
 11
1.0000010653634
 21
19.4999953663112
 31
0.0
  0
LINE
  5
    C9
  8
0
  6
CONTINUOUS
 62
   210
 10
1.0
 20
18.0
 30
0.0
 11
1.0
 21
19.5
 31
0.0
  0
LINE
  5
    CA
  8
0
  6
CONTINUOUS
 62
   210
 10
-0.99999999999999
 20
18.0
 30
0.0
 11
1.00000000000001
 21
18.0
 31
0.0
  0
LINE
  5
    CB
  8
0
  6
CONTINUOUS
 62
   210
 10
-4.25000190734862
 20
11.5
 30
0.0
 11
-0.99999999999999
 21
11.5
 31
0.0
  0
LINE
  5
    CC
  8
0
  6
CONTINUOUS
 62
   210
 10
-1.0
 20
11.5
 30
0.0
 11
-1.0
 21
18.0
 31
0.0
  0
LINE
  5
    CD
  8
0
  6
CONTINUOUS
 62
   210
 10
-16.5
 20
20.5
 30
0.0
 11
-0.999999999999991
 21
20.5
 31
0.0
  0
LINE
  5
    CE
  8
0
  6
CONTINUOUS
 62
   210
 10
-1.0
 20
18.0
 30
0.0
 11
-1.0
 21
20.5
 31
0.0
  0
LINE
  5
    CF
  8
0
  6
CONTINUOUS
 62
   210
 10
-15.0000014150192
 20
-10.000004602161
 30
0.0
 11
-1.00000116385345
 21
17.9999959001704
 31
0.0
  0
LINE
  5
    D0
  8
0
  6
CONTINUOUS
 62
   210
 10
-1.99999999999999
 20
14.8000030517578
 30
0.0
 11
-0.99999999999999
 21
14.8000030517578
 31
0.0
  0
LINE
  5
    D1
  8
0
  6
CONTINUOUS
 62
   210
 10
-2.3999985317481
 20
15.1999924202095
 30
0.0
 11
-1.99999889949612
 21
14.7999985198827
 31
0.0
  0
LINE
  5
    D2
  8
0
  6
CONTINUOUS
 62
   210
 10
-0.5
 20
-9.5
 30
0.0
 11
-0.5
 21
9.5
 31
0.0
  0
LINE
  5
    D3
  8
0
  6
CONTINUOUS
 62
   218
 10
0.0
 20
-7.0
 30
0.0
 11
0.0
 21
7.0
 31
0.0
  0
LINE
  5
    D4
  8
0
  6
CONTINUOUS
 62
   210
 10
-16.5
 20
19.5
 30
0.0
 11
-0.999999999999991
 21
19.5
 31
0.0
  0
LINE
  5
    D5
  8
0
  6
CONTINUOUS
 62
   210
 10
-14.7500023841858
 20
-9.5
 30
0.0
 11
-0.500000476837147
 21
-9.5
 31
0.0
  0
LINE
  5
    D6
  8
0
  6
CONTINUOUS
 62
   210
 10
-5.24999713897704
 20
9.5
 30
0.0
 11
-0.49999999999999
 21
9.5
 31
0.0
  0
LINE
  5
    D7
  8
0
  6
CONTINUOUS
 62
   218
 10
-0.49999999999999
 20
7.0
 30
0.0
 11
1.02295146566999E-14
 21
7.0
 31
0.0
  0
LINE
  5
    D8
  8
0
  6
CONTINUOUS
 62
   218
 10
-0.499999999999989
 20
-7.0
 30
0.0
 11
1.10867674161031E-14
 21
-7.0
 31
0.0
  0
LINE
  5
    D9
  8
0
  6
CONTINUOUS
 62
   210
 10
-16.5
 20
-10.0
 30
0.0
 11
-16.5
 21
20.5
 31
0.0
  0
LINE
  5
    DA
  8
0
  6
CONTINUOUS
 62
   210
 10
-16.5
 20
-9.0
 30
0.0
 11
-14.5
 21
-9.0
 31
0.0
  0
LINE
  5
    DB
  8
0
  6
CONTINUOUS
 62
   210
 10
-16.5
 20
-10.0
 30
0.0
 11
-15.0
 21
-10.0
 31
0.0
  0
ENDBLK
  5
    DC
  8
0
  6
CONTINUOUS
 62
     7
  0
BLOCK
  5
    DD
  8
0
  6
CONTINUOUS
 62
     5
  2
*UDIM239
 70
    65
 10
0.0
 20
0.0
 30
0.0
  3
*UDIM239
  0
TEXT
  5
    DE
  8
0
  6
CONTINUOUS
 62
     5
 10
-586.279095611991
 20
3.53140434713688
 30
0.0
 40
3.00000011722246
  1
107,25
 50
89.9999999480344
 41
0.933333333333333
 72
     1
 11
-587.779095663266
 21
11.6314046649961
 31
0.0
 73
     2
  0
LINE
  5
    DF
  8
0
  6
CONTINUOUS
 62
     5
 10
-557.321181338011
 20
36.0376608134112
 30
0.0
 11
-587.279095604655
 21
36.0376608134112
 31
0.0
  0
LINE
  5
    E0
  8
0
  6
CONTINUOUS
 62
     5
 10
-585.279095604655
 20
-12.2248455494457
 30
0.0
 11
-585.279095604655
 21
36.0376608134112
 31
0.0
  0
LINE
  5
    E1
  8
0
  6
CONTINUOUS
 62
     5
 10
-585.800040034606
 20
-9.27042227223871
 30
0.0
 11
-585.279095604655
 21
-12.2248455494457
 31
0.0
  0
LINE
  5
    E2
  8
0
  6
CONTINUOUS
 62
     5
 10
-585.279095604655
 20
-12.2248455494457
 30
0.0
 11
-584.758151174703
 21
-9.27042227223871
 31
0.0
  0
LINE
  5
    E3
  8
0
  6
CONTINUOUS
 62
     5
 10
-584.758151174703
 20
33.0832375362043
 30
0.0
 11
-585.279095604655
 21
36.0376608134112
 31
0.0
  0
LINE
  5
    E4
  8
0
  6
CONTINUOUS
 62
     5
 10
-585.279095604655
 20
36.0376608134112
 30
0.0
 11
-585.800040034606
 21
33.0832375362043
 31
0.0
  0
ENDBLK
  5
    E5
  8
0
  6
CONTINUOUS
 62
     5
  0
BLOCK
  5
    E6
  8
0
  6
CONTINUOUS
 62
     7
  2
*UDIM240
 70
    65
 10
0.0
 20
0.0
 30
0.0
  3
*UDIM240
  0
TEXT
  5
    E7
  8
0
  6
CONTINUOUS
 62
     7
 10
-482.053382732019
 20
-16.3998392288046
 30
0.0
 40
3.00000011722246
  1
105
 50
89.9999999480344
 41
0.933333333333333
 72
     1
 11
-483.553382787098
 21
-12.4998390750569
 31
0.0
 73
     2
  0
TEXT
  5
    E8
  8
0
  6
CONTINUOUS
 62
     7
 10
-477.553382658433
 20
-17.0498391730689
 30
0.0
 40
3.50000007417466
  1
= =
 50
89.9999999480344
 41
0.933333333333333
 72
     1
 11
-479.303382691399
 21
-12.4998390750569
 31
0.0
 73
     2
  0
LINE
  5
    E9
  8
0
  6
CONTINUOUS
 62
     7
 10
-512.827974450588
 20
-35.8498311906871
 30
0.0
 11
-479.053382728486
 21
-35.8498311906871
 31
0.0
  0
LINE
  5
    EA
  8
0
  6
CONTINUOUS
 62
     7
 10
-512.827974450588
 20
11.4001538247056
 30
0.0
 11
-479.053382728486
 21
11.4001538247056
 31
0.0
  0
LINE
  5
    EB
  8
0
  6
CONTINUOUS
 62
     7
 10
-481.053382728486
 20
-35.8498311906871
 30
0.0
 11
-481.053382728486
 21
11.4001538247056
 31
0.0
  0
LINE
  5
    EC
  8
0
  6
CONTINUOUS
 62
     7
 10
-481.574327158438
 20
-32.8954079134801
 30
0.0
 11
-481.053382728486
 21
-35.8498311906871
 31
0.0
  0
LINE
  5
    ED
  8
0
  6
CONTINUOUS
 62
     7
 10
-481.053382728486
 20
-35.8498311906871
 30
0.0
 11
-480.532438298535
 21
-32.8954079134801
 31
0.0
  0
LINE
  5
    EE
  8
0
  6
CONTINUOUS
 62
     7
 10
-480.532438298535
 20
8.4457305474986
 30
0.0
 11
-481.053382728486
 21
11.4001538247056
 31
0.0
  0
LINE
  5
    EF
  8
0
  6
CONTINUOUS
 62
     7
 10
-481.053382728486
 20
11.4001538247056
 30
0.0
 11
-481.574327158438
 21
8.4457305474986
 31
0.0
  0
ENDBLK
  5
    F0
  8
0
  6
CONTINUOUS
 62
     7
  0
BLOCK
  5
    F1
  8
0
  6
CONTINUOUS
 62
     7
  2
*HATCH100
 70
    65
 10
0.0
 20
0.0
 30
0.0
  3
*HATCH100
  0
LINE
  5
    F2
  8
0
  6
CONTINUOUS
 62
   210
 10
196.745849609375
 20
-22.797721862793
 30
0.0
 11
198.948104858398
 21
-24.9999752044678
 31
0.0
  0
LINE
  5
    F3
  8
0
  6
CONTINUOUS
 62
   210
 10
198.19075012207
 20
-19.9999771118164
 30
0.0
 11
203.190734863281
 21
-24.9999752044678
 31
0.0
  0
LINE
  5
    F4
  8
0
  6
CONTINUOUS
 62
   210
 10
202.433395385742
 20
-19.9999771118164
 30
0.0
 11
207.433380126953
 21
-24.9999752044678
 31
0.0
  0
LINE
  5
    F5
  8
0
  6
CONTINUOUS
 62
   210
 10
206.676040649414
 20
-19.9999771118164
 30
0.0
 11
211.676025390625
 21
-24.9999752044678
 31
0.0
  0
LINE
  5
    F6
  8
0
  6
CONTINUOUS
 62
   210
 10
210.918670654297
 20
-19.9999771118164
 30
0.0
 11
212.137130737305
 21
-21.2184410095215
 31
0.0
  0
ENDBLK
  5
    F7
  8
0
  6
CONTINUOUS
 62
     7
  0
BLOCK
  5
    F8
  8
0
  6
CONTINUOUS
 62
     7
  2
*HATCH101
 70
    65
 10
0.0
 20
0.0
 30
0.0
  3
*HATCH101
  0
LINE
  5
    F9
  8
0
  6
CONTINUOUS
 62
   210
 10
222.337127685547
 20
-20.8118438720703
 30
0.0
 11
226.525253295898
 21
-24.9999752044678
 31
0.0
  0
LINE
  5
    FA
  8
0
  6
CONTINUOUS
 62
   210
 10
225.76789855957
 20
-19.9999771118164
 30
0.0
 11
227.237075805664
 21
-21.4691581726074
 31
0.0
  0
ENDBLK
  5
    FB
  8
0
  6
CONTINUOUS
 62
     7
  0
BLOCK
  5
    FC
  8
0
  6
CONTINUOUS
 62
     7
  2
*HATCH102
 70
    65
 10
0.0
 20
0.0
 30
0.0
  3
*HATCH102
  0
LINE
  5
    FD
  8
0
  6
CONTINUOUS
 62
   210
 10
204.102630615234
 20
-24.9999752044678
 30
0.0
 11
201.237121582031
 21
-27.8654766082764
 31
0.0
  0
LINE
  5
    FE
  8
0
  6
CONTINUOUS
 62
   210
 10
205.237121582031
 20
-28.108118057251
 30
0.0
 11
201.237121582031
 21
-32.1081161499023
 31
0.0
  0
LINE
  5
    FF
  8
0
  6
CONTINUOUS
 62
   210
 10
205.237121582031
 20
-32.350757598877
 30
0.0
 11
201.237121582031
 21
-36.3507537841797
 31
0.0
  0
LINE
  5
   100
  8
0
  6
CONTINUOUS
 62
   210
 10
205.237121582031
 20
-36.5933952331543
 30
0.0
 11
203.575424194336
 21
-38.2551078796387
 31
0.0
  0
ENDBLK
  5
   101
  8
0
  6
CONTINUOUS
 62
     7
  0
BLOCK
  5
   102
  8
0
  6
CONTINUOUS
 62
     7
  2
*HATCH103
 70
    65
 10
0.0
 20
0.0
 30
0.0
  3
*HATCH103
  0
LINE
  5
   103
  8
0
  6
CONTINUOUS
 62
   210
 10
198.4345703125
 20
-13.6974716186523
 30
0.0
 11
196.745849609375
 21
-15.3861865997314
 31
0.0
  0
LINE
  5
   104
  8
0
  6
CONTINUOUS
 62
   210
 10
199.737075805664
 20
-16.6376056671143
 30
0.0
 11
196.745849609375
 21
-19.6288280487061
 31
0.0
  0
ENDBLK
  5
   105
  8
0
  6
CONTINUOUS
 62
     7
  0
BLOCK
  5
   106
  8
0
  6
CONTINUOUS
 62
     7
  2
*UDIM241
 70
    65
 10
0.0
 20
0.0
 30
0.0
  3
*UDIM241
  0
TEXT
  5
   107
  8
0
  6
CONTINUOUS
 62
     7
 10
-558.852972236646
 20
70.4697589485549
 30
0.0
 40
3.00000011722246
  1
25
 50
359.999999948034
 41
0.933333333333333
 72
     1
 11
-556.352972137607
 21
71.9697590049112
 31
0.0
 73
     2
  0
LINE
  5
   108
  8
0
  6
CONTINUOUS
 62
     7
 10
-550.727977966621
 20
41.5376376719823
 30
0.0
 11
-550.727977966621
 21
71.4697589463
 31
0.0
  0
LINE
  5
   109
  8
0
  6
CONTINUOUS
 62
     7
 10
-561.977966308594
 20
45.1376375766149
 30
0.0
 11
-561.977966308594
 21
71.4697589463
 31
0.0
  0
LINE
  5
   10A
  8
0
  6
CONTINUOUS
 62
     7
 10
-550.727977966621
 20
69.4697589463
 30
0.0
 11
-566.977966308594
 21
69.4697589463
 31
0.0
  0
LINE
  5
   10B
  8
0
  6
CONTINUOUS
 62
     7
 10
-547.830200493411
 20
70.2462161027185
 30
0.0
 11
-550.727977966621
 21
69.4697589463
 31
0.0
  0
LINE
  5
   10C
  8
0
  6
CONTINUOUS
 62
     7
 10
-550.727977966621
 20
69.4697589463
 30
0.0
 11
-547.830200493411
 21
68.6933017898814
 31
0.0
  0
LINE
  5
   10D
  8
0
  6
CONTINUOUS
 62
     7
 10
-564.875743781804
 20
68.6933017898814
 30
0.0
 11
-561.977966308594
 21
69.4697589463
 31
0.0
  0
LINE
  5
   10E
  8
0
  6
CONTINUOUS
 62
     7
 10
-561.977966308594
 20
69.4697589463
 30
0.0
 11
-564.875743781804
 21
70.2462161027185
 31
0.0
  0
ENDBLK
  5
   10F
  8
0
  6
CONTINUOUS
 62
     7
  0
BLOCK
  5
   110
  8
0
  6
CONTINUOUS
 62
     7
  2
*UDIM242
 70
    65
 10
0.0
 20
0.0
 30
0.0
  3
*UDIM242
  0
TEXT
  5
   111
  8
0
  6
CONTINUOUS
 62
     7
 10
-541.799144968409
 20
70.469758952343
 30
0.0
 40
3.00000011722246
  1
5 min
 50
359.999999948034
 41
0.933333333333333
 72
     1
 11
-535.099144705259
 21
71.9697590049112
 31
0.0
 73
     2
  0
LINE
  5
   112
  8
0
  6
CONTINUOUS
 62
     7
 10
-548.027978038147
 20
41.987660682281
 30
0.0
 11
-548.027978038147
 21
71.4697589463
 31
0.0
  0
LINE
  5
   113
  8
0
  6
CONTINUOUS
 62
     7
 10
-528.399144443463
 20
69.4697589463
 30
0.0
 11
-550.727977966621
 21
69.4697589463
 31
0.0
  0
LINE
  5
   114
  8
0
  6
CONTINUOUS
 62
     7
 10
-545.130200564936
 20
70.2462161027185
 30
0.0
 11
-548.027978038147
 21
69.4697589463
 31
0.0
  0
LINE
  5
   115
  8
0
  6
CONTINUOUS
 62
     7
 10
-548.027978038147
 20
69.4697589463
 30
0.0
 11
-545.130200564936
 21
68.6933017898814
 31
0.0
  0
CIRCLE
  5
   116
  8
0
  6
CONTINUOUS
 62
     7
 10
-550.727977966621
 20
69.4697589463
 30
0.0
 40
0.5
  0
ENDBLK
  5
   117
  8
0
  6
CONTINUOUS
 62
     7
  0
BLOCK
  5
   118
  8
0
  6
CONTINUOUS
 62
     7
  2
*UDIM243
 70
    65
 10
0.0
 20
0.0
 30
0.0
  3
*UDIM243
  0
TEXT
  5
   119
  8
0
  6
CONTINUOUS
 62
     7
 10
-572.617849713794
 20
-86.5473280383619
 30
0.0
 40
3.00000011722246
  1
3
 50
359.999999948034
 41
0.933333333333334
 72
     1
 11
-571.51784966946
 21
-85.0473279807428
 31
0.0
 73
     2
  0
TEXT
  5
   11A
  8
0
  6
CONTINUOUS
 62
     7
 10
-576.184516435081
 20
-86.7973280166726
 30
0.0
 40
3.50000007417466
  1
_
 50
359.999999948034
 41
0.933333333333333
 72
     1
 11
-574.901183072972
 21
-85.0473279807428
 31
0.0
 73
     2
  0
LINE
  5
   11B
  8
0
  6
CONTINUOUS
 62
     7
 10
-562.427966296673
 20
-79.7945524324534
 30
0.0
 11
-562.427966296673
 21
-89.547328039354
 31
0.0
  0
LINE
  5
   11C
  8
0
  6
CONTINUOUS
 62
     7
 10
-563.77796626091
 20
-79.7945524324534
 30
0.0
 11
-563.77796626091
 21
-89.547328039354
 31
0.0
  0
LINE
  5
   11D
  8
0
  6
CONTINUOUS
 62
     7
 10
-562.427966296673
 20
-87.547328039354
 30
0.0
 11
-576.184516433503
 21
-87.547328039354
 31
0.0
  0
CIRCLE
  5
   11E
  8
0
  6
CONTINUOUS
 62
     7
 10
-562.427966296673
 20
-87.547328039354
 30
0.0
 40
0.5
  0
LINE
  5
   11F
  8
0
  6
CONTINUOUS
 62
     7
 10
-566.675743734121
 20
-88.3237851957726
 30
0.0
 11
-563.77796626091
 21
-87.547328039354
 31
0.0
  0
LINE
  5
   120
  8
0
  6
CONTINUOUS
 62
     7
 10
-563.77796626091
 20
-87.547328039354
 30
0.0
 11
-566.675743734121
 21
-86.7708708829355
 31
0.0
  0
ENDBLK
  5
   121
  8
0
  6
CONTINUOUS
 62
     7
  0
BLOCK
  5
   122
  8
0
  6
CONTINUOUS
 62
     7
  2
*UDIM244
 70
    65
 10
0.0
 20
0.0
 30
0.0
  3
*UDIM244
  0
TEXT
  5
   123
  8
0
  6
CONTINUOUS
 62
     7
 10
-558.613623114107
 20
-86.5473280383619
 30
0.0
 40
3.00000011722246
  1
1
 50
359.999999948034
 41
0.933333333333334
 72
     1
 11
-557.513623069772
 21
-85.0473279807428
 31
0.0
 73
     2
  0
LINE
  5
   124
  8
0
  6
CONTINUOUS
 62
     7
 10
-561.977966308594
 20
-71.1623302817163
 30
0.0
 11
-561.977966308594
 21
-89.547328039354
 31
0.0
  0
LINE
  5
   125
  8
0
  6
CONTINUOUS
 62
     7
 10
-556.413623026791
 20
-87.547328039354
 30
0.0
 11
-562.427966296673
 21
-87.547328039354
 31
0.0
  0
LINE
  5
   126
  8
0
  6
CONTINUOUS
 62
     7
 10
-559.080188835383
 20
-86.7708708829355
 30
0.0
 11
-561.977966308594
 21
-87.547328039354
 31
0.0
  0
LINE
  5
   127
  8
0
  6
CONTINUOUS
 62
     7
 10
-561.977966308594
 20
-87.547328039354
 30
0.0
 11
-559.080188835383
 21
-88.3237851957726
 31
0.0
  0
CIRCLE
  5
   128
  8
0
  6
CONTINUOUS
 62
     7
 10
-562.427966296673
 20
-87.547328039354
 30
0.0
 40
0.5
  0
ENDBLK
  5
   129
  8
0
  6
CONTINUOUS
 62
     7
  0
BLOCK
  5
   12A
  8
0
  6
CONTINUOUS
 62
     7
  2
*UDIM245
 70
    65
 10
0.0
 20
0.0
 30
0.0
  3
*UDIM245
  0
TEXT
  5
   12B
  8
0
  6
CONTINUOUS
 62
     7
 10
-559.936464761922
 20
-93.8773640388864
 30
0.0
 40
3.00000011722246
  1
20
 50
359.999999948034
 41
0.933333333333333
 72
     1
 11
-557.436464662884
 21
-92.3773639825301
 31
0.0
 73
     2
  0
LINE
  5
   12C
  8
0
  6
CONTINUOUS
 62
     7
 10
-552.97797704871
 20
-67.5623594908366
 30
0.0
 11
-552.97797704871
 21
-96.8773640411413
 31
0.0
  0
LINE
  5
   12D
  8
0
  6
CONTINUOUS
 62
     7
 10
-561.977966308594
 20
-71.1623302817163
 30
0.0
 11
-561.977966308594
 21
-96.8773640411413
 31
0.0
  0
LINE
  5
   12E
  8
0
  6
CONTINUOUS
 62
     7
 10
-547.97797704871
 20
-94.8773640411413
 30
0.0
 11
-566.977966308594
 21
-94.8773640411413
 31
0.0
  0
LINE
  5
   12F
  8
0
  6
CONTINUOUS
 62
     7
 10
-550.080199575499
 20
-94.1009068847228
 30
0.0
 11
-552.97797704871
 21
-94.8773640411413
 31
0.0
  0
LINE
  5
   130
  8
0
  6
CONTINUOUS
 62
     7
 10
-552.97797704871
 20
-94.8773640411413
 30
0.0
 11
-550.080199575499
 21
-95.6538211975599
 31
0.0
  0
LINE
  5
   131
  8
0
  6
CONTINUOUS
 62
     7
 10
-564.875743781804
 20
-95.6538211975599
 30
0.0
 11
-561.977966308594
 21
-94.8773640411413
 31
0.0
  0
LINE
  5
   132
  8
0
  6
CONTINUOUS
 62
     7
 10
-561.977966308594
 20
-94.8773640411413
 30
0.0
 11
-564.875743781804
 21
-94.1009068847228
 31
0.0
  0
ENDBLK
  5
   133
  8
0
  6
CONTINUOUS
 62
     7
  0
BLOCK
  5
   134
  8
0
  6
CONTINUOUS
 62
     7
  2
*UDIM246
 70
    65
 10
0.0
 20
0.0
 30
0.0
  3
*UDIM246
  0
TEXT
  5
   135
  8
0
  6
CONTINUOUS
 62
     7
 10
-560.156788672886
 20
-102.210457600076
 30
0.0
 40
3.00000011722246
  1
5
 50
359.999999948034
 41
0.933333333333334
 72
     1
 11
-559.056788628551
 21
-100.710457542457
 31
0.0
 73
     2
  0
LINE
  5
   136
  8
0
  6
CONTINUOUS
 62
     7
 10
-550.727977108314
 20
-67.5623594908366
 30
0.0
 11
-550.727977108314
 21
-105.210457601068
 31
0.0
  0
LINE
  5
   137
  8
0
  6
CONTINUOUS
 62
     7
 10
-552.97797704871
 20
-67.5623594908366
 30
0.0
 11
-552.97797704871
 21
-105.210457601068
 31
0.0
  0
LINE
  5
   138
  8
0
  6
CONTINUOUS
 62
     7
 10
-550.727977108314
 20
-103.210457601068
 30
0.0
 11
-560.156788671533
 21
-103.210457601068
 31
0.0
  0
CIRCLE
  5
   139
  8
0
  6
CONTINUOUS
 62
     7
 10
-550.727977108314
 20
-103.210457601068
 30
0.0
 40
0.5
  0
LINE
  5
   13A
  8
0
  6
CONTINUOUS
 62
     7
 10
-555.87575452192
 20
-103.986914757486
 30
0.0
 11
-552.97797704871
 21
-103.210457601068
 31
0.0
  0
LINE
  5
   13B
  8
0
  6
CONTINUOUS
 62
     7
 10
-552.97797704871
 20
-103.210457601068
 30
0.0
 11
-555.87575452192
 21
-102.434000444649
 31
0.0
  0
ENDBLK
  5
   13C
  8
0
  6
CONTINUOUS
 62
     7
  0
BLOCK
  5
   13D
  8
0
  6
CONTINUOUS
 62
     7
  2
*UDIM247
 70
    65
 10
0.0
 20
0.0
 30
0.0
  3
*UDIM247
  0
TEXT
  5
   13E
  8
0
  6
CONTINUOUS
 62
     7
 10
-544.725133817784
 20
-102.210457600076
 30
0.0
 40
3.00000011722246
  1
5
 50
359.999999948034
 41
0.933333333333334
 72
     1
 11
-543.62513377345
 21
-100.710457542457
 31
0.0
 73
     2
  0
TEXT
  5
   13F
  8
0
  6
CONTINUOUS
 62
     7
 10
-541.525133732047
 20
-102.460457573967
 30
0.0
 40
3.50000007417466
  1
 min
 50
359.999999948034
 41
0.933333333333333
 72
     1
 11
-535.341800266093
 21
-100.710457542457
 31
0.0
 73
     2
  0
LINE
  5
   140
  8
0
  6
CONTINUOUS
 62
     7
 10
-548.477978026226
 20
-68.012336456696
 30
0.0
 11
-548.477978026226
 21
-105.210457601068
 31
0.0
  0
LINE
  5
   141
  8
0
  6
CONTINUOUS
 62
     7
 10
-529.158466801718
 20
-103.210457601068
 30
0.0
 11
-550.727977108314
 21
-103.210457601068
 31
0.0
  0
LINE
  5
   142
  8
0
  6
CONTINUOUS
 62
     7
 10
-545.580200553015
 20
-102.434000444649
 30
0.0
 11
-548.477978026226
 21
-103.210457601068
 31
0.0
  0
LINE
  5
   143
  8
0
  6
CONTINUOUS
 62
     7
 10
-548.477978026226
 20
-103.210457601068
 30
0.0
 11
-545.580200553015
 21
-103.986914757486
 31
0.0
  0
CIRCLE
  5
   144
  8
0
  6
CONTINUOUS
 62
     7
 10
-550.727977108314
 20
-103.210457601068
 30
0.0
 40
0.5
  0
ENDBLK
  5
   145
  8
0
  6
CONTINUOUS
 62
     7
  0
BLOCK
  5
   146
  8
0
  6
CONTINUOUS
 62
     7
  2
*UDIM248
 70
    65
 10
0.0
 20
0.0
 30
0.0
  3
*UDIM248
  0
TEXT
  5
   147
  8
0
  6
CONTINUOUS
 62
     7
 10
-545.840491209325
 20
-109.386177049406
 30
0.0
 40
3.00000011722246
  1
101,5
 50
359.999999948034
 41
0.933333333333333
 72
     1
 11
-539.140490946176
 21
-107.886176996838
 31
0.0
 73
     2
  0
LINE
  5
   148
  8
0
  6
CONTINUOUS
 62
     7
 10
-516.303015583757
 20
-71.7248387811959
 30
0.0
 11
-516.303015583757
 21
-112.386177055449
 31
0.0
  0
LINE
  5
   149
  8
0
  6
CONTINUOUS
 62
     7
 10
-561.977966308594
 20
-71.1623302817163
 30
0.0
 11
-561.977966308594
 21
-112.386177055449
 31
0.0
  0
LINE
  5
   14A
  8
0
  6
CONTINUOUS
 62
     7
 10
-516.303015583757
 20
-110.386177055449
 30
0.0
 11
-561.977966308594
 21
-110.386177055449
 31
0.0
  0
LINE
  5
   14B
  8
0
  6
CONTINUOUS
 62
     7
 10
-519.200793056968
 20
-111.162634211868
 30
0.0
 11
-516.303015583757
 21
-110.386177055449
 31
0.0
  0
LINE
  5
   14C
  8
0
  6
CONTINUOUS
 62
     7
 10
-516.303015583757
 20
-110.386177055449
 30
0.0
 11
-519.200793056968
 21
-109.609719899031
 31
0.0
  0
LINE
  5
   14D
  8
0
  6
CONTINUOUS
 62
     7
 10
-559.080188835383
 20
-109.609719899031
 30
0.0
 11
-561.977966308594
 21
-110.386177055449
 31
0.0
  0
LINE
  5
   14E
  8
0
  6
CONTINUOUS
 62
     7
 10
-561.977966308594
 20
-110.386177055449
 30
0.0
 11
-559.080188835383
 21
-111.162634211868
 31
0.0
  0
ENDBLK
  5
   14F
  8
0
  6
CONTINUOUS
 62
     7
  0
BLOCK
  5
   150
  8
0
  6
CONTINUOUS
 62
     7
  2
*UDIM249
 70
    65
 10
0.0
 20
0.0
 30
0.0
  3
*UDIM249
  0
TEXT
  5
   151
  8
0
  6
CONTINUOUS
 62
     7
 10
-546.274324558502
 20
-117.14058355656
 30
0.0
 40
3.00000011722246
  1
103,5
 50
359.999999948034
 41
0.933333333333333
 72
     1
 11
-539.574324295353
 21
-115.640583503992
 31
0.0
 73
     2
  0
LINE
  5
   152
  8
0
  6
CONTINUOUS
 62
     7
 10
-515.402974408865
 20
-36.8498311906871
 30
0.0
 11
-515.402974408865
 21
-120.140583562603
 31
0.0
  0
LINE
  5
   153
  8
0
  6
CONTINUOUS
 62
     7
 10
-561.977966308594
 20
-71.1623302817163
 30
0.0
 11
-561.977966308594
 21
-120.140583562603
 31
0.0
  0
LINE
  5
   154
  8
0
  6
CONTINUOUS
 62
     7
 10
-515.402974408865
 20
-118.140583562603
 30
0.0
 11
-561.977966308594
 21
-118.140583562603
 31
0.0
  0
LINE
  5
   155
  8
0
  6
CONTINUOUS
 62
     7
 10
-518.300751882075
 20
-118.917040719022
 30
0.0
 11
-515.402974408865
 21
-118.140583562603
 31
0.0
  0
LINE
  5
   156
  8
0
  6
CONTINUOUS
 62
     7
 10
-515.402974408865
 20
-118.140583562603
 30
0.0
 11
-518.300751882075
 21
-117.364126406185
 31
0.0
  0
LINE
  5
   157
  8
0
  6
CONTINUOUS
 62
     7
 10
-559.080188835383
 20
-117.364126406185
 30
0.0
 11
-561.977966308594
 21
-118.140583562603
 31
0.0
  0
LINE
  5
   158
  8
0
  6
CONTINUOUS
 62
     7
 10
-561.977966308594
 20
-118.140583562603
 30
0.0
 11
-559.080188835383
 21
-118.917040719022
 31
0.0
  0
ENDBLK
  5
   159
  8
0
  6
CONTINUOUS
 62
     7
  0
BLOCK
  5
   15A
  8
0
  6
CONTINUOUS
 62
     7
  2
*UDIM250
 70
    65
 10
0.0
 20
0.0
 30
0.0
  3
*UDIM250
  0
TEXT
  5
   15B
  8
0
  6
CONTINUOUS
 62
     7
 10
-541.802970533333
 20
-124.624936108279
 30
0.0
 40
3.00000011722246
  1
107
 50
359.999999948034
 41
0.933333333333333
 72
     1
 11
-537.902970379591
 21
-123.124936053185
 31
0.0
 73
     2
  0
LINE
  5
   15C
  8
0
  6
CONTINUOUS
 62
     7
 10
-513.827974450588
 20
-82.976802487332
 30
0.0
 11
-513.827974450588
 21
-127.624936111796
 31
0.0
  0
LINE
  5
   15D
  8
0
  6
CONTINUOUS
 62
     7
 10
-561.977966308594
 20
-71.1623302817163
 30
0.0
 11
-561.977966308594
 21
-127.624936111796
 31
0.0
  0
LINE
  5
   15E
  8
0
  6
CONTINUOUS
 62
     7
 10
-513.827974450588
 20
-125.624936111796
 30
0.0
 11
-561.977966308594
 21
-125.624936111796
 31
0.0
  0
CIRCLE
  5
   15F
  8
0
  6
CONTINUOUS
 62
     7
 10
-513.827974450588
 20
-125.624936111796
 30
0.0
 40
0.5
  0
LINE
  5
   160
  8
0
  6
CONTINUOUS
 62
     7
 10
-559.080188835383
 20
-124.848478955378
 30
0.0
 11
-561.977966308594
 21
-125.624936111796
 31
0.0
  0
LINE
  5
   161
  8
0
  6
CONTINUOUS
 62
     7
 10
-561.977966308594
 20
-125.624936111796
 30
0.0
 11
-559.080188835383
 21
-126.401393268215
 31
0.0
  0
ENDBLK
  5
   162
  8
0
  6
CONTINUOUS
 62
     7
  0
BLOCK
  5
   163
  8
0
  6
CONTINUOUS
 62
     7
  2
*UDIM251
 70
    65
 10
0.0
 20
0.0
 30
0.0
  3
*UDIM251
  0
TEXT
  5
   164
  8
0
  6
CONTINUOUS
 62
     7
 10
-508.036374640866
 20
-124.624936110804
 30
0.0
 40
3.00000011722246
  1
2
 50
359.999999948034
 41
0.933333333333334
 72
     1
 11
-506.936374596532
 21
-123.124936053185
 31
0.0
 73
     2
  0
LINE
  5
   165
  8
0
  6
CONTINUOUS
 62
     7
 10
-512.92797447443
 20
-82.5844948054169
 30
0.0
 11
-512.92797447443
 21
-127.624936111796
 31
0.0
  0
LINE
  5
   166
  8
0
  6
CONTINUOUS
 62
     7
 10
-505.836374553551
 20
-125.624936111796
 30
0.0
 11
-513.827974450588
 21
-125.624936111796
 31
0.0
  0
LINE
  5
   167
  8
0
  6
CONTINUOUS
 62
     7
 10
-510.030197001219
 20
-124.848478955378
 30
0.0
 11
-512.92797447443
 21
-125.624936111796
 31
0.0
  0
LINE
  5
   168
  8
0
  6
CONTINUOUS
 62
     7
 10
-512.92797447443
 20
-125.624936111796
 30
0.0
 11
-510.030197001219
 21
-126.401393268215
 31
0.0
  0
CIRCLE
  5
   169
  8
0
  6
CONTINUOUS
 62
     7
 10
-513.827974450588
 20
-125.624936111796
 30
0.0
 40
0.5
  0
ENDBLK
  5
   16A
  8
0
  6
CONTINUOUS
 62
     7
  0
BLOCK
  5
   16B
  8
0
  6
CONTINUOUS
 62
     7
  2
*UDIM252
 70
    65
 10
0.0
 20
0.0
 30
0.0
  3
*UDIM252
  0
TEXT
  5
   16C
  8
0
  6
CONTINUOUS
 62
     7
 10
-535.493052113234
 20
-134.34687859486
 30
0.0
 40
3.00000011722246
  1
135
 50
359.999999948034
 41
0.933333333333333
 72
     1
 11
-531.593051959492
 21
-132.846878539766
 31
0.0
 73
     2
  0
LINE
  5
   16D
  8
0
  6
CONTINUOUS
 62
     7
 10
-501.208137610389
 20
-17.8373316943464
 30
0.0
 11
-501.208137610389
 21
-137.346878598377
 31
0.0
  0
LINE
  5
   16E
  8
0
  6
CONTINUOUS
 62
     7
 10
-561.977966308594
 20
-71.1623302817163
 30
0.0
 11
-561.977966308594
 21
-137.346878598377
 31
0.0
  0
LINE
  5
   16F
  8
0
  6
CONTINUOUS
 62
     7
 10
-501.208137610389
 20
-135.346878598377
 30
0.0
 11
-561.977966308594
 21
-135.346878598377
 31
0.0
  0
LINE
  5
   170
  8
0
  6
CONTINUOUS
 62
     7
 10
-504.1059150836
 20
-136.123335754796
 30
0.0
 11
-501.208137610389
 21
-135.346878598377
 31
0.0
  0
LINE
  5
   171
  8
0
  6
CONTINUOUS
 62
     7
 10
-501.208137610389
 20
-135.346878598377
 30
0.0
 11
-504.1059150836
 21
-134.570421441959
 31
0.0
  0
LINE
  5
   172
  8
0
  6
CONTINUOUS
 62
     7
 10
-559.080188835383
 20
-134.570421441959
 30
0.0
 11
-561.977966308594
 21
-135.346878598377
 31
0.0
  0
LINE
  5
   173
  8
0
  6
CONTINUOUS
 62
     7
 10
-561.977966308594
 20
-135.346878598377
 30
0.0
 11
-559.080188835383
 21
-136.123335754796
 31
0.0
  0
ENDBLK
  5
   174
  8
0
  6
CONTINUOUS
 62
     7
  0
BLOCK
  5
   175
  8
0
  6
CONTINUOUS
 62
     7
  2
*UDIM253
 70
    65
 10
0.0
 20
0.0
 30
0.0
  3
*UDIM253
  0
TEXT
  5
   176
  8
0
  6
CONTINUOUS
 62
     7
 10
-578.943665275776
 20
-74.3902695256411
 30
0.0
 40
3.00000011722246
  1
M10
 50
89.9999999480344
 41
0.933333333333333
 72
     1
 11
-580.443665330855
 21
-70.4902693718933
 31
0.0
 73
     2
  0
LINE
  5
   177
  8
0
  6
CONTINUOUS
 62
     7
 10
-553.97797704871
 20
-64.3573825714687
 30
0.0
 11
-579.943665272244
 21
-64.3573825714687
 31
0.0
  0
LINE
  5
   178
  8
0
  6
CONTINUOUS
 62
     7
 10
-553.97797704871
 20
-59.7673826930622
 30
0.0
 11
-579.943665272244
 21
-59.7673826930622
 31
0.0
  0
LINE
  5
   179
  8
0
  6
CONTINUOUS
 62
     7
 10
-577.943665272244
 20
-74.3902695242825
 30
0.0
 11
-577.943665272244
 21
-59.7673826930622
 31
0.0
  0
LINE
  5
   17A
  8
0
  6
CONTINUOUS
 62
     7
 10
-577.422720842292
 20
-67.3118058486757
 30
0.0
 11
-577.943665272244
 21
-64.3573825714687
 31
0.0
  0
LINE
  5
   17B
  8
0
  6
CONTINUOUS
 62
     7
 10
-577.943665272244
 20
-64.3573825714687
 30
0.0
 11
-578.464609702196
 21
-67.3118058486757
 31
0.0
  0
LINE
  5
   17C
  8
0
  6
CONTINUOUS
 62
     7
 10
-578.464609702196
 20
-56.8129594158552
 30
0.0
 11
-577.943665272244
 21
-59.7673826930622
 31
0.0
  0
LINE
  5
   17D
  8
0
  6
CONTINUOUS
 62
     7
 10
-577.943665272244
 20
-59.7673826930622
 30
0.0
 11
-577.422720842292
 21
-56.8129594158552
 31
0.0
  0
ENDBLK
  5
   17E
  8
0
  6
CONTINUOUS
 62
     7
  0
BLOCK
  5
   17F
  8
0
  6
CONTINUOUS
 62
     7
  2
*UDIM254
 70
    65
 10
0.0
 20
0.0
 30
0.0
  3
*UDIM254
  0
TEXT
  5
   180
  8
0
  6
CONTINUOUS
 62
     7
 10
-508.91012030054
 20
-61.9563598471034
 30
0.0
 40
3.00000011722246
  1
12
 50
89.9999999480344
 41
0.933333333333333
 72
     1
 11
-510.410120356887
 21
-59.4563597480594
 31
0.0
 73
     2
  0
LINE
  5
   181
  8
0
  6
CONTINUOUS
 62
     7
 10
-542.661203857691
 20
-62.0623826322655
 30
0.0
 11
-505.910120298276
 21
-62.0623826322655
 31
0.0
  0
LINE
  5
   182
  8
0
  6
CONTINUOUS
 62
     7
 10
-542.346722255038
 20
-56.6623827753166
 30
0.0
 11
-505.910120298276
 21
-56.6623827753166
 31
0.0
  0
LINE
  5
   183
  8
0
  6
CONTINUOUS
 62
     7
 10
-507.910120298276
 20
-62.0623826322655
 30
0.0
 11
-507.910120298276
 21
-56.6623827753166
 31
0.0
  0
LINE
  5
   184
  8
0
  6
CONTINUOUS
 62
     7
 10
-507.389175868324
 20
-65.0168059094724
 30
0.0
 11
-507.910120298276
 21
-62.0623826322655
 31
0.0
  0
LINE
  5
   185
  8
0
  6
CONTINUOUS
 62
     7
 10
-507.910120298276
 20
-62.0623826322655
 30
0.0
 11
-508.431064728227
 21
-65.0168059094724
 31
0.0
  0
LINE
  5
   186
  8
0
  6
CONTINUOUS
 62
     7
 10
-508.431064728227
 20
-53.7079594981097
 30
0.0
 11
-507.910120298276
 21
-56.6623827753166
 31
0.0
  0
LINE
  5
   187
  8
0
  6
CONTINUOUS
 62
     7
 10
-507.910120298276
 20
-56.6623827753166
 30
0.0
 11
-507.389175868324
 21
-53.7079594981097
 31
0.0
  0
ENDBLK
  5
   188
  8
0
  6
CONTINUOUS
 62
     7
  0
BLOCK
  5
   189
  8
0
  6
CONTINUOUS
 62
     7
  2
*UDIM255
 70
    65
 10
0.0
 20
0.0
 30
0.0
  3
*UDIM255
  0
TEXT
  5
   18A
  8
0
  6
CONTINUOUS
 62
     7
 10
-586.031331598285
 20
-70.5873827624363
 30
0.0
 40
3.00000011722246
  1
15
 50
89.9999999480344
 41
0.933333333333333
 72
     1
 11
-587.531331654632
 21
-68.0873826633923
 31
0.0
 73
     2
  0
LINE
  5
   18B
  8
0
  6
CONTINUOUS
 62
     7
 10
-557.321181338011
 20
-62.0623826322655
 30
0.0
 11
-587.031331596021
 21
-62.0623826322655
 31
0.0
  0
LINE
  5
   18C
  8
0
  6
CONTINUOUS
 62
     7
 10
-562.077966761589
 20
-55.3123828110794
 30
0.0
 11
-587.031331596021
 21
-55.3123828110794
 31
0.0
  0
LINE
  5
   18D
  8
0
  6
CONTINUOUS
 62
     7
 10
-585.03133159602
 20
-70.5873827610777
 30
0.0
 11
-585.03133159602
 21
-55.3123828110794
 31
0.0
  0
LINE
  5
   18E
  8
0
  6
CONTINUOUS
 62
     7
 10
-584.510387166069
 20
-65.0168059094724
 30
0.0
 11
-585.03133159602
 21
-62.0623826322655
 31
0.0
  0
LINE
  5
   18F
  8
0
  6
CONTINUOUS
 62
     7
 10
-585.03133159602
 20
-62.0623826322655
 30
0.0
 11
-585.552276025972
 21
-65.0168059094724
 31
0.0
  0
LINE
  5
   190
  8
0
  6
CONTINUOUS
 62
     7
 10
-585.552276025972
 20
-52.3579595338724
 30
0.0
 11
-585.03133159602
 21
-55.3123828110794
 31
0.0
  0
LINE
  5
   191
  8
0
  6
CONTINUOUS
 62
     7
 10
-585.03133159602
 20
-55.3123828110794
 30
0.0
 11
-584.510387166069
 21
-52.3579595338724
 31
0.0
  0
ENDBLK
  5
   192
  8
0
  6
CONTINUOUS
 62
     7
  0
BLOCK
  5
   193
  8
0
  6
CONTINUOUS
 62
     7
  2
*UDIM256
 70
    65
 10
0.0
 20
0.0
 30
0.0
  3
*UDIM256
  0
TEXT
  5
   194
  8
0
  6
CONTINUOUS
 62
     7
 10
-489.45157589414
 20
31.2818150605114
 30
0.0
 40
3.00000011722246
  1
12
 50
89.9999999480344
 41
0.933333333333333
 72
     1
 11
-490.951575950487
 21
33.7818151595553
 31
0.0
 73
     2
  0
LINE
  5
   195
  8
0
  6
CONTINUOUS
 62
     7
 10
-543.424267450019
 20
30.6376609564624
 30
0.0
 11
-486.451575891876
 21
30.6376609564624
 31
0.0
  0
LINE
  5
   196
  8
0
  6
CONTINUOUS
 62
     7
 10
-542.661203857691
 20
36.0376608134112
 30
0.0
 11
-486.451575891876
 21
36.0376608134112
 31
0.0
  0
LINE
  5
   197
  8
0
  6
CONTINUOUS
 62
     7
 10
-488.451575891876
 20
30.6376609564624
 30
0.0
 11
-488.451575891876
 21
36.2818152572407
 31
0.0
  0
LINE
  5
   198
  8
0
  6
CONTINUOUS
 62
     7
 10
-487.930631461924
 20
27.6832376792554
 30
0.0
 11
-488.451575891876
 21
30.6376609564624
 31
0.0
  0
LINE
  5
   199
  8
0
  6
CONTINUOUS
 62
     7
 10
-488.451575891876
 20
30.6376609564624
 30
0.0
 11
-488.972520321828
 21
27.6832376792554
 31
0.0
  0
LINE
  5
   19A
  8
0
  6
CONTINUOUS
 62
     7
 10
-488.972520321828
 20
38.9920840906182
 30
0.0
 11
-488.451575891876
 21
36.0376608134112
 31
0.0
  0
LINE
  5
   19B
  8
0
  6
CONTINUOUS
 62
     7
 10
-488.451575891876
 20
36.0376608134112
 30
0.0
 11
-487.930631461924
 21
38.9920840906182
 31
0.0
  0
ENDBLK
  5
   19C
  8
0
  6
CONTINUOUS
 62
     7
  0
BLOCK
  5
   19D
  8
0
  6
CONTINUOUS
 62
     7
  2
*UDIM257
 70
    65
 10
0.0
 20
0.0
 30
0.0
  3
*UDIM257
  0
TEXT
  5
   19E
  8
0
  6
CONTINUOUS
 62
     7
 10
-594.948218074456
 20
-17.1873666855484
 30
0.0
 40
3.00000011722246
  1
218
 50
89.9999999480344
 41
0.933333333333333
 72
     1
 11
-596.448218129536
 21
-13.2873665318007
 31
0.0
 73
     2
  0
LINE
  5
   19F
  8
0
  6
CONTINUOUS
 62
     7
 10
-557.321181338011
 20
-62.0623826322655
 30
0.0
 11
-595.948218070924
 21
-62.0623826322655
 31
0.0
  0
LINE
  5
   1A0
  8
0
  6
CONTINUOUS
 62
     7
 10
-557.321181338011
 20
36.0376608134112
 30
0.0
 11
-595.948218070924
 21
36.0376608134112
 31
0.0
  0
LINE
  5
   1A1
  8
0
  6
CONTINUOUS
 62
     7
 10
-593.948218070924
 20
-62.0623826322655
 30
0.0
 11
-593.948218070924
 21
36.0376608134112
 31
0.0
  0
LINE
  5
   1A2
  8
0
  6
CONTINUOUS
 62
     7
 10
-594.469162500876
 20
-59.1079593550585
 30
0.0
 11
-593.948218070924
 21
-62.0623826322655
 31
0.0
  0
LINE
  5
   1A3
  8
0
  6
CONTINUOUS
 62
     7
 10
-593.948218070924
 20
-62.0623826322655
 30
0.0
 11
-593.427273640973
 21
-59.1079593550585
 31
0.0
  0
LINE
  5
   1A4
  8
0
  6
CONTINUOUS
 62
     7
 10
-593.427273640973
 20
33.0832375362043
 30
0.0
 11
-593.948218070924
 21
36.0376608134112
 31
0.0
  0
LINE
  5
   1A5
  8
0
  6
CONTINUOUS
 62
     7
 10
-593.948218070924
 20
36.0376608134112
 30
0.0
 11
-594.469162500876
 21
33.0832375362043
 31
0.0
  0
ENDBLK
  5
   1A6
  8
0
  6
CONTINUOUS
 62
     7
  0
BLOCK
  5
   1A7
  8
0
  6
CONTINUOUS
 62
     0
  2
$1ON-OFF
 70
    64
 10
0.0
 20
0.0
 30
0.0
  3
$1ON-OFF
  0
LINE
  5
   1A8
  8
0
  6
CONTINUOUS
 62
     0
 10
5.09999999999999
 20
-29.65
 30
0.0
 11
5.54999999999999
 21
-29.65
 31
0.0
  0
LINE
  5
   1A9
  8
0
  6
CONTINUOUS
 62
     0
 10
3.79999999999999
 20
-37.35
 30
0.0
 11
4.59999999999999
 21
-37.35
 31
0.0
  0
LINE
  5
   1AA
  8
0
  6
CONTINUOUS
 62
     0
 10
-2.6
 20
-34.75
 30
0.0
 11
-2.6
 21
-34.25
 31
0.0
  0
LINE
  5
   1AB
  8
0
  6
CONTINUOUS
 62
     0
 10
2.6
 20
-34.75
 30
0.0
 11
2.6
 21
-34.25
 31
0.0
  0
ARC
  5
   1AC
  8
0
  6
CONTINUOUS
 62
     0
 10
-3.5527136788005E-15
 20
-34.25
 30
0.0
 40
2.6
 50
0.0
 51
180.0
  0
ARC
  5
   1AD
  8
0
  6
CONTINUOUS
 62
     0
 10
-3.5527136788005E-15
 20
-34.75
 30
0.0
 40
2.6
 50
180.0
 51
360.0
  0
ARC
  5
   1AE
  8
0
  6
CONTINUOUS
 62
     0
 10
-3.5527136788005E-15
 20
-34.25
 30
0.0
 40
1.8
 50
0.0
 51
180.0
  0
ARC
  5
   1AF
  8
0
  6
CONTINUOUS
 62
     0
 10
-3.5527136788005E-15
 20
-34.75
 30
0.0
 40
1.8
 50
180.0
 51
360.0
  0
LINE
  5
   1B0
  8
0
  6
CONTINUOUS
 62
     0
 10
-1.8
 20
-34.75
 30
0.0
 11
-1.8
 21
-34.25
 31
0.0
  0
LINE
  5
   1B1
  8
0
  6
CONTINUOUS
 62
     0
 10
1.8
 20
-34.75
 30
0.0
 11
1.8
 21
-34.25
 31
0.0
  0
LINE
  5
   1B2
  8
0
  6
CONTINUOUS
 62
     0
 10
2.84999999999999
 20
-32.85
 30
0.0
 11
2.84999999999999
 21
-32.05
 31
0.0
  0
LINE
  5
   1B3
  8
0
  6
CONTINUOUS
 62
     0
 10
2.84999999999999
 20
-32.85
 30
0.0
 11
3.79999999999999
 21
-32.85
 31
0.0
  0
LINE
  5
   1B4
  8
0
  6
CONTINUOUS
 62
     0
 10
5.54999999999999
 20
-32.85
 30
0.0
 11
5.54999999999999
 21
-32.05
 31
0.0
  0
LINE
  5
   1B5
  8
0
  6
CONTINUOUS
 62
     0
 10
2.84999999999999
 20
-32.05
 30
0.0
 11
3.79999999999999
 21
-32.05
 31
0.0
  0
LINE
  5
   1B6
  8
0
  6
CONTINUOUS
 62
     0
 10
3.79999999999999
 20
-37.35
 30
0.0
 11
3.79999999999999
 21
-32.85
 31
0.0
  0
LINE
  5
   1B7
  8
0
  6
CONTINUOUS
 62
     0
 10
4.59999999999999
 20
-37.35
 30
0.0
 11
4.59999999999999
 21
-32.85
 31
0.0
  0
LINE
  5
   1B8
  8
0
  6
CONTINUOUS
 62
     0
 10
4.59999999999999
 20
-32.85
 30
0.0
 11
5.54999999999999
 21
-32.85
 31
0.0
  0
LINE
  5
   1B9
  8
0
  6
CONTINUOUS
 62
     0
 10
4.59999999999999
 20
-32.05
 30
0.0
 11
5.54999999999999
 21
-32.05
 31
0.0
  0
LINE
  5
   1BA
  8
0
  6
CONTINUOUS
 62
     0
 10
3.79999999999999
 20
-32.05
 30
0.0
 11
3.79999999999999
 21
-30.95
 31
0.0
  0
LINE
  5
   1BB
  8
0
  6
CONTINUOUS
 62
     0
 10
4.59999999999999
 20
-32.05
 30
0.0
 11
4.59999999999999
 21
-30.95
 31
0.0
  0
ARC
  5
   1BC
  8
0
  6
CONTINUOUS
 62
     0
 10
5.09999999999999
 20
-30.95
 30
0.0
 40
1.3
 50
89.9999999999999
 51
180.0
  0
ARC
  5
   1BD
  8
0
  6
CONTINUOUS
 62
     0
 10
5.09999999999999
 20
-30.95
 30
0.0
 40
0.5
 50
89.9999999999999
 51
180.0
  0
LINE
  5
   1BE
  8
0
  6
CONTINUOUS
 62
     0
 10
5.54999999999999
 20
-30.45
 30
0.0
 11
5.54999999999999
 21
-29.65
 31
0.0
  0
LINE
  5
   1BF
  8
0
  6
CONTINUOUS
 62
     0
 10
5.09999999999999
 20
-30.45
 30
0.0
 11
5.54999999999999
 21
-30.45
 31
0.0
  0
LINE
  5
   1C0
  8
0
  6
CONTINUOUS
 62
     0
 10
8.29999999999998
 20
-29.65
 30
0.0
 11
8.74999999999999
 21
-29.65
 31
0.0
  0
LINE
  5
   1C1
  8
0
  6
CONTINUOUS
 62
     0
 10
6.99999999999999
 20
-37.35
 30
0.0
 11
7.79999999999999
 21
-37.35
 31
0.0
  0
LINE
  5
   1C2
  8
0
  6
CONTINUOUS
 62
     0
 10
6.04999999999999
 20
-32.85
 30
0.0
 11
6.04999999999999
 21
-32.05
 31
0.0
  0
LINE
  5
   1C3
  8
0
  6
CONTINUOUS
 62
     0
 10
6.04999999999999
 20
-32.85
 30
0.0
 11
6.99999999999999
 21
-32.85
 31
0.0
  0
LINE
  5
   1C4
  8
0
  6
CONTINUOUS
 62
     0
 10
8.74999999999999
 20
-32.85
 30
0.0
 11
8.74999999999999
 21
-32.05
 31
0.0
  0
LINE
  5
   1C5
  8
0
  6
CONTINUOUS
 62
     0
 10
6.04999999999999
 20
-32.05
 30
0.0
 11
6.99999999999999
 21
-32.05
 31
0.0
  0
LINE
  5
   1C6
  8
0
  6
CONTINUOUS
 62
     0
 10
6.99999999999999
 20
-37.35
 30
0.0
 11
6.99999999999999
 21
-32.85
 31
0.0
  0
LINE
  5
   1C7
  8
0
  6
CONTINUOUS
 62
     0
 10
7.79999999999999
 20
-37.35
 30
0.0
 11
7.79999999999999
 21
-32.85
 31
0.0
  0
LINE
  5
   1C8
  8
0
  6
CONTINUOUS
 62
     0
 10
7.79999999999999
 20
-32.85
 30
0.0
 11
8.74999999999999
 21
-32.85
 31
0.0
  0
LINE
  5
   1C9
  8
0
  6
CONTINUOUS
 62
     0
 10
7.79999999999999
 20
-32.05
 30
0.0
 11
8.74999999999999
 21
-32.05
 31
0.0
  0
LINE
  5
   1CA
  8
0
  6
CONTINUOUS
 62
     0
 10
6.99999999999999
 20
-32.05
 30
0.0
 11
6.99999999999999
 21
-30.95
 31
0.0
  0
LINE
  5
   1CB
  8
0
  6
CONTINUOUS
 62
     0
 10
7.79999999999999
 20
-32.05
 30
0.0
 11
7.79999999999999
 21
-30.95
 31
0.0
  0
ARC
  5
   1CC
  8
0
  6
CONTINUOUS
 62
     0
 10
8.29999999999998
 20
-30.95
 30
0.0
 40
1.3
 50
89.9999999999999
 51
180.0
  0
ARC
  5
   1CD
  8
0
  6
CONTINUOUS
 62
     0
 10
8.29999999999998
 20
-30.95
 30
0.0
 40
0.5
 50
89.9999999999999
 51
180.0
  0
LINE
  5
   1CE
  8
0
  6
CONTINUOUS
 62
     0
 10
8.74999999999999
 20
-30.45
 30
0.0
 11
8.74999999999999
 21
-29.65
 31
0.0
  0
LINE
  5
   1CF
  8
0
  6
CONTINUOUS
 62
     0
 10
8.29999999999998
 20
-30.45
 30
0.0
 11
8.74999999999999
 21
-30.45
 31
0.0
  0
LINE
  5
   1D0
  8
0
  6
CONTINUOUS
 62
     0
 10
3.4
 20
-2.85000000000002
 30
0.0
 11
4.19999999999999
 21
-2.85000000000002
 31
0.0
  0
ARC
  5
   1D1
  8
0
  6
CONTINUOUS
 62
     0
 10
-3.5527136788005E-15
 20
0.249999999999979
 30
0.0
 40
2.6
 50
0.0
 51
180.0
  0
ARC
  5
   1D2
  8
0
  6
CONTINUOUS
 62
     0
 10
-3.5527136788005E-15
 20
0.249999999999979
 30
0.0
 40
1.8
 50
0.0
 51
180.0
  0
ARC
  5
   1D3
  8
0
  6
CONTINUOUS
 62
     0
 10
-3.5527136788005E-15
 20
-0.250000000000018
 30
0.0
 40
2.6
 50
180.0
 51
360.0
  0
ARC
  5
   1D4
  8
0
  6
CONTINUOUS
 62
     0
 10
-3.5527136788005E-15
 20
-0.250000000000018
 30
0.0
 40
1.8
 50
180.0
 51
360.0
  0
LINE
  5
   1D5
  8
0
  6
CONTINUOUS
 62
     0
 10
1.8
 20
-0.250000000000018
 30
0.0
 11
1.8
 21
0.249999999999979
 31
0.0
  0
LINE
  5
   1D6
  8
0
  6
CONTINUOUS
 62
     0
 10
2.6
 20
-0.250000000000018
 30
0.0
 11
2.6
 21
0.249999999999979
 31
0.0
  0
LINE
  5
   1D7
  8
0
  6
CONTINUOUS
 62
     0
 10
-1.8
 20
-0.250000000000032
 30
0.0
 11
-1.8
 21
0.249999999999964
 31
0.0
  0
LINE
  5
   1D8
  8
0
  6
CONTINUOUS
 62
     0
 10
-2.6
 20
-0.250000000000018
 30
0.0
 11
-2.6
 21
0.249999999999979
 31
0.0
  0
LINE
  5
   1D9
  8
0
  6
CONTINUOUS
 62
     0
 10
3.4
 20
-2.85000000000002
 30
0.0
 11
3.4
 21
2.84999999999998
 31
0.0
  0
LINE
  5
   1DA
  8
0
  6
CONTINUOUS
 62
     0
 10
4.19999999999999
 20
-2.85000000000002
 30
0.0
 11
4.19999999999999
 21
0.649999999999981
 31
0.0
  0
LINE
  5
   1DB
  8
0
  6
CONTINUOUS
 62
     0
 10
6.99999999999999
 20
-2.85000000000002
 30
0.0
 11
6.99999999999999
 21
0.649999999999981
 31
0.0
  0
LINE
  5
   1DC
  8
0
  6
CONTINUOUS
 62
     0
 10
7.79999999999999
 20
-2.85000000000002
 30
0.0
 11
7.79999999999999
 21
0.84999999999998
 31
0.0
  0
LINE
  5
   1DD
  8
0
  6
CONTINUOUS
 62
     0
 10
3.4
 20
2.84999999999998
 30
0.0
 11
4.19999999999999
 21
2.84999999999998
 31
0.0
  0
ARC
  5
   1DE
  8
0
  6
CONTINUOUS
 62
     0
 10
5.59999999999999
 20
0.649999999999981
 30
0.0
 40
1.4
 50
0.0
 51
180.0
  0
LINE
  5
   1DF
  8
0
  6
CONTINUOUS
 62
     0
 10
4.19999999999999
 20
2.05
 30
0.0
 11
4.19999999999999
 21
2.84999999999998
 31
0.0
  0
ARC
  5
   1E0
  8
0
  6
CONTINUOUS
 62
     0
 10
5.79999999999999
 20
0.84999999999998
 30
0.0
 40
2.0
 50
0.0
 51
143.130102354155
  0
LINE
  5
   1E1
  8
0
  6
CONTINUOUS
 62
     0
 10
6.99999999999999
 20
-2.85000000000002
 30
0.0
 11
7.79999999999999
 21
-2.85000000000002
 31
0.0
  0
ENDBLK
  5
   1E2
  8
0
  6
CONTINUOUS
 62
     0
  0
BLOCK
  5
   1E3
  8
0
  6
CONTINUOUS
 62
     7
  2
$1COPRITERMINALI
 70
    64
 10
0.0
 20
0.0
 30
0.0
  3
$1COPRITERMINALI
  0
LINE
  5
   1E4
  8
0
  6
CONTINUOUS
 62
     2
 10
70.0
 20
-25.5
 30
0.0
 11
70.0
 21
-1.25
 31
0.0
  0
LINE
  5
   1E5
  8
0
  6
CONTINUOUS
 62
     2
 10
68.7500079259097
 20
6.86639207359008E-6
 30
0.0
 11
69.6338885468344
 21
-0.366112524937034
 31
0.0
  0
LINE
  5
   1E6
  8
0
  6
CONTINUOUS
 62
     2
 10
69.633884498095
 20
-0.366107105298454
 30
0.0
 11
70.0000038894241
 21
-1.24998772622308
 31
0.0
  0
LINE
  5
   1E7
  8
0
  6
CONTINUOUS
 62
     2
 10
-50.3122698373484
 20
-26.5
 30
0.0
 11
69.0
 21
-26.5
 31
0.0
  0
LINE
  5
   1E8
  8
0
  6
CONTINUOUS
 62
     2
 10
67.6000061035156
 20
-25.5
 30
0.0
 11
67.6000061035156
 21
-0.310653686523438
 31
0.0
  0
LINE
  5
   1E9
  8
0
  6
CONTINUOUS
 62
     2
 10
64.0
 20
-25.5
 30
0.0
 11
64.0
 21
-0.310653686523438
 31
0.0
  0
LINE
  5
   1EA
  8
0
  6
CONTINUOUS
 62
     2
 10
60.3999938964844
 20
-25.5
 30
0.0
 11
60.3999938964844
 21
-0.310653686523438
 31
0.0
  0
LINE
  5
   1EB
  8
0
  6
CONTINUOUS
 62
     2
 10
56.8000030517578
 20
-25.5
 30
0.0
 11
56.8000030517578
 21
-0.310653686523438
 31
0.0
  0
LINE
  5
   1EC
  8
0
  6
CONTINUOUS
 62
     2
 10
53.1999969482422
 20
-25.5
 30
0.0
 11
53.1999969482422
 21
-0.310653686523438
 31
0.0
  0
LINE
  5
   1ED
  8
0
  6
CONTINUOUS
 62
     2
 10
49.5999984741211
 20
-25.5
 30
0.0
 11
49.5999984741211
 21
-0.310653686523438
 31
0.0
  0
LINE
  5
   1EE
  8
0
  6
CONTINUOUS
 62
     2
 10
46.0
 20
-25.5
 30
0.0
 11
46.0
 21
-0.310653686523438
 31
0.0
  0
LINE
  5
   1EF
  8
0
  6
CONTINUOUS
 62
     2
 10
42.4000015258789
 20
-25.5
 30
0.0
 11
42.4000015258789
 21
-0.310653686523438
 31
0.0
  0
LINE
  5
   1F0
  8
0
  6
CONTINUOUS
 62
     2
 10
38.8000030517578
 20
-25.5
 30
0.0
 11
38.8000030517578
 21
-0.310653686523438
 31
0.0
  0
LINE
  5
   1F1
  8
0
  6
CONTINUOUS
 62
     2
 10
35.1999969482422
 20
-25.5
 30
0.0
 11
35.1999969482422
 21
-0.310653686523438
 31
0.0
  0
LINE
  5
   1F2
  8
0
  6
CONTINUOUS
 62
     2
 10
31.5999984741211
 20
-25.5
 30
0.0
 11
31.5999984741211
 21
-0.310653686523438
 31
0.0
  0
LINE
  5
   1F3
  8
0
  6
CONTINUOUS
 62
     2
 10
28.0
 20
-25.5
 30
0.0
 11
28.0
 21
-0.310653686523438
 31
0.0
  0
LINE
  5
   1F4
  8
0
  6
CONTINUOUS
 62
     2
 10
24.4000015258789
 20
-25.5
 30
0.0
 11
24.4000015258789
 21
-0.310653686523438
 31
0.0
  0
LINE
  5
   1F5
  8
0
  6
CONTINUOUS
 62
     2
 10
20.8000030517578
 20
-25.5
 30
0.0
 11
20.8000030517578
 21
-0.310653686523438
 31
0.0
  0
LINE
  5
   1F6
  8
0
  6
CONTINUOUS
 62
     2
 10
17.1999969482422
 20
-25.5
 30
0.0
 11
17.1999969482422
 21
-0.310653686523438
 31
0.0
  0
LINE
  5
   1F7
  8
0
  6
CONTINUOUS
 62
     2
 10
13.5999984741211
 20
-25.5
 30
0.0
 11
13.5999984741211
 21
-0.310653686523438
 31
0.0
  0
LINE
  5
   1F8
  8
0
  6
CONTINUOUS
 62
     2
 10
10.0
 20
-25.5
 30
0.0
 11
10.0
 21
-0.310653686523438
 31
0.0
  0
LINE
  5
   1F9
  8
0
  6
CONTINUOUS
 62
     2
 10
6.40000152587891
 20
-25.5
 30
0.0
 11
6.40000152587891
 21
-0.310653686523438
 31
0.0
  0
LINE
  5
   1FA
  8
0
  6
CONTINUOUS
 62
     2
 10
2.80000305175781
 20
-25.5
 30
0.0
 11
2.80000305175781
 21
-0.310653686523438
 31
0.0
  0
LINE
  5
   1FB
  8
0
  6
CONTINUOUS
 62
     2
 10
-0.800003051757813
 20
-25.5
 30
0.0
 11
-0.800003051757813
 21
-0.310653686523438
 31
0.0
  0
LINE
  5
   1FC
  8
0
  6
CONTINUOUS
 62
     2
 10
-4.40000152587891
 20
-25.5
 30
0.0
 11
-4.40000152587891
 21
-0.310653686523438
 31
0.0
  0
LINE
  5
   1FD
  8
0
  6
CONTINUOUS
 62
     2
 10
-8.0
 20
-25.5
 30
0.0
 11
-8.0
 21
-0.310653686523438
 31
0.0
  0
LINE
  5
   1FE
  8
0
  6
CONTINUOUS
 62
     2
 10
-11.5999984741211
 20
-25.5
 30
0.0
 11
-11.5999984741211
 21
-0.310653686523438
 31
0.0
  0
LINE
  5
   1FF
  8
0
  6
CONTINUOUS
 62
     2
 10
-15.2000007629395
 20
-25.5
 30
0.0
 11
-15.2000007629395
 21
-0.310653686523438
 31
0.0
  0
LINE
  5
   200
  8
0
  6
CONTINUOUS
 62
     2
 10
-18.7999992370605
 20
-25.5
 30
0.0
 11
-18.7999992370605
 21
-0.310653686523438
 31
0.0
  0
LINE
  5
   201
  8
0
  6
CONTINUOUS
 62
     2
 10
-22.4000015258789
 20
-25.5
 30
0.0
 11
-22.4000015258789
 21
-0.310653686523438
 31
0.0
  0
LINE
  5
   202
  8
0
  6
CONTINUOUS
 62
     2
 10
-26.0
 20
-25.5
 30
0.0
 11
-26.0
 21
-0.310653686523438
 31
0.0
  0
LINE
  5
   203
  8
0
  6
CONTINUOUS
 62
     2
 10
-29.5999984741211
 20
-25.5
 30
0.0
 11
-29.5999984741211
 21
-0.310653686523438
 31
0.0
  0
LINE
  5
   204
  8
0
  6
CONTINUOUS
 62
     2
 10
-33.2000007629395
 20
-25.5
 30
0.0
 11
-33.2000007629395
 21
-0.310653686523438
 31
0.0
  0
LINE
  5
   205
  8
0
  6
CONTINUOUS
 62
     2
 10
-36.7999992370605
 20
-25.5
 30
0.0
 11
-36.7999992370605
 21
-1.57802866758733
 31
0.0
  0
LINE
  5
   206
  8
0
  6
CONTINUOUS
 62
     2
 10
-40.3999996185303
 20
-25.5
 30
0.0
 11
-40.3999996185303
 21
-9.73654360470745
 31
0.0
  0
LINE
  5
   207
  8
0
  6
CONTINUOUS
 62
     2
 10
-44.0
 20
-25.5
 30
0.0
 11
-44.0
 21
-13.1224262368184
 31
0.0
  0
LINE
  5
   208
  8
0
  6
CONTINUOUS
 62
     2
 10
-47.6000003814697
 20
-25.5
 30
0.0
 11
-47.6000003814697
 21
-19.6719599536075
 31
0.0
  0
LINE
  5
   209
  8
0
  6
CONTINUOUS
 62
     2
 10
69.0
 20
-25.5
 30
0.0
 11
70.0
 21
-25.5
 31
0.0
  0
LINE
  5
   20A
  8
0
  6
CONTINUOUS
 62
     2
 10
69.0
 20
-26.5
 30
0.0
 11
69.0
 21
-25.5
 31
0.0
  0
LINE
  5
   20B
  8
0
  6
CONTINUOUS
 62
     2
 10
-50.0113882406146
 20
-25.5
 30
0.0
 11
69.0
 21
-25.5
 31
0.0
  0
POLYLINE
  5
   20C
  8
0
  6
CONTINUOUS
 62
     7
 66
     1
 10
0.0
 20
0.0
 30
0.0
  0
VERTEX
  5
   20D
  8
0
  6
CONTINUOUS
 10
-32.7985341005249
 20
1.46534476677357
 30
0.0
 40
0.0
 41
0.0
  0
VERTEX
  5
   20E
  8
0
  6
CONTINUOUS
 10
-32.987325734826
 20
1.38611824466164
 30
0.0
 40
0.0
 41
0.0
  0
VERTEX
  5
   20F
  8
0
  6
CONTINUOUS
 10
-33.1761383659282
 20
1.30452772384226
 30
0.0
 40
0.0
 41
0.0
  0
VERTEX
  5
   210
  8
0
  6
CONTINUOUS
 10
-33.3649571819992
 20
1.2205639026575
 30
0.0
 40
0.0
 41
0.0
  0
VERTEX
  5
   211
  8
0
  6
CONTINUOUS
 10
-33.5537436722753
 20
1.13420259679675
 30
0.0
 40
0.0
 41
0.0
  0
VERTEX
  5
   212
  8
0
  6
CONTINUOUS
 10
-33.7424237775954
 20
1.04539729797038
 30
0.0
 40
0.0
 41
0.0
  0
VERTEX
  5
   213
  8
0
  6
CONTINUOUS
 10
-33.9308760409356
 20
0.954071732583381
 30
0.0
 40
0.0
 41
0.0
  0
VERTEX
  5
   214
  8
0
  6
CONTINUOUS
 10
-34.1189197579429
 20
0.860112420409048
 30
0.0
 40
0.0
 41
0.0
  0
VERTEX
  5
   215
  8
0
  6
CONTINUOUS
 10
-34.3063031274698
 20
0.763361233262619
 30
0.0
 40
0.0
 41
0.0
  0
VERTEX
  5
   216
  8
0
  6
CONTINUOUS
 10
-34.4926914021084
 20
0.663607953674938
 30
0.0
 40
0.0
 41
0.0
  0
VERTEX
  5
   217
  8
0
  6
CONTINUOUS
 10
-34.677655038725
 20
0.560582833566116
 30
0.0
 40
0.0
 41
0.0
  0
VERTEX
  5
   218
  8
0
  6
CONTINUOUS
 10
-34.8784103981661
 20
0.443322466790008
 30
0.0
 40
0.0
 41
0.0
  0
VERTEX
  5
   219
  8
0
  6
CONTINUOUS
 10
-35.0759426418482
 20
0.321176016961332
 30
0.0
 40
0.0
 41
0.0
  0
VERTEX
  5
   21A
  8
0
  6
CONTINUOUS
 10
-35.2692686635283
 20
0.193538151426688
 30
0.0
 40
0.0
 41
0.0
  0
VERTEX
  5
   21B
  8
0
  6
CONTINUOUS
 10
-35.3640244418552
 20
0.127461536313317
 30
0.0
 40
0.0
 41
0.0
  0
VERTEX
  5
   21C
  8
0
  6
CONTINUOUS
 10
-35.4573271080756
 20
5.97736727108731E-2
 30
0.0
 40
0.0
 41
0.0
  0
VERTEX
  5
   21D
  8
0
  6
CONTINUOUS
 10
-35.5490394606962
 20
-9.60309240398241E-3
 30
0.0
 40
0.0
 41
0.0
  0
VERTEX
  5
   21E
  8
0
  6
CONTINUOUS
 10
-35.6390252699828
 20
-8.07433924806405E-2
 30
0.0
 40
0.0
 41
0.0
  0
VERTEX
  5
   21F
  8
0
  6
CONTINUOUS
 10
-35.7271507435377
 20
-0.153717619863218
 30
0.0
 40
0.0
 41
0.0
  0
VERTEX
  5
   220
  8
0
  6
CONTINUOUS
 10
-35.8132859918789
 20
-0.228590704259229
 30
0.0
 40
0.0
 41
0.0
  0
VERTEX
  5
   221
  8
0
  6
CONTINUOUS
 10
-35.8973064940184
 20
-0.305420891208261
 30
0.0
 40
0.0
 41
0.0
  0
VERTEX
  5
   222
  8
0
  6
CONTINUOUS
 10
-35.9790945630406
 20
-0.384258520550641
 30
0.0
 40
0.0
 41
0.0
  0
VERTEX
  5
   223
  8
0
  6
CONTINUOUS
 10
-36.0585408116809
 20
-0.465144804896116
 30
0.0
 40
0.0
 41
0.0
  0
VERTEX
  5
   224
  8
0
  6
CONTINUOUS
 10
-36.1355456179043
 20
-0.548110608092519
 30
0.0
 40
0.0
 41
0.0
  0
VERTEX
  5
   225
  8
0
  6
CONTINUOUS
 10
-36.2100205904837
 20
-0.633175223694445
 30
0.0
 40
0.0
 41
0.0
  0
VERTEX
  5
   226
  8
0
  6
CONTINUOUS
 10
-36.2818900345783
 20
-0.720345153431922
 30
0.0
 40
0.0
 41
0.0
  0
VERTEX
  5
   227
  8
0
  6
CONTINUOUS
 10
-36.3510924173127
 20
-0.809612885679086
 30
0.0
 40
0.0
 41
0.0
  0
VERTEX
  5
   228
  8
0
  6
CONTINUOUS
 10
-36.4175818333547
 20
-0.900955673922852
 30
0.0
 40
0.0
 41
0.0
  0
VERTEX
  5
   229
  8
0
  6
CONTINUOUS
 10
-36.4842089214757
 20
-0.998698060580724
 30
0.0
 40
0.0
 41
0.0
  0
VERTEX
  5
   22A
  8
0
  6
CONTINUOUS
 10
-36.5478230303524
 20
-1.09860399437586
 30
0.0
 40
0.0
 41
0.0
  0
VERTEX
  5
   22B
  8
0
  6
CONTINUOUS
 10
-36.6084326261379
 20
-1.20058996805088
 30
0.0
 40
0.0
 41
0.0
  0
VERTEX
  5
   22C
  8
0
  6
CONTINUOUS
 10
-36.6660650525139
 20
-1.30455597838066
 30
0.0
 40
0.0
 41
0.0
  0
VERTEX
  5
   22D
  8
0
  6
CONTINUOUS
 10
-36.720764852164
 20
-1.41038786788055
 30
0.0
 40
0.0
 41
0.0
  0
VERTEX
  5
   22E
  8
0
  6
CONTINUOUS
 10
-36.772592088246
 20
-1.5179596665147
 30
0.0
 40
0.0
 41
0.0
  0
VERTEX
  5
   22F
  8
0
  6
CONTINUOUS
 10
-36.8216206658649
 20
-1.62713593340431
 30
0.0
 40
0.0
 41
0.0
  0
VERTEX
  5
   230
  8
0
  6
CONTINUOUS
 10
-36.8679366535456
 20
-1.73777409853593
 30
0.0
 40
0.0
 41
0.0
  0
VERTEX
  5
   231
  8
0
  6
CONTINUOUS
 10
-36.9116366047058
 20
-1.84972680446973
 30
0.0
 40
0.0
 41
0.0
  0
VERTEX
  5
   232
  8
0
  6
CONTINUOUS
 10
-36.9528258791284
 20
-1.96284424804777
 30
0.0
 40
0.0
 41
0.0
  0
VERTEX
  5
   233
  8
0
  6
CONTINUOUS
 10
-36.9916169644346
 20
-2.07697652210229
 30
0.0
 40
0.0
 41
0.0
  0
VERTEX
  5
   234
  8
0
  6
CONTINUOUS
 10
-37.0281277975565
 20
-2.19197595716401
 30
0.0
 40
0.0
 41
0.0
  0
VERTEX
  5
   235
  8
0
  6
CONTINUOUS
 10
-37.0624800862098
 20
-2.30769946317035
 30
0.0
 40
0.0
 41
0.0
  0
VERTEX
  5
   236
  8
0
  6
CONTINUOUS
 10
-37.0947976303668
 20
-2.42401087117378
 30
0.0
 40
0.0
 41
0.0
  0
VERTEX
  5
   237
  8
0
  6
CONTINUOUS
 10
-37.1538240751995
 20
-2.65790137320645
 30
0.0
 40
0.0
 41
0.0
  0
VERTEX
  5
   238
  8
0
  6
CONTINUOUS
 10
-37.2061755929259
 20
-2.89278551889659
 30
0.0
 40
0.0
 41
0.0
  0
VERTEX
  5
   239
  8
0
  6
CONTINUOUS
 10
-37.2527466947769
 20
-3.12806197104888
 30
0.0
 40
0.0
 41
0.0
  0
VERTEX
  5
   23A
  8
0
  6
CONTINUOUS
 10
-37.3055099122189
 20
-3.43174144190569
 30
0.0
 40
0.0
 41
0.0
  0
VERTEX
  5
   23B
  8
0
  6
CONTINUOUS
 10
-37.3512539865609
 20
-3.73592540029735
 30
0.0
 40
0.0
 41
0.0
  0
VERTEX
  5
   23C
  8
0
  6
CONTINUOUS
 10
-37.3912594330599
 20
-4.04143909690471
 30
0.0
 40
0.0
 41
0.0
  0
VERTEX
  5
   23D
  8
0
  6
CONTINUOUS
 10
-37.484081826403
 20
-4.85625124244804
 30
0.0
 40
0.0
 41
0.0
  0
VERTEX
  5
   23E
  8
0
  6
CONTINUOUS
 10
-37.5087165182104
 20
-5.05343858415647
 30
0.0
 40
0.0
 41
0.0
  0
VERTEX
  5
   23F
  8
0
  6
CONTINUOUS
 10
-37.5368776838213
 20
-5.25003759879164
 30
0.0
 40
0.0
 41
0.0
  0
VERTEX
  5
   240
  8
0
  6
CONTINUOUS
 10
-37.5700900337405
 20
-5.44519211565509
 30
0.0
 40
0.0
 41
0.0
  0
VERTEX
  5
   241
  8
0
  6
CONTINUOUS
 10
-37.6098747473722
 20
-5.63798076894811
 30
0.0
 40
0.0
 41
0.0
  0
VERTEX
  5
   242
  8
0
  6
CONTINUOUS
 10
-37.6326833692714
 20
-5.73319912336667
 30
0.0
 40
0.0
 41
0.0
  0
VERTEX
  5
   243
  8
0
  6
CONTINUOUS
 10
-37.6576569296812
 20
-5.82748599671333
 30
0.0
 40
0.0
 41
0.0
  0
VERTEX
  5
   244
  8
0
  6
CONTINUOUS
 10
-37.6849433721994
 20
-5.92073860823248
 30
0.0
 40
0.0
 41
0.0
  0
VERTEX
  5
   245
  8
0
  6
CONTINUOUS
 10
-37.714673067854
 20
-6.01286303977628
 30
0.0
 40
0.0
 41
0.0
  0
VERTEX
  5
   246
  8
0
  6
CONTINUOUS
 10
-37.7469559231241
 20
-6.10377639202161
 30
0.0
 40
0.0
 41
0.0
  0
VERTEX
  5
   247
  8
0
  6
CONTINUOUS
 10
-37.78187848796
 20
-6.19340894068695
 30
0.0
 40
0.0
 41
0.0
  0
VERTEX
  5
   248
  8
0
  6
CONTINUOUS
 10
-37.8195010638042
 20
-6.28170629274936
 30
0.0
 40
0.0
 41
0.0
  0
VERTEX
  5
   249
  8
0
  6
CONTINUOUS
 10
-37.8598548116121
 20
-6.36863154266136
 30
0.0
 40
0.0
 41
0.0
  0
VERTEX
  5
   24A
  8
0
  6
CONTINUOUS
 10
-37.9029388598727
 20
-6.45416742856786
 30
0.0
 40
0.0
 41
0.0
  0
VERTEX
  5
   24B
  8
0
  6
CONTINUOUS
 10
-37.9487174126288
 20
-6.53831848852312
 30
0.0
 40
0.0
 41
0.0
  0
VERTEX
  5
   24C
  8
0
  6
CONTINUOUS
 10
-38.0286864729316
 20
-6.67225301423163
 30
0.0
 40
0.0
 41
0.0
  0
VERTEX
  5
   24D
  8
0
  6
CONTINUOUS
 10
-38.1150390798986
 20
-6.8028706245178
 30
0.0
 40
0.0
 41
0.0
  0
VERTEX
  5
   24E
  8
0
  6
CONTINUOUS
 10
-38.2070185807485
 20
-6.93057610050436
 30
0.0
 40
0.0
 41
0.0
  0
VERTEX
  5
   24F
  8
0
  6
CONTINUOUS
 10
-38.3036968261118
 20
-7.05588455839049
 30
0.0
 40
0.0
 41
0.0
  0
VERTEX
  5
   250
  8
0
  6
CONTINUOUS
 10
-38.4040306042343
 20
-7.17938541424661
 30
0.0
 40
0.0
 41
0.0
  0
VERTEX
  5
   251
  8
0
  6
CONTINUOUS
 10
-38.5069180751816
 20
-7.30170634880901
 30
0.0
 40
0.0
 41
0.0
  0
VERTEX
  5
   252
  8
0
  6
CONTINUOUS
 10
-38.7159922001321
 20
-7.54529428909543
 30
0.0
 40
0.0
 41
0.0
  0
VERTEX
  5
   253
  8
0
  6
CONTINUOUS
 10
-38.9230764176215
 20
-7.79106578065651
 30
0.0
 40
0.0
 41
0.0
  0
VERTEX
  5
   254
  8
0
  6
CONTINUOUS
 10
-39.0492905438886
 20
-7.94743016342612
 30
0.0
 40
0.0
 41
0.0
  0
VERTEX
  5
   255
  8
0
  6
CONTINUOUS
 10
-39.1720926895887
 20
-8.10596637232394
 30
0.0
 40
0.0
 41
0.0
  0
VERTEX
  5
   256
  8
0
  6
CONTINUOUS
 10
-39.2915423579209
 20
-8.26650382153249
 30
0.0
 40
0.0
 41
0.0
  0
VERTEX
  5
   257
  8
0
  6
CONTINUOUS
 10
-39.4081581658554
 20
-8.42858806907501
 30
0.0
 40
0.0
 41
0.0
  0
VERTEX
  5
   258
  8
0
  6
CONTINUOUS
 10
-39.7506581208203
 20
-8.91693906781153
 30
0.0
 40
0.0
 41
0.0
  0
VERTEX
  5
   259
  8
0
  6
CONTINUOUS
 10
-39.8662782944218
 20
-9.07768851283964
 30
0.0
 40
0.0
 41
0.0
  0
VERTEX
  5
   25A
  8
0
  6
CONTINUOUS
 10
-39.9845157611785
 20
-9.2361542510314
 30
0.0
 40
0.0
 41
0.0
  0
VERTEX
  5
   25B
  8
0
  6
CONTINUOUS
 10
-40.1062266379697
 20
-9.39179843171584
 30
0.0
 40
0.0
 41
0.0
  0
VERTEX
  5
   25C
  8
0
  6
CONTINUOUS
 10
-40.2148341924907
 20
-9.52407326647005
 30
0.0
 40
0.0
 41
0.0
  0
VERTEX
  5
   25D
  8
0
  6
CONTINUOUS
 10
-40.3265164185618
 20
-9.65401373135785
 30
0.0
 40
0.0
 41
0.0
  0
VERTEX
  5
   25E
  8
0
  6
CONTINUOUS
 10
-40.4411382640661
 20
-9.78177164218492
 30
0.0
 40
0.0
 41
0.0
  0
VERTEX
  5
   25F
  8
0
  6
CONTINUOUS
 10
-40.5583926747722
 20
-9.90761915475169
 30
0.0
 40
0.0
 41
0.0
  0
VERTEX
  5
   260
  8
0
  6
CONTINUOUS
 10
-40.7989738488973
 20
-10.1550722676369
 30
0.0
 40
0.0
 41
0.0
  0
VERTEX
  5
   261
  8
0
  6
CONTINUOUS
 10
-41.2893768583179
 20
-10.6445457238492
 30
0.0
 40
0.0
 41
0.0
  0
VERTEX
  5
   262
  8
0
  6
CONTINUOUS
 10
-41.5940241015684
 20
-10.955109459031
 30
0.0
 40
0.0
 41
0.0
  0
VERTEX
  5
   263
  8
0
  6
CONTINUOUS
 10
-42.1954700483199
 20
-11.5793773921751
 30
0.0
 40
0.0
 41
0.0
  0
VERTEX
  5
   264
  8
0
  6
CONTINUOUS
 10
-42.347775221839
 20
-11.7326209485733
 30
0.0
 40
0.0
 41
0.0
  0
VERTEX
  5
   265
  8
0
  6
CONTINUOUS
 10
-42.502350507148
 20
-11.8833923677083
 30
0.0
 40
0.0
 41
0.0
  0
VERTEX
  5
   266
  8
0
  6
CONTINUOUS
 10
-42.6597994445063
 20
-12.0311806438999
 30
0.0
 40
0.0
 41
0.0
  0
VERTEX
  5
   267
  8
0
  6
CONTINUOUS
 10
-42.820512437592
 20
-12.1756813031234
 30
0.0
 40
0.0
 41
0.0
  0
VERTEX
  5
   268
  8
0
  6
CONTINUOUS
 10
-43.0155331612107
 20
-12.3428420590265
 30
0.0
 40
0.0
 41
0.0
  0
VERTEX
  5
   269
  8
0
  6
CONTINUOUS
 10
-43.2148025653934
 20
-12.5058862845384
 30
0.0
 40
0.0
 41
0.0
  0
VERTEX
  5
   26A
  8
0
  6
CONTINUOUS
 10
-43.4172492048293
 20
-12.6659017911538
 30
0.0
 40
0.0
 41
0.0
  0
VERTEX
  5
   26B
  8
0
  6
CONTINUOUS
 10
-43.8251700648084
 20
-12.9831565215351
 30
0.0
 40
0.0
 41
0.0
  0
VERTEX
  5
   26C
  8
0
  6
CONTINUOUS
 10
-44.0266982514479
 20
-13.144118085893
 30
0.0
 40
0.0
 41
0.0
  0
VERTEX
  5
   26D
  8
0
  6
CONTINUOUS
 10
-44.223788405618
 20
-13.3092210056989
 30
0.0
 40
0.0
 41
0.0
  0
VERTEX
  5
   26E
  8
0
  6
CONTINUOUS
 10
-44.3200234143467
 20
-13.3939001539125
 30
0.0
 40
0.0
 41
0.0
  0
VERTEX
  5
   26F
  8
0
  6
CONTINUOUS
 10
-44.4143963389803
 20
-13.4802759895322
 30
0.0
 40
0.0
 41
0.0
  0
VERTEX
  5
   270
  8
0
  6
CONTINUOUS
 10
-44.5066872140269
 20
-13.5685320080033
 30
0.0
 40
0.0
 41
0.0
  0
VERTEX
  5
   271
  8
0
  6
CONTINUOUS
 10
-44.5966985147177
 20
-13.65882641513
 30
0.0
 40
0.0
 41
0.0
  0
VERTEX
  5
   272
  8
0
  6
CONTINUOUS
 10
-44.6842594820077
 20
-13.751287836343
 30
0.0
 40
0.0
 41
0.0
  0
VERTEX
  5
   273
  8
0
  6
CONTINUOUS
 10
-44.7692304475773
 20
-13.8460110259679
 30
0.0
 40
0.0
 41
0.0
  0
VERTEX
  5
   274
  8
0
  6
CONTINUOUS
 10
-44.8316754293085
 20
-13.919148479824
 30
0.0
 40
0.0
 41
0.0
  0
VERTEX
  5
   275
  8
0
  6
CONTINUOUS
 10
-44.8925495771136
 20
-13.9936205060287
 30
0.0
 40
0.0
 41
0.0
  0
VERTEX
  5
   276
  8
0
  6
CONTINUOUS
 10
-44.9518345462706
 20
-14.0694233174704
 30
0.0
 40
0.0
 41
0.0
  0
VERTEX
  5
   277
  8
0
  6
CONTINUOUS
 10
-45.0095235348834
 20
-14.1465412902514
 30
0.0
 40
0.0
 41
0.0
  0
VERTEX
  5
   278
  8
0
  6
CONTINUOUS
 10
-45.0656205683129
 20
-14.2249479749392
 30
0.0
 40
0.0
 41
0.0
  0
VERTEX
  5
   279
  8
0
  6
CONTINUOUS
 10
-45.1201397836063
 20
-14.3046071078174
 30
0.0
 40
0.0
 41
0.0
  0
VERTEX
  5
   27A
  8
0
  6
CONTINUOUS
 10
-45.22454757299
 20
-14.467494659365
 30
0.0
 40
0.0
 41
0.0
  0
VERTEX
  5
   27B
  8
0
  6
CONTINUOUS
 10
-45.3230350414971
 20
-14.6347559770176
 30
0.0
 40
0.0
 41
0.0
  0
VERTEX
  5
   27C
  8
0
  6
CONTINUOUS
 10
-45.4160063181122
 20
-14.8058507844132
 30
0.0
 40
0.0
 41
0.0
  0
VERTEX
  5
   27D
  8
0
  6
CONTINUOUS
 10
-45.5039586241091
 20
-14.9801788567333
 30
0.0
 40
0.0
 41
0.0
  0
VERTEX
  5
   27E
  8
0
  6
CONTINUOUS
 10
-45.5874593748174
 20
-15.1571123807314
 30
0.0
 40
0.0
 41
0.0
  0
VERTEX
  5
   27F
  8
0
  6
CONTINUOUS
 10
-45.66712328139
 20
-15.3360283147627
 30
0.0
 40
0.0
 41
0.0
  0
VERTEX
  5
   280
  8
0
  6
CONTINUOUS
 10
-45.7435894525699
 20
-15.5163407488124
 30
0.0
 40
0.0
 41
0.0
  0
VERTEX
  5
   281
  8
0
  6
CONTINUOUS
 10
-45.8289676167773
 20
-15.7261721688122
 30
0.0
 40
0.0
 41
0.0
  0
VERTEX
  5
   282
  8
0
  6
CONTINUOUS
 10
-45.9118811358644
 20
-15.9365383326597
 30
0.0
 40
0.0
 41
0.0
  0
VERTEX
  5
   283
  8
0
  6
CONTINUOUS
 10
-46.2360650001272
 20
-16.7755771288026
 30
0.0
 40
0.0
 41
0.0
  0
VERTEX
  5
   284
  8
0
  6
CONTINUOUS
 10
-46.4033373787501
 20
-17.1912807391923
 30
0.0
 40
0.0
 41
0.0
  0
VERTEX
  5
   285
  8
0
  6
CONTINUOUS
 10
-46.4899241565071
 20
-17.3980883677176
 30
0.0
 40
0.0
 41
0.0
  0
VERTEX
  5
   286
  8
0
  6
CONTINUOUS
 10
-46.5787543139922
 20
-17.6042529023681
 30
0.0
 40
0.0
 41
0.0
  0
VERTEX
  5
   287
  8
0
  6
CONTINUOUS
 10
-46.7234874846221
 20
-17.9283926707999
 30
0.0
 40
0.0
 41
0.0
  0
VERTEX
  5
   288
  8
0
  6
CONTINUOUS
 10
-46.8731405849947
 20
-18.2509757795179
 30
0.0
 40
0.0
 41
0.0
  0
VERTEX
  5
   289
  8
0
  6
CONTINUOUS
 10
-47.026722933389
 20
-18.5717231529382
 30
0.0
 40
0.0
 41
0.0
  0
VERTEX
  5
   28A
  8
0
  6
CONTINUOUS
 10
-47.1836205216845
 20
-18.8900453691345
 30
0.0
 40
0.0
 41
0.0
  0
VERTEX
  5
   28B
  8
0
  6
CONTINUOUS
 10
-47.3443221036293
 20
-19.2049855534274
 30
0.0
 40
0.0
 41
0.0
  0
VERTEX
  5
   28C
  8
0
  6
CONTINUOUS
 10
-47.4261133418592
 20
-19.3596223585118
 30
0.0
 40
0.0
 41
0.0
  0
VERTEX
  5
   28D
  8
0
  6
CONTINUOUS
 10
-47.5098548534003
 20
-19.5128858329721
 30
0.0
 40
0.0
 41
0.0
  0
VERTEX
  5
   28E
  8
0
  6
CONTINUOUS
 10
-47.5961327741862
 20
-19.6645537675075
 30
0.0
 40
0.0
 41
0.0
  0
VERTEX
  5
   28F
  8
0
  6
CONTINUOUS
 10
-47.6855864464957
 20
-19.8144038150727
 30
0.0
 40
0.0
 41
0.0
  0
VERTEX
  5
   290
  8
0
  6
CONTINUOUS
 10
-47.7788575248224
 20
-19.9622280320566
 30
0.0
 40
0.0
 41
0.0
  0
VERTEX
  5
   291
  8
0
  6
CONTINUOUS
 10
-47.8765390817446
 20
-20.1078474194623
 30
0.0
 40
0.0
 41
0.0
  0
VERTEX
  5
   292
  8
0
  6
CONTINUOUS
 10
-47.9791247137951
 20
-20.2511264640867
 30
0.0
 40
0.0
 41
0.0
  0
VERTEX
  5
   293
  8
0
  6
CONTINUOUS
 10
-48.0869576473305
 20
-20.3919876796999
 30
0.0
 40
0.0
 41
0.0
  0
VERTEX
  5
   294
  8
0
  6
CONTINUOUS
 10
-48.2001798444015
 20
-20.5304261482248
 30
0.0
 40
0.0
 41
0.0
  0
VERTEX
  5
   295
  8
0
  6
CONTINUOUS
 10
-48.3186811086219
 20
-20.6665240609164
 30
0.0
 40
0.0
 41
0.0
  0
VERTEX
  5
   296
  8
0
  6
CONTINUOUS
 10
-48.4150782534868
 20
-20.7717635306882
 30
0.0
 40
0.0
 41
0.0
  0
VERTEX
  5
   297
  8
0
  6
CONTINUOUS
 10
-48.5141349147584
 20
-20.8758092619276
 30
0.0
 40
0.0
 41
0.0
  0
VERTEX
  5
   298
  8
0
  6
CONTINUOUS
 10
-48.7182874692573
 20
-21.0810508153296
 30
0.0
 40
0.0
 41
0.0
  0
VERTEX
  5
   299
  8
0
  6
CONTINUOUS
 10
-49.1324042007541
 20
-21.4868336513077
 30
0.0
 40
0.0
 41
0.0
  0
VERTEX
  5
   29A
  8
0
  6
CONTINUOUS
 10
-49.2326703830543
 20
-21.5889145873466
 30
0.0
 40
0.0
 41
0.0
  0
VERTEX
  5
   29B
  8
0
  6
CONTINUOUS
 10
-49.3299912665073
 20
-21.6918402664255
 30
0.0
 40
0.0
 41
0.0
  0
VERTEX
  5
   29C
  8
0
  6
CONTINUOUS
 10
-49.4235516145899
 20
-21.7959056879614
 30
0.0
 40
0.0
 41
0.0
  0
VERTEX
  5
   29D
  8
0
  6
CONTINUOUS
 10
-49.5125649943476
 20
-21.9013972484245
 30
0.0
 40
0.0
 41
0.0
  0
VERTEX
  5
   29E
  8
0
  6
CONTINUOUS
 10
-49.5962900597728
 20
-22.0085874811719
 30
0.0
 40
0.0
 41
0.0
  0
VERTEX
  5
   29F
  8
0
  6
CONTINUOUS
 10
-49.6740468351834
 20
-22.1177297962829
 30
0.0
 40
0.0
 41
0.0
  0
VERTEX
  5
   2A0
  8
0
  6
CONTINUOUS
 10
-49.7452329986007
 20
-22.2290532203928
 30
0.0
 40
0.0
 41
0.0
  0
VERTEX
  5
   2A1
  8
0
  6
CONTINUOUS
 10
-49.8093401651283
 20
-22.3427571365279
 30
0.0
 40
0.0
 41
0.0
  0
VERTEX
  5
   2A2
  8
0
  6
CONTINUOUS
 10
-49.8386099474367
 20
-22.4005546861325
 30
0.0
 40
0.0
 41
0.0
  0
VERTEX
  5
   2A3
  8
0
  6
CONTINUOUS
 10
-49.8659701703298
 20
-22.45900602394
 30
0.0
 40
0.0
 41
0.0
  0
VERTEX
  5
   2A4
  8
0
  6
CONTINUOUS
 10
-49.8913909566918
 20
-22.5181253931462
 30
0.0
 40
0.0
 41
0.0
  0
VERTEX
  5
   2A5
  8
0
  6
CONTINUOUS
 10
-49.9148513536078
 20
-22.5779241979403
 30
0.0
 40
0.0
 41
0.0
  0
VERTEX
  5
   2A6
  8
0
  6
CONTINUOUS
 10
-49.9363398412198
 20
-22.6384108391246
 30
0.0
 40
0.0
 41
0.0
  0
VERTEX
  5
   2A7
  8
0
  6
CONTINUOUS
 10
-49.9558548415817
 20
-22.6995905497346
 30
0.0
 40
0.0
 41
0.0
  0
VERTEX
  5
   2A8
  8
0
  6
CONTINUOUS
 10
-49.9734052275155
 20
-22.7614652306584
 30
0.0
 40
0.0
 41
0.0
  0
VERTEX
  5
   2A9
  8
0
  6
CONTINUOUS
 10
-49.9890108314664
 20
-22.8240332862572
 30
0.0
 40
0.0
 41
0.0
  0
VERTEX
  5
   2AA
  8
0
  6
CONTINUOUS
 10
-50.0047554413711
 20
-22.8976612019038
 30
0.0
 40
0.0
 41
0.0
  0
VERTEX
  5
   2AB
  8
0
  6
CONTINUOUS
 10
-50.0179816338646
 20
-22.9722050111457
 30
0.0
 40
0.0
 41
0.0
  0
VERTEX
  5
   2AC
  8
0
  6
CONTINUOUS
 10
-50.0287785296796
 20
-23.0476436087821
 30
0.0
 40
0.0
 41
0.0
  0
VERTEX
  5
   2AD
  8
0
  6
CONTINUOUS
 10
-50.0372536536442
 20
-23.1239498544954
 30
0.0
 40
0.0
 41
0.0
  0
VERTEX
  5
   2AE
  8
0
  6
CONTINUOUS
 10
-50.0435311829812
 20
-23.2010910536714
 30
0.0
 40
0.0
 41
0.0
  0
VERTEX
  5
   2AF
  8
0
  6
CONTINUOUS
 10
-50.0477501956075
 20
-23.2790294382178
 30
0.0
 40
0.0
 41
0.0
  0
VERTEX
  5
   2B0
  8
0
  6
CONTINUOUS
 10
-50.0506329756619
 20
-23.4371242085802
 30
0.0
 40
0.0
 41
0.0
  0
VERTEX
  5
   2B1
  8
0
  6
CONTINUOUS
 10
-50.0472460663974
 20
-23.5978488224255
 30
0.0
 40
0.0
 41
0.0
  0
VERTEX
  5
   2B2
  8
0
  6
CONTINUOUS
 10
-50.0390598426638
 20
-23.7607675333913
 30
0.0
 40
0.0
 41
0.0
  0
VERTEX
  5
   2B3
  8
0
  6
CONTINUOUS
 10
-49.9890108314664
 20
-24.4247659373166
 30
0.0
 40
0.0
 41
0.0
  0
VERTEX
  5
   2B4
  8
0
  6
CONTINUOUS
 10
-49.9782754597228
 20
-24.6151470722734
 30
0.0
 40
0.0
 41
0.0
  0
VERTEX
  5
   2B5
  8
0
  6
CONTINUOUS
 10
-49.9723525063678
 20
-24.8046442609763
 30
0.0
 40
0.0
 41
0.0
  0
VERTEX
  5
   2B6
  8
0
  6
CONTINUOUS
 10
-49.9724954976356
 20
-24.9927030661309
 30
0.0
 40
0.0
 41
0.0
  0
VERTEX
  5
   2B7
  8
0
  6
CONTINUOUS
 10
-49.9796724480558
 20
-25.1788316161205
 30
0.0
 40
0.0
 41
0.0
  0
VERTEX
  5
   2B8
  8
0
  6
CONTINUOUS
 10
-49.9861319995373
 20
-25.2710343532933
 30
0.0
 40
0.0
 41
0.0
  0
VERTEX
  5
   2B9
  8
0
  6
CONTINUOUS
 10
-49.9946020525772
 20
-25.3625961755665
 30
0.0
 40
0.0
 41
0.0
  0
VERTEX
  5
   2BA
  8
0
  6
CONTINUOUS
 10
-50.0051394256299
 20
-25.4534712231002
 30
0.0
 40
0.0
 41
0.0
  0
VERTEX
  5
   2BB
  8
0
  6
CONTINUOUS
 10
-50.0177898786914
 20
-25.5436167158895
 30
0.0
 40
0.0
 41
0.0
  0
VERTEX
  5
   2BC
  8
0
  6
CONTINUOUS
 10
-50.0325892443032
 20
-25.6329928153444
 30
0.0
 40
0.0
 41
0.0
  0
VERTEX
  5
   2BD
  8
0
  6
CONTINUOUS
 10
-50.0495645585561
 20
-25.7215624858699
 30
0.0
 40
0.0
 41
0.0
  0
VERTEX
  5
   2BE
  8
0
  6
CONTINUOUS
 10
-50.0687351920944
 20
-25.8092913564462
 30
0.0
 40
0.0
 41
0.0
  0
VERTEX
  5
   2BF
  8
0
  6
CONTINUOUS
 10
-50.0901139811192
 20
-25.8961475822085
 30
0.0
 40
0.0
 41
0.0
  0
VERTEX
  5
   2C0
  8
0
  6
CONTINUOUS
 10
-50.1137083583927
 20
-25.9821017060272
 30
0.0
 40
0.0
 41
0.0
  0
VERTEX
  5
   2C1
  8
0
  6
CONTINUOUS
 10
-50.1395214842418
 20
-26.0671265200876
 30
0.0
 40
0.0
 41
0.0
  0
VERTEX
  5
   2C2
  8
0
  6
CONTINUOUS
 10
-50.1675533775622
 20
-26.1511969274705
 30
0.0
 40
0.0
 41
0.0
  0
VERTEX
  5
   2C3
  8
0
  6
CONTINUOUS
 10
-50.197802046822
 20
-26.2342898037315
 30
0.0
 40
0.0
 41
0.0
  0
VERTEX
  5
   2C4
  8
0
  6
CONTINUOUS
 10
-50.2371435833903
 20
-26.3329706799233
 30
0.0
 40
0.0
 41
0.0
  0
VERTEX
  5
   2C5
  8
0
  6
CONTINUOUS
 10
-50.279687072296
 20
-26.4301709561747
 30
0.0
 40
0.0
 41
0.0
  0
VERTEX
  5
   2C6
  8
0
  6
CONTINUOUS
 10
-50.3254279934567
 20
-26.5258601674124
 30
0.0
 40
0.0
 41
0.0
  0
VERTEX
  5
   2C7
  8
0
  6
CONTINUOUS
 10
-50.3743623018934
 20
-26.6200110507319
 30
0.0
 40
0.0
 41
0.0
  0
VERTEX
  5
   2C8
  8
0
  6
CONTINUOUS
 10
-50.4264864013363
 20
-26.7125993674983
 30
0.0
 40
0.0
 41
0.0
  0
VERTEX
  5
   2C9
  8
0
  6
CONTINUOUS
 10
-50.4817971178297
 20
-26.8036037254486
 30
0.0
 40
0.0
 41
0.0
  0
VERTEX
  5
   2CA
  8
0
  6
CONTINUOUS
 10
-50.5402916733374
 20
-26.8930054007936
 30
0.0
 40
0.0
 41
0.0
  0
VERTEX
  5
   2CB
  8
0
  6
CONTINUOUS
 10
-50.6019676593486
 20
-26.980788160319
 30
0.0
 40
0.0
 41
0.0
  0
VERTEX
  5
   2CC
  8
0
  6
CONTINUOUS
 10
-50.6668230104823
 20
-27.0669380834879
 30
0.0
 40
0.0
 41
0.0
  0
VERTEX
  5
   2CD
  8
0
  6
CONTINUOUS
 10
-50.7348559780937
 20
-27.151443384542
 30
0.0
 40
0.0
 41
0.0
  0
VERTEX
  5
   2CE
  8
0
  6
CONTINUOUS
 10
-50.8060651038788
 20
-27.2342942346039
 30
0.0
 40
0.0
 41
0.0
  0
VERTEX
  5
   2CF
  8
0
  6
CONTINUOUS
 10
-50.8804491934799
 20
-27.3154825837783
 30
0.0
 40
0.0
 41
0.0
  0
VERTEX
  5
   2D0
  8
0
  6
CONTINUOUS
 10
-50.9580072900914
 20
-27.3950019832541
 30
0.0
 40
0.0
 41
0.0
  0
VERTEX
  5
   2D1
  8
0
  6
CONTINUOUS
 10
-51.0387386480646
 20
-27.4728474074061
 30
0.0
 40
0.0
 41
0.0
  0
VERTEX
  5
   2D2
  8
0
  6
CONTINUOUS
 10
-51.1226427065134
 20
-27.5490150758969
 30
0.0
 40
0.0
 41
0.0
  0
VERTEX
  5
   2D3
  8
0
  6
CONTINUOUS
 10
-51.2097190629195
 20
-27.6235022757782
 30
0.0
 40
0.0
 41
0.0
  0
VERTEX
  5
   2D4
  8
0
  6
CONTINUOUS
 10
-51.2999674467378
 20
-27.6963071835933
 30
0.0
 40
0.0
 41
0.0
  0
VERTEX
  5
   2D5
  8
0
  6
CONTINUOUS
 10
-51.3933876930018
 20
-27.767428687478
 30
0.0
 40
0.0
 41
0.0
  0
VERTEX
  5
   2D6
  8
0
  6
CONTINUOUS
 10
-51.4899797159288
 20
-27.8368662092632
 30
0.0
 40
0.0
 41
0.0
  0
VERTEX
  5
   2D7
  8
0
  6
CONTINUOUS
 10
-51.5897434825258
 20
-27.904619526576
 30
0.0
 40
0.0
 41
0.0
  0
SEQEND
  5
   2D8
  8
0
  6
CONTINUOUS
 62
     7
  0
LINE
  5
   2D9
  8
0
  6
CONTINUOUS
 62
     7
 10
-35.5368898912662
 20
6.8663920274048E-6
 30
0.0
 11
68.7500079259097
 21
6.8663920274048E-6
 31
0.0
  0
ENDBLK
  5
   2DA
  8
0
  6
CONTINUOUS
 62
     7
  0
BLOCK
  5
   2DB
  8
0
  6
CONTINUOUS
 62
     7
  2
$3MOSTRINA
 70
    64
 10
0.0
 20
0.0
 30
0.0
  3
$3MOSTRINA
  0
LINE
  5
   2DC
  8
0
  6
CONTINUOUS
 62
     3
 10
173.338256835938
 20
30.7306251525879
 30
0.0
 11
173.338256835938
 21
189.230621337891
 31
0.0
  0
LINE
  5
   2DD
  8
0
  6
CONTINUOUS
 62
     3
 10
57.5882568359375
 20
29.4806251525879
 30
0.0
 11
172.088256835938
 21
29.4806251525879
 31
0.0
  0
LINE
  5
   2DE
  8
0
  6
CONTINUOUS
 62
     3
 10
56.3382568359375
 20
30.7306251525879
 30
0.0
 11
56.3382568359375
 21
189.230621337891
 31
0.0
  0
LINE
  5
   2DF
  8
0
  6
CONTINUOUS
 62
     3
 10
57.5882568359375
 20
190.480621337891
 30
0.0
 11
172.088256835938
 21
190.480621337891
 31
0.0
  0
LINE
  5
   2E0
  8
0
  6
CONTINUOUS
 62
     3
 10
167.838256835938
 20
56.9806251525879
 30
0.0
 11
167.838256835938
 21
162.980625152588
 31
0.0
  0
LINE
  5
   2E1
  8
0
  6
CONTINUOUS
 62
     3
 10
61.8382568359375
 20
56.9806251525879
 30
0.0
 11
167.838256835938
 21
56.9806251525879
 31
0.0
  0
LINE
  5
   2E2
  8
0
  6
CONTINUOUS
 62
     3
 10
61.8382568359375
 20
56.9806251525879
 30
0.0
 11
61.8382568359375
 21
162.980625152588
 31
0.0
  0
LINE
  5
   2E3
  8
0
  6
CONTINUOUS
 62
     3
 10
61.8382568359375
 20
162.980621337891
 30
0.0
 11
167.838256835938
 21
162.980621337891
 31
0.0
  0
LINE
  5
   2E4
  8
0
  6
CONTINUOUS
 62
     3
 10
168.838256835938
 20
48.4806251525879
 30
0.0
 11
168.838256835938
 21
49.4806251525879
 31
0.0
  0
LINE
  5
   2E5
  8
0
  6
CONTINUOUS
 62
     3
 10
61.8382568359375
 20
50.4806251525879
 30
0.0
 11
167.838256835938
 21
50.4806251525879
 31
0.0
  0
LINE
  5
   2E6
  8
0
  6
CONTINUOUS
 62
     3
 10
60.8382568359375
 20
48.4806251525879
 30
0.0
 11
60.8382568359375
 21
49.4806251525879
 31
0.0
  0
LINE
  5
   2E7
  8
0
  6
CONTINUOUS
 62
     3
 10
61.8382568359375
 20
49.4806251525879
 30
0.0
 11
167.838256835938
 21
49.4806251525879
 31
0.0
  0
LINE
  5
   2E8
  8
0
  6
CONTINUOUS
 62
     3
 10
60.8382568359375
 20
29.4806251525879
 30
0.0
 11
60.8382568359375
 21
48.4806251525879
 31
0.0
  0
LINE
  5
   2E9
  8
0
  6
CONTINUOUS
 62
     3
 10
60.8382568359375
 20
49.4806213378906
 30
0.0
 11
60.8382568359375
 21
190.480621337891
 31
0.0
  0
LINE
  5
   2EA
  8
0
  6
CONTINUOUS
 62
     3
 10
61.8382568359375
 20
29.4806251525879
 30
0.0
 11
61.8382568359375
 21
49.4806251525879
 31
0.0
  0
LINE
  5
   2EB
  8
0
  6
CONTINUOUS
 62
     3
 10
61.8382568359375
 20
162.980621337891
 30
0.0
 11
61.8382568359375
 21
169.480621337891
 31
0.0
  0
LINE
  5
   2EC
  8
0
  6
CONTINUOUS
 62
     3
 10
61.8382568359375
 20
50.4806251525879
 30
0.0
 11
61.8382568359375
 21
56.9806251525879
 31
0.0
  0
LINE
  5
   2ED
  8
0
  6
CONTINUOUS
 62
     3
 10
168.838256835938
 20
29.4806251525879
 30
0.0
 11
168.838256835938
 21
48.4806251525879
 31
0.0
  0
LINE
  5
   2EE
  8
0
  6
CONTINUOUS
 62
     3
 10
168.838256835938
 20
49.4806251525879
 30
0.0
 11
168.838256835938
 21
190.480621337891
 31
0.0
  0
LINE
  5
   2EF
  8
0
  6
CONTINUOUS
 62
     3
 10
167.838256835938
 20
50.4806251525879
 30
0.0
 11
167.838256835938
 21
56.9806251525879
 31
0.0
  0
LINE
  5
   2F0
  8
0
  6
CONTINUOUS
 62
     3
 10
167.838256835938
 20
162.980621337891
 30
0.0
 11
167.838256835938
 21
169.480621337891
 31
0.0
  0
LINE
  5
   2F1
  8
0
  6
CONTINUOUS
 62
     3
 10
167.838256835938
 20
29.4806251525879
 30
0.0
 11
167.838256835938
 21
49.4806251525879
 31
0.0
  0
LINE
  5
   2F2
  8
0
  6
CONTINUOUS
 62
     3
 10
60.8382568359375
 20
170.480621337891
 30
0.0
 11
168.838256835938
 21
170.480621337891
 31
0.0
  0
LINE
  5
   2F3
  8
0
  6
CONTINUOUS
 62
     3
 10
61.8382568359375
 20
169.480621337891
 30
0.0
 11
167.838256835938
 21
169.480621337891
 31
0.0
  0
ARC
  5
   2F4
  8
0
  6
CONTINUOUS
 62
     3
 10
57.5882568359375
 20
30.7306251525879
 30
0.0
 40
1.25
 50
180.0
 51
270.0
  0
ARC
  5
   2F5
  8
0
  6
CONTINUOUS
 62
     3
 10
172.088256835938
 20
30.7306251525879
 30
0.0
 40
1.25
 50
270.0
 51
360.0
  0
ARC
  5
   2F6
  8
0
  6
CONTINUOUS
 62
     3
 10
172.088256835938
 20
189.230621337891
 30
0.0
 40
1.25
 50
0.0
 51
90.0
  0
ARC
  5
   2F7
  8
0
  6
CONTINUOUS
 62
     3
 10
57.5882568359375
 20
189.230621337891
 30
0.0
 40
1.25
 50
90.0
 51
180.0
  0
LINE
  5
   2F8
  8
0
  6
DOT
 62
     3
 10
60.3382577409677
 20
179.7306252571
 30
0.0
 11
60.8382568359375
 21
179.7306252571
 31
0.0
  0
LINE
  5
   2F9
  8
0
  6
DOT
 62
     3
 10
60.3382577409676
 20
181.2306252571
 30
0.0
 11
60.8382568359375
 21
181.2306252571
 31
0.0
  0
LINE
  5
   2FA
  8
0
  6
CONTINUOUS
 62
     3
 10
168.338257745313
 20
179.730625257273
 30
0.0
 11
168.838256835938
 21
179.730625257273
 31
0.0
  0
LINE
  5
   2FB
  8
0
  6
CONTINUOUS
 62
     3
 10
168.338257745314
 20
181.230625257273
 30
0.0
 11
168.838256835938
 21
181.230625257273
 31
0.0
  0
ARC
  5
   2FC
  8
0
  6
DOT
 62
     3
 10
60.3382577401871
 20
180.480625257147
 30
0.0
 40
0.749999999345164
 50
90.0
 51
270.0
  0
ARC
  5
   2FD
  8
0
  6
CONTINUOUS
 62
     3
 10
61.338257740822
 20
180.480625256974
 30
0.0
 40
0.750000000009701
 50
270.0
 51
450.0
  0
LINE
  5
   2FE
  8
0
  6
CONTINUOUS
 62
     3
 10
60.8382568359375
 20
181.2306252571
 30
0.0
 11
61.3382577409688
 21
181.2306252571
 31
0.0
  0
LINE
  5
   2FF
  8
0
  6
CONTINUOUS
 62
     3
 10
60.8382568359375
 20
179.7306252571
 30
0.0
 11
61.3382577409689
 21
179.7306252571
 31
0.0
  0
ARC
  5
   300
  8
0
  6
CONTINUOUS
 62
     3
 10
168.338257745503
 20
180.480625256952
 30
0.0
 40
0.750000000048506
 50
90.0000000038822
 51
269.999999996024
  0
ARC
  5
   301
  8
0
  6
DOT
 62
     3
 10
169.338257745421
 20
180.480625256965
 30
0.0
 40
0.750000000029104
 50
270.000000002449
 51
449.999999997486
  0
LINE
  5
   302
  8
0
  6
DOT
 62
     3
 10
168.838256835938
 20
181.230625257273
 30
0.0
 11
169.338257745315
 21
181.230625257273
 31
0.0
  0
LINE
  5
   303
  8
0
  6
DOT
 62
     3
 10
168.838256835938
 20
179.730625257273
 30
0.0
 11
169.338257745315
 21
179.730625257273
 31
0.0
  0
POINT
  5
   304
  8
0
  6
CONTINUOUS
 62
     3
 10
114.838256835938
 20
109.980621337891
 30
0.0
  0
ENDBLK
  5
   305
  8
0
  6
CONTINUOUS
 62
     7
  0
BLOCK
  5
   306
  8
0
  6
CONTINUOUS
 62
     7
  2
*UDIM258
 70
    65
 10
0.0
 20
0.0
 30
0.0
  3
*UDIM258
  0
TEXT
  5
   307
  8
0
  6
CONTINUOUS
 62
     7
 10
-675.10829128097
 20
-100.788786834735
 30
0.0
 40
3.00000011722246
  1
140
 50
359.999999948034
 41
0.933333333333333
 72
     1
 11
-671.208291127228
 21
-99.2887867796418
 31
0.0
 73
     2
  0
LINE
  5
   308
  8
0
  6
CONTINUOUS
 62
     7
 10
-639.433248868323
 20
32.3376523585667
 30
0.0
 11
-639.433288671259
 21
-103.788786838253
 31
0.0
  0
LINE
  5
   309
  8
0
  6
CONTINUOUS
 62
     7
 10
-702.433240356994
 20
32.3376523585667
 30
0.0
 11
-702.433283176853
 21
-103.788786838253
 31
0.0
  0
LINE
  5
   30A
  8
0
  6
CONTINUOUS
 62
     7
 10
-639.433288086465
 20
-101.788786838253
 30
0.0
 11
-702.433282547734
 21
-101.788786838253
 31
0.0
  0
LINE
  5
   30B
  8
0
  6
CONTINUOUS
 62
     7
 10
-642.387711363672
 20
-102.309731268205
 30
0.0
 11
-639.433288086465
 21
-101.788786838253
 31
0.0
  0
LINE
  5
   30C
  8
0
  6
CONTINUOUS
 62
     7
 10
-639.433288086465
 20
-101.788786838253
 30
0.0
 11
-642.387711363672
 21
-101.267842408301
 31
0.0
  0
LINE
  5
   30D
  8
0
  6
CONTINUOUS
 62
     7
 10
-699.478859270527
 20
-101.267842408301
 30
0.0
 11
-702.433282547734
 21
-101.788786838253
 31
0.0
  0
LINE
  5
   30E
  8
0
  6
CONTINUOUS
 62
     7
 10
-702.433282547734
 20
-101.788786838253
 30
0.0
 11
-699.478859270527
 21
-102.309731268205
 31
0.0
  0
ENDBLK
  5
   30F
  8
0
  6
CONTINUOUS
 62
     7
  0
BLOCK
  5
   310
  8
0
  6
CONTINUOUS
 62
     7
  2
*UDIM259
 70
    65
 10
0.0
 20
0.0
 30
0.0
  3
*UDIM259
  0
TEXT
  5
   311
  8
0
  6
CONTINUOUS
 62
     7
 10
-675.108260384783
 20
-92.5314272259675
 30
0.0
 40
3.00000011722246
  1
105
 50
359.999999948034
 41
0.933333333333333
 72
     1
 11
-671.208260231041
 21
-91.0314271708739
 31
0.0
 73
     2
  0
TEXT
  5
   312
  8
0
  6
CONTINUOUS
 62
     7
 10
-675.758260329046
 20
-97.0314272995559
 30
0.0
 40
3.50000007417466
  1
= =
 50
359.999999948034
 41
0.933333333333333
 72
     1
 11
-671.208260231041
 21
-95.2814272665725
 31
0.0
 73
     2
  0
LINE
  5
   313
  8
0
  6
CONTINUOUS
 62
     7
 10
-647.30826958434
 20
-7.14985346182675
 30
0.0
 11
-647.30826958434
 21
-95.5314272294851
 31
0.0
  0
LINE
  5
   314
  8
0
  6
CONTINUOUS
 62
     7
 10
-694.558261466175
 20
-7.14985346182675
 30
0.0
 11
-694.558261466175
 21
-95.5314272294851
 31
0.0
  0
LINE
  5
   315
  8
0
  6
CONTINUOUS
 62
     7
 10
-647.30826958434
 20
-93.5314272294851
 30
0.0
 11
-694.558261466175
 21
-93.5314272294851
 31
0.0
  0
LINE
  5
   316
  8
0
  6
CONTINUOUS
 62
     7
 10
-650.262692861547
 20
-94.0523716594368
 30
0.0
 11
-647.30826958434
 21
-93.5314272294851
 31
0.0
  0
LINE
  5
   317
  8
0
  6
CONTINUOUS
 62
     7
 10
-647.30826958434
 20
-93.5314272294851
 30
0.0
 11
-650.262692861547
 21
-93.0104827995335
 31
0.0
  0
LINE
  5
   318
  8
0
  6
CONTINUOUS
 62
     7
 10
-691.603838188968
 20
-93.0104827995335
 30
0.0
 11
-694.558261466175
 21
-93.5314272294851
 31
0.0
  0
LINE
  5
   319
  8
0
  6
CONTINUOUS
 62
     7
 10
-694.558261466175
 20
-93.5314272294851
 30
0.0
 11
-691.603838188968
 21
-94.0523716594368
 31
0.0
  0
ENDBLK
  5
   31A
  8
0
  6
CONTINUOUS
 62
     7
  0
BLOCK
  5
   31B
  8
0
  6
CONTINUOUS
 62
     7
  2
*UDIM260
 70
    65
 10
0.0
 20
0.0
 30
0.0
  3
*UDIM260
  0
TEXT
  5
   31C
  8
0
  6
CONTINUOUS
 62
     7
 10
-648.345761727162
 20
-84.6835234630428
 30
0.0
 40
3.00000011722246
  1
43,75
 50
359.999999948034
 41
0.933333333333333
 72
     1
 11
-641.645761464012
 21
-83.1835234104746
 31
0.0
 73
     2
  0
LINE
  5
   31D
  8
0
  6
CONTINUOUS
 62
     7
 10
-651.24576312602
 20
-74.4923258249866
 30
0.0
 11
-651.245768946292
 21
-87.6835234690857
 31
0.0
  0
LINE
  5
   31E
  8
0
  6
CONTINUOUS
 62
     7
 10
-670.93326148469
 20
-74.4923291276266
 30
0.0
 11
-670.933267304962
 21
-87.6835234690857
 31
0.0
  0
LINE
  5
   31F
  8
0
  6
CONTINUOUS
 62
     7
 10
-634.945761202216
 20
-85.6835234690859
 30
0.0
 11
-670.933266422514
 21
-85.6835234690859
 31
0.0
  0
LINE
  5
   320
  8
0
  6
CONTINUOUS
 62
     7
 10
-654.200191341051
 20
-86.2044678990376
 30
0.0
 11
-651.245768063844
 21
-85.6835234690859
 31
0.0
  0
LINE
  5
   321
  8
0
  6
CONTINUOUS
 62
     7
 10
-651.245768063844
 20
-85.6835234690859
 30
0.0
 11
-654.200191341051
 21
-85.1625790391342
 31
0.0
  0
LINE
  5
   322
  8
0
  6
CONTINUOUS
 62
     7
 10
-667.978843145307
 20
-85.1625790391342
 30
0.0
 11
-670.933266422514
 21
-85.6835234690859
 31
0.0
  0
LINE
  5
   323
  8
0
  6
CONTINUOUS
 62
     7
 10
-670.933266422514
 20
-85.6835234690859
 30
0.0
 11
-667.978843145307
 21
-86.2044678990376
 31
0.0
  0
ENDBLK
  5
   324
  8
0
  6
CONTINUOUS
 62
     7
  0
BLOCK
  5
   325
  8
0
  6
CONTINUOUS
 62
     7
  2
*UDIM261
 70
    65
 10
0.0
 20
0.0
 30
0.0
  3
*UDIM261
  0
TEXT
  5
   326
  8
0
  6
CONTINUOUS
 62
     7
 10
-707.4707570743
 20
-84.6835234630428
 30
0.0
 40
3.00000011722246
  1
43,75
 50
359.999999948034
 41
0.933333333333333
 72
     1
 11
-700.77075681115
 21
-83.1835234104746
 31
0.0
 73
     2
  0
LINE
  5
   327
  8
0
  6
CONTINUOUS
 62
     7
 10
-690.620762475023
 20
-70.0373297968476
 30
0.0
 11
-690.620783441845
 21
-87.6835234690845
 31
0.0
  0
LINE
  5
   328
  8
0
  6
CONTINUOUS
 62
     7
 10
-670.933266422514
 20
-85.6835234690859
 30
0.0
 11
-707.470757072947
 21
-85.6835234690859
 31
0.0
  0
LINE
  5
   329
  8
0
  6
CONTINUOUS
 62
     7
 10
-673.887689699721
 20
-86.2044678990376
 30
0.0
 11
-670.933266422514
 21
-85.6835234690859
 31
0.0
  0
LINE
  5
   32A
  8
0
  6
CONTINUOUS
 62
     7
 10
-670.933266422514
 20
-85.6835234690859
 30
0.0
 11
-673.887689699721
 21
-85.1625790391342
 31
0.0
  0
LINE
  5
   32B
  8
0
  6
CONTINUOUS
 62
     7
 10
-687.666357788282
 20
-85.1625790391342
 30
0.0
 11
-690.620781065489
 21
-85.6835234690859
 31
0.0
  0
LINE
  5
   32C
  8
0
  6
CONTINUOUS
 62
     7
 10
-690.620781065489
 20
-85.6835234690859
 30
0.0
 11
-687.666357788282
 21
-86.2044678990376
 31
0.0
  0
ENDBLK
  5
   32D
  8
0
  6
CONTINUOUS
 62
     7
  0
BLOCK
  5
   32E
  8
0
  6
CONTINUOUS
 62
     7
  2
*UDIM262
 70
    65
 10
0.0
 20
0.0
 30
0.0
  3
*UDIM262
  0
TEXT
  5
   32F
  8
0
  6
CONTINUOUS
 62
     7
 10
-618.431042408157
 20
-97.687328271754
 30
0.0
 40
3.00000011722246
  1
100
 50
89.9999999480344
 41
0.933333333333333
 72
     1
 11
-619.931042463236
 21
-93.7873281180062
 31
0.0
 73
     2
  0
LINE
  5
   330
  8
0
  6
CONTINUOUS
 62
     7
 10
-659.638337429728
 20
-116.28732752196
 30
0.0
 11
-615.431042404625
 21
-116.28732752196
 31
0.0
  0
LINE
  5
   331
  8
0
  6
CONTINUOUS
 62
     7
 10
-638.995760508938
 20
-71.2873287140527
 30
0.0
 11
-615.431042404625
 21
-71.2873287140527
 31
0.0
  0
LINE
  5
   332
  8
0
  6
CONTINUOUS
 62
     7
 10
-617.431042404625
 20
-116.28732752196
 30
0.0
 11
-617.431042404625
 21
-71.2873287140527
 31
0.0
  0
LINE
  5
   333
  8
0
  6
CONTINUOUS
 62
     7
 10
-618.207499561044
 20
-113.389550048749
 30
0.0
 11
-617.431042404625
 21
-116.28732752196
 31
0.0
  0
LINE
  5
   334
  8
0
  6
CONTINUOUS
 62
     7
 10
-617.431042404625
 20
-116.28732752196
 30
0.0
 11
-616.654585248206
 21
-113.389550048749
 31
0.0
  0
LINE
  5
   335
  8
0
  6
CONTINUOUS
 62
     7
 10
-616.654585248206
 20
-74.1851061872632
 30
0.0
 11
-617.431042404625
 21
-71.2873287140527
 31
0.0
  0
LINE
  5
   336
  8
0
  6
CONTINUOUS
 62
     7
 10
-617.431042404625
 20
-71.2873287140527
 30
0.0
 11
-618.207499561044
 21
-74.1851061872632
 31
0.0
  0
ENDBLK
  5
   337
  8
0
  6
CONTINUOUS
 62
     7
  0
BLOCK
  5
   338
  8
0
  6
CONTINUOUS
 62
     7
  2
*UDIM263
 70
    65
 10
0.0
 20
0.0
 30
0.0
  3
*UDIM263
  0
TEXT
  5
   339
  8
0
  6
CONTINUOUS
 62
     7
 10
-626.635598417017
 20
-16.3998487773332
 30
0.0
 40
3.00000011722246
  1
161
 50
89.9999999480344
 41
0.933333333333333
 72
     1
 11
-628.135598472096
 21
-12.4998486235854
 31
0.0
 73
     2
  0
LINE
  5
   33A
  8
0
  6
CONTINUOUS
 62
     7
 10
-644.17076277451
 20
-48.4498437581908
 30
0.0
 11
-623.635598413485
 21
-48.4498437581908
 31
0.0
  0
LINE
  5
   33B
  8
0
  6
CONTINUOUS
 62
     7
 10
-644.17076277451
 20
24.0001526059259
 30
0.0
 11
-623.635598413485
 21
24.0001526059259
 31
0.0
  0
LINE
  5
   33C
  8
0
  6
CONTINUOUS
 62
     7
 10
-625.635598413485
 20
-48.4498437581908
 30
0.0
 11
-625.635598413485
 21
24.0001526059259
 31
0.0
  0
LINE
  5
   33D
  8
0
  6
CONTINUOUS
 62
     7
 10
-626.156542843437
 20
-45.4954204809838
 30
0.0
 11
-625.635598413485
 21
-48.4498437581908
 31
0.0
  0
LINE
  5
   33E
  8
0
  6
CONTINUOUS
 62
     7
 10
-625.635598413485
 20
-48.4498437581908
 30
0.0
 11
-625.114653983533
 21
-45.4954204809838
 31
0.0
  0
LINE
  5
   33F
  8
0
  6
CONTINUOUS
 62
     7
 10
-625.114653983533
 20
21.0457293287189
 30
0.0
 11
-625.635598413485
 21
24.0001526059259
 31
0.0
  0
LINE
  5
   340
  8
0
  6
CONTINUOUS
 62
     7
 10
-625.635598413485
 20
24.0001526059259
 30
0.0
 11
-626.156542843437
 21
21.0457293287189
 31
0.0
  0
ENDBLK
  5
   341
  8
0
  6
CONTINUOUS
 62
     7
  0
BLOCK
  5
   342
  8
0
  6
CONTINUOUS
 62
     7
  2
*UDIM264
 70
    65
 10
0.0
 20
0.0
 30
0.0
  3
*UDIM264
  0
TEXT
  5
   343
  8
0
  6
CONTINUOUS
 62
     7
 10
-675.108263818016
 20
83.0551361178983
 30
0.0
 40
3.00000011722246
  1
117
 50
359.999999948034
 41
0.933333333333333
 72
     1
 11
-671.208263664274
 21
84.555136172992
 31
0.0
 73
     2
  0
LINE
  5
   344
  8
0
  6
CONTINUOUS
 62
     7
 10
-644.608262789411
 20
24.4376526208271
 30
0.0
 11
-644.608262789411
 21
84.0551361143807
 31
0.0
  0
LINE
  5
   345
  8
0
  6
CONTINUOUS
 62
     7
 10
-697.258261394662
 20
24.4376526208271
 30
0.0
 11
-697.258261394662
 21
84.0551361143807
 31
0.0
  0
LINE
  5
   346
  8
0
  6
CONTINUOUS
 62
     7
 10
-644.608262789411
 20
82.0551361143807
 30
0.0
 11
-697.258261394662
 21
82.0551361143807
 31
0.0
  0
LINE
  5
   347
  8
0
  6
CONTINUOUS
 62
     7
 10
-647.562686066617
 20
81.5341916844291
 30
0.0
 11
-644.608262789411
 21
82.0551361143807
 31
0.0
  0
LINE
  5
   348
  8
0
  6
CONTINUOUS
 62
     7
 10
-644.608262789411
 20
82.0551361143807
 30
0.0
 11
-647.562686066617
 21
82.5760805443324
 31
0.0
  0
LINE
  5
   349
  8
0
  6
CONTINUOUS
 62
     7
 10
-694.303838117455
 20
82.5760805443324
 30
0.0
 11
-697.258261394662
 21
82.0551361143807
 31
0.0
  0
LINE
  5
   34A
  8
0
  6
CONTINUOUS
 62
     7
 10
-697.258261394662
 20
82.0551361143807
 30
0.0
 11
-694.303838117455
 21
81.5341916844291
 31
0.0
  0
ENDBLK
  5
   34B
  8
0
  6
CONTINUOUS
 62
     7
  0
BLOCK
  5
   34C
  8
0
  6
CONTINUOUS
 62
     7
  2
*UDIM265
 70
    65
 10
0.0
 20
0.0
 30
0.0
  3
*UDIM265
  0
TEXT
  5
   34D
  8
0
  6
CONTINUOUS
 62
     7
 10
-618.350993991709
 20
63.5876422426028
 30
0.0
 40
3.00000011722246
  1
100
 50
89.9999999480344
 41
0.933333333333333
 72
     1
 11
-619.850994046788
 21
67.4876423963506
 31
0.0
 73
     2
  0
LINE
  5
   34E
  8
0
  6
CONTINUOUS
 62
     7
 10
-638.995760508938
 20
45.2626482660834
 30
0.0
 11
-615.350993988176
 21
45.2626482660834
 31
0.0
  0
LINE
  5
   34F
  8
0
  6
CONTINUOUS
 62
     7
 10
-679.325836908187
 20
90.2626470739906
 30
0.0
 11
-615.350993988176
 21
90.2626470739906
 31
0.0
  0
LINE
  5
   350
  8
0
  6
CONTINUOUS
 62
     7
 10
-617.350993988177
 20
45.2626482660834
 30
0.0
 11
-617.350993988177
 21
90.2626470739906
 31
0.0
  0
LINE
  5
   351
  8
0
  6
CONTINUOUS
 62
     7
 10
-617.871938418128
 20
48.2170715432904
 30
0.0
 11
-617.350993988177
 21
45.2626482660834
 31
0.0
  0
LINE
  5
   352
  8
0
  6
CONTINUOUS
 62
     7
 10
-617.350993988177
 20
45.2626482660834
 30
0.0
 11
-616.830049558225
 21
48.2170715432904
 31
0.0
  0
LINE
  5
   353
  8
0
  6
CONTINUOUS
 62
     7
 10
-616.830049558225
 20
87.3082237967836
 30
0.0
 11
-617.350993988177
 21
90.2626470739906
 31
0.0
  0
LINE
  5
   354
  8
0
  6
CONTINUOUS
 62
     7
 10
-617.350993988177
 20
90.2626470739906
 30
0.0
 11
-617.871938418128
 21
87.3082237967836
 31
0.0
  0
ENDBLK
  5
   355
  8
0
  6
CONTINUOUS
 62
     7
  0
BLOCK
  5
   356
  8
0
  6
CONTINUOUS
 62
     7
  2
*UDIM266
 70
    65
 10
0.0
 20
0.0
 30
0.0
  3
*UDIM266
  0
TEXT
  5
   357
  8
0
  6
CONTINUOUS
 62
     7
 10
-634.054547589902
 20
8.14389811377378
 30
0.0
 40
3.00000011722246
  1
127,75
 50
89.9999999480344
 41
0.933333333333333
 72
     1
 11
-635.554547641177
 21
16.243898431633
 31
0.0
 73
     2
  0
LINE
  5
   358
  8
0
  6
CONTINUOUS
 62
     7
 10
-638.995760508938
 20
45.2626482660834
 30
0.0
 11
-631.054547582566
 21
45.2626482660834
 31
0.0
  0
LINE
  5
   359
  8
0
  6
CONTINUOUS
 62
     7
 10
-633.054547582566
 20
-12.2248464344393
 30
0.0
 11
-633.054547582566
 21
45.2626482660834
 31
0.0
  0
LINE
  5
   35A
  8
0
  6
CONTINUOUS
 62
     7
 10
-633.575492012517
 20
-9.27042315723235
 30
0.0
 11
-633.054547582566
 21
-12.2248464344393
 31
0.0
  0
LINE
  5
   35B
  8
0
  6
CONTINUOUS
 62
     7
 10
-633.054547582566
 20
-12.2248464344393
 30
0.0
 11
-632.533603152614
 21
-9.27042315723235
 31
0.0
  0
LINE
  5
   35C
  8
0
  6
CONTINUOUS
 62
     7
 10
-632.533603152614
 20
42.3082249888765
 30
0.0
 11
-633.054547582566
 21
45.2626482660834
 31
0.0
  0
LINE
  5
   35D
  8
0
  6
CONTINUOUS
 62
     7
 10
-633.054547582566
 20
45.2626482660834
 30
0.0
 11
-633.575492012517
 21
42.3082249888765
 31
0.0
  0
ENDBLK
  5
   35E
  8
0
  6
CONTINUOUS
 62
     7
  0
BLOCK
  5
   35F
  8
0
  6
CONTINUOUS
 62
     7
  2
*UDIM267
 70
    65
 10
0.0
 20
0.0
 30
0.0
  3
*UDIM267
  0
TEXT
  5
   360
  8
0
  6
CONTINUOUS
 62
     7
 10
-618.350993991709
 20
-17.1873384362767
 30
0.0
 40
3.00000011722246
  1
259
 50
89.9999999480344
 41
0.933333333333333
 72
     1
 11
-619.850994046788
 21
-13.2873382825289
 31
0.0
 73
     2
  0
LINE
  5
   361
  8
0
  6
CONTINUOUS
 62
     7
 10
-641.133262678912
 20
-71.2873287140527
 30
0.0
 11
-615.350993988176
 21
-71.2873287140527
 31
0.0
  0
LINE
  5
   362
  8
0
  6
CONTINUOUS
 62
     7
 10
-638.995760508938
 20
45.2626482660834
 30
0.0
 11
-615.350993988176
 21
45.2626482660834
 31
0.0
  0
LINE
  5
   363
  8
0
  6
CONTINUOUS
 62
     7
 10
-617.350993988177
 20
-71.2873287140527
 30
0.0
 11
-617.350993988177
 21
45.2626482660834
 31
0.0
  0
LINE
  5
   364
  8
0
  6
CONTINUOUS
 62
     7
 10
-617.871938418128
 20
-68.3329054368457
 30
0.0
 11
-617.350993988177
 21
-71.2873287140527
 31
0.0
  0
LINE
  5
   365
  8
0
  6
CONTINUOUS
 62
     7
 10
-617.350993988177
 20
-71.2873287140527
 30
0.0
 11
-616.830049558225
 21
-68.3329054368457
 31
0.0
  0
LINE
  5
   366
  8
0
  6
CONTINUOUS
 62
     7
 10
-616.830049558225
 20
42.3082249888765
 30
0.0
 11
-617.350993988177
 21
45.2626482660834
 31
0.0
  0
LINE
  5
   367
  8
0
  6
CONTINUOUS
 62
     7
 10
-617.350993988177
 20
45.2626482660834
 30
0.0
 11
-617.871938418128
 21
42.3082249888765
 31
0.0
  0
ENDBLK
  5
   368
  8
0
  6
CONTINUOUS
 62
     7
  0
BLOCK
  5
   369
  8
0
  6
CONTINUOUS
 62
     5
  2
*UDIM268
 70
    65
 10
0.0
 20
0.0
 30
0.0
  3
*UDIM268
  0
TEXT
  5
   36A
  8
0
  6
CONTINUOUS
 62
     5
 10
-711.227421665133
 20
7.58139813941795
 30
0.0
 40
3.00000011722246
  1
125,25
 50
89.9999999480344
 41
0.933333333333333
 72
     1
 11
-712.727421716408
 21
15.6813984572772
 31
0.0
 73
     2
  0
LINE
  5
   36B
  8
0
  6
CONTINUOUS
 62
     5
 10
-701.858240082264
 20
44.1376452060094
 30
0.0
 11
-712.227421657796
 21
44.1376452060094
 31
0.0
  0
LINE
  5
   36C
  8
0
  6
CONTINUOUS
 62
     5
 10
-710.227421657796
 20
-12.2248464344393
 30
0.0
 11
-710.227421657796
 21
44.1376452060094
 31
0.0
  0
LINE
  5
   36D
  8
0
  6
CONTINUOUS
 62
     5
 10
-710.748366087748
 20
-9.27042315723235
 30
0.0
 11
-710.227421657796
 21
-12.2248464344393
 31
0.0
  0
LINE
  5
   36E
  8
0
  6
CONTINUOUS
 62
     5
 10
-710.227421657796
 20
-12.2248464344393
 30
0.0
 11
-709.706477227845
 21
-9.27042315723235
 31
0.0
  0
LINE
  5
   36F
  8
0
  6
CONTINUOUS
 62
     5
 10
-709.706477227845
 20
41.1832219288025
 30
0.0
 11
-710.227421657796
 21
44.1376452060094
 31
0.0
  0
LINE
  5
   370
  8
0
  6
CONTINUOUS
 62
     5
 10
-710.227421657796
 20
44.1376452060094
 30
0.0
 11
-710.748366087748
 21
41.1832219288025
 31
0.0
  0
ENDBLK
  5
   371
  8
0
  6
CONTINUOUS
 62
     5
  0
BLOCK
  5
   372
  8
0
  6
CONTINUOUS
 62
     7
  2
*UDIM269
 70
    65
 10
0.0
 20
0.0
 30
0.0
  3
*UDIM269
  0
TEXT
  5
   373
  8
0
  6
CONTINUOUS
 62
     7
 10
-720.697038872628
 20
-17.1873418707127
 30
0.0
 40
3.00000011722246
  1
254
 50
89.9999999480344
 41
0.933333333333333
 72
     1
 11
-722.197038927707
 21
-13.287341716965
 31
0.0
 73
     2
  0
LINE
  5
   374
  8
0
  6
CONTINUOUS
 62
     7
 10
-701.85826112323
 20
-70.1623295187767
 30
0.0
 11
-721.697038869095
 21
-70.1623295187767
 31
0.0
  0
LINE
  5
   375
  8
0
  6
CONTINUOUS
 62
     7
 10
-701.858240082264
 20
44.1376452060094
 30
0.0
 11
-721.697038869095
 21
44.1376452060094
 31
0.0
  0
LINE
  5
   376
  8
0
  6
CONTINUOUS
 62
     7
 10
-719.697038869095
 20
-70.1623295187767
 30
0.0
 11
-719.697038869095
 21
44.1376452060094
 31
0.0
  0
LINE
  5
   377
  8
0
  6
CONTINUOUS
 62
     7
 10
-720.217983299047
 20
-67.2079062415698
 30
0.0
 11
-719.697038869095
 21
-70.1623295187767
 31
0.0
  0
LINE
  5
   378
  8
0
  6
CONTINUOUS
 62
     7
 10
-719.697038869095
 20
-70.1623295187767
 30
0.0
 11
-719.176094439144
 21
-67.2079062415698
 31
0.0
  0
LINE
  5
   379
  8
0
  6
CONTINUOUS
 62
     7
 10
-719.176094439144
 20
41.1832219288025
 30
0.0
 11
-719.697038869095
 21
44.1376452060094
 31
0.0
  0
LINE
  5
   37A
  8
0
  6
CONTINUOUS
 62
     7
 10
-719.697038869095
 20
44.1376452060094
 30
0.0
 11
-720.217983299047
 21
41.1832219288025
 31
0.0
  0
ENDBLK
  5
   37B
  8
0
  6
CONTINUOUS
 62
     7
  0
ENDSEC
  0
SECTION
  2
ENTITIES
  0
LINE
  5
   37C
  8
0
  6
DASHDOT
 62
     3
 10
-604.232971191406
 20
-139.764378658863
 30
0.0
 11
-604.232971191406
 21
-207.110783484668
 31
0.0
  0
LINE
  5
   37D
  8
0
  6
DASHDOT
 62
     3
 10
-592.290433597687
 20
-146.579025268555
 30
0.0
 11
-616.584639593843
 21
-146.579025268555
 31
0.0
  0
LINE
  5
   37E
  8
0
  6
DASHDOT
 62
     3
 10
-591.791088881054
 20
-200.079025268555
 30
0.0
 11
-615.737924639553
 21
-200.079025268555
 31
0.0
  0
LINE
  5
   37F
  8
0
  6
CONTINUOUS
 62
     7
 10
-590.482971191406
 20
-140.545973782374
 30
0.0
 11
-590.482971191406
 21
-206.676582776378
 31
0.0
  0
LINE
  5
   380
  8
0
  6
CONTINUOUS
 62
     7
 10
-617.982971191406
 20
-140.263735464277
 30
0.0
 11
-617.982971191406
 21
-206.112106140185
 31
0.0
  0
LINE
  5
   381
  8
0
  6
CONTINUOUS
 62
     7
 10
-589.468050416721
 20
-205.079025268555
 30
0.0
 11
-620.14518452983
 21
-205.079025268555
 31
0.0
  0
LINE
  5
   382
  8
0
  6
CONTINUOUS
 62
     7
 10
-588.621335462432
 20
-141.579025268555
 30
0.0
 11
-619.710971732758
 21
-141.579025268555
 31
0.0
  0
CIRCLE
  5
   383
  8
0
  6
CONTINUOUS
 62
     7
 10
-609.701721191406
 20
-146.579025268555
 30
0.0
 40
0.6875
  0
CIRCLE
  5
   384
  8
0
  6
CONTINUOUS
 62
     7
 10
-598.764221191406
 20
-146.579025268555
 30
0.0
 40
0.6875
  0
CIRCLE
  5
   385
  8
0
  6
CONTINUOUS
 62
     7
 10
-609.701721191406
 20
-200.079025268555
 30
0.0
 40
0.6875
  0
CIRCLE
  5
   386
  8
0
  6
CONTINUOUS
 62
     7
 10
-598.764221191406
 20
-200.079025268555
 30
0.0
 40
0.6875
  0
LINE
  5
   387
  8
0
  6
DASHDOT
 62
     3
 10
-609.701721191406
 20
-186.963472957732
 30
0.0
 11
-609.701721191406
 21
-203.180549117369
 31
0.0
  0
LINE
  5
   388
  8
0
  6
DASHDOT
 62
     3
 10
-598.764221191406
 20
-187.284573320973
 30
0.0
 11
-598.764221191406
 21
-202.908087925709
 31
0.0
  0
LINE
  5
   389
  8
0
  6
DASHDOT
 62
     3
 10
-583.56868080241
 20
-172.891525268555
 30
0.0
 11
-629.78053045667
 21
-172.891525268555
 31
0.0
  0
TEXT
  5
   38A
  8
0
  6
CONTINUOUS
 62
     1
 10
-535.37975978343
 20
-268.422836306742
 30
0.0
 40
2.00000008940697
  1
3POLE LOW VOLTAGE M.C.C.B SERIES ISOMAX
 50
359.999999896069
 41
0.593749948963525
 72
     1
 11
-512.342260740697
 21
-267.422836303711
 31
0.0
 73
     2
  0
TEXT
  5
   38B
  8
0
  6
CONTINUOUS
 62
     1
 10
-529.442260028368
 20
-271.422836317482
 30
0.0
 40
2.00000008940697
  1
FIXED VERSION FRONT TERMINALS
 50
359.999999896069
 41
0.593749948963525
 72
     1
 11
-512.342260740697
 21
-270.422836303711
 31
0.0
 73
     2
  0
TEXT
  5
   38C
  8
0
  6
CONTINUOUS
 62
     1
 10
-536.396119014679
 20
-276.493103034987
 30
0.0
 40
2.00000008940697
  1
INTERR.AUTOMATICO SERIE ISOMAX
 50
359.999999896069
 41
0.687499997764826
 72
     1
 11
-515.908618167043
 21
-275.493103027344
 31
0.0
 73
     2
  0
TEXT
  5
   38D
  8
0
  6
CONTINUOUS
 62
     1
 10
-541.896119242667
 20
-279.493103025038
 30
0.0
 40
2.00000008940697
  1
TRIPOL.ESECUZIONE FISSA TERMINALI ANT.
 50
359.999999896069
 41
0.687499997764826
 72
     1
 11
-515.908618167043
 21
-278.493103027344
 31
0.0
 73
     2
  0
TEXT
  5
   38E
  8
0
  6
CONTINUOUS
 62
     1
 10
-512.939086916776
 20
-286.73310853091
 30
0.0
 40
3.00000002980232
  1
S5 1000V
 50
359.999999896069
 41
0.916666604744064
 72
     2
 11
-491.489088157049
 21
-286.733108569711
 31
0.0
  0
TEXT
  5
   38F
  8
0
  6
CONTINUOUS
 62
     1
 10
-531.024780277055
 20
-295.714691307685
 30
0.0
 40
4.00000017881393
  1
RH0035/051
 50
359.999999896069
 41
0.937499973922969
 72
     2
 11
-494.274779677284
 21
-295.714691374162
 31
0.0
  0
INSERT
  5
   390
  8
0
  6
CONTINUOUS
 62
     7
  2
*UDIM230
 10
0.0
 20
0.0
 30
0.0
  0
LINE
  5
   391
  8
0
  6
DASHDOT
 62
     7
 10
-598.764221191406
 20
-145.391525268555
 30
0.0
 11
-598.764221191406
 21
-179.578164603203
 31
0.0
  0
LINE
  5
   392
  8
0
  6
DASHDOT
 62
     7
 10
-597.576721191406
 20
-146.579025268555
 30
0.0
 11
-599.951721191406
 21
-146.579025268555
 31
0.0
  0
LINE
  5
   393
  8
0
  6
DASHDOT
 62
     7
 10
-609.701721191406
 20
-145.391525268555
 30
0.0
 11
-609.701721191406
 21
-180.059815148063
 31
0.0
  0
LINE
  5
   394
  8
0
  6
DASHDOT
 62
     7
 10
-608.514221191406
 20
-146.579025268555
 30
0.0
 11
-610.889221191406
 21
-146.579025268555
 31
0.0
  0
INSERT
  5
   395
  8
0
  6
CONTINUOUS
 62
     5
  2
*UDIM231
 10
0.0
 20
0.0
 30
0.0
  0
TEXT
  5
   396
  8
0
  6
CONTINUOUS
 62
     7
 10
-605.400126769876
 20
-138.98915377776
 30
0.0
 40
3.00000002980232
  1
Y
 50
359.999999896069
 41
0.916666604744064
 72
     2
 11
-603.200126901006
 21
-138.98915378174
 31
0.0
  0
INSERT
  5
   397
  8
0
  6
CONTINUOUS
 62
     7
  2
*UDIM232
 10
0.0
 20
0.0
 30
0.0
  0
INSERT
  5
   398
  8
0
  6
CONTINUOUS
 62
     7
  2
*UDIM233
 10
0.0
 20
0.0
 30
0.0
  0
TEXT
  5
   399
  8
0
  6
CONTINUOUS
 62
     7
 10
-642.203193667264
 20
-174.76586201588
 30
0.0
 40
3.00000002980232
  1
X
 50
359.999999896069
 41
0.916666604744064
 72
     2
 11
-640.003193798394
 21
-174.76586201986
 31
0.0
  0
TEXT
  5
   39A
  8
0
  6
CONTINUOUS
 62
     7
 10
-582.23841095242
 20
-174.939547089733
 30
0.0
 40
3.00000002980232
  1
X
 50
359.999999896069
 41
0.916666604744064
 72
     2
 11
-580.038411083551
 21
-174.939547093712
 31
0.0
  0
TEXT
  5
   39B
  8
0
  6
CONTINUOUS
 62
     7
 10
-605.229974749417
 20
-212.694347409404
 30
0.0
 40
3.00000002980232
  1
Y
 50
359.999999896069
 41
0.916666604744064
 72
     2
 11
-603.029974880548
 21
-212.694347413384
 31
0.0
  0
LINE
  5
   39C
  8
0
  6
CONTINUOUS
 62
     7
 10
-684.933288574219
 20
-186.891525268555
 30
0.0
 11
-656.933288574219
 21
-186.891525268555
 31
0.0
  0
LINE
  5
   39D
  8
0
  6
CONTINUOUS
 62
     7
 10
-684.933288574219
 20
-158.891525268555
 30
0.0
 11
-656.933288574219
 21
-158.891525268555
 31
0.0
  0
LINE
  5
   39E
  8
0
  6
CONTINUOUS
 62
     7
 10
-684.933288574219
 20
-158.891525268555
 30
0.0
 11
-684.933288574219
 21
-186.891525268555
 31
0.0
  0
LINE
  5
   39F
  8
0
  6
CONTINUOUS
 62
     7
 10
-656.933288574219
 20
-158.891525268555
 30
0.0
 11
-656.933288574219
 21
-186.891525268555
 31
0.0
  0
CIRCLE
  5
   3A0
  8
0
  6
CONTINUOUS
 62
     7
 10
-680.933288574219
 20
-155.141525268555
 30
0.0
 40
0.875
  0
CIRCLE
  5
   3A1
  8
0
  6
CONTINUOUS
 62
     7
 10
-660.933288574219
 20
-155.141525268555
 30
0.0
 40
0.875
  0
CIRCLE
  5
   3A2
  8
0
  6
CONTINUOUS
 62
     7
 10
-680.933288574219
 20
-190.641525268555
 30
0.0
 40
0.875
  0
CIRCLE
  5
   3A3
  8
0
  6
CONTINUOUS
 62
     7
 10
-660.933288574219
 20
-190.641525268555
 30
0.0
 40
0.875
  0
LINE
  5
   3A4
  8
0
  6
DASHDOT
 62
     7
 10
-680.933288574219
 20
-153.516525268555
 30
0.0
 11
-680.933288574219
 21
-156.766525268555
 31
0.0
  0
LINE
  5
   3A5
  8
0
  6
DASHDOT
 62
     7
 10
-682.558288574219
 20
-155.141525268555
 30
0.0
 11
-679.308288574219
 21
-155.141525268555
 31
0.0
  0
LINE
  5
   3A6
  8
0
  6
DASHDOT
 62
     7
 10
-660.933288574219
 20
-153.516525268555
 30
0.0
 11
-660.933288574219
 21
-156.766525268555
 31
0.0
  0
LINE
  5
   3A7
  8
0
  6
DASHDOT
 62
     7
 10
-662.558288574219
 20
-155.141525268555
 30
0.0
 11
-659.308288574219
 21
-155.141525268555
 31
0.0
  0
LINE
  5
   3A8
  8
0
  6
DASHDOT
 62
     7
 10
-660.933288574219
 20
-189.016525268555
 30
0.0
 11
-660.933288574219
 21
-192.266525268555
 31
0.0
  0
LINE
  5
   3A9
  8
0
  6
DASHDOT
 62
     7
 10
-662.558288574219
 20
-190.641525268555
 30
0.0
 11
-659.308288574219
 21
-190.641525268555
 31
0.0
  0
LINE
  5
   3AA
  8
0
  6
DASHDOT
 62
     7
 10
-680.933288574219
 20
-189.016525268555
 30
0.0
 11
-680.933288574219
 21
-192.266525268555
 31
0.0
  0
LINE
  5
   3AB
  8
0
  6
DASHDOT
 62
     7
 10
-682.558288574219
 20
-190.641525268555
 30
0.0
 11
-679.308288574219
 21
-190.641525268555
 31
0.0
  0
LINE
  5
   3AC
  8
0
  6
DASHDOT
 62
     7
 10
-670.933288574219
 20
-111.001543426548
 30
0.0
 11
-670.933288574219
 21
-141.650572021194
 31
0.0
  0
LINE
  5
   3AD
  8
0
  6
CONTINUOUS
 62
     7
 10
-687.753865117885
 20
-152.490339613349
 30
0.0
 11
-653.799304894577
 21
-152.490339613349
 31
0.0
  0
LINE
  5
   3AE
  8
0
  6
CONTINUOUS
 62
     7
 10
-687.753865117885
 20
-194.055404714294
 30
0.0
 11
-653.799304894577
 21
-194.055404714294
 31
0.0
  0
LINE
  5
   3AF
  8
0
  6
CONTINUOUS
 62
     7
 10
-653.799304894577
 20
-152.490339613349
 30
0.0
 11
-653.799304894577
 21
-194.055404714294
 31
0.0
  0
LINE
  5
   3B0
  8
0
  6
CONTINUOUS
 62
     7
 10
-687.753865117885
 20
-152.490339613349
 30
0.0
 11
-687.753865117885
 21
-194.055404714294
 31
0.0
  0
LINE
  5
   3B1
  8
0
  6
DASHDOT
 62
     7
 10
-694.183617336274
 20
-172.891525268555
 30
0.0
 11
-640.716638773484
 21
-172.891525268555
 31
0.0
  0
INSERT
  5
   3B2
  8
0
  6
CONTINUOUS
 62
     7
  2
*UDIM234
 10
0.0
 20
0.0
 30
0.0
  0
INSERT
  5
   3B3
  8
0
  6
CONTINUOUS
 62
     7
  2
*UDIM235
 10
0.0
 20
0.0
 30
0.0
  0
LINE
  5
   3B4
  8
0
  6
DASHDOT
 62
     7
 10
-670.933288574219
 20
-150.48923156168
 30
0.0
 11
-670.933288574219
 21
-202.014776113376
 31
0.0
  0
TEXT
  5
   3B5
  8
0
  6
CONTINUOUS
 62
     7
 10
-705.486207069494
 20
-183.81910468697
 30
0.0
 40
3.00000002980232
  1
=      =
 50
449.999999844103
 41
0.916666604744064
 72
     2
 11
-705.486207011265
 21
-162.369105927244
 31
0.0
  0
TEXT
  5
   3B6
  8
0
  6
CONTINUOUS
 62
     7
 10
-696.615820821898
 20
-182.929024393454
 30
0.0
 40
3.00000002980232
  1
=     =
 50
449.999999844103
 41
0.916666604744064
 72
     2
 11
-696.615820771134
 21
-164.229025475278
 31
0.0
  0
INSERT
  5
   3B7
  8
0
  6
CONTINUOUS
 62
     7
  2
*UDIM236
 10
0.0
 20
0.0
 30
0.0
  0
INSERT
  5
   3B8
  8
0
  6
CONTINUOUS
 62
     7
  2
*UDIM237
 10
0.0
 20
0.0
 30
0.0
  0
INSERT
  5
   3B9
  8
0
  6
CONTINUOUS
 62
     7
  2
*UDIM238
 10
0.0
 20
0.0
 30
0.0
  0
TEXT
  5
   3BA
  8
0
  6
CONTINUOUS
 62
     7
 10
-672.121568570637
 20
-208.866619179244
 30
0.0
 40
3.00000002980232
  1
Y
 50
359.999999844103
 41
0.916666604744064
 72
     2
 11
-669.921568701767
 21
-208.866619185219
 31
0.0
  0
TEXT
  5
   3BB
  8
0
  6
CONTINUOUS
 62
     7
 10
-718.108085523151
 20
-174.123189995284
 30
0.0
 40
3.00000002980232
  1
X
 50
359.999999844103
 41
0.916666604744064
 72
     2
 11
-715.908085654281
 21
-174.123190001259
 31
0.0
  0
LINE
  5
   3BC
  8
0
  6
CONTINUOUS
 62
     7
 10
-561.077980065345
 20
0.262645605360376
 30
0.0
 11
-561.077980065345
 21
0.487631866490119
 31
0.0
  0
LINE
  5
   3BD
  8
0
  6
CONTINUOUS
 62
     7
 10
-561.077980065345
 20
7.23763168767618
 30
0.0
 11
-561.077980065345
 21
16.2376177163478
 31
0.0
  0
LINE
  5
   3BE
  8
0
  6
CONTINUOUS
 62
     7
 10
-559.952966362238
 20
0.487631866490119
 30
0.0
 11
-559.952966362238
 21
7.23763168767618
 31
0.0
  0
LINE
  5
   3BF
  8
0
  6
CONTINUOUS
 62
     7
 10
-559.952966362238
 20
0.487631866490119
 30
0.0
 11
-561.077980065345
 21
0.487631866490119
 31
0.0
  0
LINE
  5
   3C0
  8
0
  6
CONTINUOUS
 62
     7
 10
-559.952966362238
 20
7.23763168767618
 30
0.0
 11
-561.077980065345
 21
7.23763168767618
 31
0.0
  0
LINE
  5
   3C1
  8
0
  6
CONTINUOUS
 62
     7
 10
-559.952966362238
 20
16.2376177163478
 30
0.0
 11
-559.952966362238
 21
22.9876175375339
 31
0.0
  0
LINE
  5
   3C2
  8
0
  6
CONTINUOUS
 62
     7
 10
-559.952966362238
 20
16.2376177163478
 30
0.0
 11
-561.077980065345
 21
16.2376177163478
 31
0.0
  0
LINE
  5
   3C3
  8
0
  6
CONTINUOUS
 62
     7
 10
-559.952966362238
 20
22.9876175375339
 30
0.0
 11
-561.077980065345
 21
22.9876175375339
 31
0.0
  0
LINE
  5
   3C4
  8
0
  6
CONTINUOUS
 62
     7
 10
-530.252987748384
 20
0.262631872450584
 30
0.0
 11
-530.252987748384
 21
25.0126174838897
 31
0.0
  0
LINE
  5
   3C5
  8
0
  6
CONTINUOUS
 62
     2
 10
-560.402976852014
 20
44.1376375766149
 30
0.0
 11
-561.077966332436
 21
44.1376375766149
 31
0.0
  0
LINE
  5
   3C6
  8
0
  6
CONTINUOUS
 62
     2
 10
-561.077976995694
 20
24.7876174898501
 30
0.0
 11
-561.077970334554
 21
34.0641980546516
 31
0.0
  0
LINE
  5
   3C7
  8
0
  6
CONTINUOUS
 62
     7
 10
-528.677980923652
 20
32.8876172752734
 30
0.0
 11
-530.252980881929
 21
32.8876172752734
 31
0.0
  0
LINE
  5
   3C8
  8
0
  6
CONTINUOUS
 62
     7
 10
-530.252991672097
 20
25.0126135602437
 30
0.0
 11
-530.252984805643
 21
32.8876133516275
 31
0.0
  0
LINE
  5
   3C9
  8
0
  6
CONTINUOUS
 62
     7
 10
-559.277980113029
 20
25.9126174600478
 30
0.0
 11
-561.077980065345
 21
25.9126174600478
 31
0.0
  0
LINE
  5
   3CA
  8
0
  6
CONTINUOUS
 62
     7
 10
-559.277978968785
 20
25.9126117382714
 30
0.0
 11
-559.277976669854
 21
26.8165881810196
 31
0.0
  0
LINE
  5
   3CB
  8
0
  6
CONTINUOUS
 62
     7
 10
-530.252987748384
 20
-4.0123611478457
 30
0.0
 11
-530.252987748384
 21
0.262645605360376
 31
0.0
  0
LINE
  5
   3CC
  8
0
  6
CONTINUOUS
 62
     7
 10
-561.07797547565
 20
-31.4623489735103
 30
0.0
 11
-561.077961742741
 21
-31.3299431773906
 31
0.0
  0
LINE
  5
   3CD
  8
0
  6
CONTINUOUS
 62
     7
 10
-561.077962624606
 20
-24.3947565666541
 30
0.0
 11
-561.077976357515
 21
0.262641766964293
 31
0.0
  0
LINE
  5
   3CE
  8
0
  6
CONTINUOUS
 62
     7
 10
-529.127980911731
 20
-25.3873537151467
 30
0.0
 11
-559.72799520731
 21
-25.3873537151467
 31
0.0
  0
LINE
  5
   3CF
  8
0
  6
CONTINUOUS
 62
     7
 10
-529.127980911731
 20
-30.3373535840165
 30
0.0
 11
-559.72799520731
 21
-30.3373535840165
 31
0.0
  0
LINE
  5
   3D0
  8
0
  6
CONTINUOUS
 62
     7
 10
-557.373553615167
 20
-25.3873491389966
 30
0.0
 11
-561.077964674338
 21
-24.3947520235298
 31
0.0
  0
LINE
  5
   3D1
  8
0
  6
CONTINUOUS
 62
     7
 10
-561.077962598046
 20
-31.3299470247544
 30
0.0
 11
-557.373551453579
 21
-30.3373531030926
 31
0.0
  0
LINE
  5
   3D2
  8
0
  6
CONTINUOUS
 62
     7
 10
-528.677987790107
 20
-24.0373537509095
 30
0.0
 11
-532.27798769474
 21
-24.0373537509095
 31
0.0
  0
LINE
  5
   3D3
  8
0
  6
CONTINUOUS
 62
     7
 10
-532.27798769474
 20
-24.0373537509095
 30
0.0
 11
-532.27798769474
 21
-4.91236112400384
 31
0.0
  0
LINE
  5
   3D4
  8
0
  6
CONTINUOUS
 62
     7
 10
-560.627966344357
 20
-27.637353655542
 30
0.0
 11
-560.627966344357
 21
-24.5153345426907
 31
0.0
  0
LINE
  5
   3D5
  8
0
  6
CONTINUOUS
 62
     7
 10
-560.627972682607
 20
-31.2093682828611
 30
0.0
 11
-560.627965816157
 21
-30.7873490984841
 31
0.0
  0
LINE
  5
   3D6
  8
0
  6
CONTINUOUS
 62
     2
 10
-561.077966332436
 20
-24.0373537509095
 30
0.0
 11
-561.977966308594
 21
-24.0373537509095
 31
0.0
  0
LINE
  5
   3D7
  8
0
  6
CONTINUOUS
 62
     2
 10
-561.077966332436
 20
-21.5623538164746
 30
0.0
 11
-561.977966308594
 21
-21.5623538164746
 31
0.0
  0
LINE
  5
   3D8
  8
0
  6
CONTINUOUS
 62
     7
 10
-528.677997514606
 20
-30.787336010309
 30
0.0
 11
-529.127990621562
 21
-30.3373429033529
 31
0.0
  0
LINE
  5
   3D9
  8
0
  6
CONTINUOUS
 62
     7
 10
-529.127986598167
 20
-25.3873530842662
 30
0.0
 11
-528.677986625491
 21
-24.93735311159
 31
0.0
  0
LINE
  5
   3DA
  8
0
  6
CONTINUOUS
 62
     7
 10
-530.252987748384
 20
-4.91236112400384
 30
0.0
 11
-530.252987748384
 21
-4.0123611478457
 31
0.0
  0
LINE
  5
   3DB
  8
0
  6
CONTINUOUS
 62
     2
 10
-560.177966356278
 20
-39.5623396067271
 30
0.0
 11
-561.977966308594
 21
-39.5623396067271
 31
0.0
  0
LINE
  5
   3DC
  8
0
  6
CONTINUOUS
 62
     7
 10
-561.077980065345
 20
-33.2623535065304
 30
0.0
 11
-561.077980065345
 21
-31.4623535542141
 31
0.0
  0
LINE
  5
   3DD
  8
0
  6
CONTINUOUS
 62
     7
 10
-528.677987790107
 20
-37.3123396663323
 30
0.0
 11
-533.177980804443
 21
-37.3123396663323
 31
0.0
  0
LINE
  5
   3DE
  8
0
  6
CONTINUOUS
 62
     7
 10
-533.177980804443
 20
-39.5623396067276
 30
0.0
 11
-533.177980804443
 21
-37.3123396663323
 31
0.0
  0
LINE
  5
   3DF
  8
0
  6
CONTINUOUS
 62
     7
 10
-561.077980065345
 20
-38.437331122142
 30
0.0
 11
-561.077980065345
 21
-33.2623535065304
 31
0.0
  0
LINE
  5
   3E0
  8
0
  6
CONTINUOUS
 62
     2
 10
-561.077980065345
 20
24.7876174898502
 30
0.0
 11
-561.302966326475
 21
24.7876174898502
 31
0.0
  0
LINE
  5
   3E1
  8
0
  6
CONTINUOUS
 62
     7
 10
-561.077973198891
 20
-6.93735420390476
 30
0.0
 11
-561.302966326475
 21
-6.93735420390476
 31
0.0
  0
LINE
  5
   3E2
  8
0
  6
CONTINUOUS
 62
     7
 10
-561.077966332436
 20
-21.3373521058213
 30
0.0
 11
-561.302966326475
 21
-21.3373521058213
 31
0.0
  0
LINE
  5
   3E3
  8
0
  6
CONTINUOUS
 62
     7
 10
-560.627966344357
 20
-24.7123533038746
 30
0.0
 11
-561.302966326475
 21
-24.7123533038746
 31
0.0
  0
LINE
  5
   3E4
  8
0
  6
CONTINUOUS
 62
     7
 10
-561.077980065345
 20
-31.9123466758383
 30
0.0
 11
-561.302966326475
 21
-31.9123466758383
 31
0.0
  0
LINE
  5
   3E5
  8
0
  6
CONTINUOUS
 62
     2
 10
-561.302966326475
 20
-38.0323353493483
 30
0.0
 11
-561.302966326475
 21
-24.0373606173644
 31
0.0
  0
LINE
  5
   3E6
  8
0
  6
CONTINUOUS
 62
     2
 10
-561.302966326475
 20
-21.5623606829295
 30
0.0
 11
-561.302966326475
 21
24.7876106233953
 31
0.0
  0
LINE
  5
   3E7
  8
0
  6
CONTINUOUS
 62
     7
 10
-560.627966344357
 20
16.2376383157125
 30
0.0
 11
-560.627966344357
 21
22.9876175375339
 31
0.0
  0
LINE
  5
   3E8
  8
0
  6
CONTINUOUS
 62
     7
 10
-560.627966344357
 20
0.487659332309704
 30
0.0
 11
-560.627966344357
 21
7.23765228704087
 31
0.0
  0
LINE
  5
   3E9
  8
0
  6
CONTINUOUS
 62
     7
 10
-560.627966344357
 20
-30.787319239821
 30
0.0
 11
-560.627966344357
 21
-27.6373193232675
 31
0.0
  0
LINE
  5
   3EA
  8
0
  6
CONTINUOUS
 62
     2
 10
-561.122969845308
 20
-38.2123318305156
 30
0.0
 11
-561.302967091883
 21
-38.0323345839406
 31
0.0
  0
LINE
  5
   3EB
  8
0
  6
CONTINUOUS
 62
     2
 10
-561.077966332436
 20
31.9876172991153
 30
0.0
 11
-561.977966308594
 21
31.9876172991153
 31
0.0
  0
LINE
  5
   3EC
  8
0
  6
CONTINUOUS
 62
     2
 10
-561.077966332436
 20
36.9376171679851
 30
0.0
 11
-561.977966308594
 21
36.9376171679851
 31
0.0
  0
LINE
  5
   3ED
  8
0
  6
CONTINUOUS
 62
     2
 10
-561.077966332436
 20
35.7278576785484
 30
0.0
 11
-561.977966308594
 21
35.7278576785484
 31
0.0
  0
LINE
  5
   3EE
  8
0
  6
CONTINUOUS
 62
     2
 10
-561.077966332436
 20
34.0641980546516
 30
0.0
 11
-561.977966308594
 21
34.0641980546516
 31
0.0
  0
LINE
  5
   3EF
  8
0
  6
CONTINUOUS
 62
     7
 10
-530.0279946208
 20
1.61261622400012
 30
0.0
 11
-530.0279946208
 21
26.1376361736742
 31
0.0
  0
LINE
  5
   3F0
  8
0
  6
CONTINUOUS
 62
     7
 10
-517.428015553955
 20
33.3376303554044
 30
0.0
 11
-517.428015553955
 21
44.1376300693021
 31
0.0
  0
LINE
  5
   3F1
  8
0
  6
CONTINUOUS
 62
     7
 10
-517.427981221676
 20
33.3376326441956
 30
0.0
 11
-517.652981215715
 21
33.3376326441956
 31
0.0
  0
LINE
  5
   3F2
  8
0
  6
CONTINUOUS
 62
     7
 10
-517.652981215715
 20
33.112632650156
 30
0.0
 11
-517.652981215715
 21
33.3376326441956
 31
0.0
  0
LINE
  5
   3F3
  8
0
  6
CONTINUOUS
 62
     7
 10
-528.677980923652
 20
32.6626257956221
 30
0.0
 11
-528.677980923652
 21
33.112632650156
 31
0.0
  0
LINE
  5
   3F4
  8
0
  6
CONTINUOUS
 62
     7
 10
-528.67798705833
 20
42.877623665233
 30
0.0
 11
-528.677980191875
 21
44.1376387375406
 31
0.0
  0
LINE
  5
   3F5
  8
0
  6
CONTINUOUS
 62
     7
 10
-517.427977788453
 20
44.1376460909957
 30
0.0
 11
-528.67797749043
 21
44.1376460909957
 31
0.0
  0
LINE
  5
   3F6
  8
0
  6
CONTINUOUS
 62
     7
 10
-518.552981191873
 20
33.112632650156
 30
0.0
 11
-518.687982561588
 21
33.112632650156
 31
0.0
  0
LINE
  5
   3F7
  8
0
  6
CONTINUOUS
 62
     7
 10
-528.677980923652
 20
32.6626395285319
 30
0.0
 11
-530.02798088789
 21
32.6626395285319
 31
0.0
  0
LINE
  5
   3F8
  8
0
  6
CONTINUOUS
 62
     7
 10
-530.02798088789
 20
26.1376397013853
 30
0.0
 11
-530.02798088789
 21
32.6626395285319
 31
0.0
  0
LINE
  5
   3F9
  8
0
  6
CONTINUOUS
 62
     7
 10
-528.678001523017
 20
-36.8623517632297
 30
0.0
 11
-528.678001523017
 21
-33.5878767523174
 31
0.0
  0
LINE
  5
   3FA
  8
0
  6
CONTINUOUS
 62
     7
 10
-530.027987754344
 20
-3.78736637232777
 30
0.0
 11
-530.027987754344
 21
1.61261975171129
 31
0.0
  0
LINE
  5
   3FB
  8
0
  6
CONTINUOUS
 62
     7
 10
-530.027987754344
 20
-4.91238007543524
 30
0.0
 11
-530.477987742424
 21
-4.91238007543524
 31
0.0
  0
LINE
  5
   3FC
  8
0
  6
CONTINUOUS
 62
     7
 10
-518.687996634714
 20
-38.2123379945475
 30
0.0
 11
-528.678001863234
 21
-38.2123379945475
 31
0.0
  0
LINE
  5
   3FD
  8
0
  6
CONTINUOUS
 62
     7
 10
-528.678001523017
 20
-38.2123517274669
 30
0.0
 11
-528.678001523017
 21
-36.8623517632297
 31
0.0
  0
LINE
  5
   3FE
  8
0
  6
CONTINUOUS
 62
     7
 10
-528.677994656562
 20
-33.5878767523174
 30
0.0
 11
-528.677994656562
 21
-30.4498477884755
 31
0.0
  0
LINE
  5
   3FF
  8
0
  6
CONTINUOUS
 62
     7
 10
-518.553001791238
 20
-39.562358558159
 30
0.0
 11
-518.553001791238
 21
-38.2123585939218
 31
0.0
  0
LINE
  5
   400
  8
0
  6
CONTINUOUS
 62
     7
 10
-518.553001791238
 20
-38.2123585939218
 30
0.0
 11
-518.687996267676
 21
-38.2123585939218
 31
0.0
  0
LINE
  5
   401
  8
0
  6
CONTINUOUS
 62
     7
 10
-530.477987742424
 20
-4.91238007543524
 30
0.0
 11
-532.27798769474
 21
-4.91238007543524
 31
0.0
  0
LINE
  5
   402
  8
0
  6
CONTINUOUS
 62
     7
 10
-530.027987754344
 20
-4.91238007543524
 30
0.0
 11
-530.027987754344
 21
-3.78736637232777
 31
0.0
  0
LINE
  5
   403
  8
0
  6
CONTINUOUS
 62
     7
 10
-518.687998165757
 20
-30.4498382001854
 30
0.0
 11
-528.677996527822
 21
-30.4498382001854
 31
0.0
  0
LINE
  5
   404
  8
0
  6
CONTINUOUS
 62
     7
 10
-518.688001475265
 20
-25.2748383372773
 30
0.0
 11
-528.677999837329
 21
-25.2748383372773
 31
0.0
  0
LINE
  5
   405
  8
0
  6
CONTINUOUS
 62
     7
 10
-528.093433220752
 20
-36.524844069674
 30
0.0
 11
-528.003002023937
 21
-36.1873440832741
 31
0.0
  0
LINE
  5
   406
  8
0
  6
CONTINUOUS
 62
     7
 10
-528.340497328111
 20
-36.7719161425854
 30
0.0
 11
-528.093435430806
 21
-36.5248473726833
 31
0.0
  0
LINE
  5
   407
  8
0
  6
CONTINUOUS
 62
     7
 10
-528.678009301445
 20
-36.862341217174
 30
0.0
 11
-528.34050245754
 21
-36.7719100134764
 31
0.0
  0
LINE
  5
   408
  8
0
  6
CONTINUOUS
 62
     7
 10
-528.340498697445
 20
-31.552782137863
 30
0.0
 11
-528.67799868603
 21
-31.4623440683842
 31
0.0
  0
LINE
  5
   409
  8
0
  6
CONTINUOUS
 62
     7
 10
-528.093437372683
 20
-31.7998478171561
 30
0.0
 11
-528.340499273426
 21
-31.552785916413
 31
0.0
  0
LINE
  5
   40A
  8
0
  6
CONTINUOUS
 62
     7
 10
-528.003006694867
 20
-32.1373471825659
 30
0.0
 11
-528.093444764345
 21
-31.7998471939813
 31
0.0
  0
LINE
  5
   40B
  8
0
  6
CONTINUOUS
 62
     7
 10
-528.00300535558
 20
-36.1873491086824
 30
0.0
 11
-528.002998489125
 21
-32.1373492159708
 31
0.0
  0
LINE
  5
   40C
  8
0
  6
CONTINUOUS
 62
     7
 10
-518.687996294498
 20
-38.2123585939218
 30
0.0
 11
-518.687996294498
 21
33.1126270194028
 31
0.0
  0
LINE
  5
   40D
  8
0
  6
CONTINUOUS
 62
     7
 10
-518.687975695133
 20
42.8776378846358
 30
0.0
 11
-538.876909485496
 21
42.8776378846358
 31
0.0
  0
LINE
  5
   40E
  8
0
  6
CONTINUOUS
 62
     7
 10
-518.688023760323
 20
33.1126295492214
 30
0.0
 11
-518.688023760323
 21
42.8776347837012
 31
0.0
  0
LINE
  5
   40F
  8
0
  6
CONTINUOUS
 62
     7
 10
-528.677980923652
 20
33.1126395166109
 30
0.0
 11
-528.677980923652
 21
42.8776378846358
 31
0.0
  0
LINE
  5
   410
  8
0
  6
CONTINUOUS
 62
     7
 10
-511.352974516153
 20
-35.8498311906871
 30
0.0
 11
-511.352974516153
 21
-27.2998536644827
 31
0.0
  0
LINE
  5
   411
  8
0
  6
CONTINUOUS
 62
     7
 10
-511.352974516153
 20
10.3876538515276
 30
0.0
 11
-511.352974516153
 21
10.5001538485474
 31
0.0
  0
LINE
  5
   412
  8
0
  6
CONTINUOUS
 62
     7
 10
-513.827974450588
 20
11.4001538247056
 30
0.0
 11
-515.402974408865
 21
11.4001538247056
 31
0.0
  0
LINE
  5
   413
  8
0
  6
CONTINUOUS
 62
     7
 10
-513.827974450588
 20
-35.8498311906871
 30
0.0
 11
-515.402974408865
 21
-35.8498311906871
 31
0.0
  0
LINE
  5
   414
  8
0
  6
CONTINUOUS
 62
     7
 10
-518.552974325418
 20
-43.162330996972
 30
0.0
 11
-518.552974325418
 21
-38.2123585939218
 31
0.0
  0
LINE
  5
   415
  8
0
  6
CONTINUOUS
 62
     7
 10
-516.302974385023
 20
-43.162330996972
 30
0.0
 11
-516.302974385023
 21
-35.8498311906871
 31
0.0
  0
LINE
  5
   416
  8
0
  6
CONTINUOUS
 62
     7
 10
-516.302974385023
 20
11.4001538247056
 30
0.0
 11
-516.302974385023
 21
33.1126532495207
 31
0.0
  0
LINE
  5
   417
  8
0
  6
CONTINUOUS
 62
     7
 10
-516.302974385023
 20
33.1126532495207
 30
0.0
 11
-518.552974325418
 21
33.1126532495207
 31
0.0
  0
LINE
  5
   418
  8
0
  6
CONTINUOUS
 62
     7
 10
-516.302974385023
 20
-43.162330996972
 30
0.0
 11
-518.552974325418
 21
-43.162330996972
 31
0.0
  0
LINE
  5
   419
  8
0
  6
CONTINUOUS
 62
     7
 10
-515.402974408865
 20
-35.8498311906871
 30
0.0
 11
-515.402974408865
 21
11.4001538247056
 31
0.0
  0
LINE
  5
   41A
  8
0
  6
CONTINUOUS
 62
     7
 10
-515.402974408865
 20
-35.8498311906871
 30
0.0
 11
-516.302974385023
 21
-35.8498311906871
 31
0.0
  0
LINE
  5
   41B
  8
0
  6
CONTINUOUS
 62
     7
 10
-515.402974408865
 20
11.4001538247056
 30
0.0
 11
-516.302974385023
 21
11.4001538247056
 31
0.0
  0
LINE
  5
   41C
  8
0
  6
CONTINUOUS
 62
     7
 10
-518.688006716601
 20
-25.0273658532171
 30
0.0
 11
-518.553005353146
 21
-25.0155555522413
 31
0.0
  0
LINE
  5
   41D
  8
0
  6
CONTINUOUS
 62
     7
 10
-518.552982145715
 20
-30.7091671467006
 30
0.0
 11
-518.687983512945
 21
-30.6973499792479
 31
0.0
  0
LINE
  5
   41E
  8
0
  6
CONTINUOUS
 62
     7
 10
-528.677994656562
 20
-25.2748479255649
 30
0.0
 11
-528.677994656562
 21
-24.037365835886
 31
0.0
  0
LINE
  5
   41F
  8
0
  6
CONTINUOUS
 62
   218
 10
-518.687976124287
 20
-68.9023306584178
 30
0.0
 11
-540.108190786566
 21
-68.9023306584178
 31
0.0
  0
LINE
  5
   420
  8
0
  6
CONTINUOUS
 62
     2
 10
-560.177966356278
 20
-38.437331122142
 30
0.0
 11
-561.977966308594
 21
-38.437331122142
 31
0.0
  0
LINE
  5
   421
  8
0
  6
CONTINUOUS
 62
     7
 10
-518.687968828678
 20
-38.437331122142
 30
0.0
 11
-526.427974116802
 21
-38.437331122142
 31
0.0
  0
LINE
  5
   422
  8
0
  6
CONTINUOUS
 62
   218
 10
-517.427967488766
 20
-70.1623302817165
 30
0.0
 11
-517.427967488766
 21
-59.3623374342737
 31
0.0
  0
LINE
  5
   423
  8
0
  6
CONTINUOUS
 62
     2
 10
-560.177966356278
 20
-39.5623310923397
 30
0.0
 11
-560.177966356278
 21
-38.437331122142
 31
0.0
  0
LINE
  5
   424
  8
0
  6
CONTINUOUS
 62
   218
 10
-518.687972519593
 20
-57.5623374823604
 30
0.0
 11
-518.552974325452
 21
-57.5623358978188
 31
0.0
  0
LINE
  5
   425
  8
0
  6
CONTINUOUS
 62
   218
 10
-517.427967488766
 20
-59.3623374342737
 30
0.0
 11
-518.687968828678
 21
-59.3623374342737
 31
0.0
  0
LINE
  5
   426
  8
0
  6
CONTINUOUS
 62
   218
 10
-518.687968828678
 20
-68.9023289418041
 30
0.0
 11
-518.687968828678
 21
-57.5623306155025
 31
0.0
  0
LINE
  5
   427
  8
0
  6
CONTINUOUS
 62
   218
 10
-518.687968828678
 20
-57.5623306155025
 30
0.0
 11
-518.687968828678
 21
-38.437331122142
 31
0.0
  0
LINE
  5
   428
  8
0
  6
CONTINUOUS
 62
     7
 10
-518.552974325418
 20
-43.6123309850513
 30
0.0
 11
-518.687968828678
 21
-43.6123309850513
 31
0.0
  0
LINE
  5
   429
  8
0
  6
CONTINUOUS
 62
   218
 10
-561.977966308447
 20
-54.8623375530377
 30
0.0
 11
-561.077966761462
 21
-54.8623306865828
 31
0.0
  0
LINE
  5
   42A
  8
0
  6
CONTINUOUS
 62
   218
 10
-561.077966761589
 20
-70.1623302817163
 30
0.0
 11
-561.077966761589
 21
-54.8623375534827
 31
0.0
  0
LINE
  5
   42B
  8
0
  6
CONTINUOUS
 62
   218
 10
-561.077966332436
 20
-59.699837425333
 30
0.0
 11
-561.977966308594
 21
-59.699837425333
 31
0.0
  0
LINE
  5
   42C
  8
0
  6
CONTINUOUS
 62
     7
 10
-528.67797920607
 20
-38.4373311201122
 30
0.0
 11
-528.677972339615
 21
-37.5373311439335
 31
0.0
  0
LINE
  5
   42D
  8
0
  6
CONTINUOUS
 62
     7
 10
-528.677967190742
 20
-37.5373311459838
 30
0.0
 11
-533.177967071533
 21
-37.5373311459838
 31
0.0
  0
LINE
  5
   42E
  8
0
  6
CONTINUOUS
 62
     7
 10
-526.427974116802
 20
-38.437331122142
 30
0.0
 11
-528.677974057197
 21
-38.437331122142
 31
0.0
  0
LINE
  5
   42F
  8
0
  6
CONTINUOUS
 62
   218
 10
-561.077966332436
 20
-63.6227533999787
 30
0.0
 11
-561.977966308594
 21
-63.6227533999787
 31
0.0
  0
LINE
  5
   430
  8
0
  6
CONTINUOUS
 62
   218
 10
-561.077966332436
 20
-62.5189085481629
 30
0.0
 11
-561.977966308594
 21
-62.5189085481629
 31
0.0
  0
LINE
  5
   431
  8
0
  6
CONTINUOUS
 62
   218
 10
-561.077966332436
 20
-59.757337118634
 30
0.0
 11
-561.977966308594
 21
-59.757337118634
 31
0.0
  0
LINE
  5
   432
  8
0
  6
CONTINUOUS
 62
     7
 10
-516.302974385023
 20
-43.3873309910115
 30
0.0
 11
-518.552974325418
 21
-43.3873309910115
 31
0.0
  0
LINE
  5
   433
  8
0
  6
CONTINUOUS
 62
     7
 10
-516.302974385023
 20
-59.137330573779
 30
0.0
 11
-518.552974325418
 21
-59.137330573779
 31
0.0
  0
LINE
  5
   434
  8
0
  6
CONTINUOUS
 62
     7
 10
-516.302974385023
 20
-59.137330573779
 30
0.0
 11
-516.302974385023
 21
-43.3873309910115
 31
0.0
  0
LINE
  5
   435
  8
0
  6
CONTINUOUS
 62
     7
 10
-517.202974361181
 20
-59.137330573779
 30
0.0
 11
-517.202974361181
 21
-43.3873309910115
 31
0.0
  0
LINE
  5
   436
  8
0
  6
CONTINUOUS
 62
     7
 10
-518.552974325418
 20
-59.137330573779
 30
0.0
 11
-518.552974325418
 21
-43.3873309910115
 31
0.0
  0
ARC
  5
   437
  8
0
  6
CONTINUOUS
 62
     7
 10
-502.049201015888
 20
-22.1445782130307
 30
0.0
 40
0.449999896169188
 50
348.623573369035
 51
436.688788706936
  0
ARC
  5
   438
  8
0
  6
CONTINUOUS
 62
     7
 10
-502.587735981548
 20
-24.8210962277261
 30
0.0
 40
0.450000323440095
 50
260.593992196011
 51
348.623573369035
  0
LINE
  5
   439
  8
0
  6
DASHDOT
 62
     7
 10
-495.388938099128
 20
-24.8934757143173
 30
0.0
 11
-517.9414464127
 21
-20.3557476834176
 31
0.0
  0
LINE
  5
   43A
  8
0
  6
CONTINUOUS
 62
     7
 10
-501.945593043521
 20
-21.7066684019025
 30
0.0
 11
-511.352974516153
 21
-19.4809139316902
 31
0.0
  0
LINE
  5
   43B
  8
0
  6
CONTINUOUS
 62
     7
 10
-502.146577192843
 20
-24.90986057153
 30
0.0
 11
-501.608042375047
 21
-22.2333425270833
 31
0.0
  0
LINE
  5
   43C
  8
0
  6
CONTINUOUS
 62
     7
 10
-502.661279244334
 20
-25.2650461665497
 30
0.0
 11
-511.352974516153
 21
-23.8252089832812
 31
0.0
  0
LINE
  5
   43D
  8
0
  6
CONTINUOUS
 62
     7
 10
-559.72799520731
 20
-30.3373535840165
 30
0.0
 11
-559.72799520731
 21
-25.3873537151467
 31
0.0
  0
LINE
  5
   43E
  8
0
  6
CONTINUOUS
 62
     7
 10
-551.1779779547
 20
40.5376376719823
 30
0.0
 11
-552.97797704871
 21
40.5376376719823
 31
0.0
  0
LINE
  5
   43F
  8
0
  6
DASHDOT
 62
     7
 10
-543.661203857691
 20
36.0376608134112
 30
0.0
 11
-556.321181338011
 21
36.0376608134112
 31
0.0
  0
LINE
  5
   440
  8
0
  6
CONTINUOUS
 62
     7
 10
-546.156040199123
 20
26.8165881810196
 30
0.0
 11
-537.839113079164
 21
45.1674854392521
 31
0.0
  0
LINE
  5
   441
  8
0
  6
CONTINUOUS
 62
     7
 10
-550.727977966621
 20
26.8165881810196
 30
0.0
 11
-550.727977966621
 21
33.7876608730159
 31
0.0
  0
LINE
  5
   442
  8
0
  6
CONTINUOUS
 62
     7
 10
-552.97797704871
 20
26.8165881810196
 30
0.0
 11
-552.97797704871
 21
33.7876608730159
 31
0.0
  0
LINE
  5
   443
  8
0
  6
CONTINUOUS
 62
     2
 10
-561.077969139946
 20
35.7278576785484
 30
0.0
 11
-561.077963101221
 21
44.1376370919293
 31
0.0
  0
LINE
  5
   444
  8
0
  6
CONTINUOUS
 62
     7
 10
-544.424267450019
 20
30.6376609564624
 30
0.0
 11
-550.727977966621
 21
30.6376609564624
 31
0.0
  0
LINE
  5
   445
  8
0
  6
CONTINUOUS
 62
     7
 10
-545.240056902092
 20
28.8376610041461
 30
0.0
 11
-550.727977966621
 21
28.8376610041461
 31
0.0
  0
LINE
  5
   446
  8
0
  6
CONTINUOUS
 62
     2
 10
-528.677994656562
 20
44.1376375766149
 30
0.0
 11
-552.527977060631
 21
44.1376375766149
 31
0.0
  0
LINE
  5
   447
  8
0
  6
DASHDOT
 62
     7
 10
-562.427966296673
 20
-78.7945524324534
 30
0.0
 11
-562.427966296673
 21
-70.1623302817163
 31
0.0
  0
LINE
  5
   448
  8
0
  6
DASHDOT
 62
     7
 10
-563.77796626091
 20
-78.7945524324534
 30
0.0
 11
-563.77796626091
 21
51.8381320089326
 31
0.0
  0
LINE
  5
   449
  8
0
  6
CONTINUOUS
 62
     7
 10
-560.569591782893
 20
51.8381320089326
 30
0.0
 11
-565.131597946866
 21
51.8381320089326
 31
0.0
  0
LINE
  5
   44A
  8
0
  6
CONTINUOUS
 62
     7
 10
-515.346626358808
 20
-78.7945524324534
 30
0.0
 11
-567.303981834472
 21
-78.7945524324534
 31
0.0
  0
ARC
  5
   44B
  8
0
  6
CONTINUOUS
 62
     7
 10
-535.427973878384
 20
-16.8373316943463
 30
0.0
 40
34.2198362679942
 50
333.082565820193
 51
379.93594827737
  0
LINE
  5
   44C
  8
0
  6
CONTINUOUS
 62
     7
 10
-501.208137610389
 20
-16.8373316943464
 30
0.0
 11
-501.208137610389
 21
2.66984335277901
 31
0.0
  0
LINE
  5
   44D
  8
0
  6
CONTINUOUS
 62
     7
 10
-546.156040199123
 20
26.8165881810196
 30
0.0
 11
-563.061642672889
 21
26.8165881810196
 31
0.0
  0
LINE
  5
   44E
  8
0
  6
CONTINUOUS
 62
     7
 10
-552.97797704871
 20
28.1626379998079
 30
0.0
 11
-555.227976989105
 21
28.1626379998079
 31
0.0
  0
LINE
  5
   44F
  8
0
  6
CONTINUOUS
 62
     7
 10
-556.574026807893
 20
26.8165881810196
 30
0.0
 11
-555.227976989105
 21
28.1626379998078
 31
0.0
  0
LINE
  5
   450
  8
0
  6
DASHDOT
 62
     7
 10
-543.661203857691
 20
-62.0623826322655
 30
0.0
 11
-556.321181338011
 21
-62.0623826322655
 31
0.0
  0
LINE
  5
   451
  8
0
  6
CONTINUOUS
 62
     7
 10
-550.727977108314
 20
-66.5623594908366
 30
0.0
 11
-552.97797704871
 21
-66.5623594908366
 31
0.0
  0
LINE
  5
   452
  8
0
  6
CONTINUOUS
 62
     7
 10
-552.97797704871
 20
-66.5623594908366
 30
0.0
 11
-552.97797704871
 21
-52.8413099998739
 31
0.0
  0
LINE
  5
   453
  8
0
  6
CONTINUOUS
 62
     7
 10
-550.727977966621
 20
-59.7673826930622
 30
0.0
 11
-550.727977966621
 21
-52.8413099998739
 31
0.0
  0
LINE
  5
   454
  8
0
  6
CONTINUOUS
 62
     7
 10
-543.589512674831
 20
-52.8413099998739
 30
0.0
 11
-566.076822175603
 21
-52.8413099998739
 31
0.0
  0
LINE
  5
   455
  8
0
  6
CONTINUOUS
 62
     7
 10
-539.377493403015
 20
-71.5624511985359
 30
0.0
 11
-544.703435126882
 21
-52.1732385175301
 31
0.0
  0
LINE
  5
   456
  8
0
  6
CONTINUOUS
 62
   218
 10
-517.427967917919
 20
-70.1623302817163
 30
0.0
 11
-552.527977060631
 21
-70.1623302817163
 31
0.0
  0
INSERT
  5
   457
  8
0
  6
CONTINUOUS
 62
     7
  2
*HATCH92
 10
-561.977966308594
 20
-61.7190437316895
 30
0.0
 41
0.449999988079071
 42
0.449999988079071
 50
89.9999999480344
 43
0.449999988079071
  0
INSERT
  5
   458
  8
0
  6
CONTINUOUS
 62
     7
  2
*HATCH93
 10
-561.977966308594
 20
-61.7190437316895
 30
0.0
 41
0.449999988079071
 42
0.449999988079071
 50
89.9999999480344
 43
0.449999988079071
  0
LINE
  5
   459
  8
0
  6
CONTINUOUS
 62
     7
 10
-552.97797704871
 20
-55.3123828110794
 30
0.0
 11
-561.077966761589
 21
-55.3123828110794
 31
0.0
  0
LINE
  5
   45A
  8
0
  6
CONTINUOUS
 62
     7
 10
-552.97797704871
 20
-53.5123828587631
 30
0.0
 11
-561.977966308594
 21
-53.5123828587631
 31
0.0
  0
LINE
  5
   45B
  8
0
  6
CONTINUOUS
 62
     7
 10
-543.346722255037
 20
-56.6623827753166
 30
0.0
 11
-550.727977966621
 21
-56.6623827753166
 31
0.0
  0
INSERT
  5
   45C
  8
0
  6
CONTINUOUS
 62
     7
  2
*HATCH94
 10
-561.977966308594
 20
-61.7190437316895
 30
0.0
 41
0.449999988079071
 42
0.449999988079071
 50
89.9999999480344
 43
0.449999988079071
  0
LINE
  5
   45D
  8
0
  6
CONTINUOUS
 62
     7
 10
-543.841156712316
 20
-54.8623828230003
 30
0.0
 11
-550.727977966621
 21
-54.8623828230003
 31
0.0
  0
INSERT
  5
   45E
  8
0
  6
CONTINUOUS
 62
     7
  2
*HATCH95
 10
-561.977966308594
 20
-61.7190437316895
 30
0.0
 41
0.449999988079071
 42
0.449999988079071
 50
89.9999999480344
 43
0.449999988079071
  0
LINE
  5
   45F
  8
0
  6
CONTINUOUS
 62
     7
 10
-533.177980804443
 20
-39.5623396067271
 30
0.0
 11
-560.177966356278
 21
-39.5623396067271
 31
0.0
  0
LINE
  5
   460
  8
0
  6
CONTINUOUS
 62
     7
 10
-511.352974516153
 20
-5.92485423072685
 30
0.0
 11
-511.352974516153
 21
11.4001538247056
 31
0.0
  0
LINE
  5
   461
  8
0
  6
CONTINUOUS
 62
     7
 10
-511.352974516153
 20
-11.7748540757548
 30
0.0
 11
-511.352974516153
 21
-6.37485421880592
 31
0.0
  0
LINE
  5
   462
  8
0
  6
CONTINUOUS
 62
     7
 10
-511.352974516153
 20
-20.9998487543958
 30
0.0
 11
-511.352974516153
 21
-12.2248540638338
 31
0.0
  0
LINE
  5
   463
  8
0
  6
CONTINUOUS
 62
     7
 10
-511.352974516153
 20
-26.8498536764037
 30
0.0
 11
-511.352974516153
 21
-21.4498487424749
 31
0.0
  0
LINE
  5
   464
  8
0
  6
CONTINUOUS
 62
     1
 10
-513.827974450588
 20
-36.977763068445
 30
0.0
 11
-513.827974450588
 21
-36.0777630922869
 31
0.0
  0
LINE
  5
   465
  8
0
  6
CONTINUOUS
 62
     1
 10
-512.92797447443
 20
-36.977763068445
 30
0.0
 11
-513.827974450588
 21
-36.977763068445
 31
0.0
  0
LINE
  5
   466
  8
0
  6
CONTINUOUS
 62
     1
 10
-513.827974450588
 20
-36.0777630922869
 30
0.0
 11
-513.827974450588
 21
12.5222339036391
 31
0.0
  0
LINE
  5
   467
  8
0
  6
CONTINUOUS
 62
     1
 10
-512.92797447443
 20
12.5222339036391
 30
0.0
 11
-513.827974450588
 21
12.5222339036391
 31
0.0
  0
LINE
  5
   468
  8
0
  6
CONTINUOUS
 62
     1
 10
-515.852974316478
 20
18.6320398025755
 30
0.0
 11
-515.852974316478
 21
20.8124276232329
 31
0.0
  0
LINE
  5
   469
  8
0
  6
CONTINUOUS
 62
     1
 10
-515.852974316478
 20
-45.2679550714252
 30
0.0
 11
-515.852974316478
 21
-43.0875706839952
 31
0.0
  0
LINE
  5
   46A
  8
0
  6
CONTINUOUS
 62
     1
 10
-512.92797447443
 20
-48.9027627525404
 30
0.0
 11
-512.92797447443
 21
24.4472353043482
 31
0.0
  0
LINE
  5
   46B
  8
0
  6
CONTINUOUS
 62
     1
 10
-511.352974516153
 20
-48.9027627525404
 30
0.0
 11
-512.92797447443
 21
-48.9027627525404
 31
0.0
  0
LINE
  5
   46C
  8
0
  6
CONTINUOUS
 62
     1
 10
-511.352974516153
 20
-48.9027644691541
 30
0.0
 11
-511.352974516153
 21
24.4472335877344
 31
0.0
  0
LINE
  5
   46D
  8
0
  6
CONTINUOUS
 62
     1
 10
-511.352974516153
 20
24.4472335877344
 30
0.0
 11
-511.802974504232
 21
24.4472335877344
 31
0.0
  0
LINE
  5
   46E
  8
0
  6
CONTINUOUS
 62
     1
 10
-512.252974492311
 20
24.4472335877344
 30
0.0
 11
-512.92797447443
 21
24.4472335877344
 31
0.0
  0
LINE
  5
   46F
  8
0
  6
CONTINUOUS
 62
     1
 10
-512.92797447443
 20
18.372233748667
 30
0.0
 11
-515.402974334564
 21
18.372233748667
 31
0.0
  0
LINE
  5
   470
  8
0
  6
CONTINUOUS
 62
     1
 10
-512.92797447443
 20
21.0722336771414
 30
0.0
 11
-515.402974334564
 21
21.0722336771414
 31
0.0
  0
LINE
  5
   471
  8
0
  6
CONTINUOUS
 62
     1
 10
-515.402974334564
 20
18.372233748667
 30
0.0
 11
-515.402974334564
 21
18.4749971126439
 31
0.0
  0
LINE
  5
   472
  8
0
  6
CONTINUOUS
 62
     1
 10
-515.402973976488
 20
18.3722327149894
 30
0.0
 11
-515.852973979384
 21
18.6320387721552
 31
0.0
  0
LINE
  5
   473
  8
0
  6
CONTINUOUS
 62
     1
 10
-515.402974334564
 20
18.372233748667
 30
0.0
 11
-515.402974334564
 21
18.7676385538662
 31
0.0
  0
LINE
  5
   474
  8
0
  6
CONTINUOUS
 62
     1
 10
-515.402974334564
 20
18.7676385538662
 30
0.0
 11
-515.402974334564
 21
19.2056153794219
 31
0.0
  0
LINE
  5
   475
  8
0
  6
CONTINUOUS
 62
     1
 10
-515.402974334564
 20
19.2056153794219
 30
0.0
 11
-515.402974334564
 21
19.7222337129042
 31
0.0
  0
LINE
  5
   476
  8
0
  6
CONTINUOUS
 62
     1
 10
-515.402974334564
 20
19.7222337129042
 30
0.0
 11
-515.402974334564
 21
20.2388589128414
 31
0.0
  0
LINE
  5
   477
  8
0
  6
CONTINUOUS
 62
     1
 10
-515.402974334564
 20
20.2388589128414
 30
0.0
 11
-515.402974334564
 21
20.6768288719422
 31
0.0
  0
LINE
  5
   478
  8
0
  6
CONTINUOUS
 62
     1
 10
-515.402974334564
 20
20.6768288719422
 30
0.0
 11
-515.402974334564
 21
21.0722336771414
 31
0.0
  0
LINE
  5
   479
  8
0
  6
CONTINUOUS
 62
     1
 10
-515.402974334564
 20
20.9694703131645
 30
0.0
 11
-515.402974334564
 21
21.0722336771414
 31
0.0
  0
LINE
  5
   47A
  8
0
  6
CONTINUOUS
 62
     1
 10
-515.852974707608
 20
20.8124265514508
 30
0.0
 11
-515.402974704712
 21
21.0722326086167
 31
0.0
  0
LINE
  5
   47B
  8
0
  6
CONTINUOUS
 62
     1
 10
-512.92797447443
 20
-42.827762913473
 30
0.0
 11
-515.402973432264
 21
-42.827762913473
 31
0.0
  0
LINE
  5
   47C
  8
0
  6
CONTINUOUS
 62
     1
 10
-512.92797447443
 20
-45.5277628419474
 30
0.0
 11
-515.402975089866
 21
-45.5277628419474
 31
0.0
  0
LINE
  5
   47D
  8
0
  6
CONTINUOUS
 62
     1
 10
-515.852974551445
 20
-43.0875713141084
 30
0.0
 11
-515.402974548548
 21
-42.8277635579601
 31
0.0
  0
LINE
  5
   47E
  8
0
  6
CONTINUOUS
 62
     1
 10
-515.402974319572
 20
-45.5277632866772
 30
0.0
 11
-515.402974319572
 21
-42.827762913473
 31
0.0
  0
LINE
  5
   47F
  8
0
  6
CONTINUOUS
 62
     1
 10
-515.402974133126
 20
-45.5277633943219
 30
0.0
 11
-515.852974136023
 21
-45.2679556381736
 31
0.0
  0
LINE
  5
   480
  8
0
  6
CONTINUOUS
 62
     1
 10
-561.977943045016
 20
-45.5277628419474
 30
0.0
 11
-561.977943045016
 21
-45.4249994779705
 31
0.0
  0
LINE
  5
   481
  8
0
  6
CONTINUOUS
 62
     1
 10
-511.802974504232
 20
24.4472335877344
 30
0.0
 11
-512.252974492311
 21
24.4472335877344
 31
0.0
  0
LINE
  5
   482
  8
0
  6
CONTINUOUS
 62
     7
 10
-513.827974450588
 20
12.522233903639
 30
0.0
 11
-513.827974450588
 21
18.372233748667
 31
0.0
  0
LINE
  5
   483
  8
0
  6
CONTINUOUS
 62
     7
 10
-512.92797447443
 20
24.4472335877344
 30
0.0
 11
-512.92797447443
 21
55.3312002640877
 31
0.0
  0
LINE
  5
   484
  8
0
  6
CONTINUOUS
 62
     7
 10
-513.827974450588
 20
-81.976802487332
 30
0.0
 11
-513.827974450588
 21
-45.5277628419474
 31
0.0
  0
LINE
  5
   485
  8
0
  6
CONTINUOUS
 62
     7
 10
-512.92797447443
 20
-81.5844948054169
 30
0.0
 11
-512.92797447443
 21
-48.9027627525404
 31
0.0
  0
LINE
  5
   486
  8
0
  6
CONTINUOUS
 62
     7
 10
-516.145127492539
 20
-82.9868435569005
 30
0.0
 11
-510.181036430651
 21
-80.3871115555646
 31
0.0
  0
LINE
  5
   487
  8
0
  6
CONTINUOUS
 62
     7
 10
-515.758391875088
 20
53.5135010159587
 30
0.0
 11
-510.60158131322
 21
56.825214220828
 31
0.0
  0
LINE
  5
   488
  8
0
  6
CONTINUOUS
 62
     7
 10
-512.92797447443
 20
12.9722338917181
 30
0.0
 11
-513.827974450588
 21
12.9722338917181
 31
0.0
  0
LINE
  5
   489
  8
0
  6
CONTINUOUS
 62
     7
 10
-512.92797447443
 20
-37.4277630565241
 30
0.0
 11
-513.827974450588
 21
-37.4277630565241
 31
0.0
  0
LINE
  5
   48A
  8
0
  6
CONTINUOUS
 62
     7
 10
-512.92797447443
 20
-42.6027629194334
 30
0.0
 11
-513.827974450588
 21
-42.6027629194334
 31
0.0
  0
LINE
  5
   48B
  8
0
  6
CONTINUOUS
 62
     7
 10
-512.92797447443
 20
-45.7527628359869
 30
0.0
 11
-513.827974450588
 21
-45.7527628359869
 31
0.0
  0
LINE
  5
   48C
  8
0
  6
CONTINUOUS
 62
     7
 10
-512.92797447443
 20
21.2972336711809
 30
0.0
 11
-513.827974450588
 21
21.2972336711809
 31
0.0
  0
LINE
  5
   48D
  8
0
  6
CONTINUOUS
 62
     7
 10
-512.92797447443
 20
18.1472337546275
 30
0.0
 11
-513.827974450588
 21
18.1472337546275
 31
0.0
  0
LINE
  5
   48E
  8
0
  6
CONTINUOUS
 62
     7
 10
-513.827974450588
 20
21.0722336771414
 30
0.0
 11
-513.827974450588
 21
54.7532186280229
 31
0.0
  0
LINE
  5
   48F
  8
0
  6
CONTINUOUS
 62
     7
 10
-513.827974450588
 20
-42.827762913473
 30
0.0
 11
-513.827974450588
 21
-36.977763068445
 31
0.0
  0
INSERT
  5
   490
  8
0
  6
CONTINUOUS
 62
     7
  2
*HATCH96
 10
-561.977966308594
 20
-61.7190437316895
 30
0.0
 41
0.449999988079071
 42
0.449999988079071
 50
89.9999999480344
 43
0.449999988079071
  0
INSERT
  5
   491
  8
0
  6
CONTINUOUS
 62
     7
  2
*HATCH97
 10
-561.977966308594
 20
-61.7190437316895
 30
0.0
 41
0.449999988079071
 42
0.449999988079071
 50
89.9999999480344
 43
0.449999988079071
  0
INSERT
  5
   492
  8
0
  6
CONTINUOUS
 62
     7
  2
*HATCH98
 10
-561.977966308594
 20
-61.7190437316895
 30
0.0
 41
0.449999988079071
 42
0.449999988079071
 50
89.9999999480344
 43
0.449999988079071
  0
INSERT
  5
   493
  8
0
  6
CONTINUOUS
 62
     7
  2
*HATCH99
 10
-561.977966308594
 20
-61.7190437316895
 30
0.0
 41
0.449999988079071
 42
0.449999988079071
 50
89.9999999480344
 43
0.449999988079071
  0
LINE
  5
   494
  8
0
  6
DASHDOT
 62
     3
 10
-476.20339655462
 20
-12.2248455494457
 30
0.0
 11
-480.602653679322
 21
-12.2248455494457
 31
0.0
  0
LINE
  5
   495
  8
0
  6
DASHDOT
 62
     3
 10
-487.46031919724
 20
-12.2248455494457
 30
0.0
 11
-592.524930528366
 21
-12.2248455494457
 31
0.0
  0
LINE
  5
   496
  8
0
  6
CONTINUOUS
 62
     7
 10
-552.97797704871
 20
38.2876607538066
 30
0.0
 11
-552.97797704871
 21
40.5376376719823
 31
0.0
  0
LINE
  5
   497
  8
0
  6
CONTINUOUS
 62
     7
 10
-548.477978026226
 20
-59.7673826930622
 30
0.0
 11
-552.97797704871
 21
-59.7673826930622
 31
0.0
  0
LINE
  5
   498
  8
0
  6
CONTINUOUS
 62
     7
 10
-548.477978026226
 20
-64.3573825714687
 30
0.0
 11
-552.97797704871
 21
-64.3573825714687
 31
0.0
  0
INSERT
  5
   499
  8
255
  6
CONTINUOUS
 62
     7
  2
TASSELLO_POST_
 10
-552.97797704871
 20
36.0376608134112
 30
0.0
 41
0.449999988079071
 42
0.449999988079071
 50
3.50835464724173E-15
 43
0.449999988079071
  0
LINE
  5
   49A
  8
0
  6
CONTINUOUS
 62
     7
 10
-516.303015583757
 20
33.5626532375998
 30
0.0
 11
-516.303015583757
 21
44.7001460760946
 31
0.0
  0
ARC
  5
   49B
  8
0
  6
CONTINUOUS
 62
     7
 10
-516.865515568856
 20
44.7001460760946
 30
0.0
 40
0.562499985098839
 50
359.999999948034
 51
449.999999948034
  0
LINE
  5
   49C
  8
0
  6
CONTINUOUS
 62
     7
 10
-516.302974385023
 20
33.5626532375998
 30
0.0
 11
-516.753015571837
 21
33.5626532375998
 31
0.0
  0
LINE
  5
   49D
  8
0
  6
CONTINUOUS
 62
     7
 10
-516.753015571837
 20
33.1126532495207
 30
0.0
 11
-516.753015571837
 21
33.5626532375998
 31
0.0
  0
LINE
  5
   49E
  8
0
  6
CONTINUOUS
 62
     2
 10
-548.027978038147
 20
31.0876609445415
 30
0.0
 11
-548.027978038147
 21
40.987660682281
 31
0.0
  0
LINE
  5
   49F
  8
0
  6
CONTINUOUS
 62
     2
 10
-550.727977966621
 20
38.3326607526145
 30
0.0
 11
-552.97797704871
 21
38.3326607526145
 31
0.0
  0
LINE
  5
   4A0
  8
0
  6
CONTINUOUS
 62
     2
 10
-550.727977966621
 20
33.742660874208
 30
0.0
 11
-552.97797704871
 21
33.742660874208
 31
0.0
  0
LINE
  5
   4A1
  8
0
  6
CONTINUOUS
 62
     1
 10
-516.303015583757
 20
46.6126605332694
 30
0.0
 11
-516.303015583757
 21
90.2626593769393
 31
0.0
  0
LINE
  5
   4A2
  8
0
  6
CONTINUOUS
 62
     1
 10
-561.752976400509
 20
46.6126605332694
 30
0.0
 11
-561.752976400509
 21
90.2626593769393
 31
0.0
  0
LINE
  5
   4A3
  8
0
  6
CONTINUOUS
 62
     1
 10
-561.752976400509
 20
45.7126605571113
 30
0.0
 11
-561.752976400509
 21
46.6126605332694
 31
0.0
  0
LINE
  5
   4A4
  8
0
  6
CONTINUOUS
 62
     1
 10
-516.303015168015
 20
46.6126605332694
 30
0.0
 11
-561.752976400509
 21
46.6126605332694
 31
0.0
  0
LINE
  5
   4A5
  8
0
  6
CONTINUOUS
 62
     1
 10
-561.302976408579
 20
45.2626605420772
 30
0.0
 11
-561.752976381256
 21
45.7126605147535
 31
0.0
  0
LINE
  5
   4A6
  8
0
  6
CONTINUOUS
 62
     1
 10
-516.753015571837
 20
45.2626605690322
 30
0.0
 11
-552.977978654456
 21
45.2626605690322
 31
0.0
  0
LINE
  5
   4A7
  8
0
  6
CONTINUOUS
 62
     1
 10
-516.753016141742
 20
45.2626603533924
 30
0.0
 11
-516.303016169066
 21
45.7126603260686
 31
0.0
  0
LINE
  5
   4A8
  8
0
  6
CONTINUOUS
 62
     1
 10
-516.303015583757
 20
45.7126605571113
 30
0.0
 11
-516.303015583757
 21
46.6126605332694
 31
0.0
  0
LINE
  5
   4A9
  8
0
  6
CONTINUOUS
 62
     1
 10
-560.402976852014
 20
45.2626605690322
 30
0.0
 11
-561.302976399019
 21
45.2626605690322
 31
0.0
  0
LINE
  5
   4AA
  8
0
  6
CONTINUOUS
 62
     2
 10
-547.487978052452
 20
31.0876609445415
 30
0.0
 11
-547.487978052452
 21
40.987660682281
 31
0.0
  0
LINE
  5
   4AB
  8
0
  6
CONTINUOUS
 62
     2
 10
-547.487978052452
 20
40.987660682281
 30
0.0
 11
-548.027978038147
 21
40.987660682281
 31
0.0
  0
LINE
  5
   4AC
  8
0
  6
CONTINUOUS
 62
     2
 10
-547.487978052452
 20
31.0876609445415
 30
0.0
 11
-548.027978038147
 21
31.0876609445415
 31
0.0
  0
LINE
  5
   4AD
  8
0
  6
CONTINUOUS
 62
     2
 10
-550.727977966621
 20
38.2876607538066
 30
0.0
 11
-550.727977966621
 21
40.5376376719823
 31
0.0
  0
INSERT
  5
   4AE
  8
0
  6
CONTINUOUS
 62
     7
  2
TASSELLO_POST_
 10
-552.97797704871
 20
-62.0623365878263
 30
0.0
 41
0.449999988079071
 42
-0.449999988079071
 50
1.03931142803049E-7
 43
0.449999988079071
  0
LINE
  5
   4AF
  8
0
  6
CONTINUOUS
 62
     7
 10
-547.937978040531
 20
-57.1123367189565
 30
0.0
 11
-548.477978026226
 21
-57.1123367189565
 31
0.0
  0
LINE
  5
   4B0
  8
0
  6
CONTINUOUS
 62
     7
 10
-547.937978040531
 20
-67.012336456696
 30
0.0
 11
-547.937978040531
 21
-57.1123367189565
 31
0.0
  0
LINE
  5
   4B1
  8
0
  6
CONTINUOUS
 62
     7
 10
-547.937978040531
 20
-67.012336456696
 30
0.0
 11
-548.477978026226
 21
-67.012336456696
 31
0.0
  0
LINE
  5
   4B2
  8
0
  6
CONTINUOUS
 62
     7
 10
-548.477978026226
 20
-67.012336456696
 30
0.0
 11
-548.477978026226
 21
-57.1123367189565
 31
0.0
  0
LINE
  5
   4B3
  8
0
  6
CONTINUOUS
 62
     7
 10
-550.727977108314
 20
-66.5623594908366
 30
0.0
 11
-550.727977108314
 21
-64.3573825714687
 31
0.0
  0
LINE
  5
   4B4
  8
0
  6
CONTINUOUS
 62
     7
 10
-560.402976852014
 20
-70.1623302817163
 30
0.0
 11
-561.077966761589
 21
-70.1623302817163
 31
0.0
  0
LINE
  5
   4B5
  8
0
  6
CONTINUOUS
 62
     1
 10
-547.30797805722
 20
31.785160926064
 30
0.0
 11
-547.30797805722
 21
40.2901607007585
 31
0.0
  0
ARC
  5
   4B6
  8
0
  6
CONTINUOUS
 62
     1
 10
-545.96228855571
 20
32.8482858979008
 30
0.0
 40
1.62431041981154
 50
319.117607838934
 51
400.882392057134
  0
ARC
  5
   4B7
  8
0
  6
CONTINUOUS
 62
     1
 10
-545.96228855571
 20
39.2270357289217
 30
0.0
 40
1.62431041981154
 50
319.117607838934
 51
400.882392057134
  0
LINE
  5
   4B8
  8
0
  6
CONTINUOUS
 62
     1
 10
-544.702784952243
 20
33.9114108697376
 30
0.0
 11
-547.30797805722
 21
33.9114108697376
 31
0.0
  0
ARC
  5
   4B9
  8
0
  6
CONTINUOUS
 62
     1
 10
-550.716727966919
 20
36.0376608134112
 30
0.0
 40
6.37874983102083
 50
340.528779313544
 51
379.471220582525
  0
LINE
  5
   4BA
  8
0
  6
CONTINUOUS
 62
     1
 10
-544.702784952243
 20
38.1639107570848
 30
0.0
 11
-547.30797805722
 21
38.1639107570848
 31
0.0
  0
LINE
  5
   4BB
  8
0
  6
CONTINUOUS
 62
     1
 10
-544.734221116941
 20
31.785160926064
 30
0.0
 11
-547.30797805722
 21
31.785160926064
 31
0.0
  0
LINE
  5
   4BC
  8
0
  6
CONTINUOUS
 62
     1
 10
-544.734221116941
 20
40.2901607007585
 30
0.0
 11
-547.30797805722
 21
40.2901607007585
 31
0.0
  0
LINE
  5
   4BD
  8
0
  6
CONTINUOUS
 62
     1
 10
-547.30797805722
 20
32.3926609099708
 30
0.0
 11
-547.487978052452
 21
32.3926609099708
 31
0.0
  0
LINE
  5
   4BE
  8
0
  6
CONTINUOUS
 62
     1
 10
-547.30797805722
 20
39.6826607168517
 30
0.0
 11
-547.487978052452
 21
39.6826607168517
 31
0.0
  0
LINE
  5
   4BF
  8
0
  6
CONTINUOUS
 62
     7
 10
-548.837978016689
 20
34.2017261120469
 30
0.0
 11
-552.97797704871
 21
34.2017261120469
 31
0.0
  0
LINE
  5
   4C0
  8
0
  6
CONTINUOUS
 62
     7
 10
-548.837978016689
 20
37.8735955147756
 30
0.0
 11
-552.97797704871
 21
37.8735955147756
 31
0.0
  0
LINE
  5
   4C1
  8
0
  6
CONTINUOUS
 62
     1
 10
-548.027978038147
 20
38.2876607538066
 30
0.0
 11
-552.97797704871
 21
38.2876607538066
 31
0.0
  0
LINE
  5
   4C2
  8
0
  6
CONTINUOUS
 62
     1
 10
-548.027978038147
 20
33.7876608730159
 30
0.0
 11
-552.97797704871
 21
33.7876608730159
 31
0.0
  0
LINE
  5
   4C3
  8
0
  6
CONTINUOUS
 62
     1
 10
-548.837978016689
 20
33.7876608730159
 30
0.0
 11
-548.837978016689
 21
38.2876607538066
 31
0.0
  0
LINE
  5
   4C4
  8
0
  6
CONTINUOUS
 62
     1
 10
-544.337978135898
 20
32.8482858979008
 30
0.0
 11
-544.337978135898
 21
39.2270357289217
 31
0.0
  0
LINE
  5
   4C5
  8
0
  6
DASHDOT
 62
     7
 10
-542.987978171661
 20
36.0376608134112
 30
0.0
 11
-556.037977825954
 21
36.0376608134112
 31
0.0
  0
LINE
  5
   4C6
  8
0
  6
CONTINUOUS
 62
     1
 10
-547.757978045299
 20
-66.3148825196127
 30
0.0
 11
-547.757978045299
 21
-57.8098827449183
 31
0.0
  0
ARC
  5
   4C7
  8
0
  6
CONTINUOUS
 62
     1
 10
-546.412288543789
 20
-65.2517575477759
 30
0.0
 40
1.62431041981154
 50
319.117607838934
 51
400.882392057134
  0
ARC
  5
   4C8
  8
0
  6
CONTINUOUS
 62
     1
 10
-546.412288543789
 20
-58.8730077167551
 30
0.0
 40
1.62431041981154
 50
319.117607838934
 51
400.882392057134
  0
LINE
  5
   4C9
  8
0
  6
CONTINUOUS
 62
     1
 10
-545.152784940322
 20
-64.1886325759391
 30
0.0
 11
-547.757978045299
 21
-64.1886325759391
 31
0.0
  0
ARC
  5
   4CA
  8
0
  6
CONTINUOUS
 62
     1
 10
-551.166727954998
 20
-62.0623826322655
 30
0.0
 40
6.37874983102083
 50
340.528779313544
 51
379.471220582525
  0
LINE
  5
   4CB
  8
0
  6
CONTINUOUS
 62
     1
 10
-545.152784940322
 20
-59.9361326885919
 30
0.0
 11
-547.757978045299
 21
-59.9361326885919
 31
0.0
  0
LINE
  5
   4CC
  8
0
  6
CONTINUOUS
 62
     1
 10
-545.18422110502
 20
-66.3148825196127
 30
0.0
 11
-547.757978045299
 21
-66.3148825196127
 31
0.0
  0
LINE
  5
   4CD
  8
0
  6
CONTINUOUS
 62
     1
 10
-545.18422110502
 20
-57.8098827449183
 30
0.0
 11
-547.757978045299
 21
-57.8098827449183
 31
0.0
  0
LINE
  5
   4CE
  8
0
  6
CONTINUOUS
 62
     1
 10
-547.757978045299
 20
-65.707382535706
 30
0.0
 11
-547.937978040531
 21
-65.707382535706
 31
0.0
  0
LINE
  5
   4CF
  8
0
  6
CONTINUOUS
 62
     1
 10
-547.757978045299
 20
-58.417382728825
 30
0.0
 11
-547.937978040531
 21
-58.417382728825
 31
0.0
  0
LINE
  5
   4D0
  8
0
  6
CONTINUOUS
 62
     7
 10
-549.287978004768
 20
-63.8983173336298
 30
0.0
 11
-552.97797704871
 21
-63.8983173336298
 31
0.0
  0
LINE
  5
   4D1
  8
0
  6
CONTINUOUS
 62
     7
 10
-549.287978004768
 20
-60.2264479309011
 30
0.0
 11
-552.97797704871
 21
-60.2264479309011
 31
0.0
  0
LINE
  5
   4D2
  8
0
  6
CONTINUOUS
 62
     1
 10
-548.477978026226
 20
-59.8123826918701
 30
0.0
 11
-552.97797704871
 21
-59.8123826918701
 31
0.0
  0
LINE
  5
   4D3
  8
0
  6
CONTINUOUS
 62
     1
 10
-548.477978026226
 20
-64.3123825726608
 30
0.0
 11
-552.97797704871
 21
-64.3123825726608
 31
0.0
  0
LINE
  5
   4D4
  8
0
  6
CONTINUOUS
 62
     1
 10
-549.287978004768
 20
-64.3123825726608
 30
0.0
 11
-549.287978004768
 21
-59.8123826918701
 31
0.0
  0
LINE
  5
   4D5
  8
0
  6
CONTINUOUS
 62
     1
 10
-544.787978123977
 20
-65.2517575477759
 30
0.0
 11
-544.787978123977
 21
-58.8730077167551
 31
0.0
  0
LINE
  5
   4D6
  8
0
  6
CONTINUOUS
 62
     7
 10
-550.727977966621
 20
40.5376376719823
 30
0.0
 11
-551.1779779547
 21
40.5376376719823
 31
0.0
  0
LINE
  5
   4D7
  8
0
  6
DASHDOT
 62
     7
 10
-558.547482048202
 20
35.1376531958766
 30
0.0
 11
-569.941999085453
 21
35.1376531958766
 31
0.0
  0
LINE
  5
   4D8
  8
0
  6
CONTINUOUS
 62
     7
 10
-565.577966213226
 20
33.3376532435603
 30
0.0
 11
-565.577966213226
 21
36.9376531481928
 31
0.0
  0
LINE
  5
   4D9
  8
0
  6
CONTINUOUS
 62
     7
 10
-567.377966165543
 20
34.0126532256789
 30
0.0
 11
-567.377966165543
 21
36.2626531660742
 31
0.0
  0
LINE
  5
   4DA
  8
0
  6
CONTINUOUS
 62
     7
 10
-563.77796626091
 20
36.9376531481928
 30
0.0
 11
-565.577966213226
 21
36.9376531481928
 31
0.0
  0
LINE
  5
   4DB
  8
0
  6
CONTINUOUS
 62
     7
 10
-563.77796626091
 20
33.3376532435603
 30
0.0
 11
-565.577966213226
 21
33.3376532435603
 31
0.0
  0
LINE
  5
   4DC
  8
0
  6
CONTINUOUS
 62
     7
 10
-563.77796626091
 20
36.2626531660742
 30
0.0
 11
-567.377966165543
 21
36.2626531660742
 31
0.0
  0
LINE
  5
   4DD
  8
0
  6
CONTINUOUS
 62
     7
 10
-563.77796626091
 20
34.0126532256789
 30
0.0
 11
-567.377966165543
 21
34.0126532256789
 31
0.0
  0
LINE
  5
   4DE
  8
0
  6
CONTINUOUS
 62
     7
 10
-563.77796626091
 20
-59.3623443007284
 30
0.0
 11
-565.577966213226
 21
-59.3623443007284
 31
0.0
  0
LINE
  5
   4DF
  8
0
  6
CONTINUOUS
 62
     7
 10
-563.77796626091
 20
-60.037344282847
 30
0.0
 11
-567.377966165543
 21
-60.037344282847
 31
0.0
  0
LINE
  5
   4E0
  8
0
  6
DASHDOT
 62
     7
 10
-558.547482048202
 20
-61.1623442530446
 30
0.0
 11
-569.941999085453
 21
-61.1623442530446
 31
0.0
  0
LINE
  5
   4E1
  8
0
  6
CONTINUOUS
 62
     7
 10
-563.77796626091
 20
-62.2873442232423
 30
0.0
 11
-567.377966165543
 21
-62.2873442232423
 31
0.0
  0
LINE
  5
   4E2
  8
0
  6
CONTINUOUS
 62
     7
 10
-563.77796626091
 20
-62.9623442053609
 30
0.0
 11
-565.577966213226
 21
-62.9623442053609
 31
0.0
  0
LINE
  5
   4E3
  8
0
  6
CONTINUOUS
 62
     7
 10
-565.577966213226
 20
-62.9623442053609
 30
0.0
 11
-565.577966213226
 21
-59.3623443007284
 31
0.0
  0
LINE
  5
   4E4
  8
0
  6
CONTINUOUS
 62
     7
 10
-567.377966165543
 20
-62.2873442232423
 30
0.0
 11
-567.377966165543
 21
-60.037344282847
 31
0.0
  0
INSERT
  5
   4E5
  8
0
  6
CONTINUOUS
 62
     5
  2
*UDIM239
 10
0.0
 20
0.0
 30
0.0
  0
LINE
  5
   4E6
  8
0
  6
CONTINUOUS
 62
     1
 10
-516.303015583757
 20
90.2626593769393
 30
0.0
 11
-561.752976400509
 21
90.2626593769393
 31
0.0
  0
LINE
  5
   4E7
  8
0
  6
CONTINUOUS
 62
     1
 10
-560.402976852014
 20
-71.2873532741336
 30
0.0
 11
-561.302976399019
 21
-71.2873532741336
 31
0.0
  0
LINE
  5
   4E8
  8
0
  6
CONTINUOUS
 62
     1
 10
-561.752976381256
 20
-71.7373532198548
 30
0.0
 11
-561.302976408579
 21
-71.2873532471786
 31
0.0
  0
LINE
  5
   4E9
  8
0
  6
CONTINUOUS
 62
     1
 10
-561.752976400509
 20
-78.7945524324534
 30
0.0
 11
-561.752976400509
 21
-71.7373532622126
 31
0.0
  0
LINE
  5
   4EA
  8
0
  6
CONTINUOUS
 62
     1
 10
-516.303015168015
 20
-72.6373532383708
 30
0.0
 11
-561.752976400509
 21
-72.6373532383708
 31
0.0
  0
LINE
  5
   4EB
  8
0
  6
CONTINUOUS
 62
     1
 10
-516.753015571837
 20
-71.2873532741336
 30
0.0
 11
-552.977978654456
 21
-71.2873532741336
 31
0.0
  0
LINE
  5
   4EC
  8
0
  6
CONTINUOUS
 62
     1
 10
-516.303016169066
 20
-71.73735303117
 30
0.0
 11
-516.753016141742
 21
-71.2873530584937
 31
0.0
  0
LINE
  5
   4ED
  8
0
  6
CONTINUOUS
 62
     1
 10
-516.303015583757
 20
-78.7945524324534
 30
0.0
 11
-516.303015583757
 21
-71.7373532622126
 31
0.0
  0
ARC
  5
   4EE
  8
0
  6
CONTINUOUS
 62
     7
 10
-516.865515568856
 20
-70.7248387811959
 30
0.0
 40
0.562499985098839
 50
269.999999948034
 51
359.999999948034
  0
LINE
  5
   4EF
  8
0
  6
CONTINUOUS
 62
     7
 10
-516.303015583757
 20
-70.7248387811959
 30
0.0
 11
-516.303015583757
 21
-59.5873459427012
 31
0.0
  0
LINE
  5
   4F0
  8
0
  6
CONTINUOUS
 62
     7
 10
-516.302974385023
 20
-59.5873459427012
 30
0.0
 11
-516.753015571837
 21
-59.5873459427012
 31
0.0
  0
LINE
  5
   4F1
  8
0
  6
CONTINUOUS
 62
     7
 10
-516.753015571837
 20
-59.5873459427012
 30
0.0
 11
-516.753015571837
 21
-59.1373459546221
 31
0.0
  0
LINE
  5
   4F2
  8
0
  6
CONTINUOUS
 62
     2
 10
-561.977966308594
 20
-70.1623302817163
 30
0.0
 11
-561.977966308594
 21
44.1376375766149
 31
0.0
  0
LINE
  5
   4F3
  8
0
  6
CONTINUOUS
 62
     2
 10
-561.977966308594
 20
-70.1623302817163
 30
0.0
 11
-562.427966296673
 21
-70.1623302817163
 31
0.0
  0
LINE
  5
   4F4
  8
0
  6
CONTINUOUS
 62
     2
 10
-561.977966308594
 20
44.1376375766149
 30
0.0
 11
-562.427966296673
 21
44.1376375766149
 31
0.0
  0
LINE
  5
   4F5
  8
0
  6
DASHDOT
 62
     7
 10
-562.427966296673
 20
44.1376375766149
 30
0.0
 11
-562.427966296673
 21
51.8381320089326
 31
0.0
  0
LINE
  5
   4F6
  8
0
  6
CONTINUOUS
 62
     2
 10
-562.427966296673
 20
-70.1623302817163
 30
0.0
 11
-562.427966296673
 21
44.1376375766149
 31
0.0
  0
INSERT
  5
   4F7
  8
0
  6
CONTINUOUS
 62
     7
  2
*UDIM240
 10
0.0
 20
0.0
 30
0.0
  0
INSERT
  5
   4F8
  8
0
  6
CONTINUOUS
 62
     7
  2
*HATCH100
 10
-561.977966308594
 20
-61.7190437316895
 30
0.0
 41
0.449999988079071
 42
0.449999988079071
 50
89.9999999480344
 43
0.449999988079071
  0
INSERT
  5
   4F9
  8
0
  6
CONTINUOUS
 62
     7
  2
*HATCH101
 10
-561.977966308594
 20
-61.7190437316895
 30
0.0
 41
0.449999988079071
 42
0.449999988079071
 50
89.9999999480344
 43
0.449999988079071
  0
INSERT
  5
   4FA
  8
0
  6
CONTINUOUS
 62
     7
  2
*HATCH102
 10
-561.977966308594
 20
-61.7190437316895
 30
0.0
 41
0.449999988079071
 42
0.449999988079071
 50
89.9999999480344
 43
0.449999988079071
  0
INSERT
  5
   4FB
  8
0
  6
CONTINUOUS
 62
     7
  2
*HATCH103
 10
-561.977966308594
 20
-61.7190437316895
 30
0.0
 41
0.449999988079071
 42
0.449999988079071
 50
89.9999999480344
 43
0.449999988079071
  0
INSERT
  5
   4FC
  8
0
  6
CONTINUOUS
 62
     7
  2
*UDIM241
 10
0.0
 20
0.0
 30
0.0
  0
INSERT
  5
   4FD
  8
0
  6
CONTINUOUS
 62
     7
  2
*UDIM242
 10
0.0
 20
0.0
 30
0.0
  0
INSERT
  5
   4FE
  8
0
  6
CONTINUOUS
 62
     7
  2
*UDIM243
 10
0.0
 20
0.0
 30
0.0
  0
INSERT
  5
   4FF
  8
0
  6
CONTINUOUS
 62
     7
  2
*UDIM244
 10
0.0
 20
0.0
 30
0.0
  0
INSERT
  5
   500
  8
0
  6
CONTINUOUS
 62
     7
  2
*UDIM245
 10
0.0
 20
0.0
 30
0.0
  0
INSERT
  5
   501
  8
0
  6
CONTINUOUS
 62
     7
  2
*UDIM246
 10
0.0
 20
0.0
 30
0.0
  0
INSERT
  5
   502
  8
0
  6
CONTINUOUS
 62
     7
  2
*UDIM247
 10
0.0
 20
0.0
 30
0.0
  0
INSERT
  5
   503
  8
0
  6
CONTINUOUS
 62
     7
  2
*UDIM248
 10
0.0
 20
0.0
 30
0.0
  0
INSERT
  5
   504
  8
0
  6
CONTINUOUS
 62
     7
  2
*UDIM249
 10
0.0
 20
0.0
 30
0.0
  0
INSERT
  5
   505
  8
0
  6
CONTINUOUS
 62
     7
  2
*UDIM250
 10
0.0
 20
0.0
 30
0.0
  0
INSERT
  5
   506
  8
0
  6
CONTINUOUS
 62
     7
  2
*UDIM251
 10
0.0
 20
0.0
 30
0.0
  0
INSERT
  5
   507
  8
0
  6
CONTINUOUS
 62
     7
  2
*UDIM252
 10
0.0
 20
0.0
 30
0.0
  0
INSERT
  5
   508
  8
0
  6
CONTINUOUS
 62
     7
  2
*UDIM253
 10
0.0
 20
0.0
 30
0.0
  0
INSERT
  5
   509
  8
0
  6
CONTINUOUS
 62
     7
  2
*UDIM254
 10
0.0
 20
0.0
 30
0.0
  0
INSERT
  5
   50A
  8
0
  6
CONTINUOUS
 62
     7
  2
*UDIM255
 10
0.0
 20
0.0
 30
0.0
  0
INSERT
  5
   50B
  8
0
  6
CONTINUOUS
 62
     7
  2
*UDIM256
 10
0.0
 20
0.0
 30
0.0
  0
INSERT
  5
   50C
  8
0
  6
CONTINUOUS
 62
     7
  2
*UDIM257
 10
0.0
 20
0.0
 30
0.0
  0
TEXT
  5
   50D
  8
0
  6
CONTINUOUS
 62
     7
 10
-473.567311831626
 20
-13.4843457177888
 30
0.0
 40
3.00000011722246
  1
X
 50
359.999999948034
 41
0.916666563948002
 72
     1
 11
-472.467311924978
 21
-11.9843456601697
 31
0.0
 73
     2
  0
LINE
  5
   50E
  8
0
  6
CONTINUOUS
 62
     7
 10
-687.634927950298
 20
44.1376452060094
 30
0.0
 11
-700.858240082264
 21
44.1376452060094
 31
0.0
  0
LINE
  5
   50F
  8
0
  6
CONTINUOUS
 62
     7
 10
-639.433248575926
 20
33.3376523585666
 30
0.0
 11
-639.433248575926
 21
42.877645239388
 31
0.0
  0
LINE
  5
   510
  8
0
  6
CONTINUOUS
 62
     7
 10
-702.433240042435
 20
33.3376523585666
 30
0.0
 11
-702.433240042435
 21
42.877645239388
 31
0.0
  0
ARC
  5
   511
  8
0
  6
CONTINUOUS
 62
     7
 10
-690.620736270518
 20
36.0376697728122
 30
0.0
 40
2.47500537921579
 50
110.451265672946
 51
190.591003768719
  0
ARC
  5
   512
  8
0
  6
CONTINUOUS
 62
     7
 10
-700.858252054816
 20
43.6876375233834
 30
0.0
 40
0.449991815648667
 50
449.999429635018
 51
540.000998310938
  0
LINE
  5
   513
  8
0
  6
CONTINUOUS
 62
     7
 10
-701.308240070343
 20
42.877645239388
 30
0.0
 11
-702.433240042435
 21
42.877645239388
 31
0.0
  0
LINE
  5
   514
  8
0
  6
CONTINUOUS
 62
     7
 10
-683.139499315302
 20
33.3376523585666
 30
0.0
 11
-701.308240070343
 21
33.3376523585666
 31
0.0
  0
LINE
  5
   515
  8
0
  6
CONTINUOUS
 62
     7
 10
-663.452018211193
 20
33.3376523585666
 30
0.0
 11
-678.414499440471
 21
33.3376523585666
 31
0.0
  0
LINE
  5
   516
  8
0
  6
CONTINUOUS
 62
     7
 10
-640.558241679669
 20
33.3376523585666
 30
0.0
 11
-658.727018336363
 21
33.3376523585666
 31
0.0
  0
CIRCLE
  5
   517
  8
0
  6
CONTINUOUS
 62
     7
 10
-690.620740481619
 20
42.3376498995428
 30
0.0
 40
0.629999542555382
  0
LINE
  5
   518
  8
0
  6
CONTINUOUS
 62
     7
 10
-701.308240070343
 20
33.3376523585666
 30
0.0
 11
-701.308240070343
 21
42.877645239388
 31
0.0
  0
LINE
  5
   519
  8
0
  6
CONTINUOUS
 62
     7
 10
-639.433262750437
 20
-38.4373303592023
 30
0.0
 11
-639.433262750437
 21
-37.5373303830441
 31
0.0
  0
LINE
  5
   51A
  8
0
  6
CONTINUOUS
 62
     7
 10
-702.433261081507
 20
-38.4373303592023
 30
0.0
 11
-702.433261081507
 21
-37.5373303830441
 31
0.0
  0
LINE
  5
   51B
  8
0
  6
CONTINUOUS
 62
     7
 10
-639.433262750437
 20
-59.81232592816
 30
0.0
 11
-639.433262750437
 21
-38.4373303592023
 31
0.0
  0
LINE
  5
   51C
  8
0
  6
CONTINUOUS
 62
     7
 10
-702.433261081507
 20
-68.9023295736131
 30
0.0
 11
-702.433261081507
 21
-38.4373317539509
 31
0.0
  0
LINE
  5
   51D
  8
0
  6
CONTINUOUS
 62
     7
 10
-701.30826111131
 20
-68.9023295736131
 30
0.0
 11
-702.433261081507
 21
-68.9023295736131
 31
0.0
  0
LINE
  5
   51E
  8
0
  6
CONTINUOUS
 62
     7
 10
-701.30826111131
 20
-69.7123295306977
 30
0.0
 11
-701.30826111131
 21
-68.9023295736131
 31
0.0
  0
LINE
  5
   51F
  8
0
  6
CONTINUOUS
 62
     7
 10
-687.634926954929
 20
-70.1623295187767
 30
0.0
 11
-700.85826112323
 21
-70.1623295187767
 31
0.0
  0
LINE
  5
   520
  8
0
  6
CONTINUOUS
 62
     1
 10
-701.30826111131
 20
-68.9023295736131
 30
0.0
 11
-701.30826111131
 21
-59.362329483014
 31
0.0
  0
LINE
  5
   521
  8
0
  6
CONTINUOUS
 62
     1
 10
-683.139511592617
 20
-59.3623298048791
 30
0.0
 11
-701.30826111131
 21
-59.3623298048791
 31
0.0
  0
LINE
  5
   522
  8
0
  6
DOT
 62
     1
 10
-683.139511592617
 20
-61.1623297571954
 30
0.0
 11
-683.139511592617
 21
-59.3623298048791
 31
0.0
  0
LINE
  5
   523
  8
0
  6
DOT
 62
     1
 10
-678.414511717787
 20
-61.1623297571954
 30
0.0
 11
-678.414511717787
 21
-59.3623298048791
 31
0.0
  0
LINE
  5
   524
  8
0
  6
CONTINUOUS
 62
     1
 10
-663.452012114158
 20
-59.3623298048791
 30
0.0
 11
-678.414511717787
 21
-59.3623298048791
 31
0.0
  0
LINE
  5
   525
  8
0
  6
DOT
 62
     1
 10
-663.452012114158
 20
-61.1623297571954
 30
0.0
 11
-663.452012114158
 21
-59.3623298048791
 31
0.0
  0
LINE
  5
   526
  8
0
  6
DOT
 62
     1
 10
-658.727012239327
 20
-61.1623297571954
 30
0.0
 11
-658.727012239327
 21
-59.3623298048791
 31
0.0
  0
LINE
  5
   527
  8
0
  6
CONTINUOUS
 62
     1
 10
-640.558262720635
 20
-59.3623298048791
 30
0.0
 11
-658.727012239327
 21
-59.3623298048791
 31
0.0
  0
LINE
  5
   528
  8
0
  6
CONTINUOUS
 62
     1
 10
-640.558262720635
 20
-68.9023295736131
 30
0.0
 11
-640.558262720635
 21
-59.362329483014
 31
0.0
  0
LINE
  5
   529
  8
0
  6
DOT
 62
     1
 10
-679.652011685004
 20
-64.0873296797093
 30
0.0
 11
-679.652011685004
 21
-63.1973873433604
 31
0.0
  0
LINE
  5
   52A
  8
0
  6
DOT
 62
     1
 10
-681.902011625399
 20
-64.0873296797093
 30
0.0
 11
-681.902011625399
 21
-63.1973873433604
 31
0.0
  0
LINE
  5
   52B
  8
0
  6
DOT
 62
     1
 10
-679.652011685004
 20
-64.0873296797093
 30
0.0
 11
-681.902011625399
 21
-64.0873296797093
 31
0.0
  0
LINE
  5
   52C
  8
0
  6
DOT
 62
     1
 10
-662.21451214694
 20
-64.0873296797093
 30
0.0
 11
-662.21451214694
 21
-63.1973873433604
 31
0.0
  0
LINE
  5
   52D
  8
0
  6
DOT
 62
     1
 10
-659.964512206545
 20
-64.0873296797093
 30
0.0
 11
-659.964512206545
 21
-63.1973873433604
 31
0.0
  0
LINE
  5
   52E
  8
0
  6
DOT
 62
     1
 10
-659.964512206545
 20
-64.0873296797093
 30
0.0
 11
-662.21451214694
 21
-64.0873296797093
 31
0.0
  0
CIRCLE
  5
   52F
  8
0
  6
DOT
 62
     1
 10
-651.245761436755
 20
-62.0623289941877
 30
0.0
 40
2.47500069186673
  0
CIRCLE
  5
   530
  8
0
  6
DOT
 62
     1
 10
-661.089511734681
 20
-61.1623303898216
 30
0.0
 40
1.2375006850886
  0
ARC
  5
   531
  8
0
  6
DOT
 62
     1
 10
-661.089515709203
 20
-61.1623392948386
 30
0.0
 40
2.36250961563099
 50
121.002660601852
 51
418.997339294217
  0
CIRCLE
  5
   532
  8
0
  6
DOT
 62
     1
 10
-680.777011489078
 20
-61.1623291563682
 30
0.0
 40
1.23749961577657
  0
CIRCLE
  5
   533
  8
0
  6
DOT
 62
     1
 10
-670.933262092036
 20
-62.0623298281497
 30
0.0
 40
2.47499979808704
  0
CIRCLE
  5
   534
  8
0
  6
DOT
 62
     1
 10
-651.245762684796
 20
-68.3623273362402
 30
0.0
 40
0.629998607955777
  0
CIRCLE
  5
   535
  8
0
  6
DOT
 62
     1
 10
-670.933261043465
 20
-68.3623283448986
 30
0.0
 40
0.63000090193738
  0
CIRCLE
  5
   536
  8
0
  6
CONTINUOUS
 62
     1
 10
-690.620761738993
 20
-68.3623301035832
 30
0.0
 40
0.630000021186182
  0
ARC
  5
   537
  8
0
  6
DOT
 62
     1
 10
-690.620761286845
 20
-62.0623298379852
 30
0.0
 40
2.47500007807242
 50
359.999999948034
 51
529.408986188127
  0
LINE
  5
   538
  8
0
  6
DASHDOT
 62
     7
 10
-658.052026219444
 20
-35.7372923976443
 30
0.0
 11
-664.126909291753
 21
-35.7372923976443
 31
0.0
  0
LINE
  5
   539
  8
0
  6
DASHDOT
 62
     7
 10
-670.933262092036
 20
-71.8359129026321
 30
0.0
 11
-670.933262092036
 21
-36.2724303224175
 31
0.0
  0
LINE
  5
   53A
  8
0
  6
DASHDOT
 62
     7
 10
-667.108262329712
 20
-62.0623298281497
 30
0.0
 11
-674.758261854361
 21
-62.0623298281497
 31
0.0
  0
ARC
  5
   53B
  8
0
  6
DOT
 62
     1
 10
-680.777013996692
 20
-61.1623241773865
 30
0.0
 40
2.36249459639898
 50
121.002766250911
 51
418.997233645158
  0
ARC
  5
   53C
  8
0
  6
CONTINUOUS
 62
     7
 10
-700.858261282744
 20
-69.7123295877018
 30
0.0
 40
0.449999889047803
 50
179.99999084272
 51
269.999993044176
  0
LINE
  5
   53D
  8
0
  6
CONTINUOUS
 62
     1
 10
-639.433262926501
 20
11.6251598002063
 30
0.0
 11
-639.433262926501
 21
33.3376523585666
 31
0.0
  0
LINE
  5
   53E
  8
0
  6
CONTINUOUS
 62
     1
 10
-639.433262926501
 20
-42.4873456595789
 30
0.0
 11
-639.433262926501
 21
-35.6248389480961
 31
0.0
  0
LINE
  5
   53F
  8
0
  6
CONTINUOUS
 62
     1
 10
-702.433261257571
 20
-42.4873456595789
 30
0.0
 11
-702.433261257571
 21
-35.6248526810059
 31
0.0
  0
LINE
  5
   540
  8
0
  6
CONTINUOUS
 62
     1
 10
-702.433261257571
 20
11.6251460672966
 30
0.0
 11
-702.433261257571
 21
33.3376523585666
 31
0.0
  0
LINE
  5
   541
  8
0
  6
CONTINUOUS
 62
     1
 10
-639.433262926501
 20
33.3376523585666
 30
0.0
 11
-702.433261257571
 21
33.3376523585666
 31
0.0
  0
LINE
  5
   542
  8
0
  6
CONTINUOUS
 62
     1
 10
-639.883269781035
 20
-42.9373456208359
 30
0.0
 11
-644.608262789411
 21
-42.9373456208359
 31
0.0
  0
LINE
  5
   543
  8
0
  6
CONTINUOUS
 62
     1
 10
-702.433261257571
 20
-35.624845814551
 30
0.0
 11
-702.433261257571
 21
11.6251529337515
 31
0.0
  0
LINE
  5
   544
  8
0
  6
CONTINUOUS
 62
     1
 10
-639.433262926501
 20
-35.624845814551
 30
0.0
 11
-639.433262926501
 21
11.6251529337514
 31
0.0
  0
LINE
  5
   545
  8
0
  6
CONTINUOUS
 62
     1
 10
-658.108262431783
 20
-39.3373461453568
 30
0.0
 11
-663.958262276811
 21
-39.3373461453568
 31
0.0
  0
ARC
  5
   546
  8
0
  6
CONTINUOUS
 62
     1
 10
-639.658262920541
 20
-35.3998458205115
 30
0.0
 40
0.224999994039536
 50
269.999999948034
 51
359.999999948034
  0
ARC
  5
   547
  8
0
  6
CONTINUOUS
 62
     1
 10
-702.208261263532
 20
-35.3998458205115
 30
0.0
 40
0.224999994039536
 50
179.999999948034
 51
269.999999948034
  0
LINE
  5
   548
  8
0
  6
CONTINUOUS
 62
     1
 10
-639.433262926501
 20
-42.4873456595789
 30
0.0
 11
-644.608262789411
 21
-42.4873456595789
 31
0.0
  0
LINE
  5
   549
  8
0
  6
CONTINUOUS
 62
     1
 10
-697.258261394662
 20
-42.4873456595789
 30
0.0
 11
-702.433261257571
 21
-42.4873456595789
 31
0.0
  0
LINE
  5
   54A
  8
0
  6
CONTINUOUS
 62
     1
 10
-639.883269781035
 20
-42.9373456208361
 30
0.0
 11
-639.883269781035
 21
-42.4873456595791
 31
0.0
  0
LINE
  5
   54B
  8
0
  6
CONTINUOUS
 62
     1
 10
-701.983254403037
 20
-42.9373456208361
 30
0.0
 11
-701.983254403037
 21
-42.4873456595791
 31
0.0
  0
LINE
  5
   54C
  8
0
  6
CONTINUOUS
 62
     1
 10
-697.370754525227
 20
-35.6248526810059
 30
0.0
 11
-697.370754525227
 21
11.6251460672966
 31
0.0
  0
LINE
  5
   54D
  8
0
  6
CONTINUOUS
 62
     1
 10
-701.420754417938
 20
-35.624845814551
 30
0.0
 11
-701.420754417938
 21
11.6251460672966
 31
0.0
  0
LINE
  5
   54E
  8
0
  6
CONTINUOUS
 62
     1
 10
-700.385759938521
 20
-35.6248526810059
 30
0.0
 11
-700.385759938521
 21
11.6251460672966
 31
0.0
  0
LINE
  5
   54F
  8
0
  6
CONTINUOUS
 62
     1
 10
-698.990757228893
 20
-35.6248526810059
 30
0.0
 11
-698.990757228893
 21
11.6251460672966
 31
0.0
  0
LINE
  5
   550
  8
0
  6
CONTINUOUS
 62
     1
 10
-697.370754525227
 20
11.6251460672966
 30
0.0
 11
-697.370754525227
 21
33.3376454921117
 31
0.0
  0
LINE
  5
   551
  8
0
  6
CONTINUOUS
 62
     1
 10
-695.750758688015
 20
24.0001526059259
 30
0.0
 11
-695.750758688015
 21
33.3376454921117
 31
0.0
  0
LINE
  5
   552
  8
0
  6
CONTINUOUS
 62
     1
 10
-701.420754417938
 20
11.6251460672966
 30
0.0
 11
-701.420754417938
 21
33.3376454921117
 31
0.0
  0
LINE
  5
   553
  8
0
  6
CONTINUOUS
 62
     1
 10
-700.385759938521
 20
11.6251460672966
 30
0.0
 11
-700.385759938521
 21
33.3376454921117
 31
0.0
  0
LINE
  5
   554
  8
0
  6
CONTINUOUS
 62
     1
 10
-698.990757228893
 20
11.6251460672966
 30
0.0
 11
-698.990757228893
 21
33.3376454921117
 31
0.0
  0
LINE
  5
   555
  8
0
  6
CONTINUOUS
 62
     1
 10
-694.715757342142
 20
24.0001526059259
 30
0.0
 11
-694.715757342142
 21
33.3376454921117
 31
0.0
  0
LINE
  5
   556
  8
0
  6
CONTINUOUS
 62
     1
 10
-697.370754525227
 20
-42.4873456595789
 30
0.0
 11
-697.370754525227
 21
-35.6248454122197
 31
0.0
  0
LINE
  5
   557
  8
0
  6
CONTINUOUS
 62
     1
 10
-701.420754417938
 20
-42.4873456595789
 30
0.0
 11
-701.420754417938
 21
-35.6248454122197
 31
0.0
  0
LINE
  5
   558
  8
0
  6
CONTINUOUS
 62
     1
 10
-700.385759938521
 20
-42.4873456595789
 30
0.0
 11
-700.385759938521
 21
-35.6248454122197
 31
0.0
  0
LINE
  5
   559
  8
0
  6
CONTINUOUS
 62
     1
 10
-698.990757228893
 20
-42.4873456595789
 30
0.0
 11
-698.990757228893
 21
-35.6248454122197
 31
0.0
  0
LINE
  5
   55A
  8
0
  6
CONTINUOUS
 62
     1
 10
-644.720769652885
 20
-35.6248526810059
 30
0.0
 11
-644.720769652885
 21
11.6251460672965
 31
0.0
  0
LINE
  5
   55B
  8
0
  6
CONTINUOUS
 62
     1
 10
-640.445769766134
 20
-35.624845814551
 30
0.0
 11
-640.445769766134
 21
11.6251460672965
 31
0.0
  0
LINE
  5
   55C
  8
0
  6
CONTINUOUS
 62
     1
 10
-641.480764245552
 20
-35.6248526810059
 30
0.0
 11
-641.480764245552
 21
11.6251460672965
 31
0.0
  0
LINE
  5
   55D
  8
0
  6
CONTINUOUS
 62
     1
 10
-643.100766949219
 20
-35.6248526810059
 30
0.0
 11
-643.100766949219
 21
11.6251460672965
 31
0.0
  0
LINE
  5
   55E
  8
0
  6
CONTINUOUS
 62
     1
 10
-644.720769652885
 20
11.6251460672965
 30
0.0
 11
-644.720769652885
 21
33.3376454921117
 31
0.0
  0
LINE
  5
   55F
  8
0
  6
CONTINUOUS
 62
     1
 10
-646.340765490097
 20
24.0001526059259
 30
0.0
 11
-646.340765490097
 21
33.3376454921117
 31
0.0
  0
LINE
  5
   560
  8
0
  6
CONTINUOUS
 62
     1
 10
-640.445769766134
 20
11.6251460672965
 30
0.0
 11
-640.445769766134
 21
33.3376454921117
 31
0.0
  0
LINE
  5
   561
  8
0
  6
CONTINUOUS
 62
     1
 10
-641.480764245552
 20
11.6251460672965
 30
0.0
 11
-641.480764245552
 21
33.3376454921117
 31
0.0
  0
LINE
  5
   562
  8
0
  6
CONTINUOUS
 62
     1
 10
-643.100766949219
 20
11.6251460672965
 30
0.0
 11
-643.100766949219
 21
33.3376454921117
 31
0.0
  0
LINE
  5
   563
  8
0
  6
CONTINUOUS
 62
     1
 10
-647.15076684193
 20
24.0001526059259
 30
0.0
 11
-647.15076684193
 21
33.3376454921117
 31
0.0
  0
LINE
  5
   564
  8
0
  6
CONTINUOUS
 62
     1
 10
-644.720769652885
 20
-42.4873456595789
 30
0.0
 11
-644.720769652885
 21
-35.6248454122197
 31
0.0
  0
LINE
  5
   565
  8
0
  6
CONTINUOUS
 62
     1
 10
-640.445769766134
 20
-42.4873456595789
 30
0.0
 11
-640.445769766134
 21
-35.6248454122197
 31
0.0
  0
LINE
  5
   566
  8
0
  6
CONTINUOUS
 62
     1
 10
-641.480764245552
 20
-42.4873456595789
 30
0.0
 11
-641.480764245552
 21
-35.6248454122197
 31
0.0
  0
LINE
  5
   567
  8
0
  6
CONTINUOUS
 62
     1
 10
-643.100766949219
 20
-42.4873456595789
 30
0.0
 11
-643.100766949219
 21
-35.6248454122197
 31
0.0
  0
LINE
  5
   568
  8
0
  6
CONTINUOUS
 62
     1
 10
-693.883261484069
 20
24.0001526059259
 30
0.0
 11
-693.883261484069
 21
31.0876524181713
 31
0.0
  0
LINE
  5
   569
  8
0
  6
CONTINUOUS
 62
     1
 10
-647.983262700004
 20
24.0001526059259
 30
0.0
 11
-647.983262700004
 21
31.0876524181713
 31
0.0
  0
LINE
  5
   56A
  8
0
  6
CONTINUOUS
 62
     1
 10
-647.983262700004
 20
31.0876524181713
 30
0.0
 11
-693.883261484069
 21
31.0876524181713
 31
0.0
  0
LINE
  5
   56B
  8
0
  6
CONTINUOUS
 62
     3
 10
-683.308268630666
 20
-35.8498458085905
 30
0.0
 11
-687.808261645001
 21
-35.8498458085905
 31
0.0
  0
LINE
  5
   56C
  8
0
  6
CONTINUOUS
 62
     3
 10
-654.058276271981
 20
-35.8498458085905
 30
0.0
 11
-658.558276152772
 21
-35.8498458085905
 31
0.0
  0
LINE
  5
   56D
  8
0
  6
CONTINUOUS
 62
     3
 10
-647.308262717885
 20
-35.624845814551
 30
0.0
 11
-647.308262717885
 21
-27.5248528955826
 31
0.0
  0
LINE
  5
   56E
  8
0
  6
CONTINUOUS
 62
     3
 10
-694.558261466188
 20
-35.624845814551
 30
0.0
 11
-694.558261466188
 21
-27.5248528955826
 31
0.0
  0
LINE
  5
   56F
  8
0
  6
CONTINUOUS
 62
     3
 10
-647.533262711925
 20
11.4001529397119
 30
0.0
 11
-694.333261472136
 21
11.4001529397119
 31
0.0
  0
LINE
  5
   570
  8
0
  6
CONTINUOUS
 62
     3
 10
-687.808261645001
 20
-35.8498458085905
 30
0.0
 11
-694.333261472148
 21
-35.8498458085905
 31
0.0
  0
LINE
  5
   571
  8
0
  6
CONTINUOUS
 62
     3
 10
-658.558276152772
 20
-35.8498458085905
 30
0.0
 11
-683.308268630666
 21
-35.8498458085905
 31
0.0
  0
LINE
  5
   572
  8
0
  6
CONTINUOUS
 62
     3
 10
-647.533262711925
 20
-35.8498458085905
 30
0.0
 11
-654.058276271981
 21
-35.8498458085905
 31
0.0
  0
LINE
  5
   573
  8
0
  6
CONTINUOUS
 62
     3
 10
-666.095762220186
 20
-25.8373529402861
 30
0.0
 11
-666.095762220186
 21
-7.83736028357816
 31
0.0
  0
LINE
  5
   574
  8
0
  6
CONTINUOUS
 62
     3
 10
-675.770761963886
 20
-25.8373529402861
 30
0.0
 11
-675.770761963886
 21
-7.83736028357816
 31
0.0
  0
LINE
  5
   575
  8
0
  6
CONTINUOUS
 62
     1
 10
-647.308262717885
 20
6.22513934389281
 30
0.0
 11
-694.558261466188
 21
6.22513934389281
 31
0.0
  0
LINE
  5
   576
  8
0
  6
CONTINUOUS
 62
     1
 10
-647.308262717885
 20
10.7251392246835
 30
0.0
 11
-694.558261466188
 21
10.7251392246835
 31
0.0
  0
LINE
  5
   577
  8
0
  6
CONTINUOUS
 62
     3
 10
-666.095762220186
 20
-7.95636967983955
 30
0.0
 11
-675.770761963886
 21
-7.95636967983955
 31
0.0
  0
LINE
  5
   578
  8
0
  6
CONTINUOUS
 62
     3
 10
-666.095762220186
 20
-7.83736028357816
 30
0.0
 11
-675.770761963886
 21
-7.83736028357816
 31
0.0
  0
LINE
  5
   579
  8
0
  6
CONTINUOUS
 62
     3
 10
-666.095762220186
 20
-25.8373529402861
 30
0.0
 11
-675.770761963886
 21
-25.8373529402861
 31
0.0
  0
LINE
  5
   57A
  8
0
  6
CONTINUOUS
 62
     3
 10
-666.095762220186
 20
-25.7183298111149
 30
0.0
 11
-675.770761963886
 21
-25.7183298111149
 31
0.0
  0
LINE
  5
   57B
  8
0
  6
DASHDOT
 62
     3
 10
-670.933262092036
 20
-37.3138226155199
 30
0.0
 11
-670.933262092036
 21
1.59123512901998
 31
0.0
  0
LINE
  5
   57C
  8
0
  6
DASHDOT
 62
     3
 10
-670.933262092036
 20
1.24350541759804
 30
0.0
 11
-670.933262092036
 21
76.7657323253743
 31
0.0
  0
LINE
  5
   57D
  8
0
  6
CONTINUOUS
 62
     3
 10
-647.30826958434
 20
-27.0748529075036
 30
0.0
 11
-647.30826958434
 21
-21.6748566295119
 31
0.0
  0
LINE
  5
   57E
  8
0
  6
CONTINUOUS
 62
     3
 10
-647.30826958434
 20
-6.14985346182675
 30
0.0
 11
-647.30826958434
 21
11.1751529456724
 31
0.0
  0
LINE
  5
   57F
  8
0
  6
CONTINUOUS
 62
     3
 10
-647.30826958434
 20
-21.2248566414328
 30
0.0
 11
-647.30826958434
 21
-12.4498532949337
 31
0.0
  0
LINE
  5
   580
  8
0
  6
CONTINUOUS
 62
     3
 10
-647.30826958434
 20
-11.9998533068547
 30
0.0
 11
-647.30826958434
 21
-6.59985344990582
 31
0.0
  0
LINE
  5
   581
  8
0
  6
CONTINUOUS
 62
     3
 10
-694.55826146619
 20
-27.0748529075036
 30
0.0
 11
-694.55826146619
 21
-21.6748530505537
 31
0.0
  0
LINE
  5
   582
  8
0
  6
CONTINUOUS
 62
     3
 10
-694.558261466198
 20
-21.2248530624746
 30
0.0
 11
-694.558261466198
 21
-12.4498532949337
 31
0.0
  0
LINE
  5
   583
  8
0
  6
CONTINUOUS
 62
     3
 10
-694.558261466185
 20
-11.9998533068547
 30
0.0
 11
-694.558261466185
 21
-6.59985344990582
 31
0.0
  0
LINE
  5
   584
  8
0
  6
CONTINUOUS
 62
     3
 10
-694.558261466175
 20
-6.14985346182675
 30
0.0
 11
-694.558261466175
 21
11.1751529456724
 31
0.0
  0
LINE
  5
   585
  8
0
  6
CONTINUOUS
 62
     1
 10
-675.770765552062
 20
-21.4498444005745
 30
0.0
 11
-694.10826150493
 21
-21.4498444005745
 31
0.0
  0
LINE
  5
   586
  8
0
  6
CONTINUOUS
 62
     3
 10
-647.30826958434
 20
-21.6748479735748
 30
0.0
 11
-647.758269572419
 21
-21.6748479735748
 31
0.0
  0
LINE
  5
   587
  8
0
  6
CONTINUOUS
 62
     1
 10
-675.770774353651
 20
-20.9998444124928
 30
0.0
 11
-694.10826150493
 21
-20.9998444124928
 31
0.0
  0
LINE
  5
   588
  8
0
  6
CONTINUOUS
 62
     3
 10
-647.30826958434
 20
-21.2248479854957
 30
0.0
 11
-647.758269572419
 21
-21.2248479854957
 31
0.0
  0
LINE
  5
   589
  8
0
  6
CONTINUOUS
 62
     3
 10
-694.10826150493
 20
-21.6748530505547
 30
0.0
 11
-694.10826150493
 21
-21.2248530624756
 31
0.0
  0
LINE
  5
   58A
  8
0
  6
CONTINUOUS
 62
     3
 10
-647.758269572419
 20
-21.6748530505547
 30
0.0
 11
-647.758269572419
 21
-21.2248530624756
 31
0.0
  0
LINE
  5
   58B
  8
0
  6
CONTINUOUS
 62
     3
 10
-647.308262717885
 20
-27.5248528955826
 30
0.0
 11
-647.758269572419
 21
-27.5248528955826
 31
0.0
  0
LINE
  5
   58C
  8
0
  6
CONTINUOUS
 62
     3
 10
-647.30826958434
 20
-27.0748529075036
 30
0.0
 11
-647.758269572419
 21
-27.0748529075036
 31
0.0
  0
LINE
  5
   58D
  8
0
  6
CONTINUOUS
 62
     3
 10
-694.10826150493
 20
-27.5248528955826
 30
0.0
 11
-694.10826150493
 21
-27.0748529075036
 31
0.0
  0
LINE
  5
   58E
  8
0
  6
CONTINUOUS
 62
     3
 10
-647.758269572419
 20
-27.5248528955826
 30
0.0
 11
-647.758269572419
 21
-27.0748529075036
 31
0.0
  0
LINE
  5
   58F
  8
0
  6
CONTINUOUS
 62
     3
 10
-647.30826958434
 20
-6.59985344990582
 30
0.0
 11
-647.758269572419
 21
-6.59985344990582
 31
0.0
  0
LINE
  5
   590
  8
0
  6
CONTINUOUS
 62
     3
 10
-647.30826958434
 20
-6.14985346182675
 30
0.0
 11
-647.758269572419
 21
-6.14985346182675
 31
0.0
  0
LINE
  5
   591
  8
0
  6
CONTINUOUS
 62
     3
 10
-694.10826150493
 20
-6.59985344990582
 30
0.0
 11
-694.10826150493
 21
-6.14985346182675
 31
0.0
  0
LINE
  5
   592
  8
0
  6
CONTINUOUS
 62
     3
 10
-647.758269572419
 20
-6.59985344990582
 30
0.0
 11
-647.758269572419
 21
-6.14985346182675
 31
0.0
  0
LINE
  5
   593
  8
0
  6
CONTINUOUS
 62
     1
 10
-675.770765531224
 20
-12.2248533008942
 30
0.0
 11
-694.10826150493
 21
-12.2248533008942
 31
0.0
  0
LINE
  5
   594
  8
0
  6
CONTINUOUS
 62
     3
 10
-647.30826958434
 20
-12.4498532949337
 30
0.0
 11
-647.758269572419
 21
-12.4498532949337
 31
0.0
  0
LINE
  5
   595
  8
0
  6
CONTINUOUS
 62
     1
 10
-675.770761963886
 20
-11.7748533128151
 30
0.0
 11
-694.10826150493
 21
-11.7748533128151
 31
0.0
  0
LINE
  5
   596
  8
0
  6
CONTINUOUS
 62
     3
 10
-647.30826958434
 20
-11.9998533068547
 30
0.0
 11
-647.758269572419
 21
-11.9998533068547
 31
0.0
  0
LINE
  5
   597
  8
0
  6
CONTINUOUS
 62
     3
 10
-694.10826150493
 20
-12.4498532949337
 30
0.0
 11
-694.10826150493
 21
-11.9998533068547
 31
0.0
  0
LINE
  5
   598
  8
0
  6
CONTINUOUS
 62
     3
 10
-647.758269572419
 20
-12.4498532949337
 30
0.0
 11
-647.758269572419
 21
-11.9998533068547
 31
0.0
  0
ARC
  5
   599
  8
0
  6
CONTINUOUS
 62
     3
 10
-694.333261472148
 20
-35.624845814551
 30
0.0
 40
0.224999994039536
 50
179.999999948034
 51
269.999999948034
  0
ARC
  5
   59A
  8
0
  6
CONTINUOUS
 62
     3
 10
-647.533262711925
 20
-35.624845814551
 30
0.0
 40
0.224999994039536
 50
269.999999948034
 51
359.999999948034
  0
ARC
  5
   59B
  8
0
  6
CONTINUOUS
 62
     3
 10
-647.533262711925
 20
11.1751529456724
 30
0.0
 40
0.224999994039536
 50
359.999999948034
 51
449.999999948034
  0
ARC
  5
   59C
  8
0
  6
CONTINUOUS
 62
     3
 10
-694.333261472136
 20
11.1751529456724
 30
0.0
 40
0.224999994039536
 50
449.999999948034
 51
539.999999948034
  0
INSERT
  5
   59D
  8
255
  6
CONTINUOUS
 62
     3
  2
$1ON-OFF
 10
-661.933266724986
 20
-9.29985337838024
 30
0.0
 41
0.449999988079071
 42
0.449999988079071
 50
359.999999792137
 43
0.449999988079071
  0
LINE
  5
   59E
  8
0
  6
CONTINUOUS
 62
     1
 10
-681.058261823815
 20
-7.04985343798489
 30
0.0
 11
-681.733261805934
 21
-7.04985343798489
 31
0.0
  0
LINE
  5
   59F
  8
0
  6
CONTINUOUS
 62
     1
 10
-681.058261823815
 20
-11.0998533306965
 30
0.0
 11
-681.733261805934
 21
-11.0998533306965
 31
0.0
  0
CIRCLE
  5
   5A0
  8
0
  6
CONTINUOUS
 62
     1
 10
-681.395761814875
 20
-24.1498529849896
 30
0.0
 40
2.02499994635582
  0
CIRCLE
  5
   5A1
  8
0
  6
CONTINUOUS
 62
     1
 10
-681.395761814875
 20
-24.1498529849896
 30
0.0
 40
1.34999996423721
  0
LINE
  5
   5A2
  8
0
  6
CONTINUOUS
 62
     1
 10
-681.733261805934
 20
-11.0998533306965
 30
0.0
 11
-681.733261805934
 21
-7.04985343798489
 31
0.0
  0
LINE
  5
   5A3
  8
0
  6
CONTINUOUS
 62
     1
 10
-681.058261823815
 20
-11.0998533306965
 30
0.0
 11
-681.058261823815
 21
-7.04985343798489
 31
0.0
  0
LINE
  5
   5A4
  8
0
  6
CONTINUOUS
 62
     1
 10
-677.008261931104
 20
-26.849852913464
 30
0.0
 11
-677.008261931104
 21
-21.4498466263909
 31
0.0
  0
LINE
  5
   5A5
  8
0
  6
CONTINUOUS
 62
     1
 10
-664.858262252969
 20
-26.849852913464
 30
0.0
 11
-664.858262252969
 21
-21.4498502053516
 31
0.0
  0
LINE
  5
   5A6
  8
0
  6
CONTINUOUS
 62
     1
 10
-664.858262252969
 20
-11.7748533128151
 30
0.0
 11
-664.858262252969
 21
-6.37485345586629
 31
0.0
  0
LINE
  5
   5A7
  8
0
  6
CONTINUOUS
 62
     1
 10
-677.008261931104
 20
-11.7748533128151
 30
0.0
 11
-677.008261931104
 21
-6.37485345586629
 31
0.0
  0
LINE
  5
   5A8
  8
0
  6
CONTINUOUS
 62
     7
 10
-639.433262750437
 20
-43.3873302280719
 30
0.0
 11
-644.608262789411
 21
-43.3873302280719
 31
0.0
  0
LINE
  5
   5A9
  8
0
  6
CONTINUOUS
 62
     1
 10
-639.433262750437
 20
-59.1373298108394
 30
0.0
 11
-702.433261081507
 21
-59.1373298108394
 31
0.0
  0
LINE
  5
   5AA
  8
0
  6
DASHDOT
 62
     7
 10
-690.620740481619
 20
37.2076504761967
 30
0.0
 11
-690.620740481619
 21
47.4676493228889
 31
0.0
  0
LINE
  5
   5AB
  8
0
  6
DASHDOT
 62
     7
 10
-685.490741058273
 20
42.3376498995428
 30
0.0
 11
-695.750739904965
 21
42.3376498995428
 31
0.0
  0
LINE
  5
   5AC
  8
0
  6
DASHDOT
 62
     7
 10
-690.620761286845
 20
-69.0373297968483
 30
0.0
 11
-690.620761286845
 21
-55.0873298791221
 31
0.0
  0
LINE
  5
   5AD
  8
0
  6
DASHDOT
 62
     7
 10
-683.645761327982
 20
-62.0623298379852
 30
0.0
 11
-697.595761245708
 21
-62.0623298379852
 31
0.0
  0
LINE
  5
   5AE
  8
0
  6
DASHDOT
 62
     7
 10
-690.620761738993
 20
-73.49233000556
 30
0.0
 11
-690.620761738993
 21
-63.2323302016063
 31
0.0
  0
LINE
  5
   5AF
  8
0
  6
DASHDOT
 62
     7
 10
-685.490761837016
 20
-68.3623301035832
 30
0.0
 11
-695.75076164097
 21
-68.3623301035832
 31
0.0
  0
LINE
  5
   5B0
  8
0
  6
DASHDOT
 62
     7
 10
-670.933261043465
 20
-73.4923291276267
 30
0.0
 11
-670.933261043465
 21
-63.2323275621705
 31
0.0
  0
LINE
  5
   5B1
  8
0
  6
DASHDOT
 62
     7
 10
-665.803260260737
 20
-68.3623283448986
 30
0.0
 11
-676.063261826194
 21
-68.3623283448986
 31
0.0
  0
LINE
  5
   5B2
  8
0
  6
DASHDOT
 62
     7
 10
-680.777013996692
 20
-68.0248186545762
 30
0.0
 11
-680.777013996692
 21
-54.2998297001968
 31
0.0
  0
LINE
  5
   5B3
  8
0
  6
DASHDOT
 62
     7
 10
-673.914519519502
 20
-61.1623241773865
 30
0.0
 11
-687.639508473881
 21
-61.1623241773865
 31
0.0
  0
LINE
  5
   5B4
  8
0
  6
DASHDOT
 62
     7
 10
-661.089515709203
 20
-68.0248487912603
 30
0.0
 11
-661.089515709203
 21
-54.2998297984169
 31
0.0
  0
LINE
  5
   5B5
  8
0
  6
DASHDOT
 62
     7
 10
-654.227006212781
 20
-61.1623392948386
 30
0.0
 11
-667.952025205625
 21
-61.1623392948386
 31
0.0
  0
LINE
  5
   5B6
  8
0
  6
DASHDOT
 62
     7
 10
-651.245761436755
 20
-69.0373295668451
 30
0.0
 11
-651.245761436755
 21
-55.0873284215302
 31
0.0
  0
LINE
  5
   5B7
  8
0
  6
DASHDOT
 62
     7
 10
-644.270760864098
 20
-62.0623289941877
 30
0.0
 11
-658.220762009413
 21
-62.0623289941877
 31
0.0
  0
LINE
  5
   5B8
  8
0
  6
DASHDOT
 62
     7
 10
-651.245762684796
 20
-73.4923258249867
 30
0.0
 11
-651.245762684796
 21
-63.2323288474937
 31
0.0
  0
LINE
  5
   5B9
  8
0
  6
DASHDOT
 62
     7
 10
-646.11576419605
 20
-68.3623273362402
 30
0.0
 11
-656.375761173543
 21
-68.3623273362402
 31
0.0
  0
LINE
  5
   5BA
  8
0
  6
CONTINUOUS
 62
     7
 10
-666.095762220186
 20
-21.7066676389629
 30
0.0
 11
-675.770761963886
 21
-21.7066676389629
 31
0.0
  0
LINE
  5
   5BB
  8
0
  6
CONTINUOUS
 62
     7
 10
-666.095762220186
 20
-19.4809131687505
 30
0.0
 11
-675.770761963886
 21
-19.4809131687505
 31
0.0
  0
LINE
  5
   5BC
  8
0
  6
CONTINUOUS
 62
     7
 10
-666.095762220186
 20
-25.2710957882266
 30
0.0
 11
-675.770761963886
 21
-25.2710957882266
 31
0.0
  0
LINE
  5
   5BD
  8
0
  6
CONTINUOUS
 62
     7
 10
-701.308240070343
 20
42.877645239388
 30
0.0
 11
-701.308240070343
 21
43.6876520843852
 31
0.0
  0
LINE
  5
   5BE
  8
0
  6
CONTINUOUS
 62
     1
 10
-694.10826150493
 20
-5.92485346778722
 30
0.0
 11
-694.558261466175
 21
-5.92485346778722
 31
0.0
  0
LINE
  5
   5BF
  8
0
  6
CONTINUOUS
 62
     1
 10
-694.10826150493
 20
-6.37485345586629
 30
0.0
 11
-694.558261466185
 21
-6.37485345586629
 31
0.0
  0
LINE
  5
   5C0
  8
0
  6
CONTINUOUS
 62
     3
 10
-694.10826150493
 20
-11.9998533068547
 30
0.0
 11
-694.558261466185
 21
-11.9998533068547
 31
0.0
  0
LINE
  5
   5C1
  8
0
  6
CONTINUOUS
 62
     3
 10
-694.10826150493
 20
-12.4498532949337
 30
0.0
 11
-694.558261466198
 21
-12.4498532949337
 31
0.0
  0
LINE
  5
   5C2
  8
0
  6
CONTINUOUS
 62
     3
 10
-694.10826150493
 20
-21.2248444065323
 30
0.0
 11
-694.558261466198
 21
-21.2248444065323
 31
0.0
  0
LINE
  5
   5C3
  8
0
  6
CONTINUOUS
 62
     3
 10
-694.10826150493
 20
-21.674844394614
 30
0.0
 11
-694.55826146619
 21
-21.674844394614
 31
0.0
  0
LINE
  5
   5C4
  8
0
  6
CONTINUOUS
 62
     3
 10
-694.10826150493
 20
-27.0748529075036
 30
0.0
 11
-694.55826146619
 21
-27.0748529075036
 31
0.0
  0
LINE
  5
   5C5
  8
0
  6
CONTINUOUS
 62
     3
 10
-694.10826150493
 20
-27.5248528955826
 30
0.0
 11
-694.558261466188
 21
-27.5248528955826
 31
0.0
  0
LINE
  5
   5C6
  8
0
  6
CONTINUOUS
 62
     1
 10
-647.758269572419
 20
-27.2998529015431
 30
0.0
 11
-694.10826150493
 21
-27.2998529015431
 31
0.0
  0
LINE
  5
   5C7
  8
0
  6
CONTINUOUS
 62
     1
 10
-647.758269572419
 20
-26.849852913464
 30
0.0
 11
-694.10826150493
 21
-26.849852913464
 31
0.0
  0
LINE
  5
   5C8
  8
0
  6
CONTINUOUS
 62
     1
 10
-647.758269572419
 20
-21.4498479795352
 30
0.0
 11
-666.095763728202
 21
-21.4498479795352
 31
0.0
  0
LINE
  5
   5C9
  8
0
  6
CONTINUOUS
 62
     1
 10
-647.758269572419
 20
-20.9998479914562
 30
0.0
 11
-666.095763563328
 21
-20.9998479914562
 31
0.0
  0
LINE
  5
   5CA
  8
0
  6
CONTINUOUS
 62
     1
 10
-647.758269572419
 20
-12.2248533008942
 30
0.0
 11
-666.095762220186
 21
-12.2248533008942
 31
0.0
  0
LINE
  5
   5CB
  8
0
  6
CONTINUOUS
 62
     1
 10
-647.758269572419
 20
-11.7748533128151
 30
0.0
 11
-666.095762220186
 21
-11.7748533128151
 31
0.0
  0
LINE
  5
   5CC
  8
0
  6
CONTINUOUS
 62
     1
 10
-647.758269572419
 20
-6.37485345586629
 30
0.0
 11
-694.10826150493
 21
-6.37485345586629
 31
0.0
  0
LINE
  5
   5CD
  8
0
  6
CONTINUOUS
 62
     1
 10
-647.758269572419
 20
-5.92485346778722
 30
0.0
 11
-694.10826150493
 21
-5.92485346778722
 31
0.0
  0
LINE
  5
   5CE
  8
0
  6
DASHDOT
 62
     3
 10
-630.911404343097
 20
-12.2248464344393
 30
0.0
 11
-711.133151911198
 21
-12.2248464344393
 31
0.0
  0
LINE
  5
   5CF
  8
0
  6
CONTINUOUS
 62
     1
 10
-697.258261394662
 20
-35.8498458085905
 30
0.0
 11
-702.433261257571
 21
-35.8498458085905
 31
0.0
  0
LINE
  5
   5D0
  8
0
  6
CONTINUOUS
 62
     1
 10
-639.433262926501
 20
-35.8498458085905
 30
0.0
 11
-644.608262789411
 21
-35.8498458085905
 31
0.0
  0
LINE
  5
   5D1
  8
0
  6
CONTINUOUS
 62
     1
 10
-639.433262926501
 20
11.1751529456724
 30
0.0
 11
-644.608262789411
 21
11.1751529456724
 31
0.0
  0
LINE
  5
   5D2
  8
0
  6
CONTINUOUS
 62
     1
 10
-697.258261394662
 20
11.4001529397119
 30
0.0
 11
-702.433261257571
 21
11.4001529397119
 31
0.0
  0
LINE
  5
   5D3
  8
0
  6
DASHDOT
 62
     3
 10
-711.133151911198
 20
-12.2248464344393
 30
0.0
 11
-718.120207344549
 21
-12.2248464344393
 31
0.0
  0
LINE
  5
   5D4
  8
0
  6
CONTINUOUS
 62
     7
 10
-697.370754525227
 20
-59.1373298108394
 30
0.0
 11
-697.370754525227
 21
-43.3873302280719
 31
0.0
  0
LINE
  5
   5D5
  8
0
  6
CONTINUOUS
 62
     7
 10
-698.990757228893
 20
-59.1373298108394
 30
0.0
 11
-698.990757228893
 21
-43.3873302280719
 31
0.0
  0
LINE
  5
   5D6
  8
0
  6
CONTINUOUS
 62
     7
 10
-700.385759938521
 20
-59.1373298108394
 30
0.0
 11
-700.385759938521
 21
-43.3873302280719
 31
0.0
  0
LINE
  5
   5D7
  8
0
  6
CONTINUOUS
 62
     7
 10
-701.420754417938
 20
-59.1373298108394
 30
0.0
 11
-701.420754417938
 21
-43.3873302280719
 31
0.0
  0
LINE
  5
   5D8
  8
0
  6
CONTINUOUS
 62
     7
 10
-646.115765496057
 20
-59.1373298108394
 30
0.0
 11
-646.115765496057
 21
-48.4498437581908
 31
0.0
  0
LINE
  5
   5D9
  8
0
  6
CONTINUOUS
 62
     7
 10
-644.495769658846
 20
-59.1373298108394
 30
0.0
 11
-644.495769658846
 21
-43.3873302280719
 31
0.0
  0
LINE
  5
   5DA
  8
0
  6
CONTINUOUS
 62
     7
 10
-642.875766955179
 20
-59.1373298108394
 30
0.0
 11
-642.875766955179
 21
-43.3873302280719
 31
0.0
  0
LINE
  5
   5DB
  8
0
  6
CONTINUOUS
 62
     7
 10
-641.480764245552
 20
-59.1373298108394
 30
0.0
 11
-641.480764245552
 21
-43.3873302280719
 31
0.0
  0
LINE
  5
   5DC
  8
0
  6
CONTINUOUS
 62
     7
 10
-640.445769766134
 20
-59.1373298108394
 30
0.0
 11
-640.445769766134
 21
-43.3873302280719
 31
0.0
  0
INSERT
  5
   5DD
  8
255
  6
CONTINUOUS
 62
     7
  2
$1COPRITERMINALI
 10
-670.933263256034
 20
45.2626451762071
 30
0.0
 41
0.449999988079071
 42
0.449999988079071
 50
3.50835464724173E-15
 43
0.449999988079071
  0
LINE
  5
   5DE
  8
0
  6
CONTINUOUS
 62
     1
 10
-681.451990724508
 20
46.6126482303206
 30
0.0
 11
-683.251990676824
 21
46.6126482303206
 31
0.0
  0
LINE
  5
   5DF
  8
0
  6
CONTINUOUS
 62
     1
 10
-678.301990807954
 20
46.6126482303206
 30
0.0
 11
-680.101990760271
 21
46.6126482303206
 31
0.0
  0
LINE
  5
   5E0
  8
0
  6
CONTINUOUS
 62
     1
 10
-678.301990807954
 20
45.7126482541625
 30
0.0
 11
-683.251990676824
 21
45.7126482541625
 31
0.0
  0
LINE
  5
   5E1
  8
0
  6
CONTINUOUS
 62
     1
 10
-680.325836908187
 20
90.2626470739906
 30
0.0
 11
-681.228144576592
 21
90.2626470739906
 31
0.0
  0
LINE
  5
   5E2
  8
0
  6
CONTINUOUS
 62
     1
 10
-680.101990760271
 20
46.6126482303206
 30
0.0
 11
-680.325836908187
 21
90.2626470739906
 31
0.0
  0
LINE
  5
   5E3
  8
0
  6
CONTINUOUS
 62
     1
 10
-681.451990724508
 20
46.6126482303206
 30
0.0
 11
-681.228144576592
 21
90.2626470739906
 31
0.0
  0
LINE
  5
   5E4
  8
0
  6
CONTINUOUS
 62
     1
 10
-678.301990807954
 20
45.2626482660834
 30
0.0
 11
-678.301990807954
 21
46.6126482303206
 31
0.0
  0
LINE
  5
   5E5
  8
0
  6
CONTINUOUS
 62
     1
 10
-683.251990676824
 20
45.2626482660834
 30
0.0
 11
-683.251990676824
 21
46.6126482303206
 31
0.0
  0
LINE
  5
   5E6
  8
0
  6
CONTINUOUS
 62
     1
 10
-660.414491281811
 20
46.6126482303206
 30
0.0
 11
-660.638337429728
 21
90.2626470739906
 31
0.0
  0
LINE
  5
   5E7
  8
0
  6
CONTINUOUS
 62
     1
 10
-661.764491246048
 20
46.6126482303206
 30
0.0
 11
-661.540645098132
 21
90.2626470739906
 31
0.0
  0
LINE
  5
   5E8
  8
0
  6
CONTINUOUS
 62
     1
 10
-660.638337429728
 20
90.2626470739906
 30
0.0
 11
-661.540645098132
 21
90.2626470739906
 31
0.0
  0
LINE
  5
   5E9
  8
0
  6
CONTINUOUS
 62
     1
 10
-658.614491329495
 20
46.6126482303206
 30
0.0
 11
-660.414491281811
 21
46.6126482303206
 31
0.0
  0
LINE
  5
   5EA
  8
0
  6
CONTINUOUS
 62
     1
 10
-661.764491246048
 20
46.6126482303206
 30
0.0
 11
-663.564491198365
 21
46.6126482303206
 31
0.0
  0
LINE
  5
   5EB
  8
0
  6
CONTINUOUS
 62
     1
 10
-658.614491329495
 20
45.7126482541625
 30
0.0
 11
-663.564491198365
 21
45.7126482541625
 31
0.0
  0
LINE
  5
   5EC
  8
0
  6
CONTINUOUS
 62
     1
 10
-658.614491329495
 20
45.2626482660834
 30
0.0
 11
-658.614491329495
 21
46.6126482303206
 31
0.0
  0
LINE
  5
   5ED
  8
0
  6
CONTINUOUS
 62
     1
 10
-663.564491198365
 20
45.2626482660834
 30
0.0
 11
-663.564491198365
 21
46.6126482303206
 31
0.0
  0
LINE
  5
   5EE
  8
0
  6
CONTINUOUS
 62
     7
 10
-699.733261153033
 20
-71.2873287140527
 30
0.0
 11
-699.733261153033
 21
-70.1623295187767
 31
0.0
  0
LINE
  5
   5EF
  8
0
  6
CONTINUOUS
 62
     7
 10
-642.133262678912
 20
-71.2873287140527
 30
0.0
 11
-699.733261153033
 21
-71.2873287140527
 31
0.0
  0
LINE
  5
   5F0
  8
0
  6
CONTINUOUS
 62
     1
 10
-697.258261394662
 20
-42.9373456208359
 30
0.0
 11
-701.983254403037
 21
-42.9373456208359
 31
0.0
  0
LINE
  5
   5F1
  8
0
  6
CONTINUOUS
 62
     7
 10
-697.258261394662
 20
-43.3873302280719
 30
0.0
 11
-702.433261081507
 21
-43.3873302280719
 31
0.0
  0
INSERT
  5
   5F2
  8
255
  6
CONTINUOUS
 62
     7
  2
$3MOSTRINA
 10
-722.610476299229
 20
-61.7161247254189
 30
0.0
 41
0.449999988079071
 42
0.449999988079071
 50
3.50835464724173E-15
 43
0.449999988079071
  0
LINE
  5
   5F3
  8
0
  6
CONTINUOUS
 62
     1
 10
-680.325836908187
 20
-116.28732752196
 30
0.0
 11
-681.228144576592
 21
-116.28732752196
 31
0.0
  0
LINE
  5
   5F4
  8
0
  6
CONTINUOUS
 62
     1
 10
-681.228144576592
 20
-116.28732752196
 30
0.0
 11
-681.451990724508
 21
-72.6373286782899
 31
0.0
  0
LINE
  5
   5F5
  8
0
  6
CONTINUOUS
 62
     1
 10
-680.325836908187
 20
-116.28732752196
 30
0.0
 11
-680.101990760271
 21
-72.6373286782899
 31
0.0
  0
LINE
  5
   5F6
  8
0
  6
CONTINUOUS
 62
     1
 10
-683.251990676824
 20
-72.6373286782899
 30
0.0
 11
-683.251990676824
 21
-71.2873287140527
 31
0.0
  0
LINE
  5
   5F7
  8
0
  6
CONTINUOUS
 62
     1
 10
-678.301990807954
 20
-71.7373287021317
 30
0.0
 11
-683.251990676824
 21
-71.7373287021317
 31
0.0
  0
LINE
  5
   5F8
  8
0
  6
CONTINUOUS
 62
     1
 10
-678.301990807954
 20
-72.6373286782899
 30
0.0
 11
-680.101990760271
 21
-72.6373286782899
 31
0.0
  0
LINE
  5
   5F9
  8
0
  6
CONTINUOUS
 62
     1
 10
-678.301990807954
 20
-72.6373286782899
 30
0.0
 11
-678.301990807954
 21
-71.2873287140527
 31
0.0
  0
LINE
  5
   5FA
  8
0
  6
CONTINUOUS
 62
     1
 10
-681.451990724508
 20
-72.6373286782899
 30
0.0
 11
-683.251990676824
 21
-72.6373286782899
 31
0.0
  0
LINE
  5
   5FB
  8
0
  6
CONTINUOUS
 62
     1
 10
-663.564491198365
 20
-72.6373286782899
 30
0.0
 11
-663.564491198365
 21
-71.2873287140527
 31
0.0
  0
LINE
  5
   5FC
  8
0
  6
CONTINUOUS
 62
     1
 10
-658.614491329495
 20
-71.7373287021317
 30
0.0
 11
-663.564491198365
 21
-71.7373287021317
 31
0.0
  0
LINE
  5
   5FD
  8
0
  6
CONTINUOUS
 62
     1
 10
-661.764491246048
 20
-72.6373286782899
 30
0.0
 11
-663.564491198365
 21
-72.6373286782899
 31
0.0
  0
LINE
  5
   5FE
  8
0
  6
CONTINUOUS
 62
     1
 10
-658.614491329495
 20
-72.6373286782899
 30
0.0
 11
-660.414491281811
 21
-72.6373286782899
 31
0.0
  0
LINE
  5
   5FF
  8
0
  6
CONTINUOUS
 62
     1
 10
-658.614491329495
 20
-72.6373286782899
 30
0.0
 11
-658.614491329495
 21
-71.2873287140527
 31
0.0
  0
LINE
  5
   600
  8
0
  6
CONTINUOUS
 62
     1
 10
-661.540645098132
 20
-116.28732752196
 30
0.0
 11
-661.764491246048
 21
-72.6373286782899
 31
0.0
  0
LINE
  5
   601
  8
0
  6
CONTINUOUS
 62
     1
 10
-660.638337429728
 20
-116.28732752196
 30
0.0
 11
-660.414491281811
 21
-72.6373286782899
 31
0.0
  0
LINE
  5
   602
  8
0
  6
CONTINUOUS
 62
     1
 10
-660.638337429728
 20
-116.28732752196
 30
0.0
 11
-661.540645098132
 21
-116.28732752196
 31
0.0
  0
INSERT
  5
   603
  8
255
  6
CONTINUOUS
 62
     7
  2
$1COPRITERMINALI
 10
-670.933263256034
 20
-71.2873256241764
 30
0.0
 41
0.449999988079071
 42
-0.449999988079071
 50
1.03931142803049E-7
 43
0.449999988079071
  0
ARC
  5
   604
  8
0
  6
CONTINUOUS
 62
     1
 10
-690.620761286845
 20
-62.0623298379852
 30
0.0
 40
2.47500007807242
 50
169.408986188127
 51
249.549096032511
  0
ARC
  5
   605
  8
0
  6
DOT
 62
     1
 10
-690.620761286845
 20
-62.0623298379852
 30
0.0
 40
2.47500007807242
 50
249.549096032511
 51
359.999999948034
  0
INSERT
  5
   606
  8
0
  6
CONTINUOUS
 62
     7
  2
*UDIM258
 10
0.0
 20
0.0
 30
0.0
  0
INSERT
  5
   607
  8
0
  6
CONTINUOUS
 62
     7
  2
*UDIM259
 10
0.0
 20
0.0
 30
0.0
  0
INSERT
  5
   608
  8
0
  6
CONTINUOUS
 62
     7
  2
*UDIM260
 10
0.0
 20
0.0
 30
0.0
  0
INSERT
  5
   609
  8
0
  6
CONTINUOUS
 62
     7
  2
*UDIM261
 10
0.0
 20
0.0
 30
0.0
  0
TEXT
  5
   60A
  8
0
  6
CONTINUOUS
 62
     7
 10
-672.112715985728
 20
-109.09074981181
 30
0.0
 40
3.00000011722246
  1
Y
 50
359.999999948034
 41
0.916666563948002
 72
     2
 11
-669.912716175138
 21
-109.090749813794
 31
0.0
  0
INSERT
  5
   60B
  8
0
  6
CONTINUOUS
 62
     7
  2
*UDIM262
 10
0.0
 20
0.0
 30
0.0
  0
TEXT
  5
   60C
  8
0
  6
CONTINUOUS
 62
     7
 10
-623.519837681006
 20
-31.2417961131142
 30
0.0
 40
3.00000011722246
  1
=          =
 50
89.9999999480344
 41
0.916666563948002
 72
     2
 11
-623.519837651616
 21
1.20820148975257
 31
0.0
  0
INSERT
  5
   60D
  8
0
  6
CONTINUOUS
 62
     7
  2
*UDIM263
 10
0.0
 20
0.0
 30
0.0
  0
INSERT
  5
   60E
  8
0
  6
CONTINUOUS
 62
     7
  2
*UDIM264
 10
0.0
 20
0.0
 30
0.0
  0
INSERT
  5
   60F
  8
0
  6
CONTINUOUS
 62
     7
  2
*UDIM265
 10
0.0
 20
0.0
 30
0.0
  0
INSERT
  5
   610
  8
0
  6
CONTINUOUS
 62
     7
  2
*UDIM266
 10
0.0
 20
0.0
 30
0.0
  0
INSERT
  5
   611
  8
0
  6
CONTINUOUS
 62
     7
  2
*UDIM267
 10
0.0
 20
0.0
 30
0.0
  0
INSERT
  5
   612
  8
0
  6
CONTINUOUS
 62
     5
  2
*UDIM268
 10
0.0
 20
0.0
 30
0.0
  0
INSERT
  5
   613
  8
0
  6
CONTINUOUS
 62
     7
  2
*UDIM269
 10
0.0
 20
0.0
 30
0.0
  0
TEXT
  5
   614
  8
0
  6
CONTINUOUS
 62
     7
 10
-612.990499027804
 20
-13.5579707797343
 30
0.0
 40
3.00000011722246
  1
X
 50
359.999999948034
 41
0.916666563948002
 72
     1
 11
-611.890499121156
 21
-12.0579707221153
 31
0.0
 73
     2
  0
TEXT
  5
   615
  8
0
  6
CONTINUOUS
 62
     7
 10
-728.796518985505
 20
-13.6599342017159
 30
0.0
 40
3.00000011722246
  1
X
 50
359.999999948034
 41
0.916666563948002
 72
     1
 11
-727.696519078857
 21
-12.1599341440968
 31
0.0
 73
     2
  0
TEXT
  5
   616
  8
0
  6
CONTINUOUS
 62
     7
 10
-672.104334513214
 20
77.942299165721
 30
0.0
 40
3.00000011722246
  1
Y
 50
359.999999948034
 41
0.916666563948002
 72
     1
 11
-671.004334606566
 21
79.4422992233401
 31
0.0
 73
     2
  0
ENDSEC
  0
EOF
