  0
SECTION
  2
HEADER
  9
$ACADVER
  1
AC1009
  9
$DWGCODEPAGE
  3
iso8859-1
  9
$INSBASE
 10
0.0
 20
0.0
 30
0.0
  9
$EXTMIN
 10
1.0E20
 20
1.0E20
  9
$EXTMAX
 10
-1.0E20
 20
-1.0E20
  9
$LIMMIN
 10
0.0
 20
0.0
  9
$LIMMAX
 10
12.0
 20
9.0
  9
$ORTHOMODE
 70
     0
  9
$REGENMODE
 70
     1
  9
$FILLMODE
 70
     1
  9
$QTEXTMODE
 70
     0
  9
$MIRRTEXT
 70
     1
  9
$DRAGMODE
 70
     2
  9
$LTSCALE
 40
15.0
  9
$OSMODE
 70
     0
  9
$ATTMODE
 70
     1
  9
$TEXTSIZE
 40
0.2
  9
$TRACEWID
 40
0.05
  9
$TEXTSTYLE
  7
STANDARD
  9
$CLAYER
  8
0
  9
$CELTYPE
  6
DASHED
  9
$CECOLOR
 62
   256
  9
$DIMSCALE
 40
1.0
  9
$DIMASZ
 40
0.18
  9
$DIMEXO
 40
0.0625
  9
$DIMDLI
 40
0.38
  9
$DIMRND
 40
0.0
  9
$DIMDLE
 40
0.0
  9
$DIMEXE
 40
0.18
  9
$DIMTP
 40
0.0
  9
$DIMTM
 40
0.0
  9
$DIMTXT
 40
0.18
  9
$DIMCEN
 40
0.09
  9
$DIMTSZ
 40
0.0
  9
$DIMTOL
 70
     0
  9
$DIMLIM
 70
     0
  9
$DIMTIH
 70
     1
  9
$DIMTOH
 70
     1
  9
$DIMSE1
 70
     0
  9
$DIMSE2
 70
     0
  9
$DIMTAD
 70
     0
  9
$DIMZIN
 70
     0
  9
$DIMBLK
  1

  9
$DIMASO
 70
     1
  9
$DIMSHO
 70
     1
  9
$DIMPOST
  1

  9
$DIMAPOST
  1

  9
$DIMALT
 70
     0
  9
$DIMALTD
 70
     2
  9
$DIMALTF
 40
25.4
  9
$DIMLFAC
 40
1.0
  9
$DIMTOFL
 70
     0
  9
$DIMTVP
 40
0.0
  9
$DIMTIX
 70
     0
  9
$DIMSOXD
 70
     0
  9
$DIMSAH
 70
     0
  9
$DIMBLK1
  1

  9
$DIMBLK2
  1

  9
$DIMSTYLE
  2
STANDARD
  9
$DIMCLRD
 70
     0
  9
$DIMCLRE
 70
     0
  9
$DIMCLRT
 70
     0
  9
$DIMTFAC
 40
1.0
  9
$DIMGAP
 40
0.09
  9
$LUNITS
 70
     2
  9
$LUPREC
 70
     4
  9
$AXISMODE
 70
     0
  9
$AXISUNIT
 10
0.0
 20
0.0
  9
$SKETCHINC
 40
0.1
  9
$FILLETRAD
 40
0.0
  9
$AUNITS
 70
     0
  9
$AUPREC
 70
     0
  9
$MENU
  1
acad
  9
$ELEVATION
 40
0.0
  9
$PELEVATION
 40
0.0
  9
$THICKNESS
 40
0.0
  9
$LIMCHECK
 70
     0
  9
$BLIPMODE
 70
     1
  9
$CHAMFERA
 40
0.0
  9
$CHAMFERB
 40
0.0
  9
$SKPOLY
 70
     0
  9
$TDCREATE
 40
0.000000000
  9
$TDUPDATE
 40
0.000000000
  9
$TDINDWG
 40
0.0
  9
$TDUSRTIMER
 40
0.0
  9
$USRTIMER
 70
     1
  9
$ANGBASE
 50
0.0
  9
$ANGDIR
 70
     0
  9
$PDMODE
 70
     0
  9
$PDSIZE
 40
0.0
  9
$PLINEWID
 40
0.0
  9
$COORDS
 70
     1
  9
$SPLFRAME
 70
     0
  9
$SPLINETYPE
 70
     6
  9
$SPLINESEGS
 70
     8
  9
$ATTDIA
 70
     0
  9
$ATTREQ
 70
     1
  9
$HANDLING
 70
     1
  9
$HANDSEED
  5
   7C1
  9
$SURFTAB1
 70
     6
  9
$SURFTAB2
 70
     6
  9
$SURFTYPE
 70
     6
  9
$SURFU
 70
     6
  9
$SURFV
 70
     6
  9
$UCSNAME
  2

  9
$UCSORG
 10
0.0
 20
0.0
 30
0.0
  9
$UCSXDIR
 10
1.0
 20
0.0
 30
0.0
  9
$UCSYDIR
 10
0.0
 20
1.0
 30
0.0
  9
$PUCSNAME
  2

  9
$PUCSORG
 10
0.0
 20
0.0
 30
0.0
  9
$PUCSXDIR
 10
1.0
 20
0.0
 30
0.0
  9
$PUCSYDIR
 10
0.0
 20
1.0
 30
0.0
  9
$USERI1
 70
     0
  9
$USERI2
 70
     0
  9
$USERI3
 70
     0
  9
$USERI4
 70
     0
  9
$USERI5
 70
     0
  9
$USERR1
 40
0.0
  9
$USERR2
 40
0.0
  9
$USERR3
 40
0.0
  9
$USERR4
 40
0.0
  9
$USERR5
 40
0.0
  9
$WORLDVIEW
 70
     1
  9
$SHADEDGE
 70
     3
  9
$SHADEDIF
 70
    70
  9
$TILEMODE
 70
     1
  9
$MAXACTVP
 70
    16
  9
$PINSBASE
 10
0.0
 20
0.0
 30
0.0
  9
$PLIMCHECK
 70
     0
  9
$PEXTMIN
 10
1.0E20
 20
1.0E20
 30
1.0E20
  9
$PEXTMAX
 10
-1.0E20
 20
-1.0E20
 30
-1.0E20
  9
$PLIMMIN
 10
0.0
 20
0.0
  9
$PLIMMAX
 10
12.0
 20
9.0
  9
$UNITMODE
 70
     0
  9
$VISRETAIN
 70
     0
  0
ENDSEC
  0
SECTION
  2
TABLES
  0
TABLE
  2
VPORT
 70
     1
  0
VPORT
  2
*ACTIVE
 70
     0
 10
0.0
 20
0.0
 11
1.0
 21
1.0
 12
6.801242
 22
4.5
 13
0.0
 23
0.0
 14
1.0
 24
1.0
 15
0.0
 25
0.0
 16
0.0
 26
0.0
 36
1.0
 17
0.0
 27
0.0
 37
0.0
 40
9.0
 41
1.511387
 42
50.0
 43
0.0
 44
0.0
 50
0.0
 51
0.0
 71
     0
 72
   100
 73
     1
 74
     1
 75
     0
 76
     0
 77
     0
 78
     0
  0
ENDTAB
  0
TABLE
  2
LTYPE
 70
    41
  0
LTYPE
  2
BYBLOCK
 70
     0
  3

 72
    65
 73
     0
 40
0.0
  0
LTYPE
  2
BYLAYER
 70
     0
  3

 72
    65
 73
     0
 40
0.0
  0
LTYPE
  2
CONTINUOUS
 70
     0
  3
Solid line
 72
    65
 73
     0
 40
0.0
  0
LTYPE
  2
BORDER
 70
    64
  3
__ __ . __ __ . __ __ . __ __ . __ __ . __ __ .
 72
    65
 73
     6
 40
1.75
 49
0.5
 49
-0.25
 49
0.5
 49
-0.25
 49
0.0
 49
-0.25
  0
LTYPE
  2
BORDER2
 70
    64
  3
__.__.__.__.__.__.__.__.__.__.__.__.__.__.__.__
 72
    65
 73
     6
 40
0.875
 49
0.25
 49
-0.125
 49
0.25
 49
-0.125
 49
0.0
 49
-0.125
  0
LTYPE
  2
BORDERX2
 70
    64
  3
____  ____  .  ____  ____  .  ____  ____  .  __
 72
    65
 73
     6
 40
3.5
 49
1.0
 49
-0.5
 49
1.0
 49
-0.5
 49
0.0
 49
-0.5
  0
LTYPE
  2
CENTER
 70
    64
  3
____ _ ____ _ ____ _ ____ _ ____ _ ____ _ ____
 72
    65
 73
     4
 40
2.0
 49
1.25
 49
-0.25
 49
0.25
 49
-0.25
  0
LTYPE
  2
CENTER2
 70
    64
  3
___ _ ___ _ ___ _ ___ _ ___ _ ___ _ ___ _ ___ _
 72
    65
 73
     4
 40
1.125
 49
0.75
 49
-0.125
 49
0.125
 49
-0.125
  0
LTYPE
  2
CENTERX2
 70
    64
  3
________  __  ________  __  ________  __  _____
 72
    65
 73
     4
 40
4.0
 49
2.5
 49
-0.5
 49
0.5
 49
-0.5
  0
LTYPE
  2
DASHDOT
 70
    64
  3
__ . __ . __ . __ . __ . __ . __ . __ . __ . __
 72
    65
 73
     4
 40
1.0
 49
0.5
 49
-0.25
 49
0.0
 49
-0.25
  0
LTYPE
  2
DASHDOT2
 70
    64
  3
_._._._._._._._._._._._._._._._._._._._._._._._
 72
    65
 73
     4
 40
0.5
 49
0.25
 49
-0.125
 49
0.0
 49
-0.125
  0
LTYPE
  2
DASHDOTX2
 70
    64
  3
____  .  ____  .  ____  .  ____  .  ____  .  __
 72
    65
 73
     4
 40
2.0
 49
1.0
 49
-0.5
 49
0.0
 49
-0.5
  0
LTYPE
  2
DASHED
 70
    64
  3
__ __ __ __ __ __ __ __ __ __ __ __ __ __ __ __
 72
    65
 73
     2
 40
0.75
 49
0.5
 49
-0.25
  0
LTYPE
  2
DASHED2
 70
    64
  3
_ _ _ _ _ _ _ _ _ _ _ _ _ _ _ _ _ _ _ _ _ _ _ _
 72
    65
 73
     2
 40
0.375
 49
0.25
 49
-0.125
  0
LTYPE
  2
DASHEDX2
 70
    64
  3
____  ____  ____  ____  ____  ____  ____  ____
 72
    65
 73
     2
 40
1.5
 49
1.0
 49
-0.5
  0
LTYPE
  2
DIVIDE
 70
    64
  3
____ . . ____ . . ____ . . ____ . . ____ . . __
 72
    65
 73
     6
 40
1.25
 49
0.5
 49
-0.25
 49
0.0
 49
-0.25
 49
0.0
 49
-0.25
  0
LTYPE
  2
DIVIDE2
 70
    64
  3
__..__..__..__..__..__..__..__..__..__..__..__.
 72
    65
 73
     6
 40
0.625
 49
0.25
 49
-0.125
 49
0.0
 49
-0.125
 49
0.0
 49
-0.125
  0
LTYPE
  2
DIVIDEX2
 70
    64
  3
________  .  .  ________  .  .  ________  .  .
 72
    65
 73
     6
 40
2.5
 49
1.0
 49
-0.5
 49
0.0
 49
-0.5
 49
0.0
 49
-0.5
  0
LTYPE
  2
DOT
 70
    64
  3
. . . . . . . . . . . . . . . . . . . . . . . .
 72
    65
 73
     2
 40
0.25
 49
0.0
 49
-0.25
  0
LTYPE
  2
DOT2
 70
    64
  3
...............................................
 72
    65
 73
     2
 40
0.125
 49
0.0
 49
-0.125
  0
LTYPE
  2
DOTX2
 70
    64
  3
.  .  .  .  .  .  .  .  .  .  .  .  .  .  .  .
 72
    65
 73
     2
 40
0.5
 49
0.0
 49
-0.5
  0
LTYPE
  2
HIDDEN
 70
    64
  3
__ __ __ __ __ __ __ __ __ __ __ __ __ __ __ __
 72
    65
 73
     2
 40
0.375
 49
0.25
 49
-0.125
  0
LTYPE
  2
HIDDEN2
 70
    64
  3
_ _ _ _ _ _ _ _ _ _ _ _ _ _ _ _ _ _ _ _ _ _ _ _
 72
    65
 73
     2
 40
0.1875
 49
0.125
 49
-0.0625
  0
LTYPE
  2
HIDDENX2
 70
    64
  3
____ ____ ____ ____ ____ ____ ____ ____ ____ __
 72
    65
 73
     2
 40
0.75
 49
0.5
 49
-0.25
  0
LTYPE
  2
PHANTOM
 70
    64
  3
______  __  __  ______  __  __  ______  __  __
 72
    65
 73
     6
 40
2.5
 49
1.25
 49
-0.25
 49
0.25
 49
-0.25
 49
0.25
 49
-0.25
  0
LTYPE
  2
PHANTOM2
 70
    64
  3
___ _ _ ___ _ _ ___ _ _ ___ _ _ ___ _ _ ___ _ _
 72
    65
 73
     6
 40
1.25
 49
0.625
 49
-0.125
 49
0.125
 49
-0.125
 49
0.125
 49
-0.125
  0
LTYPE
  2
PHANTOMX2
 70
    64
  3
____________    ____    ____    ____________
 72
    65
 73
     6
 40
5.0
 49
2.5
 49
-0.5
 49
0.5
 49
-0.5
 49
0.5
 49
-0.5
  0
LTYPE
  2
ACAD_ISO02W100
 70
    64
  3
__ __ __ __ __ __ __ __ __ __ __ __ __ __ __ __
 72
    65
 73
     2
 40
15.0
 49
12.0
 49
-3.0
  0
LTYPE
  2
ACAD_ISO03W100
 70
    64
  3
__    __    __    __    __    __    __    __
 72
    65
 73
     2
 40
30.0
 49
12.0
 49
-18.0
  0
LTYPE
  2
ACAD_ISO04W100
 70
    64
  3
____ . ____ . ____ . ____ . ____ . ____ . ____
 72
    65
 73
     4
 40
30.5
 49
24.0
 49
-3.0
 49
0.5
 49
-3.0
  0
LTYPE
  2
ACAD_ISO05W100
 70
    64
  3
____ .. ____ .. ____ .. ____ .. ____ .. ____ ..
 72
    65
 73
     6
 40
34.0
 49
24.0
 49
-3.0
 49
0.5
 49
-3.0
 49
0.5
 49
-3.0
  0
LTYPE
  2
ACAD_ISO06W100
 70
    64
  3
____ ... ____ ... ____ ... ____ ... ____ ... __
 72
    65
 73
     8
 40
37.5
 49
24.0
 49
-3.0
 49
0.5
 49
-3.0
 49
0.5
 49
-3.0
 49
0.5
 49
-3.0
  0
LTYPE
  2
ACAD_ISO07W100
 70
    64
  3
. . . . . . . . . . . . . . . . . . . . . . . .
 72
    65
 73
     2
 40
3.5
 49
0.5
 49
-3.0
  0
LTYPE
  2
ACAD_ISO08W100
 70
    64
  3
____ __ ____ __ ____ __ ____ ____ __ __ ____ __
 72
    65
 73
     4
 40
36.0
 49
24.0
 49
-3.0
 49
6.0
 49
-3.0
  0
LTYPE
  2
ACAD_ISO09W100
 70
    64
  3
____ __ __ ____ __ __ ____ __ __ ____ __ __ ___
 72
    65
 73
     6
 40
45.0
 49
24.0
 49
-3.0
 49
6.0
 49
-3.0
 49
6.0
 49
-3.0
  0
LTYPE
  2
ACAD_ISO10W100
 70
    64
  3
__ . __ . __ . __ . __ . __ . __ . __ . __ . __
 72
    65
 73
     4
 40
18.5
 49
12.0
 49
-3.0
 49
0.5
 49
-3.0
  0
LTYPE
  2
ACAD_ISO11W100
 70
    64
  3
__ __ . __ __ . __ __ . __ __ . __ __ . __ __ .
 72
    65
 73
     6
 40
33.5
 49
12.0
 49
-3.0
 49
12.0
 49
-3.0
 49
0.5
 49
-3.0
  0
LTYPE
  2
ACAD_ISO12W100
 70
    64
  3
__ . . __ . . __ . . __ . . __ . . __ . . __ .
 72
    65
 73
     6
 40
22.0
 49
12.0
 49
-3.0
 49
0.5
 49
-3.0
 49
0.5
 49
-3.0
  0
LTYPE
  2
ACAD_ISO13W100
 70
    64
  3
__ __ . . __ __ . . __ __ . . __ __ . . __ __ .
 72
    65
 73
     8
 40
37.0
 49
12.0
 49
-3.0
 49
12.0
 49
-3.0
 49
0.5
 49
-3.0
 49
0.5
 49
-3.0
  0
LTYPE
  2
ACAD_ISO14W100
 70
    64
  3
__ . . . __ . . . __ . . . __ . . . __ . . . __
 72
    65
 73
     8
 40
25.5
 49
12.0
 49
-3.0
 49
0.5
 49
-3.0
 49
0.5
 49
-3.0
 49
0.5
 49
-3.0
  0
LTYPE
  2
ACAD_ISO15W100
 70
    64
  3
__ __ . . . __ __ . . . __ __ . . . __ __ . . .
 72
    65
 73
    10
 40
40.5
 49
12.0
 49
-3.0
 49
12.0
 49
-3.0
 49
0.5
 49
-3.0
 49
0.5
 49
-3.0
 49
0.5
 49
-3.0
  0
ENDTAB
  0
TABLE
  2
STYLE
 70
     4
  0
STYLE
  2
STANDARD
 70
    64
 40
0.0
 41
1.0
 50
0.0
 71
     0
 42
0.2
  3
txt
  4

  0
STYLE
  2
TOLERANCE
 70
    64
 40
0.0
 41
1.0
 50
0.0
 71
     0
 42
0.2
  3
../igesfont/iges1003.shx
  4

  0
STYLE
  2
ROMANS
 70
    64
 40
0.0
 41
1.0
 50
0.0
 71
     0
 42
0.2
  3
romans.shx
  4

  0
STYLE
  2
ROMANC
 70
    64
 40
0.0
 41
1.0
 50
0.0
 71
     0
 42
0.2
  3
romanc.shx
  4

  0
ENDTAB
  0
TABLE
  2
DIMSTYLE
 70
     2
  0
DIMSTYLE
  2
UNNAMED
 70
     0
  3

  4

  5

  6

  7

 40
1.0
 41
0.18
 42
0.0625
 43
0.38
 44
0.18
 45
0.0
 46
0.0
 47
0.0
 48
0.0
140
0.18
141
0.09
142
0.0
143
25.4
144
1.0
145
0.0
146
1.0
147
0.09
 71
     0
 72
     0
 73
     1
 74
     1
 75
     0
 76
     0
 77
     0
 78
     0
170
     0
171
     2
172
     0
173
     0
174
     0
175
     0
176
     0
177
     0
178
     0
  0
DIMSTYLE
  2
STANDARD
 70
     0
  3

  4

  5

  6

  7

 40
1.0
 41
0.18
 42
0.0625
 43
0.38
 44
0.18
 45
0.0
 46
0.0
 47
0.0
 48
0.0
140
0.18
141
0.09
142
0.0
143
25.4
144
1.0
145
0.0
146
1.0
147
0.09
 71
     0
 72
     0
 73
     1
 74
     1
 75
     0
 76
     0
 77
     0
 78
     0
170
     0
171
     2
172
     0
173
     0
174
     0
175
     0
176
     0
177
     0
178
     0
  0
ENDTAB
  0
TABLE
  2
LAYER
 70
     2
  0
LAYER
  2
0
 70
     0
 62
     7
  6
CONTINUOUS
  0
LAYER
  2
255
 70
     0
 62
     7
  6
CONTINUOUS
  0
ENDTAB
  0
ENDSEC
  0
SECTION
  2
BLOCKS
  0
BLOCK
  5
     B
  8
0
  6
CONTINUOUS
 62
     7
  2
MOSTRINA
 70
    64
 10
0.0
 20
0.0
 30
0.0
  3
MOSTRINA
  0
LINE
  5
     C
  8
0
  6
CONTINUOUS
 62
     3
 10
173.338256835938
 20
30.7306251525879
 30
0.0
 11
173.338256835938
 21
189.230621337891
 31
0.0
  0
LINE
  5
     D
  8
0
  6
CONTINUOUS
 62
     3
 10
57.5882568359375
 20
29.4806251525879
 30
0.0
 11
172.088256835938
 21
29.4806251525879
 31
0.0
  0
LINE
  5
     E
  8
0
  6
CONTINUOUS
 62
     3
 10
56.3382568359375
 20
30.7306251525879
 30
0.0
 11
56.3382568359375
 21
189.230621337891
 31
0.0
  0
LINE
  5
     F
  8
0
  6
CONTINUOUS
 62
     3
 10
57.5882568359375
 20
190.480621337891
 30
0.0
 11
172.088256835938
 21
190.480621337891
 31
0.0
  0
LINE
  5
    10
  8
0
  6
CONTINUOUS
 62
     3
 10
167.838256835938
 20
56.9806251525879
 30
0.0
 11
167.838256835938
 21
162.980625152588
 31
0.0
  0
LINE
  5
    11
  8
0
  6
CONTINUOUS
 62
     3
 10
61.8382568359375
 20
56.9806251525879
 30
0.0
 11
167.838256835938
 21
56.9806251525879
 31
0.0
  0
LINE
  5
    12
  8
0
  6
CONTINUOUS
 62
     3
 10
61.8382568359375
 20
56.9806251525879
 30
0.0
 11
61.8382568359375
 21
162.980625152588
 31
0.0
  0
LINE
  5
    13
  8
0
  6
CONTINUOUS
 62
     3
 10
61.8382568359375
 20
162.980621337891
 30
0.0
 11
167.838256835938
 21
162.980621337891
 31
0.0
  0
LINE
  5
    14
  8
0
  6
CONTINUOUS
 62
     3
 10
168.838256835938
 20
48.4806251525879
 30
0.0
 11
168.838256835938
 21
49.4806251525879
 31
0.0
  0
LINE
  5
    15
  8
0
  6
CONTINUOUS
 62
     3
 10
61.8382568359375
 20
50.4806251525879
 30
0.0
 11
167.838256835938
 21
50.4806251525879
 31
0.0
  0
LINE
  5
    16
  8
0
  6
CONTINUOUS
 62
     3
 10
60.8382568359375
 20
48.4806251525879
 30
0.0
 11
60.8382568359375
 21
49.4806251525879
 31
0.0
  0
LINE
  5
    17
  8
0
  6
CONTINUOUS
 62
     3
 10
61.8382568359375
 20
49.4806251525879
 30
0.0
 11
167.838256835938
 21
49.4806251525879
 31
0.0
  0
LINE
  5
    18
  8
0
  6
CONTINUOUS
 62
     3
 10
60.8382568359375
 20
29.4806251525879
 30
0.0
 11
60.8382568359375
 21
48.4806251525879
 31
0.0
  0
LINE
  5
    19
  8
0
  6
CONTINUOUS
 62
     3
 10
60.8382568359375
 20
49.4806213378906
 30
0.0
 11
60.8382568359375
 21
190.480621337891
 31
0.0
  0
LINE
  5
    1A
  8
0
  6
CONTINUOUS
 62
     3
 10
61.8382568359375
 20
29.4806251525879
 30
0.0
 11
61.8382568359375
 21
49.4806251525879
 31
0.0
  0
LINE
  5
    1B
  8
0
  6
CONTINUOUS
 62
     3
 10
61.8382568359375
 20
162.980621337891
 30
0.0
 11
61.8382568359375
 21
169.480621337891
 31
0.0
  0
LINE
  5
    1C
  8
0
  6
CONTINUOUS
 62
     3
 10
61.8382568359375
 20
50.4806251525879
 30
0.0
 11
61.8382568359375
 21
56.9806251525879
 31
0.0
  0
LINE
  5
    1D
  8
0
  6
CONTINUOUS
 62
     3
 10
168.838256835938
 20
29.4806251525879
 30
0.0
 11
168.838256835938
 21
48.4806251525879
 31
0.0
  0
LINE
  5
    1E
  8
0
  6
CONTINUOUS
 62
     3
 10
168.838256835938
 20
49.4806251525879
 30
0.0
 11
168.838256835938
 21
190.480621337891
 31
0.0
  0
LINE
  5
    1F
  8
0
  6
CONTINUOUS
 62
     3
 10
167.838256835938
 20
50.4806251525879
 30
0.0
 11
167.838256835938
 21
56.9806251525879
 31
0.0
  0
LINE
  5
    20
  8
0
  6
CONTINUOUS
 62
     3
 10
167.838256835938
 20
162.980621337891
 30
0.0
 11
167.838256835938
 21
169.480621337891
 31
0.0
  0
LINE
  5
    21
  8
0
  6
CONTINUOUS
 62
     3
 10
167.838256835938
 20
29.4806251525879
 30
0.0
 11
167.838256835938
 21
49.4806251525879
 31
0.0
  0
LINE
  5
    22
  8
0
  6
CONTINUOUS
 62
     3
 10
60.8382568359375
 20
170.480621337891
 30
0.0
 11
168.838256835938
 21
170.480621337891
 31
0.0
  0
LINE
  5
    23
  8
0
  6
CONTINUOUS
 62
     3
 10
61.8382568359375
 20
169.480621337891
 30
0.0
 11
167.838256835938
 21
169.480621337891
 31
0.0
  0
ARC
  5
    24
  8
0
  6
CONTINUOUS
 62
     3
 10
57.5882568359375
 20
30.7306251525879
 30
0.0
 40
1.25
 50
180.0
 51
270.0
  0
ARC
  5
    25
  8
0
  6
CONTINUOUS
 62
     3
 10
172.088256835938
 20
30.7306251525879
 30
0.0
 40
1.25
 50
270.0
 51
360.0
  0
ARC
  5
    26
  8
0
  6
CONTINUOUS
 62
     3
 10
172.088256835938
 20
189.230621337891
 30
0.0
 40
1.25
 50
0.0
 51
90.0
  0
ARC
  5
    27
  8
0
  6
CONTINUOUS
 62
     3
 10
57.5882568359375
 20
189.230621337891
 30
0.0
 40
1.25
 50
90.0
 51
180.0
  0
LINE
  5
    28
  8
0
  6
DOT
 62
     3
 10
60.3382577409677
 20
179.7306252571
 30
0.0
 11
60.8382568359375
 21
179.7306252571
 31
0.0
  0
LINE
  5
    29
  8
0
  6
DOT
 62
     3
 10
60.3382577409676
 20
181.2306252571
 30
0.0
 11
60.8382568359375
 21
181.2306252571
 31
0.0
  0
LINE
  5
    2A
  8
0
  6
CONTINUOUS
 62
     3
 10
168.338257745313
 20
179.730625257273
 30
0.0
 11
168.838256835938
 21
179.730625257273
 31
0.0
  0
LINE
  5
    2B
  8
0
  6
CONTINUOUS
 62
     3
 10
168.338257745314
 20
181.230625257273
 30
0.0
 11
168.838256835938
 21
181.230625257273
 31
0.0
  0
ARC
  5
    2C
  8
0
  6
DOT
 62
     3
 10
60.3382577401871
 20
180.480625257147
 30
0.0
 40
0.749999999345164
 50
90.0
 51
270.0
  0
ARC
  5
    2D
  8
0
  6
CONTINUOUS
 62
     3
 10
61.338257740822
 20
180.480625256974
 30
0.0
 40
0.750000000009701
 50
270.0
 51
450.0
  0
LINE
  5
    2E
  8
0
  6
CONTINUOUS
 62
     3
 10
60.8382568359375
 20
181.2306252571
 30
0.0
 11
61.3382577409688
 21
181.2306252571
 31
0.0
  0
LINE
  5
    2F
  8
0
  6
CONTINUOUS
 62
     3
 10
60.8382568359375
 20
179.7306252571
 30
0.0
 11
61.3382577409689
 21
179.7306252571
 31
0.0
  0
ARC
  5
    30
  8
0
  6
CONTINUOUS
 62
     3
 10
168.338257745503
 20
180.480625256952
 30
0.0
 40
0.750000000048506
 50
90.0000000038822
 51
269.999999996024
  0
ARC
  5
    31
  8
0
  6
DOT
 62
     3
 10
169.338257745421
 20
180.480625256965
 30
0.0
 40
0.750000000029104
 50
270.000000002449
 51
449.999999997486
  0
LINE
  5
    32
  8
0
  6
DOT
 62
     3
 10
168.838256835938
 20
181.230625257273
 30
0.0
 11
169.338257745315
 21
181.230625257273
 31
0.0
  0
LINE
  5
    33
  8
0
  6
DOT
 62
     3
 10
168.838256835938
 20
179.730625257273
 30
0.0
 11
169.338257745315
 21
179.730625257273
 31
0.0
  0
ENDBLK
  5
    34
  8
0
  6
CONTINUOUS
 62
     7
  0
BLOCK
  5
    35
  8
0
  6
CONTINUOUS
 62
     7
  2
*UDIM1351
 70
    65
 10
0.0
 20
0.0
 30
0.0
  3
*UDIM1351
  0
TEXT
  5
    36
  8
0
  6
CONTINUOUS
 62
     7
 10
-14.8457249148308
 20
44.4763259922871
 30
0.0
 40
3.00000002980232
  1
117
 50
359.999999948034
 41
0.933333333333333
 72
     1
 11
-10.9457248747349
 21
45.9763260036707
 31
0.0
 73
     2
  0
LINE
  5
    37
  8
0
  6
CONTINUOUS
 62
     7
 10
18.5792751312256
 20
17.5735292722031
 30
0.0
 11
18.5792751312256
 21
45.4763259887695
 31
0.0
  0
LINE
  5
    38
  8
0
  6
CONTINUOUS
 62
     7
 10
-39.9207248687744
 20
17.5735292722031
 30
0.0
 11
-39.9207248687744
 21
45.4763259887695
 31
0.0
  0
LINE
  5
    39
  8
0
  6
CONTINUOUS
 62
     7
 10
18.5792751312256
 20
43.4763259887695
 30
0.0
 11
-39.9207248687744
 21
43.4763259887695
 31
0.0
  0
LINE
  5
    3A
  8
0
  6
CONTINUOUS
 62
     7
 10
15.6248518540186
 20
42.9553815588179
 30
0.0
 11
18.5792751312256
 21
43.4763259887695
 31
0.0
  0
LINE
  5
    3B
  8
0
  6
CONTINUOUS
 62
     7
 10
18.5792751312256
 20
43.4763259887695
 30
0.0
 11
15.6248518540186
 21
43.9972704187212
 31
0.0
  0
LINE
  5
    3C
  8
0
  6
CONTINUOUS
 62
     7
 10
-36.9663015915674
 20
43.9972704187212
 30
0.0
 11
-39.9207248687744
 21
43.4763259887695
 31
0.0
  0
LINE
  5
    3D
  8
0
  6
CONTINUOUS
 62
     7
 10
-39.9207248687744
 20
43.4763259887695
 30
0.0
 11
-36.9663015915674
 21
42.9553815588179
 31
0.0
  0
ENDBLK
  5
    3E
  8
0
  6
CONTINUOUS
 62
     7
  0
BLOCK
  5
    3F
  8
0
  6
CONTINUOUS
 62
     7
  2
*UDIM1352
 70
    65
 10
0.0
 20
0.0
 30
0.0
  3
*UDIM1352
  0
TEXT
  5
    40
  8
0
  6
CONTINUOUS
 62
     7
 10
30.3101406062089
 20
-27.2264679426384
 30
0.0
 40
3.00000002980232
  1
161
 50
89.9999999480344
 41
0.933333333333333
 72
     1
 11
28.8101405948401
 21
-23.3264679025368
 31
0.0
 73
     2
  0
LINE
  5
    41
  8
0
  6
CONTINUOUS
 62
     7
 10
18.9542751312256
 20
-63.3014688204483
 30
0.0
 11
33.3101406097412
 21
-63.3014688204483
 31
0.0
  0
LINE
  5
    42
  8
0
  6
CONTINUOUS
 62
     7
 10
18.9542751312256
 20
17.1985292722031
 30
0.0
 11
33.3101406097412
 21
17.1985292722031
 31
0.0
  0
LINE
  5
    43
  8
0
  6
CONTINUOUS
 62
     7
 10
31.3101406097412
 20
-63.3014688204483
 30
0.0
 11
31.3101406097412
 21
17.1985292722031
 31
0.0
  0
LINE
  5
    44
  8
0
  6
CONTINUOUS
 62
     7
 10
30.7891961797896
 20
-60.3470455432413
 30
0.0
 11
31.3101406097412
 21
-63.3014688204483
 31
0.0
  0
LINE
  5
    45
  8
0
  6
CONTINUOUS
 62
     7
 10
31.3101406097412
 20
-63.3014688204483
 30
0.0
 11
31.8310850396929
 21
-60.3470455432413
 31
0.0
  0
LINE
  5
    46
  8
0
  6
CONTINUOUS
 62
     7
 10
31.8310850396929
 20
14.2441059949961
 30
0.0
 11
31.3101406097412
 21
17.1985292722031
 31
0.0
  0
LINE
  5
    47
  8
0
  6
CONTINUOUS
 62
     7
 10
31.3101406097412
 20
17.1985292722031
 30
0.0
 11
30.7891961797896
 21
14.2441059949961
 31
0.0
  0
ENDBLK
  5
    48
  8
0
  6
CONTINUOUS
 62
     7
  0
BLOCK
  5
    49
  8
0
  6
CONTINUOUS
 62
     7
  2
*UDIM1353
 70
    65
 10
0.0
 20
0.0
 30
0.0
  3
*UDIM1353
  0
TEXT
  5
    4A
  8
0
  6
CONTINUOUS
 62
     7
 10
-59.4276447318785
 20
-78.7014755581233
 30
0.0
 40
3.00000002980232
  1
46
 50
89.9999999480344
 41
0.933333333333333
 72
     1
 11
-60.9276447445154
 21
-76.2014755319294
 31
0.0
 73
     2
  0
LINE
  5
    4B
  8
0
  6
CONTINUOUS
 62
     7
 10
-19.9712070592988
 20
-87.4264745424922
 30
0.0
 11
-60.4276447296143
 21
-87.4264745424922
 31
0.0
  0
LINE
  5
    4C
  8
0
  6
CONTINUOUS
 62
     7
 10
-36.1707395383725
 20
-64.4264745424924
 30
0.0
 11
-60.4276447296143
 21
-64.4264745424924
 31
0.0
  0
LINE
  5
    4D
  8
0
  6
CONTINUOUS
 62
     7
 10
-58.4276447296143
 20
-87.4264745424922
 30
0.0
 11
-58.4276447296143
 21
-64.4264745424924
 31
0.0
  0
LINE
  5
    4E
  8
0
  6
CONTINUOUS
 62
     7
 10
-58.9485891595659
 20
-84.4720512652852
 30
0.0
 11
-58.4276447296143
 21
-87.4264745424922
 31
0.0
  0
LINE
  5
    4F
  8
0
  6
CONTINUOUS
 62
     7
 10
-58.4276447296143
 20
-87.4264745424922
 30
0.0
 11
-57.9067002996626
 21
-84.4720512652852
 31
0.0
  0
LINE
  5
    50
  8
0
  6
CONTINUOUS
 62
     7
 10
-57.9067002996626
 20
-67.3808978196994
 30
0.0
 11
-58.4276447296143
 21
-64.4264745424924
 31
0.0
  0
LINE
  5
    51
  8
0
  6
CONTINUOUS
 62
     7
 10
-58.4276447296143
 20
-64.4264745424924
 30
0.0
 11
-58.9485891595659
 21
-67.3808978196994
 31
0.0
  0
ENDBLK
  5
    52
  8
0
  6
CONTINUOUS
 62
     7
  0
BLOCK
  5
    53
  8
0
  6
CONTINUOUS
 62
     7
  2
*UDIM1354
 70
    65
 10
0.0
 20
0.0
 30
0.0
  3
*UDIM1354
  0
TEXT
  5
    54
  8
0
  6
CONTINUOUS
 62
     7
 10
-49.5893344939833
 20
-8.21397178515018
 30
0.0
 40
3.00000002980232
  1
87,25
 50
89.9999999480344
 41
0.933333333333333
 72
     1
 11
-51.0893345028162
 21
-1.51397171723308
 31
0.0
 73
     2
  0
LINE
  5
    55
  8
0
  6
CONTINUOUS
 62
     7
 10
-36.1707395383725
 20
20.5735254575077
 30
0.0
 11
-50.589334487915
 21
20.5735254575077
 31
0.0
  0
LINE
  5
    56
  8
0
  6
CONTINUOUS
 62
     7
 10
-48.589334487915
 20
-23.0514707277969
 30
0.0
 11
-48.589334487915
 21
20.5735254575077
 31
0.0
  0
LINE
  5
    57
  8
0
  6
CONTINUOUS
 62
     7
 10
-49.1102789178667
 20
-20.09704745059
 30
0.0
 11
-48.589334487915
 21
-23.0514707277969
 31
0.0
  0
LINE
  5
    58
  8
0
  6
CONTINUOUS
 62
     7
 10
-48.589334487915
 20
-23.0514707277969
 30
0.0
 11
-48.0683900579634
 21
-20.09704745059
 31
0.0
  0
LINE
  5
    59
  8
0
  6
CONTINUOUS
 62
     7
 10
-48.0683900579634
 20
17.6191021803008
 30
0.0
 11
-48.589334487915
 21
20.5735254575077
 31
0.0
  0
LINE
  5
    5A
  8
0
  6
CONTINUOUS
 62
     7
 10
-48.589334487915
 20
20.5735254575077
 30
0.0
 11
-49.1102789178667
 21
17.6191021803008
 31
0.0
  0
ENDBLK
  5
    5B
  8
0
  6
CONTINUOUS
 62
     7
  0
BLOCK
  5
    5C
  8
0
  6
CONTINUOUS
 62
     7
  2
*UDIM1355
 70
    65
 10
0.0
 20
0.0
 30
0.0
  3
*UDIM1355
  0
TEXT
  5
    5D
  8
0
  6
CONTINUOUS
 62
     7
 10
-4.69571393747032
 20
27.0115242026943
 30
0.0
 40
3.00000002980232
  1
35
 50
359.999999948034
 41
0.933333333333333
 72
     1
 11
-2.19571391128214
 21
28.5115242153406
 31
0.0
 73
     2
  0
LINE
  5
    5E
  8
0
  6
CONTINUOUS
 62
     7
 10
6.82930135632323
 20
21.0478937753552
 30
0.0
 11
6.82933377375731
 21
28.0115242004178
 31
0.0
  0
LINE
  5
    5F
  8
0
  6
CONTINUOUS
 62
     7
 10
-10.6707237739562
 20
-6.70026858395257
 30
0.0
 11
-10.6706857708544
 21
28.0115242004383
 31
0.0
  0
LINE
  5
    60
  8
0
  6
CONTINUOUS
 62
     7
 10
6.82932446325917
 20
26.0115242004395
 30
0.0
 11
-10.6706879604908
 21
26.0115242004395
 31
0.0
  0
LINE
  5
    61
  8
0
  6
CONTINUOUS
 62
     7
 10
3.8749011860522
 20
25.4905797704878
 30
0.0
 11
6.82932446325917
 21
26.0115242004395
 31
0.0
  0
LINE
  5
    62
  8
0
  6
CONTINUOUS
 62
     7
 10
6.82932446325917
 20
26.0115242004395
 30
0.0
 11
3.8749011860522
 21
26.5324686303911
 31
0.0
  0
LINE
  5
    63
  8
0
  6
CONTINUOUS
 62
     7
 10
-7.71626468328383
 20
26.5324686303911
 30
0.0
 11
-10.6706879604908
 21
26.0115242004395
 31
0.0
  0
LINE
  5
    64
  8
0
  6
CONTINUOUS
 62
     7
 10
-10.6706879604908
 20
26.0115242004395
 30
0.0
 11
-7.71626468328383
 21
25.4905797704878
 31
0.0
  0
ENDBLK
  5
    65
  8
0
  6
CONTINUOUS
 62
     7
  0
BLOCK
  5
    66
  8
0
  6
CONTINUOUS
 62
     7
  2
*UDIM1356
 70
    65
 10
0.0
 20
0.0
 30
0.0
  3
*UDIM1356
  0
TEXT
  5
    67
  8
0
  6
CONTINUOUS
 62
     7
 10
-22.195726804811
 20
27.0115242026943
 30
0.0
 40
3.00000002980232
  1
35
 50
359.999999948034
 41
0.933333333333333
 72
     1
 11
-19.6957267786228
 21
28.5115242153406
 31
0.0
 73
     2
  0
LINE
  5
    68
  8
0
  6
CONTINUOUS
 62
     7
 10
-28.1707268473428
 20
-61.4264712841338
 30
0.0
 11
-28.1703104911974
 21
28.0115242004178
 31
0.0
  0
LINE
  5
    69
  8
0
  6
CONTINUOUS
 62
     7
 10
-10.6706879604908
 20
26.0115242004395
 30
0.0
 11
-28.1703198016955
 21
26.0115242004395
 31
0.0
  0
LINE
  5
    6A
  8
0
  6
CONTINUOUS
 62
     7
 10
-13.6251112376978
 20
25.4905797704878
 30
0.0
 11
-10.6706879604908
 21
26.0115242004395
 31
0.0
  0
LINE
  5
    6B
  8
0
  6
CONTINUOUS
 62
     7
 10
-10.6706879604908
 20
26.0115242004395
 30
0.0
 11
-13.6251112376978
 21
26.5324686303911
 31
0.0
  0
LINE
  5
    6C
  8
0
  6
CONTINUOUS
 62
     7
 10
-25.2158965244886
 20
26.5324686303911
 30
0.0
 11
-28.1703198016955
 21
26.0115242004395
 31
0.0
  0
LINE
  5
    6D
  8
0
  6
CONTINUOUS
 62
     7
 10
-28.1703198016955
 20
26.0115242004395
 30
0.0
 11
-25.2158965244886
 21
25.4905797704878
 31
0.0
  0
ENDBLK
  5
    6E
  8
0
  6
CONTINUOUS
 62
     7
  0
BLOCK
  5
    6F
  8
0
  6
CONTINUOUS
 62
     7
  2
*UDIM1357
 70
    65
 10
0.0
 20
0.0
 30
0.0
  3
*UDIM1357
  0
TEXT
  5
    70
  8
0
  6
CONTINUOUS
 62
     7
 10
-59.3509922062911
 20
-26.1014755720311
 30
0.0
 40
3.00000002980232
  1
170
 50
89.9999999480344
 41
0.933333333333333
 72
     1
 11
-60.85099221766
 21
-22.2014755319295
 31
0.0
 73
     2
  0
LINE
  5
    71
  8
0
  6
CONTINUOUS
 62
     7
 10
-36.1707395383725
 20
-64.4264745424924
 30
0.0
 11
-60.3509922027588
 21
-64.4264745424924
 31
0.0
  0
LINE
  5
    72
  8
0
  6
CONTINUOUS
 62
     7
 10
-36.1707395383725
 20
20.5735254575077
 30
0.0
 11
-60.3509922027588
 21
20.5735254575077
 31
0.0
  0
LINE
  5
    73
  8
0
  6
CONTINUOUS
 62
     7
 10
-58.3509922027588
 20
-64.4264745424924
 30
0.0
 11
-58.3509922027588
 21
20.5735254575077
 31
0.0
  0
LINE
  5
    74
  8
0
  6
CONTINUOUS
 62
     7
 10
-58.8719366327105
 20
-61.4720512652855
 30
0.0
 11
-58.3509922027588
 21
-64.4264745424924
 31
0.0
  0
LINE
  5
    75
  8
0
  6
CONTINUOUS
 62
     7
 10
-58.3509922027588
 20
-64.4264745424924
 30
0.0
 11
-57.8300477728071
 21
-61.4720512652855
 31
0.0
  0
LINE
  5
    76
  8
0
  6
CONTINUOUS
 62
     7
 10
-57.8300477728071
 20
17.6191021803008
 30
0.0
 11
-58.3509922027588
 21
20.5735254575077
 31
0.0
  0
LINE
  5
    77
  8
0
  6
CONTINUOUS
 62
     7
 10
-58.3509922027588
 20
20.5735254575077
 30
0.0
 11
-58.8719366327105
 21
17.6191021803008
 31
0.0
  0
ENDBLK
  5
    78
  8
0
  6
CONTINUOUS
 62
     7
  0
BLOCK
  5
    79
  8
0
  6
CONTINUOUS
 62
     7
  2
*UDIM1358
 70
    65
 10
0.0
 20
0.0
 30
0.0
  3
*UDIM1358
  0
TEXT
  5
    7A
  8
0
  6
CONTINUOUS
 62
     7
 10
-14.8457320469987
 20
35.8396148716816
 30
0.0
 40
3.00000002980232
  1
105
 50
359.999999948034
 41
0.933333333333333
 72
     1
 11
-10.9457320069027
 21
37.3396148830652
 31
0.0
 73
     2
  0
LINE
  5
    7B
  8
0
  6
CONTINUOUS
 62
     7
 10
15.5792680052329
 20
3.94852927220293
 30
0.0
 11
15.5792845626668
 21
36.8396148681638
 31
0.0
  0
LINE
  5
    7C
  8
0
  6
CONTINUOUS
 62
     7
 10
-36.9207243653586
 20
3.94852927220293
 30
0.0
 11
-36.9207078079248
 21
36.8396148681638
 31
0.0
  0
LINE
  5
    7D
  8
0
  6
CONTINUOUS
 62
     7
 10
15.579283555863
 20
34.8396148681641
 30
0.0
 11
-36.9207088147285
 21
34.8396148681641
 31
0.0
  0
LINE
  5
    7E
  8
0
  6
CONTINUOUS
 62
     7
 10
12.6248602786561
 20
34.3186704382124
 30
0.0
 11
15.579283555863
 21
34.8396148681641
 31
0.0
  0
LINE
  5
    7F
  8
0
  6
CONTINUOUS
 62
     7
 10
15.579283555863
 20
34.8396148681641
 30
0.0
 11
12.6248602786561
 21
35.3605592981157
 31
0.0
  0
LINE
  5
    80
  8
0
  6
CONTINUOUS
 62
     7
 10
-33.9662855375215
 20
35.3605592981157
 30
0.0
 11
-36.9207088147285
 21
34.8396148681641
 31
0.0
  0
LINE
  5
    81
  8
0
  6
CONTINUOUS
 62
     7
 10
-36.9207088147285
 20
34.8396148681641
 30
0.0
 11
-33.9662855375215
 21
34.3186704382124
 31
0.0
  0
ENDBLK
  5
    82
  8
0
  6
CONTINUOUS
 62
     7
  0
BLOCK
  5
    83
  8
0
  6
CONTINUOUS
 62
     7
  2
*UDIM1359
 70
    65
 10
0.0
 20
0.0
 30
0.0
  3
*UDIM1359
  0
TEXT
  5
    84
  8
0
  6
CONTINUOUS
 62
     7
 10
-57.7242946745869
 20
-133.459418944249
 30
0.0
 40
3.00000002980232
  1
71,75
 50
449.999999896069
 41
0.933333333333333
 72
     1
 11
-59.2242946773768
 21
-126.759418874979
 31
0.0
 73
     2
  0
LINE
  5
    85
  8
0
  6
CONTINUOUS
 62
     7
 10
-49.5783287806986
 20
-118.118301391602
 30
0.0
 11
-58.7242946624756
 21
-118.118301391602
 31
0.0
  0
LINE
  5
    86
  8
0
  6
CONTINUOUS
 62
     7
 10
-56.0307328900236
 20
-136.055801391602
 30
0.0
 11
-58.7242946624756
 21
-136.055801391602
 31
0.0
  0
LINE
  5
    87
  8
0
  6
CONTINUOUS
 62
     7
 10
-56.7242946624756
 20
-118.118301391602
 30
0.0
 11
-56.7242946624756
 21
-136.055801391602
 31
0.0
  0
LINE
  5
    88
  8
0
  6
CONTINUOUS
 62
     7
 10
-56.2033502325239
 20
-121.072724668809
 30
0.0
 11
-56.7242946624756
 21
-118.118301391602
 31
0.0
  0
LINE
  5
    89
  8
0
  6
CONTINUOUS
 62
     7
 10
-56.7242946624756
 20
-118.118301391602
 30
0.0
 11
-57.2452390924273
 21
-121.072724668809
 31
0.0
  0
LINE
  5
    8A
  8
0
  6
CONTINUOUS
 62
     7
 10
-57.2452390924273
 20
-133.101378114395
 30
0.0
 11
-56.7242946624756
 21
-136.055801391602
 31
0.0
  0
LINE
  5
    8B
  8
0
  6
CONTINUOUS
 62
     7
 10
-56.7242946624756
 20
-136.055801391602
 30
0.0
 11
-56.2033502325239
 21
-133.101378114395
 31
0.0
  0
ENDBLK
  5
    8C
  8
0
  6
CONTINUOUS
 62
     7
  0
BLOCK
  5
    8D
  8
0
  6
CONTINUOUS
 62
     7
  2
*UDIM1360
 70
    65
 10
0.0
 20
0.0
 30
0.0
  3
*UDIM1360
  0
TEXT
  5
    8E
  8
0
  6
CONTINUOUS
 62
     7
 10
-80.0407538620909
 20
-167.455847563913
 30
0.0
 40
3.00000002980232
  1
5,5
 50
383.748266401785
 41
0.933333333333333
 72
     1
 11
-77.0750700333297
 21
-164.512257956865
 31
0.0
 73
     2
  0
TEXT
  5
    8F
  8
0
  6
CONTINUOUS
 62
     7
 10
-82.9240234103515
 20
-168.724412412338
 30
0.0
 40
3.00000002980232
  1
Ø
 50
383.748266401785
 41
0.933333333333334
 72
     1
 11
-82.5212458679405
 21
-166.908436002779
 31
0.0
 73
     2
  0
TEXT
  5
    90
  8
0
  6
CONTINUOUS
 62
     7
 10
-72.3978011889356
 20
-164.093143900341
 30
0.0
 40
3.00000002980232
  1
 - M5
 50
383.748266401785
 41
0.933333333333333
 72
     1
 11
-66.8692110738241
 21
-160.021941095802
 31
0.0
 73
     2
  0
LINE
  5
    91
  8
0
  6
CONTINUOUS
 62
     7
 10
-43.7729061431951
 20
-152.59143208133
 30
0.0
 11
-82.5213044103089
 21
-169.639736076941
 31
0.0
  0
LINE
  5
    92
  8
0
  6
CONTINUOUS
 62
     7
 10
-41.2784468226607
 20
-150.924796938835
 30
0.0
 11
-43.7729061431951
 21
-152.59143208133
 31
0.0
  0
LINE
  5
    93
  8
0
  6
CONTINUOUS
 62
     7
 10
-43.7729061431951
 20
-152.59143208133
 30
0.0
 11
-40.8588583862668
 21
-151.878462467433
 31
0.0
  0
LINE
  5
    94
  8
0
  6
CONTINUOUS
 62
     7
 10
-47.5259355015581
 20
-154.811805844368
 30
0.0
 11
-45.0314761810236
 21
-153.145170701873
 31
0.0
  0
LINE
  5
    95
  8
0
  6
CONTINUOUS
 62
     7
 10
-45.0314761810236
 20
-153.145170701873
 30
0.0
 11
-47.945523937952
 21
-153.85814031577
 31
0.0
  0
ENDBLK
  5
    96
  8
0
  6
CONTINUOUS
 62
     7
  0
BLOCK
  5
    97
  8
0
  6
CONTINUOUS
 62
     7
  2
*UDIM1361
 70
    65
 10
0.0
 20
0.0
 30
0.0
  3
*UDIM1361
  0
TEXT
  5
    98
  8
0
  6
CONTINUOUS
 62
     7
 10
-42.773344931733
 20
-129.321559901484
 30
0.0
 40
3.00000002980232
  1
35
 50
359.999999896069
 41
0.933333333333333
 72
     1
 11
-40.2733449041843
 21
-127.821559891105
 31
0.0
 73
     2
  0
LINE
  5
    99
  8
0
  6
CONTINUOUS
 62
     7
 10
-35.6521911621094
 20
-130.321559906006
 30
0.0
 11
-44.4021911621094
 21
-130.321559906006
 31
0.0
  0
LINE
  5
    9A
  8
0
  6
CONTINUOUS
 62
     7
 10
-32.6977678849024
 20
-129.800615476054
 30
0.0
 11
-35.6521911621094
 21
-130.321559906006
 31
0.0
  0
LINE
  5
    9B
  8
0
  6
CONTINUOUS
 62
     7
 10
-35.6521911621094
 20
-130.321559906006
 30
0.0
 11
-32.6977678849024
 21
-130.842504335958
 31
0.0
  0
LINE
  5
    9C
  8
0
  6
CONTINUOUS
 62
     7
 10
-47.3566144393163
 20
-130.842504335958
 30
0.0
 11
-44.4021911621094
 21
-130.321559906006
 31
0.0
  0
LINE
  5
    9D
  8
0
  6
CONTINUOUS
 62
     7
 10
-44.4021911621094
 20
-130.321559906006
 30
0.0
 11
-47.3566144393163
 21
-129.800615476054
 31
0.0
  0
ENDBLK
  5
    9E
  8
0
  6
CONTINUOUS
 62
     7
  0
BLOCK
  5
    9F
  8
0
  6
CONTINUOUS
 62
     7
  2
*UDIM1362
 70
    65
 10
0.0
 20
0.0
 30
0.0
  3
*UDIM1362
  0
TEXT
  5
    A0
  8
0
  6
CONTINUOUS
 62
     7
 10
-65.0912799905704
 20
-139.668304764884
 30
0.0
 40
3.00000002980232
  1
139
 50
449.999999896069
 41
0.933333333333333
 72
     1
 11
-66.5912799984217
 21
-135.76830472343
 31
0.0
 73
     2
  0
LINE
  5
    A1
  8
0
  6
CONTINUOUS
 62
     7
 10
-49.5783287806986
 20
-118.118301077685
 30
0.0
 11
-66.0912799835204
 21
-118.118295893998
 31
0.0
  0
LINE
  5
    A2
  8
0
  6
CONTINUOUS
 62
     7
 10
-49.5783287806986
 20
-152.868301077685
 30
0.0
 11
-66.0912799835204
 21
-152.868295893998
 31
0.0
  0
LINE
  5
    A3
  8
0
  6
CONTINUOUS
 62
     7
 10
-64.0912799835205
 20
-118.118296521831
 30
0.0
 11
-64.0912799835205
 21
-152.868296521831
 31
0.0
  0
LINE
  5
    A4
  8
0
  6
CONTINUOUS
 62
     7
 10
-63.5703355535689
 20
-121.072719799038
 30
0.0
 11
-64.0912799835205
 21
-118.118296521831
 31
0.0
  0
LINE
  5
    A5
  8
0
  6
CONTINUOUS
 62
     7
 10
-64.0912799835205
 20
-118.118296521831
 30
0.0
 11
-64.6122244134722
 21
-121.072719799038
 31
0.0
  0
LINE
  5
    A6
  8
0
  6
CONTINUOUS
 62
     7
 10
-64.6122244134722
 20
-149.913873244624
 30
0.0
 11
-64.0912799835205
 21
-152.868296521831
 31
0.0
  0
LINE
  5
    A7
  8
0
  6
CONTINUOUS
 62
     7
 10
-64.0912799835205
 20
-152.868296521831
 30
0.0
 11
-63.5703355535688
 21
-149.913873244624
 31
0.0
  0
ENDBLK
  5
    A8
  8
0
  6
CONTINUOUS
 62
     7
  0
BLOCK
  5
    A9
  8
0
  6
CONTINUOUS
 62
     7
  2
*UDIM1363
 70
    65
 10
0.0
 20
0.0
 30
0.0
  3
*UDIM1363
  0
TEXT
  5
    AA
  8
0
  6
CONTINUOUS
 62
     7
 10
215.448287649807
 20
-22.863502129747
 30
0.0
 40
3.00000002980232
  1
7
 50
397.208926617964
 41
0.933333333333334
 72
     1
 11
215.417282124251
 21
-21.0036530159399
 31
0.0
 73
     2
  0
TEXT
  5
    AB
  8
0
  6
CONTINUOUS
 62
     7
 10
212.939515152717
 20
-24.7683802414454
 30
0.0
 40
3.00000002980232
  1
Ø
 50
397.208926617964
 41
0.933333333333334
 72
     1
 11
212.908509627161
 21
-22.9085311276383
 31
0.0
 73
     2
  0
LINE
  5
    AC
  8
0
  6
CONTINUOUS
 62
     7
 10
231.772534323166
 20
-11.7243094803087
 30
0.0
 11
213.544238365923
 21
-25.5648159522115
 31
0.0
  0
LINE
  5
    AD
  8
0
  6
CONTINUOUS
 62
     7
 10
233.81051533915
 20
-9.5228024104837
 30
0.0
 11
231.772534323166
 21
-11.7243094803087
 31
0.0
  0
LINE
  5
    AE
  8
0
  6
CONTINUOUS
 62
     7
 10
231.772534323166
 20
-11.7243094803087
 30
0.0
 11
234.440569713052
 21
-10.3525999052479
 31
0.0
  0
LINE
  5
    AF
  8
0
  6
CONTINUOUS
 62
     7
 10
228.340790813194
 20
-14.9840821644064
 30
0.0
 11
230.378771829178
 21
-12.7825750945814
 31
0.0
  0
LINE
  5
    B0
  8
0
  6
CONTINUOUS
 62
     7
 10
230.378771829178
 20
-12.7825750945814
 30
0.0
 11
227.710736439291
 21
-14.1542846696423
 31
0.0
  0
ENDBLK
  5
    B1
  8
0
  6
CONTINUOUS
 62
     7
  0
BLOCK
  5
    B2
  8
0
  6
CONTINUOUS
 62
     7
  2
*UDIM1364
 70
    65
 10
0.0
 20
0.0
 30
0.0
  3
*UDIM1364
  0
TEXT
  5
    B3
  8
0
  6
CONTINUOUS
 62
     7
 10
236.900653027395
 20
44.622019301516
 30
0.0
 40
3.00000002980232
  1
112
 50
359.999999844103
 41
0.933333333333333
 72
     1
 11
240.800653070211
 21
46.1220193058252
 31
0.0
 73
     2
  0
LINE
  5
    B4
  8
0
  6
CONTINUOUS
 62
     7
 10
227.075653076172
 20
20.4965577125549
 30
0.0
 11
227.075653076172
 21
45.6220192909241
 31
0.0
  0
LINE
  5
    B5
  8
0
  6
CONTINUOUS
 62
     7
 10
255.075653076172
 20
20.4965577125549
 30
0.0
 11
255.075653076172
 21
45.6220192909241
 31
0.0
  0
LINE
  5
    B6
  8
0
  6
CONTINUOUS
 62
     7
 10
227.075653076172
 20
43.6220192909241
 30
0.0
 11
255.075653076172
 21
43.6220192909241
 31
0.0
  0
LINE
  5
    B7
  8
0
  6
CONTINUOUS
 62
     7
 10
230.030076353379
 20
44.1429637208757
 30
0.0
 11
227.075653076172
 21
43.6220192909241
 31
0.0
  0
LINE
  5
    B8
  8
0
  6
CONTINUOUS
 62
     7
 10
227.075653076172
 20
43.6220192909241
 30
0.0
 11
230.030076353379
 21
43.1010748609724
 31
0.0
  0
LINE
  5
    B9
  8
0
  6
CONTINUOUS
 62
     7
 10
252.121229798965
 20
43.1010748609724
 30
0.0
 11
255.075653076172
 21
43.6220192909241
 31
0.0
  0
LINE
  5
    BA
  8
0
  6
CONTINUOUS
 62
     7
 10
255.075653076172
 20
43.6220192909241
 30
0.0
 11
252.121229798965
 21
44.1429637208757
 31
0.0
  0
ENDBLK
  5
    BB
  8
0
  6
CONTINUOUS
 62
     7
  0
BLOCK
  5
    BC
  8
0
  6
CONTINUOUS
 62
     7
  2
*UDIM1365
 70
    65
 10
0.0
 20
0.0
 30
0.0
  3
*UDIM1365
  0
TEXT
  5
    BD
  8
0
  6
CONTINUOUS
 62
     7
 10
238.300653041302
 20
36.4425492354579
 30
0.0
 40
3.00000002980232
  1
80
 50
359.999999844103
 41
0.933333333333333
 72
     1
 11
240.800653070211
 21
37.9425492435694
 31
0.0
 73
     2
  0
LINE
  5
    BE
  8
0
  6
CONTINUOUS
 62
     7
 10
231.075653076172
 20
25.8715577125549
 30
0.0
 11
231.075653076172
 21
37.4425492286682
 31
0.0
  0
LINE
  5
    BF
  8
0
  6
CONTINUOUS
 62
     7
 10
251.075653076172
 20
25.8715577125549
 30
0.0
 11
251.075653076172
 21
37.4425492286682
 31
0.0
  0
LINE
  5
    C0
  8
0
  6
CONTINUOUS
 62
     7
 10
231.075653076172
 20
35.4425492286682
 30
0.0
 11
251.075653076172
 21
35.4425492286682
 31
0.0
  0
LINE
  5
    C1
  8
0
  6
CONTINUOUS
 62
     7
 10
234.030076353379
 20
35.9634936586199
 30
0.0
 11
231.075653076172
 21
35.4425492286682
 31
0.0
  0
LINE
  5
    C2
  8
0
  6
CONTINUOUS
 62
     7
 10
231.075653076172
 20
35.4425492286682
 30
0.0
 11
234.030076353379
 21
34.9216047987166
 31
0.0
  0
LINE
  5
    C3
  8
0
  6
CONTINUOUS
 62
     7
 10
248.121229798965
 20
34.9216047987166
 30
0.0
 11
251.075653076172
 21
35.4425492286682
 31
0.0
  0
LINE
  5
    C4
  8
0
  6
CONTINUOUS
 62
     7
 10
251.075653076172
 20
35.4425492286682
 30
0.0
 11
248.121229798965
 21
35.9634936586199
 31
0.0
  0
ENDBLK
  5
    C5
  8
0
  6
CONTINUOUS
 62
     7
  0
BLOCK
  5
    C6
  8
0
  6
CONTINUOUS
 62
     7
  2
*UDIM1366
 70
    65
 10
0.0
 20
0.0
 30
0.0
  3
*UDIM1366
  0
TEXT
  5
    C7
  8
0
  6
CONTINUOUS
 62
     7
 10
200.054912556552
 20
1.3215576637795
 30
0.0
 40
3.00000002980232
  1
142
 50
449.999999844103
 41
0.933333333333333
 72
     1
 11
198.554912552238
 21
5.22155770659447
 31
0.0
 73
     2
  0
LINE
  5
    C8
  8
0
  6
CONTINUOUS
 62
     7
 10
228.450653076172
 20
23.2465577125549
 30
0.0
 11
199.054912567139
 21
23.2465577125549
 31
0.0
  0
LINE
  5
    C9
  8
0
  6
CONTINUOUS
 62
     7
 10
228.450653076172
 20
-12.2534422874451
 30
0.0
 11
199.054912567139
 21
-12.2534422874451
 31
0.0
  0
LINE
  5
    CA
  8
0
  6
CONTINUOUS
 62
     7
 10
201.054912567139
 20
23.2465577125549
 30
0.0
 11
201.054912567139
 21
-12.2534422874451
 31
0.0
  0
LINE
  5
    CB
  8
0
  6
CONTINUOUS
 62
     7
 10
201.57585699709
 20
20.292134435348
 30
0.0
 11
201.054912567139
 21
23.2465577125549
 31
0.0
  0
LINE
  5
    CC
  8
0
  6
CONTINUOUS
 62
     7
 10
201.054912567139
 20
23.2465577125549
 30
0.0
 11
200.533968137187
 21
20.292134435348
 31
0.0
  0
LINE
  5
    CD
  8
0
  6
CONTINUOUS
 62
     7
 10
200.533968137187
 20
-9.2990190102381
 30
0.0
 11
201.054912567139
 21
-12.2534422874451
 31
0.0
  0
LINE
  5
    CE
  8
0
  6
CONTINUOUS
 62
     7
 10
201.054912567139
 20
-12.2534422874451
 30
0.0
 11
201.57585699709
 21
-9.2990190102381
 31
0.0
  0
ENDBLK
  5
    CF
  8
0
  6
CONTINUOUS
 62
     7
  0
BLOCK
  5
    D0
  8
0
  6
CONTINUOUS
 62
     7
  2
*UDIM1367
 70
    65
 10
0.0
 20
0.0
 30
0.0
  3
*UDIM1367
  0
TEXT
  5
    D1
  8
0
  6
CONTINUOUS
 62
     7
 10
209.427221287631
 20
1.3215576637795
 30
0.0
 40
3.00000002980232
  1
112
 50
449.999999844103
 41
0.933333333333333
 72
     1
 11
207.927221283317
 21
5.22155770659447
 31
0.0
 73
     2
  0
LINE
  5
    D2
  8
0
  6
CONTINUOUS
 62
     7
 10
226.075653076172
 20
19.4965577125549
 30
0.0
 11
208.427221298218
 21
19.4965577125549
 31
0.0
  0
LINE
  5
    D3
  8
0
  6
CONTINUOUS
 62
     7
 10
226.075653076172
 20
-8.50344228744507
 30
0.0
 11
208.427221298218
 21
-8.50344228744507
 31
0.0
  0
LINE
  5
    D4
  8
0
  6
CONTINUOUS
 62
     7
 10
210.427221298218
 20
19.4965577125549
 30
0.0
 11
210.427221298218
 21
-8.50344228744507
 31
0.0
  0
LINE
  5
    D5
  8
0
  6
CONTINUOUS
 62
     7
 10
210.948165728169
 20
16.542134435348
 30
0.0
 11
210.427221298218
 21
19.4965577125549
 31
0.0
  0
LINE
  5
    D6
  8
0
  6
CONTINUOUS
 62
     7
 10
210.427221298218
 20
19.4965577125549
 30
0.0
 11
209.906276868266
 21
16.542134435348
 31
0.0
  0
LINE
  5
    D7
  8
0
  6
CONTINUOUS
 62
     7
 10
209.906276868266
 20
-5.5490190102381
 30
0.0
 11
210.427221298218
 21
-8.50344228744507
 31
0.0
  0
LINE
  5
    D8
  8
0
  6
CONTINUOUS
 62
     7
 10
210.427221298218
 20
-8.50344228744507
 30
0.0
 11
210.948165728169
 21
-5.5490190102381
 31
0.0
  0
ENDBLK
  5
    D9
  8
0
  6
CONTINUOUS
 62
     7
  0
BLOCK
  5
    DA
  8
0
  6
CONTINUOUS
 62
   218
  2
*HATCH969
 70
    65
 10
0.0
 20
0.0
 30
0.0
  3
*HATCH969
  0
LINE
  5
    DB
  8
0
  6
CONTINUOUS
 62
     3
 10
15.7025470733643
 20
116.465255737305
 30
0.0
 11
13.2488441467285
 21
114.011558532715
 31
0.0
  0
LINE
  5
    DC
  8
0
  6
CONTINUOUS
 62
     3
 10
17.9081954956055
 20
116.549583435059
 30
0.0
 11
14.4746265411377
 21
113.116020202637
 31
0.0
  0
LINE
  5
    DD
  8
0
  6
CONTINUOUS
 62
     3
 10
19.5914745330811
 20
116.111541748047
 30
0.0
 11
16.1562938690186
 21
112.676361083984
 31
0.0
  0
LINE
  5
    DE
  8
0
  6
CONTINUOUS
 62
     3
 10
20.8223094940186
 20
115.221061706543
 30
0.0
 11
18.3576564788818
 21
112.756408691406
 31
0.0
  0
ENDBLK
  5
    DF
  8
0
  6
CONTINUOUS
 62
   218
  0
BLOCK
  5
    E0
  8
0
  6
CONTINUOUS
 62
    98
  2
*HATCH970
 70
    65
 10
0.0
 20
0.0
 30
0.0
  3
*HATCH970
  0
LINE
  5
    E1
  8
0
  6
CONTINUOUS
 62
   210
 10
-15.9264526367188
 20
26.4999542236328
 30
0.0
 11
-18.4264526367188
 21
23.9999542236328
 31
0.0
  0
LINE
  5
    E2
  8
0
  6
CONTINUOUS
 62
   210
 10
-11.6838111877441
 20
26.4999542236328
 30
0.0
 11
-14.1838111877441
 21
23.9999542236328
 31
0.0
  0
LINE
  5
    E3
  8
0
  6
CONTINUOUS
 62
   210
 10
-7.44116973876953
 20
26.4999542236328
 30
0.0
 11
-9.94116973876953
 21
23.9999542236328
 31
0.0
  0
LINE
  5
    E4
  8
0
  6
CONTINUOUS
 62
   210
 10
-3.1985285282135
 20
26.4999542236328
 30
0.0
 11
-5.69852828979492
 21
23.9999542236328
 31
0.0
  0
LINE
  5
    E5
  8
0
  6
CONTINUOUS
 62
   210
 10
1.04411244392395
 20
26.4999542236328
 30
0.0
 11
-1.45588731765747
 21
23.9999542236328
 31
0.0
  0
LINE
  5
    E6
  8
0
  6
CONTINUOUS
 62
   210
 10
3.53710412979126
 20
24.7503070831299
 30
0.0
 11
1.53710401058197
 21
22.7503070831299
 31
0.0
  0
LINE
  5
    E7
  8
0
  6
CONTINUOUS
 62
   210
 10
3.53710412979126
 20
22.6289863586426
 30
0.0
 11
1.53710401058197
 21
20.6289863586426
 31
0.0
  0
LINE
  5
    E8
  8
0
  6
CONTINUOUS
 62
   210
 10
3.53710412979126
 20
20.5076656341553
 30
0.0
 11
1.53710401058197
 21
18.5076656341553
 31
0.0
  0
LINE
  5
    E9
  8
0
  6
CONTINUOUS
 62
   210
 10
3.53710412979126
 20
18.386344909668
 30
0.0
 11
1.53710401058197
 21
16.386344909668
 31
0.0
  0
LINE
  5
    EA
  8
0
  6
CONTINUOUS
 62
   210
 10
25.7720336914063
 20
38.4999542236328
 30
0.0
 11
24.5371036529541
 21
37.265022277832
 31
0.0
  0
LINE
  5
    EB
  8
0
  6
CONTINUOUS
 62
   210
 10
-8.72798347473145
 20
3.99993896484375
 30
0.0
 11
-11.2279682159424
 21
1.49995422363281
 31
0.0
  0
LINE
  5
    EC
  8
0
  6
CONTINUOUS
 62
   210
 10
3.53710412979126
 20
14.143705368042
 30
0.0
 11
1.53710401058197
 21
12.143705368042
 31
0.0
  0
LINE
  5
    ED
  8
0
  6
CONTINUOUS
 62
   210
 10
26.5371036529541
 20
35.0223846435547
 30
0.0
 11
24.5371036529541
 21
33.0223846435547
 31
0.0
  0
LINE
  5
    EE
  8
0
  6
CONTINUOUS
 62
   210
 10
-4.48534202575684
 20
3.99993896484375
 30
0.0
 11
-6.98532724380493
 21
1.49995422363281
 31
0.0
  0
LINE
  5
    EF
  8
0
  6
CONTINUOUS
 62
   210
 10
3.53710412979126
 20
9.90106391906738
 30
0.0
 11
1.53710401058197
 21
7.90106439590454
 31
0.0
  0
LINE
  5
    F0
  8
0
  6
CONTINUOUS
 62
   210
 10
26.5371036529541
 20
30.7797451019287
 30
0.0
 11
24.5371036529541
 21
28.7797431945801
 31
0.0
  0
LINE
  5
    F1
  8
0
  6
CONTINUOUS
 62
   210
 10
-0.242701053619385
 20
3.99993896484375
 30
0.0
 11
-2.74268674850464
 21
1.49995422363281
 31
0.0
  0
LINE
  5
    F2
  8
0
  6
CONTINUOUS
 62
   210
 10
24.3786354064941
 20
26.4999542236328
 30
0.0
 11
22.5371036529541
 21
24.6584224700928
 31
0.0
  0
LINE
  5
    F3
  8
0
  6
CONTINUOUS
 62
   210
 10
26.5371036529541
 20
26.5371017456055
 30
0.0
 11
22.5371036529541
 21
22.5371017456055
 31
0.0
  0
LINE
  5
    F4
  8
0
  6
CONTINUOUS
 62
   210
 10
26.5371036529541
 20
24.4157810211182
 30
0.0
 11
26.1212768554688
 21
23.9999542236328
 31
0.0
  0
LINE
  5
    F5
  8
0
  6
CONTINUOUS
 62
   210
 10
6.12125968933105
 20
3.99993896484375
 30
0.0
 11
3.62127470970154
 21
1.49995422363281
 31
0.0
  0
LINE
  5
    F6
  8
0
  6
CONTINUOUS
 62
   210
 10
8.24258041381836
 20
3.99993896484375
 30
0.0
 11
5.74259519577026
 21
1.49995422363281
 31
0.0
  0
LINE
  5
    F7
  8
0
  6
CONTINUOUS
 62
   210
 10
10.3639011383057
 20
3.99993896484375
 30
0.0
 11
7.86391544342041
 21
1.49995422363281
 31
0.0
  0
LINE
  5
    F8
  8
0
  6
CONTINUOUS
 62
   210
 10
12.485221862793
 20
3.99993896484375
 30
0.0
 11
9.9852352142334
 21
1.49995422363281
 31
0.0
  0
LINE
  5
    F9
  8
0
  6
CONTINUOUS
 62
   210
 10
14.6065425872803
 20
3.99993896484375
 30
0.0
 11
12.1065559387207
 21
1.49995422363281
 31
0.0
  0
LINE
  5
    FA
  8
0
  6
CONTINUOUS
 62
   210
 10
16.7278633117676
 20
3.99993896484375
 30
0.0
 11
14.227876663208
 21
1.49995422363281
 31
0.0
  0
LINE
  5
    FB
  8
0
  6
CONTINUOUS
 62
   210
 10
18.8491840362549
 20
3.99993896484375
 30
0.0
 11
16.3491973876953
 21
1.49995422363281
 31
0.0
  0
LINE
  5
    FC
  8
0
  6
CONTINUOUS
 62
   210
 10
20.9705047607422
 20
3.99993896484375
 30
0.0
 11
18.4705181121826
 21
1.49995422363281
 31
0.0
  0
LINE
  5
    FD
  8
0
  6
CONTINUOUS
 62
   210
 10
25.2131443023682
 20
3.99993896484375
 30
0.0
 11
22.7131576538086
 21
1.49995422363281
 31
0.0
  0
LINE
  5
    FE
  8
0
  6
CONTINUOUS
 62
   210
 10
29.4557857513428
 20
3.99993896484375
 30
0.0
 11
26.9557991027832
 21
1.49995422363281
 31
0.0
  0
LINE
  5
    FF
  8
0
  6
CONTINUOUS
 62
   210
 10
33.6984252929688
 20
3.99993896484375
 30
0.0
 11
31.1984405517578
 21
1.49995422363281
 31
0.0
  0
LINE
  5
   100
  8
0
  6
CONTINUOUS
 62
   210
 10
37.9410629272461
 20
3.99993896484375
 30
0.0
 11
35.4410781860352
 21
1.49995422363281
 31
0.0
  0
LINE
  5
   101
  8
0
  6
CONTINUOUS
 62
   210
 10
42.1837005615234
 20
3.99993896484375
 30
0.0
 11
39.6837158203125
 21
1.49995422363281
 31
0.0
  0
LINE
  5
   102
  8
0
  6
CONTINUOUS
 62
   210
 10
46.4263381958008
 20
3.99993896484375
 30
0.0
 11
43.9263534545898
 21
1.49995422363281
 31
0.0
  0
LINE
  5
   103
  8
0
  6
CONTINUOUS
 62
   210
 10
50.6689758300781
 20
3.99993896484375
 30
0.0
 11
48.1689910888672
 21
1.49995422363281
 31
0.0
  0
ENDBLK
  5
   104
  8
0
  6
CONTINUOUS
 62
    98
  0
BLOCK
  5
   105
  8
0
  6
CONTINUOUS
 62
     7
  2
*HATCH971
 70
    65
 10
0.0
 20
0.0
 30
0.0
  3
*HATCH971
  0
LINE
  5
   106
  8
0
  6
CONTINUOUS
 62
   210
 10
167.171508789063
 20
91.6295318603516
 30
0.0
 11
170.80110168457
 21
87.9999389648438
 31
0.0
  0
LINE
  5
   107
  8
0
  6
CONTINUOUS
 62
   210
 10
171.043731689453
 20
91.9999389648438
 30
0.0
 11
171.237060546875
 21
91.8066101074219
 31
0.0
  0
ENDBLK
  5
   108
  8
0
  6
CONTINUOUS
 62
     7
  0
BLOCK
  5
   109
  8
0
  6
CONTINUOUS
 62
     7
  2
*HATCH972
 70
    65
 10
0.0
 20
0.0
 30
0.0
  3
*HATCH972
  0
LINE
  5
   10A
  8
0
  6
CONTINUOUS
 62
   210
 10
50.8859062194824
 20
86.9999389648438
 30
0.0
 11
53.7202682495117
 21
84.1655731201172
 31
0.0
  0
ENDBLK
  5
   10B
  8
0
  6
CONTINUOUS
 62
     7
  0
BLOCK
  5
   10C
  8
0
  6
CONTINUOUS
 62
     7
  2
*HATCH973
 70
    65
 10
0.0
 20
0.0
 30
0.0
  3
*HATCH973
  0
LINE
  5
   10D
  8
0
  6
CONTINUOUS
 62
   210
 10
49.0588188171387
 20
82.9999389648438
 30
0.0
 11
46.0588188171387
 21
79.9999389648438
 31
0.0
  0
LINE
  5
   10E
  8
0
  6
CONTINUOUS
 62
   210
 10
53.301456451416
 20
82.9999389648438
 30
0.0
 11
50.301456451416
 21
79.9999389648438
 31
0.0
  0
LINE
  5
   10F
  8
0
  6
CONTINUOUS
 62
   210
 10
54.7202682495117
 20
80.1761016845703
 30
0.0
 11
54.5440979003906
 21
79.9999389648438
 31
0.0
  0
ENDBLK
  5
   110
  8
0
  6
CONTINUOUS
 62
     7
  0
BLOCK
  5
   111
  8
0
  6
CONTINUOUS
 62
     7
  2
*HATCH974
 70
    65
 10
0.0
 20
0.0
 30
0.0
  3
*HATCH974
  0
LINE
  5
   112
  8
0
  6
CONTINUOUS
 62
   210
 10
34.2095756530762
 20
82.9999389648438
 30
0.0
 11
31.7370738983154
 21
80.5274353027344
 31
0.0
  0
LINE
  5
   113
  8
0
  6
CONTINUOUS
 62
   210
 10
36.6370620727539
 20
81.1847839355469
 30
0.0
 11
33.4522171020508
 21
77.9999389648438
 31
0.0
  0
ENDBLK
  5
   114
  8
0
  6
CONTINUOUS
 62
     7
  0
BLOCK
  5
   115
  8
0
  6
CONTINUOUS
 62
     7
  2
*HATCH975
 70
    65
 10
0.0
 20
0.0
 30
0.0
  3
*HATCH975
  0
LINE
  5
   116
  8
0
  6
CONTINUOUS
 62
   210
 10
48.1801414489746
 20
79.9999389648438
 30
0.0
 11
46.1801376342773
 21
77.9999389648438
 31
0.0
  0
LINE
  5
   117
  8
0
  6
CONTINUOUS
 62
   210
 10
52.422779083252
 20
79.9999389648438
 30
0.0
 11
50.4227752685547
 21
77.9999389648438
 31
0.0
  0
ENDBLK
  5
   118
  8
0
  6
CONTINUOUS
 62
     7
  0
BLOCK
  5
   119
  8
0
  6
CONTINUOUS
 62
     7
  2
*HATCH976
 70
    65
 10
0.0
 20
0.0
 30
0.0
  3
*HATCH976
  0
LINE
  5
   11A
  8
0
  6
CONTINUOUS
 62
   210
 10
191.187286376953
 20
82.9999389648438
 30
0.0
 11
187.937057495117
 21
79.7497100830078
 31
0.0
  0
LINE
  5
   11B
  8
0
  6
CONTINUOUS
 62
   210
 10
192.737060546875
 20
80.3070678710938
 30
0.0
 11
190.429931640625
 21
77.9999389648438
 31
0.0
  0
ENDBLK
  5
   11C
  8
0
  6
CONTINUOUS
 62
     7
  0
BLOCK
  5
   11D
  8
0
  6
CONTINUOUS
 62
     7
  2
*HATCH977
 70
    65
 10
0.0
 20
0.0
 30
0.0
  3
*HATCH977
  0
LINE
  5
   11E
  8
0
  6
CONTINUOUS
 62
   210
 10
168.320602416992
 20
87.7104110717774
 30
0.0
 11
166.171508789063
 21
85.5613250732422
 31
0.0
  0
LINE
  5
   11F
  8
0
  6
CONTINUOUS
 62
   210
 10
170.824935913086
 20
85.9721145629883
 30
0.0
 11
167.289215087891
 21
82.436393737793
 31
0.0
  0
LINE
  5
   120
  8
0
  6
CONTINUOUS
 62
   210
 10
172.924606323242
 20
83.8291397094727
 30
0.0
 11
169.388885498047
 21
80.2934188842774
 31
0.0
  0
LINE
  5
   121
  8
0
  6
CONTINUOUS
 62
   210
 10
176.338043212891
 20
82.9999389648438
 30
0.0
 11
171.783187866211
 21
78.4450836181641
 31
0.0
  0
LINE
  5
   122
  8
0
  6
CONTINUOUS
 62
   210
 10
179.537063598633
 20
81.9563140869141
 30
0.0
 11
175.580688476563
 21
77.9999389648438
 31
0.0
  0
ENDBLK
  5
   123
  8
0
  6
CONTINUOUS
 62
     7
  0
BLOCK
  5
   124
  8
0
  6
CONTINUOUS
 62
     7
  2
*HATCH978
 70
    65
 10
0.0
 20
0.0
 30
0.0
  3
*HATCH978
  0
LINE
  5
   125
  8
0
  6
CONTINUOUS
 62
   210
 10
171.237060546875
 20
70.5933990478516
 30
0.0
 11
173.737060546875
 21
68.093391418457
 31
0.0
  0
LINE
  5
   126
  8
0
  6
CONTINUOUS
 62
   210
 10
171.237060546875
 20
74.8360443115234
 30
0.0
 11
173.737060546875
 21
72.3360366821289
 31
0.0
  0
LINE
  5
   127
  8
0
  6
CONTINUOUS
 62
   210
 10
172.315795898438
 20
77.9999389648438
 30
0.0
 11
173.737060546875
 21
76.5786819458008
 31
0.0
  0
ENDBLK
  5
   128
  8
0
  6
CONTINUOUS
 62
     7
  0
BLOCK
  5
   129
  8
0
  6
CONTINUOUS
 62
     7
  2
*HATCH979
 70
    65
 10
0.0
 20
0.0
 30
0.0
  3
*HATCH979
  0
LINE
  5
   12A
  8
0
  6
CONTINUOUS
 62
    52
 10
186.918792724609
 20
-4.00005149841309
 30
0.0
 11
184.918792724609
 21
-6.00005149841309
 31
0.0
  0
LINE
  5
   12B
  8
0
  6
CONTINUOUS
 62
    52
 10
191.161437988281
 20
-4.00005149841309
 30
0.0
 11
189.161437988281
 21
-6.00005149841309
 31
0.0
  0
LINE
  5
   12C
  8
0
  6
CONTINUOUS
 62
    52
 10
195.404083251953
 20
-4.00005149841309
 30
0.0
 11
193.404083251953
 21
-6.00005149841309
 31
0.0
  0
LINE
  5
   12D
  8
0
  6
CONTINUOUS
 62
    52
 10
199.646728515625
 20
-4.00005149841309
 30
0.0
 11
197.646728515625
 21
-6.00005149841309
 31
0.0
  0
LINE
  5
   12E
  8
0
  6
CONTINUOUS
 62
    52
 10
203.889373779297
 20
-4.00005149841309
 30
0.0
 11
201.889373779297
 21
-6.00005149841309
 31
0.0
  0
LINE
  5
   12F
  8
0
  6
CONTINUOUS
 62
    52
 10
208.132019042969
 20
-4.00005149841309
 30
0.0
 11
206.132019042969
 21
-6.00005149841309
 31
0.0
  0
LINE
  5
   130
  8
0
  6
CONTINUOUS
 62
    52
 10
212.374664306641
 20
-4.00005149841309
 30
0.0
 11
210.374664306641
 21
-6.00005149841309
 31
0.0
  0
LINE
  5
   131
  8
0
  6
CONTINUOUS
 62
    52
 10
216.617309570313
 20
-4.00005149841309
 30
0.0
 11
214.617309570313
 21
-6.00005149841309
 31
0.0
  0
LINE
  5
   132
  8
0
  6
CONTINUOUS
 62
    52
 10
220.859954833984
 20
-4.00005149841309
 30
0.0
 11
218.859954833984
 21
-6.00005149841309
 31
0.0
  0
LINE
  5
   133
  8
0
  6
CONTINUOUS
 62
    52
 10
225.102600097656
 20
-4.00005149841309
 30
0.0
 11
223.102600097656
 21
-6.00005149841309
 31
0.0
  0
LINE
  5
   134
  8
0
  6
CONTINUOUS
 62
    52
 10
229.345245361328
 20
-4.00005149841309
 30
0.0
 11
227.345245361328
 21
-6.00005149841309
 31
0.0
  0
LINE
  5
   135
  8
0
  6
CONTINUOUS
 62
    52
 10
233.587890625
 20
-4.00005149841309
 30
0.0
 11
231.587890625
 21
-6.00005149841309
 31
0.0
  0
ENDBLK
  5
   136
  8
0
  6
CONTINUOUS
 62
     7
  0
BLOCK
  5
   137
  8
0
  6
CONTINUOUS
 62
     7
  2
*HATCH980
 70
    65
 10
0.0
 20
0.0
 30
0.0
  3
*HATCH980
  0
LINE
  5
   138
  8
0
  6
CONTINUOUS
 62
    52
 10
169.948226928711
 20
-4.00005149841309
 30
0.0
 11
167.948226928711
 21
-6.00005149841309
 31
0.0
  0
LINE
  5
   139
  8
0
  6
CONTINUOUS
 62
    52
 10
174.190872192383
 20
-4.00005149841309
 30
0.0
 11
172.190872192383
 21
-6.00005149841309
 31
0.0
  0
LINE
  5
   13A
  8
0
  6
CONTINUOUS
 62
    52
 10
177.480621337891
 20
-4.95293474197388
 30
0.0
 11
176.433502197266
 21
-6.00005149841309
 31
0.0
  0
ENDBLK
  5
   13B
  8
0
  6
CONTINUOUS
 62
     7
  0
BLOCK
  5
   13C
  8
0
  6
CONTINUOUS
 62
     7
  2
*HATCH981
 70
    65
 10
0.0
 20
0.0
 30
0.0
  3
*HATCH981
  0
LINE
  5
   13D
  8
0
  6
CONTINUOUS
 62
    52
 10
44.7903175354004
 20
-4.00005149841309
 30
0.0
 11
42.7903175354004
 21
-6.00005149841309
 31
0.0
  0
LINE
  5
   13E
  8
0
  6
CONTINUOUS
 62
    52
 10
49.0329551696777
 20
-4.00005149841309
 30
0.0
 11
47.0329551696777
 21
-6.00005149841309
 31
0.0
  0
LINE
  5
   13F
  8
0
  6
CONTINUOUS
 62
    52
 10
53.2755928039551
 20
-4.00005149841309
 30
0.0
 11
51.2755928039551
 21
-6.00005149841309
 31
0.0
  0
ENDBLK
  5
   140
  8
0
  6
CONTINUOUS
 62
     7
  0
BLOCK
  5
   141
  8
0
  6
CONTINUOUS
 62
     7
  2
*HATCH982
 70
    65
 10
0.0
 20
0.0
 30
0.0
  3
*HATCH982
  0
LINE
  5
   142
  8
0
  6
CONTINUOUS
 62
    52
 10
-6.12137222290039
 20
-4.00005149841309
 30
0.0
 11
-8.12137222290039
 21
-6.00005149841309
 31
0.0
  0
LINE
  5
   143
  8
0
  6
CONTINUOUS
 62
    52
 10
-1.87873101234436
 20
-4.00005149841309
 30
0.0
 11
-3.8787317276001
 21
-6.00005149841309
 31
0.0
  0
LINE
  5
   144
  8
0
  6
CONTINUOUS
 62
    52
 10
2.36390995979309
 20
-4.00005149841309
 30
0.0
 11
0.363908767700195
 21
-6.00005149841309
 31
0.0
  0
LINE
  5
   145
  8
0
  6
CONTINUOUS
 62
    52
 10
6.60655117034912
 20
-4.00005149841309
 30
0.0
 11
4.60654926300049
 21
-6.00005149841309
 31
0.0
  0
LINE
  5
   146
  8
0
  6
CONTINUOUS
 62
    52
 10
10.8491926193237
 20
-4.00005149841309
 30
0.0
 11
8.84918975830078
 21
-6.00005149841309
 31
0.0
  0
LINE
  5
   147
  8
0
  6
CONTINUOUS
 62
    52
 10
15.0918340682983
 20
-4.00005149841309
 30
0.0
 11
13.0918312072754
 21
-6.00005149841309
 31
0.0
  0
LINE
  5
   148
  8
0
  6
CONTINUOUS
 62
    52
 10
19.3344745635986
 20
-4.00005149841309
 30
0.0
 11
17.33447265625
 21
-6.00005149841309
 31
0.0
  0
LINE
  5
   149
  8
0
  6
CONTINUOUS
 62
    52
 10
23.5771160125732
 20
-4.00005149841309
 30
0.0
 11
21.5771141052246
 21
-6.00005149841309
 31
0.0
  0
LINE
  5
   14A
  8
0
  6
CONTINUOUS
 62
    52
 10
27.8197574615479
 20
-4.00005149841309
 30
0.0
 11
25.8197555541992
 21
-6.00005149841309
 31
0.0
  0
LINE
  5
   14B
  8
0
  6
CONTINUOUS
 62
    52
 10
32.0623970031738
 20
-4.00005149841309
 30
0.0
 11
30.0623970031738
 21
-6.00005149841309
 31
0.0
  0
LINE
  5
   14C
  8
0
  6
CONTINUOUS
 62
    52
 10
35.4806251525879
 20
-4.82446241378784
 30
0.0
 11
34.3050346374512
 21
-6.00005149841309
 31
0.0
  0
ENDBLK
  5
   14D
  8
0
  6
CONTINUOUS
 62
     7
  0
BLOCK
  5
   14E
  8
0
  6
CONTINUOUS
 62
    98
  2
*HATCH983
 70
    65
 10
0.0
 20
0.0
 30
0.0
  3
*HATCH983
  0
LINE
  5
   14F
  8
0
  6
CONTINUOUS
 62
     3
 10
190.825103759766
 20
53.9999389648438
 30
0.0
 11
189.737060546875
 21
52.9118881225586
 31
0.0
  0
LINE
  5
   150
  8
0
  6
CONTINUOUS
 62
     3
 10
192.946411132813
 20
53.9999389648438
 30
0.0
 11
189.737060546875
 21
50.7905654907227
 31
0.0
  0
LINE
  5
   151
  8
0
  6
CONTINUOUS
 62
     3
 10
193.737060546875
 20
52.669246673584
 30
0.0
 11
191.067749023438
 21
49.9999389648438
 31
0.0
  0
LINE
  5
   152
  8
0
  6
CONTINUOUS
 62
     3
 10
193.737060546875
 20
50.547924041748
 30
0.0
 11
193.189056396484
 21
49.9999389648438
 31
0.0
  0
ENDBLK
  5
   153
  8
0
  6
CONTINUOUS
 62
    98
  0
BLOCK
  5
   154
  8
0
  6
CONTINUOUS
 62
    98
  2
*HATCH984
 70
    65
 10
0.0
 20
0.0
 30
0.0
  3
*HATCH984
  0
LINE
  5
   155
  8
0
  6
CONTINUOUS
 62
     3
 10
174.91520690918
 20
53.9999389648438
 30
0.0
 11
173.737060546875
 21
52.8217926025391
 31
0.0
  0
LINE
  5
   156
  8
0
  6
CONTINUOUS
 62
     3
 10
177.036514282227
 20
53.9999389648438
 30
0.0
 11
173.737060546875
 21
50.7004699707031
 31
0.0
  0
LINE
  5
   157
  8
0
  6
CONTINUOUS
 62
     3
 10
177.737060546875
 20
52.5791511535645
 30
0.0
 11
175.157836914063
 21
49.9999389648438
 31
0.0
  0
LINE
  5
   158
  8
0
  6
CONTINUOUS
 62
     3
 10
177.737060546875
 20
50.4578285217285
 30
0.0
 11
177.279144287109
 21
49.9999389648438
 31
0.0
  0
ENDBLK
  5
   159
  8
0
  6
CONTINUOUS
 62
    98
  0
BLOCK
  5
   15A
  8
0
  6
CONTINUOUS
 62
    98
  2
*HATCH985
 70
    65
 10
0.0
 20
0.0
 30
0.0
  3
*HATCH985
  0
LINE
  5
   15B
  8
0
  6
CONTINUOUS
 62
     3
 10
175.656051635742
 20
85.4999389648438
 30
0.0
 11
173.737060546875
 21
83.5809326171875
 31
0.0
  0
LINE
  5
   15C
  8
0
  6
CONTINUOUS
 62
     3
 10
177.777374267578
 20
85.4999389648438
 30
0.0
 11
175.277374267578
 21
82.9999389648438
 31
0.0
  0
LINE
  5
   15D
  8
0
  6
CONTINUOUS
 62
     3
 10
179.869384765625
 20
85.4706192016602
 30
0.0
 11
177.398696899414
 21
82.9999389648438
 31
0.0
  0
LINE
  5
   15E
  8
0
  6
CONTINUOUS
 62
     3
 10
181.247085571289
 20
84.7270050048828
 30
0.0
 11
179.52001953125
 21
82.9999389648438
 31
0.0
  0
LINE
  5
   15F
  8
0
  6
CONTINUOUS
 62
     3
 10
181.765274047852
 20
83.1238708496094
 30
0.0
 11
180.092300415039
 21
81.4508972167969
 31
0.0
  0
LINE
  5
   160
  8
0
  6
CONTINUOUS
 62
     3
 10
182.342498779297
 20
81.5797729492188
 30
0.0
 11
180.956253051758
 21
80.1935348510742
 31
0.0
  0
LINE
  5
   161
  8
0
  6
CONTINUOUS
 62
     3
 10
182.986572265625
 20
81.1631851196289
 30
0.0
 11
181.519302368164
 21
79.6959075927734
 31
0.0
  0
LINE
  5
   162
  8
0
  6
CONTINUOUS
 62
     3
 10
183.898391723633
 20
81.0143432617187
 30
0.0
 11
182.221939086914
 21
79.3378982543945
 31
0.0
  0
LINE
  5
   163
  8
0
  6
CONTINUOUS
 62
     3
 10
190.505310058594
 20
85.4999389648438
 30
0.0
 11
188.005310058594
 21
82.9999389648438
 31
0.0
  0
LINE
  5
   164
  8
0
  6
CONTINUOUS
 62
     3
 10
191.565963745117
 20
85.4999389648438
 30
0.0
 11
189.065963745117
 21
82.9999389648438
 31
0.0
  0
LINE
  5
   165
  8
0
  6
CONTINUOUS
 62
     3
 10
192.62663269043
 20
85.4999389648438
 30
0.0
 11
190.12663269043
 21
82.9999389648438
 31
0.0
  0
LINE
  5
   166
  8
0
  6
CONTINUOUS
 62
     3
 10
193.737060546875
 20
84.4890518188477
 30
0.0
 11
192.247940063477
 21
82.9999389648438
 31
0.0
  0
ENDBLK
  5
   167
  8
0
  6
CONTINUOUS
 62
    98
  0
BLOCK
  5
   168
  8
0
  6
CONTINUOUS
 62
     1
  2
*HATCH986
 70
    65
 10
0.0
 20
0.0
 30
0.0
  3
*HATCH986
  0
LINE
  5
   169
  8
0
  6
CONTINUOUS
 62
   210
 10
48.301456451416
 20
77.9999389648438
 30
0.0
 11
44.737060546875
 21
74.4355392456055
 31
0.0
  0
LINE
  5
   16A
  8
0
  6
CONTINUOUS
 62
   210
 10
49.737060546875
 20
75.1928939819336
 30
0.0
 11
44.737060546875
 21
70.1929016113281
 31
0.0
  0
LINE
  5
   16B
  8
0
  6
CONTINUOUS
 62
   210
 10
49.737060546875
 20
70.9502487182617
 30
0.0
 11
44.737060546875
 21
65.9502563476563
 31
0.0
  0
LINE
  5
   16C
  8
0
  6
CONTINUOUS
 62
   210
 10
49.737060546875
 20
66.7076187133789
 30
0.0
 11
46.0293807983398
 21
62.9999389648438
 31
0.0
  0
ENDBLK
  5
   16D
  8
0
  6
CONTINUOUS
 62
     1
  0
BLOCK
  5
   16E
  8
0
  6
CONTINUOUS
 62
     1
  2
*HATCH987
 70
    65
 10
0.0
 20
0.0
 30
0.0
  3
*HATCH987
  0
LINE
  5
   16F
  8
0
  6
CONTINUOUS
 62
   210
 10
29.9669361114502
 20
82.9999389648438
 30
0.0
 11
27.237060546875
 21
80.2700653076172
 31
0.0
  0
LINE
  5
   170
  8
0
  6
CONTINUOUS
 62
   210
 10
30.237060546875
 20
79.0274200439453
 30
0.0
 11
27.237060546875
 21
76.0274200439453
 31
0.0
  0
LINE
  5
   171
  8
0
  6
CONTINUOUS
 62
   210
 10
33.4522171020508
 20
77.9999389648438
 30
0.0
 11
27.237060546875
 21
71.784782409668
 31
0.0
  0
LINE
  5
   172
  8
0
  6
CONTINUOUS
 62
   210
 10
36.737060546875
 20
77.0421447753906
 30
0.0
 11
27.237060546875
 21
67.5421447753906
 31
0.0
  0
LINE
  5
   173
  8
0
  6
CONTINUOUS
 62
   210
 10
36.737060546875
 20
72.7994995117188
 30
0.0
 11
27.237060546875
 21
63.299503326416
 31
0.0
  0
LINE
  5
   174
  8
0
  6
CONTINUOUS
 62
   210
 10
36.737060546875
 20
68.5568618774414
 30
0.0
 11
31.180139541626
 21
62.9999389648438
 31
0.0
  0
LINE
  5
   175
  8
0
  6
CONTINUOUS
 62
   210
 10
36.737060546875
 20
64.3142166137695
 30
0.0
 11
35.422779083252
 21
62.9999389648438
 31
0.0
  0
ENDBLK
  5
   176
  8
0
  6
CONTINUOUS
 62
     1
  0
BLOCK
  5
   177
  8
0
  6
CONTINUOUS
 62
     1
  2
*HATCH988
 70
    65
 10
0.0
 20
0.0
 30
0.0
  3
*HATCH988
  0
LINE
  5
   178
  8
0
  6
CONTINUOUS
 62
   210
 10
3.48165249824524
 20
64.9999389648438
 30
0.0
 11
1.48165237903595
 21
62.9999389648438
 31
0.0
  0
LINE
  5
   179
  8
0
  6
CONTINUOUS
 62
   210
 10
7.72429370880127
 20
64.9999389648438
 30
0.0
 11
5.72429370880127
 21
62.9999389648438
 31
0.0
  0
LINE
  5
   17A
  8
0
  6
CONTINUOUS
 62
   210
 10
11.237060546875
 20
64.2700653076172
 30
0.0
 11
9.96693420410156
 21
62.9999389648438
 31
0.0
  0
ENDBLK
  5
   17B
  8
0
  6
CONTINUOUS
 62
     1
  0
BLOCK
  5
   17C
  8
0
  6
CONTINUOUS
 62
     1
  2
*HATCH989
 70
    65
 10
0.0
 20
0.0
 30
0.0
  3
*HATCH989
  0
LINE
  5
   17D
  8
0
  6
CONTINUOUS
 62
   210
 10
2.38977003097534
 20
82.9999389648438
 30
0.0
 11
0.389769941568375
 21
80.9999389648438
 31
0.0
  0
LINE
  5
   17E
  8
0
  6
CONTINUOUS
 62
   210
 10
6.63241100311279
 20
82.9999389648438
 30
0.0
 11
4.63241100311279
 21
80.9999389648438
 31
0.0
  0
LINE
  5
   17F
  8
0
  6
CONTINUOUS
 62
   210
 10
10.8750524520874
 20
82.9999389648438
 30
0.0
 11
8.8750524520874
 21
80.9999389648438
 31
0.0
  0
ENDBLK
  5
   180
  8
0
  6
CONTINUOUS
 62
     1
  0
BLOCK
  5
   181
  8
0
  6
CONTINUOUS
 62
   218
  2
*HATCH990
 70
    65
 10
0.0
 20
0.0
 30
0.0
  3
*HATCH990
  0
LINE
  5
   182
  8
0
  6
CONTINUOUS
 62
     3
 10
-70.4023208618164
 20
252.038360595703
 30
0.0
 11
-72.2455978393555
 21
250.195083618164
 31
0.0
  0
LINE
  5
   183
  8
0
  6
CONTINUOUS
 62
     3
 10
-69.0759735107422
 20
252.304061889648
 30
0.0
 11
-71.8744277954102
 21
249.505599975586
 31
0.0
  0
LINE
  5
   184
  8
0
  6
CONTINUOUS
 62
     3
 10
-68.0004959106445
 20
252.318878173828
 30
0.0
 11
-71.2877426147461
 21
249.031631469727
 31
0.0
  0
LINE
  5
   185
  8
0
  6
CONTINUOUS
 62
     3
 10
-67.0423049926758
 20
252.216400146484
 30
0.0
 11
-70.5405578613281
 21
248.718139648438
 31
0.0
  0
LINE
  5
   186
  8
0
  6
CONTINUOUS
 62
     3
 10
-66.1708908081055
 20
252.027160644531
 30
0.0
 11
-69.6915588378906
 21
248.506484985352
 31
0.0
  0
LINE
  5
   187
  8
0
  6
CONTINUOUS
 62
     3
 10
-65.423713684082
 20
251.713668823242
 30
0.0
 11
-68.7577438354492
 21
248.379638671875
 31
0.0
  0
LINE
  5
   188
  8
0
  6
CONTINUOUS
 62
     3
 10
-64.8103408813477
 20
251.266387939453
 30
0.0
 11
-67.6970825195313
 21
248.379638671875
 31
0.0
  0
LINE
  5
   189
  8
0
  6
CONTINUOUS
 62
     3
 10
-64.3956069946289
 20
250.620452880859
 30
0.0
 11
-66.4208602905273
 21
248.595199584961
 31
0.0
  0
ENDBLK
  5
   18A
  8
0
  6
CONTINUOUS
 62
   218
  0
BLOCK
  5
   18B
  8
0
  6
CONTINUOUS
 62
     7
  2
CAVO
 70
    64
 10
0.0
 20
0.0
 30
0.0
  3
CAVO
  0
LINE
  5
   18C
  8
0
  6
CONTINUOUS
 62
   218
 10
-58.099964209298
 20
208.737096448575
 30
0.0
 11
-58.099964209298
 21
231.737096448575
 31
0.0
  0
LINE
  5
   18D
  8
0
  6
CONTINUOUS
 62
   218
 10
-70.499964209298
 20
208.737096448575
 30
0.0
 11
-70.499964209298
 21
231.737096448575
 31
0.0
  0
LINE
  5
   18E
  8
0
  6
CONTINUOUS
 62
   218
 10
-70.499964209298
 20
208.737096448575
 30
0.0
 11
-58.099964209298
 21
208.737096448575
 31
0.0
  0
LINE
  5
   18F
  8
0
  6
CONTINUOUS
 62
   218
 10
-72.299964209298
 20
231.737096448575
 30
0.0
 11
-56.299964209298
 21
231.737096448575
 31
0.0
  0
LINE
  5
   190
  8
0
  6
DASHDOT
 62
   218
 10
-64.299964209298
 20
203.675830579354
 30
0.0
 11
-64.299964209298
 21
252.349255591
 31
0.0
  0
LINE
  5
   191
  8
0
  6
CONTINUOUS
 62
   218
 10
-72.299964209298
 20
231.737096448575
 30
0.0
 11
-72.299964209298
 21
250.349255591
 31
0.0
  0
LINE
  5
   192
  8
0
  6
CONTINUOUS
 62
   218
 10
-56.299964209298
 20
231.737096448575
 30
0.0
 11
-56.299964209298
 21
250.349255591
 31
0.0
  0
LINE
  5
   193
  8
0
  6
CONTINUOUS
 62
   218
 10
-64.299964209298
 20
208.737096448575
 30
0.0
 11
-60.2444436530033
 21
231.737096448575
 31
0.0
  0
POLYLINE
  5
   194
  8
0
  6
CONTINUOUS
 62
   218
 66
     1
 10
0.0
 20
0.0
 30
0.0
 70
     1
  0
VERTEX
  5
   195
  8
0
  6
CONTINUOUS
 10
-72.299964209298
 20
250.34925559099
 30
0.0
 40
0.0
 41
0.0
  0
VERTEX
  5
   196
  8
0
  6
CONTINUOUS
 10
-72.2987594840827
 20
250.300173133944
 30
0.0
 40
0.0
 41
0.0
  0
VERTEX
  5
   197
  8
0
  6
CONTINUOUS
 10
-72.2951460341185
 20
250.251120242335
 30
0.0
 40
0.0
 41
0.0
  0
VERTEX
  5
   198
  8
0
  6
CONTINUOUS
 10
-72.2891260360124
 20
250.20212646379
 30
0.0
 40
0.0
 41
0.0
  0
VERTEX
  5
   199
  8
0
  6
CONTINUOUS
 10
-72.2807031159863
 20
250.153221310331
 30
0.0
 40
0.0
 41
0.0
  0
VERTEX
  5
   19A
  8
0
  6
CONTINUOUS
 10
-72.2698823476922
 20
250.104434240591
 30
0.0
 40
0.0
 41
0.0
  0
VERTEX
  5
   19B
  8
0
  6
CONTINUOUS
 10
-72.2566702491564
 20
250.055794642079
 30
0.0
 40
0.0
 41
0.0
  0
VERTEX
  5
   19C
  8
0
  6
CONTINUOUS
 10
-72.2410747788529
 20
250.007331813469
 30
0.0
 40
0.0
 41
0.0
  0
VERTEX
  5
   19D
  8
0
  6
CONTINUOUS
 10
-72.22310533091
 20
249.959074946958
 30
0.0
 40
0.0
 41
0.0
  0
VERTEX
  5
   19E
  8
0
  6
CONTINUOUS
 10
-72.202772729451
 20
249.911053110676
 30
0.0
 40
0.0
 41
0.0
  0
VERTEX
  5
   19F
  8
0
  6
CONTINUOUS
 10
-72.180089222075
 20
249.863295231183
 30
0.0
 40
0.0
 41
0.0
  0
VERTEX
  5
   1A0
  8
0
  6
CONTINUOUS
 10
-72.1550684724784
 20
249.81583007604
 30
0.0
 40
0.0
 41
0.0
  0
VERTEX
  5
   1A1
  8
0
  6
CONTINUOUS
 10
-72.1277255522254
 20
249.768686236481
 30
0.0
 40
0.0
 41
0.0
  0
VERTEX
  5
   1A2
  8
0
  6
CONTINUOUS
 10
-72.0980769316686
 20
249.721892110192
 30
0.0
 40
0.0
 41
0.0
  0
VERTEX
  5
   1A3
  8
0
  6
CONTINUOUS
 10
-72.0661404700284
 20
249.675475884206
 30
0.0
 40
0.0
 41
0.0
  0
VERTEX
  5
   1A4
  8
0
  6
CONTINUOUS
 10
-72.0319354046352
 20
249.62946551792
 30
0.0
 40
0.0
 41
0.0
  0
VERTEX
  5
   1A5
  8
0
  6
CONTINUOUS
 10
-71.9954823393412
 20
249.58388872626
 30
0.0
 40
0.0
 41
0.0
  0
VERTEX
  5
   1A6
  8
0
  6
CONTINUOUS
 10
-71.9159213817896
 20
249.49414540413
 30
0.0
 40
0.0
 41
0.0
  0
VERTEX
  5
   1A7
  8
0
  6
CONTINUOUS
 10
-71.8276492666891
 20
249.406462117339
 30
0.0
 40
0.0
 41
0.0
  0
VERTEX
  5
   1A8
  8
0
  6
CONTINUOUS
 10
-71.7308786492965
 20
249.321050102605
 30
0.0
 40
0.0
 41
0.0
  0
VERTEX
  5
   1A9
  8
0
  6
CONTINUOUS
 10
-71.6258426585054
 20
249.238115124952
 30
0.0
 40
0.0
 41
0.0
  0
VERTEX
  5
   1AA
  8
0
  6
CONTINUOUS
 10
-71.5127943352176
 20
249.157856982007
 30
0.0
 40
0.0
 41
0.0
  0
VERTEX
  5
   1AB
  8
0
  6
CONTINUOUS
 10
-71.3920060227458
 20
249.080469022665
 30
0.0
 40
0.0
 41
0.0
  0
VERTEX
  5
   1AC
  8
0
  6
CONTINUOUS
 10
-71.2637687107145
 20
249.006137681298
 30
0.0
 40
0.0
 41
0.0
  0
VERTEX
  5
   1AD
  8
0
  6
CONTINUOUS
 10
-71.1283913340406
 20
248.93504202862
 30
0.0
 40
0.0
 41
0.0
  0
VERTEX
  5
   1AE
  8
0
  6
CONTINUOUS
 10
-70.9862000286824
 20
248.867353340283
 30
0.0
 40
0.0
 41
0.0
  0
VERTEX
  5
   1AF
  8
0
  6
CONTINUOUS
 10
-70.8375373459487
 20
248.803234684268
 30
0.0
 40
0.0
 41
0.0
  0
VERTEX
  5
   1B0
  8
0
  6
CONTINUOUS
 10
-70.6827614272637
 20
248.742840528032
 30
0.0
 40
0.0
 41
0.0
  0
VERTEX
  5
   1B1
  8
0
  6
CONTINUOUS
 10
-70.5222451413722
 20
248.686316366389
 30
0.0
 40
0.0
 41
0.0
  0
VERTEX
  5
   1B2
  8
0
  6
CONTINUOUS
 10
-70.3563751860666
 20
248.633798370994
 30
0.0
 40
0.0
 41
0.0
  0
VERTEX
  5
   1B3
  8
0
  6
CONTINUOUS
 10
-70.1855511565976
 20
248.585413062298
 30
0.0
 40
0.0
 41
0.0
  0
VERTEX
  5
   1B4
  8
0
  6
CONTINUOUS
 10
-70.0101845830146
 20
248.541277004749
 30
0.0
 40
0.0
 41
0.0
  0
VERTEX
  5
   1B5
  8
0
  6
CONTINUOUS
 10
-69.8306979387537
 20
248.501496525973
 30
0.0
 40
0.0
 41
0.0
  0
VERTEX
  5
   1B6
  8
0
  6
CONTINUOUS
 10
-69.6475236228622
 20
248.46616746063
 30
0.0
 40
0.0
 41
0.0
  0
VERTEX
  5
   1B7
  8
0
  6
CONTINUOUS
 10
-69.4611029183111
 20
248.435374919532
 30
0.0
 40
0.0
 41
0.0
  0
VERTEX
  5
   1B8
  8
0
  6
CONTINUOUS
 10
-69.2718849289062
 20
248.409193084608
 30
0.0
 40
0.0
 41
0.0
  0
VERTEX
  5
   1B9
  8
0
  6
CONTINUOUS
 10
-69.0803254973576
 20
248.387685030191
 30
0.0
 40
0.0
 41
0.0
  0
VERTEX
  5
   1BA
  8
0
  6
CONTINUOUS
 10
-68.8868861071145
 20
248.370902571069
 30
0.0
 40
0.0
 41
0.0
  0
VERTEX
  5
   1BB
  8
0
  6
CONTINUOUS
 10
-68.6920327706112
 20
248.358886137654
 30
0.0
 40
0.0
 41
0.0
  0
VERTEX
  5
   1BC
  8
0
  6
CONTINUOUS
 10
-68.4962349066027
 20
248.351664678589
 30
0.0
 40
0.0
 41
0.0
  0
VERTEX
  5
   1BD
  8
0
  6
CONTINUOUS
 10
-68.299964209293
 20
248.349255591
 30
0.0
 40
0.0
 41
0.0
  0
VERTEX
  5
   1BE
  8
0
  6
CONTINUOUS
 10
-68.1036935119833
 20
248.35166467859
 30
0.0
 40
0.0
 41
0.0
  0
VERTEX
  5
   1BF
  8
0
  6
CONTINUOUS
 10
-67.9078956479748
 20
248.358886137656
 30
0.0
 40
0.0
 41
0.0
  0
VERTEX
  5
   1C0
  8
0
  6
CONTINUOUS
 10
-67.7130423114716
 20
248.370902571072
 30
0.0
 40
0.0
 41
0.0
  0
VERTEX
  5
   1C1
  8
0
  6
CONTINUOUS
 10
-67.5196029212286
 20
248.387685030195
 30
0.0
 40
0.0
 41
0.0
  0
VERTEX
  5
   1C2
  8
0
  6
CONTINUOUS
 10
-67.3280434896801
 20
248.409193084613
 30
0.0
 40
0.0
 41
0.0
  0
VERTEX
  5
   1C3
  8
0
  6
CONTINUOUS
 10
-67.1388255002754
 20
248.435374919538
 30
0.0
 40
0.0
 41
0.0
  0
VERTEX
  5
   1C4
  8
0
  6
CONTINUOUS
 10
-66.9524047957244
 20
248.466167460637
 30
0.0
 40
0.0
 41
0.0
  0
VERTEX
  5
   1C5
  8
0
  6
CONTINUOUS
 10
-66.769230479833
 20
248.501496525981
 30
0.0
 40
0.0
 41
0.0
  0
VERTEX
  5
   1C6
  8
0
  6
CONTINUOUS
 10
-66.5897438355723
 20
248.541277004757
 30
0.0
 40
0.0
 41
0.0
  0
VERTEX
  5
   1C7
  8
0
  6
CONTINUOUS
 10
-66.4143772619896
 20
248.585413062308
 30
0.0
 40
0.0
 41
0.0
  0
VERTEX
  5
   1C8
  8
0
  6
CONTINUOUS
 10
-66.2435532325208
 20
248.633798371004
 30
0.0
 40
0.0
 41
0.0
  0
VERTEX
  5
   1C9
  8
0
  6
CONTINUOUS
 10
-66.0776832772154
 20
248.6863163664
 30
0.0
 40
0.0
 41
0.0
  0
VERTEX
  5
   1CA
  8
0
  6
CONTINUOUS
 10
-65.9171669913242
 20
248.742840528044
 30
0.0
 40
0.0
 41
0.0
  0
VERTEX
  5
   1CB
  8
0
  6
CONTINUOUS
 10
-65.7623910726396
 20
248.803234684281
 30
0.0
 40
0.0
 41
0.0
  0
VERTEX
  5
   1CC
  8
0
  6
CONTINUOUS
 10
-65.6137283899062
 20
248.867353340297
 30
0.0
 40
0.0
 41
0.0
  0
VERTEX
  5
   1CD
  8
0
  6
CONTINUOUS
 10
-65.4715370845483
 20
248.935042028634
 30
0.0
 40
0.0
 41
0.0
  0
VERTEX
  5
   1CE
  8
0
  6
CONTINUOUS
 10
-65.3361597078748
 20
249.006137681313
 30
0.0
 40
0.0
 41
0.0
  0
VERTEX
  5
   1CF
  8
0
  6
CONTINUOUS
 10
-65.2079223958439
 20
249.08046902268
 30
0.0
 40
0.0
 41
0.0
  0
VERTEX
  5
   1D0
  8
0
  6
CONTINUOUS
 10
-65.0871340833724
 20
249.157856982023
 30
0.0
 40
0.0
 41
0.0
  0
VERTEX
  5
   1D1
  8
0
  6
CONTINUOUS
 10
-64.974085760085
 20
249.238115124969
 30
0.0
 40
0.0
 41
0.0
  0
VERTEX
  5
   1D2
  8
0
  6
CONTINUOUS
 10
-64.8690497692943
 20
249.321050102622
 30
0.0
 40
0.0
 41
0.0
  0
VERTEX
  5
   1D3
  8
0
  6
CONTINUOUS
 10
-64.7722791519022
 20
249.406462117357
 30
0.0
 40
0.0
 41
0.0
  0
VERTEX
  5
   1D4
  8
0
  6
CONTINUOUS
 10
-64.6840070368021
 20
249.494145404148
 30
0.0
 40
0.0
 41
0.0
  0
VERTEX
  5
   1D5
  8
0
  6
CONTINUOUS
 10
-64.604446079251
 20
249.583888726279
 30
0.0
 40
0.0
 41
0.0
  0
VERTEX
  5
   1D6
  8
0
  6
CONTINUOUS
 10
-64.5679930139573
 20
249.629465517939
 30
0.0
 40
0.0
 41
0.0
  0
VERTEX
  5
   1D7
  8
0
  6
CONTINUOUS
 10
-64.5337879485642
 20
249.675475884225
 30
0.0
 40
0.0
 41
0.0
  0
VERTEX
  5
   1D8
  8
0
  6
CONTINUOUS
 10
-64.5018514869243
 20
249.721892110211
 30
0.0
 40
0.0
 41
0.0
  0
VERTEX
  5
   1D9
  8
0
  6
CONTINUOUS
 10
-64.4722028663677
 20
249.7686862365
 30
0.0
 40
0.0
 41
0.0
  0
VERTEX
  5
   1DA
  8
0
  6
CONTINUOUS
 10
-64.4448599461149
 20
249.81583007606
 30
0.0
 40
0.0
 41
0.0
  0
VERTEX
  5
   1DB
  8
0
  6
CONTINUOUS
 10
-64.4198391965186
 20
249.863295231203
 30
0.0
 40
0.0
 41
0.0
  0
VERTEX
  5
   1DC
  8
0
  6
CONTINUOUS
 10
-64.3971556891428
 20
249.911053110696
 30
0.0
 40
0.0
 41
0.0
  0
VERTEX
  5
   1DD
  8
0
  6
CONTINUOUS
 10
-64.3768230876841
 20
249.959074946977
 30
0.0
 40
0.0
 41
0.0
  0
VERTEX
  5
   1DE
  8
0
  6
CONTINUOUS
 10
-64.3588536397414
 20
250.007331813489
 30
0.0
 40
0.0
 41
0.0
  0
VERTEX
  5
   1DF
  8
0
  6
CONTINUOUS
 10
-64.3432581694382
 20
250.055794642099
 30
0.0
 40
0.0
 41
0.0
  0
VERTEX
  5
   1E0
  8
0
  6
CONTINUOUS
 10
-64.3300460709026
 20
250.104434240611
 30
0.0
 40
0.0
 41
0.0
  0
VERTEX
  5
   1E1
  8
0
  6
CONTINUOUS
 10
-64.3192253026087
 20
250.153221310351
 30
0.0
 40
0.0
 41
0.0
  0
VERTEX
  5
   1E2
  8
0
  6
CONTINUOUS
 10
-64.3108023825829
 20
250.20212646381
 30
0.0
 40
0.0
 41
0.0
  0
VERTEX
  5
   1E3
  8
0
  6
CONTINUOUS
 10
-64.3047823844771
 20
250.251120242355
 30
0.0
 40
0.0
 41
0.0
  0
VERTEX
  5
   1E4
  8
0
  6
CONTINUOUS
 10
-64.3011689345131
 20
250.300173133964
 30
0.0
 40
0.0
 41
0.0
  0
VERTEX
  5
   1E5
  8
0
  6
CONTINUOUS
 10
-64.299964209298
 20
250.34925559101
 30
0.0
 40
0.0
 41
0.0
  0
VERTEX
  5
   1E6
  8
0
  6
CONTINUOUS
 10
-64.3011689345133
 20
250.398338048056
 30
0.0
 40
0.0
 41
0.0
  0
VERTEX
  5
   1E7
  8
0
  6
CONTINUOUS
 10
-64.3047823844776
 20
250.447390939665
 30
0.0
 40
0.0
 41
0.0
  0
VERTEX
  5
   1E8
  8
0
  6
CONTINUOUS
 10
-64.3108023825836
 20
250.496384718209
 30
0.0
 40
0.0
 41
0.0
  0
VERTEX
  5
   1E9
  8
0
  6
CONTINUOUS
 10
-64.3192253026097
 20
250.545289871669
 30
0.0
 40
0.0
 41
0.0
  0
VERTEX
  5
   1EA
  8
0
  6
CONTINUOUS
 10
-64.3300460709038
 20
250.594076941408
 30
0.0
 40
0.0
 41
0.0
  0
VERTEX
  5
   1EB
  8
0
  6
CONTINUOUS
 10
-64.3432581694396
 20
250.64271653992
 30
0.0
 40
0.0
 41
0.0
  0
VERTEX
  5
   1EC
  8
0
  6
CONTINUOUS
 10
-64.3588536397431
 20
250.69117936853
 30
0.0
 40
0.0
 41
0.0
  0
VERTEX
  5
   1ED
  8
0
  6
CONTINUOUS
 10
-64.3768230876861
 20
250.739436235042
 30
0.0
 40
0.0
 41
0.0
  0
VERTEX
  5
   1EE
  8
0
  6
CONTINUOUS
 10
-64.397155689145
 20
250.787458071323
 30
0.0
 40
0.0
 41
0.0
  0
VERTEX
  5
   1EF
  8
0
  6
CONTINUOUS
 10
-64.4198391965211
 20
250.835215950816
 30
0.0
 40
0.0
 41
0.0
  0
VERTEX
  5
   1F0
  8
0
  6
CONTINUOUS
 10
-64.4448599461176
 20
250.882681105959
 30
0.0
 40
0.0
 41
0.0
  0
VERTEX
  5
   1F1
  8
0
  6
CONTINUOUS
 10
-64.4722028663706
 20
250.929824945518
 30
0.0
 40
0.0
 41
0.0
  0
VERTEX
  5
   1F2
  8
0
  6
CONTINUOUS
 10
-64.5018514869274
 20
250.976619071807
 30
0.0
 40
0.0
 41
0.0
  0
VERTEX
  5
   1F3
  8
0
  6
CONTINUOUS
 10
-64.5337879485676
 20
251.023035297794
 30
0.0
 40
0.0
 41
0.0
  0
VERTEX
  5
   1F4
  8
0
  6
CONTINUOUS
 10
-64.5679930139609
 20
251.069045664079
 30
0.0
 40
0.0
 41
0.0
  0
VERTEX
  5
   1F5
  8
0
  6
CONTINUOUS
 10
-64.6044460792548
 20
251.114622455739
 30
0.0
 40
0.0
 41
0.0
  0
VERTEX
  5
   1F6
  8
0
  6
CONTINUOUS
 10
-64.6840070368064
 20
251.204365777869
 30
0.0
 40
0.0
 41
0.0
  0
VERTEX
  5
   1F7
  8
0
  6
CONTINUOUS
 10
-64.772279151907
 20
251.292049064661
 30
0.0
 40
0.0
 41
0.0
  0
VERTEX
  5
   1F8
  8
0
  6
CONTINUOUS
 10
-64.8690497692995
 20
251.377461079395
 30
0.0
 40
0.0
 41
0.0
  0
VERTEX
  5
   1F9
  8
0
  6
CONTINUOUS
 10
-64.9740857600906
 20
251.460396057047
 30
0.0
 40
0.0
 41
0.0
  0
VERTEX
  5
   1FA
  8
0
  6
CONTINUOUS
 10
-65.0871340833784
 20
251.540654199993
 30
0.0
 40
0.0
 41
0.0
  0
VERTEX
  5
   1FB
  8
0
  6
CONTINUOUS
 10
-65.2079223958502
 20
251.618042159335
 30
0.0
 40
0.0
 41
0.0
  0
VERTEX
  5
   1FC
  8
0
  6
CONTINUOUS
 10
-65.3361597078815
 20
251.692373500701
 30
0.0
 40
0.0
 41
0.0
  0
VERTEX
  5
   1FD
  8
0
  6
CONTINUOUS
 10
-65.4715370845554
 20
251.76346915338
 30
0.0
 40
0.0
 41
0.0
  0
VERTEX
  5
   1FE
  8
0
  6
CONTINUOUS
 10
-65.6137283899137
 20
251.831157841716
 30
0.0
 40
0.0
 41
0.0
  0
VERTEX
  5
   1FF
  8
0
  6
CONTINUOUS
 10
-65.7623910726473
 20
251.895276497732
 30
0.0
 40
0.0
 41
0.0
  0
VERTEX
  5
   200
  8
0
  6
CONTINUOUS
 10
-65.9171669913323
 20
251.955670653967
 30
0.0
 40
0.0
 41
0.0
  0
VERTEX
  5
   201
  8
0
  6
CONTINUOUS
 10
-66.0776832772238
 20
252.01219481561
 30
0.0
 40
0.0
 41
0.0
  0
VERTEX
  5
   202
  8
0
  6
CONTINUOUS
 10
-66.2435532325294
 20
252.064712811005
 30
0.0
 40
0.0
 41
0.0
  0
VERTEX
  5
   203
  8
0
  6
CONTINUOUS
 10
-66.4143772619985
 20
252.113098119701
 30
0.0
 40
0.0
 41
0.0
  0
VERTEX
  5
   204
  8
0
  6
CONTINUOUS
 10
-66.5897438355814
 20
252.157234177251
 30
0.0
 40
0.0
 41
0.0
  0
VERTEX
  5
   205
  8
0
  6
CONTINUOUS
 10
-66.7692304798423
 20
252.197014656026
 30
0.0
 40
0.0
 41
0.0
  0
VERTEX
  5
   206
  8
0
  6
CONTINUOUS
 10
-66.9524047957339
 20
252.232343721369
 30
0.0
 40
0.0
 41
0.0
  0
VERTEX
  5
   207
  8
0
  6
CONTINUOUS
 10
-67.138825500285
 20
252.263136262467
 30
0.0
 40
0.0
 41
0.0
  0
VERTEX
  5
   208
  8
0
  6
CONTINUOUS
 10
-67.3280434896898
 20
252.289318097391
 30
0.0
 40
0.0
 41
0.0
  0
VERTEX
  5
   209
  8
0
  6
CONTINUOUS
 10
-67.5196029212384
 20
252.310826151808
 30
0.0
 40
0.0
 41
0.0
  0
VERTEX
  5
   20A
  8
0
  6
CONTINUOUS
 10
-67.7130423114815
 20
252.327608610931
 30
0.0
 40
0.0
 41
0.0
  0
VERTEX
  5
   20B
  8
0
  6
CONTINUOUS
 10
-67.9078956479848
 20
252.339625044345
 30
0.0
 40
0.0
 41
0.0
  0
VERTEX
  5
   20C
  8
0
  6
CONTINUOUS
 10
-68.1036935119934
 20
252.346846503411
 30
0.0
 40
0.0
 41
0.0
  0
VERTEX
  5
   20D
  8
0
  6
CONTINUOUS
 10
-68.299964209303
 20
252.349255591
 30
0.0
 40
0.0
 41
0.0
  0
VERTEX
  5
   20E
  8
0
  6
CONTINUOUS
 10
-68.4962349066127
 20
252.34684650341
 30
0.0
 40
0.0
 41
0.0
  0
VERTEX
  5
   20F
  8
0
  6
CONTINUOUS
 10
-68.6920327706213
 20
252.339625044343
 30
0.0
 40
0.0
 41
0.0
  0
VERTEX
  5
   210
  8
0
  6
CONTINUOUS
 10
-68.8868861071244
 20
252.327608610928
 30
0.0
 40
0.0
 41
0.0
  0
VERTEX
  5
   211
  8
0
  6
CONTINUOUS
 10
-69.0803254973675
 20
252.310826151804
 30
0.0
 40
0.0
 41
0.0
  0
VERTEX
  5
   212
  8
0
  6
CONTINUOUS
 10
-69.2718849289159
 20
252.289318097386
 30
0.0
 40
0.0
 41
0.0
  0
VERTEX
  5
   213
  8
0
  6
CONTINUOUS
 10
-69.4611029183207
 20
252.263136262461
 30
0.0
 40
0.0
 41
0.0
  0
VERTEX
  5
   214
  8
0
  6
CONTINUOUS
 10
-69.6475236228716
 20
252.232343721362
 30
0.0
 40
0.0
 41
0.0
  0
VERTEX
  5
   215
  8
0
  6
CONTINUOUS
 10
-69.830697938763
 20
252.197014656018
 30
0.0
 40
0.0
 41
0.0
  0
VERTEX
  5
   216
  8
0
  6
CONTINUOUS
 10
-70.0101845830237
 20
252.157234177242
 30
0.0
 40
0.0
 41
0.0
  0
VERTEX
  5
   217
  8
0
  6
CONTINUOUS
 10
-70.1855511566064
 20
252.113098119692
 30
0.0
 40
0.0
 41
0.0
  0
VERTEX
  5
   218
  8
0
  6
CONTINUOUS
 10
-70.3563751860752
 20
252.064712810995
 30
0.0
 40
0.0
 41
0.0
  0
VERTEX
  5
   219
  8
0
  6
CONTINUOUS
 10
-70.5222451413806
 20
252.012194815599
 30
0.0
 40
0.0
 41
0.0
  0
VERTEX
  5
   21A
  8
0
  6
CONTINUOUS
 10
-70.6827614272718
 20
251.955670653955
 30
0.0
 40
0.0
 41
0.0
  0
VERTEX
  5
   21B
  8
0
  6
CONTINUOUS
 10
-70.8375373459565
 20
251.895276497719
 30
0.0
 40
0.0
 41
0.0
  0
VERTEX
  5
   21C
  8
0
  6
CONTINUOUS
 10
-70.9862000286898
 20
251.831157841703
 30
0.0
 40
0.0
 41
0.0
  0
VERTEX
  5
   21D
  8
0
  6
CONTINUOUS
 10
-71.1283913340478
 20
251.763469153366
 30
0.0
 40
0.0
 41
0.0
  0
VERTEX
  5
   21E
  8
0
  6
CONTINUOUS
 10
-71.2637687107212
 20
251.692373500686
 30
0.0
 40
0.0
 41
0.0
  0
VERTEX
  5
   21F
  8
0
  6
CONTINUOUS
 10
-71.3920060227521
 20
251.618042159319
 30
0.0
 40
0.0
 41
0.0
  0
VERTEX
  5
   220
  8
0
  6
CONTINUOUS
 10
-71.5127943352236
 20
251.540654199976
 30
0.0
 40
0.0
 41
0.0
  0
VERTEX
  5
   221
  8
0
  6
CONTINUOUS
 10
-71.625842658511
 20
251.460396057031
 30
0.0
 40
0.0
 41
0.0
  0
VERTEX
  5
   222
  8
0
  6
CONTINUOUS
 10
-71.7308786493017
 20
251.377461079378
 30
0.0
 40
0.0
 41
0.0
  0
VERTEX
  5
   223
  8
0
  6
CONTINUOUS
 10
-71.8276492666938
 20
251.292049064643
 30
0.0
 40
0.0
 41
0.0
  0
VERTEX
  5
   224
  8
0
  6
CONTINUOUS
 10
-71.9159213817939
 20
251.204365777851
 30
0.0
 40
0.0
 41
0.0
  0
VERTEX
  5
   225
  8
0
  6
CONTINUOUS
 10
-71.9954823393451
 20
251.114622455721
 30
0.0
 40
0.0
 41
0.0
  0
VERTEX
  5
   226
  8
0
  6
CONTINUOUS
 10
-72.0319354046388
 20
251.06904566406
 30
0.0
 40
0.0
 41
0.0
  0
VERTEX
  5
   227
  8
0
  6
CONTINUOUS
 10
-72.0661404700318
 20
251.023035297775
 30
0.0
 40
0.0
 41
0.0
  0
VERTEX
  5
   228
  8
0
  6
CONTINUOUS
 10
-72.0980769316717
 20
250.976619071788
 30
0.0
 40
0.0
 41
0.0
  0
VERTEX
  5
   229
  8
0
  6
CONTINUOUS
 10
-72.1277255522283
 20
250.929824945499
 30
0.0
 40
0.0
 41
0.0
  0
VERTEX
  5
   22A
  8
0
  6
CONTINUOUS
 10
-72.1550684724811
 20
250.88268110594
 30
0.0
 40
0.0
 41
0.0
  0
VERTEX
  5
   22B
  8
0
  6
CONTINUOUS
 10
-72.1800892220774
 20
250.835215950796
 30
0.0
 40
0.0
 41
0.0
  0
VERTEX
  5
   22C
  8
0
  6
CONTINUOUS
 10
-72.2027727294532
 20
250.787458071304
 30
0.0
 40
0.0
 41
0.0
  0
VERTEX
  5
   22D
  8
0
  6
CONTINUOUS
 10
-72.2231053309119
 20
250.739436235022
 30
0.0
 40
0.0
 41
0.0
  0
VERTEX
  5
   22E
  8
0
  6
CONTINUOUS
 10
-72.2410747788546
 20
250.69117936851
 30
0.0
 40
0.0
 41
0.0
  0
VERTEX
  5
   22F
  8
0
  6
CONTINUOUS
 10
-72.2566702491579
 20
250.642716539901
 30
0.0
 40
0.0
 41
0.0
  0
VERTEX
  5
   230
  8
0
  6
CONTINUOUS
 10
-72.2698823476935
 20
250.594076941388
 30
0.0
 40
0.0
 41
0.0
  0
VERTEX
  5
   231
  8
0
  6
CONTINUOUS
 10
-72.2807031159873
 20
250.545289871649
 30
0.0
 40
0.0
 41
0.0
  0
VERTEX
  5
   232
  8
0
  6
CONTINUOUS
 10
-72.2891260360131
 20
250.496384718189
 30
0.0
 40
0.0
 41
0.0
  0
VERTEX
  5
   233
  8
0
  6
CONTINUOUS
 10
-72.2951460341189
 20
250.447390939645
 30
0.0
 40
0.0
 41
0.0
  0
VERTEX
  5
   234
  8
0
  6
CONTINUOUS
 10
-72.298759484083
 20
250.398338048035
 30
0.0
 40
0.0
 41
0.0
  0
VERTEX
  5
   235
  8
0
  6
CONTINUOUS
 10
-72.299964209298
 20
250.34925559099
 30
0.0
 40
0.0
 41
0.0
  0
SEQEND
  5
   236
  8
0
  6
CONTINUOUS
 62
   218
  0
POLYLINE
  5
   237
  8
0
  6
CONTINUOUS
 62
   218
 66
     1
 10
0.0
 20
0.0
 30
0.0
  0
VERTEX
  5
   238
  8
0
  6
CONTINUOUS
 10
-56.299964209298
 20
250.349255591015
 30
0.0
 40
0.0
 41
0.0
  0
VERTEX
  5
   239
  8
0
  6
CONTINUOUS
 10
-56.3011689345136
 20
250.398338048061
 30
0.0
 40
0.0
 41
0.0
  0
VERTEX
  5
   23A
  8
0
  6
CONTINUOUS
 10
-56.3047823844781
 20
250.44739093967
 30
0.0
 40
0.0
 41
0.0
  0
VERTEX
  5
   23B
  8
0
  6
CONTINUOUS
 10
-56.3108023825844
 20
250.496384718214
 30
0.0
 40
0.0
 41
0.0
  0
VERTEX
  5
   23C
  8
0
  6
CONTINUOUS
 10
-56.3192253026107
 20
250.545289871674
 30
0.0
 40
0.0
 41
0.0
  0
VERTEX
  5
   23D
  8
0
  6
CONTINUOUS
 10
-56.3300460709051
 20
250.594076941413
 30
0.0
 40
0.0
 41
0.0
  0
VERTEX
  5
   23E
  8
0
  6
CONTINUOUS
 10
-56.3432581694412
 20
250.642716539926
 30
0.0
 40
0.0
 41
0.0
  0
VERTEX
  5
   23F
  8
0
  6
CONTINUOUS
 10
-56.3588536397449
 20
250.691179368535
 30
0.0
 40
0.0
 41
0.0
  0
VERTEX
  5
   240
  8
0
  6
CONTINUOUS
 10
-56.3768230876882
 20
250.739436235047
 30
0.0
 40
0.0
 41
0.0
  0
VERTEX
  5
   241
  8
0
  6
CONTINUOUS
 10
-56.3971556891474
 20
250.787458071328
 30
0.0
 40
0.0
 41
0.0
  0
VERTEX
  5
   242
  8
0
  6
CONTINUOUS
 10
-56.4198391965237
 20
250.835215950821
 30
0.0
 40
0.0
 41
0.0
  0
VERTEX
  5
   243
  8
0
  6
CONTINUOUS
 10
-56.4448599461205
 20
250.882681105964
 30
0.0
 40
0.0
 41
0.0
  0
VERTEX
  5
   244
  8
0
  6
CONTINUOUS
 10
-56.4722028663738
 20
250.929824945523
 30
0.0
 40
0.0
 41
0.0
  0
VERTEX
  5
   245
  8
0
  6
CONTINUOUS
 10
-56.5018514869309
 20
250.976619071812
 30
0.0
 40
0.0
 41
0.0
  0
VERTEX
  5
   246
  8
0
  6
CONTINUOUS
 10
-56.5337879485714
 20
251.023035297799
 30
0.0
 40
0.0
 41
0.0
  0
VERTEX
  5
   247
  8
0
  6
CONTINUOUS
 10
-56.5679930139649
 20
251.069045664084
 30
0.0
 40
0.0
 41
0.0
  0
VERTEX
  5
   248
  8
0
  6
CONTINUOUS
 10
-56.6044460792591
 20
251.114622455744
 30
0.0
 40
0.0
 41
0.0
  0
VERTEX
  5
   249
  8
0
  6
CONTINUOUS
 10
-56.6840070368113
 20
251.204365777875
 30
0.0
 40
0.0
 41
0.0
  0
VERTEX
  5
   24A
  8
0
  6
CONTINUOUS
 10
-56.7722791519124
 20
251.292049064666
 30
0.0
 40
0.0
 41
0.0
  0
VERTEX
  5
   24B
  8
0
  6
CONTINUOUS
 10
-56.8690497693056
 20
251.3774610794
 30
0.0
 40
0.0
 41
0.0
  0
VERTEX
  5
   24C
  8
0
  6
CONTINUOUS
 10
-56.9740857600973
 20
251.460396057052
 30
0.0
 40
0.0
 41
0.0
  0
VERTEX
  5
   24D
  8
0
  6
CONTINUOUS
 10
-57.0871340833856
 20
251.540654199997
 30
0.0
 40
0.0
 41
0.0
  0
VERTEX
  5
   24E
  8
0
  6
CONTINUOUS
 10
-57.207922395858
 20
251.61804215934
 30
0.0
 40
0.0
 41
0.0
  0
VERTEX
  5
   24F
  8
0
  6
CONTINUOUS
 10
-57.3361597078899
 20
251.692373500706
 30
0.0
 40
0.0
 41
0.0
  0
VERTEX
  5
   250
  8
0
  6
CONTINUOUS
 10
-57.4715370845643
 20
251.763469153384
 30
0.0
 40
0.0
 41
0.0
  0
VERTEX
  5
   251
  8
0
  6
CONTINUOUS
 10
-57.6137283899231
 20
251.831157841721
 30
0.0
 40
0.0
 41
0.0
  0
VERTEX
  5
   252
  8
0
  6
CONTINUOUS
 10
-57.7623910726573
 20
251.895276497736
 30
0.0
 40
0.0
 41
0.0
  0
VERTEX
  5
   253
  8
0
  6
CONTINUOUS
 10
-57.9171669913428
 20
251.955670653971
 30
0.0
 40
0.0
 41
0.0
  0
VERTEX
  5
   254
  8
0
  6
CONTINUOUS
 10
-58.0776832772348
 20
252.012194815614
 30
0.0
 40
0.0
 41
0.0
  0
VERTEX
  5
   255
  8
0
  6
CONTINUOUS
 10
-58.2435532325409
 20
252.064712811009
 30
0.0
 40
0.0
 41
0.0
  0
VERTEX
  5
   256
  8
0
  6
CONTINUOUS
 10
-58.4143772620104
 20
252.113098119704
 30
0.0
 40
0.0
 41
0.0
  0
VERTEX
  5
   257
  8
0
  6
CONTINUOUS
 10
-58.5897438355938
 20
252.157234177254
 30
0.0
 40
0.0
 41
0.0
  0
VERTEX
  5
   258
  8
0
  6
CONTINUOUS
 10
-58.7692304798551
 20
252.197014656029
 30
0.0
 40
0.0
 41
0.0
  0
VERTEX
  5
   259
  8
0
  6
CONTINUOUS
 10
-58.952404795747
 20
252.232343721371
 30
0.0
 40
0.0
 41
0.0
  0
VERTEX
  5
   25A
  8
0
  6
CONTINUOUS
 10
-59.1388255002985
 20
252.263136262469
 30
0.0
 40
0.0
 41
0.0
  0
VERTEX
  5
   25B
  8
0
  6
CONTINUOUS
 10
-59.3280434897037
 20
252.289318097393
 30
0.0
 40
0.0
 41
0.0
  0
VERTEX
  5
   25C
  8
0
  6
CONTINUOUS
 10
-59.5196029212526
 20
252.31082615181
 30
0.0
 40
0.0
 41
0.0
  0
VERTEX
  5
   25D
  8
0
  6
CONTINUOUS
 10
-59.713042311496
 20
252.327608610932
 30
0.0
 40
0.0
 41
0.0
  0
VERTEX
  5
   25E
  8
0
  6
CONTINUOUS
 10
-59.9078956479995
 20
252.339625044346
 30
0.0
 40
0.0
 41
0.0
  0
VERTEX
  5
   25F
  8
0
  6
CONTINUOUS
 10
-60.1036935120083
 20
252.346846503411
 30
0.0
 40
0.0
 41
0.0
  0
VERTEX
  5
   260
  8
0
  6
CONTINUOUS
 10
-60.2999642093181
 20
252.349255591
 30
0.0
 40
0.0
 41
0.0
  0
VERTEX
  5
   261
  8
0
  6
CONTINUOUS
 10
-60.4962349066279
 20
252.346846503409
 30
0.0
 40
0.0
 41
0.0
  0
VERTEX
  5
   262
  8
0
  6
CONTINUOUS
 10
-60.6920327706366
 20
252.339625044342
 30
0.0
 40
0.0
 41
0.0
  0
VERTEX
  5
   263
  8
0
  6
CONTINUOUS
 10
-60.8868861071398
 20
252.327608610927
 30
0.0
 40
0.0
 41
0.0
  0
VERTEX
  5
   264
  8
0
  6
CONTINUOUS
 10
-61.0803254973829
 20
252.310826151803
 30
0.0
 40
0.0
 41
0.0
  0
VERTEX
  5
   265
  8
0
  6
CONTINUOUS
 10
-61.2718849289313
 20
252.289318097384
 30
0.0
 40
0.0
 41
0.0
  0
VERTEX
  5
   266
  8
0
  6
CONTINUOUS
 10
-61.461102918336
 20
252.263136262459
 30
0.0
 40
0.0
 41
0.0
  0
VERTEX
  5
   267
  8
0
  6
CONTINUOUS
 10
-61.6475236228869
 20
252.23234372136
 30
0.0
 40
0.0
 41
0.0
  0
VERTEX
  5
   268
  8
0
  6
CONTINUOUS
 10
-61.8306979387781
 20
252.197014656015
 30
0.0
 40
0.0
 41
0.0
  0
VERTEX
  5
   269
  8
0
  6
CONTINUOUS
 10
-62.0101845830386
 20
252.157234177239
 30
0.0
 40
0.0
 41
0.0
  0
VERTEX
  5
   26A
  8
0
  6
CONTINUOUS
 10
-62.1855511566211
 20
252.113098119688
 30
0.0
 40
0.0
 41
0.0
  0
VERTEX
  5
   26B
  8
0
  6
CONTINUOUS
 10
-62.3563751860896
 20
252.064712810991
 30
0.0
 40
0.0
 41
0.0
  0
VERTEX
  5
   26C
  8
0
  6
CONTINUOUS
 10
-62.5222451413947
 20
252.012194815594
 30
0.0
 40
0.0
 41
0.0
  0
VERTEX
  5
   26D
  8
0
  6
CONTINUOUS
 10
-62.6827614272855
 20
251.95567065395
 30
0.0
 40
0.0
 41
0.0
  0
VERTEX
  5
   26E
  8
0
  6
CONTINUOUS
 10
-62.8375373459698
 20
251.895276497713
 30
0.0
 40
0.0
 41
0.0
  0
VERTEX
  5
   26F
  8
0
  6
CONTINUOUS
 10
-62.9862000287027
 20
251.831157841697
 30
0.0
 40
0.0
 41
0.0
  0
VERTEX
  5
   270
  8
0
  6
CONTINUOUS
 10
-63.1283913340602
 20
251.763469153359
 30
0.0
 40
0.0
 41
0.0
  0
VERTEX
  5
   271
  8
0
  6
CONTINUOUS
 10
-63.2637687107331
 20
251.69237350068
 30
0.0
 40
0.0
 41
0.0
  0
VERTEX
  5
   272
  8
0
  6
CONTINUOUS
 10
-63.3920060227635
 20
251.618042159312
 30
0.0
 40
0.0
 41
0.0
  0
VERTEX
  5
   273
  8
0
  6
CONTINUOUS
 10
-63.5127943352343
 20
251.540654199969
 30
0.0
 40
0.0
 41
0.0
  0
VERTEX
  5
   274
  8
0
  6
CONTINUOUS
 10
-63.6258426585211
 20
251.460396057023
 30
0.0
 40
0.0
 41
0.0
  0
VERTEX
  5
   275
  8
0
  6
CONTINUOUS
 10
-63.7308786493111
 20
251.37746107937
 30
0.0
 40
0.0
 41
0.0
  0
VERTEX
  5
   276
  8
0
  6
CONTINUOUS
 10
-63.8276492667025
 20
251.292049064635
 30
0.0
 40
0.0
 41
0.0
  0
VERTEX
  5
   277
  8
0
  6
CONTINUOUS
 10
-63.9159213818019
 20
251.204365777843
 30
0.0
 40
0.0
 41
0.0
  0
VERTEX
  5
   278
  8
0
  6
CONTINUOUS
 10
-63.9954823393523
 20
251.114622455712
 30
0.0
 40
0.0
 41
0.0
  0
VERTEX
  5
   279
  8
0
  6
CONTINUOUS
 10
-64.0319354046456
 20
251.069045664051
 30
0.0
 40
0.0
 41
0.0
  0
VERTEX
  5
   27A
  8
0
  6
CONTINUOUS
 10
-64.0661404700382
 20
251.023035297766
 30
0.0
 40
0.0
 41
0.0
  0
VERTEX
  5
   27B
  8
0
  6
CONTINUOUS
 10
-64.0980769316777
 20
250.976619071779
 30
0.0
 40
0.0
 41
0.0
  0
VERTEX
  5
   27C
  8
0
  6
CONTINUOUS
 10
-64.1277255522339
 20
250.92982494549
 30
0.0
 40
0.0
 41
0.0
  0
VERTEX
  5
   27D
  8
0
  6
CONTINUOUS
 10
-64.1550684724862
 20
250.882681105931
 30
0.0
 40
0.0
 41
0.0
  0
VERTEX
  5
   27E
  8
0
  6
CONTINUOUS
 10
-64.1800892220821
 20
250.835215950787
 30
0.0
 40
0.0
 41
0.0
  0
VERTEX
  5
   27F
  8
0
  6
CONTINUOUS
 10
-64.2027727294575
 20
250.787458071294
 30
0.0
 40
0.0
 41
0.0
  0
VERTEX
  5
   280
  8
0
  6
CONTINUOUS
 10
-64.2231053309157
 20
250.739436235013
 30
0.0
 40
0.0
 41
0.0
  0
VERTEX
  5
   281
  8
0
  6
CONTINUOUS
 10
-64.241074778858
 20
250.691179368501
 30
0.0
 40
0.0
 41
0.0
  0
VERTEX
  5
   282
  8
0
  6
CONTINUOUS
 10
-64.2566702491608
 20
250.642716539891
 30
0.0
 40
0.0
 41
0.0
  0
VERTEX
  5
   283
  8
0
  6
CONTINUOUS
 10
-64.2698823476959
 20
250.594076941378
 30
0.0
 40
0.0
 41
0.0
  0
VERTEX
  5
   284
  8
0
  6
CONTINUOUS
 10
-64.2807031159892
 20
250.545289871639
 30
0.0
 40
0.0
 41
0.0
  0
VERTEX
  5
   285
  8
0
  6
CONTINUOUS
 10
-64.2891260360146
 20
250.496384718179
 30
0.0
 40
0.0
 41
0.0
  0
VERTEX
  5
   286
  8
0
  6
CONTINUOUS
 10
-64.2951460341199
 20
250.447390939635
 30
0.0
 40
0.0
 41
0.0
  0
VERTEX
  5
   287
  8
0
  6
CONTINUOUS
 10
-64.2987594840834
 20
250.398338048025
 30
0.0
 40
0.0
 41
0.0
  0
VERTEX
  5
   288
  8
0
  6
CONTINUOUS
 10
-64.299964209298
 20
250.34925559098
 30
0.0
 40
0.0
 41
0.0
  0
SEQEND
  5
   289
  8
0
  6
CONTINUOUS
 62
   218
  0
INSERT
  5
   28A
  8
0
  6
CONTINUOUS
 62
   218
  2
*HATCH990
 10
0.0
 20
0.0
 30
0.0
  0
LINE
  5
   28B
  8
0
  6
CONTINUOUS
 62
   218
 10
-62.878366952658
 20
208.737096448576
 30
0.0
 11
-58.8228463963633
 21
231.737096448576
 31
0.0
  0
LINE
  5
   28C
  8
0
  6
CONTINUOUS
 62
   218
 10
-61.456769696018
 20
208.737096448575
 30
0.0
 11
-58.099964209298
 21
227.774486377403
 31
0.0
  0
LINE
  5
   28D
  8
0
  6
CONTINUOUS
 62
   218
 10
-60.035172439378
 20
208.737096448575
 30
0.0
 11
-58.099964209298
 21
219.712207701002
 31
0.0
  0
LINE
  5
   28E
  8
0
  6
CONTINUOUS
 62
   218
 10
-58.613575182738
 20
208.737096448575
 30
0.0
 11
-58.0999642092981
 21
211.649929024601
 31
0.0
  0
LINE
  5
   28F
  8
0
  6
CONTINUOUS
 62
   218
 10
-65.7215614659381
 20
208.737096448575
 30
0.0
 11
-61.6660409096434
 21
231.737096448576
 31
0.0
  0
LINE
  5
   290
  8
0
  6
CONTINUOUS
 62
   218
 10
-67.1431587225781
 20
208.737096448575
 30
0.0
 11
-63.0876381662835
 21
231.737096448575
 31
0.0
  0
LINE
  5
   291
  8
0
  6
CONTINUOUS
 62
   218
 10
-68.5647559792182
 20
208.737096448576
 30
0.0
 11
-64.5092354229235
 21
231.737096448576
 31
0.0
  0
LINE
  5
   292
  8
0
  6
CONTINUOUS
 62
   218
 10
-69.9863532358582
 20
208.737096448575
 30
0.0
 11
-65.9308326795636
 21
231.737096448575
 31
0.0
  0
LINE
  5
   293
  8
0
  6
CONTINUOUS
 62
   218
 10
-70.499964209298
 20
213.886542548952
 30
0.0
 11
-67.3524299362037
 21
231.737096448576
 31
0.0
  0
LINE
  5
   294
  8
0
  6
CONTINUOUS
 62
   218
 10
-70.4999642092981
 20
221.948821225353
 30
0.0
 11
-68.7740271928438
 21
231.737096448575
 31
0.0
  0
LINE
  5
   295
  8
0
  6
CONTINUOUS
 62
   218
 10
-70.499964209298
 20
230.011099901754
 30
0.0
 11
-70.1956244494838
 21
231.737096448575
 31
0.0
  0
ENDBLK
  5
   296
  8
0
  6
CONTINUOUS
 62
     7
  0
BLOCK
  5
   297
  8
0
  6
CONTINUOUS
 62
     7
  2
*UDIM1368
 70
    65
 10
0.0
 20
0.0
 30
0.0
  3
*UDIM1368
  0
TEXT
  5
   298
  8
0
  6
CONTINUOUS
 62
     7
 10
114.176019982137
 20
40.3654174865118
 30
0.0
 40
3.00000002980232
  1
18x18
 50
359.999999948034
 41
0.933333333333333
 72
     1
 11
120.876020050049
 21
41.8654174953699
 31
0.0
 73
     2
  0
LINE
  5
   299
  8
0
  6
CONTINUOUS
 62
     7
 10
114.026019287109
 20
19.0735321157119
 30
0.0
 11
114.026019287109
 21
41.3654174804688
 31
0.0
  0
LINE
  5
   29A
  8
0
  6
CONTINUOUS
 62
     7
 10
107.826019287109
 20
22.0735321157119
 30
0.0
 11
107.826019287109
 21
41.3654174804688
 31
0.0
  0
LINE
  5
   29B
  8
0
  6
CONTINUOUS
 62
     7
 10
127.576020116607
 20
39.3654174804688
 30
0.0
 11
107.826019287109
 21
39.3654174804688
 31
0.0
  0
LINE
  5
   29C
  8
0
  6
CONTINUOUS
 62
     7
 10
116.980442564316
 20
39.8863619104204
 30
0.0
 11
114.026019287109
 21
39.3654174804688
 31
0.0
  0
LINE
  5
   29D
  8
0
  6
CONTINUOUS
 62
     7
 10
114.026019287109
 20
39.3654174804688
 30
0.0
 11
116.980442564316
 21
38.8444730505171
 31
0.0
  0
LINE
  5
   29E
  8
0
  6
CONTINUOUS
 62
     7
 10
104.871596009902
 20
38.8444730505171
 30
0.0
 11
107.826019287109
 21
39.3654174804688
 31
0.0
  0
LINE
  5
   29F
  8
0
  6
CONTINUOUS
 62
     7
 10
107.826019287109
 20
39.3654174804688
 30
0.0
 11
104.871596009902
 21
39.8863619104204
 31
0.0
  0
ENDBLK
  5
   2A0
  8
0
  6
CONTINUOUS
 62
     7
  0
BLOCK
  5
   2A1
  8
0
  6
CONTINUOUS
 62
     7
  2
*UDIM1369
 70
    65
 10
0.0
 20
0.0
 30
0.0
  3
*UDIM1369
  0
TEXT
  5
   2A2
  8
0
  6
CONTINUOUS
 62
     7
 10
63.8176422071138
 20
-78.5014675568278
 30
0.0
 40
3.00000002980232
  1
13,5
 50
89.9999999480344
 41
0.933333333333333
 72
     1
 11
62.3176421970129
 21
-73.2014675028184
 31
0.0
 73
     2
  0
LINE
  5
   2A3
  8
0
  6
CONTINUOUS
 62
     7
 10
102.826018810272
 20
-64.4264678842881
 30
0.0
 11
62.8176422119141
 21
-64.4264678842881
 31
0.0
  0
LINE
  5
   2A4
  8
0
  6
CONTINUOUS
 62
     7
 10
101.662505174125
 20
-57.6764678842881
 30
0.0
 11
62.8176422119141
 21
-57.6764678842881
 31
0.0
  0
LINE
  5
   2A5
  8
0
  6
CONTINUOUS
 62
     7
 10
64.8176422119141
 20
-78.5014675554692
 30
0.0
 11
64.8176422119141
 21
-57.6764678842881
 31
0.0
  0
LINE
  5
   2A6
  8
0
  6
CONTINUOUS
 62
     7
 10
65.3385866418657
 20
-67.3808911614951
 30
0.0
 11
64.8176422119141
 21
-64.4264678842881
 31
0.0
  0
LINE
  5
   2A7
  8
0
  6
CONTINUOUS
 62
     7
 10
64.8176422119141
 20
-64.4264678842881
 30
0.0
 11
64.2966977819624
 21
-67.3808911614951
 31
0.0
  0
LINE
  5
   2A8
  8
0
  6
CONTINUOUS
 62
     7
 10
64.2966977819624
 20
-54.7220446070812
 30
0.0
 11
64.8176422119141
 21
-57.6764678842881
 31
0.0
  0
LINE
  5
   2A9
  8
0
  6
CONTINUOUS
 62
     7
 10
64.8176422119141
 20
-57.6764678842881
 30
0.0
 11
65.3385866418657
 21
-54.7220446070812
 31
0.0
  0
ENDBLK
  5
   2AA
  8
0
  6
CONTINUOUS
 62
     7
  0
BLOCK
  5
   2AB
  8
0
  6
CONTINUOUS
 62
     7
  2
*UDIM1370
 70
    65
 10
0.0
 20
0.0
 30
0.0
  3
*UDIM1370
  0
TEXT
  5
   2AC
  8
0
  6
CONTINUOUS
 62
     7
 10
98.8010192549607
 20
40.3070144675869
 30
0.0
 40
3.00000002980232
  1
25
 50
359.999999948034
 41
0.933333333333333
 72
     1
 11
101.301019281149
 21
41.8070144802332
 31
0.0
 73
     2
  0
LINE
  5
   2AD
  8
0
  6
CONTINUOUS
 62
     7
 10
107.826019287109
 20
22.0735321157119
 30
0.0
 11
107.826019287109
 21
41.307014465332
 31
0.0
  0
LINE
  5
   2AE
  8
0
  6
CONTINUOUS
 62
     7
 10
95.3260192871094
 20
25.8217214798993
 30
0.0
 11
95.3260192871094
 21
41.307014465332
 31
0.0
  0
LINE
  5
   2AF
  8
0
  6
CONTINUOUS
 62
     7
 10
107.826019287109
 20
39.307014465332
 30
0.0
 11
95.3260192871094
 21
39.307014465332
 31
0.0
  0
LINE
  5
   2B0
  8
0
  6
CONTINUOUS
 62
     7
 10
104.871596009902
 20
38.7860700353804
 30
0.0
 11
107.826019287109
 21
39.307014465332
 31
0.0
  0
LINE
  5
   2B1
  8
0
  6
CONTINUOUS
 62
     7
 10
107.826019287109
 20
39.307014465332
 30
0.0
 11
104.871596009902
 21
39.8279588952837
 31
0.0
  0
LINE
  5
   2B2
  8
0
  6
CONTINUOUS
 62
     7
 10
98.2804425643163
 20
39.8279588952837
 30
0.0
 11
95.3260192871094
 21
39.307014465332
 31
0.0
  0
LINE
  5
   2B3
  8
0
  6
CONTINUOUS
 62
     7
 10
95.3260192871094
 20
39.307014465332
 30
0.0
 11
98.2804425643163
 21
38.7860700353804
 31
0.0
  0
ENDBLK
  5
   2B4
  8
0
  6
CONTINUOUS
 62
     7
  0
BLOCK
  5
   2B5
  8
0
  6
CONTINUOUS
 62
     7
  2
*UDIM1371
 70
    65
 10
0.0
 20
0.0
 30
0.0
  3
*UDIM1371
  0
TEXT
  5
   2B6
  8
0
  6
CONTINUOUS
 62
     7
 10
65.373367303502
 20
-11.5889679581657
 30
0.0
 40
3.00000002980232
  1
73,75
 50
89.9999999480344
 41
0.933333333333333
 72
     1
 11
63.8733672946692
 21
-4.88896789024859
 31
0.0
 73
     2
  0
LINE
  5
   2B7
  8
0
  6
CONTINUOUS
 62
     7
 10
80.2436499940363
 20
-23.0514678842881
 30
0.0
 11
64.3733673095703
 21
-23.0514678842881
 31
0.0
  0
LINE
  5
   2B8
  8
0
  6
CONTINUOUS
 62
     7
 10
101.662505174125
 20
13.8235321157119
 30
0.0
 11
64.3733673095703
 21
13.8235321157119
 31
0.0
  0
LINE
  5
   2B9
  8
0
  6
CONTINUOUS
 62
     7
 10
66.3733673095703
 20
-23.0514678842881
 30
0.0
 11
66.3733673095703
 21
13.8235321157119
 31
0.0
  0
LINE
  5
   2BA
  8
0
  6
CONTINUOUS
 62
     7
 10
65.8524228796187
 20
-20.0970446070812
 30
0.0
 11
66.3733673095703
 21
-23.0514678842881
 31
0.0
  0
LINE
  5
   2BB
  8
0
  6
CONTINUOUS
 62
     7
 10
66.3733673095703
 20
-23.0514678842881
 30
0.0
 11
66.894311739522
 21
-20.0970446070812
 31
0.0
  0
LINE
  5
   2BC
  8
0
  6
CONTINUOUS
 62
     7
 10
66.894311739522
 20
10.8691088385049
 30
0.0
 11
66.3733673095703
 21
13.8235321157119
 31
0.0
  0
LINE
  5
   2BD
  8
0
  6
CONTINUOUS
 62
     7
 10
66.3733673095703
 20
13.8235321157119
 30
0.0
 11
65.8524228796187
 21
10.8691088385049
 31
0.0
  0
ENDBLK
  5
   2BE
  8
0
  6
CONTINUOUS
 62
     7
  0
BLOCK
  5
   2BF
  8
0
  6
CONTINUOUS
 62
     7
  2
*UDIM1372
 70
    65
 10
0.0
 20
0.0
 30
0.0
  3
*UDIM1372
  0
TEXT
  5
   2C0
  8
0
  6
CONTINUOUS
 62
     7
 10
152.82601441109
 20
-113.79085922142
 30
0.0
 40
3.00000002980232
  1
2
 50
359.999999948034
 41
0.933333333333334
 72
     1
 11
153.92601442337
 21
-112.290859207511
 31
0.0
 73
     2
  0
LINE
  5
   2C1
  8
0
  6
CONTINUOUS
 62
     7
 10
149.826014518738
 20
-84.2841578194753
 30
0.0
 11
149.826014518738
 21
-116.790859222412
 31
0.0
  0
LINE
  5
   2C2
  8
0
  6
CONTINUOUS
 62
     7
 10
148.826014518738
 20
-83.6850520072547
 30
0.0
 11
148.826014518738
 21
-116.790859222412
 31
0.0
  0
LINE
  5
   2C3
  8
0
  6
CONTINUOUS
 62
     7
 10
155.026014434298
 20
-114.790859222412
 30
0.0
 11
148.826014518738
 21
-114.790859222412
 31
0.0
  0
LINE
  5
   2C4
  8
0
  6
CONTINUOUS
 62
     7
 10
152.780437795945
 20
-114.26991479246
 30
0.0
 11
149.826014518738
 21
-114.790859222412
 31
0.0
  0
LINE
  5
   2C5
  8
0
  6
CONTINUOUS
 62
     7
 10
149.826014518738
 20
-114.790859222412
 30
0.0
 11
152.780437795945
 21
-115.311803652364
 31
0.0
  0
LINE
  5
   2C6
  8
0
  6
CONTINUOUS
 62
     7
 10
145.871591241531
 20
-115.311803652364
 30
0.0
 11
148.826014518738
 21
-114.790859222412
 31
0.0
  0
LINE
  5
   2C7
  8
0
  6
CONTINUOUS
 62
     7
 10
148.826014518738
 20
-114.790859222412
 30
0.0
 11
145.871591241531
 21
-114.26991479246
 31
0.0
  0
ENDBLK
  5
   2C8
  8
0
  6
CONTINUOUS
 62
     7
  0
BLOCK
  5
   2C9
  8
0
  6
CONTINUOUS
 62
     7
  2
*UDIM1373
 70
    65
 10
0.0
 20
0.0
 30
0.0
  3
*UDIM1373
  0
TEXT
  5
   2CA
  8
0
  6
CONTINUOUS
 62
     7
 10
117.901017333704
 20
-113.790859218895
 30
0.0
 40
3.00000002980232
  1
107
 50
359.999999948034
 41
0.933333333333333
 72
     1
 11
121.8010173738
 21
-112.290859207511
 31
0.0
 73
     2
  0
LINE
  5
   2CB
  8
0
  6
CONTINUOUS
 62
     7
 10
95.3260192871094
 20
-64.5264678842881
 30
0.0
 11
95.3260192871094
 21
-116.790859222412
 31
0.0
  0
LINE
  5
   2CC
  8
0
  6
CONTINUOUS
 62
     7
 10
148.826014518738
 20
-114.790859222412
 30
0.0
 11
95.3260192871094
 21
-114.790859222412
 31
0.0
  0
LINE
  5
   2CD
  8
0
  6
CONTINUOUS
 62
     7
 10
145.871591241531
 20
-115.311803652364
 30
0.0
 11
148.826014518738
 21
-114.790859222412
 31
0.0
  0
LINE
  5
   2CE
  8
0
  6
CONTINUOUS
 62
     7
 10
148.826014518738
 20
-114.790859222412
 30
0.0
 11
145.871591241531
 21
-114.26991479246
 31
0.0
  0
LINE
  5
   2CF
  8
0
  6
CONTINUOUS
 62
     7
 10
98.2804425643163
 20
-114.26991479246
 30
0.0
 11
95.3260192871094
 21
-114.790859222412
 31
0.0
  0
LINE
  5
   2D0
  8
0
  6
CONTINUOUS
 62
     7
 10
95.3260192871094
 20
-114.790859222412
 30
0.0
 11
98.2804425643163
 21
-115.311803652364
 31
0.0
  0
ENDBLK
  5
   2D1
  8
0
  6
CONTINUOUS
 62
     7
  0
BLOCK
  5
   2D2
  8
0
  6
CONTINUOUS
 62
     7
  2
*UDIM1374
 70
    65
 10
0.0
 20
0.0
 30
0.0
  3
*UDIM1374
  0
TEXT
  5
   2D3
  8
0
  6
CONTINUOUS
 62
     7
 10
124.912284056593
 20
-121.410560604393
 30
0.0
 40
3.00000002980232
  1
135
 50
359.999999948034
 41
0.933333333333333
 72
     1
 11
128.812284096689
 21
-119.910560593009
 31
0.0
 73
     2
  0
LINE
  5
   2D4
  8
0
  6
CONTINUOUS
 62
     7
 10
162.848553030911
 20
-29.1764678842881
 30
0.0
 11
162.848553030911
 21
-124.41056060791
 31
0.0
  0
LINE
  5
   2D5
  8
0
  6
CONTINUOUS
 62
     7
 10
95.3260192871094
 20
-64.5264678842881
 30
0.0
 11
95.3260192871094
 21
-124.41056060791
 31
0.0
  0
LINE
  5
   2D6
  8
0
  6
CONTINUOUS
 62
     7
 10
162.848553030911
 20
-122.41056060791
 30
0.0
 11
95.3260192871094
 21
-122.41056060791
 31
0.0
  0
LINE
  5
   2D7
  8
0
  6
CONTINUOUS
 62
     7
 10
159.894129753704
 20
-122.931505037862
 30
0.0
 11
162.848553030911
 21
-122.41056060791
 31
0.0
  0
LINE
  5
   2D8
  8
0
  6
CONTINUOUS
 62
     7
 10
162.848553030911
 20
-122.41056060791
 30
0.0
 11
159.894129753704
 21
-121.889616177959
 31
0.0
  0
LINE
  5
   2D9
  8
0
  6
CONTINUOUS
 62
     7
 10
98.2804425643163
 20
-121.889616177959
 30
0.0
 11
95.3260192871094
 21
-122.41056060791
 31
0.0
  0
LINE
  5
   2DA
  8
0
  6
CONTINUOUS
 62
     7
 10
95.3260192871094
 20
-122.41056060791
 30
0.0
 11
98.2804425643163
 21
-122.931505037862
 31
0.0
  0
ENDBLK
  5
   2DB
  8
0
  6
CONTINUOUS
 62
     7
  0
BLOCK
  5
   2DC
  8
0
  6
CONTINUOUS
 62
     7
  2
*UDIM1375
 70
    65
 10
0.0
 20
0.0
 30
0.0
  3
*UDIM1375
  0
TEXT
  5
   2DD
  8
0
  6
CONTINUOUS
 62
     7
 10
114.226343463029
 20
-106.79938125006
 30
0.0
 40
3.00000002980232
  1
103,5
 50
359.999999948034
 41
0.933333333333333
 72
     1
 11
120.92634353094
 21
-105.299381241202
 31
0.0
 73
     2
  0
LINE
  5
   2DE
  8
0
  6
CONTINUOUS
 62
     7
 10
147.076674163839
 20
-50.3014678824606
 30
0.0
 11
147.076655486463
 21
-109.799381256103
 31
0.0
  0
LINE
  5
   2DF
  8
0
  6
CONTINUOUS
 62
     7
 10
95.3260189731929
 20
-64.5264678842881
 30
0.0
 11
95.3260047612796
 21
-109.799381256103
 31
0.0
  0
LINE
  5
   2E0
  8
0
  6
CONTINUOUS
 62
     7
 10
147.076656114296
 20
-107.799381256104
 30
0.0
 11
95.3260053891125
 21
-107.799381256104
 31
0.0
  0
LINE
  5
   2E1
  8
0
  6
CONTINUOUS
 62
     7
 10
144.122232837089
 20
-108.320325686055
 30
0.0
 11
147.076656114296
 21
-107.799381256104
 31
0.0
  0
LINE
  5
   2E2
  8
0
  6
CONTINUOUS
 62
     7
 10
147.076656114296
 20
-107.799381256104
 30
0.0
 11
144.122232837089
 21
-107.278436826152
 31
0.0
  0
LINE
  5
   2E3
  8
0
  6
CONTINUOUS
 62
     7
 10
98.2804286663195
 20
-107.278436826152
 30
0.0
 11
95.3260053891125
 21
-107.799381256104
 31
0.0
  0
LINE
  5
   2E4
  8
0
  6
CONTINUOUS
 62
     7
 10
95.3260053891125
 20
-107.799381256104
 30
0.0
 11
98.2804286663195
 21
-108.320325686055
 31
0.0
  0
ENDBLK
  5
   2E5
  8
0
  6
CONTINUOUS
 62
     7
  0
BLOCK
  5
   2E6
  8
0
  6
CONTINUOUS
 62
     7
  2
*UDIM1376
 70
    65
 10
0.0
 20
0.0
 30
0.0
  3
*UDIM1376
  0
TEXT
  5
   2E7
  8
0
  6
CONTINUOUS
 62
     7
 10
88.076015295045
 20
-106.799381255111
 30
0.0
 40
3.00000002980232
  1
3
 50
359.999999948034
 41
0.933333333333334
 72
     1
 11
89.1760153073254
 21
-105.299381241202
 31
0.0
 73
     2
  0
TEXT
  5
   2E8
  8
0
  6
CONTINUOUS
 62
     7
 10
85.326015261269
 20
-106.799381255111
 30
0.0
 40
3.00000002980232
  1
_
 50
359.999999948034
 41
0.933333333333334
 72
     1
 11
86.4260152735495
 21
-105.299381241202
 31
0.0
 73
     2
  0
LINE
  5
   2E9
  8
0
  6
CONTINUOUS
 62
     7
 10
93.8260189731929
 20
-64.5264678842881
 30
0.0
 11
93.8260047612796
 21
-109.799381256103
 31
0.0
  0
LINE
  5
   2EA
  8
0
  6
CONTINUOUS
 62
     7
 10
95.3260053891125
 20
-107.799381256104
 30
0.0
 11
85.326015262622
 21
-107.799381256104
 31
0.0
  0
LINE
  5
   2EB
  8
0
  6
CONTINUOUS
 62
     7
 10
98.2804286663195
 20
-107.278436826152
 30
0.0
 11
95.3260053891125
 21
-107.799381256104
 31
0.0
  0
LINE
  5
   2EC
  8
0
  6
CONTINUOUS
 62
     7
 10
95.3260053891125
 20
-107.799381256104
 30
0.0
 11
98.2804286663195
 21
-108.320325686055
 31
0.0
  0
LINE
  5
   2ED
  8
0
  6
CONTINUOUS
 62
     7
 10
90.8715821119056
 20
-108.320325686055
 30
0.0
 11
93.8260053891125
 21
-107.799381256104
 31
0.0
  0
LINE
  5
   2EE
  8
0
  6
CONTINUOUS
 62
     7
 10
93.8260053891125
 20
-107.799381256104
 30
0.0
 11
90.8715821119056
 21
-107.278436826152
 31
0.0
  0
ENDBLK
  5
   2EF
  8
0
  6
CONTINUOUS
 62
     7
  0
BLOCK
  5
   2F0
  8
0
  6
CONTINUOUS
 62
     7
  2
*UDIM1377
 70
    65
 10
0.0
 20
0.0
 30
0.0
  3
*UDIM1377
  0
TEXT
  5
   2F1
  8
0
  6
CONTINUOUS
 62
     7
 10
57.7188949549638
 20
-26.1014679303502
 30
0.0
 40
3.00000002980232
  1
143
 50
89.9999999480344
 41
0.933333333333333
 72
     1
 11
56.2188949435949
 21
-22.2014678902486
 31
0.0
 73
     2
  0
LINE
  5
   2F2
  8
0
  6
CONTINUOUS
 62
     7
 10
101.662505174125
 20
-57.6764678842881
 30
0.0
 11
56.7188949584961
 21
-57.6764678842881
 31
0.0
  0
LINE
  5
   2F3
  8
0
  6
CONTINUOUS
 62
     7
 10
101.662505174125
 20
13.8235321157119
 30
0.0
 11
56.7188949584961
 21
13.8235321157119
 31
0.0
  0
LINE
  5
   2F4
  8
0
  6
CONTINUOUS
 62
     7
 10
58.7188949584961
 20
-57.6764678842881
 30
0.0
 11
58.7188949584961
 21
13.8235321157119
 31
0.0
  0
LINE
  5
   2F5
  8
0
  6
CONTINUOUS
 62
     7
 10
58.1979505285444
 20
-54.7220446070812
 30
0.0
 11
58.7188949584961
 21
-57.6764678842881
 31
0.0
  0
LINE
  5
   2F6
  8
0
  6
CONTINUOUS
 62
     7
 10
58.7188949584961
 20
-57.6764678842881
 30
0.0
 11
59.2398393884478
 21
-54.7220446070812
 31
0.0
  0
LINE
  5
   2F7
  8
0
  6
CONTINUOUS
 62
     7
 10
59.2398393884478
 20
10.8691088385049
 30
0.0
 11
58.7188949584961
 21
13.8235321157119
 31
0.0
  0
LINE
  5
   2F8
  8
0
  6
CONTINUOUS
 62
     7
 10
58.7188949584961
 20
13.8235321157119
 30
0.0
 11
58.1979505285444
 21
10.8691088385049
 31
0.0
  0
ENDBLK
  5
   2F9
  8
0
  6
CONTINUOUS
 62
     7
  0
BLOCK
  5
   2FA
  8
0
  6
CONTINUOUS
 62
     7
  2
*UDIM1378
 70
    65
 10
0.0
 20
0.0
 30
0.0
  3
*UDIM1378
  0
TEXT
  5
   2FB
  8
0
  6
CONTINUOUS
 62
     7
 10
172.497556682869
 20
-26.3535278960859
 30
0.0
 40
3.00000002980232
  1
105
 50
89.9999999480344
 41
0.933333333333333
 72
     1
 11
170.9975566715
 21
-22.4535278559843
 31
0.0
 73
     2
  0
LINE
  5
   2FC
  8
0
  6
CONTINUOUS
 62
     7
 10
149.826014518738
 20
-49.3014678831081
 30
0.0
 11
175.497556686401
 21
-49.3014678831081
 31
0.0
  0
LINE
  5
   2FD
  8
0
  6
CONTINUOUS
 62
     7
 10
149.826014518738
 20
3.19853211571187
 30
0.0
 11
175.497556686401
 21
3.19853211571187
 31
0.0
  0
LINE
  5
   2FE
  8
0
  6
CONTINUOUS
 62
     7
 10
173.497556686401
 20
-49.3014678831081
 30
0.0
 11
173.497556686401
 21
3.19853211571187
 31
0.0
  0
LINE
  5
   2FF
  8
0
  6
CONTINUOUS
 62
     7
 10
172.97661225645
 20
-46.3470446059012
 30
0.0
 11
173.497556686401
 21
-49.3014678831081
 31
0.0
  0
LINE
  5
   300
  8
0
  6
CONTINUOUS
 62
     7
 10
173.497556686401
 20
-49.3014678831081
 30
0.0
 11
174.018501116353
 21
-46.3470446059012
 31
0.0
  0
LINE
  5
   301
  8
0
  6
CONTINUOUS
 62
     7
 10
174.018501116353
 20
0.2441088385049
 30
0.0
 11
173.497556686401
 21
3.19853211571187
 31
0.0
  0
LINE
  5
   302
  8
0
  6
CONTINUOUS
 62
     7
 10
173.497556686401
 20
3.19853211571187
 30
0.0
 11
172.97661225645
 21
0.2441088385049
 31
0.0
  0
ENDBLK
  5
   303
  8
0
  6
CONTINUOUS
 62
     7
  0
BLOCK
  5
   304
  8
0
  6
CONTINUOUS
 62
     7
  2
*UDIM1379
 70
    65
 10
0.0
 20
0.0
 30
0.0
  3
*UDIM1379
  0
TEXT
  5
   305
  8
0
  6
CONTINUOUS
 62
     7
 10
113.72601921459
 20
47.0738906920782
 30
0.0
 40
3.00000002980232
  1
101,5
 50
359.999999948034
 41
0.933333333333333
 72
     1
 11
120.426019282502
 21
48.5738907009363
 31
0.0
 73
     2
  0
LINE
  5
   306
  8
0
  6
CONTINUOUS
 62
     7
 10
146.076019168587
 20
9.4485321157118
 30
0.0
 11
146.076032985587
 21
48.073890686035
 31
0.0
  0
LINE
  5
   307
  8
0
  6
CONTINUOUS
 62
     7
 10
95.3260209060198
 20
25.821721479898
 30
0.0
 11
95.3260569302882
 21
48.0738906860325
 31
0.0
  0
LINE
  5
   308
  8
0
  6
CONTINUOUS
 62
     7
 10
146.07603227015
 20
46.0738906860352
 30
0.0
 11
95.3260536924674
 21
46.0738906860352
 31
0.0
  0
LINE
  5
   309
  8
0
  6
CONTINUOUS
 62
     7
 10
143.121608992943
 20
45.5529462560835
 30
0.0
 11
146.07603227015
 21
46.0738906860352
 31
0.0
  0
LINE
  5
   30A
  8
0
  6
CONTINUOUS
 62
     7
 10
146.07603227015
 20
46.0738906860352
 30
0.0
 11
143.121608992943
 21
46.5948351159868
 31
0.0
  0
LINE
  5
   30B
  8
0
  6
CONTINUOUS
 62
     7
 10
98.2804769696744
 20
46.5948351159868
 30
0.0
 11
95.3260536924674
 21
46.0738906860352
 31
0.0
  0
LINE
  5
   30C
  8
0
  6
CONTINUOUS
 62
     7
 10
95.3260536924674
 20
46.0738906860352
 30
0.0
 11
98.2804769696744
 21
45.5529462560835
 31
0.0
  0
ENDBLK
  5
   30D
  8
0
  6
CONTINUOUS
 62
     7
  0
BLOCK
  5
   30E
  8
0
  6
CONTINUOUS
 62
     7
  2
*UDIM1380
 70
    65
 10
0.0
 20
0.0
 30
0.0
  3
*UDIM1380
  0
TEXT
  5
   30F
  8
0
  6
CONTINUOUS
 62
     7
 10
160.18848418963
 20
8.70088345550152
 30
0.0
 40
3.00000002980232
  1
10
 50
89.9999999480344
 41
0.933333333333333
 72
     1
 11
158.688484176993
 21
11.2008834816954
 31
0.0
 73
     2
  0
LINE
  5
   310
  8
0
  6
CONTINUOUS
 62
     7
 10
114.775665528309
 20
8.82353211571187
 30
0.0
 11
163.188484191895
 21
8.82353211571187
 31
0.0
  0
LINE
  5
   311
  8
0
  6
CONTINUOUS
 62
     7
 10
111.992328738423
 20
13.8235321157119
 30
0.0
 11
163.188484191895
 21
13.8235321157119
 31
0.0
  0
LINE
  5
   312
  8
0
  6
CONTINUOUS
 62
     7
 10
161.188484191895
 20
8.70088345686008
 30
0.0
 11
161.188484191895
 21
13.8235321157119
 31
0.0
  0
LINE
  5
   313
  8
0
  6
CONTINUOUS
 62
     7
 10
161.709428621846
 20
5.8691088385049
 30
0.0
 11
161.188484191895
 21
8.82353211571187
 31
0.0
  0
LINE
  5
   314
  8
0
  6
CONTINUOUS
 62
     7
 10
161.188484191895
 20
8.82353211571187
 30
0.0
 11
160.667539761943
 21
5.8691088385049
 31
0.0
  0
LINE
  5
   315
  8
0
  6
CONTINUOUS
 62
     7
 10
160.667539761943
 20
16.7779553929188
 30
0.0
 11
161.188484191895
 21
13.8235321157119
 31
0.0
  0
LINE
  5
   316
  8
0
  6
CONTINUOUS
 62
     7
 10
161.188484191895
 20
13.8235321157119
 30
0.0
 11
161.709428621846
 21
16.7779553929188
 31
0.0
  0
ENDBLK
  5
   317
  8
0
  6
CONTINUOUS
 62
     7
  0
BLOCK
  5
   318
  8
0
  6
CONTINUOUS
 62
     7
  2
*UDIM1381
 70
    65
 10
0.0
 20
0.0
 30
0.0
  3
*UDIM1381
  0
TEXT
  5
   319
  8
0
  6
CONTINUOUS
 62
     7
 10
73.6942443825013
 20
-80.3914020638401
 30
0.0
 40
3.00000002980232
  1
16
 50
89.9999999480344
 41
0.933333333333333
 72
     1
 11
72.1942443698645
 21
-77.8914020376463
 31
0.0
 73
     2
  0
TEXT
  5
   31A
  8
0
  6
CONTINUOUS
 62
     7
 10
73.6942443837694
 20
-83.5414020737742
 30
0.0
 40
3.00000002980232
  1
Ø
 50
89.9999999480344
 41
0.933333333333334
 72
     1
 11
72.1942443698645
 21
-82.4414020614881
 31
0.0
 73
     2
  0
LINE
  5
   31B
  8
0
  6
CONTINUOUS
 62
     7
 10
104.326018810272
 20
-72.4264678842881
 30
0.0
 11
72.6942443847656
 21
-72.4264678842881
 31
0.0
  0
LINE
  5
   31C
  8
0
  6
CONTINUOUS
 62
     7
 10
102.826018810272
 20
-64.4264678842881
 30
0.0
 11
72.6942443847656
 21
-64.4264678842881
 31
0.0
  0
LINE
  5
   31D
  8
0
  6
CONTINUOUS
 62
     7
 10
74.6942443847656
 20
-83.5414020724157
 30
0.0
 11
74.6942443847656
 21
-64.4264678842881
 31
0.0
  0
LINE
  5
   31E
  8
0
  6
CONTINUOUS
 62
     7
 10
74.173299954814
 20
-69.4720446070812
 30
0.0
 11
74.6942443847656
 21
-72.4264678842881
 31
0.0
  0
LINE
  5
   31F
  8
0
  6
CONTINUOUS
 62
     7
 10
74.6942443847656
 20
-72.4264678842881
 30
0.0
 11
75.2151888147173
 21
-69.4720446070812
 31
0.0
  0
LINE
  5
   320
  8
0
  6
CONTINUOUS
 62
     7
 10
75.2151888147173
 20
-67.3808911614951
 30
0.0
 11
74.6942443847656
 21
-64.4264678842881
 31
0.0
  0
LINE
  5
   321
  8
0
  6
CONTINUOUS
 62
     7
 10
74.6942443847656
 20
-64.4264678842881
 30
0.0
 11
74.173299954814
 21
-67.3808911614951
 31
0.0
  0
ENDBLK
  5
   322
  8
0
  6
CONTINUOUS
 62
     7
  0
BLOCK
  5
   323
  8
0
  6
CONTINUOUS
 62
     7
  2
*UDIM1382
 70
    65
 10
0.0
 20
0.0
 30
0.0
  3
*UDIM1382
  0
TEXT
  5
   324
  8
0
  6
CONTINUOUS
 62
     7
 10
68.4977820293493
 20
-162.462245536303
 30
0.0
 40
3.00000002980232
  1
15
 50
336.280792400926
 41
0.933333333333333
 72
     1
 11
71.3899836200278
 21
-162.094590633226
 31
0.0
 73
     2
  0
TEXT
  5
   325
  8
0
  6
CONTINUOUS
 62
     7
 10
65.9800805602869
 20
-161.356045057887
 30
0.0
 40
3.00000002980232
  1
R
 50
336.280792400926
 41
0.933333333333334
 72
     1
 11
67.590543225808
 21
-160.425233545438
 31
0.0
 73
     2
  0
LINE
  5
   326
  8
0
  6
CONTINUOUS
 62
     7
 10
72.6731663367455
 20
-165.389046933467
 30
0.0
 11
46.9633280497584
 21
-154.092935844174
 31
0.0
  0
LINE
  5
   327
  8
0
  6
CONTINUOUS
 62
     7
 10
57.7818359967229
 20
-159.415264985186
 30
0.0
 11
60.6962449795076
 21
-160.126756574077
 31
0.0
  0
LINE
  5
   328
  8
0
  6
CONTINUOUS
 62
     7
 10
60.6962449795076
 20
-160.126756574077
 30
0.0
 11
58.2009407034656
 21
-158.461386774313
 31
0.0
  0
ENDBLK
  5
   329
  8
0
  6
CONTINUOUS
 62
     7
  0
BLOCK
  5
   32A
  8
0
  6
CONTINUOUS
 62
     7
  2
*UDIM1383
 70
    65
 10
0.0
 20
0.0
 30
0.0
  3
*UDIM1383
  0
TEXT
  5
   32B
  8
0
  6
CONTINUOUS
 62
     7
 10
50.464623997379
 20
-170.580207820185
 30
0.0
 40
3.00000002980232
  1
35
 50
359.999999896069
 41
0.933333333333333
 72
     1
 11
52.9646240249276
 21
-169.080207809806
 31
0.0
 73
     2
  0
LINE
  5
   32C
  8
0
  6
CONTINUOUS
 62
     7
 10
57.2630157470703
 20
-164.118301391602
 30
0.0
 11
57.2630157470703
 21
-173.580207824707
 31
0.0
  0
LINE
  5
   32D
  8
0
  6
CONTINUOUS
 62
     7
 10
48.5130157470703
 20
-164.118301391602
 30
0.0
 11
48.5130157470703
 21
-173.580207824707
 31
0.0
  0
LINE
  5
   32E
  8
0
  6
CONTINUOUS
 62
     7
 10
57.2630157470703
 20
-171.580207824707
 30
0.0
 11
48.5130157470703
 21
-171.580207824707
 31
0.0
  0
LINE
  5
   32F
  8
0
  6
CONTINUOUS
 62
     7
 10
60.2174390242773
 20
-171.059263394755
 30
0.0
 11
57.2630157470703
 21
-171.580207824707
 31
0.0
  0
LINE
  5
   330
  8
0
  6
CONTINUOUS
 62
     7
 10
57.2630157470703
 20
-171.580207824707
 30
0.0
 11
60.2174390242773
 21
-172.101152254659
 31
0.0
  0
LINE
  5
   331
  8
0
  6
CONTINUOUS
 62
     7
 10
45.5585924698634
 20
-172.101152254659
 30
0.0
 11
48.5130157470703
 21
-171.580207824707
 31
0.0
  0
LINE
  5
   332
  8
0
  6
CONTINUOUS
 62
     7
 10
48.5130157470703
 20
-171.580207824707
 30
0.0
 11
45.5585924698634
 21
-171.059263394755
 31
0.0
  0
ENDBLK
  5
   333
  8
0
  6
CONTINUOUS
 62
     7
  0
BLOCK
  5
   334
  8
0
  6
CONTINUOUS
 62
     7
  2
*UDIM1384
 70
    65
 10
0.0
 20
0.0
 30
0.0
  3
*UDIM1384
  0
TEXT
  5
   335
  8
0
  6
CONTINUOUS
 62
     7
 10
41.3935762070304
 20
-170.580207820185
 30
0.0
 40
3.00000002980232
  1
35
 50
359.999999896069
 41
0.933333333333333
 72
     1
 11
43.8935762345791
 21
-169.080207809806
 31
0.0
 73
     2
  0
LINE
  5
   336
  8
0
  6
CONTINUOUS
 62
     7
 10
39.7630157470703
 20
-164.118301391602
 30
0.0
 11
39.7630157470703
 21
-173.580207824707
 31
0.0
  0
LINE
  5
   337
  8
0
  6
CONTINUOUS
 62
     7
 10
48.5130157470703
 20
-171.580207824707
 30
0.0
 11
39.7630157470703
 21
-171.580207824707
 31
0.0
  0
LINE
  5
   338
  8
0
  6
CONTINUOUS
 62
     7
 10
51.4674390242773
 20
-171.059263394755
 30
0.0
 11
48.5130157470703
 21
-171.580207824707
 31
0.0
  0
LINE
  5
   339
  8
0
  6
CONTINUOUS
 62
     7
 10
48.5130157470703
 20
-171.580207824707
 30
0.0
 11
51.4674390242773
 21
-172.101152254659
 31
0.0
  0
LINE
  5
   33A
  8
0
  6
CONTINUOUS
 62
     7
 10
36.8085924698634
 20
-172.101152254659
 30
0.0
 11
39.7630157470703
 21
-171.580207824707
 31
0.0
  0
LINE
  5
   33B
  8
0
  6
CONTINUOUS
 62
     7
 10
39.7630157470703
 20
-171.580207824707
 30
0.0
 11
36.8085924698634
 21
-171.059263394755
 31
0.0
  0
ENDBLK
  5
   33C
  8
0
  6
CONTINUOUS
 62
     7
  0
BLOCK
  5
   33D
  8
0
  6
CONTINUOUS
 62
     7
  2
*UDIM1385
 70
    65
 10
0.0
 20
0.0
 30
0.0
  3
*UDIM1385
  0
TEXT
  5
   33E
  8
0
  6
CONTINUOUS
 62
     7
 10
25.6200542379452
 20
-139.668303346365
 30
0.0
 40
3.00000002980232
  1
185
 50
449.999999896069
 41
0.933333333333333
 72
     1
 11
24.120054230094
 21
-135.768303304911
 31
0.0
 73
     2
  0
LINE
  5
   33F
  8
0
  6
CONTINUOUS
 62
     7
 10
34.2630157470703
 20
-112.368301391602
 30
0.0
 11
24.6200542449951
 21
-112.368301391602
 31
0.0
  0
LINE
  5
   340
  8
0
  6
CONTINUOUS
 62
     7
 10
43.0130157470703
 20
-158.618301391602
 30
0.0
 11
24.6200542449951
 21
-158.618301391602
 31
0.0
  0
LINE
  5
   341
  8
0
  6
CONTINUOUS
 62
     7
 10
26.6200542449951
 20
-112.368301391602
 30
0.0
 11
26.6200542449951
 21
-158.618301391602
 31
0.0
  0
LINE
  5
   342
  8
0
  6
CONTINUOUS
 62
     7
 10
27.1409986749468
 20
-115.322724668809
 30
0.0
 11
26.6200542449951
 21
-112.368301391602
 31
0.0
  0
LINE
  5
   343
  8
0
  6
CONTINUOUS
 62
     7
 10
26.6200542449951
 20
-112.368301391602
 30
0.0
 11
26.0991098150435
 21
-115.322724668809
 31
0.0
  0
LINE
  5
   344
  8
0
  6
CONTINUOUS
 62
     7
 10
26.0991098150435
 20
-155.663878114395
 30
0.0
 11
26.6200542449951
 21
-158.618301391602
 31
0.0
  0
LINE
  5
   345
  8
0
  6
CONTINUOUS
 62
     7
 10
26.6200542449951
 20
-158.618301391602
 30
0.0
 11
27.1409986749468
 21
-155.663878114395
 31
0.0
  0
ENDBLK
  5
   346
  8
0
  6
CONTINUOUS
 62
     7
  0
BLOCK
  5
   347
  8
0
  6
CONTINUOUS
 62
     7
  2
*UDIM1386
 70
    65
 10
0.0
 20
0.0
 30
0.0
  3
*UDIM1386
  0
TEXT
  5
   348
  8
0
  6
CONTINUOUS
 62
     7
 10
70.6002654908184
 20
-131.187051466832
 30
0.0
 40
3.00000002980232
  1
94,75
 50
449.999999896069
 41
0.933333333333333
 72
     1
 11
69.1002654880285
 21
-124.487051397562
 31
0.0
 73
     2
  0
LINE
  5
   349
  8
0
  6
CONTINUOUS
 62
     7
 10
62.7630157470703
 20
-112.368301391602
 30
0.0
 11
73.6002655029297
 21
-112.368301391602
 31
0.0
  0
LINE
  5
   34A
  8
0
  6
CONTINUOUS
 62
     7
 10
70.4907192636131
 20
-136.055801391602
 30
0.0
 11
73.6002655029297
 21
-136.055801391602
 31
0.0
  0
LINE
  5
   34B
  8
0
  6
CONTINUOUS
 62
     7
 10
71.6002655029297
 20
-112.368301391602
 30
0.0
 11
71.6002655029297
 21
-136.055801391602
 31
0.0
  0
LINE
  5
   34C
  8
0
  6
CONTINUOUS
 62
     7
 10
72.1212099328814
 20
-115.322724668809
 30
0.0
 11
71.6002655029297
 21
-112.368301391602
 31
0.0
  0
LINE
  5
   34D
  8
0
  6
CONTINUOUS
 62
     7
 10
71.6002655029297
 20
-112.368301391602
 30
0.0
 11
71.079321072978
 21
-115.322724668809
 31
0.0
  0
LINE
  5
   34E
  8
0
  6
CONTINUOUS
 62
     7
 10
71.079321072978
 20
-133.101378114395
 30
0.0
 11
71.6002655029297
 21
-136.055801391602
 31
0.0
  0
LINE
  5
   34F
  8
0
  6
CONTINUOUS
 62
     7
 10
71.6002655029297
 20
-136.055801391602
 30
0.0
 11
72.1212099328814
 21
-133.101378114395
 31
0.0
  0
ENDBLK
  5
   350
  8
0
  6
CONTINUOUS
 62
     7
  0
ENDSEC
  0
SECTION
  2
ENTITIES
  0
LINE
  5
   351
  8
0
  6
CONTINUOUS
 62
     7
 10
15.5792604616275
 20
19.1735239316288
 30
0.0
 11
14.3292604616275
 21
19.1735239316288
 31
0.0
  0
LINE
  5
   352
  8
0
  6
CONTINUOUS
 62
     7
 10
14.3292604616275
 20
19.1735239316288
 30
0.0
 11
14.3292604616275
 21
20.0735254575077
 31
0.0
  0
LINE
  5
   353
  8
0
  6
CONTINUOUS
 62
     7
 10
-20.2957424258571
 20
20.5735254575077
 30
0.0
 11
-35.1707395383725
 21
20.5735254575077
 31
0.0
  0
LINE
  5
   354
  8
0
  6
CONTINUOUS
 62
     7
 10
-2.79570731169177
 20
20.5735254575077
 30
0.0
 11
-18.5457424258571
 21
20.5735254575077
 31
0.0
  0
LINE
  5
   355
  8
0
  6
CONTINUOUS
 62
     7
 10
13.8292604616275
 20
20.5735254575077
 30
0.0
 11
-1.04570731169177
 21
20.5735254575077
 31
0.0
  0
LINE
  5
   356
  8
0
  6
CONTINUOUS
 62
     7
 10
-35.6707395383725
 20
19.1735239316288
 30
0.0
 11
-35.6707395383725
 21
20.0735254575077
 31
0.0
  0
LINE
  5
   357
  8
0
  6
CONTINUOUS
 62
     7
 10
-35.6707395383725
 20
19.1735239316288
 30
0.0
 11
-36.9207395383725
 21
19.1735239316288
 31
0.0
  0
LINE
  5
   358
  8
0
  6
CONTINUOUS
 62
     7
 10
-36.9207451604413
 20
17.1985292722031
 30
0.0
 11
-36.9207451604413
 21
19.1735239316289
 31
0.0
  0
LINE
  5
   359
  8
0
  6
CONTINUOUS
 62
     7
 10
-35.6707395383725
 20
-63.9264745424923
 30
0.0
 11
-35.6707395383725
 21
-63.3014688204483
 31
0.0
  0
LINE
  5
   35A
  8
0
  6
CONTINUOUS
 62
     7
 10
-24.9307268323521
 20
-64.4264745424924
 30
0.0
 11
-35.1707395383725
 21
-64.4264745424924
 31
0.0
  0
LINE
  5
   35B
  8
0
  6
CONTINUOUS
 62
     7
 10
-18.1707424258571
 20
17.3235254575077
 30
0.0
 11
-20.6707424258571
 21
17.3235254575077
 31
0.0
  0
LINE
  5
   35C
  8
0
  6
CONTINUOUS
 62
     7
 10
14.3292604616275
 20
17.1985292722031
 30
0.0
 11
14.3292604616275
 21
19.1735239316288
 31
0.0
  0
LINE
  5
   35D
  8
0
  6
CONTINUOUS
 62
     7
 10
-35.6707425022084
 20
17.1985292722031
 30
0.0
 11
-35.6707425022084
 21
19.1735239316289
 31
0.0
  0
LINE
  5
   35E
  8
0
  6
CONTINUOUS
 62
     7
 10
15.5792604616275
 20
17.1985292722031
 30
0.0
 11
15.5792604616275
 21
19.1735239316288
 31
0.0
  0
CIRCLE
  5
   35F
  8
0
  6
DOT
 62
     7
 10
-28.1707398439623
 20
14.3235209067235
 30
0.0
 40
2.75000069115123
  0
CIRCLE
  5
   360
  8
0
  6
DOT
 62
     7
 10
-19.4207424258571
 20
12.8235273726934
 30
0.0
 40
2.24999656892357
  0
CIRCLE
  5
   361
  8
0
  6
DOT
 62
     7
 10
-10.6707248687744
 20
14.3235198002671
 30
0.0
 40
2.75001556139296
  0
ARC
  5
   362
  8
0
  6
CONTINUOUS
 62
     7
 10
-1.92074074803933
 20
8.82352738813496
 30
0.0
 40
1.87500337338897
 50
180.000125709671
 51
187.662301267597
  0
CIRCLE
  5
   363
  8
0
  6
DOT
 62
     7
 10
-1.92073785938619
 20
12.8235288863284
 30
0.0
 40
2.24999987091582
  0
CIRCLE
  5
   364
  8
0
  6
DOT
 62
     7
 10
6.82926366218924
 20
14.3235415649216
 30
0.0
 40
2.74998599955911
  0
ARC
  5
   365
  8
0
  6
CONTINUOUS
 62
     7
 10
13.8292631734491
 20
20.0735287201269
 30
0.0
 40
0.499997602395233
 50
359.999798760808
 51
450.000230889021
  0
ARC
  5
   366
  8
0
  6
CONTINUOUS
 62
     7
 10
-35.1707382629043
 20
20.0735260236727
 30
0.0
 40
0.500001995564727
 50
90.0000472185487
 51
180.000478784316
  0
ARC
  5
   367
  8
0
  6
CONTINUOUS
 62
     7
 10
-35.1707394177381
 20
-63.9264744906503
 30
0.0
 40
0.500000053060852
 50
180.000006024791
 51
269.999989483217
  0
LINE
  5
   368
  8
0
  6
DASHDOT
 62
     7
 10
-28.1707422311521
 20
16.3735278513522
 30
0.0
 11
-28.1707422311521
 21
20.7735323803995
 31
0.0
  0
LINE
  5
   369
  8
0
  6
DASHDOT
 62
     7
 10
-23.9207391528111
 20
14.3235209067236
 30
0.0
 11
-32.4207405351135
 21
14.3235209067236
 31
0.0
  0
LINE
  5
   36A
  8
0
  6
DASHDOT
 62
     7
 10
-6.42070930738147
 20
14.3235198002671
 30
0.0
 11
-14.9207404301674
 21
14.3235198002671
 31
0.0
  0
LINE
  5
   36B
  8
0
  6
DASHDOT
 62
     7
 10
-19.4207424258571
 20
9.07353080376984
 30
0.0
 11
-19.4207424258571
 21
21.7553338927978
 31
0.0
  0
LINE
  5
   36C
  8
0
  6
DASHDOT
 62
     7
 10
-15.6707458569335
 20
12.8235273726934
 30
0.0
 11
-23.1707389947806
 21
12.8235273726934
 31
0.0
  0
LINE
  5
   36D
  8
0
  6
DASHDOT
 62
     7
 10
6.82926640092217
 20
16.3735356812333
 30
0.0
 11
6.82926640092217
 21
20.7735264426541
 31
0.0
  0
LINE
  5
   36E
  8
0
  6
DASHDOT
 62
     7
 10
11.0792496617483
 20
14.3235415649216
 30
0.0
 11
2.57927766263011
 21
14.3235415649216
 31
0.0
  0
LINE
  5
   36F
  8
0
  6
DASHDOT
 62
     7
 10
-28.1707315025919
 20
-62.4264712841229
 30
0.0
 11
-28.1707315025919
 21
19.1565948098147
 31
0.0
  0
LINE
  5
   370
  8
0
  6
DASHDOT
 62
     7
 10
6.82929670107416
 20
-62.4266010563507
 30
0.0
 11
6.82929670107416
 21
20.0478937753661
 31
0.0
  0
LINE
  5
   371
  8
0
  6
DASHDOT
 62
     7
 10
6.82927025556742
 20
-64.6264688643959
 30
0.0
 11
6.82927025556742
 21
-60.2264763421588
 31
0.0
  0
LINE
  5
   372
  8
0
  6
DASHDOT
 62
     7
 10
-28.1707331994701
 20
-64.6264743901517
 30
0.0
 11
-28.1707331994701
 21
-60.2264741885251
 31
0.0
  0
ARC
  5
   373
  8
0
  6
CONTINUOUS
 62
     7
 10
-19.4207445436688
 20
8.82353653693634
 30
0.0
 40
1.87501184484833
 50
352.337451371484
 51
359.999970304232
  0
LINE
  5
   374
  8
0
  6
CONTINUOUS
 62
     3
 10
15.3292675018311
 20
3.19852927220306
 30
0.0
 11
-36.6707248687744
 21
3.19852927220306
 31
0.0
  0
LINE
  5
   375
  8
0
  6
CONTINUOUS
 62
     3
 10
15.3292675018311
 20
-49.3014630984021
 30
0.0
 11
8.57926753163338
 21
-49.3014630984021
 31
0.0
  0
LINE
  5
   376
  8
0
  6
CONTINUOUS
 62
     3
 10
2.82926750183106
 20
-49.3014630984026
 30
0.0
 11
-9.44608544653447
 21
-49.3014630984026
 31
0.0
  0
LINE
  5
   377
  8
0
  6
CONTINUOUS
 62
     3
 10
-29.9207248687744
 20
-49.3014630984159
 30
0.0
 11
-36.6707248687744
 21
-49.3014630984159
 31
0.0
  0
LINE
  5
   378
  8
0
  6
CONTINUOUS
 62
     3
 10
-24.1707248687744
 20
-49.3014630984039
 30
0.0
 11
-29.9207248687744
 21
-49.3014630984039
 31
0.0
  0
LINE
  5
   379
  8
0
  6
CONTINUOUS
 62
     3
 10
8.57926750183106
 20
-49.3014630984021
 30
0.0
 11
2.82926750183106
 21
-49.3014630984021
 31
0.0
  0
LINE
  5
   37A
  8
0
  6
DASHDOT
 62
     7
 10
-10.6707248687744
 20
-58.362061508
 30
0.0
 11
-10.6707248687744
 21
-6.71442692317966
 31
0.0
  0
ARC
  5
   37B
  8
0
  6
CONTINUOUS
 62
     3
 10
-36.6707248687744
 20
-49.0514630984159
 30
0.0
 40
0.25
 50
179.999999948034
 51
269.999999948034
  0
ARC
  5
   37C
  8
0
  6
CONTINUOUS
 62
     3
 10
-36.6707248687744
 20
2.94852927220306
 30
0.0
 40
0.25
 50
449.999999948034
 51
539.999999948034
  0
ARC
  5
   37D
  8
0
  6
CONTINUOUS
 62
     3
 10
15.3292675018311
 20
2.94852927220306
 30
0.0
 40
0.25
 50
359.999999948034
 51
449.999999948034
  0
ARC
  5
   37E
  8
0
  6
CONTINUOUS
 62
     3
 10
15.3292675018311
 20
-49.0514630984021
 30
0.0
 40
0.25
 50
269.999999948034
 51
359.999999948034
  0
LINE
  5
   37F
  8
0
  6
DASHDOT
 62
     7
 10
-10.6707248687744
 20
-3.82480969226158
 30
0.0
 11
-10.6707248687744
 21
10.630315342618
 31
0.0
  0
LINE
  5
   380
  8
0
  6
CONTINUOUS
 62
     3
 10
-11.895449994682
 20
-49.3014630984026
 30
0.0
 11
-24.1707248687744
 21
-49.3014630984026
 31
0.0
  0
LINE
  5
   381
  8
0
  6
CONTINUOUS
 62
     7
 10
-24.4207324981689
 20
-49.3014707277969
 30
0.0
 11
-29.4207248687744
 21
-49.3014707277969
 31
0.0
  0
LINE
  5
   382
  8
0
  6
CONTINUOUS
 62
     7
 10
8.07925987243653
 20
-49.3014707277969
 30
0.0
 11
3.07925987243653
 21
-49.3014707277969
 31
0.0
  0
LINE
  5
   383
  8
0
  6
CONTINUOUS
 62
     7
 10
15.5792751312256
 20
-49.0514707277969
 30
0.0
 11
15.5792751312256
 21
-40.0514783571915
 31
0.0
  0
LINE
  5
   384
  8
0
  6
CONTINUOUS
 62
     7
 10
-36.9207248687744
 20
-49.0514707277969
 30
0.0
 11
-36.9207248687744
 21
-40.0514783571915
 31
0.0
  0
LINE
  5
   385
  8
0
  6
CONTINUOUS
 62
     7
 10
15.3292751312256
 20
3.19852927220306
 30
0.0
 11
-36.6707248687605
 21
3.19852927220306
 31
0.0
  0
LINE
  5
   386
  8
0
  6
CONTINUOUS
 62
     7
 10
-29.4207248687744
 20
-49.3014707277969
 30
0.0
 11
-36.6707248687744
 21
-49.3014707277969
 31
0.0
  0
LINE
  5
   387
  8
0
  6
CONTINUOUS
 62
     7
 10
3.07925987243653
 20
-49.3014707277969
 30
0.0
 11
-24.4207324981689
 21
-49.3014707277969
 31
0.0
  0
LINE
  5
   388
  8
0
  6
CONTINUOUS
 62
     7
 10
15.3292751312256
 20
-49.3014707277969
 30
0.0
 11
8.07925987243653
 21
-49.3014707277969
 31
0.0
  0
LINE
  5
   389
  8
0
  6
CONTINUOUS
 62
     7
 10
-5.29572486877441
 20
-38.1764783571915
 30
0.0
 11
-5.29572486877441
 21
-18.176485986586
 31
0.0
  0
LINE
  5
   38A
  8
0
  6
CONTINUOUS
 62
     7
 10
-16.0457248687744
 20
-38.1764783571915
 30
0.0
 11
-16.0457248687744
 21
-18.176485986586
 31
0.0
  0
LINE
  5
   38B
  8
0
  6
CONTINUOUS
 62
     7
 10
15.5792751312256
 20
-2.80148598658601
 30
0.0
 11
-36.9207248687744
 21
-2.80148598658601
 31
0.0
  0
LINE
  5
   38C
  8
0
  6
CONTINUOUS
 62
     7
 10
15.5792751312256
 20
2.19851401341399
 30
0.0
 11
-36.9207248687744
 21
2.19851401341399
 31
0.0
  0
LINE
  5
   38D
  8
0
  6
CONTINUOUS
 62
     7
 10
-5.29572486877441
 20
-18.3087186526016
 30
0.0
 11
-16.0457248687744
 21
-18.3087186526016
 31
0.0
  0
LINE
  5
   38E
  8
0
  6
CONTINUOUS
 62
     7
 10
-5.29572486877441
 20
-18.176485986586
 30
0.0
 11
-16.0457248687744
 21
-18.176485986586
 31
0.0
  0
LINE
  5
   38F
  8
0
  6
CONTINUOUS
 62
     7
 10
-5.29572486877441
 20
-38.1764783571915
 30
0.0
 11
-16.0457248687744
 21
-38.1764783571915
 31
0.0
  0
LINE
  5
   390
  8
0
  6
CONTINUOUS
 62
     7
 10
-5.29572486877441
 20
-38.0442304323868
 30
0.0
 11
-16.0457248687744
 21
-38.0442304323868
 31
0.0
  0
LINE
  5
   391
  8
0
  6
DASHDOT
 62
     7
 10
-10.6707248687744
 20
-91.5620536809775
 30
0.0
 11
-10.6707248687744
 21
-7.70026858395197
 31
0.0
  0
LINE
  5
   392
  8
0
  6
DASHDOT
 62
     7
 10
-10.6707248687744
 20
-8.08663494021155
 30
0.0
 11
-10.6707248687744
 21
31.0500913246115
 31
0.0
  0
LINE
  5
   393
  8
0
  6
CONTINUOUS
 62
     7
 10
15.5792675018311
 20
-39.5514783571915
 30
0.0
 11
15.5792675018311
 21
-33.5514823338107
 31
0.0
  0
LINE
  5
   394
  8
0
  6
CONTINUOUS
 62
     7
 10
15.5792675018311
 20
-16.3014783571915
 30
0.0
 11
15.5792675018311
 21
2.94852927220305
 31
0.0
  0
LINE
  5
   395
  8
0
  6
CONTINUOUS
 62
     7
 10
15.5792675018311
 20
-33.0514823338107
 30
0.0
 11
15.5792675018311
 21
-23.3014783571915
 31
0.0
  0
LINE
  5
   396
  8
0
  6
CONTINUOUS
 62
     7
 10
15.5792675018311
 20
-22.8014783571915
 30
0.0
 11
15.5792675018311
 21
-16.8014783571915
 31
0.0
  0
LINE
  5
   397
  8
0
  6
CONTINUOUS
 62
     7
 10
-36.920724868777
 20
-39.5514783571915
 30
0.0
 11
-36.920724868777
 21
-33.5514783571904
 31
0.0
  0
LINE
  5
   398
  8
0
  6
CONTINUOUS
 62
     7
 10
-36.9207248687859
 20
-33.0514783571904
 30
0.0
 11
-36.9207248687859
 21
-23.3014783571915
 31
0.0
  0
LINE
  5
   399
  8
0
  6
CONTINUOUS
 62
     7
 10
-36.9207248687718
 20
-22.8014783571915
 30
0.0
 11
-36.9207248687718
 21
-16.8014783571915
 31
0.0
  0
LINE
  5
   39A
  8
0
  6
CONTINUOUS
 62
     7
 10
-36.9207248687605
 20
-16.3014783571915
 30
0.0
 11
-36.9207248687605
 21
2.94852927220305
 31
0.0
  0
LINE
  5
   39B
  8
0
  6
CONTINUOUS
 62
     7
 10
-16.0457288556364
 20
-33.5514687394794
 30
0.0
 11
-36.4207248985767
 21
-33.5514687394794
 31
0.0
  0
LINE
  5
   39C
  8
0
  6
CONTINUOUS
 62
     7
 10
15.5792675018311
 20
-33.5514727161025
 30
0.0
 11
15.0792675018311
 21
-33.5514727161025
 31
0.0
  0
LINE
  5
   39D
  8
0
  6
CONTINUOUS
 62
     7
 10
-16.0457386351805
 20
-33.0514687394764
 30
0.0
 11
-36.4207248985767
 21
-33.0514687394764
 31
0.0
  0
LINE
  5
   39E
  8
0
  6
CONTINUOUS
 62
     7
 10
15.579267501831
 20
-33.0514727161025
 30
0.0
 11
15.0792675018311
 21
-33.0514727161025
 31
0.0
  0
LINE
  5
   39F
  8
0
  6
CONTINUOUS
 62
     7
 10
-36.4207248985767
 20
-33.5514783571915
 30
0.0
 11
-36.4207248985767
 21
-33.0514783571915
 31
0.0
  0
LINE
  5
   3A0
  8
0
  6
CONTINUOUS
 62
     7
 10
15.0792675018311
 20
-33.5514783571915
 30
0.0
 11
15.0792675018311
 21
-33.0514783571915
 31
0.0
  0
LINE
  5
   3A1
  8
0
  6
CONTINUOUS
 62
     7
 10
15.5792751312256
 20
-40.0514783571915
 30
0.0
 11
15.0792675018311
 21
-40.0514783571915
 31
0.0
  0
LINE
  5
   3A2
  8
0
  6
CONTINUOUS
 62
     7
 10
15.5792675018311
 20
-39.5514783571915
 30
0.0
 11
15.0792675018311
 21
-39.5514783571915
 31
0.0
  0
LINE
  5
   3A3
  8
0
  6
CONTINUOUS
 62
     7
 10
-36.4207248985767
 20
-40.0514783571915
 30
0.0
 11
-36.4207248985767
 21
-39.5514783571915
 31
0.0
  0
LINE
  5
   3A4
  8
0
  6
CONTINUOUS
 62
     7
 10
15.0792675018311
 20
-40.0514783571915
 30
0.0
 11
15.0792675018311
 21
-39.5514783571915
 31
0.0
  0
LINE
  5
   3A5
  8
0
  6
CONTINUOUS
 62
     7
 10
15.5792675018311
 20
-16.8014783571915
 30
0.0
 11
15.0792675018311
 21
-16.8014783571915
 31
0.0
  0
LINE
  5
   3A6
  8
0
  6
CONTINUOUS
 62
     7
 10
15.5792675018311
 20
-16.3014783571915
 30
0.0
 11
15.0792675018311
 21
-16.3014783571915
 31
0.0
  0
LINE
  5
   3A7
  8
0
  6
CONTINUOUS
 62
     7
 10
-36.4207248985767
 20
-16.8014783571915
 30
0.0
 11
-36.4207248985767
 21
-16.3014783571915
 31
0.0
  0
LINE
  5
   3A8
  8
0
  6
CONTINUOUS
 62
     7
 10
15.0792675018311
 20
-16.8014783571915
 30
0.0
 11
15.0792675018311
 21
-16.3014783571915
 31
0.0
  0
LINE
  5
   3A9
  8
0
  6
CONTINUOUS
 62
     7
 10
-16.0457288324833
 20
-23.3014783571915
 30
0.0
 11
-36.4207248985767
 21
-23.3014783571915
 31
0.0
  0
LINE
  5
   3AA
  8
0
  6
CONTINUOUS
 62
     7
 10
15.5792675018311
 20
-23.3014783571915
 30
0.0
 11
15.0792675018311
 21
-23.3014783571915
 31
0.0
  0
LINE
  5
   3AB
  8
0
  6
CONTINUOUS
 62
     7
 10
-16.0457248687744
 20
-22.8014783571915
 30
0.0
 11
-36.4207248985767
 21
-22.8014783571915
 31
0.0
  0
LINE
  5
   3AC
  8
0
  6
CONTINUOUS
 62
     7
 10
15.5792675018311
 20
-22.8014783571915
 30
0.0
 11
15.0792675018311
 21
-22.8014783571915
 31
0.0
  0
LINE
  5
   3AD
  8
0
  6
CONTINUOUS
 62
     7
 10
-36.4207248985767
 20
-23.3014783571915
 30
0.0
 11
-36.4207248985767
 21
-22.8014783571915
 31
0.0
  0
LINE
  5
   3AE
  8
0
  6
CONTINUOUS
 62
     7
 10
15.0792675018311
 20
-23.3014783571915
 30
0.0
 11
15.0792675018311
 21
-22.8014783571915
 31
0.0
  0
ARC
  5
   3AF
  8
0
  6
CONTINUOUS
 62
     7
 10
-36.6707248687744
 20
-49.0514707277969
 30
0.0
 40
0.25
 50
179.999999948034
 51
269.999999948034
  0
ARC
  5
   3B0
  8
0
  6
CONTINUOUS
 62
     7
 10
15.3292751312256
 20
-49.0514707277969
 30
0.0
 40
0.25
 50
269.999999948034
 51
359.999999948034
  0
ARC
  5
   3B1
  8
0
  6
CONTINUOUS
 62
     7
 10
15.3292751312256
 20
2.94852927220306
 30
0.0
 40
0.25
 50
359.999999948034
 51
449.999999948034
  0
ARC
  5
   3B2
  8
0
  6
CONTINUOUS
 62
     7
 10
-36.6707248687605
 20
2.94852927220305
 30
0.0
 40
0.25
 50
449.999999948034
 51
539.999999948034
  0
LINE
  5
   3B3
  8
0
  6
CONTINUOUS
 62
     7
 10
-21.9207248687744
 20
-17.5514783571915
 30
0.0
 11
-22.6707248687744
 21
-17.5514783571915
 31
0.0
  0
LINE
  5
   3B4
  8
0
  6
CONTINUOUS
 62
     7
 10
-21.9207248687744
 20
-22.0514783571915
 30
0.0
 11
-22.6707248687744
 21
-22.0514783571915
 31
0.0
  0
CIRCLE
  5
   3B5
  8
0
  6
CONTINUOUS
 62
     7
 10
-22.2957248687744
 20
-36.5514783571915
 30
0.0
 40
2.25
  0
CIRCLE
  5
   3B6
  8
0
  6
CONTINUOUS
 62
     7
 10
-22.2957248687744
 20
-36.5514783571915
 30
0.0
 40
1.5
  0
LINE
  5
   3B7
  8
0
  6
CONTINUOUS
 62
     7
 10
-22.6707248687744
 20
-22.0514783571915
 30
0.0
 11
-22.6707248687744
 21
-17.5514783571915
 31
0.0
  0
LINE
  5
   3B8
  8
0
  6
CONTINUOUS
 62
     7
 10
-21.9207248687744
 20
-22.0514783571915
 30
0.0
 11
-21.9207248687744
 21
-17.5514783571915
 31
0.0
  0
LINE
  5
   3B9
  8
0
  6
CONTINUOUS
 62
     7
 10
-17.4207248687744
 20
-39.5514783571915
 30
0.0
 11
-17.4207248687744
 21
-33.5514712126087
 31
0.0
  0
LINE
  5
   3BA
  8
0
  6
CONTINUOUS
 62
     7
 10
-3.92072486877441
 20
-39.5514783571915
 30
0.0
 11
-3.92072486877441
 21
-33.5514751892318
 31
0.0
  0
LINE
  5
   3BB
  8
0
  6
CONTINUOUS
 62
     7
 10
-3.92072486877441
 20
-22.8014783571915
 30
0.0
 11
-3.92072486877441
 21
-16.8014783571915
 31
0.0
  0
LINE
  5
   3BC
  8
0
  6
CONTINUOUS
 62
     7
 10
-17.4207248687744
 20
-22.8014783571915
 30
0.0
 11
-17.4207248687744
 21
-16.8014783571915
 31
0.0
  0
LINE
  5
   3BD
  8
0
  6
CONTINUOUS
 62
     7
 10
2.10427024841304
 20
-34.6264783571915
 30
0.0
 11
1.87927024841304
 21
-34.6264783571915
 31
0.0
  0
LINE
  5
   3BE
  8
0
  6
CONTINUOUS
 62
     7
 10
1.62927024841303
 20
-38.4764783571915
 30
0.0
 11
1.22927024841303
 21
-38.4764783571915
 31
0.0
  0
LINE
  5
   3BF
  8
0
  6
CONTINUOUS
 62
     7
 10
-1.97072975158694
 20
-37.1764783571914
 30
0.0
 11
-1.97072975158694
 21
-36.9264783571914
 31
0.0
  0
LINE
  5
   3C0
  8
0
  6
CONTINUOUS
 62
     7
 10
0.629270248413063
 20
-37.1764783571914
 30
0.0
 11
0.629270248413063
 21
-36.9264783571914
 31
0.0
  0
ARC
  5
   3C1
  8
0
  6
CONTINUOUS
 62
     7
 10
-0.670729751586959
 20
-36.9264783571915
 30
0.0
 40
1.3
 50
359.999999948034
 51
539.999999948034
  0
ARC
  5
   3C2
  8
0
  6
CONTINUOUS
 62
     7
 10
-0.670729751586959
 20
-37.1764783571915
 30
0.0
 40
1.3
 50
179.999999948034
 51
359.999999948034
  0
ARC
  5
   3C3
  8
0
  6
CONTINUOUS
 62
     7
 10
-0.670729751586959
 20
-36.9264783571915
 30
0.0
 40
0.900000000000001
 50
359.999999948034
 51
539.999999948034
  0
ARC
  5
   3C4
  8
0
  6
CONTINUOUS
 62
     7
 10
-0.670729751586959
 20
-37.1764783571915
 30
0.0
 40
0.899999999999999
 50
179.999999948034
 51
359.999999948034
  0
LINE
  5
   3C5
  8
0
  6
CONTINUOUS
 62
     7
 10
-1.57072975158694
 20
-37.1764783571914
 30
0.0
 11
-1.57072975158694
 21
-36.9264783571914
 31
0.0
  0
LINE
  5
   3C6
  8
0
  6
CONTINUOUS
 62
     7
 10
0.229270248413062
 20
-37.1764783571914
 30
0.0
 11
0.229270248413062
 21
-36.9264783571914
 31
0.0
  0
LINE
  5
   3C7
  8
0
  6
CONTINUOUS
 62
     7
 10
0.754270248413059
 20
-36.2264783571914
 30
0.0
 11
0.754270248413059
 21
-35.8264783571914
 31
0.0
  0
LINE
  5
   3C8
  8
0
  6
CONTINUOUS
 62
     7
 10
1.22927024841304
 20
-36.2264783571915
 30
0.0
 11
0.754270248413039
 21
-36.2264783571915
 31
0.0
  0
LINE
  5
   3C9
  8
0
  6
CONTINUOUS
 62
     7
 10
2.10427024841306
 20
-36.2264783571914
 30
0.0
 11
2.10427024841306
 21
-35.8264783571914
 31
0.0
  0
LINE
  5
   3CA
  8
0
  6
CONTINUOUS
 62
     7
 10
1.22927024841304
 20
-35.8264783571915
 30
0.0
 11
0.754270248413041
 21
-35.8264783571915
 31
0.0
  0
LINE
  5
   3CB
  8
0
  6
CONTINUOUS
 62
     7
 10
1.22927024841306
 20
-38.4764783571914
 30
0.0
 11
1.22927024841306
 21
-36.2264783571914
 31
0.0
  0
LINE
  5
   3CC
  8
0
  6
CONTINUOUS
 62
     7
 10
1.62927024841306
 20
-38.4764783571914
 30
0.0
 11
1.62927024841306
 21
-36.2264783571914
 31
0.0
  0
LINE
  5
   3CD
  8
0
  6
CONTINUOUS
 62
     7
 10
2.10427024841304
 20
-36.2264783571915
 30
0.0
 11
1.62927024841304
 21
-36.2264783571915
 31
0.0
  0
LINE
  5
   3CE
  8
0
  6
CONTINUOUS
 62
     7
 10
2.10427024841304
 20
-35.8264783571915
 30
0.0
 11
1.62927024841304
 21
-35.8264783571915
 31
0.0
  0
LINE
  5
   3CF
  8
0
  6
CONTINUOUS
 62
     7
 10
1.22927024841306
 20
-35.8264783571914
 30
0.0
 11
1.22927024841306
 21
-35.2764783571914
 31
0.0
  0
LINE
  5
   3D0
  8
0
  6
CONTINUOUS
 62
     7
 10
1.62927024841306
 20
-35.8264783571914
 30
0.0
 11
1.62927024841306
 21
-35.2764783571914
 31
0.0
  0
ARC
  5
   3D1
  8
0
  6
CONTINUOUS
 62
     7
 10
1.87927024841304
 20
-35.2764783571915
 30
0.0
 40
0.65
 50
449.999999948034
 51
539.999999948034
  0
ARC
  5
   3D2
  8
0
  6
CONTINUOUS
 62
     7
 10
1.87927024841304
 20
-35.2764783571915
 30
0.0
 40
0.25
 50
449.999999948034
 51
539.999999948034
  0
LINE
  5
   3D3
  8
0
  6
CONTINUOUS
 62
     7
 10
2.10427024841306
 20
-35.0264783571914
 30
0.0
 11
2.10427024841306
 21
-34.6264783571914
 31
0.0
  0
LINE
  5
   3D4
  8
0
  6
CONTINUOUS
 62
     7
 10
2.10427024841304
 20
-35.0264783571915
 30
0.0
 11
1.87927024841304
 21
-35.0264783571915
 31
0.0
  0
LINE
  5
   3D5
  8
0
  6
CONTINUOUS
 62
     7
 10
3.70427024841304
 20
-34.6264783571915
 30
0.0
 11
3.47927024841304
 21
-34.6264783571915
 31
0.0
  0
LINE
  5
   3D6
  8
0
  6
CONTINUOUS
 62
     7
 10
3.22927024841303
 20
-38.4764783571915
 30
0.0
 11
2.82927024841303
 21
-38.4764783571915
 31
0.0
  0
LINE
  5
   3D7
  8
0
  6
CONTINUOUS
 62
     7
 10
2.35427024841306
 20
-36.2264783571914
 30
0.0
 11
2.35427024841306
 21
-35.8264783571914
 31
0.0
  0
LINE
  5
   3D8
  8
0
  6
CONTINUOUS
 62
     7
 10
2.82927024841304
 20
-36.2264783571915
 30
0.0
 11
2.35427024841304
 21
-36.2264783571915
 31
0.0
  0
LINE
  5
   3D9
  8
0
  6
CONTINUOUS
 62
     7
 10
3.70427024841306
 20
-36.2264783571914
 30
0.0
 11
3.70427024841306
 21
-35.8264783571914
 31
0.0
  0
LINE
  5
   3DA
  8
0
  6
CONTINUOUS
 62
     7
 10
2.82927024841304
 20
-35.8264783571915
 30
0.0
 11
2.35427024841304
 21
-35.8264783571915
 31
0.0
  0
LINE
  5
   3DB
  8
0
  6
CONTINUOUS
 62
     7
 10
2.82927024841306
 20
-38.4764783571914
 30
0.0
 11
2.82927024841306
 21
-36.2264783571914
 31
0.0
  0
LINE
  5
   3DC
  8
0
  6
CONTINUOUS
 62
     7
 10
3.22927024841306
 20
-38.4764783571914
 30
0.0
 11
3.22927024841306
 21
-36.2264783571914
 31
0.0
  0
LINE
  5
   3DD
  8
0
  6
CONTINUOUS
 62
     7
 10
3.70427024841304
 20
-36.2264783571915
 30
0.0
 11
3.22927024841304
 21
-36.2264783571915
 31
0.0
  0
LINE
  5
   3DE
  8
0
  6
CONTINUOUS
 62
     7
 10
3.70427024841304
 20
-35.8264783571915
 30
0.0
 11
3.22927024841304
 21
-35.8264783571915
 31
0.0
  0
LINE
  5
   3DF
  8
0
  6
CONTINUOUS
 62
     7
 10
2.82927024841306
 20
-35.8264783571914
 30
0.0
 11
2.82927024841306
 21
-35.2764783571914
 31
0.0
  0
LINE
  5
   3E0
  8
0
  6
CONTINUOUS
 62
     7
 10
3.22927024841306
 20
-35.8264783571914
 30
0.0
 11
3.22927024841306
 21
-35.2764783571914
 31
0.0
  0
ARC
  5
   3E1
  8
0
  6
CONTINUOUS
 62
     7
 10
3.47927024841304
 20
-35.2764783571915
 30
0.0
 40
0.65
 50
449.999999948034
 51
539.999999948034
  0
ARC
  5
   3E2
  8
0
  6
CONTINUOUS
 62
     7
 10
3.47927024841304
 20
-35.2764783571915
 30
0.0
 40
0.25
 50
449.999999948034
 51
539.999999948034
  0
LINE
  5
   3E3
  8
0
  6
CONTINUOUS
 62
     7
 10
3.70427024841306
 20
-35.0264783571914
 30
0.0
 11
3.70427024841306
 21
-34.6264783571914
 31
0.0
  0
LINE
  5
   3E4
  8
0
  6
CONTINUOUS
 62
     7
 10
3.70427024841304
 20
-35.0264783571915
 30
0.0
 11
3.47927024841304
 21
-35.0264783571915
 31
0.0
  0
LINE
  5
   3E5
  8
0
  6
CONTINUOUS
 62
     7
 10
1.42927024841308
 20
-21.2264783571915
 30
0.0
 11
1.02927024841308
 21
-21.2264783571915
 31
0.0
  0
ARC
  5
   3E6
  8
0
  6
CONTINUOUS
 62
     7
 10
-0.670729751586917
 20
-19.6764783571915
 30
0.0
 40
1.3
 50
359.999999948034
 51
539.999999948034
  0
ARC
  5
   3E7
  8
0
  6
CONTINUOUS
 62
     7
 10
-0.670729751586917
 20
-19.6764783571915
 30
0.0
 40
0.900000000000001
 50
359.999999948034
 51
539.999999948034
  0
ARC
  5
   3E8
  8
0
  6
CONTINUOUS
 62
     7
 10
-0.670729751586919
 20
-19.9264783571915
 30
0.0
 40
1.3
 50
179.999999948034
 51
359.999999948034
  0
ARC
  5
   3E9
  8
0
  6
CONTINUOUS
 62
     7
 10
-0.670729751586919
 20
-19.9264783571915
 30
0.0
 40
0.899999999999999
 50
179.999999948034
 51
359.999999948034
  0
LINE
  5
   3EA
  8
0
  6
CONTINUOUS
 62
     7
 10
0.229270248413062
 20
-19.9264783571915
 30
0.0
 11
0.229270248413062
 21
-19.6764783571915
 31
0.0
  0
LINE
  5
   3EB
  8
0
  6
CONTINUOUS
 62
     7
 10
0.629270248413063
 20
-19.9264783571915
 30
0.0
 11
0.629270248413063
 21
-19.6764783571915
 31
0.0
  0
LINE
  5
   3EC
  8
0
  6
CONTINUOUS
 62
     7
 10
-1.57072975158694
 20
-19.9264783571915
 30
0.0
 11
-1.57072975158694
 21
-19.6764783571915
 31
0.0
  0
LINE
  5
   3ED
  8
0
  6
CONTINUOUS
 62
     7
 10
-1.97072975158694
 20
-19.9264783571915
 30
0.0
 11
-1.97072975158694
 21
-19.6764783571915
 31
0.0
  0
LINE
  5
   3EE
  8
0
  6
CONTINUOUS
 62
     7
 10
1.02927024841306
 20
-21.2264783571915
 30
0.0
 11
1.02927024841306
 21
-18.3764783571915
 31
0.0
  0
LINE
  5
   3EF
  8
0
  6
CONTINUOUS
 62
     7
 10
1.42927024841306
 20
-21.2264783571915
 30
0.0
 11
1.42927024841306
 21
-19.4764783571915
 31
0.0
  0
LINE
  5
   3F0
  8
0
  6
CONTINUOUS
 62
     7
 10
2.82927024841306
 20
-21.2264783571915
 30
0.0
 11
2.82927024841306
 21
-19.4764783571915
 31
0.0
  0
LINE
  5
   3F1
  8
0
  6
CONTINUOUS
 62
     7
 10
3.22927024841306
 20
-21.2264783571915
 30
0.0
 11
3.22927024841306
 21
-19.3764783571915
 31
0.0
  0
LINE
  5
   3F2
  8
0
  6
CONTINUOUS
 62
     7
 10
1.42927024841308
 20
-18.3764783571915
 30
0.0
 11
1.02927024841308
 21
-18.3764783571915
 31
0.0
  0
ARC
  5
   3F3
  8
0
  6
CONTINUOUS
 62
     7
 10
2.12927024841308
 20
-19.4764783571915
 30
0.0
 40
0.699999999999999
 50
359.999999948034
 51
539.999999948034
  0
LINE
  5
   3F4
  8
0
  6
CONTINUOUS
 62
     7
 10
1.42927024841306
 20
-18.7764783571914
 30
0.0
 11
1.42927024841306
 21
-18.3764783571915
 31
0.0
  0
ARC
  5
   3F5
  8
0
  6
CONTINUOUS
 62
     7
 10
2.22927024841308
 20
-19.3764783571915
 30
0.0
 40
1.0
 50
359.999999948034
 51
503.13010230219
  0
LINE
  5
   3F6
  8
0
  6
CONTINUOUS
 62
     7
 10
3.22927024841307
 20
-21.2264783571915
 30
0.0
 11
2.82927024841308
 21
-21.2264783571915
 31
0.0
  0
LINE
  5
   3F7
  8
0
  6
CONTINUOUS
 62
     7
 10
-20.2957424258571
 20
19.0735254575077
 30
0.0
 11
-20.2957424258571
 21
20.5735254575077
 31
0.0
  0
LINE
  5
   3F8
  8
0
  6
CONTINUOUS
 62
     7
 10
-18.5457424258571
 20
19.0735254575077
 30
0.0
 11
-18.5457424258571
 21
20.5735254575077
 31
0.0
  0
LINE
  5
   3F9
  8
0
  6
CONTINUOUS
 62
     7
 10
-20.6707424258571
 20
17.3235254575077
 30
0.0
 11
-20.6707424258571
 21
19.0735254575077
 31
0.0
  0
LINE
  5
   3FA
  8
0
  6
CONTINUOUS
 62
     7
 10
-18.1707424258571
 20
17.3235254575077
 30
0.0
 11
-18.1707424258571
 21
19.0735254575077
 31
0.0
  0
LINE
  5
   3FB
  8
0
  6
CONTINUOUS
 62
     7
 10
-18.1707424258571
 20
19.0735254575077
 30
0.0
 11
-18.5457424258571
 21
19.0735254575077
 31
0.0
  0
LINE
  5
   3FC
  8
0
  6
CONTINUOUS
 62
     7
 10
-20.2957424258571
 20
19.0735254575077
 30
0.0
 11
-20.6707424258571
 21
19.0735254575077
 31
0.0
  0
LINE
  5
   3FD
  8
0
  6
CONTINUOUS
 62
     7
 10
-2.79570731169177
 20
19.0735254575077
 30
0.0
 11
-2.79570731169177
 21
20.5735254575077
 31
0.0
  0
LINE
  5
   3FE
  8
0
  6
CONTINUOUS
 62
     7
 10
-1.04570731169177
 20
19.0735254575077
 30
0.0
 11
-1.04570731169177
 21
20.5735254575077
 31
0.0
  0
LINE
  5
   3FF
  8
0
  6
CONTINUOUS
 62
     7
 10
-0.670707311691768
 20
17.3235254575077
 30
0.0
 11
-0.670707311691768
 21
19.0735254575077
 31
0.0
  0
LINE
  5
   400
  8
0
  6
CONTINUOUS
 62
     7
 10
-0.670707311691768
 20
17.3235254575077
 30
0.0
 11
-3.17070731169177
 21
17.3235254575077
 31
0.0
  0
LINE
  5
   401
  8
0
  6
CONTINUOUS
 62
     7
 10
-3.17070731169177
 20
17.3235254575077
 30
0.0
 11
-3.17070731169177
 21
19.0735254575077
 31
0.0
  0
LINE
  5
   402
  8
0
  6
CONTINUOUS
 62
     7
 10
-0.670707311691768
 20
19.0735254575077
 30
0.0
 11
-1.04570731169177
 21
19.0735254575077
 31
0.0
  0
LINE
  5
   403
  8
0
  6
CONTINUOUS
 62
     7
 10
-2.79570731169177
 20
19.0735254575077
 30
0.0
 11
-3.17070731169177
 21
19.0735254575077
 31
0.0
  0
LINE
  5
   404
  8
0
  6
CONTINUOUS
 62
     7
 10
-36.4207248985767
 20
-16.3014783571915
 30
0.0
 11
-36.9207248687605
 21
-16.3014783571915
 31
0.0
  0
LINE
  5
   405
  8
0
  6
CONTINUOUS
 62
     7
 10
-36.4207248985767
 20
-16.8014783571915
 30
0.0
 11
-36.9207248687718
 21
-16.8014783571915
 31
0.0
  0
LINE
  5
   406
  8
0
  6
CONTINUOUS
 62
     7
 10
-36.4207248985767
 20
-22.8014783571915
 30
0.0
 11
-36.9207248687718
 21
-22.8014783571915
 31
0.0
  0
LINE
  5
   407
  8
0
  6
CONTINUOUS
 62
     7
 10
-36.4207248985767
 20
-23.3014783571915
 30
0.0
 11
-36.9207248687859
 21
-23.3014783571915
 31
0.0
  0
LINE
  5
   408
  8
0
  6
CONTINUOUS
 62
     7
 10
-36.4207248985767
 20
-33.0514687394764
 30
0.0
 11
-36.9207248687859
 21
-33.0514687394764
 31
0.0
  0
LINE
  5
   409
  8
0
  6
CONTINUOUS
 62
     7
 10
-36.4207248985767
 20
-33.5514687394794
 30
0.0
 11
-36.920724868777
 21
-33.5514687394794
 31
0.0
  0
LINE
  5
   40A
  8
0
  6
CONTINUOUS
 62
     7
 10
-36.4207248985767
 20
-39.5514783571915
 30
0.0
 11
-36.920724868777
 21
-39.5514783571915
 31
0.0
  0
LINE
  5
   40B
  8
0
  6
CONTINUOUS
 62
     7
 10
-36.4207248985767
 20
-40.0514783571915
 30
0.0
 11
-36.9207248687744
 21
-40.0514783571915
 31
0.0
  0
LINE
  5
   40C
  8
0
  6
CONTINUOUS
 62
     7
 10
15.0792675018311
 20
-16.3014783571915
 30
0.0
 11
-36.4207248985767
 21
-16.3014783571915
 31
0.0
  0
LINE
  5
   40D
  8
0
  6
CONTINUOUS
 62
     7
 10
15.0792675018311
 20
-16.8014783571915
 30
0.0
 11
-36.4207248985767
 21
-16.8014783571915
 31
0.0
  0
LINE
  5
   40E
  8
0
  6
CONTINUOUS
 62
     7
 10
15.0792675018311
 20
-22.8014783571915
 30
0.0
 11
-5.29572486877441
 21
-22.8014783571915
 31
0.0
  0
LINE
  5
   40F
  8
0
  6
CONTINUOUS
 62
     7
 10
15.0792675018311
 20
-23.3014783571915
 30
0.0
 11
-5.29572486877441
 21
-23.3014783571915
 31
0.0
  0
LINE
  5
   410
  8
0
  6
CONTINUOUS
 62
     7
 10
15.0792675018311
 20
-33.0514727161025
 30
0.0
 11
-5.2957263611537
 21
-33.0514727161025
 31
0.0
  0
LINE
  5
   411
  8
0
  6
CONTINUOUS
 62
     7
 10
15.0792675018311
 20
-33.5514727161025
 30
0.0
 11
-5.29572654434809
 21
-33.5514727161025
 31
0.0
  0
LINE
  5
   412
  8
0
  6
CONTINUOUS
 62
     7
 10
15.0792675018311
 20
-39.5514783571915
 30
0.0
 11
-36.4207248985767
 21
-39.5514783571915
 31
0.0
  0
LINE
  5
   413
  8
0
  6
CONTINUOUS
 62
     7
 10
15.0792675018311
 20
-40.0514783571915
 30
0.0
 11
-36.4207248985767
 21
-40.0514783571915
 31
0.0
  0
LINE
  5
   414
  8
0
  6
CONTINUOUS
 62
     7
 10
-5.29572486877441
 20
-31.1138180024818
 30
0.0
 11
-16.0457248687744
 21
-31.1138180024818
 31
0.0
  0
LINE
  5
   415
  8
0
  6
CONTINUOUS
 62
     7
 10
-5.29572486877441
 20
-34.1720507552902
 30
0.0
 11
-16.0457248687744
 21
-34.1720507552902
 31
0.0
  0
LINE
  5
   416
  8
0
  6
CONTINUOUS
 62
     7
 10
-5.29572486877441
 20
-37.1459600683961
 30
0.0
 11
-16.0457248687744
 21
-37.1459600683961
 31
0.0
  0
LINE
  5
   417
  8
0
  6
CONTINUOUS
 62
     7
 10
-5.29572486877441
 20
-37.5473336322552
 30
0.0
 11
-16.0457248687744
 21
-37.5473336322552
 31
0.0
  0
LINE
  5
   418
  8
0
  6
DASHDOT
 62
     7
 10
37.2951011729577
 20
-23.0514707277969
 30
0.0
 11
-55.4055614118775
 21
-23.0514707277969
 31
0.0
  0
LINE
  5
   419
  8
0
  6
DASHDOT
 62
     7
 10
-64.6074654184604
 20
-23.0514707277969
 30
0.0
 11
-74.661397573801
 21
-23.0514707277969
 31
0.0
  0
LINE
  5
   41A
  8
0
  6
CONTINUOUS
 62
     7
 10
-33.6707331994701
 20
-78.1764745424924
 30
0.0
 11
-33.6707331994701
 21
-64.6264743901517
 31
0.0
  0
LINE
  5
   41B
  8
0
  6
CONTINUOUS
 62
     7
 10
-22.6707331994701
 20
-78.1764745424924
 30
0.0
 11
-22.6707331994701
 21
-76.4990991209714
 31
0.0
  0
LINE
  5
   41C
  8
0
  6
CONTINUOUS
 62
     7
 10
-22.6707331994701
 20
-78.1764745424924
 30
0.0
 11
-33.6707331994701
 21
-78.1764745424924
 31
0.0
  0
CIRCLE
  5
   41D
  8
0
  6
CONTINUOUS
 62
     7
 10
-28.1707331994701
 20
-68.6764745424924
 30
0.0
 40
4.0
  0
LINE
  5
   41E
  8
0
  6
DOT
 62
     7
 10
-32.1707331994701
 20
-78.1764745424924
 30
0.0
 11
-32.1707331994701
 21
-68.6764745424924
 31
0.0
  0
LINE
  5
   41F
  8
0
  6
DOT
 62
     7
 10
-24.1707331994701
 20
-78.1764745424924
 30
0.0
 11
-24.1707331994701
 21
-68.6764745424924
 31
0.0
  0
LINE
  5
   420
  8
0
  6
DOT
 62
     7
 10
-24.9207331994701
 20
-78.1764745424924
 30
0.0
 11
-24.9207331994701
 21
-71.0083193057647
 31
0.0
  0
LINE
  5
   421
  8
0
  6
DOT
 62
     7
 10
-31.4207331994701
 20
-78.1764745424924
 30
0.0
 11
-31.4207331994701
 21
-71.0083193057647
 31
0.0
  0
INSERT
  5
   422
  8
255
  6
CONTINUOUS
 62
     7
  2
MOSTRINA
 10
-68.0898532867432
 20
-78.0417813967423
 30
0.0
 41
0.5
 42
0.5
 50
3.50835464724173E-15
 43
0.5
  0
LINE
  5
   423
  8
0
  6
DASHDOT
 62
     7
 10
-1.92073785938619
 20
9.3442634036651
 30
0.0
 11
-1.92073785938619
 21
22.0371196937797
 31
0.0
  0
LINE
  5
   424
  8
0
  6
DASHDOT
 62
     7
 10
1.37145992733036
 20
12.8235288863284
 30
0.0
 11
-5.28802072712439
 21
12.8235288863284
 31
0.0
  0
LINE
  5
   425
  8
0
  6
CONTINUOUS
 62
     1
 10
15.5792751312256
 20
-86.8014745424922
 30
0.0
 11
15.5792751312256
 21
-63.3014688204483
 31
0.0
  0
LINE
  5
   426
  8
0
  6
CONTINUOUS
 62
     1
 10
14.9542751312256
 20
-87.4264745424922
 30
0.0
 11
-18.9712070592988
 21
-87.4264745424922
 31
0.0
  0
ARC
  5
   427
  8
0
  6
CONTINUOUS
 62
     1
 10
14.9542751312256
 20
-86.8014745424922
 30
0.0
 40
0.625
 50
269.999999948034
 51
359.999999948034
  0
LINE
  5
   428
  8
0
  6
CONTINUOUS
 62
     1
 10
13.7792751312256
 20
-87.4264745424922
 30
0.0
 11
13.7792751312256
 21
-63.3014688204483
 31
0.0
  0
LINE
  5
   429
  8
0
  6
CONTINUOUS
 62
     1
 10
11.9792751312256
 20
-87.4264745424922
 30
0.0
 11
11.9792751312256
 21
-63.3014688204483
 31
0.0
  0
LINE
  5
   42A
  8
0
  6
CONTINUOUS
 62
     1
 10
10.1792751312256
 20
-87.4264745424922
 30
0.0
 11
10.1792751312256
 21
-63.3014688204483
 31
0.0
  0
LINE
  5
   42B
  8
0
  6
CONTINUOUS
 62
     1
 10
8.37927513122559
 20
-87.4264745424922
 30
0.0
 11
8.37927513122559
 21
-63.3014688204483
 31
0.0
  0
LINE
  5
   42C
  8
0
  6
CONTINUOUS
 62
     1
 10
6.57927513122559
 20
-87.4264745424922
 30
0.0
 11
6.57927513122559
 21
-63.3014688204483
 31
0.0
  0
LINE
  5
   42D
  8
0
  6
CONTINUOUS
 62
     1
 10
4.77927513122559
 20
-87.4264745424922
 30
0.0
 11
4.77927513122559
 21
-63.3014688204483
 31
0.0
  0
LINE
  5
   42E
  8
0
  6
CONTINUOUS
 62
     1
 10
2.97927513122559
 20
-87.4264745424922
 30
0.0
 11
2.97927513122559
 21
-63.3014688204483
 31
0.0
  0
LINE
  5
   42F
  8
0
  6
CONTINUOUS
 62
     1
 10
1.17927513122559
 20
-87.4264745424922
 30
0.0
 11
1.17927513122559
 21
-63.3014688204483
 31
0.0
  0
LINE
  5
   430
  8
0
  6
CONTINUOUS
 62
     1
 10
-0.620724868774412
 20
-87.4264745424922
 30
0.0
 11
-0.620724868774412
 21
-63.3014688204483
 31
0.0
  0
LINE
  5
   431
  8
0
  6
CONTINUOUS
 62
     1
 10
-2.42072486877441
 20
-87.4264745424922
 30
0.0
 11
-2.42072486877441
 21
-63.3014688204483
 31
0.0
  0
LINE
  5
   432
  8
0
  6
CONTINUOUS
 62
     1
 10
-4.22072486877441
 20
-87.4264745424922
 30
0.0
 11
-4.22072486877441
 21
-63.3014688204483
 31
0.0
  0
LINE
  5
   433
  8
0
  6
CONTINUOUS
 62
     1
 10
-6.02072486877441
 20
-87.4264745424922
 30
0.0
 11
-6.02072486877441
 21
-63.3014688204483
 31
0.0
  0
LINE
  5
   434
  8
0
  6
CONTINUOUS
 62
     1
 10
-7.82072486877441
 20
-87.4264745424922
 30
0.0
 11
-7.82072486877441
 21
-63.3014688204483
 31
0.0
  0
LINE
  5
   435
  8
0
  6
CONTINUOUS
 62
     1
 10
-9.62072486877441
 20
-87.4264745424922
 30
0.0
 11
-9.62072486877441
 21
-63.3014688204483
 31
0.0
  0
LINE
  5
   436
  8
0
  6
CONTINUOUS
 62
     1
 10
-11.4207248687744
 20
-87.4264745424922
 30
0.0
 11
-11.4207248687744
 21
-63.3014688204483
 31
0.0
  0
LINE
  5
   437
  8
0
  6
CONTINUOUS
 62
     1
 10
-13.2207248687744
 20
-87.4264745424922
 30
0.0
 11
-13.2207248687744
 21
-63.3014688204483
 31
0.0
  0
LINE
  5
   438
  8
0
  6
CONTINUOUS
 62
     1
 10
-15.0207248687744
 20
-87.4264745424922
 30
0.0
 11
-15.0207248687744
 21
-63.3014688204483
 31
0.0
  0
LINE
  5
   439
  8
0
  6
CONTINUOUS
 62
     1
 10
-16.8207248687744
 20
-87.4264745424922
 30
0.0
 11
-16.8207248687744
 21
-63.3014688204483
 31
0.0
  0
LINE
  5
   43A
  8
0
  6
CONTINUOUS
 62
     1
 10
-18.6207248687744
 20
-87.4264745424922
 30
0.0
 11
-18.6207248687744
 21
-63.3014688204483
 31
0.0
  0
LINE
  5
   43B
  8
0
  6
CONTINUOUS
 62
     1
 10
-20.4207248687744
 20
-85.1802304674796
 30
0.0
 11
-20.4207248687744
 21
-63.3014688204483
 31
0.0
  0
LINE
  5
   43C
  8
0
  6
CONTINUOUS
 62
     1
 10
-22.2207248687744
 20
-78.4638976804919
 30
0.0
 11
-22.2207248687744
 21
-63.3014688204483
 31
0.0
  0
LINE
  5
   43D
  8
0
  6
CONTINUOUS
 62
     1
 10
-24.0207248687744
 20
-66.6688370074702
 30
0.0
 11
-24.0207248687744
 21
-63.3014688204483
 31
0.0
  0
POLYLINE
  5
   43E
  8
0
  6
CONTINUOUS
 62
     1
 66
     1
 10
0.0
 20
0.0
 30
0.0
  0
VERTEX
  5
   43F
  8
0
  6
CONTINUOUS
 10
-18.9712070592988
 20
-87.4263767811085
 30
0.0
 40
0.0
 41
0.0
  0
VERTEX
  5
   440
  8
0
  6
CONTINUOUS
 10
-19.0850097180222
 20
-87.2687247930263
 30
0.0
 40
0.0
 41
0.0
  0
VERTEX
  5
   441
  8
0
  6
CONTINUOUS
 10
-19.1978501371852
 20
-87.1100649723273
 30
0.0
 40
0.0
 41
0.0
  0
VERTEX
  5
   442
  8
0
  6
CONTINUOUS
 10
-19.3097048692454
 20
-86.9503938202455
 30
0.0
 40
0.0
 41
0.0
  0
VERTEX
  5
   443
  8
0
  6
CONTINUOUS
 10
-19.4205382890574
 20
-86.7897060209132
 30
0.0
 40
0.0
 41
0.0
  0
VERTEX
  5
   444
  8
0
  6
CONTINUOUS
 10
-19.5303000277721
 20
-86.6279940584549
 30
0.0
 40
0.0
 41
0.0
  0
VERTEX
  5
   445
  8
0
  6
CONTINUOUS
 10
-19.6389224067362
 20
-86.465247834083
 30
0.0
 40
0.0
 41
0.0
  0
VERTEX
  5
   446
  8
0
  6
CONTINUOUS
 10
-19.7463178713916
 20
-86.301454283192
 30
0.0
 40
0.0
 41
0.0
  0
VERTEX
  5
   447
  8
0
  6
CONTINUOUS
 10
-19.8523764251751
 20
-86.1365969924538
 30
0.0
 40
0.0
 41
0.0
  0
VERTEX
  5
   448
  8
0
  6
CONTINUOUS
 10
-19.9569630634178
 20
-85.9706558169123
 30
0.0
 40
0.0
 41
0.0
  0
VERTEX
  5
   449
  8
0
  6
CONTINUOUS
 10
-20.0599152072447
 20
-85.8036064970783
 30
0.0
 40
0.0
 41
0.0
  0
VERTEX
  5
   44A
  8
0
  6
CONTINUOUS
 10
-20.1908836915158
 20
-85.5849166048855
 30
0.0
 40
0.0
 41
0.0
  0
VERTEX
  5
   44B
  8
0
  6
CONTINUOUS
 10
-20.2550586024072
 20
-85.4748295439179
 30
0.0
 40
0.0
 41
0.0
  0
VERTEX
  5
   44C
  8
0
  6
CONTINUOUS
 10
-20.3182707157882
 20
-85.3642345217644
 30
0.0
 40
0.0
 41
0.0
  0
VERTEX
  5
   44D
  8
0
  6
CONTINUOUS
 10
-20.3804488400506
 20
-85.2531212531851
 30
0.0
 40
0.0
 41
0.0
  0
VERTEX
  5
   44E
  8
0
  6
CONTINUOUS
 10
-20.4415199814769
 20
-85.1414794001888
 30
0.0
 40
0.0
 41
0.0
  0
VERTEX
  5
   44F
  8
0
  6
CONTINUOUS
 10
-20.5014103485468
 20
-85.02929877593
 30
0.0
 40
0.0
 41
0.0
  0
VERTEX
  5
   450
  8
0
  6
CONTINUOUS
 10
-20.5600463562443
 20
-84.9165695486075
 30
0.0
 40
0.0
 41
0.0
  0
VERTEX
  5
   451
  8
0
  6
CONTINUOUS
 10
-20.6173556303647
 20
-84.8032824453614
 30
0.0
 40
0.0
 41
0.0
  0
VERTEX
  5
   452
  8
0
  6
CONTINUOUS
 10
-20.6732680118215
 20
-84.6894289561716
 30
0.0
 40
0.0
 41
0.0
  0
VERTEX
  5
   453
  8
0
  6
CONTINUOUS
 10
-20.7277165609534
 20
-84.5750015377546
 30
0.0
 40
0.0
 41
0.0
  0
VERTEX
  5
   454
  8
0
  6
CONTINUOUS
 10
-20.780638561831
 20
-84.459993817462
 30
0.0
 40
0.0
 41
0.0
  0
VERTEX
  5
   455
  8
0
  6
CONTINUOUS
 10
-20.8319765265641
 20
-84.3444007971782
 30
0.0
 40
0.0
 41
0.0
  0
VERTEX
  5
   456
  8
0
  6
CONTINUOUS
 10
-20.8816791996085
 20
-84.2282190572174
 30
0.0
 40
0.0
 41
0.0
  0
VERTEX
  5
   457
  8
0
  6
CONTINUOUS
 10
-20.9297025620727
 20
-84.1114469602222
 30
0.0
 40
0.0
 41
0.0
  0
VERTEX
  5
   458
  8
0
  6
CONTINUOUS
 10
-20.9760108360252
 20
-83.9940848550611
 30
0.0
 40
0.0
 41
0.0
  0
VERTEX
  5
   459
  8
0
  6
CONTINUOUS
 10
-21.0205774888012
 20
-83.8761352807257
 30
0.0
 40
0.0
 41
0.0
  0
VERTEX
  5
   45A
  8
0
  6
CONTINUOUS
 10
-21.0633862373099
 20
-83.7576031702292
 30
0.0
 40
0.0
 41
0.0
  0
VERTEX
  5
   45B
  8
0
  6
CONTINUOUS
 10
-21.1044320523407
 20
-83.6384960545038
 30
0.0
 40
0.0
 41
0.0
  0
VERTEX
  5
   45C
  8
0
  6
CONTINUOUS
 10
-21.1437221628711
 20
-83.5188242662982
 30
0.0
 40
0.0
 41
0.0
  0
VERTEX
  5
   45D
  8
0
  6
CONTINUOUS
 10
-21.1934267930347
 20
-83.3583684853651
 30
0.0
 40
0.0
 41
0.0
  0
VERTEX
  5
   45E
  8
0
  6
CONTINUOUS
 10
-21.2401331364383
 20
-83.1969725853791
 30
0.0
 40
0.0
 41
0.0
  0
VERTEX
  5
   45F
  8
0
  6
CONTINUOUS
 10
-21.2839681637589
 20
-83.0346857561787
 30
0.0
 40
0.0
 41
0.0
  0
VERTEX
  5
   460
  8
0
  6
CONTINUOUS
 10
-21.3250949198731
 20
-82.8715651552206
 30
0.0
 40
0.0
 41
0.0
  0
VERTEX
  5
   461
  8
0
  6
CONTINUOUS
 10
-21.3637079942942
 20
-82.7076748145515
 30
0.0
 40
0.0
 41
0.0
  0
VERTEX
  5
   462
  8
0
  6
CONTINUOUS
 10
-21.4000289916082
 20
-82.5430845477796
 30
0.0
 40
0.0
 41
0.0
  0
VERTEX
  5
   463
  8
0
  6
CONTINUOUS
 10
-21.4343020019107
 20
-82.3778688570457
 30
0.0
 40
0.0
 41
0.0
  0
VERTEX
  5
   464
  8
0
  6
CONTINUOUS
 10
-21.4667890712433
 20
-82.2121058399946
 30
0.0
 40
0.0
 41
0.0
  0
VERTEX
  5
   465
  8
0
  6
CONTINUOUS
 10
-21.4977656720305
 20
-82.045876096747
 30
0.0
 40
0.0
 41
0.0
  0
VERTEX
  5
   466
  8
0
  6
CONTINUOUS
 10
-21.5275161735159
 20
-81.8792616368703
 30
0.0
 40
0.0
 41
0.0
  0
VERTEX
  5
   467
  8
0
  6
CONTINUOUS
 10
-21.5844936622712
 20
-81.5452070945625
 30
0.0
 40
0.0
 41
0.0
  0
VERTEX
  5
   468
  8
0
  6
CONTINUOUS
 10
-21.6961753239743
 20
-80.8759905112848
 30
0.0
 40
0.0
 41
0.0
  0
VERTEX
  5
   469
  8
0
  6
CONTINUOUS
 10
-21.7548534558868
 20
-80.5419367461459
 30
0.0
 40
0.0
 41
0.0
  0
VERTEX
  5
   46A
  8
0
  6
CONTINUOUS
 10
-21.7855915208996
 20
-80.3752417767327
 30
0.0
 40
0.0
 41
0.0
  0
VERTEX
  5
   46B
  8
0
  6
CONTINUOUS
 10
-21.8174400001523
 20
-80.2088192396554
 30
0.0
 40
0.0
 41
0.0
  0
VERTEX
  5
   46C
  8
0
  6
CONTINUOUS
 10
-21.8485926114315
 20
-80.052023143039
 30
0.0
 40
0.0
 41
0.0
  0
VERTEX
  5
   46D
  8
0
  6
CONTINUOUS
 10
-21.8808434357967
 20
-79.8955045973967
 30
0.0
 40
0.0
 41
0.0
  0
VERTEX
  5
   46E
  8
0
  6
CONTINUOUS
 10
-21.9141938881523
 20
-79.7392672557234
 30
0.0
 40
0.0
 41
0.0
  0
VERTEX
  5
   46F
  8
0
  6
CONTINUOUS
 10
-21.9486151679985
 20
-79.5833069958571
 30
0.0
 40
0.0
 41
0.0
  0
VERTEX
  5
   470
  8
0
  6
CONTINUOUS
 10
-22.0204214891633
 20
-79.2721668977498
 30
0.0
 40
0.0
 41
0.0
  0
VERTEX
  5
   471
  8
0
  6
CONTINUOUS
 10
-22.0955388880097
 20
-78.9619245799997
 30
0.0
 40
0.0
 41
0.0
  0
VERTEX
  5
   472
  8
0
  6
CONTINUOUS
 10
-22.1729476923517
 20
-78.6523443504604
 30
0.0
 40
0.0
 41
0.0
  0
VERTEX
  5
   473
  8
0
  6
CONTINUOUS
 10
-22.3296418809473
 20
-78.0339928423764
 30
0.0
 40
0.0
 41
0.0
  0
VERTEX
  5
   474
  8
0
  6
CONTINUOUS
 10
-22.4062499013441
 20
-77.7245882846374
 30
0.0
 40
0.0
 41
0.0
  0
VERTEX
  5
   475
  8
0
  6
CONTINUOUS
 10
-22.4799818850868
 20
-77.4146276901553
 30
0.0
 40
0.0
 41
0.0
  0
VERTEX
  5
   476
  8
0
  6
CONTINUOUS
 10
-22.5154176334169
 20
-77.2593576150662
 30
0.0
 40
0.0
 41
0.0
  0
VERTEX
  5
   477
  8
0
  6
CONTINUOUS
 10
-22.5497419971972
 20
-77.1038587721852
 30
0.0
 40
0.0
 41
0.0
  0
VERTEX
  5
   478
  8
0
  6
CONTINUOUS
 10
-22.5838079506841
 20
-76.9435607338115
 30
0.0
 40
0.0
 41
0.0
  0
VERTEX
  5
   479
  8
0
  6
CONTINUOUS
 10
-22.6165168198672
 20
-76.7829824546038
 30
0.0
 40
0.0
 41
0.0
  0
VERTEX
  5
   47A
  8
0
  6
CONTINUOUS
 10
-22.6478124796333
 20
-76.6221137761026
 30
0.0
 40
0.0
 41
0.0
  0
VERTEX
  5
   47B
  8
0
  6
CONTINUOUS
 10
-22.677660653265
 20
-76.4609501140481
 30
0.0
 40
0.0
 41
0.0
  0
VERTEX
  5
   47C
  8
0
  6
CONTINUOUS
 10
-22.706047237731
 20
-76.2994919655591
 30
0.0
 40
0.0
 41
0.0
  0
VERTEX
  5
   47D
  8
0
  6
CONTINUOUS
 10
-22.7329766289763
 20
-76.1377444163127
 30
0.0
 40
0.0
 41
0.0
  0
VERTEX
  5
   47E
  8
0
  6
CONTINUOUS
 10
-22.7584700472116
 20
-75.9757166477227
 30
0.0
 40
0.0
 41
0.0
  0
VERTEX
  5
   47F
  8
0
  6
CONTINUOUS
 10
-22.7825638622041
 20
-75.8134214441194
 30
0.0
 40
0.0
 41
0.0
  0
VERTEX
  5
   480
  8
0
  6
CONTINUOUS
 10
-22.8053079185669
 20
-75.6508746999286
 30
0.0
 40
0.0
 41
0.0
  0
VERTEX
  5
   481
  8
0
  6
CONTINUOUS
 10
-22.8267638610497
 20
-75.4880949268503
 30
0.0
 40
0.0
 41
0.0
  0
VERTEX
  5
   482
  8
0
  6
CONTINUOUS
 10
-22.8470034598282
 20
-75.3251027610387
 30
0.0
 40
0.0
 41
0.0
  0
VERTEX
  5
   483
  8
0
  6
CONTINUOUS
 10
-22.8661069357944
 20
-75.1619204702805
 30
0.0
 40
0.0
 41
0.0
  0
VERTEX
  5
   484
  8
0
  6
CONTINUOUS
 10
-22.90125860818
 20
-74.8350797863112
 30
0.0
 40
0.0
 41
0.0
  0
VERTEX
  5
   485
  8
0
  6
CONTINUOUS
 10
-22.932966020691
 20
-74.5077649227029
 30
0.0
 40
0.0
 41
0.0
  0
VERTEX
  5
   486
  8
0
  6
CONTINUOUS
 10
-22.9620043458349
 20
-74.1801624928085
 30
0.0
 40
0.0
 41
0.0
  0
VERTEX
  5
   487
  8
0
  6
CONTINUOUS
 10
-22.9891231954242
 20
-73.852437905306
 30
0.0
 40
0.0
 41
0.0
  0
VERTEX
  5
   488
  8
0
  6
CONTINUOUS
 10
-23.0344696995223
 20
-73.271754735521
 30
0.0
 40
0.0
 41
0.0
  0
VERTEX
  5
   489
  8
0
  6
CONTINUOUS
 10
-23.1238807951754
 20
-72.1115275728402
 30
0.0
 40
0.0
 41
0.0
  0
VERTEX
  5
   48A
  8
0
  6
CONTINUOUS
 10
-23.1715844678662
 20
-71.5319142597446
 30
0.0
 40
0.0
 41
0.0
  0
VERTEX
  5
   48B
  8
0
  6
CONTINUOUS
 10
-23.1968852331092
 20
-71.2421888487594
 30
0.0
 40
0.0
 41
0.0
  0
VERTEX
  5
   48C
  8
0
  6
CONTINUOUS
 10
-23.2234598344785
 20
-70.9525219970083
 30
0.0
 40
0.0
 41
0.0
  0
VERTEX
  5
   48D
  8
0
  6
CONTINUOUS
 10
-23.2527140713387
 20
-70.6517340213439
 30
0.0
 40
0.0
 41
0.0
  0
VERTEX
  5
   48E
  8
0
  6
CONTINUOUS
 10
-23.2840201804479
 20
-70.3510932623222
 30
0.0
 40
0.0
 41
0.0
  0
VERTEX
  5
   48F
  8
0
  6
CONTINUOUS
 10
-23.3178025707904
 20
-70.0506810421647
 30
0.0
 40
0.0
 41
0.0
  0
VERTEX
  5
   490
  8
0
  6
CONTINUOUS
 10
-23.354521290047
 20
-69.7506007207252
 30
0.0
 40
0.0
 41
0.0
  0
VERTEX
  5
   491
  8
0
  6
CONTINUOUS
 10
-23.3946565141741
 20
-69.4509740299762
 30
0.0
 40
0.0
 41
0.0
  0
VERTEX
  5
   492
  8
0
  6
CONTINUOUS
 10
-23.4161570573584
 20
-69.3013729589177
 30
0.0
 40
0.0
 41
0.0
  0
VERTEX
  5
   493
  8
0
  6
CONTINUOUS
 10
-23.4386930369838
 20
-69.1519374084934
 30
0.0
 40
0.0
 41
0.0
  0
VERTEX
  5
   494
  8
0
  6
CONTINUOUS
 10
-23.4623232291385
 20
-69.0026861300587
 30
0.0
 40
0.0
 41
0.0
  0
VERTEX
  5
   495
  8
0
  6
CONTINUOUS
 10
-23.4871047597239
 20
-68.8536383359422
 30
0.0
 40
0.0
 41
0.0
  0
VERTEX
  5
   496
  8
0
  6
CONTINUOUS
 10
-23.5130926197544
 20
-68.7048135848989
 30
0.0
 40
0.0
 41
0.0
  0
VERTEX
  5
   497
  8
0
  6
CONTINUOUS
 10
-23.5403391806567
 20
-68.5562316675625
 30
0.0
 40
0.0
 41
0.0
  0
VERTEX
  5
   498
  8
0
  6
CONTINUOUS
 10
-23.5688937095689
 20
-68.407912491898
 30
0.0
 40
0.0
 41
0.0
  0
VERTEX
  5
   499
  8
0
  6
CONTINUOUS
 10
-23.59880188464
 20
-68.2598759686547
 30
0.0
 40
0.0
 41
0.0
  0
VERTEX
  5
   49A
  8
0
  6
CONTINUOUS
 10
-23.6301053103292
 20
-68.1121418968186
 30
0.0
 40
0.0
 41
0.0
  0
VERTEX
  5
   49B
  8
0
  6
CONTINUOUS
 10
-23.6628410327054
 20
-67.9647298490651
 30
0.0
 40
0.0
 41
0.0
  0
VERTEX
  5
   49C
  8
0
  6
CONTINUOUS
 10
-23.69717577423
 20
-67.8170927593412
 30
0.0
 40
0.0
 41
0.0
  0
VERTEX
  5
   49D
  8
0
  6
CONTINUOUS
 10
-23.7330129938712
 20
-67.6698185300385
 30
0.0
 40
0.0
 41
0.0
  0
VERTEX
  5
   49E
  8
0
  6
CONTINUOUS
 10
-23.7703738508635
 20
-67.5229254514808
 30
0.0
 40
0.0
 41
0.0
  0
VERTEX
  5
   49F
  8
0
  6
CONTINUOUS
 10
-23.8092736963415
 20
-67.3764309200057
 30
0.0
 40
0.0
 41
0.0
  0
VERTEX
  5
   4A0
  8
0
  6
CONTINUOUS
 10
-23.8497219760544
 20
-67.2303512222066
 30
0.0
 40
0.0
 41
0.0
  0
VERTEX
  5
   4A1
  8
0
  6
CONTINUOUS
 10
-23.8917221330795
 20
-67.0847013191737
 30
0.0
 40
0.0
 41
0.0
  0
VERTEX
  5
   4A2
  8
0
  6
CONTINUOUS
 10
-23.9352715105369
 20
-66.9394946307356
 30
0.0
 40
0.0
 41
0.0
  0
VERTEX
  5
   4A3
  8
0
  6
CONTINUOUS
 10
-23.9803612543033
 20
-66.7947428197009
 30
0.0
 40
0.0
 41
0.0
  0
VERTEX
  5
   4A4
  8
0
  6
CONTINUOUS
 10
-24.0269762157262
 20
-66.6504555760988
 30
0.0
 40
0.0
 41
0.0
  0
VERTEX
  5
   4A5
  8
0
  6
CONTINUOUS
 10
-24.075094854338
 20
-66.5066404014215
 30
0.0
 40
0.0
 41
0.0
  0
VERTEX
  5
   4A6
  8
0
  6
CONTINUOUS
 10
-24.12468914057
 20
-66.3633023928646
 30
0.0
 40
0.0
 41
0.0
  0
VERTEX
  5
   4A7
  8
0
  6
CONTINUOUS
 10
-24.1757244584668
 20
-66.2204440275692
 30
0.0
 40
0.0
 41
0.0
  0
VERTEX
  5
   4A8
  8
0
  6
CONTINUOUS
 10
-24.2281595083999
 20
-66.0780649468631
 30
0.0
 40
0.0
 41
0.0
  0
VERTEX
  5
   4A9
  8
0
  6
CONTINUOUS
 10
-24.2819462097825
 20
-65.9361617405019
 30
0.0
 40
0.0
 41
0.0
  0
VERTEX
  5
   4AA
  8
0
  6
CONTINUOUS
 10
-24.3370296037829
 20
-65.7947277309106
 30
0.0
 40
0.0
 41
0.0
  0
VERTEX
  5
   4AB
  8
0
  6
CONTINUOUS
 10
-24.3933477560391
 20
-65.6537527574249
 30
0.0
 40
0.0
 41
0.0
  0
VERTEX
  5
   4AC
  8
0
  6
CONTINUOUS
 10
-24.4508316593727
 20
-65.513222960533
 30
0.0
 40
0.0
 41
0.0
  0
VERTEX
  5
   4AD
  8
0
  6
CONTINUOUS
 10
-24.509405136503
 20
-65.3731205661161
 30
0.0
 40
0.0
 41
0.0
  0
VERTEX
  5
   4AE
  8
0
  6
CONTINUOUS
 10
-24.6294796688046
 20
-65.0941060206492
 30
0.0
 40
0.0
 41
0.0
  0
VERTEX
  5
   4AF
  8
0
  6
CONTINUOUS
 10
-24.7092396806113
 20
-64.9137089834762
 30
0.0
 40
0.0
 41
0.0
  0
VERTEX
  5
   4B0
  8
0
  6
CONTINUOUS
 10
-24.7901440499409
 20
-64.7338203622558
 30
0.0
 40
0.0
 41
0.0
  0
VERTEX
  5
   4B1
  8
0
  6
CONTINUOUS
 10
-24.9543835540845
 20
-64.3752026326267
 30
0.0
 40
0.0
 41
0.0
  0
VERTEX
  5
   4B2
  8
0
  6
CONTINUOUS
 10
-25.2853685223453
 20
-63.659756875386
 30
0.0
 40
0.0
 41
0.0
  0
VERTEX
  5
   4B3
  8
0
  6
CONTINUOUS
 10
-25.4482904844485
 20
-63.301318468244
 30
0.0
 40
0.0
 41
0.0
  0
SEQEND
  5
   4B4
  8
0
  6
CONTINUOUS
 62
     1
  0
TEXT
  5
   4B5
  8
0
  6
CONTINUOUS
 62
     7
 10
33.3774738301805
 20
-46.9088619364973
 30
0.0
 40
3.00000002980232
  1
=
 50
89.9999999480344
 41
0.916666604744064
 72
     2
 11
33.377473832173
 21
-44.7088620676275
 31
0.0
  0
TEXT
  5
   4B6
  8
0
  6
CONTINUOUS
 62
     7
 10
33.8943080892137
 20
-6.42361813919503
 30
0.0
 40
3.00000002980232
  1
=
 50
89.9999999480344
 41
0.916666604744064
 72
     2
 11
33.8943080912063
 21
-4.22361827032525
 31
0.0
  0
INSERT
  5
   4B7
  8
0
  6
CONTINUOUS
 62
     7
  2
*UDIM1351
 10
0.0
 20
0.0
 30
0.0
  0
INSERT
  5
   4B8
  8
0
  6
CONTINUOUS
 62
     7
  2
*UDIM1352
 10
0.0
 20
0.0
 30
0.0
  0
TEXT
  5
   4B9
  8
0
  6
CONTINUOUS
 62
     7
 10
-12.2084212257066
 20
-94.0177153809856
 30
0.0
 40
3.00000002980232
  1
Y
 50
359.999999948034
 41
0.916666604744064
 72
     2
 11
-10.0084213568369
 21
-94.0177153829699
 31
0.0
  0
INSERT
  5
   4BA
  8
0
  6
CONTINUOUS
 62
     7
  2
*UDIM1353
 10
0.0
 20
0.0
 30
0.0
  0
INSERT
  5
   4BB
  8
0
  6
CONTINUOUS
 62
     7
  2
*UDIM1354
 10
0.0
 20
0.0
 30
0.0
  0
TEXT
  5
   4BC
  8
0
  6
CONTINUOUS
 62
     7
 10
-11.5242456747689
 20
51.3282389239479
 30
0.0
 40
3.00000002980232
  1
Y
 50
359.999999948034
 41
0.916666604744064
 72
     2
 11
-9.32424580589913
 21
51.3282389219636
 31
0.0
  0
TEXT
  5
   4BD
  8
0
  6
CONTINUOUS
 62
     7
 10
41.1897217677436
 20
-24.3048410816979
 30
0.0
 40
3.00000002980232
  1
X
 50
359.999999948034
 41
0.916666604744064
 72
     2
 11
43.3897216366134
 21
-24.3048410836822
 31
0.0
  0
TEXT
  5
   4BE
  8
0
  6
CONTINUOUS
 62
     7
 10
-78.4338324619927
 20
-24.2846246167015
 30
0.0
 40
3.00000002980232
  1
X
 50
359.999999948034
 41
0.916666604744064
 72
     2
 11
-76.2338325931229
 21
-24.2846246186858
 31
0.0
  0
INSERT
  5
   4BF
  8
0
  6
CONTINUOUS
 62
     7
  2
*UDIM1355
 10
0.0
 20
0.0
 30
0.0
  0
INSERT
  5
   4C0
  8
0
  6
CONTINUOUS
 62
     7
  2
*UDIM1356
 10
0.0
 20
0.0
 30
0.0
  0
INSERT
  5
   4C1
  8
0
  6
CONTINUOUS
 62
     7
  2
*UDIM1357
 10
0.0
 20
0.0
 30
0.0
  0
INSERT
  5
   4C2
  8
0
  6
CONTINUOUS
 62
     7
  2
*UDIM1358
 10
0.0
 20
0.0
 30
0.0
  0
LINE
  5
   4C3
  8
0
  6
DASHDOT
 62
     7
 10
-40.0271911621094
 20
-107.085102614936
 30
0.0
 11
-40.0271911621094
 21
-124.783316208813
 31
0.0
  0
LINE
  5
   4C4
  8
0
  6
DASHDOT
 62
     7
 10
-32.5389099042154
 20
-118.118301391602
 30
0.0
 11
-48.5783287806986
 21
-118.118301391602
 31
0.0
  0
LINE
  5
   4C5
  8
0
  6
DASHDOT
 62
     7
 10
-33.508325330816
 20
-152.868301391602
 30
0.0
 11
-48.5783287806986
 21
-152.868301391602
 31
0.0
  0
LINE
  5
   4C6
  8
0
  6
DASHDOT
 62
     7
 10
-44.4021911621094
 20
-115.163425382663
 30
0.0
 11
-44.4021911621094
 21
-157.024546076782
 31
0.0
  0
LINE
  5
   4C7
  8
0
  6
DASHDOT
 62
     7
 10
-35.6521911621094
 20
-114.810910682081
 30
0.0
 11
-35.6521911621094
 21
-156.760160051345
 31
0.0
  0
LINE
  5
   4C8
  8
0
  6
CONTINUOUS
 62
     3
 10
-51.9021911621094
 20
-107.76061667044
 30
0.0
 11
-51.9021911621094
 21
-163.634196712695
 31
0.0
  0
LINE
  5
   4C9
  8
0
  6
CONTINUOUS
 62
     3
 10
-28.1521911621094
 20
-107.76061667044
 30
0.0
 11
-28.1521911621094
 21
-163.369810687259
 31
0.0
  0
LINE
  5
   4CA
  8
0
  6
CONTINUOUS
 62
     3
 10
-23.8141710648097
 20
-110.618301391602
 30
0.0
 11
-53.8660492894294
 21
-110.618301391602
 31
0.0
  0
LINE
  5
   4CB
  8
0
  6
CONTINUOUS
 62
     3
 10
-24.8717151665558
 20
-160.368301391602
 30
0.0
 11
-54.83546471603
 21
-160.368301391602
 31
0.0
  0
CIRCLE
  5
   4CC
  8
0
  6
CONTINUOUS
 62
     7
 10
-44.4021911621094
 20
-118.118301391602
 30
0.0
 40
0.6875
  0
CIRCLE
  5
   4CD
  8
0
  6
CONTINUOUS
 62
     7
 10
-35.6521911621094
 20
-118.118301391602
 30
0.0
 40
0.6875
  0
CIRCLE
  5
   4CE
  8
0
  6
CONTINUOUS
 62
     7
 10
-44.4021911621094
 20
-152.868301391602
 30
0.0
 40
0.6875
  0
CIRCLE
  5
   4CF
  8
0
  6
CONTINUOUS
 62
     7
 10
-35.6521911621094
 20
-152.868301391602
 30
0.0
 40
0.6875
  0
CIRCLE
  5
   4D0
  8
0
  6
CONTINUOUS
 62
     7
 10
-48.2258140801166
 20
-114.848491808519
 30
0.0
 40
0.1
  0
LINE
  5
   4D1
  8
0
  6
DASHDOT
 62
     7
 10
-26.1131830363371
 20
-136.055801391602
 30
0.0
 11
-55.0307328900236
 21
-136.055801391602
 31
0.0
  0
LINE
  5
   4D2
  8
0
  6
DASHDOT
 62
     7
 10
-40.0271911621094
 20
-131.642237257564
 30
0.0
 11
-40.0271911621094
 21
-163.507610713337
 31
0.0
  0
INSERT
  5
   4D3
  8
0
  6
CONTINUOUS
 62
     7
  2
*UDIM1359
 10
0.0
 20
0.0
 30
0.0
  0
TEXT
  5
   4D4
  8
0
  6
CONTINUOUS
 62
     7
 10
-43.8193802860691
 20
-134.907873896755
 30
0.0
 40
3.00000002980232
  1
=
 50
359.999999896069
 41
0.916666604744064
 72
     2
 11
-41.6193804171993
 21
-134.907873900734
 31
0.0
  0
TEXT
  5
   4D5
  8
0
  6
CONTINUOUS
 62
     7
 10
-38.091016533704
 20
-135.172259835399
 30
0.0
 40
3.00000002980232
  1
=
 50
359.999999896069
 41
0.916666604744064
 72
     2
 11
-35.8910166648342
 21
-135.172259839379
 31
0.0
  0
INSERT
  5
   4D6
  8
0
  6
CONTINUOUS
 62
     7
  2
*UDIM1360
 10
0.0
 20
0.0
 30
0.0
  0
TEXT
  5
   4D7
  8
0
  6
CONTINUOUS
 62
     7
 10
-40.3605878380253
 20
-169.877740887798
 30
0.0
 40
3.00000002980232
  1
Y
 50
359.999999896069
 41
0.916666604744064
 72
     2
 11
-38.1605879691555
 21
-169.877740891777
 31
0.0
  0
TEXT
  5
   4D8
  8
0
  6
CONTINUOUS
 62
     7
 10
-41.0128711489155
 20
-105.247333554424
 30
0.0
 40
3.00000002980232
  1
Y
 50
359.999999896069
 41
0.916666604744064
 72
     2
 11
-38.8128712800457
 21
-105.247333558403
 31
0.0
  0
TEXT
  5
   4D9
  8
0
  6
CONTINUOUS
 62
     7
 10
-72.5590858486606
 20
-137.013222364582
 30
0.0
 40
3.00000002980232
  1
X
 50
359.999999896069
 41
0.916666604744064
 72
     2
 11
-70.3590859797909
 21
-137.013222368561
 31
0.0
  0
TEXT
  5
   4DA
  8
0
  6
CONTINUOUS
 62
     7
 10
-23.8268756893589
 20
-137.351934460796
 30
0.0
 40
3.00000002980232
  1
X
 50
359.999999896069
 41
0.916666604744064
 72
     2
 11
-21.6268758204891
 21
-137.351934464776
 31
0.0
  0
INSERT
  5
   4DB
  8
0
  6
CONTINUOUS
 62
     7
  2
*UDIM1361
 10
0.0
 20
0.0
 30
0.0
  0
INSERT
  5
   4DC
  8
0
  6
CONTINUOUS
 62
     7
  2
*UDIM1362
 10
0.0
 20
0.0
 30
0.0
  0
LINE
  5
   4DD
  8
0
  6
CONTINUOUS
 62
     7
 10
227.075653076172
 20
-8.50344228744507
 30
0.0
 11
255.075653076172
 21
-8.50344228744507
 31
0.0
  0
LINE
  5
   4DE
  8
0
  6
CONTINUOUS
 62
     7
 10
227.075653076172
 20
19.4965577125549
 30
0.0
 11
255.075653076172
 21
19.4965577125549
 31
0.0
  0
LINE
  5
   4DF
  8
0
  6
CONTINUOUS
 62
     7
 10
227.075653076172
 20
19.4965577125549
 30
0.0
 11
227.075653076172
 21
-8.50344228744507
 31
0.0
  0
LINE
  5
   4E0
  8
0
  6
CONTINUOUS
 62
     7
 10
255.075653076172
 20
19.4965577125549
 30
0.0
 11
255.075653076172
 21
-8.50344228744507
 31
0.0
  0
LINE
  5
   4E1
  8
0
  6
DASHDOT
 62
     7
 10
241.075653076172
 20
34.5905209585305
 30
0.0
 11
241.075653076172
 21
-24.5402325652523
 31
0.0
  0
CIRCLE
  5
   4E2
  8
0
  6
CONTINUOUS
 62
     7
 10
231.075653076172
 20
23.2465577125549
 30
0.0
 40
0.875
  0
CIRCLE
  5
   4E3
  8
0
  6
CONTINUOUS
 62
     7
 10
251.075653076172
 20
23.2465577125549
 30
0.0
 40
0.875
  0
CIRCLE
  5
   4E4
  8
0
  6
CONTINUOUS
 62
     7
 10
251.075653076172
 20
-12.2534422874451
 30
0.0
 40
0.875
  0
CIRCLE
  5
   4E5
  8
0
  6
CONTINUOUS
 62
     7
 10
231.075653076172
 20
-12.2534422874451
 30
0.0
 40
0.875
  0
LINE
  5
   4E6
  8
0
  6
CONTINUOUS
 62
     3
 10
223.111157406757
 20
25.5963580098462
 30
0.0
 11
258.914526676743
 21
25.5963580098462
 31
0.0
  0
LINE
  5
   4E7
  8
0
  6
CONTINUOUS
 62
     3
 10
223.111157406757
 20
-15.608923114909
 30
0.0
 11
258.914526676743
 21
-15.608923114909
 31
0.0
  0
LINE
  5
   4E8
  8
0
  6
CONTINUOUS
 62
     3
 10
258.914526676743
 20
25.5963580098462
 30
0.0
 11
258.914526676743
 21
-15.608923114909
 31
0.0
  0
LINE
  5
   4E9
  8
0
  6
CONTINUOUS
 62
     3
 10
223.111157406757
 20
25.5963580098462
 30
0.0
 11
223.111157406757
 21
-15.608923114909
 31
0.0
  0
LINE
  5
   4EA
  8
0
  6
DASHDOT
 62
     7
 10
251.075653076172
 20
24.8715577125549
 30
0.0
 11
251.075653076172
 21
21.6215577125549
 31
0.0
  0
LINE
  5
   4EB
  8
0
  6
DASHDOT
 62
     7
 10
249.450653076172
 20
23.2465577125549
 30
0.0
 11
252.700653076172
 21
23.2465577125549
 31
0.0
  0
LINE
  5
   4EC
  8
0
  6
DASHDOT
 62
     7
 10
231.075653076172
 20
24.8715577125549
 30
0.0
 11
231.075653076172
 21
21.6215577125549
 31
0.0
  0
LINE
  5
   4ED
  8
0
  6
DASHDOT
 62
     7
 10
229.450653076172
 20
23.2465577125549
 30
0.0
 11
232.700653076172
 21
23.2465577125549
 31
0.0
  0
LINE
  5
   4EE
  8
0
  6
DASHDOT
 62
     7
 10
231.075653076172
 20
-10.6284422874451
 30
0.0
 11
231.075653076172
 21
-13.8784422874451
 31
0.0
  0
LINE
  5
   4EF
  8
0
  6
DASHDOT
 62
     7
 10
229.450653076172
 20
-12.2534422874451
 30
0.0
 11
232.700653076172
 21
-12.2534422874451
 31
0.0
  0
LINE
  5
   4F0
  8
0
  6
DASHDOT
 62
     7
 10
251.075653076172
 20
-10.6284422874451
 30
0.0
 11
251.075653076172
 21
-13.8784422874451
 31
0.0
  0
LINE
  5
   4F1
  8
0
  6
DASHDOT
 62
     7
 10
249.450653076172
 20
-12.2534422874451
 30
0.0
 11
252.700653076172
 21
-12.2534422874451
 31
0.0
  0
CIRCLE
  5
   4F2
  8
0
  6
CONTINUOUS
 62
     7
 10
224.744289886705
 20
24.2748069587526
 30
0.0
 40
0.0625
  0
LINE
  5
   4F3
  8
0
  6
DASHDOT
 62
     7
 10
215.709795522815
 20
5.49655771255493
 30
0.0
 11
268.705946375543
 21
5.49655771255493
 31
0.0
  0
TEXT
  5
   4F4
  8
0
  6
CONTINUOUS
 62
     1
 10
137.156993289058
 20
-193.609703603654
 30
0.0
 40
2.00000008940697
  1
M 3076 95-01-16
 50
359.999999844103
 41
0.749999861419206
 72
     2
 11
159.356990171735
 21
-193.609703663947
 31
0.0
  0
TEXT
  5
   4F5
  8
0
  6
CONTINUOUS
 62
     1
 10
130.442901620537
 20
-178.46338788207
 30
0.0
 40
2.00000008940697
  1
93-04-05 ROTA S.
 50
359.999999844103
 41
0.749999861419206
 72
     2
 11
154.142898293108
 21
-178.463387946436
 31
0.0
  0
TEXT
  5
   4F6
  8
0
  6
CONTINUOUS
 62
     7
 10
233.825649050769
 20
32.0344354544424
 30
0.0
 40
3.00000002980232
  1
=   =
 50
359.999999844103
 41
0.916666604744064
 72
     2
 11
247.025648285843
 21
32.0344354185927
 31
0.0
  0
TEXT
  5
   4F7
  8
0
  6
CONTINUOUS
 62
     7
 10
232.609299607473
 20
40.5547162360863
 30
0.0
 40
3.00000002980232
  1
=    =
 50
359.999999844103
 41
0.916666604744064
 72
     2
 11
248.559298684098
 21
40.5547161927679
 31
0.0
  0
TEXT
  5
   4F8
  8
0
  6
CONTINUOUS
 62
     7
 10
214.516955438478
 20
-4.76734178771072
 30
0.0
 40
3.00000002980232
  1
=     =
 50
449.999999844103
 41
0.916666604744064
 72
     2
 11
214.516955489242
 21
13.932657130465
 31
0.0
  0
TEXT
  5
   4F9
  8
0
  6
CONTINUOUS
 62
     7
 10
204.803835683765
 20
-6.85922894487274
 30
0.0
 40
3.00000002980232
  1
=       =
 50
449.999999844103
 41
0.916666604744064
 72
     2
 11
204.803835749459
 21
17.3407696564049
 31
0.0
  0
INSERT
  5
   4FA
  8
0
  6
CONTINUOUS
 62
     7
  2
*UDIM1363
 10
0.0
 20
0.0
 30
0.0
  0
INSERT
  5
   4FB
  8
0
  6
CONTINUOUS
 62
     7
  2
*UDIM1364
 10
0.0
 20
0.0
 30
0.0
  0
INSERT
  5
   4FC
  8
0
  6
CONTINUOUS
 62
     7
  2
*UDIM1365
 10
0.0
 20
0.0
 30
0.0
  0
INSERT
  5
   4FD
  8
0
  6
CONTINUOUS
 62
     7
  2
*UDIM1366
 10
0.0
 20
0.0
 30
0.0
  0
INSERT
  5
   4FE
  8
0
  6
CONTINUOUS
 62
     7
  2
*UDIM1367
 10
0.0
 20
0.0
 30
0.0
  0
TEXT
  5
   4FF
  8
0
  6
CONTINUOUS
 62
     7
 10
239.883885135151
 20
-27.948346683974
 30
0.0
 40
3.00000002980232
  1
Y
 50
359.999999844103
 41
0.916666604744064
 72
     2
 11
242.083885004021
 21
-27.9483466899489
 31
0.0
  0
TEXT
  5
   500
  8
0
  6
CONTINUOUS
 62
     7
 10
240.054290761448
 20
49.9270271563581
 30
0.0
 40
3.00000002980232
  1
Y
 50
359.999999844103
 41
0.916666604744064
 72
     2
 11
242.254290630318
 21
49.9270271503831
 31
0.0
  0
TEXT
  5
   501
  8
0
  6
CONTINUOUS
 62
     7
 10
270.556900133587
 20
4.0879132056287
 30
0.0
 40
3.00000002980232
  1
X
 50
359.999999844103
 41
0.916666604744064
 72
     2
 11
272.756900002457
 21
4.08791319965375
 31
0.0
  0
TEXT
  5
   502
  8
0
  6
CONTINUOUS
 62
     7
 10
191.659092058636
 20
4.0879132056287
 30
0.0
 40
3.00000002980232
  1
X
 50
359.999999844103
 41
0.916666604744064
 72
     2
 11
193.859091927506
 21
4.08791319965375
 31
0.0
  0
TEXT
  5
   503
  8
0
  6
CONTINUOUS
 62
     1
 10
231.973709124863
 20
-204.689858823212
 30
0.0
 40
4.00000017881393
  1
601812/001
 50
359.999999844103
 41
0.937499973922969
 72
     2
 11
268.723709724635
 21
-204.68985892302
 31
0.0
  0
TEXT
  5
   504
  8
0
  6
CONTINUOUS
 62
     1
 10
250.059402479634
 20
-195.708276265387
 30
0.0
 40
3.00000002980232
  1
S3
 50
359.999999844103
 41
0.916666604744064
 72
     2
 11
255.009402190055
 21
-195.70827627883
 31
0.0
  0
TEXT
  5
   505
  8
0
  6
CONTINUOUS
 62
     1
 10
221.524982720872
 20
-177.398004022483
 30
0.0
 40
2.00000008940697
  1
3POLE LOW VOLTAGE M.C.C.B SERIES ISOMAX
 50
359.999999844103
 41
0.749999861419206
 72
     1
 11
250.62497864365
 21
-176.398004056812
 31
0.0
 73
     2
  0
TEXT
  5
   506
  8
0
  6
CONTINUOUS
 62
     1
 10
229.024981706115
 20
-180.398004042852
 30
0.0
 40
2.00000008940697
  1
FIXED VERSION TERMINALS CABLE
 50
359.999999844103
 41
0.749999861419206
 72
     1
 11
250.624978679425
 21
-179.398004056812
 31
0.0
 73
     2
  0
TEXT
  5
   507
  8
0
  6
CONTINUOUS
 62
     1
 10
224.727374353518
 20
-185.468270764448
 30
0.0
 40
2.00000008940697
  1
INTERR.AUTOMATICO SERIE ISOMAX
 50
359.999999844103
 41
0.749999861419206
 72
     1
 11
247.077371221775
 21
-184.468270780445
 31
0.0
 73
     2
  0
TEXT
  5
   508
  8
0
  6
CONTINUOUS
 62
     1
 10
217.227375439825
 20
-188.468270744079
 30
0.0
 40
2.00000008940697
  1
TRIPOL.ESECUZIONE FISSA TERMINALI X CAVI
 50
359.999999844103
 41
0.749999861419206
 72
     1
 11
247.077371257549
 21
-187.468270780445
 31
0.0
 73
     2
  0
LINE
  5
   509
  8
0
  6
CONTINUOUS
 62
   218
 10
115.326018810272
 20
-64.4264678842881
 30
0.0
 11
103.826018810272
 21
-64.4264678842881
 31
0.0
  0
LINE
  5
   50A
  8
0
  6
CONTINUOUS
 62
   218
 10
115.326018810272
 20
-70.6264678842881
 30
0.0
 11
103.826018810272
 21
-70.6264678842881
 31
0.0
  0
LINE
  5
   50B
  8
0
  6
CONTINUOUS
 62
   218
 10
115.326018810272
 20
-70.6264678842881
 30
0.0
 11
115.326018810272
 21
-64.4264678842881
 31
0.0
  0
LINE
  5
   50C
  8
0
  6
CONTINUOUS
 62
   218
 10
103.826018810272
 20
-71.5264678842881
 30
0.0
 11
103.826018810272
 21
-63.5264678842881
 31
0.0
  0
LINE
  5
   50D
  8
0
  6
DASHDOT
 62
   218
 10
117.856651744883
 20
-67.5264678842881
 30
0.0
 11
93.51993923906
 21
-67.5264678842881
 31
0.0
  0
LINE
  5
   50E
  8
0
  6
CONTINUOUS
 62
   218
 10
103.826018810272
 20
-71.5264678842881
 30
0.0
 11
89.51993923906
 21
-71.5264678842881
 31
0.0
  0
LINE
  5
   50F
  8
0
  6
CONTINUOUS
 62
   218
 10
103.826018810272
 20
-63.5264678842881
 30
0.0
 11
89.51993923906
 21
-63.5264678842881
 31
0.0
  0
LINE
  5
   510
  8
0
  6
CONTINUOUS
 62
   218
 10
115.326018810272
 20
-67.5264678842881
 30
0.0
 11
103.826018810272
 21
-65.4987076061408
 31
0.0
  0
POLYLINE
  5
   511
  8
0
  6
CONTINUOUS
 62
   218
 66
     1
 10
0.0
 20
0.0
 30
0.0
 70
     1
  0
VERTEX
  5
   512
  8
0
  6
CONTINUOUS
 10
89.519939239065
 20
-71.5264678842881
 30
0.0
 40
0.0
 41
0.0
  0
VERTEX
  5
   513
  8
0
  6
CONTINUOUS
 10
89.544480467588
 20
-71.5258655216805
 30
0.0
 40
0.0
 41
0.0
  0
VERTEX
  5
   514
  8
0
  6
CONTINUOUS
 10
89.5690069133924
 20
-71.5240587966984
 30
0.0
 40
0.0
 41
0.0
  0
VERTEX
  5
   515
  8
0
  6
CONTINUOUS
 10
89.5935038026647
 20
-71.5210487976453
 30
0.0
 40
0.0
 41
0.0
  0
VERTEX
  5
   516
  8
0
  6
CONTINUOUS
 10
89.6179563793946
 20
-71.5168373376323
 30
0.0
 40
0.0
 41
0.0
  0
VERTEX
  5
   517
  8
0
  6
CONTINUOUS
 10
89.6423499142642
 20
-71.5114269534852
 30
0.0
 40
0.0
 41
0.0
  0
VERTEX
  5
   518
  8
0
  6
CONTINUOUS
 10
89.6666697135204
 20
-71.5048209042173
 30
0.0
 40
0.0
 41
0.0
  0
VERTEX
  5
   519
  8
0
  6
CONTINUOUS
 10
89.6909011278253
 20
-71.4970231690656
 30
0.0
 40
0.0
 41
0.0
  0
VERTEX
  5
   51A
  8
0
  6
CONTINUOUS
 10
89.7150295610811
 20
-71.4880384450941
 30
0.0
 40
0.0
 41
0.0
  0
VERTEX
  5
   51B
  8
0
  6
CONTINUOUS
 10
89.7390404792218
 20
-71.4778721443646
 30
0.0
 40
0.0
 41
0.0
  0
VERTEX
  5
   51C
  8
0
  6
CONTINUOUS
 10
89.7629194189682
 20
-71.4665303906766
 30
0.0
 40
0.0
 41
0.0
  0
VERTEX
  5
   51D
  8
0
  6
CONTINUOUS
 10
89.7866519965397
 20
-71.4540200158783
 30
0.0
 40
0.0
 41
0.0
  0
VERTEX
  5
   51E
  8
0
  6
CONTINUOUS
 10
89.8102239163193
 20
-71.4403485557518
 30
0.0
 40
0.0
 41
0.0
  0
VERTEX
  5
   51F
  8
0
  6
CONTINUOUS
 10
89.8336209794637
 20
-71.4255242454734
 30
0.0
 40
0.0
 41
0.0
  0
VERTEX
  5
   520
  8
0
  6
CONTINUOUS
 10
89.856829092457
 20
-71.4095560146533
 30
0.0
 40
0.0
 41
0.0
  0
VERTEX
  5
   521
  8
0
  6
CONTINUOUS
 10
89.8798342755997
 20
-71.3924534819567
 30
0.0
 40
0.0
 41
0.0
  0
VERTEX
  5
   522
  8
0
  6
CONTINUOUS
 10
89.9026226714297
 20
-71.3742269493097
 30
0.0
 40
0.0
 41
0.0
  0
VERTEX
  5
   523
  8
0
  6
CONTINUOUS
 10
89.9474943324948
 20
-71.3344464705339
 30
0.0
 40
0.0
 41
0.0
  0
VERTEX
  5
   524
  8
0
  6
CONTINUOUS
 10
89.9913359758904
 20
-71.2903104129837
 30
0.0
 40
0.0
 41
0.0
  0
VERTEX
  5
   525
  8
0
  6
CONTINUOUS
 10
90.0340419832575
 20
-71.2419251042874
 30
0.0
 40
0.0
 41
0.0
  0
VERTEX
  5
   526
  8
0
  6
CONTINUOUS
 10
90.0755094720838
 20
-71.1894071088918
 30
0.0
 40
0.0
 41
0.0
  0
VERTEX
  5
   527
  8
0
  6
CONTINUOUS
 10
90.1156385435565
 20
-71.1328829472479
 30
0.0
 40
0.0
 41
0.0
  0
VERTEX
  5
   528
  8
0
  6
CONTINUOUS
 10
90.1543325232275
 20
-71.072488791012
 30
0.0
 40
0.0
 41
0.0
  0
VERTEX
  5
   529
  8
0
  6
CONTINUOUS
 10
90.1914981939107
 20
-71.0083701349964
 30
0.0
 40
0.0
 41
0.0
  0
VERTEX
  5
   52A
  8
0
  6
CONTINUOUS
 10
90.2270460202501
 20
-70.9406814466595
 30
0.0
 40
0.0
 41
0.0
  0
VERTEX
  5
   52B
  8
0
  6
CONTINUOUS
 10
90.2608903644184
 20
-70.8695857939803
 30
0.0
 40
0.0
 41
0.0
  0
VERTEX
  5
   52C
  8
0
  6
CONTINUOUS
 10
90.2929496924259
 20
-70.7952544526135
 30
0.0
 40
0.0
 41
0.0
  0
VERTEX
  5
   52D
  8
0
  6
CONTINUOUS
 10
90.3231467705436
 20
-70.717866493271
 30
0.0
 40
0.0
 41
0.0
  0
VERTEX
  5
   52E
  8
0
  6
CONTINUOUS
 10
90.3514088513653
 20
-70.6376083503253
 30
0.0
 40
0.0
 41
0.0
  0
VERTEX
  5
   52F
  8
0
  6
CONTINUOUS
 10
90.3776678490629
 20
-70.5546733726724
 30
0.0
 40
0.0
 41
0.0
  0
VERTEX
  5
   530
  8
0
  6
CONTINUOUS
 10
90.4018605034107
 20
-70.4692613579379
 30
0.0
 40
0.0
 41
0.0
  0
VERTEX
  5
   531
  8
0
  6
CONTINUOUS
 10
90.4239285321856
 20
-70.3815780711464
 30
0.0
 40
0.0
 41
0.0
  0
VERTEX
  5
   532
  8
0
  6
CONTINUOUS
 10
90.4438187715732
 20
-70.291834749016
 30
0.0
 40
0.0
 41
0.0
  0
VERTEX
  5
   533
  8
0
  6
CONTINUOUS
 10
90.4614833042447
 20
-70.2002475910702
 30
0.0
 40
0.0
 41
0.0
  0
VERTEX
  5
   534
  8
0
  6
CONTINUOUS
 10
90.4768795747937
 20
-70.1070372387947
 30
0.0
 40
0.0
 41
0.0
  0
VERTEX
  5
   535
  8
0
  6
CONTINUOUS
 10
90.4899704922558
 20
-70.0124282440922
 30
0.0
 40
0.0
 41
0.0
  0
VERTEX
  5
   536
  8
0
  6
CONTINUOUS
 10
90.5007245194642
 20
-69.9166485283179
 30
0.0
 40
0.0
 41
0.0
  0
VERTEX
  5
   537
  8
0
  6
CONTINUOUS
 10
90.5091157490255
 20
-69.8199288331964
 30
0.0
 40
0.0
 41
0.0
  0
VERTEX
  5
   538
  8
0
  6
CONTINUOUS
 10
90.5151239657327
 20
-69.7225021649448
 30
0.0
 40
0.0
 41
0.0
  0
VERTEX
  5
   539
  8
0
  6
CONTINUOUS
 10
90.5187346952654
 20
-69.6246032329405
 30
0.0
 40
0.0
 41
0.0
  0
VERTEX
  5
   53A
  8
0
  6
CONTINUOUS
 10
90.51993923906
 20
-69.5264678842856
 30
0.0
 40
0.0
 41
0.0
  0
VERTEX
  5
   53B
  8
0
  6
CONTINUOUS
 10
90.5187346952649
 20
-69.4283325356308
 30
0.0
 40
0.0
 41
0.0
  0
VERTEX
  5
   53C
  8
0
  6
CONTINUOUS
 10
90.5151239657317
 20
-69.3304336036265
 30
0.0
 40
0.0
 41
0.0
  0
VERTEX
  5
   53D
  8
0
  6
CONTINUOUS
 10
90.5091157490241
 20
-69.2330069353749
 30
0.0
 40
0.0
 41
0.0
  0
VERTEX
  5
   53E
  8
0
  6
CONTINUOUS
 10
90.5007245194623
 20
-69.1362872402534
 30
0.0
 40
0.0
 41
0.0
  0
VERTEX
  5
   53F
  8
0
  6
CONTINUOUS
 10
90.4899704922533
 20
-69.0405075244792
 30
0.0
 40
0.0
 41
0.0
  0
VERTEX
  5
   540
  8
0
  6
CONTINUOUS
 10
90.4768795747908
 20
-68.9458985297768
 30
0.0
 40
0.0
 41
0.0
  0
VERTEX
  5
   541
  8
0
  6
CONTINUOUS
 10
90.4614833042413
 20
-68.8526881775013
 30
0.0
 40
0.0
 41
0.0
  0
VERTEX
  5
   542
  8
0
  6
CONTINUOUS
 10
90.4438187715694
 20
-68.7611010195556
 30
0.0
 40
0.0
 41
0.0
  0
VERTEX
  5
   543
  8
0
  6
CONTINUOUS
 10
90.4239285321813
 20
-68.6713576974253
 30
0.0
 40
0.0
 41
0.0
  0
VERTEX
  5
   544
  8
0
  6
CONTINUOUS
 10
90.401860503406
 20
-68.5836744106339
 30
0.0
 40
0.0
 41
0.0
  0
VERTEX
  5
   545
  8
0
  6
CONTINUOUS
 10
90.3776678490577
 20
-68.4982623958995
 30
0.0
 40
0.0
 41
0.0
  0
VERTEX
  5
   546
  8
0
  6
CONTINUOUS
 10
90.3514088513598
 20
-68.4153274182468
 30
0.0
 40
0.0
 41
0.0
  0
VERTEX
  5
   547
  8
0
  6
CONTINUOUS
 10
90.3231467705377
 20
-68.3350692753013
 30
0.0
 40
0.0
 41
0.0
  0
VERTEX
  5
   548
  8
0
  6
CONTINUOUS
 10
90.2929496924196
 20
-68.2576813159589
 30
0.0
 40
0.0
 41
0.0
  0
VERTEX
  5
   549
  8
0
  6
CONTINUOUS
 10
90.2608903644116
 20
-68.1833499745922
 30
0.0
 40
0.0
 41
0.0
  0
VERTEX
  5
   54A
  8
0
  6
CONTINUOUS
 10
90.227046020243
 20
-68.1122543219133
 30
0.0
 40
0.0
 41
0.0
  0
VERTEX
  5
   54B
  8
0
  6
CONTINUOUS
 10
90.1914981939033
 20
-68.0445656335765
 30
0.0
 40
0.0
 41
0.0
  0
VERTEX
  5
   54C
  8
0
  6
CONTINUOUS
 10
90.1543325232198
 20
-67.9804469775611
 30
0.0
 40
0.0
 41
0.0
  0
VERTEX
  5
   54D
  8
0
  6
CONTINUOUS
 10
90.1156385435484
 20
-67.9200528213253
 30
0.0
 40
0.0
 41
0.0
  0
VERTEX
  5
   54E
  8
0
  6
CONTINUOUS
 10
90.0755094720754
 20
-67.8635286596817
 30
0.0
 40
0.0
 41
0.0
  0
VERTEX
  5
   54F
  8
0
  6
CONTINUOUS
 10
90.0340419832489
 20
-67.8110106642863
 30
0.0
 40
0.0
 41
0.0
  0
VERTEX
  5
   550
  8
0
  6
CONTINUOUS
 10
89.9913359758816
 20
-67.7626253555902
 30
0.0
 40
0.0
 41
0.0
  0
VERTEX
  5
   551
  8
0
  6
CONTINUOUS
 10
89.9474943324858
 20
-67.7184892980402
 30
0.0
 40
0.0
 41
0.0
  0
VERTEX
  5
   552
  8
0
  6
CONTINUOUS
 10
89.9026226714205
 20
-67.6787088192646
 30
0.0
 40
0.0
 41
0.0
  0
VERTEX
  5
   553
  8
0
  6
CONTINUOUS
 10
89.8798342755903
 20
-67.6604822866178
 30
0.0
 40
0.0
 41
0.0
  0
VERTEX
  5
   554
  8
0
  6
CONTINUOUS
 10
89.8568290924475
 20
-67.6433797539212
 30
0.0
 40
0.0
 41
0.0
  0
VERTEX
  5
   555
  8
0
  6
CONTINUOUS
 10
89.8336209794541
 20
-67.6274115231013
 30
0.0
 40
0.0
 41
0.0
  0
VERTEX
  5
   556
  8
0
  6
CONTINUOUS
 10
89.8102239163097
 20
-67.612587212823
 30
0.0
 40
0.0
 41
0.0
  0
VERTEX
  5
   557
  8
0
  6
CONTINUOUS
 10
89.7866519965301
 20
-67.5989157526966
 30
0.0
 40
0.0
 41
0.0
  0
VERTEX
  5
   558
  8
0
  6
CONTINUOUS
 10
89.7629194189584
 20
-67.5864053778984
 30
0.0
 40
0.0
 41
0.0
  0
VERTEX
  5
   559
  8
0
  6
CONTINUOUS
 10
89.739040479212
 20
-67.5750636242105
 30
0.0
 40
0.0
 41
0.0
  0
VERTEX
  5
   55A
  8
0
  6
CONTINUOUS
 10
89.7150295610712
 20
-67.5648973234812
 30
0.0
 40
0.0
 41
0.0
  0
VERTEX
  5
   55B
  8
0
  6
CONTINUOUS
 10
89.6909011278153
 20
-67.5559125995098
 30
0.0
 40
0.0
 41
0.0
  0
VERTEX
  5
   55C
  8
0
  6
CONTINUOUS
 10
89.6666697135104
 20
-67.5481148643582
 30
0.0
 40
0.0
 41
0.0
  0
VERTEX
  5
   55D
  8
0
  6
CONTINUOUS
 10
89.6423499142542
 20
-67.5415088150904
 30
0.0
 40
0.0
 41
0.0
  0
VERTEX
  5
   55E
  8
0
  6
CONTINUOUS
 10
89.6179563793846
 20
-67.5360984309435
 30
0.0
 40
0.0
 41
0.0
  0
VERTEX
  5
   55F
  8
0
  6
CONTINUOUS
 10
89.5935038026547
 20
-67.5318869709306
 30
0.0
 40
0.0
 41
0.0
  0
VERTEX
  5
   560
  8
0
  6
CONTINUOUS
 10
89.5690069133824
 20
-67.5288769718777
 30
0.0
 40
0.0
 41
0.0
  0
VERTEX
  5
   561
  8
0
  6
CONTINUOUS
 10
89.5444804675779
 20
-67.5270702468957
 30
0.0
 40
0.0
 41
0.0
  0
VERTEX
  5
   562
  8
0
  6
CONTINUOUS
 10
89.519939239055
 20
-67.5264678842881
 30
0.0
 40
0.0
 41
0.0
  0
VERTEX
  5
   563
  8
0
  6
CONTINUOUS
 10
89.4953980105321
 20
-67.5270702468958
 30
0.0
 40
0.0
 41
0.0
  0
VERTEX
  5
   564
  8
0
  6
CONTINUOUS
 10
89.4708715647276
 20
-67.5288769718779
 30
0.0
 40
0.0
 41
0.0
  0
VERTEX
  5
   565
  8
0
  6
CONTINUOUS
 10
89.4463746754553
 20
-67.5318869709309
 30
0.0
 40
0.0
 41
0.0
  0
VERTEX
  5
   566
  8
0
  6
CONTINUOUS
 10
89.4219220987254
 20
-67.536098430944
 30
0.0
 40
0.0
 41
0.0
  0
VERTEX
  5
   567
  8
0
  6
CONTINUOUS
 10
89.3975285638558
 20
-67.541508815091
 30
0.0
 40
0.0
 41
0.0
  0
VERTEX
  5
   568
  8
0
  6
CONTINUOUS
 10
89.3732087645997
 20
-67.5481148643589
 30
0.0
 40
0.0
 41
0.0
  0
VERTEX
  5
   569
  8
0
  6
CONTINUOUS
 10
89.3489773502947
 20
-67.5559125995107
 30
0.0
 40
0.0
 41
0.0
  0
VERTEX
  5
   56A
  8
0
  6
CONTINUOUS
 10
89.324848917039
 20
-67.5648973234822
 30
0.0
 40
0.0
 41
0.0
  0
VERTEX
  5
   56B
  8
0
  6
CONTINUOUS
 10
89.3008379988982
 20
-67.5750636242116
 30
0.0
 40
0.0
 41
0.0
  0
VERTEX
  5
   56C
  8
0
  6
CONTINUOUS
 10
89.2769590591519
 20
-67.5864053778997
 30
0.0
 40
0.0
 41
0.0
  0
VERTEX
  5
   56D
  8
0
  6
CONTINUOUS
 10
89.2532264815803
 20
-67.5989157526979
 30
0.0
 40
0.0
 41
0.0
  0
VERTEX
  5
   56E
  8
0
  6
CONTINUOUS
 10
89.2296545618007
 20
-67.6125872128244
 30
0.0
 40
0.0
 41
0.0
  0
VERTEX
  5
   56F
  8
0
  6
CONTINUOUS
 10
89.2062574986563
 20
-67.6274115231029
 30
0.0
 40
0.0
 41
0.0
  0
VERTEX
  5
   570
  8
0
  6
CONTINUOUS
 10
89.1830493856631
 20
-67.6433797539229
 30
0.0
 40
0.0
 41
0.0
  0
VERTEX
  5
   571
  8
0
  6
CONTINUOUS
 10
89.1600442025203
 20
-67.6604822866196
 30
0.0
 40
0.0
 41
0.0
  0
VERTEX
  5
   572
  8
0
  6
CONTINUOUS
 10
89.1372558066903
 20
-67.6787088192665
 30
0.0
 40
0.0
 41
0.0
  0
VERTEX
  5
   573
  8
0
  6
CONTINUOUS
 10
89.0923841456252
 20
-67.7184892980423
 30
0.0
 40
0.0
 41
0.0
  0
VERTEX
  5
   574
  8
0
  6
CONTINUOUS
 10
89.0485425022296
 20
-67.7626253555926
 30
0.0
 40
0.0
 41
0.0
  0
VERTEX
  5
   575
  8
0
  6
CONTINUOUS
 10
89.0058364948625
 20
-67.8110106642889
 30
0.0
 40
0.0
 41
0.0
  0
VERTEX
  5
   576
  8
0
  6
CONTINUOUS
 10
88.9643690060362
 20
-67.8635286596844
 30
0.0
 40
0.0
 41
0.0
  0
VERTEX
  5
   577
  8
0
  6
CONTINUOUS
 10
88.9242399345635
 20
-67.9200528213283
 30
0.0
 40
0.0
 41
0.0
  0
VERTEX
  5
   578
  8
0
  6
CONTINUOUS
 10
88.8855459548925
 20
-67.9804469775643
 30
0.0
 40
0.0
 41
0.0
  0
VERTEX
  5
   579
  8
0
  6
CONTINUOUS
 10
88.8483802842093
 20
-68.0445656335799
 30
0.0
 40
0.0
 41
0.0
  0
VERTEX
  5
   57A
  8
0
  6
CONTINUOUS
 10
88.8128324578699
 20
-68.1122543219168
 30
0.0
 40
0.0
 41
0.0
  0
VERTEX
  5
   57B
  8
0
  6
CONTINUOUS
 10
88.7789881137017
 20
-68.183349974596
 30
0.0
 40
0.0
 41
0.0
  0
VERTEX
  5
   57C
  8
0
  6
CONTINUOUS
 10
88.7469287856941
 20
-68.2576813159628
 30
0.0
 40
0.0
 41
0.0
  0
VERTEX
  5
   57D
  8
0
  6
CONTINUOUS
 10
88.7167317075764
 20
-68.3350692753053
 30
0.0
 40
0.0
 41
0.0
  0
VERTEX
  5
   57E
  8
0
  6
CONTINUOUS
 10
88.6884696267547
 20
-68.415327418251
 30
0.0
 40
0.0
 41
0.0
  0
VERTEX
  5
   57F
  8
0
  6
CONTINUOUS
 10
88.6622106290571
 20
-68.4982623959038
 30
0.0
 40
0.0
 41
0.0
  0
VERTEX
  5
   580
  8
0
  6
CONTINUOUS
 10
88.6380179747093
 20
-68.5836744106384
 30
0.0
 40
0.0
 41
0.0
  0
VERTEX
  5
   581
  8
0
  6
CONTINUOUS
 10
88.6159499459344
 20
-68.6713576974298
 30
0.0
 40
0.0
 41
0.0
  0
VERTEX
  5
   582
  8
0
  6
CONTINUOUS
 10
88.5960597065468
 20
-68.7611010195603
 30
0.0
 40
0.0
 41
0.0
  0
VERTEX
  5
   583
  8
0
  6
CONTINUOUS
 10
88.5783951738753
 20
-68.8526881775061
 30
0.0
 40
0.0
 41
0.0
  0
VERTEX
  5
   584
  8
0
  6
CONTINUOUS
 10
88.5629989033263
 20
-68.9458985297816
 30
0.0
 40
0.0
 41
0.0
  0
VERTEX
  5
   585
  8
0
  6
CONTINUOUS
 10
88.5499079858643
 20
-69.040507524484
 30
0.0
 40
0.0
 41
0.0
  0
VERTEX
  5
   586
  8
0
  6
CONTINUOUS
 10
88.5391539586558
 20
-69.1362872402583
 30
0.0
 40
0.0
 41
0.0
  0
VERTEX
  5
   587
  8
0
  6
CONTINUOUS
 10
88.5307627290945
 20
-69.2330069353799
 30
0.0
 40
0.0
 41
0.0
  0
VERTEX
  5
   588
  8
0
  6
CONTINUOUS
 10
88.5247545123873
 20
-69.3304336036315
 30
0.0
 40
0.0
 41
0.0
  0
VERTEX
  5
   589
  8
0
  6
CONTINUOUS
 10
88.5211437828546
 20
-69.4283325356358
 30
0.0
 40
0.0
 41
0.0
  0
VERTEX
  5
   58A
  8
0
  6
CONTINUOUS
 10
88.51993923906
 20
-69.5264678842906
 30
0.0
 40
0.0
 41
0.0
  0
VERTEX
  5
   58B
  8
0
  6
CONTINUOUS
 10
88.5211437828551
 20
-69.6246032329455
 30
0.0
 40
0.0
 41
0.0
  0
VERTEX
  5
   58C
  8
0
  6
CONTINUOUS
 10
88.5247545123883
 20
-69.7225021649498
 30
0.0
 40
0.0
 41
0.0
  0
VERTEX
  5
   58D
  8
0
  6
CONTINUOUS
 10
88.530762729096
 20
-69.8199288332014
 30
0.0
 40
0.0
 41
0.0
  0
VERTEX
  5
   58E
  8
0
  6
CONTINUOUS
 10
88.5391539586577
 20
-69.9166485283229
 30
0.0
 40
0.0
 41
0.0
  0
VERTEX
  5
   58F
  8
0
  6
CONTINUOUS
 10
88.5499079858667
 20
-70.0124282440971
 30
0.0
 40
0.0
 41
0.0
  0
VERTEX
  5
   590
  8
0
  6
CONTINUOUS
 10
88.5629989033293
 20
-70.1070372387995
 30
0.0
 40
0.0
 41
0.0
  0
VERTEX
  5
   591
  8
0
  6
CONTINUOUS
 10
88.5783951738787
 20
-70.2002475910749
 30
0.0
 40
0.0
 41
0.0
  0
VERTEX
  5
   592
  8
0
  6
CONTINUOUS
 10
88.5960597065507
 20
-70.2918347490206
 30
0.0
 40
0.0
 41
0.0
  0
VERTEX
  5
   593
  8
0
  6
CONTINUOUS
 10
88.6159499459387
 20
-70.381578071151
 30
0.0
 40
0.0
 41
0.0
  0
VERTEX
  5
   594
  8
0
  6
CONTINUOUS
 10
88.638017974714
 20
-70.4692613579423
 30
0.0
 40
0.0
 41
0.0
  0
VERTEX
  5
   595
  8
0
  6
CONTINUOUS
 10
88.6622106290623
 20
-70.5546733726767
 30
0.0
 40
0.0
 41
0.0
  0
VERTEX
  5
   596
  8
0
  6
CONTINUOUS
 10
88.6884696267603
 20
-70.6376083503294
 30
0.0
 40
0.0
 41
0.0
  0
VERTEX
  5
   597
  8
0
  6
CONTINUOUS
 10
88.7167317075824
 20
-70.717866493275
 30
0.0
 40
0.0
 41
0.0
  0
VERTEX
  5
   598
  8
0
  6
CONTINUOUS
 10
88.7469287857005
 20
-70.7952544526174
 30
0.0
 40
0.0
 41
0.0
  0
VERTEX
  5
   599
  8
0
  6
CONTINUOUS
 10
88.7789881137084
 20
-70.869585793984
 30
0.0
 40
0.0
 41
0.0
  0
VERTEX
  5
   59A
  8
0
  6
CONTINUOUS
 10
88.812832457877
 20
-70.940681446663
 30
0.0
 40
0.0
 41
0.0
  0
VERTEX
  5
   59B
  8
0
  6
CONTINUOUS
 10
88.8483802842167
 20
-71.0083701349997
 30
0.0
 40
0.0
 41
0.0
  0
VERTEX
  5
   59C
  8
0
  6
CONTINUOUS
 10
88.8855459549002
 20
-71.0724887910152
 30
0.0
 40
0.0
 41
0.0
  0
VERTEX
  5
   59D
  8
0
  6
CONTINUOUS
 10
88.9242399345716
 20
-71.1328829472509
 30
0.0
 40
0.0
 41
0.0
  0
VERTEX
  5
   59E
  8
0
  6
CONTINUOUS
 10
88.9643690060446
 20
-71.1894071088946
 30
0.0
 40
0.0
 41
0.0
  0
VERTEX
  5
   59F
  8
0
  6
CONTINUOUS
 10
89.0058364948711
 20
-71.24192510429
 30
0.0
 40
0.0
 41
0.0
  0
VERTEX
  5
   5A0
  8
0
  6
CONTINUOUS
 10
89.0485425022384
 20
-71.290310412986
 30
0.0
 40
0.0
 41
0.0
  0
VERTEX
  5
   5A1
  8
0
  6
CONTINUOUS
 10
89.0923841456343
 20
-71.3344464705361
 30
0.0
 40
0.0
 41
0.0
  0
VERTEX
  5
   5A2
  8
0
  6
CONTINUOUS
 10
89.1372558066996
 20
-71.3742269493117
 30
0.0
 40
0.0
 41
0.0
  0
VERTEX
  5
   5A3
  8
0
  6
CONTINUOUS
 10
89.1600442025297
 20
-71.3924534819585
 30
0.0
 40
0.0
 41
0.0
  0
VERTEX
  5
   5A4
  8
0
  6
CONTINUOUS
 10
89.1830493856725
 20
-71.409556014655
 30
0.0
 40
0.0
 41
0.0
  0
VERTEX
  5
   5A5
  8
0
  6
CONTINUOUS
 10
89.2062574986659
 20
-71.425524245475
 30
0.0
 40
0.0
 41
0.0
  0
VERTEX
  5
   5A6
  8
0
  6
CONTINUOUS
 10
89.2296545618104
 20
-71.4403485557533
 30
0.0
 40
0.0
 41
0.0
  0
VERTEX
  5
   5A7
  8
0
  6
CONTINUOUS
 10
89.2532264815899
 20
-71.4540200158797
 30
0.0
 40
0.0
 41
0.0
  0
VERTEX
  5
   5A8
  8
0
  6
CONTINUOUS
 10
89.2769590591616
 20
-71.4665303906778
 30
0.0
 40
0.0
 41
0.0
  0
VERTEX
  5
   5A9
  8
0
  6
CONTINUOUS
 10
89.300837998908
 20
-71.4778721443657
 30
0.0
 40
0.0
 41
0.0
  0
VERTEX
  5
   5AA
  8
0
  6
CONTINUOUS
 10
89.3248489170488
 20
-71.4880384450951
 30
0.0
 40
0.0
 41
0.0
  0
VERTEX
  5
   5AB
  8
0
  6
CONTINUOUS
 10
89.3489773503047
 20
-71.4970231690664
 30
0.0
 40
0.0
 41
0.0
  0
VERTEX
  5
   5AC
  8
0
  6
CONTINUOUS
 10
89.3732087646096
 20
-71.5048209042181
 30
0.0
 40
0.0
 41
0.0
  0
VERTEX
  5
   5AD
  8
0
  6
CONTINUOUS
 10
89.3975285638658
 20
-71.5114269534859
 30
0.0
 40
0.0
 41
0.0
  0
VERTEX
  5
   5AE
  8
0
  6
CONTINUOUS
 10
89.4219220987354
 20
-71.5168373376328
 30
0.0
 40
0.0
 41
0.0
  0
VERTEX
  5
   5AF
  8
0
  6
CONTINUOUS
 10
89.4463746754653
 20
-71.5210487976457
 30
0.0
 40
0.0
 41
0.0
  0
VERTEX
  5
   5B0
  8
0
  6
CONTINUOUS
 10
89.4708715647376
 20
-71.5240587966986
 30
0.0
 40
0.0
 41
0.0
  0
VERTEX
  5
   5B1
  8
0
  6
CONTINUOUS
 10
89.4953980105421
 20
-71.5258655216806
 30
0.0
 40
0.0
 41
0.0
  0
VERTEX
  5
   5B2
  8
0
  6
CONTINUOUS
 10
89.519939239065
 20
-71.5264678842881
 30
0.0
 40
0.0
 41
0.0
  0
SEQEND
  5
   5B3
  8
0
  6
CONTINUOUS
 62
   218
  0
POLYLINE
  5
   5B4
  8
0
  6
CONTINUOUS
 62
   218
 66
     1
 10
0.0
 20
0.0
 30
0.0
  0
VERTEX
  5
   5B5
  8
0
  6
CONTINUOUS
 10
89.5199392390525
 20
-63.5264678842881
 30
0.0
 40
0.0
 41
0.0
  0
VERTEX
  5
   5B6
  8
0
  6
CONTINUOUS
 10
89.4953980105296
 20
-63.5270702468959
 30
0.0
 40
0.0
 41
0.0
  0
VERTEX
  5
   5B7
  8
0
  6
CONTINUOUS
 10
89.470871564725
 20
-63.5288769718782
 30
0.0
 40
0.0
 41
0.0
  0
VERTEX
  5
   5B8
  8
0
  6
CONTINUOUS
 10
89.4463746754528
 20
-63.5318869709313
 30
0.0
 40
0.0
 41
0.0
  0
VERTEX
  5
   5B9
  8
0
  6
CONTINUOUS
 10
89.4219220987229
 20
-63.5360984309445
 30
0.0
 40
0.0
 41
0.0
  0
VERTEX
  5
   5BA
  8
0
  6
CONTINUOUS
 10
89.3975285638532
 20
-63.5415088150917
 30
0.0
 40
0.0
 41
0.0
  0
VERTEX
  5
   5BB
  8
0
  6
CONTINUOUS
 10
89.3732087645971
 20
-63.5481148643597
 30
0.0
 40
0.0
 41
0.0
  0
VERTEX
  5
   5BC
  8
0
  6
CONTINUOUS
 10
89.3489773502922
 20
-63.5559125995116
 30
0.0
 40
0.0
 41
0.0
  0
VERTEX
  5
   5BD
  8
0
  6
CONTINUOUS
 10
89.3248489170363
 20
-63.5648973234832
 30
0.0
 40
0.0
 41
0.0
  0
VERTEX
  5
   5BE
  8
0
  6
CONTINUOUS
 10
89.3008379988956
 20
-63.5750636242128
 30
0.0
 40
0.0
 41
0.0
  0
VERTEX
  5
   5BF
  8
0
  6
CONTINUOUS
 10
89.2769590591493
 20
-63.586405377901
 30
0.0
 40
0.0
 41
0.0
  0
VERTEX
  5
   5C0
  8
0
  6
CONTINUOUS
 10
89.2532264815776
 20
-63.5989157526994
 30
0.0
 40
0.0
 41
0.0
  0
VERTEX
  5
   5C1
  8
0
  6
CONTINUOUS
 10
89.2296545617981
 20
-63.612587212826
 30
0.0
 40
0.0
 41
0.0
  0
VERTEX
  5
   5C2
  8
0
  6
CONTINUOUS
 10
89.2062574986537
 20
-63.6274115231046
 30
0.0
 40
0.0
 41
0.0
  0
VERTEX
  5
   5C3
  8
0
  6
CONTINUOUS
 10
89.1830493856604
 20
-63.6433797539248
 30
0.0
 40
0.0
 41
0.0
  0
VERTEX
  5
   5C4
  8
0
  6
CONTINUOUS
 10
89.1600442025177
 20
-63.6604822866216
 30
0.0
 40
0.0
 41
0.0
  0
VERTEX
  5
   5C5
  8
0
  6
CONTINUOUS
 10
89.1372558066877
 20
-63.6787088192687
 30
0.0
 40
0.0
 41
0.0
  0
VERTEX
  5
   5C6
  8
0
  6
CONTINUOUS
 10
89.0923841456226
 20
-63.7184892980448
 30
0.0
 40
0.0
 41
0.0
  0
VERTEX
  5
   5C7
  8
0
  6
CONTINUOUS
 10
89.048542502227
 20
-63.7626253555954
 30
0.0
 40
0.0
 41
0.0
  0
VERTEX
  5
   5C8
  8
0
  6
CONTINUOUS
 10
89.0058364948599
 20
-63.8110106642919
 30
0.0
 40
0.0
 41
0.0
  0
VERTEX
  5
   5C9
  8
0
  6
CONTINUOUS
 10
88.9643690060337
 20
-63.8635286596878
 30
0.0
 40
0.0
 41
0.0
  0
VERTEX
  5
   5CA
  8
0
  6
CONTINUOUS
 10
88.9242399345611
 20
-63.9200528213319
 30
0.0
 40
0.0
 41
0.0
  0
VERTEX
  5
   5CB
  8
0
  6
CONTINUOUS
 10
88.8855459548901
 20
-63.9804469775681
 30
0.0
 40
0.0
 41
0.0
  0
VERTEX
  5
   5CC
  8
0
  6
CONTINUOUS
 10
88.848380284207
 20
-64.0445656335841
 30
0.0
 40
0.0
 41
0.0
  0
VERTEX
  5
   5CD
  8
0
  6
CONTINUOUS
 10
88.8128324578677
 20
-64.1122543219213
 30
0.0
 40
0.0
 41
0.0
  0
VERTEX
  5
   5CE
  8
0
  6
CONTINUOUS
 10
88.7789881136995
 20
-64.1833499746007
 30
0.0
 40
0.0
 41
0.0
  0
VERTEX
  5
   5CF
  8
0
  6
CONTINUOUS
 10
88.746928785692
 20
-64.2576813159678
 30
0.0
 40
0.0
 41
0.0
  0
VERTEX
  5
   5D0
  8
0
  6
CONTINUOUS
 10
88.7167317075744
 20
-64.3350692753105
 30
0.0
 40
0.0
 41
0.0
  0
VERTEX
  5
   5D1
  8
0
  6
CONTINUOUS
 10
88.6884696267528
 20
-64.4153274182565
 30
0.0
 40
0.0
 41
0.0
  0
VERTEX
  5
   5D2
  8
0
  6
CONTINUOUS
 10
88.6622106290554
 20
-64.4982623959096
 30
0.0
 40
0.0
 41
0.0
  0
VERTEX
  5
   5D3
  8
0
  6
CONTINUOUS
 10
88.6380179747077
 20
-64.5836744106443
 30
0.0
 40
0.0
 41
0.0
  0
VERTEX
  5
   5D4
  8
0
  6
CONTINUOUS
 10
88.615949945933
 20
-64.671357697436
 30
0.0
 40
0.0
 41
0.0
  0
VERTEX
  5
   5D5
  8
0
  6
CONTINUOUS
 10
88.5960597065455
 20
-64.7611010195667
 30
0.0
 40
0.0
 41
0.0
  0
VERTEX
  5
   5D6
  8
0
  6
CONTINUOUS
 10
88.5783951738741
 20
-64.8526881775126
 30
0.0
 40
0.0
 41
0.0
  0
VERTEX
  5
   5D7
  8
0
  6
CONTINUOUS
 10
88.5629989033253
 20
-64.9458985297884
 30
0.0
 40
0.0
 41
0.0
  0
VERTEX
  5
   5D8
  8
0
  6
CONTINUOUS
 10
88.5499079858634
 20
-65.040507524491
 30
0.0
 40
0.0
 41
0.0
  0
VERTEX
  5
   5D9
  8
0
  6
CONTINUOUS
 10
88.5391539586551
 20
-65.1362872402654
 30
0.0
 40
0.0
 41
0.0
  0
VERTEX
  5
   5DA
  8
0
  6
CONTINUOUS
 10
88.530762729094
 20
-65.2330069353871
 30
0.0
 40
0.0
 41
0.0
  0
VERTEX
  5
   5DB
  8
0
  6
CONTINUOUS
 10
88.5247545123869
 20
-65.3304336036389
 30
0.0
 40
0.0
 41
0.0
  0
VERTEX
  5
   5DC
  8
0
  6
CONTINUOUS
 10
88.5211437828544
 20
-65.4283325356432
 30
0.0
 40
0.0
 41
0.0
  0
VERTEX
  5
   5DD
  8
0
  6
CONTINUOUS
 10
88.51993923906
 20
-65.5264678842982
 30
0.0
 40
0.0
 41
0.0
  0
VERTEX
  5
   5DE
  8
0
  6
CONTINUOUS
 10
88.5211437828553
 20
-65.6246032329531
 30
0.0
 40
0.0
 41
0.0
  0
VERTEX
  5
   5DF
  8
0
  6
CONTINUOUS
 10
88.5247545123887
 20
-65.7225021649574
 30
0.0
 40
0.0
 41
0.0
  0
VERTEX
  5
   5E0
  8
0
  6
CONTINUOUS
 10
88.5307627290965
 20
-65.819928833209
 30
0.0
 40
0.0
 41
0.0
  0
VERTEX
  5
   5E1
  8
0
  6
CONTINUOUS
 10
88.5391539586585
 20
-65.9166485283306
 30
0.0
 40
0.0
 41
0.0
  0
VERTEX
  5
   5E2
  8
0
  6
CONTINUOUS
 10
88.5499079858677
 20
-66.0124282441048
 30
0.0
 40
0.0
 41
0.0
  0
VERTEX
  5
   5E3
  8
0
  6
CONTINUOUS
 10
88.5629989033304
 20
-66.1070372388071
 30
0.0
 40
0.0
 41
0.0
  0
VERTEX
  5
   5E4
  8
0
  6
CONTINUOUS
 10
88.57839517388
 20
-66.2002475910826
 30
0.0
 40
0.0
 41
0.0
  0
VERTEX
  5
   5E5
  8
0
  6
CONTINUOUS
 10
88.5960597065522
 20
-66.2918347490282
 30
0.0
 40
0.0
 41
0.0
  0
VERTEX
  5
   5E6
  8
0
  6
CONTINUOUS
 10
88.6159499459405
 20
-66.3815780711584
 30
0.0
 40
0.0
 41
0.0
  0
VERTEX
  5
   5E7
  8
0
  6
CONTINUOUS
 10
88.638017974716
 20
-66.4692613579497
 30
0.0
 40
0.0
 41
0.0
  0
VERTEX
  5
   5E8
  8
0
  6
CONTINUOUS
 10
88.6622106290645
 20
-66.5546733726839
 30
0.0
 40
0.0
 41
0.0
  0
VERTEX
  5
   5E9
  8
0
  6
CONTINUOUS
 10
88.6884696267626
 20
-66.6376083503365
 30
0.0
 40
0.0
 41
0.0
  0
VERTEX
  5
   5EA
  8
0
  6
CONTINUOUS
 10
88.7167317075849
 20
-66.7178664932819
 30
0.0
 40
0.0
 41
0.0
  0
VERTEX
  5
   5EB
  8
0
  6
CONTINUOUS
 10
88.7469287857032
 20
-66.795254452624
 30
0.0
 40
0.0
 41
0.0
  0
VERTEX
  5
   5EC
  8
0
  6
CONTINUOUS
 10
88.7789881137114
 20
-66.8695857939905
 30
0.0
 40
0.0
 41
0.0
  0
VERTEX
  5
   5ED
  8
0
  6
CONTINUOUS
 10
88.8128324578801
 20
-66.9406814466692
 30
0.0
 40
0.0
 41
0.0
  0
VERTEX
  5
   5EE
  8
0
  6
CONTINUOUS
 10
88.84838028422
 20
-67.0083701350057
 30
0.0
 40
0.0
 41
0.0
  0
VERTEX
  5
   5EF
  8
0
  6
CONTINUOUS
 10
88.8855459549037
 20
-67.0724887910209
 30
0.0
 40
0.0
 41
0.0
  0
VERTEX
  5
   5F0
  8
0
  6
CONTINUOUS
 10
88.9242399345753
 20
-67.1328829472563
 30
0.0
 40
0.0
 41
0.0
  0
VERTEX
  5
   5F1
  8
0
  6
CONTINUOUS
 10
88.9643690060484
 20
-67.1894071088997
 30
0.0
 40
0.0
 41
0.0
  0
VERTEX
  5
   5F2
  8
0
  6
CONTINUOUS
 10
89.005836494875
 20
-67.2419251042947
 30
0.0
 40
0.0
 41
0.0
  0
VERTEX
  5
   5F3
  8
0
  6
CONTINUOUS
 10
89.0485425022425
 20
-67.2903104129904
 30
0.0
 40
0.0
 41
0.0
  0
VERTEX
  5
   5F4
  8
0
  6
CONTINUOUS
 10
89.0923841456385
 20
-67.3344464705401
 30
0.0
 40
0.0
 41
0.0
  0
VERTEX
  5
   5F5
  8
0
  6
CONTINUOUS
 10
89.1372558067039
 20
-67.3742269493153
 30
0.0
 40
0.0
 41
0.0
  0
VERTEX
  5
   5F6
  8
0
  6
CONTINUOUS
 10
89.1600442025341
 20
-67.3924534819619
 30
0.0
 40
0.0
 41
0.0
  0
VERTEX
  5
   5F7
  8
0
  6
CONTINUOUS
 10
89.183049385677
 20
-67.4095560146582
 30
0.0
 40
0.0
 41
0.0
  0
VERTEX
  5
   5F8
  8
0
  6
CONTINUOUS
 10
89.2062574986704
 20
-67.425524245478
 30
0.0
 40
0.0
 41
0.0
  0
VERTEX
  5
   5F9
  8
0
  6
CONTINUOUS
 10
89.2296545618149
 20
-67.4403485557561
 30
0.0
 40
0.0
 41
0.0
  0
VERTEX
  5
   5FA
  8
0
  6
CONTINUOUS
 10
89.2532264815946
 20
-67.4540200158823
 30
0.0
 40
0.0
 41
0.0
  0
VERTEX
  5
   5FB
  8
0
  6
CONTINUOUS
 10
89.2769590591663
 20
-67.4665303906802
 30
0.0
 40
0.0
 41
0.0
  0
VERTEX
  5
   5FC
  8
0
  6
CONTINUOUS
 10
89.3008379989128
 20
-67.4778721443679
 30
0.0
 40
0.0
 41
0.0
  0
VERTEX
  5
   5FD
  8
0
  6
CONTINUOUS
 10
89.3248489170536
 20
-67.488038445097
 30
0.0
 40
0.0
 41
0.0
  0
VERTEX
  5
   5FE
  8
0
  6
CONTINUOUS
 10
89.3489773503095
 20
-67.4970231690681
 30
0.0
 40
0.0
 41
0.0
  0
VERTEX
  5
   5FF
  8
0
  6
CONTINUOUS
 10
89.3732087646145
 20
-67.5048209042195
 30
0.0
 40
0.0
 41
0.0
  0
VERTEX
  5
   600
  8
0
  6
CONTINUOUS
 10
89.3975285638707
 20
-67.5114269534871
 30
0.0
 40
0.0
 41
0.0
  0
VERTEX
  5
   601
  8
0
  6
CONTINUOUS
 10
89.4219220987404
 20
-67.5168373376338
 30
0.0
 40
0.0
 41
0.0
  0
VERTEX
  5
   602
  8
0
  6
CONTINUOUS
 10
89.4463746754703
 20
-67.5210487976464
 30
0.0
 40
0.0
 41
0.0
  0
VERTEX
  5
   603
  8
0
  6
CONTINUOUS
 10
89.4708715647426
 20
-67.5240587966991
 30
0.0
 40
0.0
 41
0.0
  0
VERTEX
  5
   604
  8
0
  6
CONTINUOUS
 10
89.4953980105471
 20
-67.5258655216808
 30
0.0
 40
0.0
 41
0.0
  0
VERTEX
  5
   605
  8
0
  6
CONTINUOUS
 10
89.5199392390701
 20
-67.5264678842881
 30
0.0
 40
0.0
 41
0.0
  0
SEQEND
  5
   606
  8
0
  6
CONTINUOUS
 62
   218
  0
INSERT
  5
   607
  8
0
  6
CONTINUOUS
 62
   218
  2
*HATCH969
 10
146.825988769531
 20
-78.0449981689453
 30
0.0
 41
0.5
 42
0.5
 50
89.9999999480344
 43
0.5
  0
LINE
  5
   608
  8
0
  6
CONTINUOUS
 62
   218
 10
115.326018810272
 20
-66.8156692559681
 30
0.0
 11
103.826018810272
 21
-64.7879089778208
 31
0.0
  0
LINE
  5
   609
  8
0
  6
CONTINUOUS
 62
   218
 10
115.326018810272
 20
-66.1048706276481
 30
0.0
 11
105.807323845858
 21
-64.4264678842881
 31
0.0
  0
LINE
  5
   60A
  8
0
  6
CONTINUOUS
 62
   218
 10
115.326018810272
 20
-65.3940719993281
 30
0.0
 11
109.838463184059
 21
-64.4264678842881
 31
0.0
  0
LINE
  5
   60B
  8
0
  6
CONTINUOUS
 62
   218
 10
115.326018810272
 20
-64.6832733710081
 30
0.0
 11
113.869602522259
 21
-64.4264678842882
 31
0.0
  0
LINE
  5
   60C
  8
0
  6
CONTINUOUS
 62
   218
 10
115.326018810272
 20
-68.2372665126082
 30
0.0
 11
103.826018810272
 21
-66.2095062344608
 31
0.0
  0
LINE
  5
   60D
  8
0
  6
CONTINUOUS
 62
   218
 10
115.326018810272
 20
-68.9480651409282
 30
0.0
 11
103.826018810272
 21
-66.9203048627809
 31
0.0
  0
LINE
  5
   60E
  8
0
  6
CONTINUOUS
 62
   218
 10
115.326018810272
 20
-69.6588637692482
 30
0.0
 11
103.826018810272
 21
-67.6311034911009
 31
0.0
  0
LINE
  5
   60F
  8
0
  6
CONTINUOUS
 62
   218
 10
115.326018810272
 20
-70.3696623975683
 30
0.0
 11
103.826018810272
 21
-68.3419021194209
 31
0.0
  0
LINE
  5
   610
  8
0
  6
CONTINUOUS
 62
   218
 10
112.751295760084
 20
-70.6264678842881
 30
0.0
 11
103.826018810272
 21
-69.052700747741
 31
0.0
  0
LINE
  5
   611
  8
0
  6
CONTINUOUS
 62
   218
 10
108.720156421884
 20
-70.6264678842882
 30
0.0
 11
103.826018810272
 21
-69.763499376061
 31
0.0
  0
LINE
  5
   612
  8
0
  6
CONTINUOUS
 62
   218
 10
104.689017083683
 20
-70.6264678842881
 30
0.0
 11
103.826018810272
 21
-70.474298004381
 31
0.0
  0
LINE
  5
   613
  8
0
  6
CONTINUOUS
 62
     7
 10
98.6871271031719
 20
-92.2202837231479
 30
0.0
 11
90.9775411977259
 21
-91.9056067474155
 31
0.0
  0
LINE
  5
   614
  8
0
  6
CONTINUOUS
 62
    98
 10
145.451011658311
 20
-87.4264461541338
 30
0.0
 11
96.3260192877057
 21
-87.4264461541338
 31
0.0
  0
LINE
  5
   615
  8
0
  6
CONTINUOUS
 62
    98
 10
96.3260192877057
 20
-87.4264461541338
 30
0.0
 11
96.3260192877057
 21
-71.5264678842881
 31
0.0
  0
ARC
  5
   616
  8
0
  6
CONTINUOUS
 62
    98
 10
145.451011658311
 20
-86.8014461541338
 30
0.0
 40
0.625
 50
269.999999948034
 51
359.999999948034
  0
LINE
  5
   617
  8
0
  6
CONTINUOUS
 62
    98
 10
146.076011658311
 20
-86.8014461541338
 30
0.0
 11
146.076011658311
 21
-66.9264461541338
 31
0.0
  0
LINE
  5
   618
  8
0
  6
CONTINUOUS
 62
    98
 10
146.076011658311
 20
-66.9264461541338
 30
0.0
 11
146.076011658311
 21
-52.9264461541338
 31
0.0
  0
LINE
  5
   619
  8
0
  6
CONTINUOUS
 62
    98
 10
146.076011658311
 20
-52.9264461541338
 30
0.0
 11
145.576011658311
 21
-52.9264461541338
 31
0.0
  0
LINE
  5
   61A
  8
0
  6
CONTINUOUS
 62
    98
 10
145.576011658311
 20
-52.9264461541338
 30
0.0
 11
145.576011658311
 21
-52.4264461541338
 31
0.0
  0
LINE
  5
   61B
  8
0
  6
CONTINUOUS
 62
    98
 10
144.826019287706
 20
-65.7764461541338
 30
0.0
 11
144.826019287706
 21
-52.4264461541338
 31
0.0
  0
LINE
  5
   61C
  8
0
  6
CONTINUOUS
 62
    98
 10
144.826019287706
 20
-64.2110862919223
 30
0.0
 11
144.826019287706
 21
-61.4264461541338
 31
0.0
  0
LINE
  5
   61D
  8
0
  6
CONTINUOUS
 62
    98
 10
144.826019287706
 20
-76.2764461541338
 30
0.0
 11
133.576011658311
 21
-76.2764461541338
 31
0.0
  0
LINE
  5
   61E
  8
0
  6
CONTINUOUS
 62
    98
 10
144.826019287706
 20
-66.7764461541338
 30
0.0
 11
133.576011658311
 21
-66.7764461541338
 31
0.0
  0
LINE
  5
   61F
  8
0
  6
CONTINUOUS
 62
    98
 10
144.826019287706
 20
-77.2764461541338
 30
0.0
 11
134.826011658311
 21
-77.2764461541338
 31
0.0
  0
LINE
  5
   620
  8
0
  6
CONTINUOUS
 62
    98
 10
144.826019287706
 20
-65.7764461541338
 30
0.0
 11
134.826011658311
 21
-65.7764461541338
 31
0.0
  0
LINE
  5
   621
  8
0
  6
CONTINUOUS
 62
     1
 10
134.826011658311
 20
-65.7764461541338
 30
0.0
 11
134.826011658311
 21
-64.7764461541338
 31
0.0
  0
LINE
  5
   622
  8
0
  6
CONTINUOUS
 62
    98
 10
134.826011658311
 20
-87.4264461541338
 30
0.0
 11
134.826011658311
 21
-77.2764461541338
 31
0.0
  0
LINE
  5
   623
  8
0
  6
CONTINUOUS
 62
    98
 10
144.826019287706
 20
-87.4264461541338
 30
0.0
 11
144.826019287706
 21
-77.2764461541338
 31
0.0
  0
LINE
  5
   624
  8
0
  6
CONTINUOUS
 62
    98
 10
144.826019287706
 20
-76.2764461541338
 30
0.0
 11
144.826019287706
 21
-66.7764461541338
 31
0.0
  0
LINE
  5
   625
  8
0
  6
CONTINUOUS
 62
    98
 10
133.576011658311
 20
-86.4264461541338
 30
0.0
 11
96.3260192877057
 21
-86.4264461541338
 31
0.0
  0
LINE
  5
   626
  8
0
  6
CONTINUOUS
 62
    98
 10
133.576011658311
 20
-85.4264461541338
 30
0.0
 11
96.3260192877057
 21
-85.4264461541338
 31
0.0
  0
LINE
  5
   627
  8
0
  6
CONTINUOUS
 62
    98
 10
133.576011658311
 20
-84.4264461541338
 30
0.0
 11
96.3260192877057
 21
-84.4264461541338
 31
0.0
  0
LINE
  5
   628
  8
0
  6
CONTINUOUS
 62
    98
 10
134.826011658311
 20
-64.7764461541338
 30
0.0
 11
115.326018810272
 21
-64.7764461541338
 31
0.0
  0
LINE
  5
   629
  8
0
  6
CONTINUOUS
 62
    98
 10
133.576011658311
 20
-65.7764461541338
 30
0.0
 11
115.326018810272
 21
-65.7764461541338
 31
0.0
  0
LINE
  5
   62A
  8
0
  6
CONTINUOUS
 62
    98
 10
133.576011658311
 20
-87.4264461541338
 30
0.0
 11
133.576011658311
 21
-65.7764461541338
 31
0.0
  0
LINE
  5
   62B
  8
0
  6
CONTINUOUS
 62
     1
 10
127.576011658311
 20
-65.7764461541338
 30
0.0
 11
127.576011658311
 21
-64.7764461541338
 31
0.0
  0
INSERT
  5
   62C
  8
0
  6
CONTINUOUS
 62
    98
  2
*HATCH970
 10
146.825988769531
 20
-78.0449981689453
 30
0.0
 41
0.5
 42
0.5
 50
89.9999999480344
 43
0.5
  0
LINE
  5
   62D
  8
0
  6
CONTINUOUS
 62
     7
 10
145.576011658311
 20
-52.4264461541338
 30
0.0
 11
144.826019287706
 21
-52.4264461541338
 31
0.0
  0
LINE
  5
   62E
  8
0
  6
DASHDOT
 62
     7
 10
95.3260192871094
 20
-92.0830956490229
 30
0.0
 11
95.3260192871094
 21
-71.5264678842881
 31
0.0
  0
LINE
  5
   62F
  8
0
  6
DASHDOT
 62
     7
 10
93.8260192871094
 20
-92.021871159227
 30
0.0
 11
93.8260192871094
 21
-71.5264678842881
 31
0.0
  0
LINE
  5
   630
  8
0
  6
CONTINUOUS
 62
     3
 10
117.960377205686
 20
-63.4389233914625
 30
0.0
 11
117.072109344955
 21
-51.1848644945656
 31
0.0
  0
LINE
  5
   631
  8
0
  6
CONTINUOUS
 62
     7
 10
132.326019287109
 20
-63.0264606363633
 30
0.0
 11
115.787676305672
 21
-63.0264606363633
 31
0.0
  0
LINE
  5
   632
  8
0
  6
CONTINUOUS
 62
     7
 10
96.3260192871094
 20
-63.5264678842881
 30
0.0
 11
96.3260192871094
 21
-44.2793516899095
 31
0.0
  0
LINE
  5
   633
  8
0
  6
CONTINUOUS
 62
     7
 10
96.3260192871094
 20
-44.2793655283311
 30
0.0
 11
96.3260192871094
 21
20.5735244750977
 31
0.0
  0
LINE
  5
   634
  8
0
  6
DASHDOT
 62
     7
 10
95.3260192871094
 20
-63.5264678842881
 30
0.0
 11
95.3260192871094
 21
24.8217214798993
 31
0.0
  0
LINE
  5
   635
  8
0
  6
CONTINUOUS
 62
     7
 10
95.3260192871094
 20
15.2383346669814
 30
0.0
 11
95.3260192871094
 21
15.3235168569228
 31
0.0
  0
LINE
  5
   636
  8
0
  6
CONTINUOUS
 62
     7
 10
130.576017526632
 20
-14.9264809098317
 30
0.0
 11
130.576007843143
 21
-10.8014690564093
 31
0.0
  0
LINE
  5
   637
  8
0
  6
CONTINUOUS
 62
     7
 10
131.825989675941
 20
12.3235286316742
 30
0.0
 11
132.179551068366
 21
12.4699748370874
 31
0.0
  0
LINE
  5
   638
  8
0
  6
CONTINUOUS
 62
     7
 10
132.179557439923
 20
12.4699642740482
 30
0.0
 11
132.326003656801
 21
12.8235180232731
 31
0.0
  0
LINE
  5
   639
  8
0
  6
CONTINUOUS
 62
     7
 10
130.576011112814
 20
8.82353157316729
 30
0.0
 11
130.576018742208
 21
12.3235315734473
 31
0.0
  0
LINE
  5
   63A
  8
0
  6
CONTINUOUS
 62
     7
 10
131.82600402832
 20
12.3235321157119
 30
0.0
 11
130.576019287109
 21
12.3235321157119
 31
0.0
  0
LINE
  5
   63B
  8
0
  6
CONTINUOUS
 62
     7
 10
130.576011657715
 20
-10.8014678842881
 30
0.0
 11
130.576011657715
 21
8.82353211571187
 31
0.0
  0
LINE
  5
   63C
  8
0
  6
CONTINUOUS
 62
     7
 10
128.326019287109
 20
-36.1764678842881
 30
0.0
 11
128.326019287109
 21
-15.9264678842881
 31
0.0
  0
LINE
  5
   63D
  8
0
  6
CONTINUOUS
 62
     7
 10
128.326034268214
 20
-15.9264403457157
 30
0.0
 11
128.460006425478
 21
-15.4264403594095
 31
0.0
  0
LINE
  5
   63E
  8
0
  6
CONTINUOUS
 62
     7
 10
128.460023459225
 20
-15.4264213318722
 30
0.0
 11
128.826043643232
 21
-15.0603935270508
 31
0.0
  0
LINE
  5
   63F
  8
0
  6
CONTINUOUS
 62
     7
 10
128.825991894609
 20
-15.0604530670371
 30
0.0
 11
129.325999497188
 21
-14.9264809098317
 31
0.0
  0
LINE
  5
   640
  8
0
  6
CONTINUOUS
 62
     7
 10
132.326019287109
 20
-36.1764678842881
 30
0.0
 11
128.326019287109
 21
-36.1764678842881
 31
0.0
  0
LINE
  5
   641
  8
0
  6
CONTINUOUS
 62
     7
 10
132.325997943536
 20
-43.676474260269
 30
0.0
 11
131.825959817026
 21
-43.1764742781124
 31
0.0
  0
LINE
  5
   642
  8
0
  6
CONTINUOUS
 62
     7
 10
131.825971577883
 20
-37.6764625811686
 30
0.0
 11
132.326017333293
 21
-37.1764625993226
 31
0.0
  0
LINE
  5
   643
  8
0
  6
CONTINUOUS
 62
     7
 10
131.825965273331
 20
-37.6764826568743
 30
0.0
 11
100.442061769913
 21
-37.6764826568743
 31
0.0
  0
LINE
  5
   644
  8
0
  6
CONTINUOUS
 62
     7
 10
131.825972557068
 20
-43.1764678842881
 30
0.0
 11
100.442038536072
 21
-43.1764678842881
 31
0.0
  0
LINE
  5
   645
  8
0
  6
CONTINUOUS
 62
     7
 10
100.442059535352
 20
-37.6764898352132
 30
0.0
 11
98.5760170270477
 21
-37.1764822066318
 31
0.0
  0
LINE
  5
   646
  8
0
  6
CONTINUOUS
 62
     7
 10
98.5760331987892
 20
-37.1764875979413
 30
0.0
 11
96.8260170049744
 21
-36.7075698058132
 31
0.0
  0
LINE
  5
   647
  8
0
  6
CONTINUOUS
 62
     7
 10
96.3260198427877
 20
-44.2793499476221
 30
0.0
 11
100.442039544781
 21
-43.176467579352
 31
0.0
  0
LINE
  5
   648
  8
0
  6
CONTINUOUS
 62
     7
 10
96.3260257876113
 20
-35.5293160872111
 30
0.0
 11
96.8260243304403
 21
-35.3953439299424
 31
0.0
  0
LINE
  5
   649
  8
0
  6
CONTINUOUS
 62
     7
 10
98.3260188102722
 20
-47.4264755136827
 30
0.0
 11
96.3260192871094
 21
-47.4264755136827
 31
0.0
  0
LINE
  5
   64A
  8
0
  6
CONTINUOUS
 62
     7
 10
98.3260188102722
 20
-51.1848644945656
 30
0.0
 11
98.3260188102722
 21
-47.4264755136827
 31
0.0
  0
LINE
  5
   64B
  8
0
  6
CONTINUOUS
 62
     7
 10
96.8260192871094
 20
-44.1453857309678
 30
0.0
 11
96.8260192871094
 21
-21.9264755136827
 31
0.0
  0
LINE
  5
   64C
  8
0
  6
CONTINUOUS
 62
     7
 10
98.5760192871094
 20
-37.1764678842881
 30
0.0
 11
98.5760192871094
 21
-24.6764678842881
 31
0.0
  0
LINE
  5
   64D
  8
0
  6
CONTINUOUS
 62
     7
 10
97.826018333435
 20
-21.9264755136827
 30
0.0
 11
96.3260188102722
 21
-21.9264755136827
 31
0.0
  0
LINE
  5
   64E
  8
0
  6
CONTINUOUS
 62
     7
 10
98.2010244180763
 20
-22.0269595881887
 30
0.0
 11
97.8260234845801
 21
-21.9264804702455
 31
0.0
  0
LINE
  5
   64F
  8
0
  6
CONTINUOUS
 62
     7
 10
98.2010244180763
 20
-22.0269595881887
 30
0.0
 11
97.8260234845801
 21
-21.9264804702455
 31
0.0
  0
LINE
  5
   650
  8
0
  6
CONTINUOUS
 62
     7
 10
98.475539865867
 20
-22.3014829729147
 30
0.0
 11
98.2010209040238
 21
-22.026962113567
 31
0.0
  0
LINE
  5
   651
  8
0
  6
CONTINUOUS
 62
     7
 10
98.5760117910242
 20
-22.6764895703476
 30
0.0
 11
98.4755312383848
 21
-22.301489571539
 31
0.0
  0
LINE
  5
   652
  8
0
  6
CONTINUOUS
 62
     7
 10
98.5760283470153
 20
-24.6764747388172
 30
0.0
 11
98.5760283470153
 21
-22.6764823682117
 31
0.0
  0
LINE
  5
   653
  8
0
  6
CONTINUOUS
 62
     7
 10
98.4755421832854
 20
-25.0514786873872
 30
0.0
 11
98.5231534128156
 21
-24.8737900914447
 31
0.0
  0
LINE
  5
   654
  8
0
  6
CONTINUOUS
 62
     7
 10
98.5231524956562
 20
-24.8737949343865
 30
0.0
 11
98.576021814318
 21
-24.6764759068838
 31
0.0
  0
LINE
  5
   655
  8
0
  6
CONTINUOUS
 62
     7
 10
98.2010191326184
 20
-25.3260143936904
 30
0.0
 11
98.4755385576716
 21
-25.0514935339375
 31
0.0
  0
LINE
  5
   656
  8
0
  6
CONTINUOUS
 62
     7
 10
97.8260128609782
 20
-25.4264859023029
 30
0.0
 11
98.2010128558011
 21
-25.3260067920688
 31
0.0
  0
LINE
  5
   657
  8
0
  6
CONTINUOUS
 62
     7
 10
97.8260188102722
 20
-25.4264755136827
 30
0.0
 11
96.8260192871094
 21
-25.4264755136827
 31
0.0
  0
LINE
  5
   658
  8
0
  6
CONTINUOUS
 62
     7
 10
96.3260192871094
 20
-59.1764750368455
 30
0.0
 11
95.3260192871094
 21
-59.1764750368455
 31
0.0
  0
LINE
  5
   659
  8
0
  6
CONTINUOUS
 62
     7
 10
96.3260192871094
 20
15.3235168569228
 30
0.0
 11
95.3260192871094
 21
15.3235168569228
 31
0.0
  0
LINE
  5
   65A
  8
0
  6
CONTINUOUS
 62
     7
 10
96.3260192871094
 20
10.3893432729384
 30
0.0
 11
95.3260192871094
 21
10.3893432729384
 31
0.0
  0
LINE
  5
   65B
  8
0
  6
CONTINUOUS
 62
     7
 10
99.975525960263
 20
-43.3014735518945
 30
0.0
 11
98.5760075224778
 21
-42.9264735809135
 31
0.0
  0
LINE
  5
   65C
  8
0
  6
CONTINUOUS
 62
     7
 10
98.5760025978087
 20
-42.9264688141157
 30
0.0
 11
98.5760025978087
 21
-37.9264688141157
 31
0.0
  0
LINE
  5
   65D
  8
0
  6
CONTINUOUS
 62
     7
 10
98.5760027440752
 20
-37.9264755012419
 30
0.0
 11
99.9755330996143
 21
-37.5514755045906
 31
0.0
  0
LINE
  5
   65E
  8
0
  6
CONTINUOUS
 62
     7
 10
96.3260192871094
 20
-54.2841644174912
 30
0.0
 11
95.3260192871094
 21
-54.2841644174912
 31
0.0
  0
LINE
  5
   65F
  8
0
  6
CONTINUOUS
 62
     7
 10
96.3260192871094
 20
-54.1764755136827
 30
0.0
 11
95.3260192871094
 21
-54.1764755136827
 31
0.0
  0
LINE
  5
   660
  8
0
  6
CONTINUOUS
 62
     7
 10
98.4755438769968
 20
-25.3161248162027
 30
0.0
 11
98.5760239465264
 21
-24.8737877948163
 31
0.0
  0
LINE
  5
   661
  8
0
  6
CONTINUOUS
 62
     7
 10
98.576018333435
 20
-24.8737869150498
 30
0.0
 11
98.5231494903564
 21
-24.8737869150498
 31
0.0
  0
LINE
  5
   662
  8
0
  6
CONTINUOUS
 62
     7
 10
98.5090308989966
 20
-31.926480666223
 30
0.0
 11
98.5760169781008
 21
-31.8767522746431
 31
0.0
  0
LINE
  5
   663
  8
0
  6
CONTINUOUS
 62
     7
 10
98.5090353531287
 20
-31.9264982230228
 30
0.0
 11
98.47554088306
 21
-31.9016340281258
 31
0.0
  0
LINE
  5
   664
  8
0
  6
CONTINUOUS
 62
     7
 10
98.5760188102722
 20
-26.9264678842881
 30
0.0
 11
98.4755382537842
 21
-26.9264678842881
 31
0.0
  0
LINE
  5
   665
  8
0
  6
CONTINUOUS
 62
     7
 10
98.4755355203401
 20
-29.9513611995992
 30
0.0
 11
98.5090299904088
 21
-29.9264970047022
 31
0.0
  0
LINE
  5
   666
  8
0
  6
CONTINUOUS
 62
     7
 10
98.5760209100579
 20
-29.9762125398864
 30
0.0
 11
98.5090348309537
 21
-29.9264841483065
 31
0.0
  0
LINE
  5
   667
  8
0
  6
CONTINUOUS
 62
     7
 10
98.5301222950896
 20
-26.0654318183688
 30
0.0
 11
98.4755354255588
 21
-25.7605459575977
 31
0.0
  0
LINE
  5
   668
  8
0
  6
CONTINUOUS
 62
     7
 10
98.5760184101329
 20
-26.9264664596282
 30
0.0
 11
98.5301247420399
 21
-26.0654282844581
 31
0.0
  0
LINE
  5
   669
  8
0
  6
CONTINUOUS
 62
     7
 10
98.475536078698
 20
-31.9016192707598
 30
0.0
 11
98.217856145205
 21
-31.8503650039053
 31
0.0
  0
LINE
  5
   66A
  8
0
  6
CONTINUOUS
 62
     7
 10
98.2178575282892
 20
-31.8503619858391
 30
0.0
 11
98.2010180241527
 21
-31.8391086296485
 31
0.0
  0
LINE
  5
   66B
  8
0
  6
CONTINUOUS
 62
     7
 10
98.201010612594
 20
-30.0138550107418
 30
0.0
 11
98.2178510698252
 21
-30.002601654319
 31
0.0
  0
LINE
  5
   66C
  8
0
  6
CONTINUOUS
 62
     7
 10
98.2178543669508
 20
-30.0026040502419
 30
0.0
 11
98.4755333473435
 21
-29.9513497913638
 31
0.0
  0
LINE
  5
   66D
  8
0
  6
CONTINUOUS
 62
     7
 10
98.4755382537842
 20
-26.9264678842881
 30
0.0
 11
98.2010188102722
 21
-26.9264678842881
 31
0.0
  0
LINE
  5
   66E
  8
0
  6
CONTINUOUS
 62
     7
 10
98.2010165672035
 20
-31.8391155262548
 30
0.0
 11
97.8260165759067
 21
-31.771976869849
 31
0.0
  0
LINE
  5
   66F
  8
0
  6
CONTINUOUS
 62
     7
 10
97.8260159956181
 20
-30.0809920460719
 30
0.0
 11
98.2010159869149
 21
-30.0138533896662
 31
0.0
  0
LINE
  5
   670
  8
0
  6
CONTINUOUS
 62
     7
 10
98.2010188102722
 20
-26.9264678842881
 30
0.0
 11
97.8260188102722
 21
-26.9264678842881
 31
0.0
  0
LINE
  5
   671
  8
0
  6
CONTINUOUS
 62
     7
 10
97.8260188102722
 20
-30.0809860117295
 30
0.0
 11
96.8260192871094
 21
-30.0809860117295
 31
0.0
  0
LINE
  5
   672
  8
0
  6
CONTINUOUS
 62
     7
 10
97.8260188102722
 20
-26.9264678842881
 30
0.0
 11
96.8260192871094
 21
-26.9264678842881
 31
0.0
  0
LINE
  5
   673
  8
0
  6
CONTINUOUS
 62
     7
 10
97.8260188102722
 20
-31.7719650156358
 30
0.0
 11
96.8260192871094
 21
-31.7719650156358
 31
0.0
  0
LINE
  5
   674
  8
0
  6
CONTINUOUS
 62
     3
 10
144.826019287706
 20
20.5735321157119
 30
0.0
 11
114.026019287109
 21
20.5735321157119
 31
0.0
  0
LINE
  5
   675
  8
0
  6
CONTINUOUS
 62
     3
 10
143.426017761827
 20
19.1735382192275
 30
0.0
 11
129.094217493137
 21
19.1735382192275
 31
0.0
  0
LINE
  5
   676
  8
0
  6
CONTINUOUS
 62
     3
 10
143.426017761827
 20
-63.0264606363633
 30
0.0
 11
132.326019287706
 21
-63.0264606363633
 31
0.0
  0
LINE
  5
   677
  8
0
  6
CONTINUOUS
 62
     3
 10
144.826019287706
 20
-64.4264602548936
 30
0.0
 11
115.326018810272
 21
-64.4264602548936
 31
0.0
  0
LINE
  5
   678
  8
0
  6
CONTINUOUS
 62
     3
 10
132.326019287706
 20
-64.4264602548936
 30
0.0
 11
132.326019287706
 21
-43.3014678842881
 31
0.0
  0
LINE
  5
   679
  8
0
  6
CONTINUOUS
 62
     3
 10
132.326019287707
 20
-37.5514755136827
 30
0.0
 11
132.326019287707
 21
-36.17643736671
 31
0.0
  0
LINE
  5
   67A
  8
0
  6
CONTINUOUS
 62
     3
 10
132.326019287109
 20
12.8235557583141
 30
0.0
 11
132.326019287109
 21
20.5735321157119
 31
0.0
  0
LINE
  5
   67B
  8
0
  6
CONTINUOUS
 62
     3
 10
147.076019287706
 20
-15.4520339853623
 30
0.0
 11
147.076019287706
 21
-10.6766281015733
 31
0.0
  0
LINE
  5
   67C
  8
0
  6
CONTINUOUS
 62
     3
 10
147.076015111445
 20
-44.1766161048181
 30
0.0
 11
147.075992223263
 21
-40.9012564741651
 31
0.0
  0
LINE
  5
   67D
  8
0
  6
CONTINUOUS
 62
     3
 10
144.826019287706
 20
8.44853211571187
 30
0.0
 11
144.826019287706
 21
20.5735321157119
 31
0.0
  0
LINE
  5
   67E
  8
0
  6
CONTINUOUS
 62
     3
 10
144.826019287706
 20
12.4485397451064
 30
0.0
 11
143.426017761827
 21
12.4485397451064
 31
0.0
  0
LINE
  5
   67F
  8
0
  6
CONTINUOUS
 62
     3
 10
144.826019287706
 20
-52.4264461541338
 30
0.0
 11
144.826019287706
 21
-52.051459369339
 31
0.0
  0
LINE
  5
   680
  8
0
  6
CONTINUOUS
 62
     3
 10
144.826019287706
 20
-56.3014602548936
 30
0.0
 11
143.426017761827
 21
-56.3014602548936
 31
0.0
  0
LINE
  5
   681
  8
0
  6
CONTINUOUS
 62
     3
 10
143.426017761827
 20
-63.0264587290147
 30
0.0
 11
143.426017761827
 21
-52.0514589878688
 31
0.0
  0
LINE
  5
   682
  8
0
  6
CONTINUOUS
 62
     3
 10
143.42601623242
 20
-37.5514678842881
 30
0.0
 11
132.326017758299
 21
-37.5514678842881
 31
0.0
  0
LINE
  5
   683
  8
0
  6
CONTINUOUS
 62
     3
 10
143.426016577625
 20
-43.3014678842881
 30
0.0
 11
132.326018103504
 21
-43.3014678842881
 31
0.0
  0
LINE
  5
   684
  8
0
  6
CONTINUOUS
 62
     1
 10
146.076018810868
 20
8.44853211571187
 30
0.0
 11
143.426017761827
 21
8.44853211571187
 31
0.0
  0
LINE
  5
   685
  8
0
  6
CONTINUOUS
 62
     1
 10
148.05455522441
 20
3.12534209181071
 30
0.0
 11
148.039395617807
 21
3.16194792613577
 31
0.0
  0
LINE
  5
   686
  8
0
  6
CONTINUOUS
 62
     1
 10
148.039412188869
 20
3.16191355422318
 30
0.0
 11
147.951024224357
 21
3.19851938903794
 31
0.0
  0
LINE
  5
   687
  8
0
  6
CONTINUOUS
 62
     1
 10
144.826019287706
 20
-52.0514597780564
 30
0.0
 11
144.576019287706
 21
-52.0514597780564
 31
0.0
  0
LINE
  5
   688
  8
0
  6
CONTINUOUS
 62
     1
 10
146.076018810868
 20
-52.0514461541338
 30
0.0
 11
143.426017761827
 21
-52.0514461541338
 31
0.0
  0
LINE
  5
   689
  8
0
  6
CONTINUOUS
 62
     2
 10
151.576674447953
 20
-49.051467407451
 30
0.0
 11
151.576674447953
 21
-48.0514688379624
 31
0.0
  0
LINE
  5
   68A
  8
0
  6
CONTINUOUS
 62
     2
 10
147.076674477755
 20
-49.3014678824606
 30
0.0
 11
147.076674477755
 21
3.19853211753936
 31
0.0
  0
LINE
  5
   68B
  8
0
  6
CONTINUOUS
 62
     2
 10
148.826014518738
 20
3.19853211571187
 30
0.0
 11
146.076018810868
 21
3.19853211571187
 31
0.0
  0
LINE
  5
   68C
  8
0
  6
CONTINUOUS
 62
     2
 10
148.826014518738
 20
-49.3014678831081
 30
0.0
 11
146.076018810868
 21
-49.3014678831081
 31
0.0
  0
LINE
  5
   68D
  8
0
  6
CONTINUOUS
 62
     2
 10
151.576573517401
 20
-33.0514808957224
 30
0.0
 11
151.57660022028
 21
-23.3014808951016
 31
0.0
  0
LINE
  5
   68E
  8
0
  6
CONTINUOUS
 62
     7
 10
130.576015472537
 20
-14.9264809098317
 30
0.0
 11
129.325999497188
 21
-14.9264809098317
 31
0.0
  0
LINE
  5
   68F
  8
0
  6
CONTINUOUS
 62
     7
 10
146.076018810868
 20
3.19853211571187
 30
0.0
 11
146.076018810868
 21
8.44853211571187
 31
0.0
  0
LINE
  5
   690
  8
0
  6
CONTINUOUS
 62
     7
 10
146.076018810868
 20
-52.0514597099369
 30
0.0
 11
146.076018810868
 21
-49.3014678831081
 31
0.0
  0
LINE
  5
   691
  8
0
  6
CONTINUOUS
 62
     3
 10
143.426017761827
 20
8.44853211571187
 30
0.0
 11
143.426017761827
 21
19.1735382192275
 31
0.0
  0
LINE
  5
   692
  8
0
  6
CONTINUOUS
 62
     3
 10
143.426017761827
 20
-52.0514589878688
 30
0.0
 11
143.426017761827
 21
8.44853211571187
 31
0.0
  0
ARC
  5
   693
  8
0
  6
CONTINUOUS
 62
     7
 10
161.914039191783
 20
-34.0734087095742
 30
0.0
 40
0.499999897877905
 50
348.623601716676
 51
436.688817054576
  0
ARC
  5
   694
  8
0
  6
CONTINUOUS
 62
     7
 10
161.315668463235
 20
-37.0473179896231
 30
0.0
 40
0.50000037262337
 50
260.594020543651
 51
348.623601716676
  0
LINE
  5
   695
  8
0
  6
DASHDOT
 62
     7
 10
169.314333028716
 20
-37.127735686105
 30
0.0
 11
144.255987299726
 21
-32.0858279160647
 31
0.0
  0
LINE
  5
   696
  8
0
  6
CONTINUOUS
 62
     7
 10
162.029158923396
 20
-33.5868421829188
 30
0.0
 11
151.57657882423
 21
-31.113802732473
 31
0.0
  0
LINE
  5
   697
  8
0
  6
CONTINUOUS
 62
     7
 10
161.805844956912
 20
-37.1459447983873
 30
0.0
 11
162.404215521166
 21
-34.1720354852815
 31
0.0
  0
LINE
  5
   698
  8
0
  6
CONTINUOUS
 62
     7
 10
161.233953968696
 20
-37.5405957529236
 30
0.0
 11
151.5766038879
 21
-35.9407963312739
 31
0.0
  0
LINE
  5
   699
  8
0
  6
DASHDOT
 62
     7
 10
93.8260192871094
 20
-63.5264678842881
 30
0.0
 11
93.8260192871094
 21
25.0262669344448
 31
0.0
  0
LINE
  5
   69A
  8
0
  6
CONTINUOUS
 62
     7
 10
113.775665528309
 20
8.82353211571187
 30
0.0
 11
107.775509214993
 21
8.82353211571187
 31
0.0
  0
LINE
  5
   69B
  8
0
  6
CONTINUOUS
 62
     7
 10
113.625417696835
 20
7.57353211571187
 30
0.0
 11
107.491083320113
 21
7.57353211571187
 31
0.0
  0
LINE
  5
   69C
  8
0
  6
CONTINUOUS
 62
     7
 10
100.826019287109
 20
5.54075473450827
 30
0.0
 11
100.826019287109
 21
7.57353211571187
 31
0.0
  0
LINE
  5
   69D
  8
0
  6
CONTINUOUS
 62
     7
 10
102.826019287109
 20
5.54075473450827
 30
0.0
 11
102.826019287109
 21
7.57353211571187
 31
0.0
  0
LINE
  5
   69E
  8
0
  6
CONTINUOUS
 62
     7
 10
107.826019287109
 20
7.57353211571187
 30
0.0
 11
107.826019287109
 21
8.82353211571187
 31
0.0
  0
LINE
  5
   69F
  8
0
  6
CONTINUOUS
 62
     7
 10
104.050242703563
 20
7.57353211571187
 30
0.0
 11
100.826019287109
 21
7.57353211571187
 31
0.0
  0
LINE
  5
   6A0
  8
0
  6
CONTINUOUS
 62
     3
 10
113.944990189607
 20
5.54075473450827
 30
0.0
 11
92.7115987241286
 21
5.54075473450827
 31
0.0
  0
LINE
  5
   6A1
  8
0
  6
CONTINUOUS
 62
     7
 10
107.826019287109
 20
18.3235321157119
 30
0.0
 11
105.326019287109
 21
18.3235321157119
 31
0.0
  0
LINE
  5
   6A2
  8
0
  6
CONTINUOUS
 62
     7
 10
107.826019287109
 20
8.82353120890878
 30
0.0
 11
107.826019287109
 21
18.3235321157119
 31
0.0
  0
LINE
  5
   6A3
  8
0
  6
CONTINUOUS
 62
     7
 10
105.037410627024
 20
5.04075473450821
 30
0.0
 11
107.075654323017
 21
7.03781643853704
 31
0.0
  0
LINE
  5
   6A4
  8
0
  6
CONTINUOUS
 62
     7
 10
103.576383790601
 20
7.10924727596841
 30
0.0
 11
105.326019207652
 21
8.82353221816291
 31
0.0
  0
LINE
  5
   6A5
  8
0
  6
CONTINUOUS
 62
     7
 10
105.326019287109
 20
8.82353211571187
 30
0.0
 11
105.326019287109
 21
11.7235321157119
 31
0.0
  0
ARC
  5
   6A6
  8
0
  6
CONTINUOUS
 62
     7
 10
105.326018884876
 20
5.32353291434764
 30
0.0
 40
2.49999952145068
 50
134.415297503443
 51
179.999999948034
  0
ARC
  5
   6A7
  8
0
  6
CONTINUOUS
 62
     7
 10
105.326019287109
 20
8.82353120890878
 30
0.0
 40
2.5
 50
314.415292674021
 51
359.999999948034
  0
LINE
  5
   6A8
  8
0
  6
DASHDOT
 62
     7
 10
110.992328738423
 20
13.8235321157119
 30
0.0
 11
102.662505174125
 21
13.8235321157119
 31
0.0
  0
INSERT
  5
   6A9
  8
0
  6
CONTINUOUS
 62
     7
  2
*HATCH971
 10
146.825988769531
 20
-78.0449981689453
 30
0.0
 41
0.5
 42
0.5
 50
89.9999999480344
 43
0.5
  0
LINE
  5
   6AA
  8
0
  6
CONTINUOUS
 62
     7
 10
105.326019287109
 20
-52.6764616752615
 30
0.0
 11
96.3260192871094
 21
-52.6764616752615
 31
0.0
  0
LINE
  5
   6AB
  8
0
  6
CONTINUOUS
 62
     7
 10
103.326019287109
 20
-52.6764616752615
 30
0.0
 11
103.326019287109
 21
-51.1848644945656
 31
0.0
  0
LINE
  5
   6AC
  8
0
  6
CONTINUOUS
 62
     7
 10
105.326019287109
 20
-52.6764616752615
 30
0.0
 11
105.326019287109
 21
-51.1848644945656
 31
0.0
  0
LINE
  5
   6AD
  8
0
  6
CONTINUOUS
 62
     7
 10
108.326019287109
 20
-52.6764616752615
 30
0.0
 11
108.326019287109
 21
-51.1848644945656
 31
0.0
  0
LINE
  5
   6AE
  8
0
  6
CONTINUOUS
 62
     7
 10
117.180231710607
 20
-52.6764616752615
 30
0.0
 11
108.326019287109
 21
-52.6764616752615
 31
0.0
  0
LINE
  5
   6AF
  8
0
  6
CONTINUOUS
 62
     3
 10
117.072109344955
 20
-51.1848644945656
 30
0.0
 11
95.6321080310252
 21
-51.1848644945656
 31
0.0
  0
LINE
  5
   6B0
  8
0
  6
CONTINUOUS
 62
     7
 10
106.826018810272
 20
-62.1764616752615
 30
0.0
 11
105.326019287109
 21
-62.1764616752615
 31
0.0
  0
LINE
  5
   6B1
  8
0
  6
CONTINUOUS
 62
     7
 10
106.826018810272
 20
-55.6764678842881
 30
0.0
 11
106.826018810272
 21
-51.1848644945656
 31
0.0
  0
LINE
  5
   6B2
  8
0
  6
CONTINUOUS
 62
     7
 10
106.826018810272
 20
-62.1764616752616
 30
0.0
 11
106.826018810272
 21
-59.8014626289359
 31
0.0
  0
LINE
  5
   6B3
  8
0
  6
CONTINUOUS
 62
     7
 10
105.326019287107
 20
-62.1764616752615
 30
0.0
 11
105.326019287107
 21
-51.1848644945656
 31
0.0
  0
LINE
  5
   6B4
  8
0
  6
CONTINUOUS
 62
     7
 10
107.826018810272
 20
-62.1764616752616
 30
0.0
 11
106.826018810272
 21
-62.1764616752616
 31
0.0
  0
LINE
  5
   6B5
  8
0
  6
CONTINUOUS
 62
     7
 10
107.826018810272
 20
-51.6764616752616
 30
0.0
 11
106.826018810272
 21
-51.6764616752616
 31
0.0
  0
LINE
  5
   6B6
  8
0
  6
DASHDOT
 62
     7
 10
116.258103079823
 20
-57.6764678842881
 30
0.0
 11
102.662505174125
 21
-57.6764678842881
 31
0.0
  0
INSERT
  5
   6B7
  8
0
  6
CONTINUOUS
 62
     7
  2
*HATCH972
 10
146.825988769531
 20
-78.0449981689453
 30
0.0
 41
0.5
 42
0.5
 50
89.9999999480344
 43
0.5
  0
LINE
  5
   6B8
  8
0
  6
CONTINUOUS
 62
     7
 10
107.826018810272
 20
-55.6264678842881
 30
0.0
 11
105.326019287107
 21
-55.6264678842881
 31
0.0
  0
LINE
  5
   6B9
  8
0
  6
CONTINUOUS
 62
     7
 10
107.826018810272
 20
-59.7264678842881
 30
0.0
 11
105.326019287107
 21
-59.7264678842881
 31
0.0
  0
INSERT
  5
   6BA
  8
0
  6
CONTINUOUS
 62
     7
  2
*HATCH973
 10
146.825988769531
 20
-78.0449981689453
 30
0.0
 41
0.5
 42
0.5
 50
89.9999999480344
 43
0.5
  0
INSERT
  5
   6BB
  8
0
  6
CONTINUOUS
 62
     7
  2
*HATCH974
 10
146.825988769531
 20
-78.0449981689453
 30
0.0
 41
0.5
 42
0.5
 50
89.9999999480344
 43
0.5
  0
INSERT
  5
   6BC
  8
0
  6
CONTINUOUS
 62
     7
  2
*HATCH975
 10
146.825988769531
 20
-78.0449981689453
 30
0.0
 41
0.5
 42
0.5
 50
89.9999999480344
 43
0.5
  0
ARC
  5
   6BD
  8
0
  6
DASHDOT
 62
     7
 10
124.826418231157
 20
-28.1764678842881
 30
0.0
 40
38.0221347997541
 50
337.492314704898
 51
359.999999948034
  0
LINE
  5
   6BE
  8
0
  6
DASHDOT
 62
     7
 10
162.848553030911
 20
-28.1764678842881
 30
0.0
 11
162.848553030911
 21
-25.3013680669194
 31
0.0
  0
LINE
  5
   6BF
  8
0
  6
CONTINUOUS
 62
     7
 10
107.826019287109
 20
15.9235321157119
 30
0.0
 11
105.326019287109
 21
15.9235321157119
 31
0.0
  0
LINE
  5
   6C0
  8
0
  6
CONTINUOUS
 62
     7
 10
107.826019287109
 20
11.7235321157119
 30
0.0
 11
105.326019287109
 21
11.7235321157119
 31
0.0
  0
INSERT
  5
   6C1
  8
0
  6
CONTINUOUS
 62
     7
  2
*HATCH976
 10
146.825988769531
 20
-78.0449981689453
 30
0.0
 41
0.5
 42
0.5
 50
89.9999999480344
 43
0.5
  0
INSERT
  5
   6C2
  8
0
  6
CONTINUOUS
 62
     7
  2
*HATCH977
 10
146.825988769531
 20
-78.0449981689453
 30
0.0
 41
0.5
 42
0.5
 50
89.9999999480344
 43
0.5
  0
INSERT
  5
   6C3
  8
0
  6
CONTINUOUS
 62
     7
  2
*HATCH978
 10
146.825988769531
 20
-78.0449981689453
 30
0.0
 41
0.5
 42
0.5
 50
89.9999999480344
 43
0.5
  0
LINE
  5
   6C4
  8
0
  6
CONTINUOUS
 62
     7
 10
107.826019287109
 20
20.5735244750977
 30
0.0
 11
96.3260192871094
 21
20.5735244750977
 31
0.0
  0
LINE
  5
   6C5
  8
0
  6
CONTINUOUS
 62
     7
 10
98.4481270527126
 20
24.3959795118625
 30
0.0
 11
90.0397818984999
 21
25.5425720328915
 31
0.0
  0
LINE
  5
   6C6
  8
0
  6
CONTINUOUS
 62
     1
 10
148.826014518738
 20
-50.5546855926514
 30
0.0
 11
148.826014518738
 21
-49.5546855926514
 31
0.0
  0
LINE
  5
   6C7
  8
0
  6
CONTINUOUS
 62
     1
 10
149.826014518738
 20
-50.5546855926514
 30
0.0
 11
148.826014518738
 21
-50.5546855926514
 31
0.0
  0
LINE
  5
   6C8
  8
0
  6
CONTINUOUS
 62
     1
 10
148.826014518738
 20
3.4453125
 30
0.0
 11
148.826014518738
 21
4.4453125
 31
0.0
  0
LINE
  5
   6C9
  8
0
  6
CONTINUOUS
 62
     1
 10
149.826014518738
 20
4.4453125
 30
0.0
 11
148.826014518738
 21
4.4453125
 31
0.0
  0
LINE
  5
   6CA
  8
0
  6
CONTINUOUS
 62
     1
 10
148.826014518738
 20
-49.5546855926514
 30
0.0
 11
148.826014518738
 21
3.44531440734863
 31
0.0
  0
LINE
  5
   6CB
  8
0
  6
CONTINUOUS
 62
     1
 10
146.576014608145
 20
11.2339859008789
 30
0.0
 11
146.576014608145
 21
13.6566390991211
 31
0.0
  0
LINE
  5
   6CC
  8
0
  6
CONTINUOUS
 62
     1
 10
146.576014608145
 20
-59.7660102844238
 30
0.0
 11
146.576014608145
 21
-57.3433609008789
 31
0.0
  0
LINE
  5
   6CD
  8
0
  6
CONTINUOUS
 62
     1
 10
149.826014518738
 20
-63.8046855926514
 30
0.0
 11
149.826014518738
 21
17.6953144073486
 31
0.0
  0
LINE
  5
   6CE
  8
0
  6
CONTINUOUS
 62
     1
 10
151.576014518738
 20
-63.8046855926514
 30
0.0
 11
149.826014518738
 21
-63.8046855926514
 31
0.0
  0
LINE
  5
   6CF
  8
0
  6
CONTINUOUS
 62
     1
 10
151.576014518738
 20
-63.8046875
 30
0.0
 11
151.576014518738
 21
17.6953125
 31
0.0
  0
LINE
  5
   6D0
  8
0
  6
CONTINUOUS
 62
     1
 10
151.576014518738
 20
17.6953125
 30
0.0
 11
151.076014518738
 21
17.6953125
 31
0.0
  0
LINE
  5
   6D1
  8
0
  6
CONTINUOUS
 62
     1
 10
150.576014518738
 20
17.6953125
 30
0.0
 11
149.826014518738
 21
17.6953125
 31
0.0
  0
LINE
  5
   6D2
  8
0
  6
CONTINUOUS
 62
     1
 10
149.826014518738
 20
10.9453125
 30
0.0
 11
147.076014601294
 21
10.9453125
 31
0.0
  0
LINE
  5
   6D3
  8
0
  6
CONTINUOUS
 62
     1
 10
149.826014518738
 20
13.9453125
 30
0.0
 11
147.076014601294
 21
13.9453125
 31
0.0
  0
LINE
  5
   6D4
  8
0
  6
CONTINUOUS
 62
     1
 10
147.076014999156
 20
10.9453113514693
 30
0.0
 11
146.576014982693
 21
11.2339847559675
 31
0.0
  0
LINE
  5
   6D5
  8
0
  6
CONTINUOUS
 62
     1
 10
147.076014601294
 20
10.9453125
 30
0.0
 11
147.076014601294
 21
11.384651184082
 31
0.0
  0
LINE
  5
   6D6
  8
0
  6
CONTINUOUS
 62
     1
 10
147.076014601294
 20
11.384651184082
 30
0.0
 11
147.076014601294
 21
11.8712921142578
 31
0.0
  0
LINE
  5
   6D7
  8
0
  6
CONTINUOUS
 62
     1
 10
147.076014601294
 20
11.8712921142578
 30
0.0
 11
147.076014601294
 21
12.4453125
 31
0.0
  0
LINE
  5
   6D8
  8
0
  6
CONTINUOUS
 62
     1
 10
147.076014601294
 20
12.4453125
 30
0.0
 11
147.076014601294
 21
13.0193405151367
 31
0.0
  0
LINE
  5
   6D9
  8
0
  6
CONTINUOUS
 62
     1
 10
147.076014601294
 20
13.0193405151367
 30
0.0
 11
147.076014601294
 21
13.9453125
 31
0.0
  0
LINE
  5
   6DA
  8
0
  6
CONTINUOUS
 62
     1
 10
147.076014601294
 20
13.505973815918
 30
0.0
 11
147.076014601294
 21
13.8311309814453
 31
0.0
  0
LINE
  5
   6DB
  8
0
  6
CONTINUOUS
 62
     1
 10
146.826014601294
 20
13.8311309814453
 30
0.0
 11
146.826014601294
 21
13.9453125
 31
0.0
  0
LINE
  5
   6DC
  8
0
  6
CONTINUOUS
 62
     1
 10
146.576014173556
 20
13.6566379082521
 30
0.0
 11
147.076014190019
 21
13.9453113127503
 31
0.0
  0
LINE
  5
   6DD
  8
0
  6
CONTINUOUS
 62
     1
 10
149.826014518738
 20
-57.0546855926514
 30
0.0
 11
147.07601461794
 21
-57.0546855926514
 31
0.0
  0
LINE
  5
   6DE
  8
0
  6
CONTINUOUS
 62
     1
 10
149.826014518738
 20
-60.0546855926514
 30
0.0
 11
147.076014617952
 21
-60.0546855926514
 31
0.0
  0
LINE
  5
   6DF
  8
0
  6
CONTINUOUS
 62
     1
 10
146.57601434707
 20
-57.3433616010048
 30
0.0
 11
147.076014363535
 21
-57.0546863087482
 31
0.0
  0
LINE
  5
   6E0
  8
0
  6
CONTINUOUS
 62
     1
 10
147.07601461794
 20
-57.494026184082
 30
0.0
 11
147.07601461794
 21
-57.0546855926514
 31
0.0
  0
LINE
  5
   6E1
  8
0
  6
CONTINUOUS
 62
     1
 10
147.076014617954
 20
-57.9806594848633
 30
0.0
 11
147.076014617954
 21
-57.494026184082
 31
0.0
  0
LINE
  5
   6E2
  8
0
  6
CONTINUOUS
 62
     1
 10
147.076014617919
 20
-58.5546855926514
 30
0.0
 11
147.076014617919
 21
-57.9806594848633
 31
0.0
  0
LINE
  5
   6E3
  8
0
  6
CONTINUOUS
 62
     1
 10
147.076014617981
 20
-59.1287097930908
 30
0.0
 11
147.076014617981
 21
-58.5546855926514
 31
0.0
  0
LINE
  5
   6E4
  8
0
  6
CONTINUOUS
 62
     1
 10
147.076014617954
 20
-59.6153450012207
 30
0.0
 11
147.076014617954
 21
-59.1287097930908
 31
0.0
  0
LINE
  5
   6E5
  8
0
  6
CONTINUOUS
 62
     1
 10
147.076014617941
 20
-59.9405040740967
 30
0.0
 11
147.076014617941
 21
-59.6153450012207
 31
0.0
  0
LINE
  5
   6E6
  8
0
  6
CONTINUOUS
 62
     1
 10
147.076014825115
 20
-60.0546862064009
 30
0.0
 11
146.57601480865
 21
-59.7660109141444
 31
0.0
  0
LINE
  5
   6E7
  8
0
  6
CONTINUOUS
 62
     1
 10
147.076014617952
 20
-60.0546855926514
 30
0.0
 11
147.076014617952
 21
-59.9405040740967
 31
0.0
  0
LINE
  5
   6E8
  8
0
  6
CONTINUOUS
 62
     1
 10
151.076014518738
 20
17.6953125
 30
0.0
 11
150.576014518738
 21
17.6953125
 31
0.0
  0
LINE
  5
   6E9
  8
0
  6
CONTINUOUS
 62
     7
 10
149.826014518738
 20
17.6953125
 30
0.0
 11
149.826014518738
 21
39.0449078201169
 31
0.0
  0
LINE
  5
   6EA
  8
0
  6
CONTINUOUS
 62
     7
 10
148.826014518738
 20
4.4453125
 30
0.0
 11
148.826014518738
 21
10.9453125
 31
0.0
  0
LINE
  5
   6EB
  8
0
  6
CONTINUOUS
 62
     7
 10
149.826014518738
 20
-83.2841578194753
 30
0.0
 11
149.826014518738
 21
-63.8046855926514
 31
0.0
  0
LINE
  5
   6EC
  8
0
  6
CONTINUOUS
 62
     7
 10
148.826014518738
 20
-82.6850520072547
 30
0.0
 11
148.826014518738
 21
-60.0546855926514
 31
0.0
  0
LINE
  5
   6ED
  8
0
  6
CONTINUOUS
 62
     7
 10
149.826014518738
 20
14.1953125
 30
0.0
 11
148.826014518738
 21
14.1953125
 31
0.0
  0
LINE
  5
   6EE
  8
0
  6
CONTINUOUS
 62
     7
 10
149.826014518738
 20
10.6953125
 30
0.0
 11
148.826014518738
 21
10.6953125
 31
0.0
  0
LINE
  5
   6EF
  8
0
  6
CONTINUOUS
 62
     7
 10
149.826014518738
 20
4.9453125
 30
0.0
 11
148.826014518738
 21
4.9453125
 31
0.0
  0
LINE
  5
   6F0
  8
0
  6
CONTINUOUS
 62
     7
 10
149.826014518738
 20
-51.0546855926514
 30
0.0
 11
148.826014518738
 21
-51.0546855926514
 31
0.0
  0
LINE
  5
   6F1
  8
0
  6
CONTINUOUS
 62
     7
 10
149.826014518738
 20
-56.8046855926514
 30
0.0
 11
148.826014518738
 21
-56.8046855926514
 31
0.0
  0
LINE
  5
   6F2
  8
0
  6
CONTINUOUS
 62
     7
 10
149.826014518738
 20
-60.3046855926514
 30
0.0
 11
148.826014518738
 21
-60.3046855926514
 31
0.0
  0
LINE
  5
   6F3
  8
0
  6
CONTINUOUS
 62
     7
 10
148.826014518738
 20
-57.0546855926514
 30
0.0
 11
148.826014518738
 21
-50.5546855926514
 31
0.0
  0
LINE
  5
   6F4
  8
0
  6
CONTINUOUS
 62
     7
 10
148.826014518738
 20
13.9453125
 30
0.0
 11
148.826014518738
 21
39.8849848914079
 31
0.0
  0
LINE
  5
   6F5
  8
0
  6
CONTINUOUS
 62
     3
 10
151.845612137491
 20
37.3482901673683
 30
0.0
 11
147.037677524578
 21
41.3873257959429
 31
0.0
  0
LINE
  5
   6F6
  8
0
  6
CONTINUOUS
 62
     3
 10
152.549664219536
 20
-84.9159121856766
 30
0.0
 11
146.333625442533
 21
-81.1918472253853
 31
0.0
  0
INSERT
  5
   6F7
  8
0
  6
CONTINUOUS
 62
     7
  2
*HATCH979
 10
146.825988769531
 20
-78.0449981689453
 30
0.0
 41
0.5
 42
0.5
 50
89.9999999480344
 43
0.5
  0
INSERT
  5
   6F8
  8
0
  6
CONTINUOUS
 62
     7
  2
*HATCH980
 10
146.825988769531
 20
-78.0449981689453
 30
0.0
 41
0.5
 42
0.5
 50
89.9999999480344
 43
0.5
  0
INSERT
  5
   6F9
  8
0
  6
CONTINUOUS
 62
     7
  2
*HATCH981
 10
146.825988769531
 20
-78.0449981689453
 30
0.0
 41
0.5
 42
0.5
 50
89.9999999480344
 43
0.5
  0
INSERT
  5
   6FA
  8
0
  6
CONTINUOUS
 62
     7
  2
*HATCH982
 10
146.825988769531
 20
-78.0449981689453
 30
0.0
 41
0.5
 42
0.5
 50
89.9999999480344
 43
0.5
  0
LINE
  5
   6FB
  8
0
  6
DASHDOT
 62
     7
 10
162.848553030911
 20
-28.1764678842881
 30
0.0
 11
162.848553030911
 21
-17.6442409789932
 31
0.0
  0
LINE
  5
   6FC
  8
0
  6
DASHDOT
 62
     5
 10
176.57869488054
 20
-23.0514678842881
 30
0.0
 11
81.2436499940363
 21
-23.0514678842881
 31
0.0
  0
LINE
  5
   6FD
  8
0
  6
CONTINUOUS
 62
     3
 10
127.91544481853
 20
8.46257497400198
 30
0.0
 11
129.585847927419
 21
23.6407570691947
 31
0.0
  0
LINE
  5
   6FE
  8
0
  6
CONTINUOUS
 62
     3
 10
113.944990189606
 20
5.5407547345083
 30
0.0
 11
113.71061958216
 21
8.46257497400201
 31
0.0
  0
LINE
  5
   6FF
  8
0
  6
CONTINUOUS
 62
     3
 10
127.91544481853
 20
8.46257497400201
 30
0.0
 11
113.71061958216
 21
8.46257497400201
 31
0.0
  0
CIRCLE
  5
   700
  8
0
  6
CONTINUOUS
 62
     7
 10
104.466156388227
 20
17.1942051386249
 30
0.0
 40
0.25
  0
LINE
  5
   701
  8
0
  6
CONTINUOUS
 62
     7
 10
105.326019287109
 20
15.9235321157119
 30
0.0
 11
105.326019287109
 21
18.3235321157119
 31
0.0
  0
CIRCLE
  5
   702
  8
0
  6
CONTINUOUS
 62
     7
 10
107.512661939953
 20
-75.1525981911059
 30
0.0
 40
0.125
  0
LINE
  5
   703
  8
0
  6
CONTINUOUS
 62
     3
 10
104.076019287109
 20
8.82353211571187
 30
0.0
 11
104.076019287109
 21
18.8235321157119
 31
0.0
  0
LINE
  5
   704
  8
0
  6
DASHDOT
 62
     3
 10
128.370526217055
 20
13.8235321157119
 30
0.0
 11
101.741194474215
 21
13.8235321157119
 31
0.0
  0
LINE
  5
   705
  8
0
  6
CONTINUOUS
 62
     3
 10
105.326019287109
 20
8.82353211571187
 30
0.0
 11
105.326019287109
 21
11.8235321157119
 31
0.0
  0
LINE
  5
   706
  8
0
  6
CONTINUOUS
 62
     3
 10
107.826019287109
 20
18.8235321157119
 30
0.0
 11
104.076019287109
 21
18.8235321157119
 31
0.0
  0
LINE
  5
   707
  8
0
  6
CONTINUOUS
 62
     3
 10
105.326019287109
 20
8.82353211571187
 30
0.0
 11
104.076019287109
 21
8.82353211571187
 31
0.0
  0
LINE
  5
   708
  8
0
  6
CONTINUOUS
 62
     3
 10
123.576019287109
 20
9.82353211571187
 30
0.0
 11
123.576019287109
 21
10.8235321157119
 31
0.0
  0
ARC
  5
   709
  8
0
  6
CONTINUOUS
 62
     3
 10
105.326019287109
 20
13.8235321157119
 30
0.0
 40
2.0
 50
359.999999948034
 51
449.999999948034
  0
ARC
  5
   70A
  8
0
  6
CONTINUOUS
 62
     3
 10
122.576019287109
 20
17.8235321157119
 30
0.0
 40
1.0
 50
359.999999948034
 51
449.999999948034
  0
ARC
  5
   70B
  8
0
  6
CONTINUOUS
 62
     3
 10
122.576019287109
 20
9.82353211571187
 30
0.0
 40
1.0
 50
269.999999948034
 51
359.999999948034
  0
ARC
  5
   70C
  8
0
  6
CONTINUOUS
 62
     3
 10
105.326019287109
 20
13.8235321157119
 30
0.0
 40
2.0
 50
269.999999948034
 51
359.999999948034
  0
ARC
  5
   70D
  8
0
  6
CONTINUOUS
 62
     3
 10
105.326019287109
 20
13.8235321157119
 30
0.0
 40
1.0
 50
262.819244166576
 51
457.180755729493
  0
ARC
  5
   70E
  8
0
  6
CONTINUOUS
 62
     3
 10
105.076019287109
 20
15.8078455990103
 30
0.0
 40
1.0
 50
179.999999948034
 51
277.180755729493
  0
ARC
  5
   70F
  8
0
  6
CONTINUOUS
 62
     3
 10
105.076019287109
 20
11.8392186324134
 30
0.0
 40
1.0
 50
442.819244166576
 51
539.999999948034
  0
LINE
  5
   710
  8
0
  6
CONTINUOUS
 62
     3
 10
105.326019287109
 20
15.8235321157119
 30
0.0
 11
105.326019287109
 21
18.8235321157119
 31
0.0
  0
LINE
  5
   711
  8
0
  6
CONTINUOUS
 62
     3
 10
119.826019287109
 20
8.82353211571187
 30
0.0
 11
119.826019287109
 21
10.8235321157119
 31
0.0
  0
LINE
  5
   712
  8
0
  6
CONTINUOUS
 62
     3
 10
121.826019287109
 20
8.82353211571187
 30
0.0
 11
121.826019287109
 21
10.8235321157119
 31
0.0
  0
LINE
  5
   713
  8
0
  6
CONTINUOUS
 62
     3
 10
121.826019287109
 20
16.3235321157119
 30
0.0
 11
119.826019287109
 21
16.3235321157119
 31
0.0
  0
LINE
  5
   714
  8
0
  6
CONTINUOUS
 62
     3
 10
121.826019287109
 20
11.3235321157119
 30
0.0
 11
119.826019287109
 21
11.3235321157119
 31
0.0
  0
LINE
  5
   715
  8
0
  6
CONTINUOUS
 62
     3
 10
121.826019287109
 20
16.8235321157119
 30
0.0
 11
119.826019287109
 21
16.8235321157119
 31
0.0
  0
LINE
  5
   716
  8
0
  6
CONTINUOUS
 62
     3
 10
121.826019287109
 20
10.8235321157119
 30
0.0
 11
119.826019287109
 21
10.8235321157119
 31
0.0
  0
LINE
  5
   717
  8
0
  6
CONTINUOUS
 62
     3
 10
122.576019287109
 20
8.82353211571187
 30
0.0
 11
107.826019287109
 21
8.82353211571187
 31
0.0
  0
LINE
  5
   718
  8
0
  6
DOT
 62
     3
 10
107.826019287109
 20
8.82353211571187
 30
0.0
 11
105.326019287109
 21
8.82353211571187
 31
0.0
  0
INSERT
  5
   719
  8
0
  6
CONTINUOUS
 62
    98
  2
*HATCH983
 10
146.825988769531
 20
-78.0449981689453
 30
0.0
 41
0.5
 42
0.5
 50
89.9999999480344
 43
0.5
  0
INSERT
  5
   71A
  8
0
  6
CONTINUOUS
 62
    98
  2
*HATCH984
 10
146.825988769531
 20
-78.0449981689453
 30
0.0
 41
0.5
 42
0.5
 50
89.9999999480344
 43
0.5
  0
INSERT
  5
   71B
  8
0
  6
CONTINUOUS
 62
    98
  2
*HATCH985
 10
146.825988769531
 20
-78.0449981689453
 30
0.0
 41
0.5
 42
0.5
 50
89.9999999480344
 43
0.5
  0
LINE
  5
   71C
  8
0
  6
DOT
 62
     3
 10
114.026019287109
 20
18.8235321157119
 30
0.0
 11
107.826019287109
 21
18.8235321157119
 31
0.0
  0
LINE
  5
   71D
  8
0
  6
CONTINUOUS
 62
     3
 10
122.576019287109
 20
18.8235321157119
 30
0.0
 11
114.026019287109
 21
18.8235321157119
 31
0.0
  0
LINE
  5
   71E
  8
0
  6
CONTINUOUS
 62
     3
 10
119.826019287109
 20
16.8235321157119
 30
0.0
 11
119.826019287109
 21
18.8235321157119
 31
0.0
  0
LINE
  5
   71F
  8
0
  6
CONTINUOUS
 62
     3
 10
121.826019287109
 20
16.8235321157119
 30
0.0
 11
121.826019287109
 21
18.8235321157119
 31
0.0
  0
LINE
  5
   720
  8
0
  6
CONTINUOUS
 62
     3
 10
123.576019287109
 20
16.8235321157119
 30
0.0
 11
123.576019287109
 21
17.8235321157119
 31
0.0
  0
LINE
  5
   721
  8
0
  6
DOT
 62
     3
 10
119.826019287109
 20
10.8235321157119
 30
0.0
 11
119.826019287109
 21
16.8235321157119
 31
0.0
  0
LINE
  5
   722
  8
0
  6
DOT
 62
     3
 10
121.826019287109
 20
10.8235321157119
 30
0.0
 11
121.826019287109
 21
16.8235321157119
 31
0.0
  0
LINE
  5
   723
  8
0
  6
DOT
 62
     3
 10
123.576019287109
 20
10.8235321157119
 30
0.0
 11
123.576019287109
 21
16.8235321157119
 31
0.0
  0
LINE
  5
   724
  8
0
  6
CONTINUOUS
 62
     2
 10
125.526019287109
 20
16.8235321157119
 30
0.0
 11
117.026019287109
 21
16.8235321157119
 31
0.0
  0
LINE
  5
   725
  8
0
  6
CONTINUOUS
 62
     2
 10
125.526019287109
 20
10.8235321157119
 30
0.0
 11
117.026019287109
 21
10.8235321157119
 31
0.0
  0
LINE
  5
   726
  8
0
  6
CONTINUOUS
 62
     2
 10
116.526019287109
 20
11.3235321157119
 30
0.0
 11
116.526019287109
 21
16.3235321157119
 31
0.0
  0
LINE
  5
   727
  8
0
  6
DOT
 62
     2
 10
114.526019287109
 20
12.3235321157119
 30
0.0
 11
114.526019287109
 21
15.3235321157119
 31
0.0
  0
LINE
  5
   728
  8
0
  6
CONTINUOUS
 62
     2
 10
126.026019287109
 20
11.3235321157119
 30
0.0
 11
126.026019287109
 21
16.3235321157119
 31
0.0
  0
LINE
  5
   729
  8
0
  6
DOT
 62
     2
 10
116.526019287109
 20
15.3235321157119
 30
0.0
 11
114.526019287109
 21
15.3235321157119
 31
0.0
  0
LINE
  5
   72A
  8
0
  6
DOT
 62
     2
 10
116.526019287109
 20
12.3235321157119
 30
0.0
 11
114.526019287109
 21
12.3235321157119
 31
0.0
  0
LINE
  5
   72B
  8
0
  6
CONTINUOUS
 62
     2
 10
116.526019287109
 20
16.3235321157119
 30
0.0
 11
117.026019287109
 21
16.8235321157119
 31
0.0
  0
LINE
  5
   72C
  8
0
  6
CONTINUOUS
 62
     2
 10
117.026019287109
 20
10.8235321157119
 30
0.0
 11
116.526019287109
 21
11.3235321157119
 31
0.0
  0
LINE
  5
   72D
  8
0
  6
CONTINUOUS
 62
     2
 10
126.026019287109
 20
16.3235321157118
 30
0.0
 11
125.526019287109
 21
16.8235321157119
 31
0.0
  0
LINE
  5
   72E
  8
0
  6
CONTINUOUS
 62
     2
 10
125.526019287109
 20
10.8235321157119
 30
0.0
 11
126.026019287109
 21
11.3235321157119
 31
0.0
  0
LINE
  5
   72F
  8
0
  6
CONTINUOUS
 62
     2
 10
126.026019287109
 20
16.3235321157119
 30
0.0
 11
116.526019287109
 21
16.3235321157119
 31
0.0
  0
LINE
  5
   730
  8
0
  6
CONTINUOUS
 62
     2
 10
126.026019287109
 20
11.3235321157119
 30
0.0
 11
116.526019287109
 21
11.3235321157119
 31
0.0
  0
LINE
  5
   731
  8
0
  6
CONTINUOUS
 62
     2
 10
117.026019287109
 20
10.8235321157119
 30
0.0
 11
117.026019287109
 21
16.8235321157119
 31
0.0
  0
LINE
  5
   732
  8
0
  6
CONTINUOUS
 62
     2
 10
125.526019287109
 20
10.8235321157119
 30
0.0
 11
125.526019287109
 21
16.8235321157119
 31
0.0
  0
LINE
  5
   733
  8
0
  6
CONTINUOUS
 62
    98
 10
116.526019287109
 20
11.5735321157119
 30
0.0
 11
116.526019287109
 21
16.0735321157119
 31
0.0
  0
LINE
  5
   734
  8
0
  6
CONTINUOUS
 62
    98
 10
114.026019287109
 20
9.57353211571187
 30
0.0
 11
114.026019287109
 21
18.0735321157119
 31
0.0
  0
LINE
  5
   735
  8
0
  6
CONTINUOUS
 62
    98
 10
115.481786549753
 20
18.0735321157119
 30
0.0
 11
114.026019287109
 21
18.0735321157119
 31
0.0
  0
LINE
  5
   736
  8
0
  6
CONTINUOUS
 62
    98
 10
115.481786549753
 20
9.57353211571187
 30
0.0
 11
114.026019287109
 21
9.57353211571187
 31
0.0
  0
LINE
  5
   737
  8
0
  6
CONTINUOUS
 62
    98
 10
115.276019287109
 20
9.57353211571187
 30
0.0
 11
115.276019287109
 21
18.0735321157119
 31
0.0
  0
LINE
  5
   738
  8
0
  6
CONTINUOUS
 62
    98
 10
115.481786549753
 20
9.57353211571187
 30
0.0
 11
115.481786549753
 21
10.3235321157129
 31
0.0
  0
LINE
  5
   739
  8
0
  6
CONTINUOUS
 62
    98
 10
116.526019287109
 20
16.0735321157119
 30
0.0
 11
115.481786549753
 21
16.0735321157119
 31
0.0
  0
LINE
  5
   73A
  8
0
  6
CONTINUOUS
 62
    98
 10
116.526019287109
 20
11.5735321157119
 30
0.0
 11
115.481786549753
 21
11.5735321157119
 31
0.0
  0
ARC
  5
   73B
  8
0
  6
CONTINUOUS
 62
    98
 10
127.680422448192
 20
13.8235321157119
 30
0.0
 40
12.4044031610825
 50
169.549429035223
 51
190.450570860846
  0
LINE
  5
   73C
  8
0
  6
CONTINUOUS
 62
    98
 10
115.481786549753
 20
16.073532115712
 30
0.0
 11
115.481786549753
 21
16.3235321157147
 31
0.0
  0
ARC
  5
   73D
  8
0
  6
CONTINUOUS
 62
    98
 10
115.856786549749
 20
10.8235321157124
 30
0.0
 40
0.624999999996834
 50
126.86989759357
 51
158.314733408302
  0
ARC
  5
   73E
  8
0
  6
CONTINUOUS
 62
    98
 10
115.856786549752
 20
16.8235321157124
 30
0.0
 40
0.624999999999017
 50
126.869897593937
 51
158.314733408761
  0
ARC
  5
   73F
  8
0
  6
CONTINUOUS
 62
    98
 10
115.856786549752
 20
16.8235321157124
 30
0.0
 40
0.624999999999017
 50
201.685266487308
 51
233.130102302132
  0
ARC
  5
   740
  8
0
  6
CONTINUOUS
 62
    98
 10
115.856786549749
 20
10.8235321157124
 30
0.0
 40
0.624999999996834
 50
201.685266487767
 51
233.130102302499
  0
LINE
  5
   741
  8
0
  6
CONTINUOUS
 62
    98
 10
115.481786549753
 20
17.32353211571
 30
0.0
 11
115.481786549753
 21
18.0735321157119
 31
0.0
  0
LINE
  5
   742
  8
0
  6
CONTINUOUS
 62
    98
 10
115.481786549753
 20
11.3235321157118
 30
0.0
 11
115.481786549753
 21
11.5735321157117
 31
0.0
  0
LINE
  5
   743
  8
0
  6
CONTINUOUS
 62
     1
 10
115.326018810272
 20
-53.1764678842881
 30
0.0
 11
107.826018810272
 21
-53.1764678842881
 31
0.0
  0
LINE
  5
   744
  8
0
  6
CONTINUOUS
 62
     1
 10
115.326018810272
 20
-78.1764678842881
 30
0.0
 11
115.326018810272
 21
-59.6764678842881
 31
0.0
  0
LINE
  5
   745
  8
0
  6
CONTINUOUS
 62
     1
 10
115.326018810272
 20
-78.1764678842881
 30
0.0
 11
105.326018810272
 21
-78.1764678842881
 31
0.0
  0
LINE
  5
   746
  8
0
  6
CONTINUOUS
 62
     1
 10
105.326018810272
 20
-78.1764678842881
 30
0.0
 11
105.326018810272
 21
-70.6223914719262
 31
0.0
  0
LINE
  5
   747
  8
0
  6
CONTINUOUS
 62
     1
 10
107.826018810272
 20
-62.9264678842881
 30
0.0
 11
105.326018810272
 21
-62.9264678842881
 31
0.0
  0
LINE
  5
   748
  8
0
  6
CONTINUOUS
 62
     1
 10
107.826018810272
 20
-62.9264678842881
 30
0.0
 11
107.826018810272
 21
-59.6764678842881
 31
0.0
  0
LINE
  5
   749
  8
0
  6
CONTINUOUS
 62
     1
 10
115.576018810272
 20
-55.6764678842881
 30
0.0
 11
105.326018810272
 21
-55.6764678842881
 31
0.0
  0
LINE
  5
   74A
  8
0
  6
CONTINUOUS
 62
     1
 10
115.576018810272
 20
-59.6764678842881
 30
0.0
 11
105.326018810272
 21
-59.6764678842881
 31
0.0
  0
LINE
  5
   74B
  8
0
  6
CONTINUOUS
 62
     1
 10
115.326018810272
 20
-64.4264678842881
 30
0.0
 11
105.326018810272
 21
-64.4264678842881
 31
0.0
  0
LINE
  5
   74C
  8
0
  6
CONTINUOUS
 62
     1
 10
106.326018810272
 20
-72.4264678842881
 30
0.0
 11
105.326018810272
 21
-72.4264678842881
 31
0.0
  0
INSERT
  5
   74D
  8
0
  6
CONTINUOUS
 62
     1
  2
*HATCH986
 10
146.825988769531
 20
-78.0449981689453
 30
0.0
 41
0.5
 42
0.5
 50
89.9999999480344
 43
0.5
  0
INSERT
  5
   74E
  8
0
  6
CONTINUOUS
 62
     1
  2
*HATCH987
 10
146.825988769531
 20
-78.0449981689453
 30
0.0
 41
0.5
 42
0.5
 50
89.9999999480344
 43
0.5
  0
LINE
  5
   74F
  8
0
  6
CONTINUOUS
 62
     1
 10
106.326018810272
 20
-78.1764678842881
 30
0.0
 11
106.326018810272
 21
-71.1223914719262
 31
0.0
  0
LINE
  5
   750
  8
0
  6
CONTINUOUS
 62
     1
 10
114.326018810272
 20
-78.1764678842881
 30
0.0
 11
114.326018810272
 21
-71.1223914719262
 31
0.0
  0
LINE
  5
   751
  8
0
  6
CONTINUOUS
 62
     1
 10
107.076018810272
 20
-76.9764678842881
 30
0.0
 11
107.076018810272
 21
-71.1223914719262
 31
0.0
  0
LINE
  5
   752
  8
0
  6
CONTINUOUS
 62
     1
 10
113.576018810272
 20
-76.9764678842881
 30
0.0
 11
113.576018810272
 21
-71.1223914719262
 31
0.0
  0
LINE
  5
   753
  8
0
  6
DASHDOT
 62
     1
 10
110.326018810272
 20
-81.3742710524155
 30
0.0
 11
110.326018810272
 21
-70.2387395667853
 31
0.0
  0
LINE
  5
   754
  8
0
  6
CONTINUOUS
 62
     1
 10
113.576018810272
 20
-76.9764678842881
 30
0.0
 11
107.076018810272
 21
-76.9764678842881
 31
0.0
  0
LINE
  5
   755
  8
0
  6
CONTINUOUS
 62
     1
 10
103.476018810272
 20
-60.9264678842881
 30
0.0
 11
103.476018810272
 21
-54.4264678842881
 31
0.0
  0
LINE
  5
   756
  8
0
  6
CONTINUOUS
 62
     1
 10
103.326018810272
 20
-60.7764678842881
 30
0.0
 11
103.326018810272
 21
-54.5764678842881
 31
0.0
  0
LINE
  5
   757
  8
0
  6
CONTINUOUS
 62
     1
 10
104.826018810272
 20
-61.6764678842881
 30
0.0
 11
104.826018810272
 21
-53.6764678842881
 31
0.0
  0
LINE
  5
   758
  8
0
  6
CONTINUOUS
 62
     1
 10
106.326018810272
 20
-59.6764678842881
 30
0.0
 11
106.326018810272
 21
-55.6764678842881
 31
0.0
  0
LINE
  5
   759
  8
0
  6
CONTINUOUS
 62
     1
 10
104.826018810272
 20
-54.4264678842881
 30
0.0
 11
103.476018810272
 21
-54.4264678842881
 31
0.0
  0
LINE
  5
   75A
  8
0
  6
CONTINUOUS
 62
     1
 10
105.326018810272
 20
-53.6764678842881
 30
0.0
 11
104.826018810272
 21
-53.6764678842881
 31
0.0
  0
LINE
  5
   75B
  8
0
  6
CONTINUOUS
 62
     1
 10
103.326018810272
 20
-54.5764678842881
 30
0.0
 11
103.476018810272
 21
-54.4264678842881
 31
0.0
  0
LINE
  5
   75C
  8
0
  6
CONTINUOUS
 62
     1
 10
104.826018810272
 20
-60.9264678842881
 30
0.0
 11
103.476018810272
 21
-60.9264678842881
 31
0.0
  0
LINE
  5
   75D
  8
0
  6
CONTINUOUS
 62
     1
 10
103.476018810272
 20
-60.9264678842881
 30
0.0
 11
103.326018810272
 21
-60.7764678842881
 31
0.0
  0
LINE
  5
   75E
  8
0
  6
CONTINUOUS
 62
     1
 10
105.326018810272
 20
-61.6764678842881
 30
0.0
 11
104.826018810272
 21
-61.6764678842881
 31
0.0
  0
LINE
  5
   75F
  8
0
  6
CONTINUOUS
 62
     1
 10
115.826018810272
 20
-55.9264678842881
 30
0.0
 11
106.326018810272
 21
-55.9264678842881
 31
0.0
  0
LINE
  5
   760
  8
0
  6
CONTINUOUS
 62
     1
 10
115.826018810272
 20
-59.4264678842881
 30
0.0
 11
106.326018810272
 21
-59.4264678842881
 31
0.0
  0
LINE
  5
   761
  8
0
  6
CONTINUOUS
 62
     1
 10
115.826018810272
 20
-59.4264678842881
 30
0.0
 11
115.826018810272
 21
-55.9264678842881
 31
0.0
  0
LINE
  5
   762
  8
0
  6
CONTINUOUS
 62
     1
 10
115.576018810272
 20
-59.6764678842881
 30
0.0
 11
115.576018810272
 21
-55.6764678842881
 31
0.0
  0
LINE
  5
   763
  8
0
  6
CONTINUOUS
 62
     1
 10
115.826018810272
 20
-55.9264678842881
 30
0.0
 11
115.576018810272
 21
-55.6764678842881
 31
0.0
  0
LINE
  5
   764
  8
0
  6
CONTINUOUS
 62
     1
 10
115.576018810272
 20
-59.6764678842881
 30
0.0
 11
115.826018810272
 21
-59.4264678842881
 31
0.0
  0
LINE
  5
   765
  8
0
  6
CONTINUOUS
 62
     1
 10
112.576018810272
 20
-59.6764678842881
 30
0.0
 11
112.326017856598
 21
-59.6764678842881
 31
0.0
  0
LINE
  5
   766
  8
0
  6
CONTINUOUS
 62
     1
 10
112.576018810272
 20
-55.6764678842881
 30
0.0
 11
112.326017856598
 21
-55.6764678842881
 31
0.0
  0
LINE
  5
   767
  8
0
  6
CONTINUOUS
 62
     1
 10
105.326018810272
 20
-61.6764678842881
 30
0.0
 11
105.326018810272
 21
-53.6764678842881
 31
0.0
  0
LINE
  5
   768
  8
0
  6
CONTINUOUS
 62
     1
 10
107.826018810272
 20
-55.6764678842881
 30
0.0
 11
107.826018810272
 21
-53.1764678842881
 31
0.0
  0
LINE
  5
   769
  8
0
  6
CONTINUOUS
 62
     1
 10
115.326018810272
 20
-55.6764678842881
 30
0.0
 11
115.326018810272
 21
-53.1764678842881
 31
0.0
  0
LINE
  5
   76A
  8
0
  6
CONTINUOUS
 62
     1
 10
114.326018810272
 20
-76.2264678842881
 30
0.0
 11
106.326018810272
 21
-76.2264678842881
 31
0.0
  0
LINE
  5
   76B
  8
0
  6
CONTINUOUS
 62
     1
 10
113.576018810272
 20
-76.9764678842881
 30
0.0
 11
114.326018810272
 21
-76.2264678842881
 31
0.0
  0
LINE
  5
   76C
  8
0
  6
CONTINUOUS
 62
     1
 10
107.076018810272
 20
-76.9764678842881
 30
0.0
 11
106.326018810272
 21
-76.2264678842881
 31
0.0
  0
ARC
  5
   76D
  8
0
  6
CONTINUOUS
 62
     1
 10
110.326018810272
 20
-86.8723914719262
 30
0.0
 40
16.25
 50
435.749967250231
 51
464.250032645838
  0
LINE
  5
   76E
  8
0
  6
CONTINUOUS
 62
     1
 10
114.326018810272
 20
-71.1223914719262
 30
0.0
 11
106.326018810272
 21
-71.1223914719262
 31
0.0
  0
INSERT
  5
   76F
  8
0
  6
CONTINUOUS
 62
     1
  2
*HATCH988
 10
146.825988769531
 20
-78.0449981689453
 30
0.0
 41
0.5
 42
0.5
 50
89.9999999480344
 43
0.5
  0
INSERT
  5
   770
  8
0
  6
CONTINUOUS
 62
     1
  2
*HATCH989
 10
146.825988769531
 20
-78.0449981689453
 30
0.0
 41
0.5
 42
0.5
 50
89.9999999480344
 43
0.5
  0
LINE
  5
   771
  8
0
  6
CONTINUOUS
 62
     1
 10
115.326018810272
 20
-72.4264678842881
 30
0.0
 11
114.326018810272
 21
-72.4264678842881
 31
0.0
  0
LINE
  5
   772
  8
0
  6
CONTINUOUS
 62
     1
 10
105.326018810272
 20
-64.4264678842881
 30
0.0
 11
105.326018810272
 21
-62.9264678842881
 31
0.0
  0
INSERT
  5
   773
  8
255
  6
CONTINUOUS
 62
     7
  2
CAVO
 10
143.076001391758
 20
-94.7950161085758
 30
0.0
 41
0.5
 42
0.5
 50
359.999999792138
 43
0.5
  0
LINE
  5
   774
  8
0
  6
CONTINUOUS
 62
     7
 10
107.826018810272
 20
-53.1764678842881
 30
0.0
 11
107.826018810272
 21
-51.1848644945656
 31
0.0
  0
LINE
  5
   775
  8
0
  6
DASHDOT
 62
   218
 10
99.1483726560725
 20
12.8235321157119
 30
0.0
 11
86.8238230978528
 21
12.8235321157119
 31
0.0
  0
LINE
  5
   776
  8
0
  6
CONTINUOUS
 62
     7
 10
93.8260192871094
 20
14.8235321157119
 30
0.0
 11
91.8260192871094
 21
14.8235321157119
 31
0.0
  0
LINE
  5
   777
  8
0
  6
CONTINUOUS
 62
     7
 10
93.8260192871094
 20
10.8235321157119
 30
0.0
 11
91.8260192871094
 21
10.8235321157119
 31
0.0
  0
LINE
  5
   778
  8
0
  6
CONTINUOUS
 62
     7
 10
91.8260192871094
 20
10.8235321157119
 30
0.0
 11
91.8260192871094
 21
14.8235321157119
 31
0.0
  0
LINE
  5
   779
  8
0
  6
CONTINUOUS
 62
     7
 10
89.8260192871094
 20
11.5735321157119
 30
0.0
 11
89.8260192871094
 21
14.0735321157119
 31
0.0
  0
LINE
  5
   77A
  8
0
  6
CONTINUOUS
 62
     7
 10
93.8260192871094
 20
14.0735321157119
 30
0.0
 11
89.8260192871094
 21
14.0735321157119
 31
0.0
  0
LINE
  5
   77B
  8
0
  6
CONTINUOUS
 62
     7
 10
93.8260192871094
 20
11.5735321157119
 30
0.0
 11
89.8260192871094
 21
11.5735321157119
 31
0.0
  0
LINE
  5
   77C
  8
0
  6
CONTINUOUS
 62
     7
 10
93.8260192871094
 20
-54.6764678842881
 30
0.0
 11
91.8260192871094
 21
-54.6764678842881
 31
0.0
  0
LINE
  5
   77D
  8
0
  6
CONTINUOUS
 62
     7
 10
93.8260192871094
 20
-55.4264678842881
 30
0.0
 11
89.8260192871094
 21
-55.4264678842881
 31
0.0
  0
LINE
  5
   77E
  8
0
  6
CONTINUOUS
 62
     7
 10
93.8260192871094
 20
-57.9264678842881
 30
0.0
 11
89.8260192871094
 21
-57.9264678842881
 31
0.0
  0
LINE
  5
   77F
  8
0
  6
CONTINUOUS
 62
     7
 10
93.8260192871094
 20
-58.6764678842881
 30
0.0
 11
91.8260192871094
 21
-58.6764678842881
 31
0.0
  0
LINE
  5
   780
  8
0
  6
DASHDOT
 62
   218
 10
99.1483726560725
 20
-56.6764678842881
 30
0.0
 11
86.8238230978528
 21
-56.6764678842881
 31
0.0
  0
LINE
  5
   781
  8
0
  6
CONTINUOUS
 62
     7
 10
91.8260192871094
 20
-58.6764678842881
 30
0.0
 11
91.8260192871094
 21
-54.6764678842881
 31
0.0
  0
LINE
  5
   782
  8
0
  6
CONTINUOUS
 62
     7
 10
89.8260192871094
 20
-57.9264678842881
 30
0.0
 11
89.8260192871094
 21
-55.4264678842881
 31
0.0
  0
CIRCLE
  5
   783
  8
0
  6
CONTINUOUS
 62
     7
 10
92.5842103913685
 20
12.0570866329296
 30
0.0
 40
0.1
  0
CIRCLE
  5
   784
  8
0
  6
CONTINUOUS
 62
     7
 10
17.2972859136293
 20
13.8655799676638
 30
0.0
 40
0.1
  0
INSERT
  5
   785
  8
0
  6
CONTINUOUS
 62
     7
  2
*UDIM1368
 10
0.0
 20
0.0
 30
0.0
  0
INSERT
  5
   786
  8
0
  6
CONTINUOUS
 62
     7
  2
*UDIM1369
 10
0.0
 20
0.0
 30
0.0
  0
INSERT
  5
   787
  8
0
  6
CONTINUOUS
 62
     7
  2
*UDIM1370
 10
0.0
 20
0.0
 30
0.0
  0
INSERT
  5
   788
  8
0
  6
CONTINUOUS
 62
     7
  2
*UDIM1371
 10
0.0
 20
0.0
 30
0.0
  0
TEXT
  5
   789
  8
0
  6
CONTINUOUS
 62
     7
 10
177.516431793776
 20
-41.9080409873203
 30
0.0
 40
3.00000002980232
  1
=          =
 50
89.9999999480344
 41
0.916666604744064
 72
     2
 11
177.516431823167
 21
-9.4580428613897
 31
0.0
  0
INSERT
  5
   78A
  8
0
  6
CONTINUOUS
 62
     7
  2
*UDIM1372
 10
0.0
 20
0.0
 30
0.0
  0
INSERT
  5
   78B
  8
0
  6
CONTINUOUS
 62
     7
  2
*UDIM1373
 10
0.0
 20
0.0
 30
0.0
  0
INSERT
  5
   78C
  8
0
  6
CONTINUOUS
 62
     7
  2
*UDIM1374
 10
0.0
 20
0.0
 30
0.0
  0
INSERT
  5
   78D
  8
0
  6
CONTINUOUS
 62
     7
  2
*UDIM1375
 10
0.0
 20
0.0
 30
0.0
  0
INSERT
  5
   78E
  8
0
  6
CONTINUOUS
 62
     7
  2
*UDIM1376
 10
0.0
 20
0.0
 30
0.0
  0
INSERT
  5
   78F
  8
0
  6
CONTINUOUS
 62
     7
  2
*UDIM1377
 10
0.0
 20
0.0
 30
0.0
  0
TEXT
  5
   790
  8
0
  6
CONTINUOUS
 62
     7
 10
179.053235690428
 20
-24.1797660537646
 30
0.0
 40
3.00000002980232
  1
X
 50
359.999999948034
 41
0.916666604744064
 72
     2
 11
181.253235559298
 21
-24.1797660557489
 31
0.0
  0
INSERT
  5
   791
  8
0
  6
CONTINUOUS
 62
     7
  2
*UDIM1378
 10
0.0
 20
0.0
 30
0.0
  0
INSERT
  5
   792
  8
0
  6
CONTINUOUS
 62
     7
  2
*UDIM1379
 10
0.0
 20
0.0
 30
0.0
  0
INSERT
  5
   793
  8
0
  6
CONTINUOUS
 62
     7
  2
*UDIM1380
 10
0.0
 20
0.0
 30
0.0
  0
INSERT
  5
   794
  8
0
  6
CONTINUOUS
 62
     7
  2
*UDIM1381
 10
0.0
 20
0.0
 30
0.0
  0
LINE
  5
   795
  8
0
  6
DASHDOT
 62
     7
 10
48.5130157470703
 20
-103.148077592072
 30
0.0
 11
48.5130157470703
 21
-167.07121504337
 31
0.0
  0
LINE
  5
   796
  8
0
  6
DASHDOT
 62
     7
 10
56.0012970049643
 20
-118.118301391602
 30
0.0
 11
39.9618781284811
 21
-118.118301391602
 31
0.0
  0
LINE
  5
   797
  8
0
  6
DASHDOT
 62
     7
 10
55.4739574557392
 20
-152.868301391602
 30
0.0
 11
40.5430590082214
 21
-152.868301391602
 31
0.0
  0
LINE
  5
   798
  8
0
  6
DASHDOT
 62
     7
 10
44.1380157470703
 20
-115.163425382663
 30
0.0
 11
44.1380157470703
 21
-156.297717924904
 31
0.0
  0
LINE
  5
   799
  8
0
  6
DASHDOT
 62
     7
 10
52.8880157470703
 20
-114.810910682081
 30
0.0
 11
52.8880157470703
 21
-156.180520919821
 31
0.0
  0
CIRCLE
  5
   79A
  8
0
  6
CONTINUOUS
 62
     7
 10
44.1380157470703
 20
-118.118301391602
 30
0.0
 40
0.6875
  0
CIRCLE
  5
   79B
  8
0
  6
CONTINUOUS
 62
     7
 10
52.8880157470703
 20
-118.118301391602
 30
0.0
 40
0.6875
  0
CIRCLE
  5
   79C
  8
0
  6
CONTINUOUS
 62
     7
 10
44.1380157470703
 20
-152.868301391602
 30
0.0
 40
0.6875
  0
CIRCLE
  5
   79D
  8
0
  6
CONTINUOUS
 62
     7
 10
52.8880157470703
 20
-152.868301391602
 30
0.0
 40
0.6875
  0
LINE
  5
   79E
  8
0
  6
DASHDOT
 62
     7
 10
69.4907192636131
 20
-136.055801391602
 30
0.0
 11
30.67507118027
 21
-136.055801391602
 31
0.0
  0
ARC
  5
   79F
  8
0
  6
CONTINUOUS
 62
     7
 10
57.2630157470703
 20
-112.368301391602
 30
0.0
 40
3.75
 50
269.999999896069
 51
449.999999896069
  0
ARC
  5
   7A0
  8
0
  6
CONTINUOUS
 62
     7
 10
39.7630157470703
 20
-112.368301391602
 30
0.0
 40
3.75
 50
449.999999896069
 51
629.999999896069
  0
ARC
  5
   7A1
  8
0
  6
CONTINUOUS
 62
     7
 10
39.7630157470703
 20
-158.618301391602
 30
0.0
 40
3.75
 50
449.999999896069
 51
629.999999896069
  0
ARC
  5
   7A2
  8
0
  6
CONTINUOUS
 62
     7
 10
57.2630157470703
 20
-158.618301391602
 30
0.0
 40
3.75
 50
269.999999896069
 51
449.999999896069
  0
LINE
  5
   7A3
  8
0
  6
CONTINUOUS
 62
     3
 10
32.4777174186527
 20
-107.356887336026
 30
0.0
 11
32.4777174186527
 21
-164.703463486136
 31
0.0
  0
LINE
  5
   7A4
  8
0
  6
CONTINUOUS
 62
     3
 10
64.3308867304672
 20
-107.356887336026
 30
0.0
 11
64.3308867304672
 21
-164.703463486136
 31
0.0
  0
LINE
  5
   7A5
  8
0
  6
CONTINUOUS
 62
     3
 10
64.3308867304672
 20
-164.703463486136
 30
0.0
 11
32.4777174186527
 21
-164.703463486136
 31
0.0
  0
LINE
  5
   7A6
  8
0
  6
CONTINUOUS
 62
     3
 10
64.3308867304672
 20
-107.356887336026
 30
0.0
 11
32.4777174186527
 21
-107.356887336026
 31
0.0
  0
LINE
  5
   7A7
  8
0
  6
DASHDOT
 62
     7
 10
57.2630157470703
 20
-107.868301391602
 30
0.0
 11
57.2630157470703
 21
-116.868301391602
 31
0.0
  0
LINE
  5
   7A8
  8
0
  6
DASHDOT
 62
     7
 10
61.7630157470703
 20
-112.368301391602
 30
0.0
 11
52.7630157470703
 21
-112.368301391602
 31
0.0
  0
LINE
  5
   7A9
  8
0
  6
DASHDOT
 62
     7
 10
48.5130157470703
 20
-107.868301391602
 30
0.0
 11
48.5130157470703
 21
-116.868301391602
 31
0.0
  0
LINE
  5
   7AA
  8
0
  6
DASHDOT
 62
     7
 10
53.0130157470703
 20
-112.368301391602
 30
0.0
 11
44.0130157470703
 21
-112.368301391602
 31
0.0
  0
LINE
  5
   7AB
  8
0
  6
DASHDOT
 62
     7
 10
39.7630157470703
 20
-107.868301391602
 30
0.0
 11
39.7630157470703
 21
-116.868301391602
 31
0.0
  0
LINE
  5
   7AC
  8
0
  6
DASHDOT
 62
     7
 10
44.2630157470703
 20
-112.368301391602
 30
0.0
 11
35.2630157470703
 21
-112.368301391602
 31
0.0
  0
LINE
  5
   7AD
  8
0
  6
DASHDOT
 62
     7
 10
39.7630157470703
 20
-154.118301391602
 30
0.0
 11
39.7630157470703
 21
-163.118301391602
 31
0.0
  0
LINE
  5
   7AE
  8
0
  6
DASHDOT
 62
     7
 10
44.2630157470703
 20
-158.618301391602
 30
0.0
 11
35.2630157470703
 21
-158.618301391602
 31
0.0
  0
LINE
  5
   7AF
  8
0
  6
DASHDOT
 62
     7
 10
48.5130157470703
 20
-154.118301391602
 30
0.0
 11
48.5130157470703
 21
-163.118301391602
 31
0.0
  0
LINE
  5
   7B0
  8
0
  6
DASHDOT
 62
     7
 10
53.0130157470703
 20
-158.618301391602
 30
0.0
 11
44.0130157470703
 21
-158.618301391602
 31
0.0
  0
LINE
  5
   7B1
  8
0
  6
DASHDOT
 62
     7
 10
57.2630157470703
 20
-154.118301391602
 30
0.0
 11
57.2630157470703
 21
-163.118301391602
 31
0.0
  0
LINE
  5
   7B2
  8
0
  6
DASHDOT
 62
     7
 10
61.7630157470703
 20
-158.618301391602
 30
0.0
 11
52.7630157470703
 21
-158.618301391602
 31
0.0
  0
LINE
  5
   7B3
  8
0
  6
CONTINUOUS
 62
     7
 10
57.2630157470703
 20
-116.118301391602
 30
0.0
 11
39.7630157470703
 21
-116.118301391602
 31
0.0
  0
LINE
  5
   7B4
  8
0
  6
CONTINUOUS
 62
     7
 10
57.2630157470703
 20
-108.618301391602
 30
0.0
 11
39.7630157470703
 21
-108.618301391602
 31
0.0
  0
LINE
  5
   7B5
  8
0
  6
CONTINUOUS
 62
     7
 10
57.2630157470703
 20
-154.868301391602
 30
0.0
 11
39.7630157470703
 21
-154.868301391602
 31
0.0
  0
LINE
  5
   7B6
  8
0
  6
CONTINUOUS
 62
     7
 10
57.2630157470703
 20
-162.368301391602
 30
0.0
 11
39.7630157470703
 21
-162.368301391602
 31
0.0
  0
CIRCLE
  5
   7B7
  8
0
  6
CONTINUOUS
 62
     7
 10
34.1441025307137
 20
-109.254840084765
 30
0.0
 40
0.075
  0
INSERT
  5
   7B8
  8
0
  6
CONTINUOUS
 62
     7
  2
*UDIM1382
 10
0.0
 20
0.0
 30
0.0
  0
INSERT
  5
   7B9
  8
0
  6
CONTINUOUS
 62
     7
  2
*UDIM1383
 10
0.0
 20
0.0
 30
0.0
  0
INSERT
  5
   7BA
  8
0
  6
CONTINUOUS
 62
     7
  2
*UDIM1384
 10
0.0
 20
0.0
 30
0.0
  0
INSERT
  5
   7BB
  8
0
  6
CONTINUOUS
 62
     7
  2
*UDIM1385
 10
0.0
 20
0.0
 30
0.0
  0
INSERT
  5
   7BC
  8
0
  6
CONTINUOUS
 62
     7
  2
*UDIM1386
 10
0.0
 20
0.0
 30
0.0
  0
TEXT
  5
   7BD
  8
0
  6
CONTINUOUS
 62
     7
 10
47.5280005308674
 20
-177.721088437236
 30
0.0
 40
3.00000002980232
  1
Y
 50
359.999999896069
 41
0.916666604744064
 72
     2
 11
49.7280003997372
 21
-177.721088441216
 31
0.0
  0
TEXT
  5
   7BE
  8
0
  6
CONTINUOUS
 62
     7
 10
47.2291364642666
 20
-101.751129178203
 30
0.0
 40
3.00000002980232
  1
Y
 50
359.999999896069
 41
0.916666604744064
 72
     2
 11
49.4291363331364
 21
-101.751129182183
 31
0.0
  0
TEXT
  5
   7BF
  8
0
  6
CONTINUOUS
 62
     7
 10
15.981121060519
 20
-137.013222364582
 30
0.0
 40
3.00000002980232
  1
X
 50
359.999999896069
 41
0.916666604744064
 72
     2
 11
18.1811209293888
 21
-137.013222368561
 31
0.0
  0
TEXT
  5
   7C0
  8
0
  6
CONTINUOUS
 62
     7
 10
75.1479186984585
 20
-136.611291436351
 30
0.0
 40
3.00000002980232
  1
X
 50
359.999999896069
 41
0.916666604744064
 72
     2
 11
77.3479185673283
 21
-136.611291440331
 31
0.0
  0
ENDSEC
  0
EOF
