  0
SECTION
  2
HEADER
  9
$ACADVER
  1
AC1024
  9
$ACADMAINTVER
 70
    63
  9
$DWGCODEPAGE
  3
ANSI_1252
  9
$LASTSAVEDBY
  1
SEVIAND4
  9
$INSBASE
 10
0.0
 20
0.0
 30
0.0
  9
$EXTMIN
 10
147.218282
 20
17.1346119581145
 30
-0.0000000000000026
  9
$EXTMAX
 10
969.9864340043955
 20
527.6671809999998
 30
0.0000000000000026
  9
$LIMMIN
 10
-0.5
 20
-0.5
  9
$LIMMAX
 10
5.0
 20
5.0
  9
$ORTHOMODE
 70
     0
  9
$REGENMODE
 70
     1
  9
$FILLMODE
 70
     1
  9
$QTEXTMODE
 70
     0
  9
$MIRRTEXT
 70
     1
  9
$LTSCALE
 40
1.0
  9
$ATTMODE
 70
     1
  9
$TEXTSIZE
 40
0.2
  9
$TRACEWID
 40
0.05
  9
$TEXTSTYLE
  7
Standard
  9
$CLAYER
  8
0
  9
$CELTYPE
  6
BYLAYER
  9
$CECOLOR
 62
   256
  9
$CELTSCALE
 40
1.0
  9
$DISPSILH
 70
     0
  9
$DIMSCALE
 40
1.0
  9
$DIMASZ
 40
0.18
  9
$DIMEXO
 40
0.0625
  9
$DIMDLI
 40
0.38
  9
$DIMRND
 40
0.0
  9
$DIMDLE
 40
0.0
  9
$DIMEXE
 40
0.18
  9
$DIMTP
 40
0.0
  9
$DIMTM
 40
0.0
  9
$DIMTXT
 40
0.18
  9
$DIMCEN
 40
0.09
  9
$DIMTSZ
 40
0.0
  9
$DIMTOL
 70
     0
  9
$DIMLIM
 70
     0
  9
$DIMTIH
 70
     1
  9
$DIMTOH
 70
     1
  9
$DIMSE1
 70
     0
  9
$DIMSE2
 70
     0
  9
$DIMTAD
 70
     0
  9
$DIMZIN
 70
     0
  9
$DIMBLK
  1

  9
$DIMASO
 70
     1
  9
$DIMSHO
 70
     1
  9
$DIMPOST
  1

  9
$DIMAPOST
  1

  9
$DIMALT
 70
     0
  9
$DIMALTD
 70
     2
  9
$DIMALTF
 40
25.4
  9
$DIMLFAC
 40
1.0
  9
$DIMTOFL
 70
     0
  9
$DIMTVP
 40
0.0
  9
$DIMTIX
 70
     0
  9
$DIMSOXD
 70
     0
  9
$DIMSAH
 70
     0
  9
$DIMBLK1
  1

  9
$DIMBLK2
  1

  9
$DIMSTYLE
  2
Standard
  9
$DIMCLRD
 70
     0
  9
$DIMCLRE
 70
     0
  9
$DIMCLRT
 70
     0
  9
$DIMTFAC
 40
1.0
  9
$DIMGAP
 40
0.09
  9
$DIMJUST
 70
     0
  9
$DIMSD1
 70
     0
  9
$DIMSD2
 70
     0
  9
$DIMTOLJ
 70
     1
  9
$DIMTZIN
 70
     0
  9
$DIMALTZ
 70
     0
  9
$DIMALTTZ
 70
     0
  9
$DIMUPT
 70
     0
  9
$DIMDEC
 70
     4
  9
$DIMTDEC
 70
     4
  9
$DIMALTU
 70
     2
  9
$DIMALTTD
 70
     2
  9
$DIMTXSTY
  7
Standard
  9
$DIMAUNIT
 70
     0
  9
$DIMADEC
 70
     0
  9
$DIMALTRND
 40
0.0
  9
$DIMAZIN
 70
     0
  9
$DIMDSEP
 70
    46
  9
$DIMATFIT
 70
     3
  9
$DIMFRAC
 70
     0
  9
$DIMLDRBLK
  1

  9
$DIMLUNIT
 70
     2
  9
$DIMLWD
 70
    -2
  9
$DIMLWE
 70
    -2
  9
$DIMTMOVE
 70
     0
  9
$DIMFXL
 40
1.0
  9
$DIMFXLON
 70
     0
  9
$DIMJOGANG
 40
0.7853981633974483
  9
$DIMTFILL
 70
     0
  9
$DIMTFILLCLR
 70
     0
  9
$DIMARCSYM
 70
     0
  9
$DIMLTYPE
  6

  9
$DIMLTEX1
  6

  9
$DIMLTEX2
  6

  9
$DIMTXTDIRECTION
 70
     0
  9
$LUNITS
 70
     2
  9
$LUPREC
 70
     2
  9
$SKETCHINC
 40
0.1
  9
$FILLETRAD
 40
0.5
  9
$AUNITS
 70
     0
  9
$AUPREC
 70
     0
  9
$MENU
  1
.
  9
$ELEVATION
 40
0.0
  9
$PELEVATION
 40
0.0
  9
$THICKNESS
 40
0.0
  9
$LIMCHECK
 70
     0
  9
$CHAMFERA
 40
0.5
  9
$CHAMFERB
 40
0.5
  9
$CHAMFERC
 40
1.0
  9
$CHAMFERD
 40
0.0
  9
$SKPOLY
 70
     0
  9
$TDCREATE
 40
2456836.425136389
  9
$TDUCREATE
 40
2456836.341803056
  9
$TDUPDATE
 40
2456836.427596690
  9
$TDUUPDATE
 40
2456836.344263357
  9
$TDINDWG
 40
0.0023388194
  9
$TDUSRTIMER
 40
0.0023388194
  9
$USRTIMER
 70
     1
  9
$ANGBASE
 50
0.0
  9
$ANGDIR
 70
     0
  9
$PDMODE
 70
     0
  9
$PDSIZE
 40
0.0
  9
$PLINEWID
 40
0.0
  9
$SPLFRAME
 70
     0
  9
$SPLINETYPE
 70
     6
  9
$SPLINESEGS
 70
     8
  9
$HANDSEED
  5
3EE
  9
$SURFTAB1
 70
     6
  9
$SURFTAB2
 70
     6
  9
$SURFTYPE
 70
     6
  9
$SURFU
 70
     6
  9
$SURFV
 70
     6
  9
$UCSBASE
  2

  9
$UCSNAME
  2

  9
$UCSORG
 10
0.0
 20
0.0
 30
0.0
  9
$UCSXDIR
 10
1.0
 20
0.0
 30
0.0
  9
$UCSYDIR
 10
0.0
 20
1.0
 30
0.0
  9
$UCSORTHOREF
  2

  9
$UCSORTHOVIEW
 70
     0
  9
$UCSORGTOP
 10
0.0
 20
0.0
 30
0.0
  9
$UCSORGBOTTOM
 10
0.0
 20
0.0
 30
0.0
  9
$UCSORGLEFT
 10
0.0
 20
0.0
 30
0.0
  9
$UCSORGRIGHT
 10
0.0
 20
0.0
 30
0.0
  9
$UCSORGFRONT
 10
0.0
 20
0.0
 30
0.0
  9
$UCSORGBACK
 10
0.0
 20
0.0
 30
0.0
  9
$PUCSBASE
  2

  9
$PUCSNAME
  2

  9
$PUCSORG
 10
0.0
 20
0.0
 30
0.0
  9
$PUCSXDIR
 10
1.0
 20
0.0
 30
0.0
  9
$PUCSYDIR
 10
0.0
 20
1.0
 30
0.0
  9
$PUCSORTHOREF
  2

  9
$PUCSORTHOVIEW
 70
     0
  9
$PUCSORGTOP
 10
0.0
 20
0.0
 30
0.0
  9
$PUCSORGBOTTOM
 10
0.0
 20
0.0
 30
0.0
  9
$PUCSORGLEFT
 10
0.0
 20
0.0
 30
0.0
  9
$PUCSORGRIGHT
 10
0.0
 20
0.0
 30
0.0
  9
$PUCSORGFRONT
 10
0.0
 20
0.0
 30
0.0
  9
$PUCSORGBACK
 10
0.0
 20
0.0
 30
0.0
  9
$USERI1
 70
     0
  9
$USERI2
 70
     0
  9
$USERI3
 70
     0
  9
$USERI4
 70
     0
  9
$USERI5
 70
     0
  9
$USERR1
 40
0.0
  9
$USERR2
 40
0.0
  9
$USERR3
 40
0.0
  9
$USERR4
 40
0.0
  9
$USERR5
 40
0.0
  9
$WORLDVIEW
 70
     1
  9
$SHADEDGE
 70
     3
  9
$SHADEDIF
 70
    70
  9
$TILEMODE
 70
     1
  9
$MAXACTVP
 70
    64
  9
$PINSBASE
 10
0.0
 20
0.0
 30
0.0
  9
$PLIMCHECK
 70
     0
  9
$PEXTMIN
 10
-0.5
 20
-0.5
 30
-0.5
  9
$PEXTMAX
 10
5.0
 20
5.0
 30
5.0
  9
$PLIMMIN
 10
-0.5
 20
-0.5
  9
$PLIMMAX
 10
5.0
 20
5.0
  9
$UNITMODE
 70
     0
  9
$VISRETAIN
 70
     1
  9
$PLINEGEN
 70
     0
  9
$PSLTSCALE
 70
     1
  9
$TREEDEPTH
 70
  3020
  9
$CMLSTYLE
  2
Standard
  9
$CMLJUST
 70
     0
  9
$CMLSCALE
 40
1.0
  9
$PROXYGRAPHICS
 70
     1
  9
$MEASUREMENT
 70
     1
  9
$CELWEIGHT
370
    -1
  9
$ENDCAPS
280
     0
  9
$JOINSTYLE
280
     0
  9
$LWDISPLAY
290
     1
  9
$INSUNITS
 70
     4
  9
$HYPERLINKBASE
  1

  9
$STYLESHEET
  1

  9
$XEDIT
290
     1
  9
$CEPSNTYPE
380
     0
  9
$PSTYLEMODE
290
     1
  9
$FINGERPRINTGUID
  2
{BA668EBD-796A-4470-AF62-9AAD9FD4E4E1}
  9
$VERSIONGUID
  2
{77766A9F-679B-48FE-A197-88A729626A4C}
  9
$EXTNAMES
290
     1
  9
$PSVPSCALE
 40
0.0
  9
$OLESTARTUP
290
     0
  9
$SORTENTS
280
   127
  9
$INDEXCTL
280
     0
  9
$HIDETEXT
280
     1
  9
$XCLIPFRAME
280
     0
  9
$HALOGAP
280
     0
  9
$OBSCOLOR
 70
   257
  9
$OBSLTYPE
280
     0
  9
$INTERSECTIONDISPLAY
280
     0
  9
$INTERSECTIONCOLOR
 70
   257
  9
$DIMASSOC
280
     2
  9
$PROJECTNAME
  1

  9
$CAMERADISPLAY
290
     0
  9
$LENSLENGTH
 40
50.0
  9
$CAMERAHEIGHT
 40
0.0
  9
$STEPSPERSEC
 40
2.0
  9
$STEPSIZE
 40
6.0
  9
$3DDWFPREC
 40
2.0
  9
$PSOLWIDTH
 40
0.25
  9
$PSOLHEIGHT
 40
4.0
  9
$LOFTANG1
 40
1.570796326794896
  9
$LOFTANG2
 40
1.570796326794896
  9
$LOFTMAG1
 40
0.0
  9
$LOFTMAG2
 40
0.0
  9
$LOFTPARAM
 70
     7
  9
$LOFTNORMALS
280
     1
  9
$LATITUDE
 40
37.795
  9
$LONGITUDE
 40
-122.394
  9
$NORTHDIRECTION
 40
0.0
  9
$TIMEZONE
 70
 -8000
  9
$LIGHTGLYPHDISPLAY
280
     1
  9
$TILEMODELIGHTSYNCH
280
     1
  9
$CMATERIAL
347
3C
  9
$SOLIDHIST
280
     0
  9
$SHOWHIST
280
     1
  9
$DWFFRAME
280
     2
  9
$DGNFRAME
280
     0
  9
$REALWORLDSCALE
290
     1
  9
$INTERFERECOLOR
 62
     1
  9
$INTERFEREOBJVS
345
33
  9
$INTERFEREVPVS
346
1DE
  9
$CSHADOW
280
     0
  9
$SHADOWPLANELOCATION
 40
0.0
  0
ENDSEC
  0
SECTION
  2
CLASSES
  0
CLASS
  1
ACDBDICTIONARYWDFLT
  2
AcDbDictionaryWithDefault
  3
ObjectDBX Classes
 90
        0
 91
        1
280
     0
281
     0
  0
CLASS
  1
VISUALSTYLE
  2
AcDbVisualStyle
  3
ObjectDBX Classes
 90
     4095
 91
       26
280
     0
281
     0
  0
CLASS
  1
MATERIAL
  2
AcDbMaterial
  3
ObjectDBX Classes
 90
     1153
 91
        3
280
     0
281
     0
  0
CLASS
  1
TABLESTYLE
  2
AcDbTableStyle
  3
ObjectDBX Classes
 90
     4095
 91
        1
280
     0
281
     0
  0
CLASS
  1
SCALE
  2
AcDbScale
  3
ObjectDBX Classes
 90
     1153
 91
       17
280
     0
281
     0
  0
CLASS
  1
MLEADERSTYLE
  2
AcDbMLeaderStyle
  3
ACDB_MLEADERSTYLE_CLASS
 90
     4095
 91
        1
280
     0
281
     0
  0
CLASS
  1
AMGSETTINGSOBJ
  2
AmgSettingsObj
  3
"AcadM|Product Description: AutoCAD Mechanical|Company: Autodesk, Inc."
 90
     1024
 91
        2
280
     0
281
     0
  0
CLASS
  1
ACME_DOCUMENT
  2
AcMeDbDoc
  3
AcMeServices
 90
     1024
 91
        1
280
     0
281
     0
  0
CLASS
  1
ACMESCOPE
  2
AcMeScope
  3
AcMeServices
 90
     1024
 91
        1
280
     0
281
     0
  0
CLASS
  1
ACMECOMMANDHISTORY
  2
AcMeCommandHistory
  3
AcMeServices
 90
     1024
 91
        1
280
     0
281
     0
  0
CLASS
  1
ACIMSYSVARMAN
  2
AcImSysVarManager
  3
AcMeServices
 90
     1024
 91
        3
280
     0
281
     0
  0
CLASS
  1
ACIMINTSYSVAR
  2
AcImIntSysVar
  3
AcMeServices
 90
     1024
 91
        2
280
     0
281
     0
  0
CLASS
  1
ACMESTATEMGR
  2
AcMeStateMgr
  3
AcMeServices
 90
     1024
 91
        1
280
     0
281
     0
  0
CLASS
  1
ACDBENTITYCACHE
  2
AcMeEntityCache
  3
AcMeServices
 90
     1024
 91
        1
280
     0
281
     0
  0
CLASS
  1
ACGREFMASTER
  2
AcGrefMaster
  3
AcAttribServices
 90
     1024
 91
        1
280
     0
281
     0
  0
CLASS
  1
ACME_DATABASE
  2
AcMeDbDatabase
  3
AcMeServices
 90
     1024
 91
        4
280
     0
281
     0
  0
CLASS
  1
ACRFINSADJUSTERMGR
  2
AcRfInsAdjusterMgr
  3
AcMeServices
 90
     1024
 91
        1
280
     0
281
     0
  0
CLASS
  1
ACGREFACADMASTER
  2
AcGrefacadMaster
  3
AcGrefServices
 90
     1024
 91
        1
280
     0
281
     0
  0
CLASS
  1
AMDTMENUSTATEMGR
  2
AmdtMenuStateMgr
  3
McadcomServices
 90
     1024
 91
        1
280
     0
281
     0
  0
CLASS
  1
AMDTMCOMMENUSTATE
  2
AmdtMcomMenuState
  3
McadcomServices
 90
     1024
 91
        1
280
     0
281
     0
  0
CLASS
  1
AMIMASTER
  2
AmiMaster
  3
AmiServices
 90
     1024
 91
        1
280
     0
281
     0
  0
CLASS
  1
MAPIAMMOUDLE
  2
MApiAmModule
  3
MApiAmServices
 90
     1024
 91
        1
280
     0
281
     0
  0
CLASS
  1
ACIMSTRSYSVAR
  2
AcImStrSysVar
  3
AcMeServices
 90
     1024
 91
        5
280
     0
281
     0
  0
CLASS
  1
AMDTAMMENUSTATE
  2
AmdtAmMenuState
  3
DesignerAssemblies
 90
     1024
 91
        1
280
     0
281
     0
  0
CLASS
  1
ACAMPROJECT
  2
AcAmProject
  3
DesignerAssemblies
 90
     1024
 91
        1
280
     0
281
     0
  0
CLASS
  1
ACAMGRCOMPDEF
  2
AcAmGrCompDef
  3
DesignerAssemblies
 90
     1024
 91
        1
280
     0
281
     0
  0
CLASS
  1
ACAMCOMPDEF
  2
AcAmCompDef
  3
DesignerAssemblies
 90
     1024
 91
        1
280
     0
281
     0
  0
CLASS
  1
ACAMCOMPDEFMGR
  2
AcAmCompDefMgr
  3
DesignerAssemblies
 90
     1024
 91
        1
280
     0
281
     0
  0
CLASS
  1
AMCONTEXTMGR
  2
AcAmContextMgr
  3
DesignerAssemblies
 90
     1024
 91
        1
280
     0
281
     0
  0
CLASS
  1
ACAMCONTEXTMODELER
  2
AcAmContextModeler
  3
DesignerAssemblies
 90
     1024
 91
        1
280
     0
281
     0
  0
CLASS
  1
ACMDATADICTIONARY
  2
AcmDataDictionary
  3
"AcmSymBB|Product Description: AutoCAD Mechanical|Company: Autodesk, Inc."
 90
     1024
 91
        1
280
     0
281
     0
  0
CLASS
  1
ACAMGRCOMPDEFSET
  2
AcAmGrCompDefSet
  3
DesignerAssemblies
 90
     1024
 91
        1
280
     0
281
     0
  0
CLASS
  1
AMDTBROWSERDBTAB
  2
AmdtBrowserDbTab
  3
McadcomServices
 90
     1024
 91
        1
280
     0
281
     0
  0
CLASS
  1
CBROWSERAPPOBJECT
  2
CBrowserAppObject
  3
McadcomServices
 90
     1024
 91
        2
280
     0
281
     0
  0
CLASS
  1
DM_PLACEHOLDER
  2
AcDmSelsetPlaceholder
  3
McadcomServices
 90
     1024
 91
        1
280
     0
281
     0
  0
CLASS
  1
ACMSTANDARDISO
  2
AcmStandardISO
  3
"Amdt_StdImp|Product Description: AutoCAD Mechanical|Company: Autodesk, Inc."
 90
     1024
 91
        1
280
     0
281
     0
  0
CLASS
  1
AMDTEDGESTANDARDISO13715
  2
AmdtEdgeStdISO13715
  3
"Amdt_StdImp|Product Description: AutoCAD Mechanical|Company: Autodesk, Inc."
 90
     1024
 91
        1
280
     0
281
     0
  0
CLASS
  1
ACMSURFSTANDARDISO2002
  2
AcmSurfTextStdISO2002
  3
"Amdt_StdImp|Product Description: AutoCAD Mechanical|Company: Autodesk, Inc."
 90
     1024
 91
        1
280
     0
281
     0
  0
CLASS
  1
ACMFCFSTANDARDISO2004
  2
AcmFCFStdISO2004
  3
"Amdt_StdImp|Product Description: AutoCAD Mechanical|Company: Autodesk, Inc."
 90
     1024
 91
        1
280
     0
281
     0
  0
CLASS
  1
ACMWELDSTANDARDISO
  2
AcmWeldingStdISO
  3
"Amdt_StdImp|Product Description: AutoCAD Mechanical|Company: Autodesk, Inc."
 90
     1024
 91
        1
280
     0
281
     0
  0
CLASS
  1
ACMIDSTANDARDISO2004
  2
AcmIdStdISO2004
  3
"Amdt_StdImp|Product Description: AutoCAD Mechanical|Company: Autodesk, Inc."
 90
     1024
 91
        1
280
     0
281
     0
  0
CLASS
  1
ACMDATUMSTANDARDISO
  2
AcmDatumStdISO
  3
"Amdt_StdImp|Product Description: AutoCAD Mechanical|Company: Autodesk, Inc."
 90
     1024
 91
        1
280
     0
281
     0
  0
CLASS
  1
ACMBOMSTANDARDISO
  2
AcmBOMStdISO
  3
"Amdt_StdImp|Product Description: AutoCAD Mechanical|Company: Autodesk, Inc."
 90
     1024
 91
        1
280
     0
281
     0
  0
CLASS
  1
ACMDETAILSTANDARDISO
  2
AmdtDetailSymStdISO
  3
"Amdt_StdImp|Product Description: AutoCAD Mechanical|Company: Autodesk, Inc."
 90
     1024
 91
        1
280
     0
281
     0
  0
CLASS
  1
ACMSECTIONSTANDARDISO2001
  2
AmdtSectionSymStdISO2001
  3
"Amdt_StdImp|Product Description: AutoCAD Mechanical|Company: Autodesk, Inc."
 90
     1024
 91
        1
280
     0
281
     0
  0
CLASS
  1
ACMCENTERLINESTANDARDISO
  2
AmdtCenterLineStdISO
  3
"Amdt_StdImp|Product Description: AutoCAD Mechanical|Company: Autodesk, Inc."
 90
     1024
 91
        1
280
     0
281
     0
  0
CLASS
  1
ACMTHREADLINESTANDARDISO
  2
AmdtThreadLineStdISO
  3
"Amdt_StdImp|Product Description: AutoCAD Mechanical|Company: Autodesk, Inc."
 90
     1024
 91
        1
280
     0
281
     0
  0
CLASS
  1
ACMNOTESTANDARDISO
  2
AmdtNoteStdISO
  3
"Amdt_StdImp|Product Description: AutoCAD Mechanical|Company: Autodesk, Inc."
 90
     1024
 91
        1
280
     0
281
     0
  0
CLASS
  1
ACMTAPERSTANDARDISO
  2
AcmTaperStdISO
  3
"Amdt_StdImp|Product Description: AutoCAD Mechanical|Company: Autodesk, Inc."
 90
     1024
 91
        1
280
     0
281
     0
  0
CLASS
  1
ACMANOOTATIONVIEWSTANDARDISO
  2
AmdtAnViewStdISO
  3
"Amdt_StdImp|Product Description: AutoCAD Mechanical|Company: Autodesk, Inc."
 90
     1024
 91
        1
280
     0
281
     0
  0
CLASS
  1
ACAMGLAYSTD
  2
AcAmgLayStd
  3
"AmgLay|Product Description: AutoCAD Mechanical|Company: Autodesk, Inc."
 90
     1024
 91
        1
280
     0
281
     0
  0
CLASS
  1
ACAMGDIMSTD
  2
AcAmgDimStd
  3
"AmgDim|Product Description: AutoCAD Mechanical|Company: Autodesk, Inc."
 90
     1024
 91
        1
280
     0
281
     0
  0
CLASS
  1
AMGOBJPROPCFG
  2
AmgObjPropCfg
  3
"AmgLay|Product Description: AutoCAD Mechanical|Company: Autodesk, Inc."
 90
     1025
 91
        1
280
     0
281
     0
  0
CLASS
  1
ACAMGHOLECHARTSTDISO
  2
AcAmgHoleChartStdISO
  3
AmgDim|Product Description: AutoCAD Mechanical|Company: Autodesk, Inc.
 90
     1024
 91
        1
280
     0
281
     0
  0
CLASS
  1
ACAMGTITLESTD
  2
AcAmgTitleStd
  3
"AmgTitle|Product Description: AutoCAD Mechanical|Company: Autodesk, Inc."
 90
     4095
 91
        1
280
     0
281
     0
  0
CLASS
  1
AMDTNOTETEMPLATEDB
  2
AmdtNoteTemplateDB
  3
AcmSymBB|Product Description: AutoCAD Mechanical|Company: Autodesk, Inc.
 90
     1024
 91
        6
280
     0
281
     0
  0
CLASS
  1
ACAMGFILTERDAT
  2
AcAmgFilterDat
  3
"AcadM|Product Description: AutoCAD Mechanical|Company: Autodesk, Inc."
 90
     1024
 91
        6
280
     0
281
     0
  0
CLASS
  1
DICTIONARYVAR
  2
AcDbDictionaryVar
  3
ObjectDBX Classes
 90
        0
 91
        7
280
     0
281
     0
  0
CLASS
  1
CELLSTYLEMAP
  2
AcDbCellStyleMap
  3
ObjectDBX Classes
 90
     1152
 91
        1
280
     0
281
     0
  0
ENDSEC
  0
SECTION
  2
TABLES
  0
TABLE
  2
VPORT
  5
8
330
0
100
AcDbSymbolTable
 70
    17
  0
VPORT
  5
29
330
8
100
AcDbSymbolTableRecord
100
AcDbViewportTableRecord
  2
DUMMY
 70
     0
 10
0.0
 20
0.0
 11
1.0
 21
1.0
 12
10.429907
 22
4.5
 13
0.0
 23
0.0
 14
0.5
 24
0.5
 15
0.5
 25
0.5
 16
0.0
 26
0.0
 36
1.0
 17
0.0
 27
0.0
 37
0.0
 40
9.0
 41
1.972972999999999
 42
50.0
 43
0.0
 44
0.0
 50
0.0
 51
0.0
 71
     0
 72
   100
 73
     1
 74
     3
 75
     0
 76
     0
 77
     0
 78
     0
281
     0
 65
     1
110
0.0
120
0.0
130
0.0
111
1.0
121
0.0
131
0.0
112
0.0
122
1.0
132
0.0
 79
     0
146
0.0
348
2F
 60
     3
 61
     5
292
     1
282
     1
141
0.0
142
0.0
 63
   250
421
  3355443
  0
VPORT
  5
1A4
330
8
100
AcDbSymbolTableRecord
100
AcDbViewportTableRecord
  2
*ACTIVE
 70
     0
 10
0.0
 20
0.0
 11
1.0
 21
1.0
 12
308.1240696837531
 22
264.1000818700484
 13
0.0
 23
0.0
 14
0.5
 24
0.5
 15
0.5
 25
0.5
 16
0.0
 26
0.0
 36
1.0
 17
0.0
 27
0.0
 37
0.0
 40
1203.121057182626
 41
2.085714285714285
 42
50.0
 43
1368.279045
 44
-1368.279045
 50
0.0
 51
0.0
 71
     0
 72
   100
 73
     1
 74
     3
 75
     0
 76
     0
 77
     0
 78
     0
281
     0
 65
     0
110
0.0
120
0.0
130
0.0
111
1.0
121
0.0
131
0.0
112
0.0
122
1.0
132
0.0
 79
     0
146
0.0
348
2F
 60
     3
 61
     5
292
     1
282
     1
141
0.0
142
0.0
 63
   250
421
  3355443
1001
ACAD_NAV_VCDISPLAY
1070
     3
  0
VPORT
  5
1A5
330
8
100
AcDbSymbolTableRecord
100
AcDbViewportTableRecord
  2
L1
 70
     0
 10
0.0
 20
0.0
 11
1.0
 21
1.0
 12
528.325991
 22
319.788546
 13
0.0
 23
0.0
 14
0.5
 24
0.5
 15
0.5
 25
0.5
 16
0.0
 26
0.0
 36
1.0
 17
0.0
 27
0.0
 37
0.0
 40
240.241667
 41
0.073912
 42
50.0
 43
1368.279045
 44
-1368.279045
 50
0.0
 51
0.0
 71
     0
 72
   100
 73
     1
 74
     3
 75
     0
 76
     0
 77
     0
 78
     0
281
     0
 65
     1
110
0.0
120
0.0
130
0.0
111
1.0
121
0.0
131
0.0
112
0.0
122
1.0
132
0.0
 79
     0
146
0.0
348
2F
 60
     3
 61
     5
292
     1
282
     1
141
0.0
142
0.0
 63
   250
421
  3355443
  0
VPORT
  5
1A6
330
8
100
AcDbSymbolTableRecord
100
AcDbViewportTableRecord
  2
L2
 70
     0
 10
0.0
 20
0.0
 11
0.5
 21
1.0
 12
0.0
 22
0.0
 13
0.0
 23
0.0
 14
0.5
 24
0.5
 15
0.5
 25
0.5
 16
0.0
 26
-1.0
 36
0.0
 17
0.0
 27
0.0
 37
0.0
 40
1510.242408
 41
0.011758
 42
50.0
 43
777.628737
 44
-777.628737
 50
0.0
 51
0.0
 71
     0
 72
   100
 73
     1
 74
     3
 75
     0
 76
     0
 77
     0
 78
     0
281
     0
 65
     1
110
0.0
120
0.0
130
0.0
111
1.0
121
0.0
131
0.0
112
0.0
122
1.0
132
0.0
 79
     0
146
0.0
348
2F
 60
     3
 61
     5
292
     1
282
     1
141
0.0
142
0.0
 63
   250
421
  3355443
  0
VPORT
  5
1A7
330
8
100
AcDbSymbolTableRecord
100
AcDbViewportTableRecord
  2
L2
 70
     0
 10
0.5
 20
0.0
 11
1.0
 21
1.0
 12
0.0
 22
0.0
 13
0.0
 23
0.0
 14
0.5
 24
0.5
 15
0.5
 25
0.5
 16
1.0
 26
0.0
 36
0.0
 17
0.0
 27
0.0
 37
0.0
 40
1510.242408
 41
0.011758
 42
50.0
 43
764.615621
 44
-764.615621
 50
0.0
 51
0.0
 71
     0
 72
   100
 73
     1
 74
     3
 75
     0
 76
     0
 77
     0
 78
     0
281
     0
 65
     1
110
0.0
120
0.0
130
0.0
111
1.0
121
0.0
131
0.0
112
0.0
122
1.0
132
0.0
 79
     0
146
0.0
348
2F
 60
     3
 61
     5
292
     1
282
     1
141
0.0
142
0.0
 63
   250
421
  3355443
  0
VPORT
  5
1A8
330
8
100
AcDbSymbolTableRecord
100
AcDbViewportTableRecord
  2
L3
 70
     0
 10
0.0
 20
0.5
 11
1.0
 21
1.0
 12
528.325991
 22
319.788546
 13
0.0
 23
0.0
 14
0.5
 24
0.5
 15
0.5
 25
0.5
 16
0.0
 26
0.0
 36
1.0
 17
0.0
 27
0.0
 37
0.0
 40
240.241667
 41
0.073912
 42
50.0
 43
1368.279045
 44
-1368.279045
 50
0.0
 51
0.0
 71
     0
 72
   100
 73
     1
 74
     3
 75
     0
 76
     0
 77
     0
 78
     0
281
     0
 65
     1
110
0.0
120
0.0
130
0.0
111
1.0
121
0.0
131
0.0
112
0.0
122
1.0
132
0.0
 79
     0
146
0.0
348
2F
 60
     3
 61
     5
292
     1
282
     1
141
0.0
142
0.0
 63
   250
421
  3355443
  0
VPORT
  5
1A9
330
8
100
AcDbSymbolTableRecord
100
AcDbViewportTableRecord
  2
L3
 70
     0
 10
0.0
 20
0.0
 11
1.0
 21
0.5
 12
0.0
 22
0.0
 13
0.0
 23
0.0
 14
0.5
 24
0.5
 15
0.5
 25
0.5
 16
0.0
 26
-1.0
 36
0.0
 17
0.0
 27
0.0
 37
0.0
 40
1510.242408
 41
0.011758
 42
50.0
 43
777.628737
 44
-777.628737
 50
0.0
 51
0.0
 71
     0
 72
   100
 73
     1
 74
     3
 75
     0
 76
     0
 77
     0
 78
     0
281
     0
 65
     1
110
0.0
120
0.0
130
0.0
111
1.0
121
0.0
131
0.0
112
0.0
122
1.0
132
0.0
 79
     0
146
0.0
348
2F
 60
     3
 61
     5
292
     1
282
     1
141
0.0
142
0.0
 63
   250
421
  3355443
  0
VPORT
  5
1AA
330
8
100
AcDbSymbolTableRecord
100
AcDbViewportTableRecord
  2
L4
 70
     0
 10
0.0
 20
0.5
 11
0.5
 21
1.0
 12
528.325991
 22
319.788546
 13
0.0
 23
0.0
 14
0.5
 24
0.5
 15
0.5
 25
0.5
 16
0.0
 26
0.0
 36
1.0
 17
0.0
 27
0.0
 37
0.0
 40
240.241667
 41
0.073912
 42
50.0
 43
1368.279045
 44
-1368.279045
 50
0.0
 51
0.0
 71
     0
 72
   100
 73
     1
 74
     3
 75
     0
 76
     0
 77
     0
 78
     0
281
     0
 65
     1
110
0.0
120
0.0
130
0.0
111
1.0
121
0.0
131
0.0
112
0.0
122
1.0
132
0.0
 79
     0
146
0.0
348
2F
 60
     3
 61
     5
292
     1
282
     1
141
0.0
142
0.0
 63
   250
421
  3355443
  0
VPORT
  5
1AB
330
8
100
AcDbSymbolTableRecord
100
AcDbViewportTableRecord
  2
L4
 70
     0
 10
0.0
 20
0.0
 11
0.5
 21
0.5
 12
0.0
 22
0.0
 13
0.0
 23
0.0
 14
0.5
 24
0.5
 15
0.5
 25
0.5
 16
0.0
 26
-1.0
 36
0.0
 17
0.0
 27
0.0
 37
0.0
 40
1510.242408
 41
0.011758
 42
50.0
 43
777.628737
 44
-777.628737
 50
0.0
 51
0.0
 71
     0
 72
   100
 73
     1
 74
     3
 75
     0
 76
     0
 77
     0
 78
     0
281
     0
 65
     1
110
0.0
120
0.0
130
0.0
111
1.0
121
0.0
131
0.0
112
0.0
122
1.0
132
0.0
 79
     0
146
0.0
348
2F
 60
     3
 61
     5
292
     1
282
     1
141
0.0
142
0.0
 63
   250
421
  3355443
  0
VPORT
  5
1AC
330
8
100
AcDbSymbolTableRecord
100
AcDbViewportTableRecord
  2
L4
 70
     0
 10
0.5
 20
0.0
 11
1.0
 21
0.5
 12
0.0
 22
0.0
 13
0.0
 23
0.0
 14
0.5
 24
0.5
 15
0.5
 25
0.5
 16
1.0
 26
0.0
 36
0.0
 17
0.0
 27
0.0
 37
0.0
 40
1510.242408
 41
0.011758
 42
50.0
 43
764.615621
 44
-764.615621
 50
0.0
 51
0.0
 71
     0
 72
   100
 73
     1
 74
     3
 75
     0
 76
     0
 77
     0
 78
     0
281
     0
 65
     1
110
0.0
120
0.0
130
0.0
111
1.0
121
0.0
131
0.0
112
0.0
122
1.0
132
0.0
 79
     0
146
0.0
348
2F
 60
     3
 61
     5
292
     1
282
     1
141
0.0
142
0.0
 63
   250
421
  3355443
  0
VPORT
  5
1AD
330
8
100
AcDbSymbolTableRecord
100
AcDbViewportTableRecord
  2
L4
 70
     0
 10
0.5
 20
0.5
 11
1.0
 21
1.0
 12
0.0
 22
0.0
 13
0.0
 23
0.0
 14
0.5
 24
0.5
 15
0.5
 25
0.5
 16
0.5773502691896259
 26
-0.5773502691896259
 36
0.5773502691896259
 17
0.0
 27
0.0
 37
0.0
 40
1482.840046
 41
0.011975
 42
50.0
 43
772.3200829999999
 44
-772.3200829999999
 50
0.0
 51
0.0
 71
     0
 72
   100
 73
     1
 74
     3
 75
     0
 76
     0
 77
     0
 78
     0
281
     0
 65
     1
110
0.0
120
0.0
130
0.0
111
1.0
121
0.0
131
0.0
112
0.0
122
1.0
132
0.0
 79
     0
146
0.0
348
2F
 60
     3
 61
     5
292
     1
282
     1
141
0.0
142
0.0
 63
   250
421
  3355443
  0
VPORT
  5
1AE
330
8
100
AcDbSymbolTableRecord
100
AcDbViewportTableRecord
  2
L6
 70
     0
 10
0.0
 20
0.5
 11
0.333333
 21
1.0
 12
0.0
 22
0.0
 13
0.0
 23
0.0
 14
0.5
 24
0.5
 15
0.5
 25
0.5
 16
0.7188730927569434
 26
-0.5850486126764433
 36
0.3754192287502549
 17
0.0
 27
0.0
 37
0.0
 40
1564.871325
 41
0.011347
 42
50.0
 43
810.232564
 44
-810.232564
 50
0.0
 51
0.0
 71
     0
 72
   100
 73
     1
 74
     3
 75
     0
 76
     0
 77
     0
 78
     0
281
     0
 65
     1
110
0.0
120
0.0
130
0.0
111
1.0
121
0.0
131
0.0
112
0.0
122
1.0
132
0.0
 79
     0
146
0.0
348
2F
 60
     3
 61
     5
292
     1
282
     1
141
0.0
142
0.0
 63
   250
421
  3355443
  0
VPORT
  5
1AF
330
8
100
AcDbSymbolTableRecord
100
AcDbViewportTableRecord
  2
L6
 70
     0
 10
0.0
 20
0.0
 11
0.333333
 21
0.5
 12
0.0
 22
0.0
 13
0.0
 23
0.0
 14
0.5
 24
0.5
 15
0.5
 25
0.5
 16
-1.0
 26
0.0
 36
0.0
 17
0.0
 27
0.0
 37
0.0
 40
1510.242408
 41
0.011758
 42
50.0
 43
764.615621
 44
-764.615621
 50
0.0
 51
0.0
 71
     0
 72
   100
 73
     1
 74
     3
 75
     0
 76
     0
 77
     0
 78
     0
281
     0
 65
     1
110
0.0
120
0.0
130
0.0
111
1.0
121
0.0
131
0.0
112
0.0
122
1.0
132
0.0
 79
     0
146
0.0
348
2F
 60
     3
 61
     5
292
     1
282
     1
141
0.0
142
0.0
 63
   250
421
  3355443
  0
VPORT
  5
1B0
330
8
100
AcDbSymbolTableRecord
100
AcDbViewportTableRecord
  2
L6
 70
     0
 10
0.333333
 20
0.5
 11
0.666667
 21
1.0
 12
528.325991
 22
319.788546
 13
0.0
 23
0.0
 14
0.5
 24
0.5
 15
0.5
 25
0.5
 16
0.0
 26
0.0
 36
1.0
 17
0.0
 27
0.0
 37
0.0
 40
240.241667
 41
0.073912
 42
50.0
 43
1368.279045
 44
-1368.279045
 50
0.0
 51
0.0
 71
     0
 72
   100
 73
     1
 74
     3
 75
     0
 76
     0
 77
     0
 78
     0
281
     0
 65
     1
110
0.0
120
0.0
130
0.0
111
1.0
121
0.0
131
0.0
112
0.0
122
1.0
132
0.0
 79
     0
146
0.0
348
2F
 60
     3
 61
     5
292
     1
282
     1
141
0.0
142
0.0
 63
   250
421
  3355443
  0
VPORT
  5
1B1
330
8
100
AcDbSymbolTableRecord
100
AcDbViewportTableRecord
  2
L6
 70
     0
 10
0.333333
 20
0.0
 11
0.666667
 21
0.5
 12
0.0
 22
0.0
 13
0.0
 23
0.0
 14
0.5
 24
0.5
 15
0.5
 25
0.5
 16
0.0
 26
-1.0
 36
0.0
 17
0.0
 27
0.0
 37
0.0
 40
1510.242408
 41
0.011758
 42
50.0
 43
777.628737
 44
-777.628737
 50
0.0
 51
0.0
 71
     0
 72
   100
 73
     1
 74
     3
 75
     0
 76
     0
 77
     0
 78
     0
281
     0
 65
     1
110
0.0
120
0.0
130
0.0
111
1.0
121
0.0
131
0.0
112
0.0
122
1.0
132
0.0
 79
     0
146
0.0
348
2F
 60
     3
 61
     5
292
     1
282
     1
141
0.0
142
0.0
 63
   250
421
  3355443
  0
VPORT
  5
1B2
330
8
100
AcDbSymbolTableRecord
100
AcDbViewportTableRecord
  2
L6
 70
     0
 10
0.666667
 20
0.5
 11
1.0
 21
1.0
 12
0.0
 22
0.0
 13
0.0
 23
0.0
 14
0.5
 24
0.5
 15
0.5
 25
0.5
 16
0.5773502691896259
 26
-0.5773502691896259
 36
0.5773502691896259
 17
0.0
 27
0.0
 37
0.0
 40
1482.840046
 41
0.011975
 42
50.0
 43
772.3200829999999
 44
-772.3200829999999
 50
0.0
 51
0.0
 71
     0
 72
   100
 73
     1
 74
     3
 75
     0
 76
     0
 77
     0
 78
     0
281
     0
 65
     1
110
0.0
120
0.0
130
0.0
111
1.0
121
0.0
131
0.0
112
0.0
122
1.0
132
0.0
 79
     0
146
0.0
348
2F
 60
     3
 61
     5
292
     1
282
     1
141
0.0
142
0.0
 63
   250
421
  3355443
  0
VPORT
  5
1B3
330
8
100
AcDbSymbolTableRecord
100
AcDbViewportTableRecord
  2
L6
 70
     0
 10
0.666667
 20
0.0
 11
1.0
 21
0.5
 12
0.0
 22
0.0
 13
0.0
 23
0.0
 14
0.5
 24
0.5
 15
0.5
 25
0.5
 16
1.0
 26
0.0
 36
0.0
 17
0.0
 27
0.0
 37
0.0
 40
1510.242408
 41
0.011758
 42
50.0
 43
764.615621
 44
-764.615621
 50
0.0
 51
0.0
 71
     0
 72
   100
 73
     1
 74
     3
 75
     0
 76
     0
 77
     0
 78
     0
281
     0
 65
     1
110
0.0
120
0.0
130
0.0
111
1.0
121
0.0
131
0.0
112
0.0
122
1.0
132
0.0
 79
     0
146
0.0
348
2F
 60
     3
 61
     5
292
     1
282
     1
141
0.0
142
0.0
 63
   250
421
  3355443
  0
ENDTAB
  0
TABLE
  2
LTYPE
  5
5
330
0
100
AcDbSymbolTable
 70
    19
  0
LTYPE
  5
14
330
5
100
AcDbSymbolTableRecord
100
AcDbLinetypeTableRecord
  2
BYBLOCK
 70
     0
  3

 72
    65
 73
     0
 40
0.0
  0
LTYPE
  5
15
330
5
100
AcDbSymbolTableRecord
100
AcDbLinetypeTableRecord
  2
BYLAYER
 70
     0
  3

 72
    65
 73
     0
 40
0.0
  0
LTYPE
  5
16
330
5
100
AcDbSymbolTableRecord
100
AcDbLinetypeTableRecord
  2
CONTINUOUS
 70
     0
  3
Solid line
 72
    65
 73
     0
 40
0.0
  0
LTYPE
  5
3F
330
5
100
AcDbSymbolTableRecord
100
AcDbLinetypeTableRecord
  2
DASHED
 70
     0
  3
__ __ __ __ __ __ __ __ __
 72
    65
 73
     2
 40
25.72
 49
12.86
 74
     4
 75
     0
340
0
 46
0.0
 50
0.0
 44
0.0
 45
0.0
 49
-12.86
 74
     4
 75
     0
340
0
 46
0.0
 50
0.0
 44
0.0
 45
0.0
  0
LTYPE
  5
40
330
5
100
AcDbSymbolTableRecord
100
AcDbLinetypeTableRecord
  2
HIDDEN
 70
     0
  3
_ _ _ _ _ _ _ _ _ _ _ _ _ _ _
 72
    65
 73
     2
 40
0.5
 49
0.25
 74
     4
 75
     0
340
0
 46
0.0
 50
0.0
 44
0.0
 45
0.0
 49
-0.25
 74
     4
 75
     0
340
0
 46
0.0
 50
0.0
 44
0.0
 45
0.0
  0
LTYPE
  5
41
330
5
100
AcDbSymbolTableRecord
100
AcDbLinetypeTableRecord
  2
PHANTOM
 70
     0
  3
____ _ _ ____ _ _ _____ _ _ ____
 72
    65
 73
     6
 40
50.5
 49
18.0
 74
     4
 75
     0
340
0
 46
0.0
 50
0.0
 44
0.0
 45
0.0
 49
-6.5
 74
     4
 75
     0
340
0
 46
0.0
 50
0.0
 44
0.0
 45
0.0
 49
6.5
 74
     4
 75
     0
340
0
 46
0.0
 50
0.0
 44
0.0
 45
0.0
 49
-6.5
 74
     4
 75
     0
340
0
 46
0.0
 50
0.0
 44
0.0
 45
0.0
 49
6.5
 74
     4
 75
     0
340
0
 46
0.0
 50
0.0
 44
0.0
 45
0.0
 49
-6.5
 74
     4
 75
     0
340
0
 46
0.0
 50
0.0
 44
0.0
 45
0.0
  0
LTYPE
  5
42
330
5
100
AcDbSymbolTableRecord
100
AcDbLinetypeTableRecord
  2
CENTER
 70
     0
  3
____ _ ____ _ ____ _ ____
 72
    65
 73
     4
 40
47.4
 49
22.0
 74
     4
 75
     0
340
0
 46
0.0
 50
0.0
 44
0.0
 45
0.0
 49
-8.5
 74
     4
 75
     0
340
0
 46
0.0
 50
0.0
 44
0.0
 45
0.0
 49
8.5
 74
     4
 75
     0
340
0
 46
0.0
 50
0.0
 44
0.0
 45
0.0
 49
-8.5
 74
     4
 75
     0
340
0
 46
0.0
 50
0.0
 44
0.0
 45
0.0
  0
LTYPE
  5
43
330
5
100
AcDbSymbolTableRecord
100
AcDbLinetypeTableRecord
  2
DOT
 70
     0
  3
.........................
 72
    65
 73
     2
 40
10.0
 49
0.0
 74
     4
 75
     0
340
0
 46
0.0
 50
0.0
 44
0.0
 45
0.0
 49
-10.0
 74
     4
 75
     0
340
0
 46
0.0
 50
0.0
 44
0.0
 45
0.0
  0
LTYPE
  5
44
330
5
100
AcDbSymbolTableRecord
100
AcDbLinetypeTableRecord
  2
DASHDOT
 70
     0
  3
_._._._._._._._._._._._._._._._.
 72
    65
 73
     4
 40
70.0
 49
31.0
 74
     4
 75
     0
340
0
 46
0.0
 50
0.0
 44
0.0
 45
0.0
 49
-13.0
 74
     4
 75
     0
340
0
 46
0.0
 50
0.0
 44
0.0
 45
0.0
 49
13.0
 74
     4
 75
     0
340
0
 46
0.0
 50
0.0
 44
0.0
 45
0.0
 49
-13.0
 74
     4
 75
     0
340
0
 46
0.0
 50
0.0
 44
0.0
 45
0.0
  0
LTYPE
  5
20C
330
5
100
AcDbSymbolTableRecord
100
AcDbLinetypeTableRecord
  2
PHANTOM2
 70
     0
  3
Phantom (.5x) ___ _ _ ___ _ _ ___ _ _ ___ _ _
 72
    65
 73
     6
 40
31.75
 49
15.875
 74
     0
 49
-3.174999999999999
 74
     0
 49
3.174999999999999
 74
     0
 49
-3.174999999999999
 74
     0
 49
3.174999999999999
 74
     0
 49
-3.174999999999999
 74
     0
  0
LTYPE
  5
247
330
5
100
AcDbSymbolTableRecord
100
AcDbLinetypeTableRecord
  2
AM_ISO02W050
 70
     0
  3
__ __ __ __ __ __ __ __ __ __ __ __ __ __ __
 72
    65
 73
     2
 40
7.5
 49
6.0
 74
     0
 49
-1.5
 74
     0
  0
LTYPE
  5
248
330
5
100
AcDbSymbolTableRecord
100
AcDbLinetypeTableRecord
  2
AM_ISO08W050
 70
     0
  3
____ . ____ . ____ . ____ . ____ . ____ . ____
 72
    65
 73
     4
 40
18.0
 49
12.0
 74
     0
 49
-1.5
 74
     0
 49
3.0
 74
     0
 49
-1.5
 74
     0
  0
LTYPE
  5
249
330
5
100
AcDbSymbolTableRecord
100
AcDbLinetypeTableRecord
  2
AM_ISO09W050
 70
     0
  3
_____ . . _____ . . _____ . . ____ .. ____
 72
    65
 73
     6
 40
22.5
 49
12.0
 74
     0
 49
-1.5
 74
     0
 49
3.0
 74
     0
 49
-1.5
 74
     0
 49
3.0
 74
     0
 49
-1.5
 74
     0
  0
LTYPE
  5
24A
330
5
100
AcDbSymbolTableRecord
100
AcDbLinetypeTableRecord
  2
Amconstr
 70
     0
  3
_______________________
 72
    65
 73
     2
 40
9999.0
 49
9999.0
 74
     0
 49
0.0
 74
     0
  0
LTYPE
  5
24B
330
5
100
AcDbSymbolTableRecord
100
AcDbLinetypeTableRecord
  2
AM_ISO08W050x2
 70
     0
  3
__ . __ . __ . __ . __ . __
 72
    65
 73
     4
 40
9.0
 49
6.0
 74
     0
 49
-0.75
 74
     0
 49
1.5
 74
     0
 49
-0.75
 74
     0
  0
LTYPE
  5
24C
330
5
100
AcDbSymbolTableRecord
100
AcDbLinetypeTableRecord
  2
AM_ISO02W050x2
 70
     0
  3
 _ _ _ _ _ _ _ _ _ _ _ _
 72
    65
 73
     2
 40
3.75
 49
3.0
 74
     0
 49
-0.75
 74
     0
  0
LTYPE
  5
24F
330
5
100
AcDbSymbolTableRecord
100
AcDbLinetypeTableRecord
  2
Amzigzag
 70
     0
  3
/\/-/\/-/\/-/\/-/\/-/\/
 72
    65
 73
     2
 40
11.0001
 49
0.0001
 74
     4
 75
   136
340
24E
 46
0.04
 50
0.0
 44
0.0
 45
0.0
 49
-11.0
 74
     0
  0
LTYPE
  5
25E
330
5
100
AcDbSymbolTableRecord
100
AcDbLinetypeTableRecord
  2
ACISOWELD
 70
     0
  3
_ _ _ _ _
 72
    65
 73
     2
 40
2.0
 49
2.0
 74
     0
 49
-1.0
 74
     0
  0
LTYPE
  5
25F
330
5
100
AcDbSymbolTableRecord
100
AcDbLinetypeTableRecord
  2
ACISOTGL
 70
     0
  3
_ _ _ _ _
 72
    65
 73
     2
 40
3.0
 49
2.0
 74
     0
 49
-1.0
 74
     0
  0
LTYPE
  5
260
330
5
100
AcDbSymbolTableRecord
100
AcDbLinetypeTableRecord
  2
ACISOTGB
 70
     0
  3
__ . . __ . .
 72
    65
 73
     6
 40
9.0
 49
4.0
 74
     0
 49
-1.0
 74
     0
 49
1.0
 74
     0
 49
-1.0
 74
     0
 49
1.0
 74
     0
 49
-1.0
 74
     0
  0
ENDTAB
  0
TABLE
  2
LAYER
  5
2
330
0
100
AcDbSymbolTable
 70
     2
  0
LAYER
  5
10
102
{ACAD_XDICTIONARY
360
3DF
102
}
330
2
100
AcDbSymbolTableRecord
100
AcDbLayerTableRecord
  2
0
 70
     0
 62
     7
  6
CONTINUOUS
370
    -3
390
F
347
3E
  0
LAYER
  5
46
102
{ACAD_XDICTIONARY
360
3E1
102
}
330
2
100
AcDbSymbolTableRecord
100
AcDbLayerTableRecord
  2
1
 70
     0
 62
     7
420
 16777215
  6
CONTINUOUS
370
    -3
390
F
347
3E
  0
ENDTAB
  0
TABLE
  2
STYLE
  5
3
330
0
100
AcDbSymbolTable
 70
     4
  0
STYLE
  5
11
330
3
100
AcDbSymbolTableRecord
100
AcDbTextStyleTableRecord
  2
Standard
 70
     0
 40
0.0
 41
1.0
 50
0.0
 71
     0
 42
0.2
  3
txt
  4

  0
STYLE
  5
24E
330
3
100
AcDbSymbolTableRecord
100
AcDbTextStyleTableRecord
  2

 70
     1
 40
0.0
 41
1.0
 50
0.0
 71
     0
 42
0.2
  3
genltshp.shx
  4

  0
STYLE
  5
25C
330
3
100
AcDbSymbolTableRecord
100
AcDbTextStyleTableRecord
  2
ACISOTS
 70
     0
 40
1.0
 41
1.0
 50
0.0
 71
     0
 42
0.2
  3
isocp.shx
  4

  0
STYLE
  5
25D
330
3
100
AcDbSymbolTableRecord
100
AcDbTextStyleTableRecord
  2
ACISOGDT
 70
     0
 40
0.0
 41
1.0
 50
0.0
 71
     0
 42
0.2
  3
amgdt.shx
  4

  0
ENDTAB
  0
TABLE
  2
VIEW
  5
6
330
0
100
AcDbSymbolTable
 70
     0
  0
ENDTAB
  0
TABLE
  2
UCS
  5
7
330
0
100
AcDbSymbolTable
 70
     0
  0
ENDTAB
  0
TABLE
  2
APPID
  5
9
330
0
100
AcDbSymbolTable
 70
     9
  0
APPID
  5
12
330
9
100
AcDbSymbolTableRecord
100
AcDbRegAppTableRecord
  2
ACAD
 70
     0
  0
APPID
  5
205
330
9
100
AcDbSymbolTableRecord
100
AcDbRegAppTableRecord
  2
MCAD_NO_VIS
 70
     0
  0
APPID
  5
206
330
9
100
AcDbSymbolTableRecord
100
AcDbRegAppTableRecord
  2
ACAD_TEMP_GRAPHIC
 70
     0
  0
APPID
  5
211
330
9
100
AcDbSymbolTableRecord
100
AcDbRegAppTableRecord
  2
ACATTRIBSERVICES
 70
     0
  0
APPID
  5
229
330
9
100
AcDbSymbolTableRecord
100
AcDbRegAppTableRecord
  2
DESIGNERASSEMBLIES
 70
     0
  0
APPID
  5
244
330
9
100
AcDbSymbolTableRecord
100
AcDbRegAppTableRecord
  2
ACAD_DSTYLE_DIMJAG
 70
     0
  0
APPID
  5
245
330
9
100
AcDbSymbolTableRecord
100
AcDbRegAppTableRecord
  2
ACAD_DSTYLE_DIMBREAK
 70
     0
  0
APPID
  5
267
330
9
100
AcDbSymbolTableRecord
100
AcDbRegAppTableRecord
  2
ACAD_NAV_VCDISPLAY
 70
     0
  0
APPID
  5
3DC
330
9
100
AcDbSymbolTableRecord
100
AcDbRegAppTableRecord
  2
ACAD_EXEMPT_FROM_CAD_STANDARDS
 70
     0
  0
ENDTAB
  0
TABLE
  2
DIMSTYLE
  5
A
330
0
100
AcDbSymbolTable
 70
     8
100
AcDbDimStyleTable
 71
     0
  0
DIMSTYLE
105
27
330
A
100
AcDbSymbolTableRecord
100
AcDbDimStyleTableRecord
  2
Standard
 70
     0
340
11
  0
DIMSTYLE
105
243
102
{ACAD_REACTORS
330
232
102
}
330
A
100
AcDbSymbolTableRecord
100
AcDbDimStyleTableRecord
  2
AM_ISO
 70
     0
  4
"
 41
3.5
 42
1.0
 43
10.0
 44
1.0
 47
0.1
 48
0.1
 73
     0
 74
     0
 77
     1
 78
     8
 79
     2
 90
     1
140
3.5
141
0.0
143
0.0393701
146
0.71
147
1.5
172
     1
176
   256
177
   256
178
     2
271
     2
272
     3
274
     4
283
     0
284
     8
340
11
345
14
346
14
347
14
371
    -1
372
    -1
1001
ACAD_DSTYLE_DIMJAG
1070
   388
1040
1.5
1001
ACAD_DSTYLE_DIMBREAK
1070
   391
1040
3.75
  0
DIMSTYLE
105
250
330
A
100
AcDbSymbolTableRecord
100
AcDbDimStyleTableRecord
  2
AM_ISO$3
 70
     0
  4
"
 41
3.5
 42
1.0
 43
10.0
 44
1.0
 47
0.1
 48
0.1
 73
     0
 77
     1
 78
     8
 79
     2
 90
     1
140
3.5
141
0.0
143
0.0393701
146
0.71
147
1.5
176
   256
177
   256
178
     2
271
     2
272
     3
274
     4
283
     0
284
     8
288
     1
289
     0
340
11
345
14
346
14
347
14
371
    -1
372
    -1
1001
ACAD_DSTYLE_DIMBREAK
1070
   391
1040
3.75
1001
ACAD_DSTYLE_DIMJAG
1070
   388
1040
1.5
  0
DIMSTYLE
105
251
330
A
100
AcDbSymbolTableRecord
100
AcDbDimStyleTableRecord
  2
AM_ISO$4
 70
     0
  4
"
 41
3.5
 42
1.0
 43
10.0
 44
1.0
 47
0.1
 48
0.1
 73
     0
 77
     1
 78
     8
 79
     2
 90
     1
140
3.5
141
0.0
143
0.0393701
146
0.71
147
1.5
176
   256
177
   256
178
     2
271
     2
272
     3
274
     4
283
     0
284
     8
288
     1
289
     0
340
11
345
14
346
14
347
14
371
    -1
372
    -1
1001
ACAD_DSTYLE_DIMBREAK
1070
   391
1040
3.75
1001
ACAD_DSTYLE_DIMJAG
1070
   388
1040
1.5
  0
DIMSTYLE
105
252
330
A
100
AcDbSymbolTableRecord
100
AcDbDimStyleTableRecord
  2
AM_ISO$6
 70
     0
  4
"
 41
3.5
 42
1.0
 43
10.0
 44
1.0
 47
0.1
 48
0.1
 73
     0
 74
     0
 78
     8
 79
     2
 90
     1
140
3.5
141
0.0
143
0.0393701
146
0.71
147
1.5
172
     1
176
   256
177
   256
178
     2
271
     2
272
     3
274
     4
283
     0
284
     8
340
11
345
14
346
14
347
14
371
    -1
372
    -1
1001
ACAD_DSTYLE_DIMBREAK
1070
   391
1040
3.75
1001
ACAD_DSTYLE_DIMJAG
1070
   388
1040
1.5
  0
DIMSTYLE
105
253
330
A
100
AcDbSymbolTableRecord
100
AcDbDimStyleTableRecord
  2
AM_ISO$7
 70
     0
  4
"
 41
3.5
 42
1.0
 43
10.0
 44
1.0
 47
0.1
 48
0.1
 73
     0
 74
     0
 77
     1
 78
     8
 79
     2
 90
     1
140
3.5
141
0.0
143
0.0393701
146
0.71
147
1.5
172
     1
176
   256
177
   256
178
     2
271
     2
272
     3
274
     4
283
     0
284
     8
340
11
345
14
346
14
347
14
371
    -1
372
    -1
1001
ACAD_DSTYLE_DIMBREAK
1070
   391
1040
3.75
1001
ACAD_DSTYLE_DIMJAG
1070
   388
1040
1.5
  0
DIMSTYLE
105
254
330
A
100
AcDbSymbolTableRecord
100
AcDbDimStyleTableRecord
  2
AM_ISO$SF
 70
     0
  4
"
 41
3.5
 42
1.0
 43
10.0
 44
1.0
 47
0.1
 48
0.1
 73
     0
 74
     0
 75
     1
 76
     1
 77
     1
 78
     8
 79
     2
 90
     1
140
3.5
141
0.0
143
0.0393701
146
0.71
147
1.5
172
     1
176
   256
177
   256
178
     2
271
     2
272
     3
274
     4
283
     0
284
     8
340
11
345
14
346
14
347
14
371
    -1
372
    -1
1001
ACAD_DSTYLE_DIMBREAK
1070
   391
1040
3.75
1001
ACAD_DSTYLE_DIMJAG
1070
   388
1040
1.5
  0
DIMSTYLE
105
259
330
A
100
AcDbSymbolTableRecord
100
AcDbDimStyleTableRecord
  2
AM_ISO$SH
 70
     0
  4
"
 41
3.5
 42
1.0
 43
10.0
 44
1.0
 47
0.1
 48
0.1
 73
     0
 74
     0
 75
     1
 76
     1
 77
     1
 78
     8
 79
     2
 90
     1
140
3.5
141
0.0
143
0.0393701
144
2.0
146
0.71
147
1.5
172
     1
173
     1
176
   256
177
   256
178
     2
271
     2
272
     3
274
     4
283
     0
284
     8
340
11
343
255
345
14
346
14
347
14
371
    -1
372
    -1
1001
ACAD_DSTYLE_DIMBREAK
1070
   391
1040
3.75
1001
ACAD_DSTYLE_DIMJAG
1070
   388
1040
1.5
  0
ENDTAB
  0
TABLE
  2
BLOCK_RECORD
  5
1
330
0
100
AcDbSymbolTable
 70
     6
  0
BLOCK_RECORD
  5
1F
330
1
100
AcDbSymbolTableRecord
100
AcDbBlockTableRecord
  2
*Model_Space
340
22
 70
     0
280
     1
281
     0
  0
BLOCK_RECORD
  5
1B
330
1
100
AcDbSymbolTableRecord
100
AcDbBlockTableRecord
  2
*Paper_Space
340
1E
 70
     0
280
     1
281
     0
  0
BLOCK_RECORD
  5
23
330
1
100
AcDbSymbolTableRecord
100
AcDbBlockTableRecord
  2
*Paper_Space0
340
26
 70
     0
280
     1
281
     0
  0
BLOCK_RECORD
  5
255
330
1
100
AcDbSymbolTableRecord
100
AcDbBlockTableRecord
  2
GENAXEH
340
0
 70
     0
280
     1
281
     0
  0
ENDTAB
  0
ENDSEC
  0
SECTION
  2
BLOCKS
  0
BLOCK
  5
20
330
1F
100
AcDbEntity
  8
0
100
AcDbBlockBegin
  2
*Model_Space
 70
     0
 10
0.0
 20
0.0
 30
0.0
  3
*Model_Space
  1

  0
ENDBLK
  5
21
330
1F
100
AcDbEntity
  8
0
100
AcDbBlockEnd
  0
BLOCK
  5
1C
330
1B
100
AcDbEntity
 67
     1
  8
0
100
AcDbBlockBegin
  2
*Paper_Space
 70
     0
 10
0.0
 20
0.0
 30
0.0
  3
*Paper_Space
  1

  0
ENDBLK
  5
1D
330
1B
100
AcDbEntity
 67
     1
  8
0
100
AcDbBlockEnd
  0
BLOCK
  5
24
330
23
100
AcDbEntity
 67
     1
  8
0
100
AcDbBlockBegin
  2
*Paper_Space0
 70
     0
 10
0.0
 20
0.0
 30
0.0
  3
*Paper_Space0
  1

  0
ENDBLK
  5
25
330
23
100
AcDbEntity
 67
     1
  8
0
100
AcDbBlockEnd
  0
BLOCK
  5
257
330
255
100
AcDbEntity
  8
0
100
AcDbBlockBegin
  2
GENAXEH
 70
     0
 10
0.0
 20
0.0
 30
0.0
  3
GENAXEH
  1

  0
LINE
  5
256
330
255
100
AcDbEntity
  8
0
100
AcDbLine
 10
-1.0
 20
0.0
 30
0.0
 11
1.0
 21
0.0
 31
0.0
  0
ENDBLK
  5
258
330
255
100
AcDbEntity
  8
0
100
AcDbBlockEnd
  0
ENDSEC
  0
SECTION
  2
ENTITIES
  0
LINE
  5
56
330
1F
100
AcDbEntity
  8
1
  6
Continuous
 62
     8
 60
     1
100
AcDbLine
 10
0.0
 20
0.0
 30
0.0
 11
0.0
 21
800.0
 31
0.0
  0
LINE
  5
57
330
1F
100
AcDbEntity
  8
1
  6
Continuous
 62
     8
 60
     1
100
AcDbLine
 10
1100.0
 20
800.0
 30
0.0
 11
0.0
 21
800.0
 31
0.0
  0
LINE
  5
58
330
1F
100
AcDbEntity
  8
1
  6
Continuous
 62
     8
 60
     1
100
AcDbLine
 10
1100.0
 20
800.0
 30
0.0
 11
1100.0
 21
0.0
 31
0.0
  0
LINE
  5
59
330
1F
100
AcDbEntity
  8
1
  6
Continuous
 62
     8
 60
     1
100
AcDbLine
 10
0.0
 20
0.0
 30
0.0
 11
1100.0
 21
0.0
 31
0.0
  0
LINE
  5
5A
330
1F
100
AcDbEntity
  8
1
  6
Continuous
 62
   155
100
AcDbLine
 10
427.948238
 20
447.3171809999999
 30
0.0
 11
427.948238
 21
377.317181
 31
0.0
  0
LINE
  5
5B
330
1F
100
AcDbEntity
  8
1
  6
Continuous
 62
   155
100
AcDbLine
 10
400.4482379999999
 20
412.317181
 30
0.0
 11
400.4482379999999
 21
405.317181
 31
0.0
  0
LINE
  5
5C
330
1F
100
AcDbEntity
  8
1
  6
Continuous
 62
   155
100
AcDbLine
 10
430.448238
 20
447.3171809999999
 30
0.0
 11
427.948238
 21
447.3171809999999
 31
0.0
  0
LINE
  5
5D
330
1F
100
AcDbEntity
  8
1
  6
Continuous
 62
   155
100
AcDbLine
 10
522.8818309999999
 20
520.3171809999999
 30
0.0
 11
522.8818309999999
 21
521.317181
 31
0.0
  0
LINE
  5
5E
330
1F
100
AcDbEntity
  8
1
  6
Continuous
 62
   155
100
AcDbLine
 10
512.212886
 20
520.3171809999999
 30
0.0
 11
512.212886
 21
521.317181
 31
0.0
  0
LINE
  5
5F
330
1F
100
AcDbEntity
  8
1
  6
Continuous
 62
   155
100
AcDbLine
 10
501.948238
 20
521.317181
 30
0.0
 11
512.212886
 21
521.317181
 31
0.0
  0
LINE
  5
60
330
1F
100
AcDbEntity
  8
1
  6
Continuous
 62
   155
100
AcDbLine
 10
512.6171829999999
 20
520.3171809999999
 30
0.0
 11
512.6171829999999
 21
521.317181
 31
0.0
  0
LINE
  5
61
330
1F
100
AcDbEntity
  8
1
  6
Continuous
 62
   155
100
AcDbLine
 10
512.6171829999999
 20
521.317181
 30
0.0
 11
522.8818309999999
 21
521.317181
 31
0.0
  0
LINE
  5
62
330
1F
100
AcDbEntity
  8
1
  6
Continuous
 62
   155
100
AcDbLine
 10
501.948238
 20
520.3171809999999
 30
0.0
 11
501.948238
 21
521.317181
 31
0.0
  0
LINE
  5
63
330
1F
100
AcDbEntity
  8
1
  6
Continuous
 62
   155
100
AcDbLine
 10
581.4482379999999
 20
454.0903049999999
 30
0.0
 11
453.448238
 21
454.0903049999999
 31
0.0
  0
LINE
  5
64
330
1F
100
AcDbEntity
  8
1
  6
Continuous
 62
   155
100
AcDbLine
 10
609.4482379999999
 20
454.0903049999999
 30
0.0
 11
581.4482379999999
 21
454.0903049999999
 31
0.0
  0
LINE
  5
65
330
1F
100
AcDbEntity
  8
1
  6
Continuous
 62
   155
100
AcDbLine
 10
609.4482379999999
 20
370.544057
 30
0.0
 11
609.4482379999999
 21
454.0903049999999
 31
0.0
  0
LINE
  5
66
330
1F
100
AcDbEntity
  8
1
  6
Continuous
 62
   155
100
AcDbLine
 10
463.448238
 20
470.5903049999999
 30
0.0
 11
464.948238
 21
470.5903049999999
 31
0.0
  0
LINE
  5
67
330
1F
100
AcDbEntity
  8
1
  6
Continuous
 62
   155
100
AcDbLine
 10
464.948238
 20
477.317181
 30
0.0
 11
463.448238
 21
477.317181
 31
0.0
  0
LINE
  5
68
330
1F
100
AcDbEntity
  8
1
  6
Continuous
 62
   155
100
AcDbLine
 10
463.448238
 20
477.317181
 30
0.0
 11
463.448238
 21
470.5903049999999
 31
0.0
  0
LINE
  5
69
330
1F
100
AcDbEntity
  8
1
  6
Continuous
 62
   155
100
AcDbLine
 10
453.448238
 20
454.0903049999999
 30
0.0
 11
453.448238
 21
370.544057
 31
0.0
  0
LINE
  5
6A
330
1F
100
AcDbEntity
  8
1
  6
Continuous
 62
   155
100
AcDbLine
 10
609.4482379999999
 20
347.317181
 30
0.0
 11
463.448238
 21
347.317181
 31
0.0
  0
LINE
  5
6B
330
1F
100
AcDbEntity
  8
1
  6
Continuous
 62
   155
100
AcDbLine
 10
639.9482379999999
 20
412.317181
 30
0.0
 11
639.9482379999999
 21
359.317181
 31
0.0
  0
LINE
  5
6C
330
1F
100
AcDbEntity
  8
1
  6
Continuous
 62
   155
100
AcDbLine
 10
400.4482379999999
 20
412.317181
 30
0.0
 11
400.4482379999999
 21
419.3171809999999
 31
0.0
  0
LINE
  5
6D
330
1F
100
AcDbEntity
  8
1
  6
Continuous
 62
   155
100
AcDbLine
 10
463.448238
 20
354.044057
 30
0.0
 11
463.448238
 21
370.544057
 31
0.0
  0
LINE
  5
6E
330
1F
100
AcDbEntity
  8
1
  6
Continuous
 62
   155
100
AcDbLine
 10
455.948238
 20
352.817181
 30
0.0
 11
430.448238
 21
359.817181
 31
0.0
  0
LINE
  5
6F
330
1F
100
AcDbEntity
  8
1
  6
Continuous
 62
   155
370
     5
100
AcDbLine
 10
427.947925
 20
412.317181
 30
0.0
 11
400.4482379999999
 21
412.317181
 31
0.0
  0
LINE
  5
70
330
1F
100
AcDbEntity
  8
1
  6
Continuous
 62
   155
100
AcDbLine
 10
639.9482379999999
 20
412.317181
 30
0.0
 11
639.9482379999999
 21
465.3171809999999
 31
0.0
  0
LINE
  5
71
330
1F
100
AcDbEntity
  8
1
  6
Continuous
 62
   155
100
AcDbLine
 10
455.948238
 20
471.8171809999999
 30
0.0
 11
455.948238
 21
454.0903049999999
 31
0.0
  0
LINE
  5
72
330
1F
100
AcDbEntity
  8
1
  6
Continuous
 62
   155
100
AcDbLine
 10
455.948238
 20
471.8171809999999
 30
0.0
 11
430.448238
 21
464.817181
 31
0.0
  0
LINE
  5
73
330
1F
100
AcDbEntity
  8
1
  6
Continuous
 62
   155
100
AcDbLine
 10
455.948238
 20
370.544057
 30
0.0
 11
455.948238
 21
352.817181
 31
0.0
  0
LINE
  5
74
330
1F
100
AcDbEntity
  8
1
  6
Continuous
 62
   155
100
AcDbLine
 10
463.448238
 20
454.0903049999999
 30
0.0
 11
463.448238
 21
470.5903049999999
 31
0.0
  0
LINE
  5
75
330
1F
100
AcDbEntity
  8
1
  6
Continuous
 62
   155
370
     5
100
AcDbLine
 10
639.9482379999999
 20
412.317181
 30
0.0
 11
609.4482379999999
 21
412.317181
 31
0.0
  0
LINE
  5
76
330
1F
100
AcDbEntity
  8
1
  6
Continuous
 62
   155
100
AcDbLine
 10
430.448238
 20
377.317181
 30
0.0
 11
427.948238
 21
377.317181
 31
0.0
  0
LINE
  5
77
330
1F
100
AcDbEntity
  8
1
  6
Continuous
 62
   155
100
AcDbLine
 10
430.448238
 20
464.817181
 30
0.0
 11
430.448238
 21
359.817181
 31
0.0
  0
LINE
  5
78
330
1F
100
AcDbEntity
  8
1
  6
Continuous
 62
   155
100
AcDbLine
 10
464.8482379999999
 20
492.3171809999999
 30
0.0
 11
562.0482379999999
 21
492.3171809999999
 31
0.0
  0
LINE
  5
79
330
1F
100
AcDbEntity
  8
1
  6
Continuous
 62
   155
100
AcDbLine
 10
609.4482379999999
 20
370.544057
 30
0.0
 11
581.4482379999999
 21
370.544057
 31
0.0
  0
LINE
  5
7A
330
1F
100
AcDbEntity
  8
1
  6
Continuous
 62
   155
100
AcDbLine
 10
581.4482379999999
 20
370.544057
 30
0.0
 11
581.4482379999999
 21
354.044057
 31
0.0
  0
LINE
  5
7B
330
1F
100
AcDbEntity
  8
1
  6
Continuous
 62
   155
100
AcDbLine
 10
562.0482379999999
 20
492.3171809999999
 30
0.0
 11
562.0482379999999
 21
502.317181
 31
0.0
  0
LINE
  5
7C
330
1F
100
AcDbEntity
  8
1
  6
Continuous
 62
   155
100
AcDbLine
 10
464.8482379999999
 20
492.3171809999999
 30
0.0
 11
464.8482379999999
 21
502.317181
 31
0.0
  0
LINE
  5
7D
330
1F
100
AcDbEntity
  8
1
  6
Continuous
 62
   155
100
AcDbLine
 10
562.0482379999999
 20
502.317181
 30
0.0
 11
464.8482379999999
 21
502.317181
 31
0.0
  0
LINE
  5
7E
330
1F
100
AcDbEntity
  8
1
  6
Continuous
 62
   155
100
AcDbLine
 10
464.948238
 20
492.3171809999999
 30
0.0
 11
464.948238
 21
470.5903049999999
 31
0.0
  0
LINE
  5
7F
330
1F
100
AcDbEntity
  8
1
  6
Continuous
 62
   155
100
AcDbLine
 10
561.9482379999999
 20
492.3171809999999
 30
0.0
 11
561.9482379999999
 21
470.5903049999999
 31
0.0
  0
LINE
  5
80
330
1F
100
AcDbEntity
  8
1
  6
Continuous
 62
   155
100
AcDbLine
 10
561.9482379999999
 20
470.5903049999999
 30
0.0
 11
581.4482379999999
 21
470.5903049999999
 31
0.0
  0
LINE
  5
81
330
1F
100
AcDbEntity
  8
1
  6
Continuous
 62
   155
100
AcDbLine
 10
609.4482379999999
 20
454.0903049999999
 30
0.0
 11
609.4482379999999
 21
477.317181
 31
0.0
  0
LINE
  5
82
330
1F
100
AcDbEntity
  8
1
  6
Continuous
 62
   155
100
AcDbLine
 10
609.4482379999999
 20
477.317181
 30
0.0
 11
561.9482379999999
 21
477.317181
 31
0.0
  0
LINE
  5
83
330
1F
100
AcDbEntity
  8
1
  6
Continuous
 62
   155
100
AcDbLine
 10
581.4482379999999
 20
354.044057
 30
0.0
 11
463.448238
 21
354.044057
 31
0.0
  0
LINE
  5
84
330
1F
100
AcDbEntity
  8
1
  6
Continuous
 62
   155
100
AcDbLine
 10
581.4482379999999
 20
470.5903049999999
 30
0.0
 11
581.4482379999999
 21
454.0903049999999
 31
0.0
  0
LINE
  5
85
330
1F
100
AcDbEntity
  8
1
  6
Continuous
 62
   155
100
AcDbLine
 10
463.448238
 20
354.044057
 30
0.0
 11
463.448238
 21
347.317181
 31
0.0
  0
LINE
  5
86
330
1F
100
AcDbEntity
  8
1
  6
Continuous
 62
   155
100
AcDbLine
 10
609.4482379999999
 20
347.317181
 30
0.0
 11
609.4482379999999
 21
370.544057
 31
0.0
  0
LINE
  5
87
330
1F
100
AcDbEntity
  8
1
  6
Continuous
 62
   155
100
AcDbLine
 10
581.4482379999999
 20
370.544057
 30
0.0
 11
453.448238
 21
370.544057
 31
0.0
  0
LINE
  5
88
330
1F
100
AcDbEntity
  8
1
  6
Continuous
 62
   155
100
AcDbLine
 10
544.0482379999999
 20
520.3171809999999
 30
0.0
 11
482.8482379999999
 21
520.3171809999999
 31
0.0
  0
LINE
  5
89
330
1F
100
AcDbEntity
  8
1
  6
Continuous
 62
   155
100
AcDbLine
 10
562.0482379999999
 20
502.317181
 30
0.0
 11
544.0482379999999
 21
520.3171809999999
 31
0.0
  0
LINE
  5
8A
330
1F
100
AcDbEntity
  8
1
  6
Continuous
 62
   155
100
AcDbLine
 10
464.8482379999999
 20
502.317181
 30
0.0
 11
482.8482379999999
 21
520.3171809999999
 31
0.0
  0
LINE
  5
8B
330
1F
100
AcDbEntity
  8
1
  6
Continuous
 62
   155
100
AcDbLine
 10
455.948238
 20
352.817181
 30
0.0
 11
463.448238
 21
352.817181
 31
0.0
  0
LINE
  5
8C
330
1F
100
AcDbEntity
  8
1
  6
Continuous
 62
   155
100
AcDbLine
 10
400.4482379999999
 20
405.317181
 30
0.0
 11
427.947925
 21
405.317181
 31
0.0
  0
LINE
  5
8D
330
1F
100
AcDbEntity
  8
1
  6
Continuous
 62
   155
100
AcDbLine
 10
639.9482379999999
 20
465.3171809999999
 30
0.0
 11
609.4482379999999
 21
476.418273
 31
0.0
  0
LINE
  5
8E
330
1F
100
AcDbEntity
  8
1
  6
Continuous
 62
   155
100
AcDbLine
 10
463.448238
 20
471.8171809999999
 30
0.0
 11
455.948238
 21
471.8171809999999
 31
0.0
  0
LINE
  5
8F
330
1F
100
AcDbEntity
  8
1
  6
Continuous
 62
   155
100
AcDbLine
 10
427.947925
 20
419.3171809999999
 30
0.0
 11
400.4482379999999
 21
419.3171809999999
 31
0.0
  0
LINE
  5
90
330
1F
100
AcDbEntity
  8
1
  6
Continuous
 62
   155
100
AcDbLine
 10
609.4482379999999
 20
348.216088
 30
0.0
 11
639.9482379999999
 21
359.317181
 31
0.0
  0
LINE
  5
91
330
1F
100
AcDbEntity
  8
1
  6
Continuous
 62
   155
100
AcDbLine
 10
220.665059
 20
520.3171809999999
 30
0.0
 11
220.665059
 21
521.317181
 31
0.0
  0
LINE
  5
92
330
1F
100
AcDbEntity
  8
1
  6
Continuous
 62
   155
100
AcDbLine
 10
214.600606
 20
521.317181
 30
0.0
 11
220.665059
 21
521.317181
 31
0.0
  0
LINE
  5
93
330
1F
100
AcDbEntity
  8
1
  6
Continuous
 62
   155
100
AcDbLine
 10
198.934102
 20
520.3171809999999
 30
0.0
 11
198.934102
 21
521.317181
 31
0.0
  0
LINE
  5
94
330
1F
100
AcDbEntity
  8
1
  6
Continuous
 62
   155
370
     5
100
AcDbLine
 10
222.967305
 20
520.3171809999999
 30
0.0
 11
222.967305
 21
521.317181
 31
0.0
  0
LINE
  5
95
330
1F
100
AcDbEntity
  8
1
  6
Continuous
 62
   155
100
AcDbLine
 10
192.229512
 20
520.3171809999999
 30
0.0
 11
192.229512
 21
521.317181
 31
0.0
  0
LINE
  5
96
330
1F
100
AcDbEntity
  8
1
  6
Continuous
 62
   155
100
AcDbLine
 10
198.934102
 20
521.317181
 30
0.0
 11
202.494161
 21
521.317181
 31
0.0
  0
LINE
  5
97
330
1F
100
AcDbEntity
  8
1
  6
Continuous
 62
   155
100
AcDbLine
 10
192.229512
 20
521.317181
 30
0.0
 11
197.462911
 21
521.317181
 31
0.0
  0
LINE
  5
98
330
1F
100
AcDbEntity
  8
1
  6
Continuous
 62
   155
100
AcDbLine
 10
221.091816
 20
521.317181
 30
0.0
 11
222.967305
 21
521.317181
 31
0.0
  0
LINE
  5
99
330
1F
100
AcDbEntity
  8
1
  6
Continuous
 62
   155
100
AcDbLine
 10
229.267598
 20
520.3171809999999
 30
0.0
 11
229.267598
 21
521.317181
 31
0.0
  0
LINE
  5
9A
330
1F
100
AcDbEntity
  8
1
  6
Continuous
 62
   155
100
AcDbLine
 10
207.929707
 20
520.3171809999999
 30
0.0
 11
207.929707
 21
521.317181
 31
0.0
  0
LINE
  5
9B
330
1F
100
AcDbEntity
  8
1
  6
Continuous
 62
   155
100
AcDbLine
 10
206.458516
 20
520.3171809999999
 30
0.0
 11
206.458516
 21
521.317181
 31
0.0
  0
LINE
  5
9C
330
1F
100
AcDbEntity
  8
1
  6
Continuous
 62
   155
100
AcDbLine
 10
213.163106
 20
520.3171809999999
 30
0.0
 11
213.163106
 21
521.317181
 31
0.0
  0
LINE
  5
9D
330
1F
100
AcDbEntity
  8
1
  6
Continuous
 62
   155
100
AcDbLine
 10
206.458516
 20
521.317181
 30
0.0
 11
207.929707
 21
521.317181
 31
0.0
  0
LINE
  5
9E
330
1F
100
AcDbEntity
  8
1
  6
Continuous
 62
   155
100
AcDbLine
 10
202.898457
 20
521.317181
 30
0.0
 11
206.458516
 21
521.317181
 31
0.0
  0
LINE
  5
9F
330
1F
100
AcDbEntity
  8
1
  6
Continuous
 62
   155
100
AcDbLine
 10
207.929707
 20
521.317181
 30
0.0
 11
213.163106
 21
521.317181
 31
0.0
  0
LINE
  5
A0
330
1F
100
AcDbEntity
  8
1
  6
Continuous
 62
   155
100
AcDbLine
 10
202.898457
 20
520.3171809999999
 30
0.0
 11
202.898457
 21
521.317181
 31
0.0
  0
LINE
  5
A1
330
1F
100
AcDbEntity
  8
1
  6
Continuous
 62
   155
100
AcDbLine
 10
202.494161
 20
520.3171809999999
 30
0.0
 11
202.494161
 21
521.317181
 31
0.0
  0
LINE
  5
A2
330
1F
100
AcDbEntity
  8
1
  6
Continuous
 62
   155
100
AcDbLine
 10
197.462911
 20
521.317181
 30
0.0
 11
198.934102
 21
521.317181
 31
0.0
  0
LINE
  5
A3
330
1F
100
AcDbEntity
  8
1
  6
Continuous
 62
   155
100
AcDbLine
 10
197.462911
 20
520.3171809999999
 30
0.0
 11
197.462911
 21
521.317181
 31
0.0
  0
LINE
  5
A4
330
1F
100
AcDbEntity
  8
1
  6
Continuous
 62
   155
100
AcDbLine
 10
221.091816
 20
520.3171809999999
 30
0.0
 11
221.091816
 21
521.317181
 31
0.0
  0
LINE
  5
A5
330
1F
100
AcDbEntity
  8
1
  6
Continuous
 62
   155
100
AcDbLine
 10
153.568282
 20
370.544057
 30
0.0
 11
153.568282
 21
454.0903049999999
 31
0.0
  0
LINE
  5
A6
330
1F
100
AcDbEntity
  8
1
  6
Continuous
 62
   155
100
AcDbLine
 10
267.068282
 20
492.3171809999999
 30
0.0
 11
267.068282
 21
470.5903049999999
 31
0.0
  0
LINE
  5
A7
330
1F
100
AcDbEntity
  8
1
  6
Continuous
 62
   155
100
AcDbLine
 10
283.568282
 20
454.0903049999999
 30
0.0
 11
283.568282
 21
370.544057
 31
0.0
  0
LINE
  5
A8
330
1F
100
AcDbEntity
  8
1
  6
Continuous
 62
   155
100
AcDbLine
 10
283.568282
 20
370.544057
 30
0.0
 11
260.341406
 21
347.317181
 31
0.0
  0
LINE
  5
A9
330
1F
100
AcDbEntity
  8
1
  6
Continuous
 62
   155
100
AcDbLine
 10
260.341406
 20
347.317181
 30
0.0
 11
176.795158
 21
347.317181
 31
0.0
  0
LINE
  5
AA
330
1F
100
AcDbEntity
  8
1
  6
Continuous
 62
   155
370
     5
100
AcDbLine
 10
271.568282
 20
412.317181
 30
0.0
 11
282.669374
 21
412.317181
 31
0.0
  0
LINE
  5
AB
330
1F
100
AcDbEntity
  8
1
  6
Continuous
 62
   155
100
AcDbLine
 10
176.795158
 20
477.317181
 30
0.0
 11
260.341406
 21
477.317181
 31
0.0
  0
LINE
  5
AC
330
1F
100
AcDbEntity
  8
1
  6
Continuous
 62
   155
370
     5
100
AcDbLine
 10
165.568282
 20
412.317181
 30
0.0
 11
154.46719
 21
412.317181
 31
0.0
  0
LINE
  5
AD
330
1F
100
AcDbEntity
  8
1
  6
Continuous
 62
   155
100
AcDbLine
 10
260.341406
 20
477.317181
 30
0.0
 11
283.568282
 21
454.0903049999999
 31
0.0
  0
LINE
  5
AE
330
1F
100
AcDbEntity
  8
1
  6
Continuous
 62
   155
100
AcDbLine
 10
169.968282
 20
492.3171809999999
 30
0.0
 11
169.968282
 21
502.317181
 31
0.0
  0
LINE
  5
AF
330
1F
100
AcDbEntity
  8
1
  6
Continuous
 62
   155
100
AcDbLine
 10
170.068282
 20
492.3171809999999
 30
0.0
 11
170.068282
 21
470.5903049999999
 31
0.0
  0
LINE
  5
B0
330
1F
100
AcDbEntity
  8
1
  6
Continuous
 62
   155
100
AcDbLine
 10
267.168282
 20
492.3171809999999
 30
0.0
 11
267.168282
 21
502.317181
 31
0.0
  0
LINE
  5
B1
330
1F
100
AcDbEntity
  8
1
  6
Continuous
 62
   155
100
AcDbLine
 10
153.568282
 20
454.0903049999999
 30
0.0
 11
176.795158
 21
477.317181
 31
0.0
  0
LINE
  5
B2
330
1F
100
AcDbEntity
  8
1
  6
Continuous
 62
   155
100
AcDbLine
 10
169.968282
 20
492.3171809999999
 30
0.0
 11
267.168282
 21
492.3171809999999
 31
0.0
  0
LINE
  5
B3
330
1F
100
AcDbEntity
  8
1
  6
Continuous
 62
   155
100
AcDbLine
 10
267.168282
 20
502.317181
 30
0.0
 11
169.968282
 21
502.317181
 31
0.0
  0
LINE
  5
B4
330
1F
100
AcDbEntity
  8
1
  6
Continuous
 62
   155
100
AcDbLine
 10
176.795158
 20
347.317181
 30
0.0
 11
153.568282
 21
370.544057
 31
0.0
  0
LINE
  5
B5
330
1F
100
AcDbEntity
  8
1
  6
Continuous
 62
   155
100
AcDbLine
 10
230.907246
 20
521.317181
 30
0.0
 11
236.971699
 21
521.317181
 31
0.0
  0
LINE
  5
B6
330
1F
100
AcDbEntity
  8
1
  6
Continuous
 62
   155
100
AcDbLine
 10
169.968282
 20
502.317181
 30
0.0
 11
187.968282
 21
520.3171809999999
 31
0.0
  0
LINE
  5
B7
330
1F
100
AcDbEntity
  8
1
  6
Continuous
 62
   155
100
AcDbLine
 10
267.168282
 20
502.317181
 30
0.0
 11
249.168282
 21
520.3171809999999
 31
0.0
  0
LINE
  5
B8
330
1F
100
AcDbEntity
  8
1
  6
Continuous
 62
   155
100
AcDbLine
 10
236.971699
 20
520.3171809999999
 30
0.0
 11
236.971699
 21
521.317181
 31
0.0
  0
LINE
  5
B9
330
1F
100
AcDbEntity
  8
1
  6
Continuous
 62
   155
100
AcDbLine
 10
214.600606
 20
520.3171809999999
 30
0.0
 11
214.600606
 21
521.317181
 31
0.0
  0
LINE
  5
BA
330
1F
100
AcDbEntity
  8
1
  6
Continuous
 62
   155
100
AcDbLine
 10
230.907246
 20
520.3171809999999
 30
0.0
 11
230.907246
 21
521.317181
 31
0.0
  0
LINE
  5
BB
330
1F
100
AcDbEntity
  8
1
  6
Continuous
 62
   155
100
AcDbLine
 10
245.574238
 20
520.3171809999999
 30
0.0
 11
245.574238
 21
521.317181
 31
0.0
  0
LINE
  5
BC
330
1F
100
AcDbEntity
  8
1
  6
Continuous
 62
   155
100
AcDbLine
 10
237.398457
 20
520.3171809999999
 30
0.0
 11
237.398457
 21
521.317181
 31
0.0
  0
LINE
  5
BD
330
1F
100
AcDbEntity
  8
1
  6
Continuous
 62
   155
100
AcDbLine
 10
249.168282
 20
520.3171809999999
 30
0.0
 11
187.968282
 21
520.3171809999999
 31
0.0
  0
LINE
  5
BE
330
1F
100
AcDbEntity
  8
1
  6
Continuous
 62
   155
370
     5
100
AcDbLine
 10
239.273945
 20
520.3171809999999
 30
0.0
 11
239.273945
 21
521.317181
 31
0.0
  0
LINE
  5
BF
330
1F
100
AcDbEntity
  8
1
  6
Continuous
 62
   155
100
AcDbLine
 10
237.398457
 20
521.317181
 30
0.0
 11
239.273945
 21
521.317181
 31
0.0
  0
LINE
  5
C0
330
1F
100
AcDbEntity
  8
1
  6
Continuous
 62
   155
100
AcDbLine
 10
835.986924
 20
520.3171809999999
 30
0.0
 11
835.986924
 21
521.317181
 31
0.0
  0
LINE
  5
C1
330
1F
100
AcDbEntity
  8
1
  6
Continuous
 62
   155
100
AcDbLine
 10
817.3780370000001
 20
521.317181
 30
0.0
 11
819.2535259999999
 21
521.317181
 31
0.0
  0
LINE
  5
C2
330
1F
100
AcDbEntity
  8
1
  6
Continuous
 62
   155
100
AcDbLine
 10
843.488877
 20
521.317181
 30
0.0
 11
847.0826269999999
 21
521.317181
 31
0.0
  0
LINE
  5
C3
330
1F
100
AcDbEntity
  8
1
  6
Continuous
 62
   155
100
AcDbLine
 10
812.6612409999999
 20
520.3171809999999
 30
0.0
 11
812.6612409999999
 21
521.317181
 31
0.0
  0
LINE
  5
C4
330
1F
100
AcDbEntity
  8
1
  6
Continuous
 62
   155
100
AcDbLine
 10
864.42247
 20
520.3171809999999
 30
0.0
 11
864.42247
 21
521.317181
 31
0.0
  0
LINE
  5
C5
330
1F
100
AcDbEntity
  8
1
  6
Continuous
 62
   155
100
AcDbLine
 10
835.986924
 20
521.317181
 30
0.0
 11
842.0513769999999
 21
521.317181
 31
0.0
  0
LINE
  5
C6
330
1F
100
AcDbEntity
  8
1
  6
Continuous
 62
   155
100
AcDbLine
 10
828.8218849999999
 20
520.3171809999999
 30
0.0
 11
828.8218849999999
 21
521.317181
 31
0.0
  0
LINE
  5
C7
330
1F
100
AcDbEntity
  8
1
  6
Continuous
 62
   155
100
AcDbLine
 10
860.6826900000001
 20
521.317181
 30
0.0
 11
860.8287199999999
 21
521.317181
 31
0.0
  0
LINE
  5
C8
330
1F
100
AcDbEntity
  8
1
  6
Continuous
 62
   155
100
AcDbLine
 10
827.384385
 20
520.3171809999999
 30
0.0
 11
827.384385
 21
521.317181
 31
0.0
  0
LINE
  5
C9
330
1F
100
AcDbEntity
  8
1
  6
Continuous
 62
   155
100
AcDbLine
 10
842.0513769999999
 20
520.3171809999999
 30
0.0
 11
842.0513769999999
 21
521.317181
 31
0.0
  0
LINE
  5
CA
330
1F
100
AcDbEntity
  8
1
  6
Continuous
 62
   155
100
AcDbLine
 10
843.488877
 20
520.3171809999999
 30
0.0
 11
843.488877
 21
521.317181
 31
0.0
  0
LINE
  5
CB
330
1F
100
AcDbEntity
  8
1
  6
Continuous
 62
   155
100
AcDbLine
 10
847.0826269999999
 20
520.3171809999999
 30
0.0
 11
847.0826269999999
 21
521.317181
 31
0.0
  0
LINE
  5
CC
330
1F
100
AcDbEntity
  8
1
  6
Continuous
 62
   155
100
AcDbLine
 10
850.822373
 20
521.317181
 30
0.0
 11
853.7535249999999
 21
521.317181
 31
0.0
  0
LINE
  5
CD
330
1F
100
AcDbEntity
  8
1
  6
Continuous
 62
   155
100
AcDbLine
 10
860.6827239999999
 20
520.3171809999999
 30
0.0
 11
860.6827239999999
 21
521.317181
 31
0.0
  0
LINE
  5
CE
330
1F
100
AcDbEntity
  8
1
  6
Continuous
 62
   155
100
AcDbLine
 10
847.2286230000001
 20
520.3171809999999
 30
0.0
 11
847.2286230000001
 21
521.317181
 31
0.0
  0
LINE
  5
CF
330
1F
100
AcDbEntity
  8
1
  6
Continuous
 62
   155
100
AcDbLine
 10
857.088974
 20
521.317181
 30
0.0
 11
860.6827239999999
 21
521.317181
 31
0.0
  0
LINE
  5
D0
330
1F
100
AcDbEntity
  8
1
  6
Continuous
 62
   155
100
AcDbLine
 10
854.1578220000001
 20
520.3171809999999
 30
0.0
 11
854.1578220000001
 21
521.317181
 31
0.0
  0
LINE
  5
D1
330
1F
100
AcDbEntity
  8
1
  6
Continuous
 62
   155
100
AcDbLine
 10
860.8287199999999
 20
520.3171809999999
 30
0.0
 11
860.8287199999999
 21
521.317181
 31
0.0
  0
LINE
  5
D2
330
1F
100
AcDbEntity
  8
1
  6
Continuous
 62
   155
100
AcDbLine
 10
860.8287199999999
 20
521.317181
 30
0.0
 11
864.42247
 21
521.317181
 31
0.0
  0
LINE
  5
D3
330
1F
100
AcDbEntity
  8
1
  6
Continuous
 62
   155
100
AcDbLine
 10
847.0826269999999
 20
521.317181
 30
0.0
 11
847.2286569999999
 21
521.317181
 31
0.0
  0
LINE
  5
D4
330
1F
100
AcDbEntity
  8
1
  6
Continuous
 62
   155
100
AcDbLine
 10
854.1578220000001
 20
521.317181
 30
0.0
 11
857.088974
 21
521.317181
 31
0.0
  0
LINE
  5
D5
330
1F
100
AcDbEntity
  8
1
  6
Continuous
 62
   155
100
AcDbLine
 10
857.088974
 20
520.3171809999999
 30
0.0
 11
857.088974
 21
521.317181
 31
0.0
  0
LINE
  5
D6
330
1F
100
AcDbEntity
  8
1
  6
Continuous
 62
   155
100
AcDbLine
 10
853.7535249999999
 20
520.3171809999999
 30
0.0
 11
853.7535249999999
 21
521.317181
 31
0.0
  0
LINE
  5
D7
330
1F
100
AcDbEntity
  8
1
  6
Continuous
 62
   155
100
AcDbLine
 10
847.2286230000001
 20
521.317181
 30
0.0
 11
850.822373
 21
521.317181
 31
0.0
  0
LINE
  5
D8
330
1F
100
AcDbEntity
  8
1
  6
Continuous
 62
   155
100
AcDbLine
 10
819.2535259999999
 20
520.3171809999999
 30
0.0
 11
819.2535259999999
 21
521.317181
 31
0.0
  0
LINE
  5
D9
330
1F
100
AcDbEntity
  8
1
  6
Continuous
 62
   155
100
AcDbLine
 10
850.822373
 20
520.3171809999999
 30
0.0
 11
850.822373
 21
521.317181
 31
0.0
  0
LINE
  5
DA
330
1F
100
AcDbEntity
  8
1
  6
Continuous
 62
   155
370
     5
100
AcDbLine
 10
817.3780370000001
 20
520.3171809999999
 30
0.0
 11
817.3780370000001
 21
521.317181
 31
0.0
  0
LINE
  5
DB
330
1F
100
AcDbEntity
  8
1
  6
Continuous
 62
   155
100
AcDbLine
 10
828.8218849999999
 20
521.317181
 30
0.0
 11
828.8812659999999
 21
521.317181
 31
0.0
  0
LINE
  5
DC
330
1F
100
AcDbEntity
  8
1
  6
Continuous
 62
   155
100
AcDbLine
 10
879.8568240000001
 20
347.317181
 30
0.0
 11
796.3105759999999
 21
347.317181
 31
0.0
  0
LINE
  5
DD
330
1F
100
AcDbEntity
  8
1
  6
Continuous
 62
   155
100
AcDbLine
 10
773.0837
 20
370.544057
 30
0.0
 11
773.0837
 21
454.0903049999999
 31
0.0
  0
LINE
  5
DE
330
1F
100
AcDbEntity
  8
1
  6
Continuous
 62
   155
100
AcDbLine
 10
796.3105759999999
 20
477.317181
 30
0.0
 11
879.8568240000001
 21
477.317181
 31
0.0
  0
LINE
  5
DF
330
1F
100
AcDbEntity
  8
1
  6
Continuous
 62
   155
100
AcDbLine
 10
796.3105759999999
 20
347.317181
 30
0.0
 11
789.5837
 21
354.044057
 31
0.0
  0
LINE
  5
E0
330
1F
100
AcDbEntity
  8
1
  6
Continuous
 62
   155
100
AcDbLine
 10
879.8568240000001
 20
477.317181
 30
0.0
 11
886.5837
 21
470.5903049999999
 31
0.0
  0
LINE
  5
E1
330
1F
100
AcDbEntity
  8
1
  6
Continuous
 62
   155
100
AcDbLine
 10
903.0837
 20
454.0903049999999
 30
0.0
 11
903.0837
 21
370.544057
 31
0.0
  0
LINE
  5
E2
330
1F
100
AcDbEntity
  8
1
  6
Continuous
 62
   155
100
AcDbLine
 10
789.5837
 20
354.044057
 30
0.0
 11
773.0837
 21
370.544057
 31
0.0
  0
LINE
  5
E3
330
1F
100
AcDbEntity
  8
1
  6
Continuous
 62
   155
100
AcDbLine
 10
789.5837
 20
492.3171809999999
 30
0.0
 11
789.5837
 21
470.5903049999999
 31
0.0
  0
LINE
  5
E4
330
1F
100
AcDbEntity
  8
1
  6
Continuous
 62
   155
100
AcDbLine
 10
789.5837
 20
370.544057
 30
0.0
 11
789.5837
 21
354.044057
 31
0.0
  0
LINE
  5
E5
330
1F
100
AcDbEntity
  8
1
  6
Continuous
 62
   155
100
AcDbLine
 10
886.5837
 20
354.044057
 30
0.0
 11
886.5837
 21
370.544057
 31
0.0
  0
LINE
  5
E6
330
1F
100
AcDbEntity
  8
1
  6
Continuous
 62
   155
370
     5
100
AcDbLine
 10
838.0836999999999
 20
352.817181
 30
0.0
 11
838.0836999999999
 21
359.817181
 31
0.0
  0
LINE
  5
E7
330
1F
100
AcDbEntity
  8
1
  6
Continuous
 62
   155
100
AcDbLine
 10
773.0837
 20
370.544057
 30
0.0
 11
774.974955
 21
370.544057
 31
0.0
  0
LINE
  5
E8
330
1F
100
AcDbEntity
  8
1
  6
Continuous
 62
   155
100
AcDbLine
 10
774.974955
 20
370.544057
 30
0.0
 11
774.974955
 21
454.0903049999999
 31
0.0
  0
LINE
  5
E9
330
1F
100
AcDbEntity
  8
1
  6
Continuous
 62
   155
370
     5
100
AcDbLine
 10
838.0836999999999
 20
471.8171809999999
 30
0.0
 11
838.0836999999999
 21
464.817181
 31
0.0
  0
LINE
  5
EA
330
1F
100
AcDbEntity
  8
1
  6
Continuous
 62
   155
100
AcDbLine
 10
886.5837
 20
454.0903049999999
 30
0.0
 11
886.5837
 21
470.5903049999999
 31
0.0
  0
LINE
  5
EB
330
1F
100
AcDbEntity
  8
1
  6
Continuous
 62
   155
100
AcDbLine
 10
774.974955
 20
454.0903049999999
 30
0.0
 11
773.0837
 21
454.0903049999999
 31
0.0
  0
LINE
  5
EC
330
1F
100
AcDbEntity
  8
1
  6
Continuous
 62
   155
100
AcDbLine
 10
789.5837
 20
470.5903049999999
 30
0.0
 11
789.5837
 21
454.0903049999999
 31
0.0
  0
LINE
  5
ED
330
1F
100
AcDbEntity
  8
1
  6
Continuous
 62
   155
100
AcDbLine
 10
789.5837
 20
470.5903049999999
 30
0.0
 11
796.3105759999999
 21
477.317181
 31
0.0
  0
LINE
  5
EE
330
1F
100
AcDbEntity
  8
1
  6
Continuous
 62
   155
100
AcDbLine
 10
903.0837
 20
370.544057
 30
0.0
 11
886.5837
 21
354.044057
 31
0.0
  0
LINE
  5
EF
330
1F
100
AcDbEntity
  8
1
  6
Continuous
 62
   155
100
AcDbLine
 10
774.974955
 20
454.0903049999999
 30
0.0
 11
796.682488
 21
454.0903049999999
 31
0.0
  0
LINE
  5
F0
330
1F
100
AcDbEntity
  8
1
  6
Continuous
 62
   155
100
AcDbLine
 10
886.6837
 20
492.3171809999999
 30
0.0
 11
886.6837
 21
502.317181
 31
0.0
  0
LINE
  5
F1
330
1F
100
AcDbEntity
  8
1
  6
Continuous
 62
   155
100
AcDbLine
 10
886.5837
 20
492.3171809999999
 30
0.0
 11
886.5837
 21
470.5903049999999
 31
0.0
  0
LINE
  5
F2
330
1F
100
AcDbEntity
  8
1
  6
Continuous
 62
   155
100
AcDbLine
 10
789.4836999999999
 20
492.3171809999999
 30
0.0
 11
886.6837
 21
492.3171809999999
 31
0.0
  0
LINE
  5
F3
330
1F
100
AcDbEntity
  8
1
  6
Continuous
 62
   155
100
AcDbLine
 10
789.4836999999999
 20
492.3171809999999
 30
0.0
 11
789.4836999999999
 21
502.317181
 31
0.0
  0
LINE
  5
F4
330
1F
100
AcDbEntity
  8
1
  6
Continuous
 62
   155
100
AcDbLine
 10
903.0837
 20
370.544057
 30
0.0
 11
879.4849130000001
 21
370.544057
 31
0.0
  0
LINE
  5
F5
330
1F
100
AcDbEntity
  8
1
  6
Continuous
 62
   155
100
AcDbLine
 10
773.0837
 20
454.0903049999999
 30
0.0
 11
789.5837
 21
470.5903049999999
 31
0.0
  0
LINE
  5
F6
330
1F
100
AcDbEntity
  8
1
  6
Continuous
 62
   155
100
AcDbLine
 10
879.4849130000001
 20
454.0903049999999
 30
0.0
 11
903.0837
 21
454.0903049999999
 31
0.0
  0
LINE
  5
F7
330
1F
100
AcDbEntity
  8
1
  6
Continuous
 62
   155
100
AcDbLine
 10
886.5837
 20
470.5903049999999
 30
0.0
 11
903.0837
 21
454.0903049999999
 31
0.0
  0
LINE
  5
F8
330
1F
100
AcDbEntity
  8
1
  6
Continuous
 62
   155
100
AcDbLine
 10
886.5837
 20
354.044057
 30
0.0
 11
879.8568240000001
 21
347.317181
 31
0.0
  0
LINE
  5
F9
330
1F
100
AcDbEntity
  8
1
  6
Continuous
 62
   155
100
AcDbLine
 10
886.6837
 20
502.317181
 30
0.0
 11
789.4836999999999
 21
502.317181
 31
0.0
  0
LINE
  5
FA
330
1F
100
AcDbEntity
  8
1
  6
Continuous
 62
   155
100
AcDbLine
 10
796.682488
 20
370.544057
 30
0.0
 11
774.974955
 21
370.544057
 31
0.0
  0
LINE
  5
FB
330
1F
100
AcDbEntity
  8
1
  6
Continuous
 62
   155
100
AcDbLine
 10
835.5601659999999
 20
520.3171809999999
 30
0.0
 11
835.5601659999999
 21
521.317181
 31
0.0
  0
LINE
  5
FC
330
1F
100
AcDbEntity
  8
1
  6
Continuous
 62
   155
100
AcDbLine
 10
819.6802830000001
 20
521.317181
 30
0.0
 11
825.744736
 21
521.317181
 31
0.0
  0
LINE
  5
FD
330
1F
100
AcDbEntity
  8
1
  6
Continuous
 62
   155
370
     5
100
AcDbLine
 10
833.684678
 20
520.3171809999999
 30
0.0
 11
833.684678
 21
521.317181
 31
0.0
  0
LINE
  5
FE
330
1F
100
AcDbEntity
  8
1
  6
Continuous
 62
   155
100
AcDbLine
 10
811.077745
 20
520.3171809999999
 30
0.0
 11
811.077745
 21
521.317181
 31
0.0
  0
LINE
  5
FF
330
1F
100
AcDbEntity
  8
1
  6
Continuous
 62
   155
100
AcDbLine
 10
812.515244
 20
520.3171809999999
 30
0.0
 11
812.515244
 21
521.317181
 31
0.0
  0
LINE
  5
100
330
1F
100
AcDbEntity
  8
1
  6
Continuous
 62
   155
100
AcDbLine
 10
833.684678
 20
521.317181
 30
0.0
 11
835.5601659999999
 21
521.317181
 31
0.0
  0
LINE
  5
101
330
1F
100
AcDbEntity
  8
1
  6
Continuous
 62
   155
100
AcDbLine
 10
886.6837
 20
502.317181
 30
0.0
 11
868.6837
 21
520.3171809999999
 31
0.0
  0
LINE
  5
102
330
1F
100
AcDbEntity
  8
1
  6
Continuous
 62
   155
100
AcDbLine
 10
812.515244
 20
521.317181
 30
0.0
 11
812.5746259999999
 21
521.317181
 31
0.0
  0
LINE
  5
103
330
1F
100
AcDbEntity
  8
1
  6
Continuous
 62
   155
100
AcDbLine
 10
828.9678809999999
 20
520.3171809999999
 30
0.0
 11
828.9678809999999
 21
521.317181
 31
0.0
  0
LINE
  5
104
330
1F
100
AcDbEntity
  8
1
  6
Continuous
 62
   155
100
AcDbLine
 10
868.6837
 20
520.3171809999999
 30
0.0
 11
807.4837
 21
520.3171809999999
 31
0.0
  0
LINE
  5
105
330
1F
100
AcDbEntity
  8
1
  6
Continuous
 62
   155
100
AcDbLine
 10
819.6802830000001
 20
520.3171809999999
 30
0.0
 11
819.6802830000001
 21
521.317181
 31
0.0
  0
LINE
  5
106
330
1F
100
AcDbEntity
  8
1
  6
Continuous
 62
   155
100
AcDbLine
 10
789.4836999999999
 20
502.317181
 30
0.0
 11
807.4837
 21
520.3171809999999
 31
0.0
  0
LINE
  5
107
330
1F
100
AcDbEntity
  8
1
  6
Continuous
 62
   155
100
AcDbLine
 10
825.744736
 20
520.3171809999999
 30
0.0
 11
825.744736
 21
521.317181
 31
0.0
  0
LINE
  5
108
330
1F
100
AcDbEntity
  8
1
  6
Continuous
 62
   155
100
AcDbLine
 10
512.6171829999999
 20
185.3566889999999
 30
0.0
 11
506.55273
 21
185.3566889999999
 31
0.0
  0
LINE
  5
109
330
1F
100
AcDbEntity
  8
1
  6
Continuous
 62
   155
100
AcDbLine
 10
506.55273
 20
185.3566889999999
 30
0.0
 11
506.55273
 21
175.092041
 31
0.0
  0
LINE
  5
10A
330
1F
100
AcDbEntity
  8
1
  6
Continuous
 62
   155
100
AcDbLine
 10
506.55273
 20
175.092041
 30
0.0
 11
512.6171829999999
 21
175.092041
 31
0.0
  0
LINE
  5
10B
330
1F
100
AcDbEntity
  8
1
  6
Continuous
 62
   155
100
AcDbLine
 10
512.6171829999999
 20
175.092041
 30
0.0
 11
512.6171829999999
 21
185.3566889999999
 31
0.0
  0
LINE
  5
10C
330
1F
100
AcDbEntity
  8
1
  6
Continuous
 62
   155
100
AcDbLine
 10
531.2260689999999
 20
196.0256339999998
 30
0.0
 11
529.3505809999999
 21
196.0256339999998
 31
0.0
  0
LINE
  5
10D
330
1F
100
AcDbEntity
  8
1
  6
Continuous
 62
   155
100
AcDbLine
 10
427.948238
 20
183.259912
 30
0.0
 11
427.948238
 21
148.259912
 31
0.0
  0
LINE
  5
10E
330
1F
100
AcDbEntity
  8
1
  6
Continuous
 62
   155
100
AcDbLine
 10
427.947925
 20
190.259912
 30
0.0
 11
400.4482379999999
 21
190.259912
 31
0.0
  0
LINE
  5
10F
330
1F
100
AcDbEntity
  8
1
  6
Continuous
 62
   155
370
     5
100
AcDbLine
 10
430.448238
 20
183.259912
 30
0.0
 11
427.948238
 21
183.259912
 31
0.0
  0
LINE
  5
110
330
1F
100
AcDbEntity
  8
1
  6
Continuous
 62
   155
100
AcDbLine
 10
505.11523
 20
175.092041
 30
0.0
 11
501.5214799999999
 21
185.3566889999999
 31
0.0
  0
LINE
  5
111
330
1F
100
AcDbEntity
  8
1
  6
Continuous
 62
   155
100
AcDbLine
 10
512.6171829999999
 20
196.0256339999998
 30
0.0
 11
506.55273
 21
196.0256339999998
 31
0.0
  0
LINE
  5
112
330
1F
100
AcDbEntity
  8
1
  6
Continuous
 62
   155
100
AcDbLine
 10
490.8862259999999
 20
179.2922359999999
 30
0.0
 11
494.4462849999999
 21
179.2922359999999
 31
0.0
  0
LINE
  5
113
330
1F
100
AcDbEntity
  8
1
  6
Continuous
 62
   155
100
AcDbLine
 10
494.4462849999999
 20
179.2922359999999
 30
0.0
 11
494.4462849999999
 21
185.3566889999999
 31
0.0
  0
LINE
  5
114
330
1F
100
AcDbEntity
  8
1
  6
Continuous
 62
   155
100
AcDbLine
 10
512.6171829999999
 20
185.7609859999999
 30
0.0
 11
512.6171829999999
 21
196.0256339999998
 31
0.0
  0
LINE
  5
115
330
1F
100
AcDbEntity
  8
1
  6
Continuous
 62
   155
100
AcDbLine
 10
494.4462849999999
 20
185.3566889999999
 30
0.0
 11
487.7753859999999
 21
185.3566889999999
 31
0.0
  0
LINE
  5
116
330
1F
100
AcDbEntity
  8
1
  6
Continuous
 62
   155
100
AcDbLine
 10
484.181636
 20
175.092041
 30
0.0
 11
489.415035
 21
175.092041
 31
0.0
  0
LINE
  5
117
330
1F
100
AcDbEntity
  8
1
  6
Continuous
 62
   155
100
AcDbLine
 10
529.3505809999999
 20
185.7609859999999
 30
0.0
 11
535.707026
 21
185.7609859999999
 31
0.0
  0
LINE
  5
118
330
1F
100
AcDbEntity
  8
1
  6
Continuous
 62
   155
100
AcDbLine
 10
513.04394
 20
175.092041
 30
0.0
 11
514.919429
 21
175.092041
 31
0.0
  0
LINE
  5
119
330
1F
100
AcDbEntity
  8
1
  6
Continuous
 62
   155
100
AcDbLine
 10
506.55273
 20
185.7609859999999
 30
0.0
 11
512.6171829999999
 21
185.7609859999999
 31
0.0
  0
LINE
  5
11A
330
1F
100
AcDbEntity
  8
1
  6
Continuous
 62
   155
100
AcDbLine
 10
487.921382
 20
185.7609859999999
 30
0.0
 11
494.4462849999999
 21
185.7609859999999
 31
0.0
  0
LINE
  5
11B
330
1F
100
AcDbEntity
  8
1
  6
Continuous
 62
   155
100
AcDbLine
 10
494.8505809999999
 20
185.3566889999999
 30
0.0
 11
494.8505809999999
 21
179.2922359999999
 31
0.0
  0
LINE
  5
11C
330
1F
100
AcDbEntity
  8
1
  6
Continuous
 62
   155
100
AcDbLine
 10
498.4106399999999
 20
179.2922359999999
 30
0.0
 11
499.8818309999999
 21
175.092041
 31
0.0
  0
LINE
  5
11D
330
1F
100
AcDbEntity
  8
1
  6
Continuous
 62
   155
100
AcDbLine
 10
494.8505809999999
 20
179.2922359999999
 30
0.0
 11
498.4106399999999
 21
179.2922359999999
 31
0.0
  0
LINE
  5
11E
330
1F
100
AcDbEntity
  8
1
  6
Continuous
 62
   155
100
AcDbLine
 10
499.8818309999999
 20
175.092041
 30
0.0
 11
505.11523
 21
175.092041
 31
0.0
  0
LINE
  5
11F
330
1F
100
AcDbEntity
  8
1
  6
Continuous
 62
   155
100
AcDbLine
 10
497.7817339999999
 20
196.0256339999998
 30
0.0
 11
494.8505809999999
 21
196.0256339999998
 31
0.0
  0
LINE
  5
120
330
1F
100
AcDbEntity
  8
1
  6
Continuous
 62
   155
100
AcDbLine
 10
494.8505809999999
 20
196.0256339999998
 30
0.0
 11
494.8505809999999
 21
185.7609859999999
 31
0.0
  0
LINE
  5
121
330
1F
100
AcDbEntity
  8
1
  6
Continuous
 62
   155
100
AcDbLine
 10
491.5151319999999
 20
196.0256339999998
 30
0.0
 11
487.921382
 21
185.7609859999999
 31
0.0
  0
LINE
  5
122
330
1F
100
AcDbEntity
  8
1
  6
Continuous
 62
   155
100
AcDbLine
 10
487.7753859999999
 20
185.3566889999999
 30
0.0
 11
484.181636
 21
175.092041
 31
0.0
  0
LINE
  5
123
330
1F
100
AcDbEntity
  8
1
  6
Continuous
 62
   155
100
AcDbLine
 10
501.5214799999999
 20
185.3566889999999
 30
0.0
 11
494.8505809999999
 21
185.3566889999999
 31
0.0
  0
LINE
  5
124
330
1F
100
AcDbEntity
  8
1
  6
Continuous
 62
   155
100
AcDbLine
 10
489.415035
 20
175.092041
 30
0.0
 11
490.8862259999999
 21
179.2922359999999
 31
0.0
  0
LINE
  5
125
330
1F
100
AcDbEntity
  8
1
  6
Continuous
 62
   155
100
AcDbLine
 10
506.55273
 20
196.0256339999998
 30
0.0
 11
506.55273
 21
185.7609859999999
 31
0.0
  0
LINE
  5
126
330
1F
100
AcDbEntity
  8
1
  6
Continuous
 62
   155
100
AcDbLine
 10
494.4462849999999
 20
196.0256339999998
 30
0.0
 11
491.5151319999999
 21
196.0256339999998
 31
0.0
  0
LINE
  5
127
330
1F
100
AcDbEntity
  8
1
  6
Continuous
 62
   155
100
AcDbLine
 10
494.4462849999999
 20
185.7609859999999
 30
0.0
 11
494.4462849999999
 21
196.0256339999998
 31
0.0
  0
LINE
  5
128
330
1F
100
AcDbEntity
  8
1
  6
Continuous
 62
   155
100
AcDbLine
 10
494.8505809999999
 20
185.7609859999999
 30
0.0
 11
501.3754839999998
 21
185.7609859999999
 31
0.0
  0
LINE
  5
129
330
1F
100
AcDbEntity
  8
1
  6
Continuous
 62
   155
100
AcDbLine
 10
529.3505809999999
 20
196.0256339999998
 30
0.0
 11
529.3505809999999
 21
185.7609859999999
 31
0.0
  0
LINE
  5
12A
330
1F
100
AcDbEntity
  8
1
  6
Continuous
 62
   155
100
AcDbLine
 10
513.04394
 20
185.3566889999999
 30
0.0
 11
513.04394
 21
175.092041
 31
0.0
  0
LINE
  5
12B
330
1F
100
AcDbEntity
  8
1
  6
Continuous
 62
   155
100
AcDbLine
 10
501.3754839999998
 20
185.7609859999999
 30
0.0
 11
497.7817339999999
 21
196.0256339999998
 31
0.0
  0
LINE
  5
12C
330
1F
100
AcDbEntity
  8
1
  6
Continuous
 62
   155
100
AcDbLine
 10
519.7822219999999
 20
185.3566889999999
 30
0.0
 11
513.04394
 21
185.3566889999999
 31
0.0
  0
LINE
  5
12D
330
1F
100
AcDbEntity
  8
1
  6
Continuous
 62
   155
100
AcDbLine
 10
581.4482379999999
 20
118.259912
 30
0.0
 11
453.448238
 21
118.259912
 31
0.0
  0
LINE
  5
12E
330
1F
100
AcDbEntity
  8
1
  6
Continuous
 62
   155
100
AcDbLine
 10
609.4482379999999
 20
118.259912
 30
0.0
 11
581.4482379999999
 21
118.259912
 31
0.0
  0
LINE
  5
12F
330
1F
100
AcDbEntity
  8
1
  6
Continuous
 62
   155
100
AcDbLine
 10
463.448238
 20
134.759912
 30
0.0
 11
464.84823
 21
134.759912
 31
0.0
  0
LINE
  5
130
330
1F
100
AcDbEntity
  8
1
  6
Continuous
 62
   155
100
AcDbLine
 10
609.4482379999999
 20
225.033036
 30
0.0
 11
562.048433
 21
225.033036
 31
0.0
  0
LINE
  5
131
330
1F
100
AcDbEntity
  8
1
  6
Continuous
 62
   155
100
AcDbLine
 10
464.84823
 20
141.486788
 30
0.0
 11
463.448238
 21
141.486788
 31
0.0
  0
LINE
  5
132
330
1F
100
AcDbEntity
  8
1
  6
Continuous
 62
   155
100
AcDbLine
 10
463.448238
 20
225.033036
 30
0.0
 11
463.448238
 21
141.486788
 31
0.0
  0
LINE
  5
133
330
1F
100
AcDbEntity
  8
1
  6
Continuous
 62
   155
100
AcDbLine
 10
463.448238
 20
141.486788
 30
0.0
 11
463.448238
 21
134.759912
 31
0.0
  0
LINE
  5
134
330
1F
100
AcDbEntity
  8
1
  6
Continuous
 62
   155
100
AcDbLine
 10
639.9482379999999
 20
236.259912
 30
0.0
 11
609.4482379999999
 21
247.361004
 31
0.0
  0
LINE
  5
135
330
1F
100
AcDbEntity
  8
1
  6
Continuous
 62
   155
100
AcDbLine
 10
464.84823
 20
225.033036
 30
0.0
 11
463.448238
 21
225.033036
 31
0.0
  0
LINE
  5
136
330
1F
100
AcDbEntity
  8
1
  6
Continuous
 62
   155
100
AcDbLine
 10
609.4482379999999
 20
141.486788
 30
0.0
 11
609.4482379999999
 21
225.033036
 31
0.0
  0
LINE
  5
137
330
1F
100
AcDbEntity
  8
1
  6
Continuous
 62
   155
100
AcDbLine
 10
400.4482379999999
 20
190.259912
 30
0.0
 11
400.4482379999999
 21
176.259912
 31
0.0
  0
LINE
  5
138
330
1F
100
AcDbEntity
  8
1
  6
Continuous
 62
   155
100
AcDbLine
 10
455.948238
 20
140.889449
 30
0.0
 11
463.448238
 21
140.889449
 31
0.0
  0
LINE
  5
139
330
1F
100
AcDbEntity
  8
1
  6
Continuous
 62
   155
100
AcDbLine
 10
427.947925
 20
176.259912
 30
0.0
 11
400.4482379999999
 21
176.259912
 31
0.0
  0
LINE
  5
13A
330
1F
100
AcDbEntity
  8
1
  6
Continuous
 62
   155
100
AcDbLine
 10
639.9482379999999
 20
130.259912
 30
0.0
 11
639.9482379999999
 21
236.259912
 31
0.0
  0
LINE
  5
13B
330
1F
100
AcDbEntity
  8
1
  6
Continuous
 62
   155
100
AcDbLine
 10
427.948238
 20
183.259912
 30
0.0
 11
427.948238
 21
218.259912
 31
0.0
  0
LINE
  5
13C
330
1F
100
AcDbEntity
  8
1
  6
Continuous
 62
   155
100
AcDbLine
 10
430.448238
 20
183.259912
 30
0.0
 11
430.448238
 21
235.759912
 31
0.0
  0
LINE
  5
13D
330
1F
100
AcDbEntity
  8
1
  6
Continuous
 62
   155
100
AcDbLine
 10
455.948238
 20
183.259912
 30
0.0
 11
455.948238
 21
140.889449
 31
0.0
  0
LINE
  5
13E
330
1F
100
AcDbEntity
  8
1
  6
Continuous
 62
   155
100
AcDbLine
 10
463.448238
 20
225.630375
 30
0.0
 11
455.948238
 21
225.630375
 31
0.0
  0
LINE
  5
13F
330
1F
100
AcDbEntity
  8
1
  6
Continuous
 62
   155
370
     5
100
AcDbLine
 10
455.948238
 20
183.259912
 30
0.0
 11
430.448238
 21
183.259912
 31
0.0
  0
LINE
  5
140
330
1F
100
AcDbEntity
  8
1
  6
Continuous
 62
   155
100
AcDbLine
 10
463.448238
 20
246.368657
 30
0.0
 11
463.448238
 21
248.259912
 31
0.0
  0
LINE
  5
141
330
1F
100
AcDbEntity
  8
1
  6
Continuous
 62
   155
100
AcDbLine
 10
639.9482379999999
 20
130.259912
 30
0.0
 11
609.4482379999999
 21
119.15882
 31
0.0
  0
LINE
  5
142
330
1F
100
AcDbEntity
  8
1
  6
Continuous
 62
   155
100
AcDbLine
 10
430.448238
 20
183.259912
 30
0.0
 11
430.448238
 21
130.759912
 31
0.0
  0
LINE
  5
143
330
1F
100
AcDbEntity
  8
1
  6
Continuous
 62
   155
100
AcDbLine
 10
455.948238
 20
225.630375
 30
0.0
 11
455.948238
 21
183.259912
 31
0.0
  0
LINE
  5
144
330
1F
100
AcDbEntity
  8
1
  6
Continuous
 62
   155
100
AcDbLine
 10
463.448238
 20
231.759912
 30
0.0
 11
463.448238
 21
225.033036
 31
0.0
  0
LINE
  5
145
330
1F
100
AcDbEntity
  8
1
  6
Continuous
 62
   155
100
AcDbLine
 10
609.4482379999999
 20
248.259912
 30
0.0
 11
581.4482379999999
 21
248.259912
 31
0.0
  0
LINE
  5
146
330
1F
100
AcDbEntity
  8
1
  6
Continuous
 62
   155
100
AcDbLine
 10
464.84823
 20
231.759912
 30
0.0
 11
463.448238
 21
231.759912
 31
0.0
  0
LINE
  5
147
330
1F
100
AcDbEntity
  8
1
  6
Continuous
 62
   155
100
AcDbLine
 10
609.4482379999999
 20
225.033036
 30
0.0
 11
609.4482379999999
 21
248.259912
 31
0.0
  0
LINE
  5
148
330
1F
100
AcDbEntity
  8
1
  6
Continuous
 62
   155
100
AcDbLine
 10
453.448238
 20
246.368657
 30
0.0
 11
453.448238
 21
224.661125
 31
0.0
  0
LINE
  5
149
330
1F
100
AcDbEntity
  8
1
  6
Continuous
 62
   155
100
AcDbLine
 10
581.4482379999999
 20
248.259912
 30
0.0
 11
463.448238
 21
248.259912
 31
0.0
  0
LINE
  5
14A
330
1F
100
AcDbEntity
  8
1
  6
Continuous
 62
   155
100
AcDbLine
 10
562.0482379999999
 20
134.659912
 30
0.0
 11
464.8482379999999
 21
134.659912
 31
0.0
  0
LINE
  5
14B
330
1F
100
AcDbEntity
  8
1
  6
Continuous
 62
   155
100
AcDbLine
 10
463.448238
 20
246.368657
 30
0.0
 11
453.448238
 21
246.368657
 31
0.0
  0
LINE
  5
14C
330
1F
100
AcDbEntity
  8
1
  6
Continuous
 62
   155
100
AcDbLine
 10
464.8482379999999
 20
231.859912
 30
0.0
 11
562.0482379999999
 21
231.859912
 31
0.0
  0
LINE
  5
14D
330
1F
100
AcDbEntity
  8
1
  6
Continuous
 62
   155
100
AcDbLine
 10
562.0484799999998
 20
134.759912
 30
0.0
 11
581.4482379999999
 21
134.759912
 31
0.0
  0
LINE
  5
14E
330
1F
100
AcDbEntity
  8
1
  6
Continuous
 62
   155
100
AcDbLine
 10
609.4482379999999
 20
118.259912
 30
0.0
 11
609.4482379999999
 21
141.486788
 31
0.0
  0
LINE
  5
14F
330
1F
100
AcDbEntity
  8
1
  6
Continuous
 62
   155
100
AcDbLine
 10
609.4482379999999
 20
141.486788
 30
0.0
 11
562.048433
 21
141.486788
 31
0.0
  0
LINE
  5
150
330
1F
100
AcDbEntity
  8
1
  6
Continuous
 62
   155
100
AcDbLine
 10
562.0482379999999
 20
231.859912
 30
0.0
 11
562.0482379999999
 21
134.659912
 31
0.0
  0
LINE
  5
151
330
1F
100
AcDbEntity
  8
1
  6
Continuous
 62
   155
100
AcDbLine
 10
581.4482379999999
 20
248.259912
 30
0.0
 11
581.4482379999999
 21
231.759912
 31
0.0
  0
LINE
  5
152
330
1F
100
AcDbEntity
  8
1
  6
Continuous
 62
   155
100
AcDbLine
 10
581.4482379999999
 20
231.759912
 30
0.0
 11
562.0484799999998
 21
231.759912
 31
0.0
  0
LINE
  5
153
330
1F
100
AcDbEntity
  8
1
  6
Continuous
 62
   155
100
AcDbLine
 10
453.448238
 20
141.858699
 30
0.0
 11
453.448238
 21
118.259912
 31
0.0
  0
LINE
  5
154
330
1F
100
AcDbEntity
  8
1
  6
Continuous
 62
   155
100
AcDbLine
 10
581.4482379999999
 20
134.759912
 30
0.0
 11
581.4482379999999
 21
118.259912
 31
0.0
  0
LINE
  5
155
330
1F
100
AcDbEntity
  8
1
  6
Continuous
 62
   155
100
AcDbLine
 10
464.8482379999999
 20
134.659912
 30
0.0
 11
464.8482379999999
 21
231.859912
 31
0.0
  0
LINE
  5
156
330
1F
100
AcDbEntity
  8
1
  6
Continuous
 62
   155
100
AcDbLine
 10
522.8593699999999
 20
175.092041
 30
0.0
 11
528.9238229999999
 21
175.092041
 31
0.0
  0
LINE
  5
157
330
1F
100
AcDbEntity
  8
1
  6
Continuous
 62
   155
100
AcDbLine
 10
544.0482379999999
 20
152.659912
 30
0.0
 11
482.8482379999999
 21
152.659912
 31
0.0
  0
LINE
  5
158
330
1F
100
AcDbEntity
  8
1
  6
Continuous
 62
   155
100
AcDbLine
 10
562.0482379999999
 20
134.659912
 30
0.0
 11
544.0482379999999
 21
152.659912
 31
0.0
  0
LINE
  5
159
330
1F
100
AcDbEntity
  8
1
  6
Continuous
 62
   155
100
AcDbLine
 10
562.0482379999999
 20
231.859912
 30
0.0
 11
544.0482379999999
 21
213.859912
 31
0.0
  0
LINE
  5
15A
330
1F
100
AcDbEntity
  8
1
  6
Continuous
 62
   155
100
AcDbLine
 10
528.9238229999999
 20
196.0256339999998
 30
0.0
 11
522.8593699999999
 21
196.0256339999998
 31
0.0
  0
LINE
  5
15B
330
1F
100
AcDbEntity
  8
1
  6
Continuous
 62
   155
100
AcDbLine
 10
529.3505809999999
 20
185.3566889999999
 30
0.0
 11
529.3505809999999
 21
175.092041
 31
0.0
  0
LINE
  5
15C
330
1F
100
AcDbEntity
  8
1
  6
Continuous
 62
   155
100
AcDbLine
 10
528.9238229999999
 20
175.092041
 30
0.0
 11
528.9238229999999
 21
185.3566889999999
 31
0.0
  0
LINE
  5
15D
330
1F
100
AcDbEntity
  8
1
  6
Continuous
 62
   155
100
AcDbLine
 10
514.919429
 20
196.0256339999998
 30
0.0
 11
513.04394
 21
196.0256339999998
 31
0.0
  0
LINE
  5
15E
330
1F
100
AcDbEntity
  8
1
  6
Continuous
 62
   155
100
AcDbLine
 10
528.9238229999999
 20
185.3566889999999
 30
0.0
 11
522.8593699999999
 21
185.3566889999999
 31
0.0
  0
LINE
  5
15F
330
1F
100
AcDbEntity
  8
1
  6
Continuous
 62
   155
100
AcDbLine
 10
464.8482379999999
 20
134.659912
 30
0.0
 11
482.8482379999999
 21
152.659912
 31
0.0
  0
LINE
  5
160
330
1F
100
AcDbEntity
  8
1
  6
Continuous
 62
   155
100
AcDbLine
 10
536.0888619999999
 20
185.3566889999999
 30
0.0
 11
529.3505809999999
 21
185.3566889999999
 31
0.0
  0
LINE
  5
161
330
1F
100
AcDbEntity
  8
1
  6
Continuous
 62
   155
100
AcDbLine
 10
522.8593699999999
 20
196.0256339999998
 30
0.0
 11
522.8593699999999
 21
185.7609859999999
 31
0.0
  0
LINE
  5
162
330
1F
100
AcDbEntity
  8
1
  6
Continuous
 62
   155
100
AcDbLine
 10
544.0482379999999
 20
213.859912
 30
0.0
 11
544.0482379999999
 21
152.659912
 31
0.0
  0
LINE
  5
163
330
1F
100
AcDbEntity
  8
1
  6
Continuous
 62
   155
100
AcDbLine
 10
482.8482379999999
 20
213.859912
 30
0.0
 11
544.0482379999999
 21
213.859912
 31
0.0
  0
LINE
  5
164
330
1F
100
AcDbEntity
  8
1
  6
Continuous
 62
   155
100
AcDbLine
 10
529.3505809999999
 20
175.092041
 30
0.0
 11
531.2260689999999
 21
175.092041
 31
0.0
  0
LINE
  5
165
330
1F
100
AcDbEntity
  8
1
  6
Continuous
 62
   155
100
AcDbLine
 10
522.8593699999999
 20
185.7609859999999
 30
0.0
 11
528.9238229999999
 21
185.7609859999999
 31
0.0
  0
LINE
  5
166
330
1F
100
AcDbEntity
  8
1
  6
Continuous
 62
   155
100
AcDbLine
 10
482.8482379999999
 20
152.659912
 30
0.0
 11
482.8482379999999
 21
213.859912
 31
0.0
  0
LINE
  5
167
330
1F
100
AcDbEntity
  8
1
  6
Continuous
 62
   155
100
AcDbLine
 10
513.04394
 20
196.0256339999998
 30
0.0
 11
513.04394
 21
185.7609859999999
 31
0.0
  0
LINE
  5
168
330
1F
100
AcDbEntity
  8
1
  6
Continuous
 62
   155
100
AcDbLine
 10
513.04394
 20
185.7609859999999
 30
0.0
 11
519.400386
 21
185.7609859999999
 31
0.0
  0
LINE
  5
169
330
1F
100
AcDbEntity
  8
1
  6
Continuous
 62
   155
100
AcDbLine
 10
522.8593699999999
 20
185.3566889999999
 30
0.0
 11
522.8593699999999
 21
175.092041
 31
0.0
  0
LINE
  5
16A
330
1F
100
AcDbEntity
  8
1
  6
Continuous
 62
   155
100
AcDbLine
 10
528.9238229999999
 20
185.7609859999999
 30
0.0
 11
528.9238229999999
 21
196.0256339999998
 31
0.0
  0
LINE
  5
16B
330
1F
100
AcDbEntity
  8
1
  6
Continuous
 62
   155
100
AcDbLine
 10
464.8482379999999
 20
231.859912
 30
0.0
 11
482.8482379999999
 21
213.859912
 31
0.0
  0
LINE
  5
16C
330
1F
100
AcDbEntity
  8
1
  6
Continuous
 62
   155
100
AcDbLine
 10
427.948238
 20
148.259912
 30
0.0
 11
430.448238
 21
148.259912
 31
0.0
  0
LINE
  5
16D
330
1F
100
AcDbEntity
  8
1
  6
Continuous
 62
   155
100
AcDbLine
 10
430.448238
 20
130.759912
 30
0.0
 11
453.448238
 21
124.446186
 31
0.0
  0
LINE
  5
16E
330
1F
100
AcDbEntity
  8
1
  6
Continuous
 62
   155
100
AcDbLine
 10
453.448238
 20
242.073637
 30
0.0
 11
430.448238
 21
235.759912
 31
0.0
  0
LINE
  5
16F
330
1F
100
AcDbEntity
  8
1
  6
Continuous
 62
   155
100
AcDbLine
 10
430.448238
 20
218.259912
 30
0.0
 11
427.948238
 21
218.259912
 31
0.0
  0
ARC
  5
170
330
1F
100
AcDbEntity
  8
1
  6
Continuous
 62
   155
100
AcDbCircle
 10
-495.4482379999999
 20
475.8171809999999
 30
0.0
 40
10.2
210
0.0
220
0.0
230
-1.0
100
AcDbArc
 50
90.0
 51
270.0
  0
ARC
  5
171
330
1F
100
AcDbEntity
  8
1
  6
Continuous
 62
   155
100
AcDbCircle
 10
-531.4482379999999
 20
475.8171809999999
 30
0.0
 40
10.2
210
0.0
220
0.0
230
-1.0
100
AcDbArc
 50
90.0
 51
270.0
  0
ARC
  5
172
330
1F
100
AcDbEntity
  8
1
  6
Continuous
 62
   155
100
AcDbCircle
 10
-531.4482379999999
 20
475.8171809999999
 30
0.0
 40
10.2
210
0.0
220
0.0
230
-1.0
100
AcDbArc
 50
270.0
 51
90.0
  0
ARC
  5
173
330
1F
100
AcDbEntity
  8
1
  6
Continuous
 62
   155
100
AcDbCircle
 10
-495.4482379999999
 20
475.8171809999999
 30
0.0
 40
10.2
210
0.0
220
0.0
230
-1.0
100
AcDbArc
 50
270.0
 51
90.0
  0
ARC
  5
174
330
1F
100
AcDbEntity
  8
1
  6
Continuous
 62
   155
100
AcDbCircle
 10
-218.568282
 20
412.317181
 30
0.0
 40
64.10109214511919
210
0.0
220
0.0
230
-1.0
100
AcDbArc
 50
180.0
 51
0.0
  0
ARC
  5
175
330
1F
100
AcDbEntity
  8
1
  6
Continuous
 62
   155
100
AcDbCircle
 10
-218.568282
 20
412.317181
 30
0.0
 40
64.10109214511919
210
0.0
220
0.0
230
-1.0
100
AcDbArc
 50
0.0
 51
180.0
  0
ARC
  5
176
330
1F
100
AcDbEntity
  8
1
  6
Continuous
 62
   155
100
AcDbCircle
 10
-218.568282
 20
412.317181
 30
0.0
 40
53.0
210
0.0
220
0.0
230
-1.0
100
AcDbArc
 50
180.0
 51
0.0
  0
ARC
  5
177
330
1F
100
AcDbEntity
  8
1
  6
Continuous
 62
   155
100
AcDbCircle
 10
-218.568282
 20
412.317181
 30
0.0
 40
53.0
210
0.0
220
0.0
230
-1.0
100
AcDbArc
 50
0.0
 51
180.0
  0
ARC
  5
178
330
1F
100
AcDbEntity
  8
1
  6
Continuous
 62
   155
100
AcDbCircle
 10
-808.0316619999999
 20
442.369219
 30
0.0
 40
3.0
210
0.0
220
0.0
230
-1.0
100
AcDbArc
 50
180.0
 51
0.0
  0
ARC
  5
179
330
1F
100
AcDbEntity
  8
1
  6
Continuous
 62
   155
100
AcDbCircle
 10
-868.135739
 20
382.265142
 30
0.0
 40
3.0
210
0.0
220
0.0
230
-1.0
100
AcDbArc
 50
0.0
 51
180.0
  0
ARC
  5
17A
330
1F
100
AcDbEntity
  8
1
  6
Continuous
 62
   155
100
AcDbCircle
 10
-868.135739
 20
382.265142
 30
0.0
 40
3.0
210
0.0
220
0.0
230
-1.0
100
AcDbArc
 50
180.0
 51
0.0
  0
ARC
  5
17B
330
1F
100
AcDbEntity
  8
1
  6
Continuous
 62
   155
100
AcDbCircle
 10
-808.0316619999999
 20
382.265142
 30
0.0
 40
3.0
210
0.0
220
0.0
230
-1.0
100
AcDbArc
 50
0.0
 51
180.0
  0
ARC
  5
17C
330
1F
100
AcDbEntity
  8
1
  6
Continuous
 62
   155
100
AcDbCircle
 10
-808.0316619999999
 20
382.265142
 30
0.0
 40
3.0
210
0.0
220
0.0
230
-1.0
100
AcDbArc
 50
180.0
 51
0.0
  0
ARC
  5
17D
330
1F
100
AcDbEntity
  8
1
  6
Continuous
 62
   155
100
AcDbCircle
 10
-838.0836999999999
 20
412.317181
 30
0.0
 40
14.0
210
0.0
220
0.0
230
-1.0
100
AcDbArc
 50
90.0
 51
270.0
  0
ARC
  5
17E
330
1F
100
AcDbEntity
  8
1
  6
Continuous
 62
   155
100
AcDbCircle
 10
-838.0836999999999
 20
412.317181
 30
0.0
 40
14.0
210
0.0
220
0.0
230
-1.0
100
AcDbArc
 50
270.0
 51
90.0
  0
ARC
  5
17F
330
1F
100
AcDbEntity
  8
1
  6
Continuous
 62
   155
100
AcDbCircle
 10
-838.0836999999999
 20
412.317181
 30
0.0
 40
8.5
210
0.0
220
0.0
230
-1.0
100
AcDbArc
 50
0.0
 51
180.0
  0
ARC
  5
180
330
1F
100
AcDbEntity
  8
1
  6
Continuous
 62
   155
100
AcDbCircle
 10
-838.0836999999999
 20
412.317181
 30
0.0
 40
35.0
210
0.0
220
0.0
230
-1.0
100
AcDbArc
 50
90.0
 51
270.0
  0
ARC
  5
181
330
1F
100
AcDbEntity
  8
1
  6
Continuous
 62
   155
100
AcDbCircle
 10
-868.135739
 20
442.369219
 30
0.0
 40
3.0
210
0.0
220
0.0
230
-1.0
100
AcDbArc
 50
180.0
 51
0.0
  0
ARC
  5
182
330
1F
100
AcDbEntity
  8
1
  6
Continuous
 62
   155
100
AcDbCircle
 10
-838.0836999999999
 20
412.317181
 30
0.0
 40
31.0
210
0.0
220
0.0
230
-1.0
100
AcDbArc
 50
90.0
 51
270.0
  0
ARC
  5
183
330
1F
100
AcDbEntity
  8
1
  6
Continuous
 62
   155
100
AcDbCircle
 10
-808.0316619999999
 20
442.369219
 30
0.0
 40
3.0
210
0.0
220
0.0
230
-1.0
100
AcDbArc
 50
0.0
 51
180.0
  0
ARC
  5
184
330
1F
100
AcDbEntity
  8
1
  6
Continuous
 62
   155
100
AcDbCircle
 10
-838.0836999999999
 20
412.317181
 30
0.0
 40
7.0
210
0.0
220
0.0
230
-1.0
100
AcDbArc
 50
180.0
 51
0.0
  0
ARC
  5
185
330
1F
100
AcDbEntity
  8
1
  6
Continuous
 62
   155
100
AcDbCircle
 10
-838.0836999999999
 20
412.317181
 30
0.0
 40
31.0
210
0.0
220
0.0
230
-1.0
100
AcDbArc
 50
270.0
 51
90.0
  0
ARC
  5
186
330
1F
100
AcDbEntity
  8
1
  6
Continuous
 62
   155
100
AcDbCircle
 10
-868.135739
 20
442.369219
 30
0.0
 40
3.0
210
0.0
220
0.0
230
-1.0
100
AcDbArc
 50
0.0
 51
180.0
  0
ARC
  5
187
330
1F
100
AcDbEntity
  8
1
  6
Continuous
 62
   155
100
AcDbCircle
 10
-838.0836999999999
 20
412.317181
 30
0.0
 40
59.50000000000001
210
0.0
220
0.0
230
-1.0
100
AcDbArc
 50
270.0
 51
315.406738
  0
ARC
  5
188
330
1F
100
AcDbEntity
  8
1
  6
Continuous
 62
   155
100
AcDbCircle
 10
-838.0836999999999
 20
412.317181
 30
0.0
 40
7.0
210
0.0
220
0.0
230
-1.0
100
AcDbArc
 50
0.0
 51
180.0
  0
ARC
  5
189
330
1F
100
AcDbEntity
  8
1
  6
Continuous
 62
   155
100
AcDbCircle
 10
838.0836999999999
 20
412.317181
 30
0.0
 40
58.81372549019609
100
AcDbArc
 50
314.743806
 51
45.256194
  0
ARC
  5
18A
330
1F
100
AcDbEntity
  8
1
  6
Continuous
 62
   155
100
AcDbCircle
 10
-838.0836999999999
 20
412.317181
 30
0.0
 40
35.0
210
0.0
220
0.0
230
-1.0
100
AcDbArc
 50
270.0
 51
90.0
  0
ARC
  5
18B
330
1F
100
AcDbEntity
  8
1
  6
Continuous
 62
   155
100
AcDbCircle
 10
-838.0836999999999
 20
412.317181
 30
0.0
 40
52.5
210
0.0
220
0.0
230
-1.0
100
AcDbArc
 50
270.0
 51
90.0
  0
ARC
  5
18C
330
1F
100
AcDbEntity
  8
1
  6
Continuous
 62
   155
100
AcDbCircle
 10
-838.0836999999999
 20
412.317181
 30
0.0
 40
59.50000000000001
210
0.0
220
0.0
230
-1.0
100
AcDbArc
 50
90.0
 51
135.406738
  0
ARC
  5
18D
330
1F
100
AcDbEntity
  8
1
  6
Continuous
 62
   155
100
AcDbCircle
 10
-838.0836999999999
 20
412.317181
 30
0.0
 40
59.50000000000001
210
0.0
220
0.0
230
-1.0
100
AcDbArc
 50
224.593262
 51
270.0
  0
ARC
  5
18E
330
1F
100
AcDbEntity
  8
1
  6
Continuous
 62
   155
100
AcDbCircle
 10
838.0836999999999
 20
412.317181
 30
0.0
 40
58.81372549019609
100
AcDbArc
 50
134.743806
 51
225.256194
  0
ARC
  5
18F
330
1F
100
AcDbEntity
  8
1
  6
Continuous
 62
   155
100
AcDbCircle
 10
-838.0836999999999
 20
412.317181
 30
0.0
 40
52.5
210
0.0
220
0.0
230
-1.0
100
AcDbArc
 50
90.0
 51
270.0
  0
ARC
  5
190
330
1F
100
AcDbEntity
  8
1
  6
Continuous
 62
   155
100
AcDbCircle
 10
-838.0836999999999
 20
412.317181
 30
0.0
 40
8.5
210
0.0
220
0.0
230
-1.0
100
AcDbArc
 50
180.0
 51
0.0
  0
ARC
  5
191
330
1F
100
AcDbEntity
  8
1
  6
Continuous
 62
   155
100
AcDbCircle
 10
-838.0836999999999
 20
412.317181
 30
0.0
 40
59.50000000000001
210
0.0
220
0.0
230
-1.0
100
AcDbArc
 50
44.593262
 51
90.0
  0
SPLINE
  5
192
330
1F
100
AcDbEntity
  8
1
  6
Continuous
 62
   155
100
AcDbSpline
210
0.0
220
0.0
230
1.0
 70
    24
 71
     3
 72
    10
 73
     6
 74
     0
 42
0.0000000001
 43
0.0000000001
 40
0.0
 40
0.0
 40
0.0
 40
0.0
 40
0.5000585041274587
 40
0.5000585041274587
 40
1.0
 40
1.0
 40
1.0
 40
1.0
 10
222.9673047383357
 20
521.3171806167401
 30
0.0
 10
224.7641797010828
 20
521.3171806167401
 30
0.0
 10
226.2634472481249
 20
521.3171806167401
 30
0.0
 10
228.666486335389
 20
521.3171806167401
 30
0.0
 10
229.267327364114
 20
521.3171806167401
 30
0.0
 10
229.2675927383574
 20
521.3171806167401
 30
0.0
  0
SPLINE
  5
193
330
1F
100
AcDbEntity
  8
1
  6
Continuous
 62
   155
100
AcDbSpline
210
0.0
220
0.0
230
1.0
 70
    24
 71
     3
 72
    10
 73
     6
 74
     0
 42
0.0000000001
 43
0.0000000001
 40
0.0
 40
0.0
 40
0.0
 40
0.0
 40
0.5000585041082412
 40
0.5000585041082412
 40
1.0
 40
1.0
 40
1.0
 40
1.0
 10
239.2739450252656
 20
521.3171806167401
 30
0.0
 10
241.0708199880127
 20
521.3171806167401
 30
0.0
 10
242.5700875350548
 20
521.3171806167401
 30
0.0
 10
244.9731266224112
 20
521.3171806167401
 30
0.0
 10
245.5739676511362
 20
521.3171806167401
 30
0.0
 10
245.5742330252873
 20
521.3171806167401
 30
0.0
  0
SPLINE
  5
194
330
1F
100
AcDbEntity
  8
1
  6
Continuous
 62
   155
100
AcDbSpline
210
0.0
220
0.0
230
1.0
 70
    24
 71
     3
 72
    10
 73
     6
 74
     0
 42
0.0000000001
 43
0.0000000001
 40
0.0
 40
0.0
 40
0.0
 40
0.0
 40
0.5
 40
0.5
 40
1.0
 40
1.0
 40
1.0
 40
1.0
 10
812.6612355758776
 20
521.3171806167401
 30
0.0
 10
812.6612455768777
 20
521.3171806167401
 30
0.0
 10
813.1216897855818
 20
521.3171806167401
 30
0.0
 10
814.9634866223975
 20
521.3171806167401
 30
0.0
 10
816.0753030055971
 20
521.3171806167401
 30
0.0
 10
817.3780373535889
 20
521.3171806167401
 30
0.0
  0
SPLINE
  5
195
330
1F
100
AcDbEntity
  8
1
  6
Continuous
 62
   155
100
AcDbSpline
210
0.0
220
0.0
230
1.0
 70
    24
 71
     3
 72
     8
 73
     4
 74
     0
 42
0.0000000001
 43
0.0000000001
 40
0.0
 40
0.0
 40
0.0
 40
0.0
 40
1.0
 40
1.0
 40
1.0
 40
1.0
 10
827.3843798018868
 20
521.3171806167401
 30
0.0
 10
827.3843898028868
 20
521.3171806167401
 30
0.0
 10
827.8635514591192
 20
521.3171806167401
 30
0.0
 10
828.8218847725843
 20
521.3171806167401
 30
0.0
  0
SPLINE
  5
196
330
1F
100
AcDbEntity
  8
1
  6
Continuous
 62
   155
100
AcDbSpline
210
0.0
220
0.0
230
1.0
 70
    24
 71
     3
 72
    10
 73
     6
 74
     0
 42
0.0000000001
 43
0.0000000001
 40
0.0
 40
0.0
 40
0.0
 40
0.0
 40
0.4999999999999992
 40
0.4999999999999992
 40
1.0
 40
1.0
 40
1.0
 40
1.0
 10
828.9678758628078
 20
521.3171806167401
 30
0.0
 10
828.9678858638076
 20
521.3171806167401
 30
0.0
 10
829.4283300725115
 20
521.3171806167401
 30
0.0
 10
831.2701269093274
 20
521.3171806167401
 30
0.0
 10
832.3819432925271
 20
521.3171806167401
 30
0.0
 10
833.6846776405188
 20
521.3171806167401
 30
0.0
  0
SPLINE
  5
197
330
1F
100
AcDbEntity
  8
1
  6
Continuous
 62
   155
100
AcDbSpline
210
0.0
220
0.0
230
1.0
 70
    24
 71
     3
 72
     8
 73
     4
 74
     0
 42
0.0000000001
 43
0.0000000001
 40
0.0
 40
0.0
 40
0.0
 40
0.0
 40
1.0
 40
1.0
 40
1.0
 40
1.0
 10
811.0777395149566
 20
521.3171806167401
 30
0.0
 10
811.0777495159567
 20
521.3171806167401
 30
0.0
 10
811.5569111721892
 20
521.3171806167401
 30
0.0
 10
812.5152444856544
 20
521.3171806167401
 30
0.0
  0
SPLINE
  5
198
330
1F
100
AcDbEntity
  8
1
  6
Continuous
 62
   155
100
AcDbSpline
210
0.0
220
0.0
230
1.0
 70
     8
 71
     3
 72
     8
 73
     4
 74
     0
 42
0.0000000001
 43
0.0000000001
 40
0.0
 40
0.0
 40
0.0
 40
0.0
 40
1.0
 40
1.0
 40
1.0
 40
1.0
 10
533.5507759642667
 20
187.1984858600422
 30
-0.0000000000000014
 10
535.1455024937048
 20
188.11938427845
 30
-0.0000000000000015
 10
535.9428657584238
 20
189.4895014375443
 30
-0.0000000000000016
 10
535.9428657584238
 20
191.3088373373263
 30
-0.0000000000000016
  0
SPLINE
  5
199
330
1F
100
AcDbEntity
  8
1
  6
Continuous
 62
   155
100
AcDbSpline
210
0.0
220
0.0
230
1.0
 70
     8
 71
     3
 72
    10
 73
     6
 74
     0
 42
0.0000000001
 43
0.0000000001
 40
0.0
 40
0.0
 40
0.0
 40
0.0
 40
0.5
 40
0.5
 40
1.0
 40
1.0
 40
1.0
 40
1.0
 10
535.9428657584238
 20
191.3088373373263
 30
-0.0000000000000016
 10
535.9428657584238
 20
192.6115716853174
 30
-0.0000000000000016
 10
535.48241654922
 20
193.7233880685174
 30
-0.0000000000000015
 10
533.6406197124041
 20
195.5651849053333
 30
-0.0000000000000014
 10
532.5288033292044
 20
196.0256341145373
 30
-0.0000000000000013
 10
531.2260689812127
 20
196.0256341145373
 30
-0.0000000000000013
  0
SPLINE
  5
19A
330
1F
100
AcDbEntity
  8
1
  6
Continuous
 62
   155
100
AcDbSpline
210
0.0
220
0.0
230
1.0
 70
     8
 71
     3
 72
    10
 73
     6
 74
     0
 42
0.0000000001
 43
0.0000000001
 40
0.0
 40
0.0
 40
0.0
 40
0.0
 40
0.5
 40
0.5
 40
1.0
 40
1.0
 40
1.0
 40
1.0
 10
514.9194286942827
 20
175.0920407985337
 30
-0.0000000000000003
 10
516.7163036570298
 20
175.0920407985337
 30
-0.0000000000000004
 10
518.2155712040719
 20
175.6853838851908
 30
-0.0000000000000005
 10
520.6188914667462
 20
178.0587562318192
 30
-0.0000000000000006
 10
521.2197215324148
 20
179.5542802893556
 30
-0.0000000000000007
 10
521.2197215324148
 20
181.3586422311142
 30
-0.0000000000000007
  0
SPLINE
  5
19B
330
1F
100
AcDbEntity
  8
1
  6
Continuous
 62
   155
100
AcDbSpline
210
0.0
220
0.0
230
1.0
 70
     8
 71
     3
 72
     8
 73
     4
 74
     0
 42
0.0000000001
 43
0.0000000001
 40
0.0
 40
0.0
 40
0.0
 40
0.0
 40
1.0
 40
1.0
 40
1.0
 40
1.0
 10
535.7070259195634
 20
185.7609858898445
 30
-0.0000000000000015
 10
535.115554577659
 20
186.389892126806
 30
-0.0000000000000015
 10
534.3968045925603
 20
186.8690587835385
 30
-0.0000000000000015
 10
533.5507759642667
 20
187.1984858600422
 30
-0.0000000000000014
  0
SPLINE
  5
19C
330
1F
100
AcDbEntity
  8
1
  6
Continuous
 62
   155
100
AcDbSpline
210
0.0
220
0.0
230
1.0
 70
     8
 71
     3
 72
     8
 73
     4
 74
     0
 42
0.0000000001
 43
0.0000000001
 40
0.0
 40
0.0
 40
0.0
 40
0.0
 40
1.0
 40
1.0
 40
1.0
 40
1.0
 10
521.2197215324148
 20
181.3586422311142
 30
-0.0000000000000007
 10
521.2197215324148
 20
182.8560380334036
 30
-0.0000000000000007
 10
520.7405548756822
 20
184.1887202974408
 30
-0.0000000000000006
 10
519.7822215622172
 20
185.3566890232264
 30
-0.0000000000000006
  0
SPLINE
  5
19D
330
1F
100
AcDbEntity
  8
1
  6
Continuous
 62
   155
100
AcDbSpline
210
0.0000000000035979
220
0.0000000000092803
230
1.0
 70
    12
 71
     2
 72
     6
 73
     3
 74
     0
 42
0.0000000001
 43
0.0000000001
 40
0.0
 40
0.0
 40
0.0
 40
1.0
 40
1.0
 40
1.0
 10
453.4482378854625
 20
141.8586991013117
 30
0.0000000000000025
 41
1.0
 10
454.6837752111295
 20
141.3768851664356
 30
0.0000000000000026
 41
1.00003355778404
 10
455.9482378854625
 20
140.8894491319675
 30
0.0000000000000026
 41
1.0
  0
SPLINE
  5
19E
330
1F
100
AcDbEntity
  8
1
  6
Continuous
 62
   155
100
AcDbSpline
210
-0.0000000000035979
220
0.0000000000092803
230
1.0
 70
    12
 71
     2
 72
     6
 73
     3
 74
     0
 42
0.0000000001
 43
0.0000000001
 40
0.0
 40
0.0
 40
0.0
 40
1.0
 40
1.0
 40
1.0
 10
455.9482378854625
 20
225.6303746565789
 30
-0.0000000000000026
 41
1.0
 10
454.6837752111295
 20
225.1429386221106
 30
-0.0000000000000026
 41
1.00003355778404
 10
453.4482378854625
 20
224.6611246872346
 30
-0.0000000000000025
 41
1.0
  0
SPLINE
  5
19F
330
1F
100
AcDbEntity
  8
1
  6
Continuous
 62
   155
100
AcDbSpline
210
0.0
220
0.0
230
1.0
 70
     8
 71
     3
 72
    10
 73
     6
 74
     0
 42
0.0000000001
 43
0.0000000001
 40
0.0
 40
0.0
 40
0.0
 40
0.0
 40
0.5
 40
0.5
 40
1.0
 40
1.0
 40
1.0
 40
1.0
 10
531.2260689812127
 20
175.0920407985336
 30
-0.0000000000000013
 10
533.0229439439599
 20
175.0920407985336
 30
-0.0000000000000014
 10
534.5222114910019
 20
175.6853838851908
 30
-0.0000000000000015
 10
536.9255317536762
 20
178.0587562318192
 30
-0.0000000000000016
 10
537.5263618193448
 20
179.5542802893556
 30
-0.0000000000000017
 10
537.5263618193448
 20
181.3586422311141
 30
-0.0000000000000017
  0
SPLINE
  5
1A0
330
1F
100
AcDbEntity
  8
1
  6
Continuous
 62
   155
100
AcDbSpline
210
0.0
220
0.0
230
1.0
 70
     8
 71
     3
 72
    10
 73
     6
 74
     0
 42
0.0000000001
 43
0.0000000001
 40
0.0
 40
0.0
 40
0.0
 40
0.0
 40
0.4999999999999992
 40
0.4999999999999992
 40
1.0
 40
1.0
 40
1.0
 40
1.0
 10
519.6362254714939
 20
191.3088373373263
 30
-0.0000000000000006
 10
519.6362254714939
 20
192.6115716853174
 30
-0.0000000000000006
 10
519.1757762622899
 20
193.7233880685174
 30
-0.0000000000000005
 10
517.3339794254741
 20
195.5651849053333
 30
-0.0000000000000004
 10
516.2221630422744
 20
196.0256341145373
 30
-0.0000000000000003
 10
514.9194286942827
 20
196.0256341145373
 30
-0.0000000000000003
  0
SPLINE
  5
1A1
330
1F
100
AcDbEntity
  8
1
  6
Continuous
 62
   155
100
AcDbSpline
210
0.0
220
0.0
230
1.0
 70
     8
 71
     3
 72
     8
 73
     4
 74
     0
 42
0.0000000001
 43
0.0000000001
 40
0.0
 40
0.0
 40
0.0
 40
0.0
 40
1.0
 40
1.0
 40
1.0
 40
1.0
 10
537.5263618193448
 20
181.3586422311141
 30
-0.0000000000000017
 10
537.5263618193448
 20
182.8560380334036
 30
-0.0000000000000017
 10
537.0471951626122
 20
184.1887202974408
 30
-0.0000000000000016
 10
536.088861849147
 20
185.3566890232264
 30
-0.0000000000000016
  0
SPLINE
  5
1A2
330
1F
100
AcDbEntity
  8
1
  6
Continuous
 62
   155
100
AcDbSpline
210
0.0
220
0.0
230
1.0
 70
     8
 71
     3
 72
     8
 73
     4
 74
     0
 42
0.0000000001
 43
0.0000000001
 40
0.0
 40
0.0
 40
0.0
 40
0.0
 40
1.0
 40
1.0
 40
1.0
 40
1.0
 10
517.2441356773369
 20
187.1984858600422
 30
-0.0000000000000004
 10
518.8388622067748
 20
188.11938427845
 30
-0.0000000000000005
 10
519.6362254714939
 20
189.4895014375443
 30
-0.0000000000000006
 10
519.6362254714939
 20
191.3088373373263
 30
-0.0000000000000006
  0
SPLINE
  5
1A3
330
1F
100
AcDbEntity
  8
1
  6
Continuous
 62
   155
100
AcDbSpline
210
0.0
220
0.0
230
1.0
 70
     8
 71
     3
 72
     8
 73
     4
 74
     0
 42
0.0000000001
 43
0.0000000001
 40
0.0
 40
0.0
 40
0.0
 40
0.0
 40
1.0
 40
1.0
 40
1.0
 40
1.0
 10
519.4003856326333
 20
185.7609858898445
 30
-0.0000000000000005
 10
518.8089142907291
 20
186.389892126806
 30
-0.0000000000000005
 10
518.0901643056302
 20
186.8690587835385
 30
-0.0000000000000005
 10
517.2441356773369
 20
187.1984858600422
 30
-0.0000000000000004
  0
LINE
  5
2B0
330
1F
100
AcDbEntity
  8
1
  6
Continuous
 62
   155
100
AcDbLine
 10
530.1659341942792
 20
411.9537235223865
 30
0.0
 11
524.1014811942792
 21
411.9537235223865
 31
0.0
  0
LINE
  5
2B1
330
1F
100
AcDbEntity
  8
1
  6
Continuous
 62
   155
100
AcDbLine
 10
524.1014811942792
 20
411.9537235223865
 30
0.0
 11
524.1014811942792
 21
401.6890755223865
 31
0.0
  0
LINE
  5
2B2
330
1F
100
AcDbEntity
  8
1
  6
Continuous
 62
   155
100
AcDbLine
 10
524.1014811942792
 20
401.6890755223865
 30
0.0
 11
530.1659341942792
 21
401.6890755223865
 31
0.0
  0
LINE
  5
2B3
330
1F
100
AcDbEntity
  8
1
  6
Continuous
 62
   155
100
AcDbLine
 10
530.1659341942792
 20
401.6890755223865
 30
0.0
 11
530.1659341942792
 21
411.9537235223865
 31
0.0
  0
LINE
  5
2B4
330
1F
100
AcDbEntity
  8
1
  6
Continuous
 62
   155
100
AcDbLine
 10
548.7748201942792
 20
422.6226685223864
 30
0.0
 11
546.8993321942791
 21
422.6226685223864
 31
0.0
  0
LINE
  5
2B5
330
1F
100
AcDbEntity
  8
1
  6
Continuous
 62
   155
100
AcDbLine
 10
522.6639811942792
 20
401.6890755223865
 30
0.0
 11
519.0702311942792
 21
411.9537235223865
 31
0.0
  0
LINE
  5
2B6
330
1F
100
AcDbEntity
  8
1
  6
Continuous
 62
   155
100
AcDbLine
 10
530.1659341942792
 20
422.6226685223864
 30
0.0
 11
524.1014811942792
 21
422.6226685223864
 31
0.0
  0
LINE
  5
2B7
330
1F
100
AcDbEntity
  8
1
  6
Continuous
 62
   155
100
AcDbLine
 10
508.4349771942791
 20
405.8892705223865
 30
0.0
 11
511.9950361942792
 21
405.8892705223865
 31
0.0
  0
LINE
  5
2B8
330
1F
100
AcDbEntity
  8
1
  6
Continuous
 62
   155
100
AcDbLine
 10
511.9950361942792
 20
405.8892705223865
 30
0.0
 11
511.9950361942792
 21
411.9537235223865
 31
0.0
  0
LINE
  5
2B9
330
1F
100
AcDbEntity
  8
1
  6
Continuous
 62
   155
100
AcDbLine
 10
530.1659341942792
 20
412.3580205223865
 30
0.0
 11
530.1659341942792
 21
422.6226685223864
 31
0.0
  0
LINE
  5
2BA
330
1F
100
AcDbEntity
  8
1
  6
Continuous
 62
   155
100
AcDbLine
 10
511.9950361942792
 20
411.9537235223865
 30
0.0
 11
505.3241371942791
 21
411.9537235223865
 31
0.0
  0
LINE
  5
2BB
330
1F
100
AcDbEntity
  8
1
  6
Continuous
 62
   155
100
AcDbLine
 10
501.7303871942792
 20
401.6890755223865
 30
0.0
 11
506.9637861942792
 21
401.6890755223865
 31
0.0
  0
LINE
  5
2BC
330
1F
100
AcDbEntity
  8
1
  6
Continuous
 62
   155
100
AcDbLine
 10
546.8993321942791
 20
412.3580205223865
 30
0.0
 11
553.2557771942792
 21
412.3580205223865
 31
0.0
  0
LINE
  5
2BD
330
1F
100
AcDbEntity
  8
1
  6
Continuous
 62
   155
100
AcDbLine
 10
530.5926911942792
 20
401.6890755223865
 30
0.0
 11
532.4681801942793
 21
401.6890755223865
 31
0.0
  0
LINE
  5
2BE
330
1F
100
AcDbEntity
  8
1
  6
Continuous
 62
   155
100
AcDbLine
 10
524.1014811942792
 20
412.3580205223865
 30
0.0
 11
530.1659341942792
 21
412.3580205223865
 31
0.0
  0
LINE
  5
2BF
330
1F
100
AcDbEntity
  8
1
  6
Continuous
 62
   155
100
AcDbLine
 10
505.4701331942792
 20
412.3580205223865
 30
0.0
 11
511.9950361942792
 21
412.3580205223865
 31
0.0
  0
LINE
  5
2C0
330
1F
100
AcDbEntity
  8
1
  6
Continuous
 62
   155
100
AcDbLine
 10
512.3993321942792
 20
411.9537235223865
 30
0.0
 11
512.3993321942792
 21
405.8892705223865
 31
0.0
  0
LINE
  5
2C1
330
1F
100
AcDbEntity
  8
1
  6
Continuous
 62
   155
100
AcDbLine
 10
515.9593911942791
 20
405.8892705223865
 30
0.0
 11
517.4305821942791
 21
401.6890755223865
 31
0.0
  0
LINE
  5
2C2
330
1F
100
AcDbEntity
  8
1
  6
Continuous
 62
   155
100
AcDbLine
 10
512.3993321942792
 20
405.8892705223865
 30
0.0
 11
515.9593911942791
 21
405.8892705223865
 31
0.0
  0
LINE
  5
2C3
330
1F
100
AcDbEntity
  8
1
  6
Continuous
 62
   155
100
AcDbLine
 10
517.4305821942791
 20
401.6890755223865
 30
0.0
 11
522.6639811942792
 21
401.6890755223865
 31
0.0
  0
LINE
  5
2C4
330
1F
100
AcDbEntity
  8
1
  6
Continuous
 62
   155
100
AcDbLine
 10
515.3304851942791
 20
422.6226685223864
 30
0.0
 11
512.3993321942792
 21
422.6226685223864
 31
0.0
  0
LINE
  5
2C5
330
1F
100
AcDbEntity
  8
1
  6
Continuous
 62
   155
100
AcDbLine
 10
512.3993321942792
 20
422.6226685223864
 30
0.0
 11
512.3993321942792
 21
412.3580205223865
 31
0.0
  0
LINE
  5
2C6
330
1F
100
AcDbEntity
  8
1
  6
Continuous
 62
   155
100
AcDbLine
 10
509.0638831942792
 20
422.6226685223864
 30
0.0
 11
505.4701331942792
 21
412.3580205223865
 31
0.0
  0
LINE
  5
2C7
330
1F
100
AcDbEntity
  8
1
  6
Continuous
 62
   155
100
AcDbLine
 10
505.3241371942791
 20
411.9537235223865
 30
0.0
 11
501.7303871942792
 21
401.6890755223865
 31
0.0
  0
LINE
  5
2C8
330
1F
100
AcDbEntity
  8
1
  6
Continuous
 62
   155
100
AcDbLine
 10
519.0702311942792
 20
411.9537235223865
 30
0.0
 11
512.3993321942792
 21
411.9537235223865
 31
0.0
  0
LINE
  5
2C9
330
1F
100
AcDbEntity
  8
1
  6
Continuous
 62
   155
100
AcDbLine
 10
506.9637861942792
 20
401.6890755223865
 30
0.0
 11
508.4349771942791
 21
405.8892705223865
 31
0.0
  0
LINE
  5
2CA
330
1F
100
AcDbEntity
  8
1
  6
Continuous
 62
   155
100
AcDbLine
 10
524.1014811942792
 20
422.6226685223864
 30
0.0
 11
524.1014811942792
 21
412.3580205223865
 31
0.0
  0
LINE
  5
2CB
330
1F
100
AcDbEntity
  8
1
  6
Continuous
 62
   155
100
AcDbLine
 10
511.9950361942792
 20
422.6226685223864
 30
0.0
 11
509.0638831942792
 21
422.6226685223864
 31
0.0
  0
LINE
  5
2CC
330
1F
100
AcDbEntity
  8
1
  6
Continuous
 62
   155
100
AcDbLine
 10
511.9950361942792
 20
412.3580205223865
 30
0.0
 11
511.9950361942792
 21
422.6226685223864
 31
0.0
  0
LINE
  5
2CD
330
1F
100
AcDbEntity
  8
1
  6
Continuous
 62
   155
100
AcDbLine
 10
512.3993321942792
 20
412.3580205223865
 30
0.0
 11
518.9242351942791
 21
412.3580205223865
 31
0.0
  0
LINE
  5
2CE
330
1F
100
AcDbEntity
  8
1
  6
Continuous
 62
   155
100
AcDbLine
 10
546.8993321942791
 20
422.6226685223864
 30
0.0
 11
546.8993321942791
 21
412.3580205223865
 31
0.0
  0
LINE
  5
2CF
330
1F
100
AcDbEntity
  8
1
  6
Continuous
 62
   155
100
AcDbLine
 10
530.5926911942792
 20
411.9537235223865
 30
0.0
 11
530.5926911942792
 21
401.6890755223865
 31
0.0
  0
LINE
  5
2D0
330
1F
100
AcDbEntity
  8
1
  6
Continuous
 62
   155
100
AcDbLine
 10
518.9242351942791
 20
412.3580205223865
 30
0.0
 11
515.3304851942791
 21
422.6226685223864
 31
0.0
  0
LINE
  5
2D1
330
1F
100
AcDbEntity
  8
1
  6
Continuous
 62
   155
100
AcDbLine
 10
537.3309731942791
 20
411.9537235223865
 30
0.0
 11
530.5926911942792
 21
411.9537235223865
 31
0.0
  0
LINE
  5
2D2
330
1F
100
AcDbEntity
  8
1
  6
Continuous
 62
   155
100
AcDbLine
 10
540.4081211942791
 20
401.6890755223865
 30
0.0
 11
546.4725741942792
 21
401.6890755223865
 31
0.0
  0
LINE
  5
2D3
330
1F
100
AcDbEntity
  8
1
  6
Continuous
 62
   155
100
AcDbLine
 10
546.4725741942792
 20
422.6226685223864
 30
0.0
 11
540.4081211942791
 21
422.6226685223864
 31
0.0
  0
LINE
  5
2D4
330
1F
100
AcDbEntity
  8
1
  6
Continuous
 62
   155
100
AcDbLine
 10
546.8993321942791
 20
411.9537235223865
 30
0.0
 11
546.8993321942791
 21
401.6890755223865
 31
0.0
  0
LINE
  5
2D5
330
1F
100
AcDbEntity
  8
1
  6
Continuous
 62
   155
100
AcDbLine
 10
546.4725741942792
 20
401.6890755223865
 30
0.0
 11
546.4725741942792
 21
411.9537235223865
 31
0.0
  0
LINE
  5
2D6
330
1F
100
AcDbEntity
  8
1
  6
Continuous
 62
   155
100
AcDbLine
 10
532.4681801942793
 20
422.6226685223864
 30
0.0
 11
530.5926911942792
 21
422.6226685223864
 31
0.0
  0
LINE
  5
2D7
330
1F
100
AcDbEntity
  8
1
  6
Continuous
 62
   155
100
AcDbLine
 10
546.4725741942792
 20
411.9537235223865
 30
0.0
 11
540.4081211942791
 21
411.9537235223865
 31
0.0
  0
LINE
  5
2D8
330
1F
100
AcDbEntity
  8
1
  6
Continuous
 62
   155
100
AcDbLine
 10
553.6376131942792
 20
411.9537235223865
 30
0.0
 11
546.8993321942791
 21
411.9537235223865
 31
0.0
  0
LINE
  5
2D9
330
1F
100
AcDbEntity
  8
1
  6
Continuous
 62
   155
100
AcDbLine
 10
540.4081211942791
 20
422.6226685223864
 30
0.0
 11
540.4081211942791
 21
412.3580205223865
 31
0.0
  0
LINE
  5
2DA
330
1F
100
AcDbEntity
  8
1
  6
Continuous
 62
   155
100
AcDbLine
 10
546.8993321942791
 20
401.6890755223865
 30
0.0
 11
548.7748201942792
 21
401.6890755223865
 31
0.0
  0
LINE
  5
2DB
330
1F
100
AcDbEntity
  8
1
  6
Continuous
 62
   155
100
AcDbLine
 10
540.4081211942791
 20
412.3580205223865
 30
0.0
 11
546.4725741942792
 21
412.3580205223865
 31
0.0
  0
LINE
  5
2DC
330
1F
100
AcDbEntity
  8
1
  6
Continuous
 62
   155
100
AcDbLine
 10
530.5926911942792
 20
422.6226685223864
 30
0.0
 11
530.5926911942792
 21
412.3580205223865
 31
0.0
  0
LINE
  5
2DD
330
1F
100
AcDbEntity
  8
1
  6
Continuous
 62
   155
100
AcDbLine
 10
530.5926911942792
 20
412.3580205223865
 30
0.0
 11
536.9491371942793
 21
412.3580205223865
 31
0.0
  0
LINE
  5
2DE
330
1F
100
AcDbEntity
  8
1
  6
Continuous
 62
   155
100
AcDbLine
 10
540.4081211942791
 20
411.9537235223865
 30
0.0
 11
540.4081211942791
 21
401.6890755223865
 31
0.0
  0
LINE
  5
2DF
330
1F
100
AcDbEntity
  8
1
  6
Continuous
 62
   155
100
AcDbLine
 10
546.4725741942792
 20
412.3580205223865
 30
0.0
 11
546.4725741942792
 21
422.6226685223864
 31
0.0
  0
SPLINE
  5
2E0
330
1F
100
AcDbEntity
  8
1
  6
Continuous
 62
   155
100
AcDbSpline
210
0.0
220
0.0
230
1.0
 70
     8
 71
     3
 72
     8
 73
     4
 74
     0
 42
0.0000000001
 43
0.0000000001
 40
0.0
 40
0.0
 40
0.0
 40
0.0
 40
1.0
 40
1.0
 40
1.0
 40
1.0
 10
551.099527158546
 20
413.7955203824287
 30
-0.0000000000000014
 10
552.6942536879841
 20
414.7164188008366
 30
-0.0000000000000015
 10
553.4916169527031
 20
416.0865359599309
 30
-0.0000000000000016
 10
553.4916169527031
 20
417.9058718597129
 30
-0.0000000000000016
  0
SPLINE
  5
2E1
330
1F
100
AcDbEntity
  8
1
  6
Continuous
 62
   155
100
AcDbSpline
210
0.0
220
0.0
230
1.0
 70
     8
 71
     3
 72
    10
 73
     6
 74
     0
 42
0.0000000001
 43
0.0000000001
 40
0.0
 40
0.0
 40
0.0
 40
0.0
 40
0.5
 40
0.5
 40
1.0
 40
1.0
 40
1.0
 40
1.0
 10
553.4916169527031
 20
417.9058718597129
 30
-0.0000000000000016
 10
553.4916169527031
 20
419.208606207704
 30
-0.0000000000000016
 10
553.0311677434992
 20
420.320422590904
 30
-0.0000000000000015
 10
551.1893709066834
 20
422.1622194277199
 30
-0.0000000000000014
 10
550.0775545234836
 20
422.6226686369239
 30
-0.0000000000000013
 10
548.774820175492
 20
422.6226686369239
 30
-0.0000000000000013
  0
SPLINE
  5
2E2
330
1F
100
AcDbEntity
  8
1
  6
Continuous
 62
   155
100
AcDbSpline
210
0.0
220
0.0
230
1.0
 70
     8
 71
     3
 72
    10
 73
     6
 74
     0
 42
0.0000000001
 43
0.0000000001
 40
0.0
 40
0.0
 40
0.0
 40
0.0
 40
0.5
 40
0.5
 40
1.0
 40
1.0
 40
1.0
 40
1.0
 10
532.4681798885619
 20
401.6890753209203
 30
-0.0000000000000003
 10
534.265054851309
 20
401.6890753209203
 30
-0.0000000000000004
 10
535.7643223983512
 20
402.2824184075774
 30
-0.0000000000000005
 10
538.1676426610255
 20
404.6557907542057
 30
-0.0000000000000006
 10
538.7684727266941
 20
406.1513148117422
 30
-0.0000000000000007
 10
538.7684727266941
 20
407.9556767535008
 30
-0.0000000000000007
  0
SPLINE
  5
2E3
330
1F
100
AcDbEntity
  8
1
  6
Continuous
 62
   155
100
AcDbSpline
210
0.0
220
0.0
230
1.0
 70
     8
 71
     3
 72
     8
 73
     4
 74
     0
 42
0.0000000001
 43
0.0000000001
 40
0.0
 40
0.0
 40
0.0
 40
0.0
 40
1.0
 40
1.0
 40
1.0
 40
1.0
 10
553.2557771138426
 20
412.358020412231
 30
-0.0000000000000015
 10
552.6643057719383
 20
412.9869266491925
 30
-0.0000000000000015
 10
551.9455557868395
 20
413.4660933059251
 30
-0.0000000000000015
 10
551.099527158546
 20
413.7955203824287
 30
-0.0000000000000014
  0
SPLINE
  5
2E4
330
1F
100
AcDbEntity
  8
1
  6
Continuous
 62
   155
100
AcDbSpline
210
0.0
220
0.0
230
1.0
 70
     8
 71
     3
 72
     8
 73
     4
 74
     0
 42
0.0000000001
 43
0.0000000001
 40
0.0
 40
0.0
 40
0.0
 40
0.0
 40
1.0
 40
1.0
 40
1.0
 40
1.0
 10
538.7684727266941
 20
407.9556767535008
 30
-0.0000000000000007
 10
538.7684727266941
 20
409.4530725557901
 30
-0.0000000000000007
 10
538.2893060699615
 20
410.7857548198273
 30
-0.0000000000000006
 10
537.3309727564964
 20
411.953723545613
 30
-0.0000000000000006
  0
SPLINE
  5
2E5
330
1F
100
AcDbEntity
  8
1
  6
Continuous
 62
   155
100
AcDbSpline
210
0.0
220
0.0
230
1.0
 70
     8
 71
     3
 72
    10
 73
     6
 74
     0
 42
0.0000000001
 43
0.0000000001
 40
0.0
 40
0.0
 40
0.0
 40
0.0
 40
0.5
 40
0.5
 40
1.0
 40
1.0
 40
1.0
 40
1.0
 10
548.774820175492
 20
401.6890753209201
 30
-0.0000000000000013
 10
550.5716951382392
 20
401.6890753209201
 30
-0.0000000000000014
 10
552.0709626852812
 20
402.2824184075774
 30
-0.0000000000000015
 10
554.4742829479554
 20
404.6557907542057
 30
-0.0000000000000016
 10
555.0751130136241
 20
406.1513148117422
 30
-0.0000000000000017
 10
555.0751130136241
 20
407.9556767535007
 30
-0.0000000000000017
  0
SPLINE
  5
2E6
330
1F
100
AcDbEntity
  8
1
  6
Continuous
 62
   155
100
AcDbSpline
210
0.0
220
0.0
230
1.0
 70
     8
 71
     3
 72
    10
 73
     6
 74
     0
 42
0.0000000001
 43
0.0000000001
 40
0.0
 40
0.0
 40
0.0
 40
0.0
 40
0.4999999999999992
 40
0.4999999999999992
 40
1.0
 40
1.0
 40
1.0
 40
1.0
 10
537.1849766657732
 20
417.9058718597129
 30
-0.0000000000000006
 10
537.1849766657732
 20
419.208606207704
 30
-0.0000000000000006
 10
536.7245274565691
 20
420.320422590904
 30
-0.0000000000000005
 10
534.8827306197533
 20
422.1622194277199
 30
-0.0000000000000004
 10
533.7709142365537
 20
422.6226686369239
 30
-0.0000000000000003
 10
532.4681798885619
 20
422.6226686369239
 30
-0.0000000000000003
  0
SPLINE
  5
2E7
330
1F
100
AcDbEntity
  8
1
  6
Continuous
 62
   155
100
AcDbSpline
210
0.0
220
0.0
230
1.0
 70
     8
 71
     3
 72
     8
 73
     4
 74
     0
 42
0.0000000001
 43
0.0000000001
 40
0.0
 40
0.0
 40
0.0
 40
0.0
 40
1.0
 40
1.0
 40
1.0
 40
1.0
 10
555.0751130136241
 20
407.9556767535007
 30
-0.0000000000000017
 10
555.0751130136241
 20
409.4530725557901
 30
-0.0000000000000017
 10
554.5959463568914
 20
410.7857548198273
 30
-0.0000000000000016
 10
553.6376130434263
 20
411.953723545613
 30
-0.0000000000000016
  0
SPLINE
  5
2E8
330
1F
100
AcDbEntity
  8
1
  6
Continuous
 62
   155
100
AcDbSpline
210
0.0
220
0.0
230
1.0
 70
     8
 71
     3
 72
     8
 73
     4
 74
     0
 42
0.0000000001
 43
0.0000000001
 40
0.0
 40
0.0
 40
0.0
 40
0.0
 40
1.0
 40
1.0
 40
1.0
 40
1.0
 10
534.7928868716161
 20
413.7955203824287
 30
-0.0000000000000004
 10
536.387613401054
 20
414.7164188008366
 30
-0.0000000000000005
 10
537.1849766657732
 20
416.0865359599309
 30
-0.0000000000000006
 10
537.1849766657732
 20
417.9058718597129
 30
-0.0000000000000006
  0
SPLINE
  5
2E9
330
1F
100
AcDbEntity
  8
1
  6
Continuous
 62
   155
100
AcDbSpline
210
0.0
220
0.0
230
1.0
 70
     8
 71
     3
 72
     8
 73
     4
 74
     0
 42
0.0000000001
 43
0.0000000001
 40
0.0
 40
0.0
 40
0.0
 40
0.0
 40
1.0
 40
1.0
 40
1.0
 40
1.0
 10
536.9491368269126
 20
412.358020412231
 30
-0.0000000000000005
 10
536.3576654850084
 20
412.9869266491925
 30
-0.0000000000000005
 10
535.6389154999095
 20
413.4660933059251
 30
-0.0000000000000005
 10
534.7928868716161
 20
413.7955203824287
 30
-0.0000000000000004
  0
LINE
  5
329
330
1F
100
AcDbEntity
  8
1
  6
Continuous
 62
   155
100
AcDbLine
 10
218.6300380331914
 20
412.7609450884442
 30
0.0
 11
212.5655850331915
 21
412.7609450884442
 31
0.0
  0
LINE
  5
32A
330
1F
100
AcDbEntity
  8
1
  6
Continuous
 62
   155
100
AcDbLine
 10
212.5655850331915
 20
412.7609450884442
 30
0.0
 11
212.5655850331915
 21
402.4962970884443
 31
0.0
  0
LINE
  5
32B
330
1F
100
AcDbEntity
  8
1
  6
Continuous
 62
   155
100
AcDbLine
 10
212.5655850331915
 20
402.4962970884443
 30
0.0
 11
218.6300380331914
 21
402.4962970884443
 31
0.0
  0
LINE
  5
32C
330
1F
100
AcDbEntity
  8
1
  6
Continuous
 62
   155
100
AcDbLine
 10
218.6300380331914
 20
402.4962970884443
 30
0.0
 11
218.6300380331914
 21
412.7609450884442
 31
0.0
  0
LINE
  5
32D
330
1F
100
AcDbEntity
  8
1
  6
Continuous
 62
   155
100
AcDbLine
 10
237.2389240331914
 20
423.4298900884441
 30
0.0
 11
235.3634360331914
 21
423.4298900884441
 31
0.0
  0
LINE
  5
32E
330
1F
100
AcDbEntity
  8
1
  6
Continuous
 62
   155
100
AcDbLine
 10
211.1280850331915
 20
402.4962970884443
 30
0.0
 11
207.5343350331915
 21
412.7609450884442
 31
0.0
  0
LINE
  5
32F
330
1F
100
AcDbEntity
  8
1
  6
Continuous
 62
   155
100
AcDbLine
 10
218.6300380331914
 20
423.4298900884441
 30
0.0
 11
212.5655850331915
 21
423.4298900884441
 31
0.0
  0
LINE
  5
330
330
1F
100
AcDbEntity
  8
1
  6
Continuous
 62
   155
100
AcDbLine
 10
196.8990810331914
 20
406.6964920884442
 30
0.0
 11
200.4591400331915
 21
406.6964920884442
 31
0.0
  0
LINE
  5
331
330
1F
100
AcDbEntity
  8
1
  6
Continuous
 62
   155
100
AcDbLine
 10
200.4591400331915
 20
406.6964920884442
 30
0.0
 11
200.4591400331915
 21
412.7609450884442
 31
0.0
  0
LINE
  5
332
330
1F
100
AcDbEntity
  8
1
  6
Continuous
 62
   155
100
AcDbLine
 10
218.6300380331914
 20
413.1652420884441
 30
0.0
 11
218.6300380331914
 21
423.4298900884441
 31
0.0
  0
LINE
  5
333
330
1F
100
AcDbEntity
  8
1
  6
Continuous
 62
   155
100
AcDbLine
 10
200.4591400331915
 20
412.7609450884442
 30
0.0
 11
193.7882410331915
 21
412.7609450884442
 31
0.0
  0
LINE
  5
334
330
1F
100
AcDbEntity
  8
1
  6
Continuous
 62
   155
100
AcDbLine
 10
190.1944910331915
 20
402.4962970884443
 30
0.0
 11
195.4278900331915
 21
402.4962970884443
 31
0.0
  0
LINE
  5
335
330
1F
100
AcDbEntity
  8
1
  6
Continuous
 62
   155
100
AcDbLine
 10
235.3634360331914
 20
413.1652420884441
 30
0.0
 11
241.7198810331915
 21
413.1652420884441
 31
0.0
  0
LINE
  5
336
330
1F
100
AcDbEntity
  8
1
  6
Continuous
 62
   155
100
AcDbLine
 10
219.0567950331915
 20
402.4962970884443
 30
0.0
 11
220.9322840331915
 21
402.4962970884443
 31
0.0
  0
LINE
  5
337
330
1F
100
AcDbEntity
  8
1
  6
Continuous
 62
   155
100
AcDbLine
 10
212.5655850331915
 20
413.1652420884441
 30
0.0
 11
218.6300380331914
 21
413.1652420884441
 31
0.0
  0
LINE
  5
338
330
1F
100
AcDbEntity
  8
1
  6
Continuous
 62
   155
100
AcDbLine
 10
193.9342370331915
 20
413.1652420884441
 30
0.0
 11
200.4591400331915
 21
413.1652420884441
 31
0.0
  0
LINE
  5
339
330
1F
100
AcDbEntity
  8
1
  6
Continuous
 62
   155
100
AcDbLine
 10
200.8634360331915
 20
412.7609450884442
 30
0.0
 11
200.8634360331915
 21
406.6964920884442
 31
0.0
  0
LINE
  5
33A
330
1F
100
AcDbEntity
  8
1
  6
Continuous
 62
   155
100
AcDbLine
 10
204.4234950331914
 20
406.6964920884442
 30
0.0
 11
205.8946860331915
 21
402.4962970884443
 31
0.0
  0
LINE
  5
33B
330
1F
100
AcDbEntity
  8
1
  6
Continuous
 62
   155
100
AcDbLine
 10
200.8634360331915
 20
406.6964920884442
 30
0.0
 11
204.4234950331914
 21
406.6964920884442
 31
0.0
  0
LINE
  5
33C
330
1F
100
AcDbEntity
  8
1
  6
Continuous
 62
   155
100
AcDbLine
 10
205.8946860331915
 20
402.4962970884443
 30
0.0
 11
211.1280850331915
 21
402.4962970884443
 31
0.0
  0
LINE
  5
33D
330
1F
100
AcDbEntity
  8
1
  6
Continuous
 62
   155
100
AcDbLine
 10
203.7945890331914
 20
423.4298900884441
 30
0.0
 11
200.8634360331915
 21
423.4298900884441
 31
0.0
  0
LINE
  5
33E
330
1F
100
AcDbEntity
  8
1
  6
Continuous
 62
   155
100
AcDbLine
 10
200.8634360331915
 20
423.4298900884441
 30
0.0
 11
200.8634360331915
 21
413.1652420884441
 31
0.0
  0
LINE
  5
33F
330
1F
100
AcDbEntity
  8
1
  6
Continuous
 62
   155
100
AcDbLine
 10
197.5279870331915
 20
423.4298900884441
 30
0.0
 11
193.9342370331915
 21
413.1652420884441
 31
0.0
  0
LINE
  5
340
330
1F
100
AcDbEntity
  8
1
  6
Continuous
 62
   155
100
AcDbLine
 10
193.7882410331915
 20
412.7609450884442
 30
0.0
 11
190.1944910331915
 21
402.4962970884443
 31
0.0
  0
LINE
  5
341
330
1F
100
AcDbEntity
  8
1
  6
Continuous
 62
   155
100
AcDbLine
 10
207.5343350331915
 20
412.7609450884442
 30
0.0
 11
200.8634360331915
 21
412.7609450884442
 31
0.0
  0
LINE
  5
342
330
1F
100
AcDbEntity
  8
1
  6
Continuous
 62
   155
100
AcDbLine
 10
195.4278900331915
 20
402.4962970884443
 30
0.0
 11
196.8990810331914
 21
406.6964920884442
 31
0.0
  0
LINE
  5
343
330
1F
100
AcDbEntity
  8
1
  6
Continuous
 62
   155
100
AcDbLine
 10
212.5655850331915
 20
423.4298900884441
 30
0.0
 11
212.5655850331915
 21
413.1652420884441
 31
0.0
  0
LINE
  5
344
330
1F
100
AcDbEntity
  8
1
  6
Continuous
 62
   155
100
AcDbLine
 10
200.4591400331915
 20
423.4298900884441
 30
0.0
 11
197.5279870331915
 21
423.4298900884441
 31
0.0
  0
LINE
  5
345
330
1F
100
AcDbEntity
  8
1
  6
Continuous
 62
   155
100
AcDbLine
 10
200.4591400331915
 20
413.1652420884441
 30
0.0
 11
200.4591400331915
 21
423.4298900884441
 31
0.0
  0
LINE
  5
346
330
1F
100
AcDbEntity
  8
1
  6
Continuous
 62
   155
100
AcDbLine
 10
200.8634360331915
 20
413.1652420884441
 30
0.0
 11
207.3883390331914
 21
413.1652420884441
 31
0.0
  0
LINE
  5
347
330
1F
100
AcDbEntity
  8
1
  6
Continuous
 62
   155
100
AcDbLine
 10
235.3634360331914
 20
423.4298900884441
 30
0.0
 11
235.3634360331914
 21
413.1652420884441
 31
0.0
  0
LINE
  5
348
330
1F
100
AcDbEntity
  8
1
  6
Continuous
 62
   155
100
AcDbLine
 10
219.0567950331915
 20
412.7609450884442
 30
0.0
 11
219.0567950331915
 21
402.4962970884443
 31
0.0
  0
LINE
  5
349
330
1F
100
AcDbEntity
  8
1
  6
Continuous
 62
   155
100
AcDbLine
 10
207.3883390331914
 20
413.1652420884441
 30
0.0
 11
203.7945890331914
 21
423.4298900884441
 31
0.0
  0
LINE
  5
34A
330
1F
100
AcDbEntity
  8
1
  6
Continuous
 62
   155
100
AcDbLine
 10
225.7950770331914
 20
412.7609450884442
 30
0.0
 11
219.0567950331915
 21
412.7609450884442
 31
0.0
  0
LINE
  5
34B
330
1F
100
AcDbEntity
  8
1
  6
Continuous
 62
   155
100
AcDbLine
 10
228.8722250331914
 20
402.4962970884443
 30
0.0
 11
234.9366780331915
 21
402.4962970884443
 31
0.0
  0
LINE
  5
34C
330
1F
100
AcDbEntity
  8
1
  6
Continuous
 62
   155
100
AcDbLine
 10
234.9366780331915
 20
423.4298900884441
 30
0.0
 11
228.8722250331914
 21
423.4298900884441
 31
0.0
  0
LINE
  5
34D
330
1F
100
AcDbEntity
  8
1
  6
Continuous
 62
   155
100
AcDbLine
 10
235.3634360331914
 20
412.7609450884442
 30
0.0
 11
235.3634360331914
 21
402.4962970884443
 31
0.0
  0
LINE
  5
34E
330
1F
100
AcDbEntity
  8
1
  6
Continuous
 62
   155
100
AcDbLine
 10
234.9366780331915
 20
402.4962970884443
 30
0.0
 11
234.9366780331915
 21
412.7609450884442
 31
0.0
  0
LINE
  5
34F
330
1F
100
AcDbEntity
  8
1
  6
Continuous
 62
   155
100
AcDbLine
 10
220.9322840331915
 20
423.4298900884441
 30
0.0
 11
219.0567950331915
 21
423.4298900884441
 31
0.0
  0
LINE
  5
350
330
1F
100
AcDbEntity
  8
1
  6
Continuous
 62
   155
100
AcDbLine
 10
234.9366780331915
 20
412.7609450884442
 30
0.0
 11
228.8722250331914
 21
412.7609450884442
 31
0.0
  0
LINE
  5
351
330
1F
100
AcDbEntity
  8
1
  6
Continuous
 62
   155
100
AcDbLine
 10
242.1017170331914
 20
412.7609450884442
 30
0.0
 11
235.3634360331914
 21
412.7609450884442
 31
0.0
  0
LINE
  5
352
330
1F
100
AcDbEntity
  8
1
  6
Continuous
 62
   155
100
AcDbLine
 10
228.8722250331914
 20
423.4298900884441
 30
0.0
 11
228.8722250331914
 21
413.1652420884441
 31
0.0
  0
LINE
  5
353
330
1F
100
AcDbEntity
  8
1
  6
Continuous
 62
   155
100
AcDbLine
 10
235.3634360331914
 20
402.4962970884443
 30
0.0
 11
237.2389240331914
 21
402.4962970884443
 31
0.0
  0
LINE
  5
354
330
1F
100
AcDbEntity
  8
1
  6
Continuous
 62
   155
100
AcDbLine
 10
228.8722250331914
 20
413.1652420884441
 30
0.0
 11
234.9366780331915
 21
413.1652420884441
 31
0.0
  0
LINE
  5
355
330
1F
100
AcDbEntity
  8
1
  6
Continuous
 62
   155
100
AcDbLine
 10
219.0567950331915
 20
423.4298900884441
 30
0.0
 11
219.0567950331915
 21
413.1652420884441
 31
0.0
  0
LINE
  5
356
330
1F
100
AcDbEntity
  8
1
  6
Continuous
 62
   155
100
AcDbLine
 10
219.0567950331915
 20
413.1652420884441
 30
0.0
 11
225.4132410331915
 21
413.1652420884441
 31
0.0
  0
LINE
  5
357
330
1F
100
AcDbEntity
  8
1
  6
Continuous
 62
   155
100
AcDbLine
 10
228.8722250331914
 20
412.7609450884442
 30
0.0
 11
228.8722250331914
 21
402.4962970884443
 31
0.0
  0
LINE
  5
358
330
1F
100
AcDbEntity
  8
1
  6
Continuous
 62
   155
100
AcDbLine
 10
234.9366780331915
 20
413.1652420884441
 30
0.0
 11
234.9366780331915
 21
423.4298900884441
 31
0.0
  0
SPLINE
  5
359
330
1F
100
AcDbEntity
  8
1
  6
Continuous
 62
   155
100
AcDbSpline
210
0.0
220
0.0
230
1.0
 70
     8
 71
     3
 72
     8
 73
     4
 74
     0
 42
0.0000000001
 43
0.0000000001
 40
0.0
 40
0.0
 40
0.0
 40
0.0
 40
1.0
 40
1.0
 40
1.0
 40
1.0
 10
239.5636309974583
 20
414.6027419484864
 30
-0.0000000000000014
 10
241.1583575268963
 20
415.5236403668943
 30
-0.0000000000000015
 10
241.9557207916154
 20
416.8937575259886
 30
-0.0000000000000016
 10
241.9557207916154
 20
418.7130934257706
 30
-0.0000000000000016
  0
SPLINE
  5
35A
330
1F
100
AcDbEntity
  8
1
  6
Continuous
 62
   155
100
AcDbSpline
210
0.0
220
0.0
230
1.0
 70
     8
 71
     3
 72
    10
 73
     6
 74
     0
 42
0.0000000001
 43
0.0000000001
 40
0.0
 40
0.0
 40
0.0
 40
0.0
 40
0.5
 40
0.5
 40
1.0
 40
1.0
 40
1.0
 40
1.0
 10
241.9557207916154
 20
418.7130934257706
 30
-0.0000000000000016
 10
241.9557207916154
 20
420.0158277737616
 30
-0.0000000000000016
 10
241.4952715824115
 20
421.1276441569617
 30
-0.0000000000000015
 10
239.6534747455957
 20
422.9694409937776
 30
-0.0000000000000014
 10
238.5416583623959
 20
423.4298902029816
 30
-0.0000000000000013
 10
237.2389240144042
 20
423.4298902029816
 30
-0.0000000000000013
  0
SPLINE
  5
35B
330
1F
100
AcDbEntity
  8
1
  6
Continuous
 62
   155
100
AcDbSpline
210
0.0
220
0.0
230
1.0
 70
     8
 71
     3
 72
    10
 73
     6
 74
     0
 42
0.0000000001
 43
0.0000000001
 40
0.0
 40
0.0
 40
0.0
 40
0.0
 40
0.5
 40
0.5
 40
1.0
 40
1.0
 40
1.0
 40
1.0
 10
220.9322837274742
 20
402.496296886978
 30
-0.0000000000000003
 10
222.7291586902213
 20
402.496296886978
 30
-0.0000000000000004
 10
224.2284262372634
 20
403.0896399736351
 30
-0.0000000000000005
 10
226.6317464999378
 20
405.4630123202635
 30
-0.0000000000000006
 10
227.2325765656063
 20
406.9585363777998
 30
-0.0000000000000007
 10
227.2325765656063
 20
408.7628983195584
 30
-0.0000000000000007
  0
SPLINE
  5
35C
330
1F
100
AcDbEntity
  8
1
  6
Continuous
 62
   155
100
AcDbSpline
210
0.0
220
0.0
230
1.0
 70
     8
 71
     3
 72
     8
 73
     4
 74
     0
 42
0.0000000001
 43
0.0000000001
 40
0.0
 40
0.0
 40
0.0
 40
0.0
 40
1.0
 40
1.0
 40
1.0
 40
1.0
 10
241.7198809527549
 20
413.1652419782888
 30
-0.0000000000000015
 10
241.1284096108506
 20
413.7941482152503
 30
-0.0000000000000015
 10
240.4096596257518
 20
414.2733148719828
 30
-0.0000000000000015
 10
239.5636309974583
 20
414.6027419484864
 30
-0.0000000000000014
  0
SPLINE
  5
35D
330
1F
100
AcDbEntity
  8
1
  6
Continuous
 62
   155
100
AcDbSpline
210
0.0
220
0.0
230
1.0
 70
     8
 71
     3
 72
     8
 73
     4
 74
     0
 42
0.0000000001
 43
0.0000000001
 40
0.0
 40
0.0
 40
0.0
 40
0.0
 40
1.0
 40
1.0
 40
1.0
 40
1.0
 10
227.2325765656063
 20
408.7628983195584
 30
-0.0000000000000007
 10
227.2325765656063
 20
410.2602941218479
 30
-0.0000000000000007
 10
226.7534099088738
 20
411.5929763858851
 30
-0.0000000000000006
 10
225.7950765954086
 20
412.7609451116707
 30
-0.0000000000000006
  0
SPLINE
  5
35E
330
1F
100
AcDbEntity
  8
1
  6
Continuous
 62
   155
100
AcDbSpline
210
0.0
220
0.0
230
1.0
 70
     8
 71
     3
 72
    10
 73
     6
 74
     0
 42
0.0000000001
 43
0.0000000001
 40
0.0
 40
0.0
 40
0.0
 40
0.0
 40
0.5
 40
0.5
 40
1.0
 40
1.0
 40
1.0
 40
1.0
 10
237.2389240144042
 20
402.4962968869779
 30
-0.0000000000000013
 10
239.0357989771514
 20
402.4962968869779
 30
-0.0000000000000014
 10
240.5350665241934
 20
403.0896399736351
 30
-0.0000000000000015
 10
242.9383867868677
 20
405.4630123202635
 30
-0.0000000000000016
 10
243.5392168525364
 20
406.9585363777998
 30
-0.0000000000000017
 10
243.5392168525364
 20
408.7628983195584
 30
-0.0000000000000017
  0
SPLINE
  5
35F
330
1F
100
AcDbEntity
  8
1
  6
Continuous
 62
   155
100
AcDbSpline
210
0.0
220
0.0
230
1.0
 70
     8
 71
     3
 72
    10
 73
     6
 74
     0
 42
0.0000000001
 43
0.0000000001
 40
0.0
 40
0.0
 40
0.0
 40
0.0
 40
0.4999999999999992
 40
0.4999999999999992
 40
1.0
 40
1.0
 40
1.0
 40
1.0
 10
225.6490805046855
 20
418.7130934257706
 30
-0.0000000000000006
 10
225.6490805046855
 20
420.0158277737616
 30
-0.0000000000000006
 10
225.1886312954814
 20
421.1276441569617
 30
-0.0000000000000005
 10
223.3468344586656
 20
422.9694409937776
 30
-0.0000000000000004
 10
222.235018075466
 20
423.4298902029816
 30
-0.0000000000000003
 10
220.9322837274742
 20
423.4298902029816
 30
-0.0000000000000003
  0
SPLINE
  5
360
330
1F
100
AcDbEntity
  8
1
  6
Continuous
 62
   155
100
AcDbSpline
210
0.0
220
0.0
230
1.0
 70
     8
 71
     3
 72
     8
 73
     4
 74
     0
 42
0.0000000001
 43
0.0000000001
 40
0.0
 40
0.0
 40
0.0
 40
0.0
 40
1.0
 40
1.0
 40
1.0
 40
1.0
 10
243.5392168525364
 20
408.7628983195584
 30
-0.0000000000000017
 10
243.5392168525364
 20
410.2602941218479
 30
-0.0000000000000017
 10
243.0600501958037
 20
411.5929763858851
 30
-0.0000000000000016
 10
242.1017168823386
 20
412.7609451116707
 30
-0.0000000000000016
  0
SPLINE
  5
361
330
1F
100
AcDbEntity
  8
1
  6
Continuous
 62
   155
100
AcDbSpline
210
0.0
220
0.0
230
1.0
 70
     8
 71
     3
 72
     8
 73
     4
 74
     0
 42
0.0000000001
 43
0.0000000001
 40
0.0
 40
0.0
 40
0.0
 40
0.0
 40
1.0
 40
1.0
 40
1.0
 40
1.0
 10
223.2569907105284
 20
414.6027419484864
 30
-0.0000000000000004
 10
224.8517172399663
 20
415.5236403668943
 30
-0.0000000000000005
 10
225.6490805046855
 20
416.8937575259886
 30
-0.0000000000000006
 10
225.6490805046855
 20
418.7130934257706
 30
-0.0000000000000006
  0
SPLINE
  5
362
330
1F
100
AcDbEntity
  8
1
  6
Continuous
 62
   155
100
AcDbSpline
210
0.0
220
0.0
230
1.0
 70
     8
 71
     3
 72
     8
 73
     4
 74
     0
 42
0.0000000001
 43
0.0000000001
 40
0.0
 40
0.0
 40
0.0
 40
0.0
 40
1.0
 40
1.0
 40
1.0
 40
1.0
 10
225.4132406658249
 20
413.1652419782888
 30
-0.0000000000000005
 10
224.8217693239206
 20
413.7941482152503
 30
-0.0000000000000005
 10
224.1030193388218
 20
414.2733148719828
 30
-0.0000000000000005
 10
223.2569907105284
 20
414.6027419484864
 30
-0.0000000000000004
  0
LINE
  5
3A2
330
1F
100
AcDbEntity
  8
1
  6
Continuous
 62
   155
100
AcDbLine
 10
837.7422943999999
 20
510.5288993999999
 30
0.0
 11
832.8907319999999
 21
510.5288993999999
 31
0.0
  0
LINE
  5
3A3
330
1F
100
AcDbEntity
  8
1
  6
Continuous
 62
   155
100
AcDbLine
 10
832.8907319999999
 20
510.5288993999999
 30
0.0
 11
832.8907319999999
 21
502.317181
 31
0.0
  0
LINE
  5
3A4
330
1F
100
AcDbEntity
  8
1
  6
Continuous
 62
   155
100
AcDbLine
 10
832.8907319999999
 20
502.317181
 30
0.0
 11
837.7422943999999
 21
502.317181
 31
0.0
  0
LINE
  5
3A5
330
1F
100
AcDbEntity
  8
1
  6
Continuous
 62
   155
100
AcDbLine
 10
837.7422943999999
 20
502.317181
 30
0.0
 11
837.7422943999999
 21
510.5288993999999
 31
0.0
  0
LINE
  5
3A6
330
1F
100
AcDbEntity
  8
1
  6
Continuous
 62
   155
100
AcDbLine
 10
852.6294031999999
 20
519.0640553999998
 30
0.0
 11
851.1290127999998
 21
519.0640553999998
 31
0.0
  0
LINE
  5
3A7
330
1F
100
AcDbEntity
  8
1
  6
Continuous
 62
   155
100
AcDbLine
 10
831.7407319999999
 20
502.317181
 30
0.0
 11
828.865732
 21
510.5288993999999
 31
0.0
  0
LINE
  5
3A8
330
1F
100
AcDbEntity
  8
1
  6
Continuous
 62
   155
100
AcDbLine
 10
837.7422943999999
 20
519.0640553999998
 30
0.0
 11
832.8907319999999
 21
519.0640553999998
 31
0.0
  0
LINE
  5
3A9
330
1F
100
AcDbEntity
  8
1
  6
Continuous
 62
   155
100
AcDbLine
 10
820.3575287999999
 20
505.6773369999999
 30
0.0
 11
823.2055759999999
 21
505.6773369999999
 31
0.0
  0
LINE
  5
3AA
330
1F
100
AcDbEntity
  8
1
  6
Continuous
 62
   155
100
AcDbLine
 10
823.2055759999999
 20
505.6773369999999
 30
0.0
 11
823.2055759999999
 21
510.5288993999999
 31
0.0
  0
LINE
  5
3AB
330
1F
100
AcDbEntity
  8
1
  6
Continuous
 62
   155
100
AcDbLine
 10
837.7422943999999
 20
510.8523369999998
 30
0.0
 11
837.7422943999999
 21
519.0640553999998
 31
0.0
  0
LINE
  5
3AC
330
1F
100
AcDbEntity
  8
1
  6
Continuous
 62
   155
100
AcDbLine
 10
823.2055759999999
 20
510.5288993999999
 30
0.0
 11
817.8688568
 21
510.5288993999999
 31
0.0
  0
LINE
  5
3AD
330
1F
100
AcDbEntity
  8
1
  6
Continuous
 62
   155
100
AcDbLine
 10
814.9938567999999
 20
502.317181
 30
0.0
 11
819.1805759999999
 21
502.317181
 31
0.0
  0
LINE
  5
3AE
330
1F
100
AcDbEntity
  8
1
  6
Continuous
 62
   155
100
AcDbLine
 10
851.1290127999998
 20
510.8523369999998
 30
0.0
 11
856.2141688
 21
510.8523369999998
 31
0.0
  0
LINE
  5
3AF
330
1F
100
AcDbEntity
  8
1
  6
Continuous
 62
   155
100
AcDbLine
 10
838.0836999999999
 20
502.317181
 30
0.0
 11
839.5840912
 21
502.317181
 31
0.0
  0
LINE
  5
3B0
330
1F
100
AcDbEntity
  8
1
  6
Continuous
 62
   155
100
AcDbLine
 10
832.8907319999999
 20
510.8523369999998
 30
0.0
 11
837.7422943999999
 21
510.8523369999998
 31
0.0
  0
LINE
  5
3B1
330
1F
100
AcDbEntity
  8
1
  6
Continuous
 62
   155
100
AcDbLine
 10
817.9856535999999
 20
510.8523369999998
 30
0.0
 11
823.2055759999999
 21
510.8523369999998
 31
0.0
  0
LINE
  5
3B2
330
1F
100
AcDbEntity
  8
1
  6
Continuous
 62
   155
100
AcDbLine
 10
823.5290127999999
 20
510.5288993999999
 30
0.0
 11
823.5290127999999
 21
505.6773369999999
 31
0.0
  0
LINE
  5
3B3
330
1F
100
AcDbEntity
  8
1
  6
Continuous
 62
   155
100
AcDbLine
 10
826.3770599999999
 20
505.6773369999999
 30
0.0
 11
827.5540127999999
 21
502.317181
 31
0.0
  0
LINE
  5
3B4
330
1F
100
AcDbEntity
  8
1
  6
Continuous
 62
   155
100
AcDbLine
 10
823.5290127999999
 20
505.6773369999999
 30
0.0
 11
826.3770599999999
 21
505.6773369999999
 31
0.0
  0
LINE
  5
3B5
330
1F
100
AcDbEntity
  8
1
  6
Continuous
 62
   155
100
AcDbLine
 10
827.5540127999999
 20
502.317181
 30
0.0
 11
831.7407319999999
 21
502.317181
 31
0.0
  0
LINE
  5
3B6
330
1F
100
AcDbEntity
  8
1
  6
Continuous
 62
   155
100
AcDbLine
 10
825.8739351999999
 20
519.0640553999998
 30
0.0
 11
823.5290127999999
 21
519.0640553999998
 31
0.0
  0
LINE
  5
3B7
330
1F
100
AcDbEntity
  8
1
  6
Continuous
 62
   155
100
AcDbLine
 10
823.5290127999999
 20
519.0640553999998
 30
0.0
 11
823.5290127999999
 21
510.8523369999998
 31
0.0
  0
LINE
  5
3B8
330
1F
100
AcDbEntity
  8
1
  6
Continuous
 62
   155
100
AcDbLine
 10
820.8606535999999
 20
519.0640553999998
 30
0.0
 11
817.9856535999999
 21
510.8523369999998
 31
0.0
  0
LINE
  5
3B9
330
1F
100
AcDbEntity
  8
1
  6
Continuous
 62
   155
100
AcDbLine
 10
817.8688568
 20
510.5288993999999
 30
0.0
 11
814.9938567999999
 21
502.317181
 31
0.0
  0
LINE
  5
3BA
330
1F
100
AcDbEntity
  8
1
  6
Continuous
 62
   155
100
AcDbLine
 10
828.865732
 20
510.5288993999999
 30
0.0
 11
823.5290127999999
 21
510.5288993999999
 31
0.0
  0
LINE
  5
3BB
330
1F
100
AcDbEntity
  8
1
  6
Continuous
 62
   155
100
AcDbLine
 10
819.1805759999999
 20
502.317181
 30
0.0
 11
820.3575287999999
 21
505.6773369999999
 31
0.0
  0
LINE
  5
3BC
330
1F
100
AcDbEntity
  8
1
  6
Continuous
 62
   155
100
AcDbLine
 10
832.8907319999999
 20
519.0640553999998
 30
0.0
 11
832.8907319999999
 21
510.8523369999998
 31
0.0
  0
LINE
  5
3BD
330
1F
100
AcDbEntity
  8
1
  6
Continuous
 62
   155
100
AcDbLine
 10
823.2055759999999
 20
519.0640553999998
 30
0.0
 11
820.8606535999999
 21
519.0640553999998
 31
0.0
  0
LINE
  5
3BE
330
1F
100
AcDbEntity
  8
1
  6
Continuous
 62
   155
100
AcDbLine
 10
823.2055759999999
 20
510.8523369999998
 30
0.0
 11
823.2055759999999
 21
519.0640553999998
 31
0.0
  0
LINE
  5
3BF
330
1F
100
AcDbEntity
  8
1
  6
Continuous
 62
   155
100
AcDbLine
 10
823.5290127999999
 20
510.8523369999998
 30
0.0
 11
828.7489351999999
 21
510.8523369999998
 31
0.0
  0
LINE
  5
3C0
330
1F
100
AcDbEntity
  8
1
  6
Continuous
 62
   155
100
AcDbLine
 10
851.1290127999998
 20
519.0640553999998
 30
0.0
 11
851.1290127999998
 21
510.8523369999998
 31
0.0
  0
LINE
  5
3C1
330
1F
100
AcDbEntity
  8
1
  6
Continuous
 62
   155
100
AcDbLine
 10
838.0836999999999
 20
510.5288993999999
 30
0.0
 11
838.0836999999999
 21
502.317181
 31
0.0
  0
LINE
  5
3C2
330
1F
100
AcDbEntity
  8
1
  6
Continuous
 62
   155
100
AcDbLine
 10
828.7489351999999
 20
510.8523369999998
 30
0.0
 11
825.8739351999999
 21
519.0640553999998
 31
0.0
  0
LINE
  5
3C3
330
1F
100
AcDbEntity
  8
1
  6
Continuous
 62
   155
100
AcDbLine
 10
843.4743255999999
 20
510.5288993999999
 30
0.0
 11
838.0836999999999
 21
510.5288993999999
 31
0.0
  0
LINE
  5
3C4
330
1F
100
AcDbEntity
  8
1
  6
Continuous
 62
   155
100
AcDbLine
 10
845.9360439999999
 20
502.317181
 30
0.0
 11
850.7876063999999
 21
502.317181
 31
0.0
  0
LINE
  5
3C5
330
1F
100
AcDbEntity
  8
1
  6
Continuous
 62
   155
100
AcDbLine
 10
850.7876063999999
 20
519.0640553999998
 30
0.0
 11
845.9360439999999
 21
519.0640553999998
 31
0.0
  0
LINE
  5
3C6
330
1F
100
AcDbEntity
  8
1
  6
Continuous
 62
   155
100
AcDbLine
 10
851.1290127999998
 20
510.5288993999999
 30
0.0
 11
851.1290127999998
 21
502.317181
 31
0.0
  0
LINE
  5
3C7
330
1F
100
AcDbEntity
  8
1
  6
Continuous
 62
   155
100
AcDbLine
 10
850.7876063999999
 20
502.317181
 30
0.0
 11
850.7876063999999
 21
510.5288993999999
 31
0.0
  0
LINE
  5
3C8
330
1F
100
AcDbEntity
  8
1
  6
Continuous
 62
   155
100
AcDbLine
 10
839.5840912
 20
519.0640553999998
 30
0.0
 11
838.0836999999999
 21
519.0640553999998
 31
0.0
  0
LINE
  5
3C9
330
1F
100
AcDbEntity
  8
1
  6
Continuous
 62
   155
100
AcDbLine
 10
850.7876063999999
 20
510.5288993999999
 30
0.0
 11
845.9360439999999
 21
510.5288993999999
 31
0.0
  0
LINE
  5
3CA
330
1F
100
AcDbEntity
  8
1
  6
Continuous
 62
   155
100
AcDbLine
 10
856.5196376000001
 20
510.5288993999999
 30
0.0
 11
851.1290127999998
 21
510.5288993999999
 31
0.0
  0
LINE
  5
3CB
330
1F
100
AcDbEntity
  8
1
  6
Continuous
 62
   155
100
AcDbLine
 10
845.9360439999999
 20
519.0640553999998
 30
0.0
 11
845.9360439999999
 21
510.8523369999998
 31
0.0
  0
LINE
  5
3CC
330
1F
100
AcDbEntity
  8
1
  6
Continuous
 62
   155
100
AcDbLine
 10
851.1290127999998
 20
502.317181
 30
0.0
 11
852.6294031999999
 21
502.317181
 31
0.0
  0
LINE
  5
3CD
330
1F
100
AcDbEntity
  8
1
  6
Continuous
 62
   155
100
AcDbLine
 10
845.9360439999999
 20
510.8523369999998
 30
0.0
 11
850.7876063999999
 21
510.8523369999998
 31
0.0
  0
LINE
  5
3CE
330
1F
100
AcDbEntity
  8
1
  6
Continuous
 62
   155
100
AcDbLine
 10
838.0836999999999
 20
519.0640553999998
 30
0.0
 11
838.0836999999999
 21
510.8523369999998
 31
0.0
  0
LINE
  5
3CF
330
1F
100
AcDbEntity
  8
1
  6
Continuous
 62
   155
100
AcDbLine
 10
838.0836999999999
 20
510.8523369999998
 30
0.0
 11
843.1688568
 21
510.8523369999998
 31
0.0
  0
LINE
  5
3D0
330
1F
100
AcDbEntity
  8
1
  6
Continuous
 62
   155
100
AcDbLine
 10
845.9360439999999
 20
510.5288993999999
 30
0.0
 11
845.9360439999999
 21
502.317181
 31
0.0
  0
LINE
  5
3D1
330
1F
100
AcDbEntity
  8
1
  6
Continuous
 62
   155
100
AcDbLine
 10
850.7876063999999
 20
510.8523369999998
 30
0.0
 11
850.7876063999999
 21
519.0640553999998
 31
0.0
  0
SPLINE
  5
3D2
330
1F
100
AcDbEntity
  8
1
  6
Continuous
 62
   155
100
AcDbSpline
210
0.0
220
0.0
230
1.0
 70
     8
 71
     3
 72
     8
 73
     4
 74
     0
 42
0.0000000001
 43
0.0000000001
 40
0.0
 40
0.0
 40
0.0
 40
0.0
 40
1.0
 40
1.0
 40
1.0
 40
1.0
 10
854.4891687714134
 20
512.0023368880338
 30
-0.0000000000000011
 10
855.7649499949638
 20
512.7390556227601
 30
-0.0000000000000012
 10
856.4028406067391
 20
513.8351493500354
 30
-0.0000000000000013
 10
856.4028406067391
 20
515.290618069861
 30
-0.0000000000000013
  0
SPLINE
  5
3D3
330
1F
100
AcDbEntity
  8
1
  6
Continuous
 62
   155
100
AcDbSpline
210
0.0
220
0.0
230
1.0
 70
     8
 71
     3
 72
    10
 73
     6
 74
     0
 42
0.0000000001
 43
0.0000000001
 40
0.0
 40
0.0
 40
0.0
 40
0.0
 40
0.5
 40
0.5
 40
1.0
 40
1.0
 40
1.0
 40
1.0
 10
856.4028406067391
 20
515.290618069861
 30
-0.0000000000000013
 10
856.4028406067391
 20
516.3328055482538
 30
-0.0000000000000013
 10
856.0344812393761
 20
517.2222586548139
 30
-0.0000000000000012
 10
854.5610437699233
 20
518.6956961242668
 30
-0.0000000000000011
 10
853.6715906633634
 20
519.0640554916298
 30
-0.000000000000001
 10
852.6294031849701
 20
519.0640554916298
 30
-0.000000000000001
  0
SPLINE
  5
3D4
330
1F
100
AcDbEntity
  8
1
  6
Continuous
 62
   155
100
AcDbSpline
210
0.0
220
0.0
230
1.0
 70
     8
 71
     3
 72
    10
 73
     6
 74
     0
 42
0.0000000001
 43
0.0000000001
 40
0.0
 40
0.0
 40
0.0
 40
0.0
 40
0.5
 40
0.5
 40
1.0
 40
1.0
 40
1.0
 40
1.0
 10
839.5840909554262
 20
502.3171808388268
 30
-0.0000000000000002
 10
841.0215909256239
 20
502.3171808388268
 30
-0.0000000000000003
 10
842.2210049632575
 20
502.7918553081526
 30
-0.0000000000000004
 10
844.1436611733971
 20
504.6905531854553
 30
-0.0000000000000005
 10
844.6243252259318
 20
505.8869724314845
 30
-0.0000000000000006
 10
844.6243252259318
 20
507.3304619848912
 30
-0.0000000000000006
  0
SPLINE
  5
3D5
330
1F
100
AcDbEntity
  8
1
  6
Continuous
 62
   155
100
AcDbSpline
210
0.0
220
0.0
230
1.0
 70
     8
 71
     3
 72
     8
 73
     4
 74
     0
 42
0.0000000001
 43
0.0000000001
 40
0.0
 40
0.0
 40
0.0
 40
0.0
 40
1.0
 40
1.0
 40
1.0
 40
1.0
 10
856.2141687356508
 20
510.8523369118755
 30
-0.0000000000000012
 10
855.7409916621272
 20
511.3554619014448
 30
-0.0000000000000012
 10
855.1659916740483
 20
511.7387952268308
 30
-0.0000000000000012
 10
854.4891687714134
 20
512.0023368880338
 30
-0.0000000000000011
  0
SPLINE
  5
3D6
330
1F
100
AcDbEntity
  8
1
  6
Continuous
 62
   155
100
AcDbSpline
210
0.0
220
0.0
230
1.0
 70
     8
 71
     3
 72
     8
 73
     4
 74
     0
 42
0.0000000001
 43
0.0000000001
 40
0.0
 40
0.0
 40
0.0
 40
0.0
 40
1.0
 40
1.0
 40
1.0
 40
1.0
 10
844.6243252259318
 20
507.3304619848912
 30
-0.0000000000000006
 10
844.6243252259318
 20
508.5283786267228
 30
-0.0000000000000006
 10
844.2409919005458
 20
509.5945244379526
 30
-0.0000000000000005
 10
843.4743252497737
 20
510.5288994185811
 30
-0.0000000000000005
  0
SPLINE
  5
3D7
330
1F
100
AcDbEntity
  8
1
  6
Continuous
 62
   155
100
AcDbSpline
210
0.0
220
0.0
230
1.0
 70
     8
 71
     3
 72
    10
 73
     6
 74
     0
 42
0.0000000001
 43
0.0000000001
 40
0.0
 40
0.0
 40
0.0
 40
0.0
 40
0.5
 40
0.5
 40
1.0
 40
1.0
 40
1.0
 40
1.0
 10
852.6294031849701
 20
502.3171808388268
 30
-0.000000000000001
 10
854.0669031551679
 20
502.3171808388268
 30
-0.0000000000000011
 10
855.2663171928015
 20
502.7918553081526
 30
-0.0000000000000012
 10
857.188973402941
 20
504.6905531854553
 30
-0.0000000000000013
 10
857.6696374554758
 20
505.8869724314845
 30
-0.0000000000000014
 10
857.6696374554758
 20
507.3304619848912
 30
-0.0000000000000014
  0
SPLINE
  5
3D8
330
1F
100
AcDbEntity
  8
1
  6
Continuous
 62
   155
100
AcDbSpline
210
0.0
220
0.0
230
1.0
 70
     8
 71
     3
 72
    10
 73
     6
 74
     0
 42
0.0000000001
 43
0.0000000001
 40
0.0
 40
0.0
 40
0.0
 40
0.0
 40
0.4999999999999992
 40
0.4999999999999992
 40
1.0
 40
1.0
 40
1.0
 40
1.0
 10
843.3575283771952
 20
515.290618069861
 30
-0.0000000000000005
 10
843.3575283771952
 20
516.3328055482538
 30
-0.0000000000000005
 10
842.9891690098319
 20
517.2222586548139
 30
-0.0000000000000004
 10
841.5157315403792
 20
518.6956961242668
 30
-0.0000000000000003
 10
840.6262784338196
 20
519.0640554916298
 30
-0.0000000000000002
 10
839.5840909554262
 20
519.0640554916298
 30
-0.0000000000000002
  0
SPLINE
  5
3D9
330
1F
100
AcDbEntity
  8
1
  6
Continuous
 62
   155
100
AcDbSpline
210
0.0
220
0.0
230
1.0
 70
     8
 71
     3
 72
     8
 73
     4
 74
     0
 42
0.0000000001
 43
0.0000000001
 40
0.0
 40
0.0
 40
0.0
 40
0.0
 40
1.0
 40
1.0
 40
1.0
 40
1.0
 10
857.6696374554758
 20
507.3304619848912
 30
-0.0000000000000014
 10
857.6696374554758
 20
508.5283786267228
 30
-0.0000000000000014
 10
857.2863041300898
 20
509.5945244379526
 30
-0.0000000000000013
 10
856.5196374793176
 20
510.5288994185811
 30
-0.0000000000000013
  0
SPLINE
  5
3DA
330
1F
100
AcDbEntity
  8
1
  6
Continuous
 62
   155
100
AcDbSpline
210
0.0
220
0.0
230
1.0
 70
     8
 71
     3
 72
     8
 73
     4
 74
     0
 42
0.0000000001
 43
0.0000000001
 40
0.0
 40
0.0
 40
0.0
 40
0.0
 40
1.0
 40
1.0
 40
1.0
 40
1.0
 10
841.4438565418695
 20
512.0023368880338
 30
-0.0000000000000003
 10
842.7196377654198
 20
512.7390556227601
 30
-0.0000000000000004
 10
843.3575283771952
 20
513.8351493500354
 30
-0.0000000000000005
 10
843.3575283771952
 20
515.290618069861
 30
-0.0000000000000005
  0
SPLINE
  5
3DB
330
1F
100
AcDbEntity
  8
1
  6
Continuous
 62
   155
100
AcDbSpline
210
0.0
220
0.0
230
1.0
 70
     8
 71
     3
 72
     8
 73
     4
 74
     0
 42
0.0000000001
 43
0.0000000001
 40
0.0
 40
0.0
 40
0.0
 40
0.0
 40
1.0
 40
1.0
 40
1.0
 40
1.0
 10
843.1688565061067
 20
510.8523369118755
 30
-0.0000000000000004
 10
842.6956794325834
 20
511.3554619014448
 30
-0.0000000000000004
 10
842.1206794445042
 20
511.7387952268308
 30
-0.0000000000000004
 10
841.4438565418695
 20
512.0023368880338
 30
-0.0000000000000003
  0
MTEXT
  5
3DE
330
1F
100
AcDbEntity
  8
0
100
AcDbMText
 10
405.327419944105
 20
42.13461195811453
 30
0.0
 40
25.0
 41
269.6155968536132
 46
0.0
 71
     1
 72
     5
  1
M2AA 71 B14
 73
     1
 44
1.0
1001
ACAD
1000
ACAD_MTEXT_COLUMN_INFO_BEGIN
1070
    75
1070
     2
1070
    79
1070
     0
1070
    76
1070
     1
1070
    78
1070
     0
1070
    48
1040
269.6155968536132
1070
    49
1040
1.0
1070
    50
1070
     1
1040
0.0
1000
ACAD_MTEXT_COLUMN_INFO_END
  0
ENDSEC
  0
SECTION
  2
OBJECTS
  0
DICTIONARY
  5
C
330
0
100
AcDbDictionary
281
     1
  3
ACAD_CIP_PREVIOUS_PRODUCT_INFO
350
1FF
  3
ACAD_COLOR
350
1E8
  3
ACAD_GROUP
350
D
  3
ACAD_LAYOUT
350
1A
  3
ACAD_MATERIAL
350
3B
  3
ACAD_MLEADERSTYLE
350
1DB
  3
ACAD_MLINESTYLE
350
17
  3
ACAD_PLOTSETTINGS
350
19
  3
ACAD_PLOTSTYLENAME
350
E
  3
ACAD_SCALELIST
350
1EA
  3
ACAD_TABLESTYLE
350
1DA
  3
ACAD_VISUALSTYLE
350
2A
  3
ACDB_RECOMPOSE_DATA
350
3ED
  3
AcDbVariableDictionary
350
3E3
  3
AcmDictionary
350
22A
  3
AMG
350
200
  3
AMGSNAPSETTINGS
350
268
  0
DICTIONARY
  5
3DF
330
10
100
AcDbDictionary
280
     1
281
     1
  3
ADSK_XREC_LAYER_RECONCILED
360
3E0
  0
DICTIONARY
  5
3E1
330
46
100
AcDbDictionary
280
     1
281
     1
  3
ADSK_XREC_LAYER_RECONCILED
360
3E2
  0
XRECORD
  5
1FF
102
{ACAD_REACTORS
330
C
102
}
330
C
100
AcDbXrecord
280
     1
300
AMECH_PP
300
2012
300
85794PDSS_2012_0F
  0
DICTIONARY
  5
1E8
102
{ACAD_REACTORS
330
C
102
}
330
C
100
AcDbDictionary
281
     1
  0
DICTIONARY
  5
D
102
{ACAD_REACTORS
330
C
102
}
330
C
100
AcDbDictionary
281
     1
  0
DICTIONARY
  5
1A
102
{ACAD_REACTORS
330
C
102
}
330
C
100
AcDbDictionary
281
     1
  3
Layout1
350
1E
  3
Layout2
350
26
  3
Model
350
22
  0
DICTIONARY
  5
3B
102
{ACAD_REACTORS
330
C
102
}
330
C
100
AcDbDictionary
281
     1
  3
BYBLOCK
350
3D
  3
BYLAYER
350
3C
  3
Global
350
3E
  0
DICTIONARY
  5
1DB
102
{ACAD_REACTORS
330
C
102
}
330
C
100
AcDbDictionary
281
     1
  3
Standard
350
1FC
  0
DICTIONARY
  5
17
102
{ACAD_REACTORS
330
C
102
}
330
C
100
AcDbDictionary
281
     1
  3
Standard
350
18
  0
DICTIONARY
  5
19
102
{ACAD_REACTORS
330
C
102
}
330
C
100
AcDbDictionary
281
     1
  0
ACDBDICTIONARYWDFLT
  5
E
102
{ACAD_REACTORS
330
C
102
}
330
C
100
AcDbDictionary
281
     1
  3
Normal
350
F
100
AcDbDictionaryWithDefault
340
F
  0
DICTIONARY
  5
1EA
102
{ACAD_REACTORS
330
C
102
}
330
C
100
AcDbDictionary
281
     1
  3
A0
350
1EB
  3
A1
350
1EC
  3
A2
350
1ED
  3
A3
350
1EE
  3
A4
350
1EF
  3
A5
350
1F0
  3
A6
350
1F1
  3
A7
350
1F2
  3
A8
350
1F3
  3
A9
350
1F4
  3
B0
350
1F5
  3
B1
350
1F6
  3
B2
350
1F7
  3
B3
350
1F8
  3
B4
350
1F9
  3
B5
350
1FA
  3
B6
350
1FB
  0
DICTIONARY
  5
1DA
102
{ACAD_REACTORS
330
C
102
}
330
C
100
AcDbDictionary
281
     1
  3
Standard
350
1E9
  0
DICTIONARY
  5
2A
102
{ACAD_REACTORS
330
C
102
}
330
C
100
AcDbDictionary
281
     1
  3
2dWireframe
350
2F
  3
3D Hidden
350
31
  3
3dWireframe
350
30
  3
Basic
350
32
  3
Brighten
350
36
  3
ColorChange
350
3A
  3
Conceptual
350
34
  3
Dim
350
35
  3
EdgeColorOff
350
1E7
  3
Facepattern
350
39
  3
Flat
350
2B
  3
FlatWithEdges
350
2C
  3
Gouraud
350
2D
  3
GouraudWithEdges
350
2E
  3
Hidden
350
1DF
  3
JitterOff
350
1E5
  3
Linepattern
350
38
  3
OverhangOff
350
1E6
  3
Realistic
350
33
  3
Shaded
350
1E4
  3
Shaded with edges
350
1E3
  3
Shades of Gray
350
1E0
  3
Sketchy
350
1E1
  3
Thicken
350
37
  3
Wireframe
350
1DE
  3
X-Ray
350
1E2
  0
XRECORD
  5
3ED
102
{ACAD_REACTORS
330
C
102
}
330
C
100
AcDbXrecord
280
     1
 90
        1
330
1E9
330
3DE
  0
DICTIONARY
  5
3E3
102
{ACAD_REACTORS
330
C
102
}
330
C
100
AcDbDictionary
281
     1
  3
CANNOSCALE
350
3E7
  3
CMLEADERSTYLE
350
3E5
  3
CTABLESTYLE
350
3E4
  3
LAYEREVAL
350
3E9
  3
LAYERNOTIFY
350
3EA
  3
LIGHTINGUNITS
350
3E8
  3
MSLTSCALE
350
3E6
  0
DICTIONARY
  5
22A
102
{ACAD_REACTORS
330
C
102
}
330
C
100
AcDbDictionary
281
     1
  3
AcmStdDictionary
350
231
  0
DICTIONARY
  5
200
102
{ACAD_REACTORS
330
C
102
}
330
C
100
AcDbDictionary
281
     1
  0
DICTIONARY
  5
268
102
{ACAD_REACTORS
330
C
102
}
330
C
100
AcDbDictionary
281
     1
  0
XRECORD
  5
3E0
102
{ACAD_REACTORS
330
3DF
102
}
330
3DF
100
AcDbXrecord
280
     1
290
     1
  0
XRECORD
  5
3E2
102
{ACAD_REACTORS
330
3E1
102
}
330
3E1
100
AcDbXrecord
280
     1
290
     1
  0
LAYOUT
  5
1E
102
{ACAD_REACTORS
330
1A
102
}
330
1A
100
AcDbPlotSettings
  1

  2
none_device
  4

  6

 40
0.0
 41
0.0
 42
0.0
 43
0.0
 44
0.0
 45
0.0
 46
0.0
 47
0.0
 48
0.0
 49
0.0
140
0.0
141
0.0
142
1.0
143
1.0
 70
   688
 72
     0
 73
     0
 74
     5
  7

 75
    16
147
1.0
 76
     0
 77
     2
 78
   300
148
0.0
149
0.0
100
AcDbLayout
  1
Layout1
 70
     1
 71
     1
 10
-0.5
 20
-0.5
 11
5.0
 21
5.0
 12
0.0
 22
0.0
 32
0.0
 14
-0.5
 24
-0.5
 34
-0.5
 15
5.0
 25
5.0
 35
5.0
146
0.0
 13
0.0
 23
0.0
 33
0.0
 16
1.0
 26
0.0
 36
0.0
 17
0.0
 27
1.0
 37
0.0
 76
     0
330
1B
  0
LAYOUT
  5
26
102
{ACAD_REACTORS
330
1A
102
}
330
1A
100
AcDbPlotSettings
  1

  2
none_device
  4

  6

 40
0.0
 41
0.0
 42
0.0
 43
0.0
 44
0.0
 45
0.0
 46
0.0
 47
0.0
 48
0.0
 49
0.0
140
0.0
141
0.0
142
1.0
143
1.0
 70
   688
 72
     0
 73
     0
 74
     5
  7

 75
    16
147
1.0
 76
     0
 77
     2
 78
   300
148
0.0
149
0.0
100
AcDbLayout
  1
Layout2
 70
     1
 71
     2
 10
0.0
 20
0.0
 11
0.0
 21
0.0
 12
0.0
 22
0.0
 32
0.0
 14
0.0
 24
0.0
 34
0.0
 15
0.0
 25
0.0
 35
0.0
146
0.0
 13
0.0
 23
0.0
 33
0.0
 16
1.0
 26
0.0
 36
0.0
 17
0.0
 27
1.0
 37
0.0
 76
     0
330
23
  0
LAYOUT
  5
22
102
{ACAD_REACTORS
330
1A
102
}
330
1A
100
AcDbPlotSettings
  1

  2
none_device
  4

  6

 40
0.0
 41
0.0
 42
0.0
 43
0.0
 44
0.0
 45
0.0
 46
0.0
 47
0.0
 48
0.0
 49
0.0
140
0.0
141
0.0
142
1.0
143
1.0
 70
  1712
 72
     0
 73
     0
 74
     0
  7

 75
     0
147
1.0
 76
     0
 77
     2
 78
   300
148
0.0
149
0.0
100
AcDbLayout
  1
Model
 70
     1
 71
     0
 10
-0.5
 20
-0.5
 11
5.0
 21
5.0
 12
0.0
 22
0.0
 32
0.0
 14
-0.5
 24
-0.5
 34
-0.5
 15
5.0
 25
5.0
 35
5.0
146
0.0
 13
0.0
 23
0.0
 33
0.0
 16
1.0
 26
0.0
 36
0.0
 17
0.0
 27
1.0
 37
0.0
 76
     0
330
1F
331
1A4
  0
MATERIAL
  5
3D
102
{ACAD_XDICTIONARY
360
1D6
102
}
102
{ACAD_REACTORS
330
3B
102
}
330
3B
100
AcDbMaterial
  1
BYBLOCK
  0
MATERIAL
  5
3C
102
{ACAD_XDICTIONARY
360
1D4
102
}
102
{ACAD_REACTORS
330
3B
102
}
330
3B
100
AcDbMaterial
  1
BYLAYER
  0
MATERIAL
  5
3E
102
{ACAD_XDICTIONARY
360
1D8
102
}
102
{ACAD_REACTORS
330
3B
102
}
330
3B
100
AcDbMaterial
  1
Global
  0
MLEADERSTYLE
  5
1FC
102
{ACAD_REACTORS
330
1DB
102
}
330
1DB
100
AcDbMLeaderStyle
179
     2
170
     2
171
     1
172
     0
 90
        2
 40
0.0
 41
0.0
173
     1
 91
-1056964608
340
14
 92
       -2
290
     1
 42
2.0
291
     1
 43
0.36
  3
Standard
 44
4.0
300

342
11
174
     1
178
     6
175
     1
176
     0
 93
-1056964608
 45
4.0
292
     0
297
     0
 46
4.0
 94
-1056964608
 47
1.0
 49
1.0
140
1.0
293
     1
141
0.0
294
     1
177
     0
142
1.0
295
     0
296
     0
143
0.125
271
     0
272
     9
273
     9
  0
MLINESTYLE
  5
18
102
{ACAD_REACTORS
330
17
102
}
330
17
100
AcDbMlineStyle
  2
STANDARD
 70
     0
  3

 62
   256
 51
90.0
 52
90.0
 71
     2
 49
0.5
 62
   256
  6
BYLAYER
 49
-0.5
 62
   256
  6
BYLAYER
  0
ACDBPLACEHOLDER
  5
F
102
{ACAD_REACTORS
330
E
102
}
330
E
  0
SCALE
  5
1EB
102
{ACAD_REACTORS
330
1EA
102
}
330
1EA
100
AcDbScale
 70
     0
300
1:1
140
1.0
141
1.0
290
     1
  0
SCALE
  5
1EC
102
{ACAD_REACTORS
330
1EA
102
}
330
1EA
100
AcDbScale
 70
     0
300
1:2
140
1.0
141
2.0
290
     0
  0
SCALE
  5
1ED
102
{ACAD_REACTORS
330
1EA
102
}
330
1EA
100
AcDbScale
 70
     0
300
1:4
140
1.0
141
4.0
290
     0
  0
SCALE
  5
1EE
102
{ACAD_REACTORS
330
1EA
102
}
330
1EA
100
AcDbScale
 70
     0
300
1:5
140
1.0
141
5.0
290
     0
  0
SCALE
  5
1EF
102
{ACAD_REACTORS
330
1EA
102
}
330
1EA
100
AcDbScale
 70
     0
300
1:8
140
1.0
141
8.0
290
     0
  0
SCALE
  5
1F0
102
{ACAD_REACTORS
330
1EA
102
}
330
1EA
100
AcDbScale
 70
     0
300
1:10
140
1.0
141
10.0
290
     0
  0
SCALE
  5
1F1
102
{ACAD_REACTORS
330
1EA
102
}
330
1EA
100
AcDbScale
 70
     0
300
1:16
140
1.0
141
16.0
290
     0
  0
SCALE
  5
1F2
102
{ACAD_REACTORS
330
1EA
102
}
330
1EA
100
AcDbScale
 70
     0
300
1:20
140
1.0
141
20.0
290
     0
  0
SCALE
  5
1F3
102
{ACAD_REACTORS
330
1EA
102
}
330
1EA
100
AcDbScale
 70
     0
300
1:30
140
1.0
141
30.0
290
     0
  0
SCALE
  5
1F4
102
{ACAD_REACTORS
330
1EA
102
}
330
1EA
100
AcDbScale
 70
     0
300
1:40
140
1.0
141
40.0
290
     0
  0
SCALE
  5
1F5
102
{ACAD_REACTORS
330
1EA
102
}
330
1EA
100
AcDbScale
 70
     0
300
1:50
140
1.0
141
50.0
290
     0
  0
SCALE
  5
1F6
102
{ACAD_REACTORS
330
1EA
102
}
330
1EA
100
AcDbScale
 70
     0
300
1:100
140
1.0
141
100.0
290
     0
  0
SCALE
  5
1F7
102
{ACAD_REACTORS
330
1EA
102
}
330
1EA
100
AcDbScale
 70
     0
300
2:1
140
2.0
141
1.0
290
     0
  0
SCALE
  5
1F8
102
{ACAD_REACTORS
330
1EA
102
}
330
1EA
100
AcDbScale
 70
     0
300
4:1
140
4.0
141
1.0
290
     0
  0
SCALE
  5
1F9
102
{ACAD_REACTORS
330
1EA
102
}
330
1EA
100
AcDbScale
 70
     0
300
8:1
140
8.0
141
1.0
290
     0
  0
SCALE
  5
1FA
102
{ACAD_REACTORS
330
1EA
102
}
330
1EA
100
AcDbScale
 70
     0
300
10:1
140
10.0
141
1.0
290
     0
  0
SCALE
  5
1FB
102
{ACAD_REACTORS
330
1EA
102
}
330
1EA
100
AcDbScale
 70
     0
300
100:1
140
100.0
141
1.0
290
     0
  0
TABLESTYLE
  5
1E9
102
{ACAD_XDICTIONARY
360
3EB
102
}
102
{ACAD_REACTORS
330
1DA
102
}
330
1DA
100
AcDbTableStyle
280
     0
  3
Standard
 70
     0
 71
     0
 40
1.5
 41
1.5
280
     0
281
     0
  7
Standard
140
4.5
170
     2
 62
     0
 63
     7
283
     0
 90
      512
 91
        0
  1

274
    -2
284
     1
 64
     0
275
    -2
285
     1
 65
     0
276
    -2
286
     1
 66
     0
277
    -2
287
     1
 67
     0
278
    -2
288
     1
 68
     0
279
    -2
289
     1
 69
     0
  7
Standard
140
6.0
170
     5
 62
     0
 63
     7
283
     0
 90
      512
 91
        0
  1

274
    -2
284
     1
 64
     0
275
    -2
285
     1
 65
     0
276
    -2
286
     1
 66
     0
277
    -2
287
     1
 67
     0
278
    -2
288
     1
 68
     0
279
    -2
289
     1
 69
     0
  7
Standard
140
4.5
170
     5
 62
     0
 63
     7
283
     0
 90
      512
 91
        0
  1

274
    -2
284
     1
 64
     0
275
    -2
285
     1
 65
     0
276
    -2
286
     1
 66
     0
277
    -2
287
     1
 67
     0
278
    -2
288
     1
 68
     0
279
    -2
289
     1
 69
     0
  0
VISUALSTYLE
  5
2F
102
{ACAD_REACTORS
330
2A
102
}
330
2A
100
AcDbVisualStyle
  2

 70
     4
177
     2
291
     0
 71
     0
176
     1
 72
     2
176
     1
 73
     0
176
     1
 90
        0
176
     1
 40
0.6
176
     1
 41
30.0
176
     1
 63
     7
421
 16777215
176
     1
 74
     1
176
     1
 91
        4
176
     1
 64
     7
176
     1
 65
   257
176
     1
 75
     1
176
     1
175
     1
176
     1
 42
1.0
176
     1
 92
        0
176
     1
 66
   257
176
     1
 43
1.0
176
     1
 76
     1
176
     1
 77
     6
176
     1
 78
     2
176
     1
 67
     7
176
     1
 79
     5
176
     1
170
     0
176
     1
171
     0
176
     1
290
     0
176
     1
 93
        1
176
     1
 44
0.0
176
     1
173
     0
176
     1
1001
ACAD
1000
AcDbSavedByObjectVersion
1070
     0
  0
VISUALSTYLE
  5
31
102
{ACAD_REACTORS
330
2A
102
}
330
2A
100
AcDbVisualStyle
  2

 70
     6
177
     2
291
     0
 71
     1
176
     1
 72
     2
176
     1
 73
     2
176
     1
 90
        0
176
     1
 40
0.6
176
     1
 41
30.0
176
     1
 63
     7
421
 16777215
176
     1
 74
     2
176
     1
 91
        2
176
     1
 64
     7
176
     1
 65
   257
176
     1
 75
     2
176
     1
175
     1
176
     1
 42
40.0
176
     1
 92
        0
176
     1
 66
   257
176
     1
 43
1.0
176
     1
 76
     1
176
     1
 77
     6
176
     1
 78
     2
176
     1
 67
     7
176
     1
 79
     3
176
     1
170
     0
176
     1
171
     0
176
     1
290
     0
176
     1
 93
        1
176
     1
 44
0.0
176
     1
173
     0
176
     1
1001
ACAD
1000
AcDbSavedByObjectVersion
1070
     0
  0
VISUALSTYLE
  5
30
102
{ACAD_REACTORS
330
2A
102
}
330
2A
100
AcDbVisualStyle
  2

 70
     5
177
     2
291
     0
 71
     0
176
     1
 72
     2
176
     1
 73
     0
176
     1
 90
        0
176
     1
 40
0.6
176
     1
 41
30.0
176
     1
 63
     7
421
 16777215
176
     1
 74
     1
176
     1
 91
        4
176
     1
 64
     7
176
     1
 65
   257
176
     1
 75
     1
176
     1
175
     1
176
     1
 42
1.0
176
     1
 92
        0
176
     1
 66
   257
176
     1
 43
1.0
176
     1
 76
     1
176
     1
 77
     6
176
     1
 78
     2
176
     1
 67
     7
176
     1
 79
     5
176
     1
170
     0
176
     1
171
     0
176
     1
290
     0
176
     1
 93
        1
176
     1
 44
0.0
176
     1
173
     0
176
     1
1001
ACAD
1000
AcDbSavedByObjectVersion
1070
     0
  0
VISUALSTYLE
  5
32
102
{ACAD_REACTORS
330
2A
102
}
330
2A
100
AcDbVisualStyle
  2

 70
     7
177
     2
291
     1
 71
     1
176
     1
 72
     0
176
     1
 73
     1
176
     1
 90
        0
176
     1
 40
0.6
176
     1
 41
30.0
176
     1
 63
     7
421
 16777215
176
     1
 74
     0
176
     1
 91
        4
176
     1
 64
     7
176
     1
 65
   257
176
     1
 75
     1
176
     1
175
     1
176
     1
 42
1.0
176
     1
 92
        8
176
     1
 66
     7
176
     1
 43
1.0
176
     1
 76
     1
176
     1
 77
     6
176
     1
 78
     2
176
     1
 67
     7
176
     1
 79
     5
176
     1
170
     0
176
     1
171
     0
176
     1
290
     0
176
     1
 93
        1
176
     1
 44
0.0
176
     1
173
     0
176
     1
1001
ACAD
1000
AcDbSavedByObjectVersion
1070
     0
  0
VISUALSTYLE
  5
36
102
{ACAD_REACTORS
330
2A
102
}
330
2A
100
AcDbVisualStyle
  2

 70
    12
177
     2
291
     1
 71
     2
176
     1
 72
     2
176
     1
 73
     0
176
     1
 90
        0
176
     1
 40
0.6
176
     1
 41
30.0
176
     1
 63
     7
421
 16777215
176
     1
 74
     1
176
     1
 91
        4
176
     1
 64
     7
176
     1
 65
   257
176
     1
 75
     1
176
     1
175
     1
176
     1
 42
1.0
176
     1
 92
        8
176
     1
 66
     7
176
     1
 43
1.0
176
     1
 76
     1
176
     1
 77
     6
176
     1
 78
     2
176
     1
 67
     7
176
     1
 79
     5
176
     1
170
     0
176
     1
171
     0
176
     1
290
     0
176
     1
 93
        1
176
     1
 44
50.0
176
     1
173
     0
176
     1
1001
ACAD
1000
AcDbSavedByObjectVersion
1070
     0
  0
VISUALSTYLE
  5
3A
102
{ACAD_REACTORS
330
2A
102
}
330
2A
100
AcDbVisualStyle
  2

 70
    16
177
     2
291
     1
 71
     2
176
     1
 72
     2
176
     1
 73
     3
176
     1
 90
        0
176
     1
 40
0.6
176
     1
 41
30.0
176
     1
 63
     8
421
  8421504
176
     1
 74
     1
176
     1
 91
        4
176
     1
 64
     7
176
     1
 65
   257
176
     1
 75
     1
176
     1
175
     1
176
     1
 42
1.0
176
     1
 92
        8
176
     1
 66
     8
424
  8421504
176
     1
 43
1.0
176
     1
 76
     1
176
     1
 77
     6
176
     1
 78
     2
176
     1
 67
     7
176
     1
 79
     5
176
     1
170
     0
176
     1
171
     0
176
     1
290
     0
176
     1
 93
        1
176
     1
 44
0.0
176
     1
173
     0
176
     1
1001
ACAD
1000
AcDbSavedByObjectVersion
1070
     0
  0
VISUALSTYLE
  5
34
102
{ACAD_REACTORS
330
2A
102
}
330
2A
100
AcDbVisualStyle
  2

 70
     9
177
     2
291
     0
 71
     3
176
     1
 72
     2
176
     1
 73
     0
176
     1
 90
        0
176
     1
 40
0.6
176
     1
 41
30.0
176
     1
 63
     7
421
 16777215
176
     1
 74
     2
176
     1
 91
        2
176
     1
 64
     7
176
     1
 65
   257
176
     1
 75
     1
176
     1
175
     1
176
     1
 42
40.0
176
     1
 92
        8
176
     1
 66
     7
176
     1
 43
1.0
176
     1
 76
     1
176
     1
 77
     6
176
     1
 78
     2
176
     1
 67
     7
176
     1
 79
     3
176
     1
170
     0
176
     1
171
     0
176
     1
290
     0
176
     1
 93
        1
176
     1
 44
0.0
176
     1
173
     0
176
     1
1001
ACAD
1000
AcDbSavedByObjectVersion
1070
     0
  0
VISUALSTYLE
  5
35
102
{ACAD_REACTORS
330
2A
102
}
330
2A
100
AcDbVisualStyle
  2

 70
    11
177
     2
291
     1
 71
     2
176
     1
 72
     2
176
     1
 73
     0
176
     1
 90
        0
176
     1
 40
0.6
176
     1
 41
30.0
176
     1
 63
     7
421
 16777215
176
     1
 74
     1
176
     1
 91
        4
176
     1
 64
     7
176
     1
 65
   257
176
     1
 75
     1
176
     1
175
     1
176
     1
 42
1.0
176
     1
 92
        8
176
     1
 66
     7
176
     1
 43
1.0
176
     1
 76
     1
176
     1
 77
     6
176
     1
 78
     2
176
     1
 67
     7
176
     1
 79
     5
176
     1
170
     0
176
     1
171
     0
176
     1
290
     0
176
     1
 93
        1
176
     1
 44
-50.0
176
     1
173
     0
176
     1
1001
ACAD
1000
AcDbSavedByObjectVersion
1070
     0
  0
VISUALSTYLE
  5
1E7
102
{ACAD_REACTORS
330
2A
102
}
330
2A
100
AcDbVisualStyle
  2
EdgeColorOff
 70
    22
177
     2
291
     1
 71
     2
176
     0
 72
     2
176
     0
 73
     0
176
     0
 90
        0
176
     0
 40
0.6
176
     0
 41
30.0
176
     0
 63
     7
421
 16777215
176
     0
 74
     1
176
     0
 91
        4
176
     0
 64
     7
176
     0
 65
   257
176
     0
 75
     1
176
     0
175
     1
176
     0
 42
1.0
176
     0
 92
        8
176
     2
 66
     7
176
     0
 43
1.0
176
     0
 76
     1
176
     0
 77
     6
176
     0
 78
     2
176
     0
 67
     7
176
     0
 79
     5
176
     0
170
     0
176
     0
171
     0
176
     0
290
     0
176
     0
 93
        1
176
     0
 44
0.0
176
     0
173
     0
176
     0
  0
VISUALSTYLE
  5
39
102
{ACAD_REACTORS
330
2A
102
}
330
2A
100
AcDbVisualStyle
  2

 70
    15
177
     2
291
     1
 71
     2
176
     1
 72
     2
176
     1
 73
     0
176
     1
 90
        0
176
     1
 40
0.6
176
     1
 41
30.0
176
     1
 63
     7
421
 16777215
176
     1
 74
     1
176
     1
 91
        4
176
     1
 64
     7
176
     1
 65
   257
176
     1
 75
     1
176
     1
175
     1
176
     1
 42
1.0
176
     1
 92
        8
176
     1
 66
     7
176
     1
 43
1.0
176
     1
 76
     1
176
     1
 77
     6
176
     1
 78
     2
176
     1
 67
     7
176
     1
 79
     5
176
     1
170
     0
176
     1
171
     0
176
     1
290
     0
176
     1
 93
        1
176
     1
 44
0.0
176
     1
173
     0
176
     1
1001
ACAD
1000
AcDbSavedByObjectVersion
1070
     0
  0
VISUALSTYLE
  5
2B
102
{ACAD_REACTORS
330
2A
102
}
330
2A
100
AcDbVisualStyle
  2

 70
     0
177
     2
291
     1
 71
     2
176
     1
 72
     1
176
     1
 73
     1
176
     1
 90
        2
176
     1
 40
0.6
176
     1
 41
30.0
176
     1
 63
     7
421
 16777215
176
     1
 74
     0
176
     1
 91
        4
176
     1
 64
     7
176
     1
 65
   257
176
     1
 75
     1
176
     1
175
     1
176
     1
 42
1.0
176
     1
 92
        8
176
     1
 66
     7
176
     1
 43
1.0
176
     1
 76
     1
176
     1
 77
     6
176
     1
 78
     2
176
     1
 67
     7
176
     1
 79
     5
176
     1
170
     0
176
     1
171
     0
176
     1
290
     0
176
     1
 93
       13
176
     1
 44
0.0
176
     1
173
     0
176
     1
1001
ACAD
1000
AcDbSavedByObjectVersion
1070
     0
  0
VISUALSTYLE
  5
2C
102
{ACAD_REACTORS
330
2A
102
}
330
2A
100
AcDbVisualStyle
  2

 70
     1
177
     2
291
     1
 71
     2
176
     1
 72
     1
176
     1
 73
     1
176
     1
 90
        2
176
     1
 40
0.6
176
     1
 41
30.0
176
     1
 63
     7
421
 16777215
176
     1
 74
     1
176
     1
 91
        4
176
     1
 64
     7
176
     1
 65
   257
176
     1
 75
     1
176
     1
175
     1
176
     1
 42
1.0
176
     1
 92
        0
176
     1
 66
   257
176
     1
 43
1.0
176
     1
 76
     1
176
     1
 77
     6
176
     1
 78
     2
176
     1
 67
     7
176
     1
 79
     5
176
     1
170
     0
176
     1
171
     0
176
     1
290
     0
176
     1
 93
       13
176
     1
 44
0.0
176
     1
173
     0
176
     1
1001
ACAD
1000
AcDbSavedByObjectVersion
1070
     0
  0
VISUALSTYLE
  5
2D
102
{ACAD_REACTORS
330
2A
102
}
330
2A
100
AcDbVisualStyle
  2

 70
     2
177
     2
291
     1
 71
     2
176
     1
 72
     2
176
     1
 73
     1
176
     1
 90
        2
176
     1
 40
0.6
176
     1
 41
30.0
176
     1
 63
     7
421
 16777215
176
     1
 74
     0
176
     1
 91
        4
176
     1
 64
     7
176
     1
 65
   257
176
     1
 75
     1
176
     1
175
     1
176
     1
 42
1.0
176
     1
 92
        0
176
     1
 66
     7
176
     1
 43
1.0
176
     1
 76
     1
176
     1
 77
     6
176
     1
 78
     2
176
     1
 67
     7
176
     1
 79
     5
176
     1
170
     0
176
     1
171
     0
176
     1
290
     0
176
     1
 93
       13
176
     1
 44
0.0
176
     1
173
     0
176
     1
1001
ACAD
1000
AcDbSavedByObjectVersion
1070
     0
  0
VISUALSTYLE
  5
2E
102
{ACAD_REACTORS
330
2A
102
}
330
2A
100
AcDbVisualStyle
  2

 70
     3
177
     2
291
     1
 71
     2
176
     1
 72
     2
176
     1
 73
     1
176
     1
 90
        2
176
     1
 40
0.6
176
     1
 41
30.0
176
     1
 63
     7
421
 16777215
176
     1
 74
     1
176
     1
 91
        4
176
     1
 64
     7
176
     1
 65
   257
176
     1
 75
     1
176
     1
175
     1
176
     1
 42
1.0
176
     1
 92
        0
176
     1
 66
   257
176
     1
 43
1.0
176
     1
 76
     1
176
     1
 77
     6
176
     1
 78
     2
176
     1
 67
     7
176
     1
 79
     5
176
     1
170
     0
176
     1
171
     0
176
     1
290
     0
176
     1
 93
       13
176
     1
 44
0.0
176
     1
173
     0
176
     1
1001
ACAD
1000
AcDbSavedByObjectVersion
1070
     0
  0
VISUALSTYLE
  5
1DF
102
{ACAD_REACTORS
330
2A
102
}
330
2A
100
AcDbVisualStyle
  2
Hidden
 70
     6
177
     2
291
     0
 71
     1
176
     1
 72
     2
176
     1
 73
     2
176
     1
 90
        0
176
     1
 40
0.6
176
     1
 41
30.0
176
     1
 63
     7
421
 16777215
176
     1
 74
     2
176
     1
 91
        2
176
     1
 64
     7
176
     1
 65
   257
176
     1
 75
     2
176
     1
175
     1
176
     1
 42
40.0
176
     1
 92
        0
176
     1
 66
   257
176
     1
 43
1.0
176
     1
 76
     1
176
     1
 77
     6
176
     1
 78
     2
176
     1
 67
     7
176
     1
 79
     3
176
     1
170
     0
176
     1
171
     0
176
     1
290
     0
176
     1
 93
        1
176
     1
 44
0.0
176
     1
173
     0
176
     1
  0
VISUALSTYLE
  5
1E5
102
{ACAD_REACTORS
330
2A
102
}
330
2A
100
AcDbVisualStyle
  2
JitterOff
 70
    20
177
     2
291
     1
 71
     2
176
     0
 72
     2
176
     0
 73
     0
176
     0
 90
        0
176
     0
 40
0.6
176
     0
 41
30.0
176
     0
 63
     7
421
 16777215
176
     0
 74
     1
176
     0
 91
        4
176
     0
 64
     7
176
     0
 65
   257
176
     0
 75
     1
176
     0
175
     1
176
     0
 42
1.0
176
     0
 92
       10
176
     2
 66
     7
176
     0
 43
1.0
176
     0
 76
     1
176
     0
 77
     6
176
     0
 78
     2
176
     0
 67
     7
176
     0
 79
     5
176
     0
170
     0
176
     0
171
     0
176
     0
290
     0
176
     0
 93
        1
176
     0
 44
0.0
176
     0
173
     0
176
     0
  0
VISUALSTYLE
  5
38
102
{ACAD_REACTORS
330
2A
102
}
330
2A
100
AcDbVisualStyle
  2

 70
    14
177
     2
291
     1
 71
     2
176
     1
 72
     2
176
     1
 73
     0
176
     1
 90
        0
176
     1
 40
0.6
176
     1
 41
30.0
176
     1
 63
     7
421
 16777215
176
     1
 74
     1
176
     1
 91
        4
176
     1
 64
     7
176
     1
 65
   257
176
     1
 75
     7
176
     1
175
     7
176
     1
 42
1.0
176
     1
 92
        8
176
     1
 66
     7
176
     1
 43
1.0
176
     1
 76
     1
176
     1
 77
     6
176
     1
 78
     2
176
     1
 67
     7
176
     1
 79
     5
176
     1
170
     0
176
     1
171
     0
176
     1
290
     0
176
     1
 93
        1
176
     1
 44
0.0
176
     1
173
     0
176
     1
1001
ACAD
1000
AcDbSavedByObjectVersion
1070
     0
  0
VISUALSTYLE
  5
1E6
102
{ACAD_REACTORS
330
2A
102
}
330
2A
100
AcDbVisualStyle
  2
OverhangOff
 70
    21
177
     2
291
     1
 71
     2
176
     0
 72
     2
176
     0
 73
     0
176
     0
 90
        0
176
     0
 40
0.6
176
     0
 41
30.0
176
     0
 63
     7
421
 16777215
176
     0
 74
     1
176
     0
 91
        4
176
     0
 64
     7
176
     0
 65
   257
176
     0
 75
     1
176
     0
175
     1
176
     0
 42
1.0
176
     0
 92
        9
176
     2
 66
     7
176
     0
 43
1.0
176
     0
 76
     1
176
     0
 77
     6
176
     0
 78
     2
176
     0
 67
     7
176
     0
 79
     5
176
     0
170
     0
176
     0
171
     0
176
     0
290
     0
176
     0
 93
        1
176
     0
 44
0.0
176
     0
173
     0
176
     0
  0
VISUALSTYLE
  5
33
102
{ACAD_REACTORS
330
2A
102
}
330
2A
100
AcDbVisualStyle
  2

 70
     8
177
     2
291
     0
 71
     2
176
     1
 72
     2
176
     1
 73
     0
176
     1
 90
        0
176
     1
 40
0.6
176
     1
 41
30.0
176
     1
 63
     7
421
 16777215
176
     1
 74
     1
176
     1
 91
        0
176
     1
 64
     7
176
     1
 65
   257
176
     1
 75
     1
176
     1
175
     1
176
     1
 42
1.0
176
     1
 92
        8
176
     1
 66
     8
424
  7895160
176
     1
 43
1.0
176
     1
 76
     1
176
     1
 77
     6
176
     1
 78
     2
176
     1
 67
     7
176
     1
 79
     5
176
     1
170
     0
176
     1
171
     0
176
     1
290
     0
176
     1
 93
       13
176
     1
 44
0.0
176
     1
173
     0
176
     1
1001
ACAD
1000
AcDbSavedByObjectVersion
1070
     0
  0
VISUALSTYLE
  5
1E4
102
{ACAD_REACTORS
330
2A
102
}
330
2A
100
AcDbVisualStyle
  2
Shaded
 70
    27
177
     2
291
     0
 71
     2
176
     1
 72
     2
176
     1
 73
     1
176
     1
 90
        2
176
     1
 40
0.6
176
     1
 41
30.0
176
     1
 63
     7
421
 16777215
176
     1
 74
     0
176
     1
 91
        4
176
     1
 64
     7
176
     1
 65
   257
176
     1
 75
     1
176
     1
175
     1
176
     1
 42
1.0
176
     1
 92
        8
176
     1
 66
   257
176
     1
 43
1.0
176
     1
 76
     1
176
     1
 77
     6
176
     1
 78
     2
176
     1
 67
     8
425
  7895160
176
     1
 79
     3
176
     1
170
     0
176
     1
171
     0
176
     1
290
     0
176
     1
 93
        5
176
     1
 44
0.0
176
     1
173
     0
176
     1
  0
VISUALSTYLE
  5
1E3
102
{ACAD_REACTORS
330
2A
102
}
330
2A
100
AcDbVisualStyle
  2
Shaded with edges
 70
    26
177
     2
291
     0
 71
     2
176
     1
 72
     2
176
     1
 73
     1
176
     1
 90
        2
176
     1
 40
0.6
176
     1
 41
30.0
176
     1
 63
     7
421
 16777215
176
     1
 74
     1
176
     1
 91
       10
176
     1
 64
     7
176
     1
 65
   257
176
     1
 75
     2
176
     1
175
     1
176
     1
 42
1.0
176
     1
 92
        8
176
     1
 66
   257
176
     1
 43
1.0
176
     1
 76
     1
176
     1
 77
     6
176
     1
 78
     2
176
     1
 67
     7
176
     1
 79
     3
176
     1
170
     0
176
     1
171
     0
176
     1
290
     0
176
     1
 93
        5
176
     1
 44
0.0
176
     1
173
     0
176
     1
  0
VISUALSTYLE
  5
1E0
102
{ACAD_REACTORS
330
2A
102
}
330
2A
100
AcDbVisualStyle
  2
Shades of Gray
 70
    23
177
     2
291
     0
 71
     2
176
     1
 72
     2
176
     1
 73
     3
176
     1
 90
        0
176
     1
 40
0.6
176
     1
 41
30.0
176
     1
 63
     7
421
 16777215
176
     1
 74
     2
176
     1
 91
        2
176
     1
 64
     7
176
     1
 65
     7
176
     1
 75
     1
176
     1
175
     1
176
     1
 42
40.0
176
     1
 92
        8
176
     1
 66
     7
176
     1
 43
1.0
176
     1
 76
     1
176
     1
 77
     6
176
     1
 78
     2
176
     1
 67
     7
176
     1
 79
     3
176
     1
170
     0
176
     1
171
     0
176
     1
290
     0
176
     1
 93
        1
176
     1
 44
0.0
176
     1
173
     0
176
     1
  0
VISUALSTYLE
  5
1E1
102
{ACAD_REACTORS
330
2A
102
}
330
2A
100
AcDbVisualStyle
  2
Sketchy
 70
    24
177
     2
291
     0
 71
     1
176
     1
 72
     2
176
     1
 73
     2
176
     1
 90
        0
176
     1
 40
0.6
176
     1
 41
30.0
176
     1
 63
     7
421
 16777215
176
     1
 74
     2
176
     1
 91
        2
176
     1
 64
     7
176
     1
 65
     7
176
     1
 75
     1
176
     1
175
     1
176
     1
 42
40.0
176
     1
 92
       11
176
     1
 66
     7
176
     1
 43
1.0
176
     1
 76
     1
176
     1
 77
     6
176
     1
 78
     2
176
     1
 67
     7
176
     1
 79
     6
176
     1
170
     0
176
     1
171
     0
176
     1
290
     0
176
     1
 93
        1
176
     1
 44
0.0
176
     1
173
     0
176
     1
  0
VISUALSTYLE
  5
37
102
{ACAD_REACTORS
330
2A
102
}
330
2A
100
AcDbVisualStyle
  2

 70
    13
177
     2
291
     1
 71
     2
176
     1
 72
     2
176
     1
 73
     0
176
     1
 90
        0
176
     1
 40
0.6
176
     1
 41
30.0
176
     1
 63
     7
421
 16777215
176
     1
 74
     1
176
     1
 91
        4
176
     1
 64
     7
176
     1
 65
   257
176
     1
 75
     1
176
     1
175
     1
176
     1
 42
1.0
176
     1
 92
       12
176
     1
 66
     7
176
     1
 43
1.0
176
     1
 76
     1
176
     1
 77
     6
176
     1
 78
     2
176
     1
 67
     7
176
     1
 79
     5
176
     1
170
     0
176
     1
171
     0
176
     1
290
     0
176
     1
 93
        1
176
     1
 44
0.0
176
     1
173
     0
176
     1
1001
ACAD
1000
AcDbSavedByObjectVersion
1070
     0
  0
VISUALSTYLE
  5
1DE
102
{ACAD_REACTORS
330
2A
102
}
330
2A
100
AcDbVisualStyle
  2
Wireframe
 70
     5
177
     2
291
     0
 71
     0
176
     1
 72
     2
176
     1
 73
     0
176
     1
 90
        0
176
     1
 40
0.6
176
     1
 41
30.0
176
     1
 63
     7
421
 16777215
176
     1
 74
     1
176
     1
 91
        4
176
     1
 64
     7
176
     1
 65
   257
176
     1
 75
     1
176
     1
175
     1
176
     1
 42
1.0
176
     1
 92
        0
176
     1
 66
   257
176
     1
 43
1.0
176
     1
 76
     1
176
     1
 77
     6
176
     1
 78
     2
176
     1
 67
     7
176
     1
 79
     3
176
     1
170
     0
176
     1
171
     0
176
     1
290
     0
176
     1
 93
        1
176
     1
 44
0.0
176
     1
173
     0
176
     1
  0
VISUALSTYLE
  5
1E2
102
{ACAD_REACTORS
330
2A
102
}
330
2A
100
AcDbVisualStyle
  2
X-Ray
 70
    25
177
     2
291
     0
 71
     2
176
     1
 72
     2
176
     1
 73
     1
176
     1
 90
        1
176
     1
 40
0.5
176
     1
 41
30.0
176
     1
 63
     7
421
 16777215
176
     1
 74
     1
176
     1
 91
        0
176
     1
 64
     7
176
     1
 65
   257
176
     1
 75
     1
176
     1
175
     1
176
     1
 42
1.0
176
     1
 92
        8
176
     1
 66
     7
176
     1
 43
1.0
176
     1
 76
     1
176
     1
 77
     6
176
     1
 78
     2
176
     1
 67
     7
176
     1
 79
     3
176
     1
170
     0
176
     1
171
     0
176
     1
290
     0
176
     1
 93
       13
176
     1
 44
0.0
176
     1
173
     0
176
     1
  0
DICTIONARYVAR
  5
3E7
102
{ACAD_REACTORS
330
3E3
102
}
330
3E3
100
DictionaryVariables
280
     0
  1
1:1
  0
DICTIONARYVAR
  5
3E5
102
{ACAD_REACTORS
330
3E3
102
}
330
3E3
100
DictionaryVariables
280
     0
  1
STANDARD
  0
DICTIONARYVAR
  5
3E4
102
{ACAD_REACTORS
330
3E3
102
}
330
3E3
100
DictionaryVariables
280
     0
  1
STANDARD
  0
DICTIONARYVAR
  5
3E9
102
{ACAD_REACTORS
330
3E3
102
}
330
3E3
100
DictionaryVariables
280
     0
  1
1
  0
DICTIONARYVAR
  5
3EA
102
{ACAD_REACTORS
330
3E3
102
}
330
3E3
100
DictionaryVariables
280
     0
  1
15
  0
DICTIONARYVAR
  5
3E8
102
{ACAD_REACTORS
330
3E3
102
}
330
3E3
100
DictionaryVariables
280
     0
  1
0
  0
DICTIONARYVAR
  5
3E6
102
{ACAD_REACTORS
330
3E3
102
}
330
3E3
100
DictionaryVariables
280
     0
  1
0
  0
DICTIONARY
  5
231
102
{ACAD_REACTORS
330
22A
102
}
330
22A
100
AcDbDictionary
281
     1
  0
DICTIONARY
  5
1D6
330
3D
100
AcDbDictionary
280
     1
281
     1
  3
ACAD_XREC_ROUNDTRIP
360
1D7
  0
DICTIONARY
  5
1D4
330
3C
100
AcDbDictionary
280
     1
281
     1
  3
ACAD_XREC_ROUNDTRIP
360
1D5
  0
DICTIONARY
  5
1D8
330
3E
100
AcDbDictionary
280
     1
281
     1
  3
ACAD_XREC_ROUNDTRIP
360
1D9
  0
DICTIONARY
  5
3EB
330
1E9
100
AcDbDictionary
280
     1
281
     1
  3
ACAD_ROUNDTRIP_2008_TABLESTYLE_CELLSTYLEMAP
360
3EC
  0
XRECORD
  5
1D7
102
{ACAD_REACTORS
330
1D6
102
}
330
1D6
100
AcDbXrecord
280
     1
102
MATERIAL
148
0.0
149
0.0
149
0.0
 93
        0
 94
      127
282
     0
 72
     1
 77
     1
171
     1
175
     1
179
     1
273
     0
  0
XRECORD
  5
1D5
102
{ACAD_REACTORS
330
1D4
102
}
330
1D4
100
AcDbXrecord
280
     1
102
MATERIAL
148
0.0
149
0.0
149
0.0
 93
        0
 94
      127
282
     0
 72
     1
 77
     1
171
     1
175
     1
179
     1
273
     0
  0
XRECORD
  5
1D9
102
{ACAD_REACTORS
330
1D8
102
}
330
1D8
100
AcDbXrecord
280
     1
102
MATERIAL
148
0.0
149
0.0
149
0.0
 93
        0
 94
      127
282
     0
 72
     1
 77
     1
171
     1
175
     1
179
     1
273
     0
  0
CELLSTYLEMAP
  5
3EC
102
{ACAD_REACTORS
330
3EB
102
}
330
3EB
100
AcDbCellStyleMap
 90
        3
300
CELLSTYLE
  1
TABLEFORMAT_BEGIN
 90
        5
170
     1
 91
        0
 92
    32768
 62
   257
 93
        1
300
CONTENTFORMAT
  1
CONTENTFORMAT_BEGIN
 90
        0
 91
        0
 92
      512
 93
        0
300

 40
0.0
140
1.0
 94
        5
 62
     0
340
11
144
6.0
309
CONTENTFORMAT_END
171
     1
301
MARGIN
  1
CELLMARGIN_BEGIN
 40
1.5
 40
1.5
 40
1.5
 40
1.5
 40
4.5
 40
4.5
309
CELLMARGIN_END
 94
        6
 95
        1
302
GRIDFORMAT
  1
GRIDFORMAT_BEGIN
 90
        0
 91
        1
 62
     0
 92
       -2
340
0
 93
        0
 40
1.125
309
GRIDFORMAT_END
 95
        2
302
GRIDFORMAT
  1
GRIDFORMAT_BEGIN
 90
        0
 91
        1
 62
     0
 92
       -2
340
0
 93
        0
 40
1.125
309
GRIDFORMAT_END
 95
        4
302
GRIDFORMAT
  1
GRIDFORMAT_BEGIN
 90
        0
 91
        1
 62
     0
 92
       -2
340
0
 93
        0
 40
1.125
309
GRIDFORMAT_END
 95
        8
302
GRIDFORMAT
  1
GRIDFORMAT_BEGIN
 90
        0
 91
        1
 62
     0
 92
       -2
340
0
 93
        0
 40
1.125
309
GRIDFORMAT_END
 95
       16
302
GRIDFORMAT
  1
GRIDFORMAT_BEGIN
 90
        0
 91
        1
 62
     0
 92
       -2
340
0
 93
        0
 40
1.125
309
GRIDFORMAT_END
 95
       32
302
GRIDFORMAT
  1
GRIDFORMAT_BEGIN
 90
        0
 91
        1
 62
     0
 92
       -2
340
0
 93
        0
 40
1.125
309
GRIDFORMAT_END
309
TABLEFORMAT_END
  1
CELLSTYLE_BEGIN
 90
        1
 91
        1
300
_TITLE
309
CELLSTYLE_END
300
CELLSTYLE
  1
TABLEFORMAT_BEGIN
 90
        5
170
     1
 91
        0
 92
        0
 62
   257
 93
        1
300
CONTENTFORMAT
  1
CONTENTFORMAT_BEGIN
 90
        0
 91
        0
 92
      512
 93
        0
300

 40
0.0
140
1.0
 94
        5
 62
     0
340
11
144
4.5
309
CONTENTFORMAT_END
171
     1
301
MARGIN
  1
CELLMARGIN_BEGIN
 40
1.5
 40
1.5
 40
1.5
 40
1.5
 40
4.5
 40
4.5
309
CELLMARGIN_END
 94
        6
 95
        1
302
GRIDFORMAT
  1
GRIDFORMAT_BEGIN
 90
        0
 91
        1
 62
     0
 92
       -2
340
0
 93
        0
 40
1.125
309
GRIDFORMAT_END
 95
        2
302
GRIDFORMAT
  1
GRIDFORMAT_BEGIN
 90
        0
 91
        1
 62
     0
 92
       -2
340
0
 93
        0
 40
1.125
309
GRIDFORMAT_END
 95
        4
302
GRIDFORMAT
  1
GRIDFORMAT_BEGIN
 90
        0
 91
        1
 62
     0
 92
       -2
340
0
 93
        0
 40
1.125
309
GRIDFORMAT_END
 95
        8
302
GRIDFORMAT
  1
GRIDFORMAT_BEGIN
 90
        0
 91
        1
 62
     0
 92
       -2
340
0
 93
        0
 40
1.125
309
GRIDFORMAT_END
 95
       16
302
GRIDFORMAT
  1
GRIDFORMAT_BEGIN
 90
        0
 91
        1
 62
     0
 92
       -2
340
0
 93
        0
 40
1.125
309
GRIDFORMAT_END
 95
       32
302
GRIDFORMAT
  1
GRIDFORMAT_BEGIN
 90
        0
 91
        1
 62
     0
 92
       -2
340
0
 93
        0
 40
1.125
309
GRIDFORMAT_END
309
TABLEFORMAT_END
  1
CELLSTYLE_BEGIN
 90
        2
 91
        1
300
_HEADER
309
CELLSTYLE_END
300
CELLSTYLE
  1
TABLEFORMAT_BEGIN
 90
        5
170
     1
 91
        0
 92
        0
 62
   257
 93
        1
300
CONTENTFORMAT
  1
CONTENTFORMAT_BEGIN
 90
        0
 91
        0
 92
      512
 93
        0
300

 40
0.0
140
1.0
 94
        2
 62
     0
340
11
144
4.5
309
CONTENTFORMAT_END
171
     1
301
MARGIN
  1
CELLMARGIN_BEGIN
 40
1.5
 40
1.5
 40
1.5
 40
1.5
 40
4.5
 40
4.5
309
CELLMARGIN_END
 94
        6
 95
        1
302
GRIDFORMAT
  1
GRIDFORMAT_BEGIN
 90
        0
 91
        1
 62
     0
 92
       -2
340
0
 93
        0
 40
1.125
309
GRIDFORMAT_END
 95
        2
302
GRIDFORMAT
  1
GRIDFORMAT_BEGIN
 90
        0
 91
        1
 62
     0
 92
       -2
340
0
 93
        0
 40
1.125
309
GRIDFORMAT_END
 95
        4
302
GRIDFORMAT
  1
GRIDFORMAT_BEGIN
 90
        0
 91
        1
 62
     0
 92
       -2
340
0
 93
        0
 40
1.125
309
GRIDFORMAT_END
 95
        8
302
GRIDFORMAT
  1
GRIDFORMAT_BEGIN
 90
        0
 91
        1
 62
     0
 92
       -2
340
0
 93
        0
 40
1.125
309
GRIDFORMAT_END
 95
       16
302
GRIDFORMAT
  1
GRIDFORMAT_BEGIN
 90
        0
 91
        1
 62
     0
 92
       -2
340
0
 93
        0
 40
1.125
309
GRIDFORMAT_END
 95
       32
302
GRIDFORMAT
  1
GRIDFORMAT_BEGIN
 90
        0
 91
        1
 62
     0
 92
       -2
340
0
 93
        0
 40
1.125
309
GRIDFORMAT_END
309
TABLEFORMAT_END
  1
CELLSTYLE_BEGIN
 90
        3
 91
        2
300
_DATA
309
CELLSTYLE_END
  0
ENDSEC
  0
EOF
