  0
SECTION
  2
HEADER
  9
$ACADVER
  1
AC1009
  9
$DWGCODEPAGE
  3
iso8859-1
  9
$INSBASE
 10
0.0
 20
0.0
 30
0.0
  9
$EXTMIN
 10
1.0E20
 20
1.0E20
  9
$EXTMAX
 10
-1.0E20
 20
-1.0E20
  9
$LIMMIN
 10
0.0
 20
0.0
  9
$LIMMAX
 10
12.0
 20
9.0
  9
$ORTHOMODE
 70
     0
  9
$REGENMODE
 70
     1
  9
$FILLMODE
 70
     1
  9
$QTEXTMODE
 70
     0
  9
$MIRRTEXT
 70
     1
  9
$DRAGMODE
 70
     2
  9
$LTSCALE
 40
15.0
  9
$OSMODE
 70
     0
  9
$ATTMODE
 70
     1
  9
$TEXTSIZE
 40
0.2
  9
$TRACEWID
 40
0.05
  9
$TEXTSTYLE
  7
STANDARD
  9
$CLAYER
  8
0
  9
$CELTYPE
  6
DASHED
  9
$CECOLOR
 62
   256
  9
$DIMSCALE
 40
1.0
  9
$DIMASZ
 40
0.18
  9
$DIMEXO
 40
0.0625
  9
$DIMDLI
 40
0.38
  9
$DIMRND
 40
0.0
  9
$DIMDLE
 40
0.0
  9
$DIMEXE
 40
0.18
  9
$DIMTP
 40
0.0
  9
$DIMTM
 40
0.0
  9
$DIMTXT
 40
0.18
  9
$DIMCEN
 40
0.09
  9
$DIMTSZ
 40
0.0
  9
$DIMTOL
 70
     0
  9
$DIMLIM
 70
     0
  9
$DIMTIH
 70
     1
  9
$DIMTOH
 70
     1
  9
$DIMSE1
 70
     0
  9
$DIMSE2
 70
     0
  9
$DIMTAD
 70
     0
  9
$DIMZIN
 70
     0
  9
$DIMBLK
  1

  9
$DIMASO
 70
     1
  9
$DIMSHO
 70
     1
  9
$DIMPOST
  1

  9
$DIMAPOST
  1

  9
$DIMALT
 70
     0
  9
$DIMALTD
 70
     2
  9
$DIMALTF
 40
25.4
  9
$DIMLFAC
 40
1.0
  9
$DIMTOFL
 70
     0
  9
$DIMTVP
 40
0.0
  9
$DIMTIX
 70
     0
  9
$DIMSOXD
 70
     0
  9
$DIMSAH
 70
     0
  9
$DIMBLK1
  1

  9
$DIMBLK2
  1

  9
$DIMSTYLE
  2
STANDARD
  9
$DIMCLRD
 70
     0
  9
$DIMCLRE
 70
     0
  9
$DIMCLRT
 70
     0
  9
$DIMTFAC
 40
1.0
  9
$DIMGAP
 40
0.09
  9
$LUNITS
 70
     2
  9
$LUPREC
 70
     4
  9
$AXISMODE
 70
     0
  9
$AXISUNIT
 10
0.0
 20
0.0
  9
$SKETCHINC
 40
0.1
  9
$FILLETRAD
 40
0.0
  9
$AUNITS
 70
     0
  9
$AUPREC
 70
     0
  9
$MENU
  1
acad
  9
$ELEVATION
 40
0.0
  9
$PELEVATION
 40
0.0
  9
$THICKNESS
 40
0.0
  9
$LIMCHECK
 70
     0
  9
$BLIPMODE
 70
     1
  9
$CHAMFERA
 40
0.0
  9
$CHAMFERB
 40
0.0
  9
$SKPOLY
 70
     0
  9
$TDCREATE
 40
0.000000000
  9
$TDUPDATE
 40
0.000000000
  9
$TDINDWG
 40
0.0
  9
$TDUSRTIMER
 40
0.0
  9
$USRTIMER
 70
     1
  9
$ANGBASE
 50
0.0
  9
$ANGDIR
 70
     0
  9
$PDMODE
 70
     0
  9
$PDSIZE
 40
0.0
  9
$PLINEWID
 40
0.0
  9
$COORDS
 70
     1
  9
$SPLFRAME
 70
     0
  9
$SPLINETYPE
 70
     6
  9
$SPLINESEGS
 70
     8
  9
$ATTDIA
 70
     0
  9
$ATTREQ
 70
     1
  9
$HANDLING
 70
     1
  9
$HANDSEED
  5
   7E6
  9
$SURFTAB1
 70
     6
  9
$SURFTAB2
 70
     6
  9
$SURFTYPE
 70
     6
  9
$SURFU
 70
     6
  9
$SURFV
 70
     6
  9
$UCSNAME
  2

  9
$UCSORG
 10
0.0
 20
0.0
 30
0.0
  9
$UCSXDIR
 10
1.0
 20
0.0
 30
0.0
  9
$UCSYDIR
 10
0.0
 20
1.0
 30
0.0
  9
$PUCSNAME
  2

  9
$PUCSORG
 10
0.0
 20
0.0
 30
0.0
  9
$PUCSXDIR
 10
1.0
 20
0.0
 30
0.0
  9
$PUCSYDIR
 10
0.0
 20
1.0
 30
0.0
  9
$USERI1
 70
     0
  9
$USERI2
 70
     0
  9
$USERI3
 70
     0
  9
$USERI4
 70
     0
  9
$USERI5
 70
     0
  9
$USERR1
 40
0.0
  9
$USERR2
 40
0.0
  9
$USERR3
 40
0.0
  9
$USERR4
 40
0.0
  9
$USERR5
 40
0.0
  9
$WORLDVIEW
 70
     1
  9
$SHADEDGE
 70
     3
  9
$SHADEDIF
 70
    70
  9
$TILEMODE
 70
     1
  9
$MAXACTVP
 70
    16
  9
$PINSBASE
 10
0.0
 20
0.0
 30
0.0
  9
$PLIMCHECK
 70
     0
  9
$PEXTMIN
 10
1.0E20
 20
1.0E20
 30
1.0E20
  9
$PEXTMAX
 10
-1.0E20
 20
-1.0E20
 30
-1.0E20
  9
$PLIMMIN
 10
0.0
 20
0.0
  9
$PLIMMAX
 10
12.0
 20
9.0
  9
$UNITMODE
 70
     0
  9
$VISRETAIN
 70
     0
  0
ENDSEC
  0
SECTION
  2
TABLES
  0
TABLE
  2
VPORT
 70
     1
  0
VPORT
  2
*ACTIVE
 70
     0
 10
0.0
 20
0.0
 11
1.0
 21
1.0
 12
6.801242
 22
4.5
 13
0.0
 23
0.0
 14
1.0
 24
1.0
 15
0.0
 25
0.0
 16
0.0
 26
0.0
 36
1.0
 17
0.0
 27
0.0
 37
0.0
 40
9.0
 41
1.511387
 42
50.0
 43
0.0
 44
0.0
 50
0.0
 51
0.0
 71
     0
 72
   100
 73
     1
 74
     1
 75
     0
 76
     0
 77
     0
 78
     0
  0
ENDTAB
  0
TABLE
  2
LTYPE
 70
    41
  0
LTYPE
  2
BYBLOCK
 70
     0
  3

 72
    65
 73
     0
 40
0.0
  0
LTYPE
  2
BYLAYER
 70
     0
  3

 72
    65
 73
     0
 40
0.0
  0
LTYPE
  2
CONTINUOUS
 70
     0
  3
Solid line
 72
    65
 73
     0
 40
0.0
  0
LTYPE
  2
BORDER
 70
    64
  3
__ __ . __ __ . __ __ . __ __ . __ __ . __ __ .
 72
    65
 73
     6
 40
1.75
 49
0.5
 49
-0.25
 49
0.5
 49
-0.25
 49
0.0
 49
-0.25
  0
LTYPE
  2
BORDER2
 70
    64
  3
__.__.__.__.__.__.__.__.__.__.__.__.__.__.__.__
 72
    65
 73
     6
 40
0.875
 49
0.25
 49
-0.125
 49
0.25
 49
-0.125
 49
0.0
 49
-0.125
  0
LTYPE
  2
BORDERX2
 70
    64
  3
____  ____  .  ____  ____  .  ____  ____  .  __
 72
    65
 73
     6
 40
3.5
 49
1.0
 49
-0.5
 49
1.0
 49
-0.5
 49
0.0
 49
-0.5
  0
LTYPE
  2
CENTER
 70
    64
  3
____ _ ____ _ ____ _ ____ _ ____ _ ____ _ ____
 72
    65
 73
     4
 40
2.0
 49
1.25
 49
-0.25
 49
0.25
 49
-0.25
  0
LTYPE
  2
CENTER2
 70
    64
  3
___ _ ___ _ ___ _ ___ _ ___ _ ___ _ ___ _ ___ _
 72
    65
 73
     4
 40
1.125
 49
0.75
 49
-0.125
 49
0.125
 49
-0.125
  0
LTYPE
  2
CENTERX2
 70
    64
  3
________  __  ________  __  ________  __  _____
 72
    65
 73
     4
 40
4.0
 49
2.5
 49
-0.5
 49
0.5
 49
-0.5
  0
LTYPE
  2
DASHDOT
 70
    64
  3
__ . __ . __ . __ . __ . __ . __ . __ . __ . __
 72
    65
 73
     4
 40
1.0
 49
0.5
 49
-0.25
 49
0.0
 49
-0.25
  0
LTYPE
  2
DASHDOT2
 70
    64
  3
_._._._._._._._._._._._._._._._._._._._._._._._
 72
    65
 73
     4
 40
0.5
 49
0.25
 49
-0.125
 49
0.0
 49
-0.125
  0
LTYPE
  2
DASHDOTX2
 70
    64
  3
____  .  ____  .  ____  .  ____  .  ____  .  __
 72
    65
 73
     4
 40
2.0
 49
1.0
 49
-0.5
 49
0.0
 49
-0.5
  0
LTYPE
  2
DASHED
 70
    64
  3
__ __ __ __ __ __ __ __ __ __ __ __ __ __ __ __
 72
    65
 73
     2
 40
0.75
 49
0.5
 49
-0.25
  0
LTYPE
  2
DASHED2
 70
    64
  3
_ _ _ _ _ _ _ _ _ _ _ _ _ _ _ _ _ _ _ _ _ _ _ _
 72
    65
 73
     2
 40
0.375
 49
0.25
 49
-0.125
  0
LTYPE
  2
DASHEDX2
 70
    64
  3
____  ____  ____  ____  ____  ____  ____  ____
 72
    65
 73
     2
 40
1.5
 49
1.0
 49
-0.5
  0
LTYPE
  2
DIVIDE
 70
    64
  3
____ . . ____ . . ____ . . ____ . . ____ . . __
 72
    65
 73
     6
 40
1.25
 49
0.5
 49
-0.25
 49
0.0
 49
-0.25
 49
0.0
 49
-0.25
  0
LTYPE
  2
DIVIDE2
 70
    64
  3
__..__..__..__..__..__..__..__..__..__..__..__.
 72
    65
 73
     6
 40
0.625
 49
0.25
 49
-0.125
 49
0.0
 49
-0.125
 49
0.0
 49
-0.125
  0
LTYPE
  2
DIVIDEX2
 70
    64
  3
________  .  .  ________  .  .  ________  .  .
 72
    65
 73
     6
 40
2.5
 49
1.0
 49
-0.5
 49
0.0
 49
-0.5
 49
0.0
 49
-0.5
  0
LTYPE
  2
DOT
 70
    64
  3
. . . . . . . . . . . . . . . . . . . . . . . .
 72
    65
 73
     2
 40
0.25
 49
0.0
 49
-0.25
  0
LTYPE
  2
DOT2
 70
    64
  3
...............................................
 72
    65
 73
     2
 40
0.125
 49
0.0
 49
-0.125
  0
LTYPE
  2
DOTX2
 70
    64
  3
.  .  .  .  .  .  .  .  .  .  .  .  .  .  .  .
 72
    65
 73
     2
 40
0.5
 49
0.0
 49
-0.5
  0
LTYPE
  2
HIDDEN
 70
    64
  3
__ __ __ __ __ __ __ __ __ __ __ __ __ __ __ __
 72
    65
 73
     2
 40
0.375
 49
0.25
 49
-0.125
  0
LTYPE
  2
HIDDEN2
 70
    64
  3
_ _ _ _ _ _ _ _ _ _ _ _ _ _ _ _ _ _ _ _ _ _ _ _
 72
    65
 73
     2
 40
0.1875
 49
0.125
 49
-0.0625
  0
LTYPE
  2
HIDDENX2
 70
    64
  3
____ ____ ____ ____ ____ ____ ____ ____ ____ __
 72
    65
 73
     2
 40
0.75
 49
0.5
 49
-0.25
  0
LTYPE
  2
PHANTOM
 70
    64
  3
______  __  __  ______  __  __  ______  __  __
 72
    65
 73
     6
 40
2.5
 49
1.25
 49
-0.25
 49
0.25
 49
-0.25
 49
0.25
 49
-0.25
  0
LTYPE
  2
PHANTOM2
 70
    64
  3
___ _ _ ___ _ _ ___ _ _ ___ _ _ ___ _ _ ___ _ _
 72
    65
 73
     6
 40
1.25
 49
0.625
 49
-0.125
 49
0.125
 49
-0.125
 49
0.125
 49
-0.125
  0
LTYPE
  2
PHANTOMX2
 70
    64
  3
____________    ____    ____    ____________
 72
    65
 73
     6
 40
5.0
 49
2.5
 49
-0.5
 49
0.5
 49
-0.5
 49
0.5
 49
-0.5
  0
LTYPE
  2
ACAD_ISO02W100
 70
    64
  3
__ __ __ __ __ __ __ __ __ __ __ __ __ __ __ __
 72
    65
 73
     2
 40
15.0
 49
12.0
 49
-3.0
  0
LTYPE
  2
ACAD_ISO03W100
 70
    64
  3
__    __    __    __    __    __    __    __
 72
    65
 73
     2
 40
30.0
 49
12.0
 49
-18.0
  0
LTYPE
  2
ACAD_ISO04W100
 70
    64
  3
____ . ____ . ____ . ____ . ____ . ____ . ____
 72
    65
 73
     4
 40
30.5
 49
24.0
 49
-3.0
 49
0.5
 49
-3.0
  0
LTYPE
  2
ACAD_ISO05W100
 70
    64
  3
____ .. ____ .. ____ .. ____ .. ____ .. ____ ..
 72
    65
 73
     6
 40
34.0
 49
24.0
 49
-3.0
 49
0.5
 49
-3.0
 49
0.5
 49
-3.0
  0
LTYPE
  2
ACAD_ISO06W100
 70
    64
  3
____ ... ____ ... ____ ... ____ ... ____ ... __
 72
    65
 73
     8
 40
37.5
 49
24.0
 49
-3.0
 49
0.5
 49
-3.0
 49
0.5
 49
-3.0
 49
0.5
 49
-3.0
  0
LTYPE
  2
ACAD_ISO07W100
 70
    64
  3
. . . . . . . . . . . . . . . . . . . . . . . .
 72
    65
 73
     2
 40
3.5
 49
0.5
 49
-3.0
  0
LTYPE
  2
ACAD_ISO08W100
 70
    64
  3
____ __ ____ __ ____ __ ____ ____ __ __ ____ __
 72
    65
 73
     4
 40
36.0
 49
24.0
 49
-3.0
 49
6.0
 49
-3.0
  0
LTYPE
  2
ACAD_ISO09W100
 70
    64
  3
____ __ __ ____ __ __ ____ __ __ ____ __ __ ___
 72
    65
 73
     6
 40
45.0
 49
24.0
 49
-3.0
 49
6.0
 49
-3.0
 49
6.0
 49
-3.0
  0
LTYPE
  2
ACAD_ISO10W100
 70
    64
  3
__ . __ . __ . __ . __ . __ . __ . __ . __ . __
 72
    65
 73
     4
 40
18.5
 49
12.0
 49
-3.0
 49
0.5
 49
-3.0
  0
LTYPE
  2
ACAD_ISO11W100
 70
    64
  3
__ __ . __ __ . __ __ . __ __ . __ __ . __ __ .
 72
    65
 73
     6
 40
33.5
 49
12.0
 49
-3.0
 49
12.0
 49
-3.0
 49
0.5
 49
-3.0
  0
LTYPE
  2
ACAD_ISO12W100
 70
    64
  3
__ . . __ . . __ . . __ . . __ . . __ . . __ .
 72
    65
 73
     6
 40
22.0
 49
12.0
 49
-3.0
 49
0.5
 49
-3.0
 49
0.5
 49
-3.0
  0
LTYPE
  2
ACAD_ISO13W100
 70
    64
  3
__ __ . . __ __ . . __ __ . . __ __ . . __ __ .
 72
    65
 73
     8
 40
37.0
 49
12.0
 49
-3.0
 49
12.0
 49
-3.0
 49
0.5
 49
-3.0
 49
0.5
 49
-3.0
  0
LTYPE
  2
ACAD_ISO14W100
 70
    64
  3
__ . . . __ . . . __ . . . __ . . . __ . . . __
 72
    65
 73
     8
 40
25.5
 49
12.0
 49
-3.0
 49
0.5
 49
-3.0
 49
0.5
 49
-3.0
 49
0.5
 49
-3.0
  0
LTYPE
  2
ACAD_ISO15W100
 70
    64
  3
__ __ . . . __ __ . . . __ __ . . . __ __ . . .
 72
    65
 73
    10
 40
40.5
 49
12.0
 49
-3.0
 49
12.0
 49
-3.0
 49
0.5
 49
-3.0
 49
0.5
 49
-3.0
 49
0.5
 49
-3.0
  0
ENDTAB
  0
TABLE
  2
STYLE
 70
     4
  0
STYLE
  2
STANDARD
 70
    64
 40
0.0
 41
1.0
 50
0.0
 71
     0
 42
0.2
  3
txt
  4

  0
STYLE
  2
TOLERANCE
 70
    64
 40
0.0
 41
1.0
 50
0.0
 71
     0
 42
0.2
  3
../igesfont/iges1003.shx
  4

  0
STYLE
  2
ROMANS
 70
    64
 40
0.0
 41
1.0
 50
0.0
 71
     0
 42
0.2
  3
romans.shx
  4

  0
STYLE
  2
ROMANC
 70
    64
 40
0.0
 41
1.0
 50
0.0
 71
     0
 42
0.2
  3
romanc.shx
  4

  0
ENDTAB
  0
TABLE
  2
DIMSTYLE
 70
     2
  0
DIMSTYLE
  2
UNNAMED
 70
     0
  3

  4

  5

  6

  7

 40
1.0
 41
0.18
 42
0.0625
 43
0.38
 44
0.18
 45
0.0
 46
0.0
 47
0.0
 48
0.0
140
0.18
141
0.09
142
0.0
143
25.4
144
1.0
145
0.0
146
1.0
147
0.09
 71
     0
 72
     0
 73
     1
 74
     1
 75
     0
 76
     0
 77
     0
 78
     0
170
     0
171
     2
172
     0
173
     0
174
     0
175
     0
176
     0
177
     0
178
     0
  0
DIMSTYLE
  2
STANDARD
 70
     0
  3

  4

  5

  6

  7

 40
1.0
 41
0.18
 42
0.0625
 43
0.38
 44
0.18
 45
0.0
 46
0.0
 47
0.0
 48
0.0
140
0.18
141
0.09
142
0.0
143
25.4
144
1.0
145
0.0
146
1.0
147
0.09
 71
     0
 72
     0
 73
     1
 74
     1
 75
     0
 76
     0
 77
     0
 78
     0
170
     0
171
     2
172
     0
173
     0
174
     0
175
     0
176
     0
177
     0
178
     0
  0
ENDTAB
  0
TABLE
  2
LAYER
 70
     2
  0
LAYER
  2
0
 70
     0
 62
     7
  6
CONTINUOUS
  0
LAYER
  2
255
 70
     0
 62
     7
  6
CONTINUOUS
  0
ENDTAB
  0
ENDSEC
  0
SECTION
  2
BLOCKS
  0
BLOCK
  5
     B
  8
0
  6
CONTINUOUS
 62
     7
  2
*UDIM400
 70
    65
 10
0.0
 20
0.0
 30
0.0
  3
*UDIM400
  0
TEXT
  5
     C
  8
0
  6
CONTINUOUS
 62
     7
 10
-516.464563381862
 20
-80.0311959005688
 30
0.0
 40
3.00000002980232
  1
52,25
 50
449.999999896069
 41
0.933333333333333
 72
     1
 11
-517.964563384652
 21
-73.3311958312988
 31
0.0
 73
     2
  0
LINE
  5
     D
  8
0
  6
CONTINUOUS
 62
     7
 10
-529.038961168616
 20
-82.9311981201172
 30
0.0
 11
-513.464563369751
 21
-82.9311981201172
 31
0.0
  0
LINE
  5
     E
  8
0
  6
CONTINUOUS
 62
     7
 10
-515.464563369751
 20
-66.6311957647403
 30
0.0
 11
-515.464563369751
 21
-95.9936981201172
 31
0.0
  0
LINE
  5
     F
  8
0
  6
CONTINUOUS
 62
     7
 10
-514.943618939799
 20
-85.8856213973242
 30
0.0
 11
-515.464563369751
 21
-82.9311981201172
 31
0.0
  0
LINE
  5
    10
  8
0
  6
CONTINUOUS
 62
     7
 10
-515.464563369751
 20
-82.9311981201172
 30
0.0
 11
-515.985507799703
 21
-85.8856213973242
 31
0.0
  0
LINE
  5
    11
  8
0
  6
CONTINUOUS
 62
     7
 10
-515.985507799703
 20
-93.0392748429102
 30
0.0
 11
-515.464563369751
 21
-95.9936981201172
 31
0.0
  0
LINE
  5
    12
  8
0
  6
CONTINUOUS
 62
     7
 10
-515.464563369751
 20
-95.9936981201172
 30
0.0
 11
-514.943618939799
 21
-93.0392748429102
 31
0.0
  0
ENDBLK
  5
    13
  8
0
  6
CONTINUOUS
 62
     7
  0
BLOCK
  5
    14
  8
0
  6
CONTINUOUS
 62
     7
  2
*UDIM401
 70
    65
 10
0.0
 20
0.0
 30
0.0
  3
*UDIM401
  0
TEXT
  5
    15
  8
0
  6
CONTINUOUS
 62
     7
 10
-596.268750900649
 20
-127.660485198509
 30
0.0
 40
3.00000002980232
  1
5
 50
392.704034205866
 41
0.933333333333334
 72
     1
 11
-596.153580239016
 21
-125.803946540834
 31
0.0
 73
     2
  0
TEXT
  5
    16
  8
0
  6
CONTINUOUS
 62
     7
 10
-598.919390041469
 20
-129.362428854373
 30
0.0
 40
3.00000002980232
  1
Ø
 50
392.704034205866
 41
0.933333333333334
 72
     1
 11
-598.804219379837
 21
-127.505890196698
 31
0.0
 73
     2
  0
TEXT
  5
    17
  8
0
  6
CONTINUOUS
 62
     7
 10
-593.954700841423
 20
-126.174661349876
 30
0.0
 40
3.00000002980232
  1
 (M4)
 50
392.704034205866
 41
0.933333333333333
 72
     1
 11
-589.12728278091
 21
-121.292445069781
 31
0.0
 73
     2
  0
LINE
  5
    18
  8
0
  6
CONTINUOUS
 62
     7
 10
-563.165241646585
 20
-107.593510887876
 30
0.0
 11
-598.379090466525
 21
-130.203901595045
 31
0.0
  0
LINE
  5
    19
  8
0
  6
CONTINUOUS
 62
     7
 10
-560.960641047347
 20
-105.558876719815
 30
0.0
 11
-563.165241646585
 21
-107.593510887876
 31
0.0
  0
LINE
  5
    1A
  8
0
  6
CONTINUOUS
 62
     7
 10
-563.165241646585
 20
-107.593510887876
 30
0.0
 11
-560.397708942701
 21
-106.435597794017
 31
0.0
  0
LINE
  5
    1B
  8
0
  6
CONTINUOUS
 62
     7
 10
-566.421683171403
 20
-110.303519520419
 30
0.0
 11
-564.217082572165
 21
-108.268885352359
 31
0.0
  0
LINE
  5
    1C
  8
0
  6
CONTINUOUS
 62
     7
 10
-564.217082572165
 20
-108.268885352359
 30
0.0
 11
-566.984615276049
 21
-109.426798446217
 31
0.0
  0
ENDBLK
  5
    1D
  8
0
  6
CONTINUOUS
 62
     7
  0
BLOCK
  5
    1E
  8
0
  6
CONTINUOUS
 62
     7
  2
*UDIM402
 70
    65
 10
0.0
 20
0.0
 30
0.0
  3
*UDIM402
  0
TEXT
  5
    1F
  8
0
  6
CONTINUOUS
 62
     7
 10
-534.466161755454
 20
-129.965270991571
 30
0.0
 40
3.00000002980232
  1
25
 50
359.999999896069
 41
0.933333333333333
 72
     1
 11
-531.966161727905
 21
-128.465270981193
 31
0.0
 73
     2
  0
LINE
  5
    20
  8
0
  6
CONTINUOUS
 62
     7
 10
-537.441162109375
 20
-113.7209037243
 30
0.0
 11
-537.441162109375
 21
-132.965270996094
 31
0.0
  0
LINE
  5
    21
  8
0
  6
CONTINUOUS
 62
     7
 10
-543.691162109375
 20
-128.009111771886
 30
0.0
 11
-543.691162109375
 21
-132.965270996094
 31
0.0
  0
LINE
  5
    22
  8
0
  6
CONTINUOUS
 62
     7
 10
-529.46616170307
 20
-130.965270996094
 30
0.0
 11
-543.691162109375
 21
-130.965270996094
 31
0.0
  0
LINE
  5
    23
  8
0
  6
CONTINUOUS
 62
     7
 10
-540.395585386582
 20
-131.486215426045
 30
0.0
 11
-537.441162109375
 21
-130.965270996094
 31
0.0
  0
LINE
  5
    24
  8
0
  6
CONTINUOUS
 62
     7
 10
-537.441162109375
 20
-130.965270996094
 30
0.0
 11
-540.395585386582
 21
-130.444326566142
 31
0.0
  0
LINE
  5
    25
  8
0
  6
CONTINUOUS
 62
     7
 10
-540.736738832168
 20
-130.444326566142
 30
0.0
 11
-543.691162109375
 21
-130.965270996094
 31
0.0
  0
LINE
  5
    26
  8
0
  6
CONTINUOUS
 62
     7
 10
-543.691162109375
 20
-130.965270996094
 30
0.0
 11
-540.736738832168
 21
-131.486215426045
 31
0.0
  0
ENDBLK
  5
    27
  8
0
  6
CONTINUOUS
 62
     7
  0
BLOCK
  5
    28
  8
0
  6
CONTINUOUS
 62
     7
  2
*UDIM403
 70
    65
 10
0.0
 20
0.0
 30
0.0
  3
*UDIM403
  0
TEXT
  5
    29
  8
0
  6
CONTINUOUS
 62
     7
 10
-556.466162142884
 20
-129.965270991571
 30
0.0
 40
3.00000002980232
  1
80
 50
359.999999896069
 41
0.933333333333333
 72
     1
 11
-553.966162115336
 21
-128.465270981193
 31
0.0
 73
     2
  0
LINE
  5
    2A
  8
0
  6
CONTINUOUS
 62
     7
 10
-563.691162109375
 20
-113.869231927827
 30
0.0
 11
-563.691162109375
 21
-132.965270996094
 31
0.0
  0
LINE
  5
    2B
  8
0
  6
CONTINUOUS
 62
     7
 10
-543.691162109375
 20
-130.965270996094
 30
0.0
 11
-563.691162109375
 21
-130.965270996094
 31
0.0
  0
LINE
  5
    2C
  8
0
  6
CONTINUOUS
 62
     7
 10
-546.645585386582
 20
-131.486215426045
 30
0.0
 11
-543.691162109375
 21
-130.965270996094
 31
0.0
  0
LINE
  5
    2D
  8
0
  6
CONTINUOUS
 62
     7
 10
-543.691162109375
 20
-130.965270996094
 30
0.0
 11
-546.645585386582
 21
-130.444326566142
 31
0.0
  0
LINE
  5
    2E
  8
0
  6
CONTINUOUS
 62
     7
 10
-560.736738832168
 20
-130.444326566142
 30
0.0
 11
-563.691162109375
 21
-130.965270996094
 31
0.0
  0
LINE
  5
    2F
  8
0
  6
CONTINUOUS
 62
     7
 10
-563.691162109375
 20
-130.965270996094
 30
0.0
 11
-560.736738832168
 21
-131.486215426045
 31
0.0
  0
ENDBLK
  5
    30
  8
0
  6
CONTINUOUS
 62
     7
  0
BLOCK
  5
    31
  8
0
  6
CONTINUOUS
 62
     7
  2
*UDIM404
 70
    65
 10
0.0
 20
0.0
 30
0.0
  3
*UDIM404
  0
TEXT
  5
    32
  8
0
  6
CONTINUOUS
 62
     7
 10
-580.858325965302
 20
-99.6062015022525
 30
0.0
 40
3.00000002980232
  1
100
 50
449.999999896069
 41
0.933333333333333
 72
     1
 11
-582.358325973153
 21
-95.706201460798
 31
0.0
 73
     2
  0
LINE
  5
    33
  8
0
  6
CONTINUOUS
 62
     7
 10
-563.522837741016
 20
-82.9311972179724
 30
0.0
 11
-581.858325958251
 21
-82.931180676708
 31
0.0
  0
LINE
  5
    34
  8
0
  6
CONTINUOUS
 62
     7
 10
-563.967822351597
 20
-107.931197185935
 30
0.0
 11
-581.858325958251
 21
-107.931180472945
 31
0.0
  0
LINE
  5
    35
  8
0
  6
CONTINUOUS
 62
     7
 10
-579.858325958252
 20
-82.9311824809975
 30
0.0
 11
-579.858325958252
 21
-107.93118234131
 31
0.0
  0
LINE
  5
    36
  8
0
  6
CONTINUOUS
 62
     7
 10
-579.3373815283
 20
-85.8856057582045
 30
0.0
 11
-579.858325958252
 21
-82.9311824809975
 31
0.0
  0
LINE
  5
    37
  8
0
  6
CONTINUOUS
 62
     7
 10
-579.858325958252
 20
-82.9311824809975
 30
0.0
 11
-580.379270388204
 21
-85.8856057582045
 31
0.0
  0
LINE
  5
    38
  8
0
  6
CONTINUOUS
 62
     7
 10
-580.379270388204
 20
-104.976759064103
 30
0.0
 11
-579.858325958252
 21
-107.93118234131
 31
0.0
  0
LINE
  5
    39
  8
0
  6
CONTINUOUS
 62
     7
 10
-579.858325958252
 20
-107.93118234131
 30
0.0
 11
-579.3373815283
 21
-104.976759064103
 31
0.0
  0
ENDBLK
  5
    3A
  8
0
  6
CONTINUOUS
 62
     7
  0
BLOCK
  5
    3B
  8
0
  6
CONTINUOUS
 62
     7
  2
*UDIM405
 70
    65
 10
0.0
 20
0.0
 30
0.0
  3
*UDIM405
  0
TEXT
  5
    3C
  8
0
  6
CONTINUOUS
 62
     7
 10
-547.866223172544
 20
106.146652225197
 30
0.0
 40
3.00000002980232
  1
117
 50
359.999999948034
 41
0.933333333333333
 72
     1
 11
-543.966223132448
 21
107.646652236581
 31
0.0
 73
     2
  0
LINE
  5
    3D
  8
0
  6
CONTINUOUS
 62
     7
 10
-514.441226315336
 20
67.4420423507671
 30
0.0
 11
-514.441226315336
 21
107.14665222168
 31
0.0
  0
LINE
  5
    3E
  8
0
  6
CONTINUOUS
 62
     7
 10
-572.941226315336
 20
67.4420423507671
 30
0.0
 11
-572.941226315336
 21
107.14665222168
 31
0.0
  0
LINE
  5
    3F
  8
0
  6
CONTINUOUS
 62
     7
 10
-514.441226315336
 20
105.14665222168
 30
0.0
 11
-572.941226315336
 21
105.14665222168
 31
0.0
  0
LINE
  5
    40
  8
0
  6
CONTINUOUS
 62
     7
 10
-517.395649592543
 20
104.625707791728
 30
0.0
 11
-514.441226315336
 21
105.14665222168
 31
0.0
  0
LINE
  5
    41
  8
0
  6
CONTINUOUS
 62
     7
 10
-514.441226315336
 20
105.14665222168
 30
0.0
 11
-517.395649592543
 21
105.667596651631
 31
0.0
  0
LINE
  5
    42
  8
0
  6
CONTINUOUS
 62
     7
 10
-569.986803038129
 20
105.667596651631
 30
0.0
 11
-572.941226315336
 21
105.14665222168
 31
0.0
  0
LINE
  5
    43
  8
0
  6
CONTINUOUS
 62
     7
 10
-572.941226315336
 20
105.14665222168
 30
0.0
 11
-569.986803038129
 21
104.625707791728
 31
0.0
  0
ENDBLK
  5
    44
  8
0
  6
CONTINUOUS
 62
     7
  0
BLOCK
  5
    45
  8
0
  6
CONTINUOUS
 62
     7
  2
*UDIM406
 70
    65
 10
0.0
 20
0.0
 30
0.0
  3
*UDIM406
  0
TEXT
  5
    46
  8
0
  6
CONTINUOUS
 62
     7
 10
-594.160731795982
 20
24.5982734517559
 30
0.0
 40
3.00000002980232
  1
161
 50
89.9999999480344
 41
0.933333333333333
 72
     1
 11
-595.660731807351
 21
28.4982734918575
 31
0.0
 73
     2
  0
LINE
  5
    47
  8
0
  6
CONTINUOUS
 62
     7
 10
-573.316226315336
 20
-13.4329557418843
 30
0.0
 11
-595.16073179245
 21
-13.4329557418843
 31
0.0
  0
LINE
  5
    48
  8
0
  6
CONTINUOUS
 62
     7
 10
-573.316226315336
 20
67.0670423507671
 30
0.0
 11
-595.16073179245
 21
67.0670423507671
 31
0.0
  0
LINE
  5
    49
  8
0
  6
CONTINUOUS
 62
     7
 10
-593.16073179245
 20
-13.4329557418843
 30
0.0
 11
-593.16073179245
 21
67.0670423507671
 31
0.0
  0
LINE
  5
    4A
  8
0
  6
CONTINUOUS
 62
     7
 10
-593.681676222402
 20
-10.4785324646773
 30
0.0
 11
-593.16073179245
 21
-13.4329557418843
 31
0.0
  0
LINE
  5
    4B
  8
0
  6
CONTINUOUS
 62
     7
 10
-593.16073179245
 20
-13.4329557418843
 30
0.0
 11
-592.639787362498
 21
-10.4785324646773
 31
0.0
  0
LINE
  5
    4C
  8
0
  6
CONTINUOUS
 62
     7
 10
-592.639787362498
 20
64.1126190735601
 30
0.0
 11
-593.16073179245
 21
67.0670423507671
 31
0.0
  0
LINE
  5
    4D
  8
0
  6
CONTINUOUS
 62
     7
 10
-593.16073179245
 20
67.0670423507671
 30
0.0
 11
-593.681676222402
 21
64.1126190735601
 31
0.0
  0
ENDBLK
  5
    4E
  8
0
  6
CONTINUOUS
 62
     7
  0
BLOCK
  5
    4F
  8
0
  6
CONTINUOUS
 62
     7
  2
*UDIM407
 70
    65
 10
0.0
 20
0.0
 30
0.0
  3
*UDIM407
  0
TEXT
  5
    50
  8
0
  6
CONTINUOUS
 62
     7
 10
-622.131439212517
 20
23.767039443684
 30
0.0
 40
3.00000002980232
  1
250
 50
89.9999999480344
 41
0.933333333333333
 72
     1
 11
-623.631439223886
 21
27.6670394837856
 31
0.0
 73
     2
  0
LINE
  5
    51
  8
0
  6
CONTINUOUS
 62
     7
 10
-587.816234943014
 20
-34.5579605102588
 30
0.0
 11
-623.131439208984
 21
-34.5579605102588
 31
0.0
  0
LINE
  5
    52
  8
0
  6
CONTINUOUS
 62
     7
 10
-587.816234943014
 20
90.442039489751
 30
0.0
 11
-623.131439208984
 21
90.442039489751
 31
0.0
  0
LINE
  5
    53
  8
0
  6
CONTINUOUS
 62
     7
 10
-621.131439208984
 20
-34.5579605102588
 30
0.0
 11
-621.131439208984
 21
90.442039489751
 31
0.0
  0
LINE
  5
    54
  8
0
  6
CONTINUOUS
 62
     7
 10
-621.652383638936
 20
-31.6035372330519
 30
0.0
 11
-621.131439208984
 21
-34.5579605102588
 31
0.0
  0
LINE
  5
    55
  8
0
  6
CONTINUOUS
 62
     7
 10
-621.131439208984
 20
-34.5579605102588
 30
0.0
 11
-620.610494779033
 21
-31.6035372330519
 31
0.0
  0
LINE
  5
    56
  8
0
  6
CONTINUOUS
 62
     7
 10
-620.610494779033
 20
87.487616212544
 30
0.0
 11
-621.131439208984
 21
90.442039489751
 31
0.0
  0
LINE
  5
    57
  8
0
  6
CONTINUOUS
 62
     7
 10
-621.131439208984
 20
90.442039489751
 30
0.0
 11
-621.652383638936
 21
87.487616212544
 31
0.0
  0
ENDBLK
  5
    58
  8
0
  6
CONTINUOUS
 62
     7
  0
BLOCK
  5
    59
  8
0
  6
CONTINUOUS
 62
     7
  2
*UDIM408
 70
    65
 10
0.0
 20
0.0
 30
0.0
  3
*UDIM408
  0
TEXT
  5
    5A
  8
0
  6
CONTINUOUS
 62
     7
 10
-615.34799290437
 20
50.2545394019623
 30
0.0
 40
3.00000002980232
  1
127,25
 50
89.9999999480344
 41
0.933333333333333
 72
     1
 11
-616.847992911935
 21
58.3545394837871
 31
0.0
 73
     2
  0
LINE
  5
    5B
  8
0
  6
CONTINUOUS
 62
     7
 10
-597.218321387159
 20
26.8170433044414
 30
0.0
 11
-616.347992897034
 21
26.8170433044414
 31
0.0
  0
LINE
  5
    5C
  8
0
  6
CONTINUOUS
 62
     7
 10
-587.816234943014
 20
90.442039489751
 30
0.0
 11
-616.347992897034
 21
90.442039489751
 31
0.0
  0
LINE
  5
    5D
  8
0
  6
CONTINUOUS
 62
     7
 10
-614.347992897034
 20
26.8170433044414
 30
0.0
 11
-614.347992897034
 21
90.442039489751
 31
0.0
  0
LINE
  5
    5E
  8
0
  6
CONTINUOUS
 62
     7
 10
-614.868937326985
 20
29.7714665816484
 30
0.0
 11
-614.347992897034
 21
26.8170433044414
 31
0.0
  0
LINE
  5
    5F
  8
0
  6
CONTINUOUS
 62
     7
 10
-614.347992897034
 20
26.8170433044414
 30
0.0
 11
-613.827048467082
 21
29.7714665816484
 31
0.0
  0
LINE
  5
    60
  8
0
  6
CONTINUOUS
 62
     7
 10
-613.827048467082
 20
87.487616212544
 30
0.0
 11
-614.347992897034
 21
90.442039489751
 31
0.0
  0
LINE
  5
    61
  8
0
  6
CONTINUOUS
 62
     7
 10
-614.347992897034
 20
90.442039489751
 30
0.0
 11
-614.868937326985
 21
87.487616212544
 31
0.0
  0
ENDBLK
  5
    62
  8
0
  6
CONTINUOUS
 62
     7
  0
BLOCK
  5
    63
  8
0
  6
CONTINUOUS
 62
     7
  2
*UDIM409
 70
    65
 10
0.0
 20
0.0
 30
0.0
  3
*UDIM409
  0
TEXT
  5
    64
  8
0
  6
CONTINUOUS
 62
     7
 10
-537.716200284604
 20
-45.6233978248936
 30
0.0
 40
3.00000002980232
  1
35
 50
359.999999948034
 41
0.933333333333333
 72
     1
 11
-535.216200258416
 21
-44.1233978122473
 31
0.0
 73
     2
  0
LINE
  5
    65
  8
0
  6
CONTINUOUS
 62
     7
 10
-526.191202696246
 20
76.3920351198366
 30
0.0
 11
-526.191202696246
 21
-48.6233978271484
 31
0.0
  0
LINE
  5
    66
  8
0
  6
CONTINUOUS
 62
     7
 10
-543.691202696246
 20
-28.6079526571567
 30
0.0
 11
-543.691202696246
 21
-48.6233978271484
 31
0.0
  0
LINE
  5
    67
  8
0
  6
CONTINUOUS
 62
     7
 10
-526.191202696246
 20
-46.6233978271484
 30
0.0
 11
-543.691202696246
 21
-46.6233978271484
 31
0.0
  0
LINE
  5
    68
  8
0
  6
CONTINUOUS
 62
     7
 10
-529.145625973453
 20
-47.1443422571001
 30
0.0
 11
-526.191202696246
 21
-46.6233978271484
 31
0.0
  0
LINE
  5
    69
  8
0
  6
CONTINUOUS
 62
     7
 10
-526.191202696246
 20
-46.6233978271484
 30
0.0
 11
-529.145625973453
 21
-46.1024533971968
 31
0.0
  0
LINE
  5
    6A
  8
0
  6
CONTINUOUS
 62
     7
 10
-540.736779419039
 20
-46.1024533971968
 30
0.0
 11
-543.691202696246
 21
-46.6233978271484
 31
0.0
  0
LINE
  5
    6B
  8
0
  6
CONTINUOUS
 62
     7
 10
-543.691202696246
 20
-46.6233978271484
 30
0.0
 11
-540.736779419039
 21
-47.1443422571001
 31
0.0
  0
ENDBLK
  5
    6C
  8
0
  6
CONTINUOUS
 62
     7
  0
BLOCK
  5
    6D
  8
0
  6
CONTINUOUS
 62
     7
  2
*UDIM410
 70
    65
 10
0.0
 20
0.0
 30
0.0
  3
*UDIM410
  0
TEXT
  5
    6E
  8
0
  6
CONTINUOUS
 62
     7
 10
-555.216200284604
 20
-45.6233978248936
 30
0.0
 40
3.00000002980232
  1
35
 50
359.999999948034
 41
0.933333333333333
 72
     1
 11
-552.716200258416
 21
-44.1233978122473
 31
0.0
 73
     2
  0
LINE
  5
    6F
  8
0
  6
CONTINUOUS
 62
     7
 10
-561.191202696246
 20
76.3920351198366
 30
0.0
 11
-561.191202696246
 21
-48.6233978271484
 31
0.0
  0
LINE
  5
    70
  8
0
  6
CONTINUOUS
 62
     7
 10
-543.691202696246
 20
-46.6233978271484
 30
0.0
 11
-561.191202696246
 21
-46.6233978271484
 31
0.0
  0
LINE
  5
    71
  8
0
  6
CONTINUOUS
 62
     7
 10
-546.645625973453
 20
-47.1443422571001
 30
0.0
 11
-543.691202696246
 21
-46.6233978271484
 31
0.0
  0
LINE
  5
    72
  8
0
  6
CONTINUOUS
 62
     7
 10
-543.691202696246
 20
-46.6233978271484
 30
0.0
 11
-546.645625973453
 21
-46.1024533971968
 31
0.0
  0
LINE
  5
    73
  8
0
  6
CONTINUOUS
 62
     7
 10
-558.236779419039
 20
-46.1024533971968
 30
0.0
 11
-561.191202696246
 21
-46.6233978271484
 31
0.0
  0
LINE
  5
    74
  8
0
  6
CONTINUOUS
 62
     7
 10
-561.191202696246
 20
-46.6233978271484
 30
0.0
 11
-558.236779419039
 21
-47.1443422571001
 31
0.0
  0
ENDBLK
  5
    75
  8
0
  6
CONTINUOUS
 62
     7
  0
BLOCK
  5
    76
  8
0
  6
CONTINUOUS
 62
     7
  2
*UDIM411
 70
    65
 10
0.0
 20
0.0
 30
0.0
  3
*UDIM411
  0
TEXT
  5
    77
  8
0
  6
CONTINUOUS
 62
     7
 10
-572.716200284604
 20
-45.6233978248936
 30
0.0
 40
3.00000002980232
  1
35
 50
359.999999948034
 41
0.933333333333333
 72
     1
 11
-570.216200258416
 21
-44.1233978122473
 31
0.0
 73
     2
  0
LINE
  5
    78
  8
0
  6
CONTINUOUS
 62
     7
 10
-578.691202696246
 20
76.3920351198366
 30
0.0
 11
-578.691202696246
 21
-48.6233978271484
 31
0.0
  0
LINE
  5
    79
  8
0
  6
CONTINUOUS
 62
     7
 10
-561.191202696246
 20
-46.6233978271484
 30
0.0
 11
-578.691202696246
 21
-46.6233978271484
 31
0.0
  0
LINE
  5
    7A
  8
0
  6
CONTINUOUS
 62
     7
 10
-564.145625973453
 20
-47.1443422571001
 30
0.0
 11
-561.191202696246
 21
-46.6233978271484
 31
0.0
  0
LINE
  5
    7B
  8
0
  6
CONTINUOUS
 62
     7
 10
-561.191202696246
 20
-46.6233978271484
 30
0.0
 11
-564.145625973453
 21
-46.1024533971968
 31
0.0
  0
LINE
  5
    7C
  8
0
  6
CONTINUOUS
 62
     7
 10
-575.736779419039
 20
-46.1024533971968
 30
0.0
 11
-578.691202696246
 21
-46.6233978271484
 31
0.0
  0
LINE
  5
    7D
  8
0
  6
CONTINUOUS
 62
     7
 10
-578.691202696246
 20
-46.6233978271484
 30
0.0
 11
-575.736779419039
 21
-47.1443422571001
 31
0.0
  0
ENDBLK
  5
    7E
  8
0
  6
CONTINUOUS
 62
     7
  0
BLOCK
  5
    7F
  8
0
  6
CONTINUOUS
 62
     7
  2
*UDIM412
 70
    65
 10
0.0
 20
0.0
 30
0.0
  3
*UDIM412
  0
TEXT
  5
    80
  8
0
  6
CONTINUOUS
 62
     7
 10
-600.812034016955
 20
42.27953941587
 30
0.0
 40
3.00000002980232
  1
89,75
 50
89.9999999480344
 41
0.933333333333333
 72
     1
 11
-602.312034025788
 21
48.9795394837871
 31
0.0
 73
     2
  0
LINE
  5
    81
  8
0
  6
CONTINUOUS
 62
     7
 10
-597.218321387159
 20
26.8170433044414
 30
0.0
 11
-601.812034010887
 21
26.8170433044414
 31
0.0
  0
LINE
  5
    82
  8
0
  6
CONTINUOUS
 62
     7
 10
-587.816234943014
 20
71.692039489751
 30
0.0
 11
-601.812034010887
 21
71.692039489751
 31
0.0
  0
LINE
  5
    83
  8
0
  6
CONTINUOUS
 62
     7
 10
-599.812034010887
 20
26.8170433044414
 30
0.0
 11
-599.812034010887
 21
71.692039489751
 31
0.0
  0
LINE
  5
    84
  8
0
  6
CONTINUOUS
 62
     7
 10
-600.332978440839
 20
29.7714665816484
 30
0.0
 11
-599.812034010887
 21
26.8170433044414
 31
0.0
  0
LINE
  5
    85
  8
0
  6
CONTINUOUS
 62
     7
 10
-599.812034010887
 20
26.8170433044414
 30
0.0
 11
-599.291089580936
 21
29.7714665816484
 31
0.0
  0
LINE
  5
    86
  8
0
  6
CONTINUOUS
 62
     7
 10
-599.291089580936
 20
68.737616212544
 30
0.0
 11
-599.812034010887
 21
71.692039489751
 31
0.0
  0
LINE
  5
    87
  8
0
  6
CONTINUOUS
 62
     7
 10
-599.812034010887
 20
71.692039489751
 30
0.0
 11
-600.332978440839
 21
68.737616212544
 31
0.0
  0
ENDBLK
  5
    88
  8
0
  6
CONTINUOUS
 62
     7
  0
BLOCK
  5
    89
  8
0
  6
CONTINUOUS
 62
     7
  2
*UDIM413
 70
    65
 10
0.0
 20
0.0
 30
0.0
  3
*UDIM413
  0
TEXT
  5
    8A
  8
0
  6
CONTINUOUS
 62
     7
 10
-547.866234638933
 20
97.0773925816426
 30
0.0
 40
3.00000002980232
  1
105
 50
359.999999948034
 41
0.933333333333333
 72
     1
 11
-543.966234598837
 21
98.5773925930262
 31
0.0
 73
     2
  0
LINE
  5
    8B
  8
0
  6
CONTINUOUS
 62
     7
 10
-517.441234943014
 20
53.8170433044414
 30
0.0
 11
-517.441234943014
 21
98.077392578125
 31
0.0
  0
LINE
  5
    8C
  8
0
  6
CONTINUOUS
 62
     7
 10
-569.941226315322
 20
53.8170433044414
 30
0.0
 11
-569.941226315322
 21
98.077392578125
 31
0.0
  0
LINE
  5
    8D
  8
0
  6
CONTINUOUS
 62
     7
 10
-517.441234943014
 20
96.077392578125
 30
0.0
 11
-569.941226315322
 21
96.077392578125
 31
0.0
  0
LINE
  5
    8E
  8
0
  6
CONTINUOUS
 62
     7
 10
-520.395658220221
 20
95.5564481481733
 30
0.0
 11
-517.441234943014
 21
96.077392578125
 31
0.0
  0
LINE
  5
    8F
  8
0
  6
CONTINUOUS
 62
     7
 10
-517.441234943014
 20
96.077392578125
 30
0.0
 11
-520.395658220221
 21
96.5983370080767
 31
0.0
  0
LINE
  5
    90
  8
0
  6
CONTINUOUS
 62
     7
 10
-566.986803038115
 20
96.5983370080767
 30
0.0
 11
-569.941226315322
 21
96.077392578125
 31
0.0
  0
LINE
  5
    91
  8
0
  6
CONTINUOUS
 62
     7
 10
-569.941226315322
 20
96.077392578125
 30
0.0
 11
-566.986803038115
 21
95.5564481481733
 31
0.0
  0
ENDBLK
  5
    92
  8
0
  6
CONTINUOUS
 62
     7
  0
BLOCK
  5
    93
  8
0
  6
CONTINUOUS
 62
     7
  2
*UDIM414
 70
    65
 10
0.0
 20
0.0
 30
0.0
  3
*UDIM414
  0
TEXT
  5
    94
  8
0
  6
CONTINUOUS
 62
     7
 10
-536.141230835706
 20
-53.2065315198779
 30
0.0
 40
3.00000002980232
  1
52,5
 50
359.999999948034
 41
0.933333333333333
 72
     1
 11
-530.841230781702
 21
-51.706531509757
 31
0.0
 73
     2
  0
LINE
  5
    95
  8
0
  6
CONTINUOUS
 62
     7
 10
-517.441235325777
 20
32.567035675047
 30
0.0
 11
-517.441269305003
 21
-56.2065315246581
 31
0.0
  0
LINE
  5
    96
  8
0
  6
CONTINUOUS
 62
     7
 10
-543.691226629252
 20
-53.8275050005678
 30
0.0
 11
-543.691227376068
 21
-56.2065315246581
 31
0.0
  0
LINE
  5
    97
  8
0
  6
CONTINUOUS
 62
     7
 10
-517.441268539477
 20
-54.2065315246582
 30
0.0
 11
-543.691226748235
 21
-54.2065315246582
 31
0.0
  0
LINE
  5
    98
  8
0
  6
CONTINUOUS
 62
     7
 10
-520.395691816684
 20
-54.7274759546099
 30
0.0
 11
-517.441268539477
 21
-54.2065315246582
 31
0.0
  0
LINE
  5
    99
  8
0
  6
CONTINUOUS
 62
     7
 10
-517.441268539477
 20
-54.2065315246582
 30
0.0
 11
-520.395691816684
 21
-53.6855870947065
 31
0.0
  0
LINE
  5
    9A
  8
0
  6
CONTINUOUS
 62
     7
 10
-540.736803471028
 20
-53.6855870947065
 30
0.0
 11
-543.691226748235
 21
-54.2065315246582
 31
0.0
  0
LINE
  5
    9B
  8
0
  6
CONTINUOUS
 62
     7
 10
-543.691226748235
 20
-54.2065315246582
 30
0.0
 11
-540.736803471028
 21
-54.7274759546099
 31
0.0
  0
ENDBLK
  5
    9C
  8
0
  6
CONTINUOUS
 62
     7
  0
BLOCK
  5
    9D
  8
0
  6
CONTINUOUS
 62
     7
  2
*UDIM415
 70
    65
 10
0.0
 20
0.0
 30
0.0
  3
*UDIM415
  0
TEXT
  5
    9E
  8
0
  6
CONTINUOUS
 62
     7
 10
-556.616238430381
 20
114.868225101174
 30
0.0
 40
3.00000002980232
  1
140
 50
359.999999948034
 41
0.933333333333333
 72
     1
 11
-552.716238390285
 21
116.368225112557
 31
0.0
 73
     2
  0
LINE
  5
    9F
  8
0
  6
CONTINUOUS
 62
     7
 10
-517.441234629112
 20
90.817039489751
 30
0.0
 11
-517.441226765132
 21
115.868225097656
 31
0.0
  0
LINE
  5
    A0
  8
0
  6
CONTINUOUS
 62
     7
 10
-587.441234209802
 20
90.8170394897507
 30
0.0
 11
-587.441215841961
 21
115.868225097656
 31
0.0
  0
LINE
  5
    A1
  8
0
  6
CONTINUOUS
 62
     7
 10
-517.441227392965
 20
113.868225097656
 30
0.0
 11
-587.441217308386
 21
113.868225097656
 31
0.0
  0
LINE
  5
    A2
  8
0
  6
CONTINUOUS
 62
     7
 10
-520.395650670172
 20
113.347280667705
 30
0.0
 11
-517.441227392965
 21
113.868225097656
 31
0.0
  0
LINE
  5
    A3
  8
0
  6
CONTINUOUS
 62
     7
 10
-517.441227392965
 20
113.868225097656
 30
0.0
 11
-520.395650670172
 21
114.389169527608
 31
0.0
  0
LINE
  5
    A4
  8
0
  6
CONTINUOUS
 62
     7
 10
-584.486794031179
 20
114.389169527608
 30
0.0
 11
-587.441217308386
 21
113.868225097656
 31
0.0
  0
LINE
  5
    A5
  8
0
  6
CONTINUOUS
 62
     7
 10
-587.441217308386
 20
113.868225097656
 30
0.0
 11
-584.486794031179
 21
113.347280667705
 31
0.0
  0
ENDBLK
  5
    A6
  8
0
  6
CONTINUOUS
 62
     7
  0
BLOCK
  5
    A7
  8
0
  6
CONTINUOUS
 62
     7
  2
*UDIM416
 70
    65
 10
0.0
 20
0.0
 30
0.0
  3
*UDIM416
  0
TEXT
  5
    A8
  8
0
  6
CONTINUOUS
 62
     7
 10
-537.716207900533
 20
-45.6233940101963
 30
0.0
 40
3.00000002980232
  1
35
 50
359.999999948034
 41
0.933333333333333
 72
     1
 11
-535.216207874345
 21
-44.12339399755
 31
0.0
 73
     2
  0
LINE
  5
    A9
  8
0
  6
CONTINUOUS
 62
     7
 10
-526.191203110864
 20
-28.6079526571567
 30
0.0
 11
-526.191211409632
 21
-48.623394012451
 31
0.0
  0
LINE
  5
    AA
  8
0
  6
CONTINUOUS
 62
     7
 10
-543.691203110864
 20
-28.6079526571567
 30
0.0
 11
-543.691211409632
 21
-48.623394012451
 31
0.0
  0
LINE
  5
    AB
  8
0
  6
CONTINUOUS
 62
     7
 10
-526.191210580396
 20
-46.6233940124512
 30
0.0
 11
-543.691210580396
 21
-46.6233940124512
 31
0.0
  0
LINE
  5
    AC
  8
0
  6
CONTINUOUS
 62
     7
 10
-529.145633857603
 20
-47.1443384424028
 30
0.0
 11
-526.191210580396
 21
-46.6233940124512
 31
0.0
  0
LINE
  5
    AD
  8
0
  6
CONTINUOUS
 62
     7
 10
-526.191210580396
 20
-46.6233940124512
 30
0.0
 11
-529.145633857603
 21
-46.1024495824995
 31
0.0
  0
LINE
  5
    AE
  8
0
  6
CONTINUOUS
 62
     7
 10
-540.736787303189
 20
-46.1024495824995
 30
0.0
 11
-543.691210580396
 21
-46.6233940124512
 31
0.0
  0
LINE
  5
    AF
  8
0
  6
CONTINUOUS
 62
     7
 10
-543.691210580396
 20
-46.6233940124512
 30
0.0
 11
-540.736787303189
 21
-47.1443384424028
 31
0.0
  0
ENDBLK
  5
    B0
  8
0
  6
CONTINUOUS
 62
     7
  0
BLOCK
  5
    B1
  8
0
  6
CONTINUOUS
 62
     7
  2
*UDIM417
 70
    65
 10
0.0
 20
0.0
 30
0.0
  3
*UDIM417
  0
TEXT
  5
    B2
  8
0
  6
CONTINUOUS
 62
     7
 10
-555.216204098723
 20
-45.6233940101963
 30
0.0
 40
3.00000002980232
  1
35
 50
359.999999948034
 41
0.933333333333333
 72
     1
 11
-552.716204072535
 21
-44.12339399755
 31
0.0
 73
     2
  0
LINE
  5
    B3
  8
0
  6
CONTINUOUS
 62
     7
 10
-561.19120324387
 20
-28.6079526571566
 30
0.0
 11
-561.191214204815
 21
-48.6233940124509
 31
0.0
  0
LINE
  5
    B4
  8
0
  6
CONTINUOUS
 62
     7
 10
-543.691210580396
 20
-46.6233940124512
 30
0.0
 11
-561.191213109566
 21
-46.6233940124512
 31
0.0
  0
LINE
  5
    B5
  8
0
  6
CONTINUOUS
 62
     7
 10
-546.645633857603
 20
-47.1443384424028
 30
0.0
 11
-543.691210580396
 21
-46.6233940124512
 31
0.0
  0
LINE
  5
    B6
  8
0
  6
CONTINUOUS
 62
     7
 10
-543.691210580396
 20
-46.6233940124512
 30
0.0
 11
-546.645633857603
 21
-46.1024495824995
 31
0.0
  0
LINE
  5
    B7
  8
0
  6
CONTINUOUS
 62
     7
 10
-558.236789832359
 20
-46.1024495824995
 30
0.0
 11
-561.191213109566
 21
-46.6233940124512
 31
0.0
  0
LINE
  5
    B8
  8
0
  6
CONTINUOUS
 62
     7
 10
-561.191213109566
 20
-46.6233940124512
 30
0.0
 11
-558.236789832359
 21
-47.1443384424028
 31
0.0
  0
ENDBLK
  5
    B9
  8
0
  6
CONTINUOUS
 62
     7
  0
BLOCK
  5
    BA
  8
0
  6
CONTINUOUS
 62
     7
  2
*UDIM418
 70
    65
 10
0.0
 20
0.0
 30
0.0
  3
*UDIM418
  0
TEXT
  5
    BB
  8
0
  6
CONTINUOUS
 62
     7
 10
-572.716196482216
 20
-45.6233940101963
 30
0.0
 40
3.00000002980232
  1
35
 50
359.999999948034
 41
0.933333333333333
 72
     1
 11
-570.216196456028
 21
-44.12339399755
 31
0.0
 73
     2
  0
LINE
  5
    BC
  8
0
  6
CONTINUOUS
 62
     7
 10
-578.69120324387
 20
-28.6079526571566
 30
0.0
 11
-578.691214204815
 21
-48.6233940124509
 31
0.0
  0
LINE
  5
    BD
  8
0
  6
CONTINUOUS
 62
     7
 10
-561.191213109566
 20
-46.6233940124512
 30
0.0
 11
-578.691213109566
 21
-46.6233940124512
 31
0.0
  0
LINE
  5
    BE
  8
0
  6
CONTINUOUS
 62
     7
 10
-564.145636386773
 20
-47.1443384424028
 30
0.0
 11
-561.191213109566
 21
-46.6233940124512
 31
0.0
  0
LINE
  5
    BF
  8
0
  6
CONTINUOUS
 62
     7
 10
-561.191213109566
 20
-46.6233940124512
 30
0.0
 11
-564.145636386773
 21
-46.1024495824995
 31
0.0
  0
LINE
  5
    C0
  8
0
  6
CONTINUOUS
 62
     7
 10
-575.736789832359
 20
-46.1024495824995
 30
0.0
 11
-578.691213109566
 21
-46.6233940124512
 31
0.0
  0
LINE
  5
    C1
  8
0
  6
CONTINUOUS
 62
     7
 10
-578.691213109566
 20
-46.6233940124512
 30
0.0
 11
-575.736789832359
 21
-47.1443384424028
 31
0.0
  0
ENDBLK
  5
    C2
  8
0
  6
CONTINUOUS
 62
     7
  0
BLOCK
  5
    C3
  8
0
  6
CONTINUOUS
 62
     7
  2
*UDIM419
 70
    65
 10
0.0
 20
0.0
 30
0.0
  3
*UDIM419
  0
TEXT
  5
    C4
  8
0
  6
CONTINUOUS
 62
     7
 10
-608.300255302147
 20
27.540461595488
 30
0.0
 40
3.00000002980232
  1
175
 50
89.9999999480344
 41
0.933333333333333
 72
     1
 11
-609.800255313516
 21
31.4404616355896
 31
0.0
 73
     2
  0
LINE
  5
    C5
  8
0
  6
CONTINUOUS
 62
     7
 10
-587.816234943014
 20
-15.8079605102588
 30
0.0
 11
-609.300255298615
 21
-15.8079605102588
 31
0.0
  0
LINE
  5
    C6
  8
0
  6
CONTINUOUS
 62
     7
 10
-587.816234943014
 20
71.692039489751
 30
0.0
 11
-609.300255298615
 21
71.692039489751
 31
0.0
  0
LINE
  5
    C7
  8
0
  6
CONTINUOUS
 62
     7
 10
-607.300255298615
 20
-15.8079605102588
 30
0.0
 11
-607.300255298615
 21
71.692039489751
 31
0.0
  0
LINE
  5
    C8
  8
0
  6
CONTINUOUS
 62
     7
 10
-607.821199728566
 20
-12.8535372330519
 30
0.0
 11
-607.300255298615
 21
-15.8079605102588
 31
0.0
  0
LINE
  5
    C9
  8
0
  6
CONTINUOUS
 62
     7
 10
-607.300255298615
 20
-15.8079605102588
 30
0.0
 11
-606.779310868663
 21
-12.8535372330519
 31
0.0
  0
LINE
  5
    CA
  8
0
  6
CONTINUOUS
 62
     7
 10
-606.779310868663
 20
68.737616212544
 30
0.0
 11
-607.300255298615
 21
71.692039489751
 31
0.0
  0
LINE
  5
    CB
  8
0
  6
CONTINUOUS
 62
     7
 10
-607.300255298615
 20
71.692039489751
 30
0.0
 11
-607.821199728566
 21
68.737616212544
 31
0.0
  0
ENDBLK
  5
    CC
  8
0
  6
CONTINUOUS
 62
     7
  0
BLOCK
  5
    CD
  8
0
  6
CONTINUOUS
 62
     7
  2
MOSTRINA
 70
    64
 10
0.0
 20
0.0
 30
0.0
  3
MOSTRINA
  0
LINE
  5
    CE
  8
0
  6
CONTINUOUS
 62
     3
 10
173.338256835938
 20
30.7306251525879
 30
0.0
 11
173.338256835938
 21
189.230621337891
 31
0.0
  0
LINE
  5
    CF
  8
0
  6
CONTINUOUS
 62
     3
 10
57.5882568359375
 20
29.4806251525879
 30
0.0
 11
172.088256835938
 21
29.4806251525879
 31
0.0
  0
LINE
  5
    D0
  8
0
  6
CONTINUOUS
 62
     3
 10
56.3382568359375
 20
30.7306251525879
 30
0.0
 11
56.3382568359375
 21
189.230621337891
 31
0.0
  0
LINE
  5
    D1
  8
0
  6
CONTINUOUS
 62
     3
 10
57.5882568359375
 20
190.480621337891
 30
0.0
 11
172.088256835938
 21
190.480621337891
 31
0.0
  0
LINE
  5
    D2
  8
0
  6
CONTINUOUS
 62
     3
 10
167.838256835938
 20
56.9806251525879
 30
0.0
 11
167.838256835938
 21
162.980625152588
 31
0.0
  0
LINE
  5
    D3
  8
0
  6
CONTINUOUS
 62
     3
 10
61.8382568359375
 20
56.9806251525879
 30
0.0
 11
167.838256835938
 21
56.9806251525879
 31
0.0
  0
LINE
  5
    D4
  8
0
  6
CONTINUOUS
 62
     3
 10
61.8382568359375
 20
56.9806251525879
 30
0.0
 11
61.8382568359375
 21
162.980625152588
 31
0.0
  0
LINE
  5
    D5
  8
0
  6
CONTINUOUS
 62
     3
 10
61.8382568359375
 20
162.980621337891
 30
0.0
 11
167.838256835938
 21
162.980621337891
 31
0.0
  0
LINE
  5
    D6
  8
0
  6
CONTINUOUS
 62
     3
 10
168.838256835938
 20
48.4806251525879
 30
0.0
 11
168.838256835938
 21
49.4806251525879
 31
0.0
  0
LINE
  5
    D7
  8
0
  6
CONTINUOUS
 62
     3
 10
61.8382568359375
 20
50.4806251525879
 30
0.0
 11
167.838256835938
 21
50.4806251525879
 31
0.0
  0
LINE
  5
    D8
  8
0
  6
CONTINUOUS
 62
     3
 10
60.8382568359375
 20
48.4806251525879
 30
0.0
 11
60.8382568359375
 21
49.4806251525879
 31
0.0
  0
LINE
  5
    D9
  8
0
  6
CONTINUOUS
 62
     3
 10
61.8382568359375
 20
49.4806251525879
 30
0.0
 11
167.838256835938
 21
49.4806251525879
 31
0.0
  0
LINE
  5
    DA
  8
0
  6
CONTINUOUS
 62
     3
 10
60.8382568359375
 20
29.4806251525879
 30
0.0
 11
60.8382568359375
 21
48.4806251525879
 31
0.0
  0
LINE
  5
    DB
  8
0
  6
CONTINUOUS
 62
     3
 10
60.8382568359375
 20
49.4806213378906
 30
0.0
 11
60.8382568359375
 21
190.480621337891
 31
0.0
  0
LINE
  5
    DC
  8
0
  6
CONTINUOUS
 62
     3
 10
61.8382568359375
 20
29.4806251525879
 30
0.0
 11
61.8382568359375
 21
49.4806251525879
 31
0.0
  0
LINE
  5
    DD
  8
0
  6
CONTINUOUS
 62
     3
 10
61.8382568359375
 20
162.980621337891
 30
0.0
 11
61.8382568359375
 21
169.480621337891
 31
0.0
  0
LINE
  5
    DE
  8
0
  6
CONTINUOUS
 62
     3
 10
61.8382568359375
 20
50.4806251525879
 30
0.0
 11
61.8382568359375
 21
56.9806251525879
 31
0.0
  0
LINE
  5
    DF
  8
0
  6
CONTINUOUS
 62
     3
 10
168.838256835938
 20
29.4806251525879
 30
0.0
 11
168.838256835938
 21
48.4806251525879
 31
0.0
  0
LINE
  5
    E0
  8
0
  6
CONTINUOUS
 62
     3
 10
168.838256835938
 20
49.4806251525879
 30
0.0
 11
168.838256835938
 21
190.480621337891
 31
0.0
  0
LINE
  5
    E1
  8
0
  6
CONTINUOUS
 62
     3
 10
167.838256835938
 20
50.4806251525879
 30
0.0
 11
167.838256835938
 21
56.9806251525879
 31
0.0
  0
LINE
  5
    E2
  8
0
  6
CONTINUOUS
 62
     3
 10
167.838256835938
 20
162.980621337891
 30
0.0
 11
167.838256835938
 21
169.480621337891
 31
0.0
  0
LINE
  5
    E3
  8
0
  6
CONTINUOUS
 62
     3
 10
167.838256835938
 20
29.4806251525879
 30
0.0
 11
167.838256835938
 21
49.4806251525879
 31
0.0
  0
LINE
  5
    E4
  8
0
  6
CONTINUOUS
 62
     3
 10
60.8382568359375
 20
170.480621337891
 30
0.0
 11
168.838256835938
 21
170.480621337891
 31
0.0
  0
LINE
  5
    E5
  8
0
  6
CONTINUOUS
 62
     3
 10
61.8382568359375
 20
169.480621337891
 30
0.0
 11
167.838256835938
 21
169.480621337891
 31
0.0
  0
ARC
  5
    E6
  8
0
  6
CONTINUOUS
 62
     3
 10
57.5882568359375
 20
30.7306251525879
 30
0.0
 40
1.25
 50
180.0
 51
270.0
  0
ARC
  5
    E7
  8
0
  6
CONTINUOUS
 62
     3
 10
172.088256835938
 20
30.7306251525879
 30
0.0
 40
1.25
 50
270.0
 51
360.0
  0
ARC
  5
    E8
  8
0
  6
CONTINUOUS
 62
     3
 10
172.088256835938
 20
189.230621337891
 30
0.0
 40
1.25
 50
0.0
 51
90.0
  0
ARC
  5
    E9
  8
0
  6
CONTINUOUS
 62
     3
 10
57.5882568359375
 20
189.230621337891
 30
0.0
 40
1.25
 50
90.0
 51
180.0
  0
LINE
  5
    EA
  8
0
  6
DOT
 62
     3
 10
60.3382577409677
 20
179.7306252571
 30
0.0
 11
60.8382568359375
 21
179.7306252571
 31
0.0
  0
LINE
  5
    EB
  8
0
  6
DOT
 62
     3
 10
60.3382577409676
 20
181.2306252571
 30
0.0
 11
60.8382568359375
 21
181.2306252571
 31
0.0
  0
LINE
  5
    EC
  8
0
  6
CONTINUOUS
 62
     3
 10
168.338257745313
 20
179.730625257273
 30
0.0
 11
168.838256835938
 21
179.730625257273
 31
0.0
  0
LINE
  5
    ED
  8
0
  6
CONTINUOUS
 62
     3
 10
168.338257745314
 20
181.230625257273
 30
0.0
 11
168.838256835938
 21
181.230625257273
 31
0.0
  0
ARC
  5
    EE
  8
0
  6
DOT
 62
     3
 10
60.3382577401871
 20
180.480625257147
 30
0.0
 40
0.749999999345164
 50
90.0
 51
270.0
  0
ARC
  5
    EF
  8
0
  6
CONTINUOUS
 62
     3
 10
61.338257740822
 20
180.480625256974
 30
0.0
 40
0.750000000009701
 50
270.0
 51
450.0
  0
LINE
  5
    F0
  8
0
  6
CONTINUOUS
 62
     3
 10
60.8382568359375
 20
181.2306252571
 30
0.0
 11
61.3382577409688
 21
181.2306252571
 31
0.0
  0
LINE
  5
    F1
  8
0
  6
CONTINUOUS
 62
     3
 10
60.8382568359375
 20
179.7306252571
 30
0.0
 11
61.3382577409689
 21
179.7306252571
 31
0.0
  0
ARC
  5
    F2
  8
0
  6
CONTINUOUS
 62
     3
 10
168.338257745503
 20
180.480625256952
 30
0.0
 40
0.750000000048506
 50
90.0000000038822
 51
269.999999996024
  0
ARC
  5
    F3
  8
0
  6
DOT
 62
     3
 10
169.338257745421
 20
180.480625256965
 30
0.0
 40
0.750000000029104
 50
270.000000002449
 51
449.999999997486
  0
LINE
  5
    F4
  8
0
  6
DOT
 62
     3
 10
168.838256835938
 20
181.230625257273
 30
0.0
 11
169.338257745315
 21
181.230625257273
 31
0.0
  0
LINE
  5
    F5
  8
0
  6
DOT
 62
     3
 10
168.838256835938
 20
179.730625257273
 30
0.0
 11
169.338257745315
 21
179.730625257273
 31
0.0
  0
ENDBLK
  5
    F6
  8
0
  6
CONTINUOUS
 62
     7
  0
BLOCK
  5
    F7
  8
0
  6
CONTINUOUS
 62
     7
  2
*UDIM420
 70
    65
 10
0.0
 20
0.0
 30
0.0
  3
*UDIM420
  0
TEXT
  5
    F8
  8
0
  6
CONTINUOUS
 62
     7
 10
-315.075545912526
 20
49.0724320472667
 30
0.0
 40
3.00000002980232
  1
7
 50
397.208926617964
 41
0.933333333333334
 72
     1
 11
-315.106551438083
 21
50.9322811610738
 31
0.0
 73
     2
  0
TEXT
  5
    F9
  8
0
  6
CONTINUOUS
 62
     7
 10
-317.584318409617
 20
47.1675539355683
 30
0.0
 40
3.00000002980232
  1
Ø
 50
397.208926617964
 41
0.933333333333334
 72
     1
 11
-317.615323935173
 21
49.0274030493754
 31
0.0
 73
     2
  0
LINE
  5
    FA
  8
0
  6
CONTINUOUS
 62
     7
 10
-303.440142678787
 20
56.6514472602613
 30
0.0
 11
-316.979595196411
 21
46.3711182248022
 31
0.0
  0
LINE
  5
    FB
  8
0
  6
CONTINUOUS
 62
     7
 10
-301.402161662803
 20
58.8529543300864
 30
0.0
 11
-303.440142678787
 21
56.6514472602613
 31
0.0
  0
LINE
  5
    FC
  8
0
  6
CONTINUOUS
 62
     7
 10
-303.440142678787
 20
56.6514472602613
 30
0.0
 11
-300.772107288901
 21
58.0231568353222
 31
0.0
  0
LINE
  5
    FD
  8
0
  6
CONTINUOUS
 62
     7
 10
-306.871886188759
 20
53.3916745761636
 30
0.0
 11
-304.833905172775
 21
55.5931816459887
 31
0.0
  0
LINE
  5
    FE
  8
0
  6
CONTINUOUS
 62
     7
 10
-304.833905172775
 20
55.5931816459887
 30
0.0
 11
-307.501940562662
 21
54.2214720709278
 31
0.0
  0
ENDBLK
  5
    FF
  8
0
  6
CONTINUOUS
 62
     7
  0
BLOCK
  5
   100
  8
0
  6
CONTINUOUS
 62
     7
  2
*UDIM421
 70
    65
 10
0.0
 20
0.0
 30
0.0
  3
*UDIM421
  0
TEXT
  5
   101
  8
0
  6
CONTINUOUS
 62
     7
 10
-298.312023974559
 20
107.846286784274
 30
0.0
 40
3.00000002980232
  1
112
 50
359.999999844103
 41
0.933333333333333
 72
     1
 11
-294.412023931742
 21
109.346286788583
 31
0.0
 73
     2
  0
LINE
  5
   102
  8
0
  6
CONTINUOUS
 62
     7
 10
-308.137023925781
 20
88.872314453125
 30
0.0
 11
-308.137023925781
 21
108.846286773682
 31
0.0
  0
LINE
  5
   103
  8
0
  6
CONTINUOUS
 62
     7
 10
-280.137023925781
 20
88.872314453125
 30
0.0
 11
-280.137023925781
 21
108.846286773682
 31
0.0
  0
LINE
  5
   104
  8
0
  6
CONTINUOUS
 62
     7
 10
-308.137023925781
 20
106.846286773682
 30
0.0
 11
-280.137023925781
 21
106.846286773682
 31
0.0
  0
LINE
  5
   105
  8
0
  6
CONTINUOUS
 62
     7
 10
-305.182600648574
 20
107.367231203633
 30
0.0
 11
-308.137023925781
 21
106.846286773682
 31
0.0
  0
LINE
  5
   106
  8
0
  6
CONTINUOUS
 62
     7
 10
-308.137023925781
 20
106.846286773682
 30
0.0
 11
-305.182600648574
 21
106.32534234373
 31
0.0
  0
LINE
  5
   107
  8
0
  6
CONTINUOUS
 62
     7
 10
-283.091447202988
 20
106.32534234373
 30
0.0
 11
-280.137023925781
 21
106.846286773682
 31
0.0
  0
LINE
  5
   108
  8
0
  6
CONTINUOUS
 62
     7
 10
-280.137023925781
 20
106.846286773682
 30
0.0
 11
-283.091447202988
 21
107.367231203633
 31
0.0
  0
ENDBLK
  5
   109
  8
0
  6
CONTINUOUS
 62
     7
  0
BLOCK
  5
   10A
  8
0
  6
CONTINUOUS
 62
     7
  2
*UDIM422
 70
    65
 10
0.0
 20
0.0
 30
0.0
  3
*UDIM422
  0
TEXT
  5
   10B
  8
0
  6
CONTINUOUS
 62
     7
 10
-296.912023960651
 20
101.188116080398
 30
0.0
 40
3.00000002980232
  1
80
 50
359.999999844103
 41
0.933333333333333
 72
     1
 11
-294.412023931742
 21
102.68811608851
 31
0.0
 73
     2
  0
LINE
  5
   10C
  8
0
  6
CONTINUOUS
 62
     7
 10
-304.137023925781
 20
94.247314453125
 30
0.0
 11
-304.137023925781
 21
102.188116073608
 31
0.0
  0
LINE
  5
   10D
  8
0
  6
CONTINUOUS
 62
     7
 10
-284.137023925781
 20
94.247314453125
 30
0.0
 11
-284.137023925781
 21
102.188116073608
 31
0.0
  0
LINE
  5
   10E
  8
0
  6
CONTINUOUS
 62
     7
 10
-304.137023925781
 20
100.188116073608
 30
0.0
 11
-284.137023925781
 21
100.188116073608
 31
0.0
  0
LINE
  5
   10F
  8
0
  6
CONTINUOUS
 62
     7
 10
-301.182600648574
 20
100.70906050356
 30
0.0
 11
-304.137023925781
 21
100.188116073608
 31
0.0
  0
LINE
  5
   110
  8
0
  6
CONTINUOUS
 62
     7
 10
-304.137023925781
 20
100.188116073608
 30
0.0
 11
-301.182600648574
 21
99.6671716436567
 31
0.0
  0
LINE
  5
   111
  8
0
  6
CONTINUOUS
 62
     7
 10
-287.091447202988
 20
99.6671716436567
 30
0.0
 11
-284.137023925781
 21
100.188116073608
 31
0.0
  0
LINE
  5
   112
  8
0
  6
CONTINUOUS
 62
     7
 10
-284.137023925781
 20
100.188116073608
 30
0.0
 11
-287.091447202988
 21
100.70906050356
 31
0.0
  0
ENDBLK
  5
   113
  8
0
  6
CONTINUOUS
 62
     7
  0
BLOCK
  5
   114
  8
0
  6
CONTINUOUS
 62
     7
  2
*UDIM423
 70
    65
 10
0.0
 20
0.0
 30
0.0
  3
*UDIM423
  0
TEXT
  5
   115
  8
0
  6
CONTINUOUS
 62
     7
 10
-331.261741648771
 20
69.6973144043496
 30
0.0
 40
3.00000002980232
  1
142
 50
449.999999844103
 41
0.933333333333333
 72
     1
 11
-332.761741653085
 21
73.5973144471645
 31
0.0
 73
     2
  0
LINE
  5
   116
  8
0
  6
CONTINUOUS
 62
     7
 10
-306.762023925781
 20
91.622314453125
 30
0.0
 11
-332.261741638184
 21
91.622314453125
 31
0.0
  0
LINE
  5
   117
  8
0
  6
CONTINUOUS
 62
     7
 10
-306.762023925781
 20
56.122314453125
 30
0.0
 11
-332.261741638184
 21
56.122314453125
 31
0.0
  0
LINE
  5
   118
  8
0
  6
CONTINUOUS
 62
     7
 10
-330.261741638184
 20
91.622314453125
 30
0.0
 11
-330.261741638184
 21
56.122314453125
 31
0.0
  0
LINE
  5
   119
  8
0
  6
CONTINUOUS
 62
     7
 10
-329.740797208232
 20
88.6678911759181
 30
0.0
 11
-330.261741638184
 21
91.622314453125
 31
0.0
  0
LINE
  5
   11A
  8
0
  6
CONTINUOUS
 62
     7
 10
-330.261741638184
 20
91.622314453125
 30
0.0
 11
-330.782686068135
 21
88.6678911759181
 31
0.0
  0
LINE
  5
   11B
  8
0
  6
CONTINUOUS
 62
     7
 10
-330.782686068135
 20
59.076737730332
 30
0.0
 11
-330.261741638184
 21
56.122314453125
 31
0.0
  0
LINE
  5
   11C
  8
0
  6
CONTINUOUS
 62
     7
 10
-330.261741638184
 20
56.122314453125
 30
0.0
 11
-329.740797208232
 21
59.076737730332
 31
0.0
  0
ENDBLK
  5
   11D
  8
0
  6
CONTINUOUS
 62
     7
  0
BLOCK
  5
   11E
  8
0
  6
CONTINUOUS
 62
     7
  2
*UDIM424
 70
    65
 10
0.0
 20
0.0
 30
0.0
  3
*UDIM424
  0
TEXT
  5
   11F
  8
0
  6
CONTINUOUS
 62
     7
 10
-322.649087916471
 20
69.6973144043496
 30
0.0
 40
3.00000002980232
  1
112
 50
449.999999844103
 41
0.933333333333333
 72
     1
 11
-324.149087920785
 21
73.5973144471645
 31
0.0
 73
     2
  0
LINE
  5
   120
  8
0
  6
CONTINUOUS
 62
     7
 10
-309.137023925781
 20
87.872314453125
 30
0.0
 11
-323.649087905884
 21
87.872314453125
 31
0.0
  0
LINE
  5
   121
  8
0
  6
CONTINUOUS
 62
     7
 10
-309.137023925781
 20
59.872314453125
 30
0.0
 11
-323.649087905884
 21
59.872314453125
 31
0.0
  0
LINE
  5
   122
  8
0
  6
CONTINUOUS
 62
     7
 10
-321.649087905884
 20
87.872314453125
 30
0.0
 11
-321.649087905884
 21
59.872314453125
 31
0.0
  0
LINE
  5
   123
  8
0
  6
CONTINUOUS
 62
     7
 10
-321.128143475932
 20
84.9178911759181
 30
0.0
 11
-321.649087905884
 21
87.872314453125
 31
0.0
  0
LINE
  5
   124
  8
0
  6
CONTINUOUS
 62
     7
 10
-321.649087905884
 20
87.872314453125
 30
0.0
 11
-322.170032335835
 21
84.9178911759181
 31
0.0
  0
LINE
  5
   125
  8
0
  6
CONTINUOUS
 62
     7
 10
-322.170032335835
 20
62.826737730332
 30
0.0
 11
-321.649087905884
 21
59.872314453125
 31
0.0
  0
LINE
  5
   126
  8
0
  6
CONTINUOUS
 62
     7
 10
-321.649087905884
 20
59.872314453125
 30
0.0
 11
-321.128143475932
 21
62.826737730332
 31
0.0
  0
ENDBLK
  5
   127
  8
0
  6
CONTINUOUS
 62
     7
  0
BLOCK
  5
   128
  8
0
  6
CONTINUOUS
 62
     7
  2
*UDIM425
 70
    65
 10
0.0
 20
0.0
 30
0.0
  3
*UDIM425
  0
TEXT
  5
   129
  8
0
  6
CONTINUOUS
 62
     7
 10
-298.312023974559
 20
107.846286784274
 30
0.0
 40
3.00000002980232
  1
112
 50
359.999999844103
 41
0.933333333333333
 72
     1
 11
-294.412023931742
 21
109.346286788583
 31
0.0
 73
     2
  0
LINE
  5
   12A
  8
0
  6
CONTINUOUS
 62
     7
 10
-308.137023925781
 20
88.872314453125
 30
0.0
 11
-308.137023925781
 21
108.846286773682
 31
0.0
  0
LINE
  5
   12B
  8
0
  6
CONTINUOUS
 62
     7
 10
-280.137023925781
 20
88.872314453125
 30
0.0
 11
-280.137023925781
 21
108.846286773682
 31
0.0
  0
LINE
  5
   12C
  8
0
  6
CONTINUOUS
 62
     7
 10
-308.137023925781
 20
106.846286773682
 30
0.0
 11
-280.137023925781
 21
106.846286773682
 31
0.0
  0
LINE
  5
   12D
  8
0
  6
CONTINUOUS
 62
     7
 10
-305.182600648574
 20
107.367231203633
 30
0.0
 11
-308.137023925781
 21
106.846286773682
 31
0.0
  0
LINE
  5
   12E
  8
0
  6
CONTINUOUS
 62
     7
 10
-308.137023925781
 20
106.846286773682
 30
0.0
 11
-305.182600648574
 21
106.32534234373
 31
0.0
  0
LINE
  5
   12F
  8
0
  6
CONTINUOUS
 62
     7
 10
-283.091447202988
 20
106.32534234373
 30
0.0
 11
-280.137023925781
 21
106.846286773682
 31
0.0
  0
LINE
  5
   130
  8
0
  6
CONTINUOUS
 62
     7
 10
-280.137023925781
 20
106.846286773682
 30
0.0
 11
-283.091447202988
 21
107.367231203633
 31
0.0
  0
ENDBLK
  5
   131
  8
0
  6
CONTINUOUS
 62
     7
  0
BLOCK
  5
   132
  8
0
  6
CONTINUOUS
 62
     7
  2
*UDIM426
 70
    65
 10
0.0
 20
0.0
 30
0.0
  3
*UDIM426
  0
TEXT
  5
   133
  8
0
  6
CONTINUOUS
 62
     7
 10
-296.912023960651
 20
101.188116080398
 30
0.0
 40
3.00000002980232
  1
80
 50
359.999999844103
 41
0.933333333333333
 72
     1
 11
-294.412023931742
 21
102.68811608851
 31
0.0
 73
     2
  0
LINE
  5
   134
  8
0
  6
CONTINUOUS
 62
     7
 10
-304.137023925781
 20
94.247314453125
 30
0.0
 11
-304.137023925781
 21
102.188116073608
 31
0.0
  0
LINE
  5
   135
  8
0
  6
CONTINUOUS
 62
     7
 10
-284.137023925781
 20
94.247314453125
 30
0.0
 11
-284.137023925781
 21
102.188116073608
 31
0.0
  0
LINE
  5
   136
  8
0
  6
CONTINUOUS
 62
     7
 10
-304.137023925781
 20
100.188116073608
 30
0.0
 11
-284.137023925781
 21
100.188116073608
 31
0.0
  0
LINE
  5
   137
  8
0
  6
CONTINUOUS
 62
     7
 10
-301.182600648574
 20
100.70906050356
 30
0.0
 11
-304.137023925781
 21
100.188116073608
 31
0.0
  0
LINE
  5
   138
  8
0
  6
CONTINUOUS
 62
     7
 10
-304.137023925781
 20
100.188116073608
 30
0.0
 11
-301.182600648574
 21
99.6671716436567
 31
0.0
  0
LINE
  5
   139
  8
0
  6
CONTINUOUS
 62
     7
 10
-287.091447202988
 20
99.6671716436567
 30
0.0
 11
-284.137023925781
 21
100.188116073608
 31
0.0
  0
LINE
  5
   13A
  8
0
  6
CONTINUOUS
 62
     7
 10
-284.137023925781
 20
100.188116073608
 30
0.0
 11
-287.091447202988
 21
100.70906050356
 31
0.0
  0
ENDBLK
  5
   13B
  8
0
  6
CONTINUOUS
 62
     7
  0
BLOCK
  5
   13C
  8
0
  6
CONTINUOUS
 62
     7
  2
*UDIM427
 70
    65
 10
0.0
 20
0.0
 30
0.0
  3
*UDIM427
  0
TEXT
  5
   13D
  8
0
  6
CONTINUOUS
 62
     7
 10
-322.649087916471
 20
69.6973144043496
 30
0.0
 40
3.00000002980232
  1
112
 50
449.999999844103
 41
0.933333333333333
 72
     1
 11
-324.149087920785
 21
73.5973144471645
 31
0.0
 73
     2
  0
LINE
  5
   13E
  8
0
  6
CONTINUOUS
 62
     7
 10
-309.137023925781
 20
87.872314453125
 30
0.0
 11
-323.649087905884
 21
87.872314453125
 31
0.0
  0
LINE
  5
   13F
  8
0
  6
CONTINUOUS
 62
     7
 10
-309.137023925781
 20
59.872314453125
 30
0.0
 11
-323.649087905884
 21
59.872314453125
 31
0.0
  0
LINE
  5
   140
  8
0
  6
CONTINUOUS
 62
     7
 10
-321.649087905884
 20
87.872314453125
 30
0.0
 11
-321.649087905884
 21
59.872314453125
 31
0.0
  0
LINE
  5
   141
  8
0
  6
CONTINUOUS
 62
     7
 10
-321.128143475932
 20
84.9178911759181
 30
0.0
 11
-321.649087905884
 21
87.872314453125
 31
0.0
  0
LINE
  5
   142
  8
0
  6
CONTINUOUS
 62
     7
 10
-321.649087905884
 20
87.872314453125
 30
0.0
 11
-322.170032335835
 21
84.9178911759181
 31
0.0
  0
LINE
  5
   143
  8
0
  6
CONTINUOUS
 62
     7
 10
-322.170032335835
 20
62.826737730332
 30
0.0
 11
-321.649087905884
 21
59.872314453125
 31
0.0
  0
LINE
  5
   144
  8
0
  6
CONTINUOUS
 62
     7
 10
-321.649087905884
 20
59.872314453125
 30
0.0
 11
-321.128143475932
 21
62.826737730332
 31
0.0
  0
ENDBLK
  5
   145
  8
0
  6
CONTINUOUS
 62
     7
  0
BLOCK
  5
   146
  8
0
  6
CONTINUOUS
 62
     7
  2
*HATCH91
 70
    65
 10
0.0
 20
0.0
 30
0.0
  3
*HATCH91
  0
LINE
  5
   147
  8
0
  6
CONTINUOUS
 62
    52
 10
186.918792724609
 20
-4.00005149841309
 30
0.0
 11
184.918792724609
 21
-6.00005149841309
 31
0.0
  0
LINE
  5
   148
  8
0
  6
CONTINUOUS
 62
    52
 10
191.161437988281
 20
-4.00005149841309
 30
0.0
 11
189.161437988281
 21
-6.00005149841309
 31
0.0
  0
LINE
  5
   149
  8
0
  6
CONTINUOUS
 62
    52
 10
195.404083251953
 20
-4.00005149841309
 30
0.0
 11
193.404083251953
 21
-6.00005149841309
 31
0.0
  0
LINE
  5
   14A
  8
0
  6
CONTINUOUS
 62
    52
 10
199.646728515625
 20
-4.00005149841309
 30
0.0
 11
197.646728515625
 21
-6.00005149841309
 31
0.0
  0
LINE
  5
   14B
  8
0
  6
CONTINUOUS
 62
    52
 10
203.889373779297
 20
-4.00005149841309
 30
0.0
 11
201.889373779297
 21
-6.00005149841309
 31
0.0
  0
LINE
  5
   14C
  8
0
  6
CONTINUOUS
 62
    52
 10
208.132019042969
 20
-4.00005149841309
 30
0.0
 11
206.132019042969
 21
-6.00005149841309
 31
0.0
  0
LINE
  5
   14D
  8
0
  6
CONTINUOUS
 62
    52
 10
212.374664306641
 20
-4.00005149841309
 30
0.0
 11
210.374664306641
 21
-6.00005149841309
 31
0.0
  0
LINE
  5
   14E
  8
0
  6
CONTINUOUS
 62
    52
 10
216.617309570313
 20
-4.00005149841309
 30
0.0
 11
214.617309570313
 21
-6.00005149841309
 31
0.0
  0
LINE
  5
   14F
  8
0
  6
CONTINUOUS
 62
    52
 10
220.859954833984
 20
-4.00005149841309
 30
0.0
 11
218.859954833984
 21
-6.00005149841309
 31
0.0
  0
LINE
  5
   150
  8
0
  6
CONTINUOUS
 62
    52
 10
225.102600097656
 20
-4.00005149841309
 30
0.0
 11
223.102600097656
 21
-6.00005149841309
 31
0.0
  0
LINE
  5
   151
  8
0
  6
CONTINUOUS
 62
    52
 10
229.345245361328
 20
-4.00005149841309
 30
0.0
 11
227.345245361328
 21
-6.00005149841309
 31
0.0
  0
LINE
  5
   152
  8
0
  6
CONTINUOUS
 62
    52
 10
233.587890625
 20
-4.00005149841309
 30
0.0
 11
231.587890625
 21
-6.00005149841309
 31
0.0
  0
ENDBLK
  5
   153
  8
0
  6
CONTINUOUS
 62
     7
  0
BLOCK
  5
   154
  8
0
  6
CONTINUOUS
 62
     7
  2
*HATCH92
 70
    65
 10
0.0
 20
0.0
 30
0.0
  3
*HATCH92
  0
LINE
  5
   155
  8
0
  6
CONTINUOUS
 62
    52
 10
169.948226928711
 20
-4.00005149841309
 30
0.0
 11
167.948226928711
 21
-6.00005149841309
 31
0.0
  0
LINE
  5
   156
  8
0
  6
CONTINUOUS
 62
    52
 10
174.190872192383
 20
-4.00005149841309
 30
0.0
 11
172.190872192383
 21
-6.00005149841309
 31
0.0
  0
LINE
  5
   157
  8
0
  6
CONTINUOUS
 62
    52
 10
177.480621337891
 20
-4.95293474197388
 30
0.0
 11
176.433502197266
 21
-6.00005149841309
 31
0.0
  0
ENDBLK
  5
   158
  8
0
  6
CONTINUOUS
 62
     7
  0
BLOCK
  5
   159
  8
0
  6
CONTINUOUS
 62
     7
  2
*HATCH93
 70
    65
 10
0.0
 20
0.0
 30
0.0
  3
*HATCH93
  0
LINE
  5
   15A
  8
0
  6
CONTINUOUS
 62
    52
 10
44.7903175354004
 20
-4.00005149841309
 30
0.0
 11
42.7903175354004
 21
-6.00005149841309
 31
0.0
  0
LINE
  5
   15B
  8
0
  6
CONTINUOUS
 62
    52
 10
49.0329551696777
 20
-4.00005149841309
 30
0.0
 11
47.0329551696777
 21
-6.00005149841309
 31
0.0
  0
LINE
  5
   15C
  8
0
  6
CONTINUOUS
 62
    52
 10
53.2755928039551
 20
-4.00005149841309
 30
0.0
 11
51.2755928039551
 21
-6.00005149841309
 31
0.0
  0
ENDBLK
  5
   15D
  8
0
  6
CONTINUOUS
 62
     7
  0
BLOCK
  5
   15E
  8
0
  6
CONTINUOUS
 62
     7
  2
*HATCH94
 70
    65
 10
0.0
 20
0.0
 30
0.0
  3
*HATCH94
  0
LINE
  5
   15F
  8
0
  6
CONTINUOUS
 62
    52
 10
-23.0919361114502
 20
-4.00005149841309
 30
0.0
 11
-25.0919361114502
 21
-6.00005149841309
 31
0.0
  0
LINE
  5
   160
  8
0
  6
CONTINUOUS
 62
    52
 10
-18.8492946624756
 20
-4.00005149841309
 30
0.0
 11
-20.8492946624756
 21
-6.00005149841309
 31
0.0
  0
LINE
  5
   161
  8
0
  6
CONTINUOUS
 62
    52
 10
-14.606653213501
 20
-4.00005149841309
 30
0.0
 11
-16.606653213501
 21
-6.00005149841309
 31
0.0
  0
LINE
  5
   162
  8
0
  6
CONTINUOUS
 62
    52
 10
-10.3640117645264
 20
-4.00005149841309
 30
0.0
 11
-12.3640117645264
 21
-6.00005149841309
 31
0.0
  0
LINE
  5
   163
  8
0
  6
CONTINUOUS
 62
    52
 10
-6.12137031555176
 20
-4.00005149841309
 30
0.0
 11
-8.12137031555176
 21
-6.00005149841309
 31
0.0
  0
LINE
  5
   164
  8
0
  6
CONTINUOUS
 62
    52
 10
-1.87872910499573
 20
-4.00005149841309
 30
0.0
 11
-3.87872910499573
 21
-6.00005149841309
 31
0.0
  0
LINE
  5
   165
  8
0
  6
CONTINUOUS
 62
    52
 10
2.36391186714172
 20
-4.00005149841309
 30
0.0
 11
0.363911867141724
 21
-6.00005149841309
 31
0.0
  0
LINE
  5
   166
  8
0
  6
CONTINUOUS
 62
    52
 10
6.60655307769775
 20
-4.00005149841309
 30
0.0
 11
4.60655307769775
 21
-6.00005149841309
 31
0.0
  0
LINE
  5
   167
  8
0
  6
CONTINUOUS
 62
    52
 10
10.8491945266724
 20
-4.00005149841309
 30
0.0
 11
8.84919452667236
 21
-6.00005149841309
 31
0.0
  0
LINE
  5
   168
  8
0
  6
CONTINUOUS
 62
    52
 10
15.091835975647
 20
-4.00005149841309
 30
0.0
 11
13.091835975647
 21
-6.00005149841309
 31
0.0
  0
LINE
  5
   169
  8
0
  6
CONTINUOUS
 62
    52
 10
19.3344764709473
 20
-4.00005149841309
 30
0.0
 11
17.3344764709473
 21
-6.00005149841309
 31
0.0
  0
LINE
  5
   16A
  8
0
  6
CONTINUOUS
 62
    52
 10
23.5771179199219
 20
-4.00005149841309
 30
0.0
 11
21.5771179199219
 21
-6.00005149841309
 31
0.0
  0
LINE
  5
   16B
  8
0
  6
CONTINUOUS
 62
    52
 10
27.8197593688965
 20
-4.00005149841309
 30
0.0
 11
25.8197593688965
 21
-6.00005149841309
 31
0.0
  0
LINE
  5
   16C
  8
0
  6
CONTINUOUS
 62
    52
 10
32.0624008178711
 20
-4.00005149841309
 30
0.0
 11
30.0624008178711
 21
-6.00005149841309
 31
0.0
  0
LINE
  5
   16D
  8
0
  6
CONTINUOUS
 62
    52
 10
35.4806251525879
 20
-4.82446241378784
 30
0.0
 11
34.3050346374512
 21
-6.00005149841309
 31
0.0
  0
ENDBLK
  5
   16E
  8
0
  6
CONTINUOUS
 62
     7
  0
BLOCK
  5
   16F
  8
0
  6
CONTINUOUS
 62
     7
  2
*HATCH95
 70
    65
 10
0.0
 20
0.0
 30
0.0
  3
*HATCH95
  0
LINE
  5
   170
  8
0
  6
CONTINUOUS
 62
     3
 10
211.656051635742
 20
121.499923706055
 30
0.0
 11
209.803741455078
 21
119.647605895996
 31
0.0
  0
LINE
  5
   171
  8
0
  6
CONTINUOUS
 62
     3
 10
213.13703918457
 20
120.859588623047
 30
0.0
 11
209.803741455078
 21
117.526290893555
 31
0.0
  0
LINE
  5
   172
  8
0
  6
CONTINUOUS
 62
     3
 10
213.13703918457
 20
118.738265991211
 30
0.0
 11
210.898681640625
 21
116.499923706055
 31
0.0
  0
LINE
  5
   173
  8
0
  6
CONTINUOUS
 62
     3
 10
213.13703918457
 20
116.616943359375
 30
0.0
 11
213.019989013672
 21
116.499923706055
 31
0.0
  0
ENDBLK
  5
   174
  8
0
  6
CONTINUOUS
 62
     7
  0
BLOCK
  5
   175
  8
0
  6
CONTINUOUS
 62
     7
  2
*HATCH96
 70
    65
 10
0.0
 20
0.0
 30
0.0
  3
*HATCH96
  0
LINE
  5
   176
  8
0
  6
CONTINUOUS
 62
     3
 10
223.323303222656
 20
121.499923706055
 30
0.0
 11
221.337036132813
 21
119.513648986816
 31
0.0
  0
LINE
  5
   177
  8
0
  6
CONTINUOUS
 62
     3
 10
225.444610595703
 20
121.499923706055
 30
0.0
 11
221.337036132813
 21
117.39232635498
 31
0.0
  0
LINE
  5
   178
  8
0
  6
CONTINUOUS
 62
     3
 10
227.237030029297
 20
121.171005249023
 30
0.0
 11
222.565948486328
 21
116.499923706055
 31
0.0
  0
LINE
  5
   179
  8
0
  6
CONTINUOUS
 62
     3
 10
227.237030029297
 20
119.049682617188
 30
0.0
 11
224.687255859375
 21
116.499923706055
 31
0.0
  0
LINE
  5
   17A
  8
0
  6
CONTINUOUS
 62
     3
 10
227.237030029297
 20
116.928359985352
 30
0.0
 11
226.808563232422
 21
116.499923706055
 31
0.0
  0
ENDBLK
  5
   17B
  8
0
  6
CONTINUOUS
 62
     7
  0
BLOCK
  5
   17C
  8
0
  6
CONTINUOUS
 62
     7
  2
*HATCH97
 70
    65
 10
0.0
 20
0.0
 30
0.0
  3
*HATCH97
  0
LINE
  5
   17D
  8
0
  6
CONTINUOUS
 62
    92
 10
211.168640136719
 20
123.999923706055
 30
0.0
 11
217.607864379883
 21
117.560691833496
 31
0.0
  0
LINE
  5
   17E
  8
0
  6
CONTINUOUS
 62
    92
 10
220.0185546875
 20
123.635276794434
 30
0.0
 11
222.153915405273
 21
121.499923706055
 31
0.0
  0
ENDBLK
  5
   17F
  8
0
  6
CONTINUOUS
 62
     7
  0
BLOCK
  5
   180
  8
0
  6
CONTINUOUS
 62
     7
  2
*HATCH98
 70
    65
 10
0.0
 20
0.0
 30
0.0
  3
*HATCH98
  0
LINE
  5
   181
  8
0
  6
CONTINUOUS
 62
    92
 10
222.356048583984
 20
100.084564208984
 30
0.0
 11
224.940689086914
 21
97.4999237060547
 31
0.0
  0
ENDBLK
  5
   182
  8
0
  6
CONTINUOUS
 62
     7
  0
BLOCK
  5
   183
  8
0
  6
CONTINUOUS
 62
     7
  2
*HATCH99
 70
    65
 10
0.0
 20
0.0
 30
0.0
  3
*HATCH99
  0
LINE
  5
   184
  8
0
  6
CONTINUOUS
 62
    92
 10
210.598419189453
 20
103.35693359375
 30
0.0
 11
214.237030029297
 21
99.7183074951172
 31
0.0
  0
ENDBLK
  5
   185
  8
0
  6
CONTINUOUS
 62
     7
  0
BLOCK
  5
   186
  8
0
  6
CONTINUOUS
 62
     7
  2
*HATCH100
 70
    65
 10
0.0
 20
0.0
 30
0.0
  3
*HATCH100
  0
LINE
  5
   187
  8
0
  6
CONTINUOUS
 62
    92
 10
215.237030029297
 20
100.685722351074
 30
0.0
 11
214.237030029297
 21
99.6857223510742
 31
0.0
  0
LINE
  5
   188
  8
0
  6
CONTINUOUS
 62
    92
 10
220.237030029297
 20
101.443084716797
 30
0.0
 11
219.237030029297
 21
100.443084716797
 31
0.0
  0
LINE
  5
   189
  8
0
  6
CONTINUOUS
 62
    92
 10
222.136520385742
 20
99.0999221801758
 30
0.0
 11
219.776504516602
 21
96.7399063110352
 31
0.0
  0
ENDBLK
  5
   18A
  8
0
  6
CONTINUOUS
 62
     7
  0
BLOCK
  5
   18B
  8
0
  6
CONTINUOUS
 62
     7
  2
*HATCH101
 70
    65
 10
0.0
 20
0.0
 30
0.0
  3
*HATCH101
  0
LINE
  5
   18C
  8
0
  6
CONTINUOUS
 62
    92
 10
211.264511108398
 20
75.5
 30
0.0
 11
208.764511108398
 21
73.0
 31
0.0
  0
LINE
  5
   18D
  8
0
  6
CONTINUOUS
 62
    92
 10
219.749801635742
 20
75.5
 30
0.0
 11
217.249801635742
 21
73.0
 31
0.0
  0
LINE
  5
   18E
  8
0
  6
CONTINUOUS
 62
    92
 10
228.235092163086
 20
75.5
 30
0.0
 11
225.735092163086
 21
73.0
 31
0.0
  0
LINE
  5
   18F
  8
0
  6
CONTINUOUS
 62
    92
 10
232.477722167969
 20
75.5
 30
0.0
 11
229.977722167969
 21
73.0
 31
0.0
  0
ENDBLK
  5
   190
  8
0
  6
CONTINUOUS
 62
     7
  0
BLOCK
  5
   191
  8
0
  6
CONTINUOUS
 62
     7
  2
*HATCH102
 70
    65
 10
0.0
 20
0.0
 30
0.0
  3
*HATCH102
  0
LINE
  5
   192
  8
0
  6
CONTINUOUS
 62
    92
 10
226.440689086914
 20
95.9999237060547
 30
0.0
 11
227.237030029297
 21
95.2035751342773
 31
0.0
  0
ENDBLK
  5
   193
  8
0
  6
CONTINUOUS
 62
     7
  0
BLOCK
  5
   194
  8
0
  6
CONTINUOUS
 62
     7
  2
*HATCH103
 70
    65
 10
0.0
 20
0.0
 30
0.0
  3
*HATCH103
  0
LINE
  5
   195
  8
0
  6
CONTINUOUS
 62
    92
 10
209.470138549805
 20
95.9999237060547
 30
0.0
 11
211.237030029297
 21
94.233024597168
 31
0.0
  0
ENDBLK
  5
   196
  8
0
  6
CONTINUOUS
 62
     7
  0
BLOCK
  5
   197
  8
0
  6
CONTINUOUS
 62
     7
  2
*HATCH104
 70
    65
 10
0.0
 20
0.0
 30
0.0
  3
*HATCH104
  0
LINE
  5
   198
  8
0
  6
CONTINUOUS
 62
     3
 10
13.3125915527344
 20
121.499923706055
 30
0.0
 11
11.3370676040649
 21
119.524398803711
 31
0.0
  0
LINE
  5
   199
  8
0
  6
CONTINUOUS
 62
     3
 10
14.6703662872314
 20
120.736381530762
 30
0.0
 11
11.3370676040649
 21
117.403076171875
 31
0.0
  0
LINE
  5
   19A
  8
0
  6
CONTINUOUS
 62
     3
 10
14.6703662872314
 20
118.615058898926
 30
0.0
 11
12.5552320480347
 21
116.499923706055
 31
0.0
  0
ENDBLK
  5
   19B
  8
0
  6
CONTINUOUS
 62
     7
  0
BLOCK
  5
   19C
  8
0
  6
CONTINUOUS
 62
     7
  2
*HATCH105
 70
    65
 10
0.0
 20
0.0
 30
0.0
  3
*HATCH105
  0
LINE
  5
   19D
  8
0
  6
CONTINUOUS
 62
     3
 10
-1.53665173053741
 20
121.499923706055
 30
0.0
 11
-2.76293277740479
 21
120.273643493652
 31
0.0
  0
LINE
  5
   19E
  8
0
  6
CONTINUOUS
 62
     3
 10
0.584668755531311
 20
121.499923706055
 30
0.0
 11
-2.76293277740479
 21
118.152320861816
 31
0.0
  0
LINE
  5
   19F
  8
0
  6
CONTINUOUS
 62
     3
 10
2.70598912239075
 20
121.499923706055
 30
0.0
 11
-2.29401111602783
 21
116.499923706055
 31
0.0
  0
LINE
  5
   1A0
  8
0
  6
CONTINUOUS
 62
     3
 10
3.13706731796265
 20
119.809677124023
 30
0.0
 11
-0.172690749168396
 21
116.499923706055
 31
0.0
  0
LINE
  5
   1A1
  8
0
  6
CONTINUOUS
 62
     3
 10
3.13706731796265
 20
117.688354492188
 30
0.0
 11
1.94862973690033
 21
116.499923706055
 31
0.0
  0
ENDBLK
  5
   1A2
  8
0
  6
CONTINUOUS
 62
     7
  0
BLOCK
  5
   1A3
  8
0
  6
CONTINUOUS
 62
     7
  2
*HATCH106
 70
    65
 10
0.0
 20
0.0
 30
0.0
  3
*HATCH106
  0
LINE
  5
   1A4
  8
0
  6
CONTINUOUS
 62
    92
 10
-0.963263213634491
 20
123.999923706055
 30
0.0
 11
1.53673076629639
 21
121.499923706055
 31
0.0
  0
LINE
  5
   1A5
  8
0
  6
CONTINUOUS
 62
    92
 10
7.20595169067383
 20
120.073341369629
 30
0.0
 11
9.24054622650146
 21
118.03874206543
 31
0.0
  0
LINE
  5
   1A6
  8
0
  6
CONTINUOUS
 62
    92
 10
11.7646484375
 20
123.999923706055
 30
0.0
 11
14.2646446228027
 21
121.499923706055
 31
0.0
  0
ENDBLK
  5
   1A7
  8
0
  6
CONTINUOUS
 62
     7
  0
BLOCK
  5
   1A8
  8
0
  6
CONTINUOUS
 62
     7
  2
*HATCH107
 70
    65
 10
0.0
 20
0.0
 30
0.0
  3
*HATCH107
  0
LINE
  5
   1A9
  8
0
  6
CONTINUOUS
 62
    92
 10
2.9661557674408
 20
103.099922180176
 30
0.0
 11
4.23706722259521
 21
101.829010009766
 31
0.0
  0
ENDBLK
  5
   1AA
  8
0
  6
CONTINUOUS
 62
     7
  0
BLOCK
  5
   1AB
  8
0
  6
CONTINUOUS
 62
     7
  2
*HATCH108
 70
    65
 10
0.0
 20
0.0
 30
0.0
  3
*HATCH108
  0
LINE
  5
   1AC
  8
0
  6
CONTINUOUS
 62
    92
 10
11.4514322280884
 20
103.099922180176
 30
0.0
 11
13.5106687545776
 21
101.040687561035
 31
0.0
  0
ENDBLK
  5
   1AD
  8
0
  6
CONTINUOUS
 62
     7
  0
BLOCK
  5
   1AE
  8
0
  6
CONTINUOUS
 62
     7
  2
*HATCH109
 70
    65
 10
0.0
 20
0.0
 30
0.0
  3
*HATCH109
  0
LINE
  5
   1AF
  8
0
  6
CONTINUOUS
 62
    92
 10
1.58087086677551
 20
95.9999237060547
 30
0.0
 11
1.90896880626678
 21
95.6718215942383
 31
0.0
  0
ENDBLK
  5
   1B0
  8
0
  6
CONTINUOUS
 62
     7
  0
BLOCK
  5
   1B1
  8
0
  6
CONTINUOUS
 62
     7
  2
*HATCH110
 70
    65
 10
0.0
 20
0.0
 30
0.0
  3
*HATCH110
  0
LINE
  5
   1B2
  8
0
  6
CONTINUOUS
 62
    92
 10
14.3087844848633
 20
95.9999237060547
 30
0.0
 11
17.2370681762695
 21
93.0716400146484
 31
0.0
  0
ENDBLK
  5
   1B3
  8
0
  6
CONTINUOUS
 62
     7
  0
BLOCK
  5
   1B4
  8
0
  6
CONTINUOUS
 62
     7
  2
*HATCH111
 70
    65
 10
0.0
 20
0.0
 30
0.0
  3
*HATCH111
  0
LINE
  5
   1B5
  8
0
  6
CONTINUOUS
 62
    92
 10
9.76183319091797
 20
103.099922180176
 30
0.0
 11
9.23706722259521
 21
102.575157165527
 31
0.0
  0
LINE
  5
   1B6
  8
0
  6
CONTINUOUS
 62
    92
 10
10.2370672225952
 20
99.33251953125
 30
0.0
 11
7.64445877075195
 21
96.7399063110352
 31
0.0
  0
ENDBLK
  5
   1B7
  8
0
  6
CONTINUOUS
 62
     7
  0
BLOCK
  5
   1B8
  8
0
  6
CONTINUOUS
 62
     7
  2
*HATCH112
 70
    65
 10
0.0
 20
0.0
 30
0.0
  3
*HATCH112
  0
LINE
  5
   1B9
  8
0
  6
CONTINUOUS
 62
    92
 10
-9.35281085968018
 20
75.5
 30
0.0
 11
-11.7809944152832
 21
73.0718154907227
 31
0.0
  0
LINE
  5
   1BA
  8
0
  6
CONTINUOUS
 62
    92
 10
-0.867529392242432
 20
75.5
 30
0.0
 11
-3.36752986907959
 21
73.0
 31
0.0
  0
LINE
  5
   1BB
  8
0
  6
CONTINUOUS
 62
    92
 10
7.61775255203247
 20
75.5
 30
0.0
 11
5.117751121521
 21
73.0
 31
0.0
  0
LINE
  5
   1BC
  8
0
  6
CONTINUOUS
 62
    92
 10
16.1030349731445
 20
75.5
 30
0.0
 11
13.6030321121216
 21
73.0
 31
0.0
  0
ENDBLK
  5
   1BD
  8
0
  6
CONTINUOUS
 62
     7
  0
BLOCK
  5
   1BE
  8
0
  6
CONTINUOUS
 62
   218
  2
*HATCH113
 70
    65
 10
0.0
 20
0.0
 30
0.0
  3
*HATCH113
  0
LINE
  5
   1BF
  8
0
  6
CONTINUOUS
 62
     3
 10
249.555206298828
 20
118.033325195313
 30
0.0
 11
246.960372924805
 21
115.438507080078
 31
0.0
  0
LINE
  5
   1C0
  8
0
  6
CONTINUOUS
 62
     3
 10
250.392639160156
 20
116.749450683594
 30
0.0
 11
246.936386108398
 21
113.293190002441
 31
0.0
  0
LINE
  5
   1C1
  8
0
  6
CONTINUOUS
 62
     3
 10
250.809600830078
 20
115.04508972168
 30
0.0
 11
247.397125244141
 21
111.632606506348
 31
0.0
  0
LINE
  5
   1C2
  8
0
  6
CONTINUOUS
 62
     3
 10
250.669235229492
 20
112.783393859863
 30
0.0
 11
248.35871887207
 21
110.47289276123
 31
0.0
  0
ENDBLK
  5
   1C3
  8
0
  6
CONTINUOUS
 62
   218
  0
BLOCK
  5
   1C4
  8
0
  6
CONTINUOUS
 62
   218
  2
*HATCH114
 70
    65
 10
0.0
 20
0.0
 30
0.0
  3
*HATCH114
  0
LINE
  5
   1C5
  8
0
  6
CONTINUOUS
 62
     3
 10
-23.3745594024658
 20
117.693237304688
 30
0.0
 11
-26.3447074890137
 21
114.723091125488
 31
0.0
  0
LINE
  5
   1C6
  8
0
  6
CONTINUOUS
 62
     3
 10
-22.644079208374
 20
116.302398681641
 30
0.0
 11
-26.1901931762695
 21
112.756286621094
 31
0.0
  0
LINE
  5
   1C7
  8
0
  6
CONTINUOUS
 62
     3
 10
-22.4054756164551
 20
114.41968536377
 30
0.0
 11
-25.6275978088379
 21
111.197563171387
 31
0.0
  0
LINE
  5
   1C8
  8
0
  6
CONTINUOUS
 62
     3
 10
-22.815881729126
 20
111.887954711914
 30
0.0
 11
-24.3964004516602
 21
110.307441711426
 31
0.0
  0
ENDBLK
  5
   1C9
  8
0
  6
CONTINUOUS
 62
   218
  0
BLOCK
  5
   1CA
  8
0
  6
CONTINUOUS
 62
     7
  2
*UDIM428
 70
    65
 10
0.0
 20
0.0
 30
0.0
  3
*UDIM428
  0
TEXT
  5
   1CB
  8
0
  6
CONTINUOUS
 62
     7
 10
-501.555747989372
 20
23.7670470781504
 30
0.0
 40
3.00000002980232
  1
210
 50
89.9999999480344
 41
0.933333333333333
 72
     1
 11
-503.055748000741
 21
27.667047118252
 31
0.0
 73
     2
  0
LINE
  5
   1CC
  8
0
  6
CONTINUOUS
 62
     7
 10
-466.464901792329
 20
-24.5579457181584
 30
0.0
 11
-502.55574798584
 21
-24.5579457181584
 31
0.0
  0
LINE
  5
   1CD
  8
0
  6
CONTINUOUS
 62
     7
 10
-466.464901792329
 20
80.4420385360718
 30
0.0
 11
-502.55574798584
 21
80.4420385360718
 31
0.0
  0
LINE
  5
   1CE
  8
0
  6
CONTINUOUS
 62
     7
 10
-500.55574798584
 20
-24.5579457181584
 30
0.0
 11
-500.55574798584
 21
80.4420385360718
 31
0.0
  0
LINE
  5
   1CF
  8
0
  6
CONTINUOUS
 62
     7
 10
-501.076692415792
 20
-21.6035224409514
 30
0.0
 11
-500.55574798584
 21
-24.5579457181584
 31
0.0
  0
LINE
  5
   1D0
  8
0
  6
CONTINUOUS
 62
     7
 10
-500.55574798584
 20
-24.5579457181584
 30
0.0
 11
-500.034803555888
 21
-21.6035224409514
 31
0.0
  0
LINE
  5
   1D1
  8
0
  6
CONTINUOUS
 62
     7
 10
-500.034803555888
 20
77.4876152588648
 30
0.0
 11
-500.55574798584
 21
80.4420385360718
 31
0.0
  0
LINE
  5
   1D2
  8
0
  6
CONTINUOUS
 62
     7
 10
-500.55574798584
 20
80.4420385360718
 30
0.0
 11
-501.076692415792
 21
77.4876152588648
 31
0.0
  0
ENDBLK
  5
   1D3
  8
0
  6
CONTINUOUS
 62
     7
  0
BLOCK
  5
   1D4
  8
0
  6
CONTINUOUS
 62
     7
  2
*UDIM429
 70
    65
 10
0.0
 20
0.0
 30
0.0
  3
*UDIM429
  0
TEXT
  5
   1D5
  8
0
  6
CONTINUOUS
 62
     7
 10
-493.288948066418
 20
45.254543216658
 30
0.0
 40
3.00000002980232
  1
107,25
 50
89.9999999480344
 41
0.933333333333333
 72
     1
 11
-494.788948073983
 21
53.3545432984829
 31
0.0
 73
     2
  0
LINE
  5
   1D6
  8
0
  6
CONTINUOUS
 62
     7
 10
-489.618255000613
 20
26.8170433044434
 30
0.0
 11
-494.288948059082
 21
26.8170433044434
 31
0.0
  0
LINE
  5
   1D7
  8
0
  6
CONTINUOUS
 62
     7
 10
-466.464901792329
 20
80.4420385360718
 30
0.0
 11
-494.288948059082
 21
80.4420385360718
 31
0.0
  0
LINE
  5
   1D8
  8
0
  6
CONTINUOUS
 62
     7
 10
-492.288948059082
 20
26.8170433044434
 30
0.0
 11
-492.288948059082
 21
80.4420385360718
 31
0.0
  0
LINE
  5
   1D9
  8
0
  6
CONTINUOUS
 62
     7
 10
-492.809892489034
 20
29.7714665816503
 30
0.0
 11
-492.288948059082
 21
26.8170433044434
 31
0.0
  0
LINE
  5
   1DA
  8
0
  6
CONTINUOUS
 62
     7
 10
-492.288948059082
 20
26.8170433044434
 30
0.0
 11
-491.76800362913
 21
29.7714665816503
 31
0.0
  0
LINE
  5
   1DB
  8
0
  6
CONTINUOUS
 62
     7
 10
-491.76800362913
 20
77.4876152588648
 30
0.0
 11
-492.288948059082
 21
80.4420385360718
 31
0.0
  0
LINE
  5
   1DC
  8
0
  6
CONTINUOUS
 62
     7
 10
-492.288948059082
 20
80.4420385360718
 30
0.0
 11
-492.809892489034
 21
77.4876152588648
 31
0.0
  0
ENDBLK
  5
   1DD
  8
0
  6
CONTINUOUS
 62
     7
  0
BLOCK
  5
   1DE
  8
0
  6
CONTINUOUS
 62
     7
  2
*UDIM430
 70
    65
 10
0.0
 20
0.0
 30
0.0
  3
*UDIM430
  0
TEXT
  5
   1DF
  8
0
  6
CONTINUOUS
 62
     7
 10
-465.5741417592
 20
-47.2933196973681
 30
0.0
 40
3.00000002980232
  1
79,5
 50
359.999999948034
 41
0.933333333333333
 72
     1
 11
-460.274141705196
 21
-45.7933196872473
 31
0.0
 73
     2
  0
LINE
  5
   1E0
  8
0
  6
CONTINUOUS
 62
     7
 10
-440.124145507809
 20
-34.9329646886243
 30
0.0
 11
-440.124145507809
 21
-50.2933197021484
 31
0.0
  0
LINE
  5
   1E1
  8
0
  6
CONTINUOUS
 62
     7
 10
-479.874135685291
 20
-27.5827470850742
 30
0.0
 11
-479.874135685291
 21
-50.2933197021484
 31
0.0
  0
LINE
  5
   1E2
  8
0
  6
CONTINUOUS
 62
     7
 10
-440.124145507809
 20
-48.2933197021484
 30
0.0
 11
-479.874135685291
 21
-48.2933197021484
 31
0.0
  0
LINE
  5
   1E3
  8
0
  6
CONTINUOUS
 62
     7
 10
-443.078568785015
 20
-48.8142641321001
 30
0.0
 11
-440.124145507809
 21
-48.2933197021484
 31
0.0
  0
LINE
  5
   1E4
  8
0
  6
CONTINUOUS
 62
     7
 10
-440.124145507809
 20
-48.2933197021484
 30
0.0
 11
-443.078568785015
 21
-47.7723752721968
 31
0.0
  0
LINE
  5
   1E5
  8
0
  6
CONTINUOUS
 62
     7
 10
-476.919712408084
 20
-47.7723752721968
 30
0.0
 11
-479.874135685291
 21
-48.2933197021484
 31
0.0
  0
LINE
  5
   1E6
  8
0
  6
CONTINUOUS
 62
     7
 10
-479.874135685291
 20
-48.2933197021484
 30
0.0
 11
-476.919712408084
 21
-48.8142641321001
 31
0.0
  0
ENDBLK
  5
   1E7
  8
0
  6
CONTINUOUS
 62
     7
  0
BLOCK
  5
   1E8
  8
0
  6
CONTINUOUS
 62
     7
  2
*UDIM431
 70
    65
 10
0.0
 20
0.0
 30
0.0
  3
*UDIM431
  0
TEXT
  5
   1E9
  8
0
  6
CONTINUOUS
 62
     7
 10
-452.11858527299
 20
107.565052038514
 30
0.0
 40
3.00000002980232
  1
18x18
 50
359.999999948034
 41
0.933333333333333
 72
     1
 11
-445.418585205078
 21
109.065052047372
 31
0.0
 73
     2
  0
LINE
  5
   1EA
  8
0
  6
CONTINUOUS
 62
     7
 10
-455.17410736084
 20
85.6920385360718
 30
0.0
 11
-455.17410736084
 21
108.565052032471
 31
0.0
  0
LINE
  5
   1EB
  8
0
  6
CONTINUOUS
 62
     7
 10
-461.87410736084
 20
76.4420385360718
 30
0.0
 11
-461.87410736084
 21
108.565052032471
 31
0.0
  0
LINE
  5
   1EC
  8
0
  6
CONTINUOUS
 62
     7
 10
-438.71858513852
 20
106.565052032471
 30
0.0
 11
-461.87410736084
 21
106.565052032471
 31
0.0
  0
LINE
  5
   1ED
  8
0
  6
CONTINUOUS
 62
     7
 10
-458.128530638047
 20
106.044107602519
 30
0.0
 11
-455.17410736084
 21
106.565052032471
 31
0.0
  0
LINE
  5
   1EE
  8
0
  6
CONTINUOUS
 62
     7
 10
-455.17410736084
 20
106.565052032471
 30
0.0
 11
-458.128530638047
 21
107.085996462422
 31
0.0
  0
LINE
  5
   1EF
  8
0
  6
CONTINUOUS
 62
     7
 10
-458.919684083633
 20
107.085996462422
 30
0.0
 11
-461.87410736084
 21
106.565052032471
 31
0.0
  0
LINE
  5
   1F0
  8
0
  6
CONTINUOUS
 62
     7
 10
-461.87410736084
 20
106.565052032471
 30
0.0
 11
-458.919684083633
 21
106.044107602519
 31
0.0
  0
ENDBLK
  5
   1F1
  8
0
  6
CONTINUOUS
 62
     7
  0
BLOCK
  5
   1F2
  8
0
  6
CONTINUOUS
 62
     7
  2
*UDIM432
 70
    65
 10
0.0
 20
0.0
 30
0.0
  3
*UDIM432
  0
TEXT
  5
   1F3
  8
0
  6
CONTINUOUS
 62
     7
 10
-473.649122651778
 20
107.565052034726
 30
0.0
 40
3.00000002980232
  1
36
 50
359.999999948034
 41
0.933333333333333
 72
     1
 11
-471.149122625589
 21
109.065052047372
 31
0.0
 73
     2
  0
LINE
  5
   1F4
  8
0
  6
CONTINUOUS
 62
     7
 10
-479.874137878418
 20
98.3213987969709
 30
0.0
 11
-479.874137878418
 21
108.565052032471
 31
0.0
  0
LINE
  5
   1F5
  8
0
  6
CONTINUOUS
 62
     7
 10
-461.87410736084
 20
106.565052032471
 30
0.0
 11
-479.874137878418
 21
106.565052032471
 31
0.0
  0
LINE
  5
   1F6
  8
0
  6
CONTINUOUS
 62
     7
 10
-464.828530638047
 20
106.044107602519
 30
0.0
 11
-461.87410736084
 21
106.565052032471
 31
0.0
  0
LINE
  5
   1F7
  8
0
  6
CONTINUOUS
 62
     7
 10
-461.87410736084
 20
106.565052032471
 30
0.0
 11
-464.828530638047
 21
107.085996462422
 31
0.0
  0
LINE
  5
   1F8
  8
0
  6
CONTINUOUS
 62
     7
 10
-476.919714601211
 20
107.085996462422
 30
0.0
 11
-479.874137878418
 21
106.565052032471
 31
0.0
  0
LINE
  5
   1F9
  8
0
  6
CONTINUOUS
 62
     7
 10
-479.874137878418
 20
106.565052032471
 30
0.0
 11
-476.919714601211
 21
106.044107602519
 31
0.0
  0
ENDBLK
  5
   1FA
  8
0
  6
CONTINUOUS
 62
     7
  0
BLOCK
  5
   1FB
  8
0
  6
CONTINUOUS
 62
     7
  2
*UDIM433
 70
    65
 10
0.0
 20
0.0
 30
0.0
  3
*UDIM433
  0
TEXT
  5
   1FC
  8
0
  6
CONTINUOUS
 62
     7
 10
-487.124130356671
 20
107.565052033463
 30
0.0
 40
3.00000002980232
  1
3
 50
359.999999948034
 41
0.933333333333334
 72
     1
 11
-486.024130344391
 21
109.065052047372
 31
0.0
 73
     2
  0
TEXT
  5
   1FD
  8
0
  6
CONTINUOUS
 62
     7
 10
-489.874130390447
 20
107.565052033463
 30
0.0
 40
3.00000002980232
  1
_
 50
359.999999948034
 41
0.933333333333334
 72
     1
 11
-488.774130378167
 21
109.065052047372
 31
0.0
 73
     2
  0
LINE
  5
   1FE
  8
0
  6
CONTINUOUS
 62
     7
 10
-481.374130249023
 20
99.0356351439312
 30
0.0
 11
-481.374130249023
 21
108.565052032471
 31
0.0
  0
LINE
  5
   1FF
  8
0
  6
CONTINUOUS
 62
     7
 10
-479.874137878418
 20
106.565052032471
 30
0.0
 11
-489.874130389094
 21
106.565052032471
 31
0.0
  0
LINE
  5
   200
  8
0
  6
CONTINUOUS
 62
     7
 10
-476.919714601211
 20
107.085996462422
 30
0.0
 11
-479.874137878418
 21
106.565052032471
 31
0.0
  0
LINE
  5
   201
  8
0
  6
CONTINUOUS
 62
     7
 10
-479.874137878418
 20
106.565052032471
 30
0.0
 11
-476.919714601211
 21
106.044107602519
 31
0.0
  0
LINE
  5
   202
  8
0
  6
CONTINUOUS
 62
     7
 10
-484.32855352623
 20
106.044107602519
 30
0.0
 11
-481.374130249023
 21
106.565052032471
 31
0.0
  0
LINE
  5
   203
  8
0
  6
CONTINUOUS
 62
     7
 10
-481.374130249023
 20
106.565052032471
 30
0.0
 11
-484.32855352623
 21
107.085996462422
 31
0.0
  0
ENDBLK
  5
   204
  8
0
  6
CONTINUOUS
 62
     7
  0
BLOCK
  5
   205
  8
0
  6
CONTINUOUS
 62
     7
  2
*UDIM434
 70
    65
 10
0.0
 20
0.0
 30
0.0
  3
*UDIM434
  0
TEXT
  5
   206
  8
0
  6
CONTINUOUS
 62
     7
 10
-397.624119866254
 20
-63.3309326161954
 30
0.0
 40
3.00000002980232
  1
2
 50
359.999999948034
 41
0.933333333333334
 72
     1
 11
-396.524119853973
 21
-61.8309326022863
 31
0.0
 73
     2
  0
LINE
  5
   207
  8
0
  6
CONTINUOUS
 62
     7
 10
-400.624119758606
 20
-42.5798046192293
 30
0.0
 11
-400.624119758606
 21
-66.3309326171875
 31
0.0
  0
LINE
  5
   208
  8
0
  6
CONTINUOUS
 62
     7
 10
-401.624119758606
 20
-42.1140511945717
 30
0.0
 11
-401.624119758606
 21
-66.3309326171875
 31
0.0
  0
LINE
  5
   209
  8
0
  6
CONTINUOUS
 62
     7
 10
-395.424119843046
 20
-64.3309326171875
 30
0.0
 11
-401.624119758606
 21
-64.3309326171875
 31
0.0
  0
LINE
  5
   20A
  8
0
  6
CONTINUOUS
 62
     7
 10
-397.669696481399
 20
-63.8099881872358
 30
0.0
 11
-400.624119758606
 21
-64.3309326171875
 31
0.0
  0
LINE
  5
   20B
  8
0
  6
CONTINUOUS
 62
     7
 10
-400.624119758606
 20
-64.3309326171875
 30
0.0
 11
-397.669696481399
 21
-64.8518770471392
 31
0.0
  0
LINE
  5
   20C
  8
0
  6
CONTINUOUS
 62
     7
 10
-404.578543035813
 20
-64.8518770471392
 30
0.0
 11
-401.624119758606
 21
-64.3309326171875
 31
0.0
  0
LINE
  5
   20D
  8
0
  6
CONTINUOUS
 62
     7
 10
-401.624119758606
 20
-64.3309326171875
 30
0.0
 11
-404.578543035813
 21
-63.8099881872358
 31
0.0
  0
ENDBLK
  5
   20E
  8
0
  6
CONTINUOUS
 62
     7
  0
BLOCK
  5
   20F
  8
0
  6
CONTINUOUS
 62
     7
  2
*UDIM435
 70
    65
 10
0.0
 20
0.0
 30
0.0
  3
*UDIM435
  0
TEXT
  5
   210
  8
0
  6
CONTINUOUS
 62
     7
 10
-447.72412651432
 20
-63.3309326111445
 30
0.0
 40
3.00000002980232
  1
156,5
 50
359.999999948034
 41
0.933333333333333
 72
     1
 11
-441.024126446409
 21
-61.8309326022863
 31
0.0
 73
     2
  0
LINE
  5
   211
  8
0
  6
CONTINUOUS
 62
     7
 10
-479.874135685291
 20
-27.5827470850742
 30
0.0
 11
-479.874135685291
 21
-66.3309326171875
 31
0.0
  0
LINE
  5
   212
  8
0
  6
CONTINUOUS
 62
     7
 10
-401.624119758606
 20
-64.3309326171875
 30
0.0
 11
-479.874135685291
 21
-64.3309326171875
 31
0.0
  0
LINE
  5
   213
  8
0
  6
CONTINUOUS
 62
     7
 10
-404.578543035813
 20
-64.8518770471392
 30
0.0
 11
-401.624119758606
 21
-64.3309326171875
 31
0.0
  0
LINE
  5
   214
  8
0
  6
CONTINUOUS
 62
     7
 10
-401.624119758606
 20
-64.3309326171875
 30
0.0
 11
-404.578543035813
 21
-63.8099881872358
 31
0.0
  0
LINE
  5
   215
  8
0
  6
CONTINUOUS
 62
     7
 10
-476.919712408084
 20
-63.8099881872358
 30
0.0
 11
-479.874135685291
 21
-64.3309326171875
 31
0.0
  0
LINE
  5
   216
  8
0
  6
CONTINUOUS
 62
     7
 10
-479.874135685291
 20
-64.3309326171875
 30
0.0
 11
-476.919712408084
 21
-64.8518770471392
 31
0.0
  0
ENDBLK
  5
   217
  8
0
  6
CONTINUOUS
 62
     7
  0
BLOCK
  5
   218
  8
0
  6
CONTINUOUS
 62
     7
  2
*UDIM436
 70
    65
 10
0.0
 20
0.0
 30
0.0
  3
*UDIM436
  0
TEXT
  5
   219
  8
0
  6
CONTINUOUS
 62
     7
 10
-445.79879077681
 20
-54.6675453150859
 30
0.0
 40
3.00000002980232
  1
153
 50
359.999999948034
 41
0.933333333333333
 72
     1
 11
-441.898790736714
 21
-53.1675453037024
 31
0.0
 73
     2
  0
LINE
  5
   21A
  8
0
  6
CONTINUOUS
 62
     7
 10
-403.373452484111
 20
-0.432956693729103
 30
0.0
 11
-403.373470450991
 21
-57.6675453186034
 31
0.0
  0
LINE
  5
   21B
  8
0
  6
CONTINUOUS
 62
     7
 10
-479.874136282795
 20
-27.582747085074
 30
0.0
 11
-479.874154258585
 21
-57.6675453186032
 31
0.0
  0
LINE
  5
   21C
  8
0
  6
CONTINUOUS
 62
     7
 10
-403.373469823158
 20
-55.6675453186035
 30
0.0
 11
-479.874153063577
 21
-55.6675453186035
 31
0.0
  0
LINE
  5
   21D
  8
0
  6
CONTINUOUS
 62
     7
 10
-406.327893100365
 20
-56.1884897485552
 30
0.0
 11
-403.373469823158
 21
-55.6675453186035
 31
0.0
  0
LINE
  5
   21E
  8
0
  6
CONTINUOUS
 62
     7
 10
-403.373469823158
 20
-55.6675453186035
 30
0.0
 11
-406.327893100365
 21
-55.1466008886519
 31
0.0
  0
LINE
  5
   21F
  8
0
  6
CONTINUOUS
 62
     7
 10
-476.91972978637
 20
-55.1466008886519
 30
0.0
 11
-479.874153063577
 21
-55.6675453186035
 31
0.0
  0
LINE
  5
   220
  8
0
  6
CONTINUOUS
 62
     7
 10
-479.874153063577
 20
-55.6675453186035
 30
0.0
 11
-476.91972978637
 21
-56.1884897485552
 31
0.0
  0
ENDBLK
  5
   221
  8
0
  6
CONTINUOUS
 62
     7
  0
BLOCK
  5
   222
  8
0
  6
CONTINUOUS
 62
     7
  2
*UDIM437
 70
    65
 10
0.0
 20
0.0
 30
0.0
  3
*UDIM437
  0
TEXT
  5
   223
  8
0
  6
CONTINUOUS
 62
     7
 10
-442.112857902561
 20
-72.6131744311708
 30
0.0
 40
3.00000002980232
  1
184,55
 50
359.999999948034
 41
0.933333333333333
 72
     1
 11
-434.012857820741
 21
-71.1131744235754
 31
0.0
 73
     2
  0
LINE
  5
   224
  8
0
  6
CONTINUOUS
 62
     7
 10
-387.601573940425
 20
20.6920433044434
 30
0.0
 11
-387.601605084231
 21
-75.6131744384765
 31
0.0
  0
LINE
  5
   225
  8
0
  6
CONTINUOUS
 62
     7
 10
-479.874136174585
 20
-27.582747085074
 30
0.0
 11
-479.874159675594
 21
-75.6131744384763
 31
0.0
  0
LINE
  5
   226
  8
0
  6
CONTINUOUS
 62
     7
 10
-387.601604437458
 20
-73.6131744384766
 30
0.0
 11
-479.874158697006
 21
-73.6131744384766
 31
0.0
  0
LINE
  5
   227
  8
0
  6
CONTINUOUS
 62
     7
 10
-390.556027714665
 20
-74.1341188684282
 30
0.0
 11
-387.601604437458
 21
-73.6131744384766
 31
0.0
  0
LINE
  5
   228
  8
0
  6
CONTINUOUS
 62
     7
 10
-387.601604437458
 20
-73.6131744384766
 30
0.0
 11
-390.556027714665
 21
-73.0922300085249
 31
0.0
  0
LINE
  5
   229
  8
0
  6
CONTINUOUS
 62
     7
 10
-476.919735419799
 20
-73.0922300085249
 30
0.0
 11
-479.874158697006
 21
-73.6131744384766
 31
0.0
  0
LINE
  5
   22A
  8
0
  6
CONTINUOUS
 62
     7
 10
-479.874158697006
 20
-73.6131744384766
 30
0.0
 11
-476.919735419799
 21
-74.1341188684282
 31
0.0
  0
ENDBLK
  5
   22B
  8
0
  6
CONTINUOUS
 62
     7
  0
BLOCK
  5
   22C
  8
0
  6
CONTINUOUS
 62
     7
  2
*UDIM438
 70
    65
 10
0.0
 20
0.0
 30
0.0
  3
*UDIM438
  0
TEXT
  5
   22D
  8
0
  6
CONTINUOUS
 62
     7
 10
-376.558649066643
 20
22.6420432589713
 30
0.0
 40
3.00000002980232
  1
105
 50
89.9999999480344
 41
0.933333333333333
 72
     1
 11
-378.058649078012
 21
26.5420432990729
 31
0.0
 73
     2
  0
LINE
  5
   22E
  8
0
  6
CONTINUOUS
 62
     7
 10
-400.624119758606
 20
0.567043305623358
 30
0.0
 11
-373.55864906311
 21
0.567043305623358
 31
0.0
  0
LINE
  5
   22F
  8
0
  6
CONTINUOUS
 62
     7
 10
-400.624119758606
 20
53.0670433044434
 30
0.0
 11
-373.55864906311
 21
53.0670433044434
 31
0.0
  0
LINE
  5
   230
  8
0
  6
CONTINUOUS
 62
     7
 10
-375.55864906311
 20
0.567043305623358
 30
0.0
 11
-375.55864906311
 21
53.0670433044434
 31
0.0
  0
LINE
  5
   231
  8
0
  6
CONTINUOUS
 62
     7
 10
-376.079593493062
 20
3.52146658283032
 30
0.0
 11
-375.55864906311
 21
0.567043305623358
 31
0.0
  0
LINE
  5
   232
  8
0
  6
CONTINUOUS
 62
     7
 10
-375.55864906311
 20
0.567043305623358
 30
0.0
 11
-375.037704633159
 21
3.52146658283032
 31
0.0
  0
LINE
  5
   233
  8
0
  6
CONTINUOUS
 62
     7
 10
-375.037704633159
 20
50.1126200272364
 30
0.0
 11
-375.55864906311
 21
53.0670433044434
 31
0.0
  0
LINE
  5
   234
  8
0
  6
CONTINUOUS
 62
     7
 10
-375.55864906311
 20
53.0670433044434
 30
0.0
 11
-376.079593493062
 21
50.1126200272364
 31
0.0
  0
ENDBLK
  5
   235
  8
0
  6
CONTINUOUS
 62
     7
  0
ENDSEC
  0
SECTION
  2
ENTITIES
  0
LINE
  5
   236
  8
0
  6
DASHDOT
 62
     7
 10
-543.691162109375
 20
-66.2884545966279
 30
0.0
 11
-543.691162109375
 21
-127.009111771886
 31
0.0
  0
LINE
  5
   237
  8
0
  6
CONTINUOUS
 62
     3
 10
-526.816162109375
 20
-69.0385348212888
 30
0.0
 11
-526.816162109375
 21
-120.306198120117
 31
0.0
  0
LINE
  5
   238
  8
0
  6
CONTINUOUS
 62
     3
 10
-526.816162109375
 20
-120.306198120117
 30
0.0
 11
-568.691162109375
 21
-120.306198120117
 31
0.0
  0
LINE
  5
   239
  8
0
  6
CONTINUOUS
 62
     3
 10
-568.691162109375
 20
-69.0385348212888
 30
0.0
 11
-568.691162109375
 21
-120.306198120117
 31
0.0
  0
LINE
  5
   23A
  8
0
  6
CONTINUOUS
 62
     3
 10
-526.816162109375
 20
-69.0385348212888
 30
0.0
 11
-568.691162109375
 21
-69.0385348212888
 31
0.0
  0
CIRCLE
  5
   23B
  8
0
  6
CONTINUOUS
 62
     7
 10
-560.537978621352
 20
-73.9843303682192
 30
0.0
 40
0.05
  0
LINE
  5
   23C
  8
0
  6
DASHDOT
 62
     7
 10
-537.441162109375
 20
-78.9020733201572
 30
0.0
 11
-537.441162109375
 21
-112.7209037243
 31
0.0
  0
LINE
  5
   23D
  8
0
  6
DASHDOT
 62
     7
 10
-563.691162109375
 20
-78.6054169131033
 30
0.0
 11
-563.691162109375
 21
-112.869231927827
 31
0.0
  0
LINE
  5
   23E
  8
0
  6
DASHDOT
 62
     7
 10
-530.038961168616
 20
-82.9311981201172
 30
0.0
 11
-562.522837741017
 21
-82.9311981201172
 31
0.0
  0
LINE
  5
   23F
  8
0
  6
DASHDOT
 62
     7
 10
-529.593976558035
 20
-107.931198120117
 30
0.0
 11
-562.967822351597
 21
-107.931198120117
 31
0.0
  0
CIRCLE
  5
   240
  8
0
  6
CONTINUOUS
 62
     7
 10
-563.691162109375
 20
-82.9311981201172
 30
0.0
 40
0.625
  0
CIRCLE
  5
   241
  8
0
  6
CONTINUOUS
 62
     7
 10
-537.441162109375
 20
-82.9311981201172
 30
0.0
 40
0.625
  0
CIRCLE
  5
   242
  8
0
  6
CONTINUOUS
 62
     7
 10
-563.691162109375
 20
-107.931198120117
 30
0.0
 40
0.625
  0
CIRCLE
  5
   243
  8
0
  6
CONTINUOUS
 62
     7
 10
-537.441162109375
 20
-107.931198120117
 30
0.0
 40
0.625
  0
CIRCLE
  5
   244
  8
0
  6
CONTINUOUS
 62
     7
 10
-560.537978621352
 20
-73.9843303682192
 30
0.0
 40
0.0625
  0
LINE
  5
   245
  8
0
  6
DASHDOT
 62
     7
 10
-513.254539162555
 20
-95.9936981201172
 30
0.0
 11
-570.730650415152
 21
-95.9936981201172
 31
0.0
  0
INSERT
  5
   246
  8
0
  6
CONTINUOUS
 62
     7
  2
*UDIM400
 10
0.0
 20
0.0
 30
0.0
  0
INSERT
  5
   247
  8
0
  6
CONTINUOUS
 62
     7
  2
*UDIM401
 10
0.0
 20
0.0
 30
0.0
  0
INSERT
  5
   248
  8
0
  6
CONTINUOUS
 62
     7
  2
*UDIM402
 10
0.0
 20
0.0
 30
0.0
  0
INSERT
  5
   249
  8
0
  6
CONTINUOUS
 62
     7
  2
*UDIM403
 10
0.0
 20
0.0
 30
0.0
  0
INSERT
  5
   24A
  8
0
  6
CONTINUOUS
 62
     7
  2
*UDIM404
 10
0.0
 20
0.0
 30
0.0
  0
TEXT
  5
   24B
  8
0
  6
CONTINUOUS
 62
     7
 10
-544.575124981733
 20
-148.140041379131
 30
0.0
 40
3.00000002980232
  1
Y
 50
359.999999896069
 41
0.916666604744064
 72
     2
 11
-542.375125112863
 21
-148.14004138311
 31
0.0
  0
TEXT
  5
   24C
  8
0
  6
CONTINUOUS
 62
     7
 10
-545.069795134397
 20
-66.9956608096729
 30
0.0
 40
3.00000002980232
  1
Y
 50
359.999999896069
 41
0.916666604744064
 72
     2
 11
-542.869795265527
 21
-66.9956608136525
 31
0.0
  0
TEXT
  5
   24D
  8
0
  6
CONTINUOUS
 62
     7
 10
-588.551311495633
 20
-98.7234320918689
 30
0.0
 40
3.00000002980232
  1
X
 50
359.999999896069
 41
0.916666604744064
 72
     2
 11
-586.351311626764
 21
-98.7234320958485
 31
0.0
  0
TEXT
  5
   24E
  8
0
  6
CONTINUOUS
 62
     7
 10
-509.940536501737
 20
-97.8421454707752
 30
0.0
 40
3.00000002980232
  1
X
 50
359.999999896069
 41
0.916666604744064
 72
     2
 11
-507.740536632867
 21
-97.8421454747548
 31
0.0
  0
LINE
  5
   24F
  8
0
  6
CONTINUOUS
 62
     7
 10
-587.441246607002
 20
-13.1579605340957
 30
0.0
 11
-587.441246607002
 21
69.0420379638673
 31
0.0
  0
LINE
  5
   250
  8
0
  6
CONTINUOUS
 62
     3
 10
-517.69123394473
 20
53.0670433044414
 30
0.0
 11
-569.691226315336
 21
53.0670433044414
 31
0.0
  0
LINE
  5
   251
  8
0
  6
CONTINUOUS
 62
     3
 10
-517.69123394473
 20
0.567050933836232
 30
0.0
 11
-524.441233914928
 21
0.567050933836232
 31
0.0
  0
LINE
  5
   252
  8
0
  6
CONTINUOUS
 62
     3
 10
-530.19123394473
 20
0.567050933835738
 30
0.0
 11
-542.466586893096
 21
0.567050933835738
 31
0.0
  0
LINE
  5
   253
  8
0
  6
CONTINUOUS
 62
     3
 10
-562.941226315336
 20
0.567050933822447
 30
0.0
 11
-569.691226315336
 21
0.567050933822447
 31
0.0
  0
LINE
  5
   254
  8
0
  6
CONTINUOUS
 62
     3
 10
-557.191226315336
 20
0.567050933834487
 30
0.0
 11
-562.941226315336
 21
0.567050933834487
 31
0.0
  0
LINE
  5
   255
  8
0
  6
CONTINUOUS
 62
     3
 10
-524.44123394473
 20
0.567050933836249
 30
0.0
 11
-530.19123394473
 21
0.567050933836249
 31
0.0
  0
LINE
  5
   256
  8
0
  6
DASHDOT
 62
     7
 10
-543.691226315336
 20
-52.8275050005679
 30
0.0
 11
-543.691226315336
 21
109.451283079675
 31
0.0
  0
ARC
  5
   257
  8
0
  6
CONTINUOUS
 62
     3
 10
-569.691226315336
 20
0.817050933822447
 30
0.0
 40
0.25
 50
179.999999948034
 51
269.999999948034
  0
ARC
  5
   258
  8
0
  6
CONTINUOUS
 62
     3
 10
-569.691226315336
 20
52.8170433044414
 30
0.0
 40
0.25
 50
449.999999948034
 51
539.999999948034
  0
ARC
  5
   259
  8
0
  6
CONTINUOUS
 62
     3
 10
-517.69123394473
 20
52.8170433044414
 30
0.0
 40
0.25
 50
359.999999948034
 51
449.999999948034
  0
ARC
  5
   25A
  8
0
  6
CONTINUOUS
 62
     3
 10
-517.69123394473
 20
0.817050933836232
 30
0.0
 40
0.25
 50
269.999999948034
 51
359.999999948034
  0
LINE
  5
   25B
  8
0
  6
CONTINUOUS
 62
     3
 10
-544.915951441243
 20
0.567050933835738
 30
0.0
 11
-557.191226315336
 21
0.567050933835738
 31
0.0
  0
LINE
  5
   25C
  8
0
  6
CONTINUOUS
 62
     7
 10
-557.44123394473
 20
0.567043304441427
 30
0.0
 11
-562.441226315336
 21
0.567043304441427
 31
0.0
  0
LINE
  5
   25D
  8
0
  6
CONTINUOUS
 62
     7
 10
-524.941241574125
 20
0.567043304441427
 30
0.0
 11
-529.941241574125
 21
0.567043304441427
 31
0.0
  0
LINE
  5
   25E
  8
0
  6
CONTINUOUS
 62
     7
 10
-569.941226315336
 20
0.81704330444143
 30
0.0
 11
-569.941226315336
 21
9.8170356750469
 31
0.0
  0
LINE
  5
   25F
  8
0
  6
CONTINUOUS
 62
     7
 10
-517.691226315336
 20
53.0670433044414
 30
0.0
 11
-569.691226315322
 21
53.0670433044414
 31
0.0
  0
LINE
  5
   260
  8
0
  6
CONTINUOUS
 62
     7
 10
-562.441226315336
 20
0.567043304441427
 30
0.0
 11
-569.691226315336
 21
0.567043304441427
 31
0.0
  0
LINE
  5
   261
  8
0
  6
CONTINUOUS
 62
     7
 10
-529.941241574125
 20
0.567043304441427
 30
0.0
 11
-557.44123394473
 21
0.567043304441427
 31
0.0
  0
LINE
  5
   262
  8
0
  6
CONTINUOUS
 62
     7
 10
-517.691226315336
 20
0.567043304441427
 30
0.0
 11
-524.941241574125
 21
0.567043304441427
 31
0.0
  0
LINE
  5
   263
  8
0
  6
CONTINUOUS
 62
     7
 10
-538.316226315336
 20
11.6920356750469
 30
0.0
 11
-538.316226315336
 21
31.6920280456524
 31
0.0
  0
LINE
  5
   264
  8
0
  6
CONTINUOUS
 62
     7
 10
-549.066226315336
 20
11.6920356750469
 30
0.0
 11
-549.066226315336
 21
31.6920280456524
 31
0.0
  0
LINE
  5
   265
  8
0
  6
CONTINUOUS
 62
     7
 10
-517.441226315336
 20
47.0670280456524
 30
0.0
 11
-569.941226315336
 21
47.0670280456524
 31
0.0
  0
LINE
  5
   266
  8
0
  6
CONTINUOUS
 62
     7
 10
-517.441226315336
 20
52.0670280456524
 30
0.0
 11
-569.941226315336
 21
52.0670280456524
 31
0.0
  0
LINE
  5
   267
  8
0
  6
CONTINUOUS
 62
     7
 10
-538.316226315336
 20
31.5597953796367
 30
0.0
 11
-549.066226315336
 21
31.5597953796367
 31
0.0
  0
LINE
  5
   268
  8
0
  6
CONTINUOUS
 62
     7
 10
-538.316226315336
 20
31.6920280456524
 30
0.0
 11
-549.066226315336
 21
31.6920280456524
 31
0.0
  0
LINE
  5
   269
  8
0
  6
CONTINUOUS
 62
     7
 10
-538.316226315336
 20
11.6920356750469
 30
0.0
 11
-549.066226315336
 21
11.6920356750469
 31
0.0
  0
LINE
  5
   26A
  8
0
  6
CONTINUOUS
 62
     7
 10
-538.316226315336
 20
11.8242835998516
 30
0.0
 11
-549.066226315336
 21
11.8242835998516
 31
0.0
  0
LINE
  5
   26B
  8
0
  6
CONTINUOUS
 62
     7
 10
-517.44123394473
 20
10.3170356750469
 30
0.0
 11
-517.44123394473
 21
16.3170316984276
 31
0.0
  0
LINE
  5
   26C
  8
0
  6
CONTINUOUS
 62
     7
 10
-517.44123394473
 20
16.8170316984277
 30
0.0
 11
-517.44123394473
 21
26.5670356750469
 31
0.0
  0
LINE
  5
   26D
  8
0
  6
CONTINUOUS
 62
     7
 10
-517.44123394473
 20
27.0670356750469
 30
0.0
 11
-517.44123394473
 21
33.0670356750469
 31
0.0
  0
LINE
  5
   26E
  8
0
  6
CONTINUOUS
 62
     7
 10
-569.941226315338
 20
10.3170356750469
 30
0.0
 11
-569.941226315338
 21
16.317035675048
 31
0.0
  0
LINE
  5
   26F
  8
0
  6
CONTINUOUS
 62
     7
 10
-569.941226315347
 20
16.817035675048
 30
0.0
 11
-569.941226315347
 21
26.5670356750469
 31
0.0
  0
LINE
  5
   270
  8
0
  6
CONTINUOUS
 62
     7
 10
-569.941226315333
 20
27.0670356750469
 30
0.0
 11
-569.941226315333
 21
33.0670356750469
 31
0.0
  0
LINE
  5
   271
  8
0
  6
CONTINUOUS
 62
     7
 10
-569.941226315322
 20
33.5670356750469
 30
0.0
 11
-569.941226315322
 21
52.8170433044414
 31
0.0
  0
LINE
  5
   272
  8
0
  6
CONTINUOUS
 62
     7
 10
-549.066230302197
 20
16.317045292759
 30
0.0
 11
-569.441226345138
 21
16.317045292759
 31
0.0
  0
LINE
  5
   273
  8
0
  6
CONTINUOUS
 62
     7
 10
-517.44123394473
 20
16.3170413161359
 30
0.0
 11
-517.94123394473
 21
16.3170413161359
 31
0.0
  0
LINE
  5
   274
  8
0
  6
CONTINUOUS
 62
     7
 10
-549.066240081742
 20
16.817045292762
 30
0.0
 11
-569.441226345138
 21
16.817045292762
 31
0.0
  0
LINE
  5
   275
  8
0
  6
CONTINUOUS
 62
     7
 10
-517.44123394473
 20
16.8170413161358
 30
0.0
 11
-517.94123394473
 21
16.8170413161358
 31
0.0
  0
LINE
  5
   276
  8
0
  6
CONTINUOUS
 62
     7
 10
-569.441226345138
 20
16.3170356750469
 30
0.0
 11
-569.441226345138
 21
16.8170356750469
 31
0.0
  0
LINE
  5
   277
  8
0
  6
CONTINUOUS
 62
     7
 10
-517.94123394473
 20
16.3170356750469
 30
0.0
 11
-517.94123394473
 21
16.8170356750469
 31
0.0
  0
LINE
  5
   278
  8
0
  6
CONTINUOUS
 62
     7
 10
-517.441226315336
 20
9.8170356750469
 30
0.0
 11
-517.94123394473
 21
9.8170356750469
 31
0.0
  0
LINE
  5
   279
  8
0
  6
CONTINUOUS
 62
     7
 10
-517.44123394473
 20
10.3170356750469
 30
0.0
 11
-517.94123394473
 21
10.3170356750469
 31
0.0
  0
LINE
  5
   27A
  8
0
  6
CONTINUOUS
 62
     7
 10
-569.441226345138
 20
9.8170356750469
 30
0.0
 11
-569.441226345138
 21
10.3170356750469
 31
0.0
  0
LINE
  5
   27B
  8
0
  6
CONTINUOUS
 62
     7
 10
-517.94123394473
 20
9.8170356750469
 30
0.0
 11
-517.94123394473
 21
10.3170356750469
 31
0.0
  0
LINE
  5
   27C
  8
0
  6
CONTINUOUS
 62
     7
 10
-517.44123394473
 20
33.0670356750469
 30
0.0
 11
-517.94123394473
 21
33.0670356750469
 31
0.0
  0
LINE
  5
   27D
  8
0
  6
CONTINUOUS
 62
     7
 10
-517.44123394473
 20
33.5670356750469
 30
0.0
 11
-517.94123394473
 21
33.5670356750469
 31
0.0
  0
LINE
  5
   27E
  8
0
  6
CONTINUOUS
 62
     7
 10
-569.441226345138
 20
33.0670356750469
 30
0.0
 11
-569.441226345138
 21
33.5670356750469
 31
0.0
  0
LINE
  5
   27F
  8
0
  6
CONTINUOUS
 62
     7
 10
-517.94123394473
 20
33.0670356750469
 30
0.0
 11
-517.94123394473
 21
33.5670356750469
 31
0.0
  0
LINE
  5
   280
  8
0
  6
CONTINUOUS
 62
     7
 10
-549.066230279045
 20
26.5670356750469
 30
0.0
 11
-569.441226345138
 21
26.5670356750469
 31
0.0
  0
LINE
  5
   281
  8
0
  6
CONTINUOUS
 62
     7
 10
-517.44123394473
 20
26.5670356750469
 30
0.0
 11
-517.94123394473
 21
26.5670356750469
 31
0.0
  0
LINE
  5
   282
  8
0
  6
CONTINUOUS
 62
     7
 10
-549.066226315336
 20
27.0670356750469
 30
0.0
 11
-569.441226345138
 21
27.0670356750469
 31
0.0
  0
LINE
  5
   283
  8
0
  6
CONTINUOUS
 62
     7
 10
-517.44123394473
 20
27.0670356750469
 30
0.0
 11
-517.94123394473
 21
27.0670356750469
 31
0.0
  0
LINE
  5
   284
  8
0
  6
CONTINUOUS
 62
     7
 10
-569.441226345138
 20
26.5670356750469
 30
0.0
 11
-569.441226345138
 21
27.0670356750469
 31
0.0
  0
LINE
  5
   285
  8
0
  6
CONTINUOUS
 62
     7
 10
-517.94123394473
 20
26.5670356750469
 30
0.0
 11
-517.94123394473
 21
27.0670356750469
 31
0.0
  0
ARC
  5
   286
  8
0
  6
CONTINUOUS
 62
     7
 10
-569.691226315336
 20
0.817043304441423
 30
0.0
 40
0.25
 50
179.999999948034
 51
269.999999948034
  0
ARC
  5
   287
  8
0
  6
CONTINUOUS
 62
     7
 10
-517.691226315336
 20
0.817043304441434
 30
0.0
 40
0.25
 50
269.999999948034
 51
359.999999948034
  0
ARC
  5
   288
  8
0
  6
CONTINUOUS
 62
     7
 10
-517.691226315336
 20
52.8170433044414
 30
0.0
 40
0.25
 50
359.999999948034
 51
449.999999948034
  0
ARC
  5
   289
  8
0
  6
CONTINUOUS
 62
     7
 10
-569.691226315322
 20
52.8170433044414
 30
0.0
 40
0.25
 50
449.999999948034
 51
539.999999948034
  0
LINE
  5
   28A
  8
0
  6
CONTINUOUS
 62
     7
 10
-554.941226315336
 20
32.3170356750469
 30
0.0
 11
-555.691226315336
 21
32.3170356750469
 31
0.0
  0
LINE
  5
   28B
  8
0
  6
CONTINUOUS
 62
     7
 10
-554.941226315336
 20
27.8170356750469
 30
0.0
 11
-555.691226315336
 21
27.8170356750469
 31
0.0
  0
CIRCLE
  5
   28C
  8
0
  6
CONTINUOUS
 62
     7
 10
-555.316226315336
 20
13.3170356750469
 30
0.0
 40
2.25
  0
CIRCLE
  5
   28D
  8
0
  6
CONTINUOUS
 62
     7
 10
-555.316226315336
 20
13.3170356750469
 30
0.0
 40
1.5
  0
LINE
  5
   28E
  8
0
  6
CONTINUOUS
 62
     7
 10
-555.691226315336
 20
27.8170356750469
 30
0.0
 11
-555.691226315336
 21
32.3170356750469
 31
0.0
  0
LINE
  5
   28F
  8
0
  6
CONTINUOUS
 62
     7
 10
-554.941226315336
 20
27.8170356750469
 30
0.0
 11
-554.941226315336
 21
32.3170356750469
 31
0.0
  0
LINE
  5
   290
  8
0
  6
CONTINUOUS
 62
     7
 10
-550.441226315336
 20
10.3170356750469
 30
0.0
 11
-550.441226315336
 21
16.3170428196297
 31
0.0
  0
LINE
  5
   291
  8
0
  6
CONTINUOUS
 62
     7
 10
-536.941226315336
 20
10.3170356750469
 30
0.0
 11
-536.941226315336
 21
16.3170388430065
 31
0.0
  0
LINE
  5
   292
  8
0
  6
CONTINUOUS
 62
     7
 10
-536.941226315336
 20
27.0670356750469
 30
0.0
 11
-536.941226315336
 21
33.0670356750469
 31
0.0
  0
LINE
  5
   293
  8
0
  6
CONTINUOUS
 62
     7
 10
-550.441226315336
 20
27.0670356750469
 30
0.0
 11
-550.441226315336
 21
33.0670356750469
 31
0.0
  0
LINE
  5
   294
  8
0
  6
CONTINUOUS
 62
     7
 10
-530.916231198148
 20
15.2420356750469
 30
0.0
 11
-531.141231198148
 21
15.2420356750469
 31
0.0
  0
LINE
  5
   295
  8
0
  6
CONTINUOUS
 62
     7
 10
-531.391231198148
 20
11.3920356750469
 30
0.0
 11
-531.791231198148
 21
11.3920356750469
 31
0.0
  0
LINE
  5
   296
  8
0
  6
CONTINUOUS
 62
     7
 10
-534.991231198148
 20
12.6920356750469
 30
0.0
 11
-534.991231198148
 21
12.9420356750469
 31
0.0
  0
LINE
  5
   297
  8
0
  6
CONTINUOUS
 62
     7
 10
-532.391231198148
 20
12.6920356750469
 30
0.0
 11
-532.391231198148
 21
12.9420356750469
 31
0.0
  0
ARC
  5
   298
  8
0
  6
CONTINUOUS
 62
     7
 10
-533.691231198148
 20
12.9420356750469
 30
0.0
 40
1.3
 50
359.999999948034
 51
539.999999948034
  0
ARC
  5
   299
  8
0
  6
CONTINUOUS
 62
     7
 10
-533.691231198148
 20
12.6920356750469
 30
0.0
 40
1.3
 50
179.999999948034
 51
359.999999948034
  0
ARC
  5
   29A
  8
0
  6
CONTINUOUS
 62
     7
 10
-533.691231198148
 20
12.9420356750469
 30
0.0
 40
0.900000000000001
 50
359.999999948034
 51
539.999999948034
  0
ARC
  5
   29B
  8
0
  6
CONTINUOUS
 62
     7
 10
-533.691231198148
 20
12.6920356750469
 30
0.0
 40
0.899999999999999
 50
179.999999948034
 51
359.999999948034
  0
LINE
  5
   29C
  8
0
  6
CONTINUOUS
 62
     7
 10
-534.591231198148
 20
12.6920356750469
 30
0.0
 11
-534.591231198148
 21
12.9420356750469
 31
0.0
  0
LINE
  5
   29D
  8
0
  6
CONTINUOUS
 62
     7
 10
-532.791231198148
 20
12.6920356750469
 30
0.0
 11
-532.791231198148
 21
12.9420356750469
 31
0.0
  0
LINE
  5
   29E
  8
0
  6
CONTINUOUS
 62
     7
 10
-532.266231198148
 20
13.6420356750469
 30
0.0
 11
-532.266231198148
 21
14.0420356750469
 31
0.0
  0
LINE
  5
   29F
  8
0
  6
CONTINUOUS
 62
     7
 10
-531.791231198148
 20
13.6420356750469
 30
0.0
 11
-532.266231198148
 21
13.6420356750469
 31
0.0
  0
LINE
  5
   2A0
  8
0
  6
CONTINUOUS
 62
     7
 10
-530.916231198148
 20
13.6420356750469
 30
0.0
 11
-530.916231198148
 21
14.0420356750469
 31
0.0
  0
LINE
  5
   2A1
  8
0
  6
CONTINUOUS
 62
     7
 10
-531.791231198148
 20
14.0420356750469
 30
0.0
 11
-532.266231198148
 21
14.0420356750469
 31
0.0
  0
LINE
  5
   2A2
  8
0
  6
CONTINUOUS
 62
     7
 10
-531.791231198148
 20
11.3920356750469
 30
0.0
 11
-531.791231198148
 21
13.6420356750469
 31
0.0
  0
LINE
  5
   2A3
  8
0
  6
CONTINUOUS
 62
     7
 10
-531.391231198148
 20
11.3920356750469
 30
0.0
 11
-531.391231198148
 21
13.6420356750469
 31
0.0
  0
LINE
  5
   2A4
  8
0
  6
CONTINUOUS
 62
     7
 10
-530.916231198148
 20
13.6420356750469
 30
0.0
 11
-531.391231198148
 21
13.6420356750469
 31
0.0
  0
LINE
  5
   2A5
  8
0
  6
CONTINUOUS
 62
     7
 10
-530.916231198148
 20
14.0420356750469
 30
0.0
 11
-531.391231198148
 21
14.0420356750469
 31
0.0
  0
LINE
  5
   2A6
  8
0
  6
CONTINUOUS
 62
     7
 10
-531.791231198148
 20
14.0420356750469
 30
0.0
 11
-531.791231198148
 21
14.5920356750469
 31
0.0
  0
LINE
  5
   2A7
  8
0
  6
CONTINUOUS
 62
     7
 10
-531.391231198148
 20
14.0420356750469
 30
0.0
 11
-531.391231198148
 21
14.5920356750469
 31
0.0
  0
ARC
  5
   2A8
  8
0
  6
CONTINUOUS
 62
     7
 10
-531.141231198148
 20
14.5920356750469
 30
0.0
 40
0.65
 50
449.999999948034
 51
539.999999948034
  0
ARC
  5
   2A9
  8
0
  6
CONTINUOUS
 62
     7
 10
-531.141231198148
 20
14.5920356750469
 30
0.0
 40
0.25
 50
449.999999948034
 51
539.999999948034
  0
LINE
  5
   2AA
  8
0
  6
CONTINUOUS
 62
     7
 10
-530.916231198148
 20
14.8420356750469
 30
0.0
 11
-530.916231198148
 21
15.2420356750469
 31
0.0
  0
LINE
  5
   2AB
  8
0
  6
CONTINUOUS
 62
     7
 10
-530.916231198148
 20
14.8420356750469
 30
0.0
 11
-531.141231198148
 21
14.8420356750469
 31
0.0
  0
LINE
  5
   2AC
  8
0
  6
CONTINUOUS
 62
     7
 10
-529.316231198148
 20
15.2420356750469
 30
0.0
 11
-529.541231198148
 21
15.2420356750469
 31
0.0
  0
LINE
  5
   2AD
  8
0
  6
CONTINUOUS
 62
     7
 10
-529.791231198148
 20
11.3920356750469
 30
0.0
 11
-530.191231198148
 21
11.3920356750469
 31
0.0
  0
LINE
  5
   2AE
  8
0
  6
CONTINUOUS
 62
     7
 10
-530.666231198148
 20
13.6420356750469
 30
0.0
 11
-530.666231198148
 21
14.0420356750469
 31
0.0
  0
LINE
  5
   2AF
  8
0
  6
CONTINUOUS
 62
     7
 10
-530.191231198148
 20
13.6420356750469
 30
0.0
 11
-530.666231198148
 21
13.6420356750469
 31
0.0
  0
LINE
  5
   2B0
  8
0
  6
CONTINUOUS
 62
     7
 10
-529.316231198148
 20
13.6420356750469
 30
0.0
 11
-529.316231198148
 21
14.0420356750469
 31
0.0
  0
LINE
  5
   2B1
  8
0
  6
CONTINUOUS
 62
     7
 10
-530.191231198148
 20
14.0420356750469
 30
0.0
 11
-530.666231198148
 21
14.0420356750469
 31
0.0
  0
LINE
  5
   2B2
  8
0
  6
CONTINUOUS
 62
     7
 10
-530.191231198148
 20
11.3920356750469
 30
0.0
 11
-530.191231198148
 21
13.6420356750469
 31
0.0
  0
LINE
  5
   2B3
  8
0
  6
CONTINUOUS
 62
     7
 10
-529.791231198148
 20
11.3920356750469
 30
0.0
 11
-529.791231198148
 21
13.6420356750469
 31
0.0
  0
LINE
  5
   2B4
  8
0
  6
CONTINUOUS
 62
     7
 10
-529.316231198148
 20
13.6420356750469
 30
0.0
 11
-529.791231198148
 21
13.6420356750469
 31
0.0
  0
LINE
  5
   2B5
  8
0
  6
CONTINUOUS
 62
     7
 10
-529.316231198148
 20
14.0420356750469
 30
0.0
 11
-529.791231198148
 21
14.0420356750469
 31
0.0
  0
LINE
  5
   2B6
  8
0
  6
CONTINUOUS
 62
     7
 10
-530.191231198148
 20
14.0420356750469
 30
0.0
 11
-530.191231198148
 21
14.5920356750469
 31
0.0
  0
LINE
  5
   2B7
  8
0
  6
CONTINUOUS
 62
     7
 10
-529.791231198148
 20
14.0420356750469
 30
0.0
 11
-529.791231198148
 21
14.5920356750469
 31
0.0
  0
ARC
  5
   2B8
  8
0
  6
CONTINUOUS
 62
     7
 10
-529.541231198148
 20
14.5920356750469
 30
0.0
 40
0.65
 50
449.999999948034
 51
539.999999948034
  0
ARC
  5
   2B9
  8
0
  6
CONTINUOUS
 62
     7
 10
-529.541231198148
 20
14.5920356750469
 30
0.0
 40
0.25
 50
449.999999948034
 51
539.999999948034
  0
LINE
  5
   2BA
  8
0
  6
CONTINUOUS
 62
     7
 10
-529.316231198148
 20
14.8420356750469
 30
0.0
 11
-529.316231198148
 21
15.2420356750469
 31
0.0
  0
LINE
  5
   2BB
  8
0
  6
CONTINUOUS
 62
     7
 10
-529.316231198148
 20
14.8420356750469
 30
0.0
 11
-529.541231198148
 21
14.8420356750469
 31
0.0
  0
LINE
  5
   2BC
  8
0
  6
CONTINUOUS
 62
     7
 10
-531.591231198148
 20
28.6420356750469
 30
0.0
 11
-531.991231198148
 21
28.6420356750469
 31
0.0
  0
ARC
  5
   2BD
  8
0
  6
CONTINUOUS
 62
     7
 10
-533.691231198148
 20
30.1920356750469
 30
0.0
 40
1.3
 50
359.999999948034
 51
539.999999948034
  0
ARC
  5
   2BE
  8
0
  6
CONTINUOUS
 62
     7
 10
-533.691231198148
 20
30.1920356750469
 30
0.0
 40
0.900000000000001
 50
359.999999948034
 51
539.999999948034
  0
ARC
  5
   2BF
  8
0
  6
CONTINUOUS
 62
     7
 10
-533.691231198148
 20
29.9420356750469
 30
0.0
 40
1.3
 50
179.999999948034
 51
359.999999948034
  0
ARC
  5
   2C0
  8
0
  6
CONTINUOUS
 62
     7
 10
-533.691231198148
 20
29.9420356750469
 30
0.0
 40
0.899999999999999
 50
179.999999948034
 51
359.999999948034
  0
LINE
  5
   2C1
  8
0
  6
CONTINUOUS
 62
     7
 10
-532.791231198148
 20
29.9420356750469
 30
0.0
 11
-532.791231198148
 21
30.1920356750469
 31
0.0
  0
LINE
  5
   2C2
  8
0
  6
CONTINUOUS
 62
     7
 10
-532.391231198148
 20
29.9420356750469
 30
0.0
 11
-532.391231198148
 21
30.1920356750469
 31
0.0
  0
LINE
  5
   2C3
  8
0
  6
CONTINUOUS
 62
     7
 10
-534.591231198148
 20
29.9420356750469
 30
0.0
 11
-534.591231198148
 21
30.1920356750469
 31
0.0
  0
LINE
  5
   2C4
  8
0
  6
CONTINUOUS
 62
     7
 10
-534.991231198148
 20
29.9420356750469
 30
0.0
 11
-534.991231198148
 21
30.1920356750469
 31
0.0
  0
LINE
  5
   2C5
  8
0
  6
CONTINUOUS
 62
     7
 10
-531.991231198148
 20
28.6420356750469
 30
0.0
 11
-531.991231198148
 21
31.4920356750469
 31
0.0
  0
LINE
  5
   2C6
  8
0
  6
CONTINUOUS
 62
     7
 10
-531.591231198148
 20
28.6420356750469
 30
0.0
 11
-531.591231198148
 21
30.3920356750469
 31
0.0
  0
LINE
  5
   2C7
  8
0
  6
CONTINUOUS
 62
     7
 10
-530.191231198148
 20
28.6420356750469
 30
0.0
 11
-530.191231198148
 21
30.3920356750469
 31
0.0
  0
LINE
  5
   2C8
  8
0
  6
CONTINUOUS
 62
     7
 10
-529.791231198148
 20
28.6420356750469
 30
0.0
 11
-529.791231198148
 21
30.4920356750469
 31
0.0
  0
LINE
  5
   2C9
  8
0
  6
CONTINUOUS
 62
     7
 10
-531.591231198148
 20
31.4920356750469
 30
0.0
 11
-531.991231198148
 21
31.4920356750469
 31
0.0
  0
ARC
  5
   2CA
  8
0
  6
CONTINUOUS
 62
     7
 10
-530.891231198148
 20
30.3920356750469
 30
0.0
 40
0.699999999999999
 50
359.999999948034
 51
539.999999948034
  0
LINE
  5
   2CB
  8
0
  6
CONTINUOUS
 62
     7
 10
-531.591231198148
 20
31.0920356750469
 30
0.0
 11
-531.591231198148
 21
31.4920356750469
 31
0.0
  0
ARC
  5
   2CC
  8
0
  6
CONTINUOUS
 62
     7
 10
-530.791231198148
 20
30.4920356750469
 30
0.0
 40
1.0
 50
359.999999948034
 51
503.13010230219
  0
LINE
  5
   2CD
  8
0
  6
CONTINUOUS
 62
     7
 10
-529.791231198148
 20
28.6420356750469
 30
0.0
 11
-530.191231198148
 21
28.6420356750469
 31
0.0
  0
LINE
  5
   2CE
  8
0
  6
CONTINUOUS
 62
     7
 10
-569.441226345138
 20
33.5670356750469
 30
0.0
 11
-569.941226315322
 21
33.5670356750469
 31
0.0
  0
LINE
  5
   2CF
  8
0
  6
CONTINUOUS
 62
     7
 10
-569.441226345138
 20
33.0670356750469
 30
0.0
 11
-569.941226315333
 21
33.0670356750469
 31
0.0
  0
LINE
  5
   2D0
  8
0
  6
CONTINUOUS
 62
     7
 10
-569.441226345138
 20
27.0670356750469
 30
0.0
 11
-569.941226315333
 21
27.0670356750469
 31
0.0
  0
LINE
  5
   2D1
  8
0
  6
CONTINUOUS
 62
     7
 10
-569.441226345138
 20
26.5670356750469
 30
0.0
 11
-569.941226315347
 21
26.5670356750469
 31
0.0
  0
LINE
  5
   2D2
  8
0
  6
CONTINUOUS
 62
     7
 10
-569.441226345138
 20
16.817045292762
 30
0.0
 11
-569.941226315347
 21
16.817045292762
 31
0.0
  0
LINE
  5
   2D3
  8
0
  6
CONTINUOUS
 62
     7
 10
-569.441226345138
 20
16.317045292759
 30
0.0
 11
-569.941226315338
 21
16.317045292759
 31
0.0
  0
LINE
  5
   2D4
  8
0
  6
CONTINUOUS
 62
     7
 10
-569.441226345138
 20
10.3170356750469
 30
0.0
 11
-569.941226315338
 21
10.3170356750469
 31
0.0
  0
LINE
  5
   2D5
  8
0
  6
CONTINUOUS
 62
     7
 10
-569.441226345138
 20
9.8170356750469
 30
0.0
 11
-569.941226315336
 21
9.8170356750469
 31
0.0
  0
LINE
  5
   2D6
  8
0
  6
CONTINUOUS
 62
     7
 10
-517.94123394473
 20
33.5670356750469
 30
0.0
 11
-569.441226345138
 21
33.5670356750469
 31
0.0
  0
LINE
  5
   2D7
  8
0
  6
CONTINUOUS
 62
     7
 10
-517.94123394473
 20
33.0670356750469
 30
0.0
 11
-569.441226345138
 21
33.0670356750469
 31
0.0
  0
LINE
  5
   2D8
  8
0
  6
CONTINUOUS
 62
     7
 10
-517.94123394473
 20
27.0670356750469
 30
0.0
 11
-538.316226315336
 21
27.0670356750469
 31
0.0
  0
LINE
  5
   2D9
  8
0
  6
CONTINUOUS
 62
     7
 10
-517.94123394473
 20
26.5670356750469
 30
0.0
 11
-538.316226315336
 21
26.5670356750469
 31
0.0
  0
LINE
  5
   2DA
  8
0
  6
CONTINUOUS
 62
     7
 10
-517.94123394473
 20
16.8170413161358
 30
0.0
 11
-538.316227807715
 21
16.8170413161358
 31
0.0
  0
LINE
  5
   2DB
  8
0
  6
CONTINUOUS
 62
     7
 10
-517.94123394473
 20
16.3170413161359
 30
0.0
 11
-538.316227990909
 21
16.3170413161359
 31
0.0
  0
LINE
  5
   2DC
  8
0
  6
CONTINUOUS
 62
     7
 10
-517.94123394473
 20
10.3170356750469
 30
0.0
 11
-569.441226345138
 21
10.3170356750469
 31
0.0
  0
LINE
  5
   2DD
  8
0
  6
CONTINUOUS
 62
     7
 10
-517.94123394473
 20
9.8170356750469
 30
0.0
 11
-569.441226345138
 21
9.8170356750469
 31
0.0
  0
LINE
  5
   2DE
  8
0
  6
CONTINUOUS
 62
     7
 10
-538.316226315336
 20
18.7546960297566
 30
0.0
 11
-549.066226315336
 21
18.7546960297566
 31
0.0
  0
LINE
  5
   2DF
  8
0
  6
CONTINUOUS
 62
     7
 10
-538.316226315336
 20
15.6964632769481
 30
0.0
 11
-549.066226315336
 21
15.6964632769481
 31
0.0
  0
LINE
  5
   2E0
  8
0
  6
CONTINUOUS
 62
     7
 10
-538.316226315336
 20
12.7225539638423
 30
0.0
 11
-549.066226315336
 21
12.7225539638423
 31
0.0
  0
LINE
  5
   2E1
  8
0
  6
CONTINUOUS
 62
     7
 10
-538.316226315336
 20
12.3211803999831
 30
0.0
 11
-549.066226315336
 21
12.3211803999831
 31
0.0
  0
LINE
  5
   2E2
  8
0
  6
CONTINUOUS
 62
     7
 10
-572.941226315336
 20
53.0670433044414
 30
0.0
 11
-587.441246607002
 21
53.0670433044414
 31
0.0
  0
LINE
  5
   2E3
  8
0
  6
CONTINUOUS
 62
     7
 10
-572.941226315336
 20
0.567043304441423
 30
0.0
 11
-587.441246607002
 21
0.567043304441423
 31
0.0
  0
LINE
  5
   2E4
  8
0
  6
CONTINUOUS
 62
     3
 10
-517.441234943014
 20
33.5670356750469
 30
0.0
 11
-517.441234943014
 21
52.8170433044414
 31
0.0
  0
LINE
  5
   2E5
  8
0
  6
CONTINUOUS
 62
     7
 10
-518.066242887009
 20
71.692039489751
 30
0.0
 11
-586.816234943014
 21
71.692039489751
 31
0.0
  0
LINE
  5
   2E6
  8
0
  6
CONTINUOUS
 62
     7
 10
-572.941226315336
 20
57.1920471191505
 30
0.0
 11
-586.941234943014
 21
57.1920471191505
 31
0.0
  0
LINE
  5
   2E7
  8
0
  6
CONTINUOUS
 62
     7
 10
-517.441234943028
 20
67.0670423507671
 30
0.0
 11
-517.441234943028
 21
89.817039489751
 31
0.0
  0
LINE
  5
   2E8
  8
0
  6
CONTINUOUS
 62
     7
 10
-587.441234943014
 20
57.6920471191456
 30
0.0
 11
-587.441234943014
 21
89.817039489751
 31
0.0
  0
LINE
  5
   2E9
  8
0
  6
CONTINUOUS
 62
     7
 10
-572.941226315336
 20
57.6920471191455
 30
0.0
 11
-587.316234943014
 21
57.6920471191455
 31
0.0
  0
LINE
  5
   2EA
  8
0
  6
CONTINUOUS
 62
     7
 10
-586.941234943014
 20
57.1920471191506
 30
0.0
 11
-586.941234943014
 21
57.6920471191506
 31
0.0
  0
LINE
  5
   2EB
  8
0
  6
CONTINUOUS
 62
     7
 10
-587.316234972816
 20
57.6920471191455
 30
0.0
 11
-587.441234943014
 21
57.6920471191455
 31
0.0
  0
LINE
  5
   2EC
  8
0
  6
CONTINUOUS
 62
     7
 10
-585.416234847647
 20
-15.8079605102588
 30
0.0
 11
-585.416234847647
 21
71.692039489751
 31
0.0
  0
LINE
  5
   2ED
  8
0
  6
CONTINUOUS
 62
     7
 10
-581.816234943014
 20
-15.8079605102588
 30
0.0
 11
-581.816234943014
 21
71.692039489751
 31
0.0
  0
LINE
  5
   2EE
  8
0
  6
CONTINUOUS
 62
     7
 10
-578.216236468893
 20
-15.8079605102588
 30
0.0
 11
-578.216236468893
 21
71.692039489751
 31
0.0
  0
LINE
  5
   2EF
  8
0
  6
CONTINUOUS
 62
     7
 10
-572.816234943014
 20
66.8170308469195
 30
0.0
 11
-572.816234943014
 21
71.692039489751
 31
0.0
  0
LINE
  5
   2F0
  8
0
  6
CONTINUOUS
 62
     7
 10
-571.016239520651
 20
-15.8079605102588
 30
0.0
 11
-571.016239520651
 21
-13.4329557418843
 31
0.0
  0
LINE
  5
   2F1
  8
0
  6
CONTINUOUS
 62
     7
 10
-569.216236468893
 20
67.0670423507671
 30
0.0
 11
-569.216236468893
 21
71.692039489751
 31
0.0
  0
LINE
  5
   2F2
  8
0
  6
CONTINUOUS
 62
     7
 10
-567.41624104653
 20
67.0670423507671
 30
0.0
 11
-567.41624104653
 21
71.692039489751
 31
0.0
  0
LINE
  5
   2F3
  8
0
  6
CONTINUOUS
 62
     7
 10
-565.616237994772
 20
67.0670423507671
 30
0.0
 11
-565.616237994772
 21
71.692039489751
 31
0.0
  0
LINE
  5
   2F4
  8
0
  6
CONTINUOUS
 62
     7
 10
-563.816234943014
 20
67.0670423507671
 30
0.0
 11
-563.816234943014
 21
71.692039489751
 31
0.0
  0
LINE
  5
   2F5
  8
0
  6
CONTINUOUS
 62
     7
 10
-562.016239520651
 20
67.0670423507671
 30
0.0
 11
-562.016239520651
 21
71.692039489751
 31
0.0
  0
LINE
  5
   2F6
  8
0
  6
CONTINUOUS
 62
     7
 10
-560.216236468893
 20
67.0670423507671
 30
0.0
 11
-560.216236468893
 21
71.692039489751
 31
0.0
  0
LINE
  5
   2F7
  8
0
  6
CONTINUOUS
 62
     7
 10
-558.41624104653
 20
67.0670423507671
 30
0.0
 11
-558.41624104653
 21
71.692039489751
 31
0.0
  0
LINE
  5
   2F8
  8
0
  6
CONTINUOUS
 62
     7
 10
-556.616237994772
 20
67.0670423507671
 30
0.0
 11
-556.616237994772
 21
71.692039489751
 31
0.0
  0
LINE
  5
   2F9
  8
0
  6
CONTINUOUS
 62
     7
 10
-554.816234943014
 20
67.0670423507671
 30
0.0
 11
-554.816234943014
 21
71.692039489751
 31
0.0
  0
LINE
  5
   2FA
  8
0
  6
CONTINUOUS
 62
     7
 10
-553.016239520651
 20
67.0670423507671
 30
0.0
 11
-553.016239520651
 21
71.692039489751
 31
0.0
  0
LINE
  5
   2FB
  8
0
  6
CONTINUOUS
 62
     7
 10
-551.216236468893
 20
67.0670423507671
 30
0.0
 11
-551.216236468893
 21
71.692039489751
 31
0.0
  0
LINE
  5
   2FC
  8
0
  6
CONTINUOUS
 62
     7
 10
-549.41624104653
 20
67.0670423507671
 30
0.0
 11
-549.41624104653
 21
71.692039489751
 31
0.0
  0
LINE
  5
   2FD
  8
0
  6
CONTINUOUS
 62
     7
 10
-547.616237994772
 20
67.0670423507671
 30
0.0
 11
-547.616237994772
 21
71.692039489751
 31
0.0
  0
LINE
  5
   2FE
  8
0
  6
CONTINUOUS
 62
     7
 10
-545.816234943014
 20
67.0670423507671
 30
0.0
 11
-545.816234943014
 21
71.692039489751
 31
0.0
  0
LINE
  5
   2FF
  8
0
  6
CONTINUOUS
 62
     7
 10
-544.016239520651
 20
67.0670423507671
 30
0.0
 11
-544.016239520651
 21
71.692039489751
 31
0.0
  0
LINE
  5
   300
  8
0
  6
CONTINUOUS
 62
     7
 10
-542.216236468893
 20
67.0670423507671
 30
0.0
 11
-542.216236468893
 21
71.692039489751
 31
0.0
  0
LINE
  5
   301
  8
0
  6
CONTINUOUS
 62
     7
 10
-540.41624104653
 20
67.0670423507671
 30
0.0
 11
-540.41624104653
 21
71.692039489751
 31
0.0
  0
LINE
  5
   302
  8
0
  6
CONTINUOUS
 62
     7
 10
-538.616237994772
 20
67.0670423507671
 30
0.0
 11
-538.616237994772
 21
71.692039489751
 31
0.0
  0
LINE
  5
   303
  8
0
  6
CONTINUOUS
 62
     7
 10
-536.816234943014
 20
67.0670423507671
 30
0.0
 11
-536.816234943014
 21
71.692039489751
 31
0.0
  0
LINE
  5
   304
  8
0
  6
CONTINUOUS
 62
     7
 10
-535.016239520651
 20
67.0670423507671
 30
0.0
 11
-535.016239520651
 21
71.692039489751
 31
0.0
  0
LINE
  5
   305
  8
0
  6
CONTINUOUS
 62
     7
 10
-533.216236468893
 20
67.0670423507671
 30
0.0
 11
-533.216236468893
 21
71.692039489751
 31
0.0
  0
LINE
  5
   306
  8
0
  6
CONTINUOUS
 62
     7
 10
-531.41624104653
 20
67.0670423507671
 30
0.0
 11
-531.41624104653
 21
71.692039489751
 31
0.0
  0
LINE
  5
   307
  8
0
  6
CONTINUOUS
 62
     7
 10
-529.616237994772
 20
67.0670423507671
 30
0.0
 11
-529.616237994772
 21
71.692039489751
 31
0.0
  0
LINE
  5
   308
  8
0
  6
CONTINUOUS
 62
     7
 10
-527.816234943014
 20
67.0670423507671
 30
0.0
 11
-527.816234943014
 21
71.692039489751
 31
0.0
  0
LINE
  5
   309
  8
0
  6
CONTINUOUS
 62
     7
 10
-526.016239520651
 20
67.0670423507671
 30
0.0
 11
-526.016239520651
 21
71.692039489751
 31
0.0
  0
LINE
  5
   30A
  8
0
  6
CONTINUOUS
 62
     7
 10
-524.216236468893
 20
67.0670423507671
 30
0.0
 11
-524.216236468893
 21
71.692039489751
 31
0.0
  0
LINE
  5
   30B
  8
0
  6
CONTINUOUS
 62
     7
 10
-522.41624104653
 20
67.0670423507671
 30
0.0
 11
-522.41624104653
 21
71.692039489751
 31
0.0
  0
LINE
  5
   30C
  8
0
  6
CONTINUOUS
 62
     7
 10
-520.616237994772
 20
67.0670423507671
 30
0.0
 11
-520.616237994772
 21
71.692039489751
 31
0.0
  0
LINE
  5
   30D
  8
0
  6
CONTINUOUS
 62
     7
 10
-518.816234943014
 20
67.0670423507671
 30
0.0
 11
-518.816234943014
 21
71.692039489751
 31
0.0
  0
ARC
  5
   30E
  8
0
  6
CONTINUOUS
 62
     7
 10
-586.816234943014
 20
71.067039489751
 30
0.0
 40
0.625
 50
449.999999948034
 51
539.999999948034
  0
ARC
  5
   30F
  8
0
  6
CONTINUOUS
 62
     7
 10
-518.066242887009
 20
71.067039489751
 30
0.0
 40
0.625
 50
360.000036000188
 51
449.999999948034
  0
LINE
  5
   310
  8
0
  6
CONTINUOUS
 62
     7
 10
-518.066242887009
 20
-15.8079605102588
 30
0.0
 11
-586.816234943014
 21
-15.8079605102588
 31
0.0
  0
LINE
  5
   311
  8
0
  6
CONTINUOUS
 62
     7
 10
-517.441234943028
 20
-33.9329605102588
 30
0.0
 11
-517.441234943028
 21
-13.4329557418843
 31
0.0
  0
LINE
  5
   312
  8
0
  6
CONTINUOUS
 62
     7
 10
-587.441234943014
 20
-33.9329605102588
 30
0.0
 11
-587.441234943014
 21
-1.80796813965338
 31
0.0
  0
LINE
  5
   313
  8
0
  6
CONTINUOUS
 62
     7
 10
-583.616234656912
 20
-15.8079605102588
 30
0.0
 11
-583.616234656912
 21
71.692039489751
 31
0.0
  0
LINE
  5
   314
  8
0
  6
CONTINUOUS
 62
     7
 10
-580.016234752279
 20
-15.8079605102588
 30
0.0
 11
-580.016234752279
 21
71.692039489751
 31
0.0
  0
LINE
  5
   315
  8
0
  6
CONTINUOUS
 62
     7
 10
-576.41624104653
 20
-15.8079605102588
 30
0.0
 11
-576.41624104653
 21
71.692039489751
 31
0.0
  0
LINE
  5
   316
  8
0
  6
CONTINUOUS
 62
     7
 10
-574.616237994772
 20
-15.8079605102588
 30
0.0
 11
-574.616237994772
 21
71.692039489751
 31
0.0
  0
LINE
  5
   317
  8
0
  6
CONTINUOUS
 62
     7
 10
-569.216236468893
 20
-15.8079605102588
 30
0.0
 11
-569.216236468893
 21
-13.4329557418843
 31
0.0
  0
LINE
  5
   318
  8
0
  6
CONTINUOUS
 62
     7
 10
-567.41624104653
 20
-15.8079605102588
 30
0.0
 11
-567.41624104653
 21
-13.4329557418843
 31
0.0
  0
LINE
  5
   319
  8
0
  6
CONTINUOUS
 62
     7
 10
-565.616237994772
 20
-15.8079605102588
 30
0.0
 11
-565.616237994772
 21
-13.4329557418843
 31
0.0
  0
LINE
  5
   31A
  8
0
  6
CONTINUOUS
 62
     7
 10
-563.816234943014
 20
-15.8079605102588
 30
0.0
 11
-563.816234943014
 21
-13.4329557418843
 31
0.0
  0
LINE
  5
   31B
  8
0
  6
CONTINUOUS
 62
     7
 10
-562.016239520651
 20
-15.8079605102588
 30
0.0
 11
-562.016239520651
 21
-13.4329557418843
 31
0.0
  0
LINE
  5
   31C
  8
0
  6
CONTINUOUS
 62
     7
 10
-560.216236468893
 20
-15.8079605102588
 30
0.0
 11
-560.216236468893
 21
-13.4329557418843
 31
0.0
  0
LINE
  5
   31D
  8
0
  6
CONTINUOUS
 62
     7
 10
-558.41624104653
 20
-15.8079605102588
 30
0.0
 11
-558.41624104653
 21
-13.4329557418843
 31
0.0
  0
LINE
  5
   31E
  8
0
  6
CONTINUOUS
 62
     7
 10
-556.616237994772
 20
-15.8079605102588
 30
0.0
 11
-556.616237994772
 21
-13.4329557418843
 31
0.0
  0
LINE
  5
   31F
  8
0
  6
CONTINUOUS
 62
     7
 10
-554.816234943014
 20
-15.8079605102588
 30
0.0
 11
-554.816234943014
 21
-13.4329557418843
 31
0.0
  0
LINE
  5
   320
  8
0
  6
CONTINUOUS
 62
     7
 10
-553.016239520651
 20
-15.8079605102588
 30
0.0
 11
-553.016239520651
 21
-13.4329557418843
 31
0.0
  0
LINE
  5
   321
  8
0
  6
CONTINUOUS
 62
     7
 10
-551.216236468893
 20
-15.8079605102588
 30
0.0
 11
-551.216236468893
 21
-13.4329557418843
 31
0.0
  0
LINE
  5
   322
  8
0
  6
CONTINUOUS
 62
     7
 10
-549.41624104653
 20
-15.8079605102588
 30
0.0
 11
-549.41624104653
 21
-13.4329557418843
 31
0.0
  0
LINE
  5
   323
  8
0
  6
CONTINUOUS
 62
     7
 10
-547.616237994772
 20
-15.8079605102588
 30
0.0
 11
-547.616237994772
 21
-13.4329557418843
 31
0.0
  0
LINE
  5
   324
  8
0
  6
CONTINUOUS
 62
     7
 10
-545.816234943014
 20
-15.8079605102588
 30
0.0
 11
-545.816234943014
 21
-13.4329557418843
 31
0.0
  0
LINE
  5
   325
  8
0
  6
CONTINUOUS
 62
     7
 10
-544.016239520651
 20
-15.8079605102588
 30
0.0
 11
-544.016239520651
 21
-13.4329557418843
 31
0.0
  0
LINE
  5
   326
  8
0
  6
CONTINUOUS
 62
     7
 10
-542.216236468893
 20
-15.8079605102588
 30
0.0
 11
-542.216236468893
 21
-13.4329557418843
 31
0.0
  0
LINE
  5
   327
  8
0
  6
CONTINUOUS
 62
     7
 10
-540.41624104653
 20
-15.8079605102588
 30
0.0
 11
-540.41624104653
 21
-13.4329557418843
 31
0.0
  0
LINE
  5
   328
  8
0
  6
CONTINUOUS
 62
     7
 10
-538.616237994772
 20
-15.8079605102588
 30
0.0
 11
-538.616237994772
 21
-13.4329557418843
 31
0.0
  0
LINE
  5
   329
  8
0
  6
CONTINUOUS
 62
     7
 10
-536.816234943014
 20
-15.8079605102588
 30
0.0
 11
-536.816234943014
 21
-13.4329557418843
 31
0.0
  0
LINE
  5
   32A
  8
0
  6
CONTINUOUS
 62
     7
 10
-535.016239520651
 20
-15.8079605102588
 30
0.0
 11
-535.016239520651
 21
-13.4329557418843
 31
0.0
  0
LINE
  5
   32B
  8
0
  6
CONTINUOUS
 62
     7
 10
-533.216236468893
 20
-15.8079605102588
 30
0.0
 11
-533.216236468893
 21
-13.4329557418843
 31
0.0
  0
LINE
  5
   32C
  8
0
  6
CONTINUOUS
 62
     7
 10
-531.41624104653
 20
-15.8079605102588
 30
0.0
 11
-531.41624104653
 21
-13.4329557418843
 31
0.0
  0
LINE
  5
   32D
  8
0
  6
CONTINUOUS
 62
     7
 10
-529.616237994772
 20
-15.8079605102588
 30
0.0
 11
-529.616237994772
 21
-13.4329557418843
 31
0.0
  0
LINE
  5
   32E
  8
0
  6
CONTINUOUS
 62
     7
 10
-527.816234943014
 20
-15.8079605102588
 30
0.0
 11
-527.816234943014
 21
-13.4329557418843
 31
0.0
  0
LINE
  5
   32F
  8
0
  6
CONTINUOUS
 62
     7
 10
-526.016239520651
 20
-15.8079605102588
 30
0.0
 11
-526.016239520651
 21
-13.4329557418843
 31
0.0
  0
LINE
  5
   330
  8
0
  6
CONTINUOUS
 62
     7
 10
-524.216236468893
 20
-15.8079605102588
 30
0.0
 11
-524.216236468893
 21
-13.4329557418843
 31
0.0
  0
LINE
  5
   331
  8
0
  6
CONTINUOUS
 62
     7
 10
-522.41624104653
 20
-15.8079605102588
 30
0.0
 11
-522.41624104653
 21
-13.4329557418843
 31
0.0
  0
LINE
  5
   332
  8
0
  6
CONTINUOUS
 62
     7
 10
-520.616237994772
 20
-15.8079605102588
 30
0.0
 11
-520.616237994772
 21
-13.4329557418843
 31
0.0
  0
LINE
  5
   333
  8
0
  6
CONTINUOUS
 62
     7
 10
-518.816234943014
 20
-15.8079605102588
 30
0.0
 11
-518.816234943014
 21
-13.4329557418843
 31
0.0
  0
ARC
  5
   334
  8
0
  6
CONTINUOUS
 62
     7
 10
-586.816234943014
 20
-15.1829605102588
 30
0.0
 40
0.625
 50
179.999999948034
 51
269.999999948034
  0
ARC
  5
   335
  8
0
  6
CONTINUOUS
 62
     7
 10
-518.066242887009
 20
-15.1829605102588
 30
0.0
 40
0.625
 50
269.999999948034
 51
359.99996389588
  0
LINE
  5
   336
  8
0
  6
DASHDOT
 62
     7
 10
-578.691202696246
 20
-27.6079526571567
 30
0.0
 11
-578.691202696246
 21
-21.5079561403444
 31
0.0
  0
LINE
  5
   337
  8
0
  6
DASHDOT
 62
     7
 10
-561.191202696246
 20
-27.6079526571567
 30
0.0
 11
-561.191202696246
 21
-21.5079561403444
 31
0.0
  0
LINE
  5
   338
  8
0
  6
DASHDOT
 62
     7
 10
-543.691202696246
 20
-27.6079526571567
 30
0.0
 11
-543.691202696246
 21
-21.5079561403444
 31
0.0
  0
LINE
  5
   339
  8
0
  6
DASHDOT
 62
     7
 10
-526.191202696246
 20
-27.6079526571567
 30
0.0
 11
-526.191202696246
 21
-21.5079561403444
 31
0.0
  0
LINE
  5
   33A
  8
0
  6
DASHDOT
 62
     7
 10
-543.691202696246
 20
77.3920351198366
 30
0.0
 11
-543.691202696246
 21
83.4920316366489
 31
0.0
  0
LINE
  5
   33B
  8
0
  6
DASHDOT
 62
     7
 10
-508.848646920166
 20
26.8170433044414
 30
0.0
 11
-596.218321387159
 21
26.8170433044414
 31
0.0
  0
LINE
  5
   33C
  8
0
  6
CONTINUOUS
 62
     7
 10
-518.066234943028
 20
90.442039489751
 30
0.0
 11
-586.816234943014
 21
90.442039489751
 31
0.0
  0
LINE
  5
   33D
  8
0
  6
CONTINUOUS
 62
     7
 10
-518.066234943028
 20
-34.5579605102588
 30
0.0
 11
-586.816234943014
 21
-34.5579605102588
 31
0.0
  0
ARC
  5
   33E
  8
0
  6
CONTINUOUS
 62
     7
 10
-586.816234943014
 20
-33.9329605102588
 30
0.0
 40
0.625
 50
179.999999948034
 51
269.999999948034
  0
ARC
  5
   33F
  8
0
  6
CONTINUOUS
 62
     7
 10
-518.066234943028
 20
-33.9329605102588
 30
0.0
 40
0.625
 50
269.999999948034
 51
359.999999948034
  0
ARC
  5
   340
  8
0
  6
CONTINUOUS
 62
     7
 10
-586.816234943014
 20
89.817039489751
 30
0.0
 40
0.625
 50
89.9999999480344
 51
179.999999948034
  0
ARC
  5
   341
  8
0
  6
CONTINUOUS
 62
     7
 10
-518.066234943028
 20
89.817039489751
 30
0.0
 40
0.625
 50
359.999999948034
 51
449.999999948034
  0
LINE
  5
   342
  8
0
  6
CONTINUOUS
 62
     7
 10
-517.441234943028
 20
71.942039489751
 30
0.0
 11
-587.441234943014
 21
71.942039489751
 31
0.0
  0
LINE
  5
   343
  8
0
  6
CONTINUOUS
 62
     7
 10
-517.441234943028
 20
-16.0579605102588
 30
0.0
 11
-587.441234943014
 21
-16.0579605102588
 31
0.0
  0
LINE
  5
   344
  8
0
  6
CONTINUOUS
 62
     7
 10
-542.216236468893
 20
-34.5579605102588
 30
0.0
 11
-542.216236468893
 21
-16.0579605102588
 31
0.0
  0
LINE
  5
   345
  8
0
  6
CONTINUOUS
 62
     7
 10
-540.41624104653
 20
-34.5579605102588
 30
0.0
 11
-540.41624104653
 21
-16.0579605102588
 31
0.0
  0
LINE
  5
   346
  8
0
  6
CONTINUOUS
 62
     7
 10
-538.616237994772
 20
-34.5579605102588
 30
0.0
 11
-538.616237994772
 21
-16.0579605102588
 31
0.0
  0
LINE
  5
   347
  8
0
  6
CONTINUOUS
 62
     7
 10
-536.816234943014
 20
-34.5579605102588
 30
0.0
 11
-536.816234943014
 21
-16.0579605102588
 31
0.0
  0
LINE
  5
   348
  8
0
  6
CONTINUOUS
 62
     7
 10
-535.016239520651
 20
-34.5579605102588
 30
0.0
 11
-535.016239520651
 21
-16.0579605102588
 31
0.0
  0
LINE
  5
   349
  8
0
  6
CONTINUOUS
 62
     7
 10
-533.216236468893
 20
-34.5579605102588
 30
0.0
 11
-533.216236468893
 21
-16.0579605102588
 31
0.0
  0
LINE
  5
   34A
  8
0
  6
CONTINUOUS
 62
     7
 10
-531.41624104653
 20
-34.5579605102588
 30
0.0
 11
-531.41624104653
 21
-16.0579605102588
 31
0.0
  0
LINE
  5
   34B
  8
0
  6
CONTINUOUS
 62
     7
 10
-529.616237994772
 20
-34.5579605102588
 30
0.0
 11
-529.616237994772
 21
-16.0579605102588
 31
0.0
  0
LINE
  5
   34C
  8
0
  6
CONTINUOUS
 62
     7
 10
-527.816234943014
 20
-34.5579605102588
 30
0.0
 11
-527.816234943014
 21
-16.0579605102588
 31
0.0
  0
LINE
  5
   34D
  8
0
  6
CONTINUOUS
 62
     7
 10
-526.016239520651
 20
-34.5579605102588
 30
0.0
 11
-526.016239520651
 21
-16.0579605102588
 31
0.0
  0
LINE
  5
   34E
  8
0
  6
CONTINUOUS
 62
     7
 10
-524.216236468893
 20
-34.5579605102588
 30
0.0
 11
-524.216236468893
 21
-16.0579605102588
 31
0.0
  0
LINE
  5
   34F
  8
0
  6
CONTINUOUS
 62
     7
 10
-522.41624104653
 20
-34.5579605102588
 30
0.0
 11
-522.41624104653
 21
-16.0579605102588
 31
0.0
  0
LINE
  5
   350
  8
0
  6
CONTINUOUS
 62
     7
 10
-520.616237994772
 20
-34.5579605102588
 30
0.0
 11
-520.616237994772
 21
-16.0579605102588
 31
0.0
  0
LINE
  5
   351
  8
0
  6
CONTINUOUS
 62
     7
 10
-518.816234943014
 20
-34.5579605102588
 30
0.0
 11
-518.816234943014
 21
-16.0579605102588
 31
0.0
  0
LINE
  5
   352
  8
0
  6
CONTINUOUS
 62
     7
 10
-585.416234847647
 20
-34.5579605102588
 30
0.0
 11
-585.416234847647
 21
-16.0579605102588
 31
0.0
  0
LINE
  5
   353
  8
0
  6
CONTINUOUS
 62
     7
 10
-581.816234943014
 20
-34.5579605102588
 30
0.0
 11
-581.816234943014
 21
-16.0579605102588
 31
0.0
  0
LINE
  5
   354
  8
0
  6
CONTINUOUS
 62
     7
 10
-578.216236468893
 20
-34.5579605102588
 30
0.0
 11
-578.216236468893
 21
-16.0579605102588
 31
0.0
  0
LINE
  5
   355
  8
0
  6
CONTINUOUS
 62
     7
 10
-572.816234943014
 20
-34.5579605102588
 30
0.0
 11
-572.816234943014
 21
-13.1829442380372
 31
0.0
  0
LINE
  5
   356
  8
0
  6
CONTINUOUS
 62
     7
 10
-571.016239520651
 20
-34.5579605102588
 30
0.0
 11
-571.016239520651
 21
-16.0579605102588
 31
0.0
  0
LINE
  5
   357
  8
0
  6
CONTINUOUS
 62
     7
 10
-583.616234656912
 20
-34.5579605102588
 30
0.0
 11
-583.616234656912
 21
-16.0579605102588
 31
0.0
  0
LINE
  5
   358
  8
0
  6
CONTINUOUS
 62
     7
 10
-580.016234752279
 20
-34.5579605102588
 30
0.0
 11
-580.016234752279
 21
-16.0579605102588
 31
0.0
  0
LINE
  5
   359
  8
0
  6
CONTINUOUS
 62
     7
 10
-576.41624104653
 20
-34.5579605102588
 30
0.0
 11
-576.41624104653
 21
-16.0579605102588
 31
0.0
  0
LINE
  5
   35A
  8
0
  6
CONTINUOUS
 62
     7
 10
-574.616237994772
 20
-34.5579605102588
 30
0.0
 11
-574.616237994772
 21
-16.0579605102588
 31
0.0
  0
LINE
  5
   35B
  8
0
  6
CONTINUOUS
 62
     7
 10
-569.216236468893
 20
-34.5579605102588
 30
0.0
 11
-569.216236468893
 21
-16.0579605102588
 31
0.0
  0
LINE
  5
   35C
  8
0
  6
CONTINUOUS
 62
     7
 10
-567.41624104653
 20
-34.5579605102588
 30
0.0
 11
-567.41624104653
 21
-16.0579605102588
 31
0.0
  0
LINE
  5
   35D
  8
0
  6
CONTINUOUS
 62
     7
 10
-565.616237994772
 20
-34.5579605102588
 30
0.0
 11
-565.616237994772
 21
-16.0579605102588
 31
0.0
  0
LINE
  5
   35E
  8
0
  6
CONTINUOUS
 62
     7
 10
-563.816234943014
 20
-34.5579605102588
 30
0.0
 11
-563.816234943014
 21
-16.0579605102588
 31
0.0
  0
LINE
  5
   35F
  8
0
  6
CONTINUOUS
 62
     7
 10
-562.016239520651
 20
-34.5579605102588
 30
0.0
 11
-562.016239520651
 21
-16.0579605102588
 31
0.0
  0
LINE
  5
   360
  8
0
  6
CONTINUOUS
 62
     7
 10
-560.216236468893
 20
-34.5579605102588
 30
0.0
 11
-560.216236468893
 21
-16.0579605102588
 31
0.0
  0
LINE
  5
   361
  8
0
  6
CONTINUOUS
 62
     7
 10
-558.41624104653
 20
-34.5579605102588
 30
0.0
 11
-558.41624104653
 21
-16.0579605102588
 31
0.0
  0
LINE
  5
   362
  8
0
  6
CONTINUOUS
 62
     7
 10
-556.616237994772
 20
-34.5579605102588
 30
0.0
 11
-556.616237994772
 21
-16.0579605102588
 31
0.0
  0
LINE
  5
   363
  8
0
  6
CONTINUOUS
 62
     7
 10
-554.816234943014
 20
-34.5579605102588
 30
0.0
 11
-554.816234943014
 21
-16.0579605102588
 31
0.0
  0
LINE
  5
   364
  8
0
  6
CONTINUOUS
 62
     7
 10
-553.016239520651
 20
-34.5579605102588
 30
0.0
 11
-553.016239520651
 21
-16.0579605102588
 31
0.0
  0
LINE
  5
   365
  8
0
  6
CONTINUOUS
 62
     7
 10
-551.216236468893
 20
-34.5579605102588
 30
0.0
 11
-551.216236468893
 21
-16.0579605102588
 31
0.0
  0
LINE
  5
   366
  8
0
  6
CONTINUOUS
 62
     7
 10
-549.41624104653
 20
-34.5579605102588
 30
0.0
 11
-549.41624104653
 21
-16.0579605102588
 31
0.0
  0
LINE
  5
   367
  8
0
  6
CONTINUOUS
 62
     7
 10
-547.616237994772
 20
-34.5579605102588
 30
0.0
 11
-547.616237994772
 21
-16.0579605102588
 31
0.0
  0
LINE
  5
   368
  8
0
  6
CONTINUOUS
 62
     7
 10
-545.816234943014
 20
-34.5579605102588
 30
0.0
 11
-545.816234943014
 21
-16.0579605102588
 31
0.0
  0
LINE
  5
   369
  8
0
  6
CONTINUOUS
 62
     7
 10
-544.016239520651
 20
-34.5579605102588
 30
0.0
 11
-544.016239520651
 21
-16.0579605102588
 31
0.0
  0
LINE
  5
   36A
  8
0
  6
DASHDOT
 62
     7
 10
-578.691202696246
 20
77.3920351198366
 30
0.0
 11
-578.691202696246
 21
83.4920316366489
 31
0.0
  0
LINE
  5
   36B
  8
0
  6
DASHDOT
 62
     7
 10
-561.191202696246
 20
77.3920351198366
 30
0.0
 11
-561.191202696246
 21
83.4920316366489
 31
0.0
  0
LINE
  5
   36C
  8
0
  6
CONTINUOUS
 62
     7
 10
-585.416234847647
 20
71.942039489751
 30
0.0
 11
-585.416234847647
 21
90.442039489751
 31
0.0
  0
LINE
  5
   36D
  8
0
  6
CONTINUOUS
 62
     7
 10
-581.816234943014
 20
71.942039489751
 30
0.0
 11
-581.816234943014
 21
90.442039489751
 31
0.0
  0
LINE
  5
   36E
  8
0
  6
CONTINUOUS
 62
     7
 10
-578.216236468893
 20
71.942039489751
 30
0.0
 11
-578.216236468893
 21
90.442039489751
 31
0.0
  0
LINE
  5
   36F
  8
0
  6
CONTINUOUS
 62
     7
 10
-572.816234943014
 20
71.942039489751
 30
0.0
 11
-572.816234943014
 21
90.442039489751
 31
0.0
  0
LINE
  5
   370
  8
0
  6
CONTINUOUS
 62
     7
 10
-571.016239520651
 20
71.942039489751
 30
0.0
 11
-571.016239520651
 21
90.442039489751
 31
0.0
  0
LINE
  5
   371
  8
0
  6
CONTINUOUS
 62
     7
 10
-583.616234656912
 20
71.942039489751
 30
0.0
 11
-583.616234656912
 21
90.442039489751
 31
0.0
  0
LINE
  5
   372
  8
0
  6
CONTINUOUS
 62
     7
 10
-580.016234752279
 20
71.942039489751
 30
0.0
 11
-580.016234752279
 21
90.442039489751
 31
0.0
  0
LINE
  5
   373
  8
0
  6
CONTINUOUS
 62
     7
 10
-576.41624104653
 20
71.942039489751
 30
0.0
 11
-576.41624104653
 21
90.442039489751
 31
0.0
  0
LINE
  5
   374
  8
0
  6
CONTINUOUS
 62
     7
 10
-574.616237994772
 20
71.942039489751
 30
0.0
 11
-574.616237994772
 21
90.442039489751
 31
0.0
  0
LINE
  5
   375
  8
0
  6
CONTINUOUS
 62
     7
 10
-569.216236468893
 20
71.942039489751
 30
0.0
 11
-569.216236468893
 21
90.442039489751
 31
0.0
  0
LINE
  5
   376
  8
0
  6
CONTINUOUS
 62
     7
 10
-567.41624104653
 20
71.942039489751
 30
0.0
 11
-567.41624104653
 21
90.442039489751
 31
0.0
  0
LINE
  5
   377
  8
0
  6
CONTINUOUS
 62
     7
 10
-565.616237994772
 20
71.942039489751
 30
0.0
 11
-565.616237994772
 21
90.442039489751
 31
0.0
  0
LINE
  5
   378
  8
0
  6
CONTINUOUS
 62
     7
 10
-563.816234943014
 20
71.942039489751
 30
0.0
 11
-563.816234943014
 21
90.442039489751
 31
0.0
  0
LINE
  5
   379
  8
0
  6
CONTINUOUS
 62
     7
 10
-562.016239520651
 20
71.942039489751
 30
0.0
 11
-562.016239520651
 21
90.442039489751
 31
0.0
  0
LINE
  5
   37A
  8
0
  6
CONTINUOUS
 62
     7
 10
-560.216236468893
 20
71.942039489751
 30
0.0
 11
-560.216236468893
 21
90.442039489751
 31
0.0
  0
LINE
  5
   37B
  8
0
  6
CONTINUOUS
 62
     7
 10
-558.41624104653
 20
71.942039489751
 30
0.0
 11
-558.41624104653
 21
90.442039489751
 31
0.0
  0
LINE
  5
   37C
  8
0
  6
CONTINUOUS
 62
     7
 10
-556.616237994772
 20
71.942039489751
 30
0.0
 11
-556.616237994772
 21
90.442039489751
 31
0.0
  0
LINE
  5
   37D
  8
0
  6
CONTINUOUS
 62
     7
 10
-554.816234943014
 20
71.942039489751
 30
0.0
 11
-554.816234943014
 21
90.442039489751
 31
0.0
  0
LINE
  5
   37E
  8
0
  6
CONTINUOUS
 62
     7
 10
-553.016239520651
 20
71.942039489751
 30
0.0
 11
-553.016239520651
 21
90.442039489751
 31
0.0
  0
LINE
  5
   37F
  8
0
  6
CONTINUOUS
 62
     7
 10
-551.216236468893
 20
71.942039489751
 30
0.0
 11
-551.216236468893
 21
90.442039489751
 31
0.0
  0
LINE
  5
   380
  8
0
  6
CONTINUOUS
 62
     7
 10
-549.41624104653
 20
71.942039489751
 30
0.0
 11
-549.41624104653
 21
90.442039489751
 31
0.0
  0
LINE
  5
   381
  8
0
  6
CONTINUOUS
 62
     7
 10
-547.616237994772
 20
71.942039489751
 30
0.0
 11
-547.616237994772
 21
90.442039489751
 31
0.0
  0
LINE
  5
   382
  8
0
  6
CONTINUOUS
 62
     7
 10
-545.816234943014
 20
71.942039489751
 30
0.0
 11
-545.816234943014
 21
90.442039489751
 31
0.0
  0
LINE
  5
   383
  8
0
  6
DASHDOT
 62
     7
 10
-526.191202696246
 20
77.3920351198366
 30
0.0
 11
-526.191202696246
 21
83.4920316366489
 31
0.0
  0
LINE
  5
   384
  8
0
  6
CONTINUOUS
 62
     7
 10
-542.216236468893
 20
71.942039489751
 30
0.0
 11
-542.216236468893
 21
90.442039489751
 31
0.0
  0
LINE
  5
   385
  8
0
  6
CONTINUOUS
 62
     7
 10
-540.41624104653
 20
71.942039489751
 30
0.0
 11
-540.41624104653
 21
90.442039489751
 31
0.0
  0
LINE
  5
   386
  8
0
  6
CONTINUOUS
 62
     7
 10
-538.616237994772
 20
71.942039489751
 30
0.0
 11
-538.616237994772
 21
90.442039489751
 31
0.0
  0
LINE
  5
   387
  8
0
  6
CONTINUOUS
 62
     7
 10
-536.816234943014
 20
71.942039489751
 30
0.0
 11
-536.816234943014
 21
90.442039489751
 31
0.0
  0
LINE
  5
   388
  8
0
  6
CONTINUOUS
 62
     7
 10
-535.016239520651
 20
71.942039489751
 30
0.0
 11
-535.016239520651
 21
90.442039489751
 31
0.0
  0
LINE
  5
   389
  8
0
  6
CONTINUOUS
 62
     7
 10
-533.216236468893
 20
71.942039489751
 30
0.0
 11
-533.216236468893
 21
90.442039489751
 31
0.0
  0
LINE
  5
   38A
  8
0
  6
CONTINUOUS
 62
     7
 10
-531.41624104653
 20
71.942039489751
 30
0.0
 11
-531.41624104653
 21
90.442039489751
 31
0.0
  0
LINE
  5
   38B
  8
0
  6
CONTINUOUS
 62
     7
 10
-529.616237994772
 20
71.942039489751
 30
0.0
 11
-529.616237994772
 21
90.442039489751
 31
0.0
  0
LINE
  5
   38C
  8
0
  6
CONTINUOUS
 62
     7
 10
-527.816234943014
 20
71.942039489751
 30
0.0
 11
-527.816234943014
 21
90.442039489751
 31
0.0
  0
LINE
  5
   38D
  8
0
  6
CONTINUOUS
 62
     7
 10
-526.016239520651
 20
71.942039489751
 30
0.0
 11
-526.016239520651
 21
90.442039489751
 31
0.0
  0
LINE
  5
   38E
  8
0
  6
CONTINUOUS
 62
     7
 10
-524.216236468893
 20
71.942039489751
 30
0.0
 11
-524.216236468893
 21
90.442039489751
 31
0.0
  0
LINE
  5
   38F
  8
0
  6
CONTINUOUS
 62
     7
 10
-522.41624104653
 20
71.942039489751
 30
0.0
 11
-522.41624104653
 21
90.442039489751
 31
0.0
  0
LINE
  5
   390
  8
0
  6
CONTINUOUS
 62
     7
 10
-520.616237994772
 20
71.942039489751
 30
0.0
 11
-520.616237994772
 21
90.442039489751
 31
0.0
  0
LINE
  5
   391
  8
0
  6
CONTINUOUS
 62
     7
 10
-518.816234943014
 20
71.942039489751
 30
0.0
 11
-518.816234943014
 21
90.442039489751
 31
0.0
  0
LINE
  5
   392
  8
0
  6
CONTINUOUS
 62
     7
 10
-544.016239520651
 20
71.942039489751
 30
0.0
 11
-544.016239520651
 21
90.442039489751
 31
0.0
  0
LINE
  5
   393
  8
0
  6
CONTINUOUS
 62
     7
 10
-571.016239520651
 20
67.0670423507671
 30
0.0
 11
-571.016239520651
 21
71.692039489751
 31
0.0
  0
LINE
  5
   394
  8
0
  6
CONTINUOUS
 62
     7
 10
-517.44123394473
 20
0.817043304441434
 30
0.0
 11
-517.44123394473
 21
9.8170356750469
 31
0.0
  0
TEXT
  5
   395
  8
0
  6
CONTINUOUS
 62
     7
 10
-590.826169028672
 20
10.1265583168789
 30
0.0
 40
3.00000002980232
  1
=          =
 50
89.9999999480344
 41
0.916666604744064
 72
     2
 11
-590.826168999282
 21
42.5765564428095
 31
0.0
  0
TEXT
  5
   396
  8
0
  6
CONTINUOUS
 62
     7
 10
-561.05725661999
 20
102.283509048674
 30
0.0
 40
3.00000002980232
  1
=          =
 50
359.999999948034
 41
0.916666604744064
 72
     2
 11
-528.607258494059
 21
102.283509019406
 31
0.0
  0
INSERT
  5
   397
  8
0
  6
CONTINUOUS
 62
     7
  2
*UDIM405
 10
0.0
 20
0.0
 30
0.0
  0
INSERT
  5
   398
  8
0
  6
CONTINUOUS
 62
     7
  2
*UDIM406
 10
0.0
 20
0.0
 30
0.0
  0
INSERT
  5
   399
  8
0
  6
CONTINUOUS
 62
     7
  2
*UDIM407
 10
0.0
 20
0.0
 30
0.0
  0
INSERT
  5
   39A
  8
0
  6
CONTINUOUS
 62
     7
  2
*UDIM408
 10
0.0
 20
0.0
 30
0.0
  0
INSERT
  5
   39B
  8
0
  6
CONTINUOUS
 62
     7
  2
*UDIM409
 10
0.0
 20
0.0
 30
0.0
  0
INSERT
  5
   39C
  8
0
  6
CONTINUOUS
 62
     7
  2
*UDIM410
 10
0.0
 20
0.0
 30
0.0
  0
INSERT
  5
   39D
  8
0
  6
CONTINUOUS
 62
     7
  2
*UDIM411
 10
0.0
 20
0.0
 30
0.0
  0
INSERT
  5
   39E
  8
0
  6
CONTINUOUS
 62
     7
  2
*UDIM412
 10
0.0
 20
0.0
 30
0.0
  0
TEXT
  5
   39F
  8
0
  6
CONTINUOUS
 62
     7
 10
-560.146024625361
 20
93.3198936311934
 30
0.0
 40
3.00000002980232
  1
=          =
 50
359.999999948034
 41
0.916666604744064
 72
     2
 11
-527.69602649943
 21
93.3198936019252
 31
0.0
  0
INSERT
  5
   3A0
  8
0
  6
CONTINUOUS
 62
     7
  2
*UDIM413
 10
0.0
 20
0.0
 30
0.0
  0
INSERT
  5
   3A1
  8
0
  6
CONTINUOUS
 62
     7
  2
*UDIM414
 10
0.0
 20
0.0
 30
0.0
  0
INSERT
  5
   3A2
  8
0
  6
CONTINUOUS
 62
     7
  2
*UDIM415
 10
0.0
 20
0.0
 30
0.0
  0
INSERT
  5
   3A3
  8
0
  6
CONTINUOUS
 62
     7
  2
*UDIM416
 10
0.0
 20
0.0
 30
0.0
  0
INSERT
  5
   3A4
  8
0
  6
CONTINUOUS
 62
     7
  2
*UDIM417
 10
0.0
 20
0.0
 30
0.0
  0
INSERT
  5
   3A5
  8
0
  6
CONTINUOUS
 62
     7
  2
*UDIM418
 10
0.0
 20
0.0
 30
0.0
  0
INSERT
  5
   3A6
  8
0
  6
CONTINUOUS
 62
     7
  2
*UDIM419
 10
0.0
 20
0.0
 30
0.0
  0
TEXT
  5
   3A7
  8
0
  6
CONTINUOUS
 62
     7
 10
-544.153906185793
 20
118.537355070503
 30
0.0
 40
3.00000002980232
  1
Y
 50
359.999999948034
 41
0.916666604744064
 72
     2
 11
-541.953906316923
 21
118.537355068519
 31
0.0
  0
TEXT
  5
   3A8
  8
0
  6
CONTINUOUS
 62
     7
 10
-630.532739956545
 20
25.9917503646924
 30
0.0
 40
3.00000002980232
  1
X
 50
359.999999948034
 41
0.916666604744064
 72
     2
 11
-628.332740087675
 21
25.9917503627081
 31
0.0
  0
INSERT
  5
   3A9
  8
255
  6
CONTINUOUS
 62
     7
  2
MOSTRINA
 10
-601.110354733304
 20
-28.1732683181782
 30
0.0
 41
0.5
 42
0.5
 50
359.999999792138
 43
0.5
  0
LINE
  5
   3AA
  8
0
  6
CONTINUOUS
 62
     7
 10
-308.137023925781
 20
59.872314453125
 30
0.0
 11
-280.137023925781
 21
59.872314453125
 31
0.0
  0
LINE
  5
   3AB
  8
0
  6
CONTINUOUS
 62
     7
 10
-308.137023925781
 20
87.872314453125
 30
0.0
 11
-280.137023925781
 21
87.872314453125
 31
0.0
  0
LINE
  5
   3AC
  8
0
  6
CONTINUOUS
 62
     7
 10
-308.137023925781
 20
87.872314453125
 30
0.0
 11
-308.137023925781
 21
59.872314453125
 31
0.0
  0
LINE
  5
   3AD
  8
0
  6
CONTINUOUS
 62
     7
 10
-280.137023925781
 20
87.872314453125
 30
0.0
 11
-280.137023925781
 21
59.872314453125
 31
0.0
  0
LINE
  5
   3AE
  8
0
  6
DASHDOT
 62
     7
 10
-294.137023925781
 20
106.343782121878
 30
0.0
 11
-294.137023925781
 21
49.5005613413816
 31
0.0
  0
CIRCLE
  5
   3AF
  8
0
  6
CONTINUOUS
 62
     7
 10
-304.137023925781
 20
91.622314453125
 30
0.0
 40
0.875
  0
CIRCLE
  5
   3B0
  8
0
  6
CONTINUOUS
 62
     7
 10
-284.137023925781
 20
91.622314453125
 30
0.0
 40
0.875
  0
CIRCLE
  5
   3B1
  8
0
  6
CONTINUOUS
 62
     7
 10
-284.137023925781
 20
56.122314453125
 30
0.0
 40
0.875
  0
CIRCLE
  5
   3B2
  8
0
  6
CONTINUOUS
 62
     7
 10
-304.137023925781
 20
56.122314453125
 30
0.0
 40
0.875
  0
LINE
  5
   3B3
  8
0
  6
CONTINUOUS
 62
     3
 10
-312.101519595196
 20
93.9721147504163
 30
0.0
 11
-276.29815032521
 21
93.9721147504163
 31
0.0
  0
LINE
  5
   3B4
  8
0
  6
CONTINUOUS
 62
     3
 10
-312.101519595196
 20
52.766833625661
 30
0.0
 11
-276.29815032521
 21
52.766833625661
 31
0.0
  0
LINE
  5
   3B5
  8
0
  6
CONTINUOUS
 62
     3
 10
-276.29815032521
 20
93.9721147504163
 30
0.0
 11
-276.29815032521
 21
52.766833625661
 31
0.0
  0
LINE
  5
   3B6
  8
0
  6
CONTINUOUS
 62
     3
 10
-312.101519595196
 20
93.9721147504163
 30
0.0
 11
-312.101519595196
 21
52.766833625661
 31
0.0
  0
LINE
  5
   3B7
  8
0
  6
DASHDOT
 62
     7
 10
-284.137023925781
 20
93.247314453125
 30
0.0
 11
-284.137023925781
 21
89.997314453125
 31
0.0
  0
LINE
  5
   3B8
  8
0
  6
DASHDOT
 62
     7
 10
-285.762023925781
 20
91.622314453125
 30
0.0
 11
-282.512023925781
 21
91.622314453125
 31
0.0
  0
LINE
  5
   3B9
  8
0
  6
DASHDOT
 62
     7
 10
-304.137023925781
 20
93.247314453125
 30
0.0
 11
-304.137023925781
 21
89.997314453125
 31
0.0
  0
LINE
  5
   3BA
  8
0
  6
DASHDOT
 62
     7
 10
-305.762023925781
 20
91.622314453125
 30
0.0
 11
-302.512023925781
 21
91.622314453125
 31
0.0
  0
LINE
  5
   3BB
  8
0
  6
DASHDOT
 62
     7
 10
-304.137023925781
 20
57.747314453125
 30
0.0
 11
-304.137023925781
 21
54.497314453125
 31
0.0
  0
LINE
  5
   3BC
  8
0
  6
DASHDOT
 62
     7
 10
-305.762023925781
 20
56.122314453125
 30
0.0
 11
-302.512023925781
 21
56.122314453125
 31
0.0
  0
LINE
  5
   3BD
  8
0
  6
DASHDOT
 62
     7
 10
-284.137023925781
 20
57.747314453125
 30
0.0
 11
-284.137023925781
 21
54.497314453125
 31
0.0
  0
LINE
  5
   3BE
  8
0
  6
DASHDOT
 62
     7
 10
-285.762023925781
 20
56.122314453125
 30
0.0
 11
-282.512023925781
 21
56.122314453125
 31
0.0
  0
LINE
  5
   3BF
  8
0
  6
CONTINUOUS
 62
     7
 10
-308.137023925781
 20
59.872314453125
 30
0.0
 11
-280.137023925781
 21
59.872314453125
 31
0.0
  0
LINE
  5
   3C0
  8
0
  6
CONTINUOUS
 62
     7
 10
-308.137023925781
 20
87.872314453125
 30
0.0
 11
-280.137023925781
 21
87.872314453125
 31
0.0
  0
LINE
  5
   3C1
  8
0
  6
CONTINUOUS
 62
     7
 10
-308.137023925781
 20
87.872314453125
 30
0.0
 11
-308.137023925781
 21
59.872314453125
 31
0.0
  0
LINE
  5
   3C2
  8
0
  6
CONTINUOUS
 62
     7
 10
-280.137023925781
 20
87.872314453125
 30
0.0
 11
-280.137023925781
 21
59.872314453125
 31
0.0
  0
LINE
  5
   3C3
  8
0
  6
DASHDOT
 62
     7
 10
-294.137023925781
 20
106.343782121878
 30
0.0
 11
-294.137023925781
 21
49.5005613413816
 31
0.0
  0
CIRCLE
  5
   3C4
  8
0
  6
CONTINUOUS
 62
     7
 10
-304.137023925781
 20
91.622314453125
 30
0.0
 40
0.875
  0
CIRCLE
  5
   3C5
  8
0
  6
CONTINUOUS
 62
     7
 10
-284.137023925781
 20
91.622314453125
 30
0.0
 40
0.875
  0
CIRCLE
  5
   3C6
  8
0
  6
CONTINUOUS
 62
     7
 10
-284.137023925781
 20
56.122314453125
 30
0.0
 40
0.875
  0
CIRCLE
  5
   3C7
  8
0
  6
CONTINUOUS
 62
     7
 10
-304.137023925781
 20
56.122314453125
 30
0.0
 40
0.875
  0
LINE
  5
   3C8
  8
0
  6
CONTINUOUS
 62
     3
 10
-312.101519595196
 20
93.9721147504163
 30
0.0
 11
-276.29815032521
 21
93.9721147504163
 31
0.0
  0
LINE
  5
   3C9
  8
0
  6
CONTINUOUS
 62
     3
 10
-312.101519595196
 20
52.766833625661
 30
0.0
 11
-276.29815032521
 21
52.766833625661
 31
0.0
  0
LINE
  5
   3CA
  8
0
  6
CONTINUOUS
 62
     3
 10
-276.29815032521
 20
93.9721147504163
 30
0.0
 11
-276.29815032521
 21
52.766833625661
 31
0.0
  0
LINE
  5
   3CB
  8
0
  6
CONTINUOUS
 62
     3
 10
-312.101519595196
 20
93.9721147504163
 30
0.0
 11
-312.101519595196
 21
52.766833625661
 31
0.0
  0
LINE
  5
   3CC
  8
0
  6
DASHDOT
 62
     7
 10
-284.137023925781
 20
93.247314453125
 30
0.0
 11
-284.137023925781
 21
89.997314453125
 31
0.0
  0
LINE
  5
   3CD
  8
0
  6
DASHDOT
 62
     7
 10
-285.762023925781
 20
91.622314453125
 30
0.0
 11
-282.512023925781
 21
91.622314453125
 31
0.0
  0
LINE
  5
   3CE
  8
0
  6
DASHDOT
 62
     7
 10
-304.137023925781
 20
93.247314453125
 30
0.0
 11
-304.137023925781
 21
89.997314453125
 31
0.0
  0
LINE
  5
   3CF
  8
0
  6
DASHDOT
 62
     7
 10
-305.762023925781
 20
91.622314453125
 30
0.0
 11
-302.512023925781
 21
91.622314453125
 31
0.0
  0
LINE
  5
   3D0
  8
0
  6
DASHDOT
 62
     7
 10
-304.137023925781
 20
57.747314453125
 30
0.0
 11
-304.137023925781
 21
54.497314453125
 31
0.0
  0
LINE
  5
   3D1
  8
0
  6
DASHDOT
 62
     7
 10
-305.762023925781
 20
56.122314453125
 30
0.0
 11
-302.512023925781
 21
56.122314453125
 31
0.0
  0
LINE
  5
   3D2
  8
0
  6
DASHDOT
 62
     7
 10
-284.137023925781
 20
57.747314453125
 30
0.0
 11
-284.137023925781
 21
54.497314453125
 31
0.0
  0
LINE
  5
   3D3
  8
0
  6
DASHDOT
 62
     7
 10
-285.762023925781
 20
56.122314453125
 30
0.0
 11
-282.512023925781
 21
56.122314453125
 31
0.0
  0
LINE
  5
   3D4
  8
0
  6
DASHDOT
 62
     7
 10
-318.825344605051
 20
73.872314453125
 30
0.0
 11
-269.335795977134
 21
73.872314453125
 31
0.0
  0
TEXT
  5
   3D5
  8
0
  6
CONTINUOUS
 62
     1
 10
-401.039457648728
 20
-138.097305314197
 30
0.0
 40
2.00000008940697
  1
M 3076 95-01-16
 50
359.999999844103
 41
0.749999861419206
 72
     1
 11
-389.939459204674
 21
-137.09730529964
 31
0.0
 73
     2
  0
TEXT
  5
   3D6
  8
0
  6
CONTINUOUS
 62
     1
 10
-415.63478087458
 20
-124.04888906509
 30
0.0
 40
2.00000008940697
  1
94-05-03 BARCELLA
 50
359.999999844103
 41
0.749999861419206
 72
     2
 11
-390.434784412116
 21
-124.04888913353
 31
0.0
  0
TEXT
  5
   3D7
  8
0
  6
CONTINUOUS
 62
     7
 10
-300.662166806164
 20
97.1285397444509
 30
0.0
 40
3.00000002980232
  1
=   =
 50
359.999999844103
 41
0.916666604744064
 72
     2
 11
-287.462167571091
 21
97.1285397086012
 31
0.0
  0
TEXT
  5
   3D8
  8
0
  6
CONTINUOUS
 62
     7
 10
-304.094358338021
 20
102.987330983032
 30
0.0
 40
3.00000002980232
  1
=     =
 50
359.999999844103
 41
0.916666604744064
 72
     2
 11
-285.394359419845
 21
102.987330932245
 31
0.0
  0
TEXT
  5
   3D9
  8
0
  6
CONTINUOUS
 62
     7
 10
-317.72251408972
 20
63.9552987266631
 30
0.0
 40
3.00000002980232
  1
=     =
 50
449.999999844103
 41
0.916666604744064
 72
     2
 11
-317.722514038956
 21
82.6552976448388
 31
0.0
  0
TEXT
  5
   3DA
  8
0
  6
CONTINUOUS
 62
     7
 10
-326.751946386473
 20
65.0581296135039
 30
0.0
 40
3.00000002980232
  1
=     =
 50
449.999999844103
 41
0.916666604744064
 72
     2
 11
-326.751946335709
 21
83.7581285316796
 31
0.0
  0
INSERT
  5
   3DB
  8
0
  6
CONTINUOUS
 62
     7
  2
*UDIM420
 10
0.0
 20
0.0
 30
0.0
  0
INSERT
  5
   3DC
  8
0
  6
CONTINUOUS
 62
     7
  2
*UDIM421
 10
0.0
 20
0.0
 30
0.0
  0
INSERT
  5
   3DD
  8
0
  6
CONTINUOUS
 62
     7
  2
*UDIM422
 10
0.0
 20
0.0
 30
0.0
  0
INSERT
  5
   3DE
  8
0
  6
CONTINUOUS
 62
     7
  2
*UDIM423
 10
0.0
 20
0.0
 30
0.0
  0
INSERT
  5
   3DF
  8
0
  6
CONTINUOUS
 62
     7
  2
*UDIM424
 10
0.0
 20
0.0
 30
0.0
  0
TEXT
  5
   3E0
  8
0
  6
CONTINUOUS
 62
     7
 10
-295.503321180843
 20
45.6545485758832
 30
0.0
 40
3.00000002980232
  1
Y
 50
359.999999844103
 41
0.916666604744064
 72
     2
 11
-293.303321311973
 21
45.6545485699083
 31
0.0
  0
TEXT
  5
   3E1
  8
0
  6
CONTINUOUS
 62
     7
 10
-295.379515300297
 20
114.886341025834
 30
0.0
 40
3.00000002980232
  1
Y
 50
359.999999844103
 41
0.916666604744064
 72
     2
 11
-293.179515431427
 21
114.886341019859
 31
0.0
  0
TEXT
  5
   3E2
  8
0
  6
CONTINUOUS
 62
     7
 10
-338.343559155964
 20
72.9273040795377
 30
0.0
 40
3.00000002980232
  1
X
 50
359.999999844103
 41
0.916666604744064
 72
     2
 11
-336.143559287094
 21
72.9273040735627
 31
0.0
  0
INSERT
  5
   3E3
  8
0
  6
CONTINUOUS
 62
     7
  2
*UDIM425
 10
0.0
 20
0.0
 30
0.0
  0
INSERT
  5
   3E4
  8
0
  6
CONTINUOUS
 62
     7
  2
*UDIM426
 10
0.0
 20
0.0
 30
0.0
  0
INSERT
  5
   3E5
  8
0
  6
CONTINUOUS
 62
     7
  2
*UDIM427
 10
0.0
 20
0.0
 30
0.0
  0
TEXT
  5
   3E6
  8
0
  6
CONTINUOUS
 62
     7
 10
-295.379515300297
 20
114.886341025834
 30
0.0
 40
3.00000002980232
  1
Y
 50
359.999999844103
 41
0.916666604744064
 72
     2
 11
-293.179515431427
 21
114.886341019859
 31
0.0
  0
TEXT
  5
   3E7
  8
0
  6
CONTINUOUS
 62
     7
 10
-268.570522199177
 20
72.1769854331067
 30
0.0
 40
3.00000002980232
  1
X
 50
359.999999844103
 41
0.916666604744064
 72
     2
 11
-266.370522330307
 21
72.1769854271318
 31
0.0
  0
TEXT
  5
   3E8
  8
0
  6
CONTINUOUS
 62
     7
 10
-338.343559155964
 20
72.9273040795377
 30
0.0
 40
3.00000002980232
  1
X
 50
359.999999844103
 41
0.916666604744064
 72
     2
 11
-336.143559287094
 21
72.9273040735627
 31
0.0
  0
TEXT
  5
   3E9
  8
0
  6
CONTINUOUS
 62
     1
 10
-305.695556622207
 20
-149.360412507446
 30
0.0
 40
4.00000017881393
  1
601812/501
 50
359.999999844103
 41
0.937499973922969
 72
     2
 11
-268.945556022435
 21
-149.360412607255
 31
0.0
  0
TEXT
  5
   3EA
  8
0
  6
CONTINUOUS
 62
     1
 10
-294.609863267437
 20
-140.37882992949
 30
0.0
 40
3.00000002980232
  1
 S3
 50
359.999999844103
 41
0.916666604744064
 72
     2
 11
-286.909863715465
 21
-140.378829950402
 31
0.0
  0
TEXT
  5
   3EB
  8
0
  6
CONTINUOUS
 62
     1
 10
-316.144283026198
 20
-122.068557706718
 30
0.0
 40
2.00000008940697
  1
4POLE LOW VOLTAGE M.C.C.B SERIES ISOMAX
 50
359.999999844103
 41
0.749999861419206
 72
     1
 11
-287.04428710342
 21
-121.068557741047
 31
0.0
 73
     2
  0
TEXT
  5
   3EC
  8
0
  6
CONTINUOUS
 62
     1
 10
-310.144283830849
 20
-125.068557723013
 30
0.0
 40
2.00000008940697
  1
PLUG-IN VERSION CABLE TERMINALS
 50
359.999999844103
 41
0.749999861419206
 72
     1
 11
-287.044287067646
 21
-124.068557741047
 31
0.0
 73
     2
  0
TEXT
  5
   3ED
  8
0
  6
CONTINUOUS
 62
     1
 10
-312.941891393552
 20
-130.138824448683
 30
0.0
 40
2.00000008940697
  1
INTERR.AUTOMATICO SERIE ISOMAX
 50
359.999999844103
 41
0.749999861419206
 72
     1
 11
-290.591894525295
 21
-129.138824464679
 31
0.0
 73
     2
  0
TEXT
  5
   3EE
  8
0
  6
CONTINUOUS
 62
     1
 10
-325.691889571873
 20
-133.138824414055
 30
0.0
 40
2.00000008940697
  1
TETRAP.ESECUZIONE RIMOVIBILE TERMINALI PER CAVI
 50
359.999999844103
 41
0.749999861419206
 72
     1
 11
-290.591894489521
 21
-132.138824464679
 31
0.0
 73
     2
  0
LINE
  5
   3EF
  8
0
  6
CONTINUOUS
 62
     3
 10
-418.12410736084
 20
-13.1579494476318
 30
0.0
 11
-454.12410736084
 21
-13.1579494476318
 31
0.0
  0
LINE
  5
   3F0
  8
0
  6
CONTINUOUS
 62
     7
 10
-454.12410736084
 20
-15.80795048653
 30
0.0
 11
-454.12410736084
 21
5.58915949882201
 31
0.0
  0
LINE
  5
   3F1
  8
0
  6
CONTINUOUS
 62
     7
 10
-454.12410736084
 20
5.58914566040039
 30
0.0
 11
-454.12410736084
 21
71.6920433044434
 31
0.0
  0
LINE
  5
   3F2
  8
0
  6
CONTINUOUS
 62
     7
 10
-455.12410736084
 20
60.2578544616699
 30
0.0
 11
-455.12410736084
 21
65.1920280456543
 31
0.0
  0
LINE
  5
   3F3
  8
0
  6
CONTINUOUS
 62
     7
 10
-419.874109121317
 20
34.9420302788998
 30
0.0
 11
-419.874118804806
 21
39.0670421323222
 31
0.0
  0
LINE
  5
   3F4
  8
0
  6
CONTINUOUS
 62
     7
 10
-418.624136972008
 20
62.1920398204057
 30
0.0
 11
-418.270575579583
 21
62.3384860258189
 31
0.0
  0
LINE
  5
   3F5
  8
0
  6
CONTINUOUS
 62
     7
 10
-418.270569208026
 20
62.3384754627797
 30
0.0
 11
-418.124122991148
 21
62.6920292120046
 31
0.0
  0
LINE
  5
   3F6
  8
0
  6
CONTINUOUS
 62
     7
 10
-419.874115535135
 20
58.6920427618988
 30
0.0
 11
-419.874107905741
 21
62.1920427621788
 31
0.0
  0
LINE
  5
   3F7
  8
0
  6
CONTINUOUS
 62
     7
 10
-418.624122619629
 20
62.1920433044434
 30
0.0
 11
-419.87410736084
 21
62.1920433044434
 31
0.0
  0
LINE
  5
   3F8
  8
0
  6
CONTINUOUS
 62
     7
 10
-419.874114990234
 20
39.0670433044434
 30
0.0
 11
-419.874114990234
 21
58.6920433044434
 31
0.0
  0
LINE
  5
   3F9
  8
0
  6
CONTINUOUS
 62
     7
 10
-422.12410736084
 20
13.6920433044434
 30
0.0
 11
-422.12410736084
 21
33.9420433044434
 31
0.0
  0
LINE
  5
   3FA
  8
0
  6
CONTINUOUS
 62
     7
 10
-422.124092379735
 20
33.9420708430158
 30
0.0
 11
-421.990120222471
 21
34.442070829322
 31
0.0
  0
LINE
  5
   3FB
  8
0
  6
CONTINUOUS
 62
     7
 10
-421.990103188724
 20
34.4420898568593
 30
0.0
 11
-421.624083004717
 21
34.8081176616807
 31
0.0
  0
LINE
  5
   3FC
  8
0
  6
CONTINUOUS
 62
     7
 10
-421.62413475334
 20
34.8080581216944
 30
0.0
 11
-421.124127150761
 21
34.9420302788998
 31
0.0
  0
LINE
  5
   3FD
  8
0
  6
CONTINUOUS
 62
     7
 10
-418.12410736084
 20
13.6920433044434
 30
0.0
 11
-422.12410736084
 21
13.6920433044434
 31
0.0
  0
LINE
  5
   3FE
  8
0
  6
CONTINUOUS
 62
     7
 10
-418.124128704413
 20
6.19203692846242
 30
0.0
 11
-418.624166830923
 21
6.69203691061907
 31
0.0
  0
LINE
  5
   3FF
  8
0
  6
CONTINUOUS
 62
     7
 10
-418.624155070066
 20
12.192048607563
 30
0.0
 11
-418.124109314656
 21
12.6920485894089
 31
0.0
  0
LINE
  5
   400
  8
0
  6
CONTINUOUS
 62
     7
 10
-418.624161374618
 20
12.1920285318571
 30
0.0
 11
-450.008064878036
 21
12.1920285318571
 31
0.0
  0
LINE
  5
   401
  8
0
  6
CONTINUOUS
 62
     7
 10
-418.624154090881
 20
6.69204330444336
 30
0.0
 11
-450.008088111877
 21
6.69204330444336
 31
0.0
  0
LINE
  5
   402
  8
0
  6
CONTINUOUS
 62
     7
 10
-450.008067112597
 20
12.1920213535183
 30
0.0
 11
-451.874109620901
 21
12.6920289820997
 31
0.0
  0
LINE
  5
   403
  8
0
  6
CONTINUOUS
 62
     7
 10
-451.87409344916
 20
12.6920235907902
 30
0.0
 11
-453.624109642975
 21
13.1609413829183
 31
0.0
  0
LINE
  5
   404
  8
0
  6
CONTINUOUS
 62
     7
 10
-454.124106805161
 20
5.58916124110941
 30
0.0
 11
-450.008087103168
 21
6.69204360937947
 31
0.0
  0
LINE
  5
   405
  8
0
  6
CONTINUOUS
 62
     7
 10
-454.124100860338
 20
14.3391951015204
 30
0.0
 11
-453.624102317509
 21
14.4731672587891
 31
0.0
  0
LINE
  5
   406
  8
0
  6
CONTINUOUS
 62
     7
 10
-452.124107837677
 20
2.44203567504883
 30
0.0
 11
-454.12410736084
 21
2.44203567504883
 31
0.0
  0
LINE
  5
   407
  8
0
  6
CONTINUOUS
 62
     7
 10
-452.124107837677
 20
-13.1579494476318
 30
0.0
 11
-452.124107837677
 21
2.44203567504883
 31
0.0
  0
LINE
  5
   408
  8
0
  6
CONTINUOUS
 62
     7
 10
-453.62410736084
 20
5.72312545776367
 30
0.0
 11
-453.62410736084
 21
27.9420356750488
 31
0.0
  0
LINE
  5
   409
  8
0
  6
CONTINUOUS
 62
     7
 10
-451.87410736084
 20
12.6920433044434
 30
0.0
 11
-451.87410736084
 21
25.1920433044434
 31
0.0
  0
LINE
  5
   40A
  8
0
  6
CONTINUOUS
 62
     7
 10
-452.624108314514
 20
27.9420356750488
 30
0.0
 11
-454.124107837677
 21
27.9420356750488
 31
0.0
  0
LINE
  5
   40B
  8
0
  6
CONTINUOUS
 62
     7
 10
-452.249102229873
 20
27.8415516005428
 30
0.0
 11
-452.624103163369
 21
27.9420307184859
 31
0.0
  0
LINE
  5
   40C
  8
0
  6
CONTINUOUS
 62
     7
 10
-452.249102229873
 20
27.8415516005428
 30
0.0
 11
-452.624103163369
 21
27.9420307184859
 31
0.0
  0
LINE
  5
   40D
  8
0
  6
CONTINUOUS
 62
     7
 10
-451.974586782082
 20
27.5670282158168
 30
0.0
 11
-452.249105743925
 21
27.8415490751644
 31
0.0
  0
LINE
  5
   40E
  8
0
  6
CONTINUOUS
 62
     7
 10
-451.874114856925
 20
27.1920216183839
 30
0.0
 11
-451.974595409564
 21
27.5670216171925
 31
0.0
  0
LINE
  5
   40F
  8
0
  6
CONTINUOUS
 62
     7
 10
-451.874098300934
 20
25.1920364499143
 30
0.0
 11
-451.874098300934
 21
27.1920288205198
 31
0.0
  0
LINE
  5
   410
  8
0
  6
CONTINUOUS
 62
     7
 10
-451.974584464664
 20
24.8170325013443
 30
0.0
 11
-451.926973235134
 21
24.9947210972868
 31
0.0
  0
LINE
  5
   411
  8
0
  6
CONTINUOUS
 62
     7
 10
-451.926974152293
 20
24.994716254345
 30
0.0
 11
-451.874104833631
 21
25.1920352818477
 31
0.0
  0
LINE
  5
   412
  8
0
  6
CONTINUOUS
 62
     7
 10
-452.249107515331
 20
24.5424967950411
 30
0.0
 11
-451.974588090278
 21
24.817017654794
 31
0.0
  0
LINE
  5
   413
  8
0
  6
CONTINUOUS
 62
     7
 10
-452.624113786971
 20
24.4420252864286
 30
0.0
 11
-452.249113792148
 21
24.5425043966627
 31
0.0
  0
LINE
  5
   414
  8
0
  6
CONTINUOUS
 62
     7
 10
-452.624107837677
 20
24.4420356750488
 30
0.0
 11
-453.62410736084
 21
24.4420356750488
 31
0.0
  0
LINE
  5
   415
  8
0
  6
CONTINUOUS
 62
     7
 10
-454.12410736084
 20
-9.30796384811401
 30
0.0
 11
-455.12410736084
 21
-9.30796384811401
 31
0.0
  0
LINE
  5
   416
  8
0
  6
CONTINUOUS
 62
     7
 10
-454.12410736084
 20
65.1920280456543
 30
0.0
 11
-455.12410736084
 21
65.1920280456543
 31
0.0
  0
LINE
  5
   417
  8
0
  6
CONTINUOUS
 62
     7
 10
-454.12410736084
 20
60.2578544616699
 30
0.0
 11
-455.12410736084
 21
60.2578544616699
 31
0.0
  0
LINE
  5
   418
  8
0
  6
CONTINUOUS
 62
     7
 10
-450.474600687686
 20
6.56703763683698
 30
0.0
 11
-451.874119125471
 21
6.94203760781795
 31
0.0
  0
LINE
  5
   419
  8
0
  6
CONTINUOUS
 62
     7
 10
-451.87412405014
 20
6.94204237461582
 30
0.0
 11
-451.87412405014
 21
11.9420423746158
 31
0.0
  0
LINE
  5
   41A
  8
0
  6
CONTINUOUS
 62
     7
 10
-451.874123903874
 20
11.9420356874896
 30
0.0
 11
-450.474593548335
 21
12.3170356841409
 31
0.0
  0
LINE
  5
   41B
  8
0
  6
CONTINUOUS
 62
     7
 10
-454.12410736084
 20
-4.30796432495117
 30
0.0
 11
-455.12410736084
 21
-4.30796432495117
 31
0.0
  0
LINE
  5
   41C
  8
0
  6
CONTINUOUS
 62
     7
 10
-451.974582770952
 20
24.5523863725288
 30
0.0
 11
-451.874102701423
 21
24.9947233939152
 31
0.0
  0
LINE
  5
   41D
  8
0
  6
CONTINUOUS
 62
     7
 10
-451.874108314514
 20
24.9947242736816
 30
0.0
 11
-451.926977157593
 21
24.9947242736816
 31
0.0
  0
LINE
  5
   41E
  8
0
  6
CONTINUOUS
 62
     7
 10
-451.941095748953
 20
17.9420305225085
 30
0.0
 11
-451.874109669848
 21
17.9917589140885
 31
0.0
  0
LINE
  5
   41F
  8
0
  6
CONTINUOUS
 62
     7
 10
-451.94109129482
 20
17.9420129657087
 30
0.0
 11
-451.974585764889
 21
17.9668771606057
 31
0.0
  0
LINE
  5
   420
  8
0
  6
CONTINUOUS
 62
     7
 10
-451.874107837677
 20
22.9420433044434
 30
0.0
 11
-451.974588394165
 21
22.9420433044434
 31
0.0
  0
LINE
  5
   421
  8
0
  6
CONTINUOUS
 62
     7
 10
-451.974591127609
 20
19.9171499891323
 30
0.0
 11
-451.94109665754
 21
19.9420141840293
 31
0.0
  0
LINE
  5
   422
  8
0
  6
CONTINUOUS
 62
     7
 10
-451.874105737891
 20
19.892298648845
 30
0.0
 11
-451.941091816995
 21
19.942027040425
 31
0.0
  0
LINE
  5
   423
  8
0
  6
CONTINUOUS
 62
     7
 10
-451.92000435286
 20
23.8030793703627
 30
0.0
 11
-451.97459122239
 21
24.1079652311338
 31
0.0
  0
LINE
  5
   424
  8
0
  6
CONTINUOUS
 62
     7
 10
-451.874108237816
 20
22.9420447291032
 30
0.0
 11
-451.920001905909
 21
23.8030829042734
 31
0.0
  0
LINE
  5
   425
  8
0
  6
CONTINUOUS
 62
     7
 10
-451.974590569251
 20
17.9668919179717
 30
0.0
 11
-452.232270502744
 21
18.0181461848262
 31
0.0
  0
LINE
  5
   426
  8
0
  6
CONTINUOUS
 62
     7
 10
-452.23226911966
 20
18.0181492028924
 30
0.0
 11
-452.249108623796
 21
18.0294025590829
 31
0.0
  0
LINE
  5
   427
  8
0
  6
CONTINUOUS
 62
     7
 10
-452.249116035355
 20
19.8546561779897
 30
0.0
 11
-452.232275578124
 21
19.8659095344125
 31
0.0
  0
LINE
  5
   428
  8
0
  6
CONTINUOUS
 62
     7
 10
-452.232272280998
 20
19.8659071384896
 30
0.0
 11
-451.974593300606
 21
19.9171613973677
 31
0.0
  0
LINE
  5
   429
  8
0
  6
CONTINUOUS
 62
     7
 10
-451.974588394165
 20
22.9420433044434
 30
0.0
 11
-452.249107837677
 21
22.9420433044434
 31
0.0
  0
LINE
  5
   42A
  8
0
  6
CONTINUOUS
 62
     7
 10
-452.249110080746
 20
18.0293956624767
 30
0.0
 11
-452.624110072042
 21
18.0965343188824
 31
0.0
  0
LINE
  5
   42B
  8
0
  6
CONTINUOUS
 62
     7
 10
-452.624110652331
 20
19.7875191426596
 30
0.0
 11
-452.249110661034
 21
19.8546577990653
 31
0.0
  0
LINE
  5
   42C
  8
0
  6
CONTINUOUS
 62
     7
 10
-452.249107837677
 20
22.9420433044434
 30
0.0
 11
-452.624107837677
 21
22.9420433044434
 31
0.0
  0
LINE
  5
   42D
  8
0
  6
CONTINUOUS
 62
     7
 10
-452.624107837677
 20
19.787525177002
 30
0.0
 11
-453.62410736084
 21
19.787525177002
 31
0.0
  0
LINE
  5
   42E
  8
0
  6
CONTINUOUS
 62
     7
 10
-452.624107837677
 20
22.9420433044434
 30
0.0
 11
-453.62410736084
 21
22.9420433044434
 31
0.0
  0
LINE
  5
   42F
  8
0
  6
CONTINUOUS
 62
     7
 10
-452.624107837677
 20
18.0965461730957
 30
0.0
 11
-453.62410736084
 21
18.0965461730957
 31
0.0
  0
LINE
  5
   430
  8
0
  6
CONTINUOUS
 62
     3
 10
-407.024108886123
 20
69.042049407959
 30
0.0
 11
-454.12410736084
 21
69.042049407959
 31
0.0
  0
LINE
  5
   431
  8
0
  6
CONTINUOUS
 62
     3
 10
-407.024108886123
 20
-13.1579494476318
 30
0.0
 11
-418.124107360244
 21
-13.1579494476318
 31
0.0
  0
LINE
  5
   432
  8
0
  6
CONTINUOUS
 62
     3
 10
-418.124107360244
 20
-13.1579494476318
 30
0.0
 11
-418.124107360244
 21
6.56704330444335
 31
0.0
  0
LINE
  5
   433
  8
0
  6
CONTINUOUS
 62
     3
 10
-418.124107360242
 20
12.3170356750488
 30
0.0
 11
-418.124107360242
 21
13.6920738220215
 31
0.0
  0
LINE
  5
   434
  8
0
  6
CONTINUOUS
 62
     3
 10
-418.12410736084
 20
62.6920669470456
 30
0.0
 11
-418.12410736084
 21
69.042049407959
 31
0.0
  0
LINE
  5
   435
  8
0
  6
CONTINUOUS
 62
     3
 10
-403.374107360244
 20
34.4164772033691
 30
0.0
 11
-403.374107360244
 21
39.1918830871582
 31
0.0
  0
LINE
  5
   436
  8
0
  6
CONTINUOUS
 62
     3
 10
-403.374111536504
 20
5.69189508391336
 30
0.0
 11
-403.374134424687
 21
8.96725471456634
 31
0.0
  0
LINE
  5
   437
  8
0
  6
CONTINUOUS
 62
     3
 10
-407.024108886122
 20
-13.1579475402832
 30
0.0
 11
-407.024108886122
 21
-2.1829477991373
 31
0.0
  0
LINE
  5
   438
  8
0
  6
CONTINUOUS
 62
     3
 10
-407.024110415529
 20
12.3170433044434
 30
0.0
 11
-418.12410888965
 21
12.3170433044434
 31
0.0
  0
LINE
  5
   439
  8
0
  6
CONTINUOUS
 62
     3
 10
-407.024110070325
 20
6.56704330444336
 30
0.0
 11
-418.124108544446
 21
6.56704330444336
 31
0.0
  0
LINE
  5
   43A
  8
0
  6
CONTINUOUS
 62
     1
 10
-404.374107837081
 20
58.3170433044434
 30
0.0
 11
-407.024108886122
 21
58.3170433044434
 31
0.0
  0
LINE
  5
   43B
  8
0
  6
CONTINUOUS
 62
     1
 10
-402.410718279937
 20
0.603662875919824
 30
0.0
 11
-402.395553428326
 21
0.640274671078142
 31
0.0
  0
LINE
  5
   43C
  8
0
  6
CONTINUOUS
 62
     1
 10
-402.410718279937
 20
0.603662875919824
 30
0.0
 11
-402.395553428326
 21
0.640274671078142
 31
0.0
  0
LINE
  5
   43D
  8
0
  6
CONTINUOUS
 62
     1
 10
-402.410718279937
 20
0.603662875919824
 30
0.0
 11
-402.395553428326
 21
0.640274671078142
 31
0.0
  0
LINE
  5
   43E
  8
0
  6
CONTINUOUS
 62
     1
 10
-405.624107360244
 20
-2.18294858932495
 30
0.0
 11
-405.874107360244
 21
-2.18294858932495
 31
0.0
  0
LINE
  5
   43F
  8
0
  6
CONTINUOUS
 62
     1
 10
-404.374107837081
 20
-2.18293496540227
 30
0.0
 11
-407.024108886122
 21
-2.18293496540227
 31
0.0
  0
LINE
  5
   440
  8
0
  6
CONTINUOUS
 62
     2
 10
-398.873452199996
 20
0.817043781280518
 30
0.0
 11
-398.873452199996
 21
1.81704235076904
 31
0.0
  0
LINE
  5
   441
  8
0
  6
CONTINUOUS
 62
     2
 10
-403.373452170194
 20
0.567043306270847
 30
0.0
 11
-403.373452170194
 21
53.0670433062708
 31
0.0
  0
LINE
  5
   442
  8
0
  6
CONTINUOUS
 62
     2
 10
-401.624119758606
 20
53.0670433044434
 30
0.0
 11
-404.374107837081
 21
53.0670433044434
 31
0.0
  0
LINE
  5
   443
  8
0
  6
CONTINUOUS
 62
     2
 10
-401.624119758606
 20
0.567043305623358
 30
0.0
 11
-404.374107837081
 21
0.567043305623358
 31
0.0
  0
LINE
  5
   444
  8
0
  6
CONTINUOUS
 62
     2
 10
-398.873482299956
 20
10.3170354967672
 30
0.0
 11
-398.873549533996
 21
16.3170354966738
 31
0.0
  0
LINE
  5
   445
  8
0
  6
CONTINUOUS
 62
     2
 10
-398.873553130549
 20
16.8170302930091
 30
0.0
 11
-398.873526427669
 21
26.5670302936299
 31
0.0
  0
LINE
  5
   446
  8
0
  6
CONTINUOUS
 62
     7
 10
-419.874111175412
 20
34.9420302788998
 30
0.0
 11
-421.124127150761
 21
34.9420302788998
 31
0.0
  0
LINE
  5
   447
  8
0
  6
CONTINUOUS
 62
     7
 10
-404.374107837081
 20
53.0670433044434
 30
0.0
 11
-404.374107837081
 21
58.3170433044434
 31
0.0
  0
LINE
  5
   448
  8
0
  6
CONTINUOUS
 62
     7
 10
-404.374107837081
 20
-2.18294852120539
 30
0.0
 11
-404.374107837081
 21
0.567043305623358
 31
0.0
  0
LINE
  5
   449
  8
0
  6
CONTINUOUS
 62
     3
 10
-407.024108886122
 20
58.3170433044434
 30
0.0
 11
-407.024108886122
 21
69.042049407959
 31
0.0
  0
LINE
  5
   44A
  8
0
  6
CONTINUOUS
 62
     3
 10
-407.024108886122
 20
-2.1829477991373
 30
0.0
 11
-407.024108886122
 21
58.3170433044434
 31
0.0
  0
ARC
  5
   44B
  8
0
  6
CONTINUOUS
 62
     7
 10
-388.536087456167
 20
15.7951024791573
 30
0.0
 40
0.499999897877905
 50
348.623601716676
 51
436.688817054576
  0
ARC
  5
   44C
  8
0
  6
CONTINUOUS
 62
     7
 10
-389.134458184714
 20
12.8211931991084
 30
0.0
 40
0.50000037262337
 50
260.594020543651
 51
348.623601716676
  0
LINE
  5
   44D
  8
0
  6
DASHDOT
 62
     7
 10
-381.135793619233
 20
12.7407755026265
 30
0.0
 11
-406.194139348223
 21
17.7826832726668
 31
0.0
  0
LINE
  5
   44E
  8
0
  6
CONTINUOUS
 62
     7
 10
-388.420967724553
 20
16.2816690058126
 30
0.0
 11
-398.873547823719
 21
18.7547084562584
 31
0.0
  0
LINE
  5
   44F
  8
0
  6
CONTINUOUS
 62
     7
 10
-388.644281691037
 20
12.7225663903441
 30
0.0
 11
-388.045911126783
 21
15.69647570345
 31
0.0
  0
LINE
  5
   450
  8
0
  6
CONTINUOUS
 62
     7
 10
-389.216172679254
 20
12.3279154358079
 30
0.0
 11
-398.87352276005
 21
13.9277148574576
 31
0.0
  0
ARC
  5
   451
  8
0
  6
DASHDOT
 62
     7
 10
-425.623708416792
 20
21.6920433044434
 30
0.0
 40
38.0221347997541
 50
337.492314704898
 51
359.999999948034
  0
LINE
  5
   452
  8
0
  6
DASHDOT
 62
     7
 10
-387.601573617038
 20
21.6920433044433
 30
0.0
 11
-387.601573617038
 21
24.5671431218121
 31
0.0
  0
LINE
  5
   453
  8
0
  6
CONTINUOUS
 62
     7
 10
-455.12410736084
 20
-9.30796384811401
 30
0.0
 11
-455.12410736084
 21
-4.30796432495117
 31
0.0
  0
LINE
  5
   454
  8
0
  6
CONTINUOUS
 62
   210
 10
-478.874126887968
 20
12.9420309070474
 30
0.0
 11
-476.874126887968
 21
12.942038536442
 31
0.0
  0
LINE
  5
   455
  8
0
  6
CONTINUOUS
 62
   210
 10
-478.874128795316
 20
9.4420309070147
 30
0.0
 11
-476.874128795316
 21
9.44203853640924
 31
0.0
  0
LINE
  5
   456
  8
0
  6
CONTINUOUS
 62
     7
 10
-479.124130249023
 20
-14.0579566955566
 30
0.0
 11
-479.124130249023
 21
-1.55795669555664
 31
0.0
  0
LINE
  5
   457
  8
0
  6
CONTINUOUS
 62
     3
 10
-479.124130249023
 20
57.4420433044434
 30
0.0
 11
-479.124130249023
 21
69.9420433044434
 31
0.0
  0
LINE
  5
   458
  8
0
  6
CONTINUOUS
 62
     7
 10
-455.12410736084
 20
-13.1579551696777
 30
0.0
 11
-473.624130249023
 21
-13.1579551696777
 31
0.0
  0
LINE
  5
   459
  8
0
  6
CONTINUOUS
 62
     3
 10
-455.12410736084
 20
69.042049407959
 30
0.0
 11
-473.624130249023
 21
69.042049407959
 31
0.0
  0
LINE
  5
   45A
  8
0
  6
CONTINUOUS
 62
   210
 10
-455.12410736084
 20
-14.5579566955566
 30
0.0
 11
-455.12410736084
 21
70.4420433044434
 31
0.0
  0
LINE
  5
   45B
  8
0
  6
CONTINUOUS
 62
   210
 10
-476.874130249023
 20
7.94202041625977
 30
0.0
 11
-476.874130249023
 21
9.4420385364037
 31
0.0
  0
LINE
  5
   45C
  8
0
  6
CONTINUOUS
 62
   210
 10
-473.624130249023
 20
-14.5579566955566
 30
0.0
 11
-473.624130249023
 21
-14.0579566955566
 31
0.0
  0
LINE
  5
   45D
  8
0
  6
CONTINUOUS
 62
     3
 10
-473.624130249023
 20
43.9420433044434
 30
0.0
 11
-476.874130249023
 21
43.9420433044434
 31
0.0
  0
LINE
  5
   45E
  8
0
  6
CONTINUOUS
 62
   210
 10
-473.624130249023
 20
47.9420433044434
 30
0.0
 11
-473.624130249023
 21
56.1920433044434
 31
0.0
  0
LINE
  5
   45F
  8
0
  6
CONTINUOUS
 62
     7
 10
-473.624130249023
 20
4.44201278686523
 30
0.0
 11
-476.874130249023
 21
4.44201278686523
 31
0.0
  0
LINE
  5
   460
  8
0
  6
CONTINUOUS
 62
     7
 10
-476.874130249023
 20
4.44201278686523
 30
0.0
 11
-476.874130249023
 21
6.19204330444336
 31
0.0
  0
LINE
  5
   461
  8
0
  6
CONTINUOUS
 62
     7
 10
-455.624092867348
 20
12.1920309178605
 30
0.0
 11
-476.874123384926
 21
12.1920309178605
 31
0.0
  0
LINE
  5
   462
  8
0
  6
CONTINUOUS
 62
     7
 10
-455.624095218099
 20
12.1920304732837
 30
0.0
 11
-455.124110492285
 21
12.6920380846609
 31
0.0
  0
LINE
  5
   463
  8
0
  6
CONTINUOUS
 62
     7
 10
-455.624099731445
 20
6.69205093383789
 30
0.0
 11
-476.874130249023
 21
6.69205093383789
 31
0.0
  0
LINE
  5
   464
  8
0
  6
CONTINUOUS
 62
     7
 10
-455.124106145652
 20
6.19203637829138
 30
0.0
 11
-455.624090871466
 21
6.69204398966865
 31
0.0
  0
LINE
  5
   465
  8
0
  6
CONTINUOUS
 62
   210
 10
-479.874135685291
 20
-0.307958747683074
 30
0.0
 11
-479.874128055897
 21
6.19204125231692
 31
0.0
  0
LINE
  5
   466
  8
0
  6
CONTINUOUS
 62
   210
 10
-479.874130094742
 20
49.6920377275389
 30
0.0
 11
-479.874137724136
 21
56.1920377275389
 31
0.0
  0
LINE
  5
   467
  8
0
  6
CONTINUOUS
 62
     3
 10
-476.874130249023
 20
43.9420433044434
 30
0.0
 11
-476.874130249023
 21
45.9420433044434
 31
0.0
  0
LINE
  5
   468
  8
0
  6
CONTINUOUS
 62
   210
 10
-455.12410736084
 20
-1.05795669555664
 30
0.0
 11
-455.12410736084
 21
-0.557956695556641
 31
0.0
  0
LINE
  5
   469
  8
0
  6
CONTINUOUS
 62
     2
 10
-478.874130249023
 20
56.4420433044434
 30
0.0
 11
-479.624130249023
 21
56.4420433044434
 31
0.0
  0
LINE
  5
   46A
  8
0
  6
CONTINUOUS
 62
     2
 10
-478.874130249023
 20
-0.557956695556641
 30
0.0
 11
-479.624130249023
 21
-0.557956695556641
 31
0.0
  0
LINE
  5
   46B
  8
0
  6
CONTINUOUS
 62
     2
 10
-478.874130249023
 20
56.1920433044434
 30
0.0
 11
-478.874130249023
 21
56.4420433044434
 31
0.0
  0
LINE
  5
   46C
  8
0
  6
CONTINUOUS
 62
     2
 10
-478.874130249023
 20
6.19209671020508
 30
0.0
 11
-478.874130249023
 21
49.6920433044434
 31
0.0
  0
LINE
  5
   46D
  8
0
  6
CONTINUOUS
 62
     2
 10
-478.874130249023
 20
-0.557956695556641
 30
0.0
 11
-478.874130249023
 21
-0.307918548583984
 31
0.0
  0
LINE
  5
   46E
  8
0
  6
CONTINUOUS
 62
     2
 10
-479.624130249023
 20
-0.557956695556641
 30
0.0
 11
-479.624130249023
 21
-0.307964324951172
 31
0.0
  0
LINE
  5
   46F
  8
0
  6
CONTINUOUS
 62
     2
 10
-479.624130249023
 20
6.19203567504883
 30
0.0
 11
-479.624130249023
 21
49.6920051574707
 31
0.0
  0
LINE
  5
   470
  8
0
  6
CONTINUOUS
 62
     2
 10
-479.624130249023
 20
56.1920051574707
 30
0.0
 11
-479.624130249023
 21
56.4420433044434
 31
0.0
  0
LINE
  5
   471
  8
0
  6
CONTINUOUS
 62
     3
 10
-479.624130249023
 20
57.1920433044434
 30
0.0
 11
-479.624130249023
 21
70.1920433044434
 31
0.0
  0
LINE
  5
   472
  8
0
  6
CONTINUOUS
 62
     3
 10
-475.624122619629
 20
69.9420433044434
 30
0.0
 11
-475.624122619629
 21
70.6920433044434
 31
0.0
  0
LINE
  5
   473
  8
0
  6
CONTINUOUS
 62
     3
 10
-475.624122619629
 20
56.6920433044434
 30
0.0
 11
-475.624122619629
 21
57.4420585632324
 31
0.0
  0
LINE
  5
   474
  8
0
  6
CONTINUOUS
 62
   210
 10
-473.624130249023
 20
-1.55795669555664
 30
0.0
 11
-475.624122619629
 21
-1.55795669555664
 31
0.0
  0
LINE
  5
   475
  8
0
  6
CONTINUOUS
 62
     7
 10
-474.124114990234
 20
-1.55795669555664
 30
0.0
 11
-479.124130249023
 21
-1.55795669555664
 31
0.0
  0
LINE
  5
   476
  8
0
  6
CONTINUOUS
 62
     7
 10
-473.624130249023
 20
-14.0579566955566
 30
0.0
 11
-479.124130249023
 21
-14.0579566955566
 31
0.0
  0
LINE
  5
   477
  8
0
  6
CONTINUOUS
 62
     3
 10
-474.124114990234
 20
57.4420433044434
 30
0.0
 11
-479.124130249023
 21
57.4420433044434
 31
0.0
  0
LINE
  5
   478
  8
0
  6
CONTINUOUS
 62
   210
 10
-473.624130249023
 20
57.4420433044434
 30
0.0
 11
-475.624122619629
 21
57.4420433044434
 31
0.0
  0
LINE
  5
   479
  8
0
  6
CONTINUOUS
 62
     3
 10
-475.624122619629
 20
69.9420433044434
 30
0.0
 11
-479.124130249023
 21
69.9420433044434
 31
0.0
  0
LINE
  5
   47A
  8
0
  6
CONTINUOUS
 62
   210
 10
-473.624137878418
 20
-0.307956695556641
 30
0.0
 11
-479.874137878418
 21
-0.307956695556641
 31
0.0
  0
LINE
  5
   47B
  8
0
  6
CONTINUOUS
 62
   210
 10
-476.874130249023
 20
6.19204330444336
 30
0.0
 11
-479.874130249023
 21
6.19204330444336
 31
0.0
  0
LINE
  5
   47C
  8
0
  6
CONTINUOUS
 62
   210
 10
-473.624137878418
 20
56.1920433044434
 30
0.0
 11
-479.874137878418
 21
56.1920433044434
 31
0.0
  0
LINE
  5
   47D
  8
0
  6
CONTINUOUS
 62
   210
 10
-473.624130249023
 20
49.6920433044434
 30
0.0
 11
-479.874130249023
 21
49.6920433044434
 31
0.0
  0
LINE
  5
   47E
  8
0
  6
CONTINUOUS
 62
   210
 10
-473.624206542969
 20
47.9420433044434
 30
0.0
 11
-478.874130249023
 21
47.9420433044434
 31
0.0
  0
LINE
  5
   47F
  8
0
  6
CONTINUOUS
 62
     3
 10
-473.624168395996
 20
45.9420433044434
 30
0.0
 11
-476.874130249023
 21
45.9420433044434
 31
0.0
  0
LINE
  5
   480
  8
0
  6
CONTINUOUS
 62
   210
 10
-476.874130249023
 20
43.9420433044434
 30
0.0
 11
-478.874130249023
 21
43.9420433044434
 31
0.0
  0
LINE
  5
   481
  8
0
  6
CONTINUOUS
 62
     3
 10
-479.624138535675
 20
70.1920612498939
 30
0.0
 11
-479.124138552789
 21
70.6920612327796
 31
0.0
  0
LINE
  5
   482
  8
0
  6
CONTINUOUS
 62
     3
 10
-479.124160212342
 20
56.6920744192447
 30
0.0
 11
-479.624160195227
 21
57.1920744021304
 31
0.0
  0
LINE
  5
   483
  8
0
  6
CONTINUOUS
 62
     3
 10
-475.624122619629
 20
70.6920433044434
 30
0.0
 11
-479.124130249023
 21
70.6920433044434
 31
0.0
  0
LINE
  5
   484
  8
0
  6
CONTINUOUS
 62
     3
 10
-475.624122619629
 20
56.6920433044434
 30
0.0
 11
-479.124130249023
 21
56.6920433044434
 31
0.0
  0
LINE
  5
   485
  8
0
  6
CONTINUOUS
 62
     3
 10
-475.624122619629
 20
-14.8079566955566
 30
0.0
 11
-479.124130249023
 21
-14.8079566955566
 31
0.0
  0
LINE
  5
   486
  8
0
  6
CONTINUOUS
 62
     3
 10
-479.124138552789
 20
-14.8079746238928
 30
0.0
 11
-479.624138535675
 21
-14.3079746410071
 31
0.0
  0
LINE
  5
   487
  8
0
  6
CONTINUOUS
 62
     3
 10
-479.624130249023
 20
-14.3079566955566
 30
0.0
 11
-479.624130249023
 21
-1.30795669555665
 31
0.0
  0
LINE
  5
   488
  8
0
  6
CONTINUOUS
 62
     3
 10
-479.624160195227
 20
-1.30798779324369
 30
0.0
 11
-479.124160212342
 21
-0.807987810357965
 31
0.0
  0
LINE
  5
   489
  8
0
  6
CONTINUOUS
 62
     3
 10
-475.624122619629
 20
-0.807956695556648
 30
0.0
 11
-479.124130249023
 21
-0.807956695556648
 31
0.0
  0
LINE
  5
   48A
  8
0
  6
CONTINUOUS
 62
     3
 10
-475.624122619629
 20
-1.55797195434571
 30
0.0
 11
-475.624122619629
 21
-0.807956695556648
 31
0.0
  0
LINE
  5
   48B
  8
0
  6
CONTINUOUS
 62
     3
 10
-475.624122619629
 20
-14.8079566955566
 30
0.0
 11
-475.624122619629
 21
-14.0579566955566
 31
0.0
  0
LINE
  5
   48C
  8
0
  6
DASHDOT
 62
     7
 10
-479.874137878418
 20
56.1920433044434
 30
0.0
 11
-479.874137878418
 21
97.3213987969709
 31
0.0
  0
LINE
  5
   48D
  8
0
  6
DASHDOT
 62
     7
 10
-479.874130249023
 20
6.19204125231693
 30
0.0
 11
-479.874130249023
 21
49.6920433044434
 31
0.0
  0
LINE
  5
   48E
  8
0
  6
DASHDOT
 62
     7
 10
-479.874135685291
 20
-26.5827470850742
 30
0.0
 11
-479.874135685291
 21
-0.30795874768306
 31
0.0
  0
LINE
  5
   48F
  8
0
  6
DASHDOT
 62
     7
 10
-481.374130249023
 20
-26.6308594960765
 30
0.0
 11
-481.374130249023
 21
98.0356351439312
 31
0.0
  0
LINE
  5
   490
  8
0
  6
CONTINUOUS
 62
     7
 10
-484.086958365545
 20
-26.6833857640595
 30
0.0
 11
-477.025615951649
 21
-26.5466627768224
 31
0.0
  0
LINE
  5
   491
  8
0
  6
CONTINUOUS
 62
     7
 10
-473.624130249023
 20
-14.0579566955566
 30
0.0
 11
-475.624122619629
 21
-14.0579566955566
 31
0.0
  0
LINE
  5
   492
  8
0
  6
CONTINUOUS
 62
     7
 10
-473.624130249023
 20
-0.307956695556641
 30
0.0
 11
-473.624130249023
 21
4.44199752807617
 31
0.0
  0
LINE
  5
   493
  8
0
  6
CONTINUOUS
 62
   210
 10
-473.624130249023
 20
-1.55795669555664
 30
0.0
 11
-473.624130249023
 21
-0.307956695556641
 31
0.0
  0
LINE
  5
   494
  8
0
  6
CONTINUOUS
 62
     3
 10
-476.874130249023
 20
9.4420385364037
 30
0.0
 11
-476.874130249023
 21
12.9420385364292
 31
0.0
  0
LINE
  5
   495
  8
0
  6
CONTINUOUS
 62
   210
 10
-476.874130249023
 20
6.19204330444336
 30
0.0
 11
-476.874130249023
 21
7.94202041625977
 31
0.0
  0
LINE
  5
   496
  8
0
  6
CONTINUOUS
 62
   210
 10
-476.874130249023
 20
12.9420385364292
 30
0.0
 11
-476.874130249023
 21
43.9420356750488
 31
0.0
  0
LINE
  5
   497
  8
0
  6
CONTINUOUS
 62
     7
 10
-473.624130249023
 20
-14.0579566955566
 30
0.0
 11
-473.624130249023
 21
-1.55795669555664
 31
0.0
  0
LINE
  5
   498
  8
0
  6
CONTINUOUS
 62
   210
 10
-473.624130249023
 20
69.9420433044434
 30
0.0
 11
-473.624130249023
 21
70.4420433044434
 31
0.0
  0
LINE
  5
   499
  8
0
  6
CONTINUOUS
 62
     3
 10
-473.624130249023
 20
57.4420433044434
 30
0.0
 11
-473.624130249023
 21
69.9420433044434
 31
0.0
  0
LINE
  5
   49A
  8
0
  6
CONTINUOUS
 62
   210
 10
-473.624130249023
 20
56.1920433044434
 30
0.0
 11
-473.624130249023
 21
57.4420433044434
 31
0.0
  0
LINE
  5
   49B
  8
0
  6
CONTINUOUS
 62
   210
 10
-473.624130249023
 20
69.9420433044434
 30
0.0
 11
-475.624122619629
 21
69.9420433044434
 31
0.0
  0
LINE
  5
   49C
  8
0
  6
CONTINUOUS
 62
     3
 10
-473.624130249023
 20
43.9420433044434
 30
0.0
 11
-473.624130249023
 21
47.9420433044434
 31
0.0
  0
LINE
  5
   49D
  8
0
  6
DASHDOT
 62
     7
 10
-465.194579184343
 20
52.9420433044434
 30
0.0
 11
-488.413732423577
 21
52.9420433044434
 31
0.0
  0
LINE
  5
   49E
  8
0
  6
DASHDOT
 62
     7
 10
-466.461939159617
 20
2.94204330444336
 30
0.0
 11
-488.149442265581
 21
2.94204330444336
 31
0.0
  0
LINE
  5
   49F
  8
0
  6
CONTINUOUS
 62
     1
 10
-401.624119758606
 20
-0.686166763305664
 30
0.0
 11
-401.624119758606
 21
0.313833236694336
 31
0.0
  0
LINE
  5
   4A0
  8
0
  6
CONTINUOUS
 62
     1
 10
-400.624119758606
 20
-0.686166763305664
 30
0.0
 11
-401.624119758606
 21
-0.686166763305664
 31
0.0
  0
LINE
  5
   4A1
  8
0
  6
CONTINUOUS
 62
     1
 10
-401.624119758606
 20
53.0670433044434
 30
0.0
 11
-401.624119758606
 21
54.3138313293457
 31
0.0
  0
LINE
  5
   4A2
  8
0
  6
CONTINUOUS
 62
     1
 10
-400.624119758606
 20
54.3138313293457
 30
0.0
 11
-401.624119758606
 21
54.3138313293457
 31
0.0
  0
LINE
  5
   4A3
  8
0
  6
CONTINUOUS
 62
     1
 10
-401.624119758606
 20
0.313833236694336
 30
0.0
 11
-401.624119758606
 21
53.3138332366943
 31
0.0
  0
LINE
  5
   4A4
  8
0
  6
CONTINUOUS
 62
     1
 10
-403.874119669199
 20
61.1025047302246
 30
0.0
 11
-403.874119669199
 21
63.5251579284668
 31
0.0
  0
LINE
  5
   4A5
  8
0
  6
CONTINUOUS
 62
     1
 10
-403.874119669199
 20
-9.89749145507813
 30
0.0
 11
-403.874119669199
 21
-7.4748420715332
 31
0.0
  0
LINE
  5
   4A6
  8
0
  6
CONTINUOUS
 62
     1
 10
-400.624119758606
 20
-13.9361667633057
 30
0.0
 11
-400.624119758606
 21
67.5638332366943
 31
0.0
  0
LINE
  5
   4A7
  8
0
  6
CONTINUOUS
 62
     1
 10
-398.874119758606
 20
-13.9361667633057
 30
0.0
 11
-400.624119758606
 21
-13.9361667633057
 31
0.0
  0
LINE
  5
   4A8
  8
0
  6
CONTINUOUS
 62
     1
 10
-398.874119758606
 20
-13.9361686706543
 30
0.0
 11
-398.874119758606
 21
67.5638313293457
 31
0.0
  0
LINE
  5
   4A9
  8
0
  6
CONTINUOUS
 62
     1
 10
-398.874119758606
 20
67.5638313293457
 30
0.0
 11
-399.374119758606
 21
67.5638313293457
 31
0.0
  0
LINE
  5
   4AA
  8
0
  6
CONTINUOUS
 62
     1
 10
-399.874119758606
 20
67.5638313293457
 30
0.0
 11
-400.624119758606
 21
67.5638313293457
 31
0.0
  0
LINE
  5
   4AB
  8
0
  6
CONTINUOUS
 62
     1
 10
-400.624119758606
 20
60.8138313293457
 30
0.0
 11
-403.374121267513
 21
60.8138313293457
 31
0.0
  0
LINE
  5
   4AC
  8
0
  6
CONTINUOUS
 62
     1
 10
-400.624119758606
 20
63.8138313293457
 30
0.0
 11
-403.374118030935
 21
63.8138313293457
 31
0.0
  0
LINE
  5
   4AD
  8
0
  6
CONTINUOUS
 62
     1
 10
-403.374119676049
 20
60.8138313293457
 30
0.0
 11
-403.374119676049
 21
60.9280128479004
 31
0.0
  0
LINE
  5
   4AE
  8
0
  6
CONTINUOUS
 62
     1
 10
-403.374119278188
 20
60.813830180815
 30
0.0
 11
-403.874119294651
 21
61.1025035853132
 31
0.0
  0
LINE
  5
   4AF
  8
0
  6
CONTINUOUS
 62
     1
 10
-403.374119676049
 20
60.9280128479004
 30
0.0
 11
-403.374119676049
 21
61.2531700134277
 31
0.0
  0
LINE
  5
   4B0
  8
0
  6
CONTINUOUS
 62
     1
 10
-403.374119676049
 20
61.2531700134277
 30
0.0
 11
-403.374119676049
 21
61.7398109436035
 31
0.0
  0
LINE
  5
   4B1
  8
0
  6
CONTINUOUS
 62
     1
 10
-403.374119676049
 20
61.7398109436035
 30
0.0
 11
-403.374119676049
 21
62.3138313293457
 31
0.0
  0
LINE
  5
   4B2
  8
0
  6
CONTINUOUS
 62
     1
 10
-403.374119676049
 20
62.3138313293457
 30
0.0
 11
-403.374119676049
 21
62.8878593444824
 31
0.0
  0
LINE
  5
   4B3
  8
0
  6
CONTINUOUS
 62
     1
 10
-403.374119676049
 20
62.8878593444824
 30
0.0
 11
-403.374119676049
 21
63.3744926452637
 31
0.0
  0
LINE
  5
   4B4
  8
0
  6
CONTINUOUS
 62
     1
 10
-403.374119676049
 20
63.3744926452637
 30
0.0
 11
-403.374119676049
 21
63.699649810791
 31
0.0
  0
LINE
  5
   4B5
  8
0
  6
CONTINUOUS
 62
     1
 10
-403.374119676049
 20
63.699649810791
 30
0.0
 11
-403.374119676049
 21
63.8138313293457
 31
0.0
  0
LINE
  5
   4B6
  8
0
  6
CONTINUOUS
 62
     1
 10
-403.874120103788
 20
63.5251567375978
 30
0.0
 11
-403.374120087325
 21
63.813830142096
 31
0.0
  0
LINE
  5
   4B7
  8
0
  6
CONTINUOUS
 62
     1
 10
-400.624119758606
 20
-7.18616676330566
 30
0.0
 11
-403.374118673494
 21
-7.18616676330566
 31
0.0
  0
LINE
  5
   4B8
  8
0
  6
CONTINUOUS
 62
     1
 10
-400.624119758606
 20
-10.1861667633057
 30
0.0
 11
-403.374120515274
 21
-10.1861667633057
 31
0.0
  0
LINE
  5
   4B9
  8
0
  6
CONTINUOUS
 62
     1
 10
-403.874119930274
 20
-7.47484277165907
 30
0.0
 11
-403.374119913809
 21
-7.18616747940252
 31
0.0
  0
LINE
  5
   4BA
  8
0
  6
CONTINUOUS
 62
     1
 10
-403.374119659391
 20
-7.30034828186036
 30
0.0
 11
-403.374119659391
 21
-7.18616676330567
 31
0.0
  0
LINE
  5
   4BB
  8
0
  6
CONTINUOUS
 62
     1
 10
-403.374119659404
 20
-7.62550735473634
 30
0.0
 11
-403.374119659404
 21
-7.30034828186036
 31
0.0
  0
LINE
  5
   4BC
  8
0
  6
CONTINUOUS
 62
     1
 10
-403.37411965939
 20
-8.11214065551759
 30
0.0
 11
-403.37411965939
 21
-7.62550735473634
 31
0.0
  0
LINE
  5
   4BD
  8
0
  6
CONTINUOUS
 62
     1
 10
-403.374119659424
 20
-8.68616676330567
 30
0.0
 11
-403.374119659424
 21
-8.11214065551759
 31
0.0
  0
LINE
  5
   4BE
  8
0
  6
CONTINUOUS
 62
     1
 10
-403.374119659363
 20
-9.26019096374512
 30
0.0
 11
-403.374119659363
 21
-8.68616676330567
 31
0.0
  0
LINE
  5
   4BF
  8
0
  6
CONTINUOUS
 62
     1
 10
-403.37411965939
 20
-9.74682617187501
 30
0.0
 11
-403.37411965939
 21
-9.26019096374512
 31
0.0
  0
LINE
  5
   4C0
  8
0
  6
CONTINUOUS
 62
     1
 10
-403.374119659403
 20
-10.071985244751
 30
0.0
 11
-403.374119659403
 21
-9.74682617187501
 31
0.0
  0
LINE
  5
   4C1
  8
0
  6
CONTINUOUS
 62
     1
 10
-403.374119452229
 20
-10.1861673770552
 30
0.0
 11
-403.874119468694
 21
-9.89749208479865
 31
0.0
  0
LINE
  5
   4C2
  8
0
  6
CONTINUOUS
 62
     1
 10
-403.374119659392
 20
-10.1861667633057
 30
0.0
 11
-403.374119659392
 21
-10.071985244751
 31
0.0
  0
LINE
  5
   4C3
  8
0
  6
CONTINUOUS
 62
     1
 10
-399.374119758606
 20
67.5638313293457
 30
0.0
 11
-399.874119758606
 21
67.5638313293457
 31
0.0
  0
LINE
  5
   4C4
  8
0
  6
CONTINUOUS
 62
     7
 10
-400.624119758606
 20
67.5638313293457
 30
0.0
 11
-400.624119758606
 21
89.5633377008117
 31
0.0
  0
LINE
  5
   4C5
  8
0
  6
CONTINUOUS
 62
     7
 10
-401.624119758606
 20
54.3138313293457
 30
0.0
 11
-401.624119758606
 21
60.8138313293457
 31
0.0
  0
LINE
  5
   4C6
  8
0
  6
CONTINUOUS
 62
     7
 10
-400.624119758606
 20
-41.5798046192293
 30
0.0
 11
-400.624119758606
 21
-13.9361667633057
 31
0.0
  0
LINE
  5
   4C7
  8
0
  6
CONTINUOUS
 62
     7
 10
-401.624119758606
 20
-41.1140511945717
 30
0.0
 11
-401.624119758606
 21
-10.1861667633057
 31
0.0
  0
LINE
  5
   4C8
  8
0
  6
CONTINUOUS
 62
     3
 10
-396.928729817664
 20
-43.3009451396682
 30
0.0
 11
-405.656682413751
 21
-39.2358713277921
 31
0.0
  0
LINE
  5
   4C9
  8
0
  6
CONTINUOUS
 62
     3
 10
-396.091802856395
 20
87.9770267850378
 30
0.0
 11
-405.656682413751
 21
91.3247346301123
 31
0.0
  0
LINE
  5
   4CA
  8
0
  6
CONTINUOUS
 62
     7
 10
-400.624119758606
 20
64.0638313293457
 30
0.0
 11
-401.624119758606
 21
64.0638313293457
 31
0.0
  0
LINE
  5
   4CB
  8
0
  6
CONTINUOUS
 62
     7
 10
-400.624119758606
 20
60.5638313293457
 30
0.0
 11
-401.624119758606
 21
60.5638313293457
 31
0.0
  0
LINE
  5
   4CC
  8
0
  6
CONTINUOUS
 62
     7
 10
-400.624119758606
 20
54.8138313293457
 30
0.0
 11
-401.624119758606
 21
54.8138313293457
 31
0.0
  0
LINE
  5
   4CD
  8
0
  6
CONTINUOUS
 62
     7
 10
-400.624119758606
 20
-1.18616676330566
 30
0.0
 11
-401.624119758606
 21
-1.18616676330566
 31
0.0
  0
LINE
  5
   4CE
  8
0
  6
CONTINUOUS
 62
     7
 10
-400.624119758606
 20
-6.93616676330566
 30
0.0
 11
-401.624119758606
 21
-6.93616676330566
 31
0.0
  0
LINE
  5
   4CF
  8
0
  6
CONTINUOUS
 62
     7
 10
-400.624119758606
 20
-10.4361667633057
 30
0.0
 11
-401.624119758606
 21
-10.4361667633057
 31
0.0
  0
LINE
  5
   4D0
  8
0
  6
CONTINUOUS
 62
     7
 10
-401.624119758606
 20
-7.18616676330566
 30
0.0
 11
-401.624119758606
 21
-0.686166763305664
 31
0.0
  0
LINE
  5
   4D1
  8
0
  6
CONTINUOUS
 62
     7
 10
-401.624119758606
 20
63.8138313293457
 30
0.0
 11
-401.624119758606
 21
89.9133377008117
 31
0.0
  0
INSERT
  5
   4D2
  8
0
  6
CONTINUOUS
 62
     7
  2
*HATCH91
 10
-403.624145507813
 20
-28.1764793395996
 30
0.0
 41
0.5
 42
0.5
 50
89.9999999480344
 43
0.5
  0
INSERT
  5
   4D3
  8
0
  6
CONTINUOUS
 62
     7
  2
*HATCH92
 10
-403.624145507813
 20
-28.1764793395996
 30
0.0
 41
0.5
 42
0.5
 50
89.9999999480344
 43
0.5
  0
INSERT
  5
   4D4
  8
0
  6
CONTINUOUS
 62
     7
  2
*HATCH93
 10
-403.624145507813
 20
-28.1764793395996
 30
0.0
 41
0.5
 42
0.5
 50
89.9999999480344
 43
0.5
  0
INSERT
  5
   4D5
  8
0
  6
CONTINUOUS
 62
     7
  2
*HATCH94
 10
-403.624145507813
 20
-28.1764793395996
 30
0.0
 41
0.5
 42
0.5
 50
89.9999999480344
 43
0.5
  0
LINE
  5
   4D6
  8
0
  6
DASHDOT
 62
     7
 10
-372.664219061285
 20
26.8170433044434
 30
0.0
 11
-488.618255000613
 21
26.8170433044434
 31
0.0
  0
LINE
  5
   4D7
  8
0
  6
CONTINUOUS
 62
     5
 10
-404.874107837081
 20
71.6920433044434
 30
0.0
 11
-454.12410736084
 21
71.6920433044434
 31
0.0
  0
LINE
  5
   4D8
  8
0
  6
CONTINUOUS
 62
     5
 10
-404.874107837081
 20
-15.80795048653
 30
0.0
 11
-454.12410736084
 21
-15.80795048653
 31
0.0
  0
LINE
  5
   4D9
  8
0
  6
CONTINUOUS
 62
     5
 10
-404.374107837081
 20
-15.30795048653
 30
0.0
 11
-404.374107837081
 21
-2.68293496540227
 31
0.0
  0
LINE
  5
   4DA
  8
0
  6
CONTINUOUS
 62
     5
 10
-404.374107837081
 20
58.8170433044434
 30
0.0
 11
-404.374107837081
 21
71.1920433044434
 31
0.0
  0
ARC
  5
   4DB
  8
0
  6
CONTINUOUS
 62
     5
 10
-404.874107837081
 20
71.1920433044434
 30
0.0
 40
0.5
 50
359.999999948034
 51
449.999999948034
  0
ARC
  5
   4DC
  8
0
  6
CONTINUOUS
 62
     5
 10
-404.874107837081
 20
-15.30795048653
 30
0.0
 40
0.5
 50
269.999999948034
 51
359.999999948034
  0
LINE
  5
   4DD
  8
0
  6
CONTINUOUS
 62
     5
 10
-404.874107837081
 20
58.3170433044434
 30
0.0
 11
-404.874107837081
 21
58.8170433044434
 31
0.0
  0
LINE
  5
   4DE
  8
0
  6
CONTINUOUS
 62
     5
 10
-404.374107837081
 20
58.8170433044434
 30
0.0
 11
-404.874107837081
 21
58.8170433044434
 31
0.0
  0
LINE
  5
   4DF
  8
0
  6
CONTINUOUS
 62
     5
 10
-404.374107837081
 20
-2.68293496540227
 30
0.0
 11
-404.874107837081
 21
-2.68293496540227
 31
0.0
  0
LINE
  5
   4E0
  8
0
  6
CONTINUOUS
 62
     5
 10
-404.874107837081
 20
-2.68293496540227
 30
0.0
 11
-404.874107837081
 21
-2.18293496540227
 31
0.0
  0
LINE
  5
   4E1
  8
0
  6
CONTINUOUS
 62
     7
 10
-475.268807705347
 20
95.1285248438639
 30
0.0
 11
-485.078632356953
 21
99.7995708176883
 31
0.0
  0
LINE
  5
   4E2
  8
0
  6
CONTINUOUS
 62
   130
 10
-455.124145507808
 20
70.4420347213745
 30
0.0
 11
-473.624145507808
 21
70.4420347213745
 31
0.0
  0
ARC
  5
   4E3
  8
0
  6
CONTINUOUS
 62
     5
 10
-464.37410736084
 20
80.4420385360718
 30
0.0
 40
1.99999999999999
 50
269.999999948034
 51
449.999999948035
  0
LINE
  5
   4E4
  8
0
  6
CONTINUOUS
 62
     5
 10
-465.62410736084
 20
75.4420385360718
 30
0.0
 11
-465.62410736084
 21
85.4420385360718
 31
0.0
  0
LINE
  5
   4E5
  8
0
  6
CONTINUOUS
 62
     5
 10
-464.37410736084
 20
85.4420385360718
 30
0.0
 11
-465.62410736084
 21
85.4420385360718
 31
0.0
  0
LINE
  5
   4E6
  8
0
  6
CONTINUOUS
 62
     5
 10
-448.12410736084
 20
85.4420385360718
 30
0.0
 11
-455.67410736084
 21
85.4420385360718
 31
0.0
  0
LINE
  5
   4E7
  8
0
  6
CONTINUOUS
 62
     5
 10
-464.37410736084
 20
75.4420385360718
 30
0.0
 11
-465.62410736084
 21
75.4420385360718
 31
0.0
  0
LINE
  5
   4E8
  8
0
  6
CONTINUOUS
 62
     5
 10
-448.12410736084
 20
75.4420385360718
 30
0.0
 11
-455.67410736084
 21
75.4420385360718
 31
0.0
  0
ARC
  5
   4E9
  8
0
  6
CONTINUOUS
 62
     5
 10
-464.37410736084
 20
80.4420385360718
 30
0.0
 40
0.749999999999993
 50
269.999999948034
 51
449.999999948034
  0
ARC
  5
   4EA
  8
0
  6
CONTINUOUS
 62
     5
 10
-464.37410736084
 20
82.4420385360718
 30
0.0
 40
1.25
 50
179.999999948034
 51
269.999999948035
  0
ARC
  5
   4EB
  8
0
  6
CONTINUOUS
 62
     5
 10
-464.37410736084
 20
78.4420385360718
 30
0.0
 40
1.25
 50
449.999999948034
 51
539.999999948034
  0
LINE
  5
   4EC
  8
0
  6
CONTINUOUS
 62
     5
 10
-447.12410736084
 20
76.4420385360718
 30
0.0
 11
-447.12410736084
 21
77.4420385360717
 31
0.0
  0
ARC
  5
   4ED
  8
0
  6
CONTINUOUS
 62
     5
 10
-448.12410736084
 20
84.4420385360718
 30
0.0
 40
1.0
 50
359.999999948034
 51
449.999999948034
  0
ARC
  5
   4EE
  8
0
  6
CONTINUOUS
 62
     5
 10
-448.12410736084
 20
76.4420385360718
 30
0.0
 40
1.0
 50
269.999999948034
 51
359.999999948034
  0
LINE
  5
   4EF
  8
0
  6
CONTINUOUS
 62
     5
 10
-451.62410736084
 20
75.4420385360718
 30
0.0
 11
-451.62410736084
 21
77.4420385360717
 31
0.0
  0
LINE
  5
   4F0
  8
0
  6
CONTINUOUS
 62
     5
 10
-449.62410736084
 20
75.4420385360718
 30
0.0
 11
-449.62410736084
 21
77.4420385360717
 31
0.0
  0
LINE
  5
   4F1
  8
0
  6
CONTINUOUS
 62
     1
 10
-453.92410736084
 20
84.6920385360718
 30
0.0
 11
-455.67410736084
 21
84.6920385360718
 31
0.0
  0
LINE
  5
   4F2
  8
0
  6
CONTINUOUS
 62
     1
 10
-453.92410736084
 20
76.1920385360718
 30
0.0
 11
-455.67410736084
 21
76.1920385360718
 31
0.0
  0
LINE
  5
   4F3
  8
0
  6
CONTINUOUS
 62
     1
 10
-455.17410736084
 20
76.1920385360718
 30
0.0
 11
-455.17410736084
 21
76.9420385360724
 31
0.0
  0
LINE
  5
   4F4
  8
0
  6
CONTINUOUS
 62
     1
 10
-453.92410736084
 20
76.1920385360718
 30
0.0
 11
-453.92410736084
 21
76.9420385360724
 31
0.0
  0
ARC
  5
   4F5
  8
0
  6
CONTINUOUS
 62
     1
 10
-454.79910736084
 20
83.4420385360718
 30
0.0
 40
0.625000000000011
 50
126.869897593878
 51
233.13010230219
  0
LINE
  5
   4F6
  8
0
  6
CONTINUOUS
 62
     1
 10
-455.17410736084
 20
83.9420385360718
 30
0.0
 11
-455.17410736084
 21
84.6920385360718
 31
0.0
  0
ARC
  5
   4F7
  8
0
  6
CONTINUOUS
 62
     1
 10
-454.79910736084
 20
77.4420385360718
 30
0.0
 40
0.625000000000011
 50
126.869897593878
 51
233.13010230219
  0
LINE
  5
   4F8
  8
0
  6
CONTINUOUS
 62
     1
 10
-455.17410736084
 20
77.9420385360712
 30
0.0
 11
-455.17410736084
 21
82.9420385360718
 31
0.0
  0
ARC
  5
   4F9
  8
0
  6
CONTINUOUS
 62
     1
 10
-453.54910736084
 20
83.4420385360718
 30
0.0
 40
0.625000000000011
 50
126.869897593878
 51
233.13010230219
  0
ARC
  5
   4FA
  8
0
  6
CONTINUOUS
 62
     1
 10
-453.54910736084
 20
77.4420385360718
 30
0.0
 40
0.625000000000011
 50
126.869897593878
 51
233.13010230219
  0
LINE
  5
   4FB
  8
0
  6
CONTINUOUS
 62
     1
 10
-453.92410736084
 20
83.9420385360718
 30
0.0
 11
-453.92410736084
 21
84.6920385360718
 31
0.0
  0
LINE
  5
   4FC
  8
0
  6
CONTINUOUS
 62
     1
 10
-453.92410736084
 20
77.9420385360712
 30
0.0
 11
-453.92410736084
 21
78.1920385360718
 31
0.0
  0
LINE
  5
   4FD
  8
0
  6
CONTINUOUS
 62
     1
 10
-453.17410736084
 20
81.9420385360718
 30
0.0
 11
-454.67410736084
 21
81.9420385360718
 31
0.0
  0
LINE
  5
   4FE
  8
0
  6
CONTINUOUS
 62
     1
 10
-453.17410736084
 20
78.9420385360718
 30
0.0
 11
-454.67410736084
 21
78.9420385360718
 31
0.0
  0
LINE
  5
   4FF
  8
0
  6
CONTINUOUS
 62
     1
 10
-453.17410736084
 20
82.6920385360718
 30
0.0
 11
-453.92410736084
 21
82.6920385360718
 31
0.0
  0
LINE
  5
   500
  8
0
  6
CONTINUOUS
 62
     1
 10
-453.17410736084
 20
78.1920385360718
 30
0.0
 11
-453.92410736084
 21
78.1920385360718
 31
0.0
  0
LINE
  5
   501
  8
0
  6
CONTINUOUS
 62
     1
 10
-453.92410736084
 20
82.6920385360718
 30
0.0
 11
-453.92410736084
 21
82.9420385360718
 31
0.0
  0
ARC
  5
   502
  8
0
  6
CONTINUOUS
 62
     1
 10
-454.67410736084
 20
82.4420385360718
 30
0.0
 40
0.5
 50
179.999999948034
 51
269.999999948034
  0
ARC
  5
   503
  8
0
  6
CONTINUOUS
 62
     1
 10
-454.67410736084
 20
78.4420385360718
 30
0.0
 40
0.5
 50
89.9999999480344
 51
179.999999948034
  0
LINE
  5
   504
  8
0
  6
CONTINUOUS
 62
     2
 10
-453.17410736084
 20
81.4420385360718
 30
0.0
 11
-454.92410736084
 21
81.4420385360718
 31
0.0
  0
LINE
  5
   505
  8
0
  6
CONTINUOUS
 62
     2
 10
-453.17410736084
 20
79.4420385360718
 30
0.0
 11
-454.92410736084
 21
79.4420385360718
 31
0.0
  0
LINE
  5
   506
  8
0
  6
CONTINUOUS
 62
     2
 10
-453.17410736084
 20
79.4420385360718
 30
0.0
 11
-452.59675709165
 21
80.4420385360718
 31
0.0
  0
LINE
  5
   507
  8
0
  6
CONTINUOUS
 62
     2
 10
-452.59675709165
 20
80.4420385360718
 30
0.0
 11
-453.17410736084
 21
81.4420385360718
 31
0.0
  0
LINE
  5
   508
  8
0
  6
CONTINUOUS
 62
     2
 10
-453.17410736084
 20
79.4420385360718
 30
0.0
 11
-453.17410736084
 21
81.4420385360718
 31
0.0
  0
LINE
  5
   509
  8
0
  6
CONTINUOUS
 62
     2
 10
-453.17410736084
 20
82.6920385360718
 30
0.0
 11
-453.17410736084
 21
82.9420385360717
 31
0.0
  0
LINE
  5
   50A
  8
0
  6
CONTINUOUS
 62
     1
 10
-453.17410736084
 20
78.1920385360718
 30
0.0
 11
-453.17410736084
 21
78.9420385360718
 31
0.0
  0
LINE
  5
   50B
  8
0
  6
CONTINUOUS
 62
     1
 10
-453.17410736084
 20
81.9420385360718
 30
0.0
 11
-453.17410736084
 21
82.6920385360718
 31
0.0
  0
LINE
  5
   50C
  8
0
  6
CONTINUOUS
 62
     2
 10
-443.67410736084
 20
77.9420385360717
 30
0.0
 11
-443.67410736084
 21
82.9420385360717
 31
0.0
  0
LINE
  5
   50D
  8
0
  6
CONTINUOUS
 62
     2
 10
-444.17410736084
 20
83.4420385360717
 30
0.0
 11
-452.67410736084
 21
83.4420385360717
 31
0.0
  0
LINE
  5
   50E
  8
0
  6
CONTINUOUS
 62
     2
 10
-444.17410736084
 20
77.4420385360717
 30
0.0
 11
-452.67410736084
 21
77.4420385360717
 31
0.0
  0
LINE
  5
   50F
  8
0
  6
CONTINUOUS
 62
     5
 10
-451.62410736084
 20
83.4420385360717
 30
0.0
 11
-451.62410736084
 21
85.4420385360718
 31
0.0
  0
LINE
  5
   510
  8
0
  6
CONTINUOUS
 62
     5
 10
-449.62410736084
 20
83.4420385360717
 30
0.0
 11
-449.62410736084
 21
85.4420385360718
 31
0.0
  0
LINE
  5
   511
  8
0
  6
CONTINUOUS
 62
     5
 10
-447.12410736084
 20
83.4420385360717
 30
0.0
 11
-447.12410736084
 21
84.4420385360718
 31
0.0
  0
LINE
  5
   512
  8
0
  6
CONTINUOUS
 62
     2
 10
-443.67410736084
 20
82.9420385360717
 30
0.0
 11
-444.17410736084
 21
83.4420385360717
 31
0.0
  0
LINE
  5
   513
  8
0
  6
CONTINUOUS
 62
     2
 10
-444.17410736084
 20
77.4420385360717
 30
0.0
 11
-443.67410736084
 21
77.9420385360717
 31
0.0
  0
LINE
  5
   514
  8
0
  6
CONTINUOUS
 62
     2
 10
-452.67410736084
 20
77.4420385360717
 30
0.0
 11
-453.17410736084
 21
77.9420385360717
 31
0.0
  0
LINE
  5
   515
  8
0
  6
CONTINUOUS
 62
     2
 10
-453.17410736084
 20
82.9420385360717
 30
0.0
 11
-452.67410736084
 21
83.4420385360717
 31
0.0
  0
LINE
  5
   516
  8
0
  6
CONTINUOUS
 62
     2
 10
-444.17410736084
 20
77.4420385360717
 30
0.0
 11
-444.17410736084
 21
83.4420385360717
 31
0.0
  0
LINE
  5
   517
  8
0
  6
CONTINUOUS
 62
     7
 10
-443.79910736084
 20
83.0670385360717
 30
0.0
 11
-453.04910736084
 21
83.0670385360717
 31
0.0
  0
LINE
  5
   518
  8
0
  6
CONTINUOUS
 62
     7
 10
-443.799107360838
 20
77.8170385360735
 30
0.0
 11
-453.049107360836
 21
77.8170385360735
 31
0.0
  0
LINE
  5
   519
  8
0
  6
CONTINUOUS
 62
     2
 10
-453.17410736084
 20
77.9420385360717
 30
0.0
 11
-453.17410736084
 21
78.1920385360718
 31
0.0
  0
ARC
  5
   51A
  8
0
  6
CONTINUOUS
 62
     2
 10
-454.92410736084
 20
81.6920385360718
 30
0.0
 40
0.25
 50
179.999999948034
 51
269.999999948034
  0
ARC
  5
   51B
  8
0
  6
CONTINUOUS
 62
     2
 10
-454.92410736084
 20
79.1920385360718
 30
0.0
 40
0.25
 50
89.9999999480344
 51
179.999999948034
  0
LINE
  5
   51C
  8
0
  6
CONTINUOUS
 62
     7
 10
-451.994100064112
 20
77.1932593531086
 30
0.0
 11
-451.994100064112
 21
83.8158158128201
 31
0.0
  0
LINE
  5
   51D
  8
0
  6
CONTINUOUS
 62
     7
 10
-451.12410736084
 20
83.4420385360717
 30
0.0
 11
-451.62410736084
 21
83.4420385360717
 31
0.0
  0
LINE
  5
   51E
  8
0
  6
CONTINUOUS
 62
     7
 10
-451.12410736084
 20
77.4420385360717
 30
0.0
 11
-451.62410736084
 21
77.4420385360717
 31
0.0
  0
LINE
  5
   51F
  8
0
  6
CONTINUOUS
 62
     3
 10
-461.87410736084
 20
74.1833138526632
 30
0.0
 11
-461.87410736084
 21
75.4420385360718
 31
0.0
  0
LINE
  5
   520
  8
0
  6
DASHDOT
 62
     7
 10
-435.702373659428
 20
80.4420385360718
 30
0.0
 11
-465.464901792329
 21
80.4420385360718
 31
0.0
  0
LINE
  5
   521
  8
0
  6
CONTINUOUS
 62
     3
 10
-461.87410736084
 20
75.4420385360718
 30
0.0
 11
-464.37410736084
 21
75.4420385360718
 31
0.0
  0
LINE
  5
   522
  8
0
  6
CONTINUOUS
 62
     3
 10
-461.87410736084
 20
85.4420385360718
 30
0.0
 11
-464.37410736084
 21
85.4420385360718
 31
0.0
  0
LINE
  5
   523
  8
0
  6
CONTINUOUS
 62
     3
 10
-461.87410736084
 20
82.4920385360718
 30
0.0
 11
-464.37410736084
 21
82.4920385360718
 31
0.0
  0
LINE
  5
   524
  8
0
  6
CONTINUOUS
 62
     3
 10
-461.87410736084
 20
78.3920385360718
 30
0.0
 11
-464.37410736084
 21
78.3920385360718
 31
0.0
  0
LINE
  5
   525
  8
0
  6
CONTINUOUS
 62
     3
 10
-464.37410736084
 20
82.4420385360718
 30
0.0
 11
-464.37410736084
 21
85.4420385360718
 31
0.0
  0
LINE
  5
   526
  8
0
  6
CONTINUOUS
 62
     7
 10
-461.111311543589
 20
76.7253891373153
 30
0.0
 11
-465.217538778915
 21
76.7253891373153
 31
0.0
  0
INSERT
  5
   527
  8
0
  6
CONTINUOUS
 62
     7
  2
*HATCH95
 10
-403.624145507813
 20
-28.1764793395996
 30
0.0
 41
0.5
 42
0.5
 50
89.9999999480344
 43
0.5
  0
INSERT
  5
   528
  8
0
  6
CONTINUOUS
 62
     7
  2
*HATCH96
 10
-403.624145507813
 20
-28.1764793395996
 30
0.0
 41
0.5
 42
0.5
 50
89.9999999480344
 43
0.5
  0
LINE
  5
   529
  8
0
  6
CONTINUOUS
 62
     3
 10
-464.37410736084
 20
74.1833138526632
 30
0.0
 11
-464.37410736084
 21
78.4420385360718
 31
0.0
  0
INSERT
  5
   52A
  8
0
  6
CONTINUOUS
 62
     7
  2
*HATCH97
 10
-403.624145507813
 20
-28.1764793395996
 30
0.0
 41
0.5
 42
0.5
 50
89.9999999480344
 43
0.5
  0
INSERT
  5
   52B
  8
0
  6
CONTINUOUS
 62
     7
  2
*HATCH98
 10
-403.624145507813
 20
-28.1764793395996
 30
0.0
 41
0.5
 42
0.5
 50
89.9999999480344
 43
0.5
  0
INSERT
  5
   52C
  8
0
  6
CONTINUOUS
 62
     7
  2
*HATCH99
 10
-403.624145507813
 20
-28.1764793395996
 30
0.0
 41
0.5
 42
0.5
 50
89.9999999480344
 43
0.5
  0
INSERT
  5
   52D
  8
0
  6
CONTINUOUS
 62
     7
  2
*HATCH100
 10
-403.624145507813
 20
-28.1764793395996
 30
0.0
 41
0.5
 42
0.5
 50
89.9999999480344
 43
0.5
  0
LINE
  5
   52E
  8
0
  6
CONTINUOUS
 62
   130
 10
-440.124145507808
 20
72.5670575065318
 30
0.0
 11
-440.124145507808
 21
89.8170575065376
 31
0.0
  0
LINE
  5
   52F
  8
0
  6
CONTINUOUS
 62
   130
 10
-441.374145507808
 20
74.1833138526632
 30
0.0
 11
-441.374145507808
 21
89.4420569910386
 31
0.0
  0
LINE
  5
   530
  8
0
  6
CONTINUOUS
 62
   130
 10
-455.124145507808
 20
71.9420881271022
 30
0.0
 11
-473.624145507808
 21
71.9420881271022
 31
0.0
  0
LINE
  5
   531
  8
0
  6
CONTINUOUS
 62
   130
 10
-455.124145507808
 20
70.4420222370078
 30
0.0
 11
-455.124145507808
 21
71.9420456500553
 31
0.0
  0
LINE
  5
   532
  8
0
  6
CONTINUOUS
 62
   130
 10
-440.749146023307
 20
90.4420881270959
 30
0.0
 11
-454.77410736084
 21
90.4420881270959
 31
0.0
  0
ARC
  5
   533
  8
0
  6
CONTINUOUS
 62
   130
 10
-440.749145507808
 20
89.8170575065376
 30
0.0
 40
0.625
 50
359.999999948034
 51
450.000047205499
  0
LINE
  5
   534
  8
0
  6
CONTINUOUS
 62
   130
 10
-441.374145507808
 20
89.4420881270962
 30
0.0
 11
-454.77410736084
 21
89.4420881270962
 31
0.0
  0
LINE
  5
   535
  8
0
  6
CONTINUOUS
 62
   130
 10
-441.874127666198
 20
88.4420881270965
 30
0.0
 11
-454.77410736084
 21
88.4420881270965
 31
0.0
  0
LINE
  5
   536
  8
0
  6
CONTINUOUS
 62
   130
 10
-442.874127666198
 20
89.4420510112653
 30
0.0
 11
-442.874127666198
 21
90.4420510112656
 31
0.0
  0
LINE
  5
   537
  8
0
  6
CONTINUOUS
 62
   130
 10
-441.374145507808
 20
87.4420881270968
 30
0.0
 11
-454.77410736084
 21
87.4420881270968
 31
0.0
  0
LINE
  5
   538
  8
0
  6
CONTINUOUS
 62
   130
 10
-441.874127666198
 20
88.4420518360633
 30
0.0
 11
-441.874127666198
 21
89.4420518360636
 31
0.0
  0
LINE
  5
   539
  8
0
  6
CONTINUOUS
 62
   130
 10
-479.124137878418
 20
71.9420258549012
 30
0.0
 11
-479.124137878418
 21
90.4420258549075
 31
0.0
  0
ARC
  5
   53A
  8
0
  6
CONTINUOUS
 62
   130
 10
-440.749145507808
 20
72.5670575065318
 30
0.0
 40
0.625
 50
270.000047205499
 51
359.999999948034
  0
LINE
  5
   53B
  8
0
  6
CONTINUOUS
 62
     1
 10
-455.67410736084
 20
76.1920385360718
 30
0.0
 11
-455.67410736084
 21
84.6920385360718
 31
0.0
  0
LINE
  5
   53C
  8
0
  6
CONTINUOUS
 62
     1
 10
-455.17410736084
 20
83.9420385360718
 30
0.0
 11
-455.67410736084
 21
83.9420385360718
 31
0.0
  0
LINE
  5
   53D
  8
0
  6
CONTINUOUS
 62
     1
 10
-455.17410736084
 20
82.9420385360718
 30
0.0
 11
-455.67410736084
 21
82.9420385360718
 31
0.0
  0
LINE
  5
   53E
  8
0
  6
CONTINUOUS
 62
     1
 10
-455.17410736084
 20
76.9420385360718
 30
0.0
 11
-455.67410736084
 21
76.9420385360718
 31
0.0
  0
LINE
  5
   53F
  8
0
  6
CONTINUOUS
 62
     1
 10
-455.17410736084
 20
77.9420385360712
 30
0.0
 11
-455.67410736084
 21
77.9420385360712
 31
0.0
  0
LINE
  5
   540
  8
0
  6
CONTINUOUS
 62
     7
 10
-467.688250086078
 20
74.1833138526632
 30
0.0
 11
-467.688250086078
 21
91.0258052246788
 31
0.0
  0
LINE
  5
   541
  8
0
  6
CONTINUOUS
 62
     7
 10
-438.631472615762
 20
74.1833138526632
 30
0.0
 11
-467.688250086078
 21
74.1833138526632
 31
0.0
  0
LINE
  5
   542
  8
0
  6
CONTINUOUS
 62
   130
 10
-473.624145507808
 20
70.4420347213745
 30
0.0
 11
-479.124137878418
 21
71.9420258549012
 31
0.0
  0
LINE
  5
   543
  8
0
  6
CONTINUOUS
 62
   130
 10
-473.624145507808
 20
71.4420303912857
 30
0.0
 11
-473.624145507808
 21
71.9420303912858
 31
0.0
  0
LINE
  5
   544
  8
0
  6
CONTINUOUS
 62
   130
 10
-455.124146332616
 20
71.4420881271024
 30
0.0
 11
-473.624146332603
 21
71.4420881271024
 31
0.0
  0
INSERT
  5
   545
  8
0
  6
CONTINUOUS
 62
     7
  2
*HATCH101
 10
-403.624145507813
 20
-28.1764793395996
 30
0.0
 41
0.5
 42
0.5
 50
89.9999999480344
 43
0.5
  0
LINE
  5
   546
  8
0
  6
CONTINUOUS
 62
   130
 10
-440.749144992309
 20
71.9420881271022
 30
0.0
 11
-455.124145507808
 21
71.9420881271022
 31
0.0
  0
LINE
  5
   547
  8
0
  6
CONTINUOUS
 62
   130
 10
-462.77410736084
 20
90.4420881270959
 30
0.0
 11
-479.124137878418
 21
90.4420881270959
 31
0.0
  0
LINE
  5
   548
  8
0
  6
CONTINUOUS
 62
   130
 10
-462.77410736084
 20
89.4420881270962
 30
0.0
 11
-467.688250086078
 21
89.4420881270962
 31
0.0
  0
LINE
  5
   549
  8
0
  6
CONTINUOUS
 62
   130
 10
-462.77410736084
 20
88.4420881270965
 30
0.0
 11
-467.688250086078
 21
88.4420881270965
 31
0.0
  0
LINE
  5
   54A
  8
0
  6
CONTINUOUS
 62
   130
 10
-462.77410736084
 20
87.4420881270968
 30
0.0
 11
-467.688250086078
 21
87.4420881270968
 31
0.0
  0
INSERT
  5
   54B
  8
0
  6
CONTINUOUS
 62
     7
  2
*HATCH102
 10
-403.624145507813
 20
-28.1764793395996
 30
0.0
 41
0.5
 42
0.5
 50
89.9999999480344
 43
0.5
  0
INSERT
  5
   54C
  8
0
  6
CONTINUOUS
 62
     7
  2
*HATCH103
 10
-403.624145507813
 20
-28.1764793395996
 30
0.0
 41
0.5
 42
0.5
 50
89.9999999480344
 43
0.5
  0
LINE
  5
   54D
  8
0
  6
CONTINUOUS
 62
   130
 10
-455.124145507808
 20
-14.5579419034611
 30
0.0
 11
-473.624145507809
 21
-14.5579419034611
 31
0.0
  0
ARC
  5
   54E
  8
0
  6
CONTINUOUS
 62
     5
 10
-464.37410736084
 20
-24.5579457181584
 30
0.0
 40
1.99999999999999
 50
269.999999948034
 51
449.999999948035
  0
LINE
  5
   54F
  8
0
  6
CONTINUOUS
 62
     5
 10
-465.62410736084
 20
-29.5579457181584
 30
0.0
 11
-465.62410736084
 21
-19.5579457181584
 31
0.0
  0
LINE
  5
   550
  8
0
  6
CONTINUOUS
 62
     5
 10
-464.37410736084
 20
-29.5579457181584
 30
0.0
 11
-465.62410736084
 21
-29.5579457181584
 31
0.0
  0
LINE
  5
   551
  8
0
  6
CONTINUOUS
 62
     5
 10
-448.12410736084
 20
-29.5579457181584
 30
0.0
 11
-455.67410736084
 21
-29.5579457181584
 31
0.0
  0
LINE
  5
   552
  8
0
  6
CONTINUOUS
 62
     5
 10
-464.37410736084
 20
-19.5579457181584
 30
0.0
 11
-465.62410736084
 21
-19.5579457181584
 31
0.0
  0
LINE
  5
   553
  8
0
  6
CONTINUOUS
 62
     5
 10
-448.12410736084
 20
-19.5579457181584
 30
0.0
 11
-455.67410736084
 21
-19.5579457181584
 31
0.0
  0
ARC
  5
   554
  8
0
  6
CONTINUOUS
 62
     5
 10
-464.37410736084
 20
-24.5579457181584
 30
0.0
 40
0.749999999999993
 50
269.999999948034
 51
449.999999948034
  0
ARC
  5
   555
  8
0
  6
CONTINUOUS
 62
     5
 10
-464.37410736084
 20
-26.5579457181584
 30
0.0
 40
1.25
 50
449.999999948034
 51
539.999999948034
  0
ARC
  5
   556
  8
0
  6
CONTINUOUS
 62
     5
 10
-464.37410736084
 20
-22.5579457181584
 30
0.0
 40
1.25
 50
179.999999948034
 51
269.999999948035
  0
LINE
  5
   557
  8
0
  6
CONTINUOUS
 62
     5
 10
-447.12410736084
 20
-21.5579457181584
 30
0.0
 11
-447.12410736084
 21
-20.5579457181584
 31
0.0
  0
ARC
  5
   558
  8
0
  6
CONTINUOUS
 62
     5
 10
-448.12410736084
 20
-28.5579457181584
 30
0.0
 40
1.0
 50
269.999999948034
 51
359.999999948034
  0
ARC
  5
   559
  8
0
  6
CONTINUOUS
 62
     5
 10
-448.12410736084
 20
-20.5579457181584
 30
0.0
 40
1.0
 50
359.999999948034
 51
449.999999948034
  0
LINE
  5
   55A
  8
0
  6
CONTINUOUS
 62
     5
 10
-451.62410736084
 20
-21.5579457181584
 30
0.0
 11
-451.62410736084
 21
-19.5579457181584
 31
0.0
  0
LINE
  5
   55B
  8
0
  6
CONTINUOUS
 62
     5
 10
-449.62410736084
 20
-21.5579457181584
 30
0.0
 11
-449.62410736084
 21
-19.5579457181584
 31
0.0
  0
LINE
  5
   55C
  8
0
  6
CONTINUOUS
 62
     1
 10
-453.92410736084
 20
-28.8079457181584
 30
0.0
 11
-455.67410736084
 21
-28.8079457181584
 31
0.0
  0
LINE
  5
   55D
  8
0
  6
CONTINUOUS
 62
     1
 10
-453.92410736084
 20
-20.3079457181584
 30
0.0
 11
-455.67410736084
 21
-20.3079457181584
 31
0.0
  0
LINE
  5
   55E
  8
0
  6
CONTINUOUS
 62
     1
 10
-455.17410736084
 20
-21.0579457181591
 30
0.0
 11
-455.17410736084
 21
-20.3079457181584
 31
0.0
  0
LINE
  5
   55F
  8
0
  6
CONTINUOUS
 62
     1
 10
-453.92410736084
 20
-21.0579457181591
 30
0.0
 11
-453.92410736084
 21
-20.3079457181584
 31
0.0
  0
ARC
  5
   560
  8
0
  6
CONTINUOUS
 62
     1
 10
-454.79910736084
 20
-27.5579457181584
 30
0.0
 40
0.625000000000011
 50
126.869897593878
 51
233.13010230219
  0
LINE
  5
   561
  8
0
  6
CONTINUOUS
 62
     1
 10
-455.17410736084
 20
-28.8079457181584
 30
0.0
 11
-455.17410736084
 21
-28.0579457181584
 31
0.0
  0
ARC
  5
   562
  8
0
  6
CONTINUOUS
 62
     1
 10
-454.79910736084
 20
-21.5579457181584
 30
0.0
 40
0.625000000000011
 50
126.869897593878
 51
233.13010230219
  0
LINE
  5
   563
  8
0
  6
CONTINUOUS
 62
     1
 10
-455.17410736084
 20
-27.0579457181584
 30
0.0
 11
-455.17410736084
 21
-22.0579457181578
 31
0.0
  0
ARC
  5
   564
  8
0
  6
CONTINUOUS
 62
     1
 10
-453.54910736084
 20
-27.5579457181584
 30
0.0
 40
0.625000000000011
 50
126.869897593878
 51
233.13010230219
  0
ARC
  5
   565
  8
0
  6
CONTINUOUS
 62
     1
 10
-453.54910736084
 20
-21.5579457181584
 30
0.0
 40
0.625000000000011
 50
126.869897593878
 51
233.13010230219
  0
LINE
  5
   566
  8
0
  6
CONTINUOUS
 62
     1
 10
-453.92410736084
 20
-28.8079457181584
 30
0.0
 11
-453.92410736084
 21
-28.0579457181584
 31
0.0
  0
LINE
  5
   567
  8
0
  6
CONTINUOUS
 62
     1
 10
-453.92410736084
 20
-22.3079457181584
 30
0.0
 11
-453.92410736084
 21
-22.0579457181578
 31
0.0
  0
LINE
  5
   568
  8
0
  6
CONTINUOUS
 62
     1
 10
-453.17410736084
 20
-26.0579457181584
 30
0.0
 11
-454.67410736084
 21
-26.0579457181584
 31
0.0
  0
LINE
  5
   569
  8
0
  6
CONTINUOUS
 62
     1
 10
-453.17410736084
 20
-23.0579457181584
 30
0.0
 11
-454.67410736084
 21
-23.0579457181584
 31
0.0
  0
LINE
  5
   56A
  8
0
  6
CONTINUOUS
 62
     1
 10
-453.17410736084
 20
-26.8079457181584
 30
0.0
 11
-453.92410736084
 21
-26.8079457181584
 31
0.0
  0
LINE
  5
   56B
  8
0
  6
CONTINUOUS
 62
     1
 10
-453.17410736084
 20
-22.3079457181584
 30
0.0
 11
-453.92410736084
 21
-22.3079457181584
 31
0.0
  0
LINE
  5
   56C
  8
0
  6
CONTINUOUS
 62
     1
 10
-453.92410736084
 20
-27.0579457181584
 30
0.0
 11
-453.92410736084
 21
-26.8079457181584
 31
0.0
  0
ARC
  5
   56D
  8
0
  6
CONTINUOUS
 62
     1
 10
-454.67410736084
 20
-26.5579457181584
 30
0.0
 40
0.5
 50
89.9999999480344
 51
179.999999948034
  0
ARC
  5
   56E
  8
0
  6
CONTINUOUS
 62
     1
 10
-454.67410736084
 20
-22.5579457181584
 30
0.0
 40
0.5
 50
179.999999948034
 51
269.999999948034
  0
LINE
  5
   56F
  8
0
  6
CONTINUOUS
 62
     2
 10
-453.17410736084
 20
-25.5579457181584
 30
0.0
 11
-454.92410736084
 21
-25.5579457181584
 31
0.0
  0
LINE
  5
   570
  8
0
  6
CONTINUOUS
 62
     2
 10
-453.17410736084
 20
-23.5579457181584
 30
0.0
 11
-454.92410736084
 21
-23.5579457181584
 31
0.0
  0
LINE
  5
   571
  8
0
  6
CONTINUOUS
 62
     2
 10
-452.59675709165
 20
-24.5579457181584
 30
0.0
 11
-453.17410736084
 21
-23.5579457181584
 31
0.0
  0
LINE
  5
   572
  8
0
  6
CONTINUOUS
 62
     2
 10
-453.17410736084
 20
-25.5579457181584
 30
0.0
 11
-452.59675709165
 21
-24.5579457181584
 31
0.0
  0
LINE
  5
   573
  8
0
  6
CONTINUOUS
 62
     2
 10
-453.17410736084
 20
-25.5579457181584
 30
0.0
 11
-453.17410736084
 21
-23.5579457181584
 31
0.0
  0
LINE
  5
   574
  8
0
  6
CONTINUOUS
 62
     2
 10
-453.17410736084
 20
-27.0579457181584
 30
0.0
 11
-453.17410736084
 21
-26.8079457181584
 31
0.0
  0
LINE
  5
   575
  8
0
  6
CONTINUOUS
 62
     1
 10
-453.17410736084
 20
-23.0579457181584
 30
0.0
 11
-453.17410736084
 21
-22.3079457181584
 31
0.0
  0
LINE
  5
   576
  8
0
  6
CONTINUOUS
 62
     1
 10
-453.17410736084
 20
-26.8079457181584
 30
0.0
 11
-453.17410736084
 21
-26.0579457181584
 31
0.0
  0
LINE
  5
   577
  8
0
  6
CONTINUOUS
 62
     2
 10
-443.67410736084
 20
-27.0579457181583
 30
0.0
 11
-443.67410736084
 21
-22.0579457181583
 31
0.0
  0
LINE
  5
   578
  8
0
  6
CONTINUOUS
 62
     2
 10
-444.17410736084
 20
-27.5579457181584
 30
0.0
 11
-452.67410736084
 21
-27.5579457181584
 31
0.0
  0
LINE
  5
   579
  8
0
  6
CONTINUOUS
 62
     2
 10
-444.17410736084
 20
-21.5579457181584
 30
0.0
 11
-452.67410736084
 21
-21.5579457181584
 31
0.0
  0
LINE
  5
   57A
  8
0
  6
CONTINUOUS
 62
     5
 10
-451.62410736084
 20
-29.5579457181584
 30
0.0
 11
-451.62410736084
 21
-27.5579457181584
 31
0.0
  0
LINE
  5
   57B
  8
0
  6
CONTINUOUS
 62
     5
 10
-449.62410736084
 20
-29.5579457181584
 30
0.0
 11
-449.62410736084
 21
-27.5579457181584
 31
0.0
  0
LINE
  5
   57C
  8
0
  6
CONTINUOUS
 62
     5
 10
-447.12410736084
 20
-28.5579457181584
 30
0.0
 11
-447.12410736084
 21
-27.5579457181584
 31
0.0
  0
LINE
  5
   57D
  8
0
  6
CONTINUOUS
 62
     2
 10
-444.17410736084
 20
-27.5579457181583
 30
0.0
 11
-443.67410736084
 21
-27.0579457181583
 31
0.0
  0
LINE
  5
   57E
  8
0
  6
CONTINUOUS
 62
     2
 10
-443.67410736084
 20
-22.0579457181583
 30
0.0
 11
-444.17410736084
 21
-21.5579457181583
 31
0.0
  0
LINE
  5
   57F
  8
0
  6
CONTINUOUS
 62
     2
 10
-453.17410736084
 20
-22.0579457181583
 30
0.0
 11
-452.67410736084
 21
-21.5579457181584
 31
0.0
  0
LINE
  5
   580
  8
0
  6
CONTINUOUS
 62
     2
 10
-452.67410736084
 20
-27.5579457181583
 30
0.0
 11
-453.17410736084
 21
-27.0579457181583
 31
0.0
  0
LINE
  5
   581
  8
0
  6
CONTINUOUS
 62
     2
 10
-444.17410736084
 20
-27.5579457181583
 30
0.0
 11
-444.17410736084
 21
-21.5579457181583
 31
0.0
  0
LINE
  5
   582
  8
0
  6
CONTINUOUS
 62
     7
 10
-443.79910736084
 20
-27.1829457181584
 30
0.0
 11
-453.04910736084
 21
-27.1829457181584
 31
0.0
  0
LINE
  5
   583
  8
0
  6
CONTINUOUS
 62
     7
 10
-443.799107360838
 20
-21.9329457181602
 30
0.0
 11
-453.049107360836
 21
-21.9329457181602
 31
0.0
  0
LINE
  5
   584
  8
0
  6
CONTINUOUS
 62
     2
 10
-453.17410736084
 20
-22.3079457181584
 30
0.0
 11
-453.17410736084
 21
-22.0579457181584
 31
0.0
  0
ARC
  5
   585
  8
0
  6
CONTINUOUS
 62
     2
 10
-454.92410736084
 20
-25.8079457181584
 30
0.0
 40
0.25
 50
89.9999999480344
 51
179.999999948034
  0
ARC
  5
   586
  8
0
  6
CONTINUOUS
 62
     2
 10
-454.92410736084
 20
-23.3079457181584
 30
0.0
 40
0.25
 50
179.999999948034
 51
269.999999948034
  0
LINE
  5
   587
  8
0
  6
CONTINUOUS
 62
     7
 10
-451.994100064112
 20
-27.9317229949068
 30
0.0
 11
-451.994100064112
 21
-21.3091665351952
 31
0.0
  0
LINE
  5
   588
  8
0
  6
CONTINUOUS
 62
     7
 10
-451.12410736084
 20
-27.5579457181584
 30
0.0
 11
-451.62410736084
 21
-27.5579457181584
 31
0.0
  0
LINE
  5
   589
  8
0
  6
CONTINUOUS
 62
     7
 10
-451.12410736084
 20
-21.5579457181584
 30
0.0
 11
-451.62410736084
 21
-21.5579457181584
 31
0.0
  0
LINE
  5
   58A
  8
0
  6
CONTINUOUS
 62
     3
 10
-461.87410736084
 20
-19.5579457181584
 30
0.0
 11
-461.87410736084
 21
-18.2992210347498
 31
0.0
  0
LINE
  5
   58B
  8
0
  6
DASHDOT
 62
     7
 10
-435.702373659428
 20
-24.5579457181584
 30
0.0
 11
-465.464901792329
 21
-24.5579457181584
 31
0.0
  0
LINE
  5
   58C
  8
0
  6
CONTINUOUS
 62
     3
 10
-461.87410736084
 20
-19.5579457181584
 30
0.0
 11
-464.37410736084
 21
-19.5579457181584
 31
0.0
  0
LINE
  5
   58D
  8
0
  6
CONTINUOUS
 62
     3
 10
-461.87410736084
 20
-29.5579457181584
 30
0.0
 11
-464.37410736084
 21
-29.5579457181584
 31
0.0
  0
LINE
  5
   58E
  8
0
  6
CONTINUOUS
 62
     3
 10
-461.87410736084
 20
-26.6079457181584
 30
0.0
 11
-464.37410736084
 21
-26.6079457181584
 31
0.0
  0
LINE
  5
   58F
  8
0
  6
CONTINUOUS
 62
     3
 10
-461.87410736084
 20
-22.5079457181584
 30
0.0
 11
-464.37410736084
 21
-22.5079457181584
 31
0.0
  0
LINE
  5
   590
  8
0
  6
CONTINUOUS
 62
     3
 10
-464.37410736084
 20
-29.5579457181584
 30
0.0
 11
-464.37410736084
 21
-26.5579457181584
 31
0.0
  0
LINE
  5
   591
  8
0
  6
CONTINUOUS
 62
     7
 10
-461.111311543589
 20
-20.8412963194019
 30
0.0
 11
-465.217538778915
 21
-20.8412963194019
 31
0.0
  0
INSERT
  5
   592
  8
0
  6
CONTINUOUS
 62
     7
  2
*HATCH104
 10
-403.624145507813
 20
-28.1764793395996
 30
0.0
 41
0.5
 42
0.5
 50
89.9999999480344
 43
0.5
  0
INSERT
  5
   593
  8
0
  6
CONTINUOUS
 62
     7
  2
*HATCH105
 10
-403.624145507813
 20
-28.1764793395996
 30
0.0
 41
0.5
 42
0.5
 50
89.9999999480344
 43
0.5
  0
LINE
  5
   594
  8
0
  6
CONTINUOUS
 62
     3
 10
-464.37410736084
 20
-22.5579457181584
 30
0.0
 11
-464.37410736084
 21
-18.2992210347498
 31
0.0
  0
INSERT
  5
   595
  8
0
  6
CONTINUOUS
 62
     7
  2
*HATCH106
 10
-403.624145507813
 20
-28.1764793395996
 30
0.0
 41
0.5
 42
0.5
 50
89.9999999480344
 43
0.5
  0
INSERT
  5
   596
  8
0
  6
CONTINUOUS
 62
     7
  2
*HATCH107
 10
-403.624145507813
 20
-28.1764793395996
 30
0.0
 41
0.5
 42
0.5
 50
89.9999999480344
 43
0.5
  0
INSERT
  5
   597
  8
0
  6
CONTINUOUS
 62
     7
  2
*HATCH108
 10
-403.624145507813
 20
-28.1764793395996
 30
0.0
 41
0.5
 42
0.5
 50
89.9999999480344
 43
0.5
  0
INSERT
  5
   598
  8
0
  6
CONTINUOUS
 62
     7
  2
*HATCH109
 10
-403.624145507813
 20
-28.1764793395996
 30
0.0
 41
0.5
 42
0.5
 50
89.9999999480344
 43
0.5
  0
INSERT
  5
   599
  8
0
  6
CONTINUOUS
 62
     7
  2
*HATCH110
 10
-403.624145507813
 20
-28.1764793395996
 30
0.0
 41
0.5
 42
0.5
 50
89.9999999480344
 43
0.5
  0
INSERT
  5
   59A
  8
0
  6
CONTINUOUS
 62
     7
  2
*HATCH111
 10
-403.624145507813
 20
-28.1764793395996
 30
0.0
 41
0.5
 42
0.5
 50
89.9999999480344
 43
0.5
  0
LINE
  5
   59B
  8
0
  6
CONTINUOUS
 62
   130
 10
-440.124145507809
 20
-33.9329646886243
 30
0.0
 11
-440.124145507809
 21
-16.6829646886184
 31
0.0
  0
LINE
  5
   59C
  8
0
  6
CONTINUOUS
 62
   130
 10
-441.374145507808
 20
-33.5579641731252
 30
0.0
 11
-441.374145507808
 21
-18.2992210347498
 31
0.0
  0
LINE
  5
   59D
  8
0
  6
CONTINUOUS
 62
   130
 10
-455.124145507808
 20
-16.0579953091888
 30
0.0
 11
-473.624145507808
 21
-16.0579953091888
 31
0.0
  0
LINE
  5
   59E
  8
0
  6
CONTINUOUS
 62
   130
 10
-455.124145507808
 20
-16.0579528321419
 30
0.0
 11
-455.124145507808
 21
-14.5579294190945
 31
0.0
  0
LINE
  5
   59F
  8
0
  6
CONTINUOUS
 62
   130
 10
-440.749146023307
 20
-34.5579953091825
 30
0.0
 11
-454.77410736084
 21
-34.5579953091825
 31
0.0
  0
ARC
  5
   5A0
  8
0
  6
CONTINUOUS
 62
   130
 10
-440.749145507808
 20
-33.9329646886243
 30
0.0
 40
0.625
 50
269.99995269057
 51
359.999999948034
  0
LINE
  5
   5A1
  8
0
  6
CONTINUOUS
 62
   130
 10
-441.374145507808
 20
-33.5579953091829
 30
0.0
 11
-454.77410736084
 21
-33.5579953091829
 31
0.0
  0
LINE
  5
   5A2
  8
0
  6
CONTINUOUS
 62
   130
 10
-441.874127666198
 20
-32.5579953091832
 30
0.0
 11
-454.77410736084
 21
-32.5579953091832
 31
0.0
  0
LINE
  5
   5A3
  8
0
  6
CONTINUOUS
 62
   130
 10
-442.874127666198
 20
-34.5579581933522
 30
0.0
 11
-442.874127666198
 21
-33.5579581933519
 31
0.0
  0
LINE
  5
   5A4
  8
0
  6
CONTINUOUS
 62
   130
 10
-441.374145507808
 20
-31.5579953091835
 30
0.0
 11
-454.77410736084
 21
-31.5579953091835
 31
0.0
  0
LINE
  5
   5A5
  8
0
  6
CONTINUOUS
 62
   130
 10
-441.874127666198
 20
-33.5579590181502
 30
0.0
 11
-441.874127666198
 21
-32.5579590181499
 31
0.0
  0
LINE
  5
   5A6
  8
0
  6
CONTINUOUS
 62
   130
 10
-479.124137878418
 20
-34.5579330369941
 30
0.0
 11
-479.124137878418
 21
-16.0579330369878
 31
0.0
  0
ARC
  5
   5A7
  8
0
  6
CONTINUOUS
 62
   130
 10
-440.749145507808
 20
-16.6829646886184
 30
0.0
 40
0.625
 50
359.999999948034
 51
449.99995269057
  0
LINE
  5
   5A8
  8
0
  6
CONTINUOUS
 62
     1
 10
-455.67410736084
 20
-28.8079457181584
 30
0.0
 11
-455.67410736084
 21
-20.3079457181584
 31
0.0
  0
LINE
  5
   5A9
  8
0
  6
CONTINUOUS
 62
     1
 10
-455.17410736084
 20
-28.0579457181584
 30
0.0
 11
-455.67410736084
 21
-28.0579457181584
 31
0.0
  0
LINE
  5
   5AA
  8
0
  6
CONTINUOUS
 62
     1
 10
-455.17410736084
 20
-27.0579457181584
 30
0.0
 11
-455.67410736084
 21
-27.0579457181584
 31
0.0
  0
LINE
  5
   5AB
  8
0
  6
CONTINUOUS
 62
     1
 10
-455.17410736084
 20
-21.0579457181584
 30
0.0
 11
-455.67410736084
 21
-21.0579457181584
 31
0.0
  0
LINE
  5
   5AC
  8
0
  6
CONTINUOUS
 62
     1
 10
-455.17410736084
 20
-22.0579457181578
 30
0.0
 11
-455.67410736084
 21
-22.0579457181578
 31
0.0
  0
LINE
  5
   5AD
  8
0
  6
CONTINUOUS
 62
     7
 10
-467.688250086079
 20
-35.1417124067654
 30
0.0
 11
-467.688250086079
 21
-18.2992210347498
 31
0.0
  0
LINE
  5
   5AE
  8
0
  6
CONTINUOUS
 62
     7
 10
-438.631472615762
 20
-18.2992210347498
 30
0.0
 11
-467.688250086079
 21
-18.2992210347498
 31
0.0
  0
LINE
  5
   5AF
  8
0
  6
CONTINUOUS
 62
   130
 10
-479.124137878418
 20
-16.0579330369878
 30
0.0
 11
-473.624145507808
 21
-14.5579419034611
 31
0.0
  0
LINE
  5
   5B0
  8
0
  6
CONTINUOUS
 62
   130
 10
-473.624145507808
 20
-16.0579375733725
 30
0.0
 11
-473.624145507808
 21
-15.5579375733723
 31
0.0
  0
LINE
  5
   5B1
  8
0
  6
CONTINUOUS
 62
   130
 10
-455.124146332616
 20
-15.557995309189
 30
0.0
 11
-473.624146332603
 21
-15.557995309189
 31
0.0
  0
INSERT
  5
   5B2
  8
0
  6
CONTINUOUS
 62
     7
  2
*HATCH112
 10
-403.624145507813
 20
-28.1764793395996
 30
0.0
 41
0.5
 42
0.5
 50
89.9999999480344
 43
0.5
  0
LINE
  5
   5B3
  8
0
  6
CONTINUOUS
 62
   130
 10
-440.749144992309
 20
-16.0579953091888
 30
0.0
 11
-455.124145507808
 21
-16.0579953091888
 31
0.0
  0
LINE
  5
   5B4
  8
0
  6
CONTINUOUS
 62
   130
 10
-462.77410736084
 20
-31.5579953091835
 30
0.0
 11
-467.688250086079
 21
-31.5579953091835
 31
0.0
  0
LINE
  5
   5B5
  8
0
  6
CONTINUOUS
 62
   130
 10
-462.77410736084
 20
-32.5579953091832
 30
0.0
 11
-467.688250086079
 21
-32.5579953091832
 31
0.0
  0
LINE
  5
   5B6
  8
0
  6
CONTINUOUS
 62
   130
 10
-462.77410736084
 20
-33.5579953091829
 30
0.0
 11
-467.688250086079
 21
-33.5579953091829
 31
0.0
  0
LINE
  5
   5B7
  8
0
  6
CONTINUOUS
 62
   130
 10
-462.77410736084
 20
-34.5579953091825
 30
0.0
 11
-479.124137878418
 21
-34.5579953091825
 31
0.0
  0
LINE
  5
   5B8
  8
0
  6
CONTINUOUS
 62
   218
 10
-455.67410736084
 20
75.4420385360718
 30
0.0
 11
-455.67410736084
 21
86.9420385360718
 31
0.0
  0
LINE
  5
   5B9
  8
0
  6
CONTINUOUS
 62
   218
 10
-461.87410736084
 20
75.4420385360718
 30
0.0
 11
-461.87410736084
 21
86.9420385360718
 31
0.0
  0
LINE
  5
   5BA
  8
0
  6
CONTINUOUS
 62
   218
 10
-455.67410736084
 20
75.4420385360718
 30
0.0
 11
-461.87410736084
 21
75.4420385360718
 31
0.0
  0
LINE
  5
   5BB
  8
0
  6
CONTINUOUS
 62
   218
 10
-454.77410736084
 20
86.9420385360718
 30
0.0
 11
-462.77410736084
 21
86.9420385360718
 31
0.0
  0
LINE
  5
   5BC
  8
0
  6
DASHDOT
 62
   218
 10
-458.77410736084
 20
72.9114056014612
 30
0.0
 11
-458.77410736084
 21
97.2481181072839
 31
0.0
  0
LINE
  5
   5BD
  8
0
  6
CONTINUOUS
 62
   218
 10
-462.77410736084
 20
86.9420385360718
 30
0.0
 11
-462.77410736084
 21
96.2481181072839
 31
0.0
  0
LINE
  5
   5BE
  8
0
  6
CONTINUOUS
 62
   218
 10
-454.77410736084
 20
86.9420385360718
 30
0.0
 11
-454.77410736084
 21
96.2481181072839
 31
0.0
  0
LINE
  5
   5BF
  8
0
  6
CONTINUOUS
 62
   218
 10
-458.77410736084
 20
75.4420385360718
 30
0.0
 11
-456.746347082693
 21
86.9420385360718
 31
0.0
  0
POLYLINE
  5
   5C0
  8
0
  6
CONTINUOUS
 62
   218
 66
     1
 10
0.0
 20
0.0
 30
0.0
 70
     1
  0
VERTEX
  5
   5C1
  8
0
  6
CONTINUOUS
 10
-462.77410736084
 20
96.2481181072814
 30
0.0
 40
0.0
 41
0.0
  0
VERTEX
  5
   5C2
  8
0
  6
CONTINUOUS
 10
-462.773504998232
 20
96.2235768787585
 30
0.0
 40
0.0
 41
0.0
  0
VERTEX
  5
   5C3
  8
0
  6
CONTINUOUS
 10
-462.77169827325
 20
96.199050432954
 30
0.0
 40
0.0
 41
0.0
  0
VERTEX
  5
   5C4
  8
0
  6
CONTINUOUS
 10
-462.768688274197
 20
96.1745535436818
 30
0.0
 40
0.0
 41
0.0
  0
VERTEX
  5
   5C5
  8
0
  6
CONTINUOUS
 10
-462.764476814184
 20
96.1501009669519
 30
0.0
 40
0.0
 41
0.0
  0
VERTEX
  5
   5C6
  8
0
  6
CONTINUOUS
 10
-462.759066430037
 20
96.1257074320822
 30
0.0
 40
0.0
 41
0.0
  0
VERTEX
  5
   5C7
  8
0
  6
CONTINUOUS
 10
-462.752460380769
 20
96.1013876328261
 30
0.0
 40
0.0
 41
0.0
  0
VERTEX
  5
   5C8
  8
0
  6
CONTINUOUS
 10
-462.744662645618
 20
96.0771562185212
 30
0.0
 40
0.0
 41
0.0
  0
VERTEX
  5
   5C9
  8
0
  6
CONTINUOUS
 10
-462.735677921646
 20
96.0530277852654
 30
0.0
 40
0.0
 41
0.0
  0
VERTEX
  5
   5CA
  8
0
  6
CONTINUOUS
 10
-462.725511620917
 20
96.0290168671246
 30
0.0
 40
0.0
 41
0.0
  0
VERTEX
  5
   5CB
  8
0
  6
CONTINUOUS
 10
-462.714169867229
 20
96.0051379273782
 30
0.0
 40
0.0
 41
0.0
  0
VERTEX
  5
   5CC
  8
0
  6
CONTINUOUS
 10
-462.70165949243
 20
95.9814053498066
 30
0.0
 40
0.0
 41
0.0
  0
VERTEX
  5
   5CD
  8
0
  6
CONTINUOUS
 10
-462.687988032304
 20
95.9578334300271
 30
0.0
 40
0.0
 41
0.0
  0
VERTEX
  5
   5CE
  8
0
  6
CONTINUOUS
 10
-462.673163722026
 20
95.9344363668827
 30
0.0
 40
0.0
 41
0.0
  0
VERTEX
  5
   5CF
  8
0
  6
CONTINUOUS
 10
-462.657195491205
 20
95.9112282538893
 30
0.0
 40
0.0
 41
0.0
  0
VERTEX
  5
   5D0
  8
0
  6
CONTINUOUS
 10
-462.640092958509
 20
95.8882230707466
 30
0.0
 40
0.0
 41
0.0
  0
VERTEX
  5
   5D1
  8
0
  6
CONTINUOUS
 10
-462.621866425862
 20
95.8654346749165
 30
0.0
 40
0.0
 41
0.0
  0
VERTEX
  5
   5D2
  8
0
  6
CONTINUOUS
 10
-462.582085947086
 20
95.8205630138514
 30
0.0
 40
0.0
 41
0.0
  0
VERTEX
  5
   5D3
  8
0
  6
CONTINUOUS
 10
-462.537949889536
 20
95.7767213704557
 30
0.0
 40
0.0
 41
0.0
  0
VERTEX
  5
   5D4
  8
0
  6
CONTINUOUS
 10
-462.48956458084
 20
95.7340153630886
 30
0.0
 40
0.0
 41
0.0
  0
VERTEX
  5
   5D5
  8
0
  6
CONTINUOUS
 10
-462.437046585444
 20
95.6925478742622
 30
0.0
 40
0.0
 41
0.0
  0
VERTEX
  5
   5D6
  8
0
  6
CONTINUOUS
 10
-462.3805224238
 20
95.6524188027895
 30
0.0
 40
0.0
 41
0.0
  0
VERTEX
  5
   5D7
  8
0
  6
CONTINUOUS
 10
-462.320128267565
 20
95.6137248231184
 30
0.0
 40
0.0
 41
0.0
  0
VERTEX
  5
   5D8
  8
0
  6
CONTINUOUS
 10
-462.256009611549
 20
95.5765591524351
 30
0.0
 40
0.0
 41
0.0
  0
VERTEX
  5
   5D9
  8
0
  6
CONTINUOUS
 10
-462.188320923212
 20
95.5410113260956
 30
0.0
 40
0.0
 41
0.0
  0
VERTEX
  5
   5DA
  8
0
  6
CONTINUOUS
 10
-462.117225270533
 20
95.5071669819273
 30
0.0
 40
0.0
 41
0.0
  0
VERTEX
  5
   5DB
  8
0
  6
CONTINUOUS
 10
-462.042893929166
 20
95.4751076539196
 30
0.0
 40
0.0
 41
0.0
  0
VERTEX
  5
   5DC
  8
0
  6
CONTINUOUS
 10
-461.965505969824
 20
95.4449105758018
 30
0.0
 40
0.0
 41
0.0
  0
VERTEX
  5
   5DD
  8
0
  6
CONTINUOUS
 10
-461.885247826878
 20
95.41664849498
 30
0.0
 40
0.0
 41
0.0
  0
VERTEX
  5
   5DE
  8
0
  6
CONTINUOUS
 10
-461.802312849225
 20
95.3903894972824
 30
0.0
 40
0.0
 41
0.0
  0
VERTEX
  5
   5DF
  8
0
  6
CONTINUOUS
 10
-461.716900834491
 20
95.3661968429344
 30
0.0
 40
0.0
 41
0.0
  0
VERTEX
  5
   5E0
  8
0
  6
CONTINUOUS
 10
-461.629217547699
 20
95.3441288141594
 30
0.0
 40
0.0
 41
0.0
  0
VERTEX
  5
   5E1
  8
0
  6
CONTINUOUS
 10
-461.539474225569
 20
95.3242385747717
 30
0.0
 40
0.0
 41
0.0
  0
VERTEX
  5
   5E2
  8
0
  6
CONTINUOUS
 10
-461.447887067623
 20
95.3065740421001
 30
0.0
 40
0.0
 41
0.0
  0
VERTEX
  5
   5E3
  8
0
  6
CONTINUOUS
 10
-461.354676715348
 20
95.291177771551
 30
0.0
 40
0.0
 41
0.0
  0
VERTEX
  5
   5E4
  8
0
  6
CONTINUOUS
 10
-461.260067720645
 20
95.2780868540888
 30
0.0
 40
0.0
 41
0.0
  0
VERTEX
  5
   5E5
  8
0
  6
CONTINUOUS
 10
-461.164288004871
 20
95.2673328268802
 30
0.0
 40
0.0
 41
0.0
  0
VERTEX
  5
   5E6
  8
0
  6
CONTINUOUS
 10
-461.067568309749
 20
95.2589415973188
 30
0.0
 40
0.0
 41
0.0
  0
VERTEX
  5
   5E7
  8
0
  6
CONTINUOUS
 10
-460.970141641498
 20
95.2529333806115
 30
0.0
 40
0.0
 41
0.0
  0
VERTEX
  5
   5E8
  8
0
  6
CONTINUOUS
 10
-460.872242709493
 20
95.2493226510786
 30
0.0
 40
0.0
 41
0.0
  0
VERTEX
  5
   5E9
  8
0
  6
CONTINUOUS
 10
-460.774107360839
 20
95.2481181072839
 30
0.0
 40
0.0
 41
0.0
  0
VERTEX
  5
   5EA
  8
0
  6
CONTINUOUS
 10
-460.675972012184
 20
95.2493226510789
 30
0.0
 40
0.0
 41
0.0
  0
VERTEX
  5
   5EB
  8
0
  6
CONTINUOUS
 10
-460.57807308018
 20
95.252933380612
 30
0.0
 40
0.0
 41
0.0
  0
VERTEX
  5
   5EC
  8
0
  6
CONTINUOUS
 10
-460.480646411928
 20
95.2589415973195
 30
0.0
 40
0.0
 41
0.0
  0
VERTEX
  5
   5ED
  8
0
  6
CONTINUOUS
 10
-460.383926716806
 20
95.2673328268812
 30
0.0
 40
0.0
 41
0.0
  0
VERTEX
  5
   5EE
  8
0
  6
CONTINUOUS
 10
-460.288147001032
 20
95.27808685409
 30
0.0
 40
0.0
 41
0.0
  0
VERTEX
  5
   5EF
  8
0
  6
CONTINUOUS
 10
-460.19353800633
 20
95.2911777715525
 30
0.0
 40
0.0
 41
0.0
  0
VERTEX
  5
   5F0
  8
0
  6
CONTINUOUS
 10
-460.100327654054
 20
95.3065740421018
 30
0.0
 40
0.0
 41
0.0
  0
VERTEX
  5
   5F1
  8
0
  6
CONTINUOUS
 10
-460.008740496109
 20
95.3242385747736
 30
0.0
 40
0.0
 41
0.0
  0
VERTEX
  5
   5F2
  8
0
  6
CONTINUOUS
 10
-459.918997173978
 20
95.3441288141616
 30
0.0
 40
0.0
 41
0.0
  0
VERTEX
  5
   5F3
  8
0
  6
CONTINUOUS
 10
-459.831313887187
 20
95.3661968429368
 30
0.0
 40
0.0
 41
0.0
  0
VERTEX
  5
   5F4
  8
0
  6
CONTINUOUS
 10
-459.745901872452
 20
95.3903894972849
 30
0.0
 40
0.0
 41
0.0
  0
VERTEX
  5
   5F5
  8
0
  6
CONTINUOUS
 10
-459.6629668948
 20
95.4166484949828
 30
0.0
 40
0.0
 41
0.0
  0
VERTEX
  5
   5F6
  8
0
  6
CONTINUOUS
 10
-459.582708751854
 20
95.4449105758048
 30
0.0
 40
0.0
 41
0.0
  0
VERTEX
  5
   5F7
  8
0
  6
CONTINUOUS
 10
-459.505320792512
 20
95.4751076539228
 30
0.0
 40
0.0
 41
0.0
  0
VERTEX
  5
   5F8
  8
0
  6
CONTINUOUS
 10
-459.430989451145
 20
95.5071669819307
 30
0.0
 40
0.0
 41
0.0
  0
VERTEX
  5
   5F9
  8
0
  6
CONTINUOUS
 10
-459.359893798466
 20
95.5410113260992
 30
0.0
 40
0.0
 41
0.0
  0
VERTEX
  5
   5FA
  8
0
  6
CONTINUOUS
 10
-459.292205110129
 20
95.5765591524388
 30
0.0
 40
0.0
 41
0.0
  0
VERTEX
  5
   5FB
  8
0
  6
CONTINUOUS
 10
-459.228086454114
 20
95.6137248231222
 30
0.0
 40
0.0
 41
0.0
  0
VERTEX
  5
   5FC
  8
0
  6
CONTINUOUS
 10
-459.167692297878
 20
95.6524188027935
 30
0.0
 40
0.0
 41
0.0
  0
VERTEX
  5
   5FD
  8
0
  6
CONTINUOUS
 10
-459.111168136234
 20
95.6925478742664
 30
0.0
 40
0.0
 41
0.0
  0
VERTEX
  5
   5FE
  8
0
  6
CONTINUOUS
 10
-459.058650140839
 20
95.7340153630929
 30
0.0
 40
0.0
 41
0.0
  0
VERTEX
  5
   5FF
  8
0
  6
CONTINUOUS
 10
-459.010264832143
 20
95.7767213704602
 30
0.0
 40
0.0
 41
0.0
  0
VERTEX
  5
   600
  8
0
  6
CONTINUOUS
 10
-458.966128774593
 20
95.8205630138559
 30
0.0
 40
0.0
 41
0.0
  0
VERTEX
  5
   601
  8
0
  6
CONTINUOUS
 10
-458.926348295817
 20
95.8654346749212
 30
0.0
 40
0.0
 41
0.0
  0
VERTEX
  5
   602
  8
0
  6
CONTINUOUS
 10
-458.90812176317
 20
95.8882230707513
 30
0.0
 40
0.0
 41
0.0
  0
VERTEX
  5
   603
  8
0
  6
CONTINUOUS
 10
-458.891019230473
 20
95.9112282538941
 30
0.0
 40
0.0
 41
0.0
  0
VERTEX
  5
   604
  8
0
  6
CONTINUOUS
 10
-458.875050999653
 20
95.9344363668874
 30
0.0
 40
0.0
 41
0.0
  0
VERTEX
  5
   605
  8
0
  6
CONTINUOUS
 10
-458.860226689375
 20
95.9578334300319
 30
0.0
 40
0.0
 41
0.0
  0
VERTEX
  5
   606
  8
0
  6
CONTINUOUS
 10
-458.846555229249
 20
95.9814053498115
 30
0.0
 40
0.0
 41
0.0
  0
VERTEX
  5
   607
  8
0
  6
CONTINUOUS
 10
-458.834044854451
 20
96.0051379273831
 30
0.0
 40
0.0
 41
0.0
  0
VERTEX
  5
   608
  8
0
  6
CONTINUOUS
 10
-458.822703100763
 20
96.0290168671295
 30
0.0
 40
0.0
 41
0.0
  0
VERTEX
  5
   609
  8
0
  6
CONTINUOUS
 10
-458.812536800033
 20
96.0530277852703
 30
0.0
 40
0.0
 41
0.0
  0
VERTEX
  5
   60A
  8
0
  6
CONTINUOUS
 10
-458.803552076062
 20
96.0771562185261
 30
0.0
 40
0.0
 41
0.0
  0
VERTEX
  5
   60B
  8
0
  6
CONTINUOUS
 10
-458.79575434091
 20
96.1013876328311
 30
0.0
 40
0.0
 41
0.0
  0
VERTEX
  5
   60C
  8
0
  6
CONTINUOUS
 10
-458.789148291642
 20
96.1257074320872
 30
0.0
 40
0.0
 41
0.0
  0
VERTEX
  5
   60D
  8
0
  6
CONTINUOUS
 10
-458.783737907495
 20
96.1501009669569
 30
0.0
 40
0.0
 41
0.0
  0
VERTEX
  5
   60E
  8
0
  6
CONTINUOUS
 10
-458.779526447482
 20
96.1745535436868
 30
0.0
 40
0.0
 41
0.0
  0
VERTEX
  5
   60F
  8
0
  6
CONTINUOUS
 10
-458.776516448429
 20
96.199050432959
 30
0.0
 40
0.0
 41
0.0
  0
VERTEX
  5
   610
  8
0
  6
CONTINUOUS
 10
-458.774709723447
 20
96.2235768787635
 30
0.0
 40
0.0
 41
0.0
  0
VERTEX
  5
   611
  8
0
  6
CONTINUOUS
 10
-458.77410736084
 20
96.2481181072864
 30
0.0
 40
0.0
 41
0.0
  0
VERTEX
  5
   612
  8
0
  6
CONTINUOUS
 10
-458.774709723448
 20
96.2726593358094
 30
0.0
 40
0.0
 41
0.0
  0
VERTEX
  5
   613
  8
0
  6
CONTINUOUS
 10
-458.77651644843
 20
96.2971857816139
 30
0.0
 40
0.0
 41
0.0
  0
VERTEX
  5
   614
  8
0
  6
CONTINUOUS
 10
-458.779526447483
 20
96.3216826708861
 30
0.0
 40
0.0
 41
0.0
  0
VERTEX
  5
   615
  8
0
  6
CONTINUOUS
 10
-458.783737907496
 20
96.346135247616
 30
0.0
 40
0.0
 41
0.0
  0
VERTEX
  5
   616
  8
0
  6
CONTINUOUS
 10
-458.789148291643
 20
96.3705287824856
 30
0.0
 40
0.0
 41
0.0
  0
VERTEX
  5
   617
  8
0
  6
CONTINUOUS
 10
-458.795754340911
 20
96.3948485817418
 30
0.0
 40
0.0
 41
0.0
  0
VERTEX
  5
   618
  8
0
  6
CONTINUOUS
 10
-458.803552076062
 20
96.4190799960467
 30
0.0
 40
0.0
 41
0.0
  0
VERTEX
  5
   619
  8
0
  6
CONTINUOUS
 10
-458.812536800034
 20
96.4432084293025
 30
0.0
 40
0.0
 41
0.0
  0
VERTEX
  5
   61A
  8
0
  6
CONTINUOUS
 10
-458.822703100763
 20
96.4672193474433
 30
0.0
 40
0.0
 41
0.0
  0
VERTEX
  5
   61B
  8
0
  6
CONTINUOUS
 10
-458.834044854451
 20
96.4910982871896
 30
0.0
 40
0.0
 41
0.0
  0
VERTEX
  5
   61C
  8
0
  6
CONTINUOUS
 10
-458.846555229249
 20
96.5148308647613
 30
0.0
 40
0.0
 41
0.0
  0
VERTEX
  5
   61D
  8
0
  6
CONTINUOUS
 10
-458.860226689376
 20
96.5384027845408
 30
0.0
 40
0.0
 41
0.0
  0
VERTEX
  5
   61E
  8
0
  6
CONTINUOUS
 10
-458.875050999654
 20
96.5617998476852
 30
0.0
 40
0.0
 41
0.0
  0
VERTEX
  5
   61F
  8
0
  6
CONTINUOUS
 10
-458.891019230474
 20
96.5850079606785
 30
0.0
 40
0.0
 41
0.0
  0
VERTEX
  5
   620
  8
0
  6
CONTINUOUS
 10
-458.908121763171
 20
96.6080131438213
 30
0.0
 40
0.0
 41
0.0
  0
VERTEX
  5
   621
  8
0
  6
CONTINUOUS
 10
-458.926348295818
 20
96.6308015396513
 30
0.0
 40
0.0
 41
0.0
  0
VERTEX
  5
   622
  8
0
  6
CONTINUOUS
 10
-458.966128774594
 20
96.6756732007165
 30
0.0
 40
0.0
 41
0.0
  0
VERTEX
  5
   623
  8
0
  6
CONTINUOUS
 10
-459.010264832144
 20
96.7195148441122
 30
0.0
 40
0.0
 41
0.0
  0
VERTEX
  5
   624
  8
0
  6
CONTINUOUS
 10
-459.05865014084
 20
96.7622208514793
 30
0.0
 40
0.0
 41
0.0
  0
VERTEX
  5
   625
  8
0
  6
CONTINUOUS
 10
-459.111168136236
 20
96.8036883403056
 30
0.0
 40
0.0
 41
0.0
  0
VERTEX
  5
   626
  8
0
  6
CONTINUOUS
 10
-459.167692297879
 20
96.8438174117784
 30
0.0
 40
0.0
 41
0.0
  0
VERTEX
  5
   627
  8
0
  6
CONTINUOUS
 10
-459.228086454115
 20
96.8825113914495
 30
0.0
 40
0.0
 41
0.0
  0
VERTEX
  5
   628
  8
0
  6
CONTINUOUS
 10
-459.292205110131
 20
96.9196770621328
 30
0.0
 40
0.0
 41
0.0
  0
VERTEX
  5
   629
  8
0
  6
CONTINUOUS
 10
-459.359893798468
 20
96.9552248884723
 30
0.0
 40
0.0
 41
0.0
  0
VERTEX
  5
   62A
  8
0
  6
CONTINUOUS
 10
-459.430989451147
 20
96.9890692326406
 30
0.0
 40
0.0
 41
0.0
  0
VERTEX
  5
   62B
  8
0
  6
CONTINUOUS
 10
-459.505320792514
 20
97.0211285606483
 30
0.0
 40
0.0
 41
0.0
  0
VERTEX
  5
   62C
  8
0
  6
CONTINUOUS
 10
-459.582708751856
 20
97.0513256387661
 30
0.0
 40
0.0
 41
0.0
  0
VERTEX
  5
   62D
  8
0
  6
CONTINUOUS
 10
-459.662966894802
 20
97.0795877195879
 30
0.0
 40
0.0
 41
0.0
  0
VERTEX
  5
   62E
  8
0
  6
CONTINUOUS
 10
-459.745901872455
 20
97.1058467172855
 30
0.0
 40
0.0
 41
0.0
  0
VERTEX
  5
   62F
  8
0
  6
CONTINUOUS
 10
-459.831313887189
 20
97.1300393716335
 30
0.0
 40
0.0
 41
0.0
  0
VERTEX
  5
   630
  8
0
  6
CONTINUOUS
 10
-459.91899717398
 20
97.1521074004085
 30
0.0
 40
0.0
 41
0.0
  0
VERTEX
  5
   631
  8
0
  6
CONTINUOUS
 10
-460.008740496111
 20
97.1719976397962
 30
0.0
 40
0.0
 41
0.0
  0
VERTEX
  5
   632
  8
0
  6
CONTINUOUS
 10
-460.100327654057
 20
97.1896621724678
 30
0.0
 40
0.0
 41
0.0
  0
VERTEX
  5
   633
  8
0
  6
CONTINUOUS
 10
-460.193538006332
 20
97.2050584430169
 30
0.0
 40
0.0
 41
0.0
  0
VERTEX
  5
   634
  8
0
  6
CONTINUOUS
 10
-460.288147001035
 20
97.2181493604791
 30
0.0
 40
0.0
 41
0.0
  0
VERTEX
  5
   635
  8
0
  6
CONTINUOUS
 10
-460.383926716809
 20
97.2289033876877
 30
0.0
 40
0.0
 41
0.0
  0
VERTEX
  5
   636
  8
0
  6
CONTINUOUS
 10
-460.48064641193
 20
97.2372946172491
 30
0.0
 40
0.0
 41
0.0
  0
VERTEX
  5
   637
  8
0
  6
CONTINUOUS
 10
-460.578073080182
 20
97.2433028339564
 30
0.0
 40
0.0
 41
0.0
  0
VERTEX
  5
   638
  8
0
  6
CONTINUOUS
 10
-460.675972012186
 20
97.2469135634892
 30
0.0
 40
0.0
 41
0.0
  0
VERTEX
  5
   639
  8
0
  6
CONTINUOUS
 10
-460.774107360841
 20
97.2481181072839
 30
0.0
 40
0.0
 41
0.0
  0
VERTEX
  5
   63A
  8
0
  6
CONTINUOUS
 10
-460.872242709496
 20
97.246913563489
 30
0.0
 40
0.0
 41
0.0
  0
VERTEX
  5
   63B
  8
0
  6
CONTINUOUS
 10
-460.9701416415
 20
97.2433028339559
 30
0.0
 40
0.0
 41
0.0
  0
VERTEX
  5
   63C
  8
0
  6
CONTINUOUS
 10
-461.067568309752
 20
97.2372946172483
 30
0.0
 40
0.0
 41
0.0
  0
VERTEX
  5
   63D
  8
0
  6
CONTINUOUS
 10
-461.164288004873
 20
97.2289033876867
 30
0.0
 40
0.0
 41
0.0
  0
VERTEX
  5
   63E
  8
0
  6
CONTINUOUS
 10
-461.260067720648
 20
97.2181493604779
 30
0.0
 40
0.0
 41
0.0
  0
VERTEX
  5
   63F
  8
0
  6
CONTINUOUS
 10
-461.35467671535
 20
97.2050584430154
 30
0.0
 40
0.0
 41
0.0
  0
VERTEX
  5
   640
  8
0
  6
CONTINUOUS
 10
-461.447887067625
 20
97.1896621724661
 30
0.0
 40
0.0
 41
0.0
  0
VERTEX
  5
   641
  8
0
  6
CONTINUOUS
 10
-461.539474225571
 20
97.1719976397943
 30
0.0
 40
0.0
 41
0.0
  0
VERTEX
  5
   642
  8
0
  6
CONTINUOUS
 10
-461.629217547702
 20
97.1521074004063
 30
0.0
 40
0.0
 41
0.0
  0
VERTEX
  5
   643
  8
0
  6
CONTINUOUS
 10
-461.716900834493
 20
97.1300393716311
 30
0.0
 40
0.0
 41
0.0
  0
VERTEX
  5
   644
  8
0
  6
CONTINUOUS
 10
-461.802312849227
 20
97.1058467172829
 30
0.0
 40
0.0
 41
0.0
  0
VERTEX
  5
   645
  8
0
  6
CONTINUOUS
 10
-461.88524782688
 20
97.0795877195851
 30
0.0
 40
0.0
 41
0.0
  0
VERTEX
  5
   646
  8
0
  6
CONTINUOUS
 10
-461.965505969826
 20
97.0513256387631
 30
0.0
 40
0.0
 41
0.0
  0
VERTEX
  5
   647
  8
0
  6
CONTINUOUS
 10
-462.042893929168
 20
97.0211285606451
 30
0.0
 40
0.0
 41
0.0
  0
VERTEX
  5
   648
  8
0
  6
CONTINUOUS
 10
-462.117225270535
 20
96.9890692326372
 30
0.0
 40
0.0
 41
0.0
  0
VERTEX
  5
   649
  8
0
  6
CONTINUOUS
 10
-462.188320923214
 20
96.9552248884687
 30
0.0
 40
0.0
 41
0.0
  0
VERTEX
  5
   64A
  8
0
  6
CONTINUOUS
 10
-462.256009611551
 20
96.9196770621291
 30
0.0
 40
0.0
 41
0.0
  0
VERTEX
  5
   64B
  8
0
  6
CONTINUOUS
 10
-462.320128267566
 20
96.8825113914456
 30
0.0
 40
0.0
 41
0.0
  0
VERTEX
  5
   64C
  8
0
  6
CONTINUOUS
 10
-462.380522423802
 20
96.8438174117743
 30
0.0
 40
0.0
 41
0.0
  0
VERTEX
  5
   64D
  8
0
  6
CONTINUOUS
 10
-462.437046585446
 20
96.8036883403015
 30
0.0
 40
0.0
 41
0.0
  0
VERTEX
  5
   64E
  8
0
  6
CONTINUOUS
 10
-462.489564580841
 20
96.762220851475
 30
0.0
 40
0.0
 41
0.0
  0
VERTEX
  5
   64F
  8
0
  6
CONTINUOUS
 10
-462.537949889537
 20
96.7195148441077
 30
0.0
 40
0.0
 41
0.0
  0
VERTEX
  5
   650
  8
0
  6
CONTINUOUS
 10
-462.582085947087
 20
96.6756732007119
 30
0.0
 40
0.0
 41
0.0
  0
VERTEX
  5
   651
  8
0
  6
CONTINUOUS
 10
-462.621866425863
 20
96.6308015396467
 30
0.0
 40
0.0
 41
0.0
  0
VERTEX
  5
   652
  8
0
  6
CONTINUOUS
 10
-462.64009295851
 20
96.6080131438166
 30
0.0
 40
0.0
 41
0.0
  0
VERTEX
  5
   653
  8
0
  6
CONTINUOUS
 10
-462.657195491206
 20
96.5850079606738
 30
0.0
 40
0.0
 41
0.0
  0
VERTEX
  5
   654
  8
0
  6
CONTINUOUS
 10
-462.673163722026
 20
96.5617998476804
 30
0.0
 40
0.0
 41
0.0
  0
VERTEX
  5
   655
  8
0
  6
CONTINUOUS
 10
-462.687988032305
 20
96.538402784536
 30
0.0
 40
0.0
 41
0.0
  0
VERTEX
  5
   656
  8
0
  6
CONTINUOUS
 10
-462.701659492431
 20
96.5148308647564
 30
0.0
 40
0.0
 41
0.0
  0
VERTEX
  5
   657
  8
0
  6
CONTINUOUS
 10
-462.714169867229
 20
96.4910982871848
 30
0.0
 40
0.0
 41
0.0
  0
VERTEX
  5
   658
  8
0
  6
CONTINUOUS
 10
-462.725511620917
 20
96.4672193474384
 30
0.0
 40
0.0
 41
0.0
  0
VERTEX
  5
   659
  8
0
  6
CONTINUOUS
 10
-462.735677921647
 20
96.4432084292976
 30
0.0
 40
0.0
 41
0.0
  0
VERTEX
  5
   65A
  8
0
  6
CONTINUOUS
 10
-462.744662645618
 20
96.4190799960418
 30
0.0
 40
0.0
 41
0.0
  0
VERTEX
  5
   65B
  8
0
  6
CONTINUOUS
 10
-462.75246038077
 20
96.3948485817368
 30
0.0
 40
0.0
 41
0.0
  0
VERTEX
  5
   65C
  8
0
  6
CONTINUOUS
 10
-462.759066430037
 20
96.3705287824807
 30
0.0
 40
0.0
 41
0.0
  0
VERTEX
  5
   65D
  8
0
  6
CONTINUOUS
 10
-462.764476814184
 20
96.346135247611
 30
0.0
 40
0.0
 41
0.0
  0
VERTEX
  5
   65E
  8
0
  6
CONTINUOUS
 10
-462.768688274197
 20
96.3216826708811
 30
0.0
 40
0.0
 41
0.0
  0
VERTEX
  5
   65F
  8
0
  6
CONTINUOUS
 10
-462.77169827325
 20
96.2971857816088
 30
0.0
 40
0.0
 41
0.0
  0
VERTEX
  5
   660
  8
0
  6
CONTINUOUS
 10
-462.773504998232
 20
96.2726593358043
 30
0.0
 40
0.0
 41
0.0
  0
VERTEX
  5
   661
  8
0
  6
CONTINUOUS
 10
-462.77410736084
 20
96.2481181072814
 30
0.0
 40
0.0
 41
0.0
  0
SEQEND
  5
   662
  8
0
  6
CONTINUOUS
 62
   218
  0
POLYLINE
  5
   663
  8
0
  6
CONTINUOUS
 62
   218
 66
     1
 10
0.0
 20
0.0
 30
0.0
  0
VERTEX
  5
   664
  8
0
  6
CONTINUOUS
 10
-454.77410736084
 20
96.248118107289
 30
0.0
 40
0.0
 41
0.0
  0
VERTEX
  5
   665
  8
0
  6
CONTINUOUS
 10
-454.774709723448
 20
96.2726593358119
 30
0.0
 40
0.0
 41
0.0
  0
VERTEX
  5
   666
  8
0
  6
CONTINUOUS
 10
-454.77651644843
 20
96.2971857816164
 30
0.0
 40
0.0
 41
0.0
  0
VERTEX
  5
   667
  8
0
  6
CONTINUOUS
 10
-454.779526447483
 20
96.3216826708887
 30
0.0
 40
0.0
 41
0.0
  0
VERTEX
  5
   668
  8
0
  6
CONTINUOUS
 10
-454.783737907496
 20
96.3461352476186
 30
0.0
 40
0.0
 41
0.0
  0
VERTEX
  5
   669
  8
0
  6
CONTINUOUS
 10
-454.789148291643
 20
96.3705287824882
 30
0.0
 40
0.0
 41
0.0
  0
VERTEX
  5
   66A
  8
0
  6
CONTINUOUS
 10
-454.795754340911
 20
96.3948485817444
 30
0.0
 40
0.0
 41
0.0
  0
VERTEX
  5
   66B
  8
0
  6
CONTINUOUS
 10
-454.803552076063
 20
96.4190799960493
 30
0.0
 40
0.0
 41
0.0
  0
VERTEX
  5
   66C
  8
0
  6
CONTINUOUS
 10
-454.812536800035
 20
96.4432084293052
 30
0.0
 40
0.0
 41
0.0
  0
VERTEX
  5
   66D
  8
0
  6
CONTINUOUS
 10
-454.822703100764
 20
96.4672193474459
 30
0.0
 40
0.0
 41
0.0
  0
VERTEX
  5
   66E
  8
0
  6
CONTINUOUS
 10
-454.834044854452
 20
96.4910982871923
 30
0.0
 40
0.0
 41
0.0
  0
VERTEX
  5
   66F
  8
0
  6
CONTINUOUS
 10
-454.846555229251
 20
96.5148308647639
 30
0.0
 40
0.0
 41
0.0
  0
VERTEX
  5
   670
  8
0
  6
CONTINUOUS
 10
-454.860226689377
 20
96.5384027845434
 30
0.0
 40
0.0
 41
0.0
  0
VERTEX
  5
   671
  8
0
  6
CONTINUOUS
 10
-454.875050999656
 20
96.5617998476878
 30
0.0
 40
0.0
 41
0.0
  0
VERTEX
  5
   672
  8
0
  6
CONTINUOUS
 10
-454.891019230476
 20
96.5850079606811
 30
0.0
 40
0.0
 41
0.0
  0
VERTEX
  5
   673
  8
0
  6
CONTINUOUS
 10
-454.908121763173
 20
96.6080131438239
 30
0.0
 40
0.0
 41
0.0
  0
VERTEX
  5
   674
  8
0
  6
CONTINUOUS
 10
-454.92634829582
 20
96.630801539654
 30
0.0
 40
0.0
 41
0.0
  0
VERTEX
  5
   675
  8
0
  6
CONTINUOUS
 10
-454.966128774596
 20
96.6756732007191
 30
0.0
 40
0.0
 41
0.0
  0
VERTEX
  5
   676
  8
0
  6
CONTINUOUS
 10
-455.010264832147
 20
96.7195148441147
 30
0.0
 40
0.0
 41
0.0
  0
VERTEX
  5
   677
  8
0
  6
CONTINUOUS
 10
-455.058650140843
 20
96.7622208514818
 30
0.0
 40
0.0
 41
0.0
  0
VERTEX
  5
   678
  8
0
  6
CONTINUOUS
 10
-455.111168136239
 20
96.8036883403081
 30
0.0
 40
0.0
 41
0.0
  0
VERTEX
  5
   679
  8
0
  6
CONTINUOUS
 10
-455.167692297883
 20
96.8438174117808
 30
0.0
 40
0.0
 41
0.0
  0
VERTEX
  5
   67A
  8
0
  6
CONTINUOUS
 10
-455.228086454119
 20
96.8825113914519
 30
0.0
 40
0.0
 41
0.0
  0
VERTEX
  5
   67B
  8
0
  6
CONTINUOUS
 10
-455.292205110135
 20
96.9196770621351
 30
0.0
 40
0.0
 41
0.0
  0
VERTEX
  5
   67C
  8
0
  6
CONTINUOUS
 10
-455.359893798472
 20
96.9552248884745
 30
0.0
 40
0.0
 41
0.0
  0
VERTEX
  5
   67D
  8
0
  6
CONTINUOUS
 10
-455.430989451151
 20
96.9890692326427
 30
0.0
 40
0.0
 41
0.0
  0
VERTEX
  5
   67E
  8
0
  6
CONTINUOUS
 10
-455.505320792519
 20
97.0211285606503
 30
0.0
 40
0.0
 41
0.0
  0
VERTEX
  5
   67F
  8
0
  6
CONTINUOUS
 10
-455.582708751861
 20
97.051325638768
 30
0.0
 40
0.0
 41
0.0
  0
VERTEX
  5
   680
  8
0
  6
CONTINUOUS
 10
-455.662966894807
 20
97.0795877195897
 30
0.0
 40
0.0
 41
0.0
  0
VERTEX
  5
   681
  8
0
  6
CONTINUOUS
 10
-455.74590187246
 20
97.1058467172872
 30
0.0
 40
0.0
 41
0.0
  0
VERTEX
  5
   682
  8
0
  6
CONTINUOUS
 10
-455.831313887195
 20
97.1300393716351
 30
0.0
 40
0.0
 41
0.0
  0
VERTEX
  5
   683
  8
0
  6
CONTINUOUS
 10
-455.918997173987
 20
97.1521074004099
 30
0.0
 40
0.0
 41
0.0
  0
VERTEX
  5
   684
  8
0
  6
CONTINUOUS
 10
-456.008740496117
 20
97.1719976397975
 30
0.0
 40
0.0
 41
0.0
  0
VERTEX
  5
   685
  8
0
  6
CONTINUOUS
 10
-456.100327654063
 20
97.189662172469
 30
0.0
 40
0.0
 41
0.0
  0
VERTEX
  5
   686
  8
0
  6
CONTINUOUS
 10
-456.193538006339
 20
97.2050584430179
 30
0.0
 40
0.0
 41
0.0
  0
VERTEX
  5
   687
  8
0
  6
CONTINUOUS
 10
-456.288147001042
 20
97.21814936048
 30
0.0
 40
0.0
 41
0.0
  0
VERTEX
  5
   688
  8
0
  6
CONTINUOUS
 10
-456.383926716816
 20
97.2289033876883
 30
0.0
 40
0.0
 41
0.0
  0
VERTEX
  5
   689
  8
0
  6
CONTINUOUS
 10
-456.480646411938
 20
97.2372946172496
 30
0.0
 40
0.0
 41
0.0
  0
VERTEX
  5
   68A
  8
0
  6
CONTINUOUS
 10
-456.578073080189
 20
97.2433028339567
 30
0.0
 40
0.0
 41
0.0
  0
VERTEX
  5
   68B
  8
0
  6
CONTINUOUS
 10
-456.675972012194
 20
97.2469135634894
 30
0.0
 40
0.0
 41
0.0
  0
VERTEX
  5
   68C
  8
0
  6
CONTINUOUS
 10
-456.774107360849
 20
97.2481181072839
 30
0.0
 40
0.0
 41
0.0
  0
VERTEX
  5
   68D
  8
0
  6
CONTINUOUS
 10
-456.872242709504
 20
97.2469135634888
 30
0.0
 40
0.0
 41
0.0
  0
VERTEX
  5
   68E
  8
0
  6
CONTINUOUS
 10
-456.970141641508
 20
97.2433028339555
 30
0.0
 40
0.0
 41
0.0
  0
VERTEX
  5
   68F
  8
0
  6
CONTINUOUS
 10
-457.06756830976
 20
97.2372946172478
 30
0.0
 40
0.0
 41
0.0
  0
VERTEX
  5
   690
  8
0
  6
CONTINUOUS
 10
-457.164288004881
 20
97.2289033876859
 30
0.0
 40
0.0
 41
0.0
  0
VERTEX
  5
   691
  8
0
  6
CONTINUOUS
 10
-457.260067720655
 20
97.2181493604769
 30
0.0
 40
0.0
 41
0.0
  0
VERTEX
  5
   692
  8
0
  6
CONTINUOUS
 10
-457.354676715358
 20
97.2050584430143
 30
0.0
 40
0.0
 41
0.0
  0
VERTEX
  5
   693
  8
0
  6
CONTINUOUS
 10
-457.447887067633
 20
97.1896621724648
 30
0.0
 40
0.0
 41
0.0
  0
VERTEX
  5
   694
  8
0
  6
CONTINUOUS
 10
-457.539474225579
 20
97.1719976397927
 30
0.0
 40
0.0
 41
0.0
  0
VERTEX
  5
   695
  8
0
  6
CONTINUOUS
 10
-457.629217547709
 20
97.1521074004045
 30
0.0
 40
0.0
 41
0.0
  0
VERTEX
  5
   696
  8
0
  6
CONTINUOUS
 10
-457.7169008345
 20
97.1300393716291
 30
0.0
 40
0.0
 41
0.0
  0
VERTEX
  5
   697
  8
0
  6
CONTINUOUS
 10
-457.802312849235
 20
97.1058467172808
 30
0.0
 40
0.0
 41
0.0
  0
VERTEX
  5
   698
  8
0
  6
CONTINUOUS
 10
-457.885247826887
 20
97.0795877195827
 30
0.0
 40
0.0
 41
0.0
  0
VERTEX
  5
   699
  8
0
  6
CONTINUOUS
 10
-457.965505969833
 20
97.0513256387605
 30
0.0
 40
0.0
 41
0.0
  0
VERTEX
  5
   69A
  8
0
  6
CONTINUOUS
 10
-458.042893929175
 20
97.0211285606423
 30
0.0
 40
0.0
 41
0.0
  0
VERTEX
  5
   69B
  8
0
  6
CONTINUOUS
 10
-458.117225270541
 20
96.9890692326343
 30
0.0
 40
0.0
 41
0.0
  0
VERTEX
  5
   69C
  8
0
  6
CONTINUOUS
 10
-458.18832092322
 20
96.9552248884656
 30
0.0
 40
0.0
 41
0.0
  0
VERTEX
  5
   69D
  8
0
  6
CONTINUOUS
 10
-458.256009611557
 20
96.9196770621258
 30
0.0
 40
0.0
 41
0.0
  0
VERTEX
  5
   69E
  8
0
  6
CONTINUOUS
 10
-458.320128267572
 20
96.8825113914422
 30
0.0
 40
0.0
 41
0.0
  0
VERTEX
  5
   69F
  8
0
  6
CONTINUOUS
 10
-458.380522423807
 20
96.8438174117707
 30
0.0
 40
0.0
 41
0.0
  0
VERTEX
  5
   6A0
  8
0
  6
CONTINUOUS
 10
-458.437046585451
 20
96.8036883402977
 30
0.0
 40
0.0
 41
0.0
  0
VERTEX
  5
   6A1
  8
0
  6
CONTINUOUS
 10
-458.489564580846
 20
96.7622208514711
 30
0.0
 40
0.0
 41
0.0
  0
VERTEX
  5
   6A2
  8
0
  6
CONTINUOUS
 10
-458.537949889542
 20
96.7195148441036
 30
0.0
 40
0.0
 41
0.0
  0
VERTEX
  5
   6A3
  8
0
  6
CONTINUOUS
 10
-458.582085947091
 20
96.6756732007077
 30
0.0
 40
0.0
 41
0.0
  0
VERTEX
  5
   6A4
  8
0
  6
CONTINUOUS
 10
-458.621866425867
 20
96.6308015396424
 30
0.0
 40
0.0
 41
0.0
  0
VERTEX
  5
   6A5
  8
0
  6
CONTINUOUS
 10
-458.640092958513
 20
96.6080131438122
 30
0.0
 40
0.0
 41
0.0
  0
VERTEX
  5
   6A6
  8
0
  6
CONTINUOUS
 10
-458.65719549121
 20
96.5850079606693
 30
0.0
 40
0.0
 41
0.0
  0
VERTEX
  5
   6A7
  8
0
  6
CONTINUOUS
 10
-458.673163722029
 20
96.5617998476759
 30
0.0
 40
0.0
 41
0.0
  0
VERTEX
  5
   6A8
  8
0
  6
CONTINUOUS
 10
-458.687988032307
 20
96.5384027845314
 30
0.0
 40
0.0
 41
0.0
  0
VERTEX
  5
   6A9
  8
0
  6
CONTINUOUS
 10
-458.701659492434
 20
96.5148308647518
 30
0.0
 40
0.0
 41
0.0
  0
VERTEX
  5
   6AA
  8
0
  6
CONTINUOUS
 10
-458.714169867232
 20
96.4910982871801
 30
0.0
 40
0.0
 41
0.0
  0
VERTEX
  5
   6AB
  8
0
  6
CONTINUOUS
 10
-458.725511620919
 20
96.4672193474336
 30
0.0
 40
0.0
 41
0.0
  0
VERTEX
  5
   6AC
  8
0
  6
CONTINUOUS
 10
-458.735677921648
 20
96.4432084292928
 30
0.0
 40
0.0
 41
0.0
  0
VERTEX
  5
   6AD
  8
0
  6
CONTINUOUS
 10
-458.74466264562
 20
96.419079996037
 30
0.0
 40
0.0
 41
0.0
  0
VERTEX
  5
   6AE
  8
0
  6
CONTINUOUS
 10
-458.752460380771
 20
96.394848581732
 30
0.0
 40
0.0
 41
0.0
  0
VERTEX
  5
   6AF
  8
0
  6
CONTINUOUS
 10
-458.759066430039
 20
96.3705287824758
 30
0.0
 40
0.0
 41
0.0
  0
VERTEX
  5
   6B0
  8
0
  6
CONTINUOUS
 10
-458.764476814185
 20
96.3461352476061
 30
0.0
 40
0.0
 41
0.0
  0
VERTEX
  5
   6B1
  8
0
  6
CONTINUOUS
 10
-458.768688274198
 20
96.3216826708761
 30
0.0
 40
0.0
 41
0.0
  0
VERTEX
  5
   6B2
  8
0
  6
CONTINUOUS
 10
-458.771698273251
 20
96.2971857816039
 30
0.0
 40
0.0
 41
0.0
  0
VERTEX
  5
   6B3
  8
0
  6
CONTINUOUS
 10
-458.773504998233
 20
96.2726593357993
 30
0.0
 40
0.0
 41
0.0
  0
VERTEX
  5
   6B4
  8
0
  6
CONTINUOUS
 10
-458.77410736084
 20
96.2481181072764
 30
0.0
 40
0.0
 41
0.0
  0
SEQEND
  5
   6B5
  8
0
  6
CONTINUOUS
 62
   218
  0
INSERT
  5
   6B6
  8
0
  6
CONTINUOUS
 62
   218
  2
*HATCH113
 10
-403.624145507813
 20
-28.1764793395996
 30
0.0
 41
0.5
 42
0.5
 50
89.9999999480344
 43
0.5
  0
LINE
  5
   6B7
  8
0
  6
CONTINUOUS
 62
   218
 10
-458.06330873252
 20
75.4420385360719
 30
0.0
 11
-456.035548454373
 21
86.9420385360718
 31
0.0
  0
LINE
  5
   6B8
  8
0
  6
CONTINUOUS
 62
   218
 10
-457.3525101042
 20
75.4420385360718
 30
0.0
 11
-455.67410736084
 21
84.9607335004858
 31
0.0
  0
LINE
  5
   6B9
  8
0
  6
CONTINUOUS
 62
   218
 10
-456.64171147588
 20
75.4420385360719
 30
0.0
 11
-455.67410736084
 21
80.9295941622853
 31
0.0
  0
LINE
  5
   6BA
  8
0
  6
CONTINUOUS
 62
   218
 10
-455.93091284756
 20
75.4420385360718
 30
0.0
 11
-455.67410736084
 21
76.8984548240848
 31
0.0
  0
LINE
  5
   6BB
  8
0
  6
CONTINUOUS
 62
   218
 10
-459.48490598916
 20
75.4420385360718
 30
0.0
 11
-457.457145711013
 21
86.9420385360718
 31
0.0
  0
LINE
  5
   6BC
  8
0
  6
CONTINUOUS
 62
   218
 10
-460.19570461748
 20
75.4420385360718
 30
0.0
 11
-458.167944339333
 21
86.9420385360718
 31
0.0
  0
LINE
  5
   6BD
  8
0
  6
CONTINUOUS
 62
   218
 10
-460.9065032458
 20
75.4420385360719
 30
0.0
 11
-458.878742967653
 21
86.9420385360718
 31
0.0
  0
LINE
  5
   6BE
  8
0
  6
CONTINUOUS
 62
   218
 10
-461.61730187412
 20
75.4420385360718
 30
0.0
 11
-459.589541595973
 21
86.9420385360718
 31
0.0
  0
LINE
  5
   6BF
  8
0
  6
CONTINUOUS
 62
   218
 10
-461.87410736084
 20
78.0167615862599
 30
0.0
 11
-460.300340224293
 21
86.9420385360718
 31
0.0
  0
LINE
  5
   6C0
  8
0
  6
CONTINUOUS
 62
   218
 10
-461.87410736084
 20
82.0479009244605
 30
0.0
 11
-461.011138852613
 21
86.9420385360718
 31
0.0
  0
LINE
  5
   6C1
  8
0
  6
CONTINUOUS
 62
   218
 10
-461.87410736084
 20
86.0790402626611
 30
0.0
 11
-461.721937480933
 21
86.9420385360718
 31
0.0
  0
LINE
  5
   6C2
  8
0
  6
CONTINUOUS
 62
   218
 10
-455.67410736084
 20
-31.0579457181584
 30
0.0
 11
-455.67410736084
 21
-19.5579457181584
 31
0.0
  0
LINE
  5
   6C3
  8
0
  6
CONTINUOUS
 62
   218
 10
-461.87410736084
 20
-31.0579457181584
 30
0.0
 11
-461.87410736084
 21
-19.5579457181584
 31
0.0
  0
LINE
  5
   6C4
  8
0
  6
CONTINUOUS
 62
   218
 10
-455.67410736084
 20
-19.5579457181584
 30
0.0
 11
-461.87410736084
 21
-19.5579457181584
 31
0.0
  0
LINE
  5
   6C5
  8
0
  6
CONTINUOUS
 62
   218
 10
-454.77410736084
 20
-31.0579457181584
 30
0.0
 11
-462.77410736084
 21
-31.0579457181584
 31
0.0
  0
LINE
  5
   6C6
  8
0
  6
DASHDOT
 62
   218
 10
-458.77410736084
 20
-41.3640252893706
 30
0.0
 11
-458.77410736084
 21
-17.0273127835478
 31
0.0
  0
LINE
  5
   6C7
  8
0
  6
CONTINUOUS
 62
   218
 10
-462.77410736084
 20
-40.3640252893706
 30
0.0
 11
-462.77410736084
 21
-31.0579457181584
 31
0.0
  0
LINE
  5
   6C8
  8
0
  6
CONTINUOUS
 62
   218
 10
-454.77410736084
 20
-40.3640252893706
 30
0.0
 11
-454.77410736084
 21
-31.0579457181584
 31
0.0
  0
LINE
  5
   6C9
  8
0
  6
CONTINUOUS
 62
   218
 10
-456.746347082693
 20
-31.0579457181584
 30
0.0
 11
-458.77410736084
 21
-19.5579457181584
 31
0.0
  0
POLYLINE
  5
   6CA
  8
0
  6
CONTINUOUS
 62
   218
 66
     1
 10
0.0
 20
0.0
 30
0.0
 70
     1
  0
VERTEX
  5
   6CB
  8
0
  6
CONTINUOUS
 10
-462.77410736084
 20
-40.3640252893731
 30
0.0
 40
0.0
 41
0.0
  0
VERTEX
  5
   6CC
  8
0
  6
CONTINUOUS
 10
-462.773504998232
 20
-40.388566517896
 30
0.0
 40
0.0
 41
0.0
  0
VERTEX
  5
   6CD
  8
0
  6
CONTINUOUS
 10
-462.77169827325
 20
-40.4130929637005
 30
0.0
 40
0.0
 41
0.0
  0
VERTEX
  5
   6CE
  8
0
  6
CONTINUOUS
 10
-462.768688274197
 20
-40.4375898529727
 30
0.0
 40
0.0
 41
0.0
  0
VERTEX
  5
   6CF
  8
0
  6
CONTINUOUS
 10
-462.764476814184
 20
-40.4620424297026
 30
0.0
 40
0.0
 41
0.0
  0
VERTEX
  5
   6D0
  8
0
  6
CONTINUOUS
 10
-462.759066430037
 20
-40.4864359645723
 30
0.0
 40
0.0
 41
0.0
  0
VERTEX
  5
   6D1
  8
0
  6
CONTINUOUS
 10
-462.752460380769
 20
-40.5107557638284
 30
0.0
 40
0.0
 41
0.0
  0
VERTEX
  5
   6D2
  8
0
  6
CONTINUOUS
 10
-462.744662645618
 20
-40.5349871781333
 30
0.0
 40
0.0
 41
0.0
  0
VERTEX
  5
   6D3
  8
0
  6
CONTINUOUS
 10
-462.735677921646
 20
-40.5591156113891
 30
0.0
 40
0.0
 41
0.0
  0
VERTEX
  5
   6D4
  8
0
  6
CONTINUOUS
 10
-462.725511620917
 20
-40.5831265295299
 30
0.0
 40
0.0
 41
0.0
  0
VERTEX
  5
   6D5
  8
0
  6
CONTINUOUS
 10
-462.714169867229
 20
-40.6070054692762
 30
0.0
 40
0.0
 41
0.0
  0
VERTEX
  5
   6D6
  8
0
  6
CONTINUOUS
 10
-462.701659492431
 20
-40.6307380468479
 30
0.0
 40
0.0
 41
0.0
  0
VERTEX
  5
   6D7
  8
0
  6
CONTINUOUS
 10
-462.687988032304
 20
-40.6543099666274
 30
0.0
 40
0.0
 41
0.0
  0
VERTEX
  5
   6D8
  8
0
  6
CONTINUOUS
 10
-462.673163722026
 20
-40.6777070297718
 30
0.0
 40
0.0
 41
0.0
  0
VERTEX
  5
   6D9
  8
0
  6
CONTINUOUS
 10
-462.657195491206
 20
-40.7009151427651
 30
0.0
 40
0.0
 41
0.0
  0
VERTEX
  5
   6DA
  8
0
  6
CONTINUOUS
 10
-462.640092958509
 20
-40.7239203259079
 30
0.0
 40
0.0
 41
0.0
  0
VERTEX
  5
   6DB
  8
0
  6
CONTINUOUS
 10
-462.621866425862
 20
-40.746708721738
 30
0.0
 40
0.0
 41
0.0
  0
VERTEX
  5
   6DC
  8
0
  6
CONTINUOUS
 10
-462.582085947086
 20
-40.7915803828031
 30
0.0
 40
0.0
 41
0.0
  0
VERTEX
  5
   6DD
  8
0
  6
CONTINUOUS
 10
-462.537949889536
 20
-40.8354220261988
 30
0.0
 40
0.0
 41
0.0
  0
VERTEX
  5
   6DE
  8
0
  6
CONTINUOUS
 10
-462.48956458084
 20
-40.8781280335659
 30
0.0
 40
0.0
 41
0.0
  0
VERTEX
  5
   6DF
  8
0
  6
CONTINUOUS
 10
-462.437046585444
 20
-40.9195955223922
 30
0.0
 40
0.0
 41
0.0
  0
VERTEX
  5
   6E0
  8
0
  6
CONTINUOUS
 10
-462.3805224238
 20
-40.959724593865
 30
0.0
 40
0.0
 41
0.0
  0
VERTEX
  5
   6E1
  8
0
  6
CONTINUOUS
 10
-462.320128267565
 20
-40.9984185735361
 30
0.0
 40
0.0
 41
0.0
  0
VERTEX
  5
   6E2
  8
0
  6
CONTINUOUS
 10
-462.256009611549
 20
-41.0355842442194
 30
0.0
 40
0.0
 41
0.0
  0
VERTEX
  5
   6E3
  8
0
  6
CONTINUOUS
 10
-462.188320923212
 20
-41.0711320705589
 30
0.0
 40
0.0
 41
0.0
  0
VERTEX
  5
   6E4
  8
0
  6
CONTINUOUS
 10
-462.117225270533
 20
-41.1049764147272
 30
0.0
 40
0.0
 41
0.0
  0
VERTEX
  5
   6E5
  8
0
  6
CONTINUOUS
 10
-462.042893929166
 20
-41.1370357427349
 30
0.0
 40
0.0
 41
0.0
  0
VERTEX
  5
   6E6
  8
0
  6
CONTINUOUS
 10
-461.965505969824
 20
-41.1672328208527
 30
0.0
 40
0.0
 41
0.0
  0
VERTEX
  5
   6E7
  8
0
  6
CONTINUOUS
 10
-461.885247826878
 20
-41.1954949016745
 30
0.0
 40
0.0
 41
0.0
  0
VERTEX
  5
   6E8
  8
0
  6
CONTINUOUS
 10
-461.802312849225
 20
-41.2217538993721
 30
0.0
 40
0.0
 41
0.0
  0
VERTEX
  5
   6E9
  8
0
  6
CONTINUOUS
 10
-461.716900834491
 20
-41.2459465537201
 30
0.0
 40
0.0
 41
0.0
  0
VERTEX
  5
   6EA
  8
0
  6
CONTINUOUS
 10
-461.629217547699
 20
-41.2680145824951
 30
0.0
 40
0.0
 41
0.0
  0
VERTEX
  5
   6EB
  8
0
  6
CONTINUOUS
 10
-461.539474225569
 20
-41.2879048218828
 30
0.0
 40
0.0
 41
0.0
  0
VERTEX
  5
   6EC
  8
0
  6
CONTINUOUS
 10
-461.447887067623
 20
-41.3055693545544
 30
0.0
 40
0.0
 41
0.0
  0
VERTEX
  5
   6ED
  8
0
  6
CONTINUOUS
 10
-461.354676715348
 20
-41.3209656251035
 30
0.0
 40
0.0
 41
0.0
  0
VERTEX
  5
   6EE
  8
0
  6
CONTINUOUS
 10
-461.260067720645
 20
-41.3340565425657
 30
0.0
 40
0.0
 41
0.0
  0
VERTEX
  5
   6EF
  8
0
  6
CONTINUOUS
 10
-461.164288004871
 20
-41.3448105697743
 30
0.0
 40
0.0
 41
0.0
  0
VERTEX
  5
   6F0
  8
0
  6
CONTINUOUS
 10
-461.067568309749
 20
-41.3532017993357
 30
0.0
 40
0.0
 41
0.0
  0
VERTEX
  5
   6F1
  8
0
  6
CONTINUOUS
 10
-460.970141641498
 20
-41.359210016043
 30
0.0
 40
0.0
 41
0.0
  0
VERTEX
  5
   6F2
  8
0
  6
CONTINUOUS
 10
-460.872242709493
 20
-41.3628207455758
 30
0.0
 40
0.0
 41
0.0
  0
VERTEX
  5
   6F3
  8
0
  6
CONTINUOUS
 10
-460.774107360839
 20
-41.3640252893705
 30
0.0
 40
0.0
 41
0.0
  0
VERTEX
  5
   6F4
  8
0
  6
CONTINUOUS
 10
-460.675972012184
 20
-41.3628207455756
 30
0.0
 40
0.0
 41
0.0
  0
VERTEX
  5
   6F5
  8
0
  6
CONTINUOUS
 10
-460.57807308018
 20
-41.3592100160425
 30
0.0
 40
0.0
 41
0.0
  0
VERTEX
  5
   6F6
  8
0
  6
CONTINUOUS
 10
-460.480646411928
 20
-41.353201799335
 30
0.0
 40
0.0
 41
0.0
  0
VERTEX
  5
   6F7
  8
0
  6
CONTINUOUS
 10
-460.383926716806
 20
-41.3448105697733
 30
0.0
 40
0.0
 41
0.0
  0
VERTEX
  5
   6F8
  8
0
  6
CONTINUOUS
 10
-460.288147001032
 20
-41.3340565425645
 30
0.0
 40
0.0
 41
0.0
  0
VERTEX
  5
   6F9
  8
0
  6
CONTINUOUS
 10
-460.19353800633
 20
-41.320965625102
 30
0.0
 40
0.0
 41
0.0
  0
VERTEX
  5
   6FA
  8
0
  6
CONTINUOUS
 10
-460.100327654054
 20
-41.3055693545527
 30
0.0
 40
0.0
 41
0.0
  0
VERTEX
  5
   6FB
  8
0
  6
CONTINUOUS
 10
-460.008740496109
 20
-41.2879048218809
 30
0.0
 40
0.0
 41
0.0
  0
VERTEX
  5
   6FC
  8
0
  6
CONTINUOUS
 10
-459.918997173978
 20
-41.2680145824929
 30
0.0
 40
0.0
 41
0.0
  0
VERTEX
  5
   6FD
  8
0
  6
CONTINUOUS
 10
-459.831313887187
 20
-41.2459465537177
 30
0.0
 40
0.0
 41
0.0
  0
VERTEX
  5
   6FE
  8
0
  6
CONTINUOUS
 10
-459.745901872452
 20
-41.2217538993695
 30
0.0
 40
0.0
 41
0.0
  0
VERTEX
  5
   6FF
  8
0
  6
CONTINUOUS
 10
-459.6629668948
 20
-41.1954949016717
 30
0.0
 40
0.0
 41
0.0
  0
VERTEX
  5
   700
  8
0
  6
CONTINUOUS
 10
-459.582708751854
 20
-41.1672328208497
 30
0.0
 40
0.0
 41
0.0
  0
VERTEX
  5
   701
  8
0
  6
CONTINUOUS
 10
-459.505320792512
 20
-41.1370357427317
 30
0.0
 40
0.0
 41
0.0
  0
VERTEX
  5
   702
  8
0
  6
CONTINUOUS
 10
-459.430989451145
 20
-41.1049764147238
 30
0.0
 40
0.0
 41
0.0
  0
VERTEX
  5
   703
  8
0
  6
CONTINUOUS
 10
-459.359893798466
 20
-41.0711320705553
 30
0.0
 40
0.0
 41
0.0
  0
VERTEX
  5
   704
  8
0
  6
CONTINUOUS
 10
-459.292205110129
 20
-41.0355842442157
 30
0.0
 40
0.0
 41
0.0
  0
VERTEX
  5
   705
  8
0
  6
CONTINUOUS
 10
-459.228086454114
 20
-40.9984185735323
 30
0.0
 40
0.0
 41
0.0
  0
VERTEX
  5
   706
  8
0
  6
CONTINUOUS
 10
-459.167692297878
 20
-40.959724593861
 30
0.0
 40
0.0
 41
0.0
  0
VERTEX
  5
   707
  8
0
  6
CONTINUOUS
 10
-459.111168136234
 20
-40.9195955223881
 30
0.0
 40
0.0
 41
0.0
  0
VERTEX
  5
   708
  8
0
  6
CONTINUOUS
 10
-459.058650140839
 20
-40.8781280335616
 30
0.0
 40
0.0
 41
0.0
  0
VERTEX
  5
   709
  8
0
  6
CONTINUOUS
 10
-459.010264832143
 20
-40.8354220261943
 30
0.0
 40
0.0
 41
0.0
  0
VERTEX
  5
   70A
  8
0
  6
CONTINUOUS
 10
-458.966128774593
 20
-40.7915803827986
 30
0.0
 40
0.0
 41
0.0
  0
VERTEX
  5
   70B
  8
0
  6
CONTINUOUS
 10
-458.926348295817
 20
-40.7467087217333
 30
0.0
 40
0.0
 41
0.0
  0
VERTEX
  5
   70C
  8
0
  6
CONTINUOUS
 10
-458.90812176317
 20
-40.7239203259032
 30
0.0
 40
0.0
 41
0.0
  0
VERTEX
  5
   70D
  8
0
  6
CONTINUOUS
 10
-458.891019230474
 20
-40.7009151427604
 30
0.0
 40
0.0
 41
0.0
  0
VERTEX
  5
   70E
  8
0
  6
CONTINUOUS
 10
-458.875050999653
 20
-40.677707029767
 30
0.0
 40
0.0
 41
0.0
  0
VERTEX
  5
   70F
  8
0
  6
CONTINUOUS
 10
-458.860226689375
 20
-40.6543099666226
 30
0.0
 40
0.0
 41
0.0
  0
VERTEX
  5
   710
  8
0
  6
CONTINUOUS
 10
-458.846555229249
 20
-40.630738046843
 30
0.0
 40
0.0
 41
0.0
  0
VERTEX
  5
   711
  8
0
  6
CONTINUOUS
 10
-458.834044854451
 20
-40.6070054692714
 30
0.0
 40
0.0
 41
0.0
  0
VERTEX
  5
   712
  8
0
  6
CONTINUOUS
 10
-458.822703100763
 20
-40.583126529525
 30
0.0
 40
0.0
 41
0.0
  0
VERTEX
  5
   713
  8
0
  6
CONTINUOUS
 10
-458.812536800033
 20
-40.5591156113842
 30
0.0
 40
0.0
 41
0.0
  0
VERTEX
  5
   714
  8
0
  6
CONTINUOUS
 10
-458.803552076062
 20
-40.5349871781284
 30
0.0
 40
0.0
 41
0.0
  0
VERTEX
  5
   715
  8
0
  6
CONTINUOUS
 10
-458.79575434091
 20
-40.5107557638234
 30
0.0
 40
0.0
 41
0.0
  0
VERTEX
  5
   716
  8
0
  6
CONTINUOUS
 10
-458.789148291642
 20
-40.4864359645673
 30
0.0
 40
0.0
 41
0.0
  0
VERTEX
  5
   717
  8
0
  6
CONTINUOUS
 10
-458.783737907495
 20
-40.4620424296976
 30
0.0
 40
0.0
 41
0.0
  0
VERTEX
  5
   718
  8
0
  6
CONTINUOUS
 10
-458.779526447482
 20
-40.4375898529677
 30
0.0
 40
0.0
 41
0.0
  0
VERTEX
  5
   719
  8
0
  6
CONTINUOUS
 10
-458.776516448429
 20
-40.4130929636955
 30
0.0
 40
0.0
 41
0.0
  0
VERTEX
  5
   71A
  8
0
  6
CONTINUOUS
 10
-458.774709723448
 20
-40.388566517891
 30
0.0
 40
0.0
 41
0.0
  0
VERTEX
  5
   71B
  8
0
  6
CONTINUOUS
 10
-458.77410736084
 20
-40.364025289368
 30
0.0
 40
0.0
 41
0.0
  0
VERTEX
  5
   71C
  8
0
  6
CONTINUOUS
 10
-458.774709723448
 20
-40.3394840608451
 30
0.0
 40
0.0
 41
0.0
  0
VERTEX
  5
   71D
  8
0
  6
CONTINUOUS
 10
-458.77651644843
 20
-40.3149576150406
 30
0.0
 40
0.0
 41
0.0
  0
VERTEX
  5
   71E
  8
0
  6
CONTINUOUS
 10
-458.779526447483
 20
-40.2904607257684
 30
0.0
 40
0.0
 41
0.0
  0
VERTEX
  5
   71F
  8
0
  6
CONTINUOUS
 10
-458.783737907496
 20
-40.2660081490385
 30
0.0
 40
0.0
 41
0.0
  0
VERTEX
  5
   720
  8
0
  6
CONTINUOUS
 10
-458.789148291643
 20
-40.2416146141688
 30
0.0
 40
0.0
 41
0.0
  0
VERTEX
  5
   721
  8
0
  6
CONTINUOUS
 10
-458.795754340911
 20
-40.2172948149127
 30
0.0
 40
0.0
 41
0.0
  0
VERTEX
  5
   722
  8
0
  6
CONTINUOUS
 10
-458.803552076062
 20
-40.1930634006078
 30
0.0
 40
0.0
 41
0.0
  0
VERTEX
  5
   723
  8
0
  6
CONTINUOUS
 10
-458.812536800034
 20
-40.168934967352
 30
0.0
 40
0.0
 41
0.0
  0
VERTEX
  5
   724
  8
0
  6
CONTINUOUS
 10
-458.822703100763
 20
-40.1449240492112
 30
0.0
 40
0.0
 41
0.0
  0
VERTEX
  5
   725
  8
0
  6
CONTINUOUS
 10
-458.834044854451
 20
-40.1210451094649
 30
0.0
 40
0.0
 41
0.0
  0
VERTEX
  5
   726
  8
0
  6
CONTINUOUS
 10
-458.846555229249
 20
-40.0973125318932
 30
0.0
 40
0.0
 41
0.0
  0
VERTEX
  5
   727
  8
0
  6
CONTINUOUS
 10
-458.860226689376
 20
-40.0737406121137
 30
0.0
 40
0.0
 41
0.0
  0
VERTEX
  5
   728
  8
0
  6
CONTINUOUS
 10
-458.875050999654
 20
-40.0503435489693
 30
0.0
 40
0.0
 41
0.0
  0
VERTEX
  5
   729
  8
0
  6
CONTINUOUS
 10
-458.891019230474
 20
-40.027135435976
 30
0.0
 40
0.0
 41
0.0
  0
VERTEX
  5
   72A
  8
0
  6
CONTINUOUS
 10
-458.908121763171
 20
-40.0041302528332
 30
0.0
 40
0.0
 41
0.0
  0
VERTEX
  5
   72B
  8
0
  6
CONTINUOUS
 10
-458.926348295818
 20
-39.9813418570031
 30
0.0
 40
0.0
 41
0.0
  0
VERTEX
  5
   72C
  8
0
  6
CONTINUOUS
 10
-458.966128774594
 20
-39.936470195938
 30
0.0
 40
0.0
 41
0.0
  0
VERTEX
  5
   72D
  8
0
  6
CONTINUOUS
 10
-459.010264832144
 20
-39.8926285525423
 30
0.0
 40
0.0
 41
0.0
  0
VERTEX
  5
   72E
  8
0
  6
CONTINUOUS
 10
-459.05865014084
 20
-39.8499225451752
 30
0.0
 40
0.0
 41
0.0
  0
VERTEX
  5
   72F
  8
0
  6
CONTINUOUS
 10
-459.111168136236
 20
-39.8084550563489
 30
0.0
 40
0.0
 41
0.0
  0
VERTEX
  5
   730
  8
0
  6
CONTINUOUS
 10
-459.167692297879
 20
-39.7683259848761
 30
0.0
 40
0.0
 41
0.0
  0
VERTEX
  5
   731
  8
0
  6
CONTINUOUS
 10
-459.228086454115
 20
-39.729632005205
 30
0.0
 40
0.0
 41
0.0
  0
VERTEX
  5
   732
  8
0
  6
CONTINUOUS
 10
-459.292205110131
 20
-39.6924663345217
 30
0.0
 40
0.0
 41
0.0
  0
VERTEX
  5
   733
  8
0
  6
CONTINUOUS
 10
-459.359893798468
 20
-39.6569185081822
 30
0.0
 40
0.0
 41
0.0
  0
VERTEX
  5
   734
  8
0
  6
CONTINUOUS
 10
-459.430989451147
 20
-39.6230741640139
 30
0.0
 40
0.0
 41
0.0
  0
VERTEX
  5
   735
  8
0
  6
CONTINUOUS
 10
-459.505320792514
 20
-39.5910148360062
 30
0.0
 40
0.0
 41
0.0
  0
VERTEX
  5
   736
  8
0
  6
CONTINUOUS
 10
-459.582708751856
 20
-39.5608177578884
 30
0.0
 40
0.0
 41
0.0
  0
VERTEX
  5
   737
  8
0
  6
CONTINUOUS
 10
-459.662966894802
 20
-39.5325556770666
 30
0.0
 40
0.0
 41
0.0
  0
VERTEX
  5
   738
  8
0
  6
CONTINUOUS
 10
-459.745901872455
 20
-39.506296679369
 30
0.0
 40
0.0
 41
0.0
  0
VERTEX
  5
   739
  8
0
  6
CONTINUOUS
 10
-459.831313887189
 20
-39.482104025021
 30
0.0
 40
0.0
 41
0.0
  0
VERTEX
  5
   73A
  8
0
  6
CONTINUOUS
 10
-459.918997173981
 20
-39.460035996246
 30
0.0
 40
0.0
 41
0.0
  0
VERTEX
  5
   73B
  8
0
  6
CONTINUOUS
 10
-460.008740496111
 20
-39.4401457568583
 30
0.0
 40
0.0
 41
0.0
  0
VERTEX
  5
   73C
  8
0
  6
CONTINUOUS
 10
-460.100327654057
 20
-39.4224812241867
 30
0.0
 40
0.0
 41
0.0
  0
VERTEX
  5
   73D
  8
0
  6
CONTINUOUS
 10
-460.193538006332
 20
-39.4070849536376
 30
0.0
 40
0.0
 41
0.0
  0
VERTEX
  5
   73E
  8
0
  6
CONTINUOUS
 10
-460.288147001035
 20
-39.3939940361754
 30
0.0
 40
0.0
 41
0.0
  0
VERTEX
  5
   73F
  8
0
  6
CONTINUOUS
 10
-460.383926716809
 20
-39.3832400089668
 30
0.0
 40
0.0
 41
0.0
  0
VERTEX
  5
   740
  8
0
  6
CONTINUOUS
 10
-460.48064641193
 20
-39.3748487794054
 30
0.0
 40
0.0
 41
0.0
  0
VERTEX
  5
   741
  8
0
  6
CONTINUOUS
 10
-460.578073080182
 20
-39.3688405626981
 30
0.0
 40
0.0
 41
0.0
  0
VERTEX
  5
   742
  8
0
  6
CONTINUOUS
 10
-460.675972012186
 20
-39.3652298331653
 30
0.0
 40
0.0
 41
0.0
  0
VERTEX
  5
   743
  8
0
  6
CONTINUOUS
 10
-460.774107360841
 20
-39.3640252893705
 30
0.0
 40
0.0
 41
0.0
  0
VERTEX
  5
   744
  8
0
  6
CONTINUOUS
 10
-460.872242709496
 20
-39.3652298331655
 30
0.0
 40
0.0
 41
0.0
  0
VERTEX
  5
   745
  8
0
  6
CONTINUOUS
 10
-460.9701416415
 20
-39.3688405626986
 30
0.0
 40
0.0
 41
0.0
  0
VERTEX
  5
   746
  8
0
  6
CONTINUOUS
 10
-461.067568309752
 20
-39.3748487794061
 30
0.0
 40
0.0
 41
0.0
  0
VERTEX
  5
   747
  8
0
  6
CONTINUOUS
 10
-461.164288004873
 20
-39.3832400089678
 30
0.0
 40
0.0
 41
0.0
  0
VERTEX
  5
   748
  8
0
  6
CONTINUOUS
 10
-461.260067720648
 20
-39.3939940361766
 30
0.0
 40
0.0
 41
0.0
  0
VERTEX
  5
   749
  8
0
  6
CONTINUOUS
 10
-461.35467671535
 20
-39.4070849536391
 30
0.0
 40
0.0
 41
0.0
  0
VERTEX
  5
   74A
  8
0
  6
CONTINUOUS
 10
-461.447887067626
 20
-39.4224812241884
 30
0.0
 40
0.0
 41
0.0
  0
VERTEX
  5
   74B
  8
0
  6
CONTINUOUS
 10
-461.539474225571
 20
-39.4401457568602
 30
0.0
 40
0.0
 41
0.0
  0
VERTEX
  5
   74C
  8
0
  6
CONTINUOUS
 10
-461.629217547702
 20
-39.4600359962482
 30
0.0
 40
0.0
 41
0.0
  0
VERTEX
  5
   74D
  8
0
  6
CONTINUOUS
 10
-461.716900834493
 20
-39.4821040250234
 30
0.0
 40
0.0
 41
0.0
  0
VERTEX
  5
   74E
  8
0
  6
CONTINUOUS
 10
-461.802312849227
 20
-39.5062966793716
 30
0.0
 40
0.0
 41
0.0
  0
VERTEX
  5
   74F
  8
0
  6
CONTINUOUS
 10
-461.88524782688
 20
-39.5325556770694
 30
0.0
 40
0.0
 41
0.0
  0
VERTEX
  5
   750
  8
0
  6
CONTINUOUS
 10
-461.965505969826
 20
-39.5608177578914
 30
0.0
 40
0.0
 41
0.0
  0
VERTEX
  5
   751
  8
0
  6
CONTINUOUS
 10
-462.042893929168
 20
-39.5910148360094
 30
0.0
 40
0.0
 41
0.0
  0
VERTEX
  5
   752
  8
0
  6
CONTINUOUS
 10
-462.117225270535
 20
-39.6230741640173
 30
0.0
 40
0.0
 41
0.0
  0
VERTEX
  5
   753
  8
0
  6
CONTINUOUS
 10
-462.188320923214
 20
-39.6569185081858
 30
0.0
 40
0.0
 41
0.0
  0
VERTEX
  5
   754
  8
0
  6
CONTINUOUS
 10
-462.256009611551
 20
-39.6924663345254
 30
0.0
 40
0.0
 41
0.0
  0
VERTEX
  5
   755
  8
0
  6
CONTINUOUS
 10
-462.320128267566
 20
-39.7296320052088
 30
0.0
 40
0.0
 41
0.0
  0
VERTEX
  5
   756
  8
0
  6
CONTINUOUS
 10
-462.380522423802
 20
-39.7683259848801
 30
0.0
 40
0.0
 41
0.0
  0
VERTEX
  5
   757
  8
0
  6
CONTINUOUS
 10
-462.437046585446
 20
-39.808455056353
 30
0.0
 40
0.0
 41
0.0
  0
VERTEX
  5
   758
  8
0
  6
CONTINUOUS
 10
-462.489564580841
 20
-39.8499225451795
 30
0.0
 40
0.0
 41
0.0
  0
VERTEX
  5
   759
  8
0
  6
CONTINUOUS
 10
-462.537949889537
 20
-39.8926285525468
 30
0.0
 40
0.0
 41
0.0
  0
VERTEX
  5
   75A
  8
0
  6
CONTINUOUS
 10
-462.582085947087
 20
-39.9364701959425
 30
0.0
 40
0.0
 41
0.0
  0
VERTEX
  5
   75B
  8
0
  6
CONTINUOUS
 10
-462.621866425863
 20
-39.9813418570078
 30
0.0
 40
0.0
 41
0.0
  0
VERTEX
  5
   75C
  8
0
  6
CONTINUOUS
 10
-462.64009295851
 20
-40.0041302528379
 30
0.0
 40
0.0
 41
0.0
  0
VERTEX
  5
   75D
  8
0
  6
CONTINUOUS
 10
-462.657195491206
 20
-40.0271354359807
 30
0.0
 40
0.0
 41
0.0
  0
VERTEX
  5
   75E
  8
0
  6
CONTINUOUS
 10
-462.673163722026
 20
-40.050343548974
 30
0.0
 40
0.0
 41
0.0
  0
VERTEX
  5
   75F
  8
0
  6
CONTINUOUS
 10
-462.687988032305
 20
-40.0737406121185
 30
0.0
 40
0.0
 41
0.0
  0
VERTEX
  5
   760
  8
0
  6
CONTINUOUS
 10
-462.701659492431
 20
-40.0973125318981
 30
0.0
 40
0.0
 41
0.0
  0
VERTEX
  5
   761
  8
0
  6
CONTINUOUS
 10
-462.714169867229
 20
-40.1210451094697
 30
0.0
 40
0.0
 41
0.0
  0
VERTEX
  5
   762
  8
0
  6
CONTINUOUS
 10
-462.725511620917
 20
-40.1449240492161
 30
0.0
 40
0.0
 41
0.0
  0
VERTEX
  5
   763
  8
0
  6
CONTINUOUS
 10
-462.735677921647
 20
-40.1689349673569
 30
0.0
 40
0.0
 41
0.0
  0
VERTEX
  5
   764
  8
0
  6
CONTINUOUS
 10
-462.744662645618
 20
-40.1930634006127
 30
0.0
 40
0.0
 41
0.0
  0
VERTEX
  5
   765
  8
0
  6
CONTINUOUS
 10
-462.75246038077
 20
-40.2172948149177
 30
0.0
 40
0.0
 41
0.0
  0
VERTEX
  5
   766
  8
0
  6
CONTINUOUS
 10
-462.759066430038
 20
-40.2416146141738
 30
0.0
 40
0.0
 41
0.0
  0
VERTEX
  5
   767
  8
0
  6
CONTINUOUS
 10
-462.764476814184
 20
-40.2660081490435
 30
0.0
 40
0.0
 41
0.0
  0
VERTEX
  5
   768
  8
0
  6
CONTINUOUS
 10
-462.768688274197
 20
-40.2904607257734
 30
0.0
 40
0.0
 41
0.0
  0
VERTEX
  5
   769
  8
0
  6
CONTINUOUS
 10
-462.77169827325
 20
-40.3149576150456
 30
0.0
 40
0.0
 41
0.0
  0
VERTEX
  5
   76A
  8
0
  6
CONTINUOUS
 10
-462.773504998232
 20
-40.3394840608501
 30
0.0
 40
0.0
 41
0.0
  0
VERTEX
  5
   76B
  8
0
  6
CONTINUOUS
 10
-462.77410736084
 20
-40.3640252893731
 30
0.0
 40
0.0
 41
0.0
  0
SEQEND
  5
   76C
  8
0
  6
CONTINUOUS
 62
   218
  0
POLYLINE
  5
   76D
  8
0
  6
CONTINUOUS
 62
   218
 66
     1
 10
0.0
 20
0.0
 30
0.0
  0
VERTEX
  5
   76E
  8
0
  6
CONTINUOUS
 10
-458.77410736084
 20
-40.3640252893731
 30
0.0
 40
0.0
 41
0.0
  0
VERTEX
  5
   76F
  8
0
  6
CONTINUOUS
 10
-458.773504998232
 20
-40.388566517896
 30
0.0
 40
0.0
 41
0.0
  0
VERTEX
  5
   770
  8
0
  6
CONTINUOUS
 10
-458.77169827325
 20
-40.4130929637005
 30
0.0
 40
0.0
 41
0.0
  0
VERTEX
  5
   771
  8
0
  6
CONTINUOUS
 10
-458.768688274197
 20
-40.4375898529728
 30
0.0
 40
0.0
 41
0.0
  0
VERTEX
  5
   772
  8
0
  6
CONTINUOUS
 10
-458.764476814184
 20
-40.4620424297027
 30
0.0
 40
0.0
 41
0.0
  0
VERTEX
  5
   773
  8
0
  6
CONTINUOUS
 10
-458.759066430037
 20
-40.4864359645723
 30
0.0
 40
0.0
 41
0.0
  0
VERTEX
  5
   774
  8
0
  6
CONTINUOUS
 10
-458.752460380769
 20
-40.5107557638285
 30
0.0
 40
0.0
 41
0.0
  0
VERTEX
  5
   775
  8
0
  6
CONTINUOUS
 10
-458.744662645618
 20
-40.5349871781335
 30
0.0
 40
0.0
 41
0.0
  0
VERTEX
  5
   776
  8
0
  6
CONTINUOUS
 10
-458.735677921646
 20
-40.5591156113893
 30
0.0
 40
0.0
 41
0.0
  0
VERTEX
  5
   777
  8
0
  6
CONTINUOUS
 10
-458.725511620917
 20
-40.58312652953
 30
0.0
 40
0.0
 41
0.0
  0
VERTEX
  5
   778
  8
0
  6
CONTINUOUS
 10
-458.714169867229
 20
-40.6070054692764
 30
0.0
 40
0.0
 41
0.0
  0
VERTEX
  5
   779
  8
0
  6
CONTINUOUS
 10
-458.70165949243
 20
-40.6307380468481
 30
0.0
 40
0.0
 41
0.0
  0
VERTEX
  5
   77A
  8
0
  6
CONTINUOUS
 10
-458.687988032304
 20
-40.6543099666276
 30
0.0
 40
0.0
 41
0.0
  0
VERTEX
  5
   77B
  8
0
  6
CONTINUOUS
 10
-458.673163722025
 20
-40.6777070297721
 30
0.0
 40
0.0
 41
0.0
  0
VERTEX
  5
   77C
  8
0
  6
CONTINUOUS
 10
-458.657195491205
 20
-40.7009151427654
 30
0.0
 40
0.0
 41
0.0
  0
VERTEX
  5
   77D
  8
0
  6
CONTINUOUS
 10
-458.640092958509
 20
-40.7239203259082
 30
0.0
 40
0.0
 41
0.0
  0
VERTEX
  5
   77E
  8
0
  6
CONTINUOUS
 10
-458.621866425862
 20
-40.7467087217382
 30
0.0
 40
0.0
 41
0.0
  0
VERTEX
  5
   77F
  8
0
  6
CONTINUOUS
 10
-458.582085947086
 20
-40.7915803828034
 30
0.0
 40
0.0
 41
0.0
  0
VERTEX
  5
   780
  8
0
  6
CONTINUOUS
 10
-458.537949889536
 20
-40.8354220261991
 30
0.0
 40
0.0
 41
0.0
  0
VERTEX
  5
   781
  8
0
  6
CONTINUOUS
 10
-458.489564580839
 20
-40.8781280335663
 30
0.0
 40
0.0
 41
0.0
  0
VERTEX
  5
   782
  8
0
  6
CONTINUOUS
 10
-458.437046585444
 20
-40.9195955223926
 30
0.0
 40
0.0
 41
0.0
  0
VERTEX
  5
   783
  8
0
  6
CONTINUOUS
 10
-458.3805224238
 20
-40.9597245938654
 30
0.0
 40
0.0
 41
0.0
  0
VERTEX
  5
   784
  8
0
  6
CONTINUOUS
 10
-458.320128267564
 20
-40.9984185735366
 30
0.0
 40
0.0
 41
0.0
  0
VERTEX
  5
   785
  8
0
  6
CONTINUOUS
 10
-458.256009611548
 20
-41.0355842442199
 30
0.0
 40
0.0
 41
0.0
  0
VERTEX
  5
   786
  8
0
  6
CONTINUOUS
 10
-458.188320923211
 20
-41.0711320705593
 30
0.0
 40
0.0
 41
0.0
  0
VERTEX
  5
   787
  8
0
  6
CONTINUOUS
 10
-458.117225270532
 20
-41.1049764147276
 30
0.0
 40
0.0
 41
0.0
  0
VERTEX
  5
   788
  8
0
  6
CONTINUOUS
 10
-458.042893929165
 20
-41.1370357427353
 30
0.0
 40
0.0
 41
0.0
  0
VERTEX
  5
   789
  8
0
  6
CONTINUOUS
 10
-457.965505969823
 20
-41.1672328208531
 30
0.0
 40
0.0
 41
0.0
  0
VERTEX
  5
   78A
  8
0
  6
CONTINUOUS
 10
-457.885247826877
 20
-41.1954949016749
 30
0.0
 40
0.0
 41
0.0
  0
VERTEX
  5
   78B
  8
0
  6
CONTINUOUS
 10
-457.802312849224
 20
-41.2217538993725
 30
0.0
 40
0.0
 41
0.0
  0
VERTEX
  5
   78C
  8
0
  6
CONTINUOUS
 10
-457.716900834489
 20
-41.2459465537205
 30
0.0
 40
0.0
 41
0.0
  0
VERTEX
  5
   78D
  8
0
  6
CONTINUOUS
 10
-457.629217547698
 20
-41.2680145824954
 30
0.0
 40
0.0
 41
0.0
  0
VERTEX
  5
   78E
  8
0
  6
CONTINUOUS
 10
-457.539474225567
 20
-41.2879048218832
 30
0.0
 40
0.0
 41
0.0
  0
VERTEX
  5
   78F
  8
0
  6
CONTINUOUS
 10
-457.447887067621
 20
-41.3055693545547
 30
0.0
 40
0.0
 41
0.0
  0
VERTEX
  5
   790
  8
0
  6
CONTINUOUS
 10
-457.354676715346
 20
-41.3209656251038
 30
0.0
 40
0.0
 41
0.0
  0
VERTEX
  5
   791
  8
0
  6
CONTINUOUS
 10
-457.260067720643
 20
-41.334056542566
 30
0.0
 40
0.0
 41
0.0
  0
VERTEX
  5
   792
  8
0
  6
CONTINUOUS
 10
-457.164288004869
 20
-41.3448105697745
 30
0.0
 40
0.0
 41
0.0
  0
VERTEX
  5
   793
  8
0
  6
CONTINUOUS
 10
-457.067568309747
 20
-41.3532017993359
 30
0.0
 40
0.0
 41
0.0
  0
VERTEX
  5
   794
  8
0
  6
CONTINUOUS
 10
-456.970141641495
 20
-41.3592100160431
 30
0.0
 40
0.0
 41
0.0
  0
VERTEX
  5
   795
  8
0
  6
CONTINUOUS
 10
-456.872242709491
 20
-41.3628207455759
 30
0.0
 40
0.0
 41
0.0
  0
VERTEX
  5
   796
  8
0
  6
CONTINUOUS
 10
-456.774107360836
 20
-41.3640252893705
 30
0.0
 40
0.0
 41
0.0
  0
VERTEX
  5
   797
  8
0
  6
CONTINUOUS
 10
-456.675972012181
 20
-41.3628207455755
 30
0.0
 40
0.0
 41
0.0
  0
VERTEX
  5
   798
  8
0
  6
CONTINUOUS
 10
-456.578073080177
 20
-41.3592100160424
 30
0.0
 40
0.0
 41
0.0
  0
VERTEX
  5
   799
  8
0
  6
CONTINUOUS
 10
-456.480646411925
 20
-41.3532017993348
 30
0.0
 40
0.0
 41
0.0
  0
VERTEX
  5
   79A
  8
0
  6
CONTINUOUS
 10
-456.383926716804
 20
-41.344810569773
 30
0.0
 40
0.0
 41
0.0
  0
VERTEX
  5
   79B
  8
0
  6
CONTINUOUS
 10
-456.288147001029
 20
-41.3340565425641
 30
0.0
 40
0.0
 41
0.0
  0
VERTEX
  5
   79C
  8
0
  6
CONTINUOUS
 10
-456.193538006327
 20
-41.3209656251016
 30
0.0
 40
0.0
 41
0.0
  0
VERTEX
  5
   79D
  8
0
  6
CONTINUOUS
 10
-456.100327654051
 20
-41.3055693545522
 30
0.0
 40
0.0
 41
0.0
  0
VERTEX
  5
   79E
  8
0
  6
CONTINUOUS
 10
-456.008740496106
 20
-41.2879048218803
 30
0.0
 40
0.0
 41
0.0
  0
VERTEX
  5
   79F
  8
0
  6
CONTINUOUS
 10
-455.918997173975
 20
-41.2680145824922
 30
0.0
 40
0.0
 41
0.0
  0
VERTEX
  5
   7A0
  8
0
  6
CONTINUOUS
 10
-455.831313887184
 20
-41.2459465537169
 30
0.0
 40
0.0
 41
0.0
  0
VERTEX
  5
   7A1
  8
0
  6
CONTINUOUS
 10
-455.74590187245
 20
-41.2217538993687
 30
0.0
 40
0.0
 41
0.0
  0
VERTEX
  5
   7A2
  8
0
  6
CONTINUOUS
 10
-455.662966894797
 20
-41.1954949016707
 30
0.0
 40
0.0
 41
0.0
  0
VERTEX
  5
   7A3
  8
0
  6
CONTINUOUS
 10
-455.582708751851
 20
-41.1672328208486
 30
0.0
 40
0.0
 41
0.0
  0
VERTEX
  5
   7A4
  8
0
  6
CONTINUOUS
 10
-455.505320792509
 20
-41.1370357427305
 30
0.0
 40
0.0
 41
0.0
  0
VERTEX
  5
   7A5
  8
0
  6
CONTINUOUS
 10
-455.430989451142
 20
-41.1049764147226
 30
0.0
 40
0.0
 41
0.0
  0
VERTEX
  5
   7A6
  8
0
  6
CONTINUOUS
 10
-455.359893798463
 20
-41.071132070554
 30
0.0
 40
0.0
 41
0.0
  0
VERTEX
  5
   7A7
  8
0
  6
CONTINUOUS
 10
-455.292205110127
 20
-41.0355842442143
 30
0.0
 40
0.0
 41
0.0
  0
VERTEX
  5
   7A8
  8
0
  6
CONTINUOUS
 10
-455.228086454111
 20
-40.9984185735307
 30
0.0
 40
0.0
 41
0.0
  0
VERTEX
  5
   7A9
  8
0
  6
CONTINUOUS
 10
-455.167692297876
 20
-40.9597245938594
 30
0.0
 40
0.0
 41
0.0
  0
VERTEX
  5
   7AA
  8
0
  6
CONTINUOUS
 10
-455.111168136232
 20
-40.9195955223864
 30
0.0
 40
0.0
 41
0.0
  0
VERTEX
  5
   7AB
  8
0
  6
CONTINUOUS
 10
-455.058650140837
 20
-40.8781280335598
 30
0.0
 40
0.0
 41
0.0
  0
VERTEX
  5
   7AC
  8
0
  6
CONTINUOUS
 10
-455.010264832141
 20
-40.8354220261925
 30
0.0
 40
0.0
 41
0.0
  0
VERTEX
  5
   7AD
  8
0
  6
CONTINUOUS
 10
-454.966128774591
 20
-40.7915803827966
 30
0.0
 40
0.0
 41
0.0
  0
VERTEX
  5
   7AE
  8
0
  6
CONTINUOUS
 10
-454.926348295815
 20
-40.7467087217313
 30
0.0
 40
0.0
 41
0.0
  0
VERTEX
  5
   7AF
  8
0
  6
CONTINUOUS
 10
-454.908121763168
 20
-40.7239203259011
 30
0.0
 40
0.0
 41
0.0
  0
VERTEX
  5
   7B0
  8
0
  6
CONTINUOUS
 10
-454.891019230472
 20
-40.7009151427583
 30
0.0
 40
0.0
 41
0.0
  0
VERTEX
  5
   7B1
  8
0
  6
CONTINUOUS
 10
-454.875050999652
 20
-40.6777070297649
 30
0.0
 40
0.0
 41
0.0
  0
VERTEX
  5
   7B2
  8
0
  6
CONTINUOUS
 10
-454.860226689374
 20
-40.6543099666204
 30
0.0
 40
0.0
 41
0.0
  0
VERTEX
  5
   7B3
  8
0
  6
CONTINUOUS
 10
-454.846555229248
 20
-40.6307380468408
 30
0.0
 40
0.0
 41
0.0
  0
VERTEX
  5
   7B4
  8
0
  6
CONTINUOUS
 10
-454.834044854449
 20
-40.6070054692691
 30
0.0
 40
0.0
 41
0.0
  0
VERTEX
  5
   7B5
  8
0
  6
CONTINUOUS
 10
-454.822703100762
 20
-40.5831265295227
 30
0.0
 40
0.0
 41
0.0
  0
VERTEX
  5
   7B6
  8
0
  6
CONTINUOUS
 10
-454.812536800032
 20
-40.5591156113819
 30
0.0
 40
0.0
 41
0.0
  0
VERTEX
  5
   7B7
  8
0
  6
CONTINUOUS
 10
-454.803552076061
 20
-40.534987178126
 30
0.0
 40
0.0
 41
0.0
  0
VERTEX
  5
   7B8
  8
0
  6
CONTINUOUS
 10
-454.795754340909
 20
-40.5107557638211
 30
0.0
 40
0.0
 41
0.0
  0
VERTEX
  5
   7B9
  8
0
  6
CONTINUOUS
 10
-454.789148291642
 20
-40.4864359645649
 30
0.0
 40
0.0
 41
0.0
  0
VERTEX
  5
   7BA
  8
0
  6
CONTINUOUS
 10
-454.783737907495
 20
-40.4620424296952
 30
0.0
 40
0.0
 41
0.0
  0
VERTEX
  5
   7BB
  8
0
  6
CONTINUOUS
 10
-454.779526447482
 20
-40.4375898529653
 30
0.0
 40
0.0
 41
0.0
  0
VERTEX
  5
   7BC
  8
0
  6
CONTINUOUS
 10
-454.776516448429
 20
-40.413092963693
 30
0.0
 40
0.0
 41
0.0
  0
VERTEX
  5
   7BD
  8
0
  6
CONTINUOUS
 10
-454.774709723447
 20
-40.3885665178885
 30
0.0
 40
0.0
 41
0.0
  0
VERTEX
  5
   7BE
  8
0
  6
CONTINUOUS
 10
-454.77410736084
 20
-40.3640252893655
 30
0.0
 40
0.0
 41
0.0
  0
SEQEND
  5
   7BF
  8
0
  6
CONTINUOUS
 62
   218
  0
INSERT
  5
   7C0
  8
0
  6
CONTINUOUS
 62
   218
  2
*HATCH114
 10
-403.624145507813
 20
-28.1764793395996
 30
0.0
 41
0.5
 42
0.5
 50
89.9999999480344
 43
0.5
  0
LINE
  5
   7C1
  8
0
  6
CONTINUOUS
 62
   218
 10
-456.035548454373
 20
-31.0579457181585
 30
0.0
 11
-458.06330873252
 21
-19.5579457181585
 31
0.0
  0
LINE
  5
   7C2
  8
0
  6
CONTINUOUS
 62
   218
 10
-455.67410736084
 20
-29.0766406825724
 30
0.0
 11
-457.3525101042
 21
-19.5579457181584
 31
0.0
  0
LINE
  5
   7C3
  8
0
  6
CONTINUOUS
 62
   218
 10
-455.67410736084
 20
-25.0455013443719
 30
0.0
 11
-456.64171147588
 21
-19.5579457181585
 31
0.0
  0
LINE
  5
   7C4
  8
0
  6
CONTINUOUS
 62
   218
 10
-455.67410736084
 20
-21.0143620061714
 30
0.0
 11
-455.93091284756
 21
-19.5579457181584
 31
0.0
  0
LINE
  5
   7C5
  8
0
  6
CONTINUOUS
 62
   218
 10
-457.457145711013
 20
-31.0579457181585
 30
0.0
 11
-459.48490598916
 21
-19.5579457181584
 31
0.0
  0
LINE
  5
   7C6
  8
0
  6
CONTINUOUS
 62
   218
 10
-458.167944339333
 20
-31.0579457181584
 30
0.0
 11
-460.19570461748
 21
-19.5579457181584
 31
0.0
  0
LINE
  5
   7C7
  8
0
  6
CONTINUOUS
 62
   218
 10
-458.878742967653
 20
-31.0579457181585
 30
0.0
 11
-460.9065032458
 21
-19.5579457181585
 31
0.0
  0
LINE
  5
   7C8
  8
0
  6
CONTINUOUS
 62
   218
 10
-459.589541595973
 20
-31.0579457181584
 30
0.0
 11
-461.61730187412
 21
-19.5579457181584
 31
0.0
  0
LINE
  5
   7C9
  8
0
  6
CONTINUOUS
 62
   218
 10
-460.300340224293
 20
-31.0579457181585
 30
0.0
 11
-461.87410736084
 21
-22.1326687683465
 31
0.0
  0
LINE
  5
   7CA
  8
0
  6
CONTINUOUS
 62
   218
 10
-461.011138852613
 20
-31.0579457181584
 30
0.0
 11
-461.87410736084
 21
-26.1638081065471
 31
0.0
  0
LINE
  5
   7CB
  8
0
  6
CONTINUOUS
 62
   218
 10
-461.721937480933
 20
-31.0579457181584
 30
0.0
 11
-461.87410736084
 21
-30.1949474447477
 31
0.0
  0
LINE
  5
   7CC
  8
0
  6
CONTINUOUS
 62
     7
 10
-482.974130249023
 20
50.9920433044434
 30
0.0
 11
-482.974130249023
 21
54.8920433044434
 31
0.0
  0
LINE
  5
   7CD
  8
0
  6
CONTINUOUS
 62
     7
 10
-484.574130249023
 20
51.9420433044434
 30
0.0
 11
-484.574130249023
 21
53.9420433044434
 31
0.0
  0
LINE
  5
   7CE
  8
0
  6
CONTINUOUS
 62
     7
 10
-481.374130249023
 20
54.8920433044434
 30
0.0
 11
-482.974130249023
 21
54.8920433044434
 31
0.0
  0
LINE
  5
   7CF
  8
0
  6
CONTINUOUS
 62
     7
 10
-481.374130249023
 20
50.9920433044434
 30
0.0
 11
-482.974130249023
 21
50.9920433044434
 31
0.0
  0
LINE
  5
   7D0
  8
0
  6
CONTINUOUS
 62
     7
 10
-481.374130249023
 20
53.9420433044434
 30
0.0
 11
-484.574130249023
 21
53.9420433044434
 31
0.0
  0
LINE
  5
   7D1
  8
0
  6
CONTINUOUS
 62
     7
 10
-481.374130249023
 20
51.9420433044434
 30
0.0
 11
-484.574130249023
 21
51.9420433044434
 31
0.0
  0
LINE
  5
   7D2
  8
0
  6
CONTINUOUS
 62
     7
 10
-481.374130249023
 20
4.89204330444336
 30
0.0
 11
-482.974130249023
 21
4.89204330444336
 31
0.0
  0
LINE
  5
   7D3
  8
0
  6
CONTINUOUS
 62
     7
 10
-481.374130249023
 20
3.94204330444336
 30
0.0
 11
-484.574130249023
 21
3.94204330444336
 31
0.0
  0
LINE
  5
   7D4
  8
0
  6
CONTINUOUS
 62
     7
 10
-481.374130249023
 20
1.94204330444336
 30
0.0
 11
-484.574130249023
 21
1.94204330444336
 31
0.0
  0
LINE
  5
   7D5
  8
0
  6
CONTINUOUS
 62
     7
 10
-481.374130249023
 20
0.992043304443357
 30
0.0
 11
-482.974130249023
 21
0.992043304443357
 31
0.0
  0
LINE
  5
   7D6
  8
0
  6
CONTINUOUS
 62
     7
 10
-482.974130249023
 20
0.992043304443357
 30
0.0
 11
-482.974130249023
 21
4.89204330444336
 31
0.0
  0
LINE
  5
   7D7
  8
0
  6
CONTINUOUS
 62
     7
 10
-484.574130249023
 20
1.94204330444336
 30
0.0
 11
-484.574130249023
 21
3.94204330444336
 31
0.0
  0
INSERT
  5
   7D8
  8
0
  6
CONTINUOUS
 62
     7
  2
*UDIM428
 10
0.0
 20
0.0
 30
0.0
  0
INSERT
  5
   7D9
  8
0
  6
CONTINUOUS
 62
     7
  2
*UDIM429
 10
0.0
 20
0.0
 30
0.0
  0
INSERT
  5
   7DA
  8
0
  6
CONTINUOUS
 62
     7
  2
*UDIM430
 10
0.0
 20
0.0
 30
0.0
  0
INSERT
  5
   7DB
  8
0
  6
CONTINUOUS
 62
     7
  2
*UDIM431
 10
0.0
 20
0.0
 30
0.0
  0
INSERT
  5
   7DC
  8
0
  6
CONTINUOUS
 62
     7
  2
*UDIM432
 10
0.0
 20
0.0
 30
0.0
  0
INSERT
  5
   7DD
  8
0
  6
CONTINUOUS
 62
     7
  2
*UDIM433
 10
0.0
 20
0.0
 30
0.0
  0
TEXT
  5
   7DE
  8
0
  6
CONTINUOUS
 62
     7
 10
-371.837234506784
 20
15.2816976061785
 30
0.0
 40
3.00000002980232
  1
=      =
 50
89.9999999480344
 41
0.916666604744064
 72
     2
 11
-371.837234487357
 21
36.7316963659052
 31
0.0
  0
INSERT
  5
   7DF
  8
0
  6
CONTINUOUS
 62
     7
  2
*UDIM434
 10
0.0
 20
0.0
 30
0.0
  0
INSERT
  5
   7E0
  8
0
  6
CONTINUOUS
 62
     7
  2
*UDIM435
 10
0.0
 20
0.0
 30
0.0
  0
INSERT
  5
   7E1
  8
0
  6
CONTINUOUS
 62
     7
  2
*UDIM436
 10
0.0
 20
0.0
 30
0.0
  0
INSERT
  5
   7E2
  8
0
  6
CONTINUOUS
 62
     7
  2
*UDIM437
 10
0.0
 20
0.0
 30
0.0
  0
TEXT
  5
   7E3
  8
0
  6
CONTINUOUS
 62
     7
 10
-364.112161953615
 20
25.4283233932568
 30
0.0
 40
3.00000002980232
  1
X
 50
359.999999948034
 41
0.916666604744064
 72
     2
 11
-361.912162084746
 21
25.4283233912726
 31
0.0
  0
TEXT
  5
   7E4
  8
0
  6
CONTINUOUS
 62
     7
 10
-511.542356808352
 20
25.0415359787061
 30
0.0
 40
3.00000002980232
  1
X
 50
359.999999948034
 41
0.916666604744064
 72
     2
 11
-509.342356939482
 21
25.0415359767218
 31
0.0
  0
INSERT
  5
   7E5
  8
0
  6
CONTINUOUS
 62
     7
  2
*UDIM438
 10
0.0
 20
0.0
 30
0.0
  0
ENDSEC
  0
EOF
