  0
SECTION
  2
HEADER
  9
$ACADVER
  1
AC1009
  9
$INSBASE
 10
0.0
 20
0.0
 30
0.0
  9
$EXTMIN
 10
-15.25
 20
-6.25
 30
0.0
  9
$EXTMAX
 10
812.25
 20
580.25
 30
0.0
  9
$LIMMIN
 10
0.0
 20
0.0
  9
$LIMMAX
 10
841.0
 20
594.0
  9
$ORTHOMODE
 70
     1
  9
$REGENMODE
 70
     0
  9
$FILLMODE
 70
     1
  9
$QTEXTMODE
 70
     0
  9
$MIRRTEXT
 70
     1
  9
$DRAGMODE
 70
     2
  9
$LTSCALE
 40
10.0
  9
$OSMODE
 70
     0
  9
$ATTMODE
 70
     1
  9
$TEXTSIZE
 40
3.15
  9
$TRACEWID
 40
0.05
  9
$TEXTSTYLE
  7
ISO
  9
$CLAYER
  8
01
  9
$CELTYPE
  6
BYLAYER
  9
$CECOLOR
 62
   256
  9
$DIMSCALE
 40
1.0
  9
$DIMASZ
 40
2.5
  9
$DIMEXO
 40
0.0
  9
$DIMDLI
 40
10.0
  9
$DIMRND
 40
0.0
  9
$DIMDLE
 40
0.0
  9
$DIMEXE
 40
2.0
  9
$DIMTP
 40
0.0
  9
$DIMTM
 40
0.0
  9
$DIMTXT
 40
3.15
  9
$DIMCEN
 40
1.0
  9
$DIMTSZ
 40
0.0
  9
$DIMTOL
 70
     0
  9
$DIMLIM
 70
     0
  9
$DIMTIH
 70
     0
  9
$DIMTOH
 70
     0
  9
$DIMSE1
 70
     0
  9
$DIMSE2
 70
     0
  9
$DIMTAD
 70
     0
  9
$DIMZIN
 70
     8
  9
$DIMBLK
  1
DIMPIL
  9
$DIMASO
 70
     1
  9
$DIMSHO
 70
     1
  9
$DIMPOST
  1

  9
$DIMAPOST
  1

  9
$DIMALT
 70
     0
  9
$DIMALTD
 70
     2
  9
$DIMALTF
 40
25.4
  9
$DIMLFAC
 40
1.0
  9
$DIMTOFL
 70
     1
  9
$DIMTVP
 40
1.0
  9
$DIMTIX
 70
     0
  9
$DIMSOXD
 70
     0
  9
$DIMSAH
 70
     0
  9
$DIMBLK1
  1
DIMPIL
  9
$DIMBLK2
  1
DIMPIL
  9
$DIMSTYLE
  2
MEKISO
  9
$DIMCLRD
 70
   256
  9
$DIMCLRE
 70
   256
  9
$DIMCLRT
 70
     6
  9
$DIMTFAC
 40
1.0
  9
$DIMGAP
 40
0.1
  9
$LUNITS
 70
     2
  9
$LUPREC
 70
     2
  9
$SKETCHINC
 40
0.1
  9
$FILLETRAD
 40
0.0
  9
$AUNITS
 70
     0
  9
$AUPREC
 70
     1
  9
$MENU
  1
c:\mek\mek
  9
$ELEVATION
 40
0.0
  9
$PELEVATION
 40
0.0
  9
$THICKNESS
 40
0.0
  9
$LIMCHECK
 70
     0
  9
$BLIPMODE
 70
     0
  9
$CHAMFERA
 40
0.0
  9
$CHAMFERB
 40
0.0
  9
$SKPOLY
 70
     0
  9
$TDCREATE
 40
2449235.476121296
  9
$TDUPDATE
 40
2451229.381042476
  9
$TDINDWG
 40
0.2279231481
  9
$TDUSRTIMER
 40
0.2279231481
  9
$USRTIMER
 70
     1
  9
$ANGBASE
 50
0.0
  9
$ANGDIR
 70
     0
  9
$PDMODE
 70
     0
  9
$PDSIZE
 40
0.0
  9
$PLINEWID
 40
0.0
  9
$COORDS
 70
     2
  9
$SPLFRAME
 70
     0
  9
$SPLINETYPE
 70
     6
  9
$SPLINESEGS
 70
     8
  9
$ATTDIA
 70
     0
  9
$ATTREQ
 70
     1
  9
$HANDLING
 70
     0
  9
$HANDSEED
  5
0
  9
$SURFTAB1
 70
     6
  9
$SURFTAB2
 70
     6
  9
$SURFTYPE
 70
     6
  9
$SURFU
 70
     6
  9
$SURFV
 70
     6
  9
$UCSNAME
  2

  9
$UCSORG
 10
0.0
 20
0.0
 30
0.0
  9
$UCSXDIR
 10
1.0
 20
0.0
 30
0.0
  9
$UCSYDIR
 10
0.0
 20
1.0
 30
0.0
  9
$PUCSNAME
  2

  9
$PUCSORG
 10
0.0
 20
0.0
 30
0.0
  9
$PUCSXDIR
 10
1.0
 20
0.0
 30
0.0
  9
$PUCSYDIR
 10
0.0
 20
1.0
 30
0.0
  9
$USERI1
 70
   111
  9
$USERI2
 70
     0
  9
$USERI3
 70
     0
  9
$USERI4
 70
     0
  9
$USERI5
 70
     0
  9
$USERR1
 40
1.0
  9
$USERR2
 40
0.0
  9
$USERR3
 40
0.0
  9
$USERR4
 40
0.0
  9
$USERR5
 40
0.0
  9
$WORLDVIEW
 70
     1
  9
$SHADEDGE
 70
     3
  9
$SHADEDIF
 70
    70
  9
$TILEMODE
 70
     1
  9
$MAXACTVP
 70
    16
  9
$PINSBASE
 10
0.0
 20
0.0
 30
0.0
  9
$PLIMCHECK
 70
     0
  9
$PEXTMIN
 10
1.000000E+20
 20
1.000000E+20
 30
1.000000E+20
  9
$PEXTMAX
 10
-1.000000E+20
 20
-1.000000E+20
 30
-1.000000E+20
  9
$PLIMMIN
 10
0.0
 20
0.0
  9
$PLIMMAX
 10
12.0
 20
9.0
  9
$UNITMODE
 70
     0
  9
$VISRETAIN
 70
     0
  9
$PLINEGEN
 70
     0
  9
$PSLTSCALE
 70
     0
  9
$TREEDEPTH
 70
  3020
  9
$DWGCODEPAGE
  3
undefined
  0
ENDSEC
  0
SECTION
  2
TABLES
  0
TABLE
  2
VPORT
 70
     2
  0
VPORT
  2
*ACTIVE
 70
     0
 10
0.0
 20
0.0
 11
1.0
 21
1.0
 12
478.895953
 22
294.619161
 13
0.0
 23
0.0
 14
5.0
 24
5.0
 15
10.0
 25
10.0
 16
0.0
 26
0.0
 36
1.0
 17
0.0
 27
0.0
 37
0.0
 40
601.738323
 41
1.642395
 42
50.0
 43
0.0
 44
0.0
 50
0.0
 51
0.0
 71
     0
 72
   200
 73
     1
 74
     0
 75
     0
 76
     0
 77
     0
 78
     0
  0
ENDTAB
  0
TABLE
  2
LTYPE
 70
     4
  0
LTYPE
  2
CONTINUOUS
 70
    64
  3
Solid line
 72
    65
 73
     0
 40
0.0
  0
LTYPE
  2
HIDDEN
 70
    64
  3
_ _ _ _ _ _ _ _ _ _ _ _ _ _ _ _ _ _ _ _ _ _ _
 72
    65
 73
     2
 40
0.375
 49
0.25
 49
-0.125
  0
LTYPE
  2
DASHDOT
 70
    64
  3
__ . __ . __ . __ . __ . __ . __ . __ . __ . __
 72
    65
 73
     4
 40
1.0
 49
0.5
 49
-0.25
 49
0.0
 49
-0.25
  0
LTYPE
  2
PHANTOM
 70
    64
  3
_____ _ _ _____ _ _ _____ _ _ _____ _ _ ____
 72
    65
 73
     6
 40
2.5
 49
1.25
 49
-0.25
 49
0.25
 49
-0.25
 49
0.25
 49
-0.25
  0
ENDTAB
  0
TABLE
  2
LAYER
 70
    20
  0
LAYER
  2
0
 70
    64
 62
     7
  6
CONTINUOUS
  0
LAYER
  2
01
 70
    64
 62
     3
  6
CONTINUOUS
  0
LAYER
  2
02
 70
    64
 62
     1
  6
CONTINUOUS
  0
LAYER
  2
03
 70
    64
 62
     3
  6
HIDDEN
  0
LAYER
  2
04
 70
    64
 62
     4
  6
HIDDEN
  0
LAYER
  2
05
 70
    64
 62
     6
  6
DASHDOT
  0
LAYER
  2
06
 70
     0
 62
     3
  6
DASHDOT
  0
LAYER
  2
07
 70
     0
 62
     6
  6
PHANTOM
  0
LAYER
  2
08
 70
    64
 62
     2
  6
CONTINUOUS
  0
LAYER
  2
09
 70
    64
 62
     2
  6
CONTINUOUS
  0
LAYER
  2
10
 70
     0
 62
     1
  6
CONTINUOUS
  0
LAYER
  2
11
 70
    64
 62
     7
  6
CONTINUOUS
  0
LAYER
  2
12
 70
    64
 62
     7
  6
CONTINUOUS
  0
LAYER
  2
13
 70
     0
 62
     7
  6
CONTINUOUS
  0
LAYER
  2
14
 70
     0
 62
     7
  6
CONTINUOUS
  0
LAYER
  2
15
 70
    64
 62
     5
  6
CONTINUOUS
  0
LAYER
  2
16
 70
     0
 62
     7
  6
CONTINUOUS
  0
LAYER
  2
NODES
 70
     0
 62
     7
  6
CONTINUOUS
  0
LAYER
  2
MASTERLINE_CFG
 70
    69
 62
     7
  6
CONTINUOUS
  0
LAYER
  2
DEFPOINTS
 70
    64
 62
     7
  6
CONTINUOUS
  0
ENDTAB
  0
TABLE
  2
STYLE
 70
     5
  0
STYLE
  2
STANDARD
 70
     0
 40
3.15
 41
1.0
 50
0.0
 71
     0
 42
7.0
  3
SIMPLEX
  4

  0
STYLE
  2
SIMPLEX
 70
     0
 40
3.15
 41
1.0
 50
0.0
 71
     0
 42
5.0
  3
SIMPLEX
  4

  0
STYLE
  2
VERTIKAL
 70
     4
 40
3.15
 41
1.0
 50
0.0
 71
     0
 42
7.0
  3
SIMPLEX
  4

  0
STYLE
  2
ISO
 70
    64
 40
3.15
 41
1.0
 50
0.0
 71
     0
 42
3.15
  3
ISO
  4

  0
STYLE
  2
ROMANS
 70
    64
 40
3.15
 41
0.7
 50
0.0
 71
     0
 42
5.0
  3
romans
  4

  0
ENDTAB
  0
TABLE
  2
VIEW
 70
     0
  0
ENDTAB
  0
TABLE
  2
UCS
 70
     0
  0
ENDTAB
  0
TABLE
  2
APPID
 70
     3
  0
APPID
  2
ACAD
 70
    64
  0
APPID
  2
MASTERLINE_CFG
 70
    64
  0
APPID
  2
MASTERLINE_CFG_LAYER
 70
    64
  0
ENDTAB
  0
TABLE
  2
DIMSTYLE
 70
     1
  0
DIMSTYLE
  2
MEKISO
 70
     0
  3

  4

  5
DIMPIL
  6
DIMPIL
  7
DIMPIL
 40
1.0
 41
2.5
 42
0.0
 43
10.0
 44
2.0
 45
0.0
 46
0.0
 47
0.0
 48
0.0
140
3.15
141
1.0
142
0.0
143
25.4
144
1.0
145
1.0
146
1.0
147
0.1
 71
     0
 72
     0
 73
     0
 74
     0
 75
     0
 76
     0
 77
     0
 78
     8
170
     0
171
     2
172
     1
173
     0
174
     0
175
     0
176
   256
177
   256
178
     6
  0
ENDTAB
  0
ENDSEC
  0
SECTION
  2
BLOCKS
  0
BLOCK
  8
0
  2
PURGE_ME_3
 70
    66
 10
0.0
 20
0.0
 30
0.0
  3
PURGE_ME_3
  0
ATTDEF
  8
11
 10
3.546788
 20
37.7217
 30
0.0
 40
3.15
  1
3.15
  3
Måttextens höjd
  2
G:HTXT
 70
     1
  7
ISO
 72
     1
 11
9.396788
 21
37.7217
 31
0.0
  0
ATTDEF
  8
11
 10
3.276772
 20
34.071793
 30
0.0
 40
3.15
  1
2.0
  3
Måttgränslinjeutbredning
  2
G:MEXE
 70
     1
  7
ISO
 72
     1
 11
9.126772
 21
34.071793
 31
0.0
  0
ATTDEF
  8
11
 10
4.154264
 20
30.286876
 30
0.0
 40
3.15
  1
1.5
  3
Måttextens förskjutning
  2
G:MTI1
 70
     1
  7
ISO
 72
     1
 11
8.991764
 21
30.286876
 31
0.0
  0
ATTDEF
  8
11
 10
4.165538
 20
26.501959
 30
0.0
 40
3.15
  1
1.5
  3
Radavstånd för måttext
  2
G:MTI2
 70
     1
  7
ISO
 72
     1
 11
9.396788
 21
26.501959
 31
0.0
  0
ATTDEF
  8
11
 10
3.501772
 20
22.987061
 30
0.0
 40
3.15
  1
8
  3
Små mått, sida 1
  2
G:MOT1
 70
     1
  7
ISO
 72
     1
 11
9.126772
 21
22.987061
 31
0.0
  0
ATTDEF
  8
11
 10
3.24303
 20
19.337153
 30
0.0
 40
3.15
  1
6
  3
Små mått, sida 2
  2
G:MOT2
 70
     1
  7
ISO
 72
     1
 11
9.26178
 21
19.337153
 31
0.0
  0
ATTDEF
  8
11
 10
4.311702
 20
15.687246
 30
0.0
 40
3.15
  1
PILHUVUD
  3
Måttgränsmarkering
  2
G:PIL
 70
     1
  7
ISO
 72
     1
 11
7.911702
 21
15.687246
 31
0.0
  0
ATTDEF
  8
11
 10
3.647783
 20
11.990876
 30
0.0
 40
3.15
  1
N
  3
Parallell bas-text J/N
  2
G:FBPA
 70
     1
  7
ISO
 72
     1
 11
9.385283
 21
11.990876
 31
0.0
  0
ATTDEF
  8
11
 10
3.295045
 20
8.398658
 30
0.0
 40
3.15
  1
J
  3
Decimalkomma J/N
  2
G:MDEC
 70
     1
  7
ISO
 72
     1
 11
9.145045
 21
8.398658
 31
0.0
  0
ATTDEF
  8
11
 10
3.207932
 20
4.663459
 30
0.0
 40
3.15
  1
1
  3
Alternativ skalfaktor
  2
G:MSCA
 70
     1
  7
ISO
 72
     1
 11
9.282932
 21
4.663459
 31
0.0
  0
ATTDEF
  8
11
 10
0.701035
 20
1.087866
 30
0.0
 40
3.15
  1
N
  3
Toleranssymbol J/N
  2
G:MTOL
 70
     1
  7
ISO
  0
ENDBLK
  8
0
  0
BLOCK
  8
0
  2
PURGE_ME_2
 70
    66
 10
0.0
 20
0.0
 30
0.0
  3
PURGE_ME_2
  0
ATTDEF
  8
11
 10
-4.5
 20
-1.33758
 30
0.0
 40
3.15
  1
N
  3
Lagergrupper eller ej J/N
  2
G:LGR
 70
     1
  7
ISO
 72
     1
 11
0.0
 21
-1.33758
 31
0.0
  0
ATTDEF
  8
11
 10
-5.7375
 20
-8.471338
 30
0.0
 40
3.15
  1
-1
  3
Aktiv lagergrupp
  2
G:LG_A
 70
     1
  7
ISO
 72
     1
 11
0.0
 21
-8.471338
 31
0.0
  0
ENDBLK
  8
0
  0
BLOCK
  8
0
  2
PURGE_ME_1
 70
    66
 10
0.0
 20
0.0
 30
0.0
  3
PURGE_ME_1
  0
ATTDEF
  8
11
 10
-5.7375
 20
-1.575
 30
0.0
 40
3.15
  1
J
  3
Utskärningshörn J/N
  2
G:UTSH
 70
     1
  7
ISO
 72
     4
 11
0.0
 21
0.0
 31
0.0
  0
ATTDEF
  8
11
 10
-5.85
 20
-6.575
 30
0.0
 40
3.15
  1
J
  3
Orienteringsmärken J/N
  2
G:CENM
 70
     1
  7
ISO
 72
     4
 11
0.0
 21
-5.0
 31
0.0
  0
ATTDEF
  8
11
 10
-5.389574
 20
-11.65705
 30
0.0
 40
3.15
  1
5
  3
Delning SNITT
  2
G:DHA
 70
     1
  7
ISO
 72
     4
 11
-0.664574
 21
-10.08205
 31
0.0
  0
ATTDEF
  8
11
 10
-4.602074
 20
-16.65705
 30
0.0
 40
3.15
  1
45
  3
Vinkel SNITT
  2
G:DVI
 70
     1
  7
ISO
 72
     4
 11
-0.664574
 21
-15.08205
 31
0.0
  0
ATTDEF
  8
11
 10
-6.514574
 20
-21.65705
 30
0.0
 40
3.15
  1
POS
  3
Positionsblock
  2
G:POBA
 70
     1
  7
ISO
 72
     4
 11
-0.664574
 21
-20.08205
 31
0.0
  0
ATTDEF
  8
11
 10
-6.514574
 20
-26.65705
 30
0.0
 40
3.15
  1
7
  3
Positionradie
  2
G:PORA
 70
     1
  7
ISO
 72
     4
 11
-0.664574
 21
-25.08205
 31
0.0
  0
ATTDEF
  8
11
 10
-6.289574
 20
-31.65705
 30
0.0
 40
3.15
  1
C
  3
Positionsform (C/K)
  2
G:POFO
 70
     1
  7
ISO
 72
     4
 11
-0.664574
 21
-30.08205
 31
0.0
  0
ATTDEF
  8
11
 10
-6.514574
 20
-36.65705
 30
0.0
 40
3.15
  1
PI
  3
POS-anslut. (PI/PU/ST)
  2
G:POAN
 70
     1
  7
ISO
 72
     4
 11
-0.664574
 21
-35.08205
 31
0.0
  0
ATTDEF
  8
11
 10
-6.075
 20
-41.355886
 30
0.0
 40
3.15
  1
5
  3
Stycklistans radavstånd
  2
G:RAAV
 70
     1
  7
ISO
 72
     1
 11
0.0
 21
-41.355886
 31
0.0
  0
ATTDEF
  8
11
 10
-5.9625
 20
-46.575
 30
0.0
 40
3.15
  1
7
  3
Stycklisthuvudets höjd
  2
G:HUAV
 70
     1
  7
ISO
 72
     4
 11
0.0
 21
-45.0
 31
0.0
  0
ATTDEF
  8
11
 10
-5.7375
 20
-51.114155
 30
0.0
 40
3.15
  1
N
  3
Summera stycklista J/N
  2
G:S_SU
 70
     1
  7
ISO
 72
     1
 11
0.0
 21
-51.114155
 31
0.0
  0
ATTDEF
  8
11
 10
-5.5125
 20
-56.575
 30
0.0
 40
3.15
  1
,2,
  3
Kolumner att summera
  2
G:SU_L
 70
     1
  7
ISO
 72
     4
 11
0.0
 21
-55.0
 31
0.0
  0
ATTDEF
  8
11
 10
-5.7375
 20
-61.114155
 30
0.0
 40
3.15
  1
REVRING
  3
Revisionsblock
  2
G:REBA
 70
     1
  7
ISO
 72
     1
 11
0.0
 21
-61.114155
 31
0.0
  0
ATTDEF
  8
11
 10
-5.7375
 20
-66.575
 30
0.0
 40
3.15
  1
3.5
  3
Radie på revisionsringen
  2
G:RERA
 70
     1
  7
ISO
 72
     4
 11
0.0
 21
-65.0
 31
0.0
  0
ATTDEF
  8
11
 10
-2.5875
 20
-71.575
 30
0.0
 40
3.15
  1
01
  3
Grov heldragen linje
  2
LA1
 70
     1
  7
ISO
 72
     4
 11
0.0
 21
-70.0
 31
0.0
  0
ATTDEF
  8
11
 10
-2.98125
 20
-76.575
 30
0.0
 40
3.15
  1
02
  3
Fin heldragen linje
  2
LA2
 70
     1
  7
ISO
 72
     4
 11
0.0
 21
-75.0
 31
0.0
  0
ATTDEF
  8
11
 10
-2.8125
 20
-81.575
 30
0.0
 40
3.15
  1
03
  3
Grov streckad linje
  2
LA3
 70
     1
  7
ISO
 72
     4
 11
0.0
 21
-80.0
 31
0.0
  0
ATTDEF
  8
11
 10
-2.925
 20
-86.575
 30
0.0
 40
3.15
  1
04
  3
Fin streckad linje
  2
LA4
 70
     1
  7
ISO
 72
     4
 11
0.0
 21
-85.0
 31
0.0
  0
ATTDEF
  8
11
 10
-2.8125
 20
-91.575
 30
0.0
 40
3.15
  1
05
  3
Fin centrumlinje
  2
LA5
 70
     1
  7
ISO
 72
     4
 11
0.0
 21
-90.0
 31
0.0
  0
ATTDEF
  8
11
 10
-2.925
 20
-96.575
 30
0.0
 40
3.15
  1
06
  3
Grov centrumlinje
  2
LA6
 70
     1
  7
ISO
 72
     4
 11
0.0
 21
-95.0
 31
0.0
  0
ATTDEF
  8
11
 10
-2.925
 20
-101.575
 30
0.0
 40
3.15
  1
07
  3
Dubbelpunktstreckad
  2
LA7
 70
     1
  7
ISO
 72
     4
 11
0.0
 21
-100.0
 31
0.0
  0
ATTDEF
  8
11
 10
-2.925
 20
-106.575
 30
0.0
 40
3.15
  1
08
  3
Dim o toleranslinjer
  2
LA8
 70
     1
  7
ISO
 72
     4
 11
0.0
 21
-105.0
 31
0.0
  0
ATTDEF
  8
11
 10
-2.925
 20
-111.575
 30
0.0
 40
3.15
  1
09
  3
Positionslinjer
  2
LA9
 70
     1
  7
ISO
 72
     4
 11
0.0
 21
-110.0
 31
0.0
  0
ATTDEF
  8
11
 10
-3.7125
 20
-116.575
 30
0.0
 40
3.15
  1
10
  3
Snittmarkeringar
  2
LA10
 70
     1
  7
ISO
 72
     4
 11
0.0
 21
-115.0
 31
0.0
  0
ATTDEF
  8
11
 10
-3.375
 20
-121.575
 30
0.0
 40
3.15
  1
11
  3
Text
  2
LA11
 70
     1
  7
ISO
 72
     4
 11
0.0
 21
-120.0
 31
0.0
  0
ATTDEF
  8
11
 10
-3.76875
 20
-126.575
 30
0.0
 40
3.15
  1
12
  3
Dimtext
  2
LA12
 70
     1
  7
ISO
 72
     4
 11
0.0
 21
-125.0
 31
0.0
  0
ATTDEF
  8
11
 10
-3.6
 20
-131.575
 30
0.0
 40
3.15
  1
13
  3
Vakant
  2
LA13
 70
     1
  7
ISO
 72
     4
 11
0.0
 21
-130.0
 31
0.0
  0
ATTDEF
  8
11
 10
-3.7125
 20
-136.575
 30
0.0
 40
3.15
  1
14
  3
Konstruktionslinjer
  2
LA14
 70
     1
  7
ISO
 72
     4
 11
0.0
 21
-135.0
 31
0.0
  0
ATTDEF
  8
11
 10
-3.6
 20
-141.575
 30
0.0
 40
3.15
  1
15
  3
Ritram
  2
LA15
 70
     1
  7
ISO
 72
     4
 11
0.0
 21
-140.0
 31
0.0
  0
ATTDEF
  8
11
 10
-3.7125
 20
-146.575
 30
0.0
 40
3.15
  1
16
  3
Information
  2
LA16
 70
     1
  7
ISO
 72
     4
 11
0.0
 21
-145.0
 31
0.0
  0
ENDBLK
  8
0
  0
BLOCK
  8
0
  2
A1L
 70
    66
 10
0.0
 20
0.0
 30
0.0
  3
A1L
  0
ATTDEF
  8
11
 62
     3
 10
-75.069643
 20
9.5
 30
0.0
 40
6.5
  1

  3
Document No.
  2
DOCNO
 70
     0
 41
0.9
  7
ISO
 72
     4
 11
-65.25
 21
12.75
 31
0.0
  0
ATTDEF
  8
11
 62
     7
 10
-115.5
 20
40.25
 30
0.0
 40
4.65
  1

  3
Title (engelska)
  2
TITLE1
 70
     0
 41
0.9
  7
ISO
  0
ATTDEF
  8
11
 62
     7
 10
-115.5
 20
27.5
 30
0.0
 40
4.65
  1

  3
Title  (svenska)
  2
TITLE2
 70
     0
 41
0.9
  7
ISO
  0
ATTDEF
  8
11
 62
     7
 10
-182.0
 20
14.75
 30
0.0
 40
4.65
  1

  3
Filnamn(XXXX.DWG)
  2
FILENAME
 70
     0
 41
0.9
  7
ISO
  0
ATTDEF
  8
11
 62
     7
 10
-133.451786
 20
14.75
 30
0.0
 40
4.65
  1

  3
Skala
  2
SCALE
 70
     0
 41
0.9
  7
ISO
 72
     2
 11
-120.0
 21
14.75
 31
0.0
  0
ATTDEF
  8
11
 62
     7
 10
-253.5
 20
40.25
 30
0.0
 40
4.65
  1

  3
Prepared
  2
PREPARED
 70
     0
 41
0.9
  7
ISO
  0
ATTDEF
  8
11
 62
     7
 10
-209.879781
 20
45.803279
 30
0.0
 40
3.15
  1
P
  3
P granskning
  2
P
 70
     0
 41
0.9
  7
ISO
  0
ATTDEF
  8
11
 62
     7
 10
-195.89071
 20
45.803279
 30
0.0
 40
3.15
  1
Q
  3
Q granskning
  2
Q
 70
     0
 41
0.9
  7
ISO
  0
ATTDEF
  8
11
 62
     7
 10
-253.5
 20
27.5
 30
0.0
 40
4.65
  1

  3
Approved
  2
APPROVED
 70
     0
 41
0.9
  7
ISO
  0
ATTDEF
  8
11
 62
     7
 10
-203.935714
 20
27.5
 30
0.0
 40
4.65
  1
-
  3
Iss Date (ÅÅMMDD)
  2
ISSDATE
 70
     0
 41
0.9
  7
ISO
 72
     2
 11
-186.0
 21
27.5
 31
0.0
  0
ATTDEF
  8
11
 62
     7
 10
-253.5
 20
14.75
 30
0.0
 40
4.65
  1

  3
Revision
  2
REVISION
 70
     0
 41
0.9
  7
ISO
  0
ATTDEF
  8
11
 62
     7
 10
-182.0
 20
40.25
 30
0.0
 40
4.65
  1
SECRL/KA
  3
Responsible dept.
  2
RESPDEPT
 70
     0
 41
0.9
  7
ISO
  0
ATTDEF
  8
11
 62
     7
 10
-182.0
 20
27.5
 30
0.0
 40
4.65
  1

  3
Take over dept.
  2
TAKEOVDEPT
 70
     0
 41
0.9
  7
ISO
  0
ATTDEF
  8
11
 62
     7
 10
-11.780179
 20
28.175
 30
0.0
 40
4.65
  1
82
  3
Language (82=E,S)
  2
LANG
 70
     0
 41
0.9
  7
ISO
 72
     4
 11
-6.25
 21
30.5
 31
0.0
  0
ATTDEF
  8
11
 62
     7
 10
-12.975893
 20
2.675
 30
0.0
 40
4.65
  1
1
  3
Sheet
  2
SHEET
 70
     0
 41
0.9
  7
ISO
 72
     4
 11
-6.25
 21
5.0
 31
0.0
  0
ATTDEF
  8
11
 62
     7
 10
-11.780179
 20
15.425
 30
0.0
 40
4.65
  1
-
  3
Cont
  2
CONT
 70
     0
 41
0.9
  7
ISO
 72
     4
 11
-6.25
 21
17.75
 31
0.0
  0
ATTDEF
  8
11
 62
     7
 10
-114.931435
 20
1.996396
 30
0.0
 40
3.156364
  1

  3
Status
  2
STATUS
 70
     0
 41
0.9
  7
ISO
  0
ATTDEF
  8
11
 62
     7
 10
-801.0
 20
564.05
 30
0.0
 40
4.65
  1

  3
Typ
  2
TYPE
 70
     0
 41
0.9
  7
ISO
  0
LINE
  8
15
 10
0.0
 20
12.75
 30
0.0
 11
-13.0
 21
12.75
 31
0.0
  0
LINE
  8
15
 10
-13.0
 20
51.0
 30
0.0
 11
-13.0
 21
0.0
 31
0.0
  0
LINE
  8
15
 10
-117.5
 20
51.0
 30
0.0
 11
-117.5
 21
0.0
 31
0.0
  0
LINE
  8
15
 10
0.0
 20
51.0
 30
0.0
 11
-255.5
 21
51.0
 31
0.0
  0
LINE
  8
02
 10
-197.989071
 20
51.0
 30
0.0
 11
-197.989071
 21
48.202186
 31
0.0
  0
LINE
  8
02
 10
-211.978142
 20
51.0
 30
0.0
 11
-211.978142
 21
48.202186
 31
0.0
  0
LINE
  8
15
 10
-184.0
 20
51.0
 30
0.0
 11
-184.0
 21
12.75
 31
0.0
  0
LINE
  8
15
 10
0.0
 20
38.25
 30
0.0
 11
-255.5
 21
38.25
 31
0.0
  0
LINE
  8
15
 10
0.0
 20
25.5
 30
0.0
 11
-255.5
 21
25.5
 31
0.0
  0
LINE
  8
15
 10
-255.5
 20
51.0
 30
0.0
 11
-255.5
 21
0.0
 31
0.0
  0
TEXT
  8
15
 62
     2
 10
-275.5
 20
2.0
 30
0.0
 40
1.62
  1
Year    Week
  7
ISO
  0
TEXT
  8
15
 62
     2
 10
-286.5
 20
2.0
 30
0.0
 40
1.62
  1
Appd
  7
ISO
  0
TEXT
  8
15
 62
     2
 10
-336.5
 20
2.0
 30
0.0
 40
1.62
  1
Revision
  7
ISO
  0
TEXT
  8
15
 62
     2
 10
-348.0
 20
2.0
 30
0.0
 40
1.62
  1
Rev ind
 41
1.183848
  7
ISO
 72
     5
 11
-340.46565
 21
2.0
 31
0.0
  0
LINE
  8
15
 10
-277.0
 20
0.0
 30
0.0
 11
-277.0
 21
7.0
 31
0.0
  0
LINE
  8
15
 10
-287.5
 20
0.0
 30
0.0
 11
-287.5
 21
7.0
 31
0.0
  0
LINE
  8
15
 10
-339.0
 20
0.0
 30
0.0
 11
-339.0
 21
7.0
 31
0.0
  0
LINE
  8
15
 10
-349.5
 20
7.0
 30
0.0
 11
-255.5
 21
7.0
 31
0.0
  0
LINE
  8
15
 10
-349.5
 20
0.0
 30
0.0
 11
-349.5
 21
7.0
 31
0.0
  0
TEXT
  8
11
 62
     2
 10
-130.228509
 20
21.119054
 30
0.0
 40
3.15
  1
Scale
 41
0.8
  7
ISO
  0
LINE
  8
15
 10
-117.5
 20
12.75
 30
0.0
 11
-255.5
 21
12.75
 31
0.0
  0
INSERT
  8
0
 66
     1
  2
PURGE_ME_3
 10
-831.0
 20
-10.0
 30
0.0
  0
ATTRIB
  8
11
 10
-824.415712
 20
27.7217
 30
0.0
 40
3.15
  1
3.15
  2
G:HTXT
 70
     1
  7
ISO
 72
     1
 11
-821.603212
 21
27.7217
 31
0.0
  0
ATTRIB
  8
11
 10
-824.123228
 20
24.071793
 30
0.0
 40
3.15
  1
2.0
  2
G:MEXE
 70
     1
  7
ISO
 72
     1
 11
-821.873228
 21
24.071793
 31
0.0
  0
ATTRIB
  8
11
 10
-823.808236
 20
20.286876
 30
0.0
 40
3.15
  1
1.5
  2
G:MTI1
 70
     1
  7
ISO
 72
     1
 11
-822.008236
 21
20.286876
 31
0.0
  0
ATTRIB
  8
11
 10
-823.403212
 20
16.501959
 30
0.0
 40
3.15
  1
1.5
  2
G:MTI2
 70
     1
  7
ISO
 72
     1
 11
-821.603212
 21
16.501959
 31
0.0
  0
ATTRIB
  8
11
 10
-822.660728
 20
12.987061
 30
0.0
 40
3.15
  1
8
  2
G:MOT1
 70
     1
  7
ISO
 72
     1
 11
-821.873228
 21
12.987061
 31
0.0
  0
ATTRIB
  8
11
 10
-822.52572
 20
9.337153
 30
0.0
 40
3.15
  1
6
  2
G:MOT2
 70
     1
  7
ISO
 72
     1
 11
-821.73822
 21
9.337153
 31
0.0
  0
ATTRIB
  8
11
 10
-830.850798
 20
5.687246
 30
0.0
 40
3.15
  1
PILHUVUD
  2
G:PIL
 70
     1
  7
ISO
 72
     1
 11
-823.088298
 21
5.687246
 31
0.0
  0
ATTRIB
  8
11
 10
-822.402217
 20
1.990876
 30
0.0
 40
3.15
  1
N
  2
G:FBPA
 70
     1
  7
ISO
 72
     1
 11
-821.614717
 21
1.990876
 31
0.0
  0
ATTRIB
  8
11
 10
-822.417455
 20
-1.601342
 30
0.0
 40
3.15
  1
J
  2
G:MDEC
 70
     1
  7
ISO
 72
     1
 11
-821.854955
 21
-1.601342
 31
0.0
  0
ATTRIB
  8
11
 10
-822.167068
 20
-5.336541
 30
0.0
 40
3.15
  1
1
  2
G:MSCA
 70
     1
  7
ISO
 72
     1
 11
-821.717068
 21
-5.336541
 31
0.0
  0
ATTRIB
  8
11
 10
-830.298965
 20
-8.912134
 30
0.0
 40
3.15
  1
N
  2
G:MTOL
 70
     1
  7
ISO
  0
SEQEND
  8
0
  0
INSERT
  8
0
 66
     1
  2
PURGE_ME_2
 10
-831.0
 20
-10.0
 30
0.0
  0
ATTRIB
  8
11
 10
-831.7875
 20
-11.33758
 30
0.0
 40
3.15
  1
N
  2
G:LGR
 70
     1
  7
ISO
 72
     1
 11
-831.0
 21
-11.33758
 31
0.0
  0
ATTRIB
  8
11
 10
-832.4625
 20
-18.471338
 30
0.0
 40
3.15
  1
-1
  2
G:LG_A
 70
     1
  7
ISO
 72
     1
 11
-831.0
 21
-18.471338
 31
0.0
  0
SEQEND
  8
0
  0
INSERT
  8
0
 66
     1
  2
PURGE_ME_1
 10
-831.0
 20
-10.0
 30
0.0
  0
ATTRIB
  8
11
 10
-831.5625
 20
-11.575
 30
0.0
 40
3.15
  1
J
  2
G:UTSH
 70
     1
  7
ISO
 72
     4
 11
-831.0
 21
-10.0
 31
0.0
  0
ATTRIB
  8
11
 10
-831.5625
 20
-16.575
 30
0.0
 40
3.15
  1
J
  2
G:CENM
 70
     1
  7
ISO
 72
     4
 11
-831.0
 21
-15.0
 31
0.0
  0
ATTRIB
  8
11
 10
-832.339574
 20
-21.65705
 30
0.0
 40
3.15
  1
5
  2
G:DHA
 70
     1
  7
ISO
 72
     4
 11
-831.664574
 21
-20.08205
 31
0.0
  0
ATTRIB
  8
11
 10
-833.464574
 20
-26.65705
 30
0.0
 40
3.15
  1
45
  2
G:DVI
 70
     1
  7
ISO
 72
     4
 11
-831.664574
 21
-25.08205
 31
0.0
  0
ATTRIB
  8
11
 10
-834.702074
 20
-31.65705
 30
0.0
 40
3.15
  1
POS
  2
G:POBA
 70
     1
  7
ISO
 72
     4
 11
-831.664574
 21
-30.08205
 31
0.0
  0
ATTRIB
  8
11
 10
-832.452074
 20
-36.65705
 30
0.0
 40
3.15
  1
7
  2
G:PORA
 70
     1
  7
ISO
 72
     4
 11
-831.664574
 21
-35.08205
 31
0.0
  0
ATTRIB
  8
11
 10
-832.452074
 20
-41.65705
 30
0.0
 40
3.15
  1
C
  2
G:POFO
 70
     1
  7
ISO
 72
     4
 11
-831.664574
 21
-40.08205
 31
0.0
  0
ATTRIB
  8
11
 10
-832.789574
 20
-46.65705
 30
0.0
 40
3.15
  1
PI
  2
G:POAN
 70
     1
  7
ISO
 72
     4
 11
-831.664574
 21
-45.08205
 31
0.0
  0
ATTRIB
  8
11
 10
-831.675
 20
-51.355886
 30
0.0
 40
3.15
  1
5
  2
G:RAAV
 70
     1
  7
ISO
 72
     1
 11
-831.0
 21
-51.355886
 31
0.0
  0
ATTRIB
  8
11
 10
-831.7875
 20
-56.575
 30
0.0
 40
3.15
  1
7
  2
G:HUAV
 70
     1
  7
ISO
 72
     4
 11
-831.0
 21
-55.0
 31
0.0
  0
ATTRIB
  8
11
 10
-831.7875
 20
-61.114155
 30
0.0
 40
3.15
  1
N
  2
G:S_SU
 70
     1
  7
ISO
 72
     1
 11
-831.0
 21
-61.114155
 31
0.0
  0
ATTRIB
  8
11
 10
-832.6875
 20
-66.35
 30
0.0
 40
3.15
  1
,2,
  2
G:SU_L
 70
     1
  7
ISO
 72
     4
 11
-831.0
 21
-65.0
 31
0.0
  0
ATTRIB
  8
11
 10
-837.8625
 20
-71.114155
 30
0.0
 40
3.15
  1
REVRING
  2
G:REBA
 70
     1
  7
ISO
 72
     1
 11
-831.0
 21
-71.114155
 31
0.0
  0
ATTRIB
  8
11
 10
-833.025
 20
-76.575
 30
0.0
 40
3.15
  1
3.5
  2
G:RERA
 70
     1
  7
ISO
 72
     4
 11
-831.0
 21
-75.0
 31
0.0
  0
ATTRIB
  8
11
 10
-832.575
 20
-81.575
 30
0.0
 40
3.15
  1
01
  2
LA1
 70
     1
  7
ISO
 72
     4
 11
-831.0
 21
-80.0
 31
0.0
  0
ATTRIB
  8
11
 10
-832.96875
 20
-86.575
 30
0.0
 40
3.15
  1
02
  2
LA2
 70
     1
  7
ISO
 72
     4
 11
-831.0
 21
-85.0
 31
0.0
  0
ATTRIB
  8
11
 10
-832.8
 20
-91.575
 30
0.0
 40
3.15
  1
03
  2
LA3
 70
     1
  7
ISO
 72
     4
 11
-831.0
 21
-90.0
 31
0.0
  0
ATTRIB
  8
11
 10
-832.9125
 20
-96.575
 30
0.0
 40
3.15
  1
04
  2
LA4
 70
     1
  7
ISO
 72
     4
 11
-831.0
 21
-95.0
 31
0.0
  0
ATTRIB
  8
11
 10
-832.8
 20
-101.575
 30
0.0
 40
3.15
  1
05
  2
LA5
 70
     1
  7
ISO
 72
     4
 11
-831.0
 21
-100.0
 31
0.0
  0
ATTRIB
  8
11
 10
-832.9125
 20
-106.575
 30
0.0
 40
3.15
  1
06
  2
LA6
 70
     1
  7
ISO
 72
     4
 11
-831.0
 21
-105.0
 31
0.0
  0
ATTRIB
  8
11
 10
-832.9125
 20
-111.575
 30
0.0
 40
3.15
  1
07
  2
LA7
 70
     1
  7
ISO
 72
     4
 11
-831.0
 21
-110.0
 31
0.0
  0
ATTRIB
  8
11
 10
-832.9125
 20
-116.575
 30
0.0
 40
3.15
  1
08
  2
LA8
 70
     1
  7
ISO
 72
     4
 11
-831.0
 21
-115.0
 31
0.0
  0
ATTRIB
  8
11
 10
-832.9125
 20
-121.575
 30
0.0
 40
3.15
  1
09
  2
LA9
 70
     1
  7
ISO
 72
     4
 11
-831.0
 21
-120.0
 31
0.0
  0
ATTRIB
  8
11
 10
-832.575
 20
-126.575
 30
0.0
 40
3.15
  1
10
  2
LA10
 70
     1
  7
ISO
 72
     4
 11
-831.0
 21
-125.0
 31
0.0
  0
ATTRIB
  8
11
 10
-832.2375
 20
-131.575
 30
0.0
 40
3.15
  1
11
  2
LA11
 70
     1
  7
ISO
 72
     4
 11
-831.0
 21
-130.0
 31
0.0
  0
ATTRIB
  8
11
 10
-832.63125
 20
-136.575
 30
0.0
 40
3.15
  1
12
  2
LA12
 70
     1
  7
ISO
 72
     4
 11
-831.0
 21
-135.0
 31
0.0
  0
ATTRIB
  8
11
 10
-832.4625
 20
-141.575
 30
0.0
 40
3.15
  1
13
  2
LA13
 70
     1
  7
ISO
 72
     4
 11
-831.0
 21
-140.0
 31
0.0
  0
ATTRIB
  8
11
 10
-832.575
 20
-146.575
 30
0.0
 40
3.15
  1
14
  2
LA14
 70
     1
  7
ISO
 72
     4
 11
-831.0
 21
-145.0
 31
0.0
  0
ATTRIB
  8
11
 10
-832.4625
 20
-151.575
 30
0.0
 40
3.15
  1
15
  2
LA15
 70
     1
  7
ISO
 72
     4
 11
-831.0
 21
-150.0
 31
0.0
  0
ATTRIB
  8
11
 10
-832.575
 20
-156.575
 30
0.0
 40
3.15
  1
16
  2
LA16
 70
     1
  7
ISO
 72
     4
 11
-831.0
 21
-155.0
 31
0.0
  0
SEQEND
  8
0
  0
ENDBLK
  8
0
  0
BLOCK
  8
0
  2
PILHUVUD
 70
    64
 10
0.0
 20
0.0
 30
0.0
  3
PILHUVUD
  0
SOLID
  8
0
 10
0.0
 20
0.0
 30
0.0
 11
-3.824994
 21
0.50357
 31
0.0
 12
-3.824994
 22
-0.50343
 32
0.0
 13
-3.824994
 23
-0.50343
 33
0.0
  0
ENDBLK
  8
0
  0
BLOCK
  8
0
  2
WA1
 70
    64
 10
0.0
 20
0.0
 30
0.0
  3
WA1
  0
SOLID
  8
01
 10
0.0
 20
287.0
 30
0.0
 11
-6.846343
 21
288.51071
 31
0.0
 12
-6.846343
 22
285.48971
 32
0.0
 13
-6.846343
 23
285.48971
 33
0.0
  0
LINE
  8
04
 10
65.0
 20
574.0
 30
0.0
 11
66.878261
 21
580.0
 31
0.0
  0
LINE
  8
04
 10
-11.70202
 20
328.979658
 30
0.0
 11
0.0
 21
366.361111
 31
0.0
  0
LINE
  8
15
 10
499.0
 20
-3.5
 30
0.0
 11
498.0
 21
-0.5
 31
0.0
  0
LINE
  8
15
 10
499.0
 20
-3.5
 30
0.0
 11
500.0
 21
-0.5
 31
0.0
  0
LINE
  8
15
 10
184.0
 20
-3.5
 30
0.0
 11
185.0
 21
-0.5
 31
0.0
  0
LINE
  8
15
 10
184.0
 20
-3.5
 30
0.0
 11
183.0
 21
-0.5
 31
0.0
  0
LINE
  8
15
 10
374.0
 20
-0.5
 30
0.0
 11
373.0
 21
-3.5
 31
0.0
  0
LINE
  8
15
 10
374.0
 20
-0.5
 30
0.0
 11
375.0
 21
-3.5
 31
0.0
  0
LINE
  8
15
 10
624.0
 20
-0.5
 30
0.0
 11
625.0
 21
-3.5
 31
0.0
  0
LINE
  8
15
 10
624.0
 20
-0.5
 30
0.0
 11
623.0
 21
-3.5
 31
0.0
  0
LINE
  8
15
 10
374.0
 20
574.5
 30
0.0
 11
373.0
 21
577.5
 31
0.0
  0
LINE
  8
15
 10
374.0
 20
574.5
 30
0.0
 11
375.0
 21
577.5
 31
0.0
  0
POLYLINE
  8
01
 66
     1
 10
0.0
 20
0.0
 30
0.0
 40
1.0
 41
1.0
  0
VERTEX
  8
01
 10
-2.948113
 20
287.0
 30
0.0
 50
90.0
  0
VERTEX
  8
01
 10
-11.70202
 20
287.0
 30
0.0
 50
90.0
  0
SEQEND
  8
01
  0
LINE
  8
15
 10
624.0
 20
574.5
 30
0.0
 11
625.0
 21
577.5
 31
0.0
  0
LINE
  8
15
 10
624.0
 20
574.5
 30
0.0
 11
623.0
 21
577.5
 31
0.0
  0
LINE
  8
15
 10
184.0
 20
577.5
 30
0.0
 11
185.0
 21
574.5
 31
0.0
  0
LINE
  8
15
 10
184.0
 20
577.5
 30
0.0
 11
183.0
 21
574.5
 31
0.0
  0
POLYLINE
  8
01
 66
     1
 10
0.0
 20
0.0
 30
0.0
 40
1.0
 41
1.0
  0
VERTEX
  8
01
 10
812.0
 20
287.0
 30
0.0
 50
90.0
  0
VERTEX
  8
01
 10
806.0
 20
287.0
 30
0.0
 50
90.0
  0
SEQEND
  8
01
  0
POLYLINE
  8
01
 66
     1
 10
0.0
 20
0.0
 30
0.0
 40
1.0
 41
1.0
  0
VERTEX
  8
01
 10
395.5
 20
-6.0
 30
0.0
  0
VERTEX
  8
01
 10
395.5
 20
0.0
 30
0.0
  0
SEQEND
  8
01
  0
POLYLINE
  8
01
 66
     1
 10
0.0
 20
0.0
 30
0.0
 40
1.0
 41
1.0
  0
VERTEX
  8
01
 10
395.5
 20
574.0
 30
0.0
  0
VERTEX
  8
01
 10
395.5
 20
580.0
 30
0.0
  0
SEQEND
  8
01
  0
TEXT
  8
15
 62
     2
 10
0.397259
 20
-3.408975
 30
0.0
 40
1.8
  1
(A1)
 41
0.9
  7
ISO
  0
TEXT
  8
15
 10
581.572267
 20
2.0
 30
0.0
 40
4.0
  1
ABB Control
 41
0.7
  7
ROMANS
  0
TEXT
  8
15
 62
     2
 10
692.5
 20
22.5
 30
0.0
 40
1.8
  1
Document No.
 41
0.9
  7
ISO
  0
TEXT
  8
15
 62
     2
 10
794.630882
 20
9.75
 30
0.0
 40
1.8
  1
Sheet
 41
0.9
  7
ISO
  0
TEXT
  8
15
 62
     2
 10
794.630882
 20
22.5
 30
0.0
 40
1.8
  1
Cont.
 41
0.9
  7
ISO
  0
TEXT
  8
15
 62
     2
 10
794.630882
 20
35.25
 30
0.0
 40
1.8
  1
Lang.
 41
0.9
  7
ISO
  0
TEXT
  8
15
 62
     2
 10
692.5
 20
48.0
 30
0.0
 40
1.8
  1
Title
 41
0.9
  7
ISO
  0
TEXT
  8
15
 62
     2
 10
626.0
 20
35.25
 30
0.0
 40
1.8
  1
Take over department
 41
0.9
  7
ISO
  0
TEXT
  8
15
 62
     2
 10
626.0
 20
48.0
 30
0.0
 40
1.8
  1
Responsible department
 41
0.9
  7
ISO
  0
TEXT
  8
15
 62
     2
 10
554.500656
 20
22.5
 30
0.0
 40
1.8
  1
Revision
 41
0.9
  7
ISO
  0
TEXT
  8
15
 62
     2
 10
554.500656
 20
35.25
 30
0.0
 40
1.8
  1
Approved
 41
0.9
  7
ISO
  0
TEXT
  8
15
 62
     2
 10
554.500656
 20
48.0
 30
0.0
 40
1.8
  1
Prepared
 41
0.9
  7
ISO
  0
LINE
  8
05
 10
798.976576
 20
44.625
 30
0.0
 11
804.634131
 21
44.625
 31
0.0
  0
LINE
  8
05
 10
801.805354
 20
47.453777
 30
0.0
 11
801.805354
 21
41.796223
 31
0.0
  0
CIRCLE
  8
02
 10
801.805354
 20
44.625
 30
0.0
 40
1.2
  0
CIRCLE
  8
02
 10
801.805354
 20
44.625
 30
0.0
 40
2.3
  0
LINE
  8
02
 10
794.206482
 20
45.825
 30
0.0
 11
794.206482
 21
43.425
 31
0.0
  0
LINE
  8
02
 10
798.206482
 20
46.925
 30
0.0
 11
798.206482
 21
42.325
 31
0.0
  0
LINE
  8
02
 10
794.206482
 20
45.825
 30
0.0
 11
798.206482
 21
46.925
 31
0.0
  0
LINE
  8
02
 10
794.206482
 20
43.425
 30
0.0
 11
798.206482
 21
42.325
 31
0.0
  0
LINE
  8
05
 10
798.462305
 20
44.625
 30
0.0
 11
793.707286
 21
44.625
 31
0.0
  0
LINE
  8
15
 10
0.0
 20
361.0
 30
0.0
 11
-6.0
 21
361.0
 31
0.0
  0
LINE
  8
15
 10
0.0
 20
435.0
 30
0.0
 11
-6.0
 21
435.0
 31
0.0
  0
LINE
  8
15
 10
0.0
 20
509.0
 30
0.0
 11
-6.0
 21
509.0
 31
0.0
  0
LINE
  8
15
 10
0.0
 20
213.0
 30
0.0
 11
-6.0
 21
213.0
 31
0.0
  0
LINE
  8
15
 10
0.0
 20
65.0
 30
0.0
 11
-6.0
 21
65.0
 31
0.0
  0
LINE
  8
15
 10
812.0
 20
65.0
 30
0.0
 11
806.0
 21
65.0
 31
0.0
  0
LINE
  8
15
 10
812.0
 20
213.0
 30
0.0
 11
806.0
 21
213.0
 31
0.0
  0
LINE
  8
15
 10
812.0
 20
361.0
 30
0.0
 11
806.0
 21
361.0
 31
0.0
  0
LINE
  8
15
 10
812.0
 20
435.0
 30
0.0
 11
806.0
 21
435.0
 31
0.0
  0
LINE
  8
15
 10
812.0
 20
509.0
 30
0.0
 11
806.0
 21
509.0
 31
0.0
  0
LINE
  8
15
 10
812.0
 20
139.0
 30
0.0
 11
806.0
 21
139.0
 31
0.0
  0
POLYLINE
  8
15
 66
     1
 10
0.0
 20
0.0
 30
0.0
  0
VERTEX
  8
15
 10
465.5
 20
574.0
 30
0.0
  0
VERTEX
  8
15
 10
465.5
 20
580.0
 30
0.0
  0
SEQEND
  8
15
  0
POLYLINE
  8
15
 66
     1
 10
0.0
 20
0.0
 30
0.0
  0
VERTEX
  8
15
 10
535.5
 20
574.0
 30
0.0
  0
VERTEX
  8
15
 10
535.5
 20
580.0
 30
0.0
  0
SEQEND
  8
15
  0
POLYLINE
  8
15
 66
     1
 10
0.0
 20
0.0
 30
0.0
  0
VERTEX
  8
15
 10
605.5
 20
574.0
 30
0.0
  0
VERTEX
  8
15
 10
605.5
 20
580.0
 30
0.0
  0
SEQEND
  8
15
  0
POLYLINE
  8
15
 66
     1
 10
0.0
 20
0.0
 30
0.0
  0
VERTEX
  8
15
 10
675.5
 20
574.0
 30
0.0
  0
VERTEX
  8
15
 10
675.5
 20
580.0
 30
0.0
  0
SEQEND
  8
15
  0
POLYLINE
  8
15
 66
     1
 10
0.0
 20
0.0
 30
0.0
  0
VERTEX
  8
15
 10
745.5
 20
574.0
 30
0.0
  0
VERTEX
  8
15
 10
745.5
 20
580.0
 30
0.0
  0
SEQEND
  8
15
  0
POLYLINE
  8
15
 66
     1
 10
0.0
 20
0.0
 30
0.0
  0
VERTEX
  8
15
 10
325.5
 20
574.0
 30
0.0
  0
VERTEX
  8
15
 10
325.5
 20
580.0
 30
0.0
  0
SEQEND
  8
15
  0
POLYLINE
  8
15
 66
     1
 10
0.0
 20
0.0
 30
0.0
  0
VERTEX
  8
15
 10
255.5
 20
574.0
 30
0.0
  0
VERTEX
  8
15
 10
255.5
 20
580.0
 30
0.0
  0
SEQEND
  8
15
  0
POLYLINE
  8
15
 66
     1
 10
0.0
 20
0.0
 30
0.0
  0
VERTEX
  8
15
 10
185.5
 20
574.0
 30
0.0
  0
VERTEX
  8
15
 10
185.5
 20
580.0
 30
0.0
  0
SEQEND
  8
15
  0
POLYLINE
  8
15
 66
     1
 10
0.0
 20
0.0
 30
0.0
  0
VERTEX
  8
15
 10
115.5
 20
574.0
 30
0.0
  0
VERTEX
  8
15
 10
115.5
 20
580.0
 30
0.0
  0
SEQEND
  8
15
  0
POLYLINE
  8
15
 66
     1
 10
0.0
 20
0.0
 30
0.0
  0
VERTEX
  8
15
 10
45.5
 20
574.0
 30
0.0
  0
VERTEX
  8
15
 10
45.5
 20
580.0
 30
0.0
  0
SEQEND
  8
15
  0
POLYLINE
  8
15
 66
     1
 10
0.0
 20
0.0
 30
0.0
  0
VERTEX
  8
15
 10
45.5
 20
-6.0
 30
0.0
  0
VERTEX
  8
15
 10
45.5
 20
0.0
 30
0.0
  0
SEQEND
  8
15
  0
POLYLINE
  8
15
 66
     1
 10
0.0
 20
0.0
 30
0.0
  0
VERTEX
  8
15
 10
115.5
 20
-6.0
 30
0.0
  0
VERTEX
  8
15
 10
115.5
 20
0.0
 30
0.0
  0
SEQEND
  8
15
  0
POLYLINE
  8
15
 66
     1
 10
0.0
 20
0.0
 30
0.0
  0
VERTEX
  8
15
 10
185.5
 20
-6.0
 30
0.0
  0
VERTEX
  8
15
 10
185.5
 20
0.0
 30
0.0
  0
SEQEND
  8
15
  0
POLYLINE
  8
15
 66
     1
 10
0.0
 20
0.0
 30
0.0
  0
VERTEX
  8
15
 10
255.5
 20
-6.0
 30
0.0
  0
VERTEX
  8
15
 10
255.5
 20
0.0
 30
0.0
  0
SEQEND
  8
15
  0
POLYLINE
  8
15
 66
     1
 10
0.0
 20
0.0
 30
0.0
  0
VERTEX
  8
15
 10
325.5
 20
-6.0
 30
0.0
  0
VERTEX
  8
15
 10
325.5
 20
0.0
 30
0.0
  0
SEQEND
  8
15
  0
POLYLINE
  8
15
 66
     1
 10
0.0
 20
0.0
 30
0.0
  0
VERTEX
  8
15
 10
745.5
 20
-6.0
 30
0.0
  0
VERTEX
  8
15
 10
745.5
 20
0.0
 30
0.0
  0
SEQEND
  8
15
  0
POLYLINE
  8
15
 66
     1
 10
0.0
 20
0.0
 30
0.0
  0
VERTEX
  8
15
 10
675.5
 20
-6.0
 30
0.0
  0
VERTEX
  8
15
 10
675.5
 20
0.0
 30
0.0
  0
SEQEND
  8
15
  0
POLYLINE
  8
15
 66
     1
 10
0.0
 20
0.0
 30
0.0
  0
VERTEX
  8
15
 10
605.5
 20
-6.0
 30
0.0
  0
VERTEX
  8
15
 10
605.5
 20
0.0
 30
0.0
  0
SEQEND
  8
15
  0
POLYLINE
  8
15
 66
     1
 10
0.0
 20
0.0
 30
0.0
  0
VERTEX
  8
15
 10
535.5
 20
-6.0
 30
0.0
  0
VERTEX
  8
15
 10
535.5
 20
0.0
 30
0.0
  0
SEQEND
  8
15
  0
POLYLINE
  8
15
 66
     1
 10
0.0
 20
0.0
 30
0.0
  0
VERTEX
  8
15
 10
465.5
 20
-6.0
 30
0.0
  0
VERTEX
  8
15
 10
465.5
 20
0.0
 30
0.0
  0
SEQEND
  8
15
  0
TEXT
  8
11
 10
807.973656
 20
547.178582
 30
0.0
 40
3.5
  1
A
 41
0.7
  7
ROMANS
  0
TEXT
  8
11
 10
807.973656
 20
473.178582
 30
0.0
 40
3.5
  1
B
 41
0.7
  7
ROMANS
  0
TEXT
  8
11
 10
807.973656
 20
399.178582
 30
0.0
 40
3.5
  1
C
 41
0.7
  7
ROMANS
  0
TEXT
  8
11
 10
807.973656
 20
325.178582
 30
0.0
 40
3.5
  1
D
 41
0.7
  7
ROMANS
  0
TEXT
  8
11
 10
807.973656
 20
251.178582
 30
0.0
 40
3.5
  1
E
 41
0.7
  7
ROMANS
  0
TEXT
  8
11
 10
807.973656
 20
177.178582
 30
0.0
 40
3.5
  1
F
 41
0.7
  7
ROMANS
  0
TEXT
  8
11
 10
807.973656
 20
103.178582
 30
0.0
 40
3.5
  1
G
 41
0.7
  7
ROMANS
  0
TEXT
  8
11
 10
807.973656
 20
24.725527
 30
0.0
 40
3.5
  1
H
 41
0.7
  7
ROMANS
  0
TEXT
  8
11
 10
-4.602101
 20
547.178582
 30
0.0
 40
3.5
  1
A
 41
0.7
  7
ROMANS
  0
TEXT
  8
11
 10
-4.602101
 20
473.178582
 30
0.0
 40
3.5
  1
B
 41
0.7
  7
ROMANS
  0
TEXT
  8
11
 10
-4.602101
 20
177.178582
 30
0.0
 40
3.5
  1
F
 41
0.7
  7
ROMANS
  0
TEXT
  8
11
 10
-4.602101
 20
251.178582
 30
0.0
 40
3.5
  1
E
 41
0.7
  7
ROMANS
  0
TEXT
  8
11
 10
-4.602101
 20
325.178582
 30
0.0
 40
3.5
  1
D
 41
0.7
  7
ROMANS
  0
TEXT
  8
11
 10
-4.602101
 20
399.178582
 30
0.0
 40
3.5
  1
C
 41
0.7
  7
ROMANS
  0
TEXT
  8
11
 10
-4.602101
 20
24.725527
 30
0.0
 40
3.5
  1
H
 41
0.7
  7
ROMANS
  0
TEXT
  8
11
 10
10.326483
 20
576.0
 30
0.0
 40
3.5
  1
1
 41
0.7
  7
ROMANS
  0
TEXT
  8
11
 10
80.326483
 20
576.0
 30
0.0
 40
3.5
  1
2
 41
0.7
  7
ROMANS
  0
TEXT
  8
11
 10
150.326483
 20
576.0
 30
0.0
 40
3.5
  1
3
 41
0.7
  7
ROMANS
  0
TEXT
  8
11
 10
220.326483
 20
576.0
 30
0.0
 40
3.5
  1
4
 41
0.7
  7
ROMANS
  0
TEXT
  8
11
 10
290.326483
 20
576.0
 30
0.0
 40
3.5
  1
5
 41
0.7
  7
ROMANS
  0
TEXT
  8
11
 10
360.326483
 20
576.0
 30
0.0
 40
3.5
  1
6
 41
0.7
  7
ROMANS
  0
TEXT
  8
11
 10
430.326483
 20
576.0
 30
0.0
 40
3.5
  1
7
 41
0.7
  7
ROMANS
  0
TEXT
  8
11
 10
500.326483
 20
576.0
 30
0.0
 40
3.5
  1
8
 41
0.7
  7
ROMANS
  0
TEXT
  8
11
 10
570.326483
 20
576.0
 30
0.0
 40
3.5
  1
9
 41
0.7
  7
ROMANS
  0
TEXT
  8
11
 10
640.326483
 20
576.0
 30
0.0
 40
3.5
  1
10
 41
0.7
  7
ROMANS
  0
TEXT
  8
11
 10
710.326483
 20
576.0
 30
0.0
 40
3.5
  1
11
 41
0.7
  7
ROMANS
  0
TEXT
  8
11
 10
769.981697
 20
576.0
 30
0.0
 40
3.5
  1
12
 41
0.7
  7
ROMANS
  0
TEXT
  8
11
 10
769.981697
 20
-5.5
 30
0.0
 40
3.5
  1
12
 41
0.7
  7
ROMANS
  0
TEXT
  8
11
 10
710.326483
 20
-5.5
 30
0.0
 40
3.5
  1
11
 41
0.7
  7
ROMANS
  0
TEXT
  8
11
 10
640.326483
 20
-5.5
 30
0.0
 40
3.5
  1
10
 41
0.7
  7
ROMANS
  0
TEXT
  8
11
 10
570.326483
 20
-5.5
 30
0.0
 40
3.5
  1
9
 41
0.7
  7
ROMANS
  0
TEXT
  8
11
 10
500.326483
 20
-5.5
 30
0.0
 40
3.5
  1
8
 41
0.7
  7
ROMANS
  0
TEXT
  8
11
 10
430.326483
 20
-5.5
 30
0.0
 40
3.5
  1
7
 41
0.7
  7
ROMANS
  0
TEXT
  8
11
 10
360.326483
 20
-5.5
 30
0.0
 40
3.5
  1
6
 41
0.7
  7
ROMANS
  0
TEXT
  8
11
 10
290.326483
 20
-5.5
 30
0.0
 40
3.5
  1
5
 41
0.7
  7
ROMANS
  0
TEXT
  8
11
 10
220.326483
 20
-5.5
 30
0.0
 40
3.5
  1
4
 41
0.7
  7
ROMANS
  0
TEXT
  8
11
 10
150.326483
 20
-5.5
 30
0.0
 40
3.5
  1
3
 41
0.7
  7
ROMANS
  0
TEXT
  8
11
 10
80.326483
 20
-5.5
 30
0.0
 40
3.5
  1
2
 41
0.7
  7
ROMANS
  0
TEXT
  8
11
 10
10.326483
 20
-5.5
 30
0.0
 40
3.5
  1
1
 41
0.7
  7
ROMANS
  0
CIRCLE
  8
09
 10
-2.73007
 20
131.557937
 30
0.0
 40
1.12985
  0
TEXT
  8
09
 10
-2.167997
 20
108.814026
 30
0.0
 40
1.8
  1
is strictly forbidden.  c ABB Control
 50
90.0
 41
0.7
  7
ROMANS
  0
TEXT
  8
09
 10
-5.082283
 20
108.814026
 30
0.0
 40
1.8
  1
disclosure to third parties without express authority
 50
90.0
 41
0.7
  7
ROMANS
  0
TEXT
  8
09
 10
-7.996569
 20
108.814026
 30
0.0
 40
1.8
  1
information contained therein. Reproduction, use or
 50
90.0
 41
0.7
  7
ROMANS
  0
TEXT
  8
09
 10
-10.910854
 20
108.814026
 30
0.0
 40
1.8
  1
We reserve all rights in this document and in the 
 50
90.0
 41
0.7
  7
ROMANS
  0
POLYLINE
  8
15
 66
     1
 10
0.0
 20
0.0
 30
0.0
 70
     1
 40
0.25
 41
0.25
  0
VERTEX
  8
15
 10
-15.125
 20
-6.0
 30
0.0
 42
1.0
  0
VERTEX
  8
15
 10
-14.875
 20
-6.0
 30
0.0
 42
1.0
  0
SEQEND
  8
15
  0
POLYLINE
  8
15
 66
     1
 10
0.0
 20
0.0
 30
0.0
 70
     1
 40
0.25
 41
0.25
  0
VERTEX
  8
15
 10
811.875
 20
580.0
 30
0.0
 42
1.0
  0
VERTEX
  8
15
 10
812.125
 20
580.0
 30
0.0
 42
1.0
  0
SEQEND
  8
15
  0
INSERT
  8
02
  2
ABBS6
 10
554.515838
 20
2.041326
 30
0.0
 41
7.5
 42
7.5
 43
7.5
  0
ENDBLK
  8
0
  0
BLOCK
  8
0
  2
ABBS6
 70
    64
 10
0.0
 20
0.0
 30
0.0
  3
ABBS6
  0
LINE
  8
0
 10
1.464514
 20
0.994296
 30
0.0
 11
1.415136
 21
0.994296
 31
0.0
  0
LINE
  8
0
 10
0.320293
 20
0.194372
 30
0.0
 11
0.250406
 21
-0.004855
 31
0.0
  0
LINE
  8
0
 10
0.0
 20
0.003568
 30
0.0
 11
0.0
 21
-0.006114
 31
0.0
  0
LINE
  8
0
 10
0.749566
 20
-0.006114
 30
0.0
 11
1.000337
 21
-0.006114
 31
0.0
  0
LINE
  8
0
 10
1.069877
 20
-0.006114
 30
0.0
 11
1.325629
 21
-0.006114
 31
0.0
  0
LINE
  8
0
 10
1.416103
 20
0.449852
 30
0.0
 11
1.730236
 21
0.449852
 31
0.0
  0
ARC
  8
0
 10
1.472715
 20
0.294901
 30
0.0
 40
0.300544
 50
54.789554
 51
68.052793
  0
LINE
  8
0
 10
1.069519
 20
0.449852
 30
0.0
 11
1.325169
 21
0.449852
 31
0.0
  0
LINE
  8
0
 10
1.069519
 20
0.540458
 30
0.0
 11
1.32506
 21
0.540458
 31
0.0
  0
LINE
  8
0
 10
1.416103
 20
0.449852
 30
0.0
 11
1.416103
 21
-0.005984
 31
0.0
  0
LINE
  8
0
 10
1.325169
 20
0.449852
 30
0.0
 11
1.325169
 21
-0.005984
 31
0.0
  0
LINE
  8
0
 10
1.416139
 20
0.994271
 30
0.0
 11
1.416139
 21
0.943067
 31
0.0
  0
LINE
  8
0
 10
1.32506
 20
0.99425
 30
0.0
 11
1.32506
 21
0.540458
 31
0.0
  0
LINE
  8
0
 10
1.416139
 20
0.540458
 30
0.0
 11
1.646004
 21
0.540458
 31
0.0
  0
LINE
  8
0
 10
1.416139
 20
0.943067
 30
0.0
 11
1.416139
 21
0.540458
 31
0.0
  0
LINE
  8
0
 10
0.54487
 20
0.45009
 30
0.0
 11
0.54487
 21
0.195257
 31
0.0
  0
LINE
  8
0
 10
0.453553
 20
0.45009
 30
0.0
 11
0.453553
 21
0.195019
 31
0.0
  0
LINE
  8
0
 10
0.54487
 20
0.45009
 30
0.0
 11
0.840739
 21
0.45009
 31
0.0
  0
LINE
  8
0
 10
0.54487
 20
0.540458
 30
0.0
 11
0.80911
 21
0.540458
 31
0.0
  0
LINE
  8
0
 10
0.54487
 20
0.943067
 30
0.0
 11
0.54487
 21
0.540458
 31
0.0
  0
LINE
  8
0
 10
0.54487
 20
0.994271
 30
0.0
 11
0.54487
 21
0.943067
 31
0.0
  0
LINE
  8
0
 10
0.453553
 20
0.99425
 30
0.0
 11
0.453553
 21
0.540458
 31
0.0
  0
LINE
  8
0
 10
0.166503
 20
0.45009
 30
0.0
 11
0.453553
 21
0.45009
 31
0.0
  0
LINE
  8
0
 10
0.189586
 20
0.540458
 30
0.0
 11
0.453553
 21
0.540458
 31
0.0
  0
ARC
  8
0
 10
1.472715
 20
0.294901
 30
0.0
 40
0.300544
 50
267.096919
 51
31.001763
  0
ARC
  8
0
 10
1.472596
 20
0.767641
 30
0.0
 40
0.224456
 50
300.316969
 51
92.196755
  0
LINE
  8
0
 10
1.069528
 20
0.994127
 30
0.0
 11
1.069528
 21
0.541519
 31
0.0
  0
LINE
  8
0
 10
0.679643
 20
0.193953
 30
0.0
 11
0.749733
 21
-0.006305
 31
0.0
  0
LINE
  8
0
 10
0.322454
 20
0.194757
 30
0.0
 11
0.454598
 21
0.194757
 31
0.0
  0
LINE
  8
0
 10
0.650267
 20
0.994296
 30
0.0
 11
0.80911
 21
0.540458
 31
0.0
  0
LINE
  8
0
 10
0.34877
 20
0.994246
 30
0.0
 11
0.189586
 21
0.540458
 31
0.0
  0
LINE
  8
0
 10
0.0
 20
-0.006114
 30
0.0
 11
0.250881
 21
-0.006114
 31
0.0
  0
LINE
  8
0
 10
0.157688
 20
0.449524
 30
0.0
 11
-0.002024
 21
-0.005771
 31
0.0
  0
LINE
  8
0
 10
0.546485
 20
0.994277
 30
0.0
 11
0.650267
 21
0.994296
 31
0.0
  0
LINE
  8
0
 10
0.546486
 20
0.194757
 30
0.0
 11
0.679491
 21
0.194757
 31
0.0
  0
LINE
  8
0
 10
0.166503
 20
0.45009
 30
0.0
 11
0.158938
 21
0.45009
 31
0.0
  0
LINE
  8
0
 10
0.832086
 20
0.45009
 30
0.0
 11
0.840598
 21
0.45009
 31
0.0
  0
LINE
  8
0
 10
1.069528
 20
0.449628
 30
0.0
 11
1.069528
 21
-0.005652
 31
0.0
  0
LINE
  8
0
 10
0.166503
 20
0.45009
 30
0.0
 11
0.160485
 21
0.45009
 31
0.0
  0
LINE
  8
0
 10
0.166503
 20
0.45009
 30
0.0
 11
0.158164
 21
0.45009
 31
0.0
  0
LINE
  8
0
 10
0.840704
 20
0.450189
 30
0.0
 11
1.00041
 21
-0.006114
 31
0.0
  0
LINE
  8
0
 10
0.455312
 20
0.994296
 30
0.0
 11
0.349118
 21
0.994296
 31
0.0
  0
SOLID
  8
0
 10
0.349118
 20
0.994296
 30
0.0
 11
0.453553
 21
0.99425
 31
0.0
 12
0.189586
 22
0.540458
 32
0.0
 13
0.453553
 23
0.540458
 33
0.0
  0
SOLID
  8
0
 10
0.546485
 20
0.994277
 30
0.0
 11
0.650267
 21
0.994296
 31
0.0
 12
0.54487
 22
0.540458
 32
0.0
 13
0.80911
 23
0.540458
 33
0.0
  0
SOLID
  8
0
 10
0.157688
 20
0.449524
 30
0.0
 11
0.453553
 21
0.45009
 31
0.0
 12
0.320293
 22
0.194372
 32
0.0
 13
0.453553
 23
0.195019
 33
0.0
  0
SOLID
  8
0
 10
0.157688
 20
0.449524
 30
0.0
 11
0.320293
 21
0.194372
 31
0.0
 12
-0.002461
 22
-0.004468
 32
0.0
 13
0.251183
 23
-0.004468
 33
0.0
  0
SOLID
  8
0
 10
0.54487
 20
0.45009
 30
0.0
 11
0.840598
 21
0.45009
 31
0.0
 12
0.546486
 22
0.194757
 32
0.0
 13
0.679643
 23
0.193953
 33
0.0
  0
SOLID
  8
0
 10
0.679643
 20
0.193953
 30
0.0
 11
0.840739
 21
0.45009
 31
0.0
 12
0.753471
 22
-0.007801
 32
0.0
 13
0.998784
 23
-0.004468
 33
0.0
  0
LINE
  8
0
 10
1.416326
 20
-0.006114
 30
0.0
 11
1.458675
 21
-0.006114
 31
0.0
  0
LINE
  8
0
 10
1.327057
 20
0.994296
 30
0.0
 11
1.068805
 21
0.994296
 31
0.0
  0
SOLID
  8
0
 10
1.069528
 20
0.994127
 30
0.0
 11
1.32506
 21
0.99425
 31
0.0
 12
1.069528
 22
0.541519
 32
0.0
 13
1.32506
 23
0.540458
 33
0.0
  0
SOLID
  8
0
 10
1.069528
 20
0.449628
 30
0.0
 11
1.325169
 21
0.449852
 31
0.0
 12
1.069877
 22
-0.006114
 32
0.0
 13
1.325169
 23
-0.005984
 33
0.0
  0
SOLID
  8
0
 10
1.472596
 20
0.767641
 30
0.0
 11
1.473816
 21
0.992282
 31
0.0
 12
1.517141
 22
0.986211
 32
0.0
 13
1.517141
 23
0.986211
 33
0.0
  0
SOLID
  8
0
 10
1.472596
 20
0.767641
 30
0.0
 11
1.517379
 21
0.985973
 31
0.0
 12
1.561419
 22
0.973951
 32
0.0
 13
1.561419
 23
0.973951
 33
0.0
  0
SOLID
  8
0
 10
1.472596
 20
0.767641
 30
0.0
 11
1.561419
 21
0.972761
 31
0.0
 12
1.604506
 22
0.946932
 32
0.0
 13
1.604506
 23
0.946932
 33
0.0
  0
SOLID
  8
0
 10
1.472596
 20
0.767641
 30
0.0
 11
1.604506
 21
0.946932
 31
0.0
 12
1.639738
 22
0.914913
 32
0.0
 13
1.639738
 23
0.914913
 33
0.0
  0
SOLID
  8
0
 10
1.472596
 20
0.767641
 30
0.0
 11
1.640247
 21
0.914061
 31
0.0
 12
1.667697
 22
0.875164
 32
0.0
 13
1.667697
 23
0.875164
 33
0.0
  0
SOLID
  8
0
 10
1.472147
 20
0.766668
 30
0.0
 11
1.685729
 21
0.829343
 31
0.0
 12
1.69435
 22
0.782523
 32
0.0
 13
1.69435
 23
0.782523
 33
0.0
  0
SOLID
  8
0
 10
1.472147
 20
0.766668
 30
0.0
 11
1.667056
 21
0.874168
 31
0.0
 12
1.685624
 22
0.830331
 32
0.0
 13
1.685624
 23
0.830331
 33
0.0
  0
SOLID
  8
0
 10
1.472258
 20
0.766537
 30
0.0
 11
1.65838
 21
0.644454
 31
0.0
 12
1.628302
 22
0.607553
 32
0.0
 13
1.628302
 23
0.607553
 33
0.0
  0
SOLID
  8
0
 10
1.472258
 20
0.766537
 30
0.0
 11
1.680425
 21
0.687721
 31
0.0
 12
1.659065
 22
0.645174
 32
0.0
 13
1.659065
 23
0.645174
 33
0.0
  0
SOLID
  8
0
 10
1.47329
 20
0.766825
 30
0.0
 11
1.693443
 21
0.733988
 31
0.0
 12
1.681599
 22
0.687877
 32
0.0
 13
1.681599
 23
0.687877
 33
0.0
  0
SOLID
  8
0
 10
1.47329
 20
0.766825
 30
0.0
 11
1.695325
 21
0.78251
 31
0.0
 12
1.693762
 22
0.734928
 32
0.0
 13
1.693762
 23
0.734928
 33
0.0
  0
SOLID
  8
0
 10
1.472596
 20
0.767641
 30
0.0
 11
1.628668
 21
0.607937
 31
0.0
 12
1.585224
 22
0.573775
 32
0.0
 13
1.585224
 23
0.573775
 33
0.0
  0
SOLID
  8
0
 10
1.417636
 20
0.992639
 30
0.0
 11
1.472149
 21
0.992639
 31
0.0
 12
1.417636
 22
0.542352
 32
0.0
 13
1.471673
 23
0.542352
 33
0.0
  0
SOLID
  8
0
 10
1.472149
 20
0.766722
 30
0.0
 11
1.471673
 21
0.54128
 31
0.0
 12
1.585224
 22
0.573775
 32
0.0
 13
1.585224
 23
0.573775
 33
0.0
  0
SOLID
  8
0
 10
1.475482
 20
0.542352
 30
0.0
 11
1.585224
 21
0.572704
 31
0.0
 12
1.64307
 22
0.542352
 32
0.0
 13
1.64307
 23
0.542352
 33
0.0
  0
SOLID
  8
0
 10
1.472715
 20
0.294901
 30
0.0
 11
1.72984
 21
0.4482
 31
0.0
 12
1.756145
 22
0.390471
 32
0.0
 13
1.756145
 23
0.390471
 33
0.0
  0
SOLID
  8
0
 10
1.472715
 20
0.294901
 30
0.0
 11
1.756138
 21
0.39126
 31
0.0
 12
1.769837
 22
0.329317
 32
0.0
 13
1.769837
 23
0.329317
 33
0.0
  0
SOLID
  8
0
 10
1.473259
 20
0.294659
 30
0.0
 11
1.771348
 21
0.267155
 31
0.0
 12
1.758615
 22
0.205006
 32
0.0
 13
1.758615
 23
0.205006
 33
0.0
  0
SOLID
  8
0
 10
1.473259
 20
0.294659
 30
0.0
 11
1.770536
 21
0.329869
 31
0.0
 12
1.771032
 22
0.266432
 32
0.0
 13
1.771032
 23
0.266432
 33
0.0
  0
SOLID
  8
0
 10
1.47343
 20
0.294104
 30
0.0
 11
1.734377
 21
0.147405
 31
0.0
 12
1.697402
 22
0.095855
 32
0.0
 13
1.697402
 23
0.095855
 33
0.0
  0
SOLID
  8
0
 10
1.47343
 20
0.294104
 30
0.0
 11
1.759216
 21
0.204996
 31
0.0
 12
1.733794
 22
0.146873
 32
0.0
 13
1.733794
 23
0.146873
 33
0.0
  0
SOLID
  8
0
 10
1.472715
 20
0.294901
 30
0.0
 11
1.695204
 21
0.09635
 31
0.0
 12
1.650569
 22
0.055642
 32
0.0
 13
1.650569
 23
0.055642
 33
0.0
  0
SOLID
  8
0
 10
1.472715
 20
0.294901
 30
0.0
 11
1.649954
 21
0.055088
 31
0.0
 12
1.597945
 22
0.024356
 32
0.0
 13
1.597945
 23
0.024356
 33
0.0
  0
SOLID
  8
0
 10
1.472715
 20
0.294901
 30
0.0
 11
1.597761
 21
0.024185
 31
0.0
 12
1.540609
 22
0.004612
 32
0.0
 13
1.540609
 23
0.004612
 33
0.0
  0
SOLID
  8
0
 10
1.472715
 20
0.294901
 30
0.0
 11
1.473578
 21
-0.00423
 31
0.0
 12
1.539518
 22
0.004578
 32
0.0
 13
1.539518
 23
0.004578
 33
0.0
  0
SOLID
  8
0
 10
1.417517
 20
0.448795
 30
0.0
 11
1.473578
 21
0.448795
 31
0.0
 12
1.417517
 22
-0.00423
 32
0.0
 13
1.473578
 23
-0.003754
 33
0.0
  0
SOLID
  8
0
 10
1.474054
 20
0.448795
 30
0.0
 11
1.729245
 21
0.4482
 31
0.0
 12
1.474054
 22
0.295961
 32
0.0
 13
1.474054
 23
0.295961
 33
0.0
  0
SOLID
  8
0
 10
2.241651
 20
0.448795
 30
0.0
 11
2.496843
 21
0.4482
 31
0.0
 12
2.241651
 22
0.295961
 32
0.0
 13
2.241651
 23
0.295961
 33
0.0
  0
SOLID
  8
0
 10
2.185114
 20
0.448795
 30
0.0
 11
2.241175
 21
0.448795
 31
0.0
 12
2.185114
 22
-0.00423
 32
0.0
 13
2.241175
 23
-0.003754
 33
0.0
  0
SOLID
  8
0
 10
2.240313
 20
0.294901
 30
0.0
 11
2.241175
 21
-0.00423
 31
0.0
 12
2.307116
 22
0.004578
 32
0.0
 13
2.307116
 23
0.004578
 33
0.0
  0
SOLID
  8
0
 10
2.240313
 20
0.294901
 30
0.0
 11
2.365358
 21
0.024185
 31
0.0
 12
2.308207
 22
0.004612
 32
0.0
 13
2.308207
 23
0.004612
 33
0.0
  0
SOLID
  8
0
 10
2.240313
 20
0.294901
 30
0.0
 11
2.417552
 21
0.055088
 31
0.0
 12
2.365543
 22
0.024356
 32
0.0
 13
2.365543
 23
0.024356
 33
0.0
  0
SOLID
  8
0
 10
2.240313
 20
0.294901
 30
0.0
 11
2.462801
 21
0.09635
 31
0.0
 12
2.418167
 22
0.055642
 32
0.0
 13
2.418167
 23
0.055642
 33
0.0
  0
SOLID
  8
0
 10
2.241028
 20
0.294104
 30
0.0
 11
2.526814
 21
0.204996
 31
0.0
 12
2.501391
 22
0.146873
 32
0.0
 13
2.501391
 23
0.146873
 33
0.0
  0
SOLID
  8
0
 10
2.241028
 20
0.294104
 30
0.0
 11
2.501974
 21
0.147405
 31
0.0
 12
2.464999
 22
0.095855
 32
0.0
 13
2.464999
 23
0.095855
 33
0.0
  0
SOLID
  8
0
 10
2.240856
 20
0.294659
 30
0.0
 11
2.538134
 21
0.329869
 31
0.0
 12
2.53863
 22
0.266432
 32
0.0
 13
2.53863
 23
0.266432
 33
0.0
  0
SOLID
  8
0
 10
2.240856
 20
0.294659
 30
0.0
 11
2.538946
 21
0.267155
 31
0.0
 12
2.526213
 22
0.205006
 32
0.0
 13
2.526213
 23
0.205006
 33
0.0
  0
SOLID
  8
0
 10
2.240313
 20
0.294901
 30
0.0
 11
2.523736
 21
0.39126
 31
0.0
 12
2.537435
 22
0.329317
 32
0.0
 13
2.537435
 23
0.329317
 33
0.0
  0
SOLID
  8
0
 10
2.240313
 20
0.294901
 30
0.0
 11
2.497438
 21
0.4482
 31
0.0
 12
2.523743
 22
0.390471
 32
0.0
 13
2.523743
 23
0.390471
 33
0.0
  0
SOLID
  8
0
 10
2.24308
 20
0.542352
 30
0.0
 11
2.352821
 21
0.572704
 31
0.0
 12
2.410668
 22
0.542352
 32
0.0
 13
2.410668
 23
0.542352
 33
0.0
  0
SOLID
  8
0
 10
2.239747
 20
0.766722
 30
0.0
 11
2.239271
 21
0.54128
 31
0.0
 12
2.352821
 22
0.573775
 32
0.0
 13
2.352821
 23
0.573775
 33
0.0
  0
SOLID
  8
0
 10
2.185233
 20
0.992639
 30
0.0
 11
2.239747
 21
0.992639
 31
0.0
 12
2.185233
 22
0.542352
 32
0.0
 13
2.239271
 23
0.542352
 33
0.0
  0
SOLID
  8
0
 10
2.240194
 20
0.767641
 30
0.0
 11
2.396266
 21
0.607937
 31
0.0
 12
2.352821
 22
0.573775
 32
0.0
 13
2.352821
 23
0.573775
 33
0.0
  0
SOLID
  8
0
 10
2.240888
 20
0.766825
 30
0.0
 11
2.462923
 21
0.78251
 31
0.0
 12
2.46136
 22
0.734928
 32
0.0
 13
2.46136
 23
0.734928
 33
0.0
  0
SOLID
  8
0
 10
2.240888
 20
0.766825
 30
0.0
 11
2.46104
 21
0.733988
 31
0.0
 12
2.449197
 22
0.687877
 32
0.0
 13
2.449197
 23
0.687877
 33
0.0
  0
SOLID
  8
0
 10
2.239856
 20
0.766537
 30
0.0
 11
2.448023
 21
0.687721
 31
0.0
 12
2.426662
 22
0.645174
 32
0.0
 13
2.426662
 23
0.645174
 33
0.0
  0
SOLID
  8
0
 10
2.239856
 20
0.766537
 30
0.0
 11
2.425978
 21
0.644454
 31
0.0
 12
2.395899
 22
0.607553
 32
0.0
 13
2.395899
 23
0.607553
 33
0.0
  0
SOLID
  8
0
 10
2.239745
 20
0.766668
 30
0.0
 11
2.434653
 21
0.874168
 31
0.0
 12
2.453222
 22
0.830331
 32
0.0
 13
2.453222
 23
0.830331
 33
0.0
  0
SOLID
  8
0
 10
2.239745
 20
0.766668
 30
0.0
 11
2.453327
 21
0.829343
 31
0.0
 12
2.461947
 22
0.782523
 32
0.0
 13
2.461947
 23
0.782523
 33
0.0
  0
SOLID
  8
0
 10
2.240194
 20
0.767641
 30
0.0
 11
2.407844
 21
0.914061
 31
0.0
 12
2.435294
 22
0.875164
 32
0.0
 13
2.435294
 23
0.875164
 33
0.0
  0
SOLID
  8
0
 10
2.240194
 20
0.767641
 30
0.0
 11
2.372104
 21
0.946932
 31
0.0
 12
2.407335
 22
0.914913
 32
0.0
 13
2.407335
 23
0.914913
 33
0.0
  0
SOLID
  8
0
 10
2.240194
 20
0.767641
 30
0.0
 11
2.329016
 21
0.972761
 31
0.0
 12
2.372104
 22
0.946932
 32
0.0
 13
2.372104
 23
0.946932
 33
0.0
  0
SOLID
  8
0
 10
2.240194
 20
0.767641
 30
0.0
 11
2.284977
 21
0.985973
 31
0.0
 12
2.329016
 22
0.973951
 32
0.0
 13
2.329016
 23
0.973951
 33
0.0
  0
SOLID
  8
0
 10
2.240194
 20
0.767641
 30
0.0
 11
2.241413
 21
0.992282
 31
0.0
 12
2.284739
 22
0.986211
 32
0.0
 13
2.284739
 23
0.986211
 33
0.0
  0
SOLID
  8
0
 10
1.837126
 20
0.449628
 30
0.0
 11
2.092767
 21
0.449852
 31
0.0
 12
1.837474
 22
-0.006114
 32
0.0
 13
2.092767
 23
-0.005984
 33
0.0
  0
SOLID
  8
0
 10
1.837126
 20
0.994127
 30
0.0
 11
2.092658
 21
0.99425
 31
0.0
 12
1.837126
 22
0.541519
 32
0.0
 13
2.092658
 23
0.540458
 33
0.0
  0
LINE
  8
0
 10
2.094654
 20
0.994296
 30
0.0
 11
1.836402
 21
0.994296
 31
0.0
  0
LINE
  8
0
 10
2.183924
 20
-0.006114
 30
0.0
 11
2.226273
 21
-0.006114
 31
0.0
  0
LINE
  8
0
 10
1.837126
 20
0.449628
 30
0.0
 11
1.837126
 21
-0.005652
 31
0.0
  0
LINE
  8
0
 10
1.837126
 20
0.994127
 30
0.0
 11
1.837126
 21
0.541519
 31
0.0
  0
ARC
  8
0
 10
2.240194
 20
0.767641
 30
0.0
 40
0.224456
 50
300.316969
 51
92.196755
  0
ARC
  8
0
 10
2.240313
 20
0.294901
 30
0.0
 40
0.300544
 50
267.096919
 51
31.001763
  0
LINE
  8
0
 10
2.183736
 20
0.943067
 30
0.0
 11
2.183736
 21
0.540458
 31
0.0
  0
LINE
  8
0
 10
2.183736
 20
0.540458
 30
0.0
 11
2.413601
 21
0.540458
 31
0.0
  0
LINE
  8
0
 10
2.092658
 20
0.99425
 30
0.0
 11
2.092658
 21
0.540458
 31
0.0
  0
LINE
  8
0
 10
2.183736
 20
0.994271
 30
0.0
 11
2.183736
 21
0.943067
 31
0.0
  0
LINE
  8
0
 10
2.092767
 20
0.449852
 30
0.0
 11
2.092767
 21
-0.005984
 31
0.0
  0
LINE
  8
0
 10
2.1837
 20
0.449852
 30
0.0
 11
2.1837
 21
-0.005984
 31
0.0
  0
LINE
  8
0
 10
1.837117
 20
0.540458
 30
0.0
 11
2.092658
 21
0.540458
 31
0.0
  0
LINE
  8
0
 10
1.837117
 20
0.449852
 30
0.0
 11
2.092767
 21
0.449852
 31
0.0
  0
ARC
  8
0
 10
2.240313
 20
0.294901
 30
0.0
 40
0.300544
 50
54.789554
 51
68.052793
  0
LINE
  8
0
 10
2.1837
 20
0.449852
 30
0.0
 11
2.497834
 21
0.449852
 31
0.0
  0
LINE
  8
0
 10
1.837474
 20
-0.006114
 30
0.0
 11
2.093226
 21
-0.006114
 31
0.0
  0
LINE
  8
0
 10
2.232112
 20
0.994296
 30
0.0
 11
2.182734
 21
0.994296
 31
0.0
  0
ENDBLK
  8
0
  0
BLOCK
  8
0
  2
DIMPIL
 70
    64
 10
0.0
 20
0.0
 30
0.0
  3
DIMPIL
  0
POLYLINE
  8
0
 62
     0
 66
     1
 10
0.0
 20
0.0
 30
0.0
 41
0.4
  0
VERTEX
  8
0
 62
     0
 10
0.0
 20
0.0
 30
0.0
  0
VERTEX
  8
0
 62
     0
 10
-1.0
 20
0.0
 30
0.0
 40
0.4
  0
SEQEND
  8
0
 62
     0
  0
ENDBLK
  8
0
  0
BLOCK
  8
0
  2
DIMRING
 70
     0
 10
0.0
 20
0.0
 30
0.0
  3
DIMRING
  0
CIRCLE
  8
0
 62
     0
 10
0.0
 20
0.0
 30
0.0
 40
0.5
  0
LINE
  8
0
 62
     0
 10
0.0
 20
0.0
 30
0.0
 11
-1.0
 21
0.0
 31
0.0
  0
ENDBLK
  8
0
  0
BLOCK
  8
0
  2
MOTST3
 70
     0
 10
0.0
 20
0.0
 30
0.0
  3
MOTST3
  0
ARC
  8
01
 10
2.84009
 20
-13.175
 30
0.0
 40
1.5
 50
0.0
 51
90.0
  0
ARC
  8
01
 10
2.84009
 20
-15.125
 30
0.0
 40
1.5
 50
270.0
 51
0.0
  0
LINE
  8
01
 10
0.0
 20
-9.15
 30
0.0
 11
14.55
 21
-9.15
 31
0.0
  0
LINE
  8
01
 10
0.0
 20
-58.85
 30
0.0
 11
14.55
 21
-58.85
 31
0.0
  0
LINE
  8
05
 10
6.95
 20
-14.15
 30
0.0
 11
1.196614
 21
-14.15
 31
0.0
  0
LINE
  8
01
 10
3.35
 20
-58.85
 30
0.0
 11
3.35
 21
-16.535671
 31
0.0
  0
LINE
  8
01
 10
-2.25
 20
-29.5
 30
0.0
 11
-2.25
 21
0.0
 31
0.0
  0
LINE
  8
01
 10
0.0
 20
-29.5
 30
0.0
 11
0.0
 21
0.0
 31
0.0
  0
LINE
  8
01
 10
2.45
 20
-58.85
 30
0.0
 11
2.45
 21
-9.15
 31
0.0
  0
LINE
  8
01
 10
0.0
 20
-58.85
 30
0.0
 11
0.0
 21
-9.15
 31
0.0
  0
LINE
  8
01
 10
-2.25
 20
-68.0
 30
0.0
 11
-2.25
 21
-38.5
 31
0.0
  0
LINE
  8
01
 10
0.0
 20
-38.5
 30
0.0
 11
0.0
 21
-68.0
 31
0.0
  0
LINE
  8
01
 10
0.0
 20
-68.0
 30
0.0
 11
-2.5
 21
-68.0
 31
0.0
  0
LINE
  8
01
 10
0.0
 20
-38.5
 30
0.0
 11
0.0
 21
-29.5
 31
0.0
  0
LINE
  8
01
 10
-2.25
 20
-36.25
 30
0.0
 11
-2.25
 21
-29.5
 31
0.0
  0
LINE
  8
01
 10
-3.00071
 20
-38.0
 30
0.0
 11
-3.00071
 21
-30.0
 31
0.0
  0
LINE
  8
01
 10
-2.25
 20
-38.5
 30
0.0
 11
-2.25
 21
-36.25
 31
0.0
  0
LINE
  8
01
 10
-2.25
 20
-38.5
 30
0.0
 11
0.0
 21
-38.5
 31
0.0
  0
LINE
  8
01
 10
-2.25
 20
-29.5
 30
0.0
 11
0.0
 21
-29.5
 31
0.0
  0
LINE
  8
01
 10
3.35
 20
-11.764329
 30
0.0
 11
3.35
 21
-9.15
 31
0.0
  0
LINE
  8
01
 10
2.45
 20
-11.675
 30
0.0
 11
2.84009
 21
-11.675
 31
0.0
  0
LINE
  8
01
 10
2.45
 20
-14.15
 30
0.0
 11
2.45
 21
-11.675
 31
0.0
  0
LINE
  8
01
 10
2.45
 20
-14.15
 30
0.0
 11
2.45
 21
-16.625
 31
0.0
  0
LINE
  8
01
 10
2.45
 20
-16.625
 30
0.0
 11
2.84009
 21
-16.625
 31
0.0
  0
LINE
  8
01
 10
0.0
 20
-19.15
 30
0.0
 11
2.45
 21
-19.15
 31
0.0
  0
LINE
  8
01
 10
0.0
 20
0.0
 30
0.0
 11
0.0
 21
-0.041429
 31
0.0
  0
LINE
  8
01
 10
0.0
 20
0.0
 30
0.0
 11
-2.5
 21
0.0
 31
0.0
  0
LINE
  8
05
 10
7.275
 20
1.318114
 30
0.0
 11
7.275
 21
-67.248855
 31
0.0
  0
LINE
  8
01
 10
8.75
 20
-58.85
 30
0.0
 11
8.75
 21
-9.15
 31
0.0
  0
LINE
  8
01
 10
7.85
 20
-58.85
 30
0.0
 11
7.85
 21
-9.15
 31
0.0
  0
LINE
  8
01
 10
6.95
 20
-58.85
 30
0.0
 11
6.95
 21
-9.15
 31
0.0
  0
LINE
  8
01
 10
6.05
 20
-58.85
 30
0.0
 11
6.05
 21
-9.15
 31
0.0
  0
LINE
  8
01
 10
14.15
 20
-58.85
 30
0.0
 11
14.15
 21
-9.15
 31
0.0
  0
LINE
  8
01
 10
13.25
 20
-58.85
 30
0.0
 11
13.25
 21
-9.15
 31
0.0
  0
LINE
  8
01
 10
12.35
 20
-58.85
 30
0.0
 11
12.35
 21
-9.15
 31
0.0
  0
LINE
  8
01
 10
11.45
 20
-58.85
 30
0.0
 11
11.45
 21
-9.15
 31
0.0
  0
LINE
  8
01
 10
10.55
 20
-58.85
 30
0.0
 11
10.55
 21
-9.15
 31
0.0
  0
LINE
  8
01
 10
9.65
 20
-58.85
 30
0.0
 11
9.65
 21
-9.15
 31
0.0
  0
LINE
  8
01
 10
14.55
 20
-58.85
 30
0.0
 11
14.55
 21
-9.15
 31
0.0
  0
LINE
  8
01
 10
4.25
 20
-58.85
 30
0.0
 11
4.25
 21
-15.63701
 31
0.0
  0
LINE
  8
01
 10
5.15
 20
-58.85
 30
0.0
 11
5.15
 21
-9.15
 31
0.0
  0
LINE
  8
01
 10
8.275
 20
-62.15
 30
0.0
 11
9.275
 21
-69.32
 31
0.0
  0
LINE
  8
01
 10
9.275
 20
-69.32
 30
0.0
 11
8.824156
 21
-73.093658
 31
0.0
  0
LINE
  8
01
 10
8.275
 20
-62.15
 30
0.0
 11
8.275
 21
-58.85
 31
0.0
  0
LINE
  8
01
 10
6.275
 20
-62.15
 30
0.0
 11
6.275
 21
-58.85
 31
0.0
  0
LINE
  8
01
 10
6.275
 20
-62.15
 30
0.0
 11
5.275
 21
-69.32
 31
0.0
  0
LINE
  8
01
 10
5.275
 20
-69.32
 30
0.0
 11
5.784314
 21
-73.781649
 31
0.0
  0
LINE
  8
01
 10
4.25
 20
-12.66299
 30
0.0
 11
4.25
 21
-9.15
 31
0.0
  0
LINE
  8
01
 10
3.580099
 20
-13.865268
 30
0.0
 11
4.34009
 21
-13.865268
 31
0.0
  0
LINE
  8
01
 10
4.34009
 20
-13.175
 30
0.0
 11
4.34009
 21
-13.865268
 31
0.0
  0
LINE
  8
01
 10
3.580099
 20
-14.15
 30
0.0
 11
3.580099
 21
-13.865268
 31
0.0
  0
LINE
  8
01
 10
3.580099
 20
-14.15
 30
0.0
 11
3.580099
 21
-14.434732
 31
0.0
  0
LINE
  8
01
 10
4.34009
 20
-15.125
 30
0.0
 11
4.34009
 21
-14.434732
 31
0.0
  0
LINE
  8
01
 10
3.580099
 20
-14.434732
 30
0.0
 11
4.34009
 21
-14.434732
 31
0.0
  0
LINE
  8
01
 10
8.275
 20
-5.85
 30
0.0
 11
8.275
 21
-9.15
 31
0.0
  0
LINE
  8
01
 10
6.275
 20
-5.85
 30
0.0
 11
6.275
 21
-9.15
 31
0.0
  0
LINE
  8
01
 10
9.275
 20
1.318114
 30
0.0
 11
8.695193
 21
3.813592
 31
0.0
  0
LINE
  8
01
 10
8.275
 20
-5.85
 30
0.0
 11
9.275
 21
1.318114
 31
0.0
  0
LINE
  8
01
 10
5.275
 20
1.318114
 30
0.0
 11
5.424083
 21
3.863898
 31
0.0
  0
LINE
  8
01
 10
6.275
 20
-5.85
 30
0.0
 11
5.275
 21
1.318114
 31
0.0
  0
ENDBLK
  8
0
  0
BLOCK
  8
0
  2
DIMLI
 70
     0
 10
0.0
 20
0.0
 30
0.0
  3
DIMLI
  0
LINE
  8
0
 62
     0
 10
0.0
 20
0.0
 30
0.0
 11
-0.999975
 21
0.0
 31
0.0
  0
ENDBLK
  8
0
  0
ENDSEC
  0
SECTION
  2
ENTITIES
  0
TEXT
  8
11
 10
746.754236
 20
211.845193
 30
0.0
 40
5.0
  1
3)
 41
0.7
  7
ROMANS
  0
LINE
  8
11
 10
515.893084
 20
418.872592
 30
0.0
 11
515.893084
 21
434.872592
 31
0.0
  0
ARC
  8
01
 10
523.393084
 20
420.372592
 30
0.0
 40
1.5
 50
270.0
 51
0.0
  0
LINE
  8
01
 10
523.393084
 20
418.872592
 30
0.0
 11
515.893084
 21
418.872592
 31
0.0
  0
ARC
  8
01
 10
523.393084
 20
433.372592
 30
0.0
 40
1.5
 50
0.0
 51
90.0
  0
LINE
  8
01
 10
524.893084
 20
433.372592
 30
0.0
 11
524.893084
 21
420.372592
 31
0.0
  0
LINE
  8
01
 10
515.893084
 20
434.872592
 30
0.0
 11
523.393089
 21
434.872592
 31
0.0
  0
INSERT
  8
08
  2
PILHUVUD
 10
524.534923
 20
434.346274
 30
0.0
 50
233.383205
  0
LINE
  8
08
 10
524.53215
 20
434.348567
 30
0.0
 11
545.035173
 21
462.529833
 31
0.0
  0
LINE
  8
08
 10
545.035173
 20
462.529833
 30
0.0
 11
571.173805
 21
462.529833
 31
0.0
  0
TEXT
  8
12
 10
549.813057
 20
463.729833
 30
0.0
 40
4.5
  1
M10
 41
0.7
  7
ROMANS
 72
     2
 11
558.963057
 21
463.729833
 31
0.0
  0
TEXT
  8
11
 10
563.923673
 20
471.882063
 30
0.0
 40
4.5
  1
5)
 41
0.7
  7
ROMANS
  0
TEXT
  8
12
 10
735.893084
 20
198.843051
 30
0.0
 40
4.5
  1
40
 41
0.7
  7
ROMANS
 72
     1
 11
738.893084
 21
198.843051
 31
0.0
  0
LINE
  8
08
 10
718.893084
 20
197.643051
 30
0.0
 11
758.893084
 21
197.643051
 31
0.0
  0
INSERT
  8
08
  2
PILHUVUD
 10
758.893084
 20
197.643051
 30
0.0
  0
INSERT
  8
08
  2
PILHUVUD
 10
718.893084
 20
197.643051
 30
0.0
 50
180.0
  0
LINE
  8
08
 10
758.893084
 20
270.213001
 30
0.0
 11
758.893084
 21
195.643051
 31
0.0
  0
LINE
  8
08
 10
718.893084
 20
270.213001
 30
0.0
 11
718.893084
 21
195.643051
 31
0.0
  0
LINE
  8
11
 10
758.893084
 20
383.158435
 30
0.0
 11
778.073542
 21
397.055867
 31
0.0
  0
LINE
  8
11
 10
758.893084
 20
371.988007
 30
0.0
 11
778.073542
 21
385.88544
 31
0.0
  0
LINE
  8
11
 10
758.893084
 20
358.748982
 30
0.0
 11
778.073542
 21
372.646415
 31
0.0
  0
LINE
  8
11
 10
758.893084
 20
345.096237
 30
0.0
 11
778.073542
 21
358.99367
 31
0.0
  0
LINE
  8
11
 10
758.893084
 20
333.098371
 30
0.0
 11
778.073542
 21
346.995803
 31
0.0
  0
LINE
  8
11
 10
758.893084
 20
319.859346
 30
0.0
 11
778.073542
 21
333.756778
 31
0.0
  0
LINE
  8
11
 10
758.893084
 20
306.620321
 30
0.0
 11
778.073542
 21
320.517753
 31
0.0
  0
LINE
  8
11
 10
758.893084
 20
292.140137
 30
0.0
 11
778.073542
 21
306.037569
 31
0.0
  0
LINE
  8
11
 10
758.893084
 20
280.55599
 30
0.0
 11
778.073542
 21
294.453422
 31
0.0
  0
LINE
  8
11
 10
758.893084
 20
270.213001
 30
0.0
 11
778.073542
 21
284.110434
 31
0.0
  0
LINE
  8
01
 10
758.893084
 20
383.213001
 30
0.0
 11
758.893084
 21
270.213001
 31
0.0
  0
LINE
  8
01
 10
511.893084
 20
215.713001
 30
0.0
 11
511.893084
 21
215.213001
 31
0.0
  0
LINE
  8
01
 10
496.893084
 20
215.713001
 30
0.0
 11
496.893084
 21
215.213001
 31
0.0
  0
LINE
  8
01
 10
496.893084
 20
437.713001
 30
0.0
 11
496.893084
 21
438.213001
 31
0.0
  0
LINE
  8
01
 10
511.893084
 20
437.713001
 30
0.0
 11
511.893084
 21
438.213001
 31
0.0
  0
LINE
  8
11
 10
511.893084
 20
289.713001
 30
0.0
 11
511.893084
 21
215.713001
 31
0.0
  0
TEXT
  8
12
 10
467.279575
 20
322.213001
 30
0.0
 40
4.5
  1
223
 50
90.0
 41
0.7
  7
ROMANS
 72
     1
 11
467.279575
 21
326.713001
 31
0.0
  0
LINE
  8
08
 10
468.479575
 20
215.213001
 30
0.0
 11
468.479575
 21
438.213001
 31
0.0
  0
INSERT
  8
08
  2
PILHUVUD
 10
468.479575
 20
438.213001
 30
0.0
 50
90.0
  0
INSERT
  8
08
  2
PILHUVUD
 10
468.479575
 20
215.213001
 30
0.0
 50
270.0
  0
LINE
  8
08
 10
496.893084
 20
438.213001
 30
0.0
 11
466.479575
 21
438.213001
 31
0.0
  0
LINE
  8
08
 10
496.893084
 20
215.213001
 30
0.0
 11
466.479575
 21
215.213001
 31
0.0
  0
TEXT
  8
12
 10
601.393084
 20
551.650495
 30
0.0
 40
4.5
  1
226
 41
0.7
  7
ROMANS
 72
     1
 11
605.893084
 21
551.650495
 31
0.0
  0
LINE
  8
08
 10
492.893084
 20
550.450495
 30
0.0
 11
718.893084
 21
550.450495
 31
0.0
  0
INSERT
  8
08
  2
PILHUVUD
 10
718.893084
 20
550.450495
 30
0.0
  0
INSERT
  8
08
  2
PILHUVUD
 10
492.893084
 20
550.450495
 30
0.0
 50
180.0
  0
LINE
  8
08
 10
718.893084
 20
383.213001
 30
0.0
 11
718.893084
 21
552.450495
 31
0.0
  0
LINE
  8
08
 10
492.893084
 20
478.356091
 30
0.0
 11
492.893084
 21
552.450495
 31
0.0
  0
TEXT
  8
12
 10
558.168084
 20
521.438785
 30
0.0
 40
4.5
  1
140
 41
0.7
  7
ROMANS
 72
     1
 11
562.893084
 21
521.438785
 31
0.0
  0
LINE
  8
08
 10
492.893084
 20
520.238785
 30
0.0
 11
632.893084
 21
520.238785
 31
0.0
  0
INSERT
  8
08
  2
PILHUVUD
 10
632.893084
 20
520.238785
 30
0.0
  0
INSERT
  8
08
  2
PILHUVUD
 10
492.893084
 20
520.238785
 30
0.0
 50
180.0
  0
LINE
  8
01
 10
632.893084
 20
415.713001
 30
0.0
 11
632.893084
 21
498.713001
 31
0.0
  0
LINE
  8
08
 10
492.893084
 20
452.344325
 30
0.0
 11
492.893084
 21
495.75081
 31
0.0
  0
TEXT
  8
12
 10
501.393084
 20
464.161373
 30
0.0
 40
4.5
  1
23
 41
0.7
  7
ROMANS
 72
     1
 11
504.393084
 21
464.161373
 31
0.0
  0
LINE
  8
08
 10
492.893084
 20
462.961373
 30
0.0
 11
515.893084
 21
462.961373
 31
0.0
  0
INSERT
  8
08
  2
PILHUVUD
 10
515.893084
 20
462.961373
 30
0.0
  0
INSERT
  8
08
  2
PILHUVUD
 10
492.893084
 20
462.961373
 30
0.0
 50
180.0
  0
LINE
  8
08
 10
515.893084
 20
437.713001
 30
0.0
 11
515.893084
 21
464.961373
 31
0.0
  0
LINE
  8
08
 10
492.893084
 20
437.713001
 30
0.0
 11
492.893084
 21
464.961373
 31
0.0
  0
LINE
  8
01
 10
515.893084
 20
237.713001
 30
0.0
 11
515.893084
 21
215.713001
 31
0.0
  0
LINE
  8
01
 10
638.893084
 20
237.713001
 30
0.0
 11
714.893084
 21
237.713001
 31
0.0
  0
LINE
  8
11
 10
632.893084
 20
237.713001
 30
0.0
 11
638.893084
 21
237.713001
 31
0.0
  0
LINE
  8
01
 10
638.893084
 20
415.713001
 30
0.0
 11
714.893084
 21
415.713001
 31
0.0
  0
LINE
  8
11
 10
632.893084
 20
415.713001
 30
0.0
 11
638.893084
 21
415.713001
 31
0.0
  0
LINE
  8
01
 10
515.893084
 20
415.713001
 30
0.0
 11
632.893084
 21
415.713001
 31
0.0
  0
LINE
  8
11
 10
496.893084
 20
415.713001
 30
0.0
 11
496.893084
 21
437.713001
 31
0.0
  0
LINE
  8
11
 10
515.893084
 20
237.713001
 30
0.0
 11
511.893084
 21
237.713001
 31
0.0
  0
LINE
  8
11
 10
496.893084
 20
237.713001
 30
0.0
 11
496.893084
 21
215.713001
 31
0.0
  0
LINE
  8
11
 10
546.393084
 20
358.051174
 30
0.0
 11
546.393084
 21
360.551174
 31
0.0
  0
LINE
  8
11
 10
546.393084
 20
295.374829
 30
0.0
 11
546.393084
 21
292.874828
 31
0.0
  0
LINE
  8
11
 10
567.882994
 20
301.374828
 30
0.0
 11
575.893084
 21
301.374828
 31
0.0
  0
LINE
  8
11
 10
543.393084
 20
360.559863
 30
0.0
 11
543.393084
 21
326.551174
 31
0.0
  0
LINE
  8
11
 10
543.393084
 20
360.559863
 30
0.0
 11
543.393084
 21
326.551174
 31
0.0
  0
LINE
  8
11
 10
613.393084
 20
359.051174
 30
0.0
 11
613.393084
 21
331.051174
 31
0.0
  0
LINE
  8
11
 10
611.893084
 20
360.551174
 30
0.0
 11
543.393084
 21
360.551174
 31
0.0
  0
ARC
  8
11
 10
611.893084
 20
359.051174
 30
0.0
 40
1.5
 50
0.0
 51
90.0
  0
LINE
  8
11
 10
546.393084
 20
358.051174
 30
0.0
 11
546.393084
 21
348.051174
 31
0.0
  0
LINE
  8
11
 10
556.893084
 20
348.051174
 30
0.0
 11
543.393084
 21
348.051174
 31
0.0
  0
LINE
  8
11
 10
575.893084
 20
352.051174
 30
0.0
 11
567.882994
 21
352.051174
 31
0.0
  0
LINE
  8
11
 10
556.893084
 20
348.051174
 30
0.0
 11
567.882994
 21
352.051174
 31
0.0
  0
LINE
  8
11
 10
603.893084
 20
353.551174
 30
0.0
 11
593.393084
 21
353.551174
 31
0.0
  0
LINE
  8
11
 10
575.893084
 20
352.051174
 30
0.0
 11
578.787446
 21
349.156812
 31
0.0
  0
ARC
  8
11
 10
579.848107
 20
350.217472
 30
0.0
 40
1.5
 50
225.0
 51
290.0
  0
LINE
  8
11
 10
593.393084
 20
353.551174
 30
0.0
 11
580.361137
 21
348.807934
 31
0.0
  0
LINE
  8
11
 10
605.393084
 20
352.051174
 30
0.0
 11
605.393084
 21
331.051174
 31
0.0
  0
ARC
  8
11
 10
603.893084
 20
352.051174
 30
0.0
 40
1.5
 50
0.0
 51
90.0
  0
LINE
  8
11
 10
596.393084
 20
331.051174
 30
0.0
 11
596.393084
 21
326.551174
 31
0.0
  0
LINE
  8
11
 10
613.393084
 20
331.051174
 30
0.0
 11
596.393084
 21
331.051174
 31
0.0
  0
LINE
  8
11
 10
546.393084
 20
358.051174
 30
0.0
 11
546.393084
 21
350.051174
 31
0.0
  0
LINE
  8
11
 10
575.893084
 20
352.051174
 30
0.0
 11
567.882994
 21
352.051174
 31
0.0
  0
LINE
  8
11
 10
546.393084
 20
295.374829
 30
0.0
 11
546.393084
 21
303.374829
 31
0.0
  0
LINE
  8
11
 10
613.393084
 20
322.374828
 30
0.0
 11
596.393084
 21
322.374828
 31
0.0
  0
LINE
  8
11
 10
596.393084
 20
322.374828
 30
0.0
 11
596.393084
 21
326.874829
 31
0.0
  0
ARC
  8
11
 10
603.893084
 20
301.374828
 30
0.0
 40
1.5
 50
270.0
 51
0.0
  0
LINE
  8
11
 10
605.393084
 20
301.374828
 30
0.0
 11
605.393084
 21
322.374828
 31
0.0
  0
LINE
  8
11
 10
593.393084
 20
299.874828
 30
0.0
 11
580.361137
 21
304.618069
 31
0.0
  0
ARC
  8
11
 10
579.848107
 20
303.20853
 30
0.0
 40
1.5
 50
70.0
 51
135.0
  0
LINE
  8
11
 10
575.893084
 20
301.374828
 30
0.0
 11
578.787446
 21
304.269191
 31
0.0
  0
LINE
  8
11
 10
603.893084
 20
299.874828
 30
0.0
 11
593.393084
 21
299.874828
 31
0.0
  0
LINE
  8
11
 10
556.893084
 20
305.374828
 30
0.0
 11
567.882994
 21
301.374828
 31
0.0
  0
LINE
  8
11
 10
575.893084
 20
301.374828
 30
0.0
 11
567.882994
 21
301.374828
 31
0.0
  0
LINE
  8
11
 10
556.893084
 20
305.374828
 30
0.0
 11
543.393084
 21
305.374828
 31
0.0
  0
LINE
  8
11
 10
546.393084
 20
295.374828
 30
0.0
 11
546.393084
 21
305.374828
 31
0.0
  0
ARC
  8
11
 10
611.893084
 20
294.374828
 30
0.0
 40
1.5
 50
270.0
 51
0.0
  0
LINE
  8
11
 10
611.893084
 20
292.874828
 30
0.0
 11
543.393084
 21
292.874828
 31
0.0
  0
LINE
  8
11
 10
613.393084
 20
294.374828
 30
0.0
 11
613.393084
 21
322.374828
 31
0.0
  0
LINE
  8
11
 10
543.393084
 20
292.86614
 30
0.0
 11
543.393084
 21
326.874829
 31
0.0
  0
LINE
  8
11
 10
543.393084
 20
292.86614
 30
0.0
 11
543.393084
 21
326.874829
 31
0.0
  0
LINE
  8
11
 10
674.893084
 20
399.713001
 30
0.0
 11
674.893084
 21
415.713001
 31
0.0
  0
LINE
  8
11
 10
614.893084
 20
399.713001
 30
0.0
 11
614.893084
 21
415.713001
 31
0.0
  0
LINE
  8
11
 10
614.893084
 20
399.713001
 30
0.0
 11
674.893084
 21
399.713001
 31
0.0
  0
LINE
  8
11
 10
614.893084
 20
250.713001
 30
0.0
 11
674.893084
 21
250.713001
 31
0.0
  0
LINE
  8
11
 10
614.893084
 20
237.713001
 30
0.0
 11
614.893084
 21
250.713001
 31
0.0
  0
LINE
  8
11
 10
674.893084
 20
237.713001
 30
0.0
 11
674.893084
 21
250.713001
 31
0.0
  0
ARC
  8
11
 10
513.393084
 20
363.713001
 30
0.0
 40
1.5
 50
180.0
 51
270.0
  0
ARC
  8
11
 10
541.893084
 20
360.713001
 30
0.0
 40
1.5
 50
0.0
 51
90.0
  0
ARC
  8
11
 10
541.893084
 20
292.713001
 30
0.0
 40
1.5
 50
270.0
 51
0.0
  0
ARC
  8
11
 10
513.393084
 20
289.713001
 30
0.0
 40
1.5
 50
90.0
 51
180.0
  0
LINE
  8
11
 10
511.893084
 20
363.713001
 30
0.0
 11
511.893084
 21
437.713001
 31
0.0
  0
LINE
  8
11
 10
541.893084
 20
291.213001
 30
0.0
 11
513.393084
 21
291.213001
 31
0.0
  0
LINE
  8
11
 10
541.893084
 20
362.213001
 30
0.0
 11
513.393084
 21
362.213001
 31
0.0
  0
LINE
  8
11
 10
543.393084
 20
360.713001
 30
0.0
 11
543.393084
 21
292.713001
 31
0.0
  0
LINE
  8
01
 10
515.893084
 20
415.713001
 30
0.0
 11
515.893084
 21
437.713001
 31
0.0
  0
LINE
  8
11
 10
511.893084
 20
415.713001
 30
0.0
 11
515.893084
 21
415.713001
 31
0.0
  0
LINE
  8
01
 10
511.893084
 20
215.213001
 30
0.0
 11
511.893084
 21
289.713001
 31
0.0
  0
LINE
  8
01
 10
511.893084
 20
437.713001
 30
0.0
 11
515.893084
 21
437.713001
 31
0.0
  0
LINE
  8
01
 10
515.893084
 20
215.713001
 30
0.0
 11
515.893084
 21
237.713001
 31
0.0
  0
POLYLINE
  8
01
 66
     1
 10
0.0
 20
0.0
 30
0.0
  0
VERTEX
  8
01
 10
496.893084
 20
438.213001
 30
0.0
  0
VERTEX
  8
01
 10
511.893084
 20
438.213001
 30
0.0
  0
SEQEND
  8
01
  0
LINE
  8
01
 10
496.893084
 20
437.713001
 30
0.0
 11
492.893084
 21
437.713001
 31
0.0
  0
POLYLINE
  8
01
 66
     1
 10
0.0
 20
0.0
 30
0.0
  0
VERTEX
  8
01
 10
496.893084
 20
413.213001
 30
0.0
  0
VERTEX
  8
01
 10
498.893084
 20
413.213001
 30
0.0
  0
SEQEND
  8
01
  0
LINE
  8
01
 10
496.893084
 20
413.213001
 30
0.0
 11
496.893084
 21
415.713001
 31
0.0
  0
LINE
  8
01
 10
496.893084
 20
415.713001
 30
0.0
 11
492.893084
 21
415.713001
 31
0.0
  0
LINE
  8
01
 10
492.893084
 20
415.713001
 30
0.0
 11
492.893084
 21
437.713001
 31
0.0
  0
LINE
  8
01
 10
496.893084
 20
237.713001
 30
0.0
 11
492.893084
 21
237.713001
 31
0.0
  0
POLYLINE
  8
01
 66
     1
 10
0.0
 20
0.0
 30
0.0
  0
VERTEX
  8
01
 10
496.893084
 20
215.213001
 30
0.0
  0
VERTEX
  8
01
 10
511.893084
 20
215.213001
 30
0.0
  0
SEQEND
  8
01
  0
LINE
  8
01
 10
511.893084
 20
215.713001
 30
0.0
 11
515.893084
 21
215.713001
 31
0.0
  0
LINE
  8
11
 10
511.893084
 20
438.213001
 30
0.0
 11
511.893084
 21
363.713001
 31
0.0
  0
LINE
  8
01
 10
496.893084
 20
215.713001
 30
0.0
 11
492.893084
 21
215.713001
 31
0.0
  0
LINE
  8
01
 10
492.893084
 20
237.713001
 30
0.0
 11
492.893084
 21
215.713001
 31
0.0
  0
POLYLINE
  8
01
 66
     1
 10
0.0
 20
0.0
 30
0.0
  0
VERTEX
  8
01
 10
496.893084
 20
240.213001
 30
0.0
  0
VERTEX
  8
01
 10
498.893084
 20
240.213001
 30
0.0
  0
SEQEND
  8
01
  0
LINE
  8
01
 10
496.893084
 20
240.213001
 30
0.0
 11
496.893084
 21
237.713001
 31
0.0
  0
LINE
  8
01
 10
498.893084
 20
413.213001
 30
0.0
 11
498.893084
 21
240.213001
 31
0.0
  0
LINE
  8
11
 10
638.893084
 20
237.713001
 30
0.0
 11
638.893084
 21
415.713001
 31
0.0
  0
ARC
  8
01
 10
715.893084
 20
268.213001
 30
0.0
 40
1.0
 50
90.0
 51
180.0
  0
ARC
  8
01
 10
715.893084
 20
385.213001
 30
0.0
 40
1.0
 50
180.0
 51
270.0
  0
ARC
  8
01
 10
717.893084
 20
383.213001
 30
0.0
 40
1.0
 50
0.0
 51
90.0
  0
ARC
  8
01
 10
717.893084
 20
270.213001
 30
0.0
 40
1.0
 50
270.0
 51
0.0
  0
LINE
  8
01
 10
714.893084
 20
268.213001
 30
0.0
 11
714.893084
 21
237.713001
 31
0.0
  0
LINE
  8
01
 10
714.893084
 20
415.713001
 30
0.0
 11
714.893084
 21
385.213001
 31
0.0
  0
LINE
  8
01
 10
715.893084
 20
384.213001
 30
0.0
 11
717.893084
 21
384.213001
 31
0.0
  0
LINE
  8
01
 10
715.893084
 20
269.213001
 30
0.0
 11
717.893084
 21
269.213001
 31
0.0
  0
LINE
  8
01
 10
632.893084
 20
237.713001
 30
0.0
 11
632.893084
 21
154.713001
 31
0.0
  0
LINE
  8
01
 10
515.893084
 20
237.713001
 30
0.0
 11
632.893084
 21
237.713001
 31
0.0
  0
LINE
  8
01
 10
718.893084
 20
383.213001
 30
0.0
 11
718.893084
 21
270.213001
 31
0.0
  0
LINE
  8
01
 10
515.893084
 20
437.713001
 30
0.0
 11
515.893084
 21
415.713001
 31
0.0
  0
TEXT
  8
12
 10
368.178338
 20
322.213001
 30
0.0
 40
4.5
  1
200
 50
90.0
 41
0.7
  7
ROMANS
 72
     1
 11
368.178338
 21
326.713001
 31
0.0
  0
LINE
  8
08
 10
369.378338
 20
226.713001
 30
0.0
 11
369.378338
 21
426.713001
 31
0.0
  0
INSERT
  8
08
  2
PILHUVUD
 10
369.378338
 20
426.713001
 30
0.0
 50
90.0
  0
INSERT
  8
08
  2
PILHUVUD
 10
369.378338
 20
226.713001
 30
0.0
 50
270.0
  0
LINE
  8
08
 10
316.181997
 20
426.713001
 30
0.0
 11
371.378338
 21
426.713001
 31
0.0
  0
LINE
  8
08
 10
316.181997
 20
226.713001
 30
0.0
 11
371.378338
 21
226.713001
 31
0.0
  0
TEXT
  8
12
 10
225.461498
 20
517.082161
 30
0.0
 40
4.5
  1
D=11 
 41
0.7
  7
ROMANS
 72
     2
 11
241.661498
 21
517.082161
 31
0.0
  0
LINE
  8
08
 10
223.808887
 20
516.49898
 30
0.0
 11
255.309928
 21
516.49898
 31
0.0
  0
LINE
  8
08
 10
208.747805
 20
483.287177
 30
0.0
 11
223.808887
 21
516.49898
 31
0.0
  0
INSERT
  8
08
  2
PILHUVUD
 10
208.751911
 20
483.292622
 30
0.0
 50
243.505357
  0
TEXT
  8
12
 10
34.050307
 20
180.517425
 30
0.0
 40
4.5
  1
For M6
 41
0.7
  7
ROMANS
  0
LINE
  8
08
 10
60.344349
 20
179.317425
 30
0.0
 11
25.227889
 21
179.317425
 31
0.0
  0
LINE
  8
08
 10
90.249364
 20
222.124552
 30
0.0
 11
60.344349
 21
179.317425
 31
0.0
  0
INSERT
  8
08
  2
PILHUVUD
 10
90.249364
 20
222.124552
 30
0.0
 50
55.1
  0
ARC
  8
04
 10
96.181997
 20
426.713001
 30
0.0
 40
7.5
 50
317.166572
 51
42.833428
  0
ARC
  8
04
 10
96.181997
 20
426.713001
 30
0.0
 40
7.5
 50
42.833428
 51
158.96053
  0
ARC
  8
04
 10
96.181997
 20
226.713001
 30
0.0
 40
7.5
 50
317.166572
 51
42.833428
  0
ARC
  8
04
 10
96.181997
 20
226.713001
 30
0.0
 40
7.5
 50
138.189685
 51
158.96053
  0
TEXT
  8
11
 10
75.4536
 20
556.802475
 30
0.0
 40
5.0
  1
1)
 41
0.7
  7
ROMANS
  0
LINE
  8
08
 10
328.181997
 20
503.311292
 30
0.0
 11
328.181997
 21
551.914208
 31
0.0
  0
LINE
  8
03
 10
311.181997
 20
360.713001
 30
0.0
 11
328.181997
 21
360.713001
 31
0.0
  0
LINE
  8
03
 10
311.181997
 20
292.713001
 30
0.0
 11
328.181997
 21
292.713001
 31
0.0
  0
TEXT
  8
12
 10
68.211716
 20
551.114208
 30
0.0
 40
4.5
  1
9
 41
0.7
  7
ROMANS
 72
     1
 11
69.636716
 21
551.114208
 31
0.0
  0
LINE
  8
08
 10
67.859827
 20
549.914208
 30
0.0
 11
84.181997
 21
549.914208
 31
0.0
  0
INSERT
  8
08
  2
PILHUVUD
 10
84.181997
 20
549.914208
 30
0.0
  0
INSERT
  8
08
  2
PILHUVUD
 10
75.181997
 20
549.914208
 30
0.0
 50
180.0
  0
LINE
  8
08
 10
84.181997
 20
523.437788
 30
0.0
 11
84.181997
 21
551.914208
 31
0.0
  0
LINE
  8
08
 10
75.181997
 20
360.713001
 30
0.0
 11
75.181997
 21
551.914208
 31
0.0
  0
LINE
  8
03
 10
88.181997
 20
292.713001
 30
0.0
 11
75.181997
 21
292.713001
 31
0.0
  0
LINE
  8
03
 10
88.181997
 20
360.713001
 30
0.0
 11
75.181997
 21
360.713001
 31
0.0
  0
LINE
  8
03
 10
75.181997
 20
360.713001
 30
0.0
 11
75.181997
 21
292.713001
 31
0.0
  0
TEXT
  8
12
 10
201.681997
 20
535.141458
 30
0.0
 40
4.5
  1
220
 41
0.7
  7
ROMANS
 72
     1
 11
206.181997
 21
535.141458
 31
0.0
  0
LINE
  8
08
 10
96.181997
 20
533.941458
 30
0.0
 11
316.181997
 21
533.941458
 31
0.0
  0
INSERT
  8
08
  2
PILHUVUD
 10
316.181997
 20
533.941458
 30
0.0
  0
INSERT
  8
08
  2
PILHUVUD
 10
96.181997
 20
533.941458
 30
0.0
 50
180.0
  0
LINE
  8
08
 10
316.181997
 20
426.713001
 30
0.0
 11
316.181997
 21
535.941458
 31
0.0
  0
LINE
  8
08
 10
96.181997
 20
426.713001
 30
0.0
 11
96.181997
 21
535.941458
 31
0.0
  0
TEXT
  8
12
 10
201.606997
 20
551.114208
 30
0.0
 40
4.5
  1
244
 41
0.7
  7
ROMANS
 72
     1
 11
206.181997
 21
551.114208
 31
0.0
  0
LINE
  8
08
 10
84.181997
 20
549.914208
 30
0.0
 11
328.181997
 21
549.914208
 31
0.0
  0
INSERT
  8
08
  2
PILHUVUD
 10
328.181997
 20
549.914208
 30
0.0
  0
INSERT
  8
08
  2
PILHUVUD
 10
84.181997
 20
549.914208
 30
0.0
 50
180.0
  0
LINE
  8
08
 10
328.181997
 20
431.713001
 30
0.0
 11
328.181997
 21
551.914208
 31
0.0
  0
LINE
  8
08
 10
84.181997
 20
431.713001
 30
0.0
 11
84.181997
 21
551.914208
 31
0.0
  0
ARC
  8
11
 10
91.681997
 20
414.213001
 30
0.0
 40
1.5
 50
90.0
 51
180.0
  0
ARC
  8
11
 10
91.681997
 20
401.213001
 30
0.0
 40
1.5
 50
180.0
 51
270.0
  0
ARC
  8
11
 10
94.681997
 20
411.213001
 30
0.0
 40
1.5
 50
90.0
 51
180.0
  0
ARC
  8
11
 10
94.681997
 20
404.213001
 30
0.0
 40
1.5
 50
180.0
 51
270.0
  0
LINE
  8
11
 10
101.181997
 20
412.713001
 30
0.0
 11
94.681997
 21
412.713001
 31
0.0
  0
LINE
  8
11
 10
93.181997
 20
411.213001
 30
0.0
 11
93.181997
 21
404.213001
 31
0.0
  0
LINE
  8
11
 10
94.681997
 20
402.713001
 30
0.0
 11
101.181997
 21
402.713001
 31
0.0
  0
ARC
  8
11
 10
94.681997
 20
249.213001
 30
0.0
 40
1.5
 50
90.0
 51
180.0
  0
ARC
  8
11
 10
94.681997
 20
242.213001
 30
0.0
 40
1.5
 50
180.0
 51
270.0
  0
ARC
  8
11
 10
91.681997
 20
239.213001
 30
0.0
 40
1.5
 50
180.0
 51
270.0
  0
ARC
  8
11
 10
91.681997
 20
252.213001
 30
0.0
 40
1.5
 50
90.0
 51
180.0
  0
LINE
  8
11
 10
94.681997
 20
250.713001
 30
0.0
 11
101.181997
 21
250.713001
 31
0.0
  0
LINE
  8
11
 10
93.181997
 20
242.213001
 30
0.0
 11
93.181997
 21
249.213001
 31
0.0
  0
LINE
  8
11
 10
101.181997
 20
240.713001
 30
0.0
 11
94.681997
 21
240.713001
 31
0.0
  0
ARC
  8
11
 10
317.681997
 20
404.213001
 30
0.0
 40
1.5
 50
270.0
 51
0.0
  0
ARC
  8
11
 10
317.681997
 20
411.213001
 30
0.0
 40
1.5
 50
0.0
 51
90.0
  0
ARC
  8
11
 10
320.681997
 20
414.213001
 30
0.0
 40
1.5
 50
0.0
 51
90.0
  0
ARC
  8
11
 10
320.681997
 20
401.213001
 30
0.0
 40
1.5
 50
270.0
 51
0.0
  0
LINE
  8
11
 10
317.681997
 20
402.713001
 30
0.0
 11
311.181997
 21
402.713001
 31
0.0
  0
LINE
  8
11
 10
319.181997
 20
411.213001
 30
0.0
 11
319.181997
 21
404.213001
 31
0.0
  0
LINE
  8
11
 10
311.181997
 20
412.713001
 30
0.0
 11
317.681997
 21
412.713001
 31
0.0
  0
ARC
  8
11
 10
317.681997
 20
242.213001
 30
0.0
 40
1.5
 50
270.0
 51
0.0
  0
ARC
  8
11
 10
317.681997
 20
249.213001
 30
0.0
 40
1.5
 50
0.0
 51
90.0
  0
ARC
  8
11
 10
320.681997
 20
252.213001
 30
0.0
 40
1.5
 50
0.0
 51
90.0
  0
ARC
  8
11
 10
320.681997
 20
239.213001
 30
0.0
 40
1.5
 50
270.0
 51
0.0
  0
LINE
  8
11
 10
317.681997
 20
250.713001
 30
0.0
 11
311.181997
 21
250.713001
 31
0.0
  0
LINE
  8
11
 10
319.181997
 20
242.213001
 30
0.0
 11
319.181997
 21
249.213001
 31
0.0
  0
LINE
  8
11
 10
311.181997
 20
240.713001
 30
0.0
 11
317.681997
 21
240.713001
 31
0.0
  0
LINE
  8
11
 10
236.181997
 20
415.713001
 30
0.0
 11
236.181997
 21
438.213001
 31
0.0
  0
LINE
  8
11
 10
257.181997
 20
419.475397
 30
0.0
 11
257.181997
 21
438.213001
 31
0.0
  0
ARC
  8
01
 10
85.681997
 20
216.713001
 30
0.0
 40
1.5
 50
180.0
 51
270.0
  0
ARC
  8
01
 10
326.681997
 20
216.713001
 30
0.0
 40
1.5
 50
270.0
 51
0.0
  0
ARC
  8
01
 10
326.681997
 20
436.713001
 30
0.0
 40
1.5
 50
0.0
 51
90.0
  0
ARC
  8
01
 10
85.681997
 20
436.713001
 30
0.0
 40
1.5
 50
90.0
 51
180.0
  0
LINE
  8
11
 10
311.181997
 20
384.213001
 30
0.0
 11
101.181997
 21
384.213001
 31
0.0
  0
LINE
  8
11
 10
311.181997
 20
269.213001
 30
0.0
 11
101.181997
 21
269.213001
 31
0.0
  0
CIRCLE
  8
04
 10
96.181997
 20
426.713001
 30
0.0
 40
3.0
  0
CIRCLE
  8
04
 10
96.181997
 20
226.713001
 30
0.0
 40
3.0
  0
POINT
  8
11
 10
101.181997
 20
326.713001
 30
0.0
  0
LINE
  8
03
 10
101.181997
 20
360.713001
 30
0.0
 11
88.181997
 21
360.713001
 31
0.0
  0
LINE
  8
03
 10
88.181997
 20
292.713001
 30
0.0
 11
101.181997
 21
292.713001
 31
0.0
  0
LINE
  8
01
 10
139.181997
 20
438.213001
 30
0.0
 11
181.181997
 21
438.213001
 31
0.0
  0
LINE
  8
01
 10
231.181997
 20
438.213001
 30
0.0
 11
273.181997
 21
438.213001
 31
0.0
  0
LINE
  8
01
 10
323.181997
 20
438.213001
 30
0.0
 11
326.681997
 21
438.213001
 31
0.0
  0
LINE
  8
01
 10
328.181997
 20
436.713001
 30
0.0
 11
328.181997
 21
431.713001
 31
0.0
  0
LINE
  8
01
 10
84.181997
 20
431.713001
 30
0.0
 11
84.181997
 21
436.713001
 31
0.0
  0
LINE
  8
01
 10
85.681997
 20
438.213001
 30
0.0
 11
89.181997
 21
438.213001
 31
0.0
  0
LINE
  8
01
 10
273.181997
 20
215.213001
 30
0.0
 11
231.181997
 21
215.213001
 31
0.0
  0
LINE
  8
01
 10
181.181997
 20
215.213001
 30
0.0
 11
139.181997
 21
215.213001
 31
0.0
  0
LINE
  8
01
 10
89.181997
 20
215.213001
 30
0.0
 11
85.681997
 21
215.213001
 31
0.0
  0
LINE
  8
01
 10
84.181997
 20
216.713001
 30
0.0
 11
84.181997
 21
221.713001
 31
0.0
  0
LINE
  8
01
 10
328.181997
 20
221.713001
 30
0.0
 11
328.181997
 21
216.713001
 31
0.0
  0
LINE
  8
01
 10
326.681997
 20
215.213001
 30
0.0
 11
323.181997
 21
215.213001
 31
0.0
  0
LINE
  8
11
 10
101.181997
 20
415.713001
 30
0.0
 11
101.181997
 21
326.713001
 31
0.0
  0
LINE
  8
11
 10
311.181997
 20
415.713001
 30
0.0
 11
101.181997
 21
415.713001
 31
0.0
  0
LINE
  8
11
 10
311.181997
 20
326.713001
 30
0.0
 11
311.181997
 21
415.713001
 31
0.0
  0
LINE
  8
01
 10
84.181997
 20
431.713001
 30
0.0
 11
84.181997
 21
360.713001
 31
0.0
  0
LINE
  8
01
 10
328.181997
 20
360.713001
 30
0.0
 11
328.181997
 21
431.713001
 31
0.0
  0
LINE
  8
11
 10
311.181997
 20
237.713001
 30
0.0
 11
101.181997
 21
237.713001
 31
0.0
  0
LINE
  8
01
 10
84.181997
 20
221.713001
 30
0.0
 11
84.181997
 21
292.713001
 31
0.0
  0
LINE
  8
11
 10
101.181997
 20
237.713001
 30
0.0
 11
101.181997
 21
326.713001
 31
0.0
  0
LINE
  8
11
 10
311.181997
 20
326.713001
 30
0.0
 11
311.181997
 21
237.713001
 31
0.0
  0
LINE
  8
01
 10
328.181997
 20
292.713001
 30
0.0
 11
328.181997
 21
221.713001
 31
0.0
  0
POINT
  8
11
 10
101.181997
 20
326.713001
 30
0.0
  0
POINT
  8
11
 10
311.181997
 20
326.713001
 30
0.0
  0
POINT
  8
01
 10
328.181997
 20
326.713001
 30
0.0
  0
LINE
  8
01
 10
328.181997
 20
360.713001
 30
0.0
 11
328.181997
 21
292.713001
 31
0.0
  0
LINE
  8
01
 10
84.181997
 20
360.713001
 30
0.0
 11
84.181997
 21
292.713001
 31
0.0
  0
LINE
  8
11
 10
311.181997
 20
237.713001
 30
0.0
 11
320.681997
 21
237.713001
 31
0.0
  0
LINE
  8
11
 10
322.181997
 20
239.213001
 30
0.0
 11
322.181997
 21
252.213001
 31
0.0
  0
LINE
  8
11
 10
320.681997
 20
253.713001
 30
0.0
 11
311.181997
 21
253.713001
 31
0.0
  0
LINE
  8
11
 10
91.681997
 20
253.713001
 30
0.0
 11
101.181997
 21
253.713001
 31
0.0
  0
LINE
  8
11
 10
90.181997
 20
239.213001
 30
0.0
 11
90.181997
 21
252.213001
 31
0.0
  0
LINE
  8
11
 10
101.181997
 20
237.713001
 30
0.0
 11
91.681997
 21
237.713001
 31
0.0
  0
LINE
  8
11
 10
101.181997
 20
415.713001
 30
0.0
 11
91.681997
 21
415.713001
 31
0.0
  0
LINE
  8
11
 10
90.181997
 20
414.213001
 30
0.0
 11
90.181997
 21
401.213001
 31
0.0
  0
LINE
  8
11
 10
91.681997
 20
399.713001
 30
0.0
 11
101.181997
 21
399.713001
 31
0.0
  0
LINE
  8
11
 10
320.681997
 20
399.713001
 30
0.0
 11
311.181997
 21
399.713001
 31
0.0
  0
LINE
  8
11
 10
322.181997
 20
414.213001
 30
0.0
 11
322.181997
 21
401.213001
 31
0.0
  0
LINE
  8
11
 10
311.181997
 20
415.713001
 30
0.0
 11
320.681997
 21
415.713001
 31
0.0
  0
LINE
  8
01
 10
89.181997
 20
498.713001
 30
0.0
 11
89.181997
 21
438.213001
 31
0.0
  0
LINE
  8
11
 10
89.181997
 20
421.713001
 30
0.0
 11
105.181997
 21
421.713001
 31
0.0
  0
LINE
  8
11
 10
139.181997
 20
428.713001
 30
0.0
 11
161.181997
 21
416.011295
 31
0.0
  0
LINE
  8
01
 10
139.181997
 20
498.713001
 30
0.0
 11
139.181997
 21
438.213001
 31
0.0
  0
LINE
  8
01
 10
89.181997
 20
498.713001
 30
0.0
 11
139.181997
 21
498.713001
 31
0.0
  0
CIRCLE
  8
01
 10
114.181997
 20
478.713001
 30
0.0
 40
5.5
  0
CIRCLE
  8
01
 10
114.181997
 20
444.213001
 30
0.0
 40
5.5
  0
LINE
  8
11
 10
181.181997
 20
421.713001
 30
0.0
 11
186.181997
 21
421.713001
 31
0.0
  0
LINE
  8
01
 10
181.181997
 20
498.713001
 30
0.0
 11
181.181997
 21
438.213001
 31
0.0
  0
LINE
  8
01
 10
181.181997
 20
498.713001
 30
0.0
 11
231.181997
 21
498.713001
 31
0.0
  0
LINE
  8
01
 10
231.181997
 20
498.713001
 30
0.0
 11
231.181997
 21
438.213001
 31
0.0
  0
LINE
  8
11
 10
226.181997
 20
421.713001
 30
0.0
 11
226.181997
 21
415.713001
 31
0.0
  0
LINE
  8
11
 10
231.181997
 20
421.713001
 30
0.0
 11
226.181997
 21
421.713001
 31
0.0
  0
CIRCLE
  8
01
 10
206.181997
 20
444.213001
 30
0.0
 40
5.5
  0
CIRCLE
  8
01
 10
206.181997
 20
478.713001
 30
0.0
 40
5.5
  0
LINE
  8
11
 10
273.181997
 20
428.713001
 30
0.0
 11
251.181997
 21
416.011295
 31
0.0
  0
LINE
  8
01
 10
273.181997
 20
498.713001
 30
0.0
 11
273.181997
 21
438.213001
 31
0.0
  0
LINE
  8
01
 10
323.181997
 20
498.713001
 30
0.0
 11
273.181997
 21
498.713001
 31
0.0
  0
LINE
  8
01
 10
323.181997
 20
498.713001
 30
0.0
 11
323.181997
 21
438.213001
 31
0.0
  0
LINE
  8
11
 10
323.181997
 20
421.713001
 30
0.0
 11
307.181997
 21
421.713001
 31
0.0
  0
CIRCLE
  8
01
 10
298.181997
 20
444.213001
 30
0.0
 40
5.5
  0
CIRCLE
  8
01
 10
298.181997
 20
478.713001
 30
0.0
 40
5.5
  0
LINE
  8
11
 10
307.181997
 20
231.713001
 30
0.0
 11
307.181997
 21
237.713001
 31
0.0
  0
LINE
  8
11
 10
323.181997
 20
231.713001
 30
0.0
 11
307.181997
 21
231.713001
 31
0.0
  0
LINE
  8
01
 10
323.181997
 20
154.713001
 30
0.0
 11
323.181997
 21
215.213001
 31
0.0
  0
LINE
  8
01
 10
323.181997
 20
154.713001
 30
0.0
 11
273.181997
 21
154.713001
 31
0.0
  0
LINE
  8
01
 10
273.181997
 20
154.713001
 30
0.0
 11
273.181997
 21
215.213001
 31
0.0
  0
LINE
  8
11
 10
273.181997
 20
224.713001
 30
0.0
 11
251.181997
 21
237.414707
 31
0.0
  0
CIRCLE
  8
01
 10
298.181997
 20
209.213001
 30
0.0
 40
5.5
  0
CIRCLE
  8
01
 10
298.181997
 20
174.713001
 30
0.0
 40
5.5
  0
LINE
  8
11
 10
226.181997
 20
231.713001
 30
0.0
 11
226.181997
 21
237.713001
 31
0.0
  0
LINE
  8
01
 10
231.181997
 20
154.713001
 30
0.0
 11
231.181997
 21
215.213001
 31
0.0
  0
LINE
  8
01
 10
181.181997
 20
154.713001
 30
0.0
 11
231.181997
 21
154.713001
 31
0.0
  0
LINE
  8
01
 10
181.181997
 20
154.713001
 30
0.0
 11
181.181997
 21
215.213001
 31
0.0
  0
LINE
  8
11
 10
181.181997
 20
231.713001
 30
0.0
 11
186.181997
 21
231.713001
 31
0.0
  0
LINE
  8
11
 10
186.181997
 20
231.713001
 30
0.0
 11
186.181997
 21
237.713001
 31
0.0
  0
CIRCLE
  8
01
 10
206.181997
 20
209.213001
 30
0.0
 40
5.5
  0
CIRCLE
  8
01
 10
206.181997
 20
174.713001
 30
0.0
 40
5.5
  0
LINE
  8
11
 10
139.181997
 20
224.713001
 30
0.0
 11
161.181997
 21
237.414707
 31
0.0
  0
LINE
  8
01
 10
139.181997
 20
154.713001
 30
0.0
 11
139.181997
 21
215.213001
 31
0.0
  0
LINE
  8
01
 10
89.181997
 20
154.713001
 30
0.0
 11
139.181997
 21
154.713001
 31
0.0
  0
LINE
  8
01
 10
89.181997
 20
154.713001
 30
0.0
 11
89.181997
 21
215.213001
 31
0.0
  0
LINE
  8
11
 10
89.181997
 20
231.713001
 30
0.0
 11
105.181997
 21
231.713001
 31
0.0
  0
LINE
  8
11
 10
105.181997
 20
231.713001
 30
0.0
 11
105.181997
 21
237.713001
 31
0.0
  0
CIRCLE
  8
01
 10
114.181997
 20
209.213001
 30
0.0
 40
5.5
  0
CIRCLE
  8
01
 10
114.181997
 20
174.713001
 30
0.0
 40
5.5
  0
LINE
  8
11
 10
186.181997
 20
421.713001
 30
0.0
 11
186.181997
 21
415.713001
 31
0.0
  0
LINE
  8
11
 10
105.181997
 20
421.713001
 30
0.0
 11
105.181997
 21
415.713001
 31
0.0
  0
LINE
  8
11
 10
307.181997
 20
421.713001
 30
0.0
 11
307.181997
 21
415.713001
 31
0.0
  0
CIRCLE
  8
11
 10
246.681997
 20
429.213001
 30
0.0
 40
8.0
  0
ARC
  8
04
 10
96.181997
 20
426.713001
 30
0.0
 40
7.5
 50
201.03947
 51
221.810315
  0
ARC
  8
01
 10
96.181997
 20
426.713001
 30
0.0
 40
7.5
 50
158.96053
 51
201.03947
  0
ARC
  8
01
 10
96.181997
 20
426.713001
 30
0.0
 40
7.5
 50
221.810315
 51
318.189685
  0
ARC
  8
04
 10
96.181997
 20
226.713001
 30
0.0
 40
7.5
 50
201.03947
 51
317.166572
  0
ARC
  8
01
 10
96.181997
 20
226.713001
 30
0.0
 40
7.5
 50
41.810315
 51
138.189685
  0
ARC
  8
01
 10
96.181997
 20
226.713001
 30
0.0
 40
7.5
 50
158.96053
 51
201.03947
  0
ARC
  8
04
 10
316.181997
 20
426.713001
 30
0.0
 40
7.5
 50
137.166572
 51
222.833428
  0
ARC
  8
04
 10
316.181997
 20
426.713001
 30
0.0
 40
7.5
 50
21.03947
 51
137.166572
  0
ARC
  8
01
 10
316.181997
 20
426.713001
 30
0.0
 40
7.5
 50
221.810315
 51
318.189685
  0
ARC
  8
04
 10
316.181997
 20
226.713001
 30
0.0
 40
7.5
 50
137.166572
 51
222.833428
  0
ARC
  8
04
 10
316.181997
 20
226.713001
 30
0.0
 40
7.5
 50
222.833428
 51
338.96053
  0
ARC
  8
01
 10
316.181997
 20
226.713001
 30
0.0
 40
7.5
 50
41.810315
 51
138.189685
  0
CIRCLE
  8
04
 10
316.181997
 20
226.713001
 30
0.0
 40
3.0
  0
ARC
  8
04
 10
316.181997
 20
226.713001
 30
0.0
 40
7.5
 50
21.03947
 51
41.810315
  0
ARC
  8
01
 10
316.181997
 20
226.713001
 30
0.0
 40
7.5
 50
338.96053
 51
21.03947
  0
CIRCLE
  8
04
 10
316.181997
 20
426.713001
 30
0.0
 40
3.0
  0
ARC
  8
01
 10
316.181997
 20
426.713001
 30
0.0
 40
7.5
 50
221.810315
 51
318.189685
  0
ARC
  8
01
 10
316.181997
 20
426.713001
 30
0.0
 40
7.5
 50
338.96053
 51
21.03947
  0
LINE
  8
11
 10
231.181997
 20
231.713001
 30
0.0
 11
226.181997
 21
231.713001
 31
0.0
  0
LINE
  8
11
 10
89.181997
 20
438.213001
 30
0.0
 11
89.181997
 21
421.713001
 31
0.0
  0
LINE
  8
11
 10
139.181997
 20
438.213001
 30
0.0
 11
139.181997
 21
428.713001
 31
0.0
  0
LINE
  8
11
 10
181.181997
 20
438.213001
 30
0.0
 11
181.181997
 21
421.713001
 31
0.0
  0
LINE
  8
11
 10
231.181997
 20
438.213001
 30
0.0
 11
231.181997
 21
421.713001
 31
0.0
  0
LINE
  8
11
 10
273.181997
 20
438.213001
 30
0.0
 11
273.181997
 21
428.713001
 31
0.0
  0
LINE
  8
11
 10
323.181997
 20
438.213001
 30
0.0
 11
323.181997
 21
421.713001
 31
0.0
  0
LINE
  8
11
 10
323.181997
 20
215.213001
 30
0.0
 11
323.181997
 21
231.713001
 31
0.0
  0
LINE
  8
11
 10
273.181997
 20
215.213001
 30
0.0
 11
273.181997
 21
224.713001
 31
0.0
  0
LINE
  8
11
 10
231.181997
 20
215.213001
 30
0.0
 11
231.181997
 21
231.713001
 31
0.0
  0
LINE
  8
11
 10
181.181997
 20
215.213001
 30
0.0
 11
181.181997
 21
231.713001
 31
0.0
  0
LINE
  8
11
 10
139.181997
 20
215.213001
 30
0.0
 11
139.181997
 21
224.713001
 31
0.0
  0
LINE
  8
11
 10
89.181997
 20
215.213001
 30
0.0
 11
89.181997
 21
231.713001
 31
0.0
  0
LINE
  8
08
 10
323.181997
 20
154.713001
 30
0.0
 11
397.158744
 21
154.713001
 31
0.0
  0
LINE
  8
08
 10
323.181997
 20
498.713001
 30
0.0
 11
397.158744
 21
498.713001
 31
0.0
  0
INSERT
  8
08
  2
PILHUVUD
 10
395.158744
 20
154.713001
 30
0.0
 50
270.0
  0
INSERT
  8
08
  2
PILHUVUD
 10
395.158744
 20
498.713001
 30
0.0
 50
90.0
  0
LINE
  8
08
 10
395.158744
 20
154.713001
 30
0.0
 11
395.158744
 21
498.713001
 31
0.0
  0
TEXT
  8
12
 10
393.958744
 20
322.138001
 30
0.0
 40
4.5
  1
344
 50
90.0
 41
0.7
  7
ROMANS
 72
     1
 11
393.958744
 21
326.713001
 31
0.0
  0
LINE
  8
08
 10
323.181997
 20
154.713001
 30
0.0
 11
371.31072
 21
154.713001
 31
0.0
  0
LINE
  8
08
 10
298.181997
 20
174.713001
 30
0.0
 11
371.31072
 21
174.713001
 31
0.0
  0
INSERT
  8
08
  2
PILHUVUD
 10
369.31072
 20
154.713001
 30
0.0
 50
270.0
  0
INSERT
  8
08
  2
PILHUVUD
 10
369.31072
 20
174.713001
 30
0.0
 50
90.0
  0
LINE
  8
08
 10
369.31072
 20
154.713001
 30
0.0
 11
369.31072
 21
174.713001
 31
0.0
  0
TEXT
  8
12
 10
368.11072
 20
161.713001
 30
0.0
 40
4.5
  1
20
 50
90.0
 41
0.7
  7
ROMANS
 72
     1
 11
368.11072
 21
164.713001
 31
0.0
  0
LINE
  8
08
 10
114.181997
 20
174.713001
 30
0.0
 11
114.181997
 21
144.884375
 31
0.0
  0
LINE
  8
08
 10
206.181997
 20
174.713001
 30
0.0
 11
206.181997
 21
117.888945
 31
0.0
  0
INSERT
  8
08
  2
PILHUVUD
 10
114.181997
 20
119.888945
 30
0.0
 50
180.0
  0
INSERT
  8
08
  2
PILHUVUD
 10
206.181997
 20
119.888945
 30
0.0
  0
LINE
  8
08
 10
114.181997
 20
119.888945
 30
0.0
 11
206.181997
 21
119.888945
 31
0.0
  0
TEXT
  8
12
 10
157.181997
 20
121.088945
 30
0.0
 40
4.5
  1
92
 41
0.7
  7
ROMANS
 72
     1
 11
160.181997
 21
121.088945
 31
0.0
  0
TEXT
  8
11
 10
194.326762
 20
248.225483
 30
0.0
 40
7.5
  1
4/T2
 41
0.7
  7
ROMANS
  0
TEXT
  8
11
 10
276.983605
 20
248.541869
 30
0.0
 40
7.5
  1
6/T3
 41
0.7
  7
ROMANS
  0
TEXT
  8
11
 10
116.732008
 20
247.909097
 30
0.0
 40
7.5
  1
2/T1
 41
0.7
  7
ROMANS
  0
TEXT
  8
11
 10
117.206558
 20
397.024743
 30
0.0
 40
7.5
  1
1/L1
 41
0.7
  7
ROMANS
  0
TEXT
  8
11
 10
194.564085
 20
396.708357
 30
0.0
 40
7.5
  1
3/L2
 41
0.7
  7
ROMANS
  0
TEXT
  8
11
 10
278.72375
 20
396.708357
 30
0.0
 40
7.5
  1
5/L3
 41
0.7
  7
ROMANS
  0
TEXT
  8
11
 10
171.978646
 20
217.955956
 30
0.0
 40
5.25
  1
A1
 41
0.7
  7
ROMANS
  0
TEXT
  8
11
 10
235.073843
 20
217.955956
 30
0.0
 40
5.25
  1
A2
 41
0.7
  7
ROMANS
  0
TEXT
  8
11
 10
510.066931
 20
471.518505
 30
0.0
 40
5.0
  1
4)
 41
0.7
  7
ROMANS
  0
TEXT
  8
11
 10
243.558126
 20
521.512997
 30
0.0
 40
5.0
  1
2)
 41
0.7
  7
ROMANS
  0
TEXT
  8
01
 10
687.422939
 20
78.926223
 30
0.0
 40
7.0
  1
EH 1200
 41
0.7
  7
ROMANS
  0
TEXT
  8
11
 10
95.476003
 20
72.075193
 30
0.0
 40
5.25
  1
2)
 41
0.7
  7
ROMANS
  0
TEXT
  8
11
 10
95.476003
 20
57.063446
 30
0.0
 40
5.25
  1
3)
 41
0.7
  7
ROMANS
  0
TEXT
  8
11
 10
95.476003
 20
87.190888
 30
0.0
 40
5.25
  1
1)
 41
0.7
  7
ROMANS
  0
TEXT
  8
11
 10
106.982184
 20
72.086412
 30
0.0
 40
5.25
  1
Screw, nut and washer included
 41
0.7
  7
ROMANS
  0
TEXT
  8
11
 10
106.67302
 20
56.610082
 30
0.0
 40
5.25
  1
Min. distance to uninsulated wall
 41
0.7
  7
ROMANS
  0
TEXT
  8
11
 10
106.358266
 20
87.15961
 30
0.0
 40
5.25
  1
Dimension for extra auxiliary contact block
 41
0.7
  7
ROMANS
  0
TEXT
  8
11
 10
255.979944
 20
87.190888
 30
0.0
 40
5.25
  1
1)
 41
0.7
  7
ROMANS
  0
TEXT
  8
11
 10
255.979944
 20
57.063446
 30
0.0
 40
5.25
  1
3)
 41
0.7
  7
ROMANS
  0
TEXT
  8
11
 10
255.979944
 20
72.075193
 30
0.0
 40
5.25
  1
2)
 41
0.7
  7
ROMANS
  0
TEXT
  8
11
 10
268.089694
 20
86.590558
 30
0.0
 40
5.25
  1
Mått för extra hjälpkontaktblock
 41
0.7
  7
ROMANS
  0
TEXT
  8
11
 10
268.089694
 20
71.590558
 30
0.0
 40
5.25
  1
Skruv, mutter och bricka ingår
 41
0.7
  7
ROMANS
  0
TEXT
  8
11
 10
268.089694
 20
56.590558
 30
0.0
 40
5.25
  1
Minimiavstånd till oisolerad vägg
 41
0.7
  7
ROMANS
  0
TEXT
  8
11
 10
96.103678
 20
40.864012
 30
0.0
 40
5.25
  1
4)
 41
0.7
  7
ROMANS
  0
TEXT
  8
11
 10
106.829793
 20
40.57412
 30
0.0
 40
5.25
  1
Damping elements are included
 41
0.7
  7
ROMANS
  0
TEXT
  8
11
 10
256.652585
 20
40.864012
 30
0.0
 40
5.25
  1
4)
 41
0.7
  7
ROMANS
  0
TEXT
  8
11
 10
268.53828
 20
40.284228
 30
0.0
 40
5.25
  1
Inklusive dämpelement
 41
0.7
  7
ROMANS
  0
TEXT
  8
11
 10
256.933105
 20
25.400355
 30
0.0
 40
5.25
  1
5) Jordningsskruv
 41
0.7
  7
ROMANS
  0
TEXT
  8
11
 10
96.936507
 20
24.160314
 30
0.0
 40
5.25
  1
5) Earthing screw
 41
0.7
  7
ROMANS
  0
LINE
  8
08
 10
89.181997
 20
154.713001
 30
0.0
 11
89.181997
 21
133.7356
 31
0.0
  0
LINE
  8
08
 10
139.181997
 20
154.713001
 30
0.0
 11
139.181997
 21
133.7356
 31
0.0
  0
INSERT
  8
08
  2
PILHUVUD
 10
89.181997
 20
135.7356
 30
0.0
 50
180.0
  0
INSERT
  8
08
  2
PILHUVUD
 10
139.181997
 20
135.7356
 30
0.0
  0
LINE
  8
08
 10
89.181997
 20
135.7356
 30
0.0
 11
139.181997
 21
135.7356
 31
0.0
  0
TEXT
  8
12
 10
111.181997
 20
136.9356
 30
0.0
 40
4.5
  1
50
 41
0.7
  7
ROMANS
 72
     1
 11
114.181997
 21
136.9356
 31
0.0
  0
LINE
  8
08
 10
114.181997
 20
132.165346
 30
0.0
 11
114.181997
 21
117.888945
 31
0.0
  0
LINE
  8
08
 10
298.181997
 20
209.213001
 30
0.0
 11
371.31072
 21
209.213001
 31
0.0
  0
LINE
  8
08
 10
371.31072
 20
174.713001
 30
0.0
 11
367.31072
 21
174.713001
 31
0.0
  0
INSERT
  8
08
  2
PILHUVUD
 10
369.31072
 20
209.213001
 30
0.0
 50
90.0
  0
INSERT
  8
08
  2
PILHUVUD
 10
369.31072
 20
174.713001
 30
0.0
 50
270.0
  0
LINE
  8
08
 10
369.31072
 20
209.213001
 30
0.0
 11
369.31072
 21
174.713001
 31
0.0
  0
TEXT
  8
12
 10
368.11072
 20
186.713001
 30
0.0
 40
4.5
  1
34,5
 50
90.0
 41
0.7
  7
ROMANS
 72
     1
 11
368.11072
 21
191.963001
 31
0.0
  0
TEXT
  8
11
 10
315.90132
 20
348.020151
 30
0.0
 40
5.25
  1
47
 41
0.7
  7
ROMANS
  0
TEXT
  8
11
 10
316.349103
 20
336.363632
 30
0.0
 40
5.25
  1
35
 41
0.7
  7
ROMANS
  0
TEXT
  8
11
 10
316.166617
 20
309.899319
 30
0.0
 40
5.25
  1
36
 41
0.7
  7
ROMANS
  0
TEXT
  8
11
 10
316.215214
 20
297.439535
 30
0.0
 40
5.25
  1
48
 41
0.7
  7
ROMANS
  0
TEXT
  8
11
 10
76.58086
 20
297.439535
 30
0.0
 40
5.25
  1
54
 41
0.7
  7
ROMANS
  0
TEXT
  8
11
 10
76.532263
 20
309.899319
 30
0.0
 40
5.25
  1
62
 41
0.7
  7
ROMANS
  0
TEXT
  8
11
 10
76.714748
 20
336.363632
 30
0.0
 40
5.25
  1
61
 41
0.7
  7
ROMANS
  0
TEXT
  8
11
 10
76.266965
 20
348.020151
 30
0.0
 40
5.25
  1
53
 41
0.7
  7
ROMANS
  0
TEXT
  8
11
 10
88.986354
 20
348.020151
 30
0.0
 40
5.25
  1
13
 41
0.7
  7
ROMANS
  0
TEXT
  8
11
 10
89.434137
 20
336.363632
 30
0.0
 40
5.25
  1
21
 41
0.7
  7
ROMANS
  0
TEXT
  8
11
 10
89.251651
 20
309.899319
 30
0.0
 40
5.25
  1
22
 41
0.7
  7
ROMANS
  0
TEXT
  8
11
 10
89.300248
 20
297.439535
 30
0.0
 40
5.25
  1
14
 41
0.7
  7
ROMANS
  0
TEXT
  8
11
 10
687.436484
 20
98.776607
 30
0.0
 40
5.0
  1
Drilling plan acc. to 5354 0914-34
 41
0.7
  7
ROMANS
  0
POINT
  8
MASTERLINE_CFG
 62
     7
 10
0.0
 20
0.0
 30
0.0
1001
MASTERLINE_CFG
1000
MEKVERSION
1000
12
1000
ARROWHEAD
1000
pilhuvud
1000
ITEMLISTHEAD
1000
shuv6
1000
ITEMLISTROW
1000
skol6
1000
ITEMLISTTEMPLATE
1000
kol6
1000
DWGNAME
1000
6627
1000
CFGVER
1000
12
1000
DRAWINGSCALE
1000
1
1000
MDIM_MLDIMEXO
1000
12
1000
FORMATTYPE
1000
A1L
1000
HEADNAME
1000
a1l
1000
ITEMLISTSUMCOLUMNS
1000
,2,
1000
ITEMLISTSUM
1000
1
1000
ITEMLISTDISTHEAD
1000
10
1000
ITEMLISTDISTROW
1000
12.7
1000
REVLISTROW
1000
3.5
1000
AUTOUPDATE_FROM_DMI
1000
0
1000
AUTOUPDATE_TO_DMI
1000
1
1000
AUTOINSERT
1000
0
1000
FRAMEEXPLODE
1000
0
1000
FORMATNAME
1000

1000
FORMSET
1000

1000
LGRAUTOLOCK
1000
0
1000
REVBLOCK
1000
REVRING
1000
REVRADIUS
1000
5
1000
MDIM_PARATEXT
1000
0
1000
TOLPREC
1000
2
1000
TOLDIMZIN
1000
8
1000
POSBLOCK
1000
POS
1000
POSRADIUS
1000
8
1000
POSSHAPE
1000
1
1000
POSENDBLOCK
1000
ARROW
1001
MASTERLINE_CFG_LAYER
1000
COLOR_16
1000
7
1000
LINETYPE_16
1000
CONTINUOUS
1000
LAYERDESC_16
1000

1000
LAYER_16
1000
16
1000
COLOR_15
1000
5
1000
LINETYPE_15
1000
CONTINUOUS
1000
LAYERDESC_15
1000

1000
LAYER_15
1000
15
1000
COLOR_14
1000
7
1000
LINETYPE_14
1000
CONTINUOUS
1000
LAYERDESC_14
1000

1000
LAYER_14
1000
14
1000
COLOR_13
1000
7
1000
LINETYPE_13
1000
CONTINUOUS
1000
LAYERDESC_13
1000

1000
LAYER_13
1000
13
1000
COLOR_12
1000
7
1000
LINETYPE_12
1000
CONTINUOUS
1000
LAYERDESC_12
1000

1000
LAYER_12
1000
12
1000
COLOR_11
1000
7
1000
LINETYPE_11
1000
CONTINUOUS
1000
LAYERDESC_11
1000

1000
LAYER_11
1000
11
1000
COLOR_10
1000
1
1000
LINETYPE_10
1000
CONTINUOUS
1000
LAYERDESC_10
1000

1000
LAYER_10
1000
10
1000
COLOR_9
1000
2
1000
LINETYPE_9
1000
CONTINUOUS
1000
LAYERDESC_9
1000

1000
LAYER_9
1000
09
1000
COLOR_8
1000
2
1000
LINETYPE_8
1000
CONTINUOUS
1000
LAYERDESC_8
1000

1000
LAYER_8
1000
08
1000
COLOR_7
1000
6
1000
LINETYPE_7
1000
PHANTOM
1000
LAYERDESC_7
1000

1000
LAYER_7
1000
07
1000
COLOR_6
1000
3
1000
LINETYPE_6
1000
DASHDOT
1000
LAYERDESC_6
1000

1000
LAYER_6
1000
06
1000
COLOR_5
1000
6
1000
LINETYPE_5
1000
DASHDOT
1000
LAYERDESC_5
1000

1000
LAYER_5
1000
05
1000
COLOR_4
1000
4
1000
LINETYPE_4
1000
HIDDEN
1000
LAYERDESC_4
1000

1000
LAYER_4
1000
04
1000
COLOR_3
1000
3
1000
LINETYPE_3
1000
HIDDEN
1000
LAYERDESC_3
1000

1000
LAYER_3
1000
03
1000
COLOR_2
1000
1
1000
LINETYPE_2
1000
CONTINUOUS
1000
LAYERDESC_2
1000

1000
LAYER_2
1000
02
1000
COLOR_1
1000
3
1000
LINETYPE_1
1000
CONTINUOUS
1000
LAYERDESC_1
1000

1000
LAYER_1
1000
01
1000
GROUPDESC_0
1000

1000
GROUP_0
1000

1000
ACTIVE_GROUP
1000

1000
LAYERMODE
1000
1
  0
LINE
  8
15
 10
0.0
 20
0.0
 30
0.0
 11
806.0
 21
0.0
 31
0.0
  0
LINE
  8
15
 10
806.0
 20
0.0
 30
0.0
 11
806.0
 21
574.0
 31
0.0
  0
LINE
  8
15
 10
806.0
 20
574.0
 30
0.0
 11
0.0
 21
574.0
 31
0.0
  0
LINE
  8
15
 10
0.0
 20
574.0
 30
0.0
 11
0.0
 21
0.0
 31
0.0
  0
INSERT
  8
15
  2
WA1
 10
0.0
 20
0.0
 30
0.0
  0
INSERT
  8
15
 66
     1
  2
A1L
 10
806.0
 20
0.0
 30
0.0
  0
ATTRIB
  8
11
 62
     3
 10
718.394643
 20
9.5
 30
0.0
 40
6.5
  1
5354 0914-35
  2
DOCNO
 70
     0
 41
0.9
  7
ISO
 72
     4
 11
740.75
 21
12.75
 31
0.0
  0
ATTRIB
  8
11
 62
     7
 10
690.5
 20
40.25
 30
0.0
 40
4.65
  1
DIMENSION PRINT EH1200
  2
TITLE1
 70
     0
 41
0.9
  7
ISO
  0
ATTRIB
  8
11
 62
     7
 10
690.5
 20
27.5
 30
0.0
 40
4.65
  1
MÅTTSKISS EH1200
  2
TITLE2
 70
     0
 41
0.9
  7
ISO
  0
ATTRIB
  8
11
 62
     7
 10
624.0
 20
14.75
 30
0.0
 40
4.65
  1
6627
  2
FILENAME
 70
     0
 41
0.9
  7
ISO
  0
ATTRIB
  8
11
 62
     7
 10
681.815
 20
14.75
 30
0.0
 40
4.65
  1
1:1
  2
SCALE
 70
     0
 41
0.9
  7
ISO
 72
     2
 11
686.0
 21
14.75
 31
0.0
  0
ATTRIB
  8
11
 62
     7
 10
552.5
 20
40.25
 30
0.0
 40
4.65
  1
G Engblom
  2
PREPARED
 70
     0
 41
0.9
  7
ISO
  0
ATTRIB
  8
11
 62
     7
 10
596.120219
 20
45.803279
 30
0.0
 40
3.15
  1
P
  2
P
 70
     0
 41
0.9
  7
ISO
  0
ATTRIB
  8
11
 62
     7
 10
610.10929
 20
45.803279
 30
0.0
 40
3.15
  1
Q
  2
Q
 70
     0
 41
0.9
  7
ISO
  0
ATTRIB
  8
11
 62
     7
 10
552.5
 20
27.5
 30
0.0
 40
4.65
  1
B Lööv
  2
APPROVED
 70
     0
 41
0.9
  7
ISO
  0
ATTRIB
  8
11
 62
     7
 10
602.961071
 20
27.5
 30
0.0
 40
4.65
  1
980604
  2
ISSDATE
 70
     0
 41
0.9
  7
ISO
 72
     2
 11
620.0
 21
27.5
 31
0.0
  0
ATTRIB
  8
11
 62
     7
 10
552.5
 20
14.75
 30
0.0
 40
4.65
  1

  2
REVISION
 70
     0
 41
0.9
  7
ISO
  0
ATTRIB
  8
11
 62
     7
 10
624.0
 20
40.25
 30
0.0
 40
4.65
  1
SECRL/AM
  2
RESPDEPT
 70
     0
 41
0.9
  7
ISO
  0
ATTRIB
  8
11
 62
     7
 10
624.0
 20
27.5
 30
0.0
 40
4.65
  1

  2
TAKEOVDEPT
 70
     0
 41
0.9
  7
ISO
  0
ATTRIB
  8
11
 62
     7
 10
797.134375
 20
28.175
 30
0.0
 40
4.65
  1
82
  2
LANG
 70
     0
 41
0.9
  7
ISO
 72
     4
 11
799.75
 21
30.5
 31
0.0
  0
ATTRIB
  8
11
 62
     7
 10
799.152143
 20
2.675
 30
0.0
 40
4.65
  1
1
  2
SHEET
 70
     0
 41
0.9
  7
ISO
 72
     4
 11
799.75
 21
5.0
 31
0.0
  0
ATTRIB
  8
11
 62
     7
 10
798.853214
 20
15.425
 30
0.0
 40
4.65
  1
-
  2
CONT
 70
     0
 41
0.9
  7
ISO
 72
     4
 11
799.75
 21
17.75
 31
0.0
  0
ATTRIB
  8
11
 62
     7
 10
691.068565
 20
1.996396
 30
0.0
 40
3.156364
  1
ISSUED
  2
STATUS
 70
     0
 41
0.9
  7
ISO
  0
ATTRIB
  8
11
 62
     7
 10
5.0
 20
564.05
 30
0.0
 40
4.65
  1
EH 1200
  2
TYPE
 70
     0
 41
0.9
  7
ISO
  0
SEQEND
  8
15
  0
LINE
  8
01
 10
640.893084
 20
498.713001
 30
0.0
 11
640.893084
 21
415.713001
 31
0.0
  0
LINE
  8
01
 10
640.893084
 20
498.713001
 30
0.0
 11
632.893084
 21
498.713001
 31
0.0
  0
LINE
  8
08
  6
BYBLOCK
 10
632.893084
 20
498.713001
 30
0.0
 11
632.893084
 21
539.019278
 31
0.0
  0
LINE
  8
08
  6
BYBLOCK
 10
640.893084
 20
498.713001
 30
0.0
 11
640.893084
 21
539.019278
 31
0.0
  0
LINE
  8
08
  6
BYBLOCK
 10
628.338292
 20
537.019278
 30
0.0
 11
650.001786
 21
537.019278
 31
0.0
  0
INSERT
  8
08
  6
BYBLOCK
  2
DIMPIL
 10
640.893084
 20
537.019278
 30
0.0
 41
2.5
 42
2.5
 50
180.0
 43
2.5
  0
INSERT
  8
08
  6
BYBLOCK
  2
DIMPIL
 10
632.893084
 20
537.019278
 30
0.0
 41
2.5
 42
2.5
 43
2.5
  0
POINT
  8
DEFPOINTS
  6
BYBLOCK
 62
     0
 10
632.893084
 20
498.713001
 30
0.0
  0
POINT
  8
DEFPOINTS
  6
BYBLOCK
 62
     0
 10
640.893084
 20
498.713001
 30
0.0
  0
POINT
  8
08
  6
BYBLOCK
 62
     0
 10
640.893084
 20
537.019278
 30
0.0
  0
LINE
  8
01
 10
640.893084
 20
237.713001
 30
0.0
 11
640.893084
 21
154.713001
 31
0.0
  0
LINE
  8
01
 10
632.893084
 20
154.713001
 30
0.0
 11
640.893084
 21
154.713001
 31
0.0
  0
TEXT
  8
12
 10
644.505038
 20
538.465556
 30
0.0
 40
4.5
  1
8
 41
0.7
  7
ROMANS
 72
     1
 11
646.005038
 21
538.465556
 31
0.0
  0
ARC
  8
02
 10
331.022087
 20
347.538001
 30
0.0
 40
1.5
 50
0.0
 51
90.0
  0
ARC
  8
02
 10
331.022087
 20
345.588001
 30
0.0
 40
1.5
 50
270.0
 51
0.0
  0
LINE
  8
02
 10
328.181997
 20
351.563001
 30
0.0
 11
342.731997
 21
351.563001
 31
0.0
  0
LINE
  8
02
 10
328.181997
 20
301.863001
 30
0.0
 11
342.731997
 21
301.863001
 31
0.0
  0
LINE
  8
02
 10
335.131997
 20
346.563001
 30
0.0
 11
329.378611
 21
346.563001
 31
0.0
  0
LINE
  8
02
 10
331.531997
 20
301.863001
 30
0.0
 11
331.531997
 21
344.177331
 31
0.0
  0
LINE
  8
01
 10
328.181997
 20
331.213001
 30
0.0
 11
328.181997
 21
360.713001
 31
0.0
  0
LINE
  8
02
 10
330.631997
 20
301.863001
 30
0.0
 11
330.631997
 21
351.563001
 31
0.0
  0
LINE
  8
01
 10
328.181997
 20
301.863001
 30
0.0
 11
328.181997
 21
351.563001
 31
0.0
  0
LINE
  8
01
 10
328.181997
 20
322.213001
 30
0.0
 11
328.181997
 21
292.713001
 31
0.0
  0
LINE
  8
01
 10
328.181997
 20
322.213001
 30
0.0
 11
328.181997
 21
331.213001
 31
0.0
  0
LINE
  8
02
 10
331.531997
 20
348.948672
 30
0.0
 11
331.531997
 21
351.563001
 31
0.0
  0
LINE
  8
02
 10
330.631997
 20
349.038001
 30
0.0
 11
331.022087
 21
349.038001
 31
0.0
  0
LINE
  8
02
 10
330.631997
 20
346.563001
 30
0.0
 11
330.631997
 21
349.038001
 31
0.0
  0
LINE
  8
02
 10
330.631997
 20
346.563001
 30
0.0
 11
330.631997
 21
344.088001
 31
0.0
  0
LINE
  8
02
 10
330.631997
 20
344.088001
 30
0.0
 11
331.022087
 21
344.088001
 31
0.0
  0
LINE
  8
02
 10
328.181997
 20
341.563001
 30
0.0
 11
330.631997
 21
341.563001
 31
0.0
  0
LINE
  8
01
 10
328.181997
 20
360.713001
 30
0.0
 11
328.181997
 21
360.671572
 31
0.0
  0
LINE
  8
01
 10
328.181997
 20
360.713001
 30
0.0
 11
325.681997
 21
360.713001
 31
0.0
  0
LINE
  8
02
 10
336.931997
 20
301.863001
 30
0.0
 11
336.931997
 21
351.563001
 31
0.0
  0
LINE
  8
02
 10
336.031997
 20
301.863001
 30
0.0
 11
336.031997
 21
351.563001
 31
0.0
  0
LINE
  8
02
 10
335.131997
 20
301.863001
 30
0.0
 11
335.131997
 21
351.563001
 31
0.0
  0
LINE
  8
02
 10
334.231997
 20
301.863001
 30
0.0
 11
334.231997
 21
351.563001
 31
0.0
  0
LINE
  8
02
 10
342.331997
 20
301.863001
 30
0.0
 11
342.331997
 21
351.563001
 31
0.0
  0
LINE
  8
02
 10
341.431997
 20
301.863001
 30
0.0
 11
341.431997
 21
351.563001
 31
0.0
  0
LINE
  8
02
 10
340.531997
 20
301.863001
 30
0.0
 11
340.531997
 21
351.563001
 31
0.0
  0
LINE
  8
02
 10
339.631997
 20
301.863001
 30
0.0
 11
339.631997
 21
351.563001
 31
0.0
  0
LINE
  8
02
 10
338.731997
 20
301.863001
 30
0.0
 11
338.731997
 21
351.563001
 31
0.0
  0
LINE
  8
02
 10
337.831997
 20
301.863001
 30
0.0
 11
337.831997
 21
351.563001
 31
0.0
  0
LINE
  8
02
 10
342.731997
 20
301.863001
 30
0.0
 11
342.731997
 21
351.563001
 31
0.0
  0
LINE
  8
02
 10
332.431997
 20
301.863001
 30
0.0
 11
332.431997
 21
345.075992
 31
0.0
  0
LINE
  8
02
 10
333.331997
 20
301.863001
 30
0.0
 11
333.331997
 21
351.563001
 31
0.0
  0
LINE
  8
02
 10
332.431997
 20
348.050011
 30
0.0
 11
332.431997
 21
351.563001
 31
0.0
  0
LINE
  8
02
 10
331.762095
 20
346.847734
 30
0.0
 11
332.522087
 21
346.847734
 31
0.0
  0
LINE
  8
02
 10
332.522087
 20
347.538001
 30
0.0
 11
332.522087
 21
346.847734
 31
0.0
  0
LINE
  8
02
 10
331.762095
 20
346.563001
 30
0.0
 11
331.762095
 21
346.847734
 31
0.0
  0
LINE
  8
02
 10
331.762095
 20
346.563001
 30
0.0
 11
331.762095
 21
346.278269
 31
0.0
  0
LINE
  8
02
 10
332.522087
 20
345.588001
 30
0.0
 11
332.522087
 21
346.278269
 31
0.0
  0
LINE
  8
02
 10
331.762095
 20
346.278269
 30
0.0
 11
332.522087
 21
346.278269
 31
0.0
  0
LINE
  8
08
  6
BYBLOCK
 10
342.731997
 20
351.563001
 30
0.0
 11
342.731997
 21
551.914208
 31
0.0
  0
LINE
  8
0
  6
BYBLOCK
 10
328.181997
 20
549.914208
 30
0.0
 11
328.181997
 21
551.914208
 31
0.0
  0
LINE
  8
08
  6
BYBLOCK
 10
340.231997
 20
549.914208
 30
0.0
 11
330.681997
 21
549.914208
 31
0.0
  0
INSERT
  8
08
  6
BYBLOCK
  2
DIMPIL
 10
342.731997
 20
549.914208
 30
0.0
 41
2.5
 42
2.5
 43
2.5
  0
INSERT
  8
08
  6
BYBLOCK
  2
DIMPIL
 10
328.181997
 20
549.914208
 30
0.0
 41
2.5
 42
2.5
 50
180.0
 43
2.5
  0
POINT
  8
02
  6
BYBLOCK
 62
     0
 10
342.731997
 20
351.563001
 30
0.0
  0
POINT
  8
DEFPOINTS
  6
BYBLOCK
 62
     0
 10
328.181997
 20
549.914208
 30
0.0
  0
POINT
  8
DEFPOINTS
  6
BYBLOCK
 62
     0
 10
328.181997
 20
549.914208
 30
0.0
  0
TEXT
  8
12
 10
332.622329
 20
551.114208
 30
0.0
 40
4.5
  1
15
 41
0.7
  7
ROMANS
 72
     1
 11
335.847329
 21
551.114208
 31
0.0
  0
ENDSEC
  0
EOF
