  0
SECTION
  2
HEADER
  9
$ACADVER
  1
AC1009
  9
$INSBASE
 10
0.0
 20
0.0
 30
0.0
  9
$EXTMIN
 10
104.454138
 20
126.250731
 30
0.0
  9
$EXTMAX
 10
2403.692046
 20
1619.855161
 30
0.0
  9
$LIMMIN
 10
0.0
 20
0.0
  9
$LIMMAX
 10
12.0
 20
9.0
  9
$ORTHOMODE
 70
     0
  9
$REGENMODE
 70
     1
  9
$FILLMODE
 70
     1
  9
$QTEXTMODE
 70
     0
  9
$MIRRTEXT
 70
     1
  9
$DRAGMODE
 70
     2
  9
$LTSCALE
 40
20.0
  9
$OSMODE
 70
  1015
  9
$ATTMODE
 70
     1
  9
$TEXTSIZE
 40
0.2
  9
$TRACEWID
 40
0.05
  9
$TEXTSTYLE
  7
STANDARD
  9
$CLAYER
  8
0
  9
$CELTYPE
  6
CONTINUOUS
  9
$CECOLOR
 62
   256
  9
$DIMSCALE
 40
1.0
  9
$DIMASZ
 40
10.0
  9
$DIMEXO
 40
0.0625
  9
$DIMDLI
 40
0.38
  9
$DIMRND
 40
0.0
  9
$DIMDLE
 40
0.0
  9
$DIMEXE
 40
0.18
  9
$DIMTP
 40
0.0
  9
$DIMTM
 40
0.0
  9
$DIMTXT
 40
10.0
  9
$DIMCEN
 40
0.09
  9
$DIMTSZ
 40
0.0
  9
$DIMTOL
 70
     0
  9
$DIMLIM
 70
     0
  9
$DIMTIH
 70
     1
  9
$DIMTOH
 70
     1
  9
$DIMSE1
 70
     0
  9
$DIMSE2
 70
     0
  9
$DIMTAD
 70
     0
  9
$DIMZIN
 70
     0
  9
$DIMBLK
  1

  9
$DIMASO
 70
     1
  9
$DIMSHO
 70
     1
  9
$DIMPOST
  1

  9
$DIMAPOST
  1

  9
$DIMALT
 70
     0
  9
$DIMALTD
 70
     2
  9
$DIMALTF
 40
25.4
  9
$DIMLFAC
 40
1.0
  9
$DIMTOFL
 70
     0
  9
$DIMTVP
 40
0.0
  9
$DIMTIX
 70
     0
  9
$DIMSOXD
 70
     0
  9
$DIMSAH
 70
     0
  9
$DIMBLK1
  1

  9
$DIMBLK2
  1

  9
$DIMSTYLE
  2
STANDARD
  9
$DIMCLRD
 70
     1
  9
$DIMCLRE
 70
     1
  9
$DIMCLRT
 70
     1
  9
$DIMTFAC
 40
1.0
  9
$DIMGAP
 40
10.0
  9
$LUNITS
 70
     2
  9
$LUPREC
 70
     4
  9
$SKETCHINC
 40
0.1
  9
$FILLETRAD
 40
0.0
  9
$AUNITS
 70
     0
  9
$AUPREC
 70
     0
  9
$MENU
  1
acad
  9
$ELEVATION
 40
0.0
  9
$PELEVATION
 40
0.0
  9
$THICKNESS
 40
0.0
  9
$LIMCHECK
 70
     0
  9
$BLIPMODE
 70
     0
  9
$CHAMFERA
 40
0.0
  9
$CHAMFERB
 40
0.0
  9
$SKPOLY
 70
     0
  9
$TDCREATE
 40
2452054.562209
  9
$TDUPDATE
 40
2452058.472743
  9
$TDINDWG
 40
0.010579
  9
$TDUSRTIMER
 40
0.010579
  9
$USRTIMER
 70
     1
  9
$ANGBASE
 50
0.0
  9
$ANGDIR
 70
     0
  9
$PDMODE
 70
     0
  9
$PDSIZE
 40
0.0
  9
$PLINEWID
 40
0.0
  9
$COORDS
 70
     1
  9
$SPLFRAME
 70
     0
  9
$SPLINETYPE
 70
     6
  9
$SPLINESEGS
 70
     8
  9
$ATTDIA
 70
     0
  9
$ATTREQ
 70
     1
  9
$HANDLING
 70
     1
  9
$HANDSEED
  5
5F4
  9
$SURFTAB1
 70
     6
  9
$SURFTAB2
 70
     6
  9
$SURFTYPE
 70
     6
  9
$SURFU
 70
     6
  9
$SURFV
 70
     6
  9
$UCSNAME
  2

  9
$UCSORG
 10
0.0
 20
0.0
 30
0.0
  9
$UCSXDIR
 10
1.0
 20
0.0
 30
0.0
  9
$UCSYDIR
 10
0.0
 20
1.0
 30
0.0
  9
$PUCSNAME
  2

  9
$PUCSORG
 10
0.0
 20
0.0
 30
0.0
  9
$PUCSXDIR
 10
1.0
 20
0.0
 30
0.0
  9
$PUCSYDIR
 10
0.0
 20
1.0
 30
0.0
  9
$USERI1
 70
     0
  9
$USERI2
 70
     0
  9
$USERI3
 70
     0
  9
$USERI4
 70
     0
  9
$USERI5
 70
     0
  9
$USERR1
 40
0.0
  9
$USERR2
 40
0.0
  9
$USERR3
 40
0.0
  9
$USERR4
 40
0.0
  9
$USERR5
 40
0.0
  9
$WORLDVIEW
 70
     1
  9
$SHADEDGE
 70
     3
  9
$SHADEDIF
 70
    70
  9
$TILEMODE
 70
     1
  9
$MAXACTVP
 70
    48
  9
$PLIMCHECK
 70
     0
  9
$PEXTMIN
 10
1.000000E+020
 20
1.000000E+020
 30
1.000000E+020
  9
$PEXTMAX
 10
-1.000000E+020
 20
-1.000000E+020
 30
-1.000000E+020
  9
$PLIMMIN
 10
0.0
 20
0.0
  9
$PLIMMAX
 10
12.0
 20
9.0
  9
$UNITMODE
 70
     0
  9
$VISRETAIN
 70
     1
  9
$PLINEGEN
 70
     0
  9
$PSLTSCALE
 70
     1
  0
ENDSEC
  0
SECTION
  2
TABLES
  0
TABLE
  2
VPORT
 70
     3
  0
VPORT
  2
*ACTIVE
 70
     0
 10
0.0
 20
0.0
 11
1.0
 21
1.0
 12
1254.073092
 22
873.052946
 13
0.0
 23
0.0
 14
1.0
 24
1.0
 15
0.0
 25
0.0
 16
0.0
 26
0.0
 36
1.0
 17
0.0
 27
0.0
 37
0.0
 40
1503.127944
 41
1.679787
 42
50.0
 43
0.0
 44
0.0
 50
0.0
 51
0.0
 71
     0
 72
   100
 73
     1
 74
     1
 75
     0
 76
     0
 77
     0
 78
     0
  0
ENDTAB
  0
TABLE
  2
LTYPE
 70
     3
  0
LTYPE
  2
CONTINUOUS
 70
     0
  3
Solid line
 72
    65
 73
     0
 40
0.0
  0
LTYPE
  2
CENTER
 70
     0
  3
____ _ ____ _ ____ _ ____ _ ____ _ ____
 72
    65
 73
     4
 40
2.0
 49
1.25
 49
-0.25
 49
0.25
 49
-0.25
  0
LTYPE
  2
DASHED
 70
     0
  3
_ _ _ _ _ _ _ _ _ _ _ _ _ _ _ _ _ _ _ _ _
 72
    65
 73
     2
 40
0.75
 49
0.5
 49
-0.25
  0
ENDTAB
  0
TABLE
  2
LAYER
 70
     5
  0
LAYER
  2
0
 70
     0
 62
     7
  6
CONTINUOUS
  0
LAYER
  2
5
 70
     0
 62
     7
  6
CONTINUOUS
  0
LAYER
  2
6
 70
     0
 62
     5
  6
CENTER
  0
LAYER
  2
7
 70
     0
 62
     3
  6
DASHED
  0
LAYER
  2
BYLAYER
 70
     0
 62
     7
  6
CONTINUOUS
  0
ENDTAB
  0
TABLE
  2
STYLE
 70
     1
  0
STYLE
  2
STANDARD
 70
     0
 40
0.0
 41
1.0
 50
0.0
 71
     0
 42
0.2
  3
txt
  4

  0
ENDTAB
  0
TABLE
  2
VIEW
 70
     0
  0
ENDTAB
  0
TABLE
  2
UCS
 70
     0
  0
ENDTAB
  0
TABLE
  2
APPID
 70
     1
  0
APPID
  2
ACAD
 70
     0
  0
ENDTAB
  0
TABLE
  2
DIMSTYLE
 70
     1
  0
DIMSTYLE
  2
STANDARD
 70
     0
  3

  4

  5

  6

  7

 40
1.0
 41
0.18
 42
0.0625
 43
0.38
 44
0.18
 45
0.0
 46
0.0
 47
0.0
 48
0.0
140
0.18
141
0.09
142
0.0
143
25.4
144
1.0
145
0.0
146
1.0
147
0.09
 71
     0
 72
     0
 73
     1
 74
     1
 75
     0
 76
     0
 77
     0
 78
     0
170
     0
171
     2
172
     0
173
     0
174
     0
175
     0
176
     0
177
     0
178
     0
  0
ENDTAB
  0
ENDSEC
  0
SECTION
  2
BLOCKS
  0
BLOCK
  8
0
  2
$MODEL_SPACE
 70
     0
 10
0.0
 20
0.0
 30
0.0
  3
$MODEL_SPACE
  1

  0
ENDBLK
  5
1A
  8
0
  0
BLOCK
 67
     1
  8
0
  2
$PAPER_SPACE
 70
     0
 10
0.0
 20
0.0
 30
0.0
  3
$PAPER_SPACE
  1

  0
ENDBLK
  5
17
 67
     1
  8
0
  0
BLOCK
  8
0
  2
A$C05293501
 70
     0
 10
0.0
 20
0.0
 30
0.0
  3
A$C05293501
  1

  0
LINE
  5
5CF
  8
5
  6
CONTINUOUS
 10
60.4918
 20
70.750001
 30
0.0
 11
60.4918
 21
0.000001
 31
0.0
  0
LINE
  5
5D0
  8
5
  6
CENTER
 10
60.4918
 20
70.750001
 30
0.0
 11
60.4918
 21
0.000001
 31
0.0
  0
LINE
  5
5D1
  8
5
  6
CONTINUOUS
 10
50.4918
 20
70.750001
 30
0.0
 11
50.4918
 21
0.000001
 31
0.0
  0
LINE
  5
5D2
  8
5
  6
CENTER
 10
50.4918
 20
70.750001
 30
0.0
 11
50.4918
 21
0.000001
 31
0.0
  0
LINE
  5
5D3
  8
5
  6
CONTINUOUS
 10
40.4918
 20
70.750001
 30
0.0
 11
40.4918
 21
0.000001
 31
0.0
  0
LINE
  5
5D4
  8
5
  6
CENTER
 10
40.4918
 20
70.750001
 30
0.0
 11
40.4918
 21
0.000001
 31
0.0
  0
LINE
  5
5D5
  8
5
  6
CONTINUOUS
 10
30.4918
 20
70.750001
 30
0.0
 11
30.4918
 21
0.000001
 31
0.0
  0
LINE
  5
5D6
  8
5
  6
CENTER
 10
30.4918
 20
70.750001
 30
0.0
 11
30.4918
 21
0.000001
 31
0.0
  0
LINE
  5
5D7
  8
5
  6
CONTINUOUS
 10
20.4918
 20
70.750001
 30
0.0
 11
20.4918
 21
13.187001
 31
0.0
  0
LINE
  5
5D8
  8
5
  6
CENTER
 10
20.4918
 20
70.750001
 30
0.0
 11
20.4918
 21
12.818001
 31
0.0
  0
LINE
  5
5D9
  8
5
  6
CONTINUOUS
 10
10.4918
 20
70.750001
 30
0.0
 11
10.4918
 21
35.248001
 31
0.0
  0
LINE
  5
5DA
  8
5
  6
CENTER
 10
10.4918
 20
70.750001
 30
0.0
 11
10.4918
 21
35.248001
 31
0.0
  0
LINE
  5
5DB
  8
5
  6
CONTINUOUS
 10
0.7536
 20
40.776001
 30
0.0
 11
70.6364
 21
40.776001
 31
0.0
  0
LINE
  5
5DC
  8
5
  6
CONTINUOUS
 10
0.0
 20
40.776001
 30
0.0
 11
70.6364
 21
40.776001
 31
0.0
  0
LINE
  5
5DD
  8
5
  6
CONTINUOUS
 10
10.8588
 20
30.776001
 30
0.0
 11
70.6364
 21
30.776001
 31
0.0
  0
LINE
  5
5DE
  8
5
  6
CONTINUOUS
 10
6.8688
 20
30.776001
 30
0.0
 11
70.6364
 21
30.776001
 31
0.0
  0
LINE
  5
5DF
  8
5
  6
CONTINUOUS
 10
10.4918
 20
20.776001
 30
0.0
 11
70.6364
 21
20.776001
 31
0.0
  0
LINE
  5
5E0
  8
5
  6
CONTINUOUS
 10
10.4918
 20
20.776001
 30
0.0
 11
70.6364
 21
20.776001
 31
0.0
  0
LINE
  5
5E1
  8
5
  6
CONTINUOUS
 10
23.4865
 20
10.776001
 30
0.0
 11
70.6364
 21
10.776001
 31
0.0
  0
LINE
  5
5E2
  8
5
  6
CONTINUOUS
 10
22.9952
 20
10.776001
 30
0.0
 11
70.6364
 21
10.776001
 31
0.0
  0
LINE
  5
5E3
  8
5
  6
CONTINUOUS
 10
1.2561
 20
60.776001
 30
0.0
 11
70.6364
 21
60.776001
 31
0.0
  0
LINE
  5
5E4
  8
5
  6
CONTINUOUS
 10
1.2561
 20
60.776001
 30
0.0
 11
70.6364
 21
60.776001
 31
0.0
  0
LINE
  5
5E5
  8
5
  6
CONTINUOUS
 10
0.2512
 20
50.776001
 30
0.0
 11
70.6364
 21
50.776001
 31
0.0
  0
LINE
  5
5E6
  8
5
  6
CONTINUOUS
 10
0.2512
 20
50.776001
 30
0.0
 11
70.6364
 21
50.776001
 31
0.0
  0
ENDBLK
  5
5E8
  8
0
  0
BLOCK
  8
0
  2
A$C27E33DB7
 70
     0
 10
0.0
 20
0.0
 30
0.0
  3
A$C27E33DB7
  1

  0
INSERT
  5
5EA
  8
0
  6
CONTINUOUS
  2
A$C05293501
 10
0.0
 20
-0.000001
 30
0.0
  0
ENDBLK
  5
5EC
  8
0
  0
ENDSEC
  0
SECTION
  2
ENTITIES
  0
LINE
  5
25
  8
5
  6
CONTINUOUS
 10
1404.096
 20
1074.181
 30
0.0
 11
968.0958
 21
1074.181
 31
0.0
  0
LINE
  5
26
  8
5
  6
CONTINUOUS
 10
1404.108
 20
1463.682
 30
0.0
 11
1406.315
 21
1446.456
 31
0.0
  0
LINE
  5
27
  8
5
  6
CONTINUOUS
 10
1408.541
 20
1429.081
 30
0.0
 11
1406.315
 21
1446.456
 31
0.0
  0
LINE
  5
28
  8
5
  6
CONTINUOUS
 10
1404.096
 20
1463.781
 30
0.0
 11
1404.108
 21
1463.682
 31
0.0
  0
LINE
  5
29
  8
5
  6
CONTINUOUS
 10
1410.077
 20
1417.094
 30
0.0
 11
1408.541
 21
1429.081
 31
0.0
  0
LINE
  5
2A
  8
5
  6
CONTINUOUS
 10
1257.616
 20
1446.432
 30
0.0
 11
1278.973
 21
1463.682
 31
0.0
  0
LINE
  5
2B
  8
5
  6
CONTINUOUS
 10
1278.973
 20
1463.682
 30
0.0
 11
1279.096
 21
1463.781
 31
0.0
  0
LINE
  5
2C
  8
5
  6
CONTINUOUS
 10
1412.672
 20
988.281
 30
0.0
 11
1412.096
 21
983.781
 31
0.0
  0
LINE
  5
2D
  8
5
  6
CONTINUOUS
 10
1253.096
 20
1442.781
 30
0.0
 11
1257.616
 21
1446.432
 31
0.0
  0
LINE
  5
2E
  8
5
  6
CONTINUOUS
 10
1279.096
 20
1463.781
 30
0.0
 11
1404.096
 21
1463.781
 31
0.0
  0
LINE
  5
2F
  8
5
  6
CONTINUOUS
 10
1406.312
 20
1091.581
 30
0.0
 11
1406.318
 21
1091.53
 31
0.0
  0
LINE
  5
30
  8
5
  6
CONTINUOUS
 10
954.0958
 20
1223.781
 30
0.0
 11
954.0958
 21
1004.781
 31
0.0
  0
LINE
  5
31
  8
5
  6
CONTINUOUS
 10
954.0958
 20
1442.781
 30
0.0
 11
954.0958
 21
1223.781
 31
0.0
  0
LINE
  5
32
  8
5
  6
CONTINUOUS
 10
896.5958
 20
1498.781
 30
0.0
 11
896.5958
 21
948.781
 31
0.0
  0
LINE
  5
33
  8
5
  6
CONTINUOUS
 10
878.5958
 20
1498.781
 30
0.0
 11
878.5958
 21
948.781
 31
0.0
  0
CIRCLE
  5
34
  8
5
  6
CONTINUOUS
 10
902.5958
 20
1115.781
 30
0.0
 40
1.5
  0
LINE
  5
35
  8
5
  6
CONTINUOUS
 10
873.5958
 20
1448.781
 30
0.0
 11
873.5958
 21
998.781
 31
0.0
  0
LINE
  5
36
  8
5
  6
CONTINUOUS
 10
940.0958
 20
1543.281
 30
0.0
 11
985.5958
 21
1543.281
 31
0.0
  0
LINE
  5
37
  8
5
  6
CONTINUOUS
 10
1213.596
 20
1543.281
 30
0.0
 11
1259.096
 21
1543.281
 31
0.0
  0
LINE
  5
38
  8
5
  6
CONTINUOUS
 10
1213.096
 20
1546.281
 30
0.0
 11
1213.096
 21
1599.481
 31
0.0
  0
LINE
  5
39
  8
5
  6
CONTINUOUS
 10
986.0958
 20
1599.481
 30
0.0
 11
986.0958
 21
1546.281
 31
0.0
  0
LINE
  5
3A
  8
5
  6
CONTINUOUS
 10
1412.096
 20
983.781
 30
0.0
 11
982.0958
 21
983.781
 31
0.0
  0
LINE
  5
3B
  8
5
  6
CONTINUOUS
 10
979.8797
 20
1001.08
 30
0.0
 11
979.8733
 21
1001.13
 31
0.0
  0
LINE
  5
3C
  8
5
  6
CONTINUOUS
 10
979.8733
 20
1001.13
 30
0.0
 11
979.8668
 21
1001.181
 31
0.0
  0
LINE
  5
3D
  8
5
  6
CONTINUOUS
 10
982.0958
 20
983.781
 30
0.0
 11
979.8797
 21
1001.08
 31
0.0
  0
LINE
  5
3E
  8
5
  6
CONTINUOUS
 10
979.8668
 20
1001.181
 30
0.0
 11
977.625
 21
1018.681
 31
0.0
  0
LINE
  5
3F
  8
5
  6
CONTINUOUS
 10
977.625
 20
1018.681
 30
0.0
 11
976.115
 21
1030.468
 31
0.0
  0
LINE
  5
40
  8
5
  6
CONTINUOUS
 10
1406.318
 20
1356.032
 30
0.0
 11
1406.312
 21
1355.981
 31
0.0
  0
LINE
  5
41
  8
5
  6
CONTINUOUS
 10
1062.596
 20
1074.181
 30
0.0
 11
1062.596
 21
1054.057
 31
0.0
  0
LINE
  5
42
  8
5
  6
CONTINUOUS
 10
1062.596
 20
1054.057
 30
0.0
 11
1054.596
 21
1046.99
 31
0.0
  0
LINE
  5
43
  8
5
  6
CONTINUOUS
 10
965.8733
 20
1091.53
 30
0.0
 11
965.8798
 21
1091.581
 31
0.0
  0
LINE
  5
44
  8
5
  6
CONTINUOUS
 10
965.8797
 20
1355.981
 30
0.0
 11
965.8733
 21
1356.032
 31
0.0
  0
LINE
  5
45
  8
5
  6
CONTINUOUS
 10
1054.596
 20
1046.99
 30
0.0
 11
1034.596
 21
1046.99
 31
0.0
  0
LINE
  5
46
  8
5
  6
CONTINUOUS
 10
1034.596
 20
1046.99
 30
0.0
 11
1026.596
 21
1054.057
 31
0.0
  0
LINE
  5
47
  8
5
  6
CONTINUOUS
 10
1026.596
 20
1054.057
 30
0.0
 11
1026.596
 21
1074.181
 31
0.0
  0
LINE
  5
48
  8
5
  6
CONTINUOUS
 10
997.9796
 20
1034.588
 30
0.0
 11
994.8457
 21
1074.181
 31
0.0
  0
LINE
  5
49
  8
5
  6
CONTINUOUS
 10
997.9796
 20
1034.588
 30
0.0
 11
1015.096
 21
1020.488
 31
0.0
  0
LINE
  5
4A
  8
5
  6
CONTINUOUS
 10
1015.096
 20
1020.488
 30
0.0
 11
1074.096
 21
1020.488
 31
0.0
  0
LINE
  5
4B
  8
5
  6
CONTINUOUS
 10
1074.096
 20
1020.488
 30
0.0
 11
1091.212
 21
1034.588
 31
0.0
  0
LINE
  5
4C
  8
5
  6
CONTINUOUS
 10
1091.212
 20
1034.588
 30
0.0
 11
1094.346
 21
1074.181
 31
0.0
  0
LINE
  5
4D
  8
5
  6
CONTINUOUS
 10
994.4402
 20
1043.271
 30
0.0
 11
993.4232
 21
1063.841
 31
0.0
  0
LINE
  5
4E
  8
5
  6
CONTINUOUS
 10
994.4402
 20
1043.271
 30
0.0
 11
997.9796
 21
1012.51
 31
0.0
  0
LINE
  5
4F
  8
5
  6
CONTINUOUS
 10
997.9796
 20
1012.51
 30
0.0
 11
997.9796
 21
1034.588
 31
0.0
  0
LINE
  5
50
  8
5
  6
CONTINUOUS
 10
1091.212
 20
1034.588
 30
0.0
 11
1091.212
 21
1012.51
 31
0.0
  0
LINE
  5
51
  8
5
  6
CONTINUOUS
 10
1253.096
 20
1429.281
 30
0.0
 11
1253.096
 21
1383.721
 31
0.0
  0
LINE
  5
52
  8
5
  6
CONTINUOUS
 10
1253.096
 20
1429.281
 30
0.0
 11
1253.096
 21
1442.781
 31
0.0
  0
LINE
  5
53
  8
5
  6
CONTINUOUS
 10
968.0958
 20
1373.381
 30
0.0
 11
1404.096
 21
1373.381
 31
0.0
  0
LINE
  5
54
  8
5
  6
CONTINUOUS
 10
1094.751
 20
1043.271
 30
0.0
 11
1091.212
 21
1012.51
 31
0.0
  0
LINE
  5
55
  8
5
  6
CONTINUOUS
 10
1406.325
 20
1355.981
 30
0.0
 11
1408.567
 21
1338.481
 31
0.0
  0
LINE
  5
56
  8
5
  6
CONTINUOUS
 10
1408.567
 20
1338.481
 30
0.0
 11
1410.077
 21
1326.694
 31
0.0
  0
LINE
  5
57
  8
5
  6
CONTINUOUS
 10
1404.096
 20
1373.381
 30
0.0
 11
1406.318
 21
1356.032
 31
0.0
  0
LINE
  5
58
  8
5
  6
CONTINUOUS
 10
1408.567
 20
1109.081
 30
0.0
 11
1410.077
 21
1120.868
 31
0.0
  0
LINE
  5
59
  8
5
  6
CONTINUOUS
 10
1406.318
 20
1091.53
 30
0.0
 11
1404.096
 21
1074.181
 31
0.0
  0
LINE
  5
5A
  8
5
  6
CONTINUOUS
 10
1406.325
 20
1091.581
 30
0.0
 11
1408.567
 21
1109.081
 31
0.0
  0
LINE
  5
5B
  8
5
  6
CONTINUOUS
 10
965.8668
 20
1355.981
 30
0.0
 11
963.625
 21
1338.481
 31
0.0
  0
LINE
  5
5C
  8
5
  6
CONTINUOUS
 10
1703.596
 20
1427.074
 30
0.0
 11
1703.596
 21
1307.074
 31
0.0
  0
LINE
  5
5D
  8
5
  6
CONTINUOUS
 10
963.625
 20
1338.481
 30
0.0
 11
962.115
 21
1326.694
 31
0.0
  0
LINE
  5
5E
  8
5
  6
CONTINUOUS
 10
965.8733
 20
1356.032
 30
0.0
 11
968.0958
 21
1373.381
 31
0.0
  0
LINE
  5
5F
  8
5
  6
CONTINUOUS
 10
977.4103
 20
1414.198
 30
0.0
 11
979.4561
 21
1472.781
 31
0.0
  0
LINE
  5
60
  8
5
  6
CONTINUOUS
 10
963.625
 20
1109.081
 30
0.0
 11
962.115
 21
1120.868
 31
0.0
  0
LINE
  5
61
  8
5
  6
CONTINUOUS
 10
968.0958
 20
1074.181
 30
0.0
 11
965.8733
 21
1091.53
 31
0.0
  0
LINE
  5
62
  8
5
  6
CONTINUOUS
 10
965.8668
 20
1091.581
 30
0.0
 11
963.625
 21
1109.081
 31
0.0
  0
LINE
  5
63
  8
5
  6
CONTINUOUS
 10
1540.596
 20
1102.728
 30
0.0
 11
1540.596
 21
1344.834
 31
0.0
  0
LINE
  5
64
  8
5
  6
CONTINUOUS
 10
1540.596
 20
1102.728
 30
0.0
 11
1540.596
 21
991.2809
 31
0.0
  0
LINE
  5
65
  8
5
  6
CONTINUOUS
 10
1540.596
 20
1456.281
 30
0.0
 11
1540.596
 21
1344.834
 31
0.0
  0
LINE
  5
66
  8
5
  6
CONTINUOUS
 10
1613.596
 20
1363.781
 30
0.0
 11
1613.596
 21
1083.781
 31
0.0
  0
LINE
  5
67
  8
5
  6
CONTINUOUS
 10
1472.096
 20
1459.281
 30
0.0
 11
1411.596
 21
1459.281
 31
0.0
  0
LINE
  5
68
  8
5
  6
CONTINUOUS
 10
1472.096
 20
1456.281
 30
0.0
 11
1540.596
 21
1456.281
 31
0.0
  0
LINE
  5
69
  8
5
  6
CONTINUOUS
 10
1472.096
 20
991.2809
 30
0.0
 11
1540.596
 21
991.2809
 31
0.0
  0
LINE
  5
6A
  8
5
  6
CONTINUOUS
 10
1472.096
 20
1101.485
 30
0.0
 11
1472.096
 21
988.281
 31
0.0
  0
LINE
  5
6B
  8
5
  6
CONTINUOUS
 10
1472.096
 20
1459.281
 30
0.0
 11
1472.096
 21
1346.077
 31
0.0
  0
LINE
  5
6C
  8
5
  6
CONTINUOUS
 10
1472.096
 20
1101.485
 30
0.0
 11
1472.096
 21
1346.077
 31
0.0
  0
LINE
  5
6D
  8
5
  6
CONTINUOUS
 10
1411.596
 20
1346.077
 30
0.0
 11
1411.596
 21
1101.485
 31
0.0
  0
LINE
  5
6E
  8
5
  6
CONTINUOUS
 10
1411.596
 20
1346.077
 30
0.0
 11
1411.596
 21
1459.281
 31
0.0
  0
LINE
  5
6F
  8
5
  6
CONTINUOUS
 10
1404.108
 20
1463.682
 30
0.0
 11
1278.973
 21
1463.682
 31
0.0
  0
LINE
  5
70
  8
5
  6
CONTINUOUS
 10
1257.616
 20
1446.432
 30
0.0
 11
1406.312
 21
1446.432
 31
0.0
  0
LINE
  5
71
  8
5
  6
CONTINUOUS
 10
1406.315
 20
1446.456
 30
0.0
 11
1406.312
 21
1446.432
 31
0.0
  0
LINE
  5
72
  8
5
  6
CONTINUOUS
 10
1404.096
 20
1429.281
 30
0.0
 11
1383.876
 21
1429.281
 31
0.0
  0
LINE
  5
73
  8
5
  6
CONTINUOUS
 10
1289.316
 20
1429.281
 30
0.0
 11
1253.096
 21
1429.281
 31
0.0
  0
LINE
  5
74
  8
5
  6
CONTINUOUS
 10
1406.312
 20
1446.432
 30
0.0
 11
1404.096
 21
1429.281
 31
0.0
  0
LINE
  5
75
  8
5
  6
CONTINUOUS
 10
1406.312
 20
1091.581
 30
0.0
 11
965.8798
 21
1091.581
 31
0.0
  0
LINE
  5
76
  8
5
  6
CONTINUOUS
 10
1404.096
 20
1108.681
 30
0.0
 11
1406.312
 21
1091.581
 31
0.0
  0
LINE
  5
77
  8
5
  6
CONTINUOUS
 10
968.0958
 20
1108.681
 30
0.0
 11
1404.096
 21
1108.681
 31
0.0
  0
LINE
  5
78
  8
5
  6
CONTINUOUS
 10
965.8798
 20
1091.581
 30
0.0
 11
968.0958
 21
1108.681
 31
0.0
  0
LINE
  5
79
  8
5
  6
CONTINUOUS
 10
1406.312
 20
1355.981
 30
0.0
 11
965.8797
 21
1355.981
 31
0.0
  0
LINE
  5
7A
  8
5
  6
CONTINUOUS
 10
968.0958
 20
1338.481
 30
0.0
 11
965.8797
 21
1355.981
 31
0.0
  0
LINE
  5
7B
  8
5
  6
CONTINUOUS
 10
1404.096
 20
1338.481
 30
0.0
 11
968.0958
 21
1338.481
 31
0.0
  0
LINE
  5
7C
  8
5
  6
CONTINUOUS
 10
1406.312
 20
1355.981
 30
0.0
 11
1404.096
 21
1338.481
 31
0.0
  0
LINE
  5
7D
  8
5
  6
CONTINUOUS
 10
1404.096
 20
1338.481
 30
0.0
 11
1408.567
 21
1338.481
 31
0.0
  0
LINE
  5
7E
  8
5
  6
CONTINUOUS
 10
1703.596
 20
1407.074
 30
0.0
 11
1720.916
 21
1417.074
 31
0.0
  0
LINE
  5
80
  8
5
  6
CONTINUOUS
 10
1404.096
 20
1108.681
 30
0.0
 11
1404.096
 21
1109.081
 31
0.0
  0
LINE
  5
81
  8
5
  6
CONTINUOUS
 10
1406.786
 20
1223.781
 30
0.0
 11
1404.096
 21
1223.781
 31
0.0
  0
LINE
  5
82
  8
5
  6
CONTINUOUS
 10
1404.096
 20
1206.481
 30
0.0
 11
1404.096
 21
1223.781
 31
0.0
  0
LINE
  5
83
  8
5
  6
CONTINUOUS
 10
1404.096
 20
1206.481
 30
0.0
 11
1406.874
 21
1206.481
 31
0.0
  0
LINE
  5
84
  8
5
  6
CONTINUOUS
 10
1407.136
 20
1258.281
 30
0.0
 11
1404.096
 21
1258.281
 31
0.0
  0
LINE
  5
85
  8
5
  6
CONTINUOUS
 10
1472.096
 20
988.281
 30
0.0
 11
1411.596
 21
988.281
 31
0.0
  0
LINE
  5
86
  8
5
  6
CONTINUOUS
 10
1703.596
 20
1387.074
 30
0.0
 11
1720.916
 21
1397.074
 31
0.0
  0
LINE
  5
87
  8
5
  6
CONTINUOUS
 10
1404.096
 20
1241.081
 30
0.0
 11
1404.096
 21
1258.281
 31
0.0
  0
LINE
  5
88
  8
5
  6
CONTINUOUS
 10
1404.096
 20
1241.081
 30
0.0
 11
1406.874
 21
1241.081
 31
0.0
  0
LINE
  5
89
  8
5
  6
CONTINUOUS
 10
1408.026
 20
1288.181
 30
0.0
 11
1404.096
 21
1288.181
 31
0.0
  0
LINE
  5
8A
  8
5
  6
CONTINUOUS
 10
1404.096
 20
1273.281
 30
0.0
 11
1404.096
 21
1288.181
 31
0.0
  0
LINE
  5
8B
  8
5
  6
CONTINUOUS
 10
1404.096
 20
1273.281
 30
0.0
 11
1407.512
 21
1273.281
 31
0.0
  0
LINE
  5
8C
  8
5
  6
CONTINUOUS
 10
1409.65
 20
1320.181
 30
0.0
 11
1404.096
 21
1320.181
 31
0.0
  0
LINE
  5
8D
  8
5
  6
CONTINUOUS
 10
1404.096
 20
1303.181
 30
0.0
 11
1404.096
 21
1320.181
 31
0.0
  0
LINE
  5
8E
  8
5
  6
CONTINUOUS
 10
1404.096
 20
1303.181
 30
0.0
 11
1408.695
 21
1303.181
 31
0.0
  0
LINE
  5
8F
  8
5
  6
CONTINUOUS
 10
1703.596
 20
1367.074
 30
0.0
 11
1720.916
 21
1377.074
 31
0.0
  0
LINE
  5
90
  8
5
  6
CONTINUOUS
 10
1411.596
 20
988.281
 30
0.0
 11
1411.596
 21
1101.485
 31
0.0
  0
LINE
  5
91
  8
5
  6
CONTINUOUS
 10
1703.596
 20
1347.074
 30
0.0
 11
1720.916
 21
1357.074
 31
0.0
  0
LINE
  5
92
  8
5
  6
CONTINUOUS
 10
1703.596
 20
1327.074
 30
0.0
 11
1720.916
 21
1337.074
 31
0.0
  0
LINE
  5
93
  8
5
  6
CONTINUOUS
 10
1407.136
 20
1189.281
 30
0.0
 11
1404.096
 21
1189.281
 31
0.0
  0
LINE
  5
94
  8
5
  6
CONTINUOUS
 10
1404.096
 20
1174.381
 30
0.0
 11
1404.096
 21
1189.281
 31
0.0
  0
LINE
  5
95
  8
5
  6
CONTINUOUS
 10
1404.096
 20
1174.381
 30
0.0
 11
1407.509
 21
1174.381
 31
0.0
  0
LINE
  5
96
  8
5
  6
CONTINUOUS
 10
1408.026
 20
1159.381
 30
0.0
 11
1404.096
 21
1159.381
 31
0.0
  0
LINE
  5
97
  8
5
  6
CONTINUOUS
 10
1404.096
 20
1144.381
 30
0.0
 11
1404.096
 21
1159.381
 31
0.0
  0
LINE
  5
98
  8
5
  6
CONTINUOUS
 10
1404.096
 20
1144.381
 30
0.0
 11
1408.695
 21
1144.381
 31
0.0
  0
LINE
  5
99
  8
5
  6
CONTINUOUS
 10
1409.65
 20
1127.381
 30
0.0
 11
1404.096
 21
1127.381
 31
0.0
  0
LINE
  5
9A
  8
5
  6
CONTINUOUS
 10
1404.096
 20
1109.081
 30
0.0
 11
1404.096
 21
1127.381
 31
0.0
  0
LINE
  5
9B
  8
5
  6
CONTINUOUS
 10
1404.096
 20
1189.281
 30
0.0
 11
1404.096
 21
1206.481
 31
0.0
  0
LINE
  5
9C
  8
5
  6
CONTINUOUS
 10
1404.096
 20
1223.781
 30
0.0
 11
1404.096
 21
1241.081
 31
0.0
  0
LINE
  5
9D
  8
5
  6
CONTINUOUS
 10
1404.096
 20
1258.281
 30
0.0
 11
1404.096
 21
1273.281
 31
0.0
  0
LINE
  5
9E
  8
5
  6
CONTINUOUS
 10
1404.096
 20
1288.181
 30
0.0
 11
1404.096
 21
1303.181
 31
0.0
  0
LINE
  5
9F
  8
5
  6
CONTINUOUS
 10
1404.096
 20
1320.181
 30
0.0
 11
1404.096
 21
1338.481
 31
0.0
  0
LINE
  5
A0
  8
5
  6
CONTINUOUS
 10
1404.096
 20
1159.381
 30
0.0
 11
1404.096
 21
1174.381
 31
0.0
  0
LINE
  5
A1
  8
5
  6
CONTINUOUS
 10
1404.096
 20
1127.381
 30
0.0
 11
1404.096
 21
1144.381
 31
0.0
  0
LINE
  5
A2
  8
5
  6
CONTINUOUS
 10
963.625
 20
1338.481
 30
0.0
 11
968.0958
 21
1338.481
 31
0.0
  0
LINE
  5
A4
  8
5
  6
CONTINUOUS
 10
968.0958
 20
1109.081
 30
0.0
 11
968.0958
 21
1108.681
 31
0.0
  0
LINE
  5
A5
  8
5
  6
CONTINUOUS
 10
965.3179
 20
1206.481
 30
0.0
 11
968.0958
 21
1206.481
 31
0.0
  0
LINE
  5
A6
  8
5
  6
CONTINUOUS
 10
968.0958
 20
1223.781
 30
0.0
 11
968.0958
 21
1206.481
 31
0.0
  0
LINE
  5
A7
  8
5
  6
CONTINUOUS
 10
968.0958
 20
1223.781
 30
0.0
 11
965.4056
 21
1223.781
 31
0.0
  0
LINE
  5
A8
  8
5
  6
CONTINUOUS
 10
965.3179
 20
1241.081
 30
0.0
 11
968.0958
 21
1241.081
 31
0.0
  0
LINE
  5
A9
  8
5
  6
CONTINUOUS
 10
968.0958
 20
1258.281
 30
0.0
 11
968.0958
 21
1241.081
 31
0.0
  0
LINE
  5
AA
  8
5
  6
CONTINUOUS
 10
968.0958
 20
1258.281
 30
0.0
 11
965.0553
 21
1258.281
 31
0.0
  0
LINE
  5
AB
  8
5
  6
CONTINUOUS
 10
964.6795
 20
1273.281
 30
0.0
 11
968.0958
 21
1273.281
 31
0.0
  0
LINE
  5
AC
  8
5
  6
CONTINUOUS
 10
968.0958
 20
1288.181
 30
0.0
 11
968.0958
 21
1273.281
 31
0.0
  0
LINE
  5
AD
  8
5
  6
CONTINUOUS
 10
968.0958
 20
1288.181
 30
0.0
 11
964.1652
 21
1288.181
 31
0.0
  0
LINE
  5
AE
  8
5
  6
CONTINUOUS
 10
963.4969
 20
1303.181
 30
0.0
 11
968.0958
 21
1303.181
 31
0.0
  0
LINE
  5
AF
  8
5
  6
CONTINUOUS
 10
968.0958
 20
1320.181
 30
0.0
 11
968.0958
 21
1303.181
 31
0.0
  0
LINE
  5
B0
  8
5
  6
CONTINUOUS
 10
968.0958
 20
1320.181
 30
0.0
 11
962.5415
 21
1320.181
 31
0.0
  0
LINE
  5
B1
  8
5
  6
CONTINUOUS
 10
964.6826
 20
1174.381
 30
0.0
 11
968.0958
 21
1174.381
 31
0.0
  0
LINE
  5
B2
  8
5
  6
CONTINUOUS
 10
968.0958
 20
1189.281
 30
0.0
 11
968.0958
 21
1174.381
 31
0.0
  0
LINE
  5
B3
  8
5
  6
CONTINUOUS
 10
968.0958
 20
1189.281
 30
0.0
 11
965.0553
 21
1189.281
 31
0.0
  0
LINE
  5
B4
  8
5
  6
CONTINUOUS
 10
1095.768
 20
1063.841
 30
0.0
 11
1094.751
 21
1043.271
 31
0.0
  0
LINE
  5
B5
  8
5
  6
CONTINUOUS
 10
1095.768
 20
1063.841
 30
0.0
 11
1411.596
 21
1063.841
 31
0.0
  0
LINE
  5
B6
  8
5
  6
CONTINUOUS
 10
1026.596
 20
1063.841
 30
0.0
 11
1062.596
 21
1063.841
 31
0.0
  0
LINE
  5
B7
  8
5
  6
CONTINUOUS
 10
982.0958
 20
1063.841
 30
0.0
 11
993.4232
 21
1063.841
 31
0.0
  0
LINE
  5
B8
  8
5
  6
CONTINUOUS
 10
982.0958
 20
1063.841
 30
0.0
 11
982.0958
 21
1018.281
 31
0.0
  0
LINE
  5
B9
  8
5
  6
CONTINUOUS
 10
982.0958
 20
1018.281
 30
0.0
 11
997.3157
 21
1018.281
 31
0.0
  0
LINE
  5
BA
  8
5
  6
CONTINUOUS
 10
1091.876
 20
1018.281
 30
0.0
 11
1411.596
 21
1018.281
 31
0.0
  0
LINE
  5
BB
  8
5
  6
CONTINUOUS
 10
896.5959
 20
1007.278
 30
0.0
 11
954.0959
 21
1005.27
 31
0.0
  0
LINE
  5
BC
  8
5
  6
CONTINUOUS
 10
954.0959
 20
1442.292
 30
0.0
 11
896.5959
 21
1440.284
 31
0.0
  0
LINE
  5
BD
  8
5
  6
CONTINUOUS
 10
977.625
 20
1018.681
 30
0.0
 11
977.6251
 21
1037.22
 31
0.0
  0
LINE
  5
BE
  8
5
  6
CONTINUOUS
 10
1219.735
 20
1472.781
 30
0.0
 11
1221.781
 21
1414.198
 31
0.0
  0
LINE
  5
BF
  8
5
  6
CONTINUOUS
 10
979.8668
 20
1049.184
 30
0.0
 11
979.8668
 21
1001.181
 31
0.0
  0
LINE
  5
C0
  8
5
  6
CONTINUOUS
 10
979.8733
 20
1001.13
 30
0.0
 11
982.0958
 21
1018.281
 31
0.0
  0
LINE
  5
C1
  8
5
  6
CONTINUOUS
 10
979.8797
 20
1001.08
 30
0.0
 11
1411.596
 21
1001.08
 31
0.0
  0
LINE
  5
C2
  8
5
  6
CONTINUOUS
 10
1091.212
 20
1012.51
 30
0.0
 11
1074.096
 21
1002.81
 31
0.0
  0
LINE
  5
C3
  8
5
  6
CONTINUOUS
 10
1074.096
 20
1002.81
 30
0.0
 11
1015.096
 21
1002.81
 31
0.0
  0
LINE
  5
C4
  8
5
  6
CONTINUOUS
 10
1015.096
 20
1002.81
 30
0.0
 11
997.9796
 21
1012.51
 31
0.0
  0
LINE
  5
C5
  8
5
  6
CONTINUOUS
 10
1074.096
 20
1002.81
 30
0.0
 11
1074.096
 21
1020.488
 31
0.0
  0
LINE
  5
C6
  8
5
  6
CONTINUOUS
 10
1015.096
 20
1020.488
 30
0.0
 11
1015.096
 21
1002.81
 31
0.0
  0
LINE
  5
C7
  8
5
  6
CONTINUOUS
 10
878.5959
 20
1448.781
 30
0.0
 11
873.5958
 21
1448.781
 31
0.0
  0
LINE
  5
C8
  8
5
  6
CONTINUOUS
 10
963.4969
 20
1144.381
 30
0.0
 11
968.0958
 21
1144.381
 31
0.0
  0
LINE
  5
C9
  8
5
  6
CONTINUOUS
 10
873.5958
 20
998.7811
 30
0.0
 11
878.5959
 21
998.7811
 31
0.0
  0
LINE
  5
CA
  8
5
  6
CONTINUOUS
 10
896.5958
 20
1498.781
 30
0.0
 11
878.5958
 21
1498.781
 31
0.0
  0
LINE
  5
CB
  8
5
  6
CONTINUOUS
 10
878.5959
 20
948.7809
 30
0.0
 11
896.5959
 21
948.7809
 31
0.0
  0
LINE
  5
CC
  8
5
  6
CONTINUOUS
 10
944.5958
 20
1521.281
 30
0.0
 11
944.5958
 21
1543.281
 31
0.0
  0
LINE
  5
CD
  8
5
  6
CONTINUOUS
 10
1254.596
 20
1521.281
 30
0.0
 11
1254.596
 21
1543.281
 31
0.0
  0
LINE
  5
CE
  8
5
  6
CONTINUOUS
 10
1213.596
 20
1498.281
 30
0.0
 11
1213.596
 21
1546.281
 31
0.0
  0
LINE
  5
CF
  8
5
  6
CONTINUOUS
 10
985.5958
 20
1546.281
 30
0.0
 11
985.5958
 21
1498.281
 31
0.0
  0
LINE
  5
D0
  8
5
  6
CONTINUOUS
 10
968.0958
 20
1159.381
 30
0.0
 11
968.0958
 21
1144.381
 31
0.0
  0
LINE
  5
D1
  8
5
  6
CONTINUOUS
 10
968.0958
 20
1159.381
 30
0.0
 11
964.1652
 21
1159.381
 31
0.0
  0
LINE
  5
D2
  8
5
  6
CONTINUOUS
 10
968.0958
 20
1127.381
 30
0.0
 11
968.0958
 21
1109.081
 31
0.0
  0
LINE
  5
D3
  8
5
  6
CONTINUOUS
 10
968.0958
 20
1127.381
 30
0.0
 11
962.5415
 21
1127.381
 31
0.0
  0
LINE
  5
D4
  8
5
  6
CONTINUOUS
 10
968.0958
 20
1206.481
 30
0.0
 11
968.0958
 21
1189.281
 31
0.0
  0
LINE
  5
D5
  8
5
  6
CONTINUOUS
 10
968.0958
 20
1241.081
 30
0.0
 11
968.0958
 21
1223.781
 31
0.0
  0
LINE
  5
D6
  8
5
  6
CONTINUOUS
 10
968.0958
 20
1273.281
 30
0.0
 11
968.0958
 21
1258.281
 31
0.0
  0
LINE
  5
D7
  8
5
  6
CONTINUOUS
 10
968.0958
 20
1303.181
 30
0.0
 11
968.0958
 21
1288.181
 31
0.0
  0
LINE
  5
D8
  8
5
  6
CONTINUOUS
 10
968.0958
 20
1338.481
 30
0.0
 11
968.0958
 21
1320.181
 31
0.0
  0
LINE
  5
D9
  8
5
  6
CONTINUOUS
 10
968.0958
 20
1174.381
 30
0.0
 11
968.0958
 21
1159.381
 31
0.0
  0
LINE
  5
DA
  8
5
  6
CONTINUOUS
 10
968.0958
 20
1144.381
 30
0.0
 11
968.0958
 21
1127.381
 31
0.0
  0
LINE
  5
DB
  8
5
  6
CONTINUOUS
 10
1404.096
 20
1127.381
 30
0.0
 11
968.0958
 21
1127.381
 31
0.0
  0
LINE
  5
DD
  8
5
  6
CONTINUOUS
 10
1404.096
 20
1159.381
 30
0.0
 11
968.0958
 21
1159.381
 31
0.0
  0
LINE
  5
DE
  8
5
  6
CONTINUOUS
 10
968.0958
 20
1144.381
 30
0.0
 11
1404.096
 21
1144.381
 31
0.0
  0
LINE
  5
DF
  8
5
  6
CONTINUOUS
 10
1404.096
 20
1189.281
 30
0.0
 11
968.0958
 21
1189.281
 31
0.0
  0
LINE
  5
E0
  8
5
  6
CONTINUOUS
 10
968.0958
 20
1174.381
 30
0.0
 11
1404.096
 21
1174.381
 31
0.0
  0
LINE
  5
E1
  8
5
  6
CONTINUOUS
 10
1404.096
 20
1320.181
 30
0.0
 11
968.0958
 21
1320.181
 31
0.0
  0
LINE
  5
E2
  8
5
  6
CONTINUOUS
 10
968.0958
 20
1303.181
 30
0.0
 11
1404.096
 21
1303.181
 31
0.0
  0
LINE
  5
E3
  8
5
  6
CONTINUOUS
 10
1404.096
 20
1288.181
 30
0.0
 11
968.0958
 21
1288.181
 31
0.0
  0
LINE
  5
E4
  8
5
  6
CONTINUOUS
 10
968.0958
 20
1273.281
 30
0.0
 11
1404.096
 21
1273.281
 31
0.0
  0
LINE
  5
E5
  8
5
  6
CONTINUOUS
 10
1404.096
 20
1258.281
 30
0.0
 11
968.0958
 21
1258.281
 31
0.0
  0
LINE
  5
E6
  8
5
  6
CONTINUOUS
 10
968.0958
 20
1241.081
 30
0.0
 11
1404.096
 21
1241.081
 31
0.0
  0
LINE
  5
E8
  8
5
  6
CONTINUOUS
 10
968.0958
 20
1206.481
 30
0.0
 11
1404.096
 21
1206.481
 31
0.0
  0
LINE
  5
E9
  8
5
  6
CONTINUOUS
 10
1408.541
 20
1410.219
 30
0.0
 11
1408.541
 21
1429.081
 31
0.0
  0
LINE
  5
EA
  8
5
  6
CONTINUOUS
 10
1406.312
 20
1446.432
 30
0.0
 11
1406.312
 21
1398.302
 31
0.0
  0
LINE
  5
EB
  8
5
  6
CONTINUOUS
 10
1404.096
 20
1383.721
 30
0.0
 11
1404.096
 21
1429.281
 31
0.0
  0
LINE
  5
EC
  8
5
  6
CONTINUOUS
 10
1307.096
 20
1427.074
 30
0.0
 11
1289.98
 21
1412.974
 31
0.0
  0
LINE
  5
ED
  8
5
  6
CONTINUOUS
 10
1307.096
 20
1444.752
 30
0.0
 11
1307.096
 21
1427.074
 31
0.0
  0
LINE
  5
EF
  8
5
  6
CONTINUOUS
 10
993.4646
 20
1472.781
 30
0.0
 11
991.1087
 21
1405.318
 31
0.0
  0
LINE
  5
F0
  8
5
  6
CONTINUOUS
 10
1289.98
 20
1435.052
 30
0.0
 11
1307.096
 21
1444.752
 31
0.0
  0
LINE
  5
F1
  8
5
  6
CONTINUOUS
 10
1289.98
 20
1412.974
 30
0.0
 11
1289.98
 21
1435.052
 31
0.0
  0
LINE
  5
F2
  8
5
  6
CONTINUOUS
 10
1366.096
 20
1444.752
 30
0.0
 11
1383.212
 21
1435.052
 31
0.0
  0
LINE
  5
F3
  8
5
  6
CONTINUOUS
 10
1366.096
 20
1427.074
 30
0.0
 11
1366.096
 21
1444.752
 31
0.0
  0
LINE
  5
F4
  8
5
  6
CONTINUOUS
 10
1383.212
 20
1412.974
 30
0.0
 11
1366.096
 21
1427.074
 31
0.0
  0
LINE
  5
F5
  8
5
  6
CONTINUOUS
 10
1383.212
 20
1435.052
 30
0.0
 11
1383.212
 21
1412.974
 31
0.0
  0
LINE
  5
F6
  8
5
  6
CONTINUOUS
 10
1318.596
 20
1393.505
 30
0.0
 11
1326.596
 21
1400.572
 31
0.0
  0
LINE
  5
F7
  8
5
  6
CONTINUOUS
 10
1346.596
 20
1400.572
 30
0.0
 11
1354.596
 21
1393.505
 31
0.0
  0
LINE
  5
F8
  8
5
  6
CONTINUOUS
 10
1326.596
 20
1400.572
 30
0.0
 11
1346.596
 21
1400.572
 31
0.0
  0
LINE
  5
F9
  8
5
  6
CONTINUOUS
 10
1366.096
 20
1427.074
 30
0.0
 11
1307.096
 21
1427.074
 31
0.0
  0
LINE
  5
FA
  8
5
  6
CONTINUOUS
 10
1307.096
 20
1444.752
 30
0.0
 11
1366.096
 21
1444.752
 31
0.0
  0
LINE
  5
FB
  8
5
  6
CONTINUOUS
 10
1318.596
 20
1383.721
 30
0.0
 11
1354.596
 21
1383.721
 31
0.0
  0
LINE
  5
FC
  8
5
  6
CONTINUOUS
 10
1253.096
 20
1383.721
 30
0.0
 11
1285.423
 21
1383.721
 31
0.0
  0
LINE
  5
FD
  8
5
  6
CONTINUOUS
 10
1208.083
 20
1405.318
 30
0.0
 11
991.1087
 21
1405.318
 31
0.0
  0
LINE
  5
FE
  8
5
  6
CONTINUOUS
 10
1387.768
 20
1383.721
 30
0.0
 11
1404.096
 21
1383.721
 31
0.0
  0
LINE
  5
FF
  8
5
  6
CONTINUOUS
 10
1386.751
 20
1404.291
 30
0.0
 11
1387.768
 21
1383.721
 31
0.0
  0
LINE
  5
100
  8
5
  6
CONTINUOUS
 10
1285.423
 20
1383.721
 30
0.0
 11
1286.44
 21
1404.291
 31
0.0
  0
LINE
  5
101
  8
5
  6
CONTINUOUS
 10
1289.98
 20
1412.974
 30
0.0
 11
1286.846
 21
1373.381
 31
0.0
  0
LINE
  5
102
  8
5
  6
CONTINUOUS
 10
1286.44
 20
1404.291
 30
0.0
 11
1289.98
 21
1435.052
 31
0.0
  0
LINE
  5
103
  8
5
  6
CONTINUOUS
 10
1386.751
 20
1404.291
 30
0.0
 11
1383.212
 21
1435.052
 31
0.0
  0
LINE
  5
104
  8
5
  6
CONTINUOUS
 10
1383.212
 20
1412.974
 30
0.0
 11
1386.346
 21
1373.381
 31
0.0
  0
LINE
  5
105
  8
5
  6
CONTINUOUS
 10
1318.596
 20
1373.381
 30
0.0
 11
1318.596
 21
1393.505
 31
0.0
  0
LINE
  5
106
  8
5
  6
CONTINUOUS
 10
1354.596
 20
1393.505
 30
0.0
 11
1354.596
 21
1373.381
 31
0.0
  0
LINE
  5
107
  8
5
  6
CONTINUOUS
 10
1604.596
 20
1083.781
 30
0.0
 11
1540.596
 21
1000.281
 31
0.0
  0
LINE
  5
108
  8
5
  6
CONTINUOUS
 10
1604.596
 20
1363.781
 30
0.0
 11
1540.596
 21
1447.281
 31
0.0
  0
LINE
  5
109
  8
5
  6
CONTINUOUS
 10
1604.596
 20
1363.781
 30
0.0
 11
1604.596
 21
1083.781
 31
0.0
  0
LINE
  5
10A
  8
5
  6
CONTINUOUS
 10
1613.596
 20
1083.781
 30
0.0
 11
1604.596
 21
1083.781
 31
0.0
  0
LINE
  5
10B
  8
5
  6
CONTINUOUS
 10
1613.596
 20
1363.781
 30
0.0
 11
1604.596
 21
1363.781
 31
0.0
  0
LINE
  5
10C
  8
5
  6
CONTINUOUS
 10
1411.596
 20
1101.485
 30
0.0
 11
1472.096
 21
1101.485
 31
0.0
  0
LINE
  5
10D
  8
5
  6
CONTINUOUS
 10
1472.096
 20
1346.077
 30
0.0
 11
1411.596
 21
1346.077
 31
0.0
  0
LINE
  5
10E
  8
5
  6
CONTINUOUS
 10
1540.596
 20
1344.834
 30
0.0
 11
1472.096
 21
1344.834
 31
0.0
  0
LINE
  5
10F
  8
5
  6
CONTINUOUS
 10
1472.096
 20
1102.728
 30
0.0
 11
1540.596
 21
1102.728
 31
0.0
  0
LINE
  5
110
  8
5
  6
CONTINUOUS
 10
748.5958
 20
1257.781
 30
0.0
 11
757.5957
 21
1257.781
 31
0.0
  0
LINE
  5
111
  8
5
  6
CONTINUOUS
 10
757.5957
 20
1257.781
 30
0.0
 11
859.5958
 21
1257.781
 31
0.0
  0
LINE
  5
112
  8
5
  6
CONTINUOUS
 10
868.5958
 20
1257.781
 30
0.0
 11
859.5958
 21
1257.781
 31
0.0
  0
LINE
  5
113
  8
5
  6
CONTINUOUS
 10
738.5958
 20
1253.781
 30
0.0
 11
738.5958
 21
1193.781
 31
0.0
  0
LINE
  5
114
  8
6
  6
CENTER
 10
2093.262
 20
943.7809
 30
0.0
 11
2093.262
 21
1503.781
 31
0.0
  0
LINE
  5
115
  8
6
  6
CENTER
 10
1813.262
 20
1223.781
 30
0.0
 11
2373.262
 21
1223.781
 31
0.0
  0
LINE
  5
116
  8
5
  6
CONTINUOUS
 10
868.5957
 20
1253.781
 30
0.0
 11
868.5958
 21
1257.781
 31
0.0
  0
LINE
  5
117
  8
5
  6
CONTINUOUS
 10
859.5958
 20
1252.399
 30
0.0
 11
757.5957
 21
1252.399
 31
0.0
  0
LINE
  5
118
  8
5
  6
CONTINUOUS
 10
748.5958
 20
1257.781
 30
0.0
 11
748.5958
 21
1253.781
 31
0.0
  0
LINE
  5
119
  8
5
  6
CONTINUOUS
 10
748.5956
 20
1253.781
 30
0.0
 11
738.5959
 21
1253.781
 31
0.0
  0
LINE
  5
11A
  8
5
  6
CONTINUOUS
 10
873.5958
 20
1253.781
 30
0.0
 11
868.5957
 21
1253.781
 31
0.0
  0
LINE
  5
11B
  8
5
  6
CONTINUOUS
 10
738.5959
 20
1193.781
 30
0.0
 11
873.5958
 21
1193.781
 31
0.0
  0
ARC
  5
11C
  8
5
  6
CONTINUOUS
 10
859.5959
 20
401.299
 30
0.0
 40
9.0
 50
270.0
 51
90.0
  0
LINE
  5
11D
  8
5
  6
CONTINUOUS
 10
757.5959
 20
392.299
 30
0.0
 11
859.5959
 21
392.299
 31
0.0
  0
ARC
  5
11E
  8
5
  6
CONTINUOUS
 10
757.5959
 20
401.299
 30
0.0
 40
9.0
 50
90.0
 51
270.0
  0
LINE
  5
11F
  8
5
  6
CONTINUOUS
 10
859.5959
 20
410.299
 30
0.0
 11
757.5959
 21
410.299
 31
0.0
  0
LINE
  5
120
  8
5
  6
CONTINUOUS
 10
738.5959
 20
431.299
 30
0.0
 11
738.5959
 21
371.299
 31
0.0
  0
LINE
  5
121
  8
5
  6
CONTINUOUS
 10
738.5959
 20
371.299
 30
0.0
 11
873.5959
 21
371.299
 31
0.0
  0
LINE
  5
122
  8
7
  6
DASHED
 10
2344.262
 20
1114.281
 30
0.0
 11
2344.262
 21
1117.281
 31
0.0
  0
LINE
  5
123
  8
5
  6
CONTINUOUS
 10
2386.262
 20
1479.431
 30
0.0
 11
2386.262
 21
1599.431
 31
0.0
  0
LINE
  5
124
  8
7
  6
DASHED
 10
2255.648
 20
1114.281
 30
0.0
 11
2344.262
 21
1114.281
 31
0.0
  0
LINE
  5
125
  8
7
  6
DASHED
 10
2257.631
 20
1117.281
 30
0.0
 11
2344.262
 21
1117.281
 31
0.0
  0
LINE
  5
126
  8
5
  6
CONTINUOUS
 10
873.5959
 20
431.299
 30
0.0
 11
738.5959
 21
431.299
 31
0.0
  0
CIRCLE
  5
127
  8
5
  6
CONTINUOUS
 10
2093.262
 20
1223.781
 30
0.0
 40
30.0
  0
LINE
  5
128
  8
5
  6
CONTINUOUS
 10
2084.262
 20
1257.781
 30
0.0
 11
2102.262
 21
1257.781
 31
0.0
  0
ARC
  5
129
  8
5
  6
CONTINUOUS
 10
2093.262
 20
1223.781
 30
0.0
 40
35.0
 50
104.9005
 51
0.0
  0
ARC
  5
12A
  8
5
  6
CONTINUOUS
 10
2093.262
 20
1223.781
 30
0.0
 40
34.99999
 50
0.000002
 51
103.7292
  0
LINE
  5
12B
  8
5
  6
CONTINUOUS
 10
986.0958
 20
1599.481
 30
0.0
 11
1213.096
 21
1599.481
 31
0.0
  0
LINE
  5
12C
  8
5
  6
CONTINUOUS
 10
986.0958
 20
1564.581
 30
0.0
 11
940.0958
 21
1564.581
 31
0.0
  0
LINE
  5
12D
  8
5
  6
CONTINUOUS
 10
1259.096
 20
1564.581
 30
0.0
 11
1213.096
 21
1564.581
 31
0.0
  0
LINE
  5
12E
  8
5
  6
CONTINUOUS
 10
2386.262
 20
1579.431
 30
0.0
 11
2403.582
 21
1589.431
 31
0.0
  0
LINE
  5
12F
  8
5
  6
CONTINUOUS
 10
2386.262
 20
1559.775
 30
0.0
 11
2403.582
 21
1569.775
 31
0.0
  0
LINE
  5
130
  8
5
  6
CONTINUOUS
 10
2386.262
 20
1539.775
 30
0.0
 11
2403.582
 21
1549.775
 31
0.0
  0
LINE
  5
131
  8
5
  6
CONTINUOUS
 10
2386.262
 20
1519.775
 30
0.0
 11
2403.582
 21
1529.775
 31
0.0
  0
LINE
  5
132
  8
5
  6
CONTINUOUS
 10
2386.262
 20
1499.775
 30
0.0
 11
2403.582
 21
1509.775
 31
0.0
  0
LINE
  5
133
  8
5
  6
CONTINUOUS
 10
940.0958
 20
1564.581
 30
0.0
 11
989.5958
 21
1615.581
 31
0.0
  0
LINE
  5
134
  8
5
  6
CONTINUOUS
 10
1209.596
 20
1615.581
 30
0.0
 11
1259.096
 21
1564.581
 31
0.0
  0
LINE
  5
135
  8
5
  6
CONTINUOUS
 10
940.0958
 20
1564.581
 30
0.0
 11
940.0958
 21
1543.281
 31
0.0
  0
LINE
  5
136
  8
6
  6
CENTER
 10
379.6071
 20
995.2809
 30
0.0
 11
379.6071
 21
1452.281
 31
0.0
  0
LINE
  5
137
  8
6
  6
CENTER
 10
151.1071
 20
1223.781
 30
0.0
 11
608.1071
 21
1223.781
 31
0.0
  0
LINE
  5
138
  8
6
  6
CENTER
 10
1638.596
 20
401.2985
 30
0.0
 11
1209.596
 21
401.298732
 31
0.0
  0
LINE
  5
139
  8
5
  6
CONTINUOUS
 10
1259.096
 20
1543.281
 30
0.0
 11
1259.096
 21
1564.581
 31
0.0
  0
LINE
  5
13A
  8
5
  6
CONTINUOUS
 10
1141.357
 20
1619.781
 30
0.0
 11
1155.136
 21
1619.781
 31
0.0
  0
LINE
  5
13B
  8
5
  6
CONTINUOUS
 10
1157.236
 20
1619.781
 30
0.0
 11
1162.038
 21
1619.781
 31
0.0
  0
LINE
  5
13C
  8
5
  6
CONTINUOUS
 10
1162.038
 20
1619.781
 30
0.0
 11
1176.866
 21
1619.781
 31
0.0
  0
LINE
  5
13D
  8
5
  6
CONTINUOUS
 10
1111.589
 20
1619.781
 30
0.0
 11
1116.392
 21
1619.781
 31
0.0
  0
LINE
  5
13E
  8
5
  6
CONTINUOUS
 10
1116.392
 20
1619.781
 30
0.0
 11
1131.22
 21
1619.781
 31
0.0
  0
LINE
  5
13F
  8
5
  6
CONTINUOUS
 10
1095.712
 20
1619.781
 30
0.0
 11
1109.49
 21
1619.781
 31
0.0
  0
LINE
  5
140
  8
5
  6
CONTINUOUS
 10
1060.69
 20
1619.781
 30
0.0
 11
1060.69
 21
1619.781
 31
0.0
  0
LINE
  5
141
  8
5
  6
CONTINUOUS
 10
1060.69
 20
1619.781
 30
0.0
 11
1072.084
 21
1619.781
 31
0.0
  0
LINE
  5
142
  8
5
  6
CONTINUOUS
 10
1072.084
 20
1619.781
 30
0.0
 11
1075.924
 21
1619.781
 31
0.0
  0
LINE
  5
143
  8
5
  6
CONTINUOUS
 10
1075.924
 20
1619.781
 30
0.0
 11
1085.424
 21
1619.781
 31
0.0
  0
LINE
  5
144
  8
5
  6
CONTINUOUS
 10
1034.593
 20
1619.781
 30
0.0
 11
1043.456
 21
1619.781
 31
0.0
  0
LINE
  5
145
  8
5
  6
CONTINUOUS
 10
1043.456
 20
1619.781
 30
0.0
 11
1047.146
 21
1619.781
 31
0.0
  0
LINE
  5
146
  8
5
  6
CONTINUOUS
 10
1047.146
 20
1619.781
 30
0.0
 11
1058.59
 21
1619.781
 31
0.0
  0
LINE
  5
147
  8
5
  6
CONTINUOUS
 10
1155.136
 20
1615.581
 30
0.0
 11
1155.136
 21
1619.781
 31
0.0
  0
LINE
  5
148
  8
5
  6
CONTINUOUS
 10
1141.357
 20
1615.581
 30
0.0
 11
1141.357
 21
1619.781
 31
0.0
  0
LINE
  5
149
  8
5
  6
CONTINUOUS
 10
1157.236
 20
1615.581
 30
0.0
 11
1157.236
 21
1619.781
 31
0.0
  0
LINE
  5
14A
  8
5
  6
CONTINUOUS
 10
1111.59
 20
1615.581
 30
0.0
 11
1111.589
 21
1619.781
 31
0.0
  0
LINE
  5
14B
  8
5
  6
CONTINUOUS
 10
1109.49
 20
1615.581
 30
0.0
 11
1109.49
 21
1619.781
 31
0.0
  0
LINE
  5
14C
  8
5
  6
CONTINUOUS
 10
1095.712
 20
1615.581
 30
0.0
 11
1095.712
 21
1619.781
 31
0.0
  0
LINE
  5
14D
  8
5
  6
CONTINUOUS
 10
1060.69
 20
1615.581
 30
0.0
 11
1060.69
 21
1619.781
 31
0.0
  0
LINE
  5
14E
  8
5
  6
CONTINUOUS
 10
1058.59
 20
1619.781
 30
0.0
 11
1058.59
 21
1615.581
 31
0.0
  0
LINE
  5
14F
  8
5
  6
CONTINUOUS
 10
989.5958
 20
1615.581
 30
0.0
 11
1209.596
 21
1615.581
 31
0.0
  0
LINE
  5
150
  8
5
  6
CONTINUOUS
 10
951.5958
 20
1496.781
 30
0.0
 11
951.5958
 21
1521.281
 31
0.0
  0
LINE
  5
151
  8
5
  6
CONTINUOUS
 10
1247.596
 20
1496.781
 30
0.0
 11
1247.596
 21
1521.281
 31
0.0
  0
LINE
  5
152
  8
5
  6
CONTINUOUS
 10
1247.596
 20
1496.781
 30
0.0
 11
1223.596
 21
1472.781
 31
0.0
  0
LINE
  5
153
  8
5
  6
CONTINUOUS
 10
951.5958
 20
1496.781
 30
0.0
 11
975.5958
 21
1472.781
 31
0.0
  0
LINE
  5
154
  8
5
  6
CONTINUOUS
 10
985.5958
 20
1521.281
 30
0.0
 11
944.5958
 21
1521.281
 31
0.0
  0
LINE
  5
155
  8
5
  6
CONTINUOUS
 10
1254.596
 20
1521.281
 30
0.0
 11
1213.596
 21
1521.281
 31
0.0
  0
LINE
  5
156
  8
5
  6
CONTINUOUS
 10
985.5958
 20
1498.281
 30
0.0
 11
1213.596
 21
1498.281
 31
0.0
  0
LINE
  5
157
  8
5
  6
CONTINUOUS
 10
1223.596
 20
1472.781
 30
0.0
 11
975.5958
 21
1472.781
 31
0.0
  0
LINE
  5
158
  8
5
  6
CONTINUOUS
 10
1209.596
 20
1599.481
 30
0.0
 11
1209.596
 21
1615.581
 31
0.0
  0
LINE
  5
159
  8
5
  6
CONTINUOUS
 10
989.5958
 20
1615.581
 30
0.0
 11
989.5958
 21
1599.481
 31
0.0
  0
LINE
  5
15A
  8
5
  6
CONTINUOUS
 10
1176.866
 20
1615.581
 30
0.0
 11
1176.866
 21
1619.781
 31
0.0
  0
LINE
  5
15B
  8
5
  6
CONTINUOUS
 10
1162.038
 20
1615.581
 30
0.0
 11
1162.038
 21
1619.781
 31
0.0
  0
LINE
  5
15C
  8
5
  6
CONTINUOUS
 10
1131.22
 20
1615.581
 30
0.0
 11
1131.22
 21
1619.781
 31
0.0
  0
LINE
  5
15D
  8
5
  6
CONTINUOUS
 10
1116.392
 20
1615.581
 30
0.0
 11
1116.392
 21
1619.781
 31
0.0
  0
LINE
  5
15E
  8
5
  6
CONTINUOUS
 10
1085.424
 20
1615.581
 30
0.0
 11
1085.424
 21
1619.781
 31
0.0
  0
LINE
  5
15F
  8
5
  6
CONTINUOUS
 10
1075.924
 20
1615.581
 30
0.0
 11
1075.924
 21
1619.781
 31
0.0
  0
LINE
  5
160
  8
5
  6
CONTINUOUS
 10
1072.083
 20
1615.581
 30
0.0
 11
1072.084
 21
1619.781
 31
0.0
  0
LINE
  5
161
  8
5
  6
CONTINUOUS
 10
1047.146
 20
1615.581
 30
0.0
 11
1047.146
 21
1619.781
 31
0.0
  0
LINE
  5
162
  8
5
  6
CONTINUOUS
 10
1043.456
 20
1615.581
 30
0.0
 11
1043.456
 21
1619.781
 31
0.0
  0
LINE
  5
163
  8
5
  6
CONTINUOUS
 10
1034.593
 20
1615.581
 30
0.0
 11
1034.593
 21
1619.781
 31
0.0
  0
LINE
  5
164
  8
5
  6
CONTINUOUS
 10
951.5958
 20
1496.781
 30
0.0
 11
1247.596
 21
1496.781
 31
0.0
  0
LINE
  5
165
  8
5
  6
CONTINUOUS
 10
174.5604
 20
1400.572
 30
0.0
 11
174.5604
 21
1400.572
 31
0.0
  0
LINE
  5
166
  8
5
  6
CONTINUOUS
 10
539.1071
 20
1543.281
 30
0.0
 11
217.1071
 21
1543.281
 31
0.0
  0
LINE
  5
167
  8
5
  6
CONTINUOUS
 10
217.1071
 20
1543.281
 30
0.0
 11
217.1071
 21
1564.581
 31
0.0
  0
LINE
  5
168
  8
5
  6
CONTINUOUS
 10
188.1071
 20
1546.281
 30
0.0
 11
188.1071
 21
1599.481
 31
0.0
  0
LINE
  5
169
  8
5
  6
CONTINUOUS
 10
534.6071
 20
1543.281
 30
0.0
 11
534.6071
 21
1521.281
 31
0.0
  0
LINE
  5
16A
  8
5
  6
CONTINUOUS
 10
222.1071
 20
1521.281
 30
0.0
 11
222.1071
 21
1543.281
 31
0.0
  0
LINE
  5
16B
  8
5
  6
CONTINUOUS
 10
187.1071
 20
1546.281
 30
0.0
 11
217.1071
 21
1546.281
 31
0.0
  0
LINE
  5
16C
  8
5
  6
CONTINUOUS
 10
188.1071
 20
1599.481
 30
0.0
 11
254.4755
 21
1599.481
 31
0.0
  0
LINE
  5
16D
  8
5
  6
CONTINUOUS
 10
250.9781
 20
1599.481
 30
0.0
 11
266.607
 21
1615.581
 31
0.0
  0
LINE
  5
16E
  8
5
  6
CONTINUOUS
 10
266.6071
 20
1564.581
 30
0.0
 11
217.1071
 21
1564.581
 31
0.0
  0
LINE
  5
16F
  8
5
  6
CONTINUOUS
 10
489.6105
 20
1615.577
 30
0.0
 11
539.1071
 21
1564.581
 31
0.0
  0
LINE
  5
170
  8
5
  6
CONTINUOUS
 10
539.1071
 20
1564.581
 30
0.0
 11
489.6071
 21
1564.581
 31
0.0
  0
LINE
  5
171
  8
5
  6
CONTINUOUS
 10
859.5958
 20
1257.781
 30
0.0
 11
859.5958
 21
1252.399
 31
0.0
  0
LINE
  5
172
  8
5
  6
CONTINUOUS
 10
757.5957
 20
1257.781
 30
0.0
 11
757.5957
 21
1252.399
 31
0.0
  0
LINE
  5
173
  8
5
  6
CONTINUOUS
 10
539.1071
 20
1564.581
 30
0.0
 11
539.1071
 21
1543.281
 31
0.0
  0
LINE
  5
174
  8
5
  6
CONTINUOUS
 10
351.6038
 20
1619.781
 30
0.0
 11
366.4329
 21
1619.781
 31
0.0
  0
LINE
  5
175
  8
5
  6
CONTINUOUS
 10
366.4329
 20
1619.781
 30
0.0
 11
377.6705
 21
1619.781
 31
0.0
  0
LINE
  5
176
  8
5
  6
CONTINUOUS
 10
954.0959
 20
1004.781
 30
0.0
 11
979.4056
 21
1004.781
 31
0.0
  0
LINE
  5
177
  8
5
  6
CONTINUOUS
 10
379.7704
 20
1619.781
 30
0.0
 11
382.3251
 21
1619.781
 31
0.0
  0
LINE
  5
178
  8
5
  6
CONTINUOUS
 10
382.3251
 20
1619.781
 30
0.0
 11
394.2284
 21
1619.781
 31
0.0
  0
LINE
  5
179
  8
5
  6
CONTINUOUS
 10
394.2284
 20
1619.781
 30
0.0
 11
404.6675
 21
1619.781
 31
0.0
  0
LINE
  5
17A
  8
5
  6
CONTINUOUS
 10
379.7704
 20
1619.781
 30
0.0
 11
379.7704
 21
1619.781
 31
0.0
  0
LINE
  5
17B
  8
5
  6
CONTINUOUS
 10
351.6038
 20
1619.781
 30
0.0
 11
351.6038
 21
1619.781
 31
0.0
  0
LINE
  5
17C
  8
5
  6
CONTINUOUS
 10
379.7704
 20
1619.781
 30
0.0
 11
379.7704
 21
1619.781
 31
0.0
  0
LINE
  5
17D
  8
5
  6
CONTINUOUS
 10
351.6038
 20
1619.781
 30
0.0
 11
351.6038
 21
1619.781
 31
0.0
  0
LINE
  5
17E
  8
5
  6
CONTINUOUS
 10
377.6705
 20
1615.581
 30
0.0
 11
377.6705
 21
1619.781
 31
0.0
  0
LINE
  5
17F
  8
5
  6
CONTINUOUS
 10
351.6039
 20
1615.581
 30
0.0
 11
351.6038
 21
1619.781
 31
0.0
  0
LINE
  5
180
  8
5
  6
CONTINUOUS
 10
404.6675
 20
1615.581
 30
0.0
 11
404.6675
 21
1619.781
 31
0.0
  0
LINE
  5
181
  8
5
  6
CONTINUOUS
 10
379.7704
 20
1615.581
 30
0.0
 11
379.7704
 21
1619.781
 31
0.0
  0
LINE
  5
182
  8
5
  6
CONTINUOUS
 10
266.607
 20
1615.581
 30
0.0
 11
489.6105
 21
1615.577
 31
0.0
  0
LINE
  5
183
  8
5
  6
CONTINUOUS
 10
978.4066
 20
1442.781
 30
0.0
 11
954.0958
 21
1442.781
 31
0.0
  0
LINE
  5
184
  8
5
  6
CONTINUOUS
 10
1253.096
 20
1442.781
 30
0.0
 11
1220.785
 21
1442.781
 31
0.0
  0
LINE
  5
185
  8
5
  6
CONTINUOUS
 10
1411.596
 20
1442.781
 30
0.0
 11
1406.786
 21
1442.781
 31
0.0
  0
LINE
  5
186
  8
5
  6
CONTINUOUS
 10
158.6362
 20
1020.488
 30
0.0
 11
167.1084
 21
1034.588
 31
0.0
  0
LINE
  5
187
  8
5
  6
CONTINUOUS
 10
527.6071
 20
1521.281
 30
0.0
 11
527.6071
 21
1496.781
 31
0.0
  0
LINE
  5
188
  8
5
  6
CONTINUOUS
 10
527.6071
 20
1496.781
 30
0.0
 11
503.6071
 21
1472.781
 31
0.0
  0
LINE
  5
189
  8
5
  6
CONTINUOUS
 10
231.6071
 20
1496.781
 30
0.0
 11
255.6071
 21
1472.781
 31
0.0
  0
LINE
  5
18A
  8
5
  6
CONTINUOUS
 10
1208.083
 20
1405.318
 30
0.0
 11
1205.727
 21
1472.781
 31
0.0
  0
LINE
  5
18B
  8
5
  6
CONTINUOUS
 10
187.1071
 20
1498.281
 30
0.0
 11
187.1071
 21
1546.281
 31
0.0
  0
LINE
  5
18C
  8
5
  6
CONTINUOUS
 10
534.6071
 20
1521.281
 30
0.0
 11
222.1071
 21
1521.281
 31
0.0
  0
LINE
  5
18D
  8
5
  6
CONTINUOUS
 10
231.6071
 20
1496.781
 30
0.0
 11
231.6071
 21
1521.281
 31
0.0
  0
LINE
  5
18E
  8
5
  6
CONTINUOUS
 10
231.6071
 20
1498.281
 30
0.0
 11
187.1071
 21
1498.281
 31
0.0
  0
LINE
  5
18F
  8
5
  6
CONTINUOUS
 10
503.6071
 20
1472.781
 30
0.0
 11
255.6071
 21
1472.781
 31
0.0
  0
LINE
  5
190
  8
5
  6
CONTINUOUS
 10
254.4755
 20
1599.481
 30
0.0
 11
220.607
 21
1564.581
 31
0.0
  0
LINE
  5
191
  8
5
  6
CONTINUOUS
 10
266.607
 20
1615.581
 30
0.0
 11
266.6071
 21
1564.581
 31
0.0
  0
LINE
  5
192
  8
5
  6
CONTINUOUS
 10
489.6071
 20
1564.581
 30
0.0
 11
266.6071
 21
1564.581
 31
0.0
  0
LINE
  5
193
  8
5
  6
CONTINUOUS
 10
489.6071
 20
1564.581
 30
0.0
 11
489.6105
 21
1615.577
 31
0.0
  0
LINE
  5
194
  8
5
  6
CONTINUOUS
 10
366.4329
 20
1615.581
 30
0.0
 11
366.4329
 21
1619.781
 31
0.0
  0
LINE
  5
195
  8
5
  6
CONTINUOUS
 10
394.2284
 20
1615.581
 30
0.0
 11
394.2284
 21
1619.781
 31
0.0
  0
LINE
  5
196
  8
5
  6
CONTINUOUS
 10
167.1084
 20
1034.588
 30
0.0
 11
183.5841
 21
1062.008
 31
0.0
  0
LINE
  5
197
  8
5
  6
CONTINUOUS
 10
382.3251
 20
1615.581
 30
0.0
 11
382.3251
 21
1619.781
 31
0.0
  0
LINE
  5
198
  8
5
  6
CONTINUOUS
 10
231.6071
 20
1496.781
 30
0.0
 11
527.6071
 21
1496.781
 31
0.0
  0
LINE
  5
199
  8
5
  6
CONTINUOUS
 10
1213.096
 20
209.799
 30
0.0
 11
1213.096
 21
276.1674
 31
0.0
  0
LINE
  5
19A
  8
5
  6
CONTINUOUS
 10
986.0959
 20
276.1674
 30
0.0
 11
986.0959
 21
209.799
 31
0.0
  0
LINE
  5
19B
  8
5
  6
CONTINUOUS
 10
986.0959
 20
238.799
 30
0.0
 11
940.0959
 21
238.799
 31
0.0
  0
LINE
  5
19C
  8
5
  6
CONTINUOUS
 10
1259.096
 20
238.799
 30
0.0
 11
1213.096
 21
238.799
 31
0.0
  0
LINE
  5
19D
  8
5
  6
CONTINUOUS
 10
986.0959
 20
209.799
 30
0.0
 11
1213.096
 21
209.799
 31
0.0
  0
LINE
  5
19E
  8
5
  6
CONTINUOUS
 10
1213.596
 20
208.799
 30
0.0
 11
1213.596
 21
238.799
 31
0.0
  0
LINE
  5
19F
  8
5
  6
CONTINUOUS
 10
985.5959
 20
238.799
 30
0.0
 11
985.5959
 21
208.799
 31
0.0
  0
LINE
  5
1A0
  8
5
  6
CONTINUOUS
 10
940.0959
 20
238.799
 30
0.0
 11
940.0959
 21
288.299
 31
0.0
  0
LINE
  5
1A1
  8
5
  6
CONTINUOUS
 10
940.0959
 20
288.299
 30
0.0
 11
940.0959
 21
511.299
 31
0.0
  0
LINE
  5
1A2
  8
5
  6
CONTINUOUS
 10
940.0959
 20
511.299
 30
0.0
 11
940.0959
 21
560.799
 31
0.0
  0
LINE
  5
1A3
  8
5
  6
CONTINUOUS
 10
940.0959
 20
560.799
 30
0.0
 11
989.5959
 21
560.799
 31
0.0
  0
LINE
  5
1A4
  8
5
  6
CONTINUOUS
 10
989.5959
 20
560.799
 30
0.0
 11
1209.596
 21
560.799
 31
0.0
  0
LINE
  5
1A5
  8
5
  6
CONTINUOUS
 10
1209.596
 20
560.799
 30
0.0
 11
1259.096
 21
560.799
 31
0.0
  0
LINE
  5
1A6
  8
5
  6
CONTINUOUS
 10
1259.096
 20
288.299
 30
0.0
 11
1259.096
 21
238.799
 31
0.0
  0
LINE
  5
1A7
  8
5
  6
CONTINUOUS
 10
1259.096
 20
560.799
 30
0.0
 11
1259.096
 21
511.299
 31
0.0
  0
LINE
  5
1A8
  8
5
  6
CONTINUOUS
 10
1259.096
 20
511.299
 30
0.0
 11
1259.096
 21
288.299
 31
0.0
  0
LINE
  5
1A9
  8
5
  6
CONTINUOUS
 10
1155.136
 20
373.2957
 30
0.0
 11
1155.135
 21
399.3619
 31
0.0
  0
LINE
  5
1AA
  8
5
  6
CONTINUOUS
 10
1141.357
 20
373.2952
 30
0.0
 11
1155.136
 21
373.2957
 31
0.0
  0
LINE
  5
1AB
  8
5
  6
CONTINUOUS
 10
1141.356
 20
399.3615
 30
0.0
 11
1141.357
 21
373.2952
 31
0.0
  0
LINE
  5
1AC
  8
5
  6
CONTINUOUS
 10
1141.356
 20
399.3615
 30
0.0
 11
1155.135
 21
399.3619
 31
0.0
  0
LINE
  5
1AD
  8
5
  6
CONTINUOUS
 10
260.3549
 20
988.2809
 30
0.0
 11
264.9071
 21
983.7809
 31
0.0
  0
LINE
  5
1AE
  8
5
  6
CONTINUOUS
 10
494.3071
 20
983.7809
 30
0.0
 11
498.8593
 21
988.2809
 31
0.0
  0
LINE
  5
1AF
  8
5
  6
CONTINUOUS
 10
592.1058
 20
1034.588
 30
0.0
 11
575.6301
 21
1062.008
 31
0.0
  0
LINE
  5
1B0
  8
5
  6
CONTINUOUS
 10
592.1058
 20
1034.588
 30
0.0
 11
600.578
 21
1020.488
 31
0.0
  0
LINE
  5
1B1
  8
5
  6
CONTINUOUS
 10
214.2186
 20
1031.373
 30
0.0
 11
189.1862
 21
1012.51
 31
0.0
  0
LINE
  5
1B2
  8
5
  6
CONTINUOUS
 10
189.1862
 20
1012.51
 30
0.0
 11
176.3139
 21
1002.81
 31
0.0
  0
LINE
  5
1B3
  8
5
  6
CONTINUOUS
 10
176.3139
 20
1002.81
 30
0.0
 11
158.6362
 21
1020.488
 31
0.0
  0
LINE
  5
1B4
  8
5
  6
CONTINUOUS
 10
200.5084
 20
1021.042
 30
0.0
 11
200.5084
 21
1021.042
 31
0.0
  0
ARC
  5
1B5
  8
5
  6
CONTINUOUS
 10
148.6372
 20
1319.452
 30
0.0
 40
9.25
 50
167.4823
 51
192.5177
  0
ARC
  5
1B6
  8
5
  6
CONTINUOUS
 10
148.6372
 20
1128.11
 30
0.0
 40
9.25
 50
167.4823
 51
192.5177
  0
ARC
  5
1B7
  8
5
  6
CONTINUOUS
 10
283.9362
 20
992.811
 30
0.0
 40
9.25
 50
257.4822
 51
282.5178
  0
ARC
  5
1B8
  8
5
  6
CONTINUOUS
 10
475.2779
 20
992.811
 30
0.0
 40
9.25
 50
257.4822
 51
282.5178
  0
ARC
  5
1B9
  8
5
  6
CONTINUOUS
 10
610.577
 20
1128.11
 30
0.0
 40
9.25
 50
347.4822
 51
12.5178
  0
ARC
  5
1BA
  8
5
  6
CONTINUOUS
 10
610.577
 20
1319.452
 30
0.0
 40
9.25
 50
347.4822
 51
12.5178
  0
LINE
  5
1BB
  8
5
  6
CONTINUOUS
 10
128.6071
 20
1117.281
 30
0.0
 11
128.6071
 21
1114.281
 31
0.0
  0
ARC
  5
1BC
  8
5
  6
CONTINUOUS
 10
379.6071
 20
1223.781
 30
0.0
 40
275.0
 50
115.9179
 51
131.6479
  0
ARC
  5
1BD
  8
5
  6
CONTINUOUS
 10
379.6071
 20
1223.781
 30
0.0
 40
275.0
 50
138.9399
 51
221.0601
  0
ARC
  5
1BE
  8
5
  6
CONTINUOUS
 10
379.6071
 20
1223.781
 30
0.0
 40
275.0
 50
228.3521
 51
311.6479
  0
ARC
  5
1BF
  8
5
  6
CONTINUOUS
 10
379.6071
 20
1223.781
 30
0.0
 40
275.0
 50
318.9399
 51
41.0601
  0
ARC
  5
1C0
  8
5
  6
CONTINUOUS
 10
379.6071
 20
1223.781
 30
0.0
 40
275.0
 50
48.35208
 51
64.08214
  0
LINE
  5
1C1
  8
5
  6
CONTINUOUS
 10
283.2071
 20
983.7809
 30
0.0
 11
264.9071
 21
983.7809
 31
0.0
  0
LINE
  5
1C2
  8
5
  6
CONTINUOUS
 10
476.0071
 20
983.7809
 30
0.0
 11
459.0071
 21
983.7809
 31
0.0
  0
LINE
  5
1C3
  8
5
  6
CONTINUOUS
 10
444.0071
 20
983.7809
 30
0.0
 11
429.0071
 21
983.7809
 31
0.0
  0
LINE
  5
1C4
  8
5
  6
CONTINUOUS
 10
414.1071
 20
983.7809
 30
0.0
 11
396.9071
 21
983.7809
 31
0.0
  0
LINE
  5
1C5
  8
5
  6
CONTINUOUS
 10
315.2071
 20
983.7809
 30
0.0
 11
300.2071
 21
983.7809
 31
0.0
  0
LINE
  5
1C6
  8
5
  6
CONTINUOUS
 10
345.1071
 20
983.7809
 30
0.0
 11
330.2071
 21
983.7809
 31
0.0
  0
LINE
  5
1C7
  8
5
  6
CONTINUOUS
 10
379.6071
 20
983.7809
 30
0.0
 11
362.3071
 21
983.7809
 31
0.0
  0
LINE
  5
1C8
  8
5
  6
CONTINUOUS
 10
300.2071
 20
983.7809
 30
0.0
 11
283.2071
 21
983.7809
 31
0.0
  0
LINE
  5
1C9
  8
5
  6
CONTINUOUS
 10
494.3071
 20
983.7809
 30
0.0
 11
476.0071
 21
983.7809
 31
0.0
  0
LINE
  5
1CA
  8
5
  6
CONTINUOUS
 10
459.0071
 20
983.7809
 30
0.0
 11
444.0071
 21
983.7809
 31
0.0
  0
LINE
  5
1CB
  8
5
  6
CONTINUOUS
 10
429.0071
 20
983.7809
 30
0.0
 11
414.1071
 21
983.7809
 31
0.0
  0
LINE
  5
1CC
  8
5
  6
CONTINUOUS
 10
396.9071
 20
983.7809
 30
0.0
 11
379.6071
 21
983.7809
 31
0.0
  0
LINE
  5
1CD
  8
5
  6
CONTINUOUS
 10
330.2071
 20
983.7809
 30
0.0
 11
315.2071
 21
983.7809
 31
0.0
  0
LINE
  5
1CE
  8
5
  6
CONTINUOUS
 10
362.3071
 20
983.7809
 30
0.0
 11
345.1071
 21
983.7809
 31
0.0
  0
LINE
  5
1CF
  8
5
  6
CONTINUOUS
 10
558.7058
 20
1021.042
 30
0.0
 11
558.7058
 21
1021.042
 31
0.0
  0
LINE
  5
1D0
  8
5
  6
CONTINUOUS
 10
600.578
 20
1020.488
 30
0.0
 11
582.9003
 21
1002.81
 31
0.0
  0
LINE
  5
1D1
  8
5
  6
CONTINUOUS
 10
582.9003
 20
1002.81
 30
0.0
 11
570.028
 21
1012.51
 31
0.0
  0
LINE
  5
1D2
  8
5
  6
CONTINUOUS
 10
544.9955
 20
1031.373
 30
0.0
 11
570.028
 21
1012.51
 31
0.0
  0
LINE
  5
1D3
  8
5
  6
CONTINUOUS
 10
167.1084
 20
1034.588
 30
0.0
 11
189.1862
 21
1012.51
 31
0.0
  0
LINE
  5
1D4
  8
5
  6
CONTINUOUS
 10
362.3072
 20
988.2809
 30
0.0
 11
362.3072
 21
983.7809
 31
0.0
  0
LINE
  5
1D5
  8
5
  6
CONTINUOUS
 10
379.6071
 20
983.7809
 30
0.0
 11
379.6071
 21
988.2809
 31
0.0
  0
LINE
  5
1D6
  8
5
  6
CONTINUOUS
 10
1171.812
 20
399.3626
 30
0.0
 11
1157.235
 21
399.3619
 31
0.0
  0
ARC
  5
1D7
  8
5
  6
CONTINUOUS
 10
1160.052
 20
387.3184
 30
0.0
 40
16.83332
 50
2.745839
 51
45.68349
  0
LINE
  5
1D8
  8
5
  6
CONTINUOUS
 10
330.2071
 20
988.2809
 30
0.0
 11
330.2071
 21
983.7809
 31
0.0
  0
LINE
  5
1D9
  8
5
  6
CONTINUOUS
 10
345.1071
 20
983.7809
 30
0.0
 11
345.1071
 21
988.2809
 31
0.0
  0
LINE
  5
1DA
  8
5
  6
CONTINUOUS
 10
300.2071
 20
988.2809
 30
0.0
 11
300.2071
 21
983.7809
 31
0.0
  0
LINE
  5
1DB
  8
5
  6
CONTINUOUS
 10
315.2071
 20
983.7809
 30
0.0
 11
315.2071
 21
988.2809
 31
0.0
  0
LINE
  5
1DC
  8
5
  6
CONTINUOUS
 10
396.9072
 20
988.2809
 30
0.0
 11
396.9072
 21
983.7809
 31
0.0
  0
LINE
  5
1DD
  8
5
  6
CONTINUOUS
 10
414.1071
 20
983.7809
 30
0.0
 11
414.1071
 21
988.2809
 31
0.0
  0
LINE
  5
1DE
  8
5
  6
CONTINUOUS
 10
429.0071
 20
988.2809
 30
0.0
 11
429.0071
 21
983.7809
 31
0.0
  0
LINE
  5
1DF
  8
5
  6
CONTINUOUS
 10
444.0071
 20
983.7809
 30
0.0
 11
444.0071
 21
988.2809
 31
0.0
  0
LINE
  5
1E0
  8
5
  6
CONTINUOUS
 10
459.0071
 20
988.2809
 30
0.0
 11
459.0071
 21
983.7809
 31
0.0
  0
LINE
  5
1E1
  8
5
  6
CONTINUOUS
 10
476.007
 20
983.7809
 30
0.0
 11
476.007
 21
988.2809
 31
0.0
  0
LINE
  5
1E2
  8
5
  6
CONTINUOUS
 10
264.9071
 20
988.2809
 30
0.0
 11
264.9071
 21
983.7809
 31
0.0
  0
LINE
  5
1E3
  8
5
  6
CONTINUOUS
 10
283.2071
 20
983.7809
 30
0.0
 11
283.2071
 21
988.2809
 31
0.0
  0
LINE
  5
1E4
  8
5
  6
CONTINUOUS
 10
494.3071
 20
988.2809
 30
0.0
 11
494.3071
 21
983.7809
 31
0.0
  0
LINE
  5
1E5
  8
5
  6
CONTINUOUS
 10
570.028
 20
1012.51
 30
0.0
 11
592.1058
 21
1034.588
 31
0.0
  0
LINE
  5
1E6
  8
5
  6
CONTINUOUS
 10
128.6071
 20
1114.281
 30
0.0
 11
139.6071
 21
1114.281
 31
0.0
  0
LINE
  5
1E7
  8
5
  6
CONTINUOUS
 10
139.6071
 20
1117.281
 30
0.0
 11
128.6071
 21
1117.281
 31
0.0
  0
LINE
  5
1E8
  8
5
  6
CONTINUOUS
 10
954.0959
 20
620.299
 30
0.0
 11
954.0959
 21
560.7991
 31
0.0
  0
LINE
  5
1E9
  8
5
  6
CONTINUOUS
 10
954.0959
 20
238.799
 30
0.0
 11
954.0959
 21
182.299
 31
0.0
  0
LINE
  5
1EA
  8
5
  6
CONTINUOUS
 10
896.5959
 20
401.299
 30
0.0
 11
896.5959
 21
126.299
 31
0.0
  0
ARC
  5
1EB
  8
5
  6
CONTINUOUS
 10
1162.037
 20
388.1243
 30
0.0
 40
14.82849
 50
270.0019
 51
0.0019
  0
LINE
  5
1EC
  8
5
  6
CONTINUOUS
 10
1157.236
 20
373.2957
 30
0.0
 11
1162.038
 21
373.2959
 31
0.0
  0
LINE
  5
1ED
  8
5
  6
CONTINUOUS
 10
1157.235
 20
399.3619
 30
0.0
 11
1157.236
 21
373.2957
 31
0.0
  0
LINE
  5
1EE
  8
5
  6
CONTINUOUS
 10
1157.234
 20
426.3593
 30
0.0
 11
1157.235
 21
401.4619
 31
0.0
  0
LINE
  5
1EF
  8
5
  6
CONTINUOUS
 10
1162.036
 20
426.3594
 30
0.0
 11
1157.234
 21
426.3593
 31
0.0
  0
ARC
  5
1F0
  8
5
  6
CONTINUOUS
 10
1162.036
 20
415.9199
 30
0.0
 40
10.43949
 50
0.001947
 51
90.00195
  0
ARC
  5
1F1
  8
5
  6
CONTINUOUS
 10
1159.005
 20
417.1682
 30
0.0
 40
13.5281
 50
283.5581
 51
354.7072
  0
ARC
  5
1F2
  8
5
  6
CONTINUOUS
 10
1160.052
 20
387.3184
 30
0.0
 40
16.83332
 50
57.16491
 51
82.74766
  0
LINE
  5
1F3
  8
5
  6
CONTINUOUS
 10
896.5959
 20
676.299
 30
0.0
 11
896.5959
 21
401.299
 31
0.0
  0
LINE
  5
1F4
  8
5
  6
CONTINUOUS
 10
1157.235
 20
401.4619
 30
0.0
 11
1169.179
 21
401.4624
 31
0.0
  0
LINE
  5
1F5
  8
5
  6
CONTINUOUS
 10
1141.356
 20
426.3587
 30
0.0
 11
1141.356
 21
401.4615
 31
0.0
  0
LINE
  5
1F6
  8
5
  6
CONTINUOUS
 10
1155.134
 20
426.3592
 30
0.0
 11
1141.356
 21
426.3587
 31
0.0
  0
LINE
  5
1F7
  8
5
  6
CONTINUOUS
 10
1155.135
 20
401.4619
 30
0.0
 11
1155.134
 21
426.3592
 31
0.0
  0
LINE
  5
1F8
  8
5
  6
CONTINUOUS
 10
1141.356
 20
401.4615
 30
0.0
 11
1155.135
 21
401.4619
 31
0.0
  0
LINE
  5
1F9
  8
5
  6
CONTINUOUS
 10
1111.589
 20
426.3578
 30
0.0
 11
1111.589
 21
401.4604
 31
0.0
  0
LINE
  5
1FA
  8
5
  6
CONTINUOUS
 10
1116.39
 20
426.3579
 30
0.0
 11
1111.589
 21
426.3578
 31
0.0
  0
ARC
  5
1FB
  8
5
  6
CONTINUOUS
 10
1116.391
 20
415.9184
 30
0.0
 40
10.43949
 50
0.001947
 51
90.00195
  0
ARC
  5
1FC
  8
5
  6
CONTINUOUS
 10
1113.36
 20
417.1666
 30
0.0
 40
13.5281
 50
283.5581
 51
354.7072
  0
ARC
  5
1FD
  8
5
  6
CONTINUOUS
 10
1114.406
 20
387.3169
 30
0.0
 40
16.83332
 50
57.16493
 51
82.74766
  0
LINE
  5
1FE
  8
5
  6
CONTINUOUS
 10
1111.589
 20
401.4604
 30
0.0
 11
1123.534
 21
401.4608
 31
0.0
  0
ARC
  5
1FF
  8
5
  6
CONTINUOUS
 10
1114.406
 20
387.3169
 30
0.0
 40
16.83332
 50
2.745839
 51
45.68318
  0
ARC
  5
200
  8
5
  6
CONTINUOUS
 10
1116.392
 20
388.1228
 30
0.0
 40
14.82849
 50
270.0019
 51
0.0019
  0
LINE
  5
201
  8
5
  6
CONTINUOUS
 10
1111.59
 20
373.2941
 30
0.0
 11
1116.392
 21
373.2943
 31
0.0
  0
LINE
  5
202
  8
5
  6
CONTINUOUS
 10
1111.589
 20
399.3604
 30
0.0
 11
1111.59
 21
373.2941
 31
0.0
  0
LINE
  5
203
  8
5
  6
CONTINUOUS
 10
878.5959
 20
401.299
 30
0.0
 11
878.5959
 21
126.299
 31
0.0
  0
LINE
  5
204
  8
5
  6
CONTINUOUS
 10
878.5959
 20
676.299
 30
0.0
 11
878.5959
 21
401.299
 31
0.0
  0
LINE
  5
205
  8
5
  6
CONTINUOUS
 10
902.5959
 20
150.299
 30
0.0
 11
904.0959
 21
150.299
 31
0.0
  0
LINE
  5
206
  8
5
  6
CONTINUOUS
 10
1126.166
 20
399.3609
 30
0.0
 11
1111.589
 21
399.3604
 31
0.0
  0
LINE
  5
207
  8
5
  6
CONTINUOUS
 10
1109.49
 20
373.2941
 30
0.0
 11
1109.489
 21
399.3604
 31
0.0
  0
LINE
  5
208
  8
5
  6
CONTINUOUS
 10
901.0959
 20
150.299
 30
0.0
 11
902.5959
 21
150.299
 31
0.0
  0
LINE
  5
209
  8
5
  6
CONTINUOUS
 10
873.5959
 20
401.299
 30
0.0
 11
873.5959
 21
176.299
 31
0.0
  0
LINE
  5
20A
  8
5
  6
CONTINUOUS
 10
873.5959
 20
626.299
 30
0.0
 11
873.5959
 21
401.299
 31
0.0
  0
LINE
  5
20B
  8
5
  6
CONTINUOUS
 10
1095.712
 20
373.2937
 30
0.0
 11
1109.49
 21
373.2941
 31
0.0
  0
LINE
  5
20C
  8
5
  6
CONTINUOUS
 10
1095.711
 20
399.3599
 30
0.0
 11
1095.712
 21
373.2937
 31
0.0
  0
LINE
  5
20D
  8
5
  6
CONTINUOUS
 10
1109.489
 20
399.3604
 30
0.0
 11
1095.711
 21
399.3599
 31
0.0
  0
LINE
  5
20E
  8
5
  6
CONTINUOUS
 10
1109.489
 20
401.4604
 30
0.0
 11
1109.489
 21
426.3576
 31
0.0
  0
LINE
  5
20F
  8
5
  6
CONTINUOUS
 10
1095.711
 20
401.4599
 30
0.0
 11
1109.489
 21
401.4604
 31
0.0
  0
LINE
  5
210
  8
5
  6
CONTINUOUS
 10
1095.71
 20
426.3572
 30
0.0
 11
1095.711
 21
401.4599
 31
0.0
  0
LINE
  5
211
  8
5
  6
CONTINUOUS
 10
1109.489
 20
426.3576
 30
0.0
 11
1095.71
 21
426.3572
 31
0.0
  0
LINE
  5
212
  8
5
  6
CONTINUOUS
 10
1085.424
 20
373.2933
 30
0.0
 11
1076.119
 21
399.3593
 31
0.0
  0
LINE
  5
213
  8
5
  6
CONTINUOUS
 10
1075.924
 20
373.2929
 30
0.0
 11
1085.424
 21
373.2933
 31
0.0
  0
LINE
  5
214
  8
5
  6
CONTINUOUS
 10
544.9955
 20
1416.189
 30
0.0
 11
570.028
 21
1435.052
 31
0.0
  0
LINE
  5
215
  8
5
  6
CONTINUOUS
 10
570.028
 20
1435.052
 30
0.0
 11
582.9003
 21
1444.752
 31
0.0
  0
LINE
  5
216
  8
5
  6
CONTINUOUS
 10
600.578
 20
1427.074
 30
0.0
 11
592.1058
 21
1412.974
 31
0.0
  0
LINE
  5
217
  8
5
  6
CONTINUOUS
 10
592.1058
 20
1412.974
 30
0.0
 11
575.6301
 21
1385.554
 31
0.0
  0
LINE
  5
218
  8
5
  6
CONTINUOUS
 10
582.9003
 20
1444.752
 30
0.0
 11
600.578
 21
1427.074
 31
0.0
  0
LINE
  5
219
  8
5
  6
CONTINUOUS
 10
498.9462
 20
1459.281
 30
0.0
 11
494.4071
 21
1463.781
 31
0.0
  0
LINE
  5
21A
  8
5
  6
CONTINUOUS
 10
264.7071
 20
1463.682
 30
0.0
 11
260.2679
 21
1459.281
 31
0.0
  0
LINE
  5
21B
  8
5
  6
CONTINUOUS
 10
264.8071
 20
1463.781
 30
0.0
 11
264.7071
 21
1463.682
 31
0.0
  0
LINE
  5
21C
  8
5
  6
CONTINUOUS
 10
475.9071
 20
1463.781
 30
0.0
 11
494.2071
 21
1463.781
 31
0.0
  0
LINE
  5
21D
  8
5
  6
CONTINUOUS
 10
443.9071
 20
1463.781
 30
0.0
 11
458.9071
 21
1463.781
 31
0.0
  0
LINE
  5
21E
  8
5
  6
CONTINUOUS
 10
414.0071
 20
1463.781
 30
0.0
 11
428.9071
 21
1463.781
 31
0.0
  0
LINE
  5
21F
  8
5
  6
CONTINUOUS
 10
379.5071
 20
1463.781
 30
0.0
 11
396.8071
 21
1463.781
 31
0.0
  0
LINE
  5
220
  8
5
  6
CONTINUOUS
 10
345.0071
 20
1463.781
 30
0.0
 11
362.2071
 21
1463.781
 31
0.0
  0
LINE
  5
221
  8
5
  6
CONTINUOUS
 10
315.1071
 20
1463.781
 30
0.0
 11
330.1071
 21
1463.781
 31
0.0
  0
LINE
  5
222
  8
5
  6
CONTINUOUS
 10
283.1071
 20
1463.781
 30
0.0
 11
300.1071
 21
1463.781
 31
0.0
  0
LINE
  5
223
  8
5
  6
CONTINUOUS
 10
494.2071
 20
1463.781
 30
0.0
 11
494.4071
 21
1463.781
 31
0.0
  0
LINE
  5
224
  8
5
  6
CONTINUOUS
 10
458.9071
 20
1463.781
 30
0.0
 11
475.9071
 21
1463.781
 31
0.0
  0
LINE
  5
225
  8
5
  6
CONTINUOUS
 10
428.9071
 20
1463.781
 30
0.0
 11
443.9071
 21
1463.781
 31
0.0
  0
LINE
  5
226
  8
5
  6
CONTINUOUS
 10
396.8071
 20
1463.781
 30
0.0
 11
414.0071
 21
1463.781
 31
0.0
  0
LINE
  5
227
  8
5
  6
CONTINUOUS
 10
362.2071
 20
1463.781
 30
0.0
 11
379.5071
 21
1463.781
 31
0.0
  0
LINE
  5
228
  8
5
  6
CONTINUOUS
 10
330.1071
 20
1463.781
 30
0.0
 11
345.0071
 21
1463.781
 31
0.0
  0
LINE
  5
229
  8
5
  6
CONTINUOUS
 10
300.1071
 20
1463.781
 30
0.0
 11
315.1071
 21
1463.781
 31
0.0
  0
LINE
  5
22A
  8
5
  6
CONTINUOUS
 10
264.8071
 20
1463.781
 30
0.0
 11
283.1071
 21
1463.781
 31
0.0
  0
LINE
  5
22B
  8
5
  6
CONTINUOUS
 10
615.1071
 20
1104.529
 30
0.0
 11
619.6071
 21
1109.081
 31
0.0
  0
LINE
  5
22C
  8
5
  6
CONTINUOUS
 10
619.6071
 20
1338.481
 30
0.0
 11
615.1071
 21
1343.033
 31
0.0
  0
LINE
  5
22D
  8
5
  6
CONTINUOUS
 10
139.6071
 20
1108.681
 30
0.0
 11
144.1071
 21
1104.233
 31
0.0
  0
LINE
  5
22E
  8
5
  6
CONTINUOUS
 10
144.1071
 20
1343.033
 30
0.0
 11
139.6071
 21
1338.481
 31
0.0
  0
LINE
  5
22F
  8
5
  6
CONTINUOUS
 10
619.6071
 20
1223.781
 30
0.0
 11
619.6071
 21
1206.481
 31
0.0
  0
LINE
  5
230
  8
5
  6
CONTINUOUS
 10
1072.084
 20
384.0501
 30
0.0
 11
1075.924
 21
373.2929
 31
0.0
  0
LINE
  5
231
  8
5
  6
CONTINUOUS
 10
954.0959
 20
619.8102
 30
0.0
 11
896.596
 21
617.8023
 31
0.0
  0
LINE
  5
232
  8
5
  6
CONTINUOUS
 10
896.596
 20
184.7959
 30
0.0
 11
954.0959
 21
182.7879
 31
0.0
  0
LINE
  5
233
  8
5
  6
CONTINUOUS
 10
901.0959
 20
184.6387
 30
0.0
 11
901.0959
 21
150.2991
 31
0.0
  0
LINE
  5
234
  8
5
  6
CONTINUOUS
 10
904.0958
 20
150.2991
 30
0.0
 11
904.0959
 21
184.5339
 31
0.0
  0
LINE
  5
235
  8
5
  6
CONTINUOUS
 10
619.6071
 20
1258.281
 30
0.0
 11
619.6071
 21
1241.081
 31
0.0
  0
LINE
  5
236
  8
5
  6
CONTINUOUS
 10
873.5959
 20
176.299
 30
0.0
 11
878.5959
 21
176.299
 31
0.0
  0
LINE
  5
237
  8
5
  6
CONTINUOUS
 10
878.5959
 20
626.2989
 30
0.0
 11
873.5959
 21
626.299
 31
0.0
  0
LINE
  5
238
  8
5
  6
CONTINUOUS
 10
619.6071
 20
1288.181
 30
0.0
 11
619.6071
 21
1273.281
 31
0.0
  0
LINE
  5
239
  8
5
  6
CONTINUOUS
 10
878.5959
 20
126.2989
 30
0.0
 11
896.596
 21
126.2989
 31
0.0
  0
LINE
  5
23A
  8
5
  6
CONTINUOUS
 10
619.6071
 20
1320.181
 30
0.0
 11
619.6071
 21
1303.181
 31
0.0
  0
LINE
  5
23B
  8
5
  6
CONTINUOUS
 10
619.6071
 20
1189.281
 30
0.0
 11
619.6071
 21
1174.381
 31
0.0
  0
LINE
  5
23C
  8
5
  6
CONTINUOUS
 10
896.5959
 20
676.299
 30
0.0
 11
878.5959
 21
676.299
 31
0.0
  0
LINE
  5
23D
  8
5
  6
CONTINUOUS
 10
619.6071
 20
1159.381
 30
0.0
 11
619.6071
 21
1144.381
 31
0.0
  0
LINE
  5
23E
  8
5
  6
CONTINUOUS
 10
619.6071
 20
1127.381
 30
0.0
 11
619.6071
 21
1109.081
 31
0.0
  0
LINE
  5
23F
  8
5
  6
CONTINUOUS
 10
619.6071
 20
1206.481
 30
0.0
 11
619.6071
 21
1189.281
 31
0.0
  0
LINE
  5
240
  8
5
  6
CONTINUOUS
 10
619.6071
 20
1241.081
 30
0.0
 11
619.6071
 21
1223.781
 31
0.0
  0
LINE
  5
241
  8
5
  6
CONTINUOUS
 10
619.6071
 20
1273.281
 30
0.0
 11
619.6071
 21
1258.281
 31
0.0
  0
LINE
  5
242
  8
5
  6
CONTINUOUS
 10
619.6071
 20
1303.181
 30
0.0
 11
619.6071
 21
1288.181
 31
0.0
  0
LINE
  5
243
  8
5
  6
CONTINUOUS
 10
619.6071
 20
1338.481
 30
0.0
 11
619.6071
 21
1320.181
 31
0.0
  0
LINE
  5
244
  8
5
  6
CONTINUOUS
 10
619.6071
 20
1174.381
 30
0.0
 11
619.6071
 21
1159.381
 31
0.0
  0
LINE
  5
245
  8
5
  6
CONTINUOUS
 10
619.6071
 20
1144.381
 30
0.0
 11
619.6071
 21
1127.381
 31
0.0
  0
LINE
  5
246
  8
5
  6
CONTINUOUS
 10
139.6071
 20
1109.081
 30
0.0
 11
139.6071
 21
1127.381
 31
0.0
  0
LINE
  5
247
  8
5
  6
CONTINUOUS
 10
139.6071
 20
1144.381
 30
0.0
 11
139.6071
 21
1159.381
 31
0.0
  0
LINE
  5
248
  8
5
  6
CONTINUOUS
 10
139.6071
 20
1174.381
 30
0.0
 11
139.6071
 21
1189.281
 31
0.0
  0
LINE
  5
249
  8
5
  6
CONTINUOUS
 10
139.6071
 20
1303.181
 30
0.0
 11
139.6071
 21
1320.181
 31
0.0
  0
LINE
  5
24A
  8
5
  6
CONTINUOUS
 10
139.6071
 20
1273.281
 30
0.0
 11
139.6071
 21
1288.181
 31
0.0
  0
LINE
  5
24B
  8
5
  6
CONTINUOUS
 10
139.6071
 20
1241.081
 30
0.0
 11
139.6071
 21
1258.281
 31
0.0
  0
LINE
  5
24C
  8
5
  6
CONTINUOUS
 10
139.6071
 20
1206.481
 30
0.0
 11
139.6071
 21
1223.781
 31
0.0
  0
LINE
  5
24D
  8
5
  6
CONTINUOUS
 10
139.6071
 20
1127.381
 30
0.0
 11
139.6071
 21
1144.381
 31
0.0
  0
LINE
  5
24E
  8
5
  6
CONTINUOUS
 10
139.6071
 20
1108.681
 30
0.0
 11
139.6071
 21
1109.081
 31
0.0
  0
LINE
  5
24F
  8
5
  6
CONTINUOUS
 10
1060.69
 20
384.0498
 30
0.0
 11
1072.084
 21
384.0501
 31
0.0
  0
LINE
  5
250
  8
5
  6
CONTINUOUS
 10
1060.69
 20
399.3586
 30
0.0
 11
1060.69
 21
384.0498
 31
0.0
  0
LINE
  5
251
  8
5
  6
CONTINUOUS
 10
1411.596
 20
620.2991
 30
0.0
 11
1406.786
 21
620.299
 31
0.0
  0
LINE
  5
252
  8
5
  6
CONTINUOUS
 10
965.4057
 20
620.299
 30
0.0
 11
954.0959
 21
620.2991
 31
0.0
  0
LINE
  5
253
  8
5
  6
CONTINUOUS
 10
954.0959
 20
182.2991
 30
0.0
 11
965.4058
 21
182.2991
 31
0.0
  0
LINE
  5
254
  8
5
  6
CONTINUOUS
 10
1076.119
 20
399.3593
 30
0.0
 11
1060.69
 21
399.3586
 31
0.0
  0
LINE
  5
255
  8
5
  6
CONTINUOUS
 10
2305.761
 20
1034.588
 30
0.0
 11
2300.618
 21
1043.147
 31
0.0
  0
LINE
  5
256
  8
5
  6
CONTINUOUS
 10
2305.761
 20
1034.588
 30
0.0
 11
2314.233
 21
1020.488
 31
0.0
  0
LINE
  5
257
  8
5
  6
CONTINUOUS
 10
1872.291
 20
1020.488
 30
0.0
 11
1880.763
 21
1034.588
 31
0.0
  0
LINE
  5
258
  8
5
  6
CONTINUOUS
 10
1880.763
 20
1034.588
 30
0.0
 11
1885.906
 21
1043.147
 31
0.0
  0
LINE
  5
259
  8
5
  6
CONTINUOUS
 10
2296.555
 20
1002.81
 30
0.0
 11
2283.683
 21
1012.51
 31
0.0
  0
LINE
  5
25A
  8
5
  6
CONTINUOUS
 10
2276.014
 20
1018.289
 30
0.0
 11
2283.683
 21
1012.51
 31
0.0
  0
LINE
  5
25B
  8
5
  6
CONTINUOUS
 10
2314.233
 20
1020.488
 30
0.0
 11
2296.555
 21
1002.81
 31
0.0
  0
CIRCLE
  5
25C
  8
5
  6
CONTINUOUS
 10
2324.232
 20
1319.452
 30
0.0
 40
9.25
  0
CIRCLE
  5
25D
  8
5
  6
CONTINUOUS
 10
2324.232
 20
1128.11
 30
0.0
 40
9.25
  0
CIRCLE
  5
25E
  8
5
  6
CONTINUOUS
 10
2188.933
 20
992.811
 30
0.0
 40
9.25
  0
CIRCLE
  5
25F
  8
5
  6
CONTINUOUS
 10
1997.591
 20
992.811
 30
0.0
 40
9.25
  0
CIRCLE
  5
260
  8
5
  6
CONTINUOUS
 10
1862.292
 20
1128.11
 30
0.0
 40
9.25
  0
CIRCLE
  5
261
  8
5
  6
CONTINUOUS
 10
1862.292
 20
1319.452
 30
0.0
 40
9.25
  0
CIRCLE
  5
262
  8
5
  6
CONTINUOUS
 10
1997.591
 20
1454.751
 30
0.0
 40
9.25
  0
CIRCLE
  5
263
  8
5
  6
CONTINUOUS
 10
2188.933
 20
1454.751
 30
0.0
 40
9.25
  0
LINE
  5
264
  8
5
  6
CONTINUOUS
 10
2124.262
 20
1117.281
 30
0.0
 11
2124.262
 21
1114.281
 31
0.0
  0
CIRCLE
  5
265
  8
5
  6
CONTINUOUS
 10
2093.262
 20
1223.781
 30
0.0
 40
225.0
  0
CIRCLE
  5
266
  8
5
  6
CONTINUOUS
 10
2093.262
 20
1223.781
 30
0.0
 40
275.0
  0
LINE
  5
267
  8
5
  6
CONTINUOUS
 10
2067.262
 20
1158.022
 30
0.0
 11
2067.262
 21
1130.281
 31
0.0
  0
LINE
  5
268
  8
5
  6
CONTINUOUS
 10
2119.262
 20
1158.022
 30
0.0
 11
2119.262
 21
1130.281
 31
0.0
  0
LINE
  5
269
  8
5
  6
CONTINUOUS
 10
2119.262
 20
1130.281
 30
0.0
 11
2067.262
 21
1130.281
 31
0.0
  0
LINE
  5
26A
  8
5
  6
CONTINUOUS
 10
1918.672
 20
1130.281
 30
0.0
 11
2067.262
 21
1130.281
 31
0.0
  0
LINE
  5
26B
  8
5
  6
CONTINUOUS
 10
139.6071
 20
1159.381
 30
0.0
 11
139.6071
 21
1174.381
 31
0.0
  0
LINE
  5
26C
  8
5
  6
CONTINUOUS
 10
139.6071
 20
1189.281
 30
0.0
 11
139.6071
 21
1206.481
 31
0.0
  0
LINE
  5
26D
  8
5
  6
CONTINUOUS
 10
139.6071
 20
1320.181
 30
0.0
 11
139.6071
 21
1338.481
 31
0.0
  0
LINE
  5
26E
  8
5
  6
CONTINUOUS
 10
139.6071
 20
1288.181
 30
0.0
 11
139.6071
 21
1303.181
 31
0.0
  0
LINE
  5
26F
  8
5
  6
CONTINUOUS
 10
139.6071
 20
1258.281
 30
0.0
 11
139.6071
 21
1273.281
 31
0.0
  0
LINE
  5
270
  8
5
  6
CONTINUOUS
 10
139.6071
 20
1223.781
 30
0.0
 11
139.6071
 21
1241.081
 31
0.0
  0
LINE
  5
271
  8
5
  6
CONTINUOUS
 10
2119.262
 20
1130.281
 30
0.0
 11
2267.852
 21
1130.281
 31
0.0
  0
LINE
  5
272
  8
5
  6
CONTINUOUS
 10
2074.262
 20
1108.281
 30
0.0
 11
2112.262
 21
1108.281
 31
0.0
  0
LINE
  5
273
  8
5
  6
CONTINUOUS
 10
2112.262
 20
1108.281
 30
0.0
 11
2129.262
 21
1108.281
 31
0.0
  0
LINE
  5
274
  8
5
  6
CONTINUOUS
 10
2163.262
 20
1108.281
 30
0.0
 11
2180.262
 21
1108.281
 31
0.0
  0
LINE
  5
275
  8
5
  6
CONTINUOUS
 10
2040.262
 20
1108.281
 30
0.0
 11
2057.262
 21
1108.281
 31
0.0
  0
LINE
  5
276
  8
5
  6
CONTINUOUS
 10
2006.262
 20
1108.281
 30
0.0
 11
2023.262
 21
1108.281
 31
0.0
  0
LINE
  5
277
  8
5
  6
CONTINUOUS
 10
2180.262
 20
1108.281
 30
0.0
 11
2254.146
 21
1108.281
 31
0.0
  0
LINE
  5
278
  8
5
  6
CONTINUOUS
 10
1932.378
 20
1108.281
 30
0.0
 11
2006.262
 21
1108.281
 31
0.0
  0
LINE
  5
279
  8
5
  6
CONTINUOUS
 10
2146.262
 20
1108.281
 30
0.0
 11
2163.262
 21
1108.281
 31
0.0
  0
LINE
  5
27A
  8
5
  6
CONTINUOUS
 10
2023.262
 20
1108.281
 30
0.0
 11
2040.262
 21
1108.281
 31
0.0
  0
LINE
  5
27B
  8
5
  6
CONTINUOUS
 10
2129.262
 20
1108.281
 30
0.0
 11
2146.262
 21
1108.281
 31
0.0
  0
LINE
  5
27C
  8
5
  6
CONTINUOUS
 10
2057.262
 20
1108.281
 30
0.0
 11
2074.262
 21
1108.281
 31
0.0
  0
LINE
  5
27D
  8
5
  6
CONTINUOUS
 10
2074.262
 20
1018.781
 30
0.0
 11
2074.262
 21
1026.644
 31
0.0
  0
LINE
  5
27E
  8
5
  6
CONTINUOUS
 10
2074.262
 20
1026.644
 30
0.0
 11
2074.262
 21
1108.281
 31
0.0
  0
LINE
  5
27F
  8
5
  6
CONTINUOUS
 10
258.996
 20
1459.281
 30
0.0
 11
259.4674
 21
1472.781
 31
0.0
  0
LINE
  5
280
  8
5
  6
CONTINUOUS
 10
2112.262
 20
1018.781
 30
0.0
 11
2093.262
 21
1018.782
 31
0.0
  0
LINE
  5
281
  8
5
  6
CONTINUOUS
 10
499.7468
 20
1472.781
 30
0.0
 11
500.2182
 21
1459.281
 31
0.0
  0
LINE
  5
282
  8
5
  6
CONTINUOUS
 10
2093.262
 20
1018.782
 30
0.0
 11
2074.262
 21
1018.781
 31
0.0
  0
LINE
  5
283
  8
5
  6
CONTINUOUS
 10
2112.262
 20
1026.644
 30
0.0
 11
2112.262
 21
1018.781
 31
0.0
  0
LINE
  5
284
  8
5
  6
CONTINUOUS
 10
2112.262
 20
1108.281
 30
0.0
 11
2112.262
 21
1026.644
 31
0.0
  0
LINE
  5
285
  8
5
  6
CONTINUOUS
 10
158.6362
 20
1427.074
 30
0.0
 11
176.3139
 21
1444.752
 31
0.0
  0
LINE
  5
286
  8
5
  6
CONTINUOUS
 10
1060.689
 20
426.356
 30
0.0
 11
1060.69
 21
401.4586
 31
0.0
  0
LINE
  5
287
  8
5
  6
CONTINUOUS
 10
1066.482
 20
426.3562
 30
0.0
 11
1060.689
 21
426.356
 31
0.0
  0
LINE
  5
288
  8
5
  6
CONTINUOUS
 10
1075.369
 20
401.4592
 30
0.0
 11
1066.482
 21
426.3562
 31
0.0
  0
LINE
  5
289
  8
5
  6
CONTINUOUS
 10
1060.69
 20
401.4586
 30
0.0
 11
1075.369
 21
401.4592
 31
0.0
  0
LINE
  5
28A
  8
5
  6
CONTINUOUS
 10
2102.262
 20
1257.781
 30
0.0
 11
2102.262
 21
1252.399
 31
0.0
  0
LINE
  5
28B
  8
5
  6
CONTINUOUS
 10
2084.262
 20
1257.781
 30
0.0
 11
2084.262
 21
1252.399
 31
0.0
  0
LINE
  5
290
  8
5
  6
CONTINUOUS
 10
1889.969
 20
1002.81
 30
0.0
 11
1872.291
 21
1020.488
 31
0.0
  0
LINE
  5
291
  8
5
  6
CONTINUOUS
 10
1910.51
 20
1018.289
 30
0.0
 11
1902.841
 21
1012.51
 31
0.0
  0
LINE
  5
292
  8
5
  6
CONTINUOUS
 10
1902.841
 20
1012.51
 30
0.0
 11
1889.969
 21
1002.81
 31
0.0
  0
LINE
  5
293
  8
5
  6
CONTINUOUS
 10
2283.683
 20
1012.51
 30
0.0
 11
2305.761
 21
1034.588
 31
0.0
  0
LINE
  5
294
  8
5
  6
CONTINUOUS
 10
1880.763
 20
1034.588
 30
0.0
 11
1902.841
 21
1012.51
 31
0.0
  0
LINE
  5
295
  8
5
  6
CONTINUOUS
 10
2124.262
 20
1114.281
 30
0.0
 11
2255.648
 21
1114.281
 31
0.0
  0
LINE
  5
296
  8
5
  6
CONTINUOUS
 10
2124.262
 20
1117.281
 30
0.0
 11
2257.631
 21
1117.281
 31
0.0
  0
ARC
  5
297
  8
5
  6
CONTINUOUS
 10
2093.262
 20
1223.781
 30
0.0
 40
76.16056
 50
51.37464
 51
128.6254
  0
LINE
  5
298
  8
5
  6
CONTINUOUS
 10
2045.721
 20
1283.281
 30
0.0
 11
1904.36
 21
1283.281
 31
0.0
  0
ARC
  5
299
  8
5
  6
CONTINUOUS
 10
2093.262
 20
1223.781
 30
0.0
 40
198.0506
 50
197.4833
 51
202.7223
  0
LINE
  5
29A
  8
5
  6
CONTINUOUS
 10
1899.825
 20
1266.281
 30
0.0
 11
2030.062
 21
1266.281
 31
0.0
  0
ARC
  5
29B
  8
5
  6
CONTINUOUS
 10
2093.262
 20
1223.781
 30
0.0
 40
76.16056
 50
128.6254
 51
146.0802
  0
LINE
  5
29C
  8
5
  6
CONTINUOUS
 10
2156.461
 20
1266.281
 30
0.0
 11
2286.699
 21
1266.281
 31
0.0
  0
ARC
  5
29D
  8
5
  6
CONTINUOUS
 10
2093.262
 20
1223.781
 30
0.0
 40
198.0506
 50
192.3916
 51
197.4833
  0
LINE
  5
29E
  8
5
  6
CONTINUOUS
 10
2282.163
 20
1283.281
 30
0.0
 11
2140.803
 21
1283.281
 31
0.0
  0
ARC
  5
29F
  8
5
  6
CONTINUOUS
 10
2093.262
 20
1223.781
 30
0.0
 40
76.16056
 50
146.0802
 51
160.4385
  0
LINE
  5
2A0
  8
5
  6
CONTINUOUS
 10
2021.497
 20
1249.281
 30
0.0
 11
1896.86
 21
1249.281
 31
0.0
  0
ARC
  5
2A1
  8
5
  6
CONTINUOUS
 10
2093.262
 20
1223.781
 30
0.0
 40
198.0506
 50
187.3977
 51
192.3916
  0
LINE
  5
2A2
  8
5
  6
CONTINUOUS
 10
1895.394
 20
1232.281
 30
0.0
 11
2017.577
 21
1232.281
 31
0.0
  0
LINE
  5
2A3
  8
5
  6
CONTINUOUS
 10
167.1084
 20
1412.974
 30
0.0
 11
183.5841
 21
1385.554
 31
0.0
  0
LINE
  5
2A4
  8
5
  6
CONTINUOUS
 10
167.1084
 20
1412.974
 30
0.0
 11
158.6362
 21
1427.074
 31
0.0
  0
LINE
  5
2A5
  8
5
  6
CONTINUOUS
 10
176.3139
 20
1444.752
 30
0.0
 11
189.1862
 21
1435.052
 31
0.0
  0
LINE
  5
2A6
  8
5
  6
CONTINUOUS
 10
214.2186
 20
1416.189
 30
0.0
 11
189.1862
 21
1435.052
 31
0.0
  0
CIRCLE
  5
2A7
  8
5
  6
CONTINUOUS
 10
379.6071
 20
1223.781
 30
0.0
 40
140.0
  0
LINE
  5
2A8
  8
5
  6
CONTINUOUS
 10
144.1071
 20
1101.485
 30
0.0
 11
257.3111
 21
988.2809
 31
0.0
  0
LINE
  5
2A9
  8
5
  6
CONTINUOUS
 10
257.3111
 20
988.2809
 30
0.0
 11
501.9031
 21
988.2809
 31
0.0
  0
LINE
  5
2AA
  8
5
  6
CONTINUOUS
 10
501.9031
 20
988.2809
 30
0.0
 11
615.1071
 21
1101.485
 31
0.0
  0
LINE
  5
2AB
  8
5
  6
CONTINUOUS
 10
615.1071
 20
1101.485
 30
0.0
 11
615.1071
 21
1346.077
 31
0.0
  0
LINE
  5
2AC
  8
5
  6
CONTINUOUS
 10
615.1071
 20
1346.077
 30
0.0
 11
501.9031
 21
1459.281
 31
0.0
  0
LINE
  5
2AD
  8
5
  6
CONTINUOUS
 10
501.9031
 20
1459.281
 30
0.0
 11
257.3111
 21
1459.281
 31
0.0
  0
LINE
  5
2AE
  8
5
  6
CONTINUOUS
 10
257.3111
 20
1459.281
 30
0.0
 11
144.1071
 21
1346.077
 31
0.0
  0
LINE
  5
2AF
  8
5
  6
CONTINUOUS
 10
144.1071
 20
1101.485
 30
0.0
 11
144.1071
 21
1346.077
 31
0.0
  0
LINE
  5
2B0
  8
5
  6
CONTINUOUS
 10
258.5538
 20
1456.281
 30
0.0
 11
147.1071
 21
1344.834
 31
0.0
  0
LINE
  5
2B1
  8
5
  6
CONTINUOUS
 10
500.6605
 20
1456.281
 30
0.0
 11
258.5538
 21
1456.281
 31
0.0
  0
LINE
  5
2B2
  8
5
  6
CONTINUOUS
 10
612.1071
 20
1344.834
 30
0.0
 11
500.6605
 21
1456.281
 31
0.0
  0
LINE
  5
2B3
  8
5
  6
CONTINUOUS
 10
612.1071
 20
1102.728
 30
0.0
 11
612.1071
 21
1344.834
 31
0.0
  0
LINE
  5
2B4
  8
5
  6
CONTINUOUS
 10
500.6605
 20
991.2809
 30
0.0
 11
612.1071
 21
1102.728
 31
0.0
  0
LINE
  5
2B5
  8
5
  6
CONTINUOUS
 10
258.5538
 20
991.2809
 30
0.0
 11
500.6605
 21
991.2809
 31
0.0
  0
LINE
  5
2B6
  8
5
  6
CONTINUOUS
 10
147.1071
 20
1102.728
 30
0.0
 11
258.5538
 21
991.2809
 31
0.0
  0
LINE
  5
2B7
  8
5
  6
CONTINUOUS
 10
147.1071
 20
1102.728
 30
0.0
 11
147.1071
 21
1344.834
 31
0.0
  0
LINE
  5
2B8
  8
5
  6
CONTINUOUS
 10
592.1058
 20
1412.974
 30
0.0
 11
570.028
 21
1435.052
 31
0.0
  0
LINE
  5
2B9
  8
5
  6
CONTINUOUS
 10
264.7071
 20
1459.281
 30
0.0
 11
264.7071
 21
1463.682
 31
0.0
  0
LINE
  5
2BA
  8
5
  6
CONTINUOUS
 10
494.2071
 20
1463.781
 30
0.0
 11
494.2071
 21
1459.281
 31
0.0
  0
LINE
  5
2BB
  8
5
  6
CONTINUOUS
 10
300.1071
 20
1459.281
 30
0.0
 11
300.1071
 21
1463.781
 31
0.0
  0
LINE
  5
2BC
  8
5
  6
CONTINUOUS
 10
283.1071
 20
1463.781
 30
0.0
 11
283.1071
 21
1459.281
 31
0.0
  0
LINE
  5
2BD
  8
5
  6
CONTINUOUS
 10
330.1071
 20
1459.281
 30
0.0
 11
330.1071
 21
1463.781
 31
0.0
  0
LINE
  5
2BE
  8
5
  6
CONTINUOUS
 10
315.1071
 20
1463.781
 30
0.0
 11
315.1071
 21
1459.281
 31
0.0
  0
LINE
  5
2BF
  8
5
  6
CONTINUOUS
 10
362.2071
 20
1459.281
 30
0.0
 11
362.207
 21
1463.781
 31
0.0
  0
LINE
  5
2C0
  8
5
  6
CONTINUOUS
 10
345.0071
 20
1463.781
 30
0.0
 11
345.0071
 21
1459.281
 31
0.0
  0
LINE
  5
2C1
  8
5
  6
CONTINUOUS
 10
396.8071
 20
1459.281
 30
0.0
 11
396.8071
 21
1463.781
 31
0.0
  0
LINE
  5
2C2
  8
5
  6
CONTINUOUS
 10
379.5071
 20
1463.781
 30
0.0
 11
379.5071
 21
1459.281
 31
0.0
  0
LINE
  5
2C3
  8
5
  6
CONTINUOUS
 10
428.9071
 20
1459.281
 30
0.0
 11
428.9071
 21
1463.781
 31
0.0
  0
ARC
  5
2C4
  8
5
  6
CONTINUOUS
 10
2093.262
 20
1223.781
 30
0.0
 40
76.16056
 50
160.4385
 51
173.5921
  0
LINE
  5
2C5
  8
5
  6
CONTINUOUS
 10
2168.947
 20
1232.281
 30
0.0
 11
2291.13
 21
1232.281
 31
0.0
  0
ARC
  5
2C6
  8
5
  6
CONTINUOUS
 10
2093.262
 20
1223.781
 30
0.0
 40
198.0506
 50
182.4598
 51
187.3977
  0
LINE
  5
2C7
  8
5
  6
CONTINUOUS
 10
2289.664
 20
1249.281
 30
0.0
 11
2165.027
 21
1249.281
 31
0.0
  0
ARC
  5
2C8
  8
5
  6
CONTINUOUS
 10
2093.262
 20
1223.781
 30
0.0
 40
76.16056
 50
173.5921
 51
186.4079
  0
LINE
  5
2C9
  8
5
  6
CONTINUOUS
 10
2017.577
 20
1215.281
 30
0.0
 11
1895.394
 21
1215.281
 31
0.0
  0
ARC
  5
2CA
  8
5
  6
CONTINUOUS
 10
2093.262
 20
1223.781
 30
0.0
 40
198.0505
 50
177.5402
 51
182.4598
  0
LINE
  5
2CB
  8
5
  6
CONTINUOUS
 10
1896.86
 20
1198.281
 30
0.0
 11
2021.497
 21
1198.281
 31
0.0
  0
ARC
  5
2CC
  8
5
  6
CONTINUOUS
 10
2093.262
 20
1223.781
 30
0.0
 40
76.16056
 50
186.4079
 51
199.5615
  0
LINE
  5
2CD
  8
5
  6
CONTINUOUS
 10
414.0071
 20
1463.781
 30
0.0
 11
414.0071
 21
1459.281
 31
0.0
  0
LINE
  5
2CE
  8
5
  6
CONTINUOUS
 10
2165.027
 20
1198.281
 30
0.0
 11
2289.664
 21
1198.281
 31
0.0
  0
ARC
  5
2CF
  8
5
  6
CONTINUOUS
 10
2093.262
 20
1223.781
 30
0.0
 40
198.0506
 50
172.6023
 51
177.5402
  0
LINE
  5
2D0
  8
5
  6
CONTINUOUS
 10
2291.13
 20
1215.281
 30
0.0
 11
2168.947
 21
1215.281
 31
0.0
  0
LINE
  5
2D1
  8
5
  6
CONTINUOUS
 10
458.9071
 20
1459.281
 30
0.0
 11
458.9071
 21
1463.781
 31
0.0
  0
ARC
  5
2D2
  8
5
  6
CONTINUOUS
 10
2093.262
 20
1223.781
 30
0.0
 40
76.16056
 50
199.5615
 51
213.9198
  0
LINE
  5
2D3
  8
5
  6
CONTINUOUS
 10
2030.062
 20
1181.281
 30
0.0
 11
1899.825
 21
1181.281
 31
0.0
  0
ARC
  5
2D4
  8
5
  6
CONTINUOUS
 10
2093.262
 20
1223.781
 30
0.0
 40
198.0506
 50
167.6084
 51
172.6023
  0
LINE
  5
2D5
  8
5
  6
CONTINUOUS
 10
443.9071
 20
1463.781
 30
0.0
 11
443.9071
 21
1459.281
 31
0.0
  0
LINE
  5
2D6
  8
5
  6
CONTINUOUS
 10
475.9071
 20
1463.781
 30
0.0
 11
475.9071
 21
1459.281
 31
0.0
  0
LINE
  5
2D7
  8
5
  6
CONTINUOUS
 10
1904.36
 20
1164.281
 30
0.0
 11
2045.721
 21
1164.281
 31
0.0
  0
ARC
  5
2D8
  8
5
  6
CONTINUOUS
 10
2093.262
 20
1223.781
 30
0.0
 40
76.16056
 50
213.9198
 51
231.3746
  0
LINE
  5
2D9
  8
5
  6
CONTINUOUS
 10
615.1071
 20
1338.481
 30
0.0
 11
619.6071
 21
1338.481
 31
0.0
  0
LINE
  5
2DA
  8
5
  6
CONTINUOUS
 10
619.6071
 20
1109.081
 30
0.0
 11
615.1071
 21
1109.081
 31
0.0
  0
LINE
  5
2DB
  8
5
  6
CONTINUOUS
 10
2140.803
 20
1164.281
 30
0.0
 11
2282.163
 21
1164.281
 31
0.0
  0
ARC
  5
2DC
  8
5
  6
CONTINUOUS
 10
2093.262
 20
1223.781
 30
0.0
 40
198.0506
 50
162.5167
 51
167.6084
  0
LINE
  5
2DD
  8
5
  6
CONTINUOUS
 10
615.1071
 20
1206.481
 30
0.0
 11
619.6071
 21
1206.481
 31
0.0
  0
LINE
  5
2DE
  8
5
  6
CONTINUOUS
 10
619.6071
 20
1223.781
 30
0.0
 11
615.1071
 21
1223.781
 31
0.0
  0
LINE
  5
2DF
  8
5
  6
CONTINUOUS
 10
2286.699
 20
1181.281
 30
0.0
 11
2156.461
 21
1181.281
 31
0.0
  0
ARC
  5
2E0
  8
5
  6
CONTINUOUS
 10
2093.262
 20
1223.781
 30
0.0
 40
76.16056
 50
308.6254
 51
326.0802
  0
LINE
  5
2E1
  8
5
  6
CONTINUOUS
 10
615.1071
 20
1241.081
 30
0.0
 11
619.6071
 21
1241.081
 31
0.0
  0
LINE
  5
2E2
  8
5
  6
CONTINUOUS
 10
619.6071
 20
1258.281
 30
0.0
 11
615.1071
 21
1258.281
 31
0.0
  0
ARC
  5
2E3
  8
5
  6
CONTINUOUS
 10
2093.262
 20
1223.781
 30
0.0
 40
198.0506
 50
157.2777
 51
162.5167
  0
LINE
  5
2E4
  8
5
  6
CONTINUOUS
 10
2275.941
 20
1300.281
 30
0.0
 11
1910.583
 21
1300.281
 31
0.0
  0
LINE
  5
2E5
  8
5
  6
CONTINUOUS
 10
615.1071
 20
1273.281
 30
0.0
 11
619.6071
 21
1273.281
 31
0.0
  0
LINE
  5
2E6
  8
5
  6
CONTINUOUS
 10
619.6071
 20
1288.181
 30
0.0
 11
615.1071
 21
1288.181
 31
0.0
  0
ARC
  5
2E7
  8
5
  6
CONTINUOUS
 10
2093.262
 20
1223.781
 30
0.0
 40
198.0506
 50
151.8292
 51
157.2777
  0
ARC
  5
2E8
  8
5
  6
CONTINUOUS
 10
2093.262
 20
1223.781
 30
0.0
 40
76.16059
 50
326.0802
 51
340.4385
  0
LINE
  5
2E9
  8
5
  6
CONTINUOUS
 10
615.1071
 20
1303.181
 30
0.0
 11
619.6071
 21
1303.181
 31
0.0
  0
LINE
  5
2EA
  8
5
  6
CONTINUOUS
 10
619.6071
 20
1320.181
 30
0.0
 11
615.1071
 21
1320.181
 31
0.0
  0
ARC
  5
2EB
  8
5
  6
CONTINUOUS
 10
2093.262
 20
1223.781
 30
0.0
 40
198.0506
 50
124.6134
 51
151.8292
  0
ARC
  5
2EC
  8
5
  6
CONTINUOUS
 10
2093.262
 20
1223.781
 30
0.0
 40
76.16056
 50
340.4385
 51
353.5921
  0
LINE
  5
2ED
  8
5
  6
CONTINUOUS
 10
615.1071
 20
1174.381
 30
0.0
 11
619.6071
 21
1174.381
 31
0.0
  0
ARC
  5
2EE
  8
5
  6
CONTINUOUS
 10
2093.262
 20
1223.781
 30
0.0
 40
198.0506
 50
118.8292
 51
124.6134
  0
ARC
  5
2EF
  8
5
  6
CONTINUOUS
 10
2093.262
 20
1223.781
 30
0.0
 40
76.16056
 50
353.5921
 51
6.4079
  0
ARC
  5
2F0
  8
5
  6
CONTINUOUS
 10
2093.262
 20
1223.781
 30
0.0
 40
198.0506
 50
113.351
 51
118.8292
  0
LINE
  5
2F1
  8
5
  6
CONTINUOUS
 10
619.6071
 20
1189.281
 30
0.0
 11
615.1071
 21
1189.281
 31
0.0
  0
ARC
  5
2F2
  8
5
  6
CONTINUOUS
 10
2093.262
 20
1223.781
 30
0.0
 40
76.1606
 50
6.407859
 51
19.56152
  0
ARC
  5
2F3
  8
5
  6
CONTINUOUS
 10
2093.262
 20
1223.781
 30
0.0
 40
198.0506
 50
108.091
 51
113.351
  0
ARC
  5
2F4
  8
5
  6
CONTINUOUS
 10
2093.262
 20
1223.781
 30
0.0
 40
76.16063
 50
19.56152
 51
33.91973
  0
ARC
  5
2F5
  8
5
  6
CONTINUOUS
 10
2093.262
 20
1223.781
 30
0.0
 40
198.0506
 50
102.9847
 51
108.091
  0
ARC
  5
2F6
  8
5
  6
CONTINUOUS
 10
2093.262
 20
1223.781
 30
0.0
 40
76.16055
 50
33.91973
 51
51.37464
  0
ARC
  5
2F7
  8
5
  6
CONTINUOUS
 10
2093.262
 20
1223.781
 30
0.0
 40
198.0506
 50
97.98151
 51
102.9847
  0
LINE
  5
2F8
  8
5
  6
CONTINUOUS
 10
615.1071
 20
1144.381
 30
0.0
 11
619.6071
 21
1144.381
 31
0.0
  0
ARC
  5
2F9
  8
5
  6
CONTINUOUS
 10
2093.262
 20
1223.781
 30
0.0
 40
198.0506
 50
93.03906
 51
97.98151
  0
ARC
  5
2FA
  8
5
  6
CONTINUOUS
 10
2093.262
 20
1223.781
 30
0.0
 40
198.0506
 50
86.96094
 51
93.03906
  0
LINE
  5
2FB
  8
5
  6
CONTINUOUS
 10
619.6071
 20
1159.381
 30
0.0
 11
615.1071
 21
1159.381
 31
0.0
  0
LINE
  5
2FC
  8
5
  6
CONTINUOUS
 10
619.6071
 20
1127.381
 30
0.0
 11
615.1071
 21
1127.381
 31
0.0
  0
LINE
  5
2FD
  8
5
  6
CONTINUOUS
 10
2267.852
 20
1317.281
 30
0.0
 11
2205.762
 21
1317.281
 31
0.0
  0
LINE
  5
2FE
  8
5
  6
CONTINUOUS
 10
2205.762
 20
1317.281
 30
0.0
 11
2188.762
 21
1317.281
 31
0.0
  0
LINE
  5
2FF
  8
5
  6
CONTINUOUS
 10
139.6071
 20
1338.481
 30
0.0
 11
144.1071
 21
1338.481
 31
0.0
  0
LINE
  5
300
  8
5
  6
CONTINUOUS
 10
144.1071
 20
1109.081
 30
0.0
 11
139.6071
 21
1109.081
 31
0.0
  0
LINE
  5
301
  8
5
  6
CONTINUOUS
 10
2188.762
 20
1317.281
 30
0.0
 11
2171.762
 21
1317.281
 31
0.0
  0
LINE
  5
302
  8
5
  6
CONTINUOUS
 10
2171.762
 20
1317.281
 30
0.0
 11
2154.762
 21
1317.281
 31
0.0
  0
LINE
  5
303
  8
5
  6
CONTINUOUS
 10
144.1071
 20
1223.781
 30
0.0
 11
139.6071
 21
1223.781
 31
0.0
  0
LINE
  5
304
  8
5
  6
CONTINUOUS
 10
139.6071
 20
1206.481
 30
0.0
 11
144.1071
 21
1206.481
 31
0.0
  0
LINE
  5
305
  8
5
  6
CONTINUOUS
 10
2154.762
 20
1317.281
 30
0.0
 11
2137.762
 21
1317.281
 31
0.0
  0
LINE
  5
306
  8
5
  6
CONTINUOUS
 10
2137.762
 20
1317.281
 30
0.0
 11
2120.762
 21
1317.281
 31
0.0
  0
LINE
  5
307
  8
5
  6
CONTINUOUS
 10
144.1071
 20
1258.281
 30
0.0
 11
139.6071
 21
1258.281
 31
0.0
  0
LINE
  5
308
  8
5
  6
CONTINUOUS
 10
139.6071
 20
1241.081
 30
0.0
 11
144.1071
 21
1241.081
 31
0.0
  0
LINE
  5
309
  8
5
  6
CONTINUOUS
 10
2120.762
 20
1317.281
 30
0.0
 11
2103.762
 21
1317.281
 31
0.0
  0
LINE
  5
30A
  8
5
  6
CONTINUOUS
 10
2103.762
 20
1317.281
 30
0.0
 11
2082.762
 21
1317.281
 31
0.0
  0
LINE
  5
30B
  8
5
  6
CONTINUOUS
 10
144.1071
 20
1288.181
 30
0.0
 11
139.6071
 21
1288.181
 31
0.0
  0
LINE
  5
30C
  8
5
  6
CONTINUOUS
 10
139.6071
 20
1273.281
 30
0.0
 11
144.1071
 21
1273.281
 31
0.0
  0
LINE
  5
30D
  8
5
  6
CONTINUOUS
 10
2082.762
 20
1317.281
 30
0.0
 11
2065.762
 21
1317.281
 31
0.0
  0
LINE
  5
30E
  8
5
  6
CONTINUOUS
 10
2065.762
 20
1317.281
 30
0.0
 11
2048.762
 21
1317.281
 31
0.0
  0
LINE
  5
30F
  8
5
  6
CONTINUOUS
 10
144.1071
 20
1320.181
 30
0.0
 11
139.6071
 21
1320.181
 31
0.0
  0
LINE
  5
310
  8
5
  6
CONTINUOUS
 10
139.6071
 20
1303.181
 30
0.0
 11
144.1071
 21
1303.181
 31
0.0
  0
LINE
  5
311
  8
5
  6
CONTINUOUS
 10
2048.762
 20
1317.281
 30
0.0
 11
2031.762
 21
1317.281
 31
0.0
  0
LINE
  5
312
  8
5
  6
CONTINUOUS
 10
144.1071
 20
1189.281
 30
0.0
 11
139.6071
 21
1189.281
 31
0.0
  0
LINE
  5
313
  8
5
  6
CONTINUOUS
 10
139.6071
 20
1174.381
 30
0.0
 11
144.1071
 21
1174.381
 31
0.0
  0
LINE
  5
314
  8
5
  6
CONTINUOUS
 10
144.1071
 20
1159.381
 30
0.0
 11
139.6071
 21
1159.381
 31
0.0
  0
LINE
  5
315
  8
5
  6
CONTINUOUS
 10
139.6071
 20
1144.381
 30
0.0
 11
144.1071
 21
1144.381
 31
0.0
  0
LINE
  5
316
  8
5
  6
CONTINUOUS
 10
144.1071
 20
1127.381
 30
0.0
 11
139.6071
 21
1127.381
 31
0.0
  0
LINE
  5
317
  8
5
  6
CONTINUOUS
 10
189.1862
 20
1435.052
 30
0.0
 11
167.1084
 21
1412.974
 31
0.0
  0
CIRCLE
  5
318
  8
5
  6
CONTINUOUS
 10
379.6071
 20
1223.781
 30
0.0
 40
223.5
  0
LINE
  5
319
  8
5
  6
CONTINUOUS
 10
2031.762
 20
1317.281
 30
0.0
 11
2014.762
 21
1317.281
 31
0.0
  0
LINE
  5
31A
  8
5
  6
CONTINUOUS
 10
2014.762
 20
1317.281
 30
0.0
 11
1997.762
 21
1317.281
 31
0.0
  0
LINE
  5
31B
  8
5
  6
CONTINUOUS
 10
1997.762
 20
1317.281
 30
0.0
 11
1980.762
 21
1317.281
 31
0.0
  0
LINE
  5
31C
  8
5
  6
CONTINUOUS
 10
1980.762
 20
1317.281
 30
0.0
 11
1918.672
 21
1317.281
 31
0.0
  0
ARC
  5
31D
  8
5
  6
CONTINUOUS
 10
2093.262
 20
1223.781
 30
0.0
 40
198.0506
 50
82.01849
 51
86.96094
  0
LINE
  5
31E
  8
5
  6
CONTINUOUS
 10
2188.762
 20
1397.285
 30
0.0
 11
2188.762
 21
1317.281
 31
0.0
  0
LINE
  5
31F
  8
5
  6
CONTINUOUS
 10
2205.762
 20
1317.281
 30
0.0
 11
2205.762
 21
1386.777
 31
0.0
  0
LINE
  5
320
  8
5
  6
CONTINUOUS
 10
1047.146
 20
384.0493
 30
0.0
 11
1058.59
 21
384.0498
 31
0.0
  0
ARC
  5
321
  8
5
  6
CONTINUOUS
 10
2093.262
 20
1223.781
 30
0.0
 40
198.0506
 50
77.01534
 51
82.01849
  0
LINE
  5
322
  8
5
  6
CONTINUOUS
 10
2154.762
 20
1412.041
 30
0.0
 11
2154.762
 21
1317.281
 31
0.0
  0
LINE
  5
323
  8
5
  6
CONTINUOUS
 10
1043.456
 20
373.2918
 30
0.0
 11
1047.146
 21
384.0493
 31
0.0
  0
LINE
  5
324
  8
5
  6
CONTINUOUS
 10
1034.593
 20
373.2915
 30
0.0
 11
1043.456
 21
373.2918
 31
0.0
  0
LINE
  5
325
  8
5
  6
CONTINUOUS
 10
1043.535
 20
399.3582
 30
0.0
 11
1034.593
 21
373.2915
 31
0.0
  0
LINE
  5
326
  8
5
  6
CONTINUOUS
 10
2171.762
 20
1317.281
 30
0.0
 11
2171.762
 21
1405.61
 31
0.0
  0
ARC
  5
327
  8
5
  6
CONTINUOUS
 10
2093.262
 20
1223.781
 30
0.0
 40
198.0506
 50
71.90902
 51
77.01534
  0
LINE
  5
328
  8
5
  6
CONTINUOUS
 10
2120.762
 20
1419.913
 30
0.0
 11
2120.762
 21
1317.281
 31
0.0
  0
LINE
  5
329
  8
5
  6
CONTINUOUS
 10
1058.59
 20
399.3586
 30
0.0
 11
1043.535
 21
399.3582
 31
0.0
  0
LINE
  5
32A
  8
5
  6
CONTINUOUS
 10
1058.59
 20
384.0498
 30
0.0
 11
1058.59
 21
399.3586
 31
0.0
  0
LINE
  5
32B
  8
5
  6
CONTINUOUS
 10
2137.762
 20
1317.281
 30
0.0
 11
2137.762
 21
1416.767
 31
0.0
  0
ARC
  5
32C
  8
5
  6
CONTINUOUS
 10
2093.262
 20
1223.781
 30
0.0
 40
198.0506
 50
66.64896
 51
71.90902
  0
LINE
  5
32D
  8
5
  6
CONTINUOUS
 10
273.4759
 20
1472.781
 30
0.0
 11
273.1616
 21
1463.781
 31
0.0
  0
LINE
  5
32E
  8
5
  6
CONTINUOUS
 10
486.0525
 20
1463.781
 30
0.0
 11
485.7382
 21
1472.781
 31
0.0
  0
LINE
  5
32F
  8
5
  6
CONTINUOUS
 10
2082.762
 20
1421.553
 30
0.0
 11
2082.762
 21
1317.281
 31
0.0
  0
LINE
  5
330
  8
5
  6
CONTINUOUS
 10
2103.762
 20
1317.281
 30
0.0
 11
2103.762
 21
1421.553
 31
0.0
  0
ARC
  5
331
  8
5
  6
CONTINUOUS
 10
2093.262
 20
1223.781
 30
0.0
 40
198.0506
 50
61.17081
 51
66.64896
  0
LINE
  5
332
  8
5
  6
CONTINUOUS
 10
2048.762
 20
1416.767
 30
0.0
 11
2048.762
 21
1317.281
 31
0.0
  0
LINE
  5
333
  8
5
  6
CONTINUOUS
 10
1058.589
 20
426.3559
 30
0.0
 11
1052.796
 21
426.3557
 31
0.0
  0
LINE
  5
334
  8
5
  6
CONTINUOUS
 10
1058.59
 20
401.4586
 30
0.0
 11
1058.589
 21
426.3559
 31
0.0
  0
LINE
  5
335
  8
5
  6
CONTINUOUS
 10
1044.255
 20
401.4582
 30
0.0
 11
1058.59
 21
401.4586
 31
0.0
  0
LINE
  5
336
  8
5
  6
CONTINUOUS
 10
1052.796
 20
426.3557
 30
0.0
 11
1044.255
 21
401.4582
 31
0.0
  0
LINE
  5
337
  8
5
  6
CONTINUOUS
 10
2065.762
 20
1317.281
 30
0.0
 11
2065.762
 21
1419.913
 31
0.0
  0
ARC
  5
338
  8
5
  6
CONTINUOUS
 10
2093.262
 20
1223.781
 30
0.0
 40
198.0506
 50
55.38656
 51
61.17081
  0
LINE
  5
339
  8
5
  6
CONTINUOUS
 10
2014.762
 20
1405.61
 30
0.0
 11
2014.762
 21
1317.281
 31
0.0
  0
LINE
  5
33A
  8
5
  6
CONTINUOUS
 10
2031.762
 20
1317.281
 30
0.0
 11
2031.762
 21
1412.041
 31
0.0
  0
ARC
  5
33B
  8
5
  6
CONTINUOUS
 10
2093.262
 20
1223.781
 30
0.0
 40
198.0506
 50
28.17081
 51
55.38656
  0
LINE
  5
33C
  8
5
  6
CONTINUOUS
 10
1980.762
 20
1386.777
 30
0.0
 11
1980.762
 21
1317.281
 31
0.0
  0
LINE
  5
33D
  8
5
  6
CONTINUOUS
 10
1997.762
 20
1317.281
 30
0.0
 11
1997.762
 21
1397.285
 31
0.0
  0
ARC
  5
33E
  8
5
  6
CONTINUOUS
 10
2093.262
 20
1223.781
 30
0.0
 40
198.0505
 50
22.72229
 51
28.17083
  0
LINE
  5
33F
  8
5
  6
CONTINUOUS
 10
985.5959
 20
208.799
 30
0.0
 11
1213.596
 21
208.799
 31
0.0
  0
LINE
  5
340
  8
5
  6
CONTINUOUS
 10
1209.596
 20
272.6699
 30
0.0
 11
1213.096
 21
276.1674
 31
0.0
  0
LINE
  5
341
  8
5
  6
CONTINUOUS
 10
989.5959
 20
272.6699
 30
0.0
 11
1209.596
 21
272.6699
 31
0.0
  0
LINE
  5
342
  8
5
  6
CONTINUOUS
 10
986.0959
 20
276.1674
 30
0.0
 11
989.5959
 21
272.6699
 31
0.0
  0
LINE
  5
343
  8
5
  6
CONTINUOUS
 10
1209.596
 20
272.6699
 30
0.0
 11
1209.596
 21
288.2914
 31
0.0
  0
LINE
  5
344
  8
5
  6
CONTINUOUS
 10
989.5959
 20
288.2914
 30
0.0
 11
1209.596
 21
288.2914
 31
0.0
  0
LINE
  5
345
  8
5
  6
CONTINUOUS
 10
989.5959
 20
288.2914
 30
0.0
 11
989.5959
 21
272.6699
 31
0.0
  0
LINE
  5
346
  8
5
  6
CONTINUOUS
 10
940.0959
 20
288.299
 30
0.0
 11
989.5959
 21
288.2914
 31
0.0
  0
LINE
  5
347
  8
5
  6
CONTINUOUS
 10
940.0959
 20
288.299
 30
0.0
 11
986.0959
 21
242.2989
 31
0.0
  0
LINE
  5
348
  8
5
  6
CONTINUOUS
 10
1213.096
 20
242.2989
 30
0.0
 11
1259.096
 21
288.299
 31
0.0
  0
LINE
  5
349
  8
5
  6
CONTINUOUS
 10
1209.596
 20
288.2914
 30
0.0
 11
1259.096
 21
288.299
 31
0.0
  0
LINE
  5
34A
  8
5
  6
CONTINUOUS
 10
989.5884
 20
511.2991
 30
0.0
 11
940.0959
 21
511.299
 31
0.0
  0
LINE
  5
34B
  8
5
  6
CONTINUOUS
 10
989.5884
 20
511.2991
 30
0.0
 11
989.5959
 21
288.2914
 31
0.0
  0
LINE
  5
34C
  8
5
  6
CONTINUOUS
 10
1209.596
 20
511.3066
 30
0.0
 11
1209.596
 21
560.799
 31
0.0
  0
LINE
  5
34D
  8
5
  6
CONTINUOUS
 10
989.5959
 20
560.799
 30
0.0
 11
989.5884
 21
511.2991
 31
0.0
  0
LINE
  5
34E
  8
5
  6
CONTINUOUS
 10
1209.596
 20
511.3066
 30
0.0
 11
989.5884
 21
511.2991
 31
0.0
  0
LINE
  5
34F
  8
5
  6
CONTINUOUS
 10
989.5959
 20
560.799
 30
0.0
 11
940.0959
 21
511.299
 31
0.0
  0
LINE
  5
350
  8
5
  6
CONTINUOUS
 10
1259.096
 20
511.299
 30
0.0
 11
1209.596
 21
511.3066
 31
0.0
  0
LINE
  5
351
  8
5
  6
CONTINUOUS
 10
1209.596
 20
288.2914
 30
0.0
 11
1209.596
 21
511.3066
 31
0.0
  0
LINE
  5
352
  8
5
  6
CONTINUOUS
 10
1259.096
 20
511.299
 30
0.0
 11
1209.596
 21
560.799
 31
0.0
  0
LINE
  5
353
  8
5
  6
CONTINUOUS
 10
2255.762
 20
1543.281
 30
0.0
 11
1933.762
 21
1543.281
 31
0.0
  0
LINE
  5
354
  8
5
  6
CONTINUOUS
 10
2255.762
 20
1564.581
 30
0.0
 11
2255.762
 21
1543.281
 31
0.0
  0
LINE
  5
355
  8
5
  6
CONTINUOUS
 10
2284.762
 20
1599.481
 30
0.0
 11
2284.762
 21
1546.281
 31
0.0
  0
LINE
  5
356
  8
5
  6
CONTINUOUS
 10
1938.262
 20
1521.281
 30
0.0
 11
1938.262
 21
1543.281
 31
0.0
  0
LINE
  5
357
  8
5
  6
CONTINUOUS
 10
2250.762
 20
1521.281
 30
0.0
 11
2250.762
 21
1543.281
 31
0.0
  0
LINE
  5
358
  8
5
  6
CONTINUOUS
 10
2255.762
 20
1546.281
 30
0.0
 11
2285.762
 21
1546.281
 31
0.0
  0
LINE
  5
359
  8
5
  6
CONTINUOUS
 10
2218.394
 20
1599.481
 30
0.0
 11
2284.762
 21
1599.481
 31
0.0
  0
LINE
  5
35A
  8
5
  6
CONTINUOUS
 10
2206.269
 20
1615.581
 30
0.0
 11
2221.891
 21
1599.481
 31
0.0
  0
LINE
  5
35B
  8
5
  6
CONTINUOUS
 10
2255.762
 20
1564.581
 30
0.0
 11
2206.262
 21
1564.581
 31
0.0
  0
LINE
  5
35C
  8
5
  6
CONTINUOUS
 10
1933.762
 20
1564.581
 30
0.0
 11
1983.262
 21
1615.581
 31
0.0
  0
LINE
  5
35D
  8
5
  6
CONTINUOUS
 10
1983.262
 20
1564.581
 30
0.0
 11
1933.762
 21
1564.581
 31
0.0
  0
LINE
  5
35E
  8
5
  6
CONTINUOUS
 10
1933.762
 20
1564.581
 30
0.0
 11
1933.762
 21
1543.281
 31
0.0
  0
LINE
  5
35F
  8
5
  6
CONTINUOUS
 10
2068.202
 20
1619.781
 30
0.0
 11
2068.202
 21
1619.781
 31
0.0
  0
LINE
  5
360
  8
5
  6
CONTINUOUS
 10
2095.201
 20
1619.781
 30
0.0
 11
2095.201
 21
1619.781
 31
0.0
  0
LINE
  5
361
  8
5
  6
CONTINUOUS
 10
2068.202
 20
1619.781
 30
0.0
 11
2068.202
 21
1619.781
 31
0.0
  0
ARC
  5
362
  8
5
  6
CONTINUOUS
 10
2093.262
 20
1223.781
 30
0.0
 40
198.0505
 50
17.48334
 51
22.72229
  0
LINE
  5
363
  8
5
  6
CONTINUOUS
 10
2095.201
 20
1619.781
 30
0.0
 11
2121.269
 21
1619.781
 31
0.0
  0
ARC
  5
364
  8
5
  6
CONTINUOUS
 10
2093.262
 20
1223.781
 30
0.0
 40
198.0506
 50
12.39155
 51
17.48334
  0
LINE
  5
365
  8
5
  6
CONTINUOUS
 10
2068.202
 20
1619.781
 30
0.0
 11
2093.103
 21
1619.781
 31
0.0
  0
LINE
  5
366
  8
5
  6
CONTINUOUS
 10
2095.201
 20
1619.781
 30
0.0
 11
2095.201
 21
1619.781
 31
0.0
  0
LINE
  5
367
  8
5
  6
CONTINUOUS
 10
2121.269
 20
1615.581
 30
0.0
 11
2121.269
 21
1619.781
 31
0.0
  0
LINE
  5
368
  8
5
  6
CONTINUOUS
 10
2095.203
 20
1615.581
 30
0.0
 11
2095.201
 21
1619.781
 31
0.0
  0
LINE
  5
369
  8
5
  6
CONTINUOUS
 10
2068.202
 20
1619.781
 30
0.0
 11
2068.205
 21
1615.581
 31
0.0
  0
LINE
  5
36A
  8
5
  6
CONTINUOUS
 10
2093.103
 20
1615.581
 30
0.0
 11
2093.103
 21
1619.781
 31
0.0
  0
LINE
  5
36B
  8
5
  6
CONTINUOUS
 10
1983.262
 20
1615.581
 30
0.0
 11
1983.254
 21
1615.581
 31
0.0
  0
LINE
  5
36C
  8
5
  6
CONTINUOUS
 10
1983.262
 20
1615.581
 30
0.0
 11
2206.269
 21
1615.581
 31
0.0
  0
LINE
  5
36D
  8
5
  6
CONTINUOUS
 10
1945.262
 20
1496.781
 30
0.0
 11
1945.262
 21
1521.281
 31
0.0
  0
LINE
  5
36E
  8
5
  6
CONTINUOUS
 10
1969.262
 20
1472.781
 30
0.0
 11
1945.262
 21
1496.781
 31
0.0
  0
LINE
  5
36F
  8
5
  6
CONTINUOUS
 10
2241.262
 20
1496.781
 30
0.0
 11
2217.262
 21
1472.781
 31
0.0
  0
LINE
  5
370
  8
5
  6
CONTINUOUS
 10
2285.762
 20
1546.281
 30
0.0
 11
2285.762
 21
1498.281
 31
0.0
  0
LINE
  5
371
  8
5
  6
CONTINUOUS
 10
2250.762
 20
1521.281
 30
0.0
 11
1938.262
 21
1521.281
 31
0.0
  0
LINE
  5
372
  8
5
  6
CONTINUOUS
 10
2241.262
 20
1496.781
 30
0.0
 11
2241.262
 21
1521.281
 31
0.0
  0
LINE
  5
373
  8
5
  6
CONTINUOUS
 10
2241.262
 20
1498.281
 30
0.0
 11
2285.762
 21
1498.281
 31
0.0
  0
LINE
  5
374
  8
5
  6
CONTINUOUS
 10
2217.262
 20
1472.781
 30
0.0
 11
2209.984
 21
1472.781
 31
0.0
  0
LINE
  5
375
  8
5
  6
CONTINUOUS
 10
1976.896
 20
1472.781
 30
0.0
 11
1969.262
 21
1472.781
 31
0.0
  0
LINE
  5
376
  8
5
  6
CONTINUOUS
 10
2252.262
 20
1564.581
 30
0.0
 11
2218.394
 21
1599.481
 31
0.0
  0
LINE
  5
377
  8
5
  6
CONTINUOUS
 10
2206.262
 20
1564.581
 30
0.0
 11
2206.269
 21
1615.581
 31
0.0
  0
LINE
  5
378
  8
5
  6
CONTINUOUS
 10
1983.254
 20
1615.581
 30
0.0
 11
1983.262
 21
1564.581
 31
0.0
  0
LINE
  5
379
  8
5
  6
CONTINUOUS
 10
2206.262
 20
1564.581
 30
0.0
 11
1983.262
 21
1564.581
 31
0.0
  0
LINE
  5
37A
  8
5
  6
CONTINUOUS
 10
1945.262
 20
1496.781
 30
0.0
 11
2062.679
 21
1496.781
 31
0.0
  0
ARC
  5
37B
  8
5
  6
CONTINUOUS
 10
2093.262
 20
1223.781
 30
0.0
 40
198.0506
 50
7.397657
 51
12.39155
  0
ARC
  5
37C
  8
5
  6
CONTINUOUS
 10
2093.262
 20
1223.781
 30
0.0
 40
198.0505
 50
2.459773
 51
7.397657
  0
ARC
  5
37D
  8
5
  6
CONTINUOUS
 10
2093.262
 20
1223.781
 30
0.0
 40
198.0506
 50
357.5402
 51
2.4598
  0
ARC
  5
37E
  8
5
  6
CONTINUOUS
 10
2093.262
 20
1223.781
 30
0.0
 40
198.0506
 50
352.6023
 51
357.5402
  0
ARC
  5
37F
  8
5
  6
CONTINUOUS
 10
2093.262
 20
1223.781
 30
0.0
 40
198.0506
 50
347.6084
 51
352.6023
  0
LINE
  5
380
  8
5
  6
CONTINUOUS
 10
2067.262
 20
1147.281
 30
0.0
 11
1910.583
 21
1147.281
 31
0.0
  0
LINE
  5
381
  8
5
  6
CONTINUOUS
 10
2123.844
 20
1496.781
 30
0.0
 11
2241.262
 21
1496.781
 31
0.0
  0
ARC
  5
382
  8
5
  6
CONTINUOUS
 10
2093.262
 20
1223.781
 30
0.0
 40
198.0506
 50
202.7223
 51
208.1708
  0
ARC
  5
383
  8
5
  6
CONTINUOUS
 10
2093.262
 20
1223.781
 30
0.0
 40
198.0506
 50
331.8292
 51
337.2777
  0
LINE
  5
384
  8
5
  6
CONTINUOUS
 10
2275.941
 20
1147.281
 30
0.0
 11
2119.262
 21
1147.281
 31
0.0
  0
ARC
  5
385
  8
5
  6
CONTINUOUS
 10
2093.262
 20
1223.781
 30
0.0
 40
76.16056
 50
231.3746
 51
250.0388
  0
ARC
  5
386
  8
5
  6
CONTINUOUS
 10
2093.262
 20
1223.781
 30
0.0
 40
198.0506
 50
342.5167
 51
347.6084
  0
ARC
  5
387
  8
5
  6
CONTINUOUS
 10
2093.262
 20
1223.781
 30
0.0
 40
198.0506
 50
337.2777
 51
342.5167
  0
ARC
  5
388
  8
5
  6
CONTINUOUS
 10
2093.262
 20
1223.781
 30
0.0
 40
76.16056
 50
289.9612
 51
308.6254
  0
ARC
  5
389
  8
5
  6
CONTINUOUS
 10
2093.262
 20
1223.781
 30
0.0
 40
198.0506
 50
254.478
 51
259.527
  0
LINE
  5
38A
  8
5
  6
CONTINUOUS
 10
2057.262
 20
1029.03
 30
0.0
 11
2057.262
 21
1108.281
 31
0.0
  0
LINE
  5
38B
  8
5
  6
CONTINUOUS
 10
2040.262
 20
1108.281
 30
0.0
 11
2040.262
 21
1032.954
 31
0.0
  0
ARC
  5
38C
  8
5
  6
CONTINUOUS
 10
2093.262
 20
1223.781
 30
0.0
 40
198.0506
 50
249.3018
 51
254.478
  0
LINE
  5
38D
  8
5
  6
CONTINUOUS
 10
2023.262
 20
1038.514
 30
0.0
 11
2023.262
 21
1108.281
 31
0.0
  0
LINE
  5
38E
  8
5
  6
CONTINUOUS
 10
2006.262
 20
1108.281
 30
0.0
 11
2006.262
 21
1045.862
 31
0.0
  0
ARC
  5
38F
  8
5
  6
CONTINUOUS
 10
2093.262
 20
1223.781
 30
0.0
 40
198.0506
 50
243.9419
 51
249.3018
  0
LINE
  5
390
  8
5
  6
CONTINUOUS
 10
963.6251
 20
196.199
 30
0.0
 11
962.1151
 21
207.986
 31
0.0
  0
LINE
  5
391
  8
5
  6
CONTINUOUS
 10
1259.096
 20
550.8989
 30
0.0
 11
1404.096
 21
550.899
 31
0.0
  0
LINE
  5
392
  8
5
  6
CONTINUOUS
 10
2146.262
 20
1032.954
 30
0.0
 11
2146.262
 21
1108.281
 31
0.0
  0
LINE
  5
393
  8
5
  6
CONTINUOUS
 10
2129.262
 20
1108.281
 30
0.0
 11
2129.262
 21
1029.03
 31
0.0
  0
ARC
  5
394
  8
5
  6
CONTINUOUS
 10
2093.262
 20
1223.781
 30
0.0
 40
198.0506
 50
290.6982
 51
296.0581
  0
LINE
  5
395
  8
5
  6
CONTINUOUS
 10
2180.262
 20
1045.862
 30
0.0
 11
2180.262
 21
1108.281
 31
0.0
  0
LINE
  5
396
  8
5
  6
CONTINUOUS
 10
2163.262
 20
1108.281
 30
0.0
 11
2163.262
 21
1038.513
 31
0.0
  0
ARC
  5
397
  8
5
  6
CONTINUOUS
 10
2093.262
 20
1223.781
 30
0.0
 40
198.0506
 50
285.522
 51
290.6982
  0
ARC
  5
398
  8
5
  6
CONTINUOUS
 10
2093.262
 20
1223.781
 30
0.0
 40
198.0506
 50
215.6748
 51
243.9419
  0
ARC
  5
399
  8
5
  6
CONTINUOUS
 10
2093.262
 20
1223.781
 30
0.0
 40
198.0505
 50
280.473
 51
285.522
  0
ARC
  5
39A
  8
5
  6
CONTINUOUS
 10
2093.262
 20
1223.781
 30
0.0
 40
198.0506
 50
296.0581
 51
324.3252
  0
ARC
  5
39B
  8
5
  6
CONTINUOUS
 10
2093.262
 20
1223.781
 30
0.0
 40
198.0506
 50
259.527
 51
264.4949
  0
ARC
  5
39C
  8
5
  6
CONTINUOUS
 10
2093.262
 20
1223.781
 30
0.0
 40
198.0506
 50
275.5051
 51
280.473
  0
CIRCLE
  5
39D
  8
5
  6
CONTINUOUS
 10
2093.262
 20
1223.781
 30
0.0
 40
210.0
  0
ARC
  5
39E
  8
5
  6
CONTINUOUS
 10
2093.262
 20
1223.781
 30
0.0
 40
185.7597
 50
325.0178
 51
329.7789
  0
ARC
  5
39F
  8
5
  6
CONTINUOUS
 10
2093.262
 20
1223.781
 30
0.0
 40
185.7597
 50
321.5544
 51
323.8805
  0
ARC
  5
3A0
  8
5
  6
CONTINUOUS
 10
2093.262
 20
1223.781
 30
0.0
 40
185.7597
 50
210.2211
 51
218.4456
  0
ARC
  5
3A1
  8
5
  6
CONTINUOUS
 10
2093.262
 20
1223.781
 30
0.0
 40
76.0
 50
290.0052
 51
249.9948
  0
ARC
  5
3A2
  8
5
  6
CONTINUOUS
 10
2093.262
 20
1223.781
 30
0.0
 40
70.71259
 50
248.427
 51
291.573
  0
CIRCLE
  5
3A3
  8
5
  6
CONTINUOUS
 10
2093.262
 20
1223.781
 30
0.0
 40
65.0
  0
LINE
  5
3A5
  8
5
  6
CONTINUOUS
 10
1404.096
 20
251.699
 30
0.0
 11
1259.096
 21
251.699
 31
0.0
  0
LINE
  5
3A7
  8
5
  6
CONTINUOUS
 10
1410.077
 20
504.212
 30
0.0
 11
1408.579
 21
515.899
 31
0.0
  0
LINE
  5
3A8
  8
5
  6
CONTINUOUS
 10
1404.109
 20
550.799
 30
0.0
 11
1406.315
 21
533.5743
 31
0.0
  0
LINE
  5
3A9
  8
5
  6
CONTINUOUS
 10
1406.338
 20
533.399
 30
0.0
 11
1406.315
 21
533.5743
 31
0.0
  0
LINE
  5
3AA
  8
5
  6
CONTINUOUS
 10
1408.579
 20
515.899
 30
0.0
 11
1406.338
 21
533.399
 31
0.0
  0
LINE
  5
3AB
  8
5
  6
CONTINUOUS
 10
1404.096
 20
550.899
 30
0.0
 11
1404.109
 21
550.799
 31
0.0
  0
LINE
  5
3AC
  8
5
  6
CONTINUOUS
 10
1406.325
 20
623.899
 30
0.0
 11
1408.567
 21
606.399
 31
0.0
  0
LINE
  5
3AD
  8
5
  6
CONTINUOUS
 10
1404.096
 20
641.299
 30
0.0
 11
1406.312
 21
623.9996
 31
0.0
  0
LINE
  5
3AE
  8
5
  6
CONTINUOUS
 10
1406.312
 20
623.9996
 30
0.0
 11
1406.318
 21
623.9496
 31
0.0
  0
LINE
  5
3AF
  8
5
  6
CONTINUOUS
 10
1079.893
 20
560.799
 30
0.0
 11
1077.212
 21
591.72
 31
0.0
  0
LINE
  5
3B0
  8
5
  6
CONTINUOUS
 10
1406.318
 20
623.9496
 30
0.0
 11
1406.325
 21
623.899
 31
0.0
  0
LINE
  5
3B1
  8
5
  6
CONTINUOUS
 10
1408.567
 20
606.399
 30
0.0
 11
1410.077
 21
594.612
 31
0.0
  0
LINE
  5
3B2
  8
5
  6
CONTINUOUS
 10
1406.312
 20
178.5984
 30
0.0
 11
1404.096
 21
161.299
 31
0.0
  0
LINE
  5
3B3
  8
5
  6
CONTINUOUS
 10
1406.325
 20
178.699
 30
0.0
 11
1408.567
 21
196.199
 31
0.0
  0
LINE
  5
3B4
  8
5
  6
CONTINUOUS
 10
981.2987
 20
560.799
 30
0.0
 11
983.9799
 21
591.72
 31
0.0
  0
LINE
  5
3B5
  8
5
  6
CONTINUOUS
 10
1406.318
 20
178.6484
 30
0.0
 11
1406.325
 21
178.699
 31
0.0
  0
LINE
  5
3B6
  8
5
  6
CONTINUOUS
 10
1406.318
 20
178.6484
 30
0.0
 11
1406.312
 21
178.5984
 31
0.0
  0
LINE
  5
3B7
  8
5
  6
CONTINUOUS
 10
1012.596
 20
560.7991
 30
0.0
 11
1012.596
 21
573.9458
 31
0.0
  0
LINE
  5
3B8
  8
5
  6
CONTINUOUS
 10
1408.567
 20
196.199
 30
0.0
 11
1410.077
 21
207.986
 31
0.0
  0
LINE
  5
3B9
  8
5
  6
CONTINUOUS
 10
965.8798
 20
623.9996
 30
0.0
 11
968.0959
 21
641.299
 31
0.0
  0
LINE
  5
3BA
  8
5
  6
CONTINUOUS
 10
965.8669
 20
623.899
 30
0.0
 11
963.6251
 21
606.399
 31
0.0
  0
LINE
  5
3BB
  8
5
  6
CONTINUOUS
 10
1048.596
 20
573.9458
 30
0.0
 11
1048.596
 21
560.7991
 31
0.0
  0
LINE
  5
3BC
  8
5
  6
CONTINUOUS
 10
965.8733
 20
623.9496
 30
0.0
 11
965.8669
 21
623.899
 31
0.0
  0
LINE
  5
3BD
  8
5
  6
CONTINUOUS
 10
965.8733
 20
623.9496
 30
0.0
 11
965.8798
 21
623.9996
 31
0.0
  0
LINE
  5
3BE
  8
5
  6
CONTINUOUS
 10
963.6251
 20
606.399
 30
0.0
 11
962.1151
 21
594.612
 31
0.0
  0
LINE
  5
3BF
  8
5
  6
CONTINUOUS
 10
965.8669
 20
178.699
 30
0.0
 11
963.6251
 21
196.199
 31
0.0
  0
LINE
  5
3C0
  8
5
  6
CONTINUOUS
 10
968.0959
 20
161.299
 30
0.0
 11
965.8798
 21
178.5984
 31
0.0
  0
LINE
  5
3C1
  8
5
  6
CONTINUOUS
 10
965.8798
 20
178.5984
 30
0.0
 11
965.8733
 21
178.6484
 31
0.0
  0
LINE
  5
3C2
  8
5
  6
CONTINUOUS
 10
965.8733
 20
178.6484
 30
0.0
 11
965.8669
 21
178.699
 31
0.0
  0
LINE
  5
3C3
  8
5
  6
CONTINUOUS
 10
968.0959
 20
641.299
 30
0.0
 11
1404.096
 21
641.299
 31
0.0
  0
LINE
  5
3C4
  8
5
  6
CONTINUOUS
 10
1404.096
 20
161.299
 30
0.0
 11
968.0959
 21
161.299
 31
0.0
  0
LINE
  5
3C5
  8
5
  6
CONTINUOUS
 10
1408.541
 20
286.399
 30
0.0
 11
1406.315
 21
269.0237
 31
0.0
  0
LINE
  5
3C6
  8
5
  6
CONTINUOUS
 10
1406.315
 20
269.0237
 30
0.0
 11
1406.312
 21
268.999
 31
0.0
  0
LINE
  5
3C7
  8
5
  6
CONTINUOUS
 10
1410.077
 20
298.386
 30
0.0
 11
1408.541
 21
286.399
 31
0.0
  0
LINE
  5
3C8
  8
5
  6
CONTINUOUS
 10
1406.312
 20
268.999
 30
0.0
 11
1404.096
 21
251.699
 31
0.0
  0
LINE
  5
3C9
  8
5
  6
CONTINUOUS
 10
1540.596
 20
633.7991
 30
0.0
 11
1540.596
 21
522.3525
 31
0.0
  0
LINE
  5
3CA
  8
5
  6
CONTINUOUS
 10
1540.596
 20
522.3525
 30
0.0
 11
1540.596
 21
280.2457
 31
0.0
  0
LINE
  5
3CB
  8
5
  6
CONTINUOUS
 10
1540.596
 20
280.2457
 30
0.0
 11
1540.596
 21
168.7991
 31
0.0
  0
LINE
  5
3CC
  8
5
  6
CONTINUOUS
 10
1613.596
 20
541.299
 30
0.0
 11
1613.596
 21
261.299
 31
0.0
  0
LINE
  5
3CD
  8
5
  6
CONTINUOUS
 10
1472.096
 20
636.799
 30
0.0
 11
1411.596
 21
636.799
 31
0.0
  0
LINE
  5
3CE
  8
5
  6
CONTINUOUS
 10
1472.096
 20
165.799
 30
0.0
 11
1411.596
 21
165.799
 31
0.0
  0
LINE
  5
3CF
  8
5
  6
CONTINUOUS
 10
1472.096
 20
633.7991
 30
0.0
 11
1540.596
 21
633.7991
 31
0.0
  0
LINE
  5
3D0
  8
5
  6
CONTINUOUS
 10
1540.596
 20
168.7991
 30
0.0
 11
1472.096
 21
168.7991
 31
0.0
  0
LINE
  5
3D1
  8
5
  6
CONTINUOUS
 10
1472.096
 20
636.799
 30
0.0
 11
1472.096
 21
523.5951
 31
0.0
  0
LINE
  5
3D2
  8
5
  6
CONTINUOUS
 10
1472.096
 20
523.5951
 30
0.0
 11
1472.096
 21
279.003
 31
0.0
  0
LINE
  5
3D3
  8
5
  6
CONTINUOUS
 10
1472.096
 20
279.003
 30
0.0
 11
1472.096
 21
165.799
 31
0.0
  0
LINE
  5
3D4
  8
5
  6
CONTINUOUS
 10
1411.596
 20
165.799
 30
0.0
 11
1411.596
 21
279.003
 31
0.0
  0
LINE
  5
3D5
  8
5
  6
CONTINUOUS
 10
1411.596
 20
279.003
 30
0.0
 11
1411.596
 21
523.5951
 31
0.0
  0
LINE
  5
3D6
  8
5
  6
CONTINUOUS
 10
1411.596
 20
523.5951
 30
0.0
 11
1411.596
 21
636.799
 31
0.0
  0
LINE
  5
3D7
  8
5
  6
CONTINUOUS
 10
1077.212
 20
591.72
 30
0.0
 11
1060.096
 21
604.5921
 31
0.0
  0
LINE
  5
3D8
  8
5
  6
CONTINUOUS
 10
1060.096
 20
604.5921
 30
0.0
 11
1001.096
 21
604.5921
 31
0.0
  0
LINE
  5
3D9
  8
5
  6
CONTINUOUS
 10
1001.096
 20
604.5921
 30
0.0
 11
983.9799
 21
591.72
 31
0.0
  0
LINE
  5
3DA
  8
5
  6
CONTINUOUS
 10
1012.596
 20
573.9458
 30
0.0
 11
1020.596
 21
580.3978
 31
0.0
  0
LINE
  5
3DB
  8
5
  6
CONTINUOUS
 10
1020.596
 20
580.3978
 30
0.0
 11
1040.596
 21
580.3978
 31
0.0
  0
LINE
  5
3DC
  8
5
  6
CONTINUOUS
 10
1040.596
 20
580.3978
 30
0.0
 11
1048.596
 21
573.9458
 31
0.0
  0
LINE
  5
3DD
  8
5
  6
CONTINUOUS
 10
1259.096
 20
533.399
 30
0.0
 11
1406.293
 21
533.3989
 31
0.0
  0
LINE
  5
3DE
  8
5
  6
CONTINUOUS
 10
983.9799
 20
613.7976
 30
0.0
 11
980.8458
 21
590.0077
 31
0.0
  0
LINE
  5
3DF
  8
5
  6
CONTINUOUS
 10
1404.109
 20
550.799
 30
0.0
 11
1259.096
 21
550.799
 31
0.0
  0
LINE
  5
3E0
  8
5
  6
CONTINUOUS
 10
983.9799
 20
613.7976
 30
0.0
 11
1001.096
 21
622.2698
 31
0.0
  0
LINE
  5
3E1
  8
5
  6
CONTINUOUS
 10
1001.096
 20
622.2698
 30
0.0
 11
1060.096
 21
622.2698
 31
0.0
  0
LINE
  5
3E2
  8
5
  6
CONTINUOUS
 10
1060.096
 20
622.2698
 30
0.0
 11
1077.212
 21
613.7976
 31
0.0
  0
LINE
  5
3E3
  8
5
  6
CONTINUOUS
 10
1279.096
 20
516.0991
 30
0.0
 11
1259.096
 21
532.3933
 31
0.0
  0
LINE
  5
3E4
  8
5
  6
CONTINUOUS
 10
1077.212
 20
613.7976
 30
0.0
 11
1080.346
 21
590.0077
 31
0.0
  0
LINE
  5
3E5
  8
5
  6
CONTINUOUS
 10
983.9799
 20
591.72
 30
0.0
 11
983.9799
 21
613.7976
 31
0.0
  0
LINE
  5
3E6
  8
5
  6
CONTINUOUS
 10
979.4231
 20
561.239
 30
0.0
 11
980.8458
 21
590.0077
 31
0.0
  0
LINE
  5
3E7
  8
5
  6
CONTINUOUS
 10
1259.096
 20
270.2047
 30
0.0
 11
1278.973
 21
286.3991
 31
0.0
  0
LINE
  5
3E8
  8
5
  6
CONTINUOUS
 10
1259.096
 20
268.999
 30
0.0
 11
1406.312
 21
268.9991
 31
0.0
  0
LINE
  5
3E9
  8
5
  6
CONTINUOUS
 10
1080.346
 20
590.0077
 30
0.0
 11
1081.768
 21
561.239
 31
0.0
  0
LINE
  5
3EA
  8
5
  6
CONTINUOUS
 10
1077.212
 20
613.7976
 30
0.0
 11
1077.212
 21
591.72
 31
0.0
  0
LINE
  5
3EB
  8
5
  6
CONTINUOUS
 10
1060.096
 20
604.5921
 30
0.0
 11
1060.096
 21
622.2698
 31
0.0
  0
LINE
  5
3EC
  8
5
  6
CONTINUOUS
 10
1001.096
 20
622.2698
 30
0.0
 11
1001.096
 21
604.5921
 31
0.0
  0
LINE
  5
3ED
  8
5
  6
CONTINUOUS
 10
1406.315
 20
533.5743
 30
0.0
 11
1406.293
 21
533.3989
 31
0.0
  0
LINE
  5
3EE
  8
5
  6
CONTINUOUS
 10
1404.096
 20
516.0991
 30
0.0
 11
1279.096
 21
516.0991
 31
0.0
  0
LINE
  5
3EF
  8
5
  6
CONTINUOUS
 10
1406.293
 20
533.3989
 30
0.0
 11
1404.096
 21
516.0991
 31
0.0
  0
LINE
  5
3F0
  8
5
  6
CONTINUOUS
 10
1404.109
 20
286.3991
 30
0.0
 11
1278.973
 21
286.3991
 31
0.0
  0
LINE
  5
3F1
  8
5
  6
CONTINUOUS
 10
1404.109
 20
286.3991
 30
0.0
 11
1406.315
 21
269.0237
 31
0.0
  0
LINE
  5
3F2
  8
5
  6
CONTINUOUS
 10
1404.096
 20
286.499
 30
0.0
 11
1404.109
 21
286.3991
 31
0.0
  0
LINE
  5
3F3
  8
5
  6
CONTINUOUS
 10
1279.096
 20
286.499
 30
0.0
 11
1404.096
 21
286.499
 31
0.0
  0
LINE
  5
3F4
  8
5
  6
CONTINUOUS
 10
1278.973
 20
286.3991
 30
0.0
 11
1279.096
 21
286.499
 31
0.0
  0
LINE
  5
3F5
  8
5
  6
CONTINUOUS
 10
1406.293
 20
533.3989
 30
0.0
 11
1406.338
 21
533.399
 31
0.0
  0
LINE
  5
3F6
  8
5
  6
CONTINUOUS
 10
1408.541
 20
286.3991
 30
0.0
 11
1404.109
 21
286.3991
 31
0.0
  0
LINE
  5
3F7
  8
5
  6
CONTINUOUS
 10
1404.096
 20
515.8989
 30
0.0
 11
1408.579
 21
515.899
 31
0.0
  0
LINE
  5
3F8
  8
5
  6
CONTINUOUS
 10
1404.096
 20
515.8989
 30
0.0
 11
1404.096
 21
516.0991
 31
0.0
  0
LINE
  5
3F9
  8
5
  6
CONTINUOUS
 10
1408.7
 20
321.7989
 30
0.0
 11
1404.096
 21
321.7989
 31
0.0
  0
LINE
  5
3FA
  8
5
  6
CONTINUOUS
 10
1404.096
 20
304.799
 30
0.0
 11
1404.096
 21
321.7989
 31
0.0
  0
LINE
  5
3FB
  8
5
  6
CONTINUOUS
 10
1404.096
 20
304.799
 30
0.0
 11
1409.656
 21
304.799
 31
0.0
  0
LINE
  5
3FC
  8
5
  6
CONTINUOUS
 10
1407.512
 20
351.7989
 30
0.0
 11
1404.096
 21
351.7989
 31
0.0
  0
LINE
  5
3FD
  8
5
  6
CONTINUOUS
 10
1404.096
 20
336.799
 30
0.0
 11
1404.096
 21
351.7989
 31
0.0
  0
LINE
  5
3FE
  8
5
  6
CONTINUOUS
 10
1404.096
 20
336.799
 30
0.0
 11
1408.03
 21
336.799
 31
0.0
  0
LINE
  5
3FF
  8
5
  6
CONTINUOUS
 10
1406.875
 20
383.8989
 30
0.0
 11
1404.096
 21
383.8989
 31
0.0
  0
LINE
  5
400
  8
5
  6
CONTINUOUS
 10
1404.096
 20
366.6991
 30
0.0
 11
1404.096
 21
383.8989
 31
0.0
  0
LINE
  5
401
  8
5
  6
CONTINUOUS
 10
1404.096
 20
366.6991
 30
0.0
 11
1407.138
 21
366.6991
 31
0.0
  0
LINE
  5
402
  8
5
  6
CONTINUOUS
 10
1406.873
 20
418.499
 30
0.0
 11
1404.096
 21
418.499
 31
0.0
  0
LINE
  5
403
  8
5
  6
CONTINUOUS
 10
1404.096
 20
401.199
 30
0.0
 11
1404.096
 21
418.499
 31
0.0
  0
LINE
  5
404
  8
5
  6
CONTINUOUS
 10
1404.096
 20
401.199
 30
0.0
 11
1406.786
 21
401.199
 31
0.0
  0
LINE
  5
405
  8
5
  6
CONTINUOUS
 10
1407.506
 20
450.5991
 30
0.0
 11
1404.096
 21
450.5991
 31
0.0
  0
LINE
  5
406
  8
5
  6
CONTINUOUS
 10
1404.096
 20
435.6989
 30
0.0
 11
1404.096
 21
450.5991
 31
0.0
  0
LINE
  5
407
  8
5
  6
CONTINUOUS
 10
1404.096
 20
435.6989
 30
0.0
 11
1407.134
 21
435.6989
 31
0.0
  0
LINE
  5
408
  8
5
  6
CONTINUOUS
 10
1408.69
 20
480.5991
 30
0.0
 11
1404.096
 21
480.5991
 31
0.0
  0
LINE
  5
409
  8
5
  6
CONTINUOUS
 10
1404.096
 20
465.5989
 30
0.0
 11
1404.096
 21
480.5991
 31
0.0
  0
LINE
  5
40A
  8
5
  6
CONTINUOUS
 10
1404.096
 20
465.5989
 30
0.0
 11
1408.023
 21
465.5989
 31
0.0
  0
LINE
  5
40B
  8
5
  6
CONTINUOUS
 10
1404.096
 20
497.599
 30
0.0
 11
1404.096
 21
515.8989
 31
0.0
  0
LINE
  5
40C
  8
5
  6
CONTINUOUS
 10
1404.096
 20
497.599
 30
0.0
 11
1409.644
 21
497.599
 31
0.0
  0
LINE
  5
40D
  8
5
  6
CONTINUOUS
 10
1404.096
 20
286.499
 30
0.0
 11
1404.096
 21
304.799
 31
0.0
  0
LINE
  5
40E
  8
5
  6
CONTINUOUS
 10
1404.096
 20
321.7989
 30
0.0
 11
1404.096
 21
336.799
 31
0.0
  0
LINE
  5
40F
  8
5
  6
CONTINUOUS
 10
1259.096
 20
304.799
 30
0.0
 11
1279.096
 21
304.799
 31
0.0
  0
LINE
  5
410
  8
5
  6
CONTINUOUS
 10
1404.096
 20
351.7989
 30
0.0
 11
1404.096
 21
366.6991
 31
0.0
  0
LINE
  5
411
  8
5
  6
CONTINUOUS
 10
1279.096
 20
321.7989
 30
0.0
 11
1259.096
 21
321.799
 31
0.0
  0
LINE
  5
412
  8
5
  6
CONTINUOUS
 10
1404.096
 20
383.8989
 30
0.0
 11
1404.096
 21
401.199
 31
0.0
  0
LINE
  5
413
  8
5
  6
CONTINUOUS
 10
1404.096
 20
418.499
 30
0.0
 11
1404.096
 21
435.6989
 31
0.0
  0
LINE
  5
414
  8
5
  6
CONTINUOUS
 10
1259.096
 20
336.799
 30
0.0
 11
1279.096
 21
336.799
 31
0.0
  0
LINE
  5
415
  8
5
  6
CONTINUOUS
 10
1404.096
 20
450.5991
 30
0.0
 11
1404.096
 21
465.5989
 31
0.0
  0
LINE
  5
416
  8
5
  6
CONTINUOUS
 10
1279.096
 20
351.7989
 30
0.0
 11
1259.096
 21
351.799
 31
0.0
  0
LINE
  5
417
  8
5
  6
CONTINUOUS
 10
1404.096
 20
480.5991
 30
0.0
 11
1404.096
 21
497.599
 31
0.0
  0
LINE
  5
418
  8
5
  6
CONTINUOUS
 10
1279.096
 20
321.7989
 30
0.0
 11
1279.096
 21
304.799
 31
0.0
  0
LINE
  5
419
  8
5
  6
CONTINUOUS
 10
1259.096
 20
366.699
 30
0.0
 11
1279.096
 21
366.6991
 31
0.0
  0
LINE
  5
41A
  8
5
  6
CONTINUOUS
 10
1279.096
 20
351.7989
 30
0.0
 11
1279.096
 21
336.799
 31
0.0
  0
LINE
  5
41B
  8
5
  6
CONTINUOUS
 10
1279.096
 20
383.8989
 30
0.0
 11
1259.096
 21
383.899
 31
0.0
  0
LINE
  5
41C
  8
5
  6
CONTINUOUS
 10
1279.096
 20
383.8989
 30
0.0
 11
1279.096
 21
366.6991
 31
0.0
  0
LINE
  5
41D
  8
5
  6
CONTINUOUS
 10
1279.096
 20
450.5991
 30
0.0
 11
1259.096
 21
450.599
 31
0.0
  0
LINE
  5
41E
  8
5
  6
CONTINUOUS
 10
1279.096
 20
450.5991
 30
0.0
 11
1279.096
 21
435.6989
 31
0.0
  0
LINE
  5
41F
  8
5
  6
CONTINUOUS
 10
1279.096
 20
480.5991
 30
0.0
 11
1279.096
 21
465.5989
 31
0.0
  0
LINE
  5
420
  8
5
  6
CONTINUOUS
 10
1259.096
 20
435.699
 30
0.0
 11
1279.096
 21
435.6989
 31
0.0
  0
LINE
  5
421
  8
5
  6
CONTINUOUS
 10
1279.096
 20
515.8989
 30
0.0
 11
1279.096
 21
497.599
 31
0.0
  0
LINE
  5
422
  8
5
  6
CONTINUOUS
 10
1279.096
 20
480.5991
 30
0.0
 11
1259.096
 21
480.599
 31
0.0
  0
LINE
  5
423
  8
5
  6
CONTINUOUS
 10
1279.096
 20
304.799
 30
0.0
 11
1279.096
 21
286.499
 31
0.0
  0
LINE
  5
424
  8
5
  6
CONTINUOUS
 10
1279.096
 20
336.799
 30
0.0
 11
1279.096
 21
321.7989
 31
0.0
  0
LINE
  5
425
  8
5
  6
CONTINUOUS
 10
1259.096
 20
465.599
 30
0.0
 11
1279.096
 21
465.5989
 31
0.0
  0
LINE
  5
426
  8
5
  6
CONTINUOUS
 10
1279.096
 20
366.6991
 30
0.0
 11
1279.096
 21
351.7989
 31
0.0
  0
LINE
  5
427
  8
5
  6
CONTINUOUS
 10
1279.096
 20
515.8989
 30
0.0
 11
1259.096
 21
515.899
 31
0.0
  0
LINE
  5
428
  8
5
  6
CONTINUOUS
 10
1279.096
 20
401.199
 30
0.0
 11
1279.096
 21
383.8989
 31
0.0
  0
LINE
  5
429
  8
5
  6
CONTINUOUS
 10
1279.096
 20
435.6989
 30
0.0
 11
1279.096
 21
418.499
 31
0.0
  0
LINE
  5
42A
  8
5
  6
CONTINUOUS
 10
1259.096
 20
497.599
 30
0.0
 11
1279.096
 21
497.599
 31
0.0
  0
LINE
  5
42B
  8
5
  6
CONTINUOUS
 10
1279.096
 20
465.5989
 30
0.0
 11
1279.096
 21
450.5991
 31
0.0
  0
LINE
  5
42C
  8
5
  6
CONTINUOUS
 10
1279.096
 20
497.599
 30
0.0
 11
1279.096
 21
480.5991
 31
0.0
  0
LINE
  5
42D
  8
5
  6
CONTINUOUS
 10
1279.096
 20
516.0991
 30
0.0
 11
1279.096
 21
515.8989
 31
0.0
  0
LINE
  5
42E
  8
5
  6
CONTINUOUS
 10
1278.973
 20
286.3991
 30
0.0
 11
1259.096
 21
286.399
 31
0.0
  0
LINE
  5
42F
  8
5
  6
CONTINUOUS
 10
1279.096
 20
418.499
 30
0.0
 11
1279.096
 21
401.199
 31
0.0
  0
LINE
  5
430
  8
5
  6
CONTINUOUS
 10
1404.096
 20
515.8989
 30
0.0
 11
1279.096
 21
515.8989
 31
0.0
  0
LINE
  5
431
  8
5
  6
CONTINUOUS
 10
1279.096
 20
497.599
 30
0.0
 11
1404.096
 21
497.599
 31
0.0
  0
LINE
  5
432
  8
5
  6
CONTINUOUS
 10
1279.096
 20
465.5989
 30
0.0
 11
1404.096
 21
465.5989
 31
0.0
  0
LINE
  5
433
  8
5
  6
CONTINUOUS
 10
1404.096
 20
480.5991
 30
0.0
 11
1279.096
 21
480.5991
 31
0.0
  0
LINE
  5
434
  8
5
  6
CONTINUOUS
 10
1279.096
 20
435.6989
 30
0.0
 11
1404.096
 21
435.6989
 31
0.0
  0
LINE
  5
435
  8
5
  6
CONTINUOUS
 10
1404.096
 20
450.5991
 30
0.0
 11
1279.096
 21
450.5991
 31
0.0
  0
LINE
  5
436
  8
5
  6
CONTINUOUS
 10
1279.096
 20
401.199
 30
0.0
 11
1259.096
 21
401.199
 31
0.0
  0
LINE
  5
437
  8
5
  6
CONTINUOUS
 10
1279.096
 20
401.199
 30
0.0
 11
1404.096
 21
401.199
 31
0.0
  0
LINE
  5
438
  8
5
  6
CONTINUOUS
 10
1404.096
 20
418.499
 30
0.0
 11
1279.096
 21
418.499
 31
0.0
  0
LINE
  5
439
  8
5
  6
CONTINUOUS
 10
1259.096
 20
418.499
 30
0.0
 11
1279.096
 21
418.499
 31
0.0
  0
LINE
  5
43A
  8
5
  6
CONTINUOUS
 10
1404.096
 20
383.8989
 30
0.0
 11
1279.096
 21
383.8989
 31
0.0
  0
LINE
  5
43B
  8
5
  6
CONTINUOUS
 10
1279.096
 20
366.6991
 30
0.0
 11
1404.096
 21
366.6991
 31
0.0
  0
LINE
  5
43C
  8
5
  6
CONTINUOUS
 10
1404.096
 20
351.7989
 30
0.0
 11
1279.096
 21
351.7989
 31
0.0
  0
LINE
  5
43D
  8
5
  6
CONTINUOUS
 10
1279.096
 20
336.799
 30
0.0
 11
1404.096
 21
336.799
 31
0.0
  0
LINE
  5
43E
  8
5
  6
CONTINUOUS
 10
1404.096
 20
321.7989
 30
0.0
 11
1279.096
 21
321.7989
 31
0.0
  0
LINE
  5
43F
  8
5
  6
CONTINUOUS
 10
1279.096
 20
304.799
 30
0.0
 11
1404.096
 21
304.799
 31
0.0
  0
LINE
  5
440
  8
5
  6
CONTINUOUS
 10
965.8798
 20
623.9996
 30
0.0
 11
1406.312
 21
623.9996
 31
0.0
  0
LINE
  5
441
  8
5
  6
CONTINUOUS
 10
968.0959
 20
606.7989
 30
0.0
 11
965.8733
 21
623.9496
 31
0.0
  0
LINE
  5
442
  8
5
  6
CONTINUOUS
 10
1404.096
 20
606.7989
 30
0.0
 11
1078.134
 21
606.799
 31
0.0
  0
LINE
  5
443
  8
5
  6
CONTINUOUS
 10
983.0578
 20
606.799
 30
0.0
 11
968.0959
 21
606.7989
 31
0.0
  0
LINE
  5
444
  8
5
  6
CONTINUOUS
 10
1406.318
 20
623.9496
 30
0.0
 11
1404.096
 21
606.7989
 31
0.0
  0
LINE
  5
445
  8
5
  6
CONTINUOUS
 10
1406.312
 20
178.5984
 30
0.0
 11
965.8798
 21
178.5984
 31
0.0
  0
LINE
  5
446
  8
5
  6
CONTINUOUS
 10
1404.096
 20
195.799
 30
0.0
 11
1406.318
 21
178.6484
 31
0.0
  0
LINE
  5
447
  8
5
  6
CONTINUOUS
 10
968.0959
 20
195.799
 30
0.0
 11
1289.058
 21
195.799
 31
0.0
  0
LINE
  5
448
  8
5
  6
CONTINUOUS
 10
1384.134
 20
195.799
 30
0.0
 11
1404.096
 21
195.799
 31
0.0
  0
LINE
  5
449
  8
5
  6
CONTINUOUS
 10
965.8733
 20
178.6484
 30
0.0
 11
968.0959
 21
195.799
 31
0.0
  0
LINE
  5
44A
  8
5
  6
CONTINUOUS
 10
1286.846
 20
212.5902
 30
0.0
 11
1285.423
 21
241.3589
 31
0.0
  0
LINE
  5
44B
  8
5
  6
CONTINUOUS
 10
1404.096
 20
195.799
 30
0.0
 11
1404.096
 21
241.3589
 31
0.0
  0
LINE
  5
44C
  8
5
  6
CONTINUOUS
 10
1404.096
 20
241.3589
 30
0.0
 11
1387.768
 21
241.3589
 31
0.0
  0
LINE
  5
44D
  8
5
  6
CONTINUOUS
 10
1387.768
 20
241.3589
 30
0.0
 11
1386.346
 21
212.5902
 31
0.0
  0
LINE
  5
44E
  8
5
  6
CONTINUOUS
 10
1354.596
 20
241.3589
 30
0.0
 11
1318.596
 21
241.3589
 31
0.0
  0
LINE
  5
44F
  8
5
  6
CONTINUOUS
 10
1081.768
 20
561.239
 30
0.0
 11
1404.096
 21
561.239
 31
0.0
  0
LINE
  5
450
  8
5
  6
CONTINUOUS
 10
1404.096
 20
561.239
 30
0.0
 11
1404.096
 21
606.7989
 31
0.0
  0
LINE
  5
451
  8
5
  6
CONTINUOUS
 10
968.0959
 20
606.7989
 30
0.0
 11
968.0959
 21
561.239
 31
0.0
  0
LINE
  5
452
  8
5
  6
CONTINUOUS
 10
968.0959
 20
561.239
 30
0.0
 11
979.4231
 21
561.239
 31
0.0
  0
LINE
  5
453
  8
5
  6
CONTINUOUS
 10
1012.596
 20
561.239
 30
0.0
 11
1048.596
 21
561.239
 31
0.0
  0
LINE
  5
454
  8
5
  6
CONTINUOUS
 10
1406.325
 20
226.7018
 30
0.0
 11
1406.325
 21
178.699
 31
0.0
  0
LINE
  5
455
  8
5
  6
CONTINUOUS
 10
1408.567
 20
196.1991
 30
0.0
 11
1408.567
 21
214.7382
 31
0.0
  0
LINE
  5
456
  8
5
  6
CONTINUOUS
 10
1408.567
 20
587.8597
 30
0.0
 11
1408.567
 21
606.399
 31
0.0
  0
LINE
  5
457
  8
5
  6
CONTINUOUS
 10
1406.325
 20
623.899
 30
0.0
 11
1406.325
 21
575.8961
 31
0.0
  0
LINE
  5
458
  8
5
  6
CONTINUOUS
 10
965.8669
 20
575.8961
 30
0.0
 11
965.8669
 21
623.899
 31
0.0
  0
LINE
  5
459
  8
5
  6
CONTINUOUS
 10
963.6251
 20
606.399
 30
0.0
 11
963.625
 21
587.8597
 31
0.0
  0
LINE
  5
45A
  8
5
  6
CONTINUOUS
 10
1307.096
 20
180.3281
 30
0.0
 11
1289.98
 21
188.8003
 31
0.0
  0
LINE
  5
45B
  8
5
  6
CONTINUOUS
 10
1307.096
 20
198.0058
 30
0.0
 11
1307.096
 21
180.3281
 31
0.0
  0
LINE
  5
45C
  8
5
  6
CONTINUOUS
 10
1289.98
 20
210.8782
 30
0.0
 11
1307.096
 21
198.0058
 31
0.0
  0
LINE
  5
45D
  8
5
  6
CONTINUOUS
 10
1285.423
 20
241.3589
 30
0.0
 11
1259.096
 21
241.3589
 31
0.0
  0
LINE
  5
45E
  8
5
  6
CONTINUOUS
 10
1289.98
 20
188.8003
 30
0.0
 11
1289.98
 21
210.8782
 31
0.0
  0
LINE
  5
45F
  8
5
  6
CONTINUOUS
 10
1366.096
 20
198.0058
 30
0.0
 11
1383.212
 21
210.8782
 31
0.0
  0
LINE
  5
460
  8
5
  6
CONTINUOUS
 10
968.0959
 20
238.799
 30
0.0
 11
968.0959
 21
195.799
 31
0.0
  0
LINE
  5
461
  8
5
  6
CONTINUOUS
 10
1366.096
 20
180.3281
 30
0.0
 11
1366.096
 21
198.0058
 31
0.0
  0
LINE
  5
462
  8
5
  6
CONTINUOUS
 10
1383.212
 20
188.8003
 30
0.0
 11
1366.096
 21
180.3281
 31
0.0
  0
LINE
  5
463
  8
5
  6
CONTINUOUS
 10
1383.212
 20
210.8782
 30
0.0
 11
1383.212
 21
188.8003
 31
0.0
  0
LINE
  5
464
  8
5
  6
CONTINUOUS
 10
1326.596
 20
222.2004
 30
0.0
 11
1318.596
 21
228.6523
 31
0.0
  0
LINE
  5
465
  8
5
  6
CONTINUOUS
 10
1354.596
 20
228.6523
 30
0.0
 11
1346.596
 21
222.2004
 31
0.0
  0
LINE
  5
466
  8
5
  6
CONTINUOUS
 10
1346.596
 20
222.2004
 30
0.0
 11
1326.596
 21
222.2004
 31
0.0
  0
LINE
  5
467
  8
5
  6
CONTINUOUS
 10
1366.096
 20
180.3281
 30
0.0
 11
1307.096
 21
180.3281
 31
0.0
  0
LINE
  5
468
  8
5
  6
CONTINUOUS
 10
1307.096
 20
198.0058
 30
0.0
 11
1366.096
 21
198.0058
 31
0.0
  0
LINE
  5
469
  8
5
  6
CONTINUOUS
 10
1289.98
 20
188.8003
 30
0.0
 11
1286.846
 21
212.5902
 31
0.0
  0
LINE
  5
46A
  8
5
  6
CONTINUOUS
 10
1286.44
 20
251.699
 30
0.0
 11
1289.98
 21
210.8782
 31
0.0
  0
LINE
  5
46B
  8
5
  6
CONTINUOUS
 10
1386.751
 20
251.699
 30
0.0
 11
1383.212
 21
210.8782
 31
0.0
  0
LINE
  5
46C
  8
5
  6
CONTINUOUS
 10
1383.212
 20
188.8003
 30
0.0
 11
1386.346
 21
212.5902
 31
0.0
  0
LINE
  5
46D
  8
5
  6
CONTINUOUS
 10
1354.596
 20
251.699
 30
0.0
 11
1354.596
 21
228.6523
 31
0.0
  0
LINE
  5
46E
  8
5
  6
CONTINUOUS
 10
1318.596
 20
228.6523
 30
0.0
 11
1318.596
 21
251.699
 31
0.0
  0
LINE
  5
46F
  8
5
  6
CONTINUOUS
 10
1604.596
 20
541.2991
 30
0.0
 11
1540.596
 21
624.799
 31
0.0
  0
LINE
  5
470
  8
5
  6
CONTINUOUS
 10
963.625
 20
214.7382
 30
0.0
 11
963.625
 21
196.1991
 31
0.0
  0
LINE
  5
471
  8
5
  6
CONTINUOUS
 10
965.8669
 20
178.699
 30
0.0
 11
965.8669
 21
226.7018
 31
0.0
  0
LINE
  5
472
  8
5
  6
CONTINUOUS
 10
1604.596
 20
541.2991
 30
0.0
 11
1604.596
 21
261.2991
 31
0.0
  0
LINE
  5
473
  8
5
  6
CONTINUOUS
 10
1540.596
 20
177.799
 30
0.0
 11
1604.596
 21
261.2991
 31
0.0
  0
LINE
  5
474
  8
5
  6
CONTINUOUS
 10
1613.596
 20
541.299
 30
0.0
 11
1604.596
 21
541.2991
 31
0.0
  0
LINE
  5
475
  8
5
  6
CONTINUOUS
 10
1604.596
 20
261.2991
 30
0.0
 11
1613.596
 21
261.2991
 31
0.0
  0
LINE
  5
476
  8
5
  6
CONTINUOUS
 10
1472.096
 20
523.5951
 30
0.0
 11
1411.596
 21
523.5951
 31
0.0
  0
LINE
  5
477
  8
5
  6
CONTINUOUS
 10
1472.096
 20
279.003
 30
0.0
 11
1411.596
 21
279.003
 31
0.0
  0
LINE
  5
478
  8
5
  6
CONTINUOUS
 10
1472.096
 20
280.2457
 30
0.0
 11
1540.596
 21
280.2457
 31
0.0
  0
LINE
  5
479
  8
5
  6
CONTINUOUS
 10
1472.096
 20
522.3524
 30
0.0
 11
1540.596
 21
522.3525
 31
0.0
  0
LINE
  5
47A
  8
5
  6
CONTINUOUS
 10
1880.763
 20
1412.974
 30
0.0
 11
1885.906
 21
1404.415
 31
0.0
  0
LINE
  5
47B
  8
5
  6
CONTINUOUS
 10
1406.786
 20
182.2991
 30
0.0
 11
1411.596
 21
182.2991
 31
0.0
  0
LINE
  5
480
  8
5
  6
CONTINUOUS
 10
2305.761
 20
1412.974
 30
0.0
 11
2300.618
 21
1404.415
 31
0.0
  0
LINE
  5
481
  8
5
  6
CONTINUOUS
 10
1889.969
 20
1444.752
 30
0.0
 11
1902.841
 21
1435.052
 31
0.0
  0
LINE
  5
482
  8
5
  6
CONTINUOUS
 10
1880.763
 20
1412.974
 30
0.0
 11
1872.291
 21
1427.074
 31
0.0
  0
LINE
  5
483
  8
5
  6
CONTINUOUS
 10
1872.291
 20
1427.074
 30
0.0
 11
1889.969
 21
1444.752
 31
0.0
  0
LINE
  5
484
  8
5
  6
CONTINUOUS
 10
2296.555
 20
1444.752
 30
0.0
 11
2314.233
 21
1427.074
 31
0.0
  0
LINE
  5
485
  8
5
  6
CONTINUOUS
 10
2314.233
 20
1427.074
 30
0.0
 11
2305.761
 21
1412.974
 31
0.0
  0
LINE
  5
486
  8
5
  6
CONTINUOUS
 10
2283.683
 20
1435.052
 30
0.0
 11
2296.555
 21
1444.752
 31
0.0
  0
LINE
  5
487
  8
5
  6
CONTINUOUS
 10
1902.841
 20
1435.052
 30
0.0
 11
1880.763
 21
1412.974
 31
0.0
  0
LINE
  5
488
  8
5
  6
CONTINUOUS
 10
2305.761
 20
1412.974
 30
0.0
 11
2283.683
 21
1435.052
 31
0.0
  0
LINE
  5
489
  8
5
  6
CONTINUOUS
 10
2213.402
 20
1472.781
 30
0.0
 11
2213.46
 21
1471.122
 31
0.0
  0
LINE
  5
4A1
  8
7
  6
DASHED
 10
896.5958
 20
1464.001
 30
0.0
 11
878.5958
 21
1464.001
 31
0.0
  0
LINE
  5
4A2
  8
7
  6
DASHED
 10
896.5958
 20
1445.49
 30
0.0
 11
878.5958
 21
1445.501
 31
0.0
  0
LINE
  5
4A3
  8
7
  6
DASHED
 10
896.5958
 20
1002.061
 30
0.0
 11
878.5958
 21
1002.061
 31
0.0
  0
LINE
  5
4A4
  8
7
  6
DASHED
 10
896.5958
 20
983.5611
 30
0.0
 11
878.5958
 21
983.5611
 31
0.0
  0
LINE
  5
4A5
  8
7
  6
DASHED
 10
896.5959
 20
641.5188
 30
0.0
 11
878.5959
 21
641.5188
 31
0.0
  0
LINE
  5
4A6
  8
7
  6
DASHED
 10
896.5959
 20
623.0189
 30
0.0
 11
878.5959
 21
623.0189
 31
0.0
  0
LINE
  5
4A7
  8
7
  6
DASHED
 10
896.5959
 20
487.7199
 30
0.0
 11
878.5959
 21
487.7199
 31
0.0
  0
LINE
  5
4A8
  8
7
  6
DASHED
 10
896.5959
 20
506.2198
 30
0.0
 11
878.5959
 21
506.2198
 31
0.0
  0
LINE
  5
4A9
  8
7
  6
DASHED
 10
896.5959
 20
314.8782
 30
0.0
 11
878.5959
 21
314.8782
 31
0.0
  0
LINE
  5
4AA
  8
7
  6
DASHED
 10
896.5959
 20
296.3781
 30
0.0
 11
878.5959
 21
296.3781
 31
0.0
  0
LINE
  5
4AB
  8
7
  6
DASHED
 10
896.5959
 20
179.579
 30
0.0
 11
878.5959
 21
179.579
 31
0.0
  0
LINE
  5
4AC
  8
7
  6
DASHED
 10
896.5959
 20
161.0791
 30
0.0
 11
878.5959
 21
161.0791
 31
0.0
  0
LINE
  5
4AD
  8
7
  6
DASHED
 10
896.5958
 20
1118.86
 30
0.0
 11
878.5958
 21
1118.86
 31
0.0
  0
LINE
  5
4AE
  8
7
  6
DASHED
 10
896.5958
 20
1137.36
 30
0.0
 11
878.5958
 21
1137.36
 31
0.0
  0
LINE
  5
4AF
  8
7
  6
DASHED
 10
896.5958
 20
1328.702
 30
0.0
 11
878.5958
 21
1328.702
 31
0.0
  0
LINE
  5
4B0
  8
7
  6
DASHED
 10
896.5958
 20
1310.202
 30
0.0
 11
878.5958
 21
1310.202
 31
0.0
  0
LINE
  5
4B1
  8
6
  6
CENTER
 10
904.0958
 20
1128.11
 30
0.0
 11
866.0958
 21
1128.11
 31
0.0
  0
LINE
  5
4B2
  8
6
  6
CENTER
 10
904.0958
 20
992.8112
 30
0.0
 11
866.0958
 21
992.8112
 31
0.0
  0
LINE
  5
4B3
  8
6
  6
CENTER
 10
904.0958
 20
1319.452
 30
0.0
 11
866.0958
 21
1319.452
 31
0.0
  0
LINE
  5
4B4
  8
6
  6
CENTER
 10
904.0958
 20
1454.735
 30
0.0
 11
866.0958
 21
1454.758
 31
0.0
  0
LINE
  5
4B5
  8
6
  6
CENTER
 10
904.0959
 20
170.3291
 30
0.0
 11
866.0959
 21
170.3291
 31
0.0
  0
LINE
  5
4B6
  8
6
  6
CENTER
 10
904.0959
 20
305.6281
 30
0.0
 11
866.0959
 21
305.6281
 31
0.0
  0
LINE
  5
4B7
  8
6
  6
CENTER
 10
904.0959
 20
496.9699
 30
0.0
 11
866.0959
 21
496.9699
 31
0.0
  0
LINE
  5
4B8
  8
6
  6
CENTER
 10
904.0959
 20
632.2689
 30
0.0
 11
866.0959
 21
632.2689
 31
0.0
  0
ARC
  5
4B9
  8
6
  6
CENTER
 10
2093.262
 20
1223.781
 30
0.0
 40
250.0
 50
18.08247
 51
26.72072
  0
LINE
  5
4BA
  8
6
  6
CENTER
 10
2308.526
 20
1312.946
 30
0.0
 11
2337.397
 21
1324.905
 31
0.0
  0
ARC
  5
4BB
  8
6
  6
CENTER
 10
2093.262
 20
1223.781
 30
0.0
 40
250.0
 50
332.1428
 51
342.1568
  0
LINE
  5
4BC
  8
6
  6
CENTER
 10
2308.526
 20
1134.616
 30
0.0
 11
2337.397
 21
1122.657
 31
0.0
  0
ARC
  5
4BD
  8
6
  6
CENTER
 10
2093.262
 20
1223.781
 30
0.0
 40
250.0
 50
287.8131
 51
296.6789
  0
LINE
  5
4BE
  8
6
  6
CENTER
 10
2182.427
 20
1008.517
 30
0.0
 11
2194.386
 21
979.6458
 31
0.0
  0
ARC
  5
4BF
  8
6
  6
CENTER
 10
2093.262
 20
1223.781
 30
0.0
 40
250.0
 50
241.9338
 51
252.2748
  0
LINE
  5
4C0
  8
6
  6
CENTER
 10
2004.097
 20
1008.517
 30
0.0
 11
1992.138
 21
979.6458
 31
0.0
  0
ARC
  5
4C1
  8
6
  6
CENTER
 10
2093.262
 20
1223.781
 30
0.0
 40
250.0
 50
197.0444
 51
207.5812
  0
LINE
  5
4C2
  8
6
  6
CENTER
 10
1877.998
 20
1134.616
 30
0.0
 11
1849.127
 21
1122.657
 31
0.0
  0
ARC
  5
4C3
  8
6
  6
CENTER
 10
2093.262
 20
1223.781
 30
0.0
 40
250.0
 50
153.0924
 51
162.2464
  0
LINE
  5
4C4
  8
6
  6
CENTER
 10
1877.998
 20
1312.946
 30
0.0
 11
1849.127
 21
1324.905
 31
0.0
  0
ARC
  5
4C5
  8
6
  6
CENTER
 10
2093.262
 20
1223.781
 30
0.0
 40
250.0
 50
107.7805
 51
117.2171
  0
LINE
  5
4C6
  8
6
  6
CENTER
 10
2004.097
 20
1439.045
 30
0.0
 11
1992.138
 21
1467.916
 31
0.0
  0
ARC
  5
4C7
  8
6
  6
CENTER
 10
2093.262
 20
1223.781
 30
0.0
 40
250.0
 50
62.77481
 51
71.76192
  0
LINE
  5
4C8
  8
6
  6
CENTER
 10
2182.427
 20
1439.045
 30
0.0
 11
2194.386
 21
1467.916
 31
0.0
  0
LINE
  5
4C9
  8
5
  6
CONTINUOUS
 10
1910.51
 20
1429.273
 30
0.0
 11
1902.841
 21
1435.052
 31
0.0
  0
LINE
  5
4CE
  8
5
  6
CONTINUOUS
 10
2276.014
 20
1429.273
 30
0.0
 11
2283.683
 21
1435.052
 31
0.0
  0
LINE
  5
4CF
  8
5
  6
CONTINUOUS
 10
1973.064
 20
1471.122
 30
0.0
 11
1973.122
 21
1472.781
 31
0.0
  0
LINE
  5
4D3
  8
6
  6
CENTER
 10
713.5958
 20
1223.781
 30
0.0
 11
1638.596
 21
1223.781
 31
0.0
  0
LINE
  5
4DC
  8
0
  6
CONTINUOUS
 10
748.5958
 20
1253.781
 30
0.0
 11
757.5957
 21
1252.399
 31
0.0
  0
LINE
  5
4DD
  8
0
  6
CONTINUOUS
 10
868.5957
 20
1253.781
 30
0.0
 11
859.5958
 21
1252.399
 31
0.0
  0
LINE
  5
4DE
  8
6
  6
CENTER
 10
989.592099
 20
401.298851
 30
0.0
 11
713.5959
 21
401.299
 31
0.0
  0
LINE
  5
4DF
  8
5
  6
CONTINUOUS
 10
1084.909232
 20
1555.120798
 30
0.0
 11
1098.687232
 21
1555.121298
 31
0.0
  0
LINE
  5
4E0
  8
5
  6
CONTINUOUS
 10
1098.687232
 20
1553.021298
 30
0.0
 11
1084.909232
 21
1553.020798
 31
0.0
  0
LINE
  5
4E1
  8
5
  6
CONTINUOUS
 10
1084.910232
 20
1526.954598
 30
0.0
 11
1098.688232
 21
1526.954998
 31
0.0
  0
LINE
  5
4E2
  8
5
  6
CONTINUOUS
 10
1049.888232
 20
1555.119498
 30
0.0
 11
1064.567232
 21
1555.120098
 31
0.0
  0
LINE
  5
4E3
  8
5
  6
CONTINUOUS
 10
1065.317232
 20
1553.020198
 30
0.0
 11
1049.888232
 21
1553.019498
 31
0.0
  0
LINE
  5
4E4
  8
5
  6
CONTINUOUS
 10
1049.888232
 20
1537.710698
 30
0.0
 11
1061.282232
 21
1537.710998
 31
0.0
  0
LINE
  5
4E5
  8
5
  6
CONTINUOUS
 10
1047.788232
 20
1537.710698
 30
0.0
 11
1047.788232
 21
1553.019498
 31
0.0
  0
LINE
  5
4E6
  8
5
  6
CONTINUOUS
 10
1032.733232
 20
1553.019098
 30
0.0
 11
1023.791232
 21
1526.952398
 31
0.0
  0
LINE
  5
4E7
  8
5
  6
CONTINUOUS
 10
1049.888232
 20
1553.019498
 30
0.0
 11
1049.888232
 21
1537.710698
 31
0.0
  0
LINE
  5
4E8
  8
5
  6
CONTINUOUS
 10
1023.791232
 20
1526.952398
 30
0.0
 11
1032.654232
 21
1526.952698
 31
0.0
  0
LINE
  5
4E9
  8
5
  6
CONTINUOUS
 10
1032.654232
 20
1526.952698
 30
0.0
 11
1036.344232
 21
1537.710198
 31
0.0
  0
LINE
  5
4EA
  8
5
  6
CONTINUOUS
 10
1036.344232
 20
1537.710198
 30
0.0
 11
1047.788232
 21
1537.710698
 31
0.0
  0
LINE
  5
4EB
  8
5
  6
CONTINUOUS
 10
1033.453232
 20
1555.119098
 30
0.0
 11
1047.788232
 21
1555.119498
 31
0.0
  0
LINE
  5
4EC
  8
5
  6
CONTINUOUS
 10
1047.788232
 20
1553.019498
 30
0.0
 11
1032.733232
 21
1553.019098
 31
0.0
  0
LINE
  5
4ED
  8
5
  6
CONTINUOUS
 10
1074.622232
 20
1526.954198
 30
0.0
 11
1065.317232
 21
1553.020198
 31
0.0
  0
LINE
  5
4EE
  8
5
  6
CONTINUOUS
 10
1084.909232
 20
1553.020798
 30
0.0
 11
1084.910232
 21
1526.954598
 31
0.0
  0
LINE
  5
4EF
  8
5
  6
CONTINUOUS
 10
1065.122232
 20
1526.953798
 30
0.0
 11
1074.622232
 21
1526.954198
 31
0.0
  0
LINE
  5
4F0
  8
5
  6
CONTINUOUS
 10
1061.282232
 20
1537.710998
 30
0.0
 11
1065.122232
 21
1526.953798
 31
0.0
  0
LINE
  5
4F1
  8
5
  6
CONTINUOUS
 10
1130.554232
 20
1555.122398
 30
0.0
 11
1144.333232
 21
1555.122798
 31
0.0
  0
LINE
  5
4F2
  8
5
  6
CONTINUOUS
 10
1130.554232
 20
1553.022398
 30
0.0
 11
1144.333232
 21
1553.022798
 31
0.0
  0
LINE
  5
4F3
  8
5
  6
CONTINUOUS
 10
1130.555232
 20
1526.956098
 30
0.0
 11
1144.334232
 21
1526.956598
 31
0.0
  0
LINE
  5
4F4
  8
5
  6
CONTINUOUS
 10
1098.688232
 20
1526.954998
 30
0.0
 11
1098.687232
 21
1553.021298
 31
0.0
  0
LINE
  5
4F5
  8
5
  6
CONTINUOUS
 10
1100.787232
 20
1553.021298
 30
0.0
 11
1100.788232
 21
1526.954998
 31
0.0
  0
ARC
  5
4F6
  8
5
  6
CONTINUOUS
 10
1103.604232
 20
1540.977798
 30
0.0
 40
16.83332
 50
2.745839
 51
45.68318
  0
LINE
  5
4F7
  8
5
  6
CONTINUOUS
 10
1130.554232
 20
1553.022398
 30
0.0
 11
1130.555232
 21
1526.956098
 31
0.0
  0
ARC
  5
4F8
  8
5
  6
CONTINUOUS
 10
1105.590232
 20
1541.783698
 30
0.0
 40
14.82849
 50
270.0019
 51
0.0019
  0
LINE
  5
4F9
  8
5
  6
CONTINUOUS
 10
1100.788232
 20
1526.954998
 30
0.0
 11
1105.590232
 21
1526.955198
 31
0.0
  0
LINE
  5
4FA
  8
5
  6
CONTINUOUS
 10
1115.364232
 20
1553.021798
 30
0.0
 11
1100.787232
 21
1553.021298
 31
0.0
  0
LINE
  5
4FB
  8
5
  6
CONTINUOUS
 10
1100.787232
 20
1555.121298
 30
0.0
 11
1112.732232
 21
1555.121698
 31
0.0
  0
ARC
  5
4FC
  8
5
  6
CONTINUOUS
 10
1103.604232
 20
1540.977798
 30
0.0
 40
16.83332
 50
57.16493
 51
82.74766
  0
ARC
  5
4FD
  8
5
  6
CONTINUOUS
 10
1102.558232
 20
1570.827498
 30
0.0
 40
13.5281
 50
283.5581
 51
354.7072
  0
LINE
  5
4FE
  8
5
  6
CONTINUOUS
 10
1146.433232
 20
1553.022798
 30
0.0
 11
1146.434232
 21
1526.956598
 31
0.0
  0
ARC
  5
4FF
  8
5
  6
CONTINUOUS
 10
1149.250232
 20
1540.979298
 30
0.0
 40
16.83332
 50
2.745839
 51
45.68349
  0
LINE
  5
500
  8
5
  6
CONTINUOUS
 10
1144.334232
 20
1526.956598
 30
0.0
 11
1144.333232
 21
1553.022798
 31
0.0
  0
ARC
  5
501
  8
5
  6
CONTINUOUS
 10
1151.235232
 20
1541.785198
 30
0.0
 40
14.82849
 50
270.0019
 51
0.0019
  0
LINE
  5
502
  8
5
  6
CONTINUOUS
 10
1146.434232
 20
1526.956598
 30
0.0
 11
1151.236232
 21
1526.956798
 31
0.0
  0
LINE
  5
503
  8
5
  6
CONTINUOUS
 10
1146.433232
 20
1555.122798
 30
0.0
 11
1158.377232
 21
1555.123298
 31
0.0
  0
ARC
  5
504
  8
5
  6
CONTINUOUS
 10
1149.250232
 20
1540.979298
 30
0.0
 40
16.83332
 50
57.16491
 51
82.74766
  0
ARC
  5
505
  8
5
  6
CONTINUOUS
 10
1148.203232
 20
1570.829098
 30
0.0
 40
13.5281
 50
283.5581
 51
354.7072
  0
LINE
  5
506
  8
5
  6
CONTINUOUS
 10
1161.010232
 20
1553.023498
 30
0.0
 11
1146.433232
 21
1553.022798
 31
0.0
  0
LINE
  5
507
  8
5
  6
CONTINUOUS
 10
1098.687232
 20
1580.018498
 30
0.0
 11
1084.908232
 21
1580.018098
 31
0.0
  0
LINE
  5
508
  8
5
  6
CONTINUOUS
 10
1055.680232
 20
1580.017098
 30
0.0
 11
1049.887232
 21
1580.016898
 31
0.0
  0
LINE
  5
509
  8
5
  6
CONTINUOUS
 10
1041.994232
 20
1580.016598
 30
0.0
 11
1033.453232
 21
1555.119098
 31
0.0
  0
LINE
  5
50A
  8
5
  6
CONTINUOUS
 10
1047.788232
 20
1555.119498
 30
0.0
 11
1047.787232
 21
1580.016798
 31
0.0
  0
LINE
  5
50B
  8
5
  6
CONTINUOUS
 10
1047.787232
 20
1580.016798
 30
0.0
 11
1041.994232
 21
1580.016598
 31
0.0
  0
LINE
  5
50C
  8
5
  6
CONTINUOUS
 10
1049.887232
 20
1580.016898
 30
0.0
 11
1049.888232
 21
1555.119498
 31
0.0
  0
LINE
  5
50D
  8
5
  6
CONTINUOUS
 10
1064.567232
 20
1555.120098
 30
0.0
 11
1055.680232
 21
1580.017098
 31
0.0
  0
LINE
  5
50E
  8
5
  6
CONTINUOUS
 10
1084.908232
 20
1580.018098
 30
0.0
 11
1084.909232
 21
1555.120798
 31
0.0
  0
LINE
  5
50F
  8
5
  6
CONTINUOUS
 10
1144.332232
 20
1580.020098
 30
0.0
 11
1130.554232
 21
1580.019598
 31
0.0
  0
LINE
  5
510
  8
5
  6
CONTINUOUS
 10
1098.687232
 20
1555.121298
 30
0.0
 11
1098.687232
 21
1580.018498
 31
0.0
  0
ARC
  5
511
  8
5
  6
CONTINUOUS
 10
1105.589232
 20
1569.579298
 30
0.0
 40
10.43949
 50
0.001947
 51
90.00195
  0
LINE
  5
512
  8
5
  6
CONTINUOUS
 10
1105.588232
 20
1580.018798
 30
0.0
 11
1100.787232
 21
1580.018698
 31
0.0
  0
LINE
  5
513
  8
5
  6
CONTINUOUS
 10
1100.787232
 20
1580.018698
 30
0.0
 11
1100.787232
 21
1555.121298
 31
0.0
  0
LINE
  5
514
  8
5
  6
CONTINUOUS
 10
1130.554232
 20
1580.019598
 30
0.0
 11
1130.554232
 21
1555.122398
 31
0.0
  0
LINE
  5
515
  8
5
  6
CONTINUOUS
 10
1144.333232
 20
1555.122798
 30
0.0
 11
1144.332232
 21
1580.020098
 31
0.0
  0
ARC
  5
516
  8
5
  6
CONTINUOUS
 10
1151.234232
 20
1569.580798
 30
0.0
 40
10.43949
 50
0.001947
 51
90.00195
  0
LINE
  5
517
  8
5
  6
CONTINUOUS
 10
1151.234232
 20
1580.020298
 30
0.0
 11
1146.432232
 21
1580.020198
 31
0.0
  0
LINE
  5
518
  8
5
  6
CONTINUOUS
 10
1146.432232
 20
1580.020198
 30
0.0
 11
1146.433232
 21
1555.122798
 31
0.0
  0
LINE
  5
553
  8
5
  6
CONTINUOUS
 10
407.185135
 20
1250.750619
 30
0.0
 11
396.646635
 21
1250.750339
 31
0.0
  0
LINE
  5
554
  8
5
  6
CONTINUOUS
 10
396.591335
 20
1232.503859
 30
0.0
 11
399.174335
 21
1240.034109
 31
0.0
  0
LINE
  5
555
  8
5
  6
CONTINUOUS
 10
390.387235
 20
1232.503649
 30
0.0
 11
396.591335
 21
1232.503859
 31
0.0
  0
LINE
  5
556
  8
5
  6
CONTINUOUS
 10
396.646635
 20
1250.750339
 30
0.0
 11
390.387235
 21
1232.503649
 31
0.0
  0
LINE
  5
557
  8
5
  6
CONTINUOUS
 10
419.318935
 20
1232.504629
 30
0.0
 11
425.968935
 21
1232.504909
 31
0.0
  0
LINE
  5
558
  8
5
  6
CONTINUOUS
 10
425.968935
 20
1232.504909
 30
0.0
 11
419.455435
 21
1250.751109
 31
0.0
  0
LINE
  5
559
  8
5
  6
CONTINUOUS
 10
419.455435
 20
1250.751109
 30
0.0
 11
408.655135
 21
1250.750619
 31
0.0
  0
LINE
  5
55A
  8
5
  6
CONTINUOUS
 10
408.655135
 20
1240.034459
 30
0.0
 11
416.630935
 21
1240.034669
 31
0.0
  0
LINE
  5
55B
  8
5
  6
CONTINUOUS
 10
416.630935
 20
1240.034669
 30
0.0
 11
419.318935
 21
1232.504629
 31
0.0
  0
LINE
  5
55C
  8
5
  6
CONTINUOUS
 10
399.174335
 20
1240.034109
 30
0.0
 11
407.185135
 21
1240.034459
 31
0.0
  0
LINE
  5
55D
  8
5
  6
CONTINUOUS
 10
407.185135
 20
1240.034459
 30
0.0
 11
407.185135
 21
1250.750619
 31
0.0
  0
LINE
  5
55E
  8
5
  6
CONTINUOUS
 10
408.655135
 20
1250.750619
 30
0.0
 11
408.655135
 21
1240.034459
 31
0.0
  0
LINE
  5
55F
  8
5
  6
CONTINUOUS
 10
442.814435
 20
1250.751879
 30
0.0
 11
433.169835
 21
1250.751529
 31
0.0
  0
LINE
  5
560
  8
5
  6
CONTINUOUS
 10
433.170535
 20
1232.505189
 30
0.0
 11
442.815135
 21
1232.505469
 31
0.0
  0
LINE
  5
561
  8
5
  6
CONTINUOUS
 10
433.169835
 20
1250.751529
 30
0.0
 11
433.170535
 21
1232.505189
 31
0.0
  0
LINE
  5
562
  8
5
  6
CONTINUOUS
 10
442.815135
 20
1232.505469
 30
0.0
 11
442.814435
 21
1250.751879
 31
0.0
  0
ARC
  5
563
  8
5
  6
CONTINUOUS
 10
479.598035
 20
1242.886609
 30
0.0
 40
10.379943
 50
270.0019
 51
0.0019
  0
LINE
  5
564
  8
5
  6
CONTINUOUS
 10
465.121335
 20
1250.752649
 30
0.0
 11
474.766635
 21
1250.752929
 31
0.0
  0
LINE
  5
565
  8
5
  6
CONTINUOUS
 10
465.122035
 20
1232.506239
 30
0.0
 11
474.767335
 21
1232.506589
 31
0.0
  0
LINE
  5
566
  8
5
  6
CONTINUOUS
 10
454.488335
 20
1250.752229
 30
0.0
 11
444.284435
 21
1250.751879
 31
0.0
  0
LINE
  5
567
  8
5
  6
CONTINUOUS
 10
444.285135
 20
1232.505469
 30
0.0
 11
447.646535
 21
1232.505609
 31
0.0
  0
ARC
  5
568
  8
5
  6
CONTINUOUS
 10
447.646535
 20
1242.885559
 30
0.0
 40
10.379943
 50
270.0019
 51
0.0019
  0
LINE
  5
569
  8
5
  6
CONTINUOUS
 10
444.284435
 20
1250.751879
 30
0.0
 11
444.285135
 21
1232.505469
 31
0.0
  0
ARC
  5
56A
  8
5
  6
CONTINUOUS
 10
446.256335
 20
1242.321429
 30
0.0
 40
11.783324
 50
2.745839
 51
45.68318
  0
LINE
  5
56B
  8
5
  6
CONTINUOUS
 10
465.121335
 20
1250.752649
 30
0.0
 11
465.122035
 21
1232.506239
 31
0.0
  0
LINE
  5
56C
  8
5
  6
CONTINUOUS
 10
486.440535
 20
1250.753419
 30
0.0
 11
476.236635
 21
1250.752929
 31
0.0
  0
LINE
  5
56D
  8
5
  6
CONTINUOUS
 10
476.237335
 20
1232.506589
 30
0.0
 11
479.598735
 21
1232.506729
 31
0.0
  0
LINE
  5
56E
  8
5
  6
CONTINUOUS
 10
476.236635
 20
1250.752929
 30
0.0
 11
476.237335
 21
1232.506589
 31
0.0
  0
ARC
  5
56F
  8
5
  6
CONTINUOUS
 10
478.208535
 20
1242.322479
 30
0.0
 40
11.783324
 50
2.745839
 51
45.68349
  0
LINE
  5
570
  8
5
  6
CONTINUOUS
 10
474.767335
 20
1232.506589
 30
0.0
 11
474.766635
 21
1250.752929
 31
0.0
  0
LINE
  5
571
  8
5
  6
CONTINUOUS
 10
403.129335
 20
1269.648589
 30
0.0
 11
397.150635
 21
1252.220339
 31
0.0
  0
LINE
  5
572
  8
5
  6
CONTINUOUS
 10
397.150635
 20
1252.220339
 30
0.0
 11
407.185135
 21
1252.220619
 31
0.0
  0
LINE
  5
573
  8
5
  6
CONTINUOUS
 10
408.655135
 20
1252.220619
 30
0.0
 11
418.930435
 21
1252.221039
 31
0.0
  0
LINE
  5
574
  8
5
  6
CONTINUOUS
 10
412.709535
 20
1269.648939
 30
0.0
 11
408.654435
 21
1269.648799
 31
0.0
  0
LINE
  5
575
  8
5
  6
CONTINUOUS
 10
408.654435
 20
1269.648799
 30
0.0
 11
408.655135
 21
1252.220619
 31
0.0
  0
LINE
  5
576
  8
5
  6
CONTINUOUS
 10
418.930435
 20
1252.221039
 30
0.0
 11
412.709535
 21
1269.648939
 31
0.0
  0
LINE
  5
577
  8
5
  6
CONTINUOUS
 10
407.185135
 20
1252.220619
 30
0.0
 11
407.184435
 21
1269.648729
 31
0.0
  0
LINE
  5
578
  8
5
  6
CONTINUOUS
 10
407.184435
 20
1269.648729
 30
0.0
 11
403.129335
 21
1269.648589
 31
0.0
  0
LINE
  5
579
  8
5
  6
CONTINUOUS
 10
442.814435
 20
1252.221879
 30
0.0
 11
442.814435
 21
1269.649919
 31
0.0
  0
LINE
  5
57A
  8
5
  6
CONTINUOUS
 10
433.169135
 20
1269.649639
 30
0.0
 11
433.169835
 21
1252.221529
 31
0.0
  0
LINE
  5
57B
  8
5
  6
CONTINUOUS
 10
442.814435
 20
1269.649919
 30
0.0
 11
433.169135
 21
1269.649639
 31
0.0
  0
LINE
  5
57C
  8
5
  6
CONTINUOUS
 10
433.169835
 20
1252.221529
 30
0.0
 11
442.814435
 21
1252.221879
 31
0.0
  0
LINE
  5
57D
  8
5
  6
CONTINUOUS
 10
465.121335
 20
1252.222649
 30
0.0
 11
474.766635
 21
1252.222929
 31
0.0
  0
LINE
  5
57E
  8
5
  6
CONTINUOUS
 10
474.765935
 20
1269.651039
 30
0.0
 11
465.121335
 21
1269.650689
 31
0.0
  0
LINE
  5
57F
  8
5
  6
CONTINUOUS
 10
465.121335
 20
1269.650689
 30
0.0
 11
465.121335
 21
1252.222649
 31
0.0
  0
LINE
  5
580
  8
5
  6
CONTINUOUS
 10
444.284435
 20
1252.221879
 30
0.0
 11
452.645935
 21
1252.222159
 31
0.0
  0
ARC
  5
581
  8
5
  6
CONTINUOUS
 10
446.256335
 20
1242.321429
 30
0.0
 40
11.783324
 50
57.16493
 51
82.74766
  0
ARC
  5
582
  8
5
  6
CONTINUOUS
 10
445.524135
 20
1263.216219
 30
0.0
 40
9.46967
 50
283.5581
 51
354.7072
  0
LINE
  5
583
  8
5
  6
CONTINUOUS
 10
447.645135
 20
1269.650129
 30
0.0
 11
444.284435
 21
1269.650059
 31
0.0
  0
LINE
  5
584
  8
5
  6
CONTINUOUS
 10
444.284435
 20
1269.650059
 30
0.0
 11
444.284435
 21
1252.221879
 31
0.0
  0
ARC
  5
585
  8
5
  6
CONTINUOUS
 10
447.645835
 20
1262.342479
 30
0.0
 40
7.307643
 50
0.001947
 51
90.00195
  0
LINE
  5
586
  8
5
  6
CONTINUOUS
 10
474.766635
 20
1252.222929
 30
0.0
 11
474.765935
 21
1269.651039
 31
0.0
  0
LINE
  5
587
  8
5
  6
CONTINUOUS
 10
476.236635
 20
1252.222929
 30
0.0
 11
484.597435
 21
1252.223279
 31
0.0
  0
ARC
  5
588
  8
5
  6
CONTINUOUS
 10
478.208535
 20
1242.322479
 30
0.0
 40
11.783324
 50
57.16491
 51
82.74766
  0
ARC
  5
589
  8
5
  6
CONTINUOUS
 10
477.475635
 20
1263.217339
 30
0.0
 40
9.46967
 50
283.5581
 51
354.7072
  0
LINE
  5
58A
  8
5
  6
CONTINUOUS
 10
479.597335
 20
1269.651179
 30
0.0
 11
476.235935
 21
1269.651109
 31
0.0
  0
LINE
  5
58B
  8
5
  6
CONTINUOUS
 10
476.235935
 20
1269.651109
 30
0.0
 11
476.236635
 21
1252.222929
 31
0.0
  0
ARC
  5
58C
  8
5
  6
CONTINUOUS
 10
479.597335
 20
1262.343529
 30
0.0
 40
7.307643
 50
0.001947
 51
90.00195
  0
LINE
  5
58D
  8
5
  6
CONTINUOUS
 10
2070.101207
 20
1590.034123
 30
0.0
 11
2059.562707
 21
1590.033843
 31
0.0
  0
LINE
  5
58E
  8
5
  6
CONTINUOUS
 10
2059.507407
 20
1571.787363
 30
0.0
 11
2062.090407
 21
1579.317613
 31
0.0
  0
LINE
  5
58F
  8
5
  6
CONTINUOUS
 10
2053.303307
 20
1571.787153
 30
0.0
 11
2059.507407
 21
1571.787363
 31
0.0
  0
LINE
  5
590
  8
5
  6
CONTINUOUS
 10
2059.562707
 20
1590.033843
 30
0.0
 11
2053.303307
 21
1571.787153
 31
0.0
  0
LINE
  5
591
  8
5
  6
CONTINUOUS
 10
2082.235007
 20
1571.788133
 30
0.0
 11
2088.885007
 21
1571.788413
 31
0.0
  0
LINE
  5
592
  8
5
  6
CONTINUOUS
 10
2088.885007
 20
1571.788413
 30
0.0
 11
2082.371507
 21
1590.034613
 31
0.0
  0
LINE
  5
593
  8
5
  6
CONTINUOUS
 10
2082.371507
 20
1590.034613
 30
0.0
 11
2071.571207
 21
1590.034123
 31
0.0
  0
LINE
  5
594
  8
5
  6
CONTINUOUS
 10
2071.571207
 20
1579.317963
 30
0.0
 11
2079.547007
 21
1579.318173
 31
0.0
  0
LINE
  5
595
  8
5
  6
CONTINUOUS
 10
2079.547007
 20
1579.318173
 30
0.0
 11
2082.235007
 21
1571.788133
 31
0.0
  0
LINE
  5
596
  8
5
  6
CONTINUOUS
 10
2062.090407
 20
1579.317613
 30
0.0
 11
2070.101207
 21
1579.317963
 31
0.0
  0
LINE
  5
597
  8
5
  6
CONTINUOUS
 10
2070.101207
 20
1579.317963
 30
0.0
 11
2070.101207
 21
1590.034123
 31
0.0
  0
LINE
  5
598
  8
5
  6
CONTINUOUS
 10
2071.571207
 20
1590.034123
 30
0.0
 11
2071.571207
 21
1579.317963
 31
0.0
  0
LINE
  5
599
  8
5
  6
CONTINUOUS
 10
2105.730507
 20
1590.035383
 30
0.0
 11
2096.085907
 21
1590.035033
 31
0.0
  0
LINE
  5
59A
  8
5
  6
CONTINUOUS
 10
2096.086607
 20
1571.788693
 30
0.0
 11
2105.731207
 21
1571.788973
 31
0.0
  0
LINE
  5
59B
  8
5
  6
CONTINUOUS
 10
2096.085907
 20
1590.035033
 30
0.0
 11
2096.086607
 21
1571.788693
 31
0.0
  0
LINE
  5
59C
  8
5
  6
CONTINUOUS
 10
2105.731207
 20
1571.788973
 30
0.0
 11
2105.730507
 21
1590.035383
 31
0.0
  0
ARC
  5
59D
  8
5
  6
CONTINUOUS
 10
2142.514107
 20
1582.170113
 30
0.0
 40
10.379943
 50
270.0019
 51
0.0019
  0
LINE
  5
59E
  8
5
  6
CONTINUOUS
 10
2128.037407
 20
1590.036153
 30
0.0
 11
2137.682707
 21
1590.036433
 31
0.0
  0
LINE
  5
59F
  8
5
  6
CONTINUOUS
 10
2128.038107
 20
1571.789743
 30
0.0
 11
2137.683407
 21
1571.790093
 31
0.0
  0
LINE
  5
5A0
  8
5
  6
CONTINUOUS
 10
2117.404407
 20
1590.035733
 30
0.0
 11
2107.200507
 21
1590.035383
 31
0.0
  0
LINE
  5
5A1
  8
5
  6
CONTINUOUS
 10
2107.201207
 20
1571.788973
 30
0.0
 11
2110.562607
 21
1571.789113
 31
0.0
  0
ARC
  5
5A2
  8
5
  6
CONTINUOUS
 10
2110.562607
 20
1582.169063
 30
0.0
 40
10.379943
 50
270.0019
 51
0.0019
  0
LINE
  5
5A3
  8
5
  6
CONTINUOUS
 10
2107.200507
 20
1590.035383
 30
0.0
 11
2107.201207
 21
1571.788973
 31
0.0
  0
ARC
  5
5A4
  8
5
  6
CONTINUOUS
 10
2109.172407
 20
1581.604933
 30
0.0
 40
11.783324
 50
2.745839
 51
45.68318
  0
LINE
  5
5A5
  8
5
  6
CONTINUOUS
 10
2128.037407
 20
1590.036153
 30
0.0
 11
2128.038107
 21
1571.789743
 31
0.0
  0
LINE
  5
5A6
  8
5
  6
CONTINUOUS
 10
2149.356607
 20
1590.036923
 30
0.0
 11
2139.152707
 21
1590.036433
 31
0.0
  0
LINE
  5
5A7
  8
5
  6
CONTINUOUS
 10
2139.153407
 20
1571.790093
 30
0.0
 11
2142.514807
 21
1571.790233
 31
0.0
  0
LINE
  5
5A8
  8
5
  6
CONTINUOUS
 10
2139.152707
 20
1590.036433
 30
0.0
 11
2139.153407
 21
1571.790093
 31
0.0
  0
ARC
  5
5A9
  8
5
  6
CONTINUOUS
 10
2141.124607
 20
1581.605983
 30
0.0
 40
11.783324
 50
2.745839
 51
45.68349
  0
LINE
  5
5AA
  8
5
  6
CONTINUOUS
 10
2137.683407
 20
1571.790093
 30
0.0
 11
2137.682707
 21
1590.036433
 31
0.0
  0
LINE
  5
5AB
  8
5
  6
CONTINUOUS
 10
2066.045407
 20
1608.932093
 30
0.0
 11
2060.066707
 21
1591.503843
 31
0.0
  0
LINE
  5
5AC
  8
5
  6
CONTINUOUS
 10
2060.066707
 20
1591.503843
 30
0.0
 11
2070.101207
 21
1591.504123
 31
0.0
  0
LINE
  5
5AD
  8
5
  6
CONTINUOUS
 10
2071.571207
 20
1591.504123
 30
0.0
 11
2081.846507
 21
1591.504543
 31
0.0
  0
LINE
  5
5AE
  8
5
  6
CONTINUOUS
 10
2075.625607
 20
1608.932443
 30
0.0
 11
2071.570507
 21
1608.932303
 31
0.0
  0
LINE
  5
5AF
  8
5
  6
CONTINUOUS
 10
2071.570507
 20
1608.932303
 30
0.0
 11
2071.571207
 21
1591.504123
 31
0.0
  0
LINE
  5
5B0
  8
5
  6
CONTINUOUS
 10
2081.846507
 20
1591.504543
 30
0.0
 11
2075.625607
 21
1608.932443
 31
0.0
  0
LINE
  5
5B1
  8
5
  6
CONTINUOUS
 10
2070.101207
 20
1591.504123
 30
0.0
 11
2070.100507
 21
1608.932233
 31
0.0
  0
LINE
  5
5B2
  8
5
  6
CONTINUOUS
 10
2070.100507
 20
1608.932233
 30
0.0
 11
2066.045407
 21
1608.932093
 31
0.0
  0
LINE
  5
5B3
  8
5
  6
CONTINUOUS
 10
2105.730507
 20
1591.505383
 30
0.0
 11
2105.730507
 21
1608.933423
 31
0.0
  0
LINE
  5
5B4
  8
5
  6
CONTINUOUS
 10
2096.085207
 20
1608.933143
 30
0.0
 11
2096.085907
 21
1591.505033
 31
0.0
  0
LINE
  5
5B5
  8
5
  6
CONTINUOUS
 10
2105.730507
 20
1608.933423
 30
0.0
 11
2096.085207
 21
1608.933143
 31
0.0
  0
LINE
  5
5B6
  8
5
  6
CONTINUOUS
 10
2096.085907
 20
1591.505033
 30
0.0
 11
2105.730507
 21
1591.505383
 31
0.0
  0
LINE
  5
5B7
  8
5
  6
CONTINUOUS
 10
2128.037407
 20
1591.506153
 30
0.0
 11
2137.682707
 21
1591.506433
 31
0.0
  0
LINE
  5
5B8
  8
5
  6
CONTINUOUS
 10
2137.682007
 20
1608.934543
 30
0.0
 11
2128.037407
 21
1608.934193
 31
0.0
  0
LINE
  5
5B9
  8
5
  6
CONTINUOUS
 10
2128.037407
 20
1608.934193
 30
0.0
 11
2128.037407
 21
1591.506153
 31
0.0
  0
LINE
  5
5BA
  8
5
  6
CONTINUOUS
 10
2107.200507
 20
1591.505383
 30
0.0
 11
2115.562007
 21
1591.505663
 31
0.0
  0
ARC
  5
5BB
  8
5
  6
CONTINUOUS
 10
2109.172407
 20
1581.604933
 30
0.0
 40
11.783324
 50
57.16493
 51
82.74766
  0
ARC
  5
5BC
  8
5
  6
CONTINUOUS
 10
2108.440207
 20
1602.499723
 30
0.0
 40
9.46967
 50
283.5581
 51
354.7072
  0
LINE
  5
5BD
  8
5
  6
CONTINUOUS
 10
2110.561207
 20
1608.933633
 30
0.0
 11
2107.200507
 21
1608.933563
 31
0.0
  0
LINE
  5
5BE
  8
5
  6
CONTINUOUS
 10
2107.200507
 20
1608.933563
 30
0.0
 11
2107.200507
 21
1591.505383
 31
0.0
  0
ARC
  5
5BF
  8
5
  6
CONTINUOUS
 10
2110.561907
 20
1601.625983
 30
0.0
 40
7.307643
 50
0.001947
 51
90.00195
  0
LINE
  5
5C0
  8
5
  6
CONTINUOUS
 10
2137.682707
 20
1591.506433
 30
0.0
 11
2137.682007
 21
1608.934543
 31
0.0
  0
LINE
  5
5C1
  8
5
  6
CONTINUOUS
 10
2139.152707
 20
1591.506433
 30
0.0
 11
2147.513507
 21
1591.506783
 31
0.0
  0
ARC
  5
5C2
  8
5
  6
CONTINUOUS
 10
2141.124607
 20
1581.605983
 30
0.0
 40
11.783324
 50
57.16491
 51
82.74766
  0
ARC
  5
5C3
  8
5
  6
CONTINUOUS
 10
2140.391707
 20
1602.500843
 30
0.0
 40
9.46967
 50
283.5581
 51
354.7072
  0
LINE
  5
5C4
  8
5
  6
CONTINUOUS
 10
2142.513407
 20
1608.934683
 30
0.0
 11
2139.152007
 21
1608.934613
 31
0.0
  0
LINE
  5
5C5
  8
5
  6
CONTINUOUS
 10
2139.152007
 20
1608.934613
 30
0.0
 11
2139.152707
 21
1591.506433
 31
0.0
  0
ARC
  5
5C6
  8
5
  6
CONTINUOUS
 10
2142.513407
 20
1601.627033
 30
0.0
 40
7.307643
 50
0.001947
 51
90.00195
  0
INSERT
  5
5ED
  8
0
  6
CONTINUOUS
  2
A$C27E33DB7
 10
285.132271
 20
1131.175458
 30
0.0
  0
ENDSEC
  0
EOF
