  0
SECTION
  2
HEADER
  9
$ACADVER
  1
AC1009
  9
$DWGCODEPAGE
  3
iso8859-1
  9
$INSBASE
 10
0.0
 20
0.0
 30
0.0
  9
$EXTMIN
 10
1.0E20
 20
1.0E20
  9
$EXTMAX
 10
-1.0E20
 20
-1.0E20
  9
$LIMMIN
 10
0.0
 20
0.0
  9
$LIMMAX
 10
12.0
 20
9.0
  9
$ORTHOMODE
 70
     0
  9
$REGENMODE
 70
     1
  9
$FILLMODE
 70
     1
  9
$QTEXTMODE
 70
     0
  9
$MIRRTEXT
 70
     1
  9
$DRAGMODE
 70
     2
  9
$LTSCALE
 40
15.0
  9
$OSMODE
 70
     0
  9
$ATTMODE
 70
     1
  9
$TEXTSIZE
 40
0.2
  9
$TRACEWID
 40
0.05
  9
$TEXTSTYLE
  7
STANDARD
  9
$CLAYER
  8
0
  9
$CELTYPE
  6
DASHED
  9
$CECOLOR
 62
   256
  9
$DIMSCALE
 40
1.0
  9
$DIMASZ
 40
0.18
  9
$DIMEXO
 40
0.0625
  9
$DIMDLI
 40
0.38
  9
$DIMRND
 40
0.0
  9
$DIMDLE
 40
0.0
  9
$DIMEXE
 40
0.18
  9
$DIMTP
 40
0.0
  9
$DIMTM
 40
0.0
  9
$DIMTXT
 40
0.18
  9
$DIMCEN
 40
0.09
  9
$DIMTSZ
 40
0.0
  9
$DIMTOL
 70
     0
  9
$DIMLIM
 70
     0
  9
$DIMTIH
 70
     1
  9
$DIMTOH
 70
     1
  9
$DIMSE1
 70
     0
  9
$DIMSE2
 70
     0
  9
$DIMTAD
 70
     0
  9
$DIMZIN
 70
     0
  9
$DIMBLK
  1

  9
$DIMASO
 70
     1
  9
$DIMSHO
 70
     1
  9
$DIMPOST
  1

  9
$DIMAPOST
  1

  9
$DIMALT
 70
     0
  9
$DIMALTD
 70
     2
  9
$DIMALTF
 40
25.4
  9
$DIMLFAC
 40
1.0
  9
$DIMTOFL
 70
     0
  9
$DIMTVP
 40
0.0
  9
$DIMTIX
 70
     0
  9
$DIMSOXD
 70
     0
  9
$DIMSAH
 70
     0
  9
$DIMBLK1
  1

  9
$DIMBLK2
  1

  9
$DIMSTYLE
  2
STANDARD
  9
$DIMCLRD
 70
     0
  9
$DIMCLRE
 70
     0
  9
$DIMCLRT
 70
     0
  9
$DIMTFAC
 40
1.0
  9
$DIMGAP
 40
0.09
  9
$LUNITS
 70
     2
  9
$LUPREC
 70
     4
  9
$AXISMODE
 70
     0
  9
$AXISUNIT
 10
0.0
 20
0.0
  9
$SKETCHINC
 40
0.1
  9
$FILLETRAD
 40
0.0
  9
$AUNITS
 70
     0
  9
$AUPREC
 70
     0
  9
$MENU
  1
acad
  9
$ELEVATION
 40
0.0
  9
$PELEVATION
 40
0.0
  9
$THICKNESS
 40
0.0
  9
$LIMCHECK
 70
     0
  9
$BLIPMODE
 70
     1
  9
$CHAMFERA
 40
0.0
  9
$CHAMFERB
 40
0.0
  9
$SKPOLY
 70
     0
  9
$TDCREATE
 40
0.000000000
  9
$TDUPDATE
 40
0.000000000
  9
$TDINDWG
 40
0.0
  9
$TDUSRTIMER
 40
0.0
  9
$USRTIMER
 70
     1
  9
$ANGBASE
 50
0.0
  9
$ANGDIR
 70
     0
  9
$PDMODE
 70
     0
  9
$PDSIZE
 40
0.0
  9
$PLINEWID
 40
0.0
  9
$COORDS
 70
     1
  9
$SPLFRAME
 70
     0
  9
$SPLINETYPE
 70
     6
  9
$SPLINESEGS
 70
     8
  9
$ATTDIA
 70
     0
  9
$ATTREQ
 70
     1
  9
$HANDLING
 70
     1
  9
$HANDSEED
  5
   48B
  9
$SURFTAB1
 70
     6
  9
$SURFTAB2
 70
     6
  9
$SURFTYPE
 70
     6
  9
$SURFU
 70
     6
  9
$SURFV
 70
     6
  9
$UCSNAME
  2

  9
$UCSORG
 10
0.0
 20
0.0
 30
0.0
  9
$UCSXDIR
 10
1.0
 20
0.0
 30
0.0
  9
$UCSYDIR
 10
0.0
 20
1.0
 30
0.0
  9
$PUCSNAME
  2

  9
$PUCSORG
 10
0.0
 20
0.0
 30
0.0
  9
$PUCSXDIR
 10
1.0
 20
0.0
 30
0.0
  9
$PUCSYDIR
 10
0.0
 20
1.0
 30
0.0
  9
$USERI1
 70
     0
  9
$USERI2
 70
     0
  9
$USERI3
 70
     0
  9
$USERI4
 70
     0
  9
$USERI5
 70
     0
  9
$USERR1
 40
0.0
  9
$USERR2
 40
0.0
  9
$USERR3
 40
0.0
  9
$USERR4
 40
0.0
  9
$USERR5
 40
0.0
  9
$WORLDVIEW
 70
     1
  9
$SHADEDGE
 70
     3
  9
$SHADEDIF
 70
    70
  9
$TILEMODE
 70
     1
  9
$MAXACTVP
 70
    16
  9
$PINSBASE
 10
0.0
 20
0.0
 30
0.0
  9
$PLIMCHECK
 70
     0
  9
$PEXTMIN
 10
1.0E20
 20
1.0E20
 30
1.0E20
  9
$PEXTMAX
 10
-1.0E20
 20
-1.0E20
 30
-1.0E20
  9
$PLIMMIN
 10
0.0
 20
0.0
  9
$PLIMMAX
 10
12.0
 20
9.0
  9
$UNITMODE
 70
     0
  9
$VISRETAIN
 70
     0
  0
ENDSEC
  0
SECTION
  2
TABLES
  0
TABLE
  2
VPORT
 70
     1
  0
VPORT
  2
*ACTIVE
 70
     0
 10
0.0
 20
0.0
 11
1.0
 21
1.0
 12
6.801242
 22
4.5
 13
0.0
 23
0.0
 14
1.0
 24
1.0
 15
0.0
 25
0.0
 16
0.0
 26
0.0
 36
1.0
 17
0.0
 27
0.0
 37
0.0
 40
9.0
 41
1.511387
 42
50.0
 43
0.0
 44
0.0
 50
0.0
 51
0.0
 71
     0
 72
   100
 73
     1
 74
     1
 75
     0
 76
     0
 77
     0
 78
     0
  0
ENDTAB
  0
TABLE
  2
LTYPE
 70
    41
  0
LTYPE
  2
BYBLOCK
 70
     0
  3

 72
    65
 73
     0
 40
0.0
  0
LTYPE
  2
BYLAYER
 70
     0
  3

 72
    65
 73
     0
 40
0.0
  0
LTYPE
  2
CONTINUOUS
 70
     0
  3
Solid line
 72
    65
 73
     0
 40
0.0
  0
LTYPE
  2
BORDER
 70
    64
  3
__ __ . __ __ . __ __ . __ __ . __ __ . __ __ .
 72
    65
 73
     6
 40
1.75
 49
0.5
 49
-0.25
 49
0.5
 49
-0.25
 49
0.0
 49
-0.25
  0
LTYPE
  2
BORDER2
 70
    64
  3
__.__.__.__.__.__.__.__.__.__.__.__.__.__.__.__
 72
    65
 73
     6
 40
0.875
 49
0.25
 49
-0.125
 49
0.25
 49
-0.125
 49
0.0
 49
-0.125
  0
LTYPE
  2
BORDERX2
 70
    64
  3
____  ____  .  ____  ____  .  ____  ____  .  __
 72
    65
 73
     6
 40
3.5
 49
1.0
 49
-0.5
 49
1.0
 49
-0.5
 49
0.0
 49
-0.5
  0
LTYPE
  2
CENTER
 70
    64
  3
____ _ ____ _ ____ _ ____ _ ____ _ ____ _ ____
 72
    65
 73
     4
 40
2.0
 49
1.25
 49
-0.25
 49
0.25
 49
-0.25
  0
LTYPE
  2
CENTER2
 70
    64
  3
___ _ ___ _ ___ _ ___ _ ___ _ ___ _ ___ _ ___ _
 72
    65
 73
     4
 40
1.125
 49
0.75
 49
-0.125
 49
0.125
 49
-0.125
  0
LTYPE
  2
CENTERX2
 70
    64
  3
________  __  ________  __  ________  __  _____
 72
    65
 73
     4
 40
4.0
 49
2.5
 49
-0.5
 49
0.5
 49
-0.5
  0
LTYPE
  2
DASHDOT
 70
    64
  3
__ . __ . __ . __ . __ . __ . __ . __ . __ . __
 72
    65
 73
     4
 40
1.0
 49
0.5
 49
-0.25
 49
0.0
 49
-0.25
  0
LTYPE
  2
DASHDOT2
 70
    64
  3
_._._._._._._._._._._._._._._._._._._._._._._._
 72
    65
 73
     4
 40
0.5
 49
0.25
 49
-0.125
 49
0.0
 49
-0.125
  0
LTYPE
  2
DASHDOTX2
 70
    64
  3
____  .  ____  .  ____  .  ____  .  ____  .  __
 72
    65
 73
     4
 40
2.0
 49
1.0
 49
-0.5
 49
0.0
 49
-0.5
  0
LTYPE
  2
DASHED
 70
    64
  3
__ __ __ __ __ __ __ __ __ __ __ __ __ __ __ __
 72
    65
 73
     2
 40
0.75
 49
0.5
 49
-0.25
  0
LTYPE
  2
DASHED2
 70
    64
  3
_ _ _ _ _ _ _ _ _ _ _ _ _ _ _ _ _ _ _ _ _ _ _ _
 72
    65
 73
     2
 40
0.375
 49
0.25
 49
-0.125
  0
LTYPE
  2
DASHEDX2
 70
    64
  3
____  ____  ____  ____  ____  ____  ____  ____
 72
    65
 73
     2
 40
1.5
 49
1.0
 49
-0.5
  0
LTYPE
  2
DIVIDE
 70
    64
  3
____ . . ____ . . ____ . . ____ . . ____ . . __
 72
    65
 73
     6
 40
1.25
 49
0.5
 49
-0.25
 49
0.0
 49
-0.25
 49
0.0
 49
-0.25
  0
LTYPE
  2
DIVIDE2
 70
    64
  3
__..__..__..__..__..__..__..__..__..__..__..__.
 72
    65
 73
     6
 40
0.625
 49
0.25
 49
-0.125
 49
0.0
 49
-0.125
 49
0.0
 49
-0.125
  0
LTYPE
  2
DIVIDEX2
 70
    64
  3
________  .  .  ________  .  .  ________  .  .
 72
    65
 73
     6
 40
2.5
 49
1.0
 49
-0.5
 49
0.0
 49
-0.5
 49
0.0
 49
-0.5
  0
LTYPE
  2
DOT
 70
    64
  3
. . . . . . . . . . . . . . . . . . . . . . . .
 72
    65
 73
     2
 40
0.25
 49
0.0
 49
-0.25
  0
LTYPE
  2
DOT2
 70
    64
  3
...............................................
 72
    65
 73
     2
 40
0.125
 49
0.0
 49
-0.125
  0
LTYPE
  2
DOTX2
 70
    64
  3
.  .  .  .  .  .  .  .  .  .  .  .  .  .  .  .
 72
    65
 73
     2
 40
0.5
 49
0.0
 49
-0.5
  0
LTYPE
  2
HIDDEN
 70
    64
  3
__ __ __ __ __ __ __ __ __ __ __ __ __ __ __ __
 72
    65
 73
     2
 40
0.375
 49
0.25
 49
-0.125
  0
LTYPE
  2
HIDDEN2
 70
    64
  3
_ _ _ _ _ _ _ _ _ _ _ _ _ _ _ _ _ _ _ _ _ _ _ _
 72
    65
 73
     2
 40
0.1875
 49
0.125
 49
-0.0625
  0
LTYPE
  2
HIDDENX2
 70
    64
  3
____ ____ ____ ____ ____ ____ ____ ____ ____ __
 72
    65
 73
     2
 40
0.75
 49
0.5
 49
-0.25
  0
LTYPE
  2
PHANTOM
 70
    64
  3
______  __  __  ______  __  __  ______  __  __
 72
    65
 73
     6
 40
2.5
 49
1.25
 49
-0.25
 49
0.25
 49
-0.25
 49
0.25
 49
-0.25
  0
LTYPE
  2
PHANTOM2
 70
    64
  3
___ _ _ ___ _ _ ___ _ _ ___ _ _ ___ _ _ ___ _ _
 72
    65
 73
     6
 40
1.25
 49
0.625
 49
-0.125
 49
0.125
 49
-0.125
 49
0.125
 49
-0.125
  0
LTYPE
  2
PHANTOMX2
 70
    64
  3
____________    ____    ____    ____________
 72
    65
 73
     6
 40
5.0
 49
2.5
 49
-0.5
 49
0.5
 49
-0.5
 49
0.5
 49
-0.5
  0
LTYPE
  2
ACAD_ISO02W100
 70
    64
  3
__ __ __ __ __ __ __ __ __ __ __ __ __ __ __ __
 72
    65
 73
     2
 40
15.0
 49
12.0
 49
-3.0
  0
LTYPE
  2
ACAD_ISO03W100
 70
    64
  3
__    __    __    __    __    __    __    __
 72
    65
 73
     2
 40
30.0
 49
12.0
 49
-18.0
  0
LTYPE
  2
ACAD_ISO04W100
 70
    64
  3
____ . ____ . ____ . ____ . ____ . ____ . ____
 72
    65
 73
     4
 40
30.5
 49
24.0
 49
-3.0
 49
0.5
 49
-3.0
  0
LTYPE
  2
ACAD_ISO05W100
 70
    64
  3
____ .. ____ .. ____ .. ____ .. ____ .. ____ ..
 72
    65
 73
     6
 40
34.0
 49
24.0
 49
-3.0
 49
0.5
 49
-3.0
 49
0.5
 49
-3.0
  0
LTYPE
  2
ACAD_ISO06W100
 70
    64
  3
____ ... ____ ... ____ ... ____ ... ____ ... __
 72
    65
 73
     8
 40
37.5
 49
24.0
 49
-3.0
 49
0.5
 49
-3.0
 49
0.5
 49
-3.0
 49
0.5
 49
-3.0
  0
LTYPE
  2
ACAD_ISO07W100
 70
    64
  3
. . . . . . . . . . . . . . . . . . . . . . . .
 72
    65
 73
     2
 40
3.5
 49
0.5
 49
-3.0
  0
LTYPE
  2
ACAD_ISO08W100
 70
    64
  3
____ __ ____ __ ____ __ ____ ____ __ __ ____ __
 72
    65
 73
     4
 40
36.0
 49
24.0
 49
-3.0
 49
6.0
 49
-3.0
  0
LTYPE
  2
ACAD_ISO09W100
 70
    64
  3
____ __ __ ____ __ __ ____ __ __ ____ __ __ ___
 72
    65
 73
     6
 40
45.0
 49
24.0
 49
-3.0
 49
6.0
 49
-3.0
 49
6.0
 49
-3.0
  0
LTYPE
  2
ACAD_ISO10W100
 70
    64
  3
__ . __ . __ . __ . __ . __ . __ . __ . __ . __
 72
    65
 73
     4
 40
18.5
 49
12.0
 49
-3.0
 49
0.5
 49
-3.0
  0
LTYPE
  2
ACAD_ISO11W100
 70
    64
  3
__ __ . __ __ . __ __ . __ __ . __ __ . __ __ .
 72
    65
 73
     6
 40
33.5
 49
12.0
 49
-3.0
 49
12.0
 49
-3.0
 49
0.5
 49
-3.0
  0
LTYPE
  2
ACAD_ISO12W100
 70
    64
  3
__ . . __ . . __ . . __ . . __ . . __ . . __ .
 72
    65
 73
     6
 40
22.0
 49
12.0
 49
-3.0
 49
0.5
 49
-3.0
 49
0.5
 49
-3.0
  0
LTYPE
  2
ACAD_ISO13W100
 70
    64
  3
__ __ . . __ __ . . __ __ . . __ __ . . __ __ .
 72
    65
 73
     8
 40
37.0
 49
12.0
 49
-3.0
 49
12.0
 49
-3.0
 49
0.5
 49
-3.0
 49
0.5
 49
-3.0
  0
LTYPE
  2
ACAD_ISO14W100
 70
    64
  3
__ . . . __ . . . __ . . . __ . . . __ . . . __
 72
    65
 73
     8
 40
25.5
 49
12.0
 49
-3.0
 49
0.5
 49
-3.0
 49
0.5
 49
-3.0
 49
0.5
 49
-3.0
  0
LTYPE
  2
ACAD_ISO15W100
 70
    64
  3
__ __ . . . __ __ . . . __ __ . . . __ __ . . .
 72
    65
 73
    10
 40
40.5
 49
12.0
 49
-3.0
 49
12.0
 49
-3.0
 49
0.5
 49
-3.0
 49
0.5
 49
-3.0
 49
0.5
 49
-3.0
  0
ENDTAB
  0
TABLE
  2
STYLE
 70
     4
  0
STYLE
  2
STANDARD
 70
    64
 40
0.0
 41
1.0
 50
0.0
 71
     0
 42
0.2
  3
txt
  4

  0
STYLE
  2
TOLERANCE
 70
    64
 40
0.0
 41
1.0
 50
0.0
 71
     0
 42
0.2
  3
../igesfont/iges1003.shx
  4

  0
STYLE
  2
ROMANS
 70
    64
 40
0.0
 41
1.0
 50
0.0
 71
     0
 42
0.2
  3
romans.shx
  4

  0
STYLE
  2
ROMANC
 70
    64
 40
0.0
 41
1.0
 50
0.0
 71
     0
 42
0.2
  3
romanc.shx
  4

  0
ENDTAB
  0
TABLE
  2
DIMSTYLE
 70
     2
  0
DIMSTYLE
  2
UNNAMED
 70
     0
  3

  4

  5

  6

  7

 40
1.0
 41
0.18
 42
0.0625
 43
0.38
 44
0.18
 45
0.0
 46
0.0
 47
0.0
 48
0.0
140
0.18
141
0.09
142
0.0
143
25.4
144
1.0
145
0.0
146
1.0
147
0.09
 71
     0
 72
     0
 73
     1
 74
     1
 75
     0
 76
     0
 77
     0
 78
     0
170
     0
171
     2
172
     0
173
     0
174
     0
175
     0
176
     0
177
     0
178
     0
  0
DIMSTYLE
  2
STANDARD
 70
     0
  3

  4

  5

  6

  7

 40
1.0
 41
0.18
 42
0.0625
 43
0.38
 44
0.18
 45
0.0
 46
0.0
 47
0.0
 48
0.0
140
0.18
141
0.09
142
0.0
143
25.4
144
1.0
145
0.0
146
1.0
147
0.09
 71
     0
 72
     0
 73
     1
 74
     1
 75
     0
 76
     0
 77
     0
 78
     0
170
     0
171
     2
172
     0
173
     0
174
     0
175
     0
176
     0
177
     0
178
     0
  0
ENDTAB
  0
TABLE
  2
LAYER
 70
     2
  0
LAYER
  2
0
 70
     0
 62
     7
  6
CONTINUOUS
  0
LAYER
  2
255
 70
     0
 62
     7
  6
CONTINUOUS
  0
ENDTAB
  0
ENDSEC
  0
SECTION
  2
BLOCKS
  0
BLOCK
  5
     B
  8
0
  6
CONTINUOUS
 62
     7
  2
*UDIM65
 70
    65
 10
0.0
 20
0.0
 30
0.0
  3
*UDIM65
  0
TEXT
  5
     C
  8
0
  6
CONTINUOUS
 62
     7
 10
-638.889255535793
 20
-123.401837996373
 30
0.0
 40
3.00000002980232
  1
65,75
 50
449.999999896069
 41
0.933333333333333
 72
     1
 11
-640.389255538583
 21
-116.701837927103
 31
0.0
 73
     2
  0
LINE
  5
     D
  8
0
  6
CONTINUOUS
 62
     7
 10
-629.271847574581
 20
-108.774749755859
 30
0.0
 11
-639.889255523682
 21
-108.774749755859
 31
0.0
  0
LINE
  5
     E
  8
0
  6
CONTINUOUS
 62
     7
 10
-637.346917750468
 20
-125.212249755859
 30
0.0
 11
-639.889255523682
 21
-125.212249755859
 31
0.0
  0
LINE
  5
     F
  8
0
  6
CONTINUOUS
 62
     7
 10
-637.889255523682
 20
-108.774749755859
 30
0.0
 11
-637.889255523682
 21
-125.212249755859
 31
0.0
  0
LINE
  5
    10
  8
0
  6
CONTINUOUS
 62
     7
 10
-637.36831109373
 20
-111.729173033066
 30
0.0
 11
-637.889255523682
 21
-108.774749755859
 31
0.0
  0
LINE
  5
    11
  8
0
  6
CONTINUOUS
 62
     7
 10
-637.889255523682
 20
-108.774749755859
 30
0.0
 11
-638.410199953633
 21
-111.729173033066
 31
0.0
  0
LINE
  5
    12
  8
0
  6
CONTINUOUS
 62
     7
 10
-638.410199953633
 20
-122.257826478652
 30
0.0
 11
-637.889255523682
 21
-125.212249755859
 31
0.0
  0
LINE
  5
    13
  8
0
  6
CONTINUOUS
 62
     7
 10
-637.889255523682
 20
-125.212249755859
 30
0.0
 11
-637.36831109373
 21
-122.257826478652
 31
0.0
  0
ENDBLK
  5
    14
  8
0
  6
CONTINUOUS
 62
     7
  0
BLOCK
  5
    15
  8
0
  6
CONTINUOUS
 62
     7
  2
*UDIM66
 70
    65
 10
0.0
 20
0.0
 30
0.0
  3
*UDIM66
  0
TEXT
  5
    16
  8
0
  6
CONTINUOUS
 62
     7
 10
-581.643321917415
 20
-104.460277432121
 30
0.0
 40
3.00000002980232
  1
6
 50
372.466948566418
 41
0.933333333333334
 72
     1
 11
-580.893073733935
 21
-102.758182331391
 31
0.0
 73
     2
  0
TEXT
  5
    17
  8
0
  6
CONTINUOUS
 62
     7
 10
-584.719047128483
 20
-105.140288085411
 30
0.0
 40
3.00000002980232
  1
Ø
 50
372.466948566418
 41
0.933333333333334
 72
     1
 11
-583.968798945003
 21
-103.438192984681
 31
0.0
 73
     2
  0
TEXT
  5
    18
  8
0
  6
CONTINUOUS
 62
     7
 10
-578.958164964793
 20
-103.86661732267
 30
0.0
 40
3.00000002980232
  1
 (M5)
 50
372.466948566418
 41
0.933333333333333
 72
     1
 11
-572.739960811265
 21
-100.955614395562
 31
0.0
 73
     2
  0
LINE
  5
    19
  8
0
  6
CONTINUOUS
 62
     7
 10
-565.658251067812
 20
-101.950294281695
 30
0.0
 11
-597.25795028976
 21
-108.936657053751
 31
0.0
  0
LINE
  5
    1A
  8
0
  6
CONTINUOUS
 62
     7
 10
-593.021018807143
 20
-107.466391280759
 30
0.0
 11
-595.79331924149
 21
-108.612842457968
 31
0.0
  0
LINE
  5
    1B
  8
0
  6
CONTINUOUS
 62
     7
 10
-595.79331924149
 20
-108.612842457968
 30
0.0
 11
-592.796099593796
 21
-108.483713129467
 31
0.0
  0
LINE
  5
    1C
  8
0
  6
CONTINUOUS
 62
     7
 10
-600.030250724107
 20
-110.08310823096
 30
0.0
 11
-597.25795028976
 21
-108.936657053751
 31
0.0
  0
LINE
  5
    1D
  8
0
  6
CONTINUOUS
 62
     7
 10
-597.25795028976
 20
-108.936657053751
 30
0.0
 11
-600.255169937454
 21
-109.065786382252
 31
0.0
  0
ENDBLK
  5
    1E
  8
0
  6
CONTINUOUS
 62
     7
  0
BLOCK
  5
    1F
  8
0
  6
CONTINUOUS
 62
     7
  2
*UDIM67
 70
    65
 10
0.0
 20
0.0
 30
0.0
  3
*UDIM67
  0
TEXT
  5
    20
  8
0
  6
CONTINUOUS
 62
     7
 10
-608.494139617415
 20
-152.362495415309
 30
0.0
 40
3.00000002980232
  1
115
 50
359.999999896069
 41
0.933333333333333
 72
     1
 11
-604.594139575958
 21
-150.862495407462
 31
0.0
 73
     2
  0
LINE
  5
    21
  8
0
  6
CONTINUOUS
 62
     7
 10
-596.525634765625
 20
-148.313797994808
 30
0.0
 11
-596.525634765625
 21
-155.362495422363
 31
0.0
  0
LINE
  5
    22
  8
0
  6
CONTINUOUS
 62
     7
 10
-625.275634765625
 20
-147.485445219043
 30
0.0
 11
-625.275634765625
 21
-155.362495422363
 31
0.0
  0
LINE
  5
    23
  8
0
  6
CONTINUOUS
 62
     7
 10
-596.525634765625
 20
-153.362495422363
 30
0.0
 11
-625.275634765625
 21
-153.362495422363
 31
0.0
  0
LINE
  5
    24
  8
0
  6
CONTINUOUS
 62
     7
 10
-599.480058042832
 20
-153.883439852315
 30
0.0
 11
-596.525634765625
 21
-153.362495422363
 31
0.0
  0
LINE
  5
    25
  8
0
  6
CONTINUOUS
 62
     7
 10
-596.525634765625
 20
-153.362495422363
 30
0.0
 11
-599.480058042832
 21
-152.841550992412
 31
0.0
  0
LINE
  5
    26
  8
0
  6
CONTINUOUS
 62
     7
 10
-622.321211488418
 20
-152.841550992412
 30
0.0
 11
-625.275634765625
 21
-153.362495422363
 31
0.0
  0
LINE
  5
    27
  8
0
  6
CONTINUOUS
 62
     7
 10
-625.275634765625
 20
-153.362495422363
 30
0.0
 11
-622.321211488418
 21
-153.883439852315
 31
0.0
  0
ENDBLK
  5
    28
  8
0
  6
CONTINUOUS
 62
     7
  0
BLOCK
  5
    29
  8
0
  6
CONTINUOUS
 62
     7
  2
*UDIM68
 70
    65
 10
0.0
 20
0.0
 30
0.0
  3
*UDIM68
  0
TEXT
  5
    2A
  8
0
  6
CONTINUOUS
 62
     7
 10
-646.884231574433
 20
-129.824749330681
 30
0.0
 40
3.00000002980232
  1
135
 50
449.999999896069
 41
0.933333333333333
 72
     1
 11
-648.384231582284
 21
-125.924749289226
 31
0.0
 73
     2
  0
LINE
  5
    2B
  8
0
  6
CONTINUOUS
 62
     7
 10
-629.27184757458
 20
-108.774748816972
 30
0.0
 11
-647.884231567382
 21
-108.774731342039
 31
0.0
  0
LINE
  5
    2C
  8
0
  6
CONTINUOUS
 62
     7
 10
-629.323619623066
 20
-142.524748814204
 30
0.0
 11
-647.884231567382
 21
-142.524731336503
 31
0.0
  0
LINE
  5
    2D
  8
0
  6
CONTINUOUS
 62
     7
 10
-645.884231567383
 20
-108.774733219814
 30
0.0
 11
-645.884231567383
 21
-142.524733219814
 31
0.0
  0
LINE
  5
    2E
  8
0
  6
CONTINUOUS
 62
     7
 10
-645.363287137431
 20
-111.729156497021
 30
0.0
 11
-645.884231567383
 21
-108.774733219814
 31
0.0
  0
LINE
  5
    2F
  8
0
  6
CONTINUOUS
 62
     7
 10
-645.884231567383
 20
-108.774733219814
 30
0.0
 11
-646.405175997335
 21
-111.729156497021
 31
0.0
  0
LINE
  5
    30
  8
0
  6
CONTINUOUS
 62
     7
 10
-646.405175997335
 20
-139.570309942607
 30
0.0
 11
-645.884231567383
 21
-142.524733219814
 31
0.0
  0
LINE
  5
    31
  8
0
  6
CONTINUOUS
 62
     7
 10
-645.884231567383
 20
-142.524733219814
 30
0.0
 11
-645.363287137431
 21
-139.570309942607
 31
0.0
  0
ENDBLK
  5
    32
  8
0
  6
CONTINUOUS
 62
     7
  0
BLOCK
  5
    33
  8
0
  6
CONTINUOUS
 62
     7
  2
*HATCH40
 70
    65
 10
0.0
 20
0.0
 30
0.0
  3
*HATCH40
  0
LINE
  5
    34
  8
0
  6
CONTINUOUS
 62
    52
 10
187.863540649414
 20
-106.999984741211
 30
0.0
 11
185.863540649414
 21
-108.999984741211
 31
0.0
  0
LINE
  5
    35
  8
0
  6
CONTINUOUS
 62
    52
 10
192.106185913086
 20
-106.999984741211
 30
0.0
 11
190.106185913086
 21
-108.999984741211
 31
0.0
  0
LINE
  5
    36
  8
0
  6
CONTINUOUS
 62
    52
 10
196.348831176758
 20
-106.999984741211
 30
0.0
 11
194.348831176758
 21
-108.999984741211
 31
0.0
  0
LINE
  5
    37
  8
0
  6
CONTINUOUS
 62
    52
 10
200.59147644043
 20
-106.999984741211
 30
0.0
 11
198.59147644043
 21
-108.999984741211
 31
0.0
  0
LINE
  5
    38
  8
0
  6
CONTINUOUS
 62
    52
 10
204.834121704102
 20
-106.999984741211
 30
0.0
 11
202.834121704102
 21
-108.999984741211
 31
0.0
  0
LINE
  5
    39
  8
0
  6
CONTINUOUS
 62
    52
 10
209.076766967773
 20
-106.999984741211
 30
0.0
 11
207.076766967773
 21
-108.999984741211
 31
0.0
  0
LINE
  5
    3A
  8
0
  6
CONTINUOUS
 62
    52
 10
213.319412231445
 20
-106.999984741211
 30
0.0
 11
211.319412231445
 21
-108.999984741211
 31
0.0
  0
LINE
  5
    3B
  8
0
  6
CONTINUOUS
 62
    52
 10
217.562057495117
 20
-106.999984741211
 30
0.0
 11
215.562057495117
 21
-108.999984741211
 31
0.0
  0
LINE
  5
    3C
  8
0
  6
CONTINUOUS
 62
    52
 10
221.804702758789
 20
-106.999984741211
 30
0.0
 11
219.804702758789
 21
-108.999984741211
 31
0.0
  0
LINE
  5
    3D
  8
0
  6
CONTINUOUS
 62
    52
 10
226.047348022461
 20
-106.999984741211
 30
0.0
 11
224.047348022461
 21
-108.999984741211
 31
0.0
  0
LINE
  5
    3E
  8
0
  6
CONTINUOUS
 62
    52
 10
230.289993286133
 20
-106.999984741211
 30
0.0
 11
228.289993286133
 21
-108.999984741211
 31
0.0
  0
LINE
  5
    3F
  8
0
  6
CONTINUOUS
 62
    52
 10
234.532638549805
 20
-106.999984741211
 30
0.0
 11
232.532638549805
 21
-108.999984741211
 31
0.0
  0
LINE
  5
    40
  8
0
  6
CONTINUOUS
 62
    52
 10
238.775283813477
 20
-106.999984741211
 30
0.0
 11
236.775283813477
 21
-108.999984741211
 31
0.0
  0
LINE
  5
    41
  8
0
  6
CONTINUOUS
 62
    52
 10
243.017929077148
 20
-106.999984741211
 30
0.0
 11
241.017929077148
 21
-108.999984741211
 31
0.0
  0
LINE
  5
    42
  8
0
  6
CONTINUOUS
 62
    52
 10
247.26057434082
 20
-106.999984741211
 30
0.0
 11
245.26057434082
 21
-108.999984741211
 31
0.0
  0
LINE
  5
    43
  8
0
  6
CONTINUOUS
 62
    52
 10
251.503219604492
 20
-106.999984741211
 30
0.0
 11
249.503219604492
 21
-108.999984741211
 31
0.0
  0
ENDBLK
  5
    44
  8
0
  6
CONTINUOUS
 62
     7
  0
BLOCK
  5
    45
  8
0
  6
CONTINUOUS
 62
     7
  2
*HATCH41
 70
    65
 10
0.0
 20
0.0
 30
0.0
  3
*HATCH41
  0
LINE
  5
    46
  8
0
  6
CONTINUOUS
 62
    52
 10
168.771667480469
 20
-106.999984741211
 30
0.0
 11
166.771667480469
 21
-108.999984741211
 31
0.0
  0
LINE
  5
    47
  8
0
  6
CONTINUOUS
 62
    52
 10
173.014312744141
 20
-106.999984741211
 30
0.0
 11
171.014312744141
 21
-108.999984741211
 31
0.0
  0
LINE
  5
    48
  8
0
  6
CONTINUOUS
 62
    52
 10
177.256958007812
 20
-106.999984741211
 30
0.0
 11
175.256958007813
 21
-108.999984741211
 31
0.0
  0
ENDBLK
  5
    49
  8
0
  6
CONTINUOUS
 62
     7
  0
BLOCK
  5
    4A
  8
0
  6
CONTINUOUS
 62
     7
  2
*HATCH42
 70
    65
 10
0.0
 20
0.0
 30
0.0
  3
*HATCH42
  0
LINE
  5
    4B
  8
0
  6
CONTINUOUS
 62
    52
 10
45.7350769042969
 20
-106.999984741211
 30
0.0
 11
43.7350769042969
 21
-108.999984741211
 31
0.0
  0
LINE
  5
    4C
  8
0
  6
CONTINUOUS
 62
    52
 10
49.9777145385742
 20
-106.999984741211
 30
0.0
 11
47.9777145385742
 21
-108.999984741211
 31
0.0
  0
LINE
  5
    4D
  8
0
  6
CONTINUOUS
 62
    52
 10
53.9806251525879
 20
-107.239715576172
 30
0.0
 11
52.2203598022461
 21
-108.999984741211
 31
0.0
  0
ENDBLK
  5
    4E
  8
0
  6
CONTINUOUS
 62
     7
  0
BLOCK
  5
    4F
  8
0
  6
CONTINUOUS
 62
     7
  2
*HATCH43
 70
    65
 10
0.0
 20
0.0
 30
0.0
  3
*HATCH43
  0
LINE
  5
    50
  8
0
  6
CONTINUOUS
 62
    52
 10
-36.9964218139648
 20
-106.999984741211
 30
0.0
 11
-38.9964218139648
 21
-108.999984741211
 31
0.0
  0
LINE
  5
    51
  8
0
  6
CONTINUOUS
 62
    52
 10
-32.7537841796875
 20
-106.999984741211
 30
0.0
 11
-34.7537841796875
 21
-108.999984741211
 31
0.0
  0
LINE
  5
    52
  8
0
  6
CONTINUOUS
 62
    52
 10
-28.5111427307129
 20
-106.999984741211
 30
0.0
 11
-30.5111446380615
 21
-108.999984741211
 31
0.0
  0
LINE
  5
    53
  8
0
  6
CONTINUOUS
 62
    52
 10
-24.2685012817383
 20
-106.999984741211
 30
0.0
 11
-26.2685031890869
 21
-108.999984741211
 31
0.0
  0
LINE
  5
    54
  8
0
  6
CONTINUOUS
 62
    52
 10
-20.0258598327637
 20
-106.999984741211
 30
0.0
 11
-22.0258617401123
 21
-108.999984741211
 31
0.0
  0
LINE
  5
    55
  8
0
  6
CONTINUOUS
 62
    52
 10
-15.7832183837891
 20
-106.999984741211
 30
0.0
 11
-17.7832202911377
 21
-108.999984741211
 31
0.0
  0
LINE
  5
    56
  8
0
  6
CONTINUOUS
 62
    52
 10
-11.5405769348145
 20
-106.999984741211
 30
0.0
 11
-13.5405788421631
 21
-108.999984741211
 31
0.0
  0
LINE
  5
    57
  8
0
  6
CONTINUOUS
 62
    52
 10
-7.29793548583984
 20
-106.999984741211
 30
0.0
 11
-9.29793739318848
 21
-108.999984741211
 31
0.0
  0
LINE
  5
    58
  8
0
  6
CONTINUOUS
 62
    52
 10
-3.05529427528381
 20
-106.999984741211
 30
0.0
 11
-5.05529689788818
 21
-108.999984741211
 31
0.0
  0
LINE
  5
    59
  8
0
  6
CONTINUOUS
 62
    52
 10
1.18734669685364
 20
-106.999984741211
 30
0.0
 11
-0.812656402587891
 21
-108.999984741211
 31
0.0
  0
LINE
  5
    5A
  8
0
  6
CONTINUOUS
 62
    52
 10
5.42998790740967
 20
-106.999984741211
 30
0.0
 11
3.4299840927124
 21
-108.999984741211
 31
0.0
  0
LINE
  5
    5B
  8
0
  6
CONTINUOUS
 62
    52
 10
9.67262935638428
 20
-106.999984741211
 30
0.0
 11
7.6726245880127
 21
-108.999984741211
 31
0.0
  0
LINE
  5
    5C
  8
0
  6
CONTINUOUS
 62
    52
 10
13.9152708053589
 20
-106.999984741211
 30
0.0
 11
11.9152660369873
 21
-108.999984741211
 31
0.0
  0
LINE
  5
    5D
  8
0
  6
CONTINUOUS
 62
    52
 10
18.1579113006592
 20
-106.999984741211
 30
0.0
 11
16.1579074859619
 21
-108.999984741211
 31
0.0
  0
LINE
  5
    5E
  8
0
  6
CONTINUOUS
 62
    52
 10
22.4005527496338
 20
-106.999984741211
 30
0.0
 11
20.4005489349365
 21
-108.999984741211
 31
0.0
  0
LINE
  5
    5F
  8
0
  6
CONTINUOUS
 62
    52
 10
26.6431941986084
 20
-106.999984741211
 30
0.0
 11
24.6431903839111
 21
-108.999984741211
 31
0.0
  0
LINE
  5
    60
  8
0
  6
CONTINUOUS
 62
    52
 10
30.885835647583
 20
-106.999984741211
 30
0.0
 11
28.8858318328857
 21
-108.999984741211
 31
0.0
  0
LINE
  5
    61
  8
0
  6
CONTINUOUS
 62
    52
 10
35.128475189209
 20
-106.999984741211
 30
0.0
 11
33.1284713745117
 21
-108.999984741211
 31
0.0
  0
ENDBLK
  5
    62
  8
0
  6
CONTINUOUS
 62
     7
  0
BLOCK
  5
    63
  8
0
  6
CONTINUOUS
 62
     7
  2
*UDIM69
 70
    65
 10
0.0
 20
0.0
 30
0.0
  3
*UDIM69
  0
TEXT
  5
    64
  8
0
  6
CONTINUOUS
 62
     7
 10
-510.581779587628
 20
95.094207764664
 30
0.0
 40
3.00000002980232
  1
6
 50
359.999999948034
 41
0.933333333333334
 72
     1
 11
-509.481779575348
 21
96.594207778573
 31
0.0
 73
     2
  0
LINE
  5
    65
  8
0
  6
CONTINUOUS
 62
     7
 10
-513.581779479981
 20
91.4815902709961
 30
0.0
 11
-513.581779479981
 21
96.0942077636719
 31
0.0
  0
LINE
  5
    66
  8
0
  6
CONTINUOUS
 62
     7
 10
-516.581779479981
 20
91.4815902709961
 30
0.0
 11
-516.581779479981
 21
96.0942077636719
 31
0.0
  0
LINE
  5
    67
  8
0
  6
CONTINUOUS
 62
     7
 10
-508.38177956442
 20
94.0942077636719
 30
0.0
 11
-516.581779479981
 21
94.0942077636719
 31
0.0
  0
LINE
  5
    68
  8
0
  6
CONTINUOUS
 62
     7
 10
-510.627356202774
 20
94.6151521936235
 30
0.0
 11
-513.581779479981
 21
94.0942077636719
 31
0.0
  0
LINE
  5
    69
  8
0
  6
CONTINUOUS
 62
     7
 10
-513.581779479981
 20
94.0942077636719
 30
0.0
 11
-510.627356202774
 21
93.5732633337202
 31
0.0
  0
LINE
  5
    6A
  8
0
  6
CONTINUOUS
 62
     7
 10
-519.536202757187
 20
93.5732633337202
 30
0.0
 11
-516.581779479981
 21
94.0942077636719
 31
0.0
  0
LINE
  5
    6B
  8
0
  6
CONTINUOUS
 62
     7
 10
-516.581779479981
 20
94.0942077636719
 30
0.0
 11
-519.536202757187
 21
94.6151521936235
 31
0.0
  0
ENDBLK
  5
    6C
  8
0
  6
CONTINUOUS
 62
     7
  0
BLOCK
  5
    6D
  8
0
  6
CONTINUOUS
 62
     7
  2
*UDIM70
 70
    65
 10
0.0
 20
0.0
 30
0.0
  3
*UDIM70
  0
TEXT
  5
    6E
  8
0
  6
CONTINUOUS
 62
     7
 10
-527.106779512129
 20
95.0942077659268
 30
0.0
 40
3.00000002980232
  1
31
 50
359.999999948034
 41
0.933333333333333
 72
     1
 11
-524.606779485941
 21
96.594207778573
 31
0.0
 73
     2
  0
LINE
  5
    6F
  8
0
  6
CONTINUOUS
 62
     7
 10
-532.081779479981
 20
85.8617468305318
 30
0.0
 11
-532.081779479981
 21
96.0942077636719
 31
0.0
  0
LINE
  5
    70
  8
0
  6
CONTINUOUS
 62
     7
 10
-516.581779479981
 20
94.0942077636719
 30
0.0
 11
-532.081779479981
 21
94.0942077636719
 31
0.0
  0
LINE
  5
    71
  8
0
  6
CONTINUOUS
 62
     7
 10
-519.536202757187
 20
93.5732633337202
 30
0.0
 11
-516.581779479981
 21
94.0942077636719
 31
0.0
  0
LINE
  5
    72
  8
0
  6
CONTINUOUS
 62
     7
 10
-516.581779479981
 20
94.0942077636719
 30
0.0
 11
-519.536202757187
 21
94.6151521936235
 31
0.0
  0
LINE
  5
    73
  8
0
  6
CONTINUOUS
 62
     7
 10
-529.127356202774
 20
94.6151521936235
 30
0.0
 11
-532.081779479981
 21
94.0942077636719
 31
0.0
  0
LINE
  5
    74
  8
0
  6
CONTINUOUS
 62
     7
 10
-532.081779479981
 20
94.0942077636719
 30
0.0
 11
-529.127356202774
 21
93.5732633337202
 31
0.0
  0
ENDBLK
  5
    75
  8
0
  6
CONTINUOUS
 62
     7
  0
BLOCK
  5
    76
  8
0
  6
CONTINUOUS
 62
     7
  2
*UDIM71
 70
    65
 10
0.0
 20
0.0
 30
0.0
  3
*UDIM71
  0
TEXT
  5
    77
  8
0
  6
CONTINUOUS
 62
     7
 10
-539.331779587628
 20
95.094207764664
 30
0.0
 40
3.00000002980232
  1
3
 50
359.999999948034
 41
0.933333333333334
 72
     1
 11
-538.231779575348
 21
96.594207778573
 31
0.0
 73
     2
  0
TEXT
  5
    78
  8
0
  6
CONTINUOUS
 62
     7
 10
-542.081779621404
 20
95.094207764664
 30
0.0
 40
3.00000002980232
  1
_
 50
359.999999948034
 41
0.933333333333334
 72
     1
 11
-540.981779609124
 21
96.594207778573
 31
0.0
 73
     2
  0
LINE
  5
    79
  8
0
  6
CONTINUOUS
 62
     7
 10
-533.581779479981
 20
85.7495740588135
 30
0.0
 11
-533.581779479981
 21
96.0942077636719
 31
0.0
  0
LINE
  5
    7A
  8
0
  6
CONTINUOUS
 62
     7
 10
-532.081779479981
 20
94.0942077636719
 30
0.0
 11
-542.081779620051
 21
94.0942077636719
 31
0.0
  0
LINE
  5
    7B
  8
0
  6
CONTINUOUS
 62
     7
 10
-529.127356202774
 20
94.6151521936235
 30
0.0
 11
-532.081779479981
 21
94.0942077636719
 31
0.0
  0
LINE
  5
    7C
  8
0
  6
CONTINUOUS
 62
     7
 10
-532.081779479981
 20
94.0942077636719
 30
0.0
 11
-529.127356202774
 21
93.5732633337202
 31
0.0
  0
LINE
  5
    7D
  8
0
  6
CONTINUOUS
 62
     7
 10
-536.536202757187
 20
93.5732633337202
 30
0.0
 11
-533.581779479981
 21
94.0942077636719
 31
0.0
  0
LINE
  5
    7E
  8
0
  6
CONTINUOUS
 62
     7
 10
-533.581779479981
 20
94.0942077636719
 30
0.0
 11
-536.536202757187
 21
94.6151521936235
 31
0.0
  0
ENDBLK
  5
    7F
  8
0
  6
CONTINUOUS
 62
     7
  0
BLOCK
  5
    80
  8
0
  6
CONTINUOUS
 62
     7
  2
*UDIM72
 70
    65
 10
0.0
 20
0.0
 30
0.0
  3
*UDIM72
  0
TEXT
  5
    81
  8
0
  6
CONTINUOUS
 62
     7
 10
-449.831794846417
 20
-96.5867233266446
 30
0.0
 40
3.00000002980232
  1
2
 50
359.999999948034
 41
0.933333333333334
 72
     1
 11
-448.731794834137
 21
-95.0867233127356
 31
0.0
 73
     2
  0
LINE
  5
    82
  8
0
  6
CONTINUOUS
 62
     7
 10
-452.83179473877
 20
-69.2096331224968
 30
0.0
 11
-452.83179473877
 21
-99.5867233276367
 31
0.0
  0
LINE
  5
    83
  8
0
  6
CONTINUOUS
 62
     7
 10
-453.83179473877
 20
-68.4987897490028
 30
0.0
 11
-453.83179473877
 21
-99.5867233276367
 31
0.0
  0
LINE
  5
    84
  8
0
  6
CONTINUOUS
 62
     7
 10
-447.63179482321
 20
-97.5867233276367
 30
0.0
 11
-453.83179473877
 21
-97.5867233276367
 31
0.0
  0
LINE
  5
    85
  8
0
  6
CONTINUOUS
 62
     7
 10
-449.877371461563
 20
-97.0657788976851
 30
0.0
 11
-452.83179473877
 21
-97.5867233276367
 31
0.0
  0
LINE
  5
    86
  8
0
  6
CONTINUOUS
 62
     7
 10
-452.83179473877
 20
-97.5867233276367
 30
0.0
 11
-449.877371461563
 21
-98.1076677575884
 31
0.0
  0
LINE
  5
    87
  8
0
  6
CONTINUOUS
 62
     7
 10
-456.786218015977
 20
-98.1076677575884
 30
0.0
 11
-453.83179473877
 21
-97.5867233276367
 31
0.0
  0
LINE
  5
    88
  8
0
  6
CONTINUOUS
 62
     7
 10
-453.83179473877
 20
-97.5867233276367
 30
0.0
 11
-456.786218015977
 21
-97.0657788976851
 31
0.0
  0
ENDBLK
  5
    89
  8
0
  6
CONTINUOUS
 62
     7
  0
BLOCK
  5
    8A
  8
0
  6
CONTINUOUS
 62
     7
  2
*UDIM73
 70
    65
 10
0.0
 20
0.0
 30
0.0
  3
*UDIM73
  0
TEXT
  5
    8B
  8
0
  6
CONTINUOUS
 62
     7
 10
-499.931787183247
 20
-96.5867233215937
 30
0.0
 40
3.00000002980232
  1
156,5
 50
359.999999948034
 41
0.933333333333333
 72
     1
 11
-493.231787115336
 21
-95.0867233127356
 31
0.0
 73
     2
  0
LINE
  5
    8C
  8
0
  6
CONTINUOUS
 62
     7
 10
-532.081779479981
 20
-76.8818350417317
 30
0.0
 11
-532.081779479981
 21
-99.5867233276367
 31
0.0
  0
LINE
  5
    8D
  8
0
  6
CONTINUOUS
 62
     7
 10
-453.83179473877
 20
-97.5867233276367
 30
0.0
 11
-532.081779479981
 21
-97.5867233276367
 31
0.0
  0
LINE
  5
    8E
  8
0
  6
CONTINUOUS
 62
     7
 10
-456.786218015977
 20
-98.1076677575884
 30
0.0
 11
-453.83179473877
 21
-97.5867233276367
 31
0.0
  0
LINE
  5
    8F
  8
0
  6
CONTINUOUS
 62
     7
 10
-453.83179473877
 20
-97.5867233276367
 30
0.0
 11
-456.786218015977
 21
-97.0657788976851
 31
0.0
  0
LINE
  5
    90
  8
0
  6
CONTINUOUS
 62
     7
 10
-529.127356202774
 20
-97.0657788976851
 30
0.0
 11
-532.081779479981
 21
-97.5867233276367
 31
0.0
  0
LINE
  5
    91
  8
0
  6
CONTINUOUS
 62
     7
 10
-532.081779479981
 20
-97.5867233276367
 30
0.0
 11
-529.127356202774
 21
-98.1076677575884
 31
0.0
  0
ENDBLK
  5
    92
  8
0
  6
CONTINUOUS
 62
     7
  0
BLOCK
  5
    93
  8
0
  6
CONTINUOUS
 62
     7
  2
*UDIM74
 70
    65
 10
0.0
 20
0.0
 30
0.0
  3
*UDIM74
  0
TEXT
  5
    94
  8
0
  6
CONTINUOUS
 62
     7
 10
-498.006787156296
 20
-85.6990699732891
 30
0.0
 40
3.00000002980232
  1
153
 50
359.999999948034
 41
0.933333333333333
 72
     1
 11
-494.1067871162
 21
-84.1990699619055
 31
0.0
 73
     2
  0
LINE
  5
    95
  8
0
  6
CONTINUOUS
 62
     7
 10
-455.581795052686
 20
-19.1433773803887
 30
0.0
 11
-455.581816887364
 21
-88.6990699768065
 31
0.0
  0
LINE
  5
    96
  8
0
  6
CONTINUOUS
 62
     7
 10
-532.081779793897
 20
-76.8818350417317
 30
0.0
 11
-532.081783503522
 21
-88.6990699768065
 31
0.0
  0
LINE
  5
    97
  8
0
  6
CONTINUOUS
 62
     7
 10
-455.581816259531
 20
-86.6990699768066
 30
0.0
 11
-532.081782875689
 21
-86.6990699768066
 31
0.0
  0
LINE
  5
    98
  8
0
  6
CONTINUOUS
 62
     7
 10
-458.536239536738
 20
-87.2200144067583
 30
0.0
 11
-455.581816259531
 21
-86.6990699768066
 31
0.0
  0
LINE
  5
    99
  8
0
  6
CONTINUOUS
 62
     7
 10
-455.581816259531
 20
-86.6990699768066
 30
0.0
 11
-458.536239536738
 21
-86.178125546855
 31
0.0
  0
LINE
  5
    9A
  8
0
  6
CONTINUOUS
 62
     7
 10
-529.127359598482
 20
-86.178125546855
 30
0.0
 11
-532.081782875689
 21
-86.6990699768066
 31
0.0
  0
LINE
  5
    9B
  8
0
  6
CONTINUOUS
 62
     7
 10
-532.081782875689
 20
-86.6990699768066
 30
0.0
 11
-529.127359598482
 21
-87.2200144067583
 31
0.0
  0
ENDBLK
  5
    9C
  8
0
  6
CONTINUOUS
 62
     7
  0
BLOCK
  5
    9D
  8
0
  6
CONTINUOUS
 62
     7
  2
*UDIM75
 70
    65
 10
0.0
 20
0.0
 30
0.0
  3
*UDIM75
  0
TEXT
  5
    9E
  8
0
  6
CONTINUOUS
 62
     7
 10
-492.920770339446
 20
-104.640167230285
 30
0.0
 40
3.00000002980232
  1
184,5
 50
359.999999948034
 41
0.933333333333333
 72
     1
 11
-486.220770271534
 21
-103.140167221427
 31
0.0
 73
     2
  0
LINE
  5
    9F
  8
0
  6
CONTINUOUS
 62
     7
 10
-439.809753747675
 20
1.98162261961129
 30
0.0
 11
-439.80978815976
 21
-107.640167236328
 31
0.0
  0
LINE
  5
    A0
  8
0
  6
CONTINUOUS
 62
     7
 10
-532.081779793897
 20
-76.8818350417317
 30
0.0
 11
-532.081789449444
 21
-107.640167236328
 31
0.0
  0
LINE
  5
    A1
  8
0
  6
CONTINUOUS
 62
     7
 10
-439.809787531927
 20
-105.640167236328
 30
0.0
 11
-532.081788821611
 21
-105.640167236328
 31
0.0
  0
LINE
  5
    A2
  8
0
  6
CONTINUOUS
 62
     7
 10
-442.764210809134
 20
-106.16111166628
 30
0.0
 11
-439.809787531927
 21
-105.640167236328
 31
0.0
  0
LINE
  5
    A3
  8
0
  6
CONTINUOUS
 62
     7
 10
-439.809787531927
 20
-105.640167236328
 30
0.0
 11
-442.764210809134
 21
-105.119222806376
 31
0.0
  0
LINE
  5
    A4
  8
0
  6
CONTINUOUS
 62
     7
 10
-529.127365544404
 20
-105.119222806376
 30
0.0
 11
-532.081788821611
 21
-105.640167236328
 31
0.0
  0
LINE
  5
    A5
  8
0
  6
CONTINUOUS
 62
     7
 10
-532.081788821611
 20
-105.640167236328
 30
0.0
 11
-529.127365544404
 21
-106.16111166628
 31
0.0
  0
ENDBLK
  5
    A6
  8
0
  6
CONTINUOUS
 62
     7
  0
BLOCK
  5
    A7
  8
0
  6
CONTINUOUS
 62
     7
  2
*UDIM76
 70
    65
 10
0.0
 20
0.0
 30
0.0
  3
*UDIM76
  0
TEXT
  5
    A8
  8
0
  6
CONTINUOUS
 62
     7
 10
-428.197158817009
 20
3.931613126213
 30
0.0
 40
3.00000002980232
  1
105
 50
89.9999999480344
 41
0.933333333333333
 72
     1
 11
-429.697158828378
 21
7.83161316631459
 31
0.0
 73
     2
  0
LINE
  5
    A9
  8
0
  6
CONTINUOUS
 62
     7
 10
-452.83179473877
 20
-18.1433773803887
 30
0.0
 11
-425.197158813477
 21
-18.1433773803887
 31
0.0
  0
LINE
  5
    AA
  8
0
  6
CONTINUOUS
 62
     7
 10
-452.83179473877
 20
34.3566073608222
 30
0.0
 11
-425.197158813477
 21
34.3566073608222
 31
0.0
  0
LINE
  5
    AB
  8
0
  6
CONTINUOUS
 62
     7
 10
-427.197158813477
 20
-18.1433773803887
 30
0.0
 11
-427.197158813477
 21
34.3566073608222
 31
0.0
  0
LINE
  5
    AC
  8
0
  6
CONTINUOUS
 62
     7
 10
-427.718103243428
 20
-15.1889541031818
 30
0.0
 11
-427.197158813477
 21
-18.1433773803887
 31
0.0
  0
LINE
  5
    AD
  8
0
  6
CONTINUOUS
 62
     7
 10
-427.197158813477
 20
-18.1433773803887
 30
0.0
 11
-426.676214383525
 21
-15.1889541031818
 31
0.0
  0
LINE
  5
    AE
  8
0
  6
CONTINUOUS
 62
     7
 10
-426.676214383525
 20
31.4021840836152
 30
0.0
 11
-427.197158813477
 21
34.3566073608222
 31
0.0
  0
LINE
  5
    AF
  8
0
  6
CONTINUOUS
 62
     7
 10
-427.197158813477
 20
34.3566073608222
 30
0.0
 11
-427.718103243428
 21
31.4021840836152
 31
0.0
  0
ENDBLK
  5
    B0
  8
0
  6
CONTINUOUS
 62
     7
  0
BLOCK
  5
    B1
  8
0
  6
CONTINUOUS
 62
     0
  2
$1ON-OFF
 70
    64
 10
0.0
 20
0.0
 30
0.0
  3
$1ON-OFF
  0
LINE
  5
    B2
  8
0
  6
CONTINUOUS
 62
     0
 10
5.09999999999999
 20
-29.65
 30
0.0
 11
5.54999999999999
 21
-29.65
 31
0.0
  0
LINE
  5
    B3
  8
0
  6
CONTINUOUS
 62
     0
 10
3.79999999999999
 20
-37.35
 30
0.0
 11
4.59999999999999
 21
-37.35
 31
0.0
  0
LINE
  5
    B4
  8
0
  6
CONTINUOUS
 62
     0
 10
-2.6
 20
-34.75
 30
0.0
 11
-2.6
 21
-34.25
 31
0.0
  0
LINE
  5
    B5
  8
0
  6
CONTINUOUS
 62
     0
 10
2.6
 20
-34.75
 30
0.0
 11
2.6
 21
-34.25
 31
0.0
  0
ARC
  5
    B6
  8
0
  6
CONTINUOUS
 62
     0
 10
-3.5527136788005E-15
 20
-34.25
 30
0.0
 40
2.6
 50
0.0
 51
180.0
  0
ARC
  5
    B7
  8
0
  6
CONTINUOUS
 62
     0
 10
-3.5527136788005E-15
 20
-34.75
 30
0.0
 40
2.6
 50
180.0
 51
360.0
  0
ARC
  5
    B8
  8
0
  6
CONTINUOUS
 62
     0
 10
-3.5527136788005E-15
 20
-34.25
 30
0.0
 40
1.8
 50
0.0
 51
180.0
  0
ARC
  5
    B9
  8
0
  6
CONTINUOUS
 62
     0
 10
-3.5527136788005E-15
 20
-34.75
 30
0.0
 40
1.8
 50
180.0
 51
360.0
  0
LINE
  5
    BA
  8
0
  6
CONTINUOUS
 62
     0
 10
-1.8
 20
-34.75
 30
0.0
 11
-1.8
 21
-34.25
 31
0.0
  0
LINE
  5
    BB
  8
0
  6
CONTINUOUS
 62
     0
 10
1.8
 20
-34.75
 30
0.0
 11
1.8
 21
-34.25
 31
0.0
  0
LINE
  5
    BC
  8
0
  6
CONTINUOUS
 62
     0
 10
2.84999999999999
 20
-32.85
 30
0.0
 11
2.84999999999999
 21
-32.05
 31
0.0
  0
LINE
  5
    BD
  8
0
  6
CONTINUOUS
 62
     0
 10
2.84999999999999
 20
-32.85
 30
0.0
 11
3.79999999999999
 21
-32.85
 31
0.0
  0
LINE
  5
    BE
  8
0
  6
CONTINUOUS
 62
     0
 10
5.54999999999999
 20
-32.85
 30
0.0
 11
5.54999999999999
 21
-32.05
 31
0.0
  0
LINE
  5
    BF
  8
0
  6
CONTINUOUS
 62
     0
 10
2.84999999999999
 20
-32.05
 30
0.0
 11
3.79999999999999
 21
-32.05
 31
0.0
  0
LINE
  5
    C0
  8
0
  6
CONTINUOUS
 62
     0
 10
3.79999999999999
 20
-37.35
 30
0.0
 11
3.79999999999999
 21
-32.85
 31
0.0
  0
LINE
  5
    C1
  8
0
  6
CONTINUOUS
 62
     0
 10
4.59999999999999
 20
-37.35
 30
0.0
 11
4.59999999999999
 21
-32.85
 31
0.0
  0
LINE
  5
    C2
  8
0
  6
CONTINUOUS
 62
     0
 10
4.59999999999999
 20
-32.85
 30
0.0
 11
5.54999999999999
 21
-32.85
 31
0.0
  0
LINE
  5
    C3
  8
0
  6
CONTINUOUS
 62
     0
 10
4.59999999999999
 20
-32.05
 30
0.0
 11
5.54999999999999
 21
-32.05
 31
0.0
  0
LINE
  5
    C4
  8
0
  6
CONTINUOUS
 62
     0
 10
3.79999999999999
 20
-32.05
 30
0.0
 11
3.79999999999999
 21
-30.95
 31
0.0
  0
LINE
  5
    C5
  8
0
  6
CONTINUOUS
 62
     0
 10
4.59999999999999
 20
-32.05
 30
0.0
 11
4.59999999999999
 21
-30.95
 31
0.0
  0
ARC
  5
    C6
  8
0
  6
CONTINUOUS
 62
     0
 10
5.09999999999999
 20
-30.95
 30
0.0
 40
1.3
 50
89.9999999999999
 51
180.0
  0
ARC
  5
    C7
  8
0
  6
CONTINUOUS
 62
     0
 10
5.09999999999999
 20
-30.95
 30
0.0
 40
0.5
 50
89.9999999999999
 51
180.0
  0
LINE
  5
    C8
  8
0
  6
CONTINUOUS
 62
     0
 10
5.54999999999999
 20
-30.45
 30
0.0
 11
5.54999999999999
 21
-29.65
 31
0.0
  0
LINE
  5
    C9
  8
0
  6
CONTINUOUS
 62
     0
 10
5.09999999999999
 20
-30.45
 30
0.0
 11
5.54999999999999
 21
-30.45
 31
0.0
  0
LINE
  5
    CA
  8
0
  6
CONTINUOUS
 62
     0
 10
8.29999999999998
 20
-29.65
 30
0.0
 11
8.74999999999999
 21
-29.65
 31
0.0
  0
LINE
  5
    CB
  8
0
  6
CONTINUOUS
 62
     0
 10
6.99999999999999
 20
-37.35
 30
0.0
 11
7.79999999999999
 21
-37.35
 31
0.0
  0
LINE
  5
    CC
  8
0
  6
CONTINUOUS
 62
     0
 10
6.04999999999999
 20
-32.85
 30
0.0
 11
6.04999999999999
 21
-32.05
 31
0.0
  0
LINE
  5
    CD
  8
0
  6
CONTINUOUS
 62
     0
 10
6.04999999999999
 20
-32.85
 30
0.0
 11
6.99999999999999
 21
-32.85
 31
0.0
  0
LINE
  5
    CE
  8
0
  6
CONTINUOUS
 62
     0
 10
8.74999999999999
 20
-32.85
 30
0.0
 11
8.74999999999999
 21
-32.05
 31
0.0
  0
LINE
  5
    CF
  8
0
  6
CONTINUOUS
 62
     0
 10
6.04999999999999
 20
-32.05
 30
0.0
 11
6.99999999999999
 21
-32.05
 31
0.0
  0
LINE
  5
    D0
  8
0
  6
CONTINUOUS
 62
     0
 10
6.99999999999999
 20
-37.35
 30
0.0
 11
6.99999999999999
 21
-32.85
 31
0.0
  0
LINE
  5
    D1
  8
0
  6
CONTINUOUS
 62
     0
 10
7.79999999999999
 20
-37.35
 30
0.0
 11
7.79999999999999
 21
-32.85
 31
0.0
  0
LINE
  5
    D2
  8
0
  6
CONTINUOUS
 62
     0
 10
7.79999999999999
 20
-32.85
 30
0.0
 11
8.74999999999999
 21
-32.85
 31
0.0
  0
LINE
  5
    D3
  8
0
  6
CONTINUOUS
 62
     0
 10
7.79999999999999
 20
-32.05
 30
0.0
 11
8.74999999999999
 21
-32.05
 31
0.0
  0
LINE
  5
    D4
  8
0
  6
CONTINUOUS
 62
     0
 10
6.99999999999999
 20
-32.05
 30
0.0
 11
6.99999999999999
 21
-30.95
 31
0.0
  0
LINE
  5
    D5
  8
0
  6
CONTINUOUS
 62
     0
 10
7.79999999999999
 20
-32.05
 30
0.0
 11
7.79999999999999
 21
-30.95
 31
0.0
  0
ARC
  5
    D6
  8
0
  6
CONTINUOUS
 62
     0
 10
8.29999999999998
 20
-30.95
 30
0.0
 40
1.3
 50
89.9999999999999
 51
180.0
  0
ARC
  5
    D7
  8
0
  6
CONTINUOUS
 62
     0
 10
8.29999999999998
 20
-30.95
 30
0.0
 40
0.5
 50
89.9999999999999
 51
180.0
  0
LINE
  5
    D8
  8
0
  6
CONTINUOUS
 62
     0
 10
8.74999999999999
 20
-30.45
 30
0.0
 11
8.74999999999999
 21
-29.65
 31
0.0
  0
LINE
  5
    D9
  8
0
  6
CONTINUOUS
 62
     0
 10
8.29999999999998
 20
-30.45
 30
0.0
 11
8.74999999999999
 21
-30.45
 31
0.0
  0
LINE
  5
    DA
  8
0
  6
CONTINUOUS
 62
     0
 10
3.4
 20
-2.85000000000002
 30
0.0
 11
4.19999999999999
 21
-2.85000000000002
 31
0.0
  0
ARC
  5
    DB
  8
0
  6
CONTINUOUS
 62
     0
 10
-3.5527136788005E-15
 20
0.249999999999979
 30
0.0
 40
2.6
 50
0.0
 51
180.0
  0
ARC
  5
    DC
  8
0
  6
CONTINUOUS
 62
     0
 10
-3.5527136788005E-15
 20
0.249999999999979
 30
0.0
 40
1.8
 50
0.0
 51
180.0
  0
ARC
  5
    DD
  8
0
  6
CONTINUOUS
 62
     0
 10
-3.5527136788005E-15
 20
-0.250000000000018
 30
0.0
 40
2.6
 50
180.0
 51
360.0
  0
ARC
  5
    DE
  8
0
  6
CONTINUOUS
 62
     0
 10
-3.5527136788005E-15
 20
-0.250000000000018
 30
0.0
 40
1.8
 50
180.0
 51
360.0
  0
LINE
  5
    DF
  8
0
  6
CONTINUOUS
 62
     0
 10
1.8
 20
-0.250000000000018
 30
0.0
 11
1.8
 21
0.249999999999979
 31
0.0
  0
LINE
  5
    E0
  8
0
  6
CONTINUOUS
 62
     0
 10
2.6
 20
-0.250000000000018
 30
0.0
 11
2.6
 21
0.249999999999979
 31
0.0
  0
LINE
  5
    E1
  8
0
  6
CONTINUOUS
 62
     0
 10
-1.8
 20
-0.250000000000032
 30
0.0
 11
-1.8
 21
0.249999999999964
 31
0.0
  0
LINE
  5
    E2
  8
0
  6
CONTINUOUS
 62
     0
 10
-2.6
 20
-0.250000000000018
 30
0.0
 11
-2.6
 21
0.249999999999979
 31
0.0
  0
LINE
  5
    E3
  8
0
  6
CONTINUOUS
 62
     0
 10
3.4
 20
-2.85000000000002
 30
0.0
 11
3.4
 21
2.84999999999998
 31
0.0
  0
LINE
  5
    E4
  8
0
  6
CONTINUOUS
 62
     0
 10
4.19999999999999
 20
-2.85000000000002
 30
0.0
 11
4.19999999999999
 21
0.649999999999981
 31
0.0
  0
LINE
  5
    E5
  8
0
  6
CONTINUOUS
 62
     0
 10
6.99999999999999
 20
-2.85000000000002
 30
0.0
 11
6.99999999999999
 21
0.649999999999981
 31
0.0
  0
LINE
  5
    E6
  8
0
  6
CONTINUOUS
 62
     0
 10
7.79999999999999
 20
-2.85000000000002
 30
0.0
 11
7.79999999999999
 21
0.84999999999998
 31
0.0
  0
LINE
  5
    E7
  8
0
  6
CONTINUOUS
 62
     0
 10
3.4
 20
2.84999999999998
 30
0.0
 11
4.19999999999999
 21
2.84999999999998
 31
0.0
  0
ARC
  5
    E8
  8
0
  6
CONTINUOUS
 62
     0
 10
5.59999999999999
 20
0.649999999999981
 30
0.0
 40
1.4
 50
0.0
 51
180.0
  0
LINE
  5
    E9
  8
0
  6
CONTINUOUS
 62
     0
 10
4.19999999999999
 20
2.05
 30
0.0
 11
4.19999999999999
 21
2.84999999999998
 31
0.0
  0
ARC
  5
    EA
  8
0
  6
CONTINUOUS
 62
     0
 10
5.79999999999999
 20
0.84999999999998
 30
0.0
 40
2.0
 50
0.0
 51
143.130102354155
  0
LINE
  5
    EB
  8
0
  6
CONTINUOUS
 62
     0
 10
6.99999999999999
 20
-2.85000000000002
 30
0.0
 11
7.79999999999999
 21
-2.85000000000002
 31
0.0
  0
ENDBLK
  5
    EC
  8
0
  6
CONTINUOUS
 62
     0
  0
BLOCK
  5
    ED
  8
0
  6
CONTINUOUS
 62
     7
  2
MOSTRINA
 70
    64
 10
0.0
 20
0.0
 30
0.0
  3
MOSTRINA
  0
LINE
  5
    EE
  8
0
  6
CONTINUOUS
 62
     3
 10
173.338256835938
 20
30.7306251525879
 30
0.0
 11
173.338256835938
 21
189.230621337891
 31
0.0
  0
LINE
  5
    EF
  8
0
  6
CONTINUOUS
 62
     3
 10
57.5882568359375
 20
29.4806251525879
 30
0.0
 11
172.088256835938
 21
29.4806251525879
 31
0.0
  0
LINE
  5
    F0
  8
0
  6
CONTINUOUS
 62
     3
 10
56.3382568359375
 20
30.7306251525879
 30
0.0
 11
56.3382568359375
 21
189.230621337891
 31
0.0
  0
LINE
  5
    F1
  8
0
  6
CONTINUOUS
 62
     3
 10
57.5882568359375
 20
190.480621337891
 30
0.0
 11
172.088256835938
 21
190.480621337891
 31
0.0
  0
LINE
  5
    F2
  8
0
  6
CONTINUOUS
 62
     3
 10
167.838256835938
 20
56.9806251525879
 30
0.0
 11
167.838256835938
 21
162.980625152588
 31
0.0
  0
LINE
  5
    F3
  8
0
  6
CONTINUOUS
 62
     3
 10
61.8382568359375
 20
56.9806251525879
 30
0.0
 11
167.838256835938
 21
56.9806251525879
 31
0.0
  0
LINE
  5
    F4
  8
0
  6
CONTINUOUS
 62
     3
 10
61.8382568359375
 20
56.9806251525879
 30
0.0
 11
61.8382568359375
 21
162.980625152588
 31
0.0
  0
LINE
  5
    F5
  8
0
  6
CONTINUOUS
 62
     3
 10
61.8382568359375
 20
162.980621337891
 30
0.0
 11
167.838256835938
 21
162.980621337891
 31
0.0
  0
LINE
  5
    F6
  8
0
  6
CONTINUOUS
 62
     3
 10
168.838256835938
 20
48.4806251525879
 30
0.0
 11
168.838256835938
 21
49.4806251525879
 31
0.0
  0
LINE
  5
    F7
  8
0
  6
CONTINUOUS
 62
     3
 10
61.8382568359375
 20
50.4806251525879
 30
0.0
 11
167.838256835938
 21
50.4806251525879
 31
0.0
  0
LINE
  5
    F8
  8
0
  6
CONTINUOUS
 62
     3
 10
60.8382568359375
 20
48.4806251525879
 30
0.0
 11
60.8382568359375
 21
49.4806251525879
 31
0.0
  0
LINE
  5
    F9
  8
0
  6
CONTINUOUS
 62
     3
 10
61.8382568359375
 20
49.4806251525879
 30
0.0
 11
167.838256835938
 21
49.4806251525879
 31
0.0
  0
LINE
  5
    FA
  8
0
  6
CONTINUOUS
 62
     3
 10
60.8382568359375
 20
29.4806251525879
 30
0.0
 11
60.8382568359375
 21
48.4806251525879
 31
0.0
  0
LINE
  5
    FB
  8
0
  6
CONTINUOUS
 62
     3
 10
60.8382568359375
 20
49.4806213378906
 30
0.0
 11
60.8382568359375
 21
190.480621337891
 31
0.0
  0
LINE
  5
    FC
  8
0
  6
CONTINUOUS
 62
     3
 10
61.8382568359375
 20
29.4806251525879
 30
0.0
 11
61.8382568359375
 21
49.4806251525879
 31
0.0
  0
LINE
  5
    FD
  8
0
  6
CONTINUOUS
 62
     3
 10
61.8382568359375
 20
162.980621337891
 30
0.0
 11
61.8382568359375
 21
169.480621337891
 31
0.0
  0
LINE
  5
    FE
  8
0
  6
CONTINUOUS
 62
     3
 10
61.8382568359375
 20
50.4806251525879
 30
0.0
 11
61.8382568359375
 21
56.9806251525879
 31
0.0
  0
LINE
  5
    FF
  8
0
  6
CONTINUOUS
 62
     3
 10
168.838256835938
 20
29.4806251525879
 30
0.0
 11
168.838256835938
 21
48.4806251525879
 31
0.0
  0
LINE
  5
   100
  8
0
  6
CONTINUOUS
 62
     3
 10
168.838256835938
 20
49.4806251525879
 30
0.0
 11
168.838256835938
 21
190.480621337891
 31
0.0
  0
LINE
  5
   101
  8
0
  6
CONTINUOUS
 62
     3
 10
167.838256835938
 20
50.4806251525879
 30
0.0
 11
167.838256835938
 21
56.9806251525879
 31
0.0
  0
LINE
  5
   102
  8
0
  6
CONTINUOUS
 62
     3
 10
167.838256835938
 20
162.980621337891
 30
0.0
 11
167.838256835938
 21
169.480621337891
 31
0.0
  0
LINE
  5
   103
  8
0
  6
CONTINUOUS
 62
     3
 10
167.838256835938
 20
29.4806251525879
 30
0.0
 11
167.838256835938
 21
49.4806251525879
 31
0.0
  0
LINE
  5
   104
  8
0
  6
CONTINUOUS
 62
     3
 10
60.8382568359375
 20
170.480621337891
 30
0.0
 11
168.838256835938
 21
170.480621337891
 31
0.0
  0
LINE
  5
   105
  8
0
  6
CONTINUOUS
 62
     3
 10
61.8382568359375
 20
169.480621337891
 30
0.0
 11
167.838256835938
 21
169.480621337891
 31
0.0
  0
ARC
  5
   106
  8
0
  6
CONTINUOUS
 62
     3
 10
57.5882568359375
 20
30.7306251525879
 30
0.0
 40
1.25
 50
180.0
 51
270.0
  0
ARC
  5
   107
  8
0
  6
CONTINUOUS
 62
     3
 10
172.088256835938
 20
30.7306251525879
 30
0.0
 40
1.25
 50
270.0
 51
360.0
  0
ARC
  5
   108
  8
0
  6
CONTINUOUS
 62
     3
 10
172.088256835938
 20
189.230621337891
 30
0.0
 40
1.25
 50
0.0
 51
90.0
  0
ARC
  5
   109
  8
0
  6
CONTINUOUS
 62
     3
 10
57.5882568359375
 20
189.230621337891
 30
0.0
 40
1.25
 50
90.0
 51
180.0
  0
LINE
  5
   10A
  8
0
  6
DOT
 62
     3
 10
60.3382577409677
 20
179.7306252571
 30
0.0
 11
60.8382568359375
 21
179.7306252571
 31
0.0
  0
LINE
  5
   10B
  8
0
  6
DOT
 62
     3
 10
60.3382577409676
 20
181.2306252571
 30
0.0
 11
60.8382568359375
 21
181.2306252571
 31
0.0
  0
LINE
  5
   10C
  8
0
  6
CONTINUOUS
 62
     3
 10
168.338257745313
 20
179.730625257273
 30
0.0
 11
168.838256835938
 21
179.730625257273
 31
0.0
  0
LINE
  5
   10D
  8
0
  6
CONTINUOUS
 62
     3
 10
168.338257745314
 20
181.230625257273
 30
0.0
 11
168.838256835938
 21
181.230625257273
 31
0.0
  0
ARC
  5
   10E
  8
0
  6
DOT
 62
     3
 10
60.3382577401871
 20
180.480625257147
 30
0.0
 40
0.749999999345164
 50
90.0
 51
270.0
  0
ARC
  5
   10F
  8
0
  6
CONTINUOUS
 62
     3
 10
61.338257740822
 20
180.480625256974
 30
0.0
 40
0.750000000009701
 50
270.0
 51
450.0
  0
LINE
  5
   110
  8
0
  6
CONTINUOUS
 62
     3
 10
60.8382568359375
 20
181.2306252571
 30
0.0
 11
61.3382577409688
 21
181.2306252571
 31
0.0
  0
LINE
  5
   111
  8
0
  6
CONTINUOUS
 62
     3
 10
60.8382568359375
 20
179.7306252571
 30
0.0
 11
61.3382577409689
 21
179.7306252571
 31
0.0
  0
ARC
  5
   112
  8
0
  6
CONTINUOUS
 62
     3
 10
168.338257745503
 20
180.480625256952
 30
0.0
 40
0.750000000048506
 50
90.0000000038822
 51
269.999999996024
  0
ARC
  5
   113
  8
0
  6
DOT
 62
     3
 10
169.338257745421
 20
180.480625256965
 30
0.0
 40
0.750000000029104
 50
270.000000002449
 51
449.999999997486
  0
LINE
  5
   114
  8
0
  6
DOT
 62
     3
 10
168.838256835938
 20
181.230625257273
 30
0.0
 11
169.338257745315
 21
181.230625257273
 31
0.0
  0
LINE
  5
   115
  8
0
  6
DOT
 62
     3
 10
168.838256835938
 20
179.730625257273
 30
0.0
 11
169.338257745315
 21
179.730625257273
 31
0.0
  0
POINT
  5
   116
  8
0
  6
CONTINUOUS
 62
     3
 10
114.838256835938
 20
109.980621337891
 30
0.0
  0
ENDBLK
  5
   117
  8
0
  6
CONTINUOUS
 62
     7
  0
BLOCK
  5
   118
  8
0
  6
CONTINUOUS
 62
     7
  2
*UDIM77
 70
    65
 10
0.0
 20
0.0
 30
0.0
  3
*UDIM77
  0
TEXT
  5
   119
  8
0
  6
CONTINUOUS
 62
     7
 10
-615.075741624046
 20
96.7432174717793
 30
0.0
 40
3.00000002980232
  1
117
 50
359.999999948034
 41
0.933333333333333
 72
     1
 11
-611.17574158395
 21
98.2432174831629
 31
0.0
 73
     2
  0
LINE
  5
   11A
  8
0
  6
CONTINUOUS
 62
     7
 10
-581.650742263443
 20
48.7316055297851
 30
0.0
 11
-581.650742263443
 21
97.7432174682617
 31
0.0
  0
LINE
  5
   11B
  8
0
  6
CONTINUOUS
 62
     7
 10
-640.150742263443
 20
48.7316055297852
 30
0.0
 11
-640.150742263443
 21
97.7432174682617
 31
0.0
  0
LINE
  5
   11C
  8
0
  6
CONTINUOUS
 62
     7
 10
-581.650742263443
 20
95.7432174682617
 30
0.0
 11
-640.150742263443
 21
95.7432174682617
 31
0.0
  0
LINE
  5
   11D
  8
0
  6
CONTINUOUS
 62
     7
 10
-584.60516554065
 20
95.2222730383101
 30
0.0
 11
-581.650742263443
 21
95.7432174682617
 31
0.0
  0
LINE
  5
   11E
  8
0
  6
CONTINUOUS
 62
     7
 10
-581.650742263443
 20
95.7432174682617
 30
0.0
 11
-584.60516554065
 21
96.2641618982134
 31
0.0
  0
LINE
  5
   11F
  8
0
  6
CONTINUOUS
 62
     7
 10
-637.196318986236
 20
96.2641618982134
 30
0.0
 11
-640.150742263443
 21
95.7432174682617
 31
0.0
  0
LINE
  5
   120
  8
0
  6
CONTINUOUS
 62
     7
 10
-640.150742263443
 20
95.7432174682617
 30
0.0
 11
-637.196318986236
 21
95.2222730383101
 31
0.0
  0
ENDBLK
  5
   121
  8
0
  6
CONTINUOUS
 62
     7
  0
BLOCK
  5
   122
  8
0
  6
CONTINUOUS
 62
     7
  2
*UDIM78
 70
    65
 10
0.0
 20
0.0
 30
0.0
  3
*UDIM78
  0
TEXT
  5
   123
  8
0
  6
CONTINUOUS
 62
     7
 10
-566.927698615745
 20
3.9316054837231
 30
0.0
 40
3.00000002980232
  1
161
 50
89.9999999480344
 41
0.933333333333333
 72
     1
 11
-568.427698627114
 21
7.83160552382469
 31
0.0
 73
     2
  0
LINE
  5
   124
  8
0
  6
CONTINUOUS
 62
     7
 10
-581.275742263443
 20
-32.1433925628662
 30
0.0
 11
-563.927698612213
 21
-32.1433925628662
 31
0.0
  0
LINE
  5
   125
  8
0
  6
CONTINUOUS
 62
     7
 10
-581.275742263443
 20
48.3566055297852
 30
0.0
 11
-563.927698612213
 21
48.3566055297852
 31
0.0
  0
LINE
  5
   126
  8
0
  6
CONTINUOUS
 62
     7
 10
-565.927698612213
 20
-32.1433925628662
 30
0.0
 11
-565.927698612213
 21
48.3566055297852
 31
0.0
  0
LINE
  5
   127
  8
0
  6
CONTINUOUS
 62
     7
 10
-566.448643042165
 20
-29.1889692856592
 30
0.0
 11
-565.927698612213
 21
-32.1433925628662
 31
0.0
  0
LINE
  5
   128
  8
0
  6
CONTINUOUS
 62
     7
 10
-565.927698612213
 20
-32.1433925628662
 30
0.0
 11
-565.406754182262
 21
-29.1889692856592
 31
0.0
  0
LINE
  5
   129
  8
0
  6
CONTINUOUS
 62
     7
 10
-565.406754182262
 20
45.4021822525782
 30
0.0
 11
-565.927698612213
 21
48.3566055297852
 31
0.0
  0
LINE
  5
   12A
  8
0
  6
CONTINUOUS
 62
     7
 10
-565.927698612213
 20
48.3566055297852
 30
0.0
 11
-566.448643042165
 21
45.4021822525782
 31
0.0
  0
ENDBLK
  5
   12B
  8
0
  6
CONTINUOUS
 62
     7
  0
BLOCK
  5
   12C
  8
0
  6
CONTINUOUS
 62
     7
  2
*UDIM79
 70
    65
 10
0.0
 20
0.0
 30
0.0
  3
*UDIM79
  0
TEXT
  5
   12D
  8
0
  6
CONTINUOUS
 62
     7
 10
-670.208168037122
 20
37.4190825601642
 30
0.0
 40
3.00000002980232
  1
150,75
 50
89.9999999480344
 41
0.933333333333333
 72
     1
 11
-671.708168044686
 21
45.5190826419891
 31
0.0
 73
     2
  0
LINE
  5
   12E
  8
0
  6
CONTINUOUS
 62
     7
 10
-661.363327492341
 20
8.10660552978516
 30
0.0
 11
-671.208168029785
 21
8.10660552978516
 31
0.0
  0
LINE
  5
   12F
  8
0
  6
CONTINUOUS
 62
     7
 10
-637.325706974649
 20
83.481557739556
 30
0.0
 11
-671.208168029785
 21
83.481557739556
 31
0.0
  0
LINE
  5
   130
  8
0
  6
CONTINUOUS
 62
     7
 10
-669.208168029785
 20
8.10660552978516
 30
0.0
 11
-669.208168029785
 21
83.481557739556
 31
0.0
  0
LINE
  5
   131
  8
0
  6
CONTINUOUS
 62
     7
 10
-669.729112459737
 20
11.0610288069921
 30
0.0
 11
-669.208168029785
 21
8.10660552978516
 31
0.0
  0
LINE
  5
   132
  8
0
  6
CONTINUOUS
 62
     7
 10
-669.208168029785
 20
8.10660552978516
 30
0.0
 11
-668.687223599834
 21
11.0610288069921
 31
0.0
  0
LINE
  5
   133
  8
0
  6
CONTINUOUS
 62
     7
 10
-668.687223599834
 20
80.5271344623491
 30
0.0
 11
-669.208168029785
 21
83.481557739556
 31
0.0
  0
LINE
  5
   134
  8
0
  6
CONTINUOUS
 62
     7
 10
-669.208168029785
 20
83.481557739556
 30
0.0
 11
-669.729112459737
 21
80.5271344623491
 31
0.0
  0
ENDBLK
  5
   135
  8
0
  6
CONTINUOUS
 62
     7
  0
BLOCK
  5
   136
  8
0
  6
CONTINUOUS
 62
     7
  2
*UDIM80
 70
    65
 10
0.0
 20
0.0
 30
0.0
  3
*UDIM80
  0
TEXT
  5
   137
  8
0
  6
CONTINUOUS
 62
     7
 10
-654.312637336438
 20
31.6690901795342
 30
0.0
 40
3.00000002980232
  1
127,75
 50
89.9999999480344
 41
0.933333333333333
 72
     1
 11
-655.812637344003
 21
39.7690902613591
 31
0.0
 73
     2
  0
LINE
  5
   138
  8
0
  6
CONTINUOUS
 62
     7
 10
-646.275745223246
 20
71.9815675542733
 30
0.0
 11
-655.312637329102
 21
71.9815675542733
 31
0.0
  0
LINE
  5
   139
  8
0
  6
CONTINUOUS
 62
     7
 10
-653.312637329102
 20
8.10660552978516
 30
0.0
 11
-653.312637329102
 21
71.9815675542733
 31
0.0
  0
LINE
  5
   13A
  8
0
  6
CONTINUOUS
 62
     7
 10
-653.833581759053
 20
11.0610288069921
 30
0.0
 11
-653.312637329102
 21
8.10660552978516
 31
0.0
  0
LINE
  5
   13B
  8
0
  6
CONTINUOUS
 62
     7
 10
-653.312637329102
 20
8.10660552978516
 30
0.0
 11
-652.79169289915
 21
11.0610288069921
 31
0.0
  0
LINE
  5
   13C
  8
0
  6
CONTINUOUS
 62
     7
 10
-652.79169289915
 20
69.0271442770663
 30
0.0
 11
-653.312637329102
 21
71.9815675542733
 31
0.0
  0
LINE
  5
   13D
  8
0
  6
CONTINUOUS
 62
     7
 10
-653.312637329102
 20
71.9815675542733
 30
0.0
 11
-653.833581759053
 21
69.0271442770663
 31
0.0
  0
ENDBLK
  5
   13E
  8
0
  6
CONTINUOUS
 62
     7
  0
BLOCK
  5
   13F
  8
0
  6
CONTINUOUS
 62
     7
  2
*UDIM81
 70
    65
 10
0.0
 20
0.0
 30
0.0
  3
*UDIM81
  0
TEXT
  5
   140
  8
0
  6
CONTINUOUS
 62
     7
 10
-677.951332094549
 20
-84.5433940616823
 30
0.0
 40
3.00000002980232
  1
14
 50
89.9999999480344
 41
0.933333333333333
 72
     1
 11
-679.451332107186
 21
-82.0433940354885
 31
0.0
 73
     2
  0
LINE
  5
   141
  8
0
  6
CONTINUOUS
 62
     7
 10
-616.775726318359
 20
-76.0183944702148
 30
0.0
 11
-678.951332092285
 21
-76.0183944702148
 31
0.0
  0
LINE
  5
   142
  8
0
  6
CONTINUOUS
 62
     7
 10
-615.450706974649
 20
-69.0183619387748
 30
0.0
 11
-678.951332092285
 21
-69.0183619387748
 31
0.0
  0
LINE
  5
   143
  8
0
  6
CONTINUOUS
 62
     7
 10
-676.951332092285
 20
-84.5433940603237
 30
0.0
 11
-676.951332092285
 21
-69.0183619387748
 31
0.0
  0
LINE
  5
   144
  8
0
  6
CONTINUOUS
 62
     7
 10
-677.472276522237
 20
-73.0639711930079
 30
0.0
 11
-676.951332092285
 21
-76.0183944702148
 31
0.0
  0
LINE
  5
   145
  8
0
  6
CONTINUOUS
 62
     7
 10
-676.951332092285
 20
-76.0183944702148
 30
0.0
 11
-676.430387662333
 21
-73.0639711930079
 31
0.0
  0
LINE
  5
   146
  8
0
  6
CONTINUOUS
 62
     7
 10
-676.430387662333
 20
-71.9727852159818
 30
0.0
 11
-676.951332092285
 21
-69.0183619387748
 31
0.0
  0
LINE
  5
   147
  8
0
  6
CONTINUOUS
 62
     7
 10
-676.951332092285
 20
-69.0183619387748
 30
0.0
 11
-677.472276522237
 21
-71.9727852159818
 31
0.0
  0
ENDBLK
  5
   148
  8
0
  6
CONTINUOUS
 62
     7
  0
BLOCK
  5
   149
  8
0
  6
CONTINUOUS
 62
     7
  2
*UDIM82
 70
    65
 10
0.0
 20
0.0
 30
0.0
  3
*UDIM82
  0
TEXT
  5
   14A
  8
0
  6
CONTINUOUS
 62
     7
 10
-677.951332095818
 20
3.05659785432857
 30
0.0
 40
3.00000002980232
  1
305
 50
89.9999999480344
 41
0.933333333333333
 72
     1
 11
-679.451332107186
 21
6.95659789443016
 31
0.0
 73
     2
  0
LINE
  5
   14B
  8
0
  6
CONTINUOUS
 62
     7
 10
-615.450706974649
 20
83.481557739556
 30
0.0
 11
-678.951332092285
 21
83.481557739556
 31
0.0
  0
LINE
  5
   14C
  8
0
  6
CONTINUOUS
 62
     7
 10
-676.951332092285
 20
-69.0183619387748
 30
0.0
 11
-676.951332092285
 21
83.481557739556
 31
0.0
  0
LINE
  5
   14D
  8
0
  6
CONTINUOUS
 62
     7
 10
-677.472276522237
 20
-66.0639386615678
 30
0.0
 11
-676.951332092285
 21
-69.0183619387748
 31
0.0
  0
LINE
  5
   14E
  8
0
  6
CONTINUOUS
 62
     7
 10
-676.951332092285
 20
-69.0183619387748
 30
0.0
 11
-676.430387662333
 21
-66.0639386615678
 31
0.0
  0
LINE
  5
   14F
  8
0
  6
CONTINUOUS
 62
     7
 10
-676.430387662333
 20
80.5271344623491
 30
0.0
 11
-676.951332092285
 21
83.481557739556
 31
0.0
  0
LINE
  5
   150
  8
0
  6
CONTINUOUS
 62
     7
 10
-676.951332092285
 20
83.481557739556
 30
0.0
 11
-677.472276522237
 21
80.5271344623491
 31
0.0
  0
ENDBLK
  5
   151
  8
0
  6
CONTINUOUS
 62
     7
  0
BLOCK
  5
   152
  8
0
  6
CONTINUOUS
 62
     7
  2
*UDIM83
 70
    65
 10
0.0
 20
0.0
 30
0.0
  3
*UDIM83
  0
TEXT
  5
   153
  8
0
  6
CONTINUOUS
 62
     7
 10
-677.951332094549
 20
93.4565905730153
 30
0.0
 40
3.00000002980232
  1
14
 50
89.9999999480344
 41
0.933333333333333
 72
     1
 11
-679.451332107186
 21
95.9565905992092
 31
0.0
 73
     2
  0
LINE
  5
   154
  8
0
  6
CONTINUOUS
 62
     7
 10
-616.775726318359
 20
90.4815902709961
 30
0.0
 11
-678.951332092285
 21
90.4815902709961
 31
0.0
  0
LINE
  5
   155
  8
0
  6
CONTINUOUS
 62
     7
 10
-676.951332092285
 20
83.481557739556
 30
0.0
 11
-676.951332092285
 21
98.4565906240444
 31
0.0
  0
LINE
  5
   156
  8
0
  6
CONTINUOUS
 62
     7
 10
-677.472276522237
 20
86.435981016763
 30
0.0
 11
-676.951332092285
 21
83.481557739556
 31
0.0
  0
LINE
  5
   157
  8
0
  6
CONTINUOUS
 62
     7
 10
-676.951332092285
 20
83.481557739556
 30
0.0
 11
-676.430387662333
 21
86.435981016763
 31
0.0
  0
LINE
  5
   158
  8
0
  6
CONTINUOUS
 62
     7
 10
-676.430387662333
 20
87.5271669937891
 30
0.0
 11
-676.951332092285
 21
90.4815902709961
 31
0.0
  0
LINE
  5
   159
  8
0
  6
CONTINUOUS
 62
     7
 10
-676.951332092285
 20
90.4815902709961
 30
0.0
 11
-677.472276522237
 21
87.5271669937891
 31
0.0
  0
ENDBLK
  5
   15A
  8
0
  6
CONTINUOUS
 62
     7
  0
BLOCK
  5
   15B
  8
0
  6
CONTINUOUS
 62
     7
  2
*UDIM84
 70
    65
 10
0.0
 20
0.0
 30
0.0
  3
*UDIM84
  0
TEXT
  5
   15C
  8
0
  6
CONTINUOUS
 62
     7
 10
-661.363327029899
 20
-2.14856428341824
 30
0.0
 40
3.00000002980232
  1
259
 50
89.9999999480344
 41
0.933333333333333
 72
     1
 11
-662.863327041268
 21
1.75143575668335
 31
0.0
 73
     2
  0
LINE
  5
   15D
  8
0
  6
CONTINUOUS
 62
     7
 10
-646.275745223246
 20
-57.5183717534921
 30
0.0
 11
-662.363327026367
 21
-57.5183717534921
 31
0.0
  0
LINE
  5
   15E
  8
0
  6
CONTINUOUS
 62
     7
 10
-646.275745223246
 20
71.9815675542733
 30
0.0
 11
-662.363327026367
 21
71.9815675542733
 31
0.0
  0
LINE
  5
   15F
  8
0
  6
CONTINUOUS
 62
     7
 10
-660.363327026367
 20
-57.5183717534921
 30
0.0
 11
-660.363327026367
 21
71.9815675542733
 31
0.0
  0
LINE
  5
   160
  8
0
  6
CONTINUOUS
 62
     7
 10
-660.884271456319
 20
-54.5639484762851
 30
0.0
 11
-660.363327026367
 21
-57.5183717534921
 31
0.0
  0
LINE
  5
   161
  8
0
  6
CONTINUOUS
 62
     7
 10
-660.363327026367
 20
-57.5183717534921
 30
0.0
 11
-659.842382596416
 21
-54.5639484762851
 31
0.0
  0
LINE
  5
   162
  8
0
  6
CONTINUOUS
 62
     7
 10
-659.842382596416
 20
69.0271442770663
 30
0.0
 11
-660.363327026367
 21
71.9815675542733
 31
0.0
  0
LINE
  5
   163
  8
0
  6
CONTINUOUS
 62
     7
 10
-660.363327026367
 20
71.9815675542733
 30
0.0
 11
-660.884271456319
 21
69.0271442770663
 31
0.0
  0
ENDBLK
  5
   164
  8
0
  6
CONTINUOUS
 62
     7
  0
BLOCK
  5
   165
  8
0
  6
CONTINUOUS
 62
     7
  2
*UDIM85
 70
    65
 10
0.0
 20
0.0
 30
0.0
  3
*UDIM85
  0
TEXT
  5
   166
  8
0
  6
CONTINUOUS
 62
     7
 10
-567.084991226006
 20
-76.2585368414986
 30
0.0
 40
3.00000002980232
  1
10,2
 50
339.257107886173
 41
0.933333333333333
 72
     1
 11
-561.597279113852
 21
-76.7328957529978
 31
0.0
 73
     2
  0
TEXT
  5
   167
  8
0
  6
CONTINUOUS
 62
     7
 10
-570.030805574089
 20
-75.1428855119093
 30
0.0
 40
3.00000002980232
  1
Ø
 50
339.257107886173
 41
0.933333333333334
 72
     1
 11
-568.470845949545
 21
-74.1297092989344
 31
0.0
 73
     2
  0
LINE
  5
   168
  8
0
  6
CONTINUOUS
 62
     7
 10
-557.526267112923
 20
-80.947971306401
 30
0.0
 11
-591.410415117903
 21
-68.115222720034
 31
0.0
  0
LINE
  5
   169
  8
0
  6
CONTINUOUS
 62
     7
 10
-583.693618330551
 20
-70.48070772472
 30
0.0
 11
-586.641038900337
 21
-69.9215011575156
 31
0.0
  0
LINE
  5
   16A
  8
0
  6
CONTINUOUS
 62
     7
 10
-586.641038900337
 20
-69.9215011575156
 30
0.0
 11
-584.06262934384
 21
-71.4550604680639
 31
0.0
  0
LINE
  5
   16B
  8
0
  6
CONTINUOUS
 62
     7
 10
-594.357835687689
 20
-67.5560161528295
 30
0.0
 11
-591.410415117903
 21
-68.115222720034
 31
0.0
  0
LINE
  5
   16C
  8
0
  6
CONTINUOUS
 62
     7
 10
-591.410415117903
 20
-68.115222720034
 30
0.0
 11
-593.988824674399
 21
-66.5816634094857
 31
0.0
  0
ENDBLK
  5
   16D
  8
0
  6
CONTINUOUS
 62
     7
  0
BLOCK
  5
   16E
  8
0
  6
CONTINUOUS
 62
     7
  2
*UDIM86
 70
    65
 10
0.0
 20
0.0
 30
0.0
  3
*UDIM86
  0
TEXT
  5
   16F
  8
0
  6
CONTINUOUS
 62
     7
 10
-650.513326605214
 20
-83.6504211403233
 30
0.0
 40
3.00000002980232
  1
25
 50
359.999999948034
 41
0.933333333333333
 72
     1
 11
-648.013326579026
 21
-82.150421127677
 31
0.0
 73
     2
  0
LINE
  5
   170
  8
0
  6
CONTINUOUS
 62
     7
 10
-626.525726721406
 20
-64.5183944702148
 30
0.0
 11
-626.52573564165
 21
-86.650421142578
 31
0.0
  0
LINE
  5
   171
  8
0
  6
CONTINUOUS
 62
     7
 10
-639.025726721406
 20
-64.5183944702148
 30
0.0
 11
-639.02573564165
 21
-86.650421142578
 31
0.0
  0
LINE
  5
   172
  8
0
  6
CONTINUOUS
 62
     7
 10
-626.525734835557
 20
-84.6504211425781
 30
0.0
 11
-650.513326603861
 21
-84.6504211425781
 31
0.0
  0
LINE
  5
   173
  8
0
  6
CONTINUOUS
 62
     7
 10
-629.480158112764
 20
-85.1713655725298
 30
0.0
 11
-626.525734835557
 21
-84.6504211425781
 31
0.0
  0
LINE
  5
   174
  8
0
  6
CONTINUOUS
 62
     7
 10
-626.525734835557
 20
-84.6504211425781
 30
0.0
 11
-629.480158112764
 21
-84.1294767126265
 31
0.0
  0
LINE
  5
   175
  8
0
  6
CONTINUOUS
 62
     7
 10
-636.07131155835
 20
-84.1294767126265
 30
0.0
 11
-639.025734835557
 21
-84.6504211425781
 31
0.0
  0
LINE
  5
   176
  8
0
  6
CONTINUOUS
 62
     7
 10
-639.025734835557
 20
-84.6504211425781
 30
0.0
 11
-636.07131155835
 21
-85.1713655725298
 31
0.0
  0
ENDBLK
  5
   177
  8
0
  6
CONTINUOUS
 62
     7
  0
BLOCK
  5
   178
  8
0
  6
CONTINUOUS
 62
     7
  2
*UDIM87
 70
    65
 10
0.0
 20
0.0
 30
0.0
  3
*UDIM87
  0
TEXT
  5
   179
  8
0
  6
CONTINUOUS
 62
     7
 10
-606.938234024798
 20
-90.3684883057245
 30
0.0
 40
3.00000002980232
  1
43,75
 50
359.999999948034
 41
0.933333333333333
 72
     1
 11
-600.238233956887
 21
-88.8684882968664
 31
0.0
 73
     2
  0
LINE
  5
   17A
  8
0
  6
CONTINUOUS
 62
     7
 10
-589.025727323036
 20
-73.568341904304
 30
0.0
 11
-589.025733538629
 21
-93.3684883117675
 31
0.0
  0
LINE
  5
   17B
  8
0
  6
CONTINUOUS
 62
     7
 10
-610.90074257736
 20
-80.0286391729875
 30
0.0
 11
-610.900746764958
 21
-93.3684883117675
 31
0.0
  0
LINE
  5
   17C
  8
0
  6
CONTINUOUS
 62
     7
 10
-589.025732910796
 20
-91.3684883117676
 30
0.0
 11
-610.900746137125
 21
-91.3684883117676
 31
0.0
  0
LINE
  5
   17D
  8
0
  6
CONTINUOUS
 62
     7
 10
-591.980156188003
 20
-91.8894327417192
 30
0.0
 11
-589.025732910796
 21
-91.3684883117676
 31
0.0
  0
LINE
  5
   17E
  8
0
  6
CONTINUOUS
 62
     7
 10
-589.025732910796
 20
-91.3684883117676
 30
0.0
 11
-591.980156188003
 21
-90.8475438818159
 31
0.0
  0
LINE
  5
   17F
  8
0
  6
CONTINUOUS
 62
     7
 10
-607.946322859918
 20
-90.8475438818159
 30
0.0
 11
-610.900746137125
 21
-91.3684883117676
 31
0.0
  0
LINE
  5
   180
  8
0
  6
CONTINUOUS
 62
     7
 10
-610.900746137125
 20
-91.3684883117676
 30
0.0
 11
-607.946322859918
 21
-91.8894327417192
 31
0.0
  0
ENDBLK
  5
   181
  8
0
  6
CONTINUOUS
 62
     7
  0
BLOCK
  5
   182
  8
0
  6
CONTINUOUS
 62
     7
  2
*UDIM88
 70
    65
 10
0.0
 20
0.0
 30
0.0
  3
*UDIM88
  0
TEXT
  5
   183
  8
0
  6
CONTINUOUS
 62
     7
 10
-628.813234020436
 20
-90.3684883057245
 30
0.0
 40
3.00000002980232
  1
43,75
 50
359.999999948034
 41
0.933333333333333
 72
     1
 11
-622.113233952525
 21
-88.8684882968664
 31
0.0
 73
     2
  0
LINE
  5
   184
  8
0
  6
CONTINUOUS
 62
     7
 10
-632.775727500117
 20
-73.5683419043039
 30
0.0
 11
-632.775737221925
 21
-93.3684883117673
 31
0.0
  0
LINE
  5
   185
  8
0
  6
CONTINUOUS
 62
     7
 10
-610.900746137125
 20
-91.3684883117676
 30
0.0
 11
-632.775736239932
 21
-91.3684883117676
 31
0.0
  0
LINE
  5
   186
  8
0
  6
CONTINUOUS
 62
     7
 10
-613.855169414332
 20
-91.8894327417192
 30
0.0
 11
-610.900746137125
 21
-91.3684883117676
 31
0.0
  0
LINE
  5
   187
  8
0
  6
CONTINUOUS
 62
     7
 10
-610.900746137125
 20
-91.3684883117676
 30
0.0
 11
-613.855169414332
 21
-90.8475438818159
 31
0.0
  0
LINE
  5
   188
  8
0
  6
CONTINUOUS
 62
     7
 10
-629.821312962725
 20
-90.8475438818159
 30
0.0
 11
-632.775736239932
 21
-91.3684883117676
 31
0.0
  0
LINE
  5
   189
  8
0
  6
CONTINUOUS
 62
     7
 10
-632.775736239932
 20
-91.3684883117676
 30
0.0
 11
-629.821312962725
 21
-91.8894327417192
 31
0.0
  0
ENDBLK
  5
   18A
  8
0
  6
CONTINUOUS
 62
     7
  0
BLOCK
  5
   18B
  8
0
  6
CONTINUOUS
 62
     7
  2
*UDIM89
 70
    65
 10
0.0
 20
0.0
 30
0.0
  3
*UDIM89
  0
TEXT
  5
   18C
  8
0
  6
CONTINUOUS
 62
     7
 10
-615.075730177025
 20
103.59639740342
 30
0.0
 40
3.00000002980232
  1
140
 50
359.999999948034
 41
0.933333333333333
 72
     1
 11
-611.175730136929
 21
105.096397414804
 31
0.0
 73
     2
  0
LINE
  5
   18D
  8
0
  6
CONTINUOUS
 62
     7
 10
-575.900741776877
 20
59.731605529785
 30
0.0
 11
-575.900719947198
 21
104.596397399902
 31
0.0
  0
LINE
  5
   18E
  8
0
  6
CONTINUOUS
 62
     7
 10
-645.900741949527
 20
59.7316055297851
 30
0.0
 11
-645.90072786573
 21
104.596397399902
 31
0.0
  0
LINE
  5
   18F
  8
0
  6
CONTINUOUS
 62
     7
 10
-575.90072092033
 20
102.596397399902
 30
0.0
 11
-645.900728493563
 21
102.596397399902
 31
0.0
  0
LINE
  5
   190
  8
0
  6
CONTINUOUS
 62
     7
 10
-578.855144197537
 20
102.075452969951
 30
0.0
 11
-575.90072092033
 21
102.596397399902
 31
0.0
  0
LINE
  5
   191
  8
0
  6
CONTINUOUS
 62
     7
 10
-575.90072092033
 20
102.596397399902
 30
0.0
 11
-578.855144197537
 21
103.117341829854
 31
0.0
  0
LINE
  5
   192
  8
0
  6
CONTINUOUS
 62
     7
 10
-642.946305216356
 20
103.117341829854
 30
0.0
 11
-645.900728493563
 21
102.596397399902
 31
0.0
  0
LINE
  5
   193
  8
0
  6
CONTINUOUS
 62
     7
 10
-645.900728493563
 20
102.596397399902
 30
0.0
 11
-642.946305216356
 21
102.075452969951
 31
0.0
  0
ENDBLK
  5
   194
  8
0
  6
CONTINUOUS
 62
     7
  0
BLOCK
  5
   195
  8
0
  6
CONTINUOUS
 62
     7
  2
*UDIM90
 70
    65
 10
0.0
 20
0.0
 30
0.0
  3
*UDIM90
  0
TEXT
  5
   196
  8
0
  6
CONTINUOUS
 62
     7
 10
-378.0901363517
 20
20.5797408788669
 30
0.0
 40
3.00000002980232
  1
7
 50
404.893139787217
 41
0.933333333333334
 72
     1
 11
-378.369549701237
 21
22.4187428497317
 31
0.0
 73
     2
  0
TEXT
  5
   197
  8
0
  6
CONTINUOUS
 62
     7
 10
-380.321673051974
 20
18.3565125914632
 30
0.0
 40
3.00000002980232
  1
Ø
 50
404.893139787217
 41
0.933333333333334
 72
     1
 11
-380.601086401512
 21
20.1955145623279
 31
0.0
 73
     2
  0
LINE
  5
   198
  8
0
  6
CONTINUOUS
 62
     7
 10
-363.617738559604
 20
33.5866719927631
 30
0.0
 11
-379.615886291301
 21
17.6480882451625
 31
0.0
  0
LINE
  5
   199
  8
0
  6
CONTINUOUS
 62
     7
 10
-361.892428857617
 20
36.0409145301315
 30
0.0
 11
-363.617738559604
 21
33.5866719927631
 31
0.0
  0
LINE
  5
   19A
  8
0
  6
CONTINUOUS
 62
     7
 10
-363.617738559604
 20
33.5866719927631
 30
0.0
 11
-361.157077499407
 21
35.3028150948461
 31
0.0
  0
LINE
  5
   19B
  8
0
  6
CONTINUOUS
 62
     7
 10
-366.582790868945
 20
29.8973026329544
 30
0.0
 11
-364.857481166958
 21
32.3515451703229
 31
0.0
  0
LINE
  5
   19C
  8
0
  6
CONTINUOUS
 62
     7
 10
-364.857481166958
 20
32.3515451703229
 30
0.0
 11
-367.318142227156
 21
30.6354020682399
 31
0.0
  0
ENDBLK
  5
   19D
  8
0
  6
CONTINUOUS
 62
     7
  0
BLOCK
  5
   19E
  8
0
  6
CONTINUOUS
 62
     7
  2
*UDIM91
 70
    65
 10
0.0
 20
0.0
 30
0.0
  3
*UDIM91
  0
TEXT
  5
   19F
  8
0
  6
CONTINUOUS
 62
     7
 10
-357.012609898151
 20
81.2552871771999
 30
0.0
 40
3.00000002980232
  1
80
 50
359.999999844103
 41
0.933333333333333
 72
     1
 11
-354.512609869242
 21
82.7552871853113
 31
0.0
 73
     2
  0
LINE
  5
   1A0
  8
0
  6
CONTINUOUS
 62
     7
 10
-364.237609863281
 20
71.094108581543
 30
0.0
 11
-364.237609863281
 21
82.2552871704102
 31
0.0
  0
LINE
  5
   1A1
  8
0
  6
CONTINUOUS
 62
     7
 10
-344.237609863281
 20
71.094108581543
 30
0.0
 11
-344.237609863281
 21
82.2552871704102
 31
0.0
  0
LINE
  5
   1A2
  8
0
  6
CONTINUOUS
 62
     7
 10
-364.237609863281
 20
80.2552871704102
 30
0.0
 11
-344.237609863281
 21
80.2552871704102
 31
0.0
  0
LINE
  5
   1A3
  8
0
  6
CONTINUOUS
 62
     7
 10
-361.283186586074
 20
80.7762316003618
 30
0.0
 11
-364.237609863281
 21
80.2552871704102
 31
0.0
  0
LINE
  5
   1A4
  8
0
  6
CONTINUOUS
 62
     7
 10
-364.237609863281
 20
80.2552871704102
 30
0.0
 11
-361.283186586074
 21
79.7343427404585
 31
0.0
  0
LINE
  5
   1A5
  8
0
  6
CONTINUOUS
 62
     7
 10
-347.192033140488
 20
79.7343427404585
 30
0.0
 11
-344.237609863281
 21
80.2552871704102
 31
0.0
  0
LINE
  5
   1A6
  8
0
  6
CONTINUOUS
 62
     7
 10
-344.237609863281
 20
80.2552871704102
 30
0.0
 11
-347.192033140488
 21
80.7762316003618
 31
0.0
  0
ENDBLK
  5
   1A7
  8
0
  6
CONTINUOUS
 62
     7
  0
BLOCK
  5
   1A8
  8
0
  6
CONTINUOUS
 62
     7
  2
*UDIM92
 70
    65
 10
0.0
 20
0.0
 30
0.0
  3
*UDIM92
  0
TEXT
  5
   1A9
  8
0
  6
CONTINUOUS
 62
     7
 10
-358.412609912059
 20
87.6949462996545
 30
0.0
 40
3.00000002980232
  1
112
 50
359.999999844103
 41
0.933333333333333
 72
     1
 11
-354.512609869242
 21
89.1949463039637
 31
0.0
 73
     2
  0
LINE
  5
   1AA
  8
0
  6
CONTINUOUS
 62
     7
 10
-368.237609863281
 20
65.719108581543
 30
0.0
 11
-368.237609863281
 21
88.6949462890625
 31
0.0
  0
LINE
  5
   1AB
  8
0
  6
CONTINUOUS
 62
     7
 10
-340.237609863281
 20
65.719108581543
 30
0.0
 11
-340.237609863281
 21
88.6949462890625
 31
0.0
  0
LINE
  5
   1AC
  8
0
  6
CONTINUOUS
 62
     7
 10
-368.237609863281
 20
86.6949462890625
 30
0.0
 11
-340.237609863281
 21
86.6949462890625
 31
0.0
  0
LINE
  5
   1AD
  8
0
  6
CONTINUOUS
 62
     7
 10
-365.283186586074
 20
87.2158907190142
 30
0.0
 11
-368.237609863281
 21
86.6949462890625
 31
0.0
  0
LINE
  5
   1AE
  8
0
  6
CONTINUOUS
 62
     7
 10
-368.237609863281
 20
86.6949462890625
 30
0.0
 11
-365.283186586074
 21
86.1740018591108
 31
0.0
  0
LINE
  5
   1AF
  8
0
  6
CONTINUOUS
 62
     7
 10
-343.192033140488
 20
86.1740018591108
 30
0.0
 11
-340.237609863281
 21
86.6949462890625
 31
0.0
  0
LINE
  5
   1B0
  8
0
  6
CONTINUOUS
 62
     7
 10
-340.237609863281
 20
86.6949462890625
 30
0.0
 11
-343.192033140488
 21
87.2158907190142
 31
0.0
  0
ENDBLK
  5
   1B1
  8
0
  6
CONTINUOUS
 62
     7
  0
BLOCK
  5
   1B2
  8
0
  6
CONTINUOUS
 62
     7
  2
*UDIM93
 70
    65
 10
0.0
 20
0.0
 30
0.0
  3
*UDIM93
  0
TEXT
  5
   1B3
  8
0
  6
CONTINUOUS
 62
     7
 10
-378.94837761984
 20
46.5441085327675
 30
0.0
 40
3.00000002980232
  1
112
 50
449.999999844103
 41
0.933333333333333
 72
     1
 11
-380.448377624154
 21
50.4441085755825
 31
0.0
 73
     2
  0
LINE
  5
   1B4
  8
0
  6
CONTINUOUS
 62
     7
 10
-369.237609863281
 20
64.719108581543
 30
0.0
 11
-379.948377609253
 21
64.719108581543
 31
0.0
  0
LINE
  5
   1B5
  8
0
  6
CONTINUOUS
 62
     7
 10
-369.237609863281
 20
36.719108581543
 30
0.0
 11
-379.948377609253
 21
36.719108581543
 31
0.0
  0
LINE
  5
   1B6
  8
0
  6
CONTINUOUS
 62
     7
 10
-377.948377609253
 20
64.719108581543
 30
0.0
 11
-377.948377609253
 21
36.719108581543
 31
0.0
  0
LINE
  5
   1B7
  8
0
  6
CONTINUOUS
 62
     7
 10
-377.427433179301
 20
61.764685304336
 30
0.0
 11
-377.948377609253
 21
64.719108581543
 31
0.0
  0
LINE
  5
   1B8
  8
0
  6
CONTINUOUS
 62
     7
 10
-377.948377609253
 20
64.719108581543
 30
0.0
 11
-378.469322039205
 21
61.764685304336
 31
0.0
  0
LINE
  5
   1B9
  8
0
  6
CONTINUOUS
 62
     7
 10
-378.469322039205
 20
39.6735318587499
 30
0.0
 11
-377.948377609253
 21
36.719108581543
 31
0.0
  0
LINE
  5
   1BA
  8
0
  6
CONTINUOUS
 62
     7
 10
-377.948377609253
 20
36.719108581543
 30
0.0
 11
-377.427433179301
 21
39.6735318587499
 31
0.0
  0
ENDBLK
  5
   1BB
  8
0
  6
CONTINUOUS
 62
     7
  0
BLOCK
  5
   1BC
  8
0
  6
CONTINUOUS
 62
     7
  2
*UDIM94
 70
    65
 10
0.0
 20
0.0
 30
0.0
  3
*UDIM94
  0
TEXT
  5
   1BD
  8
0
  6
CONTINUOUS
 62
     7
 10
-388.021320353605
 20
46.5441085327675
 30
0.0
 40
3.00000002980232
  1
142
 50
449.999999844103
 41
0.933333333333333
 72
     1
 11
-389.521320357919
 21
50.4441085755825
 31
0.0
 73
     2
  0
LINE
  5
   1BE
  8
0
  6
CONTINUOUS
 62
     7
 10
-366.862609863281
 20
68.469108581543
 30
0.0
 11
-389.021320343018
 21
68.469108581543
 31
0.0
  0
LINE
  5
   1BF
  8
0
  6
CONTINUOUS
 62
     7
 10
-366.862609863281
 20
32.969108581543
 30
0.0
 11
-389.021320343018
 21
32.969108581543
 31
0.0
  0
LINE
  5
   1C0
  8
0
  6
CONTINUOUS
 62
     7
 10
-387.021320343018
 20
68.469108581543
 30
0.0
 11
-387.021320343018
 21
32.969108581543
 31
0.0
  0
LINE
  5
   1C1
  8
0
  6
CONTINUOUS
 62
     7
 10
-386.500375913066
 20
65.514685304336
 30
0.0
 11
-387.021320343018
 21
68.469108581543
 31
0.0
  0
LINE
  5
   1C2
  8
0
  6
CONTINUOUS
 62
     7
 10
-387.021320343018
 20
68.469108581543
 30
0.0
 11
-387.542264772969
 21
65.514685304336
 31
0.0
  0
LINE
  5
   1C3
  8
0
  6
CONTINUOUS
 62
     7
 10
-387.542264772969
 20
35.9235318587499
 30
0.0
 11
-387.021320343018
 21
32.969108581543
 31
0.0
  0
LINE
  5
   1C4
  8
0
  6
CONTINUOUS
 62
     7
 10
-387.021320343018
 20
32.969108581543
 30
0.0
 11
-386.500375913066
 21
35.9235318587499
 31
0.0
  0
ENDBLK
  5
   1C5
  8
0
  6
CONTINUOUS
 62
     7
  0
ENDSEC
  0
SECTION
  2
ENTITIES
  0
LINE
  5
   1C6
  8
0
  6
DASHDOT
 62
     7
 10
-610.900634765625
 20
-99.7884227191729
 30
0.0
 11
-610.900634765625
 21
-162.534780249501
 31
0.0
  0
LINE
  5
   1C7
  8
0
  6
CONTINUOUS
 62
     7
 10
-629.338134765625
 20
-99.8501630561104
 30
0.0
 11
-629.338134765625
 21
-158.125158354848
 31
0.0
  0
LINE
  5
   1C8
  8
0
  6
CONTINUOUS
 62
     7
 10
-592.463134765625
 20
-100.591047099361
 30
0.0
 11
-592.463134765625
 21
-159.72732224402
 31
0.0
  0
LINE
  5
   1C9
  8
0
  6
CONTINUOUS
 62
     7
 10
-590.238186059623
 20
-102.751958892175
 30
0.0
 11
-630.217640558782
 21
-102.751958892175
 31
0.0
  0
LINE
  5
   1CA
  8
0
  6
CONTINUOUS
 62
     7
 10
-587.033858281278
 20
-157.399749755859
 30
0.0
 11
-633.021427364833
 21
-157.399749755859
 31
0.0
  0
LINE
  5
   1CB
  8
0
  6
DASHDOT
 62
     7
 10
-593.207654718908
 20
-108.774749755859
 30
0.0
 11
-628.271847574581
 21
-108.774749755859
 31
0.0
  0
LINE
  5
   1CC
  8
0
  6
DASHDOT
 62
     7
 10
-593.207654718908
 20
-142.524749755859
 30
0.0
 11
-628.323619623066
 21
-142.524749755859
 31
0.0
  0
LINE
  5
   1CD
  8
0
  6
DASHDOT
 62
     7
 10
-625.275634765625
 20
-105.024663057025
 30
0.0
 11
-625.275634765625
 21
-146.485445219043
 31
0.0
  0
LINE
  5
   1CE
  8
0
  6
DASHDOT
 62
     7
 10
-596.525634765625
 20
-105.792615109558
 30
0.0
 11
-596.525634765625
 21
-147.313797994808
 31
0.0
  0
CIRCLE
  5
   1CF
  8
0
  6
CONTINUOUS
 62
     7
 10
-625.275634765625
 20
-108.774749755859
 30
0.0
 40
0.75
  0
CIRCLE
  5
   1D0
  8
0
  6
CONTINUOUS
 62
     7
 10
-596.525634765625
 20
-108.774749755859
 30
0.0
 40
0.75
  0
CIRCLE
  5
   1D1
  8
0
  6
CONTINUOUS
 62
     7
 10
-625.275634765625
 20
-142.524749755859
 30
0.0
 40
0.75
  0
CIRCLE
  5
   1D2
  8
0
  6
CONTINUOUS
 62
     7
 10
-596.525634765625
 20
-142.524749755859
 30
0.0
 40
0.75
  0
LINE
  5
   1D3
  8
0
  6
DASHDOT
 62
     7
 10
-582.553937083547
 20
-125.212249755859
 30
0.0
 11
-636.346917750468
 21
-125.212249755859
 31
0.0
  0
INSERT
  5
   1D4
  8
0
  6
CONTINUOUS
 62
     7
  2
*UDIM65
 10
0.0
 20
0.0
 30
0.0
  0
TEXT
  5
   1D5
  8
0
  6
CONTINUOUS
 62
     7
 10
-619.03916549954
 20
-155.86203385937
 30
0.0
 40
3.00000002980232
  1
=    =
 50
359.999999896069
 41
0.916666604744064
 72
     2
 11
-603.089166422915
 21
-155.862033888223
 31
0.0
  0
INSERT
  5
   1D6
  8
0
  6
CONTINUOUS
 62
     7
  2
*UDIM66
 10
0.0
 20
0.0
 30
0.0
  0
INSERT
  5
   1D7
  8
0
  6
CONTINUOUS
 62
     7
  2
*UDIM67
 10
0.0
 20
0.0
 30
0.0
  0
INSERT
  5
   1D8
  8
0
  6
CONTINUOUS
 62
     7
  2
*UDIM68
 10
0.0
 20
0.0
 30
0.0
  0
TEXT
  5
   1D9
  8
0
  6
CONTINUOUS
 62
     7
 10
-653.942165377469
 20
-126.306977061428
 30
0.0
 40
3.00000002980232
  1
X
 50
359.999999896069
 41
0.916666604744064
 72
     2
 11
-651.7421655086
 21
-126.306977065407
 31
0.0
  0
TEXT
  5
   1DA
  8
0
  6
CONTINUOUS
 62
     7
 10
-580.470455172391
 20
-127.100543526805
 30
0.0
 40
3.00000002980232
  1
X
 50
359.999999896069
 41
0.916666604744064
 72
     2
 11
-578.270455303521
 21
-127.100543530785
 31
0.0
  0
TEXT
  5
   1DB
  8
0
  6
CONTINUOUS
 62
     7
 10
-611.633816185327
 20
-162.646804837383
 30
0.0
 40
3.00000002980232
  1
Y
 50
359.999999896069
 41
0.916666604744064
 72
     2
 11
-609.433816316457
 21
-162.646804841362
 31
0.0
  0
LINE
  5
   1DC
  8
0
  6
CONTINUOUS
 62
     7
 10
-506.331802368164
 20
21.9815979003906
 30
0.0
 11
-506.331802368164
 21
22.2315826416016
 31
0.0
  0
LINE
  5
   1DD
  8
0
  6
CONTINUOUS
 62
     7
 10
-506.331802368164
 20
29.7315826416016
 30
0.0
 11
-506.331802368164
 21
39.7315673828125
 31
0.0
  0
LINE
  5
   1DE
  8
0
  6
CONTINUOUS
 62
     7
 10
-505.081787109375
 20
22.2315826416016
 30
0.0
 11
-505.081787109375
 21
29.7315826416016
 31
0.0
  0
LINE
  5
   1DF
  8
0
  6
CONTINUOUS
 62
     7
 10
-505.081787109375
 20
22.2315826416016
 30
0.0
 11
-506.331802368164
 21
22.2315826416016
 31
0.0
  0
LINE
  5
   1E0
  8
0
  6
CONTINUOUS
 62
     7
 10
-505.081787109375
 20
29.7315826416016
 30
0.0
 11
-506.331802368164
 21
29.7315826416016
 31
0.0
  0
LINE
  5
   1E1
  8
0
  6
CONTINUOUS
 62
     7
 10
-505.081787109375
 20
39.7315673828125
 30
0.0
 11
-505.081787109375
 21
47.2315673828125
 31
0.0
  0
LINE
  5
   1E2
  8
0
  6
CONTINUOUS
 62
     7
 10
-505.081787109375
 20
39.7315673828125
 30
0.0
 11
-506.331802368164
 21
39.7315673828125
 31
0.0
  0
LINE
  5
   1E3
  8
0
  6
CONTINUOUS
 62
     7
 10
-505.081787109375
 20
47.2315673828125
 30
0.0
 11
-506.331802368164
 21
47.2315673828125
 31
0.0
  0
LINE
  5
   1E4
  8
0
  6
CONTINUOUS
 62
     7
 10
-472.081809997559
 20
21.9815826416016
 30
0.0
 11
-472.081809997559
 21
49.4815673828125
 31
0.0
  0
LINE
  5
   1E5
  8
0
  6
CONTINUOUS
 62
     2
 10
-506.33179895744
 20
49.2315673828125
 30
0.0
 11
-506.331791556173
 21
59.5388793945312
 31
0.0
  0
LINE
  5
   1E6
  8
0
  6
CONTINUOUS
 62
     7
 10
-470.331802368164
 20
58.2315673828125
 30
0.0
 11
-472.081802368164
 21
58.2315673828125
 31
0.0
  0
LINE
  5
   1E7
  8
0
  6
CONTINUOUS
 62
     7
 10
-472.08181435724
 20
49.4815630232057
 30
0.0
 11
-472.081806727846
 21
58.2315630232057
 31
0.0
  0
LINE
  5
   1E8
  8
0
  6
CONTINUOUS
 62
     7
 10
-504.331802368164
 20
50.4815673828125
 30
0.0
 11
-506.331802368164
 21
50.4815673828125
 31
0.0
  0
LINE
  5
   1E9
  8
0
  6
CONTINUOUS
 62
     7
 10
-504.331801096782
 20
50.4815610252829
 30
0.0
 11
-504.331798542414
 21
51.4859793216112
 31
0.0
  0
LINE
  5
   1EA
  8
0
  6
CONTINUOUS
 62
     7
 10
-472.081809997559
 20
17.2315902709961
 30
0.0
 11
-472.081809997559
 21
21.9815979003906
 31
0.0
  0
LINE
  5
   1EB
  8
0
  6
CONTINUOUS
 62
     7
 10
-506.331797268503
 20
-13.2683970099383
 30
0.0
 11
-506.331782009714
 21
-13.1212794547969
 31
0.0
  0
LINE
  5
   1EC
  8
0
  6
CONTINUOUS
 62
     7
 10
-506.331782989564
 20
-5.41551634984558
 30
0.0
 11
-506.331798248352
 21
21.981593635506
 31
0.0
  0
LINE
  5
   1ED
  8
0
  6
CONTINUOUS
 62
     7
 10
-470.831802368164
 20
-6.51840209960938
 30
0.0
 11
-504.831819152833
 21
-6.51840209960938
 31
0.0
  0
LINE
  5
   1EE
  8
0
  6
CONTINUOUS
 62
     7
 10
-470.831802368164
 20
-12.0184020996094
 30
0.0
 11
-504.831819152833
 21
-12.0184020996094
 31
0.0
  0
LINE
  5
   1EF
  8
0
  6
CONTINUOUS
 62
     7
 10
-502.215772870039
 20
-6.51839701499801
 30
0.0
 11
-506.331785267044
 21
-5.41551130192959
 31
0.0
  0
LINE
  5
   1F0
  8
0
  6
CONTINUOUS
 62
     7
 10
-506.331782960053
 20
-13.1212837296457
 30
0.0
 11
-502.215770468275
 21
-12.0184015652495
 31
0.0
  0
LINE
  5
   1F1
  8
0
  6
CONTINUOUS
 62
     7
 10
-470.331809997559
 20
-5.01840209960938
 30
0.0
 11
-474.331809997559
 21
-5.01840209960938
 31
0.0
  0
LINE
  5
   1F2
  8
0
  6
CONTINUOUS
 62
     7
 10
-474.331809997559
 20
-5.01840209960938
 30
0.0
 11
-474.331809997559
 21
16.2315902709961
 31
0.0
  0
LINE
  5
   1F3
  8
0
  6
CONTINUOUS
 62
     7
 10
-505.831787109375
 20
-9.01840209960938
 30
0.0
 11
-505.831787109375
 21
-5.54949188232422
 31
0.0
  0
LINE
  5
   1F4
  8
0
  6
CONTINUOUS
 62
     7
 10
-505.831794151876
 20
-12.987307346215
 30
0.0
 11
-505.831786522487
 21
-12.5183971289299
 31
0.0
  0
LINE
  5
   1F5
  8
0
  6
CONTINUOUS
 62
     2
 10
-506.331787109375
 20
-5.01840209960938
 30
0.0
 11
-507.331787109375
 21
-5.01840209960938
 31
0.0
  0
LINE
  5
   1F6
  8
0
  6
CONTINUOUS
 62
     2
 10
-506.331787109375
 20
-2.26840209960938
 30
0.0
 11
-507.331787109375
 21
-2.26840209960938
 31
0.0
  0
LINE
  5
   1F7
  8
0
  6
CONTINUOUS
 62
     7
 10
-470.331820802557
 20
-12.5183825865127
 30
0.0
 11
-470.831813156865
 21
-12.0183902322051
 31
0.0
  0
LINE
  5
   1F8
  8
0
  6
CONTINUOUS
 62
     7
 10
-470.831808686426
 20
-6.51840139863103
 30
0.0
 11
-470.331808703541
 21
-6.01840141574534
 31
0.0
  0
LINE
  5
   1F9
  8
0
  6
CONTINUOUS
 62
     7
 10
-472.081809997559
 20
16.2315902709961
 30
0.0
 11
-472.081809997559
 21
17.2315902709961
 31
0.0
  0
LINE
  5
   1FA
  8
0
  6
CONTINUOUS
 62
     2
 10
-505.331787109375
 20
-22.2683868408197
 30
0.0
 11
-507.331787109375
 21
-22.2683868408197
 31
0.0
  0
LINE
  5
   1FB
  8
0
  6
CONTINUOUS
 62
     7
 10
-506.331802368164
 20
-15.2684020996094
 30
0.0
 11
-506.331802368164
 21
-13.2684020996094
 31
0.0
  0
LINE
  5
   1FC
  8
0
  6
CONTINUOUS
 62
     7
 10
-470.331809997559
 20
-19.7683868408203
 30
0.0
 11
-475.331802368164
 21
-19.7683868408203
 31
0.0
  0
LINE
  5
   1FD
  8
0
  6
CONTINUOUS
 62
     7
 10
-475.331802368164
 20
-22.2683868408203
 30
0.0
 11
-475.331802368164
 21
-19.7683868408203
 31
0.0
  0
LINE
  5
   1FE
  8
0
  6
CONTINUOUS
 62
     7
 10
-506.331802368164
 20
-21.018377380389
 30
0.0
 11
-506.331802368164
 21
-15.2684020996094
 31
0.0
  0
LINE
  5
   1FF
  8
0
  6
CONTINUOUS
 62
     2
 10
-506.331802368164
 20
49.2315673828125
 30
0.0
 11
-506.581787109375
 21
49.2315673828125
 31
0.0
  0
LINE
  5
   200
  8
0
  6
CONTINUOUS
 62
     7
 10
-506.33179473877
 20
13.9815979003906
 30
0.0
 11
-506.581787109375
 21
13.9815979003906
 31
0.0
  0
LINE
  5
   201
  8
0
  6
CONTINUOUS
 62
     7
 10
-506.331787109375
 20
-2.01840019226074
 30
0.0
 11
-506.581787109375
 21
-2.01840019226074
 31
0.0
  0
LINE
  5
   202
  8
0
  6
CONTINUOUS
 62
     7
 10
-505.831787109375
 20
-5.76840162277222
 30
0.0
 11
-506.581787109375
 21
-5.76840162277222
 31
0.0
  0
LINE
  5
   203
  8
0
  6
CONTINUOUS
 62
     7
 10
-506.331802368164
 20
-13.7683944702148
 30
0.0
 11
-506.581787109375
 21
-13.7683944702148
 31
0.0
  0
LINE
  5
   204
  8
0
  6
CONTINUOUS
 62
     2
 10
-506.581787109375
 20
-20.5683820653641
 30
0.0
 11
-506.581787109375
 21
-5.01840972900391
 31
0.0
  0
LINE
  5
   205
  8
0
  6
CONTINUOUS
 62
     2
 10
-506.581787109375
 20
-2.26840972900391
 30
0.0
 11
-506.581787109375
 21
49.231559753418
 31
0.0
  0
LINE
  5
   206
  8
0
  6
CONTINUOUS
 62
     7
 10
-505.831787109375
 20
39.7315902709961
 30
0.0
 11
-505.831787109375
 21
47.2315673828125
 31
0.0
  0
LINE
  5
   207
  8
0
  6
CONTINUOUS
 62
     7
 10
-505.831787109375
 20
22.2316131591797
 30
0.0
 11
-505.831787109375
 21
29.7316055297852
 31
0.0
  0
LINE
  5
   208
  8
0
  6
CONTINUOUS
 62
     7
 10
-505.831787109375
 20
-12.5183639526367
 30
0.0
 11
-505.831787109375
 21
-9.01836395263672
 31
0.0
  0
LINE
  5
   209
  8
0
  6
CONTINUOUS
 62
     2
 10
-506.381791013891
 20
-20.768378160848
 30
0.0
 11
-506.581787959828
 21
-20.5683812149111
 31
0.0
  0
LINE
  5
   20A
  8
0
  6
CONTINUOUS
 62
     2
 10
-506.331787109375
 20
57.2315673828125
 30
0.0
 11
-507.331787109375
 21
57.2315673828125
 31
0.0
  0
LINE
  5
   20B
  8
0
  6
CONTINUOUS
 62
     2
 10
-506.331787109375
 20
62.7315673828125
 30
0.0
 11
-507.331787109375
 21
62.7315673828125
 31
0.0
  0
LINE
  5
   20C
  8
0
  6
CONTINUOUS
 62
     2
 10
-506.331787109375
 20
61.3873901367188
 30
0.0
 11
-507.331787109375
 21
61.3873901367188
 31
0.0
  0
LINE
  5
   20D
  8
0
  6
CONTINUOUS
 62
     2
 10
-506.331787109375
 20
59.5388793945313
 30
0.0
 11
-507.331787109375
 21
59.5388793945313
 31
0.0
  0
LINE
  5
   20E
  8
0
  6
CONTINUOUS
 62
     7
 10
-471.831817626954
 20
23.4815652941704
 30
0.0
 11
-471.831817626954
 21
50.731588182354
 31
0.0
  0
LINE
  5
   20F
  8
0
  6
CONTINUOUS
 62
     7
 10
-470.331802368164
 20
57.9815768432441
 30
0.0
 11
-470.331802368164
 21
58.4815844726386
 31
0.0
  0
LINE
  5
   210
  8
0
  6
CONTINUOUS
 62
     7
 10
-459.081802368164
 20
58.4815844726386
 30
0.0
 11
-459.231803894043
 21
58.4815844726386
 31
0.0
  0
LINE
  5
   211
  8
0
  6
CONTINUOUS
 62
     7
 10
-470.331802368164
 20
57.9815921020331
 30
0.0
 11
-471.831802368164
 21
57.9815921020331
 31
0.0
  0
LINE
  5
   212
  8
0
  6
CONTINUOUS
 62
     7
 10
-471.831802368164
 20
50.7315921020331
 30
0.0
 11
-471.831802368164
 21
57.9815921020331
 31
0.0
  0
LINE
  5
   213
  8
0
  6
CONTINUOUS
 62
     7
 10
-470.331825256348
 20
-19.2684002685723
 30
0.0
 11
-470.331825256348
 21
-15.6300946045098
 31
0.0
  0
LINE
  5
   214
  8
0
  6
CONTINUOUS
 62
     7
 10
-471.831809997559
 20
17.4815844726386
 30
0.0
 11
-471.831809997559
 21
23.4815692138495
 31
0.0
  0
LINE
  5
   215
  8
0
  6
CONTINUOUS
 62
     7
 10
-471.831809997559
 20
16.2315692138495
 30
0.0
 11
-472.331809997559
 21
16.2315692138495
 31
0.0
  0
LINE
  5
   216
  8
0
  6
CONTINUOUS
 62
     7
 10
-459.231819530851
 20
-20.7683850097726
 30
0.0
 11
-470.331825634366
 21
-20.7683850097726
 31
0.0
  0
LINE
  5
   217
  8
0
  6
CONTINUOUS
 62
     7
 10
-470.331825256348
 20
-20.7684002685723
 30
0.0
 11
-470.331825256348
 21
-19.2684002685723
 31
0.0
  0
LINE
  5
   218
  8
0
  6
CONTINUOUS
 62
     7
 10
-470.331817626953
 20
-15.6300946045098
 30
0.0
 11
-470.331817626953
 21
-12.1433956634306
 31
0.0
  0
LINE
  5
   219
  8
0
  6
CONTINUOUS
 62
     7
 10
-459.081825256348
 20
-22.2684078979669
 30
0.0
 11
-459.081825256348
 21
-20.7684078979669
 31
0.0
  0
LINE
  5
   21A
  8
0
  6
CONTINUOUS
 62
     7
 10
-459.081825256348
 20
-20.7684078979669
 30
0.0
 11
-459.23181912303
 21
-20.7684078979669
 31
0.0
  0
LINE
  5
   21B
  8
0
  6
CONTINUOUS
 62
     7
 10
-472.331809997559
 20
16.2315692138495
 30
0.0
 11
-474.331809997559
 21
16.2315692138495
 31
0.0
  0
LINE
  5
   21C
  8
0
  6
CONTINUOUS
 62
     7
 10
-471.831809997559
 20
16.2315692138495
 30
0.0
 11
-471.831809997559
 21
17.4815844726386
 31
0.0
  0
LINE
  5
   21D
  8
0
  6
CONTINUOUS
 62
     7
 10
-459.231821232009
 20
-12.1433850097747
 30
0.0
 11
-470.33181970613
 21
-12.1433850097747
 31
0.0
  0
LINE
  5
   21E
  8
0
  6
CONTINUOUS
 62
     7
 10
-459.23182490924
 20
-6.39338500977605
 30
0.0
 11
-470.331823383361
 21
-6.39338500977605
 31
0.0
  0
LINE
  5
   21F
  8
0
  6
CONTINUOUS
 62
     7
 10
-469.682304903292
 20
-18.8933917102428
 30
0.0
 11
-469.581825793058
 21
-18.5183917154199
 31
0.0
  0
LINE
  5
   220
  8
0
  6
CONTINUOUS
 62
     7
 10
-469.956820585407
 20
-19.1679162429724
 30
0.0
 11
-469.682307358907
 21
-18.8933953802532
 31
0.0
  0
LINE
  5
   221
  8
0
  6
CONTINUOUS
 62
     7
 10
-470.331833899046
 20
-19.2683885507324
 30
0.0
 11
-469.956826284773
 21
-19.167909432851
 31
0.0
  0
LINE
  5
   222
  8
0
  6
CONTINUOUS
 62
     7
 10
-469.956822106889
 20
-13.3688783063254
 30
0.0
 11
-470.33182210414
 21
-13.2683915597981
 31
0.0
  0
LINE
  5
   223
  8
0
  6
CONTINUOUS
 62
     7
 10
-469.682309516548
 20
-13.6433957350343
 30
0.0
 11
-469.956822746868
 21
-13.3688825047144
 31
0.0
  0
LINE
  5
   224
  8
0
  6
CONTINUOUS
 62
     7
 10
-469.581830982979
 20
-14.0183950398682
 30
0.0
 11
-469.682317729507
 21
-13.6433950426179
 31
0.0
  0
LINE
  5
   225
  8
0
  6
CONTINUOUS
 62
     7
 10
-469.581829494883
 20
-18.5183972992071
 30
0.0
 11
-469.581821865489
 21
-14.0183972992071
 31
0.0
  0
LINE
  5
   226
  8
0
  6
CONTINUOUS
 62
     7
 10
-459.231819152833
 20
-20.7684078979669
 30
0.0
 11
-459.231819152833
 21
58.481578216246
 31
0.0
  0
LINE
  5
   227
  8
0
  6
CONTINUOUS
 62
     7
 10
-459.231796264648
 20
69.3315905761542
 30
0.0
 11
-506.33178452442
 21
69.3315905761542
 31
0.0
  0
LINE
  5
   228
  8
0
  6
CONTINUOUS
 62
     7
 10
-459.231849670417
 20
58.4815810271556
 30
0.0
 11
-459.231849670417
 21
69.3315871306712
 31
0.0
  0
LINE
  5
   229
  8
0
  6
CONTINUOUS
 62
     7
 10
-470.331802368164
 20
58.4815921020331
 30
0.0
 11
-470.331802368164
 21
69.3315905761542
 31
0.0
  0
LINE
  5
   22A
  8
0
  6
CONTINUOUS
 62
     7
 10
-451.08179473877
 20
-18.1433773803887
 30
0.0
 11
-451.08179473877
 21
-8.64340209960938
 31
0.0
  0
LINE
  5
   22B
  8
0
  6
CONTINUOUS
 62
     7
 10
-451.08179473877
 20
33.2316073608222
 30
0.0
 11
-451.08179473877
 21
33.3566073608222
 31
0.0
  0
LINE
  5
   22C
  8
0
  6
CONTINUOUS
 62
     7
 10
-453.83179473877
 20
34.3566073608222
 30
0.0
 11
-455.58179473877
 21
34.3566073608222
 31
0.0
  0
LINE
  5
   22D
  8
0
  6
CONTINUOUS
 62
     7
 10
-453.83179473877
 20
-18.1433773803887
 30
0.0
 11
-455.58179473877
 21
-18.1433773803887
 31
0.0
  0
LINE
  5
   22E
  8
0
  6
CONTINUOUS
 62
     7
 10
-459.08179473877
 20
-26.2683773803887
 30
0.0
 11
-459.08179473877
 21
-20.7684078979669
 31
0.0
  0
LINE
  5
   22F
  8
0
  6
CONTINUOUS
 62
     7
 10
-456.58179473877
 20
-26.2683773803887
 30
0.0
 11
-456.58179473877
 21
-18.1433773803887
 31
0.0
  0
LINE
  5
   230
  8
0
  6
CONTINUOUS
 62
     7
 10
-456.58179473877
 20
34.3566073608222
 30
0.0
 11
-456.58179473877
 21
58.4816073608222
 31
0.0
  0
LINE
  5
   231
  8
0
  6
CONTINUOUS
 62
     7
 10
-456.58179473877
 20
58.4816073608222
 30
0.0
 11
-459.08179473877
 21
58.4816073608222
 31
0.0
  0
LINE
  5
   232
  8
0
  6
CONTINUOUS
 62
     7
 10
-456.58179473877
 20
-26.2683773803887
 30
0.0
 11
-459.08179473877
 21
-26.2683773803887
 31
0.0
  0
LINE
  5
   233
  8
0
  6
CONTINUOUS
 62
     7
 10
-455.58179473877
 20
-18.1433773803887
 30
0.0
 11
-455.58179473877
 21
34.3566073608222
 31
0.0
  0
LINE
  5
   234
  8
0
  6
CONTINUOUS
 62
     7
 10
-455.58179473877
 20
-18.1433773803887
 30
0.0
 11
-456.58179473877
 21
-18.1433773803887
 31
0.0
  0
LINE
  5
   235
  8
0
  6
CONTINUOUS
 62
     7
 10
-455.58179473877
 20
34.3566073608222
 30
0.0
 11
-456.58179473877
 21
34.3566073608222
 31
0.0
  0
LINE
  5
   236
  8
0
  6
CONTINUOUS
 62
     7
 10
-459.231830732947
 20
-6.11841557575823
 30
0.0
 11
-459.081829214024
 21
-6.10529301877083
 31
0.0
  0
LINE
  5
   237
  8
0
  6
CONTINUOUS
 62
     7
 10
-459.081803427988
 20
-12.4315282913136
 30
0.0
 11
-459.231804951106
 21
-12.4183981049073
 31
0.0
  0
LINE
  5
   238
  8
0
  6
CONTINUOUS
 62
     7
 10
-470.331817626953
 20
-6.39339566342924
 30
0.0
 11
-470.331817626953
 21
-5.01841552736141
 31
0.0
  0
LINE
  5
   239
  8
0
  6
CONTINUOUS
 62
   218
 10
-459.231796741486
 20
-54.8683777618587
 30
0.0
 11
-506.331787586212
 21
-54.8683777618587
 31
0.0
  0
LINE
  5
   23A
  8
0
  6
CONTINUOUS
 62
     2
 10
-505.331787109375
 20
-21.018377380389
 30
0.0
 11
-507.331787109375
 21
-21.018377380389
 31
0.0
  0
LINE
  5
   23B
  8
0
  6
CONTINUOUS
 62
     7
 10
-459.231788635254
 20
-21.018377380389
 30
0.0
 11
-467.83179473877
 21
-21.018377380389
 31
0.0
  0
LINE
  5
   23C
  8
0
  6
CONTINUOUS
 62
     2
 10
-505.331787109375
 20
-22.268377380389
 30
0.0
 11
-505.331787109375
 21
-21.018377380389
 31
0.0
  0
LINE
  5
   23D
  8
0
  6
CONTINUOUS
 62
   218
 10
-459.23179273627
 20
-42.2683850102313
 30
0.0
 11
-459.081794738807
 21
-42.2683832496295
 31
0.0
  0
LINE
  5
   23E
  8
0
  6
CONTINUOUS
 62
   218
 10
-457.08179473877
 20
-44.2683850097835
 30
0.0
 11
-459.231788635254
 21
-44.2683850097835
 31
0.0
  0
LINE
  5
   23F
  8
0
  6
CONTINUOUS
 62
   218
 10
-459.231788635254
 20
-54.8683758545101
 30
0.0
 11
-459.231788635254
 21
-42.268377380389
 31
0.0
  0
LINE
  5
   240
  8
0
  6
CONTINUOUS
 62
   218
 10
-459.231788635254
 20
-42.268377380389
 30
0.0
 11
-459.231788635254
 21
-21.018377380389
 31
0.0
  0
LINE
  5
   241
  8
0
  6
CONTINUOUS
 62
     7
 10
-459.08179473877
 20
-26.768377380389
 30
0.0
 11
-459.231788635254
 21
-26.768377380389
 31
0.0
  0
LINE
  5
   242
  8
0
  6
CONTINUOUS
 62
   218
 10
-507.331787109212
 20
-39.2683850092888
 30
0.0
 11
-506.331787586071
 21
-39.2683773798942
 31
0.0
  0
LINE
  5
   243
  8
0
  6
CONTINUOUS
 62
   218
 10
-506.331787586212
 20
-57.5183773803887
 30
0.0
 11
-506.331787586212
 21
-39.2683850097833
 31
0.0
  0
LINE
  5
   244
  8
0
  6
CONTINUOUS
 62
   218
 10
-506.331787109375
 20
-44.6433850097835
 30
0.0
 11
-507.331787109375
 21
-44.6433850097835
 31
0.0
  0
LINE
  5
   245
  8
0
  6
CONTINUOUS
 62
     7
 10
-470.331800459739
 20
-21.0183773781337
 30
0.0
 11
-470.331792830344
 21
-20.0183773781108
 31
0.0
  0
LINE
  5
   246
  8
0
  6
CONTINUOUS
 62
     7
 10
-470.331787109375
 20
-20.018377380389
 30
0.0
 11
-475.331787109375
 21
-20.018377380389
 31
0.0
  0
LINE
  5
   247
  8
0
  6
CONTINUOUS
 62
     7
 10
-467.83179473877
 20
-21.018377380389
 30
0.0
 11
-470.33179473877
 21
-21.018377380389
 31
0.0
  0
LINE
  5
   248
  8
0
  6
CONTINUOUS
 62
   218
 10
-506.331787109375
 20
-49.0021806526363
 30
0.0
 11
-507.331787109375
 21
-49.0021806526363
 31
0.0
  0
LINE
  5
   249
  8
0
  6
CONTINUOUS
 62
   218
 10
-506.331787109375
 20
-47.7756863403499
 30
0.0
 11
-507.331787109375
 21
-47.7756863403499
 31
0.0
  0
LINE
  5
   24A
  8
0
  6
CONTINUOUS
 62
   218
 10
-506.331787109375
 20
-44.7072735595882
 30
0.0
 11
-507.331787109375
 21
-44.7072735595882
 31
0.0
  0
LINE
  5
   24B
  8
0
  6
CONTINUOUS
 62
     7
 10
-456.58179473877
 20
-26.5183773803887
 30
0.0
 11
-459.08179473877
 21
-26.5183773803887
 31
0.0
  0
LINE
  5
   24C
  8
0
  6
CONTINUOUS
 62
     7
 10
-456.58179473877
 20
-44.0183773803887
 30
0.0
 11
-459.08179473877
 21
-44.0183773803887
 31
0.0
  0
LINE
  5
   24D
  8
0
  6
CONTINUOUS
 62
     7
 10
-456.58179473877
 20
-44.0183773803887
 30
0.0
 11
-456.58179473877
 21
-26.5183773803887
 31
0.0
  0
LINE
  5
   24E
  8
0
  6
CONTINUOUS
 62
     7
 10
-457.58179473877
 20
-44.0183773803887
 30
0.0
 11
-457.58179473877
 21
-26.5183773803887
 31
0.0
  0
LINE
  5
   24F
  8
0
  6
CONTINUOUS
 62
     7
 10
-459.08179473877
 20
-44.0183773803887
 30
0.0
 11
-459.08179473877
 21
-26.5183773803887
 31
0.0
  0
ARC
  5
   250
  8
0
  6
CONTINUOUS
 62
     7
 10
-440.744268353513
 20
-2.91531811292022
 30
0.0
 40
0.499999897877905
 50
348.623573369035
 51
436.688788706936
  0
ARC
  5
   251
  8
0
  6
CONTINUOUS
 62
     7
 10
-441.342640553431
 20
-5.88922709691907
 30
0.0
 40
0.50000037262337
 50
260.593992196011
 51
348.623573369035
  0
LINE
  5
   252
  8
0
  6
DASHDOT
 62
     7
 10
-433.343976027739
 20
-5.96964875081748
 30
0.0
 11
-458.402319262193
 21
-0.927728582919229
 31
0.0
  0
LINE
  5
   253
  8
0
  6
CONTINUOUS
 62
     7
 10
-440.629148381166
 20
-2.42875164322153
 30
0.0
 11
-451.08179473877
 21
4.43089447503127E-2
 31
0.0
  0
LINE
  5
   254
  8
0
  6
CONTINUOUS
 62
     7
 10
-440.852464108551
 20
-5.98785414820284
 30
0.0
 11
-440.254092072926
 21
-3.013945131147
 31
0.0
  0
LINE
  5
   255
  8
0
  6
CONTINUOUS
 62
     7
 10
-441.424355292025
 20
-6.38250481979047
 30
0.0
 11
-451.08179473877
 21
-4.78268568488918
 31
0.0
  0
LINE
  5
   256
  8
0
  6
CONTINUOUS
 62
     7
 10
-504.831819152833
 20
-12.0184020996094
 30
0.0
 11
-504.831819152833
 21
-6.51840209960938
 31
0.0
  0
LINE
  5
   257
  8
0
  6
CONTINUOUS
 62
     2
 10
-506.331790228831
 20
61.3873901367187
 30
0.0
 11
-506.331782621561
 21
71.9815902709961
 31
0.0
  0
ARC
  5
   258
  8
0
  6
CONTINUOUS
 62
     7
 10
-477.83179473877
 20
2.98162261961125
 30
0.0
 40
38.0220413050115
 50
333.082565820193
 51
379.93594827737
  0
LINE
  5
   259
  8
0
  6
CONTINUOUS
 62
     7
 10
-439.809753433758
 20
2.98162261961124
 30
0.0
 11
-439.809753433758
 21
24.6562621350435
 31
0.0
  0
LINE
  5
   25A
  8
0
  6
CONTINUOUS
 62
     7
 10
-475.331802368164
 20
-22.2683868408197
 30
0.0
 11
-505.331787109375
 21
-22.2683868408197
 31
0.0
  0
LINE
  5
   25B
  8
0
  6
CONTINUOUS
 62
     7
 10
-451.08179473877
 20
15.1065979003906
 30
0.0
 11
-451.08179473877
 21
34.3566073608222
 31
0.0
  0
LINE
  5
   25C
  8
0
  6
CONTINUOUS
 62
     7
 10
-451.08179473877
 20
8.60659790039063
 30
0.0
 11
-451.08179473877
 21
14.6065979003906
 31
0.0
  0
LINE
  5
   25D
  8
0
  6
CONTINUOUS
 62
     7
 10
-451.08179473877
 20
-1.64339645852043
 30
0.0
 11
-451.08179473877
 21
8.10659790039063
 31
0.0
  0
LINE
  5
   25E
  8
0
  6
CONTINUOUS
 62
     7
 10
-451.08179473877
 20
-8.14340209960938
 30
0.0
 11
-451.08179473877
 21
-2.14339645852039
 31
0.0
  0
LINE
  5
   25F
  8
0
  6
CONTINUOUS
 62
     7
 10
-507.331787109375
 20
57.2315673828125
 30
0.0
 11
-507.331787109375
 21
62.7315673828125
 31
0.0
  0
LINE
  5
   260
  8
0
  6
CONTINUOUS
 62
     7
 10
-507.331787109375
 20
-5.01840209960938
 30
0.0
 11
-507.331787109375
 21
-2.26840209960938
 31
0.0
  0
LINE
  5
   261
  8
0
  6
CONTINUOUS
 62
     7
 10
-507.331787109143
 20
-39.2683850092888
 30
0.0
 11
-507.331787109143
 21
-21.018377380389
 31
0.0
  0
LINE
  5
   262
  8
0
  6
CONTINUOUS
 62
     7
 10
-507.331787109375
 20
-49.0021806526363
 30
0.0
 11
-507.331787109375
 21
-44.7072735595882
 31
0.0
  0
LINE
  5
   263
  8
0
  6
CONTINUOUS
 62
     3
 10
-531.081787109375
 20
50.8254470825195
 30
0.0
 11
-531.831787109375
 21
50.8254470825195
 31
0.0
  0
LINE
  5
   264
  8
0
  6
CONTINUOUS
 62
     3
 10
-531.081787109375
 20
-36.1745529174805
 30
0.0
 11
-531.831787109375
 21
-36.1745529174805
 31
0.0
  0
LINE
  5
   265
  8
0
  6
CONTINUOUS
 62
     3
 10
-531.081787109375
 20
-36.1745529174805
 30
0.0
 11
-531.081787109375
 21
50.8254470825195
 31
0.0
  0
LINE
  5
   266
  8
0
  6
CONTINUOUS
 62
     3
 10
-531.831787109375
 20
-36.1745529174805
 30
0.0
 11
-531.831787109375
 21
50.8254470825195
 31
0.0
  0
LINE
  5
   267
  8
0
  6
CONTINUOUS
 62
     2
 10
-507.331787109375
 20
70.7315902709961
 30
0.0
 11
-525.831779479981
 21
70.7315902709961
 31
0.0
  0
LINE
  5
   268
  8
0
  6
CONTINUOUS
 62
     2
 10
-507.331787109375
 20
-56.2684173583984
 30
0.0
 11
-525.831779479981
 21
-56.2684173583984
 31
0.0
  0
LINE
  5
   269
  8
0
  6
CONTINUOUS
 62
     2
 10
-507.331787109375
 20
69.3315887451172
 30
0.0
 11
-507.331787109375
 21
70.7315902709961
 31
0.0
  0
LINE
  5
   26A
  8
0
  6
CONTINUOUS
 62
     2
 10
-507.331787109375
 20
-47.2683563232422
 30
0.0
 11
-507.331787109375
 21
61.7315979003906
 31
0.0
  0
LINE
  5
   26B
  8
0
  6
CONTINUOUS
 62
     2
 10
-507.331787109375
 20
-56.2684173583984
 30
0.0
 11
-507.331787109375
 21
-54.8683395385742
 31
0.0
  0
LINE
  5
   26C
  8
0
  6
CONTINUOUS
 62
     2
 10
-529.081779479981
 20
-10.768424987793
 30
0.0
 11
-529.081779479981
 21
-9.26840972900391
 31
0.0
  0
LINE
  5
   26D
  8
0
  6
CONTINUOUS
 62
     2
 10
-525.831779479981
 20
-56.2684173583984
 30
0.0
 11
-525.831779479981
 21
-55.2684020996094
 31
0.0
  0
LINE
  5
   26E
  8
0
  6
CONTINUOUS
 62
     7
 10
-525.831779479981
 20
-47.2684173583984
 30
0.0
 11
-525.831779479981
 21
-39.2684025764465
 31
0.0
  0
LINE
  5
   26F
  8
0
  6
CONTINUOUS
 62
     2
 10
-525.831779479981
 20
25.2315902709961
 30
0.0
 11
-529.081779479981
 21
25.2315902709961
 31
0.0
  0
LINE
  5
   270
  8
0
  6
CONTINUOUS
 62
     2
 10
-525.831779479981
 20
25.2315902709961
 30
0.0
 11
-525.831779479981
 21
37.2315902709961
 31
0.0
  0
LINE
  5
   271
  8
0
  6
CONTINUOUS
 62
     2
 10
-532.081779479981
 20
37.2315902709961
 30
0.0
 11
-532.081779479981
 21
44.7315902709961
 31
0.0
  0
LINE
  5
   272
  8
0
  6
CONTINUOUS
 62
     2
 10
-532.081779479981
 20
-30.2684097290039
 30
0.0
 11
-532.081779479981
 21
-22.7684097290039
 31
0.0
  0
LINE
  5
   273
  8
0
  6
CONTINUOUS
 62
     7
 10
-531.331779479981
 20
53.7315902709961
 30
0.0
 11
-531.331779479981
 21
69.7315902709961
 31
0.0
  0
LINE
  5
   274
  8
0
  6
CONTINUOUS
 62
     7
 10
-531.331779479981
 20
-55.2684020996094
 30
0.0
 11
-531.331779479981
 21
-39.2684097290039
 31
0.0
  0
LINE
  5
   275
  8
0
  6
CONTINUOUS
 62
     2
 10
-529.081779479981
 20
-9.26840972900391
 30
0.0
 11
-531.081779479981
 21
-9.26840972900391
 31
0.0
  0
LINE
  5
   276
  8
0
  6
CONTINUOUS
 62
     2
 10
-529.081779479981
 20
-5.76840972900391
 30
0.0
 11
-531.081779479981
 21
-5.76840972900391
 31
0.0
  0
LINE
  5
   277
  8
0
  6
CONTINUOUS
 62
     2
 10
-525.831779479981
 20
-14.268424987793
 30
0.0
 11
-529.081779479981
 21
-14.268424987793
 31
0.0
  0
LINE
  5
   278
  8
0
  6
CONTINUOUS
 62
     2
 10
-529.081779479981
 20
-14.268424987793
 30
0.0
 11
-529.081779479981
 21
-10.768424987793
 31
0.0
  0
LINE
  5
   279
  8
0
  6
CONTINUOUS
 62
     7
 10
-507.831771811191
 20
-6.51841717888623
 30
0.0
 11
-529.081779440586
 21
-6.51840954949183
 31
0.0
  0
LINE
  5
   27A
  8
0
  6
CONTINUOUS
 62
     7
 10
-507.831774854944
 20
-6.51843008505637
 30
0.0
 11
-507.331790171276
 21
-6.01842247367913
 31
0.0
  0
LINE
  5
   27B
  8
0
  6
CONTINUOUS
 62
     7
 10
-507.831771850586
 20
-12.0184020996094
 30
0.0
 11
-529.081779479981
 21
-12.0184020996094
 31
0.0
  0
LINE
  5
   27C
  8
0
  6
CONTINUOUS
 62
     7
 10
-507.33178646228
 20
-12.5184142592731
 30
0.0
 11
-507.831771145948
 21
-12.0184066478959
 31
0.0
  0
LINE
  5
   27D
  8
0
  6
CONTINUOUS
 62
     7
 10
-507.331787109373
 20
69.3315963745117
 30
0.0
 11
-525.831779479979
 21
69.3315963745117
 31
0.0
  0
LINE
  5
   27E
  8
0
  6
CONTINUOUS
 62
     2
 10
-507.331787109388
 20
61.7315902709961
 30
0.0
 11
-507.331787109388
 21
69.3315963745117
 31
0.0
  0
LINE
  5
   27F
  8
0
  6
CONTINUOUS
 62
     7
 10
-525.831779479981
 20
61.7315902709961
 30
0.0
 11
-525.831779479981
 21
69.3315963745117
 31
0.0
  0
LINE
  5
   280
  8
0
  6
CONTINUOUS
 62
     7
 10
-507.331787109372
 20
-54.8684020042419
 30
0.0
 11
-525.831779479978
 21
-54.8684020042419
 31
0.0
  0
LINE
  5
   281
  8
0
  6
CONTINUOUS
 62
     2
 10
-507.331787109374
 20
-54.8684020042419
 30
0.0
 11
-507.331787109374
 21
-47.2684135437012
 31
0.0
  0
LINE
  5
   282
  8
0
  6
CONTINUOUS
 62
     7
 10
-525.831779479981
 20
-54.8684020042419
 30
0.0
 11
-525.831779479981
 21
-47.2684135437012
 31
0.0
  0
LINE
  5
   283
  8
0
  6
CONTINUOUS
 62
     1
 10
-527.831779479981
 20
69.7315902709961
 30
0.0
 11
-527.831779479981
 21
70.4815902709961
 31
0.0
  0
LINE
  5
   284
  8
0
  6
CONTINUOUS
 62
     1
 10
-527.831779479981
 20
52.9815902709961
 30
0.0
 11
-527.831779479981
 21
53.7316055297852
 31
0.0
  0
LINE
  5
   285
  8
0
  6
CONTINUOUS
 62
     1
 10
-531.831779479981
 20
53.4815902709961
 30
0.0
 11
-531.831779479981
 21
69.9815902709961
 31
0.0
  0
LINE
  5
   286
  8
0
  6
CONTINUOUS
 62
     2
 10
-525.831779479981
 20
44.7315902709961
 30
0.0
 11
-531.081779479981
 21
44.7315902709961
 31
0.0
  0
LINE
  5
   287
  8
0
  6
CONTINUOUS
 62
     2
 10
-531.831779479981
 20
44.7315902709961
 30
0.0
 11
-532.081779479981
 21
44.7315902709961
 31
0.0
  0
LINE
  5
   288
  8
0
  6
CONTINUOUS
 62
     2
 10
-525.831779479981
 20
37.2315902709961
 30
0.0
 11
-531.081779479981
 21
37.2315902709961
 31
0.0
  0
LINE
  5
   289
  8
0
  6
CONTINUOUS
 62
     2
 10
-531.831779479981
 20
37.2315902709961
 30
0.0
 11
-532.081779479981
 21
37.2315902709961
 31
0.0
  0
LINE
  5
   28A
  8
0
  6
CONTINUOUS
 62
     2
 10
-525.831779479981
 20
-22.7684097290039
 30
0.0
 11
-531.081779479981
 21
-22.7684097290039
 31
0.0
  0
LINE
  5
   28B
  8
0
  6
CONTINUOUS
 62
     2
 10
-531.831779479981
 20
-22.7684097290039
 30
0.0
 11
-532.081779479981
 21
-22.7684097290039
 31
0.0
  0
LINE
  5
   28C
  8
0
  6
CONTINUOUS
 62
     2
 10
-525.831779479981
 20
-30.2684097290039
 30
0.0
 11
-531.081779479981
 21
-30.2684097290039
 31
0.0
  0
LINE
  5
   28D
  8
0
  6
CONTINUOUS
 62
     2
 10
-531.831779479981
 20
-30.2684097290039
 30
0.0
 11
-532.081779479981
 21
-30.2684097290039
 31
0.0
  0
LINE
  5
   28E
  8
0
  6
CONTINUOUS
 62
     2
 10
-525.831779479981
 20
69.7315902709961
 30
0.0
 11
-527.831779479981
 21
69.7315902709961
 31
0.0
  0
LINE
  5
   28F
  8
0
  6
CONTINUOUS
 62
     2
 10
-525.831779479981
 20
53.7315902709961
 30
0.0
 11
-527.831779479981
 21
53.7315902709961
 31
0.0
  0
LINE
  5
   290
  8
0
  6
CONTINUOUS
 62
     2
 10
-525.831779479981
 20
-55.2684020996094
 30
0.0
 11
-527.831779479981
 21
-55.2684020996094
 31
0.0
  0
LINE
  5
   291
  8
0
  6
CONTINUOUS
 62
     2
 10
-525.831779479981
 20
-39.2684025764465
 30
0.0
 11
-527.831779479981
 21
-39.2684025764465
 31
0.0
  0
LINE
  5
   292
  8
0
  6
CONTINUOUS
 62
     1
 10
-527.831779479981
 20
52.9815902709961
 30
0.0
 11
-531.331787109375
 21
52.9815902709961
 31
0.0
  0
LINE
  5
   293
  8
0
  6
CONTINUOUS
 62
     1
 10
-527.831779479981
 20
70.4815902709961
 30
0.0
 11
-531.331787109375
 21
70.4815902709961
 31
0.0
  0
LINE
  5
   294
  8
0
  6
CONTINUOUS
 62
     1
 10
-531.331778214669
 20
52.981578484617
 30
0.0
 11
-531.581778201978
 21
53.0485721841334
 31
0.0
  0
LINE
  5
   295
  8
0
  6
CONTINUOUS
 62
     1
 10
-531.581790729527
 20
53.0485795273697
 30
0.0
 11
-531.764797003777
 21
53.2315934377845
 31
0.0
  0
LINE
  5
   296
  8
0
  6
CONTINUOUS
 62
     1
 10
-531.764793921832
 20
53.2315971513915
 30
0.0
 11
-531.831780000439
 21
53.4815895189182
 31
0.0
  0
LINE
  5
   297
  8
0
  6
CONTINUOUS
 62
     1
 10
-531.58178230046
 20
70.4145994068435
 30
0.0
 11
-531.331782313507
 21
70.4815854777618
 31
0.0
  0
LINE
  5
   298
  8
0
  6
CONTINUOUS
 62
     1
 10
-531.764794781656
 20
70.2315905280319
 30
0.0
 11
-531.581788507407
 21
70.4146044384467
 31
0.0
  0
LINE
  5
   299
  8
0
  6
CONTINUOUS
 62
     1
 10
-531.831773620928
 20
69.9815775163392
 30
0.0
 11
-531.76478755001
 21
70.2315775032922
 31
0.0
  0
LINE
  5
   29A
  8
0
  6
DASHDOT
 62
     7
 10
-518.558248159377
 20
40.9815902709961
 30
0.0
 11
-541.015382035461
 21
40.9815902709961
 31
0.0
  0
LINE
  5
   29B
  8
0
  6
DASHDOT
 62
     7
 10
-518.886137799784
 20
-26.5184097290039
 30
0.0
 11
-542.569063000687
 21
-26.5184097290039
 31
0.0
  0
LINE
  5
   29C
  8
0
  6
CONTINUOUS
 62
     7
 10
-531.831779479981
 20
-55.5184097290039
 30
0.0
 11
-531.831779479981
 21
-39.0184097290039
 31
0.0
  0
LINE
  5
   29D
  8
0
  6
CONTINUOUS
 62
     7
 10
-527.831779479981
 20
-56.0184097290039
 30
0.0
 11
-531.331787109375
 21
-56.0184097290039
 31
0.0
  0
LINE
  5
   29E
  8
0
  6
CONTINUOUS
 62
     7
 10
-527.831779479981
 20
-38.5184097290039
 30
0.0
 11
-531.331787109375
 21
-38.5184097290039
 31
0.0
  0
LINE
  5
   29F
  8
0
  6
CONTINUOUS
 62
     7
 10
-527.831779479981
 20
-56.0184097290039
 30
0.0
 11
-527.831779479981
 21
-55.2684097290039
 31
0.0
  0
LINE
  5
   2A0
  8
0
  6
CONTINUOUS
 62
     7
 10
-527.831779479981
 20
-39.268424987793
 30
0.0
 11
-527.831779479981
 21
-38.5184097290039
 31
0.0
  0
LINE
  5
   2A1
  8
0
  6
CONTINUOUS
 62
     7
 10
-531.831780000439
 20
-39.018408976926
 30
0.0
 11
-531.764793921832
 21
-38.7684166093993
 31
0.0
  0
LINE
  5
   2A2
  8
0
  6
CONTINUOUS
 62
     7
 10
-531.764797003777
 20
-38.7684128957923
 30
0.0
 11
-531.581790729527
 21
-38.5853989853775
 31
0.0
  0
LINE
  5
   2A3
  8
0
  6
CONTINUOUS
 62
     7
 10
-531.581778201978
 20
-38.5853916421413
 30
0.0
 11
-531.331778214669
 21
-38.5183979426248
 31
0.0
  0
LINE
  5
   2A4
  8
0
  6
CONTINUOUS
 62
     7
 10
-531.331782313507
 20
-56.0184049357696
 30
0.0
 11
-531.58178230046
 21
-55.9514188648513
 31
0.0
  0
LINE
  5
   2A5
  8
0
  6
CONTINUOUS
 62
     7
 10
-531.581788507407
 20
-55.9514238964545
 30
0.0
 11
-531.764794781656
 21
-55.7684099860397
 31
0.0
  0
LINE
  5
   2A6
  8
0
  6
CONTINUOUS
 62
     7
 10
-531.76478755001
 20
-55.7683969613
 30
0.0
 11
-531.831773620928
 21
-55.518396974347
 31
0.0
  0
LINE
  5
   2A7
  8
0
  6
CONTINUOUS
 62
     7
 10
-527.831779479981
 20
-55.2684020996094
 30
0.0
 11
-531.331779479981
 21
-55.2684020996094
 31
0.0
  0
LINE
  5
   2A8
  8
0
  6
CONTINUOUS
 62
     7
 10
-525.831779479981
 20
-55.2684020996094
 30
0.0
 11
-525.831779479981
 21
-54.8684015274048
 31
0.0
  0
LINE
  5
   2A9
  8
0
  6
CONTINUOUS
 62
     2
 10
-525.831779479981
 20
-39.2684025764465
 30
0.0
 11
-525.831779479981
 21
-30.2684097290039
 31
0.0
  0
LINE
  5
   2AA
  8
0
  6
CONTINUOUS
 62
     7
 10
-527.831779479981
 20
-39.2684025764465
 30
0.0
 11
-531.331779479981
 21
-39.2684025764465
 31
0.0
  0
LINE
  5
   2AB
  8
0
  6
CONTINUOUS
 62
     7
 10
-525.831779479981
 20
-30.2684097290039
 30
0.0
 11
-525.831779479981
 21
-22.7684097290039
 31
0.0
  0
LINE
  5
   2AC
  8
0
  6
CONTINUOUS
 62
     2
 10
-525.831779479981
 20
-22.7684097290039
 30
0.0
 11
-525.831779479981
 21
-14.268424987793
 31
0.0
  0
LINE
  5
   2AD
  8
0
  6
CONTINUOUS
 62
     7
 10
-525.831779479981
 20
-14.268424987793
 30
0.0
 11
-525.831779479981
 21
-12.5184020996094
 31
0.0
  0
LINE
  5
   2AE
  8
0
  6
CONTINUOUS
 62
     7
 10
-529.081779479981
 20
-9.26840972900391
 30
0.0
 11
-529.081779479981
 21
-5.76840972900391
 31
0.0
  0
LINE
  5
   2AF
  8
0
  6
CONTINUOUS
 62
     2
 10
-529.081779479981
 20
-5.76840972900391
 30
0.0
 11
-529.081779479981
 21
25.2315902709961
 31
0.0
  0
LINE
  5
   2B0
  8
0
  6
CONTINUOUS
 62
     7
 10
-525.831779479981
 20
37.2315902709961
 30
0.0
 11
-525.831779479981
 21
44.7315902709961
 31
0.0
  0
LINE
  5
   2B1
  8
0
  6
CONTINUOUS
 62
     2
 10
-525.831779479981
 20
44.7315902709961
 30
0.0
 11
-525.831779479981
 21
53.7315902709961
 31
0.0
  0
LINE
  5
   2B2
  8
0
  6
CONTINUOUS
 62
     7
 10
-525.831779479981
 20
53.7315902709961
 30
0.0
 11
-525.831779479981
 21
61.7316055297852
 31
0.0
  0
LINE
  5
   2B3
  8
0
  6
CONTINUOUS
 62
     7
 10
-527.831779479981
 20
53.7315902709961
 30
0.0
 11
-531.331779479981
 21
53.7315902709961
 31
0.0
  0
LINE
  5
   2B4
  8
0
  6
CONTINUOUS
 62
     2
 10
-525.831779479981
 20
69.7315902709961
 30
0.0
 11
-525.831779479981
 21
70.7315902709961
 31
0.0
  0
LINE
  5
   2B5
  8
0
  6
CONTINUOUS
 62
     7
 10
-527.831779479981
 20
69.7315902709961
 30
0.0
 11
-531.331779479981
 21
69.7315902709961
 31
0.0
  0
LINE
  5
   2B6
  8
0
  6
DASHDOT
 62
     7
 10
-532.081779479981
 20
44.7315902709961
 30
0.0
 11
-532.081779479981
 21
84.8617468305318
 31
0.0
  0
LINE
  5
   2B7
  8
0
  6
CONTINUOUS
 62
     7
 10
-532.081779479981
 20
-22.7684097290039
 30
0.0
 11
-532.081779479981
 21
37.2315902709961
 31
0.0
  0
LINE
  5
   2B8
  8
0
  6
DASHDOT
 62
     7
 10
-532.081779479981
 20
-75.8818350417317
 30
0.0
 11
-532.081779479981
 21
-30.2684097290039
 31
0.0
  0
LINE
  5
   2B9
  8
0
  6
DASHDOT
 62
     7
 10
-533.581779479981
 20
-75.5859160931743
 30
0.0
 11
-533.581779479981
 21
84.7495740588135
 31
0.0
  0
LINE
  5
   2BA
  8
0
  6
CONTINUOUS
 62
     7
 10
-537.584475977743
 20
84.309511646688
 30
0.0
 11
-528.929915205942
 21
85.0774636992207
 31
0.0
  0
LINE
  5
   2BB
  8
0
  6
CONTINUOUS
 62
     7
 10
-528.61928291503
 20
-77.1761362538655
 30
0.0
 11
-537.10127019188
 21
-74.4581037083846
 31
0.0
  0
LINE
  5
   2BC
  8
0
  6
CONTINUOUS
 62
     1
 10
-453.83179473877
 20
-19.396635055542
 30
0.0
 11
-453.83179473877
 21
-18.396635055542
 31
0.0
  0
LINE
  5
   2BD
  8
0
  6
CONTINUOUS
 62
     1
 10
-452.83179473877
 20
-19.396635055542
 30
0.0
 11
-453.83179473877
 21
-19.396635055542
 31
0.0
  0
LINE
  5
   2BE
  8
0
  6
CONTINUOUS
 62
     1
 10
-453.83179473877
 20
34.6033630371094
 30
0.0
 11
-453.83179473877
 21
35.6033630371094
 31
0.0
  0
LINE
  5
   2BF
  8
0
  6
CONTINUOUS
 62
     1
 10
-452.83179473877
 20
35.6033630371094
 30
0.0
 11
-453.83179473877
 21
35.6033630371094
 31
0.0
  0
LINE
  5
   2C0
  8
0
  6
CONTINUOUS
 62
     1
 10
-453.83179473877
 20
-18.396635055542
 30
0.0
 11
-453.83179473877
 21
34.603364944458
 31
0.0
  0
LINE
  5
   2C1
  8
0
  6
CONTINUOUS
 62
     1
 10
-456.081794649363
 20
42.3920364379883
 30
0.0
 11
-456.081794649363
 21
44.8146896362305
 31
0.0
  0
LINE
  5
   2C2
  8
0
  6
CONTINUOUS
 62
     1
 10
-456.081794649363
 20
-28.6079597473145
 30
0.0
 11
-456.081794649363
 21
-26.1853103637695
 31
0.0
  0
LINE
  5
   2C3
  8
0
  6
CONTINUOUS
 62
     1
 10
-452.83179473877
 20
-32.646635055542
 30
0.0
 11
-452.83179473877
 21
48.853364944458
 31
0.0
  0
LINE
  5
   2C4
  8
0
  6
CONTINUOUS
 62
     1
 10
-451.08179473877
 20
-32.646635055542
 30
0.0
 11
-452.83179473877
 21
-32.646635055542
 31
0.0
  0
LINE
  5
   2C5
  8
0
  6
CONTINUOUS
 62
     1
 10
-451.08179473877
 20
-32.6466369628906
 30
0.0
 11
-451.08179473877
 21
48.8533630371094
 31
0.0
  0
LINE
  5
   2C6
  8
0
  6
CONTINUOUS
 62
     1
 10
-451.08179473877
 20
48.8533630371094
 30
0.0
 11
-451.58179473877
 21
48.8533630371094
 31
0.0
  0
LINE
  5
   2C7
  8
0
  6
CONTINUOUS
 62
     1
 10
-452.08179473877
 20
48.8533630371094
 30
0.0
 11
-452.83179473877
 21
48.8533630371094
 31
0.0
  0
LINE
  5
   2C8
  8
0
  6
CONTINUOUS
 62
     1
 10
-452.83179473877
 20
42.1033630371094
 30
0.0
 11
-455.581796247677
 21
42.1033630371094
 31
0.0
  0
LINE
  5
   2C9
  8
0
  6
CONTINUOUS
 62
     1
 10
-452.83179473877
 20
45.1033630371094
 30
0.0
 11
-455.581793011099
 21
45.1033630371094
 31
0.0
  0
LINE
  5
   2CA
  8
0
  6
CONTINUOUS
 62
     1
 10
-455.581794656213
 20
42.1033630371094
 30
0.0
 11
-455.581794656213
 21
42.2175445556641
 31
0.0
  0
LINE
  5
   2CB
  8
0
  6
CONTINUOUS
 62
     1
 10
-455.581794258351
 20
42.1033618885786
 30
0.0
 11
-456.081794274815
 21
42.3920352930768
 31
0.0
  0
LINE
  5
   2CC
  8
0
  6
CONTINUOUS
 62
     1
 10
-455.581794656213
 20
42.2175445556641
 30
0.0
 11
-455.581794656213
 21
42.5427017211914
 31
0.0
  0
LINE
  5
   2CD
  8
0
  6
CONTINUOUS
 62
     1
 10
-455.581794656213
 20
42.5427017211914
 30
0.0
 11
-455.581794656213
 21
43.0293426513672
 31
0.0
  0
LINE
  5
   2CE
  8
0
  6
CONTINUOUS
 62
     1
 10
-455.581794656213
 20
43.0293426513672
 30
0.0
 11
-455.581794656213
 21
43.6033630371094
 31
0.0
  0
LINE
  5
   2CF
  8
0
  6
CONTINUOUS
 62
     1
 10
-455.581794656213
 20
43.6033630371094
 30
0.0
 11
-455.581794656213
 21
44.1773910522461
 31
0.0
  0
LINE
  5
   2D0
  8
0
  6
CONTINUOUS
 62
     1
 10
-455.581794656213
 20
44.1773910522461
 30
0.0
 11
-455.581794656213
 21
44.6640243530273
 31
0.0
  0
LINE
  5
   2D1
  8
0
  6
CONTINUOUS
 62
     1
 10
-455.581794656213
 20
44.6640243530273
 30
0.0
 11
-455.581794656213
 21
44.9891815185547
 31
0.0
  0
LINE
  5
   2D2
  8
0
  6
CONTINUOUS
 62
     1
 10
-455.581794656213
 20
44.9891815185547
 30
0.0
 11
-455.581794656213
 21
45.1033630371094
 31
0.0
  0
LINE
  5
   2D3
  8
0
  6
CONTINUOUS
 62
     1
 10
-456.081795083952
 20
44.8146884453615
 30
0.0
 11
-455.581795067488
 21
45.1033618498597
 31
0.0
  0
LINE
  5
   2D4
  8
0
  6
CONTINUOUS
 62
     1
 10
-452.83179473877
 20
-25.896635055542
 30
0.0
 11
-455.581793653657
 21
-25.896635055542
 31
0.0
  0
LINE
  5
   2D5
  8
0
  6
CONTINUOUS
 62
     1
 10
-452.83179473877
 20
-28.896635055542
 30
0.0
 11
-455.581795495438
 21
-28.896635055542
 31
0.0
  0
LINE
  5
   2D6
  8
0
  6
CONTINUOUS
 62
     1
 10
-456.081794910437
 20
-26.1853110638954
 30
0.0
 11
-455.581794893973
 21
-25.8966357716389
 31
0.0
  0
LINE
  5
   2D7
  8
0
  6
CONTINUOUS
 62
     1
 10
-455.581794639555
 20
-26.0108165740967
 30
0.0
 11
-455.581794639555
 21
-25.896635055542
 31
0.0
  0
LINE
  5
   2D8
  8
0
  6
CONTINUOUS
 62
     1
 10
-455.581794639567
 20
-26.3359756469727
 30
0.0
 11
-455.581794639567
 21
-26.0108165740967
 31
0.0
  0
LINE
  5
   2D9
  8
0
  6
CONTINUOUS
 62
     1
 10
-455.581794639553
 20
-26.8226089477539
 30
0.0
 11
-455.581794639553
 21
-26.3359756469727
 31
0.0
  0
LINE
  5
   2DA
  8
0
  6
CONTINUOUS
 62
     1
 10
-455.581794639588
 20
-27.396635055542
 30
0.0
 11
-455.581794639588
 21
-26.8226089477539
 31
0.0
  0
LINE
  5
   2DB
  8
0
  6
CONTINUOUS
 62
     1
 10
-455.581794639526
 20
-27.9706592559815
 30
0.0
 11
-455.581794639526
 21
-27.396635055542
 31
0.0
  0
LINE
  5
   2DC
  8
0
  6
CONTINUOUS
 62
     1
 10
-455.581794639554
 20
-28.4572944641113
 30
0.0
 11
-455.581794639554
 21
-27.9706592559815
 31
0.0
  0
LINE
  5
   2DD
  8
0
  6
CONTINUOUS
 62
     1
 10
-455.581794639566
 20
-28.7824535369873
 30
0.0
 11
-455.581794639566
 21
-28.4572944641113
 31
0.0
  0
LINE
  5
   2DE
  8
0
  6
CONTINUOUS
 62
     1
 10
-455.581794432393
 20
-28.8966356692915
 30
0.0
 11
-456.081794448857
 21
-28.607960377035
 31
0.0
  0
LINE
  5
   2DF
  8
0
  6
CONTINUOUS
 62
     1
 10
-455.581794639555
 20
-28.896635055542
 30
0.0
 11
-455.581794639555
 21
-28.7824535369873
 31
0.0
  0
LINE
  5
   2E0
  8
0
  6
CONTINUOUS
 62
     1
 10
-451.58179473877
 20
48.8533630371094
 30
0.0
 11
-452.08179473877
 21
48.8533630371094
 31
0.0
  0
LINE
  5
   2E1
  8
0
  6
CONTINUOUS
 62
     7
 10
-452.83179473877
 20
48.8533630371094
 30
0.0
 11
-452.83179473877
 21
79.6174975106811
 31
0.0
  0
LINE
  5
   2E2
  8
0
  6
CONTINUOUS
 62
     7
 10
-453.83179473877
 20
35.6033630371094
 30
0.0
 11
-453.83179473877
 21
42.1033630371094
 31
0.0
  0
LINE
  5
   2E3
  8
0
  6
CONTINUOUS
 62
     7
 10
-452.83179473877
 20
-68.2096331224968
 30
0.0
 11
-452.83179473877
 21
-32.646635055542
 31
0.0
  0
LINE
  5
   2E4
  8
0
  6
CONTINUOUS
 62
     7
 10
-453.83179473877
 20
-67.4987897490028
 30
0.0
 11
-453.83179473877
 21
-28.896635055542
 31
0.0
  0
LINE
  5
   2E5
  8
0
  6
CONTINUOUS
 62
     7
 10
-449.714118459775
 20
-70.4258126461198
 30
0.0
 11
-456.152192967446
 21
-65.8493500442811
 31
0.0
  0
LINE
  5
   2E6
  8
0
  6
CONTINUOUS
 62
     7
 10
-455.99705864196
 20
77.6499010303197
 30
0.0
 11
-450.257088598976
 21
81.2179905164989
 31
0.0
  0
LINE
  5
   2E7
  8
0
  6
CONTINUOUS
 62
     7
 10
-452.83179473877
 20
-25.646635055542
 30
0.0
 11
-453.83179473877
 21
-25.646635055542
 31
0.0
  0
LINE
  5
   2E8
  8
0
  6
CONTINUOUS
 62
     7
 10
-452.83179473877
 20
-29.146635055542
 30
0.0
 11
-453.83179473877
 21
-29.146635055542
 31
0.0
  0
LINE
  5
   2E9
  8
0
  6
CONTINUOUS
 62
     7
 10
-452.83179473877
 20
-19.896635055542
 30
0.0
 11
-453.83179473877
 21
-19.896635055542
 31
0.0
  0
LINE
  5
   2EA
  8
0
  6
CONTINUOUS
 62
     7
 10
-452.83179473877
 20
36.1033630371094
 30
0.0
 11
-453.83179473877
 21
36.1033630371094
 31
0.0
  0
LINE
  5
   2EB
  8
0
  6
CONTINUOUS
 62
     7
 10
-452.83179473877
 20
41.8533630371094
 30
0.0
 11
-453.83179473877
 21
41.8533630371094
 31
0.0
  0
LINE
  5
   2EC
  8
0
  6
CONTINUOUS
 62
     7
 10
-452.83179473877
 20
45.3533630371094
 30
0.0
 11
-453.83179473877
 21
45.3533630371094
 31
0.0
  0
LINE
  5
   2ED
  8
0
  6
CONTINUOUS
 62
     7
 10
-453.83179473877
 20
45.1033630371094
 30
0.0
 11
-453.83179473877
 21
78.9958758890595
 31
0.0
  0
LINE
  5
   2EE
  8
0
  6
CONTINUOUS
 62
     7
 10
-453.83179473877
 20
-25.896635055542
 30
0.0
 11
-453.83179473877
 21
-19.396635055542
 31
0.0
  0
INSERT
  5
   2EF
  8
0
  6
CONTINUOUS
 62
     7
  2
*HATCH40
 10
-507.331787109375
 20
-46.8869476318359
 30
0.0
 41
0.5
 42
0.5
 50
89.9999999480344
 43
0.5
  0
INSERT
  5
   2F0
  8
0
  6
CONTINUOUS
 62
     7
  2
*HATCH41
 10
-507.331787109375
 20
-46.8869476318359
 30
0.0
 41
0.5
 42
0.5
 50
89.9999999480344
 43
0.5
  0
INSERT
  5
   2F1
  8
0
  6
CONTINUOUS
 62
     7
  2
*HATCH42
 10
-507.331787109375
 20
-46.8869476318359
 30
0.0
 41
0.5
 42
0.5
 50
89.9999999480344
 43
0.5
  0
INSERT
  5
   2F2
  8
0
  6
CONTINUOUS
 62
     7
  2
*HATCH43
 10
-507.331787109375
 20
-46.8869476318359
 30
0.0
 41
0.5
 42
0.5
 50
89.9999999480344
 43
0.5
  0
LINE
  5
   2F3
  8
0
  6
CONTINUOUS
 62
     7
 10
-457.08179473877
 20
71.9815902709961
 30
0.0
 11
-506.331782621561
 21
71.9815902709961
 31
0.0
  0
LINE
  5
   2F4
  8
0
  6
CONTINUOUS
 62
     7
 10
-457.08179473877
 20
-57.5183773803887
 30
0.0
 11
-506.331787586212
 21
-57.5183773803887
 31
0.0
  0
LINE
  5
   2F5
  8
0
  6
CONTINUOUS
 62
     7
 10
-456.58179473877
 20
-57.0183773803887
 30
0.0
 11
-456.58179473877
 21
-44.7683850097835
 31
0.0
  0
LINE
  5
   2F6
  8
0
  6
CONTINUOUS
 62
     7
 10
-456.58179473877
 20
58.9816073608222
 30
0.0
 11
-456.58179473877
 21
71.4815902709961
 31
0.0
  0
ARC
  5
   2F7
  8
0
  6
CONTINUOUS
 62
     7
 10
-457.08179473877
 20
-57.0183773803887
 30
0.0
 40
0.5
 50
269.999999948034
 51
359.999999948034
  0
ARC
  5
   2F8
  8
0
  6
CONTINUOUS
 62
     7
 10
-457.08179473877
 20
71.4815902709961
 30
0.0
 40
0.5
 50
359.999999948034
 51
449.999999948034
  0
LINE
  5
   2F9
  8
0
  6
CONTINUOUS
 62
     7
 10
-456.58179473877
 20
58.9816073608222
 30
0.0
 11
-457.08179473877
 21
58.9816073608222
 31
0.0
  0
LINE
  5
   2FA
  8
0
  6
CONTINUOUS
 62
     7
 10
-457.08179473877
 20
58.4816073608222
 30
0.0
 11
-457.08179473877
 21
58.9816073608222
 31
0.0
  0
LINE
  5
   2FB
  8
0
  6
CONTINUOUS
 62
     7
 10
-456.58179473877
 20
-44.7683850097835
 30
0.0
 11
-457.08179473877
 21
-44.7683850097835
 31
0.0
  0
LINE
  5
   2FC
  8
0
  6
CONTINUOUS
 62
     7
 10
-457.08179473877
 20
-44.7683850097835
 30
0.0
 11
-457.08179473877
 21
-44.2683850097835
 31
0.0
  0
LINE
  5
   2FD
  8
0
  6
DASHDOT
 62
     7
 10
-433.926858148428
 20
8.10660736082218
 30
0.0
 11
-552.036122709959
 21
8.10660736082218
 31
0.0
  0
LINE
  5
   2FE
  8
0
  6
CONTINUOUS
 62
     7
 10
-516.581779479981
 20
76.2702654055909
 30
0.0
 11
-516.581779479981
 21
90.4815902709961
 31
0.0
  0
LINE
  5
   2FF
  8
0
  6
CONTINUOUS
 62
     7
 10
-513.581779479981
 20
76.2702654055909
 30
0.0
 11
-513.581779479981
 21
90.4815902709961
 31
0.0
  0
CIRCLE
  5
   300
  8
0
  6
CONTINUOUS
 62
     7
 10
-515.418652214306
 20
77.8748216301881
 30
0.0
 40
0.25
  0
LINE
  5
   301
  8
0
  6
DASHDOT
 62
     7
 10
-509.54267623821
 20
83.4815902709961
 30
0.0
 11
-521.255005770437
 21
83.4815902709961
 31
0.0
  0
LINE
  5
   302
  8
0
  6
CONTINUOUS
 62
     7
 10
-513.581779479981
 20
90.4815902709961
 30
0.0
 11
-516.581779479981
 21
90.4815902709961
 31
0.0
  0
LINE
  5
   303
  8
0
  6
CONTINUOUS
 62
     7
 10
-520.831779479981
 20
70.7315902709961
 30
0.0
 11
-520.831779479981
 21
71.5071256847765
 31
0.0
  0
LINE
  5
   304
  8
0
  6
CONTINUOUS
 62
     7
 10
-517.831779479981
 20
70.7315902709961
 30
0.0
 11
-517.831779479981
 21
71.5071256847765
 31
0.0
  0
LINE
  5
   305
  8
0
  6
CONTINUOUS
 62
     7
 10
-519.081779479981
 20
74.5382145980221
 30
0.0
 11
-516.83177947998
 21
75.8372527036987
 31
0.0
  0
LINE
  5
   306
  8
0
  6
CONTINUOUS
 62
     7
 10
-517.58177947998
 20
71.9401383866688
 30
0.0
 11
-515.331779479981
 21
73.2391764923454
 31
0.0
  0
ARC
  5
   307
  8
0
  6
CONTINUOUS
 62
     7
 10
-517.081779479981
 20
76.2702654055909
 30
0.0
 40
3.5
 50
299.999999948034
 51
359.999999948034
  0
ARC
  5
   308
  8
0
  6
CONTINUOUS
 62
     7
 10
-517.331779479981
 20
71.5071256847765
 30
0.0
 40
3.5
 50
119.999999948034
 51
179.999999948034
  0
ARC
  5
   309
  8
0
  6
CONTINUOUS
 62
     7
 10
-517.081779479981
 20
76.2702654055909
 30
0.0
 40
0.5
 50
299.999999948034
 51
359.999999948034
  0
ARC
  5
   30A
  8
0
  6
CONTINUOUS
 62
     7
 10
-517.331779479981
 20
71.5071256847765
 30
0.0
 40
0.5
 50
119.999999948034
 51
179.999999948034
  0
LINE
  5
   30B
  8
0
  6
CONTINUOUS
 62
     7
 10
-513.581779479981
 20
77.9815902709961
 30
0.0
 11
-516.581779479981
 21
77.9815902709961
 31
0.0
  0
LINE
  5
   30C
  8
0
  6
CONTINUOUS
 62
     7
 10
-513.581779479981
 20
-76.0184097290039
 30
0.0
 11
-516.581779479981
 21
-76.0184097290039
 31
0.0
  0
LINE
  5
   30D
  8
0
  6
CONTINUOUS
 62
     7
 10
-513.581779479981
 20
-76.0184097290039
 30
0.0
 11
-513.581779479981
 21
-61.8070848635987
 31
0.0
  0
LINE
  5
   30E
  8
0
  6
CONTINUOUS
 62
     7
 10
-516.581779479981
 20
-76.0184097290039
 30
0.0
 11
-516.581779479981
 21
-61.8070848635987
 31
0.0
  0
LINE
  5
   30F
  8
0
  6
DASHDOT
 62
     7
 10
-509.54267623821
 20
-69.0184097290039
 30
0.0
 11
-521.255005770437
 21
-69.0184097290039
 31
0.0
  0
LINE
  5
   310
  8
0
  6
CONTINUOUS
 62
     7
 10
-513.581779479981
 20
-63.5184097290039
 30
0.0
 11
-516.581779479981
 21
-63.5184097290039
 31
0.0
  0
ARC
  5
   311
  8
0
  6
CONTINUOUS
 62
     7
 10
-517.081779479981
 20
-61.8070848635987
 30
0.0
 40
0.5
 50
359.999999948034
 51
419.999999948035
  0
LINE
  5
   312
  8
0
  6
CONTINUOUS
 62
     7
 10
-516.83177947998
 20
-61.3740721617065
 30
0.0
 11
-519.081779479981
 21
-60.0750340560299
 31
0.0
  0
LINE
  5
   313
  8
0
  6
CONTINUOUS
 62
     7
 10
-515.331779479981
 20
-58.7759959503532
 30
0.0
 11
-517.58177947998
 21
-57.4769578446766
 31
0.0
  0
ARC
  5
   314
  8
0
  6
CONTINUOUS
 62
     7
 10
-517.081779479981
 20
-61.8070848635987
 30
0.0
 40
3.5
 50
359.999999948034
 51
419.999999948034
  0
ARC
  5
   315
  8
0
  6
CONTINUOUS
 62
     7
 10
-517.331779479981
 20
-57.0439451427843
 30
0.0
 40
0.5
 50
179.999999948034
 51
239.999999948035
  0
ARC
  5
   316
  8
0
  6
CONTINUOUS
 62
     7
 10
-517.331779479981
 20
-57.0439451427843
 30
0.0
 40
3.5
 50
179.999999948034
 51
239.999999948034
  0
LINE
  5
   317
  8
0
  6
CONTINUOUS
 62
     7
 10
-517.831779479981
 20
-57.0439451427843
 30
0.0
 11
-517.831779479981
 21
-56.2684097290039
 31
0.0
  0
LINE
  5
   318
  8
0
  6
CONTINUOUS
 62
     7
 10
-520.831779479981
 20
-57.0439451427843
 30
0.0
 11
-520.831779479981
 21
-56.2684097290039
 31
0.0
  0
CIRCLE
  5
   319
  8
0
  6
CONTINUOUS
 62
     7
 10
-583.137415845011
 20
41.2243932948397
 30
0.0
 40
0.1
  0
LINE
  5
   31A
  8
0
  6
CONTINUOUS
 62
     7
 10
-535.58177947998
 20
-28.5184097290039
 30
0.0
 11
-535.58177947998
 21
-24.5184097290039
 31
0.0
  0
LINE
  5
   31B
  8
0
  6
CONTINUOUS
 62
     7
 10
-537.581779479981
 20
-27.7684097290039
 30
0.0
 11
-537.581779479981
 21
-25.2684097290039
 31
0.0
  0
LINE
  5
   31C
  8
0
  6
CONTINUOUS
 62
     7
 10
-533.581779479981
 20
-24.5184097290039
 30
0.0
 11
-535.58177947998
 21
-24.5184097290039
 31
0.0
  0
LINE
  5
   31D
  8
0
  6
CONTINUOUS
 62
     7
 10
-533.581779479981
 20
-28.5184097290039
 30
0.0
 11
-535.58177947998
 21
-28.5184097290039
 31
0.0
  0
LINE
  5
   31E
  8
0
  6
CONTINUOUS
 62
     7
 10
-533.581779479981
 20
-25.2684097290039
 30
0.0
 11
-537.581779479981
 21
-25.2684097290039
 31
0.0
  0
LINE
  5
   31F
  8
0
  6
CONTINUOUS
 62
     7
 10
-533.581779479981
 20
-27.7684097290039
 30
0.0
 11
-537.581779479981
 21
-27.7684097290039
 31
0.0
  0
LINE
  5
   320
  8
0
  6
CONTINUOUS
 62
     7
 10
-533.581779479981
 20
42.9815902709961
 30
0.0
 11
-535.58177947998
 21
42.9815902709961
 31
0.0
  0
LINE
  5
   321
  8
0
  6
CONTINUOUS
 62
     7
 10
-533.581779479981
 20
42.2315902709961
 30
0.0
 11
-537.581779479981
 21
42.2315902709961
 31
0.0
  0
LINE
  5
   322
  8
0
  6
CONTINUOUS
 62
     7
 10
-533.581779479981
 20
39.7315902709961
 30
0.0
 11
-537.581779479981
 21
39.7315902709961
 31
0.0
  0
LINE
  5
   323
  8
0
  6
CONTINUOUS
 62
     7
 10
-533.581779479981
 20
38.9815902709961
 30
0.0
 11
-535.58177947998
 21
38.9815902709961
 31
0.0
  0
LINE
  5
   324
  8
0
  6
CONTINUOUS
 62
     7
 10
-535.58177947998
 20
38.9815902709961
 30
0.0
 11
-535.58177947998
 21
42.9815902709961
 31
0.0
  0
LINE
  5
   325
  8
0
  6
CONTINUOUS
 62
     7
 10
-537.581779479981
 20
39.7315902709961
 30
0.0
 11
-537.581779479981
 21
42.2315902709961
 31
0.0
  0
TEXT
  5
   326
  8
0
  6
CONTINUOUS
 62
     1
 10
-454.987699834414
 20
-150.015213053944
 30
0.0
 40
2.00000008940697
  1
M 3076 95-01-16
 50
359.999999948034
 41
0.749999861419206
 72
     1
 11
-443.887701392174
 21
-149.015213019252
 31
0.0
 73
     2
  0
TEXT
  5
   327
  8
0
  6
CONTINUOUS
 62
     7
 10
-563.458084119895
 20
-7.48385443922637
 30
0.0
 40
3.00000002980232
  1
=         =
 50
89.9999999480344
 41
0.916666604744064
 72
     2
 11
-563.458084092996
 21
22.2161438451533
 31
0.0
  0
TEXT
  5
   328
  8
0
  6
CONTINUOUS
 62
     1
 10
-467.167938189612
 20
-135.522223886629
 30
0.0
 40
2.00000008940697
  1
93-04-05 FERRARI M.
 50
359.999999948034
 41
0.749999861419206
 72
     2
 11
-438.967942147361
 21
-135.522223912063
 31
0.0
  0
INSERT
  5
   329
  8
0
  6
CONTINUOUS
 62
     7
  2
*UDIM69
 10
0.0
 20
0.0
 30
0.0
  0
INSERT
  5
   32A
  8
0
  6
CONTINUOUS
 62
     7
  2
*UDIM70
 10
0.0
 20
0.0
 30
0.0
  0
INSERT
  5
   32B
  8
0
  6
CONTINUOUS
 62
     7
  2
*UDIM71
 10
0.0
 20
0.0
 30
0.0
  0
TEXT
  5
   32C
  8
0
  6
CONTINUOUS
 62
     7
 10
-423.801445020774
 20
-6.24904456373809
 30
0.0
 40
3.00000002980232
  1
=         =
 50
89.9999999480344
 41
0.916666604744064
 72
     2
 11
-423.801444993874
 21
23.4509537206416
 31
0.0
  0
INSERT
  5
   32D
  8
0
  6
CONTINUOUS
 62
     7
  2
*UDIM72
 10
0.0
 20
0.0
 30
0.0
  0
INSERT
  5
   32E
  8
0
  6
CONTINUOUS
 62
     7
  2
*UDIM73
 10
0.0
 20
0.0
 30
0.0
  0
INSERT
  5
   32F
  8
0
  6
CONTINUOUS
 62
     7
  2
*UDIM74
 10
0.0
 20
0.0
 30
0.0
  0
INSERT
  5
   330
  8
0
  6
CONTINUOUS
 62
     7
  2
*UDIM75
 10
0.0
 20
0.0
 30
0.0
  0
INSERT
  5
   331
  8
0
  6
CONTINUOUS
 62
     7
  2
*UDIM76
 10
0.0
 20
0.0
 30
0.0
  0
TEXT
  5
   332
  8
0
  6
CONTINUOUS
 62
     7
 10
-421.904205234211
 20
6.6336865730063
 30
0.0
 40
3.00000002980232
  1
X
 50
359.999999948034
 41
0.916666604744064
 72
     1
 11
-420.804205298423
 21
8.13368658691532
 31
0.0
 73
     2
  0
TEXT
  5
   333
  8
0
  6
CONTINUOUS
 62
     1
 10
-360.440429601881
 20
-160.981749847325
 30
0.0
 40
4.00000017881393
  1
601812/221
 50
359.999999948034
 41
0.937499973922969
 72
     2
 11
-323.690429002109
 21
-160.981749880472
 31
0.0
  0
TEXT
  5
   334
  8
0
  6
CONTINUOUS
 62
     1
 10
-349.354736263911
 20
-152.000167766064
 30
0.0
 40
3.00000002980232
  1
S5
 50
359.999999948034
 41
0.916666604744064
 72
     2
 11
-344.40473655349
 21
-152.000167770529
 31
0.0
  0
TEXT
  5
   335
  8
0
  6
CONTINUOUS
 62
     1
 10
-370.889156118939
 20
-133.689895654896
 30
0.0
 40
2.00000008940697
  1
3POLE LOW VOLTAGE M.C.C.B SERIES ISOMAX
 50
359.999999948034
 41
0.749999861419206
 72
     1
 11
-341.789160197975
 21
-132.68989563644
 31
0.0
 73
     2
  0
TEXT
  5
   336
  8
0
  6
CONTINUOUS
 62
     1
 10
-364.889156828231
 20
-136.689895660308
 30
0.0
 40
2.00000008940697
  1
PLUG-IN VERSION FRONT TERMINALS
 50
359.999999948034
 41
0.749999861419206
 72
     1
 11
-341.789160066841
 21
-135.68989563644
 31
0.0
 73
     2
  0
TEXT
  5
   337
  8
0
  6
CONTINUOUS
 62
     1
 10
-367.686764486293
 20
-141.760162384617
 30
0.0
 40
2.00000008940697
  1
INTERR.AUTOMATICO SERIE ISOMAX
 50
359.999999948034
 41
0.749999861419206
 72
     1
 11
-345.33676761985
 21
-140.760162360072
 31
0.0
 73
     2
  0
TEXT
  5
   338
  8
0
  6
CONTINUOUS
 62
     1
 10
-378.936762779361
 20
-144.76016237447
 30
0.0
 40
2.00000008940697
  1
TRIPOL.ESECUZIONE RIMOVIBILE TERMIN.ANTERIORI
 50
359.999999948034
 41
0.749999861419206
 72
     1
 11
-345.336767488716
 21
-143.760162360072
 31
0.0
 73
     2
  0
LINE
  5
   339
  8
0
  6
CONTINUOUS
 62
     7
 10
-645.900718691069
 20
58.7316055297851
 30
0.0
 11
-645.900718691069
 21
69.3315979003906
 31
0.0
  0
LINE
  5
   33A
  8
0
  6
CONTINUOUS
 62
     7
 10
-575.900742067817
 20
-21.0183773803889
 30
0.0
 11
-575.900742067817
 21
-20.0183773803889
 31
0.0
  0
LINE
  5
   33B
  8
0
  6
CONTINUOUS
 62
     7
 10
-645.900742067817
 20
-21.0183773803889
 30
0.0
 11
-645.900742067817
 21
-20.0183773803889
 31
0.0
  0
LINE
  5
   33C
  8
0
  6
CONTINUOUS
 62
     7
 10
-575.900742067817
 20
-54.86837585451
 30
0.0
 11
-575.900742067817
 21
-21.0183773803889
 31
0.0
  0
LINE
  5
   33D
  8
0
  6
CONTINUOUS
 62
     7
 10
-645.900742067817
 20
-54.8683774042308
 30
0.0
 11
-645.900742067817
 21
-21.0183789301097
 31
0.0
  0
LINE
  5
   33E
  8
0
  6
DASHDOT
 62
     7
 10
-596.588257581412
 20
-18.0183351214061
 30
0.0
 11
-603.338127840566
 21
-18.0183351214061
 31
0.0
  0
LINE
  5
   33F
  8
0
  6
CONTINUOUS
 62
     1
 10
-575.900742263443
 20
34.6066131591797
 30
0.0
 11
-575.900742263443
 21
58.7316055297851
 31
0.0
  0
LINE
  5
   340
  8
0
  6
CONTINUOUS
 62
     1
 10
-575.900742263443
 20
-25.5183945000172
 30
0.0
 11
-575.900742263443
 21
-17.8933868408203
 31
0.0
  0
LINE
  5
   341
  8
0
  6
CONTINUOUS
 62
     1
 10
-645.900742263443
 20
-25.5183945000172
 30
0.0
 11
-645.900742263443
 21
-17.8934020996094
 31
0.0
  0
LINE
  5
   342
  8
0
  6
CONTINUOUS
 62
     1
 10
-645.900742263443
 20
34.6065979003906
 30
0.0
 11
-645.900742263443
 21
58.7316055297852
 31
0.0
  0
LINE
  5
   343
  8
0
  6
CONTINUOUS
 62
     1
 10
-576.400749892838
 20
-26.0183944702148
 30
0.0
 11
-581.650742263443
 21
-26.0183944702148
 31
0.0
  0
LINE
  5
   344
  8
0
  6
CONTINUOUS
 62
     1
 10
-645.900742263443
 20
-17.8933944702148
 30
0.0
 11
-645.900742263443
 21
34.6066055297852
 31
0.0
  0
LINE
  5
   345
  8
0
  6
CONTINUOUS
 62
     1
 10
-575.900742263443
 20
-17.8933944702148
 30
0.0
 11
-575.900742263443
 21
34.6066055297851
 31
0.0
  0
ARC
  5
   346
  8
0
  6
CONTINUOUS
 62
     1
 10
-576.150742263443
 20
-17.6433944702148
 30
0.0
 40
0.25
 50
269.999999948034
 51
359.999999948034
  0
ARC
  5
   347
  8
0
  6
CONTINUOUS
 62
     1
 10
-645.650742263443
 20
-17.6433944702148
 30
0.0
 40
0.25
 50
179.999999948034
 51
269.999999948034
  0
LINE
  5
   348
  8
0
  6
CONTINUOUS
 62
     1
 10
-575.900742263443
 20
-25.5183945000172
 30
0.0
 11
-581.650742263443
 21
-25.5183945000172
 31
0.0
  0
LINE
  5
   349
  8
0
  6
CONTINUOUS
 62
     1
 10
-640.150742263443
 20
-25.5183945000172
 30
0.0
 11
-645.900742263443
 21
-25.5183945000172
 31
0.0
  0
LINE
  5
   34A
  8
0
  6
CONTINUOUS
 62
     1
 10
-576.400749892838
 20
-26.018394470215
 30
0.0
 11
-576.400749892838
 21
-25.5183945000174
 31
0.0
  0
LINE
  5
   34B
  8
0
  6
CONTINUOUS
 62
     1
 10
-645.400734634049
 20
-26.018394470215
 30
0.0
 11
-645.400734634049
 21
-25.5183945000173
 31
0.0
  0
LINE
  5
   34C
  8
0
  6
CONTINUOUS
 62
     1
 10
-584.47574684108
 20
-17.8934020996094
 30
0.0
 11
-584.47574684108
 21
34.6065979003906
 31
0.0
  0
LINE
  5
   34D
  8
0
  6
CONTINUOUS
 62
     1
 10
-584.47574684108
 20
48.3566055297852
 30
0.0
 11
-584.47574684108
 21
58.7315979003906
 31
0.0
  0
LINE
  5
   34E
  8
0
  6
CONTINUOUS
 62
     1
 10
-584.47574684108
 20
-57.5183717534921
 30
0.0
 11
-584.47574684108
 21
-17.89339402318
 31
0.0
  0
LINE
  5
   34F
  8
0
  6
CONTINUOUS
 62
     1
 10
-636.400742263443
 20
48.3566055297852
 30
0.0
 11
-636.400742263443
 21
56.2316055297852
 31
0.0
  0
LINE
  5
   350
  8
0
  6
CONTINUOUS
 62
     1
 10
-585.400742263443
 20
48.3566055297852
 30
0.0
 11
-585.400742263443
 21
56.2316055297851
 31
0.0
  0
LINE
  5
   351
  8
0
  6
CONTINUOUS
 62
     1
 10
-585.400742263443
 20
56.2316055297852
 30
0.0
 11
-636.400742263443
 21
56.2316055297852
 31
0.0
  0
LINE
  5
   352
  8
0
  6
CONTINUOUS
 62
     3
 10
-624.650749892838
 20
-18.1433944702148
 30
0.0
 11
-629.650742263443
 21
-18.1433944702148
 31
0.0
  0
LINE
  5
   353
  8
0
  6
CONTINUOUS
 62
     3
 10
-592.150757522232
 20
-18.1433944702148
 30
0.0
 11
-597.150757522232
 21
-18.1433944702148
 31
0.0
  0
LINE
  5
   354
  8
0
  6
CONTINUOUS
 62
     3
 10
-584.650742263443
 20
-17.8933944702148
 30
0.0
 11
-584.650742263443
 21
-8.64340209960938
 31
0.0
  0
LINE
  5
   355
  8
0
  6
CONTINUOUS
 62
     3
 10
-637.150742263443
 20
-17.8933944702148
 30
0.0
 11
-637.150742263443
 21
-8.64340209960938
 31
0.0
  0
LINE
  5
   356
  8
0
  6
CONTINUOUS
 62
     3
 10
-584.900742263443
 20
34.3566055297852
 30
0.0
 11
-636.90074226343
 21
34.3566055297852
 31
0.0
  0
LINE
  5
   357
  8
0
  6
CONTINUOUS
 62
     3
 10
-629.650742263443
 20
-18.1433944702148
 30
0.0
 11
-636.900742263443
 21
-18.1433944702148
 31
0.0
  0
LINE
  5
   358
  8
0
  6
CONTINUOUS
 62
     3
 10
-597.150757522232
 20
-18.1433944702148
 30
0.0
 11
-624.650749892838
 21
-18.1433944702148
 31
0.0
  0
LINE
  5
   359
  8
0
  6
CONTINUOUS
 62
     3
 10
-584.900742263443
 20
-18.1433944702148
 30
0.0
 11
-592.150757522232
 21
-18.1433944702148
 31
0.0
  0
LINE
  5
   35A
  8
0
  6
CONTINUOUS
 62
     3
 10
-605.525742263443
 20
-6.76840209960938
 30
0.0
 11
-605.525742263443
 21
13.2315902709961
 31
0.0
  0
LINE
  5
   35B
  8
0
  6
CONTINUOUS
 62
     3
 10
-616.275742263443
 20
-6.76840209960938
 30
0.0
 11
-616.275742263443
 21
13.2315902709961
 31
0.0
  0
LINE
  5
   35C
  8
0
  6
CONTINUOUS
 62
     1
 10
-584.650742263443
 20
28.6065902709961
 30
0.0
 11
-637.150742263443
 21
28.6065902709961
 31
0.0
  0
LINE
  5
   35D
  8
0
  6
CONTINUOUS
 62
     1
 10
-584.650742263443
 20
33.6065902709961
 30
0.0
 11
-637.150742263443
 21
33.6065902709961
 31
0.0
  0
LINE
  5
   35E
  8
0
  6
CONTINUOUS
 62
     3
 10
-605.525742263443
 20
13.0993576049805
 30
0.0
 11
-616.275742263443
 21
13.0993576049805
 31
0.0
  0
LINE
  5
   35F
  8
0
  6
CONTINUOUS
 62
     3
 10
-605.525742263443
 20
13.2315902709961
 30
0.0
 11
-616.275742263443
 21
13.2315902709961
 31
0.0
  0
LINE
  5
   360
  8
0
  6
CONTINUOUS
 62
     3
 10
-605.525742263443
 20
-6.76840209960938
 30
0.0
 11
-616.275742263443
 21
-6.76840209960938
 31
0.0
  0
LINE
  5
   361
  8
0
  6
CONTINUOUS
 62
     3
 10
-605.525742263443
 20
-6.63615417480469
 30
0.0
 11
-616.275742263443
 21
-6.63615417480469
 31
0.0
  0
LINE
  5
   362
  8
0
  6
DASHDOT
 62
     3
 10
-610.900742263443
 20
-79.0286391729876
 30
0.0
 11
-610.900742263443
 21
23.7078076736301
 31
0.0
  0
LINE
  5
   363
  8
0
  6
DASHDOT
 62
     3
 10
-610.900742263443
 20
23.3214413173705
 30
0.0
 11
-610.900742263443
 21
91.5982038123707
 31
0.0
  0
LINE
  5
   364
  8
0
  6
CONTINUOUS
 62
     3
 10
-584.650749892838
 20
-8.14340209960938
 30
0.0
 11
-584.650749892838
 21
-2.14340607622862
 31
0.0
  0
LINE
  5
   365
  8
0
  6
CONTINUOUS
 62
     3
 10
-584.650749892838
 20
15.1065979003906
 30
0.0
 11
-584.650749892838
 21
34.1066055297852
 31
0.0
  0
LINE
  5
   366
  8
0
  6
CONTINUOUS
 62
     3
 10
-584.650749892838
 20
-1.64340607622859
 30
0.0
 11
-584.650749892838
 21
8.10659790039063
 31
0.0
  0
LINE
  5
   367
  8
0
  6
CONTINUOUS
 62
     3
 10
-584.650749892838
 20
8.60659790039063
 30
0.0
 11
-584.650749892838
 21
14.6065979003906
 31
0.0
  0
LINE
  5
   368
  8
0
  6
CONTINUOUS
 62
     3
 10
-637.150742263446
 20
-8.14340209960938
 30
0.0
 11
-637.150742263446
 21
-2.14340209960829
 31
0.0
  0
LINE
  5
   369
  8
0
  6
CONTINUOUS
 62
     3
 10
-637.150742263455
 20
-1.64340209960825
 30
0.0
 11
-637.150742263455
 21
8.10659790039063
 31
0.0
  0
LINE
  5
   36A
  8
0
  6
CONTINUOUS
 62
     3
 10
-637.150742263441
 20
8.60659790039063
 30
0.0
 11
-637.150742263441
 21
14.6065979003906
 31
0.0
  0
LINE
  5
   36B
  8
0
  6
CONTINUOUS
 62
     3
 10
-637.150742263429
 20
15.1065979003906
 30
0.0
 11
-637.150742263429
 21
34.1066055297851
 31
0.0
  0
LINE
  5
   36C
  8
0
  6
CONTINUOUS
 62
     1
 10
-616.275746250306
 20
-2.14339248189725
 30
0.0
 11
-636.650742293246
 21
-2.14339248189725
 31
0.0
  0
LINE
  5
   36D
  8
0
  6
CONTINUOUS
 62
     3
 10
-584.650749892838
 20
-2.14339645852039
 30
0.0
 11
-585.150749892838
 21
-2.14339645852039
 31
0.0
  0
LINE
  5
   36E
  8
0
  6
CONTINUOUS
 62
     1
 10
-616.27575602985
 20
-1.6433924818943
 30
0.0
 11
-636.650742293246
 21
-1.6433924818943
 31
0.0
  0
LINE
  5
   36F
  8
0
  6
CONTINUOUS
 62
     3
 10
-584.650749892838
 20
-1.64339645852043
 30
0.0
 11
-585.150749892838
 21
-1.64339645852043
 31
0.0
  0
LINE
  5
   370
  8
0
  6
CONTINUOUS
 62
     3
 10
-636.650742293246
 20
-2.14340209960938
 30
0.0
 11
-636.650742293246
 21
-1.64340209960938
 31
0.0
  0
LINE
  5
   371
  8
0
  6
CONTINUOUS
 62
     3
 10
-585.150749892838
 20
-2.14340209960938
 30
0.0
 11
-585.150749892838
 21
-1.64340209960938
 31
0.0
  0
LINE
  5
   372
  8
0
  6
CONTINUOUS
 62
     3
 10
-584.650742263443
 20
-8.64340209960938
 30
0.0
 11
-585.150749892838
 21
-8.64340209960938
 31
0.0
  0
LINE
  5
   373
  8
0
  6
CONTINUOUS
 62
     3
 10
-584.650749892838
 20
-8.14340209960938
 30
0.0
 11
-585.150749892838
 21
-8.14340209960938
 31
0.0
  0
LINE
  5
   374
  8
0
  6
CONTINUOUS
 62
     3
 10
-636.650742293246
 20
-8.64340209960938
 30
0.0
 11
-636.650742293246
 21
-8.14340209960938
 31
0.0
  0
LINE
  5
   375
  8
0
  6
CONTINUOUS
 62
     3
 10
-585.150749892838
 20
-8.64340209960938
 30
0.0
 11
-585.150749892838
 21
-8.14340209960938
 31
0.0
  0
LINE
  5
   376
  8
0
  6
CONTINUOUS
 62
     3
 10
-584.650749892838
 20
14.6065979003906
 30
0.0
 11
-585.150749892838
 21
14.6065979003906
 31
0.0
  0
LINE
  5
   377
  8
0
  6
CONTINUOUS
 62
     3
 10
-584.650749892838
 20
15.1065979003906
 30
0.0
 11
-585.150749892838
 21
15.1065979003906
 31
0.0
  0
LINE
  5
   378
  8
0
  6
CONTINUOUS
 62
     3
 10
-636.650742293246
 20
14.6065979003906
 30
0.0
 11
-636.650742293246
 21
15.1065979003906
 31
0.0
  0
LINE
  5
   379
  8
0
  6
CONTINUOUS
 62
     3
 10
-585.150749892838
 20
14.6065979003906
 30
0.0
 11
-585.150749892838
 21
15.1065979003906
 31
0.0
  0
LINE
  5
   37A
  8
0
  6
CONTINUOUS
 62
     1
 10
-616.275746227152
 20
8.10659790039063
 30
0.0
 11
-636.650742293246
 21
8.10659790039063
 31
0.0
  0
LINE
  5
   37B
  8
0
  6
CONTINUOUS
 62
     3
 10
-584.650749892838
 20
8.10659790039063
 30
0.0
 11
-585.150749892838
 21
8.10659790039063
 31
0.0
  0
LINE
  5
   37C
  8
0
  6
CONTINUOUS
 62
     1
 10
-616.275742263443
 20
8.60659790039063
 30
0.0
 11
-636.650742293246
 21
8.60659790039063
 31
0.0
  0
LINE
  5
   37D
  8
0
  6
CONTINUOUS
 62
     3
 10
-584.650749892838
 20
8.60659790039063
 30
0.0
 11
-585.150749892838
 21
8.60659790039063
 31
0.0
  0
LINE
  5
   37E
  8
0
  6
CONTINUOUS
 62
     3
 10
-636.650742293246
 20
8.10659790039063
 30
0.0
 11
-636.650742293246
 21
8.60659790039063
 31
0.0
  0
LINE
  5
   37F
  8
0
  6
CONTINUOUS
 62
     3
 10
-585.150749892838
 20
8.10659790039063
 30
0.0
 11
-585.150749892838
 21
8.60659790039063
 31
0.0
  0
ARC
  5
   380
  8
0
  6
CONTINUOUS
 62
     3
 10
-636.900742263443
 20
-17.8933944702148
 30
0.0
 40
0.25
 50
179.999999948034
 51
269.999999948034
  0
ARC
  5
   381
  8
0
  6
CONTINUOUS
 62
     3
 10
-584.900742263443
 20
-17.8933944702148
 30
0.0
 40
0.25
 50
269.999999948034
 51
359.999999948034
  0
ARC
  5
   382
  8
0
  6
CONTINUOUS
 62
     3
 10
-584.900742263443
 20
34.1066055297852
 30
0.0
 40
0.25
 50
359.999999948034
 51
449.999999948034
  0
ARC
  5
   383
  8
0
  6
CONTINUOUS
 62
     3
 10
-636.90074226343
 20
34.1066055297851
 30
0.0
 40
0.25
 50
449.999999948034
 51
539.999999948034
  0
INSERT
  5
   384
  8
255
  6
CONTINUOUS
 62
     3
  2
$1ON-OFF
 10
-600.900747146256
 20
11.6065979003906
 30
0.0
 41
0.5
 42
0.5
 50
359.999999792137
 43
0.5
  0
LINE
  5
   385
  8
0
  6
CONTINUOUS
 62
     1
 10
-622.150742263443
 20
13.8565979003906
 30
0.0
 11
-622.900742263443
 21
13.8565979003906
 31
0.0
  0
LINE
  5
   386
  8
0
  6
CONTINUOUS
 62
     1
 10
-622.150742263443
 20
9.35659790039063
 30
0.0
 11
-622.900742263443
 21
9.35659790039063
 31
0.0
  0
CIRCLE
  5
   387
  8
0
  6
CONTINUOUS
 62
     1
 10
-622.525742263443
 20
-5.14340209960936
 30
0.0
 40
2.25
  0
CIRCLE
  5
   388
  8
0
  6
CONTINUOUS
 62
     1
 10
-622.525742263443
 20
-5.14340209960936
 30
0.0
 40
1.5
  0
LINE
  5
   389
  8
0
  6
CONTINUOUS
 62
     1
 10
-622.900742263443
 20
9.35659790039063
 30
0.0
 11
-622.900742263443
 21
13.8565979003906
 31
0.0
  0
LINE
  5
   38A
  8
0
  6
CONTINUOUS
 62
     1
 10
-622.150742263443
 20
9.35659790039063
 30
0.0
 11
-622.150742263443
 21
13.8565979003906
 31
0.0
  0
LINE
  5
   38B
  8
0
  6
CONTINUOUS
 62
     1
 10
-617.650742263443
 20
-8.14340209960938
 30
0.0
 11
-617.650742263443
 21
-2.14339495502661
 31
0.0
  0
LINE
  5
   38C
  8
0
  6
CONTINUOUS
 62
     1
 10
-604.150742263443
 20
-8.14340209960938
 30
0.0
 11
-604.150742263443
 21
-2.14339893164975
 31
0.0
  0
LINE
  5
   38D
  8
0
  6
CONTINUOUS
 62
     1
 10
-604.150742263443
 20
8.60659790039063
 30
0.0
 11
-604.150742263443
 21
14.6065979003906
 31
0.0
  0
LINE
  5
   38E
  8
0
  6
CONTINUOUS
 62
     1
 10
-617.650742263443
 20
8.60659790039063
 30
0.0
 11
-617.650742263443
 21
14.6065979003906
 31
0.0
  0
LINE
  5
   38F
  8
0
  6
CONTINUOUS
 62
     7
 10
-575.900742067817
 20
-26.5183773803887
 30
0.0
 11
-581.650742263443
 21
-26.5183773803887
 31
0.0
  0
LINE
  5
   390
  8
0
  6
CONTINUOUS
 62
     7
 10
-605.525742263443
 20
-2.42875164322154
 30
0.0
 11
-616.275742263443
 21
-2.42875164322154
 31
0.0
  0
LINE
  5
   391
  8
0
  6
CONTINUOUS
 62
     7
 10
-605.525742263443
 20
4.43089447503127E-2
 30
0.0
 11
-616.275742263443
 21
4.43089447503127E-2
 31
0.0
  0
LINE
  5
   392
  8
0
  6
CONTINUOUS
 62
     7
 10
-605.525742263443
 20
-6.38922746954244
 30
0.0
 11
-616.275742263443
 21
-6.38922746954244
 31
0.0
  0
LINE
  5
   393
  8
0
  6
CONTINUOUS
 62
     1
 10
-636.650742293246
 20
15.1065979003906
 30
0.0
 11
-637.150742263429
 21
15.1065979003906
 31
0.0
  0
LINE
  5
   394
  8
0
  6
CONTINUOUS
 62
     1
 10
-636.650742293246
 20
14.6065979003906
 30
0.0
 11
-637.150742263441
 21
14.6065979003906
 31
0.0
  0
LINE
  5
   395
  8
0
  6
CONTINUOUS
 62
     3
 10
-636.650742293246
 20
8.60659790039063
 30
0.0
 11
-637.150742263441
 21
8.60659790039063
 31
0.0
  0
LINE
  5
   396
  8
0
  6
CONTINUOUS
 62
     3
 10
-636.650742293246
 20
8.10659790039063
 30
0.0
 11
-637.150742263455
 21
8.10659790039063
 31
0.0
  0
LINE
  5
   397
  8
0
  6
CONTINUOUS
 62
     3
 10
-636.650742293246
 20
-1.6433924818943
 30
0.0
 11
-637.150742263455
 21
-1.6433924818943
 31
0.0
  0
LINE
  5
   398
  8
0
  6
CONTINUOUS
 62
     3
 10
-636.650742293246
 20
-2.14339248189725
 30
0.0
 11
-637.150742263446
 21
-2.14339248189725
 31
0.0
  0
LINE
  5
   399
  8
0
  6
CONTINUOUS
 62
     3
 10
-636.650742293246
 20
-8.14340209960938
 30
0.0
 11
-637.150742263446
 21
-8.14340209960938
 31
0.0
  0
LINE
  5
   39A
  8
0
  6
CONTINUOUS
 62
     3
 10
-636.650742293246
 20
-8.64340209960938
 30
0.0
 11
-637.150742263443
 21
-8.64340209960938
 31
0.0
  0
LINE
  5
   39B
  8
0
  6
CONTINUOUS
 62
     1
 10
-585.150749892838
 20
-8.64340209960938
 30
0.0
 11
-636.650742293246
 21
-8.64340209960938
 31
0.0
  0
LINE
  5
   39C
  8
0
  6
CONTINUOUS
 62
     1
 10
-585.150749892838
 20
-8.14340209960938
 30
0.0
 11
-636.650742293246
 21
-8.14340209960938
 31
0.0
  0
LINE
  5
   39D
  8
0
  6
CONTINUOUS
 62
     1
 10
-585.150749892838
 20
-2.14339645852039
 30
0.0
 11
-605.525743939017
 21
-2.14339645852039
 31
0.0
  0
LINE
  5
   39E
  8
0
  6
CONTINUOUS
 62
     1
 10
-585.150749892838
 20
-1.64339645852043
 30
0.0
 11
-605.525743755823
 21
-1.64339645852043
 31
0.0
  0
LINE
  5
   39F
  8
0
  6
CONTINUOUS
 62
     1
 10
-585.150749892838
 20
8.10659790039063
 30
0.0
 11
-605.525742263443
 21
8.10659790039063
 31
0.0
  0
LINE
  5
   3A0
  8
0
  6
CONTINUOUS
 62
     1
 10
-585.150749892838
 20
8.60659790039063
 30
0.0
 11
-605.525742263443
 21
8.60659790039063
 31
0.0
  0
LINE
  5
   3A1
  8
0
  6
CONTINUOUS
 62
     1
 10
-585.150749892838
 20
14.6065979003906
 30
0.0
 11
-636.650742293246
 21
14.6065979003906
 31
0.0
  0
LINE
  5
   3A2
  8
0
  6
CONTINUOUS
 62
     1
 10
-585.150749892838
 20
15.1065979003906
 30
0.0
 11
-636.650742293246
 21
15.1065979003906
 31
0.0
  0
LINE
  5
   3A3
  8
0
  6
CONTINUOUS
 62
     2
 10
-582.775726318359
 20
-63.5183944702148
 30
0.0
 11
-582.775726318359
 21
-57.5183717534921
 31
0.0
  0
LINE
  5
   3A4
  8
0
  6
CONTINUOUS
 62
     2
 10
-595.275726318359
 20
-63.5183944702148
 30
0.0
 11
-595.275726318359
 21
-57.5183717534921
 31
0.0
  0
LINE
  5
   3A5
  8
0
  6
CONTINUOUS
 62
     2
 10
-593.900726318359
 20
-63.5183944702148
 30
0.0
 11
-595.275726318359
 21
-63.5183944702148
 31
0.0
  0
LINE
  5
   3A6
  8
0
  6
CONTINUOUS
 62
     2
 10
-593.900726318359
 20
-76.0183944702148
 30
0.0
 11
-593.900726318359
 21
-63.5183944702148
 31
0.0
  0
LINE
  5
   3A7
  8
0
  6
CONTINUOUS
 62
     2
 10
-584.150726318359
 20
-76.0183944702148
 30
0.0
 11
-593.900726318359
 21
-76.0183944702148
 31
0.0
  0
LINE
  5
   3A8
  8
0
  6
CONTINUOUS
 62
     2
 10
-584.150726318359
 20
-76.0183944702148
 30
0.0
 11
-584.150726318359
 21
-63.5183944702148
 31
0.0
  0
LINE
  5
   3A9
  8
0
  6
CONTINUOUS
 62
     2
 10
-582.775726318359
 20
-63.5183944702148
 30
0.0
 11
-584.150726318359
 21
-63.5183944702148
 31
0.0
  0
CIRCLE
  5
   3AA
  8
0
  6
CONTINUOUS
 62
     2
 10
-589.02572700912
 20
-69.0183619387748
 30
0.0
 40
2.54997996552924
  0
LINE
  5
   3AB
  8
0
  6
CONTINUOUS
 62
     7
 10
-617.150726318359
 20
-63.5183944702148
 30
0.0
 11
-617.150726318359
 21
-57.5183717534921
 31
0.0
  0
LINE
  5
   3AC
  8
0
  6
CONTINUOUS
 62
     7
 10
-604.650726318359
 20
-63.5183944702148
 30
0.0
 11
-604.650726318359
 21
-57.5183717534921
 31
0.0
  0
LINE
  5
   3AD
  8
0
  6
CONTINUOUS
 62
     7
 10
-604.650726318359
 20
-63.5183944702148
 30
0.0
 11
-606.025726318359
 21
-63.5183944702148
 31
0.0
  0
LINE
  5
   3AE
  8
0
  6
CONTINUOUS
 62
     7
 10
-615.775726318359
 20
-76.0183944702148
 30
0.0
 11
-615.775726318359
 21
-63.5183944702148
 31
0.0
  0
LINE
  5
   3AF
  8
0
  6
CONTINUOUS
 62
     7
 10
-615.775726318359
 20
-63.5183944702148
 30
0.0
 11
-617.150726318359
 21
-63.5183944702148
 31
0.0
  0
CIRCLE
  5
   3B0
  8
0
  6
CONTINUOUS
 62
     7
 10
-610.90072700912
 20
-69.0183619387748
 30
0.0
 40
2.54997996552924
  0
LINE
  5
   3B1
  8
0
  6
CONTINUOUS
 62
     7
 10
-606.025726318359
 20
-76.0183944702148
 30
0.0
 11
-606.025726318359
 21
-63.5183944702148
 31
0.0
  0
LINE
  5
   3B2
  8
0
  6
CONTINUOUS
 62
     7
 10
-606.025726318359
 20
-76.0183944702148
 30
0.0
 11
-615.775726318359
 21
-76.0183944702148
 31
0.0
  0
LINE
  5
   3B3
  8
0
  6
CONTINUOUS
 62
     7
 10
-639.025726318359
 20
-63.5183944702148
 30
0.0
 11
-639.025726318359
 21
-57.5183717534921
 31
0.0
  0
CIRCLE
  5
   3B4
  8
0
  6
CONTINUOUS
 62
     7
 10
-632.77572700912
 20
-69.0183619387748
 30
0.0
 40
2.54997996552924
  0
LINE
  5
   3B5
  8
0
  6
CONTINUOUS
 62
     7
 10
-637.650726318359
 20
-76.0183944702148
 30
0.0
 11
-637.650726318359
 21
-63.5183944702148
 31
0.0
  0
LINE
  5
   3B6
  8
0
  6
CONTINUOUS
 62
     7
 10
-627.900726318359
 20
-76.0183944702148
 30
0.0
 11
-627.900726318359
 21
-63.5183944702148
 31
0.0
  0
LINE
  5
   3B7
  8
0
  6
CONTINUOUS
 62
     7
 10
-626.525726318359
 20
-63.5183944702148
 30
0.0
 11
-627.900726318359
 21
-63.5183944702148
 31
0.0
  0
LINE
  5
   3B8
  8
0
  6
CONTINUOUS
 62
     7
 10
-626.525726318359
 20
-63.5183944702148
 30
0.0
 11
-626.525726318359
 21
-57.5183717534921
 31
0.0
  0
LINE
  5
   3B9
  8
0
  6
CONTINUOUS
 62
     7
 10
-637.650726318359
 20
-63.5183944702148
 30
0.0
 11
-639.025726318359
 21
-63.5183944702148
 31
0.0
  0
LINE
  5
   3BA
  8
0
  6
CONTINUOUS
 62
     7
 10
-627.900726318359
 20
-76.0183944702148
 30
0.0
 11
-637.650726318359
 21
-76.0183944702148
 31
0.0
  0
LINE
  5
   3BB
  8
0
  6
CONTINUOUS
 62
     7
 10
-595.275726318359
 20
71.9815675542733
 30
0.0
 11
-595.275726318359
 21
77.9815902709961
 31
0.0
  0
LINE
  5
   3BC
  8
0
  6
CONTINUOUS
 62
     7
 10
-593.900726318359
 20
77.9815902709961
 30
0.0
 11
-595.275726318359
 21
77.9815902709961
 31
0.0
  0
LINE
  5
   3BD
  8
0
  6
CONTINUOUS
 62
     7
 10
-593.900726318359
 20
77.9815902709961
 30
0.0
 11
-593.900726318359
 21
90.4815902709961
 31
0.0
  0
LINE
  5
   3BE
  8
0
  6
CONTINUOUS
 62
     7
 10
-584.150726318359
 20
90.4815902709961
 30
0.0
 11
-593.900726318359
 21
90.4815902709961
 31
0.0
  0
CIRCLE
  5
   3BF
  8
0
  6
CONTINUOUS
 62
     7
 10
-589.02572700912
 20
83.481557739556
 30
0.0
 40
2.54997996552924
  0
LINE
  5
   3C0
  8
0
  6
CONTINUOUS
 62
     7
 10
-604.650726318359
 20
71.9815675542733
 30
0.0
 11
-604.650726318359
 21
77.9815902709961
 31
0.0
  0
LINE
  5
   3C1
  8
0
  6
CONTINUOUS
 62
     7
 10
-604.650726318359
 20
77.9815902709961
 30
0.0
 11
-606.025726318359
 21
77.9815902709961
 31
0.0
  0
CIRCLE
  5
   3C2
  8
0
  6
CONTINUOUS
 62
     7
 10
-610.90072700912
 20
83.481557739556
 30
0.0
 40
2.54997996552924
  0
LINE
  5
   3C3
  8
0
  6
CONTINUOUS
 62
     7
 10
-606.025726318359
 20
77.9815902709961
 30
0.0
 11
-606.025726318359
 21
90.4815902709961
 31
0.0
  0
LINE
  5
   3C4
  8
0
  6
CONTINUOUS
 62
     7
 10
-617.150726318359
 20
71.9815675542733
 30
0.0
 11
-617.150726318359
 21
77.9815902709961
 31
0.0
  0
LINE
  5
   3C5
  8
0
  6
CONTINUOUS
 62
     7
 10
-615.775726318359
 20
77.9815902709961
 30
0.0
 11
-615.775726318359
 21
90.4815902709961
 31
0.0
  0
LINE
  5
   3C6
  8
0
  6
CONTINUOUS
 62
     7
 10
-615.775726318359
 20
77.9815902709961
 30
0.0
 11
-617.150726318359
 21
77.9815902709961
 31
0.0
  0
LINE
  5
   3C7
  8
0
  6
CONTINUOUS
 62
     7
 10
-606.025726318359
 20
90.4815902709961
 30
0.0
 11
-615.775726318359
 21
90.4815902709961
 31
0.0
  0
CIRCLE
  5
   3C8
  8
0
  6
CONTINUOUS
 62
     7
 10
-632.77572700912
 20
83.481557739556
 30
0.0
 40
2.54997996552924
  0
LINE
  5
   3C9
  8
0
  6
CONTINUOUS
 62
     7
 10
-627.900726318359
 20
77.9815902709961
 30
0.0
 11
-627.900726318359
 21
90.4815902709961
 31
0.0
  0
LINE
  5
   3CA
  8
0
  6
CONTINUOUS
 62
     7
 10
-626.525726318359
 20
77.9815902709961
 30
0.0
 11
-627.900726318359
 21
77.9815902709961
 31
0.0
  0
LINE
  5
   3CB
  8
0
  6
CONTINUOUS
 62
     7
 10
-626.525726318359
 20
71.9815675542733
 30
0.0
 11
-626.525726318359
 21
77.9815902709961
 31
0.0
  0
LINE
  5
   3CC
  8
0
  6
CONTINUOUS
 62
     7
 10
-627.900726318359
 20
90.4815902709961
 30
0.0
 11
-637.650726318359
 21
90.4815902709961
 31
0.0
  0
LINE
  5
   3CD
  8
0
  6
CONTINUOUS
 62
     7
 10
-639.025726318359
 20
71.9815675542733
 30
0.0
 11
-639.025726318359
 21
77.9815902709961
 31
0.0
  0
LINE
  5
   3CE
  8
0
  6
CONTINUOUS
 62
     7
 10
-637.650726318359
 20
77.9815902709961
 30
0.0
 11
-637.650726318359
 21
90.4815902709961
 31
0.0
  0
LINE
  5
   3CF
  8
0
  6
CONTINUOUS
 62
     7
 10
-637.650726318359
 20
77.9815902709961
 30
0.0
 11
-639.025726318359
 21
77.9815902709961
 31
0.0
  0
LINE
  5
   3D0
  8
0
  6
CONTINUOUS
 62
     7
 10
-582.775726318359
 20
71.9815675542733
 30
0.0
 11
-582.775726318359
 21
77.9815902709961
 31
0.0
  0
LINE
  5
   3D1
  8
0
  6
CONTINUOUS
 62
     7
 10
-584.150726318359
 20
77.9815902709961
 30
0.0
 11
-584.150726318359
 21
90.4815902709961
 31
0.0
  0
LINE
  5
   3D2
  8
0
  6
CONTINUOUS
 62
     7
 10
-582.775726318359
 20
77.9815902709961
 30
0.0
 11
-584.150726318359
 21
77.9815902709961
 31
0.0
  0
LINE
  5
   3D3
  8
0
  6
CONTINUOUS
 62
     3
 10
-645.90074582733
 20
57.981580780759
 30
0.0
 11
-645.90074582733
 21
71.3565827811815
 31
0.0
  0
LINE
  5
   3D4
  8
0
  6
CONTINUOUS
 62
     3
 10
-576.40074582733
 20
57.4815808105583
 30
0.0
 11
-645.40074582733
 21
57.4815808105583
 31
0.0
  0
LINE
  5
   3D5
  8
0
  6
CONTINUOUS
 62
     3
 10
-575.900745827344
 20
57.9815808385467
 30
0.0
 11
-575.900745827344
 21
71.3565815145002
 31
0.0
  0
LINE
  5
   3D6
  8
0
  6
CONTINUOUS
 62
     3
 10
-642.075746018065
 20
-57.5183717534921
 30
0.0
 11
-642.075746018065
 21
71.9815675542733
 31
0.0
  0
LINE
  5
   3D7
  8
0
  6
CONTINUOUS
 62
     3
 10
-640.275746304167
 20
-57.5183717534921
 30
0.0
 11
-640.275746304167
 21
71.9815675542733
 31
0.0
  0
LINE
  5
   3D8
  8
0
  6
CONTINUOUS
 62
     3
 10
-636.675747353209
 20
57.981580780759
 30
0.0
 11
-636.675747353209
 21
71.9815675542733
 31
0.0
  0
LINE
  5
   3D9
  8
0
  6
CONTINUOUS
 62
     3
 10
-634.875751930846
 20
57.981580780759
 30
0.0
 11
-634.875751930846
 21
71.9815675542733
 31
0.0
  0
LINE
  5
   3DA
  8
0
  6
CONTINUOUS
 62
     3
 10
-633.075748879088
 20
57.981580780759
 30
0.0
 11
-633.075748879088
 21
71.9815675542733
 31
0.0
  0
LINE
  5
   3DB
  8
0
  6
CONTINUOUS
 62
     3
 10
-631.275753456725
 20
57.981580780759
 30
0.0
 11
-631.275753456725
 21
71.9815675542733
 31
0.0
  0
LINE
  5
   3DC
  8
0
  6
CONTINUOUS
 62
     3
 10
-629.475750404967
 20
57.981580780759
 30
0.0
 11
-629.475750404967
 21
71.9815675542733
 31
0.0
  0
LINE
  5
   3DD
  8
0
  6
CONTINUOUS
 62
     3
 10
-627.675747353209
 20
57.981580780759
 30
0.0
 11
-627.675747353209
 21
71.9815675542733
 31
0.0
  0
LINE
  5
   3DE
  8
0
  6
CONTINUOUS
 62
     3
 10
-625.875751930846
 20
57.981580780759
 30
0.0
 11
-625.875751930846
 21
71.9815675542733
 31
0.0
  0
LINE
  5
   3DF
  8
0
  6
CONTINUOUS
 62
     3
 10
-624.075748879088
 20
57.981580780759
 30
0.0
 11
-624.075748879088
 21
71.9815675542733
 31
0.0
  0
LINE
  5
   3E0
  8
0
  6
CONTINUOUS
 62
     3
 10
-622.275753456725
 20
57.981580780759
 30
0.0
 11
-622.275753456725
 21
71.9815675542733
 31
0.0
  0
LINE
  5
   3E1
  8
0
  6
CONTINUOUS
 62
     3
 10
-620.475750404967
 20
57.981580780759
 30
0.0
 11
-620.475750404967
 21
71.9815675542733
 31
0.0
  0
LINE
  5
   3E2
  8
0
  6
CONTINUOUS
 62
     3
 10
-618.675747353209
 20
57.981580780759
 30
0.0
 11
-618.675747353209
 21
71.9815675542733
 31
0.0
  0
LINE
  5
   3E3
  8
0
  6
CONTINUOUS
 62
     3
 10
-616.875751930846
 20
57.981580780759
 30
0.0
 11
-616.875751930846
 21
71.9815675542733
 31
0.0
  0
LINE
  5
   3E4
  8
0
  6
CONTINUOUS
 62
     3
 10
-615.075748879088
 20
57.981580780759
 30
0.0
 11
-615.075748879088
 21
71.9815675542733
 31
0.0
  0
LINE
  5
   3E5
  8
0
  6
CONTINUOUS
 62
     3
 10
-613.275753456725
 20
57.981580780759
 30
0.0
 11
-613.275753456725
 21
71.9815675542733
 31
0.0
  0
LINE
  5
   3E6
  8
0
  6
CONTINUOUS
 62
     3
 10
-611.475750404967
 20
57.981580780759
 30
0.0
 11
-611.475750404967
 21
71.9815675542733
 31
0.0
  0
LINE
  5
   3E7
  8
0
  6
CONTINUOUS
 62
     3
 10
-609.675747353209
 20
57.981580780759
 30
0.0
 11
-609.675747353209
 21
71.9815675542733
 31
0.0
  0
LINE
  5
   3E8
  8
0
  6
CONTINUOUS
 62
     3
 10
-607.875751930846
 20
57.981580780759
 30
0.0
 11
-607.875751930846
 21
71.9815675542733
 31
0.0
  0
LINE
  5
   3E9
  8
0
  6
CONTINUOUS
 62
     3
 10
-606.075748879088
 20
57.981580780759
 30
0.0
 11
-606.075748879088
 21
71.9815675542733
 31
0.0
  0
LINE
  5
   3EA
  8
0
  6
CONTINUOUS
 62
     3
 10
-604.275753456725
 20
57.981580780759
 30
0.0
 11
-604.275753456725
 21
71.9815675542733
 31
0.0
  0
LINE
  5
   3EB
  8
0
  6
CONTINUOUS
 62
     3
 10
-602.475750404967
 20
57.981580780759
 30
0.0
 11
-602.475750404967
 21
71.9815675542733
 31
0.0
  0
LINE
  5
   3EC
  8
0
  6
CONTINUOUS
 62
     3
 10
-600.675747353209
 20
57.981580780759
 30
0.0
 11
-600.675747353209
 21
71.9815675542733
 31
0.0
  0
LINE
  5
   3ED
  8
0
  6
CONTINUOUS
 62
     3
 10
-598.875751930846
 20
57.981580780759
 30
0.0
 11
-598.875751930846
 21
71.9815675542733
 31
0.0
  0
LINE
  5
   3EE
  8
0
  6
CONTINUOUS
 62
     3
 10
-597.075748879088
 20
57.981580780759
 30
0.0
 11
-597.075748879088
 21
71.9815675542733
 31
0.0
  0
LINE
  5
   3EF
  8
0
  6
CONTINUOUS
 62
     3
 10
-595.275753456725
 20
57.981580780759
 30
0.0
 11
-595.275753456725
 21
71.9815675542733
 31
0.0
  0
LINE
  5
   3F0
  8
0
  6
CONTINUOUS
 62
     3
 10
-593.475750404967
 20
57.981580780759
 30
0.0
 11
-593.475750404967
 21
71.9815675542733
 31
0.0
  0
LINE
  5
   3F1
  8
0
  6
CONTINUOUS
 62
     3
 10
-591.675747353209
 20
57.981580780759
 30
0.0
 11
-591.675747353209
 21
71.9815675542733
 31
0.0
  0
LINE
  5
   3F2
  8
0
  6
CONTINUOUS
 62
     3
 10
-589.875751930846
 20
57.981580780759
 30
0.0
 11
-589.875751930846
 21
71.9815675542733
 31
0.0
  0
LINE
  5
   3F3
  8
0
  6
CONTINUOUS
 62
     3
 10
-588.075748879088
 20
57.981580780759
 30
0.0
 11
-588.075748879088
 21
71.9815675542733
 31
0.0
  0
LINE
  5
   3F4
  8
0
  6
CONTINUOUS
 62
     3
 10
-586.275753456725
 20
57.981580780759
 30
0.0
 11
-586.275753456725
 21
71.9815675542733
 31
0.0
  0
LINE
  5
   3F5
  8
0
  6
CONTINUOUS
 62
     3
 10
-584.475750404967
 20
57.981580780759
 30
0.0
 11
-584.475750404967
 21
71.9815675542733
 31
0.0
  0
LINE
  5
   3F6
  8
0
  6
CONTINUOUS
 62
     3
 10
-582.675747353209
 20
48.3566055297852
 30
0.0
 11
-582.675747353209
 21
71.9815675542733
 31
0.0
  0
LINE
  5
   3F7
  8
0
  6
CONTINUOUS
 62
     3
 10
-579.075748879088
 20
-57.5183717534921
 30
0.0
 11
-579.075748879088
 21
71.9815675542733
 31
0.0
  0
LINE
  5
   3F8
  8
0
  6
CONTINUOUS
 62
     3
 10
-575.952530551327
 20
57.9815807807591
 30
0.0
 11
-645.84896914996
 21
57.9815807807591
 31
0.0
  0
LINE
  5
   3F9
  8
0
  6
CONTINUOUS
 62
     3
 10
-575.900745908729
 20
57.9815750943109
 30
0.0
 11
-576.083805601112
 21
57.9815750943109
 31
0.0
  0
LINE
  5
   3FA
  8
0
  6
CONTINUOUS
 62
     3
 10
-576.40074582733
 20
57.4815808105614
 30
0.0
 11
-576.40074582733
 21
57.981580780759
 31
0.0
  0
LINE
  5
   3FB
  8
0
  6
CONTINUOUS
 62
     3
 10
-645.848969149959
 20
57.9815807807591
 30
0.0
 11
-645.900745827329
 21
57.9815807807591
 31
0.0
  0
LINE
  5
   3FC
  8
0
  6
CONTINUOUS
 62
     3
 10
-645.40074582733
 20
57.4815808105583
 30
0.0
 11
-645.40074582733
 21
57.981580780756
 31
0.0
  0
ARC
  5
   3FD
  8
0
  6
CONTINUOUS
 62
     3
 10
-645.275759854744
 20
71.3565827811815
 30
0.0
 40
0.624986446726238
 50
449.998658602021
 51
540.001080379242
  0
ARC
  5
   3FE
  8
0
  6
CONTINUOUS
 62
     3
 10
-576.52573972948
 20
71.3565815145002
 30
0.0
 40
0.624984366596091
 50
359.998931305817
 51
450.001731127297
  0
LINE
  5
   3FF
  8
0
  6
CONTINUOUS
 62
     7
 10
-576.525758613244
 20
71.9815675542733
 30
0.0
 11
-645.275745223246
 21
71.9815675542733
 31
0.0
  0
LINE
  5
   400
  8
0
  6
CONTINUOUS
 62
     3
 10
-645.900745827329
 20
-56.8933869804003
 30
0.0
 11
-645.900745827329
 21
-43.5183849799778
 31
0.0
  0
LINE
  5
   401
  8
0
  6
CONTINUOUS
 62
     3
 10
-576.40074582733
 20
-43.0183850097771
 30
0.0
 11
-645.40074582733
 21
-43.0183850097771
 31
0.0
  0
LINE
  5
   402
  8
0
  6
CONTINUOUS
 62
     3
 10
-575.900745827344
 20
-56.893385713719
 30
0.0
 11
-575.900745827344
 21
-43.5183850377655
 31
0.0
  0
LINE
  5
   403
  8
0
  6
CONTINUOUS
 62
     3
 10
-643.8757462088
 20
-57.5183717534921
 30
0.0
 11
-643.8757462088
 21
71.9815675542733
 31
0.0
  0
LINE
  5
   404
  8
0
  6
CONTINUOUS
 62
     3
 10
-638.475746113432
 20
48.3566055297852
 30
0.0
 11
-638.475746113432
 21
71.9815675542733
 31
0.0
  0
LINE
  5
   405
  8
0
  6
CONTINUOUS
 62
     3
 10
-636.675747353209
 20
-57.5183717534921
 30
0.0
 11
-636.675747353209
 21
-43.5183849799778
 31
0.0
  0
LINE
  5
   406
  8
0
  6
CONTINUOUS
 62
     3
 10
-634.875751930846
 20
-57.5183717534921
 30
0.0
 11
-634.875751930846
 21
-43.5183849799778
 31
0.0
  0
LINE
  5
   407
  8
0
  6
CONTINUOUS
 62
     3
 10
-633.075748879088
 20
-57.5183717534921
 30
0.0
 11
-633.075748879088
 21
-43.5183849799778
 31
0.0
  0
LINE
  5
   408
  8
0
  6
CONTINUOUS
 62
     3
 10
-631.275753456725
 20
-57.5183717534921
 30
0.0
 11
-631.275753456725
 21
-43.5183849799778
 31
0.0
  0
LINE
  5
   409
  8
0
  6
CONTINUOUS
 62
     3
 10
-629.475750404967
 20
-57.5183717534921
 30
0.0
 11
-629.475750404967
 21
-43.5183849799778
 31
0.0
  0
LINE
  5
   40A
  8
0
  6
CONTINUOUS
 62
     3
 10
-627.675747353209
 20
-57.5183717534921
 30
0.0
 11
-627.675747353209
 21
-43.5183849799778
 31
0.0
  0
LINE
  5
   40B
  8
0
  6
CONTINUOUS
 62
     3
 10
-625.875751930846
 20
-57.5183717534921
 30
0.0
 11
-625.875751930846
 21
-43.5183849799778
 31
0.0
  0
LINE
  5
   40C
  8
0
  6
CONTINUOUS
 62
     3
 10
-624.075748879088
 20
-57.5183717534921
 30
0.0
 11
-624.075748879088
 21
-43.5183849799778
 31
0.0
  0
LINE
  5
   40D
  8
0
  6
CONTINUOUS
 62
     3
 10
-622.275753456725
 20
-57.5183717534921
 30
0.0
 11
-622.275753456725
 21
-43.5183849799778
 31
0.0
  0
LINE
  5
   40E
  8
0
  6
CONTINUOUS
 62
     3
 10
-620.475750404967
 20
-57.5183717534921
 30
0.0
 11
-620.475750404967
 21
-43.5183849799778
 31
0.0
  0
LINE
  5
   40F
  8
0
  6
CONTINUOUS
 62
     3
 10
-618.675747353209
 20
-57.5183717534921
 30
0.0
 11
-618.675747353209
 21
-43.5183849799778
 31
0.0
  0
LINE
  5
   410
  8
0
  6
CONTINUOUS
 62
     3
 10
-616.875751930846
 20
-57.5183717534921
 30
0.0
 11
-616.875751930846
 21
-43.5183849799778
 31
0.0
  0
LINE
  5
   411
  8
0
  6
CONTINUOUS
 62
     3
 10
-615.075748879088
 20
-57.5183717534921
 30
0.0
 11
-615.075748879088
 21
-43.5183849799778
 31
0.0
  0
LINE
  5
   412
  8
0
  6
CONTINUOUS
 62
     3
 10
-613.275753456725
 20
-57.5183717534921
 30
0.0
 11
-613.275753456725
 21
-43.5183849799778
 31
0.0
  0
LINE
  5
   413
  8
0
  6
CONTINUOUS
 62
     3
 10
-611.475750404967
 20
-57.5183717534921
 30
0.0
 11
-611.475750404967
 21
-43.5183849799778
 31
0.0
  0
LINE
  5
   414
  8
0
  6
CONTINUOUS
 62
     3
 10
-609.675747353209
 20
-57.5183717534921
 30
0.0
 11
-609.675747353209
 21
-43.5183849799778
 31
0.0
  0
LINE
  5
   415
  8
0
  6
CONTINUOUS
 62
     3
 10
-607.875751930846
 20
-57.5183717534921
 30
0.0
 11
-607.875751930846
 21
-43.5183849799778
 31
0.0
  0
LINE
  5
   416
  8
0
  6
CONTINUOUS
 62
     3
 10
-606.075748879088
 20
-57.5183717534921
 30
0.0
 11
-606.075748879088
 21
-43.5183849799778
 31
0.0
  0
LINE
  5
   417
  8
0
  6
CONTINUOUS
 62
     3
 10
-604.275753456725
 20
-57.5183717534921
 30
0.0
 11
-604.275753456725
 21
-43.5183849799778
 31
0.0
  0
LINE
  5
   418
  8
0
  6
CONTINUOUS
 62
     3
 10
-602.475750404967
 20
-57.5183717534921
 30
0.0
 11
-602.475750404967
 21
-43.5183849799778
 31
0.0
  0
LINE
  5
   419
  8
0
  6
CONTINUOUS
 62
     3
 10
-600.675747353209
 20
-57.5183717534921
 30
0.0
 11
-600.675747353209
 21
-43.5183849799778
 31
0.0
  0
LINE
  5
   41A
  8
0
  6
CONTINUOUS
 62
     3
 10
-598.875751930846
 20
-57.5183717534921
 30
0.0
 11
-598.875751930846
 21
-43.5183849799778
 31
0.0
  0
LINE
  5
   41B
  8
0
  6
CONTINUOUS
 62
     3
 10
-597.075748879088
 20
-57.5183717534921
 30
0.0
 11
-597.075748879088
 21
-43.5183849799778
 31
0.0
  0
LINE
  5
   41C
  8
0
  6
CONTINUOUS
 62
     3
 10
-595.275753456725
 20
-57.5183717534921
 30
0.0
 11
-595.275753456725
 21
-43.5183849799778
 31
0.0
  0
LINE
  5
   41D
  8
0
  6
CONTINUOUS
 62
     3
 10
-593.475750404967
 20
-57.5183717534921
 30
0.0
 11
-593.475750404967
 21
-43.5183849799778
 31
0.0
  0
LINE
  5
   41E
  8
0
  6
CONTINUOUS
 62
     3
 10
-591.675747353209
 20
-57.5183717534921
 30
0.0
 11
-591.675747353209
 21
-43.5183849799778
 31
0.0
  0
LINE
  5
   41F
  8
0
  6
CONTINUOUS
 62
     3
 10
-589.875751930846
 20
-57.5183717534921
 30
0.0
 11
-589.875751930846
 21
-43.5183849799778
 31
0.0
  0
LINE
  5
   420
  8
0
  6
CONTINUOUS
 62
     3
 10
-588.075748879088
 20
-57.5183717534921
 30
0.0
 11
-588.075748879088
 21
-43.5183849799778
 31
0.0
  0
LINE
  5
   421
  8
0
  6
CONTINUOUS
 62
     3
 10
-586.275753456725
 20
-57.5183717534921
 30
0.0
 11
-586.275753456725
 21
-43.5183849799778
 31
0.0
  0
LINE
  5
   422
  8
0
  6
CONTINUOUS
 62
     3
 10
-580.875751930846
 20
-57.5183717534921
 30
0.0
 11
-580.875751930846
 21
71.9815675542733
 31
0.0
  0
LINE
  5
   423
  8
0
  6
CONTINUOUS
 62
     3
 10
-577.275753456725
 20
-57.5183717534921
 30
0.0
 11
-577.275753456725
 21
71.9815675542733
 31
0.0
  0
LINE
  5
   424
  8
0
  6
CONTINUOUS
 62
     3
 10
-575.952530551327
 20
-43.5183849799778
 30
0.0
 11
-645.84896914996
 21
-43.5183849799778
 31
0.0
  0
LINE
  5
   425
  8
0
  6
CONTINUOUS
 62
     3
 10
-575.900745908729
 20
-43.5183792935296
 30
0.0
 11
-576.083805601112
 21
-43.5183792935296
 31
0.0
  0
LINE
  5
   426
  8
0
  6
CONTINUOUS
 62
     3
 10
-576.40074582733
 20
-43.5183849799778
 30
0.0
 11
-576.40074582733
 21
-43.0183850097801
 31
0.0
  0
LINE
  5
   427
  8
0
  6
CONTINUOUS
 62
     3
 10
-645.848969149959
 20
-43.5183849799778
 30
0.0
 11
-645.900745827329
 21
-43.5183849799778
 31
0.0
  0
LINE
  5
   428
  8
0
  6
CONTINUOUS
 62
     3
 10
-645.40074582733
 20
-43.5183849799748
 30
0.0
 11
-645.40074582733
 21
-43.0183850097771
 31
0.0
  0
ARC
  5
   429
  8
0
  6
CONTINUOUS
 62
     3
 10
-645.275759854744
 20
-56.8933869804003
 30
0.0
 40
0.624986446726238
 50
179.998919516826
 51
270.001341294048
  0
ARC
  5
   42A
  8
0
  6
CONTINUOUS
 62
     3
 10
-576.52573972948
 20
-56.893385713719
 30
0.0
 40
0.624984366596091
 50
269.998268768772
 51
360.001068590252
  0
LINE
  5
   42B
  8
0
  6
CONTINUOUS
 62
     7
 10
-576.525758613244
 20
-57.5183717534921
 30
0.0
 11
-645.275745223246
 21
-57.5183717534921
 31
0.0
  0
LINE
  5
   42C
  8
0
  6
CONTINUOUS
 62
     7
 10
-636.650742293246
 20
15.1065979003906
 30
0.0
 11
-637.150742263429
 21
15.1065979003906
 31
0.0
  0
LINE
  5
   42D
  8
0
  6
CONTINUOUS
 62
     7
 10
-636.650742293246
 20
14.6065979003906
 30
0.0
 11
-637.150742263441
 21
14.6065979003906
 31
0.0
  0
LINE
  5
   42E
  8
0
  6
DASHDOT
 62
     7
 10
-632.77572700912
 20
79.9315777740268
 30
0.0
 11
-632.77572700912
 21
87.0315377050852
 31
0.0
  0
LINE
  5
   42F
  8
0
  6
DASHDOT
 62
     7
 10
-629.225747043591
 20
83.481557739556
 30
0.0
 11
-636.325706974649
 21
83.481557739556
 31
0.0
  0
LINE
  5
   430
  8
0
  6
DASHDOT
 62
     7
 10
-610.90072700912
 20
74.9315777740268
 30
0.0
 11
-610.90072700912
 21
82.0315377050852
 31
0.0
  0
LINE
  5
   431
  8
0
  6
DASHDOT
 62
     7
 10
-607.350747043591
 20
83.481557739556
 30
0.0
 11
-614.450706974649
 21
83.481557739556
 31
0.0
  0
LINE
  5
   432
  8
0
  6
DASHDOT
 62
     7
 10
-589.02572700912
 20
79.9315777740268
 30
0.0
 11
-589.02572700912
 21
87.0315377050852
 31
0.0
  0
LINE
  5
   433
  8
0
  6
DASHDOT
 62
     7
 10
-585.475747043591
 20
83.481557739556
 30
0.0
 11
-592.575706974649
 21
83.481557739556
 31
0.0
  0
LINE
  5
   434
  8
0
  6
DASHDOT
 62
     7
 10
-589.02572700912
 20
-72.568341904304
 30
0.0
 11
-589.02572700912
 21
-60.5865235910027
 31
0.0
  0
LINE
  5
   435
  8
0
  6
DASHDOT
 62
     7
 10
-585.475747043591
 20
-69.0183619387748
 30
0.0
 11
-592.575706974649
 21
-69.0183619387748
 31
0.0
  0
LINE
  5
   436
  8
0
  6
DASHDOT
 62
     7
 10
-632.77572700912
 20
-72.568341904304
 30
0.0
 11
-632.77572700912
 21
-61.9631766855461
 31
0.0
  0
LINE
  5
   437
  8
0
  6
DASHDOT
 62
     7
 10
-629.225747043591
 20
-69.0183619387748
 30
0.0
 11
-636.325706974649
 21
-69.0183619387748
 31
0.0
  0
LINE
  5
   438
  8
0
  6
DASHDOT
 62
     7
 10
-610.90072700912
 20
-72.568341904304
 30
0.0
 11
-610.90072700912
 21
-65.4683819732455
 31
0.0
  0
LINE
  5
   439
  8
0
  6
DASHDOT
 62
     7
 10
-607.350747043591
 20
-69.0183619387748
 30
0.0
 11
-614.450706974649
 21
-69.0183619387748
 31
0.0
  0
LINE
  5
   43A
  8
0
  6
CONTINUOUS
 62
     3
 10
-575.900742263443
 20
-18.1433944702148
 30
0.0
 11
-581.650742263443
 21
-18.1433944702148
 31
0.0
  0
LINE
  5
   43B
  8
0
  6
CONTINUOUS
 62
     3
 10
-640.150742263443
 20
-18.1433944702148
 30
0.0
 11
-645.900742263443
 21
-18.1433944702148
 31
0.0
  0
LINE
  5
   43C
  8
0
  6
CONTINUOUS
 62
     3
 10
-640.150742263443
 20
34.3566055297852
 30
0.0
 11
-645.900742263443
 21
34.3566055297852
 31
0.0
  0
LINE
  5
   43D
  8
0
  6
CONTINUOUS
 62
     3
 10
-575.900742263443
 20
34.3566055297852
 30
0.0
 11
-581.650742263443
 21
34.3566055297852
 31
0.0
  0
LINE
  5
   43E
  8
0
  6
DASHDOT
 62
     3
 10
-567.980414527207
 20
8.10660552978516
 30
0.0
 11
-660.363327492341
 21
8.10660552978516
 31
0.0
  0
LINE
  5
   43F
  8
0
  6
CONTINUOUS
 62
     3
 10
-582.775726318359
 20
74.5382222271547
 30
0.0
 11
-595.275726318359
 21
74.5382222271547
 31
0.0
  0
LINE
  5
   440
  8
0
  6
CONTINUOUS
 62
     3
 10
-582.775726318359
 20
75.837260333094
 30
0.0
 11
-595.275726318359
 21
75.837260333094
 31
0.0
  0
LINE
  5
   441
  8
0
  6
CONTINUOUS
 62
     3
 10
-582.775726318359
 20
76.2702730350133
 30
0.0
 11
-595.275726318359
 21
76.2702730350133
 31
0.0
  0
LINE
  5
   442
  8
0
  6
CONTINUOUS
 62
     3
 10
-604.650726318359
 20
76.2702730350133
 30
0.0
 11
-617.150726318359
 21
76.2702730350133
 31
0.0
  0
LINE
  5
   443
  8
0
  6
CONTINUOUS
 62
     3
 10
-604.650726318359
 20
75.837260333094
 30
0.0
 11
-617.150726318359
 21
75.837260333094
 31
0.0
  0
LINE
  5
   444
  8
0
  6
CONTINUOUS
 62
     3
 10
-604.650726318359
 20
74.5382222271547
 30
0.0
 11
-617.150726318359
 21
74.5382222271547
 31
0.0
  0
LINE
  5
   445
  8
0
  6
CONTINUOUS
 62
     3
 10
-626.525726318359
 20
76.2702730350133
 30
0.0
 11
-639.025726318359
 21
76.2702730350133
 31
0.0
  0
LINE
  5
   446
  8
0
  6
CONTINUOUS
 62
     3
 10
-626.525726318359
 20
75.837260333094
 30
0.0
 11
-639.025726318359
 21
75.837260333094
 31
0.0
  0
LINE
  5
   447
  8
0
  6
CONTINUOUS
 62
     3
 10
-626.525726318359
 20
74.5382222271547
 30
0.0
 11
-639.025726318359
 21
74.5382222271547
 31
0.0
  0
LINE
  5
   448
  8
0
  6
CONTINUOUS
 62
     3
 10
-582.775726318359
 20
-61.8070165419974
 30
0.0
 11
-595.275726318359
 21
-61.8070165419974
 31
0.0
  0
LINE
  5
   449
  8
0
  6
CONTINUOUS
 62
     3
 10
-582.775726318359
 20
-61.3740038400781
 30
0.0
 11
-595.275726318359
 21
-61.3740038400781
 31
0.0
  0
LINE
  5
   44A
  8
0
  6
CONTINUOUS
 62
     3
 10
-582.775726318359
 20
-60.0749657341388
 30
0.0
 11
-595.275726318359
 21
-60.0749657341388
 31
0.0
  0
LINE
  5
   44B
  8
0
  6
CONTINUOUS
 62
     3
 10
-604.650726318359
 20
-61.8070165419974
 30
0.0
 11
-617.150726318359
 21
-61.8070165419974
 31
0.0
  0
LINE
  5
   44C
  8
0
  6
CONTINUOUS
 62
     3
 10
-604.650726318359
 20
-61.3740038400781
 30
0.0
 11
-617.150726318359
 21
-61.3740038400781
 31
0.0
  0
LINE
  5
   44D
  8
0
  6
CONTINUOUS
 62
     3
 10
-604.650726318359
 20
-60.0749657341388
 30
0.0
 11
-617.150726318359
 21
-60.0749657341388
 31
0.0
  0
LINE
  5
   44E
  8
0
  6
CONTINUOUS
 62
     3
 10
-626.525726318359
 20
-61.8070165419974
 30
0.0
 11
-639.025726318359
 21
-61.8070165419974
 31
0.0
  0
LINE
  5
   44F
  8
0
  6
CONTINUOUS
 62
     3
 10
-626.525726318359
 20
-61.3740038400781
 30
0.0
 11
-639.025726318359
 21
-61.3740038400781
 31
0.0
  0
LINE
  5
   450
  8
0
  6
CONTINUOUS
 62
     3
 10
-626.525726318359
 20
-60.0749657341388
 30
0.0
 11
-639.025726318359
 21
-60.0749657341388
 31
0.0
  0
INSERT
  5
   451
  8
255
  6
CONTINUOUS
 62
     7
  2
MOSTRINA
 10
-668.319870681412
 20
-46.8837051391602
 30
0.0
 41
0.5
 42
0.5
 50
359.999999792138
 43
0.5
  0
LINE
  5
   452
  8
0
  6
CONTINUOUS
 62
     1
 10
-640.150742263443
 20
-26.0183944702148
 30
0.0
 11
-645.400734634049
 21
-26.0183944702148
 31
0.0
  0
LINE
  5
   453
  8
0
  6
CONTINUOUS
 62
     7
 10
-640.150742263443
 20
-26.5183773803887
 30
0.0
 11
-645.900742067817
 21
-26.5183773803887
 31
0.0
  0
LINE
  5
   454
  8
0
  6
CONTINUOUS
 62
     1
 10
-638.475746828688
 20
-57.5183717534921
 30
0.0
 11
-638.475746828688
 21
-32.1433925628662
 31
0.0
  0
LINE
  5
   455
  8
0
  6
CONTINUOUS
 62
     1
 10
-582.675749385963
 20
-57.5183717534921
 30
0.0
 11
-582.675749385963
 21
-32.1433925628662
 31
0.0
  0
INSERT
  5
   456
  8
0
  6
CONTINUOUS
 62
     7
  2
*UDIM77
 10
0.0
 20
0.0
 30
0.0
  0
INSERT
  5
   457
  8
0
  6
CONTINUOUS
 62
     7
  2
*UDIM78
 10
0.0
 20
0.0
 30
0.0
  0
INSERT
  5
   458
  8
0
  6
CONTINUOUS
 62
     7
  2
*UDIM79
 10
0.0
 20
0.0
 30
0.0
  0
INSERT
  5
   459
  8
0
  6
CONTINUOUS
 62
     7
  2
*UDIM80
 10
0.0
 20
0.0
 30
0.0
  0
INSERT
  5
   45A
  8
0
  6
CONTINUOUS
 62
     7
  2
*UDIM81
 10
0.0
 20
0.0
 30
0.0
  0
INSERT
  5
   45B
  8
0
  6
CONTINUOUS
 62
     7
  2
*UDIM82
 10
0.0
 20
0.0
 30
0.0
  0
INSERT
  5
   45C
  8
0
  6
CONTINUOUS
 62
     7
  2
*UDIM83
 10
0.0
 20
0.0
 30
0.0
  0
INSERT
  5
   45D
  8
0
  6
CONTINUOUS
 62
     7
  2
*UDIM84
 10
0.0
 20
0.0
 30
0.0
  0
INSERT
  5
   45E
  8
0
  6
CONTINUOUS
 62
     7
  2
*UDIM85
 10
0.0
 20
0.0
 30
0.0
  0
INSERT
  5
   45F
  8
0
  6
CONTINUOUS
 62
     7
  2
*UDIM86
 10
0.0
 20
0.0
 30
0.0
  0
INSERT
  5
   460
  8
0
  6
CONTINUOUS
 62
     7
  2
*UDIM87
 10
0.0
 20
0.0
 30
0.0
  0
INSERT
  5
   461
  8
0
  6
CONTINUOUS
 62
     7
  2
*UDIM88
 10
0.0
 20
0.0
 30
0.0
  0
INSERT
  5
   462
  8
0
  6
CONTINUOUS
 62
     7
  2
*UDIM89
 10
0.0
 20
0.0
 30
0.0
  0
TEXT
  5
   463
  8
0
  6
CONTINUOUS
 62
     7
 10
-612.153637225787
 20
-98.0865559979271
 30
0.0
 40
3.00000002980232
  1
Y
 50
359.999999948034
 41
0.916666604744064
 72
     2
 11
-609.953637356917
 21
-98.0865559999114
 31
0.0
  0
TEXT
  5
   464
  8
0
  6
CONTINUOUS
 62
     7
 10
-558.103388221425
 20
6.38672662446658
 30
0.0
 40
3.00000002980232
  1
X
 50
359.999999948034
 41
0.916666604744064
 72
     1
 11
-557.003388285637
 21
7.88672663837561
 31
0.0
 73
     2
  0
TEXT
  5
   465
  8
0
  6
CONTINUOUS
 62
     7
 10
-686.47869101302
 20
6.3164675302283
 30
0.0
 40
3.00000002980232
  1
X
 50
359.999999948034
 41
0.916666604744064
 72
     1
 11
-685.378691077232
 21
7.81646754413732
 31
0.0
 73
     2
  0
TEXT
  5
   466
  8
0
  6
CONTINUOUS
 62
     7
 10
-612.00270071761
 20
108.999168641068
 30
0.0
 40
3.00000002980232
  1
Y
 50
359.999999948034
 41
0.916666604744064
 72
     1
 11
-610.902700781822
 21
110.499168654977
 31
0.0
 73
     2
  0
LINE
  5
   467
  8
0
  6
CONTINUOUS
 62
     7
 10
-368.237609863281
 20
36.719108581543
 30
0.0
 11
-340.237609863281
 21
36.719108581543
 31
0.0
  0
LINE
  5
   468
  8
0
  6
CONTINUOUS
 62
     7
 10
-368.237609863281
 20
64.719108581543
 30
0.0
 11
-340.237609863281
 21
64.719108581543
 31
0.0
  0
LINE
  5
   469
  8
0
  6
CONTINUOUS
 62
     7
 10
-368.237609863281
 20
64.719108581543
 30
0.0
 11
-368.237609863281
 21
36.719108581543
 31
0.0
  0
LINE
  5
   46A
  8
0
  6
CONTINUOUS
 62
     7
 10
-340.237609863281
 20
64.719108581543
 30
0.0
 11
-340.237609863281
 21
36.719108581543
 31
0.0
  0
CIRCLE
  5
   46B
  8
0
  6
CONTINUOUS
 62
     7
 10
-364.237609863281
 20
68.469108581543
 30
0.0
 40
0.875
  0
CIRCLE
  5
   46C
  8
0
  6
CONTINUOUS
 62
     7
 10
-344.237609863281
 20
68.469108581543
 30
0.0
 40
0.875
  0
CIRCLE
  5
   46D
  8
0
  6
CONTINUOUS
 62
     7
 10
-364.237609863281
 20
32.969108581543
 30
0.0
 40
0.875
  0
CIRCLE
  5
   46E
  8
0
  6
CONTINUOUS
 62
     7
 10
-344.237609863281
 20
32.969108581543
 30
0.0
 40
0.875
  0
LINE
  5
   46F
  8
0
  6
DASHDOT
 62
     7
 10
-364.237609863281
 20
70.094108581543
 30
0.0
 11
-364.237609863281
 21
66.844108581543
 31
0.0
  0
LINE
  5
   470
  8
0
  6
DASHDOT
 62
     7
 10
-365.862609863281
 20
68.469108581543
 30
0.0
 11
-362.612609863281
 21
68.469108581543
 31
0.0
  0
LINE
  5
   471
  8
0
  6
DASHDOT
 62
     7
 10
-344.237609863281
 20
70.094108581543
 30
0.0
 11
-344.237609863281
 21
66.844108581543
 31
0.0
  0
LINE
  5
   472
  8
0
  6
DASHDOT
 62
     7
 10
-345.862609863281
 20
68.469108581543
 30
0.0
 11
-342.612609863281
 21
68.469108581543
 31
0.0
  0
LINE
  5
   473
  8
0
  6
DASHDOT
 62
     7
 10
-344.237609863281
 20
34.594108581543
 30
0.0
 11
-344.237609863281
 21
31.344108581543
 31
0.0
  0
LINE
  5
   474
  8
0
  6
DASHDOT
 62
     7
 10
-345.862609863281
 20
32.969108581543
 30
0.0
 11
-342.612609863281
 21
32.969108581543
 31
0.0
  0
LINE
  5
   475
  8
0
  6
DASHDOT
 62
     7
 10
-364.237609863281
 20
34.594108581543
 30
0.0
 11
-364.237609863281
 21
31.344108581543
 31
0.0
  0
LINE
  5
   476
  8
0
  6
DASHDOT
 62
     7
 10
-365.862609863281
 20
32.969108581543
 30
0.0
 11
-362.612609863281
 21
32.969108581543
 31
0.0
  0
LINE
  5
   477
  8
0
  6
DASHDOT
 62
     7
 10
-354.237609863281
 20
78.08922086688
 30
0.0
 11
-354.237609863281
 21
21.595857736722
 31
0.0
  0
LINE
  5
   478
  8
0
  6
CONTINUOUS
 62
     7
 10
-371.058186406947
 20
71.120294236749
 30
0.0
 11
-337.10362618364
 21
71.120294236749
 31
0.0
  0
LINE
  5
   479
  8
0
  6
CONTINUOUS
 62
     7
 10
-371.058186406947
 20
29.5552291358037
 30
0.0
 11
-337.10362618364
 21
29.5552291358037
 31
0.0
  0
LINE
  5
   47A
  8
0
  6
CONTINUOUS
 62
     7
 10
-337.10362618364
 20
71.120294236749
 30
0.0
 11
-337.10362618364
 21
29.5552291358037
 31
0.0
  0
LINE
  5
   47B
  8
0
  6
CONTINUOUS
 62
     7
 10
-371.058186406947
 20
71.120294236749
 30
0.0
 11
-371.058186406947
 21
29.5552291358037
 31
0.0
  0
CIRCLE
  5
   47C
  8
0
  6
CONTINUOUS
 62
     7
 10
-369.184831360144
 20
69.3054815351584
 30
0.0
 40
0.0625
  0
LINE
  5
   47D
  8
0
  6
DASHDOT
 62
     7
 10
-375.957251548815
 20
50.719108581543
 30
0.0
 11
-329.876891472678
 21
50.719108581543
 31
0.0
  0
TEXT
  5
   47E
  8
0
  6
CONTINUOUS
 62
     7
 10
-383.779536184446
 20
41.0496628929228
 30
0.0
 40
3.00000002980232
  1
=     =
 50
449.999999844103
 41
0.916666604744064
 72
     2
 11
-383.779536133683
 21
59.7496618110985
 31
0.0
  0
TEXT
  5
   47F
  8
0
  6
CONTINUOUS
 62
     7
 10
-374.67724316992
 20
41.0496628929228
 30
0.0
 40
3.00000002980232
  1
=     =
 50
449.999999844103
 41
0.916666604744064
 72
     2
 11
-374.677243119156
 21
59.7496618110985
 31
0.0
  0
INSERT
  5
   480
  8
0
  6
CONTINUOUS
 62
     7
  2
*UDIM90
 10
0.0
 20
0.0
 30
0.0
  0
TEXT
  5
   481
  8
0
  6
CONTINUOUS
 62
     7
 10
-361.138151856366
 20
83.9434544478201
 30
0.0
 40
3.00000002980232
  1
=   =
 50
359.999999844103
 41
0.916666604744064
 72
     2
 11
-347.938152621292
 21
83.9434544119704
 31
0.0
  0
TEXT
  5
   482
  8
0
  6
CONTINUOUS
 62
     7
 10
-361.196694107953
 20
77.3867127333425
 30
0.0
 40
3.00000002980232
  1
=   =
 50
359.999999844103
 41
0.916666604744064
 72
     2
 11
-347.996694872879
 21
77.3867126974928
 31
0.0
  0
INSERT
  5
   483
  8
0
  6
CONTINUOUS
 62
     7
  2
*UDIM91
 10
0.0
 20
0.0
 30
0.0
  0
INSERT
  5
   484
  8
0
  6
CONTINUOUS
 62
     7
  2
*UDIM92
 10
0.0
 20
0.0
 30
0.0
  0
INSERT
  5
   485
  8
0
  6
CONTINUOUS
 62
     7
  2
*UDIM93
 10
0.0
 20
0.0
 30
0.0
  0
INSERT
  5
   486
  8
0
  6
CONTINUOUS
 62
     7
  2
*UDIM94
 10
0.0
 20
0.0
 30
0.0
  0
TEXT
  5
   487
  8
0
  6
CONTINUOUS
 62
     7
 10
-355.425889859699
 20
14.7440146708539
 30
0.0
 40
3.00000002980232
  1
Y
 50
359.999999844103
 41
0.916666604744064
 72
     2
 11
-353.225889990829
 21
14.744014664879
 31
0.0
  0
TEXT
  5
   488
  8
0
  6
CONTINUOUS
 62
     7
 10
-354.489212403797
 20
93.4834708476117
 30
0.0
 40
3.00000002980232
  1
Y
 50
359.999999844103
 41
0.916666604744064
 72
     2
 11
-352.289212534927
 21
93.4834708416368
 31
0.0
  0
TEXT
  5
   489
  8
0
  6
CONTINUOUS
 62
     7
 10
-327.64907444527
 20
49.4906880760244
 30
0.0
 40
3.00000002980232
  1
X
 50
359.999999844103
 41
0.916666604744064
 72
     2
 11
-325.449074576401
 21
49.4906880700494
 31
0.0
  0
TEXT
  5
   48A
  8
0
  6
CONTINUOUS
 62
     7
 10
-396.405532727741
 20
48.8156606459668
 30
0.0
 40
3.00000002980232
  1
X
 50
359.999999844103
 41
0.916666604744064
 72
     2
 11
-394.205532858871
 21
48.8156606399919
 31
0.0
  0
ENDSEC
  0
EOF
