  0
SECTION
  2
HEADER
  9
$ACADVER
  1
AC1009
  9
$DWGCODEPAGE
  3
iso8859-1
  9
$INSBASE
 10
0.0
 20
0.0
 30
0.0
  9
$EXTMIN
 10
1.0E20
 20
1.0E20
  9
$EXTMAX
 10
-1.0E20
 20
-1.0E20
  9
$LIMMIN
 10
0.0
 20
0.0
  9
$LIMMAX
 10
12.0
 20
9.0
  9
$ORTHOMODE
 70
     0
  9
$REGENMODE
 70
     1
  9
$FILLMODE
 70
     1
  9
$QTEXTMODE
 70
     0
  9
$MIRRTEXT
 70
     1
  9
$DRAGMODE
 70
     2
  9
$LTSCALE
 40
15.0
  9
$OSMODE
 70
     0
  9
$ATTMODE
 70
     1
  9
$TEXTSIZE
 40
0.2
  9
$TRACEWID
 40
0.05
  9
$TEXTSTYLE
  7
STANDARD
  9
$CLAYER
  8
0
  9
$CELTYPE
  6
DASHED
  9
$CECOLOR
 62
   256
  9
$DIMSCALE
 40
1.0
  9
$DIMASZ
 40
0.18
  9
$DIMEXO
 40
0.0625
  9
$DIMDLI
 40
0.38
  9
$DIMRND
 40
0.0
  9
$DIMDLE
 40
0.0
  9
$DIMEXE
 40
0.18
  9
$DIMTP
 40
0.0
  9
$DIMTM
 40
0.0
  9
$DIMTXT
 40
0.18
  9
$DIMCEN
 40
0.09
  9
$DIMTSZ
 40
0.0
  9
$DIMTOL
 70
     0
  9
$DIMLIM
 70
     0
  9
$DIMTIH
 70
     1
  9
$DIMTOH
 70
     1
  9
$DIMSE1
 70
     0
  9
$DIMSE2
 70
     0
  9
$DIMTAD
 70
     0
  9
$DIMZIN
 70
     0
  9
$DIMBLK
  1

  9
$DIMASO
 70
     1
  9
$DIMSHO
 70
     1
  9
$DIMPOST
  1

  9
$DIMAPOST
  1

  9
$DIMALT
 70
     0
  9
$DIMALTD
 70
     2
  9
$DIMALTF
 40
25.4
  9
$DIMLFAC
 40
1.0
  9
$DIMTOFL
 70
     0
  9
$DIMTVP
 40
0.0
  9
$DIMTIX
 70
     0
  9
$DIMSOXD
 70
     0
  9
$DIMSAH
 70
     0
  9
$DIMBLK1
  1

  9
$DIMBLK2
  1

  9
$DIMSTYLE
  2
STANDARD
  9
$DIMCLRD
 70
     0
  9
$DIMCLRE
 70
     0
  9
$DIMCLRT
 70
     0
  9
$DIMTFAC
 40
1.0
  9
$DIMGAP
 40
0.09
  9
$LUNITS
 70
     2
  9
$LUPREC
 70
     4
  9
$AXISMODE
 70
     0
  9
$AXISUNIT
 10
0.0
 20
0.0
  9
$SKETCHINC
 40
0.1
  9
$FILLETRAD
 40
0.0
  9
$AUNITS
 70
     0
  9
$AUPREC
 70
     0
  9
$MENU
  1
acad
  9
$ELEVATION
 40
0.0
  9
$PELEVATION
 40
0.0
  9
$THICKNESS
 40
0.0
  9
$LIMCHECK
 70
     0
  9
$BLIPMODE
 70
     1
  9
$CHAMFERA
 40
0.0
  9
$CHAMFERB
 40
0.0
  9
$SKPOLY
 70
     0
  9
$TDCREATE
 40
0.000000000
  9
$TDUPDATE
 40
0.000000000
  9
$TDINDWG
 40
0.0
  9
$TDUSRTIMER
 40
0.0
  9
$USRTIMER
 70
     1
  9
$ANGBASE
 50
0.0
  9
$ANGDIR
 70
     0
  9
$PDMODE
 70
     0
  9
$PDSIZE
 40
0.0
  9
$PLINEWID
 40
0.0
  9
$COORDS
 70
     1
  9
$SPLFRAME
 70
     0
  9
$SPLINETYPE
 70
     6
  9
$SPLINESEGS
 70
     8
  9
$ATTDIA
 70
     0
  9
$ATTREQ
 70
     1
  9
$HANDLING
 70
     1
  9
$HANDSEED
  5
   69B
  9
$SURFTAB1
 70
     6
  9
$SURFTAB2
 70
     6
  9
$SURFTYPE
 70
     6
  9
$SURFU
 70
     6
  9
$SURFV
 70
     6
  9
$UCSNAME
  2

  9
$UCSORG
 10
0.0
 20
0.0
 30
0.0
  9
$UCSXDIR
 10
1.0
 20
0.0
 30
0.0
  9
$UCSYDIR
 10
0.0
 20
1.0
 30
0.0
  9
$PUCSNAME
  2

  9
$PUCSORG
 10
0.0
 20
0.0
 30
0.0
  9
$PUCSXDIR
 10
1.0
 20
0.0
 30
0.0
  9
$PUCSYDIR
 10
0.0
 20
1.0
 30
0.0
  9
$USERI1
 70
     0
  9
$USERI2
 70
     0
  9
$USERI3
 70
     0
  9
$USERI4
 70
     0
  9
$USERI5
 70
     0
  9
$USERR1
 40
0.0
  9
$USERR2
 40
0.0
  9
$USERR3
 40
0.0
  9
$USERR4
 40
0.0
  9
$USERR5
 40
0.0
  9
$WORLDVIEW
 70
     1
  9
$SHADEDGE
 70
     3
  9
$SHADEDIF
 70
    70
  9
$TILEMODE
 70
     1
  9
$MAXACTVP
 70
    16
  9
$PINSBASE
 10
0.0
 20
0.0
 30
0.0
  9
$PLIMCHECK
 70
     0
  9
$PEXTMIN
 10
1.0E20
 20
1.0E20
 30
1.0E20
  9
$PEXTMAX
 10
-1.0E20
 20
-1.0E20
 30
-1.0E20
  9
$PLIMMIN
 10
0.0
 20
0.0
  9
$PLIMMAX
 10
12.0
 20
9.0
  9
$UNITMODE
 70
     0
  9
$VISRETAIN
 70
     0
  0
ENDSEC
  0
SECTION
  2
TABLES
  0
TABLE
  2
VPORT
 70
     1
  0
VPORT
  2
*ACTIVE
 70
     0
 10
0.0
 20
0.0
 11
1.0
 21
1.0
 12
6.801242
 22
4.5
 13
0.0
 23
0.0
 14
1.0
 24
1.0
 15
0.0
 25
0.0
 16
0.0
 26
0.0
 36
1.0
 17
0.0
 27
0.0
 37
0.0
 40
9.0
 41
1.511387
 42
50.0
 43
0.0
 44
0.0
 50
0.0
 51
0.0
 71
     0
 72
   100
 73
     1
 74
     1
 75
     0
 76
     0
 77
     0
 78
     0
  0
ENDTAB
  0
TABLE
  2
LTYPE
 70
    41
  0
LTYPE
  2
BYBLOCK
 70
     0
  3

 72
    65
 73
     0
 40
0.0
  0
LTYPE
  2
BYLAYER
 70
     0
  3

 72
    65
 73
     0
 40
0.0
  0
LTYPE
  2
CONTINUOUS
 70
     0
  3
Solid line
 72
    65
 73
     0
 40
0.0
  0
LTYPE
  2
BORDER
 70
    64
  3
__ __ . __ __ . __ __ . __ __ . __ __ . __ __ .
 72
    65
 73
     6
 40
1.75
 49
0.5
 49
-0.25
 49
0.5
 49
-0.25
 49
0.0
 49
-0.25
  0
LTYPE
  2
BORDER2
 70
    64
  3
__.__.__.__.__.__.__.__.__.__.__.__.__.__.__.__
 72
    65
 73
     6
 40
0.875
 49
0.25
 49
-0.125
 49
0.25
 49
-0.125
 49
0.0
 49
-0.125
  0
LTYPE
  2
BORDERX2
 70
    64
  3
____  ____  .  ____  ____  .  ____  ____  .  __
 72
    65
 73
     6
 40
3.5
 49
1.0
 49
-0.5
 49
1.0
 49
-0.5
 49
0.0
 49
-0.5
  0
LTYPE
  2
CENTER
 70
    64
  3
____ _ ____ _ ____ _ ____ _ ____ _ ____ _ ____
 72
    65
 73
     4
 40
2.0
 49
1.25
 49
-0.25
 49
0.25
 49
-0.25
  0
LTYPE
  2
CENTER2
 70
    64
  3
___ _ ___ _ ___ _ ___ _ ___ _ ___ _ ___ _ ___ _
 72
    65
 73
     4
 40
1.125
 49
0.75
 49
-0.125
 49
0.125
 49
-0.125
  0
LTYPE
  2
CENTERX2
 70
    64
  3
________  __  ________  __  ________  __  _____
 72
    65
 73
     4
 40
4.0
 49
2.5
 49
-0.5
 49
0.5
 49
-0.5
  0
LTYPE
  2
DASHDOT
 70
    64
  3
__ . __ . __ . __ . __ . __ . __ . __ . __ . __
 72
    65
 73
     4
 40
1.0
 49
0.5
 49
-0.25
 49
0.0
 49
-0.25
  0
LTYPE
  2
DASHDOT2
 70
    64
  3
_._._._._._._._._._._._._._._._._._._._._._._._
 72
    65
 73
     4
 40
0.5
 49
0.25
 49
-0.125
 49
0.0
 49
-0.125
  0
LTYPE
  2
DASHDOTX2
 70
    64
  3
____  .  ____  .  ____  .  ____  .  ____  .  __
 72
    65
 73
     4
 40
2.0
 49
1.0
 49
-0.5
 49
0.0
 49
-0.5
  0
LTYPE
  2
DASHED
 70
    64
  3
__ __ __ __ __ __ __ __ __ __ __ __ __ __ __ __
 72
    65
 73
     2
 40
0.75
 49
0.5
 49
-0.25
  0
LTYPE
  2
DASHED2
 70
    64
  3
_ _ _ _ _ _ _ _ _ _ _ _ _ _ _ _ _ _ _ _ _ _ _ _
 72
    65
 73
     2
 40
0.375
 49
0.25
 49
-0.125
  0
LTYPE
  2
DASHEDX2
 70
    64
  3
____  ____  ____  ____  ____  ____  ____  ____
 72
    65
 73
     2
 40
1.5
 49
1.0
 49
-0.5
  0
LTYPE
  2
DIVIDE
 70
    64
  3
____ . . ____ . . ____ . . ____ . . ____ . . __
 72
    65
 73
     6
 40
1.25
 49
0.5
 49
-0.25
 49
0.0
 49
-0.25
 49
0.0
 49
-0.25
  0
LTYPE
  2
DIVIDE2
 70
    64
  3
__..__..__..__..__..__..__..__..__..__..__..__.
 72
    65
 73
     6
 40
0.625
 49
0.25
 49
-0.125
 49
0.0
 49
-0.125
 49
0.0
 49
-0.125
  0
LTYPE
  2
DIVIDEX2
 70
    64
  3
________  .  .  ________  .  .  ________  .  .
 72
    65
 73
     6
 40
2.5
 49
1.0
 49
-0.5
 49
0.0
 49
-0.5
 49
0.0
 49
-0.5
  0
LTYPE
  2
DOT
 70
    64
  3
. . . . . . . . . . . . . . . . . . . . . . . .
 72
    65
 73
     2
 40
0.25
 49
0.0
 49
-0.25
  0
LTYPE
  2
DOT2
 70
    64
  3
...............................................
 72
    65
 73
     2
 40
0.125
 49
0.0
 49
-0.125
  0
LTYPE
  2
DOTX2
 70
    64
  3
.  .  .  .  .  .  .  .  .  .  .  .  .  .  .  .
 72
    65
 73
     2
 40
0.5
 49
0.0
 49
-0.5
  0
LTYPE
  2
HIDDEN
 70
    64
  3
__ __ __ __ __ __ __ __ __ __ __ __ __ __ __ __
 72
    65
 73
     2
 40
0.375
 49
0.25
 49
-0.125
  0
LTYPE
  2
HIDDEN2
 70
    64
  3
_ _ _ _ _ _ _ _ _ _ _ _ _ _ _ _ _ _ _ _ _ _ _ _
 72
    65
 73
     2
 40
0.1875
 49
0.125
 49
-0.0625
  0
LTYPE
  2
HIDDENX2
 70
    64
  3
____ ____ ____ ____ ____ ____ ____ ____ ____ __
 72
    65
 73
     2
 40
0.75
 49
0.5
 49
-0.25
  0
LTYPE
  2
PHANTOM
 70
    64
  3
______  __  __  ______  __  __  ______  __  __
 72
    65
 73
     6
 40
2.5
 49
1.25
 49
-0.25
 49
0.25
 49
-0.25
 49
0.25
 49
-0.25
  0
LTYPE
  2
PHANTOM2
 70
    64
  3
___ _ _ ___ _ _ ___ _ _ ___ _ _ ___ _ _ ___ _ _
 72
    65
 73
     6
 40
1.25
 49
0.625
 49
-0.125
 49
0.125
 49
-0.125
 49
0.125
 49
-0.125
  0
LTYPE
  2
PHANTOMX2
 70
    64
  3
____________    ____    ____    ____________
 72
    65
 73
     6
 40
5.0
 49
2.5
 49
-0.5
 49
0.5
 49
-0.5
 49
0.5
 49
-0.5
  0
LTYPE
  2
ACAD_ISO02W100
 70
    64
  3
__ __ __ __ __ __ __ __ __ __ __ __ __ __ __ __
 72
    65
 73
     2
 40
15.0
 49
12.0
 49
-3.0
  0
LTYPE
  2
ACAD_ISO03W100
 70
    64
  3
__    __    __    __    __    __    __    __
 72
    65
 73
     2
 40
30.0
 49
12.0
 49
-18.0
  0
LTYPE
  2
ACAD_ISO04W100
 70
    64
  3
____ . ____ . ____ . ____ . ____ . ____ . ____
 72
    65
 73
     4
 40
30.5
 49
24.0
 49
-3.0
 49
0.5
 49
-3.0
  0
LTYPE
  2
ACAD_ISO05W100
 70
    64
  3
____ .. ____ .. ____ .. ____ .. ____ .. ____ ..
 72
    65
 73
     6
 40
34.0
 49
24.0
 49
-3.0
 49
0.5
 49
-3.0
 49
0.5
 49
-3.0
  0
LTYPE
  2
ACAD_ISO06W100
 70
    64
  3
____ ... ____ ... ____ ... ____ ... ____ ... __
 72
    65
 73
     8
 40
37.5
 49
24.0
 49
-3.0
 49
0.5
 49
-3.0
 49
0.5
 49
-3.0
 49
0.5
 49
-3.0
  0
LTYPE
  2
ACAD_ISO07W100
 70
    64
  3
. . . . . . . . . . . . . . . . . . . . . . . .
 72
    65
 73
     2
 40
3.5
 49
0.5
 49
-3.0
  0
LTYPE
  2
ACAD_ISO08W100
 70
    64
  3
____ __ ____ __ ____ __ ____ ____ __ __ ____ __
 72
    65
 73
     4
 40
36.0
 49
24.0
 49
-3.0
 49
6.0
 49
-3.0
  0
LTYPE
  2
ACAD_ISO09W100
 70
    64
  3
____ __ __ ____ __ __ ____ __ __ ____ __ __ ___
 72
    65
 73
     6
 40
45.0
 49
24.0
 49
-3.0
 49
6.0
 49
-3.0
 49
6.0
 49
-3.0
  0
LTYPE
  2
ACAD_ISO10W100
 70
    64
  3
__ . __ . __ . __ . __ . __ . __ . __ . __ . __
 72
    65
 73
     4
 40
18.5
 49
12.0
 49
-3.0
 49
0.5
 49
-3.0
  0
LTYPE
  2
ACAD_ISO11W100
 70
    64
  3
__ __ . __ __ . __ __ . __ __ . __ __ . __ __ .
 72
    65
 73
     6
 40
33.5
 49
12.0
 49
-3.0
 49
12.0
 49
-3.0
 49
0.5
 49
-3.0
  0
LTYPE
  2
ACAD_ISO12W100
 70
    64
  3
__ . . __ . . __ . . __ . . __ . . __ . . __ .
 72
    65
 73
     6
 40
22.0
 49
12.0
 49
-3.0
 49
0.5
 49
-3.0
 49
0.5
 49
-3.0
  0
LTYPE
  2
ACAD_ISO13W100
 70
    64
  3
__ __ . . __ __ . . __ __ . . __ __ . . __ __ .
 72
    65
 73
     8
 40
37.0
 49
12.0
 49
-3.0
 49
12.0
 49
-3.0
 49
0.5
 49
-3.0
 49
0.5
 49
-3.0
  0
LTYPE
  2
ACAD_ISO14W100
 70
    64
  3
__ . . . __ . . . __ . . . __ . . . __ . . . __
 72
    65
 73
     8
 40
25.5
 49
12.0
 49
-3.0
 49
0.5
 49
-3.0
 49
0.5
 49
-3.0
 49
0.5
 49
-3.0
  0
LTYPE
  2
ACAD_ISO15W100
 70
    64
  3
__ __ . . . __ __ . . . __ __ . . . __ __ . . .
 72
    65
 73
    10
 40
40.5
 49
12.0
 49
-3.0
 49
12.0
 49
-3.0
 49
0.5
 49
-3.0
 49
0.5
 49
-3.0
 49
0.5
 49
-3.0
  0
ENDTAB
  0
TABLE
  2
STYLE
 70
     4
  0
STYLE
  2
STANDARD
 70
    64
 40
0.0
 41
1.0
 50
0.0
 71
     0
 42
0.2
  3
txt
  4

  0
STYLE
  2
TOLERANCE
 70
    64
 40
0.0
 41
1.0
 50
0.0
 71
     0
 42
0.2
  3
../igesfont/iges1003.shx
  4

  0
STYLE
  2
ROMANS
 70
    64
 40
0.0
 41
1.0
 50
0.0
 71
     0
 42
0.2
  3
romans.shx
  4

  0
STYLE
  2
ROMANC
 70
    64
 40
0.0
 41
1.0
 50
0.0
 71
     0
 42
0.2
  3
romanc.shx
  4

  0
ENDTAB
  0
TABLE
  2
DIMSTYLE
 70
     2
  0
DIMSTYLE
  2
UNNAMED
 70
     0
  3

  4

  5

  6

  7

 40
1.0
 41
0.18
 42
0.0625
 43
0.38
 44
0.18
 45
0.0
 46
0.0
 47
0.0
 48
0.0
140
0.18
141
0.09
142
0.0
143
25.4
144
1.0
145
0.0
146
1.0
147
0.09
 71
     0
 72
     0
 73
     1
 74
     1
 75
     0
 76
     0
 77
     0
 78
     0
170
     0
171
     2
172
     0
173
     0
174
     0
175
     0
176
     0
177
     0
178
     0
  0
DIMSTYLE
  2
STANDARD
 70
     0
  3

  4

  5

  6

  7

 40
1.0
 41
0.18
 42
0.0625
 43
0.38
 44
0.18
 45
0.0
 46
0.0
 47
0.0
 48
0.0
140
0.18
141
0.09
142
0.0
143
25.4
144
1.0
145
0.0
146
1.0
147
0.09
 71
     0
 72
     0
 73
     1
 74
     1
 75
     0
 76
     0
 77
     0
 78
     0
170
     0
171
     2
172
     0
173
     0
174
     0
175
     0
176
     0
177
     0
178
     0
  0
ENDTAB
  0
TABLE
  2
LAYER
 70
     1
  0
LAYER
  2
0
 70
     0
 62
     7
  6
CONTINUOUS
  0
ENDTAB
  0
ENDSEC
  0
SECTION
  2
BLOCKS
  0
BLOCK
  5
     B
  8
0
  6
CONTINUOUS
 62
     3
  2
*UDIM0
 70
    65
 10
0.0
 20
0.0
 30
0.0
  3
*UDIM0
  0
TEXT
  5
     C
  8
0
  6
CONTINUOUS
 62
     3
 10
-4.83840115279044
 20
-107.26753002378
 30
0.0
 40
3.00000002980232
  1
15
 50
359.999999844103
 41
0.933333333333333
 72
     1
 11
-2.33840112388135
 21
-105.767530015668
 31
0.0
 73
     2
  0
LINE
  5
     D
  8
0
  6
CONTINUOUS
 62
     3
 10
-6.16808128356934
 20
-101.856002807617
 30
0.0
 11
-6.16808128356934
 21
-110.267530030569
 31
0.0
  0
LINE
  5
     E
  8
0
  6
CONTINUOUS
 62
     3
 10
1.33191871643066
 20
-119.106002807617
 30
0.0
 11
1.33191871643066
 21
-106.267530030569
 31
0.0
  0
LINE
  5
     F
  8
0
  6
CONTINUOUS
 62
     3
 10
-6.16808128356934
 20
-108.267530030569
 30
0.0
 11
1.33191871643066
 21
-108.267530030569
 31
0.0
  0
LINE
  5
    10
  8
0
  6
CONTINUOUS
 62
     3
 10
-9.12250456077631
 20
-108.788474460521
 30
0.0
 11
-6.16808128356934
 21
-108.267530030569
 31
0.0
  0
LINE
  5
    11
  8
0
  6
CONTINUOUS
 62
     3
 10
-6.16808128356934
 20
-108.267530030569
 30
0.0
 11
-9.12250456077631
 21
-107.746585600618
 31
0.0
  0
LINE
  5
    12
  8
0
  6
CONTINUOUS
 62
     3
 10
4.28634199363762
 20
-107.746585600618
 30
0.0
 11
1.33191871643066
 21
-108.267530030569
 31
0.0
  0
LINE
  5
    13
  8
0
  6
CONTINUOUS
 62
     3
 10
1.33191871643066
 20
-108.267530030569
 30
0.0
 11
4.28634199363762
 21
-108.788474460521
 31
0.0
  0
ENDBLK
  5
    14
  8
0
  6
CONTINUOUS
 62
     3
  0
BLOCK
  5
    15
  8
0
  6
CONTINUOUS
 62
     3
  2
*UDIM1
 70
    65
 10
0.0
 20
0.0
 30
0.0
  3
*UDIM1
  0
TEXT
  5
    16
  8
0
  6
CONTINUOUS
 62
     3
 10
-12.2530778190502
 20
-74.0716217332718
 30
0.0
 40
3.00000002980232
  1
15
 50
359.999999844103
 41
0.933333333333333
 72
     1
 11
-9.75307779014111
 21
-72.5716217251604
 31
0.0
 73
     2
  0
LINE
  5
    17
  8
0
  6
CONTINUOUS
 62
     3
 10
-13.6680812835693
 20
-81.8210780067186
 30
0.0
 11
-13.6680812835693
 21
-73.0716217400615
 31
0.0
  0
LINE
  5
    18
  8
0
  6
CONTINUOUS
 62
     3
 10
-6.16808128356934
 20
-91.8560028076172
 30
0.0
 11
-6.16808128356934
 21
-73.0716217400615
 31
0.0
  0
LINE
  5
    19
  8
0
  6
CONTINUOUS
 62
     3
 10
-13.6680812835693
 20
-75.0716217400615
 30
0.0
 11
-6.16808128356934
 21
-75.0716217400615
 31
0.0
  0
LINE
  5
    1A
  8
0
  6
CONTINUOUS
 62
     3
 10
-16.6225045607763
 20
-75.5925661700132
 30
0.0
 11
-13.6680812835693
 21
-75.0716217400615
 31
0.0
  0
LINE
  5
    1B
  8
0
  6
CONTINUOUS
 62
     3
 10
-13.6680812835693
 20
-75.0716217400615
 30
0.0
 11
-16.6225045607763
 21
-74.5506773101099
 31
0.0
  0
LINE
  5
    1C
  8
0
  6
CONTINUOUS
 62
     3
 10
-3.21365800636238
 20
-74.5506773101099
 30
0.0
 11
-6.16808128356934
 21
-75.0716217400615
 31
0.0
  0
LINE
  5
    1D
  8
0
  6
CONTINUOUS
 62
     3
 10
-6.16808128356934
 20
-75.0716217400615
 30
0.0
 11
-3.21365800636238
 21
-75.5925661700132
 31
0.0
  0
ENDBLK
  5
    1E
  8
0
  6
CONTINUOUS
 62
     3
  0
BLOCK
  5
    1F
  8
0
  6
CONTINUOUS
 62
     3
  2
*UDIM2
 70
    65
 10
0.0
 20
0.0
 30
0.0
  3
*UDIM2
  0
TEXT
  5
    20
  8
0
  6
CONTINUOUS
 62
     3
 10
47.2560008159819
 20
-137.031004197497
 30
0.0
 40
3.00000002980232
  1
144
 50
449.999999844103
 41
0.933333333333333
 72
     1
 11
45.7560008116678
 21
-133.131004154682
 31
0.0
 73
     2
  0
LINE
  5
    21
  8
0
  6
CONTINUOUS
 62
     3
 10
-1.16808128356934
 20
-96.8560028076172
 30
0.0
 11
50.256000826569
 21
-96.8560028076172
 31
0.0
  0
LINE
  5
    22
  8
0
  6
CONTINUOUS
 62
     3
 10
-8.66808128356934
 20
-168.856002807617
 30
0.0
 11
50.256000826569
 21
-168.856002807617
 31
0.0
  0
LINE
  5
    23
  8
0
  6
CONTINUOUS
 62
     3
 10
48.256000826569
 20
-96.8560028076172
 30
0.0
 11
48.256000826569
 21
-168.856002807617
 31
0.0
  0
LINE
  5
    24
  8
0
  6
CONTINUOUS
 62
     3
 10
48.7769452565207
 20
-99.8104260848242
 30
0.0
 11
48.256000826569
 21
-96.8560028076172
 31
0.0
  0
LINE
  5
    25
  8
0
  6
CONTINUOUS
 62
     3
 10
48.256000826569
 20
-96.8560028076172
 30
0.0
 11
47.7350563966173
 21
-99.8104260848242
 31
0.0
  0
LINE
  5
    26
  8
0
  6
CONTINUOUS
 62
     3
 10
47.7350563966173
 20
-165.90157953041
 30
0.0
 11
48.256000826569
 21
-168.856002807617
 31
0.0
  0
LINE
  5
    27
  8
0
  6
CONTINUOUS
 62
     3
 10
48.256000826569
 20
-168.856002807617
 30
0.0
 11
48.7769452565207
 21
-165.90157953041
 31
0.0
  0
ENDBLK
  5
    28
  8
0
  6
CONTINUOUS
 62
     3
  0
BLOCK
  5
    29
  8
0
  6
CONTINUOUS
 62
     3
  2
*UDIM3
 70
    65
 10
0.0
 20
0.0
 30
0.0
  3
*UDIM3
  0
TEXT
  5
    2A
  8
0
  6
CONTINUOUS
 62
     3
 10
33.4900139919673
 20
-135.631002753078
 30
0.0
 40
3.00000002980232
  1
35
 50
449.999999844103
 41
0.933333333333333
 72
     1
 11
31.9900139838527
 21
-133.131002724171
 31
0.0
 73
     2
  0
LINE
  5
    2B
  8
0
  6
CONTINUOUS
 62
     3
 10
6.33191871643066
 20
-124.106002807617
 30
0.0
 11
36.4900139987539
 21
-124.106002807617
 31
0.0
  0
LINE
  5
    2C
  8
0
  6
CONTINUOUS
 62
     3
 10
6.33191871643066
 20
-141.606002807617
 30
0.0
 11
36.4900139987539
 21
-141.606002807617
 31
0.0
  0
LINE
  5
    2D
  8
0
  6
CONTINUOUS
 62
     3
 10
34.4900139987539
 20
-124.106002807617
 30
0.0
 11
34.4900139987539
 21
-141.606002807617
 31
0.0
  0
LINE
  5
    2E
  8
0
  6
CONTINUOUS
 62
     3
 10
35.0109584287056
 20
-127.060426084824
 30
0.0
 11
34.4900139987539
 21
-124.106002807617
 31
0.0
  0
LINE
  5
    2F
  8
0
  6
CONTINUOUS
 62
     3
 10
34.4900139987539
 20
-124.106002807617
 30
0.0
 11
33.9690695688022
 21
-127.060426084824
 31
0.0
  0
LINE
  5
    30
  8
0
  6
CONTINUOUS
 62
     3
 10
33.9690695688022
 20
-138.65157953041
 30
0.0
 11
34.4900139987539
 21
-141.606002807617
 31
0.0
  0
LINE
  5
    31
  8
0
  6
CONTINUOUS
 62
     3
 10
34.4900139987539
 20
-141.606002807617
 30
0.0
 11
35.0109584287056
 21
-138.65157953041
 31
0.0
  0
ENDBLK
  5
    32
  8
0
  6
CONTINUOUS
 62
     3
  0
BLOCK
  5
    33
  8
0
  6
CONTINUOUS
 62
     3
  2
*UDIM4
 70
    65
 10
0.0
 20
0.0
 30
0.0
  3
*UDIM4
  0
TEXT
  5
    34
  8
0
  6
CONTINUOUS
 62
     3
 10
-23.9430800206044
 20
-56.3448486260228
 30
0.0
 40
3.00000002980232
  1
90
 50
359.999999844103
 41
0.933333333333333
 72
     1
 11
-21.4430799916954
 21
-54.8448486179113
 31
0.0
 73
     2
  0
LINE
  5
    35
  8
0
  6
CONTINUOUS
 62
     3
 10
-43.6680812835693
 20
-119.106002807617
 30
0.0
 11
-43.6680612678922
 21
-55.3448486328126
 31
0.0
  0
LINE
  5
    36
  8
0
  6
CONTINUOUS
 62
     3
 10
1.33191871643066
 20
-119.106002807617
 30
0.0
 11
1.33193873210777
 21
-55.3448486328126
 31
0.0
  0
LINE
  5
    37
  8
0
  6
CONTINUOUS
 62
     3
 10
-43.6680618957252
 20
-57.3448486328125
 30
0.0
 11
1.3319381042748
 21
-57.3448486328125
 31
0.0
  0
LINE
  5
    38
  8
0
  6
CONTINUOUS
 62
     3
 10
-40.7136386185182
 20
-56.8239042028608
 30
0.0
 11
-43.6680618957252
 21
-57.3448486328125
 31
0.0
  0
LINE
  5
    39
  8
0
  6
CONTINUOUS
 62
     3
 10
-43.6680618957252
 20
-57.3448486328125
 30
0.0
 11
-40.7136386185182
 21
-57.8657930627642
 31
0.0
  0
LINE
  5
    3A
  8
0
  6
CONTINUOUS
 62
     3
 10
-1.62248517293216
 20
-57.8657930627642
 30
0.0
 11
1.3319381042748
 21
-57.3448486328125
 31
0.0
  0
LINE
  5
    3B
  8
0
  6
CONTINUOUS
 62
     3
 10
1.3319381042748
 20
-57.3448486328125
 30
0.0
 11
-1.62248517293216
 21
-56.8239042028608
 31
0.0
  0
ENDBLK
  5
    3C
  8
0
  6
CONTINUOUS
 62
     3
  0
BLOCK
  5
    3D
  8
0
  6
CONTINUOUS
 62
     3
  2
*UDIM5
 70
    65
 10
0.0
 20
0.0
 30
0.0
  3
*UDIM5
  0
TEXT
  5
    3E
  8
0
  6
CONTINUOUS
 62
     3
 10
-23.9430771730818
 20
-63.2202758721165
 30
0.0
 40
3.00000002980232
  1
60
 50
359.999999844103
 41
0.933333333333333
 72
     1
 11
-21.4430771441727
 21
-61.7202758640051
 31
0.0
 73
     2
  0
LINE
  5
    3F
  8
0
  6
CONTINUOUS
 62
     3
 10
-36.1680812835693
 20
-91.8560028076172
 30
0.0
 11
-36.1680719804263
 21
-62.2202758789064
 31
0.0
  0
LINE
  5
    40
  8
0
  6
CONTINUOUS
 62
     3
 10
-6.16808128356934
 20
-91.8560028076172
 30
0.0
 11
-6.16807198042625
 21
-62.2202758789064
 31
0.0
  0
LINE
  5
    41
  8
0
  6
CONTINUOUS
 62
     3
 10
-36.1680726082592
 20
-64.2202758789063
 30
0.0
 11
-6.16807260825921
 21
-64.2202758789063
 31
0.0
  0
LINE
  5
    42
  8
0
  6
CONTINUOUS
 62
     3
 10
-33.2136493310523
 20
-63.6993314489546
 30
0.0
 11
-36.1680726082592
 21
-64.2202758789063
 31
0.0
  0
LINE
  5
    43
  8
0
  6
CONTINUOUS
 62
     3
 10
-36.1680726082592
 20
-64.2202758789063
 30
0.0
 11
-33.2136493310523
 21
-64.7412203088579
 31
0.0
  0
LINE
  5
    44
  8
0
  6
CONTINUOUS
 62
     3
 10
-9.12249588546618
 20
-64.7412203088579
 30
0.0
 11
-6.16807260825921
 21
-64.2202758789063
 31
0.0
  0
LINE
  5
    45
  8
0
  6
CONTINUOUS
 62
     3
 10
-6.16807260825921
 20
-64.2202758789063
 30
0.0
 11
-9.12249588546618
 21
-63.6993314489546
 31
0.0
  0
ENDBLK
  5
    46
  8
0
  6
CONTINUOUS
 62
     3
  0
BLOCK
  5
    47
  8
0
  6
CONTINUOUS
 62
     3
  2
*UDIM6
 70
    65
 10
0.0
 20
0.0
 30
0.0
  3
*UDIM6
  0
TEXT
  5
    48
  8
0
  6
CONTINUOUS
 62
     3
 10
-75.9308109351313
 20
-120.631001799404
 30
0.0
 40
3.00000002980232
  1
84
 50
449.999999844103
 41
0.933333333333333
 72
     1
 11
-77.4308109432459
 21
-118.131001770496
 31
0.0
 73
     2
  0
LINE
  5
    49
  8
0
  6
CONTINUOUS
 62
     3
 10
-11.1680812835693
 20
-96.8560028076172
 30
0.0
 11
-76.9308109283447
 21
-96.8560028076172
 31
0.0
  0
LINE
  5
    4A
  8
0
  6
CONTINUOUS
 62
     3
 10
-54.9549870339357
 20
-138.856002807617
 30
0.0
 11
-76.9308109283447
 21
-138.856002807617
 31
0.0
  0
LINE
  5
    4B
  8
0
  6
CONTINUOUS
 62
     3
 10
-74.9308109283447
 20
-96.8560028076172
 30
0.0
 11
-74.9308109283447
 21
-138.856002807617
 31
0.0
  0
LINE
  5
    4C
  8
0
  6
CONTINUOUS
 62
     3
 10
-74.4098664983931
 20
-99.8104260848242
 30
0.0
 11
-74.9308109283447
 21
-96.8560028076172
 31
0.0
  0
LINE
  5
    4D
  8
0
  6
CONTINUOUS
 62
     3
 10
-74.9308109283447
 20
-96.8560028076172
 30
0.0
 11
-75.4517553582964
 21
-99.8104260848242
 31
0.0
  0
LINE
  5
    4E
  8
0
  6
CONTINUOUS
 62
     3
 10
-75.4517553582964
 20
-135.90157953041
 30
0.0
 11
-74.9308109283447
 21
-138.856002807617
 31
0.0
  0
LINE
  5
    4F
  8
0
  6
CONTINUOUS
 62
     3
 10
-74.9308109283447
 20
-138.856002807617
 30
0.0
 11
-74.4098664983931
 21
-135.90157953041
 31
0.0
  0
ENDBLK
  5
    50
  8
0
  6
CONTINUOUS
 62
     3
  0
BLOCK
  5
    51
  8
0
  6
CONTINUOUS
 62
     3
  2
*UDIM7
 70
    65
 10
0.0
 20
0.0
 30
0.0
  3
*UDIM7
  0
TEXT
  5
    52
  8
0
  6
CONTINUOUS
 62
     3
 10
-7.70077134237417
 20
-135.906004376311
 30
0.0
 40
3.00000002980232
  1
5,5
 50
449.999999844103
 41
0.933333333333333
 72
     1
 11
-9.20077134668827
 21
-132.006004333496
 31
0.0
 73
     2
  0
LINE
  5
    53
  8
0
  6
CONTINUOUS
 62
     3
 10
-3.66808128356934
 20
-141.606002807617
 30
0.0
 11
-8.70077133178711
 21
-141.606002807617
 31
0.0
  0
LINE
  5
    54
  8
0
  6
CONTINUOUS
 62
     3
 10
-6.70077133178711
 20
-128.106004294753
 30
0.0
 11
-6.70077133178711
 21
-141.606002807617
 31
0.0
  0
LINE
  5
    55
  8
0
  6
CONTINUOUS
 62
     3
 10
-7.22171576173877
 20
-135.90157953041
 30
0.0
 11
-6.70077133178711
 21
-138.856002807617
 31
0.0
  0
LINE
  5
    56
  8
0
  6
CONTINUOUS
 62
     3
 10
-6.70077133178711
 20
-138.856002807617
 30
0.0
 11
-6.17982690183544
 21
-135.90157953041
 31
0.0
  0
LINE
  5
    57
  8
0
  6
CONTINUOUS
 62
     3
 10
-6.17982690183545
 20
-144.560426084824
 30
0.0
 11
-6.70077133178711
 21
-141.606002807617
 31
0.0
  0
LINE
  5
    58
  8
0
  6
CONTINUOUS
 62
     3
 10
-6.70077133178711
 20
-141.606002807617
 30
0.0
 11
-7.22171576173877
 21
-144.560426084824
 31
0.0
  0
ENDBLK
  5
    59
  8
0
  6
CONTINUOUS
 62
     3
  0
BLOCK
  5
    5A
  8
0
  6
CONTINUOUS
 62
     7
  2
*UDIM8
 70
    65
 10
0.0
 20
0.0
 30
0.0
  3
*UDIM8
  0
TEXT
  5
    5B
  8
0
  6
CONTINUOUS
 62
     7
 10
17.3053196535204
 20
-73.079469387219
 30
0.0
 40
3.00000002980232
  1
4.5
 50
403.652465054733
 41
0.933333333333333
 72
     1
 11
19.0917024345989
 21
-69.3020579843711
 31
0.0
 73
     2
  0
TEXT
  5
    5C
  8
0
  6
CONTINUOUS
 62
     7
 10
14.4111593174968
 20
-75.8405989002637
 30
0.0
 40
3.00000002980232
  1
Ø
 50
403.652465054733
 41
1.2
 72
     1
 11
14.4610458854512
 21
-73.7198652018129
 31
0.0
 73
     2
  0
TEXT
  5
    5D
  8
0
  6
CONTINUOUS
 62
     7
 10
6.01809430920409
 20
-83.847874479983
 30
0.0
 40
3.00000002980232
  1
M4 o
 50
403.652465054733
 41
0.933333333333333
 72
     1
 11
8.81743321460505
 21
-79.1040677495701
 31
0.0
 73
     2
  0
LINE
  5
    5E
  8
0
  6
CONTINUOUS
 62
     7
 10
23.6392147137503
 20
-68.4188069171947
 30
0.0
 11
-7.61516144304872
 21
-98.236567551496
 31
0.0
  0
LINE
  5
    5F
  8
0
  6
CONTINUOUS
 62
     3
 10
-3.88385774743696
 20
-93.603637855248
 30
0.0
 11
-5.44454120382968
 21
-96.1657204356778
 31
0.0
  0
LINE
  5
    60
  8
0
  6
CONTINUOUS
 62
     3
 10
-5.44454120382968
 20
-96.1657204356778
 30
0.0
 11
-2.81190837215314
 21
-94.727233600987
 31
0.0
  0
ENDBLK
  5
    61
  8
0
  6
CONTINUOUS
 62
     7
  0
BLOCK
  5
    62
  8
0
  6
CONTINUOUS
 62
     3
  2
*UDIM9
 70
    65
 10
0.0
 20
0.0
 30
0.0
  3
*UDIM9
  0
TEXT
  5
    63
  8
0
  6
CONTINUOUS
 62
     3
 10
41.2169711759726
 20
-141.477370291053
 30
0.0
 40
3.00000002980232
  1
60
 50
449.999999844103
 41
0.933333333333333
 72
     1
 11
39.716971167858
 21
-138.977370262146
 31
0.0
 73
     2
  0
TEXT
  5
    64
  8
0
  6
CONTINUOUS
 62
     3
 10
41.2169711683716
 20
-135.477370241383
 30
0.0
 40
3.00000002980232
  1
 MAX
 50
449.999999844103
 41
0.933333333333333
 72
     1
 11
39.716971167858
 21
-130.17737018466
 31
0.0
 73
     2
  0
LINE
  5
    65
  8
0
  6
CONTINUOUS
 62
     3
 10
15.9515951882318
 20
-117.856002807617
 30
0.0
 11
44.2169711827591
 21
-117.856002807617
 31
0.0
  0
LINE
  5
    66
  8
0
  6
CONTINUOUS
 62
     3
 10
16.1351115378477
 20
-147.856002807617
 30
0.0
 11
44.2169711827591
 21
-147.856002807617
 31
0.0
  0
LINE
  5
    67
  8
0
  6
CONTINUOUS
 62
     3
 10
42.2169711827591
 20
-117.856002807617
 30
0.0
 11
42.2169711827591
 21
-147.856002807617
 31
0.0
  0
LINE
  5
    68
  8
0
  6
CONTINUOUS
 62
     3
 10
42.9934283391777
 20
-120.753780280828
 30
0.0
 11
42.2169711827591
 21
-117.856002807617
 31
0.0
  0
LINE
  5
    69
  8
0
  6
CONTINUOUS
 62
     3
 10
42.2169711827591
 20
-117.856002807617
 30
0.0
 11
41.4405140263406
 21
-120.753780280828
 31
0.0
  0
LINE
  5
    6A
  8
0
  6
CONTINUOUS
 62
     3
 10
41.4405140263406
 20
-144.958225334407
 30
0.0
 11
42.2169711827591
 21
-147.856002807617
 31
0.0
  0
LINE
  5
    6B
  8
0
  6
CONTINUOUS
 62
     3
 10
42.2169711827591
 20
-147.856002807617
 30
0.0
 11
42.9934283391777
 21
-144.958225334407
 31
0.0
  0
ENDBLK
  5
    6C
  8
0
  6
CONTINUOUS
 62
     3
  0
BLOCK
  5
    6D
  8
0
  6
CONTINUOUS
 62
     7
  2
*UDIM10
 70
    65
 10
0.0
 20
0.0
 30
0.0
  3
*UDIM10
  0
TEXT
  5
    6E
  8
0
  6
CONTINUOUS
 62
     7
 10
56.6017723038305
 20
-93.5362685598229
 30
0.0
 40
3.00000002980232
  1
30
 50
449.999999896069
 41
0.933333333333333
 72
     1
 11
55.1017722934484
 21
-91.0362685322762
 31
0.0
 73
     2
  0
LINE
  5
    6F
  8
0
  6
CONTINUOUS
 62
     3
 10
63.8292120963979
 20
-83.2612686157227
 30
0.0
 11
55.6017723083496
 21
-83.2612686157227
 31
0.0
  0
LINE
  5
    70
  8
0
  6
CONTINUOUS
 62
     3
 10
59.6409019229587
 20
-98.2612686157227
 30
0.0
 11
55.6017723083496
 21
-98.2612686157227
 31
0.0
  0
LINE
  5
    71
  8
0
  6
CONTINUOUS
 62
     3
 10
57.6017723083496
 20
-83.2612686157227
 30
0.0
 11
57.6017723083496
 21
-98.2612686157227
 31
0.0
  0
LINE
  5
    72
  8
0
  6
CONTINUOUS
 62
     3
 10
58.1227167383013
 20
-86.2156918929296
 30
0.0
 11
57.6017723083496
 21
-83.2612686157227
 31
0.0
  0
LINE
  5
    73
  8
0
  6
CONTINUOUS
 62
     3
 10
57.6017723083496
 20
-83.2612686157227
 30
0.0
 11
57.080827878398
 21
-86.2156918929296
 31
0.0
  0
LINE
  5
    74
  8
0
  6
CONTINUOUS
 62
     3
 10
57.080827878398
 20
-95.3068453385157
 30
0.0
 11
57.6017723083496
 21
-98.2612686157227
 31
0.0
  0
LINE
  5
    75
  8
0
  6
CONTINUOUS
 62
     3
 10
57.6017723083496
 20
-98.2612686157227
 30
0.0
 11
58.1227167383013
 21
-95.3068453385157
 31
0.0
  0
ENDBLK
  5
    76
  8
0
  6
CONTINUOUS
 62
     7
  0
BLOCK
  5
    77
  8
0
  6
CONTINUOUS
 62
     7
  2
*UDIM11
 70
    65
 10
0.0
 20
0.0
 30
0.0
  3
*UDIM11
  0
TEXT
  5
    78
  8
0
  6
CONTINUOUS
 62
     7
 10
56.6017723038305
 20
-108.536267606149
 30
0.0
 40
3.00000002980232
  1
30
 50
449.999999896069
 41
0.933333333333333
 72
     1
 11
55.1017722934484
 21
-106.036267578602
 31
0.0
 73
     2
  0
LINE
  5
    79
  8
0
  6
CONTINUOUS
 62
     3
 10
63.8292120963979
 20
-113.261268615723
 30
0.0
 11
55.6017723083496
 21
-113.261268615723
 31
0.0
  0
LINE
  5
    7A
  8
0
  6
CONTINUOUS
 62
     3
 10
57.6017723083496
 20
-98.2612686157227
 30
0.0
 11
57.6017723083496
 21
-113.261268615723
 31
0.0
  0
LINE
  5
    7B
  8
0
  6
CONTINUOUS
 62
     3
 10
58.1227167383013
 20
-101.21569189293
 30
0.0
 11
57.6017723083496
 21
-98.2612686157227
 31
0.0
  0
LINE
  5
    7C
  8
0
  6
CONTINUOUS
 62
     3
 10
57.6017723083496
 20
-98.2612686157227
 30
0.0
 11
57.080827878398
 21
-101.21569189293
 31
0.0
  0
LINE
  5
    7D
  8
0
  6
CONTINUOUS
 62
     3
 10
57.080827878398
 20
-110.306845338516
 30
0.0
 11
57.6017723083496
 21
-113.261268615723
 31
0.0
  0
LINE
  5
    7E
  8
0
  6
CONTINUOUS
 62
     3
 10
57.6017723083496
 20
-113.261268615723
 30
0.0
 11
58.1227167383013
 21
-110.306845338516
 31
0.0
  0
ENDBLK
  5
    7F
  8
0
  6
CONTINUOUS
 62
     7
  0
BLOCK
  5
    80
  8
0
  6
CONTINUOUS
 62
     3
  2
*UDIM12
 70
    65
 10
0.0
 20
0.0
 30
0.0
  3
*UDIM12
  0
TEXT
  5
    81
  8
0
  6
CONTINUOUS
 62
     3
 10
56.6017723038305
 20
-123.536269513497
 30
0.0
 40
3.00000002980232
  1
30
 50
449.999999896069
 41
0.933333333333333
 72
     1
 11
55.1017722934484
 21
-121.03626948595
 31
0.0
 73
     2
  0
LINE
  5
    82
  8
0
  6
CONTINUOUS
 62
     3
 10
64.8292120963979
 20
-113.261268615723
 30
0.0
 11
55.6017723083496
 21
-113.261268615723
 31
0.0
  0
LINE
  5
    83
  8
0
  6
CONTINUOUS
 62
     3
 10
63.3451543702745
 20
-128.261268615723
 30
0.0
 11
55.6017723083496
 21
-128.261268615723
 31
0.0
  0
LINE
  5
    84
  8
0
  6
CONTINUOUS
 62
     3
 10
57.6017723083496
 20
-113.261268615723
 30
0.0
 11
57.6017723083496
 21
-128.261268615723
 31
0.0
  0
LINE
  5
    85
  8
0
  6
CONTINUOUS
 62
     3
 10
58.1227167383013
 20
-116.21569189293
 30
0.0
 11
57.6017723083496
 21
-113.261268615723
 31
0.0
  0
LINE
  5
    86
  8
0
  6
CONTINUOUS
 62
     3
 10
57.6017723083496
 20
-113.261268615723
 30
0.0
 11
57.080827878398
 21
-116.21569189293
 31
0.0
  0
LINE
  5
    87
  8
0
  6
CONTINUOUS
 62
     3
 10
57.080827878398
 20
-125.306845338516
 30
0.0
 11
57.6017723083496
 21
-128.261268615723
 31
0.0
  0
LINE
  5
    88
  8
0
  6
CONTINUOUS
 62
     3
 10
57.6017723083496
 20
-128.261268615723
 30
0.0
 11
58.1227167383013
 21
-125.306845338516
 31
0.0
  0
ENDBLK
  5
    89
  8
0
  6
CONTINUOUS
 62
     3
  0
BLOCK
  5
    8A
  8
0
  6
CONTINUOUS
 62
     7
  2
*HATCH0
 70
    65
 10
0.0
 20
0.0
 30
0.0
  3
*HATCH0
  0
LINE
  5
    8B
  8
0
  6
CONTINUOUS
 62
    12
 10
9.41289710998535
 20
-20.6999988555908
 30
0.0
 11
8.38521766662598
 21
-20.6999988555908
 31
0.0
  0
ENDBLK
  5
    8C
  8
0
  6
CONTINUOUS
 62
     7
  0
BLOCK
  5
    8D
  8
0
  6
CONTINUOUS
 62
     3
  2
*UDIM13
 70
    65
 10
0.0
 20
0.0
 30
0.0
  3
*UDIM13
  0
TEXT
  5
    8E
  8
0
  6
CONTINUOUS
 62
     3
 10
-25.0680804489748
 20
59.9946479928107
 30
0.0
 40
3.00000002980232
  1
120
 50
359.999999844103
 41
0.933333333333333
 72
     1
 11
-21.1680804061579
 21
61.4946479971199
 31
0.0
 73
     2
  0
LINE
  5
    8F
  8
0
  6
CONTINUOUS
 62
     3
 10
-51.1680703978254
 20
47.4360217285156
 30
0.0
 11
-51.1680707273011
 21
60.9946479822188
 31
0.0
  0
LINE
  5
    90
  8
0
  6
CONTINUOUS
 62
     3
 10
8.83191323683553
 20
47.4360217285156
 30
0.0
 11
8.83190928319292
 21
60.9946479822187
 31
0.0
  0
LINE
  5
    91
  8
0
  6
CONTINUOUS
 62
     3
 10
-51.168070678701
 20
58.9946479822188
 30
0.0
 11
8.83190986638513
 21
58.9946479822188
 31
0.0
  0
LINE
  5
    92
  8
0
  6
CONTINUOUS
 62
     3
 10
-48.2702932054904
 20
59.7711051386373
 30
0.0
 11
-51.168070678701
 21
58.9946479822188
 31
0.0
  0
LINE
  5
    93
  8
0
  6
CONTINUOUS
 62
     3
 10
-51.168070678701
 20
58.9946479822188
 30
0.0
 11
-48.2702932054904
 21
58.2181908258002
 31
0.0
  0
LINE
  5
    94
  8
0
  6
CONTINUOUS
 62
     3
 10
5.9341323931746
 20
58.2181908258002
 30
0.0
 11
8.83190986638513
 21
58.9946479822188
 31
0.0
  0
LINE
  5
    95
  8
0
  6
CONTINUOUS
 62
     3
 10
8.83190986638513
 20
58.9946479822188
 30
0.0
 11
5.9341323931746
 21
59.7711051386373
 31
0.0
  0
ENDBLK
  5
    96
  8
0
  6
CONTINUOUS
 62
     3
  0
BLOCK
  5
    97
  8
0
  6
CONTINUOUS
 62
     3
  2
*UDIM14
 70
    65
 10
0.0
 20
0.0
 30
0.0
  3
*UDIM14
  0
TEXT
  5
    98
  8
0
  6
CONTINUOUS
 62
     3
 10
-25.0681309174506
 20
67.3550738443216
 30
0.0
 40
3.00000002980232
  1
133
 50
359.999999844103
 41
0.933333333333333
 72
     1
 11
-21.1681308746338
 21
68.8550738486308
 31
0.0
 73
     2
  0
LINE
  5
    99
  8
0
  6
CONTINUOUS
 62
     3
 10
-54.4181308746338
 20
24.8114471435547
 30
0.0
 11
-54.4181308746338
 21
68.3550738337297
 31
0.0
  0
LINE
  5
    9A
  8
0
  6
CONTINUOUS
 62
     3
 10
12.0818691253662
 20
24.8114471435547
 30
0.0
 11
12.0818691253662
 21
68.3550738337297
 31
0.0
  0
LINE
  5
    9B
  8
0
  6
CONTINUOUS
 62
     3
 10
-54.4181308746338
 20
66.3550738337297
 30
0.0
 11
12.0818691253662
 21
66.3550738337297
 31
0.0
  0
LINE
  5
    9C
  8
0
  6
CONTINUOUS
 62
     3
 10
-51.5203534014233
 20
67.1315309901482
 30
0.0
 11
-54.4181308746338
 21
66.3550738337297
 31
0.0
  0
LINE
  5
    9D
  8
0
  6
CONTINUOUS
 62
     3
 10
-54.4181308746338
 20
66.3550738337297
 30
0.0
 11
-51.5203534014233
 21
65.5786166773111
 31
0.0
  0
LINE
  5
    9E
  8
0
  6
CONTINUOUS
 62
     3
 10
9.18409165215568
 20
65.5786166773111
 30
0.0
 11
12.0818691253662
 21
66.3550738337297
 31
0.0
  0
LINE
  5
    9F
  8
0
  6
CONTINUOUS
 62
     3
 10
12.0818691253662
 20
66.3550738337297
 30
0.0
 11
9.18409165215568
 21
67.1315309901482
 31
0.0
  0
ENDBLK
  5
    A0
  8
0
  6
CONTINUOUS
 62
     3
  0
BLOCK
  5
    A1
  8
0
  6
CONTINUOUS
 62
     3
  2
*UDIM15
 70
    65
 10
0.0
 20
0.0
 30
0.0
  3
*UDIM15
  0
TEXT
  5
    A2
  8
0
  6
CONTINUOUS
 62
     3
 10
-74.3967125330454
 20
-2.06355288535253
 30
0.0
 40
3.00000002980232
  1
96
 50
449.999999844103
 41
0.933333333333333
 72
     1
 11
-75.89671254116
 21
0.436447143554688
 31
0.0
 73
     2
  0
LINE
  5
    A3
  8
0
  6
CONTINUOUS
 62
     3
 10
-54.7931308746338
 20
24.4364471435547
 30
0.0
 11
-75.3967125262588
 21
24.4364471435547
 31
0.0
  0
LINE
  5
    A4
  8
0
  6
CONTINUOUS
 62
     3
 10
-54.7931308746338
 20
-23.5635528564453
 30
0.0
 11
-75.3967125262588
 21
-23.5635528564453
 31
0.0
  0
LINE
  5
    A5
  8
0
  6
CONTINUOUS
 62
     3
 10
-73.3967125262588
 20
24.4364471435547
 30
0.0
 11
-73.3967125262588
 21
-23.5635528564453
 31
0.0
  0
LINE
  5
    A6
  8
0
  6
CONTINUOUS
 62
     3
 10
-72.6202553698403
 20
21.5386696703442
 30
0.0
 11
-73.3967125262588
 21
24.4364471435547
 31
0.0
  0
LINE
  5
    A7
  8
0
  6
CONTINUOUS
 62
     3
 10
-73.3967125262588
 20
24.4364471435547
 30
0.0
 11
-74.1731696826774
 21
21.5386696703442
 31
0.0
  0
LINE
  5
    A8
  8
0
  6
CONTINUOUS
 62
     3
 10
-74.1731696826774
 20
-20.6657753832348
 30
0.0
 11
-73.3967125262588
 21
-23.5635528564453
 31
0.0
  0
LINE
  5
    A9
  8
0
  6
CONTINUOUS
 62
     3
 10
-73.3967125262588
 20
-23.5635528564453
 30
0.0
 11
-72.6202553698403
 21
-20.6657753832348
 31
0.0
  0
ENDBLK
  5
    AA
  8
0
  6
CONTINUOUS
 62
     3
  0
BLOCK
  5
    AB
  8
0
  6
CONTINUOUS
 62
     3
  2
*UDIM16
 70
    65
 10
0.0
 20
0.0
 30
0.0
  3
*UDIM16
  0
TEXT
  5
    AC
  8
0
  6
CONTINUOUS
 62
     3
 10
-81.7571383883568
 20
2.01102345476651
 30
0.0
 40
3.00000002980232
  1
163
 50
449.999999844103
 41
0.933333333333333
 72
     1
 11
-83.2571383926709
 21
5.91102349758148
 31
0.0
 73
     2
  0
LINE
  5
    AD
  8
0
  6
CONTINUOUS
 62
     3
 10
-50.6680703735253
 20
46.9360218048096
 30
0.0
 11
-82.7571383777697
 21
46.9360218048096
 31
0.0
  0
LINE
  5
    AE
  8
0
  6
CONTINUOUS
 62
     3
 10
-50.6680580902027
 20
-34.5639781951904
 30
0.0
 11
-82.7571383777697
 21
-34.5639781951904
 31
0.0
  0
LINE
  5
    AF
  8
0
  6
CONTINUOUS
 62
     3
 10
-80.7571383777697
 20
46.9360218048096
 30
0.0
 11
-80.7571383777697
 21
-34.5639781951904
 31
0.0
  0
LINE
  5
    B0
  8
0
  6
CONTINUOUS
 62
     3
 10
-80.2361939478181
 20
43.9815985276026
 30
0.0
 11
-80.7571383777697
 21
46.9360218048096
 31
0.0
  0
LINE
  5
    B1
  8
0
  6
CONTINUOUS
 62
     3
 10
-80.7571383777697
 20
46.9360218048096
 30
0.0
 11
-81.2780828077214
 21
43.9815985276026
 31
0.0
  0
LINE
  5
    B2
  8
0
  6
CONTINUOUS
 62
     3
 10
-81.2780828077214
 20
-31.6095549179835
 30
0.0
 11
-80.7571383777697
 21
-34.5639781951904
 31
0.0
  0
LINE
  5
    B3
  8
0
  6
CONTINUOUS
 62
     3
 10
-80.7571383777697
 20
-34.5639781951904
 30
0.0
 11
-80.2361939478181
 21
-31.6095549179835
 31
0.0
  0
ENDBLK
  5
    B4
  8
0
  6
CONTINUOUS
 62
     3
  0
BLOCK
  5
    B5
  8
0
  6
CONTINUOUS
 62
     3
  2
*UDIM17
 70
    65
 10
0.0
 20
0.0
 30
0.0
  3
*UDIM17
  0
TEXT
  5
    B6
  8
0
  6
CONTINUOUS
 62
     3
 10
22.2380576065862
 20
-19.8389455369117
 30
0.0
 40
3.00000002980232
  1
70
 50
449.999999844103
 41
0.933333333333333
 72
     1
 11
20.7380575984716
 21
-17.3389455080045
 31
0.0
 73
     2
  0
LINE
  5
    B7
  8
0
  6
CONTINUOUS
 62
     3
 10
11.2198817578178
 20
0.436085879800181
 30
0.0
 11
25.2380576133728
 21
0.436085879800181
 31
0.0
  0
LINE
  5
    B8
  8
0
  6
CONTINUOUS
 62
     3
 10
8.331901245109
 20
-34.5639781951904
 30
0.0
 11
25.2380576133728
 21
-34.5639781951904
 31
0.0
  0
LINE
  5
    B9
  8
0
  6
CONTINUOUS
 62
     3
 10
23.2380576133728
 20
0.436085879800181
 30
0.0
 11
23.2380576133728
 21
-34.5639781951904
 31
0.0
  0
LINE
  5
    BA
  8
0
  6
CONTINUOUS
 62
     3
 10
23.7590020433245
 20
-2.51833739740678
 30
0.0
 11
23.2380576133728
 21
0.436085879800181
 31
0.0
  0
LINE
  5
    BB
  8
0
  6
CONTINUOUS
 62
     3
 10
23.2380576133728
 20
0.436085879800181
 30
0.0
 11
22.7171131834211
 21
-2.51833739740678
 31
0.0
  0
LINE
  5
    BC
  8
0
  6
CONTINUOUS
 62
     3
 10
22.7171131834211
 20
-31.6095549179835
 30
0.0
 11
23.2380576133728
 21
-34.5639781951904
 31
0.0
  0
LINE
  5
    BD
  8
0
  6
CONTINUOUS
 62
     3
 10
23.2380576133728
 20
-34.5639781951904
 30
0.0
 11
23.7590020433245
 21
-31.6095549179835
 31
0.0
  0
ENDBLK
  5
    BE
  8
0
  6
CONTINUOUS
 62
     3
  0
BLOCK
  5
    BF
  8
0
  6
CONTINUOUS
 62
     3
  2
*UDIM18
 70
    65
 10
0.0
 20
0.0
 30
0.0
  3
*UDIM18
  0
TEXT
  5
    C0
  8
0
  6
CONTINUOUS
 62
     3
 10
-67.9495573111689
 20
-2.33891406565756
 30
0.0
 40
3.00000002980232
  1
45
 50
449.999999844103
 41
0.933333333333333
 72
     1
 11
-69.4495573192835
 21
0.161085963249654
 31
0.0
 73
     2
  0
TEXT
  5
    C1
  8
0
  6
CONTINUOUS
 62
     3
 10
-63.4495573167339
 20
-4.38891404150095
 30
0.0
 40
3.5
  1
= =
 50
449.999999844103
 41
0.933333333333333
 72
     1
 11
-65.1995573043823
 21
0.161085963249654
 31
0.0
 73
     2
  0
LINE
  5
    C2
  8
0
  6
CONTINUOUS
 62
     3
 10
-51.168065071107
 20
11.6860858798002
 30
0.0
 11
-68.9495573043823
 21
11.6860858798002
 31
0.0
  0
LINE
  5
    C3
  8
0
  6
CONTINUOUS
 62
     3
 10
-51.1680616378801
 20
-10.8139141201939
 30
0.0
 11
-68.9495573043823
 21
-10.8139141201939
 31
0.0
  0
LINE
  5
    C4
  8
0
  6
CONTINUOUS
 62
     3
 10
-66.9495573043823
 20
11.6860858798002
 30
0.0
 11
-66.9495573043823
 21
-10.8139141201939
 31
0.0
  0
LINE
  5
    C5
  8
0
  6
CONTINUOUS
 62
     3
 10
-66.4286128744307
 20
8.73166260259322
 30
0.0
 11
-66.9495573043823
 21
11.6860858798002
 31
0.0
  0
LINE
  5
    C6
  8
0
  6
CONTINUOUS
 62
     3
 10
-66.9495573043823
 20
11.6860858798002
 30
0.0
 11
-67.470501734334
 21
8.73166260259322
 31
0.0
  0
LINE
  5
    C7
  8
0
  6
CONTINUOUS
 62
     3
 10
-67.470501734334
 20
-7.85949084298692
 30
0.0
 11
-66.9495573043823
 21
-10.8139141201939
 31
0.0
  0
LINE
  5
    C8
  8
0
  6
CONTINUOUS
 62
     3
 10
-66.9495573043823
 20
-10.8139141201939
 30
0.0
 11
-66.4286128744307
 21
-7.85949084298692
 31
0.0
  0
ENDBLK
  5
    C9
  8
0
  6
CONTINUOUS
 62
     3
  0
BLOCK
  5
    CA
  8
0
  6
CONTINUOUS
 62
     3
  2
*UDIM19
 70
    65
 10
0.0
 20
0.0
 30
0.0
  3
*UDIM19
  0
TEXT
  5
    CB
  8
0
  6
CONTINUOUS
 62
     3
 10
174.553271739011
 20
-2.05130427893147
 30
0.0
 40
2.99999994039535
  1
64
 50
449.999999844103
 41
0.933333333333333
 72
     1
 11
173.0532717756
 21
0.448695675469935
 31
0.0
 73
     2
  0
LINE
  5
    CC
  8
0
  6
CONTINUOUS
 62
     3
 10
184.004308849573
 20
19.6360340118408
 30
0.0
 11
173.553271745797
 21
19.6360340118408
 31
0.0
  0
LINE
  5
    CD
  8
0
  6
CONTINUOUS
 62
     3
 10
184.004308849573
 20
-18.7639675140381
 30
0.0
 11
173.553271745797
 21
-18.7639675140381
 31
0.0
  0
LINE
  5
    CE
  8
0
  6
CONTINUOUS
 62
     3
 10
175.553271745797
 20
19.6360340118408
 30
0.0
 11
175.553271745797
 21
-18.7639675140381
 31
0.0
  0
LINE
  5
    CF
  8
0
  6
CONTINUOUS
 62
     3
 10
176.329728902216
 20
16.7382565386303
 30
0.0
 11
175.553271745797
 21
19.6360340118408
 31
0.0
  0
LINE
  5
    D0
  8
0
  6
CONTINUOUS
 62
     3
 10
175.553271745797
 20
19.6360340118408
 30
0.0
 11
174.776814589379
 21
16.7382565386303
 31
0.0
  0
LINE
  5
    D1
  8
0
  6
CONTINUOUS
 62
     3
 10
174.776814589379
 20
-15.8661900408276
 30
0.0
 11
175.553271745797
 21
-18.7639675140381
 31
0.0
  0
LINE
  5
    D2
  8
0
  6
CONTINUOUS
 62
     3
 10
175.553271745797
 20
-18.7639675140381
 30
0.0
 11
176.329728902216
 21
-15.8661900408276
 31
0.0
  0
ENDBLK
  5
    D3
  8
0
  6
CONTINUOUS
 62
     3
  0
BLOCK
  5
    D4
  8
0
  6
CONTINUOUS
 62
     3
  2
*UDIM20
 70
    65
 10
0.0
 20
0.0
 30
0.0
  3
*UDIM20
  0
TEXT
  5
    D5
  8
0
  6
CONTINUOUS
 62
     3
 10
223.433297504881
 20
-5.57375877440839
 30
0.0
 40
2.99999994039535
  1
128
 50
359.999999844103
 41
0.933333333333333
 72
     1
 11
227.333297431469
 21
-4.07375881480267
 31
0.0
 73
     2
  0
LINE
  5
    D6
  8
0
  6
CONTINUOUS
 62
     3
 10
189.534309029579
 20
-6.57375878500034
 30
0.0
 11
266.334312081337
 21
-6.57375878500034
 31
0.0
  0
LINE
  5
    D7
  8
0
  6
CONTINUOUS
 62
     3
 10
192.43208650279
 20
-5.7973016285818
 30
0.0
 11
189.534309029579
 21
-6.57375878500034
 31
0.0
  0
LINE
  5
    D8
  8
0
  6
CONTINUOUS
 62
     3
 10
189.534309029579
 20
-6.57375878500034
 30
0.0
 11
192.43208650279
 21
-7.35021594141889
 31
0.0
  0
LINE
  5
    D9
  8
0
  6
CONTINUOUS
 62
     3
 10
263.436534608126
 20
-7.35021594141888
 30
0.0
 11
266.334312081337
 21
-6.57375878500034
 31
0.0
  0
LINE
  5
    DA
  8
0
  6
CONTINUOUS
 62
     3
 10
266.334312081337
 20
-6.57375878500034
 30
0.0
 11
263.436534608126
 21
-5.7973016285818
 31
0.0
  0
ENDBLK
  5
    DB
  8
0
  6
CONTINUOUS
 62
     3
  0
BLOCK
  5
    DC
  8
0
  6
CONTINUOUS
 62
     3
  2
*UDIM21
 70
    65
 10
0.0
 20
0.0
 30
0.0
  3
*UDIM21
  0
TEXT
  5
    DD
  8
0
  6
CONTINUOUS
 62
     3
 10
284.740940718638
 20
-2.05130427893147
 30
0.0
 40
2.99999994039535
  1
53
 50
449.999999844103
 41
0.933333333333333
 72
     1
 11
283.240940755227
 21
0.448695675469935
 31
0.0
 73
     2
  0
LINE
  5
    DE
  8
0
  6
CONTINUOUS
 62
     3
 10
266.434312045574
 20
16.3360338807106
 30
0.0
 11
287.740940725424
 21
16.3360338807106
 31
0.0
  0
LINE
  5
    DF
  8
0
  6
CONTINUOUS
 62
     3
 10
266.434312045574
 20
-15.4639673829079
 30
0.0
 11
287.740940725424
 21
-15.4639673829079
 31
0.0
  0
LINE
  5
    E0
  8
0
  6
CONTINUOUS
 62
     3
 10
285.740940725424
 20
16.3360338807106
 30
0.0
 11
285.740940725424
 21
-15.4639673829079
 31
0.0
  0
LINE
  5
    E1
  8
0
  6
CONTINUOUS
 62
     3
 10
286.517397881843
 20
13.4382564075001
 30
0.0
 11
285.740940725424
 21
16.3360338807106
 31
0.0
  0
LINE
  5
    E2
  8
0
  6
CONTINUOUS
 62
     3
 10
285.740940725424
 20
16.3360338807106
 30
0.0
 11
284.964483569006
 21
13.4382564075001
 31
0.0
  0
LINE
  5
    E3
  8
0
  6
CONTINUOUS
 62
     3
 10
284.964483569006
 20
-12.5661899096973
 30
0.0
 11
285.740940725424
 21
-15.4639673829079
 31
0.0
  0
LINE
  5
    E4
  8
0
  6
CONTINUOUS
 62
     3
 10
285.740940725424
 20
-15.4639673829079
 30
0.0
 11
286.517397881843
 21
-12.5661899096973
 31
0.0
  0
ENDBLK
  5
    E5
  8
0
  6
CONTINUOUS
 62
     3
  0
BLOCK
  5
    E6
  8
0
  6
CONTINUOUS
 62
     3
  2
*UDIM22
 70
    65
 10
0.0
 20
0.0
 30
0.0
  3
*UDIM22
  0
TEXT
  5
    E7
  8
0
  6
CONTINUOUS
 62
     3
 10
248.805531550161
 20
-28.3614824883562
 30
0.0
 40
2.99999994039535
  1
48
 50
359.999999844103
 41
0.933333333333333
 72
     1
 11
251.305531504564
 21
-26.8614825249482
 31
0.0
 73
     2
  0
LINE
  5
    E8
  8
0
  6
CONTINUOUS
 62
     3
 10
265.704312056303
 20
-25.1639677286148
 30
0.0
 11
265.704312056303
 21
-31.3614824951459
 31
0.0
  0
LINE
  5
    E9
  8
0
  6
CONTINUOUS
 62
     3
 10
236.934310913086
 20
-29.3614824951459
 30
0.0
 11
265.704312056303
 21
-29.3614824951459
 31
0.0
  0
LINE
  5
    EA
  8
0
  6
CONTINUOUS
 62
     3
 10
239.832088386297
 20
-28.5850253387274
 30
0.0
 11
236.934310913086
 21
-29.3614824951459
 31
0.0
  0
LINE
  5
    EB
  8
0
  6
CONTINUOUS
 62
     3
 10
236.934310913086
 20
-29.3614824951459
 30
0.0
 11
239.832088386297
 21
-30.1379396515644
 31
0.0
  0
LINE
  5
    EC
  8
0
  6
CONTINUOUS
 62
     3
 10
262.806534583093
 20
-30.1379396515644
 30
0.0
 11
265.704312056303
 21
-29.3614824951459
 31
0.0
  0
LINE
  5
    ED
  8
0
  6
CONTINUOUS
 62
     3
 10
265.704312056303
 20
-29.3614824951459
 30
0.0
 11
262.806534583093
 21
-28.5850253387274
 31
0.0
  0
ENDBLK
  5
    EE
  8
0
  6
CONTINUOUS
 62
     3
  0
BLOCK
  5
    EF
  8
0
  6
CONTINUOUS
 62
     3
  2
*UDIM23
 70
    65
 10
0.0
 20
0.0
 30
0.0
  3
*UDIM23
  0
TEXT
  5
    F0
  8
0
  6
CONTINUOUS
 62
     3
 10
221.93061846286
 20
-42.12436511377
 30
0.0
 40
2.99999994039535
  1
125.5
 50
359.999999844103
 41
0.933333333333333
 72
     1
 11
228.630618333817
 21
-40.6243651617688
 31
0.0
 73
     2
  0
LINE
  5
    F1
  8
0
  6
CONTINUOUS
 62
     3
 10
190.40430906415
 20
-25.1639677286148
 30
0.0
 11
190.40430906415
 21
-45.1243651319665
 31
0.0
  0
LINE
  5
    F2
  8
0
  6
CONTINUOUS
 62
     3
 10
265.704312056303
 20
-25.1639677286148
 30
0.0
 11
265.704312056303
 21
-45.1243651319665
 31
0.0
  0
LINE
  5
    F3
  8
0
  6
CONTINUOUS
 62
     3
 10
190.40430906415
 20
-43.1243651319665
 30
0.0
 11
265.704312056303
 21
-43.1243651319665
 31
0.0
  0
LINE
  5
    F4
  8
0
  6
CONTINUOUS
 62
     3
 10
193.30208653736
 20
-42.3479079755479
 30
0.0
 11
190.40430906415
 21
-43.1243651319665
 31
0.0
  0
LINE
  5
    F5
  8
0
  6
CONTINUOUS
 62
     3
 10
190.40430906415
 20
-43.1243651319665
 30
0.0
 11
193.30208653736
 21
-43.900822288385
 31
0.0
  0
LINE
  5
    F6
  8
0
  6
CONTINUOUS
 62
     3
 10
262.806534583093
 20
-43.900822288385
 30
0.0
 11
265.704312056303
 21
-43.1243651319665
 31
0.0
  0
LINE
  5
    F7
  8
0
  6
CONTINUOUS
 62
     3
 10
265.704312056303
 20
-43.1243651319665
 30
0.0
 11
262.806534583093
 21
-42.3479079755479
 31
0.0
  0
ENDBLK
  5
    F8
  8
0
  6
CONTINUOUS
 62
     3
  0
BLOCK
  5
    F9
  8
0
  6
CONTINUOUS
 62
     3
  2
*UDIM24
 70
    65
 10
0.0
 20
0.0
 30
0.0
  3
*UDIM24
  0
TEXT
  5
    FA
  8
0
  6
CONTINUOUS
 62
     3
 10
248.805531550161
 20
31.3716843657135
 30
0.0
 40
2.99999994039535
  1
48
 50
359.999999844103
 41
0.933333333333333
 72
     1
 11
251.305531504564
 21
32.8716843291214
 31
0.0
 73
     2
  0
LINE
  5
    FB
  8
0
  6
CONTINUOUS
 62
     3
 10
236.934310913086
 20
24.0472340863198
 30
0.0
 11
236.934310913086
 21
32.3716843589238
 31
0.0
  0
LINE
  5
    FC
  8
0
  6
CONTINUOUS
 62
     3
 10
265.704312056303
 20
26.0360342264175
 30
0.0
 11
265.704312056303
 21
32.3716843589238
 31
0.0
  0
LINE
  5
    FD
  8
0
  6
CONTINUOUS
 62
     3
 10
236.934310913086
 20
30.3716843589238
 30
0.0
 11
265.704312056303
 21
30.3716843589238
 31
0.0
  0
LINE
  5
    FE
  8
0
  6
CONTINUOUS
 62
     3
 10
239.832088386297
 20
31.1481415153423
 30
0.0
 11
236.934310913086
 21
30.3716843589238
 31
0.0
  0
LINE
  5
    FF
  8
0
  6
CONTINUOUS
 62
     3
 10
236.934310913086
 20
30.3716843589238
 30
0.0
 11
239.832088386297
 21
29.5952272025052
 31
0.0
  0
LINE
  5
   100
  8
0
  6
CONTINUOUS
 62
     3
 10
262.806534583093
 20
29.5952272025052
 30
0.0
 11
265.704312056303
 21
30.3716843589238
 31
0.0
  0
LINE
  5
   101
  8
0
  6
CONTINUOUS
 62
     3
 10
265.704312056303
 20
30.3716843589238
 30
0.0
 11
262.806534583093
 21
31.1481415153423
 31
0.0
  0
ENDBLK
  5
   102
  8
0
  6
CONTINUOUS
 62
     3
  0
BLOCK
  5
   103
  8
0
  6
CONTINUOUS
 62
     3
  2
*UDIM25
 70
    65
 10
0.0
 20
0.0
 30
0.0
  3
*UDIM25
  0
TEXT
  5
   104
  8
0
  6
CONTINUOUS
 62
     3
 10
198.008278257493
 20
28.6016579883322
 30
0.0
 40
2.99999994039535
  1
4
 50
404.818233515836
 41
0.933333333333333
 72
     1
 11
197.731269393889
 21
30.4410236268056
 31
0.0
 73
     2
  0
TEXT
  5
   105
  8
0
  6
CONTINUOUS
 62
     3
 10
196.057575643245
 20
26.6632931742559
 30
0.0
 40
2.99999994039535
  1
Ø
 50
404.818233515836
 41
0.933333333333333
 72
     1
 11
195.780566779641
 21
28.5026588127294
 31
0.0
 73
     2
  0
LINE
  5
   106
  8
0
  6
CONTINUOUS
 62
     3
 10
200.273700428764
 20
29.4430034687875
 30
0.0
 11
189.55309327892
 21
18.7902019945845
 31
0.0
  0
LINE
  5
   107
  8
0
  6
CONTINUOUS
 62
     3
 10
192.98404165715
 20
22.9338508669902
 30
0.0
 11
191.25552484938
 21
20.4818660290971
 31
0.0
  0
LINE
  5
   108
  8
0
  6
CONTINUOUS
 62
     3
 10
191.25552484938
 20
20.4818660290971
 30
0.0
 11
193.718427424742
 21
22.1947906930202
 31
0.0
  0
LINE
  5
   109
  8
0
  6
CONTINUOUS
 62
     3
 10
187.82457647115
 20
16.3382171566914
 30
0.0
 11
189.55309327892
 21
18.7902019945845
 31
0.0
  0
LINE
  5
   10A
  8
0
  6
CONTINUOUS
 62
     3
 10
189.55309327892
 20
18.7902019945845
 30
0.0
 11
187.090190703558
 21
17.0772773306615
 31
0.0
  0
ENDBLK
  5
   10B
  8
0
  6
CONTINUOUS
 62
     3
  0
BLOCK
  5
   10C
  8
0
  6
CONTINUOUS
 62
     7
  2
*UDIM26
 70
    65
 10
0.0
 20
0.0
 30
0.0
  3
*UDIM26
  0
TEXT
  5
   10D
  8
0
  6
CONTINUOUS
 62
     7
 10
256.383601146544
 20
7.6453581489119
 30
0.0
 40
2.99999994039535
  1
1.5
 50
405.524714423888
 41
0.933333333333333
 72
     1
 11
258.045618041134
 21
11.4791159853303
 31
0.0
 73
     2
  0
TEXT
  5
   10E
  8
0
  6
CONTINUOUS
 62
     7
 10
253.581195041123
 20
4.79114730465707
 30
0.0
 40
2.99999994039535
  1
R
 50
405.524714423888
 41
1.2
 72
     1
 11
253.561768273372
 21
6.91237865033363
 31
0.0
 73
     2
  0
LINE
  5
   10F
  8
0
  6
CONTINUOUS
 62
     7
 10
266.064853454791
 20
16.078231318966
 30
0.0
 11
254.294747767438
 21
4.0905457667523
 31
0.0
  0
LINE
  5
   110
  8
0
  6
CONTINUOUS
 62
     3
 10
264.588709216758
 20
13.4665272414484
 30
0.0
 11
266.064853454791
 21
16.078231318966
 31
0.0
  0
LINE
  5
   111
  8
0
  6
CONTINUOUS
 62
     3
 10
266.064853454791
 20
16.078231318966
 30
0.0
 11
263.480622984045
 21
14.5545013973383
 31
0.0
  0
ENDBLK
  5
   112
  8
0
  6
CONTINUOUS
 62
     7
  0
BLOCK
  5
   113
  8
0
  6
CONTINUOUS
 62
     2
  2
*HATCH1
 70
    65
 10
0.0
 20
0.0
 30
0.0
  3
*HATCH1
  0
LINE
  5
   114
  8
0
  6
CONTINUOUS
 62
   210
 10
-27.8999786376953
 20
102.146270751953
 30
0.0
 11
-26.0535907745361
 21
100.299880981445
 31
0.0
  0
LINE
  5
   115
  8
0
  6
CONTINUOUS
 62
   210
 10
-25.9322681427002
 20
102.299880981445
 30
0.0
 11
-23.9322719573975
 21
100.299880981445
 31
0.0
  0
LINE
  5
   116
  8
0
  6
CONTINUOUS
 62
   210
 10
-23.8109493255615
 20
102.299880981445
 30
0.0
 11
-19.8999786376953
 21
98.3889083862305
 31
0.0
  0
ENDBLK
  5
   117
  8
0
  6
CONTINUOUS
 62
     2
  0
BLOCK
  5
   118
  8
0
  6
CONTINUOUS
 62
     2
  2
*HATCH2
 70
    65
 10
0.0
 20
0.0
 30
0.0
  3
*HATCH2
  0
LINE
  5
   119
  8
0
  6
CONTINUOUS
 62
   210
 10
-27.8999786376953
 20
83.0543746948242
 30
0.0
 11
-25.8999805450439
 21
81.0543746948242
 31
0.0
  0
LINE
  5
   11A
  8
0
  6
CONTINUOUS
 62
   210
 10
-25.9028415679932
 20
85.2998809814453
 30
0.0
 11
-23.9028453826904
 21
83.2998809814453
 31
0.0
  0
LINE
  5
   11B
  8
0
  6
CONTINUOUS
 62
   210
 10
-24.8999786376953
 20
88.5396575927734
 30
0.0
 11
-23.6602020263672
 21
87.2998809814453
 31
0.0
  0
LINE
  5
   11C
  8
0
  6
CONTINUOUS
 62
   210
 10
-23.0388813018799
 20
88.7998809814453
 30
0.0
 11
-19.8999786376953
 21
85.6609725952148
 31
0.0
  0
ENDBLK
  5
   11D
  8
0
  6
CONTINUOUS
 62
     2
  0
BLOCK
  5
   11E
  8
0
  6
CONTINUOUS
 62
     2
  2
*HATCH3
 70
    65
 10
0.0
 20
0.0
 30
0.0
  3
*HATCH3
  0
LINE
  5
   11F
  8
0
  6
CONTINUOUS
 62
     3
 10
-45.3999786376953
 20
96.6653060913086
 30
0.0
 11
-43.4211235046387
 21
94.6864547729492
 31
0.0
  0
LINE
  5
   120
  8
0
  6
CONTINUOUS
 62
     3
 10
-44.9132308959961
 20
98.2998809814453
 30
0.0
 11
-43.3999786376953
 21
96.7866287231445
 31
0.0
  0
ENDBLK
  5
   121
  8
0
  6
CONTINUOUS
 62
     2
  0
BLOCK
  5
   122
  8
0
  6
CONTINUOUS
 62
     2
  2
*HATCH4
 70
    65
 10
0.0
 20
0.0
 30
0.0
  3
*HATCH4
  0
LINE
  5
   123
  8
0
  6
CONTINUOUS
 62
     3
 10
-45.3999786376953
 20
88.1800231933594
 30
0.0
 11
-43.5198364257813
 21
86.2998809814453
 31
0.0
  0
LINE
  5
   124
  8
0
  6
CONTINUOUS
 62
     3
 10
-45.0119476318359
 20
89.9133071899414
 30
0.0
 11
-43.3999786376953
 21
88.3013381958008
 31
0.0
  0
ENDBLK
  5
   125
  8
0
  6
CONTINUOUS
 62
     2
  0
BLOCK
  5
   126
  8
0
  6
CONTINUOUS
 62
     2
  2
*HATCH5
 70
    65
 10
0.0
 20
0.0
 30
0.0
  3
*HATCH5
  0
LINE
  5
   127
  8
0
  6
CONTINUOUS
 62
     7
 10
-41.9499015808105
 20
102.299880981445
 30
0.0
 11
-45.9499015808106
 21
98.2998809814453
 31
0.0
  0
LINE
  5
   128
  8
0
  6
CONTINUOUS
 62
     7
 10
-33.4646186828613
 20
102.299880981445
 30
0.0
 11
-37.4646186828613
 21
98.2998809814453
 31
0.0
  0
LINE
  5
   129
  8
0
  6
CONTINUOUS
 62
     7
 10
-27.8999786376953
 20
99.3792419433594
 30
0.0
 11
-28.9793376922607
 21
98.2998809814453
 31
0.0
  0
ENDBLK
  5
   12A
  8
0
  6
CONTINUOUS
 62
     2
  0
BLOCK
  5
   12B
  8
0
  6
CONTINUOUS
 62
     2
  2
*HATCH6
 70
    65
 10
0.0
 20
0.0
 30
0.0
  3
*HATCH6
  0
LINE
  5
   12C
  8
0
  6
CONTINUOUS
 62
    52
 10
49.0999908447266
 20
55.4639472961426
 30
0.0
 11
46.0999908447266
 21
52.4639472961426
 31
0.0
  0
LINE
  5
   12D
  8
0
  6
CONTINUOUS
 62
    52
 10
49.0999908447266
 20
51.2213096618652
 30
0.0
 11
46.0999908447266
 21
48.2213096618652
 31
0.0
  0
LINE
  5
   12E
  8
0
  6
CONTINUOUS
 62
    52
 10
49.0999908447266
 20
46.9786720275879
 30
0.0
 11
46.0999908447266
 21
43.9786720275879
 31
0.0
  0
LINE
  5
   12F
  8
0
  6
CONTINUOUS
 62
    52
 10
49.0999908447266
 20
42.7360343933105
 30
0.0
 11
46.0999908447266
 21
39.7360343933105
 31
0.0
  0
LINE
  5
   130
  8
0
  6
CONTINUOUS
 62
    52
 10
49.0999908447266
 20
38.4933967590332
 30
0.0
 11
46.0999908447266
 21
35.4933967590332
 31
0.0
  0
LINE
  5
   131
  8
0
  6
CONTINUOUS
 62
    52
 10
46.0278282165527
 20
33.2999038696289
 30
0.0
 11
44.5999908447266
 21
31.8720664978027
 31
0.0
  0
LINE
  5
   132
  8
0
  6
CONTINUOUS
 62
    52
 10
49.0999908447266
 20
32.1294250488281
 30
0.0
 11
48.7704696655273
 21
31.7999038696289
 31
0.0
  0
ENDBLK
  5
   133
  8
0
  6
CONTINUOUS
 62
     2
  0
BLOCK
  5
   134
  8
0
  6
CONTINUOUS
 62
     2
  2
*HATCH7
 70
    65
 10
0.0
 20
0.0
 30
0.0
  3
*HATCH7
  0
LINE
  5
   135
  8
0
  6
CONTINUOUS
 62
    52
 10
48.4395141601563
 20
-15.2000961303711
 30
0.0
 11
46.0999908447266
 21
-17.5396213531494
 31
0.0
  0
LINE
  5
   136
  8
0
  6
CONTINUOUS
 62
    52
 10
49.0999908447266
 20
-18.7822608947754
 30
0.0
 11
46.0999908447266
 21
-21.7822608947754
 31
0.0
  0
LINE
  5
   137
  8
0
  6
CONTINUOUS
 62
    52
 10
49.0999908447266
 20
-23.02490234375
 30
0.0
 11
46.0999908447266
 21
-26.02490234375
 31
0.0
  0
LINE
  5
   138
  8
0
  6
CONTINUOUS
 62
    52
 10
49.0999908447266
 20
-27.2675437927246
 30
0.0
 11
46.0999908447266
 21
-30.2675437927246
 31
0.0
  0
LINE
  5
   139
  8
0
  6
CONTINUOUS
 62
    52
 10
49.0999908447266
 20
-31.5101852416992
 30
0.0
 11
46.0999908447266
 21
-34.510181427002
 31
0.0
  0
LINE
  5
   13A
  8
0
  6
CONTINUOUS
 62
    52
 10
49.0999908447266
 20
-35.7528228759766
 30
0.0
 11
46.0999908447266
 21
-38.7528190612793
 31
0.0
  0
ENDBLK
  5
   13B
  8
0
  6
CONTINUOUS
 62
     2
  0
BLOCK
  5
   13C
  8
0
  6
CONTINUOUS
 62
     2
  2
*HATCH8
 70
    65
 10
0.0
 20
0.0
 30
0.0
  3
*HATCH8
  0
LINE
  5
   13D
  8
0
  6
CONTINUOUS
 62
     7
 10
54.753532409668
 20
151.485717773438
 30
0.0
 11
52.903263092041
 21
149.635452270508
 31
0.0
  0
LINE
  5
   13E
  8
0
  6
CONTINUOUS
 62
     7
 10
55.4813919067383
 20
151.365051269531
 30
0.0
 11
52.9931335449219
 21
148.87678527832
 31
0.0
  0
LINE
  5
   13F
  8
0
  6
CONTINUOUS
 62
     7
 10
56.0293045043945
 20
151.064422607422
 30
0.0
 11
53.2689437866211
 21
148.304061889648
 31
0.0
  0
LINE
  5
   140
  8
0
  6
CONTINUOUS
 62
     7
 10
56.4662017822266
 20
150.652801513672
 30
0.0
 11
53.7264099121094
 21
147.913009643555
 31
0.0
  0
LINE
  5
   141
  8
0
  6
CONTINUOUS
 62
     7
 10
56.7420120239258
 20
150.080078125
 30
0.0
 11
54.297248840332
 21
147.635314941406
 31
0.0
  0
LINE
  5
   142
  8
0
  6
CONTINUOUS
 62
     7
 10
56.8029747009277
 20
149.292526245117
 30
0.0
 11
55.0679321289063
 21
147.557479858398
 31
0.0
  0
ENDBLK
  5
   143
  8
0
  6
CONTINUOUS
 62
     2
  0
BLOCK
  5
   144
  8
0
  6
CONTINUOUS
 62
     2
  2
*HATCH9
 70
    65
 10
0.0
 20
0.0
 30
0.0
  3
*HATCH9
  0
LINE
  5
   145
  8
0
  6
CONTINUOUS
 62
     7
 10
-31.4769687652588
 20
157.320510864258
 30
0.0
 11
-33.415657043457
 21
155.381820678711
 31
0.0
  0
LINE
  5
   146
  8
0
  6
CONTINUOUS
 62
     7
 10
-30.6284408569336
 20
157.320510864258
 30
0.0
 11
-33.6560974121094
 21
154.292846679688
 31
0.0
  0
LINE
  5
   147
  8
0
  6
CONTINUOUS
 62
     7
 10
-29.7823657989502
 20
157.318054199219
 30
0.0
 11
-33.4480056762695
 21
153.652420043945
 31
0.0
  0
LINE
  5
   148
  8
0
  6
CONTINUOUS
 62
     7
 10
-29.2909049987793
 20
156.960998535156
 30
0.0
 11
-33.2399139404297
 21
153.011978149414
 31
0.0
  0
LINE
  5
   149
  8
0
  6
CONTINUOUS
 62
     7
 10
-28.7994422912598
 20
156.603927612305
 30
0.0
 11
-32.8847312927246
 21
152.518630981445
 31
0.0
  0
LINE
  5
   14A
  8
0
  6
CONTINUOUS
 62
     7
 10
-28.3079795837402
 20
156.246871948242
 30
0.0
 11
-32.3932685852051
 21
152.161575317383
 31
0.0
  0
LINE
  5
   14B
  8
0
  6
CONTINUOUS
 62
     7
 10
-28.0870666503906
 20
155.619232177734
 30
0.0
 11
-31.9018096923828
 21
151.804504394531
 31
0.0
  0
LINE
  5
   14C
  8
0
  6
CONTINUOUS
 62
     7
 10
-27.8789768218994
 20
154.978805541992
 30
0.0
 11
-31.2436122894287
 21
151.614166259766
 31
0.0
  0
LINE
  5
   14D
  8
0
  6
CONTINUOUS
 62
     7
 10
-27.7950344085693
 20
154.214218139648
 30
0.0
 11
-30.3950843811035
 21
151.614166259766
 31
0.0
  0
LINE
  5
   14E
  8
0
  6
CONTINUOUS
 62
     7
 10
-28.2034358978271
 20
152.957290649414
 30
0.0
 11
-28.9110736846924
 21
152.249649047852
 31
0.0
  0
ENDBLK
  5
   14F
  8
0
  6
CONTINUOUS
 62
     2
  0
BLOCK
  5
   150
  8
0
  6
CONTINUOUS
 62
     3
  2
*UDIM27
 70
    65
 10
0.0
 20
0.0
 30
0.0
  3
*UDIM27
  0
TEXT
  5
   151
  8
0
  6
CONTINUOUS
 62
     3
 10
158.584199477678
 20
2.26102232635209
 30
0.0
 40
3.00000002980232
  1
124
 50
90.0
 41
0.933333333333333
 72
     1
 11
157.084199462772
 21
6.16102236509322
 31
0.0
 73
     2
  0
LINE
  5
   152
  8
0
  6
CONTINUOUS
 62
     3
 10
126.656997799873
 20
-24.5639820098877
 30
0.0
 11
161.584199477673
 21
-24.5639820098877
 31
0.0
  0
LINE
  5
   153
  8
0
  6
CONTINUOUS
 62
     3
 10
126.656997799873
 20
37.4360256195068
 30
0.0
 11
161.584199477673
 21
37.4360256195068
 31
0.0
  0
LINE
  5
   154
  8
0
  6
CONTINUOUS
 62
     3
 10
159.584199477673
 20
-24.5639820098877
 30
0.0
 11
159.584199477673
 21
37.4360256195068
 31
0.0
  0
LINE
  5
   155
  8
0
  6
CONTINUOUS
 62
     3
 10
159.063255047722
 20
-21.6095587326807
 30
0.0
 11
159.584199477673
 21
-24.5639820098877
 31
0.0
  0
LINE
  5
   156
  8
0
  6
CONTINUOUS
 62
     3
 10
159.584199477673
 20
-24.5639820098877
 30
0.0
 11
160.105143907625
 21
-21.6095587326807
 31
0.0
  0
LINE
  5
   157
  8
0
  6
CONTINUOUS
 62
     3
 10
160.105143907625
 20
34.4816023422999
 30
0.0
 11
159.584199477673
 21
37.4360256195068
 31
0.0
  0
LINE
  5
   158
  8
0
  6
CONTINUOUS
 62
     3
 10
159.584199477673
 20
37.4360256195068
 30
0.0
 11
159.063255047722
 21
34.4816023422999
 31
0.0
  0
ENDBLK
  5
   159
  8
0
  6
CONTINUOUS
 62
     3
  0
BLOCK
  5
   15A
  8
0
  6
CONTINUOUS
 62
     3
  2
*UDIM28
 70
    65
 10
0.0
 20
0.0
 30
0.0
  3
*UDIM28
  0
TEXT
  5
   15B
  8
0
  6
CONTINUOUS
 62
     3
 10
70.8751491953929
 20
65.5532699241421
 30
0.0
 40
3.00000002980232
  1
28
 41
0.933333333333333
 72
     1
 11
73.3751492202281
 21
67.0532699390433
 31
0.0
 73
     2
  0
LINE
  5
   15C
  8
0
  6
CONTINUOUS
 62
     3
 10
66.1570124626158
 20
50.6807605172001
 30
0.0
 11
66.1570124626158
 21
66.5532699241421
 31
0.0
  0
LINE
  5
   15D
  8
0
  6
CONTINUOUS
 62
     3
 10
80.1570053100586
 20
47.7351950715322
 30
0.0
 11
80.1570053100586
 21
66.5532699241421
 31
0.0
  0
LINE
  5
   15E
  8
0
  6
CONTINUOUS
 62
     3
 10
66.1570124626158
 20
64.5532699241421
 30
0.0
 11
80.1570053100586
 21
64.5532699241421
 31
0.0
  0
LINE
  5
   15F
  8
0
  6
CONTINUOUS
 62
     3
 10
69.0547899358264
 20
65.3297270805606
 30
0.0
 11
66.1570124626158
 21
64.5532699241421
 31
0.0
  0
LINE
  5
   160
  8
0
  6
CONTINUOUS
 62
     3
 10
66.1570124626158
 20
64.5532699241421
 30
0.0
 11
69.0547899358264
 21
63.7768127677235
 31
0.0
  0
LINE
  5
   161
  8
0
  6
CONTINUOUS
 62
     3
 10
77.2592278368481
 20
63.7768127677235
 30
0.0
 11
80.1570053100586
 21
64.5532699241421
 31
0.0
  0
LINE
  5
   162
  8
0
  6
CONTINUOUS
 62
     3
 10
80.1570053100586
 20
64.5532699241421
 30
0.0
 11
77.2592278368481
 21
65.3297270805606
 31
0.0
  0
ENDBLK
  5
   163
  8
0
  6
CONTINUOUS
 62
     3
  0
BLOCK
  5
   164
  8
0
  6
CONTINUOUS
 62
     3
  2
*UDIM29
 70
    65
 10
0.0
 20
0.0
 30
0.0
  3
*UDIM29
  0
TEXT
  5
   165
  8
0
  6
CONTINUOUS
 62
     3
 10
146.500064849857
 20
-14.83897432188
 30
0.0
 40
3.00000002980232
  1
50
 50
90.0
 41
0.933333333333333
 72
     1
 11
145.000064834952
 21
-12.3389742970467
 31
0.0
 73
     2
  0
LINE
  5
   166
  8
0
  6
CONTINUOUS
 62
     3
 10
126.656997799873
 20
-24.5639820098877
 30
0.0
 11
149.500064849854
 21
-24.5639820098877
 31
0.0
  0
LINE
  5
   167
  8
0
  6
CONTINUOUS
 62
     3
 10
147.500064849854
 20
-24.5639820098877
 30
0.0
 11
147.500064849854
 21
0.436033248901392
 31
0.0
  0
LINE
  5
   168
  8
0
  6
CONTINUOUS
 62
     3
 10
146.979120419902
 20
-21.6095587326807
 30
0.0
 11
147.500064849854
 21
-24.5639820098877
 31
0.0
  0
LINE
  5
   169
  8
0
  6
CONTINUOUS
 62
     3
 10
147.500064849854
 20
-24.5639820098877
 30
0.0
 11
148.021009279805
 21
-21.6095587326807
 31
0.0
  0
LINE
  5
   16A
  8
0
  6
CONTINUOUS
 62
     3
 10
148.021009279805
 20
-2.51839002830557
 30
0.0
 11
147.500064849854
 21
0.436033248901392
 31
0.0
  0
LINE
  5
   16B
  8
0
  6
CONTINUOUS
 62
     3
 10
147.500064849854
 20
0.436033248901392
 30
0.0
 11
146.979120419902
 21
-2.51839002830557
 31
0.0
  0
ENDBLK
  5
   16C
  8
0
  6
CONTINUOUS
 62
     3
  0
BLOCK
  5
   16D
  8
0
  6
CONTINUOUS
 62
     3
  2
*UDIM30
 70
    65
 10
0.0
 20
0.0
 30
0.0
  3
*UDIM30
  0
TEXT
  5
   16E
  8
0
  6
CONTINUOUS
 62
     3
 10
78.8820044368506
 20
-50.6539897918701
 30
0.0
 40
3.00000002980232
  1
42
 41
0.933333333333333
 72
     1
 11
81.3820044616859
 21
-49.153989776969
 31
0.0
 73
     2
  0
LINE
  5
   16F
  8
0
  6
CONTINUOUS
 62
     3
 10
71.1570053100586
 20
-26.9109297903315
 30
0.0
 11
71.1570053100586
 21
-53.6539897918701
 31
0.0
  0
LINE
  5
   170
  8
0
  6
CONTINUOUS
 62
     3
 10
92.1570045789083
 20
-25.0639820098877
 30
0.0
 11
92.1570045789083
 21
-53.6539897918701
 31
0.0
  0
LINE
  5
   171
  8
0
  6
CONTINUOUS
 62
     3
 10
71.1570053100586
 20
-51.6539897918701
 30
0.0
 11
92.1570045789083
 21
-51.6539897918701
 31
0.0
  0
LINE
  5
   172
  8
0
  6
CONTINUOUS
 62
     3
 10
74.1114285872656
 20
-51.1330453619185
 30
0.0
 11
71.1570053100586
 21
-51.6539897918701
 31
0.0
  0
LINE
  5
   173
  8
0
  6
CONTINUOUS
 62
     3
 10
71.1570053100586
 20
-51.6539897918701
 30
0.0
 11
74.1114285872656
 21
-52.1749342218218
 31
0.0
  0
LINE
  5
   174
  8
0
  6
CONTINUOUS
 62
     3
 10
89.2025813017014
 20
-52.1749342218218
 30
0.0
 11
92.1570045789083
 21
-51.6539897918701
 31
0.0
  0
LINE
  5
   175
  8
0
  6
CONTINUOUS
 62
     3
 10
92.1570045789083
 20
-51.6539897918701
 30
0.0
 11
89.2025813017014
 21
-51.1330453619185
 31
0.0
  0
ENDBLK
  5
   176
  8
0
  6
CONTINUOUS
 62
     3
  0
BLOCK
  5
   177
  8
0
  6
CONTINUOUS
 62
     3
  2
*UDIM31
 70
    65
 10
0.0
 20
0.0
 30
0.0
  3
*UDIM31
  0
TEXT
  5
   178
  8
0
  6
CONTINUOUS
 62
     3
 10
108.132000622153
 20
-50.6539897918701
 30
0.0
 40
3.00000002980232
  1
75
 41
0.933333333333333
 72
     1
 11
110.632000646989
 21
-49.153989776969
 31
0.0
 73
     2
  0
LINE
  5
   179
  8
0
  6
CONTINUOUS
 62
     3
 10
92.1570045789083
 20
-25.0639820098877
 30
0.0
 11
92.1570045789083
 21
-53.6539897918701
 31
0.0
  0
LINE
  5
   17A
  8
0
  6
CONTINUOUS
 62
     3
 10
129.656997799873
 20
-10.8139667510986
 30
0.0
 11
129.656997799873
 21
-53.6539897918701
 31
0.0
  0
LINE
  5
   17B
  8
0
  6
CONTINUOUS
 62
     3
 10
92.1570045789083
 20
-51.6539897918701
 30
0.0
 11
129.656997799873
 21
-51.6539897918701
 31
0.0
  0
LINE
  5
   17C
  8
0
  6
CONTINUOUS
 62
     3
 10
95.1114278561153
 20
-51.1330453619185
 30
0.0
 11
92.1570045789083
 21
-51.6539897918701
 31
0.0
  0
LINE
  5
   17D
  8
0
  6
CONTINUOUS
 62
     3
 10
92.1570045789083
 20
-51.6539897918701
 30
0.0
 11
95.1114278561153
 21
-52.1749342218218
 31
0.0
  0
LINE
  5
   17E
  8
0
  6
CONTINUOUS
 62
     3
 10
126.702574522666
 20
-52.1749342218218
 30
0.0
 11
129.656997799873
 21
-51.6539897918701
 31
0.0
  0
LINE
  5
   17F
  8
0
  6
CONTINUOUS
 62
     3
 10
129.656997799873
 20
-51.6539897918701
 30
0.0
 11
126.702574522666
 21
-51.1330453619185
 31
0.0
  0
ENDBLK
  5
   180
  8
0
  6
CONTINUOUS
 62
     3
  0
BLOCK
  5
   181
  8
0
  6
CONTINUOUS
 62
     3
  2
*UDIM32
 70
    65
 10
0.0
 20
0.0
 30
0.0
  3
*UDIM32
  0
TEXT
  5
   182
  8
0
  6
CONTINUOUS
 62
     3
 10
76.3820082515478
 20
-59.2464199066162
 30
0.0
 40
3.00000002980232
  1
52
 41
0.933333333333333
 72
     1
 11
78.882008276383
 21
-57.7464198917151
 31
0.0
 73
     2
  0
LINE
  5
   183
  8
0
  6
CONTINUOUS
 62
     3
 10
66.1570124626158
 20
-36.808716907581
 30
0.0
 11
66.1570124626158
 21
-62.2464199066162
 31
0.0
  0
LINE
  5
   184
  8
0
  6
CONTINUOUS
 62
     3
 10
92.1570045789083
 20
-25.0639820098877
 30
0.0
 11
92.1570045789083
 21
-62.2464199066162
 31
0.0
  0
LINE
  5
   185
  8
0
  6
CONTINUOUS
 62
     3
 10
66.1570124626158
 20
-60.2464199066162
 30
0.0
 11
92.1570045789083
 21
-60.2464199066162
 31
0.0
  0
LINE
  5
   186
  8
0
  6
CONTINUOUS
 62
     3
 10
69.1114357398228
 20
-59.7254754766645
 30
0.0
 11
66.1570124626158
 21
-60.2464199066162
 31
0.0
  0
LINE
  5
   187
  8
0
  6
CONTINUOUS
 62
     3
 10
66.1570124626158
 20
-60.2464199066162
 30
0.0
 11
69.1114357398228
 21
-60.7673643365679
 31
0.0
  0
LINE
  5
   188
  8
0
  6
CONTINUOUS
 62
     3
 10
89.2025813017014
 20
-60.7673643365679
 30
0.0
 11
92.1570045789083
 21
-60.2464199066162
 31
0.0
  0
LINE
  5
   189
  8
0
  6
CONTINUOUS
 62
     3
 10
92.1570045789083
 20
-60.2464199066162
 30
0.0
 11
89.2025813017014
 21
-59.7254754766645
 31
0.0
  0
ENDBLK
  5
   18A
  8
0
  6
CONTINUOUS
 62
     3
  0
BLOCK
  5
   18B
  8
0
  6
CONTINUOUS
 62
     3
  2
*UDIM33
 70
    65
 10
0.0
 20
0.0
 30
0.0
  3
*UDIM33
  0
TEXT
  5
   18C
  8
0
  6
CONTINUOUS
 62
     3
 10
112.632003475229
 20
-59.2464199066162
 30
0.0
 40
3.00000002980232
  1
93
 41
0.933333333333333
 72
     1
 11
115.132003500064
 21
-57.7464198917151
 31
0.0
 73
     2
  0
LINE
  5
   18D
  8
0
  6
CONTINUOUS
 62
     3
 10
92.1570045789083
 20
-25.0639820098877
 30
0.0
 11
92.1570045789083
 21
-62.2464199066162
 31
0.0
  0
LINE
  5
   18E
  8
0
  6
CONTINUOUS
 62
     3
 10
138.657004578908
 20
-8.10842760200937
 30
0.0
 11
138.657004578908
 21
-62.2464199066162
 31
0.0
  0
LINE
  5
   18F
  8
0
  6
CONTINUOUS
 62
     3
 10
92.1570045789083
 20
-60.2464199066162
 30
0.0
 11
138.657004578908
 21
-60.2464199066162
 31
0.0
  0
LINE
  5
   190
  8
0
  6
CONTINUOUS
 62
     3
 10
95.1114278561153
 20
-59.7254754766645
 30
0.0
 11
92.1570045789083
 21
-60.2464199066162
 31
0.0
  0
LINE
  5
   191
  8
0
  6
CONTINUOUS
 62
     3
 10
92.1570045789083
 20
-60.2464199066162
 30
0.0
 11
95.1114278561153
 21
-60.7673643365679
 31
0.0
  0
LINE
  5
   192
  8
0
  6
CONTINUOUS
 62
     3
 10
135.702581301701
 20
-60.7673643365679
 30
0.0
 11
138.657004578908
 21
-60.2464199066162
 31
0.0
  0
LINE
  5
   193
  8
0
  6
CONTINUOUS
 62
     3
 10
138.657004578908
 20
-60.2464199066162
 30
0.0
 11
135.702581301701
 21
-59.7254754766645
 31
0.0
  0
ENDBLK
  5
   194
  8
0
  6
CONTINUOUS
 62
     3
  0
BLOCK
  5
   195
  8
0
  6
CONTINUOUS
 62
     3
  2
*UDIM34
 70
    65
 10
0.0
 20
0.0
 30
0.0
  3
*UDIM34
  0
TEXT
  5
   196
  8
0
  6
CONTINUOUS
 62
     3
 10
92.8820012181997
 20
71.8778462354932
 30
0.0
 40
3.00000002980232
  1
123
 41
0.933333333333333
 72
     1
 11
96.7820012569427
 21
73.3778462503943
 31
0.0
 73
     2
  0
LINE
  5
   197
  8
0
  6
CONTINUOUS
 62
     3
 10
66.1570124626158
 20
50.6807605172001
 30
0.0
 11
66.1570124626158
 21
72.8778462354932
 31
0.0
  0
LINE
  5
   198
  8
0
  6
CONTINUOUS
 62
     3
 10
127.40699005127
 20
51.4166017498791
 30
0.0
 11
127.40699005127
 21
72.8778462354932
 31
0.0
  0
LINE
  5
   199
  8
0
  6
CONTINUOUS
 62
     3
 10
66.1570124626158
 20
70.8778462354932
 30
0.0
 11
127.40699005127
 21
70.8778462354932
 31
0.0
  0
LINE
  5
   19A
  8
0
  6
CONTINUOUS
 62
     3
 10
69.0547899358264
 20
71.6543033919117
 30
0.0
 11
66.1570124626158
 21
70.8778462354932
 31
0.0
  0
LINE
  5
   19B
  8
0
  6
CONTINUOUS
 62
     3
 10
66.1570124626158
 20
70.8778462354932
 30
0.0
 11
69.0547899358264
 21
70.1013890790746
 31
0.0
  0
LINE
  5
   19C
  8
0
  6
CONTINUOUS
 62
     3
 10
124.509212578059
 20
70.1013890790746
 30
0.0
 11
127.40699005127
 21
70.8778462354932
 31
0.0
  0
LINE
  5
   19D
  8
0
  6
CONTINUOUS
 62
     3
 10
127.40699005127
 20
70.8778462354932
 30
0.0
 11
124.509212578059
 21
71.6543033919117
 31
0.0
  0
ENDBLK
  5
   19E
  8
0
  6
CONTINUOUS
 62
     3
  0
BLOCK
  5
   19F
  8
0
  6
CONTINUOUS
 62
     3
  2
*UDIM35
 70
    65
 10
0.0
 20
0.0
 30
0.0
  3
*UDIM35
  0
TEXT
  5
   1A0
  8
0
  6
CONTINUOUS
 62
     3
 10
53.8148556321858
 20
54.3130359649658
 30
0.0
 40
3.00000002980232
  1
2.5
 41
0.933333333333333
 72
     1
 11
57.7148556709288
 21
55.813035979867
 31
0.0
 73
     2
  0
TEXT
  5
   1A1
  8
0
  6
CONTINUOUS
 62
     3
 10
50.6148556103308
 20
54.3130359649658
 30
0.0
 40
3.00000002980232
  1
_
 41
0.933333333333334
 72
     1
 11
51.7148556212583
 21
55.813035979867
 31
0.0
 73
     2
  0
LINE
  5
   1A2
  8
0
  6
CONTINUOUS
 62
     3
 10
65.1570124626158
 20
50.922215924656
 30
0.0
 11
65.1570124626158
 21
55.3130359649658
 31
0.0
  0
LINE
  5
   1A3
  8
0
  6
CONTINUOUS
 62
     3
 10
66.1570124626158
 20
50.6807605172001
 30
0.0
 11
66.1570124626158
 21
55.3130359649658
 31
0.0
  0
LINE
  5
   1A4
  8
0
  6
CONTINUOUS
 62
     3
 10
50.6148556103308
 20
53.3130359649658
 30
0.0
 11
71.1570124626158
 21
53.3130359649658
 31
0.0
  0
LINE
  5
   1A5
  8
0
  6
CONTINUOUS
 62
     3
 10
62.2592349894053
 20
52.5365788085473
 30
0.0
 11
65.1570124626158
 21
53.3130359649658
 31
0.0
  0
LINE
  5
   1A6
  8
0
  6
CONTINUOUS
 62
     3
 10
65.1570124626158
 20
53.3130359649658
 30
0.0
 11
62.2592349894053
 21
54.0894931213844
 31
0.0
  0
LINE
  5
   1A7
  8
0
  6
CONTINUOUS
 62
     3
 10
69.0547899358264
 20
54.0894931213844
 30
0.0
 11
66.1570124626158
 21
53.3130359649658
 31
0.0
  0
LINE
  5
   1A8
  8
0
  6
CONTINUOUS
 62
     3
 10
66.1570124626158
 20
53.3130359649658
 30
0.0
 11
69.0547899358264
 21
52.5365788085473
 31
0.0
  0
ENDBLK
  5
   1A9
  8
0
  6
CONTINUOUS
 62
     3
  0
BLOCK
  5
   1AA
  8
0
  6
CONTINUOUS
 62
     3
  2
*UDIM36
 70
    65
 10
0.0
 20
0.0
 30
0.0
  3
*UDIM36
  0
TEXT
  5
   1AB
  8
0
  6
CONTINUOUS
 62
     3
 10
83.8693257759015
 20
58.7870304237562
 30
0.0
 40
3.00000002980232
  1
12.5
 41
0.933333333333333
 72
     1
 11
89.1693258285523
 21
60.2870304386573
 31
0.0
 73
     2
  0
TEXT
  5
   1AC
  8
0
  6
CONTINUOUS
 62
     3
 10
95.469325881203
 20
58.7870304237562
 30
0.0
 40
3.00000002980232
  1
x12.5
 41
0.933333333333333
 72
     1
 11
102.169325947762
 21
60.2870304386573
 31
0.0
 73
     2
  0
LINE
  5
   1AD
  8
0
  6
CONTINUOUS
 62
     3
 10
73.6570053100586
 20
47.7351950715322
 30
0.0
 11
73.6570053100586
 21
59.7870304237562
 31
0.0
  0
LINE
  5
   1AE
  8
0
  6
CONTINUOUS
 62
     3
 10
80.1570053100586
 20
47.7351950715322
 30
0.0
 11
80.1570053100586
 21
59.7870304237562
 31
0.0
  0
LINE
  5
   1AF
  8
0
  6
CONTINUOUS
 62
     3
 10
68.6570053100586
 20
57.7870304237562
 30
0.0
 11
108.86932601432
 21
57.7870304237562
 31
0.0
  0
LINE
  5
   1B0
  8
0
  6
CONTINUOUS
 62
     3
 10
70.7592278368481
 20
57.0105732673376
 30
0.0
 11
73.6570053100586
 21
57.7870304237562
 31
0.0
  0
LINE
  5
   1B1
  8
0
  6
CONTINUOUS
 62
     3
 10
73.6570053100586
 20
57.7870304237562
 30
0.0
 11
70.7592278368481
 21
58.5634875801747
 31
0.0
  0
LINE
  5
   1B2
  8
0
  6
CONTINUOUS
 62
     3
 10
83.0547827832691
 20
58.5634875801747
 30
0.0
 11
80.1570053100586
 21
57.7870304237562
 31
0.0
  0
LINE
  5
   1B3
  8
0
  6
CONTINUOUS
 62
     3
 10
80.1570053100586
 20
57.7870304237562
 30
0.0
 11
83.0547827832691
 21
57.0105732673376
 31
0.0
  0
ENDBLK
  5
   1B4
  8
0
  6
CONTINUOUS
 62
     3
  0
BLOCK
  5
   1B5
  8
0
  6
CONTINUOUS
 62
     3
  2
*UDIM37
 70
    65
 10
0.0
 20
0.0
 30
0.0
  3
*UDIM37
  0
TEXT
  5
   1B6
  8
0
  6
CONTINUOUS
 62
     3
 10
131.512092170119
 20
53.1793308258057
 30
0.0
 40
3.00000002980232
  1
1.5
 41
0.933333333333333
 72
     1
 11
135.412092208862
 21
54.6793308407068
 31
0.0
 73
     2
  0
TEXT
  5
   1B7
  8
0
  6
CONTINUOUS
 62
     3
 10
140.312092247605
 20
53.1793308258057
 30
0.0
 40
3.00000002980232
  1
-2
 41
0.933333333333333
 72
     1
 11
142.812092272441
 21
54.6793308407068
 31
0.0
 73
     2
  0
LINE
  5
   1B8
  8
0
  6
CONTINUOUS
 62
     3
 10
127.40699005127
 20
51.4166017498791
 30
0.0
 11
127.40699005127
 21
54.1793308258057
 31
0.0
  0
LINE
  5
   1B9
  8
0
  6
CONTINUOUS
 62
     3
 10
128.15699005127
 20
51.1549923310963
 30
0.0
 11
128.15699005127
 21
54.1793308258057
 31
0.0
  0
LINE
  5
   1BA
  8
0
  6
CONTINUOUS
 62
     3
 10
122.40699005127
 20
52.1793308258057
 30
0.0
 11
145.312092297276
 21
52.1793308258057
 31
0.0
  0
LINE
  5
   1BB
  8
0
  6
CONTINUOUS
 62
     3
 10
124.509212578059
 20
51.4028736693871
 30
0.0
 11
127.40699005127
 21
52.1793308258057
 31
0.0
  0
LINE
  5
   1BC
  8
0
  6
CONTINUOUS
 62
     3
 10
127.40699005127
 20
52.1793308258057
 30
0.0
 11
124.509212578059
 21
52.9557879822242
 31
0.0
  0
LINE
  5
   1BD
  8
0
  6
CONTINUOUS
 62
     3
 10
131.05476752448
 20
52.9557879822242
 30
0.0
 11
128.15699005127
 21
52.1793308258057
 31
0.0
  0
LINE
  5
   1BE
  8
0
  6
CONTINUOUS
 62
     3
 10
128.15699005127
 20
52.1793308258057
 30
0.0
 11
131.05476752448
 21
51.4028736693871
 31
0.0
  0
ENDBLK
  5
   1BF
  8
0
  6
CONTINUOUS
 62
     3
  0
ENDSEC
  0
SECTION
  2
ENTITIES
  0
CIRCLE
  5
   1C0
  8
0
  6
CONTINUOUS
 62
   130
 10
-36.1680812835693
 20
-96.8560028076172
 30
0.0
 40
1.0
  0
CIRCLE
  5
   1C1
  8
0
  6
CONTINUOUS
 62
   130
 10
-6.16808128356934
 20
-96.8560028076172
 30
0.0
 40
1.0
  0
CIRCLE
  5
   1C2
  8
0
  6
CONTINUOUS
 62
   130
 10
-34.9180812835693
 20
-168.856002807617
 30
0.0
 40
1.0
  0
CIRCLE
  5
   1C3
  8
0
  6
CONTINUOUS
 62
   130
 10
-6.16808128356934
 20
-168.856002807617
 30
0.0
 40
1.0
  0
LINE
  5
   1C4
  8
0
  6
CONTINUOUS
 62
   130
 10
-53.9471043097083
 20
-86.0030498603568
 30
0.0
 11
11.1936915510739
 21
-86.0030498603568
 31
0.0
  0
LINE
  5
   1C5
  8
0
  6
CONTINUOUS
 62
   130
 10
-53.9471043097083
 20
-182.156671506657
 30
0.0
 11
11.1936915510739
 21
-182.156671506657
 31
0.0
  0
LINE
  5
   1C6
  8
0
  6
DASHDOT
 62
   130
 10
-36.1680812835693
 20
-91.8560028076172
 30
0.0
 11
-36.1680812835693
 21
-101.856002807617
 31
0.0
  0
LINE
  5
   1C7
  8
0
  6
DASHDOT
 62
   130
 10
-47.4180812835693
 20
-96.8560028076172
 30
0.0
 11
-37.4180812835693
 21
-96.8560028076172
 31
0.0
  0
LINE
  5
   1C8
  8
0
  6
DASHDOT
 62
   130
 10
-6.16808128356934
 20
-91.8560028076172
 30
0.0
 11
-6.16808128356934
 21
-101.856002807617
 31
0.0
  0
LINE
  5
   1C9
  8
0
  6
DASHDOT
 62
   130
 10
-11.1680812835693
 20
-96.8560028076172
 30
0.0
 11
-1.16808128356934
 21
-96.8560028076172
 31
0.0
  0
LINE
  5
   1CA
  8
0
  6
DASHDOT
 62
   130
 10
-34.9180812835693
 20
-162.856002807617
 30
0.0
 11
-34.9180812835693
 21
-174.856002807617
 31
0.0
  0
LINE
  5
   1CB
  8
0
  6
DASHDOT
 62
   130
 10
-42.8450997054996
 20
-168.856002807617
 30
0.0
 11
-21.4180812835693
 21
-168.856002807617
 31
0.0
  0
LINE
  5
   1CC
  8
0
  6
DASHDOT
 62
   130
 10
-6.16808128356933
 20
-163.856002807617
 30
0.0
 11
-6.16808128356933
 21
-173.856002807617
 31
0.0
  0
LINE
  5
   1CD
  8
0
  6
DASHDOT
 62
   130
 10
-18.6680812835693
 20
-168.856002807617
 30
0.0
 11
-8.66808128356934
 21
-168.856002807617
 31
0.0
  0
CIRCLE
  5
   1CE
  8
0
  6
CONTINUOUS
 62
   130
 10
-43.6680812835693
 20
-124.106002807617
 30
0.0
 40
1.0
  0
CIRCLE
  5
   1CF
  8
0
  6
CONTINUOUS
 62
   130
 10
1.33191871643066
 20
-124.106002807617
 30
0.0
 40
1.0
  0
CIRCLE
  5
   1D0
  8
0
  6
CONTINUOUS
 62
   130
 10
-43.6680812835693
 20
-141.606002807617
 30
0.0
 40
1.0
  0
CIRCLE
  5
   1D1
  8
0
  6
CONTINUOUS
 62
   130
 10
1.33191871643066
 20
-141.606002807617
 30
0.0
 40
1.0
  0
LINE
  5
   1D2
  8
0
  6
DASHDOT
 62
   130
 10
-43.6680812835693
 20
-119.106002807617
 30
0.0
 11
-43.6680812835693
 21
-129.106002807617
 31
0.0
  0
LINE
  5
   1D3
  8
0
  6
DASHDOT
 62
   130
 10
-47.4180812835693
 20
-124.106002807617
 30
0.0
 11
-37.4180812835693
 21
-124.106002807617
 31
0.0
  0
LINE
  5
   1D4
  8
0
  6
DASHDOT
 62
   130
 10
1.33191871643066
 20
-119.106002807617
 30
0.0
 11
1.33191871643066
 21
-129.106002807617
 31
0.0
  0
LINE
  5
   1D5
  8
0
  6
DASHDOT
 62
   130
 10
-3.66808128356934
 20
-124.106002807617
 30
0.0
 11
6.33191871643066
 21
-124.106002807617
 31
0.0
  0
LINE
  5
   1D6
  8
0
  6
DASHDOT
 62
   130
 10
-43.6680812835693
 20
-136.606002807617
 30
0.0
 11
-43.6680812835693
 21
-146.606002807617
 31
0.0
  0
LINE
  5
   1D7
  8
0
  6
DASHDOT
 62
   130
 10
-47.4180812835693
 20
-141.606002807617
 30
0.0
 11
-37.4180812835693
 21
-141.606002807617
 31
0.0
  0
LINE
  5
   1D8
  8
0
  6
DASHDOT
 62
   130
 10
1.33191871643066
 20
-136.606002807617
 30
0.0
 11
1.33191871643066
 21
-146.606002807617
 31
0.0
  0
LINE
  5
   1D9
  8
0
  6
DASHDOT
 62
   130
 10
-3.66808128356934
 20
-141.606002807617
 30
0.0
 11
6.33191871643066
 21
-141.606002807617
 31
0.0
  0
LINE
  5
   1DA
  8
0
  6
CONTINUOUS
 62
   130
 10
-53.9471043097083
 20
-86.0030498603568
 30
0.0
 11
-53.9471043097083
 21
-182.156671506657
 31
0.0
  0
LINE
  5
   1DB
  8
0
  6
CONTINUOUS
 62
   130
 10
11.1936915510739
 20
-86.0030498603568
 30
0.0
 11
11.1936915510739
 21
-182.156671506657
 31
0.0
  0
LINE
  5
   1DC
  8
0
  6
CONTINUOUS
 62
   130
 10
-59.7540490387337
 20
-117.856002807617
 30
0.0
 11
14.9515951882318
 21
-117.856002807617
 31
0.0
  0
LINE
  5
   1DD
  8
0
  6
CONTINUOUS
 62
   130
 10
-59.6963427441445
 20
-147.856002807617
 30
0.0
 11
15.1351115378476
 21
-147.856002807617
 31
0.0
  0
LINE
  5
   1DE
  8
0
  6
CONTINUOUS
 62
   130
 10
14.9515951882318
 20
-117.856002807617
 30
0.0
 11
14.9515951882318
 21
-147.856002807617
 31
0.0
  0
LINE
  5
   1DF
  8
0
  6
CONTINUOUS
 62
   130
 10
-59.7540490387337
 20
-117.856002807617
 30
0.0
 11
-59.7540490387337
 21
-147.856002807617
 31
0.0
  0
LINE
  5
   1E0
  8
0
  6
DASHDOT
 62
   130
 10
-54.9549870339357
 20
-138.856002807617
 30
0.0
 11
21.5688208011285
 21
-138.856002807617
 31
0.0
  0
LINE
  5
   1E1
  8
0
  6
DASHDOT
 62
   130
 10
-13.6680812835693
 20
-81.8210780067186
 30
0.0
 11
-13.6680812835693
 21
-186.971210759101
 31
0.0
  0
TEXT
  5
   1E2
  8
0
  6
CONTINUOUS
 62
     2
 10
-14.6971662547498
 20
-70.6830101325662
 30
0.0
 40
3.00000002980232
  1
Y
 50
359.999999844103
 41
0.983333351877
 72
     1
 11
-13.5971662160068
 21
-70.6830101355537
 31
0.0
  0
INSERT
  5
   1E3
  8
0
  6
CONTINUOUS
 62
     3
  2
*UDIM0
 10
0.0
 20
0.0
 30
0.0
  0
INSERT
  5
   1E4
  8
0
  6
CONTINUOUS
 62
     3
  2
*UDIM1
 10
0.0
 20
0.0
 30
0.0
  0
INSERT
  5
   1E5
  8
0
  6
CONTINUOUS
 62
     3
  2
*UDIM2
 10
0.0
 20
0.0
 30
0.0
  0
INSERT
  5
   1E6
  8
0
  6
CONTINUOUS
 62
     3
  2
*UDIM3
 10
0.0
 20
0.0
 30
0.0
  0
TEXT
  5
   1E7
  8
0
  6
CONTINUOUS
 62
     2
 10
22.9745972204587
 20
-140.300263721489
 30
0.0
 40
3.00000002980232
  1
X
 50
359.999999844103
 41
0.983333351877
 11
22.9745972245325
 21
-138.800263706588
 31
0.0
 73
     2
  0
TEXT
  5
   1E8
  8
0
  6
CONTINUOUS
 62
     2
 10
-80.2759982633867
 20
-140.300263817654
 30
0.0
 40
3.00000002980232
  1
X
 50
359.999999844103
 41
0.983333351877
 72
     2
 11
-78.0759981818268
 21
-138.800263808728
 31
0.0
 73
     2
  0
INSERT
  5
   1E9
  8
0
  6
CONTINUOUS
 62
     3
  2
*UDIM4
 10
0.0
 20
0.0
 30
0.0
  0
INSERT
  5
   1EA
  8
0
  6
CONTINUOUS
 62
     3
  2
*UDIM5
 10
0.0
 20
0.0
 30
0.0
  0
INSERT
  5
   1EB
  8
0
  6
CONTINUOUS
 62
     3
  2
*UDIM6
 10
0.0
 20
0.0
 30
0.0
  0
INSERT
  5
   1EC
  8
0
  6
CONTINUOUS
 62
     3
  2
*UDIM7
 10
0.0
 20
0.0
 30
0.0
  0
TEXT
  5
   1ED
  8
0
  6
CONTINUOUS
 62
     2
 10
-13.4843914847581
 20
-189.208370268736
 30
0.0
 40
3.00000002980232
  1
Y
 50
359.999999844103
 41
0.983333351877
 72
     2
 11
-11.2843914031982
 21
-187.70837025981
 31
0.0
 73
     2
  0
INSERT
  5
   1EE
  8
0
  6
CONTINUOUS
 62
     7
  2
*UDIM8
 10
0.0
 20
0.0
 30
0.0
  0
INSERT
  5
   1EF
  8
0
  6
CONTINUOUS
 62
     3
  2
*UDIM9
 10
0.0
 20
0.0
 30
0.0
  0
LINE
  5
   1F0
  8
0
  6
CONTINUOUS
 62
   130
 10
67.1569972038268
 20
-107.761268615723
 30
0.0
 11
67.1569972038268
 21
-118.261268615723
 31
0.0
  0
LINE
  5
   1F1
  8
0
  6
DASHDOT
 62
   130
 10
90.8069900512695
 20
-102.711268615723
 30
0.0
 11
90.5569900512695
 21
-102.711268615723
 31
0.0
  0
LINE
  5
   1F2
  8
0
  6
DASHDOT
 62
   130
 10
130.066032729521
 20
-113.261268615723
 30
0.0
 11
64.8292120963979
 21
-113.261268615723
 31
0.0
  0
LINE
  5
   1F3
  8
0
  6
CONTINUOUS
 62
   130
 10
67.1569972038268
 20
-93.2612686157227
 30
0.0
 11
67.1569972038268
 21
-103.761268615723
 31
0.0
  0
LINE
  5
   1F4
  8
0
  6
CONTINUOUS
 62
   130
 10
71.1569900512695
 20
-77.7112838745117
 30
0.0
 11
67.1569972038268
 21
-77.7112838745117
 31
0.0
  0
LINE
  5
   1F5
  8
0
  6
CONTINUOUS
 62
   130
 10
67.1569972038268
 20
-77.7112838745117
 30
0.0
 11
67.1569972038268
 21
-88.2112841288249
 31
0.0
  0
LINE
  5
   1F6
  8
0
  6
CONTINUOUS
 62
   130
 10
129.656997799873
 20
-76.2112838745117
 30
0.0
 11
71.1569900512695
 21
-76.2112838745117
 31
0.0
  0
LINE
  5
   1F7
  8
0
  6
CONTINUOUS
 62
   130
 10
129.656997799873
 20
-135.211283874512
 30
0.0
 11
71.1569900512695
 21
-135.211283874512
 31
0.0
  0
LINE
  5
   1F8
  8
0
  6
CONTINUOUS
 62
   130
 10
71.1569900512695
 20
-76.2112838745117
 30
0.0
 11
71.1569900512695
 21
-125.053199794073
 31
0.0
  0
LINE
  5
   1F9
  8
0
  6
CONTINUOUS
 62
   130
 10
91.1569900512695
 20
-76.2112838745117
 30
0.0
 11
91.1569900512695
 21
-135.211283874512
 31
0.0
  0
LINE
  5
   1FA
  8
0
  6
CONTINUOUS
 62
   130
 10
91.1569900512695
 20
-104.336283874512
 30
0.0
 11
71.1569900512695
 21
-104.336283874512
 31
0.0
  0
LINE
  5
   1FB
  8
0
  6
CONTINUOUS
 62
   130
 10
91.1569900512695
 20
-107.086283874512
 30
0.0
 11
71.1569900512695
 21
-107.086283874512
 31
0.0
  0
LINE
  5
   1FC
  8
0
  6
DASHDOT
 62
   130
 10
144.111318284715
 20
-98.2612686157227
 30
0.0
 11
60.6409019229587
 21
-98.2612686157227
 31
0.0
  0
LINE
  5
   1FD
  8
0
  6
CONTINUOUS
 62
   130
 10
91.1569900512695
 20
-92.1862533569336
 30
0.0
 11
71.1569900512695
 21
-92.1862533569336
 31
0.0
  0
LINE
  5
   1FE
  8
0
  6
CONTINUOUS
 62
   130
 10
91.1569900512695
 20
-89.4362533569336
 30
0.0
 11
71.1569900512695
 21
-89.4362533569336
 31
0.0
  0
LINE
  5
   1FF
  8
0
  6
CONTINUOUS
 62
   130
 10
82.4070380099843
 20
-80.7612686157227
 30
0.0
 11
73.6570380099848
 21
-80.7612686157227
 31
0.0
  0
LINE
  5
   200
  8
0
  6
CONTINUOUS
 62
   130
 10
82.4070380099843
 20
-85.7612686157227
 30
0.0
 11
73.6570380099848
 21
-85.7612686157227
 31
0.0
  0
LINE
  5
   201
  8
0
  6
CONTINUOUS
 62
   130
 10
82.4070380099843
 20
-95.7612686157227
 30
0.0
 11
73.6570380099848
 21
-95.7612686157227
 31
0.0
  0
LINE
  5
   202
  8
0
  6
CONTINUOUS
 62
   130
 10
82.4070380099843
 20
-100.761268615723
 30
0.0
 11
73.6570380099848
 21
-100.761268615723
 31
0.0
  0
LINE
  5
   203
  8
0
  6
CONTINUOUS
 62
   130
 10
82.4070380099843
 20
-110.761268615723
 30
0.0
 11
73.6570380099848
 21
-110.761268615723
 31
0.0
  0
LINE
  5
   204
  8
0
  6
CONTINUOUS
 62
   130
 10
82.4070380099843
 20
-115.761268615723
 30
0.0
 11
73.6570380099848
 21
-115.761268615723
 31
0.0
  0
LINE
  5
   205
  8
0
  6
CONTINUOUS
 62
   130
 10
73.6570380099848
 20
-80.7612686157227
 30
0.0
 11
73.6570380099848
 21
-85.7612686157227
 31
0.0
  0
LINE
  5
   206
  8
0
  6
CONTINUOUS
 62
   130
 10
74.6570384710038
 20
-80.7612686157227
 30
0.0
 11
74.6570384710038
 21
-85.7612686157227
 31
0.0
  0
LINE
  5
   207
  8
0
  6
CONTINUOUS
 62
   130
 10
81.4070378946562
 20
-80.7612686157227
 30
0.0
 11
81.4070378946562
 21
-85.7612686157227
 31
0.0
  0
LINE
  5
   208
  8
0
  6
CONTINUOUS
 62
   130
 10
82.4070380099843
 20
-80.7612686157227
 30
0.0
 11
82.4070380099843
 21
-85.7612686157227
 31
0.0
  0
LINE
  5
   209
  8
0
  6
CONTINUOUS
 62
   130
 10
73.6570380099848
 20
-95.7612686157227
 30
0.0
 11
73.6570380099848
 21
-100.761268615723
 31
0.0
  0
LINE
  5
   20A
  8
0
  6
CONTINUOUS
 62
   130
 10
74.6570384710038
 20
-95.7612686157227
 30
0.0
 11
74.6570384710038
 21
-100.761268615723
 31
0.0
  0
LINE
  5
   20B
  8
0
  6
CONTINUOUS
 62
   130
 10
81.4070378946562
 20
-95.7612686157227
 30
0.0
 11
81.4070378946562
 21
-100.761268615723
 31
0.0
  0
LINE
  5
   20C
  8
0
  6
CONTINUOUS
 62
   130
 10
82.4070380099843
 20
-95.7612686157227
 30
0.0
 11
82.4070380099843
 21
-100.761268615723
 31
0.0
  0
LINE
  5
   20D
  8
0
  6
CONTINUOUS
 62
   130
 10
73.6570380099848
 20
-110.761268615723
 30
0.0
 11
73.6570380099848
 21
-115.761268615723
 31
0.0
  0
LINE
  5
   20E
  8
0
  6
CONTINUOUS
 62
   130
 10
74.6570384710038
 20
-110.761268615723
 30
0.0
 11
74.6570384710038
 21
-115.761268615723
 31
0.0
  0
LINE
  5
   20F
  8
0
  6
CONTINUOUS
 62
   130
 10
81.4070378946562
 20
-110.761268615723
 30
0.0
 11
81.4070378946562
 21
-115.761268615723
 31
0.0
  0
LINE
  5
   210
  8
0
  6
CONTINUOUS
 62
   130
 10
82.4070380099843
 20
-110.761268615723
 30
0.0
 11
82.4070380099843
 21
-115.761268615723
 31
0.0
  0
LINE
  5
   211
  8
0
  6
CONTINUOUS
 62
   130
 10
86.1569900512695
 20
-79.7612686157227
 30
0.0
 11
71.1569900512695
 21
-79.7612686157227
 31
0.0
  0
LINE
  5
   212
  8
0
  6
CONTINUOUS
 62
   130
 10
86.1569900512695
 20
-86.7612686157227
 30
0.0
 11
71.1569900512695
 21
-86.7612686157227
 31
0.0
  0
LINE
  5
   213
  8
0
  6
CONTINUOUS
 62
   130
 10
86.1569900512695
 20
-94.7612686157227
 30
0.0
 11
71.1569900512695
 21
-94.7612686157227
 31
0.0
  0
LINE
  5
   214
  8
0
  6
CONTINUOUS
 62
   130
 10
86.1569900512695
 20
-101.761268615723
 30
0.0
 11
71.1569900512695
 21
-101.761268615723
 31
0.0
  0
LINE
  5
   215
  8
0
  6
CONTINUOUS
 62
   130
 10
86.1569900512695
 20
-109.761268615723
 30
0.0
 11
71.1569900512695
 21
-109.761268615723
 31
0.0
  0
LINE
  5
   216
  8
0
  6
CONTINUOUS
 62
   130
 10
86.1569900512695
 20
-116.761268615723
 30
0.0
 11
71.1569900512695
 21
-116.761268615723
 31
0.0
  0
LINE
  5
   217
  8
0
  6
CONTINUOUS
 62
   130
 10
86.1569900512695
 20
-79.7612686157227
 30
0.0
 11
86.1569900512695
 21
-86.7612686157227
 31
0.0
  0
LINE
  5
   218
  8
0
  6
CONTINUOUS
 62
   130
 10
86.1569900512695
 20
-94.7612686157227
 30
0.0
 11
86.1569900512695
 21
-101.761268615723
 31
0.0
  0
LINE
  5
   219
  8
0
  6
CONTINUOUS
 62
   130
 10
86.1569900512695
 20
-109.761268615723
 30
0.0
 11
86.1569900512695
 21
-116.761268615723
 31
0.0
  0
LINE
  5
   21A
  8
0
  6
CONTINUOUS
 62
   130
 10
70.6569900512695
 20
-88.2112841288249
 30
0.0
 11
65.1569900512695
 21
-88.2112841288249
 31
0.0
  0
LINE
  5
   21B
  8
0
  6
CONTINUOUS
 62
   130
 10
70.6569900512695
 20
-93.2612686157227
 30
0.0
 11
65.1569900512695
 21
-93.2612686157227
 31
0.0
  0
LINE
  5
   21C
  8
0
  6
CONTINUOUS
 62
   130
 10
65.1569900512695
 20
-88.2112841288249
 30
0.0
 11
65.1569900512695
 21
-93.2612686157227
 31
0.0
  0
LINE
  5
   21D
  8
0
  6
CONTINUOUS
 62
   130
 10
65.1569900512695
 20
-118.261268615723
 30
0.0
 11
65.1569900512695
 21
-123.261268615723
 31
0.0
  0
ARC
  5
   21E
  8
0
  6
CONTINUOUS
 62
   130
 10
70.6569900512695
 20
-87.7112841288249
 30
0.0
 40
0.5
 50
269.999999896069
 51
359.999999896069
  0
ARC
  5
   21F
  8
0
  6
CONTINUOUS
 62
   130
 10
70.6569900512695
 20
-93.7612686157227
 30
0.0
 40
0.5
 50
359.999999896069
 51
449.999999896069
  0
LINE
  5
   220
  8
0
  6
DASHDOT
 62
   130
 10
94.3291810871718
 20
-90.7362763722738
 30
0.0
 11
63.5684773090329
 21
-90.7362763722738
 31
0.0
  0
LINE
  5
   221
  8
0
  6
DASHDOT
 62
   130
 10
95.3380962985539
 20
-105.761268615723
 30
0.0
 11
63.3666942667565
 21
-105.761268615723
 31
0.0
  0
LINE
  5
   222
  8
0
  6
CONTINUOUS
 62
   130
 10
95.1570053100586
 20
-76.7112838745117
 30
0.0
 11
95.1570053100586
 21
-134.711283874512
 31
0.0
  0
ARC
  5
   223
  8
0
  6
CONTINUOUS
 62
   130
 10
94.6570053100586
 20
-76.7112838745117
 30
0.0
 40
0.5
 50
359.999999896069
 51
449.999999896069
  0
LINE
  5
   224
  8
0
  6
CONTINUOUS
 62
   130
 10
127.156997799873
 20
-76.2112838745117
 30
0.0
 11
127.156997799873
 21
-135.211283874512
 31
0.0
  0
LINE
  5
   225
  8
0
  6
CONTINUOUS
 62
   130
 10
129.656997799873
 20
-76.2112838745117
 30
0.0
 11
129.656997799873
 21
-135.211283874512
 31
0.0
  0
LINE
  5
   226
  8
0
  6
CONTINUOUS
 62
   130
 10
138.339981069576
 20
-95.5112686157227
 30
0.0
 11
138.339981069576
 21
-101.011268615723
 31
0.0
  0
LINE
  5
   227
  8
0
  6
CONTINUOUS
 62
   130
 10
137.839981069576
 20
-95.0112686157227
 30
0.0
 11
129.656997799873
 21
-95.0112686157227
 31
0.0
  0
LINE
  5
   228
  8
0
  6
CONTINUOUS
 62
   130
 10
137.839981069576
 20
-101.511268615723
 30
0.0
 11
129.656997799873
 21
-101.511268615723
 31
0.0
  0
ARC
  5
   229
  8
0
  6
CONTINUOUS
 62
   130
 10
137.839981069576
 20
-95.5112686157227
 30
0.0
 40
0.5
 50
359.999999896069
 51
449.999999896069
  0
ARC
  5
   22A
  8
0
  6
CONTINUOUS
 62
   130
 10
137.839981069576
 20
-101.011268615723
 30
0.0
 40
0.5
 50
269.999999896069
 51
359.999999896069
  0
LINE
  5
   22B
  8
0
  6
CONTINUOUS
 62
   130
 10
114.906997799873
 20
-95.2612686157227
 30
0.0
 11
114.906997799873
 21
-97.5112686157227
 31
0.0
  0
LINE
  5
   22C
  8
0
  6
CONTINUOUS
 62
   130
 10
126.156997799873
 20
-97.5112686157227
 30
0.0
 11
114.906997799873
 21
-97.5112686157227
 31
0.0
  0
LINE
  5
   22D
  8
0
  6
CONTINUOUS
 62
   130
 10
126.156997799873
 20
-99.0112686157227
 30
0.0
 11
114.906997799873
 21
-99.0112686157227
 31
0.0
  0
LINE
  5
   22E
  8
0
  6
CONTINUOUS
 62
   130
 10
126.156997799873
 20
-95.2612686157227
 30
0.0
 11
114.906997799873
 21
-95.2612686157227
 31
0.0
  0
LINE
  5
   22F
  8
0
  6
CONTINUOUS
 62
   130
 10
126.156997799873
 20
-101.261268615723
 30
0.0
 11
114.906997799873
 21
-101.261268615723
 31
0.0
  0
LINE
  5
   230
  8
0
  6
CONTINUOUS
 62
   130
 10
126.156997799873
 20
-95.2612686157227
 30
0.0
 11
126.156997799873
 21
-97.5112686157227
 31
0.0
  0
LINE
  5
   231
  8
0
  6
CONTINUOUS
 62
   130
 10
114.906997799873
 20
-99.0112686157227
 30
0.0
 11
114.906997799873
 21
-101.261268615723
 31
0.0
  0
LINE
  5
   232
  8
0
  6
CONTINUOUS
 62
   130
 10
126.156997799873
 20
-99.0112686157227
 30
0.0
 11
126.156997799873
 21
-101.261268615723
 31
0.0
  0
LINE
  5
   233
  8
0
  6
CONTINUOUS
 62
   130
 10
126.156997799873
 20
-116.261268615723
 30
0.0
 11
114.906997799873
 21
-116.261268615723
 31
0.0
  0
LINE
  5
   234
  8
0
  6
CONTINUOUS
 62
   130
 10
126.156997799873
 20
-114.011268615723
 30
0.0
 11
114.906997799873
 21
-114.011268615723
 31
0.0
  0
LINE
  5
   235
  8
0
  6
CONTINUOUS
 62
   130
 10
126.156997799873
 20
-112.511268615723
 30
0.0
 11
114.906997799873
 21
-112.511268615723
 31
0.0
  0
LINE
  5
   236
  8
0
  6
CONTINUOUS
 62
   130
 10
126.156997799873
 20
-110.261268615723
 30
0.0
 11
114.906997799873
 21
-110.261268615723
 31
0.0
  0
LINE
  5
   237
  8
0
  6
CONTINUOUS
 62
   130
 10
114.906997799873
 20
-110.261268615723
 30
0.0
 11
114.906997799873
 21
-112.511268615723
 31
0.0
  0
LINE
  5
   238
  8
0
  6
CONTINUOUS
 62
   130
 10
114.906997799873
 20
-114.011268615723
 30
0.0
 11
114.906997799873
 21
-116.261268615723
 31
0.0
  0
LINE
  5
   239
  8
0
  6
CONTINUOUS
 62
   130
 10
126.156997799873
 20
-114.011268615723
 30
0.0
 11
126.156997799873
 21
-116.261268615723
 31
0.0
  0
LINE
  5
   23A
  8
0
  6
CONTINUOUS
 62
   130
 10
126.156997799873
 20
-110.261268615723
 30
0.0
 11
126.156997799873
 21
-112.511268615723
 31
0.0
  0
LINE
  5
   23B
  8
0
  6
CONTINUOUS
 62
   130
 10
126.156997799873
 20
-86.2612686157227
 30
0.0
 11
114.906997799873
 21
-86.2612686157227
 31
0.0
  0
LINE
  5
   23C
  8
0
  6
CONTINUOUS
 62
   130
 10
114.906997799873
 20
-84.0112686157227
 30
0.0
 11
114.906997799873
 21
-86.2612686157227
 31
0.0
  0
LINE
  5
   23D
  8
0
  6
CONTINUOUS
 62
   130
 10
126.156997799873
 20
-84.0112686157227
 30
0.0
 11
114.906997799873
 21
-84.0112686157227
 31
0.0
  0
LINE
  5
   23E
  8
0
  6
CONTINUOUS
 62
   130
 10
126.156997799873
 20
-84.0112686157227
 30
0.0
 11
126.156997799873
 21
-86.2612686157227
 31
0.0
  0
LINE
  5
   23F
  8
0
  6
CONTINUOUS
 62
   130
 10
126.156997799873
 20
-82.5112686157227
 30
0.0
 11
114.906997799873
 21
-82.5112686157227
 31
0.0
  0
LINE
  5
   240
  8
0
  6
CONTINUOUS
 62
   130
 10
114.906997799873
 20
-80.2612686157227
 30
0.0
 11
114.906997799873
 21
-82.5112686157227
 31
0.0
  0
LINE
  5
   241
  8
0
  6
CONTINUOUS
 62
   130
 10
126.156997799873
 20
-80.2612686157227
 30
0.0
 11
114.906997799873
 21
-80.2612686157227
 31
0.0
  0
LINE
  5
   242
  8
0
  6
CONTINUOUS
 62
   130
 10
126.156997799873
 20
-80.2612686157227
 30
0.0
 11
126.156997799873
 21
-82.5112686157227
 31
0.0
  0
LINE
  5
   243
  8
0
  6
CONTINUOUS
 62
   130
 10
126.156997799873
 20
-131.261268615723
 30
0.0
 11
114.906997799873
 21
-131.261268615723
 31
0.0
  0
LINE
  5
   244
  8
0
  6
CONTINUOUS
 62
   130
 10
126.156997799873
 20
-129.011268615723
 30
0.0
 11
114.906997799873
 21
-129.011268615723
 31
0.0
  0
LINE
  5
   245
  8
0
  6
CONTINUOUS
 62
   130
 10
114.906997799873
 20
-129.011268615723
 30
0.0
 11
114.906997799873
 21
-131.261268615723
 31
0.0
  0
LINE
  5
   246
  8
0
  6
CONTINUOUS
 62
   130
 10
126.156997799873
 20
-129.011268615723
 30
0.0
 11
126.156997799873
 21
-131.261268615723
 31
0.0
  0
LINE
  5
   247
  8
0
  6
CONTINUOUS
 62
   130
 10
126.156997799873
 20
-125.261268615723
 30
0.0
 11
126.156997799873
 21
-127.511268615723
 31
0.0
  0
LINE
  5
   248
  8
0
  6
CONTINUOUS
 62
   130
 10
126.156997799873
 20
-127.511268615723
 30
0.0
 11
114.906997799873
 21
-127.511268615723
 31
0.0
  0
LINE
  5
   249
  8
0
  6
CONTINUOUS
 62
   130
 10
114.906997799873
 20
-125.261268615723
 30
0.0
 11
114.906997799873
 21
-127.511268615723
 31
0.0
  0
LINE
  5
   24A
  8
0
  6
CONTINUOUS
 62
   130
 10
126.156997799873
 20
-125.261268615723
 30
0.0
 11
114.906997799873
 21
-125.261268615723
 31
0.0
  0
LINE
  5
   24B
  8
0
  6
CONTINUOUS
 62
   130
 10
86.1569900512695
 20
-131.761268615723
 30
0.0
 11
71.1569900512695
 21
-131.761268615723
 31
0.0
  0
LINE
  5
   24C
  8
0
  6
CONTINUOUS
 62
   130
 10
86.1569900512695
 20
-124.761268615723
 30
0.0
 11
86.1569900512695
 21
-131.761268615723
 31
0.0
  0
LINE
  5
   24D
  8
0
  6
CONTINUOUS
 62
   130
 10
86.1569900512695
 20
-124.761268615723
 30
0.0
 11
71.1569900512695
 21
-124.761268615723
 31
0.0
  0
LINE
  5
   24E
  8
0
  6
CONTINUOUS
 62
   130
 10
82.4070380099843
 20
-125.761268615723
 30
0.0
 11
73.6570380099848
 21
-125.761268615723
 31
0.0
  0
LINE
  5
   24F
  8
0
  6
CONTINUOUS
 62
   130
 10
82.4070380099843
 20
-130.761268615723
 30
0.0
 11
73.6570380099848
 21
-130.761268615723
 31
0.0
  0
LINE
  5
   250
  8
0
  6
CONTINUOUS
 62
   130
 10
81.4070378946562
 20
-125.761268615723
 30
0.0
 11
81.4070378946562
 21
-130.761268615723
 31
0.0
  0
LINE
  5
   251
  8
0
  6
CONTINUOUS
 62
   130
 10
82.4070380099843
 20
-125.761268615723
 30
0.0
 11
82.4070380099843
 21
-130.761268615723
 31
0.0
  0
LINE
  5
   252
  8
0
  6
CONTINUOUS
 62
   130
 10
74.6570384710038
 20
-125.761268615723
 30
0.0
 11
74.6570384710038
 21
-130.761268615723
 31
0.0
  0
LINE
  5
   253
  8
0
  6
CONTINUOUS
 62
   130
 10
73.6570380099848
 20
-125.761268615723
 30
0.0
 11
73.6570380099848
 21
-130.761268615723
 31
0.0
  0
LINE
  5
   254
  8
0
  6
CONTINUOUS
 62
   130
 10
71.1569900512695
 20
-133.761268615723
 30
0.0
 11
67.1569972038268
 21
-133.761268615723
 31
0.0
  0
LINE
  5
   255
  8
0
  6
CONTINUOUS
 62
   130
 10
67.1569972038268
 20
-123.261268615723
 30
0.0
 11
67.1569972038268
 21
-133.76126836141
 31
0.0
  0
LINE
  5
   256
  8
0
  6
CONTINUOUS
 62
   130
 10
70.6569900512695
 20
-118.261268615723
 30
0.0
 11
65.1569900512695
 21
-118.261268615723
 31
0.0
  0
LINE
  5
   257
  8
0
  6
CONTINUOUS
 62
   130
 10
70.6569900512695
 20
-123.261268615723
 30
0.0
 11
65.1569900512695
 21
-123.261268615723
 31
0.0
  0
ARC
  5
   258
  8
0
  6
CONTINUOUS
 62
   130
 10
70.6569900512695
 20
-117.761268615723
 30
0.0
 40
0.5
 50
269.999999896069
 51
359.999999896069
  0
ARC
  5
   259
  8
0
  6
CONTINUOUS
 62
   130
 10
70.6569900512695
 20
-123.761268615723
 30
0.0
 40
0.5
 50
359.999999896069
 51
449.999999896069
  0
LINE
  5
   25A
  8
0
  6
CONTINUOUS
 62
   130
 10
71.1569900512695
 20
-123.761268615723
 30
0.0
 11
71.1569900512695
 21
-135.211283874512
 31
0.0
  0
LINE
  5
   25B
  8
0
  6
CONTINUOUS
 62
   130
 10
71.1569900512695
 20
-107.761268615723
 30
0.0
 11
67.1569972038268
 21
-107.761268615723
 31
0.0
  0
LINE
  5
   25C
  8
0
  6
CONTINUOUS
 62
   130
 10
71.1569900512695
 20
-103.761268615723
 30
0.0
 11
67.1569972038268
 21
-103.761268615723
 31
0.0
  0
ARC
  5
   25D
  8
0
  6
CONTINUOUS
 62
   130
 10
94.6570053100586
 20
-134.711283874512
 30
0.0
 40
0.5
 50
269.999999896069
 51
359.999999896069
  0
LINE
  5
   25E
  8
0
  6
DASHDOT
 62
   130
 10
128.934830447349
 20
-128.261268615723
 30
0.0
 11
63.3451543702745
 21
-128.261268615723
 31
0.0
  0
LINE
  5
   25F
  8
0
  6
CONTINUOUS
 62
   130
 10
91.1569900512695
 20
-122.086283874512
 30
0.0
 11
71.1569900512695
 21
-122.086283874512
 31
0.0
  0
LINE
  5
   260
  8
0
  6
CONTINUOUS
 62
   130
 10
91.1569900512695
 20
-119.336283874512
 30
0.0
 11
71.1569900512695
 21
-119.336283874512
 31
0.0
  0
LINE
  5
   261
  8
0
  6
DASHDOT
 62
   130
 10
95.3380962985539
 20
-120.761268615723
 30
0.0
 11
63.3666942667565
 21
-120.761268615723
 31
0.0
  0
TEXT
  5
   262
  8
0
  6
CONTINUOUS
 62
     2
 10
220.205822314994
 20
-177.396026779536
 30
0.0
 40
2.00000008940697
  1
   INTERR.AUTOMATICO SERIE ISOMAX
 50
359.999999896069
 41
0.75
 11
220.205822318612
 21
-175.396026690129
 31
0.0
 73
     3
  0
TEXT
  5
   263
  8
0
  6
CONTINUOUS
 62
     2
 10
220.205820305928
 20
-180.596028466872
 30
0.0
 40
2.00000008940697
  1
ESECUZ.RIMOVIBILE TETR.TERMINALI ANT.
 50
359.999999896069
 41
0.75
 11
220.205820309546
 21
-178.596028377465
 31
0.0
 73
     3
  0
TEXT
  5
   264
  8
0
  6
CONTINUOUS
 62
     2
 10
222.35303707985
 20
-168.863720840045
 30
0.0
 40
2.00000008940697
  1
4 POLE LOW VOLTAGE M.C.C.B SERIES ISOMAX
 50
359.999999896069
 41
0.75
 11
222.353037083468
 21
-166.863720750638
 31
0.0
 73
     3
  0
TEXT
  5
   265
  8
0
  6
CONTINUOUS
 62
     2
 10
229.103037381598
 20
-172.06372066152
 30
0.0
 40
2.00000008940697
  1
PLUG-IN VERSION FRONT TERMINALS
 50
359.999999896069
 41
0.75
 11
229.103037385216
 21
-170.063720572113
 31
0.0
 73
     3
  0
INSERT
  5
   266
  8
0
  6
CONTINUOUS
 62
     7
  2
*UDIM10
 10
0.0
 20
0.0
 30
0.0
  0
INSERT
  5
   267
  8
0
  6
CONTINUOUS
 62
     7
  2
*UDIM11
 10
0.0
 20
0.0
 30
0.0
  0
INSERT
  5
   268
  8
0
  6
CONTINUOUS
 62
     3
  2
*UDIM12
 10
0.0
 20
0.0
 30
0.0
  0
TEXT
  5
   269
  8
0
  6
CONTINUOUS
 62
     2
 10
124.430943487266
 20
-168.540807759658
 30
0.0
 40
2.00000008940697
  1
3/11/92
 50
359.999999896069
 41
0.75
 72
     2
 11
134.43094393611
 21
-167.540807733044
 31
0.0
 73
     2
  0
TEXT
  5
   26A
  8
0
  6
CONTINUOUS
 62
     2
 10
124.57410144625
 20
-171.404083287612
 30
0.0
 40
2.00000008940697
  1
mostosi
 50
359.999999896069
 41
0.75
 72
     2
 11
134.574101895094
 21
-170.404083260998
 31
0.0
 73
     2
  0
TEXT
  5
   26B
  8
0
  6
CONTINUOUS
 62
     2
 10
137.778561589841
 20
-185.534686071528
 30
0.0
 40
2.50000005960464
  1
M3727 95-01-18
 50
359.999999896069
 41
0.649999919056892
 11
137.778561592102
 21
-184.284686041726
 31
0.0
 73
     2
  0
TEXT
  5
   26C
  8
0
  6
CONTINUOUS
 62
     2
 10
252.478552271693
 20
-187.432462993183
 30
0.0
 40
3.00000002980232
  1
S2
 50
359.999999896069
 41
0.983333351877
 72
     2
 11
257.628552436829
 21
-185.932462987597
 31
0.0
 73
     2
  0
TEXT
  5
   26D
  8
0
  6
CONTINUOUS
 62
     2
 10
227.348721469892
 20
-198.136600727597
 30
0.0
 40
5.00000011920929
  1
601855/111
 50
359.999999896069
 41
0.983334023157739
 72
     2
 11
275.265423774724
 21
-195.63660075467
 31
0.0
 73
     2
  0
TEXT
  5
   26E
  8
0
  6
CONTINUOUS
 62
     2
 10
287.93658722711
 20
-198.431125664358
 30
0.0
 40
2.50000005960464
  1
1/1
 50
359.999999896069
 41
1.01399994459152
 72
     1
 11
291.426587104797
 21
-197.181125640869
 31
0.0
 73
     2
  0
CIRCLE
  5
   26F
  8
0
  6
CONTINUOUS
 62
     2
 10
1.33192504884203
 20
35.9360706210152
 30
0.0
 40
1.0
  0
LINE
  5
   270
  8
0
  6
CONTINUOUS
 62
     2
 10
1.94509746121384
 20
36.7260197286836
 30
0.0
 11
0.541975941173593
 21
35.3228982086434
 31
0.0
  0
LINE
  5
   271
  8
0
  6
CONTINUOUS
 62
     2
 10
2.12187415651046
 20
36.5492430333869
 30
0.0
 11
0.718752636470247
 21
35.1461215133467
 31
0.0
  0
LINE
  5
   272
  8
0
  6
DASHDOT
 62
     2
 10
1.33192504884203
 20
40.9360706210152
 30
0.0
 11
1.33192504884203
 21
30.9360706210152
 31
0.0
  0
LINE
  5
   273
  8
0
  6
DASHDOT
 62
     2
 10
-3.66807495115797
 20
35.9360706210152
 30
0.0
 11
6.33192504884203
 21
35.9360706210152
 31
0.0
  0
LINE
  5
   274
  8
0
  6
CONTINUOUS
 62
     7
 10
12.0818691253662
 20
23.8114471435547
 30
0.0
 11
12.0818691253662
 21
-22.9385528564453
 31
0.0
  0
LINE
  5
   275
  8
0
  6
CONTINUOUS
 62
     7
 10
-53.7931308746338
 20
-23.5635528564453
 30
0.0
 11
11.4568691253662
 21
-23.5635528564453
 31
0.0
  0
LINE
  5
   276
  8
0
  6
CONTINUOUS
 62
     7
 10
-54.4181308746338
 20
23.8114471435547
 30
0.0
 11
-54.4181308746338
 21
-22.9385528564453
 31
0.0
  0
LINE
  5
   277
  8
0
  6
CONTINUOUS
 62
     7
 10
-53.7931308746338
 20
24.4364471435547
 30
0.0
 11
11.4568691253662
 21
24.4364471435547
 31
0.0
  0
LINE
  5
   278
  8
0
  6
CONTINUOUS
 62
     7
 10
-51.9181308746338
 20
-11.5635528564453
 30
0.0
 11
9.58186912536621
 21
-11.5635528564453
 31
0.0
  0
LINE
  5
   279
  8
0
  6
CONTINUOUS
 62
     7
 10
-51.9181308746338
 20
12.4364471435547
 30
0.0
 11
9.58186912536621
 21
12.4364471435547
 31
0.0
  0
LINE
  5
   27A
  8
0
  6
CONTINUOUS
 62
     7
 10
-52.1681308746338
 20
24.4364471435547
 30
0.0
 11
-52.1681308746338
 21
-23.5635528564453
 31
0.0
  0
LINE
  5
   27B
  8
0
  6
CONTINUOUS
 62
     7
 10
-51.6681308746338
 20
17.6864471435547
 30
0.0
 11
-51.6681308746338
 21
12.4364471435547
 31
0.0
  0
LINE
  5
   27C
  8
0
  6
CONTINUOUS
 62
     7
 10
-51.6681308746338
 20
-11.5635528564453
 30
0.0
 11
-51.6681308746338
 21
-16.8135528564453
 31
0.0
  0
LINE
  5
   27D
  8
0
  6
CONTINUOUS
 62
     7
 10
-51.6681308746338
 20
-17.3135528564453
 30
0.0
 11
-51.6681308746338
 21
-23.5635528564453
 31
0.0
  0
LINE
  5
   27E
  8
0
  6
CONTINUOUS
 62
     7
 10
9.83186912536621
 20
24.4364471435547
 30
0.0
 11
9.83186912536621
 21
-23.5635528564453
 31
0.0
  0
LINE
  5
   27F
  8
0
  6
CONTINUOUS
 62
     7
 10
9.33186912536621
 20
-11.5635528564453
 30
0.0
 11
9.33186912536621
 21
-16.8135528564453
 31
0.0
  0
LINE
  5
   280
  8
0
  6
CONTINUOUS
 62
     7
 10
9.33186912536621
 20
-17.3135528564453
 30
0.0
 11
9.33186912536621
 21
-23.5635528564453
 31
0.0
  0
LINE
  5
   281
  8
0
  6
CONTINUOUS
 62
     7
 10
9.33186912536621
 20
17.6864471435547
 30
0.0
 11
9.33186912536621
 21
12.4364471435547
 31
0.0
  0
LINE
  5
   282
  8
0
  6
CONTINUOUS
 62
     7
 10
-52.1681308746338
 20
18.1864471435547
 30
0.0
 11
9.83186912536621
 21
18.1864471435547
 31
0.0
  0
LINE
  5
   283
  8
0
  6
CONTINUOUS
 62
     7
 10
-51.6681308746338
 20
17.6864471435547
 30
0.0
 11
9.33186912536621
 21
17.6864471435547
 31
0.0
  0
LINE
  5
   284
  8
0
  6
CONTINUOUS
 62
     7
 10
-51.6681308746338
 20
-17.3135528564453
 30
0.0
 11
9.33186912536621
 21
-17.3135528564453
 31
0.0
  0
LINE
  5
   285
  8
0
  6
CONTINUOUS
 62
     7
 10
-51.6681308746338
 20
-16.8135528564453
 30
0.0
 11
9.33186912536621
 21
-16.8135528564453
 31
0.0
  0
LINE
  5
   286
  8
0
  6
CONTINUOUS
 62
     7
 10
-52.1681308746338
 20
21.6864471435547
 30
0.0
 11
-52.0181293487549
 21
21.6864471435547
 31
0.0
  0
LINE
  5
   287
  8
0
  6
CONTINUOUS
 62
     7
 10
-52.1681308746338
 20
20.9364471435547
 30
0.0
 11
-52.0181293487549
 21
20.9364471435547
 31
0.0
  0
LINE
  5
   288
  8
0
  6
CONTINUOUS
 62
     7
 10
9.68186902999878
 20
21.6864471435547
 30
0.0
 11
9.83186912536621
 21
21.6864471435547
 31
0.0
  0
LINE
  5
   289
  8
0
  6
CONTINUOUS
 62
     7
 10
9.68186902999878
 20
20.9364471435547
 30
0.0
 11
9.83186912536621
 21
20.9364471435547
 31
0.0
  0
ARC
  5
   28A
  8
0
  6
CONTINUOUS
 62
     7
 10
-52.0181493200929
 20
21.3114346845775
 30
0.0
 40
0.375021724720464
 50
270.002994716444
 51
449.997011754257
  0
ARC
  5
   28B
  8
0
  6
CONTINUOUS
 62
     7
 10
9.68187646155756
 20
21.3114443884895
 30
0.0
 40
0.375007470094436
 50
450.001135501493
 51
629.998857587167
  0
ARC
  5
   28C
  8
0
  6
CONTINUOUS
 62
     7
 10
11.4568691253662
 20
23.8114471435547
 30
0.0
 40
0.625
 50
359.999999844103
 51
449.999999844103
  0
ARC
  5
   28D
  8
0
  6
CONTINUOUS
 62
     7
 10
-53.7931308746338
 20
23.8114471435547
 30
0.0
 40
0.625
 50
449.999999844103
 51
539.999999844103
  0
ARC
  5
   28E
  8
0
  6
CONTINUOUS
 62
     7
 10
-53.7931308746338
 20
-22.9385528564453
 30
0.0
 40
0.625
 50
539.999999844103
 51
629.999999844103
  0
ARC
  5
   28F
  8
0
  6
CONTINUOUS
 62
     7
 10
11.4568691253662
 20
-22.9385528564453
 30
0.0
 40
0.625
 50
629.999999844103
 51
719.999999844103
  0
LINE
  5
   290
  8
0
  6
CONTINUOUS
 62
     7
 10
9.58186912536621
 20
12.4364471435547
 30
0.0
 11
9.58186912536621
 21
-11.5635528564453
 31
0.0
  0
LINE
  5
   291
  8
0
  6
CONTINUOUS
 62
     7
 10
-51.9181308746338
 20
12.4364471435547
 30
0.0
 11
-51.9181308746338
 21
-11.5635528564453
 31
0.0
  0
LINE
  5
   292
  8
0
  6
CONTINUOUS
 62
   130
 10
-8.4180714113595
 20
-4.51983951751437
 30
0.0
 11
-8.41807146857998
 21
-6.01983951751437
 31
0.0
  0
LINE
  5
   293
  8
0
  6
CONTINUOUS
 62
   130
 10
-18.9180854337342
 20
-4.51983951751437
 30
0.0
 11
-18.9180853765137
 21
-6.01983951751437
 31
0.0
  0
LINE
  5
   294
  8
0
  6
CONTINUOUS
 62
   130
 10
-18.9180854337342
 20
-4.51983951751437
 30
0.0
 11
-17.4180854337341
 21
-4.51983951751437
 31
0.0
  0
LINE
  5
   295
  8
0
  6
CONTINUOUS
 62
   130
 10
-9.91807141135949
 20
-4.51983951751437
 30
0.0
 11
-8.41807141135949
 21
-4.51983951751437
 31
0.0
  0
LINE
  5
   296
  8
0
  6
CONTINUOUS
 62
   130
 10
-18.9180853765137
 20
-6.01983951751437
 30
0.0
 11
-16.9180853765137
 21
-6.01983951751437
 31
0.0
  0
LINE
  5
   297
  8
0
  6
CONTINUOUS
 62
   130
 10
-10.41807146858
 20
-6.01983951751437
 30
0.0
 11
-8.41807146857998
 21
-6.01983951751437
 31
0.0
  0
LINE
  5
   298
  8
0
  6
CONTINUOUS
 62
   130
 10
15.2883424758911
 20
-0.813929378986359
 30
0.0
 11
15.2883424758911
 21
-0.813929378986359
 31
0.0
  0
LINE
  5
   299
  8
0
  6
CONTINUOUS
 62
   130
 10
15.2883424758911
 20
-0.813929378986359
 30
0.0
 11
15.2883424758911
 21
-0.813929378986359
 31
0.0
  0
LINE
  5
   29A
  8
0
  6
CONTINUOUS
 62
   130
 10
15.2883424758911
 20
-0.813929378986359
 30
0.0
 11
15.2883424758911
 21
-0.813929378986359
 31
0.0
  0
LINE
  5
   29B
  8
0
  6
CONTINUOUS
 62
   130
 10
15.2883424758911
 20
-0.813929378986359
 30
0.0
 11
15.2883424758911
 21
-0.813929378986359
 31
0.0
  0
LINE
  5
   29C
  8
0
  6
CONTINUOUS
 62
   130
 10
15.2883424758911
 20
-0.813929378986359
 30
0.0
 11
15.2883424758911
 21
-0.813929378986359
 31
0.0
  0
LINE
  5
   29D
  8
0
  6
CONTINUOUS
 62
   130
 10
15.2883424758911
 20
-0.813929378986359
 30
0.0
 11
15.2883424758911
 21
-0.813929378986359
 31
0.0
  0
LINE
  5
   29E
  8
0
  6
CONTINUOUS
 62
   130
 10
15.2883424758911
 20
-0.813929378986359
 30
0.0
 11
15.2883424758911
 21
-0.813929378986359
 31
0.0
  0
LINE
  5
   29F
  8
0
  6
CONTINUOUS
 62
   130
 10
15.2883424758911
 20
-0.813929378986359
 30
0.0
 11
15.2883424758911
 21
-0.813929378986359
 31
0.0
  0
LINE
  5
   2A0
  8
0
  6
CONTINUOUS
 62
   130
 10
-51.1680703735253
 20
46.4360217285156
 30
0.0
 11
-51.1680670166573
 21
24.4364471435547
 31
0.0
  0
LINE
  5
   2A1
  8
0
  6
CONTINUOUS
 62
   130
 10
-51.1680616378801
 20
-10.8139141201939
 30
0.0
 11
-13.668076896669
 21
-10.8139141201939
 31
0.0
  0
LINE
  5
   2A2
  8
0
  6
CONTINUOUS
 62
   130
 10
-51.168065071107
 20
11.6860858798002
 30
0.0
 11
-13.6680803298958
 21
11.6860858798002
 31
0.0
  0
LINE
  5
   2A3
  8
0
  6
CONTINUOUS
 62
   130
 10
-17.4180858924108
 20
7.50408760040782
 30
0.0
 11
-10.3458631197159
 21
7.50408760040782
 31
0.0
  0
LINE
  5
   2A4
  8
0
  6
CONTINUOUS
 62
   130
 10
-17.4180859279638
 20
8.43608587980018
 30
0.0
 11
-17.4180854146607
 21
-5.01983951751437
 31
0.0
  0
LINE
  5
   2A5
  8
0
  6
DASHDOT
 62
   130
 10
-23.9680772781375
 20
-5.68892174959092
 30
0.0
 11
-23.9680772781375
 21
-10.9389217495909
 31
0.0
  0
LINE
  5
   2A6
  8
0
  6
CONTINUOUS
 62
   130
 10
-17.4180854146606
 20
-5.01983951751437
 30
0.0
 11
-16.9180854146607
 21
-5.01983951751437
 31
0.0
  0
LINE
  5
   2A7
  8
0
  6
CONTINUOUS
 62
   130
 10
-17.4180854218362
 20
-4.83173777491745
 30
0.0
 11
-16.9180854218362
 21
-4.83173777491745
 31
0.0
  0
LINE
  5
   2A8
  8
0
  6
CONTINUOUS
 62
   130
 10
-34.6930791473222
 20
8.43608587980018
 30
0.0
 11
-8.57236656395264
 21
8.43608587980018
 31
0.0
  0
LINE
  5
   2A9
  8
0
  6
CONTINUOUS
 62
   130
 10
-34.693079261763
 20
7.68608587980018
 30
0.0
 11
-17.4180858993535
 21
7.68608587980018
 31
0.0
  0
LINE
  5
   2AA
  8
0
  6
CONTINUOUS
 62
   130
 10
-34.6930815887279
 20
-7.56391412019388
 30
0.0
 11
-26.4680772781375
 21
-7.56391412019388
 31
0.0
  0
LINE
  5
   2AB
  8
0
  6
CONTINUOUS
 62
   130
 10
-34.693081474287
 20
-6.81391412019388
 30
0.0
 11
-16.9180853462221
 21
-6.81391412019388
 31
0.0
  0
LINE
  5
   2AC
  8
0
  6
CONTINUOUS
 62
   130
 10
-21.4680772781375
 20
-7.56391412019388
 30
0.0
 11
2.92162220937124
 21
-7.56391412019388
 31
0.0
  0
LINE
  5
   2AD
  8
0
  6
CONTINUOUS
 62
   130
 10
-16.918085513694
 20
-2.42374199241394
 30
0.0
 11
-16.9180853532284
 21
-6.63024759054955
 31
0.0
  0
LINE
  5
   2AE
  8
0
  6
CONTINUOUS
 62
   130
 10
15.2883424758911
 20
-0.813929378986359
 30
0.0
 11
15.2883424758911
 21
-0.813929378986359
 31
0.0
  0
LINE
  5
   2AF
  8
0
  6
CONTINUOUS
 62
   130
 10
15.2883424758911
 20
-0.813929378986359
 30
0.0
 11
15.2883424758911
 21
-0.813929378986359
 31
0.0
  0
LINE
  5
   2B0
  8
0
  6
CONTINUOUS
 62
   130
 10
15.2883424758911
 20
-0.813929378986359
 30
0.0
 11
15.2883424758911
 21
-0.813929378986359
 31
0.0
  0
LINE
  5
   2B1
  8
0
  6
CONTINUOUS
 62
   130
 10
15.2883424758911
 20
-0.813929378986359
 30
0.0
 11
15.2883424758911
 21
-0.813929378986359
 31
0.0
  0
LINE
  5
   2B2
  8
0
  6
CONTINUOUS
 62
   130
 10
15.2883424758911
 20
-0.813929378986359
 30
0.0
 11
15.2883424758911
 21
-0.813929378986359
 31
0.0
  0
LINE
  5
   2B3
  8
0
  6
CONTINUOUS
 62
   130
 10
15.2883424758911
 20
-0.813929378986359
 30
0.0
 11
15.2883424758911
 21
-0.813929378986359
 31
0.0
  0
LINE
  5
   2B4
  8
0
  6
CONTINUOUS
 62
   130
 10
15.2883424758911
 20
-0.813929378986359
 30
0.0
 11
15.2883424758911
 21
-0.813929378986359
 31
0.0
  0
LINE
  5
   2B5
  8
0
  6
CONTINUOUS
 62
   130
 10
-50.6680830001801
 20
29.1860647382564
 30
0.0
 11
-50.6680828857392
 21
28.4360647382564
 31
0.0
  0
LINE
  5
   2B6
  8
0
  6
CONTINUOUS
 62
   130
 10
-35.66808300018
 20
29.1860647382564
 30
0.0
 11
-13.6680933204571
 21
29.1860647382564
 31
0.0
  0
LINE
  5
   2B7
  8
0
  6
CONTINUOUS
 62
   130
 10
-51.1680676269504
 20
28.4360647382564
 30
0.0
 11
-13.6680784225464
 21
28.4360647382564
 31
0.0
  0
LINE
  5
   2B8
  8
0
  6
CONTINUOUS
 62
   130
 10
15.2883424758911
 20
-0.813929378986359
 30
0.0
 11
15.2883424758911
 21
-0.813929378986359
 31
0.0
  0
LINE
  5
   2B9
  8
0
  6
CONTINUOUS
 62
   130
 10
15.2883424758911
 20
-0.813929378986359
 30
0.0
 11
15.2883424758911
 21
-0.813929378986359
 31
0.0
  0
LINE
  5
   2BA
  8
0
  6
CONTINUOUS
 62
   130
 10
15.2883424758911
 20
-0.813929378986359
 30
0.0
 11
15.2883424758911
 21
-0.813929378986359
 31
0.0
  0
LINE
  5
   2BB
  8
0
  6
CONTINUOUS
 62
   130
 10
15.2883424758911
 20
-0.813929378986359
 30
0.0
 11
15.2883424758911
 21
-0.813929378986359
 31
0.0
  0
LINE
  5
   2BC
  8
0
  6
CONTINUOUS
 62
   130
 10
15.2883424758911
 20
-0.813929378986359
 30
0.0
 11
15.2883424758911
 21
-0.813929378986359
 31
0.0
  0
LINE
  5
   2BD
  8
0
  6
CONTINUOUS
 62
   130
 10
15.2883424758911
 20
-0.813929378986359
 30
0.0
 11
15.2883424758911
 21
-0.813929378986359
 31
0.0
  0
LINE
  5
   2BE
  8
0
  6
CONTINUOUS
 62
   130
 10
15.2883424758911
 20
-0.813929378986359
 30
0.0
 11
15.2883424758911
 21
-0.813929378986359
 31
0.0
  0
LINE
  5
   2BF
  8
0
  6
CONTINUOUS
 62
   130
 10
15.2883424758911
 20
-0.813929378986359
 30
0.0
 11
15.2883424758911
 21
-0.813929378986359
 31
0.0
  0
LINE
  5
   2C0
  8
0
  6
CONTINUOUS
 62
   130
 10
8.83191352843163
 20
46.4360217285156
 30
0.0
 11
8.83191017156365
 21
24.4364471435547
 31
0.0
  0
LINE
  5
   2C1
  8
0
  6
CONTINUOUS
 62
   130
 10
-13.6680799484247
 20
-10.8139141201939
 30
0.0
 11
8.83192005157555
 21
-10.8139141201939
 31
0.0
  0
LINE
  5
   2C2
  8
0
  6
CONTINUOUS
 62
   130
 10
-13.6680765151979
 20
11.6860858798002
 30
0.0
 11
8.83192348480237
 21
11.6860858798002
 31
0.0
  0
LINE
  5
   2C3
  8
0
  6
CONTINUOUS
 62
   130
 10
-10.4180709526828
 20
7.50408760040782
 30
0.0
 11
-9.91807095268283
 21
7.50408760040782
 31
0.0
  0
LINE
  5
   2C4
  8
0
  6
CONTINUOUS
 62
   130
 10
-9.91807091712989
 20
8.43608587980018
 30
0.0
 11
-9.91807143043299
 21
-5.01983951751437
 31
0.0
  0
LINE
  5
   2C5
  8
0
  6
CONTINUOUS
 62
   130
 10
-10.418071430433
 20
-5.01983951751437
 30
0.0
 11
-9.918071430433
 21
-5.01983951751437
 31
0.0
  0
LINE
  5
   2C6
  8
0
  6
CONTINUOUS
 62
   130
 10
-10.4180714232575
 20
-4.83173777491745
 30
0.0
 11
-9.91807142325748
 21
-4.83173777491745
 31
0.0
  0
LINE
  5
   2C7
  8
0
  6
CONTINUOUS
 62
   130
 10
-10.4180709171299
 20
8.43608587980018
 30
0.0
 11
8.83192298889183
 21
8.43608587980018
 31
0.0
  0
LINE
  5
   2C8
  8
0
  6
CONTINUOUS
 62
   130
 10
-9.91807094574015
 20
7.68608587980018
 30
0.0
 11
8.83192287445094
 21
7.68608587980018
 31
0.0
  0
LINE
  5
   2C9
  8
0
  6
CONTINUOUS
 62
   130
 10
-10.4180713313997
 20
-2.42374199241394
 30
0.0
 11
-10.4180714918652
 21
-6.63024759054955
 31
0.0
  0
LINE
  5
   2CA
  8
0
  6
CONTINUOUS
 62
   130
 10
15.2883424758911
 20
-0.813929378986359
 30
0.0
 11
15.2883424758911
 21
-0.813929378986359
 31
0.0
  0
LINE
  5
   2CB
  8
0
  6
CONTINUOUS
 62
   130
 10
15.2883424758911
 20
-0.813929378986359
 30
0.0
 11
15.2883424758911
 21
-0.813929378986359
 31
0.0
  0
LINE
  5
   2CC
  8
0
  6
CONTINUOUS
 62
   130
 10
15.2883424758911
 20
-0.813929378986359
 30
0.0
 11
15.2883424758911
 21
-0.813929378986359
 31
0.0
  0
LINE
  5
   2CD
  8
0
  6
CONTINUOUS
 62
   130
 10
15.2883424758911
 20
-0.813929378986359
 30
0.0
 11
15.2883424758911
 21
-0.813929378986359
 31
0.0
  0
LINE
  5
   2CE
  8
0
  6
CONTINUOUS
 62
   130
 10
15.2883424758911
 20
-0.813929378986359
 30
0.0
 11
15.2883424758911
 21
-0.813929378986359
 31
0.0
  0
LINE
  5
   2CF
  8
0
  6
CONTINUOUS
 62
   130
 10
8.33192615508642
 20
29.1860647382564
 30
0.0
 11
8.33192604064552
 21
28.4360647382564
 31
0.0
  0
LINE
  5
   2D0
  8
0
  6
CONTINUOUS
 62
   130
 10
-51.1680677413913
 20
29.1860647382564
 30
0.0
 11
8.83191089629763
 21
29.1860647382564
 31
0.0
  0
LINE
  5
   2D1
  8
0
  6
CONTINUOUS
 62
   130
 10
-13.6680784225473
 20
28.4360647382564
 30
0.0
 11
8.83191932678206
 21
28.4360647382564
 31
0.0
  0
LINE
  5
   2D2
  8
0
  6
DASHDOT
 62
   130
 10
-30.3680772781375
 20
-8.31392174959092
 30
0.0
 11
-17.5680772781375
 21
-8.31392174959092
 31
0.0
  0
LINE
  5
   2D3
  8
0
  6
DASHDOT
 62
   130
 10
5.23192310333252
 20
-6.52566484746541
 30
0.0
 11
5.23192310333252
 21
-9.83555770113301
 31
0.0
  0
LINE
  5
   2D4
  8
0
  6
DASHDOT
 62
   130
 10
3.84059412387602
 20
-8.2139216427363
 30
0.0
 11
6.57617438394711
 21
-8.2139216427363
 31
0.0
  0
LINE
  5
   2D5
  8
0
  6
CONTINUOUS
 62
   130
 10
5.23192310333252
 20
-5.81392164273629
 30
0.0
 11
4.93625296571682
 21
-6.109591780352
 31
0.0
  0
LINE
  5
   2D6
  8
0
  6
CONTINUOUS
 62
   130
 10
5.23192310333252
 20
-5.81392164273629
 30
0.0
 11
5.52759324094822
 21
-6.109591780352
 31
0.0
  0
ARC
  5
   2D7
  8
0
  6
CONTINUOUS
 62
   130
 10
5.23192310333252
 20
-8.2139216427363
 30
0.0
 40
2.125
 50
457.998020342877
 51
802.00197934533
  0
LINE
  5
   2D8
  8
0
  6
CONTINUOUS
 62
   130
 10
4.23192310333252
 20
-7.9639216427363
 30
0.0
 11
6.23192310333252
 21
-7.9639216427363
 31
0.0
  0
LINE
  5
   2D9
  8
0
  6
CONTINUOUS
 62
   130
 10
4.23192310333252
 20
-8.4639216427363
 30
0.0
 11
6.23192310333252
 21
-8.4639216427363
 31
0.0
  0
ARC
  5
   2DA
  8
0
  6
CONTINUOUS
 62
   130
 10
5.23192310333252
 20
-8.2139216427363
 30
0.0
 40
2.4
 50
359.999999844103
 51
539.999999844103
  0
LINE
  5
   2DB
  8
0
  6
CONTINUOUS
 62
   130
 10
2.83192310333252
 20
-8.2139216427363
 30
0.0
 11
3.10692310333252
 21
-8.2139216427363
 31
0.0
  0
LINE
  5
   2DC
  8
0
  6
CONTINUOUS
 62
   130
 10
7.35692310333252
 20
-8.2139216427363
 30
0.0
 11
7.63192310333252
 21
-8.2139216427363
 31
0.0
  0
LINE
  5
   2DD
  8
0
  6
CONTINUOUS
 62
   130
 10
7.18127656969634
 20
-6.81391412019388
 30
0.0
 11
8.83190540313794
 21
-6.81391412019388
 31
0.0
  0
LINE
  5
   2DE
  8
0
  6
CONTINUOUS
 62
   130
 10
7.5422239972938
 20
-7.56391412019388
 30
0.0
 11
8.83190528869704
 21
-7.56391412019388
 31
0.0
  0
CIRCLE
  5
   2DF
  8
0
  6
CONTINUOUS
 62
     7
 10
5.23192310333252
 20
-5.26345809932766
 30
0.0
 40
0.4
  0
INSERT
  5
   2E0
  8
0
  6
CONTINUOUS
 62
     7
  2
*HATCH0
 10
15.2883424758911
 20
-0.813929378986359
 30
0.0
 41
0.5
 42
0.5
 50
269.999999844103
 43
0.5
  0
LINE
  5
   2E1
  8
0
  6
CONTINUOUS
 62
   130
 10
-16.918085513694
 20
-2.42374199241394
 30
0.0
 11
-10.4180713313997
 21
-2.42374199241394
 31
0.0
  0
LINE
  5
   2E2
  8
0
  6
CONTINUOUS
 62
   130
 10
-16.6680853993332
 20
-5.17164007079726
 30
0.0
 11
-10.6680714457605
 21
-5.17164007079726
 31
0.0
  0
LINE
  5
   2E3
  8
0
  6
CONTINUOUS
 62
   130
 10
-16.6680853532284
 20
-6.8802475810128
 30
0.0
 11
-10.6680714918652
 21
-6.8802475810128
 31
0.0
  0
LINE
  5
   2E4
  8
0
  6
CONTINUOUS
 62
   130
 10
-10.4180714988715
 20
-6.81391412019388
 30
0.0
 11
3.2825696369687
 21
-6.81391412019388
 31
0.0
  0
ARC
  5
   2E5
  8
0
  6
CONTINUOUS
 62
   130
 10
-16.6680853532284
 20
-6.6302475810128
 30
0.0
 40
0.25
 50
540.000002029765
 51
629.999999844103
  0
ARC
  5
   2E6
  8
0
  6
CONTINUOUS
 62
   130
 10
-10.6680714918652
 20
-6.6302475810128
 30
0.0
 40
0.25
 50
269.999999844103
 51
359.999997658442
  0
ARC
  5
   2E7
  8
0
  6
CONTINUOUS
 62
   130
 10
-10.6680714457605
 20
-5.42164007079726
 30
0.0
 40
0.25
 50
359.999997658442
 51
449.999999844103
  0
ARC
  5
   2E8
  8
0
  6
CONTINUOUS
 62
   130
 10
-16.6680853993332
 20
-5.42164007079726
 30
0.0
 40
0.25
 50
449.999999844103
 51
540.000002029765
  0
LINE
  5
   2E9
  8
0
  6
CONTINUOUS
 62
   130
 10
-13.6680799484247
 20
-10.8139141201939
 30
0.0
 11
8.83192005157555
 21
-10.8139141201939
 31
0.0
  0
LINE
  5
   2EA
  8
0
  6
CONTINUOUS
 62
   130
 10
-13.6680765151979
 20
11.6860858798002
 30
0.0
 11
8.83192348480237
 21
11.6860858798002
 31
0.0
  0
LINE
  5
   2EB
  8
0
  6
CONTINUOUS
 62
   130
 10
-20.5524320602417
 20
6.6141593003891
 30
0.0
 11
-20.1774320602417
 21
6.6141593003891
 31
0.0
  0
LINE
  5
   2EC
  8
0
  6
CONTINUOUS
 62
   130
 10
-20.5524320602417
 20
4.3641593003891
 30
0.0
 11
-20.1774320602417
 21
4.3641593003891
 31
0.0
  0
CIRCLE
  5
   2ED
  8
0
  6
CONTINUOUS
 62
   130
 10
-20.3649320602417
 20
-2.8858406996109
 30
0.0
 40
1.125
  0
CIRCLE
  5
   2EE
  8
0
  6
CONTINUOUS
 62
   130
 10
-20.3649320602417
 20
-2.8858406996109
 30
0.0
 40
0.75
  0
LINE
  5
   2EF
  8
0
  6
CONTINUOUS
 62
   130
 10
-20.5524320602417
 20
6.6141593003891
 30
0.0
 11
-20.5524320602417
 21
4.3641593003891
 31
0.0
  0
LINE
  5
   2F0
  8
0
  6
CONTINUOUS
 62
   130
 10
-20.1774320602417
 20
6.6141593003891
 30
0.0
 11
-20.1774320602417
 21
4.3641593003891
 31
0.0
  0
LINE
  5
   2F1
  8
0
  6
CONTINUOUS
 62
   130
 10
-6.27743450164797
 20
-1.9233406996109
 30
0.0
 11
-6.16493450164797
 21
-1.9233406996109
 31
0.0
  0
LINE
  5
   2F2
  8
0
  6
CONTINUOUS
 62
   130
 10
-6.60243450164798
 20
-3.8483406996109
 30
0.0
 11
-6.40243450164797
 21
-3.8483406996109
 31
0.0
  0
LINE
  5
   2F3
  8
0
  6
CONTINUOUS
 62
   130
 10
-6.90243450164796
 20
-3.07334069961089
 30
0.0
 11
-6.90243450164796
 21
-3.19834069961088
 31
0.0
  0
ARC
  5
   2F4
  8
0
  6
CONTINUOUS
 62
   130
 10
-7.55243450164797
 20
-3.0733406996109
 30
0.0
 40
0.65
 50
359.999999844103
 51
539.999999844103
  0
ARC
  5
   2F5
  8
0
  6
CONTINUOUS
 62
   130
 10
-7.55243450164797
 20
-3.1983406996109
 30
0.0
 40
0.649999999999999
 50
539.999999844103
 51
719.999999844103
  0
ARC
  5
   2F6
  8
0
  6
CONTINUOUS
 62
   130
 10
-7.55243450164797
 20
-3.0733406996109
 30
0.0
 40
0.45
 50
359.999999844103
 51
539.999999844103
  0
ARC
  5
   2F7
  8
0
  6
CONTINUOUS
 62
   130
 10
-7.55243450164797
 20
-3.1983406996109
 30
0.0
 40
0.449999999999999
 50
539.999999844103
 51
719.999999844103
  0
LINE
  5
   2F8
  8
0
  6
CONTINUOUS
 62
   130
 10
-7.10243450164796
 20
-3.07334069961089
 30
0.0
 11
-7.10243450164796
 21
-3.19834069961089
 31
0.0
  0
LINE
  5
   2F9
  8
0
  6
CONTINUOUS
 62
   130
 10
-6.83993450164796
 20
-2.52334069961089
 30
0.0
 11
-6.83993450164796
 21
-2.72334069961089
 31
0.0
  0
LINE
  5
   2FA
  8
0
  6
CONTINUOUS
 62
   130
 10
-6.83993450164797
 20
-2.7233406996109
 30
0.0
 11
-6.60243450164797
 21
-2.7233406996109
 31
0.0
  0
LINE
  5
   2FB
  8
0
  6
CONTINUOUS
 62
   130
 10
-6.16493450164796
 20
-2.52334069961089
 30
0.0
 11
-6.16493450164796
 21
-2.72334069961089
 31
0.0
  0
LINE
  5
   2FC
  8
0
  6
CONTINUOUS
 62
   130
 10
-6.83993450164797
 20
-2.5233406996109
 30
0.0
 11
-6.60243450164797
 21
-2.5233406996109
 31
0.0
  0
LINE
  5
   2FD
  8
0
  6
CONTINUOUS
 62
   130
 10
-6.60243450164796
 20
-2.72334069961089
 30
0.0
 11
-6.60243450164796
 21
-3.84834069961089
 31
0.0
  0
LINE
  5
   2FE
  8
0
  6
CONTINUOUS
 62
   130
 10
-6.40243450164796
 20
-2.72334069961089
 30
0.0
 11
-6.40243450164796
 21
-3.84834069961089
 31
0.0
  0
LINE
  5
   2FF
  8
0
  6
CONTINUOUS
 62
   130
 10
-6.40243450164797
 20
-2.7233406996109
 30
0.0
 11
-6.16493450164797
 21
-2.7233406996109
 31
0.0
  0
LINE
  5
   300
  8
0
  6
CONTINUOUS
 62
   130
 10
-6.40243450164797
 20
-2.5233406996109
 30
0.0
 11
-6.16493450164797
 21
-2.5233406996109
 31
0.0
  0
LINE
  5
   301
  8
0
  6
CONTINUOUS
 62
   130
 10
-6.60243450164796
 20
-2.24834069961089
 30
0.0
 11
-6.60243450164796
 21
-2.52334069961089
 31
0.0
  0
LINE
  5
   302
  8
0
  6
CONTINUOUS
 62
   130
 10
-6.40243450164796
 20
-2.24834069961089
 30
0.0
 11
-6.40243450164796
 21
-2.52334069961089
 31
0.0
  0
ARC
  5
   303
  8
0
  6
CONTINUOUS
 62
   130
 10
-6.27743450164797
 20
-2.2483406996109
 30
0.0
 40
0.325
 50
449.999999844103
 51
539.999999844103
  0
ARC
  5
   304
  8
0
  6
CONTINUOUS
 62
   130
 10
-6.27743450164797
 20
-2.2483406996109
 30
0.0
 40
0.125
 50
449.999999844103
 51
539.999999844103
  0
LINE
  5
   305
  8
0
  6
CONTINUOUS
 62
   130
 10
-6.16493450164796
 20
-1.92334069961089
 30
0.0
 11
-6.16493450164796
 21
-2.12334069961089
 31
0.0
  0
LINE
  5
   306
  8
0
  6
CONTINUOUS
 62
   130
 10
-6.27743450164797
 20
-2.1233406996109
 30
0.0
 11
-6.16493450164797
 21
-2.1233406996109
 31
0.0
  0
LINE
  5
   307
  8
0
  6
CONTINUOUS
 62
   130
 10
-5.80243450164798
 20
-3.8483406996109
 30
0.0
 11
-5.60243450164798
 21
-3.8483406996109
 31
0.0
  0
LINE
  5
   308
  8
0
  6
CONTINUOUS
 62
   130
 10
-6.03993450164796
 20
-2.52334069961089
 30
0.0
 11
-6.03993450164796
 21
-2.72334069961089
 31
0.0
  0
LINE
  5
   309
  8
0
  6
CONTINUOUS
 62
   130
 10
-6.03993450164797
 20
-2.7233406996109
 30
0.0
 11
-5.80243450164797
 21
-2.7233406996109
 31
0.0
  0
LINE
  5
   30A
  8
0
  6
CONTINUOUS
 62
   130
 10
-5.36493450164797
 20
-2.52334069961089
 30
0.0
 11
-5.36493450164797
 21
-2.72334069961089
 31
0.0
  0
LINE
  5
   30B
  8
0
  6
CONTINUOUS
 62
   130
 10
-6.03993450164797
 20
-2.5233406996109
 30
0.0
 11
-5.80243450164797
 21
-2.5233406996109
 31
0.0
  0
LINE
  5
   30C
  8
0
  6
CONTINUOUS
 62
   130
 10
-5.80243450164797
 20
-2.72334069961089
 30
0.0
 11
-5.80243450164797
 21
-3.84834069961089
 31
0.0
  0
LINE
  5
   30D
  8
0
  6
CONTINUOUS
 62
   130
 10
-5.60243450164796
 20
-2.72334069961089
 30
0.0
 11
-5.60243450164796
 21
-3.84834069961089
 31
0.0
  0
LINE
  5
   30E
  8
0
  6
CONTINUOUS
 62
   130
 10
-5.60243450164797
 20
-2.7233406996109
 30
0.0
 11
-5.36493450164797
 21
-2.7233406996109
 31
0.0
  0
LINE
  5
   30F
  8
0
  6
CONTINUOUS
 62
   130
 10
-5.60243450164797
 20
-2.5233406996109
 30
0.0
 11
-5.36493450164797
 21
-2.5233406996109
 31
0.0
  0
LINE
  5
   310
  8
0
  6
CONTINUOUS
 62
   130
 10
-5.80243450164797
 20
-2.24834069961089
 30
0.0
 11
-5.80243450164797
 21
-2.52334069961089
 31
0.0
  0
LINE
  5
   311
  8
0
  6
CONTINUOUS
 62
   130
 10
-5.60243450164796
 20
-2.24834069961089
 30
0.0
 11
-5.60243450164796
 21
-2.52334069961089
 31
0.0
  0
ARC
  5
   312
  8
0
  6
CONTINUOUS
 62
   130
 10
-5.47743450164797
 20
-2.2483406996109
 30
0.0
 40
0.325
 50
449.999999844103
 51
539.999999844103
  0
ARC
  5
   313
  8
0
  6
CONTINUOUS
 62
   130
 10
-5.47743450164797
 20
-2.2483406996109
 30
0.0
 40
0.125
 50
449.999999844103
 51
539.999999844103
  0
LINE
  5
   314
  8
0
  6
CONTINUOUS
 62
   130
 10
-5.36493450164797
 20
-1.92334069961089
 30
0.0
 11
-5.36493450164797
 21
-2.12334069961089
 31
0.0
  0
LINE
  5
   315
  8
0
  6
CONTINUOUS
 62
   130
 10
-6.70243450164795
 20
4.7766593003891
 30
0.0
 11
-6.50243450164795
 21
4.7766593003891
 31
0.0
  0
ARC
  5
   316
  8
0
  6
CONTINUOUS
 62
   130
 10
-7.55243450164795
 20
5.55165930038909
 30
0.0
 40
0.65
 50
359.999999844103
 51
539.999999844103
  0
ARC
  5
   317
  8
0
  6
CONTINUOUS
 62
   130
 10
-7.55243450164795
 20
5.55165930038909
 30
0.0
 40
0.45
 50
359.999999844103
 51
539.999999844103
  0
ARC
  5
   318
  8
0
  6
CONTINUOUS
 62
   130
 10
-7.55243450164795
 20
5.4266593003891
 30
0.0
 40
0.649999999999999
 50
539.999999844103
 51
719.999999844103
  0
ARC
  5
   319
  8
0
  6
CONTINUOUS
 62
   130
 10
-7.55243450164795
 20
5.4266593003891
 30
0.0
 40
0.449999999999999
 50
539.999999844103
 51
719.999999844103
  0
LINE
  5
   31A
  8
0
  6
CONTINUOUS
 62
   130
 10
-6.70243450164796
 20
6.20165930038911
 30
0.0
 11
-6.70243450164796
 21
4.77665930038911
 31
0.0
  0
LINE
  5
   31B
  8
0
  6
CONTINUOUS
 62
   130
 10
-6.50243450164796
 20
5.65165930038911
 30
0.0
 11
-6.50243450164796
 21
4.77665930038911
 31
0.0
  0
LINE
  5
   31C
  8
0
  6
CONTINUOUS
 62
   130
 10
-5.80243450164796
 20
5.65165930038911
 30
0.0
 11
-5.80243450164796
 21
4.77665930038911
 31
0.0
  0
LINE
  5
   31D
  8
0
  6
CONTINUOUS
 62
   130
 10
-5.60243450164796
 20
5.70165930038911
 30
0.0
 11
-5.60243450164796
 21
4.77665930038911
 31
0.0
  0
LINE
  5
   31E
  8
0
  6
CONTINUOUS
 62
   130
 10
-6.70243450164795
 20
6.2016593003891
 30
0.0
 11
-6.50243450164795
 21
6.2016593003891
 31
0.0
  0
ARC
  5
   31F
  8
0
  6
CONTINUOUS
 62
   130
 10
-6.15243450164795
 20
5.65165930038909
 30
0.0
 40
0.35
 50
359.999999844103
 51
539.999999844103
  0
LINE
  5
   320
  8
0
  6
CONTINUOUS
 62
   130
 10
-6.50243450164796
 20
6.20165930038911
 30
0.0
 11
-6.50243450164796
 21
6.00165930038911
 31
0.0
  0
ARC
  5
   321
  8
0
  6
CONTINUOUS
 62
   130
 10
-6.10243450164795
 20
5.70165930038909
 30
0.0
 40
0.5
 50
359.999999844103
 51
503.130102198259
  0
LINE
  5
   322
  8
0
  6
CONTINUOUS
 62
   130
 10
-5.80243450164796
 20
4.7766593003891
 30
0.0
 11
-5.60243450164796
 21
4.7766593003891
 31
0.0
  0
LINE
  5
   323
  8
0
  6
CONTINUOUS
 62
   130
 10
-6.46827210459887
 20
11.0156405162467
 30
0.0
 11
-6.58528795162206
 21
10.9950077745936
 31
0.0
  0
LINE
  5
   324
  8
0
  6
CONTINUOUS
 62
   130
 10
-6.58528072417744
 20
10.9950117023925
 30
0.0
 11
-6.68818217433502
 21
10.935602330806
 31
0.0
  0
LINE
  5
   325
  8
0
  6
CONTINUOUS
 62
   130
 10
-6.68818640718664
 20
10.9355979928354
 30
0.0
 11
-6.76456046968316
 21
10.8445776372344
 31
0.0
  0
LINE
  5
   326
  8
0
  6
CONTINUOUS
 62
   130
 10
-6.7645590442963
 20
10.8445781944649
 30
0.0
 11
-6.80519701203819
 21
10.7329251073439
 31
0.0
  0
LINE
  5
   327
  8
0
  6
CONTINUOUS
 62
   130
 10
-6.80520064507687
 20
10.7329253104764
 30
0.0
 11
-6.80520064507687
 21
10.6141065505582
 31
0.0
  0
LINE
  5
   328
  8
0
  6
CONTINUOUS
 62
   130
 10
-6.80519734317792
 20
10.6141077612183
 30
0.0
 11
-6.76455937543603
 21
10.5024546740973
 31
0.0
  0
LINE
  5
   329
  8
0
  6
CONTINUOUS
 62
   130
 10
-6.76456115539426
 20
10.5024541975206
 30
0.0
 11
-6.68818709289773
 21
10.4114338419196
 31
0.0
  0
LINE
  5
   32A
  8
0
  6
CONTINUOUS
 62
   130
 10
-6.68818050659809
 20
10.4114315417261
 30
0.0
 11
-6.58527905644053
 21
10.3520221701396
 31
0.0
  0
LINE
  5
   32B
  8
0
  6
CONTINUOUS
 62
   130
 10
-6.58528713828822
 20
10.3520236339469
 30
0.0
 11
-6.46827129126502
 21
10.3313908922938
 31
0.0
  0
LINE
  5
   32C
  8
0
  6
CONTINUOUS
 62
   130
 10
-6.4682713237878
 20
10.3313909915525
 30
0.0
 11
-6.35355956231319
 21
10.3313909915525
 31
0.0
  0
LINE
  5
   32D
  8
0
  6
CONTINUOUS
 62
   130
 10
-6.35355345889031
 20
10.3313934247157
 30
0.0
 11
-6.30978744464737
 21
10.3171722359094
 31
0.0
  0
LINE
  5
   32E
  8
0
  6
CONTINUOUS
 62
   130
 10
-6.30978792726933
 20
10.3171721212358
 30
0.0
 11
-6.28273791357418
 21
10.279940919064
 31
0.0
  0
LINE
  5
   32F
  8
0
  6
CONTINUOUS
 62
   130
 10
-6.28274352227413
 20
10.2799385932523
 30
0.0
 11
-6.28274352227413
 21
10.2339183238584
 31
0.0
  0
LINE
  5
   330
  8
0
  6
CONTINUOUS
 62
   130
 10
-6.28273991285527
 20
10.2339199645679
 30
0.0
 11
-6.30978992655042
 21
10.196688762396
 31
0.0
  0
LINE
  5
   331
  8
0
  6
CONTINUOUS
 62
   130
 10
-6.3097886758991
 20
10.1966887634476
 30
0.0
 11
-6.35355469014205
 21
10.1824675746413
 31
0.0
  0
LINE
  5
   332
  8
0
  6
CONTINUOUS
 62
   130
 10
-6.77014739190304
 20
10.1824659255582
 30
0.0
 11
-6.35355956231319
 21
10.1824659255582
 31
0.0
  0
LINE
  5
   333
  8
0
  6
CONTINUOUS
 62
   130
 10
-6.77014739190304
 20
10.1824659255582
 30
0.0
 11
-6.77014739190304
 21
9.90876616512121
 31
0.0
  0
LINE
  5
   334
  8
0
  6
CONTINUOUS
 62
   130
 10
-6.77014739190304
 20
9.90876616512121
 30
0.0
 11
-6.35355956231319
 21
9.90876616512121
 31
0.0
  0
LINE
  5
   335
  8
0
  6
CONTINUOUS
 62
   130
 10
-6.23448117569601
 20
9.92976334585374
 30
0.0
 11
-6.35355694406468
 21
9.90876677736114
 31
0.0
  0
LINE
  5
   336
  8
0
  6
CONTINUOUS
 62
   130
 10
-6.12976494677497
 20
9.99022181630563
 30
0.0
 11
-6.23448221623061
 21
9.9297638620646
 31
0.0
  0
LINE
  5
   337
  8
0
  6
CONTINUOUS
 62
   130
 10
-6.05203620344064
 20
10.0828490591376
 30
0.0
 11
-6.12976065983419
 21
9.99022249372699
 31
0.0
  0
LINE
  5
   338
  8
0
  6
CONTINUOUS
 62
   130
 10
-6.01068485646267
 20
10.1964693999473
 30
0.0
 11
-6.05203999114603
 21
10.0828460034789
 31
0.0
  0
LINE
  5
   339
  8
0
  6
CONTINUOUS
 62
   130
 10
-6.01068694268429
 20
10.3173862842161
 30
0.0
 11
-6.01068694268429
 21
10.1964706328946
 31
0.0
  0
LINE
  5
   33A
  8
0
  6
CONTINUOUS
 62
   130
 10
-6.0520400860393
 20
10.4310103865026
 30
0.0
 11
-6.01068495135594
 21
10.3173869900343
 31
0.0
  0
LINE
  5
   33B
  8
0
  6
CONTINUOUS
 62
   130
 10
-6.12976322557658
 20
10.5236394180118
 30
0.0
 11
-6.05203876397087
 21
10.4310126008575
 31
0.0
  0
LINE
  5
   33C
  8
0
  6
CONTINUOUS
 62
   130
 10
-6.2344843872516
 20
10.5840946635366
 30
0.0
 11
-6.12976712247752
 21
10.5236369504328
 31
0.0
  0
LINE
  5
   33D
  8
0
  6
CONTINUOUS
 62
   130
 10
-6.35355342038931
 20
10.6050902881603
 30
0.0
 11
-6.23447765373638
 21
10.5840934817226
 31
0.0
  0
LINE
  5
   33E
  8
0
  6
CONTINUOUS
 62
   130
 10
-6.4682713237878
 20
10.6050909904081
 30
0.0
 11
-6.35355956231319
 21
10.6050909904081
 31
0.0
  0
LINE
  5
   33F
  8
0
  6
CONTINUOUS
 62
   130
 10
-6.50848927577047
 20
10.618160131278
 30
0.0
 11
-6.46826710838397
 21
10.6050921710622
 31
0.0
  0
LINE
  5
   340
  8
0
  6
CONTINUOUS
 62
   130
 10
-6.5333485893355
 20
10.6523708484483
 30
0.0
 11
-6.50849202193948
 21
10.6181582579675
 31
0.0
  0
LINE
  5
   341
  8
0
  6
CONTINUOUS
 62
   130
 10
-6.53335005913937
 20
10.6946603206235
 30
0.0
 11
-6.53335005913937
 21
10.6523715404111
 31
0.0
  0
LINE
  5
   342
  8
0
  6
CONTINUOUS
 62
   130
 10
-6.50848832997108
 20
10.7288717568767
 30
0.0
 11
-6.53334489736709
 21
10.6946591663959
 31
0.0
  0
LINE
  5
   343
  8
0
  6
CONTINUOUS
 62
   130
 10
-6.46826555573728
 20
10.7419427401715
 30
0.0
 11
-6.50848772312379
 21
10.7288747799557
 31
0.0
  0
LINE
  5
   344
  8
0
  6
CONTINUOUS
 62
   130
 10
-6.4682713237878
 20
10.7419408706266
 30
0.0
 11
-6.04564864312374
 21
10.7419408706266
 31
0.0
  0
LINE
  5
   345
  8
0
  6
CONTINUOUS
 62
   130
 10
-6.04564864312374
 20
11.0156408694822
 30
0.0
 11
-6.04564864312374
 21
10.7419408706266
 31
0.0
  0
LINE
  5
   346
  8
0
  6
CONTINUOUS
 62
   130
 10
-6.4682713237878
 20
11.0156408694822
 30
0.0
 11
-6.04564864312374
 21
11.0156408694822
 31
0.0
  0
LINE
  5
   347
  8
0
  6
CONTINUOUS
 62
   130
 10
-6.00539977227413
 20
9.90876616512121
 30
0.0
 11
-5.72035033379757
 21
9.90876616512121
 31
0.0
  0
LINE
  5
   348
  8
0
  6
CONTINUOUS
 62
   130
 10
-5.65594764385396
 20
10.1301417050348
 30
0.0
 11
-5.72034736112836
 21
9.90876695716922
 31
0.0
  0
LINE
  5
   349
  8
0
  6
CONTINUOUS
 62
   130
 10
-5.65595061455929
 20
10.1301409152585
 30
0.0
 11
-5.34859282647335
 21
10.1301409152585
 31
0.0
  0
LINE
  5
   34A
  8
0
  6
CONTINUOUS
 62
   130
 10
-5.34859046928073
 20
10.1301415054509
 30
0.0
 11
-5.28419075200632
 21
9.90876675758529
 31
0.0
  0
LINE
  5
   34B
  8
0
  6
CONTINUOUS
 62
   130
 10
-5.28419310723507
 20
9.90876616512121
 30
0.0
 11
-4.99914748345577
 21
9.90876616512121
 31
0.0
  0
LINE
  5
   34C
  8
0
  6
CONTINUOUS
 62
   130
 10
-5.32114717542653
 20
11.0156410386451
 30
0.0
 11
-4.99914468006668
 21
9.90876605387584
 31
0.0
  0
LINE
  5
   34D
  8
0
  6
CONTINUOUS
 62
   130
 10
-5.68339736138546
 20
11.0156408694822
 30
0.0
 11
-5.32114989434444
 21
11.0156408694822
 31
0.0
  0
LINE
  5
   34E
  8
0
  6
CONTINUOUS
 62
   130
 10
-5.683395828062
 20
11.0156366529786
 30
0.0
 11
-6.00539832342185
 21
9.90876166820938
 31
0.0
  0
LINE
  5
   34F
  8
0
  6
CONTINUOUS
 62
   130
 10
-5.50226952954288
 20
10.6584120329431
 30
0.0
 11
-5.4282147738005
 21
10.4038409473013
 31
0.0
  0
LINE
  5
   350
  8
0
  6
CONTINUOUS
 62
   130
 10
-5.57633025323116
 20
10.4038409141141
 30
0.0
 11
-5.42821700249874
 21
10.4038409141141
 31
0.0
  0
LINE
  5
   351
  8
0
  6
CONTINUOUS
 62
   130
 10
-5.50226725918537
 20
10.658412282179
 30
0.0
 11
-5.57632578634317
 21
10.4038413366172
 31
0.0
  0
LINE
  5
   352
  8
0
  6
CONTINUOUS
 62
   130
 10
-4.06546229033612
 20
10.8643329846972
 30
0.0
 11
-3.96756953255434
 21
10.740916318186
 31
0.0
  0
LINE
  5
   353
  8
0
  6
CONTINUOUS
 62
   130
 10
-4.19415336847255
 20
10.9551697290446
 30
0.0
 11
-4.06546074945753
 21
10.8643308268494
 31
0.0
  0
LINE
  5
   354
  8
0
  6
CONTINUOUS
 62
   130
 10
-4.34322976220039
 20
11.0060693771015
 30
0.0
 11
-4.19415520903173
 21
10.9551677308971
 31
0.0
  0
LINE
  5
   355
  8
0
  6
CONTINUOUS
 62
   130
 10
-4.5006047751763
 20
11.012911015078
 30
0.0
 11
-4.34322943528326
 21
11.0060700705917
 31
0.0
  0
LINE
  5
   356
  8
0
  6
CONTINUOUS
 62
   130
 10
-4.50060757042176
 20
11.01291130235
 30
0.0
 11
-4.65353878367868
 21
10.9751372183775
 31
0.0
  0
LINE
  5
   357
  8
0
  6
CONTINUOUS
 62
   130
 10
-4.65353638492283
 20
10.9751389871998
 30
0.0
 11
-4.78962570185977
 21
10.8958099744512
 31
0.0
  0
LINE
  5
   358
  8
0
  6
CONTINUOUS
 62
   130
 10
-4.78962782473593
 20
10.8958075675376
 30
0.0
 11
-4.89785841441157
 21
10.7813504381862
 31
0.0
  0
LINE
  5
   359
  8
0
  6
CONTINUOUS
 62
   130
 10
-4.89785578475498
 20
10.7813526859271
 30
0.0
 11
-4.96945382954975
 21
10.6410402549183
 31
0.0
  0
LINE
  5
   35A
  8
0
  6
CONTINUOUS
 62
   130
 10
-4.96945507621882
 20
10.6410379351033
 30
0.0
 11
-4.99862225150155
 21
10.4862372776426
 31
0.0
  0
LINE
  5
   35B
  8
0
  6
CONTINUOUS
 62
   130
 10
-4.99862194057983
 20
10.4862382216234
 30
0.0
 11
-4.98299694805646
 21
10.3294904058192
 31
0.0
  0
LINE
  5
   35C
  8
0
  6
CONTINUOUS
 62
   130
 10
-4.98299816213729
 20
10.3294907737329
 30
0.0
 11
-4.92384365890602
 21
10.1834946875348
 31
0.0
  0
LINE
  5
   35D
  8
0
  6
CONTINUOUS
 62
   130
 10
-4.92384336739743
 20
10.1834959586716
 30
0.0
 11
-4.83582685462476
 21
10.0696475061761
 31
0.0
  0
LINE
  5
   35E
  8
0
  6
CONTINUOUS
 62
   130
 10
-4.83582534481939
 20
10.069644896824
 30
0.0
 11
-4.72143020405381
 21
9.98233767934079
 31
0.0
  0
LINE
  5
   35F
  8
0
  6
CONTINUOUS
 62
   130
 10
-4.72143253734114
 20
9.9823389435319
 30
0.0
 11
-4.58839497265211
 21
9.92747596852765
 31
0.0
  0
LINE
  5
   360
  8
0
  6
CONTINUOUS
 62
   130
 10
-4.58839355165353
 20
9.9274753032241
 30
0.0
 11
-4.44570861806674
 21
9.90876612126433
 31
0.0
  0
LINE
  5
   361
  8
0
  6
CONTINUOUS
 62
   130
 10
-4.30302162795523
 20
9.92747583790565
 30
0.0
 11
-4.44570656154202
 21
9.90876665594588
 31
0.0
  0
LINE
  5
   362
  8
0
  6
CONTINUOUS
 62
   130
 10
-4.16998860130152
 20
9.98233836041782
 30
0.0
 11
-4.30302616599055
 21
9.92747538541357
 31
0.0
  0
LINE
  5
   363
  8
0
  6
CONTINUOUS
 62
   130
 10
-4.05558962622236
 20
10.0696484599989
 30
0.0
 11
-4.16998476698794
 21
9.98234124251563
 31
0.0
  0
LINE
  5
   364
  8
0
  6
CONTINUOUS
 62
   130
 10
-3.96757024640621
 20
10.1834943141391
 30
0.0
 11
-4.05559057017321
 21
10.0696458692793
 31
0.0
  0
LINE
  5
   365
  8
0
  6
CONTINUOUS
 62
   130
 10
-4.20403109032818
 20
10.3213296827481
 30
0.0
 11
-3.96756947684994
 21
10.1834951526802
 31
0.0
  0
LINE
  5
   366
  8
0
  6
CONTINUOUS
 62
   130
 10
-4.204035349278
 20
10.3213269569182
 30
0.0
 11
-4.26649339172213
 21
10.2474128997932
 31
0.0
  0
LINE
  5
   367
  8
0
  6
CONTINUOUS
 62
   130
 10
-4.2664922165832
 20
10.2474149186488
 30
0.0
 11
-4.35040031390059
 21
10.1992042888103
 31
0.0
  0
LINE
  5
   368
  8
0
  6
CONTINUOUS
 62
   130
 10
-4.35039801975081
 20
10.1992039234324
 30
0.0
 11
-4.44570824276168
 21
10.1824659858588
 31
0.0
  0
LINE
  5
   369
  8
0
  6
CONTINUOUS
 62
   130
 10
-4.54102321148127
 20
10.199204030526
 30
0.0
 11
-4.4457129884704
 21
10.1824660929523
 31
0.0
  0
LINE
  5
   36A
  8
0
  6
CONTINUOUS
 62
   130
 10
-4.62492951738589
 20
10.2474155770693
 30
0.0
 11
-4.5410214200685
 21
10.1992049472308
 31
0.0
  0
LINE
  5
   36B
  8
0
  6
CONTINUOUS
 62
   130
 10
-4.68738724062656
 20
10.3213301039624
 30
0.0
 11
-4.62492919818242
 21
10.2474160468373
 31
0.0
  0
LINE
  5
   36C
  8
0
  6
CONTINUOUS
 62
   130
 10
-4.72289889502174
 20
10.4245382731685
 30
0.0
 11
-4.68738406353157
 21
10.3213294896539
 31
0.0
  0
LINE
  5
   36D
  8
0
  6
CONTINUOUS
 62
   130
 10
-4.71621057331649
 20
10.5334793824408
 30
0.0
 11
-4.72289773840478
 21
10.4245361472451
 31
0.0
  0
LINE
  5
   36E
  8
0
  6
CONTINUOUS
 62
   130
 10
-4.66834390653296
 20
10.6315734466784
 30
0.0
 11
-4.71621073017596
 21
10.5334816011099
 31
0.0
  0
LINE
  5
   36F
  8
0
  6
CONTINUOUS
 62
   130
 10
-4.58658337219084
 20
10.703880627793
 30
0.0
 11
-4.66834759980543
 21
10.6315735070839
 31
0.0
  0
LINE
  5
   370
  8
0
  6
CONTINUOUS
 62
   130
 10
-4.48337595919088
 20
10.7393939139924
 30
0.0
 11
-4.58658259370701
 21
10.7038800395413
 31
0.0
  0
LINE
  5
   371
  8
0
  6
CONTINUOUS
 62
   130
 10
-4.48337776452124
 20
10.7393928927559
 30
0.0
 11
-4.37443379193822
 21
10.7327073957268
 31
0.0
  0
LINE
  5
   372
  8
0
  6
CONTINUOUS
 62
   130
 10
-4.37443079474545
 20
10.7327064719005
 30
0.0
 11
-4.27633965705245
 21
10.684838928426
 31
0.0
  0
LINE
  5
   373
  8
0
  6
CONTINUOUS
 62
   130
 10
-4.27633834417723
 20
10.6848447563267
 30
0.0
 11
-4.20403075198915
 21
10.6030829168832
 31
0.0
  0
LINE
  5
   374
  8
0
  6
CONTINUOUS
 62
   130
 10
-3.96756770785025
 20
10.7409163856162
 30
0.0
 11
-4.20402932132848
 21
10.6030818555484
 31
0.0
  0
LINE
  5
   375
  8
0
  6
CONTINUOUS
 62
   130
 10
-3.86694914971554
 20
11.0156406310636
 30
0.0
 11
-3.86694914971554
 21
9.90876616512121
 31
0.0
  0
LINE
  5
   376
  8
0
  6
CONTINUOUS
 62
   130
 10
-3.86694914971554
 20
9.90876616512121
 30
0.0
 11
-3.14245040093624
 21
9.90876616512121
 31
0.0
  0
LINE
  5
   377
  8
0
  6
CONTINUOUS
 62
   130
 10
-3.14245040093624
 20
10.1824659255582
 30
0.0
 11
-3.14245040093624
 21
9.90876616512121
 31
0.0
  0
LINE
  5
   378
  8
0
  6
CONTINUOUS
 62
   130
 10
-3.59324843560421
 20
10.1824659255582
 30
0.0
 11
-3.14245040093624
 21
10.1824659255582
 31
0.0
  0
LINE
  5
   379
  8
0
  6
CONTINUOUS
 62
   130
 10
-3.59324843560421
 20
10.3253535178739
 30
0.0
 11
-3.59324843560421
 21
10.1824659255582
 31
0.0
  0
LINE
  5
   37A
  8
0
  6
CONTINUOUS
 62
   130
 10
-3.59324843560421
 20
10.3253535178739
 30
0.0
 11
-3.20282561455929
 21
10.3253535178739
 31
0.0
  0
LINE
  5
   37B
  8
0
  6
CONTINUOUS
 62
   130
 10
-3.20282561455929
 20
10.5990535167295
 30
0.0
 11
-3.20282561455929
 21
10.3253535178739
 31
0.0
  0
LINE
  5
   37C
  8
0
  6
CONTINUOUS
 62
   130
 10
-3.59324843560421
 20
10.5990535167295
 30
0.0
 11
-3.20282561455929
 21
10.5990535167295
 31
0.0
  0
LINE
  5
   37D
  8
0
  6
CONTINUOUS
 62
   130
 10
-3.59324843560421
 20
10.7419408557254
 30
0.0
 11
-3.59324843560421
 21
10.5990535167295
 31
0.0
  0
LINE
  5
   37E
  8
0
  6
CONTINUOUS
 62
   130
 10
-3.59324843560421
 20
10.7419408706266
 30
0.0
 11
-3.14245040093624
 21
10.7419408706266
 31
0.0
  0
LINE
  5
   37F
  8
0
  6
CONTINUOUS
 62
   130
 10
-3.14245040093624
 20
11.0156408694822
 30
0.0
 11
-3.14245040093624
 21
10.7419408706266
 31
0.0
  0
LINE
  5
   380
  8
0
  6
CONTINUOUS
 62
   130
 10
-3.86694914971554
 20
11.0156408694822
 30
0.0
 11
-3.14245040093624
 21
11.0156408694822
 31
0.0
  0
LINE
  5
   381
  8
0
  6
CONTINUOUS
 62
   130
 10
-33.8212995615724
 20
11.118028910443
 30
0.0
 11
-34.0482282179313
 21
10.469652593732
 31
0.0
  0
LINE
  5
   382
  8
0
  6
CONTINUOUS
 62
   130
 10
-34.0482320785522
 20
10.469654507935
 30
0.0
 11
-33.6384267807007
 21
10.469654507935
 31
0.0
  0
LINE
  5
   383
  8
0
  6
CONTINUOUS
 62
   130
 10
-33.6384267807007
 20
11.1180309727788
 30
0.0
 11
-33.6384267807007
 21
10.469654507935
 31
0.0
  0
LINE
  5
   384
  8
0
  6
CONTINUOUS
 62
   130
 10
-33.8213033676147
 20
11.1180309727788
 30
0.0
 11
-33.6384267807007
 21
11.1180309727788
 31
0.0
  0
LINE
  5
   385
  8
0
  6
CONTINUOUS
 62
   130
 10
-34.2868032455444
 20
9.7880327180028
 30
0.0
 11
-33.9543027877808
 21
9.7880327180028
 31
0.0
  0
LINE
  5
   386
  8
0
  6
CONTINUOUS
 62
   130
 10
-33.8611984827277
 20
10.0540317733126
 30
0.0
 11
-33.9542999805576
 21
9.788031966843
 31
0.0
  0
LINE
  5
   387
  8
0
  6
CONTINUOUS
 62
   130
 10
-33.8612012863159
 20
10.0540325120091
 30
0.0
 11
-33.6384267807007
 21
10.0540325120091
 31
0.0
  0
LINE
  5
   388
  8
0
  6
CONTINUOUS
 62
   130
 10
-33.6384267807007
 20
10.4364056065679
 30
0.0
 11
-33.6384267807007
 21
10.0540325120091
 31
0.0
  0
LINE
  5
   389
  8
0
  6
CONTINUOUS
 62
   130
 10
-34.0598707199097
 20
10.4364056065679
 30
0.0
 11
-33.6384267807007
 21
10.4364056065679
 31
0.0
  0
LINE
  5
   38A
  8
0
  6
CONTINUOUS
 62
   130
 10
-34.0598680665588
 20
10.4364042577712
 30
0.0
 11
-34.2868005243791
 21
9.78803150402943
 31
0.0
  0
LINE
  5
   38B
  8
0
  6
CONTINUOUS
 62
   130
 10
-33.1837268320653
 20
10.4364041684103
 30
0.0
 11
-32.956794374245
 21
9.78803141466854
 31
0.0
  0
LINE
  5
   38C
  8
0
  6
CONTINUOUS
 62
   130
 10
-33.6051778793335
 20
10.4364056065679
 30
0.0
 11
-33.1837339401245
 21
10.4364056065679
 31
0.0
  0
LINE
  5
   38D
  8
0
  6
CONTINUOUS
 62
   130
 10
-33.6051778793335
 20
10.4364056065679
 30
0.0
 11
-33.6051778793335
 21
10.0540325120091
 31
0.0
  0
LINE
  5
   38E
  8
0
  6
CONTINUOUS
 62
   130
 10
-33.6051778793335
 20
10.0540325120091
 30
0.0
 11
-33.3824033737183
 21
10.0540325120091
 31
0.0
  0
LINE
  5
   38F
  8
0
  6
CONTINUOUS
 62
   130
 10
-33.3823975822304
 20
10.0540329319431
 30
0.0
 11
-33.2892960844005
 21
9.78803312547351
 31
0.0
  0
LINE
  5
   390
  8
0
  6
CONTINUOUS
 62
   130
 10
-33.2893018722534
 20
9.7880327180028
 30
0.0
 11
-32.9568014144897
 21
9.7880327180028
 31
0.0
  0
LINE
  5
   391
  8
0
  6
CONTINUOUS
 62
   130
 10
-33.6051778793335
 20
11.1180309727788
 30
0.0
 11
-33.4223012924194
 21
11.1180309727788
 31
0.0
  0
LINE
  5
   392
  8
0
  6
CONTINUOUS
 62
   130
 10
-33.6051778793335
 20
11.1180309727788
 30
0.0
 11
-33.6051778793335
 21
10.469654507935
 31
0.0
  0
LINE
  5
   393
  8
0
  6
CONTINUOUS
 62
   130
 10
-33.6051778793335
 20
10.469654507935
 30
0.0
 11
-33.1953687667847
 21
10.469654507935
 31
0.0
  0
LINE
  5
   394
  8
0
  6
CONTINUOUS
 62
   130
 10
-33.4222974739448
 20
11.1180296573418
 30
0.0
 11
-33.1953649991792
 21
10.4696532462055
 31
0.0
  0
LINE
  5
   395
  8
0
  6
CONTINUOUS
 62
   130
 10
-32.8736753463745
 20
10.469654507935
 30
0.0
 11
-32.4913015365601
 21
10.469654507935
 31
0.0
  0
LINE
  5
   396
  8
0
  6
CONTINUOUS
 62
   130
 10
-32.4913015365601
 20
11.1180309727788
 30
0.0
 11
-32.4913015365601
 21
10.469654507935
 31
0.0
  0
LINE
  5
   397
  8
0
  6
CONTINUOUS
 62
   130
 10
-32.8736753463745
 20
11.1180309727788
 30
0.0
 11
-32.4913015365601
 21
11.1180309727788
 31
0.0
  0
LINE
  5
   398
  8
0
  6
CONTINUOUS
 62
   130
 10
-32.8736753463745
 20
9.7880327180028
 30
0.0
 11
-32.4913015365601
 21
9.7880327180028
 31
0.0
  0
LINE
  5
   399
  8
0
  6
CONTINUOUS
 62
   130
 10
-32.4913015365601
 20
10.4364056065679
 30
0.0
 11
-32.4913015365601
 21
9.7880327180028
 31
0.0
  0
LINE
  5
   39A
  8
0
  6
CONTINUOUS
 62
   130
 10
-32.8736753463745
 20
10.4364056065679
 30
0.0
 11
-32.4913015365601
 21
10.4364056065679
 31
0.0
  0
LINE
  5
   39B
  8
0
  6
CONTINUOUS
 62
   130
 10
-31.8429288864136
 20
11.1180309727788
 30
0.0
 11
-31.8429288864136
 21
10.469654507935
 31
0.0
  0
LINE
  5
   39C
  8
0
  6
CONTINUOUS
 62
   130
 10
-31.8429288864136
 20
10.469654507935
 30
0.0
 11
-31.4605512619019
 21
10.469654507935
 31
0.0
  0
LINE
  5
   39D
  8
0
  6
CONTINUOUS
 62
   130
 10
-31.4605512619019
 20
11.1180309727788
 30
0.0
 11
-31.4605512619019
 21
10.469654507935
 31
0.0
  0
LINE
  5
   39E
  8
0
  6
CONTINUOUS
 62
   130
 10
-31.8429288864136
 20
11.1180309727788
 30
0.0
 11
-31.4605512619019
 21
11.1180309727788
 31
0.0
  0
LINE
  5
   39F
  8
0
  6
CONTINUOUS
 62
   130
 10
-31.8429288864136
 20
9.7880327180028
 30
0.0
 11
-31.4605512619019
 21
9.7880327180028
 31
0.0
  0
LINE
  5
   3A0
  8
0
  6
CONTINUOUS
 62
   130
 10
-31.4605512619019
 20
10.4364056065679
 30
0.0
 11
-31.4605512619019
 21
9.7880327180028
 31
0.0
  0
LINE
  5
   3A1
  8
0
  6
CONTINUOUS
 62
   130
 10
-31.8429288864136
 20
10.4364056065679
 30
0.0
 11
-31.4605512619019
 21
10.4364056065679
 31
0.0
  0
LINE
  5
   3A2
  8
0
  6
CONTINUOUS
 62
   130
 10
-31.8429288864136
 20
10.4364056065679
 30
0.0
 11
-31.8429288864136
 21
9.7880327180028
 31
0.0
  0
LINE
  5
   3A3
  8
0
  6
CONTINUOUS
 62
   130
 10
-31.4273023605347
 20
11.1180309727788
 30
0.0
 11
-31.3204336166382
 21
11.1180309727788
 31
0.0
  0
LINE
  5
   3A4
  8
0
  6
CONTINUOUS
 62
   130
 10
-31.4273023605347
 20
11.1180309727788
 30
0.0
 11
-31.4273023605347
 21
10.469654507935
 31
0.0
  0
LINE
  5
   3A5
  8
0
  6
CONTINUOUS
 62
   130
 10
-31.4273023605347
 20
10.469654507935
 30
0.0
 11
-31.0402135848999
 21
10.469654507935
 31
0.0
  0
LINE
  5
   3A6
  8
0
  6
CONTINUOUS
 62
   130
 10
-31.0973211362061
 20
10.5127236188921
 30
0.0
 11
-31.0402151103287
 21
10.4696556802942
 31
0.0
  0
LINE
  5
   3A7
  8
0
  6
CONTINUOUS
 62
   130
 10
-31.1613023781388
 20
10.5446858362319
 30
0.0
 11
-31.0973184515428
 21
10.5127224849092
 31
0.0
  0
LINE
  5
   3A8
  8
0
  6
CONTINUOUS
 62
   130
 10
-31.0851411743224
 20
10.6093506553763
 30
0.0
 11
-31.1613015981092
 21
10.5446839165987
 31
0.0
  0
LINE
  5
   3A9
  8
0
  6
CONTINUOUS
 62
   130
 10
-31.0336176057593
 20
10.6949517330436
 30
0.0
 11
-31.0851389013112
 21
10.6093499292599
 31
0.0
  0
LINE
  5
   3AA
  8
0
  6
CONTINUOUS
 62
   130
 10
-31.0121305964485
 20
10.7925205400998
 30
0.0
 11
-31.0336187835791
 21
10.6949520397888
 31
0.0
  0
LINE
  5
   3AB
  8
0
  6
CONTINUOUS
 62
   130
 10
-31.0229231599777
 20
10.8918489046069
 30
0.0
 11
-31.0121313846109
 21
10.792521796245
 31
0.0
  0
LINE
  5
   3AC
  8
0
  6
CONTINUOUS
 62
   130
 10
-31.0648684860043
 20
10.982526462777
 30
0.0
 11
-31.0229258830122
 21
10.8918510977722
 31
0.0
  0
LINE
  5
   3AD
  8
0
  6
CONTINUOUS
 62
   130
 10
-31.1335726648313
 20
11.0550675616607
 30
0.0
 11
-31.0648699605567
 21
10.9825272739058
 31
0.0
  0
LINE
  5
   3AE
  8
0
  6
CONTINUOUS
 62
   130
 10
-31.2218372167737
 20
11.1018598228077
 30
0.0
 11
-31.1335689329935
 21
11.055061112918
 31
0.0
  0
LINE
  5
   3AF
  8
0
  6
CONTINUOUS
 62
   130
 10
-31.4273023605347
 20
10.4364056065679
 30
0.0
 11
-31.0077238082886
 21
10.4364056065679
 31
0.0
  0
LINE
  5
   3B0
  8
0
  6
CONTINUOUS
 62
   130
 10
-31.4273023605347
 20
10.4364056065679
 30
0.0
 11
-31.4273023605347
 21
9.7880327180028
 31
0.0
  0
LINE
  5
   3B1
  8
0
  6
CONTINUOUS
 62
   130
 10
-31.4273023605347
 20
9.7880327180028
 30
0.0
 11
-31.3036451339722
 21
9.7880327180028
 31
0.0
  0
LINE
  5
   3B2
  8
0
  6
CONTINUOUS
 62
   130
 10
-31.1932614323537
 20
9.80390565769346
 30
0.0
 11
-31.303643524343
 21
9.78803198847358
 31
0.0
  0
LINE
  5
   3B3
  8
0
  6
CONTINUOUS
 62
   130
 10
-31.0918254187958
 20
9.85024041155041
 30
0.0
 11
-31.1932620400975
 21
9.80390590571753
 31
0.0
  0
LINE
  5
   3B4
  8
0
  6
CONTINUOUS
 62
   130
 10
-31.0075596936676
 20
9.92328034826265
 30
0.0
 11
-31.0918263640622
 21
9.85024009892956
 31
0.0
  0
LINE
  5
   3B5
  8
0
  6
CONTINUOUS
 62
   130
 10
-30.9472868163329
 20
10.0171069432636
 30
0.0
 11
-31.0075590328429
 21
9.9232806504379
 31
0.0
  0
LINE
  5
   3B6
  8
0
  6
CONTINUOUS
 62
   130
 10
-30.9158952657223
 20
10.1241134039571
 30
0.0
 11
-30.9472825939647
 21
10.0171056673328
 31
0.0
  0
LINE
  5
   3B7
  8
0
  6
CONTINUOUS
 62
   130
 10
-30.9159328912357
 20
10.2356323088606
 30
0.0
 11
-30.9158985589619
 21
10.1241155894797
 31
0.0
  0
LINE
  5
   3B8
  8
0
  6
CONTINUOUS
 62
   130
 10
-30.9473881543085
 20
10.3426210256309
 30
0.0
 11
-30.915932163005
 21
10.2356330670163
 31
0.0
  0
LINE
  5
   3B9
  8
0
  6
CONTINUOUS
 62
   130
 10
-31.007722890477
 20
10.4364042068568
 30
0.0
 11
-30.9473896391707
 21
10.3426184455522
 31
0.0
  0
LINE
  5
   3BA
  8
0
  6
CONTINUOUS
 62
   130
 10
-32.4580526351929
 20
11.1180309727788
 30
0.0
 11
-32.3511800765991
 21
11.1180309727788
 31
0.0
  0
LINE
  5
   3BB
  8
0
  6
CONTINUOUS
 62
   130
 10
-32.4580526351929
 20
11.1180309727788
 30
0.0
 11
-32.4580526351929
 21
10.469654507935
 31
0.0
  0
LINE
  5
   3BC
  8
0
  6
CONTINUOUS
 62
   130
 10
-32.4580526351929
 20
10.469654507935
 30
0.0
 11
-32.0709638595581
 21
10.469654507935
 31
0.0
  0
LINE
  5
   3BD
  8
0
  6
CONTINUOUS
 62
   130
 10
-32.1280689308526
 20
10.5127216780148
 30
0.0
 11
-32.0709629049752
 21
10.4696537394169
 31
0.0
  0
LINE
  5
   3BE
  8
0
  6
CONTINUOUS
 62
   130
 10
-32.1920533919762
 20
10.5446859106191
 30
0.0
 11
-32.1280694653803
 21
10.5127225592964
 31
0.0
  0
LINE
  5
   3BF
  8
0
  6
CONTINUOUS
 62
   130
 10
-32.1158920139165
 20
10.6093526496725
 30
0.0
 11
-32.1920524377033
 21
10.5446859108949
 31
0.0
  0
LINE
  5
   3C0
  8
0
  6
CONTINUOUS
 62
   130
 10
-32.0643694268264
 20
10.6949528719463
 30
0.0
 11
-32.1158907223782
 21
10.6093510681626
 31
0.0
  0
LINE
  5
   3C1
  8
0
  6
CONTINUOUS
 62
   130
 10
-32.0428776831781
 20
10.7925209595052
 30
0.0
 11
-32.0643696857811
 21
10.6949524535001
 31
0.0
  0
LINE
  5
   3C2
  8
0
  6
CONTINUOUS
 62
   130
 10
-32.0536691814076
 20
10.8918505545921
 30
0.0
 11
-32.0428774060408
 21
10.7925234462302
 31
0.0
  0
LINE
  5
   3C3
  8
0
  6
CONTINUOUS
 62
   130
 10
-32.0956172437924
 20
10.9825234300915
 30
0.0
 11
-32.053670829681
 21
10.8918480694041
 31
0.0
  0
LINE
  5
   3C4
  8
0
  6
CONTINUOUS
 62
   130
 10
-32.1643213950181
 20
11.055069300393
 30
0.0
 11
-32.0956186907435
 21
10.9825290126381
 31
0.0
  0
LINE
  5
   3C5
  8
0
  6
CONTINUOUS
 62
   130
 10
-32.25258998306
 20
11.1018610294793
 30
0.0
 11
-32.1643216992797
 21
11.0550623195896
 31
0.0
  0
LINE
  5
   3C6
  8
0
  6
CONTINUOUS
 62
   130
 10
-32.3511803892013
 20
11.118031223113
 30
0.0
 11
-32.2525895175153
 21
11.1018645366141
 31
0.0
  0
LINE
  5
   3C7
  8
0
  6
CONTINUOUS
 62
   130
 10
-32.4580526351929
 20
10.4364056065679
 30
0.0
 11
-32.0384740829468
 21
10.4364056065679
 31
0.0
  0
LINE
  5
   3C8
  8
0
  6
CONTINUOUS
 62
   130
 10
-32.4580526351929
 20
10.4364056065679
 30
0.0
 11
-32.4580526351929
 21
9.7880327180028
 31
0.0
  0
LINE
  5
   3C9
  8
0
  6
CONTINUOUS
 62
   130
 10
-32.4580526351929
 20
9.7880327180028
 30
0.0
 11
-32.3343954086304
 21
9.7880327180028
 31
0.0
  0
LINE
  5
   3CA
  8
0
  6
CONTINUOUS
 62
   130
 10
-32.2240129996124
 20
9.80390320464953
 30
0.0
 11
-32.3343950916017
 21
9.78802953542966
 31
0.0
  0
LINE
  5
   3CB
  8
0
  6
CONTINUOUS
 62
   130
 10
-32.1225755862277
 20
9.85023975787752
 30
0.0
 11
-32.2240122075294
 21
9.80390525204464
 31
0.0
  0
LINE
  5
   3CC
  8
0
  6
CONTINUOUS
 62
   130
 10
-32.0383096804581
 20
9.92327986107784
 30
0.0
 11
-32.1225763508527
 21
9.85023961174475
 31
0.0
  0
LINE
  5
   3CD
  8
0
  6
CONTINUOUS
 62
   130
 10
-31.9780376078003
 20
10.0171070714519
 30
0.0
 11
-32.0383098243103
 21
9.92328077862624
 31
0.0
  0
LINE
  5
   3CE
  8
0
  6
CONTINUOUS
 62
   130
 10
-31.9466438468995
 20
10.124114818714
 30
0.0
 11
-31.9780349930553
 21
10.0171070705492
 31
0.0
  0
LINE
  5
   3CF
  8
0
  6
CONTINUOUS
 62
   130
 10
-31.946684338565
 20
10.2356324247334
 30
0.0
 11
-31.946646191611
 21
10.1241157041128
 31
0.0
  0
LINE
  5
   3D0
  8
0
  6
CONTINUOUS
 62
   130
 10
-31.9781374975044
 20
10.342620974604
 30
0.0
 11
-31.9466815062009
 21
10.2356330159895
 31
0.0
  0
LINE
  5
   3D1
  8
0
  6
CONTINUOUS
 62
   130
 10
-32.0384721664805
 20
10.436404461872
 30
0.0
 11
-31.9781389151742
 21
10.3426187005674
 31
0.0
  0
LINE
  5
   3D2
  8
0
  6
CONTINUOUS
 62
   130
 10
-32.8736753463745
 20
11.1180309727788
 30
0.0
 11
-32.8736753463745
 21
9.7880327180028
 31
0.0
  0
LINE
  5
   3D3
  8
0
  6
CONTINUOUS
 62
   130
 10
-34.6930790710282
 20
8.93608587980018
 30
0.0
 11
-19.1680859470373
 21
8.93608587980018
 31
0.0
  0
LINE
  5
   3D4
  8
0
  6
CONTINUOUS
 62
   130
 10
-18.9180859851842
 20
9.93608587980018
 30
0.0
 11
-18.9180859279638
 21
8.43608587980018
 31
0.0
  0
LINE
  5
   3D5
  8
0
  6
CONTINUOUS
 62
   130
 10
-8.41807085990941
 20
9.93608587980018
 30
0.0
 11
-8.4180709171299
 21
8.43608587980018
 31
0.0
  0
LINE
  5
   3D6
  8
0
  6
CONTINUOUS
 62
   130
 10
-18.9180859851842
 20
9.93608587980018
 30
0.0
 11
-8.4180708599094
 21
9.93608587980018
 31
0.0
  0
LINE
  5
   3D7
  8
0
  6
CONTINUOUS
 62
   130
 10
-8.1680708980564
 20
8.93608587980018
 30
0.0
 11
8.83190780639671
 21
8.93608587980018
 31
0.0
  0
LINE
  5
   3D8
  8
0
  6
CONTINUOUS
 62
   130
 10
-19.168085994721
 20
10.1860858798002
 30
0.0
 11
-8.16807085037266
 21
10.1860858798002
 31
0.0
  0
LINE
  5
   3D9
  8
0
  6
CONTINUOUS
 62
   130
 10
-8.16807085037266
 20
10.1860858798002
 30
0.0
 11
-8.1680709171299
 21
8.43608587980018
 31
0.0
  0
LINE
  5
   3DA
  8
0
  6
CONTINUOUS
 62
   130
 10
-19.168085994721
 20
10.1860858798002
 30
0.0
 11
-19.1680859279638
 21
8.43608587980018
 31
0.0
  0
LINE
  5
   3DB
  8
0
  6
CONTINUOUS
 62
   130
 10
-21.4680772781375
 20
-7.18892174959092
 30
0.0
 11
-21.4680772781375
 21
-9.43892174959092
 31
0.0
  0
LINE
  5
   3DC
  8
0
  6
CONTINUOUS
 62
   130
 10
-26.4680772781375
 20
-7.18892174959092
 30
0.0
 11
-26.4680772781375
 21
-9.43892174959092
 31
0.0
  0
LINE
  5
   3DD
  8
0
  6
CONTINUOUS
 62
   130
 10
-26.4680772781375
 20
-7.18892174959092
 30
0.0
 11
-21.4680772781375
 21
-7.18892174959092
 31
0.0
  0
LINE
  5
   3DE
  8
0
  6
CONTINUOUS
 62
   130
 10
-26.4680772781375
 20
-9.43892174959092
 30
0.0
 11
-21.4680772781375
 21
-9.43892174959092
 31
0.0
  0
LINE
  5
   3DF
  8
0
  6
CONTINUOUS
 62
   130
 10
-50.6680689239481
 20
37.4360706210151
 30
0.0
 11
8.33191207885443
 21
37.4360706210151
 31
0.0
  0
ARC
  5
   3E0
  8
0
  6
CONTINUOUS
 62
   130
 10
8.33191207885443
 20
36.9360706210152
 30
0.0
 40
0.5
 50
359.999991101463
 51
449.999999844103
  0
ARC
  5
   3E1
  8
0
  6
CONTINUOUS
 62
   130
 10
-50.6680689239481
 20
36.9360706210152
 30
0.0
 40
0.5
 50
449.999999844103
 51
540.000008586744
  0
LINE
  5
   3E2
  8
0
  6
CONTINUOUS
 62
   130
 10
6.23192310333252
 20
-7.9639216427363
 30
0.0
 11
6.23192310333252
 21
-8.4639216427363
 31
0.0
  0
LINE
  5
   3E3
  8
0
  6
CONTINUOUS
 62
   130
 10
4.23192310333252
 20
-7.9639216427363
 30
0.0
 11
4.23192310333252
 21
-8.4639216427363
 31
0.0
  0
LINE
  5
   3E4
  8
0
  6
CONTINUOUS
 62
   130
 10
5.23192310333252
 20
-5.8139216427363
 30
0.0
 11
4.23192310333252
 21
-7.9639216427363
 31
0.0
  0
LINE
  5
   3E5
  8
0
  6
CONTINUOUS
 62
   130
 10
5.23192310333252
 20
-5.81392164273629
 30
0.0
 11
6.23192310333252
 21
-7.9639216427363
 31
0.0
  0
LINE
  5
   3E6
  8
0
  6
DASHDOT
 62
   130
 10
-13.66808623418
 20
51.3804005601702
 30
0.0
 11
-13.6680725710314
 21
-38.1624290955503
 31
0.0
  0
LINE
  5
   3E7
  8
0
  6
CONTINUOUS
 62
   130
 10
-50.6680596160807
 20
-24.5639820098877
 30
0.0
 11
8.33190277098701
 21
-24.5639820098877
 31
0.0
  0
ARC
  5
   3E8
  8
0
  6
CONTINUOUS
 62
   130
 10
8.33190277098701
 20
-24.0639820098877
 30
0.0
 40
0.5
 50
269.999999844103
 51
359.999991101463
  0
ARC
  5
   3E9
  8
0
  6
CONTINUOUS
 62
   130
 10
-50.6680596160807
 20
-24.0639820098877
 30
0.0
 40
0.5
 50
540.000008586744
 51
629.999999844103
  0
LINE
  5
   3EA
  8
0
  6
CONTINUOUS
 62
   130
 10
-50.6680580902027
 20
-34.5639781951904
 30
0.0
 11
8.331901245109
 21
-34.5639781951904
 31
0.0
  0
LINE
  5
   3EB
  8
0
  6
CONTINUOUS
 62
   130
 10
-50.6680703735253
 20
46.9360218048096
 30
0.0
 11
8.33191352843163
 21
46.9360218048096
 31
0.0
  0
ARC
  5
   3EC
  8
0
  6
CONTINUOUS
 62
   130
 10
-50.6680703735253
 20
46.4360218048096
 30
0.0
 40
0.5
 50
449.999999844103
 51
540.000008586744
  0
ARC
  5
   3ED
  8
0
  6
CONTINUOUS
 62
   130
 10
8.33191352843163
 20
46.4360218048096
 30
0.0
 40
0.5
 50
359.999991101463
 51
449.999999844103
  0
ARC
  5
   3EE
  8
0
  6
CONTINUOUS
 62
   130
 10
8.331901245109
 20
-34.0639781951904
 30
0.0
 40
0.5
 50
269.999999844103
 51
359.999991101463
  0
ARC
  5
   3EF
  8
0
  6
CONTINUOUS
 62
   130
 10
-50.6680580902027
 20
-34.0639781951904
 30
0.0
 40
0.5
 50
540.000008586744
 51
629.999999844103
  0
LINE
  5
   3F0
  8
0
  6
CONTINUOUS
 62
   130
 10
-51.1680690765359
 20
37.9360706210151
 30
0.0
 11
8.83191223144229
 21
37.9360706210151
 31
0.0
  0
LINE
  5
   3F1
  8
0
  6
CONTINUOUS
 62
   130
 10
-51.1680594634928
 20
-25.0639820098877
 30
0.0
 11
8.83190261839916
 21
-25.0639820098877
 31
0.0
  0
CIRCLE
  5
   3F2
  8
0
  6
CONTINUOUS
 62
   130
 10
-28.6680850219645
 20
42.4360218048096
 30
0.0
 40
1.75
  0
CIRCLE
  5
   3F3
  8
0
  6
CONTINUOUS
 62
   130
 10
-13.6680850219643
 20
42.4360218048096
 30
0.0
 40
1.75
  0
CIRCLE
  5
   3F4
  8
0
  6
CONTINUOUS
 62
   130
 10
1.33191497803591
 20
42.4360218048096
 30
0.0
 40
1.75
  0
CIRCLE
  5
   3F5
  8
0
  6
CONTINUOUS
 62
   130
 10
1.33191497803591
 20
-30.0639781951904
 30
0.0
 40
1.75
  0
CIRCLE
  5
   3F6
  8
0
  6
CONTINUOUS
 62
   130
 10
-13.6680850219643
 20
-30.0639781951904
 30
0.0
 40
1.75
  0
CIRCLE
  5
   3F7
  8
0
  6
CONTINUOUS
 62
   130
 10
-28.6680850219645
 20
-30.0639781951904
 30
0.0
 40
1.75
  0
LINE
  5
   3F8
  8
0
  6
DASHDOT
 62
   130
 10
1.33191497803591
 20
44.6860218048096
 30
0.0
 11
1.33191497803591
 21
40.1860218048096
 31
0.0
  0
LINE
  5
   3F9
  8
0
  6
DASHDOT
 62
   130
 10
-0.918085021964096
 20
42.4360218048096
 30
0.0
 11
3.58191497803591
 21
42.4360218048096
 31
0.0
  0
LINE
  5
   3FA
  8
0
  6
DASHDOT
 62
   130
 10
-13.6680850219643
 20
44.6860218048096
 30
0.0
 11
-13.6680850219643
 21
40.1860218048096
 31
0.0
  0
LINE
  5
   3FB
  8
0
  6
DASHDOT
 62
   130
 10
-15.9180850219643
 20
42.4360218048096
 30
0.0
 11
-11.4180850219643
 21
42.4360218048096
 31
0.0
  0
LINE
  5
   3FC
  8
0
  6
DASHDOT
 62
   130
 10
-28.6680850219645
 20
44.6860218048096
 30
0.0
 11
-28.6680850219645
 21
40.1860218048096
 31
0.0
  0
LINE
  5
   3FD
  8
0
  6
DASHDOT
 62
   130
 10
-30.9180850219645
 20
42.4360218048096
 30
0.0
 11
-26.4180850219645
 21
42.4360218048096
 31
0.0
  0
LINE
  5
   3FE
  8
0
  6
DASHDOT
 62
   130
 10
-28.6680850219645
 20
-27.8139781951904
 30
0.0
 11
-28.6680850219645
 21
-32.3139781951904
 31
0.0
  0
LINE
  5
   3FF
  8
0
  6
DASHDOT
 62
   130
 10
-30.9180850219645
 20
-30.0639781951904
 30
0.0
 11
-26.4180850219645
 21
-30.0639781951904
 31
0.0
  0
LINE
  5
   400
  8
0
  6
DASHDOT
 62
   130
 10
-13.6680850219643
 20
-27.8139781951904
 30
0.0
 11
-13.6680850219643
 21
-32.3139781951904
 31
0.0
  0
LINE
  5
   401
  8
0
  6
DASHDOT
 62
   130
 10
-15.9180850219643
 20
-30.0639781951904
 30
0.0
 11
-11.4180850219643
 21
-30.0639781951904
 31
0.0
  0
LINE
  5
   402
  8
0
  6
DASHDOT
 62
   130
 10
1.33191497803591
 20
-27.8139781951904
 30
0.0
 11
1.33191497803591
 21
-32.3139781951904
 31
0.0
  0
LINE
  5
   403
  8
0
  6
DASHDOT
 62
   130
 10
-0.918085021964096
 20
-30.0639781951904
 30
0.0
 11
3.58191497803591
 21
-30.0639781951904
 31
0.0
  0
LINE
  5
   404
  8
0
  6
CONTINUOUS
 62
   130
 10
-13.3430842590324
 20
37.4360706210151
 30
0.0
 11
-13.3430830001817
 21
29.1860647382564
 31
0.0
  0
LINE
  5
   405
  8
0
  6
CONTINUOUS
 62
   130
 10
-13.9930842590324
 20
37.4360706210151
 30
0.0
 11
-13.9930830001817
 21
29.1860647382564
 31
0.0
  0
LINE
  5
   406
  8
0
  6
CONTINUOUS
 62
   130
 10
-13.0930842590324
 20
37.4360706210151
 30
0.0
 11
-13.0930830001817
 21
29.1860647382564
 31
0.0
  0
LINE
  5
   407
  8
0
  6
CONTINUOUS
 62
   130
 10
-12.4430842590324
 20
37.4360706210151
 30
0.0
 11
-12.4430830001817
 21
29.1860647382564
 31
0.0
  0
LINE
  5
   408
  8
0
  6
CONTINUOUS
 62
   130
 10
-11.5430842590324
 20
37.4360706210151
 30
0.0
 11
-11.5430830001817
 21
29.1860647382564
 31
0.0
  0
LINE
  5
   409
  8
0
  6
CONTINUOUS
 62
   130
 10
-12.1930842590324
 20
37.4360706210151
 30
0.0
 11
-12.1930830001817
 21
29.1860647382564
 31
0.0
  0
LINE
  5
   40A
  8
0
  6
CONTINUOUS
 62
   130
 10
-10.6430842590324
 20
37.4360706210151
 30
0.0
 11
-10.6430830001817
 21
29.1860647382564
 31
0.0
  0
LINE
  5
   40B
  8
0
  6
CONTINUOUS
 62
   130
 10
-11.2930842590324
 20
37.4360706210151
 30
0.0
 11
-11.2930830001817
 21
29.1860647382564
 31
0.0
  0
LINE
  5
   40C
  8
0
  6
CONTINUOUS
 62
   130
 10
-9.74308425903238
 20
37.4360706210151
 30
0.0
 11
-9.74308300018165
 21
29.1860647382564
 31
0.0
  0
LINE
  5
   40D
  8
0
  6
CONTINUOUS
 62
   130
 10
-10.3930842590324
 20
37.4360706210151
 30
0.0
 11
-10.3930830001817
 21
29.1860647382564
 31
0.0
  0
LINE
  5
   40E
  8
0
  6
CONTINUOUS
 62
   130
 10
-8.84308425903237
 20
37.4360706210151
 30
0.0
 11
-8.84308300018164
 21
29.1860647382564
 31
0.0
  0
LINE
  5
   40F
  8
0
  6
CONTINUOUS
 62
   130
 10
-9.49308425903238
 20
37.4360706210151
 30
0.0
 11
-9.49308300018165
 21
29.1860647382564
 31
0.0
  0
LINE
  5
   410
  8
0
  6
CONTINUOUS
 62
   130
 10
-7.94308425903236
 20
37.4360706210151
 30
0.0
 11
-7.94308300018163
 21
29.1860647382564
 31
0.0
  0
LINE
  5
   411
  8
0
  6
CONTINUOUS
 62
   130
 10
-8.59308425903237
 20
37.4360706210151
 30
0.0
 11
-8.59308300018164
 21
29.1860647382564
 31
0.0
  0
LINE
  5
   412
  8
0
  6
CONTINUOUS
 62
   130
 10
-7.04308425903236
 20
37.4360706210151
 30
0.0
 11
-7.04308300018162
 21
29.1860647382564
 31
0.0
  0
LINE
  5
   413
  8
0
  6
CONTINUOUS
 62
   130
 10
-7.69308425903237
 20
37.4360706210151
 30
0.0
 11
-7.69308300018163
 21
29.1860647382564
 31
0.0
  0
LINE
  5
   414
  8
0
  6
CONTINUOUS
 62
   130
 10
-6.79308425903236
 20
37.4360706210151
 30
0.0
 11
-6.79308300018163
 21
29.1860647382564
 31
0.0
  0
LINE
  5
   415
  8
0
  6
CONTINUOUS
 62
   130
 10
-6.14308425903235
 20
37.4360706210151
 30
0.0
 11
-6.14308300018162
 21
29.1860647382564
 31
0.0
  0
LINE
  5
   416
  8
0
  6
CONTINUOUS
 62
   130
 10
-5.89308425903235
 20
37.4360706210151
 30
0.0
 11
-5.89308300018162
 21
29.1860647382564
 31
0.0
  0
LINE
  5
   417
  8
0
  6
CONTINUOUS
 62
   130
 10
-5.24308425903234
 20
37.4360706210151
 30
0.0
 11
-5.24308300018161
 21
29.1860647382564
 31
0.0
  0
LINE
  5
   418
  8
0
  6
CONTINUOUS
 62
   130
 10
-4.99308425903234
 20
37.4360706210151
 30
0.0
 11
-4.9930830001816
 21
29.1860647382564
 31
0.0
  0
LINE
  5
   419
  8
0
  6
CONTINUOUS
 62
   130
 10
-4.34308425903233
 20
37.4360706210151
 30
0.0
 11
-4.3430830001816
 21
29.1860647382564
 31
0.0
  0
LINE
  5
   41A
  8
0
  6
CONTINUOUS
 62
   130
 10
-4.09308425903232
 20
37.4360706210151
 30
0.0
 11
-4.09308300018159
 21
29.1860647382564
 31
0.0
  0
LINE
  5
   41B
  8
0
  6
CONTINUOUS
 62
   130
 10
-3.44308425903233
 20
37.4360706210151
 30
0.0
 11
-3.44308300018159
 21
29.1860647382564
 31
0.0
  0
LINE
  5
   41C
  8
0
  6
CONTINUOUS
 62
   130
 10
-3.19308425903231
 20
37.4360706210151
 30
0.0
 11
-3.19308300018158
 21
29.1860647382564
 31
0.0
  0
LINE
  5
   41D
  8
0
  6
CONTINUOUS
 62
   130
 10
-2.54308425903232
 20
37.4360706210151
 30
0.0
 11
-2.54308300018158
 21
29.1860647382564
 31
0.0
  0
LINE
  5
   41E
  8
0
  6
CONTINUOUS
 62
   130
 10
-2.2930842590323
 20
37.4360706210151
 30
0.0
 11
-2.29308300018157
 21
29.1860647382564
 31
0.0
  0
LINE
  5
   41F
  8
0
  6
CONTINUOUS
 62
   130
 10
-1.6430842590323
 20
37.4360706210151
 30
0.0
 11
-1.64308300018157
 21
29.1860647382564
 31
0.0
  0
LINE
  5
   420
  8
0
  6
CONTINUOUS
 62
   130
 10
-1.39308425903229
 20
37.4360706210151
 30
0.0
 11
-1.39308300018156
 21
29.1860647382564
 31
0.0
  0
LINE
  5
   421
  8
0
  6
CONTINUOUS
 62
   130
 10
-0.74308425903229
 20
37.4360706210151
 30
0.0
 11
-0.743083000181556
 21
29.1860647382564
 31
0.0
  0
LINE
  5
   422
  8
0
  6
CONTINUOUS
 62
   130
 10
-0.493084259032278
 20
37.4360706210151
 30
0.0
 11
-0.493083000181546
 21
29.1860647382564
 31
0.0
  0
LINE
  5
   423
  8
0
  6
CONTINUOUS
 62
   130
 10
0.156915740967717
 20
37.4360706210151
 30
0.0
 11
0.156916999818449
 21
29.1860647382564
 31
0.0
  0
LINE
  5
   424
  8
0
  6
CONTINUOUS
 62
   130
 10
0.406915740967733
 20
37.4360706210151
 30
0.0
 11
0.406916999818465
 21
29.1860647382564
 31
0.0
  0
LINE
  5
   425
  8
0
  6
CONTINUOUS
 62
   130
 10
1.05691574096772
 20
37.4360706210151
 30
0.0
 11
1.05691699981846
 21
29.1860647382564
 31
0.0
  0
LINE
  5
   426
  8
0
  6
CONTINUOUS
 62
   130
 10
1.30691574096774
 20
37.4360706210151
 30
0.0
 11
1.30691699981848
 21
29.1860647382564
 31
0.0
  0
LINE
  5
   427
  8
0
  6
CONTINUOUS
 62
   130
 10
1.95691574096773
 20
37.4360706210151
 30
0.0
 11
1.95691699981847
 21
29.1860647382564
 31
0.0
  0
LINE
  5
   428
  8
0
  6
CONTINUOUS
 62
   130
 10
2.20691574096776
 20
37.4360706210151
 30
0.0
 11
2.20691699981849
 21
29.1860647382564
 31
0.0
  0
LINE
  5
   429
  8
0
  6
CONTINUOUS
 62
   130
 10
2.85691574096774
 20
37.4360706210151
 30
0.0
 11
2.85691699981848
 21
29.1860647382564
 31
0.0
  0
LINE
  5
   42A
  8
0
  6
CONTINUOUS
 62
   130
 10
3.10691574096776
 20
37.4360706210151
 30
0.0
 11
3.1069169998185
 21
29.1860647382564
 31
0.0
  0
LINE
  5
   42B
  8
0
  6
CONTINUOUS
 62
   130
 10
3.75691574096775
 20
37.4360706210151
 30
0.0
 11
3.75691699981849
 21
29.1860647382564
 31
0.0
  0
LINE
  5
   42C
  8
0
  6
CONTINUOUS
 62
   130
 10
4.00691574096777
 20
37.4360706210151
 30
0.0
 11
4.00691699981851
 21
29.1860647382564
 31
0.0
  0
LINE
  5
   42D
  8
0
  6
CONTINUOUS
 62
   130
 10
4.65691574096777
 20
37.4360706210151
 30
0.0
 11
4.6569169998185
 21
29.1860647382564
 31
0.0
  0
LINE
  5
   42E
  8
0
  6
CONTINUOUS
 62
   130
 10
4.90691574096778
 20
37.4360706210151
 30
0.0
 11
4.90691699981851
 21
29.1860647382564
 31
0.0
  0
LINE
  5
   42F
  8
0
  6
CONTINUOUS
 62
   130
 10
5.55691574096777
 20
37.4360706210151
 30
0.0
 11
5.55691699981851
 21
29.1860647382564
 31
0.0
  0
LINE
  5
   430
  8
0
  6
CONTINUOUS
 62
   130
 10
5.80691574096779
 20
37.4360706210151
 30
0.0
 11
5.80691699981852
 21
29.1860647382564
 31
0.0
  0
LINE
  5
   431
  8
0
  6
CONTINUOUS
 62
   130
 10
6.45691574096778
 20
37.4360706210151
 30
0.0
 11
6.45691699981852
 21
29.1860647382564
 31
0.0
  0
LINE
  5
   432
  8
0
  6
CONTINUOUS
 62
   130
 10
6.7069157409678
 20
37.4360706210151
 30
0.0
 11
6.70691699981853
 21
29.1860647382564
 31
0.0
  0
LINE
  5
   433
  8
0
  6
CONTINUOUS
 62
   130
 10
7.35691574096779
 20
37.4360706210151
 30
0.0
 11
7.35691699981853
 21
29.1860647382564
 31
0.0
  0
LINE
  5
   434
  8
0
  6
CONTINUOUS
 62
   130
 10
7.60691574096781
 20
37.4360706210151
 30
0.0
 11
7.60691699981854
 21
29.1860647382564
 31
0.0
  0
LINE
  5
   435
  8
0
  6
DASHDOT
 62
   130
 10
-13.66808623418
 20
51.3804005601702
 30
0.0
 11
-13.6680725710314
 21
-38.1624290955503
 31
0.0
  0
LINE
  5
   436
  8
0
  6
CONTINUOUS
 62
   130
 10
-13.9930842590324
 20
37.436070521833
 30
0.0
 11
-13.9930830001817
 21
29.1860646390743
 31
0.0
  0
LINE
  5
   437
  8
0
  6
CONTINUOUS
 62
   130
 10
-13.3430842590324
 20
37.4360707201973
 30
0.0
 11
-13.3430830001817
 21
29.1860648374385
 31
0.0
  0
LINE
  5
   438
  8
0
  6
CONTINUOUS
 62
   130
 10
-14.2430842590324
 20
37.4360704455391
 30
0.0
 11
-14.2430830001817
 21
29.1860645627804
 31
0.0
  0
LINE
  5
   439
  8
0
  6
CONTINUOUS
 62
   130
 10
-14.8930842590324
 20
37.4360702471749
 30
0.0
 11
-14.8930830001817
 21
29.1860643644161
 31
0.0
  0
LINE
  5
   43A
  8
0
  6
CONTINUOUS
 62
   130
 10
-15.7930842590324
 20
37.4360699725167
 30
0.0
 11
-15.7930830001816
 21
29.186064089758
 31
0.0
  0
LINE
  5
   43B
  8
0
  6
CONTINUOUS
 62
   130
 10
-15.1430842590324
 20
37.436070170881
 30
0.0
 11
-15.1430830001816
 21
29.1860642881222
 31
0.0
  0
LINE
  5
   43C
  8
0
  6
CONTINUOUS
 62
   130
 10
-16.6930842590323
 20
37.4360696978586
 30
0.0
 11
-16.6930830001816
 21
29.1860638150998
 31
0.0
  0
LINE
  5
   43D
  8
0
  6
CONTINUOUS
 62
   130
 10
-16.0430842590323
 20
37.4360698962228
 30
0.0
 11
-16.0430830001816
 21
29.1860640134641
 31
0.0
  0
LINE
  5
   43E
  8
0
  6
CONTINUOUS
 62
   130
 10
-17.5930842590323
 20
37.4360694232005
 30
0.0
 11
-17.5930830001816
 21
29.1860635404417
 31
0.0
  0
LINE
  5
   43F
  8
0
  6
CONTINUOUS
 62
   130
 10
-16.9430842590323
 20
37.4360696215647
 30
0.0
 11
-16.9430830001816
 21
29.1860637388059
 31
0.0
  0
LINE
  5
   440
  8
0
  6
CONTINUOUS
 62
   130
 10
-18.4930842590323
 20
37.4360691485423
 30
0.0
 11
-18.4930830001815
 21
29.1860632657836
 31
0.0
  0
LINE
  5
   441
  8
0
  6
CONTINUOUS
 62
   130
 10
-17.8430842590323
 20
37.4360693469065
 30
0.0
 11
-17.8430830001816
 21
29.1860634641478
 31
0.0
  0
LINE
  5
   442
  8
0
  6
CONTINUOUS
 62
   130
 10
-19.3930842590322
 20
37.4360688738842
 30
0.0
 11
-19.3930830001815
 21
29.1860629911254
 31
0.0
  0
LINE
  5
   443
  8
0
  6
CONTINUOUS
 62
   130
 10
-18.7430842590322
 20
37.4360690722484
 30
0.0
 11
-18.7430830001815
 21
29.1860631894896
 31
0.0
  0
LINE
  5
   444
  8
0
  6
CONTINUOUS
 62
   130
 10
-20.2930842590322
 20
37.436068599226
 30
0.0
 11
-20.2930830001815
 21
29.1860627164673
 31
0.0
  0
LINE
  5
   445
  8
0
  6
CONTINUOUS
 62
   130
 10
-19.6430842590322
 20
37.4360687975902
 30
0.0
 11
-19.6430830001815
 21
29.1860629148315
 31
0.0
  0
LINE
  5
   446
  8
0
  6
CONTINUOUS
 62
   130
 10
-20.5430842590322
 20
37.4360685229321
 30
0.0
 11
-20.5430830001814
 21
29.1860626401733
 31
0.0
  0
LINE
  5
   447
  8
0
  6
CONTINUOUS
 62
   130
 10
-21.1930842590322
 20
37.4360683245679
 30
0.0
 11
-21.1930830001814
 21
29.1860624418091
 31
0.0
  0
LINE
  5
   448
  8
0
  6
CONTINUOUS
 62
   130
 10
-21.4430842590321
 20
37.4360682482739
 30
0.0
 11
-21.4430830001814
 21
29.1860623655152
 31
0.0
  0
LINE
  5
   449
  8
0
  6
CONTINUOUS
 62
   130
 10
-22.0930842590321
 20
37.4360680499097
 30
0.0
 11
-22.0930830001814
 21
29.186062167151
 31
0.0
  0
LINE
  5
   44A
  8
0
  6
CONTINUOUS
 62
   130
 10
-22.3430842590321
 20
37.4360679736158
 30
0.0
 11
-22.3430830001814
 21
29.1860620908571
 31
0.0
  0
LINE
  5
   44B
  8
0
  6
CONTINUOUS
 62
   130
 10
-22.9930842590321
 20
37.4360677752516
 30
0.0
 11
-22.9930830001814
 21
29.1860618924928
 31
0.0
  0
LINE
  5
   44C
  8
0
  6
CONTINUOUS
 62
   130
 10
-23.2430842590321
 20
37.4360676989576
 30
0.0
 11
-23.2430830001814
 21
29.1860618161989
 31
0.0
  0
LINE
  5
   44D
  8
0
  6
CONTINUOUS
 62
   130
 10
-23.8930842590321
 20
37.4360675005934
 30
0.0
 11
-23.8930830001813
 21
29.1860616178347
 31
0.0
  0
LINE
  5
   44E
  8
0
  6
CONTINUOUS
 62
   130
 10
-24.1430842590321
 20
37.4360674242995
 30
0.0
 11
-24.1430830001813
 21
29.1860615415408
 31
0.0
  0
LINE
  5
   44F
  8
0
  6
CONTINUOUS
 62
   130
 10
-24.793084259032
 20
37.4360672259353
 30
0.0
 11
-24.7930830001813
 21
29.1860613431765
 31
0.0
  0
LINE
  5
   450
  8
0
  6
CONTINUOUS
 62
   130
 10
-25.043084259032
 20
37.4360671496414
 30
0.0
 11
-25.0430830001813
 21
29.1860612668826
 31
0.0
  0
LINE
  5
   451
  8
0
  6
CONTINUOUS
 62
   130
 10
-25.693084259032
 20
37.4360669512771
 30
0.0
 11
-25.6930830001813
 21
29.1860610685184
 31
0.0
  0
LINE
  5
   452
  8
0
  6
CONTINUOUS
 62
   130
 10
-25.943084259032
 20
37.4360668749832
 30
0.0
 11
-25.9430830001813
 21
29.1860609922245
 31
0.0
  0
LINE
  5
   453
  8
0
  6
CONTINUOUS
 62
   130
 10
-26.593084259032
 20
37.436066676619
 30
0.0
 11
-26.5930830001812
 21
29.1860607938602
 31
0.0
  0
LINE
  5
   454
  8
0
  6
CONTINUOUS
 62
   130
 10
-26.843084259032
 20
37.4360666003251
 30
0.0
 11
-26.8430830001812
 21
29.1860607175663
 31
0.0
  0
LINE
  5
   455
  8
0
  6
CONTINUOUS
 62
   130
 10
-27.4930842590319
 20
37.4360664019608
 30
0.0
 11
-27.4930830001812
 21
29.1860605192021
 31
0.0
  0
LINE
  5
   456
  8
0
  6
CONTINUOUS
 62
   130
 10
-27.7430842590319
 20
37.4360663256669
 30
0.0
 11
-27.7430830001812
 21
29.1860604429082
 31
0.0
  0
LINE
  5
   457
  8
0
  6
CONTINUOUS
 62
   130
 10
-28.3930842590319
 20
37.4360661273027
 30
0.0
 11
-28.3930830001812
 21
29.186060244544
 31
0.0
  0
LINE
  5
   458
  8
0
  6
CONTINUOUS
 62
   130
 10
-28.6430842590319
 20
37.4360660510088
 30
0.0
 11
-28.6430830001812
 21
29.18606016825
 31
0.0
  0
LINE
  5
   459
  8
0
  6
CONTINUOUS
 62
   130
 10
-29.2930842590319
 20
37.4360658526446
 30
0.0
 11
-29.2930830001811
 21
29.1860599698858
 31
0.0
  0
LINE
  5
   45A
  8
0
  6
CONTINUOUS
 62
   130
 10
-29.5430842590319
 20
37.4360657763506
 30
0.0
 11
-29.5430830001811
 21
29.1860598935919
 31
0.0
  0
LINE
  5
   45B
  8
0
  6
CONTINUOUS
 62
   130
 10
-30.1930842590318
 20
37.4360655779864
 30
0.0
 11
-30.1930830001811
 21
29.1860596952277
 31
0.0
  0
LINE
  5
   45C
  8
0
  6
CONTINUOUS
 62
   130
 10
-30.4430842590318
 20
37.4360655016925
 30
0.0
 11
-30.4430830001811
 21
29.1860596189337
 31
0.0
  0
LINE
  5
   45D
  8
0
  6
CONTINUOUS
 62
   130
 10
-31.0930842590318
 20
37.4360653033283
 30
0.0
 11
-31.0930830001811
 21
29.1860594205695
 31
0.0
  0
LINE
  5
   45E
  8
0
  6
CONTINUOUS
 62
   130
 10
-31.3430842590318
 20
37.4360652270343
 30
0.0
 11
-31.3430830001811
 21
29.1860593442756
 31
0.0
  0
LINE
  5
   45F
  8
0
  6
CONTINUOUS
 62
   130
 10
-31.9930842590318
 20
37.4360650286701
 30
0.0
 11
-31.993083000181
 21
29.1860591459114
 31
0.0
  0
LINE
  5
   460
  8
0
  6
CONTINUOUS
 62
   130
 10
-32.2430842590318
 20
37.4360649523762
 30
0.0
 11
-32.243083000181
 21
29.1860590696174
 31
0.0
  0
LINE
  5
   461
  8
0
  6
CONTINUOUS
 62
   130
 10
-32.8930842590317
 20
37.436064754012
 30
0.0
 11
-32.893083000181
 21
29.1860588712532
 31
0.0
  0
LINE
  5
   462
  8
0
  6
CONTINUOUS
 62
   130
 10
-33.1430842590317
 20
37.436064677718
 30
0.0
 11
-33.143083000181
 21
29.1860587949593
 31
0.0
  0
LINE
  5
   463
  8
0
  6
CONTINUOUS
 62
   130
 10
-33.7930842590317
 20
37.4360644793538
 30
0.0
 11
-33.793083000181
 21
29.1860585965951
 31
0.0
  0
LINE
  5
   464
  8
0
  6
CONTINUOUS
 62
   130
 10
-34.0430842590317
 20
37.4360644030599
 30
0.0
 11
-34.043083000181
 21
29.1860585203012
 31
0.0
  0
LINE
  5
   465
  8
0
  6
CONTINUOUS
 62
   130
 10
-34.6930842590317
 20
37.4360642046957
 30
0.0
 11
-34.6930830001809
 21
29.1860583219369
 31
0.0
  0
LINE
  5
   466
  8
0
  6
CONTINUOUS
 62
   130
 10
-34.9430842590317
 20
37.4360641284017
 30
0.0
 11
-34.943082275448
 21
24.4364471435547
 31
0.0
  0
LINE
  5
   467
  8
0
  6
DASHDOT
 62
   130
 10
-13.6680725710314
 20
51.5344727051695
 30
0.0
 11
-13.66808623418
 21
-38.008356950551
 31
0.0
  0
LINE
  5
   468
  8
0
  6
DASHDOT
 62
   130
 10
-13.6680725710314
 20
51.5344727051695
 30
0.0
 11
-13.66808623418
 21
-38.008356950551
 31
0.0
  0
LINE
  5
   469
  8
0
  6
CONTINUOUS
 62
   130
 10
-34.6930758551896
 20
30.0114100983347
 30
0.0
 11
-34.6930767058613
 21
24.4364471435547
 31
0.0
  0
LINE
  5
   46A
  8
0
  6
DASHDOT
 62
   130
 10
-57.7833581985898
 20
0.436085879800181
 30
0.0
 11
11.2198817578178
 21
0.436085879800181
 31
0.0
  0
CIRCLE
  5
   46B
  8
0
  6
CONTINUOUS
 62
   130
 10
-43.6680850219645
 20
-30.0639781951904
 30
0.0
 40
1.75
  0
LINE
  5
   46C
  8
0
  6
DASHDOT
 62
   130
 10
-43.6680850219645
 20
-27.8139781951904
 30
0.0
 11
-43.6680850219645
 21
-32.3139781951904
 31
0.0
  0
LINE
  5
   46D
  8
0
  6
DASHDOT
 62
   130
 10
-45.9180850219645
 20
-30.0639781951904
 30
0.0
 11
-41.4180850219645
 21
-30.0639781951904
 31
0.0
  0
CIRCLE
  5
   46E
  8
0
  6
CONTINUOUS
 62
   130
 10
-43.6680850219645
 20
42.4360218048096
 30
0.0
 40
1.75
  0
LINE
  5
   46F
  8
0
  6
DASHDOT
 62
   130
 10
-43.6680850219645
 20
44.6860218048096
 30
0.0
 11
-43.6680850219645
 21
40.1860218048096
 31
0.0
  0
LINE
  5
   470
  8
0
  6
DASHDOT
 62
   130
 10
-45.9180850219645
 20
42.4360218048096
 30
0.0
 11
-41.4180850219645
 21
42.4360218048096
 31
0.0
  0
LINE
  5
   471
  8
0
  6
CONTINUOUS
 62
   130
 10
-35.8430773925787
 20
37.4360641284017
 30
0.0
 11
-35.843075408995
 21
24.4364471435547
 31
0.0
  0
LINE
  5
   472
  8
0
  6
CONTINUOUS
 62
   130
 10
-35.5930678558236
 20
37.4360706210151
 30
0.0
 11
-35.5930698394083
 21
24.4364471435547
 31
0.0
  0
LINE
  5
   473
  8
0
  6
CONTINUOUS
 62
   130
 10
-36.4930609893706
 20
37.4360706210151
 30
0.0
 11
-36.4930629729553
 21
24.4364471435547
 31
0.0
  0
LINE
  5
   474
  8
0
  6
CONTINUOUS
 62
   130
 10
-36.7430705261257
 20
37.4360641284017
 30
0.0
 11
-36.743068542542
 21
24.4364471435547
 31
0.0
  0
LINE
  5
   475
  8
0
  6
CONTINUOUS
 62
   130
 10
-37.3930541229176
 20
37.4360706210151
 30
0.0
 11
-37.3930561065023
 21
24.4364471435547
 31
0.0
  0
LINE
  5
   476
  8
0
  6
CONTINUOUS
 62
   130
 10
-37.6430636596727
 20
37.4360641284017
 30
0.0
 11
-37.643061676089
 21
24.4364471435547
 31
0.0
  0
LINE
  5
   477
  8
0
  6
CONTINUOUS
 62
   130
 10
-38.2930472564646
 20
37.4360706210151
 30
0.0
 11
-38.2930492400493
 21
24.4364471435547
 31
0.0
  0
LINE
  5
   478
  8
0
  6
CONTINUOUS
 62
   130
 10
-38.5430567932197
 20
37.4360641284017
 30
0.0
 11
-38.543054809636
 21
24.4364471435547
 31
0.0
  0
LINE
  5
   479
  8
0
  6
CONTINUOUS
 62
   130
 10
-39.1930403900116
 20
37.4360706210151
 30
0.0
 11
-39.1930423735963
 21
24.4364471435547
 31
0.0
  0
LINE
  5
   47A
  8
0
  6
CONTINUOUS
 62
   130
 10
-39.4430499267667
 20
37.4360641284017
 30
0.0
 11
-39.4430479431829
 21
24.4364471435547
 31
0.0
  0
LINE
  5
   47B
  8
0
  6
CONTINUOUS
 62
   130
 10
-40.0930335235586
 20
37.4360706210151
 30
0.0
 11
-40.0930355071433
 21
24.4364471435547
 31
0.0
  0
LINE
  5
   47C
  8
0
  6
CONTINUOUS
 62
   130
 10
-40.3430430603137
 20
37.4360641284017
 30
0.0
 11
-40.3430410767299
 21
24.4364471435547
 31
0.0
  0
LINE
  5
   47D
  8
0
  6
CONTINUOUS
 62
   130
 10
-40.9930266571056
 20
37.4360706210151
 30
0.0
 11
-40.9930286406903
 21
24.4364471435547
 31
0.0
  0
LINE
  5
   47E
  8
0
  6
CONTINUOUS
 62
   130
 10
-41.2430361938607
 20
37.4360641284017
 30
0.0
 11
-41.2430342102769
 21
24.4364471435547
 31
0.0
  0
LINE
  5
   47F
  8
0
  6
CONTINUOUS
 62
   130
 10
-41.8930197906526
 20
37.4360706210151
 30
0.0
 11
-41.8930217742373
 21
24.4364471435547
 31
0.0
  0
LINE
  5
   480
  8
0
  6
CONTINUOUS
 62
   130
 10
-42.1430293274077
 20
37.4360641284017
 30
0.0
 11
-42.1430273438239
 21
24.4364471435547
 31
0.0
  0
LINE
  5
   481
  8
0
  6
CONTINUOUS
 62
   130
 10
-42.7930129241996
 20
37.4360706210151
 30
0.0
 11
-42.7930149077843
 21
24.4364471435547
 31
0.0
  0
LINE
  5
   482
  8
0
  6
CONTINUOUS
 62
   130
 10
-43.0430224609547
 20
37.4360641284017
 30
0.0
 11
-43.0430204773709
 21
24.4364471435547
 31
0.0
  0
LINE
  5
   483
  8
0
  6
CONTINUOUS
 62
   130
 10
-43.6930060577466
 20
37.4360706210151
 30
0.0
 11
-43.6930080413313
 21
24.4364471435547
 31
0.0
  0
LINE
  5
   484
  8
0
  6
CONTINUOUS
 62
   130
 10
-43.9430155945017
 20
37.4360641284017
 30
0.0
 11
-43.9430136109179
 21
24.4364471435547
 31
0.0
  0
LINE
  5
   485
  8
0
  6
CONTINUOUS
 62
   130
 10
-44.5929991912936
 20
37.4360706210151
 30
0.0
 11
-44.5930011748783
 21
24.4364471435547
 31
0.0
  0
LINE
  5
   486
  8
0
  6
CONTINUOUS
 62
   130
 10
-44.8430087280487
 20
37.4360641284017
 30
0.0
 11
-44.8430067444649
 21
24.4364471435547
 31
0.0
  0
LINE
  5
   487
  8
0
  6
CONTINUOUS
 62
   130
 10
-45.4929923248406
 20
37.4360706210151
 30
0.0
 11
-45.4929943084253
 21
24.4364471435547
 31
0.0
  0
LINE
  5
   488
  8
0
  6
CONTINUOUS
 62
   130
 10
-45.7430018615956
 20
37.4360641284017
 30
0.0
 11
-45.7429998780119
 21
24.4364471435547
 31
0.0
  0
LINE
  5
   489
  8
0
  6
CONTINUOUS
 62
   130
 10
-46.3929854583876
 20
37.4360706210151
 30
0.0
 11
-46.3929874419723
 21
24.4364471435547
 31
0.0
  0
LINE
  5
   48A
  8
0
  6
CONTINUOUS
 62
   130
 10
-46.6429949951426
 20
37.4360641284017
 30
0.0
 11
-46.6429930115589
 21
24.4364471435547
 31
0.0
  0
LINE
  5
   48B
  8
0
  6
CONTINUOUS
 62
   130
 10
-47.2929785919345
 20
37.4360706210151
 30
0.0
 11
-47.2929805755193
 21
24.4364471435547
 31
0.0
  0
LINE
  5
   48C
  8
0
  6
CONTINUOUS
 62
   130
 10
-47.5429881286896
 20
37.4360641284017
 30
0.0
 11
-47.5429861451059
 21
24.4364471435547
 31
0.0
  0
LINE
  5
   48D
  8
0
  6
CONTINUOUS
 62
   130
 10
-48.1929717254816
 20
37.4360706210151
 30
0.0
 11
-48.1929737090663
 21
24.4364471435547
 31
0.0
  0
LINE
  5
   48E
  8
0
  6
CONTINUOUS
 62
   130
 10
-48.4429812622366
 20
37.4360641284017
 30
0.0
 11
-48.4429792786529
 21
24.4364471435547
 31
0.0
  0
LINE
  5
   48F
  8
0
  6
CONTINUOUS
 62
   130
 10
-49.0929648590285
 20
37.4360706210151
 30
0.0
 11
-49.0929668426133
 21
24.4364471435547
 31
0.0
  0
LINE
  5
   490
  8
0
  6
CONTINUOUS
 62
   130
 10
-49.3429743957836
 20
37.4360641284017
 30
0.0
 11
-49.3429724121999
 21
24.4364471435547
 31
0.0
  0
LINE
  5
   491
  8
0
  6
CONTINUOUS
 62
   130
 10
-49.9929579925755
 20
37.4360706210151
 30
0.0
 11
-49.9929599761602
 21
24.4364471435547
 31
0.0
  0
LINE
  5
   492
  8
0
  6
CONTINUOUS
 62
   130
 10
-50.2429675293306
 20
37.4360641284017
 30
0.0
 11
-50.2429655457469
 21
24.4364471435547
 31
0.0
  0
TEXT
  5
   493
  8
0
  6
CONTINUOUS
 62
     2
 10
26.0503762937035
 20
-1.06499640582237
 30
0.0
 40
3.00000002980232
  1
X
 50
359.999999844103
 41
0.983333351877
 11
26.0503762977774
 21
0.435003609078794
 31
0.0
 73
     2
  0
LINE
  5
   494
  8
0
  6
CONTINUOUS
 62
   130
 10
-51.168065185603
 20
12.4364471435547
 30
0.0
 11
-51.1680615234944
 21
-11.5635528564453
 31
0.0
  0
LINE
  5
   495
  8
0
  6
CONTINUOUS
 62
   130
 10
-34.9430804443937
 20
12.4364471435547
 30
0.0
 11
-34.943076782285
 21
-11.5635528564453
 31
0.0
  0
LINE
  5
   496
  8
0
  6
CONTINUOUS
 62
   130
 10
-34.6930785369156
 20
12.4364471435547
 30
0.0
 11
-34.6930821990242
 21
-11.5635528564453
 31
0.0
  0
LINE
  5
   497
  8
0
  6
CONTINUOUS
 62
   130
 10
-35.8430735779407
 20
12.4364471435547
 30
0.0
 11
-35.843069915832
 21
-11.5635528564453
 31
0.0
  0
LINE
  5
   498
  8
0
  6
CONTINUOUS
 62
   130
 10
-35.5930716704626
 20
12.4364471435547
 30
0.0
 11
-35.5930753325712
 21
-11.5635528564453
 31
0.0
  0
LINE
  5
   499
  8
0
  6
CONTINUOUS
 62
   130
 10
-36.4930648040096
 20
12.4364471435547
 30
0.0
 11
-36.4930684661182
 21
-11.5635528564453
 31
0.0
  0
LINE
  5
   49A
  8
0
  6
CONTINUOUS
 62
   130
 10
-36.7430667114877
 20
12.4364471435547
 30
0.0
 11
-36.743063049379
 21
-11.5635528564453
 31
0.0
  0
LINE
  5
   49B
  8
0
  6
CONTINUOUS
 62
   130
 10
-37.3930579375566
 20
12.4364471435547
 30
0.0
 11
-37.3930615996652
 21
-11.5635528564453
 31
0.0
  0
LINE
  5
   49C
  8
0
  6
CONTINUOUS
 62
   130
 10
-37.6430598450347
 20
12.4364471435547
 30
0.0
 11
-37.643056182926
 21
-11.5635528564453
 31
0.0
  0
LINE
  5
   49D
  8
0
  6
CONTINUOUS
 62
   130
 10
-38.2930510711036
 20
12.4364471435547
 30
0.0
 11
-38.2930547332122
 21
-11.5635528564453
 31
0.0
  0
LINE
  5
   49E
  8
0
  6
CONTINUOUS
 62
   130
 10
-38.5430529785816
 20
12.4364471435547
 30
0.0
 11
-38.543049316473
 21
-11.5635528564453
 31
0.0
  0
LINE
  5
   49F
  8
0
  6
CONTINUOUS
 62
   130
 10
-39.1930442046506
 20
12.4364471435547
 30
0.0
 11
-39.1930478667592
 21
-11.5635528564453
 31
0.0
  0
LINE
  5
   4A0
  8
0
  6
CONTINUOUS
 62
   130
 10
-39.4430461121286
 20
12.4364471435547
 30
0.0
 11
-39.44304245002
 21
-11.5635528564453
 31
0.0
  0
LINE
  5
   4A1
  8
0
  6
CONTINUOUS
 62
   130
 10
-40.0930373381976
 20
12.4364471435547
 30
0.0
 11
-40.0930410003062
 21
-11.5635528564453
 31
0.0
  0
LINE
  5
   4A2
  8
0
  6
CONTINUOUS
 62
   130
 10
-40.3430392456756
 20
12.4364471435547
 30
0.0
 11
-40.343035583567
 21
-11.5635528564453
 31
0.0
  0
LINE
  5
   4A3
  8
0
  6
CONTINUOUS
 62
   130
 10
-40.9930304717446
 20
12.4364471435547
 30
0.0
 11
-40.9930341338532
 21
-11.5635528564453
 31
0.0
  0
LINE
  5
   4A4
  8
0
  6
CONTINUOUS
 62
   130
 10
-41.2430323792226
 20
12.4364471435547
 30
0.0
 11
-41.243028717114
 21
-11.5635528564453
 31
0.0
  0
LINE
  5
   4A5
  8
0
  6
CONTINUOUS
 62
   130
 10
-41.8930236052916
 20
12.4364471435547
 30
0.0
 11
-41.8930272674002
 21
-11.5635528564453
 31
0.0
  0
LINE
  5
   4A6
  8
0
  6
CONTINUOUS
 62
   130
 10
-42.1430255127696
 20
12.4364471435547
 30
0.0
 11
-42.143021850661
 21
-11.5635528564453
 31
0.0
  0
LINE
  5
   4A7
  8
0
  6
CONTINUOUS
 62
   130
 10
-42.7930167388386
 20
12.4364471435547
 30
0.0
 11
-42.7930204009472
 21
-11.5635528564453
 31
0.0
  0
LINE
  5
   4A8
  8
0
  6
CONTINUOUS
 62
   130
 10
-43.0430186463166
 20
12.4364471435547
 30
0.0
 11
-43.043014984208
 21
-11.5635528564453
 31
0.0
  0
LINE
  5
   4A9
  8
0
  6
CONTINUOUS
 62
   130
 10
-43.6930098723856
 20
12.4364471435547
 30
0.0
 11
-43.6930135344942
 21
-11.5635528564453
 31
0.0
  0
LINE
  5
   4AA
  8
0
  6
CONTINUOUS
 62
   130
 10
-43.9430117798636
 20
12.4364471435547
 30
0.0
 11
-43.943008117755
 21
-11.5635528564453
 31
0.0
  0
LINE
  5
   4AB
  8
0
  6
CONTINUOUS
 62
   130
 10
-44.5930030059326
 20
12.4364471435547
 30
0.0
 11
-44.5930066680412
 21
-11.5635528564453
 31
0.0
  0
LINE
  5
   4AC
  8
0
  6
CONTINUOUS
 62
   130
 10
-44.8430049134106
 20
12.4364471435547
 30
0.0
 11
-44.843001251302
 21
-11.5635528564453
 31
0.0
  0
LINE
  5
   4AD
  8
0
  6
CONTINUOUS
 62
   130
 10
-45.4929961394796
 20
12.4364471435547
 30
0.0
 11
-45.4929998015882
 21
-11.5635528564453
 31
0.0
  0
LINE
  5
   4AE
  8
0
  6
CONTINUOUS
 62
   130
 10
-45.7429980469576
 20
12.4364471435547
 30
0.0
 11
-45.742994384849
 21
-11.5635528564453
 31
0.0
  0
LINE
  5
   4AF
  8
0
  6
CONTINUOUS
 62
   130
 10
-46.3929892730266
 20
12.4364471435547
 30
0.0
 11
-46.3929929351352
 21
-11.5635528564453
 31
0.0
  0
LINE
  5
   4B0
  8
0
  6
CONTINUOUS
 62
   130
 10
-46.6429911805046
 20
12.4364471435547
 30
0.0
 11
-46.642987518396
 21
-11.5635528564453
 31
0.0
  0
LINE
  5
   4B1
  8
0
  6
CONTINUOUS
 62
   130
 10
-47.2929824065736
 20
12.4364471435547
 30
0.0
 11
-47.2929860686822
 21
-11.5635528564453
 31
0.0
  0
LINE
  5
   4B2
  8
0
  6
CONTINUOUS
 62
   130
 10
-47.5429843140516
 20
12.4364471435547
 30
0.0
 11
-47.542980651943
 21
-11.5635528564453
 31
0.0
  0
LINE
  5
   4B3
  8
0
  6
CONTINUOUS
 62
   130
 10
-48.1929755401206
 20
12.4364471435547
 30
0.0
 11
-48.1929792022292
 21
-11.5635528564453
 31
0.0
  0
LINE
  5
   4B4
  8
0
  6
CONTINUOUS
 62
   130
 10
-48.4429774475986
 20
12.4364471435547
 30
0.0
 11
-48.44297378549
 21
-11.5635528564453
 31
0.0
  0
LINE
  5
   4B5
  8
0
  6
CONTINUOUS
 62
   130
 10
-49.0929686736676
 20
12.4364471435547
 30
0.0
 11
-49.0929723357762
 21
-11.5635528564453
 31
0.0
  0
LINE
  5
   4B6
  8
0
  6
CONTINUOUS
 62
   130
 10
-49.3429705811456
 20
12.4364471435547
 30
0.0
 11
-49.342966919037
 21
-11.5635528564453
 31
0.0
  0
LINE
  5
   4B7
  8
0
  6
CONTINUOUS
 62
   130
 10
-49.9929618072145
 20
12.4364471435547
 30
0.0
 11
-49.9929654693231
 21
-11.5635528564453
 31
0.0
  0
LINE
  5
   4B8
  8
0
  6
CONTINUOUS
 62
   130
 10
-50.2429637146926
 20
12.4364471435547
 30
0.0
 11
-50.242960052584
 21
-11.5635528564453
 31
0.0
  0
LINE
  5
   4B9
  8
0
  6
CONTINUOUS
 62
   130
 10
8.83190834050934
 20
12.4364471435547
 30
0.0
 11
8.83190467840073
 21
-11.5635528564453
 31
0.0
  0
LINE
  5
   4BA
  8
0
  6
CONTINUOUS
 62
   130
 10
-13.9930840300783
 20
-23.5635528564453
 30
0.0
 11
-13.9930841827385
 21
-24.564027011396
 31
0.0
  0
LINE
  5
   4BB
  8
0
  6
CONTINUOUS
 62
   130
 10
-13.9930840300783
 20
-23.5635528564453
 30
0.0
 11
-13.9930841827385
 21
-24.5640269122139
 31
0.0
  0
LINE
  5
   4BC
  8
0
  6
CONTINUOUS
 62
   130
 10
-14.2430840300783
 20
-23.5635528564453
 30
0.0
 11
-14.2430841827385
 21
-24.56402683592
 31
0.0
  0
LINE
  5
   4BD
  8
0
  6
CONTINUOUS
 62
   130
 10
-14.8930840300783
 20
-23.5635528564453
 30
0.0
 11
-14.8930841827385
 21
-24.5640266375558
 31
0.0
  0
LINE
  5
   4BE
  8
0
  6
CONTINUOUS
 62
   130
 10
-15.7930840300783
 20
-23.5635528564453
 30
0.0
 11
-15.7930841827384
 21
-24.5640263628976
 31
0.0
  0
LINE
  5
   4BF
  8
0
  6
CONTINUOUS
 62
   130
 10
-15.1430840300783
 20
-23.5635528564453
 30
0.0
 11
-15.1430841827384
 21
-24.5640265612618
 31
0.0
  0
LINE
  5
   4C0
  8
0
  6
CONTINUOUS
 62
   130
 10
-16.6930840300783
 20
-23.5635528564453
 30
0.0
 11
-16.6930841827384
 21
-24.5640260882395
 31
0.0
  0
LINE
  5
   4C1
  8
0
  6
CONTINUOUS
 62
   130
 10
-16.0430840300783
 20
-23.5635528564453
 30
0.0
 11
-16.0430841827384
 21
-24.5640262866037
 31
0.0
  0
LINE
  5
   4C2
  8
0
  6
CONTINUOUS
 62
   130
 10
-17.5930840300783
 20
-23.5635528564453
 30
0.0
 11
-17.5930841827384
 21
-24.5640258135813
 31
0.0
  0
LINE
  5
   4C3
  8
0
  6
CONTINUOUS
 62
   130
 10
-16.9430840300783
 20
-23.5635528564453
 30
0.0
 11
-16.9430841827384
 21
-24.5640260119455
 31
0.0
  0
LINE
  5
   4C4
  8
0
  6
CONTINUOUS
 62
   130
 10
-18.4930840300784
 20
-23.5635528564453
 30
0.0
 11
-18.4930841827384
 21
-24.5640255389232
 31
0.0
  0
LINE
  5
   4C5
  8
0
  6
CONTINUOUS
 62
   130
 10
-17.8430840300784
 20
-23.5635528564453
 30
0.0
 11
-17.8430841827384
 21
-24.5640257372874
 31
0.0
  0
LINE
  5
   4C6
  8
0
  6
CONTINUOUS
 62
   130
 10
-19.3930840300783
 20
-23.5635528564453
 30
0.0
 11
-19.3930841827383
 21
-24.564025264265
 31
0.0
  0
LINE
  5
   4C7
  8
0
  6
CONTINUOUS
 62
   130
 10
-18.7430840300783
 20
-23.5635528564453
 30
0.0
 11
-18.7430841827383
 21
-24.5640254626293
 31
0.0
  0
LINE
  5
   4C8
  8
0
  6
CONTINUOUS
 62
   130
 10
-20.2930840300784
 20
-23.5635528564453
 30
0.0
 11
-20.2930841827383
 21
-24.5640249896069
 31
0.0
  0
LINE
  5
   4C9
  8
0
  6
CONTINUOUS
 62
   130
 10
-19.6430840300784
 20
-23.5635528564453
 30
0.0
 11
-19.6430841827383
 21
-24.5640251879711
 31
0.0
  0
LINE
  5
   4CA
  8
0
  6
CONTINUOUS
 62
   130
 10
-20.5430840300783
 20
-23.5635528564453
 30
0.0
 11
-20.5430841827382
 21
-24.564024913313
 31
0.0
  0
LINE
  5
   4CB
  8
0
  6
CONTINUOUS
 62
   130
 10
-21.1930840300784
 20
-23.5635528564453
 30
0.0
 11
-21.1930841827382
 21
-24.5640247149487
 31
0.0
  0
LINE
  5
   4CC
  8
0
  6
CONTINUOUS
 62
   130
 10
-21.4430840300784
 20
-23.5635528564453
 30
0.0
 11
-21.4430841827382
 21
-24.5640246386548
 31
0.0
  0
LINE
  5
   4CD
  8
0
  6
CONTINUOUS
 62
   130
 10
-22.0930840300784
 20
-23.5635528564453
 30
0.0
 11
-22.0930841827382
 21
-24.5640244402906
 31
0.0
  0
LINE
  5
   4CE
  8
0
  6
CONTINUOUS
 62
   130
 10
-22.3430840300784
 20
-23.5635528564453
 30
0.0
 11
-22.3430841827382
 21
-24.5640243639967
 31
0.0
  0
LINE
  5
   4CF
  8
0
  6
CONTINUOUS
 62
   130
 10
-22.9930840300784
 20
-23.5635528564453
 30
0.0
 11
-22.9930841827381
 21
-24.5640241656325
 31
0.0
  0
LINE
  5
   4D0
  8
0
  6
CONTINUOUS
 62
   130
 10
-23.2430840300784
 20
-23.5635528564453
 30
0.0
 11
-23.2430841827382
 21
-24.5640240893385
 31
0.0
  0
LINE
  5
   4D1
  8
0
  6
CONTINUOUS
 62
   130
 10
-23.8930840300784
 20
-23.5635528564453
 30
0.0
 11
-23.8930841827381
 21
-24.5640238909743
 31
0.0
  0
LINE
  5
   4D2
  8
0
  6
CONTINUOUS
 62
   130
 10
-24.1430840300784
 20
-23.5635528564453
 30
0.0
 11
-24.1430841827381
 21
-24.5640238146804
 31
0.0
  0
LINE
  5
   4D3
  8
0
  6
CONTINUOUS
 62
   130
 10
-24.7930840300784
 20
-23.5635528564453
 30
0.0
 11
-24.7930841827381
 21
-24.5640236163162
 31
0.0
  0
LINE
  5
   4D4
  8
0
  6
CONTINUOUS
 62
   130
 10
-25.0430840300784
 20
-23.5635528564453
 30
0.0
 11
-25.0430841827381
 21
-24.5640235400222
 31
0.0
  0
LINE
  5
   4D5
  8
0
  6
CONTINUOUS
 62
   130
 10
-25.6930840300784
 20
-23.5635528564453
 30
0.0
 11
-25.6930841827381
 21
-24.564023341658
 31
0.0
  0
LINE
  5
   4D6
  8
0
  6
CONTINUOUS
 62
   130
 10
-25.9430840300784
 20
-23.5635528564453
 30
0.0
 11
-25.943084182738
 21
-24.5640232653641
 31
0.0
  0
LINE
  5
   4D7
  8
0
  6
CONTINUOUS
 62
   130
 10
-26.5930840300784
 20
-23.5635528564453
 30
0.0
 11
-26.593084182738
 21
-24.5640230669999
 31
0.0
  0
LINE
  5
   4D8
  8
0
  6
CONTINUOUS
 62
   130
 10
-26.8430840300784
 20
-23.5635528564453
 30
0.0
 11
-26.843084182738
 21
-24.5640229907059
 31
0.0
  0
LINE
  5
   4D9
  8
0
  6
CONTINUOUS
 62
   130
 10
-27.4930840300784
 20
-23.5635528564453
 30
0.0
 11
-27.493084182738
 21
-24.5640227923417
 31
0.0
  0
LINE
  5
   4DA
  8
0
  6
CONTINUOUS
 62
   130
 10
-27.7430840300784
 20
-23.5635528564453
 30
0.0
 11
-27.743084182738
 21
-24.5640227160478
 31
0.0
  0
LINE
  5
   4DB
  8
0
  6
CONTINUOUS
 62
   130
 10
-28.3930840300784
 20
-23.5635528564453
 30
0.0
 11
-28.3930841827379
 21
-24.5640225176836
 31
0.0
  0
LINE
  5
   4DC
  8
0
  6
CONTINUOUS
 62
   130
 10
-28.6430840300785
 20
-23.5635528564453
 30
0.0
 11
-28.643084182738
 21
-24.5640224413896
 31
0.0
  0
LINE
  5
   4DD
  8
0
  6
CONTINUOUS
 62
   130
 10
-29.2930840300784
 20
-23.5635528564453
 30
0.0
 11
-29.2930841827379
 21
-24.5640222430254
 31
0.0
  0
LINE
  5
   4DE
  8
0
  6
CONTINUOUS
 62
   130
 10
-29.5430840300784
 20
-23.5635528564453
 30
0.0
 11
-29.5430841827379
 21
-24.5640221667315
 31
0.0
  0
LINE
  5
   4DF
  8
0
  6
CONTINUOUS
 62
   130
 10
-30.1930840300784
 20
-23.5635528564453
 30
0.0
 11
-30.1930841827379
 21
-24.5640219683673
 31
0.0
  0
LINE
  5
   4E0
  8
0
  6
CONTINUOUS
 62
   130
 10
-30.4430840300785
 20
-23.5635528564453
 30
0.0
 11
-30.4430841827379
 21
-24.5640218920734
 31
0.0
  0
LINE
  5
   4E1
  8
0
  6
CONTINUOUS
 62
   130
 10
-31.0930840300785
 20
-23.5635528564453
 30
0.0
 11
-31.0930841827379
 21
-24.5640216937091
 31
0.0
  0
LINE
  5
   4E2
  8
0
  6
CONTINUOUS
 62
   130
 10
-31.3430840300785
 20
-23.5635528564453
 30
0.0
 11
-31.3430841827378
 21
-24.5640216174152
 31
0.0
  0
LINE
  5
   4E3
  8
0
  6
CONTINUOUS
 62
   130
 10
-31.9930840300784
 20
-23.5635528564453
 30
0.0
 11
-31.9930841827378
 21
-24.564021419051
 31
0.0
  0
LINE
  5
   4E4
  8
0
  6
CONTINUOUS
 62
   130
 10
-32.2430840300785
 20
-23.5635528564453
 30
0.0
 11
-32.2430841827378
 21
-24.5640213427571
 31
0.0
  0
LINE
  5
   4E5
  8
0
  6
CONTINUOUS
 62
   130
 10
-32.8930840300785
 20
-23.5635528564453
 30
0.0
 11
-32.8930841827378
 21
-24.5640211443928
 31
0.0
  0
LINE
  5
   4E6
  8
0
  6
CONTINUOUS
 62
   130
 10
-33.1430840300785
 20
-23.5635528564453
 30
0.0
 11
-33.1430841827378
 21
-24.5640210680989
 31
0.0
  0
LINE
  5
   4E7
  8
0
  6
CONTINUOUS
 62
   130
 10
-33.7930840300785
 20
-23.5635528564453
 30
0.0
 11
-33.7930841827377
 21
-24.5640208697347
 31
0.0
  0
LINE
  5
   4E8
  8
0
  6
CONTINUOUS
 62
   130
 10
-34.0430840300785
 20
-23.5635528564453
 30
0.0
 11
-34.0430841827378
 21
-24.5640207934408
 31
0.0
  0
LINE
  5
   4E9
  8
0
  6
CONTINUOUS
 62
   130
 10
-34.9430840300786
 20
-23.5635528564453
 30
0.0
 11
-34.9430841827378
 21
-24.5640205187826
 31
0.0
  0
LINE
  5
   4EA
  8
0
  6
CONTINUOUS
 62
   130
 10
-51.1680596924401
 20
-23.5635528564453
 30
0.0
 11
-51.1680580902026
 21
-34.0639782714844
 31
0.0
  0
LINE
  5
   4EB
  8
0
  6
CONTINUOUS
 62
   130
 10
-34.6930840300785
 20
-23.5635528564453
 30
0.0
 11
-34.6930841827377
 21
-24.5640205950766
 31
0.0
  0
LINE
  5
   4EC
  8
0
  6
CONTINUOUS
 62
   130
 10
-35.8430680847777
 20
-23.5635528564453
 30
0.0
 11
-35.8430679321244
 21
-24.5639820098877
 31
0.0
  0
LINE
  5
   4ED
  8
0
  6
CONTINUOUS
 62
   130
 10
-35.5930771636255
 20
-23.5635528564453
 30
0.0
 11
-35.5930773162847
 21
-24.5640205950766
 31
0.0
  0
LINE
  5
   4EE
  8
0
  6
CONTINUOUS
 62
   130
 10
-36.4930702971725
 20
-23.5635528564453
 30
0.0
 11
-36.4930704498317
 21
-24.5640205950766
 31
0.0
  0
LINE
  5
   4EF
  8
0
  6
CONTINUOUS
 62
   130
 10
-36.7430612183247
 20
-23.5635528564453
 30
0.0
 11
-36.7430610656714
 21
-24.5639820098877
 31
0.0
  0
LINE
  5
   4F0
  8
0
  6
CONTINUOUS
 62
   130
 10
-37.3930634307195
 20
-23.5635528564453
 30
0.0
 11
-37.3930635833787
 21
-24.5640205950766
 31
0.0
  0
LINE
  5
   4F1
  8
0
  6
CONTINUOUS
 62
   130
 10
-37.6430543518717
 20
-23.5635528564453
 30
0.0
 11
-37.6430541992184
 21
-24.5639820098877
 31
0.0
  0
LINE
  5
   4F2
  8
0
  6
CONTINUOUS
 62
   130
 10
-38.2930565642665
 20
-23.5635528564453
 30
0.0
 11
-38.2930567169257
 21
-24.5640205950766
 31
0.0
  0
LINE
  5
   4F3
  8
0
  6
CONTINUOUS
 62
   130
 10
-38.5430474854187
 20
-23.5635528564453
 30
0.0
 11
-38.5430473327654
 21
-24.5639820098877
 31
0.0
  0
LINE
  5
   4F4
  8
0
  6
CONTINUOUS
 62
   130
 10
-39.1930496978135
 20
-23.5635528564453
 30
0.0
 11
-39.1930498504727
 21
-24.5640205950766
 31
0.0
  0
LINE
  5
   4F5
  8
0
  6
CONTINUOUS
 62
   130
 10
-39.4430406189657
 20
-23.5635528564453
 30
0.0
 11
-39.4430404663124
 21
-24.5639820098877
 31
0.0
  0
LINE
  5
   4F6
  8
0
  6
CONTINUOUS
 62
   130
 10
-40.0930428313605
 20
-23.5635528564453
 30
0.0
 11
-40.0930429840197
 21
-24.5640205950766
 31
0.0
  0
LINE
  5
   4F7
  8
0
  6
CONTINUOUS
 62
   130
 10
-40.3430337525127
 20
-23.5635528564453
 30
0.0
 11
-40.3430335998594
 21
-24.5639820098877
 31
0.0
  0
LINE
  5
   4F8
  8
0
  6
CONTINUOUS
 62
   130
 10
-40.9930359649075
 20
-23.5635528564453
 30
0.0
 11
-40.9930361175667
 21
-24.5640205950766
 31
0.0
  0
LINE
  5
   4F9
  8
0
  6
CONTINUOUS
 62
   130
 10
-41.2430268860597
 20
-23.5635528564453
 30
0.0
 11
-41.2430267334064
 21
-24.5639820098877
 31
0.0
  0
LINE
  5
   4FA
  8
0
  6
CONTINUOUS
 62
   130
 10
-41.8930290984545
 20
-23.5635528564453
 30
0.0
 11
-41.8930292511137
 21
-24.5640205950766
 31
0.0
  0
LINE
  5
   4FB
  8
0
  6
CONTINUOUS
 62
   130
 10
-42.1430200196067
 20
-23.5635528564453
 30
0.0
 11
-42.1430198669534
 21
-24.5639820098877
 31
0.0
  0
LINE
  5
   4FC
  8
0
  6
CONTINUOUS
 62
   130
 10
-42.7930222320015
 20
-23.5635528564453
 30
0.0
 11
-42.7930223846607
 21
-24.5640205950766
 31
0.0
  0
LINE
  5
   4FD
  8
0
  6
CONTINUOUS
 62
   130
 10
-43.0430131531537
 20
-23.5635528564453
 30
0.0
 11
-43.0430130005004
 21
-24.5639820098877
 31
0.0
  0
LINE
  5
   4FE
  8
0
  6
CONTINUOUS
 62
   130
 10
-43.6930153655485
 20
-23.5635528564453
 30
0.0
 11
-43.6930155182077
 21
-24.5640205950766
 31
0.0
  0
LINE
  5
   4FF
  8
0
  6
CONTINUOUS
 62
   130
 10
-43.9430062867007
 20
-23.5635528564453
 30
0.0
 11
-43.9430061340474
 21
-24.5639820098877
 31
0.0
  0
LINE
  5
   500
  8
0
  6
CONTINUOUS
 62
   130
 10
-44.5930084990955
 20
-23.5635528564453
 30
0.0
 11
-44.5930086517547
 21
-24.5640205950766
 31
0.0
  0
LINE
  5
   501
  8
0
  6
CONTINUOUS
 62
   130
 10
-44.8429994202477
 20
-23.5635528564453
 30
0.0
 11
-44.8429992675944
 21
-24.5639820098877
 31
0.0
  0
LINE
  5
   502
  8
0
  6
CONTINUOUS
 62
   130
 10
-45.4930016326425
 20
-23.5635528564453
 30
0.0
 11
-45.4930017853017
 21
-24.5640205950766
 31
0.0
  0
LINE
  5
   503
  8
0
  6
CONTINUOUS
 62
   130
 10
-45.7429925537947
 20
-23.5635528564453
 30
0.0
 11
-45.7429924011414
 21
-24.5639820098877
 31
0.0
  0
LINE
  5
   504
  8
0
  6
CONTINUOUS
 62
   130
 10
-46.3929947661895
 20
-23.5635528564453
 30
0.0
 11
-46.3929949188487
 21
-24.5640205950766
 31
0.0
  0
LINE
  5
   505
  8
0
  6
CONTINUOUS
 62
   130
 10
-46.6429856873417
 20
-23.5635528564453
 30
0.0
 11
-46.6429855346883
 21
-24.5639820098877
 31
0.0
  0
LINE
  5
   506
  8
0
  6
CONTINUOUS
 62
   130
 10
-47.2929878997365
 20
-23.5635528564453
 30
0.0
 11
-47.2929880523957
 21
-24.5640205950766
 31
0.0
  0
LINE
  5
   507
  8
0
  6
CONTINUOUS
 62
   130
 10
-47.5429788208887
 20
-23.5635528564453
 30
0.0
 11
-47.5429786682353
 21
-24.5639820098877
 31
0.0
  0
LINE
  5
   508
  8
0
  6
CONTINUOUS
 62
   130
 10
-48.1929810332835
 20
-23.5635528564453
 30
0.0
 11
-48.1929811859427
 21
-24.5640205950766
 31
0.0
  0
LINE
  5
   509
  8
0
  6
CONTINUOUS
 62
   130
 10
-48.4429719544357
 20
-23.5635528564453
 30
0.0
 11
-48.4429718017823
 21
-24.5639820098877
 31
0.0
  0
LINE
  5
   50A
  8
0
  6
CONTINUOUS
 62
   130
 10
-49.0929741668305
 20
-23.5635528564453
 30
0.0
 11
-49.0929743194897
 21
-24.5640205950766
 31
0.0
  0
LINE
  5
   50B
  8
0
  6
CONTINUOUS
 62
   130
 10
-49.3429650879827
 20
-23.5635528564453
 30
0.0
 11
-49.3429649353293
 21
-24.5639820098877
 31
0.0
  0
LINE
  5
   50C
  8
0
  6
CONTINUOUS
 62
   130
 10
-49.9929673003775
 20
-23.5635528564453
 30
0.0
 11
-49.9929674530367
 21
-24.5640205950766
 31
0.0
  0
LINE
  5
   50D
  8
0
  6
CONTINUOUS
 62
   130
 10
-50.2429582215297
 20
-23.5635528564453
 30
0.0
 11
-50.2429580688763
 21
-24.5639820098877
 31
0.0
  0
LINE
  5
   50E
  8
0
  6
CONTINUOUS
 62
   130
 10
-13.3430840300783
 20
-23.5635528564453
 30
0.0
 11
-13.3430841827385
 21
-24.564027011396
 31
0.0
  0
LINE
  5
   50F
  8
0
  6
CONTINUOUS
 62
   130
 10
-13.0930840300783
 20
-23.5635528564453
 30
0.0
 11
-13.0930841827385
 21
-24.564027011396
 31
0.0
  0
LINE
  5
   510
  8
0
  6
CONTINUOUS
 62
   130
 10
-12.4430840300783
 20
-23.5635528564453
 30
0.0
 11
-12.4430841827385
 21
-24.564027011396
 31
0.0
  0
LINE
  5
   511
  8
0
  6
CONTINUOUS
 62
   130
 10
-11.5430840300783
 20
-23.5635528564453
 30
0.0
 11
-11.5430841827385
 21
-24.564027011396
 31
0.0
  0
LINE
  5
   512
  8
0
  6
CONTINUOUS
 62
   130
 10
-12.1930840300783
 20
-23.5635528564453
 30
0.0
 11
-12.1930841827385
 21
-24.564027011396
 31
0.0
  0
LINE
  5
   513
  8
0
  6
CONTINUOUS
 62
   130
 10
-10.6430840300783
 20
-23.5635528564453
 30
0.0
 11
-10.6430841827385
 21
-24.564027011396
 31
0.0
  0
LINE
  5
   514
  8
0
  6
CONTINUOUS
 62
   130
 10
-11.2930840300783
 20
-23.5635528564453
 30
0.0
 11
-11.2930841827385
 21
-24.564027011396
 31
0.0
  0
LINE
  5
   515
  8
0
  6
CONTINUOUS
 62
   130
 10
-9.74308403007825
 20
-23.5635528564453
 30
0.0
 11
-9.74308418273845
 21
-24.564027011396
 31
0.0
  0
LINE
  5
   516
  8
0
  6
CONTINUOUS
 62
   130
 10
-10.3930840300783
 20
-23.5635528564453
 30
0.0
 11
-10.3930841827385
 21
-24.564027011396
 31
0.0
  0
LINE
  5
   517
  8
0
  6
CONTINUOUS
 62
   130
 10
-8.84308403007824
 20
-23.5635528564453
 30
0.0
 11
-8.84308418273844
 21
-24.564027011396
 31
0.0
  0
LINE
  5
   518
  8
0
  6
CONTINUOUS
 62
   130
 10
-9.49308403007824
 20
-23.5635528564453
 30
0.0
 11
-9.49308418273845
 21
-24.564027011396
 31
0.0
  0
LINE
  5
   519
  8
0
  6
CONTINUOUS
 62
   130
 10
-7.94308403007823
 20
-23.5635528564453
 30
0.0
 11
-7.94308418273844
 21
-24.564027011396
 31
0.0
  0
LINE
  5
   51A
  8
0
  6
CONTINUOUS
 62
   130
 10
-8.59308403007824
 20
-23.5635528564453
 30
0.0
 11
-8.59308418273845
 21
-24.564027011396
 31
0.0
  0
LINE
  5
   51B
  8
0
  6
CONTINUOUS
 62
   130
 10
-7.04308403007822
 20
-23.5635528564453
 30
0.0
 11
-7.04308418273843
 21
-24.564027011396
 31
0.0
  0
LINE
  5
   51C
  8
0
  6
CONTINUOUS
 62
   130
 10
-7.69308403007824
 20
-23.5635528564453
 30
0.0
 11
-7.69308418273845
 21
-24.564027011396
 31
0.0
  0
LINE
  5
   51D
  8
0
  6
CONTINUOUS
 62
   130
 10
-6.79308403007823
 20
-23.5635528564453
 30
0.0
 11
-6.79308418273844
 21
-24.564027011396
 31
0.0
  0
LINE
  5
   51E
  8
0
  6
CONTINUOUS
 62
   130
 10
-6.14308403007821
 20
-23.5635528564453
 30
0.0
 11
-6.14308418273842
 21
-24.564027011396
 31
0.0
  0
LINE
  5
   51F
  8
0
  6
CONTINUOUS
 62
   130
 10
-5.8930840300782
 20
-23.5635528564453
 30
0.0
 11
-5.89308418273841
 21
-24.564027011396
 31
0.0
  0
LINE
  5
   520
  8
0
  6
CONTINUOUS
 62
   130
 10
-5.24308403007821
 20
-23.5635528564453
 30
0.0
 11
-5.24308418273842
 21
-24.564027011396
 31
0.0
  0
LINE
  5
   521
  8
0
  6
CONTINUOUS
 62
   130
 10
-4.99308403007819
 20
-23.5635528564453
 30
0.0
 11
-4.9930841827384
 21
-24.564027011396
 31
0.0
  0
LINE
  5
   522
  8
0
  6
CONTINUOUS
 62
   130
 10
-4.3430840300782
 20
-23.5635528564453
 30
0.0
 11
-4.34308418273841
 21
-24.564027011396
 31
0.0
  0
LINE
  5
   523
  8
0
  6
CONTINUOUS
 62
   130
 10
-4.09308403007818
 20
-23.5635528564453
 30
0.0
 11
-4.09308418273838
 21
-24.564027011396
 31
0.0
  0
LINE
  5
   524
  8
0
  6
CONTINUOUS
 62
   130
 10
-3.4430840300782
 20
-23.5635528564453
 30
0.0
 11
-3.44308418273841
 21
-24.564027011396
 31
0.0
  0
LINE
  5
   525
  8
0
  6
CONTINUOUS
 62
   130
 10
-3.19308403007816
 20
-23.5635528564453
 30
0.0
 11
-3.19308418273837
 21
-24.564027011396
 31
0.0
  0
LINE
  5
   526
  8
0
  6
CONTINUOUS
 62
   130
 10
-2.54308403007817
 20
-23.5635528564453
 30
0.0
 11
-2.54308418273838
 21
-24.564027011396
 31
0.0
  0
LINE
  5
   527
  8
0
  6
CONTINUOUS
 62
   130
 10
-2.29308403007815
 20
-23.5635528564453
 30
0.0
 11
-2.29308418273836
 21
-24.564027011396
 31
0.0
  0
LINE
  5
   528
  8
0
  6
CONTINUOUS
 62
   130
 10
-1.64308403007815
 20
-23.5635528564453
 30
0.0
 11
-1.64308418273836
 21
-24.564027011396
 31
0.0
  0
LINE
  5
   529
  8
0
  6
CONTINUOUS
 62
   130
 10
-1.39308403007814
 20
-23.5635528564453
 30
0.0
 11
-1.39308418273835
 21
-24.564027011396
 31
0.0
  0
LINE
  5
   52A
  8
0
  6
CONTINUOUS
 62
   130
 10
-0.743084030078144
 20
-23.5635528564453
 30
0.0
 11
-0.74308418273835
 21
-24.564027011396
 31
0.0
  0
LINE
  5
   52B
  8
0
  6
CONTINUOUS
 62
   130
 10
-0.493084030078133
 20
-23.5635528564453
 30
0.0
 11
-0.493084182738341
 21
-24.564027011396
 31
0.0
  0
LINE
  5
   52C
  8
0
  6
CONTINUOUS
 62
   130
 10
0.156915969921855
 20
-23.5635528564453
 30
0.0
 11
0.156915817261645
 21
-24.564027011396
 31
0.0
  0
LINE
  5
   52D
  8
0
  6
CONTINUOUS
 62
   130
 10
0.406915969921878
 20
-23.5635528564453
 30
0.0
 11
0.406915817261668
 21
-24.564027011396
 31
0.0
  0
LINE
  5
   52E
  8
0
  6
CONTINUOUS
 62
   130
 10
1.05691596992186
 20
-23.5635528564453
 30
0.0
 11
1.05691581726165
 21
-24.564027011396
 31
0.0
  0
LINE
  5
   52F
  8
0
  6
CONTINUOUS
 62
   130
 10
1.30691596992189
 20
-23.5635528564453
 30
0.0
 11
1.30691581726168
 21
-24.564027011396
 31
0.0
  0
LINE
  5
   530
  8
0
  6
CONTINUOUS
 62
   130
 10
1.95691596992187
 20
-23.5635528564453
 30
0.0
 11
1.95691581726166
 21
-24.564027011396
 31
0.0
  0
LINE
  5
   531
  8
0
  6
CONTINUOUS
 62
   130
 10
2.2069159699219
 20
-23.5635528564453
 30
0.0
 11
2.20691581726169
 21
-24.564027011396
 31
0.0
  0
LINE
  5
   532
  8
0
  6
CONTINUOUS
 62
   130
 10
2.85691596992189
 20
-23.5635528564453
 30
0.0
 11
2.85691581726168
 21
-24.564027011396
 31
0.0
  0
LINE
  5
   533
  8
0
  6
CONTINUOUS
 62
   130
 10
3.1069159699219
 20
-23.5635528564453
 30
0.0
 11
3.1069158172617
 21
-24.564027011396
 31
0.0
  0
LINE
  5
   534
  8
0
  6
CONTINUOUS
 62
   130
 10
3.7569159699219
 20
-23.5635528564453
 30
0.0
 11
3.75691581726169
 21
-24.564027011396
 31
0.0
  0
LINE
  5
   535
  8
0
  6
CONTINUOUS
 62
   130
 10
4.00691596992191
 20
-23.5635528564453
 30
0.0
 11
4.0069158172617
 21
-24.564027011396
 31
0.0
  0
LINE
  5
   536
  8
0
  6
CONTINUOUS
 62
   130
 10
4.65691596992191
 20
-23.5635528564453
 30
0.0
 11
4.6569158172617
 21
-24.564027011396
 31
0.0
  0
LINE
  5
   537
  8
0
  6
CONTINUOUS
 62
   130
 10
4.90691596992192
 20
-23.5635528564453
 30
0.0
 11
4.90691581726171
 21
-24.564027011396
 31
0.0
  0
LINE
  5
   538
  8
0
  6
CONTINUOUS
 62
   130
 10
5.55691596992191
 20
-23.5635528564453
 30
0.0
 11
5.55691581726171
 21
-24.564027011396
 31
0.0
  0
LINE
  5
   539
  8
0
  6
CONTINUOUS
 62
   130
 10
5.80691596992193
 20
-23.5635528564453
 30
0.0
 11
5.80691581726172
 21
-24.564027011396
 31
0.0
  0
LINE
  5
   53A
  8
0
  6
CONTINUOUS
 62
   130
 10
6.45691596992192
 20
-23.5635528564453
 30
0.0
 11
6.45691581726171
 21
-24.564027011396
 31
0.0
  0
LINE
  5
   53B
  8
0
  6
CONTINUOUS
 62
   130
 10
6.70691596992194
 20
-23.5635528564453
 30
0.0
 11
6.70691581726173
 21
-24.564027011396
 31
0.0
  0
LINE
  5
   53C
  8
0
  6
CONTINUOUS
 62
   130
 10
7.35691596992193
 20
-23.5635528564453
 30
0.0
 11
7.35691581726172
 21
-24.564027011396
 31
0.0
  0
LINE
  5
   53D
  8
0
  6
CONTINUOUS
 62
   130
 10
7.60691596992195
 20
-23.5635528564453
 30
0.0
 11
7.60691581726174
 21
-24.564027011396
 31
0.0
  0
LINE
  5
   53E
  8
0
  6
CONTINUOUS
 62
   130
 10
-13.3430840300783
 20
-23.5635528564453
 30
0.0
 11
-13.3430841827385
 21
-24.5640271105781
 31
0.0
  0
LINE
  5
   53F
  8
0
  6
CONTINUOUS
 62
   130
 10
8.83190284734643
 20
-23.5635528564453
 30
0.0
 11
8.831901245109
 21
-34.0639782714844
 31
0.0
  0
INSERT
  5
   540
  8
0
  6
CONTINUOUS
 62
     3
  2
*UDIM13
 10
0.0
 20
0.0
 30
0.0
  0
INSERT
  5
   541
  8
0
  6
CONTINUOUS
 62
     3
  2
*UDIM14
 10
0.0
 20
0.0
 30
0.0
  0
INSERT
  5
   542
  8
0
  6
CONTINUOUS
 62
     3
  2
*UDIM15
 10
0.0
 20
0.0
 30
0.0
  0
INSERT
  5
   543
  8
0
  6
CONTINUOUS
 62
     3
  2
*UDIM16
 10
0.0
 20
0.0
 30
0.0
  0
INSERT
  5
   544
  8
0
  6
CONTINUOUS
 62
     3
  2
*UDIM17
 10
0.0
 20
0.0
 30
0.0
  0
INSERT
  5
   545
  8
0
  6
CONTINUOUS
 62
     3
  2
*UDIM18
 10
0.0
 20
0.0
 30
0.0
  0
TEXT
  5
   546
  8
0
  6
CONTINUOUS
 62
     2
 10
-59.616796765825
 20
-0.926856160555452
 30
0.0
 40
3.00000002980232
  1
X
 50
359.999999844103
 41
0.983333351877
 72
     2
 11
-57.4167966842651
 21
0.573143848370761
 31
0.0
 73
     2
  0
TEXT
  5
   547
  8
0
  6
CONTINUOUS
 62
     2
 10
-13.5327456336229
 20
53.5258685346502
 30
0.0
 40
3.00000002980232
  1
Y
 50
359.999999844103
 41
0.983333351877
 72
     2
 11
-11.332745552063
 21
55.0258685435765
 31
0.0
 73
     2
  0
TEXT
  5
   548
  8
0
  6
CONTINUOUS
 62
     2
 10
-13.8294909339158
 20
-46.1804836992365
 30
0.0
 40
3.00000002980232
  1
Y
 50
359.999999844103
 41
0.983333351877
 72
     2
 11
-11.629490852356
 21
-44.6804836903103
 31
0.0
 73
     2
  0
LINE
  5
   549
  8
0
  6
DASHDOT
 62
     2
 10
1.33192504884203
 20
-18.0639293789848
 30
0.0
 11
1.33192504884203
 21
-28.0639293789848
 31
0.0
  0
LINE
  5
   54A
  8
0
  6
DASHDOT
 62
     2
 10
-3.66807495115797
 20
-23.0639293789848
 30
0.0
 11
6.33192504884203
 21
-23.0639293789848
 31
0.0
  0
LINE
  5
   54B
  8
0
  6
CONTINUOUS
 62
     2
 10
0.655524876084932
 20
-23.5635528564453
 30
0.0
 11
0.541975941173593
 21
-23.6771017913566
 31
0.0
  0
LINE
  5
   54C
  8
0
  6
CONTINUOUS
 62
     2
 10
1.00907826667821
 20
-23.5635528564453
 30
0.0
 11
0.718752636470246
 21
-23.8538784866533
 31
0.0
  0
ARC
  5
   54D
  8
0
  6
CONTINUOUS
 62
     2
 10
1.33192504884203
 20
-23.0639293789848
 30
0.0
 40
1.0
 50
569.975092438295
 51
690.024907249912
  0
LINE
  5
   54E
  8
0
  6
DASHDOT
 62
     2
 10
-43.668074951158
 20
40.9360706210152
 30
0.0
 11
-43.668074951158
 21
30.9360706210152
 31
0.0
  0
LINE
  5
   54F
  8
0
  6
DASHDOT
 62
     2
 10
-48.668074951158
 20
35.9360706210152
 30
0.0
 11
-38.668074951158
 21
35.9360706210152
 31
0.0
  0
LINE
  5
   550
  8
0
  6
CONTINUOUS
 62
     2
 10
-43.0549025387862
 20
36.7260197286836
 30
0.0
 11
-44.4580240588264
 21
35.3228982086434
 31
0.0
  0
LINE
  5
   551
  8
0
  6
CONTINUOUS
 62
     2
 10
-42.8781258434895
 20
36.5492430333869
 30
0.0
 11
-44.2812473635298
 21
35.1461215133467
 31
0.0
  0
CIRCLE
  5
   552
  8
0
  6
CONTINUOUS
 62
     2
 10
-43.668074951158
 20
35.9360706210152
 30
0.0
 40
1.0
  0
ARC
  5
   553
  8
0
  6
CONTINUOUS
 62
     2
 10
-43.668074951158
 20
-23.0639293789848
 30
0.0
 40
1.0
 50
569.975092438291
 51
690.024907249915
  0
LINE
  5
   554
  8
0
  6
CONTINUOUS
 62
     2
 10
-44.3444751239151
 20
-23.5635528564453
 30
0.0
 11
-44.4580240588264
 21
-23.6771017913566
 31
0.0
  0
LINE
  5
   555
  8
0
  6
CONTINUOUS
 62
     2
 10
-43.9909217333218
 20
-23.5635528564453
 30
0.0
 11
-44.2812473635298
 21
-23.8538784866533
 31
0.0
  0
LINE
  5
   556
  8
0
  6
DASHDOT
 62
   130
 10
180.389961018195
 20
0.436033248901367
 30
0.0
 11
274.713447878403
 21
0.436033248901367
 31
0.0
  0
LINE
  5
   557
  8
0
  6
DASHDOT
 62
   130
 10
236.934310913086
 20
23.0472340863198
 30
0.0
 11
236.934310913086
 21
-30.5216841935968
 31
0.0
  0
CIRCLE
  5
   558
  8
0
  6
CONTINUOUS
 62
   130
 10
265.704312056303
 20
19.6360340118408
 30
0.0
 40
1.20000004768372
  0
CIRCLE
  5
   559
  8
0
  6
CONTINUOUS
 62
   130
 10
190.40430906415
 20
19.6360340118408
 30
0.0
 40
1.20000004768372
  0
CIRCLE
  5
   55A
  8
0
  6
CONTINUOUS
 62
   130
 10
190.40430906415
 20
-18.7639675140381
 30
0.0
 40
1.20000004768372
  0
CIRCLE
  5
   55B
  8
0
  6
CONTINUOUS
 62
   130
 10
265.704312056303
 20
-18.7639675140381
 30
0.0
 40
1.20000004768372
  0
LINE
  5
   55C
  8
0
  6
CONTINUOUS
 62
   130
 10
266.334312081337
 20
15.4360338449478
 30
0.0
 11
266.334312081337
 21
-14.5639673471451
 31
0.0
  0
LINE
  5
   55D
  8
0
  6
CONTINUOUS
 62
   130
 10
189.534309029579
 20
15.4360338449478
 30
0.0
 11
189.534309029579
 21
-14.5639673471451
 31
0.0
  0
LINE
  5
   55E
  8
0
  6
CONTINUOUS
 62
   130
 10
190.434309065342
 20
16.3360338807106
 30
0.0
 11
265.434312045574
 21
16.3360338807106
 31
0.0
  0
LINE
  5
   55F
  8
0
  6
CONTINUOUS
 62
   130
 10
190.434309065342
 20
-15.4639673829079
 30
0.0
 11
265.434312045574
 21
-15.4639673829079
 31
0.0
  0
ARC
  5
   560
  8
0
  6
CONTINUOUS
 62
   130
 10
265.434312045574
 20
15.4360338449478
 30
0.0
 40
0.900000035762787
 50
359.999999844103
 51
449.999999844103
  0
ARC
  5
   561
  8
0
  6
CONTINUOUS
 62
   130
 10
265.434312045574
 20
-14.5639673471451
 30
0.0
 40
0.900000035762787
 50
269.999999844103
 51
359.999999844103
  0
ARC
  5
   562
  8
0
  6
CONTINUOUS
 62
   130
 10
190.434309065342
 20
-14.5639673471451
 30
0.0
 40
0.900000035762787
 50
539.999999844103
 51
629.999999844103
  0
ARC
  5
   563
  8
0
  6
CONTINUOUS
 62
   130
 10
190.434309065342
 20
15.4360338449478
 30
0.0
 40
0.900000035762787
 50
449.999999844103
 51
539.999999844103
  0
LINE
  5
   564
  8
0
  6
DASHDOT
 62
     2
 10
265.704312056303
 20
25.0360342264175
 30
0.0
 11
265.704312056303
 21
14.2360337972641
 31
0.0
  0
LINE
  5
   565
  8
0
  6
DASHDOT
 62
     2
 10
260.304311841726
 20
19.6360340118408
 30
0.0
 11
271.10431227088
 21
19.6360340118408
 31
0.0
  0
LINE
  5
   566
  8
0
  6
DASHDOT
 62
     2
 10
190.40430906415
 20
25.0360342264175
 30
0.0
 11
190.40430906415
 21
14.2360337972641
 31
0.0
  0
LINE
  5
   567
  8
0
  6
DASHDOT
 62
     2
 10
185.004308849573
 20
19.6360340118408
 30
0.0
 11
195.804309278727
 21
19.6360340118408
 31
0.0
  0
LINE
  5
   568
  8
0
  6
DASHDOT
 62
     2
 10
190.40430906415
 20
-13.3639672994614
 30
0.0
 11
190.40430906415
 21
-24.1639677286148
 31
0.0
  0
LINE
  5
   569
  8
0
  6
DASHDOT
 62
     2
 10
185.004308849573
 20
-18.7639675140381
 30
0.0
 11
195.804309278727
 21
-18.7639675140381
 31
0.0
  0
LINE
  5
   56A
  8
0
  6
DASHDOT
 62
     2
 10
265.704312056303
 20
-13.3639672994614
 30
0.0
 11
265.704312056303
 21
-24.1639677286148
 31
0.0
  0
LINE
  5
   56B
  8
0
  6
DASHDOT
 62
     2
 10
260.304311841726
 20
-18.7639675140381
 30
0.0
 11
271.10431227088
 21
-18.7639675140381
 31
0.0
  0
TEXT
  5
   56C
  8
0
  6
CONTINUOUS
 62
     2
 10
236.040797327895
 20
33.6526587170987
 30
0.0
 40
2.99999994039535
  1
Y
 50
359.999999844103
 41
0.983333333333333
 72
     1
 11
237.14079730604
 21
33.6526587141112
 31
0.0
  0
TEXT
  5
   56D
  8
0
  6
CONTINUOUS
 62
     2
 10
235.866299903753
 20
-34.8981861493626
 30
0.0
 40
2.99999994039535
  1
Y
 50
359.999999844103
 41
0.983333333333333
 72
     1
 11
236.966299890046
 21
-31.8981862119547
 31
0.0
 73
     3
  0
LINE
  5
   56E
  8
0
  6
CONTINUOUS
 62
   130
 10
184.865439163221
 20
23.7681012405061
 30
0.0
 11
269.976588241601
 21
23.7681012405061
 31
0.0
  0
LINE
  5
   56F
  8
0
  6
CONTINUOUS
 62
   130
 10
184.865439163221
 20
-21.8743534965658
 30
0.0
 11
269.976588241601
 21
-21.8743534965658
 31
0.0
  0
LINE
  5
   570
  8
0
  6
CONTINUOUS
 62
   130
 10
269.976588241601
 20
23.7681012405061
 30
0.0
 11
269.976588241601
 21
-21.8743534965658
 31
0.0
  0
LINE
  5
   571
  8
0
  6
CONTINUOUS
 62
   130
 10
184.865439163221
 20
23.7681012405061
 30
0.0
 11
184.865439163221
 21
-21.8743534965658
 31
0.0
  0
INSERT
  5
   572
  8
0
  6
CONTINUOUS
 62
     3
  2
*UDIM19
 10
0.0
 20
0.0
 30
0.0
  0
INSERT
  5
   573
  8
0
  6
CONTINUOUS
 62
     3
  2
*UDIM20
 10
0.0
 20
0.0
 30
0.0
  0
INSERT
  5
   574
  8
0
  6
CONTINUOUS
 62
     3
  2
*UDIM21
 10
0.0
 20
0.0
 30
0.0
  0
INSERT
  5
   575
  8
0
  6
CONTINUOUS
 62
     3
  2
*UDIM22
 10
0.0
 20
0.0
 30
0.0
  0
INSERT
  5
   576
  8
0
  6
CONTINUOUS
 62
     3
  2
*UDIM23
 10
0.0
 20
0.0
 30
0.0
  0
INSERT
  5
   577
  8
0
  6
CONTINUOUS
 62
     3
  2
*UDIM24
 10
0.0
 20
0.0
 30
0.0
  0
INSERT
  5
   578
  8
0
  6
CONTINUOUS
 62
     3
  2
*UDIM25
 10
0.0
 20
0.0
 30
0.0
  0
TEXT
  5
   579
  8
0
  6
CONTINUOUS
 62
     2
 10
275.99011703544
 20
-1.00577696816779
 30
0.0
 40
2.99999994039535
  1
X
 50
359.999999844103
 41
0.983333333333333
 72
     2
 11
278.190116995804
 21
0.494222996054932
 31
0.0
 73
     2
  0
TEXT
  5
   57A
  8
0
  6
CONTINUOUS
 62
     2
 10
179.399236427244
 20
-1.45925526142687
 30
0.0
 40
2.99999994039535
  1
X
 50
359.999999844103
 41
0.983333333333333
 72
     2
 11
181.599236387608
 21
4.07447027958566E-2
 31
0.0
 73
     2
  0
INSERT
  5
   57B
  8
0
  6
CONTINUOUS
 62
     7
  2
*UDIM26
 10
0.0
 20
0.0
 30
0.0
  0
LINE
  5
   57C
  8
0
  6
CONTINUOUS
 62
   130
 10
91.1570053100586
 20
-34.5639781951904
 30
0.0
 11
94.6570053100586
 21
-34.5639781951904
 31
0.0
  0
LINE
  5
   57D
  8
0
  6
CONTINUOUS
 62
   130
 10
82.4070053100586
 20
43.6293068048096
 30
0.0
 11
82.4070053100586
 21
45.4360218048095
 31
0.0
  0
LINE
  5
   57E
  8
0
  6
CONTINUOUS
 62
   130
 10
83.4070053100586
 20
43.6293068048096
 30
0.0
 11
83.4070053100586
 21
45.4360218048095
 31
0.0
  0
LINE
  5
   57F
  8
0
  6
CONTINUOUS
 62
   130
 10
82.4070053100586
 20
39.4360218048095
 30
0.0
 11
82.4070053100586
 21
41.2427368048096
 31
0.0
  0
LINE
  5
   580
  8
0
  6
CONTINUOUS
 62
   130
 10
83.4070053100586
 20
39.4360218048095
 30
0.0
 11
83.4070053100586
 21
41.2427368048096
 31
0.0
  0
LINE
  5
   581
  8
0
  6
CONTINUOUS
 62
   130
 10
81.1570053100586
 20
47.4360218048096
 30
0.0
 11
94.6570053100586
 21
47.4360218048096
 31
0.0
  0
LINE
  5
   582
  8
0
  6
CONTINUOUS
 62
     7
 10
88.6570053100586
 20
40.9360218048096
 30
0.0
 11
88.6570053100586
 21
43.9360218048096
 31
0.0
  0
LINE
  5
   583
  8
0
  6
CONTINUOUS
 62
     7
 10
91.4070053100586
 20
39.6651362707668
 30
0.0
 11
91.4070053100586
 21
45.2069073388523
 31
0.0
  0
LINE
  5
   584
  8
0
  6
CONTINUOUS
 62
     7
 10
81.6570053100586
 20
40.9360218048096
 30
0.0
 11
82.4070053100586
 21
40.9360218048096
 31
0.0
  0
LINE
  5
   585
  8
0
  6
CONTINUOUS
 62
     7
 10
81.6570053100586
 20
43.9360218048096
 30
0.0
 11
82.4070053100586
 21
43.9360218048096
 31
0.0
  0
ARC
  5
   586
  8
0
  6
CONTINUOUS
 62
     7
 10
86.2070053100586
 20
42.4360218048096
 30
0.0
 40
6.0
 50
332.615940274844
 51
358.08978682829
  0
LINE
  5
   587
  8
0
  6
CONTINUOUS
 62
     7
 10
89.9070053100586
 20
39.5339021066284
 30
0.0
 11
91.5346656085789
 21
39.6763051991468
 31
0.0
  0
LINE
  5
   588
  8
0
  6
CONTINUOUS
 62
     7
 10
89.9070053100586
 20
45.3381415029907
 30
0.0
 11
91.5346656085789
 21
45.1957384104723
 31
0.0
  0
LINE
  5
   589
  8
0
  6
CONTINUOUS
 62
     7
 10
89.9070053100586
 20
39.5339021066284
 30
0.0
 11
89.9070053100586
 21
45.3381415029907
 31
0.0
  0
LINE
  5
   58A
  8
0
  6
CONTINUOUS
 62
     7
 10
81.4070053100586
 20
41.2427368048096
 30
0.0
 11
88.6570053100586
 21
41.2427368048096
 31
0.0
  0
LINE
  5
   58B
  8
0
  6
CONTINUOUS
 62
     2
 10
81.4070053100586
 20
43.6293068048096
 30
0.0
 11
88.6570053100586
 21
43.6293068048096
 31
0.0
  0
LINE
  5
   58C
  8
0
  6
CONTINUOUS
 62
     7
 10
91.8070053100586
 20
42.2360218048096
 30
0.0
 11
91.8070053100586
 21
42.6360218048096
 31
0.0
  0
LINE
  5
   58D
  8
0
  6
CONTINUOUS
 62
     7
 10
91.8070053100586
 20
42.2360218048096
 30
0.0
 11
92.2036710502846
 21
42.2360218048096
 31
0.0
  0
LINE
  5
   58E
  8
0
  6
CONTINUOUS
 62
     7
 10
91.8070053100586
 20
42.6360218048096
 30
0.0
 11
92.2036710502846
 21
42.6360218048096
 31
0.0
  0
ARC
  5
   58F
  8
0
  6
CONTINUOUS
 62
     7
 10
86.2070053100586
 20
42.4360218048096
 30
0.0
 40
6.0
 50
1.9102131717099
 51
27.3840597251555
  0
LINE
  5
   590
  8
0
  6
CONTINUOUS
 62
   130
 10
92.6570053100586
 20
44.1860218048096
 30
0.0
 11
95.1570053100586
 21
44.1860218048096
 31
0.0
  0
LINE
  5
   591
  8
0
  6
CONTINUOUS
 62
   130
 10
95.1570053100586
 20
38.4360218048096
 30
0.0
 11
95.1570053100586
 21
46.9360218048096
 31
0.0
  0
LINE
  5
   592
  8
0
  6
CONTINUOUS
 62
   130
 10
92.1570045789083
 20
37.9360218048096
 30
0.0
 11
94.6570053100586
 21
37.9360218048096
 31
0.0
  0
LINE
  5
   593
  8
0
  6
CONTINUOUS
 62
   130
 10
92.6570053100586
 20
39.9360218048096
 30
0.0
 11
92.6570053100586
 21
44.9360218048096
 31
0.0
  0
LINE
  5
   594
  8
0
  6
CONTINUOUS
 62
   130
 10
92.6570053100586
 20
40.6860218048096
 30
0.0
 11
95.1570053100586
 21
40.6860218048096
 31
0.0
  0
LINE
  5
   595
  8
0
  6
CONTINUOUS
 62
   130
 10
92.6570053100586
 20
44.9360218048096
 30
0.0
 11
94.1570053100586
 21
44.9360218048096
 31
0.0
  0
LINE
  5
   596
  8
0
  6
CONTINUOUS
 62
   130
 10
92.6570053100586
 20
39.9360218048096
 30
0.0
 11
94.1570053100586
 21
39.9360218048096
 31
0.0
  0
LINE
  5
   597
  8
0
  6
CONTINUOUS
 62
   130
 10
94.1570053100586
 20
38.9360218048096
 30
0.0
 11
94.1570053100586
 21
39.9360218048096
 31
0.0
  0
LINE
  5
   598
  8
0
  6
CONTINUOUS
 62
   130
 10
91.1570053100586
 20
46.4360218048096
 30
0.0
 11
94.1570053100586
 21
46.4360218048096
 31
0.0
  0
LINE
  5
   599
  8
0
  6
CONTINUOUS
 62
   130
 10
91.1570053100586
 20
38.9360218048096
 30
0.0
 11
94.1570053100586
 21
38.9360218048096
 31
0.0
  0
LINE
  5
   59A
  8
0
  6
CONTINUOUS
 62
   130
 10
94.1570053100586
 20
44.9360218048096
 30
0.0
 11
94.1570053100586
 21
46.4360218048096
 31
0.0
  0
LINE
  5
   59B
  8
0
  6
CONTINUOUS
 62
   130
 10
95.1570053100586
 20
-34.0639781951904
 30
0.0
 11
95.1570053100586
 21
-25.5639781951904
 31
0.0
  0
LINE
  5
   59C
  8
0
  6
CONTINUOUS
 62
   130
 10
92.1570045789083
 20
-25.0639781951904
 30
0.0
 11
94.6570053100586
 21
-25.0639781951904
 31
0.0
  0
LINE
  5
   59D
  8
0
  6
CONTINUOUS
 62
     7
 10
81.6570053100586
 20
40.9360218048096
 30
0.0
 11
81.6570053100586
 21
43.9360218048096
 31
0.0
  0
LINE
  5
   59E
  8
0
  6
CONTINUOUS
 62
     7
 10
81.4070053100586
 20
43.6860218048096
 30
0.0
 11
81.6570053100586
 21
43.9360218048096
 31
0.0
  0
LINE
  5
   59F
  8
0
  6
CONTINUOUS
 62
     7
 10
81.4070053100586
 20
41.1860218048096
 30
0.0
 11
81.6570053100586
 21
40.9360218048096
 31
0.0
  0
ARC
  5
   5A0
  8
0
  6
CONTINUOUS
 62
   130
 10
94.6570053100586
 20
46.9360218048096
 30
0.0
 40
0.5
 50
0.0
 51
90.0
  0
ARC
  5
   5A1
  8
0
  6
CONTINUOUS
 62
   130
 10
94.6570053100586
 20
38.4360218048096
 30
0.0
 40
0.5
 50
270.0
 51
360.0
  0
ARC
  5
   5A2
  8
0
  6
CONTINUOUS
 62
   130
 10
94.6570053100586
 20
-25.5639781951904
 30
0.0
 40
0.5
 50
0.0
 51
90.0
  0
ARC
  5
   5A3
  8
0
  6
CONTINUOUS
 62
   130
 10
94.6570053100586
 20
-34.0639781951904
 30
0.0
 40
0.5
 50
270.0
 51
360.0
  0
INSERT
  5
   5A4
  8
0
  6
CONTINUOUS
 62
     2
  2
*HATCH1
 10
105.106994628906
 20
-3.71391868591309
 30
0.0
 41
0.5
 42
0.5
 43
0.5
  0
INSERT
  5
   5A5
  8
0
  6
CONTINUOUS
 62
     2
  2
*HATCH2
 10
105.106994628906
 20
-3.71391868591309
 30
0.0
 41
0.5
 42
0.5
 43
0.5
  0
LINE
  5
   5A6
  8
0
  6
CONTINUOUS
 62
     2
 10
82.4070053100586
 20
43.6293068048096
 30
0.0
 11
83.4070053100586
 21
43.6293068048096
 31
0.0
  0
LINE
  5
   5A7
  8
0
  6
CONTINUOUS
 62
     2
 10
82.4070053100586
 20
41.2427368048096
 30
0.0
 11
83.4070053100586
 21
41.2427368048096
 31
0.0
  0
LINE
  5
   5A8
  8
0
  6
CONTINUOUS
 62
     7
 10
83.4070053100586
 20
43.9360218048096
 30
0.0
 11
89.9070053100586
 21
43.9360218048096
 31
0.0
  0
LINE
  5
   5A9
  8
0
  6
CONTINUOUS
 62
     2
 10
82.4070053100586
 20
43.9360218048096
 30
0.0
 11
83.4070053100586
 21
43.9360218048096
 31
0.0
  0
LINE
  5
   5AA
  8
0
  6
CONTINUOUS
 62
     7
 10
82.4070053100586
 20
40.9360218048096
 30
0.0
 11
83.4070053100586
 21
40.9360218048096
 31
0.0
  0
LINE
  5
   5AB
  8
0
  6
CONTINUOUS
 62
     7
 10
83.4070053100586
 20
40.9360218048096
 30
0.0
 11
89.9070053100586
 21
40.9360218048096
 31
0.0
  0
INSERT
  5
   5AC
  8
0
  6
CONTINUOUS
 62
     2
  2
*HATCH3
 10
105.106994628906
 20
-3.71391868591309
 30
0.0
 41
0.5
 42
0.5
 43
0.5
  0
INSERT
  5
   5AD
  8
0
  6
CONTINUOUS
 62
     2
  2
*HATCH4
 10
105.106994628906
 20
-3.71391868591309
 30
0.0
 41
0.5
 42
0.5
 43
0.5
  0
LINE
  5
   5AE
  8
0
  6
CONTINUOUS
 62
   130
 10
71.1570053100586
 20
-34.5639781951904
 30
0.0
 11
94.6570053100586
 21
-34.5639781951904
 31
0.0
  0
LINE
  5
   5AF
  8
0
  6
CONTINUOUS
 62
   130
 10
71.157012462616
 20
-4.45777581233282
 30
0.0
 11
71.157012462616
 21
0.629355430603027
 31
0.0
  0
LINE
  5
   5B0
  8
0
  6
CONTINUOUS
 62
   130
 10
91.1570053100586
 20
-34.5639781951904
 30
0.0
 11
91.1570053100586
 21
-32.5639751434326
 31
0.0
  0
LINE
  5
   5B1
  8
0
  6
CONTINUOUS
 62
   130
 10
71.157012462616
 20
0.629355430603028
 30
0.0
 11
71.407012462616
 21
0.629355430603028
 31
0.0
  0
LINE
  5
   5B2
  8
0
  6
CONTINUOUS
 62
   130
 10
71.157012462616
 20
-5.37064170837402
 30
0.0
 11
71.407012462616
 21
-5.37064170837402
 31
0.0
  0
LINE
  5
   5B3
  8
0
  6
CONTINUOUS
 62
   130
 10
71.157012462616
 20
13.8063569011139
 30
0.0
 11
71.157012462616
 21
18.2426853179932
 31
0.0
  0
LINE
  5
   5B4
  8
0
  6
CONTINUOUS
 62
   130
 10
91.1570053100586
 20
33.8703547267192
 30
0.0
 11
91.1570053100586
 21
39.6432639100771
 31
0.0
  0
LINE
  5
   5B5
  8
0
  6
CONTINUOUS
 62
   130
 10
71.157012462616
 20
12.2426881790161
 30
0.0
 11
71.407012462616
 21
12.2426881790161
 31
0.0
  0
LINE
  5
   5B6
  8
0
  6
CONTINUOUS
 62
   130
 10
71.157012462616
 20
18.2426853179932
 30
0.0
 11
71.407012462616
 21
18.2426853179932
 31
0.0
  0
LINE
  5
   5B7
  8
0
  6
CONTINUOUS
 62
   130
 10
66.6570124626158
 20
37.436014175415
 30
0.0
 11
71.1570053100586
 21
37.436014175415
 31
0.0
  0
LINE
  5
   5B8
  8
0
  6
CONTINUOUS
 62
   130
 10
66.6570124626158
 20
-24.5639705657959
 30
0.0
 11
71.1570053100586
 21
-24.5639705657959
 31
0.0
  0
LINE
  5
   5B9
  8
0
  6
CONTINUOUS
 62
   130
 10
71.1570053100586
 20
47.4360218048096
 30
0.0
 11
72.6570053100586
 21
47.4360218048096
 31
0.0
  0
LINE
  5
   5BA
  8
0
  6
DASHDOT
 62
   130
 10
61.0429916828166
 20
15.2426867485046
 30
0.0
 11
74.5310838807177
 21
15.2426867485046
 31
0.0
  0
LINE
  5
   5BB
  8
0
  6
DASHDOT
 62
   130
 10
62.4636719397373
 20
-2.3706431388855
 30
0.0
 11
75.0829819549026
 21
-2.3706431388855
 31
0.0
  0
LINE
  5
   5BC
  8
0
  6
CONTINUOUS
 62
   130
 10
67.1570124626158
 20
26.9598836718071
 30
0.0
 11
67.1570124626158
 21
37.4360139211019
 31
0.0
  0
LINE
  5
   5BD
  8
0
  6
CONTINUOUS
 62
   130
 10
67.1570124626158
 20
-15.5639705657959
 30
0.0
 11
67.1570124626158
 21
-13.5639703114828
 31
0.0
  0
LINE
  5
   5BE
  8
0
  6
CONTINUOUS
 62
   130
 10
91.1570053100586
 20
-26.067250164668
 30
0.0
 11
91.1570053100586
 21
35.486014175415
 31
0.0
  0
LINE
  5
   5BF
  8
0
  6
CONTINUOUS
 62
   130
 10
66.6570124626158
 20
26.436014175415
 30
0.0
 11
71.1570053100586
 21
26.436014175415
 31
0.0
  0
LINE
  5
   5C0
  8
0
  6
CONTINUOUS
 62
   130
 10
66.6570124626158
 20
-13.5639703114828
 30
0.0
 11
71.1570053100586
 21
-13.5639703114828
 31
0.0
  0
LINE
  5
   5C1
  8
0
  6
DASHDOT
 62
   130
 10
63.7400757611422
 20
42.4360218048096
 30
0.0
 11
98.0346467564398
 21
42.4360218048096
 31
0.0
  0
LINE
  5
   5C2
  8
0
  6
DASHDOT
 62
   130
 10
63.3890532608235
 20
-29.5639781951904
 30
0.0
 11
96.4642619653854
 21
-29.5639781951904
 31
0.0
  0
LINE
  5
   5C3
  8
0
  6
CONTINUOUS
 62
   130
 10
66.1570124626158
 20
45.4360218048096
 30
0.0
 11
70.4070053100586
 21
45.4360218048096
 31
0.0
  0
LINE
  5
   5C4
  8
0
  6
CONTINUOUS
 62
   130
 10
66.1570124626158
 20
39.4360218048096
 30
0.0
 11
70.4070053100586
 21
39.4360218048096
 31
0.0
  0
LINE
  5
   5C5
  8
0
  6
CONTINUOUS
 62
   130
 10
66.1570124626158
 20
-26.5639781951904
 30
0.0
 11
70.4070053100586
 21
-26.5639781951904
 31
0.0
  0
LINE
  5
   5C6
  8
0
  6
CONTINUOUS
 62
   130
 10
66.1570124626158
 20
-32.5639781951904
 30
0.0
 11
70.4070053100586
 21
-32.5639781951904
 31
0.0
  0
LINE
  5
   5C7
  8
0
  6
CONTINUOUS
 62
   130
 10
66.1570124626158
 20
39.4360218048096
 30
0.0
 11
66.1570124626158
 21
45.4360218048096
 31
0.0
  0
LINE
  5
   5C8
  8
0
  6
CONTINUOUS
 62
   130
 10
66.1570124626158
 20
-32.5639781951904
 30
0.0
 11
66.1570124626158
 21
-26.5639781951904
 31
0.0
  0
LINE
  5
   5C9
  8
0
  6
CONTINUOUS
 62
   130
 10
71.1570053100586
 20
22.436012828391
 30
0.0
 11
71.1570053100586
 21
26.436014175415
 31
0.0
  0
LINE
  5
   5CA
  8
0
  6
CONTINUOUS
 62
   130
 10
71.1570053100586
 20
-26.9109297903315
 30
0.0
 11
71.1570053100586
 21
-9.56397031148276
 31
0.0
  0
LINE
  5
   5CB
  8
0
  6
CONTINUOUS
 62
   130
 10
71.407012462616
 20
18.2426853179932
 30
0.0
 11
71.407012462616
 21
22.436012828391
 31
0.0
  0
LINE
  5
   5CC
  8
0
  6
CONTINUOUS
 62
   130
 10
71.1570053100586
 20
24.2789100624938
 30
0.0
 11
71.1570053100586
 21
47.4360218048096
 31
0.0
  0
ARC
  5
   5CD
  8
0
  6
CONTINUOUS
 62
   130
 10
70.4070053100586
 20
46.1860218048096
 30
0.0
 40
0.75
 50
270.0
 51
360.0
  0
ARC
  5
   5CE
  8
0
  6
CONTINUOUS
 62
   130
 10
70.4070053100586
 20
38.6860218048096
 30
0.0
 40
0.75
 50
360.0
 51
450.0
  0
LINE
  5
   5CF
  8
0
  6
CONTINUOUS
 62
   130
 10
71.1570053100586
 20
-34.5639781951904
 30
0.0
 11
71.1570053100586
 21
-24.5639705657959
 31
0.0
  0
ARC
  5
   5D0
  8
0
  6
CONTINUOUS
 62
   130
 10
70.4070053100586
 20
-25.8139781951904
 30
0.0
 40
0.75
 50
270.0
 51
360.0
  0
ARC
  5
   5D1
  8
0
  6
CONTINUOUS
 62
   130
 10
70.4070053100586
 20
-33.3139781951904
 30
0.0
 40
0.75
 50
360.0
 51
450.0
  0
LINE
  5
   5D2
  8
0
  6
CONTINUOUS
 62
   130
 10
67.1570124626158
 20
26.436014175415
 30
0.0
 11
67.1570124626158
 21
28.436014175415
 31
0.0
  0
LINE
  5
   5D3
  8
0
  6
CONTINUOUS
 62
   130
 10
67.1570124626158
 20
-24.563970820109
 30
0.0
 11
67.1570124626158
 21
-15.433011525459
 31
0.0
  0
LINE
  5
   5D4
  8
0
  6
DASHDOT
 62
   130
 10
90.5570053100586
 20
23.886014175415
 30
0.0
 11
90.8070053100586
 21
23.886014175415
 31
0.0
  0
LINE
  5
   5D5
  8
0
  6
CONTINUOUS
 62
   130
 10
71.407012462616
 20
0.629355430603028
 30
0.0
 11
71.407012462616
 21
12.2426881790161
 31
0.0
  0
LINE
  5
   5D6
  8
0
  6
CONTINUOUS
 62
   130
 10
71.407012462616
 20
-9.56397031148276
 30
0.0
 11
71.407012462616
 21
-5.37064170837402
 31
0.0
  0
LINE
  5
   5D7
  8
0
  6
DASHDOT
 62
   130
 10
65.0261039091739
 20
-19.0689110565186
 30
0.0
 11
78.8190700758652
 21
-19.0689110565186
 31
0.0
  0
LINE
  5
   5D8
  8
0
  6
CONTINUOUS
 62
   130
 10
128.15699005127
 20
11.6860332489014
 30
0.0
 11
128.15699005127
 21
12.1860332489014
 31
0.0
  0
LINE
  5
   5D9
  8
0
  6
CONTINUOUS
 62
   130
 10
128.15699005127
 20
-11.3139667510986
 30
0.0
 11
128.15699005127
 21
-10.8139667510986
 31
0.0
  0
LINE
  5
   5DA
  8
0
  6
DASHDOT
 62
   130
 10
61.3507900706881
 20
31.936014175415
 30
0.0
 11
93.185609309647
 21
31.936014175415
 31
0.0
  0
LINE
  5
   5DB
  8
0
  6
CONTINUOUS
 62
   130
 10
91.1570053100586
 20
-33.4271512804013
 30
0.0
 11
91.1570053100586
 21
-24.2299561810182
 31
0.0
  0
LINE
  5
   5DC
  8
0
  6
CONTINUOUS
 62
   130
 10
70.157012462616
 20
12.7926867485046
 30
0.0
 11
70.157012462616
 21
17.6926867485046
 31
0.0
  0
LINE
  5
   5DD
  8
0
  6
CONTINUOUS
 62
   130
 10
69.757012462616
 20
12.7926867485046
 30
0.0
 11
69.757012462616
 21
17.6926867485046
 31
0.0
  0
LINE
  5
   5DE
  8
0
  6
CONTINUOUS
 62
   130
 10
68.257012462616
 20
13.2926867485046
 30
0.0
 11
68.257012462616
 21
17.1926867485046
 31
0.0
  0
LINE
  5
   5DF
  8
0
  6
CONTINUOUS
 62
   130
 10
66.4070053100586
 20
16.2426867485046
 30
0.0
 11
68.257012462616
 21
16.2426867485046
 31
0.0
  0
LINE
  5
   5E0
  8
0
  6
CONTINUOUS
 62
   130
 10
66.4070053100586
 20
14.2426867485046
 30
0.0
 11
68.257012462616
 21
14.2426867485046
 31
0.0
  0
LINE
  5
   5E1
  8
0
  6
CONTINUOUS
 62
   130
 10
71.157012462616
 20
12.2426881790161
 30
0.0
 11
71.157012462616
 21
14.2426867485046
 31
0.0
  0
LINE
  5
   5E2
  8
0
  6
CONTINUOUS
 62
   130
 10
68.257012462616
 20
17.1926867485046
 30
0.0
 11
69.757012462616
 21
17.1926867485046
 31
0.0
  0
LINE
  5
   5E3
  8
0
  6
CONTINUOUS
 62
   130
 10
68.257012462616
 20
13.2926867485046
 30
0.0
 11
69.757012462616
 21
13.2926867485046
 31
0.0
  0
LINE
  5
   5E4
  8
0
  6
CONTINUOUS
 62
   130
 10
69.757012462616
 20
17.6926867485046
 30
0.0
 11
70.157012462616
 21
17.6926867485046
 31
0.0
  0
LINE
  5
   5E5
  8
0
  6
CONTINUOUS
 62
   130
 10
69.757012462616
 20
12.7926867485046
 30
0.0
 11
70.157012462616
 21
12.7926867485046
 31
0.0
  0
LINE
  5
   5E6
  8
0
  6
CONTINUOUS
 62
   130
 10
68.257012462616
 20
16.2426867485046
 30
0.0
 11
69.757012462616
 21
16.2426867485046
 31
0.0
  0
LINE
  5
   5E7
  8
0
  6
CONTINUOUS
 62
   130
 10
68.257012462616
 20
14.2426867485046
 30
0.0
 11
69.757012462616
 21
14.2426867485046
 31
0.0
  0
LINE
  5
   5E8
  8
0
  6
CONTINUOUS
 62
   130
 10
66.1570053100586
 20
14.4926867485046
 30
0.0
 11
66.1570053100586
 21
15.9926867485046
 31
0.0
  0
LINE
  5
   5E9
  8
0
  6
CONTINUOUS
 62
   130
 10
66.1570053100586
 20
15.9926867485046
 30
0.0
 11
66.4070053100586
 21
16.2426867485046
 31
0.0
  0
LINE
  5
   5EA
  8
0
  6
CONTINUOUS
 62
   130
 10
66.1570053100586
 20
14.4926867485046
 30
0.0
 11
66.4070053100586
 21
14.2426867485046
 31
0.0
  0
LINE
  5
   5EB
  8
0
  6
CONTINUOUS
 62
   130
 10
66.4070053100586
 20
14.2426867485046
 30
0.0
 11
66.4070053100586
 21
16.2426867485046
 31
0.0
  0
LINE
  5
   5EC
  8
0
  6
CONTINUOUS
 62
   130
 10
68.257012462616
 20
-3.3706431388855
 30
0.0
 11
69.757012462616
 21
-3.3706431388855
 31
0.0
  0
LINE
  5
   5ED
  8
0
  6
CONTINUOUS
 62
   130
 10
68.257012462616
 20
-1.3706431388855
 30
0.0
 11
69.757012462616
 21
-1.3706431388855
 31
0.0
  0
LINE
  5
   5EE
  8
0
  6
CONTINUOUS
 62
   130
 10
68.257012462616
 20
-4.3206431388855
 30
0.0
 11
69.757012462616
 21
-4.3206431388855
 31
0.0
  0
LINE
  5
   5EF
  8
0
  6
CONTINUOUS
 62
   130
 10
68.257012462616
 20
-0.420643138885497
 30
0.0
 11
69.757012462616
 21
-0.420643138885497
 31
0.0
  0
LINE
  5
   5F0
  8
0
  6
CONTINUOUS
 62
   130
 10
66.4070053100586
 20
-3.3706431388855
 30
0.0
 11
68.257012462616
 21
-3.3706431388855
 31
0.0
  0
LINE
  5
   5F1
  8
0
  6
CONTINUOUS
 62
   130
 10
66.4070053100586
 20
-1.3706431388855
 30
0.0
 11
68.257012462616
 21
-1.3706431388855
 31
0.0
  0
LINE
  5
   5F2
  8
0
  6
CONTINUOUS
 62
   130
 10
70.157012462616
 20
-4.8206431388855
 30
0.0
 11
70.157012462616
 21
7.93568611145035E-2
 31
0.0
  0
LINE
  5
   5F3
  8
0
  6
CONTINUOUS
 62
   130
 10
69.757012462616
 20
-4.8206431388855
 30
0.0
 11
69.757012462616
 21
7.93568611145035E-2
 31
0.0
  0
LINE
  5
   5F4
  8
0
  6
CONTINUOUS
 62
   130
 10
69.757012462616
 20
-4.8206431388855
 30
0.0
 11
70.157012462616
 21
-4.8206431388855
 31
0.0
  0
LINE
  5
   5F5
  8
0
  6
CONTINUOUS
 62
   130
 10
69.757012462616
 20
7.93568611145035E-2
 30
0.0
 11
70.157012462616
 21
7.93568611145035E-2
 31
0.0
  0
LINE
  5
   5F6
  8
0
  6
CONTINUOUS
 62
   130
 10
68.257012462616
 20
-4.3206431388855
 30
0.0
 11
68.257012462616
 21
-0.420643138885497
 31
0.0
  0
LINE
  5
   5F7
  8
0
  6
CONTINUOUS
 62
   130
 10
66.4070053100586
 20
-3.3706431388855
 30
0.0
 11
66.4070053100586
 21
-1.3706431388855
 31
0.0
  0
LINE
  5
   5F8
  8
0
  6
CONTINUOUS
 62
   130
 10
66.1570053100586
 20
-3.1206431388855
 30
0.0
 11
66.1570053100586
 21
-1.6206431388855
 31
0.0
  0
LINE
  5
   5F9
  8
0
  6
CONTINUOUS
 62
   130
 10
66.4070053100586
 20
-3.3706431388855
 30
0.0
 11
66.4070053100586
 21
-1.3706431388855
 31
0.0
  0
LINE
  5
   5FA
  8
0
  6
CONTINUOUS
 62
   130
 10
66.4070053100586
 20
-3.3706431388855
 30
0.0
 11
66.4070053100586
 21
-1.3706431388855
 31
0.0
  0
LINE
  5
   5FB
  8
0
  6
CONTINUOUS
 62
   130
 10
66.1570053100586
 20
-3.1206431388855
 30
0.0
 11
66.4070053100586
 21
-3.37064313888549
 31
0.0
  0
LINE
  5
   5FC
  8
0
  6
CONTINUOUS
 62
   130
 10
66.1570053100586
 20
-3.1206431388855
 30
0.0
 11
66.4070053100586
 21
-3.37064313888549
 31
0.0
  0
LINE
  5
   5FD
  8
0
  6
CONTINUOUS
 62
   130
 10
66.1570053100586
 20
-1.62064313888549
 30
0.0
 11
66.4070053100586
 21
-1.37064313888549
 31
0.0
  0
LINE
  5
   5FE
  8
0
  6
CONTINUOUS
 62
   130
 10
66.4070053100586
 20
-3.1206431388855
 30
0.0
 11
68.257012462616
 21
-3.1206431388855
 31
0.0
  0
LINE
  5
   5FF
  8
0
  6
CONTINUOUS
 62
   130
 10
66.4070053100586
 20
-1.6206431388855
 30
0.0
 11
68.257012462616
 21
-1.6206431388855
 31
0.0
  0
LINE
  5
   600
  8
0
  6
CONTINUOUS
 62
   130
 10
71.157012462616
 20
-5.37064170837402
 30
0.0
 11
71.157012462616
 21
-3.3706431388855
 31
0.0
  0
LINE
  5
   601
  8
0
  6
CONTINUOUS
 62
   130
 10
66.4070053100586
 20
14.4926867485046
 30
0.0
 11
68.257012462616
 21
14.4926867485046
 31
0.0
  0
LINE
  5
   602
  8
0
  6
CONTINUOUS
 62
   130
 10
66.4070053100586
 20
15.9926867485046
 30
0.0
 11
68.257012462616
 21
15.9926867485046
 31
0.0
  0
LINE
  5
   603
  8
0
  6
CONTINUOUS
 62
   130
 10
66.1570124626158
 20
-33.097952259995
 30
0.0
 11
66.1570124626158
 21
49.6807605172001
 31
0.0
  0
LINE
  5
   604
  8
0
  6
CONTINUOUS
 62
   130
 10
65.1570124626158
 20
-34.3889939581367
 30
0.0
 11
65.1570124626158
 21
49.922215924656
 31
0.0
  0
LINE
  5
   605
  8
0
  6
DOT
 62
   130
 10
66.1570124626158
 20
-36.808716907581
 30
0.0
 11
66.1570124626158
 21
-8.73090238342771
 31
0.0
  0
LINE
  5
   606
  8
0
  6
CONTINUOUS
 62
   130
 10
128.15699005127
 20
12.9360332489014
 30
0.0
 11
128.15699005127
 21
24.4360332489014
 31
0.0
  0
LINE
  5
   607
  8
0
  6
DASHDOT
 62
   130
 10
66.1570124626158
 20
47.0905312176589
 30
0.0
 11
66.1570124626158
 21
62.1243222242466
 31
0.0
  0
LINE
  5
   608
  8
0
  6
CONTINUOUS
 62
   130
 10
72.3596894326191
 20
39.4360218048095
 30
0.0
 11
80.1570053100586
 21
39.4360218048095
 31
0.0
  0
LINE
  5
   609
  8
0
  6
CONTINUOUS
 62
   130
 10
72.6570053100586
 20
39.4360218048095
 30
0.0
 11
72.6570053100586
 21
45.4360218048095
 31
0.0
  0
LINE
  5
   60A
  8
0
  6
CONTINUOUS
 62
   130
 10
72.3596894326191
 20
45.4360218048095
 30
0.0
 11
73.6570053100586
 21
45.4360218048095
 31
0.0
  0
LINE
  5
   60B
  8
0
  6
CONTINUOUS
 62
   130
 10
72.6570053100586
 20
43.9360218048095
 30
0.0
 11
73.6570053100586
 21
43.9360218048095
 31
0.0
  0
LINE
  5
   60C
  8
0
  6
CONTINUOUS
 62
   130
 10
72.6570053100586
 20
40.9360218048095
 30
0.0
 11
73.6570053100586
 21
40.9360218048095
 31
0.0
  0
LINE
  5
   60D
  8
0
  6
CONTINUOUS
 62
   130
 10
81.4070053100586
 20
38.8610218048095
 30
0.0
 11
81.4070053100586
 21
45.1110218048095
 31
0.0
  0
LINE
  5
   60E
  8
0
  6
CONTINUOUS
 62
   130
 10
80.1570053100586
 20
38.8610218048095
 30
0.0
 11
80.1570053100586
 21
45.1110218048095
 31
0.0
  0
LINE
  5
   60F
  8
0
  6
CONTINUOUS
 62
   130
 10
80.1570053100586
 20
45.1110218048095
 30
0.0
 11
81.4070053100586
 21
45.1110218048095
 31
0.0
  0
ARC
  5
   610
  8
0
  6
CONTINUOUS
 62
   130
 10
79.1570053100586
 20
38.8610218048095
 30
0.0
 40
1.0
 50
270.0
 51
360.0
  0
ARC
  5
   611
  8
0
  6
CONTINUOUS
 62
   130
 10
79.1570053100586
 20
38.8610218048095
 30
0.0
 40
2.25
 50
270.0
 51
360.0
  0
LINE
  5
   612
  8
0
  6
CONTINUOUS
 62
   130
 10
72.3596894326191
 20
36.4551719420615
 30
0.0
 11
92.1570045789083
 21
36.4551719420615
 31
0.0
  0
LINE
  5
   613
  8
0
  6
CONTINUOUS
 62
   130
 10
72.3596894326191
 20
36.4551719420615
 30
0.0
 11
72.3596894326191
 21
47.4360218048096
 31
0.0
  0
LINE
  5
   614
  8
0
  6
CONTINUOUS
 62
   130
 10
73.6570053100586
 20
39.4360218048095
 30
0.0
 11
73.6570053100586
 21
46.7351950715322
 31
0.0
  0
LINE
  5
   615
  8
0
  6
CONTINUOUS
 62
   130
 10
80.1570053100586
 20
39.4360218048095
 30
0.0
 11
80.1570053100586
 21
46.7351950715322
 31
0.0
  0
LINE
  5
   616
  8
0
  6
CONTINUOUS
 62
   130
 10
72.6570053100586
 20
46.7351950715322
 30
0.0
 11
81.1570053100586
 21
46.7351950715322
 31
0.0
  0
LINE
  5
   617
  8
0
  6
CONTINUOUS
 62
   130
 10
81.1570053100586
 20
46.7351950715322
 30
0.0
 11
81.1570053100586
 21
55.6609572507121
 31
0.0
  0
LINE
  5
   618
  8
0
  6
CONTINUOUS
 62
   130
 10
72.6570053100586
 20
46.7351950715322
 30
0.0
 11
72.6570053100586
 21
55.6609572507121
 31
0.0
  0
LINE
  5
   619
  8
0
  6
CONTINUOUS
 62
   130
 10
72.2942742032896
 20
55.6609572507121
 30
0.0
 11
81.5379742513853
 21
55.6609572507121
 31
0.0
  0
LINE
  5
   61A
  8
0
  6
CONTINUOUS
 62
   130
 10
72.1858849182706
 20
-42.7889136410929
 30
0.0
 11
81.5736204592431
 21
-42.7889136410929
 31
0.0
  0
LINE
  5
   61B
  8
0
  6
CONTINUOUS
 62
   130
 10
72.6570053100586
 20
-42.7889136410929
 30
0.0
 11
72.6570053100586
 21
-34.5639781951904
 31
0.0
  0
LINE
  5
   61C
  8
0
  6
CONTINUOUS
 62
   130
 10
81.1570053100586
 20
-42.7889136410929
 30
0.0
 11
81.1570053100586
 21
-34.5639781951904
 31
0.0
  0
LINE
  5
   61D
  8
0
  6
CONTINUOUS
 62
   130
 10
66.6570124626158
 20
26.436014175415
 30
0.0
 11
66.6570124626158
 21
37.436014175415
 31
0.0
  0
LINE
  5
   61E
  8
0
  6
CONTINUOUS
 62
   130
 10
66.6570124626158
 20
-24.5639705657959
 30
0.0
 11
66.6570124626158
 21
-13.5639703114828
 31
0.0
  0
LINE
  5
   61F
  8
0
  6
CONTINUOUS
 62
   130
 10
81.875993101143
 20
45.4360218048095
 30
0.0
 11
81.875993101143
 21
47.4360218048096
 31
0.0
  0
LINE
  5
   620
  8
0
  6
CONTINUOUS
 62
   130
 10
81.1570053100586
 20
47.4360218048096
 30
0.0
 11
94.6570053100586
 21
47.4360218048096
 31
0.0
  0
LINE
  5
   621
  8
0
  6
CONTINUOUS
 62
   130
 10
80.1570053100586
 20
45.4360218048095
 30
0.0
 11
91.1570053100586
 21
45.4360218048095
 31
0.0
  0
LINE
  5
   622
  8
0
  6
CONTINUOUS
 62
   130
 10
81.4070053100586
 20
39.4360218048095
 30
0.0
 11
83.4070053100586
 21
39.4360218048095
 31
0.0
  0
LINE
  5
   623
  8
0
  6
CONTINUOUS
 62
   130
 10
72.3596894326191
 20
37.8610218048095
 30
0.0
 11
79.1570053100586
 21
37.8610218048095
 31
0.0
  0
INSERT
  5
   624
  8
0
  6
CONTINUOUS
 62
     2
  2
*HATCH5
 10
105.106994628906
 20
-3.71391868591309
 30
0.0
 41
0.5
 42
0.5
 43
0.5
  0
LINE
  5
   625
  8
0
  6
CONTINUOUS
 62
   130
 10
79.1217291296485
 20
39.4360218048095
 30
0.0
 11
80.1570053100586
 21
43.2997251099658
 31
0.0
  0
LINE
  5
   626
  8
0
  6
CONTINUOUS
 62
   130
 10
78.0864529492385
 20
39.4360218048095
 30
0.0
 11
80.0422605314716
 21
46.7351950715322
 31
0.0
  0
LINE
  5
   627
  8
0
  6
CONTINUOUS
 62
   130
 10
77.0511767688284
 20
39.4360218048095
 30
0.0
 11
79.0069843510615
 21
46.7351950715322
 31
0.0
  0
LINE
  5
   628
  8
0
  6
CONTINUOUS
 62
   130
 10
76.0159005884183
 20
39.4360218048095
 30
0.0
 11
77.9717081706515
 21
46.7351950715322
 31
0.0
  0
LINE
  5
   629
  8
0
  6
CONTINUOUS
 62
   130
 10
74.9806244080082
 20
39.4360218048095
 30
0.0
 11
76.9364319902414
 21
46.7351950715322
 31
0.0
  0
LINE
  5
   62A
  8
0
  6
CONTINUOUS
 62
   130
 10
73.9453482275981
 20
39.4360218048095
 30
0.0
 11
75.9011558098313
 21
46.7351950715322
 31
0.0
  0
LINE
  5
   62B
  8
0
  6
CONTINUOUS
 62
   130
 10
73.6570053100586
 20
42.2236146917057
 30
0.0
 11
74.8658796294212
 21
46.7351950715322
 31
0.0
  0
LINE
  5
   62C
  8
0
  6
DASHDOT
 62
   130
 10
128.15699005127
 20
-33.8154148882972
 30
0.0
 11
128.15699005127
 21
50.1549923310963
 31
0.0
  0
LINE
  5
   62D
  8
0
  6
CONTINUOUS
 62
   130
 10
92.1570045789084
 20
25.6860256195068
 30
0.0
 11
93.4070045789084
 21
24.4360256195068
 31
0.0
  0
LINE
  5
   62E
  8
0
  6
CONTINUOUS
 62
   130
 10
91.1570045789084
 20
25.6860256195068
 30
0.0
 11
91.1570045789084
 21
36.4360179901123
 31
0.0
  0
LINE
  5
   62F
  8
0
  6
CONTINUOUS
 62
   130
 10
129.656997799873
 20
-2.42379462331527
 30
0.0
 11
138.254814997731
 21
-5.02190859226598
 31
0.0
  0
LINE
  5
   630
  8
0
  6
CONTINUOUS
 62
   130
 10
138.254842062955
 20
-5.02191671229447
 30
0.0
 11
138.361928654965
 21
-5.08711863688184
 31
0.0
  0
LINE
  5
   631
  8
0
  6
CONTINUOUS
 62
   130
 10
138.361909597802
 20
-5.08711161576975
 30
0.0
 11
138.423878658619
 21
-5.19610449526518
 31
0.0
  0
LINE
  5
   632
  8
0
  6
CONTINUOUS
 62
   130
 10
138.423888973722
 20
-5.19611080771398
 30
0.0
 11
138.425151771938
 21
-5.32148099785665
 31
0.0
  0
LINE
  5
   633
  8
0
  6
CONTINUOUS
 62
   130
 10
138.060685570293
 20
-6.78911026819701
 30
0.0
 11
138.425147141421
 21
-5.3214768111312
 31
0.0
  0
LINE
  5
   634
  8
0
  6
CONTINUOUS
 62
   130
 10
137.998056924553
 20
-6.9023511864391
 30
0.0
 11
138.060688651885
 21
-6.78910784979238
 31
0.0
  0
LINE
  5
   635
  8
0
  6
CONTINUOUS
 62
   130
 10
137.887196763556
 20
-6.96911029137397
 30
0.0
 11
137.998060129674
 21
-6.9023551295129
 31
0.0
  0
LINE
  5
   636
  8
0
  6
CONTINUOUS
 62
   130
 10
137.757820697264
 20
-6.97149070088115
 30
0.0
 11
137.887208346601
 21
-6.96911029901801
 31
0.0
  0
LINE
  5
   637
  8
0
  6
CONTINUOUS
 62
   130
 10
129.656997799873
 20
-4.9598364448889
 30
0.0
 11
137.757807885739
 21
-6.97149015563124
 31
0.0
  0
LINE
  5
   638
  8
0
  6
CONTINUOUS
 62
   130
 10
93.4070045789084
 20
-1.91397438049317
 30
0.0
 11
93.4070045789084
 21
24.4360256195068
 31
0.0
  0
LINE
  5
   639
  8
0
  6
CONTINUOUS
 62
   130
 10
92.1570045789084
 20
-3.16397438049317
 30
0.0
 11
93.4070045789084
 21
-1.91397438049317
 31
0.0
  0
LINE
  5
   63A
  8
0
  6
CONTINUOUS
 62
   130
 10
91.1570045789084
 20
-23.5639743804932
 30
0.0
 11
91.1570045789084
 21
-3.16397438049317
 31
0.0
  0
LINE
  5
   63B
  8
0
  6
CONTINUOUS
 62
   130
 10
91.1570043563843
 20
-22.0639743208303
 30
0.0
 11
91.1570043563843
 21
36.4360179901123
 31
0.0
  0
LINE
  5
   63C
  8
0
  6
CONTINUOUS
 62
   130
 10
127.156990170479
 20
-15.0639743804932
 30
0.0
 11
127.156990170479
 21
-10.8139667510986
 31
0.0
  0
LINE
  5
   63D
  8
0
  6
CONTINUOUS
 62
   130
 10
127.156990008151
 20
-10.8139667510986
 30
0.0
 11
129.656997799873
 21
-10.8139667510986
 31
0.0
  0
LINE
  5
   63E
  8
0
  6
CONTINUOUS
 62
   130
 10
127.156997637546
 20
11.6860332489014
 30
0.0
 11
129.656997799873
 21
11.6860332489014
 31
0.0
  0
LINE
  5
   63F
  8
0
  6
CONTINUOUS
 62
   130
 10
127.156997799873
 20
11.6860332489014
 30
0.0
 11
127.156997799873
 21
27.9360256195068
 31
0.0
  0
LINE
  5
   640
  8
0
  6
CONTINUOUS
 62
   130
 10
129.656997799873
 20
-10.8139667510986
 30
0.0
 11
129.656997799873
 21
11.6860332489014
 31
0.0
  0
LINE
  5
   641
  8
0
  6
CONTINUOUS
 62
   130
 10
126.656990170479
 20
-16.3139743804932
 30
0.0
 11
126.656990170479
 21
-15.5639743804932
 31
0.0
  0
LINE
  5
   642
  8
0
  6
CONTINUOUS
 62
   130
 10
123.906990170479
 20
-16.3139743804932
 30
0.0
 11
125.906990170479
 21
-16.3139743804932
 31
0.0
  0
LINE
  5
   643
  8
0
  6
CONTINUOUS
 62
   130
 10
123.906990170479
 20
-15.5639743804932
 30
0.0
 11
126.656990170479
 21
-15.5639743804932
 31
0.0
  0
LINE
  5
   644
  8
0
  6
CONTINUOUS
 62
   130
 10
123.906990170479
 20
28.4360256195068
 30
0.0
 11
126.656997799873
 21
28.4360256195068
 31
0.0
  0
LINE
  5
   645
  8
0
  6
CONTINUOUS
 62
   130
 10
126.656990170479
 20
28.4360256195068
 30
0.0
 11
126.656990170479
 21
29.1860256195068
 31
0.0
  0
LINE
  5
   646
  8
0
  6
CONTINUOUS
 62
   130
 10
123.906990170479
 20
29.1860256195068
 30
0.0
 11
125.906990170479
 21
29.1860256195068
 31
0.0
  0
LINE
  5
   647
  8
0
  6
CONTINUOUS
 62
   130
 10
92.9070019924996
 20
-2.41397696690192
 30
0.0
 11
114.906994669053
 21
-2.41397696690192
 31
0.0
  0
LINE
  5
   648
  8
0
  6
CONTINUOUS
 62
   130
 10
123.906990170479
 20
28.4360256195068
 30
0.0
 11
123.906990170479
 21
33.9360247797354
 31
0.0
  0
LINE
  5
   649
  8
0
  6
CONTINUOUS
 62
   130
 10
92.1570045789084
 20
34.4360247797354
 30
0.0
 11
123.406990170479
 21
34.4360247797354
 31
0.0
  0
ARC
  5
   64A
  8
0
  6
CONTINUOUS
 62
   130
 10
123.406990170479
 20
33.9360247797354
 30
0.0
 40
0.5
 50
0.0
 51
90.0
  0
ARC
  5
   64B
  8
0
  6
CONTINUOUS
 62
   130
 10
126.656997799873
 20
27.9360256195068
 30
0.0
 40
0.5
 50
0.0
 51
90.0
  0
LINE
  5
   64C
  8
0
  6
CONTINUOUS
 62
   130
 10
123.906990170479
 20
-21.0639735407217
 30
0.0
 11
123.906990170479
 21
-15.5639743804932
 31
0.0
  0
ARC
  5
   64D
  8
0
  6
CONTINUOUS
 62
   130
 10
126.656990170479
 20
-15.0639743804932
 30
0.0
 40
0.5
 50
270.0
 51
360.0
  0
LINE
  5
   64E
  8
0
  6
CONTINUOUS
 62
   130
 10
91.1570043563843
 20
-21.5639735407217
 30
0.0
 11
123.406990170479
 21
-21.5639735407217
 31
0.0
  0
LINE
  5
   64F
  8
0
  6
CONTINUOUS
 62
   130
 10
93.4070045789084
 20
2.58602303309808
 30
0.0
 11
114.906994669053
 21
2.58602303309808
 31
0.0
  0
LINE
  5
   650
  8
0
  6
CONTINUOUS
 62
   130
 10
125.156997799873
 20
29.1860256195068
 30
0.0
 11
127.156997799873
 21
29.1860256195068
 31
0.0
  0
LINE
  5
   651
  8
0
  6
CONTINUOUS
 62
   130
 10
125.156997799873
 20
-16.3139743804932
 30
0.0
 11
127.156997799873
 21
-16.3139743804932
 31
0.0
  0
LINE
  5
   652
  8
0
  6
CONTINUOUS
 62
   130
 10
114.906994669053
 20
-22.5639820098877
 30
0.0
 11
114.906994669053
 21
35.4360256195068
 31
0.0
  0
ARC
  5
   653
  8
0
  6
CONTINUOUS
 62
   130
 10
123.406990170479
 20
-21.0639735407217
 30
0.0
 40
0.5
 50
270.0
 51
360.0
  0
LINE
  5
   654
  8
0
  6
CONTINUOUS
 62
   130
 10
92.1570045789083
 20
-25.0639820098877
 30
0.0
 11
92.1570045789083
 21
37.9360256195068
 31
0.0
  0
LINE
  5
   655
  8
0
  6
CONTINUOUS
 62
   130
 10
92.1570045789083
 20
37.4360256195068
 30
0.0
 11
95.1570053100586
 21
37.4360256195068
 31
0.0
  0
LINE
  5
   656
  8
0
  6
CONTINUOUS
 62
   130
 10
92.1570045789083
 20
37.4360256195068
 30
0.0
 11
126.656997799873
 21
37.4360256195068
 31
0.0
  0
LINE
  5
   657
  8
0
  6
CONTINUOUS
 62
   130
 10
127.156997799873
 20
29.1860256195068
 30
0.0
 11
127.156997799873
 21
36.9360256195068
 31
0.0
  0
ARC
  5
   658
  8
0
  6
CONTINUOUS
 62
   130
 10
126.656997799873
 20
36.9360256195068
 30
0.0
 40
0.5
 50
0.0
 51
90.0
  0
LINE
  5
   659
  8
0
  6
CONTINUOUS
 62
   130
 10
92.1570045789083
 20
35.4360256195068
 30
0.0
 11
125.156997799873
 21
35.4360256195068
 31
0.0
  0
LINE
  5
   65A
  8
0
  6
CONTINUOUS
 62
   130
 10
125.156997799873
 20
29.1860256195068
 30
0.0
 11
125.156997799873
 21
35.4360256195068
 31
0.0
  0
LINE
  5
   65B
  8
0
  6
CONTINUOUS
 62
   130
 10
92.1570045789083
 20
-24.5639820098877
 30
0.0
 11
126.656997799873
 21
-24.5639820098877
 31
0.0
  0
ARC
  5
   65C
  8
0
  6
CONTINUOUS
 62
   130
 10
126.656997799873
 20
-24.0639820098877
 30
0.0
 40
0.5
 50
270.0
 51
360.0
  0
LINE
  5
   65D
  8
0
  6
CONTINUOUS
 62
   130
 10
127.156997799873
 20
-24.0639820098877
 30
0.0
 11
127.156997799873
 21
-16.3139820098877
 31
0.0
  0
LINE
  5
   65E
  8
0
  6
CONTINUOUS
 62
   130
 10
125.156997799873
 20
-22.5639820098877
 30
0.0
 11
125.156997799873
 21
-16.3139820098877
 31
0.0
  0
LINE
  5
   65F
  8
0
  6
CONTINUOUS
 62
   130
 10
92.1570045789083
 20
-22.5639820098877
 30
0.0
 11
125.156997799873
 21
-22.5639820098877
 31
0.0
  0
LINE
  5
   660
  8
0
  6
DASHDOT
 62
   130
 10
58.0834900605951
 20
0.436033248901392
 30
0.0
 11
148.85648222221
 21
0.436033248901392
 31
0.0
  0
LINE
  5
   661
  8
0
  6
DASHDOT
 62
   130
 10
118.300685731241
 20
31.4310758479898
 30
0.0
 11
125.399429369472
 21
31.431081548949
 31
0.0
  0
LINE
  5
   662
  8
0
  6
CONTINUOUS
 62
   130
 10
129.65699005127
 20
-23.5639667510986
 30
0.0
 11
129.65699005127
 21
-10.8139667510986
 31
0.0
  0
LINE
  5
   663
  8
0
  6
CONTINUOUS
 62
   130
 10
127.40699005127
 20
12.1860332489014
 30
0.0
 11
128.15699005127
 21
12.1860332489014
 31
0.0
  0
LINE
  5
   664
  8
0
  6
CONTINUOUS
 62
   130
 10
127.40699005127
 20
12.9360332489014
 30
0.0
 11
128.15699005127
 21
12.9360332489014
 31
0.0
  0
LINE
  5
   665
  8
0
  6
CONTINUOUS
 62
   130
 10
127.40699005127
 20
12.1860332489014
 30
0.0
 11
127.40699005127
 21
12.9360332489014
 31
0.0
  0
LINE
  5
   666
  8
0
  6
CONTINUOUS
 62
   130
 10
128.15699005127
 20
24.4360332489014
 30
0.0
 11
129.65699005127
 21
24.4360332489014
 31
0.0
  0
LINE
  5
   667
  8
0
  6
CONTINUOUS
 62
   130
 10
128.15699005127
 20
-23.5639667510986
 30
0.0
 11
129.65699005127
 21
-23.5639667510986
 31
0.0
  0
LINE
  5
   668
  8
0
  6
CONTINUOUS
 62
   130
 10
128.15699005127
 20
-23.5639667510986
 30
0.0
 11
128.15699005127
 21
-12.0639667510986
 31
0.0
  0
LINE
  5
   669
  8
0
  6
CONTINUOUS
 62
   130
 10
127.40699005127
 20
-12.0639667510986
 30
0.0
 11
128.15699005127
 21
-12.0639667510986
 31
0.0
  0
LINE
  5
   66A
  8
0
  6
CONTINUOUS
 62
   130
 10
127.40699005127
 20
-12.0639667510986
 30
0.0
 11
127.40699005127
 21
-11.3139667510986
 31
0.0
  0
LINE
  5
   66B
  8
0
  6
CONTINUOUS
 62
   130
 10
129.65699005127
 20
11.6860332489014
 30
0.0
 11
129.65699005127
 21
24.4360332489014
 31
0.0
  0
LINE
  5
   66C
  8
0
  6
CONTINUOUS
 62
   130
 10
127.15699005127
 20
17.1860332489014
 30
0.0
 11
128.15699005127
 21
17.1860332489014
 31
0.0
  0
LINE
  5
   66D
  8
0
  6
CONTINUOUS
 62
   130
 10
127.15699005127
 20
15.6860332489014
 30
0.0
 11
128.15699005127
 21
15.6860332489014
 31
0.0
  0
LINE
  5
   66E
  8
0
  6
CONTINUOUS
 62
   130
 10
127.15699005127
 20
15.3110332489014
 30
0.0
 11
127.15699005127
 21
17.5610332489014
 31
0.0
  0
LINE
  5
   66F
  8
0
  6
CONTINUOUS
 62
   130
 10
127.15699005127
 20
-16.6889667510986
 30
0.0
 11
127.15699005127
 21
-14.4389667510986
 31
0.0
  0
LINE
  5
   670
  8
0
  6
CONTINUOUS
 62
   130
 10
127.15699005127
 20
-16.3139667510986
 30
0.0
 11
128.15699005127
 21
-16.3139667510986
 31
0.0
  0
LINE
  5
   671
  8
0
  6
CONTINUOUS
 62
   130
 10
127.15699005127
 20
-14.8139667510986
 30
0.0
 11
128.15699005127
 21
-14.8139667510986
 31
0.0
  0
LINE
  5
   672
  8
0
  6
CONTINUOUS
 62
   130
 10
128.15699005127
 20
12.1860332489014
 30
0.0
 11
129.65699005127
 21
12.1860332489014
 31
0.0
  0
LINE
  5
   673
  8
0
  6
CONTINUOUS
 62
   130
 10
127.40699005127
 20
-11.3139667510986
 30
0.0
 11
129.65699005127
 21
-11.3139667510986
 31
0.0
  0
INSERT
  5
   674
  8
0
  6
CONTINUOUS
 62
     2
  2
*HATCH6
 10
105.106994628906
 20
-3.71391868591309
 30
0.0
 41
0.5
 42
0.5
 43
0.5
  0
INSERT
  5
   675
  8
0
  6
CONTINUOUS
 62
     2
  2
*HATCH7
 10
105.106994628906
 20
-3.71391868591309
 30
0.0
 41
0.5
 42
0.5
 43
0.5
  0
LINE
  5
   676
  8
0
  6
DASHDOT
 62
   130
 10
127.40699005127
 20
-34.0815508018459
 30
0.0
 11
127.40699005127
 21
50.4166017498791
 31
0.0
  0
LINE
  5
   677
  8
0
  6
DASHDOT
 62
   130
 10
138.657004578908
 20
-8.10842760200937
 30
0.0
 11
138.657004578908
 21
-4.38428529295736
 31
0.0
  0
INSERT
  5
   678
  8
0
  6
CONTINUOUS
 62
     2
  2
*HATCH8
 10
105.106994628906
 20
-3.71391868591309
 30
0.0
 41
0.5
 42
0.5
 43
0.5
  0
CIRCLE
  5
   679
  8
0
  6
CONTINUOUS
 62
   130
 10
89.7505991418231
 20
73.5197500135205
 30
0.0
 40
1.5
  0
INSERT
  5
   67A
  8
0
  6
CONTINUOUS
 62
     2
  2
*HATCH9
 10
105.106994628906
 20
-3.71391868591309
 30
0.0
 41
0.5
 42
0.5
 43
0.5
  0
LINE
  5
   67B
  8
0
  6
CONTINUOUS
 62
   130
 10
126.906997799873
 20
37.1860256195068
 30
0.0
 11
128.656997799873
 21
37.1860256195068
 31
0.0
  0
LINE
  5
   67C
  8
0
  6
CONTINUOUS
 62
   130
 10
126.906997799873
 20
34.6860256195068
 30
0.0
 11
128.656997799873
 21
34.6860256195068
 31
0.0
  0
LINE
  5
   67D
  8
0
  6
CONTINUOUS
 62
   130
 10
128.906997799873
 20
34.9360256195068
 30
0.0
 11
128.906997799873
 21
36.9360256195068
 31
0.0
  0
CIRCLE
  5
   67E
  8
0
  6
CONTINUOUS
 62
   130
 10
127.906997799873
 20
35.9360256195068
 30
0.0
 40
0.375
  0
LINE
  5
   67F
  8
0
  6
CONTINUOUS
 62
   130
 10
128.656997799873
 20
37.1860256195068
 30
0.0
 11
128.906997799873
 21
36.9360256195068
 31
0.0
  0
LINE
  5
   680
  8
0
  6
CONTINUOUS
 62
   130
 10
128.656997799873
 20
34.6860256195068
 30
0.0
 11
128.906997799873
 21
34.9360256195068
 31
0.0
  0
LINE
  5
   681
  8
0
  6
CONTINUOUS
 62
   130
 10
128.656997799873
 20
34.6860256195068
 30
0.0
 11
128.656997799873
 21
37.1860256195068
 31
0.0
  0
LINE
  5
   682
  8
0
  6
CONTINUOUS
 62
   130
 10
126.906997799873
 20
-24.3139743804932
 30
0.0
 11
128.656997799873
 21
-24.3139743804932
 31
0.0
  0
LINE
  5
   683
  8
0
  6
CONTINUOUS
 62
   130
 10
128.656997799873
 20
-24.3139743804932
 30
0.0
 11
128.656997799873
 21
-21.8139743804932
 31
0.0
  0
LINE
  5
   684
  8
0
  6
CONTINUOUS
 62
   130
 10
126.906997799873
 20
-21.8139743804932
 30
0.0
 11
128.656997799873
 21
-21.8139743804932
 31
0.0
  0
LINE
  5
   685
  8
0
  6
CONTINUOUS
 62
   130
 10
128.656997799873
 20
-24.3139743804932
 30
0.0
 11
128.906997799873
 21
-24.0639743804932
 31
0.0
  0
LINE
  5
   686
  8
0
  6
CONTINUOUS
 62
   130
 10
128.906997799873
 20
-24.0639743804932
 30
0.0
 11
128.906997799873
 21
-22.0639743804932
 31
0.0
  0
LINE
  5
   687
  8
0
  6
CONTINUOUS
 62
   130
 10
128.656997799873
 20
-21.8139743804932
 30
0.0
 11
128.906997799873
 21
-22.0639743804932
 31
0.0
  0
CIRCLE
  5
   688
  8
0
  6
CONTINUOUS
 62
   130
 10
127.906997799873
 20
-23.0639743804932
 30
0.0
 40
0.375
  0
LINE
  5
   689
  8
0
  6
CONTINUOUS
 62
   130
 10
91.1570053100586
 20
45.228779699542
 30
0.0
 11
91.1570053100586
 21
47.4360218048096
 31
0.0
  0
LINE
  5
   68A
  8
0
  6
CONTINUOUS
 62
   130
 10
71.1570053100586
 20
22.436012828391
 30
0.0
 11
71.407012462616
 21
22.436012828391
 31
0.0
  0
TEXT
  5
   68B
  8
0
  6
CONTINUOUS
 62
     2
 10
149.944257748113
 20
-1.02748695599914
 30
0.0
 40
3.00000002980232
  1
X
 41
0.983333351877
 11
149.944257748113
 21
0.472513058902019
 31
0.0
 73
     2
  0
INSERT
  5
   68C
  8
0
  6
CONTINUOUS
 62
     3
  2
*UDIM27
 10
0.0
 20
0.0
 30
0.0
  0
INSERT
  5
   68D
  8
0
  6
CONTINUOUS
 62
     3
  2
*UDIM28
 10
0.0
 20
0.0
 30
0.0
  0
INSERT
  5
   68E
  8
0
  6
CONTINUOUS
 62
     3
  2
*UDIM29
 10
0.0
 20
0.0
 30
0.0
  0
INSERT
  5
   68F
  8
0
  6
CONTINUOUS
 62
     3
  2
*UDIM30
 10
0.0
 20
0.0
 30
0.0
  0
INSERT
  5
   690
  8
0
  6
CONTINUOUS
 62
     3
  2
*UDIM31
 10
0.0
 20
0.0
 30
0.0
  0
INSERT
  5
   691
  8
0
  6
CONTINUOUS
 62
     3
  2
*UDIM32
 10
0.0
 20
0.0
 30
0.0
  0
INSERT
  5
   692
  8
0
  6
CONTINUOUS
 62
     3
  2
*UDIM33
 10
0.0
 20
0.0
 30
0.0
  0
TEXT
  5
   693
  8
0
  6
CONTINUOUS
 62
     2
 10
56.2937743365765
 20
-1.06439210474491
 30
0.0
 40
3.00000002980232
  1
X
 41
0.983333351877
 72
     2
 11
58.4937744140625
 21
0.43560791015625
 31
0.0
 73
     2
  0
TEXT
  5
   694
  8
0
  6
CONTINUOUS
 62
     2
 10
135.349182128906
 20
71.5403079539538
 30
0.0
 40
2.00000008940697
  1
127mm.CON VITI SIGILLABILI
 41
0.625
 11
135.349182128906
 21
72.5403079986572
 31
0.0
 73
     2
  0
TEXT
  5
   695
  8
0
  6
CONTINUOUS
 62
     2
 10
135.349182128906
 20
68.5403079539537
 30
0.0
 40
2.00000008940697
  1
127mm.WITH SCREWS TO SEAL
 41
0.625
 11
135.349182128906
 21
69.5403079986572
 31
0.0
 73
     2
  0
INSERT
  5
   696
  8
0
  6
CONTINUOUS
 62
     3
  2
*UDIM34
 10
0.0
 20
0.0
 30
0.0
  0
INSERT
  5
   697
  8
0
  6
CONTINUOUS
 62
     3
  2
*UDIM35
 10
0.0
 20
0.0
 30
0.0
  0
INSERT
  5
   698
  8
0
  6
CONTINUOUS
 62
     3
  2
*UDIM36
 10
0.0
 20
0.0
 30
0.0
  0
INSERT
  5
   699
  8
0
  6
CONTINUOUS
 62
     3
  2
*UDIM37
 10
0.0
 20
0.0
 30
0.0
  0
TEXT
  5
   69A
  8
0
  6
CONTINUOUS
 62
     7
 10
140.11449784408
 20
53.163619116395
 30
0.0
 40
3.5
  1
:
 41
0.933333333333334
 72
     1
 11
141.397831177413
 21
54.913619116395
 31
0.0
 73
     2
  0
ENDSEC
  0
EOF
